  0
SECTION
  2
HEADER
999
MacDraft 5.0\0
  9
$ACADVER
  1
AC1006
  9
$CLAYER
  8
LAYER-1
  9
$EXTMIN
 10
0.000000
 20
0.000000
  9
$EXTMAX
 10
5.936269
 20
8.582137
  9
$FASTZOOM
 70
0
  9
$FILLMODE
 70
1
  0
ENDSEC
  0
SECTION
  2
TABLES
  0
TABLE
  2
LTYPE
 70
16
  0
LTYPE
  2
CONTINUOUS
 70
64
  3
Solid Line
 72
65
 73
0
 40
0.000000
  0
LTYPE
  2
LTYPE01
 70
64
  3
CUSTOM
 72
65
 73
2
 40
0.076923
 49
0.057692
 49
-0.019231
  0
LTYPE
  2
LTYPE02
 70
64
  3
CUSTOM
 72
65
 73
2
 40
0.134615
 49
0.115385
 49
-0.019231
  0
LTYPE
  2
LTYPE03
 70
64
  3
CUSTOM
 72
65
 73
2
 40
0.259615
 49
0.230769
 49
-0.028846
  0
LTYPE
  2
LTYPE04
 70
64
  3
CUSTOM
 72
65
 73
2
 40
0.500000
 49
0.461538
 49
-0.038462
  0
LTYPE
  2
LTYPE05
 70
64
  3
CUSTOM
 72
65
 73
4
 40
0.105769
 49
0.057692
 49
-0.019231
 49
0.009615
 49
-0.019231
  0
LTYPE
  2
LTYPE06
 70
64
  3
CUSTOM
 72
65
 73
4
 40
0.163462
 49
0.115385
 49
-0.019231
 49
0.009615
 49
-0.019231
  0
LTYPE
  2
LTYPE07
 70
64
  3
CUSTOM
 72
65
 73
4
 40
0.307692
 49
0.230769
 49
-0.028846
 49
0.019231
 49
-0.028846
  0
LTYPE
  2
LTYPE08
 70
64
  3
CUSTOM
 72
65
 73
4
 40
0.557692
 49
0.461538
 49
-0.038462
 49
0.019231
 49
-0.038462
  0
LTYPE
  2
LTYPE09
 70
64
  3
CUSTOM
 72
65
 73
6
 40
0.134615
 49
0.057692
 49
-0.019231
 49
0.009615
 49
-0.019231
 49
0.009615
 49
-0.019231
  0
LTYPE
  2
LTYPE10
 70
64
  3
CUSTOM
 72
65
 73
6
 40
0.192308
 49
0.115385
 49
-0.019231
 49
0.009615
 49
-0.019231
 49
0.009615
 49
-0.019231
  0
LTYPE
  2
LTYPE11
 70
64
  3
CUSTOM
 72
65
 73
6
 40
0.346154
 49
0.230769
 49
-0.028846
 49
0.019231
 49
-0.019231
 49
0.019231
 49
-0.028846
  0
LTYPE
  2
LTYPE12
 70
64
  3
CUSTOM
 72
65
 73
6
 40
0.596154
 49
0.461538
 49
-0.038462
 49
0.019231
 49
-0.019231
 49
0.019231
 49
-0.038462
  0
LTYPE
  2
LTYPE13
 70
64
  3
CUSTOM
 72
65
 73
8
 40
0.221154
 49
0.115385
 49
-0.019231
 49
0.009615
 49
-0.019231
 49
0.009615
 49
-0.019231
 49
0.009615
 49
-0.019231
  0
LTYPE
  2
LTYPE14
 70
64
  3
CUSTOM
 72
65
 73
8
 40
0.384615
 49
0.230769
 49
-0.028846
 49
0.019231
 49
-0.019231
 49
0.019231
 49
-0.019231
 49
0.019231
 49
-0.028846
  0
LTYPE
  2
LTYPE15
 70
64
  3
CUSTOM
 72
65
 73
8
 40
0.653846
 49
0.461538
 49
-0.038462
 49
0.019231
 49
-0.028846
 49
0.019231
 49
-0.028846
 49
0.019231
 49
-0.038462
  0
ENDTAB
  0
TABLE
  2
LAYER
 70
1
  0
LAYER
  2
LAYER-1
 70
0
 62
7
  6
CONTINUOUS
  0
ENDTAB
  0
ENDSEC
  0
SECTION
  2
BLOCKS
  0
ENDSEC
  0
SECTION
  2
ENTITIES
  0
POLYLINE
  8
LAYER-1
 66
  1
 70
  1
 62
  7
  0
VERTEX
  8
LAYER-1
 10
0.004808
 20
3.923467
 30
0.000000
  0
VERTEX
  8
LAYER-1
 10
5.251745
 20
3.923467
 30
0.000000
  0
VERTEX
  8
LAYER-1
 10
5.251745
 20
3.563366
 30
0.000000
  0
VERTEX
  8
LAYER-1
 10
0.004808
 20
3.563366
 30
0.000000
  0
SEQEND
  8
LAYER-1
  0
POLYLINE
  8
LAYER-1
 66
  1
 70
  1
 62
  7
  0
VERTEX
  8
LAYER-1
 10
0.004808
 20
3.563366
 30
0.000000
  0
VERTEX
  8
LAYER-1
 10
5.242261
 20
3.563366
 30
0.000000
  0
VERTEX
  8
LAYER-1
 10
5.242261
 20
0.907056
 30
0.000000
  0
VERTEX
  8
LAYER-1
 10
0.004808
 20
0.907056
 30
0.000000
  0
SEQEND
  8
LAYER-1
  0
POLYLINE
  8
LAYER-1
 66
  1
 70
  1
 62
  7
  0
VERTEX
  8
LAYER-1
 10
2.179680
 20
3.922160
 30
0.000000
  0
VERTEX
  8
LAYER-1
 10
3.049943
 20
3.922160
 30
0.000000
  0
VERTEX
  8
LAYER-1
 10
3.049943
 20
1.036018
 30
0.000000
  0
VERTEX
  8
LAYER-1
 10
2.179680
 20
1.036018
 30
0.000000
  0
SEQEND
  8
LAYER-1
  0
POLYLINE
  8
LAYER-1
  6
LTYPE01
 66
  1
 70
  1
 62
  7
  0
VERTEX
  8
LAYER-1
  6
LTYPE01
 10
2.251869
 20
4.062525
 30
0.000000
  0
VERTEX
  8
LAYER-1
  6
LTYPE01
 10
2.973746
 20
4.062525
 30
0.000000
  0
VERTEX
  8
LAYER-1
  6
LTYPE01
 10
2.973746
 20
1.183045
 30
0.000000
  0
VERTEX
  8
LAYER-1
  6
LTYPE01
 10
2.251869
 20
1.183045
 30
0.000000
  0
SEQEND
  8
LAYER-1
  0
ARC
  8
LAYER-1
 62
  7
 10
4.343170
 20
7.522121
 30
0.000000
 40
0.254425
 50
270.000000
 51
90.000000
  0
POLYLINE
  8
LAYER-1
 66
  1
 70
  0
 62
  7
 10
4.343170
 20
7.776546
 30
0.000000
  0
VERTEX
  8
LAYER-1
 10
4.343170
 20
7.776546
 30
0.000000
  0
VERTEX
  8
LAYER-1
 10
0.678247
 20
7.776546
 30
0.000000
  0
SEQEND
  8
LAYER-1
  0
POLYLINE
  8
LAYER-1
 66
  1
 70
  0
 62
  7
 10
0.678247
 20
7.776546
 30
0.000000
  0
VERTEX
  8
LAYER-1
 10
0.678247
 20
7.776546
 30
0.000000
  0
VERTEX
  8
LAYER-1
 10
0.678247
 20
7.267696
 30
0.000000
  0
SEQEND
  8
LAYER-1
  0
POLYLINE
  8
LAYER-1
 66
  1
 70
  0
 62
  7
 10
4.343170
 20
7.267696
 30
0.000000
  0
VERTEX
  8
LAYER-1
 10
4.343170
 20
7.267696
 30
0.000000
  0
VERTEX
  8
LAYER-1
 10
0.678247
 20
7.267696
 30
0.000000
  0
SEQEND
  8
LAYER-1
  0
TEXT
  8
LAYER-1
 62
  7
 10
2.471149
 20
8.072227
 30
0.000000
 40
0.331731
  1
MobilFlex
 72
  5
 11
4.615380
 21
8.072227
 31
0.000000
  0
POLYLINE
  8
LAYER-1
 66
  1
 70
  1
 62
  7
  0
VERTEX
  8
LAYER-1
 10
0.679750
 20
8.580983
 30
0.000000
  0
VERTEX
  8
LAYER-1
 10
0.917597
 20
8.580983
 30
0.000000
  0
VERTEX
  8
LAYER-1
 10
0.917597
 20
8.064038
 30
0.000000
  0
VERTEX
  8
LAYER-1
 10
0.679750
 20
8.064038
 30
0.000000
  0
SEQEND
  8
LAYER-1
  0
POLYLINE
  8
LAYER-1
 66
  1
 70
  1
 62
  7
  0
VERTEX
  8
LAYER-1
 10
0.992249
 20
8.580983
 30
0.000000
  0
VERTEX
  8
LAYER-1
 10
1.230097
 20
8.580983
 30
0.000000
  0
VERTEX
  8
LAYER-1
 10
1.230097
 20
8.064038
 30
0.000000
  0
VERTEX
  8
LAYER-1
 10
0.992249
 20
8.064038
 30
0.000000
  0
SEQEND
  8
LAYER-1
  0
POLYLINE
  8
LAYER-1
 66
  1
 70
  1
 62
  7
  0
VERTEX
  8
LAYER-1
 10
1.292597
 20
8.580983
 30
0.000000
  0
VERTEX
  8
LAYER-1
 10
1.530444
 20
8.580983
 30
0.000000
  0
VERTEX
  8
LAYER-1
 10
1.530444
 20
8.064038
 30
0.000000
  0
VERTEX
  8
LAYER-1
 10
1.292597
 20
8.064038
 30
0.000000
  0
SEQEND
  8
LAYER-1
  0
POLYLINE
  8
LAYER-1
 66
  1
 70
  1
 62
  7
  0
VERTEX
  8
LAYER-1
 10
1.596416
 20
8.580983
 30
0.000000
  0
VERTEX
  8
LAYER-1
 10
1.834264
 20
8.580983
 30
0.000000
  0
VERTEX
  8
LAYER-1
 10
1.834264
 20
8.064038
 30
0.000000
  0
VERTEX
  8
LAYER-1
 10
1.596416
 20
8.064038
 30
0.000000
  0
SEQEND
  8
LAYER-1
  0
POLYLINE
  8
LAYER-1
 66
  1
 70
  1
 62
  7
  0
VERTEX
  8
LAYER-1
 10
1.913257
 20
8.577068
 30
0.000000
  0
VERTEX
  8
LAYER-1
 10
2.288691
 20
8.577068
 30
0.000000
  0
VERTEX
  8
LAYER-1
 10
2.288691
 20
8.439047
 30
0.000000
  0
VERTEX
  8
LAYER-1
 10
1.913257
 20
8.439047
 30
0.000000
  0
SEQEND
  8
LAYER-1
  0
POLYLINE
  8
LAYER-1
 66
  1
 70
  1
 62
  7
  0
VERTEX
  8
LAYER-1
 10
1.912824
 20
8.349638
 30
0.000000
  0
VERTEX
  8
LAYER-1
 10
2.220983
 20
8.349638
 30
0.000000
  0
VERTEX
  8
LAYER-1
 10
2.220983
 20
8.215523
 30
0.000000
  0
VERTEX
  8
LAYER-1
 10
1.912824
 20
8.215523
 30
0.000000
  0
SEQEND
  8
LAYER-1
  0
POLYLINE
  8
LAYER-1
 66
  1
 70
  1
 62
  7
  0
VERTEX
  8
LAYER-1
 10
0.679750
 20
7.979412
 30
0.000000
  0
VERTEX
  8
LAYER-1
 10
4.598154
 20
7.979412
 30
0.000000
  0
VERTEX
  8
LAYER-1
 10
4.598154
 20
7.936009
 30
0.000000
  0
VERTEX
  8
LAYER-1
 10
0.679750
 20
7.936009
 30
0.000000
  0
SEQEND
  8
LAYER-1
  0
LINE
  8
LAYER-1
 62
  7
 10
2.199366
 20
0.212523
 30
0.000000
 11
3.031358
 21
0.212523
 31
0.000000
  0
LINE
  8
LAYER-1
 62
  7
 10
2.179681
 20
0.799713
 30
0.000000
 11
2.179681
 21
0.087523
 31
0.000000
  0
LINE
  8
LAYER-1
 62
  7
 10
3.051043
 20
0.807962
 30
0.000000
 11
3.051043
 21
0.087523
 31
0.000000
  0
POLYLINE
  8
LAYER-1
 66
  1
 70
  1
 62
  7
  0
VERTEX
  8
LAYER-1
 10
2.179681
 20
0.212523
 30
0.000000
  0
VERTEX
  8
LAYER-1
 10
2.227758
 20
0.183677
 30
0.000000
  0
VERTEX
  8
LAYER-1
 10
2.227758
 20
0.212523
 30
0.000000
  0
VERTEX
  8
LAYER-1
 10
2.227758
 20
0.241369
 30
0.000000
  0
VERTEX
  8
LAYER-1
 10
2.179681
 20
0.212523
 30
0.000000
  0
SEQEND
  8
LAYER-1
  0
POLYLINE
  8
LAYER-1
 66
  1
 70
  1
 62
  7
  0
VERTEX
  8
LAYER-1
 10
3.051043
 20
0.212523
 30
0.000000
  0
VERTEX
  8
LAYER-1
 10
3.002966
 20
0.183676
 30
0.000000
  0
VERTEX
  8
LAYER-1
 10
3.002966
 20
0.212522
 30
0.000000
  0
VERTEX
  8
LAYER-1
 10
3.002965
 20
0.241368
 30
0.000000
  0
VERTEX
  8
LAYER-1
 10
3.051043
 20
0.212523
 30
0.000000
  0
SEQEND
  8
LAYER-1
  0
TEXT
  8
LAYER-1
 62
  7
 10
2.530280
 20
0.062157
 30
0.000000
 40
0.086538
  1
19mm
  0
LINE
  8
LAYER-1
 62
  7
 10
1.915726
 20
5.945039
 30
0.000000
 11
3.316098
 21
5.945038
 31
0.000000
  0
LINE
  8
LAYER-1
 62
  7
 10
1.896041
 20
4.008952
 30
0.000000
 11
1.896041
 21
6.070039
 31
0.000000
  0
LINE
  8
LAYER-1
 62
  7
 10
3.335783
 20
4.008952
 30
0.000000
 11
3.335783
 21
6.070039
 31
0.000000
  0
POLYLINE
  8
LAYER-1
 66
  1
 70
  1
 62
  7
  0
VERTEX
  8
LAYER-1
 10
1.896041
 20
5.945039
 30
0.000000
  0
VERTEX
  8
LAYER-1
 10
1.944118
 20
5.916193
 30
0.000000
  0
VERTEX
  8
LAYER-1
 10
1.944118
 20
5.945039
 30
0.000000
  0
VERTEX
  8
LAYER-1
 10
1.944118
 20
5.973885
 30
0.000000
  0
VERTEX
  8
LAYER-1
 10
1.896041
 20
5.945039
 30
0.000000
  0
SEQEND
  8
LAYER-1
  0
POLYLINE
  8
LAYER-1
 66
  1
 70
  1
 62
  7
  0
VERTEX
  8
LAYER-1
 10
3.335783
 20
5.945039
 30
0.000000
  0
VERTEX
  8
LAYER-1
 10
3.287706
 20
5.916192
 30
0.000000
  0
VERTEX
  8
LAYER-1
 10
3.287706
 20
5.945038
 30
0.000000
  0
VERTEX
  8
LAYER-1
 10
3.287705
 20
5.973885
 30
0.000000
  0
VERTEX
  8
LAYER-1
 10
3.335783
 20
5.945039
 30
0.000000
  0
SEQEND
  8
LAYER-1
  0
TEXT
  8
LAYER-1
 62
  7
 10
2.368863
 20
6.046409
 30
0.000000
 40
0.086538
  1
1-1/4"   -   30mm
  0
TEXT
  8
LAYER-1
 62
  7
 10
4.403841
 20
0.476073
 30
0.000000
 40
0.122596
  1
SPRING
 72
  5
 11
5.038457
 21
0.476073
 31
0.000000
  0
TEXT
  8
LAYER-1
 62
  7
 10
0.067303
 20
0.476073
 30
0.000000
 40
0.122596
  1
DUSTPROOF
 72
  5
 11
1.067303
 21
0.476073
 31
0.000000
  0
TEXT
  8
LAYER-1
 62
  7
 10
0.067303
 20
0.283765
 30
0.000000
 40
0.122596
  1
CAP
 72
  5
 11
0.442303
 21
0.283765
 31
0.000000
  0
TEXT
  8
LAYER-1
 62
  7
 10
0.067303
 20
4.485688
 30
0.000000
 40
0.122596
  1
FINISHED FLOOR
 72
  5
 11
1.413457
 21
4.485688
 31
0.000000
  0
TEXT
  8
LAYER-1
 62
  7
 10
0.067303
 20
4.293381
 30
0.000000
 40
0.122596
  1
OR COUNTER
 72
  5
 11
1.124995
 21
4.293381
 31
0.000000
  0
TEXT
  8
LAYER-1
 62
  7
 10
0.067303
 20
5.524150
 30
0.000000
 40
0.122596
  1
7/16" - 11mm
 72
  5
 11
1.057688
 21
5.524150
 31
0.000000
  0
TEXT
  8
LAYER-1
 62
  7
 10
0.067303
 20
5.331842
 30
0.000000
 40
0.122596
  1
SHOOTBOLT
 72
  5
 11
1.038457
 21
5.331842
 31
0.000000
  0
TEXT
  8
LAYER-1
 62
  7
 10
4.403841
 20
4.841458
 30
0.000000
 40
0.122596
  1
STAINLESS
 72
  5
 11
5.307688
 21
4.841458
 31
0.000000
  0
TEXT
  8
LAYER-1
 62
  7
 10
4.403841
 20
4.649150
 30
0.000000
 40
0.122596
  1
STEEL
 72
  5
 11
4.942303
 21
4.649150
 31
0.000000
  0
TEXT
  8
LAYER-1
 62
  7
 10
4.403841
 20
4.456842
 30
0.000000
 40
0.122596
  1
COVERING
 72
  5
 11
5.269226
 21
4.456842
 31
0.000000
  0
POLYLINE
  8
LAYER-1
 66
  1
 70
  0
 62
  7
 10
1.072111
 20
5.369343
 30
0.000000
  0
VERTEX
  8
LAYER-1
 10
1.072111
 20
5.369343
 30
0.000000
  0
VERTEX
  8
LAYER-1
 10
2.347600
 20
4.741190
 30
0.000000
  0
SEQEND
  8
LAYER-1
  0
POLYLINE
  8
LAYER-1
 66
  1
 70
  1
 62
  7
  0
VERTEX
  8
LAYER-1
 10
2.365260
 20
4.732493
 30
0.000000
  0
VERTEX
  8
LAYER-1
 10
2.309385
 20
4.727856
 30
0.000000
  0
VERTEX
  8
LAYER-1
 10
2.322130
 20
4.753734
 30
0.000000
  0
VERTEX
  8
LAYER-1
 10
2.334874
 20
4.779612
 30
0.000000
  0
VERTEX
  8
LAYER-1
 10
2.365260
 20
4.732493
 30
0.000000
  0
SEQEND
  8
LAYER-1
  0
POLYLINE
  8
LAYER-1
 66
  1
 70
  0
 62
  7
 10
0.912388
 20
4.262398
 30
0.000000
  0
VERTEX
  8
LAYER-1
 10
0.912388
 20
4.262398
 30
0.000000
  0
VERTEX
  8
LAYER-1
 10
1.225483
 20
3.933661
 30
0.000000
  0
SEQEND
  8
LAYER-1
  0
POLYLINE
  8
LAYER-1
 66
  1
 70
  1
 62
  7
  0
VERTEX
  8
LAYER-1
 10
1.239059
 20
3.919407
 30
0.000000
  0
VERTEX
  8
LAYER-1
 10
1.185014
 20
3.934326
 30
0.000000
  0
VERTEX
  8
LAYER-1
 10
1.205902
 20
3.954221
 30
0.000000
  0
VERTEX
  8
LAYER-1
 10
1.226790
 20
3.974115
 30
0.000000
  0
VERTEX
  8
LAYER-1
 10
1.239059
 20
3.919407
 30
0.000000
  0
SEQEND
  8
LAYER-1
  0
POLYLINE
  8
LAYER-1
 66
  1
 70
  0
 62
  7
 10
4.316572
 20
4.747655
 30
0.000000
  0
VERTEX
  8
LAYER-1
 10
4.316572
 20
4.747655
 30
0.000000
  0
VERTEX
  8
LAYER-1
 10
3.251759
 20
4.017737
 30
0.000000
  0
SEQEND
  8
LAYER-1
  0
POLYLINE
  8
LAYER-1
 66
  1
 70
  1
 62
  7
  0
VERTEX
  8
LAYER-1
 10
3.235522
 20
4.006608
 30
0.000000
  0
VERTEX
  8
LAYER-1
 10
3.258867
 20
4.057583
 30
0.000000
  0
VERTEX
  8
LAYER-1
 10
3.275177
 20
4.033791
 30
0.000000
  0
VERTEX
  8
LAYER-1
 10
3.291486
 20
4.009998
 30
0.000000
  0
VERTEX
  8
LAYER-1
 10
3.235522
 20
4.006608
 30
0.000000
  0
SEQEND
  8
LAYER-1
  0
TEXT
  8
LAYER-1
 62
  7
 10
0.865380
 20
7.399150
 30
0.000000
 40
0.187500
  1
Floor - counter dustproof socket
 72
  5
 11
4.384611
 21
7.399150
 31
0.000000
  0
POLYLINE
  8
LAYER-1
 66
  1
 70
  1
 62
  7
 10
1.677493
 20
2.226513
 30
0.000000
  0
VERTEX
  8
LAYER-1
 10
1.677493
 20
2.226513
 30
0.000000
  0
VERTEX
  8
LAYER-1
 10
1.755228
 20
2.294355
 30
0.000000
  0
VERTEX
  8
LAYER-1
 10
1.579396
 20
2.354779
 30
0.000000
  0
SEQEND
  8
LAYER-1
  0
POLYLINE
  8
LAYER-1
 66
  1
 70
  1
 62
  7
 10
0.710817
 20
2.760118
 30
0.000000
  0
VERTEX
  8
LAYER-1
 10
0.710817
 20
2.760118
 30
0.000000
  0
VERTEX
  8
LAYER-1
 10
0.788551
 20
2.827960
 30
0.000000
  0
VERTEX
  8
LAYER-1
 10
0.612721
 20
2.888385
 30
0.000000
  0
SEQEND
  8
LAYER-1
  0
POLYLINE
  8
LAYER-1
 66
  1
 70
  1
 62
  7
 10
0.798935
 20
1.933806
 30
0.000000
  0
VERTEX
  8
LAYER-1
 10
0.798935
 20
1.933806
 30
0.000000
  0
VERTEX
  8
LAYER-1
 10
0.824203
 20
1.833771
 30
0.000000
  0
VERTEX
  8
LAYER-1
 10
0.957725
 20
1.963153
 30
0.000000
  0
SEQEND
  8
LAYER-1
  0
POLYLINE
  8
LAYER-1
 66
  1
 70
  1
 62
  7
 10
1.355741
 20
2.776747
 30
0.000000
  0
VERTEX
  8
LAYER-1
 10
1.355741
 20
2.776747
 30
0.000000
  0
VERTEX
  8
LAYER-1
 10
1.381009
 20
2.676713
 30
0.000000
  0
VERTEX
  8
LAYER-1
 10
1.514530
 20
2.806095
 30
0.000000
  0
SEQEND
  8
LAYER-1
  0
POLYLINE
  8
LAYER-1
 66
  1
 70
  1
 62
  7
 10
1.441042
 20
1.590432
 30
0.000000
  0
VERTEX
  8
LAYER-1
 10
1.441042
 20
1.590432
 30
0.000000
  0
VERTEX
  8
LAYER-1
 10
1.340508
 20
1.613632
 30
0.000000
  0
VERTEX
  8
LAYER-1
 10
1.394642
 20
1.435763
 30
0.000000
  0
SEQEND
  8
LAYER-1
  0
POLYLINE
  8
LAYER-1
 66
  1
 70
  1
 62
  7
 10
3.566054
 20
2.921763
 30
0.000000
  0
VERTEX
  8
LAYER-1
 10
3.566054
 20
2.921763
 30
0.000000
  0
VERTEX
  8
LAYER-1
 10
3.643789
 20
2.989607
 30
0.000000
  0
VERTEX
  8
LAYER-1
 10
3.467958
 20
3.050031
 30
0.000000
  0
SEQEND
  8
LAYER-1
  0
POLYLINE
  8
LAYER-1
 66
  1
 70
  1
 62
  7
 10
4.169260
 20
2.202556
 30
0.000000
  0
VERTEX
  8
LAYER-1
 10
4.169260
 20
2.202556
 30
0.000000
  0
VERTEX
  8
LAYER-1
 10
4.246993
 20
2.270399
 30
0.000000
  0
VERTEX
  8
LAYER-1
 10
4.071163
 20
2.330823
 30
0.000000
  0
SEQEND
  8
LAYER-1
  0
POLYLINE
  8
LAYER-1
 66
  1
 70
  1
 62
  7
 10
4.718330
 20
2.975898
 30
0.000000
  0
VERTEX
  8
LAYER-1
 10
4.718330
 20
2.975898
 30
0.000000
  0
VERTEX
  8
LAYER-1
 10
4.796066
 20
3.043740
 30
0.000000
  0
VERTEX
  8
LAYER-1
 10
4.620235
 20
3.104165
 30
0.000000
  0
SEQEND
  8
LAYER-1
  0
POLYLINE
  8
LAYER-1
 66
  1
 70
  1
 62
  7
 10
4.157077
 20
3.120891
 30
0.000000
  0
VERTEX
  8
LAYER-1
 10
4.157077
 20
3.120891
 30
0.000000
  0
VERTEX
  8
LAYER-1
 10
4.056544
 20
3.144091
 30
0.000000
  0
VERTEX
  8
LAYER-1
 10
4.110677
 20
2.966223
 30
0.000000
  0
SEQEND
  8
LAYER-1
  0
POLYLINE
  8
LAYER-1
 66
  1
 70
  1
 62
  7
 10
4.389079
 20
1.674744
 30
0.000000
  0
VERTEX
  8
LAYER-1
 10
4.389079
 20
1.674744
 30
0.000000
  0
VERTEX
  8
LAYER-1
 10
4.288545
 20
1.697943
 30
0.000000
  0
VERTEX
  8
LAYER-1
 10
4.342678
 20
1.520075
 30
0.000000
  0
SEQEND
  8
LAYER-1
  0
POLYLINE
  8
LAYER-1
 66
  1
 70
  1
 62
  7
 10
3.468570
 20
1.623712
 30
0.000000
  0
VERTEX
  8
LAYER-1
 10
3.468570
 20
1.623712
 30
0.000000
  0
VERTEX
  8
LAYER-1
 10
3.493837
 20
1.523678
 30
0.000000
  0
VERTEX
  8
LAYER-1
 10
3.627360
 20
1.653060
 30
0.000000
  0
SEQEND
  8
LAYER-1
  0
POLYLINE
  8
LAYER-1
 66
  1
 70
  1
 62
  7
 10
4.690681
 20
1.373141
 30
0.000000
  0
VERTEX
  8
LAYER-1
 10
4.690681
 20
1.373141
 30
0.000000
  0
VERTEX
  8
LAYER-1
 10
4.768417
 20
1.440984
 30
0.000000
  0
VERTEX
  8
LAYER-1
 10
4.592586
 20
1.501407
 30
0.000000
  0
SEQEND
  8
LAYER-1
  0
POLYLINE
  8
LAYER-1
 66
  1
 70
  1
 62
  7
 10
4.435479
 20
3.360627
 30
0.000000
  0
VERTEX
  8
LAYER-1
 10
4.435479
 20
3.360627
 30
0.000000
  0
VERTEX
  8
LAYER-1
 10
4.460747
 20
3.260592
 30
0.000000
  0
VERTEX
  8
LAYER-1
 10
4.594269
 20
3.389974
 30
0.000000
  0
SEQEND
  8
LAYER-1
  0
POLYLINE
  8
LAYER-1
 66
  1
 70
  1
 62
  7
 10
4.636549
 20
2.324351
 30
0.000000
  0
VERTEX
  8
LAYER-1
 10
4.636549
 20
2.324351
 30
0.000000
  0
VERTEX
  8
LAYER-1
 10
4.661817
 20
2.224315
 30
0.000000
  0
VERTEX
  8
LAYER-1
 10
4.795337
 20
2.353698
 30
0.000000
  0
SEQEND
  8
LAYER-1
  0
POLYLINE
  8
LAYER-1
 66
  1
 70
  1
 62
  7
 10
3.476537
 20
2.200616
 30
0.000000
  0
VERTEX
  8
LAYER-1
 10
3.476537
 20
2.200616
 30
0.000000
  0
VERTEX
  8
LAYER-1
 10
3.376004
 20
2.223815
 30
0.000000
  0
VERTEX
  8
LAYER-1
 10
3.430137
 20
2.045947
 30
0.000000
  0
SEQEND
  8
LAYER-1
  0
POLYLINE
  8
LAYER-1
 66
  1
 70
  1
 62
  7
 10
0.416947
 20
1.321704
 30
0.000000
  0
VERTEX
  8
LAYER-1
 10
0.416947
 20
1.321704
 30
0.000000
  0
VERTEX
  8
LAYER-1
 10
0.494682
 20
1.389546
 30
0.000000
  0
VERTEX
  8
LAYER-1
 10
0.318851
 20
1.449971
 30
0.000000
  0
SEQEND
  8
LAYER-1
  0
POLYLINE
  8
LAYER-1
 66
  1
 70
  1
 62
  7
 10
1.897313
 20
3.137114
 30
0.000000
  0
VERTEX
  8
LAYER-1
 10
1.897313
 20
3.137114
 30
0.000000
  0
VERTEX
  8
LAYER-1
 10
1.975047
 20
3.204957
 30
0.000000
  0
VERTEX
  8
LAYER-1
 10
1.799216
 20
3.265381
 30
0.000000
  0
SEQEND
  8
LAYER-1
  0
POLYLINE
  8
LAYER-1
 66
  1
 70
  1
 62
  7
 10
0.412498
 20
3.229915
 30
0.000000
  0
VERTEX
  8
LAYER-1
 10
0.412498
 20
3.229915
 30
0.000000
  0
VERTEX
  8
LAYER-1
 10
0.437766
 20
3.129880
 30
0.000000
  0
VERTEX
  8
LAYER-1
 10
0.571287
 20
3.259262
 30
0.000000
  0
SEQEND
  8
LAYER-1
  0
POLYLINE
  8
LAYER-1
 66
  1
 70
  1
 62
  7
 10
1.147172
 20
3.129381
 30
0.000000
  0
VERTEX
  8
LAYER-1
 10
1.147172
 20
3.129381
 30
0.000000
  0
VERTEX
  8
LAYER-1
 10
1.046638
 20
3.152581
 30
0.000000
  0
VERTEX
  8
LAYER-1
 10
1.100772
 20
2.974713
 30
0.000000
  0
SEQEND
  8
LAYER-1
  0
POLYLINE
  8
LAYER-1
 66
  1
 70
  1
 62
  7
 10
0.546177
 20
2.107938
 30
0.000000
  0
VERTEX
  8
LAYER-1
 10
0.546177
 20
2.107938
 30
0.000000
  0
VERTEX
  8
LAYER-1
 10
0.445643
 20
2.131138
 30
0.000000
  0
VERTEX
  8
LAYER-1
 10
0.499777
 20
1.953269
 30
0.000000
  0
SEQEND
  8
LAYER-1
  0
POLYLINE
  8
LAYER-1
 66
  1
 70
  1
 62
  7
 10
1.023438
 20
1.304297
 30
0.000000
  0
VERTEX
  8
LAYER-1
 10
1.023438
 20
1.304297
 30
0.000000
  0
VERTEX
  8
LAYER-1
 10
0.922904
 20
1.327496
 30
0.000000
  0
VERTEX
  8
LAYER-1
 10
0.977037
 20
1.149628
 30
0.000000
  0
SEQEND
  8
LAYER-1
  0
POLYLINE
  8
LAYER-1
  6
LTYPE01
 66
  1
 70
  1
 62
  7
  0
VERTEX
  8
LAYER-1
  6
LTYPE01
 10
2.350026
 20
1.989140
 30
0.000000
  0
VERTEX
  8
LAYER-1
  6
LTYPE01
 10
2.879403
 20
1.989140
 30
0.000000
  0
VERTEX
  8
LAYER-1
  6
LTYPE01
 10
2.879403
 20
1.187056
 30
0.000000
  0
VERTEX
  8
LAYER-1
  6
LTYPE01
 10
2.350026
 20
1.187056
 30
0.000000
  0
SEQEND
  8
LAYER-1
  0
TEXT
  8
LAYER-1
 62
  7
 10
2.509611
 20
0.293381
 30
0.000000
 40
0.122596
  1
3/4"
 72
  5
 11
2.836534
 21
0.293381
 31
0.000000
  0
POLYLINE
  8
LAYER-1
  6
LTYPE02
 66
  1
 70
  1
 62
  7
  6
LTYPE02
 10
2.904145
 20
2.580905
 30
0.000000
  0
VERTEX
  8
LAYER-1
  6
LTYPE02
 10
2.904145
 20
2.580905
 30
0.000000
  0
VERTEX
  8
LAYER-1
  6
LTYPE02
 10
2.331109
 20
2.580905
 30
0.000000
  0
VERTEX
  8
LAYER-1
  6
LTYPE02
 10
2.331109
 20
2.512727
 30
0.000000
  0
VERTEX
  8
LAYER-1
  6
LTYPE02
 10
2.271015
 20
2.512727
 30
0.000000
  0
VERTEX
  8
LAYER-1
  6
LTYPE02
 10
2.271015
 20
1.991373
 30
0.000000
  0
VERTEX
  8
LAYER-1
  6
LTYPE02
 10
2.952788
 20
1.991373
 30
0.000000
  0
VERTEX
  8
LAYER-1
  6
LTYPE02
 10
2.952788
 20
2.512727
 30
0.000000
  0
VERTEX
  8
LAYER-1
  6
LTYPE02
 10
2.904145
 20
2.512727
 30
0.000000
  0
SEQEND
  8
LAYER-1
  0
POLYLINE
  8
LAYER-1
 66
  1
 70
  1
 62
254
 10
2.350026
 20
1.187056
 30
0.000000
  0
VERTEX
  8
LAYER-1
 10
2.350026
 20
1.187056
 30
0.000000
  0
VERTEX
  8
LAYER-1
 10
2.350026
 20
1.199087
 30
0.000000
  0
VERTEX
  8
LAYER-1
 10
2.879403
 20
1.243203
 30
0.000000
  0
VERTEX
  8
LAYER-1
 10
2.879403
 20
1.219140
 30
0.000000
  0
VERTEX
  8
LAYER-1
 10
2.525484
 20
1.187056
 30
0.000000
  0
SEQEND
  8
LAYER-1
  0
POLYLINE
  8
LAYER-1
  6
LTYPE02
 66
  1
 70
  0
 62
  7
  6
LTYPE02
 10
2.879403
 20
1.219140
 30
0.000000
  0
VERTEX
  8
LAYER-1
  6
LTYPE02
 10
2.879403
 20
1.219140
 30
0.000000
  0
VERTEX
  8
LAYER-1
  6
LTYPE02
 10
2.525484
 20
1.187056
 30
0.000000
  0
SEQEND
  8
LAYER-1
  0
POLYLINE
  8
LAYER-1
  6
LTYPE02
 66
  1
 70
  0
 62
  7
  6
LTYPE02
 10
2.879403
 20
1.243203
 30
0.000000
  0
VERTEX
  8
LAYER-1
  6
LTYPE02
 10
2.879403
 20
1.243203
 30
0.000000
  0
VERTEX
  8
LAYER-1
  6
LTYPE02
 10
2.350026
 20
1.199087
 30
0.000000
  0
SEQEND
  8
LAYER-1
  0
POLYLINE
  8
LAYER-1
 66
  1
 70
  1
 62
254
 10
2.350026
 20
1.250220
 30
0.000000
  0
VERTEX
  8
LAYER-1
 10
2.350026
 20
1.250220
 30
0.000000
  0
VERTEX
  8
LAYER-1
 10
2.350026
 20
1.278293
 30
0.000000
  0
VERTEX
  8
LAYER-1
 10
2.879403
 20
1.322408
 30
0.000000
  0
VERTEX
  8
LAYER-1
 10
2.879403
 20
1.298345
 30
0.000000
  0
SEQEND
  8
LAYER-1
  0
POLYLINE
  8
LAYER-1
  6
LTYPE02
 66
  1
 70
  0
 62
  7
  6
LTYPE02
 10
2.879403
 20
1.298345
 30
0.000000
  0
VERTEX
  8
LAYER-1
  6
LTYPE02
 10
2.879403
 20
1.298345
 30
0.000000
  0
VERTEX
  8
LAYER-1
  6
LTYPE02
 10
2.350026
 20
1.250220
 30
0.000000
  0
SEQEND
  8
LAYER-1
  0
POLYLINE
  8
LAYER-1
  6
LTYPE02
 66
  1
 70
  0
 62
  7
  6
LTYPE02
 10
2.879403
 20
1.322408
 30
0.000000
  0
VERTEX
  8
LAYER-1
  6
LTYPE02
 10
2.879403
 20
1.322408
 30
0.000000
  0
VERTEX
  8
LAYER-1
  6
LTYPE02
 10
2.350026
 20
1.278293
 30
0.000000
  0
SEQEND
  8
LAYER-1
  0
POLYLINE
  8
LAYER-1
 66
  1
 70
  1
 62
254
 10
2.350026
 20
1.326419
 30
0.000000
  0
VERTEX
  8
LAYER-1
 10
2.350026
 20
1.326419
 30
0.000000
  0
VERTEX
  8
LAYER-1
 10
2.350026
 20
1.354491
 30
0.000000
  0
VERTEX
  8
LAYER-1
 10
2.879403
 20
1.398606
 30
0.000000
  0
VERTEX
  8
LAYER-1
 10
2.879403
 20
1.374543
 30
0.000000
  0
SEQEND
  8
LAYER-1
  0
POLYLINE
  8
LAYER-1
 66
  1
 70
  1
 62
254
 10
2.349024
 20
1.462773
 30
0.000000
  0
VERTEX
  8
LAYER-1
 10
2.349024
 20
1.462773
 30
0.000000
  0
VERTEX
  8
LAYER-1
 10
2.349024
 20
1.490846
 30
0.000000
  0
VERTEX
  8
LAYER-1
 10
2.878401
 20
1.534960
 30
0.000000
  0
VERTEX
  8
LAYER-1
 10
2.878401
 20
1.510898
 30
0.000000
  0
SEQEND
  8
LAYER-1
  0
POLYLINE
  8
LAYER-1
 66
  1
 70
  1
 62
254
 10
2.349024
 20
1.541978
 30
0.000000
  0
VERTEX
  8
LAYER-1
 10
2.349024
 20
1.541978
 30
0.000000
  0
VERTEX
  8
LAYER-1
 10
2.349024
 20
1.570051
 30
0.000000
  0
VERTEX
  8
LAYER-1
 10
2.878401
 20
1.614166
 30
0.000000
  0
VERTEX
  8
LAYER-1
 10
2.878401
 20
1.590104
 30
0.000000
  0
SEQEND
  8
LAYER-1
  0
POLYLINE
  8
LAYER-1
 66
  1
 70
  1
 62
254
 10
2.349024
 20
1.618176
 30
0.000000
  0
VERTEX
  8
LAYER-1
 10
2.349024
 20
1.618176
 30
0.000000
  0
VERTEX
  8
LAYER-1
 10
2.349024
 20
1.646250
 30
0.000000
  0
VERTEX
  8
LAYER-1
 10
2.878401
 20
1.690363
 30
0.000000
  0
VERTEX
  8
LAYER-1
 10
2.878401
 20
1.666301
 30
0.000000
  0
SEQEND
  8
LAYER-1
  0
POLYLINE
  8
LAYER-1
 66
  1
 70
  1
 62
254
 10
2.349024
 20
1.692369
 30
0.000000
  0
VERTEX
  8
LAYER-1
 10
2.349024
 20
1.692369
 30
0.000000
  0
VERTEX
  8
LAYER-1
 10
2.349024
 20
1.720443
 30
0.000000
  0
VERTEX
  8
LAYER-1
 10
2.878401
 20
1.764555
 30
0.000000
  0
VERTEX
  8
LAYER-1
 10
2.878401
 20
1.740494
 30
0.000000
  0
SEQEND
  8
LAYER-1
  0
POLYLINE
  8
LAYER-1
 66
  1
 70
  1
 62
254
 10
2.350026
 20
1.761549
 30
0.000000
  0
VERTEX
  8
LAYER-1
 10
2.350026
 20
1.761549
 30
0.000000
  0
VERTEX
  8
LAYER-1
 10
2.350026
 20
1.789621
 30
0.000000
  0
VERTEX
  8
LAYER-1
 10
2.879403
 20
1.833737
 30
0.000000
  0
VERTEX
  8
LAYER-1
 10
2.879403
 20
1.809674
 30
0.000000
  0
SEQEND
  8
LAYER-1
  0
POLYLINE
  8
LAYER-1
 66
  1
 70
  1
 62
254
 10
2.350026
 20
1.840754
 30
0.000000
  0
VERTEX
  8
LAYER-1
 10
2.350026
 20
1.840754
 30
0.000000
  0
VERTEX
  8
LAYER-1
 10
2.350026
 20
1.868827
 30
0.000000
  0
VERTEX
  8
LAYER-1
 10
2.879403
 20
1.912942
 30
0.000000
  0
VERTEX
  8
LAYER-1
 10
2.879403
 20
1.888878
 30
0.000000
  0
SEQEND
  8
LAYER-1
  0
POLYLINE
  8
LAYER-1
 66
  1
 70
  1
 62
254
 10
2.350026
 20
1.916952
 30
0.000000
  0
VERTEX
  8
LAYER-1
 10
2.350026
 20
1.916952
 30
0.000000
  0
VERTEX
  8
LAYER-1
 10
2.350026
 20
1.945024
 30
0.000000
  0
VERTEX
  8
LAYER-1
 10
2.879403
 20
1.989140
 30
0.000000
  0
VERTEX
  8
LAYER-1
 10
2.879403
 20
1.965077
 30
0.000000
  0
SEQEND
  8
LAYER-1
  0
POLYLINE
  8
LAYER-1
  6
LTYPE02
 66
  1
 70
  0
 62
  7
  6
LTYPE02
 10
2.879403
 20
1.374543
 30
0.000000
  0
VERTEX
  8
LAYER-1
  6
LTYPE02
 10
2.879403
 20
1.374543
 30
0.000000
  0
VERTEX
  8
LAYER-1
  6
LTYPE02
 10
2.350026
 20
1.326419
 30
0.000000
  0
SEQEND
  8
LAYER-1
  0
POLYLINE
  8
LAYER-1
  6
LTYPE02
 66
  1
 70
  0
 62
  7
  6
LTYPE02
 10
2.879403
 20
1.398606
 30
0.000000
  0
VERTEX
  8
LAYER-1
  6
LTYPE02
 10
2.879403
 20
1.398606
 30
0.000000
  0
VERTEX
  8
LAYER-1
  6
LTYPE02
 10
2.350026
 20
1.354491
 30
0.000000
  0
SEQEND
  8
LAYER-1
  0
POLYLINE
  8
LAYER-1
 66
  1
 70
  1
 62
254
 10
2.348021
 20
1.393593
 30
0.000000
  0
VERTEX
  8
LAYER-1
 10
2.348021
 20
1.393593
 30
0.000000
  0
VERTEX
  8
LAYER-1
 10
2.348021
 20
1.421664
 30
0.000000
  0
VERTEX
  8
LAYER-1
 10
2.877399
 20
1.465781
 30
0.000000
  0
VERTEX
  8
LAYER-1
 10
2.877399
 20
1.441718
 30
0.000000
  0
SEQEND
  8
LAYER-1
  0
POLYLINE
  8
LAYER-1
  6
LTYPE02
 66
  1
 70
  0
 62
  7
  6
LTYPE02
 10
2.877399
 20
1.441718
 30
0.000000
  0
VERTEX
  8
LAYER-1
  6
LTYPE02
 10
2.877399
 20
1.441718
 30
0.000000
  0
VERTEX
  8
LAYER-1
  6
LTYPE02
 10
2.348021
 20
1.393593
 30
0.000000
  0
SEQEND
  8
LAYER-1
  0
POLYLINE
  8
LAYER-1
  6
LTYPE02
 66
  1
 70
  0
 62
  7
  6
LTYPE02
 10
2.877399
 20
1.465781
 30
0.000000
  0
VERTEX
  8
LAYER-1
  6
LTYPE02
 10
2.877399
 20
1.465781
 30
0.000000
  0
VERTEX
  8
LAYER-1
  6
LTYPE02
 10
2.348021
 20
1.421664
 30
0.000000
  0
SEQEND
  8
LAYER-1
  0
POLYLINE
  8
LAYER-1
  6
LTYPE02
 66
  1
 70
  0
 62
  7
  6
LTYPE02
 10
2.878401
 20
1.510898
 30
0.000000
  0
VERTEX
  8
LAYER-1
  6
LTYPE02
 10
2.878401
 20
1.510898
 30
0.000000
  0
VERTEX
  8
LAYER-1
  6
LTYPE02
 10
2.349024
 20
1.462773
 30
0.000000
  0
SEQEND
  8
LAYER-1
  0
POLYLINE
  8
LAYER-1
  6
LTYPE02
 66
  1
 70
  0
 62
  7
  6
LTYPE02
 10
2.878401
 20
1.534960
 30
0.000000
  0
VERTEX
  8
LAYER-1
  6
LTYPE02
 10
2.878401
 20
1.534960
 30
0.000000
  0
VERTEX
  8
LAYER-1
  6
LTYPE02
 10
2.349024
 20
1.490846
 30
0.000000
  0
SEQEND
  8
LAYER-1
  0
POLYLINE
  8
LAYER-1
  6
LTYPE02
 66
  1
 70
  0
 62
  7
  6
LTYPE02
 10
2.878401
 20
1.590104
 30
0.000000
  0
VERTEX
  8
LAYER-1
  6
LTYPE02
 10
2.878401
 20
1.590104
 30
0.000000
  0
VERTEX
  8
LAYER-1
  6
LTYPE02
 10
2.349024
 20
1.541978
 30
0.000000
  0
SEQEND
  8
LAYER-1
  0
POLYLINE
  8
LAYER-1
  6
LTYPE02
 66
  1
 70
  0
 62
  7
  6
LTYPE02
 10
2.878401
 20
1.614166
 30
0.000000
  0
VERTEX
  8
LAYER-1
  6
LTYPE02
 10
2.878401
 20
1.614166
 30
0.000000
  0
VERTEX
  8
LAYER-1
  6
LTYPE02
 10
2.349024
 20
1.570051
 30
0.000000
  0
SEQEND
  8
LAYER-1
  0
POLYLINE
  8
LAYER-1
  6
LTYPE02
 66
  1
 70
  0
 62
  7
  6
LTYPE02
 10
2.878401
 20
1.666301
 30
0.000000
  0
VERTEX
  8
LAYER-1
  6
LTYPE02
 10
2.878401
 20
1.666301
 30
0.000000
  0
VERTEX
  8
LAYER-1
  6
LTYPE02
 10
2.349024
 20
1.618176
 30
0.000000
  0
SEQEND
  8
LAYER-1
  0
POLYLINE
  8
LAYER-1
  6
LTYPE02
 66
  1
 70
  0
 62
  7
  6
LTYPE02
 10
2.878401
 20
1.690363
 30
0.000000
  0
VERTEX
  8
LAYER-1
  6
LTYPE02
 10
2.878401
 20
1.690363
 30
0.000000
  0
VERTEX
  8
LAYER-1
  6
LTYPE02
 10
2.349024
 20
1.646250
 30
0.000000
  0
SEQEND
  8
LAYER-1
  0
POLYLINE
  8
LAYER-1
  6
LTYPE02
 66
  1
 70
  0
 62
  7
  6
LTYPE02
 10
2.878401
 20
1.764555
 30
0.000000
  0
VERTEX
  8
LAYER-1
  6
LTYPE02
 10
2.878401
 20
1.764555
 30
0.000000
  0
VERTEX
  8
LAYER-1
  6
LTYPE02
 10
2.349024
 20
1.720443
 30
0.000000
  0
SEQEND
  8
LAYER-1
  0
POLYLINE
  8
LAYER-1
  6
LTYPE02
 66
  1
 70
  0
 62
  7
  6
LTYPE02
 10
2.878401
 20
1.740494
 30
0.000000
  0
VERTEX
  8
LAYER-1
  6
LTYPE02
 10
2.878401
 20
1.740494
 30
0.000000
  0
VERTEX
  8
LAYER-1
  6
LTYPE02
 10
2.349024
 20
1.692369
 30
0.000000
  0
SEQEND
  8
LAYER-1
  0
POLYLINE
  8
LAYER-1
  6
LTYPE02
 66
  1
 70
  0
 62
  7
  6
LTYPE02
 10
2.879403
 20
1.809674
 30
0.000000
  0
VERTEX
  8
LAYER-1
  6
LTYPE02
 10
2.879403
 20
1.809674
 30
0.000000
  0
VERTEX
  8
LAYER-1
  6
LTYPE02
 10
2.350026
 20
1.761549
 30
0.000000
  0
SEQEND
  8
LAYER-1
  0
POLYLINE
  8
LAYER-1
  6
LTYPE02
 66
  1
 70
  0
 62
  7
  6
LTYPE02
 10
2.879403
 20
1.833737
 30
0.000000
  0
VERTEX
  8
LAYER-1
  6
LTYPE02
 10
2.879403
 20
1.833737
 30
0.000000
  0
VERTEX
  8
LAYER-1
  6
LTYPE02
 10
2.350026
 20
1.789621
 30
0.000000
  0
SEQEND
  8
LAYER-1
  0
POLYLINE
  8
LAYER-1
  6
LTYPE02
 66
  1
 70
  0
 62
  7
  6
LTYPE02
 10
2.879403
 20
1.888878
 30
0.000000
  0
VERTEX
  8
LAYER-1
  6
LTYPE02
 10
2.879403
 20
1.888878
 30
0.000000
  0
VERTEX
  8
LAYER-1
  6
LTYPE02
 10
2.350026
 20
1.840754
 30
0.000000
  0
SEQEND
  8
LAYER-1
  0
POLYLINE
  8
LAYER-1
  6
LTYPE02
 66
  1
 70
  0
 62
  7
  6
LTYPE02
 10
2.879403
 20
1.912942
 30
0.000000
  0
VERTEX
  8
LAYER-1
  6
LTYPE02
 10
2.879403
 20
1.912942
 30
0.000000
  0
VERTEX
  8
LAYER-1
  6
LTYPE02
 10
2.350026
 20
1.868827
 30
0.000000
  0
SEQEND
  8
LAYER-1
  0
POLYLINE
  8
LAYER-1
  6
LTYPE02
 66
  1
 70
  0
 62
  7
  6
LTYPE02
 10
2.879403
 20
1.965077
 30
0.000000
  0
VERTEX
  8
LAYER-1
  6
LTYPE02
 10
2.879403
 20
1.965077
 30
0.000000
  0
VERTEX
  8
LAYER-1
  6
LTYPE02
 10
2.350026
 20
1.916952
 30
0.000000
  0
SEQEND
  8
LAYER-1
  0
POLYLINE
  8
LAYER-1
  6
LTYPE02
 66
  1
 70
  0
 62
  7
  6
LTYPE02
 10
2.879403
 20
1.989140
 30
0.000000
  0
VERTEX
  8
LAYER-1
  6
LTYPE02
 10
2.879403
 20
1.989140
 30
0.000000
  0
VERTEX
  8
LAYER-1
  6
LTYPE02
 10
2.350026
 20
1.945024
 30
0.000000
  0
SEQEND
  8
LAYER-1
  0
POLYLINE
  8
LAYER-1
 66
  1
 70
  0
 62
  7
 10
2.179749
 20
3.686008
 30
0.000000
  0
VERTEX
  8
LAYER-1
 10
2.179749
 20
3.686008
 30
0.000000
  0
VERTEX
  8
LAYER-1
 10
2.252666
 20
3.758925
 30
0.000000
  0
SEQEND
  8
LAYER-1
  0
POLYLINE
  8
LAYER-1
 66
  1
 70
  0
 62
  7
 10
2.179749
 20
3.061008
 30
0.000000
  0
VERTEX
  8
LAYER-1
 10
2.179749
 20
3.061008
 30
0.000000
  0
VERTEX
  8
LAYER-1
 10
2.252666
 20
3.133925
 30
0.000000
  0
SEQEND
  8
LAYER-1
  0
POLYLINE
  8
LAYER-1
 66
  1
 70
  0
 62
  7
 10
2.179749
 20
2.436008
 30
0.000000
  0
VERTEX
  8
LAYER-1
 10
2.179749
 20
2.436008
 30
0.000000
  0
VERTEX
  8
LAYER-1
 10
2.252666
 20
2.508925
 30
0.000000
  0
SEQEND
  8
LAYER-1
  0
POLYLINE
  8
LAYER-1
 66
  1
 70
  0
 62
  7
 10
2.179749
 20
1.811008
 30
0.000000
  0
VERTEX
  8
LAYER-1
 10
2.179749
 20
1.811008
 30
0.000000
  0
VERTEX
  8
LAYER-1
 10
2.252666
 20
1.883925
 30
0.000000
  0
SEQEND
  8
LAYER-1
  0
POLYLINE
  8
LAYER-1
 66
  1
 70
  0
 62
  7
 10
2.179749
 20
1.186008
 30
0.000000
  0
VERTEX
  8
LAYER-1
 10
2.179749
 20
1.186008
 30
0.000000
  0
VERTEX
  8
LAYER-1
 10
2.252666
 20
1.258925
 30
0.000000
  0
SEQEND
  8
LAYER-1
  0
POLYLINE
  8
LAYER-1
 66
  1
 70
  0
 62
  7
 10
2.179749
 20
3.654758
 30
0.000000
  0
VERTEX
  8
LAYER-1
 10
2.179749
 20
3.654758
 30
0.000000
  0
VERTEX
  8
LAYER-1
 10
2.252666
 20
3.727675
 30
0.000000
  0
SEQEND
  8
LAYER-1
  0
POLYLINE
  8
LAYER-1
 66
  1
 70
  0
 62
  7
 10
2.179749
 20
3.029758
 30
0.000000
  0
VERTEX
  8
LAYER-1
 10
2.179749
 20
3.029758
 30
0.000000
  0
VERTEX
  8
LAYER-1
 10
2.252666
 20
3.102675
 30
0.000000
  0
SEQEND
  8
LAYER-1
  0
POLYLINE
  8
LAYER-1
 66
  1
 70
  0
 62
  7
 10
2.179749
 20
2.404758
 30
0.000000
  0
VERTEX
  8
LAYER-1
 10
2.179749
 20
2.404758
 30
0.000000
  0
VERTEX
  8
LAYER-1
 10
2.252666
 20
2.477675
 30
0.000000
  0
SEQEND
  8
LAYER-1
  0
POLYLINE
  8
LAYER-1
 66
  1
 70
  0
 62
  7
 10
2.179749
 20
1.779758
 30
0.000000
  0
VERTEX
  8
LAYER-1
 10
2.179749
 20
1.779758
 30
0.000000
  0
VERTEX
  8
LAYER-1
 10
2.252666
 20
1.852675
 30
0.000000
  0
SEQEND
  8
LAYER-1
  0
POLYLINE
  8
LAYER-1
 66
  1
 70
  0
 62
  7
 10
2.179749
 20
1.154758
 30
0.000000
  0
VERTEX
  8
LAYER-1
 10
2.179749
 20
1.154758
 30
0.000000
  0
VERTEX
  8
LAYER-1
 10
2.252666
 20
1.227675
 30
0.000000
  0
SEQEND
  8
LAYER-1
  0
POLYLINE
  8
LAYER-1
 66
  1
 70
  0
 62
  7
 10
2.974889
 20
3.821427
 30
0.000000
  0
VERTEX
  8
LAYER-1
 10
2.974889
 20
3.821427
 30
0.000000
  0
VERTEX
  8
LAYER-1
 10
3.047806
 20
3.894343
 30
0.000000
  0
SEQEND
  8
LAYER-1
  0
POLYLINE
  8
LAYER-1
 66
  1
 70
  0
 62
  7
 10
2.974889
 20
3.196427
 30
0.000000
  0
VERTEX
  8
LAYER-1
 10
2.974889
 20
3.196427
 30
0.000000
  0
VERTEX
  8
LAYER-1
 10
3.047806
 20
3.269343
 30
0.000000
  0
SEQEND
  8
LAYER-1
  0
POLYLINE
  8
LAYER-1
 66
  1
 70
  0
 62
  7
 10
2.974889
 20
2.571426
 30
0.000000
  0
VERTEX
  8
LAYER-1
 10
2.974889
 20
2.571426
 30
0.000000
  0
VERTEX
  8
LAYER-1
 10
3.047806
 20
2.644343
 30
0.000000
  0
SEQEND
  8
LAYER-1
  0
POLYLINE
  8
LAYER-1
 66
  1
 70
  0
 62
  7
 10
2.974889
 20
1.946426
 30
0.000000
  0
VERTEX
  8
LAYER-1
 10
2.974889
 20
1.946426
 30
0.000000
  0
VERTEX
  8
LAYER-1
 10
3.047806
 20
2.019343
 30
0.000000
  0
SEQEND
  8
LAYER-1
  0
POLYLINE
  8
LAYER-1
 66
  1
 70
  0
 62
  7
 10
2.974889
 20
1.321426
 30
0.000000
  0
VERTEX
  8
LAYER-1
 10
2.974889
 20
1.321426
 30
0.000000
  0
VERTEX
  8
LAYER-1
 10
3.047806
 20
1.394343
 30
0.000000
  0
SEQEND
  8
LAYER-1
  0
POLYLINE
  8
LAYER-1
 66
  1
 70
  0
 62
  7
 10
2.974889
 20
3.790177
 30
0.000000
  0
VERTEX
  8
LAYER-1
 10
2.974889
 20
3.790177
 30
0.000000
  0
VERTEX
  8
LAYER-1
 10
3.047806
 20
3.863093
 30
0.000000
  0
SEQEND
  8
LAYER-1
  0
POLYLINE
  8
LAYER-1
 66
  1
 70
  0
 62
  7
 10
2.974889
 20
3.165177
 30
0.000000
  0
VERTEX
  8
LAYER-1
 10
2.974889
 20
3.165177
 30
0.000000
  0
VERTEX
  8
LAYER-1
 10
3.047806
 20
3.238093
 30
0.000000
  0
SEQEND
  8
LAYER-1
  0
POLYLINE
  8
LAYER-1
 66
  1
 70
  0
 62
  7
 10
2.974889
 20
2.540176
 30
0.000000
  0
VERTEX
  8
LAYER-1
 10
2.974889
 20
2.540176
 30
0.000000
  0
VERTEX
  8
LAYER-1
 10
3.047806
 20
2.613093
 30
0.000000
  0
SEQEND
  8
LAYER-1
  0
POLYLINE
  8
LAYER-1
 66
  1
 70
  0
 62
  7
 10
2.974889
 20
1.915176
 30
0.000000
  0
VERTEX
  8
LAYER-1
 10
2.974889
 20
1.915176
 30
0.000000
  0
VERTEX
  8
LAYER-1
 10
3.047806
 20
1.988093
 30
0.000000
  0
SEQEND
  8
LAYER-1
  0
POLYLINE
  8
LAYER-1
 66
  1
 70
  0
 62
  7
 10
2.974889
 20
1.290176
 30
0.000000
  0
VERTEX
  8
LAYER-1
 10
2.974889
 20
1.290176
 30
0.000000
  0
VERTEX
  8
LAYER-1
 10
3.047806
 20
1.363093
 30
0.000000
  0
SEQEND
  8
LAYER-1
  0
POLYLINE
  8
LAYER-1
 66
  1
 70
  0
 62
  7
 10
2.679750
 20
1.036703
 30
0.000000
  0
VERTEX
  8
LAYER-1
 10
2.679750
 20
1.036703
 30
0.000000
  0
VERTEX
  8
LAYER-1
 10
2.825585
 20
1.182537
 30
0.000000
  0
SEQEND
  8
LAYER-1
  0
POLYLINE
  8
LAYER-1
 66
  1
 70
  0
 62
  7
 10
2.721418
 20
1.040176
 30
0.000000
  0
VERTEX
  8
LAYER-1
 10
2.721418
 20
1.040176
 30
0.000000
  0
VERTEX
  8
LAYER-1
 10
2.863779
 20
1.182537
 30
0.000000
  0
SEQEND
  8
LAYER-1
  0
POLYLINE
  8
LAYER-1
 66
  1
 70
  0
 62
  7
 10
1.292683
 20
2.309403
 30
0.000000
  0
VERTEX
  8
LAYER-1
 10
1.292683
 20
2.309403
 30
0.000000
  0
VERTEX
  8
LAYER-1
 10
1.293639
 20
2.314177
 30
0.000000
  0
VERTEX
  8
LAYER-1
 10
1.300323
 20
2.317042
 30
0.000000
  0
VERTEX
  8
LAYER-1
 10
1.302233
 20
2.322772
 30
0.000000
  0
VERTEX
  8
LAYER-1
 10
1.303187
 20
2.328500
 30
0.000000
  0
VERTEX
  8
LAYER-1
 10
1.297457
 20
2.333274
 30
0.000000
  0
VERTEX
  8
LAYER-1
 10
1.291729
 20
2.335184
 30
0.000000
  0
VERTEX
  8
LAYER-1
 10
1.285999
 20
2.336139
 30
0.000000
  0
VERTEX
  8
LAYER-1
 10
1.280271
 20
2.339959
 30
0.000000
  0
VERTEX
  8
LAYER-1
 10
1.274541
 20
2.339959
 30
0.000000
  0
VERTEX
  8
LAYER-1
 10
1.268812
 20
2.336139
 30
0.000000
  0
VERTEX
  8
LAYER-1
 10
1.265947
 20
2.330410
 30
0.000000
  0
VERTEX
  8
LAYER-1
 10
1.264038
 20
2.324681
 30
0.000000
  0
VERTEX
  8
LAYER-1
 10
1.264038
 20
2.318952
 30
0.000000
  0
VERTEX
  8
LAYER-1
 10
1.268812
 20
2.313222
 30
0.000000
  0
VERTEX
  8
LAYER-1
 10
1.273586
 20
2.306539
 30
0.000000
  0
VERTEX
  8
LAYER-1
 10
1.278361
 20
2.303673
 30
0.000000
  0
VERTEX
  8
LAYER-1
 10
1.284090
 20
2.302719
 30
0.000000
  0
VERTEX
  8
LAYER-1
 10
1.289819
 20
2.304629
 30
0.000000
  0
VERTEX
  8
LAYER-1
 10
1.292683
 20
2.310358
 30
0.000000
  0
SEQEND
  8
LAYER-1
  0
POLYLINE
  8
LAYER-1
 66
  1
 70
  0
 62
  7
 10
0.973760
 20
2.668430
 30
0.000000
  0
VERTEX
  8
LAYER-1
 10
0.973760
 20
2.668430
 30
0.000000
  0
VERTEX
  8
LAYER-1
 10
0.979489
 20
2.673204
 30
0.000000
  0
VERTEX
  8
LAYER-1
 10
0.984263
 20
2.673204
 30
0.000000
  0
VERTEX
  8
LAYER-1
 10
0.989992
 20
2.673204
 30
0.000000
  0
VERTEX
  8
LAYER-1
 10
0.994767
 20
2.677024
 30
0.000000
  0
VERTEX
  8
LAYER-1
 10
0.998586
 20
2.682753
 30
0.000000
  0
VERTEX
  8
LAYER-1
 10
0.997632
 20
2.688482
 30
0.000000
  0
VERTEX
  8
LAYER-1
 10
0.995722
 20
2.694212
 30
0.000000
  0
VERTEX
  8
LAYER-1
 10
0.989992
 20
2.695166
 30
0.000000
  0
VERTEX
  8
LAYER-1
 10
0.984263
 20
2.692302
 30
0.000000
  0
VERTEX
  8
LAYER-1
 10
0.979489
 20
2.689438
 30
0.000000
  0
VERTEX
  8
LAYER-1
 10
0.973760
 20
2.689438
 30
0.000000
  0
VERTEX
  8
LAYER-1
 10
0.968030
 20
2.689438
 30
0.000000
  0
VERTEX
  8
LAYER-1
 10
0.962301
 20
2.689438
 30
0.000000
  0
VERTEX
  8
LAYER-1
 10
0.959437
 20
2.683708
 30
0.000000
  0
VERTEX
  8
LAYER-1
 10
0.957527
 20
2.678934
 30
0.000000
  0
VERTEX
  8
LAYER-1
 10
0.955617
 20
2.673204
 30
0.000000
  0
VERTEX
  8
LAYER-1
 10
0.957527
 20
2.667476
 30
0.000000
  0
VERTEX
  8
LAYER-1
 10
0.962301
 20
2.661746
 30
0.000000
  0
VERTEX
  8
LAYER-1
 10
0.968030
 20
2.662702
 30
0.000000
  0
VERTEX
  8
LAYER-1
 10
0.973760
 20
2.666522
 30
0.000000
  0
SEQEND
  8
LAYER-1
  0
POLYLINE
  8
LAYER-1
 66
  1
 70
  0
 62
  7
 10
1.561694
 20
3.120037
 30
0.000000
  0
VERTEX
  8
LAYER-1
 10
1.561694
 20
3.120037
 30
0.000000
  0
VERTEX
  8
LAYER-1
 10
1.560739
 20
3.115262
 30
0.000000
  0
VERTEX
  8
LAYER-1
 10
1.554055
 20
3.112397
 30
0.000000
  0
VERTEX
  8
LAYER-1
 10
1.552145
 20
3.106668
 30
0.000000
  0
VERTEX
  8
LAYER-1
 10
1.551190
 20
3.100939
 30
0.000000
  0
VERTEX
  8
LAYER-1
 10
1.556920
 20
3.096165
 30
0.000000
  0
VERTEX
  8
LAYER-1
 10
1.562649
 20
3.094255
 30
0.000000
  0
VERTEX
  8
LAYER-1
 10
1.568378
 20
3.093300
 30
0.000000
  0
VERTEX
  8
LAYER-1
 10
1.574107
 20
3.089480
 30
0.000000
  0
VERTEX
  8
LAYER-1
 10
1.579836
 20
3.089480
 30
0.000000
  0
VERTEX
  8
LAYER-1
 10
1.585565
 20
3.093300
 30
0.000000
  0
VERTEX
  8
LAYER-1
 10
1.588430
 20
3.099030
 30
0.000000
  0
VERTEX
  8
LAYER-1
 10
1.590340
 20
3.104759
 30
0.000000
  0
VERTEX
  8
LAYER-1
 10
1.590340
 20
3.110488
 30
0.000000
  0
VERTEX
  8
LAYER-1
 10
1.585565
 20
3.116217
 30
0.000000
  0
VERTEX
  8
LAYER-1
 10
1.580791
 20
3.122901
 30
0.000000
  0
VERTEX
  8
LAYER-1
 10
1.576017
 20
3.125766
 30
0.000000
  0
VERTEX
  8
LAYER-1
 10
1.570288
 20
3.126720
 30
0.000000
  0
VERTEX
  8
LAYER-1
 10
1.564558
 20
3.124811
 30
0.000000
  0
VERTEX
  8
LAYER-1
 10
1.561694
 20
3.119081
 30
0.000000
  0
SEQEND
  8
LAYER-1
  0
POLYLINE
  8
LAYER-1
 66
  1
 70
  0
 62
  7
 10
1.880618
 20
2.761009
 30
0.000000
  0
VERTEX
  8
LAYER-1
 10
1.880618
 20
2.761009
 30
0.000000
  0
VERTEX
  8
LAYER-1
 10
1.874889
 20
2.756235
 30
0.000000
  0
VERTEX
  8
LAYER-1
 10
1.870114
 20
2.756235
 30
0.000000
  0
VERTEX
  8
LAYER-1
 10
1.864385
 20
2.756235
 30
0.000000
  0
VERTEX
  8
LAYER-1
 10
1.859611
 20
2.752415
 30
0.000000
  0
VERTEX
  8
LAYER-1
 10
1.855792
 20
2.746686
 30
0.000000
  0
VERTEX
  8
LAYER-1
 10
1.856746
 20
2.740957
 30
0.000000
  0
VERTEX
  8
LAYER-1
 10
1.858656
 20
2.735228
 30
0.000000
  0
VERTEX
  8
LAYER-1
 10
1.864385
 20
2.734273
 30
0.000000
  0
VERTEX
  8
LAYER-1
 10
1.870114
 20
2.737137
 30
0.000000
  0
VERTEX
  8
LAYER-1
 10
1.874889
 20
2.740002
 30
0.000000
  0
VERTEX
  8
LAYER-1
 10
1.880618
 20
2.740002
 30
0.000000
  0
VERTEX
  8
LAYER-1
 10
1.886347
 20
2.740002
 30
0.000000
  0
VERTEX
  8
LAYER-1
 10
1.892076
 20
2.740002
 30
0.000000
  0
VERTEX
  8
LAYER-1
 10
1.894941
 20
2.745731
 30
0.000000
  0
VERTEX
  8
LAYER-1
 10
1.896850
 20
2.750506
 30
0.000000
  0
VERTEX
  8
LAYER-1
 10
1.898760
 20
2.756235
 30
0.000000
  0
VERTEX
  8
LAYER-1
 10
1.896850
 20
2.761963
 30
0.000000
  0
VERTEX
  8
LAYER-1
 10
1.892076
 20
2.767693
 30
0.000000
  0
VERTEX
  8
LAYER-1
 10
1.886347
 20
2.766738
 30
0.000000
  0
VERTEX
  8
LAYER-1
 10
1.880618
 20
2.762918
 30
0.000000
  0
SEQEND
  8
LAYER-1
  0
POLYLINE
  8
LAYER-1
 66
  1
 70
  0
 62
  7
 10
0.245722
 20
2.630453
 30
0.000000
  0
VERTEX
  8
LAYER-1
 10
0.245722
 20
2.630453
 30
0.000000
  0
VERTEX
  8
LAYER-1
 10
0.244767
 20
2.625679
 30
0.000000
  0
VERTEX
  8
LAYER-1
 10
0.238083
 20
2.622814
 30
0.000000
  0
VERTEX
  8
LAYER-1
 10
0.236173
 20
2.617085
 30
0.000000
  0
VERTEX
  8
LAYER-1
 10
0.235218
 20
2.611356
 30
0.000000
  0
VERTEX
  8
LAYER-1
 10
0.240948
 20
2.606582
 30
0.000000
  0
VERTEX
  8
LAYER-1
 10
0.246677
 20
2.604672
 30
0.000000
  0
VERTEX
  8
LAYER-1
 10
0.252406
 20
2.603717
 30
0.000000
  0
VERTEX
  8
LAYER-1
 10
0.258135
 20
2.599898
 30
0.000000
  0
VERTEX
  8
LAYER-1
 10
0.263864
 20
2.599898
 30
0.000000
  0
VERTEX
  8
LAYER-1
 10
0.269593
 20
2.603717
 30
0.000000
  0
VERTEX
  8
LAYER-1
 10
0.272458
 20
2.609446
 30
0.000000
  0
VERTEX
  8
LAYER-1
 10
0.274367
 20
2.615176
 30
0.000000
  0
VERTEX
  8
LAYER-1
 10
0.274367
 20
2.620905
 30
0.000000
  0
VERTEX
  8
LAYER-1
 10
0.269593
 20
2.626634
 30
0.000000
  0
VERTEX
  8
LAYER-1
 10
0.264819
 20
2.633318
 30
0.000000
  0
VERTEX
  8
LAYER-1
 10
0.260045
 20
2.636182
 30
0.000000
  0
VERTEX
  8
LAYER-1
 10
0.254315
 20
2.637137
 30
0.000000
  0
VERTEX
  8
LAYER-1
 10
0.248586
 20
2.635227
 30
0.000000
  0
VERTEX
  8
LAYER-1
 10
0.245722
 20
2.629498
 30
0.000000
  0
SEQEND
  8
LAYER-1
  0
POLYLINE
  8
LAYER-1
 66
  1
 70
  0
 62
  7
 10
0.564645
 20
2.271426
 30
0.000000
  0
VERTEX
  8
LAYER-1
 10
0.564645
 20
2.271426
 30
0.000000
  0
VERTEX
  8
LAYER-1
 10
0.558917
 20
2.266651
 30
0.000000
  0
VERTEX
  8
LAYER-1
 10
0.554142
 20
2.266651
 30
0.000000
  0
VERTEX
  8
LAYER-1
 10
0.548413
 20
2.266651
 30
0.000000
  0
VERTEX
  8
LAYER-1
 10
0.543639
 20
2.262832
 30
0.000000
  0
VERTEX
  8
LAYER-1
 10
0.539819
 20
2.257104
 30
0.000000
  0
VERTEX
  8
LAYER-1
 10
0.540774
 20
2.251374
 30
0.000000
  0
VERTEX
  8
LAYER-1
 10
0.542684
 20
2.245645
 30
0.000000
  0
VERTEX
  8
LAYER-1
 10
0.548413
 20
2.244690
 30
0.000000
  0
VERTEX
  8
LAYER-1
 10
0.554142
 20
2.247554
 30
0.000000
  0
VERTEX
  8
LAYER-1
 10
0.558917
 20
2.250419
 30
0.000000
  0
VERTEX
  8
LAYER-1
 10
0.564645
 20
2.250419
 30
0.000000
  0
VERTEX
  8
LAYER-1
 10
0.570375
 20
2.250419
 30
0.000000
  0
VERTEX
  8
LAYER-1
 10
0.576104
 20
2.250419
 30
0.000000
  0
VERTEX
  8
LAYER-1
 10
0.578968
 20
2.256148
 30
0.000000
  0
VERTEX
  8
LAYER-1
 10
0.580878
 20
2.260922
 30
0.000000
  0
VERTEX
  8
LAYER-1
 10
0.582788
 20
2.266651
 30
0.000000
  0
VERTEX
  8
LAYER-1
 10
0.580878
 20
2.272381
 30
0.000000
  0
VERTEX
  8
LAYER-1
 10
0.576104
 20
2.278110
 30
0.000000
  0
VERTEX
  8
LAYER-1
 10
0.570375
 20
2.277155
 30
0.000000
  0
VERTEX
  8
LAYER-1
 10
0.564645
 20
2.273335
 30
0.000000
  0
SEQEND
  8
LAYER-1
  0
POLYLINE
  8
LAYER-1
 66
  1
 70
  0
 62
  7
 10
0.242770
 20
1.590175
 30
0.000000
  0
VERTEX
  8
LAYER-1
 10
0.242770
 20
1.590175
 30
0.000000
  0
VERTEX
  8
LAYER-1
 10
0.241815
 20
1.585401
 30
0.000000
  0
VERTEX
  8
LAYER-1
 10
0.235131
 20
1.582537
 30
0.000000
  0
VERTEX
  8
LAYER-1
 10
0.233221
 20
1.576807
 30
0.000000
  0
VERTEX
  8
LAYER-1
 10
0.232267
 20
1.571078
 30
0.000000
  0
VERTEX
  8
LAYER-1
 10
0.237996
 20
1.566304
 30
0.000000
  0
VERTEX
  8
LAYER-1
 10
0.243725
 20
1.564394
 30
0.000000
  0
VERTEX
  8
LAYER-1
 10
0.249454
 20
1.563439
 30
0.000000
  0
VERTEX
  8
LAYER-1
 10
0.255184
 20
1.559620
 30
0.000000
  0
VERTEX
  8
LAYER-1
 10
0.260913
 20
1.559620
 30
0.000000
  0
VERTEX
  8
LAYER-1
 10
0.266642
 20
1.563439
 30
0.000000
  0
VERTEX
  8
LAYER-1
 10
0.269506
 20
1.569168
 30
0.000000
  0
VERTEX
  8
LAYER-1
 10
0.271416
 20
1.574898
 30
0.000000
  0
VERTEX
  8
LAYER-1
 10
0.271416
 20
1.580627
 30
0.000000
  0
VERTEX
  8
LAYER-1
 10
0.266642
 20
1.586356
 30
0.000000
  0
VERTEX
  8
LAYER-1
 10
0.261868
 20
1.593040
 30
0.000000
  0
VERTEX
  8
LAYER-1
 10
0.257093
 20
1.595904
 30
0.000000
  0
VERTEX
  8
LAYER-1
 10
0.251364
 20
1.596859
 30
0.000000
  0
VERTEX
  8
LAYER-1
 10
0.245635
 20
1.594950
 30
0.000000
  0
VERTEX
  8
LAYER-1
 10
0.242770
 20
1.589220
 30
0.000000
  0
SEQEND
  8
LAYER-1
  0
POLYLINE
  8
LAYER-1
 66
  1
 70
  0
 62
  7
 10
0.561694
 20
1.231148
 30
0.000000
  0
VERTEX
  8
LAYER-1
 10
0.561694
 20
1.231148
 30
0.000000
  0
VERTEX
  8
LAYER-1
 10
0.555965
 20
1.226374
 30
0.000000
  0
VERTEX
  8
LAYER-1
 10
0.551190
 20
1.226374
 30
0.000000
  0
VERTEX
  8
LAYER-1
 10
0.545462
 20
1.226374
 30
0.000000
  0
VERTEX
  8
LAYER-1
 10
0.540687
 20
1.222554
 30
0.000000
  0
VERTEX
  8
LAYER-1
 10
0.536868
 20
1.216826
 30
0.000000
  0
VERTEX
  8
LAYER-1
 10
0.537822
 20
1.211096
 30
0.000000
  0
VERTEX
  8
LAYER-1
 10
0.539732
 20
1.205367
 30
0.000000
  0
VERTEX
  8
LAYER-1
 10
0.545462
 20
1.204412
 30
0.000000
  0
VERTEX
  8
LAYER-1
 10
0.551190
 20
1.207276
 30
0.000000
  0
VERTEX
  8
LAYER-1
 10
0.555965
 20
1.210141
 30
0.000000
  0
VERTEX
  8
LAYER-1
 10
0.561694
 20
1.210141
 30
0.000000
  0
VERTEX
  8
LAYER-1
 10
0.567423
 20
1.210141
 30
0.000000
  0
VERTEX
  8
LAYER-1
 10
0.573152
 20
1.210141
 30
0.000000
  0
VERTEX
  8
LAYER-1
 10
0.576017
 20
1.215870
 30
0.000000
  0
VERTEX
  8
LAYER-1
 10
0.577927
 20
1.220644
 30
0.000000
  0
VERTEX
  8
LAYER-1
 10
0.579836
 20
1.226374
 30
0.000000
  0
VERTEX
  8
LAYER-1
 10
0.577927
 20
1.232103
 30
0.000000
  0
VERTEX
  8
LAYER-1
 10
0.573152
 20
1.237832
 30
0.000000
  0
VERTEX
  8
LAYER-1
 10
0.567423
 20
1.236877
 30
0.000000
  0
VERTEX
  8
LAYER-1
 10
0.561694
 20
1.233057
 30
0.000000
  0
SEQEND
  8
LAYER-1
  0
POLYLINE
  8
LAYER-1
 66
  1
 70
  0
 62
  7
 10
1.440687
 20
2.031148
 30
0.000000
  0
VERTEX
  8
LAYER-1
 10
1.440687
 20
2.031148
 30
0.000000
  0
VERTEX
  8
LAYER-1
 10
1.439732
 20
2.026373
 30
0.000000
  0
VERTEX
  8
LAYER-1
 10
1.433048
 20
2.023509
 30
0.000000
  0
VERTEX
  8
LAYER-1
 10
1.431138
 20
2.017779
 30
0.000000
  0
VERTEX
  8
LAYER-1
 10
1.430183
 20
2.012050
 30
0.000000
  0
VERTEX
  8
LAYER-1
 10
1.435913
 20
2.007276
 30
0.000000
  0
VERTEX
  8
LAYER-1
 10
1.441642
 20
2.005366
 30
0.000000
  0
VERTEX
  8
LAYER-1
 10
1.447371
 20
2.004412
 30
0.000000
  0
VERTEX
  8
LAYER-1
 10
1.453100
 20
2.000592
 30
0.000000
  0
VERTEX
  8
LAYER-1
 10
1.458829
 20
2.000592
 30
0.000000
  0
VERTEX
  8
LAYER-1
 10
1.464559
 20
2.004412
 30
0.000000
  0
VERTEX
  8
LAYER-1
 10
1.467423
 20
2.010141
 30
0.000000
  0
VERTEX
  8
LAYER-1
 10
1.469333
 20
2.015870
 30
0.000000
  0
VERTEX
  8
LAYER-1
 10
1.469333
 20
2.021599
 30
0.000000
  0
VERTEX
  8
LAYER-1
 10
1.464559
 20
2.027328
 30
0.000000
  0
VERTEX
  8
LAYER-1
 10
1.459784
 20
2.034012
 30
0.000000
  0
VERTEX
  8
LAYER-1
 10
1.455010
 20
2.036877
 30
0.000000
  0
VERTEX
  8
LAYER-1
 10
1.449281
 20
2.037831
 30
0.000000
  0
VERTEX
  8
LAYER-1
 10
1.443552
 20
2.035922
 30
0.000000
  0
VERTEX
  8
LAYER-1
 10
1.440687
 20
2.030192
 30
0.000000
  0
SEQEND
  8
LAYER-1
  0
POLYLINE
  8
LAYER-1
 66
  1
 70
  0
 62
  7
 10
1.759611
 20
1.672120
 30
0.000000
  0
VERTEX
  8
LAYER-1
 10
1.759611
 20
1.672120
 30
0.000000
  0
VERTEX
  8
LAYER-1
 10
1.753882
 20
1.667346
 30
0.000000
  0
VERTEX
  8
LAYER-1
 10
1.749107
 20
1.667346
 30
0.000000
  0
VERTEX
  8
LAYER-1
 10
1.743378
 20
1.667346
 30
0.000000
  0
VERTEX
  8
LAYER-1
 10
1.738604
 20
1.663526
 30
0.000000
  0
VERTEX
  8
LAYER-1
 10
1.734784
 20
1.657798
 30
0.000000
  0
VERTEX
  8
LAYER-1
 10
1.735739
 20
1.652068
 30
0.000000
  0
VERTEX
  8
LAYER-1
 10
1.737649
 20
1.646339
 30
0.000000
  0
VERTEX
  8
LAYER-1
 10
1.743378
 20
1.645385
 30
0.000000
  0
VERTEX
  8
LAYER-1
 10
1.749107
 20
1.648249
 30
0.000000
  0
VERTEX
  8
LAYER-1
 10
1.753882
 20
1.651113
 30
0.000000
  0
VERTEX
  8
LAYER-1
 10
1.759611
 20
1.651113
 30
0.000000
  0
VERTEX
  8
LAYER-1
 10
1.765340
 20
1.651113
 30
0.000000
  0
VERTEX
  8
LAYER-1
 10
1.771069
 20
1.651113
 30
0.000000
  0
VERTEX
  8
LAYER-1
 10
1.773934
 20
1.656842
 30
0.000000
  0
VERTEX
  8
LAYER-1
 10
1.775843
 20
1.661617
 30
0.000000
  0
VERTEX
  8
LAYER-1
 10
1.777753
 20
1.667346
 30
0.000000
  0
VERTEX
  8
LAYER-1
 10
1.775843
 20
1.673075
 30
0.000000
  0
VERTEX
  8
LAYER-1
 10
1.771069
 20
1.678804
 30
0.000000
  0
VERTEX
  8
LAYER-1
 10
1.765340
 20
1.677849
 30
0.000000
  0
VERTEX
  8
LAYER-1
 10
1.759611
 20
1.674029
 30
0.000000
  0
SEQEND
  8
LAYER-1
  0
POLYLINE
  8
LAYER-1
 66
  1
 70
  0
 62
  7
 10
1.890947
 20
1.028804
 30
0.000000
  0
VERTEX
  8
LAYER-1
 10
1.890947
 20
1.028804
 30
0.000000
  0
VERTEX
  8
LAYER-1
 10
1.891902
 20
1.033579
 30
0.000000
  0
VERTEX
  8
LAYER-1
 10
1.898586
 20
1.036443
 30
0.000000
  0
VERTEX
  8
LAYER-1
 10
1.900497
 20
1.042172
 30
0.000000
  0
VERTEX
  8
LAYER-1
 10
1.901451
 20
1.047901
 30
0.000000
  0
VERTEX
  8
LAYER-1
 10
1.895722
 20
1.052675
 30
0.000000
  0
VERTEX
  8
LAYER-1
 10
1.889993
 20
1.054585
 30
0.000000
  0
VERTEX
  8
LAYER-1
 10
1.884263
 20
1.055540
 30
0.000000
  0
VERTEX
  8
LAYER-1
 10
1.878534
 20
1.059360
 30
0.000000
  0
VERTEX
  8
LAYER-1
 10
1.872805
 20
1.059360
 30
0.000000
  0
VERTEX
  8
LAYER-1
 10
1.867076
 20
1.055540
 30
0.000000
  0
VERTEX
  8
LAYER-1
 10
1.864212
 20
1.049811
 30
0.000000
  0
VERTEX
  8
LAYER-1
 10
1.862302
 20
1.044082
 30
0.000000
  0
VERTEX
  8
LAYER-1
 10
1.862302
 20
1.038353
 30
0.000000
  0
VERTEX
  8
LAYER-1
 10
1.867076
 20
1.032623
 30
0.000000
  0
VERTEX
  8
LAYER-1
 10
1.871850
 20
1.025939
 30
0.000000
  0
VERTEX
  8
LAYER-1
 10
1.876624
 20
1.023075
 30
0.000000
  0
VERTEX
  8
LAYER-1
 10
1.882353
 20
1.022121
 30
0.000000
  0
VERTEX
  8
LAYER-1
 10
1.888083
 20
1.024030
 30
0.000000
  0
VERTEX
  8
LAYER-1
 10
1.890947
 20
1.029759
 30
0.000000
  0
SEQEND
  8
LAYER-1
  0
POLYLINE
  8
LAYER-1
 66
  1
 70
  0
 62
  7
 10
1.572024
 20
1.387831
 30
0.000000
  0
VERTEX
  8
LAYER-1
 10
1.572024
 20
1.387831
 30
0.000000
  0
VERTEX
  8
LAYER-1
 10
1.577753
 20
1.392606
 30
0.000000
  0
VERTEX
  8
LAYER-1
 10
1.582527
 20
1.392606
 30
0.000000
  0
VERTEX
  8
LAYER-1
 10
1.588256
 20
1.392606
 30
0.000000
  0
VERTEX
  8
LAYER-1
 10
1.593031
 20
1.396425
 30
0.000000
  0
VERTEX
  8
LAYER-1
 10
1.596850
 20
1.402154
 30
0.000000
  0
VERTEX
  8
LAYER-1
 10
1.595896
 20
1.407884
 30
0.000000
  0
VERTEX
  8
LAYER-1
 10
1.593986
 20
1.413612
 30
0.000000
  0
VERTEX
  8
LAYER-1
 10
1.588256
 20
1.414568
 30
0.000000
  0
VERTEX
  8
LAYER-1
 10
1.582527
 20
1.411703
 30
0.000000
  0
VERTEX
  8
LAYER-1
 10
1.577753
 20
1.408839
 30
0.000000
  0
VERTEX
  8
LAYER-1
 10
1.572024
 20
1.408839
 30
0.000000
  0
VERTEX
  8
LAYER-1
 10
1.566294
 20
1.408839
 30
0.000000
  0
VERTEX
  8
LAYER-1
 10
1.560565
 20
1.408839
 30
0.000000
  0
VERTEX
  8
LAYER-1
 10
1.557701
 20
1.403110
 30
0.000000
  0
VERTEX
  8
LAYER-1
 10
1.555791
 20
1.398335
 30
0.000000
  0
VERTEX
  8
LAYER-1
 10
1.553881
 20
1.392606
 30
0.000000
  0
VERTEX
  8
LAYER-1
 10
1.555791
 20
1.386877
 30
0.000000
  0
VERTEX
  8
LAYER-1
 10
1.560565
 20
1.381148
 30
0.000000
  0
VERTEX
  8
LAYER-1
 10
1.566294
 20
1.382103
 30
0.000000
  0
VERTEX
  8
LAYER-1
 10
1.572024
 20
1.385922
 30
0.000000
  0
SEQEND
  8
LAYER-1
  0
POLYLINE
  8
LAYER-1
 66
  1
 70
  0
 62
  7
 10
1.724888
 20
2.474203
 30
0.000000
  0
VERTEX
  8
LAYER-1
 10
1.724888
 20
2.474203
 30
0.000000
  0
VERTEX
  8
LAYER-1
 10
1.723934
 20
2.469429
 30
0.000000
  0
VERTEX
  8
LAYER-1
 10
1.717250
 20
2.466564
 30
0.000000
  0
VERTEX
  8
LAYER-1
 10
1.715340
 20
2.460835
 30
0.000000
  0
VERTEX
  8
LAYER-1
 10
1.714385
 20
2.455106
 30
0.000000
  0
VERTEX
  8
LAYER-1
 10
1.720114
 20
2.450332
 30
0.000000
  0
VERTEX
  8
LAYER-1
 10
1.725843
 20
2.448422
 30
0.000000
  0
VERTEX
  8
LAYER-1
 10
1.731573
 20
2.447467
 30
0.000000
  0
VERTEX
  8
LAYER-1
 10
1.737302
 20
2.443648
 30
0.000000
  0
VERTEX
  8
LAYER-1
 10
1.743031
 20
2.443648
 30
0.000000
  0
VERTEX
  8
LAYER-1
 10
1.748760
 20
2.447467
 30
0.000000
  0
VERTEX
  8
LAYER-1
 10
1.751624
 20
2.453196
 30
0.000000
  0
VERTEX
  8
LAYER-1
 10
1.753534
 20
2.458926
 30
0.000000
  0
VERTEX
  8
LAYER-1
 10
1.753534
 20
2.464655
 30
0.000000
  0
VERTEX
  8
LAYER-1
 10
1.748760
 20
2.470384
 30
0.000000
  0
VERTEX
  8
LAYER-1
 10
1.743986
 20
2.477068
 30
0.000000
  0
VERTEX
  8
LAYER-1
 10
1.739211
 20
2.479932
 30
0.000000
  0
VERTEX
  8
LAYER-1
 10
1.733482
 20
2.480887
 30
0.000000
  0
VERTEX
  8
LAYER-1
 10
1.727753
 20
2.478977
 30
0.000000
  0
VERTEX
  8
LAYER-1
 10
1.724888
 20
2.473248
 30
0.000000
  0
SEQEND
  8
LAYER-1
  0
POLYLINE
  8
LAYER-1
 66
  1
 70
  0
 62
  7
 10
2.043812
 20
2.115176
 30
0.000000
  0
VERTEX
  8
LAYER-1
 10
2.043812
 20
2.115176
 30
0.000000
  0
VERTEX
  8
LAYER-1
 10
2.038083
 20
2.110401
 30
0.000000
  0
VERTEX
  8
LAYER-1
 10
2.033308
 20
2.110401
 30
0.000000
  0
VERTEX
  8
LAYER-1
 10
2.027580
 20
2.110401
 30
0.000000
  0
VERTEX
  8
LAYER-1
 10
2.022805
 20
2.106582
 30
0.000000
  0
VERTEX
  8
LAYER-1
 10
2.018986
 20
2.100854
 30
0.000000
  0
VERTEX
  8
LAYER-1
 10
2.019941
 20
2.095124
 30
0.000000
  0
VERTEX
  8
LAYER-1
 10
2.021851
 20
2.089395
 30
0.000000
  0
VERTEX
  8
LAYER-1
 10
2.027580
 20
2.088440
 30
0.000000
  0
VERTEX
  8
LAYER-1
 10
2.033308
 20
2.091304
 30
0.000000
  0
VERTEX
  8
LAYER-1
 10
2.038083
 20
2.094169
 30
0.000000
  0
VERTEX
  8
LAYER-1
 10
2.043812
 20
2.094169
 30
0.000000
  0
VERTEX
  8
LAYER-1
 10
2.049541
 20
2.094169
 30
0.000000
  0
VERTEX
  8
LAYER-1
 10
2.055271
 20
2.094169
 30
0.000000
  0
VERTEX
  8
LAYER-1
 10
2.058135
 20
2.099898
 30
0.000000
  0
VERTEX
  8
LAYER-1
 10
2.060045
 20
2.104672
 30
0.000000
  0
VERTEX
  8
LAYER-1
 10
2.061955
 20
2.110401
 30
0.000000
  0
VERTEX
  8
LAYER-1
 10
2.060045
 20
2.116131
 30
0.000000
  0
VERTEX
  8
LAYER-1
 10
2.055271
 20
2.121860
 30
0.000000
  0
VERTEX
  8
LAYER-1
 10
2.049541
 20
2.120905
 30
0.000000
  0
VERTEX
  8
LAYER-1
 10
2.043812
 20
2.117085
 30
0.000000
  0
SEQEND
  8
LAYER-1
  0
POLYLINE
  8
LAYER-1
 66
  1
 70
  0
 62
  7
 10
0.211000
 20
3.335314
 30
0.000000
  0
VERTEX
  8
LAYER-1
 10
0.211000
 20
3.335314
 30
0.000000
  0
VERTEX
  8
LAYER-1
 10
0.210045
 20
3.330539
 30
0.000000
  0
VERTEX
  8
LAYER-1
 10
0.203360
 20
3.327675
 30
0.000000
  0
VERTEX
  8
LAYER-1
 10
0.201451
 20
3.321946
 30
0.000000
  0
VERTEX
  8
LAYER-1
 10
0.200496
 20
3.316217
 30
0.000000
  0
VERTEX
  8
LAYER-1
 10
0.206225
 20
3.311443
 30
0.000000
  0
VERTEX
  8
LAYER-1
 10
0.211954
 20
3.309533
 30
0.000000
  0
VERTEX
  8
LAYER-1
 10
0.217683
 20
3.308578
 30
0.000000
  0
VERTEX
  8
LAYER-1
 10
0.223413
 20
3.304759
 30
0.000000
  0
VERTEX
  8
LAYER-1
 10
0.229142
 20
3.304759
 30
0.000000
  0
VERTEX
  8
LAYER-1
 10
0.234871
 20
3.308578
 30
0.000000
  0
VERTEX
  8
LAYER-1
 10
0.237736
 20
3.314307
 30
0.000000
  0
VERTEX
  8
LAYER-1
 10
0.239645
 20
3.320036
 30
0.000000
  0
VERTEX
  8
LAYER-1
 10
0.239645
 20
3.325766
 30
0.000000
  0
VERTEX
  8
LAYER-1
 10
0.234871
 20
3.331495
 30
0.000000
  0
VERTEX
  8
LAYER-1
 10
0.230097
 20
3.338179
 30
0.000000
  0
VERTEX
  8
LAYER-1
 10
0.225322
 20
3.341043
 30
0.000000
  0
VERTEX
  8
LAYER-1
 10
0.219593
 20
3.341998
 30
0.000000
  0
VERTEX
  8
LAYER-1
 10
0.213864
 20
3.340088
 30
0.000000
  0
VERTEX
  8
LAYER-1
 10
0.211000
 20
3.334359
 30
0.000000
  0
SEQEND
  8
LAYER-1
  0
POLYLINE
  8
LAYER-1
 66
  1
 70
  0
 62
  7
 10
0.529923
 20
2.976287
 30
0.000000
  0
VERTEX
  8
LAYER-1
 10
0.529923
 20
2.976287
 30
0.000000
  0
VERTEX
  8
LAYER-1
 10
0.524194
 20
2.971512
 30
0.000000
  0
VERTEX
  8
LAYER-1
 10
0.519420
 20
2.971512
 30
0.000000
  0
VERTEX
  8
LAYER-1
 10
0.513691
 20
2.971512
 30
0.000000
  0
VERTEX
  8
LAYER-1
 10
0.508916
 20
2.967693
 30
0.000000
  0
VERTEX
  8
LAYER-1
 10
0.505097
 20
2.961964
 30
0.000000
  0
VERTEX
  8
LAYER-1
 10
0.506051
 20
2.956235
 30
0.000000
  0
VERTEX
  8
LAYER-1
 10
0.507961
 20
2.950505
 30
0.000000
  0
VERTEX
  8
LAYER-1
 10
0.513691
 20
2.949551
 30
0.000000
  0
VERTEX
  8
LAYER-1
 10
0.519420
 20
2.952415
 30
0.000000
  0
VERTEX
  8
LAYER-1
 10
0.524194
 20
2.955279
 30
0.000000
  0
VERTEX
  8
LAYER-1
 10
0.529923
 20
2.955279
 30
0.000000
  0
VERTEX
  8
LAYER-1
 10
0.535653
 20
2.955279
 30
0.000000
  0
VERTEX
  8
LAYER-1
 10
0.541382
 20
2.955279
 30
0.000000
  0
VERTEX
  8
LAYER-1
 10
0.544246
 20
2.961009
 30
0.000000
  0
VERTEX
  8
LAYER-1
 10
0.546156
 20
2.965783
 30
0.000000
  0
VERTEX
  8
LAYER-1
 10
0.548066
 20
2.971512
 30
0.000000
  0
VERTEX
  8
LAYER-1
 10
0.546156
 20
2.977242
 30
0.000000
  0
VERTEX
  8
LAYER-1
 10
0.541382
 20
2.982971
 30
0.000000
  0
VERTEX
  8
LAYER-1
 10
0.535653
 20
2.982016
 30
0.000000
  0
VERTEX
  8
LAYER-1
 10
0.529923
 20
2.978196
 30
0.000000
  0
SEQEND
  8
LAYER-1
  0
POLYLINE
  8
LAYER-1
 66
  1
 70
  0
 62
  7
 10
0.897111
 20
3.035836
 30
0.000000
  0
VERTEX
  8
LAYER-1
 10
0.897111
 20
3.035836
 30
0.000000
  0
VERTEX
  8
LAYER-1
 10
0.901885
 20
3.034880
 30
0.000000
  0
VERTEX
  8
LAYER-1
 10
0.904749
 20
3.028196
 30
0.000000
  0
VERTEX
  8
LAYER-1
 10
0.910479
 20
3.026287
 30
0.000000
  0
VERTEX
  8
LAYER-1
 10
0.916208
 20
3.025332
 30
0.000000
  0
VERTEX
  8
LAYER-1
 10
0.920982
 20
3.031062
 30
0.000000
  0
VERTEX
  8
LAYER-1
 10
0.922892
 20
3.036791
 30
0.000000
  0
VERTEX
  8
LAYER-1
 10
0.923847
 20
3.042520
 30
0.000000
  0
VERTEX
  8
LAYER-1
 10
0.927667
 20
3.048249
 30
0.000000
  0
VERTEX
  8
LAYER-1
 10
0.927667
 20
3.053979
 30
0.000000
  0
VERTEX
  8
LAYER-1
 10
0.923847
 20
3.059707
 30
0.000000
  0
VERTEX
  8
LAYER-1
 10
0.918118
 20
3.062572
 30
0.000000
  0
VERTEX
  8
LAYER-1
 10
0.912388
 20
3.064481
 30
0.000000
  0
VERTEX
  8
LAYER-1
 10
0.906659
 20
3.064481
 30
0.000000
  0
VERTEX
  8
LAYER-1
 10
0.900930
 20
3.059707
 30
0.000000
  0
VERTEX
  8
LAYER-1
 10
0.894246
 20
3.054933
 30
0.000000
  0
VERTEX
  8
LAYER-1
 10
0.891381
 20
3.050159
 30
0.000000
  0
VERTEX
  8
LAYER-1
 10
0.890427
 20
3.044429
 30
0.000000
  0
VERTEX
  8
LAYER-1
 10
0.892336
 20
3.038700
 30
0.000000
  0
VERTEX
  8
LAYER-1
 10
0.898066
 20
3.035836
 30
0.000000
  0
SEQEND
  8
LAYER-1
  0
POLYLINE
  8
LAYER-1
 66
  1
 70
  0
 62
  7
 10
1.256138
 20
3.354760
 30
0.000000
  0
VERTEX
  8
LAYER-1
 10
1.256138
 20
3.354760
 30
0.000000
  0
VERTEX
  8
LAYER-1
 10
1.260912
 20
3.349031
 30
0.000000
  0
VERTEX
  8
LAYER-1
 10
1.260912
 20
3.344256
 30
0.000000
  0
VERTEX
  8
LAYER-1
 10
1.260912
 20
3.338527
 30
0.000000
  0
VERTEX
  8
LAYER-1
 10
1.264732
 20
3.333753
 30
0.000000
  0
VERTEX
  8
LAYER-1
 10
1.270461
 20
3.329933
 30
0.000000
  0
VERTEX
  8
LAYER-1
 10
1.276190
 20
3.330887
 30
0.000000
  0
VERTEX
  8
LAYER-1
 10
1.281919
 20
3.332798
 30
0.000000
  0
VERTEX
  8
LAYER-1
 10
1.282874
 20
3.338527
 30
0.000000
  0
VERTEX
  8
LAYER-1
 10
1.280010
 20
3.344256
 30
0.000000
  0
VERTEX
  8
LAYER-1
 10
1.277145
 20
3.349031
 30
0.000000
  0
VERTEX
  8
LAYER-1
 10
1.277145
 20
3.354760
 30
0.000000
  0
VERTEX
  8
LAYER-1
 10
1.277145
 20
3.360489
 30
0.000000
  0
VERTEX
  8
LAYER-1
 10
1.277145
 20
3.366218
 30
0.000000
  0
VERTEX
  8
LAYER-1
 10
1.271416
 20
3.369082
 30
0.000000
  0
VERTEX
  8
LAYER-1
 10
1.266641
 20
3.370992
 30
0.000000
  0
VERTEX
  8
LAYER-1
 10
1.260912
 20
3.372902
 30
0.000000
  0
VERTEX
  8
LAYER-1
 10
1.255184
 20
3.370992
 30
0.000000
  0
VERTEX
  8
LAYER-1
 10
1.249454
 20
3.366218
 30
0.000000
  0
VERTEX
  8
LAYER-1
 10
1.250409
 20
3.360489
 30
0.000000
  0
VERTEX
  8
LAYER-1
 10
1.254229
 20
3.354760
 30
0.000000
  0
SEQEND
  8
LAYER-1
  0
POLYLINE
  8
LAYER-1
 66
  1
 70
  0
 62
  7
 10
4.261780
 20
2.388743
 30
0.000000
  0
VERTEX
  8
LAYER-1
 10
4.261780
 20
2.388743
 30
0.000000
  0
VERTEX
  8
LAYER-1
 10
4.262736
 20
2.393517
 30
0.000000
  0
VERTEX
  8
LAYER-1
 10
4.269420
 20
2.396382
 30
0.000000
  0
VERTEX
  8
LAYER-1
 10
4.271329
 20
2.402111
 30
0.000000
  0
VERTEX
  8
LAYER-1
 10
4.272284
 20
2.407840
 30
0.000000
  0
VERTEX
  8
LAYER-1
 10
4.266555
 20
2.412614
 30
0.000000
  0
VERTEX
  8
LAYER-1
 10
4.260826
 20
2.414524
 30
0.000000
  0
VERTEX
  8
LAYER-1
 10
4.255096
 20
2.415479
 30
0.000000
  0
VERTEX
  8
LAYER-1
 10
4.249367
 20
2.419299
 30
0.000000
  0
VERTEX
  8
LAYER-1
 10
4.243638
 20
2.419299
 30
0.000000
  0
VERTEX
  8
LAYER-1
 10
4.237909
 20
2.415479
 30
0.000000
  0
VERTEX
  8
LAYER-1
 10
4.235045
 20
2.409750
 30
0.000000
  0
VERTEX
  8
LAYER-1
 10
4.233135
 20
2.404021
 30
0.000000
  0
VERTEX
  8
LAYER-1
 10
4.233135
 20
2.398291
 30
0.000000
  0
VERTEX
  8
LAYER-1
 10
4.237909
 20
2.392562
 30
0.000000
  0
VERTEX
  8
LAYER-1
 10
4.242683
 20
2.385879
 30
0.000000
  0
VERTEX
  8
LAYER-1
 10
4.247458
 20
2.383014
 30
0.000000
  0
VERTEX
  8
LAYER-1
 10
4.253187
 20
2.382059
 30
0.000000
  0
VERTEX
  8
LAYER-1
 10
4.258916
 20
2.383969
 30
0.000000
  0
VERTEX
  8
LAYER-1
 10
4.261780
 20
2.389698
 30
0.000000
  0
SEQEND
  8
LAYER-1
  0
POLYLINE
  8
LAYER-1
 66
  1
 70
  0
 62
  7
 10
3.942856
 20
2.747770
 30
0.000000
  0
VERTEX
  8
LAYER-1
 10
3.942856
 20
2.747770
 30
0.000000
  0
VERTEX
  8
LAYER-1
 10
3.948586
 20
2.752545
 30
0.000000
  0
VERTEX
  8
LAYER-1
 10
3.953360
 20
2.752545
 30
0.000000
  0
VERTEX
  8
LAYER-1
 10
3.959089
 20
2.752545
 30
0.000000
  0
VERTEX
  8
LAYER-1
 10
3.963864
 20
2.756364
 30
0.000000
  0
VERTEX
  8
LAYER-1
 10
3.967683
 20
2.762093
 30
0.000000
  0
VERTEX
  8
LAYER-1
 10
3.966729
 20
2.767822
 30
0.000000
  0
VERTEX
  8
LAYER-1
 10
3.964819
 20
2.773552
 30
0.000000
  0
VERTEX
  8
LAYER-1
 10
3.959089
 20
2.774507
 30
0.000000
  0
VERTEX
  8
LAYER-1
 10
3.953360
 20
2.771642
 30
0.000000
  0
VERTEX
  8
LAYER-1
 10
3.948586
 20
2.768778
 30
0.000000
  0
VERTEX
  8
LAYER-1
 10
3.942856
 20
2.768778
 30
0.000000
  0
VERTEX
  8
LAYER-1
 10
3.937127
 20
2.768778
 30
0.000000
  0
VERTEX
  8
LAYER-1
 10
3.931398
 20
2.768778
 30
0.000000
  0
VERTEX
  8
LAYER-1
 10
3.928534
 20
2.763048
 30
0.000000
  0
VERTEX
  8
LAYER-1
 10
3.926624
 20
2.758274
 30
0.000000
  0
VERTEX
  8
LAYER-1
 10
3.924714
 20
2.752545
 30
0.000000
  0
VERTEX
  8
LAYER-1
 10
3.926624
 20
2.746816
 30
0.000000
  0
VERTEX
  8
LAYER-1
 10
3.931398
 20
2.741086
 30
0.000000
  0
VERTEX
  8
LAYER-1
 10
3.937127
 20
2.742041
 30
0.000000
  0
VERTEX
  8
LAYER-1
 10
3.942856
 20
2.745861
 30
0.000000
  0
SEQEND
  8
LAYER-1
  0
POLYLINE
  8
LAYER-1
 66
  1
 70
  0
 62
  7
 10
4.530791
 20
3.199377
 30
0.000000
  0
VERTEX
  8
LAYER-1
 10
4.530791
 20
3.199377
 30
0.000000
  0
VERTEX
  8
LAYER-1
 10
4.529836
 20
3.194602
 30
0.000000
  0
VERTEX
  8
LAYER-1
 10
4.523152
 20
3.191738
 30
0.000000
  0
VERTEX
  8
LAYER-1
 10
4.521242
 20
3.186008
 30
0.000000
  0
VERTEX
  8
LAYER-1
 10
4.520288
 20
3.180279
 30
0.000000
  0
VERTEX
  8
LAYER-1
 10
4.526017
 20
3.175505
 30
0.000000
  0
VERTEX
  8
LAYER-1
 10
4.531746
 20
3.173595
 30
0.000000
  0
VERTEX
  8
LAYER-1
 10
4.537475
 20
3.172640
 30
0.000000
  0
VERTEX
  8
LAYER-1
 10
4.543204
 20
3.168820
 30
0.000000
  0
VERTEX
  8
LAYER-1
 10
4.548933
 20
3.168820
 30
0.000000
  0
VERTEX
  8
LAYER-1
 10
4.554662
 20
3.172640
 30
0.000000
  0
VERTEX
  8
LAYER-1
 10
4.557527
 20
3.178369
 30
0.000000
  0
VERTEX
  8
LAYER-1
 10
4.559437
 20
3.184098
 30
0.000000
  0
VERTEX
  8
LAYER-1
 10
4.559437
 20
3.189828
 30
0.000000
  0
VERTEX
  8
LAYER-1
 10
4.554662
 20
3.195557
 30
0.000000
  0
VERTEX
  8
LAYER-1
 10
4.549889
 20
3.202241
 30
0.000000
  0
VERTEX
  8
LAYER-1
 10
4.545114
 20
3.205106
 30
0.000000
  0
VERTEX
  8
LAYER-1
 10
4.539385
 20
3.206060
 30
0.000000
  0
VERTEX
  8
LAYER-1
 10
4.533656
 20
3.204151
 30
0.000000
  0
VERTEX
  8
LAYER-1
 10
4.530791
 20
3.198421
 30
0.000000
  0
SEQEND
  8
LAYER-1
  0
POLYLINE
  8
LAYER-1
 66
  1
 70
  0
 62
  7
 10
4.849714
 20
2.840349
 30
0.000000
  0
VERTEX
  8
LAYER-1
 10
4.849714
 20
2.840349
 30
0.000000
  0
VERTEX
  8
LAYER-1
 10
4.843986
 20
2.835575
 30
0.000000
  0
VERTEX
  8
LAYER-1
 10
4.839211
 20
2.835575
 30
0.000000
  0
VERTEX
  8
LAYER-1
 10
4.833482
 20
2.835575
 30
0.000000
  0
VERTEX
  8
LAYER-1
 10
4.828708
 20
2.831755
 30
0.000000
  0
VERTEX
  8
LAYER-1
 10
4.824889
 20
2.826026
 30
0.000000
  0
VERTEX
  8
LAYER-1
 10
4.825843
 20
2.820297
 30
0.000000
  0
VERTEX
  8
LAYER-1
 10
4.827753
 20
2.814568
 30
0.000000
  0
VERTEX
  8
LAYER-1
 10
4.833482
 20
2.813613
 30
0.000000
  0
VERTEX
  8
LAYER-1
 10
4.839211
 20
2.816477
 30
0.000000
  0
VERTEX
  8
LAYER-1
 10
4.843986
 20
2.819342
 30
0.000000
  0
VERTEX
  8
LAYER-1
 10
4.849714
 20
2.819342
 30
0.000000
  0
VERTEX
  8
LAYER-1
 10
4.855444
 20
2.819342
 30
0.000000
  0
VERTEX
  8
LAYER-1
 10
4.861173
 20
2.819342
 30
0.000000
  0
VERTEX
  8
LAYER-1
 10
4.864038
 20
2.825071
 30
0.000000
  0
VERTEX
  8
LAYER-1
 10
4.865947
 20
2.829846
 30
0.000000
  0
VERTEX
  8
LAYER-1
 10
4.867858
 20
2.835575
 30
0.000000
  0
VERTEX
  8
LAYER-1
 10
4.865947
 20
2.841303
 30
0.000000
  0
VERTEX
  8
LAYER-1
 10
4.861173
 20
2.847033
 30
0.000000
  0
VERTEX
  8
LAYER-1
 10
4.855444
 20
2.846078
 30
0.000000
  0
VERTEX
  8
LAYER-1
 10
4.849714
 20
2.842258
 30
0.000000
  0
SEQEND
  8
LAYER-1
  0
POLYLINE
  8
LAYER-1
 66
  1
 70
  0
 62
  7
 10
3.589993
 20
2.395731
 30
0.000000
  0
VERTEX
  8
LAYER-1
 10
3.589993
 20
2.395731
 30
0.000000
  0
VERTEX
  8
LAYER-1
 10
3.589038
 20
2.390956
 30
0.000000
  0
VERTEX
  8
LAYER-1
 10
3.582353
 20
2.388092
 30
0.000000
  0
VERTEX
  8
LAYER-1
 10
3.580444
 20
2.382362
 30
0.000000
  0
VERTEX
  8
LAYER-1
 10
3.579489
 20
2.376634
 30
0.000000
  0
VERTEX
  8
LAYER-1
 10
3.585219
 20
2.371860
 30
0.000000
  0
VERTEX
  8
LAYER-1
 10
3.590948
 20
2.369949
 30
0.000000
  0
VERTEX
  8
LAYER-1
 10
3.596677
 20
2.368994
 30
0.000000
  0
VERTEX
  8
LAYER-1
 10
3.602406
 20
2.365175
 30
0.000000
  0
VERTEX
  8
LAYER-1
 10
3.608136
 20
2.365175
 30
0.000000
  0
VERTEX
  8
LAYER-1
 10
3.613864
 20
2.368994
 30
0.000000
  0
VERTEX
  8
LAYER-1
 10
3.616729
 20
2.374724
 30
0.000000
  0
VERTEX
  8
LAYER-1
 10
3.618638
 20
2.380453
 30
0.000000
  0
VERTEX
  8
LAYER-1
 10
3.618638
 20
2.386182
 30
0.000000
  0
VERTEX
  8
LAYER-1
 10
3.613864
 20
2.391911
 30
0.000000
  0
VERTEX
  8
LAYER-1
 10
3.609090
 20
2.398595
 30
0.000000
  0
VERTEX
  8
LAYER-1
 10
3.604316
 20
2.401460
 30
0.000000
  0
VERTEX
  8
LAYER-1
 10
3.598586
 20
2.402415
 30
0.000000
  0
VERTEX
  8
LAYER-1
 10
3.592857
 20
2.400505
 30
0.000000
  0
VERTEX
  8
LAYER-1
 10
3.589993
 20
2.394775
 30
0.000000
  0
SEQEND
  8
LAYER-1
  0
POLYLINE
  8
LAYER-1
 66
  1
 70
  0
 62
  7
 10
3.908916
 20
2.036703
 30
0.000000
  0
VERTEX
  8
LAYER-1
 10
3.908916
 20
2.036703
 30
0.000000
  0
VERTEX
  8
LAYER-1
 10
3.903188
 20
2.031929
 30
0.000000
  0
VERTEX
  8
LAYER-1
 10
3.898413
 20
2.031929
 30
0.000000
  0
VERTEX
  8
LAYER-1
 10
3.892684
 20
2.031929
 30
0.000000
  0
VERTEX
  8
LAYER-1
 10
3.887910
 20
2.028110
 30
0.000000
  0
VERTEX
  8
LAYER-1
 10
3.884090
 20
2.022381
 30
0.000000
  0
VERTEX
  8
LAYER-1
 10
3.885045
 20
2.016651
 30
0.000000
  0
VERTEX
  8
LAYER-1
 10
3.886955
 20
2.010922
 30
0.000000
  0
VERTEX
  8
LAYER-1
 10
3.892684
 20
2.009968
 30
0.000000
  0
VERTEX
  8
LAYER-1
 10
3.898413
 20
2.012831
 30
0.000000
  0
VERTEX
  8
LAYER-1
 10
3.903188
 20
2.015696
 30
0.000000
  0
VERTEX
  8
LAYER-1
 10
3.908916
 20
2.015696
 30
0.000000
  0
VERTEX
  8
LAYER-1
 10
3.914646
 20
2.015696
 30
0.000000
  0
VERTEX
  8
LAYER-1
 10
3.920375
 20
2.015696
 30
0.000000
  0
VERTEX
  8
LAYER-1
 10
3.923239
 20
2.021426
 30
0.000000
  0
VERTEX
  8
LAYER-1
 10
3.925149
 20
2.026200
 30
0.000000
  0
VERTEX
  8
LAYER-1
 10
3.927059
 20
2.031929
 30
0.000000
  0
VERTEX
  8
LAYER-1
 10
3.925149
 20
2.037658
 30
0.000000
  0
VERTEX
  8
LAYER-1
 10
3.920375
 20
2.043388
 30
0.000000
  0
VERTEX
  8
LAYER-1
 10
3.914646
 20
2.042432
 30
0.000000
  0
VERTEX
  8
LAYER-1
 10
3.908916
 20
2.038613
 30
0.000000
  0
SEQEND
  8
LAYER-1
  0
POLYLINE
  8
LAYER-1
 66
  1
 70
  0
 62
  7
 10
3.211867
 20
1.669515
 30
0.000000
  0
VERTEX
  8
LAYER-1
 10
3.211867
 20
1.669515
 30
0.000000
  0
VERTEX
  8
LAYER-1
 10
3.210913
 20
1.664741
 30
0.000000
  0
VERTEX
  8
LAYER-1
 10
3.204228
 20
1.661876
 30
0.000000
  0
VERTEX
  8
LAYER-1
 10
3.202319
 20
1.656147
 30
0.000000
  0
VERTEX
  8
LAYER-1
 10
3.201364
 20
1.650418
 30
0.000000
  0
VERTEX
  8
LAYER-1
 10
3.207093
 20
1.645644
 30
0.000000
  0
VERTEX
  8
LAYER-1
 10
3.212822
 20
1.643734
 30
0.000000
  0
VERTEX
  8
LAYER-1
 10
3.218551
 20
1.642779
 30
0.000000
  0
VERTEX
  8
LAYER-1
 10
3.224281
 20
1.638959
 30
0.000000
  0
VERTEX
  8
LAYER-1
 10
3.230010
 20
1.638959
 30
0.000000
  0
VERTEX
  8
LAYER-1
 10
3.235739
 20
1.642779
 30
0.000000
  0
VERTEX
  8
LAYER-1
 10
3.238604
 20
1.648509
 30
0.000000
  0
VERTEX
  8
LAYER-1
 10
3.240513
 20
1.654238
 30
0.000000
  0
VERTEX
  8
LAYER-1
 10
3.240513
 20
1.659967
 30
0.000000
  0
VERTEX
  8
LAYER-1
 10
3.235739
 20
1.665696
 30
0.000000
  0
VERTEX
  8
LAYER-1
 10
3.230965
 20
1.672380
 30
0.000000
  0
VERTEX
  8
LAYER-1
 10
3.226190
 20
1.675245
 30
0.000000
  0
VERTEX
  8
LAYER-1
 10
3.220461
 20
1.676199
 30
0.000000
  0
VERTEX
  8
LAYER-1
 10
3.214732
 20
1.674289
 30
0.000000
  0
VERTEX
  8
LAYER-1
 10
3.211867
 20
1.668560
 30
0.000000
  0
SEQEND
  8
LAYER-1
  0
POLYLINE
  8
LAYER-1
 66
  1
 70
  0
 62
  7
 10
3.530791
 20
1.310488
 30
0.000000
  0
VERTEX
  8
LAYER-1
 10
3.530791
 20
1.310488
 30
0.000000
  0
VERTEX
  8
LAYER-1
 10
3.525063
 20
1.305714
 30
0.000000
  0
VERTEX
  8
LAYER-1
 10
3.520288
 20
1.305714
 30
0.000000
  0
VERTEX
  8
LAYER-1
 10
3.514559
 20
1.305714
 30
0.000000
  0
VERTEX
  8
LAYER-1
 10
3.509784
 20
1.301894
 30
0.000000
  0
VERTEX
  8
LAYER-1
 10
3.505965
 20
1.296165
 30
0.000000
  0
VERTEX
  8
LAYER-1
 10
3.506919
 20
1.290436
 30
0.000000
  0
VERTEX
  8
LAYER-1
 10
3.508830
 20
1.284707
 30
0.000000
  0
VERTEX
  8
LAYER-1
 10
3.514559
 20
1.283752
 30
0.000000
  0
VERTEX
  8
LAYER-1
 10
3.520288
 20
1.286616
 30
0.000000
  0
VERTEX
  8
LAYER-1
 10
3.525063
 20
1.289481
 30
0.000000
  0
VERTEX
  8
LAYER-1
 10
3.530791
 20
1.289481
 30
0.000000
  0
VERTEX
  8
LAYER-1
 10
3.536521
 20
1.289481
 30
0.000000
  0
VERTEX
  8
LAYER-1
 10
3.542250
 20
1.289481
 30
0.000000
  0
VERTEX
  8
LAYER-1
 10
3.545114
 20
1.295210
 30
0.000000
  0
VERTEX
  8
LAYER-1
 10
3.547024
 20
1.299984
 30
0.000000
  0
VERTEX
  8
LAYER-1
 10
3.548934
 20
1.305714
 30
0.000000
  0
VERTEX
  8
LAYER-1
 10
3.547024
 20
1.311442
 30
0.000000
  0
VERTEX
  8
LAYER-1
 10
3.542250
 20
1.317172
 30
0.000000
  0
VERTEX
  8
LAYER-1
 10
3.536521
 20
1.316217
 30
0.000000
  0
VERTEX
  8
LAYER-1
 10
3.530791
 20
1.312397
 30
0.000000
  0
SEQEND
  8
LAYER-1
  0
POLYLINE
  8
LAYER-1
 66
  1
 70
  0
 62
  7
 10
4.409784
 20
2.110488
 30
0.000000
  0
VERTEX
  8
LAYER-1
 10
4.409784
 20
2.110488
 30
0.000000
  0
VERTEX
  8
LAYER-1
 10
4.408829
 20
2.105713
 30
0.000000
  0
VERTEX
  8
LAYER-1
 10
4.402145
 20
2.102849
 30
0.000000
  0
VERTEX
  8
LAYER-1
 10
4.400236
 20
2.097119
 30
0.000000
  0
VERTEX
  8
LAYER-1
 10
4.399280
 20
2.091390
 30
0.000000
  0
VERTEX
  8
LAYER-1
 10
4.405010
 20
2.086617
 30
0.000000
  0
VERTEX
  8
LAYER-1
 10
4.410739
 20
2.084706
 30
0.000000
  0
VERTEX
  8
LAYER-1
 10
4.416468
 20
2.083751
 30
0.000000
  0
VERTEX
  8
LAYER-1
 10
4.422198
 20
2.079931
 30
0.000000
  0
VERTEX
  8
LAYER-1
 10
4.427927
 20
2.079931
 30
0.000000
  0
VERTEX
  8
LAYER-1
 10
4.433656
 20
2.083751
 30
0.000000
  0
VERTEX
  8
LAYER-1
 10
4.436520
 20
2.089480
 30
0.000000
  0
VERTEX
  8
LAYER-1
 10
4.438430
 20
2.095210
 30
0.000000
  0
VERTEX
  8
LAYER-1
 10
4.438430
 20
2.100939
 30
0.000000
  0
VERTEX
  8
LAYER-1
 10
4.433656
 20
2.106668
 30
0.000000
  0
VERTEX
  8
LAYER-1
 10
4.428882
 20
2.113352
 30
0.000000
  0
VERTEX
  8
LAYER-1
 10
4.424107
 20
2.116217
 30
0.000000
  0
VERTEX
  8
LAYER-1
 10
4.418378
 20
2.117171
 30
0.000000
  0
VERTEX
  8
LAYER-1
 10
4.412649
 20
2.115262
 30
0.000000
  0
VERTEX
  8
LAYER-1
 10
4.409784
 20
2.109532
 30
0.000000
  0
SEQEND
  8
LAYER-1
  0
POLYLINE
  8
LAYER-1
 66
  1
 70
  0
 62
  7
 10
4.728708
 20
1.751460
 30
0.000000
  0
VERTEX
  8
LAYER-1
 10
4.728708
 20
1.751460
 30
0.000000
  0
VERTEX
  8
LAYER-1
 10
4.722979
 20
1.746686
 30
0.000000
  0
VERTEX
  8
LAYER-1
 10
4.718204
 20
1.746686
 30
0.000000
  0
VERTEX
  8
LAYER-1
 10
4.712476
 20
1.746686
 30
0.000000
  0
VERTEX
  8
LAYER-1
 10
4.707701
 20
1.742867
 30
0.000000
  0
VERTEX
  8
LAYER-1
 10
4.703881
 20
1.737137
 30
0.000000
  0
VERTEX
  8
LAYER-1
 10
4.704836
 20
1.731408
 30
0.000000
  0
VERTEX
  8
LAYER-1
 10
4.706746
 20
1.725679
 30
0.000000
  0
VERTEX
  8
LAYER-1
 10
4.712476
 20
1.724724
 30
0.000000
  0
VERTEX
  8
LAYER-1
 10
4.718204
 20
1.727588
 30
0.000000
  0
VERTEX
  8
LAYER-1
 10
4.722979
 20
1.730453
 30
0.000000
  0
VERTEX
  8
LAYER-1
 10
4.728708
 20
1.730453
 30
0.000000
  0
VERTEX
  8
LAYER-1
 10
4.734437
 20
1.730453
 30
0.000000
  0
VERTEX
  8
LAYER-1
 10
4.740166
 20
1.730453
 30
0.000000
  0
VERTEX
  8
LAYER-1
 10
4.743031
 20
1.736182
 30
0.000000
  0
VERTEX
  8
LAYER-1
 10
4.744941
 20
1.740957
 30
0.000000
  0
VERTEX
  8
LAYER-1
 10
4.746850
 20
1.746686
 30
0.000000
  0
VERTEX
  8
LAYER-1
 10
4.744941
 20
1.752414
 30
0.000000
  0
VERTEX
  8
LAYER-1
 10
4.740166
 20
1.758144
 30
0.000000
  0
VERTEX
  8
LAYER-1
 10
4.734437
 20
1.757189
 30
0.000000
  0
VERTEX
  8
LAYER-1
 10
4.728708
 20
1.753370
 30
0.000000
  0
SEQEND
  8
LAYER-1
  0
POLYLINE
  8
LAYER-1
 66
  1
 70
  0
 62
  7
 10
4.342422
 20
1.108231
 30
0.000000
  0
VERTEX
  8
LAYER-1
 10
4.342422
 20
1.108231
 30
0.000000
  0
VERTEX
  8
LAYER-1
 10
4.343378
 20
1.113006
 30
0.000000
  0
VERTEX
  8
LAYER-1
 10
4.350062
 20
1.115871
 30
0.000000
  0
VERTEX
  8
LAYER-1
 10
4.351973
 20
1.121600
 30
0.000000
  0
VERTEX
  8
LAYER-1
 10
4.352926
 20
1.127329
 30
0.000000
  0
VERTEX
  8
LAYER-1
 10
4.347198
 20
1.132103
 30
0.000000
  0
VERTEX
  8
LAYER-1
 10
4.341469
 20
1.134013
 30
0.000000
  0
VERTEX
  8
LAYER-1
 10
4.335739
 20
1.134968
 30
0.000000
  0
VERTEX
  8
LAYER-1
 10
4.330011
 20
1.138787
 30
0.000000
  0
VERTEX
  8
LAYER-1
 10
4.324281
 20
1.138787
 30
0.000000
  0
VERTEX
  8
LAYER-1
 10
4.318552
 20
1.134968
 30
0.000000
  0
VERTEX
  8
LAYER-1
 10
4.315688
 20
1.129238
 30
0.000000
  0
VERTEX
  8
LAYER-1
 10
4.313778
 20
1.123509
 30
0.000000
  0
VERTEX
  8
LAYER-1
 10
4.313778
 20
1.117780
 30
0.000000
  0
VERTEX
  8
LAYER-1
 10
4.318552
 20
1.112051
 30
0.000000
  0
VERTEX
  8
LAYER-1
 10
4.323326
 20
1.105367
 30
0.000000
  0
VERTEX
  8
LAYER-1
 10
4.328100
 20
1.102502
 30
0.000000
  0
VERTEX
  8
LAYER-1
 10
4.333829
 20
1.101548
 30
0.000000
  0
VERTEX
  8
LAYER-1
 10
4.339559
 20
1.103457
 30
0.000000
  0
VERTEX
  8
LAYER-1
 10
4.342422
 20
1.109187
 30
0.000000
  0
SEQEND
  8
LAYER-1
  0
POLYLINE
  8
LAYER-1
 66
  1
 70
  0
 62
  7
 10
4.023500
 20
1.467259
 30
0.000000
  0
VERTEX
  8
LAYER-1
 10
4.023500
 20
1.467259
 30
0.000000
  0
VERTEX
  8
LAYER-1
 10
4.029229
 20
1.472033
 30
0.000000
  0
VERTEX
  8
LAYER-1
 10
4.034003
 20
1.472033
 30
0.000000
  0
VERTEX
  8
LAYER-1
 10
4.039732
 20
1.472033
 30
0.000000
  0
VERTEX
  8
LAYER-1
 10
4.044506
 20
1.475853
 30
0.000000
  0
VERTEX
  8
LAYER-1
 10
4.048326
 20
1.481581
 30
0.000000
  0
VERTEX
  8
LAYER-1
 10
4.047371
 20
1.487311
 30
0.000000
  0
VERTEX
  8
LAYER-1
 10
4.045462
 20
1.493040
 30
0.000000
  0
VERTEX
  8
LAYER-1
 10
4.039732
 20
1.493995
 30
0.000000
  0
VERTEX
  8
LAYER-1
 10
4.034003
 20
1.491131
 30
0.000000
  0
VERTEX
  8
LAYER-1
 10
4.029229
 20
1.488267
 30
0.000000
  0
VERTEX
  8
LAYER-1
 10
4.023500
 20
1.488267
 30
0.000000
  0
VERTEX
  8
LAYER-1
 10
4.017771
 20
1.488267
 30
0.000000
  0
VERTEX
  8
LAYER-1
 10
4.012041
 20
1.488267
 30
0.000000
  0
VERTEX
  8
LAYER-1
 10
4.009177
 20
1.482537
 30
0.000000
  0
VERTEX
  8
LAYER-1
 10
4.007267
 20
1.477763
 30
0.000000
  0
VERTEX
  8
LAYER-1
 10
4.005357
 20
1.472033
 30
0.000000
  0
VERTEX
  8
LAYER-1
 10
4.007267
 20
1.466304
 30
0.000000
  0
VERTEX
  8
LAYER-1
 10
4.012041
 20
1.460575
 30
0.000000
  0
VERTEX
  8
LAYER-1
 10
4.017771
 20
1.461530
 30
0.000000
  0
VERTEX
  8
LAYER-1
 10
4.023500
 20
1.465350
 30
0.000000
  0
SEQEND
  8
LAYER-1
  0
POLYLINE
  8
LAYER-1
 66
  1
 70
  0
 62
  7
 10
4.693986
 20
2.553543
 30
0.000000
  0
VERTEX
  8
LAYER-1
 10
4.693986
 20
2.553543
 30
0.000000
  0
VERTEX
  8
LAYER-1
 10
4.693031
 20
2.548769
 30
0.000000
  0
VERTEX
  8
LAYER-1
 10
4.686347
 20
2.545904
 30
0.000000
  0
VERTEX
  8
LAYER-1
 10
4.684437
 20
2.540175
 30
0.000000
  0
VERTEX
  8
LAYER-1
 10
4.683482
 20
2.534446
 30
0.000000
  0
VERTEX
  8
LAYER-1
 10
4.689211
 20
2.529672
 30
0.000000
  0
VERTEX
  8
LAYER-1
 10
4.694940
 20
2.527762
 30
0.000000
  0
VERTEX
  8
LAYER-1
 10
4.700670
 20
2.526807
 30
0.000000
  0
VERTEX
  8
LAYER-1
 10
4.706399
 20
2.522987
 30
0.000000
  0
VERTEX
  8
LAYER-1
 10
4.712128
 20
2.522987
 30
0.000000
  0
VERTEX
  8
LAYER-1
 10
4.717857
 20
2.526807
 30
0.000000
  0
VERTEX
  8
LAYER-1
 10
4.720722
 20
2.532536
 30
0.000000
  0
VERTEX
  8
LAYER-1
 10
4.722631
 20
2.538266
 30
0.000000
  0
VERTEX
  8
LAYER-1
 10
4.722631
 20
2.543995
 30
0.000000
  0
VERTEX
  8
LAYER-1
 10
4.717857
 20
2.549724
 30
0.000000
  0
VERTEX
  8
LAYER-1
 10
4.713083
 20
2.556408
 30
0.000000
  0
VERTEX
  8
LAYER-1
 10
4.708309
 20
2.559273
 30
0.000000
  0
VERTEX
  8
LAYER-1
 10
4.702580
 20
2.560227
 30
0.000000
  0
VERTEX
  8
LAYER-1
 10
4.696851
 20
2.558317
 30
0.000000
  0
VERTEX
  8
LAYER-1
 10
4.693986
 20
2.552588
 30
0.000000
  0
SEQEND
  8
LAYER-1
  0
POLYLINE
  8
LAYER-1
 66
  1
 70
  0
 62
  7
 10
5.012909
 20
2.194516
 30
0.000000
  0
VERTEX
  8
LAYER-1
 10
5.012909
 20
2.194516
 30
0.000000
  0
VERTEX
  8
LAYER-1
 10
5.007180
 20
2.189742
 30
0.000000
  0
VERTEX
  8
LAYER-1
 10
5.002406
 20
2.189742
 30
0.000000
  0
VERTEX
  8
LAYER-1
 10
4.996677
 20
2.189742
 30
0.000000
  0
VERTEX
  8
LAYER-1
 10
4.991902
 20
2.185922
 30
0.000000
  0
VERTEX
  8
LAYER-1
 10
4.988083
 20
2.180193
 30
0.000000
  0
VERTEX
  8
LAYER-1
 10
4.989038
 20
2.174464
 30
0.000000
  0
VERTEX
  8
LAYER-1
 10
4.990947
 20
2.168735
 30
0.000000
  0
VERTEX
  8
LAYER-1
 10
4.996677
 20
2.167780
 30
0.000000
  0
VERTEX
  8
LAYER-1
 10
5.002406
 20
2.170644
 30
0.000000
  0
VERTEX
  8
LAYER-1
 10
5.007180
 20
2.173509
 30
0.000000
  0
VERTEX
  8
LAYER-1
 10
5.012909
 20
2.173509
 30
0.000000
  0
VERTEX
  8
LAYER-1
 10
5.018639
 20
2.173509
 30
0.000000
  0
VERTEX
  8
LAYER-1
 10
5.024368
 20
2.173509
 30
0.000000
  0
VERTEX
  8
LAYER-1
 10
5.027232
 20
2.179238
 30
0.000000
  0
VERTEX
  8
LAYER-1
 10
5.029142
 20
2.184013
 30
0.000000
  0
VERTEX
  8
LAYER-1
 10
5.031052
 20
2.189742
 30
0.000000
  0
VERTEX
  8
LAYER-1
 10
5.029142
 20
2.195470
 30
0.000000
  0
VERTEX
  8
LAYER-1
 10
5.024368
 20
2.201200
 30
0.000000
  0
VERTEX
  8
LAYER-1
 10
5.018639
 20
2.200245
 30
0.000000
  0
VERTEX
  8
LAYER-1
 10
5.012909
 20
2.196425
 30
0.000000
  0
SEQEND
  8
LAYER-1
  0
POLYLINE
  8
LAYER-1
 66
  1
 70
  0
 62
  7
 10
3.169333
 20
2.817953
 30
0.000000
  0
VERTEX
  8
LAYER-1
 10
3.169333
 20
2.817953
 30
0.000000
  0
VERTEX
  8
LAYER-1
 10
3.174107
 20
2.816999
 30
0.000000
  0
VERTEX
  8
LAYER-1
 10
3.176972
 20
2.810315
 30
0.000000
  0
VERTEX
  8
LAYER-1
 10
3.182701
 20
2.808405
 30
0.000000
  0
VERTEX
  8
LAYER-1
 10
3.188430
 20
2.807450
 30
0.000000
  0
VERTEX
  8
LAYER-1
 10
3.193204
 20
2.813179
 30
0.000000
  0
VERTEX
  8
LAYER-1
 10
3.195114
 20
2.818908
 30
0.000000
  0
VERTEX
  8
LAYER-1
 10
3.196069
 20
2.824638
 30
0.000000
  0
VERTEX
  8
LAYER-1
 10
3.199889
 20
2.830367
 30
0.000000
  0
VERTEX
  8
LAYER-1
 10
3.199889
 20
2.836096
 30
0.000000
  0
VERTEX
  8
LAYER-1
 10
3.196069
 20
2.841826
 30
0.000000
  0
VERTEX
  8
LAYER-1
 10
3.190340
 20
2.844690
 30
0.000000
  0
VERTEX
  8
LAYER-1
 10
3.184611
 20
2.846600
 30
0.000000
  0
VERTEX
  8
LAYER-1
 10
3.178881
 20
2.846600
 30
0.000000
  0
VERTEX
  8
LAYER-1
 10
3.173152
 20
2.841826
 30
0.000000
  0
VERTEX
  8
LAYER-1
 10
3.166468
 20
2.837051
 30
0.000000
  0
VERTEX
  8
LAYER-1
 10
3.163604
 20
2.832277
 30
0.000000
  0
VERTEX
  8
LAYER-1
 10
3.162649
 20
2.826547
 30
0.000000
  0
VERTEX
  8
LAYER-1
 10
3.164558
 20
2.820818
 30
0.000000
  0
VERTEX
  8
LAYER-1
 10
3.170288
 20
2.817953
 30
0.000000
  0
SEQEND
  8
LAYER-1
  0
POLYLINE
  8
LAYER-1
 66
  1
 70
  0
 62
  7
 10
3.528360
 20
3.136877
 30
0.000000
  0
VERTEX
  8
LAYER-1
 10
3.528360
 20
3.136877
 30
0.000000
  0
VERTEX
  8
LAYER-1
 10
3.533134
 20
3.131148
 30
0.000000
  0
VERTEX
  8
LAYER-1
 10
3.533134
 20
3.126374
 30
0.000000
  0
VERTEX
  8
LAYER-1
 10
3.533134
 20
3.120645
 30
0.000000
  0
VERTEX
  8
LAYER-1
 10
3.536954
 20
3.115871
 30
0.000000
  0
VERTEX
  8
LAYER-1
 10
3.542683
 20
3.112051
 30
0.000000
  0
VERTEX
  8
LAYER-1
 10
3.548413
 20
3.113005
 30
0.000000
  0
VERTEX
  8
LAYER-1
 10
3.554142
 20
3.114916
 30
0.000000
  0
VERTEX
  8
LAYER-1
 10
3.555096
 20
3.120645
 30
0.000000
  0
VERTEX
  8
LAYER-1
 10
3.552232
 20
3.126374
 30
0.000000
  0
VERTEX
  8
LAYER-1
 10
3.549367
 20
3.131148
 30
0.000000
  0
VERTEX
  8
LAYER-1
 10
3.549367
 20
3.136877
 30
0.000000
  0
VERTEX
  8
LAYER-1
 10
3.549367
 20
3.142607
 30
0.000000
  0
VERTEX
  8
LAYER-1
 10
3.549367
 20
3.148336
 30
0.000000
  0
VERTEX
  8
LAYER-1
 10
3.543638
 20
3.151200
 30
0.000000
  0
VERTEX
  8
LAYER-1
 10
3.538864
 20
3.153110
 30
0.000000
  0
VERTEX
  8
LAYER-1
 10
3.533134
 20
3.155020
 30
0.000000
  0
VERTEX
  8
LAYER-1
 10
3.527406
 20
3.153110
 30
0.000000
  0
VERTEX
  8
LAYER-1
 10
3.521676
 20
3.148336
 30
0.000000
  0
VERTEX
  8
LAYER-1
 10
3.522631
 20
3.142607
 30
0.000000
  0
VERTEX
  8
LAYER-1
 10
3.526451
 20
3.136877
 30
0.000000
  0
SEQEND
  8
LAYER-1
  0
POLYLINE
  8
LAYER-1
 66
  1
 70
  0
 62
  7
 10
3.866207
 20
3.115176
 30
0.000000
  0
VERTEX
  8
LAYER-1
 10
3.866207
 20
3.115176
 30
0.000000
  0
VERTEX
  8
LAYER-1
 10
3.870982
 20
3.114220
 30
0.000000
  0
VERTEX
  8
LAYER-1
 10
3.873847
 20
3.107536
 30
0.000000
  0
VERTEX
  8
LAYER-1
 10
3.879576
 20
3.105627
 30
0.000000
  0
VERTEX
  8
LAYER-1
 10
3.885305
 20
3.104672
 30
0.000000
  0
VERTEX
  8
LAYER-1
 10
3.890079
 20
3.110401
 30
0.000000
  0
VERTEX
  8
LAYER-1
 10
3.891989
 20
3.116131
 30
0.000000
  0
VERTEX
  8
LAYER-1
 10
3.892944
 20
3.121860
 30
0.000000
  0
VERTEX
  8
LAYER-1
 10
3.896764
 20
3.127589
 30
0.000000
  0
VERTEX
  8
LAYER-1
 10
3.896764
 20
3.133318
 30
0.000000
  0
VERTEX
  8
LAYER-1
 10
3.892944
 20
3.139047
 30
0.000000
  0
VERTEX
  8
LAYER-1
 10
3.887215
 20
3.141912
 30
0.000000
  0
VERTEX
  8
LAYER-1
 10
3.881486
 20
3.143821
 30
0.000000
  0
VERTEX
  8
LAYER-1
 10
3.875756
 20
3.143821
 30
0.000000
  0
VERTEX
  8
LAYER-1
 10
3.870027
 20
3.139047
 30
0.000000
  0
VERTEX
  8
LAYER-1
 10
3.863343
 20
3.134273
 30
0.000000
  0
VERTEX
  8
LAYER-1
 10
3.860478
 20
3.129498
 30
0.000000
  0
VERTEX
  8
LAYER-1
 10
3.859524
 20
3.123769
 30
0.000000
  0
VERTEX
  8
LAYER-1
 10
3.861433
 20
3.118040
 30
0.000000
  0
VERTEX
  8
LAYER-1
 10
3.867163
 20
3.115176
 30
0.000000
  0
SEQEND
  8
LAYER-1
  0
POLYLINE
  8
LAYER-1
 66
  1
 70
  0
 62
  7
 10
4.225235
 20
3.434100
 30
0.000000
  0
VERTEX
  8
LAYER-1
 10
4.225235
 20
3.434100
 30
0.000000
  0
VERTEX
  8
LAYER-1
 10
4.230009
 20
3.428371
 30
0.000000
  0
VERTEX
  8
LAYER-1
 10
4.230009
 20
3.423596
 30
0.000000
  0
VERTEX
  8
LAYER-1
 10
4.230009
 20
3.417867
 30
0.000000
  0
VERTEX
  8
LAYER-1
 10
4.233829
 20
3.413092
 30
0.000000
  0
VERTEX
  8
LAYER-1
 10
4.239558
 20
3.409273
 30
0.000000
  0
VERTEX
  8
LAYER-1
 10
4.245287
 20
3.410228
 30
0.000000
  0
VERTEX
  8
LAYER-1
 10
4.251016
 20
3.412138
 30
0.000000
  0
VERTEX
  8
LAYER-1
 10
4.251971
 20
3.417867
 30
0.000000
  0
VERTEX
  8
LAYER-1
 10
4.249107
 20
3.423596
 30
0.000000
  0
VERTEX
  8
LAYER-1
 10
4.246242
 20
3.428371
 30
0.000000
  0
VERTEX
  8
LAYER-1
 10
4.246242
 20
3.434100
 30
0.000000
  0
VERTEX
  8
LAYER-1
 10
4.246242
 20
3.439829
 30
0.000000
  0
VERTEX
  8
LAYER-1
 10
4.246242
 20
3.445558
 30
0.000000
  0
VERTEX
  8
LAYER-1
 10
4.240513
 20
3.448422
 30
0.000000
  0
VERTEX
  8
LAYER-1
 10
4.235738
 20
3.450332
 30
0.000000
  0
VERTEX
  8
LAYER-1
 10
4.230009
 20
3.452242
 30
0.000000
  0
VERTEX
  8
LAYER-1
 10
4.224281
 20
3.450332
 30
0.000000
  0
VERTEX
  8
LAYER-1
 10
4.218551
 20
3.445558
 30
0.000000
  0
VERTEX
  8
LAYER-1
 10
4.219506
 20
3.439829
 30
0.000000
  0
VERTEX
  8
LAYER-1
 10
4.223326
 20
3.434100
 30
0.000000
  0
SEQEND
  8
LAYER-1
  0
POLYLINE
  8
LAYER-1
 66
  1
 70
  0
 62
  7
 10
2.576714
 20
5.329819
 30
0.000000
  0
VERTEX
  8
LAYER-1
 10
2.576714
 20
5.329819
 30
0.000000
  0
VERTEX
  8
LAYER-1
 10
2.576714
 20
5.209507
 30
0.000000
  0
SEQEND
  8
LAYER-1
  0
POLYLINE
  8
LAYER-1
 66
  1
 70
  1
 62
  7
 10
2.365260
 20
4.062754
 30
0.000000
  0
VERTEX
  8
LAYER-1
 10
2.365260
 20
4.062754
 30
0.000000
  0
VERTEX
  8
LAYER-1
 10
2.363603
 20
5.422616
 30
0.000000
  0
VERTEX
  8
LAYER-1
 10
2.576714
 20
5.209507
 30
0.000000
  0
VERTEX
  8
LAYER-1
 10
2.576714
 20
5.329819
 30
0.000000
  0
VERTEX
  8
LAYER-1
 10
2.863938
 20
5.042594
 30
0.000000
  0
VERTEX
  8
LAYER-1
 10
2.862554
 20
4.062754
 30
0.000000
  0
SEQEND
  8
LAYER-1
  0
POLYLINE
  8
LAYER-1
 66
  1
 70
  0
 62
  7
 10
2.251869
 20
5.534350
 30
0.000000
  0
VERTEX
  8
LAYER-1
 10
2.251869
 20
5.534350
 30
0.000000
  0
VERTEX
  8
LAYER-1
 10
2.576714
 20
5.209507
 30
0.000000
  0
SEQEND
  8
LAYER-1
  0
POLYLINE
  8
LAYER-1
 66
  1
 70
  0
 62
  7
 10
2.576714
 20
5.329819
 30
0.000000
  0
VERTEX
  8
LAYER-1
 10
2.576714
 20
5.329819
 30
0.000000
  0
VERTEX
  8
LAYER-1
 10
2.973746
 20
4.932785
 30
0.000000
  0
SEQEND
  8
LAYER-1
  0
POLYLINE
  8
LAYER-1
 66
  1
 70
  1
 62
  7
 10
1.752901
 20
1.912312
 30
0.000000
  0
VERTEX
  8
LAYER-1
 10
1.752901
 20
1.912312
 30
0.000000
  0
VERTEX
  8
LAYER-1
 10
1.804724
 20
1.957540
 30
0.000000
  0
VERTEX
  8
LAYER-1
 10
1.687504
 20
1.997823
 30
0.000000
  0
SEQEND
  8
LAYER-1
  0
POLYLINE
  8
LAYER-1
 66
  1
 70
  1
 62
  7
 10
0.389701
 20
2.247216
 30
0.000000
  0
VERTEX
  8
LAYER-1
 10
0.389701
 20
2.247216
 30
0.000000
  0
VERTEX
  8
LAYER-1
 10
0.441524
 20
2.292444
 30
0.000000
  0
VERTEX
  8
LAYER-1
 10
0.324303
 20
2.332727
 30
0.000000
  0
SEQEND
  8
LAYER-1
  0
POLYLINE
  8
LAYER-1
 66
  1
 70
  1
 62
  7
 10
3.926277
 20
2.144342
 30
0.000000
  0
VERTEX
  8
LAYER-1
 10
3.926277
 20
2.144342
 30
0.000000
  0
VERTEX
  8
LAYER-1
 10
3.909433
 20
2.211033
 30
0.000000
  0
VERTEX
  8
LAYER-1
 10
3.820418
 20
2.124778
 30
0.000000
  0
SEQEND
  8
LAYER-1
  0
POLYLINE
  8
LAYER-1
 66
  1
 70
  1
 62
  7
 10
0.927289
 20
2.282607
 30
0.000000
  0
VERTEX
  8
LAYER-1
 10
0.927289
 20
2.282607
 30
0.000000
  0
VERTEX
  8
LAYER-1
 10
0.944134
 20
2.215918
 30
0.000000
  0
VERTEX
  8
LAYER-1
 10
1.033148
 20
2.302172
 30
0.000000
  0
SEQEND
  8
LAYER-1
  0
POLYLINE
  8
LAYER-1
 66
  1
 70
  1
 62
  7
 10
2.039712
 20
1.321591
 30
0.000000
  0
VERTEX
  8
LAYER-1
 10
2.039712
 20
1.321591
 30
0.000000
  0
VERTEX
  8
LAYER-1
 10
1.972689
 20
1.337058
 30
0.000000
  0
VERTEX
  8
LAYER-1
 10
2.008778
 20
1.218479
 30
0.000000
  0
SEQEND
  8
LAYER-1
  0
POLYLINE
  8
LAYER-1
 66
  1
 70
  1
 62
  7
 10
0.620871
 20
1.434106
 30
0.000000
  0
VERTEX
  8
LAYER-1
 10
0.620871
 20
1.434106
 30
0.000000
  0
VERTEX
  8
LAYER-1
 10
0.672694
 20
1.479334
 30
0.000000
  0
VERTEX
  8
LAYER-1
 10
0.555473
 20
1.519617
 30
0.000000
  0
SEQEND
  8
LAYER-1
  0
POLYLINE
  8
LAYER-1
 66
  1
 70
  1
 62
  7
 10
1.607781
 20
2.644380
 30
0.000000
  0
VERTEX
  8
LAYER-1
 10
1.607781
 20
2.644380
 30
0.000000
  0
VERTEX
  8
LAYER-1
 10
1.659604
 20
2.689609
 30
0.000000
  0
VERTEX
  8
LAYER-1
 10
1.542384
 20
2.729891
 30
0.000000
  0
SEQEND
  8
LAYER-1
  0
POLYLINE
  8
LAYER-1
 66
  1
 70
  1
 62
  7
 10
0.267210
 20
2.879859
 30
0.000000
  0
VERTEX
  8
LAYER-1
 10
0.267210
 20
2.879859
 30
0.000000
  0
VERTEX
  8
LAYER-1
 10
0.284056
 20
2.813168
 30
0.000000
  0
VERTEX
  8
LAYER-1
 10
0.373070
 20
2.899423
 30
0.000000
  0
SEQEND
  8
LAYER-1
  0
POLYLINE
  8
LAYER-1
 66
  1
 70
  1
 62
  7
 10
1.190076
 20
3.083774
 30
0.000000
  0
VERTEX
  8
LAYER-1
 10
1.190076
 20
3.083774
 30
0.000000
  0
VERTEX
  8
LAYER-1
 10
1.174609
 20
3.016752
 30
0.000000
  0
VERTEX
  8
LAYER-1
 10
1.293188
 20
3.052841
 30
0.000000
  0
SEQEND
  8
LAYER-1
  0
POLYLINE
  8
LAYER-1
 66
  1
 70
  1
 62
  7
 10
0.351700
 20
2.111039
 30
0.000000
  0
VERTEX
  8
LAYER-1
 10
0.351700
 20
2.111039
 30
0.000000
  0
VERTEX
  8
LAYER-1
 10
0.284677
 20
2.126507
 30
0.000000
  0
VERTEX
  8
LAYER-1
 10
0.320767
 20
2.007927
 30
0.000000
  0
SEQEND
  8
LAYER-1
  0
POLYLINE
  8
LAYER-1
 66
  1
 70
  1
 62
  7
 10
0.389781
 20
1.127362
 30
0.000000
  0
VERTEX
  8
LAYER-1
 10
0.389781
 20
1.127362
 30
0.000000
  0
VERTEX
  8
LAYER-1
 10
0.322758
 20
1.142829
 30
0.000000
  0
VERTEX
  8
LAYER-1
 10
0.358847
 20
1.024250
 30
0.000000
  0
SEQEND
  8
LAYER-1
  0
POLYLINE
  8
LAYER-1
 66
  1
 70
  0
 62
  7
 10
0.926972
 20
1.658926
 30
0.000000
  0
VERTEX
  8
LAYER-1
 10
0.926972
 20
1.658926
 30
0.000000
  0
VERTEX
  8
LAYER-1
 10
0.926017
 20
1.654151
 30
0.000000
  0
VERTEX
  8
LAYER-1
 10
0.919333
 20
1.651287
 30
0.000000
  0
VERTEX
  8
LAYER-1
 10
0.917423
 20
1.645558
 30
0.000000
  0
VERTEX
  8
LAYER-1
 10
0.916468
 20
1.639829
 30
0.000000
  0
VERTEX
  8
LAYER-1
 10
0.922197
 20
1.635054
 30
0.000000
  0
VERTEX
  8
LAYER-1
 10
0.927927
 20
1.633145
 30
0.000000
  0
VERTEX
  8
LAYER-1
 10
0.933656
 20
1.632190
 30
0.000000
  0
VERTEX
  8
LAYER-1
 10
0.939385
 20
1.628370
 30
0.000000
  0
VERTEX
  8
LAYER-1
 10
0.945114
 20
1.628370
 30
0.000000
  0
VERTEX
  8
LAYER-1
 10
0.950843
 20
1.632190
 30
0.000000
  0
VERTEX
  8
LAYER-1
 10
0.953708
 20
1.637919
 30
0.000000
  0
VERTEX
  8
LAYER-1
 10
0.955617
 20
1.643648
 30
0.000000
  0
VERTEX
  8
LAYER-1
 10
0.955617
 20
1.649377
 30
0.000000
  0
VERTEX
  8
LAYER-1
 10
0.950843
 20
1.655107
 30
0.000000
  0
VERTEX
  8
LAYER-1
 10
0.946069
 20
1.661790
 30
0.000000
  0
VERTEX
  8
LAYER-1
 10
0.941295
 20
1.664655
 30
0.000000
  0
VERTEX
  8
LAYER-1
 10
0.935566
 20
1.665610
 30
0.000000
  0
VERTEX
  8
LAYER-1
 10
0.929836
 20
1.663700
 30
0.000000
  0
VERTEX
  8
LAYER-1
 10
0.926972
 20
1.657971
 30
0.000000
  0
SEQEND
  8
LAYER-1
  0
POLYLINE
  8
LAYER-1
 66
  1
 70
  0
 62
  7
 10
1.245895
 20
1.299899
 30
0.000000
  0
VERTEX
  8
LAYER-1
 10
1.245895
 20
1.299899
 30
0.000000
  0
VERTEX
  8
LAYER-1
 10
1.240167
 20
1.295124
 30
0.000000
  0
VERTEX
  8
LAYER-1
 10
1.235392
 20
1.295124
 30
0.000000
  0
VERTEX
  8
LAYER-1
 10
1.229663
 20
1.295124
 30
0.000000
  0
VERTEX
  8
LAYER-1
 10
1.224888
 20
1.291304
 30
0.000000
  0
VERTEX
  8
LAYER-1
 10
1.221069
 20
1.285576
 30
0.000000
  0
VERTEX
  8
LAYER-1
 10
1.222024
 20
1.279846
 30
0.000000
  0
VERTEX
  8
LAYER-1
 10
1.223934
 20
1.274117
 30
0.000000
  0
VERTEX
  8
LAYER-1
 10
1.229663
 20
1.273163
 30
0.000000
  0
VERTEX
  8
LAYER-1
 10
1.235392
 20
1.276027
 30
0.000000
  0
VERTEX
  8
LAYER-1
 10
1.240167
 20
1.278891
 30
0.000000
  0
VERTEX
  8
LAYER-1
 10
1.245895
 20
1.278891
 30
0.000000
  0
VERTEX
  8
LAYER-1
 10
1.251625
 20
1.278891
 30
0.000000
  0
VERTEX
  8
LAYER-1
 10
1.257354
 20
1.278891
 30
0.000000
  0
VERTEX
  8
LAYER-1
 10
1.260218
 20
1.284620
 30
0.000000
  0
VERTEX
  8
LAYER-1
 10
1.262128
 20
1.289395
 30
0.000000
  0
VERTEX
  8
LAYER-1
 10
1.264038
 20
1.295124
 30
0.000000
  0
VERTEX
  8
LAYER-1
 10
1.262128
 20
1.300853
 30
0.000000
  0
VERTEX
  8
LAYER-1
 10
1.257354
 20
1.306583
 30
0.000000
  0
VERTEX
  8
LAYER-1
 10
1.251625
 20
1.305628
 30
0.000000
  0
VERTEX
  8
LAYER-1
 10
1.245895
 20
1.301808
 30
0.000000
  0
SEQEND
  8
LAYER-1
  0
POLYLINE
  8
LAYER-1
 66
  1
 70
  1
 62
  7
 10
3.779357
 20
1.365961
 30
0.000000
  0
VERTEX
  8
LAYER-1
 10
3.779357
 20
1.365961
 30
0.000000
  0
VERTEX
  8
LAYER-1
 10
3.734129
 20
1.417784
 30
0.000000
  0
VERTEX
  8
LAYER-1
 10
3.693846
 20
1.300563
 30
0.000000
  0
SEQEND
  8
LAYER-1
  0
POLYLINE
  8
LAYER-1
 66
  1
 70
  1
 62
  7
 10
4.185912
 20
2.584070
 30
0.000000
  0
VERTEX
  8
LAYER-1
 10
4.185912
 20
2.584070
 30
0.000000
  0
VERTEX
  8
LAYER-1
 10
4.140684
 20
2.635892
 30
0.000000
  0
VERTEX
  8
LAYER-1
 10
4.100402
 20
2.518672
 30
0.000000
  0
SEQEND
  8
LAYER-1
  0
POLYLINE
  8
LAYER-1
 66
  1
 70
  1
 62
  7
 10
3.611323
 20
3.307756
 30
0.000000
  0
VERTEX
  8
LAYER-1
 10
3.611323
 20
3.307756
 30
0.000000
  0
VERTEX
  8
LAYER-1
 10
3.566095
 20
3.359580
 30
0.000000
  0
VERTEX
  8
LAYER-1
 10
3.525812
 20
3.242359
 30
0.000000
  0
SEQEND
  8
LAYER-1
  0
POLYLINE
  8
LAYER-1
 66
  1
 70
  1
 62
  7
 10
3.233411
 20
2.350255
 30
0.000000
  0
VERTEX
  8
LAYER-1
 10
3.233411
 20
2.350255
 30
0.000000
  0
VERTEX
  8
LAYER-1
 10
3.217944
 20
2.283232
 30
0.000000
  0
VERTEX
  8
LAYER-1
 10
3.336523
 20
2.319321
 30
0.000000
  0
SEQEND
  8
LAYER-1
  0
POLYLINE
  8
LAYER-1
 66
  1
 70
  1
 62
  7
 10
4.923204
 20
3.268812
 30
0.000000
  0
VERTEX
  8
LAYER-1
 10
4.923204
 20
3.268812
 30
0.000000
  0
VERTEX
  8
LAYER-1
 10
4.907738
 20
3.201788
 30
0.000000
  0
VERTEX
  8
LAYER-1
 10
5.026316
 20
3.237877
 30
0.000000
  0
SEQEND
  8
LAYER-1
  0
POLYLINE
  8
LAYER-1
 66
  1
 70
  1
 62
  7
 10
4.735003
 20
1.849582
 30
0.000000
  0
VERTEX
  8
LAYER-1
 10
4.735003
 20
1.849582
 30
0.000000
  0
VERTEX
  8
LAYER-1
 10
4.801691
 20
1.866427
 30
0.000000
  0
VERTEX
  8
LAYER-1
 10
4.715438
 20
1.955443
 30
0.000000
  0
SEQEND
  8
LAYER-1
  0
POLYLINE
  8
LAYER-1
 66
  1
 70
  1
 62
  7
 10
5.099967
 20
2.587935
 30
0.000000
  0
VERTEX
  8
LAYER-1
 10
5.099967
 20
2.587935
 30
0.000000
  0
VERTEX
  8
LAYER-1
 10
5.054737
 20
2.639759
 30
0.000000
  0
VERTEX
  8
LAYER-1
 10
5.014455
 20
2.522537
 30
0.000000
  0
SEQEND
  8
LAYER-1
  0
POLYLINE
  8
LAYER-1
 66
  1
 70
  1
 62
  7
 10
3.354837
 20
3.119189
 30
0.000000
  0
VERTEX
  8
LAYER-1
 10
3.354837
 20
3.119189
 30
0.000000
  0
VERTEX
  8
LAYER-1
 10
3.421527
 20
3.136034
 30
0.000000
  0
VERTEX
  8
LAYER-1
 10
3.335273
 20
3.225049
 30
0.000000
  0
SEQEND
  8
LAYER-1
  0
POLYLINE
  8
LAYER-1
 66
  1
 70
  1
 62
  7
 10
3.694994
 20
2.638652
 30
0.000000
  0
VERTEX
  8
LAYER-1
 10
3.694994
 20
2.638652
 30
0.000000
  0
VERTEX
  8
LAYER-1
 10
3.761684
 20
2.655497
 30
0.000000
  0
VERTEX
  8
LAYER-1
 10
3.675429
 20
2.744512
 30
0.000000
  0
SEQEND
  8
LAYER-1
  0
POLYLINE
  8
LAYER-1
 66
  1
 70
  1
 62
  7
 10
4.096928
 20
1.875727
 30
0.000000
  0
VERTEX
  8
LAYER-1
 10
4.096928
 20
1.875727
 30
0.000000
  0
VERTEX
  8
LAYER-1
 10
4.081461
 20
1.808705
 30
0.000000
  0
VERTEX
  8
LAYER-1
 10
4.200040
 20
1.844795
 30
0.000000
  0
SEQEND
  8
LAYER-1
  0
POLYLINE
  8
LAYER-1
 66
  1
 70
  1
 62
  7
 10
4.883796
 20
1.267504
 30
0.000000
  0
VERTEX
  8
LAYER-1
 10
4.883796
 20
1.267504
 30
0.000000
  0
VERTEX
  8
LAYER-1
 10
4.950485
 20
1.284349
 30
0.000000
  0
VERTEX
  8
LAYER-1
 10
4.864231
 20
1.373364
 30
0.000000
  0
SEQEND
  8
LAYER-1
  0
POLYLINE
  8
LAYER-1
 66
  1
 70
  1
 62
  7
 10
4.245722
 20
1.293648
 30
0.000000
  0
VERTEX
  8
LAYER-1
 10
4.245722
 20
1.293648
 30
0.000000
  0
VERTEX
  8
LAYER-1
 10
4.230255
 20
1.226626
 30
0.000000
  0
VERTEX
  8
LAYER-1
 10
4.348834
 20
1.262716
 30
0.000000
  0
SEQEND
  8
LAYER-1
  0
POLYLINE
  8
LAYER-1
  6
LTYPE01
 66
  1
 70
  0
 62
  7
  6
LTYPE01
 10
2.365261
 20
2.899734
 30
0.000000
  0
VERTEX
  8
LAYER-1
  6
LTYPE01
 10
2.365261
 20
2.899734
 30
0.000000
  0
VERTEX
  8
LAYER-1
  6
LTYPE01
 10
2.365260
 20
4.062754
 30
0.000000
  0
SEQEND
  8
LAYER-1
  0
POLYLINE
  8
LAYER-1
  6
LTYPE01
 66
  1
 70
  0
 62
  7
  6
LTYPE01
 10
2.365261
 20
2.899734
 30
0.000000
  0
VERTEX
  8
LAYER-1
  6
LTYPE01
 10
2.365261
 20
2.899734
 30
0.000000
  0
VERTEX
  8
LAYER-1
  6
LTYPE01
 10
2.368070
 20
2.853194
 30
0.000000
  0
VERTEX
  8
LAYER-1
  6
LTYPE01
 10
2.382220
 20
2.806550
 30
0.000000
  0
VERTEX
  8
LAYER-1
  6
LTYPE01
 10
2.405197
 20
2.763562
 30
0.000000
  0
VERTEX
  8
LAYER-1
  6
LTYPE01
 10
2.436119
 20
2.725883
 30
0.000000
  0
VERTEX
  8
LAYER-1
  6
LTYPE01
 10
2.473798
 20
2.694961
 30
0.000000
  0
VERTEX
  8
LAYER-1
  6
LTYPE01
 10
2.516786
 20
2.671984
 30
0.000000
  0
VERTEX
  8
LAYER-1
  6
LTYPE01
 10
2.563430
 20
2.657834
 30
0.000000
  0
VERTEX
  8
LAYER-1
  6
LTYPE01
 10
2.611938
 20
2.653057
 30
0.000000
  0
VERTEX
  8
LAYER-1
  6
LTYPE01
 10
2.660447
 20
2.657834
 30
0.000000
  0
VERTEX
  8
LAYER-1
  6
LTYPE01
 10
2.707091
 20
2.671984
 30
0.000000
  0
VERTEX
  8
LAYER-1
  6
LTYPE01
 10
2.750079
 20
2.694961
 30
0.000000
  0
VERTEX
  8
LAYER-1
  6
LTYPE01
 10
2.787758
 20
2.725883
 30
0.000000
  0
VERTEX
  8
LAYER-1
  6
LTYPE01
 10
2.818680
 20
2.763562
 30
0.000000
  0
VERTEX
  8
LAYER-1
  6
LTYPE01
 10
2.841657
 20
2.806550
 30
0.000000
  0
VERTEX
  8
LAYER-1
  6
LTYPE01
 10
2.855806
 20
2.853194
 30
0.000000
  0
VERTEX
  8
LAYER-1
  6
LTYPE01
 10
2.862553
 20
2.899734
 30
0.000000
  0
SEQEND
  8
LAYER-1
  0
POLYLINE
  8
LAYER-1
  6
LTYPE01
 66
  1
 70
  0
 62
  7
  6
LTYPE01
 10
2.862553
 20
2.899734
 30
0.000000
  0
VERTEX
  8
LAYER-1
  6
LTYPE01
 10
2.862553
 20
2.899734
 30
0.000000
  0
VERTEX
  8
LAYER-1
  6
LTYPE01
 10
2.862554
 20
4.062754
 30
0.000000
  0
SEQEND
  8
LAYER-1
  0
POLYLINE
  8
LAYER-1
  6
LTYPE01
 66
  1
 70
  0
 62
  7
  6
LTYPE01
 10
2.365260
 20
4.062754
 30
0.000000
  0
VERTEX
  8
LAYER-1
  6
LTYPE01
 10
2.365260
 20
4.062754
 30
0.000000
  0
VERTEX
  8
LAYER-1
  6
LTYPE01
 10
2.862554
 20
4.062754
 30
0.000000
  0
SEQEND
  8
LAYER-1
  0
POLYLINE
  8
LAYER-1
 66
  1
 70
  0
 62
  7
 10
1.896041
 20
3.946452
 30
0.000000
  0
VERTEX
  8
LAYER-1
 10
1.896041
 20
3.946452
 30
0.000000
  0
VERTEX
  8
LAYER-1
 10
2.092551
 20
4.062754
 30
0.000000
  0
SEQEND
  8
LAYER-1
  0
POLYLINE
  8
LAYER-1
 66
  1
 70
  0
 62
  7
 10
1.896041
 20
3.946452
 30
0.000000
  0
VERTEX
  8
LAYER-1
 10
1.896041
 20
3.946452
 30
0.000000
  0
VERTEX
  8
LAYER-1
 10
1.896041
 20
3.922390
 30
0.000000
  0
SEQEND
  8
LAYER-1
  0
POLYLINE
  8
LAYER-1
 66
  1
 70
  0
 62
  7
 10
1.896041
 20
3.922390
 30
0.000000
  0
VERTEX
  8
LAYER-1
 10
1.896041
 20
3.922390
 30
0.000000
  0
VERTEX
  8
LAYER-1
 10
3.335783
 20
3.922390
 30
0.000000
  0
SEQEND
  8
LAYER-1
  0
POLYLINE
  8
LAYER-1
 66
  1
 70
  0
 62
  7
 10
3.335783
 20
3.922390
 30
0.000000
  0
VERTEX
  8
LAYER-1
 10
3.335783
 20
3.922390
 30
0.000000
  0
VERTEX
  8
LAYER-1
 10
3.335783
 20
3.946452
 30
0.000000
  0
SEQEND
  8
LAYER-1
  0
POLYLINE
  8
LAYER-1
 66
  1
 70
  0
 62
  7
 10
3.335783
 20
3.946452
 30
0.000000
  0
VERTEX
  8
LAYER-1
 10
3.335783
 20
3.946452
 30
0.000000
  0
VERTEX
  8
LAYER-1
 10
3.135262
 20
4.062754
 30
0.000000
  0
SEQEND
  8
LAYER-1
  0
POLYLINE
  8
LAYER-1
 66
  1
 70
  0
 62
  7
 10
2.092551
 20
4.062754
 30
0.000000
  0
VERTEX
  8
LAYER-1
 10
2.092551
 20
4.062754
 30
0.000000
  0
VERTEX
  8
LAYER-1
 10
3.135262
 20
4.062754
 30
0.000000
  0
SEQEND
  8
LAYER-1
  0
POLYLINE
  8
LAYER-1
 66
  1
 70
  0
 62
  7
 10
1.162388
 20
0.561009
 30
0.000000
  0
VERTEX
  8
LAYER-1
 10
1.162388
 20
0.561009
 30
0.000000
  0
VERTEX
  8
LAYER-1
 10
2.258955
 20
1.975814
 30
0.000000
  0
SEQEND
  8
LAYER-1
  0
POLYLINE
  8
LAYER-1
 66
  1
 70
  1
 62
  7
  0
VERTEX
  8
LAYER-1
 10
2.271015
 20
1.991373
 30
0.000000
  0
VERTEX
  8
LAYER-1
 10
2.264362
 20
1.935702
 30
0.000000
  0
VERTEX
  8
LAYER-1
 10
2.241563
 20
1.953373
 30
0.000000
  0
VERTEX
  8
LAYER-1
 10
2.218763
 20
1.971045
 30
0.000000
  0
VERTEX
  8
LAYER-1
 10
2.271015
 20
1.991373
 30
0.000000
  0
SEQEND
  8
LAYER-1
  0
POLYLINE
  8
LAYER-1
 66
  1
 70
  0
 62
  7
 10
4.329055
 20
0.561009
 30
0.000000
  0
VERTEX
  8
LAYER-1
 10
4.329055
 20
0.561009
 30
0.000000
  0
VERTEX
  8
LAYER-1
 10
2.894826
 20
1.545107
 30
0.000000
  0
SEQEND
  8
LAYER-1
  0
POLYLINE
  8
LAYER-1
 66
  1
 70
  1
 62
  7
  0
VERTEX
  8
LAYER-1
 10
2.878595
 20
1.556244
 30
0.000000
  0
VERTEX
  8
LAYER-1
 10
2.934558
 20
1.552829
 30
0.000000
  0
VERTEX
  8
LAYER-1
 10
2.918238
 20
1.529043
 30
0.000000
  0
VERTEX
  8
LAYER-1
 10
2.901917
 20
1.505258
 30
0.000000
  0
VERTEX
  8
LAYER-1
 10
2.878595
 20
1.556244
 30
0.000000
  0
SEQEND
  8
LAYER-1
  0
LINE
  8
LAYER-1
 62
  7
 10
5.791584
 20
1.054574
 30
0.000000
 11
5.791584
 21
3.903782
 31
0.000000
  0
LINE
  8
LAYER-1
 62
  7
 10
3.402293
 20
1.034889
 30
0.000000
 11
5.916584
 21
1.034889
 31
0.000000
  0
LINE
  8
LAYER-1
 62
  7
 10
5.314245
 20
3.923467
 30
0.000000
 11
5.916584
 21
3.923467
 31
0.000000
  0
LINE
  8
LAYER-1
 62
  7
 10
5.791584
 20
3.133442
 30
0.000000
 11
5.791584
 21
1.034889
 31
0.000000
  0
POLYLINE
  8
LAYER-1
 66
  1
 70
  1
 62
  7
  0
VERTEX
  8
LAYER-1
 10
5.791584
 20
1.034889
 30
0.000000
  0
VERTEX
  8
LAYER-1
 10
5.820430
 20
1.082966
 30
0.000000
  0
VERTEX
  8
LAYER-1
 10
5.791584
 20
1.082966
 30
0.000000
  0
VERTEX
  8
LAYER-1
 10
5.762738
 20
1.082966
 30
0.000000
  0
VERTEX
  8
LAYER-1
 10
5.791584
 20
1.034889
 30
0.000000
  0
SEQEND
  8
LAYER-1
  0
POLYLINE
  8
LAYER-1
 66
  1
 70
  1
 62
  7
  0
VERTEX
  8
LAYER-1
 10
5.791584
 20
3.923467
 30
0.000000
  0
VERTEX
  8
LAYER-1
 10
5.820430
 20
3.875390
 30
0.000000
  0
VERTEX
  8
LAYER-1
 10
5.791584
 20
3.875390
 30
0.000000
  0
VERTEX
  8
LAYER-1
 10
5.762738
 20
3.875390
 30
0.000000
  0
VERTEX
  8
LAYER-1
 10
5.791584
 20
3.923467
 30
0.000000
  0
SEQEND
  8
LAYER-1
  0
TEXT
  8
LAYER-1
 62
  7
 10
5.692433
 20
2.101082
 30
0.000000
 40
0.086538
  1
2-1/2"   -   65mm
 50
90.000000
  0
POLYLINE
  8
LAYER-1
  6
LTYPE02
 66
  1
 70
  0
 62
  7
  6
LTYPE02
 10
2.904145
 20
2.512832
 30
0.000000
  0
VERTEX
  8
LAYER-1
  6
LTYPE02
 10
2.904145
 20
2.512832
 30
0.000000
  0
VERTEX
  8
LAYER-1
  6
LTYPE02
 10
2.331109
 20
2.512832
 30
0.000000
  0
SEQEND
  8
LAYER-1
  0
LINE
  8
LAYER-1
 62
  7
 10
2.271554
 20
3.347227
 30
0.000000
 11
2.954061
 21
3.347227
 31
0.000000
  0
LINE
  8
LAYER-1
 62
  7
 10
2.251869
 20
4.000025
 30
0.000000
 11
2.251869
 21
3.222227
 31
0.000000
  0
LINE
  8
LAYER-1
 62
  7
 10
2.973746
 20
4.000025
 30
0.000000
 11
2.973746
 21
3.222227
 31
0.000000
  0
POLYLINE
  8
LAYER-1
 66
  1
 70
  1
 62
  7
  0
VERTEX
  8
LAYER-1
 10
2.251869
 20
3.347227
 30
0.000000
  0
VERTEX
  8
LAYER-1
 10
2.299946
 20
3.318382
 30
0.000000
  0
VERTEX
  8
LAYER-1
 10
2.299946
 20
3.347228
 30
0.000000
  0
VERTEX
  8
LAYER-1
 10
2.299945
 20
3.376074
 30
0.000000
  0
VERTEX
  8
LAYER-1
 10
2.251869
 20
3.347227
 30
0.000000
  0
SEQEND
  8
LAYER-1
  0
POLYLINE
  8
LAYER-1
 66
  1
 70
  1
 62
  7
  0
VERTEX
  8
LAYER-1
 10
2.973746
 20
3.347227
 30
0.000000
  0
VERTEX
  8
LAYER-1
 10
2.925669
 20
3.318381
 30
0.000000
  0
VERTEX
  8
LAYER-1
 10
2.925669
 20
3.347227
 30
0.000000
  0
VERTEX
  8
LAYER-1
 10
2.925669
 20
3.376073
 30
0.000000
  0
VERTEX
  8
LAYER-1
 10
2.973746
 20
3.347227
 30
0.000000
  0
SEQEND
  8
LAYER-1
  0
TEXT
  8
LAYER-1
 62
  7
 10
2.569650
 20
3.447984
 30
0.000000
 40
0.086538
  1
1/2"
  0
TEXT
  8
LAYER-1
 62
  7
 10
2.374995
 20
3.168381
 30
0.000000
 40
0.122596
  1
13mm
 72
  5
 11
2.846149
 21
3.168381
 31
0.000000
  0
ENDSEC
  0
EOF
