  0
SECTION
  2
HEADER
999
MacDraft 5.0\0
  9
$ACADVER
  1
AC1006
  9
$CLAYER
  8
LAYER-1
  9
$EXTMIN
 10
0.000000
 20
0.000000
  9
$EXTMAX
 10
7.715283
 20
10.031876
  9
$FASTZOOM
 70
0
  9
$FILLMODE
 70
1
  0
ENDSEC
  0
SECTION
  2
TABLES
  0
TABLE
  2
LTYPE
 70
16
  0
LTYPE
  2
CONTINUOUS
 70
64
  3
Solid Line
 72
65
 73
0
 40
0.000000
  0
LTYPE
  2
LTYPE01
 70
64
  3
CUSTOM
 72
65
 73
2
 40
0.111111
 49
0.083333
 49
-0.027778
  0
LTYPE
  2
LTYPE02
 70
64
  3
CUSTOM
 72
65
 73
2
 40
0.194444
 49
0.166667
 49
-0.027778
  0
LTYPE
  2
LTYPE03
 70
64
  3
CUSTOM
 72
65
 73
2
 40
0.375000
 49
0.333333
 49
-0.041667
  0
LTYPE
  2
LTYPE04
 70
64
  3
CUSTOM
 72
65
 73
2
 40
0.722222
 49
0.666667
 49
-0.055556
  0
LTYPE
  2
LTYPE05
 70
64
  3
CUSTOM
 72
65
 73
4
 40
0.152778
 49
0.083333
 49
-0.027778
 49
0.013889
 49
-0.027778
  0
LTYPE
  2
LTYPE06
 70
64
  3
CUSTOM
 72
65
 73
4
 40
0.236111
 49
0.166667
 49
-0.027778
 49
0.013889
 49
-0.027778
  0
LTYPE
  2
LTYPE07
 70
64
  3
CUSTOM
 72
65
 73
4
 40
0.444444
 49
0.333333
 49
-0.041667
 49
0.027778
 49
-0.041667
  0
LTYPE
  2
LTYPE08
 70
64
  3
CUSTOM
 72
65
 73
4
 40
0.805556
 49
0.666667
 49
-0.055556
 49
0.027778
 49
-0.055556
  0
LTYPE
  2
LTYPE09
 70
64
  3
CUSTOM
 72
65
 73
6
 40
0.194444
 49
0.083333
 49
-0.027778
 49
0.013889
 49
-0.027778
 49
0.013889
 49
-0.027778
  0
LTYPE
  2
LTYPE10
 70
64
  3
CUSTOM
 72
65
 73
6
 40
0.277778
 49
0.166667
 49
-0.027778
 49
0.013889
 49
-0.027778
 49
0.013889
 49
-0.027778
  0
LTYPE
  2
LTYPE11
 70
64
  3
CUSTOM
 72
65
 73
6
 40
0.500000
 49
0.333333
 49
-0.041667
 49
0.027778
 49
-0.027778
 49
0.027778
 49
-0.041667
  0
LTYPE
  2
LTYPE12
 70
64
  3
CUSTOM
 72
65
 73
6
 40
0.861111
 49
0.666667
 49
-0.055556
 49
0.027778
 49
-0.027778
 49
0.027778
 49
-0.055556
  0
LTYPE
  2
LTYPE13
 70
64
  3
CUSTOM
 72
65
 73
8
 40
0.319444
 49
0.166667
 49
-0.027778
 49
0.013889
 49
-0.027778
 49
0.013889
 49
-0.027778
 49
0.013889
 49
-0.027778
  0
LTYPE
  2
LTYPE14
 70
64
  3
CUSTOM
 72
65
 73
8
 40
0.555556
 49
0.333333
 49
-0.041667
 49
0.027778
 49
-0.027778
 49
0.027778
 49
-0.027778
 49
0.027778
 49
-0.041667
  0
LTYPE
  2
LTYPE15
 70
64
  3
CUSTOM
 72
65
 73
8
 40
0.944444
 49
0.666667
 49
-0.055556
 49
0.027778
 49
-0.041667
 49
0.027778
 49
-0.041667
 49
0.027778
 49
-0.055556
  0
ENDTAB
  0
TABLE
  2
LAYER
 70
1
  0
LAYER
  2
LAYER-1
 70
0
 62
7
  6
CONTINUOUS
  0
ENDTAB
  0
ENDSEC
  0
SECTION
  2
BLOCKS
  0
ENDSEC
  0
SECTION
  2
ENTITIES
  0
POLYLINE
  8
LAYER-1
 66
  1
 70
  1
 62
  0
  0
VERTEX
  8
LAYER-1
 10
1.602929
 20
4.207123
 30
0.000000
  0
VERTEX
  8
LAYER-1
 10
1.650871
 20
4.207123
 30
0.000000
  0
VERTEX
  8
LAYER-1
 10
1.650871
 20
3.917733
 30
0.000000
  0
VERTEX
  8
LAYER-1
 10
1.602929
 20
3.917733
 30
0.000000
  0
SEQEND
  8
LAYER-1
  0
POLYLINE
  8
LAYER-1
 66
  1
 70
  1
 62
  0
 10
1.891855
 20
5.400335
 30
0.000000
  0
VERTEX
  8
LAYER-1
 10
1.891855
 20
5.400335
 30
0.000000
  0
VERTEX
  8
LAYER-1
 10
1.842500
 20
5.400236
 30
0.000000
  0
VERTEX
  8
LAYER-1
 10
1.842500
 20
7.425844
 30
0.000000
  0
VERTEX
  8
LAYER-1
 10
2.884303
 20
7.425844
 30
0.000000
  0
VERTEX
  8
LAYER-1
 10
2.884303
 20
4.156614
 30
0.000000
  0
VERTEX
  8
LAYER-1
 10
1.651453
 20
4.156614
 30
0.000000
  0
VERTEX
  8
LAYER-1
 10
1.650871
 20
4.207123
 30
0.000000
  0
VERTEX
  8
LAYER-1
 10
2.837231
 20
4.206748
 30
0.000000
  0
VERTEX
  8
LAYER-1
 10
2.837231
 20
7.376907
 30
0.000000
  0
VERTEX
  8
LAYER-1
 10
1.891855
 20
7.376907
 30
0.000000
  0
SEQEND
  8
LAYER-1
  0
POLYLINE
  8
LAYER-1
 66
  1
 70
  1
 62
  0
 10
1.649648
 20
5.400236
 30
0.000000
  0
VERTEX
  8
LAYER-1
 10
1.649648
 20
5.400236
 30
0.000000
  0
VERTEX
  8
LAYER-1
 10
1.602363
 20
5.400335
 30
0.000000
  0
VERTEX
  8
LAYER-1
 10
1.602576
 20
7.666186
 30
0.000000
  0
VERTEX
  8
LAYER-1
 10
3.126510
 20
7.666186
 30
0.000000
  0
VERTEX
  8
LAYER-1
 10
3.126510
 20
3.917733
 30
0.000000
  0
VERTEX
  8
LAYER-1
 10
1.650871
 20
3.917733
 30
0.000000
  0
VERTEX
  8
LAYER-1
 10
1.651453
 20
3.965290
 30
0.000000
  0
VERTEX
  8
LAYER-1
 10
3.077156
 20
3.965290
 30
0.000000
  0
VERTEX
  8
LAYER-1
 10
3.077156
 20
7.618698
 30
0.000000
  0
VERTEX
  8
LAYER-1
 10
1.649648
 20
7.618698
 30
0.000000
  0
SEQEND
  8
LAYER-1
  0
POLYLINE
  8
LAYER-1
 66
  1
 70
  1
 62
  0
 10
5.254657
 20
4.944417
 30
0.000000
  0
VERTEX
  8
LAYER-1
 10
5.254657
 20
4.944417
 30
0.000000
  0
VERTEX
  8
LAYER-1
 10
5.254657
 20
7.050271
 30
0.000000
  0
VERTEX
  8
LAYER-1
 10
6.113667
 20
7.050271
 30
0.000000
  0
VERTEX
  8
LAYER-1
 10
6.113667
 20
4.944336
 30
0.000000
  0
VERTEX
  8
LAYER-1
 10
6.066213
 20
4.944319
 30
0.000000
  0
VERTEX
  8
LAYER-1
 10
6.066594
 20
7.001333
 30
0.000000
  0
VERTEX
  8
LAYER-1
 10
5.304012
 20
7.001333
 30
0.000000
  0
VERTEX
  8
LAYER-1
 10
5.304203
 20
4.944417
 30
0.000000
  0
SEQEND
  8
LAYER-1
  0
ARC
  8
LAYER-1
 62
  0
 10
5.392621
 20
8.960631
 30
0.000000
 40
0.254425
 50
270.000000
 51
90.000000
  0
POLYLINE
  8
LAYER-1
 66
  1
 70
  0
 62
  0
 10
5.392621
 20
9.215057
 30
0.000000
  0
VERTEX
  8
LAYER-1
 10
5.392621
 20
9.215057
 30
0.000000
  0
VERTEX
  8
LAYER-1
 10
1.727699
 20
9.215057
 30
0.000000
  0
SEQEND
  8
LAYER-1
  0
POLYLINE
  8
LAYER-1
 66
  1
 70
  0
 62
  0
 10
1.727699
 20
9.215057
 30
0.000000
  0
VERTEX
  8
LAYER-1
 10
1.727699
 20
9.215057
 30
0.000000
  0
VERTEX
  8
LAYER-1
 10
1.727699
 20
8.706207
 30
0.000000
  0
SEQEND
  8
LAYER-1
  0
POLYLINE
  8
LAYER-1
 66
  1
 70
  0
 62
  0
 10
5.392621
 20
8.706207
 30
0.000000
  0
VERTEX
  8
LAYER-1
 10
5.392621
 20
8.706207
 30
0.000000
  0
VERTEX
  8
LAYER-1
 10
1.727699
 20
8.706207
 30
0.000000
  0
SEQEND
  8
LAYER-1
  0
TEXT
  8
LAYER-1
 62
  0
 10
3.534723
 20
9.499999
 30
0.000000
 40
0.333333
  1
MobilFlex
 72
  5
 11
5.687501
 21
9.499999
 31
0.000000
  0
POLYLINE
  8
LAYER-1
 66
  1
 70
  1
 62
  0
  0
VERTEX
  8
LAYER-1
 10
1.729202
 20
10.030209
 30
0.000000
  0
VERTEX
  8
LAYER-1
 10
1.967050
 20
10.030209
 30
0.000000
  0
VERTEX
  8
LAYER-1
 10
1.967050
 20
9.513263
 30
0.000000
  0
VERTEX
  8
LAYER-1
 10
1.729202
 20
9.513263
 30
0.000000
  0
SEQEND
  8
LAYER-1
  0
POLYLINE
  8
LAYER-1
 66
  1
 70
  1
 62
  0
  0
VERTEX
  8
LAYER-1
 10
2.041702
 20
10.030209
 30
0.000000
  0
VERTEX
  8
LAYER-1
 10
2.279550
 20
10.030209
 30
0.000000
  0
VERTEX
  8
LAYER-1
 10
2.279550
 20
9.513263
 30
0.000000
  0
VERTEX
  8
LAYER-1
 10
2.041702
 20
9.513263
 30
0.000000
  0
SEQEND
  8
LAYER-1
  0
POLYLINE
  8
LAYER-1
 66
  1
 70
  1
 62
  0
  0
VERTEX
  8
LAYER-1
 10
2.342050
 20
10.030209
 30
0.000000
  0
VERTEX
  8
LAYER-1
 10
2.579897
 20
10.030209
 30
0.000000
  0
VERTEX
  8
LAYER-1
 10
2.579897
 20
9.513263
 30
0.000000
  0
VERTEX
  8
LAYER-1
 10
2.342050
 20
9.513263
 30
0.000000
  0
SEQEND
  8
LAYER-1
  0
POLYLINE
  8
LAYER-1
 66
  1
 70
  1
 62
  0
  0
VERTEX
  8
LAYER-1
 10
2.645869
 20
10.030209
 30
0.000000
  0
VERTEX
  8
LAYER-1
 10
2.883716
 20
10.030209
 30
0.000000
  0
VERTEX
  8
LAYER-1
 10
2.883716
 20
9.513263
 30
0.000000
  0
VERTEX
  8
LAYER-1
 10
2.645869
 20
9.513263
 30
0.000000
  0
SEQEND
  8
LAYER-1
  0
POLYLINE
  8
LAYER-1
 66
  1
 70
  1
 62
  0
  0
VERTEX
  8
LAYER-1
 10
2.962710
 20
10.026293
 30
0.000000
  0
VERTEX
  8
LAYER-1
 10
3.338143
 20
10.026293
 30
0.000000
  0
VERTEX
  8
LAYER-1
 10
3.338143
 20
9.888273
 30
0.000000
  0
VERTEX
  8
LAYER-1
 10
2.962710
 20
9.888273
 30
0.000000
  0
SEQEND
  8
LAYER-1
  0
POLYLINE
  8
LAYER-1
 66
  1
 70
  1
 62
  0
  0
VERTEX
  8
LAYER-1
 10
2.962276
 20
9.798863
 30
0.000000
  0
VERTEX
  8
LAYER-1
 10
3.270435
 20
9.798863
 30
0.000000
  0
VERTEX
  8
LAYER-1
 10
3.270435
 20
9.664748
 30
0.000000
  0
VERTEX
  8
LAYER-1
 10
2.962276
 20
9.664748
 30
0.000000
  0
SEQEND
  8
LAYER-1
  0
POLYLINE
  8
LAYER-1
 66
  1
 70
  1
 62
  0
  0
VERTEX
  8
LAYER-1
 10
1.729202
 20
9.428637
 30
0.000000
  0
VERTEX
  8
LAYER-1
 10
5.647606
 20
9.428637
 30
0.000000
  0
VERTEX
  8
LAYER-1
 10
5.647606
 20
9.385234
 30
0.000000
  0
VERTEX
  8
LAYER-1
 10
1.729202
 20
9.385234
 30
0.000000
  0
SEQEND
  8
LAYER-1
  0
TEXT
  8
LAYER-1
 62
  7
 10
2.034723
 20
8.847221
 30
0.000000
 40
0.187500
  1
Pocket Requirements
 72
  5
 11
4.659723
 21
8.847221
 31
0.000000
  0
POLYLINE
  8
LAYER-1
 66
  1
 70
  0
 62
  0
 10
4.222226
 20
3.437494
 30
0.000000
  0
VERTEX
  8
LAYER-1
 10
4.222226
 20
3.437494
 30
0.000000
  0
VERTEX
  8
LAYER-1
 10
7.562507
 20
3.437494
 30
0.000000
  0
SEQEND
  8
LAYER-1
  0
POLYLINE
  8
LAYER-1
 66
  1
 70
  0
 62
  0
 10
7.562507
 20
3.437494
 30
0.000000
  0
VERTEX
  8
LAYER-1
 10
7.562507
 20
3.437494
 30
0.000000
  0
VERTEX
  8
LAYER-1
 10
7.562507
 20
1.180546
 30
0.000000
  0
SEQEND
  8
LAYER-1
  0
POLYLINE
  8
LAYER-1
 66
  1
 70
  0
 62
  0
 10
4.222226
 20
1.180546
 30
0.000000
  0
VERTEX
  8
LAYER-1
 10
4.222226
 20
1.180546
 30
0.000000
  0
VERTEX
  8
LAYER-1
 10
4.222226
 20
3.437494
 30
0.000000
  0
SEQEND
  8
LAYER-1
  0
POLYLINE
  8
LAYER-1
 66
  1
 70
  0
 62
  0
 10
0.076389
 20
3.437493
 30
0.000000
  0
VERTEX
  8
LAYER-1
 10
0.076389
 20
3.437493
 30
0.000000
  0
VERTEX
  8
LAYER-1
 10
3.854173
 20
3.437493
 30
0.000000
  0
SEQEND
  8
LAYER-1
  0
POLYLINE
  8
LAYER-1
 66
  1
 70
  0
 62
  0
 10
3.854173
 20
3.437493
 30
0.000000
  0
VERTEX
  8
LAYER-1
 10
3.854173
 20
3.437493
 30
0.000000
  0
VERTEX
  8
LAYER-1
 10
3.854173
 20
1.180549
 30
0.000000
  0
SEQEND
  8
LAYER-1
  0
POLYLINE
  8
LAYER-1
 66
  1
 70
  0
 62
  0
 10
3.854173
 20
1.180549
 30
0.000000
  0
VERTEX
  8
LAYER-1
 10
3.854173
 20
1.180549
 30
0.000000
  0
VERTEX
  8
LAYER-1
 10
0.076389
 20
1.180549
 30
0.000000
  0
SEQEND
  8
LAYER-1
  0
POLYLINE
  8
LAYER-1
 66
  1
 70
  0
 62
  0
 10
0.076389
 20
1.180549
 30
0.000000
  0
VERTEX
  8
LAYER-1
 10
0.076389
 20
1.180549
 30
0.000000
  0
VERTEX
  8
LAYER-1
 10
0.076389
 20
3.437493
 30
0.000000
  0
SEQEND
  8
LAYER-1
  0
POLYLINE
  8
LAYER-1
 66
  1
 70
  0
 62
  0
 10
6.067535
 20
7.332744
 30
0.000000
  0
VERTEX
  8
LAYER-1
 10
6.067535
 20
7.332744
 30
0.000000
  0
VERTEX
  8
LAYER-1
 10
6.065974
 20
7.600694
 30
0.000000
  0
SEQEND
  8
LAYER-1
  0
POLYLINE
  8
LAYER-1
 66
  1
 70
  0
 62
  0
 10
5.303071
 20
7.328039
 30
0.000000
  0
VERTEX
  8
LAYER-1
 10
5.303071
 20
7.328039
 30
0.000000
  0
VERTEX
  8
LAYER-1
 10
5.302085
 20
7.600694
 30
0.000000
  0
SEQEND
  8
LAYER-1
  0
POLYLINE
  8
LAYER-1
  6
LTYPE06
 66
  1
 70
  0
 62
  0
  6
LTYPE06
 10
5.691307
 20
4.386870
 30
0.000000
  0
VERTEX
  8
LAYER-1
  6
LTYPE06
 10
5.691307
 20
4.386870
 30
0.000000
  0
VERTEX
  8
LAYER-1
  6
LTYPE06
 10
5.689284
 20
7.000824
 30
0.000000
  0
SEQEND
  8
LAYER-1
  0
POLYLINE
  8
LAYER-1
 66
  1
 70
  0
 62
  0
 10
6.067535
 20
7.536167
 30
0.000000
  0
VERTEX
  8
LAYER-1
 10
6.067535
 20
7.536167
 30
0.000000
  0
VERTEX
  8
LAYER-1
 10
5.303073
 20
7.536167
 30
0.000000
  0
SEQEND
  8
LAYER-1
  0
LINE
  8
LAYER-1
 62
  0
 10
6.038072
 20
7.506704
 30
0.000000
 11
6.096998
 21
7.565630
 31
0.000000
  0
LINE
  8
LAYER-1
 62
  0
 10
5.273610
 20
7.506704
 30
0.000000
 11
5.332536
 21
7.565630
 31
0.000000
  0
POLYLINE
  8
LAYER-1
 66
  1
 70
  0
 62
  0
 10
6.113667
 20
4.944336
 30
0.000000
  0
VERTEX
  8
LAYER-1
 10
6.113667
 20
4.944336
 30
0.000000
  0
VERTEX
  8
LAYER-1
 10
6.306520
 20
4.944336
 30
0.000000
  0
SEQEND
  8
LAYER-1
  0
POLYLINE
  8
LAYER-1
 66
  1
 70
  1
 62
  0
 10
6.283133
 20
4.945950
 30
0.000000
  0
VERTEX
  8
LAYER-1
 10
6.283133
 20
4.945950
 30
0.000000
  0
VERTEX
  8
LAYER-1
 10
6.276555
 20
4.952528
 30
0.000000
  0
VERTEX
  8
LAYER-1
 10
6.143527
 20
4.952528
 30
0.000000
  0
VERTEX
  8
LAYER-1
 10
6.136949
 20
4.945950
 30
0.000000
  0
VERTEX
  8
LAYER-1
 10
6.114528
 20
4.945950
 30
0.000000
  0
VERTEX
  8
LAYER-1
 10
6.114528
 20
5.041612
 30
0.000000
  0
VERTEX
  8
LAYER-1
 10
6.136949
 20
5.041612
 30
0.000000
  0
VERTEX
  8
LAYER-1
 10
6.136949
 20
5.035035
 30
0.000000
  0
VERTEX
  8
LAYER-1
 10
6.121105
 20
5.035035
 30
0.000000
  0
VERTEX
  8
LAYER-1
 10
6.121105
 20
4.952528
 30
0.000000
  0
VERTEX
  8
LAYER-1
 10
6.133959
 20
4.952527
 30
0.000000
  0
VERTEX
  8
LAYER-1
 10
6.140835
 20
4.959402
 30
0.000000
  0
VERTEX
  8
LAYER-1
 10
6.278948
 20
4.959402
 30
0.000000
  0
VERTEX
  8
LAYER-1
 10
6.285823
 20
4.952527
 30
0.000000
  0
VERTEX
  8
LAYER-1
 10
6.299276
 20
4.952528
 30
0.000000
  0
VERTEX
  8
LAYER-1
 10
6.299276
 20
5.035035
 30
0.000000
  0
VERTEX
  8
LAYER-1
 10
6.283133
 20
5.035035
 30
0.000000
  0
VERTEX
  8
LAYER-1
 10
6.283133
 20
5.041612
 30
0.000000
  0
VERTEX
  8
LAYER-1
 10
6.305852
 20
5.041612
 30
0.000000
  0
VERTEX
  8
LAYER-1
 10
6.305852
 20
4.945950
 30
0.000000
  0
SEQEND
  8
LAYER-1
  0
POLYLINE
  8
LAYER-1
 66
  1
 70
  1
 62
  0
 10
6.137150
 20
7.045399
 30
0.000000
  0
VERTEX
  8
LAYER-1
 10
6.137150
 20
7.045399
 30
0.000000
  0
VERTEX
  8
LAYER-1
 10
6.143728
 20
7.038822
 30
0.000000
  0
VERTEX
  8
LAYER-1
 10
6.276756
 20
7.038822
 30
0.000000
  0
VERTEX
  8
LAYER-1
 10
6.283334
 20
7.045399
 30
0.000000
  0
VERTEX
  8
LAYER-1
 10
6.305755
 20
7.045399
 30
0.000000
  0
VERTEX
  8
LAYER-1
 10
6.305755
 20
6.949737
 30
0.000000
  0
VERTEX
  8
LAYER-1
 10
6.283334
 20
6.949737
 30
0.000000
  0
VERTEX
  8
LAYER-1
 10
6.283334
 20
6.956314
 30
0.000000
  0
VERTEX
  8
LAYER-1
 10
6.299177
 20
6.956314
 30
0.000000
  0
VERTEX
  8
LAYER-1
 10
6.299177
 20
7.038822
 30
0.000000
  0
VERTEX
  8
LAYER-1
 10
6.286323
 20
7.038823
 30
0.000000
  0
VERTEX
  8
LAYER-1
 10
6.279448
 20
7.031947
 30
0.000000
  0
VERTEX
  8
LAYER-1
 10
6.141335
 20
7.031947
 30
0.000000
  0
VERTEX
  8
LAYER-1
 10
6.134460
 20
7.038823
 30
0.000000
  0
VERTEX
  8
LAYER-1
 10
6.121006
 20
7.038822
 30
0.000000
  0
VERTEX
  8
LAYER-1
 10
6.121006
 20
6.956314
 30
0.000000
  0
VERTEX
  8
LAYER-1
 10
6.137150
 20
6.956314
 30
0.000000
  0
VERTEX
  8
LAYER-1
 10
6.137150
 20
6.949737
 30
0.000000
  0
VERTEX
  8
LAYER-1
 10
6.114431
 20
6.949737
 30
0.000000
  0
VERTEX
  8
LAYER-1
 10
6.114431
 20
7.045399
 30
0.000000
  0
SEQEND
  8
LAYER-1
  0
POLYLINE
  8
LAYER-1
 66
  1
 70
  1
 62
  0
 10
6.137248
 20
6.041081
 30
0.000000
  0
VERTEX
  8
LAYER-1
 10
6.137248
 20
6.041081
 30
0.000000
  0
VERTEX
  8
LAYER-1
 10
6.143825
 20
6.034504
 30
0.000000
  0
VERTEX
  8
LAYER-1
 10
6.276854
 20
6.034504
 30
0.000000
  0
VERTEX
  8
LAYER-1
 10
6.283431
 20
6.041081
 30
0.000000
  0
VERTEX
  8
LAYER-1
 10
6.305852
 20
6.041081
 30
0.000000
  0
VERTEX
  8
LAYER-1
 10
6.305852
 20
5.945419
 30
0.000000
  0
VERTEX
  8
LAYER-1
 10
6.283431
 20
5.945419
 30
0.000000
  0
VERTEX
  8
LAYER-1
 10
6.283431
 20
5.951996
 30
0.000000
  0
VERTEX
  8
LAYER-1
 10
6.299276
 20
5.951996
 30
0.000000
  0
VERTEX
  8
LAYER-1
 10
6.299276
 20
6.034504
 30
0.000000
  0
VERTEX
  8
LAYER-1
 10
6.286421
 20
6.034504
 30
0.000000
  0
VERTEX
  8
LAYER-1
 10
6.279545
 20
6.027629
 30
0.000000
  0
VERTEX
  8
LAYER-1
 10
6.141434
 20
6.027629
 30
0.000000
  0
VERTEX
  8
LAYER-1
 10
6.134558
 20
6.034504
 30
0.000000
  0
VERTEX
  8
LAYER-1
 10
6.121105
 20
6.034504
 30
0.000000
  0
VERTEX
  8
LAYER-1
 10
6.121105
 20
5.951996
 30
0.000000
  0
VERTEX
  8
LAYER-1
 10
6.137248
 20
5.951996
 30
0.000000
  0
VERTEX
  8
LAYER-1
 10
6.137248
 20
5.945419
 30
0.000000
  0
VERTEX
  8
LAYER-1
 10
6.114528
 20
5.945419
 30
0.000000
  0
VERTEX
  8
LAYER-1
 10
6.114528
 20
6.041081
 30
0.000000
  0
SEQEND
  8
LAYER-1
  0
POLYLINE
  8
LAYER-1
 66
  1
 70
  1
 62
  0
 10
5.231439
 20
4.945241
 30
0.000000
  0
VERTEX
  8
LAYER-1
 10
5.231439
 20
4.945241
 30
0.000000
  0
VERTEX
  8
LAYER-1
 10
5.224861
 20
4.951819
 30
0.000000
  0
VERTEX
  8
LAYER-1
 10
5.091832
 20
4.951819
 30
0.000000
  0
VERTEX
  8
LAYER-1
 10
5.085254
 20
4.945242
 30
0.000000
  0
VERTEX
  8
LAYER-1
 10
5.062833
 20
4.945242
 30
0.000000
  0
VERTEX
  8
LAYER-1
 10
5.062833
 20
5.040903
 30
0.000000
  0
VERTEX
  8
LAYER-1
 10
5.085254
 20
5.040903
 30
0.000000
  0
VERTEX
  8
LAYER-1
 10
5.085254
 20
5.034327
 30
0.000000
  0
VERTEX
  8
LAYER-1
 10
5.069411
 20
5.034327
 30
0.000000
  0
VERTEX
  8
LAYER-1
 10
5.069411
 20
4.951819
 30
0.000000
  0
VERTEX
  8
LAYER-1
 10
5.082265
 20
4.951818
 30
0.000000
  0
VERTEX
  8
LAYER-1
 10
5.089141
 20
4.958694
 30
0.000000
  0
VERTEX
  8
LAYER-1
 10
5.227253
 20
4.958694
 30
0.000000
  0
VERTEX
  8
LAYER-1
 10
5.234128
 20
4.951818
 30
0.000000
  0
VERTEX
  8
LAYER-1
 10
5.247581
 20
4.951819
 30
0.000000
  0
VERTEX
  8
LAYER-1
 10
5.247581
 20
5.034327
 30
0.000000
  0
VERTEX
  8
LAYER-1
 10
5.231439
 20
5.034327
 30
0.000000
  0
VERTEX
  8
LAYER-1
 10
5.231439
 20
5.040903
 30
0.000000
  0
VERTEX
  8
LAYER-1
 10
5.254158
 20
5.040903
 30
0.000000
  0
VERTEX
  8
LAYER-1
 10
5.254158
 20
4.945241
 30
0.000000
  0
SEQEND
  8
LAYER-1
  0
POLYLINE
  8
LAYER-1
 66
  1
 70
  1
 62
  0
 10
5.085455
 20
7.050571
 30
0.000000
  0
VERTEX
  8
LAYER-1
 10
5.085455
 20
7.050571
 30
0.000000
  0
VERTEX
  8
LAYER-1
 10
5.092033
 20
7.043994
 30
0.000000
  0
VERTEX
  8
LAYER-1
 10
5.225061
 20
7.043994
 30
0.000000
  0
VERTEX
  8
LAYER-1
 10
5.231639
 20
7.050570
 30
0.000000
  0
VERTEX
  8
LAYER-1
 10
5.254060
 20
7.050570
 30
0.000000
  0
VERTEX
  8
LAYER-1
 10
5.254060
 20
6.954909
 30
0.000000
  0
VERTEX
  8
LAYER-1
 10
5.231639
 20
6.954909
 30
0.000000
  0
VERTEX
  8
LAYER-1
 10
5.231639
 20
6.961486
 30
0.000000
  0
VERTEX
  8
LAYER-1
 10
5.247482
 20
6.961486
 30
0.000000
  0
VERTEX
  8
LAYER-1
 10
5.247482
 20
7.043994
 30
0.000000
  0
VERTEX
  8
LAYER-1
 10
5.234628
 20
7.043994
 30
0.000000
  0
VERTEX
  8
LAYER-1
 10
5.227753
 20
7.037119
 30
0.000000
  0
VERTEX
  8
LAYER-1
 10
5.089640
 20
7.037119
 30
0.000000
  0
VERTEX
  8
LAYER-1
 10
5.082765
 20
7.043994
 30
0.000000
  0
VERTEX
  8
LAYER-1
 10
5.069312
 20
7.043994
 30
0.000000
  0
VERTEX
  8
LAYER-1
 10
5.069312
 20
6.961486
 30
0.000000
  0
VERTEX
  8
LAYER-1
 10
5.085455
 20
6.961486
 30
0.000000
  0
VERTEX
  8
LAYER-1
 10
5.085455
 20
6.954909
 30
0.000000
  0
VERTEX
  8
LAYER-1
 10
5.062736
 20
6.954909
 30
0.000000
  0
VERTEX
  8
LAYER-1
 10
5.062736
 20
7.050571
 30
0.000000
  0
SEQEND
  8
LAYER-1
  0
POLYLINE
  8
LAYER-1
 66
  1
 70
  1
 62
  0
 10
5.085553
 20
6.040824
 30
0.000000
  0
VERTEX
  8
LAYER-1
 10
5.085553
 20
6.040824
 30
0.000000
  0
VERTEX
  8
LAYER-1
 10
5.092131
 20
6.034246
 30
0.000000
  0
VERTEX
  8
LAYER-1
 10
5.225160
 20
6.034246
 30
0.000000
  0
VERTEX
  8
LAYER-1
 10
5.231737
 20
6.040823
 30
0.000000
  0
VERTEX
  8
LAYER-1
 10
5.254158
 20
6.040823
 30
0.000000
  0
VERTEX
  8
LAYER-1
 10
5.254158
 20
5.945162
 30
0.000000
  0
VERTEX
  8
LAYER-1
 10
5.231737
 20
5.945162
 30
0.000000
  0
VERTEX
  8
LAYER-1
 10
5.231737
 20
5.951739
 30
0.000000
  0
VERTEX
  8
LAYER-1
 10
5.247581
 20
5.951739
 30
0.000000
  0
VERTEX
  8
LAYER-1
 10
5.247581
 20
6.034246
 30
0.000000
  0
VERTEX
  8
LAYER-1
 10
5.234726
 20
6.034247
 30
0.000000
  0
VERTEX
  8
LAYER-1
 10
5.227851
 20
6.027372
 30
0.000000
  0
VERTEX
  8
LAYER-1
 10
5.089739
 20
6.027372
 30
0.000000
  0
VERTEX
  8
LAYER-1
 10
5.082863
 20
6.034247
 30
0.000000
  0
VERTEX
  8
LAYER-1
 10
5.069411
 20
6.034246
 30
0.000000
  0
VERTEX
  8
LAYER-1
 10
5.069411
 20
5.951739
 30
0.000000
  0
VERTEX
  8
LAYER-1
 10
5.085553
 20
5.951739
 30
0.000000
  0
VERTEX
  8
LAYER-1
 10
5.085553
 20
5.945162
 30
0.000000
  0
VERTEX
  8
LAYER-1
 10
5.062834
 20
5.945162
 30
0.000000
  0
VERTEX
  8
LAYER-1
 10
5.062834
 20
6.040824
 30
0.000000
  0
SEQEND
  8
LAYER-1
  0
POLYLINE
  8
LAYER-1
 66
  1
 70
  1
 62
  0
 10
5.062901
 20
7.074063
 30
0.000000
  0
VERTEX
  8
LAYER-1
 10
5.062901
 20
7.074063
 30
0.000000
  0
VERTEX
  8
LAYER-1
 10
5.069479
 20
7.080641
 30
0.000000
  0
VERTEX
  8
LAYER-1
 10
5.069479
 20
7.213670
 30
0.000000
  0
VERTEX
  8
LAYER-1
 10
5.062903
 20
7.220247
 30
0.000000
  0
VERTEX
  8
LAYER-1
 10
5.062903
 20
7.242667
 30
0.000000
  0
VERTEX
  8
LAYER-1
 10
5.158564
 20
7.242667
 30
0.000000
  0
VERTEX
  8
LAYER-1
 10
5.158564
 20
7.220247
 30
0.000000
  0
VERTEX
  8
LAYER-1
 10
5.151987
 20
7.220247
 30
0.000000
  0
VERTEX
  8
LAYER-1
 10
5.151987
 20
7.236091
 30
0.000000
  0
VERTEX
  8
LAYER-1
 10
5.069479
 20
7.236091
 30
0.000000
  0
VERTEX
  8
LAYER-1
 10
5.069478
 20
7.223236
 30
0.000000
  0
VERTEX
  8
LAYER-1
 10
5.076354
 20
7.216361
 30
0.000000
  0
VERTEX
  8
LAYER-1
 10
5.076354
 20
7.078249
 30
0.000000
  0
VERTEX
  8
LAYER-1
 10
5.069478
 20
7.071373
 30
0.000000
  0
VERTEX
  8
LAYER-1
 10
5.069479
 20
7.057920
 30
0.000000
  0
VERTEX
  8
LAYER-1
 10
5.151987
 20
7.057920
 30
0.000000
  0
VERTEX
  8
LAYER-1
 10
5.151987
 20
7.074063
 30
0.000000
  0
VERTEX
  8
LAYER-1
 10
5.158564
 20
7.074063
 30
0.000000
  0
VERTEX
  8
LAYER-1
 10
5.158564
 20
7.051344
 30
0.000000
  0
VERTEX
  8
LAYER-1
 10
5.062901
 20
7.051344
 30
0.000000
  0
SEQEND
  8
LAYER-1
  0
POLYLINE
  8
LAYER-1
 66
  1
 70
  1
 62
  0
 10
6.305755
 20
7.219465
 30
0.000000
  0
VERTEX
  8
LAYER-1
 10
6.305755
 20
7.219465
 30
0.000000
  0
VERTEX
  8
LAYER-1
 10
6.299177
 20
7.212887
 30
0.000000
  0
VERTEX
  8
LAYER-1
 10
6.299177
 20
7.079859
 30
0.000000
  0
VERTEX
  8
LAYER-1
 10
6.305754
 20
7.073281
 30
0.000000
  0
VERTEX
  8
LAYER-1
 10
6.305754
 20
7.050860
 30
0.000000
  0
VERTEX
  8
LAYER-1
 10
6.210092
 20
7.050860
 30
0.000000
  0
VERTEX
  8
LAYER-1
 10
6.210092
 20
7.073281
 30
0.000000
  0
VERTEX
  8
LAYER-1
 10
6.216670
 20
7.073281
 30
0.000000
  0
VERTEX
  8
LAYER-1
 10
6.216670
 20
7.057437
 30
0.000000
  0
VERTEX
  8
LAYER-1
 10
6.299177
 20
7.057437
 30
0.000000
  0
VERTEX
  8
LAYER-1
 10
6.299178
 20
7.070292
 30
0.000000
  0
VERTEX
  8
LAYER-1
 10
6.292302
 20
7.077167
 30
0.000000
  0
VERTEX
  8
LAYER-1
 10
6.292302
 20
7.215279
 30
0.000000
  0
VERTEX
  8
LAYER-1
 10
6.299178
 20
7.222155
 30
0.000000
  0
VERTEX
  8
LAYER-1
 10
6.299177
 20
7.235608
 30
0.000000
  0
VERTEX
  8
LAYER-1
 10
6.216670
 20
7.235608
 30
0.000000
  0
VERTEX
  8
LAYER-1
 10
6.216670
 20
7.219465
 30
0.000000
  0
VERTEX
  8
LAYER-1
 10
6.210092
 20
7.219465
 30
0.000000
  0
VERTEX
  8
LAYER-1
 10
6.210092
 20
7.242184
 30
0.000000
  0
VERTEX
  8
LAYER-1
 10
6.305755
 20
7.242184
 30
0.000000
  0
SEQEND
  8
LAYER-1
  0
POLYLINE
  8
LAYER-1
 66
  1
 70
  1
 62
  0
  0
VERTEX
  8
LAYER-1
 10
5.014813
 20
4.896475
 30
0.000000
  0
VERTEX
  8
LAYER-1
 10
5.014813
 20
4.944417
 30
0.000000
  0
VERTEX
  8
LAYER-1
 10
5.304203
 20
4.944417
 30
0.000000
  0
VERTEX
  8
LAYER-1
 10
5.304203
 20
4.896475
 30
0.000000
  0
SEQEND
  8
LAYER-1
  0
POLYLINE
  8
LAYER-1
 66
  1
 70
  1
 62
  0
  0
VERTEX
  8
LAYER-1
 10
6.066213
 20
4.896376
 30
0.000000
  0
VERTEX
  8
LAYER-1
 10
6.066213
 20
4.944319
 30
0.000000
  0
VERTEX
  8
LAYER-1
 10
6.355603
 20
4.944319
 30
0.000000
  0
VERTEX
  8
LAYER-1
 10
6.355603
 20
4.896376
 30
0.000000
  0
SEQEND
  8
LAYER-1
  0
POLYLINE
  8
LAYER-1
  6
LTYPE01
 66
  1
 70
  0
 62
  0
  6
LTYPE01
 10
6.005588
 20
6.101709
 30
0.000000
  0
VERTEX
  8
LAYER-1
  6
LTYPE01
 10
6.005588
 20
6.101709
 30
0.000000
  0
VERTEX
  8
LAYER-1
  6
LTYPE01
 10
5.360396
 20
6.164992
 30
0.000000
  0
SEQEND
  8
LAYER-1
  0
POLYLINE
  8
LAYER-1
  6
LTYPE01
 66
  1
 70
  0
 62
  0
  6
LTYPE01
 10
5.360396
 20
6.164992
 30
0.000000
  0
VERTEX
  8
LAYER-1
  6
LTYPE01
 10
5.360396
 20
6.164992
 30
0.000000
  0
VERTEX
  8
LAYER-1
  6
LTYPE01
 10
6.005588
 20
6.228275
 30
0.000000
  0
SEQEND
  8
LAYER-1
  0
POLYLINE
  8
LAYER-1
  6
LTYPE01
 66
  1
 70
  0
 62
  0
  6
LTYPE01
 10
6.005588
 20
6.228275
 30
0.000000
  0
VERTEX
  8
LAYER-1
  6
LTYPE01
 10
6.005588
 20
6.228275
 30
0.000000
  0
VERTEX
  8
LAYER-1
  6
LTYPE01
 10
5.360393
 20
6.291558
 30
0.000000
  0
SEQEND
  8
LAYER-1
  0
POLYLINE
  8
LAYER-1
  6
LTYPE01
 66
  1
 70
  0
 62
  0
  6
LTYPE01
 10
5.360393
 20
6.291558
 30
0.000000
  0
VERTEX
  8
LAYER-1
  6
LTYPE01
 10
5.360393
 20
6.291558
 30
0.000000
  0
VERTEX
  8
LAYER-1
  6
LTYPE01
 10
6.005585
 20
6.354841
 30
0.000000
  0
SEQEND
  8
LAYER-1
  0
POLYLINE
  8
LAYER-1
  6
LTYPE01
 66
  1
 70
  0
 62
  0
  6
LTYPE01
 10
6.005585
 20
6.354841
 30
0.000000
  0
VERTEX
  8
LAYER-1
  6
LTYPE01
 10
6.005585
 20
6.354841
 30
0.000000
  0
VERTEX
  8
LAYER-1
  6
LTYPE01
 10
5.360393
 20
6.418126
 30
0.000000
  0
SEQEND
  8
LAYER-1
  0
POLYLINE
  8
LAYER-1
  6
LTYPE01
 66
  1
 70
  0
 62
  0
  6
LTYPE01
 10
5.360393
 20
6.418126
 30
0.000000
  0
VERTEX
  8
LAYER-1
  6
LTYPE01
 10
5.360393
 20
6.418126
 30
0.000000
  0
VERTEX
  8
LAYER-1
  6
LTYPE01
 10
6.005585
 20
6.481409
 30
0.000000
  0
SEQEND
  8
LAYER-1
  0
POLYLINE
  8
LAYER-1
  6
LTYPE01
 66
  1
 70
  0
 62
  0
  6
LTYPE01
 10
6.005585
 20
6.481409
 30
0.000000
  0
VERTEX
  8
LAYER-1
  6
LTYPE01
 10
6.005585
 20
6.481409
 30
0.000000
  0
VERTEX
  8
LAYER-1
  6
LTYPE01
 10
5.360393
 20
6.544692
 30
0.000000
  0
SEQEND
  8
LAYER-1
  0
POLYLINE
  8
LAYER-1
  6
LTYPE01
 66
  1
 70
  0
 62
  0
  6
LTYPE01
 10
5.360393
 20
6.544692
 30
0.000000
  0
VERTEX
  8
LAYER-1
  6
LTYPE01
 10
5.360393
 20
6.544692
 30
0.000000
  0
VERTEX
  8
LAYER-1
  6
LTYPE01
 10
6.005585
 20
6.607977
 30
0.000000
  0
SEQEND
  8
LAYER-1
  0
POLYLINE
  8
LAYER-1
  6
LTYPE01
 66
  1
 70
  0
 62
  0
  6
LTYPE01
 10
6.005585
 20
6.607977
 30
0.000000
  0
VERTEX
  8
LAYER-1
  6
LTYPE01
 10
6.005585
 20
6.607977
 30
0.000000
  0
VERTEX
  8
LAYER-1
  6
LTYPE01
 10
5.360393
 20
6.671260
 30
0.000000
  0
SEQEND
  8
LAYER-1
  0
POLYLINE
  8
LAYER-1
  6
LTYPE01
 66
  1
 70
  0
 62
  0
  6
LTYPE01
 10
5.360393
 20
6.671260
 30
0.000000
  0
VERTEX
  8
LAYER-1
  6
LTYPE01
 10
5.360393
 20
6.671260
 30
0.000000
  0
VERTEX
  8
LAYER-1
  6
LTYPE01
 10
6.005585
 20
6.734542
 30
0.000000
  0
SEQEND
  8
LAYER-1
  0
POLYLINE
  8
LAYER-1
  6
LTYPE01
 66
  1
 70
  0
 62
  0
  6
LTYPE01
 10
6.005585
 20
6.734542
 30
0.000000
  0
VERTEX
  8
LAYER-1
  6
LTYPE01
 10
6.005585
 20
6.734542
 30
0.000000
  0
VERTEX
  8
LAYER-1
  6
LTYPE01
 10
5.360388
 20
6.798489
 30
0.000000
  0
SEQEND
  8
LAYER-1
  0
POLYLINE
  8
LAYER-1
  6
LTYPE01
 66
  1
 70
  0
 62
  0
  6
LTYPE01
 10
5.360814
 20
6.799185
 30
0.000000
  0
VERTEX
  8
LAYER-1
  6
LTYPE01
 10
5.360814
 20
6.799185
 30
0.000000
  0
VERTEX
  8
LAYER-1
  6
LTYPE01
 10
5.684344
 20
6.831970
 30
0.000000
  0
SEQEND
  8
LAYER-1
  0
POLYLINE
  8
LAYER-1
  6
LTYPE01
 66
  1
 70
  0
 62
  0
  6
LTYPE01
 10
5.684343
 20
6.069133
 30
0.000000
  0
VERTEX
  8
LAYER-1
  6
LTYPE01
 10
5.684343
 20
6.069133
 30
0.000000
  0
VERTEX
  8
LAYER-1
  6
LTYPE01
 10
6.006938
 20
6.100774
 30
0.000000
  0
SEQEND
  8
LAYER-1
  0
POLYLINE
  8
LAYER-1
 66
  1
 70
  0
 62
  0
 10
5.639098
 20
6.858721
 30
0.000000
  0
VERTEX
  8
LAYER-1
 10
5.639098
 20
6.858721
 30
0.000000
  0
VERTEX
  8
LAYER-1
 10
5.639098
 20
6.974440
 30
0.000000
  0
SEQEND
  8
LAYER-1
  0
POLYLINE
  8
LAYER-1
 66
  1
 70
  0
 62
  0
 10
5.662228
 20
6.997570
 30
0.000000
  0
VERTEX
  8
LAYER-1
 10
5.662228
 20
6.997570
 30
0.000000
  0
VERTEX
  8
LAYER-1
 10
5.708490
 20
6.997570
 30
0.000000
  0
SEQEND
  8
LAYER-1
  0
POLYLINE
  8
LAYER-1
 66
  1
 70
  0
 62
  0
 10
5.731620
 20
6.974440
 30
0.000000
  0
VERTEX
  8
LAYER-1
 10
5.731620
 20
6.974440
 30
0.000000
  0
VERTEX
  8
LAYER-1
 10
5.731620
 20
6.858721
 30
0.000000
  0
SEQEND
  8
LAYER-1
  0
POLYLINE
  8
LAYER-1
 66
  1
 70
  0
 62
  0
 10
5.708490
 20
6.835590
 30
0.000000
  0
VERTEX
  8
LAYER-1
 10
5.708490
 20
6.835590
 30
0.000000
  0
VERTEX
  8
LAYER-1
 10
5.662228
 20
6.835590
 30
0.000000
  0
SEQEND
  8
LAYER-1
  0
ARC
  8
LAYER-1
 62
  0
 10
5.662228
 20
6.858721
 30
0.000000
 40
0.023130
 50
180.000000
 51
270.000000
  0
ARC
  8
LAYER-1
 62
  0
 10
5.708490
 20
6.858721
 30
0.000000
 40
0.023130
 50
270.000000
 51
0.000000
  0
ARC
  8
LAYER-1
 62
  0
 10
5.708490
 20
6.974440
 30
0.000000
 40
0.023130
 50
0.000000
 51
90.000000
  0
ARC
  8
LAYER-1
 62
  0
 10
5.662228
 20
6.974440
 30
0.000000
 40
0.023130
 50
90.000000
 51
180.000000
  0
POLYLINE
  8
LAYER-1
 66
  1
 70
  0
 62
  0
 10
5.640734
 20
5.928498
 30
0.000000
  0
VERTEX
  8
LAYER-1
 10
5.640734
 20
5.928498
 30
0.000000
  0
VERTEX
  8
LAYER-1
 10
5.640734
 20
6.044219
 30
0.000000
  0
SEQEND
  8
LAYER-1
  0
POLYLINE
  8
LAYER-1
 66
  1
 70
  0
 62
  0
 10
5.663864
 20
6.067349
 30
0.000000
  0
VERTEX
  8
LAYER-1
 10
5.663864
 20
6.067349
 30
0.000000
  0
VERTEX
  8
LAYER-1
 10
5.710125
 20
6.067349
 30
0.000000
  0
SEQEND
  8
LAYER-1
  0
POLYLINE
  8
LAYER-1
 66
  1
 70
  0
 62
  0
 10
5.733256
 20
6.044219
 30
0.000000
  0
VERTEX
  8
LAYER-1
 10
5.733256
 20
6.044219
 30
0.000000
  0
VERTEX
  8
LAYER-1
 10
5.733256
 20
5.928498
 30
0.000000
  0
SEQEND
  8
LAYER-1
  0
POLYLINE
  8
LAYER-1
 66
  1
 70
  0
 62
  0
 10
5.710125
 20
5.905368
 30
0.000000
  0
VERTEX
  8
LAYER-1
 10
5.710125
 20
5.905368
 30
0.000000
  0
VERTEX
  8
LAYER-1
 10
5.663864
 20
5.905368
 30
0.000000
  0
SEQEND
  8
LAYER-1
  0
ARC
  8
LAYER-1
 62
  0
 10
5.663864
 20
5.928498
 30
0.000000
 40
0.023130
 50
180.000000
 51
270.000000
  0
ARC
  8
LAYER-1
 62
  0
 10
5.710125
 20
5.928498
 30
0.000000
 40
0.023130
 50
270.000000
 51
0.000000
  0
ARC
  8
LAYER-1
 62
  0
 10
5.710125
 20
6.044219
 30
0.000000
 40
0.023130
 50
0.000000
 51
90.000000
  0
ARC
  8
LAYER-1
 62
  0
 10
5.663864
 20
6.044219
 30
0.000000
 40
0.023130
 50
90.000000
 51
180.000000
  0
POLYLINE
  8
LAYER-1
 66
  1
 70
  0
 62
  0
 10
5.642544
 20
5.000067
 30
0.000000
  0
VERTEX
  8
LAYER-1
 10
5.642544
 20
5.000067
 30
0.000000
  0
VERTEX
  8
LAYER-1
 10
5.642544
 20
5.115786
 30
0.000000
  0
SEQEND
  8
LAYER-1
  0
POLYLINE
  8
LAYER-1
 66
  1
 70
  0
 62
  0
 10
5.665675
 20
5.138917
 30
0.000000
  0
VERTEX
  8
LAYER-1
 10
5.665675
 20
5.138917
 30
0.000000
  0
VERTEX
  8
LAYER-1
 10
5.711935
 20
5.138917
 30
0.000000
  0
SEQEND
  8
LAYER-1
  0
POLYLINE
  8
LAYER-1
 66
  1
 70
  0
 62
  0
 10
5.735066
 20
5.115786
 30
0.000000
  0
VERTEX
  8
LAYER-1
 10
5.735066
 20
5.115786
 30
0.000000
  0
VERTEX
  8
LAYER-1
 10
5.735066
 20
5.000067
 30
0.000000
  0
SEQEND
  8
LAYER-1
  0
POLYLINE
  8
LAYER-1
 66
  1
 70
  0
 62
  0
 10
5.711935
 20
4.976936
 30
0.000000
  0
VERTEX
  8
LAYER-1
 10
5.711935
 20
4.976936
 30
0.000000
  0
VERTEX
  8
LAYER-1
 10
5.665675
 20
4.976936
 30
0.000000
  0
SEQEND
  8
LAYER-1
  0
ARC
  8
LAYER-1
 62
  0
 10
5.665675
 20
5.000067
 30
0.000000
 40
0.023130
 50
180.000000
 51
270.000000
  0
ARC
  8
LAYER-1
 62
  0
 10
5.711935
 20
5.000067
 30
0.000000
 40
0.023130
 50
270.000000
 51
0.000000
  0
ARC
  8
LAYER-1
 62
  0
 10
5.711935
 20
5.115786
 30
0.000000
 40
0.023130
 50
0.000000
 51
90.000000
  0
ARC
  8
LAYER-1
 62
  0
 10
5.665675
 20
5.115786
 30
0.000000
 40
0.023130
 50
90.000000
 51
180.000000
  0
POLYLINE
  8
LAYER-1
  6
LTYPE01
 66
  1
 70
  0
 62
  0
  6
LTYPE01
 10
6.009203
 20
5.171468
 30
0.000000
  0
VERTEX
  8
LAYER-1
  6
LTYPE01
 10
6.009203
 20
5.171468
 30
0.000000
  0
VERTEX
  8
LAYER-1
  6
LTYPE01
 10
5.364011
 20
5.234751
 30
0.000000
  0
SEQEND
  8
LAYER-1
  0
POLYLINE
  8
LAYER-1
  6
LTYPE01
 66
  1
 70
  0
 62
  0
  6
LTYPE01
 10
5.364011
 20
5.234751
 30
0.000000
  0
VERTEX
  8
LAYER-1
  6
LTYPE01
 10
5.364011
 20
5.234751
 30
0.000000
  0
VERTEX
  8
LAYER-1
  6
LTYPE01
 10
6.009203
 20
5.298034
 30
0.000000
  0
SEQEND
  8
LAYER-1
  0
POLYLINE
  8
LAYER-1
  6
LTYPE01
 66
  1
 70
  0
 62
  0
  6
LTYPE01
 10
6.009203
 20
5.298034
 30
0.000000
  0
VERTEX
  8
LAYER-1
  6
LTYPE01
 10
6.009203
 20
5.298034
 30
0.000000
  0
VERTEX
  8
LAYER-1
  6
LTYPE01
 10
5.364008
 20
5.361316
 30
0.000000
  0
SEQEND
  8
LAYER-1
  0
POLYLINE
  8
LAYER-1
  6
LTYPE01
 66
  1
 70
  0
 62
  0
  6
LTYPE01
 10
5.364008
 20
5.361316
 30
0.000000
  0
VERTEX
  8
LAYER-1
  6
LTYPE01
 10
5.364008
 20
5.361316
 30
0.000000
  0
VERTEX
  8
LAYER-1
  6
LTYPE01
 10
6.009199
 20
5.424600
 30
0.000000
  0
SEQEND
  8
LAYER-1
  0
POLYLINE
  8
LAYER-1
  6
LTYPE01
 66
  1
 70
  0
 62
  0
  6
LTYPE01
 10
6.009199
 20
5.424600
 30
0.000000
  0
VERTEX
  8
LAYER-1
  6
LTYPE01
 10
6.009199
 20
5.424600
 30
0.000000
  0
VERTEX
  8
LAYER-1
  6
LTYPE01
 10
5.364008
 20
5.487882
 30
0.000000
  0
SEQEND
  8
LAYER-1
  0
POLYLINE
  8
LAYER-1
  6
LTYPE01
 66
  1
 70
  0
 62
  0
  6
LTYPE01
 10
5.364008
 20
5.487882
 30
0.000000
  0
VERTEX
  8
LAYER-1
  6
LTYPE01
 10
5.364008
 20
5.487882
 30
0.000000
  0
VERTEX
  8
LAYER-1
  6
LTYPE01
 10
6.009199
 20
5.551165
 30
0.000000
  0
SEQEND
  8
LAYER-1
  0
POLYLINE
  8
LAYER-1
  6
LTYPE01
 66
  1
 70
  0
 62
  0
  6
LTYPE01
 10
6.009199
 20
5.551165
 30
0.000000
  0
VERTEX
  8
LAYER-1
  6
LTYPE01
 10
6.009199
 20
5.551165
 30
0.000000
  0
VERTEX
  8
LAYER-1
  6
LTYPE01
 10
5.364008
 20
5.614448
 30
0.000000
  0
SEQEND
  8
LAYER-1
  0
POLYLINE
  8
LAYER-1
  6
LTYPE01
 66
  1
 70
  0
 62
  0
  6
LTYPE01
 10
5.364008
 20
5.614448
 30
0.000000
  0
VERTEX
  8
LAYER-1
  6
LTYPE01
 10
5.364008
 20
5.614448
 30
0.000000
  0
VERTEX
  8
LAYER-1
  6
LTYPE01
 10
6.009199
 20
5.677732
 30
0.000000
  0
SEQEND
  8
LAYER-1
  0
POLYLINE
  8
LAYER-1
  6
LTYPE01
 66
  1
 70
  0
 62
  0
  6
LTYPE01
 10
6.009199
 20
5.677732
 30
0.000000
  0
VERTEX
  8
LAYER-1
  6
LTYPE01
 10
6.009199
 20
5.677732
 30
0.000000
  0
VERTEX
  8
LAYER-1
  6
LTYPE01
 10
5.364008
 20
5.741016
 30
0.000000
  0
SEQEND
  8
LAYER-1
  0
POLYLINE
  8
LAYER-1
  6
LTYPE01
 66
  1
 70
  0
 62
  0
  6
LTYPE01
 10
5.364008
 20
5.741016
 30
0.000000
  0
VERTEX
  8
LAYER-1
  6
LTYPE01
 10
5.364008
 20
5.741016
 30
0.000000
  0
VERTEX
  8
LAYER-1
  6
LTYPE01
 10
6.009199
 20
5.804298
 30
0.000000
  0
SEQEND
  8
LAYER-1
  0
POLYLINE
  8
LAYER-1
  6
LTYPE01
 66
  1
 70
  0
 62
  0
  6
LTYPE01
 10
6.009199
 20
5.804298
 30
0.000000
  0
VERTEX
  8
LAYER-1
  6
LTYPE01
 10
6.009199
 20
5.804298
 30
0.000000
  0
VERTEX
  8
LAYER-1
  6
LTYPE01
 10
5.364002
 20
5.868244
 30
0.000000
  0
SEQEND
  8
LAYER-1
  0
POLYLINE
  8
LAYER-1
  6
LTYPE01
 66
  1
 70
  0
 62
  0
  6
LTYPE01
 10
5.364427
 20
5.868941
 30
0.000000
  0
VERTEX
  8
LAYER-1
  6
LTYPE01
 10
5.364427
 20
5.868941
 30
0.000000
  0
VERTEX
  8
LAYER-1
  6
LTYPE01
 10
5.687958
 20
5.901727
 30
0.000000
  0
SEQEND
  8
LAYER-1
  0
POLYLINE
  8
LAYER-1
  6
LTYPE01
 66
  1
 70
  0
 62
  0
  6
LTYPE01
 10
5.687958
 20
5.138892
 30
0.000000
  0
VERTEX
  8
LAYER-1
  6
LTYPE01
 10
5.687958
 20
5.138892
 30
0.000000
  0
VERTEX
  8
LAYER-1
  6
LTYPE01
 10
6.010551
 20
5.170533
 30
0.000000
  0
SEQEND
  8
LAYER-1
  0
POLYLINE
  8
LAYER-1
  6
LTYPE01
 66
  1
 70
  0
 62
  0
  6
LTYPE01
 10
5.304660
 20
4.896812
 30
0.000000
  0
VERTEX
  8
LAYER-1
  6
LTYPE01
 10
5.304660
 20
4.896812
 30
0.000000
  0
VERTEX
  8
LAYER-1
  6
LTYPE01
 10
5.306352
 20
4.824267
 30
0.000000
  0
VERTEX
  8
LAYER-1
  6
LTYPE01
 10
5.317297
 20
4.750472
 30
0.000000
  0
VERTEX
  8
LAYER-1
  6
LTYPE01
 10
5.335422
 20
4.678105
 30
0.000000
  0
VERTEX
  8
LAYER-1
  6
LTYPE01
 10
5.360552
 20
4.607864
 30
0.000000
  0
VERTEX
  8
LAYER-1
  6
LTYPE01
 10
5.392444
 20
4.540424
 30
0.000000
  0
VERTEX
  8
LAYER-1
  6
LTYPE01
 10
5.430793
 20
4.476435
 30
0.000000
  0
VERTEX
  8
LAYER-1
  6
LTYPE01
 10
5.475228
 20
4.416513
 30
0.000000
  0
VERTEX
  8
LAYER-1
  6
LTYPE01
 10
5.525322
 20
4.361236
 30
0.000000
  0
VERTEX
  8
LAYER-1
  6
LTYPE01
 10
5.580592
 20
4.311136
 30
0.000000
  0
VERTEX
  8
LAYER-1
  6
LTYPE01
 10
5.640505
 20
4.266696
 30
0.000000
  0
VERTEX
  8
LAYER-1
  6
LTYPE01
 10
5.704486
 20
4.228342
 30
0.000000
  0
VERTEX
  8
LAYER-1
  6
LTYPE01
 10
5.771918
 20
4.196445
 30
0.000000
  0
VERTEX
  8
LAYER-1
  6
LTYPE01
 10
5.842150
 20
4.171313
 30
0.000000
  0
VERTEX
  8
LAYER-1
  6
LTYPE01
 10
5.914508
 20
4.153186
 30
0.000000
  0
VERTEX
  8
LAYER-1
  6
LTYPE01
 10
5.988294
 20
4.142239
 30
0.000000
  0
VERTEX
  8
LAYER-1
  6
LTYPE01
 10
6.062798
 20
4.138579
 30
0.000000
  0
VERTEX
  8
LAYER-1
  6
LTYPE01
 10
6.137301
 20
4.142239
 30
0.000000
  0
VERTEX
  8
LAYER-1
  6
LTYPE01
 10
6.211087
 20
4.153186
 30
0.000000
  0
VERTEX
  8
LAYER-1
  6
LTYPE01
 10
6.283445
 20
4.171313
 30
0.000000
  0
VERTEX
  8
LAYER-1
  6
LTYPE01
 10
6.353678
 20
4.196445
 30
0.000000
  0
VERTEX
  8
LAYER-1
  6
LTYPE01
 10
6.421109
 20
4.228342
 30
0.000000
  0
VERTEX
  8
LAYER-1
  6
LTYPE01
 10
6.485090
 20
4.266696
 30
0.000000
  0
VERTEX
  8
LAYER-1
  6
LTYPE01
 10
6.545003
 20
4.311136
 30
0.000000
  0
VERTEX
  8
LAYER-1
  6
LTYPE01
 10
6.600273
 20
4.361236
 30
0.000000
  0
VERTEX
  8
LAYER-1
  6
LTYPE01
 10
6.603297
 20
4.360325
 30
0.000000
  0
SEQEND
  8
LAYER-1
  0
POLYLINE
  8
LAYER-1
  6
LTYPE01
 66
  1
 70
  1
 62
  0
  6
LTYPE01
 10
6.603304
 20
4.360332
 30
0.000000
  0
VERTEX
  8
LAYER-1
  6
LTYPE01
 10
6.603304
 20
4.360332
 30
0.000000
  0
VERTEX
  8
LAYER-1
  6
LTYPE01
 10
6.066344
 20
4.897291
 30
0.000000
  0
VERTEX
  8
LAYER-1
  6
LTYPE01
 10
6.000311
 20
4.831257
 30
0.000000
  0
VERTEX
  8
LAYER-1
  6
LTYPE01
 10
6.533246
 20
4.298324
 30
0.000000
  0
SEQEND
  8
LAYER-1
  0
TEXT
  8
LAYER-1
 62
  0
 10
6.701390
 20
5.902777
 30
0.000000
 40
0.197917
  1
P
 72
  5
 11
6.951390
 21
5.902777
 31
0.000000
  0
TEXT
  8
LAYER-1
 62
  0
 10
5.520834
 20
7.861110
 30
0.000000
 40
0.197917
  1
A
 72
  5
 11
5.770834
 21
7.861110
 31
0.000000
  0
TEXT
  8
LAYER-1
 62
  0
 10
4.951390
 20
7.611110
 30
0.000000
 40
0.093750
  1
ideal  10" (254mm)
 72
  5
 11
6.076390
 21
7.611110
 31
0.000000
  0
POLYLINE
  8
LAYER-1
 66
  1
 70
  0
 62
  0
 10
1.455059
 20
4.587713
 30
0.000000
  0
VERTEX
  8
LAYER-1
 10
1.455059
 20
4.587713
 30
0.000000
  0
VERTEX
  8
LAYER-1
 10
1.769966
 20
4.587713
 30
0.000000
  0
SEQEND
  8
LAYER-1
  0
POLYLINE
  8
LAYER-1
 66
  1
 70
  0
 62
  0
 10
0.888587
 20
5.352099
 30
0.000000
  0
VERTEX
  8
LAYER-1
 10
0.888587
 20
5.352099
 30
0.000000
  0
VERTEX
  8
LAYER-1
 10
0.888587
 20
4.205845
 30
0.000000
  0
SEQEND
  8
LAYER-1
  0
LINE
  8
LAYER-1
 62
  0
 10
0.918050
 20
5.322636
 30
0.000000
 11
0.859124
 21
5.381561
 31
0.000000
  0
LINE
  8
LAYER-1
 62
  0
 10
0.918050
 20
4.176382
 30
0.000000
 11
0.859124
 21
4.235307
 31
0.000000
  0
POLYLINE
  8
LAYER-1
 66
  1
 70
  0
 62
  0
 10
2.838170
 20
7.708318
 30
0.000000
  0
VERTEX
  8
LAYER-1
 10
2.838170
 20
7.708318
 30
0.000000
  0
VERTEX
  8
LAYER-1
 10
2.836806
 20
7.979166
 30
0.000000
  0
SEQEND
  8
LAYER-1
  0
POLYLINE
  8
LAYER-1
 66
  1
 70
  0
 62
  0
 10
1.890915
 20
7.703612
 30
0.000000
  0
VERTEX
  8
LAYER-1
 10
1.890915
 20
7.703612
 30
0.000000
  0
VERTEX
  8
LAYER-1
 10
1.892362
 20
7.982638
 30
0.000000
  0
SEQEND
  8
LAYER-1
  0
POLYLINE
  8
LAYER-1
  6
LTYPE06
 66
  1
 70
  0
 62
  0
  6
LTYPE06
 10
2.457730
 20
5.926542
 30
0.000000
  0
VERTEX
  8
LAYER-1
  6
LTYPE06
 10
2.457730
 20
5.926542
 30
0.000000
  0
VERTEX
  8
LAYER-1
  6
LTYPE06
 10
2.456300
 20
7.317291
 30
0.000000
  0
SEQEND
  8
LAYER-1
  0
POLYLINE
  8
LAYER-1
 66
  1
 70
  0
 62
  0
 10
2.837753
 20
7.912468
 30
0.000000
  0
VERTEX
  8
LAYER-1
 10
2.837753
 20
7.912468
 30
0.000000
  0
VERTEX
  8
LAYER-1
 10
1.890915
 20
7.912468
 30
0.000000
  0
SEQEND
  8
LAYER-1
  0
LINE
  8
LAYER-1
 62
  0
 10
2.808290
 20
7.883005
 30
0.000000
 11
2.867216
 21
7.941930
 31
0.000000
  0
LINE
  8
LAYER-1
 62
  0
 10
1.861453
 20
7.883005
 30
0.000000
 11
1.920378
 21
7.941930
 31
0.000000
  0
POLYLINE
  8
LAYER-1
 66
  1
 70
  0
 62
  0
 10
0.798611
 20
5.350694
 30
0.000000
  0
VERTEX
  8
LAYER-1
 10
0.798611
 20
5.350694
 30
0.000000
  0
VERTEX
  8
LAYER-1
 10
1.177084
 20
5.350694
 30
0.000000
  0
SEQEND
  8
LAYER-1
  0
POLYLINE
  8
LAYER-1
 66
  1
 70
  0
 62
  0
 10
1.246528
 20
7.378471
 30
0.000000
  0
VERTEX
  8
LAYER-1
 10
1.246528
 20
7.378471
 30
0.000000
  0
VERTEX
  8
LAYER-1
 10
1.493064
 20
7.379656
 30
0.000000
  0
SEQEND
  8
LAYER-1
  0
POLYLINE
  8
LAYER-1
 66
  1
 70
  0
 62
  0
 10
1.339352
 20
5.351864
 30
0.000000
  0
VERTEX
  8
LAYER-1
 10
1.339352
 20
5.351864
 30
0.000000
  0
VERTEX
  8
LAYER-1
 10
1.338164
 20
7.379656
 30
0.000000
  0
SEQEND
  8
LAYER-1
  0
LINE
  8
LAYER-1
 62
  0
 10
1.309872
 20
5.381310
 30
0.000000
 11
1.368832
 21
5.322418
 31
0.000000
  0
LINE
  8
LAYER-1
 62
  0
 10
1.308684
 20
7.409102
 30
0.000000
 11
1.367644
 21
7.350211
 31
0.000000
  0
POLYLINE
  8
LAYER-1
 66
  1
 70
  1
 62
  0
 10
3.053768
 20
5.261965
 30
0.000000
  0
VERTEX
  8
LAYER-1
 10
3.053768
 20
5.261965
 30
0.000000
  0
VERTEX
  8
LAYER-1
 10
3.047191
 20
5.268542
 30
0.000000
  0
VERTEX
  8
LAYER-1
 10
2.914163
 20
5.268542
 30
0.000000
  0
VERTEX
  8
LAYER-1
 10
2.907585
 20
5.261965
 30
0.000000
  0
VERTEX
  8
LAYER-1
 10
2.885164
 20
5.261965
 30
0.000000
  0
VERTEX
  8
LAYER-1
 10
2.885164
 20
5.357627
 30
0.000000
  0
VERTEX
  8
LAYER-1
 10
2.907585
 20
5.357627
 30
0.000000
  0
VERTEX
  8
LAYER-1
 10
2.907585
 20
5.351050
 30
0.000000
  0
VERTEX
  8
LAYER-1
 10
2.891741
 20
5.351050
 30
0.000000
  0
VERTEX
  8
LAYER-1
 10
2.891741
 20
5.268542
 30
0.000000
  0
VERTEX
  8
LAYER-1
 10
2.904596
 20
5.268541
 30
0.000000
  0
VERTEX
  8
LAYER-1
 10
2.911471
 20
5.275416
 30
0.000000
  0
VERTEX
  8
LAYER-1
 10
3.049583
 20
5.275416
 30
0.000000
  0
VERTEX
  8
LAYER-1
 10
3.056459
 20
5.268541
 30
0.000000
  0
VERTEX
  8
LAYER-1
 10
3.069912
 20
5.268542
 30
0.000000
  0
VERTEX
  8
LAYER-1
 10
3.069912
 20
5.351050
 30
0.000000
  0
VERTEX
  8
LAYER-1
 10
3.053768
 20
5.351050
 30
0.000000
  0
VERTEX
  8
LAYER-1
 10
3.053768
 20
5.357627
 30
0.000000
  0
VERTEX
  8
LAYER-1
 10
3.076488
 20
5.357627
 30
0.000000
  0
VERTEX
  8
LAYER-1
 10
3.076488
 20
5.261965
 30
0.000000
  0
SEQEND
  8
LAYER-1
  0
POLYLINE
  8
LAYER-1
 66
  1
 70
  1
 62
  0
 10
2.907786
 20
7.425496
 30
0.000000
  0
VERTEX
  8
LAYER-1
 10
2.907786
 20
7.425496
 30
0.000000
  0
VERTEX
  8
LAYER-1
 10
2.914364
 20
7.418920
 30
0.000000
  0
VERTEX
  8
LAYER-1
 10
3.047392
 20
7.418920
 30
0.000000
  0
VERTEX
  8
LAYER-1
 10
3.053969
 20
7.425496
 30
0.000000
  0
VERTEX
  8
LAYER-1
 10
3.076391
 20
7.425496
 30
0.000000
  0
VERTEX
  8
LAYER-1
 10
3.076391
 20
7.329835
 30
0.000000
  0
VERTEX
  8
LAYER-1
 10
3.053969
 20
7.329835
 30
0.000000
  0
VERTEX
  8
LAYER-1
 10
3.053969
 20
7.336412
 30
0.000000
  0
VERTEX
  8
LAYER-1
 10
3.069814
 20
7.336412
 30
0.000000
  0
VERTEX
  8
LAYER-1
 10
3.069814
 20
7.418920
 30
0.000000
  0
VERTEX
  8
LAYER-1
 10
3.056960
 20
7.418920
 30
0.000000
  0
VERTEX
  8
LAYER-1
 10
3.050083
 20
7.412045
 30
0.000000
  0
VERTEX
  8
LAYER-1
 10
2.911971
 20
7.412045
 30
0.000000
  0
VERTEX
  8
LAYER-1
 10
2.905095
 20
7.418920
 30
0.000000
  0
VERTEX
  8
LAYER-1
 10
2.891642
 20
7.418920
 30
0.000000
  0
VERTEX
  8
LAYER-1
 10
2.891642
 20
7.336412
 30
0.000000
  0
VERTEX
  8
LAYER-1
 10
2.907786
 20
7.336412
 30
0.000000
  0
VERTEX
  8
LAYER-1
 10
2.907786
 20
7.329835
 30
0.000000
  0
VERTEX
  8
LAYER-1
 10
2.885067
 20
7.329835
 30
0.000000
  0
VERTEX
  8
LAYER-1
 10
2.885067
 20
7.425496
 30
0.000000
  0
SEQEND
  8
LAYER-1
  0
POLYLINE
  8
LAYER-1
 66
  1
 70
  1
 62
  0
 10
2.908337
 20
6.416656
 30
0.000000
  0
VERTEX
  8
LAYER-1
 10
2.908337
 20
6.416656
 30
0.000000
  0
VERTEX
  8
LAYER-1
 10
2.914914
 20
6.410078
 30
0.000000
  0
VERTEX
  8
LAYER-1
 10
3.047942
 20
6.410078
 30
0.000000
  0
VERTEX
  8
LAYER-1
 10
3.054520
 20
6.416655
 30
0.000000
  0
VERTEX
  8
LAYER-1
 10
3.076941
 20
6.416655
 30
0.000000
  0
VERTEX
  8
LAYER-1
 10
3.076941
 20
6.320992
 30
0.000000
  0
VERTEX
  8
LAYER-1
 10
3.054520
 20
6.320992
 30
0.000000
  0
VERTEX
  8
LAYER-1
 10
3.054520
 20
6.327569
 30
0.000000
  0
VERTEX
  8
LAYER-1
 10
3.070364
 20
6.327569
 30
0.000000
  0
VERTEX
  8
LAYER-1
 10
3.070364
 20
6.410078
 30
0.000000
  0
VERTEX
  8
LAYER-1
 10
3.057509
 20
6.410078
 30
0.000000
  0
VERTEX
  8
LAYER-1
 10
3.050634
 20
6.403203
 30
0.000000
  0
VERTEX
  8
LAYER-1
 10
2.912522
 20
6.403203
 30
0.000000
  0
VERTEX
  8
LAYER-1
 10
2.905646
 20
6.410078
 30
0.000000
  0
VERTEX
  8
LAYER-1
 10
2.892194
 20
6.410078
 30
0.000000
  0
VERTEX
  8
LAYER-1
 10
2.892194
 20
6.327569
 30
0.000000
  0
VERTEX
  8
LAYER-1
 10
2.908337
 20
6.327569
 30
0.000000
  0
VERTEX
  8
LAYER-1
 10
2.908337
 20
6.320992
 30
0.000000
  0
VERTEX
  8
LAYER-1
 10
2.885617
 20
6.320992
 30
0.000000
  0
VERTEX
  8
LAYER-1
 10
2.885617
 20
6.416656
 30
0.000000
  0
SEQEND
  8
LAYER-1
  0
POLYLINE
  8
LAYER-1
 66
  1
 70
  1
 62
  0
 10
1.819696
 20
5.401059
 30
0.000000
  0
VERTEX
  8
LAYER-1
 10
1.819696
 20
5.401059
 30
0.000000
  0
VERTEX
  8
LAYER-1
 10
1.813119
 20
5.407637
 30
0.000000
  0
VERTEX
  8
LAYER-1
 10
1.680091
 20
5.407637
 30
0.000000
  0
VERTEX
  8
LAYER-1
 10
1.673513
 20
5.401060
 30
0.000000
  0
VERTEX
  8
LAYER-1
 10
1.651092
 20
5.401060
 30
0.000000
  0
VERTEX
  8
LAYER-1
 10
1.651092
 20
5.496722
 30
0.000000
  0
VERTEX
  8
LAYER-1
 10
1.673513
 20
5.496722
 30
0.000000
  0
VERTEX
  8
LAYER-1
 10
1.673513
 20
5.490145
 30
0.000000
  0
VERTEX
  8
LAYER-1
 10
1.657669
 20
5.490145
 30
0.000000
  0
VERTEX
  8
LAYER-1
 10
1.657669
 20
5.407637
 30
0.000000
  0
VERTEX
  8
LAYER-1
 10
1.670524
 20
5.407636
 30
0.000000
  0
VERTEX
  8
LAYER-1
 10
1.677400
 20
5.414512
 30
0.000000
  0
VERTEX
  8
LAYER-1
 10
1.815511
 20
5.414512
 30
0.000000
  0
VERTEX
  8
LAYER-1
 10
1.822387
 20
5.407636
 30
0.000000
  0
VERTEX
  8
LAYER-1
 10
1.835840
 20
5.407637
 30
0.000000
  0
VERTEX
  8
LAYER-1
 10
1.835840
 20
5.490145
 30
0.000000
  0
VERTEX
  8
LAYER-1
 10
1.819696
 20
5.490145
 30
0.000000
  0
VERTEX
  8
LAYER-1
 10
1.819696
 20
5.496722
 30
0.000000
  0
VERTEX
  8
LAYER-1
 10
1.842416
 20
5.496722
 30
0.000000
  0
VERTEX
  8
LAYER-1
 10
1.842416
 20
5.401059
 30
0.000000
  0
SEQEND
  8
LAYER-1
  0
POLYLINE
  8
LAYER-1
 66
  1
 70
  1
 62
  0
 10
1.673299
 20
7.426108
 30
0.000000
  0
VERTEX
  8
LAYER-1
 10
1.673299
 20
7.426108
 30
0.000000
  0
VERTEX
  8
LAYER-1
 10
1.679876
 20
7.419530
 30
0.000000
  0
VERTEX
  8
LAYER-1
 10
1.812904
 20
7.419530
 30
0.000000
  0
VERTEX
  8
LAYER-1
 10
1.819482
 20
7.426107
 30
0.000000
  0
VERTEX
  8
LAYER-1
 10
1.841903
 20
7.426107
 30
0.000000
  0
VERTEX
  8
LAYER-1
 10
1.841903
 20
7.330446
 30
0.000000
  0
VERTEX
  8
LAYER-1
 10
1.819482
 20
7.330446
 30
0.000000
  0
VERTEX
  8
LAYER-1
 10
1.819482
 20
7.337023
 30
0.000000
  0
VERTEX
  8
LAYER-1
 10
1.835326
 20
7.337023
 30
0.000000
  0
VERTEX
  8
LAYER-1
 10
1.835326
 20
7.419530
 30
0.000000
  0
VERTEX
  8
LAYER-1
 10
1.822471
 20
7.419531
 30
0.000000
  0
VERTEX
  8
LAYER-1
 10
1.815596
 20
7.412655
 30
0.000000
  0
VERTEX
  8
LAYER-1
 10
1.677484
 20
7.412655
 30
0.000000
  0
VERTEX
  8
LAYER-1
 10
1.670608
 20
7.419531
 30
0.000000
  0
VERTEX
  8
LAYER-1
 10
1.657156
 20
7.419530
 30
0.000000
  0
VERTEX
  8
LAYER-1
 10
1.657156
 20
7.337023
 30
0.000000
  0
VERTEX
  8
LAYER-1
 10
1.673299
 20
7.337023
 30
0.000000
  0
VERTEX
  8
LAYER-1
 10
1.673299
 20
7.330446
 30
0.000000
  0
VERTEX
  8
LAYER-1
 10
1.650579
 20
7.330446
 30
0.000000
  0
VERTEX
  8
LAYER-1
 10
1.650579
 20
7.426108
 30
0.000000
  0
SEQEND
  8
LAYER-1
  0
POLYLINE
  8
LAYER-1
 66
  1
 70
  1
 62
  0
 10
1.673397
 20
6.416398
 30
0.000000
  0
VERTEX
  8
LAYER-1
 10
1.673397
 20
6.416398
 30
0.000000
  0
VERTEX
  8
LAYER-1
 10
1.679974
 20
6.409821
 30
0.000000
  0
VERTEX
  8
LAYER-1
 10
1.813002
 20
6.409821
 30
0.000000
  0
VERTEX
  8
LAYER-1
 10
1.819580
 20
6.416398
 30
0.000000
  0
VERTEX
  8
LAYER-1
 10
1.842001
 20
6.416398
 30
0.000000
  0
VERTEX
  8
LAYER-1
 10
1.842001
 20
6.320736
 30
0.000000
  0
VERTEX
  8
LAYER-1
 10
1.819580
 20
6.320736
 30
0.000000
  0
VERTEX
  8
LAYER-1
 10
1.819580
 20
6.327313
 30
0.000000
  0
VERTEX
  8
LAYER-1
 10
1.835424
 20
6.327313
 30
0.000000
  0
VERTEX
  8
LAYER-1
 10
1.835424
 20
6.409821
 30
0.000000
  0
VERTEX
  8
LAYER-1
 10
1.822570
 20
6.409822
 30
0.000000
  0
VERTEX
  8
LAYER-1
 10
1.815694
 20
6.402946
 30
0.000000
  0
VERTEX
  8
LAYER-1
 10
1.677582
 20
6.402946
 30
0.000000
  0
VERTEX
  8
LAYER-1
 10
1.670706
 20
6.409822
 30
0.000000
  0
VERTEX
  8
LAYER-1
 10
1.657254
 20
6.409821
 30
0.000000
  0
VERTEX
  8
LAYER-1
 10
1.657254
 20
6.327313
 30
0.000000
  0
VERTEX
  8
LAYER-1
 10
1.673397
 20
6.327313
 30
0.000000
  0
VERTEX
  8
LAYER-1
 10
1.673397
 20
6.320736
 30
0.000000
  0
VERTEX
  8
LAYER-1
 10
1.650677
 20
6.320736
 30
0.000000
  0
VERTEX
  8
LAYER-1
 10
1.650677
 20
6.416398
 30
0.000000
  0
SEQEND
  8
LAYER-1
  0
POLYLINE
  8
LAYER-1
 66
  1
 70
  1
 62
  0
 10
1.649875
 20
7.449600
 30
0.000000
  0
VERTEX
  8
LAYER-1
 10
1.649875
 20
7.449600
 30
0.000000
  0
VERTEX
  8
LAYER-1
 10
1.656452
 20
7.456178
 30
0.000000
  0
VERTEX
  8
LAYER-1
 10
1.656452
 20
7.589206
 30
0.000000
  0
VERTEX
  8
LAYER-1
 10
1.649876
 20
7.595785
 30
0.000000
  0
VERTEX
  8
LAYER-1
 10
1.649876
 20
7.618205
 30
0.000000
  0
VERTEX
  8
LAYER-1
 10
1.745538
 20
7.618205
 30
0.000000
  0
VERTEX
  8
LAYER-1
 10
1.745538
 20
7.595785
 30
0.000000
  0
VERTEX
  8
LAYER-1
 10
1.738960
 20
7.595785
 30
0.000000
  0
VERTEX
  8
LAYER-1
 10
1.738960
 20
7.611628
 30
0.000000
  0
VERTEX
  8
LAYER-1
 10
1.656452
 20
7.611628
 30
0.000000
  0
VERTEX
  8
LAYER-1
 10
1.656452
 20
7.598774
 30
0.000000
  0
VERTEX
  8
LAYER-1
 10
1.663327
 20
7.591898
 30
0.000000
  0
VERTEX
  8
LAYER-1
 10
1.663327
 20
7.453785
 30
0.000000
  0
VERTEX
  8
LAYER-1
 10
1.656452
 20
7.446910
 30
0.000000
  0
VERTEX
  8
LAYER-1
 10
1.656452
 20
7.433457
 30
0.000000
  0
VERTEX
  8
LAYER-1
 10
1.738960
 20
7.433457
 30
0.000000
  0
VERTEX
  8
LAYER-1
 10
1.738960
 20
7.449600
 30
0.000000
  0
VERTEX
  8
LAYER-1
 10
1.745538
 20
7.449600
 30
0.000000
  0
VERTEX
  8
LAYER-1
 10
1.745538
 20
7.426881
 30
0.000000
  0
VERTEX
  8
LAYER-1
 10
1.649875
 20
7.426881
 30
0.000000
  0
SEQEND
  8
LAYER-1
  0
POLYLINE
  8
LAYER-1
 66
  1
 70
  1
 62
  0
 10
3.076392
 20
7.595039
 30
0.000000
  0
VERTEX
  8
LAYER-1
 10
3.076392
 20
7.595039
 30
0.000000
  0
VERTEX
  8
LAYER-1
 10
3.069813
 20
7.588461
 30
0.000000
  0
VERTEX
  8
LAYER-1
 10
3.069813
 20
7.455432
 30
0.000000
  0
VERTEX
  8
LAYER-1
 10
3.076391
 20
7.448855
 30
0.000000
  0
VERTEX
  8
LAYER-1
 10
3.076391
 20
7.426434
 30
0.000000
  0
VERTEX
  8
LAYER-1
 10
2.980729
 20
7.426434
 30
0.000000
  0
VERTEX
  8
LAYER-1
 10
2.980729
 20
7.448855
 30
0.000000
  0
VERTEX
  8
LAYER-1
 10
2.987306
 20
7.448855
 30
0.000000
  0
VERTEX
  8
LAYER-1
 10
2.987306
 20
7.433011
 30
0.000000
  0
VERTEX
  8
LAYER-1
 10
3.069813
 20
7.433011
 30
0.000000
  0
VERTEX
  8
LAYER-1
 10
3.069815
 20
7.445865
 30
0.000000
  0
VERTEX
  8
LAYER-1
 10
3.062939
 20
7.452741
 30
0.000000
  0
VERTEX
  8
LAYER-1
 10
3.062939
 20
7.590853
 30
0.000000
  0
VERTEX
  8
LAYER-1
 10
3.069815
 20
7.597729
 30
0.000000
  0
VERTEX
  8
LAYER-1
 10
3.069813
 20
7.611181
 30
0.000000
  0
VERTEX
  8
LAYER-1
 10
2.987306
 20
7.611181
 30
0.000000
  0
VERTEX
  8
LAYER-1
 10
2.987306
 20
7.595039
 30
0.000000
  0
VERTEX
  8
LAYER-1
 10
2.980729
 20
7.595039
 30
0.000000
  0
VERTEX
  8
LAYER-1
 10
2.980729
 20
7.617758
 30
0.000000
  0
VERTEX
  8
LAYER-1
 10
3.076392
 20
7.617758
 30
0.000000
  0
SEQEND
  8
LAYER-1
  0
POLYLINE
  8
LAYER-1
 66
  1
 70
  0
 62
  0
 10
1.602576
 20
5.352294
 30
0.000000
  0
VERTEX
  8
LAYER-1
 10
1.602576
 20
5.352294
 30
0.000000
  0
VERTEX
  8
LAYER-1
 10
1.891855
 20
5.352294
 30
0.000000
  0
SEQEND
  8
LAYER-1
  0
TEXT
  8
LAYER-1
 62
  0
 10
2.229167
 20
7.986110
 30
0.000000
 40
0.197917
  1
A
 72
  5
 11
2.479167
 21
7.986110
 31
0.000000
  0
POLYLINE
  8
LAYER-1
  6
LTYPE01
 66
  1
 70
  0
 62
  0
  6
LTYPE01
 10
2.761782
 20
6.480000
 30
0.000000
  0
VERTEX
  8
LAYER-1
  6
LTYPE01
 10
2.761782
 20
6.480000
 30
0.000000
  0
VERTEX
  8
LAYER-1
  6
LTYPE01
 10
2.134651
 20
6.543284
 30
0.000000
  0
SEQEND
  8
LAYER-1
  0
POLYLINE
  8
LAYER-1
  6
LTYPE01
 66
  1
 70
  0
 62
  0
  6
LTYPE01
 10
2.134651
 20
6.543284
 30
0.000000
  0
VERTEX
  8
LAYER-1
  6
LTYPE01
 10
2.134651
 20
6.543284
 30
0.000000
  0
VERTEX
  8
LAYER-1
  6
LTYPE01
 10
2.761782
 20
6.606566
 30
0.000000
  0
SEQEND
  8
LAYER-1
  0
POLYLINE
  8
LAYER-1
  6
LTYPE01
 66
  1
 70
  0
 62
  0
  6
LTYPE01
 10
2.761782
 20
6.606566
 30
0.000000
  0
VERTEX
  8
LAYER-1
  6
LTYPE01
 10
2.761782
 20
6.606566
 30
0.000000
  0
VERTEX
  8
LAYER-1
  6
LTYPE01
 10
2.134648
 20
6.669849
 30
0.000000
  0
SEQEND
  8
LAYER-1
  0
POLYLINE
  8
LAYER-1
  6
LTYPE01
 66
  1
 70
  0
 62
  0
  6
LTYPE01
 10
2.134648
 20
6.669849
 30
0.000000
  0
VERTEX
  8
LAYER-1
  6
LTYPE01
 10
2.134648
 20
6.669849
 30
0.000000
  0
VERTEX
  8
LAYER-1
  6
LTYPE01
 10
2.761779
 20
6.733132
 30
0.000000
  0
SEQEND
  8
LAYER-1
  0
POLYLINE
  8
LAYER-1
  6
LTYPE01
 66
  1
 70
  0
 62
  0
  6
LTYPE01
 10
2.761779
 20
6.733132
 30
0.000000
  0
VERTEX
  8
LAYER-1
  6
LTYPE01
 10
2.761779
 20
6.733132
 30
0.000000
  0
VERTEX
  8
LAYER-1
  6
LTYPE01
 10
2.134648
 20
6.796415
 30
0.000000
  0
SEQEND
  8
LAYER-1
  0
POLYLINE
  8
LAYER-1
  6
LTYPE01
 66
  1
 70
  0
 62
  0
  6
LTYPE01
 10
2.134648
 20
6.796415
 30
0.000000
  0
VERTEX
  8
LAYER-1
  6
LTYPE01
 10
2.134648
 20
6.796415
 30
0.000000
  0
VERTEX
  8
LAYER-1
  6
LTYPE01
 10
2.761779
 20
6.859698
 30
0.000000
  0
SEQEND
  8
LAYER-1
  0
POLYLINE
  8
LAYER-1
  6
LTYPE01
 66
  1
 70
  0
 62
  0
  6
LTYPE01
 10
2.761779
 20
6.859698
 30
0.000000
  0
VERTEX
  8
LAYER-1
  6
LTYPE01
 10
2.761779
 20
6.859698
 30
0.000000
  0
VERTEX
  8
LAYER-1
  6
LTYPE01
 10
2.134648
 20
6.922981
 30
0.000000
  0
SEQEND
  8
LAYER-1
  0
POLYLINE
  8
LAYER-1
  6
LTYPE01
 66
  1
 70
  0
 62
  0
  6
LTYPE01
 10
2.134648
 20
6.922981
 30
0.000000
  0
VERTEX
  8
LAYER-1
  6
LTYPE01
 10
2.134648
 20
6.922981
 30
0.000000
  0
VERTEX
  8
LAYER-1
  6
LTYPE01
 10
2.761779
 20
6.986265
 30
0.000000
  0
SEQEND
  8
LAYER-1
  0
POLYLINE
  8
LAYER-1
  6
LTYPE01
 66
  1
 70
  0
 62
  0
  6
LTYPE01
 10
2.761779
 20
6.986265
 30
0.000000
  0
VERTEX
  8
LAYER-1
  6
LTYPE01
 10
2.761779
 20
6.986265
 30
0.000000
  0
VERTEX
  8
LAYER-1
  6
LTYPE01
 10
2.134648
 20
7.049548
 30
0.000000
  0
SEQEND
  8
LAYER-1
  0
POLYLINE
  8
LAYER-1
  6
LTYPE01
 66
  1
 70
  0
 62
  0
  6
LTYPE01
 10
2.134648
 20
7.049548
 30
0.000000
  0
VERTEX
  8
LAYER-1
  6
LTYPE01
 10
2.134648
 20
7.049548
 30
0.000000
  0
VERTEX
  8
LAYER-1
  6
LTYPE01
 10
2.761779
 20
7.112831
 30
0.000000
  0
SEQEND
  8
LAYER-1
  0
POLYLINE
  8
LAYER-1
  6
LTYPE01
 66
  1
 70
  0
 62
  0
  6
LTYPE01
 10
2.761779
 20
7.112831
 30
0.000000
  0
VERTEX
  8
LAYER-1
  6
LTYPE01
 10
2.761779
 20
7.112831
 30
0.000000
  0
VERTEX
  8
LAYER-1
  6
LTYPE01
 10
2.134642
 20
7.176776
 30
0.000000
  0
SEQEND
  8
LAYER-1
  0
POLYLINE
  8
LAYER-1
  6
LTYPE01
 66
  1
 70
  0
 62
  0
  6
LTYPE01
 10
2.135056
 20
7.177473
 30
0.000000
  0
VERTEX
  8
LAYER-1
  6
LTYPE01
 10
2.135056
 20
7.177473
 30
0.000000
  0
VERTEX
  8
LAYER-1
  6
LTYPE01
 10
2.455884
 20
7.209974
 30
0.000000
  0
SEQEND
  8
LAYER-1
  0
POLYLINE
  8
LAYER-1
  6
LTYPE01
 66
  1
 70
  0
 62
  0
  6
LTYPE01
 10
2.456789
 20
6.448044
 30
0.000000
  0
VERTEX
  8
LAYER-1
  6
LTYPE01
 10
2.456789
 20
6.448044
 30
0.000000
  0
VERTEX
  8
LAYER-1
  6
LTYPE01
 10
2.763094
 20
6.479065
 30
0.000000
  0
SEQEND
  8
LAYER-1
  0
POLYLINE
  8
LAYER-1
 66
  1
 70
  0
 62
  0
 10
2.408827
 20
7.234294
 30
0.000000
  0
VERTEX
  8
LAYER-1
 10
2.408827
 20
7.234294
 30
0.000000
  0
VERTEX
  8
LAYER-1
 10
2.408827
 20
7.350015
 30
0.000000
  0
SEQEND
  8
LAYER-1
  0
POLYLINE
  8
LAYER-1
 66
  1
 70
  0
 62
  0
 10
2.431958
 20
7.373144
 30
0.000000
  0
VERTEX
  8
LAYER-1
 10
2.431958
 20
7.373144
 30
0.000000
  0
VERTEX
  8
LAYER-1
 10
2.478219
 20
7.373144
 30
0.000000
  0
SEQEND
  8
LAYER-1
  0
POLYLINE
  8
LAYER-1
 66
  1
 70
  0
 62
  0
 10
2.501350
 20
7.350015
 30
0.000000
  0
VERTEX
  8
LAYER-1
 10
2.501350
 20
7.350015
 30
0.000000
  0
VERTEX
  8
LAYER-1
 10
2.501350
 20
7.234294
 30
0.000000
  0
SEQEND
  8
LAYER-1
  0
POLYLINE
  8
LAYER-1
 66
  1
 70
  0
 62
  0
 10
2.478219
 20
7.211164
 30
0.000000
  0
VERTEX
  8
LAYER-1
 10
2.478219
 20
7.211164
 30
0.000000
  0
VERTEX
  8
LAYER-1
 10
2.431958
 20
7.211164
 30
0.000000
  0
SEQEND
  8
LAYER-1
  0
ARC
  8
LAYER-1
 62
  0
 10
2.431958
 20
7.234294
 30
0.000000
 40
0.023130
 50
180.000000
 51
270.000000
  0
ARC
  8
LAYER-1
 62
  0
 10
2.478219
 20
7.234294
 30
0.000000
 40
0.023130
 50
270.000000
 51
0.000000
  0
ARC
  8
LAYER-1
 62
  0
 10
2.478219
 20
7.350015
 30
0.000000
 40
0.023130
 50
0.000000
 51
90.000000
  0
ARC
  8
LAYER-1
 62
  0
 10
2.431958
 20
7.350015
 30
0.000000
 40
0.023130
 50
90.000000
 51
180.000000
  0
POLYLINE
  8
LAYER-1
 66
  1
 70
  0
 62
  0
 10
2.410463
 20
6.308595
 30
0.000000
  0
VERTEX
  8
LAYER-1
 10
2.410463
 20
6.308595
 30
0.000000
  0
VERTEX
  8
LAYER-1
 10
2.410463
 20
6.424318
 30
0.000000
  0
SEQEND
  8
LAYER-1
  0
POLYLINE
  8
LAYER-1
 66
  1
 70
  0
 62
  0
 10
2.433594
 20
6.447448
 30
0.000000
  0
VERTEX
  8
LAYER-1
 10
2.433594
 20
6.447448
 30
0.000000
  0
VERTEX
  8
LAYER-1
 10
2.479855
 20
6.447448
 30
0.000000
  0
SEQEND
  8
LAYER-1
  0
POLYLINE
  8
LAYER-1
 66
  1
 70
  0
 62
  0
 10
2.502986
 20
6.424318
 30
0.000000
  0
VERTEX
  8
LAYER-1
 10
2.502986
 20
6.424318
 30
0.000000
  0
VERTEX
  8
LAYER-1
 10
2.502986
 20
6.308595
 30
0.000000
  0
SEQEND
  8
LAYER-1
  0
POLYLINE
  8
LAYER-1
 66
  1
 70
  0
 62
  0
 10
2.479855
 20
6.285466
 30
0.000000
  0
VERTEX
  8
LAYER-1
 10
2.479855
 20
6.285466
 30
0.000000
  0
VERTEX
  8
LAYER-1
 10
2.433594
 20
6.285466
 30
0.000000
  0
SEQEND
  8
LAYER-1
  0
ARC
  8
LAYER-1
 62
  0
 10
2.433594
 20
6.308595
 30
0.000000
 40
0.023130
 50
180.000000
 51
270.000000
  0
ARC
  8
LAYER-1
 62
  0
 10
2.479855
 20
6.308595
 30
0.000000
 40
0.023130
 50
270.000000
 51
0.000000
  0
ARC
  8
LAYER-1
 62
  0
 10
2.479855
 20
6.424318
 30
0.000000
 40
0.023130
 50
0.000000
 51
90.000000
  0
ARC
  8
LAYER-1
 62
  0
 10
2.433594
 20
6.424318
 30
0.000000
 40
0.023130
 50
90.000000
 51
180.000000
  0
POLYLINE
  8
LAYER-1
  6
LTYPE01
 66
  1
 70
  0
 62
  0
  6
LTYPE01
 10
2.686402
 20
5.437626
 30
0.000000
  0
VERTEX
  8
LAYER-1
  6
LTYPE01
 10
2.686402
 20
5.437626
 30
0.000000
  0
VERTEX
  8
LAYER-1
  6
LTYPE01
 10
2.108496
 20
5.670689
 30
0.000000
  0
SEQEND
  8
LAYER-1
  0
POLYLINE
  8
LAYER-1
  6
LTYPE01
 66
  1
 70
  0
 62
  0
  6
LTYPE01
 10
2.727464
 20
5.600371
 30
0.000000
  0
VERTEX
  8
LAYER-1
  6
LTYPE01
 10
2.727464
 20
5.600371
 30
0.000000
  0
VERTEX
  8
LAYER-1
  6
LTYPE01
 10
2.128828
 20
5.773358
 30
0.000000
  0
SEQEND
  8
LAYER-1
  0
POLYLINE
  8
LAYER-1
  6
LTYPE01
 66
  1
 70
  0
 62
  0
  6
LTYPE01
 10
2.752339
 20
5.766574
 30
0.000000
  0
VERTEX
  8
LAYER-1
  6
LTYPE01
 10
2.752339
 20
5.766574
 30
0.000000
  0
VERTEX
  8
LAYER-1
  6
LTYPE01
 10
2.138715
 20
5.877500
 30
0.000000
  0
SEQEND
  8
LAYER-1
  0
POLYLINE
  8
LAYER-1
  6
LTYPE01
 66
  1
 70
  0
 62
  0
  6
LTYPE01
 10
2.138870
 20
5.877877
 30
0.000000
  0
VERTEX
  8
LAYER-1
  6
LTYPE01
 10
2.138870
 20
5.877877
 30
0.000000
  0
VERTEX
  8
LAYER-1
  6
LTYPE01
 10
2.757217
 20
5.934510
 30
0.000000
  0
SEQEND
  8
LAYER-1
  0
POLYLINE
  8
LAYER-1
  6
LTYPE01
 66
  1
 70
  0
 62
  0
  6
LTYPE01
 10
2.138262
 20
5.999117
 30
0.000000
  0
VERTEX
  8
LAYER-1
  6
LTYPE01
 10
2.138262
 20
5.999117
 30
0.000000
  0
VERTEX
  8
LAYER-1
  6
LTYPE01
 10
2.758169
 20
6.062399
 30
0.000000
  0
SEQEND
  8
LAYER-1
  0
POLYLINE
  8
LAYER-1
  6
LTYPE01
 66
  1
 70
  0
 62
  0
  6
LTYPE01
 10
2.758169
 20
6.062399
 30
0.000000
  0
VERTEX
  8
LAYER-1
  6
LTYPE01
 10
2.758169
 20
6.062399
 30
0.000000
  0
VERTEX
  8
LAYER-1
  6
LTYPE01
 10
2.138256
 20
6.126344
 30
0.000000
  0
SEQEND
  8
LAYER-1
  0
POLYLINE
  8
LAYER-1
  6
LTYPE01
 66
  1
 70
  0
 62
  0
  6
LTYPE01
 10
2.139118
 20
6.254468
 30
0.000000
  0
VERTEX
  8
LAYER-1
  6
LTYPE01
 10
2.139118
 20
6.254468
 30
0.000000
  0
VERTEX
  8
LAYER-1
  6
LTYPE01
 10
2.457693
 20
6.285160
 30
0.000000
  0
SEQEND
  8
LAYER-1
  0
POLYLINE
  8
LAYER-1
  6
LTYPE01
 66
  1
 70
  0
 62
  0
  6
LTYPE01
 10
2.390040
 20
5.502474
 30
0.000000
  0
VERTEX
  8
LAYER-1
  6
LTYPE01
 10
2.390040
 20
5.502474
 30
0.000000
  0
VERTEX
  8
LAYER-1
  6
LTYPE01
 10
2.686111
 20
5.437225
 30
0.000000
  0
SEQEND
  8
LAYER-1
  0
POLYLINE
  8
LAYER-1
  6
LTYPE01
 66
  1
 70
  1
 62
  0
  6
LTYPE01
 10
0.950095
 20
4.414113
 30
0.000000
  0
VERTEX
  8
LAYER-1
  6
LTYPE01
 10
0.950095
 20
4.414113
 30
0.000000
  0
VERTEX
  8
LAYER-1
  6
LTYPE01
 10
1.602364
 20
5.351809
 30
0.000000
  0
VERTEX
  8
LAYER-1
  6
LTYPE01
 10
1.679010
 20
5.298458
 30
0.000000
  0
VERTEX
  8
LAYER-1
  6
LTYPE01
 10
1.029991
 20
4.365436
 30
0.000000
  0
SEQEND
  8
LAYER-1
  0
TEXT
  8
LAYER-1
 62
  0
 10
0.909723
 20
6.263888
 30
0.000000
 40
0.197917
  1
P
 72
  5
 11
1.159723
 21
6.263888
 31
0.000000
  0
POLYLINE
  8
LAYER-1
 66
  1
 70
  1
 62
  0
 10
1.651453
 20
3.988009
 30
0.000000
  0
VERTEX
  8
LAYER-1
 10
1.651453
 20
3.988009
 30
0.000000
  0
VERTEX
  8
LAYER-1
 10
1.658030
 20
3.994587
 30
0.000000
  0
VERTEX
  8
LAYER-1
 10
1.658030
 20
4.127615
 30
0.000000
  0
VERTEX
  8
LAYER-1
 10
1.651453
 20
4.134193
 30
0.000000
  0
VERTEX
  8
LAYER-1
 10
1.651453
 20
4.156614
 30
0.000000
  0
VERTEX
  8
LAYER-1
 10
1.747115
 20
4.156614
 30
0.000000
  0
VERTEX
  8
LAYER-1
 10
1.747115
 20
4.134193
 30
0.000000
  0
VERTEX
  8
LAYER-1
 10
1.740538
 20
4.134193
 30
0.000000
  0
VERTEX
  8
LAYER-1
 10
1.740538
 20
4.150037
 30
0.000000
  0
VERTEX
  8
LAYER-1
 10
1.658030
 20
4.150037
 30
0.000000
  0
VERTEX
  8
LAYER-1
 10
1.658030
 20
4.137182
 30
0.000000
  0
VERTEX
  8
LAYER-1
 10
1.664905
 20
4.130307
 30
0.000000
  0
VERTEX
  8
LAYER-1
 10
1.664905
 20
3.992195
 30
0.000000
  0
VERTEX
  8
LAYER-1
 10
1.658030
 20
3.985319
 30
0.000000
  0
VERTEX
  8
LAYER-1
 10
1.658030
 20
3.971867
 30
0.000000
  0
VERTEX
  8
LAYER-1
 10
1.740538
 20
3.971867
 30
0.000000
  0
VERTEX
  8
LAYER-1
 10
1.740538
 20
3.988009
 30
0.000000
  0
VERTEX
  8
LAYER-1
 10
1.747115
 20
3.988009
 30
0.000000
  0
VERTEX
  8
LAYER-1
 10
1.747115
 20
3.965290
 30
0.000000
  0
VERTEX
  8
LAYER-1
 10
1.651453
 20
3.965290
 30
0.000000
  0
SEQEND
  8
LAYER-1
  0
POLYLINE
  8
LAYER-1
 66
  1
 70
  1
 62
  0
 10
3.076389
 20
4.133667
 30
0.000000
  0
VERTEX
  8
LAYER-1
 10
3.076389
 20
4.133667
 30
0.000000
  0
VERTEX
  8
LAYER-1
 10
3.069812
 20
4.127090
 30
0.000000
  0
VERTEX
  8
LAYER-1
 10
3.069812
 20
3.994061
 30
0.000000
  0
VERTEX
  8
LAYER-1
 10
3.076389
 20
3.987483
 30
0.000000
  0
VERTEX
  8
LAYER-1
 10
3.076389
 20
3.965063
 30
0.000000
  0
VERTEX
  8
LAYER-1
 10
2.980727
 20
3.965063
 30
0.000000
  0
VERTEX
  8
LAYER-1
 10
2.980727
 20
3.987483
 30
0.000000
  0
VERTEX
  8
LAYER-1
 10
2.987304
 20
3.987483
 30
0.000000
  0
VERTEX
  8
LAYER-1
 10
2.987304
 20
3.971639
 30
0.000000
  0
VERTEX
  8
LAYER-1
 10
3.069812
 20
3.971639
 30
0.000000
  0
VERTEX
  8
LAYER-1
 10
3.069813
 20
3.984494
 30
0.000000
  0
VERTEX
  8
LAYER-1
 10
3.062937
 20
3.991369
 30
0.000000
  0
VERTEX
  8
LAYER-1
 10
3.062937
 20
4.129482
 30
0.000000
  0
VERTEX
  8
LAYER-1
 10
3.069813
 20
4.136357
 30
0.000000
  0
VERTEX
  8
LAYER-1
 10
3.069812
 20
4.149810
 30
0.000000
  0
VERTEX
  8
LAYER-1
 10
2.987304
 20
4.149810
 30
0.000000
  0
VERTEX
  8
LAYER-1
 10
2.987304
 20
4.133667
 30
0.000000
  0
VERTEX
  8
LAYER-1
 10
2.980727
 20
4.133667
 30
0.000000
  0
VERTEX
  8
LAYER-1
 10
2.980727
 20
4.156386
 30
0.000000
  0
VERTEX
  8
LAYER-1
 10
3.076389
 20
4.156386
 30
0.000000
  0
SEQEND
  8
LAYER-1
  0
POLYLINE
  8
LAYER-1
 66
  1
 70
  1
 62
  0
 10
3.054441
 20
4.157452
 30
0.000000
  0
VERTEX
  8
LAYER-1
 10
3.054441
 20
4.157452
 30
0.000000
  0
VERTEX
  8
LAYER-1
 10
3.047864
 20
4.164029
 30
0.000000
  0
VERTEX
  8
LAYER-1
 10
2.914835
 20
4.164029
 30
0.000000
  0
VERTEX
  8
LAYER-1
 10
2.908257
 20
4.157452
 30
0.000000
  0
VERTEX
  8
LAYER-1
 10
2.885836
 20
4.157452
 30
0.000000
  0
VERTEX
  8
LAYER-1
 10
2.885836
 20
4.253114
 30
0.000000
  0
VERTEX
  8
LAYER-1
 10
2.908257
 20
4.253114
 30
0.000000
  0
VERTEX
  8
LAYER-1
 10
2.908257
 20
4.246537
 30
0.000000
  0
VERTEX
  8
LAYER-1
 10
2.892414
 20
4.246537
 30
0.000000
  0
VERTEX
  8
LAYER-1
 10
2.892414
 20
4.164029
 30
0.000000
  0
VERTEX
  8
LAYER-1
 10
2.905268
 20
4.164029
 30
0.000000
  0
VERTEX
  8
LAYER-1
 10
2.912144
 20
4.170904
 30
0.000000
  0
VERTEX
  8
LAYER-1
 10
3.050255
 20
4.170904
 30
0.000000
  0
VERTEX
  8
LAYER-1
 10
3.057131
 20
4.164029
 30
0.000000
  0
VERTEX
  8
LAYER-1
 10
3.070584
 20
4.164029
 30
0.000000
  0
VERTEX
  8
LAYER-1
 10
3.070584
 20
4.246537
 30
0.000000
  0
VERTEX
  8
LAYER-1
 10
3.054441
 20
4.246537
 30
0.000000
  0
VERTEX
  8
LAYER-1
 10
3.054441
 20
4.253114
 30
0.000000
  0
VERTEX
  8
LAYER-1
 10
3.077161
 20
4.253114
 30
0.000000
  0
VERTEX
  8
LAYER-1
 10
3.077161
 20
4.157452
 30
0.000000
  0
SEQEND
  8
LAYER-1
  0
POLYLINE
  8
LAYER-1
  6
LTYPE06
 66
  1
 70
  0
 62
  0
  6
LTYPE06
 10
1.123864
 20
4.588420
 30
0.000000
  0
VERTEX
  8
LAYER-1
  6
LTYPE06
 10
1.123864
 20
4.588420
 30
0.000000
  0
VERTEX
  8
LAYER-1
  6
LTYPE06
 10
0.763712
 20
4.588464
 30
0.000000
  0
SEQEND
  8
LAYER-1
  0
TEXT
  8
LAYER-1
 62
  0
 10
0.451390
 20
4.763888
 30
0.000000
 40
0.197917
  1
B
 72
  5
 11
0.701390
 21
4.763888
 31
0.000000
  0
TEXT
  8
LAYER-1
 62
  0
 10
1.895834
 20
4.472221
 30
0.000000
 40
0.125000
  1
4" - 102mm
 72
  5
 11
2.854167
 21
4.472221
 31
0.000000
  0
TEXT
  8
LAYER-1
 62
  0
 10
1.895834
 20
4.277777
 30
0.000000
 40
0.125000
  1
minimun
 72
  5
 11
2.645834
 21
4.277777
 31
0.000000
  0
POLYLINE
  8
LAYER-1
 66
  1
 70
  0
 62
  0
 10
2.457712
 20
4.841127
 30
0.000000
  0
VERTEX
  8
LAYER-1
 10
2.457712
 20
4.841127
 30
0.000000
  0
VERTEX
  8
LAYER-1
 10
2.457693
 20
5.410117
 30
0.000000
  0
SEQEND
  8
LAYER-1
  0
POLYLINE
  8
LAYER-1
 66
  1
 70
  0
 62
  0
 10
2.457692
 20
4.982292
 30
0.000000
  0
VERTEX
  8
LAYER-1
 10
2.457692
 20
4.982292
 30
0.000000
  0
VERTEX
  8
LAYER-1
 10
2.837753
 20
4.983002
 30
0.000000
  0
SEQEND
  8
LAYER-1
  0
LINE
  8
LAYER-1
 62
  0
 10
2.487100
 20
5.011809
 30
0.000000
 11
2.428285
 21
4.952774
 31
0.000000
  0
LINE
  8
LAYER-1
 62
  0
 10
2.867161
 20
5.012520
 30
0.000000
 11
2.808345
 21
4.953484
 31
0.000000
  0
POLYLINE
  8
LAYER-1
 66
  1
 70
  0
 62
  0
 10
0.802084
 20
4.204860
 30
0.000000
  0
VERTEX
  8
LAYER-1
 10
0.802084
 20
4.204860
 30
0.000000
  0
VERTEX
  8
LAYER-1
 10
1.181776
 20
4.205845
 30
0.000000
  0
SEQEND
  8
LAYER-1
  0
POLYLINE
  8
LAYER-1
 66
  1
 70
  0
 62
  0
 10
1.627346
 20
4.206949
 30
0.000000
  0
VERTEX
  8
LAYER-1
 10
1.627346
 20
4.206949
 30
0.000000
  0
VERTEX
  8
LAYER-1
 10
1.626636
 20
4.587010
 30
0.000000
  0
SEQEND
  8
LAYER-1
  0
LINE
  8
LAYER-1
 62
  0
 10
1.597828
 20
4.236356
 30
0.000000
 11
1.656864
 21
4.177541
 31
0.000000
  0
LINE
  8
LAYER-1
 62
  0
 10
1.597118
 20
4.616417
 30
0.000000
 11
1.656154
 21
4.557602
 31
0.000000
  0
ARC
  8
LAYER-1
 62
  0
  6
LTYPE06
 10
1.123864
 20
5.922293
 30
0.000000
 40
1.333873
 50
270.000000
 51
0.182533
  0
POLYLINE
  8
LAYER-1
 66
  1
 70
  0
 62
  0
 10
2.295634
 20
5.390030
 30
0.000000
  0
VERTEX
  8
LAYER-1
 10
2.295634
 20
5.390030
 30
0.000000
  0
VERTEX
  8
LAYER-1
 10
2.338097
 20
5.497677
 30
0.000000
  0
SEQEND
  8
LAYER-1
  0
POLYLINE
  8
LAYER-1
 66
  1
 70
  0
 62
  0
 10
2.368101
 20
5.510707
 30
0.000000
  0
VERTEX
  8
LAYER-1
 10
2.368101
 20
5.510707
 30
0.000000
  0
VERTEX
  8
LAYER-1
 10
2.411136
 20
5.493731
 30
0.000000
  0
SEQEND
  8
LAYER-1
  0
POLYLINE
  8
LAYER-1
 66
  1
 70
  0
 62
  0
 10
2.424165
 20
5.463727
 30
0.000000
  0
VERTEX
  8
LAYER-1
 10
2.424165
 20
5.463727
 30
0.000000
  0
VERTEX
  8
LAYER-1
 10
2.381703
 20
5.356080
 30
0.000000
  0
SEQEND
  8
LAYER-1
  0
POLYLINE
  8
LAYER-1
 66
  1
 70
  0
 62
  0
 10
2.351698
 20
5.343050
 30
0.000000
  0
VERTEX
  8
LAYER-1
 10
2.351698
 20
5.343050
 30
0.000000
  0
VERTEX
  8
LAYER-1
 10
2.308663
 20
5.360026
 30
0.000000
  0
SEQEND
  8
LAYER-1
  0
ARC
  8
LAYER-1
 62
  0
 10
2.317151
 20
5.381542
 30
0.000000
 40
0.023130
 50
158.472778
 51
248.472778
  0
ARC
  8
LAYER-1
 62
  0
 10
2.360186
 20
5.364567
 30
0.000000
 40
0.023130
 50
248.472778
 51
338.472778
  0
ARC
  8
LAYER-1
 62
  0
 10
2.402648
 20
5.472215
 30
0.000000
 40
0.023130
 50
338.472778
 51
68.472778
  0
ARC
  8
LAYER-1
 62
  0
 10
2.359614
 20
5.489190
 30
0.000000
 40
0.023130
 50
68.472778
 51
158.472778
  0
ARC
  8
LAYER-1
 62
  0
  6
LTYPE01
 10
1.602364
 20
5.351809
 30
0.000000
 40
1.142248
 50
235.177231
 51
270.028290
  0
POLYLINE
  8
LAYER-1
 66
  1
 70
  0
 62
  0
 10
2.635054
 20
4.646378
 30
0.000000
  0
VERTEX
  8
LAYER-1
 10
2.635054
 20
4.646378
 30
0.000000
  0
VERTEX
  8
LAYER-1
 10
2.635054
 20
4.963317
 30
0.000000
  0
SEQEND
  8
LAYER-1
  0
POLYLINE
  8
LAYER-1
 66
  1
 70
  1
 62
  0
  0
VERTEX
  8
LAYER-1
 10
2.635054
 20
4.983002
 30
0.000000
  0
VERTEX
  8
LAYER-1
 10
2.676721
 20
4.913558
 30
0.000000
  0
VERTEX
  8
LAYER-1
 10
2.635054
 20
4.913558
 30
0.000000
  0
VERTEX
  8
LAYER-1
 10
2.593387
 20
4.913558
 30
0.000000
  0
VERTEX
  8
LAYER-1
 10
2.635054
 20
4.983002
 30
0.000000
  0
SEQEND
  8
LAYER-1
  0
POLYLINE
  8
LAYER-1
 66
  1
 70
  0
 62
  0
 10
1.860456
 20
4.403863
 30
0.000000
  0
VERTEX
  8
LAYER-1
 10
1.860456
 20
4.403863
 30
0.000000
  0
VERTEX
  8
LAYER-1
 10
1.644866
 20
4.403863
 30
0.000000
  0
SEQEND
  8
LAYER-1
  0
POLYLINE
  8
LAYER-1
 66
  1
 70
  1
 62
  0
  0
VERTEX
  8
LAYER-1
 10
1.625181
 20
4.403863
 30
0.000000
  0
VERTEX
  8
LAYER-1
 10
1.694625
 20
4.445530
 30
0.000000
  0
VERTEX
  8
LAYER-1
 10
1.694625
 20
4.403863
 30
0.000000
  0
VERTEX
  8
LAYER-1
 10
1.694625
 20
4.362197
 30
0.000000
  0
VERTEX
  8
LAYER-1
 10
1.625181
 20
4.403863
 30
0.000000
  0
SEQEND
  8
LAYER-1
  0
POLYLINE
  8
LAYER-1
 66
  1
 70
  0
 62
  0
 10
2.026959
 20
4.657237
 30
0.000000
  0
VERTEX
  8
LAYER-1
 10
2.026959
 20
4.657237
 30
0.000000
  0
VERTEX
  8
LAYER-1
 10
2.026959
 20
5.227550
 30
0.000000
  0
SEQEND
  8
LAYER-1
  0
POLYLINE
  8
LAYER-1
 66
  1
 70
  1
 62
  0
  0
VERTEX
  8
LAYER-1
 10
2.026959
 20
5.247234
 30
0.000000
  0
VERTEX
  8
LAYER-1
 10
2.068625
 20
5.177790
 30
0.000000
  0
VERTEX
  8
LAYER-1
 10
2.026958
 20
5.177790
 30
0.000000
  0
VERTEX
  8
LAYER-1
 10
1.985292
 20
5.177790
 30
0.000000
  0
VERTEX
  8
LAYER-1
 10
2.026959
 20
5.247234
 30
0.000000
  0
SEQEND
  8
LAYER-1
  0
TEXT
  8
LAYER-1
 62
  0
 10
0.118056
 20
2.305555
 30
0.000000
 40
0.145833
  1
8" - 203mm 
 72
  5
 11
1.270834
 21
2.305555
 31
0.000000
  0
TEXT
  8
LAYER-1
 62
  0
 10
0.173612
 20
1.972221
 30
0.000000
 40
0.145833
  1
9" - 229mm
 72
  5
 11
1.270834
 21
1.972221
 31
0.000000
  0
TEXT
  8
LAYER-1
 62
  0
 10
0.034723
 20
1.638888
 30
0.000000
 40
0.145833
  1
10" - 254mm
 72
  5
 11
1.270834
 21
1.638888
 31
0.000000
  0
TEXT
  8
LAYER-1
 62
  0
 10
0.062501
 20
1.305555
 30
0.000000
 40
0.145833
  1
12" - 305mm
 72
  5
 11
1.270834
 21
1.305555
 31
0.000000
  0
TEXT
  8
LAYER-1
 62
  0
 10
2.576390
 20
2.305555
 30
0.000000
 40
0.145833
  1
14" - 356mm
 72
  5
 11
3.784723
 21
2.305555
 31
0.000000
  0
TEXT
  8
LAYER-1
 62
  0
 10
2.576390
 20
1.972221
 30
0.000000
 40
0.145833
  1
11" - 279mm
 72
  5
 11
3.784723
 21
1.972221
 31
0.000000
  0
TEXT
  8
LAYER-1
 62
  0
 10
2.576390
 20
1.638888
 30
0.000000
 40
0.145833
  1
10" - 254mm
 72
  5
 11
3.784723
 21
1.638888
 31
0.000000
  0
TEXT
  8
LAYER-1
 62
  0
 10
2.687501
 20
1.305555
 30
0.000000
 40
0.145833
  1
9" - 229mm
 72
  5
 11
3.784723
 21
1.305555
 31
0.000000
  0
TEXT
  8
LAYER-1
 62
  0
 10
4.423612
 20
3.152777
 30
0.000000
 40
0.187500
  1
P 
 72
  5
 11
4.729167
 21
3.152777
 31
0.000000
  0
TEXT
  8
LAYER-1
 62
  0
 10
4.729167
 20
3.152777
 30
0.000000
 40
0.145833
  1
(minimun stacking) =
 72
  5
 11
6.631945
 21
3.152777
 31
0.000000
  0
TEXT
  8
LAYER-1
 62
  0
 10
6.631945
 20
3.152777
 30
0.000000
 40
0.187500
  1
 
 72
  5
 11
6.770834
 21
3.152777
 31
0.000000
  0
TEXT
  8
LAYER-1
 62
  0
 10
4.423612
 20
2.611110
 30
0.000000
 40
0.145833
  1
1,15" per linear foot + 3" per post
 72
  5
 11
7.409723
 21
2.611110
 31
0.000000
  0
TEXT
  8
LAYER-1
 62
  0
 10
4.423612
 20
2.166666
 30
0.000000
 40
0.145833
  1
or
 72
  5
 11
4.673612
 21
2.166666
 31
0.000000
  0
TEXT
  8
LAYER-1
 62
  0
 10
2.923612
 20
3.208332
 30
0.000000
 40
0.125000
  1
Radius
 72
  5
 11
3.534723
 21
3.208332
 31
0.000000
  0
TEXT
  8
LAYER-1
 62
  0
 10
2.631945
 20
2.999999
 30
0.000000
 40
0.145833
  1
10" - 254mm
 72
  5
 11
3.840278
 21
2.999999
 31
0.000000
  0
TEXT
  8
LAYER-1
 62
  0
 10
1.368056
 20
2.305555
 30
0.000000
 40
0.145833
  1
18" - 457mm
 72
  5
 11
2.576390
 21
2.305555
 31
0.000000
  0
TEXT
  8
LAYER-1
 62
  0
 10
1.368056
 20
1.972221
 30
0.000000
 40
0.145833
  1
14" - 356mm
 72
  5
 11
2.576390
 21
1.972221
 31
0.000000
  0
TEXT
  8
LAYER-1
 62
  0
 10
1.354167
 20
1.638888
 30
0.000000
 40
0.145833
  1
12" - 305mm
 72
  5
 11
2.590278
 21
1.638888
 31
0.000000
  0
TEXT
  8
LAYER-1
 62
  0
 10
1.340278
 20
1.305555
 30
0.000000
 40
0.145833
  1
11" - 279mm 
 72
  5
 11
2.604167
 21
1.305555
 31
0.000000
  0
POLYLINE
  8
LAYER-1
 66
  1
 70
  0
 62
  0
 10
0.076389
 20
2.923604
 30
0.000000
  0
VERTEX
  8
LAYER-1
 10
0.076389
 20
2.923604
 30
0.000000
  0
VERTEX
  8
LAYER-1
 10
3.854173
 20
2.923604
 30
0.000000
  0
SEQEND
  8
LAYER-1
  0
POLYLINE
  8
LAYER-1
 66
  1
 70
  0
 62
  0
 10
3.854173
 20
2.562493
 30
0.000000
  0
VERTEX
  8
LAYER-1
 10
3.854173
 20
2.562493
 30
0.000000
  0
VERTEX
  8
LAYER-1
 10
0.076389
 20
2.562493
 30
0.000000
  0
SEQEND
  8
LAYER-1
  0
TEXT
  8
LAYER-1
 62
  0
 10
1.659723
 20
3.208332
 30
0.000000
 40
0.125000
  1
Radius
 72
  5
 11
2.312501
 21
3.208332
 31
0.000000
  0
TEXT
  8
LAYER-1
 62
  0
 10
1.368056
 20
2.999999
 30
0.000000
 40
0.145833
  1
14" - 356mm
 72
  5
 11
2.604167
 21
2.999999
 31
0.000000
  0
POLYLINE
  8
LAYER-1
 66
  1
 70
  0
 62
  0
 10
1.361111
 20
3.437493
 30
0.000000
  0
VERTEX
  8
LAYER-1
 10
1.361111
 20
3.437493
 30
0.000000
  0
VERTEX
  8
LAYER-1
 10
1.361111
 20
1.180549
 30
0.000000
  0
SEQEND
  8
LAYER-1
  0
POLYLINE
  8
LAYER-1
 66
  1
 70
  0
 62
  0
 10
2.611111
 20
3.437493
 30
0.000000
  0
VERTEX
  8
LAYER-1
 10
2.611111
 20
3.437493
 30
0.000000
  0
VERTEX
  8
LAYER-1
 10
2.611111
 20
1.180549
 30
0.000000
  0
SEQEND
  8
LAYER-1
  0
TEXT
  8
LAYER-1
 62
  0
 10
1.840278
 20
2.666666
 30
0.000000
 40
0.187500
  1
B
 72
  5
 11
2.076390
 21
2.666666
 31
0.000000
  0
TEXT
  8
LAYER-1
 62
  0
 10
3.104167
 20
2.666666
 30
0.000000
 40
0.187500
  1
B
 72
  5
 11
3.340278
 21
2.666666
 31
0.000000
  0
TEXT
  8
LAYER-1
 62
  0
 10
0.604167
 20
2.666666
 30
0.000000
 40
0.187500
  1
A
 72
  5
 11
0.840278
 21
2.666666
 31
0.000000
  0
TEXT
  8
LAYER-1
 62
  0
 10
0.090278
 20
0.861110
 30
0.000000
 40
0.125000
  1
A:
 72
  5
 11
0.312501
 21
0.861110
 31
0.000000
  0
TEXT
  8
LAYER-1
 62
  0
 10
0.312501
 20
0.861110
 30
0.000000
 40
0.125000
  1
 Interior pocket width, width 10" - 254mm 
 72
  5
 11
3.493056
 21
0.861110
 31
0.000000
  0
TEXT
  8
LAYER-1
 62
  0
 10
0.090278
 20
0.666666
 30
0.000000
 40
0.125000
  1
     is recommended with a standard 
 72
  5
 11
2.923612
 21
0.666666
 31
0.000000
  0
TEXT
  8
LAYER-1
 62
  0
 10
0.090278
 20
0.472221
 30
0.000000
 40
0.125000
  1
    14" - 356mm radius and B at 12" - 305mm
 72
  5
 11
3.534723
 21
0.472221
 31
0.000000
  0
TEXT
  8
LAYER-1
 62
  0
 10
0.090278
 20
0.083332
 30
0.000000
 40
0.125000
  1
B:
 72
  5
 11
0.312501
 21
0.083332
 31
0.000000
  0
TEXT
  8
LAYER-1
 62
  0
 10
0.312501
 20
0.083332
 30
0.000000
 40
0.125000
  1
 Pocket entrance width
 72
  5
 11
2.090278
 21
0.083332
 31
0.000000
  0
TEXT
  8
LAYER-1
 62
  0
 10
4.215278
 20
0.847221
 30
0.000000
 40
0.125000
  1
4" - 102mm min clearance both sides of track.
 72
  5
 11
7.770834
 21
0.847221
 31
0.000000
  0
TEXT
  8
LAYER-1
 62
  0
 10
4.215278
 20
0.652777
 30
0.000000
 40
0.125000
  1
If a pocket door is used, the door must
 72
  5
 11
7.187501
 21
0.652777
 31
0.000000
  0
TEXT
  8
LAYER-1
 62
  0
 10
4.215278
 20
0.458332
 30
0.000000
 40
0.125000
  1
not obstruct the entry dimension given.
 72
  5
 11
7.201390
 21
0.458332
 31
0.000000
  0
POLYLINE
  8
LAYER-1
 66
  1
 70
  0
 62
  0
 10
7.562507
 20
1.180546
 30
0.000000
  0
VERTEX
  8
LAYER-1
 10
7.562507
 20
1.180546
 30
0.000000
  0
VERTEX
  8
LAYER-1
 10
4.222226
 20
1.180546
 30
0.000000
  0
SEQEND
  8
LAYER-1
  0
POLYLINE
  8
LAYER-1
  6
LTYPE01
 66
  1
 70
  0
 62
  0
  6
LTYPE01
 10
2.108008
 20
5.671110
 30
0.000000
  0
VERTEX
  8
LAYER-1
  6
LTYPE01
 10
2.108008
 20
5.671110
 30
0.000000
  0
VERTEX
  8
LAYER-1
  6
LTYPE01
 10
2.727549
 20
5.599601
 30
0.000000
  0
SEQEND
  8
LAYER-1
  0
POLYLINE
  8
LAYER-1
  6
LTYPE01
 66
  1
 70
  0
 62
  0
  6
LTYPE01
 10
2.128983
 20
5.774085
 30
0.000000
  0
VERTEX
  8
LAYER-1
  6
LTYPE01
 10
2.128983
 20
5.774085
 30
0.000000
  0
VERTEX
  8
LAYER-1
  6
LTYPE01
 10
2.752065
 20
5.766391
 30
0.000000
  0
SEQEND
  8
LAYER-1
  0
POLYLINE
  8
LAYER-1
  6
LTYPE01
 66
  1
 70
  0
 62
  0
  6
LTYPE01
 10
2.758122
 20
5.934962
 30
0.000000
  0
VERTEX
  8
LAYER-1
  6
LTYPE01
 10
2.758122
 20
5.934962
 30
0.000000
  0
VERTEX
  8
LAYER-1
  6
LTYPE01
 10
2.138209
 20
5.998908
 30
0.000000
  0
SEQEND
  8
LAYER-1
  0
POLYLINE
  8
LAYER-1
  6
LTYPE01
 66
  1
 70
  0
 62
  0
  6
LTYPE01
 10
2.138262
 20
6.126504
 30
0.000000
  0
VERTEX
  8
LAYER-1
  6
LTYPE01
 10
2.138262
 20
6.126504
 30
0.000000
  0
VERTEX
  8
LAYER-1
  6
LTYPE01
 10
2.758169
 20
6.189787
 30
0.000000
  0
SEQEND
  8
LAYER-1
  0
POLYLINE
  8
LAYER-1
  6
LTYPE01
 66
  1
 70
  0
 62
  0
  6
LTYPE01
 10
2.758169
 20
6.189787
 30
0.000000
  0
VERTEX
  8
LAYER-1
  6
LTYPE01
 10
2.758169
 20
6.189787
 30
0.000000
  0
VERTEX
  8
LAYER-1
  6
LTYPE01
 10
2.138256
 20
6.253732
 30
0.000000
  0
SEQEND
  8
LAYER-1
  0
TEXT
  8
LAYER-1
 62
  0
 10
4.423612
 20
1.777777
 30
0.000000
 40
0.145833
  1
95mm per linear meter
 72
  5
 11
6.506945
 21
1.777777
 31
0.000000
  0
TEXT
  8
LAYER-1
 62
  0
 10
4.423612
 20
1.555555
 30
0.000000
 40
0.145833
  1
+
 72
  5
 11
4.604167
 21
1.555555
 31
0.000000
  0
TEXT
  8
LAYER-1
 62
  0
 10
4.423612
 20
1.333332
 30
0.000000
 40
0.145833
  1
76mm per post
 72
  5
 11
5.826390
 21
1.333332
 31
0.000000
  0
POLYLINE
  8
LAYER-1
 66
  1
 70
  0
 62
  0
 10
6.578264
 20
7.001911
 30
0.000000
  0
VERTEX
  8
LAYER-1
 10
6.578264
 20
7.001911
 30
0.000000
  0
VERTEX
  8
LAYER-1
 10
6.578264
 20
4.978182
 30
0.000000
  0
SEQEND
  8
LAYER-1
  0
LINE
  8
LAYER-1
 62
  0
 10
6.607727
 20
6.972448
 30
0.000000
 11
6.548801
 21
7.031373
 31
0.000000
  0
LINE
  8
LAYER-1
 62
  0
 10
6.607727
 20
4.948719
 30
0.000000
 11
6.548801
 21
5.007645
 31
0.000000
  0
POLYLINE
  8
LAYER-1
 66
  1
 70
  0
 62
  0
 10
6.429858
 20
7.001911
 30
0.000000
  0
VERTEX
  8
LAYER-1
 10
6.429858
 20
7.001911
 30
0.000000
  0
VERTEX
  8
LAYER-1
 10
6.640922
 20
7.001911
 30
0.000000
  0
SEQEND
  8
LAYER-1
  0
POLYLINE
  8
LAYER-1
 66
  1
 70
  0
 62
  0
 10
6.438223
 20
4.978182
 30
0.000000
  0
VERTEX
  8
LAYER-1
 10
6.438223
 20
4.978182
 30
0.000000
  0
VERTEX
  8
LAYER-1
 10
6.640922
 20
4.978182
 30
0.000000
  0
SEQEND
  8
LAYER-1
  0
POLYLINE
  8
LAYER-1
 66
  1
 70
  1
 62
  0
 10
5.061804
 20
4.944417
 30
0.000000
  0
VERTEX
  8
LAYER-1
 10
5.061804
 20
4.944417
 30
0.000000
  0
VERTEX
  8
LAYER-1
 10
5.014813
 20
4.944417
 30
0.000000
  0
VERTEX
  8
LAYER-1
 10
5.014732
 20
7.290612
 30
0.000000
  0
VERTEX
  8
LAYER-1
 10
6.355875
 20
7.290612
 30
0.000000
  0
VERTEX
  8
LAYER-1
 10
6.355603
 20
4.944319
 30
0.000000
  0
VERTEX
  8
LAYER-1
 10
6.306520
 20
4.944336
 30
0.000000
  0
VERTEX
  8
LAYER-1
 10
6.306520
 20
7.243123
 30
0.000000
  0
VERTEX
  8
LAYER-1
 10
5.061804
 20
7.243123
 30
0.000000
  0
SEQEND
  8
LAYER-1
  0
TEXT
  8
LAYER-1
 62
  0
 10
4.937501
 20
7.388888
 30
0.000000
 40
0.093750
  1
min.    8" (203mm)
 72
  5
 11
6.048612
 21
7.388888
 31
0.000000
  0
POLYLINE
  8
LAYER-1
 66
  1
 70
  1
 62
  0
  0
VERTEX
  8
LAYER-1
 10
1.602363
 20
5.400335
 30
0.000000
  0
VERTEX
  8
LAYER-1
 10
1.891855
 20
5.400335
 30
0.000000
  0
VERTEX
  8
LAYER-1
 10
1.891855
 20
5.351809
 30
0.000000
  0
VERTEX
  8
LAYER-1
 10
1.602363
 20
5.351809
 30
0.000000
  0
SEQEND
  8
LAYER-1
  0
POLYLINE
  8
LAYER-1
 66
  1
 70
  0
 62
  0
 10
2.194961
 20
5.127330
 30
0.000000
  0
VERTEX
  8
LAYER-1
 10
2.194961
 20
5.127330
 30
0.000000
  0
VERTEX
  8
LAYER-1
 10
1.891855
 20
5.352294
 30
0.000000
  0
SEQEND
  8
LAYER-1
  0
LINE
  8
LAYER-1
 62
  0
 10
2.153743
 20
5.121231
 30
0.000000
 11
2.236179
 21
5.133429
 31
0.000000
  0
LINE
  8
LAYER-1
 62
  0
 10
1.850637
 20
5.346194
 30
0.000000
 11
1.933073
 21
5.358393
 31
0.000000
  0
POLYLINE
  8
LAYER-1
 66
  1
 70
  0
 62
  0
 10
1.493064
 20
5.351784
 30
0.000000
  0
VERTEX
  8
LAYER-1
 10
1.493064
 20
5.351784
 30
0.000000
  0
VERTEX
  8
LAYER-1
 10
1.250000
 20
5.351784
 30
0.000000
  0
SEQEND
  8
LAYER-1
  0
ENDSEC
  0
EOF
