  0
SECTION
  2
HEADER
999
MacDraft 5.0\0
  9
$ACADVER
  1
AC1006
  9
$CLAYER
  8
LAYER-1
  9
$EXTMIN
 10
0.000000
 20
0.000000
  9
$EXTMAX
 10
6.191796
 20
9.922878
  9
$FASTZOOM
 70
0
  9
$FILLMODE
 70
1
  0
ENDSEC
  0
SECTION
  2
TABLES
  0
TABLE
  2
LTYPE
 70
16
  0
LTYPE
  2
CONTINUOUS
 70
64
  3
Solid Line
 72
65
 73
0
 40
0.000000
  0
LTYPE
  2
LTYPE01
 70
64
  3
CUSTOM
 72
65
 73
2
 40
0.111111
 49
0.083333
 49
-0.027778
  0
LTYPE
  2
LTYPE02
 70
64
  3
CUSTOM
 72
65
 73
2
 40
0.194444
 49
0.166667
 49
-0.027778
  0
LTYPE
  2
LTYPE03
 70
64
  3
CUSTOM
 72
65
 73
2
 40
0.375000
 49
0.333333
 49
-0.041667
  0
LTYPE
  2
LTYPE04
 70
64
  3
CUSTOM
 72
65
 73
2
 40
0.722222
 49
0.666667
 49
-0.055556
  0
LTYPE
  2
LTYPE05
 70
64
  3
CUSTOM
 72
65
 73
4
 40
0.152778
 49
0.083333
 49
-0.027778
 49
0.013889
 49
-0.027778
  0
LTYPE
  2
LTYPE06
 70
64
  3
CUSTOM
 72
65
 73
4
 40
0.236111
 49
0.166667
 49
-0.027778
 49
0.013889
 49
-0.027778
  0
LTYPE
  2
LTYPE07
 70
64
  3
CUSTOM
 72
65
 73
4
 40
0.444444
 49
0.333333
 49
-0.041667
 49
0.027778
 49
-0.041667
  0
LTYPE
  2
LTYPE08
 70
64
  3
CUSTOM
 72
65
 73
4
 40
0.805556
 49
0.666667
 49
-0.055556
 49
0.027778
 49
-0.055556
  0
LTYPE
  2
LTYPE09
 70
64
  3
CUSTOM
 72
65
 73
6
 40
0.194444
 49
0.083333
 49
-0.027778
 49
0.013889
 49
-0.027778
 49
0.013889
 49
-0.027778
  0
LTYPE
  2
LTYPE10
 70
64
  3
CUSTOM
 72
65
 73
6
 40
0.277778
 49
0.166667
 49
-0.027778
 49
0.013889
 49
-0.027778
 49
0.013889
 49
-0.027778
  0
LTYPE
  2
LTYPE11
 70
64
  3
CUSTOM
 72
65
 73
6
 40
0.500000
 49
0.333333
 49
-0.041667
 49
0.027778
 49
-0.027778
 49
0.027778
 49
-0.041667
  0
LTYPE
  2
LTYPE12
 70
64
  3
CUSTOM
 72
65
 73
6
 40
0.861111
 49
0.666667
 49
-0.055556
 49
0.027778
 49
-0.027778
 49
0.027778
 49
-0.055556
  0
LTYPE
  2
LTYPE13
 70
64
  3
CUSTOM
 72
65
 73
8
 40
0.319444
 49
0.166667
 49
-0.027778
 49
0.013889
 49
-0.027778
 49
0.013889
 49
-0.027778
 49
0.013889
 49
-0.027778
  0
LTYPE
  2
LTYPE14
 70
64
  3
CUSTOM
 72
65
 73
8
 40
0.555556
 49
0.333333
 49
-0.041667
 49
0.027778
 49
-0.027778
 49
0.027778
 49
-0.027778
 49
0.027778
 49
-0.041667
  0
LTYPE
  2
LTYPE15
 70
64
  3
CUSTOM
 72
65
 73
8
 40
0.944444
 49
0.666667
 49
-0.055556
 49
0.027778
 49
-0.041667
 49
0.027778
 49
-0.041667
 49
0.027778
 49
-0.055556
  0
ENDTAB
  0
TABLE
  2
LAYER
 70
1
  0
LAYER
  2
LAYER-1
 70
0
 62
7
  6
CONTINUOUS
  0
ENDTAB
  0
ENDSEC
  0
SECTION
  2
BLOCKS
  0
ENDSEC
  0
SECTION
  2
ENTITIES
  0
POLYLINE
  8
LAYER-1
 66
  1
 70
  1
 62
  0
  0
VERTEX
  8
LAYER-1
 10
0.183098
 20
4.630402
 30
0.000000
  0
VERTEX
  8
LAYER-1
 10
1.648376
 20
4.630402
 30
0.000000
  0
VERTEX
  8
LAYER-1
 10
1.648376
 20
3.737172
 30
0.000000
  0
VERTEX
  8
LAYER-1
 10
0.183098
 20
3.737172
 30
0.000000
  0
SEQEND
  8
LAYER-1
  0
POLYLINE
  8
LAYER-1
 66
  1
 70
  1
 62
  0
  0
VERTEX
  8
LAYER-1
 10
0.231709
 20
4.581791
 30
0.000000
  0
VERTEX
  8
LAYER-1
 10
1.599764
 20
4.581791
 30
0.000000
  0
VERTEX
  8
LAYER-1
 10
1.599764
 20
3.783179
 30
0.000000
  0
VERTEX
  8
LAYER-1
 10
0.231709
 20
3.783179
 30
0.000000
  0
SEQEND
  8
LAYER-1
  0
LINE
  8
LAYER-1
 62
  0
 10
4.009456
 20
3.950535
 30
0.000000
 11
3.441673
 21
3.950535
 31
0.000000
  0
LINE
  8
LAYER-1
 62
  0
 10
4.009456
 20
4.040535
 30
0.000000
 11
3.441673
 21
4.040535
 31
0.000000
  0
LINE
  8
LAYER-1
 62
  0
 10
2.527041
 20
4.039619
 30
0.000000
 11
3.094840
 21
4.039619
 31
0.000000
  0
LINE
  8
LAYER-1
 62
  0
 10
2.527041
 20
3.949618
 30
0.000000
 11
3.094840
 21
3.949618
 31
0.000000
  0
TEXT
  8
LAYER-1
 62
  0
 10
3.544209
 20
2.692903
 30
0.000000
 40
0.104167
  1
4"
 72
  5
 11
3.752542
 21
2.692903
 31
0.000000
  0
TEXT
  8
LAYER-1
 62
  0
 10
3.377542
 20
2.470681
 30
0.000000
 40
0.104167
  1
102mm
 72
  5
 11
3.919209
 21
2.470681
 31
0.000000
  0
ARC
  8
LAYER-1
 62
  0
 10
4.974989
 20
8.856098
 30
0.000000
 40
0.254425
 50
270.000000
 51
90.000000
  0
POLYLINE
  8
LAYER-1
 66
  1
 70
  0
 62
  0
 10
4.974989
 20
9.110524
 30
0.000000
  0
VERTEX
  8
LAYER-1
 10
4.974989
 20
9.110524
 30
0.000000
  0
VERTEX
  8
LAYER-1
 10
1.310066
 20
9.110524
 30
0.000000
  0
SEQEND
  8
LAYER-1
  0
POLYLINE
  8
LAYER-1
 66
  1
 70
  0
 62
  0
 10
1.310066
 20
9.110524
 30
0.000000
  0
VERTEX
  8
LAYER-1
 10
1.310066
 20
9.110524
 30
0.000000
  0
VERTEX
  8
LAYER-1
 10
1.310066
 20
8.601674
 30
0.000000
  0
SEQEND
  8
LAYER-1
  0
POLYLINE
  8
LAYER-1
 66
  1
 70
  0
 62
  0
 10
4.974989
 20
8.601674
 30
0.000000
  0
VERTEX
  8
LAYER-1
 10
4.974989
 20
8.601674
 30
0.000000
  0
VERTEX
  8
LAYER-1
 10
1.310066
 20
8.601674
 30
0.000000
  0
SEQEND
  8
LAYER-1
  0
TEXT
  8
LAYER-1
 62
  0
 10
3.113653
 20
9.401237
 30
0.000000
 40
0.333333
  1
MobilFlex
 72
  5
 11
5.266431
 21
9.401237
 31
0.000000
  0
POLYLINE
  8
LAYER-1
 66
  1
 70
  1
 62
  0
  0
VERTEX
  8
LAYER-1
 10
1.311570
 20
9.921211
 30
0.000000
  0
VERTEX
  8
LAYER-1
 10
1.549417
 20
9.921211
 30
0.000000
  0
VERTEX
  8
LAYER-1
 10
1.549417
 20
9.404266
 30
0.000000
  0
VERTEX
  8
LAYER-1
 10
1.311570
 20
9.404266
 30
0.000000
  0
SEQEND
  8
LAYER-1
  0
POLYLINE
  8
LAYER-1
 66
  1
 70
  1
 62
  0
  0
VERTEX
  8
LAYER-1
 10
1.624069
 20
9.921211
 30
0.000000
  0
VERTEX
  8
LAYER-1
 10
1.861917
 20
9.921211
 30
0.000000
  0
VERTEX
  8
LAYER-1
 10
1.861917
 20
9.404266
 30
0.000000
  0
VERTEX
  8
LAYER-1
 10
1.624069
 20
9.404266
 30
0.000000
  0
SEQEND
  8
LAYER-1
  0
POLYLINE
  8
LAYER-1
 66
  1
 70
  1
 62
  0
  0
VERTEX
  8
LAYER-1
 10
1.924417
 20
9.921211
 30
0.000000
  0
VERTEX
  8
LAYER-1
 10
2.162264
 20
9.921211
 30
0.000000
  0
VERTEX
  8
LAYER-1
 10
2.162264
 20
9.404266
 30
0.000000
  0
VERTEX
  8
LAYER-1
 10
1.924417
 20
9.404266
 30
0.000000
  0
SEQEND
  8
LAYER-1
  0
POLYLINE
  8
LAYER-1
 66
  1
 70
  1
 62
  0
  0
VERTEX
  8
LAYER-1
 10
2.228236
 20
9.921211
 30
0.000000
  0
VERTEX
  8
LAYER-1
 10
2.466084
 20
9.921211
 30
0.000000
  0
VERTEX
  8
LAYER-1
 10
2.466084
 20
9.404266
 30
0.000000
  0
VERTEX
  8
LAYER-1
 10
2.228236
 20
9.404266
 30
0.000000
  0
SEQEND
  8
LAYER-1
  0
POLYLINE
  8
LAYER-1
 66
  1
 70
  1
 62
  0
  0
VERTEX
  8
LAYER-1
 10
2.545077
 20
9.917296
 30
0.000000
  0
VERTEX
  8
LAYER-1
 10
2.920511
 20
9.917296
 30
0.000000
  0
VERTEX
  8
LAYER-1
 10
2.920511
 20
9.779275
 30
0.000000
  0
VERTEX
  8
LAYER-1
 10
2.545077
 20
9.779275
 30
0.000000
  0
SEQEND
  8
LAYER-1
  0
POLYLINE
  8
LAYER-1
 66
  1
 70
  1
 62
  0
  0
VERTEX
  8
LAYER-1
 10
2.544643
 20
9.689865
 30
0.000000
  0
VERTEX
  8
LAYER-1
 10
2.852803
 20
9.689865
 30
0.000000
  0
VERTEX
  8
LAYER-1
 10
2.852803
 20
9.555751
 30
0.000000
  0
VERTEX
  8
LAYER-1
 10
2.544643
 20
9.555751
 30
0.000000
  0
SEQEND
  8
LAYER-1
  0
POLYLINE
  8
LAYER-1
 66
  1
 70
  1
 62
  0
  0
VERTEX
  8
LAYER-1
 10
1.311570
 20
9.319639
 30
0.000000
  0
VERTEX
  8
LAYER-1
 10
5.229974
 20
9.319639
 30
0.000000
  0
VERTEX
  8
LAYER-1
 10
5.229974
 20
9.276237
 30
0.000000
  0
VERTEX
  8
LAYER-1
 10
1.311570
 20
9.276237
 30
0.000000
  0
SEQEND
  8
LAYER-1
  0
POLYLINE
  8
LAYER-1
 66
  1
 70
  1
 62
  0
  0
VERTEX
  8
LAYER-1
 10
2.630416
 20
4.454861
 30
0.000000
  0
VERTEX
  8
LAYER-1
 10
3.906013
 20
4.454861
 30
0.000000
  0
VERTEX
  8
LAYER-1
 10
3.906013
 20
4.289508
 30
0.000000
  0
VERTEX
  8
LAYER-1
 10
2.630416
 20
4.289508
 30
0.000000
  0
SEQEND
  8
LAYER-1
  0
POLYLINE
  8
LAYER-1
 66
  1
 70
  1
 62
  0
  0
VERTEX
  8
LAYER-1
 10
2.630416
 20
4.629765
 30
0.000000
  0
VERTEX
  8
LAYER-1
 10
3.906013
 20
4.629765
 30
0.000000
  0
VERTEX
  8
LAYER-1
 10
3.906013
 20
4.464411
 30
0.000000
  0
VERTEX
  8
LAYER-1
 10
2.630416
 20
4.464411
 30
0.000000
  0
SEQEND
  8
LAYER-1
  0
POLYLINE
  8
LAYER-1
 66
  1
 70
  1
 62
  0
  0
VERTEX
  8
LAYER-1
 10
2.630514
 20
4.569915
 30
0.000000
  0
VERTEX
  8
LAYER-1
 10
3.905696
 20
4.569915
 30
0.000000
  0
VERTEX
  8
LAYER-1
 10
3.905696
 20
4.516095
 30
0.000000
  0
VERTEX
  8
LAYER-1
 10
2.630514
 20
4.516095
 30
0.000000
  0
SEQEND
  8
LAYER-1
  0
POLYLINE
  8
LAYER-1
 66
  1
 70
  0
 62
  0
 10
2.630514
 20
4.599429
 30
0.000000
  0
VERTEX
  8
LAYER-1
 10
2.630514
 20
4.599429
 30
0.000000
  0
VERTEX
  8
LAYER-1
 10
3.903961
 20
4.599429
 30
0.000000
  0
SEQEND
  8
LAYER-1
  0
POLYLINE
  8
LAYER-1
 66
  1
 70
  0
 62
  0
 10
2.630514
 20
4.486582
 30
0.000000
  0
VERTEX
  8
LAYER-1
 10
2.630514
 20
4.486582
 30
0.000000
  0
VERTEX
  8
LAYER-1
 10
3.905696
 20
4.486582
 30
0.000000
  0
SEQEND
  8
LAYER-1
  0
POLYLINE
  8
LAYER-1
 66
  1
 70
  1
 62
  0
  0
VERTEX
  8
LAYER-1
 10
2.630514
 20
4.398909
 30
0.000000
  0
VERTEX
  8
LAYER-1
 10
3.905696
 20
4.398909
 30
0.000000
  0
VERTEX
  8
LAYER-1
 10
3.905696
 20
4.345089
 30
0.000000
  0
VERTEX
  8
LAYER-1
 10
2.630514
 20
4.345089
 30
0.000000
  0
SEQEND
  8
LAYER-1
  0
POLYLINE
  8
LAYER-1
 66
  1
 70
  0
 62
  0
 10
2.630514
 20
4.428422
 30
0.000000
  0
VERTEX
  8
LAYER-1
 10
2.630514
 20
4.428422
 30
0.000000
  0
VERTEX
  8
LAYER-1
 10
3.903961
 20
4.428422
 30
0.000000
  0
SEQEND
  8
LAYER-1
  0
POLYLINE
  8
LAYER-1
 66
  1
 70
  0
 62
  0
 10
2.630514
 20
4.315575
 30
0.000000
  0
VERTEX
  8
LAYER-1
 10
2.630514
 20
4.315575
 30
0.000000
  0
VERTEX
  8
LAYER-1
 10
3.905696
 20
4.315575
 30
0.000000
  0
SEQEND
  8
LAYER-1
  0
POLYLINE
  8
LAYER-1
 66
  1
 70
  0
 62
  0
 10
3.367545
 20
3.925645
 30
0.000000
  0
VERTEX
  8
LAYER-1
 10
3.367545
 20
3.925645
 30
0.000000
  0
VERTEX
  8
LAYER-1
 10
3.368895
 20
3.945216
 30
0.000000
  0
VERTEX
  8
LAYER-1
 10
3.369192
 20
3.948290
 30
0.000000
  0
SEQEND
  8
LAYER-1
  0
POLYLINE
  8
LAYER-1
 66
  1
 70
  0
 62
  0
 10
3.405879
 20
3.948287
 30
0.000000
  0
VERTEX
  8
LAYER-1
 10
3.405879
 20
3.948287
 30
0.000000
  0
VERTEX
  8
LAYER-1
 10
3.369193
 20
3.948289
 30
0.000000
  0
SEQEND
  8
LAYER-1
  0
POLYLINE
  8
LAYER-1
 66
  1
 70
  0
 62
  0
 10
3.405879
 20
3.948287
 30
0.000000
  0
VERTEX
  8
LAYER-1
 10
3.405879
 20
3.948287
 30
0.000000
  0
VERTEX
  8
LAYER-1
 10
3.413508
 20
3.955916
 30
0.000000
  0
SEQEND
  8
LAYER-1
  0
POLYLINE
  8
LAYER-1
 66
  1
 70
  0
 62
  0
 10
3.413508
 20
4.281061
 30
0.000000
  0
VERTEX
  8
LAYER-1
 10
3.413508
 20
4.281061
 30
0.000000
  0
VERTEX
  8
LAYER-1
 10
3.413508
 20
3.955916
 30
0.000000
  0
SEQEND
  8
LAYER-1
  0
POLYLINE
  8
LAYER-1
 66
  1
 70
  0
 62
  0
 10
3.413508
 20
4.281061
 30
0.000000
  0
VERTEX
  8
LAYER-1
 10
3.413508
 20
4.281061
 30
0.000000
  0
VERTEX
  8
LAYER-1
 10
3.405879
 20
4.288689
 30
0.000000
  0
SEQEND
  8
LAYER-1
  0
POLYLINE
  8
LAYER-1
 66
  1
 70
  0
 62
  0
 10
3.404273
 20
4.288689
 30
0.000000
  0
VERTEX
  8
LAYER-1
 10
3.404273
 20
4.288689
 30
0.000000
  0
VERTEX
  8
LAYER-1
 10
3.405879
 20
4.288689
 30
0.000000
  0
SEQEND
  8
LAYER-1
  0
POLYLINE
  8
LAYER-1
 66
  1
 70
  0
 62
  0
 10
3.404273
 20
4.288689
 30
0.000000
  0
VERTEX
  8
LAYER-1
 10
3.404273
 20
4.288689
 30
0.000000
  0
VERTEX
  8
LAYER-1
 10
3.396645
 20
4.281061
 30
0.000000
  0
SEQEND
  8
LAYER-1
  0
POLYLINE
  8
LAYER-1
 66
  1
 70
  0
 62
  0
 10
3.396645
 20
4.279600
 30
0.000000
  0
VERTEX
  8
LAYER-1
 10
3.396645
 20
4.279600
 30
0.000000
  0
VERTEX
  8
LAYER-1
 10
3.396645
 20
4.281061
 30
0.000000
  0
SEQEND
  8
LAYER-1
  0
POLYLINE
  8
LAYER-1
 66
  1
 70
  0
 62
  0
 10
3.389017
 20
4.271972
 30
0.000000
  0
VERTEX
  8
LAYER-1
 10
3.389017
 20
4.271972
 30
0.000000
  0
VERTEX
  8
LAYER-1
 10
3.396645
 20
4.279600
 30
0.000000
  0
SEQEND
  8
LAYER-1
  0
POLYLINE
  8
LAYER-1
 66
  1
 70
  0
 62
  0
 10
3.369019
 20
4.271973
 30
0.000000
  0
VERTEX
  8
LAYER-1
 10
3.369019
 20
4.271973
 30
0.000000
  0
VERTEX
  8
LAYER-1
 10
3.389017
 20
4.271973
 30
0.000000
  0
SEQEND
  8
LAYER-1
  0
POLYLINE
  8
LAYER-1
 66
  1
 70
  0
 62
  0
 10
3.361390
 20
4.279600
 30
0.000000
  0
VERTEX
  8
LAYER-1
 10
3.361390
 20
4.279600
 30
0.000000
  0
VERTEX
  8
LAYER-1
 10
3.369019
 20
4.271972
 30
0.000000
  0
SEQEND
  8
LAYER-1
  0
POLYLINE
  8
LAYER-1
 66
  1
 70
  0
 62
  0
 10
3.361391
 20
4.281061
 30
0.000000
  0
VERTEX
  8
LAYER-1
 10
3.361391
 20
4.281061
 30
0.000000
  0
VERTEX
  8
LAYER-1
 10
3.361391
 20
4.279600
 30
0.000000
  0
SEQEND
  8
LAYER-1
  0
POLYLINE
  8
LAYER-1
 66
  1
 70
  0
 62
  0
 10
3.361390
 20
4.281061
 30
0.000000
  0
VERTEX
  8
LAYER-1
 10
3.361390
 20
4.281061
 30
0.000000
  0
VERTEX
  8
LAYER-1
 10
3.353762
 20
4.288689
 30
0.000000
  0
SEQEND
  8
LAYER-1
  0
POLYLINE
  8
LAYER-1
 66
  1
 70
  0
 62
  0
 10
3.185074
 20
4.288689
 30
0.000000
  0
VERTEX
  8
LAYER-1
 10
3.185074
 20
4.288689
 30
0.000000
  0
VERTEX
  8
LAYER-1
 10
3.353762
 20
4.288689
 30
0.000000
  0
SEQEND
  8
LAYER-1
  0
POLYLINE
  8
LAYER-1
 66
  1
 70
  0
 62
  0
 10
3.185074
 20
4.288689
 30
0.000000
  0
VERTEX
  8
LAYER-1
 10
3.185074
 20
4.288689
 30
0.000000
  0
VERTEX
  8
LAYER-1
 10
3.177445
 20
4.281061
 30
0.000000
  0
SEQEND
  8
LAYER-1
  0
POLYLINE
  8
LAYER-1
 66
  1
 70
  0
 62
  0
 10
3.177445
 20
4.279600
 30
0.000000
  0
VERTEX
  8
LAYER-1
 10
3.177445
 20
4.279600
 30
0.000000
  0
VERTEX
  8
LAYER-1
 10
3.177445
 20
4.281061
 30
0.000000
  0
SEQEND
  8
LAYER-1
  0
POLYLINE
  8
LAYER-1
 66
  1
 70
  0
 62
  0
 10
3.169817
 20
4.271972
 30
0.000000
  0
VERTEX
  8
LAYER-1
 10
3.169817
 20
4.271972
 30
0.000000
  0
VERTEX
  8
LAYER-1
 10
3.177445
 20
4.279600
 30
0.000000
  0
SEQEND
  8
LAYER-1
  0
POLYLINE
  8
LAYER-1
 66
  1
 70
  0
 62
  0
 10
3.149816
 20
4.271973
 30
0.000000
  0
VERTEX
  8
LAYER-1
 10
3.149816
 20
4.271973
 30
0.000000
  0
VERTEX
  8
LAYER-1
 10
3.169817
 20
4.271973
 30
0.000000
  0
SEQEND
  8
LAYER-1
  0
POLYLINE
  8
LAYER-1
 66
  1
 70
  0
 62
  0
 10
3.142188
 20
4.279600
 30
0.000000
  0
VERTEX
  8
LAYER-1
 10
3.142188
 20
4.279600
 30
0.000000
  0
VERTEX
  8
LAYER-1
 10
3.149816
 20
4.271972
 30
0.000000
  0
SEQEND
  8
LAYER-1
  0
POLYLINE
  8
LAYER-1
 66
  1
 70
  0
 62
  0
 10
3.142188
 20
4.281061
 30
0.000000
  0
VERTEX
  8
LAYER-1
 10
3.142188
 20
4.281061
 30
0.000000
  0
VERTEX
  8
LAYER-1
 10
3.142188
 20
4.279600
 30
0.000000
  0
SEQEND
  8
LAYER-1
  0
POLYLINE
  8
LAYER-1
 66
  1
 70
  0
 62
  0
 10
3.142189
 20
4.281061
 30
0.000000
  0
VERTEX
  8
LAYER-1
 10
3.142189
 20
4.281061
 30
0.000000
  0
VERTEX
  8
LAYER-1
 10
3.134560
 20
4.288689
 30
0.000000
  0
SEQEND
  8
LAYER-1
  0
POLYLINE
  8
LAYER-1
 66
  1
 70
  0
 62
  0
 10
3.134488
 20
4.288689
 30
0.000000
  0
VERTEX
  8
LAYER-1
 10
3.134488
 20
4.288689
 30
0.000000
  0
VERTEX
  8
LAYER-1
 10
3.134560
 20
4.288689
 30
0.000000
  0
SEQEND
  8
LAYER-1
  0
POLYLINE
  8
LAYER-1
 66
  1
 70
  0
 62
  0
 10
3.134488
 20
4.288689
 30
0.000000
  0
VERTEX
  8
LAYER-1
 10
3.134488
 20
4.288689
 30
0.000000
  0
VERTEX
  8
LAYER-1
 10
3.126859
 20
4.281061
 30
0.000000
  0
SEQEND
  8
LAYER-1
  0
POLYLINE
  8
LAYER-1
 66
  1
 70
  0
 62
  0
 10
3.126859
 20
4.281061
 30
0.000000
  0
VERTEX
  8
LAYER-1
 10
3.126859
 20
4.281061
 30
0.000000
  0
VERTEX
  8
LAYER-1
 10
3.126859
 20
3.955916
 30
0.000000
  0
SEQEND
  8
LAYER-1
  0
POLYLINE
  8
LAYER-1
 66
  1
 70
  0
 62
  0
 10
3.126859
 20
3.955916
 30
0.000000
  0
VERTEX
  8
LAYER-1
 10
3.126859
 20
3.955916
 30
0.000000
  0
VERTEX
  8
LAYER-1
 10
3.134488
 20
3.948287
 30
0.000000
  0
SEQEND
  8
LAYER-1
  0
POLYLINE
  8
LAYER-1
 66
  1
 70
  0
 62
  0
 10
3.134488
 20
3.948287
 30
0.000000
  0
VERTEX
  8
LAYER-1
 10
3.134488
 20
3.948287
 30
0.000000
  0
VERTEX
  8
LAYER-1
 10
3.171154
 20
3.948289
 30
0.000000
  0
SEQEND
  8
LAYER-1
  0
POLYLINE
  8
LAYER-1
 66
  1
 70
  0
 62
  0
 10
3.171154
 20
3.948290
 30
0.000000
  0
VERTEX
  8
LAYER-1
 10
3.171154
 20
3.948290
 30
0.000000
  0
VERTEX
  8
LAYER-1
 10
3.168449
 20
3.932360
 30
0.000000
  0
VERTEX
  8
LAYER-1
 10
3.172801
 20
3.925645
 30
0.000000
  0
SEQEND
  8
LAYER-1
  0
POLYLINE
  8
LAYER-1
 66
  1
 70
  0
 62
  0
 10
3.172800
 20
3.925644
 30
0.000000
  0
VERTEX
  8
LAYER-1
 10
3.172800
 20
3.925644
 30
0.000000
  0
VERTEX
  8
LAYER-1
 10
3.183662
 20
3.932746
 30
0.000000
  0
SEQEND
  8
LAYER-1
  0
POLYLINE
  8
LAYER-1
 66
  1
 70
  0
 62
  0
 10
3.201141
 20
3.932780
 30
0.000000
  0
VERTEX
  8
LAYER-1
 10
3.201141
 20
3.932780
 30
0.000000
  0
VERTEX
  8
LAYER-1
 10
3.196093
 20
3.949170
 30
0.000000
  0
VERTEX
  8
LAYER-1
 10
3.181672
 20
3.946091
 30
0.000000
  0
VERTEX
  8
LAYER-1
 10
3.183662
 20
3.932746
 30
0.000000
  0
SEQEND
  8
LAYER-1
  0
POLYLINE
  8
LAYER-1
 66
  1
 70
  0
 62
  0
 10
3.201141
 20
3.932780
 30
0.000000
  0
VERTEX
  8
LAYER-1
 10
3.201141
 20
3.932780
 30
0.000000
  0
VERTEX
  8
LAYER-1
 10
3.212095
 20
3.925663
 30
0.000000
  0
SEQEND
  8
LAYER-1
  0
POLYLINE
  8
LAYER-1
 66
  1
 70
  0
 62
  0
 10
3.212095
 20
3.925663
 30
0.000000
  0
VERTEX
  8
LAYER-1
 10
3.212095
 20
3.925663
 30
0.000000
  0
VERTEX
  8
LAYER-1
 10
3.213398
 20
3.945310
 30
0.000000
  0
VERTEX
  8
LAYER-1
 10
3.213722
 20
3.948290
 30
0.000000
  0
SEQEND
  8
LAYER-1
  0
POLYLINE
  8
LAYER-1
 66
  1
 70
  0
 62
  0
 10
3.220366
 20
3.948287
 30
0.000000
  0
VERTEX
  8
LAYER-1
 10
3.220366
 20
3.948287
 30
0.000000
  0
VERTEX
  8
LAYER-1
 10
3.213722
 20
3.948289
 30
0.000000
  0
SEQEND
  8
LAYER-1
  0
POLYLINE
  8
LAYER-1
 66
  1
 70
  0
 62
  0
 10
3.220366
 20
3.974121
 30
0.000000
  0
VERTEX
  8
LAYER-1
 10
3.220366
 20
3.974121
 30
0.000000
  0
VERTEX
  8
LAYER-1
 10
3.220366
 20
3.948287
 30
0.000000
  0
SEQEND
  8
LAYER-1
  0
POLYLINE
  8
LAYER-1
 66
  1
 70
  0
 62
  0
 10
3.150620
 20
3.996156
 30
0.000000
  0
VERTEX
  8
LAYER-1
 10
3.150620
 20
3.996156
 30
0.000000
  0
VERTEX
  8
LAYER-1
 10
3.220366
 20
3.974121
 30
0.000000
  0
SEQEND
  8
LAYER-1
  0
POLYLINE
  8
LAYER-1
 66
  1
 70
  0
 62
  0
 10
3.150620
 20
3.996156
 30
0.000000
  0
VERTEX
  8
LAYER-1
 10
3.150620
 20
3.996156
 30
0.000000
  0
VERTEX
  8
LAYER-1
 10
3.150620
 20
4.022617
 30
0.000000
  0
SEQEND
  8
LAYER-1
  0
POLYLINE
  8
LAYER-1
 66
  1
 70
  0
 62
  0
 10
3.150620
 20
4.022617
 30
0.000000
  0
VERTEX
  8
LAYER-1
 10
3.150620
 20
4.022617
 30
0.000000
  0
VERTEX
  8
LAYER-1
 10
3.143676
 20
4.030214
 30
0.000000
  0
SEQEND
  8
LAYER-1
  0
POLYLINE
  8
LAYER-1
 66
  1
 70
  0
 62
  0
 10
3.142188
 20
4.030348
 30
0.000000
  0
VERTEX
  8
LAYER-1
 10
3.142188
 20
4.030348
 30
0.000000
  0
VERTEX
  8
LAYER-1
 10
3.143676
 20
4.030215
 30
0.000000
  0
SEQEND
  8
LAYER-1
  0
POLYLINE
  8
LAYER-1
 66
  1
 70
  0
 62
  0
 10
3.142188
 20
4.030348
 30
0.000000
  0
VERTEX
  8
LAYER-1
 10
3.142188
 20
4.030348
 30
0.000000
  0
VERTEX
  8
LAYER-1
 10
3.142188
 20
4.247629
 30
0.000000
  0
SEQEND
  8
LAYER-1
  0
POLYLINE
  8
LAYER-1
 66
  1
 70
  0
 62
  0
 10
3.149816
 20
4.255257
 30
0.000000
  0
VERTEX
  8
LAYER-1
 10
3.149816
 20
4.255257
 30
0.000000
  0
VERTEX
  8
LAYER-1
 10
3.142188
 20
4.247629
 30
0.000000
  0
SEQEND
  8
LAYER-1
  0
POLYLINE
  8
LAYER-1
 66
  1
 70
  0
 62
  0
 10
3.149816
 20
4.255257
 30
0.000000
  0
VERTEX
  8
LAYER-1
 10
3.149816
 20
4.255257
 30
0.000000
  0
VERTEX
  8
LAYER-1
 10
3.169817
 20
4.255257
 30
0.000000
  0
SEQEND
  8
LAYER-1
  0
POLYLINE
  8
LAYER-1
 66
  1
 70
  0
 62
  0
 10
3.177445
 20
4.247629
 30
0.000000
  0
VERTEX
  8
LAYER-1
 10
3.177445
 20
4.247629
 30
0.000000
  0
VERTEX
  8
LAYER-1
 10
3.169817
 20
4.255257
 30
0.000000
  0
SEQEND
  8
LAYER-1
  0
POLYLINE
  8
LAYER-1
 66
  1
 70
  0
 62
  0
 10
3.177445
 20
4.247629
 30
0.000000
  0
VERTEX
  8
LAYER-1
 10
3.177445
 20
4.247629
 30
0.000000
  0
VERTEX
  8
LAYER-1
 10
3.177445
 20
4.246169
 30
0.000000
  0
SEQEND
  8
LAYER-1
  0
POLYLINE
  8
LAYER-1
 66
  1
 70
  0
 62
  0
 10
3.177445
 20
4.246169
 30
0.000000
  0
VERTEX
  8
LAYER-1
 10
3.177445
 20
4.246169
 30
0.000000
  0
VERTEX
  8
LAYER-1
 10
3.185074
 20
4.238540
 30
0.000000
  0
SEQEND
  8
LAYER-1
  0
POLYLINE
  8
LAYER-1
 66
  1
 70
  0
 62
  0
 10
3.185074
 20
4.238540
 30
0.000000
  0
VERTEX
  8
LAYER-1
 10
3.185074
 20
4.238540
 30
0.000000
  0
VERTEX
  8
LAYER-1
 10
3.199144
 20
4.238540
 30
0.000000
  0
SEQEND
  8
LAYER-1
  0
POLYLINE
  8
LAYER-1
 66
  1
 70
  0
 62
  0
 10
3.199144
 20
4.238540
 30
0.000000
  0
VERTEX
  8
LAYER-1
 10
3.199144
 20
4.238540
 30
0.000000
  0
VERTEX
  8
LAYER-1
 10
3.203503
 20
4.242899
 30
0.000000
  0
SEQEND
  8
LAYER-1
  0
POLYLINE
  8
LAYER-1
 66
  1
 70
  0
 62
  0
 10
3.203503
 20
4.246339
 30
0.000000
  0
VERTEX
  8
LAYER-1
 10
3.203503
 20
4.246339
 30
0.000000
  0
VERTEX
  8
LAYER-1
 10
3.203503
 20
4.242899
 30
0.000000
  0
SEQEND
  8
LAYER-1
  0
POLYLINE
  8
LAYER-1
 66
  1
 70
  0
 62
  0
 10
3.203503
 20
4.246339
 30
0.000000
  0
VERTEX
  8
LAYER-1
 10
3.203503
 20
4.246339
 30
0.000000
  0
VERTEX
  8
LAYER-1
 10
3.199144
 20
4.250698
 30
0.000000
  0
SEQEND
  8
LAYER-1
  0
POLYLINE
  8
LAYER-1
 66
  1
 70
  0
 62
  0
 10
3.198666
 20
4.250698
 30
0.000000
  0
VERTEX
  8
LAYER-1
 10
3.198666
 20
4.250698
 30
0.000000
  0
VERTEX
  8
LAYER-1
 10
3.199144
 20
4.250698
 30
0.000000
  0
SEQEND
  8
LAYER-1
  0
POLYLINE
  8
LAYER-1
 66
  1
 70
  0
 62
  0
 10
3.194307
 20
4.255057
 30
0.000000
  0
VERTEX
  8
LAYER-1
 10
3.194307
 20
4.255057
 30
0.000000
  0
VERTEX
  8
LAYER-1
 10
3.198666
 20
4.250698
 30
0.000000
  0
SEQEND
  8
LAYER-1
  0
POLYLINE
  8
LAYER-1
 66
  1
 70
  0
 62
  0
 10
3.194306
 20
4.264345
 30
0.000000
  0
VERTEX
  8
LAYER-1
 10
3.194306
 20
4.264345
 30
0.000000
  0
VERTEX
  8
LAYER-1
 10
3.194306
 20
4.255057
 30
0.000000
  0
SEQEND
  8
LAYER-1
  0
POLYLINE
  8
LAYER-1
 66
  1
 70
  0
 62
  0
 10
3.201935
 20
4.271973
 30
0.000000
  0
VERTEX
  8
LAYER-1
 10
3.201935
 20
4.271973
 30
0.000000
  0
VERTEX
  8
LAYER-1
 10
3.194307
 20
4.264345
 30
0.000000
  0
SEQEND
  8
LAYER-1
  0
POLYLINE
  8
LAYER-1
 66
  1
 70
  0
 62
  0
 10
3.201935
 20
4.271973
 30
0.000000
  0
VERTEX
  8
LAYER-1
 10
3.201935
 20
4.271973
 30
0.000000
  0
VERTEX
  8
LAYER-1
 10
3.336901
 20
4.271973
 30
0.000000
  0
SEQEND
  8
LAYER-1
  0
POLYLINE
  8
LAYER-1
 66
  1
 70
  0
 62
  0
 10
3.344529
 20
4.264345
 30
0.000000
  0
VERTEX
  8
LAYER-1
 10
3.344529
 20
4.264345
 30
0.000000
  0
VERTEX
  8
LAYER-1
 10
3.336901
 20
4.271973
 30
0.000000
  0
SEQEND
  8
LAYER-1
  0
POLYLINE
  8
LAYER-1
 66
  1
 70
  0
 62
  0
 10
3.344529
 20
4.264345
 30
0.000000
  0
VERTEX
  8
LAYER-1
 10
3.344529
 20
4.264345
 30
0.000000
  0
VERTEX
  8
LAYER-1
 10
3.344529
 20
4.255057
 30
0.000000
  0
SEQEND
  8
LAYER-1
  0
POLYLINE
  8
LAYER-1
 66
  1
 70
  0
 62
  0
 10
3.340170
 20
4.250698
 30
0.000000
  0
VERTEX
  8
LAYER-1
 10
3.340170
 20
4.250698
 30
0.000000
  0
VERTEX
  8
LAYER-1
 10
3.344529
 20
4.255057
 30
0.000000
  0
SEQEND
  8
LAYER-1
  0
POLYLINE
  8
LAYER-1
 66
  1
 70
  0
 62
  0
 10
3.340170
 20
4.250698
 30
0.000000
  0
VERTEX
  8
LAYER-1
 10
3.340170
 20
4.250698
 30
0.000000
  0
VERTEX
  8
LAYER-1
 10
3.339690
 20
4.250698
 30
0.000000
  0
SEQEND
  8
LAYER-1
  0
POLYLINE
  8
LAYER-1
 66
  1
 70
  0
 62
  0
 10
3.339690
 20
4.250698
 30
0.000000
  0
VERTEX
  8
LAYER-1
 10
3.339690
 20
4.250698
 30
0.000000
  0
VERTEX
  8
LAYER-1
 10
3.335331
 20
4.246339
 30
0.000000
  0
SEQEND
  8
LAYER-1
  0
POLYLINE
  8
LAYER-1
 66
  1
 70
  0
 62
  0
 10
3.335331
 20
4.246339
 30
0.000000
  0
VERTEX
  8
LAYER-1
 10
3.335331
 20
4.246339
 30
0.000000
  0
VERTEX
  8
LAYER-1
 10
3.335331
 20
4.242899
 30
0.000000
  0
SEQEND
  8
LAYER-1
  0
POLYLINE
  8
LAYER-1
 66
  1
 70
  0
 62
  0
 10
3.335331
 20
4.242899
 30
0.000000
  0
VERTEX
  8
LAYER-1
 10
3.335331
 20
4.242899
 30
0.000000
  0
VERTEX
  8
LAYER-1
 10
3.339690
 20
4.238540
 30
0.000000
  0
SEQEND
  8
LAYER-1
  0
POLYLINE
  8
LAYER-1
 66
  1
 70
  0
 62
  0
 10
3.353762
 20
4.238540
 30
0.000000
  0
VERTEX
  8
LAYER-1
 10
3.353762
 20
4.238540
 30
0.000000
  0
VERTEX
  8
LAYER-1
 10
3.339690
 20
4.238540
 30
0.000000
  0
SEQEND
  8
LAYER-1
  0
POLYLINE
  8
LAYER-1
 66
  1
 70
  0
 62
  0
 10
3.353762
 20
4.238540
 30
0.000000
  0
VERTEX
  8
LAYER-1
 10
3.353762
 20
4.238540
 30
0.000000
  0
VERTEX
  8
LAYER-1
 10
3.361390
 20
4.246169
 30
0.000000
  0
SEQEND
  8
LAYER-1
  0
POLYLINE
  8
LAYER-1
 66
  1
 70
  0
 62
  0
 10
3.361391
 20
4.247629
 30
0.000000
  0
VERTEX
  8
LAYER-1
 10
3.361391
 20
4.247629
 30
0.000000
  0
VERTEX
  8
LAYER-1
 10
3.361391
 20
4.246169
 30
0.000000
  0
SEQEND
  8
LAYER-1
  0
POLYLINE
  8
LAYER-1
 66
  1
 70
  0
 62
  0
 10
3.369019
 20
4.255257
 30
0.000000
  0
VERTEX
  8
LAYER-1
 10
3.369019
 20
4.255257
 30
0.000000
  0
VERTEX
  8
LAYER-1
 10
3.361390
 20
4.247629
 30
0.000000
  0
SEQEND
  8
LAYER-1
  0
POLYLINE
  8
LAYER-1
 66
  1
 70
  0
 62
  0
 10
3.369019
 20
4.255257
 30
0.000000
  0
VERTEX
  8
LAYER-1
 10
3.369019
 20
4.255257
 30
0.000000
  0
VERTEX
  8
LAYER-1
 10
3.389017
 20
4.255257
 30
0.000000
  0
SEQEND
  8
LAYER-1
  0
POLYLINE
  8
LAYER-1
 66
  1
 70
  0
 62
  0
 10
3.396645
 20
4.247629
 30
0.000000
  0
VERTEX
  8
LAYER-1
 10
3.396645
 20
4.247629
 30
0.000000
  0
VERTEX
  8
LAYER-1
 10
3.389017
 20
4.255257
 30
0.000000
  0
SEQEND
  8
LAYER-1
  0
POLYLINE
  8
LAYER-1
 66
  1
 70
  0
 62
  0
 10
3.396645
 20
4.030348
 30
0.000000
  0
VERTEX
  8
LAYER-1
 10
3.396645
 20
4.030348
 30
0.000000
  0
VERTEX
  8
LAYER-1
 10
3.396645
 20
4.247629
 30
0.000000
  0
SEQEND
  8
LAYER-1
  0
POLYLINE
  8
LAYER-1
 66
  1
 70
  0
 62
  0
 10
3.396645
 20
4.030348
 30
0.000000
  0
VERTEX
  8
LAYER-1
 10
3.396645
 20
4.030348
 30
0.000000
  0
VERTEX
  8
LAYER-1
 10
3.394450
 20
4.030167
 30
0.000000
  0
SEQEND
  8
LAYER-1
  0
POLYLINE
  8
LAYER-1
 66
  1
 70
  0
 62
  0
 10
3.394449
 20
4.030167
 30
0.000000
  0
VERTEX
  8
LAYER-1
 10
3.394449
 20
4.030167
 30
0.000000
  0
VERTEX
  8
LAYER-1
 10
3.387449
 20
4.022565
 30
0.000000
  0
SEQEND
  8
LAYER-1
  0
POLYLINE
  8
LAYER-1
 66
  1
 70
  0
 62
  0
 10
3.387449
 20
3.996156
 30
0.000000
  0
VERTEX
  8
LAYER-1
 10
3.387449
 20
3.996156
 30
0.000000
  0
VERTEX
  8
LAYER-1
 10
3.387449
 20
4.022565
 30
0.000000
  0
SEQEND
  8
LAYER-1
  0
POLYLINE
  8
LAYER-1
 66
  1
 70
  0
 62
  0
 10
3.320002
 20
3.974121
 30
0.000000
  0
VERTEX
  8
LAYER-1
 10
3.320002
 20
3.974121
 30
0.000000
  0
VERTEX
  8
LAYER-1
 10
3.387449
 20
3.996156
 30
0.000000
  0
SEQEND
  8
LAYER-1
  0
POLYLINE
  8
LAYER-1
 66
  1
 70
  0
 62
  0
 10
3.320002
 20
3.974121
 30
0.000000
  0
VERTEX
  8
LAYER-1
 10
3.320002
 20
3.974121
 30
0.000000
  0
VERTEX
  8
LAYER-1
 10
3.320002
 20
3.948287
 30
0.000000
  0
SEQEND
  8
LAYER-1
  0
POLYLINE
  8
LAYER-1
 66
  1
 70
  0
 62
  0
 10
3.326624
 20
3.948289
 30
0.000000
  0
VERTEX
  8
LAYER-1
 10
3.326624
 20
3.948289
 30
0.000000
  0
VERTEX
  8
LAYER-1
 10
3.320002
 20
3.948287
 30
0.000000
  0
SEQEND
  8
LAYER-1
  0
POLYLINE
  8
LAYER-1
 66
  1
 70
  0
 62
  0
 10
3.326624
 20
3.948290
 30
0.000000
  0
VERTEX
  8
LAYER-1
 10
3.326624
 20
3.948290
 30
0.000000
  0
VERTEX
  8
LAYER-1
 10
3.323947
 20
3.932293
 30
0.000000
  0
VERTEX
  8
LAYER-1
 10
3.328251
 20
3.925663
 30
0.000000
  0
SEQEND
  8
LAYER-1
  0
POLYLINE
  8
LAYER-1
 66
  1
 70
  0
 62
  0
 10
3.328252
 20
3.925663
 30
0.000000
  0
VERTEX
  8
LAYER-1
 10
3.328252
 20
3.925663
 30
0.000000
  0
VERTEX
  8
LAYER-1
 10
3.339205
 20
3.932780
 30
0.000000
  0
SEQEND
  8
LAYER-1
  0
POLYLINE
  8
LAYER-1
 66
  1
 70
  0
 62
  0
 10
3.356684
 20
3.932746
 30
0.000000
  0
VERTEX
  8
LAYER-1
 10
3.356684
 20
3.932746
 30
0.000000
  0
VERTEX
  8
LAYER-1
 10
3.351692
 20
3.949148
 30
0.000000
  0
VERTEX
  8
LAYER-1
 10
3.337258
 20
3.946125
 30
0.000000
  0
VERTEX
  8
LAYER-1
 10
3.339205
 20
3.932780
 30
0.000000
  0
SEQEND
  8
LAYER-1
  0
POLYLINE
  8
LAYER-1
 66
  1
 70
  0
 62
  0
 10
3.356685
 20
3.932746
 30
0.000000
  0
VERTEX
  8
LAYER-1
 10
3.356685
 20
3.932746
 30
0.000000
  0
VERTEX
  8
LAYER-1
 10
3.367546
 20
3.925644
 30
0.000000
  0
SEQEND
  8
LAYER-1
  0
POLYLINE
  8
LAYER-1
 66
  1
 70
  0
 62
  7
 10
3.225205
 20
4.004579
 30
0.000000
  0
VERTEX
  8
LAYER-1
 10
3.225205
 20
4.004579
 30
0.000000
  0
VERTEX
  8
LAYER-1
 10
3.214007
 20
4.031380
 30
0.000000
  0
VERTEX
  8
LAYER-1
 10
3.186974
 20
4.042481
 30
0.000000
  0
VERTEX
  8
LAYER-1
 10
3.159940
 20
4.031380
 30
0.000000
  0
VERTEX
  8
LAYER-1
 10
3.148742
 20
4.004579
 30
0.000000
  0
VERTEX
  8
LAYER-1
 10
3.159940
 20
3.977778
 30
0.000000
  0
VERTEX
  8
LAYER-1
 10
3.186974
 20
3.966677
 30
0.000000
  0
VERTEX
  8
LAYER-1
 10
3.214007
 20
3.977778
 30
0.000000
  0
VERTEX
  8
LAYER-1
 10
3.225205
 20
4.004579
 30
0.000000
  0
SEQEND
  8
LAYER-1
  0
POLYLINE
  8
LAYER-1
 66
  1
 70
  0
 62
  7
 10
3.384569
 20
4.006252
 30
0.000000
  0
VERTEX
  8
LAYER-1
 10
3.384569
 20
4.006252
 30
0.000000
  0
VERTEX
  8
LAYER-1
 10
3.373371
 20
4.033054
 30
0.000000
  0
VERTEX
  8
LAYER-1
 10
3.346337
 20
4.044155
 30
0.000000
  0
VERTEX
  8
LAYER-1
 10
3.319303
 20
4.033054
 30
0.000000
  0
VERTEX
  8
LAYER-1
 10
3.308105
 20
4.006252
 30
0.000000
  0
VERTEX
  8
LAYER-1
 10
3.319303
 20
3.979451
 30
0.000000
  0
VERTEX
  8
LAYER-1
 10
3.346337
 20
3.968350
 30
0.000000
  0
VERTEX
  8
LAYER-1
 10
3.373371
 20
3.979451
 30
0.000000
  0
VERTEX
  8
LAYER-1
 10
3.384569
 20
4.006252
 30
0.000000
  0
SEQEND
  8
LAYER-1
  0
POLYLINE
  8
LAYER-1
 66
  1
 70
  1
 62
  7
  0
VERTEX
  8
LAYER-1
 10
2.457532
 20
0.526198
 30
0.000000
  0
VERTEX
  8
LAYER-1
 10
4.062759
 20
0.526198
 30
0.000000
  0
VERTEX
  8
LAYER-1
 10
4.062759
 20
0.001667
 30
0.000000
  0
VERTEX
  8
LAYER-1
 10
2.457532
 20
0.001667
 30
0.000000
  0
SEQEND
  8
LAYER-1
  0
POLYLINE
  8
LAYER-1
 66
  1
 70
  1
 62
  0
 10
2.508307
 20
0.500010
 30
0.000000
  0
VERTEX
  8
LAYER-1
 10
2.508307
 20
0.500010
 30
0.000000
  0
VERTEX
  8
LAYER-1
 10
2.495664
 20
0.487628
 30
0.000000
  0
VERTEX
  8
LAYER-1
 10
2.516736
 20
0.477151
 30
0.000000
  0
SEQEND
  8
LAYER-1
  0
POLYLINE
  8
LAYER-1
 66
  1
 70
  1
 62
  0
 10
2.540648
 20
0.441585
 30
0.000000
  0
VERTEX
  8
LAYER-1
 10
2.540648
 20
0.441585
 30
0.000000
  0
VERTEX
  8
LAYER-1
 10
2.551607
 20
0.427298
 30
0.000000
  0
VERTEX
  8
LAYER-1
 10
2.560878
 20
0.451111
 30
0.000000
  0
SEQEND
  8
LAYER-1
  0
POLYLINE
  8
LAYER-1
 66
  1
 70
  1
 62
  0
 10
2.653862
 20
0.490877
 30
0.000000
  0
VERTEX
  8
LAYER-1
 10
2.653862
 20
0.490877
 30
0.000000
  0
VERTEX
  8
LAYER-1
 10
2.612306
 20
0.487764
 30
0.000000
  0
VERTEX
  8
LAYER-1
 10
2.661890
 20
0.469106
 30
0.000000
  0
SEQEND
  8
LAYER-1
  0
POLYLINE
  8
LAYER-1
 66
  1
 70
  1
 62
  0
 10
2.747865
 20
0.479962
 30
0.000000
  0
VERTEX
  8
LAYER-1
 10
2.747865
 20
0.479962
 30
0.000000
  0
VERTEX
  8
LAYER-1
 10
2.735222
 20
0.467578
 30
0.000000
  0
VERTEX
  8
LAYER-1
 10
2.756294
 20
0.457102
 30
0.000000
  0
SEQEND
  8
LAYER-1
  0
POLYLINE
  8
LAYER-1
 66
  1
 70
  1
 62
  0
 10
3.008507
 20
0.466868
 30
0.000000
  0
VERTEX
  8
LAYER-1
 10
3.008507
 20
0.466868
 30
0.000000
  0
VERTEX
  8
LAYER-1
 10
2.995865
 20
0.454486
 30
0.000000
  0
VERTEX
  8
LAYER-1
 10
3.016939
 20
0.444010
 30
0.000000
  0
SEQEND
  8
LAYER-1
  0
POLYLINE
  8
LAYER-1
 66
  1
 70
  1
 62
  0
 10
3.087013
 20
0.472655
 30
0.000000
  0
VERTEX
  8
LAYER-1
 10
3.087013
 20
0.472655
 30
0.000000
  0
VERTEX
  8
LAYER-1
 10
3.128883
 20
0.466448
 30
0.000000
  0
VERTEX
  8
LAYER-1
 10
3.137712
 20
0.489126
 30
0.000000
  0
SEQEND
  8
LAYER-1
  0
POLYLINE
  8
LAYER-1
 66
  1
 70
  1
 62
  0
 10
3.263747
 20
0.457377
 30
0.000000
  0
VERTEX
  8
LAYER-1
 10
3.263747
 20
0.457377
 30
0.000000
  0
VERTEX
  8
LAYER-1
 10
3.274184
 20
0.443769
 30
0.000000
  0
VERTEX
  8
LAYER-1
 10
3.283014
 20
0.466448
 30
0.000000
  0
SEQEND
  8
LAYER-1
  0
POLYLINE
  8
LAYER-1
 66
  1
 70
  1
 62
  0
 10
3.222865
 20
0.408644
 30
0.000000
  0
VERTEX
  8
LAYER-1
 10
3.222865
 20
0.408644
 30
0.000000
  0
VERTEX
  8
LAYER-1
 10
3.236802
 20
0.417367
 30
0.000000
  0
VERTEX
  8
LAYER-1
 10
3.218992
 20
0.431818
 30
0.000000
  0
SEQEND
  8
LAYER-1
  0
POLYLINE
  8
LAYER-1
 66
  1
 70
  1
 62
  0
 10
3.301947
 20
0.329608
 30
0.000000
  0
VERTEX
  8
LAYER-1
 10
3.301947
 20
0.329608
 30
0.000000
  0
VERTEX
  8
LAYER-1
 10
3.313987
 20
0.341399
 30
0.000000
  0
VERTEX
  8
LAYER-1
 10
3.293917
 20
0.351379
 30
0.000000
  0
SEQEND
  8
LAYER-1
  0
POLYLINE
  8
LAYER-1
 66
  1
 70
  1
 62
  0
 10
3.222873
 20
0.353644
 30
0.000000
  0
VERTEX
  8
LAYER-1
 10
3.222873
 20
0.353644
 30
0.000000
  0
VERTEX
  8
LAYER-1
 10
3.212436
 20
0.367253
 30
0.000000
  0
VERTEX
  8
LAYER-1
 10
3.203606
 20
0.344575
 30
0.000000
  0
SEQEND
  8
LAYER-1
  0
POLYLINE
  8
LAYER-1
 66
  1
 70
  1
 62
  0
 10
3.037834
 20
0.309651
 30
0.000000
  0
VERTEX
  8
LAYER-1
 10
3.037834
 20
0.309651
 30
0.000000
  0
VERTEX
  8
LAYER-1
 10
3.059235
 20
0.325086
 30
0.000000
  0
VERTEX
  8
LAYER-1
 10
3.031457
 20
0.359807
 30
0.000000
  0
SEQEND
  8
LAYER-1
  0
POLYLINE
  8
LAYER-1
 66
  1
 70
  1
 62
  0
 10
2.946437
 20
0.329609
 30
0.000000
  0
VERTEX
  8
LAYER-1
 10
2.946437
 20
0.329609
 30
0.000000
  0
VERTEX
  8
LAYER-1
 10
2.935479
 20
0.343897
 30
0.000000
  0
VERTEX
  8
LAYER-1
 10
2.926208
 20
0.320086
 30
0.000000
  0
SEQEND
  8
LAYER-1
  0
POLYLINE
  8
LAYER-1
 66
  1
 70
  1
 62
  0
 10
2.508869
 20
0.361261
 30
0.000000
  0
VERTEX
  8
LAYER-1
 10
2.508869
 20
0.361261
 30
0.000000
  0
VERTEX
  8
LAYER-1
 10
2.527985
 20
0.335503
 30
0.000000
  0
VERTEX
  8
LAYER-1
 10
2.550675
 20
0.369723
 30
0.000000
  0
SEQEND
  8
LAYER-1
  0
POLYLINE
  8
LAYER-1
 66
  1
 70
  1
 62
  0
 10
2.593867
 20
0.329609
 30
0.000000
  0
VERTEX
  8
LAYER-1
 10
2.593867
 20
0.329609
 30
0.000000
  0
VERTEX
  8
LAYER-1
 10
2.608503
 20
0.338771
 30
0.000000
  0
VERTEX
  8
LAYER-1
 10
2.589800
 20
0.353945
 30
0.000000
  0
SEQEND
  8
LAYER-1
  0
POLYLINE
  8
LAYER-1
 66
  1
 70
  1
 62
  0
 10
2.789355
 20
0.356970
 30
0.000000
  0
VERTEX
  8
LAYER-1
 10
2.789355
 20
0.356970
 30
0.000000
  0
VERTEX
  8
LAYER-1
 10
2.800314
 20
0.342681
 30
0.000000
  0
VERTEX
  8
LAYER-1
 10
2.809585
 20
0.366494
 30
0.000000
  0
SEQEND
  8
LAYER-1
  0
POLYLINE
  8
LAYER-1
 66
  1
 70
  1
 62
  0
 10
2.755415
 20
0.307725
 30
0.000000
  0
VERTEX
  8
LAYER-1
 10
2.755415
 20
0.307725
 30
0.000000
  0
VERTEX
  8
LAYER-1
 10
2.782219
 20
0.319736
 30
0.000000
  0
VERTEX
  8
LAYER-1
 10
2.739790
 20
0.347655
 30
0.000000
  0
SEQEND
  8
LAYER-1
  0
POLYLINE
  8
LAYER-1
 66
  1
 70
  1
 62
  0
 10
2.909929
 20
0.458767
 30
0.000000
  0
VERTEX
  8
LAYER-1
 10
2.909929
 20
0.458767
 30
0.000000
  0
VERTEX
  8
LAYER-1
 10
2.893521
 20
0.494016
 30
0.000000
  0
VERTEX
  8
LAYER-1
 10
2.879071
 20
0.476207
 30
0.000000
  0
SEQEND
  8
LAYER-1
  0
POLYLINE
  8
LAYER-1
 66
  1
 70
  1
 62
  0
 10
3.383709
 20
0.482816
 30
0.000000
  0
VERTEX
  8
LAYER-1
 10
3.383709
 20
0.482816
 30
0.000000
  0
VERTEX
  8
LAYER-1
 10
3.371065
 20
0.470434
 30
0.000000
  0
VERTEX
  8
LAYER-1
 10
3.392138
 20
0.459958
 30
0.000000
  0
SEQEND
  8
LAYER-1
  0
POLYLINE
  8
LAYER-1
 66
  1
 70
  1
 62
  0
 10
3.468133
 20
0.443490
 30
0.000000
  0
VERTEX
  8
LAYER-1
 10
3.468133
 20
0.443490
 30
0.000000
  0
VERTEX
  8
LAYER-1
 10
3.479092
 20
0.429203
 30
0.000000
  0
VERTEX
  8
LAYER-1
 10
3.488363
 20
0.453014
 30
0.000000
  0
SEQEND
  8
LAYER-1
  0
POLYLINE
  8
LAYER-1
 66
  1
 70
  1
 62
  0
 10
3.537181
 20
0.492689
 30
0.000000
  0
VERTEX
  8
LAYER-1
 10
3.537181
 20
0.492689
 30
0.000000
  0
VERTEX
  8
LAYER-1
 10
3.495625
 20
0.489577
 30
0.000000
  0
VERTEX
  8
LAYER-1
 10
3.545209
 20
0.470918
 30
0.000000
  0
SEQEND
  8
LAYER-1
  0
POLYLINE
  8
LAYER-1
 66
  1
 70
  1
 62
  0
 10
3.675350
 20
0.481865
 30
0.000000
  0
VERTEX
  8
LAYER-1
 10
3.675350
 20
0.481865
 30
0.000000
  0
VERTEX
  8
LAYER-1
 10
3.662707
 20
0.469481
 30
0.000000
  0
VERTEX
  8
LAYER-1
 10
3.683779
 20
0.459006
 30
0.000000
  0
SEQEND
  8
LAYER-1
  0
POLYLINE
  8
LAYER-1
 66
  1
 70
  1
 62
  0
 10
3.958562
 20
0.510439
 30
0.000000
  0
VERTEX
  8
LAYER-1
 10
3.958562
 20
0.510439
 30
0.000000
  0
VERTEX
  8
LAYER-1
 10
3.945919
 20
0.498057
 30
0.000000
  0
VERTEX
  8
LAYER-1
 10
3.966992
 20
0.487580
 30
0.000000
  0
SEQEND
  8
LAYER-1
  0
POLYLINE
  8
LAYER-1
 66
  1
 70
  1
 62
  0
 10
3.970331
 20
0.474467
 30
0.000000
  0
VERTEX
  8
LAYER-1
 10
3.970331
 20
0.474467
 30
0.000000
  0
VERTEX
  8
LAYER-1
 10
4.012199
 20
0.468260
 30
0.000000
  0
VERTEX
  8
LAYER-1
 10
4.021030
 20
0.490938
 30
0.000000
  0
SEQEND
  8
LAYER-1
  0
POLYLINE
  8
LAYER-1
 66
  1
 70
  1
 62
  0
 10
3.921152
 20
0.311464
 30
0.000000
  0
VERTEX
  8
LAYER-1
 10
3.921152
 20
0.311464
 30
0.000000
  0
VERTEX
  8
LAYER-1
 10
3.942554
 20
0.326898
 30
0.000000
  0
VERTEX
  8
LAYER-1
 10
3.914776
 20
0.361621
 30
0.000000
  0
SEQEND
  8
LAYER-1
  0
POLYLINE
  8
LAYER-1
 66
  1
 70
  1
 62
  0
 10
3.873922
 20
0.331512
 30
0.000000
  0
VERTEX
  8
LAYER-1
 10
3.873922
 20
0.331512
 30
0.000000
  0
VERTEX
  8
LAYER-1
 10
3.862963
 20
0.345800
 30
0.000000
  0
VERTEX
  8
LAYER-1
 10
3.853693
 20
0.321989
 30
0.000000
  0
SEQEND
  8
LAYER-1
  0
POLYLINE
  8
LAYER-1
 66
  1
 70
  1
 62
  0
 10
3.392187
 20
0.363074
 30
0.000000
  0
VERTEX
  8
LAYER-1
 10
3.392187
 20
0.363074
 30
0.000000
  0
VERTEX
  8
LAYER-1
 10
3.411304
 20
0.337316
 30
0.000000
  0
VERTEX
  8
LAYER-1
 10
3.433994
 20
0.371536
 30
0.000000
  0
SEQEND
  8
LAYER-1
  0
POLYLINE
  8
LAYER-1
 66
  1
 70
  1
 62
  0
 10
3.521352
 20
0.331512
 30
0.000000
  0
VERTEX
  8
LAYER-1
 10
3.521352
 20
0.331512
 30
0.000000
  0
VERTEX
  8
LAYER-1
 10
3.535988
 20
0.340675
 30
0.000000
  0
VERTEX
  8
LAYER-1
 10
3.517284
 20
0.355848
 30
0.000000
  0
SEQEND
  8
LAYER-1
  0
POLYLINE
  8
LAYER-1
 66
  1
 70
  1
 62
  0
 10
3.716840
 20
0.358873
 30
0.000000
  0
VERTEX
  8
LAYER-1
 10
3.716840
 20
0.358873
 30
0.000000
  0
VERTEX
  8
LAYER-1
 10
3.727799
 20
0.344584
 30
0.000000
  0
VERTEX
  8
LAYER-1
 10
3.737069
 20
0.368397
 30
0.000000
  0
SEQEND
  8
LAYER-1
  0
POLYLINE
  8
LAYER-1
 66
  1
 70
  1
 62
  0
 10
3.638735
 20
0.309538
 30
0.000000
  0
VERTEX
  8
LAYER-1
 10
3.638735
 20
0.309538
 30
0.000000
  0
VERTEX
  8
LAYER-1
 10
3.665538
 20
0.321548
 30
0.000000
  0
VERTEX
  8
LAYER-1
 10
3.623110
 20
0.349467
 30
0.000000
  0
SEQEND
  8
LAYER-1
  0
POLYLINE
  8
LAYER-1
 66
  1
 70
  1
 62
  0
 10
3.814448
 20
0.401475
 30
0.000000
  0
VERTEX
  8
LAYER-1
 10
3.814448
 20
0.401475
 30
0.000000
  0
VERTEX
  8
LAYER-1
 10
3.807504
 20
0.458766
 30
0.000000
  0
VERTEX
  8
LAYER-1
 10
3.778014
 20
0.441562
 30
0.000000
  0
SEQEND
  8
LAYER-1
  0
POLYLINE
  8
LAYER-1
 66
  1
 70
  1
 62
  0
  0
VERTEX
  8
LAYER-1
 10
2.457532
 20
0.584756
 30
0.000000
  0
VERTEX
  8
LAYER-1
 10
4.062759
 20
0.584756
 30
0.000000
  0
VERTEX
  8
LAYER-1
 10
4.062759
 20
0.526198
 30
0.000000
  0
VERTEX
  8
LAYER-1
 10
2.457532
 20
0.526198
 30
0.000000
  0
SEQEND
  8
LAYER-1
  0
POLYLINE
  8
LAYER-1
 66
  1
 70
  0
 62
  0
 10
2.629040
 20
0.894757
 30
0.000000
  0
VERTEX
  8
LAYER-1
 10
2.629040
 20
0.894757
 30
0.000000
  0
VERTEX
  8
LAYER-1
 10
3.911384
 20
0.894757
 30
0.000000
  0
SEQEND
  8
LAYER-1
  0
TEXT
  8
LAYER-1
 62
  0
 10
1.071987
 20
0.345681
 30
0.000000
 40
0.083333
  1
DUSTPROOF SOCKET
 72
  5
 11
2.308098
 21
0.345681
 31
0.000000
  0
TEXT
  8
LAYER-1
 62
  0
 10
1.071987
 20
0.220681
 30
0.000000
 40
0.083333
  1
( for post shootbolt )
 72
  5
 11
2.071987
 21
0.220681
 31
0.000000
  0
POLYLINE
  8
LAYER-1
 66
  1
 70
  0
 62
  0
 10
4.260310
 20
0.893565
 30
0.000000
  0
VERTEX
  8
LAYER-1
 10
4.260310
 20
0.893565
 30
0.000000
  0
VERTEX
  8
LAYER-1
 10
4.091581
 20
0.893565
 30
0.000000
  0
SEQEND
  8
LAYER-1
  0
POLYLINE
  8
LAYER-1
 66
  1
 70
  0
 62
  0
 10
4.260310
 20
0.600052
 30
0.000000
  0
VERTEX
  8
LAYER-1
 10
4.260310
 20
0.600052
 30
0.000000
  0
VERTEX
  8
LAYER-1
 10
4.095798
 20
0.600052
 30
0.000000
  0
SEQEND
  8
LAYER-1
  0
POLYLINE
  8
LAYER-1
 66
  1
 70
  0
 62
  0
 10
4.135084
 20
0.893565
 30
0.000000
  0
VERTEX
  8
LAYER-1
 10
4.135084
 20
0.893565
 30
0.000000
  0
VERTEX
  8
LAYER-1
 10
4.137980
 20
0.600052
 30
0.000000
  0
SEQEND
  8
LAYER-1
  0
LINE
  8
LAYER-1
 62
  0
 10
4.164836
 20
0.864394
 30
0.000000
 11
4.105332
 21
0.922735
 31
0.000000
  0
LINE
  8
LAYER-1
 62
  0
 10
4.167732
 20
0.570880
 30
0.000000
 11
4.108228
 21
0.629222
 31
0.000000
  0
TEXT
  8
LAYER-1
 62
  0
 10
4.349764
 20
0.790126
 30
0.000000
 40
0.104167
  1
STANDARD 1-1/2"  -  38mm
 72
  5
 11
6.210876
 21
0.790126
 31
0.000000
  0
TEXT
  8
LAYER-1
 62
  0
 10
4.349764
 20
0.637348
 30
0.000000
 40
0.104167
  1
COUNTER 1"  -  25mm
 72
  5
 11
5.877542
 21
0.637348
 31
0.000000
  0
POLYLINE
  8
LAYER-1
 66
  1
 70
  0
 62
  0
 10
2.280319
 20
0.405128
 30
0.000000
  0
VERTEX
  8
LAYER-1
 10
2.280319
 20
0.405128
 30
0.000000
  0
VERTEX
  8
LAYER-1
 10
3.176002
 20
0.404280
 30
0.000000
  0
SEQEND
  8
LAYER-1
  0
POLYLINE
  8
LAYER-1
 66
  1
 70
  1
 62
  0
  0
VERTEX
  8
LAYER-1
 10
3.195687
 20
0.404260
 30
0.000000
  0
VERTEX
  8
LAYER-1
 10
3.126203
 20
0.362660
 30
0.000000
  0
VERTEX
  8
LAYER-1
 10
3.126243
 20
0.404327
 30
0.000000
  0
VERTEX
  8
LAYER-1
 10
3.126283
 20
0.445993
 30
0.000000
  0
VERTEX
  8
LAYER-1
 10
3.195687
 20
0.404260
 30
0.000000
  0
SEQEND
  8
LAYER-1
  0
POLYLINE
  8
LAYER-1
 66
  1
 70
  1
 62
  0
 10
4.002622
 20
0.042284
 30
0.000000
  0
VERTEX
  8
LAYER-1
 10
4.002622
 20
0.042284
 30
0.000000
  0
VERTEX
  8
LAYER-1
 10
4.015265
 20
0.054665
 30
0.000000
  0
VERTEX
  8
LAYER-1
 10
3.994192
 20
0.065142
 30
0.000000
  0
SEQEND
  8
LAYER-1
  0
POLYLINE
  8
LAYER-1
 66
  1
 70
  1
 62
  0
 10
3.970279
 20
0.100708
 30
0.000000
  0
VERTEX
  8
LAYER-1
 10
3.970279
 20
0.100708
 30
0.000000
  0
VERTEX
  8
LAYER-1
 10
3.959321
 20
0.114995
 30
0.000000
  0
VERTEX
  8
LAYER-1
 10
3.950050
 20
0.091183
 30
0.000000
  0
SEQEND
  8
LAYER-1
  0
POLYLINE
  8
LAYER-1
 66
  1
 70
  1
 62
  0
 10
3.857066
 20
0.051417
 30
0.000000
  0
VERTEX
  8
LAYER-1
 10
3.857066
 20
0.051417
 30
0.000000
  0
VERTEX
  8
LAYER-1
 10
3.898621
 20
0.054529
 30
0.000000
  0
VERTEX
  8
LAYER-1
 10
3.849038
 20
0.073188
 30
0.000000
  0
SEQEND
  8
LAYER-1
  0
POLYLINE
  8
LAYER-1
 66
  1
 70
  1
 62
  0
 10
3.763064
 20
0.062332
 30
0.000000
  0
VERTEX
  8
LAYER-1
 10
3.763064
 20
0.062332
 30
0.000000
  0
VERTEX
  8
LAYER-1
 10
3.775707
 20
0.074716
 30
0.000000
  0
VERTEX
  8
LAYER-1
 10
3.754634
 20
0.085191
 30
0.000000
  0
SEQEND
  8
LAYER-1
  0
POLYLINE
  8
LAYER-1
 66
  1
 70
  1
 62
  0
 10
3.502421
 20
0.075425
 30
0.000000
  0
VERTEX
  8
LAYER-1
 10
3.502421
 20
0.075425
 30
0.000000
  0
VERTEX
  8
LAYER-1
 10
3.515063
 20
0.087808
 30
0.000000
  0
VERTEX
  8
LAYER-1
 10
3.493990
 20
0.098284
 30
0.000000
  0
SEQEND
  8
LAYER-1
  0
POLYLINE
  8
LAYER-1
 66
  1
 70
  1
 62
  0
 10
3.423916
 20
0.069639
 30
0.000000
  0
VERTEX
  8
LAYER-1
 10
3.423916
 20
0.069639
 30
0.000000
  0
VERTEX
  8
LAYER-1
 10
3.382047
 20
0.075846
 30
0.000000
  0
VERTEX
  8
LAYER-1
 10
3.373217
 20
0.053168
 30
0.000000
  0
SEQEND
  8
LAYER-1
  0
POLYLINE
  8
LAYER-1
 66
  1
 70
  1
 62
  0
 10
3.247183
 20
0.084916
 30
0.000000
  0
VERTEX
  8
LAYER-1
 10
3.247183
 20
0.084916
 30
0.000000
  0
VERTEX
  8
LAYER-1
 10
3.236746
 20
0.098524
 30
0.000000
  0
VERTEX
  8
LAYER-1
 10
3.227916
 20
0.075846
 30
0.000000
  0
SEQEND
  8
LAYER-1
  0
POLYLINE
  8
LAYER-1
 66
  1
 70
  1
 62
  0
 10
3.288065
 20
0.133650
 30
0.000000
  0
VERTEX
  8
LAYER-1
 10
3.288065
 20
0.133650
 30
0.000000
  0
VERTEX
  8
LAYER-1
 10
3.274127
 20
0.124926
 30
0.000000
  0
VERTEX
  8
LAYER-1
 10
3.291938
 20
0.110476
 30
0.000000
  0
SEQEND
  8
LAYER-1
  0
POLYLINE
  8
LAYER-1
 66
  1
 70
  1
 62
  0
 10
3.208983
 20
0.212686
 30
0.000000
  0
VERTEX
  8
LAYER-1
 10
3.208983
 20
0.212686
 30
0.000000
  0
VERTEX
  8
LAYER-1
 10
3.196943
 20
0.200895
 30
0.000000
  0
VERTEX
  8
LAYER-1
 10
3.217013
 20
0.190915
 30
0.000000
  0
SEQEND
  8
LAYER-1
  0
POLYLINE
  8
LAYER-1
 66
  1
 70
  1
 62
  0
 10
3.288057
 20
0.188649
 30
0.000000
  0
VERTEX
  8
LAYER-1
 10
3.288057
 20
0.188649
 30
0.000000
  0
VERTEX
  8
LAYER-1
 10
3.298494
 20
0.175040
 30
0.000000
  0
VERTEX
  8
LAYER-1
 10
3.307323
 20
0.197718
 30
0.000000
  0
SEQEND
  8
LAYER-1
  0
POLYLINE
  8
LAYER-1
 66
  1
 70
  1
 62
  0
 10
3.473094
 20
0.232642
 30
0.000000
  0
VERTEX
  8
LAYER-1
 10
3.473094
 20
0.232642
 30
0.000000
  0
VERTEX
  8
LAYER-1
 10
3.451694
 20
0.217207
 30
0.000000
  0
VERTEX
  8
LAYER-1
 10
3.479471
 20
0.182486
 30
0.000000
  0
SEQEND
  8
LAYER-1
  0
POLYLINE
  8
LAYER-1
 66
  1
 70
  1
 62
  0
 10
3.564491
 20
0.212684
 30
0.000000
  0
VERTEX
  8
LAYER-1
 10
3.564491
 20
0.212684
 30
0.000000
  0
VERTEX
  8
LAYER-1
 10
3.575449
 20
0.198397
 30
0.000000
  0
VERTEX
  8
LAYER-1
 10
3.584720
 20
0.222208
 30
0.000000
  0
SEQEND
  8
LAYER-1
  0
POLYLINE
  8
LAYER-1
 66
  1
 70
  1
 62
  0
 10
4.002060
 20
0.181033
 30
0.000000
  0
VERTEX
  8
LAYER-1
 10
4.002060
 20
0.181033
 30
0.000000
  0
VERTEX
  8
LAYER-1
 10
3.982944
 20
0.206791
 30
0.000000
  0
VERTEX
  8
LAYER-1
 10
3.960253
 20
0.172570
 30
0.000000
  0
SEQEND
  8
LAYER-1
  0
POLYLINE
  8
LAYER-1
 66
  1
 70
  1
 62
  0
 10
3.917060
 20
0.212684
 30
0.000000
  0
VERTEX
  8
LAYER-1
 10
3.917060
 20
0.212684
 30
0.000000
  0
VERTEX
  8
LAYER-1
 10
3.902426
 20
0.203523
 30
0.000000
  0
VERTEX
  8
LAYER-1
 10
3.921128
 20
0.188349
 30
0.000000
  0
SEQEND
  8
LAYER-1
  0
POLYLINE
  8
LAYER-1
 66
  1
 70
  1
 62
  0
 10
3.721573
 20
0.185323
 30
0.000000
  0
VERTEX
  8
LAYER-1
 10
3.721573
 20
0.185323
 30
0.000000
  0
VERTEX
  8
LAYER-1
 10
3.710615
 20
0.199612
 30
0.000000
  0
VERTEX
  8
LAYER-1
 10
3.701344
 20
0.175800
 30
0.000000
  0
SEQEND
  8
LAYER-1
  0
POLYLINE
  8
LAYER-1
 66
  1
 70
  1
 62
  0
 10
3.755513
 20
0.234568
 30
0.000000
  0
VERTEX
  8
LAYER-1
 10
3.755513
 20
0.234568
 30
0.000000
  0
VERTEX
  8
LAYER-1
 10
3.728709
 20
0.222557
 30
0.000000
  0
VERTEX
  8
LAYER-1
 10
3.771138
 20
0.194639
 30
0.000000
  0
SEQEND
  8
LAYER-1
  0
POLYLINE
  8
LAYER-1
 66
  1
 70
  1
 62
  0
 10
3.600998
 20
0.083526
 30
0.000000
  0
VERTEX
  8
LAYER-1
 10
3.600998
 20
0.083526
 30
0.000000
  0
VERTEX
  8
LAYER-1
 10
3.617408
 20
0.048278
 30
0.000000
  0
VERTEX
  8
LAYER-1
 10
3.631858
 20
0.066087
 30
0.000000
  0
SEQEND
  8
LAYER-1
  0
POLYLINE
  8
LAYER-1
 66
  1
 70
  1
 62
  0
 10
3.127221
 20
0.059477
 30
0.000000
  0
VERTEX
  8
LAYER-1
 10
3.127221
 20
0.059477
 30
0.000000
  0
VERTEX
  8
LAYER-1
 10
3.139865
 20
0.071860
 30
0.000000
  0
VERTEX
  8
LAYER-1
 10
3.118792
 20
0.082336
 30
0.000000
  0
SEQEND
  8
LAYER-1
  0
POLYLINE
  8
LAYER-1
 66
  1
 70
  1
 62
  0
 10
3.042795
 20
0.098803
 30
0.000000
  0
VERTEX
  8
LAYER-1
 10
3.042795
 20
0.098803
 30
0.000000
  0
VERTEX
  8
LAYER-1
 10
3.031836
 20
0.113091
 30
0.000000
  0
VERTEX
  8
LAYER-1
 10
3.022565
 20
0.089280
 30
0.000000
  0
SEQEND
  8
LAYER-1
  0
POLYLINE
  8
LAYER-1
 66
  1
 70
  1
 62
  0
 10
2.973748
 20
0.049604
 30
0.000000
  0
VERTEX
  8
LAYER-1
 10
2.973748
 20
0.049604
 30
0.000000
  0
VERTEX
  8
LAYER-1
 10
3.015303
 20
0.052717
 30
0.000000
  0
VERTEX
  8
LAYER-1
 10
2.965719
 20
0.071375
 30
0.000000
  0
SEQEND
  8
LAYER-1
  0
POLYLINE
  8
LAYER-1
 66
  1
 70
  1
 62
  0
 10
2.835578
 20
0.060429
 30
0.000000
  0
VERTEX
  8
LAYER-1
 10
2.835578
 20
0.060429
 30
0.000000
  0
VERTEX
  8
LAYER-1
 10
2.848222
 20
0.072812
 30
0.000000
  0
VERTEX
  8
LAYER-1
 10
2.827150
 20
0.083288
 30
0.000000
  0
SEQEND
  8
LAYER-1
  0
POLYLINE
  8
LAYER-1
 66
  1
 70
  1
 62
  0
 10
2.552366
 20
0.031854
 30
0.000000
  0
VERTEX
  8
LAYER-1
 10
2.552366
 20
0.031854
 30
0.000000
  0
VERTEX
  8
LAYER-1
 10
2.565009
 20
0.044237
 30
0.000000
  0
VERTEX
  8
LAYER-1
 10
2.543936
 20
0.054714
 30
0.000000
  0
SEQEND
  8
LAYER-1
  0
POLYLINE
  8
LAYER-1
 66
  1
 70
  1
 62
  0
 10
2.540597
 20
0.067826
 30
0.000000
  0
VERTEX
  8
LAYER-1
 10
2.540597
 20
0.067826
 30
0.000000
  0
VERTEX
  8
LAYER-1
 10
2.498728
 20
0.074033
 30
0.000000
  0
VERTEX
  8
LAYER-1
 10
2.489898
 20
0.051355
 30
0.000000
  0
SEQEND
  8
LAYER-1
  0
POLYLINE
  8
LAYER-1
 66
  1
 70
  1
 62
  0
 10
2.589776
 20
0.230829
 30
0.000000
  0
VERTEX
  8
LAYER-1
 10
2.589776
 20
0.230829
 30
0.000000
  0
VERTEX
  8
LAYER-1
 10
2.568374
 20
0.215395
 30
0.000000
  0
VERTEX
  8
LAYER-1
 10
2.596152
 20
0.180673
 30
0.000000
  0
SEQEND
  8
LAYER-1
  0
POLYLINE
  8
LAYER-1
 66
  1
 70
  1
 62
  0
 10
2.637007
 20
0.210781
 30
0.000000
  0
VERTEX
  8
LAYER-1
 10
2.637007
 20
0.210781
 30
0.000000
  0
VERTEX
  8
LAYER-1
 10
2.647965
 20
0.196494
 30
0.000000
  0
VERTEX
  8
LAYER-1
 10
2.657235
 20
0.220305
 30
0.000000
  0
SEQEND
  8
LAYER-1
  0
POLYLINE
  8
LAYER-1
 66
  1
 70
  1
 62
  0
 10
3.118743
 20
0.179220
 30
0.000000
  0
VERTEX
  8
LAYER-1
 10
3.118743
 20
0.179220
 30
0.000000
  0
VERTEX
  8
LAYER-1
 10
3.099625
 20
0.204977
 30
0.000000
  0
VERTEX
  8
LAYER-1
 10
3.076935
 20
0.170758
 30
0.000000
  0
SEQEND
  8
LAYER-1
  0
POLYLINE
  8
LAYER-1
 66
  1
 70
  1
 62
  0
 10
2.989577
 20
0.210781
 30
0.000000
  0
VERTEX
  8
LAYER-1
 10
2.989577
 20
0.210781
 30
0.000000
  0
VERTEX
  8
LAYER-1
 10
2.974940
 20
0.201619
 30
0.000000
  0
VERTEX
  8
LAYER-1
 10
2.993644
 20
0.186445
 30
0.000000
  0
SEQEND
  8
LAYER-1
  0
POLYLINE
  8
LAYER-1
 66
  1
 70
  1
 62
  0
 10
2.794088
 20
0.183420
 30
0.000000
  0
VERTEX
  8
LAYER-1
 10
2.794088
 20
0.183420
 30
0.000000
  0
VERTEX
  8
LAYER-1
 10
2.783129
 20
0.197709
 30
0.000000
  0
VERTEX
  8
LAYER-1
 10
2.773859
 20
0.173897
 30
0.000000
  0
SEQEND
  8
LAYER-1
  0
POLYLINE
  8
LAYER-1
 66
  1
 70
  1
 62
  0
 10
2.872194
 20
0.232756
 30
0.000000
  0
VERTEX
  8
LAYER-1
 10
2.872194
 20
0.232756
 30
0.000000
  0
VERTEX
  8
LAYER-1
 10
2.845390
 20
0.220745
 30
0.000000
  0
VERTEX
  8
LAYER-1
 10
2.887819
 20
0.192826
 30
0.000000
  0
SEQEND
  8
LAYER-1
  0
POLYLINE
  8
LAYER-1
 66
  1
 70
  1
 62
  0
 10
2.696480
 20
0.140818
 30
0.000000
  0
VERTEX
  8
LAYER-1
 10
2.696480
 20
0.140818
 30
0.000000
  0
VERTEX
  8
LAYER-1
 10
2.703424
 20
0.083528
 30
0.000000
  0
VERTEX
  8
LAYER-1
 10
2.732914
 20
0.100731
 30
0.000000
  0
SEQEND
  8
LAYER-1
  0
POLYLINE
  8
LAYER-1
 66
  1
 70
  0
 62
  0
 10
3.147258
 20
0.590552
 30
0.000000
  0
VERTEX
  8
LAYER-1
 10
3.147258
 20
0.590552
 30
0.000000
  0
VERTEX
  8
LAYER-1
 10
3.180904
 20
0.610468
 30
0.000000
  0
SEQEND
  8
LAYER-1
  0
POLYLINE
  8
LAYER-1
 66
  1
 70
  0
 62
  0
 10
3.147258
 20
0.590552
 30
0.000000
  0
VERTEX
  8
LAYER-1
 10
3.147258
 20
0.590552
 30
0.000000
  0
VERTEX
  8
LAYER-1
 10
3.147258
 20
0.586431
 30
0.000000
  0
SEQEND
  8
LAYER-1
  0
POLYLINE
  8
LAYER-1
 66
  1
 70
  1
 62
  0
  0
VERTEX
  8
LAYER-1
 10
3.195823
 20
0.586390
 30
0.000000
  0
VERTEX
  8
LAYER-1
 10
3.344830
 20
0.586390
 30
0.000000
  0
VERTEX
  8
LAYER-1
 10
3.344830
 20
0.092234
 30
0.000000
  0
VERTEX
  8
LAYER-1
 10
3.195823
 20
0.092234
 30
0.000000
  0
SEQEND
  8
LAYER-1
  0
POLYLINE
  8
LAYER-1
  6
LTYPE01
 66
  1
 70
  1
 62
  0
  0
VERTEX
  8
LAYER-1
  6
LTYPE01
 10
3.208183
 20
0.610424
 30
0.000000
  0
VERTEX
  8
LAYER-1
  6
LTYPE01
 10
3.331784
 20
0.610424
 30
0.000000
  0
VERTEX
  8
LAYER-1
  6
LTYPE01
 10
3.331784
 20
0.117408
 30
0.000000
  0
VERTEX
  8
LAYER-1
  6
LTYPE01
 10
3.208183
 20
0.117408
 30
0.000000
  0
SEQEND
  8
LAYER-1
  0
POLYLINE
  8
LAYER-1
 66
  1
 70
  0
 62
  0
 10
3.147258
 20
0.586431
 30
0.000000
  0
VERTEX
  8
LAYER-1
 10
3.147258
 20
0.586431
 30
0.000000
  0
VERTEX
  8
LAYER-1
 10
3.393770
 20
0.586431
 30
0.000000
  0
SEQEND
  8
LAYER-1
  0
POLYLINE
  8
LAYER-1
 66
  1
 70
  0
 62
  0
 10
3.393770
 20
0.586431
 30
0.000000
  0
VERTEX
  8
LAYER-1
 10
3.393770
 20
0.586431
 30
0.000000
  0
VERTEX
  8
LAYER-1
 10
3.393770
 20
0.590552
 30
0.000000
  0
SEQEND
  8
LAYER-1
  0
POLYLINE
  8
LAYER-1
 66
  1
 70
  0
 62
  0
 10
3.393770
 20
0.590552
 30
0.000000
  0
VERTEX
  8
LAYER-1
 10
3.393770
 20
0.590552
 30
0.000000
  0
VERTEX
  8
LAYER-1
 10
3.359438
 20
0.610468
 30
0.000000
  0
SEQEND
  8
LAYER-1
  0
POLYLINE
  8
LAYER-1
  6
LTYPE02
 66
  1
 70
  0
 62
  0
  6
LTYPE02
 10
3.211461
 20
0.345072
 30
0.000000
  0
VERTEX
  8
LAYER-1
  6
LTYPE02
 10
3.211461
 20
0.345072
 30
0.000000
  0
VERTEX
  8
LAYER-1
  6
LTYPE02
 10
3.211461
 20
0.255808
 30
0.000000
  0
SEQEND
  8
LAYER-1
  0
POLYLINE
  8
LAYER-1
  6
LTYPE02
 66
  1
 70
  0
 62
  0
  6
LTYPE02
 10
3.221750
 20
0.345072
 30
0.000000
  0
VERTEX
  8
LAYER-1
  6
LTYPE02
 10
3.221750
 20
0.345072
 30
0.000000
  0
VERTEX
  8
LAYER-1
  6
LTYPE02
 10
3.211461
 20
0.345072
 30
0.000000
  0
SEQEND
  8
LAYER-1
  0
POLYLINE
  8
LAYER-1
  6
LTYPE02
 66
  1
 70
  0
 62
  0
  6
LTYPE02
 10
3.221750
 20
0.345072
 30
0.000000
  0
VERTEX
  8
LAYER-1
  6
LTYPE02
 10
3.221750
 20
0.345072
 30
0.000000
  0
VERTEX
  8
LAYER-1
  6
LTYPE02
 10
3.221750
 20
0.356745
 30
0.000000
  0
SEQEND
  8
LAYER-1
  0
POLYLINE
  8
LAYER-1
  6
LTYPE02
 66
  1
 70
  0
 62
  0
  6
LTYPE02
 10
3.221750
 20
0.356745
 30
0.000000
  0
VERTEX
  8
LAYER-1
  6
LTYPE02
 10
3.221750
 20
0.356745
 30
0.000000
  0
VERTEX
  8
LAYER-1
  6
LTYPE02
 10
3.319866
 20
0.356745
 30
0.000000
  0
SEQEND
  8
LAYER-1
  0
POLYLINE
  8
LAYER-1
  6
LTYPE02
 66
  1
 70
  0
 62
  0
  6
LTYPE02
 10
3.211461
 20
0.255808
 30
0.000000
  0
VERTEX
  8
LAYER-1
  6
LTYPE02
 10
3.211461
 20
0.255808
 30
0.000000
  0
VERTEX
  8
LAYER-1
  6
LTYPE02
 10
3.328195
 20
0.255808
 30
0.000000
  0
SEQEND
  8
LAYER-1
  0
POLYLINE
  8
LAYER-1
  6
LTYPE02
 66
  1
 70
  0
 62
  0
  6
LTYPE02
 10
3.328195
 20
0.255808
 30
0.000000
  0
VERTEX
  8
LAYER-1
  6
LTYPE02
 10
3.328195
 20
0.255808
 30
0.000000
  0
VERTEX
  8
LAYER-1
  6
LTYPE02
 10
3.328195
 20
0.345072
 30
0.000000
  0
SEQEND
  8
LAYER-1
  0
POLYLINE
  8
LAYER-1
  6
LTYPE02
 66
  1
 70
  0
 62
  0
  6
LTYPE02
 10
3.319866
 20
0.345072
 30
0.000000
  0
VERTEX
  8
LAYER-1
  6
LTYPE02
 10
3.319866
 20
0.345072
 30
0.000000
  0
VERTEX
  8
LAYER-1
  6
LTYPE02
 10
3.328195
 20
0.345072
 30
0.000000
  0
SEQEND
  8
LAYER-1
  0
POLYLINE
  8
LAYER-1
  6
LTYPE02
 66
  1
 70
  0
 62
  0
  6
LTYPE02
 10
3.319866
 20
0.356745
 30
0.000000
  0
VERTEX
  8
LAYER-1
  6
LTYPE02
 10
3.319866
 20
0.356745
 30
0.000000
  0
VERTEX
  8
LAYER-1
  6
LTYPE02
 10
3.319866
 20
0.345072
 30
0.000000
  0
SEQEND
  8
LAYER-1
  0
POLYLINE
  8
LAYER-1
  6
LTYPE01
 66
  1
 70
  1
 62
  0
  0
VERTEX
  8
LAYER-1
  6
LTYPE01
 10
3.224990
 20
0.255426
 30
0.000000
  0
VERTEX
  8
LAYER-1
  6
LTYPE01
 10
3.315629
 20
0.255426
 30
0.000000
  0
VERTEX
  8
LAYER-1
  6
LTYPE01
 10
3.315629
 20
0.118094
 30
0.000000
  0
VERTEX
  8
LAYER-1
  6
LTYPE01
 10
3.224990
 20
0.118094
 30
0.000000
  0
SEQEND
  8
LAYER-1
  0
POLYLINE
  8
LAYER-1
  6
LTYPE02
 66
  1
 70
  0
 62
  0
  6
LTYPE02
 10
3.315629
 20
0.255426
 30
0.000000
  0
VERTEX
  8
LAYER-1
  6
LTYPE02
 10
3.315629
 20
0.255426
 30
0.000000
  0
VERTEX
  8
LAYER-1
  6
LTYPE02
 10
3.224990
 20
0.247871
 30
0.000000
  0
SEQEND
  8
LAYER-1
  0
POLYLINE
  8
LAYER-1
  6
LTYPE02
 66
  1
 70
  0
 62
  0
  6
LTYPE02
 10
3.315629
 20
0.251305
 30
0.000000
  0
VERTEX
  8
LAYER-1
  6
LTYPE02
 10
3.315629
 20
0.251305
 30
0.000000
  0
VERTEX
  8
LAYER-1
  6
LTYPE02
 10
3.224990
 20
0.243064
 30
0.000000
  0
SEQEND
  8
LAYER-1
  0
POLYLINE
  8
LAYER-1
  6
LTYPE02
 66
  1
 70
  0
 62
  0
  6
LTYPE02
 10
3.315629
 20
0.242380
 30
0.000000
  0
VERTEX
  8
LAYER-1
  6
LTYPE02
 10
3.315629
 20
0.242380
 30
0.000000
  0
VERTEX
  8
LAYER-1
  6
LTYPE02
 10
3.224990
 20
0.234824
 30
0.000000
  0
SEQEND
  8
LAYER-1
  0
POLYLINE
  8
LAYER-1
  6
LTYPE02
 66
  1
 70
  0
 62
  0
  6
LTYPE02
 10
3.315629
 20
0.238258
 30
0.000000
  0
VERTEX
  8
LAYER-1
  6
LTYPE02
 10
3.315629
 20
0.238258
 30
0.000000
  0
VERTEX
  8
LAYER-1
  6
LTYPE02
 10
3.224990
 20
0.230019
 30
0.000000
  0
SEQEND
  8
LAYER-1
  0
POLYLINE
  8
LAYER-1
  6
LTYPE02
 66
  1
 70
  0
 62
  0
  6
LTYPE02
 10
3.315629
 20
0.228818
 30
0.000000
  0
VERTEX
  8
LAYER-1
  6
LTYPE02
 10
3.315629
 20
0.228818
 30
0.000000
  0
VERTEX
  8
LAYER-1
  6
LTYPE02
 10
3.224990
 20
0.221262
 30
0.000000
  0
SEQEND
  8
LAYER-1
  0
POLYLINE
  8
LAYER-1
  6
LTYPE02
 66
  1
 70
  0
 62
  0
  6
LTYPE02
 10
3.315629
 20
0.224700
 30
0.000000
  0
VERTEX
  8
LAYER-1
  6
LTYPE02
 10
3.315629
 20
0.224700
 30
0.000000
  0
VERTEX
  8
LAYER-1
  6
LTYPE02
 10
3.224990
 20
0.216457
 30
0.000000
  0
SEQEND
  8
LAYER-1
  0
POLYLINE
  8
LAYER-1
  6
LTYPE02
 66
  1
 70
  0
 62
  0
  6
LTYPE02
 10
3.315458
 20
0.216971
 30
0.000000
  0
VERTEX
  8
LAYER-1
  6
LTYPE02
 10
3.315458
 20
0.216971
 30
0.000000
  0
VERTEX
  8
LAYER-1
  6
LTYPE02
 10
3.224817
 20
0.209419
 30
0.000000
  0
SEQEND
  8
LAYER-1
  0
POLYLINE
  8
LAYER-1
  6
LTYPE02
 66
  1
 70
  0
 62
  0
  6
LTYPE02
 10
3.315458
 20
0.212853
 30
0.000000
  0
VERTEX
  8
LAYER-1
  6
LTYPE02
 10
3.315458
 20
0.212853
 30
0.000000
  0
VERTEX
  8
LAYER-1
  6
LTYPE02
 10
3.224817
 20
0.204615
 30
0.000000
  0
SEQEND
  8
LAYER-1
  0
POLYLINE
  8
LAYER-1
  6
LTYPE02
 66
  1
 70
  0
 62
  0
  6
LTYPE02
 10
3.315458
 20
0.204271
 30
0.000000
  0
VERTEX
  8
LAYER-1
  6
LTYPE02
 10
3.315458
 20
0.204271
 30
0.000000
  0
VERTEX
  8
LAYER-1
  6
LTYPE02
 10
3.224817
 20
0.196716
 30
0.000000
  0
SEQEND
  8
LAYER-1
  0
POLYLINE
  8
LAYER-1
  6
LTYPE02
 66
  1
 70
  0
 62
  0
  6
LTYPE02
 10
3.315458
 20
0.200149
 30
0.000000
  0
VERTEX
  8
LAYER-1
  6
LTYPE02
 10
3.315458
 20
0.200149
 30
0.000000
  0
VERTEX
  8
LAYER-1
  6
LTYPE02
 10
3.224817
 20
0.191908
 30
0.000000
  0
SEQEND
  8
LAYER-1
  0
POLYLINE
  8
LAYER-1
  6
LTYPE02
 66
  1
 70
  0
 62
  0
  6
LTYPE02
 10
3.315458
 20
0.191224
 30
0.000000
  0
VERTEX
  8
LAYER-1
  6
LTYPE02
 10
3.315458
 20
0.191224
 30
0.000000
  0
VERTEX
  8
LAYER-1
  6
LTYPE02
 10
3.224817
 20
0.183668
 30
0.000000
  0
SEQEND
  8
LAYER-1
  0
POLYLINE
  8
LAYER-1
  6
LTYPE02
 66
  1
 70
  0
 62
  0
  6
LTYPE02
 10
3.315458
 20
0.187103
 30
0.000000
  0
VERTEX
  8
LAYER-1
  6
LTYPE02
 10
3.315458
 20
0.187103
 30
0.000000
  0
VERTEX
  8
LAYER-1
  6
LTYPE02
 10
3.224817
 20
0.178861
 30
0.000000
  0
SEQEND
  8
LAYER-1
  0
POLYLINE
  8
LAYER-1
  6
LTYPE02
 66
  1
 70
  0
 62
  0
  6
LTYPE02
 10
3.315458
 20
0.177661
 30
0.000000
  0
VERTEX
  8
LAYER-1
  6
LTYPE02
 10
3.315458
 20
0.177661
 30
0.000000
  0
VERTEX
  8
LAYER-1
  6
LTYPE02
 10
3.224817
 20
0.170108
 30
0.000000
  0
SEQEND
  8
LAYER-1
  0
POLYLINE
  8
LAYER-1
  6
LTYPE02
 66
  1
 70
  0
 62
  0
  6
LTYPE02
 10
3.315458
 20
0.173542
 30
0.000000
  0
VERTEX
  8
LAYER-1
  6
LTYPE02
 10
3.315458
 20
0.173542
 30
0.000000
  0
VERTEX
  8
LAYER-1
  6
LTYPE02
 10
3.224817
 20
0.165303
 30
0.000000
  0
SEQEND
  8
LAYER-1
  0
POLYLINE
  8
LAYER-1
  6
LTYPE02
 66
  1
 70
  0
 62
  0
  6
LTYPE02
 10
3.315286
 20
0.165816
 30
0.000000
  0
VERTEX
  8
LAYER-1
  6
LTYPE02
 10
3.315286
 20
0.165816
 30
0.000000
  0
VERTEX
  8
LAYER-1
  6
LTYPE02
 10
3.224647
 20
0.158264
 30
0.000000
  0
SEQEND
  8
LAYER-1
  0
POLYLINE
  8
LAYER-1
  6
LTYPE02
 66
  1
 70
  0
 62
  0
  6
LTYPE02
 10
3.315286
 20
0.161698
 30
0.000000
  0
VERTEX
  8
LAYER-1
  6
LTYPE02
 10
3.315286
 20
0.161698
 30
0.000000
  0
VERTEX
  8
LAYER-1
  6
LTYPE02
 10
3.224647
 20
0.153456
 30
0.000000
  0
SEQEND
  8
LAYER-1
  0
POLYLINE
  8
LAYER-1
  6
LTYPE02
 66
  1
 70
  0
 62
  0
  6
LTYPE02
 10
3.315629
 20
0.154316
 30
0.000000
  0
VERTEX
  8
LAYER-1
  6
LTYPE02
 10
3.315629
 20
0.154316
 30
0.000000
  0
VERTEX
  8
LAYER-1
  6
LTYPE02
 10
3.224990
 20
0.146762
 30
0.000000
  0
SEQEND
  8
LAYER-1
  0
POLYLINE
  8
LAYER-1
  6
LTYPE02
 66
  1
 70
  0
 62
  0
  6
LTYPE02
 10
3.315629
 20
0.150196
 30
0.000000
  0
VERTEX
  8
LAYER-1
  6
LTYPE02
 10
3.315629
 20
0.150196
 30
0.000000
  0
VERTEX
  8
LAYER-1
  6
LTYPE02
 10
3.224990
 20
0.141954
 30
0.000000
  0
SEQEND
  8
LAYER-1
  0
POLYLINE
  8
LAYER-1
  6
LTYPE02
 66
  1
 70
  0
 62
  0
  6
LTYPE02
 10
3.315629
 20
0.141268
 30
0.000000
  0
VERTEX
  8
LAYER-1
  6
LTYPE02
 10
3.315629
 20
0.141268
 30
0.000000
  0
VERTEX
  8
LAYER-1
  6
LTYPE02
 10
3.224990
 20
0.133715
 30
0.000000
  0
SEQEND
  8
LAYER-1
  0
POLYLINE
  8
LAYER-1
  6
LTYPE02
 66
  1
 70
  0
 62
  0
  6
LTYPE02
 10
3.315629
 20
0.137149
 30
0.000000
  0
VERTEX
  8
LAYER-1
  6
LTYPE02
 10
3.315629
 20
0.137149
 30
0.000000
  0
VERTEX
  8
LAYER-1
  6
LTYPE02
 10
3.224990
 20
0.128910
 30
0.000000
  0
SEQEND
  8
LAYER-1
  0
POLYLINE
  8
LAYER-1
  6
LTYPE02
 66
  1
 70
  0
 62
  0
  6
LTYPE02
 10
3.315629
 20
0.127707
 30
0.000000
  0
VERTEX
  8
LAYER-1
  6
LTYPE02
 10
3.315629
 20
0.127707
 30
0.000000
  0
VERTEX
  8
LAYER-1
  6
LTYPE02
 10
3.224990
 20
0.120154
 30
0.000000
  0
SEQEND
  8
LAYER-1
  0
POLYLINE
  8
LAYER-1
  6
LTYPE02
 66
  1
 70
  0
 62
  0
  6
LTYPE02
 10
3.315629
 20
0.123587
 30
0.000000
  0
VERTEX
  8
LAYER-1
  6
LTYPE02
 10
3.315629
 20
0.123587
 30
0.000000
  0
VERTEX
  8
LAYER-1
  6
LTYPE02
 10
3.255031
 20
0.118094
 30
0.000000
  0
SEQEND
  8
LAYER-1
  0
POLYLINE
  8
LAYER-1
 66
  1
 70
  0
 62
  0
 10
3.180904
 20
0.610468
 30
0.000000
  0
VERTEX
  8
LAYER-1
 10
3.180904
 20
0.610468
 30
0.000000
  0
VERTEX
  8
LAYER-1
 10
3.359438
 20
0.610468
 30
0.000000
  0
SEQEND
  8
LAYER-1
  0
POLYLINE
  8
LAYER-1
 66
  1
 70
  0
 62
  0
 10
3.374276
 20
4.175788
 30
0.000000
  0
VERTEX
  8
LAYER-1
 10
3.374276
 20
4.175788
 30
0.000000
  0
VERTEX
  8
LAYER-1
 10
3.365512
 20
4.194162
 30
0.000000
  0
VERTEX
  8
LAYER-1
 10
3.349107
 20
4.200957
 30
0.000000
  0
VERTEX
  8
LAYER-1
 10
3.332702
 20
4.194162
 30
0.000000
  0
VERTEX
  8
LAYER-1
 10
3.327875
 20
4.175788
 30
0.000000
  0
SEQEND
  8
LAYER-1
  0
POLYLINE
  8
LAYER-1
 66
  1
 70
  0
 62
  0
 10
3.327875
 20
4.175788
 30
0.000000
  0
VERTEX
  8
LAYER-1
 10
3.327875
 20
4.175788
 30
0.000000
  0
VERTEX
  8
LAYER-1
 10
3.327875
 20
3.989132
 30
0.000000
  0
SEQEND
  8
LAYER-1
  0
POLYLINE
  8
LAYER-1
 66
  1
 70
  0
 62
  0
 10
3.374276
 20
4.175788
 30
0.000000
  0
VERTEX
  8
LAYER-1
 10
3.374276
 20
4.175788
 30
0.000000
  0
VERTEX
  8
LAYER-1
 10
3.374276
 20
3.989132
 30
0.000000
  0
SEQEND
  8
LAYER-1
  0
POLYLINE
  8
LAYER-1
 66
  1
 70
  0
 62
  0
 10
3.327875
 20
3.989132
 30
0.000000
  0
VERTEX
  8
LAYER-1
 10
3.327875
 20
3.989132
 30
0.000000
  0
VERTEX
  8
LAYER-1
 10
3.332702
 20
3.974695
 30
0.000000
  0
VERTEX
  8
LAYER-1
 10
3.349107
 20
3.967900
 30
0.000000
  0
VERTEX
  8
LAYER-1
 10
3.365512
 20
3.974695
 30
0.000000
  0
VERTEX
  8
LAYER-1
 10
3.374276
 20
3.989132
 30
0.000000
  0
SEQEND
  8
LAYER-1
  0
POLYLINE
  8
LAYER-1
 66
  1
 70
  0
 62
  0
 10
3.210289
 20
4.175788
 30
0.000000
  0
VERTEX
  8
LAYER-1
 10
3.210289
 20
4.175788
 30
0.000000
  0
VERTEX
  8
LAYER-1
 10
3.201525
 20
4.194162
 30
0.000000
  0
VERTEX
  8
LAYER-1
 10
3.185120
 20
4.200957
 30
0.000000
  0
VERTEX
  8
LAYER-1
 10
3.168715
 20
4.194162
 30
0.000000
  0
VERTEX
  8
LAYER-1
 10
3.163888
 20
4.175788
 30
0.000000
  0
SEQEND
  8
LAYER-1
  0
POLYLINE
  8
LAYER-1
 66
  1
 70
  0
 62
  0
 10
3.163888
 20
4.175788
 30
0.000000
  0
VERTEX
  8
LAYER-1
 10
3.163888
 20
4.175788
 30
0.000000
  0
VERTEX
  8
LAYER-1
 10
3.163888
 20
3.989132
 30
0.000000
  0
SEQEND
  8
LAYER-1
  0
POLYLINE
  8
LAYER-1
 66
  1
 70
  0
 62
  0
 10
3.210290
 20
4.175788
 30
0.000000
  0
VERTEX
  8
LAYER-1
 10
3.210290
 20
4.175788
 30
0.000000
  0
VERTEX
  8
LAYER-1
 10
3.210290
 20
3.989132
 30
0.000000
  0
SEQEND
  8
LAYER-1
  0
POLYLINE
  8
LAYER-1
 66
  1
 70
  0
 62
  0
 10
3.163888
 20
3.989132
 30
0.000000
  0
VERTEX
  8
LAYER-1
 10
3.163888
 20
3.989132
 30
0.000000
  0
VERTEX
  8
LAYER-1
 10
3.168715
 20
3.974695
 30
0.000000
  0
VERTEX
  8
LAYER-1
 10
3.185120
 20
3.967900
 30
0.000000
  0
VERTEX
  8
LAYER-1
 10
3.201525
 20
3.974695
 30
0.000000
  0
VERTEX
  8
LAYER-1
 10
3.210289
 20
3.989132
 30
0.000000
  0
SEQEND
  8
LAYER-1
  0
POLYLINE
  8
LAYER-1
 66
  1
 70
  1
 62
  0
  0
VERTEX
  8
LAYER-1
 10
3.240564
 20
4.031842
 30
0.000000
  0
VERTEX
  8
LAYER-1
 10
3.296019
 20
4.031842
 30
0.000000
  0
VERTEX
  8
LAYER-1
 10
3.296019
 20
3.748352
 30
0.000000
  0
VERTEX
  8
LAYER-1
 10
3.240564
 20
3.748352
 30
0.000000
  0
SEQEND
  8
LAYER-1
  0
POLYLINE
  8
LAYER-1
 66
  1
 70
  0
 62
  0
 10
2.629040
 20
3.748445
 30
0.000000
  0
VERTEX
  8
LAYER-1
 10
2.629040
 20
3.748445
 30
0.000000
  0
VERTEX
  8
LAYER-1
 10
3.911384
 20
3.748445
 30
0.000000
  0
SEQEND
  8
LAYER-1
  0
POLYLINE
  8
LAYER-1
 66
  1
 70
  0
 62
  0
 10
3.333488
 20
2.259261
 30
0.000000
  0
VERTEX
  8
LAYER-1
 10
3.333488
 20
2.259261
 30
0.000000
  0
VERTEX
  8
LAYER-1
 10
3.911384
 20
2.259261
 30
0.000000
  0
SEQEND
  8
LAYER-1
  0
POLYLINE
  8
LAYER-1
 66
  1
 70
  0
 62
  0
 10
3.173192
 20
2.259261
 30
0.000000
  0
VERTEX
  8
LAYER-1
 10
3.173192
 20
2.259261
 30
0.000000
  0
VERTEX
  8
LAYER-1
 10
2.629040
 20
2.259261
 30
0.000000
  0
SEQEND
  8
LAYER-1
  0
POLYLINE
  8
LAYER-1
 66
  1
 70
  0
 62
  0
 10
3.346143
 20
2.174896
 30
0.000000
  0
VERTEX
  8
LAYER-1
 10
3.346143
 20
2.174896
 30
0.000000
  0
VERTEX
  8
LAYER-1
 10
3.911384
 20
2.174896
 30
0.000000
  0
SEQEND
  8
LAYER-1
  0
POLYLINE
  8
LAYER-1
 66
  1
 70
  0
 62
  0
 10
3.185848
 20
2.174896
 30
0.000000
  0
VERTEX
  8
LAYER-1
 10
3.185848
 20
2.174896
 30
0.000000
  0
VERTEX
  8
LAYER-1
 10
2.629040
 20
2.174896
 30
0.000000
  0
SEQEND
  8
LAYER-1
  0
POLYLINE
  8
LAYER-1
 66
  1
 70
  0
 62
  0
 10
3.333488
 20
2.259261
 30
0.000000
  0
VERTEX
  8
LAYER-1
 10
3.333488
 20
2.259261
 30
0.000000
  0
VERTEX
  8
LAYER-1
 10
3.333488
 20
2.185443
 30
0.000000
  0
SEQEND
  8
LAYER-1
  0
POLYLINE
  8
LAYER-1
 66
  1
 70
  0
 62
  0
 10
3.173192
 20
2.259261
 30
0.000000
  0
VERTEX
  8
LAYER-1
 10
3.173192
 20
2.259261
 30
0.000000
  0
VERTEX
  8
LAYER-1
 10
3.173192
 20
2.293007
 30
0.000000
  0
SEQEND
  8
LAYER-1
  0
POLYLINE
  8
LAYER-1
 66
  1
 70
  0
 62
  0
 10
3.173192
 20
2.293007
 30
0.000000
  0
VERTEX
  8
LAYER-1
 10
3.173192
 20
2.293007
 30
0.000000
  0
VERTEX
  8
LAYER-1
 10
3.333488
 20
2.185443
 30
0.000000
  0
SEQEND
  8
LAYER-1
  0
POLYLINE
  8
LAYER-1
 66
  1
 70
  0
 62
  0
 10
3.346143
 20
2.103188
 30
0.000000
  0
VERTEX
  8
LAYER-1
 10
3.346143
 20
2.103188
 30
0.000000
  0
VERTEX
  8
LAYER-1
 10
3.346143
 20
2.174896
 30
0.000000
  0
SEQEND
  8
LAYER-1
  0
POLYLINE
  8
LAYER-1
 66
  1
 70
  0
 62
  0
 10
3.185848
 20
2.174896
 30
0.000000
  0
VERTEX
  8
LAYER-1
 10
3.185848
 20
2.174896
 30
0.000000
  0
VERTEX
  8
LAYER-1
 10
3.185848
 20
2.210753
 30
0.000000
  0
SEQEND
  8
LAYER-1
  0
POLYLINE
  8
LAYER-1
 66
  1
 70
  0
 62
  0
 10
3.185848
 20
2.210753
 30
0.000000
  0
VERTEX
  8
LAYER-1
 10
3.185848
 20
2.210753
 30
0.000000
  0
VERTEX
  8
LAYER-1
 10
3.346143
 20
2.103188
 30
0.000000
  0
SEQEND
  8
LAYER-1
  0
POLYLINE
  8
LAYER-1
 66
  1
 70
  0
 62
  0
 10
3.276001
 20
2.560727
 30
0.000000
  0
VERTEX
  8
LAYER-1
 10
3.276001
 20
2.560727
 30
0.000000
  0
VERTEX
  8
LAYER-1
 10
3.276001
 20
2.696552
 30
0.000000
  0
SEQEND
  8
LAYER-1
  0
POLYLINE
  8
LAYER-1
 66
  1
 70
  0
 62
  0
 10
2.470316
 20
2.697395
 30
0.000000
  0
VERTEX
  8
LAYER-1
 10
2.470316
 20
2.697395
 30
0.000000
  0
VERTEX
  8
LAYER-1
 10
2.470316
 20
2.555664
 30
0.000000
  0
SEQEND
  8
LAYER-1
  0
POLYLINE
  8
LAYER-1
 66
  1
 70
  0
 62
  0
 10
4.076620
 20
2.697395
 30
0.000000
  0
VERTEX
  8
LAYER-1
 10
4.076620
 20
2.697395
 30
0.000000
  0
VERTEX
  8
LAYER-1
 10
4.076620
 20
2.555664
 30
0.000000
  0
SEQEND
  8
LAYER-1
  0
POLYLINE
  8
LAYER-1
 66
  1
 70
  0
 62
  0
 10
2.490212
 20
2.626530
 30
0.000000
  0
VERTEX
  8
LAYER-1
 10
2.490212
 20
2.626530
 30
0.000000
  0
VERTEX
  8
LAYER-1
 10
3.257159
 20
2.626530
 30
0.000000
  0
SEQEND
  8
LAYER-1
  0
POLYLINE
  8
LAYER-1
 66
  1
 70
  1
 62
  0
  0
VERTEX
  8
LAYER-1
 10
2.470527
 20
2.626530
 30
0.000000
  0
VERTEX
  8
LAYER-1
 10
2.539972
 20
2.584864
 30
0.000000
  0
VERTEX
  8
LAYER-1
 10
2.539971
 20
2.626531
 30
0.000000
  0
VERTEX
  8
LAYER-1
 10
2.539971
 20
2.668198
 30
0.000000
  0
VERTEX
  8
LAYER-1
 10
2.470527
 20
2.626530
 30
0.000000
  0
SEQEND
  8
LAYER-1
  0
POLYLINE
  8
LAYER-1
 66
  1
 70
  1
 62
  0
  0
VERTEX
  8
LAYER-1
 10
3.276844
 20
2.626530
 30
0.000000
  0
VERTEX
  8
LAYER-1
 10
3.207400
 20
2.584863
 30
0.000000
  0
VERTEX
  8
LAYER-1
 10
3.207400
 20
2.626529
 30
0.000000
  0
VERTEX
  8
LAYER-1
 10
3.207399
 20
2.668196
 30
0.000000
  0
VERTEX
  8
LAYER-1
 10
3.276844
 20
2.626530
 30
0.000000
  0
SEQEND
  8
LAYER-1
  0
POLYLINE
  8
LAYER-1
 66
  1
 70
  0
 62
  0
 10
3.295476
 20
2.626530
 30
0.000000
  0
VERTEX
  8
LAYER-1
 10
3.295476
 20
2.626530
 30
0.000000
  0
VERTEX
  8
LAYER-1
 10
4.057146
 20
2.626530
 30
0.000000
  0
SEQEND
  8
LAYER-1
  0
POLYLINE
  8
LAYER-1
 66
  1
 70
  1
 62
  0
  0
VERTEX
  8
LAYER-1
 10
3.275791
 20
2.626530
 30
0.000000
  0
VERTEX
  8
LAYER-1
 10
3.345236
 20
2.584864
 30
0.000000
  0
VERTEX
  8
LAYER-1
 10
3.345235
 20
2.626531
 30
0.000000
  0
VERTEX
  8
LAYER-1
 10
3.345235
 20
2.668198
 30
0.000000
  0
VERTEX
  8
LAYER-1
 10
3.275791
 20
2.626530
 30
0.000000
  0
SEQEND
  8
LAYER-1
  0
POLYLINE
  8
LAYER-1
 66
  1
 70
  1
 62
  0
  0
VERTEX
  8
LAYER-1
 10
4.076831
 20
2.626530
 30
0.000000
  0
VERTEX
  8
LAYER-1
 10
4.007387
 20
2.584863
 30
0.000000
  0
VERTEX
  8
LAYER-1
 10
4.007387
 20
2.626529
 30
0.000000
  0
VERTEX
  8
LAYER-1
 10
4.007387
 20
2.668196
 30
0.000000
  0
VERTEX
  8
LAYER-1
 10
4.076831
 20
2.626530
 30
0.000000
  0
SEQEND
  8
LAYER-1
  0
TEXT
  8
LAYER-1
 62
  0
 10
2.794209
 20
2.692903
 30
0.000000
 40
0.104167
  1
4"
 72
  5
 11
3.002542
 21
2.692903
 31
0.000000
  0
TEXT
  8
LAYER-1
 62
  0
 10
2.627542
 20
2.470681
 30
0.000000
 40
0.104167
  1
102mm
 72
  5
 11
3.169209
 21
2.470681
 31
0.000000
  0
POLYLINE
  8
LAYER-1
 66
  1
 70
  0
 62
  0
 10
4.244625
 20
4.290487
 30
0.000000
  0
VERTEX
  8
LAYER-1
 10
4.244625
 20
4.290487
 30
0.000000
  0
VERTEX
  8
LAYER-1
 10
4.075895
 20
4.290487
 30
0.000000
  0
SEQEND
  8
LAYER-1
  0
POLYLINE
  8
LAYER-1
 66
  1
 70
  0
 62
  0
 10
4.244625
 20
3.946702
 30
0.000000
  0
VERTEX
  8
LAYER-1
 10
4.244625
 20
3.946702
 30
0.000000
  0
VERTEX
  8
LAYER-1
 10
4.080114
 20
3.946702
 30
0.000000
  0
SEQEND
  8
LAYER-1
  0
POLYLINE
  8
LAYER-1
 66
  1
 70
  0
 62
  0
 10
4.122295
 20
4.290487
 30
0.000000
  0
VERTEX
  8
LAYER-1
 10
4.122295
 20
4.290487
 30
0.000000
  0
VERTEX
  8
LAYER-1
 10
4.122295
 20
3.946702
 30
0.000000
  0
SEQEND
  8
LAYER-1
  0
LINE
  8
LAYER-1
 62
  0
 10
4.151758
 20
4.261024
 30
0.000000
 11
4.092832
 21
4.319950
 31
0.000000
  0
LINE
  8
LAYER-1
 62
  0
 10
4.151758
 20
3.917240
 30
0.000000
 11
4.092832
 21
3.976165
 31
0.000000
  0
TEXT
  8
LAYER-1
 62
  0
 10
4.252542
 20
4.123459
 30
0.000000
 40
0.104167
  1
1-1/2"  -  38mm
 72
  5
 11
5.308098
 21
4.123459
 31
0.000000
  0
POLYLINE
  8
LAYER-1
 66
  1
 70
  0
 62
  0
 10
3.099695
 20
4.856784
 30
0.000000
  0
VERTEX
  8
LAYER-1
 10
3.099695
 20
4.856784
 30
0.000000
  0
VERTEX
  8
LAYER-1
 10
3.099695
 20
4.646104
 30
0.000000
  0
SEQEND
  8
LAYER-1
  0
POLYLINE
  8
LAYER-1
 66
  1
 70
  0
 62
  0
 10
3.442301
 20
4.851225
 30
0.000000
  0
VERTEX
  8
LAYER-1
 10
3.442301
 20
4.851225
 30
0.000000
  0
VERTEX
  8
LAYER-1
 10
3.442301
 20
4.645813
 30
0.000000
  0
SEQEND
  8
LAYER-1
  0
POLYLINE
  8
LAYER-1
 66
  1
 70
  0
 62
  0
 10
3.099200
 20
4.824857
 30
0.000000
  0
VERTEX
  8
LAYER-1
 10
3.099200
 20
4.824857
 30
0.000000
  0
VERTEX
  8
LAYER-1
 10
3.443534
 20
4.824857
 30
0.000000
  0
SEQEND
  8
LAYER-1
  0
LINE
  8
LAYER-1
 62
  0
 10
3.128663
 20
4.854320
 30
0.000000
 11
3.069738
 21
4.795394
 31
0.000000
  0
LINE
  8
LAYER-1
 62
  0
 10
3.472996
 20
4.854320
 30
0.000000
 11
3.414071
 21
4.795394
 31
0.000000
  0
TEXT
  8
LAYER-1
 62
  0
 10
2.766431
 20
4.942903
 30
0.000000
 40
0.104167
  1
1-1/2"  -  38mm
 72
  5
 11
3.821987
 21
4.942903
 31
0.000000
  0
POLYLINE
  8
LAYER-1
 66
  1
 70
  1
 62
  0
  0
VERTEX
  8
LAYER-1
 10
3.442552
 20
4.289469
 30
0.000000
  0
VERTEX
  8
LAYER-1
 10
3.780010
 20
4.289469
 30
0.000000
  0
VERTEX
  8
LAYER-1
 10
3.780010
 20
4.044811
 30
0.000000
  0
VERTEX
  8
LAYER-1
 10
3.442552
 20
4.044811
 30
0.000000
  0
SEQEND
  8
LAYER-1
  0
POLYLINE
  8
LAYER-1
 66
  1
 70
  0
 62
  0
 10
3.442552
 20
4.289469
 30
0.000000
  0
VERTEX
  8
LAYER-1
 10
3.442552
 20
4.289469
 30
0.000000
  0
VERTEX
  8
LAYER-1
 10
3.780010
 20
4.044811
 30
0.000000
  0
SEQEND
  8
LAYER-1
  0
POLYLINE
  8
LAYER-1
 66
  1
 70
  0
 62
  0
 10
3.780010
 20
4.289469
 30
0.000000
  0
VERTEX
  8
LAYER-1
 10
3.780010
 20
4.289469
 30
0.000000
  0
VERTEX
  8
LAYER-1
 10
3.442552
 20
4.044811
 30
0.000000
  0
SEQEND
  8
LAYER-1
  0
POLYLINE
  8
LAYER-1
 66
  1
 70
  0
 62
  0
 40
0.027778
 41
0.027778
 10
3.502562
 20
3.946228
 30
0.000000
  0
VERTEX
  8
LAYER-1
 10
3.502562
 20
3.946228
 30
0.000000
  0
VERTEX
  8
LAYER-1
 10
3.441673
 20
3.946228
 30
0.000000
  0
SEQEND
  8
LAYER-1
  0
POLYLINE
  8
LAYER-1
 66
  1
 70
  0
 62
  0
 40
0.027778
 41
0.027778
 10
3.441673
 20
3.946228
 30
0.000000
  0
VERTEX
  8
LAYER-1
 10
3.441673
 20
3.946228
 30
0.000000
  0
VERTEX
  8
LAYER-1
 10
3.441673
 20
4.099585
 30
0.000000
  0
SEQEND
  8
LAYER-1
  0
POLYLINE
  8
LAYER-1
 66
  1
 70
  1
 62
  0
  0
VERTEX
  8
LAYER-1
 10
2.756489
 20
4.289421
 30
0.000000
  0
VERTEX
  8
LAYER-1
 10
3.093947
 20
4.289421
 30
0.000000
  0
VERTEX
  8
LAYER-1
 10
3.093947
 20
4.044763
 30
0.000000
  0
VERTEX
  8
LAYER-1
 10
2.756489
 20
4.044763
 30
0.000000
  0
SEQEND
  8
LAYER-1
  0
POLYLINE
  8
LAYER-1
 66
  1
 70
  0
 62
  0
 10
3.093947
 20
4.289421
 30
0.000000
  0
VERTEX
  8
LAYER-1
 10
3.093947
 20
4.289421
 30
0.000000
  0
VERTEX
  8
LAYER-1
 10
2.756489
 20
4.044763
 30
0.000000
  0
SEQEND
  8
LAYER-1
  0
POLYLINE
  8
LAYER-1
 66
  1
 70
  0
 62
  0
 10
2.756489
 20
4.289421
 30
0.000000
  0
VERTEX
  8
LAYER-1
 10
2.756489
 20
4.289421
 30
0.000000
  0
VERTEX
  8
LAYER-1
 10
3.093947
 20
4.044763
 30
0.000000
  0
SEQEND
  8
LAYER-1
  0
POLYLINE
  8
LAYER-1
 66
  1
 70
  0
 62
  0
 10
4.244204
 20
4.628859
 30
0.000000
  0
VERTEX
  8
LAYER-1
 10
4.244204
 20
4.628859
 30
0.000000
  0
VERTEX
  8
LAYER-1
 10
4.075475
 20
4.628859
 30
0.000000
  0
SEQEND
  8
LAYER-1
  0
POLYLINE
  8
LAYER-1
 66
  1
 70
  0
 62
  0
 10
4.244204
 20
4.290784
 30
0.000000
  0
VERTEX
  8
LAYER-1
 10
4.244204
 20
4.290784
 30
0.000000
  0
VERTEX
  8
LAYER-1
 10
4.079693
 20
4.290784
 30
0.000000
  0
SEQEND
  8
LAYER-1
  0
POLYLINE
  8
LAYER-1
 66
  1
 70
  0
 62
  0
 10
4.121874
 20
4.628859
 30
0.000000
  0
VERTEX
  8
LAYER-1
 10
4.121874
 20
4.628859
 30
0.000000
  0
VERTEX
  8
LAYER-1
 10
4.121874
 20
4.290784
 30
0.000000
  0
SEQEND
  8
LAYER-1
  0
LINE
  8
LAYER-1
 62
  0
 10
4.151338
 20
4.599397
 30
0.000000
 11
4.092412
 21
4.658322
 31
0.000000
  0
LINE
  8
LAYER-1
 62
  0
 10
4.151338
 20
4.261321
 30
0.000000
 11
4.092412
 21
4.320246
 31
0.000000
  0
TEXT
  8
LAYER-1
 62
  0
 10
4.252542
 20
4.470681
 30
0.000000
 40
0.104167
  1
1-1/2"  -  38mm
 72
  5
 11
5.308098
 21
4.470681
 31
0.000000
  0
TEXT
  8
LAYER-1
 62
  0
 10
2.808098
 20
5.109570
 30
0.000000
 40
0.083333
  1
MINIMUM RECESS
 72
  5
 11
3.863653
 21
5.109570
 31
0.000000
  0
POLYLINE
  8
LAYER-1
 66
  1
 70
  0
 62
  0
 40
0.027778
 41
0.027778
 10
3.033950
 20
3.947242
 30
0.000000
  0
VERTEX
  8
LAYER-1
 10
3.033950
 20
3.947242
 30
0.000000
  0
VERTEX
  8
LAYER-1
 10
3.094840
 20
3.947242
 30
0.000000
  0
SEQEND
  8
LAYER-1
  0
POLYLINE
  8
LAYER-1
 66
  1
 70
  0
 62
  0
 40
0.027778
 41
0.027778
 10
3.094840
 20
3.947242
 30
0.000000
  0
VERTEX
  8
LAYER-1
 10
3.094840
 20
3.947242
 30
0.000000
  0
VERTEX
  8
LAYER-1
 10
3.094840
 20
4.100599
 30
0.000000
  0
SEQEND
  8
LAYER-1
  0
TEXT
  8
LAYER-1
 62
  0
 10
0.058098
 20
4.998459
 30
0.000000
 40
0.145833
  1
RECESSED TRACK
 72
  5
 11
1.905320
 21
4.998459
 31
0.000000
  0
TEXT
  8
LAYER-1
 62
  0
 10
1.571987
 20
2.748459
 30
0.000000
 40
0.083333
  1
MINIMUM
 72
  5
 11
2.155320
 21
2.748459
 31
0.000000
  0
TEXT
  8
LAYER-1
 62
  0
 10
1.571987
 20
2.623459
 30
0.000000
 40
0.083333
  1
CLEARANCE
 72
  5
 11
2.308098
 21
2.623459
 31
0.000000
  0
TEXT
  8
LAYER-1
 62
  0
 10
1.571987
 20
2.498459
 30
0.000000
 40
0.083333
  1
EACH SIDE
 72
  5
 11
2.224764
 21
2.498459
 31
0.000000
  0
TEXT
  8
LAYER-1
 62
  0
 10
1.571987
 20
2.373459
 30
0.000000
 40
0.083333
  1
OF CENTER
 72
  5
 11
2.280320
 21
2.373459
 31
0.000000
  0
TEXT
  8
LAYER-1
 62
  0
 10
0.335876
 20
4.401237
 30
0.000000
 40
0.083333
  1
LEAVE 
 72
  5
 11
0.766431
 21
4.401237
 31
0.000000
  0
TEXT
  8
LAYER-1
 62
  0
 10
0.766431
 20
4.401237
 30
0.000000
 40
0.062500
  1
+/-
 72
  5
 11
0.946987
 21
4.401237
 31
0.000000
  0
TEXT
  8
LAYER-1
 62
  0
 10
0.946987
 20
4.401237
 30
0.000000
 40
0.083333
  1
1/8" (3mm)
 72
  5
 11
1.558098
 21
4.401237
 31
0.000000
  0
TEXT
  8
LAYER-1
 62
  0
 10
0.335876
 20
4.276237
 30
0.000000
 40
0.083333
  1
CLEARANCE ON
 72
  5
 11
1.266431
 21
4.276237
 31
0.000000
  0
TEXT
  8
LAYER-1
 62
  0
 10
0.335876
 20
4.151237
 30
0.000000
 40
0.083333
  1
EACH SIDE OF TRACK
 72
  5
 11
1.571987
 21
4.151237
 31
0.000000
  0
TEXT
  8
LAYER-1
 62
  0
 10
0.294209
 20
3.970681
 30
0.000000
 40
0.083333
  1
DO NOT PINCH TRACK
 72
  5
 11
1.571987
 21
3.970681
 31
0.000000
  0
TEXT
  8
LAYER-1
 62
  0
 10
0.294209
 20
3.845681
 30
0.000000
 40
0.083333
  1
OR SEAL WITH CEILING
 72
  5
 11
1.599764
 21
3.845681
 31
0.000000
  0
POLYLINE
  8
LAYER-1
 66
  1
 70
  0
 62
  0
 10
4.245598
 20
3.734570
 30
0.000000
  0
VERTEX
  8
LAYER-1
 10
4.245598
 20
3.734570
 30
0.000000
  0
VERTEX
  8
LAYER-1
 10
3.521494
 20
3.940835
 30
0.000000
  0
SEQEND
  8
LAYER-1
  0
POLYLINE
  8
LAYER-1
 66
  1
 70
  1
 62
  0
  0
VERTEX
  8
LAYER-1
 10
3.502562
 20
3.946228
 30
0.000000
  0
VERTEX
  8
LAYER-1
 10
3.580765
 20
3.967276
 30
0.000000
  0
VERTEX
  8
LAYER-1
 10
3.569350
 20
3.927203
 30
0.000000
  0
VERTEX
  8
LAYER-1
 10
3.557934
 20
3.887131
 30
0.000000
  0
VERTEX
  8
LAYER-1
 10
3.502562
 20
3.946228
 30
0.000000
  0
SEQEND
  8
LAYER-1
  0
TEXT
  8
LAYER-1
 62
  0
 10
4.321987
 20
4.345681
 30
0.000000
 40
0.072917
  1
MINIMUM  (WOOD EXAMPLE)
 72
  5
 11
5.766431
 21
4.345681
 31
0.000000
  0
POLYLINE
  8
LAYER-1
 66
  1
 70
  0
 62
  0
 10
3.364103
 20
6.423166
 30
0.000000
  0
VERTEX
  8
LAYER-1
 10
3.364103
 20
6.423166
 30
0.000000
  0
VERTEX
  8
LAYER-1
 10
3.365452
 20
6.442738
 30
0.000000
  0
VERTEX
  8
LAYER-1
 10
3.365750
 20
6.445811
 30
0.000000
  0
SEQEND
  8
LAYER-1
  0
POLYLINE
  8
LAYER-1
 66
  1
 70
  0
 62
  0
 10
3.402436
 20
6.445809
 30
0.000000
  0
VERTEX
  8
LAYER-1
 10
3.402436
 20
6.445809
 30
0.000000
  0
VERTEX
  8
LAYER-1
 10
3.365750
 20
6.445811
 30
0.000000
  0
SEQEND
  8
LAYER-1
  0
POLYLINE
  8
LAYER-1
 66
  1
 70
  0
 62
  0
 10
3.402436
 20
6.445809
 30
0.000000
  0
VERTEX
  8
LAYER-1
 10
3.402436
 20
6.445809
 30
0.000000
  0
VERTEX
  8
LAYER-1
 10
3.410065
 20
6.453438
 30
0.000000
  0
SEQEND
  8
LAYER-1
  0
POLYLINE
  8
LAYER-1
 66
  1
 70
  0
 62
  0
 10
3.410065
 20
6.778583
 30
0.000000
  0
VERTEX
  8
LAYER-1
 10
3.410065
 20
6.778583
 30
0.000000
  0
VERTEX
  8
LAYER-1
 10
3.410065
 20
6.453438
 30
0.000000
  0
SEQEND
  8
LAYER-1
  0
POLYLINE
  8
LAYER-1
 66
  1
 70
  0
 62
  0
 10
3.410065
 20
6.778583
 30
0.000000
  0
VERTEX
  8
LAYER-1
 10
3.410065
 20
6.778583
 30
0.000000
  0
VERTEX
  8
LAYER-1
 10
3.402436
 20
6.786211
 30
0.000000
  0
SEQEND
  8
LAYER-1
  0
POLYLINE
  8
LAYER-1
 66
  1
 70
  0
 62
  0
 10
3.400830
 20
6.786211
 30
0.000000
  0
VERTEX
  8
LAYER-1
 10
3.400830
 20
6.786211
 30
0.000000
  0
VERTEX
  8
LAYER-1
 10
3.402436
 20
6.786211
 30
0.000000
  0
SEQEND
  8
LAYER-1
  0
POLYLINE
  8
LAYER-1
 66
  1
 70
  0
 62
  0
 10
3.400830
 20
6.786211
 30
0.000000
  0
VERTEX
  8
LAYER-1
 10
3.400830
 20
6.786211
 30
0.000000
  0
VERTEX
  8
LAYER-1
 10
3.393202
 20
6.778583
 30
0.000000
  0
SEQEND
  8
LAYER-1
  0
POLYLINE
  8
LAYER-1
 66
  1
 70
  0
 62
  0
 10
3.393202
 20
6.777123
 30
0.000000
  0
VERTEX
  8
LAYER-1
 10
3.393202
 20
6.777123
 30
0.000000
  0
VERTEX
  8
LAYER-1
 10
3.393202
 20
6.778583
 30
0.000000
  0
SEQEND
  8
LAYER-1
  0
POLYLINE
  8
LAYER-1
 66
  1
 70
  0
 62
  0
 10
3.385574
 20
6.769495
 30
0.000000
  0
VERTEX
  8
LAYER-1
 10
3.385574
 20
6.769495
 30
0.000000
  0
VERTEX
  8
LAYER-1
 10
3.393202
 20
6.777123
 30
0.000000
  0
SEQEND
  8
LAYER-1
  0
POLYLINE
  8
LAYER-1
 66
  1
 70
  0
 62
  0
 10
3.365576
 20
6.769495
 30
0.000000
  0
VERTEX
  8
LAYER-1
 10
3.365576
 20
6.769495
 30
0.000000
  0
VERTEX
  8
LAYER-1
 10
3.385574
 20
6.769495
 30
0.000000
  0
SEQEND
  8
LAYER-1
  0
POLYLINE
  8
LAYER-1
 66
  1
 70
  0
 62
  0
 10
3.357947
 20
6.777123
 30
0.000000
  0
VERTEX
  8
LAYER-1
 10
3.357947
 20
6.777123
 30
0.000000
  0
VERTEX
  8
LAYER-1
 10
3.365576
 20
6.769495
 30
0.000000
  0
SEQEND
  8
LAYER-1
  0
POLYLINE
  8
LAYER-1
 66
  1
 70
  0
 62
  0
 10
3.357948
 20
6.778583
 30
0.000000
  0
VERTEX
  8
LAYER-1
 10
3.357948
 20
6.778583
 30
0.000000
  0
VERTEX
  8
LAYER-1
 10
3.357948
 20
6.777123
 30
0.000000
  0
SEQEND
  8
LAYER-1
  0
POLYLINE
  8
LAYER-1
 66
  1
 70
  0
 62
  0
 10
3.357948
 20
6.778583
 30
0.000000
  0
VERTEX
  8
LAYER-1
 10
3.357948
 20
6.778583
 30
0.000000
  0
VERTEX
  8
LAYER-1
 10
3.350319
 20
6.786211
 30
0.000000
  0
SEQEND
  8
LAYER-1
  0
POLYLINE
  8
LAYER-1
 66
  1
 70
  0
 62
  0
 10
3.181631
 20
6.786211
 30
0.000000
  0
VERTEX
  8
LAYER-1
 10
3.181631
 20
6.786211
 30
0.000000
  0
VERTEX
  8
LAYER-1
 10
3.350319
 20
6.786211
 30
0.000000
  0
SEQEND
  8
LAYER-1
  0
POLYLINE
  8
LAYER-1
 66
  1
 70
  0
 62
  0
 10
3.181631
 20
6.786211
 30
0.000000
  0
VERTEX
  8
LAYER-1
 10
3.181631
 20
6.786211
 30
0.000000
  0
VERTEX
  8
LAYER-1
 10
3.174002
 20
6.778583
 30
0.000000
  0
SEQEND
  8
LAYER-1
  0
POLYLINE
  8
LAYER-1
 66
  1
 70
  0
 62
  0
 10
3.174003
 20
6.777123
 30
0.000000
  0
VERTEX
  8
LAYER-1
 10
3.174003
 20
6.777123
 30
0.000000
  0
VERTEX
  8
LAYER-1
 10
3.174003
 20
6.778583
 30
0.000000
  0
SEQEND
  8
LAYER-1
  0
POLYLINE
  8
LAYER-1
 66
  1
 70
  0
 62
  0
 10
3.166374
 20
6.769495
 30
0.000000
  0
VERTEX
  8
LAYER-1
 10
3.166374
 20
6.769495
 30
0.000000
  0
VERTEX
  8
LAYER-1
 10
3.174003
 20
6.777123
 30
0.000000
  0
SEQEND
  8
LAYER-1
  0
POLYLINE
  8
LAYER-1
 66
  1
 70
  0
 62
  0
 10
3.146374
 20
6.769495
 30
0.000000
  0
VERTEX
  8
LAYER-1
 10
3.146374
 20
6.769495
 30
0.000000
  0
VERTEX
  8
LAYER-1
 10
3.166374
 20
6.769495
 30
0.000000
  0
SEQEND
  8
LAYER-1
  0
POLYLINE
  8
LAYER-1
 66
  1
 70
  0
 62
  0
 10
3.138746
 20
6.777123
 30
0.000000
  0
VERTEX
  8
LAYER-1
 10
3.138746
 20
6.777123
 30
0.000000
  0
VERTEX
  8
LAYER-1
 10
3.146374
 20
6.769495
 30
0.000000
  0
SEQEND
  8
LAYER-1
  0
POLYLINE
  8
LAYER-1
 66
  1
 70
  0
 62
  0
 10
3.138746
 20
6.778583
 30
0.000000
  0
VERTEX
  8
LAYER-1
 10
3.138746
 20
6.778583
 30
0.000000
  0
VERTEX
  8
LAYER-1
 10
3.138746
 20
6.777123
 30
0.000000
  0
SEQEND
  8
LAYER-1
  0
POLYLINE
  8
LAYER-1
 66
  1
 70
  0
 62
  0
 10
3.138746
 20
6.778583
 30
0.000000
  0
VERTEX
  8
LAYER-1
 10
3.138746
 20
6.778583
 30
0.000000
  0
VERTEX
  8
LAYER-1
 10
3.131117
 20
6.786211
 30
0.000000
  0
SEQEND
  8
LAYER-1
  0
POLYLINE
  8
LAYER-1
 66
  1
 70
  0
 62
  0
 10
3.131045
 20
6.786211
 30
0.000000
  0
VERTEX
  8
LAYER-1
 10
3.131045
 20
6.786211
 30
0.000000
  0
VERTEX
  8
LAYER-1
 10
3.131117
 20
6.786211
 30
0.000000
  0
SEQEND
  8
LAYER-1
  0
POLYLINE
  8
LAYER-1
 66
  1
 70
  0
 62
  0
 10
3.131045
 20
6.786211
 30
0.000000
  0
VERTEX
  8
LAYER-1
 10
3.131045
 20
6.786211
 30
0.000000
  0
VERTEX
  8
LAYER-1
 10
3.123416
 20
6.778583
 30
0.000000
  0
SEQEND
  8
LAYER-1
  0
POLYLINE
  8
LAYER-1
 66
  1
 70
  0
 62
  0
 10
3.123417
 20
6.778583
 30
0.000000
  0
VERTEX
  8
LAYER-1
 10
3.123417
 20
6.778583
 30
0.000000
  0
VERTEX
  8
LAYER-1
 10
3.123417
 20
6.453438
 30
0.000000
  0
SEQEND
  8
LAYER-1
  0
POLYLINE
  8
LAYER-1
 66
  1
 70
  0
 62
  0
 10
3.123416
 20
6.453438
 30
0.000000
  0
VERTEX
  8
LAYER-1
 10
3.123416
 20
6.453438
 30
0.000000
  0
VERTEX
  8
LAYER-1
 10
3.131045
 20
6.445809
 30
0.000000
  0
SEQEND
  8
LAYER-1
  0
POLYLINE
  8
LAYER-1
 66
  1
 70
  0
 62
  0
 10
3.131045
 20
6.445809
 30
0.000000
  0
VERTEX
  8
LAYER-1
 10
3.131045
 20
6.445809
 30
0.000000
  0
VERTEX
  8
LAYER-1
 10
3.167711
 20
6.445811
 30
0.000000
  0
SEQEND
  8
LAYER-1
  0
POLYLINE
  8
LAYER-1
 66
  1
 70
  0
 62
  0
 10
3.167711
 20
6.445811
 30
0.000000
  0
VERTEX
  8
LAYER-1
 10
3.167711
 20
6.445811
 30
0.000000
  0
VERTEX
  8
LAYER-1
 10
3.165006
 20
6.429882
 30
0.000000
  0
VERTEX
  8
LAYER-1
 10
3.169358
 20
6.423166
 30
0.000000
  0
SEQEND
  8
LAYER-1
  0
POLYLINE
  8
LAYER-1
 66
  1
 70
  0
 62
  0
 10
3.169358
 20
6.423167
 30
0.000000
  0
VERTEX
  8
LAYER-1
 10
3.169358
 20
6.423167
 30
0.000000
  0
VERTEX
  8
LAYER-1
 10
3.180219
 20
6.430269
 30
0.000000
  0
SEQEND
  8
LAYER-1
  0
POLYLINE
  8
LAYER-1
 66
  1
 70
  0
 62
  0
 10
3.197698
 20
6.430303
 30
0.000000
  0
VERTEX
  8
LAYER-1
 10
3.197698
 20
6.430303
 30
0.000000
  0
VERTEX
  8
LAYER-1
 10
3.192650
 20
6.446693
 30
0.000000
  0
VERTEX
  8
LAYER-1
 10
3.178229
 20
6.443613
 30
0.000000
  0
VERTEX
  8
LAYER-1
 10
3.180219
 20
6.430268
 30
0.000000
  0
SEQEND
  8
LAYER-1
  0
POLYLINE
  8
LAYER-1
 66
  1
 70
  0
 62
  0
 10
3.197698
 20
6.430303
 30
0.000000
  0
VERTEX
  8
LAYER-1
 10
3.197698
 20
6.430303
 30
0.000000
  0
VERTEX
  8
LAYER-1
 10
3.208652
 20
6.423185
 30
0.000000
  0
SEQEND
  8
LAYER-1
  0
POLYLINE
  8
LAYER-1
 66
  1
 70
  0
 62
  0
 10
3.208652
 20
6.423185
 30
0.000000
  0
VERTEX
  8
LAYER-1
 10
3.208652
 20
6.423185
 30
0.000000
  0
VERTEX
  8
LAYER-1
 10
3.209955
 20
6.442832
 30
0.000000
  0
VERTEX
  8
LAYER-1
 10
3.210279
 20
6.445811
 30
0.000000
  0
SEQEND
  8
LAYER-1
  0
POLYLINE
  8
LAYER-1
 66
  1
 70
  0
 62
  0
 10
3.216923
 20
6.445809
 30
0.000000
  0
VERTEX
  8
LAYER-1
 10
3.216923
 20
6.445809
 30
0.000000
  0
VERTEX
  8
LAYER-1
 10
3.210279
 20
6.445811
 30
0.000000
  0
SEQEND
  8
LAYER-1
  0
POLYLINE
  8
LAYER-1
 66
  1
 70
  0
 62
  0
 10
3.216923
 20
6.471643
 30
0.000000
  0
VERTEX
  8
LAYER-1
 10
3.216923
 20
6.471643
 30
0.000000
  0
VERTEX
  8
LAYER-1
 10
3.216923
 20
6.445809
 30
0.000000
  0
SEQEND
  8
LAYER-1
  0
POLYLINE
  8
LAYER-1
 66
  1
 70
  0
 62
  0
 10
3.147177
 20
6.493679
 30
0.000000
  0
VERTEX
  8
LAYER-1
 10
3.147177
 20
6.493679
 30
0.000000
  0
VERTEX
  8
LAYER-1
 10
3.216923
 20
6.471643
 30
0.000000
  0
SEQEND
  8
LAYER-1
  0
POLYLINE
  8
LAYER-1
 66
  1
 70
  0
 62
  0
 10
3.147177
 20
6.493679
 30
0.000000
  0
VERTEX
  8
LAYER-1
 10
3.147177
 20
6.493679
 30
0.000000
  0
VERTEX
  8
LAYER-1
 10
3.147177
 20
6.520140
 30
0.000000
  0
SEQEND
  8
LAYER-1
  0
POLYLINE
  8
LAYER-1
 66
  1
 70
  0
 62
  0
 10
3.147177
 20
6.520140
 30
0.000000
  0
VERTEX
  8
LAYER-1
 10
3.147177
 20
6.520140
 30
0.000000
  0
VERTEX
  8
LAYER-1
 10
3.140233
 20
6.527737
 30
0.000000
  0
SEQEND
  8
LAYER-1
  0
POLYLINE
  8
LAYER-1
 66
  1
 70
  0
 62
  0
 10
3.138746
 20
6.527871
 30
0.000000
  0
VERTEX
  8
LAYER-1
 10
3.138746
 20
6.527871
 30
0.000000
  0
VERTEX
  8
LAYER-1
 10
3.140233
 20
6.527737
 30
0.000000
  0
SEQEND
  8
LAYER-1
  0
POLYLINE
  8
LAYER-1
 66
  1
 70
  0
 62
  0
 10
3.138746
 20
6.527871
 30
0.000000
  0
VERTEX
  8
LAYER-1
 10
3.138746
 20
6.527871
 30
0.000000
  0
VERTEX
  8
LAYER-1
 10
3.138746
 20
6.745152
 30
0.000000
  0
SEQEND
  8
LAYER-1
  0
POLYLINE
  8
LAYER-1
 66
  1
 70
  0
 62
  0
 10
3.146374
 20
6.752780
 30
0.000000
  0
VERTEX
  8
LAYER-1
 10
3.146374
 20
6.752780
 30
0.000000
  0
VERTEX
  8
LAYER-1
 10
3.138746
 20
6.745152
 30
0.000000
  0
SEQEND
  8
LAYER-1
  0
POLYLINE
  8
LAYER-1
 66
  1
 70
  0
 62
  0
 10
3.146374
 20
6.752780
 30
0.000000
  0
VERTEX
  8
LAYER-1
 10
3.146374
 20
6.752780
 30
0.000000
  0
VERTEX
  8
LAYER-1
 10
3.166374
 20
6.752780
 30
0.000000
  0
SEQEND
  8
LAYER-1
  0
POLYLINE
  8
LAYER-1
 66
  1
 70
  0
 62
  0
 10
3.174003
 20
6.745152
 30
0.000000
  0
VERTEX
  8
LAYER-1
 10
3.174003
 20
6.745152
 30
0.000000
  0
VERTEX
  8
LAYER-1
 10
3.166374
 20
6.752780
 30
0.000000
  0
SEQEND
  8
LAYER-1
  0
POLYLINE
  8
LAYER-1
 66
  1
 70
  0
 62
  0
 10
3.174003
 20
6.745152
 30
0.000000
  0
VERTEX
  8
LAYER-1
 10
3.174003
 20
6.745152
 30
0.000000
  0
VERTEX
  8
LAYER-1
 10
3.174003
 20
6.743691
 30
0.000000
  0
SEQEND
  8
LAYER-1
  0
POLYLINE
  8
LAYER-1
 66
  1
 70
  0
 62
  0
 10
3.174002
 20
6.743691
 30
0.000000
  0
VERTEX
  8
LAYER-1
 10
3.174002
 20
6.743691
 30
0.000000
  0
VERTEX
  8
LAYER-1
 10
3.181631
 20
6.736063
 30
0.000000
  0
SEQEND
  8
LAYER-1
  0
POLYLINE
  8
LAYER-1
 66
  1
 70
  0
 62
  0
 10
3.181631
 20
6.736063
 30
0.000000
  0
VERTEX
  8
LAYER-1
 10
3.181631
 20
6.736063
 30
0.000000
  0
VERTEX
  8
LAYER-1
 10
3.195701
 20
6.736063
 30
0.000000
  0
SEQEND
  8
LAYER-1
  0
POLYLINE
  8
LAYER-1
 66
  1
 70
  0
 62
  0
 10
3.195701
 20
6.736063
 30
0.000000
  0
VERTEX
  8
LAYER-1
 10
3.195701
 20
6.736063
 30
0.000000
  0
VERTEX
  8
LAYER-1
 10
3.200060
 20
6.740422
 30
0.000000
  0
SEQEND
  8
LAYER-1
  0
POLYLINE
  8
LAYER-1
 66
  1
 70
  0
 62
  0
 10
3.200060
 20
6.743861
 30
0.000000
  0
VERTEX
  8
LAYER-1
 10
3.200060
 20
6.743861
 30
0.000000
  0
VERTEX
  8
LAYER-1
 10
3.200060
 20
6.740422
 30
0.000000
  0
SEQEND
  8
LAYER-1
  0
POLYLINE
  8
LAYER-1
 66
  1
 70
  0
 62
  0
 10
3.200060
 20
6.743861
 30
0.000000
  0
VERTEX
  8
LAYER-1
 10
3.200060
 20
6.743861
 30
0.000000
  0
VERTEX
  8
LAYER-1
 10
3.195701
 20
6.748220
 30
0.000000
  0
SEQEND
  8
LAYER-1
  0
POLYLINE
  8
LAYER-1
 66
  1
 70
  0
 62
  0
 10
3.195223
 20
6.748220
 30
0.000000
  0
VERTEX
  8
LAYER-1
 10
3.195223
 20
6.748220
 30
0.000000
  0
VERTEX
  8
LAYER-1
 10
3.195701
 20
6.748220
 30
0.000000
  0
SEQEND
  8
LAYER-1
  0
POLYLINE
  8
LAYER-1
 66
  1
 70
  0
 62
  0
 10
3.190864
 20
6.752579
 30
0.000000
  0
VERTEX
  8
LAYER-1
 10
3.190864
 20
6.752579
 30
0.000000
  0
VERTEX
  8
LAYER-1
 10
3.195223
 20
6.748220
 30
0.000000
  0
SEQEND
  8
LAYER-1
  0
POLYLINE
  8
LAYER-1
 66
  1
 70
  0
 62
  0
 10
3.190864
 20
6.761867
 30
0.000000
  0
VERTEX
  8
LAYER-1
 10
3.190864
 20
6.761867
 30
0.000000
  0
VERTEX
  8
LAYER-1
 10
3.190864
 20
6.752579
 30
0.000000
  0
SEQEND
  8
LAYER-1
  0
POLYLINE
  8
LAYER-1
 66
  1
 70
  0
 62
  0
 10
3.198492
 20
6.769495
 30
0.000000
  0
VERTEX
  8
LAYER-1
 10
3.198492
 20
6.769495
 30
0.000000
  0
VERTEX
  8
LAYER-1
 10
3.190864
 20
6.761867
 30
0.000000
  0
SEQEND
  8
LAYER-1
  0
POLYLINE
  8
LAYER-1
 66
  1
 70
  0
 62
  0
 10
3.198492
 20
6.769495
 30
0.000000
  0
VERTEX
  8
LAYER-1
 10
3.198492
 20
6.769495
 30
0.000000
  0
VERTEX
  8
LAYER-1
 10
3.333458
 20
6.769495
 30
0.000000
  0
SEQEND
  8
LAYER-1
  0
POLYLINE
  8
LAYER-1
 66
  1
 70
  0
 62
  0
 10
3.341086
 20
6.761867
 30
0.000000
  0
VERTEX
  8
LAYER-1
 10
3.341086
 20
6.761867
 30
0.000000
  0
VERTEX
  8
LAYER-1
 10
3.333458
 20
6.769495
 30
0.000000
  0
SEQEND
  8
LAYER-1
  0
POLYLINE
  8
LAYER-1
 66
  1
 70
  0
 62
  0
 10
3.341086
 20
6.761867
 30
0.000000
  0
VERTEX
  8
LAYER-1
 10
3.341086
 20
6.761867
 30
0.000000
  0
VERTEX
  8
LAYER-1
 10
3.341086
 20
6.752579
 30
0.000000
  0
SEQEND
  8
LAYER-1
  0
POLYLINE
  8
LAYER-1
 66
  1
 70
  0
 62
  0
 10
3.336727
 20
6.748220
 30
0.000000
  0
VERTEX
  8
LAYER-1
 10
3.336727
 20
6.748220
 30
0.000000
  0
VERTEX
  8
LAYER-1
 10
3.341086
 20
6.752579
 30
0.000000
  0
SEQEND
  8
LAYER-1
  0
POLYLINE
  8
LAYER-1
 66
  1
 70
  0
 62
  0
 10
3.336727
 20
6.748220
 30
0.000000
  0
VERTEX
  8
LAYER-1
 10
3.336727
 20
6.748220
 30
0.000000
  0
VERTEX
  8
LAYER-1
 10
3.336247
 20
6.748220
 30
0.000000
  0
SEQEND
  8
LAYER-1
  0
POLYLINE
  8
LAYER-1
 66
  1
 70
  0
 62
  0
 10
3.336247
 20
6.748220
 30
0.000000
  0
VERTEX
  8
LAYER-1
 10
3.336247
 20
6.748220
 30
0.000000
  0
VERTEX
  8
LAYER-1
 10
3.331888
 20
6.743861
 30
0.000000
  0
SEQEND
  8
LAYER-1
  0
POLYLINE
  8
LAYER-1
 66
  1
 70
  0
 62
  0
 10
3.331888
 20
6.743861
 30
0.000000
  0
VERTEX
  8
LAYER-1
 10
3.331888
 20
6.743861
 30
0.000000
  0
VERTEX
  8
LAYER-1
 10
3.331888
 20
6.740422
 30
0.000000
  0
SEQEND
  8
LAYER-1
  0
POLYLINE
  8
LAYER-1
 66
  1
 70
  0
 62
  0
 10
3.331888
 20
6.740422
 30
0.000000
  0
VERTEX
  8
LAYER-1
 10
3.331888
 20
6.740422
 30
0.000000
  0
VERTEX
  8
LAYER-1
 10
3.336247
 20
6.736063
 30
0.000000
  0
SEQEND
  8
LAYER-1
  0
POLYLINE
  8
LAYER-1
 66
  1
 70
  0
 62
  0
 10
3.350319
 20
6.736063
 30
0.000000
  0
VERTEX
  8
LAYER-1
 10
3.350319
 20
6.736063
 30
0.000000
  0
VERTEX
  8
LAYER-1
 10
3.336247
 20
6.736063
 30
0.000000
  0
SEQEND
  8
LAYER-1
  0
POLYLINE
  8
LAYER-1
 66
  1
 70
  0
 62
  0
 10
3.350319
 20
6.736063
 30
0.000000
  0
VERTEX
  8
LAYER-1
 10
3.350319
 20
6.736063
 30
0.000000
  0
VERTEX
  8
LAYER-1
 10
3.357948
 20
6.743691
 30
0.000000
  0
SEQEND
  8
LAYER-1
  0
POLYLINE
  8
LAYER-1
 66
  1
 70
  0
 62
  0
 10
3.357948
 20
6.745152
 30
0.000000
  0
VERTEX
  8
LAYER-1
 10
3.357948
 20
6.745152
 30
0.000000
  0
VERTEX
  8
LAYER-1
 10
3.357948
 20
6.743691
 30
0.000000
  0
SEQEND
  8
LAYER-1
  0
POLYLINE
  8
LAYER-1
 66
  1
 70
  0
 62
  0
 10
3.365576
 20
6.752780
 30
0.000000
  0
VERTEX
  8
LAYER-1
 10
3.365576
 20
6.752780
 30
0.000000
  0
VERTEX
  8
LAYER-1
 10
3.357947
 20
6.745152
 30
0.000000
  0
SEQEND
  8
LAYER-1
  0
POLYLINE
  8
LAYER-1
 66
  1
 70
  0
 62
  0
 10
3.365576
 20
6.752780
 30
0.000000
  0
VERTEX
  8
LAYER-1
 10
3.365576
 20
6.752780
 30
0.000000
  0
VERTEX
  8
LAYER-1
 10
3.385574
 20
6.752780
 30
0.000000
  0
SEQEND
  8
LAYER-1
  0
POLYLINE
  8
LAYER-1
 66
  1
 70
  0
 62
  0
 10
3.393202
 20
6.745152
 30
0.000000
  0
VERTEX
  8
LAYER-1
 10
3.393202
 20
6.745152
 30
0.000000
  0
VERTEX
  8
LAYER-1
 10
3.385574
 20
6.752780
 30
0.000000
  0
SEQEND
  8
LAYER-1
  0
POLYLINE
  8
LAYER-1
 66
  1
 70
  0
 62
  0
 10
3.393202
 20
6.527871
 30
0.000000
  0
VERTEX
  8
LAYER-1
 10
3.393202
 20
6.527871
 30
0.000000
  0
VERTEX
  8
LAYER-1
 10
3.393202
 20
6.745152
 30
0.000000
  0
SEQEND
  8
LAYER-1
  0
POLYLINE
  8
LAYER-1
 66
  1
 70
  0
 62
  0
 10
3.393202
 20
6.527871
 30
0.000000
  0
VERTEX
  8
LAYER-1
 10
3.393202
 20
6.527871
 30
0.000000
  0
VERTEX
  8
LAYER-1
 10
3.391007
 20
6.527690
 30
0.000000
  0
SEQEND
  8
LAYER-1
  0
POLYLINE
  8
LAYER-1
 66
  1
 70
  0
 62
  0
 10
3.391006
 20
6.527690
 30
0.000000
  0
VERTEX
  8
LAYER-1
 10
3.391006
 20
6.527690
 30
0.000000
  0
VERTEX
  8
LAYER-1
 10
3.384006
 20
6.520088
 30
0.000000
  0
SEQEND
  8
LAYER-1
  0
POLYLINE
  8
LAYER-1
 66
  1
 70
  0
 62
  0
 10
3.384007
 20
6.493679
 30
0.000000
  0
VERTEX
  8
LAYER-1
 10
3.384007
 20
6.493679
 30
0.000000
  0
VERTEX
  8
LAYER-1
 10
3.384007
 20
6.520088
 30
0.000000
  0
SEQEND
  8
LAYER-1
  0
POLYLINE
  8
LAYER-1
 66
  1
 70
  0
 62
  0
 10
3.316560
 20
6.471643
 30
0.000000
  0
VERTEX
  8
LAYER-1
 10
3.316560
 20
6.471643
 30
0.000000
  0
VERTEX
  8
LAYER-1
 10
3.384007
 20
6.493679
 30
0.000000
  0
SEQEND
  8
LAYER-1
  0
POLYLINE
  8
LAYER-1
 66
  1
 70
  0
 62
  0
 10
3.316560
 20
6.471643
 30
0.000000
  0
VERTEX
  8
LAYER-1
 10
3.316560
 20
6.471643
 30
0.000000
  0
VERTEX
  8
LAYER-1
 10
3.316560
 20
6.445809
 30
0.000000
  0
SEQEND
  8
LAYER-1
  0
POLYLINE
  8
LAYER-1
 66
  1
 70
  0
 62
  0
 10
3.323181
 20
6.445811
 30
0.000000
  0
VERTEX
  8
LAYER-1
 10
3.323181
 20
6.445811
 30
0.000000
  0
VERTEX
  8
LAYER-1
 10
3.316560
 20
6.445809
 30
0.000000
  0
SEQEND
  8
LAYER-1
  0
POLYLINE
  8
LAYER-1
 66
  1
 70
  0
 62
  0
 10
3.323181
 20
6.445811
 30
0.000000
  0
VERTEX
  8
LAYER-1
 10
3.323181
 20
6.445811
 30
0.000000
  0
VERTEX
  8
LAYER-1
 10
3.320505
 20
6.429815
 30
0.000000
  0
VERTEX
  8
LAYER-1
 10
3.324809
 20
6.423185
 30
0.000000
  0
SEQEND
  8
LAYER-1
  0
POLYLINE
  8
LAYER-1
 66
  1
 70
  0
 62
  0
 10
3.324809
 20
6.423185
 30
0.000000
  0
VERTEX
  8
LAYER-1
 10
3.324809
 20
6.423185
 30
0.000000
  0
VERTEX
  8
LAYER-1
 10
3.335762
 20
6.430303
 30
0.000000
  0
SEQEND
  8
LAYER-1
  0
POLYLINE
  8
LAYER-1
 66
  1
 70
  0
 62
  0
 10
3.353241
 20
6.430268
 30
0.000000
  0
VERTEX
  8
LAYER-1
 10
3.353241
 20
6.430268
 30
0.000000
  0
VERTEX
  8
LAYER-1
 10
3.348250
 20
6.446671
 30
0.000000
  0
VERTEX
  8
LAYER-1
 10
3.333816
 20
6.443647
 30
0.000000
  0
VERTEX
  8
LAYER-1
 10
3.335762
 20
6.430303
 30
0.000000
  0
SEQEND
  8
LAYER-1
  0
POLYLINE
  8
LAYER-1
 66
  1
 70
  0
 62
  0
 10
3.353242
 20
6.430269
 30
0.000000
  0
VERTEX
  8
LAYER-1
 10
3.353242
 20
6.430269
 30
0.000000
  0
VERTEX
  8
LAYER-1
 10
3.364103
 20
6.423167
 30
0.000000
  0
SEQEND
  8
LAYER-1
  0
POLYLINE
  8
LAYER-1
 66
  1
 70
  0
 62
  7
 10
3.221762
 20
6.502101
 30
0.000000
  0
VERTEX
  8
LAYER-1
 10
3.221762
 20
6.502101
 30
0.000000
  0
VERTEX
  8
LAYER-1
 10
3.210565
 20
6.528903
 30
0.000000
  0
VERTEX
  8
LAYER-1
 10
3.183531
 20
6.540004
 30
0.000000
  0
VERTEX
  8
LAYER-1
 10
3.156497
 20
6.528903
 30
0.000000
  0
VERTEX
  8
LAYER-1
 10
3.145299
 20
6.502101
 30
0.000000
  0
VERTEX
  8
LAYER-1
 10
3.156497
 20
6.475301
 30
0.000000
  0
VERTEX
  8
LAYER-1
 10
3.183531
 20
6.464199
 30
0.000000
  0
VERTEX
  8
LAYER-1
 10
3.210565
 20
6.475301
 30
0.000000
  0
VERTEX
  8
LAYER-1
 10
3.221762
 20
6.502101
 30
0.000000
  0
SEQEND
  8
LAYER-1
  0
POLYLINE
  8
LAYER-1
 66
  1
 70
  0
 62
  7
 10
3.381126
 20
6.503775
 30
0.000000
  0
VERTEX
  8
LAYER-1
 10
3.381126
 20
6.503775
 30
0.000000
  0
VERTEX
  8
LAYER-1
 10
3.369928
 20
6.530576
 30
0.000000
  0
VERTEX
  8
LAYER-1
 10
3.342894
 20
6.541678
 30
0.000000
  0
VERTEX
  8
LAYER-1
 10
3.315860
 20
6.530576
 30
0.000000
  0
VERTEX
  8
LAYER-1
 10
3.304662
 20
6.503775
 30
0.000000
  0
VERTEX
  8
LAYER-1
 10
3.315860
 20
6.476974
 30
0.000000
  0
VERTEX
  8
LAYER-1
 10
3.342894
 20
6.465873
 30
0.000000
  0
VERTEX
  8
LAYER-1
 10
3.369928
 20
6.476974
 30
0.000000
  0
VERTEX
  8
LAYER-1
 10
3.381126
 20
6.503775
 30
0.000000
  0
SEQEND
  8
LAYER-1
  0
POLYLINE
  8
LAYER-1
 66
  1
 70
  1
 62
  0
  0
VERTEX
  8
LAYER-1
 10
2.629448
 20
7.070287
 30
0.000000
  0
VERTEX
  8
LAYER-1
 10
3.905045
 20
7.070287
 30
0.000000
  0
VERTEX
  8
LAYER-1
 10
3.905045
 20
6.904934
 30
0.000000
  0
VERTEX
  8
LAYER-1
 10
2.629448
 20
6.904934
 30
0.000000
  0
SEQEND
  8
LAYER-1
  0
POLYLINE
  8
LAYER-1
 66
  1
 70
  1
 62
  0
  0
VERTEX
  8
LAYER-1
 10
2.629448
 20
7.245191
 30
0.000000
  0
VERTEX
  8
LAYER-1
 10
3.905045
 20
7.245191
 30
0.000000
  0
VERTEX
  8
LAYER-1
 10
3.905045
 20
7.079837
 30
0.000000
  0
VERTEX
  8
LAYER-1
 10
2.629448
 20
7.079837
 30
0.000000
  0
SEQEND
  8
LAYER-1
  0
POLYLINE
  8
LAYER-1
 66
  1
 70
  0
 62
  0
 10
2.629546
 20
7.214856
 30
0.000000
  0
VERTEX
  8
LAYER-1
 10
2.629546
 20
7.214856
 30
0.000000
  0
VERTEX
  8
LAYER-1
 10
3.902993
 20
7.214856
 30
0.000000
  0
SEQEND
  8
LAYER-1
  0
POLYLINE
  8
LAYER-1
 66
  1
 70
  0
 62
  0
 10
2.629546
 20
7.102008
 30
0.000000
  0
VERTEX
  8
LAYER-1
 10
2.629546
 20
7.102008
 30
0.000000
  0
VERTEX
  8
LAYER-1
 10
3.904728
 20
7.102008
 30
0.000000
  0
SEQEND
  8
LAYER-1
  0
POLYLINE
  8
LAYER-1
 66
  1
 70
  1
 62
  0
  0
VERTEX
  8
LAYER-1
 10
2.629546
 20
7.014334
 30
0.000000
  0
VERTEX
  8
LAYER-1
 10
3.904294
 20
7.014334
 30
0.000000
  0
VERTEX
  8
LAYER-1
 10
3.904294
 20
6.960515
 30
0.000000
  0
VERTEX
  8
LAYER-1
 10
2.629546
 20
6.960515
 30
0.000000
  0
SEQEND
  8
LAYER-1
  0
POLYLINE
  8
LAYER-1
 66
  1
 70
  0
 62
  0
 10
2.629546
 20
7.043848
 30
0.000000
  0
VERTEX
  8
LAYER-1
 10
2.629546
 20
7.043848
 30
0.000000
  0
VERTEX
  8
LAYER-1
 10
3.902993
 20
7.043848
 30
0.000000
  0
SEQEND
  8
LAYER-1
  0
POLYLINE
  8
LAYER-1
 66
  1
 70
  0
 62
  0
 10
2.629546
 20
6.931001
 30
0.000000
  0
VERTEX
  8
LAYER-1
 10
2.629546
 20
6.931001
 30
0.000000
  0
VERTEX
  8
LAYER-1
 10
3.904728
 20
6.931001
 30
0.000000
  0
SEQEND
  8
LAYER-1
  0
POLYLINE
  8
LAYER-1
 66
  1
 70
  1
 62
  0
  0
VERTEX
  8
LAYER-1
 10
2.629546
 20
7.185341
 30
0.000000
  0
VERTEX
  8
LAYER-1
 10
3.904295
 20
7.185341
 30
0.000000
  0
VERTEX
  8
LAYER-1
 10
3.904295
 20
7.131521
 30
0.000000
  0
VERTEX
  8
LAYER-1
 10
2.629546
 20
7.131521
 30
0.000000
  0
SEQEND
  8
LAYER-1
  0
POLYLINE
  8
LAYER-1
 66
  1
 70
  0
 62
  0
 10
4.245032
 20
7.245166
 30
0.000000
  0
VERTEX
  8
LAYER-1
 10
4.245032
 20
7.245166
 30
0.000000
  0
VERTEX
  8
LAYER-1
 10
4.076305
 20
7.245166
 30
0.000000
  0
SEQEND
  8
LAYER-1
  0
POLYLINE
  8
LAYER-1
 66
  1
 70
  0
 62
  0
 10
4.245032
 20
6.905356
 30
0.000000
  0
VERTEX
  8
LAYER-1
 10
4.245032
 20
6.905356
 30
0.000000
  0
VERTEX
  8
LAYER-1
 10
4.080521
 20
6.905356
 30
0.000000
  0
SEQEND
  8
LAYER-1
  0
POLYLINE
  8
LAYER-1
 66
  1
 70
  0
 62
  0
 10
4.122705
 20
7.245166
 30
0.000000
  0
VERTEX
  8
LAYER-1
 10
4.122705
 20
7.245166
 30
0.000000
  0
VERTEX
  8
LAYER-1
 10
4.122705
 20
6.905356
 30
0.000000
  0
SEQEND
  8
LAYER-1
  0
LINE
  8
LAYER-1
 62
  0
 10
4.152168
 20
7.215703
 30
0.000000
 11
4.093242
 21
7.274629
 31
0.000000
  0
LINE
  8
LAYER-1
 62
  0
 10
4.152168
 20
6.875893
 30
0.000000
 11
4.093242
 21
6.934818
 31
0.000000
  0
TEXT
  8
LAYER-1
 62
  0
 10
4.252542
 20
7.095681
 30
0.000000
 40
0.104167
  1
1-1/2"  -  38mm
 72
  5
 11
5.308098
 21
7.095681
 31
0.000000
  0
TEXT
  8
LAYER-1
 62
  0
 10
4.321987
 20
6.956792
 30
0.000000
 40
0.072917
  1
MINIMUM
 72
  5
 11
4.835876
 21
6.956792
 31
0.000000
  0
TEXT
  8
LAYER-1
 62
  0
 10
0.044209
 20
7.748459
 30
0.000000
 40
0.145833
  1
EXPOSED TRACK
 72
  5
 11
1.766431
 21
7.748459
 31
0.000000
  0
POLYLINE
  8
LAYER-1
 66
  1
 70
  0
 62
  0
 10
3.370201
 20
6.673824
 30
0.000000
  0
VERTEX
  8
LAYER-1
 10
3.370201
 20
6.673824
 30
0.000000
  0
VERTEX
  8
LAYER-1
 10
3.361437
 20
6.692107
 30
0.000000
  0
VERTEX
  8
LAYER-1
 10
3.345032
 20
6.698864
 30
0.000000
  0
VERTEX
  8
LAYER-1
 10
3.328627
 20
6.692107
 30
0.000000
  0
VERTEX
  8
LAYER-1
 10
3.323800
 20
6.673824
 30
0.000000
  0
SEQEND
  8
LAYER-1
  0
POLYLINE
  8
LAYER-1
 66
  1
 70
  0
 62
  0
 10
3.323800
 20
6.673824
 30
0.000000
  0
VERTEX
  8
LAYER-1
 10
3.323800
 20
6.673824
 30
0.000000
  0
VERTEX
  8
LAYER-1
 10
3.323800
 20
6.488197
 30
0.000000
  0
SEQEND
  8
LAYER-1
  0
POLYLINE
  8
LAYER-1
 66
  1
 70
  0
 62
  0
 10
3.370201
 20
6.673824
 30
0.000000
  0
VERTEX
  8
LAYER-1
 10
3.370201
 20
6.673824
 30
0.000000
  0
VERTEX
  8
LAYER-1
 10
3.370201
 20
6.488197
 30
0.000000
  0
SEQEND
  8
LAYER-1
  0
POLYLINE
  8
LAYER-1
 66
  1
 70
  0
 62
  0
 10
3.323800
 20
6.488197
 30
0.000000
  0
VERTEX
  8
LAYER-1
 10
3.323800
 20
6.488197
 30
0.000000
  0
VERTEX
  8
LAYER-1
 10
3.328627
 20
6.473851
 30
0.000000
  0
VERTEX
  8
LAYER-1
 10
3.345032
 20
6.467094
 30
0.000000
  0
VERTEX
  8
LAYER-1
 10
3.361437
 20
6.473851
 30
0.000000
  0
VERTEX
  8
LAYER-1
 10
3.370201
 20
6.488197
 30
0.000000
  0
SEQEND
  8
LAYER-1
  0
POLYLINE
  8
LAYER-1
 66
  1
 70
  0
 62
  0
 10
3.206214
 20
6.673687
 30
0.000000
  0
VERTEX
  8
LAYER-1
 10
3.206214
 20
6.673687
 30
0.000000
  0
VERTEX
  8
LAYER-1
 10
3.197449
 20
6.692061
 30
0.000000
  0
VERTEX
  8
LAYER-1
 10
3.181044
 20
6.698856
 30
0.000000
  0
VERTEX
  8
LAYER-1
 10
3.164639
 20
6.692061
 30
0.000000
  0
VERTEX
  8
LAYER-1
 10
3.159812
 20
6.673687
 30
0.000000
  0
SEQEND
  8
LAYER-1
  0
POLYLINE
  8
LAYER-1
 66
  1
 70
  0
 62
  0
 10
3.159813
 20
6.673687
 30
0.000000
  0
VERTEX
  8
LAYER-1
 10
3.159813
 20
6.673687
 30
0.000000
  0
VERTEX
  8
LAYER-1
 10
3.159813
 20
6.487031
 30
0.000000
  0
SEQEND
  8
LAYER-1
  0
POLYLINE
  8
LAYER-1
 66
  1
 70
  0
 62
  0
 10
3.206214
 20
6.673687
 30
0.000000
  0
VERTEX
  8
LAYER-1
 10
3.206214
 20
6.673687
 30
0.000000
  0
VERTEX
  8
LAYER-1
 10
3.206214
 20
6.487031
 30
0.000000
  0
SEQEND
  8
LAYER-1
  0
POLYLINE
  8
LAYER-1
 66
  1
 70
  0
 62
  0
 10
3.159812
 20
6.487031
 30
0.000000
  0
VERTEX
  8
LAYER-1
 10
3.159812
 20
6.487031
 30
0.000000
  0
VERTEX
  8
LAYER-1
 10
3.164639
 20
6.472595
 30
0.000000
  0
VERTEX
  8
LAYER-1
 10
3.181044
 20
6.465800
 30
0.000000
  0
VERTEX
  8
LAYER-1
 10
3.197449
 20
6.472595
 30
0.000000
  0
VERTEX
  8
LAYER-1
 10
3.206214
 20
6.487031
 30
0.000000
  0
SEQEND
  8
LAYER-1
  0
POLYLINE
  8
LAYER-1
 66
  1
 70
  1
 62
  0
  0
VERTEX
  8
LAYER-1
 10
3.237356
 20
6.529741
 30
0.000000
  0
VERTEX
  8
LAYER-1
 10
3.291075
 20
6.529741
 30
0.000000
  0
VERTEX
  8
LAYER-1
 10
3.291075
 20
6.247117
 30
0.000000
  0
VERTEX
  8
LAYER-1
 10
3.237356
 20
6.247117
 30
0.000000
  0
SEQEND
  8
LAYER-1
  0
POLYLINE
  8
LAYER-1
 66
  1
 70
  1
 62
  0
  0
VERTEX
  8
LAYER-1
 10
3.206214
 20
6.623069
 30
0.000000
  0
VERTEX
  8
LAYER-1
 10
3.323800
 20
6.623069
 30
0.000000
  0
VERTEX
  8
LAYER-1
 10
3.323800
 20
6.529741
 30
0.000000
  0
VERTEX
  8
LAYER-1
 10
3.206214
 20
6.529741
 30
0.000000
  0
SEQEND
  8
LAYER-1
  0
POLYLINE
  8
LAYER-1
 66
  1
 70
  0
 62
  0
 10
4.243774
 20
6.791216
 30
0.000000
  0
VERTEX
  8
LAYER-1
 10
4.243774
 20
6.791216
 30
0.000000
  0
VERTEX
  8
LAYER-1
 10
4.075044
 20
6.791216
 30
0.000000
  0
SEQEND
  8
LAYER-1
  0
POLYLINE
  8
LAYER-1
 66
  1
 70
  0
 62
  0
 10
4.243774
 20
6.447431
 30
0.000000
  0
VERTEX
  8
LAYER-1
 10
4.243774
 20
6.447431
 30
0.000000
  0
VERTEX
  8
LAYER-1
 10
4.079263
 20
6.447431
 30
0.000000
  0
SEQEND
  8
LAYER-1
  0
POLYLINE
  8
LAYER-1
 66
  1
 70
  0
 62
  0
 10
4.121444
 20
6.791216
 30
0.000000
  0
VERTEX
  8
LAYER-1
 10
4.121444
 20
6.791216
 30
0.000000
  0
VERTEX
  8
LAYER-1
 10
4.121444
 20
6.447431
 30
0.000000
  0
SEQEND
  8
LAYER-1
  0
LINE
  8
LAYER-1
 62
  0
 10
4.150907
 20
6.761753
 30
0.000000
 11
4.091981
 21
6.820678
 31
0.000000
  0
LINE
  8
LAYER-1
 62
  0
 10
4.150907
 20
6.417968
 30
0.000000
 11
4.091981
 21
6.476893
 31
0.000000
  0
TEXT
  8
LAYER-1
 62
  0
 10
4.252542
 20
6.554014
 30
0.000000
 40
0.104167
  1
1-9/16"  -  40mm
 72
  5
 11
5.391431
 21
6.554014
 31
0.000000
  0
POLYLINE
  8
LAYER-1
 66
  1
 70
  0
 62
  0
 10
3.123634
 20
6.261032
 30
0.000000
  0
VERTEX
  8
LAYER-1
 10
3.123634
 20
6.261032
 30
0.000000
  0
VERTEX
  8
LAYER-1
 10
3.123634
 20
6.041679
 30
0.000000
  0
SEQEND
  8
LAYER-1
  0
POLYLINE
  8
LAYER-1
 66
  1
 70
  0
 62
  0
 10
3.411263
 20
6.252351
 30
0.000000
  0
VERTEX
  8
LAYER-1
 10
3.411263
 20
6.252351
 30
0.000000
  0
VERTEX
  8
LAYER-1
 10
3.411263
 20
6.038482
 30
0.000000
  0
SEQEND
  8
LAYER-1
  0
POLYLINE
  8
LAYER-1
 66
  1
 70
  0
 62
  0
 10
3.125000
 20
6.105446
 30
0.000000
  0
VERTEX
  8
LAYER-1
 10
3.125000
 20
6.105446
 30
0.000000
  0
VERTEX
  8
LAYER-1
 10
3.411463
 20
6.105446
 30
0.000000
  0
SEQEND
  8
LAYER-1
  0
LINE
  8
LAYER-1
 62
  0
 10
3.154463
 20
6.134909
 30
0.000000
 11
3.095538
 21
6.075982
 31
0.000000
  0
LINE
  8
LAYER-1
 62
  0
 10
3.440925
 20
6.134909
 30
0.000000
 11
3.382000
 21
6.075982
 31
0.000000
  0
TEXT
  8
LAYER-1
 62
  0
 10
2.683098
 20
5.845681
 30
0.000000
 40
0.104167
  1
1-5/16"  -  33mm
 72
  5
 11
3.821987
 21
5.845681
 31
0.000000
  0
TEXT
  8
LAYER-1
 62
  0
 10
2.308098
 20
7.776237
 30
0.000000
 40
0.104167
  1
TRACK SUPPORT BY OTHERS
 72
  5
 11
4.433098
 21
7.776237
 31
0.000000
  0
TEXT
  8
LAYER-1
 62
  0
 10
2.308098
 20
7.623459
 30
0.000000
 40
0.104167
  1
MINIMUM CAPACITY 3 lb/sq.ft
 72
  5
 11
4.335876
 21
7.623459
 31
0.000000
  0
TEXT
  8
LAYER-1
 62
  0
 10
2.308098
 20
7.470681
 30
0.000000
 40
0.104167
  1
(15 kg/sq.m) OF GRILLE
 72
  5
 11
3.960876
 21
7.470681
 31
0.000000
  0
TEXT
  8
LAYER-1
 62
  7
 10
1.558098
 20
8.734570
 30
0.000000
 40
0.187500
  1
Vertical section
 72
  5
 11
3.474764
 21
8.734570
 31
0.000000
  0
POLYLINE
  8
LAYER-1
 66
  1
 70
  1
 62
  0
  0
VERTEX
  8
LAYER-1
 10
2.480966
 20
6.904934
 30
0.000000
  0
VERTEX
  8
LAYER-1
 10
4.063650
 20
6.904934
 30
0.000000
  0
VERTEX
  8
LAYER-1
 10
4.063650
 20
6.786823
 30
0.000000
  0
VERTEX
  8
LAYER-1
 10
2.480966
 20
6.786823
 30
0.000000
  0
SEQEND
  8
LAYER-1
  0
POLYLINE
  8
LAYER-1
 66
  1
 70
  0
 62
  0
 10
2.629040
 20
3.748445
 30
0.000000
  0
VERTEX
  8
LAYER-1
 10
2.629040
 20
3.748445
 30
0.000000
  0
VERTEX
  8
LAYER-1
 10
2.629040
 20
2.259261
 30
0.000000
  0
SEQEND
  8
LAYER-1
  0
POLYLINE
  8
LAYER-1
 66
  1
 70
  0
 62
  0
 10
3.911384
 20
3.748445
 30
0.000000
  0
VERTEX
  8
LAYER-1
 10
3.911384
 20
3.748445
 30
0.000000
  0
VERTEX
  8
LAYER-1
 10
3.911384
 20
2.259261
 30
0.000000
  0
SEQEND
  8
LAYER-1
  0
POLYLINE
  8
LAYER-1
 66
  1
 70
  0
 62
  0
 10
2.629040
 20
0.894757
 30
0.000000
  0
VERTEX
  8
LAYER-1
 10
2.629040
 20
0.894757
 30
0.000000
  0
VERTEX
  8
LAYER-1
 10
2.629040
 20
2.174896
 30
0.000000
  0
SEQEND
  8
LAYER-1
  0
POLYLINE
  8
LAYER-1
 66
  1
 70
  0
 62
  0
 10
3.911384
 20
0.894757
 30
0.000000
  0
VERTEX
  8
LAYER-1
 10
3.911384
 20
0.894757
 30
0.000000
  0
VERTEX
  8
LAYER-1
 10
3.911384
 20
2.174896
 30
0.000000
  0
SEQEND
  8
LAYER-1
  0
POLYLINE
  8
LAYER-1
 66
  1
 70
  1
 62
  0
  0
VERTEX
  8
LAYER-1
 10
3.210290
 20
4.125170
 30
0.000000
  0
VERTEX
  8
LAYER-1
 10
3.327875
 20
4.125170
 30
0.000000
  0
VERTEX
  8
LAYER-1
 10
3.327875
 20
4.031842
 30
0.000000
  0
VERTEX
  8
LAYER-1
 10
3.210290
 20
4.031842
 30
0.000000
  0
SEQEND
  8
LAYER-1
  0
POLYLINE
  8
LAYER-1
 66
  1
 70
  0
 62
  0
 10
3.227599
 20
0.411335
 30
0.000000
  0
VERTEX
  8
LAYER-1
 10
3.227599
 20
0.411335
 30
0.000000
  0
VERTEX
  8
LAYER-1
 10
3.228871
 20
0.397012
 30
0.000000
  0
VERTEX
  8
LAYER-1
 10
3.238100
 20
0.383200
 30
0.000000
  0
VERTEX
  8
LAYER-1
 10
3.251911
 20
0.373972
 30
0.000000
  0
VERTEX
  8
LAYER-1
 10
3.268203
 20
0.370731
 30
0.000000
  0
VERTEX
  8
LAYER-1
 10
3.284495
 20
0.373972
 30
0.000000
  0
VERTEX
  8
LAYER-1
 10
3.298306
 20
0.383200
 30
0.000000
  0
VERTEX
  8
LAYER-1
 10
3.307535
 20
0.397012
 30
0.000000
  0
VERTEX
  8
LAYER-1
 10
3.312744
 20
0.411335
 30
0.000000
  0
SEQEND
  8
LAYER-1
  0
POLYLINE
  8
LAYER-1
 66
  1
 70
  0
 62
  0
 10
3.227598
 20
0.411335
 30
0.000000
  0
VERTEX
  8
LAYER-1
 10
3.227598
 20
0.411335
 30
0.000000
  0
VERTEX
  8
LAYER-1
 10
3.227695
 20
0.894768
 30
0.000000
  0
SEQEND
  8
LAYER-1
  0
POLYLINE
  8
LAYER-1
 66
  1
 70
  0
 62
  0
 10
3.227695
 20
0.894768
 30
0.000000
  0
VERTEX
  8
LAYER-1
 10
3.227695
 20
0.894768
 30
0.000000
  0
VERTEX
  8
LAYER-1
 10
3.312733
 20
0.894768
 30
0.000000
  0
SEQEND
  8
LAYER-1
  0
POLYLINE
  8
LAYER-1
 66
  1
 70
  0
 62
  0
 10
3.312733
 20
0.894768
 30
0.000000
  0
VERTEX
  8
LAYER-1
 10
3.312733
 20
0.894768
 30
0.000000
  0
VERTEX
  8
LAYER-1
 10
3.312745
 20
0.411335
 30
0.000000
  0
SEQEND
  8
LAYER-1
  0
TEXT
  8
LAYER-1
 62
  0
 10
4.321987
 20
3.998459
 30
0.000000
 40
0.072917
  1
MAXIMUM RECESS
 72
  5
 11
5.321987
 21
3.998459
 31
0.000000
  0
TEXT
  8
LAYER-1
 62
  0
 10
4.363653
 20
3.706792
 30
0.000000
 40
0.083333
  1
"J" TRIM ON EACH
 72
  5
 11
5.405320
 21
3.706792
 31
0.000000
  0
TEXT
  8
LAYER-1
 62
  0
 10
4.363653
 20
3.581792
 30
0.000000
 40
0.083333
  1
SIDE OF RECESS
 72
  5
 11
5.335876
 21
3.581792
 31
0.000000
  0
POLYLINE
  8
LAYER-1
 66
  1
 70
  0
 62
  0
 10
1.648376
 20
4.172070
 30
0.000000
  0
VERTEX
  8
LAYER-1
 10
1.648376
 20
4.172070
 30
0.000000
  0
VERTEX
  8
LAYER-1
 10
3.073135
 20
4.172070
 30
0.000000
  0
SEQEND
  8
LAYER-1
  0
POLYLINE
  8
LAYER-1
 66
  1
 70
  1
 62
  0
  0
VERTEX
  8
LAYER-1
 10
3.092820
 20
4.172070
 30
0.000000
  0
VERTEX
  8
LAYER-1
 10
3.023376
 20
4.130403
 30
0.000000
  0
VERTEX
  8
LAYER-1
 10
3.023376
 20
4.172070
 30
0.000000
  0
VERTEX
  8
LAYER-1
 10
3.023375
 20
4.213736
 30
0.000000
  0
VERTEX
  8
LAYER-1
 10
3.092820
 20
4.172070
 30
0.000000
  0
SEQEND
  8
LAYER-1
  0
ENDSEC
  0
EOF
