  0
SECTION
  2
HEADER
999
MacDraft 5.0\0
  9
$ACADVER
  1
AC1006
  9
$CLAYER
  8
LAYER-2
  9
$EXTMIN
 10
0.000000
 20
0.000000
  9
$EXTMAX
 10
7.014760
 20
10.000521
  9
$FASTZOOM
 70
0
  9
$FILLMODE
 70
1
  0
ENDSEC
  0
SECTION
  2
TABLES
  0
TABLE
  2
LTYPE
 70
16
  0
LTYPE
  2
CONTINUOUS
 70
64
  3
Solid Line
 72
65
 73
0
 40
0.000000
  0
LTYPE
  2
LTYPE01
 70
64
  3
CUSTOM
 72
65
 73
2
 40
0.076923
 49
0.057692
 49
-0.019231
  0
LTYPE
  2
LTYPE02
 70
64
  3
CUSTOM
 72
65
 73
2
 40
0.134615
 49
0.115385
 49
-0.019231
  0
LTYPE
  2
LTYPE03
 70
64
  3
CUSTOM
 72
65
 73
2
 40
0.259615
 49
0.230769
 49
-0.028846
  0
LTYPE
  2
LTYPE04
 70
64
  3
CUSTOM
 72
65
 73
2
 40
0.500000
 49
0.461538
 49
-0.038462
  0
LTYPE
  2
LTYPE05
 70
64
  3
CUSTOM
 72
65
 73
4
 40
0.105769
 49
0.057692
 49
-0.019231
 49
0.009615
 49
-0.019231
  0
LTYPE
  2
LTYPE06
 70
64
  3
CUSTOM
 72
65
 73
4
 40
0.163462
 49
0.115385
 49
-0.019231
 49
0.009615
 49
-0.019231
  0
LTYPE
  2
LTYPE07
 70
64
  3
CUSTOM
 72
65
 73
4
 40
0.307692
 49
0.230769
 49
-0.028846
 49
0.019231
 49
-0.028846
  0
LTYPE
  2
LTYPE08
 70
64
  3
CUSTOM
 72
65
 73
4
 40
0.557692
 49
0.461538
 49
-0.038462
 49
0.019231
 49
-0.038462
  0
LTYPE
  2
LTYPE09
 70
64
  3
CUSTOM
 72
65
 73
6
 40
0.134615
 49
0.057692
 49
-0.019231
 49
0.009615
 49
-0.019231
 49
0.009615
 49
-0.019231
  0
LTYPE
  2
LTYPE10
 70
64
  3
CUSTOM
 72
65
 73
6
 40
0.192308
 49
0.115385
 49
-0.019231
 49
0.009615
 49
-0.019231
 49
0.009615
 49
-0.019231
  0
LTYPE
  2
LTYPE11
 70
64
  3
CUSTOM
 72
65
 73
6
 40
0.346154
 49
0.230769
 49
-0.028846
 49
0.019231
 49
-0.019231
 49
0.019231
 49
-0.028846
  0
LTYPE
  2
LTYPE12
 70
64
  3
CUSTOM
 72
65
 73
6
 40
0.596154
 49
0.461538
 49
-0.038462
 49
0.019231
 49
-0.019231
 49
0.019231
 49
-0.038462
  0
LTYPE
  2
LTYPE13
 70
64
  3
CUSTOM
 72
65
 73
8
 40
0.221154
 49
0.115385
 49
-0.019231
 49
0.009615
 49
-0.019231
 49
0.009615
 49
-0.019231
 49
0.009615
 49
-0.019231
  0
LTYPE
  2
LTYPE14
 70
64
  3
CUSTOM
 72
65
 73
8
 40
0.384615
 49
0.230769
 49
-0.028846
 49
0.019231
 49
-0.019231
 49
0.019231
 49
-0.019231
 49
0.019231
 49
-0.028846
  0
LTYPE
  2
LTYPE15
 70
64
  3
CUSTOM
 72
65
 73
8
 40
0.653846
 49
0.461538
 49
-0.038462
 49
0.019231
 49
-0.028846
 49
0.019231
 49
-0.028846
 49
0.019231
 49
-0.038462
  0
ENDTAB
  0
TABLE
  2
LAYER
 70
1
  0
LAYER
  2
LAYER-2
 70
0
 62
7
  6
CONTINUOUS
  0
ENDTAB
  0
ENDSEC
  0
SECTION
  2
BLOCKS
  0
ENDSEC
  0
SECTION
  2
ENTITIES
  0
POLYLINE
  8
LAYER-2
 66
  1
 70
  0
 62
  7
 10
20.627081
 20
78.702519
 30
0.000000
  0
VERTEX
  8
LAYER-2
 10
20.627081
 20
78.702519
 30
0.000000
  0
VERTEX
  8
LAYER-2
 10
20.625701
 20
49.877204
 30
0.000000
  0
SEQEND
  8
LAYER-2
  0
POLYLINE
  8
LAYER-2
 66
  1
 70
  0
 62
  7
 10
22.255859
 20
77.966492
 30
0.000000
  0
VERTEX
  8
LAYER-2
 10
22.255859
 20
77.966492
 30
0.000000
  0
VERTEX
  8
LAYER-2
 10
22.251700
 20
49.877204
 30
0.000000
  0
SEQEND
  8
LAYER-2
  0
POLYLINE
  8
LAYER-2
 66
  1
 70
  0
 62
  7
 10
21.804845
 20
77.958604
 30
0.000000
  0
VERTEX
  8
LAYER-2
 10
21.804845
 20
77.958604
 30
0.000000
  0
VERTEX
  8
LAYER-2
 10
21.809476
 20
49.877204
 30
0.000000
  0
SEQEND
  8
LAYER-2
  0
POLYLINE
  8
LAYER-2
 66
  1
 70
  0
 62
  7
 10
21.057509
 20
78.704928
 30
0.000000
  0
VERTEX
  8
LAYER-2
 10
21.057509
 20
78.704928
 30
0.000000
  0
VERTEX
  8
LAYER-2
 10
21.057509
 20
49.877204
 30
0.000000
  0
SEQEND
  8
LAYER-2
  0
TEXT
  8
LAYER-2
 62
  7
 10
8.544872
 20
83.070543
 30
0.000000
 40
1.471154
  1
End plate
 72
  5
 11
16.967949
 21
83.070543
 31
0.000000
  0
POLYLINE
  8
LAYER-2
 66
  1
 70
  1
 62
  7
  0
VERTEX
  8
LAYER-2
 10
19.170356
 20
94.705289
 30
0.000000
  0
VERTEX
  8
LAYER-2
 10
33.170337
 20
94.705289
 30
0.000000
  0
VERTEX
  8
LAYER-2
 10
33.170337
 20
78.701808
 30
0.000000
  0
VERTEX
  8
LAYER-2
 10
19.170356
 20
78.701808
 30
0.000000
  0
SEQEND
  8
LAYER-2
  0
CIRCLE
  8
LAYER-2
 62
  7
 10
20.446395
 20
93.207022
 30
0.000000
 40
0.281250
  0
CIRCLE
  8
LAYER-2
 62
  7
 10
26.196398
 20
87.707020
 30
0.000000
 40
0.500000
  0
CIRCLE
  8
LAYER-2
 62
  7
 10
20.196399
 20
86.707017
 30
0.000000
 40
0.195300
  0
CIRCLE
  8
LAYER-2
 62
  7
 10
20.196399
 20
80.082022
 30
0.000000
 40
0.195300
  0
CIRCLE
  8
LAYER-2
 62
  7
 10
26.196398
 20
87.707020
 30
0.000000
 40
3.311633
  0
POLYLINE
  8
LAYER-2
 66
  1
 70
  0
 62
  7
 10
22.296850
 20
78.149639
 30
0.000000
  0
VERTEX
  8
LAYER-2
 10
22.296850
 20
78.149639
 30
0.000000
  0
VERTEX
  8
LAYER-2
 10
22.547982
 20
78.672363
 30
0.000000
  0
SEQEND
  8
LAYER-2
  0
CIRCLE
  8
LAYER-2
 62
  7
 10
21.516366
 20
81.341640
 30
0.000000
 40
0.082054
  0
ARC
  8
LAYER-2
 62
  7
 10
21.518940
 20
81.114835
 30
0.000000
 40
0.087262
 50
309.202393
 51
245.737778
  0
POLYLINE
  8
LAYER-2
 66
  1
 70
  0
 62
  7
 10
21.464480
 20
80.979182
 30
0.000000
  0
VERTEX
  8
LAYER-2
 10
21.464480
 20
80.979182
 30
0.000000
  0
VERTEX
  8
LAYER-2
 10
21.428088
 20
80.981513
 30
0.000000
  0
SEQEND
  8
LAYER-2
  0
POLYLINE
  8
LAYER-2
 66
  1
 70
  0
 62
  7
 10
21.483087
 20
81.035283
 30
0.000000
  0
VERTEX
  8
LAYER-2
 10
21.483087
 20
81.035283
 30
0.000000
  0
VERTEX
  8
LAYER-2
 10
21.480365
 20
80.993155
 30
0.000000
  0
SEQEND
  8
LAYER-2
  0
ARC
  8
LAYER-2
 62
  7
 10
21.465435
 20
80.994119
 30
0.000000
 40
0.014961
 50
266.346130
 51
356.302856
  0
POLYLINE
  8
LAYER-2
 66
  1
 70
  0
 62
  7
 10
21.664875
 20
81.331829
 30
0.000000
  0
VERTEX
  8
LAYER-2
 10
21.664875
 20
81.331829
 30
0.000000
  0
VERTEX
  8
LAYER-2
 10
21.675087
 20
81.050100
 30
0.000000
  0
SEQEND
  8
LAYER-2
  0
ARC
  8
LAYER-2
 62
  7
 10
21.619624
 20
81.048086
 30
0.000000
 40
0.055512
 50
311.346130
 51
2.074440
  0
POLYLINE
  8
LAYER-2
 66
  1
 70
  0
 62
  7
 10
21.574090
 20
81.047220
 30
0.000000
  0
VERTEX
  8
LAYER-2
 10
21.574090
 20
81.047220
 30
0.000000
  0
VERTEX
  8
LAYER-2
 10
21.594947
 20
80.980471
 30
0.000000
  0
SEQEND
  8
LAYER-2
  0
POLYLINE
  8
LAYER-2
 66
  1
 70
  0
 62
  7
 10
21.619110
 20
80.973703
 30
0.000000
  0
VERTEX
  8
LAYER-2
 10
21.619110
 20
80.973703
 30
0.000000
  0
VERTEX
  8
LAYER-2
 10
21.656287
 20
81.006423
 30
0.000000
  0
SEQEND
  8
LAYER-2
  0
ARC
  8
LAYER-2
 62
  7
 10
21.609229
 20
80.984943
 30
0.000000
 40
0.014961
 50
197.346359
 51
311.346130
  0
POLYLINE
  8
LAYER-2
 66
  1
 70
  0
 62
  7
 10
21.374731
 20
81.042157
 30
0.000000
  0
VERTEX
  8
LAYER-2
 10
21.374731
 20
81.042157
 30
0.000000
  0
VERTEX
  8
LAYER-2
 10
21.428088
 20
80.981513
 30
0.000000
  0
SEQEND
  8
LAYER-2
  0
POLYLINE
  8
LAYER-2
 66
  1
 70
  0
 62
  7
 10
21.374731
 20
81.042157
 30
0.000000
  0
VERTEX
  8
LAYER-2
 10
21.374731
 20
81.042157
 30
0.000000
  0
VERTEX
  8
LAYER-2
 10
21.362410
 20
81.207170
 30
0.000000
  0
SEQEND
  8
LAYER-2
  0
POLYLINE
  8
LAYER-2
 66
  1
 70
  0
 62
  7
 10
21.399689
 20
81.239967
 30
0.000000
  0
VERTEX
  8
LAYER-2
 10
21.399689
 20
81.239967
 30
0.000000
  0
VERTEX
  8
LAYER-2
 10
21.362336
 20
81.282419
 30
0.000000
  0
SEQEND
  8
LAYER-2
  0
POLYLINE
  8
LAYER-2
 66
  1
 70
  0
 62
  7
 10
21.399689
 20
81.239967
 30
0.000000
  0
VERTEX
  8
LAYER-2
 10
21.399689
 20
81.239967
 30
0.000000
  0
VERTEX
  8
LAYER-2
 10
21.362410
 20
81.207170
 30
0.000000
  0
SEQEND
  8
LAYER-2
  0
POLYLINE
  8
LAYER-2
 66
  1
 70
  0
 62
  7
 10
21.362336
 20
81.282419
 30
0.000000
  0
VERTEX
  8
LAYER-2
 10
21.362336
 20
81.282419
 30
0.000000
  0
VERTEX
  8
LAYER-2
 10
21.371076
 20
81.419340
 30
0.000000
  0
SEQEND
  8
LAYER-2
  0
ARC
  8
LAYER-2
 62
  7
 10
21.547727
 20
81.565627
 30
0.000000
 40
0.087262
 50
106.954468
 51
43.489849
  0
POLYLINE
  8
LAYER-2
 66
  1
 70
  0
 62
  7
 10
21.510965
 20
81.707097
 30
0.000000
  0
VERTEX
  8
LAYER-2
 10
21.510965
 20
81.707097
 30
0.000000
  0
VERTEX
  8
LAYER-2
 10
21.474572
 20
81.709421
 30
0.000000
  0
SEQEND
  8
LAYER-2
  0
POLYLINE
  8
LAYER-2
 66
  1
 70
  0
 62
  7
 10
21.522282
 20
81.649095
 30
0.000000
  0
VERTEX
  8
LAYER-2
 10
21.522282
 20
81.649095
 30
0.000000
  0
VERTEX
  8
LAYER-2
 10
21.524944
 20
81.691223
 30
0.000000
  0
SEQEND
  8
LAYER-2
  0
ARC
  8
LAYER-2
 62
  7
 10
21.510010
 20
81.692181
 30
0.000000
 40
0.014961
 50
356.389343
 51
86.346107
  0
POLYLINE
  8
LAYER-2
 66
  1
 70
  0
 62
  7
 10
21.664875
 20
81.331829
 30
0.000000
  0
VERTEX
  8
LAYER-2
 10
21.664875
 20
81.331829
 30
0.000000
  0
VERTEX
  8
LAYER-2
 10
21.710845
 20
81.609981
 30
0.000000
  0
SEQEND
  8
LAYER-2
  0
ARC
  8
LAYER-2
 62
  7
 10
21.656079
 20
81.619023
 30
0.000000
 40
0.055512
 50
350.617767
 51
41.346111
  0
POLYLINE
  8
LAYER-2
 66
  1
 70
  0
 62
  7
 10
21.611032
 20
81.625671
 30
0.000000
  0
VERTEX
  8
LAYER-2
 10
21.611032
 20
81.625671
 30
0.000000
  0
VERTEX
  8
LAYER-2
 10
21.640209
 20
81.689223
 30
0.000000
  0
SEQEND
  8
LAYER-2
  0
POLYLINE
  8
LAYER-2
 66
  1
 70
  0
 62
  7
 10
21.665037
 20
81.692885
 30
0.000000
  0
VERTEX
  8
LAYER-2
 10
21.665037
 20
81.692885
 30
0.000000
  0
VERTEX
  8
LAYER-2
 10
21.697750
 20
81.655701
 30
0.000000
  0
SEQEND
  8
LAYER-2
  0
ARC
  8
LAYER-2
 62
  7
 10
21.653804
 20
81.682997
 30
0.000000
 40
0.014961
 50
41.346111
 51
155.345886
  0
POLYLINE
  8
LAYER-2
 66
  1
 70
  0
 62
  7
 10
21.413929
 20
81.656060
 30
0.000000
  0
VERTEX
  8
LAYER-2
 10
21.413929
 20
81.656060
 30
0.000000
  0
VERTEX
  8
LAYER-2
 10
21.474572
 20
81.709421
 30
0.000000
  0
SEQEND
  8
LAYER-2
  0
POLYLINE
  8
LAYER-2
 66
  1
 70
  0
 62
  7
 10
21.413929
 20
81.656060
 30
0.000000
  0
VERTEX
  8
LAYER-2
 10
21.413929
 20
81.656060
 30
0.000000
  0
VERTEX
  8
LAYER-2
 10
21.380727
 20
81.493948
 30
0.000000
  0
SEQEND
  8
LAYER-2
  0
POLYLINE
  8
LAYER-2
 66
  1
 70
  0
 62
  7
 10
21.413531
 20
81.456693
 30
0.000000
  0
VERTEX
  8
LAYER-2
 10
21.413531
 20
81.456693
 30
0.000000
  0
VERTEX
  8
LAYER-2
 10
21.371076
 20
81.419340
 30
0.000000
  0
SEQEND
  8
LAYER-2
  0
POLYLINE
  8
LAYER-2
 66
  1
 70
  0
 62
  7
 10
21.413531
 20
81.456693
 30
0.000000
  0
VERTEX
  8
LAYER-2
 10
21.413531
 20
81.456693
 30
0.000000
  0
VERTEX
  8
LAYER-2
 10
21.380727
 20
81.493948
 30
0.000000
  0
SEQEND
  8
LAYER-2
  0
POLYLINE
  8
LAYER-2
 66
  1
 70
  0
 62
  7
 10
21.543498
 20
80.916321
 30
0.000000
  0
VERTEX
  8
LAYER-2
 10
21.543498
 20
80.916321
 30
0.000000
  0
VERTEX
  8
LAYER-2
 10
21.537564
 20
80.910778
 30
0.000000
  0
SEQEND
  8
LAYER-2
  0
POLYLINE
  8
LAYER-2
 66
  1
 70
  0
 62
  7
 10
21.543498
 20
80.916321
 30
0.000000
  0
VERTEX
  8
LAYER-2
 10
21.543498
 20
80.916321
 30
0.000000
  0
VERTEX
  8
LAYER-2
 10
21.547727
 20
81.041100
 30
0.000000
  0
SEQEND
  8
LAYER-2
  0
ARC
  8
LAYER-2
 62
  7
 10
21.519173
 20
81.110730
 30
0.000000
 40
0.075258
 50
292.297180
 51
243.920761
  0
POLYLINE
  8
LAYER-2
 66
  1
 70
  0
 62
  7
 10
21.482013
 20
80.918370
 30
0.000000
  0
VERTEX
  8
LAYER-2
 10
21.482013
 20
80.918370
 30
0.000000
  0
VERTEX
  8
LAYER-2
 10
21.486087
 20
81.043135
 30
0.000000
  0
SEQEND
  8
LAYER-2
  0
POLYLINE
  8
LAYER-2
 66
  1
 70
  0
 62
  7
 10
21.482013
 20
80.918370
 30
0.000000
  0
VERTEX
  8
LAYER-2
 10
21.482013
 20
80.918370
 30
0.000000
  0
VERTEX
  8
LAYER-2
 10
21.487717
 20
80.912278
 30
0.000000
  0
SEQEND
  8
LAYER-2
  0
POLYLINE
  8
LAYER-2
 66
  1
 70
  0
 62
  7
 10
21.417715
 20
78.812453
 30
0.000000
  0
VERTEX
  8
LAYER-2
 10
21.417715
 20
78.812453
 30
0.000000
  0
VERTEX
  8
LAYER-2
 10
21.487717
 20
80.912278
 30
0.000000
  0
SEQEND
  8
LAYER-2
  0
POLYLINE
  8
LAYER-2
 66
  1
 70
  0
 62
  7
 10
21.411584
 20
78.806720
 30
0.000000
  0
VERTEX
  8
LAYER-2
 10
21.411584
 20
78.806720
 30
0.000000
  0
VERTEX
  8
LAYER-2
 10
21.417715
 20
78.812453
 30
0.000000
  0
SEQEND
  8
LAYER-2
  0
POLYLINE
  8
LAYER-2
 66
  1
 70
  0
 62
  7
 10
21.411584
 20
78.806720
 30
0.000000
  0
VERTEX
  8
LAYER-2
 10
21.411584
 20
78.806720
 30
0.000000
  0
VERTEX
  8
LAYER-2
 10
21.407355
 20
78.681955
 30
0.000000
  0
SEQEND
  8
LAYER-2
  0
ARC
  8
LAYER-2
 62
  7
 10
21.435912
 20
78.612319
 30
0.000000
 40
0.075258
 50
112.297150
 51
63.920753
  0
POLYLINE
  8
LAYER-2
 66
  1
 70
  0
 62
  7
 10
21.473065
 20
78.804664
 30
0.000000
  0
VERTEX
  8
LAYER-2
 10
21.473065
 20
78.804664
 30
0.000000
  0
VERTEX
  8
LAYER-2
 10
21.468995
 20
78.679913
 30
0.000000
  0
SEQEND
  8
LAYER-2
  0
POLYLINE
  8
LAYER-2
 66
  1
 70
  0
 62
  7
 10
21.473065
 20
78.804664
 30
0.000000
  0
VERTEX
  8
LAYER-2
 10
21.473065
 20
78.804664
 30
0.000000
  0
VERTEX
  8
LAYER-2
 10
21.467547
 20
78.810566
 30
0.000000
  0
SEQEND
  8
LAYER-2
  0
POLYLINE
  8
LAYER-2
 66
  1
 70
  0
 62
  7
 10
21.467547
 20
78.810566
 30
0.000000
  0
VERTEX
  8
LAYER-2
 10
21.467547
 20
78.810566
 30
0.000000
  0
VERTEX
  8
LAYER-2
 10
21.537564
 20
80.910778
 30
0.000000
  0
SEQEND
  8
LAYER-2
  0
CIRCLE
  8
LAYER-2
 62
  7
 10
21.846449
 20
84.302687
 30
0.000000
 40
0.082054
  0
ARC
  8
LAYER-2
 62
  7
 10
21.823638
 20
84.077017
 30
0.000000
 40
0.087262
 50
302.779602
 51
239.314987
  0
POLYLINE
  8
LAYER-2
 66
  1
 70
  0
 62
  7
 10
21.754343
 20
83.948308
 30
0.000000
  0
VERTEX
  8
LAYER-2
 10
21.754343
 20
83.948308
 30
0.000000
  0
VERTEX
  8
LAYER-2
 10
21.718441
 20
83.954688
 30
0.000000
  0
SEQEND
  8
LAYER-2
  0
POLYLINE
  8
LAYER-2
 66
  1
 70
  0
 62
  7
 10
21.779108
 20
84.001972
 30
0.000000
  0
VERTEX
  8
LAYER-2
 10
21.779108
 20
84.001972
 30
0.000000
  0
VERTEX
  8
LAYER-2
 10
21.771689
 20
83.960414
 30
0.000000
  0
SEQEND
  8
LAYER-2
  0
ARC
  8
LAYER-2
 62
  7
 10
21.756956
 20
83.963048
 30
0.000000
 40
0.014961
 50
259.923340
 51
349.880096
  0
POLYLINE
  8
LAYER-2
 66
  1
 70
  0
 62
  7
 10
21.992933
 20
84.276327
 30
0.000000
  0
VERTEX
  8
LAYER-2
 10
21.992933
 20
84.276327
 30
0.000000
  0
VERTEX
  8
LAYER-2
 10
21.971563
 20
83.995211
 30
0.000000
  0
SEQEND
  8
LAYER-2
  0
ARC
  8
LAYER-2
 62
  7
 10
21.916223
 20
83.999423
 30
0.000000
 40
0.055512
 50
304.923340
 51
355.651672
  0
POLYLINE
  8
LAYER-2
 66
  1
 70
  0
 62
  7
 10
21.870876
 20
84.003662
 30
0.000000
  0
VERTEX
  8
LAYER-2
 10
21.870876
 20
84.003662
 30
0.000000
  0
VERTEX
  8
LAYER-2
 10
21.884134
 20
83.934998
 30
0.000000
  0
SEQEND
  8
LAYER-2
  0
POLYLINE
  8
LAYER-2
 66
  1
 70
  0
 62
  7
 10
21.907388
 20
83.925568
 30
0.000000
  0
VERTEX
  8
LAYER-2
 10
21.907388
 20
83.925568
 30
0.000000
  0
VERTEX
  8
LAYER-2
 10
21.947995
 20
83.953914
 30
0.000000
  0
SEQEND
  8
LAYER-2
  0
ARC
  8
LAYER-2
 62
  7
 10
21.898824
 20
83.937836
 30
0.000000
 40
0.014961
 50
190.923584
 51
304.923340
  0
POLYLINE
  8
LAYER-2
 66
  1
 70
  0
 62
  7
 10
21.672196
 20
84.020923
 30
0.000000
  0
VERTEX
  8
LAYER-2
 10
21.672196
 20
84.020923
 30
0.000000
  0
VERTEX
  8
LAYER-2
 10
21.718441
 20
83.954688
 30
0.000000
  0
SEQEND
  8
LAYER-2
  0
POLYLINE
  8
LAYER-2
 66
  1
 70
  0
 62
  7
 10
21.672196
 20
84.020923
 30
0.000000
  0
VERTEX
  8
LAYER-2
 10
21.672196
 20
84.020923
 30
0.000000
  0
VERTEX
  8
LAYER-2
 10
21.678418
 20
84.186275
 30
0.000000
  0
SEQEND
  8
LAYER-2
  0
POLYLINE
  8
LAYER-2
 66
  1
 70
  0
 62
  7
 10
21.719134
 20
84.214705
 30
0.000000
  0
VERTEX
  8
LAYER-2
 10
21.719134
 20
84.214705
 30
0.000000
  0
VERTEX
  8
LAYER-2
 10
21.686760
 20
84.261066
 30
0.000000
  0
SEQEND
  8
LAYER-2
  0
POLYLINE
  8
LAYER-2
 66
  1
 70
  0
 62
  7
 10
21.719134
 20
84.214705
 30
0.000000
  0
VERTEX
  8
LAYER-2
 10
21.719134
 20
84.214705
 30
0.000000
  0
VERTEX
  8
LAYER-2
 10
21.678418
 20
84.186275
 30
0.000000
  0
SEQEND
  8
LAYER-2
  0
POLYLINE
  8
LAYER-2
 66
  1
 70
  0
 62
  7
 10
21.686760
 20
84.261066
 30
0.000000
  0
VERTEX
  8
LAYER-2
 10
21.686760
 20
84.261066
 30
0.000000
  0
VERTEX
  8
LAYER-2
 10
21.710764
 20
84.396149
 30
0.000000
  0
SEQEND
  8
LAYER-2
  0
ARC
  8
LAYER-2
 62
  7
 10
21.902669
 20
84.521752
 30
0.000000
 40
0.087262
 50
100.531677
 51
37.067070
  0
POLYLINE
  8
LAYER-2
 66
  1
 70
  0
 62
  7
 10
21.881957
 20
84.666448
 30
0.000000
  0
VERTEX
  8
LAYER-2
 10
21.881957
 20
84.666448
 30
0.000000
  0
VERTEX
  8
LAYER-2
 10
21.846058
 20
84.672835
 30
0.000000
  0
SEQEND
  8
LAYER-2
  0
POLYLINE
  8
LAYER-2
 66
  1
 70
  0
 62
  7
 10
21.886722
 20
84.607544
 30
0.000000
  0
VERTEX
  8
LAYER-2
 10
21.886722
 20
84.607544
 30
0.000000
  0
VERTEX
  8
LAYER-2
 10
21.894078
 20
84.649116
 30
0.000000
  0
SEQEND
  8
LAYER-2
  0
ARC
  8
LAYER-2
 62
  7
 10
21.879345
 20
84.651736
 30
0.000000
 40
0.014961
 50
349.966583
 51
79.923332
  0
POLYLINE
  8
LAYER-2
 66
  1
 70
  0
 62
  7
 10
21.992933
 20
84.276327
 30
0.000000
  0
VERTEX
  8
LAYER-2
 10
21.992933
 20
84.276327
 30
0.000000
  0
VERTEX
  8
LAYER-2
 10
22.069722
 20
84.547584
 30
0.000000
  0
SEQEND
  8
LAYER-2
  0
ARC
  8
LAYER-2
 62
  7
 10
22.016315
 20
84.562697
 30
0.000000
 40
0.055512
 50
344.195007
 51
34.923332
  0
POLYLINE
  8
LAYER-2
 66
  1
 70
  0
 62
  7
 10
21.972295
 20
84.574346
 30
0.000000
  0
VERTEX
  8
LAYER-2
 10
21.972295
 20
84.574346
 30
0.000000
  0
VERTEX
  8
LAYER-2
 10
22.008395
 20
84.634242
 30
0.000000
  0
SEQEND
  8
LAYER-2
  0
POLYLINE
  8
LAYER-2
 66
  1
 70
  0
 62
  7
 10
22.033477
 20
84.635094
 30
0.000000
  0
VERTEX
  8
LAYER-2
 10
22.033477
 20
84.635094
 30
0.000000
  0
VERTEX
  8
LAYER-2
 10
22.061830
 20
84.594487
 30
0.000000
  0
SEQEND
  8
LAYER-2
  0
ARC
  8
LAYER-2
 62
  7
 10
22.021206
 20
84.626531
 30
0.000000
 40
0.014961
 50
34.923332
 51
148.923096
  0
POLYLINE
  8
LAYER-2
 66
  1
 70
  0
 62
  7
 10
21.779830
 20
84.626587
 30
0.000000
  0
VERTEX
  8
LAYER-2
 10
21.779830
 20
84.626587
 30
0.000000
  0
VERTEX
  8
LAYER-2
 10
21.846058
 20
84.672835
 30
0.000000
  0
SEQEND
  8
LAYER-2
  0
POLYLINE
  8
LAYER-2
 66
  1
 70
  0
 62
  7
 10
21.779830
 20
84.626587
 30
0.000000
  0
VERTEX
  8
LAYER-2
 10
21.779830
 20
84.626587
 30
0.000000
  0
VERTEX
  8
LAYER-2
 10
21.728698
 20
84.469215
 30
0.000000
  0
SEQEND
  8
LAYER-2
  0
POLYLINE
  8
LAYER-2
 66
  1
 70
  0
 62
  7
 10
21.757125
 20
84.428523
 30
0.000000
  0
VERTEX
  8
LAYER-2
 10
21.757125
 20
84.428523
 30
0.000000
  0
VERTEX
  8
LAYER-2
 10
21.710764
 20
84.396149
 30
0.000000
  0
SEQEND
  8
LAYER-2
  0
POLYLINE
  8
LAYER-2
 66
  1
 70
  0
 62
  7
 10
21.757125
 20
84.428523
 30
0.000000
  0
VERTEX
  8
LAYER-2
 10
21.757125
 20
84.428523
 30
0.000000
  0
VERTEX
  8
LAYER-2
 10
21.728698
 20
84.469215
 30
0.000000
  0
SEQEND
  8
LAYER-2
  0
POLYLINE
  8
LAYER-2
 66
  1
 70
  0
 62
  7
 10
21.830477
 20
83.866784
 30
0.000000
  0
VERTEX
  8
LAYER-2
 10
21.830477
 20
83.866784
 30
0.000000
  0
VERTEX
  8
LAYER-2
 10
21.824145
 20
83.861699
 30
0.000000
  0
SEQEND
  8
LAYER-2
  0
POLYLINE
  8
LAYER-2
 66
  1
 70
  0
 62
  7
 10
21.830477
 20
83.866784
 30
0.000000
  0
VERTEX
  8
LAYER-2
 10
21.830477
 20
83.866784
 30
0.000000
  0
VERTEX
  8
LAYER-2
 10
21.844019
 20
83.990887
 30
0.000000
  0
SEQEND
  8
LAYER-2
  0
ARC
  8
LAYER-2
 62
  7
 10
21.820747
 20
84.062467
 30
0.000000
 40
0.075258
 50
288.011597
 51
239.635208
  0
POLYLINE
  8
LAYER-2
 66
  1
 70
  0
 62
  7
 10
21.769316
 20
83.873418
 30
0.000000
  0
VERTEX
  8
LAYER-2
 10
21.769316
 20
83.873418
 30
0.000000
  0
VERTEX
  8
LAYER-2
 10
21.782704
 20
83.997535
 30
0.000000
  0
SEQEND
  8
LAYER-2
  0
POLYLINE
  8
LAYER-2
 66
  1
 70
  0
 62
  7
 10
21.769316
 20
83.873418
 30
0.000000
  0
VERTEX
  8
LAYER-2
 10
21.769316
 20
83.873418
 30
0.000000
  0
VERTEX
  8
LAYER-2
 10
21.774552
 20
83.866910
 30
0.000000
  0
SEQEND
  8
LAYER-2
  0
POLYLINE
  8
LAYER-2
 66
  1
 70
  0
 62
  7
 10
21.547829
 20
81.778191
 30
0.000000
  0
VERTEX
  8
LAYER-2
 10
21.547829
 20
81.778191
 30
0.000000
  0
VERTEX
  8
LAYER-2
 10
21.774552
 20
83.866910
 30
0.000000
  0
SEQEND
  8
LAYER-2
  0
POLYLINE
  8
LAYER-2
 66
  1
 70
  0
 62
  7
 10
21.541283
 20
81.772937
 30
0.000000
  0
VERTEX
  8
LAYER-2
 10
21.541283
 20
81.772937
 30
0.000000
  0
VERTEX
  8
LAYER-2
 10
21.547829
 20
81.778191
 30
0.000000
  0
SEQEND
  8
LAYER-2
  0
POLYLINE
  8
LAYER-2
 66
  1
 70
  0
 62
  7
 10
21.541283
 20
81.772937
 30
0.000000
  0
VERTEX
  8
LAYER-2
 10
21.541283
 20
81.772937
 30
0.000000
  0
VERTEX
  8
LAYER-2
 10
21.527743
 20
81.648827
 30
0.000000
  0
SEQEND
  8
LAYER-2
  0
ARC
  8
LAYER-2
 62
  7
 10
21.551015
 20
81.577261
 30
0.000000
 40
0.075258
 50
108.011597
 51
59.635201
  0
POLYLINE
  8
LAYER-2
 66
  1
 70
  0
 62
  7
 10
21.602443
 20
81.766296
 30
0.000000
  0
VERTEX
  8
LAYER-2
 10
21.602443
 20
81.766296
 30
0.000000
  0
VERTEX
  8
LAYER-2
 10
21.589059
 20
81.642193
 30
0.000000
  0
SEQEND
  8
LAYER-2
  0
POLYLINE
  8
LAYER-2
 66
  1
 70
  0
 62
  7
 10
21.602443
 20
81.766296
 30
0.000000
  0
VERTEX
  8
LAYER-2
 10
21.602443
 20
81.766296
 30
0.000000
  0
VERTEX
  8
LAYER-2
 10
21.597380
 20
81.772592
 30
0.000000
  0
SEQEND
  8
LAYER-2
  0
POLYLINE
  8
LAYER-2
 66
  1
 70
  0
 62
  7
 10
21.597380
 20
81.772592
 30
0.000000
  0
VERTEX
  8
LAYER-2
 10
21.597380
 20
81.772592
 30
0.000000
  0
VERTEX
  8
LAYER-2
 10
21.824145
 20
83.861699
 30
0.000000
  0
SEQEND
  8
LAYER-2
  0
CIRCLE
  8
LAYER-2
 62
  7
 10
22.496069
 20
87.214480
 30
0.000000
 40
0.082054
  0
ARC
  8
LAYER-2
 62
  7
 10
22.453711
 20
86.991662
 30
0.000000
 40
0.087262
 50
297.789032
 51
234.324432
  0
POLYLINE
  8
LAYER-2
 66
  1
 70
  0
 62
  7
 10
22.373483
 20
86.869474
 30
0.000000
  0
VERTEX
  8
LAYER-2
 10
22.373483
 20
86.869474
 30
0.000000
  0
VERTEX
  8
LAYER-2
 10
22.338274
 20
86.878953
 30
0.000000
  0
SEQEND
  8
LAYER-2
  0
POLYLINE
  8
LAYER-2
 66
  1
 70
  0
 62
  7
 10
22.402826
 20
86.920772
 30
0.000000
  0
VERTEX
  8
LAYER-2
 10
22.402826
 20
86.920772
 30
0.000000
  0
VERTEX
  8
LAYER-2
 10
22.391818
 20
86.880010
 30
0.000000
  0
SEQEND
  8
LAYER-2
  0
ARC
  8
LAYER-2
 62
  7
 10
22.377374
 20
86.883918
 30
0.000000
 40
0.014961
 50
254.932770
 51
344.889526
  0
POLYLINE
  8
LAYER-2
 66
  1
 70
  0
 62
  7
 10
22.639704
 20
87.175485
 30
0.000000
  0
VERTEX
  8
LAYER-2
 10
22.639704
 20
87.175485
 30
0.000000
  0
VERTEX
  8
LAYER-2
 10
22.593960
 20
86.897299
 30
0.000000
  0
SEQEND
  8
LAYER-2
  0
ARC
  8
LAYER-2
 62
  7
 10
22.539197
 20
86.906306
 30
0.000000
 40
0.055512
 50
299.932770
 51
350.661102
  0
POLYLINE
  8
LAYER-2
 66
  1
 70
  0
 62
  7
 10
22.494392
 20
86.914462
 30
0.000000
  0
VERTEX
  8
LAYER-2
 10
22.494392
 20
86.914462
 30
0.000000
  0
VERTEX
  8
LAYER-2
 10
22.501629
 20
86.844910
 30
0.000000
  0
SEQEND
  8
LAYER-2
  0
POLYLINE
  8
LAYER-2
 66
  1
 70
  0
 62
  7
 10
22.523974
 20
86.833501
 30
0.000000
  0
VERTEX
  8
LAYER-2
 10
22.523974
 20
86.833501
 30
0.000000
  0
VERTEX
  8
LAYER-2
 10
22.566888
 20
86.858206
 30
0.000000
  0
SEQEND
  8
LAYER-2
  0
ARC
  8
LAYER-2
 62
  7
 10
22.516509
 20
86.846459
 30
0.000000
 40
0.014961
 50
185.933014
 51
299.932770
  0
POLYLINE
  8
LAYER-2
 66
  1
 70
  0
 62
  7
 10
22.297970
 20
86.948956
 30
0.000000
  0
VERTEX
  8
LAYER-2
 10
22.297970
 20
86.948956
 30
0.000000
  0
VERTEX
  8
LAYER-2
 10
22.338274
 20
86.878953
 30
0.000000
  0
SEQEND
  8
LAYER-2
  0
POLYLINE
  8
LAYER-2
 66
  1
 70
  0
 62
  7
 10
22.297970
 20
86.948956
 30
0.000000
  0
VERTEX
  8
LAYER-2
 10
22.297970
 20
86.948956
 30
0.000000
  0
VERTEX
  8
LAYER-2
 10
22.318551
 20
87.113138
 30
0.000000
  0
SEQEND
  8
LAYER-2
  0
POLYLINE
  8
LAYER-2
 66
  1
 70
  0
 62
  7
 10
22.361581
 20
87.137921
 30
0.000000
  0
VERTEX
  8
LAYER-2
 10
22.361581
 20
87.137921
 30
0.000000
  0
VERTEX
  8
LAYER-2
 10
22.333369
 20
87.186923
 30
0.000000
  0
SEQEND
  8
LAYER-2
  0
POLYLINE
  8
LAYER-2
 66
  1
 70
  0
 62
  7
 10
22.361581
 20
87.137921
 30
0.000000
  0
VERTEX
  8
LAYER-2
 10
22.361581
 20
87.137921
 30
0.000000
  0
VERTEX
  8
LAYER-2
 10
22.318551
 20
87.113138
 30
0.000000
  0
SEQEND
  8
LAYER-2
  0
POLYLINE
  8
LAYER-2
 66
  1
 70
  0
 62
  7
 10
22.333369
 20
87.186923
 30
0.000000
  0
VERTEX
  8
LAYER-2
 10
22.333369
 20
87.186923
 30
0.000000
  0
VERTEX
  8
LAYER-2
 10
22.369029
 20
87.319392
 30
0.000000
  0
SEQEND
  8
LAYER-2
  0
ARC
  8
LAYER-2
 62
  7
 10
22.571138
 20
87.427833
 30
0.000000
 40
0.087262
 50
95.541107
 51
32.076519
  0
POLYLINE
  8
LAYER-2
 66
  1
 70
  0
 62
  7
 10
22.563096
 20
87.573782
 30
0.000000
  0
VERTEX
  8
LAYER-2
 10
22.563096
 20
87.573782
 30
0.000000
  0
VERTEX
  8
LAYER-2
 10
22.527883
 20
87.583268
 30
0.000000
  0
SEQEND
  8
LAYER-2
  0
POLYLINE
  8
LAYER-2
 66
  1
 70
  0
 62
  7
 10
22.562712
 20
87.514688
 30
0.000000
  0
VERTEX
  8
LAYER-2
 10
22.562712
 20
87.514688
 30
0.000000
  0
VERTEX
  8
LAYER-2
 10
22.573656
 20
87.555465
 30
0.000000
  0
SEQEND
  8
LAYER-2
  0
ARC
  8
LAYER-2
 62
  7
 10
22.559208
 20
87.559352
 30
0.000000
 40
0.014961
 50
344.976013
 51
74.932777
  0
POLYLINE
  8
LAYER-2
 66
  1
 70
  0
 62
  7
 10
22.639704
 20
87.175485
 30
0.000000
  0
VERTEX
  8
LAYER-2
 10
22.639704
 20
87.175485
 30
0.000000
  0
VERTEX
  8
LAYER-2
 10
22.739803
 20
87.439038
 30
0.000000
  0
SEQEND
  8
LAYER-2
  0
ARC
  8
LAYER-2
 62
  7
 10
22.687914
 20
87.458736
 30
0.000000
 40
0.055512
 50
339.204437
 51
29.932781
  0
POLYLINE
  8
LAYER-2
 66
  1
 70
  0
 62
  7
 10
22.645067
 20
87.474173
 30
0.000000
  0
VERTEX
  8
LAYER-2
 10
22.645067
 20
87.474173
 30
0.000000
  0
VERTEX
  8
LAYER-2
 10
22.686245
 20
87.530696
 30
0.000000
  0
SEQEND
  8
LAYER-2
  0
POLYLINE
  8
LAYER-2
 66
  1
 70
  0
 62
  7
 10
22.711305
 20
87.529365
 30
0.000000
  0
VERTEX
  8
LAYER-2
 10
22.711305
 20
87.529365
 30
0.000000
  0
VERTEX
  8
LAYER-2
 10
22.736018
 20
87.486455
 30
0.000000
  0
SEQEND
  8
LAYER-2
  0
ARC
  8
LAYER-2
 62
  7
 10
22.698337
 20
87.521900
 30
0.000000
 40
0.014961
 50
29.932781
 51
143.932526
  0
POLYLINE
  8
LAYER-2
 66
  1
 70
  0
 62
  7
 10
22.457880
 20
87.542964
 30
0.000000
  0
VERTEX
  8
LAYER-2
 10
22.457880
 20
87.542964
 30
0.000000
  0
VERTEX
  8
LAYER-2
 10
22.527883
 20
87.583268
 30
0.000000
  0
SEQEND
  8
LAYER-2
  0
POLYLINE
  8
LAYER-2
 66
  1
 70
  0
 62
  7
 10
22.457880
 20
87.542964
 30
0.000000
  0
VERTEX
  8
LAYER-2
 10
22.457880
 20
87.542964
 30
0.000000
  0
VERTEX
  8
LAYER-2
 10
22.393255
 20
87.390634
 30
0.000000
  0
SEQEND
  8
LAYER-2
  0
POLYLINE
  8
LAYER-2
 66
  1
 70
  0
 62
  7
 10
22.418034
 20
87.347619
 30
0.000000
  0
VERTEX
  8
LAYER-2
 10
22.418034
 20
87.347619
 30
0.000000
  0
VERTEX
  8
LAYER-2
 10
22.369029
 20
87.319392
 30
0.000000
  0
SEQEND
  8
LAYER-2
  0
POLYLINE
  8
LAYER-2
 66
  1
 70
  0
 62
  7
 10
22.418034
 20
87.347619
 30
0.000000
  0
VERTEX
  8
LAYER-2
 10
22.418034
 20
87.347619
 30
0.000000
  0
VERTEX
  8
LAYER-2
 10
22.393255
 20
87.390634
 30
0.000000
  0
SEQEND
  8
LAYER-2
  0
POLYLINE
  8
LAYER-2
 66
  1
 70
  0
 62
  7
 10
22.441538
 20
86.781506
 30
0.000000
  0
VERTEX
  8
LAYER-2
 10
22.441538
 20
86.781506
 30
0.000000
  0
VERTEX
  8
LAYER-2
 10
22.434679
 20
86.777161
 30
0.000000
  0
SEQEND
  8
LAYER-2
  0
POLYLINE
  8
LAYER-2
 66
  1
 70
  0
 62
  7
 10
22.441538
 20
86.781506
 30
0.000000
  0
VERTEX
  8
LAYER-2
 10
22.441538
 20
86.781506
 30
0.000000
  0
VERTEX
  8
LAYER-2
 10
22.468888
 20
86.903320
 30
0.000000
  0
SEQEND
  8
LAYER-2
  0
ARC
  8
LAYER-2
 62
  7
 10
22.453778
 20
86.977041
 30
0.000000
 40
0.075258
 50
281.585205
 51
233.208801
  0
POLYLINE
  8
LAYER-2
 66
  1
 70
  0
 62
  7
 10
22.381511
 20
86.794950
 30
0.000000
  0
VERTEX
  8
LAYER-2
 10
22.381511
 20
86.794950
 30
0.000000
  0
VERTEX
  8
LAYER-2
 10
22.408706
 20
86.916786
 30
0.000000
  0
SEQEND
  8
LAYER-2
  0
POLYLINE
  8
LAYER-2
 66
  1
 70
  0
 62
  7
 10
22.381511
 20
86.794950
 30
0.000000
  0
VERTEX
  8
LAYER-2
 10
22.381511
 20
86.794950
 30
0.000000
  0
VERTEX
  8
LAYER-2
 10
22.385983
 20
86.787893
 30
0.000000
  0
SEQEND
  8
LAYER-2
  0
POLYLINE
  8
LAYER-2
 66
  1
 70
  0
 62
  7
 10
21.926903
 20
84.737683
 30
0.000000
  0
VERTEX
  8
LAYER-2
 10
21.926903
 20
84.737683
 30
0.000000
  0
VERTEX
  8
LAYER-2
 10
22.385983
 20
86.787893
 30
0.000000
  0
SEQEND
  8
LAYER-2
  0
POLYLINE
  8
LAYER-2
 66
  1
 70
  0
 62
  7
 10
21.919814
 20
84.733190
 30
0.000000
  0
VERTEX
  8
LAYER-2
 10
21.919814
 20
84.733190
 30
0.000000
  0
VERTEX
  8
LAYER-2
 10
21.926903
 20
84.737683
 30
0.000000
  0
SEQEND
  8
LAYER-2
  0
POLYLINE
  8
LAYER-2
 66
  1
 70
  0
 62
  7
 10
21.919814
 20
84.733190
 30
0.000000
  0
VERTEX
  8
LAYER-2
 10
21.919814
 20
84.733190
 30
0.000000
  0
VERTEX
  8
LAYER-2
 10
21.892468
 20
84.611375
 30
0.000000
  0
SEQEND
  8
LAYER-2
  0
ARC
  8
LAYER-2
 62
  7
 10
21.907578
 20
84.537654
 30
0.000000
 40
0.075258
 50
101.585205
 51
53.208801
  0
POLYLINE
  8
LAYER-2
 66
  1
 70
  0
 62
  7
 10
21.979845
 20
84.719745
 30
0.000000
  0
VERTEX
  8
LAYER-2
 10
21.979845
 20
84.719745
 30
0.000000
  0
VERTEX
  8
LAYER-2
 10
21.952647
 20
84.597917
 30
0.000000
  0
SEQEND
  8
LAYER-2
  0
POLYLINE
  8
LAYER-2
 66
  1
 70
  0
 62
  7
 10
21.979845
 20
84.719745
 30
0.000000
  0
VERTEX
  8
LAYER-2
 10
21.979845
 20
84.719745
 30
0.000000
  0
VERTEX
  8
LAYER-2
 10
21.975517
 20
84.726562
 30
0.000000
  0
SEQEND
  8
LAYER-2
  0
POLYLINE
  8
LAYER-2
 66
  1
 70
  0
 62
  7
 10
21.975517
 20
84.726562
 30
0.000000
  0
VERTEX
  8
LAYER-2
 10
21.975517
 20
84.726562
 30
0.000000
  0
VERTEX
  8
LAYER-2
 10
22.434679
 20
86.777161
 30
0.000000
  0
SEQEND
  8
LAYER-2
  0
POLYLINE
  8
LAYER-2
 66
  1
 70
  0
 62
  7
 10
22.604745
 20
87.635390
 30
0.000000
  0
VERTEX
  8
LAYER-2
 10
22.604745
 20
87.635390
 30
0.000000
  0
VERTEX
  8
LAYER-2
 10
22.611960
 20
87.639109
 30
0.000000
  0
SEQEND
  8
LAYER-2
  0
POLYLINE
  8
LAYER-2
 66
  1
 70
  0
 62
  7
 10
22.604745
 20
87.635390
 30
0.000000
  0
VERTEX
  8
LAYER-2
 10
22.604745
 20
87.635390
 30
0.000000
  0
VERTEX
  8
LAYER-2
 10
22.566754
 20
87.516456
 30
0.000000
  0
SEQEND
  8
LAYER-2
  0
ARC
  8
LAYER-2
 62
  7
 10
22.575300
 20
87.441693
 30
0.000000
 40
0.075258
 50
96.521606
 51
48.145203
  0
POLYLINE
  8
LAYER-2
 66
  1
 70
  0
 62
  7
 10
22.663353
 20
87.616699
 30
0.000000
  0
VERTEX
  8
LAYER-2
 10
22.663353
 20
87.616699
 30
0.000000
  0
VERTEX
  8
LAYER-2
 10
22.625514
 20
87.497737
 30
0.000000
  0
SEQEND
  8
LAYER-2
  0
POLYLINE
  8
LAYER-2
 66
  1
 70
  0
 62
  7
 10
22.663353
 20
87.616699
 30
0.000000
  0
VERTEX
  8
LAYER-2
 10
22.663353
 20
87.616699
 30
0.000000
  0
VERTEX
  8
LAYER-2
 10
22.659525
 20
87.624115
 30
0.000000
  0
SEQEND
  8
LAYER-2
  0
POLYLINE
  8
LAYER-2
 66
  1
 70
  0
 62
  7
 10
23.297764
 20
89.625817
 30
0.000000
  0
VERTEX
  8
LAYER-2
 10
23.297764
 20
89.625817
 30
0.000000
  0
VERTEX
  8
LAYER-2
 10
22.659525
 20
87.624115
 30
0.000000
  0
SEQEND
  8
LAYER-2
  0
POLYLINE
  8
LAYER-2
 66
  1
 70
  0
 62
  7
 10
23.305226
 20
89.629662
 30
0.000000
  0
VERTEX
  8
LAYER-2
 10
23.305226
 20
89.629662
 30
0.000000
  0
VERTEX
  8
LAYER-2
 10
23.297764
 20
89.625817
 30
0.000000
  0
SEQEND
  8
LAYER-2
  0
POLYLINE
  8
LAYER-2
 66
  1
 70
  0
 62
  7
 10
23.305226
 20
89.629662
 30
0.000000
  0
VERTEX
  8
LAYER-2
 10
23.305226
 20
89.629662
 30
0.000000
  0
VERTEX
  8
LAYER-2
 10
23.343217
 20
89.748589
 30
0.000000
  0
SEQEND
  8
LAYER-2
  0
ARC
  8
LAYER-2
 62
  7
 10
23.334667
 20
89.823360
 30
0.000000
 40
0.075258
 50
276.521606
 51
228.145203
  0
POLYLINE
  8
LAYER-2
 66
  1
 70
  0
 62
  7
 10
23.246614
 20
89.648353
 30
0.000000
  0
VERTEX
  8
LAYER-2
 10
23.246614
 20
89.648353
 30
0.000000
  0
VERTEX
  8
LAYER-2
 10
23.284454
 20
89.767301
 30
0.000000
  0
SEQEND
  8
LAYER-2
  0
POLYLINE
  8
LAYER-2
 66
  1
 70
  0
 62
  7
 10
23.246614
 20
89.648353
 30
0.000000
  0
VERTEX
  8
LAYER-2
 10
23.246614
 20
89.648353
 30
0.000000
  0
VERTEX
  8
LAYER-2
 10
23.250326
 20
89.641177
 30
0.000000
  0
SEQEND
  8
LAYER-2
  0
POLYLINE
  8
LAYER-2
 66
  1
 70
  0
 62
  7
 10
23.250326
 20
89.641177
 30
0.000000
  0
VERTEX
  8
LAYER-2
 10
23.250326
 20
89.641177
 30
0.000000
  0
VERTEX
  8
LAYER-2
 10
22.611960
 20
87.639109
 30
0.000000
  0
SEQEND
  8
LAYER-2
  0
CIRCLE
  8
LAYER-2
 62
  7
 10
23.472239
 20
90.017550
 30
0.000000
 40
0.082054
  0
ARC
  8
LAYER-2
 62
  7
 10
23.341040
 20
89.832529
 30
0.000000
 40
0.087262
 50
273.212097
 51
209.747498
  0
POLYLINE
  8
LAYER-2
 66
  1
 70
  0
 62
  7
 10
23.217265
 20
89.754772
 30
0.000000
  0
VERTEX
  8
LAYER-2
 10
23.217265
 20
89.754772
 30
0.000000
  0
VERTEX
  8
LAYER-2
 10
23.189186
 20
89.778048
 30
0.000000
  0
SEQEND
  8
LAYER-2
  0
POLYLINE
  8
LAYER-2
 66
  1
 70
  0
 62
  7
 10
23.265281
 20
89.789232
 30
0.000000
  0
VERTEX
  8
LAYER-2
 10
23.265281
 20
89.789232
 30
0.000000
  0
VERTEX
  8
LAYER-2
 10
23.238322
 20
89.756737
 30
0.000000
  0
SEQEND
  8
LAYER-2
  0
ARC
  8
LAYER-2
 62
  7
 10
23.226807
 20
89.766301
 30
0.000000
 40
0.014961
 50
230.355835
 51
320.312592
  0
POLYLINE
  8
LAYER-2
 66
  1
 70
  0
 62
  7
 10
23.586645
 20
89.922342
 30
0.000000
  0
VERTEX
  8
LAYER-2
 10
23.586645
 20
89.922342
 30
0.000000
  0
VERTEX
  8
LAYER-2
 10
23.429339
 20
89.688383
 30
0.000000
  0
SEQEND
  8
LAYER-2
  0
ARC
  8
LAYER-2
 62
  7
 10
23.383281
 20
89.719356
 30
0.000000
 40
0.055512
 50
275.355835
 51
326.084167
  0
POLYLINE
  8
LAYER-2
 66
  1
 70
  0
 62
  7
 10
23.345931
 20
89.745413
 30
0.000000
  0
VERTEX
  8
LAYER-2
 10
23.345931
 20
89.745413
 30
0.000000
  0
VERTEX
  8
LAYER-2
 10
23.323586
 20
89.679143
 30
0.000000
  0
SEQEND
  8
LAYER-2
  0
POLYLINE
  8
LAYER-2
 66
  1
 70
  0
 62
  7
 10
23.339157
 20
89.659480
 30
0.000000
  0
VERTEX
  8
LAYER-2
 10
23.339157
 20
89.659480
 30
0.000000
  0
VERTEX
  8
LAYER-2
 10
23.388458
 20
89.664093
 30
0.000000
  0
SEQEND
  8
LAYER-2
  0
ARC
  8
LAYER-2
 62
  7
 10
23.337759
 20
89.674368
 30
0.000000
 40
0.014961
 50
161.356049
 51
275.355835
  0
POLYLINE
  8
LAYER-2
 66
  1
 70
  0
 62
  7
 10
23.181647
 20
89.858474
 30
0.000000
  0
VERTEX
  8
LAYER-2
 10
23.181647
 20
89.858474
 30
0.000000
  0
VERTEX
  8
LAYER-2
 10
23.189186
 20
89.778048
 30
0.000000
  0
SEQEND
  8
LAYER-2
  0
POLYLINE
  8
LAYER-2
 66
  1
 70
  0
 62
  7
 10
23.181647
 20
89.858474
 30
0.000000
  0
VERTEX
  8
LAYER-2
 10
23.181647
 20
89.858474
 30
0.000000
  0
VERTEX
  8
LAYER-2
 10
23.268654
 20
89.999218
 30
0.000000
  0
SEQEND
  8
LAYER-2
  0
POLYLINE
  8
LAYER-2
 66
  1
 70
  0
 62
  7
 10
23.318089
 20
90.003852
 30
0.000000
  0
VERTEX
  8
LAYER-2
 10
23.318089
 20
90.003852
 30
0.000000
  0
VERTEX
  8
LAYER-2
 10
23.312810
 20
90.060157
 30
0.000000
  0
SEQEND
  8
LAYER-2
  0
POLYLINE
  8
LAYER-2
 66
  1
 70
  0
 62
  7
 10
23.318089
 20
90.003852
 30
0.000000
  0
VERTEX
  8
LAYER-2
 10
23.318089
 20
90.003852
 30
0.000000
  0
VERTEX
  8
LAYER-2
 10
23.268654
 20
89.999218
 30
0.000000
  0
SEQEND
  8
LAYER-2
  0
POLYLINE
  8
LAYER-2
 66
  1
 70
  0
 62
  7
 10
23.312810
 20
90.060157
 30
0.000000
  0
VERTEX
  8
LAYER-2
 10
23.312810
 20
90.060157
 30
0.000000
  0
VERTEX
  8
LAYER-2
 10
23.400342
 20
90.165795
 30
0.000000
  0
SEQEND
  8
LAYER-2
  0
ARC
  8
LAYER-2
 62
  7
 10
23.629245
 20
90.180352
 30
0.000000
 40
0.087262
 50
70.964172
 51
7.499573
  0
POLYLINE
  8
LAYER-2
 66
  1
 70
  0
 62
  7
 10
23.682631
 20
90.316420
 30
0.000000
  0
VERTEX
  8
LAYER-2
 10
23.682631
 20
90.316420
 30
0.000000
  0
VERTEX
  8
LAYER-2
 10
23.654552
 20
90.339689
 30
0.000000
  0
SEQEND
  8
LAYER-2
  0
POLYLINE
  8
LAYER-2
 66
  1
 70
  0
 62
  7
 10
23.657704
 20
90.262841
 30
0.000000
  0
VERTEX
  8
LAYER-2
 10
23.657704
 20
90.262841
 30
0.000000
  0
VERTEX
  8
LAYER-2
 10
23.684617
 20
90.295370
 30
0.000000
  0
SEQEND
  8
LAYER-2
  0
ARC
  8
LAYER-2
 62
  7
 10
23.673088
 20
90.304913
 30
0.000000
 40
0.014961
 50
320.399078
 51
50.355835
  0
POLYLINE
  8
LAYER-2
 66
  1
 70
  0
 62
  7
 10
23.586645
 20
89.922342
 30
0.000000
  0
VERTEX
  8
LAYER-2
 10
23.586645
 20
89.922342
 30
0.000000
  0
VERTEX
  8
LAYER-2
 10
23.787286
 20
90.120385
 30
0.000000
  0
SEQEND
  8
LAYER-2
  0
ARC
  8
LAYER-2
 62
  7
 10
23.748292
 20
90.159886
 30
0.000000
 40
0.055512
 50
314.627502
 51
5.355835
  0
POLYLINE
  8
LAYER-2
 66
  1
 70
  0
 62
  7
 10
23.715752
 20
90.191740
 30
0.000000
  0
VERTEX
  8
LAYER-2
 10
23.715752
 20
90.191740
 30
0.000000
  0
VERTEX
  8
LAYER-2
 10
23.776705
 20
90.226008
 30
0.000000
  0
SEQEND
  8
LAYER-2
  0
POLYLINE
  8
LAYER-2
 66
  1
 70
  0
 62
  7
 10
23.798945
 20
90.214381
 30
0.000000
  0
VERTEX
  8
LAYER-2
 10
23.798945
 20
90.214381
 30
0.000000
  0
VERTEX
  8
LAYER-2
 10
23.803565
 20
90.165077
 30
0.000000
  0
SEQEND
  8
LAYER-2
  0
ARC
  8
LAYER-2
 62
  7
 10
23.784043
 20
90.212987
 30
0.000000
 40
0.014961
 50
5.355835
 51
119.355560
  0
POLYLINE
  8
LAYER-2
 66
  1
 70
  0
 62
  7
 10
23.574127
 20
90.332153
 30
0.000000
  0
VERTEX
  8
LAYER-2
 10
23.574127
 20
90.332153
 30
0.000000
  0
VERTEX
  8
LAYER-2
 10
23.654552
 20
90.339689
 30
0.000000
  0
SEQEND
  8
LAYER-2
  0
POLYLINE
  8
LAYER-2
 66
  1
 70
  0
 62
  7
 10
23.574127
 20
90.332153
 30
0.000000
  0
VERTEX
  8
LAYER-2
 10
23.574127
 20
90.332153
 30
0.000000
  0
VERTEX
  8
LAYER-2
 10
23.452002
 20
90.220501
 30
0.000000
  0
SEQEND
  8
LAYER-2
  0
POLYLINE
  8
LAYER-2
 66
  1
 70
  0
 62
  7
 10
23.456647
 20
90.171077
 30
0.000000
  0
VERTEX
  8
LAYER-2
 10
23.456647
 20
90.171077
 30
0.000000
  0
VERTEX
  8
LAYER-2
 10
23.400342
 20
90.165795
 30
0.000000
  0
SEQEND
  8
LAYER-2
  0
POLYLINE
  8
LAYER-2
 66
  1
 70
  0
 62
  7
 10
23.456647
 20
90.171077
 30
0.000000
  0
VERTEX
  8
LAYER-2
 10
23.456647
 20
90.171077
 30
0.000000
  0
VERTEX
  8
LAYER-2
 10
23.452002
 20
90.220501
 30
0.000000
  0
SEQEND
  8
LAYER-2
  0
POLYLINE
  8
LAYER-2
 66
  1
 70
  0
 62
  7
 10
25.698798
 20
91.233948
 30
0.000000
  0
VERTEX
  8
LAYER-2
 10
25.698798
 20
91.233948
 30
0.000000
  0
VERTEX
  8
LAYER-2
 10
25.691048
 20
91.236356
 30
0.000000
  0
SEQEND
  8
LAYER-2
  0
POLYLINE
  8
LAYER-2
 66
  1
 70
  0
 62
  7
 10
25.698798
 20
91.233948
 30
0.000000
  0
VERTEX
  8
LAYER-2
 10
25.698798
 20
91.233948
 30
0.000000
  0
VERTEX
  8
LAYER-2
 10
25.809373
 20
91.291929
 30
0.000000
  0
SEQEND
  8
LAYER-2
  0
ARC
  8
LAYER-2
 62
  7
 10
25.855793
 20
91.351163
 30
0.000000
 40
0.075258
 50
231.909393
 51
183.532959
  0
POLYLINE
  8
LAYER-2
 66
  1
 70
  0
 62
  7
 10
25.670202
 20
91.288415
 30
0.000000
  0
VERTEX
  8
LAYER-2
 10
25.670202
 20
91.288415
 30
0.000000
  0
VERTEX
  8
LAYER-2
 10
25.780685
 20
91.346522
 30
0.000000
  0
SEQEND
  8
LAYER-2
  0
POLYLINE
  8
LAYER-2
 66
  1
 70
  0
 62
  7
 10
25.670202
 20
91.288415
 30
0.000000
  0
VERTEX
  8
LAYER-2
 10
25.670202
 20
91.288415
 30
0.000000
  0
VERTEX
  8
LAYER-2
 10
25.667719
 20
91.280442
 30
0.000000
  0
SEQEND
  8
LAYER-2
  0
POLYLINE
  8
LAYER-2
 66
  1
 70
  0
 62
  7
 10
23.807565
 20
90.303730
 30
0.000000
  0
VERTEX
  8
LAYER-2
 10
23.807565
 20
90.303730
 30
0.000000
  0
VERTEX
  8
LAYER-2
 10
25.667719
 20
91.280442
 30
0.000000
  0
SEQEND
  8
LAYER-2
  0
POLYLINE
  8
LAYER-2
 66
  1
 70
  0
 62
  7
 10
23.799551
 20
90.306223
 30
0.000000
  0
VERTEX
  8
LAYER-2
 10
23.799551
 20
90.306223
 30
0.000000
  0
VERTEX
  8
LAYER-2
 10
23.807565
 20
90.303730
 30
0.000000
  0
SEQEND
  8
LAYER-2
  0
POLYLINE
  8
LAYER-2
 66
  1
 70
  0
 62
  7
 10
23.799551
 20
90.306223
 30
0.000000
  0
VERTEX
  8
LAYER-2
 10
23.799551
 20
90.306223
 30
0.000000
  0
VERTEX
  8
LAYER-2
 10
23.688983
 20
90.248235
 30
0.000000
  0
SEQEND
  8
LAYER-2
  0
ARC
  8
LAYER-2
 62
  7
 10
23.642562
 20
90.189007
 30
0.000000
 40
0.075258
 50
51.909382
 51
3.532990
  0
POLYLINE
  8
LAYER-2
 66
  1
 70
  0
 62
  7
 10
23.828140
 20
90.251749
 30
0.000000
  0
VERTEX
  8
LAYER-2
 10
23.828140
 20
90.251749
 30
0.000000
  0
VERTEX
  8
LAYER-2
 10
23.717667
 20
90.193641
 30
0.000000
  0
SEQEND
  8
LAYER-2
  0
POLYLINE
  8
LAYER-2
 66
  1
 70
  0
 62
  7
 10
23.828140
 20
90.251749
 30
0.000000
  0
VERTEX
  8
LAYER-2
 10
23.828140
 20
90.251749
 30
0.000000
  0
VERTEX
  8
LAYER-2
 10
23.830548
 20
90.259460
 30
0.000000
  0
SEQEND
  8
LAYER-2
  0
POLYLINE
  8
LAYER-2
 66
  1
 70
  0
 62
  7
 10
23.830548
 20
90.259460
 30
0.000000
  0
VERTEX
  8
LAYER-2
 10
23.830548
 20
90.259460
 30
0.000000
  0
VERTEX
  8
LAYER-2
 10
25.691048
 20
91.236356
 30
0.000000
  0
SEQEND
  8
LAYER-2
  0
CIRCLE
  8
LAYER-2
 62
  7
 10
26.089390
 20
91.359572
 30
0.000000
 40
0.082054
  0
ARC
  8
LAYER-2
 62
  7
 10
25.863223
 20
91.342452
 30
0.000000
 40
0.087262
 50
222.880981
 51
159.416382
  0
POLYLINE
  8
LAYER-2
 66
  1
 70
  0
 62
  7
 10
25.724359
 20
91.388094
 30
0.000000
  0
VERTEX
  8
LAYER-2
 10
25.724359
 20
91.388094
 30
0.000000
  0
VERTEX
  8
LAYER-2
 10
25.724341
 20
91.424561
 30
0.000000
  0
SEQEND
  8
LAYER-2
  0
POLYLINE
  8
LAYER-2
 66
  1
 70
  0
 62
  7
 10
25.781530
 20
91.373122
 30
0.000000
  0
VERTEX
  8
LAYER-2
 10
25.781530
 20
91.373122
 30
0.000000
  0
VERTEX
  8
LAYER-2
 10
25.739310
 20
91.373143
 30
0.000000
  0
SEQEND
  8
LAYER-2
  0
ARC
  8
LAYER-2
 62
  7
 10
25.739321
 20
91.388108
 30
0.000000
 40
0.014961
 50
180.024719
 51
269.981476
  0
POLYLINE
  8
LAYER-2
 66
  1
 70
  0
 62
  7
 10
26.089130
 20
91.210736
 30
0.000000
  0
VERTEX
  8
LAYER-2
 10
26.089130
 20
91.210736
 30
0.000000
  0
VERTEX
  8
LAYER-2
 10
25.808633
 20
91.182481
 30
0.000000
  0
SEQEND
  8
LAYER-2
  0
ARC
  8
LAYER-2
 62
  7
 10
25.803073
 20
91.237701
 30
0.000000
 40
0.055512
 50
225.024719
 51
275.753052
  0
POLYLINE
  8
LAYER-2
 66
  1
 70
  0
 62
  7
 10
25.799284
 20
91.283076
 30
0.000000
  0
VERTEX
  8
LAYER-2
 10
25.799284
 20
91.283076
 30
0.000000
  0
VERTEX
  8
LAYER-2
 10
25.734014
 20
91.257991
 30
0.000000
  0
SEQEND
  8
LAYER-2
  0
POLYLINE
  8
LAYER-2
 66
  1
 70
  0
 62
  7
 10
25.728810
 20
91.233441
 30
0.000000
  0
VERTEX
  8
LAYER-2
 10
25.728810
 20
91.233441
 30
0.000000
  0
VERTEX
  8
LAYER-2
 10
25.763836
 20
91.198439
 30
0.000000
  0
SEQEND
  8
LAYER-2
  0
ARC
  8
LAYER-2
 62
  7
 10
25.739384
 20
91.244026
 30
0.000000
 40
0.014961
 50
111.024963
 51
225.024719
  0
POLYLINE
  8
LAYER-2
 66
  1
 70
  0
 62
  7
 10
25.781438
 20
91.481711
 30
0.000000
  0
VERTEX
  8
LAYER-2
 10
25.781438
 20
91.481711
 30
0.000000
  0
VERTEX
  8
LAYER-2
 10
25.724341
 20
91.424561
 30
0.000000
  0
SEQEND
  8
LAYER-2
  0
POLYLINE
  8
LAYER-2
 66
  1
 70
  0
 62
  7
 10
25.781438
 20
91.481711
 30
0.000000
  0
VERTEX
  8
LAYER-2
 10
25.781438
 20
91.481711
 30
0.000000
  0
VERTEX
  8
LAYER-2
 10
25.945318
 20
91.504585
 30
0.000000
  0
SEQEND
  8
LAYER-2
  0
POLYLINE
  8
LAYER-2
 66
  1
 70
  0
 62
  7
 10
25.980449
 20
91.469492
 30
0.000000
  0
VERTEX
  8
LAYER-2
 10
25.980449
 20
91.469492
 30
0.000000
  0
VERTEX
  8
LAYER-2
 10
26.020412
 20
91.509493
 30
0.000000
  0
SEQEND
  8
LAYER-2
  0
POLYLINE
  8
LAYER-2
 66
  1
 70
  0
 62
  7
 10
25.980449
 20
91.469492
 30
0.000000
  0
VERTEX
  8
LAYER-2
 10
25.980449
 20
91.469492
 30
0.000000
  0
VERTEX
  8
LAYER-2
 10
25.945318
 20
91.504585
 30
0.000000
  0
SEQEND
  8
LAYER-2
  0
POLYLINE
  8
LAYER-2
 66
  1
 70
  0
 62
  7
 10
26.020412
 20
91.509493
 30
0.000000
  0
VERTEX
  8
LAYER-2
 10
26.020412
 20
91.509493
 30
0.000000
  0
VERTEX
  8
LAYER-2
 10
26.157607
 20
91.509550
 30
0.000000
  0
SEQEND
  8
LAYER-2
  0
ARC
  8
LAYER-2
 62
  7
 10
26.314930
 20
91.342649
 30
0.000000
 40
0.087262
 50
20.633057
 51
317.168457
  0
POLYLINE
  8
LAYER-2
 66
  1
 70
  0
 62
  7
 10
26.453749
 20
91.388418
 30
0.000000
  0
VERTEX
  8
LAYER-2
 10
26.453749
 20
91.388418
 30
0.000000
  0
VERTEX
  8
LAYER-2
 10
26.453735
 20
91.424885
 30
0.000000
  0
SEQEND
  8
LAYER-2
  0
POLYLINE
  8
LAYER-2
 66
  1
 70
  0
 62
  7
 10
26.396595
 20
91.373397
 30
0.000000
  0
VERTEX
  8
LAYER-2
 10
26.396595
 20
91.373397
 30
0.000000
  0
VERTEX
  8
LAYER-2
 10
26.438808
 20
91.373446
 30
0.000000
  0
SEQEND
  8
LAYER-2
  0
ARC
  8
LAYER-2
 62
  7
 10
26.438801
 20
91.388411
 30
0.000000
 40
0.014961
 50
270.067963
 51
0.024719
  0
POLYLINE
  8
LAYER-2
 66
  1
 70
  0
 62
  7
 10
26.089130
 20
91.210736
 30
0.000000
  0
VERTEX
  8
LAYER-2
 10
26.089130
 20
91.210736
 30
0.000000
  0
VERTEX
  8
LAYER-2
 10
26.369658
 20
91.182720
 30
0.000000
  0
SEQEND
  8
LAYER-2
  0
ARC
  8
LAYER-2
 62
  7
 10
26.375168
 20
91.237948
 30
0.000000
 40
0.055512
 50
264.296387
 51
315.024719
  0
POLYLINE
  8
LAYER-2
 66
  1
 70
  0
 62
  7
 10
26.378915
 20
91.283330
 30
0.000000
  0
VERTEX
  8
LAYER-2
 10
26.378915
 20
91.283330
 30
0.000000
  0
VERTEX
  8
LAYER-2
 10
26.444213
 20
91.258287
 30
0.000000
  0
SEQEND
  8
LAYER-2
  0
POLYLINE
  8
LAYER-2
 66
  1
 70
  0
 62
  7
 10
26.449453
 20
91.233744
 30
0.000000
  0
VERTEX
  8
LAYER-2
 10
26.449453
 20
91.233744
 30
0.000000
  0
VERTEX
  8
LAYER-2
 10
26.414448
 20
91.198707
 30
0.000000
  0
SEQEND
  8
LAYER-2
  0
ARC
  8
LAYER-2
 62
  7
 10
26.438864
 20
91.244328
 30
0.000000
 40
0.014961
 50
315.024719
 51
69.024475
  0
POLYLINE
  8
LAYER-2
 66
  1
 70
  0
 62
  7
 10
26.396588
 20
91.481971
 30
0.000000
  0
VERTEX
  8
LAYER-2
 10
26.396588
 20
91.481971
 30
0.000000
  0
VERTEX
  8
LAYER-2
 10
26.453735
 20
91.424885
 30
0.000000
  0
SEQEND
  8
LAYER-2
  0
POLYLINE
  8
LAYER-2
 66
  1
 70
  0
 62
  7
 10
26.396588
 20
91.481971
 30
0.000000
  0
VERTEX
  8
LAYER-2
 10
26.396588
 20
91.481971
 30
0.000000
  0
VERTEX
  8
LAYER-2
 10
26.232695
 20
91.504704
 30
0.000000
  0
SEQEND
  8
LAYER-2
  0
POLYLINE
  8
LAYER-2
 66
  1
 70
  0
 62
  7
 10
26.197616
 20
91.469576
 30
0.000000
  0
VERTEX
  8
LAYER-2
 10
26.197616
 20
91.469576
 30
0.000000
  0
VERTEX
  8
LAYER-2
 10
26.157607
 20
91.509550
 30
0.000000
  0
SEQEND
  8
LAYER-2
  0
POLYLINE
  8
LAYER-2
 66
  1
 70
  0
 62
  7
 10
26.197616
 20
91.469576
 30
0.000000
  0
VERTEX
  8
LAYER-2
 10
26.197616
 20
91.469576
 30
0.000000
  0
VERTEX
  8
LAYER-2
 10
26.232695
 20
91.504704
 30
0.000000
  0
SEQEND
  8
LAYER-2
  0
POLYLINE
  8
LAYER-2
 66
  1
 70
  0
 62
  7
 10
28.399628
 20
90.332815
 30
0.000000
  0
VERTEX
  8
LAYER-2
 10
28.399628
 20
90.332815
 30
0.000000
  0
VERTEX
  8
LAYER-2
 10
28.396892
 20
90.340463
 30
0.000000
  0
SEQEND
  8
LAYER-2
  0
POLYLINE
  8
LAYER-2
 66
  1
 70
  0
 62
  7
 10
28.399628
 20
90.332815
 30
0.000000
  0
VERTEX
  8
LAYER-2
 10
28.399628
 20
90.332815
 30
0.000000
  0
VERTEX
  8
LAYER-2
 10
28.512495
 20
90.279447
 30
0.000000
  0
SEQEND
  8
LAYER-2
  0
ARC
  8
LAYER-2
 62
  7
 10
28.587734
 20
90.278039
 30
0.000000
 40
0.075258
 50
178.928558
 51
130.552155
  0
POLYLINE
  8
LAYER-2
 66
  1
 70
  0
 62
  7
 10
28.425897
 20
90.388444
 30
0.000000
  0
VERTEX
  8
LAYER-2
 10
28.425897
 20
90.388444
 30
0.000000
  0
VERTEX
  8
LAYER-2
 10
28.538806
 20
90.335210
 30
0.000000
  0
SEQEND
  8
LAYER-2
  0
POLYLINE
  8
LAYER-2
 66
  1
 70
  0
 62
  7
 10
28.425897
 20
90.388444
 30
0.000000
  0
VERTEX
  8
LAYER-2
 10
28.425897
 20
90.388444
 30
0.000000
  0
VERTEX
  8
LAYER-2
 10
28.418037
 20
90.385627
 30
0.000000
  0
SEQEND
  8
LAYER-2
  0
POLYLINE
  8
LAYER-2
 66
  1
 70
  0
 62
  7
 10
26.518230
 20
91.282774
 30
0.000000
  0
VERTEX
  8
LAYER-2
 10
26.518230
 20
91.282774
 30
0.000000
  0
VERTEX
  8
LAYER-2
 10
28.418037
 20
90.385627
 30
0.000000
  0
SEQEND
  8
LAYER-2
  0
POLYLINE
  8
LAYER-2
 66
  1
 70
  0
 62
  7
 10
26.515406
 20
91.290675
 30
0.000000
  0
VERTEX
  8
LAYER-2
 10
26.515406
 20
91.290675
 30
0.000000
  0
VERTEX
  8
LAYER-2
 10
26.518230
 20
91.282774
 30
0.000000
  0
SEQEND
  8
LAYER-2
  0
POLYLINE
  8
LAYER-2
 66
  1
 70
  0
 62
  7
 10
26.515406
 20
91.290675
 30
0.000000
  0
VERTEX
  8
LAYER-2
 10
26.515406
 20
91.290675
 30
0.000000
  0
VERTEX
  8
LAYER-2
 10
26.402539
 20
91.344043
 30
0.000000
  0
SEQEND
  8
LAYER-2
  0
ARC
  8
LAYER-2
 62
  7
 10
26.327297
 20
91.345459
 30
0.000000
 40
0.075258
 50
358.928558
 51
310.552155
  0
POLYLINE
  8
LAYER-2
 66
  1
 70
  0
 62
  7
 10
26.489130
 20
91.235046
 30
0.000000
  0
VERTEX
  8
LAYER-2
 10
26.489130
 20
91.235046
 30
0.000000
  0
VERTEX
  8
LAYER-2
 10
26.376225
 20
91.288274
 30
0.000000
  0
SEQEND
  8
LAYER-2
  0
POLYLINE
  8
LAYER-2
 66
  1
 70
  0
 62
  7
 10
26.489130
 20
91.235046
 30
0.000000
  0
VERTEX
  8
LAYER-2
 10
26.489130
 20
91.235046
 30
0.000000
  0
VERTEX
  8
LAYER-2
 10
26.496733
 20
91.237779
 30
0.000000
  0
SEQEND
  8
LAYER-2
  0
POLYLINE
  8
LAYER-2
 66
  1
 70
  0
 62
  7
 10
26.496733
 20
91.237779
 30
0.000000
  0
VERTEX
  8
LAYER-2
 10
26.496733
 20
91.237779
 30
0.000000
  0
VERTEX
  8
LAYER-2
 10
28.396892
 20
90.340463
 30
0.000000
  0
SEQEND
  8
LAYER-2
  0
TEXT
  8
LAYER-2
 62
  7
 10
0.352564
 20
98.532081
 30
0.000000
 40
1.471154
  1
CEILING DETAIL
 72
  5
 11
15.814103
 21
98.532081
 31
0.000000
  0
TEXT
  8
LAYER-2
 62
  7
 10
41.891026
 20
85.147466
 30
0.000000
 40
1.730769
  1
6"
 72
  5
 11
44.544872
 21
85.147466
 31
0.000000
  0
TEXT
  8
LAYER-2
 62
  7
 10
44.544872
 20
85.147466
 30
0.000000
 40
1.471154
  1
 min (152mm) 
 72
  5
 11
57.352564
 21
85.147466
 31
0.000000
  0
TEXT
  8
LAYER-2
 62
  7
 10
41.891026
 20
82.839773
 30
0.000000
 40
1.471154
  1
     above finished
 72
  5
 11
57.467949
 21
82.839773
 31
0.000000
  0
TEXT
  8
LAYER-2
 62
  7
 10
41.891026
 20
80.532081
 30
0.000000
 40
1.471154
  1
     ceiling
 72
  5
 11
50.775641
 21
80.532081
 31
0.000000
  0
POLYLINE
  8
LAYER-2
 66
  1
 70
  0
 62
  7
 10
42.238044
 20
84.224389
 30
0.000000
  0
VERTEX
  8
LAYER-2
 10
42.238044
 20
84.224389
 30
0.000000
  0
VERTEX
  8
LAYER-2
 10
42.238044
 20
78.710491
 30
0.000000
  0
SEQEND
  8
LAYER-2
  0
POLYLINE
  8
LAYER-2
 66
  1
 70
  0
 62
  7
 10
16.583334
 20
84.891048
 30
0.000000
  0
VERTEX
  8
LAYER-2
 10
16.583334
 20
84.891048
 30
0.000000
  0
VERTEX
  8
LAYER-2
 10
19.151821
 20
87.128117
 30
0.000000
  0
SEQEND
  8
LAYER-2
  0
POLYLINE
  8
LAYER-2
 66
  1
 70
  1
 62
  7
  0
VERTEX
  8
LAYER-2
 10
19.166665
 20
87.141048
 30
0.000000
  0
VERTEX
  8
LAYER-2
 10
18.958967
 20
86.501108
 30
0.000000
  0
VERTEX
  8
LAYER-2
 10
18.731619
 20
86.762132
 30
0.000000
  0
VERTEX
  8
LAYER-2
 10
18.504271
 20
87.023163
 30
0.000000
  0
VERTEX
  8
LAYER-2
 10
19.166665
 20
87.141048
 30
0.000000
  0
SEQEND
  8
LAYER-2
  0
ARC
  8
LAYER-2
 62
  7
 10
62.601872
 20
107.426316
 30
0.000000
 40
2.986555
 50
270.000000
 51
90.000000
  0
POLYLINE
  8
LAYER-2
 66
  1
 70
  0
 62
  7
 10
62.601872
 20
110.412929
 30
0.000000
  0
VERTEX
  8
LAYER-2
 10
62.601872
 20
110.412929
 30
0.000000
  0
VERTEX
  8
LAYER-2
 10
19.581410
 20
110.412929
 30
0.000000
  0
SEQEND
  8
LAYER-2
  0
POLYLINE
  8
LAYER-2
 66
  1
 70
  0
 62
  7
 10
19.581410
 20
110.412929
 30
0.000000
  0
VERTEX
  8
LAYER-2
 10
19.581410
 20
110.412929
 30
0.000000
  0
VERTEX
  8
LAYER-2
 10
19.581410
 20
104.439810
 30
0.000000
  0
SEQEND
  8
LAYER-2
  0
POLYLINE
  8
LAYER-2
 66
  1
 70
  0
 62
  7
 10
62.601872
 20
104.439810
 30
0.000000
  0
VERTEX
  8
LAYER-2
 10
62.601872
 20
104.439810
 30
0.000000
  0
VERTEX
  8
LAYER-2
 10
19.581410
 20
104.439810
 30
0.000000
  0
SEQEND
  8
LAYER-2
  0
TEXT
  8
LAYER-2
 62
  7
 10
21.006410
 20
105.916696
 30
0.000000
 40
2.250000
  1
Ceiling detail & Access panels
 72
  5
 11
64.275641
 21
105.916696
 31
0.000000
  0
TEXT
  8
LAYER-2
 62
  7
 10
40.621795
 20
114.109004
 30
0.000000
 40
3.807692
  1
MobilFlex
 72
  5
 11
65.083334
 21
114.109004
 31
0.000000
  0
POLYLINE
  8
LAYER-2
 66
  1
 70
  1
 62
  7
  0
VERTEX
  8
LAYER-2
 10
19.599057
 20
119.992394
 30
0.000000
  0
VERTEX
  8
LAYER-2
 10
22.391047
 20
119.992394
 30
0.000000
  0
VERTEX
  8
LAYER-2
 10
22.391047
 20
113.924335
 30
0.000000
  0
VERTEX
  8
LAYER-2
 10
19.599057
 20
113.924335
 30
0.000000
  0
SEQEND
  8
LAYER-2
  0
POLYLINE
  8
LAYER-2
 66
  1
 70
  1
 62
  7
  0
VERTEX
  8
LAYER-2
 10
23.267316
 20
119.992394
 30
0.000000
  0
VERTEX
  8
LAYER-2
 10
26.059326
 20
119.992394
 30
0.000000
  0
VERTEX
  8
LAYER-2
 10
26.059326
 20
113.924335
 30
0.000000
  0
VERTEX
  8
LAYER-2
 10
23.267316
 20
113.924335
 30
0.000000
  0
SEQEND
  8
LAYER-2
  0
POLYLINE
  8
LAYER-2
 66
  1
 70
  1
 62
  7
  0
VERTEX
  8
LAYER-2
 10
26.792983
 20
119.992394
 30
0.000000
  0
VERTEX
  8
LAYER-2
 10
29.584921
 20
119.992394
 30
0.000000
  0
VERTEX
  8
LAYER-2
 10
29.584921
 20
113.924335
 30
0.000000
  0
VERTEX
  8
LAYER-2
 10
26.792983
 20
113.924335
 30
0.000000
  0
SEQEND
  8
LAYER-2
  0
POLYLINE
  8
LAYER-2
 66
  1
 70
  1
 62
  7
  0
VERTEX
  8
LAYER-2
 10
30.359337
 20
119.992394
 30
0.000000
  0
VERTEX
  8
LAYER-2
 10
33.151294
 20
119.992394
 30
0.000000
  0
VERTEX
  8
LAYER-2
 10
33.151294
 20
113.924335
 30
0.000000
  0
VERTEX
  8
LAYER-2
 10
30.359337
 20
113.924335
 30
0.000000
  0
SEQEND
  8
LAYER-2
  0
POLYLINE
  8
LAYER-2
 66
  1
 70
  1
 62
  7
  0
VERTEX
  8
LAYER-2
 10
34.078541
 20
119.946463
 30
0.000000
  0
VERTEX
  8
LAYER-2
 10
38.485565
 20
119.946463
 30
0.000000
  0
VERTEX
  8
LAYER-2
 10
38.485565
 20
118.326332
 30
0.000000
  0
VERTEX
  8
LAYER-2
 10
34.078541
 20
118.326332
 30
0.000000
  0
SEQEND
  8
LAYER-2
  0
POLYLINE
  8
LAYER-2
 66
  1
 70
  1
 62
  7
  0
VERTEX
  8
LAYER-2
 10
34.073456
 20
117.276771
 30
0.000000
  0
VERTEX
  8
LAYER-2
 10
37.690768
 20
117.276771
 30
0.000000
  0
VERTEX
  8
LAYER-2
 10
37.690768
 20
115.702501
 30
0.000000
  0
VERTEX
  8
LAYER-2
 10
34.073456
 20
115.702501
 30
0.000000
  0
SEQEND
  8
LAYER-2
  0
POLYLINE
  8
LAYER-2
 66
  1
 70
  1
 62
  7
  0
VERTEX
  8
LAYER-2
 10
19.599057
 20
112.930904
 30
0.000000
  0
VERTEX
  8
LAYER-2
 10
65.594978
 20
112.930904
 30
0.000000
  0
VERTEX
  8
LAYER-2
 10
65.594978
 20
112.421469
 30
0.000000
  0
VERTEX
  8
LAYER-2
 10
19.599057
 20
112.421469
 30
0.000000
  0
SEQEND
  8
LAYER-2
  0
POLYLINE
  8
LAYER-2
 66
  1
 70
  0
 62
  7
 10
22.547982
 20
78.672363
 30
0.000000
  0
VERTEX
  8
LAYER-2
 10
22.547982
 20
78.672363
 30
0.000000
  0
VERTEX
  8
LAYER-2
 10
21.968182
 20
78.396423
 30
0.000000
  0
SEQEND
  8
LAYER-2
  0
POLYLINE
  8
LAYER-2
 66
  1
 70
  0
 62
  7
 10
22.241749
 20
78.702519
 30
0.000000
  0
VERTEX
  8
LAYER-2
 10
22.241749
 20
78.702519
 30
0.000000
  0
VERTEX
  8
LAYER-2
 10
22.241749
 20
78.526625
 30
0.000000
  0
SEQEND
  8
LAYER-2
  0
POLYLINE
  8
LAYER-2
 66
  1
 70
  0
 62
  7
 10
21.967707
 20
78.702519
 30
0.000000
  0
VERTEX
  8
LAYER-2
 10
21.967707
 20
78.702519
 30
0.000000
  0
VERTEX
  8
LAYER-2
 10
21.967707
 20
78.383768
 30
0.000000
  0
SEQEND
  8
LAYER-2
  0
POLYLINE
  8
LAYER-2
 66
  1
 70
  1
 62
255
  0
VERTEX
  8
LAYER-2
 10
18.054462
 20
26.882686
 30
0.000000
  0
VERTEX
  8
LAYER-2
 10
21.774105
 20
26.882686
 30
0.000000
  0
VERTEX
  8
LAYER-2
 10
21.774105
 20
25.885085
 30
0.000000
  0
VERTEX
  8
LAYER-2
 10
18.054462
 20
25.885085
 30
0.000000
  0
SEQEND
  8
LAYER-2
  0
POLYLINE
  8
LAYER-2
 66
  1
 70
  1
 62
255
  0
VERTEX
  8
LAYER-2
 10
16.073806
 20
26.882686
 30
0.000000
  0
VERTEX
  8
LAYER-2
 10
16.972618
 20
26.882686
 30
0.000000
  0
VERTEX
  8
LAYER-2
 10
16.972618
 20
25.885085
 30
0.000000
  0
VERTEX
  8
LAYER-2
 10
16.073806
 20
25.885085
 30
0.000000
  0
SEQEND
  8
LAYER-2
  0
POLYLINE
  8
LAYER-2
 66
  1
 70
  1
 62
255
 10
17.958002
 20
29.079571
 30
0.000000
  0
VERTEX
  8
LAYER-2
 10
17.958002
 20
29.079571
 30
0.000000
  0
VERTEX
  8
LAYER-2
 10
17.803729
 20
29.079571
 30
0.000000
  0
VERTEX
  8
LAYER-2
 10
17.791666
 20
29.047309
 30
0.000000
  0
VERTEX
  8
LAYER-2
 10
17.770833
 20
29.000434
 30
0.000000
  0
VERTEX
  8
LAYER-2
 10
17.760415
 20
28.953559
 30
0.000000
  0
VERTEX
  8
LAYER-2
 10
17.744791
 20
28.901473
 30
0.000000
  0
VERTEX
  8
LAYER-2
 10
17.735900
 20
28.854915
 30
0.000000
  0
VERTEX
  8
LAYER-2
 10
17.723958
 20
28.812927
 30
0.000000
  0
VERTEX
  8
LAYER-2
 10
17.713540
 20
28.750432
 30
0.000000
  0
VERTEX
  8
LAYER-2
 10
17.709802
 20
27.396452
 30
0.000000
  0
VERTEX
  8
LAYER-2
 10
16.976465
 20
27.396452
 30
0.000000
  0
VERTEX
  8
LAYER-2
 10
16.976465
 20
25.378932
 30
0.000000
  0
VERTEX
  8
LAYER-2
 10
17.709802
 20
25.378932
 30
0.000000
  0
VERTEX
  8
LAYER-2
 10
17.708334
 20
24.021261
 30
0.000000
  0
VERTEX
  8
LAYER-2
 10
17.718750
 20
23.943139
 30
0.000000
  0
VERTEX
  8
LAYER-2
 10
17.723958
 20
23.896264
 30
0.000000
  0
VERTEX
  8
LAYER-2
 10
17.739584
 20
23.844184
 30
0.000000
  0
VERTEX
  8
LAYER-2
 10
17.755209
 20
23.792098
 30
0.000000
  0
VERTEX
  8
LAYER-2
 10
17.776041
 20
23.724391
 30
0.000000
  0
VERTEX
  8
LAYER-2
 10
17.804368
 20
23.663797
 30
0.000000
  0
VERTEX
  8
LAYER-2
 10
17.957365
 20
23.663797
 30
0.000000
  0
VERTEX
  8
LAYER-2
 10
17.979166
 20
23.703559
 30
0.000000
  0
VERTEX
  8
LAYER-2
 10
18.000000
 20
23.750434
 30
0.000000
  0
VERTEX
  8
LAYER-2
 10
18.020834
 20
23.818141
 30
0.000000
  0
VERTEX
  8
LAYER-2
 10
18.031299
 20
23.874721
 30
0.000000
  0
VERTEX
  8
LAYER-2
 10
18.041665
 20
23.917103
 30
0.000000
  0
VERTEX
  8
LAYER-2
 10
18.052081
 20
23.979598
 30
0.000000
  0
VERTEX
  8
LAYER-2
 10
18.052083
 20
24.021261
 30
0.000000
  0
VERTEX
  8
LAYER-2
 10
18.052083
 20
28.740016
 30
0.000000
  0
VERTEX
  8
LAYER-2
 10
18.041671
 20
28.797300
 30
0.000000
  0
VERTEX
  8
LAYER-2
 10
18.031251
 20
28.828562
 30
0.000000
  0
VERTEX
  8
LAYER-2
 10
18.015626
 20
28.885845
 30
0.000000
  0
VERTEX
  8
LAYER-2
 10
18.000000
 20
28.943136
 30
0.000000
  0
VERTEX
  8
LAYER-2
 10
17.984376
 20
29.005639
 30
0.000000
  0
VERTEX
  8
LAYER-2
 10
17.968751
 20
29.042098
 30
0.000000
  0
SEQEND
  8
LAYER-2
  0
POLYLINE
  8
LAYER-2
 66
  1
 70
  1
 62
255
  0
VERTEX
  8
LAYER-2
 10
66.895829
 20
30.480962
 30
0.000000
  0
VERTEX
  8
LAYER-2
 10
67.041687
 20
30.480962
 30
0.000000
  0
VERTEX
  8
LAYER-2
 10
67.041687
 20
29.230964
 30
0.000000
  0
VERTEX
  8
LAYER-2
 10
66.895829
 20
29.230964
 30
0.000000
  0
SEQEND
  8
LAYER-2
  0
POLYLINE
  8
LAYER-2
 66
  1
 70
  1
 62
255
  0
VERTEX
  8
LAYER-2
 10
66.895829
 20
29.230964
 30
0.000000
  0
VERTEX
  8
LAYER-2
 10
68.916687
 20
29.230964
 30
0.000000
  0
VERTEX
  8
LAYER-2
 10
68.916687
 20
28.503127
 30
0.000000
  0
VERTEX
  8
LAYER-2
 10
66.895829
 20
28.503127
 30
0.000000
  0
SEQEND
  8
LAYER-2
  0
POLYLINE
  8
LAYER-2
 66
  1
 70
  1
 62
255
  0
VERTEX
  8
LAYER-2
 10
68.735560
 20
26.881686
 30
0.000000
  0
VERTEX
  8
LAYER-2
 10
69.910407
 20
26.881686
 30
0.000000
  0
VERTEX
  8
LAYER-2
 10
69.910407
 20
25.884085
 30
0.000000
  0
VERTEX
  8
LAYER-2
 10
68.735560
 20
25.884085
 30
0.000000
  0
SEQEND
  8
LAYER-2
  0
POLYLINE
  8
LAYER-2
 66
  1
 70
  1
 62
255
  0
VERTEX
  8
LAYER-2
 10
64.210116
 20
26.881686
 30
0.000000
  0
VERTEX
  8
LAYER-2
 10
67.934960
 20
26.881686
 30
0.000000
  0
VERTEX
  8
LAYER-2
 10
67.934960
 20
25.884085
 30
0.000000
  0
VERTEX
  8
LAYER-2
 10
64.210116
 20
25.884085
 30
0.000000
  0
SEQEND
  8
LAYER-2
  0
POLYLINE
  8
LAYER-2
 66
  1
 70
  1
 62
  7
  0
VERTEX
  8
LAYER-2
 10
0.916668
 20
14.875425
 30
0.000000
  0
VERTEX
  8
LAYER-2
 10
84.149428
 20
14.875425
 30
0.000000
  0
VERTEX
  8
LAYER-2
 10
84.149428
 20
14.125425
 30
0.000000
  0
VERTEX
  8
LAYER-2
 10
0.916668
 20
14.125425
 30
0.000000
  0
SEQEND
  8
LAYER-2
  0
POLYLINE
  8
LAYER-2
 66
  1
 70
  1
 62
  7
  0
VERTEX
  8
LAYER-2
 10
54.958339
 20
15.182718
 30
0.000000
  0
VERTEX
  8
LAYER-2
 10
78.916647
 20
15.182718
 30
0.000000
  0
VERTEX
  8
LAYER-2
 10
78.916647
 20
13.974384
 30
0.000000
  0
VERTEX
  8
LAYER-2
 10
54.958339
 20
13.974384
 30
0.000000
  0
SEQEND
  8
LAYER-2
  0
POLYLINE
  8
LAYER-2
 66
  1
 70
  1
 62
  7
  0
VERTEX
  8
LAYER-2
 10
6.124999
 20
15.141062
 30
0.000000
  0
VERTEX
  8
LAYER-2
 10
30.083334
 20
15.141062
 30
0.000000
  0
VERTEX
  8
LAYER-2
 10
30.083334
 20
13.932720
 30
0.000000
  0
VERTEX
  8
LAYER-2
 10
6.124999
 20
13.932720
 30
0.000000
  0
SEQEND
  8
LAYER-2
  0
LINE
  8
LAYER-2
 62
  7
 10
47.737737
 20
19.377009
 30
0.000000
 11
40.321064
 21
8.543687
 31
0.000000
  0
LINE
  8
LAYER-2
 62
  7
 10
45.262284
 20
21.071756
 30
0.000000
 11
37.845605
 21
10.238413
 31
0.000000
  0
LINE
  8
LAYER-2
 62
  7
 10
47.737737
 20
19.377009
 30
0.000000
 11
45.262284
 21
21.071756
 31
0.000000
  0
LINE
  8
LAYER-2
 62
  7
 10
40.321064
 20
8.543687
 30
0.000000
 11
37.845605
 21
10.238413
 31
0.000000
  0
POLYLINE
  8
LAYER-2
 66
  1
 70
  1
 62
  7
  0
VERTEX
  8
LAYER-2
 10
24.436846
 20
75.444848
 30
0.000000
  0
VERTEX
  8
LAYER-2
 10
38.879538
 20
75.444848
 30
0.000000
  0
VERTEX
  8
LAYER-2
 10
38.879538
 20
74.694855
 30
0.000000
  0
VERTEX
  8
LAYER-2
 10
24.436846
 20
74.694855
 30
0.000000
  0
SEQEND
  8
LAYER-2
  0
POLYLINE
  8
LAYER-2
 66
  1
 70
  1
 62
  7
  0
VERTEX
  8
LAYER-2
 10
29.224054
 20
10.599405
 30
0.000000
  0
VERTEX
  8
LAYER-2
 10
55.755242
 20
10.599405
 30
0.000000
  0
VERTEX
  8
LAYER-2
 10
55.755242
 20
0.057692
 30
0.000000
  0
VERTEX
  8
LAYER-2
 10
29.224054
 20
0.057692
 30
0.000000
  0
SEQEND
  8
LAYER-2
  0
TEXT
  8
LAYER-2
 62
  7
 10
30.237180
 20
8.532081
 30
0.000000
 40
1.471154
  1
2 x 24" x 24" Access panels
 72
  5
 11
54.121795
 21
8.532081
 31
0.000000
  0
TEXT
  8
LAYER-2
 62
  7
 10
30.237180
 20
6.224389
 30
0.000000
 40
1.471154
  1
(610x610mm) are required
 72
  5
 11
53.198718
 21
6.224389
 31
0.000000
  0
TEXT
  8
LAYER-2
 62
  7
 10
30.237180
 20
3.916696
 30
0.000000
 40
1.471154
  1
under charging wheel and
 72
  5
 11
52.621795
 21
3.916696
 31
0.000000
  0
TEXT
  8
LAYER-2
 62
  7
 10
30.237180
 20
1.609004
 30
0.000000
 40
1.471154
  1
motor for maintenance
 72
  5
 11
49.737180
 21
1.609004
 31
0.000000
  0
POLYLINE
  8
LAYER-2
 66
  1
 70
  0
 62
  7
 10
6.111215
 20
16.056300
 30
0.000000
  0
VERTEX
  8
LAYER-2
 10
6.111215
 20
16.056300
 30
0.000000
  0
VERTEX
  8
LAYER-2
 10
6.111215
 20
14.132545
 30
0.000000
  0
SEQEND
  8
LAYER-2
  0
POLYLINE
  8
LAYER-2
 66
  1
 70
  0
 62
  7
 10
7.954973
 20
14.132545
 30
0.000000
  0
VERTEX
  8
LAYER-2
 10
7.954973
 20
14.132545
 30
0.000000
  0
VERTEX
  8
LAYER-2
 10
6.111215
 20
14.132545
 30
0.000000
  0
SEQEND
  8
LAYER-2
  0
POLYLINE
  8
LAYER-2
 66
  1
 70
  0
 62
  7
 10
30.118152
 20
16.027060
 30
0.000000
  0
VERTEX
  8
LAYER-2
 10
30.118152
 20
16.027060
 30
0.000000
  0
VERTEX
  8
LAYER-2
 10
30.118152
 20
14.132545
 30
0.000000
  0
SEQEND
  8
LAYER-2
  0
POLYLINE
  8
LAYER-2
 66
  1
 70
  0
 62
  7
 10
28.274388
 20
14.132545
 30
0.000000
  0
VERTEX
  8
LAYER-2
 10
28.274388
 20
14.132545
 30
0.000000
  0
VERTEX
  8
LAYER-2
 10
30.118152
 20
14.132545
 30
0.000000
  0
SEQEND
  8
LAYER-2
  0
POLYLINE
  8
LAYER-2
 66
  1
 70
  1
 62
  7
  0
VERTEX
  8
LAYER-2
 10
6.938549
 20
14.791703
 30
0.000000
  0
VERTEX
  8
LAYER-2
 10
29.212870
 20
14.791703
 30
0.000000
  0
VERTEX
  8
LAYER-2
 10
29.212870
 20
14.424978
 30
0.000000
  0
VERTEX
  8
LAYER-2
 10
6.938549
 20
14.424978
 30
0.000000
  0
SEQEND
  8
LAYER-2
  0
POLYLINE
  8
LAYER-2
 66
  1
 70
  1
 62
  7
  0
VERTEX
  8
LAYER-2
 10
8.589617
 20
75.444848
 30
0.000000
  0
VERTEX
  8
LAYER-2
 10
18.436842
 20
75.444848
 30
0.000000
  0
VERTEX
  8
LAYER-2
 10
18.436842
 20
74.694855
 30
0.000000
  0
VERTEX
  8
LAYER-2
 10
8.589617
 20
74.694855
 30
0.000000
  0
SEQEND
  8
LAYER-2
  0
CIRCLE
  8
LAYER-2
 62
  7
 10
21.417352
 20
51.856708
 30
0.000000
 40
0.082054
  0
ARC
  8
LAYER-2
 62
  7
 10
21.434377
 20
51.630531
 30
0.000000
 40
0.087262
 50
312.856262
 51
249.391663
  0
POLYLINE
  8
LAYER-2
 66
  1
 70
  0
 62
  7
 10
21.388671
 20
51.491687
 30
0.000000
  0
VERTEX
  8
LAYER-2
 10
21.388671
 20
51.491687
 30
0.000000
  0
VERTEX
  8
LAYER-2
 10
21.352209
 20
51.491687
 30
0.000000
  0
SEQEND
  8
LAYER-2
  0
POLYLINE
  8
LAYER-2
 66
  1
 70
  0
 62
  7
 10
21.403665
 20
51.548852
 30
0.000000
  0
VERTEX
  8
LAYER-2
 10
21.403665
 20
51.548852
 30
0.000000
  0
VERTEX
  8
LAYER-2
 10
21.403633
 20
51.506639
 30
0.000000
  0
SEQEND
  8
LAYER-2
  0
ARC
  8
LAYER-2
 62
  7
 10
21.388671
 20
51.506653
 30
0.000000
 40
0.014961
 50
270.000000
 51
359.956757
  0
POLYLINE
  8
LAYER-2
 66
  1
 70
  0
 62
  7
 10
21.566189
 20
51.856384
 30
0.000000
  0
VERTEX
  8
LAYER-2
 10
21.566189
 20
51.856384
 30
0.000000
  0
VERTEX
  8
LAYER-2
 10
21.594334
 20
51.575874
 30
0.000000
  0
SEQEND
  8
LAYER-2
  0
ARC
  8
LAYER-2
 62
  7
 10
21.539107
 20
51.570338
 30
0.000000
 40
0.055512
 50
315.000000
 51
5.728333
  0
POLYLINE
  8
LAYER-2
 66
  1
 70
  0
 62
  7
 10
21.493725
 20
51.566571
 30
0.000000
  0
VERTEX
  8
LAYER-2
 10
21.493725
 20
51.566571
 30
0.000000
  0
VERTEX
  8
LAYER-2
 10
21.518792
 20
51.501286
 30
0.000000
  0
SEQEND
  8
LAYER-2
  0
POLYLINE
  8
LAYER-2
 66
  1
 70
  0
 62
  7
 10
21.543336
 20
51.496075
 30
0.000000
  0
VERTEX
  8
LAYER-2
 10
21.543336
 20
51.496075
 30
0.000000
  0
VERTEX
  8
LAYER-2
 10
21.578354
 20
51.531090
 30
0.000000
  0
SEQEND
  8
LAYER-2
  0
ARC
  8
LAYER-2
 62
  7
 10
21.532758
 20
51.506653
 30
0.000000
 40
0.014961
 50
201.000244
 51
315.000000
  0
POLYLINE
  8
LAYER-2
 66
  1
 70
  0
 62
  7
 10
21.295090
 20
51.548809
 30
0.000000
  0
VERTEX
  8
LAYER-2
 10
21.295090
 20
51.548809
 30
0.000000
  0
VERTEX
  8
LAYER-2
 10
21.352209
 20
51.491687
 30
0.000000
  0
SEQEND
  8
LAYER-2
  0
POLYLINE
  8
LAYER-2
 66
  1
 70
  0
 62
  7
 10
21.295090
 20
51.548809
 30
0.000000
  0
VERTEX
  8
LAYER-2
 10
21.295090
 20
51.548809
 30
0.000000
  0
VERTEX
  8
LAYER-2
 10
21.272283
 20
51.712703
 30
0.000000
  0
SEQEND
  8
LAYER-2
  0
POLYLINE
  8
LAYER-2
 66
  1
 70
  0
 62
  7
 10
21.307394
 20
51.747810
 30
0.000000
  0
VERTEX
  8
LAYER-2
 10
21.307394
 20
51.747810
 30
0.000000
  0
VERTEX
  8
LAYER-2
 10
21.267406
 20
51.787797
 30
0.000000
  0
SEQEND
  8
LAYER-2
  0
POLYLINE
  8
LAYER-2
 66
  1
 70
  0
 62
  7
 10
21.307394
 20
51.747810
 30
0.000000
  0
VERTEX
  8
LAYER-2
 10
21.307394
 20
51.747810
 30
0.000000
  0
VERTEX
  8
LAYER-2
 10
21.272283
 20
51.712703
 30
0.000000
  0
SEQEND
  8
LAYER-2
  0
POLYLINE
  8
LAYER-2
 66
  1
 70
  0
 62
  7
 10
21.267406
 20
51.787797
 30
0.000000
  0
VERTEX
  8
LAYER-2
 10
21.267406
 20
51.787797
 30
0.000000
  0
VERTEX
  8
LAYER-2
 10
21.267406
 20
51.924992
 30
0.000000
  0
SEQEND
  8
LAYER-2
  0
ARC
  8
LAYER-2
 62
  7
 10
21.434377
 20
52.082245
 30
0.000000
 40
0.087262
 50
110.608337
 51
47.143738
  0
POLYLINE
  8
LAYER-2
 66
  1
 70
  0
 62
  7
 10
21.388671
 20
52.221081
 30
0.000000
  0
VERTEX
  8
LAYER-2
 10
21.388671
 20
52.221081
 30
0.000000
  0
VERTEX
  8
LAYER-2
 10
21.352209
 20
52.221081
 30
0.000000
  0
SEQEND
  8
LAYER-2
  0
POLYLINE
  8
LAYER-2
 66
  1
 70
  0
 62
  7
 10
21.403665
 20
52.163917
 30
0.000000
  0
VERTEX
  8
LAYER-2
 10
21.403665
 20
52.163917
 30
0.000000
  0
VERTEX
  8
LAYER-2
 10
21.403633
 20
52.206137
 30
0.000000
  0
SEQEND
  8
LAYER-2
  0
ARC
  8
LAYER-2
 62
  7
 10
21.388671
 20
52.206137
 30
0.000000
 40
0.014961
 50
0.043243
 51
90.000000
  0
POLYLINE
  8
LAYER-2
 66
  1
 70
  0
 62
  7
 10
21.566189
 20
51.856384
 30
0.000000
  0
VERTEX
  8
LAYER-2
 10
21.566189
 20
51.856384
 30
0.000000
  0
VERTEX
  8
LAYER-2
 10
21.594334
 20
52.136895
 30
0.000000
  0
SEQEND
  8
LAYER-2
  0
ARC
  8
LAYER-2
 62
  7
 10
21.539107
 20
52.142437
 30
0.000000
 40
0.055512
 50
354.271667
 51
45.000000
  0
POLYLINE
  8
LAYER-2
 66
  1
 70
  0
 62
  7
 10
21.493725
 20
52.146205
 30
0.000000
  0
VERTEX
  8
LAYER-2
 10
21.493725
 20
52.146205
 30
0.000000
  0
VERTEX
  8
LAYER-2
 10
21.518792
 20
52.211489
 30
0.000000
  0
SEQEND
  8
LAYER-2
  0
POLYLINE
  8
LAYER-2
 66
  1
 70
  0
 62
  7
 10
21.543336
 20
52.216715
 30
0.000000
  0
VERTEX
  8
LAYER-2
 10
21.543336
 20
52.216715
 30
0.000000
  0
VERTEX
  8
LAYER-2
 10
21.578354
 20
52.181699
 30
0.000000
  0
SEQEND
  8
LAYER-2
  0
ARC
  8
LAYER-2
 62
  7
 10
21.532758
 20
52.206137
 30
0.000000
 40
0.014961
 50
45.000000
 51
158.999756
  0
POLYLINE
  8
LAYER-2
 66
  1
 70
  0
 62
  7
 10
21.295090
 20
52.163966
 30
0.000000
  0
VERTEX
  8
LAYER-2
 10
21.295090
 20
52.163966
 30
0.000000
  0
VERTEX
  8
LAYER-2
 10
21.352209
 20
52.221081
 30
0.000000
  0
SEQEND
  8
LAYER-2
  0
POLYLINE
  8
LAYER-2
 66
  1
 70
  0
 62
  7
 10
21.295090
 20
52.163966
 30
0.000000
  0
VERTEX
  8
LAYER-2
 10
21.295090
 20
52.163966
 30
0.000000
  0
VERTEX
  8
LAYER-2
 10
21.272283
 20
52.000073
 30
0.000000
  0
SEQEND
  8
LAYER-2
  0
POLYLINE
  8
LAYER-2
 66
  1
 70
  0
 62
  7
 10
21.307394
 20
51.964980
 30
0.000000
  0
VERTEX
  8
LAYER-2
 10
21.307394
 20
51.964980
 30
0.000000
  0
VERTEX
  8
LAYER-2
 10
21.267406
 20
51.924992
 30
0.000000
  0
SEQEND
  8
LAYER-2
  0
POLYLINE
  8
LAYER-2
 66
  1
 70
  0
 62
  7
 10
21.307394
 20
51.964980
 30
0.000000
  0
VERTEX
  8
LAYER-2
 10
21.307394
 20
51.964980
 30
0.000000
  0
VERTEX
  8
LAYER-2
 10
21.272283
 20
52.000073
 30
0.000000
  0
SEQEND
  8
LAYER-2
  0
POLYLINE
  8
LAYER-2
 66
  1
 70
  0
 62
  7
 10
21.466653
 20
51.438847
 30
0.000000
  0
VERTEX
  8
LAYER-2
 10
21.466653
 20
51.438847
 30
0.000000
  0
VERTEX
  8
LAYER-2
 10
21.460910
 20
51.433115
 30
0.000000
  0
SEQEND
  8
LAYER-2
  0
POLYLINE
  8
LAYER-2
 66
  1
 70
  0
 62
  7
 10
21.466653
 20
51.438847
 30
0.000000
  0
VERTEX
  8
LAYER-2
 10
21.466653
 20
51.438847
 30
0.000000
  0
VERTEX
  8
LAYER-2
 10
21.466724
 20
51.563697
 30
0.000000
  0
SEQEND
  8
LAYER-2
  0
ARC
  8
LAYER-2
 62
  7
 10
21.435863
 20
51.632341
 30
0.000000
 40
0.075258
 50
294.206604
 51
245.830200
  0
POLYLINE
  8
LAYER-2
 66
  1
 70
  0
 62
  7
 10
21.405137
 20
51.438847
 30
0.000000
  0
VERTEX
  8
LAYER-2
 10
21.405137
 20
51.438847
 30
0.000000
  0
VERTEX
  8
LAYER-2
 10
21.405052
 20
51.563676
 30
0.000000
  0
SEQEND
  8
LAYER-2
  0
POLYLINE
  8
LAYER-2
 66
  1
 70
  0
 62
  7
 10
21.405137
 20
51.438847
 30
0.000000
  0
VERTEX
  8
LAYER-2
 10
21.405137
 20
51.438847
 30
0.000000
  0
VERTEX
  8
LAYER-2
 10
21.411042
 20
51.432946
 30
0.000000
  0
SEQEND
  8
LAYER-2
  0
POLYLINE
  8
LAYER-2
 66
  1
 70
  0
 62
  7
 10
21.411457
 20
49.875437
 30
0.000000
  0
VERTEX
  8
LAYER-2
 10
21.411457
 20
49.875437
 30
0.000000
  0
VERTEX
  8
LAYER-2
 10
21.411042
 20
51.432946
 30
0.000000
  0
SEQEND
  8
LAYER-2
  0
POLYLINE
  8
LAYER-2
 66
  1
 70
  0
 62
  7
 10
21.458332
 20
49.880641
 30
0.000000
  0
VERTEX
  8
LAYER-2
 10
21.458332
 20
49.880641
 30
0.000000
  0
VERTEX
  8
LAYER-2
 10
21.460910
 20
51.433115
 30
0.000000
  0
SEQEND
  8
LAYER-2
  0
CIRCLE
  8
LAYER-2
 62
  7
 10
21.417352
 20
54.804629
 30
0.000000
 40
0.082054
  0
ARC
  8
LAYER-2
 62
  7
 10
21.434377
 20
54.578451
 30
0.000000
 40
0.087262
 50
312.856262
 51
249.391663
  0
POLYLINE
  8
LAYER-2
 66
  1
 70
  0
 62
  7
 10
21.388671
 20
54.439608
 30
0.000000
  0
VERTEX
  8
LAYER-2
 10
21.388671
 20
54.439608
 30
0.000000
  0
VERTEX
  8
LAYER-2
 10
21.352209
 20
54.439608
 30
0.000000
  0
SEQEND
  8
LAYER-2
  0
POLYLINE
  8
LAYER-2
 66
  1
 70
  0
 62
  7
 10
21.403665
 20
54.496772
 30
0.000000
  0
VERTEX
  8
LAYER-2
 10
21.403665
 20
54.496772
 30
0.000000
  0
VERTEX
  8
LAYER-2
 10
21.403633
 20
54.454559
 30
0.000000
  0
SEQEND
  8
LAYER-2
  0
ARC
  8
LAYER-2
 62
  7
 10
21.388671
 20
54.454573
 30
0.000000
 40
0.014961
 50
270.000000
 51
359.956757
  0
POLYLINE
  8
LAYER-2
 66
  1
 70
  0
 62
  7
 10
21.566189
 20
54.804305
 30
0.000000
  0
VERTEX
  8
LAYER-2
 10
21.566189
 20
54.804305
 30
0.000000
  0
VERTEX
  8
LAYER-2
 10
21.594334
 20
54.523794
 30
0.000000
  0
SEQEND
  8
LAYER-2
  0
ARC
  8
LAYER-2
 62
  7
 10
21.539107
 20
54.518259
 30
0.000000
 40
0.055512
 50
315.000000
 51
5.728333
  0
POLYLINE
  8
LAYER-2
 66
  1
 70
  0
 62
  7
 10
21.493725
 20
54.514491
 30
0.000000
  0
VERTEX
  8
LAYER-2
 10
21.493725
 20
54.514491
 30
0.000000
  0
VERTEX
  8
LAYER-2
 10
21.518792
 20
54.449207
 30
0.000000
  0
SEQEND
  8
LAYER-2
  0
POLYLINE
  8
LAYER-2
 66
  1
 70
  0
 62
  7
 10
21.543336
 20
54.443996
 30
0.000000
  0
VERTEX
  8
LAYER-2
 10
21.543336
 20
54.443996
 30
0.000000
  0
VERTEX
  8
LAYER-2
 10
21.578354
 20
54.479011
 30
0.000000
  0
SEQEND
  8
LAYER-2
  0
ARC
  8
LAYER-2
 62
  7
 10
21.532758
 20
54.454573
 30
0.000000
 40
0.014961
 50
201.000244
 51
315.000000
  0
POLYLINE
  8
LAYER-2
 66
  1
 70
  0
 62
  7
 10
21.295090
 20
54.496730
 30
0.000000
  0
VERTEX
  8
LAYER-2
 10
21.295090
 20
54.496730
 30
0.000000
  0
VERTEX
  8
LAYER-2
 10
21.352209
 20
54.439608
 30
0.000000
  0
SEQEND
  8
LAYER-2
  0
POLYLINE
  8
LAYER-2
 66
  1
 70
  0
 62
  7
 10
21.295090
 20
54.496730
 30
0.000000
  0
VERTEX
  8
LAYER-2
 10
21.295090
 20
54.496730
 30
0.000000
  0
VERTEX
  8
LAYER-2
 10
21.272283
 20
54.660623
 30
0.000000
  0
SEQEND
  8
LAYER-2
  0
POLYLINE
  8
LAYER-2
 66
  1
 70
  0
 62
  7
 10
21.307394
 20
54.695730
 30
0.000000
  0
VERTEX
  8
LAYER-2
 10
21.307394
 20
54.695730
 30
0.000000
  0
VERTEX
  8
LAYER-2
 10
21.267406
 20
54.735718
 30
0.000000
  0
SEQEND
  8
LAYER-2
  0
POLYLINE
  8
LAYER-2
 66
  1
 70
  0
 62
  7
 10
21.307394
 20
54.695730
 30
0.000000
  0
VERTEX
  8
LAYER-2
 10
21.307394
 20
54.695730
 30
0.000000
  0
VERTEX
  8
LAYER-2
 10
21.272283
 20
54.660623
 30
0.000000
  0
SEQEND
  8
LAYER-2
  0
POLYLINE
  8
LAYER-2
 66
  1
 70
  0
 62
  7
 10
21.267406
 20
54.735718
 30
0.000000
  0
VERTEX
  8
LAYER-2
 10
21.267406
 20
54.735718
 30
0.000000
  0
VERTEX
  8
LAYER-2
 10
21.267406
 20
54.872913
 30
0.000000
  0
SEQEND
  8
LAYER-2
  0
ARC
  8
LAYER-2
 62
  7
 10
21.434377
 20
55.030158
 30
0.000000
 40
0.087262
 50
110.608337
 51
47.143738
  0
POLYLINE
  8
LAYER-2
 66
  1
 70
  0
 62
  7
 10
21.388671
 20
55.169002
 30
0.000000
  0
VERTEX
  8
LAYER-2
 10
21.388671
 20
55.169002
 30
0.000000
  0
VERTEX
  8
LAYER-2
 10
21.352209
 20
55.169002
 30
0.000000
  0
SEQEND
  8
LAYER-2
  0
POLYLINE
  8
LAYER-2
 66
  1
 70
  0
 62
  7
 10
21.403665
 20
55.111838
 30
0.000000
  0
VERTEX
  8
LAYER-2
 10
21.403665
 20
55.111838
 30
0.000000
  0
VERTEX
  8
LAYER-2
 10
21.403633
 20
55.154050
 30
0.000000
  0
SEQEND
  8
LAYER-2
  0
ARC
  8
LAYER-2
 62
  7
 10
21.388671
 20
55.154050
 30
0.000000
 40
0.014961
 50
0.043243
 51
90.000000
  0
POLYLINE
  8
LAYER-2
 66
  1
 70
  0
 62
  7
 10
21.566189
 20
54.804305
 30
0.000000
  0
VERTEX
  8
LAYER-2
 10
21.566189
 20
54.804305
 30
0.000000
  0
VERTEX
  8
LAYER-2
 10
21.594334
 20
55.084815
 30
0.000000
  0
SEQEND
  8
LAYER-2
  0
ARC
  8
LAYER-2
 62
  7
 10
21.539107
 20
55.090351
 30
0.000000
 40
0.055512
 50
354.271667
 51
45.000000
  0
POLYLINE
  8
LAYER-2
 66
  1
 70
  0
 62
  7
 10
21.493725
 20
55.094119
 30
0.000000
  0
VERTEX
  8
LAYER-2
 10
21.493725
 20
55.094119
 30
0.000000
  0
VERTEX
  8
LAYER-2
 10
21.518792
 20
55.159403
 30
0.000000
  0
SEQEND
  8
LAYER-2
  0
POLYLINE
  8
LAYER-2
 66
  1
 70
  0
 62
  7
 10
21.543336
 20
55.164635
 30
0.000000
  0
VERTEX
  8
LAYER-2
 10
21.543336
 20
55.164635
 30
0.000000
  0
VERTEX
  8
LAYER-2
 10
21.578354
 20
55.129613
 30
0.000000
  0
SEQEND
  8
LAYER-2
  0
ARC
  8
LAYER-2
 62
  7
 10
21.532758
 20
55.154050
 30
0.000000
 40
0.014961
 50
45.000000
 51
158.999756
  0
POLYLINE
  8
LAYER-2
 66
  1
 70
  0
 62
  7
 10
21.295090
 20
55.111887
 30
0.000000
  0
VERTEX
  8
LAYER-2
 10
21.295090
 20
55.111887
 30
0.000000
  0
VERTEX
  8
LAYER-2
 10
21.352209
 20
55.169002
 30
0.000000
  0
SEQEND
  8
LAYER-2
  0
POLYLINE
  8
LAYER-2
 66
  1
 70
  0
 62
  7
 10
21.295090
 20
55.111887
 30
0.000000
  0
VERTEX
  8
LAYER-2
 10
21.295090
 20
55.111887
 30
0.000000
  0
VERTEX
  8
LAYER-2
 10
21.272283
 20
54.947993
 30
0.000000
  0
SEQEND
  8
LAYER-2
  0
POLYLINE
  8
LAYER-2
 66
  1
 70
  0
 62
  7
 10
21.307394
 20
54.912893
 30
0.000000
  0
VERTEX
  8
LAYER-2
 10
21.307394
 20
54.912893
 30
0.000000
  0
VERTEX
  8
LAYER-2
 10
21.267406
 20
54.872913
 30
0.000000
  0
SEQEND
  8
LAYER-2
  0
POLYLINE
  8
LAYER-2
 66
  1
 70
  0
 62
  7
 10
21.307394
 20
54.912893
 30
0.000000
  0
VERTEX
  8
LAYER-2
 10
21.307394
 20
54.912893
 30
0.000000
  0
VERTEX
  8
LAYER-2
 10
21.272283
 20
54.947993
 30
0.000000
  0
SEQEND
  8
LAYER-2
  0
POLYLINE
  8
LAYER-2
 66
  1
 70
  0
 62
  7
 10
21.466653
 20
54.386768
 30
0.000000
  0
VERTEX
  8
LAYER-2
 10
21.466653
 20
54.386768
 30
0.000000
  0
VERTEX
  8
LAYER-2
 10
21.460910
 20
54.381028
 30
0.000000
  0
SEQEND
  8
LAYER-2
  0
POLYLINE
  8
LAYER-2
 66
  1
 70
  0
 62
  7
 10
21.466653
 20
54.386768
 30
0.000000
  0
VERTEX
  8
LAYER-2
 10
21.466653
 20
54.386768
 30
0.000000
  0
VERTEX
  8
LAYER-2
 10
21.466724
 20
54.511611
 30
0.000000
  0
SEQEND
  8
LAYER-2
  0
ARC
  8
LAYER-2
 62
  7
 10
21.435863
 20
54.580254
 30
0.000000
 40
0.075258
 50
294.206604
 51
245.830200
  0
POLYLINE
  8
LAYER-2
 66
  1
 70
  0
 62
  7
 10
21.405137
 20
54.386768
 30
0.000000
  0
VERTEX
  8
LAYER-2
 10
21.405137
 20
54.386768
 30
0.000000
  0
VERTEX
  8
LAYER-2
 10
21.405052
 20
54.511597
 30
0.000000
  0
SEQEND
  8
LAYER-2
  0
POLYLINE
  8
LAYER-2
 66
  1
 70
  0
 62
  7
 10
21.405137
 20
54.386768
 30
0.000000
  0
VERTEX
  8
LAYER-2
 10
21.405137
 20
54.386768
 30
0.000000
  0
VERTEX
  8
LAYER-2
 10
21.411042
 20
54.380859
 30
0.000000
  0
SEQEND
  8
LAYER-2
  0
POLYLINE
  8
LAYER-2
 66
  1
 70
  0
 62
  7
 10
21.411042
 20
52.279879
 30
0.000000
  0
VERTEX
  8
LAYER-2
 10
21.411042
 20
52.279879
 30
0.000000
  0
VERTEX
  8
LAYER-2
 10
21.411042
 20
54.380859
 30
0.000000
  0
SEQEND
  8
LAYER-2
  0
POLYLINE
  8
LAYER-2
 66
  1
 70
  0
 62
  7
 10
21.405109
 20
52.273942
 30
0.000000
  0
VERTEX
  8
LAYER-2
 10
21.405109
 20
52.273942
 30
0.000000
  0
VERTEX
  8
LAYER-2
 10
21.411042
 20
52.279879
 30
0.000000
  0
SEQEND
  8
LAYER-2
  0
POLYLINE
  8
LAYER-2
 66
  1
 70
  0
 62
  7
 10
21.405109
 20
52.273942
 30
0.000000
  0
VERTEX
  8
LAYER-2
 10
21.405109
 20
52.273942
 30
0.000000
  0
VERTEX
  8
LAYER-2
 10
21.405038
 20
52.149099
 30
0.000000
  0
SEQEND
  8
LAYER-2
  0
ARC
  8
LAYER-2
 62
  7
 10
21.435895
 20
52.080456
 30
0.000000
 40
0.075258
 50
114.206604
 51
65.830200
  0
POLYLINE
  8
LAYER-2
 66
  1
 70
  0
 62
  7
 10
21.466621
 20
52.273942
 30
0.000000
  0
VERTEX
  8
LAYER-2
 10
21.466621
 20
52.273942
 30
0.000000
  0
VERTEX
  8
LAYER-2
 10
21.466706
 20
52.149114
 30
0.000000
  0
SEQEND
  8
LAYER-2
  0
POLYLINE
  8
LAYER-2
 66
  1
 70
  0
 62
  7
 10
21.466621
 20
52.273942
 30
0.000000
  0
VERTEX
  8
LAYER-2
 10
21.466621
 20
52.273942
 30
0.000000
  0
VERTEX
  8
LAYER-2
 10
21.460910
 20
52.279654
 30
0.000000
  0
SEQEND
  8
LAYER-2
  0
POLYLINE
  8
LAYER-2
 66
  1
 70
  0
 62
  7
 10
21.460910
 20
52.279654
 30
0.000000
  0
VERTEX
  8
LAYER-2
 10
21.460910
 20
52.279654
 30
0.000000
  0
VERTEX
  8
LAYER-2
 10
21.460910
 20
54.381028
 30
0.000000
  0
SEQEND
  8
LAYER-2
  0
CIRCLE
  8
LAYER-2
 62
  7
 10
21.417352
 20
57.752549
 30
0.000000
 40
0.082054
  0
ARC
  8
LAYER-2
 62
  7
 10
21.434377
 20
57.526372
 30
0.000000
 40
0.087262
 50
312.856262
 51
249.391663
  0
POLYLINE
  8
LAYER-2
 66
  1
 70
  0
 62
  7
 10
21.388671
 20
57.387529
 30
0.000000
  0
VERTEX
  8
LAYER-2
 10
21.388671
 20
57.387529
 30
0.000000
  0
VERTEX
  8
LAYER-2
 10
21.352209
 20
57.387529
 30
0.000000
  0
SEQEND
  8
LAYER-2
  0
POLYLINE
  8
LAYER-2
 66
  1
 70
  0
 62
  7
 10
21.403665
 20
57.444693
 30
0.000000
  0
VERTEX
  8
LAYER-2
 10
21.403665
 20
57.444693
 30
0.000000
  0
VERTEX
  8
LAYER-2
 10
21.403633
 20
57.402480
 30
0.000000
  0
SEQEND
  8
LAYER-2
  0
ARC
  8
LAYER-2
 62
  7
 10
21.388671
 20
57.402494
 30
0.000000
 40
0.014961
 50
270.000000
 51
359.956757
  0
POLYLINE
  8
LAYER-2
 66
  1
 70
  0
 62
  7
 10
21.566189
 20
57.752225
 30
0.000000
  0
VERTEX
  8
LAYER-2
 10
21.566189
 20
57.752225
 30
0.000000
  0
VERTEX
  8
LAYER-2
 10
21.594334
 20
57.471715
 30
0.000000
  0
SEQEND
  8
LAYER-2
  0
ARC
  8
LAYER-2
 62
  7
 10
21.539107
 20
57.466179
 30
0.000000
 40
0.055512
 50
315.000000
 51
5.728333
  0
POLYLINE
  8
LAYER-2
 66
  1
 70
  0
 62
  7
 10
21.493725
 20
57.462412
 30
0.000000
  0
VERTEX
  8
LAYER-2
 10
21.493725
 20
57.462412
 30
0.000000
  0
VERTEX
  8
LAYER-2
 10
21.518792
 20
57.397128
 30
0.000000
  0
SEQEND
  8
LAYER-2
  0
POLYLINE
  8
LAYER-2
 66
  1
 70
  0
 62
  7
 10
21.543336
 20
57.391909
 30
0.000000
  0
VERTEX
  8
LAYER-2
 10
21.543336
 20
57.391909
 30
0.000000
  0
VERTEX
  8
LAYER-2
 10
21.578354
 20
57.426932
 30
0.000000
  0
SEQEND
  8
LAYER-2
  0
ARC
  8
LAYER-2
 62
  7
 10
21.532758
 20
57.402494
 30
0.000000
 40
0.014961
 50
201.000244
 51
315.000000
  0
POLYLINE
  8
LAYER-2
 66
  1
 70
  0
 62
  7
 10
21.295090
 20
57.444643
 30
0.000000
  0
VERTEX
  8
LAYER-2
 10
21.295090
 20
57.444643
 30
0.000000
  0
VERTEX
  8
LAYER-2
 10
21.352209
 20
57.387529
 30
0.000000
  0
SEQEND
  8
LAYER-2
  0
POLYLINE
  8
LAYER-2
 66
  1
 70
  0
 62
  7
 10
21.295090
 20
57.444643
 30
0.000000
  0
VERTEX
  8
LAYER-2
 10
21.295090
 20
57.444643
 30
0.000000
  0
VERTEX
  8
LAYER-2
 10
21.272283
 20
57.608537
 30
0.000000
  0
SEQEND
  8
LAYER-2
  0
POLYLINE
  8
LAYER-2
 66
  1
 70
  0
 62
  7
 10
21.307394
 20
57.643651
 30
0.000000
  0
VERTEX
  8
LAYER-2
 10
21.307394
 20
57.643651
 30
0.000000
  0
VERTEX
  8
LAYER-2
 10
21.267406
 20
57.683631
 30
0.000000
  0
SEQEND
  8
LAYER-2
  0
POLYLINE
  8
LAYER-2
 66
  1
 70
  0
 62
  7
 10
21.307394
 20
57.643651
 30
0.000000
  0
VERTEX
  8
LAYER-2
 10
21.307394
 20
57.643651
 30
0.000000
  0
VERTEX
  8
LAYER-2
 10
21.272283
 20
57.608537
 30
0.000000
  0
SEQEND
  8
LAYER-2
  0
POLYLINE
  8
LAYER-2
 66
  1
 70
  0
 62
  7
 10
21.267406
 20
57.683631
 30
0.000000
  0
VERTEX
  8
LAYER-2
 10
21.267406
 20
57.683631
 30
0.000000
  0
VERTEX
  8
LAYER-2
 10
21.267406
 20
57.820834
 30
0.000000
  0
SEQEND
  8
LAYER-2
  0
ARC
  8
LAYER-2
 62
  7
 10
21.434377
 20
57.978079
 30
0.000000
 40
0.087262
 50
110.608337
 51
47.143738
  0
POLYLINE
  8
LAYER-2
 66
  1
 70
  0
 62
  7
 10
21.388671
 20
58.116922
 30
0.000000
  0
VERTEX
  8
LAYER-2
 10
21.388671
 20
58.116922
 30
0.000000
  0
VERTEX
  8
LAYER-2
 10
21.352209
 20
58.116922
 30
0.000000
  0
SEQEND
  8
LAYER-2
  0
POLYLINE
  8
LAYER-2
 66
  1
 70
  0
 62
  7
 10
21.403665
 20
58.059758
 30
0.000000
  0
VERTEX
  8
LAYER-2
 10
21.403665
 20
58.059758
 30
0.000000
  0
VERTEX
  8
LAYER-2
 10
21.403633
 20
58.101971
 30
0.000000
  0
SEQEND
  8
LAYER-2
  0
ARC
  8
LAYER-2
 62
  7
 10
21.388671
 20
58.101971
 30
0.000000
 40
0.014961
 50
0.043243
 51
90.000000
  0
POLYLINE
  8
LAYER-2
 66
  1
 70
  0
 62
  7
 10
21.566189
 20
57.752225
 30
0.000000
  0
VERTEX
  8
LAYER-2
 10
21.566189
 20
57.752225
 30
0.000000
  0
VERTEX
  8
LAYER-2
 10
21.594334
 20
58.032736
 30
0.000000
  0
SEQEND
  8
LAYER-2
  0
ARC
  8
LAYER-2
 62
  7
 10
21.539107
 20
58.038271
 30
0.000000
 40
0.055512
 50
354.271667
 51
45.000000
  0
POLYLINE
  8
LAYER-2
 66
  1
 70
  0
 62
  7
 10
21.493725
 20
58.042039
 30
0.000000
  0
VERTEX
  8
LAYER-2
 10
21.493725
 20
58.042039
 30
0.000000
  0
VERTEX
  8
LAYER-2
 10
21.518792
 20
58.107323
 30
0.000000
  0
SEQEND
  8
LAYER-2
  0
POLYLINE
  8
LAYER-2
 66
  1
 70
  0
 62
  7
 10
21.543336
 20
58.112556
 30
0.000000
  0
VERTEX
  8
LAYER-2
 10
21.543336
 20
58.112556
 30
0.000000
  0
VERTEX
  8
LAYER-2
 10
21.578354
 20
58.077533
 30
0.000000
  0
SEQEND
  8
LAYER-2
  0
ARC
  8
LAYER-2
 62
  7
 10
21.532758
 20
58.101971
 30
0.000000
 40
0.014961
 50
45.000000
 51
158.999756
  0
POLYLINE
  8
LAYER-2
 66
  1
 70
  0
 62
  7
 10
21.295090
 20
58.059800
 30
0.000000
  0
VERTEX
  8
LAYER-2
 10
21.295090
 20
58.059800
 30
0.000000
  0
VERTEX
  8
LAYER-2
 10
21.352209
 20
58.116922
 30
0.000000
  0
SEQEND
  8
LAYER-2
  0
POLYLINE
  8
LAYER-2
 66
  1
 70
  0
 62
  7
 10
21.295090
 20
58.059800
 30
0.000000
  0
VERTEX
  8
LAYER-2
 10
21.295090
 20
58.059800
 30
0.000000
  0
VERTEX
  8
LAYER-2
 10
21.272283
 20
57.895907
 30
0.000000
  0
SEQEND
  8
LAYER-2
  0
POLYLINE
  8
LAYER-2
 66
  1
 70
  0
 62
  7
 10
21.307394
 20
57.860814
 30
0.000000
  0
VERTEX
  8
LAYER-2
 10
21.307394
 20
57.860814
 30
0.000000
  0
VERTEX
  8
LAYER-2
 10
21.267406
 20
57.820834
 30
0.000000
  0
SEQEND
  8
LAYER-2
  0
POLYLINE
  8
LAYER-2
 66
  1
 70
  0
 62
  7
 10
21.307394
 20
57.860814
 30
0.000000
  0
VERTEX
  8
LAYER-2
 10
21.307394
 20
57.860814
 30
0.000000
  0
VERTEX
  8
LAYER-2
 10
21.272283
 20
57.895907
 30
0.000000
  0
SEQEND
  8
LAYER-2
  0
POLYLINE
  8
LAYER-2
 66
  1
 70
  0
 62
  7
 10
21.466653
 20
57.334689
 30
0.000000
  0
VERTEX
  8
LAYER-2
 10
21.466653
 20
57.334689
 30
0.000000
  0
VERTEX
  8
LAYER-2
 10
21.460910
 20
57.328949
 30
0.000000
  0
SEQEND
  8
LAYER-2
  0
POLYLINE
  8
LAYER-2
 66
  1
 70
  0
 62
  7
 10
21.466653
 20
57.334689
 30
0.000000
  0
VERTEX
  8
LAYER-2
 10
21.466653
 20
57.334689
 30
0.000000
  0
VERTEX
  8
LAYER-2
 10
21.466724
 20
57.459531
 30
0.000000
  0
SEQEND
  8
LAYER-2
  0
ARC
  8
LAYER-2
 62
  7
 10
21.435863
 20
57.528175
 30
0.000000
 40
0.075258
 50
294.206604
 51
245.830200
  0
POLYLINE
  8
LAYER-2
 66
  1
 70
  0
 62
  7
 10
21.405137
 20
57.334689
 30
0.000000
  0
VERTEX
  8
LAYER-2
 10
21.405137
 20
57.334689
 30
0.000000
  0
VERTEX
  8
LAYER-2
 10
21.405052
 20
57.459517
 30
0.000000
  0
SEQEND
  8
LAYER-2
  0
POLYLINE
  8
LAYER-2
 66
  1
 70
  0
 62
  7
 10
21.405137
 20
57.334689
 30
0.000000
  0
VERTEX
  8
LAYER-2
 10
21.405137
 20
57.334689
 30
0.000000
  0
VERTEX
  8
LAYER-2
 10
21.411042
 20
57.328780
 30
0.000000
  0
SEQEND
  8
LAYER-2
  0
POLYLINE
  8
LAYER-2
 66
  1
 70
  0
 62
  7
 10
21.411042
 20
55.227793
 30
0.000000
  0
VERTEX
  8
LAYER-2
 10
21.411042
 20
55.227793
 30
0.000000
  0
VERTEX
  8
LAYER-2
 10
21.411042
 20
57.328780
 30
0.000000
  0
SEQEND
  8
LAYER-2
  0
POLYLINE
  8
LAYER-2
 66
  1
 70
  0
 62
  7
 10
21.405109
 20
55.221856
 30
0.000000
  0
VERTEX
  8
LAYER-2
 10
21.405109
 20
55.221856
 30
0.000000
  0
VERTEX
  8
LAYER-2
 10
21.411042
 20
55.227793
 30
0.000000
  0
SEQEND
  8
LAYER-2
  0
POLYLINE
  8
LAYER-2
 66
  1
 70
  0
 62
  7
 10
21.405109
 20
55.221856
 30
0.000000
  0
VERTEX
  8
LAYER-2
 10
21.405109
 20
55.221856
 30
0.000000
  0
VERTEX
  8
LAYER-2
 10
21.405038
 20
55.097020
 30
0.000000
  0
SEQEND
  8
LAYER-2
  0
ARC
  8
LAYER-2
 62
  7
 10
21.435895
 20
55.028377
 30
0.000000
 40
0.075258
 50
114.206604
 51
65.830200
  0
POLYLINE
  8
LAYER-2
 66
  1
 70
  0
 62
  7
 10
21.466621
 20
55.221856
 30
0.000000
  0
VERTEX
  8
LAYER-2
 10
21.466621
 20
55.221856
 30
0.000000
  0
VERTEX
  8
LAYER-2
 10
21.466706
 20
55.097034
 30
0.000000
  0
SEQEND
  8
LAYER-2
  0
POLYLINE
  8
LAYER-2
 66
  1
 70
  0
 62
  7
 10
21.466621
 20
55.221856
 30
0.000000
  0
VERTEX
  8
LAYER-2
 10
21.466621
 20
55.221856
 30
0.000000
  0
VERTEX
  8
LAYER-2
 10
21.460910
 20
55.227574
 30
0.000000
  0
SEQEND
  8
LAYER-2
  0
POLYLINE
  8
LAYER-2
 66
  1
 70
  0
 62
  7
 10
21.460910
 20
55.227574
 30
0.000000
  0
VERTEX
  8
LAYER-2
 10
21.460910
 20
55.227574
 30
0.000000
  0
VERTEX
  8
LAYER-2
 10
21.460910
 20
57.328949
 30
0.000000
  0
SEQEND
  8
LAYER-2
  0
CIRCLE
  8
LAYER-2
 62
  7
 10
21.417352
 20
60.700470
 30
0.000000
 40
0.082054
  0
ARC
  8
LAYER-2
 62
  7
 10
21.434377
 20
60.474292
 30
0.000000
 40
0.087262
 50
312.856262
 51
249.391663
  0
POLYLINE
  8
LAYER-2
 66
  1
 70
  0
 62
  7
 10
21.388671
 20
60.335449
 30
0.000000
  0
VERTEX
  8
LAYER-2
 10
21.388671
 20
60.335449
 30
0.000000
  0
VERTEX
  8
LAYER-2
 10
21.352209
 20
60.335449
 30
0.000000
  0
SEQEND
  8
LAYER-2
  0
POLYLINE
  8
LAYER-2
 66
  1
 70
  0
 62
  7
 10
21.403665
 20
60.392613
 30
0.000000
  0
VERTEX
  8
LAYER-2
 10
21.403665
 20
60.392613
 30
0.000000
  0
VERTEX
  8
LAYER-2
 10
21.403633
 20
60.350393
 30
0.000000
  0
SEQEND
  8
LAYER-2
  0
ARC
  8
LAYER-2
 62
  7
 10
21.388671
 20
60.350415
 30
0.000000
 40
0.014961
 50
270.000000
 51
359.956757
  0
POLYLINE
  8
LAYER-2
 66
  1
 70
  0
 62
  7
 10
21.566189
 20
60.700146
 30
0.000000
  0
VERTEX
  8
LAYER-2
 10
21.566189
 20
60.700146
 30
0.000000
  0
VERTEX
  8
LAYER-2
 10
21.594334
 20
60.419635
 30
0.000000
  0
SEQEND
  8
LAYER-2
  0
ARC
  8
LAYER-2
 62
  7
 10
21.539107
 20
60.414093
 30
0.000000
 40
0.055512
 50
315.000000
 51
5.728333
  0
POLYLINE
  8
LAYER-2
 66
  1
 70
  0
 62
  7
 10
21.493725
 20
60.410325
 30
0.000000
  0
VERTEX
  8
LAYER-2
 10
21.493725
 20
60.410325
 30
0.000000
  0
VERTEX
  8
LAYER-2
 10
21.518792
 20
60.345041
 30
0.000000
  0
SEQEND
  8
LAYER-2
  0
POLYLINE
  8
LAYER-2
 66
  1
 70
  0
 62
  7
 10
21.543336
 20
60.339830
 30
0.000000
  0
VERTEX
  8
LAYER-2
 10
21.543336
 20
60.339830
 30
0.000000
  0
VERTEX
  8
LAYER-2
 10
21.578354
 20
60.374852
 30
0.000000
  0
SEQEND
  8
LAYER-2
  0
ARC
  8
LAYER-2
 62
  7
 10
21.532758
 20
60.350415
 30
0.000000
 40
0.014961
 50
201.000244
 51
315.000000
  0
POLYLINE
  8
LAYER-2
 66
  1
 70
  0
 62
  7
 10
21.295090
 20
60.392564
 30
0.000000
  0
VERTEX
  8
LAYER-2
 10
21.295090
 20
60.392564
 30
0.000000
  0
VERTEX
  8
LAYER-2
 10
21.352209
 20
60.335449
 30
0.000000
  0
SEQEND
  8
LAYER-2
  0
POLYLINE
  8
LAYER-2
 66
  1
 70
  0
 62
  7
 10
21.295090
 20
60.392564
 30
0.000000
  0
VERTEX
  8
LAYER-2
 10
21.295090
 20
60.392564
 30
0.000000
  0
VERTEX
  8
LAYER-2
 10
21.272283
 20
60.556458
 30
0.000000
  0
SEQEND
  8
LAYER-2
  0
POLYLINE
  8
LAYER-2
 66
  1
 70
  0
 62
  7
 10
21.307394
 20
60.591572
 30
0.000000
  0
VERTEX
  8
LAYER-2
 10
21.307394
 20
60.591572
 30
0.000000
  0
VERTEX
  8
LAYER-2
 10
21.267406
 20
60.631552
 30
0.000000
  0
SEQEND
  8
LAYER-2
  0
POLYLINE
  8
LAYER-2
 66
  1
 70
  0
 62
  7
 10
21.307394
 20
60.591572
 30
0.000000
  0
VERTEX
  8
LAYER-2
 10
21.307394
 20
60.591572
 30
0.000000
  0
VERTEX
  8
LAYER-2
 10
21.272283
 20
60.556458
 30
0.000000
  0
SEQEND
  8
LAYER-2
  0
POLYLINE
  8
LAYER-2
 66
  1
 70
  0
 62
  7
 10
21.267406
 20
60.631552
 30
0.000000
  0
VERTEX
  8
LAYER-2
 10
21.267406
 20
60.631552
 30
0.000000
  0
VERTEX
  8
LAYER-2
 10
21.267406
 20
60.768747
 30
0.000000
  0
SEQEND
  8
LAYER-2
  0
ARC
  8
LAYER-2
 62
  7
 10
21.434377
 20
60.926000
 30
0.000000
 40
0.087262
 50
110.608337
 51
47.143738
  0
POLYLINE
  8
LAYER-2
 66
  1
 70
  0
 62
  7
 10
21.388671
 20
61.064843
 30
0.000000
  0
VERTEX
  8
LAYER-2
 10
21.388671
 20
61.064843
 30
0.000000
  0
VERTEX
  8
LAYER-2
 10
21.352209
 20
61.064843
 30
0.000000
  0
SEQEND
  8
LAYER-2
  0
POLYLINE
  8
LAYER-2
 66
  1
 70
  0
 62
  7
 10
21.403665
 20
61.007679
 30
0.000000
  0
VERTEX
  8
LAYER-2
 10
21.403665
 20
61.007679
 30
0.000000
  0
VERTEX
  8
LAYER-2
 10
21.403633
 20
61.049892
 30
0.000000
  0
SEQEND
  8
LAYER-2
  0
ARC
  8
LAYER-2
 62
  7
 10
21.388671
 20
61.049892
 30
0.000000
 40
0.014961
 50
0.043243
 51
90.000000
  0
POLYLINE
  8
LAYER-2
 66
  1
 70
  0
 62
  7
 10
21.566189
 20
60.700146
 30
0.000000
  0
VERTEX
  8
LAYER-2
 10
21.566189
 20
60.700146
 30
0.000000
  0
VERTEX
  8
LAYER-2
 10
21.594334
 20
60.980657
 30
0.000000
  0
SEQEND
  8
LAYER-2
  0
ARC
  8
LAYER-2
 62
  7
 10
21.539107
 20
60.986192
 30
0.000000
 40
0.055512
 50
354.271667
 51
45.000000
  0
POLYLINE
  8
LAYER-2
 66
  1
 70
  0
 62
  7
 10
21.493725
 20
60.989960
 30
0.000000
  0
VERTEX
  8
LAYER-2
 10
21.493725
 20
60.989960
 30
0.000000
  0
VERTEX
  8
LAYER-2
 10
21.518792
 20
61.055244
 30
0.000000
  0
SEQEND
  8
LAYER-2
  0
POLYLINE
  8
LAYER-2
 66
  1
 70
  0
 62
  7
 10
21.543336
 20
61.060469
 30
0.000000
  0
VERTEX
  8
LAYER-2
 10
21.543336
 20
61.060469
 30
0.000000
  0
VERTEX
  8
LAYER-2
 10
21.578354
 20
61.025454
 30
0.000000
  0
SEQEND
  8
LAYER-2
  0
ARC
  8
LAYER-2
 62
  7
 10
21.532758
 20
61.049892
 30
0.000000
 40
0.014961
 50
45.000000
 51
158.999756
  0
POLYLINE
  8
LAYER-2
 66
  1
 70
  0
 62
  7
 10
21.295090
 20
61.007721
 30
0.000000
  0
VERTEX
  8
LAYER-2
 10
21.295090
 20
61.007721
 30
0.000000
  0
VERTEX
  8
LAYER-2
 10
21.352209
 20
61.064843
 30
0.000000
  0
SEQEND
  8
LAYER-2
  0
POLYLINE
  8
LAYER-2
 66
  1
 70
  0
 62
  7
 10
21.295090
 20
61.007721
 30
0.000000
  0
VERTEX
  8
LAYER-2
 10
21.295090
 20
61.007721
 30
0.000000
  0
VERTEX
  8
LAYER-2
 10
21.272283
 20
60.843827
 30
0.000000
  0
SEQEND
  8
LAYER-2
  0
POLYLINE
  8
LAYER-2
 66
  1
 70
  0
 62
  7
 10
21.307394
 20
60.808735
 30
0.000000
  0
VERTEX
  8
LAYER-2
 10
21.307394
 20
60.808735
 30
0.000000
  0
VERTEX
  8
LAYER-2
 10
21.267406
 20
60.768747
 30
0.000000
  0
SEQEND
  8
LAYER-2
  0
POLYLINE
  8
LAYER-2
 66
  1
 70
  0
 62
  7
 10
21.307394
 20
60.808735
 30
0.000000
  0
VERTEX
  8
LAYER-2
 10
21.307394
 20
60.808735
 30
0.000000
  0
VERTEX
  8
LAYER-2
 10
21.272283
 20
60.843827
 30
0.000000
  0
SEQEND
  8
LAYER-2
  0
POLYLINE
  8
LAYER-2
 66
  1
 70
  0
 62
  7
 10
21.466653
 20
60.282609
 30
0.000000
  0
VERTEX
  8
LAYER-2
 10
21.466653
 20
60.282609
 30
0.000000
  0
VERTEX
  8
LAYER-2
 10
21.460910
 20
60.276870
 30
0.000000
  0
SEQEND
  8
LAYER-2
  0
POLYLINE
  8
LAYER-2
 66
  1
 70
  0
 62
  7
 10
21.466653
 20
60.282609
 30
0.000000
  0
VERTEX
  8
LAYER-2
 10
21.466653
 20
60.282609
 30
0.000000
  0
VERTEX
  8
LAYER-2
 10
21.466724
 20
60.407452
 30
0.000000
  0
SEQEND
  8
LAYER-2
  0
ARC
  8
LAYER-2
 62
  7
 10
21.435863
 20
60.476095
 30
0.000000
 40
0.075258
 50
294.206604
 51
245.830200
  0
POLYLINE
  8
LAYER-2
 66
  1
 70
  0
 62
  7
 10
21.405137
 20
60.282609
 30
0.000000
  0
VERTEX
  8
LAYER-2
 10
21.405137
 20
60.282609
 30
0.000000
  0
VERTEX
  8
LAYER-2
 10
21.405052
 20
60.407438
 30
0.000000
  0
SEQEND
  8
LAYER-2
  0
POLYLINE
  8
LAYER-2
 66
  1
 70
  0
 62
  7
 10
21.405137
 20
60.282609
 30
0.000000
  0
VERTEX
  8
LAYER-2
 10
21.405137
 20
60.282609
 30
0.000000
  0
VERTEX
  8
LAYER-2
 10
21.411042
 20
60.276701
 30
0.000000
  0
SEQEND
  8
LAYER-2
  0
POLYLINE
  8
LAYER-2
 66
  1
 70
  0
 62
  7
 10
21.411042
 20
58.175713
 30
0.000000
  0
VERTEX
  8
LAYER-2
 10
21.411042
 20
58.175713
 30
0.000000
  0
VERTEX
  8
LAYER-2
 10
21.411042
 20
60.276701
 30
0.000000
  0
SEQEND
  8
LAYER-2
  0
POLYLINE
  8
LAYER-2
 66
  1
 70
  0
 62
  7
 10
21.405109
 20
58.169776
 30
0.000000
  0
VERTEX
  8
LAYER-2
 10
21.405109
 20
58.169776
 30
0.000000
  0
VERTEX
  8
LAYER-2
 10
21.411042
 20
58.175713
 30
0.000000
  0
SEQEND
  8
LAYER-2
  0
POLYLINE
  8
LAYER-2
 66
  1
 70
  0
 62
  7
 10
21.405109
 20
58.169776
 30
0.000000
  0
VERTEX
  8
LAYER-2
 10
21.405109
 20
58.169776
 30
0.000000
  0
VERTEX
  8
LAYER-2
 10
21.405038
 20
58.044941
 30
0.000000
  0
SEQEND
  8
LAYER-2
  0
ARC
  8
LAYER-2
 62
  7
 10
21.435895
 20
57.976297
 30
0.000000
 40
0.075258
 50
114.206604
 51
65.830200
  0
POLYLINE
  8
LAYER-2
 66
  1
 70
  0
 62
  7
 10
21.466621
 20
58.169776
 30
0.000000
  0
VERTEX
  8
LAYER-2
 10
21.466621
 20
58.169776
 30
0.000000
  0
VERTEX
  8
LAYER-2
 10
21.466706
 20
58.044955
 30
0.000000
  0
SEQEND
  8
LAYER-2
  0
POLYLINE
  8
LAYER-2
 66
  1
 70
  0
 62
  7
 10
21.466621
 20
58.169776
 30
0.000000
  0
VERTEX
  8
LAYER-2
 10
21.466621
 20
58.169776
 30
0.000000
  0
VERTEX
  8
LAYER-2
 10
21.460910
 20
58.175495
 30
0.000000
  0
SEQEND
  8
LAYER-2
  0
POLYLINE
  8
LAYER-2
 66
  1
 70
  0
 62
  7
 10
21.460910
 20
58.175495
 30
0.000000
  0
VERTEX
  8
LAYER-2
 10
21.460910
 20
58.175495
 30
0.000000
  0
VERTEX
  8
LAYER-2
 10
21.460910
 20
60.276870
 30
0.000000
  0
SEQEND
  8
LAYER-2
  0
CIRCLE
  8
LAYER-2
 62
  7
 10
21.417352
 20
63.648362
 30
0.000000
 40
0.082054
  0
ARC
  8
LAYER-2
 62
  7
 10
21.434377
 20
63.422192
 30
0.000000
 40
0.087262
 50
312.856262
 51
249.391663
  0
POLYLINE
  8
LAYER-2
 66
  1
 70
  0
 62
  7
 10
21.388671
 20
63.283349
 30
0.000000
  0
VERTEX
  8
LAYER-2
 10
21.388671
 20
63.283349
 30
0.000000
  0
VERTEX
  8
LAYER-2
 10
21.352209
 20
63.283349
 30
0.000000
  0
SEQEND
  8
LAYER-2
  0
POLYLINE
  8
LAYER-2
 66
  1
 70
  0
 62
  7
 10
21.403665
 20
63.340513
 30
0.000000
  0
VERTEX
  8
LAYER-2
 10
21.403665
 20
63.340513
 30
0.000000
  0
VERTEX
  8
LAYER-2
 10
21.403633
 20
63.298300
 30
0.000000
  0
SEQEND
  8
LAYER-2
  0
ARC
  8
LAYER-2
 62
  7
 10
21.388671
 20
63.298314
 30
0.000000
 40
0.014961
 50
270.000000
 51
359.956757
  0
POLYLINE
  8
LAYER-2
 66
  1
 70
  0
 62
  7
 10
21.566189
 20
63.648038
 30
0.000000
  0
VERTEX
  8
LAYER-2
 10
21.566189
 20
63.648038
 30
0.000000
  0
VERTEX
  8
LAYER-2
 10
21.594334
 20
63.367535
 30
0.000000
  0
SEQEND
  8
LAYER-2
  0
ARC
  8
LAYER-2
 62
  7
 10
21.539107
 20
63.362000
 30
0.000000
 40
0.055512
 50
315.000000
 51
5.728333
  0
POLYLINE
  8
LAYER-2
 66
  1
 70
  0
 62
  7
 10
21.493725
 20
63.358232
 30
0.000000
  0
VERTEX
  8
LAYER-2
 10
21.493725
 20
63.358232
 30
0.000000
  0
VERTEX
  8
LAYER-2
 10
21.518792
 20
63.292948
 30
0.000000
  0
SEQEND
  8
LAYER-2
  0
POLYLINE
  8
LAYER-2
 66
  1
 70
  0
 62
  7
 10
21.543336
 20
63.287736
 30
0.000000
  0
VERTEX
  8
LAYER-2
 10
21.543336
 20
63.287736
 30
0.000000
  0
VERTEX
  8
LAYER-2
 10
21.578354
 20
63.322752
 30
0.000000
  0
SEQEND
  8
LAYER-2
  0
ARC
  8
LAYER-2
 62
  7
 10
21.532758
 20
63.298314
 30
0.000000
 40
0.014961
 50
201.000244
 51
315.000000
  0
POLYLINE
  8
LAYER-2
 66
  1
 70
  0
 62
  7
 10
21.295090
 20
63.340471
 30
0.000000
  0
VERTEX
  8
LAYER-2
 10
21.295090
 20
63.340471
 30
0.000000
  0
VERTEX
  8
LAYER-2
 10
21.352209
 20
63.283349
 30
0.000000
  0
SEQEND
  8
LAYER-2
  0
POLYLINE
  8
LAYER-2
 66
  1
 70
  0
 62
  7
 10
21.295090
 20
63.340471
 30
0.000000
  0
VERTEX
  8
LAYER-2
 10
21.295090
 20
63.340471
 30
0.000000
  0
VERTEX
  8
LAYER-2
 10
21.272283
 20
63.504357
 30
0.000000
  0
SEQEND
  8
LAYER-2
  0
POLYLINE
  8
LAYER-2
 66
  1
 70
  0
 62
  7
 10
21.307394
 20
63.539471
 30
0.000000
  0
VERTEX
  8
LAYER-2
 10
21.307394
 20
63.539471
 30
0.000000
  0
VERTEX
  8
LAYER-2
 10
21.267406
 20
63.579451
 30
0.000000
  0
SEQEND
  8
LAYER-2
  0
POLYLINE
  8
LAYER-2
 66
  1
 70
  0
 62
  7
 10
21.307394
 20
63.539471
 30
0.000000
  0
VERTEX
  8
LAYER-2
 10
21.307394
 20
63.539471
 30
0.000000
  0
VERTEX
  8
LAYER-2
 10
21.272283
 20
63.504357
 30
0.000000
  0
SEQEND
  8
LAYER-2
  0
POLYLINE
  8
LAYER-2
 66
  1
 70
  0
 62
  7
 10
21.267406
 20
63.579451
 30
0.000000
  0
VERTEX
  8
LAYER-2
 10
21.267406
 20
63.579451
 30
0.000000
  0
VERTEX
  8
LAYER-2
 10
21.267406
 20
63.716647
 30
0.000000
  0
SEQEND
  8
LAYER-2
  0
ARC
  8
LAYER-2
 62
  7
 10
21.434377
 20
63.873892
 30
0.000000
 40
0.087262
 50
110.608337
 51
47.143738
  0
POLYLINE
  8
LAYER-2
 66
  1
 70
  0
 62
  7
 10
21.388671
 20
64.012728
 30
0.000000
  0
VERTEX
  8
LAYER-2
 10
21.388671
 20
64.012728
 30
0.000000
  0
VERTEX
  8
LAYER-2
 10
21.352209
 20
64.012728
 30
0.000000
  0
SEQEND
  8
LAYER-2
  0
POLYLINE
  8
LAYER-2
 66
  1
 70
  0
 62
  7
 10
21.403665
 20
63.955564
 30
0.000000
  0
VERTEX
  8
LAYER-2
 10
21.403665
 20
63.955564
 30
0.000000
  0
VERTEX
  8
LAYER-2
 10
21.403633
 20
63.997777
 30
0.000000
  0
SEQEND
  8
LAYER-2
  0
ARC
  8
LAYER-2
 62
  7
 10
21.388671
 20
63.997777
 30
0.000000
 40
0.014961
 50
0.043243
 51
90.000000
  0
POLYLINE
  8
LAYER-2
 66
  1
 70
  0
 62
  7
 10
21.566189
 20
63.648038
 30
0.000000
  0
VERTEX
  8
LAYER-2
 10
21.566189
 20
63.648038
 30
0.000000
  0
VERTEX
  8
LAYER-2
 10
21.594334
 20
63.928542
 30
0.000000
  0
SEQEND
  8
LAYER-2
  0
ARC
  8
LAYER-2
 62
  7
 10
21.539107
 20
63.934077
 30
0.000000
 40
0.055512
 50
354.271667
 51
45.000000
  0
POLYLINE
  8
LAYER-2
 66
  1
 70
  0
 62
  7
 10
21.493725
 20
63.937845
 30
0.000000
  0
VERTEX
  8
LAYER-2
 10
21.493725
 20
63.937845
 30
0.000000
  0
VERTEX
  8
LAYER-2
 10
21.518792
 20
64.003129
 30
0.000000
  0
SEQEND
  8
LAYER-2
  0
POLYLINE
  8
LAYER-2
 66
  1
 70
  0
 62
  7
 10
21.543336
 20
64.008362
 30
0.000000
  0
VERTEX
  8
LAYER-2
 10
21.543336
 20
64.008362
 30
0.000000
  0
VERTEX
  8
LAYER-2
 10
21.578354
 20
63.973346
 30
0.000000
  0
SEQEND
  8
LAYER-2
  0
ARC
  8
LAYER-2
 62
  7
 10
21.532758
 20
63.997777
 30
0.000000
 40
0.014961
 50
45.000000
 51
158.999756
  0
POLYLINE
  8
LAYER-2
 66
  1
 70
  0
 62
  7
 10
21.295090
 20
63.955613
 30
0.000000
  0
VERTEX
  8
LAYER-2
 10
21.295090
 20
63.955613
 30
0.000000
  0
VERTEX
  8
LAYER-2
 10
21.352209
 20
64.012728
 30
0.000000
  0
SEQEND
  8
LAYER-2
  0
POLYLINE
  8
LAYER-2
 66
  1
 70
  0
 62
  7
 10
21.295090
 20
63.955613
 30
0.000000
  0
VERTEX
  8
LAYER-2
 10
21.295090
 20
63.955613
 30
0.000000
  0
VERTEX
  8
LAYER-2
 10
21.272283
 20
63.791720
 30
0.000000
  0
SEQEND
  8
LAYER-2
  0
POLYLINE
  8
LAYER-2
 66
  1
 70
  0
 62
  7
 10
21.307394
 20
63.756627
 30
0.000000
  0
VERTEX
  8
LAYER-2
 10
21.307394
 20
63.756627
 30
0.000000
  0
VERTEX
  8
LAYER-2
 10
21.267406
 20
63.716647
 30
0.000000
  0
SEQEND
  8
LAYER-2
  0
POLYLINE
  8
LAYER-2
 66
  1
 70
  0
 62
  7
 10
21.307394
 20
63.756627
 30
0.000000
  0
VERTEX
  8
LAYER-2
 10
21.307394
 20
63.756627
 30
0.000000
  0
VERTEX
  8
LAYER-2
 10
21.272283
 20
63.791720
 30
0.000000
  0
SEQEND
  8
LAYER-2
  0
POLYLINE
  8
LAYER-2
 66
  1
 70
  0
 62
  7
 10
21.466653
 20
63.230509
 30
0.000000
  0
VERTEX
  8
LAYER-2
 10
21.466653
 20
63.230509
 30
0.000000
  0
VERTEX
  8
LAYER-2
 10
21.460910
 20
63.224776
 30
0.000000
  0
SEQEND
  8
LAYER-2
  0
POLYLINE
  8
LAYER-2
 66
  1
 70
  0
 62
  7
 10
21.466653
 20
63.230509
 30
0.000000
  0
VERTEX
  8
LAYER-2
 10
21.466653
 20
63.230509
 30
0.000000
  0
VERTEX
  8
LAYER-2
 10
21.466724
 20
63.355358
 30
0.000000
  0
SEQEND
  8
LAYER-2
  0
ARC
  8
LAYER-2
 62
  7
 10
21.435863
 20
63.423995
 30
0.000000
 40
0.075258
 50
294.206604
 51
245.830200
  0
POLYLINE
  8
LAYER-2
 66
  1
 70
  0
 62
  7
 10
21.405137
 20
63.230509
 30
0.000000
  0
VERTEX
  8
LAYER-2
 10
21.405137
 20
63.230509
 30
0.000000
  0
VERTEX
  8
LAYER-2
 10
21.405052
 20
63.355337
 30
0.000000
  0
SEQEND
  8
LAYER-2
  0
POLYLINE
  8
LAYER-2
 66
  1
 70
  0
 62
  7
 10
21.405137
 20
63.230509
 30
0.000000
  0
VERTEX
  8
LAYER-2
 10
21.405137
 20
63.230509
 30
0.000000
  0
VERTEX
  8
LAYER-2
 10
21.411042
 20
63.224607
 30
0.000000
  0
SEQEND
  8
LAYER-2
  0
POLYLINE
  8
LAYER-2
 66
  1
 70
  0
 62
  7
 10
21.411042
 20
61.123634
 30
0.000000
  0
VERTEX
  8
LAYER-2
 10
21.411042
 20
61.123634
 30
0.000000
  0
VERTEX
  8
LAYER-2
 10
21.411042
 20
63.224607
 30
0.000000
  0
SEQEND
  8
LAYER-2
  0
POLYLINE
  8
LAYER-2
 66
  1
 70
  0
 62
  7
 10
21.405109
 20
61.117697
 30
0.000000
  0
VERTEX
  8
LAYER-2
 10
21.405109
 20
61.117697
 30
0.000000
  0
VERTEX
  8
LAYER-2
 10
21.411042
 20
61.123634
 30
0.000000
  0
SEQEND
  8
LAYER-2
  0
POLYLINE
  8
LAYER-2
 66
  1
 70
  0
 62
  7
 10
21.405109
 20
61.117697
 30
0.000000
  0
VERTEX
  8
LAYER-2
 10
21.405109
 20
61.117697
 30
0.000000
  0
VERTEX
  8
LAYER-2
 10
21.405038
 20
60.992861
 30
0.000000
  0
SEQEND
  8
LAYER-2
  0
ARC
  8
LAYER-2
 62
  7
 10
21.435895
 20
60.924218
 30
0.000000
 40
0.075258
 50
114.206604
 51
65.830200
  0
POLYLINE
  8
LAYER-2
 66
  1
 70
  0
 62
  7
 10
21.466621
 20
61.117697
 30
0.000000
  0
VERTEX
  8
LAYER-2
 10
21.466621
 20
61.117697
 30
0.000000
  0
VERTEX
  8
LAYER-2
 10
21.466706
 20
60.992875
 30
0.000000
  0
SEQEND
  8
LAYER-2
  0
POLYLINE
  8
LAYER-2
 66
  1
 70
  0
 62
  7
 10
21.466621
 20
61.117697
 30
0.000000
  0
VERTEX
  8
LAYER-2
 10
21.466621
 20
61.117697
 30
0.000000
  0
VERTEX
  8
LAYER-2
 10
21.460910
 20
61.123408
 30
0.000000
  0
SEQEND
  8
LAYER-2
  0
POLYLINE
  8
LAYER-2
 66
  1
 70
  0
 62
  7
 10
21.460910
 20
61.123408
 30
0.000000
  0
VERTEX
  8
LAYER-2
 10
21.460910
 20
61.123408
 30
0.000000
  0
VERTEX
  8
LAYER-2
 10
21.460910
 20
63.224776
 30
0.000000
  0
SEQEND
  8
LAYER-2
  0
CIRCLE
  8
LAYER-2
 62
  7
 10
21.417352
 20
66.596241
 30
0.000000
 40
0.082054
  0
ARC
  8
LAYER-2
 62
  7
 10
21.434377
 20
66.370063
 30
0.000000
 40
0.087262
 50
312.856262
 51
249.391663
  0
POLYLINE
  8
LAYER-2
 66
  1
 70
  0
 62
  7
 10
21.388671
 20
66.231227
 30
0.000000
  0
VERTEX
  8
LAYER-2
 10
21.388671
 20
66.231227
 30
0.000000
  0
VERTEX
  8
LAYER-2
 10
21.352209
 20
66.231227
 30
0.000000
  0
SEQEND
  8
LAYER-2
  0
POLYLINE
  8
LAYER-2
 66
  1
 70
  0
 62
  7
 10
21.403665
 20
66.288391
 30
0.000000
  0
VERTEX
  8
LAYER-2
 10
21.403665
 20
66.288391
 30
0.000000
  0
VERTEX
  8
LAYER-2
 10
21.403633
 20
66.246171
 30
0.000000
  0
SEQEND
  8
LAYER-2
  0
ARC
  8
LAYER-2
 62
  7
 10
21.388671
 20
66.246185
 30
0.000000
 40
0.014961
 50
270.000000
 51
359.956757
  0
POLYLINE
  8
LAYER-2
 66
  1
 70
  0
 62
  7
 10
21.566189
 20
66.595924
 30
0.000000
  0
VERTEX
  8
LAYER-2
 10
21.566189
 20
66.595924
 30
0.000000
  0
VERTEX
  8
LAYER-2
 10
21.594334
 20
66.315406
 30
0.000000
  0
SEQEND
  8
LAYER-2
  0
ARC
  8
LAYER-2
 62
  7
 10
21.539107
 20
66.309871
 30
0.000000
 40
0.055512
 50
315.000000
 51
5.728333
  0
POLYLINE
  8
LAYER-2
 66
  1
 70
  0
 62
  7
 10
21.493725
 20
66.306103
 30
0.000000
  0
VERTEX
  8
LAYER-2
 10
21.493725
 20
66.306103
 30
0.000000
  0
VERTEX
  8
LAYER-2
 10
21.518792
 20
66.240819
 30
0.000000
  0
SEQEND
  8
LAYER-2
  0
POLYLINE
  8
LAYER-2
 66
  1
 70
  0
 62
  7
 10
21.543336
 20
66.235607
 30
0.000000
  0
VERTEX
  8
LAYER-2
 10
21.543336
 20
66.235607
 30
0.000000
  0
VERTEX
  8
LAYER-2
 10
21.578354
 20
66.270623
 30
0.000000
  0
SEQEND
  8
LAYER-2
  0
ARC
  8
LAYER-2
 62
  7
 10
21.532758
 20
66.246185
 30
0.000000
 40
0.014961
 50
201.000244
 51
315.000000
  0
POLYLINE
  8
LAYER-2
 66
  1
 70
  0
 62
  7
 10
21.295090
 20
66.288342
 30
0.000000
  0
VERTEX
  8
LAYER-2
 10
21.295090
 20
66.288342
 30
0.000000
  0
VERTEX
  8
LAYER-2
 10
21.352209
 20
66.231227
 30
0.000000
  0
SEQEND
  8
LAYER-2
  0
POLYLINE
  8
LAYER-2
 66
  1
 70
  0
 62
  7
 10
21.295090
 20
66.288342
 30
0.000000
  0
VERTEX
  8
LAYER-2
 10
21.295090
 20
66.288342
 30
0.000000
  0
VERTEX
  8
LAYER-2
 10
21.272283
 20
66.452235
 30
0.000000
  0
SEQEND
  8
LAYER-2
  0
POLYLINE
  8
LAYER-2
 66
  1
 70
  0
 62
  7
 10
21.307394
 20
66.487342
 30
0.000000
  0
VERTEX
  8
LAYER-2
 10
21.307394
 20
66.487342
 30
0.000000
  0
VERTEX
  8
LAYER-2
 10
21.267406
 20
66.527330
 30
0.000000
  0
SEQEND
  8
LAYER-2
  0
POLYLINE
  8
LAYER-2
 66
  1
 70
  0
 62
  7
 10
21.307394
 20
66.487342
 30
0.000000
  0
VERTEX
  8
LAYER-2
 10
21.307394
 20
66.487342
 30
0.000000
  0
VERTEX
  8
LAYER-2
 10
21.272283
 20
66.452235
 30
0.000000
  0
SEQEND
  8
LAYER-2
  0
POLYLINE
  8
LAYER-2
 66
  1
 70
  0
 62
  7
 10
21.267406
 20
66.527330
 30
0.000000
  0
VERTEX
  8
LAYER-2
 10
21.267406
 20
66.527330
 30
0.000000
  0
VERTEX
  8
LAYER-2
 10
21.267406
 20
66.664525
 30
0.000000
  0
SEQEND
  8
LAYER-2
  0
ARC
  8
LAYER-2
 62
  7
 10
21.434377
 20
66.821777
 30
0.000000
 40
0.087262
 50
110.608337
 51
47.143738
  0
POLYLINE
  8
LAYER-2
 66
  1
 70
  0
 62
  7
 10
21.388671
 20
66.960621
 30
0.000000
  0
VERTEX
  8
LAYER-2
 10
21.388671
 20
66.960621
 30
0.000000
  0
VERTEX
  8
LAYER-2
 10
21.352209
 20
66.960621
 30
0.000000
  0
SEQEND
  8
LAYER-2
  0
POLYLINE
  8
LAYER-2
 66
  1
 70
  0
 62
  7
 10
21.403665
 20
66.903456
 30
0.000000
  0
VERTEX
  8
LAYER-2
 10
21.403665
 20
66.903456
 30
0.000000
  0
VERTEX
  8
LAYER-2
 10
21.403633
 20
66.945669
 30
0.000000
  0
SEQEND
  8
LAYER-2
  0
ARC
  8
LAYER-2
 62
  7
 10
21.388671
 20
66.945669
 30
0.000000
 40
0.014961
 50
0.043243
 51
90.000000
  0
POLYLINE
  8
LAYER-2
 66
  1
 70
  0
 62
  7
 10
21.566189
 20
66.595924
 30
0.000000
  0
VERTEX
  8
LAYER-2
 10
21.566189
 20
66.595924
 30
0.000000
  0
VERTEX
  8
LAYER-2
 10
21.594334
 20
66.876434
 30
0.000000
  0
SEQEND
  8
LAYER-2
  0
ARC
  8
LAYER-2
 62
  7
 10
21.539107
 20
66.881970
 30
0.000000
 40
0.055512
 50
354.271667
 51
45.000000
  0
POLYLINE
  8
LAYER-2
 66
  1
 70
  0
 62
  7
 10
21.493725
 20
66.885737
 30
0.000000
  0
VERTEX
  8
LAYER-2
 10
21.493725
 20
66.885737
 30
0.000000
  0
VERTEX
  8
LAYER-2
 10
21.518792
 20
66.951022
 30
0.000000
  0
SEQEND
  8
LAYER-2
  0
POLYLINE
  8
LAYER-2
 66
  1
 70
  0
 62
  7
 10
21.543336
 20
66.956247
 30
0.000000
  0
VERTEX
  8
LAYER-2
 10
21.543336
 20
66.956247
 30
0.000000
  0
VERTEX
  8
LAYER-2
 10
21.578354
 20
66.921232
 30
0.000000
  0
SEQEND
  8
LAYER-2
  0
ARC
  8
LAYER-2
 62
  7
 10
21.532758
 20
66.945669
 30
0.000000
 40
0.014961
 50
45.000000
 51
158.999756
  0
POLYLINE
  8
LAYER-2
 66
  1
 70
  0
 62
  7
 10
21.295090
 20
66.903499
 30
0.000000
  0
VERTEX
  8
LAYER-2
 10
21.295090
 20
66.903499
 30
0.000000
  0
VERTEX
  8
LAYER-2
 10
21.352209
 20
66.960621
 30
0.000000
  0
SEQEND
  8
LAYER-2
  0
POLYLINE
  8
LAYER-2
 66
  1
 70
  0
 62
  7
 10
21.295090
 20
66.903499
 30
0.000000
  0
VERTEX
  8
LAYER-2
 10
21.295090
 20
66.903499
 30
0.000000
  0
VERTEX
  8
LAYER-2
 10
21.272283
 20
66.739605
 30
0.000000
  0
SEQEND
  8
LAYER-2
  0
POLYLINE
  8
LAYER-2
 66
  1
 70
  0
 62
  7
 10
21.307394
 20
66.704512
 30
0.000000
  0
VERTEX
  8
LAYER-2
 10
21.307394
 20
66.704512
 30
0.000000
  0
VERTEX
  8
LAYER-2
 10
21.267406
 20
66.664525
 30
0.000000
  0
SEQEND
  8
LAYER-2
  0
POLYLINE
  8
LAYER-2
 66
  1
 70
  0
 62
  7
 10
21.307394
 20
66.704512
 30
0.000000
  0
VERTEX
  8
LAYER-2
 10
21.307394
 20
66.704512
 30
0.000000
  0
VERTEX
  8
LAYER-2
 10
21.272283
 20
66.739605
 30
0.000000
  0
SEQEND
  8
LAYER-2
  0
POLYLINE
  8
LAYER-2
 66
  1
 70
  0
 62
  7
 10
21.466653
 20
66.178387
 30
0.000000
  0
VERTEX
  8
LAYER-2
 10
21.466653
 20
66.178387
 30
0.000000
  0
VERTEX
  8
LAYER-2
 10
21.460910
 20
66.172647
 30
0.000000
  0
SEQEND
  8
LAYER-2
  0
POLYLINE
  8
LAYER-2
 66
  1
 70
  0
 62
  7
 10
21.466653
 20
66.178387
 30
0.000000
  0
VERTEX
  8
LAYER-2
 10
21.466653
 20
66.178387
 30
0.000000
  0
VERTEX
  8
LAYER-2
 10
21.466724
 20
66.303230
 30
0.000000
  0
SEQEND
  8
LAYER-2
  0
ARC
  8
LAYER-2
 62
  7
 10
21.435863
 20
66.371873
 30
0.000000
 40
0.075258
 50
294.206604
 51
245.830200
  0
POLYLINE
  8
LAYER-2
 66
  1
 70
  0
 62
  7
 10
21.405137
 20
66.178387
 30
0.000000
  0
VERTEX
  8
LAYER-2
 10
21.405137
 20
66.178387
 30
0.000000
  0
VERTEX
  8
LAYER-2
 10
21.405052
 20
66.303216
 30
0.000000
  0
SEQEND
  8
LAYER-2
  0
POLYLINE
  8
LAYER-2
 66
  1
 70
  0
 62
  7
 10
21.405137
 20
66.178387
 30
0.000000
  0
VERTEX
  8
LAYER-2
 10
21.405137
 20
66.178387
 30
0.000000
  0
VERTEX
  8
LAYER-2
 10
21.411042
 20
66.172478
 30
0.000000
  0
SEQEND
  8
LAYER-2
  0
POLYLINE
  8
LAYER-2
 66
  1
 70
  0
 62
  7
 10
21.411042
 20
64.071519
 30
0.000000
  0
VERTEX
  8
LAYER-2
 10
21.411042
 20
64.071519
 30
0.000000
  0
VERTEX
  8
LAYER-2
 10
21.411042
 20
66.172478
 30
0.000000
  0
SEQEND
  8
LAYER-2
  0
POLYLINE
  8
LAYER-2
 66
  1
 70
  0
 62
  7
 10
21.405109
 20
64.065582
 30
0.000000
  0
VERTEX
  8
LAYER-2
 10
21.405109
 20
64.065582
 30
0.000000
  0
VERTEX
  8
LAYER-2
 10
21.411042
 20
64.071519
 30
0.000000
  0
SEQEND
  8
LAYER-2
  0
POLYLINE
  8
LAYER-2
 66
  1
 70
  0
 62
  7
 10
21.405109
 20
64.065582
 30
0.000000
  0
VERTEX
  8
LAYER-2
 10
21.405109
 20
64.065582
 30
0.000000
  0
VERTEX
  8
LAYER-2
 10
21.405038
 20
63.940747
 30
0.000000
  0
SEQEND
  8
LAYER-2
  0
ARC
  8
LAYER-2
 62
  7
 10
21.435895
 20
63.872110
 30
0.000000
 40
0.075258
 50
114.206604
 51
65.830200
  0
POLYLINE
  8
LAYER-2
 66
  1
 70
  0
 62
  7
 10
21.466621
 20
64.065582
 30
0.000000
  0
VERTEX
  8
LAYER-2
 10
21.466621
 20
64.065582
 30
0.000000
  0
VERTEX
  8
LAYER-2
 10
21.466706
 20
63.940761
 30
0.000000
  0
SEQEND
  8
LAYER-2
  0
POLYLINE
  8
LAYER-2
 66
  1
 70
  0
 62
  7
 10
21.466621
 20
64.065582
 30
0.000000
  0
VERTEX
  8
LAYER-2
 10
21.466621
 20
64.065582
 30
0.000000
  0
VERTEX
  8
LAYER-2
 10
21.460910
 20
64.071294
 30
0.000000
  0
SEQEND
  8
LAYER-2
  0
POLYLINE
  8
LAYER-2
 66
  1
 70
  0
 62
  7
 10
21.460910
 20
64.071294
 30
0.000000
  0
VERTEX
  8
LAYER-2
 10
21.460910
 20
64.071294
 30
0.000000
  0
VERTEX
  8
LAYER-2
 10
21.460910
 20
66.172647
 30
0.000000
  0
SEQEND
  8
LAYER-2
  0
CIRCLE
  8
LAYER-2
 62
  7
 10
21.417352
 20
69.544175
 30
0.000000
 40
0.082054
  0
ARC
  8
LAYER-2
 62
  7
 10
21.434377
 20
69.317998
 30
0.000000
 40
0.087262
 50
312.856262
 51
249.391663
  0
POLYLINE
  8
LAYER-2
 66
  1
 70
  0
 62
  7
 10
21.388671
 20
69.179155
 30
0.000000
  0
VERTEX
  8
LAYER-2
 10
21.388671
 20
69.179155
 30
0.000000
  0
VERTEX
  8
LAYER-2
 10
21.352209
 20
69.179155
 30
0.000000
  0
SEQEND
  8
LAYER-2
  0
POLYLINE
  8
LAYER-2
 66
  1
 70
  0
 62
  7
 10
21.403665
 20
69.236319
 30
0.000000
  0
VERTEX
  8
LAYER-2
 10
21.403665
 20
69.236319
 30
0.000000
  0
VERTEX
  8
LAYER-2
 10
21.403633
 20
69.194106
 30
0.000000
  0
SEQEND
  8
LAYER-2
  0
ARC
  8
LAYER-2
 62
  7
 10
21.388671
 20
69.194120
 30
0.000000
 40
0.014961
 50
270.000000
 51
359.956757
  0
POLYLINE
  8
LAYER-2
 66
  1
 70
  0
 62
  7
 10
21.566189
 20
69.543851
 30
0.000000
  0
VERTEX
  8
LAYER-2
 10
21.566189
 20
69.543851
 30
0.000000
  0
VERTEX
  8
LAYER-2
 10
21.594334
 20
69.263348
 30
0.000000
  0
SEQEND
  8
LAYER-2
  0
ARC
  8
LAYER-2
 62
  7
 10
21.539107
 20
69.257812
 30
0.000000
 40
0.055512
 50
315.000000
 51
5.728333
  0
POLYLINE
  8
LAYER-2
 66
  1
 70
  0
 62
  7
 10
21.493725
 20
69.254038
 30
0.000000
  0
VERTEX
  8
LAYER-2
 10
21.493725
 20
69.254038
 30
0.000000
  0
VERTEX
  8
LAYER-2
 10
21.518792
 20
69.188754
 30
0.000000
  0
SEQEND
  8
LAYER-2
  0
POLYLINE
  8
LAYER-2
 66
  1
 70
  0
 62
  7
 10
21.543336
 20
69.183542
 30
0.000000
  0
VERTEX
  8
LAYER-2
 10
21.543336
 20
69.183542
 30
0.000000
  0
VERTEX
  8
LAYER-2
 10
21.578354
 20
69.218558
 30
0.000000
  0
SEQEND
  8
LAYER-2
  0
ARC
  8
LAYER-2
 62
  7
 10
21.532758
 20
69.194120
 30
0.000000
 40
0.014961
 50
201.000244
 51
315.000000
  0
POLYLINE
  8
LAYER-2
 66
  1
 70
  0
 62
  7
 10
21.295090
 20
69.236276
 30
0.000000
  0
VERTEX
  8
LAYER-2
 10
21.295090
 20
69.236276
 30
0.000000
  0
VERTEX
  8
LAYER-2
 10
21.352209
 20
69.179155
 30
0.000000
  0
SEQEND
  8
LAYER-2
  0
POLYLINE
  8
LAYER-2
 66
  1
 70
  0
 62
  7
 10
21.295090
 20
69.236276
 30
0.000000
  0
VERTEX
  8
LAYER-2
 10
21.295090
 20
69.236276
 30
0.000000
  0
VERTEX
  8
LAYER-2
 10
21.272283
 20
69.400170
 30
0.000000
  0
SEQEND
  8
LAYER-2
  0
POLYLINE
  8
LAYER-2
 66
  1
 70
  0
 62
  7
 10
21.307394
 20
69.435284
 30
0.000000
  0
VERTEX
  8
LAYER-2
 10
21.307394
 20
69.435284
 30
0.000000
  0
VERTEX
  8
LAYER-2
 10
21.267406
 20
69.475264
 30
0.000000
  0
SEQEND
  8
LAYER-2
  0
POLYLINE
  8
LAYER-2
 66
  1
 70
  0
 62
  7
 10
21.307394
 20
69.435284
 30
0.000000
  0
VERTEX
  8
LAYER-2
 10
21.307394
 20
69.435284
 30
0.000000
  0
VERTEX
  8
LAYER-2
 10
21.272283
 20
69.400170
 30
0.000000
  0
SEQEND
  8
LAYER-2
  0
POLYLINE
  8
LAYER-2
 66
  1
 70
  0
 62
  7
 10
21.267406
 20
69.475264
 30
0.000000
  0
VERTEX
  8
LAYER-2
 10
21.267406
 20
69.475264
 30
0.000000
  0
VERTEX
  8
LAYER-2
 10
21.267406
 20
69.612460
 30
0.000000
  0
SEQEND
  8
LAYER-2
  0
ARC
  8
LAYER-2
 62
  7
 10
21.434377
 20
69.769712
 30
0.000000
 40
0.087262
 50
110.608337
 51
47.143738
  0
POLYLINE
  8
LAYER-2
 66
  1
 70
  0
 62
  7
 10
21.388671
 20
69.908555
 30
0.000000
  0
VERTEX
  8
LAYER-2
 10
21.388671
 20
69.908555
 30
0.000000
  0
VERTEX
  8
LAYER-2
 10
21.352209
 20
69.908555
 30
0.000000
  0
SEQEND
  8
LAYER-2
  0
POLYLINE
  8
LAYER-2
 66
  1
 70
  0
 62
  7
 10
21.403665
 20
69.851384
 30
0.000000
  0
VERTEX
  8
LAYER-2
 10
21.403665
 20
69.851384
 30
0.000000
  0
VERTEX
  8
LAYER-2
 10
21.403633
 20
69.893604
 30
0.000000
  0
SEQEND
  8
LAYER-2
  0
ARC
  8
LAYER-2
 62
  7
 10
21.388671
 20
69.893604
 30
0.000000
 40
0.014961
 50
0.043243
 51
90.000000
  0
POLYLINE
  8
LAYER-2
 66
  1
 70
  0
 62
  7
 10
21.566189
 20
69.543851
 30
0.000000
  0
VERTEX
  8
LAYER-2
 10
21.566189
 20
69.543851
 30
0.000000
  0
VERTEX
  8
LAYER-2
 10
21.594334
 20
69.824369
 30
0.000000
  0
SEQEND
  8
LAYER-2
  0
ARC
  8
LAYER-2
 62
  7
 10
21.539107
 20
69.829904
 30
0.000000
 40
0.055512
 50
354.271667
 51
45.000000
  0
POLYLINE
  8
LAYER-2
 66
  1
 70
  0
 62
  7
 10
21.493725
 20
69.833672
 30
0.000000
  0
VERTEX
  8
LAYER-2
 10
21.493725
 20
69.833672
 30
0.000000
  0
VERTEX
  8
LAYER-2
 10
21.518792
 20
69.898956
 30
0.000000
  0
SEQEND
  8
LAYER-2
  0
POLYLINE
  8
LAYER-2
 66
  1
 70
  0
 62
  7
 10
21.543336
 20
69.904189
 30
0.000000
  0
VERTEX
  8
LAYER-2
 10
21.543336
 20
69.904189
 30
0.000000
  0
VERTEX
  8
LAYER-2
 10
21.578354
 20
69.869166
 30
0.000000
  0
SEQEND
  8
LAYER-2
  0
ARC
  8
LAYER-2
 62
  7
 10
21.532758
 20
69.893604
 30
0.000000
 40
0.014961
 50
45.000000
 51
158.999756
  0
POLYLINE
  8
LAYER-2
 66
  1
 70
  0
 62
  7
 10
21.295090
 20
69.851433
 30
0.000000
  0
VERTEX
  8
LAYER-2
 10
21.295090
 20
69.851433
 30
0.000000
  0
VERTEX
  8
LAYER-2
 10
21.352209
 20
69.908555
 30
0.000000
  0
SEQEND
  8
LAYER-2
  0
POLYLINE
  8
LAYER-2
 66
  1
 70
  0
 62
  7
 10
21.295090
 20
69.851433
 30
0.000000
  0
VERTEX
  8
LAYER-2
 10
21.295090
 20
69.851433
 30
0.000000
  0
VERTEX
  8
LAYER-2
 10
21.272283
 20
69.687540
 30
0.000000
  0
SEQEND
  8
LAYER-2
  0
POLYLINE
  8
LAYER-2
 66
  1
 70
  0
 62
  7
 10
21.307394
 20
69.652447
 30
0.000000
  0
VERTEX
  8
LAYER-2
 10
21.307394
 20
69.652447
 30
0.000000
  0
VERTEX
  8
LAYER-2
 10
21.267406
 20
69.612460
 30
0.000000
  0
SEQEND
  8
LAYER-2
  0
POLYLINE
  8
LAYER-2
 66
  1
 70
  0
 62
  7
 10
21.307394
 20
69.652447
 30
0.000000
  0
VERTEX
  8
LAYER-2
 10
21.307394
 20
69.652447
 30
0.000000
  0
VERTEX
  8
LAYER-2
 10
21.272283
 20
69.687540
 30
0.000000
  0
SEQEND
  8
LAYER-2
  0
POLYLINE
  8
LAYER-2
 66
  1
 70
  0
 62
  7
 10
21.466653
 20
69.126315
 30
0.000000
  0
VERTEX
  8
LAYER-2
 10
21.466653
 20
69.126315
 30
0.000000
  0
VERTEX
  8
LAYER-2
 10
21.460910
 20
69.120582
 30
0.000000
  0
SEQEND
  8
LAYER-2
  0
POLYLINE
  8
LAYER-2
 66
  1
 70
  0
 62
  7
 10
21.466653
 20
69.126315
 30
0.000000
  0
VERTEX
  8
LAYER-2
 10
21.466653
 20
69.126315
 30
0.000000
  0
VERTEX
  8
LAYER-2
 10
21.466724
 20
69.251164
 30
0.000000
  0
SEQEND
  8
LAYER-2
  0
ARC
  8
LAYER-2
 62
  7
 10
21.435863
 20
69.319808
 30
0.000000
 40
0.075258
 50
294.206604
 51
245.830200
  0
POLYLINE
  8
LAYER-2
 66
  1
 70
  0
 62
  7
 10
21.405137
 20
69.126315
 30
0.000000
  0
VERTEX
  8
LAYER-2
 10
21.405137
 20
69.126315
 30
0.000000
  0
VERTEX
  8
LAYER-2
 10
21.405052
 20
69.251150
 30
0.000000
  0
SEQEND
  8
LAYER-2
  0
POLYLINE
  8
LAYER-2
 66
  1
 70
  0
 62
  7
 10
21.405137
 20
69.126315
 30
0.000000
  0
VERTEX
  8
LAYER-2
 10
21.405137
 20
69.126315
 30
0.000000
  0
VERTEX
  8
LAYER-2
 10
21.411042
 20
69.120413
 30
0.000000
  0
SEQEND
  8
LAYER-2
  0
POLYLINE
  8
LAYER-2
 66
  1
 70
  0
 62
  7
 10
21.411042
 20
67.019412
 30
0.000000
  0
VERTEX
  8
LAYER-2
 10
21.411042
 20
67.019412
 30
0.000000
  0
VERTEX
  8
LAYER-2
 10
21.411042
 20
69.120413
 30
0.000000
  0
SEQEND
  8
LAYER-2
  0
POLYLINE
  8
LAYER-2
 66
  1
 70
  0
 62
  7
 10
21.405109
 20
67.013475
 30
0.000000
  0
VERTEX
  8
LAYER-2
 10
21.405109
 20
67.013475
 30
0.000000
  0
VERTEX
  8
LAYER-2
 10
21.411042
 20
67.019412
 30
0.000000
  0
SEQEND
  8
LAYER-2
  0
POLYLINE
  8
LAYER-2
 66
  1
 70
  0
 62
  7
 10
21.405109
 20
67.013475
 30
0.000000
  0
VERTEX
  8
LAYER-2
 10
21.405109
 20
67.013475
 30
0.000000
  0
VERTEX
  8
LAYER-2
 10
21.405038
 20
66.888639
 30
0.000000
  0
SEQEND
  8
LAYER-2
  0
ARC
  8
LAYER-2
 62
  7
 10
21.435895
 20
66.819996
 30
0.000000
 40
0.075258
 50
114.206604
 51
65.830200
  0
POLYLINE
  8
LAYER-2
 66
  1
 70
  0
 62
  7
 10
21.466621
 20
67.013475
 30
0.000000
  0
VERTEX
  8
LAYER-2
 10
21.466621
 20
67.013475
 30
0.000000
  0
VERTEX
  8
LAYER-2
 10
21.466706
 20
66.888653
 30
0.000000
  0
SEQEND
  8
LAYER-2
  0
POLYLINE
  8
LAYER-2
 66
  1
 70
  0
 62
  7
 10
21.466621
 20
67.013475
 30
0.000000
  0
VERTEX
  8
LAYER-2
 10
21.466621
 20
67.013475
 30
0.000000
  0
VERTEX
  8
LAYER-2
 10
21.460910
 20
67.019186
 30
0.000000
  0
SEQEND
  8
LAYER-2
  0
POLYLINE
  8
LAYER-2
 66
  1
 70
  0
 62
  7
 10
21.460910
 20
67.019186
 30
0.000000
  0
VERTEX
  8
LAYER-2
 10
21.460910
 20
67.019186
 30
0.000000
  0
VERTEX
  8
LAYER-2
 10
21.460910
 20
69.120582
 30
0.000000
  0
SEQEND
  8
LAYER-2
  0
CIRCLE
  8
LAYER-2
 62
  7
 10
21.417352
 20
72.492103
 30
0.000000
 40
0.082054
  0
ARC
  8
LAYER-2
 62
  7
 10
21.434377
 20
72.265918
 30
0.000000
 40
0.087262
 50
312.856262
 51
249.391663
  0
POLYLINE
  8
LAYER-2
 66
  1
 70
  0
 62
  7
 10
21.388671
 20
72.127075
 30
0.000000
  0
VERTEX
  8
LAYER-2
 10
21.388671
 20
72.127075
 30
0.000000
  0
VERTEX
  8
LAYER-2
 10
21.352209
 20
72.127075
 30
0.000000
  0
SEQEND
  8
LAYER-2
  0
POLYLINE
  8
LAYER-2
 66
  1
 70
  0
 62
  7
 10
21.403665
 20
72.184246
 30
0.000000
  0
VERTEX
  8
LAYER-2
 10
21.403665
 20
72.184246
 30
0.000000
  0
VERTEX
  8
LAYER-2
 10
21.403633
 20
72.142026
 30
0.000000
  0
SEQEND
  8
LAYER-2
  0
ARC
  8
LAYER-2
 62
  7
 10
21.388671
 20
72.142048
 30
0.000000
 40
0.014961
 50
270.000000
 51
359.956757
  0
POLYLINE
  8
LAYER-2
 66
  1
 70
  0
 62
  7
 10
21.566189
 20
72.491779
 30
0.000000
  0
VERTEX
  8
LAYER-2
 10
21.566189
 20
72.491779
 30
0.000000
  0
VERTEX
  8
LAYER-2
 10
21.594334
 20
72.211261
 30
0.000000
  0
SEQEND
  8
LAYER-2
  0
ARC
  8
LAYER-2
 62
  7
 10
21.539107
 20
72.205726
 30
0.000000
 40
0.055512
 50
315.000000
 51
5.728333
  0
POLYLINE
  8
LAYER-2
 66
  1
 70
  0
 62
  7
 10
21.493725
 20
72.201958
 30
0.000000
  0
VERTEX
  8
LAYER-2
 10
21.493725
 20
72.201958
 30
0.000000
  0
VERTEX
  8
LAYER-2
 10
21.518792
 20
72.136674
 30
0.000000
  0
SEQEND
  8
LAYER-2
  0
POLYLINE
  8
LAYER-2
 66
  1
 70
  0
 62
  7
 10
21.543336
 20
72.131463
 30
0.000000
  0
VERTEX
  8
LAYER-2
 10
21.543336
 20
72.131463
 30
0.000000
  0
VERTEX
  8
LAYER-2
 10
21.578354
 20
72.166478
 30
0.000000
  0
SEQEND
  8
LAYER-2
  0
ARC
  8
LAYER-2
 62
  7
 10
21.532758
 20
72.142048
 30
0.000000
 40
0.014961
 50
201.000244
 51
315.000000
  0
POLYLINE
  8
LAYER-2
 66
  1
 70
  0
 62
  7
 10
21.295090
 20
72.184197
 30
0.000000
  0
VERTEX
  8
LAYER-2
 10
21.295090
 20
72.184197
 30
0.000000
  0
VERTEX
  8
LAYER-2
 10
21.352209
 20
72.127075
 30
0.000000
  0
SEQEND
  8
LAYER-2
  0
POLYLINE
  8
LAYER-2
 66
  1
 70
  0
 62
  7
 10
21.295090
 20
72.184197
 30
0.000000
  0
VERTEX
  8
LAYER-2
 10
21.295090
 20
72.184197
 30
0.000000
  0
VERTEX
  8
LAYER-2
 10
21.272283
 20
72.348091
 30
0.000000
  0
SEQEND
  8
LAYER-2
  0
POLYLINE
  8
LAYER-2
 66
  1
 70
  0
 62
  7
 10
21.307394
 20
72.383197
 30
0.000000
  0
VERTEX
  8
LAYER-2
 10
21.307394
 20
72.383197
 30
0.000000
  0
VERTEX
  8
LAYER-2
 10
21.267406
 20
72.423185
 30
0.000000
  0
SEQEND
  8
LAYER-2
  0
POLYLINE
  8
LAYER-2
 66
  1
 70
  0
 62
  7
 10
21.307394
 20
72.383197
 30
0.000000
  0
VERTEX
  8
LAYER-2
 10
21.307394
 20
72.383197
 30
0.000000
  0
VERTEX
  8
LAYER-2
 10
21.272283
 20
72.348091
 30
0.000000
  0
SEQEND
  8
LAYER-2
  0
POLYLINE
  8
LAYER-2
 66
  1
 70
  0
 62
  7
 10
21.267406
 20
72.423185
 30
0.000000
  0
VERTEX
  8
LAYER-2
 10
21.267406
 20
72.423185
 30
0.000000
  0
VERTEX
  8
LAYER-2
 10
21.267406
 20
72.560380
 30
0.000000
  0
SEQEND
  8
LAYER-2
  0
ARC
  8
LAYER-2
 62
  7
 10
21.434377
 20
72.717633
 30
0.000000
 40
0.087262
 50
110.608337
 51
47.143738
  0
POLYLINE
  8
LAYER-2
 66
  1
 70
  0
 62
  7
 10
21.388671
 20
72.856469
 30
0.000000
  0
VERTEX
  8
LAYER-2
 10
21.388671
 20
72.856469
 30
0.000000
  0
VERTEX
  8
LAYER-2
 10
21.352209
 20
72.856469
 30
0.000000
  0
SEQEND
  8
LAYER-2
  0
POLYLINE
  8
LAYER-2
 66
  1
 70
  0
 62
  7
 10
21.403665
 20
72.799312
 30
0.000000
  0
VERTEX
  8
LAYER-2
 10
21.403665
 20
72.799312
 30
0.000000
  0
VERTEX
  8
LAYER-2
 10
21.403633
 20
72.841525
 30
0.000000
  0
SEQEND
  8
LAYER-2
  0
ARC
  8
LAYER-2
 62
  7
 10
21.388671
 20
72.841525
 30
0.000000
 40
0.014961
 50
0.043243
 51
90.000000
  0
POLYLINE
  8
LAYER-2
 66
  1
 70
  0
 62
  7
 10
21.566189
 20
72.491779
 30
0.000000
  0
VERTEX
  8
LAYER-2
 10
21.566189
 20
72.491779
 30
0.000000
  0
VERTEX
  8
LAYER-2
 10
21.594334
 20
72.772283
 30
0.000000
  0
SEQEND
  8
LAYER-2
  0
ARC
  8
LAYER-2
 62
  7
 10
21.539107
 20
72.777818
 30
0.000000
 40
0.055512
 50
354.271667
 51
45.000000
  0
POLYLINE
  8
LAYER-2
 66
  1
 70
  0
 62
  7
 10
21.493725
 20
72.781593
 30
0.000000
  0
VERTEX
  8
LAYER-2
 10
21.493725
 20
72.781593
 30
0.000000
  0
VERTEX
  8
LAYER-2
 10
21.518792
 20
72.846877
 30
0.000000
  0
SEQEND
  8
LAYER-2
  0
POLYLINE
  8
LAYER-2
 66
  1
 70
  0
 62
  7
 10
21.543336
 20
72.852102
 30
0.000000
  0
VERTEX
  8
LAYER-2
 10
21.543336
 20
72.852102
 30
0.000000
  0
VERTEX
  8
LAYER-2
 10
21.578354
 20
72.817087
 30
0.000000
  0
SEQEND
  8
LAYER-2
  0
ARC
  8
LAYER-2
 62
  7
 10
21.532758
 20
72.841525
 30
0.000000
 40
0.014961
 50
45.000000
 51
158.999756
  0
POLYLINE
  8
LAYER-2
 66
  1
 70
  0
 62
  7
 10
21.295090
 20
72.799354
 30
0.000000
  0
VERTEX
  8
LAYER-2
 10
21.295090
 20
72.799354
 30
0.000000
  0
VERTEX
  8
LAYER-2
 10
21.352209
 20
72.856469
 30
0.000000
  0
SEQEND
  8
LAYER-2
  0
POLYLINE
  8
LAYER-2
 66
  1
 70
  0
 62
  7
 10
21.295090
 20
72.799354
 30
0.000000
  0
VERTEX
  8
LAYER-2
 10
21.295090
 20
72.799354
 30
0.000000
  0
VERTEX
  8
LAYER-2
 10
21.272283
 20
72.635460
 30
0.000000
  0
SEQEND
  8
LAYER-2
  0
POLYLINE
  8
LAYER-2
 66
  1
 70
  0
 62
  7
 10
21.307394
 20
72.600361
 30
0.000000
  0
VERTEX
  8
LAYER-2
 10
21.307394
 20
72.600361
 30
0.000000
  0
VERTEX
  8
LAYER-2
 10
21.267406
 20
72.560380
 30
0.000000
  0
SEQEND
  8
LAYER-2
  0
POLYLINE
  8
LAYER-2
 66
  1
 70
  0
 62
  7
 10
21.307394
 20
72.600361
 30
0.000000
  0
VERTEX
  8
LAYER-2
 10
21.307394
 20
72.600361
 30
0.000000
  0
VERTEX
  8
LAYER-2
 10
21.272283
 20
72.635460
 30
0.000000
  0
SEQEND
  8
LAYER-2
  0
POLYLINE
  8
LAYER-2
 66
  1
 70
  0
 62
  7
 10
21.466653
 20
72.074235
 30
0.000000
  0
VERTEX
  8
LAYER-2
 10
21.466653
 20
72.074235
 30
0.000000
  0
VERTEX
  8
LAYER-2
 10
21.460910
 20
72.068496
 30
0.000000
  0
SEQEND
  8
LAYER-2
  0
POLYLINE
  8
LAYER-2
 66
  1
 70
  0
 62
  7
 10
21.466653
 20
72.074235
 30
0.000000
  0
VERTEX
  8
LAYER-2
 10
21.466653
 20
72.074235
 30
0.000000
  0
VERTEX
  8
LAYER-2
 10
21.466724
 20
72.199078
 30
0.000000
  0
SEQEND
  8
LAYER-2
  0
ARC
  8
LAYER-2
 62
  7
 10
21.435863
 20
72.267728
 30
0.000000
 40
0.075258
 50
294.206604
 51
245.830200
  0
POLYLINE
  8
LAYER-2
 66
  1
 70
  0
 62
  7
 10
21.405137
 20
72.074235
 30
0.000000
  0
VERTEX
  8
LAYER-2
 10
21.405137
 20
72.074235
 30
0.000000
  0
VERTEX
  8
LAYER-2
 10
21.405052
 20
72.199064
 30
0.000000
  0
SEQEND
  8
LAYER-2
  0
POLYLINE
  8
LAYER-2
 66
  1
 70
  0
 62
  7
 10
21.405137
 20
72.074235
 30
0.000000
  0
VERTEX
  8
LAYER-2
 10
21.405137
 20
72.074235
 30
0.000000
  0
VERTEX
  8
LAYER-2
 10
21.411042
 20
72.068327
 30
0.000000
  0
SEQEND
  8
LAYER-2
  0
POLYLINE
  8
LAYER-2
 66
  1
 70
  0
 62
  7
 10
21.411042
 20
69.967346
 30
0.000000
  0
VERTEX
  8
LAYER-2
 10
21.411042
 20
69.967346
 30
0.000000
  0
VERTEX
  8
LAYER-2
 10
21.411042
 20
72.068327
 30
0.000000
  0
SEQEND
  8
LAYER-2
  0
POLYLINE
  8
LAYER-2
 66
  1
 70
  0
 62
  7
 10
21.405109
 20
69.961409
 30
0.000000
  0
VERTEX
  8
LAYER-2
 10
21.405109
 20
69.961409
 30
0.000000
  0
VERTEX
  8
LAYER-2
 10
21.411042
 20
69.967346
 30
0.000000
  0
SEQEND
  8
LAYER-2
  0
POLYLINE
  8
LAYER-2
 66
  1
 70
  0
 62
  7
 10
21.405109
 20
69.961409
 30
0.000000
  0
VERTEX
  8
LAYER-2
 10
21.405109
 20
69.961409
 30
0.000000
  0
VERTEX
  8
LAYER-2
 10
21.405038
 20
69.836567
 30
0.000000
  0
SEQEND
  8
LAYER-2
  0
ARC
  8
LAYER-2
 62
  7
 10
21.435895
 20
69.767930
 30
0.000000
 40
0.075258
 50
114.206604
 51
65.830200
  0
POLYLINE
  8
LAYER-2
 66
  1
 70
  0
 62
  7
 10
21.466621
 20
69.961409
 30
0.000000
  0
VERTEX
  8
LAYER-2
 10
21.466621
 20
69.961409
 30
0.000000
  0
VERTEX
  8
LAYER-2
 10
21.466706
 20
69.836581
 30
0.000000
  0
SEQEND
  8
LAYER-2
  0
POLYLINE
  8
LAYER-2
 66
  1
 70
  0
 62
  7
 10
21.466621
 20
69.961409
 30
0.000000
  0
VERTEX
  8
LAYER-2
 10
21.466621
 20
69.961409
 30
0.000000
  0
VERTEX
  8
LAYER-2
 10
21.460910
 20
69.967121
 30
0.000000
  0
SEQEND
  8
LAYER-2
  0
POLYLINE
  8
LAYER-2
 66
  1
 70
  0
 62
  7
 10
21.460910
 20
69.967121
 30
0.000000
  0
VERTEX
  8
LAYER-2
 10
21.460910
 20
69.967121
 30
0.000000
  0
VERTEX
  8
LAYER-2
 10
21.460910
 20
72.068496
 30
0.000000
  0
SEQEND
  8
LAYER-2
  0
CIRCLE
  8
LAYER-2
 62
  7
 10
21.417352
 20
75.440017
 30
0.000000
 40
0.082054
  0
ARC
  8
LAYER-2
 62
  7
 10
21.434377
 20
75.213839
 30
0.000000
 40
0.087262
 50
312.856262
 51
249.391663
  0
POLYLINE
  8
LAYER-2
 66
  1
 70
  0
 62
  7
 10
21.388671
 20
75.075003
 30
0.000000
  0
VERTEX
  8
LAYER-2
 10
21.388671
 20
75.075003
 30
0.000000
  0
VERTEX
  8
LAYER-2
 10
21.352209
 20
75.075003
 30
0.000000
  0
SEQEND
  8
LAYER-2
  0
POLYLINE
  8
LAYER-2
 66
  1
 70
  0
 62
  7
 10
21.403665
 20
75.132160
 30
0.000000
  0
VERTEX
  8
LAYER-2
 10
21.403665
 20
75.132160
 30
0.000000
  0
VERTEX
  8
LAYER-2
 10
21.403633
 20
75.089947
 30
0.000000
  0
SEQEND
  8
LAYER-2
  0
ARC
  8
LAYER-2
 62
  7
 10
21.388671
 20
75.089961
 30
0.000000
 40
0.014961
 50
270.000000
 51
359.956757
  0
POLYLINE
  8
LAYER-2
 66
  1
 70
  0
 62
  7
 10
21.566189
 20
75.439693
 30
0.000000
  0
VERTEX
  8
LAYER-2
 10
21.566189
 20
75.439693
 30
0.000000
  0
VERTEX
  8
LAYER-2
 10
21.594334
 20
75.159182
 30
0.000000
  0
SEQEND
  8
LAYER-2
  0
ARC
  8
LAYER-2
 62
  7
 10
21.539107
 20
75.153647
 30
0.000000
 40
0.055512
 50
315.000000
 51
5.728333
  0
POLYLINE
  8
LAYER-2
 66
  1
 70
  0
 62
  7
 10
21.493725
 20
75.149879
 30
0.000000
  0
VERTEX
  8
LAYER-2
 10
21.493725
 20
75.149879
 30
0.000000
  0
VERTEX
  8
LAYER-2
 10
21.518792
 20
75.084595
 30
0.000000
  0
SEQEND
  8
LAYER-2
  0
POLYLINE
  8
LAYER-2
 66
  1
 70
  0
 62
  7
 10
21.543336
 20
75.079383
 30
0.000000
  0
VERTEX
  8
LAYER-2
 10
21.543336
 20
75.079383
 30
0.000000
  0
VERTEX
  8
LAYER-2
 10
21.578354
 20
75.114399
 30
0.000000
  0
SEQEND
  8
LAYER-2
  0
ARC
  8
LAYER-2
 62
  7
 10
21.532758
 20
75.089961
 30
0.000000
 40
0.014961
 50
201.000244
 51
315.000000
  0
POLYLINE
  8
LAYER-2
 66
  1
 70
  0
 62
  7
 10
21.295090
 20
75.132118
 30
0.000000
  0
VERTEX
  8
LAYER-2
 10
21.295090
 20
75.132118
 30
0.000000
  0
VERTEX
  8
LAYER-2
 10
21.352209
 20
75.075003
 30
0.000000
  0
SEQEND
  8
LAYER-2
  0
POLYLINE
  8
LAYER-2
 66
  1
 70
  0
 62
  7
 10
21.295090
 20
75.132118
 30
0.000000
  0
VERTEX
  8
LAYER-2
 10
21.295090
 20
75.132118
 30
0.000000
  0
VERTEX
  8
LAYER-2
 10
21.272283
 20
75.296011
 30
0.000000
  0
SEQEND
  8
LAYER-2
  0
POLYLINE
  8
LAYER-2
 66
  1
 70
  0
 62
  7
 10
21.307394
 20
75.331118
 30
0.000000
  0
VERTEX
  8
LAYER-2
 10
21.307394
 20
75.331118
 30
0.000000
  0
VERTEX
  8
LAYER-2
 10
21.267406
 20
75.371105
 30
0.000000
  0
SEQEND
  8
LAYER-2
  0
POLYLINE
  8
LAYER-2
 66
  1
 70
  0
 62
  7
 10
21.307394
 20
75.331118
 30
0.000000
  0
VERTEX
  8
LAYER-2
 10
21.307394
 20
75.331118
 30
0.000000
  0
VERTEX
  8
LAYER-2
 10
21.272283
 20
75.296011
 30
0.000000
  0
SEQEND
  8
LAYER-2
  0
POLYLINE
  8
LAYER-2
 66
  1
 70
  0
 62
  7
 10
21.267406
 20
75.371105
 30
0.000000
  0
VERTEX
  8
LAYER-2
 10
21.267406
 20
75.371105
 30
0.000000
  0
VERTEX
  8
LAYER-2
 10
21.267406
 20
75.508301
 30
0.000000
  0
SEQEND
  8
LAYER-2
  0
ARC
  8
LAYER-2
 62
  7
 10
21.434377
 20
75.665546
 30
0.000000
 40
0.087262
 50
110.608337
 51
47.143738
  0
POLYLINE
  8
LAYER-2
 66
  1
 70
  0
 62
  7
 10
21.388671
 20
75.804389
 30
0.000000
  0
VERTEX
  8
LAYER-2
 10
21.388671
 20
75.804389
 30
0.000000
  0
VERTEX
  8
LAYER-2
 10
21.352209
 20
75.804389
 30
0.000000
  0
SEQEND
  8
LAYER-2
  0
POLYLINE
  8
LAYER-2
 66
  1
 70
  0
 62
  7
 10
21.403665
 20
75.747225
 30
0.000000
  0
VERTEX
  8
LAYER-2
 10
21.403665
 20
75.747225
 30
0.000000
  0
VERTEX
  8
LAYER-2
 10
21.403633
 20
75.789438
 30
0.000000
  0
SEQEND
  8
LAYER-2
  0
ARC
  8
LAYER-2
 62
  7
 10
21.388671
 20
75.789438
 30
0.000000
 40
0.014961
 50
0.043243
 51
90.000000
  0
POLYLINE
  8
LAYER-2
 66
  1
 70
  0
 62
  7
 10
21.566189
 20
75.439693
 30
0.000000
  0
VERTEX
  8
LAYER-2
 10
21.566189
 20
75.439693
 30
0.000000
  0
VERTEX
  8
LAYER-2
 10
21.594334
 20
75.720210
 30
0.000000
  0
SEQEND
  8
LAYER-2
  0
ARC
  8
LAYER-2
 62
  7
 10
21.539107
 20
75.725746
 30
0.000000
 40
0.055512
 50
354.271667
 51
45.000000
  0
POLYLINE
  8
LAYER-2
 66
  1
 70
  0
 62
  7
 10
21.493725
 20
75.729506
 30
0.000000
  0
VERTEX
  8
LAYER-2
 10
21.493725
 20
75.729506
 30
0.000000
  0
VERTEX
  8
LAYER-2
 10
21.518792
 20
75.794790
 30
0.000000
  0
SEQEND
  8
LAYER-2
  0
POLYLINE
  8
LAYER-2
 66
  1
 70
  0
 62
  7
 10
21.543336
 20
75.800023
 30
0.000000
  0
VERTEX
  8
LAYER-2
 10
21.543336
 20
75.800023
 30
0.000000
  0
VERTEX
  8
LAYER-2
 10
21.578354
 20
75.765001
 30
0.000000
  0
SEQEND
  8
LAYER-2
  0
ARC
  8
LAYER-2
 62
  7
 10
21.532758
 20
75.789438
 30
0.000000
 40
0.014961
 50
45.000000
 51
158.999756
  0
POLYLINE
  8
LAYER-2
 66
  1
 70
  0
 62
  7
 10
21.295090
 20
75.747268
 30
0.000000
  0
VERTEX
  8
LAYER-2
 10
21.295090
 20
75.747268
 30
0.000000
  0
VERTEX
  8
LAYER-2
 10
21.352209
 20
75.804389
 30
0.000000
  0
SEQEND
  8
LAYER-2
  0
POLYLINE
  8
LAYER-2
 66
  1
 70
  0
 62
  7
 10
21.295090
 20
75.747268
 30
0.000000
  0
VERTEX
  8
LAYER-2
 10
21.295090
 20
75.747268
 30
0.000000
  0
VERTEX
  8
LAYER-2
 10
21.272283
 20
75.583381
 30
0.000000
  0
SEQEND
  8
LAYER-2
  0
POLYLINE
  8
LAYER-2
 66
  1
 70
  0
 62
  7
 10
21.307394
 20
75.548288
 30
0.000000
  0
VERTEX
  8
LAYER-2
 10
21.307394
 20
75.548288
 30
0.000000
  0
VERTEX
  8
LAYER-2
 10
21.267406
 20
75.508301
 30
0.000000
  0
SEQEND
  8
LAYER-2
  0
POLYLINE
  8
LAYER-2
 66
  1
 70
  0
 62
  7
 10
21.307394
 20
75.548288
 30
0.000000
  0
VERTEX
  8
LAYER-2
 10
21.307394
 20
75.548288
 30
0.000000
  0
VERTEX
  8
LAYER-2
 10
21.272283
 20
75.583381
 30
0.000000
  0
SEQEND
  8
LAYER-2
  0
POLYLINE
  8
LAYER-2
 66
  1
 70
  0
 62
  7
 10
21.466653
 20
75.022156
 30
0.000000
  0
VERTEX
  8
LAYER-2
 10
21.466653
 20
75.022156
 30
0.000000
  0
VERTEX
  8
LAYER-2
 10
21.460910
 20
75.016423
 30
0.000000
  0
SEQEND
  8
LAYER-2
  0
POLYLINE
  8
LAYER-2
 66
  1
 70
  0
 62
  7
 10
21.466653
 20
75.022156
 30
0.000000
  0
VERTEX
  8
LAYER-2
 10
21.466653
 20
75.022156
 30
0.000000
  0
VERTEX
  8
LAYER-2
 10
21.466724
 20
75.147006
 30
0.000000
  0
SEQEND
  8
LAYER-2
  0
ARC
  8
LAYER-2
 62
  7
 10
21.435863
 20
75.215642
 30
0.000000
 40
0.075258
 50
294.206604
 51
245.830200
  0
POLYLINE
  8
LAYER-2
 66
  1
 70
  0
 62
  7
 10
21.405137
 20
75.022156
 30
0.000000
  0
VERTEX
  8
LAYER-2
 10
21.405137
 20
75.022156
 30
0.000000
  0
VERTEX
  8
LAYER-2
 10
21.405052
 20
75.146991
 30
0.000000
  0
SEQEND
  8
LAYER-2
  0
POLYLINE
  8
LAYER-2
 66
  1
 70
  0
 62
  7
 10
21.405137
 20
75.022156
 30
0.000000
  0
VERTEX
  8
LAYER-2
 10
21.405137
 20
75.022156
 30
0.000000
  0
VERTEX
  8
LAYER-2
 10
21.411042
 20
75.016254
 30
0.000000
  0
SEQEND
  8
LAYER-2
  0
POLYLINE
  8
LAYER-2
 66
  1
 70
  0
 62
  7
 10
21.411042
 20
72.915260
 30
0.000000
  0
VERTEX
  8
LAYER-2
 10
21.411042
 20
72.915260
 30
0.000000
  0
VERTEX
  8
LAYER-2
 10
21.411042
 20
75.016254
 30
0.000000
  0
SEQEND
  8
LAYER-2
  0
POLYLINE
  8
LAYER-2
 66
  1
 70
  0
 62
  7
 10
21.405109
 20
72.909330
 30
0.000000
  0
VERTEX
  8
LAYER-2
 10
21.405109
 20
72.909330
 30
0.000000
  0
VERTEX
  8
LAYER-2
 10
21.411042
 20
72.915260
 30
0.000000
  0
SEQEND
  8
LAYER-2
  0
POLYLINE
  8
LAYER-2
 66
  1
 70
  0
 62
  7
 10
21.405109
 20
72.909330
 30
0.000000
  0
VERTEX
  8
LAYER-2
 10
21.405109
 20
72.909330
 30
0.000000
  0
VERTEX
  8
LAYER-2
 10
21.405038
 20
72.784494
 30
0.000000
  0
SEQEND
  8
LAYER-2
  0
ARC
  8
LAYER-2
 62
  7
 10
21.435895
 20
72.715844
 30
0.000000
 40
0.075258
 50
114.206604
 51
65.830200
  0
POLYLINE
  8
LAYER-2
 66
  1
 70
  0
 62
  7
 10
21.466621
 20
72.909330
 30
0.000000
  0
VERTEX
  8
LAYER-2
 10
21.466621
 20
72.909330
 30
0.000000
  0
VERTEX
  8
LAYER-2
 10
21.466706
 20
72.784508
 30
0.000000
  0
SEQEND
  8
LAYER-2
  0
POLYLINE
  8
LAYER-2
 66
  1
 70
  0
 62
  7
 10
21.466621
 20
72.909330
 30
0.000000
  0
VERTEX
  8
LAYER-2
 10
21.466621
 20
72.909330
 30
0.000000
  0
VERTEX
  8
LAYER-2
 10
21.460910
 20
72.915041
 30
0.000000
  0
SEQEND
  8
LAYER-2
  0
POLYLINE
  8
LAYER-2
 66
  1
 70
  0
 62
  7
 10
21.460910
 20
72.915041
 30
0.000000
  0
VERTEX
  8
LAYER-2
 10
21.460910
 20
72.915041
 30
0.000000
  0
VERTEX
  8
LAYER-2
 10
21.460910
 20
75.016423
 30
0.000000
  0
SEQEND
  8
LAYER-2
  0
ARC
  8
LAYER-2
 62
  7
 10
68.197935
 20
29.378385
 30
0.000000
 40
0.562146
 50
244.773682
 51
295.226318
  0
POLYLINE
  8
LAYER-2
 66
  1
 70
  0
 62
  7
 10
68.477220
 20
28.812793
 30
0.000000
  0
VERTEX
  8
LAYER-2
 10
68.477220
 20
28.812793
 30
0.000000
  0
VERTEX
  8
LAYER-2
 10
68.394836
 20
28.893818
 30
0.000000
  0
VERTEX
  8
LAYER-2
 10
68.195970
 20
28.927375
 30
0.000000
  0
VERTEX
  8
LAYER-2
 10
67.997096
 20
28.893818
 30
0.000000
  0
VERTEX
  8
LAYER-2
 10
67.914720
 20
28.812793
 30
0.000000
  0
VERTEX
  8
LAYER-2
 10
67.997096
 20
28.731769
 30
0.000000
  0
VERTEX
  8
LAYER-2
 10
68.195970
 20
28.698212
 30
0.000000
  0
VERTEX
  8
LAYER-2
 10
68.394836
 20
28.731769
 30
0.000000
  0
VERTEX
  8
LAYER-2
 10
68.477220
 20
28.812793
 30
0.000000
  0
SEQEND
  8
LAYER-2
  0
POLYLINE
  8
LAYER-2
 66
  1
 70
  0
 62
  7
 10
68.916687
 20
28.503127
 30
0.000000
  0
VERTEX
  8
LAYER-2
 10
68.916687
 20
28.503127
 30
0.000000
  0
VERTEX
  8
LAYER-2
 10
66.916682
 20
28.503127
 30
0.000000
  0
SEQEND
  8
LAYER-2
  0
POLYLINE
  8
LAYER-2
 66
  1
 70
  0
 62
  7
 10
70.666682
 20
32.974379
 30
0.000000
  0
VERTEX
  8
LAYER-2
 10
70.666682
 20
32.974379
 30
0.000000
  0
VERTEX
  8
LAYER-2
 10
68.550842
 20
28.950144
 30
0.000000
  0
SEQEND
  8
LAYER-2
  0
POLYLINE
  8
LAYER-2
 66
  1
 70
  1
 62
  7
  0
VERTEX
  8
LAYER-2
 10
68.541687
 20
28.932720
 30
0.000000
  0
VERTEX
  8
LAYER-2
 10
68.503784
 20
29.604457
 30
0.000000
  0
VERTEX
  8
LAYER-2
 10
68.810169
 20
29.443366
 30
0.000000
  0
VERTEX
  8
LAYER-2
 10
69.116554
 20
29.282276
 30
0.000000
  0
VERTEX
  8
LAYER-2
 10
68.541687
 20
28.932720
 30
0.000000
  0
SEQEND
  8
LAYER-2
  0
POLYLINE
  8
LAYER-2
 66
  1
 70
  1
 62
  7
  0
VERTEX
  8
LAYER-2
 10
67.685817
 20
28.846626
 30
0.000000
  0
VERTEX
  8
LAYER-2
 10
68.735765
 20
28.846626
 30
0.000000
  0
VERTEX
  8
LAYER-2
 10
68.735765
 20
23.848699
 30
0.000000
  0
VERTEX
  8
LAYER-2
 10
67.685817
 20
23.848699
 30
0.000000
  0
SEQEND
  8
LAYER-2
  0
CIRCLE
  8
LAYER-2
 62
  7
 10
68.210794
 20
26.347715
 30
0.000000
 40
0.219241
  0
POLYLINE
  8
LAYER-2
 66
  1
 70
  0
 62
  7
 10
68.418809
 20
27.593825
 30
0.000000
  0
VERTEX
  8
LAYER-2
 10
68.418809
 20
27.593825
 30
0.000000
  0
VERTEX
  8
LAYER-2
 10
68.355765
 20
27.686624
 30
0.000000
  0
VERTEX
  8
LAYER-2
 10
68.203562
 20
27.725062
 30
0.000000
  0
VERTEX
  8
LAYER-2
 10
68.051366
 20
27.686624
 30
0.000000
  0
VERTEX
  8
LAYER-2
 10
67.988321
 20
27.593825
 30
0.000000
  0
VERTEX
  8
LAYER-2
 10
68.051366
 20
27.501019
 30
0.000000
  0
VERTEX
  8
LAYER-2
 10
68.203562
 20
27.462581
 30
0.000000
  0
VERTEX
  8
LAYER-2
 10
68.355765
 20
27.501019
 30
0.000000
  0
VERTEX
  8
LAYER-2
 10
68.418809
 20
27.593825
 30
0.000000
  0
SEQEND
  8
LAYER-2
  0
POLYLINE
  8
LAYER-2
 66
  1
 70
  0
 62
  7
 10
68.397822
 20
28.675352
 30
0.000000
  0
VERTEX
  8
LAYER-2
 10
68.397822
 20
28.675352
 30
0.000000
  0
VERTEX
  8
LAYER-2
 10
68.337855
 20
28.716184
 30
0.000000
  0
VERTEX
  8
LAYER-2
 10
68.193075
 20
28.733100
 30
0.000000
  0
VERTEX
  8
LAYER-2
 10
68.048295
 20
28.716184
 30
0.000000
  0
VERTEX
  8
LAYER-2
 10
67.988328
 20
28.675352
 30
0.000000
  0
VERTEX
  8
LAYER-2
 10
68.048295
 20
28.634519
 30
0.000000
  0
VERTEX
  8
LAYER-2
 10
68.193075
 20
28.617603
 30
0.000000
  0
VERTEX
  8
LAYER-2
 10
68.337855
 20
28.634519
 30
0.000000
  0
VERTEX
  8
LAYER-2
 10
68.397822
 20
28.675352
 30
0.000000
  0
SEQEND
  8
LAYER-2
  0
POLYLINE
  8
LAYER-2
 66
  1
 70
  0
 62
  7
 10
67.983060
 20
25.131697
 30
0.000000
  0
VERTEX
  8
LAYER-2
 10
67.983060
 20
25.131697
 30
0.000000
  0
VERTEX
  8
LAYER-2
 10
68.046105
 20
25.038898
 30
0.000000
  0
VERTEX
  8
LAYER-2
 10
68.198308
 20
25.000453
 30
0.000000
  0
VERTEX
  8
LAYER-2
 10
68.350504
 20
25.038898
 30
0.000000
  0
VERTEX
  8
LAYER-2
 10
68.413548
 20
25.131697
 30
0.000000
  0
VERTEX
  8
LAYER-2
 10
68.350504
 20
25.224504
 30
0.000000
  0
VERTEX
  8
LAYER-2
 10
68.198308
 20
25.262942
 30
0.000000
  0
VERTEX
  8
LAYER-2
 10
68.046105
 20
25.224504
 30
0.000000
  0
VERTEX
  8
LAYER-2
 10
67.983060
 20
25.131697
 30
0.000000
  0
SEQEND
  8
LAYER-2
  0
POLYLINE
  8
LAYER-2
 66
  1
 70
  0
 62
  7
 10
67.983067
 20
24.050192
 30
0.000000
  0
VERTEX
  8
LAYER-2
 10
67.983067
 20
24.050192
 30
0.000000
  0
VERTEX
  8
LAYER-2
 10
68.043042
 20
24.009360
 30
0.000000
  0
VERTEX
  8
LAYER-2
 10
68.187815
 20
23.992443
 30
0.000000
  0
VERTEX
  8
LAYER-2
 10
68.332595
 20
24.009360
 30
0.000000
  0
VERTEX
  8
LAYER-2
 10
68.392562
 20
24.050192
 30
0.000000
  0
VERTEX
  8
LAYER-2
 10
68.332595
 20
24.091025
 30
0.000000
  0
VERTEX
  8
LAYER-2
 10
68.187815
 20
24.107941
 30
0.000000
  0
VERTEX
  8
LAYER-2
 10
68.043042
 20
24.091025
 30
0.000000
  0
VERTEX
  8
LAYER-2
 10
67.983067
 20
24.050192
 30
0.000000
  0
SEQEND
  8
LAYER-2
  0
TEXT
  8
LAYER-2
 62
  7
 10
70.160257
 20
38.416696
 30
0.000000
 40
1.471154
  1
Outside
 72
  5
 11
77.083334
 21
38.416696
 31
0.000000
  0
TEXT
  8
LAYER-2
 62
  7
 10
70.160257
 20
36.109004
 30
0.000000
 40
1.471154
  1
charging
 72
  5
 11
78.121795
 21
36.109004
 31
0.000000
  0
TEXT
  8
LAYER-2
 62
  7
 10
70.160257
 20
33.801312
 30
0.000000
 40
1.471154
  1
wheel
 72
  5
 11
75.467949
 21
33.801312
 31
0.000000
  0
POLYLINE
  8
LAYER-2
 66
  1
 70
  0
 62
  7
 10
67.041687
 20
30.480962
 30
0.000000
  0
VERTEX
  8
LAYER-2
 10
67.041687
 20
30.480962
 30
0.000000
  0
VERTEX
  8
LAYER-2
 10
67.041687
 20
29.230964
 30
0.000000
  0
SEQEND
  8
LAYER-2
  0
POLYLINE
  8
LAYER-2
 66
  1
 70
  0
 62
  7
 10
66.916682
 20
29.119868
 30
0.000000
  0
VERTEX
  8
LAYER-2
 10
66.916682
 20
29.119868
 30
0.000000
  0
VERTEX
  8
LAYER-2
 10
68.916687
 20
29.119868
 30
0.000000
  0
SEQEND
  8
LAYER-2
  0
POLYLINE
  8
LAYER-2
 66
  1
 70
  0
 62
  7
 10
68.916687
 20
28.503127
 30
0.000000
  0
VERTEX
  8
LAYER-2
 10
68.916687
 20
28.503127
 30
0.000000
  0
VERTEX
  8
LAYER-2
 10
68.916687
 20
29.230964
 30
0.000000
  0
SEQEND
  8
LAYER-2
  0
POLYLINE
  8
LAYER-2
 66
  1
 70
  0
 62
  7
 10
68.916687
 20
29.230964
 30
0.000000
  0
VERTEX
  8
LAYER-2
 10
68.916687
 20
29.230964
 30
0.000000
  0
VERTEX
  8
LAYER-2
 10
67.041687
 20
29.230964
 30
0.000000
  0
SEQEND
  8
LAYER-2
  0
POLYLINE
  8
LAYER-2
 66
  1
 70
  0
 62
  7
 10
67.041687
 20
30.480962
 30
0.000000
  0
VERTEX
  8
LAYER-2
 10
67.041687
 20
30.480962
 30
0.000000
  0
VERTEX
  8
LAYER-2
 10
66.916682
 20
30.480962
 30
0.000000
  0
SEQEND
  8
LAYER-2
  0
ARC
  8
LAYER-2
 62
  7
 10
66.920189
 20
30.343400
 30
0.000000
 40
0.137619
 50
28.023438
 51
91.463989
  0
ARC
  8
LAYER-2
 62
  7
 10
66.920189
 20
30.280898
 30
0.000000
 40
0.137619
 50
28.023438
 51
91.463989
  0
ARC
  8
LAYER-2
 62
  7
 10
66.920189
 20
30.218396
 30
0.000000
 40
0.137619
 50
28.023438
 51
91.463989
  0
ARC
  8
LAYER-2
 62
  7
 10
66.920189
 20
30.155900
 30
0.000000
 40
0.137619
 50
28.023438
 51
91.463989
  0
ARC
  8
LAYER-2
 62
  7
 10
66.920189
 20
30.093398
 30
0.000000
 40
0.137619
 50
28.023438
 51
91.463989
  0
ARC
  8
LAYER-2
 62
  7
 10
66.920189
 20
30.030896
 30
0.000000
 40
0.137619
 50
28.023438
 51
91.463989
  0
ARC
  8
LAYER-2
 62
  7
 10
66.920189
 20
29.968400
 30
0.000000
 40
0.137619
 50
28.023438
 51
91.463989
  0
ARC
  8
LAYER-2
 62
  7
 10
66.920189
 20
29.905898
 30
0.000000
 40
0.137619
 50
28.023438
 51
91.463989
  0
ARC
  8
LAYER-2
 62
  7
 10
66.920189
 20
29.843396
 30
0.000000
 40
0.137619
 50
28.023438
 51
91.463989
  0
ARC
  8
LAYER-2
 62
  7
 10
66.920189
 20
29.780900
 30
0.000000
 40
0.137619
 50
28.023438
 51
91.463989
  0
ARC
  8
LAYER-2
 62
  7
 10
66.920189
 20
29.718398
 30
0.000000
 40
0.137619
 50
28.023438
 51
91.463989
  0
ARC
  8
LAYER-2
 62
  7
 10
66.920189
 20
29.655896
 30
0.000000
 40
0.137619
 50
28.023438
 51
91.463989
  0
ARC
  8
LAYER-2
 62
  7
 10
66.920189
 20
29.593400
 30
0.000000
 40
0.137619
 50
28.023438
 51
91.463989
  0
ARC
  8
LAYER-2
 62
  7
 10
66.920189
 20
29.530898
 30
0.000000
 40
0.137619
 50
28.023438
 51
91.463989
  0
ARC
  8
LAYER-2
 62
  7
 10
66.920189
 20
29.468396
 30
0.000000
 40
0.137619
 50
28.023438
 51
91.463989
  0
ARC
  8
LAYER-2
 62
  7
 10
66.920189
 20
29.405900
 30
0.000000
 40
0.137619
 50
28.023438
 51
91.463989
  0
ARC
  8
LAYER-2
 62
  7
 10
66.920189
 20
29.343398
 30
0.000000
 40
0.137619
 50
28.023438
 51
91.463989
  0
ARC
  8
LAYER-2
 62
  7
 10
66.920189
 20
29.280896
 30
0.000000
 40
0.137619
 50
28.023438
 51
91.463989
  0
ARC
  8
LAYER-2
 62
  7
 10
66.920189
 20
29.218400
 30
0.000000
 40
0.137619
 50
28.023438
 51
91.463989
  0
ARC
  8
LAYER-2
 62
  7
 10
66.920189
 20
29.155898
 30
0.000000
 40
0.137619
 50
28.023438
 51
91.463989
  0
ARC
  8
LAYER-2
 62
  7
 10
66.920189
 20
29.093396
 30
0.000000
 40
0.137619
 50
28.023438
 51
91.463989
  0
ARC
  8
LAYER-2
 62
  7
 10
66.862856
 20
29.604260
 30
0.000000
 40
0.483938
 50
276.386108
 51
291.686401
  0
ARC
  8
LAYER-2
 62
  7
 10
67.059279
 20
29.882369
 30
0.000000
 40
0.728002
 50
258.704346
 51
268.615112
  0
POLYLINE
  8
LAYER-2
 66
  1
 70
  0
 62
  7
 10
67.041687
 20
29.154574
 30
0.000000
  0
VERTEX
  8
LAYER-2
 10
67.041687
 20
29.154574
 30
0.000000
  0
VERTEX
  8
LAYER-2
 10
67.041687
 20
29.234436
 30
0.000000
  0
SEQEND
  8
LAYER-2
  0
POLYLINE
  8
LAYER-2
 66
  1
 70
  1
 62
  7
  0
VERTEX
  8
LAYER-2
 10
66.708703
 20
33.391057
 30
0.000000
  0
VERTEX
  8
LAYER-2
 10
66.903154
 20
33.391057
 30
0.000000
  0
VERTEX
  8
LAYER-2
 10
66.903154
 20
17.391048
 30
0.000000
  0
VERTEX
  8
LAYER-2
 10
66.708703
 20
17.391048
 30
0.000000
  0
SEQEND
  8
LAYER-2
  0
POLYLINE
  8
LAYER-2
 66
  1
 70
  0
 62
  7
 10
69.905738
 20
26.882686
 30
0.000000
  0
VERTEX
  8
LAYER-2
 10
69.905738
 20
26.882686
 30
0.000000
  0
VERTEX
  8
LAYER-2
 10
69.905738
 20
25.885099
 30
0.000000
  0
SEQEND
  8
LAYER-2
  0
POLYLINE
  8
LAYER-2
 66
  1
 70
  0
 62
  7
 10
64.206545
 20
29.699756
 30
0.000000
  0
VERTEX
  8
LAYER-2
 10
64.206545
 20
29.699756
 30
0.000000
  0
VERTEX
  8
LAYER-2
 10
64.206545
 20
23.071444
 30
0.000000
  0
SEQEND
  8
LAYER-2
  0
POLYLINE
  8
LAYER-2
 66
  1
 70
  0
 62
  7
 10
64.206545
 20
29.699756
 30
0.000000
  0
VERTEX
  8
LAYER-2
 10
64.206545
 20
29.699756
 30
0.000000
  0
VERTEX
  8
LAYER-2
 10
21.772996
 20
29.699756
 30
0.000000
  0
SEQEND
  8
LAYER-2
  0
POLYLINE
  8
LAYER-2
 66
  1
 70
  0
 62
  7
 10
64.206545
 20
23.071444
 30
0.000000
  0
VERTEX
  8
LAYER-2
 10
64.206545
 20
23.071444
 30
0.000000
  0
VERTEX
  8
LAYER-2
 10
21.772996
 20
23.071444
 30
0.000000
  0
SEQEND
  8
LAYER-2
  0
POLYLINE
  8
LAYER-2
 66
  1
 70
  0
 62
  7
 10
64.202947
 20
27.204719
 30
0.000000
  0
VERTEX
  8
LAYER-2
 10
64.202947
 20
27.204719
 30
0.000000
  0
VERTEX
  8
LAYER-2
 10
21.772996
 20
27.204719
 30
0.000000
  0
SEQEND
  8
LAYER-2
  0
POLYLINE
  8
LAYER-2
 66
  1
 70
  0
 62
  7
 10
64.202947
 20
27.968607
 30
0.000000
  0
VERTEX
  8
LAYER-2
 10
64.202947
 20
27.968607
 30
0.000000
  0
VERTEX
  8
LAYER-2
 10
21.772996
 20
27.968529
 30
0.000000
  0
SEQEND
  8
LAYER-2
  0
POLYLINE
  8
LAYER-2
 66
  1
 70
  0
 62
  7
 10
64.202947
 20
28.496387
 30
0.000000
  0
VERTEX
  8
LAYER-2
 10
64.202947
 20
28.496387
 30
0.000000
  0
VERTEX
  8
LAYER-2
 10
21.772996
 20
28.496296
 30
0.000000
  0
SEQEND
  8
LAYER-2
  0
POLYLINE
  8
LAYER-2
 66
  1
 70
  0
 62
  7
 10
64.202947
 20
28.940826
 30
0.000000
  0
VERTEX
  8
LAYER-2
 10
64.202947
 20
28.940826
 30
0.000000
  0
VERTEX
  8
LAYER-2
 10
21.772996
 20
28.940826
 30
0.000000
  0
SEQEND
  8
LAYER-2
  0
POLYLINE
  8
LAYER-2
 66
  1
 70
  0
 62
  7
 10
64.202947
 20
29.232499
 30
0.000000
  0
VERTEX
  8
LAYER-2
 10
64.202947
 20
29.232499
 30
0.000000
  0
VERTEX
  8
LAYER-2
 10
21.772996
 20
29.232499
 30
0.000000
  0
SEQEND
  8
LAYER-2
  0
POLYLINE
  8
LAYER-2
 66
  1
 70
  0
 62
  7
 10
64.202947
 20
29.426936
 30
0.000000
  0
VERTEX
  8
LAYER-2
 10
64.202947
 20
29.426936
 30
0.000000
  0
VERTEX
  8
LAYER-2
 10
21.772996
 20
29.426936
 30
0.000000
  0
SEQEND
  8
LAYER-2
  0
POLYLINE
  8
LAYER-2
 66
  1
 70
  0
 62
  7
 10
64.202947
 20
29.565822
 30
0.000000
  0
VERTEX
  8
LAYER-2
 10
64.202947
 20
29.565822
 30
0.000000
  0
VERTEX
  8
LAYER-2
 10
21.772996
 20
29.565822
 30
0.000000
  0
SEQEND
  8
LAYER-2
  0
POLYLINE
  8
LAYER-2
 66
  1
 70
  0
 62
  7
 10
64.202947
 20
25.524170
 30
0.000000
  0
VERTEX
  8
LAYER-2
 10
64.202947
 20
25.524170
 30
0.000000
  0
VERTEX
  8
LAYER-2
 10
21.772996
 20
25.524092
 30
0.000000
  0
SEQEND
  8
LAYER-2
  0
POLYLINE
  8
LAYER-2
 66
  1
 70
  0
 62
  7
 10
64.202947
 20
24.760268
 30
0.000000
  0
VERTEX
  8
LAYER-2
 10
64.202947
 20
24.760268
 30
0.000000
  0
VERTEX
  8
LAYER-2
 10
21.772996
 20
24.760268
 30
0.000000
  0
SEQEND
  8
LAYER-2
  0
POLYLINE
  8
LAYER-2
 66
  1
 70
  0
 62
  7
 10
64.202947
 20
24.232495
 30
0.000000
  0
VERTEX
  8
LAYER-2
 10
64.202947
 20
24.232495
 30
0.000000
  0
VERTEX
  8
LAYER-2
 10
21.772996
 20
24.232431
 30
0.000000
  0
SEQEND
  8
LAYER-2
  0
POLYLINE
  8
LAYER-2
 66
  1
 70
  0
 62
  7
 10
64.202947
 20
23.788055
 30
0.000000
  0
VERTEX
  8
LAYER-2
 10
64.202947
 20
23.788055
 30
0.000000
  0
VERTEX
  8
LAYER-2
 10
21.772996
 20
23.787978
 30
0.000000
  0
SEQEND
  8
LAYER-2
  0
POLYLINE
  8
LAYER-2
 66
  1
 70
  0
 62
  7
 10
64.202947
 20
23.496382
 30
0.000000
  0
VERTEX
  8
LAYER-2
 10
64.202947
 20
23.496382
 30
0.000000
  0
VERTEX
  8
LAYER-2
 10
21.772996
 20
23.496319
 30
0.000000
  0
SEQEND
  8
LAYER-2
  0
POLYLINE
  8
LAYER-2
 66
  1
 70
  0
 62
  7
 10
64.202947
 20
23.301946
 30
0.000000
  0
VERTEX
  8
LAYER-2
 10
64.202947
 20
23.301946
 30
0.000000
  0
VERTEX
  8
LAYER-2
 10
21.772996
 20
23.301882
 30
0.000000
  0
SEQEND
  8
LAYER-2
  0
POLYLINE
  8
LAYER-2
 66
  1
 70
  0
 62
  7
 10
64.202947
 20
23.163060
 30
0.000000
  0
VERTEX
  8
LAYER-2
 10
64.202947
 20
23.163060
 30
0.000000
  0
VERTEX
  8
LAYER-2
 10
21.772996
 20
23.162997
 30
0.000000
  0
SEQEND
  8
LAYER-2
  0
TEXT
  8
LAYER-2
 62
  7
 10
70.160257
 20
17.993619
 30
0.000000
 40
1.471154
  1
End plate
 72
  5
 11
78.583334
 21
17.993619
 31
0.000000
  0
POLYLINE
  8
LAYER-2
 66
  1
 70
  0
 62
  7
 10
69.750000
 20
18.391057
 30
0.000000
  0
VERTEX
  8
LAYER-2
 10
69.750000
 20
18.391057
 30
0.000000
  0
VERTEX
  8
LAYER-2
 10
66.922105
 20
20.473135
 30
0.000000
  0
SEQEND
  8
LAYER-2
  0
POLYLINE
  8
LAYER-2
 66
  1
 70
  1
 62
  7
  0
VERTEX
  8
LAYER-2
 10
66.906252
 20
20.484812
 30
0.000000
  0
VERTEX
  8
LAYER-2
 10
67.576066
 20
20.421499
 30
0.000000
  0
VERTEX
  8
LAYER-2
 10
67.370833
 20
20.142749
 30
0.000000
  0
VERTEX
  8
LAYER-2
 10
67.165600
 20
19.864000
 30
0.000000
  0
VERTEX
  8
LAYER-2
 10
66.906252
 20
20.484812
 30
0.000000
  0
SEQEND
  8
LAYER-2
  0
POLYLINE
  8
LAYER-2
 66
  1
 70
  1
 62
  7
  0
VERTEX
  8
LAYER-2
 10
19.076389
 20
33.391043
 30
0.000000
  0
VERTEX
  8
LAYER-2
 10
19.270842
 20
33.391043
 30
0.000000
  0
VERTEX
  8
LAYER-2
 10
19.270842
 20
17.391048
 30
0.000000
  0
VERTEX
  8
LAYER-2
 10
19.076389
 20
17.391048
 30
0.000000
  0
SEQEND
  8
LAYER-2
  0
POLYLINE
  8
LAYER-2
 66
  1
 70
  0
 62
  7
 10
16.073806
 20
26.882686
 30
0.000000
  0
VERTEX
  8
LAYER-2
 10
16.073806
 20
26.882686
 30
0.000000
  0
VERTEX
  8
LAYER-2
 10
16.073806
 20
25.885085
 30
0.000000
  0
SEQEND
  8
LAYER-2
  0
POLYLINE
  8
LAYER-2
 66
  1
 70
  0
 62
  7
 10
21.772996
 20
29.699756
 30
0.000000
  0
VERTEX
  8
LAYER-2
 10
21.772996
 20
29.699756
 30
0.000000
  0
VERTEX
  8
LAYER-2
 10
21.772996
 20
23.071444
 30
0.000000
  0
SEQEND
  8
LAYER-2
  0
POLYLINE
  8
LAYER-2
 66
  1
 70
  0
 62
  7
 10
54.944550
 20
16.056300
 30
0.000000
  0
VERTEX
  8
LAYER-2
 10
54.944550
 20
16.056300
 30
0.000000
  0
VERTEX
  8
LAYER-2
 10
54.944550
 20
14.132545
 30
0.000000
  0
SEQEND
  8
LAYER-2
  0
POLYLINE
  8
LAYER-2
 66
  1
 70
  0
 62
  7
 10
56.788316
 20
14.132545
 30
0.000000
  0
VERTEX
  8
LAYER-2
 10
56.788316
 20
14.132545
 30
0.000000
  0
VERTEX
  8
LAYER-2
 10
54.944550
 20
14.132545
 30
0.000000
  0
SEQEND
  8
LAYER-2
  0
POLYLINE
  8
LAYER-2
 66
  1
 70
  0
 62
  7
 10
78.951501
 20
16.027060
 30
0.000000
  0
VERTEX
  8
LAYER-2
 10
78.951501
 20
16.027060
 30
0.000000
  0
VERTEX
  8
LAYER-2
 10
78.951501
 20
14.132545
 30
0.000000
  0
SEQEND
  8
LAYER-2
  0
POLYLINE
  8
LAYER-2
 66
  1
 70
  0
 62
  7
 10
77.107720
 20
14.132545
 30
0.000000
  0
VERTEX
  8
LAYER-2
 10
77.107720
 20
14.132545
 30
0.000000
  0
VERTEX
  8
LAYER-2
 10
78.951501
 20
14.132545
 30
0.000000
  0
SEQEND
  8
LAYER-2
  0
POLYLINE
  8
LAYER-2
 66
  1
 70
  1
 62
  7
  0
VERTEX
  8
LAYER-2
 10
55.771876
 20
14.791703
 30
0.000000
  0
VERTEX
  8
LAYER-2
 10
78.046234
 20
14.791703
 30
0.000000
  0
VERTEX
  8
LAYER-2
 10
78.046234
 20
14.424978
 30
0.000000
  0
VERTEX
  8
LAYER-2
 10
55.771876
 20
14.424978
 30
0.000000
  0
SEQEND
  8
LAYER-2
  0
POLYLINE
  8
LAYER-2
 66
  1
 70
  1
 62
255
  0
VERTEX
  8
LAYER-2
 10
19.154730
 20
68.743371
 30
0.000000
  0
VERTEX
  8
LAYER-2
 10
23.696395
 20
68.743371
 30
0.000000
  0
VERTEX
  8
LAYER-2
 10
23.696395
 20
61.113324
 30
0.000000
  0
VERTEX
  8
LAYER-2
 10
19.154730
 20
61.113324
 30
0.000000
  0
SEQEND
  8
LAYER-2
  0
LINE
  8
LAYER-2
 62
  7
 10
47.737737
 20
31.377017
 30
0.000000
 11
40.321064
 21
20.543687
 31
0.000000
  0
LINE
  8
LAYER-2
 62
  7
 10
45.262284
 20
33.071763
 30
0.000000
 11
37.845605
 21
22.238413
 31
0.000000
  0
LINE
  8
LAYER-2
 62
  7
 10
47.737737
 20
31.377017
 30
0.000000
 11
45.262284
 21
33.071763
 31
0.000000
  0
LINE
  8
LAYER-2
 62
  7
 10
40.321064
 20
20.543687
 30
0.000000
 11
37.845605
 21
22.238413
 31
0.000000
  0
POLYLINE
  8
LAYER-2
 66
  1
 70
  1
 62
  7
  0
VERTEX
  8
LAYER-2
 10
17.803722
 20
26.749547
 30
0.000000
  0
VERTEX
  8
LAYER-2
 10
17.803722
 20
26.791872
 30
0.000000
  0
VERTEX
  8
LAYER-2
 10
17.956396
 20
26.791872
 30
0.000000
  0
VERTEX
  8
LAYER-2
 10
17.956396
 20
26.749547
 30
0.000000
  0
SEQEND
  8
LAYER-2
  0
POLYLINE
  8
LAYER-2
 66
  1
 70
  1
 62
  7
  0
VERTEX
  8
LAYER-2
 10
17.803722
 20
27.541196
 30
0.000000
  0
VERTEX
  8
LAYER-2
 10
17.803722
 20
27.580965
 30
0.000000
  0
VERTEX
  8
LAYER-2
 10
17.957680
 20
27.580965
 30
0.000000
  0
VERTEX
  8
LAYER-2
 10
17.957680
 20
27.541196
 30
0.000000
  0
SEQEND
  8
LAYER-2
  0
POLYLINE
  8
LAYER-2
 66
  1
 70
  1
 62
  7
  0
VERTEX
  8
LAYER-2
 10
17.803722
 20
28.203264
 30
0.000000
  0
VERTEX
  8
LAYER-2
 10
17.803722
 20
28.228905
 30
0.000000
  0
VERTEX
  8
LAYER-2
 10
17.957680
 20
28.228905
 30
0.000000
  0
VERTEX
  8
LAYER-2
 10
17.957680
 20
28.203264
 30
0.000000
  0
SEQEND
  8
LAYER-2
  0
POLYLINE
  8
LAYER-2
 66
  1
 70
  1
 62
  7
  0
VERTEX
  8
LAYER-2
 10
17.803722
 20
28.676690
 30
0.000000
  0
VERTEX
  8
LAYER-2
 10
17.803722
 20
28.689535
 30
0.000000
  0
VERTEX
  8
LAYER-2
 10
17.957680
 20
28.689535
 30
0.000000
  0
VERTEX
  8
LAYER-2
 10
17.957680
 20
28.676690
 30
0.000000
  0
SEQEND
  8
LAYER-2
  0
POLYLINE
  8
LAYER-2
 66
  1
 70
  1
 62
  7
  0
VERTEX
  8
LAYER-2
 10
17.803722
 20
28.956404
 30
0.000000
  0
VERTEX
  8
LAYER-2
 10
17.803722
 20
28.971813
 30
0.000000
  0
VERTEX
  8
LAYER-2
 10
17.957680
 20
28.971813
 30
0.000000
  0
VERTEX
  8
LAYER-2
 10
17.957680
 20
28.956404
 30
0.000000
  0
SEQEND
  8
LAYER-2
  0
POLYLINE
  8
LAYER-2
 66
  1
 70
  0
 62
  7
 10
17.957680
 20
29.079592
 30
0.000000
  0
VERTEX
  8
LAYER-2
 10
17.957680
 20
29.079592
 30
0.000000
  0
VERTEX
  8
LAYER-2
 10
17.803722
 20
29.079592
 30
0.000000
  0
SEQEND
  8
LAYER-2
  0
POLYLINE
  8
LAYER-2
 66
  1
 70
  0
 62
  7
 10
17.803722
 20
27.580965
 30
0.000000
  0
VERTEX
  8
LAYER-2
 10
17.803722
 20
27.580965
 30
0.000000
  0
VERTEX
  8
LAYER-2
 10
17.794193
 20
27.585135
 30
0.000000
  0
VERTEX
  8
LAYER-2
 10
17.786624
 20
27.587332
 30
0.000000
  0
VERTEX
  8
LAYER-2
 10
17.779053
 20
27.589508
 30
0.000000
  0
VERTEX
  8
LAYER-2
 10
17.771479
 20
27.591677
 30
0.000000
  0
VERTEX
  8
LAYER-2
 10
17.765873
 20
27.591867
 30
0.000000
  0
SEQEND
  8
LAYER-2
  0
POLYLINE
  8
LAYER-2
 66
  1
 70
  0
 62
  7
 10
17.803729
 20
26.749533
 30
0.000000
  0
VERTEX
  8
LAYER-2
 10
17.803729
 20
26.749533
 30
0.000000
  0
VERTEX
  8
LAYER-2
 10
17.791857
 20
26.738927
 30
0.000000
  0
VERTEX
  8
LAYER-2
 10
17.782944
 20
26.725638
 30
0.000000
  0
VERTEX
  8
LAYER-2
 10
17.775071
 20
26.711693
 30
0.000000
  0
VERTEX
  8
LAYER-2
 10
17.768284
 20
26.697200
 30
0.000000
  0
VERTEX
  8
LAYER-2
 10
17.762625
 20
26.682220
 30
0.000000
  0
VERTEX
  8
LAYER-2
 10
17.764597
 20
26.680249
 30
0.000000
  0
SEQEND
  8
LAYER-2
  0
POLYLINE
  8
LAYER-2
 66
  1
 70
  1
 62
  7
  0
VERTEX
  8
LAYER-2
 10
17.804368
 20
25.898881
 30
0.000000
  0
VERTEX
  8
LAYER-2
 10
17.804368
 20
25.941214
 30
0.000000
  0
VERTEX
  8
LAYER-2
 10
17.957056
 20
25.941214
 30
0.000000
  0
VERTEX
  8
LAYER-2
 10
17.957056
 20
25.898881
 30
0.000000
  0
SEQEND
  8
LAYER-2
  0
POLYLINE
  8
LAYER-2
 66
  1
 70
  1
 62
  7
  0
VERTEX
  8
LAYER-2
 10
17.804368
 20
25.109802
 30
0.000000
  0
VERTEX
  8
LAYER-2
 10
17.804368
 20
25.149571
 30
0.000000
  0
VERTEX
  8
LAYER-2
 10
17.958333
 20
25.149571
 30
0.000000
  0
VERTEX
  8
LAYER-2
 10
17.958333
 20
25.109802
 30
0.000000
  0
SEQEND
  8
LAYER-2
  0
POLYLINE
  8
LAYER-2
 66
  1
 70
  1
 62
  7
  0
VERTEX
  8
LAYER-2
 10
17.804368
 20
24.477898
 30
0.000000
  0
VERTEX
  8
LAYER-2
 10
17.804368
 20
24.503547
 30
0.000000
  0
VERTEX
  8
LAYER-2
 10
17.958333
 20
24.503547
 30
0.000000
  0
VERTEX
  8
LAYER-2
 10
17.958333
 20
24.477898
 30
0.000000
  0
SEQEND
  8
LAYER-2
  0
POLYLINE
  8
LAYER-2
 66
  1
 70
  1
 62
  7
  0
VERTEX
  8
LAYER-2
 10
17.804368
 20
24.029459
 30
0.000000
  0
VERTEX
  8
LAYER-2
 10
17.804368
 20
24.042290
 30
0.000000
  0
VERTEX
  8
LAYER-2
 10
17.958333
 20
24.042290
 30
0.000000
  0
VERTEX
  8
LAYER-2
 10
17.958333
 20
24.029459
 30
0.000000
  0
SEQEND
  8
LAYER-2
  0
POLYLINE
  8
LAYER-2
 66
  1
 70
  1
 62
  7
  0
VERTEX
  8
LAYER-2
 10
17.804368
 20
23.768357
 30
0.000000
  0
VERTEX
  8
LAYER-2
 10
17.804368
 20
23.783752
 30
0.000000
  0
VERTEX
  8
LAYER-2
 10
17.958333
 20
23.783752
 30
0.000000
  0
VERTEX
  8
LAYER-2
 10
17.958333
 20
23.768357
 30
0.000000
  0
SEQEND
  8
LAYER-2
  0
POLYLINE
  8
LAYER-2
 66
  1
 70
  0
 62
  7
 10
17.958333
 20
23.663783
 30
0.000000
  0
VERTEX
  8
LAYER-2
 10
17.958333
 20
23.663783
 30
0.000000
  0
VERTEX
  8
LAYER-2
 10
17.804368
 20
23.663783
 30
0.000000
  0
SEQEND
  8
LAYER-2
  0
POLYLINE
  8
LAYER-2
 66
  1
 70
  0
 62
  7
 10
17.765220
 20
26.010484
 30
0.000000
  0
VERTEX
  8
LAYER-2
 10
17.765220
 20
26.010484
 30
0.000000
  0
VERTEX
  8
LAYER-2
 10
17.768907
 20
25.997469
 30
0.000000
  0
VERTEX
  8
LAYER-2
 10
17.775694
 20
25.982976
 30
0.000000
  0
VERTEX
  8
LAYER-2
 10
17.783568
 20
25.969039
 30
0.000000
  0
VERTEX
  8
LAYER-2
 10
17.792480
 20
25.955742
 30
0.000000
  0
VERTEX
  8
LAYER-2
 10
17.802382
 20
25.943165
 30
0.000000
  0
VERTEX
  8
LAYER-2
 10
17.804352
 20
25.941200
 30
0.000000
  0
SEQEND
  8
LAYER-2
  0
POLYLINE
  8
LAYER-2
 66
  1
 70
  0
 62
  7
 10
17.803729
 20
29.079571
 30
0.000000
  0
VERTEX
  8
LAYER-2
 10
17.803729
 20
29.079571
 30
0.000000
  0
VERTEX
  8
LAYER-2
 10
17.769551
 20
28.993244
 30
0.000000
  0
VERTEX
  8
LAYER-2
 10
17.744085
 20
28.902769
 30
0.000000
  0
VERTEX
  8
LAYER-2
 10
17.725504
 20
28.810638
 30
0.000000
  0
VERTEX
  8
LAYER-2
 10
17.713912
 20
28.717367
 30
0.000000
  0
VERTEX
  8
LAYER-2
 10
17.711348
 20
28.621526
 30
0.000000
  0
SEQEND
  8
LAYER-2
  0
POLYLINE
  8
LAYER-2
 66
  1
 70
  0
 62
  7
 10
17.803714
 20
28.971799
 30
0.000000
  0
VERTEX
  8
LAYER-2
 10
17.803714
 20
28.971799
 30
0.000000
  0
VERTEX
  8
LAYER-2
 10
17.714466
 20
28.706339
 30
0.000000
  0
VERTEX
  8
LAYER-2
 10
17.711332
 20
28.621512
 30
0.000000
  0
SEQEND
  8
LAYER-2
  0
POLYLINE
  8
LAYER-2
 66
  1
 70
  0
 62
  7
 10
17.803729
 20
28.956404
 30
0.000000
  0
VERTEX
  8
LAYER-2
 10
17.803729
 20
28.956404
 30
0.000000
  0
VERTEX
  8
LAYER-2
 10
17.774442
 20
28.886036
 30
0.000000
  0
VERTEX
  8
LAYER-2
 10
17.751471
 20
28.812202
 30
0.000000
  0
VERTEX
  8
LAYER-2
 10
17.732930
 20
28.737136
 30
0.000000
  0
VERTEX
  8
LAYER-2
 10
17.718884
 20
28.661105
 30
0.000000
  0
VERTEX
  8
LAYER-2
 10
17.709382
 20
28.584362
 30
0.000000
  0
VERTEX
  8
LAYER-2
 10
17.711348
 20
28.582390
 30
0.000000
  0
SEQEND
  8
LAYER-2
  0
POLYLINE
  8
LAYER-2
 66
  1
 70
  0
 62
  7
 10
17.803729
 20
28.689535
 30
0.000000
  0
VERTEX
  8
LAYER-2
 10
17.803729
 20
28.689535
 30
0.000000
  0
VERTEX
  8
LAYER-2
 10
17.783325
 20
28.683317
 30
0.000000
  0
VERTEX
  8
LAYER-2
 10
17.767475
 20
28.670851
 30
0.000000
  0
VERTEX
  8
LAYER-2
 10
17.755179
 20
28.654872
 30
0.000000
  0
VERTEX
  8
LAYER-2
 10
17.747198
 20
28.636350
 30
0.000000
  0
VERTEX
  8
LAYER-2
 10
17.745989
 20
28.614469
 30
0.000000
  0
SEQEND
  8
LAYER-2
  0
POLYLINE
  8
LAYER-2
 66
  1
 70
  0
 62
  7
 10
17.711340
 20
28.582405
 30
0.000000
  0
VERTEX
  8
LAYER-2
 10
17.711340
 20
28.582405
 30
0.000000
  0
VERTEX
  8
LAYER-2
 10
17.743983
 20
28.615561
 30
0.000000
  0
VERTEX
  8
LAYER-2
 10
17.745982
 20
28.614483
 30
0.000000
  0
SEQEND
  8
LAYER-2
  0
POLYLINE
  8
LAYER-2
 66
  1
 70
  0
 62
  7
 10
17.803722
 20
28.676704
 30
0.000000
  0
VERTEX
  8
LAYER-2
 10
17.803722
 20
28.676704
 30
0.000000
  0
VERTEX
  8
LAYER-2
 10
17.717299
 20
28.448301
 30
0.000000
  0
VERTEX
  8
LAYER-2
 10
17.711979
 20
28.331557
 30
0.000000
  0
SEQEND
  8
LAYER-2
  0
POLYLINE
  8
LAYER-2
 66
  1
 70
  0
 62
  7
 10
17.803722
 20
28.228919
 30
0.000000
  0
VERTEX
  8
LAYER-2
 10
17.803722
 20
28.228919
 30
0.000000
  0
VERTEX
  8
LAYER-2
 10
17.780516
 20
28.227152
 30
0.000000
  0
VERTEX
  8
LAYER-2
 10
17.761319
 20
28.217327
 30
0.000000
  0
VERTEX
  8
LAYER-2
 10
17.745860
 20
28.202292
 30
0.000000
  0
VERTEX
  8
LAYER-2
 10
17.735509
 20
28.183375
 30
0.000000
  0
VERTEX
  8
LAYER-2
 10
17.733155
 20
28.160269
 30
0.000000
  0
SEQEND
  8
LAYER-2
  0
POLYLINE
  8
LAYER-2
 66
  1
 70
  0
 62
  7
 10
17.711340
 20
28.171171
 30
0.000000
  0
VERTEX
  8
LAYER-2
 10
17.711340
 20
28.171171
 30
0.000000
  0
VERTEX
  8
LAYER-2
 10
17.718579
 20
28.158029
 30
0.000000
  0
VERTEX
  8
LAYER-2
 10
17.733147
 20
28.160248
 30
0.000000
  0
SEQEND
  8
LAYER-2
  0
POLYLINE
  8
LAYER-2
 66
  1
 70
  0
 62
  7
 10
17.803722
 20
28.203235
 30
0.000000
  0
VERTEX
  8
LAYER-2
 10
17.803722
 20
28.203235
 30
0.000000
  0
VERTEX
  8
LAYER-2
 10
17.719292
 20
28.006594
 30
0.000000
  0
VERTEX
  8
LAYER-2
 10
17.711340
 20
27.867723
 30
0.000000
  0
SEQEND
  8
LAYER-2
  0
POLYLINE
  8
LAYER-2
 66
  1
 70
  0
 62
  7
 10
17.726088
 20
27.586099
 30
0.000000
  0
VERTEX
  8
LAYER-2
 10
17.726088
 20
27.586099
 30
0.000000
  0
VERTEX
  8
LAYER-2
 10
17.732236
 20
27.587445
 30
0.000000
  0
VERTEX
  8
LAYER-2
 10
17.740367
 20
27.587733
 30
0.000000
  0
VERTEX
  8
LAYER-2
 10
17.748420
 20
27.588902
 30
0.000000
  0
VERTEX
  8
LAYER-2
 10
17.756295
 20
27.590938
 30
0.000000
  0
VERTEX
  8
LAYER-2
 10
17.763900
 20
27.593839
 30
0.000000
  0
VERTEX
  8
LAYER-2
 10
17.765866
 20
27.591867
 30
0.000000
  0
SEQEND
  8
LAYER-2
  0
POLYLINE
  8
LAYER-2
 66
  1
 70
  0
 62
  7
 10
17.711348
 20
27.636777
 30
0.000000
  0
VERTEX
  8
LAYER-2
 10
17.711348
 20
27.636777
 30
0.000000
  0
VERTEX
  8
LAYER-2
 10
17.710213
 20
27.628108
 30
0.000000
  0
VERTEX
  8
LAYER-2
 10
17.712132
 20
27.617615
 30
0.000000
  0
VERTEX
  8
LAYER-2
 10
17.715116
 20
27.607368
 30
0.000000
  0
VERTEX
  8
LAYER-2
 10
17.719130
 20
27.597487
 30
0.000000
  0
VERTEX
  8
LAYER-2
 10
17.726104
 20
27.586099
 30
0.000000
  0
SEQEND
  8
LAYER-2
  0
POLYLINE
  8
LAYER-2
 66
  1
 70
  0
 62
  7
 10
17.803737
 20
27.541182
 30
0.000000
  0
VERTEX
  8
LAYER-2
 10
17.803737
 20
27.541182
 30
0.000000
  0
VERTEX
  8
LAYER-2
 10
17.709973
 20
27.281158
 30
0.000000
  0
VERTEX
  8
LAYER-2
 10
17.711355
 20
27.274940
 30
0.000000
  0
SEQEND
  8
LAYER-2
  0
POLYLINE
  8
LAYER-2
 66
  1
 70
  0
 62
  7
 10
17.747265
 20
26.849621
 30
0.000000
  0
VERTEX
  8
LAYER-2
 10
17.747265
 20
26.849621
 30
0.000000
  0
VERTEX
  8
LAYER-2
 10
17.754086
 20
26.837839
 30
0.000000
  0
VERTEX
  8
LAYER-2
 10
17.764239
 20
26.825064
 30
0.000000
  0
VERTEX
  8
LAYER-2
 10
17.775650
 20
26.813394
 30
0.000000
  0
VERTEX
  8
LAYER-2
 10
17.788198
 20
26.802950
 30
0.000000
  0
VERTEX
  8
LAYER-2
 10
17.803722
 20
26.791887
 30
0.000000
  0
SEQEND
  8
LAYER-2
  0
POLYLINE
  8
LAYER-2
 66
  1
 70
  0
 62
  7
 10
17.711348
 20
26.882334
 30
0.000000
  0
VERTEX
  8
LAYER-2
 10
17.711348
 20
26.882334
 30
0.000000
  0
VERTEX
  8
LAYER-2
 10
17.712354
 20
26.874263
 30
0.000000
  0
VERTEX
  8
LAYER-2
 10
17.717919
 20
26.865382
 30
0.000000
  0
VERTEX
  8
LAYER-2
 10
17.725666
 20
26.858326
 30
0.000000
  0
VERTEX
  8
LAYER-2
 10
17.735025
 20
26.853607
 30
0.000000
  0
VERTEX
  8
LAYER-2
 10
17.747272
 20
26.849621
 30
0.000000
  0
SEQEND
  8
LAYER-2
  0
POLYLINE
  8
LAYER-2
 66
  1
 70
  0
 62
  7
 10
17.764583
 20
26.680249
 30
0.000000
  0
VERTEX
  8
LAYER-2
 10
17.764583
 20
26.680249
 30
0.000000
  0
VERTEX
  8
LAYER-2
 10
17.745195
 20
26.652114
 30
0.000000
  0
VERTEX
  8
LAYER-2
 10
17.731023
 20
26.620345
 30
0.000000
  0
VERTEX
  8
LAYER-2
 10
17.720254
 20
26.587266
 30
0.000000
  0
VERTEX
  8
LAYER-2
 10
17.713010
 20
26.553237
 30
0.000000
  0
VERTEX
  8
LAYER-2
 10
17.711340
 20
26.516665
 30
0.000000
  0
SEQEND
  8
LAYER-2
  0
POLYLINE
  8
LAYER-2
 66
  1
 70
  0
 62
  7
 10
17.711355
 20
28.621526
 30
0.000000
  0
VERTEX
  8
LAYER-2
 10
17.711355
 20
28.621526
 30
0.000000
  0
VERTEX
  8
LAYER-2
 10
17.711355
 20
24.125040
 30
0.000000
  0
SEQEND
  8
LAYER-2
  0
POLYLINE
  8
LAYER-2
 66
  1
 70
  0
 62
  7
 10
17.711986
 20
24.097468
 30
0.000000
  0
VERTEX
  8
LAYER-2
 10
17.711986
 20
24.097468
 30
0.000000
  0
VERTEX
  8
LAYER-2
 10
17.761931
 20
23.759843
 30
0.000000
  0
VERTEX
  8
LAYER-2
 10
17.804368
 20
23.663797
 30
0.000000
  0
SEQEND
  8
LAYER-2
  0
POLYLINE
  8
LAYER-2
 66
  1
 70
  0
 62
  7
 10
17.711348
 20
24.125040
 30
0.000000
  0
VERTEX
  8
LAYER-2
 10
17.711348
 20
24.125040
 30
0.000000
  0
VERTEX
  8
LAYER-2
 10
17.756176
 20
23.865650
 30
0.000000
  0
VERTEX
  8
LAYER-2
 10
17.804368
 20
23.768343
 30
0.000000
  0
SEQEND
  8
LAYER-2
  0
POLYLINE
  8
LAYER-2
 66
  1
 70
  0
 62
  7
 10
17.711340
 20
24.125040
 30
0.000000
  0
VERTEX
  8
LAYER-2
 10
17.711340
 20
24.125040
 30
0.000000
  0
VERTEX
  8
LAYER-2
 10
17.781120
 20
23.840959
 30
0.000000
  0
VERTEX
  8
LAYER-2
 10
17.804368
 20
23.783105
 30
0.000000
  0
SEQEND
  8
LAYER-2
  0
POLYLINE
  8
LAYER-2
 66
  1
 70
  0
 62
  7
 10
17.746635
 20
24.104525
 30
0.000000
  0
VERTEX
  8
LAYER-2
 10
17.746635
 20
24.104525
 30
0.000000
  0
VERTEX
  8
LAYER-2
 10
17.747844
 20
24.086581
 30
0.000000
  0
VERTEX
  8
LAYER-2
 10
17.755825
 20
24.068059
 30
0.000000
  0
VERTEX
  8
LAYER-2
 10
17.768122
 20
24.052072
 30
0.000000
  0
VERTEX
  8
LAYER-2
 10
17.783971
 20
24.039614
 30
0.000000
  0
VERTEX
  8
LAYER-2
 10
17.804368
 20
24.029459
 30
0.000000
  0
SEQEND
  8
LAYER-2
  0
POLYLINE
  8
LAYER-2
 66
  1
 70
  0
 62
  7
 10
17.746628
 20
24.104511
 30
0.000000
  0
VERTEX
  8
LAYER-2
 10
17.746628
 20
24.104511
 30
0.000000
  0
VERTEX
  8
LAYER-2
 10
17.710889
 20
24.138590
 30
0.000000
  0
VERTEX
  8
LAYER-2
 10
17.711986
 20
24.136590
 30
0.000000
  0
SEQEND
  8
LAYER-2
  0
POLYLINE
  8
LAYER-2
 66
  1
 70
  0
 62
  7
 10
17.712616
 20
24.387423
 30
0.000000
  0
VERTEX
  8
LAYER-2
 10
17.712616
 20
24.387423
 30
0.000000
  0
VERTEX
  8
LAYER-2
 10
17.719345
 20
24.318146
 30
0.000000
  0
VERTEX
  8
LAYER-2
 10
17.732942
 20
24.247678
 30
0.000000
  0
VERTEX
  8
LAYER-2
 10
17.751380
 20
24.178324
 30
0.000000
  0
VERTEX
  8
LAYER-2
 10
17.774565
 20
24.110399
 30
0.000000
  0
VERTEX
  8
LAYER-2
 10
17.804359
 20
24.042290
 30
0.000000
  0
SEQEND
  8
LAYER-2
  0
POLYLINE
  8
LAYER-2
 66
  1
 70
  0
 62
  7
 10
17.733793
 20
24.558084
 30
0.000000
  0
VERTEX
  8
LAYER-2
 10
17.733793
 20
24.558084
 30
0.000000
  0
VERTEX
  8
LAYER-2
 10
17.738809
 20
24.538922
 30
0.000000
  0
VERTEX
  8
LAYER-2
 10
17.749876
 20
24.519611
 30
0.000000
  0
VERTEX
  8
LAYER-2
 10
17.764577
 20
24.502899
 30
0.000000
  0
VERTEX
  8
LAYER-2
 10
17.782319
 20
24.489469
 30
0.000000
  0
VERTEX
  8
LAYER-2
 10
17.802387
 20
24.479856
 30
0.000000
  0
VERTEX
  8
LAYER-2
 10
17.804359
 20
24.477877
 30
0.000000
  0
SEQEND
  8
LAYER-2
  0
POLYLINE
  8
LAYER-2
 66
  1
 70
  0
 62
  7
 10
17.733793
 20
24.558063
 30
0.000000
  0
VERTEX
  8
LAYER-2
 10
17.733793
 20
24.558063
 30
0.000000
  0
VERTEX
  8
LAYER-2
 10
17.714209
 20
24.561732
 30
0.000000
  0
VERTEX
  8
LAYER-2
 10
17.711979
 20
24.547161
 30
0.000000
  0
SEQEND
  8
LAYER-2
  0
POLYLINE
  8
LAYER-2
 66
  1
 70
  0
 62
  7
 10
17.711348
 20
24.864089
 30
0.000000
  0
VERTEX
  8
LAYER-2
 10
17.711348
 20
24.864089
 30
0.000000
  0
VERTEX
  8
LAYER-2
 10
17.718414
 20
24.791818
 30
0.000000
  0
VERTEX
  8
LAYER-2
 10
17.732305
 20
24.718330
 30
0.000000
  0
VERTEX
  8
LAYER-2
 10
17.750991
 20
24.645912
 30
0.000000
  0
VERTEX
  8
LAYER-2
 10
17.774389
 20
24.574874
 30
0.000000
  0
VERTEX
  8
LAYER-2
 10
17.804368
 20
24.503547
 30
0.000000
  0
SEQEND
  8
LAYER-2
  0
POLYLINE
  8
LAYER-2
 66
  1
 70
  0
 62
  7
 10
17.766504
 20
25.098879
 30
0.000000
  0
VERTEX
  8
LAYER-2
 10
17.766504
 20
25.098879
 30
0.000000
  0
VERTEX
  8
LAYER-2
 10
17.756933
 20
25.103746
 30
0.000000
  0
VERTEX
  8
LAYER-2
 10
17.749059
 20
25.105788
 30
0.000000
  0
VERTEX
  8
LAYER-2
 10
17.741006
 20
25.106957
 30
0.000000
  0
VERTEX
  8
LAYER-2
 10
17.732874
 20
25.107239
 30
0.000000
  0
VERTEX
  8
LAYER-2
 10
17.726734
 20
25.104661
 30
0.000000
  0
SEQEND
  8
LAYER-2
  0
POLYLINE
  8
LAYER-2
 66
  1
 70
  0
 62
  7
 10
17.726727
 20
25.104661
 30
0.000000
  0
VERTEX
  8
LAYER-2
 10
17.726727
 20
25.104661
 30
0.000000
  0
VERTEX
  8
LAYER-2
 10
17.719752
 20
25.097196
 30
0.000000
  0
VERTEX
  8
LAYER-2
 10
17.715738
 20
25.087315
 30
0.000000
  0
VERTEX
  8
LAYER-2
 10
17.712755
 20
25.077076
 30
0.000000
  0
VERTEX
  8
LAYER-2
 10
17.710836
 20
25.066575
 30
0.000000
  0
VERTEX
  8
LAYER-2
 10
17.711970
 20
25.053976
 30
0.000000
  0
SEQEND
  8
LAYER-2
  0
POLYLINE
  8
LAYER-2
 66
  1
 70
  0
 62
  7
 10
17.711979
 20
25.415793
 30
0.000000
  0
VERTEX
  8
LAYER-2
 10
17.711979
 20
25.415793
 30
0.000000
  0
VERTEX
  8
LAYER-2
 10
17.800223
 20
25.155226
 30
0.000000
  0
VERTEX
  8
LAYER-2
 10
17.804352
 20
25.149557
 30
0.000000
  0
SEQEND
  8
LAYER-2
  0
POLYLINE
  8
LAYER-2
 66
  1
 70
  0
 62
  7
 10
17.804359
 20
25.898881
 30
0.000000
  0
VERTEX
  8
LAYER-2
 10
17.804359
 20
25.898881
 30
0.000000
  0
VERTEX
  8
LAYER-2
 10
17.788844
 20
25.891747
 30
0.000000
  0
VERTEX
  8
LAYER-2
 10
17.776296
 20
25.881310
 30
0.000000
  0
VERTEX
  8
LAYER-2
 10
17.764886
 20
25.869634
 30
0.000000
  0
VERTEX
  8
LAYER-2
 10
17.754732
 20
25.856866
 30
0.000000
  0
VERTEX
  8
LAYER-2
 10
17.747904
 20
25.841147
 30
0.000000
  0
SEQEND
  8
LAYER-2
  0
POLYLINE
  8
LAYER-2
 66
  1
 70
  0
 62
  7
 10
17.747911
 20
25.841147
 30
0.000000
  0
VERTEX
  8
LAYER-2
 10
17.747911
 20
25.841147
 30
0.000000
  0
VERTEX
  8
LAYER-2
 10
17.735664
 20
25.841090
 30
0.000000
  0
VERTEX
  8
LAYER-2
 10
17.726303
 20
25.836379
 30
0.000000
  0
VERTEX
  8
LAYER-2
 10
17.718556
 20
25.829322
 30
0.000000
  0
VERTEX
  8
LAYER-2
 10
17.712991
 20
25.820442
 30
0.000000
  0
VERTEX
  8
LAYER-2
 10
17.711986
 20
25.808420
 30
0.000000
  0
SEQEND
  8
LAYER-2
  0
POLYLINE
  8
LAYER-2
 66
  1
 70
  0
 62
  7
 10
17.711994
 20
26.174103
 30
0.000000
  0
VERTEX
  8
LAYER-2
 10
17.711994
 20
26.174103
 30
0.000000
  0
VERTEX
  8
LAYER-2
 10
17.713664
 20
26.141468
 30
0.000000
  0
VERTEX
  8
LAYER-2
 10
17.720907
 20
26.107438
 30
0.000000
  0
VERTEX
  8
LAYER-2
 10
17.731677
 20
26.074360
 30
0.000000
  0
VERTEX
  8
LAYER-2
 10
17.745848
 20
26.042584
 30
0.000000
  0
VERTEX
  8
LAYER-2
 10
17.765243
 20
26.010498
 30
0.000000
  0
SEQEND
  8
LAYER-2
  0
POLYLINE
  8
LAYER-2
 66
  1
 70
  0
 62
  7
 10
17.766512
 20
25.098879
 30
0.000000
  0
VERTEX
  8
LAYER-2
 10
17.766512
 20
25.098879
 30
0.000000
  0
VERTEX
  8
LAYER-2
 10
17.772118
 20
25.103020
 30
0.000000
  0
VERTEX
  8
LAYER-2
 10
17.779692
 20
25.105189
 30
0.000000
  0
VERTEX
  8
LAYER-2
 10
17.787261
 20
25.107366
 30
0.000000
  0
VERTEX
  8
LAYER-2
 10
17.794829
 20
25.109563
 30
0.000000
  0
VERTEX
  8
LAYER-2
 10
17.802389
 20
25.111767
 30
0.000000
  0
VERTEX
  8
LAYER-2
 10
17.804359
 20
25.109788
 30
0.000000
  0
SEQEND
  8
LAYER-2
  0
POLYLINE
  8
LAYER-2
 66
  1
 70
  0
 62
  7
 10
18.050384
 20
28.621526
 30
0.000000
  0
VERTEX
  8
LAYER-2
 10
18.050384
 20
28.621526
 30
0.000000
  0
VERTEX
  8
LAYER-2
 10
18.043882
 20
28.717367
 30
0.000000
  0
VERTEX
  8
LAYER-2
 10
18.032290
 20
28.810638
 30
0.000000
  0
VERTEX
  8
LAYER-2
 10
18.013708
 20
28.902769
 30
0.000000
  0
VERTEX
  8
LAYER-2
 10
17.988244
 20
28.993244
 30
0.000000
  0
VERTEX
  8
LAYER-2
 10
17.958002
 20
29.079571
 30
0.000000
  0
SEQEND
  8
LAYER-2
  0
POLYLINE
  8
LAYER-2
 66
  1
 70
  0
 62
  7
 10
18.050400
 20
28.621512
 30
0.000000
  0
VERTEX
  8
LAYER-2
 10
18.050400
 20
28.621512
 30
0.000000
  0
VERTEX
  8
LAYER-2
 10
17.992480
 20
28.899149
 30
0.000000
  0
VERTEX
  8
LAYER-2
 10
17.958018
 20
28.971799
 30
0.000000
  0
SEQEND
  8
LAYER-2
  0
POLYLINE
  8
LAYER-2
 66
  1
 70
  0
 62
  7
 10
18.050384
 20
28.582390
 30
0.000000
  0
VERTEX
  8
LAYER-2
 10
18.050384
 20
28.582390
 30
0.000000
  0
VERTEX
  8
LAYER-2
 10
18.038912
 20
28.661105
 30
0.000000
  0
VERTEX
  8
LAYER-2
 10
18.024865
 20
28.737136
 30
0.000000
  0
VERTEX
  8
LAYER-2
 10
18.006324
 20
28.812202
 30
0.000000
  0
VERTEX
  8
LAYER-2
 10
17.983353
 20
28.886036
 30
0.000000
  0
VERTEX
  8
LAYER-2
 10
17.958002
 20
28.956404
 30
0.000000
  0
SEQEND
  8
LAYER-2
  0
POLYLINE
  8
LAYER-2
 66
  1
 70
  0
 62
  7
 10
18.015758
 20
28.614469
 30
0.000000
  0
VERTEX
  8
LAYER-2
 10
18.015758
 20
28.614469
 30
0.000000
  0
VERTEX
  8
LAYER-2
 10
18.010613
 20
28.636350
 30
0.000000
  0
VERTEX
  8
LAYER-2
 10
18.002630
 20
28.654872
 30
0.000000
  0
VERTEX
  8
LAYER-2
 10
17.990336
 20
28.670851
 30
0.000000
  0
VERTEX
  8
LAYER-2
 10
17.974485
 20
28.683317
 30
0.000000
  0
VERTEX
  8
LAYER-2
 10
17.958027
 20
28.689535
 30
0.000000
  0
SEQEND
  8
LAYER-2
  0
POLYLINE
  8
LAYER-2
 66
  1
 70
  0
 62
  7
 10
18.015751
 20
28.614483
 30
0.000000
  0
VERTEX
  8
LAYER-2
 10
18.015751
 20
28.614483
 30
0.000000
  0
VERTEX
  8
LAYER-2
 10
18.047544
 20
28.584327
 30
0.000000
  0
VERTEX
  8
LAYER-2
 10
18.050391
 20
28.582405
 30
0.000000
  0
SEQEND
  8
LAYER-2
  0
POLYLINE
  8
LAYER-2
 66
  1
 70
  0
 62
  7
 10
18.049754
 20
28.331557
 30
0.000000
  0
VERTEX
  8
LAYER-2
 10
18.049754
 20
28.331557
 30
0.000000
  0
VERTEX
  8
LAYER-2
 10
18.006706
 20
28.575418
 30
0.000000
  0
VERTEX
  8
LAYER-2
 10
17.958011
 20
28.676704
 30
0.000000
  0
SEQEND
  8
LAYER-2
  0
POLYLINE
  8
LAYER-2
 66
  1
 70
  0
 62
  7
 10
18.028577
 20
28.160269
 30
0.000000
  0
VERTEX
  8
LAYER-2
 10
18.028577
 20
28.160269
 30
0.000000
  0
VERTEX
  8
LAYER-2
 10
18.022284
 20
28.183375
 30
0.000000
  0
VERTEX
  8
LAYER-2
 10
18.011935
 20
28.202292
 30
0.000000
  0
VERTEX
  8
LAYER-2
 10
17.996477
 20
28.217327
 30
0.000000
  0
VERTEX
  8
LAYER-2
 10
17.977279
 20
28.227152
 30
0.000000
  0
VERTEX
  8
LAYER-2
 10
17.958011
 20
28.228919
 30
0.000000
  0
SEQEND
  8
LAYER-2
  0
POLYLINE
  8
LAYER-2
 66
  1
 70
  0
 62
  7
 10
18.028584
 20
28.160248
 30
0.000000
  0
VERTEX
  8
LAYER-2
 10
18.028584
 20
28.160248
 30
0.000000
  0
VERTEX
  8
LAYER-2
 10
18.044223
 20
28.160537
 30
0.000000
  0
VERTEX
  8
LAYER-2
 10
18.050391
 20
28.171171
 30
0.000000
  0
SEQEND
  8
LAYER-2
  0
POLYLINE
  8
LAYER-2
 66
  1
 70
  0
 62
  7
 10
18.050391
 20
27.867723
 30
0.000000
  0
VERTEX
  8
LAYER-2
 10
18.050391
 20
27.867723
 30
0.000000
  0
VERTEX
  8
LAYER-2
 10
18.017599
 20
28.082505
 30
0.000000
  0
VERTEX
  8
LAYER-2
 10
17.958011
 20
28.203235
 30
0.000000
  0
SEQEND
  8
LAYER-2
  0
POLYLINE
  8
LAYER-2
 66
  1
 70
  0
 62
  7
 10
17.995866
 20
27.591867
 30
0.000000
  0
VERTEX
  8
LAYER-2
 10
17.995866
 20
27.591867
 30
0.000000
  0
VERTEX
  8
LAYER-2
 10
18.001500
 20
27.590938
 30
0.000000
  0
VERTEX
  8
LAYER-2
 10
18.009374
 20
27.588902
 30
0.000000
  0
VERTEX
  8
LAYER-2
 10
18.017427
 20
27.587733
 30
0.000000
  0
VERTEX
  8
LAYER-2
 10
18.025559
 20
27.587445
 30
0.000000
  0
VERTEX
  8
LAYER-2
 10
18.033670
 20
27.588064
 30
0.000000
  0
VERTEX
  8
LAYER-2
 10
18.035644
 20
27.586099
 30
0.000000
  0
SEQEND
  8
LAYER-2
  0
POLYLINE
  8
LAYER-2
 66
  1
 70
  0
 62
  7
 10
18.035628
 20
27.586099
 30
0.000000
  0
VERTEX
  8
LAYER-2
 10
18.035628
 20
27.586099
 30
0.000000
  0
VERTEX
  8
LAYER-2
 10
18.038665
 20
27.597487
 30
0.000000
  0
VERTEX
  8
LAYER-2
 10
18.042679
 20
27.607368
 30
0.000000
  0
VERTEX
  8
LAYER-2
 10
18.045662
 20
27.617615
 30
0.000000
  0
VERTEX
  8
LAYER-2
 10
18.047581
 20
27.628108
 30
0.000000
  0
VERTEX
  8
LAYER-2
 10
18.048416
 20
27.638742
 30
0.000000
  0
VERTEX
  8
LAYER-2
 10
18.050384
 20
27.636777
 30
0.000000
  0
SEQEND
  8
LAYER-2
  0
POLYLINE
  8
LAYER-2
 66
  1
 70
  0
 62
  7
 10
18.050377
 20
27.274940
 30
0.000000
  0
VERTEX
  8
LAYER-2
 10
18.050377
 20
27.274940
 30
0.000000
  0
VERTEX
  8
LAYER-2
 10
17.958196
 20
27.539457
 30
0.000000
  0
VERTEX
  8
LAYER-2
 10
17.958002
 20
27.541182
 30
0.000000
  0
SEQEND
  8
LAYER-2
  0
POLYLINE
  8
LAYER-2
 66
  1
 70
  0
 62
  7
 10
17.958011
 20
26.791887
 30
0.000000
  0
VERTEX
  8
LAYER-2
 10
17.958011
 20
26.791887
 30
0.000000
  0
VERTEX
  8
LAYER-2
 10
17.969597
 20
26.802950
 30
0.000000
  0
VERTEX
  8
LAYER-2
 10
17.982144
 20
26.813394
 30
0.000000
  0
VERTEX
  8
LAYER-2
 10
17.993554
 20
26.825064
 30
0.000000
  0
VERTEX
  8
LAYER-2
 10
18.003710
 20
26.837839
 30
0.000000
  0
VERTEX
  8
LAYER-2
 10
18.014467
 20
26.849621
 30
0.000000
  0
SEQEND
  8
LAYER-2
  0
POLYLINE
  8
LAYER-2
 66
  1
 70
  0
 62
  7
 10
18.014458
 20
26.849621
 30
0.000000
  0
VERTEX
  8
LAYER-2
 10
18.014458
 20
26.849621
 30
0.000000
  0
VERTEX
  8
LAYER-2
 10
18.022768
 20
26.853607
 30
0.000000
  0
VERTEX
  8
LAYER-2
 10
18.032130
 20
26.858326
 30
0.000000
  0
VERTEX
  8
LAYER-2
 10
18.039876
 20
26.865382
 30
0.000000
  0
VERTEX
  8
LAYER-2
 10
18.045442
 20
26.874263
 30
0.000000
  0
VERTEX
  8
LAYER-2
 10
18.050384
 20
26.882334
 30
0.000000
  0
SEQEND
  8
LAYER-2
  0
POLYLINE
  8
LAYER-2
 66
  1
 70
  0
 62
  7
 10
18.050391
 20
26.516665
 30
0.000000
  0
VERTEX
  8
LAYER-2
 10
18.050391
 20
26.516665
 30
0.000000
  0
VERTEX
  8
LAYER-2
 10
18.044783
 20
26.553237
 30
0.000000
  0
VERTEX
  8
LAYER-2
 10
18.037540
 20
26.587266
 30
0.000000
  0
VERTEX
  8
LAYER-2
 10
18.026772
 20
26.620345
 30
0.000000
  0
VERTEX
  8
LAYER-2
 10
18.012599
 20
26.652114
 30
0.000000
  0
VERTEX
  8
LAYER-2
 10
17.997150
 20
26.680249
 30
0.000000
  0
SEQEND
  8
LAYER-2
  0
POLYLINE
  8
LAYER-2
 66
  1
 70
  0
 62
  7
 10
18.050400
 20
28.621526
 30
0.000000
  0
VERTEX
  8
LAYER-2
 10
18.050400
 20
28.621526
 30
0.000000
  0
VERTEX
  8
LAYER-2
 10
18.050400
 20
24.125040
 30
0.000000
  0
SEQEND
  8
LAYER-2
  0
POLYLINE
  8
LAYER-2
 66
  1
 70
  0
 62
  7
 10
17.957365
 20
23.663797
 30
0.000000
  0
VERTEX
  8
LAYER-2
 10
17.957365
 20
23.663797
 30
0.000000
  0
VERTEX
  8
LAYER-2
 10
18.046387
 20
23.997028
 30
0.000000
  0
VERTEX
  8
LAYER-2
 10
18.049747
 20
24.097468
 30
0.000000
  0
SEQEND
  8
LAYER-2
  0
POLYLINE
  8
LAYER-2
 66
  1
 70
  0
 62
  7
 10
17.957365
 20
23.768343
 30
0.000000
  0
VERTEX
  8
LAYER-2
 10
17.957365
 20
23.768343
 30
0.000000
  0
VERTEX
  8
LAYER-2
 10
18.042197
 20
24.021240
 30
0.000000
  0
VERTEX
  8
LAYER-2
 10
18.050384
 20
24.125040
 30
0.000000
  0
SEQEND
  8
LAYER-2
  0
POLYLINE
  8
LAYER-2
 66
  1
 70
  0
 62
  7
 10
17.957365
 20
23.783105
 30
0.000000
  0
VERTEX
  8
LAYER-2
 10
17.957365
 20
23.783105
 30
0.000000
  0
VERTEX
  8
LAYER-2
 10
18.038454
 20
24.068052
 30
0.000000
  0
VERTEX
  8
LAYER-2
 10
18.050391
 20
24.125040
 30
0.000000
  0
SEQEND
  8
LAYER-2
  0
POLYLINE
  8
LAYER-2
 66
  1
 70
  0
 62
  7
 10
17.957365
 20
24.029459
 30
0.000000
  0
VERTEX
  8
LAYER-2
 10
17.957365
 20
24.029459
 30
0.000000
  0
VERTEX
  8
LAYER-2
 10
17.973825
 20
24.039614
 30
0.000000
  0
VERTEX
  8
LAYER-2
 10
17.989674
 20
24.052072
 30
0.000000
  0
VERTEX
  8
LAYER-2
 10
18.001968
 20
24.068059
 30
0.000000
  0
VERTEX
  8
LAYER-2
 10
18.009951
 20
24.086581
 30
0.000000
  0
VERTEX
  8
LAYER-2
 10
18.015097
 20
24.104525
 30
0.000000
  0
SEQEND
  8
LAYER-2
  0
POLYLINE
  8
LAYER-2
 66
  1
 70
  0
 62
  7
 10
18.049747
 20
24.136590
 30
0.000000
  0
VERTEX
  8
LAYER-2
 10
18.049747
 20
24.136590
 30
0.000000
  0
VERTEX
  8
LAYER-2
 10
18.013173
 20
24.107356
 30
0.000000
  0
VERTEX
  8
LAYER-2
 10
18.015104
 20
24.104511
 30
0.000000
  0
SEQEND
  8
LAYER-2
  0
POLYLINE
  8
LAYER-2
 66
  1
 70
  0
 62
  7
 10
17.957372
 20
24.042290
 30
0.000000
  0
VERTEX
  8
LAYER-2
 10
17.957372
 20
24.042290
 30
0.000000
  0
VERTEX
  8
LAYER-2
 10
17.983230
 20
24.110399
 30
0.000000
  0
VERTEX
  8
LAYER-2
 10
18.006416
 20
24.178324
 30
0.000000
  0
VERTEX
  8
LAYER-2
 10
18.024853
 20
24.247678
 30
0.000000
  0
VERTEX
  8
LAYER-2
 10
18.038450
 20
24.318146
 30
0.000000
  0
VERTEX
  8
LAYER-2
 10
18.047143
 20
24.389388
 30
0.000000
  0
VERTEX
  8
LAYER-2
 10
18.049115
 20
24.387423
 30
0.000000
  0
SEQEND
  8
LAYER-2
  0
POLYLINE
  8
LAYER-2
 66
  1
 70
  0
 62
  7
 10
17.957372
 20
24.477877
 30
0.000000
  0
VERTEX
  8
LAYER-2
 10
17.957372
 20
24.477877
 30
0.000000
  0
VERTEX
  8
LAYER-2
 10
17.975474
 20
24.489469
 30
0.000000
  0
VERTEX
  8
LAYER-2
 10
17.993216
 20
24.502899
 30
0.000000
  0
VERTEX
  8
LAYER-2
 10
18.007919
 20
24.519611
 30
0.000000
  0
VERTEX
  8
LAYER-2
 10
18.018987
 20
24.538922
 30
0.000000
  0
VERTEX
  8
LAYER-2
 10
18.027938
 20
24.558084
 30
0.000000
  0
SEQEND
  8
LAYER-2
  0
POLYLINE
  8
LAYER-2
 66
  1
 70
  0
 62
  7
 10
18.049754
 20
24.547161
 30
0.000000
  0
VERTEX
  8
LAYER-2
 10
18.049754
 20
24.547161
 30
0.000000
  0
VERTEX
  8
LAYER-2
 10
18.038577
 20
24.564240
 30
0.000000
  0
VERTEX
  8
LAYER-2
 10
18.027938
 20
24.558063
 30
0.000000
  0
SEQEND
  8
LAYER-2
  0
POLYLINE
  8
LAYER-2
 66
  1
 70
  0
 62
  7
 10
17.957380
 20
24.503547
 30
0.000000
  0
VERTEX
  8
LAYER-2
 10
17.957380
 20
24.503547
 30
0.000000
  0
VERTEX
  8
LAYER-2
 10
17.983420
 20
24.574874
 30
0.000000
  0
VERTEX
  8
LAYER-2
 10
18.006819
 20
24.645912
 30
0.000000
  0
VERTEX
  8
LAYER-2
 10
18.025504
 20
24.718330
 30
0.000000
  0
VERTEX
  8
LAYER-2
 10
18.039396
 20
24.791826
 30
0.000000
  0
VERTEX
  8
LAYER-2
 10
18.050400
 20
24.864089
 30
0.000000
  0
SEQEND
  8
LAYER-2
  0
POLYLINE
  8
LAYER-2
 66
  1
 70
  0
 62
  7
 10
18.034998
 20
25.104661
 30
0.000000
  0
VERTEX
  8
LAYER-2
 10
18.034998
 20
25.104661
 30
0.000000
  0
VERTEX
  8
LAYER-2
 10
18.024920
 20
25.107239
 30
0.000000
  0
VERTEX
  8
LAYER-2
 10
18.016789
 20
25.106957
 30
0.000000
  0
VERTEX
  8
LAYER-2
 10
18.008736
 20
25.105788
 30
0.000000
  0
VERTEX
  8
LAYER-2
 10
18.000863
 20
25.103746
 30
0.000000
  0
VERTEX
  8
LAYER-2
 10
17.995227
 20
25.098879
 30
0.000000
  0
SEQEND
  8
LAYER-2
  0
POLYLINE
  8
LAYER-2
 66
  1
 70
  0
 62
  7
 10
18.049761
 20
25.053976
 30
0.000000
  0
VERTEX
  8
LAYER-2
 10
18.049761
 20
25.053976
 30
0.000000
  0
VERTEX
  8
LAYER-2
 10
18.046958
 20
25.066575
 30
0.000000
  0
VERTEX
  8
LAYER-2
 10
18.045040
 20
25.077076
 30
0.000000
  0
VERTEX
  8
LAYER-2
 10
18.042056
 20
25.087315
 30
0.000000
  0
VERTEX
  8
LAYER-2
 10
18.038042
 20
25.097196
 30
0.000000
  0
VERTEX
  8
LAYER-2
 10
18.035005
 20
25.104661
 30
0.000000
  0
SEQEND
  8
LAYER-2
  0
POLYLINE
  8
LAYER-2
 66
  1
 70
  0
 62
  7
 10
17.957380
 20
25.149557
 30
0.000000
  0
VERTEX
  8
LAYER-2
 10
17.957380
 20
25.149557
 30
0.000000
  0
VERTEX
  8
LAYER-2
 10
18.047199
 20
25.413525
 30
0.000000
  0
VERTEX
  8
LAYER-2
 10
18.049754
 20
25.415793
 30
0.000000
  0
SEQEND
  8
LAYER-2
  0
POLYLINE
  8
LAYER-2
 66
  1
 70
  0
 62
  7
 10
18.013828
 20
25.841147
 30
0.000000
  0
VERTEX
  8
LAYER-2
 10
18.013828
 20
25.841147
 30
0.000000
  0
VERTEX
  8
LAYER-2
 10
18.003063
 20
25.856866
 30
0.000000
  0
VERTEX
  8
LAYER-2
 10
17.992910
 20
25.869634
 30
0.000000
  0
VERTEX
  8
LAYER-2
 10
17.981498
 20
25.881310
 30
0.000000
  0
VERTEX
  8
LAYER-2
 10
17.968951
 20
25.891747
 30
0.000000
  0
VERTEX
  8
LAYER-2
 10
17.957372
 20
25.898881
 30
0.000000
  0
SEQEND
  8
LAYER-2
  0
POLYLINE
  8
LAYER-2
 66
  1
 70
  0
 62
  7
 10
18.049761
 20
25.808420
 30
0.000000
  0
VERTEX
  8
LAYER-2
 10
18.049761
 20
25.808420
 30
0.000000
  0
VERTEX
  8
LAYER-2
 10
18.044826
 20
25.820442
 30
0.000000
  0
VERTEX
  8
LAYER-2
 10
18.039262
 20
25.829322
 30
0.000000
  0
VERTEX
  8
LAYER-2
 10
18.031514
 20
25.836379
 30
0.000000
  0
VERTEX
  8
LAYER-2
 10
18.022154
 20
25.841090
 30
0.000000
  0
VERTEX
  8
LAYER-2
 10
18.013837
 20
25.841147
 30
0.000000
  0
SEQEND
  8
LAYER-2
  0
POLYLINE
  8
LAYER-2
 66
  1
 70
  0
 62
  7
 10
17.996512
 20
26.010498
 30
0.000000
  0
VERTEX
  8
LAYER-2
 10
17.996512
 20
26.010498
 30
0.000000
  0
VERTEX
  8
LAYER-2
 10
18.011962
 20
26.042584
 30
0.000000
  0
VERTEX
  8
LAYER-2
 10
18.026133
 20
26.074360
 30
0.000000
  0
VERTEX
  8
LAYER-2
 10
18.036903
 20
26.107438
 30
0.000000
  0
VERTEX
  8
LAYER-2
 10
18.044146
 20
26.141468
 30
0.000000
  0
VERTEX
  8
LAYER-2
 10
18.049754
 20
26.174103
 30
0.000000
  0
SEQEND
  8
LAYER-2
  0
POLYLINE
  8
LAYER-2
 66
  1
 70
  0
 62
  7
 10
17.957680
 20
27.580965
 30
0.000000
  0
VERTEX
  8
LAYER-2
 10
17.957680
 20
27.580965
 30
0.000000
  0
VERTEX
  8
LAYER-2
 10
17.995866
 20
27.591867
 30
0.000000
  0
SEQEND
  8
LAYER-2
  0
POLYLINE
  8
LAYER-2
 66
  1
 70
  0
 62
  7
 10
17.997134
 20
26.680270
 30
0.000000
  0
VERTEX
  8
LAYER-2
 10
17.997134
 20
26.680270
 30
0.000000
  0
VERTEX
  8
LAYER-2
 10
17.989042
 20
26.697179
 30
0.000000
  0
VERTEX
  8
LAYER-2
 10
17.981866
 20
26.711658
 30
0.000000
  0
VERTEX
  8
LAYER-2
 10
17.973675
 20
26.725581
 30
0.000000
  0
VERTEX
  8
LAYER-2
 10
17.964516
 20
26.738892
 30
0.000000
  0
VERTEX
  8
LAYER-2
 10
17.954431
 20
26.751519
 30
0.000000
  0
VERTEX
  8
LAYER-2
 10
17.956403
 20
26.749547
 30
0.000000
  0
SEQEND
  8
LAYER-2
  0
POLYLINE
  8
LAYER-2
 66
  1
 70
  0
 62
  7
 10
17.957056
 20
25.941214
 30
0.000000
  0
VERTEX
  8
LAYER-2
 10
17.957056
 20
25.941214
 30
0.000000
  0
VERTEX
  8
LAYER-2
 10
17.964833
 20
25.955904
 30
0.000000
  0
VERTEX
  8
LAYER-2
 10
17.973693
 20
25.969250
 30
0.000000
  0
VERTEX
  8
LAYER-2
 10
17.981621
 20
25.983180
 30
0.000000
  0
VERTEX
  8
LAYER-2
 10
17.988581
 20
25.997603
 30
0.000000
  0
VERTEX
  8
LAYER-2
 10
17.994539
 20
26.012477
 30
0.000000
  0
VERTEX
  8
LAYER-2
 10
17.996512
 20
26.010498
 30
0.000000
  0
SEQEND
  8
LAYER-2
  0
POLYLINE
  8
LAYER-2
 66
  1
 70
  0
 62
  7
 10
17.958333
 20
25.109802
 30
0.000000
  0
VERTEX
  8
LAYER-2
 10
17.958333
 20
25.109802
 30
0.000000
  0
VERTEX
  8
LAYER-2
 10
17.995204
 20
25.098879
 30
0.000000
  0
SEQEND
  8
LAYER-2
  0
POLYLINE
  8
LAYER-2
 66
  1
 70
  1
 62
  7
  0
VERTEX
  8
LAYER-2
 10
16.976465
 20
27.396452
 30
0.000000
  0
VERTEX
  8
LAYER-2
 10
17.709802
 20
27.396452
 30
0.000000
  0
VERTEX
  8
LAYER-2
 10
17.709802
 20
25.378932
 30
0.000000
  0
VERTEX
  8
LAYER-2
 10
16.976465
 20
25.378932
 30
0.000000
  0
SEQEND
  8
LAYER-2
  0
CIRCLE
  8
LAYER-2
 62
  7
 10
17.279999
 20
26.370138
 30
0.000000
 40
0.163157
  0
POLYLINE
  8
LAYER-2
 66
  1
 70
  0
 62
  7
 10
69.905738
 20
26.882686
 30
0.000000
  0
VERTEX
  8
LAYER-2
 10
69.905738
 20
26.882686
 30
0.000000
  0
VERTEX
  8
LAYER-2
 10
68.739582
 20
26.882686
 30
0.000000
  0
SEQEND
  8
LAYER-2
  0
POLYLINE
  8
LAYER-2
  6
LTYPE01
 66
  1
 70
  0
 62
  7
  6
LTYPE01
 10
69.905738
 20
26.635268
 30
0.000000
  0
VERTEX
  8
LAYER-2
  6
LTYPE01
 10
69.905738
 20
26.635268
 30
0.000000
  0
VERTEX
  8
LAYER-2
  6
LTYPE01
 10
68.739582
 20
26.635268
 30
0.000000
  0
SEQEND
  8
LAYER-2
  0
POLYLINE
  8
LAYER-2
 66
  1
 70
  0
 62
  7
 10
69.905738
 20
25.885099
 30
0.000000
  0
VERTEX
  8
LAYER-2
 10
69.905738
 20
25.885099
 30
0.000000
  0
VERTEX
  8
LAYER-2
 10
68.739582
 20
25.885099
 30
0.000000
  0
SEQEND
  8
LAYER-2
  0
POLYLINE
  8
LAYER-2
 66
  1
 70
  0
 62
  7
 10
64.212144
 20
26.882686
 30
0.000000
  0
VERTEX
  8
LAYER-2
 10
64.212144
 20
26.882686
 30
0.000000
  0
VERTEX
  8
LAYER-2
 10
67.687507
 20
26.882686
 30
0.000000
  0
SEQEND
  8
LAYER-2
  0
POLYLINE
  8
LAYER-2
  6
LTYPE01
 66
  1
 70
  0
 62
  7
  6
LTYPE01
 10
64.212144
 20
26.635268
 30
0.000000
  0
VERTEX
  8
LAYER-2
  6
LTYPE01
 10
64.212144
 20
26.635268
 30
0.000000
  0
VERTEX
  8
LAYER-2
  6
LTYPE01
 10
67.687507
 20
26.635268
 30
0.000000
  0
SEQEND
  8
LAYER-2
  0
POLYLINE
  8
LAYER-2
 66
  1
 70
  0
 62
  7
 10
64.212144
 20
25.885099
 30
0.000000
  0
VERTEX
  8
LAYER-2
 10
64.212144
 20
25.885099
 30
0.000000
  0
VERTEX
  8
LAYER-2
 10
67.687507
 20
25.885099
 30
0.000000
  0
SEQEND
  8
LAYER-2
  0
POLYLINE
  8
LAYER-2
 66
  1
 70
  0
 62
  7
 10
16.073806
 20
26.882686
 30
0.000000
  0
VERTEX
  8
LAYER-2
 10
16.073806
 20
26.882686
 30
0.000000
  0
VERTEX
  8
LAYER-2
 10
16.979171
 20
26.882686
 30
0.000000
  0
SEQEND
  8
LAYER-2
  0
POLYLINE
  8
LAYER-2
 66
  1
 70
  0
 62
  7
 10
21.767411
 20
26.882686
 30
0.000000
  0
VERTEX
  8
LAYER-2
 10
21.767411
 20
26.882686
 30
0.000000
  0
VERTEX
  8
LAYER-2
 10
18.052083
 20
26.882686
 30
0.000000
  0
SEQEND
  8
LAYER-2
  0
POLYLINE
  8
LAYER-2
  6
LTYPE01
 66
  1
 70
  0
 62
  7
  6
LTYPE01
 10
21.767411
 20
26.635254
 30
0.000000
  0
VERTEX
  8
LAYER-2
  6
LTYPE01
 10
21.767411
 20
26.635254
 30
0.000000
  0
VERTEX
  8
LAYER-2
  6
LTYPE01
 10
18.052083
 20
26.635254
 30
0.000000
  0
SEQEND
  8
LAYER-2
  0
POLYLINE
  8
LAYER-2
 66
  1
 70
  0
 62
  7
 10
21.767411
 20
25.885085
 30
0.000000
  0
VERTEX
  8
LAYER-2
 10
21.767411
 20
25.885085
 30
0.000000
  0
VERTEX
  8
LAYER-2
 10
18.052083
 20
25.885085
 30
0.000000
  0
SEQEND
  8
LAYER-2
  0
POLYLINE
  8
LAYER-2
  6
LTYPE01
 66
  1
 70
  0
 62
  7
  6
LTYPE01
 10
16.073806
 20
26.635254
 30
0.000000
  0
VERTEX
  8
LAYER-2
  6
LTYPE01
 10
16.073806
 20
26.635254
 30
0.000000
  0
VERTEX
  8
LAYER-2
  6
LTYPE01
 10
16.979171
 20
26.635254
 30
0.000000
  0
SEQEND
  8
LAYER-2
  0
POLYLINE
  8
LAYER-2
 66
  1
 70
  0
 62
  7
 10
16.073806
 20
25.885085
 30
0.000000
  0
VERTEX
  8
LAYER-2
 10
16.073806
 20
25.885085
 30
0.000000
  0
VERTEX
  8
LAYER-2
 10
16.979171
 20
25.885085
 30
0.000000
  0
SEQEND
  8
LAYER-2
  0
TEXT
  8
LAYER-2
 62
  7
 10
8.660257
 20
38.416696
 30
0.000000
 40
1.471154
  1
Drive sprocket
 72
  5
 11
21.352564
 21
38.416696
 31
0.000000
  0
TEXT
  8
LAYER-2
 62
  7
 10
8.660257
 20
36.109004
 30
0.000000
 40
1.471154
  1
for motorized
 72
  5
 11
20.314103
 21
36.109004
 31
0.000000
  0
TEXT
  8
LAYER-2
 62
  7
 10
8.660257
 20
33.801312
 30
0.000000
 40
1.471154
  1
grilles
 72
  5
 11
14.083334
 21
33.801312
 31
0.000000
  0
POLYLINE
  8
LAYER-2
 66
  1
 70
  0
 62
  7
 10
15.083334
 20
33.974389
 30
0.000000
  0
VERTEX
  8
LAYER-2
 10
15.083334
 20
33.974389
 30
0.000000
  0
VERTEX
  8
LAYER-2
 10
17.948033
 20
29.096544
 30
0.000000
  0
SEQEND
  8
LAYER-2
  0
POLYLINE
  8
LAYER-2
 66
  1
 70
  1
 62
  7
  0
VERTEX
  8
LAYER-2
 10
17.958002
 20
29.079571
 30
0.000000
  0
VERTEX
  8
LAYER-2
 10
17.367353
 20
29.401752
 30
0.000000
  0
VERTEX
  8
LAYER-2
 10
17.665838
 20
29.577047
 30
0.000000
  0
VERTEX
  8
LAYER-2
 10
17.964323
 20
29.752343
 30
0.000000
  0
VERTEX
  8
LAYER-2
 10
17.958002
 20
29.079571
 30
0.000000
  0
SEQEND
  8
LAYER-2
  0
TEXT
  8
LAYER-2
 62
  7
 10
27.814103
 20
33.916696
 30
0.000000
 40
1.471154
  1
Barrel
 72
  5
 11
33.467949
 21
33.916696
 31
0.000000
  0
POLYLINE
  8
LAYER-2
 66
  1
 70
  0
 62
  7
 10
32.999986
 20
33.057720
 30
0.000000
  0
VERTEX
  8
LAYER-2
 10
32.999986
 20
33.057720
 30
0.000000
  0
VERTEX
  8
LAYER-2
 10
34.533114
 20
29.712053
 30
0.000000
  0
SEQEND
  8
LAYER-2
  0
POLYLINE
  8
LAYER-2
 66
  1
 70
  1
 62
  7
  0
VERTEX
  8
LAYER-2
 10
34.541311
 20
29.694165
 30
0.000000
  0
VERTEX
  8
LAYER-2
 10
33.986284
 20
30.074439
 30
0.000000
  0
VERTEX
  8
LAYER-2
 10
34.300971
 20
30.218642
 30
0.000000
  0
VERTEX
  8
LAYER-2
 10
34.615659
 20
30.362845
 30
0.000000
  0
VERTEX
  8
LAYER-2
 10
34.541311
 20
29.694165
 30
0.000000
  0
SEQEND
  8
LAYER-2
  0
TEXT
  8
LAYER-2
 62
  7
 10
0.467949
 20
43.609004
 30
0.000000
 40
1.471154
  1
ACCESS PANELS
 72
  5
 11
17.083334
 21
43.609004
 31
0.000000
  0
POLYLINE
  8
LAYER-2
 66
  1
 70
  0
 62
  7
 10
55.755207
 20
5.357201
 30
0.000000
  0
VERTEX
  8
LAYER-2
 10
55.755207
 20
5.357201
 30
0.000000
  0
VERTEX
  8
LAYER-2
 10
66.151611
 20
14.128362
 30
0.000000
  0
SEQEND
  8
LAYER-2
  0
POLYLINE
  8
LAYER-2
 66
  1
 70
  1
 62
  7
  0
VERTEX
  8
LAYER-2
 10
66.166661
 20
14.141059
 30
0.000000
  0
VERTEX
  8
LAYER-2
 10
65.948921
 20
13.504465
 30
0.000000
  0
VERTEX
  8
LAYER-2
 10
65.725708
 20
13.769038
 30
0.000000
  0
VERTEX
  8
LAYER-2
 10
65.502495
 20
14.033612
 30
0.000000
  0
VERTEX
  8
LAYER-2
 10
66.166661
 20
14.141059
 30
0.000000
  0
SEQEND
  8
LAYER-2
  0
POLYLINE
  8
LAYER-2
 66
  1
 70
  0
 62
  7
 10
29.223959
 20
5.310326
 30
0.000000
  0
VERTEX
  8
LAYER-2
 10
29.223959
 20
5.310326
 30
0.000000
  0
VERTEX
  8
LAYER-2
 10
19.098179
 20
14.128129
 30
0.000000
  0
SEQEND
  8
LAYER-2
  0
POLYLINE
  8
LAYER-2
 66
  1
 70
  1
 62
  7
  0
VERTEX
  8
LAYER-2
 10
19.083333
 20
14.141059
 30
0.000000
  0
VERTEX
  8
LAYER-2
 10
19.745736
 20
14.023224
 30
0.000000
  0
VERTEX
  8
LAYER-2
 10
19.518411
 20
13.762179
 30
0.000000
  0
VERTEX
  8
LAYER-2
 10
19.291085
 20
13.501134
 30
0.000000
  0
VERTEX
  8
LAYER-2
 10
19.083333
 20
14.141059
 30
0.000000
  0
SEQEND
  8
LAYER-2
  0
TEXT
  8
LAYER-2
 62
  7
 10
8.660257
 20
20.416696
 30
0.000000
 40
1.471154
  1
Finished
 72
  5
 11
16.391026
 21
20.416696
 31
0.000000
  0
TEXT
  8
LAYER-2
 62
  7
 10
8.660257
 20
18.109004
 30
0.000000
 40
1.471154
  1
ceiling
 72
  5
 11
14.660257
 21
18.109004
 31
0.000000
  0
POLYLINE
  8
LAYER-2
 66
  1
 70
  0
 62
  7
 10
7.833333
 20
19.307718
 30
0.000000
  0
VERTEX
  8
LAYER-2
 10
7.833333
 20
19.307718
 30
0.000000
  0
VERTEX
  8
LAYER-2
 10
3.097749
 20
14.904461
 30
0.000000
  0
SEQEND
  8
LAYER-2
  0
POLYLINE
  8
LAYER-2
 66
  1
 70
  1
 62
  7
  0
VERTEX
  8
LAYER-2
 10
3.083333
 20
14.891059
 30
0.000000
  0
VERTEX
  8
LAYER-2
 10
3.270121
 20
15.537415
 30
0.000000
  0
VERTEX
  8
LAYER-2
 10
3.505833
 20
15.283912
 30
0.000000
  0
VERTEX
  8
LAYER-2
 10
3.741545
 20
15.030410
 30
0.000000
  0
VERTEX
  8
LAYER-2
 10
3.083333
 20
14.891059
 30
0.000000
  0
SEQEND
  8
LAYER-2
  0
TEXT
  8
LAYER-2
 62
  7
 10
8.544872
 20
72.801312
 30
0.000000
 40
1.471154
  1
Finished
 72
  5
 11
16.275641
 21
72.801312
 31
0.000000
  0
TEXT
  8
LAYER-2
 62
  7
 10
8.544872
 20
70.493619
 30
0.000000
 40
1.471154
  1
ceiling
 72
  5
 11
14.544872
 21
70.493619
 31
0.000000
  0
TEXT
  8
LAYER-2
 62
  7
 10
30.467949
 20
66.224389
 30
0.000000
 40
1.471154
  1
min (152mm) wide 
 72
  5
 11
47.083334
 21
66.224389
 31
0.000000
  0
POLYLINE
  8
LAYER-2
  6
LTYPE06
 66
  1
 70
  0
 62
  7
  6
LTYPE06
 10
21.467949
 20
70.955158
 30
0.000000
  0
VERTEX
  8
LAYER-2
  6
LTYPE06
 10
21.467949
 20
70.955158
 30
0.000000
  0
VERTEX
  8
LAYER-2
  6
LTYPE06
 10
21.467949
 20
65.411886
 30
0.000000
  0
SEQEND
  8
LAYER-2
  0
TEXT
  8
LAYER-2
 62
  7
 10
20.660257
 20
63.916696
 30
0.000000
 40
1.471154
  1
C
 72
  5
 11
22.621795
 21
63.916696
 31
0.000000
  0
TEXT
  8
LAYER-2
 62
  7
 10
21.237180
 20
63.224389
 30
0.000000
 40
1.471154
  1
L
 72
  5
 11
22.852564
 21
63.224389
 31
0.000000
  0
TEXT
  8
LAYER-2
 62
  7
 10
27.121795
 20
59.762850
 30
0.000000
 40
1.730769
  1
 7"
 72
  5
 11
30.467949
 21
59.762850
 31
0.000000
  0
TEXT
  8
LAYER-2
 62
  7
 10
30.467949
 20
59.762850
 30
0.000000
 40
1.471154
  1
 (178mm) for closures over 22'0" (6,7m) wide
 72
  5
 11
69.006410
 21
59.762850
 31
0.000000
  0
TEXT
  8
LAYER-2
 62
  7
 10
27.121795
 20
57.109004
 30
0.000000
 40
1.471154
  1
(
 72
  5
 11
28.391026
 21
57.109004
 31
0.000000
  0
TEXT
  8
LAYER-2
 62
  7
 10
28.391026
 20
57.109004
 30
0.000000
 40
1.730769
  1
5"
 72
  5
 11
31.044872
 21
57.109004
 31
0.000000
  0
TEXT
  8
LAYER-2
 62
  7
 10
31.044872
 20
57.109004
 30
0.000000
 40
1.471154
  1
 min (127mm) for counter rolling closures)  
 72
  5
 11
68.083334
 21
57.109004
 31
0.000000
  0
TEXT
  8
LAYER-2
 62
  7
 10
27.929487
 20
63.224389
 30
0.000000
 40
1.471154
  1
to
 72
  5
 11
30.006410
 21
63.224389
 31
0.000000
  0
LINE
  8
LAYER-2
 62
  7
 10
18.456526
 20
66.460419
 30
0.000000
 11
24.417162
 21
66.460419
 31
0.000000
  0
LINE
  8
LAYER-2
 62
  7
 10
18.436842
 20
74.944871
 30
0.000000
 11
18.436842
 21
64.960419
 31
0.000000
  0
LINE
  8
LAYER-2
 62
  7
 10
24.436846
 20
74.944871
 30
0.000000
 11
24.436846
 21
64.960419
 31
0.000000
  0
LINE
  8
LAYER-2
 62
  7
 10
24.436846
 20
66.460419
 30
0.000000
 11
27.133898
 21
66.460419
 31
0.000000
  0
POLYLINE
  8
LAYER-2
 66
  1
 70
  1
 62
  7
  0
VERTEX
  8
LAYER-2
 10
18.436842
 20
66.460419
 30
0.000000
  0
VERTEX
  8
LAYER-2
 10
19.013767
 20
66.114272
 30
0.000000
  0
VERTEX
  8
LAYER-2
 10
19.013765
 20
66.460426
 30
0.000000
  0
VERTEX
  8
LAYER-2
 10
19.013763
 20
66.806580
 30
0.000000
  0
VERTEX
  8
LAYER-2
 10
18.436842
 20
66.460419
 30
0.000000
  0
SEQEND
  8
LAYER-2
  0
POLYLINE
  8
LAYER-2
 66
  1
 70
  1
 62
  7
  0
VERTEX
  8
LAYER-2
 10
24.436846
 20
66.460419
 30
0.000000
  0
VERTEX
  8
LAYER-2
 10
23.859926
 20
66.114258
 30
0.000000
  0
VERTEX
  8
LAYER-2
 10
23.859923
 20
66.460412
 30
0.000000
  0
VERTEX
  8
LAYER-2
 10
23.859919
 20
66.806566
 30
0.000000
  0
VERTEX
  8
LAYER-2
 10
24.436846
 20
66.460419
 30
0.000000
  0
SEQEND
  8
LAYER-2
  0
TEXT
  8
LAYER-2
 62
  7
 10
28.882544
 20
66.425178
 30
0.000000
 40
1.211538
  1
6"
  0
TEXT
  8
LAYER-2
 62
  7
 10
27.814103
 20
68.878235
 30
0.000000
 40
1.471154
  1
Ceiling opening centered with guides should be
 72
  5
 11
67.967949
 21
68.878235
 31
0.000000
  0
ARC
  8
LAYER-2
 62
  7
 10
22.693361
 20
77.966492
 30
0.000000
 40
0.437500
 50
155.000000
 51
180.000000
  0
CIRCLE
  8
LAYER-2
 62
  7
 10
21.417352
 20
78.387874
 30
0.000000
 40
0.082054
  0
ARC
  8
LAYER-2
 62
  7
 10
21.434377
 20
78.161696
 30
0.000000
 40
0.087262
 50
312.856262
 51
249.391663
  0
POLYLINE
  8
LAYER-2
 66
  1
 70
  0
 62
  7
 10
21.388671
 20
78.022860
 30
0.000000
  0
VERTEX
  8
LAYER-2
 10
21.388671
 20
78.022860
 30
0.000000
  0
VERTEX
  8
LAYER-2
 10
21.352209
 20
78.022860
 30
0.000000
  0
SEQEND
  8
LAYER-2
  0
POLYLINE
  8
LAYER-2
 66
  1
 70
  0
 62
  7
 10
21.403665
 20
78.080024
 30
0.000000
  0
VERTEX
  8
LAYER-2
 10
21.403665
 20
78.080024
 30
0.000000
  0
VERTEX
  8
LAYER-2
 10
21.403633
 20
78.037804
 30
0.000000
  0
SEQEND
  8
LAYER-2
  0
ARC
  8
LAYER-2
 62
  7
 10
21.388671
 20
78.037818
 30
0.000000
 40
0.014961
 50
270.000000
 51
359.956757
  0
POLYLINE
  8
LAYER-2
 66
  1
 70
  0
 62
  7
 10
21.566189
 20
78.387557
 30
0.000000
  0
VERTEX
  8
LAYER-2
 10
21.566189
 20
78.387557
 30
0.000000
  0
VERTEX
  8
LAYER-2
 10
21.594334
 20
78.107046
 30
0.000000
  0
SEQEND
  8
LAYER-2
  0
ARC
  8
LAYER-2
 62
  7
 10
21.539107
 20
78.101511
 30
0.000000
 40
0.055512
 50
315.000000
 51
5.728333
  0
POLYLINE
  8
LAYER-2
 66
  1
 70
  0
 62
  7
 10
21.493725
 20
78.097736
 30
0.000000
  0
VERTEX
  8
LAYER-2
 10
21.493725
 20
78.097736
 30
0.000000
  0
VERTEX
  8
LAYER-2
 10
21.518792
 20
78.032452
 30
0.000000
  0
SEQEND
  8
LAYER-2
  0
POLYLINE
  8
LAYER-2
 66
  1
 70
  0
 62
  7
 10
21.543336
 20
78.027240
 30
0.000000
  0
VERTEX
  8
LAYER-2
 10
21.543336
 20
78.027240
 30
0.000000
  0
VERTEX
  8
LAYER-2
 10
21.578354
 20
78.062256
 30
0.000000
  0
SEQEND
  8
LAYER-2
  0
ARC
  8
LAYER-2
 62
  7
 10
21.532758
 20
78.037818
 30
0.000000
 40
0.014961
 50
201.000244
 51
315.000000
  0
POLYLINE
  8
LAYER-2
 66
  1
 70
  0
 62
  7
 10
21.295090
 20
78.079975
 30
0.000000
  0
VERTEX
  8
LAYER-2
 10
21.295090
 20
78.079975
 30
0.000000
  0
VERTEX
  8
LAYER-2
 10
21.352209
 20
78.022860
 30
0.000000
  0
SEQEND
  8
LAYER-2
  0
POLYLINE
  8
LAYER-2
 66
  1
 70
  0
 62
  7
 10
21.295090
 20
78.079975
 30
0.000000
  0
VERTEX
  8
LAYER-2
 10
21.295090
 20
78.079975
 30
0.000000
  0
VERTEX
  8
LAYER-2
 10
21.272283
 20
78.243868
 30
0.000000
  0
SEQEND
  8
LAYER-2
  0
POLYLINE
  8
LAYER-2
 66
  1
 70
  0
 62
  7
 10
21.307394
 20
78.278982
 30
0.000000
  0
VERTEX
  8
LAYER-2
 10
21.307394
 20
78.278982
 30
0.000000
  0
VERTEX
  8
LAYER-2
 10
21.267406
 20
78.318970
 30
0.000000
  0
SEQEND
  8
LAYER-2
  0
POLYLINE
  8
LAYER-2
 66
  1
 70
  0
 62
  7
 10
21.307394
 20
78.278982
 30
0.000000
  0
VERTEX
  8
LAYER-2
 10
21.307394
 20
78.278982
 30
0.000000
  0
VERTEX
  8
LAYER-2
 10
21.272283
 20
78.243868
 30
0.000000
  0
SEQEND
  8
LAYER-2
  0
POLYLINE
  8
LAYER-2
 66
  1
 70
  0
 62
  7
 10
21.267406
 20
78.318970
 30
0.000000
  0
VERTEX
  8
LAYER-2
 10
21.267406
 20
78.318970
 30
0.000000
  0
VERTEX
  8
LAYER-2
 10
21.267406
 20
78.456158
 30
0.000000
  0
SEQEND
  8
LAYER-2
  0
ARC
  8
LAYER-2
 62
  7
 10
21.434377
 20
78.613410
 30
0.000000
 40
0.087262
 50
110.608337
 51
47.143738
  0
POLYLINE
  8
LAYER-2
 66
  1
 70
  0
 62
  7
 10
21.388671
 20
78.752254
 30
0.000000
  0
VERTEX
  8
LAYER-2
 10
21.388671
 20
78.752254
 30
0.000000
  0
VERTEX
  8
LAYER-2
 10
21.352209
 20
78.752254
 30
0.000000
  0
SEQEND
  8
LAYER-2
  0
POLYLINE
  8
LAYER-2
 66
  1
 70
  0
 62
  7
 10
21.403665
 20
78.695089
 30
0.000000
  0
VERTEX
  8
LAYER-2
 10
21.403665
 20
78.695089
 30
0.000000
  0
VERTEX
  8
LAYER-2
 10
21.403633
 20
78.737302
 30
0.000000
  0
SEQEND
  8
LAYER-2
  0
ARC
  8
LAYER-2
 62
  7
 10
21.388671
 20
78.737302
 30
0.000000
 40
0.014961
 50
0.043243
 51
90.000000
  0
POLYLINE
  8
LAYER-2
 66
  1
 70
  0
 62
  7
 10
21.566189
 20
78.387557
 30
0.000000
  0
VERTEX
  8
LAYER-2
 10
21.566189
 20
78.387557
 30
0.000000
  0
VERTEX
  8
LAYER-2
 10
21.594334
 20
78.668067
 30
0.000000
  0
SEQEND
  8
LAYER-2
  0
ARC
  8
LAYER-2
 62
  7
 10
21.539107
 20
78.673603
 30
0.000000
 40
0.055512
 50
354.271667
 51
45.000000
  0
POLYLINE
  8
LAYER-2
 66
  1
 70
  0
 62
  7
 10
21.493725
 20
78.677371
 30
0.000000
  0
VERTEX
  8
LAYER-2
 10
21.493725
 20
78.677371
 30
0.000000
  0
VERTEX
  8
LAYER-2
 10
21.518792
 20
78.742655
 30
0.000000
  0
SEQEND
  8
LAYER-2
  0
POLYLINE
  8
LAYER-2
 66
  1
 70
  0
 62
  7
 10
21.543336
 20
78.747887
 30
0.000000
  0
VERTEX
  8
LAYER-2
 10
21.543336
 20
78.747887
 30
0.000000
  0
VERTEX
  8
LAYER-2
 10
21.578354
 20
78.712865
 30
0.000000
  0
SEQEND
  8
LAYER-2
  0
ARC
  8
LAYER-2
 62
  7
 10
21.532758
 20
78.737302
 30
0.000000
 40
0.014961
 50
45.000000
 51
158.999756
  0
POLYLINE
  8
LAYER-2
 66
  1
 70
  0
 62
  7
 10
21.295090
 20
78.695139
 30
0.000000
  0
VERTEX
  8
LAYER-2
 10
21.295090
 20
78.695139
 30
0.000000
  0
VERTEX
  8
LAYER-2
 10
21.352209
 20
78.752254
 30
0.000000
  0
SEQEND
  8
LAYER-2
  0
POLYLINE
  8
LAYER-2
 66
  1
 70
  0
 62
  7
 10
21.295090
 20
78.695139
 30
0.000000
  0
VERTEX
  8
LAYER-2
 10
21.295090
 20
78.695139
 30
0.000000
  0
VERTEX
  8
LAYER-2
 10
21.272283
 20
78.531245
 30
0.000000
  0
SEQEND
  8
LAYER-2
  0
POLYLINE
  8
LAYER-2
 66
  1
 70
  0
 62
  7
 10
21.307394
 20
78.496145
 30
0.000000
  0
VERTEX
  8
LAYER-2
 10
21.307394
 20
78.496145
 30
0.000000
  0
VERTEX
  8
LAYER-2
 10
21.267406
 20
78.456158
 30
0.000000
  0
SEQEND
  8
LAYER-2
  0
POLYLINE
  8
LAYER-2
 66
  1
 70
  0
 62
  7
 10
21.307394
 20
78.496145
 30
0.000000
  0
VERTEX
  8
LAYER-2
 10
21.307394
 20
78.496145
 30
0.000000
  0
VERTEX
  8
LAYER-2
 10
21.272283
 20
78.531245
 30
0.000000
  0
SEQEND
  8
LAYER-2
  0
POLYLINE
  8
LAYER-2
 66
  1
 70
  0
 62
  7
 10
21.466653
 20
77.970013
 30
0.000000
  0
VERTEX
  8
LAYER-2
 10
21.466653
 20
77.970013
 30
0.000000
  0
VERTEX
  8
LAYER-2
 10
21.460910
 20
77.964280
 30
0.000000
  0
SEQEND
  8
LAYER-2
  0
POLYLINE
  8
LAYER-2
 66
  1
 70
  0
 62
  7
 10
21.466653
 20
77.970013
 30
0.000000
  0
VERTEX
  8
LAYER-2
 10
21.466653
 20
77.970013
 30
0.000000
  0
VERTEX
  8
LAYER-2
 10
21.466724
 20
78.094863
 30
0.000000
  0
SEQEND
  8
LAYER-2
  0
ARC
  8
LAYER-2
 62
  7
 10
21.435863
 20
78.163506
 30
0.000000
 40
0.075258
 50
294.206604
 51
245.830200
  0
POLYLINE
  8
LAYER-2
 66
  1
 70
  0
 62
  7
 10
21.405137
 20
77.970013
 30
0.000000
  0
VERTEX
  8
LAYER-2
 10
21.405137
 20
77.970013
 30
0.000000
  0
VERTEX
  8
LAYER-2
 10
21.405052
 20
78.094849
 30
0.000000
  0
SEQEND
  8
LAYER-2
  0
POLYLINE
  8
LAYER-2
 66
  1
 70
  0
 62
  7
 10
21.405137
 20
77.970013
 30
0.000000
  0
VERTEX
  8
LAYER-2
 10
21.405137
 20
77.970013
 30
0.000000
  0
VERTEX
  8
LAYER-2
 10
21.411042
 20
77.964111
 30
0.000000
  0
SEQEND
  8
LAYER-2
  0
POLYLINE
  8
LAYER-2
 66
  1
 70
  0
 62
  7
 10
21.411042
 20
75.863187
 30
0.000000
  0
VERTEX
  8
LAYER-2
 10
21.411042
 20
75.863187
 30
0.000000
  0
VERTEX
  8
LAYER-2
 10
21.411042
 20
77.964111
 30
0.000000
  0
SEQEND
  8
LAYER-2
  0
POLYLINE
  8
LAYER-2
 66
  1
 70
  0
 62
  7
 10
21.405109
 20
75.857243
 30
0.000000
  0
VERTEX
  8
LAYER-2
 10
21.405109
 20
75.857243
 30
0.000000
  0
VERTEX
  8
LAYER-2
 10
21.411042
 20
75.863187
 30
0.000000
  0
SEQEND
  8
LAYER-2
  0
POLYLINE
  8
LAYER-2
 66
  1
 70
  0
 62
  7
 10
21.405109
 20
75.857243
 30
0.000000
  0
VERTEX
  8
LAYER-2
 10
21.405109
 20
75.857243
 30
0.000000
  0
VERTEX
  8
LAYER-2
 10
21.405038
 20
75.732408
 30
0.000000
  0
SEQEND
  8
LAYER-2
  0
ARC
  8
LAYER-2
 62
  7
 10
21.435895
 20
75.663764
 30
0.000000
 40
0.075258
 50
114.206604
 51
65.830200
  0
POLYLINE
  8
LAYER-2
 66
  1
 70
  0
 62
  7
 10
21.466621
 20
75.857243
 30
0.000000
  0
VERTEX
  8
LAYER-2
 10
21.466621
 20
75.857243
 30
0.000000
  0
VERTEX
  8
LAYER-2
 10
21.466706
 20
75.732422
 30
0.000000
  0
SEQEND
  8
LAYER-2
  0
POLYLINE
  8
LAYER-2
 66
  1
 70
  0
 62
  7
 10
21.466621
 20
75.857243
 30
0.000000
  0
VERTEX
  8
LAYER-2
 10
21.466621
 20
75.857243
 30
0.000000
  0
VERTEX
  8
LAYER-2
 10
21.460910
 20
75.862962
 30
0.000000
  0
SEQEND
  8
LAYER-2
  0
POLYLINE
  8
LAYER-2
 66
  1
 70
  0
 62
  7
 10
21.460910
 20
75.862962
 30
0.000000
  0
VERTEX
  8
LAYER-2
 10
21.460910
 20
75.862962
 30
0.000000
  0
VERTEX
  8
LAYER-2
 10
21.460910
 20
77.964280
 30
0.000000
  0
SEQEND
  8
LAYER-2
  0
LINE
  8
LAYER-2
 62
  7
 10
42.196374
 20
74.714539
 30
0.000000
 11
42.196374
 21
78.682124
 31
0.000000
  0
LINE
  8
LAYER-2
 62
  7
 10
39.629538
 20
74.694855
 30
0.000000
 11
43.696374
 21
74.694855
 31
0.000000
  0
LINE
  8
LAYER-2
 62
  7
 10
33.920337
 20
78.701808
 30
0.000000
 11
43.696374
 21
78.701808
 31
0.000000
  0
LINE
  8
LAYER-2
 62
  7
 10
42.196374
 20
78.127160
 30
0.000000
 11
42.196374
 21
74.694855
 31
0.000000
  0
POLYLINE
  8
LAYER-2
 66
  1
 70
  1
 62
  7
  0
VERTEX
  8
LAYER-2
 10
42.196374
 20
74.694855
 30
0.000000
  0
VERTEX
  8
LAYER-2
 10
42.542534
 20
75.271778
 30
0.000000
  0
VERTEX
  8
LAYER-2
 10
42.196381
 20
75.271778
 30
0.000000
  0
VERTEX
  8
LAYER-2
 10
41.850227
 20
75.271778
 30
0.000000
  0
VERTEX
  8
LAYER-2
 10
42.196374
 20
74.694855
 30
0.000000
  0
SEQEND
  8
LAYER-2
  0
POLYLINE
  8
LAYER-2
 66
  1
 70
  1
 62
  7
  0
VERTEX
  8
LAYER-2
 10
42.196374
 20
78.701808
 30
0.000000
  0
VERTEX
  8
LAYER-2
 10
42.542527
 20
78.124885
 30
0.000000
  0
VERTEX
  8
LAYER-2
 10
42.196374
 20
78.124885
 30
0.000000
  0
VERTEX
  8
LAYER-2
 10
41.850220
 20
78.124885
 30
0.000000
  0
VERTEX
  8
LAYER-2
 10
42.196374
 20
78.701808
 30
0.000000
  0
SEQEND
  8
LAYER-2
  0
TEXT
  8
LAYER-2
 62
  7
 10
43.672026
 20
75.948448
 30
0.000000
 40
1.038462
  1
 
 50
90.000000
  0
POLYLINE
  8
LAYER-2
 66
  1
 70
  0
 62
  7
 10
21.845833
 20
78.141759
 30
0.000000
  0
VERTEX
  8
LAYER-2
 10
21.845833
 20
78.141759
 30
0.000000
  0
VERTEX
  8
LAYER-2
 10
21.968182
 20
78.396423
 30
0.000000
  0
SEQEND
  8
LAYER-2
  0
ARC
  8
LAYER-2
 62
  7
 10
22.242344
 20
77.958604
 30
0.000000
 40
0.437500
 50
155.000000
 51
180.000000
  0
POLYLINE
  8
LAYER-2
 66
  1
 70
  0
 62
  7
 10
21.939586
 20
77.891151
 30
0.000000
  0
VERTEX
  8
LAYER-2
 10
21.939586
 20
77.891151
 30
0.000000
  0
VERTEX
  8
LAYER-2
 10
22.455437
 20
77.891151
 30
0.000000
  0
SEQEND
  8
LAYER-2
  0
POLYLINE
  8
LAYER-2
 66
  1
 70
  0
 62
  7
 10
22.548183
 20
77.798408
 30
0.000000
  0
VERTEX
  8
LAYER-2
 10
22.548183
 20
77.798408
 30
0.000000
  0
VERTEX
  8
LAYER-2
 10
22.548183
 20
76.913156
 30
0.000000
  0
SEQEND
  8
LAYER-2
  0
POLYLINE
  8
LAYER-2
 66
  1
 70
  0
 62
  7
 10
22.455437
 20
76.820406
 30
0.000000
  0
VERTEX
  8
LAYER-2
 10
22.455437
 20
76.820406
 30
0.000000
  0
VERTEX
  8
LAYER-2
 10
21.939586
 20
76.820406
 30
0.000000
  0
SEQEND
  8
LAYER-2
  0
POLYLINE
  8
LAYER-2
 66
  1
 70
  0
 62
  7
 10
21.846840
 20
76.913156
 30
0.000000
  0
VERTEX
  8
LAYER-2
 10
21.846840
 20
76.913156
 30
0.000000
  0
VERTEX
  8
LAYER-2
 10
21.846840
 20
77.798408
 30
0.000000
  0
SEQEND
  8
LAYER-2
  0
ARC
  8
LAYER-2
 62
  7
 10
21.939586
 20
77.798408
 30
0.000000
 40
0.092746
 50
270.000000
 51
0.000000
  0
ARC
  8
LAYER-2
 62
  7
 10
21.939586
 20
76.913156
 30
0.000000
 40
0.092746
 50
0.000000
 51
90.000000
  0
ARC
  8
LAYER-2
 62
  7
 10
22.455437
 20
76.913156
 30
0.000000
 40
0.092746
 50
90.000000
 51
180.000000
  0
ARC
  8
LAYER-2
 62
  7
 10
22.455437
 20
77.798408
 30
0.000000
 40
0.092746
 50
180.000000
 51
270.000000
  0
POLYLINE
  8
LAYER-2
 66
  1
 70
  1
 62
  7
 10
22.504646
 20
76.856887
 30
0.000000
  0
VERTEX
  8
LAYER-2
 10
22.504646
 20
76.856887
 30
0.000000
  0
VERTEX
  8
LAYER-2
 10
21.884989
 20
76.864098
 30
0.000000
  0
VERTEX
  8
LAYER-2
 10
21.884989
 20
77.857164
 30
0.000000
  0
VERTEX
  8
LAYER-2
 10
22.504646
 20
77.849945
 30
0.000000
  0
SEQEND
  8
LAYER-2
  0
ARC
  8
LAYER-2
 62
  7
 10
22.200980
 20
78.329717
 30
0.000000
 40
0.568128
 50
236.281860
 51
302.384247
  0
ARC
  8
LAYER-2
 62
  7
 10
22.189793
 20
76.375700
 30
0.000000
 40
0.575388
 50
56.751129
 51
121.915100
  0
ARC
  8
LAYER-2
 62
  7
 10
21.005917
 20
77.360631
 30
0.000000
 40
1.010146
 50
330.558105
 51
29.441895
  0
ARC
  8
LAYER-2
 62
  7
 10
23.459506
 20
77.353419
 30
0.000000
 40
1.075692
 50
152.510254
 51
207.489716
  0
POLYLINE
  8
LAYER-2
 66
  1
 70
  0
 62
  7
 10
20.431239
 20
77.891151
 30
0.000000
  0
VERTEX
  8
LAYER-2
 10
20.431239
 20
77.891151
 30
0.000000
  0
VERTEX
  8
LAYER-2
 10
20.947091
 20
77.891151
 30
0.000000
  0
SEQEND
  8
LAYER-2
  0
POLYLINE
  8
LAYER-2
 66
  1
 70
  0
 62
  7
 10
21.039838
 20
77.798408
 30
0.000000
  0
VERTEX
  8
LAYER-2
 10
21.039838
 20
77.798408
 30
0.000000
  0
VERTEX
  8
LAYER-2
 10
21.039838
 20
76.913156
 30
0.000000
  0
SEQEND
  8
LAYER-2
  0
POLYLINE
  8
LAYER-2
 66
  1
 70
  0
 62
  7
 10
20.947091
 20
76.820406
 30
0.000000
  0
VERTEX
  8
LAYER-2
 10
20.947091
 20
76.820406
 30
0.000000
  0
VERTEX
  8
LAYER-2
 10
20.431239
 20
76.820406
 30
0.000000
  0
SEQEND
  8
LAYER-2
  0
POLYLINE
  8
LAYER-2
 66
  1
 70
  0
 62
  7
 10
20.338493
 20
76.913156
 30
0.000000
  0
VERTEX
  8
LAYER-2
 10
20.338493
 20
76.913156
 30
0.000000
  0
VERTEX
  8
LAYER-2
 10
20.338493
 20
77.798408
 30
0.000000
  0
SEQEND
  8
LAYER-2
  0
ARC
  8
LAYER-2
 62
  7
 10
20.431239
 20
77.798408
 30
0.000000
 40
0.092746
 50
270.000000
 51
0.000000
  0
ARC
  8
LAYER-2
 62
  7
 10
20.431239
 20
76.913156
 30
0.000000
 40
0.092746
 50
0.000000
 51
90.000000
  0
ARC
  8
LAYER-2
 62
  7
 10
20.947091
 20
76.913156
 30
0.000000
 40
0.092746
 50
90.000000
 51
180.000000
  0
ARC
  8
LAYER-2
 62
  7
 10
20.947091
 20
77.798408
 30
0.000000
 40
0.092746
 50
180.000000
 51
270.000000
  0
POLYLINE
  8
LAYER-2
 66
  1
 70
  1
 62
  7
 10
20.996301
 20
76.856887
 30
0.000000
  0
VERTEX
  8
LAYER-2
 10
20.996301
 20
76.856887
 30
0.000000
  0
VERTEX
  8
LAYER-2
 10
20.376642
 20
76.864098
 30
0.000000
  0
VERTEX
  8
LAYER-2
 10
20.376642
 20
77.857164
 30
0.000000
  0
VERTEX
  8
LAYER-2
 10
20.996301
 20
77.849945
 30
0.000000
  0
SEQEND
  8
LAYER-2
  0
ARC
  8
LAYER-2
 62
  7
 10
20.692633
 20
78.329717
 30
0.000000
 40
0.568128
 50
236.281860
 51
302.384247
  0
ARC
  8
LAYER-2
 62
  7
 10
20.681448
 20
76.375700
 30
0.000000
 40
0.575388
 50
56.751129
 51
121.915100
  0
ARC
  8
LAYER-2
 62
  7
 10
19.497570
 20
77.360631
 30
0.000000
 40
1.010146
 50
330.558105
 51
29.441895
  0
ARC
  8
LAYER-2
 62
  7
 10
21.951161
 20
77.353419
 30
0.000000
 40
1.075692
 50
152.510254
 51
207.489716
  0
ENDSEC
  0
EOF
