  0
SECTION
  2
HEADER
999
MacDraft 5.0\0
  9
$ACADVER
  1
AC1006
  9
$CLAYER
  8
LAYER-1
  9
$EXTMIN
 10
0.000000
 20
0.000000
  9
$EXTMAX
 10
7.667853
 20
10.278649
  9
$FASTZOOM
 70
0
  9
$FILLMODE
 70
1
  0
ENDSEC
  0
SECTION
  2
TABLES
  0
TABLE
  2
LTYPE
 70
16
  0
LTYPE
  2
CONTINUOUS
 70
64
  3
Solid Line
 72
65
 73
0
 40
0.000000
  0
LTYPE
  2
LTYPE01
 70
64
  3
CUSTOM
 72
65
 73
2
 40
0.072727
 49
0.054545
 49
-0.018182
  0
LTYPE
  2
LTYPE02
 70
64
  3
CUSTOM
 72
65
 73
2
 40
0.127273
 49
0.109091
 49
-0.018182
  0
LTYPE
  2
LTYPE03
 70
64
  3
CUSTOM
 72
65
 73
2
 40
0.245455
 49
0.218182
 49
-0.027273
  0
LTYPE
  2
LTYPE04
 70
64
  3
CUSTOM
 72
65
 73
2
 40
0.472727
 49
0.436364
 49
-0.036364
  0
LTYPE
  2
LTYPE05
 70
64
  3
CUSTOM
 72
65
 73
4
 40
0.100000
 49
0.054545
 49
-0.018182
 49
0.009091
 49
-0.018182
  0
LTYPE
  2
LTYPE06
 70
64
  3
CUSTOM
 72
65
 73
4
 40
0.154545
 49
0.109091
 49
-0.018182
 49
0.009091
 49
-0.018182
  0
LTYPE
  2
LTYPE07
 70
64
  3
CUSTOM
 72
65
 73
4
 40
0.290909
 49
0.218182
 49
-0.027273
 49
0.018182
 49
-0.027273
  0
LTYPE
  2
LTYPE08
 70
64
  3
CUSTOM
 72
65
 73
4
 40
0.527273
 49
0.436364
 49
-0.036364
 49
0.018182
 49
-0.036364
  0
LTYPE
  2
LTYPE09
 70
64
  3
CUSTOM
 72
65
 73
6
 40
0.127273
 49
0.054545
 49
-0.018182
 49
0.009091
 49
-0.018182
 49
0.009091
 49
-0.018182
  0
LTYPE
  2
LTYPE10
 70
64
  3
CUSTOM
 72
65
 73
6
 40
0.181818
 49
0.109091
 49
-0.018182
 49
0.009091
 49
-0.018182
 49
0.009091
 49
-0.018182
  0
LTYPE
  2
LTYPE11
 70
64
  3
CUSTOM
 72
65
 73
6
 40
0.327273
 49
0.218182
 49
-0.027273
 49
0.018182
 49
-0.018182
 49
0.018182
 49
-0.027273
  0
LTYPE
  2
LTYPE12
 70
64
  3
CUSTOM
 72
65
 73
6
 40
0.563636
 49
0.436364
 49
-0.036364
 49
0.018182
 49
-0.018182
 49
0.018182
 49
-0.036364
  0
LTYPE
  2
LTYPE13
 70
64
  3
CUSTOM
 72
65
 73
8
 40
0.209091
 49
0.109091
 49
-0.018182
 49
0.009091
 49
-0.018182
 49
0.009091
 49
-0.018182
 49
0.009091
 49
-0.018182
  0
LTYPE
  2
LTYPE14
 70
64
  3
CUSTOM
 72
65
 73
8
 40
0.363636
 49
0.218182
 49
-0.027273
 49
0.018182
 49
-0.018182
 49
0.018182
 49
-0.018182
 49
0.018182
 49
-0.027273
  0
LTYPE
  2
LTYPE15
 70
64
  3
CUSTOM
 72
65
 73
8
 40
0.618182
 49
0.436364
 49
-0.036364
 49
0.018182
 49
-0.027273
 49
0.018182
 49
-0.027273
 49
0.018182
 49
-0.036364
  0
ENDTAB
  0
TABLE
  2
LAYER
 70
1
  0
LAYER
  2
LAYER-1
 70
0
 62
7
  6
CONTINUOUS
  0
ENDTAB
  0
ENDSEC
  0
SECTION
  2
BLOCKS
  0
ENDSEC
  0
SECTION
  2
ENTITIES
  0
TEXT
  8
LAYER-1
 62
  7
 10
1.733513
 20
8.792987
 30
0.000000
 40
0.122727
  1
METRIC
 72
  5
 11
2.406241
 21
8.792987
 31
0.000000
  0
ARC
  8
LAYER-1
 62
  7
 10
5.398005
 20
9.215917
 30
0.000000
 40
0.254425
 50
270.000000
 51
90.000000
  0
POLYLINE
  8
LAYER-1
 66
  1
 70
  0
 62
  7
 10
5.398005
 20
9.470342
 30
0.000000
  0
VERTEX
  8
LAYER-1
 10
5.398005
 20
9.470342
 30
0.000000
  0
VERTEX
  8
LAYER-1
 10
1.733083
 20
9.470342
 30
0.000000
  0
SEQEND
  8
LAYER-1
  0
POLYLINE
  8
LAYER-1
 66
  1
 70
  0
 62
  7
 10
1.733083
 20
9.470342
 30
0.000000
  0
VERTEX
  8
LAYER-1
 10
1.733083
 20
9.470342
 30
0.000000
  0
VERTEX
  8
LAYER-1
 10
1.733083
 20
8.961493
 30
0.000000
  0
SEQEND
  8
LAYER-1
  0
POLYLINE
  8
LAYER-1
 66
  1
 70
  0
 62
  7
 10
5.398005
 20
8.961493
 30
0.000000
  0
VERTEX
  8
LAYER-1
 10
5.398005
 20
8.961493
 30
0.000000
  0
VERTEX
  8
LAYER-1
 10
1.733083
 20
8.961493
 30
0.000000
  0
SEQEND
  8
LAYER-1
  0
TEXT
  8
LAYER-1
 62
  7
 10
3.524422
 20
9.765714
 30
0.000000
 40
0.340909
  1
MobilFlex
 72
  5
 11
5.733513
 21
9.765714
 31
0.000000
  0
POLYLINE
  8
LAYER-1
 66
  1
 70
  1
 62
  7
  0
VERTEX
  8
LAYER-1
 10
1.734586
 20
10.277558
 30
0.000000
  0
VERTEX
  8
LAYER-1
 10
1.972433
 20
10.277558
 30
0.000000
  0
VERTEX
  8
LAYER-1
 10
1.972433
 20
9.760613
 30
0.000000
  0
VERTEX
  8
LAYER-1
 10
1.734586
 20
9.760613
 30
0.000000
  0
SEQEND
  8
LAYER-1
  0
POLYLINE
  8
LAYER-1
 66
  1
 70
  1
 62
  7
  0
VERTEX
  8
LAYER-1
 10
2.047086
 20
10.277558
 30
0.000000
  0
VERTEX
  8
LAYER-1
 10
2.284933
 20
10.277558
 30
0.000000
  0
VERTEX
  8
LAYER-1
 10
2.284933
 20
9.760613
 30
0.000000
  0
VERTEX
  8
LAYER-1
 10
2.047086
 20
9.760613
 30
0.000000
  0
SEQEND
  8
LAYER-1
  0
POLYLINE
  8
LAYER-1
 66
  1
 70
  1
 62
  7
  0
VERTEX
  8
LAYER-1
 10
2.347433
 20
10.277558
 30
0.000000
  0
VERTEX
  8
LAYER-1
 10
2.585281
 20
10.277558
 30
0.000000
  0
VERTEX
  8
LAYER-1
 10
2.585281
 20
9.760613
 30
0.000000
  0
VERTEX
  8
LAYER-1
 10
2.347433
 20
9.760613
 30
0.000000
  0
SEQEND
  8
LAYER-1
  0
POLYLINE
  8
LAYER-1
 66
  1
 70
  1
 62
  7
  0
VERTEX
  8
LAYER-1
 10
2.651253
 20
10.277558
 30
0.000000
  0
VERTEX
  8
LAYER-1
 10
2.889100
 20
10.277558
 30
0.000000
  0
VERTEX
  8
LAYER-1
 10
2.889100
 20
9.760613
 30
0.000000
  0
VERTEX
  8
LAYER-1
 10
2.651253
 20
9.760613
 30
0.000000
  0
SEQEND
  8
LAYER-1
  0
POLYLINE
  8
LAYER-1
 66
  1
 70
  1
 62
  7
  0
VERTEX
  8
LAYER-1
 10
2.968093
 20
10.273643
 30
0.000000
  0
VERTEX
  8
LAYER-1
 10
3.343527
 20
10.273643
 30
0.000000
  0
VERTEX
  8
LAYER-1
 10
3.343527
 20
10.135622
 30
0.000000
  0
VERTEX
  8
LAYER-1
 10
2.968093
 20
10.135622
 30
0.000000
  0
SEQEND
  8
LAYER-1
  0
POLYLINE
  8
LAYER-1
 66
  1
 70
  1
 62
  7
  0
VERTEX
  8
LAYER-1
 10
2.967659
 20
10.046212
 30
0.000000
  0
VERTEX
  8
LAYER-1
 10
3.275819
 20
10.046212
 30
0.000000
  0
VERTEX
  8
LAYER-1
 10
3.275819
 20
9.912097
 30
0.000000
  0
VERTEX
  8
LAYER-1
 10
2.967659
 20
9.912097
 30
0.000000
  0
SEQEND
  8
LAYER-1
  0
POLYLINE
  8
LAYER-1
 66
  1
 70
  1
 62
  7
  0
VERTEX
  8
LAYER-1
 10
1.734586
 20
9.675987
 30
0.000000
  0
VERTEX
  8
LAYER-1
 10
5.652989
 20
9.675987
 30
0.000000
  0
VERTEX
  8
LAYER-1
 10
5.652989
 20
9.632584
 30
0.000000
  0
VERTEX
  8
LAYER-1
 10
1.734586
 20
9.632584
 30
0.000000
  0
SEQEND
  8
LAYER-1
  0
TEXT
  8
LAYER-1
 62
  7
 10
1.951695
 20
9.111168
 30
0.000000
 40
0.190909
  1
End plate details & Pack-off
 72
  5
 11
5.178968
 21
9.111168
 31
0.000000
  0
POLYLINE
  8
LAYER-1
 66
  1
 70
  1
 62
  7
  0
VERTEX
  8
LAYER-1
 10
0.070492
 20
1.274650
 30
0.000000
  0
VERTEX
  8
LAYER-1
 10
1.731114
 20
1.274650
 30
0.000000
  0
VERTEX
  8
LAYER-1
 10
1.731114
 20
1.237975
 30
0.000000
  0
VERTEX
  8
LAYER-1
 10
0.070492
 20
1.237975
 30
0.000000
  0
SEQEND
  8
LAYER-1
  0
POLYLINE
  8
LAYER-1
 66
  1
 70
  1
 62
  7
  0
VERTEX
  8
LAYER-1
 10
0.070057
 20
2.686775
 30
0.000000
  0
VERTEX
  8
LAYER-1
 10
1.725631
 20
2.686775
 30
0.000000
  0
VERTEX
  8
LAYER-1
 10
1.725631
 20
2.411627
 30
0.000000
  0
VERTEX
  8
LAYER-1
 10
0.070057
 20
2.411627
 30
0.000000
  0
SEQEND
  8
LAYER-1
  0
POLYLINE
  8
LAYER-1
 66
  1
 70
  1
 62
  7
 10
0.120495
 20
2.585808
 30
0.000000
  0
VERTEX
  8
LAYER-1
 10
0.120495
 20
2.585808
 30
0.000000
  0
VERTEX
  8
LAYER-1
 10
0.096607
 20
2.581910
 30
0.000000
  0
VERTEX
  8
LAYER-1
 10
0.125110
 20
2.558530
 30
0.000000
  0
SEQEND
  8
LAYER-1
  0
POLYLINE
  8
LAYER-1
 66
  1
 70
  1
 62
  7
 10
0.154480
 20
2.642791
 30
0.000000
  0
VERTEX
  8
LAYER-1
 10
0.154480
 20
2.642791
 30
0.000000
  0
VERTEX
  8
LAYER-1
 10
0.147212
 20
2.627274
 30
0.000000
  0
VERTEX
  8
LAYER-1
 10
0.159325
 20
2.614148
 30
0.000000
  0
SEQEND
  8
LAYER-1
  0
POLYLINE
  8
LAYER-1
 66
  1
 70
  1
 62
  7
 10
0.304308
 20
2.626385
 30
0.000000
  0
VERTEX
  8
LAYER-1
 10
0.304308
 20
2.626385
 30
0.000000
  0
VERTEX
  8
LAYER-1
 10
0.297043
 20
2.610872
 30
0.000000
  0
VERTEX
  8
LAYER-1
 10
0.309157
 20
2.597742
 30
0.000000
  0
SEQEND
  8
LAYER-1
  0
POLYLINE
  8
LAYER-1
 66
  1
 70
  1
 62
  7
 10
0.349438
 20
2.633637
 30
0.000000
  0
VERTEX
  8
LAYER-1
 10
0.349438
 20
2.633637
 30
0.000000
  0
VERTEX
  8
LAYER-1
 10
0.373507
 20
2.625859
 30
0.000000
  0
VERTEX
  8
LAYER-1
 10
0.378583
 20
2.654275
 30
0.000000
  0
SEQEND
  8
LAYER-1
  0
POLYLINE
  8
LAYER-1
 66
  1
 70
  1
 62
  7
 10
0.451031
 20
2.614494
 30
0.000000
  0
VERTEX
  8
LAYER-1
 10
0.451031
 20
2.614494
 30
0.000000
  0
VERTEX
  8
LAYER-1
 10
0.457032
 20
2.597443
 30
0.000000
  0
VERTEX
  8
LAYER-1
 10
0.462107
 20
2.625859
 30
0.000000
  0
SEQEND
  8
LAYER-1
  0
POLYLINE
  8
LAYER-1
 66
  1
 70
  1
 62
  7
 10
0.375238
 20
2.535454
 30
0.000000
  0
VERTEX
  8
LAYER-1
 10
0.375238
 20
2.535454
 30
0.000000
  0
VERTEX
  8
LAYER-1
 10
0.364307
 20
2.543466
 30
0.000000
  0
VERTEX
  8
LAYER-1
 10
0.346199
 20
2.533228
 30
0.000000
  0
SEQEND
  8
LAYER-1
  0
POLYLINE
  8
LAYER-1
 66
  1
 70
  1
 62
  7
 10
0.472992
 20
2.454396
 30
0.000000
  0
VERTEX
  8
LAYER-1
 10
0.472992
 20
2.454396
 30
0.000000
  0
VERTEX
  8
LAYER-1
 10
0.479911
 20
2.469171
 30
0.000000
  0
VERTEX
  8
LAYER-1
 10
0.468375
 20
2.481674
 30
0.000000
  0
SEQEND
  8
LAYER-1
  0
POLYLINE
  8
LAYER-1
 66
  1
 70
  1
 62
  7
 10
0.356911
 20
2.456495
 30
0.000000
  0
VERTEX
  8
LAYER-1
 10
0.356911
 20
2.456495
 30
0.000000
  0
VERTEX
  8
LAYER-1
 10
0.337570
 20
2.468796
 30
0.000000
  0
VERTEX
  8
LAYER-1
 10
0.294063
 20
2.452830
 30
0.000000
  0
SEQEND
  8
LAYER-1
  0
POLYLINE
  8
LAYER-1
 66
  1
 70
  1
 62
  7
 10
0.178331
 20
2.488681
 30
0.000000
  0
VERTEX
  8
LAYER-1
 10
0.178331
 20
2.488681
 30
0.000000
  0
VERTEX
  8
LAYER-1
 10
0.184631
 20
2.470778
 30
0.000000
  0
VERTEX
  8
LAYER-1
 10
0.189961
 20
2.500613
 30
0.000000
  0
SEQEND
  8
LAYER-1
  0
POLYLINE
  8
LAYER-1
 66
  1
 70
  1
 62
  7
 10
0.239028
 20
2.503364
 30
0.000000
  0
VERTEX
  8
LAYER-1
 10
0.239028
 20
2.503364
 30
0.000000
  0
VERTEX
  8
LAYER-1
 10
0.254437
 20
2.518414
 30
0.000000
  0
VERTEX
  8
LAYER-1
 10
0.230046
 20
2.553397
 30
0.000000
  0
SEQEND
  8
LAYER-1
  0
POLYLINE
  8
LAYER-1
 66
  1
 70
  1
 62
  7
 10
0.260857
 20
2.647190
 30
0.000000
  0
VERTEX
  8
LAYER-1
 10
0.260857
 20
2.647190
 30
0.000000
  0
VERTEX
  8
LAYER-1
 10
0.216690
 20
2.637756
 30
0.000000
  0
VERTEX
  8
LAYER-1
 10
0.239004
 20
2.629450
 30
0.000000
  0
SEQEND
  8
LAYER-1
  0
POLYLINE
  8
LAYER-1
 66
  1
 70
  1
 62
  7
 10
0.508532
 20
2.559476
 30
0.000000
  0
VERTEX
  8
LAYER-1
 10
0.508532
 20
2.559476
 30
0.000000
  0
VERTEX
  8
LAYER-1
 10
0.501263
 20
2.543963
 30
0.000000
  0
VERTEX
  8
LAYER-1
 10
0.513377
 20
2.530833
 30
0.000000
  0
SEQEND
  8
LAYER-1
  0
POLYLINE
  8
LAYER-1
 66
  1
 70
  1
 62
  7
 10
0.608212
 20
2.658741
 30
0.000000
  0
VERTEX
  8
LAYER-1
 10
0.608212
 20
2.658741
 30
0.000000
  0
VERTEX
  8
LAYER-1
 10
0.584326
 20
2.654841
 30
0.000000
  0
VERTEX
  8
LAYER-1
 10
0.612830
 20
2.631461
 30
0.000000
  0
SEQEND
  8
LAYER-1
  0
POLYLINE
  8
LAYER-1
 66
  1
 70
  1
 62
  7
 10
0.687640
 20
2.645177
 30
0.000000
  0
VERTEX
  8
LAYER-1
 10
0.687640
 20
2.645177
 30
0.000000
  0
VERTEX
  8
LAYER-1
 10
0.680370
 20
2.629660
 30
0.000000
  0
VERTEX
  8
LAYER-1
 10
0.692486
 20
2.616534
 30
0.000000
  0
SEQEND
  8
LAYER-1
  0
POLYLINE
  8
LAYER-1
 66
  1
 70
  1
 62
  7
 10
0.790032
 20
2.653547
 30
0.000000
  0
VERTEX
  8
LAYER-1
 10
0.790032
 20
2.653547
 30
0.000000
  0
VERTEX
  8
LAYER-1
 10
0.805548
 20
2.646280
 30
0.000000
  0
VERTEX
  8
LAYER-1
 10
0.818676
 20
2.658395
 30
0.000000
  0
SEQEND
  8
LAYER-1
  0
POLYLINE
  8
LAYER-1
 66
  1
 70
  1
 62
  7
 10
0.762679
 20
2.575752
 30
0.000000
  0
VERTEX
  8
LAYER-1
 10
0.762679
 20
2.575752
 30
0.000000
  0
VERTEX
  8
LAYER-1
 10
0.786744
 20
2.567973
 30
0.000000
  0
VERTEX
  8
LAYER-1
 10
0.791822
 20
2.596391
 30
0.000000
  0
SEQEND
  8
LAYER-1
  0
POLYLINE
  8
LAYER-1
 66
  1
 70
  1
 62
  7
 10
0.901495
 20
2.528434
 30
0.000000
  0
VERTEX
  8
LAYER-1
 10
0.901495
 20
2.528434
 30
0.000000
  0
VERTEX
  8
LAYER-1
 10
0.882156
 20
2.540733
 30
0.000000
  0
VERTEX
  8
LAYER-1
 10
0.838648
 20
2.524766
 30
0.000000
  0
SEQEND
  8
LAYER-1
  0
POLYLINE
  8
LAYER-1
 66
  1
 70
  1
 62
  7
 10
0.801787
 20
2.456781
 30
0.000000
  0
VERTEX
  8
LAYER-1
 10
0.801787
 20
2.456781
 30
0.000000
  0
VERTEX
  8
LAYER-1
 10
0.795488
 20
2.474684
 30
0.000000
  0
VERTEX
  8
LAYER-1
 10
0.790160
 20
2.444849
 30
0.000000
  0
SEQEND
  8
LAYER-1
  0
POLYLINE
  8
LAYER-1
 66
  1
 70
  1
 62
  7
 10
0.617398
 20
2.468990
 30
0.000000
  0
VERTEX
  8
LAYER-1
 10
0.617398
 20
2.468990
 30
0.000000
  0
VERTEX
  8
LAYER-1
 10
0.605917
 20
2.477404
 30
0.000000
  0
VERTEX
  8
LAYER-1
 10
0.586906
 20
2.466653
 30
0.000000
  0
SEQEND
  8
LAYER-1
  0
POLYLINE
  8
LAYER-1
 66
  1
 70
  1
 62
  7
 10
0.666591
 20
2.429247
 30
0.000000
  0
VERTEX
  8
LAYER-1
 10
0.666591
 20
2.429247
 30
0.000000
  0
VERTEX
  8
LAYER-1
 10
0.682000
 20
2.444297
 30
0.000000
  0
VERTEX
  8
LAYER-1
 10
0.657610
 20
2.479282
 30
0.000000
  0
SEQEND
  8
LAYER-1
  0
POLYLINE
  8
LAYER-1
 66
  1
 70
  1
 62
  7
 10
0.651615
 20
2.568849
 30
0.000000
  0
VERTEX
  8
LAYER-1
 10
0.651615
 20
2.568849
 30
0.000000
  0
VERTEX
  8
LAYER-1
 10
0.579829
 20
2.564857
 30
0.000000
  0
VERTEX
  8
LAYER-1
 10
0.601385
 20
2.547905
 30
0.000000
  0
SEQEND
  8
LAYER-1
  0
POLYLINE
  8
LAYER-1
 66
  1
 70
  1
 62
  7
 10
0.949152
 20
2.590009
 30
0.000000
  0
VERTEX
  8
LAYER-1
 10
0.949152
 20
2.590009
 30
0.000000
  0
VERTEX
  8
LAYER-1
 10
0.955452
 20
2.572107
 30
0.000000
  0
VERTEX
  8
LAYER-1
 10
0.960782
 20
2.601945
 30
0.000000
  0
SEQEND
  8
LAYER-1
  0
POLYLINE
  8
LAYER-1
 66
  1
 70
  1
 62
  7
 10
1.014233
 20
2.651773
 30
0.000000
  0
VERTEX
  8
LAYER-1
 10
1.014233
 20
2.651773
 30
0.000000
  0
VERTEX
  8
LAYER-1
 10
0.990345
 20
2.647872
 30
0.000000
  0
VERTEX
  8
LAYER-1
 10
1.018848
 20
2.624494
 30
0.000000
  0
SEQEND
  8
LAYER-1
  0
POLYLINE
  8
LAYER-1
 66
  1
 70
  1
 62
  7
 10
1.218099
 20
2.621690
 30
0.000000
  0
VERTEX
  8
LAYER-1
 10
1.218099
 20
2.621690
 30
0.000000
  0
VERTEX
  8
LAYER-1
 10
1.210832
 20
2.606174
 30
0.000000
  0
VERTEX
  8
LAYER-1
 10
1.222947
 20
2.593046
 30
0.000000
  0
SEQEND
  8
LAYER-1
  0
POLYLINE
  8
LAYER-1
 66
  1
 70
  1
 62
  7
 10
1.263229
 20
2.628938
 30
0.000000
  0
VERTEX
  8
LAYER-1
 10
1.263229
 20
2.628938
 30
0.000000
  0
VERTEX
  8
LAYER-1
 10
1.287296
 20
2.621163
 30
0.000000
  0
VERTEX
  8
LAYER-1
 10
1.292373
 20
2.649579
 30
0.000000
  0
SEQEND
  8
LAYER-1
  0
POLYLINE
  8
LAYER-1
 66
  1
 70
  1
 62
  7
 10
1.364821
 20
2.609798
 30
0.000000
  0
VERTEX
  8
LAYER-1
 10
1.364821
 20
2.609798
 30
0.000000
  0
VERTEX
  8
LAYER-1
 10
1.407975
 20
2.574457
 30
0.000000
  0
VERTEX
  8
LAYER-1
 10
1.416569
 20
2.586870
 30
0.000000
  0
SEQEND
  8
LAYER-1
  0
POLYLINE
  8
LAYER-1
 66
  1
 70
  1
 62
  7
 10
1.341326
 20
2.479818
 30
0.000000
  0
VERTEX
  8
LAYER-1
 10
1.341326
 20
2.479818
 30
0.000000
  0
VERTEX
  8
LAYER-1
 10
1.335327
 20
2.496868
 30
0.000000
  0
VERTEX
  8
LAYER-1
 10
1.330250
 20
2.468454
 30
0.000000
  0
SEQEND
  8
LAYER-1
  0
POLYLINE
  8
LAYER-1
 66
  1
 70
  1
 62
  7
 10
1.226951
 20
2.499583
 30
0.000000
  0
VERTEX
  8
LAYER-1
 10
1.226951
 20
2.499583
 30
0.000000
  0
VERTEX
  8
LAYER-1
 10
1.246290
 20
2.487281
 30
0.000000
  0
VERTEX
  8
LAYER-1
 10
1.289798
 20
2.503249
 30
0.000000
  0
SEQEND
  8
LAYER-1
  0
POLYLINE
  8
LAYER-1
 66
  1
 70
  1
 62
  7
 10
1.182420
 20
2.449701
 30
0.000000
  0
VERTEX
  8
LAYER-1
 10
1.182420
 20
2.449701
 30
0.000000
  0
VERTEX
  8
LAYER-1
 10
1.176121
 20
2.467602
 30
0.000000
  0
VERTEX
  8
LAYER-1
 10
1.170791
 20
2.437767
 30
0.000000
  0
SEQEND
  8
LAYER-1
  0
POLYLINE
  8
LAYER-1
 66
  1
 70
  1
 62
  7
 10
0.930883
 20
2.489359
 30
0.000000
  0
VERTEX
  8
LAYER-1
 10
0.930883
 20
2.489359
 30
0.000000
  0
VERTEX
  8
LAYER-1
 10
0.941872
 20
2.457087
 30
0.000000
  0
VERTEX
  8
LAYER-1
 10
0.954917
 20
2.499963
 30
0.000000
  0
SEQEND
  8
LAYER-1
  0
POLYLINE
  8
LAYER-1
 66
  1
 70
  1
 62
  7
 10
0.998029
 20
2.461908
 30
0.000000
  0
VERTEX
  8
LAYER-1
 10
0.998029
 20
2.461908
 30
0.000000
  0
VERTEX
  8
LAYER-1
 10
0.986548
 20
2.470324
 30
0.000000
  0
VERTEX
  8
LAYER-1
 10
0.967536
 20
2.459570
 30
0.000000
  0
SEQEND
  8
LAYER-1
  0
POLYLINE
  8
LAYER-1
 66
  1
 70
  1
 62
  7
 10
1.117865
 20
2.529610
 30
0.000000
  0
VERTEX
  8
LAYER-1
 10
1.117865
 20
2.529610
 30
0.000000
  0
VERTEX
  8
LAYER-1
 10
1.135771
 20
2.535910
 30
0.000000
  0
VERTEX
  8
LAYER-1
 10
1.105933
 20
2.541240
 30
0.000000
  0
SEQEND
  8
LAYER-1
  0
POLYLINE
  8
LAYER-1
 66
  1
 70
  1
 62
  7
 10
1.072610
 20
2.422281
 30
0.000000
  0
VERTEX
  8
LAYER-1
 10
1.072610
 20
2.422281
 30
0.000000
  0
VERTEX
  8
LAYER-1
 10
1.088017
 20
2.437329
 30
0.000000
  0
VERTEX
  8
LAYER-1
 10
1.063628
 20
2.472312
 30
0.000000
  0
SEQEND
  8
LAYER-1
  0
POLYLINE
  8
LAYER-1
 66
  1
 70
  1
 62
  7
 10
1.174648
 20
2.642493
 30
0.000000
  0
VERTEX
  8
LAYER-1
 10
1.174648
 20
2.642493
 30
0.000000
  0
VERTEX
  8
LAYER-1
 10
1.130481
 20
2.633060
 30
0.000000
  0
VERTEX
  8
LAYER-1
 10
1.152796
 20
2.624752
 30
0.000000
  0
SEQEND
  8
LAYER-1
  0
POLYLINE
  8
LAYER-1
 66
  1
 70
  1
 62
  7
 10
1.477183
 20
2.600007
 30
0.000000
  0
VERTEX
  8
LAYER-1
 10
1.477183
 20
2.600007
 30
0.000000
  0
VERTEX
  8
LAYER-1
 10
1.505420
 20
2.559832
 30
0.000000
  0
VERTEX
  8
LAYER-1
 10
1.482029
 20
2.571364
 30
0.000000
  0
SEQEND
  8
LAYER-1
  0
POLYLINE
  8
LAYER-1
 66
  1
 70
  1
 62
  7
 10
1.522002
 20
2.654045
 30
0.000000
  0
VERTEX
  8
LAYER-1
 10
1.522002
 20
2.654045
 30
0.000000
  0
VERTEX
  8
LAYER-1
 10
1.498116
 20
2.650144
 30
0.000000
  0
VERTEX
  8
LAYER-1
 10
1.526619
 20
2.626764
 30
0.000000
  0
SEQEND
  8
LAYER-1
  0
POLYLINE
  8
LAYER-1
 66
  1
 70
  1
 62
  7
 10
1.585896
 20
2.627370
 30
0.000000
  0
VERTEX
  8
LAYER-1
 10
1.585896
 20
2.627370
 30
0.000000
  0
VERTEX
  8
LAYER-1
 10
1.601414
 20
2.620102
 30
0.000000
  0
VERTEX
  8
LAYER-1
 10
1.614539
 20
2.632218
 30
0.000000
  0
SEQEND
  8
LAYER-1
  0
POLYLINE
  8
LAYER-1
 66
  1
 70
  1
 62
  7
 10
1.512904
 20
2.452085
 30
0.000000
  0
VERTEX
  8
LAYER-1
 10
1.512904
 20
2.452085
 30
0.000000
  0
VERTEX
  8
LAYER-1
 10
1.521319
 20
2.463565
 30
0.000000
  0
VERTEX
  8
LAYER-1
 10
1.510567
 20
2.482577
 30
0.000000
  0
SEQEND
  8
LAYER-1
  0
POLYLINE
  8
LAYER-1
 66
  1
 70
  1
 62
  7
 10
1.603838
 20
2.509371
 30
0.000000
  0
VERTEX
  8
LAYER-1
 10
1.603838
 20
2.509371
 30
0.000000
  0
VERTEX
  8
LAYER-1
 10
1.588787
 20
2.524781
 30
0.000000
  0
VERTEX
  8
LAYER-1
 10
1.553805
 20
2.500392
 30
0.000000
  0
SEQEND
  8
LAYER-1
  0
POLYLINE
  8
LAYER-1
 66
  1
 70
  1
 62
  7
 10
1.715579
 20
2.452085
 30
0.000000
  0
VERTEX
  8
LAYER-1
 10
1.715579
 20
2.452085
 30
0.000000
  0
VERTEX
  8
LAYER-1
 10
1.709279
 20
2.469986
 30
0.000000
  0
VERTEX
  8
LAYER-1
 10
1.703951
 20
2.440153
 30
0.000000
  0
SEQEND
  8
LAYER-1
  0
POLYLINE
  8
LAYER-1
 66
  1
 70
  1
 62
  7
 10
1.414350
 20
2.477744
 30
0.000000
  0
VERTEX
  8
LAYER-1
 10
1.414350
 20
2.477744
 30
0.000000
  0
VERTEX
  8
LAYER-1
 10
1.425339
 20
2.445470
 30
0.000000
  0
VERTEX
  8
LAYER-1
 10
1.438381
 20
2.488346
 30
0.000000
  0
SEQEND
  8
LAYER-1
  0
POLYLINE
  8
LAYER-1
 66
  1
 70
  1
 62
  7
 10
1.681391
 20
2.539751
 30
0.000000
  0
VERTEX
  8
LAYER-1
 10
1.681391
 20
2.539751
 30
0.000000
  0
VERTEX
  8
LAYER-1
 10
1.677398
 20
2.611537
 30
0.000000
  0
VERTEX
  8
LAYER-1
 10
1.660447
 20
2.589980
 30
0.000000
  0
SEQEND
  8
LAYER-1
  0
POLYLINE
  8
LAYER-1
 66
  1
 70
  1
 62
  7
  0
VERTEX
  8
LAYER-1
 10
0.790331
 20
6.249040
 30
0.000000
  0
VERTEX
  8
LAYER-1
 10
0.858813
 20
6.249040
 30
0.000000
  0
VERTEX
  8
LAYER-1
 10
0.858813
 20
2.686125
 30
0.000000
  0
VERTEX
  8
LAYER-1
 10
0.790331
 20
2.686125
 30
0.000000
  0
SEQEND
  8
LAYER-1
  0
POLYLINE
  8
LAYER-1
 66
  1
 70
  1
 62
  7
  0
VERTEX
  8
LAYER-1
 10
0.917001
 20
6.249040
 30
0.000000
  0
VERTEX
  8
LAYER-1
 10
0.934015
 20
6.249040
 30
0.000000
  0
VERTEX
  8
LAYER-1
 10
0.934015
 20
2.687621
 30
0.000000
  0
VERTEX
  8
LAYER-1
 10
0.917001
 20
2.687621
 30
0.000000
  0
SEQEND
  8
LAYER-1
  0
LINE
  8
LAYER-1
 62
  7
 10
0.246439
 20
6.268601
 30
0.000000
 11
0.246439
 21
7.013642
 31
0.000000
  0
LINE
  8
LAYER-1
 62
  7
 10
0.727831
 20
6.248916
 30
0.000000
 11
0.121439
 21
6.248916
 31
0.000000
  0
LINE
  8
LAYER-1
 62
  7
 10
0.727508
 20
7.033327
 30
0.000000
 11
0.121439
 21
7.033327
 31
0.000000
  0
POLYLINE
  8
LAYER-1
 66
  1
 70
  1
 62
  7
  0
VERTEX
  8
LAYER-1
 10
0.246439
 20
6.248916
 30
0.000000
  0
VERTEX
  8
LAYER-1
 10
0.273712
 20
6.294371
 30
0.000000
  0
VERTEX
  8
LAYER-1
 10
0.246439
 20
6.294371
 30
0.000000
  0
VERTEX
  8
LAYER-1
 10
0.219166
 20
6.294371
 30
0.000000
  0
VERTEX
  8
LAYER-1
 10
0.246439
 20
6.248916
 30
0.000000
  0
SEQEND
  8
LAYER-1
  0
POLYLINE
  8
LAYER-1
 66
  1
 70
  1
 62
  7
  0
VERTEX
  8
LAYER-1
 10
0.246439
 20
7.033327
 30
0.000000
  0
VERTEX
  8
LAYER-1
 10
0.273711
 20
6.987872
 30
0.000000
  0
VERTEX
  8
LAYER-1
 10
0.246439
 20
6.987872
 30
0.000000
  0
VERTEX
  8
LAYER-1
 10
0.219166
 20
6.987872
 30
0.000000
  0
VERTEX
  8
LAYER-1
 10
0.246439
 20
7.033327
 30
0.000000
  0
SEQEND
  8
LAYER-1
  0
TEXT
  8
LAYER-1
 62
  7
 10
0.147485
 20
6.553369
 30
0.000000
 40
0.095455
  1
"Y"
 50
90.000000
  0
LINE
  8
LAYER-1
 62
  7
 10
0.246367
 20
2.706298
 30
0.000000
 11
0.246367
 21
6.229231
 31
0.000000
  0
LINE
  8
LAYER-1
 62
  7
 10
0.132557
 20
2.686613
 30
0.000000
 11
0.371367
 21
2.686613
 31
0.000000
  0
LINE
  8
LAYER-1
 62
  7
 10
0.727831
 20
6.248916
 30
0.000000
 11
0.121367
 21
6.248916
 31
0.000000
  0
LINE
  8
LAYER-1
 62
  7
 10
0.246367
 20
5.392376
 30
0.000000
 11
0.246367
 21
2.686613
 31
0.000000
  0
POLYLINE
  8
LAYER-1
 66
  1
 70
  1
 62
  7
  0
VERTEX
  8
LAYER-1
 10
0.246367
 20
2.686613
 30
0.000000
  0
VERTEX
  8
LAYER-1
 10
0.273640
 20
2.732068
 30
0.000000
  0
VERTEX
  8
LAYER-1
 10
0.246367
 20
2.732068
 30
0.000000
  0
VERTEX
  8
LAYER-1
 10
0.219095
 20
2.732068
 30
0.000000
  0
VERTEX
  8
LAYER-1
 10
0.246367
 20
2.686613
 30
0.000000
  0
SEQEND
  8
LAYER-1
  0
POLYLINE
  8
LAYER-1
 66
  1
 70
  1
 62
  7
  0
VERTEX
  8
LAYER-1
 10
0.246367
 20
6.248916
 30
0.000000
  0
VERTEX
  8
LAYER-1
 10
0.273640
 20
6.203462
 30
0.000000
  0
VERTEX
  8
LAYER-1
 10
0.246367
 20
6.203462
 30
0.000000
  0
VERTEX
  8
LAYER-1
 10
0.219094
 20
6.203462
 30
0.000000
  0
VERTEX
  8
LAYER-1
 10
0.246367
 20
6.248916
 30
0.000000
  0
SEQEND
  8
LAYER-1
  0
TEXT
  8
LAYER-1
 62
  7
 10
0.152817
 20
5.200863
 30
0.000000
 40
0.081818
  1
 
 50
90.000000
  0
POLYLINE
  8
LAYER-1
 66
  1
 70
  1
 62
  7
  0
VERTEX
  8
LAYER-1
 10
0.790331
 20
7.033436
 30
0.000000
  0
VERTEX
  8
LAYER-1
 10
1.476786
 20
7.033436
 30
0.000000
  0
VERTEX
  8
LAYER-1
 10
1.476786
 20
6.248916
 30
0.000000
  0
VERTEX
  8
LAYER-1
 10
0.790331
 20
6.248916
 30
0.000000
  0
SEQEND
  8
LAYER-1
  0
CIRCLE
  8
LAYER-1
 62
  7
 10
0.863881
 20
6.959889
 30
0.000000
 40
0.013790
  0
CIRCLE
  8
LAYER-1
 62
  7
 10
0.839367
 20
6.641179
 30
0.000000
 40
0.009806
  0
CIRCLE
  8
LAYER-1
 62
  7
 10
0.839367
 20
6.297948
 30
0.000000
 40
0.009806
  0
CIRCLE
  8
LAYER-1
 62
  7
 10
1.134684
 20
6.665046
 30
0.000000
 40
0.159301
  0
POLYLINE
  8
LAYER-1
  6
LTYPE02
 66
  1
 70
  0
 62
  7
  6
LTYPE02
 10
0.890419
 20
6.240537
 30
0.000000
  0
VERTEX
  8
LAYER-1
  6
LTYPE02
 10
0.890419
 20
6.240537
 30
0.000000
  0
VERTEX
  8
LAYER-1
  6
LTYPE02
 10
0.890837
 20
2.854229
 30
0.000000
  0
SEQEND
  8
LAYER-1
  0
POLYLINE
  8
LAYER-1
  6
LTYPE02
 66
  1
 70
  0
 62
  7
  6
LTYPE02
 10
1.251248
 20
6.781608
 30
0.000000
  0
VERTEX
  8
LAYER-1
  6
LTYPE02
 10
1.251248
 20
6.781608
 30
0.000000
  0
VERTEX
  8
LAYER-1
  6
LTYPE02
 10
1.224299
 20
6.804079
 30
0.000000
  0
VERTEX
  8
LAYER-1
  6
LTYPE02
 10
1.195800
 20
6.819313
 30
0.000000
  0
VERTEX
  8
LAYER-1
  6
LTYPE02
 10
1.164876
 20
6.828693
 30
0.000000
  0
VERTEX
  8
LAYER-1
  6
LTYPE02
 10
1.132716
 20
6.831860
 30
0.000000
  0
VERTEX
  8
LAYER-1
  6
LTYPE02
 10
1.100556
 20
6.828693
 30
0.000000
  0
VERTEX
  8
LAYER-1
  6
LTYPE02
 10
1.069632
 20
6.819312
 30
0.000000
  0
VERTEX
  8
LAYER-1
  6
LTYPE02
 10
1.041132
 20
6.804078
 30
0.000000
  0
VERTEX
  8
LAYER-1
  6
LTYPE02
 10
1.016152
 20
6.783578
 30
0.000000
  0
VERTEX
  8
LAYER-1
  6
LTYPE02
 10
0.995651
 20
6.758598
 30
0.000000
  0
VERTEX
  8
LAYER-1
  6
LTYPE02
 10
0.980418
 20
6.730098
 30
0.000000
  0
VERTEX
  8
LAYER-1
  6
LTYPE02
 10
0.974805
 20
6.705202
 30
0.000000
  0
SEQEND
  8
LAYER-1
  0
POLYLINE
  8
LAYER-1
  6
LTYPE02
 66
  1
 70
  0
 62
  7
  6
LTYPE02
 10
0.974805
 20
6.705202
 30
0.000000
  0
VERTEX
  8
LAYER-1
  6
LTYPE02
 10
0.974805
 20
6.705202
 30
0.000000
  0
VERTEX
  8
LAYER-1
  6
LTYPE02
 10
0.926744
 20
6.534141
 30
0.000000
  0
VERTEX
  8
LAYER-1
  6
LTYPE02
 10
0.897833
 20
6.357425
 30
0.000000
  0
VERTEX
  8
LAYER-1
  6
LTYPE02
 10
0.890419
 20
6.240537
 30
0.000000
  0
SEQEND
  8
LAYER-1
  0
POLYLINE
  8
LAYER-1
 66
  1
 70
  1
 62
  7
  0
VERTEX
  8
LAYER-1
 10
0.790008
 20
8.273632
 30
0.000000
  0
VERTEX
  8
LAYER-1
 10
0.934015
 20
8.273632
 30
0.000000
  0
VERTEX
  8
LAYER-1
 10
0.934015
 20
7.033327
 30
0.000000
  0
VERTEX
  8
LAYER-1
 10
0.790008
 20
7.033327
 30
0.000000
  0
SEQEND
  8
LAYER-1
  0
POLYLINE
  8
LAYER-1
 66
  1
 70
  1
 62
  7
  0
VERTEX
  8
LAYER-1
 10
0.059158
 20
8.346953
 30
0.000000
  0
VERTEX
  8
LAYER-1
 10
1.720783
 20
8.346953
 30
0.000000
  0
VERTEX
  8
LAYER-1
 10
1.720783
 20
8.264909
 30
0.000000
  0
VERTEX
  8
LAYER-1
 10
0.059158
 20
8.264909
 30
0.000000
  0
SEQEND
  8
LAYER-1
  0
LINE
  8
LAYER-1
 62
  7
 10
0.790485
 20
4.502998
 30
0.000000
 11
0.890240
 21
4.502998
 31
0.000000
  0
LINE
  8
LAYER-1
 62
  7
 10
0.790485
 20
4.484461
 30
0.000000
 11
0.790485
 21
4.627998
 31
0.000000
  0
LINE
  8
LAYER-1
 62
  7
 10
0.890240
 20
4.477679
 30
0.000000
 11
0.890240
 21
4.627998
 31
0.000000
  0
LINE
  8
LAYER-1
 62
  7
 10
0.890240
 20
4.502998
 30
0.000000
 11
1.730044
 21
4.502998
 31
0.000000
  0
LINE
  8
LAYER-1
 62
  7
 10
0.809769
 20
4.522283
 30
0.000000
 11
0.771200
 21
4.483714
 31
0.000000
  0
LINE
  8
LAYER-1
 62
  7
 10
0.909525
 20
4.522283
 30
0.000000
 11
0.870955
 21
4.483714
 31
0.000000
  0
TEXT
  8
LAYER-1
 62
  7
 10
1.633728
 20
4.579672
 30
0.000000
 40
0.068182
  1
 
  0
TEXT
  8
LAYER-1
 62
  7
 10
0.942604
 20
4.347532
 30
0.000000
 40
0.115909
  1
PACK-OFF
 72
  5
 11
1.742604
 21
4.347532
 31
0.000000
  0
POLYLINE
  8
LAYER-1
  6
LTYPE01
 66
  1
 70
  0
 62
  7
  6
LTYPE01
 10
0.934015
 20
7.033327
 30
0.000000
  0
VERTEX
  8
LAYER-1
  6
LTYPE01
 10
0.934015
 20
7.033327
 30
0.000000
  0
VERTEX
  8
LAYER-1
  6
LTYPE01
 10
0.934015
 20
6.247907
 30
0.000000
  0
SEQEND
  8
LAYER-1
  0
TEXT
  8
LAYER-1
 62
  7
 10
0.178968
 20
3.929350
 30
0.000000
 40
0.122727
  1
BOTTOM OF
 50
90.000000
 72
  5
 11
0.178968
 21
4.947532
 31
0.000000
  0
TEXT
  8
LAYER-1
 62
  7
 10
0.460786
 20
3.802077
 30
0.000000
 40
0.122727
  1
END PLATE  "H"
 50
90.000000
 72
  5
 11
0.460786
 21
5.074805
 31
0.000000
  0
TEXT
  8
LAYER-1
 62
  7
 10
1.024422
 20
7.383896
 30
0.000000
 40
0.122727
  1
"X"
 72
  5
 11
1.288059
 21
7.383896
 31
0.000000
  0
CIRCLE
  8
LAYER-1
 62
253
  6
LTYPE01
 10
1.134701
 20
6.662908
 30
0.000000
 40
0.042413
  0
TEXT
  8
LAYER-1
 62
  7
 10
0.824422
 20
5.047532
 30
0.000000
 40
0.095455
  1
C
 72
  5
 11
0.960786
 21
5.047532
 31
0.000000
  0
TEXT
  8
LAYER-1
 62
  7
 10
0.860786
 20
5.011168
 30
0.000000
 40
0.095455
  1
L
 72
  5
 11
0.978968
 21
5.011168
 31
0.000000
  0
POLYLINE
  8
LAYER-1
 66
  1
 70
  1
 62
  7
 10
0.923347
 20
2.734227
 30
0.000000
  0
VERTEX
  8
LAYER-1
 10
0.923347
 20
2.734227
 30
0.000000
  0
VERTEX
  8
LAYER-1
 10
0.923347
 20
2.854851
 30
0.000000
  0
VERTEX
  8
LAYER-1
 10
0.853034
 20
2.854851
 30
0.000000
  0
VERTEX
  8
LAYER-1
 10
0.853034
 20
2.734227
 30
0.000000
  0
VERTEX
  8
LAYER-1
 10
0.821679
 20
2.716125
 30
0.000000
  0
VERTEX
  8
LAYER-1
 10
0.821679
 20
2.687621
 30
0.000000
  0
VERTEX
  8
LAYER-1
 10
0.954701
 20
2.687621
 30
0.000000
  0
VERTEX
  8
LAYER-1
 10
0.954701
 20
2.716125
 30
0.000000
  0
SEQEND
  8
LAYER-1
  0
LINE
  8
LAYER-1
 62
  7
 10
0.809693
 20
7.347966
 30
0.000000
 11
1.457101
 21
7.347965
 31
0.000000
  0
LINE
  8
LAYER-1
 62
  7
 10
0.790008
 20
7.095827
 30
0.000000
 11
0.790008
 21
7.472966
 31
0.000000
  0
LINE
  8
LAYER-1
 62
  7
 10
1.476786
 20
7.095936
 30
0.000000
 11
1.476786
 21
7.472966
 31
0.000000
  0
POLYLINE
  8
LAYER-1
 66
  1
 70
  1
 62
  7
  0
VERTEX
  8
LAYER-1
 10
0.790008
 20
7.347966
 30
0.000000
  0
VERTEX
  8
LAYER-1
 10
0.835463
 20
7.320693
 30
0.000000
  0
VERTEX
  8
LAYER-1
 10
0.835462
 20
7.347966
 30
0.000000
  0
VERTEX
  8
LAYER-1
 10
0.835462
 20
7.375239
 30
0.000000
  0
VERTEX
  8
LAYER-1
 10
0.790008
 20
7.347966
 30
0.000000
  0
SEQEND
  8
LAYER-1
  0
POLYLINE
  8
LAYER-1
 66
  1
 70
  1
 62
  7
  0
VERTEX
  8
LAYER-1
 10
1.476786
 20
7.347966
 30
0.000000
  0
VERTEX
  8
LAYER-1
 10
1.431332
 20
7.320693
 30
0.000000
  0
VERTEX
  8
LAYER-1
 10
1.431331
 20
7.347965
 30
0.000000
  0
VERTEX
  8
LAYER-1
 10
1.431331
 20
7.375238
 30
0.000000
  0
VERTEX
  8
LAYER-1
 10
1.476786
 20
7.347966
 30
0.000000
  0
SEQEND
  8
LAYER-1
  0
TEXT
  8
LAYER-1
 62
  7
 10
1.141602
 20
7.445814
 30
0.000000
 40
0.095455
  1
 
  0
TEXT
  8
LAYER-1
 62
  7
 10
1.197150
 20
4.574805
 30
0.000000
 40
0.122727
  1
"Z"
 72
  5
 11
1.451695
 21
4.574805
 31
0.000000
  0
POLYLINE
  8
LAYER-1
 66
  1
 70
  0
 62
  7
 40
0.018182
 41
0.018182
 10
1.725631
 20
2.686775
 30
0.000000
  0
VERTEX
  8
LAYER-1
 10
1.725631
 20
2.686775
 30
0.000000
  0
VERTEX
  8
LAYER-1
 10
0.070057
 20
2.686613
 30
0.000000
  0
SEQEND
  8
LAYER-1
  0
POLYLINE
  8
LAYER-1
 66
  1
 70
  0
 62
  7
 10
0.070492
 20
1.305960
 30
0.000000
  0
VERTEX
  8
LAYER-1
 10
0.070492
 20
1.305960
 30
0.000000
  0
VERTEX
  8
LAYER-1
 10
0.070492
 20
1.871686
 30
0.000000
  0
SEQEND
  8
LAYER-1
  0
POLYLINE
  8
LAYER-1
 66
  1
 70
  0
 62
  7
 10
0.101802
 20
1.902995
 30
0.000000
  0
VERTEX
  8
LAYER-1
 10
0.101802
 20
1.902995
 30
0.000000
  0
VERTEX
  8
LAYER-1
 10
0.667099
 20
1.902995
 30
0.000000
  0
SEQEND
  8
LAYER-1
  0
POLYLINE
  8
LAYER-1
 66
  1
 70
  0
 62
  7
 10
0.698409
 20
1.871686
 30
0.000000
  0
VERTEX
  8
LAYER-1
 10
0.698409
 20
1.871686
 30
0.000000
  0
VERTEX
  8
LAYER-1
 10
0.698409
 20
1.305960
 30
0.000000
  0
SEQEND
  8
LAYER-1
  0
POLYLINE
  8
LAYER-1
 66
  1
 70
  0
 62
  7
 10
0.667099
 20
1.274650
 30
0.000000
  0
VERTEX
  8
LAYER-1
 10
0.667099
 20
1.274650
 30
0.000000
  0
VERTEX
  8
LAYER-1
 10
0.101802
 20
1.274650
 30
0.000000
  0
SEQEND
  8
LAYER-1
  0
ARC
  8
LAYER-1
 62
  7
 10
0.101802
 20
1.305960
 30
0.000000
 40
0.031310
 50
180.000000
 51
270.000000
  0
ARC
  8
LAYER-1
 62
  7
 10
0.667099
 20
1.305960
 30
0.000000
 40
0.031310
 50
270.000000
 51
0.000000
  0
ARC
  8
LAYER-1
 62
  7
 10
0.667099
 20
1.871686
 30
0.000000
 40
0.031310
 50
0.000000
 51
90.000000
  0
ARC
  8
LAYER-1
 62
  7
 10
0.101802
 20
1.871686
 30
0.000000
 40
0.031310
 50
90.000000
 51
180.000000
  0
POLYLINE
  8
LAYER-1
 66
  1
 70
  0
 62
  7
 10
0.195733
 20
1.902995
 30
0.000000
  0
VERTEX
  8
LAYER-1
 10
0.195733
 20
1.902995
 30
0.000000
  0
VERTEX
  8
LAYER-1
 10
0.070063
 20
1.777326
 30
0.000000
  0
SEQEND
  8
LAYER-1
  0
POLYLINE
  8
LAYER-1
 66
  1
 70
  0
 62
  7
 10
0.415652
 20
1.902995
 30
0.000000
  0
VERTEX
  8
LAYER-1
 10
0.415652
 20
1.902995
 30
0.000000
  0
VERTEX
  8
LAYER-1
 10
0.070063
 20
1.557404
 30
0.000000
  0
SEQEND
  8
LAYER-1
  0
POLYLINE
  8
LAYER-1
 66
  1
 70
  0
 62
  7
 10
0.478489
 20
1.902995
 30
0.000000
  0
VERTEX
  8
LAYER-1
 10
0.478489
 20
1.902995
 30
0.000000
  0
VERTEX
  8
LAYER-1
 10
0.070063
 20
1.494571
 30
0.000000
  0
SEQEND
  8
LAYER-1
  0
POLYLINE
  8
LAYER-1
 66
  1
 70
  0
 62
  7
 10
0.698409
 20
1.871578
 30
0.000000
  0
VERTEX
  8
LAYER-1
 10
0.698409
 20
1.871578
 30
0.000000
  0
VERTEX
  8
LAYER-1
 10
0.101481
 20
1.274650
 30
0.000000
  0
SEQEND
  8
LAYER-1
  0
POLYLINE
  8
LAYER-1
 66
  1
 70
  0
 62
  7
 10
0.698409
 20
1.777326
 30
0.000000
  0
VERTEX
  8
LAYER-1
 10
0.698409
 20
1.777326
 30
0.000000
  0
VERTEX
  8
LAYER-1
 10
0.195733
 20
1.274650
 30
0.000000
  0
SEQEND
  8
LAYER-1
  0
POLYLINE
  8
LAYER-1
 66
  1
 70
  0
 62
  7
 10
0.698409
 20
1.431734
 30
0.000000
  0
VERTEX
  8
LAYER-1
 10
0.698409
 20
1.431734
 30
0.000000
  0
VERTEX
  8
LAYER-1
 10
0.541322
 20
1.274650
 30
0.000000
  0
SEQEND
  8
LAYER-1
  0
POLYLINE
  8
LAYER-1
 66
  1
 70
  0
 62
  7
 10
0.698409
 20
1.557404
 30
0.000000
  0
VERTEX
  8
LAYER-1
 10
0.698409
 20
1.557404
 30
0.000000
  0
VERTEX
  8
LAYER-1
 10
0.415652
 20
1.274650
 30
0.000000
  0
SEQEND
  8
LAYER-1
  0
POLYLINE
  8
LAYER-1
 66
  1
 70
  0
 62
  7
 10
0.096766
 20
1.319600
 30
0.000000
  0
VERTEX
  8
LAYER-1
 10
0.096766
 20
1.319600
 30
0.000000
  0
VERTEX
  8
LAYER-1
 10
0.096766
 20
1.858053
 30
0.000000
  0
SEQEND
  8
LAYER-1
  0
POLYLINE
  8
LAYER-1
 66
  1
 70
  0
 62
  7
 10
0.114655
 20
1.875942
 30
0.000000
  0
VERTEX
  8
LAYER-1
 10
0.114655
 20
1.875942
 30
0.000000
  0
VERTEX
  8
LAYER-1
 10
0.653106
 20
1.875942
 30
0.000000
  0
SEQEND
  8
LAYER-1
  0
POLYLINE
  8
LAYER-1
 66
  1
 70
  0
 62
  7
 10
0.670995
 20
1.858053
 30
0.000000
  0
VERTEX
  8
LAYER-1
 10
0.670995
 20
1.858053
 30
0.000000
  0
VERTEX
  8
LAYER-1
 10
0.670995
 20
1.319600
 30
0.000000
  0
SEQEND
  8
LAYER-1
  0
POLYLINE
  8
LAYER-1
 66
  1
 70
  0
 62
  7
 10
0.653106
 20
1.301711
 30
0.000000
  0
VERTEX
  8
LAYER-1
 10
0.653106
 20
1.301711
 30
0.000000
  0
VERTEX
  8
LAYER-1
 10
0.114655
 20
1.301711
 30
0.000000
  0
SEQEND
  8
LAYER-1
  0
ARC
  8
LAYER-1
 62
  7
 10
0.114655
 20
1.319600
 30
0.000000
 40
0.017888
 50
180.000000
 51
270.000000
  0
ARC
  8
LAYER-1
 62
  7
 10
0.653106
 20
1.319600
 30
0.000000
 40
0.017888
 50
270.000000
 51
0.000000
  0
ARC
  8
LAYER-1
 62
  7
 10
0.653106
 20
1.858053
 30
0.000000
 40
0.017888
 50
0.000000
 51
90.000000
  0
ARC
  8
LAYER-1
 62
  7
 10
0.114655
 20
1.858053
 30
0.000000
 40
0.017888
 50
90.000000
 51
180.000000
  0
TEXT
  8
LAYER-1
 62
  7
 10
0.888059
 20
1.438441
 30
0.000000
 40
0.102273
  1
END PLATE
 72
  5
 11
1.669877
 21
1.438441
 31
0.000000
  0
POLYLINE
  8
LAYER-1
 66
  1
 70
  0
 62
  7
 10
0.986397
 20
1.378817
 30
0.000000
  0
VERTEX
  8
LAYER-1
 10
0.986397
 20
1.378817
 30
0.000000
  0
VERTEX
  8
LAYER-1
 10
0.899389
 20
1.292828
 30
0.000000
  0
SEQEND
  8
LAYER-1
  0
POLYLINE
  8
LAYER-1
 66
  1
 70
  1
 62
  7
  0
VERTEX
  8
LAYER-1
 10
0.885387
 20
1.278991
 30
0.000000
  0
VERTEX
  8
LAYER-1
 10
0.898546
 20
1.330340
 30
0.000000
  0
VERTEX
  8
LAYER-1
 10
0.917717
 20
1.310942
 30
0.000000
  0
VERTEX
  8
LAYER-1
 10
0.936888
 20
1.291544
 30
0.000000
  0
VERTEX
  8
LAYER-1
 10
0.885387
 20
1.278991
 30
0.000000
  0
SEQEND
  8
LAYER-1
  0
POLYLINE
  8
LAYER-1
  6
LTYPE05
 66
  1
 70
  0
 62
  7
  6
LTYPE05
 10
0.488985
 20
2.018145
 30
0.000000
  0
VERTEX
  8
LAYER-1
  6
LTYPE05
 10
0.488985
 20
2.018145
 30
0.000000
  0
VERTEX
  8
LAYER-1
  6
LTYPE05
 10
0.488059
 20
0.661175
 30
0.000000
  0
SEQEND
  8
LAYER-1
  0
LINE
  8
LAYER-1
 62
  7
 10
0.090177
 20
0.546603
 30
0.000000
 11
0.468374
 21
0.546603
 31
0.000000
  0
LINE
  8
LAYER-1
 62
  7
 10
0.070492
 20
1.175475
 30
0.000000
 11
0.070492
 21
0.421603
 31
0.000000
  0
LINE
  8
LAYER-1
 62
  7
 10
0.488059
 20
0.598675
 30
0.000000
 11
0.488059
 21
0.421603
 31
0.000000
  0
POLYLINE
  8
LAYER-1
 66
  1
 70
  1
 62
  7
  0
VERTEX
  8
LAYER-1
 10
0.070492
 20
0.546603
 30
0.000000
  0
VERTEX
  8
LAYER-1
 10
0.115947
 20
0.519330
 30
0.000000
  0
VERTEX
  8
LAYER-1
 10
0.115947
 20
0.546603
 30
0.000000
  0
VERTEX
  8
LAYER-1
 10
0.115947
 20
0.573876
 30
0.000000
  0
VERTEX
  8
LAYER-1
 10
0.070492
 20
0.546603
 30
0.000000
  0
SEQEND
  8
LAYER-1
  0
POLYLINE
  8
LAYER-1
 66
  1
 70
  1
 62
  7
  0
VERTEX
  8
LAYER-1
 10
0.488059
 20
0.546603
 30
0.000000
  0
VERTEX
  8
LAYER-1
 10
0.442604
 20
0.519330
 30
0.000000
  0
VERTEX
  8
LAYER-1
 10
0.442604
 20
0.546603
 30
0.000000
  0
VERTEX
  8
LAYER-1
 10
0.442604
 20
0.573876
 30
0.000000
  0
VERTEX
  8
LAYER-1
 10
0.488059
 20
0.546603
 30
0.000000
  0
SEQEND
  8
LAYER-1
  0
TEXT
  8
LAYER-1
 62
  7
 10
0.208531
 20
0.394633
 30
0.000000
 40
0.081818
  1
"Z"
  0
TEXT
  8
LAYER-1
 62
  7
 10
0.524422
 20
0.365714
 30
0.000000
 40
0.102273
  1
PACK-OFF
 72
  5
 11
1.251695
 21
0.365714
 31
0.000000
  0
TEXT
  8
LAYER-1
 62
  7
 10
0.897150
 20
1.811168
 30
0.000000
 40
0.102273
  1
TUBE
 72
  5
 11
1.297150
 21
1.811168
 31
0.000000
  0
TEXT
  8
LAYER-1
 62
  7
 10
0.897150
 20
1.656623
 30
0.000000
 40
0.102273
  1
SUPPORT
 72
  5
 11
1.597150
 21
1.656623
 31
0.000000
  0
POLYLINE
  8
LAYER-1
 66
  1
 70
  0
 62
  7
 10
0.875559
 20
1.819851
 30
0.000000
  0
VERTEX
  8
LAYER-1
 10
0.875559
 20
1.819851
 30
0.000000
  0
VERTEX
  8
LAYER-1
 10
0.719836
 20
1.776605
 30
0.000000
  0
SEQEND
  8
LAYER-1
  0
POLYLINE
  8
LAYER-1
 66
  1
 70
  1
 62
  7
  0
VERTEX
  8
LAYER-1
 10
0.700868
 20
1.771338
 30
0.000000
  0
VERTEX
  8
LAYER-1
 10
0.737368
 20
1.809779
 30
0.000000
  0
VERTEX
  8
LAYER-1
 10
0.744665
 20
1.783501
 30
0.000000
  0
VERTEX
  8
LAYER-1
 10
0.751963
 20
1.757223
 30
0.000000
  0
VERTEX
  8
LAYER-1
 10
0.700868
 20
1.771338
 30
0.000000
  0
SEQEND
  8
LAYER-1
  0
TEXT
  8
LAYER-1
 62
  7
 10
0.897150
 20
0.974805
 30
0.000000
 40
0.102273
  1
CENTER
 72
  5
 11
1.497150
 21
0.974805
 31
0.000000
  0
TEXT
  8
LAYER-1
 62
  7
 10
0.897150
 20
0.820259
 30
0.000000
 40
0.102273
  1
OF GUIDE
 72
  5
 11
1.578968
 21
0.820259
 31
0.000000
  0
POLYLINE
  8
LAYER-1
 66
  1
 70
  0
 62
  7
 10
0.877816
 20
0.960132
 30
0.000000
  0
VERTEX
  8
LAYER-1
 10
0.877816
 20
0.960132
 30
0.000000
  0
VERTEX
  8
LAYER-1
 10
0.507750
 20
0.959792
 30
0.000000
  0
SEQEND
  8
LAYER-1
  0
POLYLINE
  8
LAYER-1
 66
  1
 70
  1
 62
  7
  0
VERTEX
  8
LAYER-1
 10
0.488065
 20
0.959775
 30
0.000000
  0
VERTEX
  8
LAYER-1
 10
0.533494
 20
0.987088
 30
0.000000
  0
VERTEX
  8
LAYER-1
 10
0.533519
 20
0.959816
 30
0.000000
  0
VERTEX
  8
LAYER-1
 10
0.533544
 20
0.932543
 30
0.000000
  0
VERTEX
  8
LAYER-1
 10
0.488065
 20
0.959775
 30
0.000000
  0
SEQEND
  8
LAYER-1
  0
TEXT
  8
LAYER-1
 62
  7
 10
0.424422
 20
1.511168
 30
0.000000
 40
0.102273
  1
C
 72
  5
 11
0.569877
 21
1.511168
 31
0.000000
  0
TEXT
  8
LAYER-1
 62
  7
 10
0.460786
 20
1.465714
 30
0.000000
 40
0.102273
  1
L
 72
  5
 11
0.578968
 21
1.465714
 31
0.000000
  0
POLYLINE
  8
LAYER-1
 66
  1
 70
  1
 62
  7
  0
VERTEX
  8
LAYER-1
 10
0.471652
 20
2.634610
 30
0.000000
  0
VERTEX
  8
LAYER-1
 10
1.256808
 20
2.634610
 30
0.000000
  0
VERTEX
  8
LAYER-1
 10
1.256808
 20
2.443203
 30
0.000000
  0
VERTEX
  8
LAYER-1
 10
0.471652
 20
2.443203
 30
0.000000
  0
SEQEND
  8
LAYER-1
  0
TEXT
  8
LAYER-1
 62
  7
 10
0.478968
 20
2.502077
 30
0.000000
 40
0.122727
  1
SECTION
 72
  5
 11
1.251695
 21
2.502077
 31
0.000000
  0
TEXT
  8
LAYER-1
 62
  7
 10
0.478968
 20
0.092987
 30
0.000000
 40
0.122727
  1
PLAN VIEW
 72
  5
 11
1.415332
 21
0.092987
 31
0.000000
  0
POLYLINE
  8
LAYER-1
 66
  1
 70
  1
 62
  7
 10
1.447383
 20
1.299233
 30
0.000000
  0
VERTEX
  8
LAYER-1
 10
1.447383
 20
1.299233
 30
0.000000
  0
VERTEX
  8
LAYER-1
 10
1.345820
 20
1.169024
 30
0.000000
  0
VERTEX
  8
LAYER-1
 10
1.478632
 20
1.208956
 30
0.000000
  0
VERTEX
  8
LAYER-1
 10
1.585403
 20
1.359129
 30
0.000000
  0
SEQEND
  8
LAYER-1
  0
POLYLINE
  8
LAYER-1
 66
  1
 70
  0
 62
  7
 10
1.556757
 20
1.360865
 30
0.000000
  0
VERTEX
  8
LAYER-1
 10
1.556757
 20
1.360865
 30
0.000000
  0
VERTEX
  8
LAYER-1
 10
1.479500
 20
1.252358
 30
0.000000
  0
SEQEND
  8
LAYER-1
  0
POLYLINE
  8
LAYER-1
 66
  1
 70
  0
 62
  7
 10
1.479500
 20
1.252358
 30
0.000000
  0
VERTEX
  8
LAYER-1
 10
1.479500
 20
1.252358
 30
0.000000
  0
VERTEX
  8
LAYER-1
 10
1.447383
 20
1.299233
 30
0.000000
  0
SEQEND
  8
LAYER-1
  0
POLYLINE
  8
LAYER-1
 66
  1
 70
  0
 62
  7
 10
1.447383
 20
1.299233
 30
0.000000
  0
VERTEX
  8
LAYER-1
 10
1.447383
 20
1.299233
 30
0.000000
  0
VERTEX
  8
LAYER-1
 10
1.345820
 20
1.169024
 30
0.000000
  0
SEQEND
  8
LAYER-1
  0
POLYLINE
  8
LAYER-1
 66
  1
 70
  0
 62
  7
 10
1.585403
 20
1.359129
 30
0.000000
  0
VERTEX
  8
LAYER-1
 10
1.585403
 20
1.359129
 30
0.000000
  0
VERTEX
  8
LAYER-1
 10
1.478632
 20
1.208956
 30
0.000000
  0
SEQEND
  8
LAYER-1
  0
POLYLINE
  8
LAYER-1
 66
  1
 70
  0
 62
  7
 10
1.478632
 20
1.208956
 30
0.000000
  0
VERTEX
  8
LAYER-1
 10
1.478632
 20
1.208956
 30
0.000000
  0
VERTEX
  8
LAYER-1
 10
1.443910
 20
1.257564
 30
0.000000
  0
SEQEND
  8
LAYER-1
  0
POLYLINE
  8
LAYER-1
 66
  1
 70
  0
 62
  7
 10
1.443910
 20
1.257564
 30
0.000000
  0
VERTEX
  8
LAYER-1
 10
1.443910
 20
1.257564
 30
0.000000
  0
VERTEX
  8
LAYER-1
 10
1.373598
 20
1.165552
 30
0.000000
  0
SEQEND
  8
LAYER-1
  0
TEXT
  8
LAYER-1
 62
  7
 10
0.033513
 20
7.829350
 30
0.000000
 40
0.102273
  1
TUBE
 72
  5
 11
0.433513
 21
7.829350
 31
0.000000
  0
TEXT
  8
LAYER-1
 62
  7
 10
0.033513
 20
7.674805
 30
0.000000
 40
0.102273
  1
SUPPORT
 72
  5
 11
0.733513
 21
7.674805
 31
0.000000
  0
POLYLINE
  8
LAYER-1
 66
  1
 70
  0
 62
  7
 10
0.477642
 20
7.868112
 30
0.000000
  0
VERTEX
  8
LAYER-1
 10
0.477642
 20
7.868112
 30
0.000000
  0
VERTEX
  8
LAYER-1
 10
0.770457
 20
7.868112
 30
0.000000
  0
SEQEND
  8
LAYER-1
  0
POLYLINE
  8
LAYER-1
 66
  1
 70
  1
 62
  7
  0
VERTEX
  8
LAYER-1
 10
0.790142
 20
7.868112
 30
0.000000
  0
VERTEX
  8
LAYER-1
 10
0.744688
 20
7.840839
 30
0.000000
  0
VERTEX
  8
LAYER-1
 10
0.744687
 20
7.868112
 30
0.000000
  0
VERTEX
  8
LAYER-1
 10
0.744687
 20
7.895385
 30
0.000000
  0
VERTEX
  8
LAYER-1
 10
0.790142
 20
7.868112
 30
0.000000
  0
SEQEND
  8
LAYER-1
  0
POLYLINE
  8
LAYER-1
 66
  1
 70
  0
 62
  7
 10
0.858813
 20
6.249040
 30
0.000000
  0
VERTEX
  8
LAYER-1
 10
0.858813
 20
6.249040
 30
0.000000
  0
VERTEX
  8
LAYER-1
 10
0.858749
 20
4.903862
 30
0.000000
  0
SEQEND
  8
LAYER-1
  0
POLYLINE
  8
LAYER-1
 66
  1
 70
  0
 62
  7
 10
0.919236
 20
6.223238
 30
0.000000
  0
VERTEX
  8
LAYER-1
 10
0.919236
 20
6.223238
 30
0.000000
  0
VERTEX
  8
LAYER-1
 10
0.930955
 20
6.247632
 30
0.000000
  0
SEQEND
  8
LAYER-1
  0
POLYLINE
  8
LAYER-1
 66
  1
 70
  0
 62
  7
 10
0.919236
 20
6.223318
 30
0.000000
  0
VERTEX
  8
LAYER-1
 10
0.919236
 20
6.223318
 30
0.000000
  0
VERTEX
  8
LAYER-1
 10
0.916586
 20
6.223642
 30
0.000000
  0
VERTEX
  8
LAYER-1
 10
0.916050
 20
6.221943
 30
0.000000
  0
VERTEX
  8
LAYER-1
 10
0.915665
 20
6.220205
 30
0.000000
  0
VERTEX
  8
LAYER-1
 10
0.915432
 20
6.218439
 30
0.000000
  0
VERTEX
  8
LAYER-1
 10
0.917323
 20
6.214691
 30
0.000000
  0
SEQEND
  8
LAYER-1
  0
POLYLINE
  8
LAYER-1
 66
  1
 70
  0
 62
  7
 10
0.906938
 20
6.222870
 30
0.000000
  0
VERTEX
  8
LAYER-1
 10
0.906938
 20
6.222870
 30
0.000000
  0
VERTEX
  8
LAYER-1
 10
0.912648
 20
6.234755
 30
0.000000
  0
SEQEND
  8
LAYER-1
  0
POLYLINE
  8
LAYER-1
 66
  1
 70
  0
 62
  7
 10
0.906938
 20
6.222951
 30
0.000000
  0
VERTEX
  8
LAYER-1
 10
0.906938
 20
6.222951
 30
0.000000
  0
VERTEX
  8
LAYER-1
 10
0.904288
 20
6.223275
 30
0.000000
  0
VERTEX
  8
LAYER-1
 10
0.903753
 20
6.221576
 30
0.000000
  0
VERTEX
  8
LAYER-1
 10
0.903367
 20
6.219838
 30
0.000000
  0
VERTEX
  8
LAYER-1
 10
0.903135
 20
6.218072
 30
0.000000
  0
VERTEX
  8
LAYER-1
 10
0.905025
 20
6.214323
 30
0.000000
  0
SEQEND
  8
LAYER-1
  0
POLYLINE
  8
LAYER-1
 66
  1
 70
  0
 62
  7
 10
0.930955
 20
6.247632
 30
0.000000
  0
VERTEX
  8
LAYER-1
 10
0.930955
 20
6.247632
 30
0.000000
  0
VERTEX
  8
LAYER-1
 10
0.912648
 20
6.234755
 30
0.000000
  0
SEQEND
  8
LAYER-1
  0
POLYLINE
  8
LAYER-1
 66
  1
 70
  0
 62
  7
 10
0.917001
 20
6.249040
 30
0.000000
  0
VERTEX
  8
LAYER-1
 10
0.917001
 20
6.249040
 30
0.000000
  0
VERTEX
  8
LAYER-1
 10
0.917001
 20
6.238101
 30
0.000000
  0
SEQEND
  8
LAYER-1
  0
POLYLINE
  8
LAYER-1
 66
  1
 70
  0
 62
  7
 10
0.912626
 20
6.249040
 30
0.000000
  0
VERTEX
  8
LAYER-1
 10
0.912626
 20
6.249040
 30
0.000000
  0
VERTEX
  8
LAYER-1
 10
0.912626
 20
6.234164
 30
0.000000
  0
SEQEND
  8
LAYER-1
  0
POLYLINE
  8
LAYER-1
 66
  1
 70
  0
 62
  7
 10
0.905727
 20
6.210502
 30
0.000000
  0
VERTEX
  8
LAYER-1
 10
0.905727
 20
6.210502
 30
0.000000
  0
VERTEX
  8
LAYER-1
 10
0.923911
 20
6.210502
 30
0.000000
  0
SEQEND
  8
LAYER-1
  0
POLYLINE
  8
LAYER-1
 66
  1
 70
  0
 62
  7
 10
0.925295
 20
6.209118
 30
0.000000
  0
VERTEX
  8
LAYER-1
 10
0.925295
 20
6.209118
 30
0.000000
  0
VERTEX
  8
LAYER-1
 10
0.925295
 20
6.162927
 30
0.000000
  0
SEQEND
  8
LAYER-1
  0
POLYLINE
  8
LAYER-1
 66
  1
 70
  0
 62
  7
 10
0.923911
 20
6.161543
 30
0.000000
  0
VERTEX
  8
LAYER-1
 10
0.923911
 20
6.161543
 30
0.000000
  0
VERTEX
  8
LAYER-1
 10
0.905727
 20
6.161543
 30
0.000000
  0
SEQEND
  8
LAYER-1
  0
POLYLINE
  8
LAYER-1
 66
  1
 70
  0
 62
  7
 10
0.904344
 20
6.162927
 30
0.000000
  0
VERTEX
  8
LAYER-1
 10
0.904344
 20
6.162927
 30
0.000000
  0
VERTEX
  8
LAYER-1
 10
0.904344
 20
6.209118
 30
0.000000
  0
SEQEND
  8
LAYER-1
  0
ARC
  8
LAYER-1
 62
  7
 10
0.905727
 20
6.209118
 30
0.000000
 40
0.001383
 50
270.000000
 51
0.000000
  0
ARC
  8
LAYER-1
 62
  7
 10
0.905727
 20
6.162927
 30
0.000000
 40
0.001383
 50
0.000000
 51
90.000000
  0
ARC
  8
LAYER-1
 62
  7
 10
0.923911
 20
6.162927
 30
0.000000
 40
0.001383
 50
90.000000
 51
180.000000
  0
ARC
  8
LAYER-1
 62
  7
 10
0.923911
 20
6.209118
 30
0.000000
 40
0.001383
 50
180.000000
 51
270.000000
  0
POLYLINE
  8
LAYER-1
 66
  1
 70
  1
 62
  7
 10
0.923755
 20
6.162909
 30
0.000000
  0
VERTEX
  8
LAYER-1
 10
0.923755
 20
6.162909
 30
0.000000
  0
VERTEX
  8
LAYER-1
 10
0.905607
 20
6.162909
 30
0.000000
  0
VERTEX
  8
LAYER-1
 10
0.905607
 20
6.209252
 30
0.000000
  0
VERTEX
  8
LAYER-1
 10
0.923755
 20
6.209252
 30
0.000000
  0
SEQEND
  8
LAYER-1
  0
POLYLINE
  8
LAYER-1
 66
  1
 70
  0
 62
  7
 10
0.917598
 20
6.209252
 30
0.000000
  0
VERTEX
  8
LAYER-1
 10
0.917598
 20
6.209252
 30
0.000000
  0
VERTEX
  8
LAYER-1
 10
0.917598
 20
6.162909
 30
0.000000
  0
SEQEND
  8
LAYER-1
  0
POLYLINE
  8
LAYER-1
 66
  1
 70
  0
 62
  7
 10
0.923755
 20
6.209252
 30
0.000000
  0
VERTEX
  8
LAYER-1
 10
0.923755
 20
6.209252
 30
0.000000
  0
VERTEX
  8
LAYER-1
 10
0.919094
 20
6.178414
 30
0.000000
  0
VERTEX
  8
LAYER-1
 10
0.923755
 20
6.162908
 30
0.000000
  0
SEQEND
  8
LAYER-1
  0
POLYLINE
  8
LAYER-1
 66
  1
 70
  0
 62
  7
 10
0.905607
 20
6.209251
 30
0.000000
  0
VERTEX
  8
LAYER-1
 10
0.905607
 20
6.209251
 30
0.000000
  0
VERTEX
  8
LAYER-1
 10
0.911900
 20
6.207124
 30
0.000000
  0
VERTEX
  8
LAYER-1
 10
0.920638
 20
6.210071
 30
0.000000
  0
VERTEX
  8
LAYER-1
 10
0.923755
 20
6.209251
 30
0.000000
  0
SEQEND
  8
LAYER-1
  0
POLYLINE
  8
LAYER-1
 66
  1
 70
  0
 62
  7
 10
0.923755
 20
6.162909
 30
0.000000
  0
VERTEX
  8
LAYER-1
 10
0.923755
 20
6.162909
 30
0.000000
  0
VERTEX
  8
LAYER-1
 10
0.914060
 20
6.169195
 30
0.000000
  0
VERTEX
  8
LAYER-1
 10
0.905544
 20
6.166784
 30
0.000000
  0
VERTEX
  8
LAYER-1
 10
0.905607
 20
6.162909
 30
0.000000
  0
SEQEND
  8
LAYER-1
  0
POLYLINE
  8
LAYER-1
 66
  1
 70
  0
 62
  7
 10
0.905607
 20
6.162909
 30
0.000000
  0
VERTEX
  8
LAYER-1
 10
0.905607
 20
6.162909
 30
0.000000
  0
VERTEX
  8
LAYER-1
 10
0.906774
 20
6.195457
 30
0.000000
  0
VERTEX
  8
LAYER-1
 10
0.905607
 20
6.209252
 30
0.000000
  0
SEQEND
  8
LAYER-1
  0
TEXT
  8
LAYER-1
 62
  7
 10
2.488059
 20
8.183896
 30
0.000000
 40
0.115909
  1
168mm dia  BARREL  -  CEILING HEIGHT (meters) 
 72
  5
 11
6.133513
 21
8.183896
 31
0.000000
  0
TEXT
  8
LAYER-1
 62
  7
 10
6.578968
 20
8.002077
 30
0.000000
 40
0.115909
  1
END PLATE
 72
  5
 11
7.442604
 21
8.002077
 31
0.000000
  0
TEXT
  8
LAYER-1
 62
  7
 10
6.651695
 20
7.820259
 30
0.000000
 40
0.115909
  1
"X"  x  "Y"
 72
  5
 11
7.360786
 21
7.820259
 31
0.000000
  0
TEXT
  8
LAYER-1
 62
  7
 10
6.697150
 20
7.120259
 30
0.000000
 40
0.102273
  1
305 x 305
 72
  5
 11
7.315332
 21
7.120259
 31
0.000000
  0
TEXT
  8
LAYER-1
 62
  7
 10
6.697150
 20
6.783896
 30
0.000000
 40
0.102273
  1
356 x 406
 72
  5
 11
7.315332
 21
6.783896
 31
0.000000
  0
POLYLINE
  8
LAYER-1
 66
  1
 70
  0
 62
  7
 40
0.018182
 41
0.018182
 10
1.897263
 20
8.343202
 30
0.000000
  0
VERTEX
  8
LAYER-1
 10
1.897263
 20
8.343202
 30
0.000000
  0
VERTEX
  8
LAYER-1
 10
7.568273
 20
8.343202
 30
0.000000
  0
SEQEND
  8
LAYER-1
  0
POLYLINE
  8
LAYER-1
 66
  1
 70
  0
 62
  7
 40
0.018182
 41
0.018182
 10
7.568273
 20
8.343202
 30
0.000000
  0
VERTEX
  8
LAYER-1
 10
7.568273
 20
8.343202
 30
0.000000
  0
VERTEX
  8
LAYER-1
 10
7.568273
 20
5.960770
 30
0.000000
  0
SEQEND
  8
LAYER-1
  0
POLYLINE
  8
LAYER-1
 66
  1
 70
  0
 62
  7
 40
0.018182
 41
0.018182
 10
1.897263
 20
5.960758
 30
0.000000
  0
VERTEX
  8
LAYER-1
 10
1.897263
 20
5.960758
 30
0.000000
  0
VERTEX
  8
LAYER-1
 10
1.897263
 20
8.343202
 30
0.000000
  0
SEQEND
  8
LAYER-1
  0
POLYLINE
  8
LAYER-1
 66
  1
 70
  0
 62
  7
 40
0.018182
 41
0.018182
 10
1.897263
 20
7.670167
 30
0.000000
  0
VERTEX
  8
LAYER-1
 10
1.897263
 20
7.670167
 30
0.000000
  0
VERTEX
  8
LAYER-1
 10
7.570221
 20
7.671156
 30
0.000000
  0
SEQEND
  8
LAYER-1
  0
POLYLINE
  8
LAYER-1
 66
  1
 70
  0
 62
  7
 40
0.018182
 41
0.018182
 10
1.897263
 20
5.960758
 30
0.000000
  0
VERTEX
  8
LAYER-1
 10
1.897263
 20
5.960758
 30
0.000000
  0
VERTEX
  8
LAYER-1
 10
7.570221
 20
5.961154
 30
0.000000
  0
SEQEND
  8
LAYER-1
  0
POLYLINE
  8
LAYER-1
 66
  1
 70
  0
 62
  7
 10
1.897263
 20
8.125074
 30
0.000000
  0
VERTEX
  8
LAYER-1
 10
1.897263
 20
8.125074
 30
0.000000
  0
VERTEX
  8
LAYER-1
 10
6.473275
 20
8.124730
 30
0.000000
  0
SEQEND
  8
LAYER-1
  0
POLYLINE
  8
LAYER-1
 66
  1
 70
  0
 62
  7
 10
6.473275
 20
5.960770
 30
0.000000
  0
VERTEX
  8
LAYER-1
 10
6.473275
 20
5.960770
 30
0.000000
  0
VERTEX
  8
LAYER-1
 10
6.473275
 20
8.343202
 30
0.000000
  0
SEQEND
  8
LAYER-1
  0
POLYLINE
  8
LAYER-1
 66
  1
 70
  0
 62
  7
 10
3.245686
 20
5.960770
 30
0.000000
  0
VERTEX
  8
LAYER-1
 10
3.245686
 20
5.960770
 30
0.000000
  0
VERTEX
  8
LAYER-1
 10
3.245579
 20
8.124730
 30
0.000000
  0
SEQEND
  8
LAYER-1
  0
POLYLINE
  8
LAYER-1
 66
  1
 70
  0
 62
  7
 10
4.053793
 20
5.960770
 30
0.000000
  0
VERTEX
  8
LAYER-1
 10
4.053793
 20
5.960770
 30
0.000000
  0
VERTEX
  8
LAYER-1
 10
4.054031
 20
7.829921
 30
0.000000
  0
SEQEND
  8
LAYER-1
  0
POLYLINE
  8
LAYER-1
 66
  1
 70
  0
 62
  7
 10
4.868835
 20
5.960770
 30
0.000000
  0
VERTEX
  8
LAYER-1
 10
4.868835
 20
5.960770
 30
0.000000
  0
VERTEX
  8
LAYER-1
 10
4.868617
 20
8.124730
 30
0.000000
  0
SEQEND
  8
LAYER-1
  0
POLYLINE
  8
LAYER-1
 66
  1
 70
  0
 62
  7
 10
5.676946
 20
5.960770
 30
0.000000
  0
VERTEX
  8
LAYER-1
 10
5.676946
 20
5.960770
 30
0.000000
  0
VERTEX
  8
LAYER-1
 10
5.675558
 20
7.826448
 30
0.000000
  0
SEQEND
  8
LAYER-1
  0
TEXT
  8
LAYER-1
 62
  7
 10
6.715332
 20
6.674805
 30
0.000000
 40
0.081818
  1
min for motor
 72
  5
 11
7.424422
 21
6.674805
 31
0.000000
  0
TEXT
  8
LAYER-1
 62
  7
 10
6.533513
 20
6.329350
 30
0.000000
 40
0.081818
  1
min for 102mm tubes
 72
  5
 11
7.651695
 21
6.329350
 31
0.000000
  0
TEXT
  8
LAYER-1
 62
  7
 10
6.542604
 20
7.020259
 30
0.000000
 40
0.081818
  1
use 127mm C.wheel
 72
  5
 11
7.633513
 21
7.020259
 31
0.000000
  0
TEXT
  8
LAYER-1
 62
  7
 10
6.697150
 20
7.465714
 30
0.000000
 40
0.102273
  1
254 x 254
 72
  5
 11
7.315332
 21
7.465714
 31
0.000000
  0
TEXT
  8
LAYER-1
 62
  7
 10
6.569877
 20
7.365714
 30
0.000000
 40
0.081818
  1
use support 51mm
 72
  5
 11
7.569877
 21
7.365714
 31
0.000000
  0
TEXT
  8
LAYER-1
 62
  7
 10
3.269877
 20
6.102077
 30
0.000000
 40
0.102273
  1
4,6
 72
  5
 11
3.497150
 21
6.102077
 31
0.000000
  0
TEXT
  8
LAYER-1
 62
  7
 10
3.497150
 20
6.102077
 30
0.000000
 40
0.081818
  1
m to 
 72
  5
 11
3.788059
 21
6.102077
 31
0.000000
  0
TEXT
  8
LAYER-1
 62
  7
 10
3.788059
 20
6.102077
 30
0.000000
 40
0.102273
  1
6,1
 72
  5
 11
4.015332
 21
6.102077
 31
0.000000
  0
TEXT
  8
LAYER-1
 62
  7
 10
4.015332
 20
6.102077
 30
0.000000
 40
0.081818
  1
m
 72
  5
 11
4.160786
 21
6.102077
 31
0.000000
  0
TEXT
  8
LAYER-1
 62
  7
 10
4.088059
 20
6.102077
 30
0.000000
 40
0.102273
  1
5,2
 72
  5
 11
4.315332
 21
6.102077
 31
0.000000
  0
TEXT
  8
LAYER-1
 62
  7
 10
4.315332
 20
6.102077
 30
0.000000
 40
0.081818
  1
m to 
 72
  5
 11
4.606241
 21
6.102077
 31
0.000000
  0
TEXT
  8
LAYER-1
 62
  7
 10
4.606241
 20
6.102077
 30
0.000000
 40
0.102273
  1
6,1
 72
  5
 11
4.833513
 21
6.102077
 31
0.000000
  0
TEXT
  8
LAYER-1
 62
  7
 10
4.833513
 20
6.102077
 30
0.000000
 40
0.081818
  1
m
 72
  5
 11
4.978968
 21
6.102077
 31
0.000000
  0
TEXT
  8
LAYER-1
 62
  7
 10
3.333513
 20
7.129350
 30
0.000000
 40
0.102273
  1
up 
 72
  5
 11
3.560786
 21
7.129350
 31
0.000000
  0
TEXT
  8
LAYER-1
 62
  7
 10
3.560786
 20
7.129350
 30
0.000000
 40
0.081818
  1
to
 72
  5
 11
3.697150
 21
7.129350
 31
0.000000
  0
TEXT
  8
LAYER-1
 62
  7
 10
3.697150
 20
7.129350
 30
0.000000
 40
0.102273
  1
 1,8
 72
  5
 11
3.960786
 21
7.129350
 31
0.000000
  0
TEXT
  8
LAYER-1
 62
  7
 10
3.960786
 20
7.129350
 30
0.000000
 40
0.081818
  1
m
 72
  5
 11
4.106241
 21
7.129350
 31
0.000000
  0
TEXT
  8
LAYER-1
 62
  7
 10
3.278968
 20
6.792987
 30
0.000000
 40
0.102273
  1
1,8
 72
  5
 11
3.506241
 21
6.792987
 31
0.000000
  0
TEXT
  8
LAYER-1
 62
  7
 10
3.506241
 20
6.792987
 30
0.000000
 40
0.081818
  1
m to 
 72
  5
 11
3.797150
 21
6.792987
 31
0.000000
  0
TEXT
  8
LAYER-1
 62
  7
 10
3.797150
 20
6.792987
 30
0.000000
 40
0.102273
  1
3,0
 72
  5
 11
4.024422
 21
6.792987
 31
0.000000
  0
TEXT
  8
LAYER-1
 62
  7
 10
4.024422
 20
6.792987
 30
0.000000
 40
0.081818
  1
m
 72
  5
 11
4.169877
 21
6.792987
 31
0.000000
  0
TEXT
  8
LAYER-1
 62
  7
 10
3.269877
 20
6.447532
 30
0.000000
 40
0.102273
  1
3,0
 72
  5
 11
3.497150
 21
6.447532
 31
0.000000
  0
TEXT
  8
LAYER-1
 62
  7
 10
3.497150
 20
6.447532
 30
0.000000
 40
0.081818
  1
m to 
 72
  5
 11
3.788059
 21
6.447532
 31
0.000000
  0
TEXT
  8
LAYER-1
 62
  7
 10
3.788059
 20
6.447532
 30
0.000000
 40
0.102273
  1
4,6
 72
  5
 11
4.015332
 21
6.447532
 31
0.000000
  0
TEXT
  8
LAYER-1
 62
  7
 10
4.015332
 20
6.447532
 30
0.000000
 40
0.081818
  1
m
 72
  5
 11
4.160786
 21
6.447532
 31
0.000000
  0
TEXT
  8
LAYER-1
 62
  7
 10
4.142604
 20
7.129350
 30
0.000000
 40
0.102273
  1
up 
 72
  5
 11
4.369877
 21
7.129350
 31
0.000000
  0
TEXT
  8
LAYER-1
 62
  7
 10
4.369877
 20
7.129350
 30
0.000000
 40
0.081818
  1
to
 72
  5
 11
4.506241
 21
7.129350
 31
0.000000
  0
TEXT
  8
LAYER-1
 62
  7
 10
4.506241
 20
7.129350
 30
0.000000
 40
0.102273
  1
 1,8
 72
  5
 11
4.769877
 21
7.129350
 31
0.000000
  0
TEXT
  8
LAYER-1
 62
  7
 10
4.769877
 20
7.129350
 30
0.000000
 40
0.081818
  1
m
 72
  5
 11
4.915332
 21
7.129350
 31
0.000000
  0
TEXT
  8
LAYER-1
 62
  7
 10
4.088059
 20
6.792987
 30
0.000000
 40
0.102273
  1
1,8
 72
  5
 11
4.315332
 21
6.792987
 31
0.000000
  0
TEXT
  8
LAYER-1
 62
  7
 10
4.315332
 20
6.792987
 30
0.000000
 40
0.081818
  1
m to 
 72
  5
 11
4.606241
 21
6.792987
 31
0.000000
  0
TEXT
  8
LAYER-1
 62
  7
 10
4.606241
 20
6.792987
 30
0.000000
 40
0.102273
  1
3,7
 72
  5
 11
4.833513
 21
6.792987
 31
0.000000
  0
TEXT
  8
LAYER-1
 62
  7
 10
4.833513
 20
6.792987
 30
0.000000
 40
0.081818
  1
m
 72
  5
 11
4.978968
 21
6.792987
 31
0.000000
  0
TEXT
  8
LAYER-1
 62
  7
 10
4.088059
 20
6.438441
 30
0.000000
 40
0.102273
  1
3,7
 72
  5
 11
4.315332
 21
6.438441
 31
0.000000
  0
TEXT
  8
LAYER-1
 62
  7
 10
4.315332
 20
6.438441
 30
0.000000
 40
0.081818
  1
m to 
 72
  5
 11
4.606241
 21
6.438441
 31
0.000000
  0
TEXT
  8
LAYER-1
 62
  7
 10
4.606241
 20
6.438441
 30
0.000000
 40
0.102273
  1
5,2
 72
  5
 11
4.833513
 21
6.438441
 31
0.000000
  0
TEXT
  8
LAYER-1
 62
  7
 10
4.833513
 20
6.438441
 30
0.000000
 40
0.081818
  1
m
 72
  5
 11
4.978968
 21
6.438441
 31
0.000000
  0
TEXT
  8
LAYER-1
 62
  7
 10
4.960786
 20
7.120259
 30
0.000000
 40
0.102273
  1
up 
 72
  5
 11
5.188059
 21
7.120259
 31
0.000000
  0
TEXT
  8
LAYER-1
 62
  7
 10
5.188059
 20
7.120259
 30
0.000000
 40
0.081818
  1
to
 72
  5
 11
5.324422
 21
7.120259
 31
0.000000
  0
TEXT
  8
LAYER-1
 62
  7
 10
5.324422
 20
7.120259
 30
0.000000
 40
0.102273
  1
 1,8
 72
  5
 11
5.588059
 21
7.120259
 31
0.000000
  0
TEXT
  8
LAYER-1
 62
  7
 10
5.588059
 20
7.120259
 30
0.000000
 40
0.081818
  1
m
 72
  5
 11
5.733513
 21
7.120259
 31
0.000000
  0
TEXT
  8
LAYER-1
 62
  7
 10
4.906241
 20
6.792987
 30
0.000000
 40
0.102273
  1
1,8
 72
  5
 11
5.133513
 21
6.792987
 31
0.000000
  0
TEXT
  8
LAYER-1
 62
  7
 10
5.133513
 20
6.792987
 30
0.000000
 40
0.081818
  1
m to 
 72
  5
 11
5.424422
 21
6.792987
 31
0.000000
  0
TEXT
  8
LAYER-1
 62
  7
 10
5.424422
 20
6.792987
 30
0.000000
 40
0.102273
  1
4,0
 72
  5
 11
5.651695
 21
6.792987
 31
0.000000
  0
TEXT
  8
LAYER-1
 62
  7
 10
5.651695
 20
6.792987
 30
0.000000
 40
0.081818
  1
m
 72
  5
 11
5.797150
 21
6.792987
 31
0.000000
  0
TEXT
  8
LAYER-1
 62
  7
 10
4.906241
 20
6.438441
 30
0.000000
 40
0.102273
  1
4,0
 72
  5
 11
5.133513
 21
6.438441
 31
0.000000
  0
TEXT
  8
LAYER-1
 62
  7
 10
5.133513
 20
6.438441
 30
0.000000
 40
0.081818
  1
m to 
 72
  5
 11
5.424422
 21
6.438441
 31
0.000000
  0
TEXT
  8
LAYER-1
 62
  7
 10
5.424422
 20
6.438441
 30
0.000000
 40
0.102273
  1
6,1
 72
  5
 11
5.651695
 21
6.438441
 31
0.000000
  0
TEXT
  8
LAYER-1
 62
  7
 10
5.651695
 20
6.438441
 30
0.000000
 40
0.081818
  1
m
 72
  5
 11
5.797150
 21
6.438441
 31
0.000000
  0
TEXT
  8
LAYER-1
 62
  7
 10
5.760786
 20
7.129350
 30
0.000000
 40
0.102273
  1
up 
 72
  5
 11
5.988059
 21
7.129350
 31
0.000000
  0
TEXT
  8
LAYER-1
 62
  7
 10
5.988059
 20
7.129350
 30
0.000000
 40
0.081818
  1
to
 72
  5
 11
6.124422
 21
7.129350
 31
0.000000
  0
TEXT
  8
LAYER-1
 62
  7
 10
6.124422
 20
7.129350
 30
0.000000
 40
0.102273
  1
 1,8
 72
  5
 11
6.388059
 21
7.129350
 31
0.000000
  0
TEXT
  8
LAYER-1
 62
  7
 10
6.388059
 20
7.129350
 30
0.000000
 40
0.081818
  1
m
 72
  5
 11
6.533513
 21
7.129350
 31
0.000000
  0
TEXT
  8
LAYER-1
 62
  7
 10
5.697150
 20
6.792987
 30
0.000000
 40
0.102273
  1
1,8
 72
  5
 11
5.924422
 21
6.792987
 31
0.000000
  0
TEXT
  8
LAYER-1
 62
  7
 10
5.924422
 20
6.792987
 30
0.000000
 40
0.081818
  1
m to 
 72
  5
 11
6.215332
 21
6.792987
 31
0.000000
  0
TEXT
  8
LAYER-1
 62
  7
 10
6.215332
 20
6.792987
 30
0.000000
 40
0.102273
  1
4,9
 72
  5
 11
6.442604
 21
6.792987
 31
0.000000
  0
TEXT
  8
LAYER-1
 62
  7
 10
6.442604
 20
6.792987
 30
0.000000
 40
0.081818
  1
m
 72
  5
 11
6.588059
 21
6.792987
 31
0.000000
  0
TEXT
  8
LAYER-1
 62
  7
 10
5.706241
 20
6.438441
 30
0.000000
 40
0.102273
  1
4,9
 72
  5
 11
5.933513
 21
6.438441
 31
0.000000
  0
TEXT
  8
LAYER-1
 62
  7
 10
5.933513
 20
6.438441
 30
0.000000
 40
0.081818
  1
m to 
 72
  5
 11
6.224422
 21
6.438441
 31
0.000000
  0
TEXT
  8
LAYER-1
 62
  7
 10
6.224422
 20
6.438441
 30
0.000000
 40
0.102273
  1
6,1
 72
  5
 11
6.451695
 21
6.438441
 31
0.000000
  0
TEXT
  8
LAYER-1
 62
  7
 10
6.451695
 20
6.438441
 30
0.000000
 40
0.081818
  1
m
 72
  5
 11
6.597150
 21
6.438441
 31
0.000000
  0
POLYLINE
  8
LAYER-1
 66
  1
 70
  0
 62
  7
 10
1.897263
 20
7.329947
 30
0.000000
  0
VERTEX
  8
LAYER-1
 10
1.897263
 20
7.329947
 30
0.000000
  0
VERTEX
  8
LAYER-1
 10
7.570221
 20
7.329155
 30
0.000000
  0
SEQEND
  8
LAYER-1
  0
POLYLINE
  8
LAYER-1
 66
  1
 70
  0
 62
  7
 10
1.897263
 20
6.987932
 30
0.000000
  0
VERTEX
  8
LAYER-1
 10
1.897263
 20
6.987932
 30
0.000000
  0
VERTEX
  8
LAYER-1
 10
7.570221
 20
6.987155
 30
0.000000
  0
SEQEND
  8
LAYER-1
  0
POLYLINE
  8
LAYER-1
 66
  1
 70
  0
 62
  7
 10
1.897263
 20
6.645918
 30
0.000000
  0
VERTEX
  8
LAYER-1
 10
1.897263
 20
6.645918
 30
0.000000
  0
VERTEX
  8
LAYER-1
 10
7.570221
 20
6.645154
 30
0.000000
  0
SEQEND
  8
LAYER-1
  0
POLYLINE
  8
LAYER-1
 66
  1
 70
  0
 62
  7
 10
1.897263
 20
6.303904
 30
0.000000
  0
VERTEX
  8
LAYER-1
 10
1.897263
 20
6.303904
 30
0.000000
  0
VERTEX
  8
LAYER-1
 10
7.570221
 20
6.303153
 30
0.000000
  0
SEQEND
  8
LAYER-1
  0
TEXT
  8
LAYER-1
 62
  7
 10
6.697150
 20
6.465714
 30
0.000000
 40
0.102273
  1
406 x 457
 72
  5
 11
7.315332
 21
6.465714
 31
0.000000
  0
TEXT
  8
LAYER-1
 62
  7
 10
5.360786
 20
7.947532
 30
0.000000
 40
0.102273
  1
ROLL-99
 72
  5
 11
5.951695
 21
7.947532
 31
0.000000
  0
TEXT
  8
LAYER-1
 62
  7
 10
4.233513
 20
7.729350
 30
0.000000
 40
0.075000
  1
NO HOOD
 72
  5
 11
4.715332
 21
7.729350
 31
0.000000
  0
TEXT
  8
LAYER-1
 62
  7
 10
3.360786
 20
7.729350
 30
0.000000
 40
0.075000
  1
WITH HOOD
 72
  5
 11
3.933513
 21
7.729350
 31
0.000000
  0
TEXT
  8
LAYER-1
 62
  7
 10
5.833513
 20
7.729350
 30
0.000000
 40
0.075000
  1
NO HOOD
 72
  5
 11
6.315332
 21
7.729350
 31
0.000000
  0
TEXT
  8
LAYER-1
 62
  7
 10
4.988059
 20
7.729350
 30
0.000000
 40
0.075000
  1
WITH HOOD
 72
  5
 11
5.560786
 21
7.729350
 31
0.000000
  0
POLYLINE
  8
LAYER-1
 66
  1
 70
  0
 62
  7
 10
1.897263
 20
7.830808
 30
0.000000
  0
VERTEX
  8
LAYER-1
 10
1.897263
 20
7.830808
 30
0.000000
  0
VERTEX
  8
LAYER-1
 10
6.473275
 20
7.826763
 30
0.000000
  0
SEQEND
  8
LAYER-1
  0
TEXT
  8
LAYER-1
 62
  7
 10
2.115332
 20
8.020259
 30
0.000000
 40
0.102273
  1
ROLL-VISION,
 72
  5
 11
3.024422
 21
8.020259
 31
0.000000
  0
TEXT
  8
LAYER-1
 62
  7
 10
1.933513
 20
7.865714
 30
0.000000
 40
0.102273
  1
R-AIR
 72
  5
 11
2.333513
 21
7.865714
 31
0.000000
  0
TEXT
  8
LAYER-1
 62
  7
 10
2.333513
 20
7.865714
 30
0.000000
 40
0.061364
  1
 & 
 72
  5
 11
2.488059
 21
7.865714
 31
0.000000
  0
TEXT
  8
LAYER-1
 62
  7
 10
2.488059
 20
7.865714
 30
0.000000
 40
0.102273
  1
R-SHUTTER
 72
  5
 11
3.306241
 21
7.865714
 31
0.000000
  0
TEXT
  8
LAYER-1
 62
  7
 10
1.988059
 20
7.729350
 30
0.000000
 40
0.075000
  1
WITH 
 72
  5
 11
2.288059
 21
7.729350
 31
0.000000
  0
TEXT
  8
LAYER-1
 62
  7
 10
2.288059
 20
7.729350
 30
0.000000
 40
0.061364
  1
OR
 72
  5
 11
2.451695
 21
7.729350
 31
0.000000
  0
TEXT
  8
LAYER-1
 62
  7
 10
2.451695
 20
7.729350
 30
0.000000
 40
0.075000
  1
 WITHOUT HOOD
 72
  5
 11
3.242604
 21
7.729350
 31
0.000000
  0
TEXT
  8
LAYER-1
 62
  7
 10
3.415332
 20
7.474805
 30
0.000000
 40
0.075000
  1
254 x 254
 72
  5
 11
3.897150
 21
7.474805
 31
0.000000
  0
TEXT
  8
LAYER-1
 62
  7
 10
3.351695
 20
7.365714
 30
0.000000
 40
0.075000
  1
Not available
 72
  5
 11
3.951695
 21
7.365714
 31
0.000000
  0
TEXT
  8
LAYER-1
 62
  7
 10
2.351695
 20
6.120259
 30
0.000000
 40
0.075000
  1
Over 6,1m
 72
  5
 11
2.851695
 21
6.120259
 31
0.000000
  0
TEXT
  8
LAYER-1
 62
  7
 10
2.297150
 20
6.011168
 30
0.000000
 40
0.075000
  1
Not available
 72
  5
 11
2.897150
 21
6.011168
 31
0.000000
  0
TEXT
  8
LAYER-1
 62
  7
 10
5.006241
 20
6.120259
 30
0.000000
 40
0.075000
  1
Over 6,1m
 72
  5
 11
5.506241
 21
6.120259
 31
0.000000
  0
TEXT
  8
LAYER-1
 62
  7
 10
4.951695
 20
6.011168
 30
0.000000
 40
0.075000
  1
Not available
 72
  5
 11
5.551695
 21
6.011168
 31
0.000000
  0
TEXT
  8
LAYER-1
 62
  7
 10
5.824422
 20
6.120259
 30
0.000000
 40
0.075000
  1
Over 6,1m
 72
  5
 11
6.324422
 21
6.120259
 31
0.000000
  0
TEXT
  8
LAYER-1
 62
  7
 10
5.769877
 20
6.011168
 30
0.000000
 40
0.075000
  1
Not available
 72
  5
 11
6.369877
 21
6.011168
 31
0.000000
  0
TEXT
  8
LAYER-1
 62
  7
 10
4.215332
 20
7.474805
 30
0.000000
 40
0.075000
  1
254 x 254
 72
  5
 11
4.697150
 21
7.474805
 31
0.000000
  0
TEXT
  8
LAYER-1
 62
  7
 10
4.151695
 20
7.365714
 30
0.000000
 40
0.075000
  1
Not available
 72
  5
 11
4.751695
 21
7.365714
 31
0.000000
  0
TEXT
  8
LAYER-1
 62
  7
 10
5.042604
 20
7.474805
 30
0.000000
 40
0.075000
  1
254 x 254
 72
  5
 11
5.524422
 21
7.474805
 31
0.000000
  0
TEXT
  8
LAYER-1
 62
  7
 10
4.978968
 20
7.365714
 30
0.000000
 40
0.075000
  1
Not available
 72
  5
 11
5.578968
 21
7.365714
 31
0.000000
  0
TEXT
  8
LAYER-1
 62
  7
 10
5.824422
 20
7.474805
 30
0.000000
 40
0.075000
  1
254 x 254
 72
  5
 11
6.306241
 21
7.474805
 31
0.000000
  0
TEXT
  8
LAYER-1
 62
  7
 10
5.760786
 20
7.365714
 30
0.000000
 40
0.075000
  1
Not available
 72
  5
 11
6.360786
 21
7.365714
 31
0.000000
  0
TEXT
  8
LAYER-1
 62
  7
 10
1.869877
 20
8.438441
 30
0.000000
 40
0.122727
  1
End plate sizes ( For doors maximum 6,7m wide )
 72
  5
 11
5.742604
 21
8.438441
 31
0.000000
  0
TEXT
  8
LAYER-1
 62
  7
 10
3.697150
 20
8.020259
 30
0.000000
 40
0.102273
  1
ROLL-126 
 72
  5
 11
4.397150
 21
8.020259
 31
0.000000
  0
TEXT
  8
LAYER-1
 62
  7
 10
4.397150
 20
8.020259
 30
0.000000
 40
0.061364
  1
&
 72
  5
 11
4.497150
 21
8.020259
 31
0.000000
  0
TEXT
  8
LAYER-1
 62
  7
 10
3.615332
 20
7.865714
 30
0.000000
 40
0.102273
  1
ROLL-GUARD
 72
  5
 11
4.533513
 21
7.865714
 31
0.000000
  0
TEXT
  8
LAYER-1
 62
  7
 10
2.233513
 20
7.083896
 30
0.000000
 40
0.102273
  1
1,8
 72
  5
 11
2.460786
 21
7.083896
 31
0.000000
  0
TEXT
  8
LAYER-1
 62
  7
 10
2.460786
 20
7.083896
 30
0.000000
 40
0.081818
  1
m to 
 72
  5
 11
2.751695
 21
7.083896
 31
0.000000
  0
TEXT
  8
LAYER-1
 62
  7
 10
2.751695
 20
7.083896
 30
0.000000
 40
0.102273
  1
3,0
 72
  5
 11
2.978968
 21
7.083896
 31
0.000000
  0
TEXT
  8
LAYER-1
 62
  7
 10
2.978968
 20
7.083896
 30
0.000000
 40
0.081818
  1
m
 72
  5
 11
3.124422
 21
7.083896
 31
0.000000
  0
TEXT
  8
LAYER-1
 62
  7
 10
2.297150
 20
7.420259
 30
0.000000
 40
0.102273
  1
up 
 72
  5
 11
2.524422
 21
7.420259
 31
0.000000
  0
TEXT
  8
LAYER-1
 62
  7
 10
2.524422
 20
7.420259
 30
0.000000
 40
0.081818
  1
to
 72
  5
 11
2.660786
 21
7.420259
 31
0.000000
  0
TEXT
  8
LAYER-1
 62
  7
 10
2.660786
 20
7.420259
 30
0.000000
 40
0.102273
  1
 1,8
 72
  5
 11
2.924422
 21
7.420259
 31
0.000000
  0
TEXT
  8
LAYER-1
 62
  7
 10
2.924422
 20
7.420259
 30
0.000000
 40
0.081818
  1
m
 72
  5
 11
3.069877
 21
7.420259
 31
0.000000
  0
TEXT
  8
LAYER-1
 62
  7
 10
2.206241
 20
6.783896
 30
0.000000
 40
0.102273
  1
3,0
 72
  5
 11
2.433513
 21
6.783896
 31
0.000000
  0
TEXT
  8
LAYER-1
 62
  7
 10
2.433513
 20
6.783896
 30
0.000000
 40
0.081818
  1
m to 
 72
  5
 11
2.724422
 21
6.783896
 31
0.000000
  0
TEXT
  8
LAYER-1
 62
  7
 10
2.724422
 20
6.783896
 30
0.000000
 40
0.102273
  1
5,5
 72
  5
 11
2.951695
 21
6.783896
 31
0.000000
  0
TEXT
  8
LAYER-1
 62
  7
 10
2.951695
 20
6.783896
 30
0.000000
 40
0.081818
  1
m
 72
  5
 11
3.097150
 21
6.783896
 31
0.000000
  0
TEXT
  8
LAYER-1
 62
  7
 10
2.206241
 20
6.438441
 30
0.000000
 40
0.102273
  1
5,5
 72
  5
 11
2.433513
 21
6.438441
 31
0.000000
  0
TEXT
  8
LAYER-1
 62
  7
 10
2.433513
 20
6.438441
 30
0.000000
 40
0.081818
  1
m to 
 72
  5
 11
2.724422
 21
6.438441
 31
0.000000
  0
TEXT
  8
LAYER-1
 62
  7
 10
2.724422
 20
6.438441
 30
0.000000
 40
0.102273
  1
6,1
 72
  5
 11
2.951695
 21
6.438441
 31
0.000000
  0
TEXT
  8
LAYER-1
 62
  7
 10
2.951695
 20
6.438441
 30
0.000000
 40
0.081818
  1
m
 72
  5
 11
3.097150
 21
6.438441
 31
0.000000
  0
TEXT
  8
LAYER-1
 62
  7
 10
6.697150
 20
6.102077
 30
0.000000
 40
0.102273
  1
457 x 508
 72
  5
 11
7.315332
 21
6.102077
 31
0.000000
  0
TEXT
  8
LAYER-1
 62
  7
 10
2.506241
 20
5.420259
 30
0.000000
 40
0.115909
  1
203mm dia  BARREL  -  CEILING HEIGHT (meters)
 72
  5
 11
6.106241
 21
5.420259
 31
0.000000
  0
TEXT
  8
LAYER-1
 62
  7
 10
6.588059
 20
5.238441
 30
0.000000
 40
0.115909
  1
END PLATE
 72
  5
 11
7.451695
 21
5.238441
 31
0.000000
  0
TEXT
  8
LAYER-1
 62
  7
 10
6.660786
 20
5.056623
 30
0.000000
 40
0.115909
  1
"X"  x  "Y"
 72
  5
 11
7.369877
 21
5.056623
 31
0.000000
  0
TEXT
  8
LAYER-1
 62
  7
 10
6.697150
 20
4.756623
 30
0.000000
 40
0.102273
  1
356 x 406
 72
  5
 11
7.315332
 21
4.756623
 31
0.000000
  0
POLYLINE
  8
LAYER-1
 66
  1
 70
  0
 62
  7
 40
0.018182
 41
0.018182
 10
1.895789
 20
5.572598
 30
0.000000
  0
VERTEX
  8
LAYER-1
 10
1.895789
 20
5.572598
 30
0.000000
  0
VERTEX
  8
LAYER-1
 10
7.566801
 20
5.572598
 30
0.000000
  0
SEQEND
  8
LAYER-1
  0
POLYLINE
  8
LAYER-1
 66
  1
 70
  0
 62
  7
 40
0.018182
 41
0.018182
 10
7.570273
 20
5.572598
 30
0.000000
  0
VERTEX
  8
LAYER-1
 10
7.570273
 20
5.572598
 30
0.000000
  0
VERTEX
  8
LAYER-1
 10
7.570273
 20
3.602662
 30
0.000000
  0
SEQEND
  8
LAYER-1
  0
POLYLINE
  8
LAYER-1
 66
  1
 70
  0
 62
  7
 40
0.018182
 41
0.018182
 10
1.895789
 20
3.602662
 30
0.000000
  0
VERTEX
  8
LAYER-1
 10
1.895789
 20
3.602662
 30
0.000000
  0
VERTEX
  8
LAYER-1
 10
7.570273
 20
3.602662
 30
0.000000
  0
SEQEND
  8
LAYER-1
  0
POLYLINE
  8
LAYER-1
 66
  1
 70
  0
 62
  7
 40
0.018182
 41
0.018182
 10
1.895789
 20
3.602662
 30
0.000000
  0
VERTEX
  8
LAYER-1
 10
1.895789
 20
3.602662
 30
0.000000
  0
VERTEX
  8
LAYER-1
 10
1.895789
 20
5.572598
 30
0.000000
  0
SEQEND
  8
LAYER-1
  0
POLYLINE
  8
LAYER-1
 66
  1
 70
  0
 62
  7
 40
0.018182
 41
0.018182
 10
1.895789
 20
4.906265
 30
0.000000
  0
VERTEX
  8
LAYER-1
 10
1.895789
 20
4.906265
 30
0.000000
  0
VERTEX
  8
LAYER-1
 10
7.570221
 20
4.907492
 30
0.000000
  0
SEQEND
  8
LAYER-1
  0
POLYLINE
  8
LAYER-1
 66
  1
 70
  0
 62
  7
 10
1.895789
 20
4.576952
 30
0.000000
  0
VERTEX
  8
LAYER-1
 10
1.895789
 20
4.576952
 30
0.000000
  0
VERTEX
  8
LAYER-1
 10
7.570221
 20
4.576599
 30
0.000000
  0
SEQEND
  8
LAYER-1
  0
POLYLINE
  8
LAYER-1
 66
  1
 70
  0
 62
  7
 10
1.895789
 20
4.243124
 30
0.000000
  0
VERTEX
  8
LAYER-1
 10
1.895789
 20
4.243124
 30
0.000000
  0
VERTEX
  8
LAYER-1
 10
7.570221
 20
4.242731
 30
0.000000
  0
SEQEND
  8
LAYER-1
  0
POLYLINE
  8
LAYER-1
 66
  1
 70
  0
 62
  7
 10
1.895789
 20
3.927152
 30
0.000000
  0
VERTEX
  8
LAYER-1
 10
1.895789
 20
3.927152
 30
0.000000
  0
VERTEX
  8
LAYER-1
 10
7.570221
 20
3.926723
 30
0.000000
  0
SEQEND
  8
LAYER-1
  0
POLYLINE
  8
LAYER-1
 66
  1
 70
  0
 62
  7
 10
1.895789
 20
5.354225
 30
0.000000
  0
VERTEX
  8
LAYER-1
 10
1.895789
 20
5.354225
 30
0.000000
  0
VERTEX
  8
LAYER-1
 10
6.471804
 20
5.354125
 30
0.000000
  0
SEQEND
  8
LAYER-1
  0
POLYLINE
  8
LAYER-1
 66
  1
 70
  0
 62
  7
 10
6.471804
 20
3.602662
 30
0.000000
  0
VERTEX
  8
LAYER-1
 10
6.471804
 20
3.602662
 30
0.000000
  0
VERTEX
  8
LAYER-1
 10
6.471804
 20
5.572598
 30
0.000000
  0
SEQEND
  8
LAYER-1
  0
POLYLINE
  8
LAYER-1
 66
  1
 70
  0
 62
  7
 10
3.247666
 20
3.602662
 30
0.000000
  0
VERTEX
  8
LAYER-1
 10
3.247666
 20
3.602662
 30
0.000000
  0
VERTEX
  8
LAYER-1
 10
3.247577
 20
5.354125
 30
0.000000
  0
SEQEND
  8
LAYER-1
  0
POLYLINE
  8
LAYER-1
 66
  1
 70
  0
 62
  7
 10
4.052644
 20
3.602662
 30
0.000000
  0
VERTEX
  8
LAYER-1
 10
4.052644
 20
3.602662
 30
0.000000
  0
VERTEX
  8
LAYER-1
 10
4.050559
 20
5.055610
 30
0.000000
  0
SEQEND
  8
LAYER-1
  0
POLYLINE
  8
LAYER-1
 66
  1
 70
  0
 62
  7
 10
4.867322
 20
3.602662
 30
0.000000
  0
VERTEX
  8
LAYER-1
 10
4.867322
 20
3.602662
 30
0.000000
  0
VERTEX
  8
LAYER-1
 10
4.867146
 20
5.354125
 30
0.000000
  0
SEQEND
  8
LAYER-1
  0
POLYLINE
  8
LAYER-1
 66
  1
 70
  0
 62
  7
 10
5.675417
 20
3.602662
 30
0.000000
  0
VERTEX
  8
LAYER-1
 10
5.675417
 20
3.602662
 30
0.000000
  0
VERTEX
  8
LAYER-1
 10
5.675558
 20
5.055610
 30
0.000000
  0
SEQEND
  8
LAYER-1
  0
TEXT
  8
LAYER-1
 62
  7
 10
6.788059
 20
4.574805
 30
0.000000
 40
0.061364
  1
min for motor
 72
  5
 11
7.324422
 21
4.574805
 31
0.000000
  0
TEXT
  8
LAYER-1
 62
  7
 10
6.651695
 20
4.247532
 30
0.000000
 40
0.061364
  1
min for 102mm tubes
 72
  5
 11
7.478968
 21
4.247532
 31
0.000000
  0
TEXT
  8
LAYER-1
 62
  7
 10
3.269877
 20
3.738441
 30
0.000000
 40
0.102273
  1
4,6
 72
  5
 11
3.497150
 21
3.738441
 31
0.000000
  0
TEXT
  8
LAYER-1
 62
  7
 10
3.497150
 20
3.738441
 30
0.000000
 40
0.081818
  1
m to 
 72
  5
 11
3.788059
 21
3.738441
 31
0.000000
  0
TEXT
  8
LAYER-1
 62
  7
 10
3.788059
 20
3.738441
 30
0.000000
 40
0.102273
  1
6,1
 72
  5
 11
4.015332
 21
3.738441
 31
0.000000
  0
TEXT
  8
LAYER-1
 62
  7
 10
4.015332
 20
3.738441
 30
0.000000
 40
0.081818
  1
m
 72
  5
 11
4.160786
 21
3.738441
 31
0.000000
  0
TEXT
  8
LAYER-1
 62
  7
 10
4.088059
 20
3.738441
 30
0.000000
 40
0.102273
  1
5,2
 72
  5
 11
4.315332
 21
3.738441
 31
0.000000
  0
TEXT
  8
LAYER-1
 62
  7
 10
4.315332
 20
3.738441
 30
0.000000
 40
0.081818
  1
m to 
 72
  5
 11
4.606241
 21
3.738441
 31
0.000000
  0
TEXT
  8
LAYER-1
 62
  7
 10
4.606241
 20
3.738441
 30
0.000000
 40
0.102273
  1
6,1
 72
  5
 11
4.833513
 21
3.738441
 31
0.000000
  0
TEXT
  8
LAYER-1
 62
  7
 10
4.833513
 20
3.738441
 30
0.000000
 40
0.081818
  1
m
 72
  5
 11
4.978968
 21
3.738441
 31
0.000000
  0
TEXT
  8
LAYER-1
 62
  7
 10
2.224422
 20
4.383896
 30
0.000000
 40
0.102273
  1
4,6
 72
  5
 11
2.451695
 21
4.383896
 31
0.000000
  0
TEXT
  8
LAYER-1
 62
  7
 10
2.451695
 20
4.383896
 30
0.000000
 40
0.081818
  1
m to 
 72
  5
 11
2.742604
 21
4.383896
 31
0.000000
  0
TEXT
  8
LAYER-1
 62
  7
 10
2.742604
 20
4.383896
 30
0.000000
 40
0.102273
  1
6,1
 72
  5
 11
2.969877
 21
4.383896
 31
0.000000
  0
TEXT
  8
LAYER-1
 62
  7
 10
2.969877
 20
4.383896
 30
0.000000
 40
0.081818
  1
m
 72
  5
 11
3.115332
 21
4.383896
 31
0.000000
  0
TEXT
  8
LAYER-1
 62
  7
 10
3.333513
 20
4.711168
 30
0.000000
 40
0.102273
  1
up 
 72
  5
 11
3.560786
 21
4.711168
 31
0.000000
  0
TEXT
  8
LAYER-1
 62
  7
 10
3.560786
 20
4.711168
 30
0.000000
 40
0.081818
  1
to
 72
  5
 11
3.697150
 21
4.711168
 31
0.000000
  0
TEXT
  8
LAYER-1
 62
  7
 10
3.697150
 20
4.711168
 30
0.000000
 40
0.102273
  1
 2,4
 72
  5
 11
3.960786
 21
4.711168
 31
0.000000
  0
TEXT
  8
LAYER-1
 62
  7
 10
3.960786
 20
4.711168
 30
0.000000
 40
0.081818
  1
m
 72
  5
 11
4.106241
 21
4.711168
 31
0.000000
  0
TEXT
  8
LAYER-1
 62
  7
 10
4.142604
 20
4.711168
 30
0.000000
 40
0.102273
  1
up 
 72
  5
 11
4.369877
 21
4.711168
 31
0.000000
  0
TEXT
  8
LAYER-1
 62
  7
 10
4.369877
 20
4.711168
 30
0.000000
 40
0.081818
  1
to
 72
  5
 11
4.506241
 21
4.711168
 31
0.000000
  0
TEXT
  8
LAYER-1
 62
  7
 10
4.506241
 20
4.711168
 30
0.000000
 40
0.102273
  1
 3,0
 72
  5
 11
4.769877
 21
4.711168
 31
0.000000
  0
TEXT
  8
LAYER-1
 62
  7
 10
4.769877
 20
4.711168
 30
0.000000
 40
0.081818
  1
m
 72
  5
 11
4.915332
 21
4.711168
 31
0.000000
  0
TEXT
  8
LAYER-1
 62
  7
 10
2.324422
 20
4.674805
 30
0.000000
 40
0.102273
  1
up 
 72
  5
 11
2.551695
 21
4.674805
 31
0.000000
  0
TEXT
  8
LAYER-1
 62
  7
 10
2.551695
 20
4.674805
 30
0.000000
 40
0.081818
  1
to
 72
  5
 11
2.688059
 21
4.674805
 31
0.000000
  0
TEXT
  8
LAYER-1
 62
  7
 10
2.688059
 20
4.674805
 30
0.000000
 40
0.102273
  1
 4,6
 72
  5
 11
2.951695
 21
4.674805
 31
0.000000
  0
TEXT
  8
LAYER-1
 62
  7
 10
2.951695
 20
4.674805
 30
0.000000
 40
0.081818
  1
m
 72
  5
 11
3.097150
 21
4.674805
 31
0.000000
  0
TEXT
  8
LAYER-1
 62
  7
 10
4.951695
 20
4.711168
 30
0.000000
 40
0.102273
  1
up 
 72
  5
 11
5.178968
 21
4.711168
 31
0.000000
  0
TEXT
  8
LAYER-1
 62
  7
 10
5.178968
 20
4.711168
 30
0.000000
 40
0.081818
  1
to
 72
  5
 11
5.315332
 21
4.711168
 31
0.000000
  0
TEXT
  8
LAYER-1
 62
  7
 10
5.315332
 20
4.711168
 30
0.000000
 40
0.102273
  1
 3,4
 72
  5
 11
5.578968
 21
4.711168
 31
0.000000
  0
TEXT
  8
LAYER-1
 62
  7
 10
5.578968
 20
4.711168
 30
0.000000
 40
0.081818
  1
m
 72
  5
 11
5.724422
 21
4.711168
 31
0.000000
  0
TEXT
  8
LAYER-1
 62
  7
 10
5.806241
 20
4.674805
 30
0.000000
 40
0.102273
  1
up 
 72
  5
 11
6.033513
 21
4.674805
 31
0.000000
  0
TEXT
  8
LAYER-1
 62
  7
 10
6.033513
 20
4.674805
 30
0.000000
 40
0.081818
  1
to
 72
  5
 11
6.169877
 21
4.674805
 31
0.000000
  0
TEXT
  8
LAYER-1
 62
  7
 10
6.169877
 20
4.674805
 30
0.000000
 40
0.102273
  1
 4,3
 72
  5
 11
6.433513
 21
4.674805
 31
0.000000
  0
TEXT
  8
LAYER-1
 62
  7
 10
6.433513
 20
4.674805
 30
0.000000
 40
0.081818
  1
m
 72
  5
 11
6.578968
 21
4.674805
 31
0.000000
  0
TEXT
  8
LAYER-1
 62
  7
 10
3.306241
 20
4.338441
 30
0.000000
 40
0.102273
  1
2,4
 72
  5
 11
3.533513
 21
4.338441
 31
0.000000
  0
TEXT
  8
LAYER-1
 62
  7
 10
3.533513
 20
4.338441
 30
0.000000
 40
0.081818
  1
m to 
 72
  5
 11
3.824422
 21
4.338441
 31
0.000000
  0
TEXT
  8
LAYER-1
 62
  7
 10
3.824422
 20
4.338441
 30
0.000000
 40
0.102273
  1
4,0
 72
  5
 11
4.051695
 21
4.338441
 31
0.000000
  0
TEXT
  8
LAYER-1
 62
  7
 10
4.051695
 20
4.338441
 30
0.000000
 40
0.081818
  1
m
 72
  5
 11
4.197150
 21
4.338441
 31
0.000000
  0
TEXT
  8
LAYER-1
 62
  7
 10
4.088059
 20
4.383896
 30
0.000000
 40
0.102273
  1
3,0
 72
  5
 11
4.315332
 21
4.383896
 31
0.000000
  0
TEXT
  8
LAYER-1
 62
  7
 10
4.315332
 20
4.383896
 30
0.000000
 40
0.081818
  1
m to 
 72
  5
 11
4.606241
 21
4.383896
 31
0.000000
  0
TEXT
  8
LAYER-1
 62
  7
 10
4.606241
 20
4.383896
 30
0.000000
 40
0.102273
  1
4,6
 72
  5
 11
4.833513
 21
4.383896
 31
0.000000
  0
TEXT
  8
LAYER-1
 62
  7
 10
4.833513
 20
4.383896
 30
0.000000
 40
0.081818
  1
m
 72
  5
 11
4.978968
 21
4.383896
 31
0.000000
  0
TEXT
  8
LAYER-1
 62
  7
 10
4.897150
 20
4.374805
 30
0.000000
 40
0.102273
  1
3,4
 72
  5
 11
5.124422
 21
4.374805
 31
0.000000
  0
TEXT
  8
LAYER-1
 62
  7
 10
5.124422
 20
4.374805
 30
0.000000
 40
0.081818
  1
m to 
 72
  5
 11
5.415332
 21
4.374805
 31
0.000000
  0
TEXT
  8
LAYER-1
 62
  7
 10
5.415332
 20
4.374805
 30
0.000000
 40
0.102273
  1
5,5
 72
  5
 11
5.642604
 21
4.374805
 31
0.000000
  0
TEXT
  8
LAYER-1
 62
  7
 10
5.642604
 20
4.374805
 30
0.000000
 40
0.081818
  1
m
 72
  5
 11
5.788059
 21
4.374805
 31
0.000000
  0
TEXT
  8
LAYER-1
 62
  7
 10
5.697150
 20
4.383896
 30
0.000000
 40
0.102273
  1
4,3
 72
  5
 11
5.924422
 21
4.383896
 31
0.000000
  0
TEXT
  8
LAYER-1
 62
  7
 10
5.924422
 20
4.383896
 30
0.000000
 40
0.081818
  1
m to 
 72
  5
 11
6.215332
 21
4.383896
 31
0.000000
  0
TEXT
  8
LAYER-1
 62
  7
 10
6.215332
 20
4.383896
 30
0.000000
 40
0.102273
  1
6,1
 72
  5
 11
6.442604
 21
4.383896
 31
0.000000
  0
TEXT
  8
LAYER-1
 62
  7
 10
6.442604
 20
4.383896
 30
0.000000
 40
0.081818
  1
m
 72
  5
 11
6.588059
 21
4.383896
 31
0.000000
  0
TEXT
  8
LAYER-1
 62
  7
 10
3.269877
 20
4.047532
 30
0.000000
 40
0.102273
  1
4,0
 72
  5
 11
3.497150
 21
4.047532
 31
0.000000
  0
TEXT
  8
LAYER-1
 62
  7
 10
3.497150
 20
4.047532
 30
0.000000
 40
0.081818
  1
m to 
 72
  5
 11
3.788059
 21
4.047532
 31
0.000000
  0
TEXT
  8
LAYER-1
 62
  7
 10
3.788059
 20
4.047532
 30
0.000000
 40
0.102273
  1
4,6
 72
  5
 11
4.015332
 21
4.047532
 31
0.000000
  0
TEXT
  8
LAYER-1
 62
  7
 10
4.015332
 20
4.047532
 30
0.000000
 40
0.081818
  1
m
 72
  5
 11
4.160786
 21
4.047532
 31
0.000000
  0
TEXT
  8
LAYER-1
 62
  7
 10
4.088059
 20
4.047532
 30
0.000000
 40
0.102273
  1
4,6
 72
  5
 11
4.315332
 21
4.047532
 31
0.000000
  0
TEXT
  8
LAYER-1
 62
  7
 10
4.315332
 20
4.047532
 30
0.000000
 40
0.081818
  1
m to 
 72
  5
 11
4.606241
 21
4.047532
 31
0.000000
  0
TEXT
  8
LAYER-1
 62
  7
 10
4.606241
 20
4.047532
 30
0.000000
 40
0.102273
  1
5,2
 72
  5
 11
4.833513
 21
4.047532
 31
0.000000
  0
TEXT
  8
LAYER-1
 62
  7
 10
4.833513
 20
4.047532
 30
0.000000
 40
0.081818
  1
m
 72
  5
 11
4.978968
 21
4.047532
 31
0.000000
  0
TEXT
  8
LAYER-1
 62
  7
 10
4.897150
 20
4.047532
 30
0.000000
 40
0.102273
  1
5,5
 72
  5
 11
5.124422
 21
4.047532
 31
0.000000
  0
TEXT
  8
LAYER-1
 62
  7
 10
5.124422
 20
4.047532
 30
0.000000
 40
0.081818
  1
m to 
 72
  5
 11
5.415332
 21
4.047532
 31
0.000000
  0
TEXT
  8
LAYER-1
 62
  7
 10
5.415332
 20
4.047532
 30
0.000000
 40
0.102273
  1
6,1
 72
  5
 11
5.642604
 21
4.047532
 31
0.000000
  0
TEXT
  8
LAYER-1
 62
  7
 10
5.642604
 20
4.047532
 30
0.000000
 40
0.081818
  1
m
 72
  5
 11
5.788059
 21
4.047532
 31
0.000000
  0
TEXT
  8
LAYER-1
 62
  7
 10
6.706241
 20
3.738441
 30
0.000000
 40
0.102273
  1
508 x 559
 72
  5
 11
7.324422
 21
3.738441
 31
0.000000
  0
TEXT
  8
LAYER-1
 62
  7
 10
6.697150
 20
4.438441
 30
0.000000
 40
0.102273
  1
406 x 457
 72
  5
 11
7.315332
 21
4.438441
 31
0.000000
  0
TEXT
  8
LAYER-1
 62
  7
 10
6.706241
 20
4.011168
 30
0.000000
 40
0.102273
  1
457 x 508
 72
  5
 11
7.324422
 21
4.011168
 31
0.000000
  0
TEXT
  8
LAYER-1
 62
  7
 10
5.360786
 20
5.174805
 30
0.000000
 40
0.102273
  1
ROLL-99
 72
  5
 11
5.951695
 21
5.174805
 31
0.000000
  0
TEXT
  8
LAYER-1
 62
  7
 10
4.233513
 20
4.956623
 30
0.000000
 40
0.075000
  1
NO HOOD
 72
  5
 11
4.715332
 21
4.956623
 31
0.000000
  0
TEXT
  8
LAYER-1
 62
  7
 10
3.360786
 20
4.956623
 30
0.000000
 40
0.075000
  1
WITH HOOD
 72
  5
 11
3.933513
 21
4.956623
 31
0.000000
  0
TEXT
  8
LAYER-1
 62
  7
 10
5.833513
 20
4.956623
 30
0.000000
 40
0.075000
  1
NO HOOD
 72
  5
 11
6.315332
 21
4.956623
 31
0.000000
  0
TEXT
  8
LAYER-1
 62
  7
 10
4.988059
 20
4.956623
 30
0.000000
 40
0.075000
  1
WITH HOOD
 72
  5
 11
5.560786
 21
4.956623
 31
0.000000
  0
POLYLINE
  8
LAYER-1
 66
  1
 70
  0
 62
  7
 10
1.897263
 20
5.059974
 30
0.000000
  0
VERTEX
  8
LAYER-1
 10
1.897263
 20
5.059974
 30
0.000000
  0
VERTEX
  8
LAYER-1
 10
6.473275
 20
5.055927
 30
0.000000
  0
SEQEND
  8
LAYER-1
  0
TEXT
  8
LAYER-1
 62
  7
 10
2.115332
 20
5.247532
 30
0.000000
 40
0.102273
  1
ROLL-VISION,
 72
  5
 11
3.024422
 21
5.247532
 31
0.000000
  0
TEXT
  8
LAYER-1
 62
  7
 10
1.933513
 20
5.092987
 30
0.000000
 40
0.102273
  1
R-AIR
 72
  5
 11
2.333513
 21
5.092987
 31
0.000000
  0
TEXT
  8
LAYER-1
 62
  7
 10
2.333513
 20
5.092987
 30
0.000000
 40
0.061364
  1
 & 
 72
  5
 11
2.488059
 21
5.092987
 31
0.000000
  0
TEXT
  8
LAYER-1
 62
  7
 10
2.488059
 20
5.092987
 30
0.000000
 40
0.102273
  1
R-SHUTTER
 72
  5
 11
3.306241
 21
5.092987
 31
0.000000
  0
TEXT
  8
LAYER-1
 62
  7
 10
1.988059
 20
4.956623
 30
0.000000
 40
0.075000
  1
WITH 
 72
  5
 11
2.288059
 21
4.956623
 31
0.000000
  0
TEXT
  8
LAYER-1
 62
  7
 10
2.288059
 20
4.956623
 30
0.000000
 40
0.061364
  1
OR
 72
  5
 11
2.451695
 21
4.956623
 31
0.000000
  0
TEXT
  8
LAYER-1
 62
  7
 10
2.451695
 20
4.956623
 30
0.000000
 40
0.075000
  1
 WITHOUT HOOD
 72
  5
 11
3.242604
 21
4.956623
 31
0.000000
  0
TEXT
  8
LAYER-1
 62
  7
 10
2.342604
 20
3.747532
 30
0.000000
 40
0.075000
  1
Over 6,1m
 72
  5
 11
2.842604
 21
3.747532
 31
0.000000
  0
TEXT
  8
LAYER-1
 62
  7
 10
2.288059
 20
3.638441
 30
0.000000
 40
0.075000
  1
Not available
 72
  5
 11
2.888059
 21
3.638441
 31
0.000000
  0
TEXT
  8
LAYER-1
 62
  7
 10
5.006241
 20
3.756623
 30
0.000000
 40
0.075000
  1
Over 6,1m
 72
  5
 11
5.506241
 21
3.756623
 31
0.000000
  0
TEXT
  8
LAYER-1
 62
  7
 10
4.951695
 20
3.647532
 30
0.000000
 40
0.075000
  1
Not available
 72
  5
 11
5.551695
 21
3.647532
 31
0.000000
  0
TEXT
  8
LAYER-1
 62
  7
 10
5.824422
 20
3.756623
 30
0.000000
 40
0.075000
  1
Over 6,1m
 72
  5
 11
6.324422
 21
3.756623
 31
0.000000
  0
TEXT
  8
LAYER-1
 62
  7
 10
5.769877
 20
3.647532
 30
0.000000
 40
0.075000
  1
Not available
 72
  5
 11
6.369877
 21
3.647532
 31
0.000000
  0
TEXT
  8
LAYER-1
 62
  7
 10
2.342604
 20
4.083896
 30
0.000000
 40
0.075000
  1
Over 6,1m
 72
  5
 11
2.842604
 21
4.083896
 31
0.000000
  0
TEXT
  8
LAYER-1
 62
  7
 10
2.288059
 20
3.974805
 30
0.000000
 40
0.075000
  1
Not available
 72
  5
 11
2.888059
 21
3.974805
 31
0.000000
  0
TEXT
  8
LAYER-1
 62
  7
 10
5.824422
 20
4.083896
 30
0.000000
 40
0.075000
  1
Over 6,1m
 72
  5
 11
6.324422
 21
4.083896
 31
0.000000
  0
TEXT
  8
LAYER-1
 62
  7
 10
5.769877
 20
3.974805
 30
0.000000
 40
0.075000
  1
Not available
 72
  5
 11
6.369877
 21
3.974805
 31
0.000000
  0
TEXT
  8
LAYER-1
 62
  7
 10
1.878968
 20
5.665714
 30
0.000000
 40
0.122727
  1
End plate sizes ( For doors over 6,7m wide / maximum 9,1m wide )
 72
  5
 11
7.060786
 21
5.665714
 31
0.000000
  0
TEXT
  8
LAYER-1
 62
  7
 10
3.724422
 20
5.247532
 30
0.000000
 40
0.102273
  1
ROLL-126 
 72
  5
 11
4.424422
 21
5.247532
 31
0.000000
  0
TEXT
  8
LAYER-1
 62
  7
 10
4.424422
 20
5.247532
 30
0.000000
 40
0.061364
  1
&
 72
  5
 11
4.524422
 21
5.247532
 31
0.000000
  0
TEXT
  8
LAYER-1
 62
  7
 10
3.642604
 20
5.092987
 30
0.000000
 40
0.102273
  1
ROLL-GUARD
 72
  5
 11
4.560786
 21
5.092987
 31
0.000000
  0
TEXT
  8
LAYER-1
 62
  7
 10
6.751695
 20
4.711168
 30
0.000000
 40
0.061364
  1
(25mm shaft)
 72
  5
 11
7.288059
 21
4.711168
 31
0.000000
  0
TEXT
  8
LAYER-1
 62
  7
 10
6.751695
 20
4.383896
 30
0.000000
 40
0.061364
  1
(32mm shaft)
 72
  5
 11
7.288059
 21
4.383896
 31
0.000000
  0
POLYLINE
  8
LAYER-1
 66
  1
 70
  0
 62
  7
 40
0.018182
 41
0.018182
 10
4.297504
 20
1.922169
 30
0.000000
  0
VERTEX
  8
LAYER-1
 10
4.297504
 20
1.922169
 30
0.000000
  0
VERTEX
  8
LAYER-1
 10
4.297504
 20
2.942169
 30
0.000000
  0
SEQEND
  8
LAYER-1
  0
POLYLINE
  8
LAYER-1
 66
  1
 70
  0
 62
  7
 10
6.470695
 20
2.945207
 30
0.000000
  0
VERTEX
  8
LAYER-1
 10
6.470695
 20
2.945207
 30
0.000000
  0
VERTEX
  8
LAYER-1
 10
6.470695
 20
1.922634
 30
0.000000
  0
SEQEND
  8
LAYER-1
  0
TEXT
  8
LAYER-1
 62
  7
 10
4.742604
 20
2.783896
 30
0.000000
 40
0.115909
  1
CEILING HEIGHT
 72
  5
 11
5.997150
 21
2.783896
 31
0.000000
  0
TEXT
  8
LAYER-1
 62
  7
 10
6.560786
 20
2.783896
 30
0.000000
 40
0.115909
  1
END PLATE
 72
  5
 11
7.451695
 21
2.783896
 31
0.000000
  0
TEXT
  8
LAYER-1
 62
  7
 10
6.669877
 20
2.020259
 30
0.000000
 40
0.115909
  1
254 x 254
 72
  5
 11
7.360786
 21
2.020259
 31
0.000000
  0
TEXT
  8
LAYER-1
 62
  7
 10
6.669877
 20
2.356623
 30
0.000000
 40
0.115909
  1
203 x 203
 72
  5
 11
7.360786
 21
2.356623
 31
0.000000
  0
POLYLINE
  8
LAYER-1
 66
  1
 70
  0
 62
  7
 40
0.018182
 41
0.018182
 10
7.564448
 20
2.943469
 30
0.000000
  0
VERTEX
  8
LAYER-1
 10
7.564448
 20
2.943469
 30
0.000000
  0
VERTEX
  8
LAYER-1
 10
7.564448
 20
1.922169
 30
0.000000
  0
SEQEND
  8
LAYER-1
  0
TEXT
  8
LAYER-1
 62
  7
 10
4.288059
 20
3.220259
 30
0.000000
 40
0.122727
  1
End plate sizes
 72
  5
 11
5.515332
 21
3.220259
 31
0.000000
  0
TEXT
  8
LAYER-1
 62
  7
 10
5.515332
 20
3.220259
 30
0.000000
 40
0.115909
  1
: 102mm & 114mm dia Barrel
 72
  5
 11
7.597150
 21
3.220259
 31
0.000000
  0
TEXT
  8
LAYER-1
 62
  7
 10
4.288059
 20
3.029350
 30
0.000000
 40
0.122727
  1
( For Counter Shutter  & SLIM models )
 72
  5
 11
7.351695
 21
3.029350
 31
0.000000
  0
POLYLINE
  8
LAYER-1
 66
  1
 70
  0
 62
  7
 10
4.301255
 20
2.262170
 30
0.000000
  0
VERTEX
  8
LAYER-1
 10
4.301255
 20
2.262170
 30
0.000000
  0
VERTEX
  8
LAYER-1
 10
7.564449
 20
2.262170
 30
0.000000
  0
SEQEND
  8
LAYER-1
  0
POLYLINE
  8
LAYER-1
 66
  1
 70
  0
 62
  7
 10
4.301255
 20
2.602170
 30
0.000000
  0
VERTEX
  8
LAYER-1
 10
4.301255
 20
2.602170
 30
0.000000
  0
VERTEX
  8
LAYER-1
 10
7.564449
 20
2.602170
 30
0.000000
  0
SEQEND
  8
LAYER-1
  0
POLYLINE
  8
LAYER-1
 66
  1
 70
  0
 62
  7
 40
0.018182
 41
0.018182
 10
4.301255
 20
2.942169
 30
0.000000
  0
VERTEX
  8
LAYER-1
 10
4.301255
 20
2.942169
 30
0.000000
  0
VERTEX
  8
LAYER-1
 10
7.564448
 20
2.942169
 30
0.000000
  0
SEQEND
  8
LAYER-1
  0
POLYLINE
  8
LAYER-1
 66
  1
 70
  0
 62
  7
 40
0.018182
 41
0.018182
 10
4.301255
 20
1.922169
 30
0.000000
  0
VERTEX
  8
LAYER-1
 10
4.301255
 20
1.922169
 30
0.000000
  0
VERTEX
  8
LAYER-1
 10
7.564448
 20
1.922169
 30
0.000000
  0
SEQEND
  8
LAYER-1
  0
POLYLINE
  8
LAYER-1
 66
  1
 70
  0
 62
  7
 40
0.018182
 41
0.018182
 10
7.562853
 20
1.380536
 30
0.000000
  0
VERTEX
  8
LAYER-1
 10
7.562853
 20
1.380536
 30
0.000000
  0
VERTEX
  8
LAYER-1
 10
7.562853
 20
0.242477
 30
0.000000
  0
SEQEND
  8
LAYER-1
  0
POLYLINE
  8
LAYER-1
 66
  1
 70
  0
 62
  7
 40
0.018182
 41
0.018182
 10
1.893826
 20
0.242477
 30
0.000000
  0
VERTEX
  8
LAYER-1
 10
1.893826
 20
0.242477
 30
0.000000
  0
VERTEX
  8
LAYER-1
 10
1.893826
 20
1.380536
 30
0.000000
  0
SEQEND
  8
LAYER-1
  0
TEXT
  8
LAYER-1
 62
  7
 10
1.969877
 20
0.711168
 30
0.000000
 40
0.115909
  1
CEILING HEIGHT
 72
  5
 11
3.224422
 21
0.711168
 31
0.000000
  0
TEXT
  8
LAYER-1
 62
  7
 10
1.960786
 20
0.365714
 30
0.000000
 40
0.115909
  1
PACK-OFF  "Z"
 72
  5
 11
3.097150
 21
0.365714
 31
0.000000
  0
POLYLINE
  8
LAYER-1
 66
  1
 70
  0
 62
  7
 40
0.018182
 41
0.018182
 10
1.893826
 20
1.380536
 30
0.000000
  0
VERTEX
  8
LAYER-1
 10
1.893826
 20
1.380536
 30
0.000000
  0
VERTEX
  8
LAYER-1
 10
7.562853
 20
1.380536
 30
0.000000
  0
SEQEND
  8
LAYER-1
  0
POLYLINE
  8
LAYER-1
 66
  1
 70
  0
 62
  7
 10
1.893826
 20
0.922479
 30
0.000000
  0
VERTEX
  8
LAYER-1
 10
1.893826
 20
0.922479
 30
0.000000
  0
VERTEX
  8
LAYER-1
 10
7.562853
 20
0.922479
 30
0.000000
  0
SEQEND
  8
LAYER-1
  0
POLYLINE
  8
LAYER-1
 66
  1
 70
  0
 62
  7
 10
1.893826
 20
0.582478
 30
0.000000
  0
VERTEX
  8
LAYER-1
 10
1.893826
 20
0.582478
 30
0.000000
  0
VERTEX
  8
LAYER-1
 10
7.562853
 20
0.582478
 30
0.000000
  0
SEQEND
  8
LAYER-1
  0
POLYLINE
  8
LAYER-1
 66
  1
 70
  0
 62
  7
 40
0.018182
 41
0.018182
 10
1.893826
 20
0.242477
 30
0.000000
  0
VERTEX
  8
LAYER-1
 10
1.893826
 20
0.242477
 30
0.000000
  0
VERTEX
  8
LAYER-1
 10
7.562853
 20
0.242477
 30
0.000000
  0
SEQEND
  8
LAYER-1
  0
TEXT
  8
LAYER-1
 62
  7
 10
6.642604
 20
0.656623
 30
0.000000
 40
0.115909
  1
3,4
 72
  5
 11
6.897150
 21
0.656623
 31
0.000000
  0
TEXT
  8
LAYER-1
 62
  7
 10
6.897150
 20
0.656623
 30
0.000000
 40
0.081818
  1
m
 72
  5
 11
7.042604
 21
0.656623
 31
0.000000
  0
TEXT
  8
LAYER-1
 62
  7
 10
7.042604
 20
0.656623
 30
0.000000
 40
0.115909
  1
 and up
 72
  5
 11
7.588059
 21
0.656623
 31
0.000000
  0
TEXT
  8
LAYER-1
 62
  7
 10
5.897150
 20
1.129350
 30
0.000000
 40
0.122727
  1
For 
 72
  5
 11
6.251695
 21
1.129350
 31
0.000000
  0
TEXT
  8
LAYER-1
 62
  7
 10
6.251695
 20
1.129350
 30
0.000000
 40
0.115909
  1
102x102mm tubes
 72
  5
 11
7.569877
 21
1.129350
 31
0.000000
  0
TEXT
  8
LAYER-1
 62
  7
 10
3.715332
 20
1.211168
 30
0.000000
 40
0.122727
  1
For 
 72
  5
 11
4.069877
 21
1.211168
 31
0.000000
  0
TEXT
  8
LAYER-1
 62
  7
 10
4.069877
 20
1.211168
 30
0.000000
 40
0.115909
  1
76x76mm tubes and
 72
  5
 11
5.533513
 21
1.211168
 31
0.000000
  0
TEXT
  8
LAYER-1
 62
  7
 10
3.715332
 20
1.029350
 30
0.000000
 40
0.115909
  1
44x102mm Alum tubes
 72
  5
 11
5.351695
 21
1.029350
 31
0.000000
  0
TEXT
  8
LAYER-1
 62
  7
 10
3.469877
 20
0.365714
 30
0.000000
 40
0.122727
  1
51mm
 72
  5
 11
3.969877
 21
0.365714
 31
0.000000
  0
POLYLINE
  8
LAYER-1
 66
  1
 70
  0
 62
  7
 10
3.296219
 20
0.242477
 30
0.000000
  0
VERTEX
  8
LAYER-1
 10
3.296219
 20
0.242477
 30
0.000000
  0
VERTEX
  8
LAYER-1
 10
3.296219
 20
1.380536
 30
0.000000
  0
SEQEND
  8
LAYER-1
  0
POLYLINE
  8
LAYER-1
 66
  1
 70
  0
 62
  7
 10
4.120063
 20
0.242477
 30
0.000000
  0
VERTEX
  8
LAYER-1
 10
4.120063
 20
0.242477
 30
0.000000
  0
VERTEX
  8
LAYER-1
 10
4.120063
 20
0.919062
 30
0.000000
  0
SEQEND
  8
LAYER-1
  0
POLYLINE
  8
LAYER-1
 66
  1
 70
  0
 62
  7
 10
5.006406
 20
0.242477
 30
0.000000
  0
VERTEX
  8
LAYER-1
 10
5.006406
 20
0.242477
 30
0.000000
  0
VERTEX
  8
LAYER-1
 10
5.006406
 20
0.919062
 30
0.000000
  0
SEQEND
  8
LAYER-1
  0
POLYLINE
  8
LAYER-1
 66
  1
 70
  0
 62
  7
 10
5.860719
 20
0.242477
 30
0.000000
  0
VERTEX
  8
LAYER-1
 10
5.860719
 20
0.242477
 30
0.000000
  0
VERTEX
  8
LAYER-1
 10
5.860719
 20
1.377393
 30
0.000000
  0
SEQEND
  8
LAYER-1
  0
POLYLINE
  8
LAYER-1
 66
  1
 70
  0
 62
  7
 10
6.661906
 20
0.242477
 30
0.000000
  0
VERTEX
  8
LAYER-1
 10
6.661906
 20
0.242477
 30
0.000000
  0
VERTEX
  8
LAYER-1
 10
6.661906
 20
0.919062
 30
0.000000
  0
SEQEND
  8
LAYER-1
  0
TEXT
  8
LAYER-1
 62
  7
 10
4.315332
 20
0.365714
 30
0.000000
 40
0.122727
  1
57mm
 72
  5
 11
4.815332
 21
0.365714
 31
0.000000
  0
TEXT
  8
LAYER-1
 62
  7
 10
5.197150
 20
0.365714
 30
0.000000
 40
0.122727
  1
64mm
 72
  5
 11
5.697150
 21
0.365714
 31
0.000000
  0
TEXT
  8
LAYER-1
 62
  7
 10
6.042604
 20
0.374805
 30
0.000000
 40
0.122727
  1
57mm
 72
  5
 11
6.542604
 21
0.374805
 31
0.000000
  0
TEXT
  8
LAYER-1
 62
  7
 10
6.869877
 20
0.374805
 30
0.000000
 40
0.122727
  1
64mm
 72
  5
 11
7.369877
 21
0.374805
 31
0.000000
  0
TEXT
  8
LAYER-1
 62
  7
 10
1.969877
 20
1.120259
 30
0.000000
 40
0.115909
  1
SUPPORT
 72
  5
 11
2.742604
 21
1.120259
 31
0.000000
  0
TEXT
  8
LAYER-1
 62
  7
 10
1.888059
 20
0.074805
 30
0.000000
 40
0.122727
  1
* For Angle support, pre-drilled holes indicate pack-off.
 72
  5
 11
5.878968
 21
0.074805
 31
0.000000
  0
TEXT
  8
LAYER-1
 62
  7
 10
3.388059
 20
0.702077
 30
0.000000
 40
0.102273
  1
up 
 72
  5
 11
3.615332
 21
0.702077
 31
0.000000
  0
TEXT
  8
LAYER-1
 62
  7
 10
3.615332
 20
0.702077
 30
0.000000
 40
0.081818
  1
to
 72
  5
 11
3.751695
 21
0.702077
 31
0.000000
  0
TEXT
  8
LAYER-1
 62
  7
 10
3.751695
 20
0.702077
 30
0.000000
 40
0.102273
  1
 3,0
 72
  5
 11
4.015332
 21
0.702077
 31
0.000000
  0
TEXT
  8
LAYER-1
 62
  7
 10
4.015332
 20
0.702077
 30
0.000000
 40
0.081818
  1
m
 72
  5
 11
4.160786
 21
0.702077
 31
0.000000
  0
TEXT
  8
LAYER-1
 62
  7
 10
4.188059
 20
0.692987
 30
0.000000
 40
0.102273
  1
3,0
 72
  5
 11
4.415332
 21
0.692987
 31
0.000000
  0
TEXT
  8
LAYER-1
 62
  7
 10
4.415332
 20
0.692987
 30
0.000000
 40
0.081818
  1
m to 
 72
  5
 11
4.706241
 21
0.692987
 31
0.000000
  0
TEXT
  8
LAYER-1
 62
  7
 10
4.706241
 20
0.692987
 30
0.000000
 40
0.102273
  1
4,0
 72
  5
 11
4.933513
 21
0.692987
 31
0.000000
  0
TEXT
  8
LAYER-1
 62
  7
 10
4.933513
 20
0.692987
 30
0.000000
 40
0.081818
  1
m
 72
  5
 11
5.078968
 21
0.692987
 31
0.000000
  0
TEXT
  8
LAYER-1
 62
  7
 10
5.060786
 20
0.692987
 30
0.000000
 40
0.102273
  1
4,0
 72
  5
 11
5.288059
 21
0.692987
 31
0.000000
  0
TEXT
  8
LAYER-1
 62
  7
 10
5.288059
 20
0.692987
 30
0.000000
 40
0.081818
  1
m to 
 72
  5
 11
5.578968
 21
0.692987
 31
0.000000
  0
TEXT
  8
LAYER-1
 62
  7
 10
5.578968
 20
0.692987
 30
0.000000
 40
0.102273
  1
5,0
 72
  5
 11
5.806241
 21
0.692987
 31
0.000000
  0
TEXT
  8
LAYER-1
 62
  7
 10
5.806241
 20
0.692987
 30
0.000000
 40
0.081818
  1
m
 72
  5
 11
5.951695
 21
0.692987
 31
0.000000
  0
TEXT
  8
LAYER-1
 62
  7
 10
5.933513
 20
0.692987
 30
0.000000
 40
0.102273
  1
up 
 72
  5
 11
6.160786
 21
0.692987
 31
0.000000
  0
TEXT
  8
LAYER-1
 62
  7
 10
6.160786
 20
0.692987
 30
0.000000
 40
0.081818
  1
to
 72
  5
 11
6.297150
 21
0.692987
 31
0.000000
  0
TEXT
  8
LAYER-1
 62
  7
 10
6.297150
 20
0.692987
 30
0.000000
 40
0.102273
  1
 3,4
 72
  5
 11
6.560786
 21
0.692987
 31
0.000000
  0
TEXT
  8
LAYER-1
 62
  7
 10
6.560786
 20
0.692987
 30
0.000000
 40
0.081818
  1
m
 72
  5
 11
6.706241
 21
0.692987
 31
0.000000
  0
TEXT
  8
LAYER-1
 62
  7
 10
1.888059
 20
1.474805
 30
0.000000
 40
0.122727
  1
Pack-off  "Z"
 72
  5
 11
2.933513
 21
1.474805
 31
0.000000
  0
TEXT
  8
LAYER-1
 62
  7
 10
5.478968
 20
2.356623
 30
0.000000
 40
0.115909
  1
up  to 2,1m
 72
  5
 11
6.269877
 21
2.356623
 31
0.000000
  0
TEXT
  8
LAYER-1
 62
  7
 10
5.469877
 20
2.047532
 30
0.000000
 40
0.115909
  1
2,1m to 3,7m
 72
  5
 11
6.378968
 21
2.047532
 31
0.000000
  0
TEXT
  8
LAYER-1
 62
  7
 10
5.697150
 20
2.638441
 30
0.000000
 40
0.075000
  1
NO HOOD
 72
  5
 11
6.178968
 21
2.638441
 31
0.000000
  0
TEXT
  8
LAYER-1
 62
  7
 10
4.606241
 20
2.638441
 30
0.000000
 40
0.075000
  1
WITH HOOD
 72
  5
 11
5.178968
 21
2.638441
 31
0.000000
  0
POLYLINE
  8
LAYER-1
 66
  1
 70
  0
 62
  7
 10
4.301255
 20
2.738440
 30
0.000000
  0
VERTEX
  8
LAYER-1
 10
4.301255
 20
2.738440
 30
0.000000
  0
VERTEX
  8
LAYER-1
 10
6.469877
 20
2.738440
 30
0.000000
  0
SEQEND
  8
LAYER-1
  0
POLYLINE
  8
LAYER-1
 66
  1
 70
  0
 62
  7
 10
5.388059
 20
2.738440
 30
0.000000
  0
VERTEX
  8
LAYER-1
 10
5.388059
 20
2.738440
 30
0.000000
  0
VERTEX
  8
LAYER-1
 10
5.388059
 20
1.922634
 30
0.000000
  0
SEQEND
  8
LAYER-1
  0
TEXT
  8
LAYER-1
 62
  7
 10
4.433513
 20
2.356623
 30
0.000000
 40
0.115909
  1
up  to 1,8m
 72
  5
 11
5.224422
 21
2.356623
 31
0.000000
  0
TEXT
  8
LAYER-1
 62
  7
 10
4.415332
 20
2.047532
 30
0.000000
 40
0.115909
  1
1,8m to 3,0m
 72
  5
 11
5.324422
 21
2.047532
 31
0.000000
  0
POLYLINE
  8
LAYER-1
 66
  1
 70
  0
 62
  7
 10
0.317401
 20
0.821857
 30
0.000000
  0
VERTEX
  8
LAYER-1
 10
0.317401
 20
0.821857
 30
0.000000
  0
VERTEX
  8
LAYER-1
 10
0.317401
 20
0.723190
 30
0.000000
  0
SEQEND
  8
LAYER-1
  0
POLYLINE
  8
LAYER-1
 66
  1
 70
  0
 62
  7
 10
0.317401
 20
0.821858
 30
0.000000
  0
VERTEX
  8
LAYER-1
 10
0.317401
 20
0.821858
 30
0.000000
  0
VERTEX
  8
LAYER-1
 10
0.317381
 20
0.828158
 30
0.000000
  0
SEQEND
  8
LAYER-1
  0
POLYLINE
  8
LAYER-1
 66
  1
 70
  0
 62
  7
 10
0.317381
 20
0.828157
 30
0.000000
  0
VERTEX
  8
LAYER-1
 10
0.317381
 20
0.828157
 30
0.000000
  0
VERTEX
  8
LAYER-1
 10
0.317381
 20
1.047865
 30
0.000000
  0
SEQEND
  8
LAYER-1
  0
POLYLINE
  8
LAYER-1
 66
  1
 70
  0
 62
  7
 10
0.317381
 20
1.047866
 30
0.000000
  0
VERTEX
  8
LAYER-1
 10
0.317381
 20
1.047866
 30
0.000000
  0
VERTEX
  8
LAYER-1
 10
0.317381
 20
1.054165
 30
0.000000
  0
SEQEND
  8
LAYER-1
  0
POLYLINE
  8
LAYER-1
 66
  1
 70
  0
 62
  7
 10
0.317381
 20
1.054166
 30
0.000000
  0
VERTEX
  8
LAYER-1
 10
0.317381
 20
1.054166
 30
0.000000
  0
VERTEX
  8
LAYER-1
 10
0.317381
 20
1.271500
 30
0.000000
  0
SEQEND
  8
LAYER-1
  0
POLYLINE
  8
LAYER-1
 66
  1
 70
  0
 62
  7
 10
0.320531
 20
1.274649
 30
0.000000
  0
VERTEX
  8
LAYER-1
 10
0.320531
 20
1.274649
 30
0.000000
  0
VERTEX
  8
LAYER-1
 10
0.317381
 20
1.271500
 30
0.000000
  0
SEQEND
  8
LAYER-1
  0
POLYLINE
  8
LAYER-1
 66
  1
 70
  0
 62
  7
 10
0.337360
 20
1.257897
 30
0.000000
  0
VERTEX
  8
LAYER-1
 10
0.337360
 20
1.257897
 30
0.000000
  0
VERTEX
  8
LAYER-1
 10
0.320531
 20
1.274650
 30
0.000000
  0
SEQEND
  8
LAYER-1
  0
POLYLINE
  8
LAYER-1
 66
  1
 70
  0
 62
  7
 10
0.337360
 20
1.257896
 30
0.000000
  0
VERTEX
  8
LAYER-1
 10
0.337360
 20
1.257896
 30
0.000000
  0
VERTEX
  8
LAYER-1
 10
0.334211
 20
1.254746
 30
0.000000
  0
SEQEND
  8
LAYER-1
  0
POLYLINE
  8
LAYER-1
 66
  1
 70
  0
 62
  7
 10
0.334210
 20
1.245357
 30
0.000000
  0
VERTEX
  8
LAYER-1
 10
0.334210
 20
1.245357
 30
0.000000
  0
VERTEX
  8
LAYER-1
 10
0.334210
 20
1.254746
 30
0.000000
  0
SEQEND
  8
LAYER-1
  0
POLYLINE
  8
LAYER-1
 66
  1
 70
  0
 62
  7
 10
0.334211
 20
1.245357
 30
0.000000
  0
VERTEX
  8
LAYER-1
 10
0.334211
 20
1.245357
 30
0.000000
  0
VERTEX
  8
LAYER-1
 10
0.337360
 20
1.242207
 30
0.000000
  0
SEQEND
  8
LAYER-1
  0
POLYLINE
  8
LAYER-1
 66
  1
 70
  0
 62
  7
 10
0.353590
 20
1.242206
 30
0.000000
  0
VERTEX
  8
LAYER-1
 10
0.353590
 20
1.242206
 30
0.000000
  0
VERTEX
  8
LAYER-1
 10
0.337360
 20
1.242206
 30
0.000000
  0
SEQEND
  8
LAYER-1
  0
POLYLINE
  8
LAYER-1
 66
  1
 70
  0
 62
  7
 10
0.356740
 20
1.239056
 30
0.000000
  0
VERTEX
  8
LAYER-1
 10
0.356740
 20
1.239056
 30
0.000000
  0
VERTEX
  8
LAYER-1
 10
0.353590
 20
1.242205
 30
0.000000
  0
SEQEND
  8
LAYER-1
  0
POLYLINE
  8
LAYER-1
 66
  1
 70
  0
 62
  7
 10
0.356739
 20
1.224357
 30
0.000000
  0
VERTEX
  8
LAYER-1
 10
0.356739
 20
1.224357
 30
0.000000
  0
VERTEX
  8
LAYER-1
 10
0.356739
 20
1.239056
 30
0.000000
  0
SEQEND
  8
LAYER-1
  0
POLYLINE
  8
LAYER-1
 66
  1
 70
  0
 62
  7
 10
0.353590
 20
1.221207
 30
0.000000
  0
VERTEX
  8
LAYER-1
 10
0.353590
 20
1.221207
 30
0.000000
  0
VERTEX
  8
LAYER-1
 10
0.356740
 20
1.224357
 30
0.000000
  0
SEQEND
  8
LAYER-1
  0
POLYLINE
  8
LAYER-1
 66
  1
 70
  0
 62
  7
 10
0.337330
 20
1.221207
 30
0.000000
  0
VERTEX
  8
LAYER-1
 10
0.337330
 20
1.221207
 30
0.000000
  0
VERTEX
  8
LAYER-1
 10
0.353590
 20
1.221207
 30
0.000000
  0
SEQEND
  8
LAYER-1
  0
POLYLINE
  8
LAYER-1
 66
  1
 70
  0
 62
  7
 10
0.337330
 20
1.221206
 30
0.000000
  0
VERTEX
  8
LAYER-1
 10
0.337330
 20
1.221206
 30
0.000000
  0
VERTEX
  8
LAYER-1
 10
0.334180
 20
1.218055
 30
0.000000
  0
SEQEND
  8
LAYER-1
  0
POLYLINE
  8
LAYER-1
 66
  1
 70
  0
 62
  7
 10
0.334180
 20
1.208548
 30
0.000000
  0
VERTEX
  8
LAYER-1
 10
0.334180
 20
1.208548
 30
0.000000
  0
VERTEX
  8
LAYER-1
 10
0.334180
 20
1.218055
 30
0.000000
  0
SEQEND
  8
LAYER-1
  0
POLYLINE
  8
LAYER-1
 66
  1
 70
  0
 62
  7
 10
0.334180
 20
1.208548
 30
0.000000
  0
VERTEX
  8
LAYER-1
 10
0.334180
 20
1.208548
 30
0.000000
  0
VERTEX
  8
LAYER-1
 10
0.337330
 20
1.205398
 30
0.000000
  0
SEQEND
  8
LAYER-1
  0
POLYLINE
  8
LAYER-1
 66
  1
 70
  0
 62
  7
 10
0.382997
 20
1.205397
 30
0.000000
  0
VERTEX
  8
LAYER-1
 10
0.382997
 20
1.205397
 30
0.000000
  0
VERTEX
  8
LAYER-1
 10
0.337330
 20
1.205397
 30
0.000000
  0
SEQEND
  8
LAYER-1
  0
POLYLINE
  8
LAYER-1
 66
  1
 70
  0
 62
  7
 10
0.386147
 20
1.202246
 30
0.000000
  0
VERTEX
  8
LAYER-1
 10
0.386147
 20
1.202246
 30
0.000000
  0
VERTEX
  8
LAYER-1
 10
0.382997
 20
1.205396
 30
0.000000
  0
SEQEND
  8
LAYER-1
  0
POLYLINE
  8
LAYER-1
 66
  1
 70
  0
 62
  7
 10
0.386147
 20
1.191746
 30
0.000000
  0
VERTEX
  8
LAYER-1
 10
0.386147
 20
1.191746
 30
0.000000
  0
VERTEX
  8
LAYER-1
 10
0.386147
 20
1.202246
 30
0.000000
  0
SEQEND
  8
LAYER-1
  0
POLYLINE
  8
LAYER-1
 66
  1
 70
  0
 62
  7
 10
0.382997
 20
1.188596
 30
0.000000
  0
VERTEX
  8
LAYER-1
 10
0.382997
 20
1.188596
 30
0.000000
  0
VERTEX
  8
LAYER-1
 10
0.386147
 20
1.191746
 30
0.000000
  0
SEQEND
  8
LAYER-1
  0
POLYLINE
  8
LAYER-1
 66
  1
 70
  0
 62
  7
 10
0.337363
 20
1.188598
 30
0.000000
  0
VERTEX
  8
LAYER-1
 10
0.337363
 20
1.188598
 30
0.000000
  0
VERTEX
  8
LAYER-1
 10
0.382997
 20
1.188598
 30
0.000000
  0
SEQEND
  8
LAYER-1
  0
POLYLINE
  8
LAYER-1
 66
  1
 70
  0
 62
  7
 10
0.337363
 20
1.188596
 30
0.000000
  0
VERTEX
  8
LAYER-1
 10
0.337363
 20
1.188596
 30
0.000000
  0
VERTEX
  8
LAYER-1
 10
0.334213
 20
1.185447
 30
0.000000
  0
SEQEND
  8
LAYER-1
  0
POLYLINE
  8
LAYER-1
 66
  1
 70
  0
 62
  7
 10
0.334213
 20
1.144960
 30
0.000000
  0
VERTEX
  8
LAYER-1
 10
0.334213
 20
1.144960
 30
0.000000
  0
VERTEX
  8
LAYER-1
 10
0.334213
 20
1.185447
 30
0.000000
  0
SEQEND
  8
LAYER-1
  0
POLYLINE
  8
LAYER-1
 66
  1
 70
  0
 62
  7
 10
0.334213
 20
1.144960
 30
0.000000
  0
VERTEX
  8
LAYER-1
 10
0.334213
 20
1.144960
 30
0.000000
  0
VERTEX
  8
LAYER-1
 10
0.337363
 20
1.141810
 30
0.000000
  0
SEQEND
  8
LAYER-1
  0
POLYLINE
  8
LAYER-1
 66
  1
 70
  0
 62
  7
 10
0.337360
 20
1.115490
 30
0.000000
  0
VERTEX
  8
LAYER-1
 10
0.337360
 20
1.115490
 30
0.000000
  0
VERTEX
  8
LAYER-1
 10
0.337363
 20
1.141809
 30
0.000000
  0
SEQEND
  8
LAYER-1
  0
POLYLINE
  8
LAYER-1
 66
  1
 70
  0
 62
  7
 10
0.337360
 20
1.115491
 30
0.000000
  0
VERTEX
  8
LAYER-1
 10
0.337360
 20
1.115491
 30
0.000000
  0
VERTEX
  8
LAYER-1
 10
0.334211
 20
1.112341
 30
0.000000
  0
SEQEND
  8
LAYER-1
  0
POLYLINE
  8
LAYER-1
 66
  1
 70
  0
 62
  7
 10
0.334210
 20
1.112341
 30
0.000000
  0
VERTEX
  8
LAYER-1
 10
0.334210
 20
1.112341
 30
0.000000
  0
VERTEX
  8
LAYER-1
 10
0.334210
 20
1.101901
 30
0.000000
  0
SEQEND
  8
LAYER-1
  0
POLYLINE
  8
LAYER-1
 66
  1
 70
  0
 62
  7
 10
0.334211
 20
1.101901
 30
0.000000
  0
VERTEX
  8
LAYER-1
 10
0.334211
 20
1.101901
 30
0.000000
  0
VERTEX
  8
LAYER-1
 10
0.337360
 20
1.098750
 30
0.000000
  0
SEQEND
  8
LAYER-1
  0
POLYLINE
  8
LAYER-1
 66
  1
 70
  0
 62
  7
 10
0.353589
 20
1.098749
 30
0.000000
  0
VERTEX
  8
LAYER-1
 10
0.353589
 20
1.098749
 30
0.000000
  0
VERTEX
  8
LAYER-1
 10
0.337360
 20
1.098749
 30
0.000000
  0
SEQEND
  8
LAYER-1
  0
POLYLINE
  8
LAYER-1
 66
  1
 70
  0
 62
  7
 10
0.356739
 20
1.095601
 30
0.000000
  0
VERTEX
  8
LAYER-1
 10
0.356739
 20
1.095601
 30
0.000000
  0
VERTEX
  8
LAYER-1
 10
0.353589
 20
1.098750
 30
0.000000
  0
SEQEND
  8
LAYER-1
  0
POLYLINE
  8
LAYER-1
 66
  1
 70
  0
 62
  7
 10
0.356739
 20
1.095601
 30
0.000000
  0
VERTEX
  8
LAYER-1
 10
0.356739
 20
1.095601
 30
0.000000
  0
VERTEX
  8
LAYER-1
 10
0.356739
 20
1.080900
 30
0.000000
  0
SEQEND
  8
LAYER-1
  0
POLYLINE
  8
LAYER-1
 66
  1
 70
  0
 62
  7
 10
0.353589
 20
1.077751
 30
0.000000
  0
VERTEX
  8
LAYER-1
 10
0.353589
 20
1.077751
 30
0.000000
  0
VERTEX
  8
LAYER-1
 10
0.356739
 20
1.080900
 30
0.000000
  0
SEQEND
  8
LAYER-1
  0
POLYLINE
  8
LAYER-1
 66
  1
 70
  0
 62
  7
 10
0.337330
 20
1.077750
 30
0.000000
  0
VERTEX
  8
LAYER-1
 10
0.337330
 20
1.077750
 30
0.000000
  0
VERTEX
  8
LAYER-1
 10
0.353589
 20
1.077750
 30
0.000000
  0
SEQEND
  8
LAYER-1
  0
POLYLINE
  8
LAYER-1
 66
  1
 70
  0
 62
  7
 10
0.337330
 20
1.077751
 30
0.000000
  0
VERTEX
  8
LAYER-1
 10
0.337330
 20
1.077751
 30
0.000000
  0
VERTEX
  8
LAYER-1
 10
0.334180
 20
1.074600
 30
0.000000
  0
SEQEND
  8
LAYER-1
  0
POLYLINE
  8
LAYER-1
 66
  1
 70
  0
 62
  7
 10
0.334180
 20
1.064039
 30
0.000000
  0
VERTEX
  8
LAYER-1
 10
0.334180
 20
1.064039
 30
0.000000
  0
VERTEX
  8
LAYER-1
 10
0.334180
 20
1.074600
 30
0.000000
  0
SEQEND
  8
LAYER-1
  0
POLYLINE
  8
LAYER-1
 66
  1
 70
  0
 62
  7
 10
0.334180
 20
1.064039
 30
0.000000
  0
VERTEX
  8
LAYER-1
 10
0.334180
 20
1.064039
 30
0.000000
  0
VERTEX
  8
LAYER-1
 10
0.337330
 20
1.060890
 30
0.000000
  0
SEQEND
  8
LAYER-1
  0
POLYLINE
  8
LAYER-1
 66
  1
 70
  0
 62
  7
 10
0.382997
 20
1.060891
 30
0.000000
  0
VERTEX
  8
LAYER-1
 10
0.382997
 20
1.060891
 30
0.000000
  0
VERTEX
  8
LAYER-1
 10
0.337330
 20
1.060891
 30
0.000000
  0
SEQEND
  8
LAYER-1
  0
POLYLINE
  8
LAYER-1
 66
  1
 70
  0
 62
  7
 10
0.386147
 20
1.057741
 30
0.000000
  0
VERTEX
  8
LAYER-1
 10
0.386147
 20
1.057741
 30
0.000000
  0
VERTEX
  8
LAYER-1
 10
0.382997
 20
1.060892
 30
0.000000
  0
SEQEND
  8
LAYER-1
  0
POLYLINE
  8
LAYER-1
 66
  1
 70
  0
 62
  7
 10
0.386147
 20
1.057741
 30
0.000000
  0
VERTEX
  8
LAYER-1
 10
0.386147
 20
1.057741
 30
0.000000
  0
VERTEX
  8
LAYER-1
 10
0.386147
 20
1.044090
 30
0.000000
  0
SEQEND
  8
LAYER-1
  0
POLYLINE
  8
LAYER-1
 66
  1
 70
  0
 62
  7
 10
0.382997
 20
1.040939
 30
0.000000
  0
VERTEX
  8
LAYER-1
 10
0.382997
 20
1.040939
 30
0.000000
  0
VERTEX
  8
LAYER-1
 10
0.386147
 20
1.044090
 30
0.000000
  0
SEQEND
  8
LAYER-1
  0
POLYLINE
  8
LAYER-1
 66
  1
 70
  0
 62
  7
 10
0.382997
 20
1.040940
 30
0.000000
  0
VERTEX
  8
LAYER-1
 10
0.382997
 20
1.040940
 30
0.000000
  0
VERTEX
  8
LAYER-1
 10
0.340513
 20
1.040940
 30
0.000000
  0
SEQEND
  8
LAYER-1
  0
POLYLINE
  8
LAYER-1
 66
  1
 70
  0
 62
  7
 10
0.340513
 20
1.040941
 30
0.000000
  0
VERTEX
  8
LAYER-1
 10
0.340513
 20
1.040941
 30
0.000000
  0
VERTEX
  8
LAYER-1
 10
0.337363
 20
1.037792
 30
0.000000
  0
SEQEND
  8
LAYER-1
  0
POLYLINE
  8
LAYER-1
 66
  1
 70
  0
 62
  7
 10
0.337363
 20
1.037792
 30
0.000000
  0
VERTEX
  8
LAYER-1
 10
0.337363
 20
1.037792
 30
0.000000
  0
VERTEX
  8
LAYER-1
 10
0.337363
 20
0.801952
 30
0.000000
  0
SEQEND
  8
LAYER-1
  0
POLYLINE
  8
LAYER-1
 66
  1
 70
  0
 62
  7
 10
0.337363
 20
0.801952
 30
0.000000
  0
VERTEX
  8
LAYER-1
 10
0.337363
 20
0.801952
 30
0.000000
  0
VERTEX
  8
LAYER-1
 10
0.340513
 20
0.798801
 30
0.000000
  0
SEQEND
  8
LAYER-1
  0
POLYLINE
  8
LAYER-1
 66
  1
 70
  0
 62
  7
 10
0.397613
 20
0.798800
 30
0.000000
  0
VERTEX
  8
LAYER-1
 10
0.397613
 20
0.798800
 30
0.000000
  0
VERTEX
  8
LAYER-1
 10
0.340513
 20
0.798800
 30
0.000000
  0
SEQEND
  8
LAYER-1
  0
POLYLINE
  8
LAYER-1
 66
  1
 70
  0
 62
  7
 10
0.409163
 20
0.787251
 30
0.000000
  0
VERTEX
  8
LAYER-1
 10
0.409163
 20
0.787251
 30
0.000000
  0
VERTEX
  8
LAYER-1
 10
0.403812
 20
0.797387
 30
0.000000
  0
VERTEX
  8
LAYER-1
 10
0.397613
 20
0.798800
 30
0.000000
  0
SEQEND
  8
LAYER-1
  0
POLYLINE
  8
LAYER-1
 66
  1
 70
  0
 62
  7
 10
0.409163
 20
0.773877
 30
0.000000
  0
VERTEX
  8
LAYER-1
 10
0.409163
 20
0.773877
 30
0.000000
  0
VERTEX
  8
LAYER-1
 10
0.409163
 20
0.787251
 30
0.000000
  0
SEQEND
  8
LAYER-1
  0
POLYLINE
  8
LAYER-1
 66
  1
 70
  0
 62
  7
 10
0.406013
 20
0.770728
 30
0.000000
  0
VERTEX
  8
LAYER-1
 10
0.406013
 20
0.770728
 30
0.000000
  0
VERTEX
  8
LAYER-1
 10
0.409163
 20
0.773877
 30
0.000000
  0
SEQEND
  8
LAYER-1
  0
POLYLINE
  8
LAYER-1
 66
  1
 70
  0
 62
  7
 10
0.404047
 20
0.770724
 30
0.000000
  0
VERTEX
  8
LAYER-1
 10
0.404047
 20
0.770724
 30
0.000000
  0
VERTEX
  8
LAYER-1
 10
0.406013
 20
0.770724
 30
0.000000
  0
SEQEND
  8
LAYER-1
  0
POLYLINE
  8
LAYER-1
 66
  1
 70
  0
 62
  7
 10
0.400897
 20
0.773877
 30
0.000000
  0
VERTEX
  8
LAYER-1
 10
0.400897
 20
0.773877
 30
0.000000
  0
VERTEX
  8
LAYER-1
 10
0.404047
 20
0.770728
 30
0.000000
  0
SEQEND
  8
LAYER-1
  0
POLYLINE
  8
LAYER-1
 66
  1
 70
  0
 62
  7
 10
0.400897
 20
0.773877
 30
0.000000
  0
VERTEX
  8
LAYER-1
 10
0.400897
 20
0.773877
 30
0.000000
  0
VERTEX
  8
LAYER-1
 10
0.400897
 20
0.784101
 30
0.000000
  0
SEQEND
  8
LAYER-1
  0
POLYLINE
  8
LAYER-1
 66
  1
 70
  0
 62
  7
 10
0.400897
 20
0.784101
 30
0.000000
  0
VERTEX
  8
LAYER-1
 10
0.400897
 20
0.784101
 30
0.000000
  0
VERTEX
  8
LAYER-1
 10
0.397747
 20
0.787250
 30
0.000000
  0
SEQEND
  8
LAYER-1
  0
POLYLINE
  8
LAYER-1
 66
  1
 70
  0
 62
  7
 10
0.397747
 20
0.787249
 30
0.000000
  0
VERTEX
  8
LAYER-1
 10
0.397747
 20
0.787249
 30
0.000000
  0
VERTEX
  8
LAYER-1
 10
0.385871
 20
0.787249
 30
0.000000
  0
SEQEND
  8
LAYER-1
  0
POLYLINE
  8
LAYER-1
 66
  1
 70
  0
 62
  7
 10
0.385871
 20
0.787250
 30
0.000000
  0
VERTEX
  8
LAYER-1
 10
0.385871
 20
0.787250
 30
0.000000
  0
VERTEX
  8
LAYER-1
 10
0.382721
 20
0.784101
 30
0.000000
  0
SEQEND
  8
LAYER-1
  0
POLYLINE
  8
LAYER-1
 66
  1
 70
  0
 62
  7
 10
0.382721
 20
0.784101
 30
0.000000
  0
VERTEX
  8
LAYER-1
 10
0.382721
 20
0.784101
 30
0.000000
  0
VERTEX
  8
LAYER-1
 10
0.382721
 20
0.773856
 30
0.000000
  0
SEQEND
  8
LAYER-1
  0
POLYLINE
  8
LAYER-1
 66
  1
 70
  0
 62
  7
 10
0.379567
 20
0.770706
 30
0.000000
  0
VERTEX
  8
LAYER-1
 10
0.379567
 20
0.770706
 30
0.000000
  0
VERTEX
  8
LAYER-1
 10
0.382721
 20
0.773856
 30
0.000000
  0
SEQEND
  8
LAYER-1
  0
POLYLINE
  8
LAYER-1
 66
  1
 70
  0
 62
  7
 10
0.379567
 20
0.770705
 30
0.000000
  0
VERTEX
  8
LAYER-1
 10
0.379567
 20
0.770705
 30
0.000000
  0
VERTEX
  8
LAYER-1
 10
0.364804
 20
0.770724
 30
0.000000
  0
SEQEND
  8
LAYER-1
  0
POLYLINE
  8
LAYER-1
 66
  1
 70
  0
 62
  7
 10
0.361658
 20
0.773877
 30
0.000000
  0
VERTEX
  8
LAYER-1
 10
0.361658
 20
0.773877
 30
0.000000
  0
VERTEX
  8
LAYER-1
 10
0.364804
 20
0.770728
 30
0.000000
  0
SEQEND
  8
LAYER-1
  0
POLYLINE
  8
LAYER-1
 66
  1
 70
  0
 62
  7
 10
0.361658
 20
0.773877
 30
0.000000
  0
VERTEX
  8
LAYER-1
 10
0.361658
 20
0.773877
 30
0.000000
  0
VERTEX
  8
LAYER-1
 10
0.361658
 20
0.784101
 30
0.000000
  0
SEQEND
  8
LAYER-1
  0
POLYLINE
  8
LAYER-1
 66
  1
 70
  0
 62
  7
 10
0.361658
 20
0.784101
 30
0.000000
  0
VERTEX
  8
LAYER-1
 10
0.361658
 20
0.784101
 30
0.000000
  0
VERTEX
  8
LAYER-1
 10
0.358508
 20
0.787250
 30
0.000000
  0
SEQEND
  8
LAYER-1
  0
POLYLINE
  8
LAYER-1
 66
  1
 70
  0
 62
  7
 10
0.358508
 20
0.787249
 30
0.000000
  0
VERTEX
  8
LAYER-1
 10
0.358508
 20
0.787249
 30
0.000000
  0
VERTEX
  8
LAYER-1
 10
0.332037
 20
0.787249
 30
0.000000
  0
SEQEND
  8
LAYER-1
  0
POLYLINE
  8
LAYER-1
 66
  1
 70
  0
 62
  7
 10
0.332037
 20
0.787250
 30
0.000000
  0
VERTEX
  8
LAYER-1
 10
0.332037
 20
0.787250
 30
0.000000
  0
VERTEX
  8
LAYER-1
 10
0.328887
 20
0.784101
 30
0.000000
  0
SEQEND
  8
LAYER-1
  0
POLYLINE
  8
LAYER-1
 66
  1
 70
  0
 62
  7
 10
0.328887
 20
0.723200
 30
0.000000
  0
VERTEX
  8
LAYER-1
 10
0.328887
 20
0.723200
 30
0.000000
  0
VERTEX
  8
LAYER-1
 10
0.328887
 20
0.784101
 30
0.000000
  0
SEQEND
  8
LAYER-1
  0
POLYLINE
  8
LAYER-1
 66
  1
 70
  0
 62
  7
 10
0.328887
 20
0.723200
 30
0.000000
  0
VERTEX
  8
LAYER-1
 10
0.328887
 20
0.723200
 30
0.000000
  0
VERTEX
  8
LAYER-1
 10
0.331162
 20
0.714923
 30
0.000000
  0
VERTEX
  8
LAYER-1
 10
0.343377
 20
0.708710
 30
0.000000
  0
SEQEND
  8
LAYER-1
  0
POLYLINE
  8
LAYER-1
 66
  1
 70
  0
 62
  7
 10
0.343377
 20
0.708709
 30
0.000000
  0
VERTEX
  8
LAYER-1
 10
0.343377
 20
0.708709
 30
0.000000
  0
VERTEX
  8
LAYER-1
 10
0.358508
 20
0.708709
 30
0.000000
  0
SEQEND
  8
LAYER-1
  0
POLYLINE
  8
LAYER-1
 66
  1
 70
  0
 62
  7
 10
0.358508
 20
0.708710
 30
0.000000
  0
VERTEX
  8
LAYER-1
 10
0.358508
 20
0.708710
 30
0.000000
  0
VERTEX
  8
LAYER-1
 10
0.361658
 20
0.711860
 30
0.000000
  0
SEQEND
  8
LAYER-1
  0
POLYLINE
  8
LAYER-1
 66
  1
 70
  0
 62
  7
 10
0.361658
 20
0.711860
 30
0.000000
  0
VERTEX
  8
LAYER-1
 10
0.361658
 20
0.711860
 30
0.000000
  0
VERTEX
  8
LAYER-1
 10
0.361658
 20
0.722116
 30
0.000000
  0
SEQEND
  8
LAYER-1
  0
POLYLINE
  8
LAYER-1
 66
  1
 70
  0
 62
  7
 10
0.364808
 20
0.725265
 30
0.000000
  0
VERTEX
  8
LAYER-1
 10
0.364808
 20
0.725265
 30
0.000000
  0
VERTEX
  8
LAYER-1
 10
0.361658
 20
0.722116
 30
0.000000
  0
SEQEND
  8
LAYER-1
  0
POLYLINE
  8
LAYER-1
 66
  1
 70
  0
 62
  7
 10
0.364808
 20
0.725264
 30
0.000000
  0
VERTEX
  8
LAYER-1
 10
0.364808
 20
0.725264
 30
0.000000
  0
VERTEX
  8
LAYER-1
 10
0.379571
 20
0.725264
 30
0.000000
  0
SEQEND
  8
LAYER-1
  0
POLYLINE
  8
LAYER-1
 66
  1
 70
  0
 62
  7
 10
0.382721
 20
0.722116
 30
0.000000
  0
VERTEX
  8
LAYER-1
 10
0.382721
 20
0.722116
 30
0.000000
  0
VERTEX
  8
LAYER-1
 10
0.379571
 20
0.725265
 30
0.000000
  0
SEQEND
  8
LAYER-1
  0
POLYLINE
  8
LAYER-1
 66
  1
 70
  0
 62
  7
 10
0.382721
 20
0.722116
 30
0.000000
  0
VERTEX
  8
LAYER-1
 10
0.382721
 20
0.722116
 30
0.000000
  0
VERTEX
  8
LAYER-1
 10
0.382721
 20
0.711860
 30
0.000000
  0
SEQEND
  8
LAYER-1
  0
POLYLINE
  8
LAYER-1
 66
  1
 70
  0
 62
  7
 10
0.382721
 20
0.711860
 30
0.000000
  0
VERTEX
  8
LAYER-1
 10
0.382721
 20
0.711860
 30
0.000000
  0
VERTEX
  8
LAYER-1
 10
0.385871
 20
0.708710
 30
0.000000
  0
SEQEND
  8
LAYER-1
  0
POLYLINE
  8
LAYER-1
 66
  1
 70
  0
 62
  7
 10
0.385871
 20
0.708709
 30
0.000000
  0
VERTEX
  8
LAYER-1
 10
0.385871
 20
0.708709
 30
0.000000
  0
VERTEX
  8
LAYER-1
 10
0.397747
 20
0.708709
 30
0.000000
  0
SEQEND
  8
LAYER-1
  0
POLYLINE
  8
LAYER-1
 66
  1
 70
  0
 62
  7
 10
0.397747
 20
0.708710
 30
0.000000
  0
VERTEX
  8
LAYER-1
 10
0.397747
 20
0.708710
 30
0.000000
  0
VERTEX
  8
LAYER-1
 10
0.400897
 20
0.711860
 30
0.000000
  0
SEQEND
  8
LAYER-1
  0
POLYLINE
  8
LAYER-1
 66
  1
 70
  0
 62
  7
 10
0.400897
 20
0.711860
 30
0.000000
  0
VERTEX
  8
LAYER-1
 10
0.400897
 20
0.711860
 30
0.000000
  0
VERTEX
  8
LAYER-1
 10
0.400897
 20
0.722116
 30
0.000000
  0
SEQEND
  8
LAYER-1
  0
POLYLINE
  8
LAYER-1
 66
  1
 70
  0
 62
  7
 10
0.404047
 20
0.725265
 30
0.000000
  0
VERTEX
  8
LAYER-1
 10
0.404047
 20
0.725265
 30
0.000000
  0
VERTEX
  8
LAYER-1
 10
0.400897
 20
0.722116
 30
0.000000
  0
SEQEND
  8
LAYER-1
  0
POLYLINE
  8
LAYER-1
 66
  1
 70
  0
 62
  7
 10
0.404047
 20
0.725264
 30
0.000000
  0
VERTEX
  8
LAYER-1
 10
0.404047
 20
0.725264
 30
0.000000
  0
VERTEX
  8
LAYER-1
 10
0.406013
 20
0.725264
 30
0.000000
  0
SEQEND
  8
LAYER-1
  0
POLYLINE
  8
LAYER-1
 66
  1
 70
  0
 62
  7
 10
0.409163
 20
0.722116
 30
0.000000
  0
VERTEX
  8
LAYER-1
 10
0.409163
 20
0.722116
 30
0.000000
  0
VERTEX
  8
LAYER-1
 10
0.406013
 20
0.725265
 30
0.000000
  0
SEQEND
  8
LAYER-1
  0
POLYLINE
  8
LAYER-1
 66
  1
 70
  0
 62
  7
 10
0.409163
 20
0.722116
 30
0.000000
  0
VERTEX
  8
LAYER-1
 10
0.409163
 20
0.722116
 30
0.000000
  0
VERTEX
  8
LAYER-1
 10
0.409163
 20
0.708701
 30
0.000000
  0
SEQEND
  8
LAYER-1
  0
POLYLINE
  8
LAYER-1
 66
  1
 70
  0
 62
  7
 10
0.397613
 20
0.697152
 30
0.000000
  0
VERTEX
  8
LAYER-1
 10
0.397613
 20
0.697152
 30
0.000000
  0
VERTEX
  8
LAYER-1
 10
0.403812
 20
0.702502
 30
0.000000
  0
VERTEX
  8
LAYER-1
 10
0.409163
 20
0.708701
 30
0.000000
  0
SEQEND
  8
LAYER-1
  0
POLYLINE
  8
LAYER-1
 66
  1
 70
  0
 62
  7
 10
0.397613
 20
0.697150
 30
0.000000
  0
VERTEX
  8
LAYER-1
 10
0.397613
 20
0.697150
 30
0.000000
  0
VERTEX
  8
LAYER-1
 10
0.343441
 20
0.697150
 30
0.000000
  0
SEQEND
  8
LAYER-1
  0
POLYLINE
  8
LAYER-1
 66
  1
 70
  0
 62
  7
 10
0.317401
 20
0.723190
 30
0.000000
  0
VERTEX
  8
LAYER-1
 10
0.317401
 20
0.723190
 30
0.000000
  0
VERTEX
  8
LAYER-1
 10
0.323059
 20
0.706745
 30
0.000000
  0
VERTEX
  8
LAYER-1
 10
0.343441
 20
0.697150
 30
0.000000
  0
SEQEND
  8
LAYER-1
  0
POLYLINE
  8
LAYER-1
 66
  1
 70
  0
 62
  7
 10
0.638652
 20
1.257897
 30
0.000000
  0
VERTEX
  8
LAYER-1
 10
0.638652
 20
1.257897
 30
0.000000
  0
VERTEX
  8
LAYER-1
 10
0.337360
 20
1.257897
 30
0.000000
  0
SEQEND
  8
LAYER-1
  0
POLYLINE
  8
LAYER-1
 66
  1
 70
  0
 62
  7
 10
0.320531
 20
1.274650
 30
0.000000
  0
VERTEX
  8
LAYER-1
 10
0.320531
 20
1.274650
 30
0.000000
  0
VERTEX
  8
LAYER-1
 10
0.337360
 20
1.257897
 30
0.000000
  0
SEQEND
  8
LAYER-1
  0
POLYLINE
  8
LAYER-1
 66
  1
 70
  0
 62
  7
 10
0.484840
 20
1.274650
 30
0.000000
  0
VERTEX
  8
LAYER-1
 10
0.484840
 20
1.274650
 30
0.000000
  0
VERTEX
  8
LAYER-1
 10
0.320531
 20
1.274650
 30
0.000000
  0
SEQEND
  8
LAYER-1
  0
POLYLINE
  8
LAYER-1
 66
  1
 70
  0
 62
  7
 10
0.484840
 20
1.274650
 30
0.000000
  0
VERTEX
  8
LAYER-1
 10
0.484840
 20
1.274650
 30
0.000000
  0
VERTEX
  8
LAYER-1
 10
0.491140
 20
1.274650
 30
0.000000
  0
SEQEND
  8
LAYER-1
  0
POLYLINE
  8
LAYER-1
 66
  1
 70
  0
 62
  7
 10
0.491140
 20
1.274650
 30
0.000000
  0
VERTEX
  8
LAYER-1
 10
0.491140
 20
1.274650
 30
0.000000
  0
VERTEX
  8
LAYER-1
 10
0.655481
 20
1.274650
 30
0.000000
  0
SEQEND
  8
LAYER-1
  0
POLYLINE
  8
LAYER-1
 66
  1
 70
  0
 62
  7
 10
0.658631
 20
1.271500
 30
0.000000
  0
VERTEX
  8
LAYER-1
 10
0.658631
 20
1.271500
 30
0.000000
  0
VERTEX
  8
LAYER-1
 10
0.658631
 20
1.054166
 30
0.000000
  0
SEQEND
  8
LAYER-1
  0
POLYLINE
  8
LAYER-1
 66
  1
 70
  0
 62
  7
 10
0.658729
 20
0.821857
 30
0.000000
  0
VERTEX
  8
LAYER-1
 10
0.658729
 20
0.821857
 30
0.000000
  0
VERTEX
  8
LAYER-1
 10
0.658729
 20
0.723190
 30
0.000000
  0
SEQEND
  8
LAYER-1
  0
POLYLINE
  8
LAYER-1
 66
  1
 70
  0
 62
  7
 10
0.658749
 20
0.828158
 30
0.000000
  0
VERTEX
  8
LAYER-1
 10
0.658749
 20
0.828158
 30
0.000000
  0
VERTEX
  8
LAYER-1
 10
0.658729
 20
0.821858
 30
0.000000
  0
SEQEND
  8
LAYER-1
  0
POLYLINE
  8
LAYER-1
 66
  1
 70
  0
 62
  7
 10
0.658749
 20
0.828157
 30
0.000000
  0
VERTEX
  8
LAYER-1
 10
0.658749
 20
0.828157
 30
0.000000
  0
VERTEX
  8
LAYER-1
 10
0.658749
 20
1.047865
 30
0.000000
  0
SEQEND
  8
LAYER-1
  0
POLYLINE
  8
LAYER-1
 66
  1
 70
  0
 62
  7
 10
0.658749
 20
1.054165
 30
0.000000
  0
VERTEX
  8
LAYER-1
 10
0.658749
 20
1.054165
 30
0.000000
  0
VERTEX
  8
LAYER-1
 10
0.658749
 20
1.047866
 30
0.000000
  0
SEQEND
  8
LAYER-1
  0
POLYLINE
  8
LAYER-1
 66
  1
 70
  0
 62
  7
 10
0.658749
 20
1.054166
 30
0.000000
  0
VERTEX
  8
LAYER-1
 10
0.658749
 20
1.054166
 30
0.000000
  0
VERTEX
  8
LAYER-1
 10
0.658749
 20
1.271500
 30
0.000000
  0
SEQEND
  8
LAYER-1
  0
POLYLINE
  8
LAYER-1
 66
  1
 70
  0
 62
  7
 10
0.658749
 20
1.271500
 30
0.000000
  0
VERTEX
  8
LAYER-1
 10
0.658749
 20
1.271500
 30
0.000000
  0
VERTEX
  8
LAYER-1
 10
0.655598
 20
1.274649
 30
0.000000
  0
SEQEND
  8
LAYER-1
  0
POLYLINE
  8
LAYER-1
 66
  1
 70
  0
 62
  7
 10
0.638769
 20
1.257897
 30
0.000000
  0
VERTEX
  8
LAYER-1
 10
0.638769
 20
1.257897
 30
0.000000
  0
VERTEX
  8
LAYER-1
 10
0.655598
 20
1.274650
 30
0.000000
  0
SEQEND
  8
LAYER-1
  0
POLYLINE
  8
LAYER-1
 66
  1
 70
  0
 62
  7
 10
0.641919
 20
1.254746
 30
0.000000
  0
VERTEX
  8
LAYER-1
 10
0.641919
 20
1.254746
 30
0.000000
  0
VERTEX
  8
LAYER-1
 10
0.638769
 20
1.257896
 30
0.000000
  0
SEQEND
  8
LAYER-1
  0
POLYLINE
  8
LAYER-1
 66
  1
 70
  0
 62
  7
 10
0.641919
 20
1.245357
 30
0.000000
  0
VERTEX
  8
LAYER-1
 10
0.641919
 20
1.245357
 30
0.000000
  0
VERTEX
  8
LAYER-1
 10
0.641919
 20
1.254746
 30
0.000000
  0
SEQEND
  8
LAYER-1
  0
POLYLINE
  8
LAYER-1
 66
  1
 70
  0
 62
  7
 10
0.638769
 20
1.242207
 30
0.000000
  0
VERTEX
  8
LAYER-1
 10
0.638769
 20
1.242207
 30
0.000000
  0
VERTEX
  8
LAYER-1
 10
0.641919
 20
1.245357
 30
0.000000
  0
SEQEND
  8
LAYER-1
  0
POLYLINE
  8
LAYER-1
 66
  1
 70
  0
 62
  7
 10
0.622540
 20
1.242206
 30
0.000000
  0
VERTEX
  8
LAYER-1
 10
0.622540
 20
1.242206
 30
0.000000
  0
VERTEX
  8
LAYER-1
 10
0.638769
 20
1.242206
 30
0.000000
  0
SEQEND
  8
LAYER-1
  0
POLYLINE
  8
LAYER-1
 66
  1
 70
  0
 62
  7
 10
0.622540
 20
1.242205
 30
0.000000
  0
VERTEX
  8
LAYER-1
 10
0.622540
 20
1.242205
 30
0.000000
  0
VERTEX
  8
LAYER-1
 10
0.619390
 20
1.239056
 30
0.000000
  0
SEQEND
  8
LAYER-1
  0
POLYLINE
  8
LAYER-1
 66
  1
 70
  0
 62
  7
 10
0.619390
 20
1.224357
 30
0.000000
  0
VERTEX
  8
LAYER-1
 10
0.619390
 20
1.224357
 30
0.000000
  0
VERTEX
  8
LAYER-1
 10
0.619390
 20
1.239056
 30
0.000000
  0
SEQEND
  8
LAYER-1
  0
POLYLINE
  8
LAYER-1
 66
  1
 70
  0
 62
  7
 10
0.619390
 20
1.224357
 30
0.000000
  0
VERTEX
  8
LAYER-1
 10
0.619390
 20
1.224357
 30
0.000000
  0
VERTEX
  8
LAYER-1
 10
0.622540
 20
1.221207
 30
0.000000
  0
SEQEND
  8
LAYER-1
  0
POLYLINE
  8
LAYER-1
 66
  1
 70
  0
 62
  7
 10
0.638799
 20
1.221207
 30
0.000000
  0
VERTEX
  8
LAYER-1
 10
0.638799
 20
1.221207
 30
0.000000
  0
VERTEX
  8
LAYER-1
 10
0.622540
 20
1.221207
 30
0.000000
  0
SEQEND
  8
LAYER-1
  0
POLYLINE
  8
LAYER-1
 66
  1
 70
  0
 62
  7
 10
0.641950
 20
1.218055
 30
0.000000
  0
VERTEX
  8
LAYER-1
 10
0.641950
 20
1.218055
 30
0.000000
  0
VERTEX
  8
LAYER-1
 10
0.638799
 20
1.221206
 30
0.000000
  0
SEQEND
  8
LAYER-1
  0
POLYLINE
  8
LAYER-1
 66
  1
 70
  0
 62
  7
 10
0.641950
 20
1.208548
 30
0.000000
  0
VERTEX
  8
LAYER-1
 10
0.641950
 20
1.208548
 30
0.000000
  0
VERTEX
  8
LAYER-1
 10
0.641950
 20
1.218055
 30
0.000000
  0
SEQEND
  8
LAYER-1
  0
POLYLINE
  8
LAYER-1
 66
  1
 70
  0
 62
  7
 10
0.638799
 20
1.205398
 30
0.000000
  0
VERTEX
  8
LAYER-1
 10
0.638799
 20
1.205398
 30
0.000000
  0
VERTEX
  8
LAYER-1
 10
0.641950
 20
1.208548
 30
0.000000
  0
SEQEND
  8
LAYER-1
  0
POLYLINE
  8
LAYER-1
 66
  1
 70
  0
 62
  7
 10
0.593132
 20
1.205397
 30
0.000000
  0
VERTEX
  8
LAYER-1
 10
0.593132
 20
1.205397
 30
0.000000
  0
VERTEX
  8
LAYER-1
 10
0.638799
 20
1.205397
 30
0.000000
  0
SEQEND
  8
LAYER-1
  0
POLYLINE
  8
LAYER-1
 66
  1
 70
  0
 62
  7
 10
0.593132
 20
1.205396
 30
0.000000
  0
VERTEX
  8
LAYER-1
 10
0.593132
 20
1.205396
 30
0.000000
  0
VERTEX
  8
LAYER-1
 10
0.589982
 20
1.202246
 30
0.000000
  0
SEQEND
  8
LAYER-1
  0
POLYLINE
  8
LAYER-1
 66
  1
 70
  0
 62
  7
 10
0.589982
 20
1.191746
 30
0.000000
  0
VERTEX
  8
LAYER-1
 10
0.589982
 20
1.191746
 30
0.000000
  0
VERTEX
  8
LAYER-1
 10
0.589982
 20
1.202246
 30
0.000000
  0
SEQEND
  8
LAYER-1
  0
POLYLINE
  8
LAYER-1
 66
  1
 70
  0
 62
  7
 10
0.589982
 20
1.191746
 30
0.000000
  0
VERTEX
  8
LAYER-1
 10
0.589982
 20
1.191746
 30
0.000000
  0
VERTEX
  8
LAYER-1
 10
0.593132
 20
1.188596
 30
0.000000
  0
SEQEND
  8
LAYER-1
  0
POLYLINE
  8
LAYER-1
 66
  1
 70
  0
 62
  7
 10
0.638767
 20
1.188598
 30
0.000000
  0
VERTEX
  8
LAYER-1
 10
0.638767
 20
1.188598
 30
0.000000
  0
VERTEX
  8
LAYER-1
 10
0.593132
 20
1.188598
 30
0.000000
  0
SEQEND
  8
LAYER-1
  0
POLYLINE
  8
LAYER-1
 66
  1
 70
  0
 62
  7
 10
0.641917
 20
1.185447
 30
0.000000
  0
VERTEX
  8
LAYER-1
 10
0.641917
 20
1.185447
 30
0.000000
  0
VERTEX
  8
LAYER-1
 10
0.638767
 20
1.188596
 30
0.000000
  0
SEQEND
  8
LAYER-1
  0
POLYLINE
  8
LAYER-1
 66
  1
 70
  0
 62
  7
 10
0.641917
 20
1.144960
 30
0.000000
  0
VERTEX
  8
LAYER-1
 10
0.641917
 20
1.144960
 30
0.000000
  0
VERTEX
  8
LAYER-1
 10
0.641917
 20
1.185447
 30
0.000000
  0
SEQEND
  8
LAYER-1
  0
POLYLINE
  8
LAYER-1
 66
  1
 70
  0
 62
  7
 10
0.638767
 20
1.141810
 30
0.000000
  0
VERTEX
  8
LAYER-1
 10
0.638767
 20
1.141810
 30
0.000000
  0
VERTEX
  8
LAYER-1
 10
0.641917
 20
1.144960
 30
0.000000
  0
SEQEND
  8
LAYER-1
  0
POLYLINE
  8
LAYER-1
 66
  1
 70
  0
 62
  7
 10
0.638769
 20
1.115490
 30
0.000000
  0
VERTEX
  8
LAYER-1
 10
0.638769
 20
1.115490
 30
0.000000
  0
VERTEX
  8
LAYER-1
 10
0.638767
 20
1.141809
 30
0.000000
  0
SEQEND
  8
LAYER-1
  0
POLYLINE
  8
LAYER-1
 66
  1
 70
  0
 62
  7
 10
0.641919
 20
1.112341
 30
0.000000
  0
VERTEX
  8
LAYER-1
 10
0.641919
 20
1.112341
 30
0.000000
  0
VERTEX
  8
LAYER-1
 10
0.638769
 20
1.115491
 30
0.000000
  0
SEQEND
  8
LAYER-1
  0
POLYLINE
  8
LAYER-1
 66
  1
 70
  0
 62
  7
 10
0.641919
 20
1.112341
 30
0.000000
  0
VERTEX
  8
LAYER-1
 10
0.641919
 20
1.112341
 30
0.000000
  0
VERTEX
  8
LAYER-1
 10
0.641919
 20
1.101901
 30
0.000000
  0
SEQEND
  8
LAYER-1
  0
POLYLINE
  8
LAYER-1
 66
  1
 70
  0
 62
  7
 10
0.638769
 20
1.098750
 30
0.000000
  0
VERTEX
  8
LAYER-1
 10
0.638769
 20
1.098750
 30
0.000000
  0
VERTEX
  8
LAYER-1
 10
0.641919
 20
1.101901
 30
0.000000
  0
SEQEND
  8
LAYER-1
  0
POLYLINE
  8
LAYER-1
 66
  1
 70
  0
 62
  7
 10
0.622540
 20
1.098749
 30
0.000000
  0
VERTEX
  8
LAYER-1
 10
0.622540
 20
1.098749
 30
0.000000
  0
VERTEX
  8
LAYER-1
 10
0.638769
 20
1.098749
 30
0.000000
  0
SEQEND
  8
LAYER-1
  0
POLYLINE
  8
LAYER-1
 66
  1
 70
  0
 62
  7
 10
0.622540
 20
1.098750
 30
0.000000
  0
VERTEX
  8
LAYER-1
 10
0.622540
 20
1.098750
 30
0.000000
  0
VERTEX
  8
LAYER-1
 10
0.619390
 20
1.095601
 30
0.000000
  0
SEQEND
  8
LAYER-1
  0
POLYLINE
  8
LAYER-1
 66
  1
 70
  0
 62
  7
 10
0.619390
 20
1.095601
 30
0.000000
  0
VERTEX
  8
LAYER-1
 10
0.619390
 20
1.095601
 30
0.000000
  0
VERTEX
  8
LAYER-1
 10
0.619390
 20
1.080900
 30
0.000000
  0
SEQEND
  8
LAYER-1
  0
POLYLINE
  8
LAYER-1
 66
  1
 70
  0
 62
  7
 10
0.619390
 20
1.080900
 30
0.000000
  0
VERTEX
  8
LAYER-1
 10
0.619390
 20
1.080900
 30
0.000000
  0
VERTEX
  8
LAYER-1
 10
0.622540
 20
1.077751
 30
0.000000
  0
SEQEND
  8
LAYER-1
  0
POLYLINE
  8
LAYER-1
 66
  1
 70
  0
 62
  7
 10
0.638799
 20
1.077750
 30
0.000000
  0
VERTEX
  8
LAYER-1
 10
0.638799
 20
1.077750
 30
0.000000
  0
VERTEX
  8
LAYER-1
 10
0.622540
 20
1.077750
 30
0.000000
  0
SEQEND
  8
LAYER-1
  0
POLYLINE
  8
LAYER-1
 66
  1
 70
  0
 62
  7
 10
0.641950
 20
1.074600
 30
0.000000
  0
VERTEX
  8
LAYER-1
 10
0.641950
 20
1.074600
 30
0.000000
  0
VERTEX
  8
LAYER-1
 10
0.638799
 20
1.077751
 30
0.000000
  0
SEQEND
  8
LAYER-1
  0
POLYLINE
  8
LAYER-1
 66
  1
 70
  0
 62
  7
 10
0.641950
 20
1.064039
 30
0.000000
  0
VERTEX
  8
LAYER-1
 10
0.641950
 20
1.064039
 30
0.000000
  0
VERTEX
  8
LAYER-1
 10
0.641950
 20
1.074600
 30
0.000000
  0
SEQEND
  8
LAYER-1
  0
POLYLINE
  8
LAYER-1
 66
  1
 70
  0
 62
  7
 10
0.638799
 20
1.060890
 30
0.000000
  0
VERTEX
  8
LAYER-1
 10
0.638799
 20
1.060890
 30
0.000000
  0
VERTEX
  8
LAYER-1
 10
0.641950
 20
1.064039
 30
0.000000
  0
SEQEND
  8
LAYER-1
  0
POLYLINE
  8
LAYER-1
 66
  1
 70
  0
 62
  7
 10
0.593132
 20
1.060891
 30
0.000000
  0
VERTEX
  8
LAYER-1
 10
0.593132
 20
1.060891
 30
0.000000
  0
VERTEX
  8
LAYER-1
 10
0.638799
 20
1.060891
 30
0.000000
  0
SEQEND
  8
LAYER-1
  0
POLYLINE
  8
LAYER-1
 66
  1
 70
  0
 62
  7
 10
0.593132
 20
1.060892
 30
0.000000
  0
VERTEX
  8
LAYER-1
 10
0.593132
 20
1.060892
 30
0.000000
  0
VERTEX
  8
LAYER-1
 10
0.589982
 20
1.057741
 30
0.000000
  0
SEQEND
  8
LAYER-1
  0
POLYLINE
  8
LAYER-1
 66
  1
 70
  0
 62
  7
 10
0.589982
 20
1.057741
 30
0.000000
  0
VERTEX
  8
LAYER-1
 10
0.589982
 20
1.057741
 30
0.000000
  0
VERTEX
  8
LAYER-1
 10
0.589982
 20
1.044090
 30
0.000000
  0
SEQEND
  8
LAYER-1
  0
POLYLINE
  8
LAYER-1
 66
  1
 70
  0
 62
  7
 10
0.589982
 20
1.044090
 30
0.000000
  0
VERTEX
  8
LAYER-1
 10
0.589982
 20
1.044090
 30
0.000000
  0
VERTEX
  8
LAYER-1
 10
0.593132
 20
1.040939
 30
0.000000
  0
SEQEND
  8
LAYER-1
  0
POLYLINE
  8
LAYER-1
 66
  1
 70
  0
 62
  7
 10
0.593132
 20
1.040940
 30
0.000000
  0
VERTEX
  8
LAYER-1
 10
0.593132
 20
1.040940
 30
0.000000
  0
VERTEX
  8
LAYER-1
 10
0.635617
 20
1.040940
 30
0.000000
  0
SEQEND
  8
LAYER-1
  0
POLYLINE
  8
LAYER-1
 66
  1
 70
  0
 62
  7
 10
0.638767
 20
1.037792
 30
0.000000
  0
VERTEX
  8
LAYER-1
 10
0.638767
 20
1.037792
 30
0.000000
  0
VERTEX
  8
LAYER-1
 10
0.635617
 20
1.040941
 30
0.000000
  0
SEQEND
  8
LAYER-1
  0
POLYLINE
  8
LAYER-1
 66
  1
 70
  0
 62
  7
 10
0.638767
 20
1.037792
 30
0.000000
  0
VERTEX
  8
LAYER-1
 10
0.638767
 20
1.037792
 30
0.000000
  0
VERTEX
  8
LAYER-1
 10
0.638767
 20
0.801952
 30
0.000000
  0
SEQEND
  8
LAYER-1
  0
POLYLINE
  8
LAYER-1
 66
  1
 70
  0
 62
  7
 10
0.635617
 20
0.798801
 30
0.000000
  0
VERTEX
  8
LAYER-1
 10
0.635617
 20
0.798801
 30
0.000000
  0
VERTEX
  8
LAYER-1
 10
0.638767
 20
0.801952
 30
0.000000
  0
SEQEND
  8
LAYER-1
  0
POLYLINE
  8
LAYER-1
 66
  1
 70
  0
 62
  7
 10
0.578516
 20
0.798800
 30
0.000000
  0
VERTEX
  8
LAYER-1
 10
0.578516
 20
0.798800
 30
0.000000
  0
VERTEX
  8
LAYER-1
 10
0.635617
 20
0.798800
 30
0.000000
  0
SEQEND
  8
LAYER-1
  0
POLYLINE
  8
LAYER-1
 66
  1
 70
  0
 62
  7
 10
0.578516
 20
0.798800
 30
0.000000
  0
VERTEX
  8
LAYER-1
 10
0.578516
 20
0.798800
 30
0.000000
  0
VERTEX
  8
LAYER-1
 10
0.568380
 20
0.797387
 30
0.000000
  0
VERTEX
  8
LAYER-1
 10
0.566966
 20
0.787251
 30
0.000000
  0
SEQEND
  8
LAYER-1
  0
POLYLINE
  8
LAYER-1
 66
  1
 70
  0
 62
  7
 10
0.566966
 20
0.773877
 30
0.000000
  0
VERTEX
  8
LAYER-1
 10
0.566966
 20
0.773877
 30
0.000000
  0
VERTEX
  8
LAYER-1
 10
0.566966
 20
0.787251
 30
0.000000
  0
SEQEND
  8
LAYER-1
  0
POLYLINE
  8
LAYER-1
 66
  1
 70
  0
 62
  7
 10
0.566966
 20
0.773877
 30
0.000000
  0
VERTEX
  8
LAYER-1
 10
0.566966
 20
0.773877
 30
0.000000
  0
VERTEX
  8
LAYER-1
 10
0.570116
 20
0.770728
 30
0.000000
  0
SEQEND
  8
LAYER-1
  0
POLYLINE
  8
LAYER-1
 66
  1
 70
  0
 62
  7
 10
0.572082
 20
0.770724
 30
0.000000
  0
VERTEX
  8
LAYER-1
 10
0.572082
 20
0.770724
 30
0.000000
  0
VERTEX
  8
LAYER-1
 10
0.570116
 20
0.770724
 30
0.000000
  0
SEQEND
  8
LAYER-1
  0
POLYLINE
  8
LAYER-1
 66
  1
 70
  0
 62
  7
 10
0.572082
 20
0.770728
 30
0.000000
  0
VERTEX
  8
LAYER-1
 10
0.572082
 20
0.770728
 30
0.000000
  0
VERTEX
  8
LAYER-1
 10
0.575233
 20
0.773877
 30
0.000000
  0
SEQEND
  8
LAYER-1
  0
POLYLINE
  8
LAYER-1
 66
  1
 70
  0
 62
  7
 10
0.575233
 20
0.773877
 30
0.000000
  0
VERTEX
  8
LAYER-1
 10
0.575233
 20
0.773877
 30
0.000000
  0
VERTEX
  8
LAYER-1
 10
0.575233
 20
0.784101
 30
0.000000
  0
SEQEND
  8
LAYER-1
  0
POLYLINE
  8
LAYER-1
 66
  1
 70
  0
 62
  7
 10
0.578383
 20
0.787250
 30
0.000000
  0
VERTEX
  8
LAYER-1
 10
0.578383
 20
0.787250
 30
0.000000
  0
VERTEX
  8
LAYER-1
 10
0.575233
 20
0.784101
 30
0.000000
  0
SEQEND
  8
LAYER-1
  0
POLYLINE
  8
LAYER-1
 66
  1
 70
  0
 62
  7
 10
0.578383
 20
0.787249
 30
0.000000
  0
VERTEX
  8
LAYER-1
 10
0.578383
 20
0.787249
 30
0.000000
  0
VERTEX
  8
LAYER-1
 10
0.590259
 20
0.787249
 30
0.000000
  0
SEQEND
  8
LAYER-1
  0
POLYLINE
  8
LAYER-1
 66
  1
 70
  0
 62
  7
 10
0.593409
 20
0.784101
 30
0.000000
  0
VERTEX
  8
LAYER-1
 10
0.593409
 20
0.784101
 30
0.000000
  0
VERTEX
  8
LAYER-1
 10
0.590259
 20
0.787250
 30
0.000000
  0
SEQEND
  8
LAYER-1
  0
POLYLINE
  8
LAYER-1
 66
  1
 70
  0
 62
  7
 10
0.593409
 20
0.784101
 30
0.000000
  0
VERTEX
  8
LAYER-1
 10
0.593409
 20
0.784101
 30
0.000000
  0
VERTEX
  8
LAYER-1
 10
0.593409
 20
0.773856
 30
0.000000
  0
SEQEND
  8
LAYER-1
  0
POLYLINE
  8
LAYER-1
 66
  1
 70
  0
 62
  7
 10
0.593409
 20
0.773856
 30
0.000000
  0
VERTEX
  8
LAYER-1
 10
0.593409
 20
0.773856
 30
0.000000
  0
VERTEX
  8
LAYER-1
 10
0.596563
 20
0.770706
 30
0.000000
  0
SEQEND
  8
LAYER-1
  0
POLYLINE
  8
LAYER-1
 66
  1
 70
  0
 62
  7
 10
0.596563
 20
0.770705
 30
0.000000
  0
VERTEX
  8
LAYER-1
 10
0.596563
 20
0.770705
 30
0.000000
  0
VERTEX
  8
LAYER-1
 10
0.611326
 20
0.770724
 30
0.000000
  0
SEQEND
  8
LAYER-1
  0
POLYLINE
  8
LAYER-1
 66
  1
 70
  0
 62
  7
 10
0.611326
 20
0.770728
 30
0.000000
  0
VERTEX
  8
LAYER-1
 10
0.611326
 20
0.770728
 30
0.000000
  0
VERTEX
  8
LAYER-1
 10
0.614472
 20
0.773877
 30
0.000000
  0
SEQEND
  8
LAYER-1
  0
POLYLINE
  8
LAYER-1
 66
  1
 70
  0
 62
  7
 10
0.614472
 20
0.773877
 30
0.000000
  0
VERTEX
  8
LAYER-1
 10
0.614472
 20
0.773877
 30
0.000000
  0
VERTEX
  8
LAYER-1
 10
0.614472
 20
0.784101
 30
0.000000
  0
SEQEND
  8
LAYER-1
  0
POLYLINE
  8
LAYER-1
 66
  1
 70
  0
 62
  7
 10
0.617622
 20
0.787250
 30
0.000000
  0
VERTEX
  8
LAYER-1
 10
0.617622
 20
0.787250
 30
0.000000
  0
VERTEX
  8
LAYER-1
 10
0.614472
 20
0.784101
 30
0.000000
  0
SEQEND
  8
LAYER-1
  0
POLYLINE
  8
LAYER-1
 66
  1
 70
  0
 62
  7
 10
0.617622
 20
0.787249
 30
0.000000
  0
VERTEX
  8
LAYER-1
 10
0.617622
 20
0.787249
 30
0.000000
  0
VERTEX
  8
LAYER-1
 10
0.644093
 20
0.787249
 30
0.000000
  0
SEQEND
  8
LAYER-1
  0
POLYLINE
  8
LAYER-1
 66
  1
 70
  0
 62
  7
 10
0.647243
 20
0.784101
 30
0.000000
  0
VERTEX
  8
LAYER-1
 10
0.647243
 20
0.784101
 30
0.000000
  0
VERTEX
  8
LAYER-1
 10
0.644093
 20
0.787250
 30
0.000000
  0
SEQEND
  8
LAYER-1
  0
POLYLINE
  8
LAYER-1
 66
  1
 70
  0
 62
  7
 10
0.647243
 20
0.723200
 30
0.000000
  0
VERTEX
  8
LAYER-1
 10
0.647243
 20
0.723200
 30
0.000000
  0
VERTEX
  8
LAYER-1
 10
0.647243
 20
0.784101
 30
0.000000
  0
SEQEND
  8
LAYER-1
  0
POLYLINE
  8
LAYER-1
 66
  1
 70
  0
 62
  7
 10
0.632753
 20
0.708710
 30
0.000000
  0
VERTEX
  8
LAYER-1
 10
0.632753
 20
0.708710
 30
0.000000
  0
VERTEX
  8
LAYER-1
 10
0.641030
 20
0.714923
 30
0.000000
  0
VERTEX
  8
LAYER-1
 10
0.647243
 20
0.723200
 30
0.000000
  0
SEQEND
  8
LAYER-1
  0
POLYLINE
  8
LAYER-1
 66
  1
 70
  0
 62
  7
 10
0.632753
 20
0.708709
 30
0.000000
  0
VERTEX
  8
LAYER-1
 10
0.632753
 20
0.708709
 30
0.000000
  0
VERTEX
  8
LAYER-1
 10
0.617622
 20
0.708709
 30
0.000000
  0
SEQEND
  8
LAYER-1
  0
POLYLINE
  8
LAYER-1
 66
  1
 70
  0
 62
  7
 10
0.614472
 20
0.711860
 30
0.000000
  0
VERTEX
  8
LAYER-1
 10
0.614472
 20
0.711860
 30
0.000000
  0
VERTEX
  8
LAYER-1
 10
0.617622
 20
0.708710
 30
0.000000
  0
SEQEND
  8
LAYER-1
  0
POLYLINE
  8
LAYER-1
 66
  1
 70
  0
 62
  7
 10
0.614472
 20
0.711860
 30
0.000000
  0
VERTEX
  8
LAYER-1
 10
0.614472
 20
0.711860
 30
0.000000
  0
VERTEX
  8
LAYER-1
 10
0.614472
 20
0.722116
 30
0.000000
  0
SEQEND
  8
LAYER-1
  0
POLYLINE
  8
LAYER-1
 66
  1
 70
  0
 62
  7
 10
0.614472
 20
0.722116
 30
0.000000
  0
VERTEX
  8
LAYER-1
 10
0.614472
 20
0.722116
 30
0.000000
  0
VERTEX
  8
LAYER-1
 10
0.611322
 20
0.725265
 30
0.000000
  0
SEQEND
  8
LAYER-1
  0
POLYLINE
  8
LAYER-1
 66
  1
 70
  0
 62
  7
 10
0.611322
 20
0.725264
 30
0.000000
  0
VERTEX
  8
LAYER-1
 10
0.611322
 20
0.725264
 30
0.000000
  0
VERTEX
  8
LAYER-1
 10
0.596559
 20
0.725264
 30
0.000000
  0
SEQEND
  8
LAYER-1
  0
POLYLINE
  8
LAYER-1
 66
  1
 70
  0
 62
  7
 10
0.596559
 20
0.725265
 30
0.000000
  0
VERTEX
  8
LAYER-1
 10
0.596559
 20
0.725265
 30
0.000000
  0
VERTEX
  8
LAYER-1
 10
0.593409
 20
0.722116
 30
0.000000
  0
SEQEND
  8
LAYER-1
  0
POLYLINE
  8
LAYER-1
 66
  1
 70
  0
 62
  7
 10
0.593409
 20
0.722116
 30
0.000000
  0
VERTEX
  8
LAYER-1
 10
0.593409
 20
0.722116
 30
0.000000
  0
VERTEX
  8
LAYER-1
 10
0.593409
 20
0.711860
 30
0.000000
  0
SEQEND
  8
LAYER-1
  0
POLYLINE
  8
LAYER-1
 66
  1
 70
  0
 62
  7
 10
0.590259
 20
0.708710
 30
0.000000
  0
VERTEX
  8
LAYER-1
 10
0.590259
 20
0.708710
 30
0.000000
  0
VERTEX
  8
LAYER-1
 10
0.593409
 20
0.711860
 30
0.000000
  0
SEQEND
  8
LAYER-1
  0
POLYLINE
  8
LAYER-1
 66
  1
 70
  0
 62
  7
 10
0.590259
 20
0.708709
 30
0.000000
  0
VERTEX
  8
LAYER-1
 10
0.590259
 20
0.708709
 30
0.000000
  0
VERTEX
  8
LAYER-1
 10
0.578383
 20
0.708709
 30
0.000000
  0
SEQEND
  8
LAYER-1
  0
POLYLINE
  8
LAYER-1
 66
  1
 70
  0
 62
  7
 10
0.575233
 20
0.711860
 30
0.000000
  0
VERTEX
  8
LAYER-1
 10
0.575233
 20
0.711860
 30
0.000000
  0
VERTEX
  8
LAYER-1
 10
0.578383
 20
0.708710
 30
0.000000
  0
SEQEND
  8
LAYER-1
  0
POLYLINE
  8
LAYER-1
 66
  1
 70
  0
 62
  7
 10
0.575233
 20
0.711860
 30
0.000000
  0
VERTEX
  8
LAYER-1
 10
0.575233
 20
0.711860
 30
0.000000
  0
VERTEX
  8
LAYER-1
 10
0.575233
 20
0.722116
 30
0.000000
  0
SEQEND
  8
LAYER-1
  0
POLYLINE
  8
LAYER-1
 66
  1
 70
  0
 62
  7
 10
0.575233
 20
0.722116
 30
0.000000
  0
VERTEX
  8
LAYER-1
 10
0.575233
 20
0.722116
 30
0.000000
  0
VERTEX
  8
LAYER-1
 10
0.572083
 20
0.725265
 30
0.000000
  0
SEQEND
  8
LAYER-1
  0
POLYLINE
  8
LAYER-1
 66
  1
 70
  0
 62
  7
 10
0.572083
 20
0.725264
 30
0.000000
  0
VERTEX
  8
LAYER-1
 10
0.572083
 20
0.725264
 30
0.000000
  0
VERTEX
  8
LAYER-1
 10
0.570116
 20
0.725264
 30
0.000000
  0
SEQEND
  8
LAYER-1
  0
POLYLINE
  8
LAYER-1
 66
  1
 70
  0
 62
  7
 10
0.570116
 20
0.725265
 30
0.000000
  0
VERTEX
  8
LAYER-1
 10
0.570116
 20
0.725265
 30
0.000000
  0
VERTEX
  8
LAYER-1
 10
0.566966
 20
0.722116
 30
0.000000
  0
SEQEND
  8
LAYER-1
  0
POLYLINE
  8
LAYER-1
 66
  1
 70
  0
 62
  7
 10
0.566966
 20
0.722116
 30
0.000000
  0
VERTEX
  8
LAYER-1
 10
0.566966
 20
0.722116
 30
0.000000
  0
VERTEX
  8
LAYER-1
 10
0.566966
 20
0.708701
 30
0.000000
  0
SEQEND
  8
LAYER-1
  0
POLYLINE
  8
LAYER-1
 66
  1
 70
  0
 62
  7
 10
0.566966
 20
0.708701
 30
0.000000
  0
VERTEX
  8
LAYER-1
 10
0.566966
 20
0.708701
 30
0.000000
  0
VERTEX
  8
LAYER-1
 10
0.568381
 20
0.702502
 30
0.000000
  0
VERTEX
  8
LAYER-1
 10
0.578516
 20
0.697152
 30
0.000000
  0
SEQEND
  8
LAYER-1
  0
POLYLINE
  8
LAYER-1
 66
  1
 70
  0
 62
  7
 10
0.578516
 20
0.697150
 30
0.000000
  0
VERTEX
  8
LAYER-1
 10
0.578516
 20
0.697150
 30
0.000000
  0
VERTEX
  8
LAYER-1
 10
0.632689
 20
0.697150
 30
0.000000
  0
SEQEND
  8
LAYER-1
  0
POLYLINE
  8
LAYER-1
 66
  1
 70
  0
 62
  7
 10
0.632689
 20
0.697150
 30
0.000000
  0
VERTEX
  8
LAYER-1
 10
0.632689
 20
0.697150
 30
0.000000
  0
VERTEX
  8
LAYER-1
 10
0.649133
 20
0.706745
 30
0.000000
  0
VERTEX
  8
LAYER-1
 10
0.658729
 20
0.723190
 30
0.000000
  0
SEQEND
  8
LAYER-1
  0
POLYLINE
  8
LAYER-1
 66
  1
 70
  1
 62
  7
  0
VERTEX
  8
LAYER-1
 10
0.337360
 20
1.115490
 30
0.000000
  0
VERTEX
  8
LAYER-1
 10
0.337360
 20
1.141809
 30
0.000000
  0
VERTEX
  8
LAYER-1
 10
0.638767
 20
1.141809
 30
0.000000
  0
VERTEX
  8
LAYER-1
 10
0.638767
 20
1.115490
 30
0.000000
  0
SEQEND
  8
LAYER-1
  0
POLYLINE
  8
LAYER-1
 66
  1
 70
  0
 62
  7
 10
0.638769
 20
1.257897
 30
0.000000
  0
VERTEX
  8
LAYER-1
 10
0.638769
 20
1.257897
 30
0.000000
  0
VERTEX
  8
LAYER-1
 10
0.655598
 20
1.274650
 30
0.000000
  0
SEQEND
  8
LAYER-1
  0
POLYLINE
  8
LAYER-1
 66
  1
 70
  1
 62
  7
  0
VERTEX
  8
LAYER-1
 10
0.584267
 20
0.781828
 30
0.000000
  0
VERTEX
  8
LAYER-1
 10
0.587722
 20
0.781828
 30
0.000000
  0
VERTEX
  8
LAYER-1
 10
0.587722
 20
0.711828
 30
0.000000
  0
VERTEX
  8
LAYER-1
 10
0.584267
 20
0.711828
 30
0.000000
  0
SEQEND
  8
LAYER-1
  0
POLYLINE
  8
LAYER-1
 66
  1
 70
  0
 62
  7
 10
0.584267
 20
0.748752
 30
0.000000
  0
VERTEX
  8
LAYER-1
 10
0.584267
 20
0.748752
 30
0.000000
  0
VERTEX
  8
LAYER-1
 10
0.544892
 20
0.748752
 30
0.000000
  0
SEQEND
  8
LAYER-1
  0
POLYLINE
  8
LAYER-1
 66
  1
 70
  0
 62
  7
 10
0.584267
 20
0.748752
 30
0.000000
  0
VERTEX
  8
LAYER-1
 10
0.584267
 20
0.748752
 30
0.000000
  0
VERTEX
  8
LAYER-1
 10
0.545681
 20
0.744815
 30
0.000000
  0
SEQEND
  8
LAYER-1
  0
POLYLINE
  8
LAYER-1
 66
  1
 70
  0
 62
  7
 10
0.584267
 20
0.748752
 30
0.000000
  0
VERTEX
  8
LAYER-1
 10
0.584267
 20
0.748752
 30
0.000000
  0
VERTEX
  8
LAYER-1
 10
0.546467
 20
0.739302
 30
0.000000
  0
SEQEND
  8
LAYER-1
  0
POLYLINE
  8
LAYER-1
 66
  1
 70
  0
 62
  7
 10
0.584267
 20
0.748752
 30
0.000000
  0
VERTEX
  8
LAYER-1
 10
0.584267
 20
0.748752
 30
0.000000
  0
VERTEX
  8
LAYER-1
 10
0.545681
 20
0.753477
 30
0.000000
  0
SEQEND
  8
LAYER-1
  0
POLYLINE
  8
LAYER-1
 66
  1
 70
  0
 62
  7
 10
0.584267
 20
0.748752
 30
0.000000
  0
VERTEX
  8
LAYER-1
 10
0.584267
 20
0.748752
 30
0.000000
  0
VERTEX
  8
LAYER-1
 10
0.545681
 20
0.758991
 30
0.000000
  0
SEQEND
  8
LAYER-1
  0
POLYLINE
  8
LAYER-1
 66
  1
 70
  0
 62
  7
 10
0.584825
 20
0.733811
 30
0.000000
  0
VERTEX
  8
LAYER-1
 10
0.584825
 20
0.733811
 30
0.000000
  0
VERTEX
  8
LAYER-1
 10
0.545452
 20
0.733811
 30
0.000000
  0
SEQEND
  8
LAYER-1
  0
POLYLINE
  8
LAYER-1
 66
  1
 70
  0
 62
  7
 10
0.584825
 20
0.733811
 30
0.000000
  0
VERTEX
  8
LAYER-1
 10
0.584825
 20
0.733811
 30
0.000000
  0
VERTEX
  8
LAYER-1
 10
0.546239
 20
0.729874
 30
0.000000
  0
SEQEND
  8
LAYER-1
  0
POLYLINE
  8
LAYER-1
 66
  1
 70
  0
 62
  7
 10
0.584825
 20
0.733811
 30
0.000000
  0
VERTEX
  8
LAYER-1
 10
0.584825
 20
0.733811
 30
0.000000
  0
VERTEX
  8
LAYER-1
 10
0.547026
 20
0.724361
 30
0.000000
  0
SEQEND
  8
LAYER-1
  0
POLYLINE
  8
LAYER-1
 66
  1
 70
  0
 62
  7
 10
0.584825
 20
0.733811
 30
0.000000
  0
VERTEX
  8
LAYER-1
 10
0.584825
 20
0.733811
 30
0.000000
  0
VERTEX
  8
LAYER-1
 10
0.546239
 20
0.738536
 30
0.000000
  0
SEQEND
  8
LAYER-1
  0
POLYLINE
  8
LAYER-1
 66
  1
 70
  0
 62
  7
 10
0.584825
 20
0.733811
 30
0.000000
  0
VERTEX
  8
LAYER-1
 10
0.584825
 20
0.733811
 30
0.000000
  0
VERTEX
  8
LAYER-1
 10
0.546239
 20
0.744049
 30
0.000000
  0
SEQEND
  8
LAYER-1
  0
POLYLINE
  8
LAYER-1
 66
  1
 70
  0
 62
  7
 10
0.584825
 20
0.763210
 30
0.000000
  0
VERTEX
  8
LAYER-1
 10
0.584825
 20
0.763210
 30
0.000000
  0
VERTEX
  8
LAYER-1
 10
0.545452
 20
0.763210
 30
0.000000
  0
SEQEND
  8
LAYER-1
  0
POLYLINE
  8
LAYER-1
 66
  1
 70
  0
 62
  7
 10
0.584825
 20
0.763210
 30
0.000000
  0
VERTEX
  8
LAYER-1
 10
0.584825
 20
0.763210
 30
0.000000
  0
VERTEX
  8
LAYER-1
 10
0.546239
 20
0.759272
 30
0.000000
  0
SEQEND
  8
LAYER-1
  0
POLYLINE
  8
LAYER-1
 66
  1
 70
  0
 62
  7
 10
0.584825
 20
0.763210
 30
0.000000
  0
VERTEX
  8
LAYER-1
 10
0.584825
 20
0.763210
 30
0.000000
  0
VERTEX
  8
LAYER-1
 10
0.547026
 20
0.753762
 30
0.000000
  0
SEQEND
  8
LAYER-1
  0
POLYLINE
  8
LAYER-1
 66
  1
 70
  0
 62
  7
 10
0.584825
 20
0.763210
 30
0.000000
  0
VERTEX
  8
LAYER-1
 10
0.584825
 20
0.763210
 30
0.000000
  0
VERTEX
  8
LAYER-1
 10
0.546239
 20
0.767935
 30
0.000000
  0
SEQEND
  8
LAYER-1
  0
POLYLINE
  8
LAYER-1
 66
  1
 70
  0
 62
  7
 10
0.584825
 20
0.763210
 30
0.000000
  0
VERTEX
  8
LAYER-1
 10
0.584825
 20
0.763210
 30
0.000000
  0
VERTEX
  8
LAYER-1
 10
0.546239
 20
0.773446
 30
0.000000
  0
SEQEND
  8
LAYER-1
  0
POLYLINE
  8
LAYER-1
 66
  1
 70
  1
 62
  7
  0
VERTEX
  8
LAYER-1
 10
0.388637
 20
0.781828
 30
0.000000
  0
VERTEX
  8
LAYER-1
 10
0.392092
 20
0.781828
 30
0.000000
  0
VERTEX
  8
LAYER-1
 10
0.392092
 20
0.711828
 30
0.000000
  0
VERTEX
  8
LAYER-1
 10
0.388637
 20
0.711828
 30
0.000000
  0
SEQEND
  8
LAYER-1
  0
POLYLINE
  8
LAYER-1
 66
  1
 70
  0
 62
  7
 10
0.392092
 20
0.748752
 30
0.000000
  0
VERTEX
  8
LAYER-1
 10
0.392092
 20
0.748752
 30
0.000000
  0
VERTEX
  8
LAYER-1
 10
0.431467
 20
0.748752
 30
0.000000
  0
SEQEND
  8
LAYER-1
  0
POLYLINE
  8
LAYER-1
 66
  1
 70
  0
 62
  7
 10
0.392092
 20
0.748752
 30
0.000000
  0
VERTEX
  8
LAYER-1
 10
0.392092
 20
0.748752
 30
0.000000
  0
VERTEX
  8
LAYER-1
 10
0.430678
 20
0.744815
 30
0.000000
  0
SEQEND
  8
LAYER-1
  0
POLYLINE
  8
LAYER-1
 66
  1
 70
  0
 62
  7
 10
0.392092
 20
0.748752
 30
0.000000
  0
VERTEX
  8
LAYER-1
 10
0.392092
 20
0.748752
 30
0.000000
  0
VERTEX
  8
LAYER-1
 10
0.429892
 20
0.739302
 30
0.000000
  0
SEQEND
  8
LAYER-1
  0
POLYLINE
  8
LAYER-1
 66
  1
 70
  0
 62
  7
 10
0.392092
 20
0.748752
 30
0.000000
  0
VERTEX
  8
LAYER-1
 10
0.392092
 20
0.748752
 30
0.000000
  0
VERTEX
  8
LAYER-1
 10
0.430678
 20
0.753477
 30
0.000000
  0
SEQEND
  8
LAYER-1
  0
POLYLINE
  8
LAYER-1
 66
  1
 70
  0
 62
  7
 10
0.392092
 20
0.748752
 30
0.000000
  0
VERTEX
  8
LAYER-1
 10
0.392092
 20
0.748752
 30
0.000000
  0
VERTEX
  8
LAYER-1
 10
0.430678
 20
0.758991
 30
0.000000
  0
SEQEND
  8
LAYER-1
  0
POLYLINE
  8
LAYER-1
 66
  1
 70
  0
 62
  7
 10
0.391534
 20
0.733811
 30
0.000000
  0
VERTEX
  8
LAYER-1
 10
0.391534
 20
0.733811
 30
0.000000
  0
VERTEX
  8
LAYER-1
 10
0.430907
 20
0.733811
 30
0.000000
  0
SEQEND
  8
LAYER-1
  0
POLYLINE
  8
LAYER-1
 66
  1
 70
  0
 62
  7
 10
0.391534
 20
0.733811
 30
0.000000
  0
VERTEX
  8
LAYER-1
 10
0.391534
 20
0.733811
 30
0.000000
  0
VERTEX
  8
LAYER-1
 10
0.430120
 20
0.729874
 30
0.000000
  0
SEQEND
  8
LAYER-1
  0
POLYLINE
  8
LAYER-1
 66
  1
 70
  0
 62
  7
 10
0.391534
 20
0.733811
 30
0.000000
  0
VERTEX
  8
LAYER-1
 10
0.391534
 20
0.733811
 30
0.000000
  0
VERTEX
  8
LAYER-1
 10
0.429333
 20
0.724361
 30
0.000000
  0
SEQEND
  8
LAYER-1
  0
POLYLINE
  8
LAYER-1
 66
  1
 70
  0
 62
  7
 10
0.391534
 20
0.733811
 30
0.000000
  0
VERTEX
  8
LAYER-1
 10
0.391534
 20
0.733811
 30
0.000000
  0
VERTEX
  8
LAYER-1
 10
0.430120
 20
0.738536
 30
0.000000
  0
SEQEND
  8
LAYER-1
  0
POLYLINE
  8
LAYER-1
 66
  1
 70
  0
 62
  7
 10
0.391534
 20
0.733811
 30
0.000000
  0
VERTEX
  8
LAYER-1
 10
0.391534
 20
0.733811
 30
0.000000
  0
VERTEX
  8
LAYER-1
 10
0.430120
 20
0.744049
 30
0.000000
  0
SEQEND
  8
LAYER-1
  0
POLYLINE
  8
LAYER-1
 66
  1
 70
  0
 62
  7
 10
0.391534
 20
0.763210
 30
0.000000
  0
VERTEX
  8
LAYER-1
 10
0.391534
 20
0.763210
 30
0.000000
  0
VERTEX
  8
LAYER-1
 10
0.430907
 20
0.763210
 30
0.000000
  0
SEQEND
  8
LAYER-1
  0
POLYLINE
  8
LAYER-1
 66
  1
 70
  0
 62
  7
 10
0.391534
 20
0.763210
 30
0.000000
  0
VERTEX
  8
LAYER-1
 10
0.391534
 20
0.763210
 30
0.000000
  0
VERTEX
  8
LAYER-1
 10
0.430120
 20
0.759272
 30
0.000000
  0
SEQEND
  8
LAYER-1
  0
POLYLINE
  8
LAYER-1
 66
  1
 70
  0
 62
  7
 10
0.391534
 20
0.763210
 30
0.000000
  0
VERTEX
  8
LAYER-1
 10
0.391534
 20
0.763210
 30
0.000000
  0
VERTEX
  8
LAYER-1
 10
0.429333
 20
0.753762
 30
0.000000
  0
SEQEND
  8
LAYER-1
  0
POLYLINE
  8
LAYER-1
 66
  1
 70
  0
 62
  7
 10
0.391534
 20
0.763210
 30
0.000000
  0
VERTEX
  8
LAYER-1
 10
0.391534
 20
0.763210
 30
0.000000
  0
VERTEX
  8
LAYER-1
 10
0.430120
 20
0.767935
 30
0.000000
  0
SEQEND
  8
LAYER-1
  0
POLYLINE
  8
LAYER-1
 66
  1
 70
  0
 62
  7
 10
0.391534
 20
0.763210
 30
0.000000
  0
VERTEX
  8
LAYER-1
 10
0.391534
 20
0.763210
 30
0.000000
  0
VERTEX
  8
LAYER-1
 10
0.430120
 20
0.773446
 30
0.000000
  0
SEQEND
  8
LAYER-1
  0
ENDSEC
  0
EOF
