  0
SECTION
  2
HEADER
999
MacDraft 5.0\0
  9
$ACADVER
  1
AC1006
  9
$CLAYER
  8
LAYER-1
  9
$EXTMIN
 10
0.000000
 20
0.000000
  9
$EXTMAX
 10
7.555493
 20
8.641855
  9
$FASTZOOM
 70
0
  9
$FILLMODE
 70
1
  0
ENDSEC
  0
SECTION
  2
TABLES
  0
TABLE
  2
LTYPE
 70
16
  0
LTYPE
  2
CONTINUOUS
 70
64
  3
Solid Line
 72
65
 73
0
 40
0.000000
  0
LTYPE
  2
LTYPE01
 70
64
  3
CUSTOM
 72
65
 73
2
 40
0.076923
 49
0.057692
 49
-0.019231
  0
LTYPE
  2
LTYPE02
 70
64
  3
CUSTOM
 72
65
 73
2
 40
0.134615
 49
0.115385
 49
-0.019231
  0
LTYPE
  2
LTYPE03
 70
64
  3
CUSTOM
 72
65
 73
2
 40
0.259615
 49
0.230769
 49
-0.028846
  0
LTYPE
  2
LTYPE04
 70
64
  3
CUSTOM
 72
65
 73
2
 40
0.500000
 49
0.461538
 49
-0.038462
  0
LTYPE
  2
LTYPE05
 70
64
  3
CUSTOM
 72
65
 73
4
 40
0.105769
 49
0.057692
 49
-0.019231
 49
0.009615
 49
-0.019231
  0
LTYPE
  2
LTYPE06
 70
64
  3
CUSTOM
 72
65
 73
4
 40
0.163462
 49
0.115385
 49
-0.019231
 49
0.009615
 49
-0.019231
  0
LTYPE
  2
LTYPE07
 70
64
  3
CUSTOM
 72
65
 73
4
 40
0.307692
 49
0.230769
 49
-0.028846
 49
0.019231
 49
-0.028846
  0
LTYPE
  2
LTYPE08
 70
64
  3
CUSTOM
 72
65
 73
4
 40
0.557692
 49
0.461538
 49
-0.038462
 49
0.019231
 49
-0.038462
  0
LTYPE
  2
LTYPE09
 70
64
  3
CUSTOM
 72
65
 73
6
 40
0.134615
 49
0.057692
 49
-0.019231
 49
0.009615
 49
-0.019231
 49
0.009615
 49
-0.019231
  0
LTYPE
  2
LTYPE10
 70
64
  3
CUSTOM
 72
65
 73
6
 40
0.192308
 49
0.115385
 49
-0.019231
 49
0.009615
 49
-0.019231
 49
0.009615
 49
-0.019231
  0
LTYPE
  2
LTYPE11
 70
64
  3
CUSTOM
 72
65
 73
6
 40
0.346154
 49
0.230769
 49
-0.028846
 49
0.019231
 49
-0.019231
 49
0.019231
 49
-0.028846
  0
LTYPE
  2
LTYPE12
 70
64
  3
CUSTOM
 72
65
 73
6
 40
0.596154
 49
0.461538
 49
-0.038462
 49
0.019231
 49
-0.019231
 49
0.019231
 49
-0.038462
  0
LTYPE
  2
LTYPE13
 70
64
  3
CUSTOM
 72
65
 73
8
 40
0.221154
 49
0.115385
 49
-0.019231
 49
0.009615
 49
-0.019231
 49
0.009615
 49
-0.019231
 49
0.009615
 49
-0.019231
  0
LTYPE
  2
LTYPE14
 70
64
  3
CUSTOM
 72
65
 73
8
 40
0.384615
 49
0.230769
 49
-0.028846
 49
0.019231
 49
-0.019231
 49
0.019231
 49
-0.019231
 49
0.019231
 49
-0.028846
  0
LTYPE
  2
LTYPE15
 70
64
  3
CUSTOM
 72
65
 73
8
 40
0.653846
 49
0.461538
 49
-0.038462
 49
0.019231
 49
-0.028846
 49
0.019231
 49
-0.028846
 49
0.019231
 49
-0.038462
  0
ENDTAB
  0
TABLE
  2
LAYER
 70
1
  0
LAYER
  2
LAYER-1
 70
0
 62
7
  6
CONTINUOUS
  0
ENDTAB
  0
ENDSEC
  0
SECTION
  2
BLOCKS
  0
ENDSEC
  0
SECTION
  2
ENTITIES
  0
ARC
  8
LAYER-1
 62
  7
 10
5.241142
 20
7.584702
 30
0.000000
 40
0.254425
 50
270.000000
 51
90.000000
  0
POLYLINE
  8
LAYER-1
 66
  1
 70
  0
 62
  7
 10
5.241142
 20
7.839127
 30
0.000000
  0
VERTEX
  8
LAYER-1
 10
5.241142
 20
7.839127
 30
0.000000
  0
VERTEX
  8
LAYER-1
 10
1.576220
 20
7.839127
 30
0.000000
  0
SEQEND
  8
LAYER-1
  0
POLYLINE
  8
LAYER-1
 66
  1
 70
  0
 62
  7
 10
1.576220
 20
7.839127
 30
0.000000
  0
VERTEX
  8
LAYER-1
 10
1.576220
 20
7.839127
 30
0.000000
  0
VERTEX
  8
LAYER-1
 10
1.576220
 20
7.330278
 30
0.000000
  0
SEQEND
  8
LAYER-1
  0
POLYLINE
  8
LAYER-1
 66
  1
 70
  0
 62
  7
 10
5.241142
 20
7.330278
 30
0.000000
  0
VERTEX
  8
LAYER-1
 10
5.241142
 20
7.330278
 30
0.000000
  0
VERTEX
  8
LAYER-1
 10
1.576220
 20
7.330278
 30
0.000000
  0
SEQEND
  8
LAYER-1
  0
TEXT
  8
LAYER-1
 62
  7
 10
3.375000
 20
8.134615
 30
0.000000
 40
0.331731
  1
MobilFlex
 72
  5
 11
5.519231
 21
8.134615
 31
0.000000
  0
POLYLINE
  8
LAYER-1
 66
  1
 70
  1
 62
  7
  0
VERTEX
  8
LAYER-1
 10
1.577724
 20
8.640701
 30
0.000000
  0
VERTEX
  8
LAYER-1
 10
1.815571
 20
8.640701
 30
0.000000
  0
VERTEX
  8
LAYER-1
 10
1.815571
 20
8.123756
 30
0.000000
  0
VERTEX
  8
LAYER-1
 10
1.577724
 20
8.123756
 30
0.000000
  0
SEQEND
  8
LAYER-1
  0
POLYLINE
  8
LAYER-1
 66
  1
 70
  1
 62
  7
  0
VERTEX
  8
LAYER-1
 10
1.890223
 20
8.640701
 30
0.000000
  0
VERTEX
  8
LAYER-1
 10
2.128071
 20
8.640701
 30
0.000000
  0
VERTEX
  8
LAYER-1
 10
2.128071
 20
8.123756
 30
0.000000
  0
VERTEX
  8
LAYER-1
 10
1.890223
 20
8.123756
 30
0.000000
  0
SEQEND
  8
LAYER-1
  0
POLYLINE
  8
LAYER-1
 66
  1
 70
  1
 62
  7
  0
VERTEX
  8
LAYER-1
 10
2.190571
 20
8.640701
 30
0.000000
  0
VERTEX
  8
LAYER-1
 10
2.428418
 20
8.640701
 30
0.000000
  0
VERTEX
  8
LAYER-1
 10
2.428418
 20
8.123756
 30
0.000000
  0
VERTEX
  8
LAYER-1
 10
2.190571
 20
8.123756
 30
0.000000
  0
SEQEND
  8
LAYER-1
  0
POLYLINE
  8
LAYER-1
 66
  1
 70
  1
 62
  7
  0
VERTEX
  8
LAYER-1
 10
2.494390
 20
8.640701
 30
0.000000
  0
VERTEX
  8
LAYER-1
 10
2.732238
 20
8.640701
 30
0.000000
  0
VERTEX
  8
LAYER-1
 10
2.732238
 20
8.123756
 30
0.000000
  0
VERTEX
  8
LAYER-1
 10
2.494390
 20
8.123756
 30
0.000000
  0
SEQEND
  8
LAYER-1
  0
POLYLINE
  8
LAYER-1
 66
  1
 70
  1
 62
  7
  0
VERTEX
  8
LAYER-1
 10
2.811231
 20
8.636786
 30
0.000000
  0
VERTEX
  8
LAYER-1
 10
3.186665
 20
8.636786
 30
0.000000
  0
VERTEX
  8
LAYER-1
 10
3.186665
 20
8.498765
 30
0.000000
  0
VERTEX
  8
LAYER-1
 10
2.811231
 20
8.498765
 30
0.000000
  0
SEQEND
  8
LAYER-1
  0
POLYLINE
  8
LAYER-1
 66
  1
 70
  1
 62
  7
  0
VERTEX
  8
LAYER-1
 10
2.810797
 20
8.409355
 30
0.000000
  0
VERTEX
  8
LAYER-1
 10
3.118956
 20
8.409355
 30
0.000000
  0
VERTEX
  8
LAYER-1
 10
3.118956
 20
8.275240
 30
0.000000
  0
VERTEX
  8
LAYER-1
 10
2.810797
 20
8.275240
 30
0.000000
  0
SEQEND
  8
LAYER-1
  0
POLYLINE
  8
LAYER-1
 66
  1
 70
  1
 62
  7
  0
VERTEX
  8
LAYER-1
 10
1.577724
 20
8.039129
 30
0.000000
  0
VERTEX
  8
LAYER-1
 10
5.496127
 20
8.039129
 30
0.000000
  0
VERTEX
  8
LAYER-1
 10
5.496127
 20
7.995726
 30
0.000000
  0
VERTEX
  8
LAYER-1
 10
1.577724
 20
7.995726
 30
0.000000
  0
SEQEND
  8
LAYER-1
  0
TEXT
  8
LAYER-1
 62
  7
 10
1.769231
 20
7.471154
 30
0.000000
 40
0.187500
  1
Motor possibilities
 72
  5
 11
4.009616
 21
7.471154
 31
0.000000
  0
TEXT
  8
LAYER-1
 62
  7
 10
0.028846
 20
6.567308
 30
0.000000
 40
0.187500
  1
Jackshaft motor (DJ) 1/2Hp
 72
  5
 11
3.288462
 21
6.567308
 31
0.000000
  0
TEXT
  8
LAYER-1
 62
  7
 10
0.028846
 20
5.807692
 30
0.000000
 40
0.144231
  1
Full height
 72
  5
 11
1.057692
 21
5.807692
 31
0.000000
  0
TEXT
  8
LAYER-1
 62
  7
 10
1.057692
 20
5.807692
 30
0.000000
 40
0.144231
  1
 openings
 72
  5
 11
1.932692
 21
5.807692
 31
0.000000
  0
TEXT
  8
LAYER-1
 62
  7
 10
0.028846
 20
5.144231
 30
0.000000
 40
0.144231
  1
Maximum 
 72
  5
 11
0.971154
 21
5.144231
 31
0.000000
  0
TEXT
  8
LAYER-1
 62
  7
 10
0.971154
 20
5.144231
 30
0.000000
 40
0.144231
  1
30'
 72
  5
 11
1.278846
 21
5.144231
 31
0.000000
  0
TEXT
  8
LAYER-1
 62
  7
 10
1.278846
 20
5.144231
 30
0.000000
 40
0.144231
  1
 (9,14m) wide
 72
  5
 11
2.500000
 21
5.144231
 31
0.000000
  0
TEXT
  8
LAYER-1
 62
  7
 10
0.028846
 20
4.701923
 30
0.000000
 40
0.144231
  1
Recommended for doors
 72
  5
 11
2.201923
 21
4.701923
 31
0.000000
  0
TEXT
  8
LAYER-1
 62
  7
 10
0.028846
 20
4.480769
 30
0.000000
 40
0.144231
  1
over 150sq.ft
 72
  5
 11
1.269231
 21
4.480769
 31
0.000000
  0
TEXT
  8
LAYER-1
 62
  7
 10
1.269231
 20
4.480769
 30
0.000000
 40
0.144231
  1
 (14m
 72
  5
 11
1.817308
 21
4.480769
 31
0.000000
  0
TEXT
  8
LAYER-1
 62
  7
 10
1.817308
 20
4.480769
 30
0.000000
 40
0.122596
  1
2
 72
  5
 11
1.951923
 21
4.480769
 31
0.000000
  0
TEXT
  8
LAYER-1
 62
  7
 10
1.951923
 20
4.480769
 30
0.000000
 40
0.144231
  1
)
 72
  5
 11
2.067308
 21
4.480769
 31
0.000000
  0
TEXT
  8
LAYER-1
 62
  7
 10
0.028846
 20
3.817308
 30
0.000000
 40
0.144231
  1
Emergency release
 72
  5
 11
1.826923
 21
3.817308
 31
0.000000
  0
TEXT
  8
LAYER-1
 62
  7
 10
0.028846
 20
3.596154
 30
0.000000
 40
0.144231
  1
to manual operation included
 72
  5
 11
2.538462
 21
3.596154
 31
0.000000
  0
TEXT
  8
LAYER-1
 62
  7
 10
0.028846
 20
3.153846
 30
0.000000
 40
0.144231
  1
Up to 
 72
  5
 11
0.596154
 21
3.153846
 31
0.000000
  0
TEXT
  8
LAYER-1
 62
  7
 10
0.596154
 20
3.153846
 30
0.000000
 40
0.144231
  1
2 control stations
 72
  5
 11
2.259616
 21
3.153846
 31
0.000000
  0
TEXT
  8
LAYER-1
 62
  7
 10
2.259616
 20
3.153846
 30
0.000000
 40
0.144231
  1
,
 72
  5
 11
2.365385
 21
3.153846
 31
0.000000
  0
TEXT
  8
LAYER-1
 62
  7
 10
0.028846
 20
2.932692
 30
0.000000
 40
0.144231
  1
1 inside, 1 outside
 72
  5
 11
1.625000
 21
2.932692
 31
0.000000
  0
TEXT
  8
LAYER-1
 62
  7
 10
0.028846
 20
2.711538
 30
0.000000
 40
0.144231
  1
(3 buttons or key switches)
 72
  5
 11
2.384616
 21
2.711538
 31
0.000000
  0
TEXT
  8
LAYER-1
 62
  7
 10
0.028846
 20
2.269231
 30
0.000000
 40
0.144231
  1
Sensor stopping motor
 72
  5
 11
2.192308
 21
2.269231
 31
0.000000
  0
TEXT
  8
LAYER-1
 62
  7
 10
2.192308
 20
2.269231
 30
0.000000
 40
0.144231
  1
 when
 72
  5
 11
2.750000
 21
2.269231
 31
0.000000
  0
TEXT
  8
LAYER-1
 62
  7
 10
0.028846
 20
2.048077
 30
0.000000
 40
0.144231
  1
bottom bar is locked
 72
  5
 11
1.807692
 21
2.048077
 31
0.000000
  0
TEXT
  8
LAYER-1
 62
  7
 10
0.028846
 20
1.826923
 30
0.000000
 40
0.144231
  1
(Interlock built-in motor)
 72
  5
 11
2.115385
 21
1.826923
 31
0.000000
  0
TEXT
  8
LAYER-1
 62
  7
 10
0.028846
 20
1.384615
 30
0.000000
 40
0.144231
  1
Requires additionnal 
 72
  5
 11
1.865385
 21
1.384615
 31
0.000000
  0
TEXT
  8
LAYER-1
 62
  7
 10
1.865385
 20
1.384615
 30
0.000000
 40
0.144231
  1
head room
 72
  5
 11
2.894231
 21
1.384615
 31
0.000000
  0
TEXT
  8
LAYER-1
 62
  7
 10
0.028846
 20
0.721154
 30
0.000000
 40
0.144231
  1
For 
 72
  5
 11
0.423077
 21
0.721154
 31
0.000000
  0
TEXT
  8
LAYER-1
 62
  7
 10
0.423077
 20
0.721154
 30
0.000000
 40
0.144231
  1
4 1/2"
 72
  5
 11
0.990385
 21
0.721154
 31
0.000000
  0
TEXT
  8
LAYER-1
 62
  7
 10
0.990385
 20
0.721154
 30
0.000000
 40
0.144231
  1
, 
 72
  5
 11
1.153846
 21
0.721154
 31
0.000000
  0
TEXT
  8
LAYER-1
 62
  7
 10
1.153846
 20
0.721154
 30
0.000000
 40
0.144231
  1
6 5/8"
 72
  5
 11
1.721154
 21
0.721154
 31
0.000000
  0
TEXT
  8
LAYER-1
 62
  7
 10
1.721154
 20
0.721154
 30
0.000000
 40
0.144231
  1
 and 
 72
  5
 11
2.201923
 21
0.721154
 31
0.000000
  0
TEXT
  8
LAYER-1
 62
  7
 10
2.201923
 20
0.721154
 30
0.000000
 40
0.144231
  1
8 5/8"
 72
  5
 11
2.769231
 21
0.721154
 31
0.000000
  0
TEXT
  8
LAYER-1
 62
  7
 10
2.769231
 20
0.721154
 30
0.000000
 40
0.144231
  1
 barrels
 72
  5
 11
3.461539
 21
0.721154
 31
0.000000
  0
TEXT
  8
LAYER-1
 62
  7
 10
0.028846
 20
0.500000
 30
0.000000
 40
0.144231
  1
(114mm, 168mm and 219mm)
 72
  5
 11
2.692308
 21
0.500000
 31
0.000000
  0
TEXT
  8
LAYER-1
 62
  7
 10
0.028846
 20
0.057692
 30
0.000000
 40
0.144231
  1
Photoelectric sensors (
 72
  5
 11
2.038462
 21
0.057692
 31
0.000000
  0
TEXT
  8
LAYER-1
 62
  7
 10
2.038462
 20
0.057692
 30
0.000000
 40
0.144231
  1
magic eye
 72
  5
 11
3.019231
 21
0.057692
 31
0.000000
  0
TEXT
  8
LAYER-1
 62
  7
 10
3.019231
 20
0.057692
 30
0.000000
 40
0.144231
  1
)
 72
  5
 11
3.134616
 21
0.057692
 31
0.000000
  0
TEXT
  8
LAYER-1
 62
  7
 10
4.038462
 20
6.567308
 30
0.000000
 40
0.187500
  1
Tubular motor 100Nm
 72
  5
 11
6.653846
 21
6.567308
 31
0.000000
  0
TEXT
  8
LAYER-1
 62
  7
 10
4.038462
 20
5.807692
 30
0.000000
 40
0.144231
  1
Countertop
 72
  5
 11
5.115385
 21
5.807692
 31
0.000000
  0
TEXT
  8
LAYER-1
 62
  7
 10
5.115385
 20
5.807692
 30
0.000000
 40
0.144231
  1
 openings or
 72
  5
 11
6.221154
 21
5.807692
 31
0.000000
  0
TEXT
  8
LAYER-1
 62
  7
 10
4.038462
 20
5.586538
 30
0.000000
 40
0.144231
  1
Window
 72
  5
 11
4.826923
 21
5.586538
 31
0.000000
  0
TEXT
  8
LAYER-1
 62
  7
 10
4.826923
 20
5.586538
 30
0.000000
 40
0.144231
  1
 protection
 72
  5
 11
5.778846
 21
5.586538
 31
0.000000
  0
TEXT
  8
LAYER-1
 62
  7
 10
4.038462
 20
5.144231
 30
0.000000
 40
0.144231
  1
Maximum 
 72
  5
 11
4.980769
 21
5.144231
 31
0.000000
  0
TEXT
  8
LAYER-1
 62
  7
 10
4.980769
 20
5.144231
 30
0.000000
 40
0.144231
  1
16'
 72
  5
 11
5.288462
 21
5.144231
 31
0.000000
  0
TEXT
  8
LAYER-1
 62
  7
 10
5.288462
 20
5.144231
 30
0.000000
 40
0.144231
  1
 (4,88m) wide
 72
  5
 11
6.509616
 21
5.144231
 31
0.000000
  0
TEXT
  8
LAYER-1
 62
  7
 10
4.038462
 20
4.701923
 30
0.000000
 40
0.144231
  1
Up to 100sq.ft
 72
  5
 11
5.365385
 21
4.701923
 31
0.000000
  0
TEXT
  8
LAYER-1
 62
  7
 10
5.365385
 20
4.701923
 30
0.000000
 40
0.144231
  1
 (9,3m
 72
  5
 11
5.971154
 21
4.701923
 31
0.000000
  0
TEXT
  8
LAYER-1
 62
  7
 10
5.971154
 20
4.701923
 30
0.000000
 40
0.122596
  1
2
 72
  5
 11
6.105769
 21
4.701923
 31
0.000000
  0
TEXT
  8
LAYER-1
 62
  7
 10
6.105769
 20
4.701923
 30
0.000000
 40
0.144231
  1
) or 
 72
  5
 11
6.509616
 21
4.701923
 31
0.000000
  0
TEXT
  8
LAYER-1
 62
  7
 10
4.038462
 20
4.480769
 30
0.000000
 40
0.144231
  1
Up to 150sq.ft
 72
  5
 11
5.365385
 21
4.480769
 31
0.000000
  0
TEXT
  8
LAYER-1
 62
  7
 10
5.365385
 20
4.480769
 30
0.000000
 40
0.144231
  1
 (13m
 72
  5
 11
5.913462
 21
4.480769
 31
0.000000
  0
TEXT
  8
LAYER-1
 62
  7
 10
5.913462
 20
4.480769
 30
0.000000
 40
0.122596
  1
2
 72
  5
 11
6.048077
 21
4.480769
 31
0.000000
  0
TEXT
  8
LAYER-1
 62
  7
 10
6.048077
 20
4.480769
 30
0.000000
 40
0.144231
  1
)
 72
  5
 11
6.163462
 21
4.480769
 31
0.000000
  0
TEXT
  8
LAYER-1
 62
  7
 10
4.038462
 20
4.259615
 30
0.000000
 40
0.144231
  1
depending on model
 72
  5
 11
5.817308
 21
4.259615
 31
0.000000
  0
TEXT
  8
LAYER-1
 62
  7
 10
4.038462
 20
3.817308
 30
0.000000
 40
0.144231
  1
No emergency release
 72
  5
 11
6.125000
 21
3.817308
 31
0.000000
  0
TEXT
  8
LAYER-1
 62
  7
 10
6.125000
 20
3.817308
 30
0.000000
 40
0.144231
  1
 (direct drive)
 72
  5
 11
7.307692
 21
3.817308
 31
0.000000
  0
TEXT
  8
LAYER-1
 62
  7
 10
4.038462
 20
3.596154
 30
0.000000
 40
0.144231
  1
Optionnal: Manual override
 72
  5
 11
6.394231
 21
3.596154
 31
0.000000
  0
TEXT
  8
LAYER-1
 62
  7
 10
4.038462
 20
3.153846
 30
0.000000
 40
0.144231
  1
Only 
 72
  5
 11
4.538462
 21
3.153846
 31
0.000000
  0
TEXT
  8
LAYER-1
 62
  7
 10
4.538462
 20
3.153846
 30
0.000000
 40
0.144231
  1
1 control station
 72
  5
 11
6.096154
 21
3.153846
 31
0.000000
  0
TEXT
  8
LAYER-1
 62
  7
 10
6.096154
 20
3.153846
 30
0.000000
 40
0.144231
  1
 per motor,
 72
  5
 11
7.096154
 21
3.153846
 31
0.000000
  0
TEXT
  8
LAYER-1
 62
  7
 10
4.038462
 20
2.932692
 30
0.000000
 40
0.144231
  1
inside or outside
 72
  5
 11
5.480769
 21
2.932692
 31
0.000000
  0
TEXT
  8
LAYER-1
 62
  7
 10
4.038462
 20
2.711538
 30
0.000000
 40
0.144231
  1
(paddle or key switch or remote control)
 72
  5
 11
7.490385
 21
2.711538
 31
0.000000
  0
TEXT
  8
LAYER-1
 62
  7
 10
4.038462
 20
2.269231
 30
0.000000
 40
0.144231
  1
For lockable bottom bar only,
 72
  5
 11
6.576923
 21
2.269231
 31
0.000000
  0
TEXT
  8
LAYER-1
 62
  7
 10
4.038462
 20
2.048077
 30
0.000000
 40
0.144231
  1
external
 72
  5
 11
4.826923
 21
2.048077
 31
0.000000
  0
TEXT
  8
LAYER-1
 62
  7
 10
4.826923
 20
2.048077
 30
0.000000
 40
0.144231
  1
 
 72
  5
 11
4.932692
 21
2.048077
 31
0.000000
  0
TEXT
  8
LAYER-1
 62
  7
 10
4.932692
 20
2.048077
 30
0.000000
 40
0.144231
  1
sensor
 72
  5
 11
5.605769
 21
2.048077
 31
0.000000
  0
TEXT
  8
LAYER-1
 62
  7
 10
5.605769
 20
2.048077
 30
0.000000
 40
0.144231
  1
 stopping motor
 72
  5
 11
6.990385
 21
2.048077
 31
0.000000
  0
TEXT
  8
LAYER-1
 62
  7
 10
4.038462
 20
1.826923
 30
0.000000
 40
0.144231
  1
(Interlock attached to guide)
 72
  5
 11
6.490385
 21
1.826923
 31
0.000000
  0
TEXT
  8
LAYER-1
 62
  7
 10
4.038462
 20
1.384615
 30
0.000000
 40
0.144231
  1
No
 72
  5
 11
4.336539
 21
1.384615
 31
0.000000
  0
TEXT
  8
LAYER-1
 62
  7
 10
4.336539
 20
1.384615
 30
0.000000
 40
0.144231
  1
 extra 
 72
  5
 11
4.932692
 21
1.384615
 31
0.000000
  0
TEXT
  8
LAYER-1
 62
  7
 10
4.932692
 20
1.384615
 30
0.000000
 40
0.144231
  1
head room
 72
  5
 11
5.961539
 21
1.384615
 31
0.000000
  0
TEXT
  8
LAYER-1
 62
  7
 10
5.961539
 20
1.384615
 30
0.000000
 40
0.144231
  1
 required,
 72
  5
 11
6.826923
 21
1.384615
 31
0.000000
  0
TEXT
  8
LAYER-1
 62
  7
 10
4.038462
 20
1.163462
 30
0.000000
 40
0.144231
  1
motor installed inside barrel
 72
  5
 11
6.432692
 21
1.163462
 31
0.000000
  0
TEXT
  8
LAYER-1
 62
  7
 10
4.038462
 20
0.721154
 30
0.000000
 40
0.144231
  1
For 
 72
  5
 11
4.432692
 21
0.721154
 31
0.000000
  0
TEXT
  8
LAYER-1
 62
  7
 10
4.432692
 20
0.721154
 30
0.000000
 40
0.144231
  1
4"
 72
  5
 11
4.673077
 21
0.721154
 31
0.000000
  0
TEXT
  8
LAYER-1
 62
  7
 10
4.673077
 20
0.721154
 30
0.000000
 40
0.144231
  1
 (102mm) barrels only
 72
  5
 11
6.605769
 21
0.721154
 31
0.000000
  0
TEXT
  8
LAYER-1
 62
  7
 10
4.038462
 20
0.057692
 30
0.000000
 40
0.144231
  1
No
 72
  5
 11
4.336539
 21
0.057692
 31
0.000000
  0
TEXT
  8
LAYER-1
 62
  7
 10
4.336539
 20
0.057692
 30
0.000000
 40
0.144231
  1
 photoelectric 
 72
  5
 11
5.586539
 21
0.057692
 31
0.000000
  0
TEXT
  8
LAYER-1
 62
  7
 10
5.586539
 20
0.057692
 30
0.000000
 40
0.144231
  1
sensors
 72
  5
 11
6.365385
 21
0.057692
 31
0.000000
  0
ENDSEC
  0
EOF
