  0
SECTION
  2
HEADER
999
MacDraft 5.0\0
  9
$ACADVER
  1
AC1006
  9
$CLAYER
  8
LAYER-1
  9
$EXTMIN
 10
0.000000
 20
0.000000
  9
$EXTMAX
 10
7.534728
 20
10.129096
  9
$FASTZOOM
 70
0
  9
$FILLMODE
 70
1
  0
ENDSEC
  0
SECTION
  2
TABLES
  0
TABLE
  2
LTYPE
 70
16
  0
LTYPE
  2
CONTINUOUS
 70
64
  3
Solid Line
 72
65
 73
0
 40
0.000000
  0
LTYPE
  2
LTYPE01
 70
64
  3
CUSTOM
 72
65
 73
2
 40
0.111111
 49
0.083333
 49
-0.027778
  0
LTYPE
  2
LTYPE02
 70
64
  3
CUSTOM
 72
65
 73
2
 40
0.194444
 49
0.166667
 49
-0.027778
  0
LTYPE
  2
LTYPE03
 70
64
  3
CUSTOM
 72
65
 73
2
 40
0.375000
 49
0.333333
 49
-0.041667
  0
LTYPE
  2
LTYPE04
 70
64
  3
CUSTOM
 72
65
 73
2
 40
0.722222
 49
0.666667
 49
-0.055556
  0
LTYPE
  2
LTYPE05
 70
64
  3
CUSTOM
 72
65
 73
4
 40
0.152778
 49
0.083333
 49
-0.027778
 49
0.013889
 49
-0.027778
  0
LTYPE
  2
LTYPE06
 70
64
  3
CUSTOM
 72
65
 73
4
 40
0.236111
 49
0.166667
 49
-0.027778
 49
0.013889
 49
-0.027778
  0
LTYPE
  2
LTYPE07
 70
64
  3
CUSTOM
 72
65
 73
4
 40
0.444444
 49
0.333333
 49
-0.041667
 49
0.027778
 49
-0.041667
  0
LTYPE
  2
LTYPE08
 70
64
  3
CUSTOM
 72
65
 73
4
 40
0.805556
 49
0.666667
 49
-0.055556
 49
0.027778
 49
-0.055556
  0
LTYPE
  2
LTYPE09
 70
64
  3
CUSTOM
 72
65
 73
6
 40
0.194444
 49
0.083333
 49
-0.027778
 49
0.013889
 49
-0.027778
 49
0.013889
 49
-0.027778
  0
LTYPE
  2
LTYPE10
 70
64
  3
CUSTOM
 72
65
 73
6
 40
0.277778
 49
0.166667
 49
-0.027778
 49
0.013889
 49
-0.027778
 49
0.013889
 49
-0.027778
  0
LTYPE
  2
LTYPE11
 70
64
  3
CUSTOM
 72
65
 73
6
 40
0.500000
 49
0.333333
 49
-0.041667
 49
0.027778
 49
-0.027778
 49
0.027778
 49
-0.041667
  0
LTYPE
  2
LTYPE12
 70
64
  3
CUSTOM
 72
65
 73
6
 40
0.861111
 49
0.666667
 49
-0.055556
 49
0.027778
 49
-0.027778
 49
0.027778
 49
-0.055556
  0
LTYPE
  2
LTYPE13
 70
64
  3
CUSTOM
 72
65
 73
8
 40
0.319444
 49
0.166667
 49
-0.027778
 49
0.013889
 49
-0.027778
 49
0.013889
 49
-0.027778
 49
0.013889
 49
-0.027778
  0
LTYPE
  2
LTYPE14
 70
64
  3
CUSTOM
 72
65
 73
8
 40
0.555556
 49
0.333333
 49
-0.041667
 49
0.027778
 49
-0.027778
 49
0.027778
 49
-0.027778
 49
0.027778
 49
-0.041667
  0
LTYPE
  2
LTYPE15
 70
64
  3
CUSTOM
 72
65
 73
8
 40
0.944444
 49
0.666667
 49
-0.055556
 49
0.027778
 49
-0.041667
 49
0.027778
 49
-0.041667
 49
0.027778
 49
-0.055556
  0
ENDTAB
  0
TABLE
  2
LAYER
 70
1
  0
LAYER
  2
LAYER-1
 70
0
 62
7
  6
CONTINUOUS
  0
ENDTAB
  0
ENDSEC
  0
SECTION
  2
BLOCKS
  0
ENDSEC
  0
SECTION
  2
ENTITIES
  0
TEXT
  8
LAYER-1
 62
  0
 10
0.118057
 20
2.555553
 30
0.000000
 40
0.145833
  1
8" - 203mm 
 72
  5
 11
1.270834
 21
2.555553
 31
0.000000
  0
TEXT
  8
LAYER-1
 62
  0
 10
0.173612
 20
2.222220
 30
0.000000
 40
0.145833
  1
9" - 229mm
 72
  5
 11
1.270834
 21
2.222220
 31
0.000000
  0
TEXT
  8
LAYER-1
 62
  0
 10
0.034723
 20
1.888886
 30
0.000000
 40
0.145833
  1
10" - 254mm
 72
  5
 11
1.270834
 21
1.888886
 31
0.000000
  0
TEXT
  8
LAYER-1
 62
  0
 10
0.062501
 20
1.555553
 30
0.000000
 40
0.145833
  1
12" - 305mm
 72
  5
 11
1.270834
 21
1.555553
 31
0.000000
  0
ARC
  8
LAYER-1
 62
  0
 10
5.281511
 20
9.076206
 30
0.000000
 40
0.254425
 50
270.000000
 51
90.000000
  0
POLYLINE
  8
LAYER-1
 66
  1
 70
  0
 62
  0
 10
5.281511
 20
9.330631
 30
0.000000
  0
VERTEX
  8
LAYER-1
 10
5.281511
 20
9.330631
 30
0.000000
  0
VERTEX
  8
LAYER-1
 10
1.616589
 20
9.330631
 30
0.000000
  0
SEQEND
  8
LAYER-1
  0
POLYLINE
  8
LAYER-1
 66
  1
 70
  0
 62
  0
 10
1.616589
 20
9.330631
 30
0.000000
  0
VERTEX
  8
LAYER-1
 10
1.616589
 20
9.330631
 30
0.000000
  0
VERTEX
  8
LAYER-1
 10
1.616589
 20
8.821782
 30
0.000000
  0
SEQEND
  8
LAYER-1
  0
POLYLINE
  8
LAYER-1
 66
  1
 70
  0
 62
  0
 10
5.281511
 20
8.821782
 30
0.000000
  0
VERTEX
  8
LAYER-1
 10
5.281511
 20
8.821782
 30
0.000000
  0
VERTEX
  8
LAYER-1
 10
1.616589
 20
8.821782
 30
0.000000
  0
SEQEND
  8
LAYER-1
  0
TEXT
  8
LAYER-1
 62
  0
 10
3.423612
 20
9.597220
 30
0.000000
 40
0.333333
  1
MobilFlex
 72
  5
 11
5.576390
 21
9.597220
 31
0.000000
  0
POLYLINE
  8
LAYER-1
 66
  1
 70
  1
 62
  0
  0
VERTEX
  8
LAYER-1
 10
1.618092
 20
10.127430
 30
0.000000
  0
VERTEX
  8
LAYER-1
 10
1.855939
 20
10.127430
 30
0.000000
  0
VERTEX
  8
LAYER-1
 10
1.855939
 20
9.610485
 30
0.000000
  0
VERTEX
  8
LAYER-1
 10
1.618092
 20
9.610485
 30
0.000000
  0
SEQEND
  8
LAYER-1
  0
POLYLINE
  8
LAYER-1
 66
  1
 70
  1
 62
  0
  0
VERTEX
  8
LAYER-1
 10
1.930592
 20
10.127430
 30
0.000000
  0
VERTEX
  8
LAYER-1
 10
2.168439
 20
10.127430
 30
0.000000
  0
VERTEX
  8
LAYER-1
 10
2.168439
 20
9.610485
 30
0.000000
  0
VERTEX
  8
LAYER-1
 10
1.930592
 20
9.610485
 30
0.000000
  0
SEQEND
  8
LAYER-1
  0
POLYLINE
  8
LAYER-1
 66
  1
 70
  1
 62
  0
  0
VERTEX
  8
LAYER-1
 10
2.230939
 20
10.127430
 30
0.000000
  0
VERTEX
  8
LAYER-1
 10
2.468786
 20
10.127430
 30
0.000000
  0
VERTEX
  8
LAYER-1
 10
2.468786
 20
9.610485
 30
0.000000
  0
VERTEX
  8
LAYER-1
 10
2.230939
 20
9.610485
 30
0.000000
  0
SEQEND
  8
LAYER-1
  0
POLYLINE
  8
LAYER-1
 66
  1
 70
  1
 62
  0
  0
VERTEX
  8
LAYER-1
 10
2.534758
 20
10.127430
 30
0.000000
  0
VERTEX
  8
LAYER-1
 10
2.772606
 20
10.127430
 30
0.000000
  0
VERTEX
  8
LAYER-1
 10
2.772606
 20
9.610485
 30
0.000000
  0
VERTEX
  8
LAYER-1
 10
2.534758
 20
9.610485
 30
0.000000
  0
SEQEND
  8
LAYER-1
  0
POLYLINE
  8
LAYER-1
 66
  1
 70
  1
 62
  0
  0
VERTEX
  8
LAYER-1
 10
2.851599
 20
10.123514
 30
0.000000
  0
VERTEX
  8
LAYER-1
 10
3.227033
 20
10.123514
 30
0.000000
  0
VERTEX
  8
LAYER-1
 10
3.227033
 20
9.985493
 30
0.000000
  0
VERTEX
  8
LAYER-1
 10
2.851599
 20
9.985493
 30
0.000000
  0
SEQEND
  8
LAYER-1
  0
POLYLINE
  8
LAYER-1
 66
  1
 70
  1
 62
  0
  0
VERTEX
  8
LAYER-1
 10
2.851165
 20
9.896083
 30
0.000000
  0
VERTEX
  8
LAYER-1
 10
3.159324
 20
9.896083
 30
0.000000
  0
VERTEX
  8
LAYER-1
 10
3.159324
 20
9.761969
 30
0.000000
  0
VERTEX
  8
LAYER-1
 10
2.851165
 20
9.761969
 30
0.000000
  0
SEQEND
  8
LAYER-1
  0
POLYLINE
  8
LAYER-1
 66
  1
 70
  1
 62
  0
  0
VERTEX
  8
LAYER-1
 10
1.618092
 20
9.525858
 30
0.000000
  0
VERTEX
  8
LAYER-1
 10
5.536496
 20
9.525858
 30
0.000000
  0
VERTEX
  8
LAYER-1
 10
5.536496
 20
9.482455
 30
0.000000
  0
VERTEX
  8
LAYER-1
 10
1.618092
 20
9.482455
 30
0.000000
  0
SEQEND
  8
LAYER-1
  0
TEXT
  8
LAYER-1
 62
  7
 10
1.923612
 20
8.958331
 30
0.000000
 40
0.187500
  1
Detalles del nicho
 72
  5
 11
4.118057
 21
8.958331
 31
0.000000
  0
POLYLINE
  8
LAYER-1
 66
  1
 70
  0
 62
  0
 10
0.076389
 20
3.687493
 30
0.000000
  0
VERTEX
  8
LAYER-1
 10
0.076389
 20
3.687493
 30
0.000000
  0
VERTEX
  8
LAYER-1
 10
3.854175
 20
3.687493
 30
0.000000
  0
SEQEND
  8
LAYER-1
  0
POLYLINE
  8
LAYER-1
 66
  1
 70
  0
 62
  0
 10
3.854175
 20
3.687493
 30
0.000000
  0
VERTEX
  8
LAYER-1
 10
3.854175
 20
3.687493
 30
0.000000
  0
VERTEX
  8
LAYER-1
 10
3.854175
 20
1.430549
 30
0.000000
  0
SEQEND
  8
LAYER-1
  0
POLYLINE
  8
LAYER-1
 66
  1
 70
  0
 62
  0
 10
3.854175
 20
1.430549
 30
0.000000
  0
VERTEX
  8
LAYER-1
 10
3.854175
 20
1.430549
 30
0.000000
  0
VERTEX
  8
LAYER-1
 10
0.076389
 20
1.430549
 30
0.000000
  0
SEQEND
  8
LAYER-1
  0
POLYLINE
  8
LAYER-1
 66
  1
 70
  0
 62
  0
 10
0.076389
 20
1.430549
 30
0.000000
  0
VERTEX
  8
LAYER-1
 10
0.076389
 20
1.430549
 30
0.000000
  0
VERTEX
  8
LAYER-1
 10
0.076389
 20
3.687493
 30
0.000000
  0
SEQEND
  8
LAYER-1
  0
TEXT
  8
LAYER-1
 62
  0
 10
2.576390
 20
2.555553
 30
0.000000
 40
0.145833
  1
14" - 356mm
 72
  5
 11
3.784723
 21
2.555553
 31
0.000000
  0
TEXT
  8
LAYER-1
 62
  0
 10
2.576390
 20
2.222220
 30
0.000000
 40
0.145833
  1
11" - 279mm
 72
  5
 11
3.784723
 21
2.222220
 31
0.000000
  0
TEXT
  8
LAYER-1
 62
  0
 10
2.576390
 20
1.888886
 30
0.000000
 40
0.145833
  1
10" - 254mm
 72
  5
 11
3.784723
 21
1.888886
 31
0.000000
  0
TEXT
  8
LAYER-1
 62
  0
 10
2.687501
 20
1.555553
 30
0.000000
 40
0.145833
  1
9" - 229mm
 72
  5
 11
3.784723
 21
1.555553
 31
0.000000
  0
TEXT
  8
LAYER-1
 62
  0
 10
4.340279
 20
3.361109
 30
0.000000
 40
0.187500
  1
P 
 72
  5
 11
4.645834
 21
3.361109
 31
0.000000
  0
TEXT
  8
LAYER-1
 62
  0
 10
4.645834
 20
3.361109
 30
0.000000
 40
0.145833
  1
(m’nima de apilamiento) =
 72
  5
 11
7.020834
 21
3.361109
 31
0.000000
  0
TEXT
  8
LAYER-1
 62
  0
 10
7.020834
 20
3.361109
 30
0.000000
 40
0.187500
  1
 
 72
  5
 11
7.159723
 21
3.361109
 31
0.000000
  0
TEXT
  8
LAYER-1
 62
  0
 10
4.340279
 20
2.888886
 30
0.000000
 40
0.145833
  1
1,15" por pie lineal + 3" por poste
 72
  5
 11
7.340279
 21
2.888886
 31
0.000000
  0
TEXT
  8
LAYER-1
 62
  0
 10
4.340279
 20
2.444442
 30
0.000000
 40
0.145833
  1
o
 72
  5
 11
4.520834
 21
2.444442
 31
0.000000
  0
TEXT
  8
LAYER-1
 62
  0
 10
4.340279
 20
1.999997
 30
0.000000
 40
0.145833
  1
95mm por metro lineal
 72
  5
 11
6.395834
 21
1.999997
 31
0.000000
  0
TEXT
  8
LAYER-1
 62
  0
 10
4.340279
 20
1.777775
 30
0.000000
 40
0.145833
  1
+
 72
  5
 11
4.520834
 21
1.777775
 31
0.000000
  0
TEXT
  8
LAYER-1
 62
  0
 10
4.340279
 20
1.555553
 30
0.000000
 40
0.145833
  1
76mm por poste
 72
  5
 11
5.854168
 21
1.555553
 31
0.000000
  0
TEXT
  8
LAYER-1
 62
  0
 10
2.965279
 20
3.458331
 30
0.000000
 40
0.125000
  1
Radio
 72
  5
 11
3.493057
 21
3.458331
 31
0.000000
  0
TEXT
  8
LAYER-1
 62
  0
 10
2.631946
 20
3.249997
 30
0.000000
 40
0.145833
  1
10" - 254mm
 72
  5
 11
3.840279
 21
3.249997
 31
0.000000
  0
TEXT
  8
LAYER-1
 62
  0
 10
1.368057
 20
2.555553
 30
0.000000
 40
0.145833
  1
18" - 457mm
 72
  5
 11
2.576390
 21
2.555553
 31
0.000000
  0
TEXT
  8
LAYER-1
 62
  0
 10
1.368057
 20
2.222220
 30
0.000000
 40
0.145833
  1
14" - 356mm
 72
  5
 11
2.576390
 21
2.222220
 31
0.000000
  0
TEXT
  8
LAYER-1
 62
  0
 10
1.354168
 20
1.888886
 30
0.000000
 40
0.145833
  1
12" - 305mm
 72
  5
 11
2.590279
 21
1.888886
 31
0.000000
  0
TEXT
  8
LAYER-1
 62
  0
 10
1.340279
 20
1.555553
 30
0.000000
 40
0.145833
  1
11" - 279mm 
 72
  5
 11
2.604168
 21
1.555553
 31
0.000000
  0
POLYLINE
  8
LAYER-1
 66
  1
 70
  0
 62
  0
 10
0.076389
 20
3.173604
 30
0.000000
  0
VERTEX
  8
LAYER-1
 10
0.076389
 20
3.173604
 30
0.000000
  0
VERTEX
  8
LAYER-1
 10
3.854175
 20
3.173604
 30
0.000000
  0
SEQEND
  8
LAYER-1
  0
POLYLINE
  8
LAYER-1
 66
  1
 70
  0
 62
  0
 10
3.854175
 20
2.812493
 30
0.000000
  0
VERTEX
  8
LAYER-1
 10
3.854175
 20
2.812493
 30
0.000000
  0
VERTEX
  8
LAYER-1
 10
0.076389
 20
2.812493
 30
0.000000
  0
SEQEND
  8
LAYER-1
  0
TEXT
  8
LAYER-1
 62
  0
 10
1.701390
 20
3.458331
 30
0.000000
 40
0.125000
  1
Radio
 72
  5
 11
2.256946
 21
3.458331
 31
0.000000
  0
TEXT
  8
LAYER-1
 62
  0
 10
1.368057
 20
3.249997
 30
0.000000
 40
0.145833
  1
14" - 356mm
 72
  5
 11
2.604168
 21
3.249997
 31
0.000000
  0
POLYLINE
  8
LAYER-1
 66
  1
 70
  0
 62
  0
 10
1.361111
 20
3.687493
 30
0.000000
  0
VERTEX
  8
LAYER-1
 10
1.361111
 20
3.687493
 30
0.000000
  0
VERTEX
  8
LAYER-1
 10
1.361111
 20
1.430549
 30
0.000000
  0
SEQEND
  8
LAYER-1
  0
POLYLINE
  8
LAYER-1
 66
  1
 70
  0
 62
  0
 10
2.611114
 20
3.687493
 30
0.000000
  0
VERTEX
  8
LAYER-1
 10
2.611114
 20
3.687493
 30
0.000000
  0
VERTEX
  8
LAYER-1
 10
2.611114
 20
1.430549
 30
0.000000
  0
SEQEND
  8
LAYER-1
  0
TEXT
  8
LAYER-1
 62
  0
 10
1.854168
 20
2.916664
 30
0.000000
 40
0.187500
  1
B
 72
  5
 11
2.090279
 21
2.916664
 31
0.000000
  0
TEXT
  8
LAYER-1
 62
  0
 10
3.118057
 20
2.916664
 30
0.000000
 40
0.187500
  1
B
 72
  5
 11
3.354168
 21
2.916664
 31
0.000000
  0
TEXT
  8
LAYER-1
 62
  0
 10
0.604168
 20
2.916664
 30
0.000000
 40
0.187500
  1
A
 72
  5
 11
0.840279
 21
2.916664
 31
0.000000
  0
TEXT
  8
LAYER-1
 62
  0
 10
0.090279
 20
1.083331
 30
0.000000
 40
0.145833
  1
A
 72
  5
 11
0.298612
 21
1.083331
 31
0.000000
  0
TEXT
  8
LAYER-1
 62
  0
 10
0.298612
 20
1.083331
 30
0.000000
 40
0.125000
  1
:
 72
  5
 11
0.409723
 21
1.083331
 31
0.000000
  0
TEXT
  8
LAYER-1
 62
  0
 10
0.409723
 20
1.083331
 30
0.000000
 40
0.125000
  1
 Dimensi—n interior del nicho
 72
  5
 11
2.673612
 21
1.083331
 31
0.000000
  0
TEXT
  8
LAYER-1
 62
  0
 10
0.090279
 20
0.888886
 30
0.000000
 40
0.125000
  1
Un nicho de 10" - 254mm de ancho es
 72
  5
 11
3.090279
 21
0.888886
 31
0.000000
  0
TEXT
  8
LAYER-1
 62
  0
 10
0.090279
 20
0.694442
 30
0.000000
 40
0.125000
  1
recomienda con un est‡ndar 14" - 356mm de radio
 72
  5
 11
4.048612
 21
0.694442
 31
0.000000
  0
TEXT
  8
LAYER-1
 62
  0
 10
0.090279
 20
0.499997
 30
0.000000
 40
0.125000
  1
y la apertura B de 12" - 305mm.
 72
  5
 11
2.548612
 21
0.499997
 31
0.000000
  0
TEXT
  8
LAYER-1
 62
  0
 10
0.090279
 20
0.083331
 30
0.000000
 40
0.145833
  1
B
 72
  5
 11
0.298612
 21
0.083331
 31
0.000000
  0
TEXT
  8
LAYER-1
 62
  0
 10
0.298612
 20
0.083331
 30
0.000000
 40
0.125000
  1
:
 72
  5
 11
0.409723
 21
0.083331
 31
0.000000
  0
TEXT
  8
LAYER-1
 62
  0
 10
0.409723
 20
0.083331
 30
0.000000
 40
0.125000
  1
 Apertura libre a la entrada del nicho
 72
  5
 11
3.215279
 21
0.083331
 31
0.000000
  0
TEXT
  8
LAYER-1
 62
  0
 10
4.215279
 20
1.097220
 30
0.000000
 40
0.125000
  1
4" - 102mm de espacio libre m’nimo a
 72
  5
 11
7.201390
 21
1.097220
 31
0.000000
  0
TEXT
  8
LAYER-1
 62
  0
 10
4.215279
 20
0.902775
 30
0.000000
 40
0.125000
  1
ambos lado del ra’l. Si una puerta del nicho
 72
  5
 11
7.590279
 21
0.902775
 31
0.000000
  0
TEXT
  8
LAYER-1
 62
  0
 10
4.215279
 20
0.708331
 30
0.000000
 40
0.125000
  1
se utiliza, la puerta no debe obstaculizar la 
 72
  5
 11
7.548612
 21
0.708331
 31
0.000000
  0
TEXT
  8
LAYER-1
 62
  0
 10
4.215279
 20
0.513886
 30
0.000000
 40
0.125000
  1
dimensi—n de la entrada dada.
 72
  5
 11
6.618057
 21
0.513886
 31
0.000000
  0
POLYLINE
  8
LAYER-1
 66
  1
 70
  1
 62
  0
  0
VERTEX
  8
LAYER-1
 10
1.370383
 20
4.417141
 30
0.000000
  0
VERTEX
  8
LAYER-1
 10
1.418325
 20
4.417141
 30
0.000000
  0
VERTEX
  8
LAYER-1
 10
1.418325
 20
4.127751
 30
0.000000
  0
VERTEX
  8
LAYER-1
 10
1.370383
 20
4.127751
 30
0.000000
  0
SEQEND
  8
LAYER-1
  0
POLYLINE
  8
LAYER-1
 66
  1
 70
  1
 62
  0
 10
1.659310
 20
5.610353
 30
0.000000
  0
VERTEX
  8
LAYER-1
 10
1.659310
 20
5.610353
 30
0.000000
  0
VERTEX
  8
LAYER-1
 10
1.609955
 20
5.610254
 30
0.000000
  0
VERTEX
  8
LAYER-1
 10
1.609955
 20
7.635863
 30
0.000000
  0
VERTEX
  8
LAYER-1
 10
2.651758
 20
7.635863
 30
0.000000
  0
VERTEX
  8
LAYER-1
 10
2.651758
 20
4.366632
 30
0.000000
  0
VERTEX
  8
LAYER-1
 10
1.418908
 20
4.366632
 30
0.000000
  0
VERTEX
  8
LAYER-1
 10
1.418325
 20
4.417141
 30
0.000000
  0
VERTEX
  8
LAYER-1
 10
2.604685
 20
4.416766
 30
0.000000
  0
VERTEX
  8
LAYER-1
 10
2.604685
 20
7.586925
 30
0.000000
  0
VERTEX
  8
LAYER-1
 10
1.659310
 20
7.586925
 30
0.000000
  0
SEQEND
  8
LAYER-1
  0
POLYLINE
  8
LAYER-1
 66
  1
 70
  1
 62
  0
 10
1.417102
 20
5.610254
 30
0.000000
  0
VERTEX
  8
LAYER-1
 10
1.417102
 20
5.610254
 30
0.000000
  0
VERTEX
  8
LAYER-1
 10
1.369818
 20
5.610353
 30
0.000000
  0
VERTEX
  8
LAYER-1
 10
1.370031
 20
7.876205
 30
0.000000
  0
VERTEX
  8
LAYER-1
 10
2.893965
 20
7.876205
 30
0.000000
  0
VERTEX
  8
LAYER-1
 10
2.893965
 20
4.127751
 30
0.000000
  0
VERTEX
  8
LAYER-1
 10
1.418325
 20
4.127751
 30
0.000000
  0
VERTEX
  8
LAYER-1
 10
1.418908
 20
4.175308
 30
0.000000
  0
VERTEX
  8
LAYER-1
 10
2.844610
 20
4.175308
 30
0.000000
  0
VERTEX
  8
LAYER-1
 10
2.844610
 20
7.828717
 30
0.000000
  0
VERTEX
  8
LAYER-1
 10
1.417102
 20
7.828717
 30
0.000000
  0
SEQEND
  8
LAYER-1
  0
POLYLINE
  8
LAYER-1
 66
  1
 70
  1
 62
  0
 10
5.119332
 20
5.196103
 30
0.000000
  0
VERTEX
  8
LAYER-1
 10
5.119332
 20
5.196103
 30
0.000000
  0
VERTEX
  8
LAYER-1
 10
5.119332
 20
7.301956
 30
0.000000
  0
VERTEX
  8
LAYER-1
 10
5.978341
 20
7.301956
 30
0.000000
  0
VERTEX
  8
LAYER-1
 10
5.978341
 20
5.196022
 30
0.000000
  0
VERTEX
  8
LAYER-1
 10
5.930887
 20
5.196004
 30
0.000000
  0
VERTEX
  8
LAYER-1
 10
5.931268
 20
7.253018
 30
0.000000
  0
VERTEX
  8
LAYER-1
 10
5.168687
 20
7.253018
 30
0.000000
  0
VERTEX
  8
LAYER-1
 10
5.168877
 20
5.196103
 30
0.000000
  0
SEQEND
  8
LAYER-1
  0
POLYLINE
  8
LAYER-1
 66
  1
 70
  0
 62
  0
 10
5.932209
 20
7.584429
 30
0.000000
  0
VERTEX
  8
LAYER-1
 10
5.932209
 20
7.584429
 30
0.000000
  0
VERTEX
  8
LAYER-1
 10
5.930649
 20
7.852379
 30
0.000000
  0
SEQEND
  8
LAYER-1
  0
POLYLINE
  8
LAYER-1
 66
  1
 70
  0
 62
  0
 10
5.167746
 20
7.579724
 30
0.000000
  0
VERTEX
  8
LAYER-1
 10
5.167746
 20
7.579724
 30
0.000000
  0
VERTEX
  8
LAYER-1
 10
5.166759
 20
7.852379
 30
0.000000
  0
SEQEND
  8
LAYER-1
  0
POLYLINE
  8
LAYER-1
  6
LTYPE06
 66
  1
 70
  0
 62
  0
  6
LTYPE06
 10
5.555981
 20
4.638555
 30
0.000000
  0
VERTEX
  8
LAYER-1
  6
LTYPE06
 10
5.555981
 20
4.638555
 30
0.000000
  0
VERTEX
  8
LAYER-1
  6
LTYPE06
 10
5.553959
 20
7.252509
 30
0.000000
  0
SEQEND
  8
LAYER-1
  0
POLYLINE
  8
LAYER-1
 66
  1
 70
  0
 62
  0
 10
5.932209
 20
7.787853
 30
0.000000
  0
VERTEX
  8
LAYER-1
 10
5.932209
 20
7.787853
 30
0.000000
  0
VERTEX
  8
LAYER-1
 10
5.167747
 20
7.787853
 30
0.000000
  0
SEQEND
  8
LAYER-1
  0
LINE
  8
LAYER-1
 62
  0
 10
5.902746
 20
7.758390
 30
0.000000
 11
5.961673
 21
7.817315
 31
0.000000
  0
LINE
  8
LAYER-1
 62
  0
 10
5.138284
 20
7.758390
 30
0.000000
 11
5.197210
 21
7.817315
 31
0.000000
  0
POLYLINE
  8
LAYER-1
 66
  1
 70
  0
 62
  0
 10
5.978341
 20
5.196022
 30
0.000000
  0
VERTEX
  8
LAYER-1
 10
5.978341
 20
5.196022
 30
0.000000
  0
VERTEX
  8
LAYER-1
 10
6.171194
 20
5.196022
 30
0.000000
  0
SEQEND
  8
LAYER-1
  0
POLYLINE
  8
LAYER-1
 66
  1
 70
  1
 62
  0
 10
6.147807
 20
5.197636
 30
0.000000
  0
VERTEX
  8
LAYER-1
 10
6.147807
 20
5.197636
 30
0.000000
  0
VERTEX
  8
LAYER-1
 10
6.141229
 20
5.204213
 30
0.000000
  0
VERTEX
  8
LAYER-1
 10
6.008201
 20
5.204213
 30
0.000000
  0
VERTEX
  8
LAYER-1
 10
6.001623
 20
5.197636
 30
0.000000
  0
VERTEX
  8
LAYER-1
 10
5.979202
 20
5.197636
 30
0.000000
  0
VERTEX
  8
LAYER-1
 10
5.979202
 20
5.293298
 30
0.000000
  0
VERTEX
  8
LAYER-1
 10
6.001623
 20
5.293298
 30
0.000000
  0
VERTEX
  8
LAYER-1
 10
6.001623
 20
5.286721
 30
0.000000
  0
VERTEX
  8
LAYER-1
 10
5.985779
 20
5.286721
 30
0.000000
  0
VERTEX
  8
LAYER-1
 10
5.985779
 20
5.204213
 30
0.000000
  0
VERTEX
  8
LAYER-1
 10
5.998633
 20
5.204213
 30
0.000000
  0
VERTEX
  8
LAYER-1
 10
6.005510
 20
5.211088
 30
0.000000
  0
VERTEX
  8
LAYER-1
 10
6.143622
 20
5.211088
 30
0.000000
  0
VERTEX
  8
LAYER-1
 10
6.150497
 20
5.204213
 30
0.000000
  0
VERTEX
  8
LAYER-1
 10
6.163950
 20
5.204213
 30
0.000000
  0
VERTEX
  8
LAYER-1
 10
6.163950
 20
5.286721
 30
0.000000
  0
VERTEX
  8
LAYER-1
 10
6.147807
 20
5.286721
 30
0.000000
  0
VERTEX
  8
LAYER-1
 10
6.147807
 20
5.293298
 30
0.000000
  0
VERTEX
  8
LAYER-1
 10
6.170526
 20
5.293298
 30
0.000000
  0
VERTEX
  8
LAYER-1
 10
6.170526
 20
5.197636
 30
0.000000
  0
SEQEND
  8
LAYER-1
  0
POLYLINE
  8
LAYER-1
 66
  1
 70
  1
 62
  0
 10
6.001824
 20
7.297085
 30
0.000000
  0
VERTEX
  8
LAYER-1
 10
6.001824
 20
7.297085
 30
0.000000
  0
VERTEX
  8
LAYER-1
 10
6.008402
 20
7.290507
 30
0.000000
  0
VERTEX
  8
LAYER-1
 10
6.141430
 20
7.290507
 30
0.000000
  0
VERTEX
  8
LAYER-1
 10
6.148008
 20
7.297084
 30
0.000000
  0
VERTEX
  8
LAYER-1
 10
6.170429
 20
7.297084
 30
0.000000
  0
VERTEX
  8
LAYER-1
 10
6.170429
 20
7.201423
 30
0.000000
  0
VERTEX
  8
LAYER-1
 10
6.148008
 20
7.201423
 30
0.000000
  0
VERTEX
  8
LAYER-1
 10
6.148008
 20
7.207999
 30
0.000000
  0
VERTEX
  8
LAYER-1
 10
6.163852
 20
7.207999
 30
0.000000
  0
VERTEX
  8
LAYER-1
 10
6.163852
 20
7.290507
 30
0.000000
  0
VERTEX
  8
LAYER-1
 10
6.150997
 20
7.290508
 30
0.000000
  0
VERTEX
  8
LAYER-1
 10
6.144122
 20
7.283632
 30
0.000000
  0
VERTEX
  8
LAYER-1
 10
6.006009
 20
7.283632
 30
0.000000
  0
VERTEX
  8
LAYER-1
 10
5.999134
 20
7.290508
 30
0.000000
  0
VERTEX
  8
LAYER-1
 10
5.985681
 20
7.290507
 30
0.000000
  0
VERTEX
  8
LAYER-1
 10
5.985681
 20
7.207999
 30
0.000000
  0
VERTEX
  8
LAYER-1
 10
6.001824
 20
7.207999
 30
0.000000
  0
VERTEX
  8
LAYER-1
 10
6.001824
 20
7.201423
 30
0.000000
  0
VERTEX
  8
LAYER-1
 10
5.979105
 20
7.201423
 30
0.000000
  0
VERTEX
  8
LAYER-1
 10
5.979105
 20
7.297085
 30
0.000000
  0
SEQEND
  8
LAYER-1
  0
POLYLINE
  8
LAYER-1
 66
  1
 70
  1
 62
  0
 10
6.001922
 20
6.292766
 30
0.000000
  0
VERTEX
  8
LAYER-1
 10
6.001922
 20
6.292766
 30
0.000000
  0
VERTEX
  8
LAYER-1
 10
6.008500
 20
6.286189
 30
0.000000
  0
VERTEX
  8
LAYER-1
 10
6.141529
 20
6.286189
 30
0.000000
  0
VERTEX
  8
LAYER-1
 10
6.148106
 20
6.292766
 30
0.000000
  0
VERTEX
  8
LAYER-1
 10
6.170528
 20
6.292766
 30
0.000000
  0
VERTEX
  8
LAYER-1
 10
6.170528
 20
6.197105
 30
0.000000
  0
VERTEX
  8
LAYER-1
 10
6.148106
 20
6.197105
 30
0.000000
  0
VERTEX
  8
LAYER-1
 10
6.148106
 20
6.203682
 30
0.000000
  0
VERTEX
  8
LAYER-1
 10
6.163950
 20
6.203682
 30
0.000000
  0
VERTEX
  8
LAYER-1
 10
6.163950
 20
6.286189
 30
0.000000
  0
VERTEX
  8
LAYER-1
 10
6.151096
 20
6.286189
 30
0.000000
  0
VERTEX
  8
LAYER-1
 10
6.144220
 20
6.279315
 30
0.000000
  0
VERTEX
  8
LAYER-1
 10
6.006107
 20
6.279315
 30
0.000000
  0
VERTEX
  8
LAYER-1
 10
5.999232
 20
6.286189
 30
0.000000
  0
VERTEX
  8
LAYER-1
 10
5.985779
 20
6.286189
 30
0.000000
  0
VERTEX
  8
LAYER-1
 10
5.985779
 20
6.203682
 30
0.000000
  0
VERTEX
  8
LAYER-1
 10
6.001922
 20
6.203682
 30
0.000000
  0
VERTEX
  8
LAYER-1
 10
6.001922
 20
6.197105
 30
0.000000
  0
VERTEX
  8
LAYER-1
 10
5.979203
 20
6.197105
 30
0.000000
  0
VERTEX
  8
LAYER-1
 10
5.979203
 20
6.292766
 30
0.000000
  0
SEQEND
  8
LAYER-1
  0
POLYLINE
  8
LAYER-1
 66
  1
 70
  1
 62
  0
 10
5.096113
 20
5.196927
 30
0.000000
  0
VERTEX
  8
LAYER-1
 10
5.096113
 20
5.196927
 30
0.000000
  0
VERTEX
  8
LAYER-1
 10
5.089535
 20
5.203504
 30
0.000000
  0
VERTEX
  8
LAYER-1
 10
4.956507
 20
5.203504
 30
0.000000
  0
VERTEX
  8
LAYER-1
 10
4.949929
 20
5.196928
 30
0.000000
  0
VERTEX
  8
LAYER-1
 10
4.927508
 20
5.196928
 30
0.000000
  0
VERTEX
  8
LAYER-1
 10
4.927508
 20
5.292589
 30
0.000000
  0
VERTEX
  8
LAYER-1
 10
4.949929
 20
5.292589
 30
0.000000
  0
VERTEX
  8
LAYER-1
 10
4.949929
 20
5.286012
 30
0.000000
  0
VERTEX
  8
LAYER-1
 10
4.934085
 20
5.286012
 30
0.000000
  0
VERTEX
  8
LAYER-1
 10
4.934085
 20
5.203504
 30
0.000000
  0
VERTEX
  8
LAYER-1
 10
4.946939
 20
5.203503
 30
0.000000
  0
VERTEX
  8
LAYER-1
 10
4.953815
 20
5.210379
 30
0.000000
  0
VERTEX
  8
LAYER-1
 10
5.091927
 20
5.210379
 30
0.000000
  0
VERTEX
  8
LAYER-1
 10
5.098803
 20
5.203503
 30
0.000000
  0
VERTEX
  8
LAYER-1
 10
5.112256
 20
5.203504
 30
0.000000
  0
VERTEX
  8
LAYER-1
 10
5.112256
 20
5.286012
 30
0.000000
  0
VERTEX
  8
LAYER-1
 10
5.096113
 20
5.286012
 30
0.000000
  0
VERTEX
  8
LAYER-1
 10
5.096113
 20
5.292589
 30
0.000000
  0
VERTEX
  8
LAYER-1
 10
5.118832
 20
5.292589
 30
0.000000
  0
VERTEX
  8
LAYER-1
 10
5.118832
 20
5.196927
 30
0.000000
  0
SEQEND
  8
LAYER-1
  0
POLYLINE
  8
LAYER-1
 66
  1
 70
  1
 62
  0
 10
4.950130
 20
7.302256
 30
0.000000
  0
VERTEX
  8
LAYER-1
 10
4.950130
 20
7.302256
 30
0.000000
  0
VERTEX
  8
LAYER-1
 10
4.956707
 20
7.295679
 30
0.000000
  0
VERTEX
  8
LAYER-1
 10
5.089736
 20
7.295679
 30
0.000000
  0
VERTEX
  8
LAYER-1
 10
5.096313
 20
7.302256
 30
0.000000
  0
VERTEX
  8
LAYER-1
 10
5.118735
 20
7.302256
 30
0.000000
  0
VERTEX
  8
LAYER-1
 10
5.118735
 20
7.206594
 30
0.000000
  0
VERTEX
  8
LAYER-1
 10
5.096313
 20
7.206594
 30
0.000000
  0
VERTEX
  8
LAYER-1
 10
5.096313
 20
7.213171
 30
0.000000
  0
VERTEX
  8
LAYER-1
 10
5.112157
 20
7.213171
 30
0.000000
  0
VERTEX
  8
LAYER-1
 10
5.112157
 20
7.295679
 30
0.000000
  0
VERTEX
  8
LAYER-1
 10
5.099303
 20
7.295680
 30
0.000000
  0
VERTEX
  8
LAYER-1
 10
5.092428
 20
7.288804
 30
0.000000
  0
VERTEX
  8
LAYER-1
 10
4.954315
 20
7.288804
 30
0.000000
  0
VERTEX
  8
LAYER-1
 10
4.947439
 20
7.295680
 30
0.000000
  0
VERTEX
  8
LAYER-1
 10
4.933987
 20
7.295679
 30
0.000000
  0
VERTEX
  8
LAYER-1
 10
4.933987
 20
7.213171
 30
0.000000
  0
VERTEX
  8
LAYER-1
 10
4.950130
 20
7.213171
 30
0.000000
  0
VERTEX
  8
LAYER-1
 10
4.950130
 20
7.206594
 30
0.000000
  0
VERTEX
  8
LAYER-1
 10
4.927410
 20
7.206594
 30
0.000000
  0
VERTEX
  8
LAYER-1
 10
4.927410
 20
7.302256
 30
0.000000
  0
SEQEND
  8
LAYER-1
  0
POLYLINE
  8
LAYER-1
 66
  1
 70
  1
 62
  0
 10
4.950228
 20
6.292510
 30
0.000000
  0
VERTEX
  8
LAYER-1
 10
4.950228
 20
6.292510
 30
0.000000
  0
VERTEX
  8
LAYER-1
 10
4.956805
 20
6.285931
 30
0.000000
  0
VERTEX
  8
LAYER-1
 10
5.089834
 20
6.285931
 30
0.000000
  0
VERTEX
  8
LAYER-1
 10
5.096411
 20
6.292509
 30
0.000000
  0
VERTEX
  8
LAYER-1
 10
5.118832
 20
6.292509
 30
0.000000
  0
VERTEX
  8
LAYER-1
 10
5.118832
 20
6.196847
 30
0.000000
  0
VERTEX
  8
LAYER-1
 10
5.096411
 20
6.196847
 30
0.000000
  0
VERTEX
  8
LAYER-1
 10
5.096411
 20
6.203424
 30
0.000000
  0
VERTEX
  8
LAYER-1
 10
5.112256
 20
6.203424
 30
0.000000
  0
VERTEX
  8
LAYER-1
 10
5.112256
 20
6.285931
 30
0.000000
  0
VERTEX
  8
LAYER-1
 10
5.099401
 20
6.285932
 30
0.000000
  0
VERTEX
  8
LAYER-1
 10
5.092525
 20
6.279057
 30
0.000000
  0
VERTEX
  8
LAYER-1
 10
4.954413
 20
6.279057
 30
0.000000
  0
VERTEX
  8
LAYER-1
 10
4.947538
 20
6.285932
 30
0.000000
  0
VERTEX
  8
LAYER-1
 10
4.934085
 20
6.285931
 30
0.000000
  0
VERTEX
  8
LAYER-1
 10
4.934085
 20
6.203424
 30
0.000000
  0
VERTEX
  8
LAYER-1
 10
4.950228
 20
6.203424
 30
0.000000
  0
VERTEX
  8
LAYER-1
 10
4.950228
 20
6.196847
 30
0.000000
  0
VERTEX
  8
LAYER-1
 10
4.927508
 20
6.196847
 30
0.000000
  0
VERTEX
  8
LAYER-1
 10
4.927508
 20
6.292510
 30
0.000000
  0
SEQEND
  8
LAYER-1
  0
POLYLINE
  8
LAYER-1
 66
  1
 70
  1
 62
  0
 10
4.927576
 20
7.325749
 30
0.000000
  0
VERTEX
  8
LAYER-1
 10
4.927576
 20
7.325749
 30
0.000000
  0
VERTEX
  8
LAYER-1
 10
4.934154
 20
7.332326
 30
0.000000
  0
VERTEX
  8
LAYER-1
 10
4.934154
 20
7.465355
 30
0.000000
  0
VERTEX
  8
LAYER-1
 10
4.927577
 20
7.471932
 30
0.000000
  0
VERTEX
  8
LAYER-1
 10
4.927577
 20
7.494353
 30
0.000000
  0
VERTEX
  8
LAYER-1
 10
5.023238
 20
7.494353
 30
0.000000
  0
VERTEX
  8
LAYER-1
 10
5.023238
 20
7.471932
 30
0.000000
  0
VERTEX
  8
LAYER-1
 10
5.016662
 20
7.471932
 30
0.000000
  0
VERTEX
  8
LAYER-1
 10
5.016662
 20
7.487776
 30
0.000000
  0
VERTEX
  8
LAYER-1
 10
4.934154
 20
7.487776
 30
0.000000
  0
VERTEX
  8
LAYER-1
 10
4.934153
 20
7.474922
 30
0.000000
  0
VERTEX
  8
LAYER-1
 10
4.941029
 20
7.468046
 30
0.000000
  0
VERTEX
  8
LAYER-1
 10
4.941029
 20
7.329934
 30
0.000000
  0
VERTEX
  8
LAYER-1
 10
4.934153
 20
7.323058
 30
0.000000
  0
VERTEX
  8
LAYER-1
 10
4.934154
 20
7.309606
 30
0.000000
  0
VERTEX
  8
LAYER-1
 10
5.016662
 20
7.309606
 30
0.000000
  0
VERTEX
  8
LAYER-1
 10
5.016662
 20
7.325749
 30
0.000000
  0
VERTEX
  8
LAYER-1
 10
5.023238
 20
7.325749
 30
0.000000
  0
VERTEX
  8
LAYER-1
 10
5.023238
 20
7.303029
 30
0.000000
  0
VERTEX
  8
LAYER-1
 10
4.927576
 20
7.303029
 30
0.000000
  0
SEQEND
  8
LAYER-1
  0
POLYLINE
  8
LAYER-1
 66
  1
 70
  1
 62
  0
 10
6.170429
 20
7.471151
 30
0.000000
  0
VERTEX
  8
LAYER-1
 10
6.170429
 20
7.471151
 30
0.000000
  0
VERTEX
  8
LAYER-1
 10
6.163852
 20
7.464572
 30
0.000000
  0
VERTEX
  8
LAYER-1
 10
6.163852
 20
7.331545
 30
0.000000
  0
VERTEX
  8
LAYER-1
 10
6.170428
 20
7.324966
 30
0.000000
  0
VERTEX
  8
LAYER-1
 10
6.170428
 20
7.302546
 30
0.000000
  0
VERTEX
  8
LAYER-1
 10
6.074767
 20
7.302546
 30
0.000000
  0
VERTEX
  8
LAYER-1
 10
6.074767
 20
7.324966
 30
0.000000
  0
VERTEX
  8
LAYER-1
 10
6.081344
 20
7.324966
 30
0.000000
  0
VERTEX
  8
LAYER-1
 10
6.081344
 20
7.309123
 30
0.000000
  0
VERTEX
  8
LAYER-1
 10
6.163852
 20
7.309123
 30
0.000000
  0
VERTEX
  8
LAYER-1
 10
6.163853
 20
7.321977
 30
0.000000
  0
VERTEX
  8
LAYER-1
 10
6.156976
 20
7.328852
 30
0.000000
  0
VERTEX
  8
LAYER-1
 10
6.156976
 20
7.466965
 30
0.000000
  0
VERTEX
  8
LAYER-1
 10
6.163853
 20
7.473841
 30
0.000000
  0
VERTEX
  8
LAYER-1
 10
6.163852
 20
7.487294
 30
0.000000
  0
VERTEX
  8
LAYER-1
 10
6.081344
 20
7.487294
 30
0.000000
  0
VERTEX
  8
LAYER-1
 10
6.081344
 20
7.471151
 30
0.000000
  0
VERTEX
  8
LAYER-1
 10
6.074767
 20
7.471151
 30
0.000000
  0
VERTEX
  8
LAYER-1
 10
6.074767
 20
7.493869
 30
0.000000
  0
VERTEX
  8
LAYER-1
 10
6.170429
 20
7.493869
 30
0.000000
  0
SEQEND
  8
LAYER-1
  0
POLYLINE
  8
LAYER-1
 66
  1
 70
  1
 62
  0
  0
VERTEX
  8
LAYER-1
 10
4.879488
 20
5.148161
 30
0.000000
  0
VERTEX
  8
LAYER-1
 10
4.879488
 20
5.196103
 30
0.000000
  0
VERTEX
  8
LAYER-1
 10
5.168877
 20
5.196103
 30
0.000000
  0
VERTEX
  8
LAYER-1
 10
5.168877
 20
5.148161
 30
0.000000
  0
SEQEND
  8
LAYER-1
  0
POLYLINE
  8
LAYER-1
 66
  1
 70
  1
 62
  0
  0
VERTEX
  8
LAYER-1
 10
5.930887
 20
5.148062
 30
0.000000
  0
VERTEX
  8
LAYER-1
 10
5.930887
 20
5.196004
 30
0.000000
  0
VERTEX
  8
LAYER-1
 10
6.220277
 20
5.196004
 30
0.000000
  0
VERTEX
  8
LAYER-1
 10
6.220277
 20
5.148062
 30
0.000000
  0
SEQEND
  8
LAYER-1
  0
POLYLINE
  8
LAYER-1
  6
LTYPE01
 66
  1
 70
  0
 62
  0
  6
LTYPE01
 10
5.870262
 20
6.353394
 30
0.000000
  0
VERTEX
  8
LAYER-1
  6
LTYPE01
 10
5.870262
 20
6.353394
 30
0.000000
  0
VERTEX
  8
LAYER-1
  6
LTYPE01
 10
5.225071
 20
6.416678
 30
0.000000
  0
SEQEND
  8
LAYER-1
  0
POLYLINE
  8
LAYER-1
  6
LTYPE01
 66
  1
 70
  0
 62
  0
  6
LTYPE01
 10
5.225071
 20
6.416678
 30
0.000000
  0
VERTEX
  8
LAYER-1
  6
LTYPE01
 10
5.225071
 20
6.416678
 30
0.000000
  0
VERTEX
  8
LAYER-1
  6
LTYPE01
 10
5.870262
 20
6.479960
 30
0.000000
  0
SEQEND
  8
LAYER-1
  0
POLYLINE
  8
LAYER-1
  6
LTYPE01
 66
  1
 70
  0
 62
  0
  6
LTYPE01
 10
5.870262
 20
6.479960
 30
0.000000
  0
VERTEX
  8
LAYER-1
  6
LTYPE01
 10
5.870262
 20
6.479960
 30
0.000000
  0
VERTEX
  8
LAYER-1
  6
LTYPE01
 10
5.225068
 20
6.543243
 30
0.000000
  0
SEQEND
  8
LAYER-1
  0
POLYLINE
  8
LAYER-1
  6
LTYPE01
 66
  1
 70
  0
 62
  0
  6
LTYPE01
 10
5.225068
 20
6.543243
 30
0.000000
  0
VERTEX
  8
LAYER-1
  6
LTYPE01
 10
5.225068
 20
6.543243
 30
0.000000
  0
VERTEX
  8
LAYER-1
  6
LTYPE01
 10
5.870260
 20
6.606527
 30
0.000000
  0
SEQEND
  8
LAYER-1
  0
POLYLINE
  8
LAYER-1
  6
LTYPE01
 66
  1
 70
  0
 62
  0
  6
LTYPE01
 10
5.870260
 20
6.606527
 30
0.000000
  0
VERTEX
  8
LAYER-1
  6
LTYPE01
 10
5.870260
 20
6.606527
 30
0.000000
  0
VERTEX
  8
LAYER-1
  6
LTYPE01
 10
5.225068
 20
6.669811
 30
0.000000
  0
SEQEND
  8
LAYER-1
  0
POLYLINE
  8
LAYER-1
  6
LTYPE01
 66
  1
 70
  0
 62
  0
  6
LTYPE01
 10
5.225068
 20
6.669811
 30
0.000000
  0
VERTEX
  8
LAYER-1
  6
LTYPE01
 10
5.225068
 20
6.669811
 30
0.000000
  0
VERTEX
  8
LAYER-1
  6
LTYPE01
 10
5.870260
 20
6.733095
 30
0.000000
  0
SEQEND
  8
LAYER-1
  0
POLYLINE
  8
LAYER-1
  6
LTYPE01
 66
  1
 70
  0
 62
  0
  6
LTYPE01
 10
5.870260
 20
6.733095
 30
0.000000
  0
VERTEX
  8
LAYER-1
  6
LTYPE01
 10
5.870260
 20
6.733095
 30
0.000000
  0
VERTEX
  8
LAYER-1
  6
LTYPE01
 10
5.225068
 20
6.796378
 30
0.000000
  0
SEQEND
  8
LAYER-1
  0
POLYLINE
  8
LAYER-1
  6
LTYPE01
 66
  1
 70
  0
 62
  0
  6
LTYPE01
 10
5.225068
 20
6.796378
 30
0.000000
  0
VERTEX
  8
LAYER-1
  6
LTYPE01
 10
5.225068
 20
6.796378
 30
0.000000
  0
VERTEX
  8
LAYER-1
  6
LTYPE01
 10
5.870260
 20
6.859662
 30
0.000000
  0
SEQEND
  8
LAYER-1
  0
POLYLINE
  8
LAYER-1
  6
LTYPE01
 66
  1
 70
  0
 62
  0
  6
LTYPE01
 10
5.870260
 20
6.859662
 30
0.000000
  0
VERTEX
  8
LAYER-1
  6
LTYPE01
 10
5.870260
 20
6.859662
 30
0.000000
  0
VERTEX
  8
LAYER-1
  6
LTYPE01
 10
5.225068
 20
6.922945
 30
0.000000
  0
SEQEND
  8
LAYER-1
  0
POLYLINE
  8
LAYER-1
  6
LTYPE01
 66
  1
 70
  0
 62
  0
  6
LTYPE01
 10
5.225068
 20
6.922945
 30
0.000000
  0
VERTEX
  8
LAYER-1
  6
LTYPE01
 10
5.225068
 20
6.922945
 30
0.000000
  0
VERTEX
  8
LAYER-1
  6
LTYPE01
 10
5.870260
 20
6.986228
 30
0.000000
  0
SEQEND
  8
LAYER-1
  0
POLYLINE
  8
LAYER-1
  6
LTYPE01
 66
  1
 70
  0
 62
  0
  6
LTYPE01
 10
5.870260
 20
6.986228
 30
0.000000
  0
VERTEX
  8
LAYER-1
  6
LTYPE01
 10
5.870260
 20
6.986228
 30
0.000000
  0
VERTEX
  8
LAYER-1
  6
LTYPE01
 10
5.225062
 20
7.050174
 30
0.000000
  0
SEQEND
  8
LAYER-1
  0
POLYLINE
  8
LAYER-1
  6
LTYPE01
 66
  1
 70
  0
 62
  0
  6
LTYPE01
 10
5.225488
 20
7.050870
 30
0.000000
  0
VERTEX
  8
LAYER-1
  6
LTYPE01
 10
5.225488
 20
7.050870
 30
0.000000
  0
VERTEX
  8
LAYER-1
  6
LTYPE01
 10
5.549018
 20
7.083655
 30
0.000000
  0
SEQEND
  8
LAYER-1
  0
POLYLINE
  8
LAYER-1
  6
LTYPE01
 66
  1
 70
  0
 62
  0
  6
LTYPE01
 10
5.549018
 20
6.320819
 30
0.000000
  0
VERTEX
  8
LAYER-1
  6
LTYPE01
 10
5.549018
 20
6.320819
 30
0.000000
  0
VERTEX
  8
LAYER-1
  6
LTYPE01
 10
5.871612
 20
6.352460
 30
0.000000
  0
SEQEND
  8
LAYER-1
  0
POLYLINE
  8
LAYER-1
 66
  1
 70
  0
 62
  0
 10
5.503771
 20
7.110405
 30
0.000000
  0
VERTEX
  8
LAYER-1
 10
5.503771
 20
7.110405
 30
0.000000
  0
VERTEX
  8
LAYER-1
 10
5.503771
 20
7.226126
 30
0.000000
  0
SEQEND
  8
LAYER-1
  0
POLYLINE
  8
LAYER-1
 66
  1
 70
  0
 62
  0
 10
5.526902
 20
7.249257
 30
0.000000
  0
VERTEX
  8
LAYER-1
 10
5.526902
 20
7.249257
 30
0.000000
  0
VERTEX
  8
LAYER-1
 10
5.573164
 20
7.249257
 30
0.000000
  0
SEQEND
  8
LAYER-1
  0
POLYLINE
  8
LAYER-1
 66
  1
 70
  0
 62
  0
 10
5.596294
 20
7.226126
 30
0.000000
  0
VERTEX
  8
LAYER-1
 10
5.596294
 20
7.226126
 30
0.000000
  0
VERTEX
  8
LAYER-1
 10
5.596294
 20
7.110405
 30
0.000000
  0
SEQEND
  8
LAYER-1
  0
POLYLINE
  8
LAYER-1
 66
  1
 70
  0
 62
  0
 10
5.573164
 20
7.087275
 30
0.000000
  0
VERTEX
  8
LAYER-1
 10
5.573164
 20
7.087275
 30
0.000000
  0
VERTEX
  8
LAYER-1
 10
5.526902
 20
7.087275
 30
0.000000
  0
SEQEND
  8
LAYER-1
  0
ARC
  8
LAYER-1
 62
  0
 10
5.526902
 20
7.110405
 30
0.000000
 40
0.023130
 50
180.000000
 51
270.000000
  0
ARC
  8
LAYER-1
 62
  0
 10
5.573164
 20
7.110405
 30
0.000000
 40
0.023130
 50
270.000000
 51
0.000000
  0
ARC
  8
LAYER-1
 62
  0
 10
5.573164
 20
7.226126
 30
0.000000
 40
0.023130
 50
0.000000
 51
90.000000
  0
ARC
  8
LAYER-1
 62
  0
 10
5.526902
 20
7.226126
 30
0.000000
 40
0.023130
 50
90.000000
 51
180.000000
  0
POLYLINE
  8
LAYER-1
 66
  1
 70
  0
 62
  0
 10
5.505408
 20
6.180183
 30
0.000000
  0
VERTEX
  8
LAYER-1
 10
5.505408
 20
6.180183
 30
0.000000
  0
VERTEX
  8
LAYER-1
 10
5.505408
 20
6.295904
 30
0.000000
  0
SEQEND
  8
LAYER-1
  0
POLYLINE
  8
LAYER-1
 66
  1
 70
  0
 62
  0
 10
5.528538
 20
6.319035
 30
0.000000
  0
VERTEX
  8
LAYER-1
 10
5.528538
 20
6.319035
 30
0.000000
  0
VERTEX
  8
LAYER-1
 10
5.574801
 20
6.319035
 30
0.000000
  0
SEQEND
  8
LAYER-1
  0
POLYLINE
  8
LAYER-1
 66
  1
 70
  0
 62
  0
 10
5.597931
 20
6.295904
 30
0.000000
  0
VERTEX
  8
LAYER-1
 10
5.597931
 20
6.295904
 30
0.000000
  0
VERTEX
  8
LAYER-1
 10
5.597931
 20
6.180183
 30
0.000000
  0
SEQEND
  8
LAYER-1
  0
POLYLINE
  8
LAYER-1
 66
  1
 70
  0
 62
  0
 10
5.574801
 20
6.157053
 30
0.000000
  0
VERTEX
  8
LAYER-1
 10
5.574801
 20
6.157053
 30
0.000000
  0
VERTEX
  8
LAYER-1
 10
5.528538
 20
6.157053
 30
0.000000
  0
SEQEND
  8
LAYER-1
  0
ARC
  8
LAYER-1
 62
  0
 10
5.528538
 20
6.180183
 30
0.000000
 40
0.023130
 50
180.000000
 51
270.000000
  0
ARC
  8
LAYER-1
 62
  0
 10
5.574801
 20
6.180183
 30
0.000000
 40
0.023130
 50
270.000000
 51
0.000000
  0
ARC
  8
LAYER-1
 62
  0
 10
5.574801
 20
6.295904
 30
0.000000
 40
0.023130
 50
0.000000
 51
90.000000
  0
ARC
  8
LAYER-1
 62
  0
 10
5.528538
 20
6.295904
 30
0.000000
 40
0.023130
 50
90.000000
 51
180.000000
  0
POLYLINE
  8
LAYER-1
 66
  1
 70
  0
 62
  0
 10
5.507218
 20
5.251752
 30
0.000000
  0
VERTEX
  8
LAYER-1
 10
5.507218
 20
5.251752
 30
0.000000
  0
VERTEX
  8
LAYER-1
 10
5.507218
 20
5.367471
 30
0.000000
  0
SEQEND
  8
LAYER-1
  0
POLYLINE
  8
LAYER-1
 66
  1
 70
  0
 62
  0
 10
5.530349
 20
5.390602
 30
0.000000
  0
VERTEX
  8
LAYER-1
 10
5.530349
 20
5.390602
 30
0.000000
  0
VERTEX
  8
LAYER-1
 10
5.576610
 20
5.390602
 30
0.000000
  0
SEQEND
  8
LAYER-1
  0
POLYLINE
  8
LAYER-1
 66
  1
 70
  0
 62
  0
 10
5.599740
 20
5.367471
 30
0.000000
  0
VERTEX
  8
LAYER-1
 10
5.599740
 20
5.367471
 30
0.000000
  0
VERTEX
  8
LAYER-1
 10
5.599740
 20
5.251752
 30
0.000000
  0
SEQEND
  8
LAYER-1
  0
POLYLINE
  8
LAYER-1
 66
  1
 70
  0
 62
  0
 10
5.576610
 20
5.228621
 30
0.000000
  0
VERTEX
  8
LAYER-1
 10
5.576610
 20
5.228621
 30
0.000000
  0
VERTEX
  8
LAYER-1
 10
5.530349
 20
5.228621
 30
0.000000
  0
SEQEND
  8
LAYER-1
  0
ARC
  8
LAYER-1
 62
  0
 10
5.530349
 20
5.251752
 30
0.000000
 40
0.023130
 50
180.000000
 51
270.000000
  0
ARC
  8
LAYER-1
 62
  0
 10
5.576610
 20
5.251752
 30
0.000000
 40
0.023130
 50
270.000000
 51
0.000000
  0
ARC
  8
LAYER-1
 62
  0
 10
5.576610
 20
5.367471
 30
0.000000
 40
0.023130
 50
0.000000
 51
90.000000
  0
ARC
  8
LAYER-1
 62
  0
 10
5.530349
 20
5.367471
 30
0.000000
 40
0.023130
 50
90.000000
 51
180.000000
  0
POLYLINE
  8
LAYER-1
  6
LTYPE01
 66
  1
 70
  0
 62
  0
  6
LTYPE01
 10
5.873877
 20
5.423154
 30
0.000000
  0
VERTEX
  8
LAYER-1
  6
LTYPE01
 10
5.873877
 20
5.423154
 30
0.000000
  0
VERTEX
  8
LAYER-1
  6
LTYPE01
 10
5.228685
 20
5.486436
 30
0.000000
  0
SEQEND
  8
LAYER-1
  0
POLYLINE
  8
LAYER-1
  6
LTYPE01
 66
  1
 70
  0
 62
  0
  6
LTYPE01
 10
5.228685
 20
5.486436
 30
0.000000
  0
VERTEX
  8
LAYER-1
  6
LTYPE01
 10
5.228685
 20
5.486436
 30
0.000000
  0
VERTEX
  8
LAYER-1
  6
LTYPE01
 10
5.873877
 20
5.549719
 30
0.000000
  0
SEQEND
  8
LAYER-1
  0
POLYLINE
  8
LAYER-1
  6
LTYPE01
 66
  1
 70
  0
 62
  0
  6
LTYPE01
 10
5.873877
 20
5.549719
 30
0.000000
  0
VERTEX
  8
LAYER-1
  6
LTYPE01
 10
5.873877
 20
5.549719
 30
0.000000
  0
VERTEX
  8
LAYER-1
  6
LTYPE01
 10
5.228683
 20
5.613002
 30
0.000000
  0
SEQEND
  8
LAYER-1
  0
POLYLINE
  8
LAYER-1
  6
LTYPE01
 66
  1
 70
  0
 62
  0
  6
LTYPE01
 10
5.228683
 20
5.613002
 30
0.000000
  0
VERTEX
  8
LAYER-1
  6
LTYPE01
 10
5.228683
 20
5.613002
 30
0.000000
  0
VERTEX
  8
LAYER-1
  6
LTYPE01
 10
5.873873
 20
5.676285
 30
0.000000
  0
SEQEND
  8
LAYER-1
  0
POLYLINE
  8
LAYER-1
  6
LTYPE01
 66
  1
 70
  0
 62
  0
  6
LTYPE01
 10
5.873873
 20
5.676285
 30
0.000000
  0
VERTEX
  8
LAYER-1
  6
LTYPE01
 10
5.873873
 20
5.676285
 30
0.000000
  0
VERTEX
  8
LAYER-1
  6
LTYPE01
 10
5.228683
 20
5.739568
 30
0.000000
  0
SEQEND
  8
LAYER-1
  0
POLYLINE
  8
LAYER-1
  6
LTYPE01
 66
  1
 70
  0
 62
  0
  6
LTYPE01
 10
5.228683
 20
5.739568
 30
0.000000
  0
VERTEX
  8
LAYER-1
  6
LTYPE01
 10
5.228683
 20
5.739568
 30
0.000000
  0
VERTEX
  8
LAYER-1
  6
LTYPE01
 10
5.873873
 20
5.802850
 30
0.000000
  0
SEQEND
  8
LAYER-1
  0
POLYLINE
  8
LAYER-1
  6
LTYPE01
 66
  1
 70
  0
 62
  0
  6
LTYPE01
 10
5.873873
 20
5.802850
 30
0.000000
  0
VERTEX
  8
LAYER-1
  6
LTYPE01
 10
5.873873
 20
5.802850
 30
0.000000
  0
VERTEX
  8
LAYER-1
  6
LTYPE01
 10
5.228683
 20
5.866133
 30
0.000000
  0
SEQEND
  8
LAYER-1
  0
POLYLINE
  8
LAYER-1
  6
LTYPE01
 66
  1
 70
  0
 62
  0
  6
LTYPE01
 10
5.228683
 20
5.866133
 30
0.000000
  0
VERTEX
  8
LAYER-1
  6
LTYPE01
 10
5.228683
 20
5.866133
 30
0.000000
  0
VERTEX
  8
LAYER-1
  6
LTYPE01
 10
5.873873
 20
5.929418
 30
0.000000
  0
SEQEND
  8
LAYER-1
  0
POLYLINE
  8
LAYER-1
  6
LTYPE01
 66
  1
 70
  0
 62
  0
  6
LTYPE01
 10
5.873873
 20
5.929418
 30
0.000000
  0
VERTEX
  8
LAYER-1
  6
LTYPE01
 10
5.873873
 20
5.929418
 30
0.000000
  0
VERTEX
  8
LAYER-1
  6
LTYPE01
 10
5.228683
 20
5.992702
 30
0.000000
  0
SEQEND
  8
LAYER-1
  0
POLYLINE
  8
LAYER-1
  6
LTYPE01
 66
  1
 70
  0
 62
  0
  6
LTYPE01
 10
5.228683
 20
5.992702
 30
0.000000
  0
VERTEX
  8
LAYER-1
  6
LTYPE01
 10
5.228683
 20
5.992702
 30
0.000000
  0
VERTEX
  8
LAYER-1
  6
LTYPE01
 10
5.873873
 20
6.055984
 30
0.000000
  0
SEQEND
  8
LAYER-1
  0
POLYLINE
  8
LAYER-1
  6
LTYPE01
 66
  1
 70
  0
 62
  0
  6
LTYPE01
 10
5.873873
 20
6.055984
 30
0.000000
  0
VERTEX
  8
LAYER-1
  6
LTYPE01
 10
5.873873
 20
6.055984
 30
0.000000
  0
VERTEX
  8
LAYER-1
  6
LTYPE01
 10
5.228676
 20
6.119930
 30
0.000000
  0
SEQEND
  8
LAYER-1
  0
POLYLINE
  8
LAYER-1
  6
LTYPE01
 66
  1
 70
  0
 62
  0
  6
LTYPE01
 10
5.229102
 20
6.120626
 30
0.000000
  0
VERTEX
  8
LAYER-1
  6
LTYPE01
 10
5.229102
 20
6.120626
 30
0.000000
  0
VERTEX
  8
LAYER-1
  6
LTYPE01
 10
5.552633
 20
6.153412
 30
0.000000
  0
SEQEND
  8
LAYER-1
  0
POLYLINE
  8
LAYER-1
  6
LTYPE01
 66
  1
 70
  0
 62
  0
  6
LTYPE01
 10
5.552633
 20
5.390577
 30
0.000000
  0
VERTEX
  8
LAYER-1
  6
LTYPE01
 10
5.552633
 20
5.390577
 30
0.000000
  0
VERTEX
  8
LAYER-1
  6
LTYPE01
 10
5.875226
 20
5.422218
 30
0.000000
  0
SEQEND
  8
LAYER-1
  0
POLYLINE
  8
LAYER-1
  6
LTYPE01
 66
  1
 70
  0
 62
  0
  6
LTYPE01
 10
5.169334
 20
5.148497
 30
0.000000
  0
VERTEX
  8
LAYER-1
  6
LTYPE01
 10
5.169334
 20
5.148497
 30
0.000000
  0
VERTEX
  8
LAYER-1
  6
LTYPE01
 10
5.171026
 20
5.075953
 30
0.000000
  0
VERTEX
  8
LAYER-1
  6
LTYPE01
 10
5.181972
 20
5.002158
 30
0.000000
  0
VERTEX
  8
LAYER-1
  6
LTYPE01
 10
5.200096
 20
4.929790
 30
0.000000
  0
VERTEX
  8
LAYER-1
  6
LTYPE01
 10
5.225226
 20
4.859549
 30
0.000000
  0
VERTEX
  8
LAYER-1
  6
LTYPE01
 10
5.257119
 20
4.792109
 30
0.000000
  0
VERTEX
  8
LAYER-1
  6
LTYPE01
 10
5.295467
 20
4.728121
 30
0.000000
  0
VERTEX
  8
LAYER-1
  6
LTYPE01
 10
5.339902
 20
4.668199
 30
0.000000
  0
VERTEX
  8
LAYER-1
  6
LTYPE01
 10
5.389996
 20
4.612921
 30
0.000000
  0
VERTEX
  8
LAYER-1
  6
LTYPE01
 10
5.445266
 20
4.562822
 30
0.000000
  0
VERTEX
  8
LAYER-1
  6
LTYPE01
 10
5.505180
 20
4.518381
 30
0.000000
  0
VERTEX
  8
LAYER-1
  6
LTYPE01
 10
5.569160
 20
4.480028
 30
0.000000
  0
VERTEX
  8
LAYER-1
  6
LTYPE01
 10
5.636592
 20
4.448131
 30
0.000000
  0
VERTEX
  8
LAYER-1
  6
LTYPE01
 10
5.706825
 20
4.422998
 30
0.000000
  0
VERTEX
  8
LAYER-1
  6
LTYPE01
 10
5.779182
 20
4.404871
 30
0.000000
  0
VERTEX
  8
LAYER-1
  6
LTYPE01
 10
5.852969
 20
4.393925
 30
0.000000
  0
VERTEX
  8
LAYER-1
  6
LTYPE01
 10
5.927472
 20
4.390264
 30
0.000000
  0
VERTEX
  8
LAYER-1
  6
LTYPE01
 10
6.001975
 20
4.393925
 30
0.000000
  0
VERTEX
  8
LAYER-1
  6
LTYPE01
 10
6.075762
 20
4.404871
 30
0.000000
  0
VERTEX
  8
LAYER-1
  6
LTYPE01
 10
6.148119
 20
4.422998
 30
0.000000
  0
VERTEX
  8
LAYER-1
  6
LTYPE01
 10
6.218352
 20
4.448131
 30
0.000000
  0
VERTEX
  8
LAYER-1
  6
LTYPE01
 10
6.285784
 20
4.480028
 30
0.000000
  0
VERTEX
  8
LAYER-1
  6
LTYPE01
 10
6.349764
 20
4.518381
 30
0.000000
  0
VERTEX
  8
LAYER-1
  6
LTYPE01
 10
6.409678
 20
4.562822
 30
0.000000
  0
VERTEX
  8
LAYER-1
  6
LTYPE01
 10
6.464948
 20
4.612921
 30
0.000000
  0
VERTEX
  8
LAYER-1
  6
LTYPE01
 10
6.467971
 20
4.612011
 30
0.000000
  0
SEQEND
  8
LAYER-1
  0
POLYLINE
  8
LAYER-1
  6
LTYPE01
 66
  1
 70
  1
 62
  0
  6
LTYPE01
 10
6.467978
 20
4.612017
 30
0.000000
  0
VERTEX
  8
LAYER-1
  6
LTYPE01
 10
6.467978
 20
4.612017
 30
0.000000
  0
VERTEX
  8
LAYER-1
  6
LTYPE01
 10
5.931020
 20
5.148976
 30
0.000000
  0
VERTEX
  8
LAYER-1
  6
LTYPE01
 10
5.864986
 20
5.082943
 30
0.000000
  0
VERTEX
  8
LAYER-1
  6
LTYPE01
 10
6.397920
 20
4.550009
 30
0.000000
  0
SEQEND
  8
LAYER-1
  0
TEXT
  8
LAYER-1
 62
  0
 10
6.562501
 20
6.152775
 30
0.000000
 40
0.197917
  1
P
 72
  5
 11
6.812501
 21
6.152775
 31
0.000000
  0
TEXT
  8
LAYER-1
 62
  0
 10
5.381946
 20
8.111109
 30
0.000000
 40
0.197917
  1
A
 72
  5
 11
5.631946
 21
8.111109
 31
0.000000
  0
TEXT
  8
LAYER-1
 62
  0
 10
4.812501
 20
7.861109
 30
0.000000
 40
0.093750
  1
ideal  10" (254mm)
 72
  5
 11
5.937501
 21
7.861109
 31
0.000000
  0
POLYLINE
  8
LAYER-1
 66
  1
 70
  0
 62
  0
 10
1.222514
 20
4.797732
 30
0.000000
  0
VERTEX
  8
LAYER-1
 10
1.222514
 20
4.797732
 30
0.000000
  0
VERTEX
  8
LAYER-1
 10
1.537421
 20
4.797732
 30
0.000000
  0
SEQEND
  8
LAYER-1
  0
POLYLINE
  8
LAYER-1
 66
  1
 70
  0
 62
  0
 10
0.656042
 20
5.562117
 30
0.000000
  0
VERTEX
  8
LAYER-1
 10
0.656042
 20
5.562117
 30
0.000000
  0
VERTEX
  8
LAYER-1
 10
0.656042
 20
4.415863
 30
0.000000
  0
SEQEND
  8
LAYER-1
  0
LINE
  8
LAYER-1
 62
  0
 10
0.685505
 20
5.532654
 30
0.000000
 11
0.626579
 21
5.591579
 31
0.000000
  0
LINE
  8
LAYER-1
 62
  0
 10
0.685505
 20
4.386400
 30
0.000000
 11
0.626579
 21
4.445325
 31
0.000000
  0
POLYLINE
  8
LAYER-1
 66
  1
 70
  0
 62
  0
 10
2.605625
 20
7.918337
 30
0.000000
  0
VERTEX
  8
LAYER-1
 10
2.605625
 20
7.918337
 30
0.000000
  0
VERTEX
  8
LAYER-1
 10
2.604261
 20
8.189185
 30
0.000000
  0
SEQEND
  8
LAYER-1
  0
POLYLINE
  8
LAYER-1
 66
  1
 70
  0
 62
  0
 10
1.658370
 20
7.913631
 30
0.000000
  0
VERTEX
  8
LAYER-1
 10
1.658370
 20
7.913631
 30
0.000000
  0
VERTEX
  8
LAYER-1
 10
1.659816
 20
8.192657
 30
0.000000
  0
SEQEND
  8
LAYER-1
  0
POLYLINE
  8
LAYER-1
  6
LTYPE06
 66
  1
 70
  0
 62
  0
  6
LTYPE06
 10
2.225185
 20
6.136561
 30
0.000000
  0
VERTEX
  8
LAYER-1
  6
LTYPE06
 10
2.225185
 20
6.136561
 30
0.000000
  0
VERTEX
  8
LAYER-1
  6
LTYPE06
 10
2.223754
 20
7.527310
 30
0.000000
  0
SEQEND
  8
LAYER-1
  0
POLYLINE
  8
LAYER-1
 66
  1
 70
  0
 62
  0
 10
2.605207
 20
8.122487
 30
0.000000
  0
VERTEX
  8
LAYER-1
 10
2.605207
 20
8.122487
 30
0.000000
  0
VERTEX
  8
LAYER-1
 10
1.658370
 20
8.122487
 30
0.000000
  0
SEQEND
  8
LAYER-1
  0
LINE
  8
LAYER-1
 62
  0
 10
2.575745
 20
8.093024
 30
0.000000
 11
2.634670
 21
8.151949
 31
0.000000
  0
LINE
  8
LAYER-1
 62
  0
 10
1.628907
 20
8.093024
 30
0.000000
 11
1.687833
 21
8.151949
 31
0.000000
  0
POLYLINE
  8
LAYER-1
 66
  1
 70
  0
 62
  0
 10
0.566066
 20
5.560712
 30
0.000000
  0
VERTEX
  8
LAYER-1
 10
0.566066
 20
5.560712
 30
0.000000
  0
VERTEX
  8
LAYER-1
 10
0.944538
 20
5.560712
 30
0.000000
  0
SEQEND
  8
LAYER-1
  0
POLYLINE
  8
LAYER-1
 66
  1
 70
  0
 62
  0
 10
1.013983
 20
7.588490
 30
0.000000
  0
VERTEX
  8
LAYER-1
 10
1.013983
 20
7.588490
 30
0.000000
  0
VERTEX
  8
LAYER-1
 10
1.260518
 20
7.589675
 30
0.000000
  0
SEQEND
  8
LAYER-1
  0
POLYLINE
  8
LAYER-1
 66
  1
 70
  0
 62
  0
 10
1.106807
 20
5.561882
 30
0.000000
  0
VERTEX
  8
LAYER-1
 10
1.106807
 20
5.561882
 30
0.000000
  0
VERTEX
  8
LAYER-1
 10
1.105619
 20
7.589675
 30
0.000000
  0
SEQEND
  8
LAYER-1
  0
LINE
  8
LAYER-1
 62
  0
 10
1.077327
 20
5.591328
 30
0.000000
 11
1.136287
 21
5.532436
 31
0.000000
  0
LINE
  8
LAYER-1
 62
  0
 10
1.076139
 20
7.619120
 30
0.000000
 11
1.135099
 21
7.560230
 31
0.000000
  0
POLYLINE
  8
LAYER-1
 66
  1
 70
  1
 62
  0
 10
2.821223
 20
5.471983
 30
0.000000
  0
VERTEX
  8
LAYER-1
 10
2.821223
 20
5.471983
 30
0.000000
  0
VERTEX
  8
LAYER-1
 10
2.814646
 20
5.478560
 30
0.000000
  0
VERTEX
  8
LAYER-1
 10
2.681618
 20
5.478560
 30
0.000000
  0
VERTEX
  8
LAYER-1
 10
2.675039
 20
5.471983
 30
0.000000
  0
VERTEX
  8
LAYER-1
 10
2.652619
 20
5.471983
 30
0.000000
  0
VERTEX
  8
LAYER-1
 10
2.652619
 20
5.567645
 30
0.000000
  0
VERTEX
  8
LAYER-1
 10
2.675039
 20
5.567645
 30
0.000000
  0
VERTEX
  8
LAYER-1
 10
2.675039
 20
5.561068
 30
0.000000
  0
VERTEX
  8
LAYER-1
 10
2.659196
 20
5.561068
 30
0.000000
  0
VERTEX
  8
LAYER-1
 10
2.659196
 20
5.478560
 30
0.000000
  0
VERTEX
  8
LAYER-1
 10
2.672050
 20
5.478559
 30
0.000000
  0
VERTEX
  8
LAYER-1
 10
2.678926
 20
5.485435
 30
0.000000
  0
VERTEX
  8
LAYER-1
 10
2.817038
 20
5.485435
 30
0.000000
  0
VERTEX
  8
LAYER-1
 10
2.823914
 20
5.478559
 30
0.000000
  0
VERTEX
  8
LAYER-1
 10
2.837366
 20
5.478560
 30
0.000000
  0
VERTEX
  8
LAYER-1
 10
2.837366
 20
5.561068
 30
0.000000
  0
VERTEX
  8
LAYER-1
 10
2.821223
 20
5.561068
 30
0.000000
  0
VERTEX
  8
LAYER-1
 10
2.821223
 20
5.567645
 30
0.000000
  0
VERTEX
  8
LAYER-1
 10
2.843943
 20
5.567645
 30
0.000000
  0
VERTEX
  8
LAYER-1
 10
2.843943
 20
5.471983
 30
0.000000
  0
SEQEND
  8
LAYER-1
  0
POLYLINE
  8
LAYER-1
 66
  1
 70
  1
 62
  0
 10
2.675240
 20
7.635516
 30
0.000000
  0
VERTEX
  8
LAYER-1
 10
2.675240
 20
7.635516
 30
0.000000
  0
VERTEX
  8
LAYER-1
 10
2.681819
 20
7.628938
 30
0.000000
  0
VERTEX
  8
LAYER-1
 10
2.814847
 20
7.628938
 30
0.000000
  0
VERTEX
  8
LAYER-1
 10
2.821424
 20
7.635515
 30
0.000000
  0
VERTEX
  8
LAYER-1
 10
2.843846
 20
7.635515
 30
0.000000
  0
VERTEX
  8
LAYER-1
 10
2.843846
 20
7.539854
 30
0.000000
  0
VERTEX
  8
LAYER-1
 10
2.821424
 20
7.539854
 30
0.000000
  0
VERTEX
  8
LAYER-1
 10
2.821424
 20
7.546431
 30
0.000000
  0
VERTEX
  8
LAYER-1
 10
2.837268
 20
7.546431
 30
0.000000
  0
VERTEX
  8
LAYER-1
 10
2.837268
 20
7.628938
 30
0.000000
  0
VERTEX
  8
LAYER-1
 10
2.824414
 20
7.628938
 30
0.000000
  0
VERTEX
  8
LAYER-1
 10
2.817538
 20
7.622064
 30
0.000000
  0
VERTEX
  8
LAYER-1
 10
2.679426
 20
7.622064
 30
0.000000
  0
VERTEX
  8
LAYER-1
 10
2.672550
 20
7.628938
 30
0.000000
  0
VERTEX
  8
LAYER-1
 10
2.659097
 20
7.628938
 30
0.000000
  0
VERTEX
  8
LAYER-1
 10
2.659097
 20
7.546431
 30
0.000000
  0
VERTEX
  8
LAYER-1
 10
2.675240
 20
7.546431
 30
0.000000
  0
VERTEX
  8
LAYER-1
 10
2.675240
 20
7.539854
 30
0.000000
  0
VERTEX
  8
LAYER-1
 10
2.652521
 20
7.539854
 30
0.000000
  0
VERTEX
  8
LAYER-1
 10
2.652521
 20
7.635516
 30
0.000000
  0
SEQEND
  8
LAYER-1
  0
POLYLINE
  8
LAYER-1
 66
  1
 70
  1
 62
  0
 10
2.675791
 20
6.626675
 30
0.000000
  0
VERTEX
  8
LAYER-1
 10
2.675791
 20
6.626675
 30
0.000000
  0
VERTEX
  8
LAYER-1
 10
2.682368
 20
6.620097
 30
0.000000
  0
VERTEX
  8
LAYER-1
 10
2.815397
 20
6.620097
 30
0.000000
  0
VERTEX
  8
LAYER-1
 10
2.821975
 20
6.626674
 30
0.000000
  0
VERTEX
  8
LAYER-1
 10
2.844396
 20
6.626674
 30
0.000000
  0
VERTEX
  8
LAYER-1
 10
2.844396
 20
6.531011
 30
0.000000
  0
VERTEX
  8
LAYER-1
 10
2.821975
 20
6.531011
 30
0.000000
  0
VERTEX
  8
LAYER-1
 10
2.821975
 20
6.537587
 30
0.000000
  0
VERTEX
  8
LAYER-1
 10
2.837819
 20
6.537587
 30
0.000000
  0
VERTEX
  8
LAYER-1
 10
2.837819
 20
6.620097
 30
0.000000
  0
VERTEX
  8
LAYER-1
 10
2.824964
 20
6.620097
 30
0.000000
  0
VERTEX
  8
LAYER-1
 10
2.818089
 20
6.613222
 30
0.000000
  0
VERTEX
  8
LAYER-1
 10
2.679977
 20
6.613222
 30
0.000000
  0
VERTEX
  8
LAYER-1
 10
2.673101
 20
6.620097
 30
0.000000
  0
VERTEX
  8
LAYER-1
 10
2.659648
 20
6.620097
 30
0.000000
  0
VERTEX
  8
LAYER-1
 10
2.659648
 20
6.537587
 30
0.000000
  0
VERTEX
  8
LAYER-1
 10
2.675791
 20
6.537587
 30
0.000000
  0
VERTEX
  8
LAYER-1
 10
2.675791
 20
6.531011
 30
0.000000
  0
VERTEX
  8
LAYER-1
 10
2.653072
 20
6.531011
 30
0.000000
  0
VERTEX
  8
LAYER-1
 10
2.653072
 20
6.626675
 30
0.000000
  0
SEQEND
  8
LAYER-1
  0
POLYLINE
  8
LAYER-1
 66
  1
 70
  1
 62
  0
 10
1.587151
 20
5.611078
 30
0.000000
  0
VERTEX
  8
LAYER-1
 10
1.587151
 20
5.611078
 30
0.000000
  0
VERTEX
  8
LAYER-1
 10
1.580574
 20
5.617655
 30
0.000000
  0
VERTEX
  8
LAYER-1
 10
1.447545
 20
5.617655
 30
0.000000
  0
VERTEX
  8
LAYER-1
 10
1.440968
 20
5.611078
 30
0.000000
  0
VERTEX
  8
LAYER-1
 10
1.418547
 20
5.611078
 30
0.000000
  0
VERTEX
  8
LAYER-1
 10
1.418547
 20
5.706740
 30
0.000000
  0
VERTEX
  8
LAYER-1
 10
1.440968
 20
5.706740
 30
0.000000
  0
VERTEX
  8
LAYER-1
 10
1.440968
 20
5.700163
 30
0.000000
  0
VERTEX
  8
LAYER-1
 10
1.425124
 20
5.700163
 30
0.000000
  0
VERTEX
  8
LAYER-1
 10
1.425124
 20
5.617655
 30
0.000000
  0
VERTEX
  8
LAYER-1
 10
1.437979
 20
5.617654
 30
0.000000
  0
VERTEX
  8
LAYER-1
 10
1.444854
 20
5.624530
 30
0.000000
  0
VERTEX
  8
LAYER-1
 10
1.582966
 20
5.624530
 30
0.000000
  0
VERTEX
  8
LAYER-1
 10
1.589841
 20
5.617654
 30
0.000000
  0
VERTEX
  8
LAYER-1
 10
1.603294
 20
5.617655
 30
0.000000
  0
VERTEX
  8
LAYER-1
 10
1.603294
 20
5.700163
 30
0.000000
  0
VERTEX
  8
LAYER-1
 10
1.587151
 20
5.700163
 30
0.000000
  0
VERTEX
  8
LAYER-1
 10
1.587151
 20
5.706740
 30
0.000000
  0
VERTEX
  8
LAYER-1
 10
1.609870
 20
5.706740
 30
0.000000
  0
VERTEX
  8
LAYER-1
 10
1.609870
 20
5.611078
 30
0.000000
  0
SEQEND
  8
LAYER-1
  0
POLYLINE
  8
LAYER-1
 66
  1
 70
  1
 62
  0
 10
1.440753
 20
7.636127
 30
0.000000
  0
VERTEX
  8
LAYER-1
 10
1.440753
 20
7.636127
 30
0.000000
  0
VERTEX
  8
LAYER-1
 10
1.447331
 20
7.629550
 30
0.000000
  0
VERTEX
  8
LAYER-1
 10
1.580359
 20
7.629550
 30
0.000000
  0
VERTEX
  8
LAYER-1
 10
1.586936
 20
7.636126
 30
0.000000
  0
VERTEX
  8
LAYER-1
 10
1.609357
 20
7.636126
 30
0.000000
  0
VERTEX
  8
LAYER-1
 10
1.609357
 20
7.540465
 30
0.000000
  0
VERTEX
  8
LAYER-1
 10
1.586936
 20
7.540465
 30
0.000000
  0
VERTEX
  8
LAYER-1
 10
1.586936
 20
7.547042
 30
0.000000
  0
VERTEX
  8
LAYER-1
 10
1.602780
 20
7.547042
 30
0.000000
  0
VERTEX
  8
LAYER-1
 10
1.602780
 20
7.629550
 30
0.000000
  0
VERTEX
  8
LAYER-1
 10
1.589926
 20
7.629551
 30
0.000000
  0
VERTEX
  8
LAYER-1
 10
1.583050
 20
7.622675
 30
0.000000
  0
VERTEX
  8
LAYER-1
 10
1.444939
 20
7.622675
 30
0.000000
  0
VERTEX
  8
LAYER-1
 10
1.438063
 20
7.629551
 30
0.000000
  0
VERTEX
  8
LAYER-1
 10
1.424610
 20
7.629550
 30
0.000000
  0
VERTEX
  8
LAYER-1
 10
1.424610
 20
7.547042
 30
0.000000
  0
VERTEX
  8
LAYER-1
 10
1.440753
 20
7.547042
 30
0.000000
  0
VERTEX
  8
LAYER-1
 10
1.440753
 20
7.540465
 30
0.000000
  0
VERTEX
  8
LAYER-1
 10
1.418034
 20
7.540465
 30
0.000000
  0
VERTEX
  8
LAYER-1
 10
1.418034
 20
7.636127
 30
0.000000
  0
SEQEND
  8
LAYER-1
  0
POLYLINE
  8
LAYER-1
 66
  1
 70
  1
 62
  0
 10
1.440852
 20
6.626417
 30
0.000000
  0
VERTEX
  8
LAYER-1
 10
1.440852
 20
6.626417
 30
0.000000
  0
VERTEX
  8
LAYER-1
 10
1.447429
 20
6.619840
 30
0.000000
  0
VERTEX
  8
LAYER-1
 10
1.580457
 20
6.619840
 30
0.000000
  0
VERTEX
  8
LAYER-1
 10
1.587034
 20
6.626417
 30
0.000000
  0
VERTEX
  8
LAYER-1
 10
1.609456
 20
6.626417
 30
0.000000
  0
VERTEX
  8
LAYER-1
 10
1.609456
 20
6.530754
 30
0.000000
  0
VERTEX
  8
LAYER-1
 10
1.587034
 20
6.530754
 30
0.000000
  0
VERTEX
  8
LAYER-1
 10
1.587034
 20
6.537331
 30
0.000000
  0
VERTEX
  8
LAYER-1
 10
1.602878
 20
6.537331
 30
0.000000
  0
VERTEX
  8
LAYER-1
 10
1.602878
 20
6.619840
 30
0.000000
  0
VERTEX
  8
LAYER-1
 10
1.590024
 20
6.619841
 30
0.000000
  0
VERTEX
  8
LAYER-1
 10
1.583148
 20
6.612965
 30
0.000000
  0
VERTEX
  8
LAYER-1
 10
1.445037
 20
6.612965
 30
0.000000
  0
VERTEX
  8
LAYER-1
 10
1.438161
 20
6.619841
 30
0.000000
  0
VERTEX
  8
LAYER-1
 10
1.424709
 20
6.619840
 30
0.000000
  0
VERTEX
  8
LAYER-1
 10
1.424709
 20
6.537331
 30
0.000000
  0
VERTEX
  8
LAYER-1
 10
1.440852
 20
6.537331
 30
0.000000
  0
VERTEX
  8
LAYER-1
 10
1.440852
 20
6.530754
 30
0.000000
  0
VERTEX
  8
LAYER-1
 10
1.418132
 20
6.530754
 30
0.000000
  0
VERTEX
  8
LAYER-1
 10
1.418132
 20
6.626417
 30
0.000000
  0
SEQEND
  8
LAYER-1
  0
POLYLINE
  8
LAYER-1
 66
  1
 70
  1
 62
  0
 10
1.417330
 20
7.659619
 30
0.000000
  0
VERTEX
  8
LAYER-1
 10
1.417330
 20
7.659619
 30
0.000000
  0
VERTEX
  8
LAYER-1
 10
1.423907
 20
7.666197
 30
0.000000
  0
VERTEX
  8
LAYER-1
 10
1.423907
 20
7.799225
 30
0.000000
  0
VERTEX
  8
LAYER-1
 10
1.417331
 20
7.805803
 30
0.000000
  0
VERTEX
  8
LAYER-1
 10
1.417331
 20
7.828223
 30
0.000000
  0
VERTEX
  8
LAYER-1
 10
1.512992
 20
7.828223
 30
0.000000
  0
VERTEX
  8
LAYER-1
 10
1.512992
 20
7.805803
 30
0.000000
  0
VERTEX
  8
LAYER-1
 10
1.506415
 20
7.805803
 30
0.000000
  0
VERTEX
  8
LAYER-1
 10
1.506415
 20
7.821647
 30
0.000000
  0
VERTEX
  8
LAYER-1
 10
1.423907
 20
7.821647
 30
0.000000
  0
VERTEX
  8
LAYER-1
 10
1.423907
 20
7.808792
 30
0.000000
  0
VERTEX
  8
LAYER-1
 10
1.430782
 20
7.801916
 30
0.000000
  0
VERTEX
  8
LAYER-1
 10
1.430782
 20
7.663805
 30
0.000000
  0
VERTEX
  8
LAYER-1
 10
1.423907
 20
7.656929
 30
0.000000
  0
VERTEX
  8
LAYER-1
 10
1.423907
 20
7.643476
 30
0.000000
  0
VERTEX
  8
LAYER-1
 10
1.506415
 20
7.643476
 30
0.000000
  0
VERTEX
  8
LAYER-1
 10
1.506415
 20
7.659619
 30
0.000000
  0
VERTEX
  8
LAYER-1
 10
1.512992
 20
7.659619
 30
0.000000
  0
VERTEX
  8
LAYER-1
 10
1.512992
 20
7.636899
 30
0.000000
  0
VERTEX
  8
LAYER-1
 10
1.417330
 20
7.636899
 30
0.000000
  0
SEQEND
  8
LAYER-1
  0
POLYLINE
  8
LAYER-1
 66
  1
 70
  1
 62
  0
 10
2.843846
 20
7.805057
 30
0.000000
  0
VERTEX
  8
LAYER-1
 10
2.843846
 20
7.805057
 30
0.000000
  0
VERTEX
  8
LAYER-1
 10
2.837268
 20
7.798481
 30
0.000000
  0
VERTEX
  8
LAYER-1
 10
2.837268
 20
7.665451
 30
0.000000
  0
VERTEX
  8
LAYER-1
 10
2.843845
 20
7.658875
 30
0.000000
  0
VERTEX
  8
LAYER-1
 10
2.843845
 20
7.636453
 30
0.000000
  0
VERTEX
  8
LAYER-1
 10
2.748184
 20
7.636453
 30
0.000000
  0
VERTEX
  8
LAYER-1
 10
2.748184
 20
7.658875
 30
0.000000
  0
VERTEX
  8
LAYER-1
 10
2.754761
 20
7.658875
 30
0.000000
  0
VERTEX
  8
LAYER-1
 10
2.754761
 20
7.643030
 30
0.000000
  0
VERTEX
  8
LAYER-1
 10
2.837268
 20
7.643030
 30
0.000000
  0
VERTEX
  8
LAYER-1
 10
2.837269
 20
7.655885
 30
0.000000
  0
VERTEX
  8
LAYER-1
 10
2.830393
 20
7.662760
 30
0.000000
  0
VERTEX
  8
LAYER-1
 10
2.830393
 20
7.800873
 30
0.000000
  0
VERTEX
  8
LAYER-1
 10
2.837269
 20
7.807748
 30
0.000000
  0
VERTEX
  8
LAYER-1
 10
2.837268
 20
7.821201
 30
0.000000
  0
VERTEX
  8
LAYER-1
 10
2.754761
 20
7.821201
 30
0.000000
  0
VERTEX
  8
LAYER-1
 10
2.754761
 20
7.805057
 30
0.000000
  0
VERTEX
  8
LAYER-1
 10
2.748184
 20
7.805057
 30
0.000000
  0
VERTEX
  8
LAYER-1
 10
2.748184
 20
7.827777
 30
0.000000
  0
VERTEX
  8
LAYER-1
 10
2.843846
 20
7.827777
 30
0.000000
  0
SEQEND
  8
LAYER-1
  0
POLYLINE
  8
LAYER-1
 66
  1
 70
  0
 62
  0
 10
1.370031
 20
5.562312
 30
0.000000
  0
VERTEX
  8
LAYER-1
 10
1.370031
 20
5.562312
 30
0.000000
  0
VERTEX
  8
LAYER-1
 10
1.659310
 20
5.562312
 30
0.000000
  0
SEQEND
  8
LAYER-1
  0
TEXT
  8
LAYER-1
 62
  0
 10
2.006946
 20
8.194442
 30
0.000000
 40
0.197917
  1
A
 72
  5
 11
2.256946
 21
8.194442
 31
0.000000
  0
POLYLINE
  8
LAYER-1
  6
LTYPE01
 66
  1
 70
  0
 62
  0
  6
LTYPE01
 10
2.529236
 20
6.690019
 30
0.000000
  0
VERTEX
  8
LAYER-1
  6
LTYPE01
 10
2.529236
 20
6.690019
 30
0.000000
  0
VERTEX
  8
LAYER-1
  6
LTYPE01
 10
1.902106
 20
6.753303
 30
0.000000
  0
SEQEND
  8
LAYER-1
  0
POLYLINE
  8
LAYER-1
  6
LTYPE01
 66
  1
 70
  0
 62
  0
  6
LTYPE01
 10
1.902106
 20
6.753303
 30
0.000000
  0
VERTEX
  8
LAYER-1
  6
LTYPE01
 10
1.902106
 20
6.753303
 30
0.000000
  0
VERTEX
  8
LAYER-1
  6
LTYPE01
 10
2.529236
 20
6.816585
 30
0.000000
  0
SEQEND
  8
LAYER-1
  0
POLYLINE
  8
LAYER-1
  6
LTYPE01
 66
  1
 70
  0
 62
  0
  6
LTYPE01
 10
2.529236
 20
6.816585
 30
0.000000
  0
VERTEX
  8
LAYER-1
  6
LTYPE01
 10
2.529236
 20
6.816585
 30
0.000000
  0
VERTEX
  8
LAYER-1
  6
LTYPE01
 10
1.902102
 20
6.879868
 30
0.000000
  0
SEQEND
  8
LAYER-1
  0
POLYLINE
  8
LAYER-1
  6
LTYPE01
 66
  1
 70
  0
 62
  0
  6
LTYPE01
 10
1.902102
 20
6.879868
 30
0.000000
  0
VERTEX
  8
LAYER-1
  6
LTYPE01
 10
1.902102
 20
6.879868
 30
0.000000
  0
VERTEX
  8
LAYER-1
  6
LTYPE01
 10
2.529234
 20
6.943151
 30
0.000000
  0
SEQEND
  8
LAYER-1
  0
POLYLINE
  8
LAYER-1
  6
LTYPE01
 66
  1
 70
  0
 62
  0
  6
LTYPE01
 10
2.529234
 20
6.943151
 30
0.000000
  0
VERTEX
  8
LAYER-1
  6
LTYPE01
 10
2.529234
 20
6.943151
 30
0.000000
  0
VERTEX
  8
LAYER-1
  6
LTYPE01
 10
1.902102
 20
7.006434
 30
0.000000
  0
SEQEND
  8
LAYER-1
  0
POLYLINE
  8
LAYER-1
  6
LTYPE01
 66
  1
 70
  0
 62
  0
  6
LTYPE01
 10
1.902102
 20
7.006434
 30
0.000000
  0
VERTEX
  8
LAYER-1
  6
LTYPE01
 10
1.902102
 20
7.006434
 30
0.000000
  0
VERTEX
  8
LAYER-1
  6
LTYPE01
 10
2.529234
 20
7.069717
 30
0.000000
  0
SEQEND
  8
LAYER-1
  0
POLYLINE
  8
LAYER-1
  6
LTYPE01
 66
  1
 70
  0
 62
  0
  6
LTYPE01
 10
2.529234
 20
7.069717
 30
0.000000
  0
VERTEX
  8
LAYER-1
  6
LTYPE01
 10
2.529234
 20
7.069717
 30
0.000000
  0
VERTEX
  8
LAYER-1
  6
LTYPE01
 10
1.902102
 20
7.133000
 30
0.000000
  0
SEQEND
  8
LAYER-1
  0
POLYLINE
  8
LAYER-1
  6
LTYPE01
 66
  1
 70
  0
 62
  0
  6
LTYPE01
 10
1.902102
 20
7.133000
 30
0.000000
  0
VERTEX
  8
LAYER-1
  6
LTYPE01
 10
1.902102
 20
7.133000
 30
0.000000
  0
VERTEX
  8
LAYER-1
  6
LTYPE01
 10
2.529234
 20
7.196284
 30
0.000000
  0
SEQEND
  8
LAYER-1
  0
POLYLINE
  8
LAYER-1
  6
LTYPE01
 66
  1
 70
  0
 62
  0
  6
LTYPE01
 10
2.529234
 20
7.196284
 30
0.000000
  0
VERTEX
  8
LAYER-1
  6
LTYPE01
 10
2.529234
 20
7.196284
 30
0.000000
  0
VERTEX
  8
LAYER-1
  6
LTYPE01
 10
1.902102
 20
7.259567
 30
0.000000
  0
SEQEND
  8
LAYER-1
  0
POLYLINE
  8
LAYER-1
  6
LTYPE01
 66
  1
 70
  0
 62
  0
  6
LTYPE01
 10
1.902102
 20
7.259567
 30
0.000000
  0
VERTEX
  8
LAYER-1
  6
LTYPE01
 10
1.902102
 20
7.259567
 30
0.000000
  0
VERTEX
  8
LAYER-1
  6
LTYPE01
 10
2.529234
 20
7.322850
 30
0.000000
  0
SEQEND
  8
LAYER-1
  0
POLYLINE
  8
LAYER-1
  6
LTYPE01
 66
  1
 70
  0
 62
  0
  6
LTYPE01
 10
2.529234
 20
7.322850
 30
0.000000
  0
VERTEX
  8
LAYER-1
  6
LTYPE01
 10
2.529234
 20
7.322850
 30
0.000000
  0
VERTEX
  8
LAYER-1
  6
LTYPE01
 10
1.902097
 20
7.386796
 30
0.000000
  0
SEQEND
  8
LAYER-1
  0
POLYLINE
  8
LAYER-1
  6
LTYPE01
 66
  1
 70
  0
 62
  0
  6
LTYPE01
 10
1.902511
 20
7.387492
 30
0.000000
  0
VERTEX
  8
LAYER-1
  6
LTYPE01
 10
1.902511
 20
7.387492
 30
0.000000
  0
VERTEX
  8
LAYER-1
  6
LTYPE01
 10
2.223338
 20
7.419992
 30
0.000000
  0
SEQEND
  8
LAYER-1
  0
POLYLINE
  8
LAYER-1
  6
LTYPE01
 66
  1
 70
  0
 62
  0
  6
LTYPE01
 10
2.224243
 20
6.658062
 30
0.000000
  0
VERTEX
  8
LAYER-1
  6
LTYPE01
 10
2.224243
 20
6.658062
 30
0.000000
  0
VERTEX
  8
LAYER-1
  6
LTYPE01
 10
2.530549
 20
6.689084
 30
0.000000
  0
SEQEND
  8
LAYER-1
  0
POLYLINE
  8
LAYER-1
 66
  1
 70
  0
 62
  0
 10
2.176282
 20
7.444313
 30
0.000000
  0
VERTEX
  8
LAYER-1
 10
2.176282
 20
7.444313
 30
0.000000
  0
VERTEX
  8
LAYER-1
 10
2.176282
 20
7.560033
 30
0.000000
  0
SEQEND
  8
LAYER-1
  0
POLYLINE
  8
LAYER-1
 66
  1
 70
  0
 62
  0
 10
2.199412
 20
7.583164
 30
0.000000
  0
VERTEX
  8
LAYER-1
 10
2.199412
 20
7.583164
 30
0.000000
  0
VERTEX
  8
LAYER-1
 10
2.245674
 20
7.583164
 30
0.000000
  0
SEQEND
  8
LAYER-1
  0
POLYLINE
  8
LAYER-1
 66
  1
 70
  0
 62
  0
 10
2.268804
 20
7.560033
 30
0.000000
  0
VERTEX
  8
LAYER-1
 10
2.268804
 20
7.560033
 30
0.000000
  0
VERTEX
  8
LAYER-1
 10
2.268804
 20
7.444313
 30
0.000000
  0
SEQEND
  8
LAYER-1
  0
POLYLINE
  8
LAYER-1
 66
  1
 70
  0
 62
  0
 10
2.245674
 20
7.421182
 30
0.000000
  0
VERTEX
  8
LAYER-1
 10
2.245674
 20
7.421182
 30
0.000000
  0
VERTEX
  8
LAYER-1
 10
2.199412
 20
7.421182
 30
0.000000
  0
SEQEND
  8
LAYER-1
  0
ARC
  8
LAYER-1
 62
  0
 10
2.199412
 20
7.444313
 30
0.000000
 40
0.023130
 50
180.000000
 51
270.000000
  0
ARC
  8
LAYER-1
 62
  0
 10
2.245674
 20
7.444313
 30
0.000000
 40
0.023130
 50
270.000000
 51
0.000000
  0
ARC
  8
LAYER-1
 62
  0
 10
2.245674
 20
7.560033
 30
0.000000
 40
0.023130
 50
0.000000
 51
90.000000
  0
ARC
  8
LAYER-1
 62
  0
 10
2.199412
 20
7.560033
 30
0.000000
 40
0.023130
 50
90.000000
 51
180.000000
  0
POLYLINE
  8
LAYER-1
 66
  1
 70
  0
 62
  0
 10
2.177918
 20
6.518614
 30
0.000000
  0
VERTEX
  8
LAYER-1
 10
2.177918
 20
6.518614
 30
0.000000
  0
VERTEX
  8
LAYER-1
 10
2.177918
 20
6.634337
 30
0.000000
  0
SEQEND
  8
LAYER-1
  0
POLYLINE
  8
LAYER-1
 66
  1
 70
  0
 62
  0
 10
2.201049
 20
6.657467
 30
0.000000
  0
VERTEX
  8
LAYER-1
 10
2.201049
 20
6.657467
 30
0.000000
  0
VERTEX
  8
LAYER-1
 10
2.247310
 20
6.657467
 30
0.000000
  0
SEQEND
  8
LAYER-1
  0
POLYLINE
  8
LAYER-1
 66
  1
 70
  0
 62
  0
 10
2.270441
 20
6.634337
 30
0.000000
  0
VERTEX
  8
LAYER-1
 10
2.270441
 20
6.634337
 30
0.000000
  0
VERTEX
  8
LAYER-1
 10
2.270441
 20
6.518614
 30
0.000000
  0
SEQEND
  8
LAYER-1
  0
POLYLINE
  8
LAYER-1
 66
  1
 70
  0
 62
  0
 10
2.247310
 20
6.495484
 30
0.000000
  0
VERTEX
  8
LAYER-1
 10
2.247310
 20
6.495484
 30
0.000000
  0
VERTEX
  8
LAYER-1
 10
2.201049
 20
6.495484
 30
0.000000
  0
SEQEND
  8
LAYER-1
  0
ARC
  8
LAYER-1
 62
  0
 10
2.201049
 20
6.518614
 30
0.000000
 40
0.023130
 50
180.000000
 51
270.000000
  0
ARC
  8
LAYER-1
 62
  0
 10
2.247310
 20
6.518614
 30
0.000000
 40
0.023130
 50
270.000000
 51
0.000000
  0
ARC
  8
LAYER-1
 62
  0
 10
2.247310
 20
6.634337
 30
0.000000
 40
0.023130
 50
0.000000
 51
90.000000
  0
ARC
  8
LAYER-1
 62
  0
 10
2.201049
 20
6.634337
 30
0.000000
 40
0.023130
 50
90.000000
 51
180.000000
  0
POLYLINE
  8
LAYER-1
  6
LTYPE01
 66
  1
 70
  0
 62
  0
  6
LTYPE01
 10
2.453857
 20
5.647644
 30
0.000000
  0
VERTEX
  8
LAYER-1
  6
LTYPE01
 10
2.453857
 20
5.647644
 30
0.000000
  0
VERTEX
  8
LAYER-1
  6
LTYPE01
 10
1.875950
 20
5.880707
 30
0.000000
  0
SEQEND
  8
LAYER-1
  0
POLYLINE
  8
LAYER-1
  6
LTYPE01
 66
  1
 70
  0
 62
  0
  6
LTYPE01
 10
2.494918
 20
5.810389
 30
0.000000
  0
VERTEX
  8
LAYER-1
  6
LTYPE01
 10
2.494918
 20
5.810389
 30
0.000000
  0
VERTEX
  8
LAYER-1
  6
LTYPE01
 10
1.896283
 20
5.983376
 30
0.000000
  0
SEQEND
  8
LAYER-1
  0
POLYLINE
  8
LAYER-1
  6
LTYPE01
 66
  1
 70
  0
 62
  0
  6
LTYPE01
 10
2.519794
 20
5.976592
 30
0.000000
  0
VERTEX
  8
LAYER-1
  6
LTYPE01
 10
2.519794
 20
5.976592
 30
0.000000
  0
VERTEX
  8
LAYER-1
  6
LTYPE01
 10
1.906169
 20
6.087518
 30
0.000000
  0
SEQEND
  8
LAYER-1
  0
POLYLINE
  8
LAYER-1
  6
LTYPE01
 66
  1
 70
  0
 62
  0
  6
LTYPE01
 10
1.906325
 20
6.087895
 30
0.000000
  0
VERTEX
  8
LAYER-1
  6
LTYPE01
 10
1.906325
 20
6.087895
 30
0.000000
  0
VERTEX
  8
LAYER-1
  6
LTYPE01
 10
2.524671
 20
6.144528
 30
0.000000
  0
SEQEND
  8
LAYER-1
  0
POLYLINE
  8
LAYER-1
  6
LTYPE01
 66
  1
 70
  0
 62
  0
  6
LTYPE01
 10
1.905717
 20
6.209135
 30
0.000000
  0
VERTEX
  8
LAYER-1
  6
LTYPE01
 10
1.905717
 20
6.209135
 30
0.000000
  0
VERTEX
  8
LAYER-1
  6
LTYPE01
 10
2.525624
 20
6.272417
 30
0.000000
  0
SEQEND
  8
LAYER-1
  0
POLYLINE
  8
LAYER-1
  6
LTYPE01
 66
  1
 70
  0
 62
  0
  6
LTYPE01
 10
2.525624
 20
6.272417
 30
0.000000
  0
VERTEX
  8
LAYER-1
  6
LTYPE01
 10
2.525624
 20
6.272417
 30
0.000000
  0
VERTEX
  8
LAYER-1
  6
LTYPE01
 10
1.905711
 20
6.336363
 30
0.000000
  0
SEQEND
  8
LAYER-1
  0
POLYLINE
  8
LAYER-1
  6
LTYPE01
 66
  1
 70
  0
 62
  0
  6
LTYPE01
 10
1.906573
 20
6.464486
 30
0.000000
  0
VERTEX
  8
LAYER-1
  6
LTYPE01
 10
1.906573
 20
6.464486
 30
0.000000
  0
VERTEX
  8
LAYER-1
  6
LTYPE01
 10
2.225148
 20
6.495178
 30
0.000000
  0
SEQEND
  8
LAYER-1
  0
POLYLINE
  8
LAYER-1
  6
LTYPE01
 66
  1
 70
  0
 62
  0
  6
LTYPE01
 10
2.157495
 20
5.712492
 30
0.000000
  0
VERTEX
  8
LAYER-1
  6
LTYPE01
 10
2.157495
 20
5.712492
 30
0.000000
  0
VERTEX
  8
LAYER-1
  6
LTYPE01
 10
2.453566
 20
5.647243
 30
0.000000
  0
SEQEND
  8
LAYER-1
  0
POLYLINE
  8
LAYER-1
  6
LTYPE01
 66
  1
 70
  1
 62
  0
  6
LTYPE01
 10
0.717550
 20
4.624132
 30
0.000000
  0
VERTEX
  8
LAYER-1
  6
LTYPE01
 10
0.717550
 20
4.624132
 30
0.000000
  0
VERTEX
  8
LAYER-1
  6
LTYPE01
 10
1.369818
 20
5.561827
 30
0.000000
  0
VERTEX
  8
LAYER-1
  6
LTYPE01
 10
1.446465
 20
5.508476
 30
0.000000
  0
VERTEX
  8
LAYER-1
  6
LTYPE01
 10
0.797446
 20
4.575454
 30
0.000000
  0
SEQEND
  8
LAYER-1
  0
TEXT
  8
LAYER-1
 62
  0
 10
0.687501
 20
6.486109
 30
0.000000
 40
0.197917
  1
P
 72
  5
 11
0.937501
 21
6.486109
 31
0.000000
  0
POLYLINE
  8
LAYER-1
 66
  1
 70
  1
 62
  0
 10
1.418908
 20
4.198027
 30
0.000000
  0
VERTEX
  8
LAYER-1
 10
1.418908
 20
4.198027
 30
0.000000
  0
VERTEX
  8
LAYER-1
 10
1.425485
 20
4.204605
 30
0.000000
  0
VERTEX
  8
LAYER-1
 10
1.425485
 20
4.337633
 30
0.000000
  0
VERTEX
  8
LAYER-1
 10
1.418908
 20
4.344212
 30
0.000000
  0
VERTEX
  8
LAYER-1
 10
1.418908
 20
4.366632
 30
0.000000
  0
VERTEX
  8
LAYER-1
 10
1.514570
 20
4.366632
 30
0.000000
  0
VERTEX
  8
LAYER-1
 10
1.514570
 20
4.344212
 30
0.000000
  0
VERTEX
  8
LAYER-1
 10
1.507993
 20
4.344212
 30
0.000000
  0
VERTEX
  8
LAYER-1
 10
1.507993
 20
4.360055
 30
0.000000
  0
VERTEX
  8
LAYER-1
 10
1.425485
 20
4.360055
 30
0.000000
  0
VERTEX
  8
LAYER-1
 10
1.425484
 20
4.347200
 30
0.000000
  0
VERTEX
  8
LAYER-1
 10
1.432360
 20
4.340325
 30
0.000000
  0
VERTEX
  8
LAYER-1
 10
1.432360
 20
4.202213
 30
0.000000
  0
VERTEX
  8
LAYER-1
 10
1.425484
 20
4.195337
 30
0.000000
  0
VERTEX
  8
LAYER-1
 10
1.425485
 20
4.181885
 30
0.000000
  0
VERTEX
  8
LAYER-1
 10
1.507993
 20
4.181885
 30
0.000000
  0
VERTEX
  8
LAYER-1
 10
1.507993
 20
4.198027
 30
0.000000
  0
VERTEX
  8
LAYER-1
 10
1.514570
 20
4.198027
 30
0.000000
  0
VERTEX
  8
LAYER-1
 10
1.514570
 20
4.175308
 30
0.000000
  0
VERTEX
  8
LAYER-1
 10
1.418908
 20
4.175308
 30
0.000000
  0
SEQEND
  8
LAYER-1
  0
POLYLINE
  8
LAYER-1
 66
  1
 70
  1
 62
  0
 10
2.843843
 20
4.343685
 30
0.000000
  0
VERTEX
  8
LAYER-1
 10
2.843843
 20
4.343685
 30
0.000000
  0
VERTEX
  8
LAYER-1
 10
2.837266
 20
4.337108
 30
0.000000
  0
VERTEX
  8
LAYER-1
 10
2.837266
 20
4.204079
 30
0.000000
  0
VERTEX
  8
LAYER-1
 10
2.843843
 20
4.197501
 30
0.000000
  0
VERTEX
  8
LAYER-1
 10
2.843843
 20
4.175081
 30
0.000000
  0
VERTEX
  8
LAYER-1
 10
2.748181
 20
4.175081
 30
0.000000
  0
VERTEX
  8
LAYER-1
 10
2.748181
 20
4.197501
 30
0.000000
  0
VERTEX
  8
LAYER-1
 10
2.754759
 20
4.197501
 30
0.000000
  0
VERTEX
  8
LAYER-1
 10
2.754759
 20
4.181657
 30
0.000000
  0
VERTEX
  8
LAYER-1
 10
2.837266
 20
4.181657
 30
0.000000
  0
VERTEX
  8
LAYER-1
 10
2.837267
 20
4.194512
 30
0.000000
  0
VERTEX
  8
LAYER-1
 10
2.830392
 20
4.201388
 30
0.000000
  0
VERTEX
  8
LAYER-1
 10
2.830392
 20
4.339500
 30
0.000000
  0
VERTEX
  8
LAYER-1
 10
2.837267
 20
4.346375
 30
0.000000
  0
VERTEX
  8
LAYER-1
 10
2.837266
 20
4.359828
 30
0.000000
  0
VERTEX
  8
LAYER-1
 10
2.754759
 20
4.359828
 30
0.000000
  0
VERTEX
  8
LAYER-1
 10
2.754759
 20
4.343685
 30
0.000000
  0
VERTEX
  8
LAYER-1
 10
2.748181
 20
4.343685
 30
0.000000
  0
VERTEX
  8
LAYER-1
 10
2.748181
 20
4.366405
 30
0.000000
  0
VERTEX
  8
LAYER-1
 10
2.843843
 20
4.366405
 30
0.000000
  0
SEQEND
  8
LAYER-1
  0
POLYLINE
  8
LAYER-1
 66
  1
 70
  1
 62
  0
 10
2.821896
 20
4.367470
 30
0.000000
  0
VERTEX
  8
LAYER-1
 10
2.821896
 20
4.367470
 30
0.000000
  0
VERTEX
  8
LAYER-1
 10
2.815318
 20
4.374048
 30
0.000000
  0
VERTEX
  8
LAYER-1
 10
2.682290
 20
4.374048
 30
0.000000
  0
VERTEX
  8
LAYER-1
 10
2.675712
 20
4.367470
 30
0.000000
  0
VERTEX
  8
LAYER-1
 10
2.653291
 20
4.367470
 30
0.000000
  0
VERTEX
  8
LAYER-1
 10
2.653291
 20
4.463132
 30
0.000000
  0
VERTEX
  8
LAYER-1
 10
2.675712
 20
4.463132
 30
0.000000
  0
VERTEX
  8
LAYER-1
 10
2.675712
 20
4.456555
 30
0.000000
  0
VERTEX
  8
LAYER-1
 10
2.659868
 20
4.456555
 30
0.000000
  0
VERTEX
  8
LAYER-1
 10
2.659868
 20
4.374048
 30
0.000000
  0
VERTEX
  8
LAYER-1
 10
2.672723
 20
4.374047
 30
0.000000
  0
VERTEX
  8
LAYER-1
 10
2.679599
 20
4.380922
 30
0.000000
  0
VERTEX
  8
LAYER-1
 10
2.817710
 20
4.380922
 30
0.000000
  0
VERTEX
  8
LAYER-1
 10
2.824586
 20
4.374047
 30
0.000000
  0
VERTEX
  8
LAYER-1
 10
2.838038
 20
4.374048
 30
0.000000
  0
VERTEX
  8
LAYER-1
 10
2.838038
 20
4.456555
 30
0.000000
  0
VERTEX
  8
LAYER-1
 10
2.821896
 20
4.456555
 30
0.000000
  0
VERTEX
  8
LAYER-1
 10
2.821896
 20
4.463132
 30
0.000000
  0
VERTEX
  8
LAYER-1
 10
2.844616
 20
4.463132
 30
0.000000
  0
VERTEX
  8
LAYER-1
 10
2.844616
 20
4.367470
 30
0.000000
  0
SEQEND
  8
LAYER-1
  0
POLYLINE
  8
LAYER-1
  6
LTYPE06
 66
  1
 70
  0
 62
  0
  6
LTYPE06
 10
0.891318
 20
4.798438
 30
0.000000
  0
VERTEX
  8
LAYER-1
  6
LTYPE06
 10
0.891318
 20
4.798438
 30
0.000000
  0
VERTEX
  8
LAYER-1
  6
LTYPE06
 10
0.531166
 20
4.798482
 30
0.000000
  0
SEQEND
  8
LAYER-1
  0
TEXT
  8
LAYER-1
 62
  0
 10
0.215279
 20
4.972220
 30
0.000000
 40
0.197917
  1
B
 72
  5
 11
0.465279
 21
4.972220
 31
0.000000
  0
TEXT
  8
LAYER-1
 62
  0
 10
1.673612
 20
4.680553
 30
0.000000
 40
0.125000
  1
4" - 102mm
 72
  5
 11
2.631946
 21
4.680553
 31
0.000000
  0
TEXT
  8
LAYER-1
 62
  0
 10
1.673612
 20
4.486109
 30
0.000000
 40
0.125000
  1
m’nimo
 72
  5
 11
2.326390
 21
4.486109
 31
0.000000
  0
POLYLINE
  8
LAYER-1
 66
  1
 70
  0
 62
  0
 10
2.225167
 20
5.051145
 30
0.000000
  0
VERTEX
  8
LAYER-1
 10
2.225167
 20
5.051145
 30
0.000000
  0
VERTEX
  8
LAYER-1
 10
2.225148
 20
5.620135
 30
0.000000
  0
SEQEND
  8
LAYER-1
  0
POLYLINE
  8
LAYER-1
 66
  1
 70
  0
 62
  0
 10
2.225147
 20
5.192310
 30
0.000000
  0
VERTEX
  8
LAYER-1
 10
2.225147
 20
5.192310
 30
0.000000
  0
VERTEX
  8
LAYER-1
 10
2.605207
 20
5.193020
 30
0.000000
  0
SEQEND
  8
LAYER-1
  0
LINE
  8
LAYER-1
 62
  0
 10
2.254555
 20
5.221828
 30
0.000000
 11
2.195739
 21
5.162792
 31
0.000000
  0
LINE
  8
LAYER-1
 62
  0
 10
2.634615
 20
5.222538
 30
0.000000
 11
2.575800
 21
5.163503
 31
0.000000
  0
POLYLINE
  8
LAYER-1
 66
  1
 70
  0
 62
  0
 10
0.569538
 20
4.414878
 30
0.000000
  0
VERTEX
  8
LAYER-1
 10
0.569538
 20
4.414878
 30
0.000000
  0
VERTEX
  8
LAYER-1
 10
0.949231
 20
4.415863
 30
0.000000
  0
SEQEND
  8
LAYER-1
  0
POLYLINE
  8
LAYER-1
 66
  1
 70
  0
 62
  0
 10
1.394800
 20
4.416966
 30
0.000000
  0
VERTEX
  8
LAYER-1
 10
1.394800
 20
4.416966
 30
0.000000
  0
VERTEX
  8
LAYER-1
 10
1.394090
 20
4.797028
 30
0.000000
  0
SEQEND
  8
LAYER-1
  0
LINE
  8
LAYER-1
 62
  0
 10
1.365282
 20
4.446374
 30
0.000000
 11
1.424318
 21
4.387559
 31
0.000000
  0
LINE
  8
LAYER-1
 62
  0
 10
1.364572
 20
4.826436
 30
0.000000
 11
1.423608
 21
4.767620
 31
0.000000
  0
ARC
  8
LAYER-1
 62
  0
  6
LTYPE06
 10
0.891318
 20
6.132311
 30
0.000000
 40
1.333873
 50
270.000000
 51
0.182533
  0
POLYLINE
  8
LAYER-1
 66
  1
 70
  0
 62
  0
 10
2.063089
 20
5.600048
 30
0.000000
  0
VERTEX
  8
LAYER-1
 10
2.063089
 20
5.600048
 30
0.000000
  0
VERTEX
  8
LAYER-1
 10
2.105551
 20
5.707695
 30
0.000000
  0
SEQEND
  8
LAYER-1
  0
POLYLINE
  8
LAYER-1
 66
  1
 70
  0
 62
  0
 10
2.135556
 20
5.720725
 30
0.000000
  0
VERTEX
  8
LAYER-1
 10
2.135556
 20
5.720725
 30
0.000000
  0
VERTEX
  8
LAYER-1
 10
2.178590
 20
5.703749
 30
0.000000
  0
SEQEND
  8
LAYER-1
  0
POLYLINE
  8
LAYER-1
 66
  1
 70
  0
 62
  0
 10
2.191620
 20
5.673745
 30
0.000000
  0
VERTEX
  8
LAYER-1
 10
2.191620
 20
5.673745
 30
0.000000
  0
VERTEX
  8
LAYER-1
 10
2.149157
 20
5.566098
 30
0.000000
  0
SEQEND
  8
LAYER-1
  0
POLYLINE
  8
LAYER-1
 66
  1
 70
  0
 62
  0
 10
2.119153
 20
5.553068
 30
0.000000
  0
VERTEX
  8
LAYER-1
 10
2.119153
 20
5.553068
 30
0.000000
  0
VERTEX
  8
LAYER-1
 10
2.076118
 20
5.570044
 30
0.000000
  0
SEQEND
  8
LAYER-1
  0
ARC
  8
LAYER-1
 62
  0
 10
2.084606
 20
5.591560
 30
0.000000
 40
0.023130
 50
158.472778
 51
248.472778
  0
ARC
  8
LAYER-1
 62
  0
 10
2.127640
 20
5.574585
 30
0.000000
 40
0.023130
 50
248.472778
 51
338.472778
  0
ARC
  8
LAYER-1
 62
  0
 10
2.170103
 20
5.682233
 30
0.000000
 40
0.023130
 50
338.472778
 51
68.472778
  0
ARC
  8
LAYER-1
 62
  0
 10
2.127068
 20
5.699208
 30
0.000000
 40
0.023130
 50
68.472778
 51
158.472778
  0
ARC
  8
LAYER-1
 62
  0
  6
LTYPE01
 10
1.369818
 20
5.561827
 30
0.000000
 40
1.142248
 50
235.177231
 51
270.028290
  0
POLYLINE
  8
LAYER-1
 66
  1
 70
  0
 62
  0
 10
2.402509
 20
4.856396
 30
0.000000
  0
VERTEX
  8
LAYER-1
 10
2.402509
 20
4.856396
 30
0.000000
  0
VERTEX
  8
LAYER-1
 10
2.402509
 20
5.173335
 30
0.000000
  0
SEQEND
  8
LAYER-1
  0
POLYLINE
  8
LAYER-1
 66
  1
 70
  1
 62
  0
  0
VERTEX
  8
LAYER-1
 10
2.402509
 20
5.193020
 30
0.000000
  0
VERTEX
  8
LAYER-1
 10
2.444176
 20
5.123576
 30
0.000000
  0
VERTEX
  8
LAYER-1
 10
2.402509
 20
5.123576
 30
0.000000
  0
VERTEX
  8
LAYER-1
 10
2.360842
 20
5.123576
 30
0.000000
  0
VERTEX
  8
LAYER-1
 10
2.402509
 20
5.193020
 30
0.000000
  0
SEQEND
  8
LAYER-1
  0
POLYLINE
  8
LAYER-1
 66
  1
 70
  0
 62
  0
 10
1.627911
 20
4.613881
 30
0.000000
  0
VERTEX
  8
LAYER-1
 10
1.627911
 20
4.613881
 30
0.000000
  0
VERTEX
  8
LAYER-1
 10
1.412320
 20
4.613881
 30
0.000000
  0
SEQEND
  8
LAYER-1
  0
POLYLINE
  8
LAYER-1
 66
  1
 70
  1
 62
  0
  0
VERTEX
  8
LAYER-1
 10
1.392635
 20
4.613881
 30
0.000000
  0
VERTEX
  8
LAYER-1
 10
1.462080
 20
4.655548
 30
0.000000
  0
VERTEX
  8
LAYER-1
 10
1.462080
 20
4.613881
 30
0.000000
  0
VERTEX
  8
LAYER-1
 10
1.462080
 20
4.572215
 30
0.000000
  0
VERTEX
  8
LAYER-1
 10
1.392635
 20
4.613881
 30
0.000000
  0
SEQEND
  8
LAYER-1
  0
POLYLINE
  8
LAYER-1
 66
  1
 70
  0
 62
  0
 10
1.794413
 20
4.867255
 30
0.000000
  0
VERTEX
  8
LAYER-1
 10
1.794413
 20
4.867255
 30
0.000000
  0
VERTEX
  8
LAYER-1
 10
1.794413
 20
5.437568
 30
0.000000
  0
SEQEND
  8
LAYER-1
  0
POLYLINE
  8
LAYER-1
 66
  1
 70
  1
 62
  0
  0
VERTEX
  8
LAYER-1
 10
1.794413
 20
5.457253
 30
0.000000
  0
VERTEX
  8
LAYER-1
 10
1.836080
 20
5.387808
 30
0.000000
  0
VERTEX
  8
LAYER-1
 10
1.794413
 20
5.387808
 30
0.000000
  0
VERTEX
  8
LAYER-1
 10
1.752747
 20
5.387808
 30
0.000000
  0
VERTEX
  8
LAYER-1
 10
1.794413
 20
5.457253
 30
0.000000
  0
SEQEND
  8
LAYER-1
  0
POLYLINE
  8
LAYER-1
  6
LTYPE01
 66
  1
 70
  0
 62
  0
  6
LTYPE01
 10
1.875463
 20
5.881129
 30
0.000000
  0
VERTEX
  8
LAYER-1
  6
LTYPE01
 10
1.875463
 20
5.881129
 30
0.000000
  0
VERTEX
  8
LAYER-1
  6
LTYPE01
 10
2.495003
 20
5.809619
 30
0.000000
  0
SEQEND
  8
LAYER-1
  0
POLYLINE
  8
LAYER-1
  6
LTYPE01
 66
  1
 70
  0
 62
  0
  6
LTYPE01
 10
1.896437
 20
5.984103
 30
0.000000
  0
VERTEX
  8
LAYER-1
  6
LTYPE01
 10
1.896437
 20
5.984103
 30
0.000000
  0
VERTEX
  8
LAYER-1
  6
LTYPE01
 10
2.519519
 20
5.976409
 30
0.000000
  0
SEQEND
  8
LAYER-1
  0
POLYLINE
  8
LAYER-1
  6
LTYPE01
 66
  1
 70
  0
 62
  0
  6
LTYPE01
 10
2.525577
 20
6.144981
 30
0.000000
  0
VERTEX
  8
LAYER-1
  6
LTYPE01
 10
2.525577
 20
6.144981
 30
0.000000
  0
VERTEX
  8
LAYER-1
  6
LTYPE01
 10
1.905664
 20
6.208926
 30
0.000000
  0
SEQEND
  8
LAYER-1
  0
POLYLINE
  8
LAYER-1
  6
LTYPE01
 66
  1
 70
  0
 62
  0
  6
LTYPE01
 10
1.905717
 20
6.336522
 30
0.000000
  0
VERTEX
  8
LAYER-1
  6
LTYPE01
 10
1.905717
 20
6.336522
 30
0.000000
  0
VERTEX
  8
LAYER-1
  6
LTYPE01
 10
2.525624
 20
6.399805
 30
0.000000
  0
SEQEND
  8
LAYER-1
  0
POLYLINE
  8
LAYER-1
  6
LTYPE01
 66
  1
 70
  0
 62
  0
  6
LTYPE01
 10
2.525624
 20
6.399805
 30
0.000000
  0
VERTEX
  8
LAYER-1
  6
LTYPE01
 10
2.525624
 20
6.399805
 30
0.000000
  0
VERTEX
  8
LAYER-1
  6
LTYPE01
 10
1.905711
 20
6.463750
 30
0.000000
  0
SEQEND
  8
LAYER-1
  0
POLYLINE
  8
LAYER-1
 66
  1
 70
  0
 62
  0
 10
6.442938
 20
7.253596
 30
0.000000
  0
VERTEX
  8
LAYER-1
 10
6.442938
 20
7.253596
 30
0.000000
  0
VERTEX
  8
LAYER-1
 10
6.442938
 20
5.229867
 30
0.000000
  0
SEQEND
  8
LAYER-1
  0
LINE
  8
LAYER-1
 62
  0
 10
6.472402
 20
7.224133
 30
0.000000
 11
6.413476
 21
7.283059
 31
0.000000
  0
LINE
  8
LAYER-1
 62
  0
 10
6.472402
 20
5.200405
 30
0.000000
 11
6.413476
 21
5.259329
 31
0.000000
  0
POLYLINE
  8
LAYER-1
 66
  1
 70
  0
 62
  0
 10
6.294533
 20
7.253596
 30
0.000000
  0
VERTEX
  8
LAYER-1
 10
6.294533
 20
7.253596
 30
0.000000
  0
VERTEX
  8
LAYER-1
 10
6.505596
 20
7.253596
 30
0.000000
  0
SEQEND
  8
LAYER-1
  0
POLYLINE
  8
LAYER-1
 66
  1
 70
  0
 62
  0
 10
6.302898
 20
5.229867
 30
0.000000
  0
VERTEX
  8
LAYER-1
 10
6.302898
 20
5.229867
 30
0.000000
  0
VERTEX
  8
LAYER-1
 10
6.505596
 20
5.229867
 30
0.000000
  0
SEQEND
  8
LAYER-1
  0
POLYLINE
  8
LAYER-1
 66
  1
 70
  1
 62
  0
 10
4.926478
 20
5.196103
 30
0.000000
  0
VERTEX
  8
LAYER-1
 10
4.926478
 20
5.196103
 30
0.000000
  0
VERTEX
  8
LAYER-1
 10
4.879488
 20
5.196103
 30
0.000000
  0
VERTEX
  8
LAYER-1
 10
4.879406
 20
7.542297
 30
0.000000
  0
VERTEX
  8
LAYER-1
 10
6.220549
 20
7.542297
 30
0.000000
  0
VERTEX
  8
LAYER-1
 10
6.220277
 20
5.196004
 30
0.000000
  0
VERTEX
  8
LAYER-1
 10
6.171194
 20
5.196022
 30
0.000000
  0
VERTEX
  8
LAYER-1
 10
6.171194
 20
7.494809
 30
0.000000
  0
VERTEX
  8
LAYER-1
 10
4.926478
 20
7.494809
 30
0.000000
  0
SEQEND
  8
LAYER-1
  0
TEXT
  8
LAYER-1
 62
  0
 10
4.812501
 20
7.638886
 30
0.000000
 40
0.093750
  1
min.    8" (203mm)
 72
  5
 11
5.923612
 21
7.638886
 31
0.000000
  0
POLYLINE
  8
LAYER-1
 66
  1
 70
  1
 62
  0
  0
VERTEX
  8
LAYER-1
 10
1.369818
 20
5.610353
 30
0.000000
  0
VERTEX
  8
LAYER-1
 10
1.659310
 20
5.610353
 30
0.000000
  0
VERTEX
  8
LAYER-1
 10
1.659310
 20
5.561827
 30
0.000000
  0
VERTEX
  8
LAYER-1
 10
1.369818
 20
5.561827
 30
0.000000
  0
SEQEND
  8
LAYER-1
  0
POLYLINE
  8
LAYER-1
 66
  1
 70
  0
 62
  0
 10
1.962416
 20
5.337348
 30
0.000000
  0
VERTEX
  8
LAYER-1
 10
1.962416
 20
5.337348
 30
0.000000
  0
VERTEX
  8
LAYER-1
 10
1.659310
 20
5.562312
 30
0.000000
  0
SEQEND
  8
LAYER-1
  0
LINE
  8
LAYER-1
 62
  0
 10
1.921198
 20
5.331249
 30
0.000000
 11
2.003634
 21
5.343447
 31
0.000000
  0
LINE
  8
LAYER-1
 62
  0
 10
1.618092
 20
5.556212
 30
0.000000
 11
1.700527
 21
5.568411
 31
0.000000
  0
POLYLINE
  8
LAYER-1
 66
  1
 70
  0
 62
  0
 10
1.260518
 20
5.561802
 30
0.000000
  0
VERTEX
  8
LAYER-1
 10
1.260518
 20
5.561802
 30
0.000000
  0
VERTEX
  8
LAYER-1
 10
1.017455
 20
5.561802
 30
0.000000
  0
SEQEND
  8
LAYER-1
  0
POLYLINE
  8
LAYER-1
 66
  1
 70
  0
 62
  0
 10
4.211903
 20
3.689179
 30
0.000000
  0
VERTEX
  8
LAYER-1
 10
4.211903
 20
3.689179
 30
0.000000
  0
VERTEX
  8
LAYER-1
 10
7.336904
 20
3.689179
 30
0.000000
  0
SEQEND
  8
LAYER-1
  0
POLYLINE
  8
LAYER-1
 66
  1
 70
  0
 62
  0
 10
7.336904
 20
3.689179
 30
0.000000
  0
VERTEX
  8
LAYER-1
 10
7.336904
 20
3.689179
 30
0.000000
  0
VERTEX
  8
LAYER-1
 10
7.336904
 20
1.432231
 30
0.000000
  0
SEQEND
  8
LAYER-1
  0
POLYLINE
  8
LAYER-1
 66
  1
 70
  0
 62
  0
 10
4.211903
 20
1.432231
 30
0.000000
  0
VERTEX
  8
LAYER-1
 10
4.211903
 20
1.432231
 30
0.000000
  0
VERTEX
  8
LAYER-1
 10
4.211903
 20
3.689179
 30
0.000000
  0
SEQEND
  8
LAYER-1
  0
POLYLINE
  8
LAYER-1
 66
  1
 70
  0
 62
  0
 10
7.336904
 20
1.432231
 30
0.000000
  0
VERTEX
  8
LAYER-1
 10
7.336904
 20
1.432231
 30
0.000000
  0
VERTEX
  8
LAYER-1
 10
4.211903
 20
1.432231
 30
0.000000
  0
SEQEND
  8
LAYER-1
  0
ENDSEC
  0
EOF
