  0
SECTION
  2
HEADER
999
MacDraft 5.0\0
  9
$ACADVER
  1
AC1006
  9
$CLAYER
  8
LAYER-2
  9
$EXTMIN
 10
0.000000
 20
0.000000
  9
$EXTMAX
 10
7.417714
 20
10.274706
  9
$FASTZOOM
 70
0
  9
$FILLMODE
 70
1
  0
ENDSEC
  0
SECTION
  2
TABLES
  0
TABLE
  2
LTYPE
 70
16
  0
LTYPE
  2
CONTINUOUS
 70
64
  3
Solid Line
 72
65
 73
0
 40
0.000000
  0
LTYPE
  2
LTYPE01
 70
64
  3
CUSTOM
 72
65
 73
2
 40
0.111111
 49
0.083333
 49
-0.027778
  0
LTYPE
  2
LTYPE02
 70
64
  3
CUSTOM
 72
65
 73
2
 40
0.194444
 49
0.166667
 49
-0.027778
  0
LTYPE
  2
LTYPE03
 70
64
  3
CUSTOM
 72
65
 73
2
 40
0.375000
 49
0.333333
 49
-0.041667
  0
LTYPE
  2
LTYPE04
 70
64
  3
CUSTOM
 72
65
 73
2
 40
0.722222
 49
0.666667
 49
-0.055556
  0
LTYPE
  2
LTYPE05
 70
64
  3
CUSTOM
 72
65
 73
4
 40
0.152778
 49
0.083333
 49
-0.027778
 49
0.013889
 49
-0.027778
  0
LTYPE
  2
LTYPE06
 70
64
  3
CUSTOM
 72
65
 73
4
 40
0.236111
 49
0.166667
 49
-0.027778
 49
0.013889
 49
-0.027778
  0
LTYPE
  2
LTYPE07
 70
64
  3
CUSTOM
 72
65
 73
4
 40
0.444444
 49
0.333333
 49
-0.041667
 49
0.027778
 49
-0.041667
  0
LTYPE
  2
LTYPE08
 70
64
  3
CUSTOM
 72
65
 73
4
 40
0.805556
 49
0.666667
 49
-0.055556
 49
0.027778
 49
-0.055556
  0
LTYPE
  2
LTYPE09
 70
64
  3
CUSTOM
 72
65
 73
6
 40
0.194444
 49
0.083333
 49
-0.027778
 49
0.013889
 49
-0.027778
 49
0.013889
 49
-0.027778
  0
LTYPE
  2
LTYPE10
 70
64
  3
CUSTOM
 72
65
 73
6
 40
0.277778
 49
0.166667
 49
-0.027778
 49
0.013889
 49
-0.027778
 49
0.013889
 49
-0.027778
  0
LTYPE
  2
LTYPE11
 70
64
  3
CUSTOM
 72
65
 73
6
 40
0.500000
 49
0.333333
 49
-0.041667
 49
0.027778
 49
-0.027778
 49
0.027778
 49
-0.041667
  0
LTYPE
  2
LTYPE12
 70
64
  3
CUSTOM
 72
65
 73
6
 40
0.861111
 49
0.666667
 49
-0.055556
 49
0.027778
 49
-0.027778
 49
0.027778
 49
-0.055556
  0
LTYPE
  2
LTYPE13
 70
64
  3
CUSTOM
 72
65
 73
8
 40
0.319444
 49
0.166667
 49
-0.027778
 49
0.013889
 49
-0.027778
 49
0.013889
 49
-0.027778
 49
0.013889
 49
-0.027778
  0
LTYPE
  2
LTYPE14
 70
64
  3
CUSTOM
 72
65
 73
8
 40
0.555556
 49
0.333333
 49
-0.041667
 49
0.027778
 49
-0.027778
 49
0.027778
 49
-0.027778
 49
0.027778
 49
-0.041667
  0
LTYPE
  2
LTYPE15
 70
64
  3
CUSTOM
 72
65
 73
8
 40
0.944444
 49
0.666667
 49
-0.055556
 49
0.027778
 49
-0.041667
 49
0.027778
 49
-0.041667
 49
0.027778
 49
-0.055556
  0
ENDTAB
  0
TABLE
  2
LAYER
 70
1
  0
LAYER
  2
LAYER-2
 70
0
 62
7
  6
CONTINUOUS
  0
ENDTAB
  0
ENDSEC
  0
SECTION
  2
BLOCKS
  0
ENDSEC
  0
SECTION
  2
ENTITIES
  0
ARC
  8
LAYER-2
 62
  0
 10
3.263889
 20
14.380025
 30
0.000000
 40
0.107387
 50
326.825317
 51
24.856018
  0
POLYLINE
  8
LAYER-2
 66
  1
 70
  0
 62
  0
 10
3.529655
 20
14.425154
 30
0.000000
  0
VERTEX
  8
LAYER-2
 10
3.529655
 20
14.425154
 30
0.000000
  0
VERTEX
  8
LAYER-2
 10
3.361329
 20
14.425164
 30
0.000000
  0
SEQEND
  8
LAYER-2
  0
ARC
  8
LAYER-2
 62
  0
 10
3.529655
 20
14.460154
 30
0.000000
 40
0.035000
 50
270.000000
 51
0.000000
  0
POLYLINE
  8
LAYER-2
 66
  1
 70
  0
 62
  0
 10
3.564656
 20
15.951994
 30
0.000000
  0
VERTEX
  8
LAYER-2
 10
3.564656
 20
15.951994
 30
0.000000
  0
VERTEX
  8
LAYER-2
 10
3.564656
 20
14.460154
 30
0.000000
  0
SEQEND
  8
LAYER-2
  0
ARC
  8
LAYER-2
 62
  0
 10
3.529655
 20
15.951994
 30
0.000000
 40
0.035000
 50
0.000000
 51
90.000000
  0
POLYLINE
  8
LAYER-2
 66
  1
 70
  0
 62
  0
 10
3.522285
 20
15.986994
 30
0.000000
  0
VERTEX
  8
LAYER-2
 10
3.522285
 20
15.986994
 30
0.000000
  0
VERTEX
  8
LAYER-2
 10
3.529655
 20
15.986994
 30
0.000000
  0
SEQEND
  8
LAYER-2
  0
ARC
  8
LAYER-2
 62
  0
 10
3.522285
 20
15.951994
 30
0.000000
 40
0.035000
 50
90.000000
 51
180.000000
  0
POLYLINE
  8
LAYER-2
 66
  1
 70
  0
 62
  0
 10
3.487286
 20
15.945299
 30
0.000000
  0
VERTEX
  8
LAYER-2
 10
3.487286
 20
15.945299
 30
0.000000
  0
VERTEX
  8
LAYER-2
 10
3.487286
 20
15.951994
 30
0.000000
  0
SEQEND
  8
LAYER-2
  0
ARC
  8
LAYER-2
 62
  0
 10
3.452285
 20
15.945299
 30
0.000000
 40
0.035000
 50
270.000000
 51
0.000000
  0
POLYLINE
  8
LAYER-2
 66
  1
 70
  0
 62
  0
 10
3.360529
 20
15.910299
 30
0.000000
  0
VERTEX
  8
LAYER-2
 10
3.360529
 20
15.910299
 30
0.000000
  0
VERTEX
  8
LAYER-2
 10
3.452285
 20
15.910299
 30
0.000000
  0
SEQEND
  8
LAYER-2
  0
ARC
  8
LAYER-2
 62
  0
 10
3.360529
 20
15.945299
 30
0.000000
 40
0.035000
 50
180.000000
 51
270.000000
  0
POLYLINE
  8
LAYER-2
 66
  1
 70
  0
 62
  0
 10
3.325529
 20
15.951994
 30
0.000000
  0
VERTEX
  8
LAYER-2
 10
3.325529
 20
15.951994
 30
0.000000
  0
VERTEX
  8
LAYER-2
 10
3.325529
 20
15.945299
 30
0.000000
  0
SEQEND
  8
LAYER-2
  0
ARC
  8
LAYER-2
 62
  0
 10
3.290529
 20
15.951994
 30
0.000000
 40
0.035000
 50
0.000000
 51
90.000000
  0
POLYLINE
  8
LAYER-2
 66
  1
 70
  0
 62
  0
 10
2.516561
 20
15.986994
 30
0.000000
  0
VERTEX
  8
LAYER-2
 10
2.516561
 20
15.986994
 30
0.000000
  0
VERTEX
  8
LAYER-2
 10
3.290529
 20
15.986994
 30
0.000000
  0
SEQEND
  8
LAYER-2
  0
ARC
  8
LAYER-2
 62
  0
 10
2.516561
 20
15.951994
 30
0.000000
 40
0.035000
 50
90.000000
 51
180.000000
  0
POLYLINE
  8
LAYER-2
 66
  1
 70
  0
 62
  0
 10
2.481561
 20
15.945299
 30
0.000000
  0
VERTEX
  8
LAYER-2
 10
2.481561
 20
15.945299
 30
0.000000
  0
VERTEX
  8
LAYER-2
 10
2.481561
 20
15.951994
 30
0.000000
  0
SEQEND
  8
LAYER-2
  0
ARC
  8
LAYER-2
 62
  0
 10
2.446562
 20
15.945299
 30
0.000000
 40
0.035000
 50
270.000000
 51
0.000000
  0
POLYLINE
  8
LAYER-2
 66
  1
 70
  0
 62
  0
 10
2.354797
 20
15.910299
 30
0.000000
  0
VERTEX
  8
LAYER-2
 10
2.354797
 20
15.910299
 30
0.000000
  0
VERTEX
  8
LAYER-2
 10
2.446562
 20
15.910299
 30
0.000000
  0
SEQEND
  8
LAYER-2
  0
ARC
  8
LAYER-2
 62
  0
 10
2.354797
 20
15.945299
 30
0.000000
 40
0.035000
 50
180.000000
 51
270.000000
  0
POLYLINE
  8
LAYER-2
 66
  1
 70
  0
 62
  0
 10
2.319797
 20
15.951994
 30
0.000000
  0
VERTEX
  8
LAYER-2
 10
2.319797
 20
15.951994
 30
0.000000
  0
VERTEX
  8
LAYER-2
 10
2.319797
 20
15.945299
 30
0.000000
  0
SEQEND
  8
LAYER-2
  0
ARC
  8
LAYER-2
 62
  0
 10
2.284796
 20
15.951994
 30
0.000000
 40
0.035000
 50
0.000000
 51
90.000000
  0
POLYLINE
  8
LAYER-2
 66
  1
 70
  0
 62
  0
 10
2.284466
 20
15.986994
 30
0.000000
  0
VERTEX
  8
LAYER-2
 10
2.284466
 20
15.986994
 30
0.000000
  0
VERTEX
  8
LAYER-2
 10
2.284796
 20
15.986994
 30
0.000000
  0
SEQEND
  8
LAYER-2
  0
ARC
  8
LAYER-2
 62
  0
 10
2.284466
 20
15.951994
 30
0.000000
 40
0.035000
 50
90.000000
 51
180.000000
  0
POLYLINE
  8
LAYER-2
 66
  1
 70
  0
 62
  0
 10
2.249466
 20
15.951994
 30
0.000000
  0
VERTEX
  8
LAYER-2
 10
2.249466
 20
15.951994
 30
0.000000
  0
VERTEX
  8
LAYER-2
 10
2.249466
 20
14.460154
 30
0.000000
  0
SEQEND
  8
LAYER-2
  0
ARC
  8
LAYER-2
 62
  0
 10
2.284466
 20
14.460154
 30
0.000000
 40
0.035000
 50
180.000000
 51
270.000000
  0
POLYLINE
  8
LAYER-2
 66
  1
 70
  0
 62
  0
 10
2.284466
 20
14.425154
 30
0.000000
  0
VERTEX
  8
LAYER-2
 10
2.284466
 20
14.425154
 30
0.000000
  0
VERTEX
  8
LAYER-2
 10
2.452693
 20
14.425164
 30
0.000000
  0
SEQEND
  8
LAYER-2
  0
ARC
  8
LAYER-2
 62
  0
 10
2.550132
 20
14.380025
 30
0.000000
 40
0.107387
 50
155.143982
 51
213.174698
  0
ARC
  8
LAYER-2
 62
  0
 10
2.485167
 20
14.337555
 30
0.000000
 40
0.029771
 50
213.178543
 51
33.178799
  0
ARC
  8
LAYER-2
 62
  0
 10
2.550132
 20
14.380025
 30
0.000000
 40
0.047844
 50
327.054993
 51
213.169800
  0
ARC
  8
LAYER-2
 62
  0
 10
2.615411
 20
14.337677
 30
0.000000
 40
0.029968
 50
146.983093
 51
326.983093
  0
ARC
  8
LAYER-2
 62
  0
 10
2.550132
 20
14.380025
 30
0.000000
 40
0.107781
 50
327.014923
 51
24.759079
  0
POLYLINE
  8
LAYER-2
 66
  1
 70
  0
 62
  0
 10
2.678488
 20
14.425154
 30
0.000000
  0
VERTEX
  8
LAYER-2
 10
2.678488
 20
14.425154
 30
0.000000
  0
VERTEX
  8
LAYER-2
 10
2.648006
 20
14.425164
 30
0.000000
  0
SEQEND
  8
LAYER-2
  0
POLYLINE
  8
LAYER-2
 66
  1
 70
  0
 62
  0
 10
2.678488
 20
14.543684
 30
0.000000
  0
VERTEX
  8
LAYER-2
 10
2.678488
 20
14.543684
 30
0.000000
  0
VERTEX
  8
LAYER-2
 10
2.678488
 20
14.425154
 30
0.000000
  0
SEQEND
  8
LAYER-2
  0
POLYLINE
  8
LAYER-2
 66
  1
 70
  0
 62
  0
 10
2.358481
 20
14.644789
 30
0.000000
  0
VERTEX
  8
LAYER-2
 10
2.358481
 20
14.644789
 30
0.000000
  0
VERTEX
  8
LAYER-2
 10
2.678488
 20
14.543684
 30
0.000000
  0
SEQEND
  8
LAYER-2
  0
POLYLINE
  8
LAYER-2
 66
  1
 70
  0
 62
  0
 10
2.358481
 20
14.644789
 30
0.000000
  0
VERTEX
  8
LAYER-2
 10
2.358481
 20
14.644789
 30
0.000000
  0
VERTEX
  8
LAYER-2
 10
2.358481
 20
14.766196
 30
0.000000
  0
SEQEND
  8
LAYER-2
  0
ARC
  8
LAYER-2
 62
  0
 10
2.323481
 20
14.766196
 30
0.000000
 40
0.035000
 50
0.000000
 51
84.851196
  0
POLYLINE
  8
LAYER-2
 66
  1
 70
  0
 62
  0
 10
2.319797
 20
14.801670
 30
0.000000
  0
VERTEX
  8
LAYER-2
 10
2.319797
 20
14.801670
 30
0.000000
  0
VERTEX
  8
LAYER-2
 10
2.326622
 20
14.801056
 30
0.000000
  0
SEQEND
  8
LAYER-2
  0
POLYLINE
  8
LAYER-2
 66
  1
 70
  0
 62
  0
 10
2.319797
 20
14.801670
 30
0.000000
  0
VERTEX
  8
LAYER-2
 10
2.319797
 20
14.801670
 30
0.000000
  0
VERTEX
  8
LAYER-2
 10
2.319797
 20
15.798603
 30
0.000000
  0
SEQEND
  8
LAYER-2
  0
ARC
  8
LAYER-2
 62
  0
 10
2.354797
 20
15.798603
 30
0.000000
 40
0.035000
 50
90.000000
 51
180.000000
  0
POLYLINE
  8
LAYER-2
 66
  1
 70
  0
 62
  0
 10
2.354797
 20
15.833603
 30
0.000000
  0
VERTEX
  8
LAYER-2
 10
2.354797
 20
15.833603
 30
0.000000
  0
VERTEX
  8
LAYER-2
 10
2.446562
 20
15.833603
 30
0.000000
  0
SEQEND
  8
LAYER-2
  0
ARC
  8
LAYER-2
 62
  0
 10
2.446562
 20
15.798603
 30
0.000000
 40
0.035000
 50
0.000000
 51
90.000000
  0
POLYLINE
  8
LAYER-2
 66
  1
 70
  0
 62
  0
 10
2.481561
 20
15.798603
 30
0.000000
  0
VERTEX
  8
LAYER-2
 10
2.481561
 20
15.798603
 30
0.000000
  0
VERTEX
  8
LAYER-2
 10
2.481561
 20
15.791902
 30
0.000000
  0
SEQEND
  8
LAYER-2
  0
ARC
  8
LAYER-2
 62
  0
 10
2.516561
 20
15.791902
 30
0.000000
 40
0.035000
 50
180.000000
 51
270.000000
  0
POLYLINE
  8
LAYER-2
 66
  1
 70
  0
 62
  0
 10
2.516561
 20
15.756904
 30
0.000000
  0
VERTEX
  8
LAYER-2
 10
2.516561
 20
15.756904
 30
0.000000
  0
VERTEX
  8
LAYER-2
 10
2.581117
 20
15.756904
 30
0.000000
  0
SEQEND
  8
LAYER-2
  0
ARC
  8
LAYER-2
 62
  0
 10
2.581117
 20
15.776903
 30
0.000000
 40
0.020000
 50
270.000000
 51
0.000000
  0
POLYLINE
  8
LAYER-2
 66
  1
 70
  0
 62
  0
 10
2.601116
 20
15.792684
 30
0.000000
  0
VERTEX
  8
LAYER-2
 10
2.601116
 20
15.792684
 30
0.000000
  0
VERTEX
  8
LAYER-2
 10
2.601116
 20
15.776903
 30
0.000000
  0
SEQEND
  8
LAYER-2
  0
ARC
  8
LAYER-2
 62
  0
 10
2.581117
 20
15.792684
 30
0.000000
 40
0.020000
 50
0.000000
 51
90.000000
  0
POLYLINE
  8
LAYER-2
 66
  1
 70
  0
 62
  0
 10
2.578924
 20
15.812683
 30
0.000000
  0
VERTEX
  8
LAYER-2
 10
2.578924
 20
15.812683
 30
0.000000
  0
VERTEX
  8
LAYER-2
 10
2.581117
 20
15.812683
 30
0.000000
  0
SEQEND
  8
LAYER-2
  0
ARC
  8
LAYER-2
 62
  0
 10
2.578924
 20
15.832684
 30
0.000000
 40
0.020000
 50
180.000000
 51
270.000000
  0
POLYLINE
  8
LAYER-2
 66
  1
 70
  0
 62
  0
 10
2.558924
 20
15.875298
 30
0.000000
  0
VERTEX
  8
LAYER-2
 10
2.558924
 20
15.875298
 30
0.000000
  0
VERTEX
  8
LAYER-2
 10
2.558924
 20
15.832684
 30
0.000000
  0
SEQEND
  8
LAYER-2
  0
ARC
  8
LAYER-2
 62
  0
 10
2.593924
 20
15.875298
 30
0.000000
 40
0.035000
 50
90.000000
 51
180.000000
  0
POLYLINE
  8
LAYER-2
 66
  1
 70
  0
 62
  0
 10
2.593924
 20
15.910299
 30
0.000000
  0
VERTEX
  8
LAYER-2
 10
2.593924
 20
15.910299
 30
0.000000
  0
VERTEX
  8
LAYER-2
 10
3.213167
 20
15.910299
 30
0.000000
  0
SEQEND
  8
LAYER-2
  0
ARC
  8
LAYER-2
 62
  0
 10
3.213167
 20
15.875298
 30
0.000000
 40
0.035000
 50
0.000000
 51
90.000000
  0
POLYLINE
  8
LAYER-2
 66
  1
 70
  0
 62
  0
 10
3.248166
 20
15.875298
 30
0.000000
  0
VERTEX
  8
LAYER-2
 10
3.248166
 20
15.875298
 30
0.000000
  0
VERTEX
  8
LAYER-2
 10
3.248166
 20
15.832684
 30
0.000000
  0
SEQEND
  8
LAYER-2
  0
ARC
  8
LAYER-2
 62
  0
 10
3.228167
 20
15.832684
 30
0.000000
 40
0.020000
 50
270.000000
 51
0.000000
  0
POLYLINE
  8
LAYER-2
 66
  1
 70
  0
 62
  0
 10
3.228167
 20
15.812683
 30
0.000000
  0
VERTEX
  8
LAYER-2
 10
3.228167
 20
15.812683
 30
0.000000
  0
VERTEX
  8
LAYER-2
 10
3.225965
 20
15.812683
 30
0.000000
  0
SEQEND
  8
LAYER-2
  0
ARC
  8
LAYER-2
 62
  0
 10
3.225965
 20
15.792684
 30
0.000000
 40
0.020000
 50
90.000000
 51
180.000000
  0
POLYLINE
  8
LAYER-2
 66
  1
 70
  0
 62
  0
 10
3.205966
 20
15.792684
 30
0.000000
  0
VERTEX
  8
LAYER-2
 10
3.205966
 20
15.792684
 30
0.000000
  0
VERTEX
  8
LAYER-2
 10
3.205966
 20
15.776903
 30
0.000000
  0
SEQEND
  8
LAYER-2
  0
ARC
  8
LAYER-2
 62
  0
 10
3.225965
 20
15.776903
 30
0.000000
 40
0.020000
 50
180.000000
 51
270.000000
  0
POLYLINE
  8
LAYER-2
 66
  1
 70
  0
 62
  0
 10
3.290529
 20
15.756904
 30
0.000000
  0
VERTEX
  8
LAYER-2
 10
3.290529
 20
15.756904
 30
0.000000
  0
VERTEX
  8
LAYER-2
 10
3.225965
 20
15.756904
 30
0.000000
  0
SEQEND
  8
LAYER-2
  0
ARC
  8
LAYER-2
 62
  0
 10
3.290529
 20
15.791902
 30
0.000000
 40
0.035000
 50
270.000000
 51
0.000000
  0
POLYLINE
  8
LAYER-2
 66
  1
 70
  0
 62
  0
 10
3.325529
 20
15.798603
 30
0.000000
  0
VERTEX
  8
LAYER-2
 10
3.325529
 20
15.798603
 30
0.000000
  0
VERTEX
  8
LAYER-2
 10
3.325529
 20
15.791902
 30
0.000000
  0
SEQEND
  8
LAYER-2
  0
ARC
  8
LAYER-2
 62
  0
 10
3.360529
 20
15.798603
 30
0.000000
 40
0.035000
 50
90.000000
 51
180.000000
  0
POLYLINE
  8
LAYER-2
 66
  1
 70
  0
 62
  0
 10
3.360529
 20
15.833603
 30
0.000000
  0
VERTEX
  8
LAYER-2
 10
3.360529
 20
15.833603
 30
0.000000
  0
VERTEX
  8
LAYER-2
 10
3.452285
 20
15.833603
 30
0.000000
  0
SEQEND
  8
LAYER-2
  0
ARC
  8
LAYER-2
 62
  0
 10
3.452285
 20
15.798603
 30
0.000000
 40
0.035000
 50
0.000000
 51
90.000000
  0
POLYLINE
  8
LAYER-2
 66
  1
 70
  0
 62
  0
 10
3.487286
 20
14.801670
 30
0.000000
  0
VERTEX
  8
LAYER-2
 10
3.487286
 20
14.801670
 30
0.000000
  0
VERTEX
  8
LAYER-2
 10
3.487286
 20
15.798603
 30
0.000000
  0
SEQEND
  8
LAYER-2
  0
POLYLINE
  8
LAYER-2
 66
  1
 70
  0
 62
  0
 10
3.487286
 20
14.801670
 30
0.000000
  0
VERTEX
  8
LAYER-2
 10
3.487286
 20
14.801670
 30
0.000000
  0
VERTEX
  8
LAYER-2
 10
3.477211
 20
14.800839
 30
0.000000
  0
SEQEND
  8
LAYER-2
  0
ARC
  8
LAYER-2
 62
  0
 10
3.480092
 20
14.765957
 30
0.000000
 40
0.035000
 50
94.722626
 51
180.000000
  0
POLYLINE
  8
LAYER-2
 66
  1
 70
  0
 62
  0
 10
3.445093
 20
14.644789
 30
0.000000
  0
VERTEX
  8
LAYER-2
 10
3.445093
 20
14.644789
 30
0.000000
  0
VERTEX
  8
LAYER-2
 10
3.445093
 20
14.765957
 30
0.000000
  0
SEQEND
  8
LAYER-2
  0
POLYLINE
  8
LAYER-2
 66
  1
 70
  0
 62
  0
 10
3.135636
 20
14.543684
 30
0.000000
  0
VERTEX
  8
LAYER-2
 10
3.135636
 20
14.543684
 30
0.000000
  0
VERTEX
  8
LAYER-2
 10
3.445093
 20
14.644789
 30
0.000000
  0
SEQEND
  8
LAYER-2
  0
POLYLINE
  8
LAYER-2
 66
  1
 70
  0
 62
  0
 10
3.135636
 20
14.543684
 30
0.000000
  0
VERTEX
  8
LAYER-2
 10
3.135636
 20
14.543684
 30
0.000000
  0
VERTEX
  8
LAYER-2
 10
3.135636
 20
14.425156
 30
0.000000
  0
SEQEND
  8
LAYER-2
  0
POLYLINE
  8
LAYER-2
 66
  1
 70
  0
 62
  0
 10
3.166017
 20
14.425164
 30
0.000000
  0
VERTEX
  8
LAYER-2
 10
3.166017
 20
14.425164
 30
0.000000
  0
VERTEX
  8
LAYER-2
 10
3.135636
 20
14.425156
 30
0.000000
  0
SEQEND
  8
LAYER-2
  0
ARC
  8
LAYER-2
 62
  0
 10
3.263889
 20
14.380025
 30
0.000000
 40
0.107781
 50
155.240906
 51
212.985077
  0
ARC
  8
LAYER-2
 62
  0
 10
3.198610
 20
14.337677
 30
0.000000
 40
0.029968
 50
213.016891
 51
33.016964
  0
ARC
  8
LAYER-2
 62
  0
 10
3.263889
 20
14.380025
 30
0.000000
 40
0.047844
 50
326.830200
 51
212.945007
  0
ARC
  8
LAYER-2
 62
  0
 10
3.328855
 20
14.337557
 30
0.000000
 40
0.029771
 50
146.821594
 51
326.821320
  0
POLYLINE
  8
LAYER-2
 66
  1
 70
  0
 62
  7
 10
2.707758
 20
14.676371
 30
0.000000
  0
VERTEX
  8
LAYER-2
 10
2.707758
 20
14.676371
 30
0.000000
  0
VERTEX
  8
LAYER-2
 10
2.694405
 20
14.742922
 30
0.000000
  0
VERTEX
  8
LAYER-2
 10
2.656379
 20
14.799340
 30
0.000000
  0
VERTEX
  8
LAYER-2
 10
2.599470
 20
14.837040
 30
0.000000
  0
VERTEX
  8
LAYER-2
 10
2.532341
 20
14.850277
 30
0.000000
  0
VERTEX
  8
LAYER-2
 10
2.465213
 20
14.837040
 30
0.000000
  0
VERTEX
  8
LAYER-2
 10
2.408304
 20
14.799340
 30
0.000000
  0
VERTEX
  8
LAYER-2
 10
2.370278
 20
14.742922
 30
0.000000
  0
VERTEX
  8
LAYER-2
 10
2.356926
 20
14.676371
 30
0.000000
  0
VERTEX
  8
LAYER-2
 10
2.370278
 20
14.609821
 30
0.000000
  0
VERTEX
  8
LAYER-2
 10
2.408304
 20
14.553402
 30
0.000000
  0
VERTEX
  8
LAYER-2
 10
2.465213
 20
14.515705
 30
0.000000
  0
VERTEX
  8
LAYER-2
 10
2.532341
 20
14.502467
 30
0.000000
  0
VERTEX
  8
LAYER-2
 10
2.599470
 20
14.515705
 30
0.000000
  0
VERTEX
  8
LAYER-2
 10
2.656379
 20
14.553402
 30
0.000000
  0
VERTEX
  8
LAYER-2
 10
2.694405
 20
14.609821
 30
0.000000
  0
VERTEX
  8
LAYER-2
 10
2.707758
 20
14.676371
 30
0.000000
  0
SEQEND
  8
LAYER-2
  0
POLYLINE
  8
LAYER-2
 66
  1
 70
  0
 62
  7
 10
3.438942
 20
14.684048
 30
0.000000
  0
VERTEX
  8
LAYER-2
 10
3.438942
 20
14.684048
 30
0.000000
  0
VERTEX
  8
LAYER-2
 10
3.425589
 20
14.750598
 30
0.000000
  0
VERTEX
  8
LAYER-2
 10
3.387564
 20
14.807017
 30
0.000000
  0
VERTEX
  8
LAYER-2
 10
3.330655
 20
14.844716
 30
0.000000
  0
VERTEX
  8
LAYER-2
 10
3.263526
 20
14.857954
 30
0.000000
  0
VERTEX
  8
LAYER-2
 10
3.196397
 20
14.844716
 30
0.000000
  0
VERTEX
  8
LAYER-2
 10
3.139488
 20
14.807017
 30
0.000000
  0
VERTEX
  8
LAYER-2
 10
3.101463
 20
14.750598
 30
0.000000
  0
VERTEX
  8
LAYER-2
 10
3.088110
 20
14.684048
 30
0.000000
  0
VERTEX
  8
LAYER-2
 10
3.101463
 20
14.617498
 30
0.000000
  0
VERTEX
  8
LAYER-2
 10
3.139488
 20
14.561079
 30
0.000000
  0
VERTEX
  8
LAYER-2
 10
3.196397
 20
14.523382
 30
0.000000
  0
VERTEX
  8
LAYER-2
 10
3.263526
 20
14.510144
 30
0.000000
  0
VERTEX
  8
LAYER-2
 10
3.330655
 20
14.523382
 30
0.000000
  0
VERTEX
  8
LAYER-2
 10
3.387564
 20
14.561079
 30
0.000000
  0
VERTEX
  8
LAYER-2
 10
3.425589
 20
14.617498
 30
0.000000
  0
VERTEX
  8
LAYER-2
 10
3.438942
 20
14.684048
 30
0.000000
  0
SEQEND
  8
LAYER-2
  0
LINE
  8
LAYER-2
 62
  0
 10
1.337024
 20
14.444839
 30
0.000000
 11
1.337024
 21
15.967309
 31
0.000000
  0
LINE
  8
LAYER-2
 62
  0
 10
2.159466
 20
14.425154
 30
0.000000
 11
1.087024
 21
14.425154
 31
0.000000
  0
LINE
  8
LAYER-2
 62
  0
 10
2.159466
 20
15.986994
 30
0.000000
 11
1.087024
 21
15.986994
 31
0.000000
  0
LINE
  8
LAYER-2
 62
  0
 10
1.337024
 20
15.216953
 30
0.000000
 11
1.337024
 21
14.425154
 31
0.000000
  0
POLYLINE
  8
LAYER-2
 66
  1
 70
  1
 62
  0
  0
VERTEX
  8
LAYER-2
 10
1.337024
 20
14.425154
 30
0.000000
  0
VERTEX
  8
LAYER-2
 10
1.420358
 20
14.564043
 30
0.000000
  0
VERTEX
  8
LAYER-2
 10
1.337024
 20
14.564043
 30
0.000000
  0
VERTEX
  8
LAYER-2
 10
1.253691
 20
14.564043
 30
0.000000
  0
VERTEX
  8
LAYER-2
 10
1.337024
 20
14.425154
 30
0.000000
  0
SEQEND
  8
LAYER-2
  0
POLYLINE
  8
LAYER-2
 66
  1
 70
  1
 62
  0
  0
VERTEX
  8
LAYER-2
 10
1.337024
 20
15.986994
 30
0.000000
  0
VERTEX
  8
LAYER-2
 10
1.420356
 20
15.848106
 30
0.000000
  0
VERTEX
  8
LAYER-2
 10
1.337023
 20
15.848106
 30
0.000000
  0
VERTEX
  8
LAYER-2
 10
1.253690
 20
15.848106
 30
0.000000
  0
VERTEX
  8
LAYER-2
 10
1.337024
 20
15.986994
 30
0.000000
  0
SEQEND
  8
LAYER-2
  0
TEXT
  8
LAYER-2
 62
  0
 10
1.258093
 20
15.390524
 30
0.000000
 40
0.250000
  1
1-9/16"
  0
TEXT
  8
LAYER-2
 62
  0
 10
2.416667
 20
16.018914
 30
0.000000
 40
0.250000
  1
(33mm)
 72
  5
 11
3.777778
 21
16.018914
 31
0.000000
  0
TEXT
  8
LAYER-2
 62
  0
 10
0.833334
 20
14.824470
 30
0.000000
 40
0.250000
  1
(40mm)
 72
  5
 11
2.194445
 21
14.824470
 31
0.000000
  0
POLYLINE
  8
LAYER-2
 66
  1
 70
  0
 62
  0
 10
3.402000
 20
15.516888
 30
0.000000
  0
VERTEX
  8
LAYER-2
 10
3.402000
 20
15.516888
 30
0.000000
  0
VERTEX
  8
LAYER-2
 10
3.389729
 20
15.561237
 30
0.000000
  0
VERTEX
  8
LAYER-2
 10
3.360390
 20
15.597166
 30
0.000000
  0
VERTEX
  8
LAYER-2
 10
3.316480
 20
15.621173
 30
0.000000
  0
VERTEX
  8
LAYER-2
 10
3.264687
 20
15.629603
 30
0.000000
  0
VERTEX
  8
LAYER-2
 10
3.212893
 20
15.621173
 30
0.000000
  0
VERTEX
  8
LAYER-2
 10
3.168983
 20
15.597166
 30
0.000000
  0
VERTEX
  8
LAYER-2
 10
3.139645
 20
15.561237
 30
0.000000
  0
VERTEX
  8
LAYER-2
 10
3.131311
 20
15.516888
 30
0.000000
  0
SEQEND
  8
LAYER-2
  0
POLYLINE
  8
LAYER-2
 66
  1
 70
  0
 62
  0
 10
3.131307
 20
15.516888
 30
0.000000
  0
VERTEX
  8
LAYER-2
 10
3.131307
 20
15.516888
 30
0.000000
  0
VERTEX
  8
LAYER-2
 10
3.131307
 20
14.625880
 30
0.000000
  0
SEQEND
  8
LAYER-2
  0
POLYLINE
  8
LAYER-2
 66
  1
 70
  0
 62
  0
 10
3.401998
 20
15.516888
 30
0.000000
  0
VERTEX
  8
LAYER-2
 10
3.401998
 20
15.516888
 30
0.000000
  0
VERTEX
  8
LAYER-2
 10
3.401998
 20
14.625880
 30
0.000000
  0
SEQEND
  8
LAYER-2
  0
POLYLINE
  8
LAYER-2
 66
  1
 70
  0
 62
  0
 10
3.131311
 20
14.625880
 30
0.000000
  0
VERTEX
  8
LAYER-2
 10
3.131311
 20
14.625880
 30
0.000000
  0
VERTEX
  8
LAYER-2
 10
3.139645
 20
14.585468
 30
0.000000
  0
VERTEX
  8
LAYER-2
 10
3.168983
 20
14.549539
 30
0.000000
  0
VERTEX
  8
LAYER-2
 10
3.212893
 20
14.525531
 30
0.000000
  0
VERTEX
  8
LAYER-2
 10
3.264687
 20
14.517102
 30
0.000000
  0
VERTEX
  8
LAYER-2
 10
3.316480
 20
14.525531
 30
0.000000
  0
VERTEX
  8
LAYER-2
 10
3.360390
 20
14.549539
 30
0.000000
  0
VERTEX
  8
LAYER-2
 10
3.389729
 20
14.585468
 30
0.000000
  0
VERTEX
  8
LAYER-2
 10
3.402000
 20
14.625880
 30
0.000000
  0
SEQEND
  8
LAYER-2
  0
POLYLINE
  8
LAYER-2
 66
  1
 70
  0
 62
  0
 10
2.663489
 20
15.516235
 30
0.000000
  0
VERTEX
  8
LAYER-2
 10
2.663489
 20
15.516235
 30
0.000000
  0
VERTEX
  8
LAYER-2
 10
2.651217
 20
15.560820
 30
0.000000
  0
VERTEX
  8
LAYER-2
 10
2.621874
 20
15.596948
 30
0.000000
  0
VERTEX
  8
LAYER-2
 10
2.577958
 20
15.621089
 30
0.000000
  0
VERTEX
  8
LAYER-2
 10
2.526157
 20
15.629566
 30
0.000000
  0
VERTEX
  8
LAYER-2
 10
2.474355
 20
15.621089
 30
0.000000
  0
VERTEX
  8
LAYER-2
 10
2.430439
 20
15.596948
 30
0.000000
  0
VERTEX
  8
LAYER-2
 10
2.401096
 20
15.560820
 30
0.000000
  0
VERTEX
  8
LAYER-2
 10
2.392761
 20
15.516235
 30
0.000000
  0
SEQEND
  8
LAYER-2
  0
POLYLINE
  8
LAYER-2
 66
  1
 70
  0
 62
  0
 10
2.392762
 20
15.516235
 30
0.000000
  0
VERTEX
  8
LAYER-2
 10
2.392762
 20
15.516235
 30
0.000000
  0
VERTEX
  8
LAYER-2
 10
2.392762
 20
14.620283
 30
0.000000
  0
SEQEND
  8
LAYER-2
  0
POLYLINE
  8
LAYER-2
 66
  1
 70
  0
 62
  0
 10
2.663500
 20
15.516235
 30
0.000000
  0
VERTEX
  8
LAYER-2
 10
2.663500
 20
15.516235
 30
0.000000
  0
VERTEX
  8
LAYER-2
 10
2.663500
 20
14.620283
 30
0.000000
  0
SEQEND
  8
LAYER-2
  0
POLYLINE
  8
LAYER-2
 66
  1
 70
  0
 62
  0
 10
2.392761
 20
14.620283
 30
0.000000
  0
VERTEX
  8
LAYER-2
 10
2.392761
 20
14.620283
 30
0.000000
  0
VERTEX
  8
LAYER-2
 10
2.401096
 20
14.579636
 30
0.000000
  0
VERTEX
  8
LAYER-2
 10
2.430439
 20
14.543508
 30
0.000000
  0
VERTEX
  8
LAYER-2
 10
2.474355
 20
14.519368
 30
0.000000
  0
VERTEX
  8
LAYER-2
 10
2.526157
 20
14.510891
 30
0.000000
  0
VERTEX
  8
LAYER-2
 10
2.577958
 20
14.519368
 30
0.000000
  0
VERTEX
  8
LAYER-2
 10
2.621874
 20
14.543508
 30
0.000000
  0
VERTEX
  8
LAYER-2
 10
2.651217
 20
14.579636
 30
0.000000
  0
VERTEX
  8
LAYER-2
 10
2.663489
 20
14.620283
 30
0.000000
  0
SEQEND
  8
LAYER-2
  0
POLYLINE
  8
LAYER-2
 66
  1
 70
  1
 62
  0
  0
VERTEX
  8
LAYER-2
 10
2.663800
 20
15.273265
 30
0.000000
  0
VERTEX
  8
LAYER-2
 10
3.130985
 20
15.273265
 30
0.000000
  0
VERTEX
  8
LAYER-2
 10
3.130985
 20
14.825290
 30
0.000000
  0
VERTEX
  8
LAYER-2
 10
2.663800
 20
14.825290
 30
0.000000
  0
SEQEND
  8
LAYER-2
  0
LINE
  8
LAYER-2
 62
  0
 10
3.812717
 20
14.534817
 30
0.000000
 11
3.812717
 21
15.607951
 31
0.000000
  0
LINE
  8
LAYER-2
 62
  0
 10
3.391655
 20
14.515133
 30
0.000000
 11
4.062717
 21
14.515133
 31
0.000000
  0
LINE
  8
LAYER-2
 62
  0
 10
3.391655
 20
15.627635
 30
0.000000
 11
4.062717
 21
15.627635
 31
0.000000
  0
LINE
  8
LAYER-2
 62
  0
 10
3.812717
 20
15.331540
 30
0.000000
 11
3.812717
 21
14.515133
 31
0.000000
  0
POLYLINE
  8
LAYER-2
 66
  1
 70
  1
 62
  0
  0
VERTEX
  8
LAYER-2
 10
3.812717
 20
14.515133
 30
0.000000
  0
VERTEX
  8
LAYER-2
 10
3.896051
 20
14.654022
 30
0.000000
  0
VERTEX
  8
LAYER-2
 10
3.812717
 20
14.654022
 30
0.000000
  0
VERTEX
  8
LAYER-2
 10
3.729384
 20
14.654022
 30
0.000000
  0
VERTEX
  8
LAYER-2
 10
3.812717
 20
14.515133
 30
0.000000
  0
SEQEND
  8
LAYER-2
  0
POLYLINE
  8
LAYER-2
 66
  1
 70
  1
 62
  0
  0
VERTEX
  8
LAYER-2
 10
3.812717
 20
15.627635
 30
0.000000
  0
VERTEX
  8
LAYER-2
 10
3.896050
 20
15.488746
 30
0.000000
  0
VERTEX
  8
LAYER-2
 10
3.812717
 20
15.488746
 30
0.000000
  0
VERTEX
  8
LAYER-2
 10
3.729383
 20
15.488746
 30
0.000000
  0
VERTEX
  8
LAYER-2
 10
3.812717
 20
15.627635
 30
0.000000
  0
SEQEND
  8
LAYER-2
  0
TEXT
  8
LAYER-2
 62
  0
 10
4.082146
 20
15.158479
 30
0.000000
 40
0.250000
  1
 
 50
90.000000
  0
TEXT
  8
LAYER-2
 62
  0
 10
4.055556
 20
15.268914
 30
0.000000
 40
0.208333
  1
Ruedecilla
 72
  5
 11
5.527778
 21
15.268914
 31
0.000000
  0
TEXT
  8
LAYER-2
 62
  0
 10
4.055556
 20
14.963359
 30
0.000000
 40
0.208333
  1
1-1/8" ¯
 72
  5
 11
5.277778
 21
14.963359
 31
0.000000
  0
TEXT
  8
LAYER-2
 62
  0
 10
4.055556
 20
14.657803
 30
0.000000
 40
0.208333
  1
(29mm)
 72
  5
 11
5.138889
 21
14.657803
 31
0.000000
  0
TEXT
  8
LAYER-2
 62
  0
 10
2.722223
 20
13.963359
 30
0.000000
 40
0.208333
  1
1"
 72
  5
 11
3.138889
 21
13.963359
 31
0.000000
  0
TEXT
  8
LAYER-2
 62
  0
 10
2.388889
 20
13.518914
 30
0.000000
 40
0.208333
  1
(25mm)
 72
  5
 11
3.472223
 21
13.518914
 31
0.000000
  0
POLYLINE
  8
LAYER-2
 66
  1
 70
  0
 62
  0
 10
2.415737
 20
13.845429
 30
0.000000
  0
VERTEX
  8
LAYER-2
 10
2.415737
 20
13.845429
 30
0.000000
  0
VERTEX
  8
LAYER-2
 10
3.390256
 20
13.845429
 30
0.000000
  0
SEQEND
  8
LAYER-2
  0
POLYLINE
  8
LAYER-2
 66
  1
 70
  1
 62
  0
  0
VERTEX
  8
LAYER-2
 10
2.396052
 20
13.845429
 30
0.000000
  0
VERTEX
  8
LAYER-2
 10
2.534941
 20
13.762097
 30
0.000000
  0
VERTEX
  8
LAYER-2
 10
2.534941
 20
13.845430
 30
0.000000
  0
VERTEX
  8
LAYER-2
 10
2.534940
 20
13.928763
 30
0.000000
  0
VERTEX
  8
LAYER-2
 10
2.396052
 20
13.845429
 30
0.000000
  0
SEQEND
  8
LAYER-2
  0
POLYLINE
  8
LAYER-2
 66
  1
 70
  1
 62
  0
  0
VERTEX
  8
LAYER-2
 10
3.409941
 20
13.845429
 30
0.000000
  0
VERTEX
  8
LAYER-2
 10
3.271052
 20
13.762095
 30
0.000000
  0
VERTEX
  8
LAYER-2
 10
3.271052
 20
13.845428
 30
0.000000
  0
VERTEX
  8
LAYER-2
 10
3.271051
 20
13.928762
 30
0.000000
  0
VERTEX
  8
LAYER-2
 10
3.409941
 20
13.845429
 30
0.000000
  0
SEQEND
  8
LAYER-2
  0
POLYLINE
  8
LAYER-2
 66
  1
 70
  0
 62
  0
 10
3.409941
 20
13.782929
 30
0.000000
  0
VERTEX
  8
LAYER-2
 10
3.409941
 20
13.782929
 30
0.000000
  0
VERTEX
  8
LAYER-2
 10
3.409941
 20
14.387095
 30
0.000000
  0
SEQEND
  8
LAYER-2
  0
POLYLINE
  8
LAYER-2
 66
  1
 70
  0
 62
  0
 10
2.396052
 20
13.775985
 30
0.000000
  0
VERTEX
  8
LAYER-2
 10
2.396052
 20
13.775985
 30
0.000000
  0
VERTEX
  8
LAYER-2
 10
2.396052
 20
14.394040
 30
0.000000
  0
SEQEND
  8
LAYER-2
  0
LINE
  8
LAYER-2
 62
  0
 10
2.269151
 20
16.470428
 30
0.000000
 11
3.544971
 21
16.470428
 31
0.000000
  0
LINE
  8
LAYER-2
 62
  0
 10
2.249466
 20
16.076994
 30
0.000000
 11
2.249466
 21
16.720428
 31
0.000000
  0
LINE
  8
LAYER-2
 62
  0
 10
3.564656
 20
16.076994
 30
0.000000
 11
3.564656
 21
16.720428
 31
0.000000
  0
POLYLINE
  8
LAYER-2
 66
  1
 70
  1
 62
  0
  0
VERTEX
  8
LAYER-2
 10
2.249466
 20
16.470428
 30
0.000000
  0
VERTEX
  8
LAYER-2
 10
2.388356
 20
16.387097
 30
0.000000
  0
VERTEX
  8
LAYER-2
 10
2.388355
 20
16.470430
 30
0.000000
  0
VERTEX
  8
LAYER-2
 10
2.388355
 20
16.553763
 30
0.000000
  0
VERTEX
  8
LAYER-2
 10
2.249466
 20
16.470428
 30
0.000000
  0
SEQEND
  8
LAYER-2
  0
POLYLINE
  8
LAYER-2
 66
  1
 70
  1
 62
  0
  0
VERTEX
  8
LAYER-2
 10
3.564656
 20
16.470428
 30
0.000000
  0
VERTEX
  8
LAYER-2
 10
3.425768
 20
16.387095
 30
0.000000
  0
VERTEX
  8
LAYER-2
 10
3.425767
 20
16.470428
 30
0.000000
  0
VERTEX
  8
LAYER-2
 10
3.425767
 20
16.553762
 30
0.000000
  0
VERTEX
  8
LAYER-2
 10
3.564656
 20
16.470428
 30
0.000000
  0
SEQEND
  8
LAYER-2
  0
TEXT
  8
LAYER-2
 62
  0
 10
2.828959
 20
16.729106
 30
0.000000
 40
0.250000
  1
1-5/16"
  0
POLYLINE
  8
LAYER-2
 66
  1
 70
  1
 62
  7
 10
7.978220
 20
5.773198
 30
0.000000
  0
VERTEX
  8
LAYER-2
 10
7.978220
 20
5.773198
 30
0.000000
  0
VERTEX
  8
LAYER-2
 10
8.122776
 20
5.424211
 30
0.000000
  0
VERTEX
  8
LAYER-2
 10
10.701545
 20
6.428706
 30
0.000000
  0
VERTEX
  8
LAYER-2
 10
10.561642
 20
6.787886
 30
0.000000
  0
SEQEND
  8
LAYER-2
  0
ARC
  8
LAYER-2
 62
  0
 10
7.469385
 20
-7.180829
 30
0.000000
 40
10.005340
 50
58.144440
 51
126.727356
  0
POLYLINE
  8
LAYER-2
 66
  1
 70
  0
 62
  0
 10
1.340057
 20
0.812300
 30
0.000000
  0
VERTEX
  8
LAYER-2
 10
1.340057
 20
0.812300
 30
0.000000
  0
VERTEX
  8
LAYER-2
 10
1.350429
 20
0.892839
 30
0.000000
  0
SEQEND
  8
LAYER-2
  0
POLYLINE
  8
LAYER-2
 66
  1
 70
  0
 62
  0
 10
1.426716
 20
0.697574
 30
0.000000
  0
VERTEX
  8
LAYER-2
 10
1.426716
 20
0.697574
 30
0.000000
  0
VERTEX
  8
LAYER-2
 10
1.507259
 20
0.687202
 30
0.000000
  0
SEQEND
  8
LAYER-2
  0
POLYLINE
  8
LAYER-2
 66
  1
 70
  0
 62
  0
 10
1.248256
 20
0.754269
 30
0.000000
  0
VERTEX
  8
LAYER-2
 10
1.248256
 20
0.754269
 30
0.000000
  0
VERTEX
  8
LAYER-2
 10
1.312744
 20
0.804045
 30
0.000000
  0
SEQEND
  8
LAYER-2
  0
POLYLINE
  8
LAYER-2
 66
  1
 70
  0
 62
  0
 10
1.369878
 20
0.796689
 30
0.000000
  0
VERTEX
  8
LAYER-2
 10
1.369878
 20
0.796689
 30
0.000000
  0
VERTEX
  8
LAYER-2
 10
1.419655
 20
0.732196
 30
0.000000
  0
SEQEND
  8
LAYER-2
  0
POLYLINE
  8
LAYER-2
 66
  1
 70
  0
 62
  0
 10
1.412297
 20
0.675064
 30
0.000000
  0
VERTEX
  8
LAYER-2
 10
1.412297
 20
0.675064
 30
0.000000
  0
VERTEX
  8
LAYER-2
 10
1.347809
 20
0.625288
 30
0.000000
  0
SEQEND
  8
LAYER-2
  0
POLYLINE
  8
LAYER-2
 66
  1
 70
  0
 62
  0
 10
1.290675
 20
0.632645
 30
0.000000
  0
VERTEX
  8
LAYER-2
 10
1.290675
 20
0.632645
 30
0.000000
  0
VERTEX
  8
LAYER-2
 10
1.240899
 20
0.697137
 30
0.000000
  0
SEQEND
  8
LAYER-2
  0
ARC
  8
LAYER-2
 62
  0
 10
1.273144
 20
0.722024
 30
0.000000
 40
0.040734
 50
127.662506
 51
217.662506
  0
ARC
  8
LAYER-2
 62
  0
 10
1.322921
 20
0.657533
 30
0.000000
 40
0.040734
 50
217.662506
 51
307.662506
  0
ARC
  8
LAYER-2
 62
  0
 10
1.387409
 20
0.707309
 30
0.000000
 40
0.040734
 50
307.662506
 51
37.662498
  0
ARC
  8
LAYER-2
 62
  0
 10
1.337633
 20
0.771800
 30
0.000000
 40
0.040734
 50
37.662498
 51
127.662506
  0
POLYLINE
  8
LAYER-2
 66
  1
 70
  0
 62
  0
 10
1.498218
 20
0.753401
 30
0.000000
  0
VERTEX
  8
LAYER-2
 10
1.498218
 20
0.753401
 30
0.000000
  0
VERTEX
  8
LAYER-2
 10
1.604985
 20
0.835809
 30
0.000000
  0
SEQEND
  8
LAYER-2
  0
POLYLINE
  8
LAYER-2
 66
  1
 70
  0
 62
  0
 10
1.634842
 20
0.831963
 30
0.000000
  0
VERTEX
  8
LAYER-2
 10
1.634842
 20
0.831963
 30
0.000000
  0
VERTEX
  8
LAYER-2
 10
1.660857
 20
0.798258
 30
0.000000
  0
SEQEND
  8
LAYER-2
  0
POLYLINE
  8
LAYER-2
 66
  1
 70
  0
 62
  0
 10
1.657012
 20
0.768402
 30
0.000000
  0
VERTEX
  8
LAYER-2
 10
1.657012
 20
0.768402
 30
0.000000
  0
VERTEX
  8
LAYER-2
 10
1.550245
 20
0.685994
 30
0.000000
  0
SEQEND
  8
LAYER-2
  0
POLYLINE
  8
LAYER-2
 66
  1
 70
  0
 62
  0
 10
1.520388
 20
0.689840
 30
0.000000
  0
VERTEX
  8
LAYER-2
 10
1.520388
 20
0.689840
 30
0.000000
  0
VERTEX
  8
LAYER-2
 10
1.494373
 20
0.723545
 30
0.000000
  0
SEQEND
  8
LAYER-2
  0
ARC
  8
LAYER-2
 62
  0
 10
1.511225
 20
0.736550
 30
0.000000
 40
0.021287
 50
127.662506
 51
217.662506
  0
ARC
  8
LAYER-2
 62
  0
 10
1.537239
 20
0.702845
 30
0.000000
 40
0.021287
 50
217.662506
 51
307.662506
  0
ARC
  8
LAYER-2
 62
  0
 10
1.644006
 20
0.785253
 30
0.000000
 40
0.021287
 50
307.662506
 51
37.662498
  0
ARC
  8
LAYER-2
 62
  0
 10
1.617991
 20
0.818958
 30
0.000000
 40
0.021287
 50
37.662498
 51
127.662506
  0
POLYLINE
  8
LAYER-2
 66
  1
 70
  0
 62
  0
 10
1.360571
 20
0.933167
 30
0.000000
  0
VERTEX
  8
LAYER-2
 10
1.360571
 20
0.933167
 30
0.000000
  0
VERTEX
  8
LAYER-2
 10
1.467336
 20
1.015572
 30
0.000000
  0
SEQEND
  8
LAYER-2
  0
POLYLINE
  8
LAYER-2
 66
  1
 70
  0
 62
  0
 10
1.497194
 20
1.011729
 30
0.000000
  0
VERTEX
  8
LAYER-2
 10
1.497194
 20
1.011729
 30
0.000000
  0
VERTEX
  8
LAYER-2
 10
1.523209
 20
0.978024
 30
0.000000
  0
SEQEND
  8
LAYER-2
  0
POLYLINE
  8
LAYER-2
 66
  1
 70
  0
 62
  0
 10
1.519363
 20
0.948166
 30
0.000000
  0
VERTEX
  8
LAYER-2
 10
1.519363
 20
0.948166
 30
0.000000
  0
VERTEX
  8
LAYER-2
 10
1.412598
 20
0.865758
 30
0.000000
  0
SEQEND
  8
LAYER-2
  0
POLYLINE
  8
LAYER-2
 66
  1
 70
  0
 62
  0
 10
1.382740
 20
0.869603
 30
0.000000
  0
VERTEX
  8
LAYER-2
 10
1.382740
 20
0.869603
 30
0.000000
  0
VERTEX
  8
LAYER-2
 10
1.356726
 20
0.903308
 30
0.000000
  0
SEQEND
  8
LAYER-2
  0
ARC
  8
LAYER-2
 62
  0
 10
1.373577
 20
0.916316
 30
0.000000
 40
0.021287
 50
127.662506
 51
217.662506
  0
ARC
  8
LAYER-2
 62
  0
 10
1.399592
 20
0.882611
 30
0.000000
 40
0.021287
 50
217.662506
 51
307.662506
  0
ARC
  8
LAYER-2
 62
  0
 10
1.506357
 20
0.965017
 30
0.000000
 40
0.021287
 50
307.662506
 51
37.662498
  0
ARC
  8
LAYER-2
 62
  0
 10
1.480343
 20
0.998722
 30
0.000000
 40
0.021287
 50
37.662498
 51
127.662506
  0
POLYLINE
  8
LAYER-2
 66
  1
 70
  0
 62
  0
 10
1.387110
 20
0.864594
 30
0.000000
  0
VERTEX
  8
LAYER-2
 10
1.387110
 20
0.864594
 30
0.000000
  0
VERTEX
  8
LAYER-2
 10
1.526268
 20
0.972002
 30
0.000000
  0
SEQEND
  8
LAYER-2
  0
POLYLINE
  8
LAYER-2
 66
  1
 70
  0
 62
  0
 10
1.583998
 20
0.964569
 30
0.000000
  0
VERTEX
  8
LAYER-2
 10
1.583998
 20
0.964569
 30
0.000000
  0
VERTEX
  8
LAYER-2
 10
1.634296
 20
0.899402
 30
0.000000
  0
SEQEND
  8
LAYER-2
  0
POLYLINE
  8
LAYER-2
 66
  1
 70
  0
 62
  0
 10
1.626862
 20
0.841671
 30
0.000000
  0
VERTEX
  8
LAYER-2
 10
1.626862
 20
0.841671
 30
0.000000
  0
VERTEX
  8
LAYER-2
 10
1.487704
 20
0.734263
 30
0.000000
  0
SEQEND
  8
LAYER-2
  0
POLYLINE
  8
LAYER-2
 66
  1
 70
  0
 62
  0
 10
1.429974
 20
0.741698
 30
0.000000
  0
VERTEX
  8
LAYER-2
 10
1.429974
 20
0.741698
 30
0.000000
  0
VERTEX
  8
LAYER-2
 10
1.379676
 20
0.806863
 30
0.000000
  0
SEQEND
  8
LAYER-2
  0
ARC
  8
LAYER-2
 62
  0
 10
1.412258
 20
0.832013
 30
0.000000
 40
0.041159
 50
127.662506
 51
217.662506
  0
ARC
  8
LAYER-2
 62
  0
 10
1.462556
 20
0.766846
 30
0.000000
 40
0.041159
 50
217.662506
 51
307.662506
  0
ARC
  8
LAYER-2
 62
  0
 10
1.601714
 20
0.874254
 30
0.000000
 40
0.041159
 50
307.662506
 51
37.662498
  0
ARC
  8
LAYER-2
 62
  0
 10
1.551416
 20
0.939421
 30
0.000000
 40
0.041159
 50
37.662498
 51
127.662506
  0
POLYLINE
  8
LAYER-2
 66
  1
 70
  0
 62
  0
 10
5.204684
 20
2.491770
 30
0.000000
  0
VERTEX
  8
LAYER-2
 10
5.204684
 20
2.491770
 30
0.000000
  0
VERTEX
  8
LAYER-2
 10
5.336867
 20
2.518555
 30
0.000000
  0
SEQEND
  8
LAYER-2
  0
POLYLINE
  8
LAYER-2
 66
  1
 70
  0
 62
  0
 10
5.361958
 20
2.501921
 30
0.000000
  0
VERTEX
  8
LAYER-2
 10
5.361958
 20
2.501921
 30
0.000000
  0
VERTEX
  8
LAYER-2
 10
5.370413
 20
2.460192
 30
0.000000
  0
SEQEND
  8
LAYER-2
  0
POLYLINE
  8
LAYER-2
 66
  1
 70
  0
 62
  0
 10
5.353778
 20
2.435103
 30
0.000000
  0
VERTEX
  8
LAYER-2
 10
5.353778
 20
2.435103
 30
0.000000
  0
VERTEX
  8
LAYER-2
 10
5.221594
 20
2.408318
 30
0.000000
  0
SEQEND
  8
LAYER-2
  0
POLYLINE
  8
LAYER-2
 66
  1
 70
  0
 62
  0
 10
5.196504
 20
2.424952
 30
0.000000
  0
VERTEX
  8
LAYER-2
 10
5.196504
 20
2.424952
 30
0.000000
  0
VERTEX
  8
LAYER-2
 10
5.188048
 20
2.466682
 30
0.000000
  0
SEQEND
  8
LAYER-2
  0
ARC
  8
LAYER-2
 62
  0
 10
5.208911
 20
2.470908
 30
0.000000
 40
0.021287
 50
101.455017
 51
191.455017
  0
ARC
  8
LAYER-2
 62
  0
 10
5.217367
 20
2.429181
 30
0.000000
 40
0.021287
 50
191.455017
 51
281.454987
  0
ARC
  8
LAYER-2
 62
  0
 10
5.349550
 20
2.455965
 30
0.000000
 40
0.021287
 50
281.454987
 51
11.455002
  0
ARC
  8
LAYER-2
 62
  0
 10
5.341095
 20
2.497693
 30
0.000000
 40
0.021287
 50
11.455002
 51
101.455017
  0
POLYLINE
  8
LAYER-2
 66
  1
 70
  0
 62
  0
 10
5.154923
 20
2.636492
 30
0.000000
  0
VERTEX
  8
LAYER-2
 10
5.154923
 20
2.636492
 30
0.000000
  0
VERTEX
  8
LAYER-2
 10
5.327209
 20
2.671402
 30
0.000000
  0
SEQEND
  8
LAYER-2
  0
POLYLINE
  8
LAYER-2
 66
  1
 70
  0
 62
  0
 10
5.375722
 20
2.639238
 30
0.000000
  0
VERTEX
  8
LAYER-2
 10
5.375722
 20
2.639238
 30
0.000000
  0
VERTEX
  8
LAYER-2
 10
5.392070
 20
2.558563
 30
0.000000
  0
SEQEND
  8
LAYER-2
  0
POLYLINE
  8
LAYER-2
 66
  1
 70
  0
 62
  0
 10
5.359905
 20
2.510050
 30
0.000000
  0
VERTEX
  8
LAYER-2
 10
5.359905
 20
2.510050
 30
0.000000
  0
VERTEX
  8
LAYER-2
 10
5.187619
 20
2.475140
 30
0.000000
  0
SEQEND
  8
LAYER-2
  0
POLYLINE
  8
LAYER-2
 66
  1
 70
  0
 62
  0
 10
5.139105
 20
2.507302
 30
0.000000
  0
VERTEX
  8
LAYER-2
 10
5.139105
 20
2.507302
 30
0.000000
  0
VERTEX
  8
LAYER-2
 10
5.122758
 20
2.587979
 30
0.000000
  0
SEQEND
  8
LAYER-2
  0
ARC
  8
LAYER-2
 62
  0
 10
5.163097
 20
2.596152
 30
0.000000
 40
0.041159
 50
101.455017
 51
191.455017
  0
ARC
  8
LAYER-2
 62
  0
 10
5.179445
 20
2.515477
 30
0.000000
 40
0.041159
 50
191.455017
 51
281.454987
  0
ARC
  8
LAYER-2
 62
  0
 10
5.351731
 20
2.550390
 30
0.000000
 40
0.041159
 50
281.454987
 51
11.455002
  0
ARC
  8
LAYER-2
 62
  0
 10
5.335383
 20
2.631065
 30
0.000000
 40
0.041159
 50
11.455002
 51
101.455017
  0
POLYLINE
  8
LAYER-2
 66
  1
 70
  1
 62
  0
  0
VERTEX
  8
LAYER-2
 10
0.805815
 20
1.010103
 30
0.000000
  0
VERTEX
  8
LAYER-2
 10
0.928901
 20
1.104131
 30
0.000000
  0
VERTEX
  8
LAYER-2
 10
1.573894
 20
0.259801
 30
0.000000
  0
VERTEX
  8
LAYER-2
 10
1.450808
 20
0.165775
 30
0.000000
  0
SEQEND
  8
LAYER-2
  0
LINE
  8
LAYER-2
 62
  0
 10
12.878844
 20
1.696196
 30
0.000000
 11
14.218725
 21
0.818327
 31
0.000000
  0
LINE
  8
LAYER-2
 62
  0
 10
12.787508
 20
1.556786
 30
0.000000
 11
13.987974
 21
0.770260
 31
0.000000
  0
LINE
  8
LAYER-2
 62
  0
 10
12.878844
 20
1.696196
 30
0.000000
 11
12.787508
 21
1.556786
 31
0.000000
  0
LINE
  8
LAYER-2
 62
  0
 10
14.218725
 20
0.818327
 30
0.000000
 11
13.812773
 21
0.198734
 31
0.000000
  0
LINE
  8
LAYER-2
 62
  0
 10
13.987974
 20
0.770260
 30
0.000000
 11
13.764701
 21
0.429482
 31
0.000000
  0
LINE
  8
LAYER-2
 62
  0
 10
13.812773
 20
0.198734
 30
0.000000
 11
12.472894
 21
1.076604
 31
0.000000
  0
LINE
  8
LAYER-2
 62
  0
 10
13.764701
 20
0.429482
 30
0.000000
 11
12.564233
 21
1.216012
 31
0.000000
  0
LINE
  8
LAYER-2
 62
  0
 10
12.472894
 20
1.076604
 30
0.000000
 11
12.564233
 21
1.216012
 31
0.000000
  0
POLYLINE
  8
LAYER-2
 66
  1
 70
  0
 62
  0
 10
12.807780
 20
1.377462
 30
0.000000
  0
VERTEX
  8
LAYER-2
 10
12.807780
 20
1.377462
 30
0.000000
  0
VERTEX
  8
LAYER-2
 10
12.954818
 20
1.281125
 30
0.000000
  0
SEQEND
  8
LAYER-2
  0
POLYLINE
  8
LAYER-2
 66
  1
 70
  0
 62
  0
 10
12.966689
 20
1.224141
 30
0.000000
  0
VERTEX
  8
LAYER-2
 10
12.966689
 20
1.224141
 30
0.000000
  0
VERTEX
  8
LAYER-2
 10
12.921576
 20
1.155285
 30
0.000000
  0
SEQEND
  8
LAYER-2
  0
POLYLINE
  8
LAYER-2
 66
  1
 70
  0
 62
  0
 10
12.864592
 20
1.143414
 30
0.000000
  0
VERTEX
  8
LAYER-2
 10
12.864592
 20
1.143414
 30
0.000000
  0
VERTEX
  8
LAYER-2
 10
12.717554
 20
1.239751
 30
0.000000
  0
SEQEND
  8
LAYER-2
  0
POLYLINE
  8
LAYER-2
 66
  1
 70
  0
 62
  0
 10
12.705682
 20
1.296734
 30
0.000000
  0
VERTEX
  8
LAYER-2
 10
12.705682
 20
1.296734
 30
0.000000
  0
VERTEX
  8
LAYER-2
 10
12.750796
 20
1.365592
 30
0.000000
  0
SEQEND
  8
LAYER-2
  0
ARC
  8
LAYER-2
 62
  0
 10
12.785224
 20
1.343035
 30
0.000000
 40
0.041159
 50
56.767792
 51
146.767792
  0
ARC
  8
LAYER-2
 62
  0
 10
12.740110
 20
1.274180
 30
0.000000
 40
0.041159
 50
146.767792
 51
236.767822
  0
ARC
  8
LAYER-2
 62
  0
 10
12.887148
 20
1.177841
 30
0.000000
 40
0.041159
 50
236.767822
 51
326.767792
  0
ARC
  8
LAYER-2
 62
  0
 10
12.932262
 20
1.246697
 30
0.000000
 40
0.041159
 50
326.767792
 51
56.767792
  0
POLYLINE
  8
LAYER-2
 66
  1
 70
  0
 62
  0
 10
12.947932
 20
1.187129
 30
0.000000
  0
VERTEX
  8
LAYER-2
 10
12.947932
 20
1.187129
 30
0.000000
  0
VERTEX
  8
LAYER-2
 10
13.513716
 20
0.927131
 30
0.000000
  0
SEQEND
  8
LAYER-2
  0
POLYLINE
  8
LAYER-2
 66
  1
 70
  0
 62
  0
 10
12.945395
 20
1.183253
 30
0.000000
  0
VERTEX
  8
LAYER-2
 10
12.945395
 20
1.183253
 30
0.000000
  0
VERTEX
  8
LAYER-2
 10
13.417302
 20
0.779978
 30
0.000000
  0
SEQEND
  8
LAYER-2
  0
POLYLINE
  8
LAYER-2
 66
  1
 70
  0
 62
  0
 10
12.997821
 20
1.269552
 30
0.000000
  0
VERTEX
  8
LAYER-2
 10
12.997821
 20
1.269552
 30
0.000000
  0
VERTEX
  8
LAYER-2
 10
12.845591
 20
1.037201
 30
0.000000
  0
SEQEND
  8
LAYER-2
  0
POLYLINE
  8
LAYER-2
  6
LTYPE06
 66
  1
 70
  0
 62
  0
  6
LTYPE06
 10
12.948413
 20
1.185694
 30
0.000000
  0
VERTEX
  8
LAYER-2
  6
LTYPE06
 10
12.948413
 20
1.185694
 30
0.000000
  0
VERTEX
  8
LAYER-2
  6
LTYPE06
 10
13.862318
 20
0.586917
 30
0.000000
  0
SEQEND
  8
LAYER-2
  0
TEXT
  8
LAYER-2
 62
  0
 10
0.138889
 20
2.852247
 30
0.000000
 40
0.291667
  1
CURVAS ESPECIALES
 72
  5
 11
4.416667
 21
2.852247
 31
0.000000
  0
TEXT
  8
LAYER-2
 62
  0
 10
2.277778
 20
0.546692
 30
0.000000
 40
0.250000
  1
Mobilflex puede doblar cualquier radio para completar su proyecto.
 72
  5
 11
12.500000
 21
0.546692
 31
0.000000
  0
TEXT
  8
LAYER-2
 62
  0
 10
3.916667
 20
0.157803
 30
0.000000
 40
0.250000
  1
( Indicar el radio y la longitud sobre el plano )
 72
  5
 11
10.861111
 21
0.157803
 31
0.000000
  0
POLYLINE
  8
LAYER-2
 66
  1
 70
  0
 62
  0
 10
9.542859
 20
2.536524
 30
0.000000
  0
VERTEX
  8
LAYER-2
 10
9.542859
 20
2.536524
 30
0.000000
  0
VERTEX
  8
LAYER-2
 10
9.673818
 20
2.504283
 30
0.000000
  0
SEQEND
  8
LAYER-2
  0
POLYLINE
  8
LAYER-2
 66
  1
 70
  0
 62
  0
 10
9.689400
 20
2.478526
 30
0.000000
  0
VERTEX
  8
LAYER-2
 10
9.689400
 20
2.478526
 30
0.000000
  0
VERTEX
  8
LAYER-2
 10
9.679221
 20
2.437183
 30
0.000000
  0
SEQEND
  8
LAYER-2
  0
POLYLINE
  8
LAYER-2
 66
  1
 70
  0
 62
  0
 10
9.653463
 20
2.421602
 30
0.000000
  0
VERTEX
  8
LAYER-2
 10
9.653463
 20
2.421602
 30
0.000000
  0
VERTEX
  8
LAYER-2
 10
9.522504
 20
2.453844
 30
0.000000
  0
SEQEND
  8
LAYER-2
  0
POLYLINE
  8
LAYER-2
 66
  1
 70
  0
 62
  0
 10
9.506922
 20
2.479602
 30
0.000000
  0
VERTEX
  8
LAYER-2
 10
9.506922
 20
2.479602
 30
0.000000
  0
VERTEX
  8
LAYER-2
 10
9.517101
 20
2.520944
 30
0.000000
  0
SEQEND
  8
LAYER-2
  0
ARC
  8
LAYER-2
 62
  0
 10
9.537771
 20
2.515856
 30
0.000000
 40
0.021287
 50
76.169434
 51
166.169434
  0
ARC
  8
LAYER-2
 62
  0
 10
9.527593
 20
2.474513
 30
0.000000
 40
0.021287
 50
166.169434
 51
256.169434
  0
ARC
  8
LAYER-2
 62
  0
 10
9.658552
 20
2.442271
 30
0.000000
 40
0.021287
 50
256.169434
 51
346.169434
  0
ARC
  8
LAYER-2
 62
  0
 10
9.668729
 20
2.483614
 30
0.000000
 40
0.021287
 50
346.169434
 51
76.169434
  0
POLYLINE
  8
LAYER-2
 66
  1
 70
  0
 62
  0
 10
9.559681
 20
2.688633
 30
0.000000
  0
VERTEX
  8
LAYER-2
 10
9.559681
 20
2.688633
 30
0.000000
  0
VERTEX
  8
LAYER-2
 10
9.730370
 20
2.646612
 30
0.000000
  0
SEQEND
  8
LAYER-2
  0
POLYLINE
  8
LAYER-2
 66
  1
 70
  0
 62
  0
 10
9.760497
 20
2.596807
 30
0.000000
  0
VERTEX
  8
LAYER-2
 10
9.760497
 20
2.596807
 30
0.000000
  0
VERTEX
  8
LAYER-2
 10
9.740820
 20
2.516878
 30
0.000000
  0
SEQEND
  8
LAYER-2
  0
POLYLINE
  8
LAYER-2
 66
  1
 70
  0
 62
  0
 10
9.691015
 20
2.486754
 30
0.000000
  0
VERTEX
  8
LAYER-2
 10
9.691015
 20
2.486754
 30
0.000000
  0
VERTEX
  8
LAYER-2
 10
9.520326
 20
2.528775
 30
0.000000
  0
SEQEND
  8
LAYER-2
  0
POLYLINE
  8
LAYER-2
 66
  1
 70
  0
 62
  0
 10
9.490199
 20
2.578579
 30
0.000000
  0
VERTEX
  8
LAYER-2
 10
9.490199
 20
2.578579
 30
0.000000
  0
VERTEX
  8
LAYER-2
 10
9.509877
 20
2.658507
 30
0.000000
  0
SEQEND
  8
LAYER-2
  0
ARC
  8
LAYER-2
 62
  0
 10
9.549841
 20
2.648668
 30
0.000000
 40
0.041159
 50
76.169434
 51
166.169434
  0
ARC
  8
LAYER-2
 62
  0
 10
9.530164
 20
2.568739
 30
0.000000
 40
0.041159
 50
166.169434
 51
256.169434
  0
ARC
  8
LAYER-2
 62
  0
 10
9.700855
 20
2.526716
 30
0.000000
 40
0.041159
 50
256.169434
 51
346.169434
  0
ARC
  8
LAYER-2
 62
  0
 10
9.720532
 20
2.606645
 30
0.000000
 40
0.041159
 50
346.169434
 51
76.169434
  0
POLYLINE
  8
LAYER-2
  6
LTYPE01
 66
  1
 70
  0
 62
  0
  6
LTYPE01
 10
10.561642
 20
6.787886
 30
0.000000
  0
VERTEX
  8
LAYER-2
  6
LTYPE01
 10
10.561642
 20
6.787886
 30
0.000000
  0
VERTEX
  8
LAYER-2
  6
LTYPE01
 10
7.982559
 20
5.774935
 30
0.000000
  0
SEQEND
  8
LAYER-2
  0
POLYLINE
  8
LAYER-2
  6
LTYPE01
 66
  1
 70
  0
 62
  0
  6
LTYPE01
 10
7.982559
 20
5.774935
 30
0.000000
  0
VERTEX
  8
LAYER-2
  6
LTYPE01
 10
7.982559
 20
5.774935
 30
0.000000
  0
VERTEX
  8
LAYER-2
  6
LTYPE01
 10
8.127116
 20
5.425947
 30
0.000000
  0
SEQEND
  8
LAYER-2
  0
POLYLINE
  8
LAYER-2
  6
LTYPE01
 66
  1
 70
  0
 62
  0
  6
LTYPE01
 10
8.127116
 20
5.425947
 30
0.000000
  0
VERTEX
  8
LAYER-2
  6
LTYPE01
 10
8.127116
 20
5.425947
 30
0.000000
  0
VERTEX
  8
LAYER-2
  6
LTYPE01
 10
10.701545
 20
6.428706
 30
0.000000
  0
SEQEND
  8
LAYER-2
  0
TEXT
  8
LAYER-2
 62
  0
 10
11.277778
 20
6.796692
 30
0.000000
 40
0.250000
  1
Curva 45  o 90
 72
  5
 11
13.611111
 21
6.796692
 31
0.000000
  0
TEXT
  8
LAYER-2
 62
  0
 10
12.583334
 20
7.046692
 30
0.000000
 40
0.125000
  1
o
 72
  5
 11
12.805556
 21
7.046692
 31
0.000000
  0
TEXT
  8
LAYER-2
 62
  0
 10
13.416667
 20
7.046692
 30
0.000000
 40
0.125000
  1
o
 72
  5
 11
13.638889
 21
7.046692
 31
0.000000
  0
TEXT
  8
LAYER-2
 62
  0
 10
3.305556
 20
6.796692
 30
0.000000
 40
0.250000
  1
 çngulo deseado
 72
  5
 11
6.027778
 21
6.796692
 31
0.000000
  0
TEXT
  8
LAYER-2
 62
  0
 10
11.277778
 20
5.991136
 30
0.000000
 40
0.250000
  1
Ra’l derecho
 72
  5
 11
13.361111
 21
5.991136
 31
0.000000
  0
CIRCLE
  8
LAYER-2
 62
  0
 10
7.978494
 20
5.778987
 30
0.000000
 40
0.107314
  0
CIRCLE
  8
LAYER-2
 62
  0
 10
8.132818
 20
5.427643
 30
0.000000
 40
0.107314
  0
TEXT
  8
LAYER-2
 62
  0
 10
8.916667
 20
4.602247
 30
0.000000
 40
0.250000
  1
Marcar el corte aqu’
 72
  5
 11
12.027778
 21
4.602247
 31
0.000000
  0
POLYLINE
  8
LAYER-2
  6
LTYPE05
 66
  1
 70
  0
 62
  0
  6
LTYPE05
 10
4.215277
 20
5.140315
 30
0.000000
  0
VERTEX
  8
LAYER-2
  6
LTYPE05
 10
4.215277
 20
5.140315
 30
0.000000
  0
VERTEX
  8
LAYER-2
  6
LTYPE05
 10
11.250006
 20
5.140315
 30
0.000000
  0
SEQEND
  8
LAYER-2
  0
POLYLINE
  8
LAYER-2
  6
LTYPE05
 66
  1
 70
  0
 62
  0
  6
LTYPE05
 10
4.208332
 20
3.897261
 30
0.000000
  0
VERTEX
  8
LAYER-2
  6
LTYPE05
 10
4.208332
 20
3.897261
 30
0.000000
  0
VERTEX
  8
LAYER-2
  6
LTYPE05
 10
8.122776
 20
5.424211
 30
0.000000
  0
SEQEND
  8
LAYER-2
  0
TEXT
  8
LAYER-2
 62
  0
 10
2.611111
 20
5.685581
 30
0.000000
 40
0.250000
  1
eje #1
 72
  5
 11
3.805556
 21
5.685581
 31
0.000000
  0
TEXT
  8
LAYER-2
 62
  0
 10
2.611111
 20
4.463359
 30
0.000000
 40
0.250000
  1
eje #2
 72
  5
 11
3.805556
 21
4.463359
 31
0.000000
  0
ARC
  8
LAYER-2
 62
  0
  6
LTYPE05
 10
7.409726
 20
5.511844
 30
0.000000
 40
1.616180
 50
22.713783
 51
179.687988
  0
POLYLINE
  8
LAYER-2
 66
  1
 70
  0
 62
  0
 10
11.111113
 20
6.935581
 30
0.000000
  0
VERTEX
  8
LAYER-2
 10
11.111113
 20
6.935581
 30
0.000000
  0
VERTEX
  8
LAYER-2
 10
10.380993
 20
7.259059
 30
0.000000
  0
SEQEND
  8
LAYER-2
  0
POLYLINE
  8
LAYER-2
 66
  1
 70
  1
 62
  0
  0
VERTEX
  8
LAYER-2
 10
10.362995
 20
7.267033
 30
0.000000
  0
VERTEX
  8
LAYER-2
 10
10.523735
 20
7.286964
 30
0.000000
  0
VERTEX
  8
LAYER-2
 10
10.489979
 20
7.210774
 30
0.000000
  0
VERTEX
  8
LAYER-2
 10
10.456223
 20
7.134583
 30
0.000000
  0
VERTEX
  8
LAYER-2
 10
10.362995
 20
7.267033
 30
0.000000
  0
SEQEND
  8
LAYER-2
  0
POLYLINE
  8
LAYER-2
 66
  1
 70
  0
 62
  0
 10
5.812499
 20
6.918094
 30
0.000000
  0
VERTEX
  8
LAYER-2
 10
5.812499
 20
6.918094
 30
0.000000
  0
VERTEX
  8
LAYER-2
 10
6.212913
 20
6.644477
 30
0.000000
  0
SEQEND
  8
LAYER-2
  0
POLYLINE
  8
LAYER-2
 66
  1
 70
  1
 62
  0
  0
VERTEX
  8
LAYER-2
 10
6.229166
 20
6.633370
 30
0.000000
  0
VERTEX
  8
LAYER-2
 10
6.067477
 20
6.642926
 30
0.000000
  0
VERTEX
  8
LAYER-2
 10
6.114493
 20
6.711729
 30
0.000000
  0
VERTEX
  8
LAYER-2
 10
6.161509
 20
6.780533
 30
0.000000
  0
VERTEX
  8
LAYER-2
 10
6.229166
 20
6.633370
 30
0.000000
  0
SEQEND
  8
LAYER-2
  0
POLYLINE
  8
LAYER-2
 66
  1
 70
  0
 62
  0
 10
11.152785
 20
6.178633
 30
0.000000
  0
VERTEX
  8
LAYER-2
 10
11.152785
 20
6.178633
 30
0.000000
  0
VERTEX
  8
LAYER-2
 10
10.588126
 20
6.366855
 30
0.000000
  0
SEQEND
  8
LAYER-2
  0
POLYLINE
  8
LAYER-2
 66
  1
 70
  1
 62
  0
  0
VERTEX
  8
LAYER-2
 10
10.569451
 20
6.373081
 30
0.000000
  0
VERTEX
  8
LAYER-2
 10
10.727566
 20
6.408217
 30
0.000000
  0
VERTEX
  8
LAYER-2
 10
10.701213
 20
6.329159
 30
0.000000
  0
VERTEX
  8
LAYER-2
 10
10.674859
 20
6.250102
 30
0.000000
  0
VERTEX
  8
LAYER-2
 10
10.569451
 20
6.373081
 30
0.000000
  0
SEQEND
  8
LAYER-2
  0
POLYLINE
  8
LAYER-2
 66
  1
 70
  0
 62
  0
 10
8.715284
 20
4.800037
 30
0.000000
  0
VERTEX
  8
LAYER-2
 10
8.715284
 20
4.800037
 30
0.000000
  0
VERTEX
  8
LAYER-2
 10
8.208187
 20
5.320658
 30
0.000000
  0
SEQEND
  8
LAYER-2
  0
POLYLINE
  8
LAYER-2
 66
  1
 70
  1
 62
  0
  0
VERTEX
  8
LAYER-2
 10
8.194451
 20
5.334761
 30
0.000000
  0
VERTEX
  8
LAYER-2
 10
8.351056
 20
5.293413
 30
0.000000
  0
VERTEX
  8
LAYER-2
 10
8.291360
 20
5.235268
 30
0.000000
  0
VERTEX
  8
LAYER-2
 10
8.231664
 20
5.177124
 30
0.000000
  0
VERTEX
  8
LAYER-2
 10
8.194451
 20
5.334761
 30
0.000000
  0
SEQEND
  8
LAYER-2
  0
POLYLINE
  8
LAYER-2
 66
  1
 70
  0
 62
  0
 10
3.749998
 20
5.761966
 30
0.000000
  0
VERTEX
  8
LAYER-2
 10
3.749998
 20
5.761966
 30
0.000000
  0
VERTEX
  8
LAYER-2
 10
4.210314
 20
5.155991
 30
0.000000
  0
SEQEND
  8
LAYER-2
  0
POLYLINE
  8
LAYER-2
 66
  1
 70
  1
 62
  0
  0
VERTEX
  8
LAYER-2
 10
4.222221
 20
5.140315
 30
0.000000
  0
VERTEX
  8
LAYER-2
 10
4.071849
 20
5.200504
 30
0.000000
  0
VERTEX
  8
LAYER-2
 10
4.138208
 20
5.250912
 30
0.000000
  0
VERTEX
  8
LAYER-2
 10
4.204567
 20
5.301320
 30
0.000000
  0
VERTEX
  8
LAYER-2
 10
4.222221
 20
5.140315
 30
0.000000
  0
SEQEND
  8
LAYER-2
  0
POLYLINE
  8
LAYER-2
 66
  1
 70
  0
 62
  0
 10
3.701387
 20
4.525853
 30
0.000000
  0
VERTEX
  8
LAYER-2
 10
3.701387
 20
4.525853
 30
0.000000
  0
VERTEX
  8
LAYER-2
 10
4.270926
 20
3.946025
 30
0.000000
  0
SEQEND
  8
LAYER-2
  0
POLYLINE
  8
LAYER-2
 66
  1
 70
  1
 62
  0
  0
VERTEX
  8
LAYER-2
 10
4.284721
 20
3.931981
 30
0.000000
  0
VERTEX
  8
LAYER-2
 10
4.127943
 20
3.972670
 30
0.000000
  0
VERTEX
  8
LAYER-2
 10
4.187394
 20
4.031065
 30
0.000000
  0
VERTEX
  8
LAYER-2
 10
4.246845
 20
4.089461
 30
0.000000
  0
VERTEX
  8
LAYER-2
 10
4.284721
 20
3.931981
 30
0.000000
  0
SEQEND
  8
LAYER-2
  0
ARC
  8
LAYER-2
 62
  0
 10
6.710073
 20
8.834761
 30
0.000000
 40
3.691552
 50
270.000000
 51
315.000000
  0
ARC
  8
LAYER-2
 62
  0
 10
6.710073
 20
8.834761
 30
0.000000
 40
3.313810
 50
270.000000
 51
315.000000
  0
POLYLINE
  8
LAYER-2
 66
  1
 70
  0
 62
  0
 10
6.710073
 20
5.143209
 30
0.000000
  0
VERTEX
  8
LAYER-2
 10
6.710073
 20
5.143209
 30
0.000000
  0
VERTEX
  8
LAYER-2
 10
4.710073
 20
5.143209
 30
0.000000
  0
SEQEND
  8
LAYER-2
  0
POLYLINE
  8
LAYER-2
 66
  1
 70
  0
 62
  0
 10
6.710073
 20
5.520950
 30
0.000000
  0
VERTEX
  8
LAYER-2
 10
6.710073
 20
5.520950
 30
0.000000
  0
VERTEX
  8
LAYER-2
 10
4.710073
 20
5.520950
 30
0.000000
  0
SEQEND
  8
LAYER-2
  0
POLYLINE
  8
LAYER-2
 66
  1
 70
  0
 62
  0
 10
9.320401
 20
6.224440
 30
0.000000
  0
VERTEX
  8
LAYER-2
 10
9.320401
 20
6.224440
 30
0.000000
  0
VERTEX
  8
LAYER-2
 10
10.362995
 20
7.267033
 30
0.000000
  0
SEQEND
  8
LAYER-2
  0
POLYLINE
  8
LAYER-2
 66
  1
 70
  0
 62
  0
 10
9.053298
 20
6.491543
 30
0.000000
  0
VERTEX
  8
LAYER-2
 10
9.053298
 20
6.491543
 30
0.000000
  0
VERTEX
  8
LAYER-2
 10
10.095891
 20
7.534137
 30
0.000000
  0
SEQEND
  8
LAYER-2
  0
POLYLINE
  8
LAYER-2
 66
  1
 70
  0
 62
  0
 10
9.016101
 20
12.172218
 30
0.000000
  0
VERTEX
  8
LAYER-2
 10
9.016101
 20
12.172218
 30
0.000000
  0
VERTEX
  8
LAYER-2
 10
8.779146
 20
12.162643
 30
0.000000
  0
VERTEX
  8
LAYER-2
 10
8.546423
 20
12.128121
 30
0.000000
  0
VERTEX
  8
LAYER-2
 10
8.318203
 20
12.070956
 30
0.000000
  0
VERTEX
  8
LAYER-2
 10
8.096687
 20
11.991696
 30
0.000000
  0
VERTEX
  8
LAYER-2
 10
7.884006
 20
11.891105
 30
0.000000
  0
VERTEX
  8
LAYER-2
 10
7.682209
 20
11.770153
 30
0.000000
  0
VERTEX
  8
LAYER-2
 10
7.493239
 20
11.630002
 30
0.000000
  0
VERTEX
  8
LAYER-2
 10
7.318915
 20
11.472005
 30
0.000000
  0
VERTEX
  8
LAYER-2
 10
7.160917
 20
11.297682
 30
0.000000
  0
VERTEX
  8
LAYER-2
 10
7.020768
 20
11.108712
 30
0.000000
  0
VERTEX
  8
LAYER-2
 10
6.899815
 20
10.906915
 30
0.000000
  0
VERTEX
  8
LAYER-2
 10
6.799225
 20
10.694233
 30
0.000000
  0
VERTEX
  8
LAYER-2
 10
6.719965
 20
10.472716
 30
0.000000
  0
VERTEX
  8
LAYER-2
 10
6.662799
 20
10.244498
 30
0.000000
  0
VERTEX
  8
LAYER-2
 10
6.628278
 20
10.011775
 30
0.000000
  0
VERTEX
  8
LAYER-2
 10
6.618700
 20
9.774820
 30
0.000000
  0
SEQEND
  8
LAYER-2
  0
POLYLINE
  8
LAYER-2
 66
  1
 70
  0
 62
  0
 10
9.016101
 20
11.928415
 30
0.000000
  0
VERTEX
  8
LAYER-2
 10
9.016101
 20
11.928415
 30
0.000000
  0
VERTEX
  8
LAYER-2
 10
8.803043
 20
11.920013
 30
0.000000
  0
VERTEX
  8
LAYER-2
 10
8.593987
 20
11.889002
 30
0.000000
  0
VERTEX
  8
LAYER-2
 10
8.388976
 20
11.837651
 30
0.000000
  0
VERTEX
  8
LAYER-2
 10
8.189986
 20
11.766451
 30
0.000000
  0
VERTEX
  8
LAYER-2
 10
7.998934
 20
11.676090
 30
0.000000
  0
VERTEX
  8
LAYER-2
 10
7.817658
 20
11.567437
 30
0.000000
  0
VERTEX
  8
LAYER-2
 10
7.647906
 20
11.441540
 30
0.000000
  0
VERTEX
  8
LAYER-2
 10
7.491311
 20
11.299610
 30
0.000000
  0
VERTEX
  8
LAYER-2
 10
7.349380
 20
11.143015
 30
0.000000
  0
VERTEX
  8
LAYER-2
 10
7.223483
 20
10.973262
 30
0.000000
  0
VERTEX
  8
LAYER-2
 10
7.114831
 20
10.791985
 30
0.000000
  0
VERTEX
  8
LAYER-2
 10
7.024470
 20
10.600933
 30
0.000000
  0
VERTEX
  8
LAYER-2
 10
6.953270
 20
10.401944
 30
0.000000
  0
VERTEX
  8
LAYER-2
 10
6.901919
 20
10.196934
 30
0.000000
  0
VERTEX
  8
LAYER-2
 10
6.870908
 20
9.987878
 30
0.000000
  0
VERTEX
  8
LAYER-2
 10
6.862504
 20
9.774820
 30
0.000000
  0
SEQEND
  8
LAYER-2
  0
POLYLINE
  8
LAYER-2
 66
  1
 70
  0
 62
  0
 10
6.618700
 20
9.774820
 30
0.000000
  0
VERTEX
  8
LAYER-2
 10
6.618700
 20
9.774820
 30
0.000000
  0
VERTEX
  8
LAYER-2
 10
6.618700
 20
8.637070
 30
0.000000
  0
SEQEND
  8
LAYER-2
  0
POLYLINE
  8
LAYER-2
 66
  1
 70
  0
 62
  0
 10
6.862504
 20
9.774820
 30
0.000000
  0
VERTEX
  8
LAYER-2
 10
6.862504
 20
9.774820
 30
0.000000
  0
VERTEX
  8
LAYER-2
 10
6.862504
 20
8.637070
 30
0.000000
  0
SEQEND
  8
LAYER-2
  0
POLYLINE
  8
LAYER-2
 66
  1
 70
  0
 62
  0
 10
9.016100
 20
12.172217
 30
0.000000
  0
VERTEX
  8
LAYER-2
 10
9.016100
 20
12.172217
 30
0.000000
  0
VERTEX
  8
LAYER-2
 10
10.153850
 20
12.172217
 30
0.000000
  0
SEQEND
  8
LAYER-2
  0
POLYLINE
  8
LAYER-2
 66
  1
 70
  0
 62
  0
 10
9.016100
 20
11.928415
 30
0.000000
  0
VERTEX
  8
LAYER-2
 10
9.016100
 20
11.928415
 30
0.000000
  0
VERTEX
  8
LAYER-2
 10
10.153850
 20
11.928415
 30
0.000000
  0
SEQEND
  8
LAYER-2
  0
POLYLINE
  8
LAYER-2
 66
  1
 70
  0
 62
  0
 10
10.153850
 20
11.928415
 30
0.000000
  0
VERTEX
  8
LAYER-2
 10
10.153850
 20
11.928415
 30
0.000000
  0
VERTEX
  8
LAYER-2
 10
10.153850
 20
12.172217
 30
0.000000
  0
SEQEND
  8
LAYER-2
  0
POLYLINE
  8
LAYER-2
 66
  1
 70
  0
 62
  0
 10
6.862504
 20
9.774820
 30
0.000000
  0
VERTEX
  8
LAYER-2
 10
6.862504
 20
9.774820
 30
0.000000
  0
VERTEX
  8
LAYER-2
 10
9.016100
 20
9.774820
 30
0.000000
  0
SEQEND
  8
LAYER-2
  0
POLYLINE
  8
LAYER-2
 66
  1
 70
  0
 62
  0
 10
9.016100
 20
11.928415
 30
0.000000
  0
VERTEX
  8
LAYER-2
 10
9.016100
 20
11.928415
 30
0.000000
  0
VERTEX
  8
LAYER-2
 10
9.016100
 20
9.774820
 30
0.000000
  0
SEQEND
  8
LAYER-2
  0
POLYLINE
  8
LAYER-2
 66
  1
 70
  0
 62
  0
 10
7.800593
 20
9.774820
 30
0.000000
  0
VERTEX
  8
LAYER-2
 10
7.800593
 20
9.774820
 30
0.000000
  0
VERTEX
  8
LAYER-2
 10
7.800593
 20
9.774820
 30
0.000000
  0
SEQEND
  8
LAYER-2
  0
POLYLINE
  8
LAYER-2
 66
  1
 70
  0
 62
  0
 10
9.016100
 20
10.990328
 30
0.000000
  0
VERTEX
  8
LAYER-2
 10
9.016100
 20
10.990328
 30
0.000000
  0
VERTEX
  8
LAYER-2
 10
9.016100
 20
10.990328
 30
0.000000
  0
SEQEND
  8
LAYER-2
  0
ARC
  8
LAYER-2
 62
  0
 10
9.016100
 20
9.774820
 30
0.000000
 40
1.251797
 50
90.000000
 51
180.000000
  0
POLYLINE
  8
LAYER-2
 66
  1
 70
  1
 62
  0
  0
VERTEX
  8
LAYER-2
 10
7.764303
 20
9.774820
 30
0.000000
  0
VERTEX
  8
LAYER-2
 10
7.847637
 20
9.913709
 30
0.000000
  0
VERTEX
  8
LAYER-2
 10
7.764303
 20
9.913709
 30
0.000000
  0
VERTEX
  8
LAYER-2
 10
7.680970
 20
9.913709
 30
0.000000
  0
VERTEX
  8
LAYER-2
 10
7.764303
 20
9.774820
 30
0.000000
  0
SEQEND
  8
LAYER-2
  0
POLYLINE
  8
LAYER-2
 66
  1
 70
  1
 62
  0
  0
VERTEX
  8
LAYER-2
 10
9.016100
 20
11.026617
 30
0.000000
  0
VERTEX
  8
LAYER-2
 10
8.877211
 20
11.109951
 30
0.000000
  0
VERTEX
  8
LAYER-2
 10
8.877211
 20
11.026617
 30
0.000000
  0
VERTEX
  8
LAYER-2
 10
8.877211
 20
10.943284
 30
0.000000
  0
VERTEX
  8
LAYER-2
 10
9.016100
 20
11.026617
 30
0.000000
  0
SEQEND
  8
LAYER-2
  0
TEXT
  8
LAYER-2
 62
  0
 10
8.033684
 20
10.607059
 30
0.000000
 40
0.250000
  1
90.0°
  0
POLYLINE
  8
LAYER-2
 66
  1
 70
  0
 62
  0
 10
6.618700
 20
8.637070
 30
0.000000
  0
VERTEX
  8
LAYER-2
 10
6.618700
 20
8.637070
 30
0.000000
  0
VERTEX
  8
LAYER-2
 10
6.862504
 20
8.637070
 30
0.000000
  0
SEQEND
  8
LAYER-2
  0
POLYLINE
  8
LAYER-2
 66
  1
 70
  0
 62
  0
 10
3.279604
 20
10.948849
 30
0.000000
  0
VERTEX
  8
LAYER-2
 10
3.279604
 20
10.948849
 30
0.000000
  0
VERTEX
  8
LAYER-2
 10
3.042649
 20
10.939273
 30
0.000000
  0
VERTEX
  8
LAYER-2
 10
2.809926
 20
10.904751
 30
0.000000
  0
VERTEX
  8
LAYER-2
 10
2.581707
 20
10.847585
 30
0.000000
  0
VERTEX
  8
LAYER-2
 10
2.360190
 20
10.768325
 30
0.000000
  0
VERTEX
  8
LAYER-2
 10
2.147509
 20
10.667735
 30
0.000000
  0
VERTEX
  8
LAYER-2
 10
1.945711
 20
10.546782
 30
0.000000
  0
VERTEX
  8
LAYER-2
 10
1.756741
 20
10.406631
 30
0.000000
  0
VERTEX
  8
LAYER-2
 10
1.584386
 20
10.246667
 30
0.000000
  0
SEQEND
  8
LAYER-2
  0
POLYLINE
  8
LAYER-2
 66
  1
 70
  0
 62
  0
 10
3.279604
 20
10.705046
 30
0.000000
  0
VERTEX
  8
LAYER-2
 10
3.279604
 20
10.705046
 30
0.000000
  0
VERTEX
  8
LAYER-2
 10
3.066546
 20
10.696643
 30
0.000000
  0
VERTEX
  8
LAYER-2
 10
2.857489
 20
10.665632
 30
0.000000
  0
VERTEX
  8
LAYER-2
 10
2.652479
 20
10.614280
 30
0.000000
  0
VERTEX
  8
LAYER-2
 10
2.453490
 20
10.543081
 30
0.000000
  0
VERTEX
  8
LAYER-2
 10
2.262437
 20
10.452720
 30
0.000000
  0
VERTEX
  8
LAYER-2
 10
2.081161
 20
10.344067
 30
0.000000
  0
VERTEX
  8
LAYER-2
 10
1.911408
 20
10.218169
 30
0.000000
  0
VERTEX
  8
LAYER-2
 10
1.756781
 20
10.074272
 30
0.000000
  0
SEQEND
  8
LAYER-2
  0
POLYLINE
  8
LAYER-2
 66
  1
 70
  0
 62
  0
 10
3.279604
 20
10.948846
 30
0.000000
  0
VERTEX
  8
LAYER-2
 10
3.279604
 20
10.948846
 30
0.000000
  0
VERTEX
  8
LAYER-2
 10
5.311298
 20
10.948846
 30
0.000000
  0
SEQEND
  8
LAYER-2
  0
POLYLINE
  8
LAYER-2
 66
  1
 70
  0
 62
  0
 10
3.279604
 20
10.705042
 30
0.000000
  0
VERTEX
  8
LAYER-2
 10
3.279604
 20
10.705042
 30
0.000000
  0
VERTEX
  8
LAYER-2
 10
5.311298
 20
10.705042
 30
0.000000
  0
SEQEND
  8
LAYER-2
  0
POLYLINE
  8
LAYER-2
 66
  1
 70
  0
 62
  0
 10
5.311298
 20
10.705042
 30
0.000000
  0
VERTEX
  8
LAYER-2
 10
5.311298
 20
10.705042
 30
0.000000
  0
VERTEX
  8
LAYER-2
 10
5.311298
 20
10.948846
 30
0.000000
  0
SEQEND
  8
LAYER-2
  0
POLYLINE
  8
LAYER-2
 66
  1
 70
  0
 62
  0
 10
1.756696
 20
10.074121
 30
0.000000
  0
VERTEX
  8
LAYER-2
 10
1.756696
 20
10.074121
 30
0.000000
  0
VERTEX
  8
LAYER-2
 10
0.320072
 20
8.637498
 30
0.000000
  0
SEQEND
  8
LAYER-2
  0
POLYLINE
  8
LAYER-2
 66
  1
 70
  0
 62
  0
 10
1.584300
 20
10.246517
 30
0.000000
  0
VERTEX
  8
LAYER-2
 10
1.584300
 20
10.246517
 30
0.000000
  0
VERTEX
  8
LAYER-2
 10
0.147676
 20
8.809893
 30
0.000000
  0
SEQEND
  8
LAYER-2
  0
POLYLINE
  8
LAYER-2
 66
  1
 70
  0
 62
  0
 10
0.147676
 20
8.809893
 30
0.000000
  0
VERTEX
  8
LAYER-2
 10
0.147676
 20
8.809893
 30
0.000000
  0
VERTEX
  8
LAYER-2
 10
0.320072
 20
8.637498
 30
0.000000
  0
SEQEND
  8
LAYER-2
  0
POLYLINE
  8
LAYER-2
 66
  1
 70
  0
 62
  0
 10
11.264429
 20
10.427091
 30
0.000000
  0
VERTEX
  8
LAYER-2
 10
11.264429
 20
10.427091
 30
0.000000
  0
VERTEX
  8
LAYER-2
 10
11.264928
 20
8.637506
 30
0.000000
  0
SEQEND
  8
LAYER-2
  0
POLYLINE
  8
LAYER-2
 66
  1
 70
  0
 62
  0
 10
11.508141
 20
10.427091
 30
0.000000
  0
VERTEX
  8
LAYER-2
 10
11.508141
 20
10.427091
 30
0.000000
  0
VERTEX
  8
LAYER-2
 10
11.508732
 20
8.637506
 30
0.000000
  0
SEQEND
  8
LAYER-2
  0
POLYLINE
  8
LAYER-2
 66
  1
 70
  0
 62
  0
 10
13.010493
 20
12.173157
 30
0.000000
  0
VERTEX
  8
LAYER-2
 10
13.010493
 20
12.173157
 30
0.000000
  0
VERTEX
  8
LAYER-2
 10
14.800076
 20
12.172656
 30
0.000000
  0
SEQEND
  8
LAYER-2
  0
POLYLINE
  8
LAYER-2
 66
  1
 70
  0
 62
  0
 10
13.010493
 20
11.929443
 30
0.000000
  0
VERTEX
  8
LAYER-2
 10
13.010493
 20
11.929443
 30
0.000000
  0
VERTEX
  8
LAYER-2
 10
14.800076
 20
11.928853
 30
0.000000
  0
SEQEND
  8
LAYER-2
  0
POLYLINE
  8
LAYER-2
 66
  1
 70
  0
 62
  0
 10
14.800076
 20
11.928853
 30
0.000000
  0
VERTEX
  8
LAYER-2
 10
14.800076
 20
11.928853
 30
0.000000
  0
VERTEX
  8
LAYER-2
 10
14.800076
 20
12.172656
 30
0.000000
  0
SEQEND
  8
LAYER-2
  0
POLYLINE
  8
LAYER-2
 66
  1
 70
  0
 62
  0
 10
13.010493
 20
11.929443
 30
0.000000
  0
VERTEX
  8
LAYER-2
 10
13.010493
 20
11.929443
 30
0.000000
  0
VERTEX
  8
LAYER-2
 10
12.861269
 20
11.924177
 30
0.000000
  0
VERTEX
  8
LAYER-2
 10
12.715430
 20
11.902544
 30
0.000000
  0
VERTEX
  8
LAYER-2
 10
12.572416
 20
11.866720
 30
0.000000
  0
VERTEX
  8
LAYER-2
 10
12.433600
 20
11.817051
 30
0.000000
  0
VERTEX
  8
LAYER-2
 10
12.300321
 20
11.754016
 30
0.000000
  0
VERTEX
  8
LAYER-2
 10
12.173863
 20
11.678219
 30
0.000000
  0
VERTEX
  8
LAYER-2
 10
12.055443
 20
11.590393
 30
0.000000
  0
VERTEX
  8
LAYER-2
 10
11.946202
 20
11.491382
 30
0.000000
  0
VERTEX
  8
LAYER-2
 10
11.847191
 20
11.382141
 30
0.000000
  0
VERTEX
  8
LAYER-2
 10
11.759365
 20
11.263721
 30
0.000000
  0
VERTEX
  8
LAYER-2
 10
11.683569
 20
11.137263
 30
0.000000
  0
VERTEX
  8
LAYER-2
 10
11.620533
 20
11.003984
 30
0.000000
  0
VERTEX
  8
LAYER-2
 10
11.570864
 20
10.865169
 30
0.000000
  0
VERTEX
  8
LAYER-2
 10
11.535041
 20
10.722154
 30
0.000000
  0
VERTEX
  8
LAYER-2
 10
11.513407
 20
10.576315
 30
0.000000
  0
VERTEX
  8
LAYER-2
 10
11.508141
 20
10.427091
 30
0.000000
  0
SEQEND
  8
LAYER-2
  0
POLYLINE
  8
LAYER-2
 66
  1
 70
  0
 62
  0
 10
13.010493
 20
12.173153
 30
0.000000
  0
VERTEX
  8
LAYER-2
 10
13.010493
 20
12.173153
 30
0.000000
  0
VERTEX
  8
LAYER-2
 10
12.837380
 20
12.166715
 30
0.000000
  0
VERTEX
  8
LAYER-2
 10
12.667886
 20
12.141573
 30
0.000000
  0
VERTEX
  8
LAYER-2
 10
12.501670
 20
12.099937
 30
0.000000
  0
VERTEX
  8
LAYER-2
 10
12.340335
 20
12.042212
 30
0.000000
  0
VERTEX
  8
LAYER-2
 10
12.185437
 20
11.968950
 30
0.000000
  0
VERTEX
  8
LAYER-2
 10
12.038464
 20
11.880858
 30
0.000000
  0
VERTEX
  8
LAYER-2
 10
11.900834
 20
11.778785
 30
0.000000
  0
VERTEX
  8
LAYER-2
 10
11.773872
 20
11.663713
 30
0.000000
  0
VERTEX
  8
LAYER-2
 10
11.658800
 20
11.536750
 30
0.000000
  0
VERTEX
  8
LAYER-2
 10
11.556726
 20
11.399120
 30
0.000000
  0
VERTEX
  8
LAYER-2
 10
11.468635
 20
11.252147
 30
0.000000
  0
VERTEX
  8
LAYER-2
 10
11.395372
 20
11.097249
 30
0.000000
  0
VERTEX
  8
LAYER-2
 10
11.337646
 20
10.935914
 30
0.000000
  0
VERTEX
  8
LAYER-2
 10
11.296012
 20
10.769699
 30
0.000000
  0
VERTEX
  8
LAYER-2
 10
11.270870
 20
10.600204
 30
0.000000
  0
VERTEX
  8
LAYER-2
 10
11.264431
 20
10.427091
 30
0.000000
  0
SEQEND
  8
LAYER-2
  0
POLYLINE
  8
LAYER-2
 66
  1
 70
  0
 62
  0
 10
11.508141
 20
10.427091
 30
0.000000
  0
VERTEX
  8
LAYER-2
 10
11.508141
 20
10.427091
 30
0.000000
  0
VERTEX
  8
LAYER-2
 10
13.010493
 20
10.427091
 30
0.000000
  0
SEQEND
  8
LAYER-2
  0
POLYLINE
  8
LAYER-2
 66
  1
 70
  0
 62
  0
 10
13.010493
 20
11.929443
 30
0.000000
  0
VERTEX
  8
LAYER-2
 10
13.010493
 20
11.929443
 30
0.000000
  0
VERTEX
  8
LAYER-2
 10
13.010493
 20
10.427091
 30
0.000000
  0
SEQEND
  8
LAYER-2
  0
POLYLINE
  8
LAYER-2
 66
  1
 70
  0
 62
  0
 10
12.092103
 20
10.427091
 30
0.000000
  0
VERTEX
  8
LAYER-2
 10
12.092103
 20
10.427091
 30
0.000000
  0
VERTEX
  8
LAYER-2
 10
12.092103
 20
10.427091
 30
0.000000
  0
SEQEND
  8
LAYER-2
  0
POLYLINE
  8
LAYER-2
 66
  1
 70
  0
 62
  0
 10
13.010493
 20
11.345481
 30
0.000000
  0
VERTEX
  8
LAYER-2
 10
13.010493
 20
11.345481
 30
0.000000
  0
VERTEX
  8
LAYER-2
 10
13.010493
 20
11.345481
 30
0.000000
  0
SEQEND
  8
LAYER-2
  0
ARC
  8
LAYER-2
 62
  0
 10
13.010493
 20
10.427091
 30
0.000000
 40
0.973707
 50
90.000000
 51
180.000000
  0
POLYLINE
  8
LAYER-2
 66
  1
 70
  1
 62
  0
  0
VERTEX
  8
LAYER-2
 10
12.036786
 20
10.427091
 30
0.000000
  0
VERTEX
  8
LAYER-2
 10
12.120121
 20
10.565980
 30
0.000000
  0
VERTEX
  8
LAYER-2
 10
12.036787
 20
10.565980
 30
0.000000
  0
VERTEX
  8
LAYER-2
 10
11.953454
 20
10.565980
 30
0.000000
  0
VERTEX
  8
LAYER-2
 10
12.036786
 20
10.427091
 30
0.000000
  0
SEQEND
  8
LAYER-2
  0
POLYLINE
  8
LAYER-2
 66
  1
 70
  1
 62
  0
  0
VERTEX
  8
LAYER-2
 10
13.010493
 20
11.400798
 30
0.000000
  0
VERTEX
  8
LAYER-2
 10
12.871604
 20
11.484131
 30
0.000000
  0
VERTEX
  8
LAYER-2
 10
12.871604
 20
11.400798
 30
0.000000
  0
VERTEX
  8
LAYER-2
 10
12.871604
 20
11.317464
 30
0.000000
  0
VERTEX
  8
LAYER-2
 10
13.010493
 20
11.400798
 30
0.000000
  0
SEQEND
  8
LAYER-2
  0
TEXT
  8
LAYER-2
 62
  0
 10
12.218724
 20
11.059814
 30
0.000000
 40
0.250000
  1
90.0°
  0
POLYLINE
  8
LAYER-2
 66
  1
 70
  0
 62
  0
 10
11.264928
 20
8.637506
 30
0.000000
  0
VERTEX
  8
LAYER-2
 10
11.264928
 20
8.637506
 30
0.000000
  0
VERTEX
  8
LAYER-2
 10
11.508732
 20
8.637506
 30
0.000000
  0
SEQEND
  8
LAYER-2
  0
TEXT
  8
LAYER-2
 62
  0
 10
0.083334
 20
17.046692
 30
0.000000
 40
0.291667
  1
RAêL
 72
  5
 11
1.138889
 21
17.046692
 31
0.000000
  0
TEXT
  8
LAYER-2
 62
  0
 10
0.083334
 20
12.213359
 30
0.000000
 40
0.291667
  1
CURVAS ESTçNDAR
 72
  5
 11
4.083334
 21
12.213359
 31
0.000000
  0
POLYLINE
  8
LAYER-2
 66
  1
 70
  0
 62
  0
 10
1.131230
 20
10.948846
 30
0.000000
  0
VERTEX
  8
LAYER-2
 10
1.131230
 20
10.948846
 30
0.000000
  0
VERTEX
  8
LAYER-2
 10
2.520119
 20
10.948846
 30
0.000000
  0
SEQEND
  8
LAYER-2
  0
TEXT
  8
LAYER-2
 62
  0
 10
1.777778
 20
9.296692
 30
0.000000
 40
0.250000
  1
Radio
 72
  5
 11
2.833334
 21
9.296692
 31
0.000000
  0
TEXT
  8
LAYER-2
 62
  0
 10
1.777778
 20
8.907803
 30
0.000000
 40
0.250000
  1
45  -  14" (356mm)
 72
  5
 11
4.750000
 21
8.907803
 31
0.000000
  0
TEXT
  8
LAYER-2
 62
  0
 10
2.166667
 20
9.074470
 30
0.000000
 40
0.125000
  1
o
 72
  5
 11
2.388889
 21
9.074470
 31
0.000000
  0
TEXT
  8
LAYER-2
 62
  0
 10
7.166667
 20
9.296692
 30
0.000000
 40
0.250000
  1
Radio
 72
  5
 11
8.222223
 21
9.296692
 31
0.000000
  0
TEXT
  8
LAYER-2
 62
  0
 10
7.166667
 20
8.907803
 30
0.000000
 40
0.250000
  1
90  -  14" (356mm)
 72
  5
 11
10.138889
 21
8.907803
 31
0.000000
  0
TEXT
  8
LAYER-2
 62
  0
 10
7.555556
 20
9.074470
 30
0.000000
 40
0.125000
  1
o
 72
  5
 11
7.777778
 21
9.074470
 31
0.000000
  0
TEXT
  8
LAYER-2
 62
  0
 10
11.805556
 20
9.296692
 30
0.000000
 40
0.250000
  1
Radio
 72
  5
 11
12.861111
 21
9.296692
 31
0.000000
  0
TEXT
  8
LAYER-2
 62
  0
 10
11.805556
 20
8.907803
 30
0.000000
 40
0.250000
  1
90  -  10" (254mm)
 72
  5
 11
14.777778
 21
8.907803
 31
0.000000
  0
TEXT
  8
LAYER-2
 62
  0
 10
12.194445
 20
9.074470
 30
0.000000
 40
0.125000
  1
o
 72
  5
 11
12.416667
 21
9.074470
 31
0.000000
  0
TEXT
  8
LAYER-2
 62
  0
 10
0.083334
 20
7.602247
 30
0.000000
 40
0.291667
  1
çNGULO CORTADO A MEDIDA
 72
  5
 11
6.027778
 21
7.602247
 31
0.000000
  0
TEXT
  8
LAYER-2
 62
  0
 10
12.055556
 20
13.907803
 30
0.000000
 40
0.250000
  1
Varillas de uni—n
 72
  5
 11
14.750000
 21
13.907803
 31
0.000000
  0
TEXT
  8
LAYER-2
 62
  0
 10
8.055556
 20
16.268914
 30
0.000000
 40
0.250000
  1
Placa de uni—n
 72
  5
 11
10.472223
 21
16.268914
 31
0.000000
  0
POLYLINE
  8
LAYER-2
 66
  1
 70
  0
 62
  0
 10
10.601651
 20
17.946306
 30
0.000000
  0
VERTEX
  8
LAYER-2
 10
10.601651
 20
17.946306
 30
0.000000
  0
VERTEX
  8
LAYER-2
 10
10.696582
 20
17.957818
 30
0.000000
  0
VERTEX
  8
LAYER-2
 10
10.789757
 20
17.986082
 30
0.000000
  0
VERTEX
  8
LAYER-2
 10
10.875626
 20
18.031982
 30
0.000000
  0
VERTEX
  8
LAYER-2
 10
10.950893
 20
18.093752
 30
0.000000
  0
VERTEX
  8
LAYER-2
 10
11.012663
 20
18.169017
 30
0.000000
  0
VERTEX
  8
LAYER-2
 10
11.058562
 20
18.254888
 30
0.000000
  0
VERTEX
  8
LAYER-2
 10
11.086826
 20
18.348063
 30
0.000000
  0
VERTEX
  8
LAYER-2
 10
11.096369
 20
18.444962
 30
0.000000
  0
VERTEX
  8
LAYER-2
 10
11.086826
 20
18.541860
 30
0.000000
  0
VERTEX
  8
LAYER-2
 10
11.058562
 20
18.635035
 30
0.000000
  0
VERTEX
  8
LAYER-2
 10
11.012663
 20
18.720907
 30
0.000000
  0
VERTEX
  8
LAYER-2
 10
10.950893
 20
18.796173
 30
0.000000
  0
VERTEX
  8
LAYER-2
 10
10.875626
 20
18.857942
 30
0.000000
  0
VERTEX
  8
LAYER-2
 10
10.789757
 20
18.903841
 30
0.000000
  0
VERTEX
  8
LAYER-2
 10
10.696582
 20
18.932105
 30
0.000000
  0
VERTEX
  8
LAYER-2
 10
10.601651
 20
18.939680
 30
0.000000
  0
SEQEND
  8
LAYER-2
  0
POLYLINE
  8
LAYER-2
 66
  1
 70
  0
 62
  0
 10
10.601651
 20
18.939680
 30
0.000000
  0
VERTEX
  8
LAYER-2
 10
10.601651
 20
18.939680
 30
0.000000
  0
VERTEX
  8
LAYER-2
 10
3.447024
 20
18.939680
 30
0.000000
  0
SEQEND
  8
LAYER-2
  0
POLYLINE
  8
LAYER-2
 66
  1
 70
  0
 62
  0
 10
3.447024
 20
18.939680
 30
0.000000
  0
VERTEX
  8
LAYER-2
 10
3.447024
 20
18.939680
 30
0.000000
  0
VERTEX
  8
LAYER-2
 10
3.447024
 20
17.946308
 30
0.000000
  0
SEQEND
  8
LAYER-2
  0
POLYLINE
  8
LAYER-2
 66
  1
 70
  0
 62
  0
 10
10.601651
 20
17.946308
 30
0.000000
  0
VERTEX
  8
LAYER-2
 10
10.601651
 20
17.946308
 30
0.000000
  0
VERTEX
  8
LAYER-2
 10
3.447024
 20
17.946308
 30
0.000000
  0
SEQEND
  8
LAYER-2
  0
TEXT
  8
LAYER-2
 62
  0
 10
6.972223
 20
19.546692
 30
0.000000
 40
0.645833
  1
MobilFlex
 72
  5
 11
11.194445
 21
19.546692
 31
0.000000
  0
POLYLINE
  8
LAYER-2
 66
  1
 70
  1
 62
  0
  0
VERTEX
  8
LAYER-2
 10
3.449959
 20
20.546078
 30
0.000000
  0
VERTEX
  8
LAYER-2
 10
3.914282
 20
20.546078
 30
0.000000
  0
VERTEX
  8
LAYER-2
 10
3.914282
 20
19.536903
 30
0.000000
  0
VERTEX
  8
LAYER-2
 10
3.449959
 20
19.536903
 30
0.000000
  0
SEQEND
  8
LAYER-2
  0
POLYLINE
  8
LAYER-2
 66
  1
 70
  1
 62
  0
  0
VERTEX
  8
LAYER-2
 10
4.060018
 20
20.546078
 30
0.000000
  0
VERTEX
  8
LAYER-2
 10
4.524342
 20
20.546078
 30
0.000000
  0
VERTEX
  8
LAYER-2
 10
4.524342
 20
19.536903
 30
0.000000
  0
VERTEX
  8
LAYER-2
 10
4.060018
 20
19.536903
 30
0.000000
  0
SEQEND
  8
LAYER-2
  0
POLYLINE
  8
LAYER-2
 66
  1
 70
  1
 62
  0
  0
VERTEX
  8
LAYER-2
 10
4.646353
 20
20.546078
 30
0.000000
  0
VERTEX
  8
LAYER-2
 10
5.110677
 20
20.546078
 30
0.000000
  0
VERTEX
  8
LAYER-2
 10
5.110677
 20
19.536903
 30
0.000000
  0
VERTEX
  8
LAYER-2
 10
4.646353
 20
19.536903
 30
0.000000
  0
SEQEND
  8
LAYER-2
  0
POLYLINE
  8
LAYER-2
 66
  1
 70
  1
 62
  0
  0
VERTEX
  8
LAYER-2
 10
5.239468
 20
20.546078
 30
0.000000
  0
VERTEX
  8
LAYER-2
 10
5.703791
 20
20.546078
 30
0.000000
  0
VERTEX
  8
LAYER-2
 10
5.703791
 20
19.536903
 30
0.000000
  0
VERTEX
  8
LAYER-2
 10
5.239468
 20
19.536903
 30
0.000000
  0
SEQEND
  8
LAYER-2
  0
POLYLINE
  8
LAYER-2
 66
  1
 70
  1
 62
  0
  0
VERTEX
  8
LAYER-2
 10
5.858000
 20
20.538435
 30
0.000000
  0
VERTEX
  8
LAYER-2
 10
6.590919
 20
20.538435
 30
0.000000
  0
VERTEX
  8
LAYER-2
 10
6.590919
 20
20.268992
 30
0.000000
  0
VERTEX
  8
LAYER-2
 10
5.858000
 20
20.268992
 30
0.000000
  0
SEQEND
  8
LAYER-2
  0
POLYLINE
  8
LAYER-2
 66
  1
 70
  1
 62
  0
  0
VERTEX
  8
LAYER-2
 10
5.857153
 20
20.094447
 30
0.000000
  0
VERTEX
  8
LAYER-2
 10
6.458741
 20
20.094447
 30
0.000000
  0
VERTEX
  8
LAYER-2
 10
6.458741
 20
19.832630
 30
0.000000
  0
VERTEX
  8
LAYER-2
 10
5.857153
 20
19.832630
 30
0.000000
  0
SEQEND
  8
LAYER-2
  0
POLYLINE
  8
LAYER-2
 66
  1
 70
  1
 62
  0
  0
VERTEX
  8
LAYER-2
 10
3.449959
 20
19.371696
 30
0.000000
  0
VERTEX
  8
LAYER-2
 10
11.099431
 20
19.371696
 30
0.000000
  0
VERTEX
  8
LAYER-2
 10
11.099431
 20
19.286965
 30
0.000000
  0
VERTEX
  8
LAYER-2
 10
3.449959
 20
19.286965
 30
0.000000
  0
SEQEND
  8
LAYER-2
  0
TEXT
  8
LAYER-2
 62
  7
 10
3.916667
 20
18.185581
 30
0.000000
 40
0.375000
  1
Ra’l y curvas
 72
  5
 11
7.138889
 21
18.185581
 31
0.000000
  0
POLYLINE
  8
LAYER-2
  6
LTYPE05
 66
  1
 70
  0
 62
  0
  6
LTYPE05
 10
10.701545
 20
6.428706
 30
0.000000
  0
VERTEX
  8
LAYER-2
  6
LTYPE05
 10
10.701545
 20
6.428706
 30
0.000000
  0
VERTEX
  8
LAYER-2
  6
LTYPE05
 10
11.324165
 20
6.670863
 30
0.000000
  0
SEQEND
  8
LAYER-2
  0
POLYLINE
  8
LAYER-2
 66
  1
 70
  0
 62
  0
 10
1.172839
 20
9.835055
 30
0.000000
  0
VERTEX
  8
LAYER-2
 10
1.172839
 20
9.835055
 30
0.000000
  0
VERTEX
  8
LAYER-2
 10
1.481418
 20
10.143634
 30
0.000000
  0
SEQEND
  8
LAYER-2
  0
POLYLINE
  8
LAYER-2
 66
  1
 70
  0
 62
  0
 10
0.798387
 20
10.948846
 30
0.000000
  0
VERTEX
  8
LAYER-2
 10
0.798387
 20
10.948846
 30
0.000000
  0
VERTEX
  8
LAYER-2
 10
1.147888
 20
10.948846
 30
0.000000
  0
SEQEND
  8
LAYER-2
  0
ARC
  8
LAYER-2
 62
  0
 10
2.286630
 20
10.948846
 30
0.000000
 40
1.388742
 50
180.000000
 51
224.999985
  0
ARC
  8
LAYER-2
 62
  0
 10
2.286630
 20
10.948846
 30
0.000000
 40
1.388742
 50
163.605347
 51
180.000000
  0
POLYLINE
  8
LAYER-2
 66
  1
 70
  1
 62
  0
  0
VERTEX
  8
LAYER-2
 10
1.304641
 20
9.966858
 30
0.000000
  0
VERTEX
  8
LAYER-2
 10
1.265358
 20
10.123993
 30
0.000000
  0
VERTEX
  8
LAYER-2
 10
1.206432
 20
10.065068
 30
0.000000
  0
VERTEX
  8
LAYER-2
 10
1.147506
 20
10.006143
 30
0.000000
  0
VERTEX
  8
LAYER-2
 10
1.304641
 20
9.966858
 30
0.000000
  0
SEQEND
  8
LAYER-2
  0
POLYLINE
  8
LAYER-2
 66
  1
 70
  1
 62
  0
  0
VERTEX
  8
LAYER-2
 10
0.897888
 20
10.948846
 30
0.000000
  0
VERTEX
  8
LAYER-2
 10
0.814555
 20
10.809957
 30
0.000000
  0
VERTEX
  8
LAYER-2
 10
0.897889
 20
10.809957
 30
0.000000
  0
VERTEX
  8
LAYER-2
 10
0.981222
 20
10.809957
 30
0.000000
  0
VERTEX
  8
LAYER-2
 10
0.897888
 20
10.948846
 30
0.000000
  0
SEQEND
  8
LAYER-2
  0
TEXT
  8
LAYER-2
 62
  0
 10
0.888014
 20
11.319657
 30
0.000000
 40
0.250000
  1
45.0°
  0
POLYLINE
  8
LAYER-2
 66
  1
 70
  0
 62
  0
 10
10.410956
 20
14.481398
 30
0.000000
  0
VERTEX
  8
LAYER-2
 10
10.410956
 20
14.481398
 30
0.000000
  0
VERTEX
  8
LAYER-2
 10
11.370946
 20
14.738956
 30
0.000000
  0
SEQEND
  8
LAYER-2
  0
ARC
  8
LAYER-2
 62
  0
 10
10.430558
 20
14.449470
 30
0.000000
 40
0.037466
 50
121.547974
 51
283.694336
  0
POLYLINE
  8
LAYER-2
 66
  1
 70
  0
 62
  0
 10
11.396627
 20
14.669549
 30
0.000000
  0
VERTEX
  8
LAYER-2
 10
11.396627
 20
14.669549
 30
0.000000
  0
VERTEX
  8
LAYER-2
 10
10.439429
 20
14.413069
 30
0.000000
  0
SEQEND
  8
LAYER-2
  0
POLYLINE
  8
LAYER-2
 66
  1
 70
  0
 62
  0
 10
11.396525
 20
14.669605
 30
0.000000
  0
VERTEX
  8
LAYER-2
 10
11.396525
 20
14.669605
 30
0.000000
  0
VERTEX
  8
LAYER-2
 10
11.399992
 20
14.707536
 30
0.000000
  0
VERTEX
  8
LAYER-2
 10
11.378407
 20
14.736810
 30
0.000000
  0
VERTEX
  8
LAYER-2
 10
11.371020
 20
14.739176
 30
0.000000
  0
SEQEND
  8
LAYER-2
  0
POLYLINE
  8
LAYER-2
 66
  1
 70
  0
 62
  0
 10
10.450329
 20
14.459215
 30
0.000000
  0
VERTEX
  8
LAYER-2
 10
10.450329
 20
14.459215
 30
0.000000
  0
VERTEX
  8
LAYER-2
 10
10.432880
 20
14.480669
 30
0.000000
  0
VERTEX
  8
LAYER-2
 10
10.408987
 20
14.483366
 30
0.000000
  0
VERTEX
  8
LAYER-2
 10
10.392650
 20
14.465725
 30
0.000000
  0
VERTEX
  8
LAYER-2
 10
10.393437
 20
14.438083
 30
0.000000
  0
VERTEX
  8
LAYER-2
 10
10.410886
 20
14.416629
 30
0.000000
  0
VERTEX
  8
LAYER-2
 10
10.434778
 20
14.413932
 30
0.000000
  0
VERTEX
  8
LAYER-2
 10
10.451115
 20
14.431571
 30
0.000000
  0
VERTEX
  8
LAYER-2
 10
10.450329
 20
14.459215
 30
0.000000
  0
SEQEND
  8
LAYER-2
  0
POLYLINE
  8
LAYER-2
 66
  1
 70
  0
 62
  0
 10
6.844140
 20
14.684357
 30
0.000000
  0
VERTEX
  8
LAYER-2
 10
6.844140
 20
14.684357
 30
0.000000
  0
VERTEX
  8
LAYER-2
 10
6.301947
 20
14.829637
 30
0.000000
  0
SEQEND
  8
LAYER-2
  0
ARC
  8
LAYER-2
 62
  0
 10
6.840331
 20
14.670141
 30
0.000000
 40
0.014718
 50
0.000000
 51
74.998535
  0
POLYLINE
  8
LAYER-2
 66
  1
 70
  0
 62
  0
 10
7.022598
 20
14.625246
 30
0.000000
  0
VERTEX
  8
LAYER-2
 10
7.022598
 20
14.625246
 30
0.000000
  0
VERTEX
  8
LAYER-2
 10
7.022598
 20
13.203654
 30
0.000000
  0
SEQEND
  8
LAYER-2
  0
POLYLINE
  8
LAYER-2
 66
  1
 70
  0
 62
  0
 10
6.119160
 20
14.859434
 30
0.000000
  0
VERTEX
  8
LAYER-2
 10
6.119160
 20
14.859434
 30
0.000000
  0
VERTEX
  8
LAYER-2
 10
6.119160
 20
13.437842
 30
0.000000
  0
SEQEND
  8
LAYER-2
  0
ARC
  8
LAYER-2
 62
  0
 10
6.133878
 20
14.859434
 30
0.000000
 40
0.014718
 50
75.001892
 51
180.000000
  0
POLYLINE
  8
LAYER-2
 66
  1
 70
  0
 62
  0
 10
6.178294
 20
14.695251
 30
0.000000
  0
VERTEX
  8
LAYER-2
 10
6.178294
 20
14.695251
 30
0.000000
  0
VERTEX
  8
LAYER-2
 10
6.178294
 20
13.770410
 30
0.000000
  0
SEQEND
  8
LAYER-2
  0
ARC
  8
LAYER-2
 62
  0
 10
6.193011
 20
13.770410
 30
0.000000
 40
0.014718
 50
180.000000
 51
225.000000
  0
POLYLINE
  8
LAYER-2
 66
  1
 70
  0
 62
  0
 10
6.340912
 20
14.729321
 30
0.000000
  0
VERTEX
  8
LAYER-2
 10
6.340912
 20
14.729321
 30
0.000000
  0
VERTEX
  8
LAYER-2
 10
6.340912
 20
14.663562
 30
0.000000
  0
SEQEND
  8
LAYER-2
  0
ARC
  8
LAYER-2
 62
  0
 10
6.355629
 20
14.729321
 30
0.000000
 40
0.014718
 50
75.001892
 51
180.000000
  0
POLYLINE
  8
LAYER-2
 66
  1
 70
  0
 62
  0
 10
6.363908
 20
14.609919
 30
0.000000
  0
VERTEX
  8
LAYER-2
 10
6.363908
 20
14.609919
 30
0.000000
  0
VERTEX
  8
LAYER-2
 10
6.363908
 20
14.640459
 30
0.000000
  0
SEQEND
  8
LAYER-2
  0
ARC
  8
LAYER-2
 62
  0
 10
6.352870
 20
14.640459
 30
0.000000
 40
0.011038
 50
0.000000
 51
75.001312
  0
ARC
  8
LAYER-2
 62
  0
 10
6.349191
 20
14.609919
 30
0.000000
 40
0.014718
 50
255.001907
 51
0.000000
  0
POLYLINE
  8
LAYER-2
 66
  1
 70
  0
 62
  0
 10
6.769633
 20
14.525831
 30
0.000000
  0
VERTEX
  8
LAYER-2
 10
6.769633
 20
14.525831
 30
0.000000
  0
VERTEX
  8
LAYER-2
 10
6.769633
 20
14.493318
 30
0.000000
  0
SEQEND
  8
LAYER-2
  0
ARC
  8
LAYER-2
 62
  0
 10
6.780671
 20
14.525831
 30
0.000000
 40
0.011038
 50
75.001312
 51
180.000000
  0
POLYLINE
  8
LAYER-2
 66
  1
 70
  0
 62
  0
 10
6.800843
 20
14.613970
 30
0.000000
  0
VERTEX
  8
LAYER-2
 10
6.800843
 20
14.613970
 30
0.000000
  0
VERTEX
  8
LAYER-2
 10
6.800843
 20
14.546239
 30
0.000000
  0
SEQEND
  8
LAYER-2
  0
ARC
  8
LAYER-2
 62
  0
 10
6.789805
 20
14.546239
 30
0.000000
 40
0.011038
 50
255.001312
 51
0.000000
  0
ARC
  8
LAYER-2
 62
  0
 10
6.786125
 20
14.613970
 30
0.000000
 40
0.014718
 50
0.000000
 51
74.998535
  0
POLYLINE
  8
LAYER-2
 66
  1
 70
  0
 62
  0
 10
6.968391
 20
14.491433
 30
0.000000
  0
VERTEX
  8
LAYER-2
 10
6.968391
 20
14.491433
 30
0.000000
  0
VERTEX
  8
LAYER-2
 10
6.968391
 20
13.566996
 30
0.000000
  0
SEQEND
  8
LAYER-2
  0
ARC
  8
LAYER-2
 62
  0
 10
6.953673
 20
14.491433
 30
0.000000
 40
0.014718
 50
0.000000
 51
75.001892
  0
POLYLINE
  8
LAYER-2
 66
  1
 70
  0
 62
  0
 10
6.202933
 20
13.595125
 30
0.000000
  0
VERTEX
  8
LAYER-2
 10
6.202933
 20
13.595125
 30
0.000000
  0
VERTEX
  8
LAYER-2
 10
6.202933
 20
13.733579
 30
0.000000
  0
SEQEND
  8
LAYER-2
  0
POLYLINE
  8
LAYER-2
 66
  1
 70
  0
 62
  0
 10
6.935539
 20
13.411153
 30
0.000000
  0
VERTEX
  8
LAYER-2
 10
6.935539
 20
13.411153
 30
0.000000
  0
VERTEX
  8
LAYER-2
 10
6.935539
 20
13.535607
 30
0.000000
  0
SEQEND
  8
LAYER-2
  0
ARC
  8
LAYER-2
 62
  0
 10
6.950256
 20
13.535607
 30
0.000000
 40
0.014718
 50
104.998108
 51
180.000000
  0
POLYLINE
  8
LAYER-2
 66
  1
 70
  0
 62
  0
 10
6.419758
 20
13.446123
 30
0.000000
  0
VERTEX
  8
LAYER-2
 10
6.419758
 20
13.446123
 30
0.000000
  0
VERTEX
  8
LAYER-2
 10
6.419758
 20
13.365184
 30
0.000000
  0
SEQEND
  8
LAYER-2
  0
POLYLINE
  8
LAYER-2
 66
  1
 70
  0
 62
  0
 10
6.726925
 20
13.370154
 30
0.000000
  0
VERTEX
  8
LAYER-2
 10
6.726925
 20
13.370154
 30
0.000000
  0
VERTEX
  8
LAYER-2
 10
6.726925
 20
13.274991
 30
0.000000
  0
SEQEND
  8
LAYER-2
  0
POLYLINE
  8
LAYER-2
 66
  1
 70
  0
 62
  0
 10
6.359438
 20
14.743537
 30
0.000000
  0
VERTEX
  8
LAYER-2
 10
6.359438
 20
14.743537
 30
0.000000
  0
VERTEX
  8
LAYER-2
 10
6.789934
 20
14.628186
 30
0.000000
  0
SEQEND
  8
LAYER-2
  0
POLYLINE
  8
LAYER-2
 66
  1
 70
  0
 62
  0
 10
6.202933
 20
13.595127
 30
0.000000
  0
VERTEX
  8
LAYER-2
 10
6.202933
 20
13.595127
 30
0.000000
  0
VERTEX
  8
LAYER-2
 10
6.222620
 20
13.531267
 30
0.000000
  0
VERTEX
  8
LAYER-2
 10
6.267820
 20
13.478738
 30
0.000000
  0
VERTEX
  8
LAYER-2
 10
6.316273
 20
13.450577
 30
0.000000
  0
SEQEND
  8
LAYER-2
  0
POLYLINE
  8
LAYER-2
 66
  1
 70
  0
 62
  0
 10
6.316274
 20
13.450576
 30
0.000000
  0
VERTEX
  8
LAYER-2
 10
6.316274
 20
13.450576
 30
0.000000
  0
VERTEX
  8
LAYER-2
 10
6.363883
 20
13.453443
 30
0.000000
  0
VERTEX
  8
LAYER-2
 10
6.395118
 20
13.476858
 30
0.000000
  0
SEQEND
  8
LAYER-2
  0
POLYLINE
  8
LAYER-2
 66
  1
 70
  0
 62
  0
 10
6.840265
 20
13.319167
 30
0.000000
  0
VERTEX
  8
LAYER-2
 10
6.840265
 20
13.319167
 30
0.000000
  0
VERTEX
  8
LAYER-2
 10
6.878909
 20
13.334345
 30
0.000000
  0
VERTEX
  8
LAYER-2
 10
6.911375
 20
13.362092
 30
0.000000
  0
VERTEX
  8
LAYER-2
 10
6.930751
 20
13.400150
 30
0.000000
  0
VERTEX
  8
LAYER-2
 10
6.935539
 20
13.411153
 30
0.000000
  0
SEQEND
  8
LAYER-2
  0
POLYLINE
  8
LAYER-2
 66
  1
 70
  0
 62
  0
 10
6.751564
 20
13.384872
 30
0.000000
  0
VERTEX
  8
LAYER-2
 10
6.751564
 20
13.384872
 30
0.000000
  0
VERTEX
  8
LAYER-2
 10
6.771329
 20
13.352761
 30
0.000000
  0
VERTEX
  8
LAYER-2
 10
6.804450
 20
13.329592
 30
0.000000
  0
VERTEX
  8
LAYER-2
 10
6.840265
 20
13.319167
 30
0.000000
  0
SEQEND
  8
LAYER-2
  0
POLYLINE
  8
LAYER-2
 66
  1
 70
  0
 62
  0
 10
6.384031
 20
13.255107
 30
0.000000
  0
VERTEX
  8
LAYER-2
 10
6.384031
 20
13.255107
 30
0.000000
  0
VERTEX
  8
LAYER-2
 10
6.400064
 20
13.284420
 30
0.000000
  0
VERTEX
  8
LAYER-2
 10
6.406231
 20
13.316572
 30
0.000000
  0
VERTEX
  8
LAYER-2
 10
6.399625
 20
13.348635
 30
0.000000
  0
VERTEX
  8
LAYER-2
 10
6.399762
 20
13.350702
 30
0.000000
  0
SEQEND
  8
LAYER-2
  0
POLYLINE
  8
LAYER-2
 66
  1
 70
  0
 62
  0
 10
6.351999
 20
13.294527
 30
0.000000
  0
VERTEX
  8
LAYER-2
 10
6.351999
 20
13.294527
 30
0.000000
  0
VERTEX
  8
LAYER-2
 10
6.360955
 20
13.331188
 30
0.000000
  0
VERTEX
  8
LAYER-2
 10
6.344148
 20
13.363442
 30
0.000000
  0
VERTEX
  8
LAYER-2
 10
6.333193
 20
13.369197
 30
0.000000
  0
SEQEND
  8
LAYER-2
  0
POLYLINE
  8
LAYER-2
 66
  1
 70
  0
 62
  0
 10
6.260970
 20
13.388549
 30
0.000000
  0
VERTEX
  8
LAYER-2
 10
6.260970
 20
13.388549
 30
0.000000
  0
VERTEX
  8
LAYER-2
 10
6.250059
 20
13.349255
 30
0.000000
  0
VERTEX
  8
LAYER-2
 10
6.257588
 20
13.307711
 30
0.000000
  0
VERTEX
  8
LAYER-2
 10
6.276850
 20
13.276459
 30
0.000000
  0
SEQEND
  8
LAYER-2
  0
POLYLINE
  8
LAYER-2
 66
  1
 70
  0
 62
  0
 10
6.395118
 20
13.476858
 30
0.000000
  0
VERTEX
  8
LAYER-2
 10
6.395118
 20
13.476858
 30
0.000000
  0
VERTEX
  8
LAYER-2
 10
6.415446
 20
13.456529
 30
0.000000
  0
SEQEND
  8
LAYER-2
  0
ARC
  8
LAYER-2
 62
  0
 10
6.405040
 20
13.446123
 30
0.000000
 40
0.014718
 50
0.000000
 51
45.000000
  0
POLYLINE
  8
LAYER-2
 66
  1
 70
  0
 62
  0
 10
6.751564
 20
13.384872
 30
0.000000
  0
VERTEX
  8
LAYER-2
 10
6.751564
 20
13.384872
 30
0.000000
  0
VERTEX
  8
LAYER-2
 10
6.741643
 20
13.384872
 30
0.000000
  0
SEQEND
  8
LAYER-2
  0
ARC
  8
LAYER-2
 62
  0
 10
6.741643
 20
13.370154
 30
0.000000
 40
0.014718
 50
90.000000
 51
180.000000
  0
POLYLINE
  8
LAYER-2
 66
  1
 70
  0
 62
  0
 10
6.198622
 20
13.743985
 30
0.000000
  0
VERTEX
  8
LAYER-2
 10
6.198622
 20
13.743985
 30
0.000000
  0
VERTEX
  8
LAYER-2
 10
6.182605
 20
13.760004
 30
0.000000
  0
SEQEND
  8
LAYER-2
  0
ARC
  8
LAYER-2
 62
  0
 10
6.188215
 20
13.733579
 30
0.000000
 40
0.014718
 50
0.000000
 51
45.000000
  0
POLYLINE
  8
LAYER-2
 66
  1
 70
  0
 62
  0
 10
6.276850
 20
13.276459
 30
0.000000
  0
VERTEX
  8
LAYER-2
 10
6.276850
 20
13.276459
 30
0.000000
  0
VERTEX
  8
LAYER-2
 10
6.305026
 20
13.277773
 30
0.000000
  0
VERTEX
  8
LAYER-2
 10
6.311345
 20
13.300687
 30
0.000000
  0
SEQEND
  8
LAYER-2
  0
POLYLINE
  8
LAYER-2
 66
  1
 70
  0
 62
  0
 10
6.167386
 20
14.865692
 30
0.000000
  0
VERTEX
  8
LAYER-2
 10
6.167386
 20
14.865692
 30
0.000000
  0
VERTEX
  8
LAYER-2
 10
6.137686
 20
14.873650
 30
0.000000
  0
SEQEND
  8
LAYER-2
  0
ARC
  8
LAYER-2
 62
  0
 10
6.163576
 20
14.851476
 30
0.000000
 40
0.014718
 50
0.000000
 51
74.998535
  0
POLYLINE
  8
LAYER-2
 66
  1
 70
  0
 62
  0
 10
6.178294
 20
14.803368
 30
0.000000
  0
VERTEX
  8
LAYER-2
 10
6.178294
 20
14.803368
 30
0.000000
  0
VERTEX
  8
LAYER-2
 10
6.178294
 20
14.851476
 30
0.000000
  0
SEQEND
  8
LAYER-2
  0
ARC
  8
LAYER-2
 62
  0
 10
6.193011
 20
14.803368
 30
0.000000
 40
0.014718
 50
180.000000
 51
254.998535
  0
POLYLINE
  8
LAYER-2
 66
  1
 70
  0
 62
  0
 10
7.011690
 20
14.639462
 30
0.000000
  0
VERTEX
  8
LAYER-2
 10
7.011690
 20
14.639462
 30
0.000000
  0
VERTEX
  8
LAYER-2
 10
6.986918
 20
14.646101
 30
0.000000
  0
SEQEND
  8
LAYER-2
  0
ARC
  8
LAYER-2
 62
  0
 10
6.983109
 20
14.631883
 30
0.000000
 40
0.014718
 50
75.001892
 51
180.000000
  0
ARC
  8
LAYER-2
 62
  0
 10
7.007880
 20
14.625246
 30
0.000000
 40
0.014718
 50
0.000000
 51
75.001892
  0
POLYLINE
  8
LAYER-2
 66
  1
 70
  0
 62
  0
 10
6.968391
 20
14.631883
 30
0.000000
  0
VERTEX
  8
LAYER-2
 10
6.968391
 20
14.631883
 30
0.000000
  0
VERTEX
  8
LAYER-2
 10
6.968391
 20
14.599550
 30
0.000000
  0
SEQEND
  8
LAYER-2
  0
POLYLINE
  8
LAYER-2
 66
  1
 70
  0
 62
  0
 10
6.264893
 20
14.768870
 30
0.000000
  0
VERTEX
  8
LAYER-2
 10
6.264893
 20
14.768870
 30
0.000000
  0
VERTEX
  8
LAYER-2
 10
6.189202
 20
14.789151
 30
0.000000
  0
SEQEND
  8
LAYER-2
  0
ARC
  8
LAYER-2
 62
  0
 10
6.268703
 20
14.783086
 30
0.000000
 40
0.014718
 50
254.998535
 51
0.000000
  0
POLYLINE
  8
LAYER-2
 66
  1
 70
  0
 62
  0
 10
6.283421
 20
14.815420
 30
0.000000
  0
VERTEX
  8
LAYER-2
 10
6.283421
 20
14.815420
 30
0.000000
  0
VERTEX
  8
LAYER-2
 10
6.283421
 20
14.783086
 30
0.000000
  0
SEQEND
  8
LAYER-2
  0
ARC
  8
LAYER-2
 62
  0
 10
6.298139
 20
14.815420
 30
0.000000
 40
0.014718
 50
75.001892
 51
180.000000
  0
POLYLINE
  8
LAYER-2
 66
  1
 70
  0
 62
  0
 10
6.196822
 20
14.709468
 30
0.000000
  0
VERTEX
  8
LAYER-2
 10
6.196822
 20
14.709468
 30
0.000000
  0
VERTEX
  8
LAYER-2
 10
6.272512
 20
14.689185
 30
0.000000
  0
SEQEND
  8
LAYER-2
  0
ARC
  8
LAYER-2
 62
  0
 10
6.193011
 20
14.695251
 30
0.000000
 40
0.014718
 50
74.998535
 51
180.000000
  0
POLYLINE
  8
LAYER-2
 66
  1
 70
  0
 62
  0
 10
6.283421
 20
14.674969
 30
0.000000
  0
VERTEX
  8
LAYER-2
 10
6.283421
 20
14.674969
 30
0.000000
  0
VERTEX
  8
LAYER-2
 10
6.283421
 20
14.623600
 30
0.000000
  0
SEQEND
  8
LAYER-2
  0
ARC
  8
LAYER-2
 62
  0
 10
6.268703
 20
14.674969
 30
0.000000
 40
0.014718
 50
0.000000
 51
74.998535
  0
POLYLINE
  8
LAYER-2
 66
  1
 70
  0
 62
  0
 10
6.294330
 20
14.609382
 30
0.000000
  0
VERTEX
  8
LAYER-2
 10
6.294330
 20
14.609382
 30
0.000000
  0
VERTEX
  8
LAYER-2
 10
6.345382
 20
14.595703
 30
0.000000
  0
SEQEND
  8
LAYER-2
  0
ARC
  8
LAYER-2
 62
  0
 10
6.298139
 20
14.623600
 30
0.000000
 40
0.014718
 50
180.000000
 51
255.001907
  0
POLYLINE
  8
LAYER-2
 66
  1
 70
  0
 62
  0
 10
6.780542
 20
14.479102
 30
0.000000
  0
VERTEX
  8
LAYER-2
 10
6.780542
 20
14.479102
 30
0.000000
  0
VERTEX
  8
LAYER-2
 10
6.836522
 20
14.464103
 30
0.000000
  0
SEQEND
  8
LAYER-2
  0
ARC
  8
LAYER-2
 62
  0
 10
6.784351
 20
14.493318
 30
0.000000
 40
0.014718
 50
180.000000
 51
255.001907
  0
POLYLINE
  8
LAYER-2
 66
  1
 70
  0
 62
  0
 10
6.855049
 20
14.622031
 30
0.000000
  0
VERTEX
  8
LAYER-2
 10
6.855049
 20
14.622031
 30
0.000000
  0
VERTEX
  8
LAYER-2
 10
6.855049
 20
14.670141
 30
0.000000
  0
SEQEND
  8
LAYER-2
  0
ARC
  8
LAYER-2
 62
  0
 10
6.869768
 20
14.622031
 30
0.000000
 40
0.014718
 50
180.000000
 51
254.998535
  0
POLYLINE
  8
LAYER-2
 66
  1
 70
  0
 62
  0
 10
6.949863
 20
14.585334
 30
0.000000
  0
VERTEX
  8
LAYER-2
 10
6.949863
 20
14.585334
 30
0.000000
  0
VERTEX
  8
LAYER-2
 10
6.865958
 20
14.607815
 30
0.000000
  0
SEQEND
  8
LAYER-2
  0
ARC
  8
LAYER-2
 62
  0
 10
6.953673
 20
14.599550
 30
0.000000
 40
0.014718
 50
254.998535
 51
0.000000
  0
POLYLINE
  8
LAYER-2
 66
  1
 70
  0
 62
  0
 10
6.873576
 20
14.528132
 30
0.000000
  0
VERTEX
  8
LAYER-2
 10
6.873576
 20
14.528132
 30
0.000000
  0
VERTEX
  8
LAYER-2
 10
6.957482
 20
14.505649
 30
0.000000
  0
SEQEND
  8
LAYER-2
  0
ARC
  8
LAYER-2
 62
  0
 10
6.869768
 20
14.513916
 30
0.000000
 40
0.014718
 50
75.001892
 51
180.000000
  0
POLYLINE
  8
LAYER-2
 66
  1
 70
  0
 62
  0
 10
6.855049
 20
14.478319
 30
0.000000
  0
VERTEX
  8
LAYER-2
 10
6.855049
 20
14.478319
 30
0.000000
  0
VERTEX
  8
LAYER-2
 10
6.855049
 20
14.513916
 30
0.000000
  0
SEQEND
  8
LAYER-2
  0
ARC
  8
LAYER-2
 62
  0
 10
6.840331
 20
14.478319
 30
0.000000
 40
0.014718
 50
255.001907
 51
0.000000
  0
POLYLINE
  8
LAYER-2
 66
  1
 70
  0
 62
  0
 10
6.786948
 20
14.535577
 30
0.000000
  0
VERTEX
  8
LAYER-2
 10
6.786948
 20
14.535577
 30
0.000000
  0
VERTEX
  8
LAYER-2
 10
6.783528
 20
14.536492
 30
0.000000
  0
SEQEND
  8
LAYER-2
  0
POLYLINE
  8
LAYER-2
 66
  1
 70
  0
 62
  0
 10
6.884221
 20
13.221552
 30
0.000000
  0
VERTEX
  8
LAYER-2
 10
6.884221
 20
13.221552
 30
0.000000
  0
VERTEX
  8
LAYER-2
 10
7.004072
 20
13.189437
 30
0.000000
  0
SEQEND
  8
LAYER-2
  0
ARC
  8
LAYER-2
 62
  0
 10
7.007880
 20
13.203654
 30
0.000000
 40
0.014718
 50
255.001907
 51
0.000000
  0
POLYLINE
  8
LAYER-2
 66
  1
 70
  0
 62
  0
 10
6.260971
 20
13.388552
 30
0.000000
  0
VERTEX
  8
LAYER-2
 10
6.260971
 20
13.388552
 30
0.000000
  0
VERTEX
  8
LAYER-2
 10
6.130068
 20
13.423626
 30
0.000000
  0
SEQEND
  8
LAYER-2
  0
ARC
  8
LAYER-2
 62
  0
 10
6.133878
 20
13.437842
 30
0.000000
 40
0.014718
 50
180.000000
 51
254.998535
  0
POLYLINE
  8
LAYER-2
 66
  1
 70
  0
 62
  0
 10
6.957482
 20
13.552779
 30
0.000000
  0
VERTEX
  8
LAYER-2
 10
6.957482
 20
13.552779
 30
0.000000
  0
VERTEX
  8
LAYER-2
 10
6.946447
 20
13.549823
 30
0.000000
  0
SEQEND
  8
LAYER-2
  0
ARC
  8
LAYER-2
 62
  0
 10
6.953673
 20
13.566996
 30
0.000000
 40
0.014718
 50
284.998108
 51
0.000000
  0
POLYLINE
  8
LAYER-2
 66
  1
 70
  0
 62
  0
 10
6.399927
 20
13.351318
 30
0.000000
  0
VERTEX
  8
LAYER-2
 10
6.399927
 20
13.351318
 30
0.000000
  0
VERTEX
  8
LAYER-2
 10
6.401230
 20
13.350968
 30
0.000000
  0
SEQEND
  8
LAYER-2
  0
ARC
  8
LAYER-2
 62
  0
 10
6.405040
 20
13.365184
 30
0.000000
 40
0.014718
 50
254.998535
 51
0.000000
  0
POLYLINE
  8
LAYER-2
 66
  1
 70
  0
 62
  0
 10
6.333193
 20
13.369198
 30
0.000000
  0
VERTEX
  8
LAYER-2
 10
6.333193
 20
13.369198
 30
0.000000
  0
VERTEX
  8
LAYER-2
 10
6.327708
 20
13.370668
 30
0.000000
  0
SEQEND
  8
LAYER-2
  0
ARC
  8
LAYER-2
 62
  0
 10
6.349378
 20
13.337810
 30
0.000000
 40
0.053796
 50
167.036560
 51
225.834183
  0
ARC
  8
LAYER-2
 62
  0
 10
6.323878
 20
13.343192
 30
0.000000
 40
0.027742
 50
82.065369
 51
166.055542
  0
POLYLINE
  8
LAYER-2
 66
  1
 70
  0
 62
  0
 10
6.868381
 20
13.125551
 30
0.000000
  0
VERTEX
  8
LAYER-2
 10
6.868381
 20
13.125551
 30
0.000000
  0
VERTEX
  8
LAYER-2
 10
6.884413
 20
13.154864
 30
0.000000
  0
VERTEX
  8
LAYER-2
 10
6.890580
 20
13.187017
 30
0.000000
  0
VERTEX
  8
LAYER-2
 10
6.883973
 20
13.219081
 30
0.000000
  0
VERTEX
  8
LAYER-2
 10
6.884112
 20
13.221147
 30
0.000000
  0
SEQEND
  8
LAYER-2
  0
POLYLINE
  8
LAYER-2
 66
  1
 70
  0
 62
  0
 10
6.836348
 20
13.164974
 30
0.000000
  0
VERTEX
  8
LAYER-2
 10
6.836348
 20
13.164974
 30
0.000000
  0
VERTEX
  8
LAYER-2
 10
6.845303
 20
13.201635
 30
0.000000
  0
VERTEX
  8
LAYER-2
 10
6.828497
 20
13.233889
 30
0.000000
  0
VERTEX
  8
LAYER-2
 10
6.817542
 20
13.239644
 30
0.000000
  0
SEQEND
  8
LAYER-2
  0
POLYLINE
  8
LAYER-2
 66
  1
 70
  0
 62
  0
 10
6.745319
 20
13.258996
 30
0.000000
  0
VERTEX
  8
LAYER-2
 10
6.745319
 20
13.258996
 30
0.000000
  0
VERTEX
  8
LAYER-2
 10
6.734408
 20
13.219702
 30
0.000000
  0
VERTEX
  8
LAYER-2
 10
6.741937
 20
13.178158
 30
0.000000
  0
VERTEX
  8
LAYER-2
 10
6.761200
 20
13.146905
 30
0.000000
  0
SEQEND
  8
LAYER-2
  0
POLYLINE
  8
LAYER-2
 66
  1
 70
  0
 62
  0
 10
6.761200
 20
13.146905
 30
0.000000
  0
VERTEX
  8
LAYER-2
 10
6.761200
 20
13.146905
 30
0.000000
  0
VERTEX
  8
LAYER-2
 10
6.789376
 20
13.148220
 30
0.000000
  0
VERTEX
  8
LAYER-2
 10
6.795695
 20
13.171134
 30
0.000000
  0
SEQEND
  8
LAYER-2
  0
POLYLINE
  8
LAYER-2
 66
  1
 70
  0
 62
  0
 10
6.745319
 20
13.258768
 30
0.000000
  0
VERTEX
  8
LAYER-2
 10
6.745319
 20
13.258768
 30
0.000000
  0
VERTEX
  8
LAYER-2
 10
6.737832
 20
13.260774
 30
0.000000
  0
SEQEND
  8
LAYER-2
  0
ARC
  8
LAYER-2
 62
  0
 10
6.741643
 20
13.274991
 30
0.000000
 40
0.014718
 50
180.000000
 51
254.998535
  0
POLYLINE
  8
LAYER-2
 66
  1
 70
  0
 62
  0
 10
6.349094
 20
14.652900
 30
0.000000
  0
VERTEX
  8
LAYER-2
 10
6.349094
 20
14.652900
 30
0.000000
  0
VERTEX
  8
LAYER-2
 10
6.355727
 20
14.651123
 30
0.000000
  0
SEQEND
  8
LAYER-2
  0
ARC
  8
LAYER-2
 62
  0
 10
6.351950
 20
14.663562
 30
0.000000
 40
0.011038
 50
180.000000
 51
255.001312
  0
ARC
  8
LAYER-2
 62
  0
 10
6.373737
 20
13.279467
 30
0.000000
 40
0.026446
 50
145.282684
 51
292.906250
  0
ARC
  8
LAYER-2
 62
  0
 10
6.858061
 20
13.149891
 30
0.000000
 40
0.026437
 50
145.213287
 51
292.975128
  0
POLYLINE
  8
LAYER-2
 66
  1
 70
  0
 62
  0
 10
7.019312
 20
14.634281
 30
0.000000
  0
VERTEX
  8
LAYER-2
 10
7.019312
 20
14.634281
 30
0.000000
  0
VERTEX
  8
LAYER-2
 10
9.764112
 20
15.369748
 30
0.000000
  0
SEQEND
  8
LAYER-2
  0
POLYLINE
  8
LAYER-2
 66
  1
 70
  0
 62
  0
 10
7.011461
 20
13.188616
 30
0.000000
  0
VERTEX
  8
LAYER-2
 10
7.011461
 20
13.188616
 30
0.000000
  0
VERTEX
  8
LAYER-2
 10
9.767399
 20
13.927068
 30
0.000000
  0
SEQEND
  8
LAYER-2
  0
POLYLINE
  8
LAYER-2
 66
  1
 70
  0
 62
  0
 10
6.978256
 20
14.646023
 30
0.000000
  0
VERTEX
  8
LAYER-2
 10
6.978256
 20
14.646023
 30
0.000000
  0
VERTEX
  8
LAYER-2
 10
9.722260
 20
15.381280
 30
0.000000
  0
SEQEND
  8
LAYER-2
  0
POLYLINE
  8
LAYER-2
 66
  1
 70
  0
 62
  0
 10
6.850712
 20
14.680250
 30
0.000000
  0
VERTEX
  8
LAYER-2
 10
6.850712
 20
14.680250
 30
0.000000
  0
VERTEX
  8
LAYER-2
 10
9.594819
 20
15.415531
 30
0.000000
  0
SEQEND
  8
LAYER-2
  0
POLYLINE
  8
LAYER-2
 66
  1
 70
  0
 62
  0
 10
6.291270
 20
14.829637
 30
0.000000
  0
VERTEX
  8
LAYER-2
 10
6.291270
 20
14.829637
 30
0.000000
  0
VERTEX
  8
LAYER-2
 10
9.036142
 20
15.565123
 30
0.000000
  0
SEQEND
  8
LAYER-2
  0
POLYLINE
  8
LAYER-2
 66
  1
 70
  0
 62
  0
 10
6.176420
 20
14.859945
 30
0.000000
  0
VERTEX
  8
LAYER-2
 10
6.176420
 20
14.859945
 30
0.000000
  0
VERTEX
  8
LAYER-2
 10
8.922551
 20
15.595768
 30
0.000000
  0
SEQEND
  8
LAYER-2
  0
POLYLINE
  8
LAYER-2
 66
  1
 70
  0
 62
  0
 10
6.127830
 20
14.872830
 30
0.000000
  0
VERTEX
  8
LAYER-2
 10
6.127830
 20
14.872830
 30
0.000000
  0
VERTEX
  8
LAYER-2
 10
8.873823
 20
15.608615
 30
0.000000
  0
SEQEND
  8
LAYER-2
  0
POLYLINE
  8
LAYER-2
 66
  1
 70
  0
 62
  0
 10
6.356508
 20
14.597422
 30
0.000000
  0
VERTEX
  8
LAYER-2
 10
6.356508
 20
14.597422
 30
0.000000
  0
VERTEX
  8
LAYER-2
 10
6.628972
 20
14.670429
 30
0.000000
  0
SEQEND
  8
LAYER-2
  0
POLYLINE
  8
LAYER-2
 66
  1
 70
  0
 62
  0
 10
6.361475
 20
14.648658
 30
0.000000
  0
VERTEX
  8
LAYER-2
 10
6.361475
 20
14.648658
 30
0.000000
  0
VERTEX
  8
LAYER-2
 10
6.537036
 20
14.695699
 30
0.000000
  0
SEQEND
  8
LAYER-2
  0
POLYLINE
  8
LAYER-2
 66
  1
 70
  0
 62
  0
 10
6.340912
 20
14.661097
 30
0.000000
  0
VERTEX
  8
LAYER-2
 10
6.340912
 20
14.661097
 30
0.000000
  0
VERTEX
  8
LAYER-2
 10
6.502979
 20
14.704525
 30
0.000000
  0
SEQEND
  8
LAYER-2
  0
POLYLINE
  8
LAYER-2
 66
  1
 70
  0
 62
  0
 10
6.842730
 20
14.463535
 30
0.000000
  0
VERTEX
  8
LAYER-2
 10
6.842730
 20
14.463535
 30
0.000000
  0
VERTEX
  8
LAYER-2
 10
6.967143
 20
14.496872
 30
0.000000
  0
SEQEND
  8
LAYER-2
  0
POLYLINE
  8
LAYER-2
 66
  1
 70
  0
 62
  0
 10
6.201290
 20
13.740968
 30
0.000000
  0
VERTEX
  8
LAYER-2
 10
6.201290
 20
13.740968
 30
0.000000
  0
VERTEX
  8
LAYER-2
 10
6.969246
 20
13.946742
 30
0.000000
  0
SEQEND
  8
LAYER-2
  0
POLYLINE
  8
LAYER-2
 66
  1
 70
  0
 62
  0
 10
6.179935
 20
13.764664
 30
0.000000
  0
VERTEX
  8
LAYER-2
 10
6.179935
 20
13.764664
 30
0.000000
  0
VERTEX
  8
LAYER-2
 10
6.969490
 20
13.976223
 30
0.000000
  0
SEQEND
  8
LAYER-2
  0
POLYLINE
  8
LAYER-2
 66
  1
 70
  0
 62
  0
 10
6.395118
 20
13.476858
 30
0.000000
  0
VERTEX
  8
LAYER-2
 10
6.395118
 20
13.476858
 30
0.000000
  0
VERTEX
  8
LAYER-2
 10
6.968386
 20
13.630464
 30
0.000000
  0
SEQEND
  8
LAYER-2
  0
POLYLINE
  8
LAYER-2
 66
  1
 70
  0
 62
  0
 10
6.418116
 20
13.452691
 30
0.000000
  0
VERTEX
  8
LAYER-2
 10
6.418116
 20
13.452691
 30
0.000000
  0
VERTEX
  8
LAYER-2
 10
6.967344
 20
13.599856
 30
0.000000
  0
SEQEND
  8
LAYER-2
  0
POLYLINE
  8
LAYER-2
 66
  1
 70
  0
 62
  0
 10
6.411537
 20
13.351866
 30
0.000000
  0
VERTEX
  8
LAYER-2
 10
6.411537
 20
13.351866
 30
0.000000
  0
VERTEX
  8
LAYER-2
 10
6.935997
 20
13.492395
 30
0.000000
  0
SEQEND
  8
LAYER-2
  0
POLYLINE
  8
LAYER-2
 66
  1
 70
  0
 62
  0
 10
6.381568
 20
13.254286
 30
0.000000
  0
VERTEX
  8
LAYER-2
 10
6.381568
 20
13.254286
 30
0.000000
  0
VERTEX
  8
LAYER-2
 10
6.726788
 20
13.346787
 30
0.000000
  0
SEQEND
  8
LAYER-2
  0
POLYLINE
  8
LAYER-2
 66
  1
 70
  0
 62
  0
 10
6.311897
 20
13.299221
 30
0.000000
  0
VERTEX
  8
LAYER-2
 10
6.311897
 20
13.299221
 30
0.000000
  0
VERTEX
  8
LAYER-2
 10
6.361470
 20
13.312505
 30
0.000000
  0
SEQEND
  8
LAYER-2
  0
POLYLINE
  8
LAYER-2
 66
  1
 70
  0
 62
  0
 10
6.868381
 20
13.125551
 30
0.000000
  0
VERTEX
  8
LAYER-2
 10
6.868381
 20
13.125551
 30
0.000000
  0
VERTEX
  8
LAYER-2
 10
9.626961
 20
13.864710
 30
0.000000
  0
SEQEND
  8
LAYER-2
  0
POLYLINE
  8
LAYER-2
 66
  1
 70
  0
 62
  0
 10
6.297385
 20
13.269889
 30
0.000000
  0
VERTEX
  8
LAYER-2
 10
6.297385
 20
13.269889
 30
0.000000
  0
VERTEX
  8
LAYER-2
 10
6.346646
 20
13.283089
 30
0.000000
  0
SEQEND
  8
LAYER-2
  0
POLYLINE
  8
LAYER-2
 66
  1
 70
  0
 62
  0
 10
6.795694
 20
13.171132
 30
0.000000
  0
VERTEX
  8
LAYER-2
 10
6.795694
 20
13.171132
 30
0.000000
  0
VERTEX
  8
LAYER-2
 10
6.846016
 20
13.184617
 30
0.000000
  0
SEQEND
  8
LAYER-2
  0
POLYLINE
  8
LAYER-2
 66
  1
 70
  0
 62
  0
 10
6.781132
 20
13.140124
 30
0.000000
  0
VERTEX
  8
LAYER-2
 10
6.781132
 20
13.140124
 30
0.000000
  0
VERTEX
  8
LAYER-2
 10
6.832053
 20
13.153767
 30
0.000000
  0
SEQEND
  8
LAYER-2
  0
POLYLINE
  8
LAYER-2
 66
  1
 70
  0
 62
  0
 10
6.773740
 20
14.535521
 30
0.000000
  0
VERTEX
  8
LAYER-2
 10
6.773740
 20
14.535521
 30
0.000000
  0
VERTEX
  8
LAYER-2
 10
6.800670
 20
14.542736
 30
0.000000
  0
SEQEND
  8
LAYER-2
  0
POLYLINE
  8
LAYER-2
 66
  1
 70
  0
 62
  0
 10
9.767399
 20
13.927068
 30
0.000000
  0
VERTEX
  8
LAYER-2
 10
9.767399
 20
13.927068
 30
0.000000
  0
VERTEX
  8
LAYER-2
 10
9.767399
 20
15.359931
 30
0.000000
  0
SEQEND
  8
LAYER-2
  0
POLYLINE
  8
LAYER-2
 66
  1
 70
  0
 62
  0
 10
9.626428
 20
13.865239
 30
0.000000
  0
VERTEX
  8
LAYER-2
 10
9.626428
 20
13.865239
 30
0.000000
  0
VERTEX
  8
LAYER-2
 10
9.642604
 20
13.894458
 30
0.000000
  0
VERTEX
  8
LAYER-2
 10
9.645354
 20
13.894461
 30
0.000000
  0
SEQEND
  8
LAYER-2
  0
POLYLINE
  8
LAYER-2
 66
  1
 70
  0
 62
  0
 10
9.587302
 20
15.419483
 30
0.000000
  0
VERTEX
  8
LAYER-2
 10
9.587302
 20
15.419483
 30
0.000000
  0
VERTEX
  8
LAYER-2
 10
9.043761
 20
15.565123
 30
0.000000
  0
SEQEND
  8
LAYER-2
  0
ARC
  8
LAYER-2
 62
  0
 10
9.039953
 20
15.550907
 30
0.000000
 40
0.014718
 50
75.001892
 51
104.998108
  0
ARC
  8
LAYER-2
 62
  0
 10
9.583493
 20
15.405267
 30
0.000000
 40
0.014718
 50
0.000000
 51
75.001892
  0
ARC
  8
LAYER-2
 62
  0
 10
9.752682
 20
15.359931
 30
0.000000
 40
0.014718
 50
0.000000
 51
74.998535
  0
POLYLINE
  8
LAYER-2
 66
  1
 70
  0
 62
  0
 10
9.598210
 20
15.405267
 30
0.000000
  0
VERTEX
  8
LAYER-2
 10
9.598210
 20
15.405267
 30
0.000000
  0
VERTEX
  8
LAYER-2
 10
9.598210
 20
15.359260
 30
0.000000
  0
SEQEND
  8
LAYER-2
  0
POLYLINE
  8
LAYER-2
 66
  1
 70
  0
 62
  0
 10
9.756492
 20
15.374149
 30
0.000000
  0
VERTEX
  8
LAYER-2
 10
9.756492
 20
15.374149
 30
0.000000
  0
VERTEX
  8
LAYER-2
 10
9.729880
 20
15.381280
 30
0.000000
  0
SEQEND
  8
LAYER-2
  0
ARC
  8
LAYER-2
 62
  0
 10
9.726073
 20
15.367062
 30
0.000000
 40
0.014718
 50
74.998535
 51
105.001465
  0
POLYLINE
  8
LAYER-2
 66
  1
 70
  0
 62
  0
 10
8.881443
 20
15.608615
 30
0.000000
  0
VERTEX
  8
LAYER-2
 10
8.881443
 20
15.608615
 30
0.000000
  0
VERTEX
  8
LAYER-2
 10
8.915064
 20
15.599606
 30
0.000000
  0
SEQEND
  8
LAYER-2
  0
ARC
  8
LAYER-2
 62
  0
 10
8.877634
 20
15.594399
 30
0.000000
 40
0.014718
 50
74.998535
 51
105.001465
  0
POLYLINE
  8
LAYER-2
 66
  1
 70
  0
 62
  0
 10
8.925972
 20
15.585392
 30
0.000000
  0
VERTEX
  8
LAYER-2
 10
8.925972
 20
15.585392
 30
0.000000
  0
VERTEX
  8
LAYER-2
 10
8.925972
 20
15.542674
 30
0.000000
  0
SEQEND
  8
LAYER-2
  0
ARC
  8
LAYER-2
 62
  0
 10
8.911254
 20
15.585392
 30
0.000000
 40
0.014718
 50
0.000000
 51
74.998535
  0
ARC
  8
LAYER-2
 62
  0
 10
9.612929
 20
15.359260
 30
0.000000
 40
0.014718
 50
180.000000
 51
217.500793
  0
POLYLINE
  8
LAYER-2
 66
  1
 70
  0
 62
  0
 10
6.858091
 20
14.613073
 30
0.000000
  0
VERTEX
  8
LAYER-2
 10
6.858091
 20
14.613073
 30
0.000000
  0
VERTEX
  8
LAYER-2
 10
6.978445
 20
14.645321
 30
0.000000
  0
SEQEND
  8
LAYER-2
  0
ARC
  8
LAYER-2
 62
  0
 10
8.940689
 20
15.542674
 30
0.000000
 40
0.014718
 50
180.000000
 51
201.578766
  0
POLYLINE
  8
LAYER-2
 66
  1
 70
  0
 62
  0
 10
6.181336
 20
14.794408
 30
0.000000
  0
VERTEX
  8
LAYER-2
 10
6.181336
 20
14.794408
 30
0.000000
  0
VERTEX
  8
LAYER-2
 10
6.285885
 20
14.822423
 30
0.000000
  0
SEQEND
  8
LAYER-2
  0
POLYLINE
  8
LAYER-2
 66
  1
 70
  0
 62
  0
 10
11.884393
 20
16.053446
 30
0.000000
  0
VERTEX
  8
LAYER-2
 10
11.884393
 20
16.053446
 30
0.000000
  0
VERTEX
  8
LAYER-2
 10
11.342197
 20
16.198727
 30
0.000000
  0
SEQEND
  8
LAYER-2
  0
ARC
  8
LAYER-2
 62
  0
 10
11.880583
 20
16.039230
 30
0.000000
 40
0.014718
 50
0.000000
 51
74.998535
  0
POLYLINE
  8
LAYER-2
 66
  1
 70
  0
 62
  0
 10
12.062848
 20
15.994337
 30
0.000000
  0
VERTEX
  8
LAYER-2
 10
12.062848
 20
15.994337
 30
0.000000
  0
VERTEX
  8
LAYER-2
 10
12.062848
 20
14.572744
 30
0.000000
  0
SEQEND
  8
LAYER-2
  0
POLYLINE
  8
LAYER-2
 66
  1
 70
  0
 62
  0
 10
11.159410
 20
15.725072
 30
0.000000
  0
VERTEX
  8
LAYER-2
 10
11.159410
 20
15.725072
 30
0.000000
  0
VERTEX
  8
LAYER-2
 10
11.159410
 20
14.806932
 30
0.000000
  0
SEQEND
  8
LAYER-2
  0
ARC
  8
LAYER-2
 62
  0
 10
11.174128
 20
16.228526
 30
0.000000
 40
0.014718
 50
75.001892
 51
180.000000
  0
POLYLINE
  8
LAYER-2
 66
  1
 70
  0
 62
  0
 10
11.218545
 20
15.740918
 30
0.000000
  0
VERTEX
  8
LAYER-2
 10
11.218545
 20
15.740918
 30
0.000000
  0
VERTEX
  8
LAYER-2
 10
11.218545
 20
15.139501
 30
0.000000
  0
SEQEND
  8
LAYER-2
  0
ARC
  8
LAYER-2
 62
  0
 10
11.233262
 20
15.139501
 30
0.000000
 40
0.014718
 50
180.000000
 51
225.000000
  0
ARC
  8
LAYER-2
 62
  0
 10
11.395879
 20
16.098411
 30
0.000000
 40
0.014718
 50
75.001907
 51
127.495239
  0
POLYLINE
  8
LAYER-2
 66
  1
 70
  0
 62
  0
 10
11.809884
 20
15.894921
 30
0.000000
  0
VERTEX
  8
LAYER-2
 10
11.809884
 20
15.894921
 30
0.000000
  0
VERTEX
  8
LAYER-2
 10
11.809884
 20
15.862410
 30
0.000000
  0
SEQEND
  8
LAYER-2
  0
ARC
  8
LAYER-2
 62
  0
 10
11.820922
 20
15.894921
 30
0.000000
 40
0.011038
 50
155.840973
 51
180.000000
  0
POLYLINE
  8
LAYER-2
 66
  1
 70
  0
 62
  0
 10
11.398043
 20
16.113068
 30
0.000000
  0
VERTEX
  8
LAYER-2
 10
11.398043
 20
16.113068
 30
0.000000
  0
VERTEX
  8
LAYER-2
 10
10.435207
 20
15.855075
 30
0.000000
  0
SEQEND
  8
LAYER-2
  0
POLYLINE
  8
LAYER-2
 66
  1
 70
  0
 62
  0
 10
11.398043
 20
16.113068
 30
0.000000
  0
VERTEX
  8
LAYER-2
 10
11.398043
 20
16.113068
 30
0.000000
  0
VERTEX
  8
LAYER-2
 10
11.830186
 20
15.997277
 30
0.000000
  0
SEQEND
  8
LAYER-2
  0
ARC
  8
LAYER-2
 62
  0
 10
11.826376
 20
15.983059
 30
0.000000
 40
0.014718
 50
0.000000
 51
74.998535
  0
POLYLINE
  8
LAYER-2
 66
  1
 70
  0
 62
  0
 10
11.841093
 20
15.983059
 30
0.000000
  0
VERTEX
  8
LAYER-2
 10
11.841093
 20
15.983059
 30
0.000000
  0
VERTEX
  8
LAYER-2
 10
11.841093
 20
15.915329
 30
0.000000
  0
SEQEND
  8
LAYER-2
  0
ARC
  8
LAYER-2
 62
  0
 10
11.830055
 20
15.915329
 30
0.000000
 40
0.011038
 50
307.497528
 51
0.000000
  0
POLYLINE
  8
LAYER-2
 66
  1
 70
  0
 62
  0
 10
11.836776
 20
15.906572
 30
0.000000
  0
VERTEX
  8
LAYER-2
 10
11.836776
 20
15.906572
 30
0.000000
  0
VERTEX
  8
LAYER-2
 10
10.881088
 20
15.650497
 30
0.000000
  0
SEQEND
  8
LAYER-2
  0
POLYLINE
  8
LAYER-2
 66
  1
 70
  0
 62
  0
 10
10.881088
 20
15.650497
 30
0.000000
  0
VERTEX
  8
LAYER-2
 10
10.881088
 20
15.650497
 30
0.000000
  0
VERTEX
  8
LAYER-2
 10
10.435207
 20
15.769972
 30
0.000000
  0
SEQEND
  8
LAYER-2
  0
POLYLINE
  8
LAYER-2
 66
  1
 70
  0
 62
  0
 10
10.435207
 20
15.855075
 30
0.000000
  0
VERTEX
  8
LAYER-2
 10
10.435207
 20
15.855075
 30
0.000000
  0
VERTEX
  8
LAYER-2
 10
10.435207
 20
15.769972
 30
0.000000
  0
SEQEND
  8
LAYER-2
  0
POLYLINE
  8
LAYER-2
 66
  1
 70
  0
 62
  0
 10
12.008642
 20
15.860524
 30
0.000000
  0
VERTEX
  8
LAYER-2
 10
12.008642
 20
15.860524
 30
0.000000
  0
VERTEX
  8
LAYER-2
 10
12.008642
 20
14.936086
 30
0.000000
  0
SEQEND
  8
LAYER-2
  0
ARC
  8
LAYER-2
 62
  0
 10
11.993924
 20
15.860524
 30
0.000000
 40
0.014718
 50
0.000000
 51
75.001892
  0
POLYLINE
  8
LAYER-2
 66
  1
 70
  0
 62
  0
 10
11.243182
 20
14.964215
 30
0.000000
  0
VERTEX
  8
LAYER-2
 10
11.243182
 20
14.964215
 30
0.000000
  0
VERTEX
  8
LAYER-2
 10
11.243182
 20
15.102668
 30
0.000000
  0
SEQEND
  8
LAYER-2
  0
POLYLINE
  8
LAYER-2
 66
  1
 70
  0
 62
  0
 10
11.975790
 20
14.780243
 30
0.000000
  0
VERTEX
  8
LAYER-2
 10
11.975790
 20
14.780243
 30
0.000000
  0
VERTEX
  8
LAYER-2
 10
11.975790
 20
14.904695
 30
0.000000
  0
SEQEND
  8
LAYER-2
  0
ARC
  8
LAYER-2
 62
  0
 10
11.990507
 20
14.904695
 30
0.000000
 40
0.014718
 50
104.998108
 51
180.000000
  0
POLYLINE
  8
LAYER-2
 66
  1
 70
  0
 62
  0
 10
11.460008
 20
14.815213
 30
0.000000
  0
VERTEX
  8
LAYER-2
 10
11.460008
 20
14.815213
 30
0.000000
  0
VERTEX
  8
LAYER-2
 10
11.460008
 20
14.734273
 30
0.000000
  0
SEQEND
  8
LAYER-2
  0
POLYLINE
  8
LAYER-2
 66
  1
 70
  0
 62
  0
 10
11.767179
 20
14.739243
 30
0.000000
  0
VERTEX
  8
LAYER-2
 10
11.767179
 20
14.739243
 30
0.000000
  0
VERTEX
  8
LAYER-2
 10
11.767179
 20
14.644080
 30
0.000000
  0
SEQEND
  8
LAYER-2
  0
POLYLINE
  8
LAYER-2
 66
  1
 70
  0
 62
  0
 10
11.243182
 20
14.964216
 30
0.000000
  0
VERTEX
  8
LAYER-2
 10
11.243182
 20
14.964216
 30
0.000000
  0
VERTEX
  8
LAYER-2
 10
11.262871
 20
14.900357
 30
0.000000
  0
VERTEX
  8
LAYER-2
 10
11.308070
 20
14.847829
 30
0.000000
  0
VERTEX
  8
LAYER-2
 10
11.356522
 20
14.819667
 30
0.000000
  0
SEQEND
  8
LAYER-2
  0
POLYLINE
  8
LAYER-2
 66
  1
 70
  0
 62
  0
 10
11.356522
 20
14.819665
 30
0.000000
  0
VERTEX
  8
LAYER-2
 10
11.356522
 20
14.819665
 30
0.000000
  0
VERTEX
  8
LAYER-2
 10
11.404132
 20
14.822532
 30
0.000000
  0
VERTEX
  8
LAYER-2
 10
11.435366
 20
14.845947
 30
0.000000
  0
SEQEND
  8
LAYER-2
  0
POLYLINE
  8
LAYER-2
 66
  1
 70
  0
 62
  0
 10
11.880519
 20
14.688256
 30
0.000000
  0
VERTEX
  8
LAYER-2
 10
11.880519
 20
14.688256
 30
0.000000
  0
VERTEX
  8
LAYER-2
 10
11.919161
 20
14.703434
 30
0.000000
  0
VERTEX
  8
LAYER-2
 10
11.951627
 20
14.731181
 30
0.000000
  0
VERTEX
  8
LAYER-2
 10
11.971003
 20
14.769238
 30
0.000000
  0
VERTEX
  8
LAYER-2
 10
11.975790
 20
14.780243
 30
0.000000
  0
SEQEND
  8
LAYER-2
  0
POLYLINE
  8
LAYER-2
 66
  1
 70
  0
 62
  0
 10
11.791818
 20
14.753961
 30
0.000000
  0
VERTEX
  8
LAYER-2
 10
11.791818
 20
14.753961
 30
0.000000
  0
VERTEX
  8
LAYER-2
 10
11.811584
 20
14.721851
 30
0.000000
  0
VERTEX
  8
LAYER-2
 10
11.844704
 20
14.698683
 30
0.000000
  0
VERTEX
  8
LAYER-2
 10
11.880519
 20
14.688256
 30
0.000000
  0
SEQEND
  8
LAYER-2
  0
POLYLINE
  8
LAYER-2
 66
  1
 70
  0
 62
  0
 10
11.424280
 20
14.624196
 30
0.000000
  0
VERTEX
  8
LAYER-2
 10
11.424280
 20
14.624196
 30
0.000000
  0
VERTEX
  8
LAYER-2
 10
11.440314
 20
14.653509
 30
0.000000
  0
VERTEX
  8
LAYER-2
 10
11.446481
 20
14.685660
 30
0.000000
  0
VERTEX
  8
LAYER-2
 10
11.439874
 20
14.717724
 30
0.000000
  0
VERTEX
  8
LAYER-2
 10
11.440011
 20
14.719791
 30
0.000000
  0
SEQEND
  8
LAYER-2
  0
POLYLINE
  8
LAYER-2
 66
  1
 70
  0
 62
  0
 10
11.301220
 20
14.757640
 30
0.000000
  0
VERTEX
  8
LAYER-2
 10
11.301220
 20
14.757640
 30
0.000000
  0
VERTEX
  8
LAYER-2
 10
11.296326
 20
14.752124
 30
0.000000
  0
VERTEX
  8
LAYER-2
 10
11.293963
 20
14.744444
 30
0.000000
  0
VERTEX
  8
LAYER-2
 10
11.292177
 20
14.736610
 30
0.000000
  0
VERTEX
  8
LAYER-2
 10
11.290978
 20
14.728663
 30
0.000000
  0
VERTEX
  8
LAYER-2
 10
11.290372
 20
14.720652
 30
0.000000
  0
VERTEX
  8
LAYER-2
 10
11.292341
 20
14.718682
 30
0.000000
  0
SEQEND
  8
LAYER-2
  0
POLYLINE
  8
LAYER-2
 66
  1
 70
  0
 62
  0
 10
11.435368
 20
14.845947
 30
0.000000
  0
VERTEX
  8
LAYER-2
 10
11.435368
 20
14.845947
 30
0.000000
  0
VERTEX
  8
LAYER-2
 10
11.455695
 20
14.825619
 30
0.000000
  0
SEQEND
  8
LAYER-2
  0
ARC
  8
LAYER-2
 62
  0
 10
11.445290
 20
14.815213
 30
0.000000
 40
0.014718
 50
0.000000
 51
45.000000
  0
POLYLINE
  8
LAYER-2
 66
  1
 70
  0
 62
  0
 10
11.791818
 20
14.753961
 30
0.000000
  0
VERTEX
  8
LAYER-2
 10
11.791818
 20
14.753961
 30
0.000000
  0
VERTEX
  8
LAYER-2
 10
11.781896
 20
14.753961
 30
0.000000
  0
SEQEND
  8
LAYER-2
  0
ARC
  8
LAYER-2
 62
  0
 10
11.781896
 20
14.739243
 30
0.000000
 40
0.014718
 50
90.000000
 51
180.000000
  0
POLYLINE
  8
LAYER-2
 66
  1
 70
  0
 62
  0
 10
11.238870
 20
15.113076
 30
0.000000
  0
VERTEX
  8
LAYER-2
 10
11.238870
 20
15.113076
 30
0.000000
  0
VERTEX
  8
LAYER-2
 10
11.222856
 20
15.129093
 30
0.000000
  0
SEQEND
  8
LAYER-2
  0
ARC
  8
LAYER-2
 62
  0
 10
11.228464
 20
15.102668
 30
0.000000
 40
0.014718
 50
0.000000
 51
45.000000
  0
POLYLINE
  8
LAYER-2
 66
  1
 70
  0
 62
  0
 10
11.315164
 20
14.647878
 30
0.000000
  0
VERTEX
  8
LAYER-2
 10
11.315164
 20
14.647878
 30
0.000000
  0
VERTEX
  8
LAYER-2
 10
11.342945
 20
14.644928
 30
0.000000
  0
VERTEX
  8
LAYER-2
 10
11.353679
 20
14.657856
 30
0.000000
  0
SEQEND
  8
LAYER-2
  0
POLYLINE
  8
LAYER-2
 66
  1
 70
  0
 62
  0
 10
11.207635
 20
16.234784
 30
0.000000
  0
VERTEX
  8
LAYER-2
 10
11.207635
 20
16.234784
 30
0.000000
  0
VERTEX
  8
LAYER-2
 10
11.177936
 20
16.242740
 30
0.000000
  0
SEQEND
  8
LAYER-2
  0
ARC
  8
LAYER-2
 62
  0
 10
11.203827
 20
16.220567
 30
0.000000
 40
0.014718
 50
0.000000
 51
74.998535
  0
POLYLINE
  8
LAYER-2
 66
  1
 70
  0
 62
  0
 10
11.218545
 20
16.172458
 30
0.000000
  0
VERTEX
  8
LAYER-2
 10
11.218545
 20
16.172458
 30
0.000000
  0
VERTEX
  8
LAYER-2
 10
11.218545
 20
16.220567
 30
0.000000
  0
SEQEND
  8
LAYER-2
  0
ARC
  8
LAYER-2
 62
  0
 10
11.233262
 20
16.172458
 30
0.000000
 40
0.014718
 50
180.000000
 51
254.998535
  0
POLYLINE
  8
LAYER-2
 66
  1
 70
  0
 62
  0
 10
12.051941
 20
16.008552
 30
0.000000
  0
VERTEX
  8
LAYER-2
 10
12.051941
 20
16.008552
 30
0.000000
  0
VERTEX
  8
LAYER-2
 10
12.027169
 20
16.015191
 30
0.000000
  0
SEQEND
  8
LAYER-2
  0
ARC
  8
LAYER-2
 62
  0
 10
12.023359
 20
16.000973
 30
0.000000
 40
0.014718
 50
75.001892
 51
180.000000
  0
ARC
  8
LAYER-2
 62
  0
 10
12.048130
 20
15.994337
 30
0.000000
 40
0.014718
 50
0.000000
 51
75.001892
  0
POLYLINE
  8
LAYER-2
 66
  1
 70
  0
 62
  0
 10
12.008642
 20
16.000973
 30
0.000000
  0
VERTEX
  8
LAYER-2
 10
12.008642
 20
16.000973
 30
0.000000
  0
VERTEX
  8
LAYER-2
 10
12.008642
 20
15.968640
 30
0.000000
  0
SEQEND
  8
LAYER-2
  0
POLYLINE
  8
LAYER-2
 66
  1
 70
  0
 62
  0
 10
11.305144
 20
16.137960
 30
0.000000
  0
VERTEX
  8
LAYER-2
 10
11.305144
 20
16.137960
 30
0.000000
  0
VERTEX
  8
LAYER-2
 10
11.229452
 20
16.158242
 30
0.000000
  0
SEQEND
  8
LAYER-2
  0
ARC
  8
LAYER-2
 62
  0
 10
11.308951
 20
16.152176
 30
0.000000
 40
0.014718
 50
254.998535
 51
0.000000
  0
POLYLINE
  8
LAYER-2
 66
  1
 70
  0
 62
  0
 10
11.323671
 20
16.184511
 30
0.000000
  0
VERTEX
  8
LAYER-2
 10
11.323671
 20
16.184511
 30
0.000000
  0
VERTEX
  8
LAYER-2
 10
11.323671
 20
16.152176
 30
0.000000
  0
SEQEND
  8
LAYER-2
  0
ARC
  8
LAYER-2
 62
  0
 10
11.338389
 20
16.184511
 30
0.000000
 40
0.014718
 50
75.001892
 51
180.000000
  0
POLYLINE
  8
LAYER-2
 66
  1
 70
  0
 62
  0
 10
11.237071
 20
16.078557
 30
0.000000
  0
VERTEX
  8
LAYER-2
 10
11.237071
 20
16.078557
 30
0.000000
  0
VERTEX
  8
LAYER-2
 10
11.253160
 20
16.074246
 30
0.000000
  0
SEQEND
  8
LAYER-2
  0
ARC
  8
LAYER-2
 62
  0
 10
11.233262
 20
16.064341
 30
0.000000
 40
0.014718
 50
74.998535
 51
180.000000
  0
POLYLINE
  8
LAYER-2
 66
  1
 70
  0
 62
  0
 10
11.820793
 20
15.848192
 30
0.000000
  0
VERTEX
  8
LAYER-2
 10
11.820793
 20
15.848192
 30
0.000000
  0
VERTEX
  8
LAYER-2
 10
11.876774
 20
15.833193
 30
0.000000
  0
SEQEND
  8
LAYER-2
  0
ARC
  8
LAYER-2
 62
  0
 10
11.824602
 20
15.862410
 30
0.000000
 40
0.014718
 50
180.000000
 51
255.001907
  0
POLYLINE
  8
LAYER-2
 66
  1
 70
  0
 62
  0
 10
11.895300
 20
15.991123
 30
0.000000
  0
VERTEX
  8
LAYER-2
 10
11.895300
 20
15.991123
 30
0.000000
  0
VERTEX
  8
LAYER-2
 10
11.895300
 20
16.039230
 30
0.000000
  0
SEQEND
  8
LAYER-2
  0
ARC
  8
LAYER-2
 62
  0
 10
11.910020
 20
15.991123
 30
0.000000
 40
0.014718
 50
180.000000
 51
254.998535
  0
POLYLINE
  8
LAYER-2
 66
  1
 70
  0
 62
  0
 10
11.990111
 20
15.954424
 30
0.000000
  0
VERTEX
  8
LAYER-2
 10
11.990111
 20
15.954424
 30
0.000000
  0
VERTEX
  8
LAYER-2
 10
11.906210
 20
15.976905
 30
0.000000
  0
SEQEND
  8
LAYER-2
  0
ARC
  8
LAYER-2
 62
  0
 10
11.993924
 20
15.968640
 30
0.000000
 40
0.014718
 50
254.998535
 51
0.000000
  0
POLYLINE
  8
LAYER-2
 66
  1
 70
  0
 62
  0
 10
11.913829
 20
15.897222
 30
0.000000
  0
VERTEX
  8
LAYER-2
 10
11.913829
 20
15.897222
 30
0.000000
  0
VERTEX
  8
LAYER-2
 10
11.997734
 20
15.874741
 30
0.000000
  0
SEQEND
  8
LAYER-2
  0
ARC
  8
LAYER-2
 62
  0
 10
11.910020
 20
15.883006
 30
0.000000
 40
0.014718
 50
75.001892
 51
180.000000
  0
POLYLINE
  8
LAYER-2
 66
  1
 70
  0
 62
  0
 10
11.895300
 20
15.847409
 30
0.000000
  0
VERTEX
  8
LAYER-2
 10
11.895300
 20
15.847409
 30
0.000000
  0
VERTEX
  8
LAYER-2
 10
11.895300
 20
15.883006
 30
0.000000
  0
SEQEND
  8
LAYER-2
  0
ARC
  8
LAYER-2
 62
  0
 10
11.880583
 20
15.847409
 30
0.000000
 40
0.014718
 50
255.001907
 51
0.000000
  0
POLYLINE
  8
LAYER-2
 66
  1
 70
  0
 62
  0
 10
11.924471
 20
14.590642
 30
0.000000
  0
VERTEX
  8
LAYER-2
 10
11.924471
 20
14.590642
 30
0.000000
  0
VERTEX
  8
LAYER-2
 10
12.044323
 20
14.558526
 30
0.000000
  0
SEQEND
  8
LAYER-2
  0
ARC
  8
LAYER-2
 62
  0
 10
12.048130
 20
14.572744
 30
0.000000
 40
0.014718
 50
255.001907
 51
0.000000
  0
POLYLINE
  8
LAYER-2
 66
  1
 70
  0
 62
  0
 10
11.301220
 20
14.757640
 30
0.000000
  0
VERTEX
  8
LAYER-2
 10
11.301220
 20
14.757640
 30
0.000000
  0
VERTEX
  8
LAYER-2
 10
11.170320
 20
14.792714
 30
0.000000
  0
SEQEND
  8
LAYER-2
  0
ARC
  8
LAYER-2
 62
  0
 10
11.174128
 20
14.806932
 30
0.000000
 40
0.014718
 50
180.000000
 51
254.998535
  0
POLYLINE
  8
LAYER-2
 66
  1
 70
  0
 62
  0
 10
11.997734
 20
14.921868
 30
0.000000
  0
VERTEX
  8
LAYER-2
 10
11.997734
 20
14.921868
 30
0.000000
  0
VERTEX
  8
LAYER-2
 10
11.986698
 20
14.918913
 30
0.000000
  0
SEQEND
  8
LAYER-2
  0
ARC
  8
LAYER-2
 62
  0
 10
11.993924
 20
14.936086
 30
0.000000
 40
0.014718
 50
284.998108
 51
0.000000
  0
POLYLINE
  8
LAYER-2
 66
  1
 70
  0
 62
  0
 10
11.440176
 20
14.720408
 30
0.000000
  0
VERTEX
  8
LAYER-2
 10
11.440176
 20
14.720408
 30
0.000000
  0
VERTEX
  8
LAYER-2
 10
11.441482
 20
14.720059
 30
0.000000
  0
SEQEND
  8
LAYER-2
  0
ARC
  8
LAYER-2
 62
  0
 10
11.445290
 20
14.734273
 30
0.000000
 40
0.014718
 50
254.998535
 51
0.000000
  0
POLYLINE
  8
LAYER-2
 66
  1
 70
  0
 62
  0
 10
11.365540
 20
14.740404
 30
0.000000
  0
VERTEX
  8
LAYER-2
 10
11.365540
 20
14.740404
 30
0.000000
  0
VERTEX
  8
LAYER-2
 10
11.370946
 20
14.738956
 30
0.000000
  0
SEQEND
  8
LAYER-2
  0
POLYLINE
  8
LAYER-2
 66
  1
 70
  0
 62
  0
 10
11.908632
 20
14.494642
 30
0.000000
  0
VERTEX
  8
LAYER-2
 10
11.908632
 20
14.494642
 30
0.000000
  0
VERTEX
  8
LAYER-2
 10
11.924666
 20
14.523955
 30
0.000000
  0
VERTEX
  8
LAYER-2
 10
11.930833
 20
14.556107
 30
0.000000
  0
VERTEX
  8
LAYER-2
 10
11.924226
 20
14.588172
 30
0.000000
  0
VERTEX
  8
LAYER-2
 10
11.924363
 20
14.590237
 30
0.000000
  0
SEQEND
  8
LAYER-2
  0
POLYLINE
  8
LAYER-2
 66
  1
 70
  0
 62
  0
 10
11.876600
 20
14.534063
 30
0.000000
  0
VERTEX
  8
LAYER-2
 10
11.876600
 20
14.534063
 30
0.000000
  0
VERTEX
  8
LAYER-2
 10
11.885554
 20
14.570723
 30
0.000000
  0
VERTEX
  8
LAYER-2
 10
11.868748
 20
14.602978
 30
0.000000
  0
VERTEX
  8
LAYER-2
 10
11.857793
 20
14.608732
 30
0.000000
  0
SEQEND
  8
LAYER-2
  0
POLYLINE
  8
LAYER-2
 66
  1
 70
  0
 62
  0
 10
11.785572
 20
14.628087
 30
0.000000
  0
VERTEX
  8
LAYER-2
 10
11.785572
 20
14.628087
 30
0.000000
  0
VERTEX
  8
LAYER-2
 10
11.780661
 20
14.622526
 30
0.000000
  0
VERTEX
  8
LAYER-2
 10
11.778290
 20
14.614797
 30
0.000000
  0
VERTEX
  8
LAYER-2
 10
11.776502
 20
14.606913
 30
0.000000
  0
VERTEX
  8
LAYER-2
 10
11.775308
 20
14.598919
 30
0.000000
  0
VERTEX
  8
LAYER-2
 10
11.776683
 20
14.588888
 30
0.000000
  0
SEQEND
  8
LAYER-2
  0
POLYLINE
  8
LAYER-2
 66
  1
 70
  0
 62
  0
 10
11.798755
 20
14.519463
 30
0.000000
  0
VERTEX
  8
LAYER-2
 10
11.798755
 20
14.519463
 30
0.000000
  0
VERTEX
  8
LAYER-2
 10
11.826158
 20
14.514615
 30
0.000000
  0
VERTEX
  8
LAYER-2
 10
11.838147
 20
14.529721
 30
0.000000
  0
SEQEND
  8
LAYER-2
  0
POLYLINE
  8
LAYER-2
 66
  1
 70
  0
 62
  0
 10
11.785572
 20
14.627857
 30
0.000000
  0
VERTEX
  8
LAYER-2
 10
11.785572
 20
14.627857
 30
0.000000
  0
VERTEX
  8
LAYER-2
 10
11.778084
 20
14.629866
 30
0.000000
  0
SEQEND
  8
LAYER-2
  0
ARC
  8
LAYER-2
 62
  0
 10
11.781896
 20
14.644080
 30
0.000000
 40
0.014718
 50
180.000000
 51
254.998535
  0
ARC
  8
LAYER-2
 62
  0
 10
11.413990
 20
14.648556
 30
0.000000
 40
0.026446
 50
145.282684
 51
292.906250
  0
ARC
  8
LAYER-2
 62
  0
 10
11.898313
 20
14.518982
 30
0.000000
 40
0.026437
 50
145.214844
 51
292.973877
  0
POLYLINE
  8
LAYER-2
 66
  1
 70
  0
 62
  0
 10
12.059561
 20
16.003370
 30
0.000000
  0
VERTEX
  8
LAYER-2
 10
12.059561
 20
16.003370
 30
0.000000
  0
VERTEX
  8
LAYER-2
 10
14.804360
 20
16.738837
 30
0.000000
  0
SEQEND
  8
LAYER-2
  0
POLYLINE
  8
LAYER-2
 66
  1
 70
  0
 62
  0
 10
12.051710
 20
14.557707
 30
0.000000
  0
VERTEX
  8
LAYER-2
 10
12.051710
 20
14.557707
 30
0.000000
  0
VERTEX
  8
LAYER-2
 10
14.807648
 20
15.296158
 30
0.000000
  0
SEQEND
  8
LAYER-2
  0
POLYLINE
  8
LAYER-2
 66
  1
 70
  0
 62
  0
 10
12.018505
 20
16.015115
 30
0.000000
  0
VERTEX
  8
LAYER-2
 10
12.018505
 20
16.015115
 30
0.000000
  0
VERTEX
  8
LAYER-2
 10
14.762511
 20
16.750370
 30
0.000000
  0
SEQEND
  8
LAYER-2
  0
POLYLINE
  8
LAYER-2
 66
  1
 70
  0
 62
  0
 10
11.890963
 20
16.049340
 30
0.000000
  0
VERTEX
  8
LAYER-2
 10
11.890963
 20
16.049340
 30
0.000000
  0
VERTEX
  8
LAYER-2
 10
14.635066
 20
16.784620
 30
0.000000
  0
SEQEND
  8
LAYER-2
  0
POLYLINE
  8
LAYER-2
 66
  1
 70
  0
 62
  0
 10
11.331522
 20
16.198727
 30
0.000000
  0
VERTEX
  8
LAYER-2
 10
11.331522
 20
16.198727
 30
0.000000
  0
VERTEX
  8
LAYER-2
 10
14.076389
 20
16.934214
 30
0.000000
  0
SEQEND
  8
LAYER-2
  0
POLYLINE
  8
LAYER-2
 66
  1
 70
  0
 62
  0
 10
11.216672
 20
16.229034
 30
0.000000
  0
VERTEX
  8
LAYER-2
 10
11.216672
 20
16.229034
 30
0.000000
  0
VERTEX
  8
LAYER-2
 10
13.962799
 20
16.964861
 30
0.000000
  0
SEQEND
  8
LAYER-2
  0
POLYLINE
  8
LAYER-2
 66
  1
 70
  0
 62
  0
 10
11.168081
 20
16.241920
 30
0.000000
  0
VERTEX
  8
LAYER-2
 10
11.168081
 20
16.241920
 30
0.000000
  0
VERTEX
  8
LAYER-2
 10
13.914071
 20
16.977709
 30
0.000000
  0
SEQEND
  8
LAYER-2
  0
POLYLINE
  8
LAYER-2
 66
  1
 70
  0
 62
  0
 10
11.882980
 20
15.832626
 30
0.000000
  0
VERTEX
  8
LAYER-2
 10
11.882980
 20
15.832626
 30
0.000000
  0
VERTEX
  8
LAYER-2
 10
12.007392
 20
15.865963
 30
0.000000
  0
SEQEND
  8
LAYER-2
  0
POLYLINE
  8
LAYER-2
 66
  1
 70
  0
 62
  0
 10
11.241540
 20
15.110058
 30
0.000000
  0
VERTEX
  8
LAYER-2
 10
11.241540
 20
15.110058
 30
0.000000
  0
VERTEX
  8
LAYER-2
 10
12.009497
 20
15.315832
 30
0.000000
  0
SEQEND
  8
LAYER-2
  0
POLYLINE
  8
LAYER-2
 66
  1
 70
  0
 62
  0
 10
11.220186
 20
15.133752
 30
0.000000
  0
VERTEX
  8
LAYER-2
 10
11.220186
 20
15.133752
 30
0.000000
  0
VERTEX
  8
LAYER-2
 10
12.009737
 20
15.345311
 30
0.000000
  0
SEQEND
  8
LAYER-2
  0
POLYLINE
  8
LAYER-2
 66
  1
 70
  0
 62
  0
 10
11.435368
 20
14.845947
 30
0.000000
  0
VERTEX
  8
LAYER-2
 10
11.435368
 20
14.845947
 30
0.000000
  0
VERTEX
  8
LAYER-2
 10
12.008636
 20
14.999552
 30
0.000000
  0
SEQEND
  8
LAYER-2
  0
POLYLINE
  8
LAYER-2
 66
  1
 70
  0
 62
  0
 10
11.458366
 20
14.821781
 30
0.000000
  0
VERTEX
  8
LAYER-2
 10
11.458366
 20
14.821781
 30
0.000000
  0
VERTEX
  8
LAYER-2
 10
12.007594
 20
14.968947
 30
0.000000
  0
SEQEND
  8
LAYER-2
  0
POLYLINE
  8
LAYER-2
 66
  1
 70
  0
 62
  0
 10
11.451786
 20
14.720957
 30
0.000000
  0
VERTEX
  8
LAYER-2
 10
11.451786
 20
14.720957
 30
0.000000
  0
VERTEX
  8
LAYER-2
 10
11.976250
 20
14.861484
 30
0.000000
  0
SEQEND
  8
LAYER-2
  0
POLYLINE
  8
LAYER-2
 66
  1
 70
  0
 62
  0
 10
11.421819
 20
14.623376
 30
0.000000
  0
VERTEX
  8
LAYER-2
 10
11.421819
 20
14.623376
 30
0.000000
  0
VERTEX
  8
LAYER-2
 10
11.767038
 20
14.715876
 30
0.000000
  0
SEQEND
  8
LAYER-2
  0
POLYLINE
  8
LAYER-2
 66
  1
 70
  0
 62
  0
 10
11.908632
 20
14.494642
 30
0.000000
  0
VERTEX
  8
LAYER-2
 10
11.908632
 20
14.494642
 30
0.000000
  0
VERTEX
  8
LAYER-2
 10
14.667208
 20
15.233799
 30
0.000000
  0
SEQEND
  8
LAYER-2
  0
POLYLINE
  8
LAYER-2
 66
  1
 70
  0
 62
  0
 10
11.337633
 20
14.638977
 30
0.000000
  0
VERTEX
  8
LAYER-2
 10
11.337633
 20
14.638977
 30
0.000000
  0
VERTEX
  8
LAYER-2
 10
11.386896
 20
14.652179
 30
0.000000
  0
SEQEND
  8
LAYER-2
  0
POLYLINE
  8
LAYER-2
 66
  1
 70
  0
 62
  0
 10
11.821386
 20
14.509213
 30
0.000000
  0
VERTEX
  8
LAYER-2
 10
11.821386
 20
14.509213
 30
0.000000
  0
VERTEX
  8
LAYER-2
 10
11.872305
 20
14.522856
 30
0.000000
  0
SEQEND
  8
LAYER-2
  0
POLYLINE
  8
LAYER-2
 66
  1
 70
  0
 62
  0
 10
14.807648
 20
15.296158
 30
0.000000
  0
VERTEX
  8
LAYER-2
 10
14.807648
 20
15.296158
 30
0.000000
  0
VERTEX
  8
LAYER-2
 10
14.807648
 20
16.729021
 30
0.000000
  0
SEQEND
  8
LAYER-2
  0
POLYLINE
  8
LAYER-2
 66
  1
 70
  0
 62
  0
 10
14.666675
 20
15.234328
 30
0.000000
  0
VERTEX
  8
LAYER-2
 10
14.666675
 20
15.234328
 30
0.000000
  0
VERTEX
  8
LAYER-2
 10
14.682849
 20
15.263548
 30
0.000000
  0
VERTEX
  8
LAYER-2
 10
14.685601
 20
15.263550
 30
0.000000
  0
SEQEND
  8
LAYER-2
  0
POLYLINE
  8
LAYER-2
 66
  1
 70
  0
 62
  0
 10
14.627550
 20
16.788573
 30
0.000000
  0
VERTEX
  8
LAYER-2
 10
14.627550
 20
16.788573
 30
0.000000
  0
VERTEX
  8
LAYER-2
 10
14.084008
 20
16.934214
 30
0.000000
  0
SEQEND
  8
LAYER-2
  0
ARC
  8
LAYER-2
 62
  0
 10
14.080200
 20
16.919998
 30
0.000000
 40
0.014718
 50
75.001892
 51
104.998108
  0
ARC
  8
LAYER-2
 62
  0
 10
14.623742
 20
16.774356
 30
0.000000
 40
0.014718
 50
0.000000
 51
75.001892
  0
ARC
  8
LAYER-2
 62
  0
 10
14.792931
 20
16.729021
 30
0.000000
 40
0.014718
 50
0.000000
 51
74.998535
  0
POLYLINE
  8
LAYER-2
 66
  1
 70
  0
 62
  0
 10
14.638458
 20
16.774356
 30
0.000000
  0
VERTEX
  8
LAYER-2
 10
14.638458
 20
16.774356
 30
0.000000
  0
VERTEX
  8
LAYER-2
 10
14.638458
 20
16.728351
 30
0.000000
  0
SEQEND
  8
LAYER-2
  0
POLYLINE
  8
LAYER-2
 66
  1
 70
  0
 62
  0
 10
14.796739
 20
16.743239
 30
0.000000
  0
VERTEX
  8
LAYER-2
 10
14.796739
 20
16.743239
 30
0.000000
  0
VERTEX
  8
LAYER-2
 10
14.770128
 20
16.750370
 30
0.000000
  0
SEQEND
  8
LAYER-2
  0
ARC
  8
LAYER-2
 62
  0
 10
14.766320
 20
16.736152
 30
0.000000
 40
0.014718
 50
74.998535
 51
105.001465
  0
POLYLINE
  8
LAYER-2
 66
  1
 70
  0
 62
  0
 10
13.921690
 20
16.977709
 30
0.000000
  0
VERTEX
  8
LAYER-2
 10
13.921690
 20
16.977709
 30
0.000000
  0
VERTEX
  8
LAYER-2
 10
13.955314
 20
16.968699
 30
0.000000
  0
SEQEND
  8
LAYER-2
  0
ARC
  8
LAYER-2
 62
  0
 10
13.917882
 20
16.963491
 30
0.000000
 40
0.014718
 50
74.998535
 51
105.001465
  0
POLYLINE
  8
LAYER-2
 66
  1
 70
  0
 62
  0
 10
13.966219
 20
16.954481
 30
0.000000
  0
VERTEX
  8
LAYER-2
 10
13.966219
 20
16.954481
 30
0.000000
  0
VERTEX
  8
LAYER-2
 10
13.966219
 20
16.911767
 30
0.000000
  0
SEQEND
  8
LAYER-2
  0
ARC
  8
LAYER-2
 62
  0
 10
13.951501
 20
16.954481
 30
0.000000
 40
0.014718
 50
0.000000
 51
74.998535
  0
ARC
  8
LAYER-2
 62
  0
 10
14.653176
 20
16.728351
 30
0.000000
 40
0.014718
 50
180.000000
 51
217.500793
  0
POLYLINE
  8
LAYER-2
 66
  1
 70
  0
 62
  0
 10
11.898342
 20
15.982162
 30
0.000000
  0
VERTEX
  8
LAYER-2
 10
11.898342
 20
15.982162
 30
0.000000
  0
VERTEX
  8
LAYER-2
 10
12.018695
 20
16.014411
 30
0.000000
  0
SEQEND
  8
LAYER-2
  0
ARC
  8
LAYER-2
 62
  0
 10
13.980937
 20
16.911767
 30
0.000000
 40
0.014718
 50
180.000000
 51
201.578766
  0
POLYLINE
  8
LAYER-2
 66
  1
 70
  0
 62
  0
 10
11.221587
 20
16.163498
 30
0.000000
  0
VERTEX
  8
LAYER-2
 10
11.221587
 20
16.163498
 30
0.000000
  0
VERTEX
  8
LAYER-2
 10
11.326135
 20
16.191513
 30
0.000000
  0
SEQEND
  8
LAYER-2
  0
POLYLINE
  8
LAYER-2
 66
  1
 70
  0
 62
  0
 10
11.838054
 20
15.992020
 30
0.000000
  0
VERTEX
  8
LAYER-2
 10
11.838054
 20
15.992020
 30
0.000000
  0
VERTEX
  8
LAYER-2
 10
10.881088
 20
15.735602
 30
0.000000
  0
SEQEND
  8
LAYER-2
  0
POLYLINE
  8
LAYER-2
 66
  1
 70
  0
 62
  0
 10
10.881088
 20
15.735602
 30
0.000000
  0
VERTEX
  8
LAYER-2
 10
10.881088
 20
15.735602
 30
0.000000
  0
VERTEX
  8
LAYER-2
 10
10.881088
 20
15.650497
 30
0.000000
  0
SEQEND
  8
LAYER-2
  0
POLYLINE
  8
LAYER-2
 66
  1
 70
  0
 62
  0
 10
10.881088
 20
15.735602
 30
0.000000
  0
VERTEX
  8
LAYER-2
 10
10.881088
 20
15.735602
 30
0.000000
  0
VERTEX
  8
LAYER-2
 10
10.435207
 20
15.855075
 30
0.000000
  0
SEQEND
  8
LAYER-2
  0
POLYLINE
  8
LAYER-2
 66
  1
 70
  0
 62
  0
 10
11.159410
 20
16.228526
 30
0.000000
  0
VERTEX
  8
LAYER-2
 10
11.159410
 20
16.228526
 30
0.000000
  0
VERTEX
  8
LAYER-2
 10
11.159410
 20
16.049127
 30
0.000000
  0
SEQEND
  8
LAYER-2
  0
ARC
  8
LAYER-2
 62
  0
 10
11.363569
 20
14.708862
 30
0.000000
 40
0.031603
 50
86.422852
 51
133.433594
  0
POLYLINE
  8
LAYER-2
 66
  1
 70
  0
 62
  0
 10
11.858014
 20
14.609341
 30
0.000000
  0
VERTEX
  8
LAYER-2
 10
11.858014
 20
14.609341
 30
0.000000
  0
VERTEX
  8
LAYER-2
 10
11.850113
 20
14.611459
 30
0.000000
  0
SEQEND
  8
LAYER-2
  0
ARC
  8
LAYER-2
 62
  0
 10
11.848112
 20
14.580029
 30
0.000000
 40
0.031493
 50
86.356384
 51
135.645996
  0
POLYLINE
  8
LAYER-2
 66
  1
 70
  0
 62
  0
 10
6.817270
 20
13.239501
 30
0.000000
  0
VERTEX
  8
LAYER-2
 10
6.817270
 20
13.239501
 30
0.000000
  0
VERTEX
  8
LAYER-2
 10
6.811785
 20
13.240970
 30
0.000000
  0
SEQEND
  8
LAYER-2
  0
ARC
  8
LAYER-2
 62
  0
 10
6.833456
 20
13.208113
 30
0.000000
 40
0.053796
 50
167.036560
 51
225.834183
  0
ARC
  8
LAYER-2
 62
  0
 10
6.807956
 20
13.213495
 30
0.000000
 40
0.027742
 50
82.065369
 51
166.055542
  0
POLYLINE
  8
LAYER-2
 66
  1
 70
  0
 62
  0
 10
10.374969
 20
16.287708
 30
0.000000
  0
VERTEX
  8
LAYER-2
 10
10.374969
 20
16.287708
 30
0.000000
  0
VERTEX
  8
LAYER-2
 10
10.711516
 20
15.951160
 30
0.000000
  0
SEQEND
  8
LAYER-2
  0
POLYLINE
  8
LAYER-2
 66
  1
 70
  1
 62
  0
  0
VERTEX
  8
LAYER-2
 10
10.725436
 20
15.937241
 30
0.000000
  0
VERTEX
  8
LAYER-2
 10
10.568301
 20
15.976524
 30
0.000000
  0
VERTEX
  8
LAYER-2
 10
10.627226
 20
16.035450
 30
0.000000
  0
VERTEX
  8
LAYER-2
 10
10.686151
 20
16.094376
 30
0.000000
  0
VERTEX
  8
LAYER-2
 10
10.725436
 20
15.937241
 30
0.000000
  0
SEQEND
  8
LAYER-2
  0
POLYLINE
  8
LAYER-2
 66
  1
 70
  0
 62
  0
 10
12.000003
 20
13.991136
 30
0.000000
  0
VERTEX
  8
LAYER-2
 10
12.000003
 20
13.991136
 30
0.000000
  0
VERTEX
  8
LAYER-2
 10
11.452052
 20
14.401349
 30
0.000000
  0
SEQEND
  8
LAYER-2
  0
POLYLINE
  8
LAYER-2
 66
  1
 70
  1
 62
  0
  0
VERTEX
  8
LAYER-2
 10
11.436293
 20
14.413145
 30
0.000000
  0
VERTEX
  8
LAYER-2
 10
11.597418
 20
14.396620
 30
0.000000
  0
VERTEX
  8
LAYER-2
 10
11.547477
 20
14.329910
 30
0.000000
  0
VERTEX
  8
LAYER-2
 10
11.497536
 20
14.263199
 30
0.000000
  0
VERTEX
  8
LAYER-2
 10
11.436293
 20
14.413145
 30
0.000000
  0
SEQEND
  8
LAYER-2
  0
POLYLINE
  8
LAYER-2
 66
  1
 70
  0
 62
  0
 10
6.751564
 20
13.384872
 30
0.000000
  0
VERTEX
  8
LAYER-2
 10
6.751564
 20
13.384872
 30
0.000000
  0
VERTEX
  8
LAYER-2
 10
6.935004
 20
13.434024
 30
0.000000
  0
SEQEND
  8
LAYER-2
  0
POLYLINE
  8
LAYER-2
 66
  1
 70
  0
 62
  0
 10
11.396627
 20
14.669549
 30
0.000000
  0
VERTEX
  8
LAYER-2
 10
11.396627
 20
14.669549
 30
0.000000
  0
VERTEX
  8
LAYER-2
 10
11.392252
 20
14.663618
 30
0.000000
  0
SEQEND
  8
LAYER-2
  0
POLYLINE
  8
LAYER-2
 66
  1
 70
  0
 62
  0
 10
11.115100
 20
14.736776
 30
0.000000
  0
VERTEX
  8
LAYER-2
 10
11.115100
 20
14.736776
 30
0.000000
  0
VERTEX
  8
LAYER-2
 10
11.115100
 20
14.735908
 30
0.000000
  0
SEQEND
  8
LAYER-2
  0
POLYLINE
  8
LAYER-2
 66
  1
 70
  0
 62
  0
 10
10.894108
 20
14.352037
 30
0.000000
  0
VERTEX
  8
LAYER-2
 10
10.894108
 20
14.352037
 30
0.000000
  0
VERTEX
  8
LAYER-2
 10
11.854101
 20
14.609595
 30
0.000000
  0
SEQEND
  8
LAYER-2
  0
ARC
  8
LAYER-2
 62
  0
 10
10.913711
 20
14.320109
 30
0.000000
 40
0.037466
 50
121.547974
 51
283.694336
  0
POLYLINE
  8
LAYER-2
 66
  1
 70
  0
 62
  0
 10
11.879779
 20
14.540188
 30
0.000000
  0
VERTEX
  8
LAYER-2
 10
11.879779
 20
14.540188
 30
0.000000
  0
VERTEX
  8
LAYER-2
 10
10.922580
 20
14.283708
 30
0.000000
  0
SEQEND
  8
LAYER-2
  0
POLYLINE
  8
LAYER-2
 66
  1
 70
  0
 62
  0
 10
11.879679
 20
14.540244
 30
0.000000
  0
VERTEX
  8
LAYER-2
 10
11.879679
 20
14.540244
 30
0.000000
  0
VERTEX
  8
LAYER-2
 10
11.883146
 20
14.578176
 30
0.000000
  0
VERTEX
  8
LAYER-2
 10
11.861561
 20
14.607449
 30
0.000000
  0
VERTEX
  8
LAYER-2
 10
11.854174
 20
14.609816
 30
0.000000
  0
SEQEND
  8
LAYER-2
  0
POLYLINE
  8
LAYER-2
 66
  1
 70
  0
 62
  0
 10
10.933482
 20
14.329854
 30
0.000000
  0
VERTEX
  8
LAYER-2
 10
10.933482
 20
14.329854
 30
0.000000
  0
VERTEX
  8
LAYER-2
 10
10.916032
 20
14.351308
 30
0.000000
  0
VERTEX
  8
LAYER-2
 10
10.892140
 20
14.354006
 30
0.000000
  0
VERTEX
  8
LAYER-2
 10
10.875803
 20
14.336365
 30
0.000000
  0
VERTEX
  8
LAYER-2
 10
10.876589
 20
14.308723
 30
0.000000
  0
VERTEX
  8
LAYER-2
 10
10.894039
 20
14.287269
 30
0.000000
  0
VERTEX
  8
LAYER-2
 10
10.917931
 20
14.284571
 30
0.000000
  0
VERTEX
  8
LAYER-2
 10
10.934268
 20
14.302210
 30
0.000000
  0
VERTEX
  8
LAYER-2
 10
10.933482
 20
14.329854
 30
0.000000
  0
SEQEND
  8
LAYER-2
  0
POLYLINE
  8
LAYER-2
  6
LTYPE01
 66
  1
 70
  0
 62
  0
  6
LTYPE01
 10
11.401044
 20
16.114404
 30
0.000000
  0
VERTEX
  8
LAYER-2
  6
LTYPE01
 10
11.401044
 20
16.114404
 30
0.000000
  0
VERTEX
  8
LAYER-2
  6
LTYPE01
 10
12.356243
 20
16.370348
 30
0.000000
  0
SEQEND
  8
LAYER-2
  0
POLYLINE
  8
LAYER-2
  6
LTYPE01
 66
  1
 70
  0
 62
  0
  6
LTYPE01
 10
11.841054
 20
15.993354
 30
0.000000
  0
VERTEX
  8
LAYER-2
  6
LTYPE01
 10
11.841054
 20
15.993354
 30
0.000000
  0
VERTEX
  8
LAYER-2
  6
LTYPE01
 10
12.802128
 20
16.250873
 30
0.000000
  0
SEQEND
  8
LAYER-2
  0
POLYLINE
  8
LAYER-2
  6
LTYPE01
 66
  1
 70
  0
 62
  0
  6
LTYPE01
 10
11.839776
 20
15.907906
 30
0.000000
  0
VERTEX
  8
LAYER-2
  6
LTYPE01
 10
11.839776
 20
15.907906
 30
0.000000
  0
VERTEX
  8
LAYER-2
  6
LTYPE01
 10
12.802128
 20
16.165768
 30
0.000000
  0
SEQEND
  8
LAYER-2
  0
POLYLINE
  8
LAYER-2
  6
LTYPE01
 66
  1
 70
  0
 62
  0
  6
LTYPE01
 10
12.802128
 20
16.165768
 30
0.000000
  0
VERTEX
  8
LAYER-2
  6
LTYPE01
 10
12.802128
 20
16.165768
 30
0.000000
  0
VERTEX
  8
LAYER-2
  6
LTYPE01
 10
12.802128
 20
16.250873
 30
0.000000
  0
SEQEND
  8
LAYER-2
  0
POLYLINE
  8
LAYER-2
  6
LTYPE01
 66
  1
 70
  0
 62
  0
  6
LTYPE01
 10
12.802128
 20
16.250873
 30
0.000000
  0
VERTEX
  8
LAYER-2
  6
LTYPE01
 10
12.802128
 20
16.250873
 30
0.000000
  0
VERTEX
  8
LAYER-2
  6
LTYPE01
 10
12.356243
 20
16.370348
 30
0.000000
  0
SEQEND
  8
LAYER-2
  0
POLYLINE
  8
LAYER-2
  6
LTYPE01
 66
  1
 70
  0
 62
  0
  6
LTYPE01
 10
11.857174
 20
14.611152
 30
0.000000
  0
VERTEX
  8
LAYER-2
  6
LTYPE01
 10
11.857174
 20
14.611152
 30
0.000000
  0
VERTEX
  8
LAYER-2
  6
LTYPE01
 10
12.816016
 20
14.868073
 30
0.000000
  0
SEQEND
  8
LAYER-2
  0
POLYLINE
  8
LAYER-2
  6
LTYPE01
 66
  1
 70
  0
 62
  0
  6
LTYPE01
 10
11.882679
 20
14.541580
 30
0.000000
  0
VERTEX
  8
LAYER-2
  6
LTYPE01
 10
11.882679
 20
14.541580
 30
0.000000
  0
VERTEX
  8
LAYER-2
  6
LTYPE01
 10
12.842059
 20
14.798645
 30
0.000000
  0
SEQEND
  8
LAYER-2
  0
ARC
  8
LAYER-2
 62
  0
  6
LTYPE01
 10
12.817591
 20
14.829064
 30
0.000000
 40
0.039039
 50
308.811371
 51
92.311340
  0
TEXT
  8
LAYER-2
 62
  0
 10
2.277778
 20
13.213359
 30
0.000000
 40
0.208333
  1
Ruedecilla
 72
  5
 11
3.750000
 21
13.213359
 31
0.000000
  0
ENDSEC
  0
EOF
