  0
SECTION
  2
HEADER
999
MacDraft 5.0\0
  9
$ACADVER
  1
AC1006
  9
$CLAYER
  8
MERGEDLAYER-1
  9
$EXTMIN
 10
0.000000
 20
0.000000
  9
$EXTMAX
 10
10.645928
 20
8.103503
  9
$FASTZOOM
 70
0
  9
$FILLMODE
 70
1
  0
ENDSEC
  0
SECTION
  2
TABLES
  0
TABLE
  2
LTYPE
 70
16
  0
LTYPE
  2
CONTINUOUS
 70
64
  3
Solid Line
 72
65
 73
0
 40
0.000000
  0
LTYPE
  2
LTYPE01
 70
64
  3
CUSTOM
 72
65
 73
2
 40
0.076923
 49
0.057692
 49
-0.019231
  0
LTYPE
  2
LTYPE02
 70
64
  3
CUSTOM
 72
65
 73
2
 40
0.134615
 49
0.115385
 49
-0.019231
  0
LTYPE
  2
LTYPE03
 70
64
  3
CUSTOM
 72
65
 73
2
 40
0.259615
 49
0.230769
 49
-0.028846
  0
LTYPE
  2
LTYPE04
 70
64
  3
CUSTOM
 72
65
 73
2
 40
0.500000
 49
0.461538
 49
-0.038462
  0
LTYPE
  2
LTYPE05
 70
64
  3
CUSTOM
 72
65
 73
4
 40
0.105769
 49
0.057692
 49
-0.019231
 49
0.009615
 49
-0.019231
  0
LTYPE
  2
LTYPE06
 70
64
  3
CUSTOM
 72
65
 73
4
 40
0.163462
 49
0.115385
 49
-0.019231
 49
0.009615
 49
-0.019231
  0
LTYPE
  2
LTYPE07
 70
64
  3
CUSTOM
 72
65
 73
4
 40
0.307692
 49
0.230769
 49
-0.028846
 49
0.019231
 49
-0.028846
  0
LTYPE
  2
LTYPE08
 70
64
  3
CUSTOM
 72
65
 73
4
 40
0.557692
 49
0.461538
 49
-0.038462
 49
0.019231
 49
-0.038462
  0
LTYPE
  2
LTYPE09
 70
64
  3
CUSTOM
 72
65
 73
6
 40
0.134615
 49
0.057692
 49
-0.019231
 49
0.009615
 49
-0.019231
 49
0.009615
 49
-0.019231
  0
LTYPE
  2
LTYPE10
 70
64
  3
CUSTOM
 72
65
 73
6
 40
0.192308
 49
0.115385
 49
-0.019231
 49
0.009615
 49
-0.019231
 49
0.009615
 49
-0.019231
  0
LTYPE
  2
LTYPE11
 70
64
  3
CUSTOM
 72
65
 73
6
 40
0.346154
 49
0.230769
 49
-0.028846
 49
0.019231
 49
-0.019231
 49
0.019231
 49
-0.028846
  0
LTYPE
  2
LTYPE12
 70
64
  3
CUSTOM
 72
65
 73
6
 40
0.596154
 49
0.461538
 49
-0.038462
 49
0.019231
 49
-0.019231
 49
0.019231
 49
-0.038462
  0
LTYPE
  2
LTYPE13
 70
64
  3
CUSTOM
 72
65
 73
8
 40
0.221154
 49
0.115385
 49
-0.019231
 49
0.009615
 49
-0.019231
 49
0.009615
 49
-0.019231
 49
0.009615
 49
-0.019231
  0
LTYPE
  2
LTYPE14
 70
64
  3
CUSTOM
 72
65
 73
8
 40
0.384615
 49
0.230769
 49
-0.028846
 49
0.019231
 49
-0.019231
 49
0.019231
 49
-0.019231
 49
0.019231
 49
-0.028846
  0
LTYPE
  2
LTYPE15
 70
64
  3
CUSTOM
 72
65
 73
8
 40
0.653846
 49
0.461538
 49
-0.038462
 49
0.019231
 49
-0.028846
 49
0.019231
 49
-0.028846
 49
0.019231
 49
-0.038462
  0
ENDTAB
  0
TABLE
  2
LAYER
 70
1
  0
LAYER
  2
MERGEDLAYER-1
 70
0
 62
7
  6
CONTINUOUS
  0
ENDTAB
  0
ENDSEC
  0
SECTION
  2
BLOCKS
  0
ENDSEC
  0
SECTION
  2
ENTITIES
  0
POLYLINE
  8
MERGEDLAYER-1
 66
  1
 70
  0
 62
  7
 10
0.076923
 20
64.751099
 30
0.000000
  0
VERTEX
  8
MERGEDLAYER-1
 10
0.076923
 20
64.751099
 30
0.000000
  0
VERTEX
  8
MERGEDLAYER-1
 10
0.076923
 20
0.076928
 30
0.000000
  0
SEQEND
  8
MERGEDLAYER-1
  0
POLYLINE
  8
MERGEDLAYER-1
 66
  1
 70
  0
 62
  7
 10
0.076923
 20
64.751099
 30
0.000000
  0
VERTEX
  8
MERGEDLAYER-1
 10
0.076923
 20
64.751099
 30
0.000000
  0
VERTEX
  8
MERGEDLAYER-1
 10
85.059392
 20
64.751099
 30
0.000000
  0
SEQEND
  8
MERGEDLAYER-1
  0
POLYLINE
  8
MERGEDLAYER-1
 66
  1
 70
  0
 62
  7
 10
85.059392
 20
64.751099
 30
0.000000
  0
VERTEX
  8
MERGEDLAYER-1
 10
85.059392
 20
64.751099
 30
0.000000
  0
VERTEX
  8
MERGEDLAYER-1
 10
85.059392
 20
0.076928
 30
0.000000
  0
SEQEND
  8
MERGEDLAYER-1
  0
POLYLINE
  8
MERGEDLAYER-1
 66
  1
 70
  0
 62
  7
 10
0.076923
 20
0.076928
 30
0.000000
  0
VERTEX
  8
MERGEDLAYER-1
 10
0.076923
 20
0.076928
 30
0.000000
  0
VERTEX
  8
MERGEDLAYER-1
 10
85.059392
 20
0.076928
 30
0.000000
  0
SEQEND
  8
MERGEDLAYER-1
  0
POLYLINE
  8
MERGEDLAYER-1
 66
  1
 70
  0
 62
  7
 10
60.875089
 20
64.751099
 30
0.000000
  0
VERTEX
  8
MERGEDLAYER-1
 10
60.875089
 20
64.751099
 30
0.000000
  0
VERTEX
  8
MERGEDLAYER-1
 10
60.875089
 20
0.076928
 30
0.000000
  0
SEQEND
  8
MERGEDLAYER-1
  0
TEXT
  8
MERGEDLAYER-1
 62
  7
 10
56.383413
 20
63.154945
 30
0.000000
 40
0.634615
  1
NOT TO
 72
  5
 11
59.691106
 21
63.154945
 31
0.000000
  0
TEXT
  8
MERGEDLAYER-1
 62
  7
 10
56.383413
 20
62.231868
 30
0.000000
 40
0.634615
  1
SCALE
 72
  5
 11
59.383413
 21
62.231868
 31
0.000000
  0
POLYLINE
  8
MERGEDLAYER-1
 66
  1
 70
  1
 62
  7
  0
VERTEX
  8
MERGEDLAYER-1
 10
57.612769
 20
1.967867
 30
0.000000
  0
VERTEX
  8
MERGEDLAYER-1
 10
60.875089
 20
1.967867
 30
0.000000
  0
VERTEX
  8
MERGEDLAYER-1
 10
60.875089
 20
0.076928
 30
0.000000
  0
VERTEX
  8
MERGEDLAYER-1
 10
57.612769
 20
0.076928
 30
0.000000
  0
SEQEND
  8
MERGEDLAYER-1
  0
TEXT
  8
MERGEDLAYER-1
 62
  7
 10
57.537260
 20
2.154945
 30
0.000000
 40
0.750000
  1
BY:
 72
  5
 11
59.614183
 21
2.154945
 31
0.000000
  0
POLYLINE
  8
MERGEDLAYER-1
 66
  1
 70
  0
 62
  7
 10
13.769685
 20
16.991680
 30
0.000000
  0
VERTEX
  8
MERGEDLAYER-1
 10
13.769685
 20
16.991680
 30
0.000000
  0
VERTEX
  8
MERGEDLAYER-1
 10
14.239535
 20
16.991680
 30
0.000000
  0
SEQEND
  8
MERGEDLAYER-1
  0
POLYLINE
  8
MERGEDLAYER-1
 66
  1
 70
  0
 62
  7
 10
13.739683
 20
16.991774
 30
0.000000
  0
VERTEX
  8
MERGEDLAYER-1
 10
13.739683
 20
16.991774
 30
0.000000
  0
VERTEX
  8
MERGEDLAYER-1
 10
13.752714
 20
16.978746
 30
0.000000
  0
VERTEX
  8
MERGEDLAYER-1
 10
13.769683
 20
16.991680
 30
0.000000
  0
SEQEND
  8
MERGEDLAYER-1
  0
POLYLINE
  8
MERGEDLAYER-1
 66
  1
 70
  0
 62
  7
 10
13.739682
 20
16.991774
 30
0.000000
  0
VERTEX
  8
MERGEDLAYER-1
 10
13.739682
 20
16.991774
 30
0.000000
  0
VERTEX
  8
MERGEDLAYER-1
 10
12.693444
 20
16.991774
 30
0.000000
  0
SEQEND
  8
MERGEDLAYER-1
  0
POLYLINE
  8
MERGEDLAYER-1
 66
  1
 70
  0
 62
  7
 10
12.663442
 20
16.991774
 30
0.000000
  0
VERTEX
  8
MERGEDLAYER-1
 10
12.663442
 20
16.991774
 30
0.000000
  0
VERTEX
  8
MERGEDLAYER-1
 10
12.676474
 20
16.978746
 30
0.000000
  0
VERTEX
  8
MERGEDLAYER-1
 10
12.693443
 20
16.991774
 30
0.000000
  0
SEQEND
  8
MERGEDLAYER-1
  0
POLYLINE
  8
MERGEDLAYER-1
 66
  1
 70
  0
 62
  7
 10
12.663446
 20
16.991774
 30
0.000000
  0
VERTEX
  8
MERGEDLAYER-1
 10
12.663446
 20
16.991774
 30
0.000000
  0
VERTEX
  8
MERGEDLAYER-1
 10
11.628498
 20
16.991774
 30
0.000000
  0
SEQEND
  8
MERGEDLAYER-1
  0
POLYLINE
  8
MERGEDLAYER-1
 66
  1
 70
  0
 62
  7
 10
11.628498
 20
16.991774
 30
0.000000
  0
VERTEX
  8
MERGEDLAYER-1
 10
11.628498
 20
16.991774
 30
0.000000
  0
VERTEX
  8
MERGEDLAYER-1
 10
11.613498
 20
16.976778
 30
0.000000
  0
SEQEND
  8
MERGEDLAYER-1
  0
POLYLINE
  8
MERGEDLAYER-1
 66
  1
 70
  0
 62
  7
 10
11.693276
 20
16.896653
 30
0.000000
  0
VERTEX
  8
MERGEDLAYER-1
 10
11.693276
 20
16.896653
 30
0.000000
  0
VERTEX
  8
MERGEDLAYER-1
 10
11.613497
 20
16.976778
 30
0.000000
  0
SEQEND
  8
MERGEDLAYER-1
  0
POLYLINE
  8
MERGEDLAYER-1
 66
  1
 70
  0
 62
  7
 10
11.708278
 20
16.911649
 30
0.000000
  0
VERTEX
  8
MERGEDLAYER-1
 10
11.708278
 20
16.911649
 30
0.000000
  0
VERTEX
  8
MERGEDLAYER-1
 10
11.693277
 20
16.896653
 30
0.000000
  0
SEQEND
  8
MERGEDLAYER-1
  0
POLYLINE
  8
MERGEDLAYER-1
 66
  1
 70
  0
 62
  7
 10
11.752993
 20
16.911649
 30
0.000000
  0
VERTEX
  8
MERGEDLAYER-1
 10
11.752993
 20
16.911649
 30
0.000000
  0
VERTEX
  8
MERGEDLAYER-1
 10
11.708278
 20
16.911649
 30
0.000000
  0
SEQEND
  8
MERGEDLAYER-1
  0
POLYLINE
  8
MERGEDLAYER-1
 66
  1
 70
  0
 62
  7
 10
11.767992
 20
16.896653
 30
0.000000
  0
VERTEX
  8
MERGEDLAYER-1
 10
11.767992
 20
16.896653
 30
0.000000
  0
VERTEX
  8
MERGEDLAYER-1
 10
11.752993
 20
16.911649
 30
0.000000
  0
SEQEND
  8
MERGEDLAYER-1
  0
POLYLINE
  8
MERGEDLAYER-1
 66
  1
 70
  0
 62
  7
 10
11.767996
 20
16.819383
 30
0.000000
  0
VERTEX
  8
MERGEDLAYER-1
 10
11.767996
 20
16.819383
 30
0.000000
  0
VERTEX
  8
MERGEDLAYER-1
 10
11.767996
 20
16.896653
 30
0.000000
  0
SEQEND
  8
MERGEDLAYER-1
  0
POLYLINE
  8
MERGEDLAYER-1
 66
  1
 70
  0
 62
  7
 10
11.767991
 20
16.819383
 30
0.000000
  0
VERTEX
  8
MERGEDLAYER-1
 10
11.767991
 20
16.819383
 30
0.000000
  0
VERTEX
  8
MERGEDLAYER-1
 10
11.782991
 20
16.804387
 30
0.000000
  0
SEQEND
  8
MERGEDLAYER-1
  0
POLYLINE
  8
MERGEDLAYER-1
 66
  1
 70
  0
 62
  7
 10
11.852996
 20
16.804382
 30
0.000000
  0
VERTEX
  8
MERGEDLAYER-1
 10
11.852996
 20
16.804382
 30
0.000000
  0
VERTEX
  8
MERGEDLAYER-1
 10
11.782991
 20
16.804382
 30
0.000000
  0
SEQEND
  8
MERGEDLAYER-1
  0
POLYLINE
  8
MERGEDLAYER-1
 66
  1
 70
  0
 62
  7
 10
11.852996
 20
16.804387
 30
0.000000
  0
VERTEX
  8
MERGEDLAYER-1
 10
11.852996
 20
16.804387
 30
0.000000
  0
VERTEX
  8
MERGEDLAYER-1
 10
11.867996
 20
16.819383
 30
0.000000
  0
SEQEND
  8
MERGEDLAYER-1
  0
POLYLINE
  8
MERGEDLAYER-1
 66
  1
 70
  0
 62
  7
 10
11.867992
 20
16.896799
 30
0.000000
  0
VERTEX
  8
MERGEDLAYER-1
 10
11.867992
 20
16.896799
 30
0.000000
  0
VERTEX
  8
MERGEDLAYER-1
 10
11.867992
 20
16.819383
 30
0.000000
  0
SEQEND
  8
MERGEDLAYER-1
  0
POLYLINE
  8
MERGEDLAYER-1
 66
  1
 70
  0
 62
  7
 10
11.883000
 20
16.911795
 30
0.000000
  0
VERTEX
  8
MERGEDLAYER-1
 10
11.883000
 20
16.911795
 30
0.000000
  0
VERTEX
  8
MERGEDLAYER-1
 10
11.868000
 20
16.896799
 30
0.000000
  0
SEQEND
  8
MERGEDLAYER-1
  0
POLYLINE
  8
MERGEDLAYER-1
 66
  1
 70
  0
 62
  7
 10
11.928277
 20
16.911795
 30
0.000000
  0
VERTEX
  8
MERGEDLAYER-1
 10
11.928277
 20
16.911795
 30
0.000000
  0
VERTEX
  8
MERGEDLAYER-1
 10
11.883000
 20
16.911795
 30
0.000000
  0
SEQEND
  8
MERGEDLAYER-1
  0
POLYLINE
  8
MERGEDLAYER-1
 66
  1
 70
  0
 62
  7
 10
11.943277
 20
16.896799
 30
0.000000
  0
VERTEX
  8
MERGEDLAYER-1
 10
11.943277
 20
16.896799
 30
0.000000
  0
VERTEX
  8
MERGEDLAYER-1
 10
11.928277
 20
16.911795
 30
0.000000
  0
SEQEND
  8
MERGEDLAYER-1
  0
POLYLINE
  8
MERGEDLAYER-1
 66
  1
 70
  0
 62
  7
 10
11.943280
 20
16.679373
 30
0.000000
  0
VERTEX
  8
MERGEDLAYER-1
 10
11.943280
 20
16.679373
 30
0.000000
  0
VERTEX
  8
MERGEDLAYER-1
 10
11.943280
 20
16.896799
 30
0.000000
  0
SEQEND
  8
MERGEDLAYER-1
  0
POLYLINE
  8
MERGEDLAYER-1
 66
  1
 70
  0
 62
  7
 10
11.943281
 20
16.679373
 30
0.000000
  0
VERTEX
  8
MERGEDLAYER-1
 10
11.943281
 20
16.679373
 30
0.000000
  0
VERTEX
  8
MERGEDLAYER-1
 10
11.958281
 20
16.664372
 30
0.000000
  0
SEQEND
  8
MERGEDLAYER-1
  0
POLYLINE
  8
MERGEDLAYER-1
 66
  1
 70
  0
 62
  7
 10
12.008280
 20
16.664368
 30
0.000000
  0
VERTEX
  8
MERGEDLAYER-1
 10
12.008280
 20
16.664368
 30
0.000000
  0
VERTEX
  8
MERGEDLAYER-1
 10
11.958281
 20
16.664368
 30
0.000000
  0
SEQEND
  8
MERGEDLAYER-1
  0
POLYLINE
  8
MERGEDLAYER-1
 66
  1
 70
  0
 62
  7
 10
12.008280
 20
16.664372
 30
0.000000
  0
VERTEX
  8
MERGEDLAYER-1
 10
12.008280
 20
16.664372
 30
0.000000
  0
VERTEX
  8
MERGEDLAYER-1
 10
12.023279
 20
16.679373
 30
0.000000
  0
SEQEND
  8
MERGEDLAYER-1
  0
POLYLINE
  8
MERGEDLAYER-1
 66
  1
 70
  0
 62
  7
 10
12.023283
 20
16.896639
 30
0.000000
  0
VERTEX
  8
MERGEDLAYER-1
 10
12.023283
 20
16.896639
 30
0.000000
  0
VERTEX
  8
MERGEDLAYER-1
 10
12.023283
 20
16.679373
 30
0.000000
  0
SEQEND
  8
MERGEDLAYER-1
  0
POLYLINE
  8
MERGEDLAYER-1
 66
  1
 70
  0
 62
  7
 10
12.038283
 20
16.911635
 30
0.000000
  0
VERTEX
  8
MERGEDLAYER-1
 10
12.038283
 20
16.911635
 30
0.000000
  0
VERTEX
  8
MERGEDLAYER-1
 10
12.023284
 20
16.896639
 30
0.000000
  0
SEQEND
  8
MERGEDLAYER-1
  0
POLYLINE
  8
MERGEDLAYER-1
 66
  1
 70
  0
 62
  7
 10
12.231084
 20
16.911635
 30
0.000000
  0
VERTEX
  8
MERGEDLAYER-1
 10
12.231084
 20
16.911635
 30
0.000000
  0
VERTEX
  8
MERGEDLAYER-1
 10
12.038283
 20
16.911635
 30
0.000000
  0
SEQEND
  8
MERGEDLAYER-1
  0
POLYLINE
  8
MERGEDLAYER-1
 66
  1
 70
  0
 62
  7
 10
12.246084
 20
16.896639
 30
0.000000
  0
VERTEX
  8
MERGEDLAYER-1
 10
12.246084
 20
16.896639
 30
0.000000
  0
VERTEX
  8
MERGEDLAYER-1
 10
12.231084
 20
16.911635
 30
0.000000
  0
SEQEND
  8
MERGEDLAYER-1
  0
POLYLINE
  8
MERGEDLAYER-1
 66
  1
 70
  0
 62
  7
 10
12.371412
 20
16.896653
 30
0.000000
  0
VERTEX
  8
MERGEDLAYER-1
 10
12.371412
 20
16.896653
 30
0.000000
  0
VERTEX
  8
MERGEDLAYER-1
 10
12.246087
 20
16.896639
 30
0.000000
  0
SEQEND
  8
MERGEDLAYER-1
  0
POLYLINE
  8
MERGEDLAYER-1
 66
  1
 70
  0
 62
  7
 10
12.386412
 20
16.911649
 30
0.000000
  0
VERTEX
  8
MERGEDLAYER-1
 10
12.386412
 20
16.911649
 30
0.000000
  0
VERTEX
  8
MERGEDLAYER-1
 10
12.371412
 20
16.896653
 30
0.000000
  0
SEQEND
  8
MERGEDLAYER-1
  0
POLYLINE
  8
MERGEDLAYER-1
 66
  1
 70
  0
 62
  7
 10
12.386412
 20
16.911649
 30
0.000000
  0
VERTEX
  8
MERGEDLAYER-1
 10
12.386412
 20
16.911649
 30
0.000000
  0
VERTEX
  8
MERGEDLAYER-1
 10
12.436129
 20
16.911649
 30
0.000000
  0
SEQEND
  8
MERGEDLAYER-1
  0
POLYLINE
  8
MERGEDLAYER-1
 66
  1
 70
  0
 62
  7
 10
12.451130
 20
16.896653
 30
0.000000
  0
VERTEX
  8
MERGEDLAYER-1
 10
12.451130
 20
16.896653
 30
0.000000
  0
VERTEX
  8
MERGEDLAYER-1
 10
12.436129
 20
16.911649
 30
0.000000
  0
SEQEND
  8
MERGEDLAYER-1
  0
POLYLINE
  8
MERGEDLAYER-1
 66
  1
 70
  0
 62
  7
 10
12.451130
 20
16.819383
 30
0.000000
  0
VERTEX
  8
MERGEDLAYER-1
 10
12.451130
 20
16.819383
 30
0.000000
  0
VERTEX
  8
MERGEDLAYER-1
 10
12.451130
 20
16.896653
 30
0.000000
  0
SEQEND
  8
MERGEDLAYER-1
  0
POLYLINE
  8
MERGEDLAYER-1
 66
  1
 70
  0
 62
  7
 10
12.451131
 20
16.819383
 30
0.000000
  0
VERTEX
  8
MERGEDLAYER-1
 10
12.451131
 20
16.819383
 30
0.000000
  0
VERTEX
  8
MERGEDLAYER-1
 10
12.466131
 20
16.804387
 30
0.000000
  0
SEQEND
  8
MERGEDLAYER-1
  0
POLYLINE
  8
MERGEDLAYER-1
 66
  1
 70
  0
 62
  7
 10
12.466131
 20
16.804382
 30
0.000000
  0
VERTEX
  8
MERGEDLAYER-1
 10
12.466131
 20
16.804382
 30
0.000000
  0
VERTEX
  8
MERGEDLAYER-1
 10
12.536130
 20
16.804382
 30
0.000000
  0
SEQEND
  8
MERGEDLAYER-1
  0
POLYLINE
  8
MERGEDLAYER-1
 66
  1
 70
  0
 62
  7
 10
12.536130
 20
16.804387
 30
0.000000
  0
VERTEX
  8
MERGEDLAYER-1
 10
12.536130
 20
16.804387
 30
0.000000
  0
VERTEX
  8
MERGEDLAYER-1
 10
12.551131
 20
16.819383
 30
0.000000
  0
SEQEND
  8
MERGEDLAYER-1
  0
POLYLINE
  8
MERGEDLAYER-1
 66
  1
 70
  0
 62
  7
 10
12.551131
 20
16.896799
 30
0.000000
  0
VERTEX
  8
MERGEDLAYER-1
 10
12.551131
 20
16.896799
 30
0.000000
  0
VERTEX
  8
MERGEDLAYER-1
 10
12.551131
 20
16.819383
 30
0.000000
  0
SEQEND
  8
MERGEDLAYER-1
  0
POLYLINE
  8
MERGEDLAYER-1
 66
  1
 70
  0
 62
  7
 10
12.566127
 20
16.911795
 30
0.000000
  0
VERTEX
  8
MERGEDLAYER-1
 10
12.566127
 20
16.911795
 30
0.000000
  0
VERTEX
  8
MERGEDLAYER-1
 10
12.551126
 20
16.896799
 30
0.000000
  0
SEQEND
  8
MERGEDLAYER-1
  0
POLYLINE
  8
MERGEDLAYER-1
 66
  1
 70
  0
 62
  7
 10
12.616418
 20
16.911795
 30
0.000000
  0
VERTEX
  8
MERGEDLAYER-1
 10
12.616418
 20
16.911795
 30
0.000000
  0
VERTEX
  8
MERGEDLAYER-1
 10
12.566127
 20
16.911795
 30
0.000000
  0
SEQEND
  8
MERGEDLAYER-1
  0
POLYLINE
  8
MERGEDLAYER-1
 66
  1
 70
  0
 62
  7
 10
12.631417
 20
16.896799
 30
0.000000
  0
VERTEX
  8
MERGEDLAYER-1
 10
12.631417
 20
16.896799
 30
0.000000
  0
VERTEX
  8
MERGEDLAYER-1
 10
12.616418
 20
16.911795
 30
0.000000
  0
SEQEND
  8
MERGEDLAYER-1
  0
POLYLINE
  8
MERGEDLAYER-1
 66
  1
 70
  0
 62
  7
 10
12.631411
 20
16.679373
 30
0.000000
  0
VERTEX
  8
MERGEDLAYER-1
 10
12.631411
 20
16.679373
 30
0.000000
  0
VERTEX
  8
MERGEDLAYER-1
 10
12.631411
 20
16.896799
 30
0.000000
  0
SEQEND
  8
MERGEDLAYER-1
  0
POLYLINE
  8
MERGEDLAYER-1
 66
  1
 70
  0
 62
  7
 10
12.631413
 20
16.679373
 30
0.000000
  0
VERTEX
  8
MERGEDLAYER-1
 10
12.631413
 20
16.679373
 30
0.000000
  0
VERTEX
  8
MERGEDLAYER-1
 10
12.646414
 20
16.664372
 30
0.000000
  0
SEQEND
  8
MERGEDLAYER-1
  0
POLYLINE
  8
MERGEDLAYER-1
 66
  1
 70
  0
 62
  7
 10
12.646414
 20
16.664368
 30
0.000000
  0
VERTEX
  8
MERGEDLAYER-1
 10
12.646414
 20
16.664368
 30
0.000000
  0
VERTEX
  8
MERGEDLAYER-1
 10
12.711413
 20
16.664368
 30
0.000000
  0
SEQEND
  8
MERGEDLAYER-1
  0
POLYLINE
  8
MERGEDLAYER-1
 66
  1
 70
  0
 62
  7
 10
12.711413
 20
16.664372
 30
0.000000
  0
VERTEX
  8
MERGEDLAYER-1
 10
12.711413
 20
16.664372
 30
0.000000
  0
VERTEX
  8
MERGEDLAYER-1
 10
12.726413
 20
16.679373
 30
0.000000
  0
SEQEND
  8
MERGEDLAYER-1
  0
POLYLINE
  8
MERGEDLAYER-1
 66
  1
 70
  0
 62
  7
 10
12.726416
 20
16.679373
 30
0.000000
  0
VERTEX
  8
MERGEDLAYER-1
 10
12.726416
 20
16.679373
 30
0.000000
  0
VERTEX
  8
MERGEDLAYER-1
 10
12.726416
 20
16.881648
 30
0.000000
  0
SEQEND
  8
MERGEDLAYER-1
  0
POLYLINE
  8
MERGEDLAYER-1
 66
  1
 70
  0
 62
  7
 10
12.741419
 20
16.896644
 30
0.000000
  0
VERTEX
  8
MERGEDLAYER-1
 10
12.741419
 20
16.896644
 30
0.000000
  0
VERTEX
  8
MERGEDLAYER-1
 10
12.726419
 20
16.881648
 30
0.000000
  0
SEQEND
  8
MERGEDLAYER-1
  0
POLYLINE
  8
MERGEDLAYER-1
 66
  1
 70
  0
 62
  7
 10
12.741419
 20
16.896639
 30
0.000000
  0
VERTEX
  8
MERGEDLAYER-1
 10
12.741419
 20
16.896639
 30
0.000000
  0
VERTEX
  8
MERGEDLAYER-1
 10
13.864481
 20
16.896639
 30
0.000000
  0
SEQEND
  8
MERGEDLAYER-1
  0
POLYLINE
  8
MERGEDLAYER-1
 66
  1
 70
  0
 62
  7
 10
13.879481
 20
16.881648
 30
0.000000
  0
VERTEX
  8
MERGEDLAYER-1
 10
13.879481
 20
16.881648
 30
0.000000
  0
VERTEX
  8
MERGEDLAYER-1
 10
13.864481
 20
16.896644
 30
0.000000
  0
SEQEND
  8
MERGEDLAYER-1
  0
POLYLINE
  8
MERGEDLAYER-1
 66
  1
 70
  0
 62
  7
 10
13.879477
 20
16.609779
 30
0.000000
  0
VERTEX
  8
MERGEDLAYER-1
 10
13.879477
 20
16.609779
 30
0.000000
  0
VERTEX
  8
MERGEDLAYER-1
 10
13.879477
 20
16.881648
 30
0.000000
  0
SEQEND
  8
MERGEDLAYER-1
  0
POLYLINE
  8
MERGEDLAYER-1
 66
  1
 70
  0
 62
  7
 10
13.879478
 20
16.609779
 30
0.000000
  0
VERTEX
  8
MERGEDLAYER-1
 10
13.879478
 20
16.609779
 30
0.000000
  0
VERTEX
  8
MERGEDLAYER-1
 10
13.934479
 20
16.554786
 30
0.000000
  0
SEQEND
  8
MERGEDLAYER-1
  0
POLYLINE
  8
MERGEDLAYER-1
 66
  1
 70
  0
 62
  7
 10
13.998175
 20
16.554791
 30
0.000000
  0
VERTEX
  8
MERGEDLAYER-1
 10
13.998175
 20
16.554791
 30
0.000000
  0
VERTEX
  8
MERGEDLAYER-1
 10
13.934479
 20
16.554791
 30
0.000000
  0
SEQEND
  8
MERGEDLAYER-1
  0
POLYLINE
  8
MERGEDLAYER-1
 66
  1
 70
  0
 62
  7
 10
13.998175
 20
16.554786
 30
0.000000
  0
VERTEX
  8
MERGEDLAYER-1
 10
13.998175
 20
16.554786
 30
0.000000
  0
VERTEX
  8
MERGEDLAYER-1
 10
14.013174
 20
16.569787
 30
0.000000
  0
SEQEND
  8
MERGEDLAYER-1
  0
POLYLINE
  8
MERGEDLAYER-1
 66
  1
 70
  0
 62
  7
 10
14.013168
 20
16.579149
 30
0.000000
  0
VERTEX
  8
MERGEDLAYER-1
 10
14.013168
 20
16.579149
 30
0.000000
  0
VERTEX
  8
MERGEDLAYER-1
 10
14.013168
 20
16.569787
 30
0.000000
  0
SEQEND
  8
MERGEDLAYER-1
  0
POLYLINE
  8
MERGEDLAYER-1
 66
  1
 70
  0
 62
  7
 10
14.013174
 20
16.579149
 30
0.000000
  0
VERTEX
  8
MERGEDLAYER-1
 10
14.013174
 20
16.579149
 30
0.000000
  0
VERTEX
  8
MERGEDLAYER-1
 10
13.998175
 20
16.594144
 30
0.000000
  0
SEQEND
  8
MERGEDLAYER-1
  0
POLYLINE
  8
MERGEDLAYER-1
 66
  1
 70
  0
 62
  7
 10
13.998175
 20
16.594144
 30
0.000000
  0
VERTEX
  8
MERGEDLAYER-1
 10
13.998175
 20
16.594144
 30
0.000000
  0
VERTEX
  8
MERGEDLAYER-1
 10
13.949483
 20
16.594144
 30
0.000000
  0
SEQEND
  8
MERGEDLAYER-1
  0
POLYLINE
  8
MERGEDLAYER-1
 66
  1
 70
  0
 62
  7
 10
13.934482
 20
16.609140
 30
0.000000
  0
VERTEX
  8
MERGEDLAYER-1
 10
13.934482
 20
16.609140
 30
0.000000
  0
VERTEX
  8
MERGEDLAYER-1
 10
13.949483
 20
16.594140
 30
0.000000
  0
SEQEND
  8
MERGEDLAYER-1
  0
POLYLINE
  8
MERGEDLAYER-1
 66
  1
 70
  0
 62
  7
 10
13.934486
 20
16.609140
 30
0.000000
  0
VERTEX
  8
MERGEDLAYER-1
 10
13.934486
 20
16.609140
 30
0.000000
  0
VERTEX
  8
MERGEDLAYER-1
 10
13.934486
 20
16.665682
 30
0.000000
  0
SEQEND
  8
MERGEDLAYER-1
  0
POLYLINE
  8
MERGEDLAYER-1
 66
  1
 70
  0
 62
  7
 10
13.949483
 20
16.680683
 30
0.000000
  0
VERTEX
  8
MERGEDLAYER-1
 10
13.949483
 20
16.680683
 30
0.000000
  0
VERTEX
  8
MERGEDLAYER-1
 10
13.934482
 20
16.665682
 30
0.000000
  0
SEQEND
  8
MERGEDLAYER-1
  0
POLYLINE
  8
MERGEDLAYER-1
 66
  1
 70
  0
 62
  7
 10
13.949483
 20
16.680688
 30
0.000000
  0
VERTEX
  8
MERGEDLAYER-1
 10
13.949483
 20
16.680688
 30
0.000000
  0
VERTEX
  8
MERGEDLAYER-1
 10
13.998266
 20
16.680688
 30
0.000000
  0
SEQEND
  8
MERGEDLAYER-1
  0
POLYLINE
  8
MERGEDLAYER-1
 66
  1
 70
  0
 62
  7
 10
13.998266
 20
16.680683
 30
0.000000
  0
VERTEX
  8
MERGEDLAYER-1
 10
13.998266
 20
16.680683
 30
0.000000
  0
VERTEX
  8
MERGEDLAYER-1
 10
14.011299
 20
16.697651
 30
0.000000
  0
VERTEX
  8
MERGEDLAYER-1
 10
14.013267
 20
16.695697
 30
0.000000
  0
SEQEND
  8
MERGEDLAYER-1
  0
POLYLINE
  8
MERGEDLAYER-1
 66
  1
 70
  0
 62
  7
 10
14.013268
 20
16.695702
 30
0.000000
  0
VERTEX
  8
MERGEDLAYER-1
 10
14.013268
 20
16.695702
 30
0.000000
  0
VERTEX
  8
MERGEDLAYER-1
 10
14.013168
 20
16.765991
 30
0.000000
  0
SEQEND
  8
MERGEDLAYER-1
  0
POLYLINE
  8
MERGEDLAYER-1
 66
  1
 70
  0
 62
  7
 10
14.013174
 20
16.765991
 30
0.000000
  0
VERTEX
  8
MERGEDLAYER-1
 10
14.013174
 20
16.765991
 30
0.000000
  0
VERTEX
  8
MERGEDLAYER-1
 10
14.010466
 20
16.772588
 30
0.000000
  0
VERTEX
  8
MERGEDLAYER-1
 10
14.008334
 20
16.776762
 30
0.000000
  0
VERTEX
  8
MERGEDLAYER-1
 10
14.005015
 20
16.780076
 30
0.000000
  0
VERTEX
  8
MERGEDLAYER-1
 10
14.000838
 20
16.782203
 30
0.000000
  0
VERTEX
  8
MERGEDLAYER-1
 10
13.998175
 20
16.780968
 30
0.000000
  0
SEQEND
  8
MERGEDLAYER-1
  0
POLYLINE
  8
MERGEDLAYER-1
 66
  1
 70
  0
 62
  7
 10
13.998175
 20
16.780973
 30
0.000000
  0
VERTEX
  8
MERGEDLAYER-1
 10
13.998175
 20
16.780973
 30
0.000000
  0
VERTEX
  8
MERGEDLAYER-1
 10
13.949483
 20
16.780973
 30
0.000000
  0
SEQEND
  8
MERGEDLAYER-1
  0
POLYLINE
  8
MERGEDLAYER-1
 66
  1
 70
  0
 62
  7
 10
13.934482
 20
16.795964
 30
0.000000
  0
VERTEX
  8
MERGEDLAYER-1
 10
13.934482
 20
16.795964
 30
0.000000
  0
VERTEX
  8
MERGEDLAYER-1
 10
13.949483
 20
16.780964
 30
0.000000
  0
SEQEND
  8
MERGEDLAYER-1
  0
POLYLINE
  8
MERGEDLAYER-1
 66
  1
 70
  0
 62
  7
 10
13.934486
 20
16.795964
 30
0.000000
  0
VERTEX
  8
MERGEDLAYER-1
 10
13.934486
 20
16.795964
 30
0.000000
  0
VERTEX
  8
MERGEDLAYER-1
 10
13.934486
 20
16.921997
 30
0.000000
  0
SEQEND
  8
MERGEDLAYER-1
  0
POLYLINE
  8
MERGEDLAYER-1
 66
  1
 70
  0
 62
  7
 10
13.949483
 20
16.936993
 30
0.000000
  0
VERTEX
  8
MERGEDLAYER-1
 10
13.949483
 20
16.936993
 30
0.000000
  0
VERTEX
  8
MERGEDLAYER-1
 10
13.934482
 20
16.921997
 30
0.000000
  0
SEQEND
  8
MERGEDLAYER-1
  0
POLYLINE
  8
MERGEDLAYER-1
 66
  1
 70
  0
 62
  7
 10
14.239489
 20
16.936993
 30
0.000000
  0
VERTEX
  8
MERGEDLAYER-1
 10
14.239489
 20
16.936993
 30
0.000000
  0
VERTEX
  8
MERGEDLAYER-1
 10
13.949483
 20
16.936993
 30
0.000000
  0
SEQEND
  8
MERGEDLAYER-1
  0
POLYLINE
  8
MERGEDLAYER-1
 66
  1
 70
  0
 62
  7
 10
14.308490
 20
16.868004
 30
0.000000
  0
VERTEX
  8
MERGEDLAYER-1
 10
14.308490
 20
16.868004
 30
0.000000
  0
VERTEX
  8
MERGEDLAYER-1
 10
14.239489
 20
16.936993
 30
0.000000
  0
SEQEND
  8
MERGEDLAYER-1
  0
POLYLINE
  8
MERGEDLAYER-1
 66
  1
 70
  0
 62
  7
 10
14.308494
 20
16.868004
 30
0.000000
  0
VERTEX
  8
MERGEDLAYER-1
 10
14.308494
 20
16.868004
 30
0.000000
  0
VERTEX
  8
MERGEDLAYER-1
 10
14.308494
 20
16.795964
 30
0.000000
  0
SEQEND
  8
MERGEDLAYER-1
  0
POLYLINE
  8
MERGEDLAYER-1
 66
  1
 70
  0
 62
  7
 10
14.293492
 20
16.780964
 30
0.000000
  0
VERTEX
  8
MERGEDLAYER-1
 10
14.293492
 20
16.780964
 30
0.000000
  0
VERTEX
  8
MERGEDLAYER-1
 10
14.308493
 20
16.795964
 30
0.000000
  0
SEQEND
  8
MERGEDLAYER-1
  0
POLYLINE
  8
MERGEDLAYER-1
 66
  1
 70
  0
 62
  7
 10
14.293492
 20
16.780973
 30
0.000000
  0
VERTEX
  8
MERGEDLAYER-1
 10
14.293492
 20
16.780973
 30
0.000000
  0
VERTEX
  8
MERGEDLAYER-1
 10
14.244656
 20
16.780973
 30
0.000000
  0
SEQEND
  8
MERGEDLAYER-1
  0
POLYLINE
  8
MERGEDLAYER-1
 66
  1
 70
  0
 62
  7
 10
14.244656
 20
16.780968
 30
0.000000
  0
VERTEX
  8
MERGEDLAYER-1
 10
14.244656
 20
16.780968
 30
0.000000
  0
VERTEX
  8
MERGEDLAYER-1
 10
14.229657
 20
16.765968
 30
0.000000
  0
SEQEND
  8
MERGEDLAYER-1
  0
POLYLINE
  8
MERGEDLAYER-1
 66
  1
 70
  0
 62
  7
 10
14.229654
 20
16.765968
 30
0.000000
  0
VERTEX
  8
MERGEDLAYER-1
 10
14.229654
 20
16.765968
 30
0.000000
  0
VERTEX
  8
MERGEDLAYER-1
 10
14.229654
 20
16.695679
 30
0.000000
  0
SEQEND
  8
MERGEDLAYER-1
  0
POLYLINE
  8
MERGEDLAYER-1
 66
  1
 70
  0
 62
  7
 10
14.229657
 20
16.695679
 30
0.000000
  0
VERTEX
  8
MERGEDLAYER-1
 10
14.229657
 20
16.695679
 30
0.000000
  0
VERTEX
  8
MERGEDLAYER-1
 10
14.244656
 20
16.680683
 30
0.000000
  0
SEQEND
  8
MERGEDLAYER-1
  0
POLYLINE
  8
MERGEDLAYER-1
 66
  1
 70
  0
 62
  7
 10
14.244656
 20
16.680688
 30
0.000000
  0
VERTEX
  8
MERGEDLAYER-1
 10
14.244656
 20
16.680688
 30
0.000000
  0
VERTEX
  8
MERGEDLAYER-1
 10
14.293492
 20
16.680688
 30
0.000000
  0
SEQEND
  8
MERGEDLAYER-1
  0
POLYLINE
  8
MERGEDLAYER-1
 66
  1
 70
  0
 62
  7
 10
14.308493
 20
16.665682
 30
0.000000
  0
VERTEX
  8
MERGEDLAYER-1
 10
14.308493
 20
16.665682
 30
0.000000
  0
VERTEX
  8
MERGEDLAYER-1
 10
14.293492
 20
16.680683
 30
0.000000
  0
SEQEND
  8
MERGEDLAYER-1
  0
POLYLINE
  8
MERGEDLAYER-1
 66
  1
 70
  0
 62
  7
 10
14.308494
 20
16.665682
 30
0.000000
  0
VERTEX
  8
MERGEDLAYER-1
 10
14.308494
 20
16.665682
 30
0.000000
  0
VERTEX
  8
MERGEDLAYER-1
 10
14.308494
 20
16.609140
 30
0.000000
  0
SEQEND
  8
MERGEDLAYER-1
  0
POLYLINE
  8
MERGEDLAYER-1
 66
  1
 70
  0
 62
  7
 10
14.293492
 20
16.594140
 30
0.000000
  0
VERTEX
  8
MERGEDLAYER-1
 10
14.293492
 20
16.594140
 30
0.000000
  0
VERTEX
  8
MERGEDLAYER-1
 10
14.308493
 20
16.609140
 30
0.000000
  0
SEQEND
  8
MERGEDLAYER-1
  0
POLYLINE
  8
MERGEDLAYER-1
 66
  1
 70
  0
 62
  7
 10
14.293492
 20
16.594144
 30
0.000000
  0
VERTEX
  8
MERGEDLAYER-1
 10
14.293492
 20
16.594144
 30
0.000000
  0
VERTEX
  8
MERGEDLAYER-1
 10
14.244656
 20
16.594144
 30
0.000000
  0
SEQEND
  8
MERGEDLAYER-1
  0
POLYLINE
  8
MERGEDLAYER-1
 66
  1
 70
  0
 62
  7
 10
14.244656
 20
16.594144
 30
0.000000
  0
VERTEX
  8
MERGEDLAYER-1
 10
14.244656
 20
16.594144
 30
0.000000
  0
VERTEX
  8
MERGEDLAYER-1
 10
14.229657
 20
16.579149
 30
0.000000
  0
SEQEND
  8
MERGEDLAYER-1
  0
POLYLINE
  8
MERGEDLAYER-1
 66
  1
 70
  0
 62
  7
 10
14.229654
 20
16.579149
 30
0.000000
  0
VERTEX
  8
MERGEDLAYER-1
 10
14.229654
 20
16.579149
 30
0.000000
  0
VERTEX
  8
MERGEDLAYER-1
 10
14.229654
 20
16.569787
 30
0.000000
  0
SEQEND
  8
MERGEDLAYER-1
  0
POLYLINE
  8
MERGEDLAYER-1
 66
  1
 70
  0
 62
  7
 10
14.229657
 20
16.569787
 30
0.000000
  0
VERTEX
  8
MERGEDLAYER-1
 10
14.229657
 20
16.569787
 30
0.000000
  0
VERTEX
  8
MERGEDLAYER-1
 10
14.244656
 20
16.554786
 30
0.000000
  0
SEQEND
  8
MERGEDLAYER-1
  0
POLYLINE
  8
MERGEDLAYER-1
 66
  1
 70
  0
 62
  7
 10
14.244656
 20
16.554791
 30
0.000000
  0
VERTEX
  8
MERGEDLAYER-1
 10
14.244656
 20
16.554791
 30
0.000000
  0
VERTEX
  8
MERGEDLAYER-1
 10
14.308541
 20
16.554791
 30
0.000000
  0
SEQEND
  8
MERGEDLAYER-1
  0
POLYLINE
  8
MERGEDLAYER-1
 66
  1
 70
  0
 62
  7
 10
14.308541
 20
16.554786
 30
0.000000
  0
VERTEX
  8
MERGEDLAYER-1
 10
14.308541
 20
16.554786
 30
0.000000
  0
VERTEX
  8
MERGEDLAYER-1
 10
14.363542
 20
16.609779
 30
0.000000
  0
SEQEND
  8
MERGEDLAYER-1
  0
POLYLINE
  8
MERGEDLAYER-1
 66
  1
 70
  0
 62
  7
 10
14.363536
 20
16.609779
 30
0.000000
  0
VERTEX
  8
MERGEDLAYER-1
 10
14.363536
 20
16.609779
 30
0.000000
  0
VERTEX
  8
MERGEDLAYER-1
 10
14.363536
 20
16.867699
 30
0.000000
  0
SEQEND
  8
MERGEDLAYER-1
  0
POLYLINE
  8
MERGEDLAYER-1
 66
  1
 70
  0
 62
  7
 10
14.363536
 20
16.867699
 30
0.000000
  0
VERTEX
  8
MERGEDLAYER-1
 10
14.363536
 20
16.867699
 30
0.000000
  0
VERTEX
  8
MERGEDLAYER-1
 10
14.325248
 20
16.957332
 30
0.000000
  0
VERTEX
  8
MERGEDLAYER-1
 10
14.239535
 20
16.991680
 30
0.000000
  0
SEQEND
  8
MERGEDLAYER-1
  0
POLYLINE
  8
MERGEDLAYER-1
 66
  1
 70
  0
 62
  7
 10
11.693276
 20
15.462163
 30
0.000000
  0
VERTEX
  8
MERGEDLAYER-1
 10
11.693276
 20
15.462163
 30
0.000000
  0
VERTEX
  8
MERGEDLAYER-1
 10
11.693276
 20
16.896653
 30
0.000000
  0
SEQEND
  8
MERGEDLAYER-1
  0
POLYLINE
  8
MERGEDLAYER-1
 66
  1
 70
  0
 62
  7
 10
11.613497
 20
16.976778
 30
0.000000
  0
VERTEX
  8
MERGEDLAYER-1
 10
11.613497
 20
16.976778
 30
0.000000
  0
VERTEX
  8
MERGEDLAYER-1
 10
11.693276
 20
16.896653
 30
0.000000
  0
SEQEND
  8
MERGEDLAYER-1
  0
POLYLINE
  8
MERGEDLAYER-1
 66
  1
 70
  0
 62
  7
 10
11.613497
 20
16.194481
 30
0.000000
  0
VERTEX
  8
MERGEDLAYER-1
 10
11.613497
 20
16.194481
 30
0.000000
  0
VERTEX
  8
MERGEDLAYER-1
 10
11.613497
 20
16.976778
 30
0.000000
  0
SEQEND
  8
MERGEDLAYER-1
  0
POLYLINE
  8
MERGEDLAYER-1
 66
  1
 70
  0
 62
  7
 10
11.613497
 20
16.164480
 30
0.000000
  0
VERTEX
  8
MERGEDLAYER-1
 10
11.613497
 20
16.164480
 30
0.000000
  0
VERTEX
  8
MERGEDLAYER-1
 10
11.626528
 20
16.181448
 30
0.000000
  0
VERTEX
  8
MERGEDLAYER-1
 10
11.613497
 20
16.194477
 30
0.000000
  0
SEQEND
  8
MERGEDLAYER-1
  0
POLYLINE
  8
MERGEDLAYER-1
 66
  1
 70
  0
 62
  7
 10
11.613497
 20
16.164490
 30
0.000000
  0
VERTEX
  8
MERGEDLAYER-1
 10
11.613497
 20
16.164490
 30
0.000000
  0
VERTEX
  8
MERGEDLAYER-1
 10
11.613497
 20
15.382038
 30
0.000000
  0
SEQEND
  8
MERGEDLAYER-1
  0
POLYLINE
  8
MERGEDLAYER-1
 66
  1
 70
  0
 62
  7
 10
11.628498
 20
15.367037
 30
0.000000
  0
VERTEX
  8
MERGEDLAYER-1
 10
11.628498
 20
15.367037
 30
0.000000
  0
VERTEX
  8
MERGEDLAYER-1
 10
12.663446
 20
15.367037
 30
0.000000
  0
SEQEND
  8
MERGEDLAYER-1
  0
POLYLINE
  8
MERGEDLAYER-1
 66
  1
 70
  0
 62
  7
 10
13.769685
 20
15.366577
 30
0.000000
  0
VERTEX
  8
MERGEDLAYER-1
 10
13.769685
 20
15.366577
 30
0.000000
  0
VERTEX
  8
MERGEDLAYER-1
 10
14.239535
 20
15.366577
 30
0.000000
  0
SEQEND
  8
MERGEDLAYER-1
  0
POLYLINE
  8
MERGEDLAYER-1
 66
  1
 70
  0
 62
  7
 10
13.769683
 20
15.366572
 30
0.000000
  0
VERTEX
  8
MERGEDLAYER-1
 10
13.769683
 20
15.366572
 30
0.000000
  0
VERTEX
  8
MERGEDLAYER-1
 10
13.752620
 20
15.383446
 30
0.000000
  0
VERTEX
  8
MERGEDLAYER-1
 10
13.739683
 20
15.366479
 30
0.000000
  0
SEQEND
  8
MERGEDLAYER-1
  0
POLYLINE
  8
MERGEDLAYER-1
 66
  1
 70
  0
 62
  7
 10
13.739682
 20
15.366479
 30
0.000000
  0
VERTEX
  8
MERGEDLAYER-1
 10
13.739682
 20
15.366479
 30
0.000000
  0
VERTEX
  8
MERGEDLAYER-1
 10
12.693444
 20
15.366479
 30
0.000000
  0
SEQEND
  8
MERGEDLAYER-1
  0
POLYLINE
  8
MERGEDLAYER-1
 66
  1
 70
  0
 62
  7
 10
12.693443
 20
15.366479
 30
0.000000
  0
VERTEX
  8
MERGEDLAYER-1
 10
12.693443
 20
15.366479
 30
0.000000
  0
VERTEX
  8
MERGEDLAYER-1
 10
12.676474
 20
15.383446
 30
0.000000
  0
VERTEX
  8
MERGEDLAYER-1
 10
12.663442
 20
15.366479
 30
0.000000
  0
SEQEND
  8
MERGEDLAYER-1
  0
POLYLINE
  8
MERGEDLAYER-1
 66
  1
 70
  0
 62
  7
 10
12.663446
 20
15.366479
 30
0.000000
  0
VERTEX
  8
MERGEDLAYER-1
 10
12.663446
 20
15.366479
 30
0.000000
  0
VERTEX
  8
MERGEDLAYER-1
 10
11.628498
 20
15.366479
 30
0.000000
  0
SEQEND
  8
MERGEDLAYER-1
  0
POLYLINE
  8
MERGEDLAYER-1
 66
  1
 70
  0
 62
  7
 10
11.613498
 20
15.381479
 30
0.000000
  0
VERTEX
  8
MERGEDLAYER-1
 10
11.613498
 20
15.381479
 30
0.000000
  0
VERTEX
  8
MERGEDLAYER-1
 10
11.628498
 20
15.366479
 30
0.000000
  0
SEQEND
  8
MERGEDLAYER-1
  0
POLYLINE
  8
MERGEDLAYER-1
 66
  1
 70
  0
 62
  7
 10
11.693276
 20
15.461604
 30
0.000000
  0
VERTEX
  8
MERGEDLAYER-1
 10
11.693276
 20
15.461604
 30
0.000000
  0
VERTEX
  8
MERGEDLAYER-1
 10
11.613497
 20
15.381479
 30
0.000000
  0
SEQEND
  8
MERGEDLAYER-1
  0
POLYLINE
  8
MERGEDLAYER-1
 66
  1
 70
  0
 62
  7
 10
11.693277
 20
15.461604
 30
0.000000
  0
VERTEX
  8
MERGEDLAYER-1
 10
11.693277
 20
15.461604
 30
0.000000
  0
VERTEX
  8
MERGEDLAYER-1
 10
11.708278
 20
15.446608
 30
0.000000
  0
SEQEND
  8
MERGEDLAYER-1
  0
POLYLINE
  8
MERGEDLAYER-1
 66
  1
 70
  0
 62
  7
 10
11.752993
 20
15.446608
 30
0.000000
  0
VERTEX
  8
MERGEDLAYER-1
 10
11.752993
 20
15.446608
 30
0.000000
  0
VERTEX
  8
MERGEDLAYER-1
 10
11.708278
 20
15.446608
 30
0.000000
  0
SEQEND
  8
MERGEDLAYER-1
  0
POLYLINE
  8
MERGEDLAYER-1
 66
  1
 70
  0
 62
  7
 10
11.752993
 20
15.446608
 30
0.000000
  0
VERTEX
  8
MERGEDLAYER-1
 10
11.752993
 20
15.446608
 30
0.000000
  0
VERTEX
  8
MERGEDLAYER-1
 10
11.767992
 20
15.461604
 30
0.000000
  0
SEQEND
  8
MERGEDLAYER-1
  0
POLYLINE
  8
MERGEDLAYER-1
 66
  1
 70
  0
 62
  7
 10
11.767996
 20
15.538875
 30
0.000000
  0
VERTEX
  8
MERGEDLAYER-1
 10
11.767996
 20
15.538875
 30
0.000000
  0
VERTEX
  8
MERGEDLAYER-1
 10
11.767996
 20
15.461604
 30
0.000000
  0
SEQEND
  8
MERGEDLAYER-1
  0
POLYLINE
  8
MERGEDLAYER-1
 66
  1
 70
  0
 62
  7
 10
11.782991
 20
15.553871
 30
0.000000
  0
VERTEX
  8
MERGEDLAYER-1
 10
11.782991
 20
15.553871
 30
0.000000
  0
VERTEX
  8
MERGEDLAYER-1
 10
11.767991
 20
15.538875
 30
0.000000
  0
SEQEND
  8
MERGEDLAYER-1
  0
POLYLINE
  8
MERGEDLAYER-1
 66
  1
 70
  0
 62
  7
 10
11.852996
 20
15.553871
 30
0.000000
  0
VERTEX
  8
MERGEDLAYER-1
 10
11.852996
 20
15.553871
 30
0.000000
  0
VERTEX
  8
MERGEDLAYER-1
 10
11.782991
 20
15.553871
 30
0.000000
  0
SEQEND
  8
MERGEDLAYER-1
  0
POLYLINE
  8
MERGEDLAYER-1
 66
  1
 70
  0
 62
  7
 10
11.867996
 20
15.538875
 30
0.000000
  0
VERTEX
  8
MERGEDLAYER-1
 10
11.867996
 20
15.538875
 30
0.000000
  0
VERTEX
  8
MERGEDLAYER-1
 10
11.852996
 20
15.553871
 30
0.000000
  0
SEQEND
  8
MERGEDLAYER-1
  0
POLYLINE
  8
MERGEDLAYER-1
 66
  1
 70
  0
 62
  7
 10
11.867992
 20
15.461459
 30
0.000000
  0
VERTEX
  8
MERGEDLAYER-1
 10
11.867992
 20
15.461459
 30
0.000000
  0
VERTEX
  8
MERGEDLAYER-1
 10
11.867992
 20
15.538875
 30
0.000000
  0
SEQEND
  8
MERGEDLAYER-1
  0
POLYLINE
  8
MERGEDLAYER-1
 66
  1
 70
  0
 62
  7
 10
11.868000
 20
15.461459
 30
0.000000
  0
VERTEX
  8
MERGEDLAYER-1
 10
11.868000
 20
15.461459
 30
0.000000
  0
VERTEX
  8
MERGEDLAYER-1
 10
11.883000
 20
15.446463
 30
0.000000
  0
SEQEND
  8
MERGEDLAYER-1
  0
POLYLINE
  8
MERGEDLAYER-1
 66
  1
 70
  0
 62
  7
 10
11.928277
 20
15.446463
 30
0.000000
  0
VERTEX
  8
MERGEDLAYER-1
 10
11.928277
 20
15.446463
 30
0.000000
  0
VERTEX
  8
MERGEDLAYER-1
 10
11.883000
 20
15.446463
 30
0.000000
  0
SEQEND
  8
MERGEDLAYER-1
  0
POLYLINE
  8
MERGEDLAYER-1
 66
  1
 70
  0
 62
  7
 10
11.928277
 20
15.446463
 30
0.000000
  0
VERTEX
  8
MERGEDLAYER-1
 10
11.928277
 20
15.446463
 30
0.000000
  0
VERTEX
  8
MERGEDLAYER-1
 10
11.943277
 20
15.461459
 30
0.000000
  0
SEQEND
  8
MERGEDLAYER-1
  0
POLYLINE
  8
MERGEDLAYER-1
 66
  1
 70
  0
 62
  7
 10
11.943280
 20
15.678885
 30
0.000000
  0
VERTEX
  8
MERGEDLAYER-1
 10
11.943280
 20
15.678885
 30
0.000000
  0
VERTEX
  8
MERGEDLAYER-1
 10
11.943280
 20
15.461459
 30
0.000000
  0
SEQEND
  8
MERGEDLAYER-1
  0
POLYLINE
  8
MERGEDLAYER-1
 66
  1
 70
  0
 62
  7
 10
11.958281
 20
15.693881
 30
0.000000
  0
VERTEX
  8
MERGEDLAYER-1
 10
11.958281
 20
15.693881
 30
0.000000
  0
VERTEX
  8
MERGEDLAYER-1
 10
11.943281
 20
15.678885
 30
0.000000
  0
SEQEND
  8
MERGEDLAYER-1
  0
POLYLINE
  8
MERGEDLAYER-1
 66
  1
 70
  0
 62
  7
 10
12.008280
 20
15.693885
 30
0.000000
  0
VERTEX
  8
MERGEDLAYER-1
 10
12.008280
 20
15.693885
 30
0.000000
  0
VERTEX
  8
MERGEDLAYER-1
 10
11.958281
 20
15.693885
 30
0.000000
  0
SEQEND
  8
MERGEDLAYER-1
  0
POLYLINE
  8
MERGEDLAYER-1
 66
  1
 70
  0
 62
  7
 10
12.023279
 20
15.678885
 30
0.000000
  0
VERTEX
  8
MERGEDLAYER-1
 10
12.023279
 20
15.678885
 30
0.000000
  0
VERTEX
  8
MERGEDLAYER-1
 10
12.008280
 20
15.693881
 30
0.000000
  0
SEQEND
  8
MERGEDLAYER-1
  0
POLYLINE
  8
MERGEDLAYER-1
 66
  1
 70
  0
 62
  7
 10
12.023283
 20
15.461618
 30
0.000000
  0
VERTEX
  8
MERGEDLAYER-1
 10
12.023283
 20
15.461618
 30
0.000000
  0
VERTEX
  8
MERGEDLAYER-1
 10
12.023283
 20
15.678885
 30
0.000000
  0
SEQEND
  8
MERGEDLAYER-1
  0
POLYLINE
  8
MERGEDLAYER-1
 66
  1
 70
  0
 62
  7
 10
12.023284
 20
15.461618
 30
0.000000
  0
VERTEX
  8
MERGEDLAYER-1
 10
12.023284
 20
15.461618
 30
0.000000
  0
VERTEX
  8
MERGEDLAYER-1
 10
12.038283
 20
15.446618
 30
0.000000
  0
SEQEND
  8
MERGEDLAYER-1
  0
POLYLINE
  8
MERGEDLAYER-1
 66
  1
 70
  0
 62
  7
 10
12.231084
 20
15.446618
 30
0.000000
  0
VERTEX
  8
MERGEDLAYER-1
 10
12.231084
 20
15.446618
 30
0.000000
  0
VERTEX
  8
MERGEDLAYER-1
 10
12.038283
 20
15.446618
 30
0.000000
  0
SEQEND
  8
MERGEDLAYER-1
  0
POLYLINE
  8
MERGEDLAYER-1
 66
  1
 70
  0
 62
  7
 10
12.231084
 20
15.446618
 30
0.000000
  0
VERTEX
  8
MERGEDLAYER-1
 10
12.231084
 20
15.446618
 30
0.000000
  0
VERTEX
  8
MERGEDLAYER-1
 10
12.246084
 20
15.461618
 30
0.000000
  0
SEQEND
  8
MERGEDLAYER-1
  0
POLYLINE
  8
MERGEDLAYER-1
 66
  1
 70
  0
 62
  7
 10
12.371412
 20
15.461604
 30
0.000000
  0
VERTEX
  8
MERGEDLAYER-1
 10
12.371412
 20
15.461604
 30
0.000000
  0
VERTEX
  8
MERGEDLAYER-1
 10
12.246087
 20
15.461618
 30
0.000000
  0
SEQEND
  8
MERGEDLAYER-1
  0
POLYLINE
  8
MERGEDLAYER-1
 66
  1
 70
  0
 62
  7
 10
12.371412
 20
15.461604
 30
0.000000
  0
VERTEX
  8
MERGEDLAYER-1
 10
12.371412
 20
15.461604
 30
0.000000
  0
VERTEX
  8
MERGEDLAYER-1
 10
12.386412
 20
15.446608
 30
0.000000
  0
SEQEND
  8
MERGEDLAYER-1
  0
POLYLINE
  8
MERGEDLAYER-1
 66
  1
 70
  0
 62
  7
 10
12.386412
 20
15.446608
 30
0.000000
  0
VERTEX
  8
MERGEDLAYER-1
 10
12.386412
 20
15.446608
 30
0.000000
  0
VERTEX
  8
MERGEDLAYER-1
 10
12.436129
 20
15.446608
 30
0.000000
  0
SEQEND
  8
MERGEDLAYER-1
  0
POLYLINE
  8
MERGEDLAYER-1
 66
  1
 70
  0
 62
  7
 10
12.436129
 20
15.446608
 30
0.000000
  0
VERTEX
  8
MERGEDLAYER-1
 10
12.436129
 20
15.446608
 30
0.000000
  0
VERTEX
  8
MERGEDLAYER-1
 10
12.451130
 20
15.461604
 30
0.000000
  0
SEQEND
  8
MERGEDLAYER-1
  0
POLYLINE
  8
MERGEDLAYER-1
 66
  1
 70
  0
 62
  7
 10
12.451130
 20
15.538875
 30
0.000000
  0
VERTEX
  8
MERGEDLAYER-1
 10
12.451130
 20
15.538875
 30
0.000000
  0
VERTEX
  8
MERGEDLAYER-1
 10
12.451130
 20
15.461604
 30
0.000000
  0
SEQEND
  8
MERGEDLAYER-1
  0
POLYLINE
  8
MERGEDLAYER-1
 66
  1
 70
  0
 62
  7
 10
12.466131
 20
15.553871
 30
0.000000
  0
VERTEX
  8
MERGEDLAYER-1
 10
12.466131
 20
15.553871
 30
0.000000
  0
VERTEX
  8
MERGEDLAYER-1
 10
12.451131
 20
15.538875
 30
0.000000
  0
SEQEND
  8
MERGEDLAYER-1
  0
POLYLINE
  8
MERGEDLAYER-1
 66
  1
 70
  0
 62
  7
 10
12.466131
 20
15.553871
 30
0.000000
  0
VERTEX
  8
MERGEDLAYER-1
 10
12.466131
 20
15.553871
 30
0.000000
  0
VERTEX
  8
MERGEDLAYER-1
 10
12.536130
 20
15.553871
 30
0.000000
  0
SEQEND
  8
MERGEDLAYER-1
  0
POLYLINE
  8
MERGEDLAYER-1
 66
  1
 70
  0
 62
  7
 10
12.551131
 20
15.538875
 30
0.000000
  0
VERTEX
  8
MERGEDLAYER-1
 10
12.551131
 20
15.538875
 30
0.000000
  0
VERTEX
  8
MERGEDLAYER-1
 10
12.536130
 20
15.553871
 30
0.000000
  0
SEQEND
  8
MERGEDLAYER-1
  0
POLYLINE
  8
MERGEDLAYER-1
 66
  1
 70
  0
 62
  7
 10
12.551131
 20
15.461459
 30
0.000000
  0
VERTEX
  8
MERGEDLAYER-1
 10
12.551131
 20
15.461459
 30
0.000000
  0
VERTEX
  8
MERGEDLAYER-1
 10
12.551131
 20
15.538875
 30
0.000000
  0
SEQEND
  8
MERGEDLAYER-1
  0
POLYLINE
  8
MERGEDLAYER-1
 66
  1
 70
  0
 62
  7
 10
12.551126
 20
15.461459
 30
0.000000
  0
VERTEX
  8
MERGEDLAYER-1
 10
12.551126
 20
15.461459
 30
0.000000
  0
VERTEX
  8
MERGEDLAYER-1
 10
12.566127
 20
15.446463
 30
0.000000
  0
SEQEND
  8
MERGEDLAYER-1
  0
POLYLINE
  8
MERGEDLAYER-1
 66
  1
 70
  0
 62
  7
 10
12.616418
 20
15.446463
 30
0.000000
  0
VERTEX
  8
MERGEDLAYER-1
 10
12.616418
 20
15.446463
 30
0.000000
  0
VERTEX
  8
MERGEDLAYER-1
 10
12.566127
 20
15.446463
 30
0.000000
  0
SEQEND
  8
MERGEDLAYER-1
  0
POLYLINE
  8
MERGEDLAYER-1
 66
  1
 70
  0
 62
  7
 10
12.616418
 20
15.446463
 30
0.000000
  0
VERTEX
  8
MERGEDLAYER-1
 10
12.616418
 20
15.446463
 30
0.000000
  0
VERTEX
  8
MERGEDLAYER-1
 10
12.631417
 20
15.461459
 30
0.000000
  0
SEQEND
  8
MERGEDLAYER-1
  0
POLYLINE
  8
MERGEDLAYER-1
 66
  1
 70
  0
 62
  7
 10
12.631411
 20
15.678885
 30
0.000000
  0
VERTEX
  8
MERGEDLAYER-1
 10
12.631411
 20
15.678885
 30
0.000000
  0
VERTEX
  8
MERGEDLAYER-1
 10
12.631411
 20
15.461459
 30
0.000000
  0
SEQEND
  8
MERGEDLAYER-1
  0
POLYLINE
  8
MERGEDLAYER-1
 66
  1
 70
  0
 62
  7
 10
12.646414
 20
15.693881
 30
0.000000
  0
VERTEX
  8
MERGEDLAYER-1
 10
12.646414
 20
15.693881
 30
0.000000
  0
VERTEX
  8
MERGEDLAYER-1
 10
12.631413
 20
15.678885
 30
0.000000
  0
SEQEND
  8
MERGEDLAYER-1
  0
POLYLINE
  8
MERGEDLAYER-1
 66
  1
 70
  0
 62
  7
 10
12.646414
 20
15.693885
 30
0.000000
  0
VERTEX
  8
MERGEDLAYER-1
 10
12.646414
 20
15.693885
 30
0.000000
  0
VERTEX
  8
MERGEDLAYER-1
 10
12.711413
 20
15.693885
 30
0.000000
  0
SEQEND
  8
MERGEDLAYER-1
  0
POLYLINE
  8
MERGEDLAYER-1
 66
  1
 70
  0
 62
  7
 10
12.726413
 20
15.678885
 30
0.000000
  0
VERTEX
  8
MERGEDLAYER-1
 10
12.726413
 20
15.678885
 30
0.000000
  0
VERTEX
  8
MERGEDLAYER-1
 10
12.711413
 20
15.693881
 30
0.000000
  0
SEQEND
  8
MERGEDLAYER-1
  0
POLYLINE
  8
MERGEDLAYER-1
 66
  1
 70
  0
 62
  7
 10
12.726416
 20
15.678885
 30
0.000000
  0
VERTEX
  8
MERGEDLAYER-1
 10
12.726416
 20
15.678885
 30
0.000000
  0
VERTEX
  8
MERGEDLAYER-1
 10
12.726416
 20
15.476614
 30
0.000000
  0
SEQEND
  8
MERGEDLAYER-1
  0
POLYLINE
  8
MERGEDLAYER-1
 66
  1
 70
  0
 62
  7
 10
12.726419
 20
15.476614
 30
0.000000
  0
VERTEX
  8
MERGEDLAYER-1
 10
12.726419
 20
15.476614
 30
0.000000
  0
VERTEX
  8
MERGEDLAYER-1
 10
12.741419
 20
15.461618
 30
0.000000
  0
SEQEND
  8
MERGEDLAYER-1
  0
POLYLINE
  8
MERGEDLAYER-1
 66
  1
 70
  0
 62
  7
 10
12.741419
 20
15.461618
 30
0.000000
  0
VERTEX
  8
MERGEDLAYER-1
 10
12.741419
 20
15.461618
 30
0.000000
  0
VERTEX
  8
MERGEDLAYER-1
 10
13.864481
 20
15.461618
 30
0.000000
  0
SEQEND
  8
MERGEDLAYER-1
  0
POLYLINE
  8
MERGEDLAYER-1
 66
  1
 70
  0
 62
  7
 10
13.864481
 20
15.461618
 30
0.000000
  0
VERTEX
  8
MERGEDLAYER-1
 10
13.864481
 20
15.461618
 30
0.000000
  0
VERTEX
  8
MERGEDLAYER-1
 10
13.879481
 20
15.476614
 30
0.000000
  0
SEQEND
  8
MERGEDLAYER-1
  0
POLYLINE
  8
MERGEDLAYER-1
 66
  1
 70
  0
 62
  7
 10
13.879477
 20
15.748474
 30
0.000000
  0
VERTEX
  8
MERGEDLAYER-1
 10
13.879477
 20
15.748474
 30
0.000000
  0
VERTEX
  8
MERGEDLAYER-1
 10
13.879477
 20
15.476614
 30
0.000000
  0
SEQEND
  8
MERGEDLAYER-1
  0
POLYLINE
  8
MERGEDLAYER-1
 66
  1
 70
  0
 62
  7
 10
13.934479
 20
15.803462
 30
0.000000
  0
VERTEX
  8
MERGEDLAYER-1
 10
13.934479
 20
15.803462
 30
0.000000
  0
VERTEX
  8
MERGEDLAYER-1
 10
13.879478
 20
15.748474
 30
0.000000
  0
SEQEND
  8
MERGEDLAYER-1
  0
POLYLINE
  8
MERGEDLAYER-1
 66
  1
 70
  0
 62
  7
 10
13.998175
 20
15.803471
 30
0.000000
  0
VERTEX
  8
MERGEDLAYER-1
 10
13.998175
 20
15.803471
 30
0.000000
  0
VERTEX
  8
MERGEDLAYER-1
 10
13.934479
 20
15.803471
 30
0.000000
  0
SEQEND
  8
MERGEDLAYER-1
  0
POLYLINE
  8
MERGEDLAYER-1
 66
  1
 70
  0
 62
  7
 10
14.013174
 20
15.788471
 30
0.000000
  0
VERTEX
  8
MERGEDLAYER-1
 10
14.013174
 20
15.788471
 30
0.000000
  0
VERTEX
  8
MERGEDLAYER-1
 10
13.998175
 20
15.803467
 30
0.000000
  0
SEQEND
  8
MERGEDLAYER-1
  0
POLYLINE
  8
MERGEDLAYER-1
 66
  1
 70
  0
 62
  7
 10
14.013168
 20
15.779109
 30
0.000000
  0
VERTEX
  8
MERGEDLAYER-1
 10
14.013168
 20
15.779109
 30
0.000000
  0
VERTEX
  8
MERGEDLAYER-1
 10
14.013168
 20
15.788471
 30
0.000000
  0
SEQEND
  8
MERGEDLAYER-1
  0
POLYLINE
  8
MERGEDLAYER-1
 66
  1
 70
  0
 62
  7
 10
13.998175
 20
15.764109
 30
0.000000
  0
VERTEX
  8
MERGEDLAYER-1
 10
13.998175
 20
15.764109
 30
0.000000
  0
VERTEX
  8
MERGEDLAYER-1
 10
14.013174
 20
15.779109
 30
0.000000
  0
SEQEND
  8
MERGEDLAYER-1
  0
POLYLINE
  8
MERGEDLAYER-1
 66
  1
 70
  0
 62
  7
 10
13.998175
 20
15.764113
 30
0.000000
  0
VERTEX
  8
MERGEDLAYER-1
 10
13.998175
 20
15.764113
 30
0.000000
  0
VERTEX
  8
MERGEDLAYER-1
 10
13.949483
 20
15.764113
 30
0.000000
  0
SEQEND
  8
MERGEDLAYER-1
  0
POLYLINE
  8
MERGEDLAYER-1
 66
  1
 70
  0
 62
  7
 10
13.949483
 20
15.764109
 30
0.000000
  0
VERTEX
  8
MERGEDLAYER-1
 10
13.949483
 20
15.764109
 30
0.000000
  0
VERTEX
  8
MERGEDLAYER-1
 10
13.934482
 20
15.749113
 30
0.000000
  0
SEQEND
  8
MERGEDLAYER-1
  0
POLYLINE
  8
MERGEDLAYER-1
 66
  1
 70
  0
 62
  7
 10
13.934486
 20
15.749113
 30
0.000000
  0
VERTEX
  8
MERGEDLAYER-1
 10
13.934486
 20
15.749113
 30
0.000000
  0
VERTEX
  8
MERGEDLAYER-1
 10
13.934486
 20
15.692566
 30
0.000000
  0
SEQEND
  8
MERGEDLAYER-1
  0
POLYLINE
  8
MERGEDLAYER-1
 66
  1
 70
  0
 62
  7
 10
13.934482
 20
15.692566
 30
0.000000
  0
VERTEX
  8
MERGEDLAYER-1
 10
13.934482
 20
15.692566
 30
0.000000
  0
VERTEX
  8
MERGEDLAYER-1
 10
13.949483
 20
15.677570
 30
0.000000
  0
SEQEND
  8
MERGEDLAYER-1
  0
POLYLINE
  8
MERGEDLAYER-1
 66
  1
 70
  0
 62
  7
 10
13.949483
 20
15.677570
 30
0.000000
  0
VERTEX
  8
MERGEDLAYER-1
 10
13.949483
 20
15.677570
 30
0.000000
  0
VERTEX
  8
MERGEDLAYER-1
 10
13.998266
 20
15.677570
 30
0.000000
  0
SEQEND
  8
MERGEDLAYER-1
  0
POLYLINE
  8
MERGEDLAYER-1
 66
  1
 70
  0
 62
  7
 10
14.013267
 20
15.662560
 30
0.000000
  0
VERTEX
  8
MERGEDLAYER-1
 10
14.013267
 20
15.662560
 30
0.000000
  0
VERTEX
  8
MERGEDLAYER-1
 10
13.996318
 20
15.679542
 30
0.000000
  0
VERTEX
  8
MERGEDLAYER-1
 10
13.998266
 20
15.677575
 30
0.000000
  0
SEQEND
  8
MERGEDLAYER-1
  0
POLYLINE
  8
MERGEDLAYER-1
 66
  1
 70
  0
 62
  7
 10
14.013268
 20
15.662555
 30
0.000000
  0
VERTEX
  8
MERGEDLAYER-1
 10
14.013268
 20
15.662555
 30
0.000000
  0
VERTEX
  8
MERGEDLAYER-1
 10
14.013168
 20
15.592266
 30
0.000000
  0
SEQEND
  8
MERGEDLAYER-1
  0
POLYLINE
  8
MERGEDLAYER-1
 66
  1
 70
  0
 62
  7
 10
13.998175
 20
15.577289
 30
0.000000
  0
VERTEX
  8
MERGEDLAYER-1
 10
13.998175
 20
15.577289
 30
0.000000
  0
VERTEX
  8
MERGEDLAYER-1
 10
14.000838
 20
15.579994
 30
0.000000
  0
VERTEX
  8
MERGEDLAYER-1
 10
14.005015
 20
15.582120
 30
0.000000
  0
VERTEX
  8
MERGEDLAYER-1
 10
14.008334
 20
15.585430
 30
0.000000
  0
VERTEX
  8
MERGEDLAYER-1
 10
14.010466
 20
15.589609
 30
0.000000
  0
VERTEX
  8
MERGEDLAYER-1
 10
14.013174
 20
15.592266
 30
0.000000
  0
SEQEND
  8
MERGEDLAYER-1
  0
POLYLINE
  8
MERGEDLAYER-1
 66
  1
 70
  0
 62
  7
 10
13.998175
 20
15.577289
 30
0.000000
  0
VERTEX
  8
MERGEDLAYER-1
 10
13.998175
 20
15.577289
 30
0.000000
  0
VERTEX
  8
MERGEDLAYER-1
 10
13.949483
 20
15.577289
 30
0.000000
  0
SEQEND
  8
MERGEDLAYER-1
  0
POLYLINE
  8
MERGEDLAYER-1
 66
  1
 70
  0
 62
  7
 10
13.949483
 20
15.577285
 30
0.000000
  0
VERTEX
  8
MERGEDLAYER-1
 10
13.949483
 20
15.577285
 30
0.000000
  0
VERTEX
  8
MERGEDLAYER-1
 10
13.934482
 20
15.562289
 30
0.000000
  0
SEQEND
  8
MERGEDLAYER-1
  0
POLYLINE
  8
MERGEDLAYER-1
 66
  1
 70
  0
 62
  7
 10
13.934486
 20
15.562289
 30
0.000000
  0
VERTEX
  8
MERGEDLAYER-1
 10
13.934486
 20
15.562289
 30
0.000000
  0
VERTEX
  8
MERGEDLAYER-1
 10
13.934486
 20
15.436256
 30
0.000000
  0
SEQEND
  8
MERGEDLAYER-1
  0
POLYLINE
  8
MERGEDLAYER-1
 66
  1
 70
  0
 62
  7
 10
13.934482
 20
15.436256
 30
0.000000
  0
VERTEX
  8
MERGEDLAYER-1
 10
13.934482
 20
15.436256
 30
0.000000
  0
VERTEX
  8
MERGEDLAYER-1
 10
13.949483
 20
15.421260
 30
0.000000
  0
SEQEND
  8
MERGEDLAYER-1
  0
POLYLINE
  8
MERGEDLAYER-1
 66
  1
 70
  0
 62
  7
 10
14.239489
 20
15.421255
 30
0.000000
  0
VERTEX
  8
MERGEDLAYER-1
 10
14.239489
 20
15.421255
 30
0.000000
  0
VERTEX
  8
MERGEDLAYER-1
 10
13.949483
 20
15.421255
 30
0.000000
  0
SEQEND
  8
MERGEDLAYER-1
  0
POLYLINE
  8
MERGEDLAYER-1
 66
  1
 70
  0
 62
  7
 10
14.239489
 20
15.421255
 30
0.000000
  0
VERTEX
  8
MERGEDLAYER-1
 10
14.239489
 20
15.421255
 30
0.000000
  0
VERTEX
  8
MERGEDLAYER-1
 10
14.308490
 20
15.490244
 30
0.000000
  0
SEQEND
  8
MERGEDLAYER-1
  0
POLYLINE
  8
MERGEDLAYER-1
 66
  1
 70
  0
 62
  7
 10
14.308494
 20
15.490244
 30
0.000000
  0
VERTEX
  8
MERGEDLAYER-1
 10
14.308494
 20
15.490244
 30
0.000000
  0
VERTEX
  8
MERGEDLAYER-1
 10
14.308494
 20
15.562289
 30
0.000000
  0
SEQEND
  8
MERGEDLAYER-1
  0
POLYLINE
  8
MERGEDLAYER-1
 66
  1
 70
  0
 62
  7
 10
14.308493
 20
15.562289
 30
0.000000
  0
VERTEX
  8
MERGEDLAYER-1
 10
14.308493
 20
15.562289
 30
0.000000
  0
VERTEX
  8
MERGEDLAYER-1
 10
14.293492
 20
15.577285
 30
0.000000
  0
SEQEND
  8
MERGEDLAYER-1
  0
POLYLINE
  8
MERGEDLAYER-1
 66
  1
 70
  0
 62
  7
 10
14.293492
 20
15.577289
 30
0.000000
  0
VERTEX
  8
MERGEDLAYER-1
 10
14.293492
 20
15.577289
 30
0.000000
  0
VERTEX
  8
MERGEDLAYER-1
 10
14.244656
 20
15.577289
 30
0.000000
  0
SEQEND
  8
MERGEDLAYER-1
  0
POLYLINE
  8
MERGEDLAYER-1
 66
  1
 70
  0
 62
  7
 10
14.229657
 20
15.592290
 30
0.000000
  0
VERTEX
  8
MERGEDLAYER-1
 10
14.229657
 20
15.592290
 30
0.000000
  0
VERTEX
  8
MERGEDLAYER-1
 10
14.244656
 20
15.577289
 30
0.000000
  0
SEQEND
  8
MERGEDLAYER-1
  0
POLYLINE
  8
MERGEDLAYER-1
 66
  1
 70
  0
 62
  7
 10
14.229654
 20
15.592290
 30
0.000000
  0
VERTEX
  8
MERGEDLAYER-1
 10
14.229654
 20
15.592290
 30
0.000000
  0
VERTEX
  8
MERGEDLAYER-1
 10
14.229654
 20
15.662579
 30
0.000000
  0
SEQEND
  8
MERGEDLAYER-1
  0
POLYLINE
  8
MERGEDLAYER-1
 66
  1
 70
  0
 62
  7
 10
14.244656
 20
15.677575
 30
0.000000
  0
VERTEX
  8
MERGEDLAYER-1
 10
14.244656
 20
15.677575
 30
0.000000
  0
VERTEX
  8
MERGEDLAYER-1
 10
14.229657
 20
15.662579
 30
0.000000
  0
SEQEND
  8
MERGEDLAYER-1
  0
POLYLINE
  8
MERGEDLAYER-1
 66
  1
 70
  0
 62
  7
 10
14.244656
 20
15.677570
 30
0.000000
  0
VERTEX
  8
MERGEDLAYER-1
 10
14.244656
 20
15.677570
 30
0.000000
  0
VERTEX
  8
MERGEDLAYER-1
 10
14.293492
 20
15.677570
 30
0.000000
  0
SEQEND
  8
MERGEDLAYER-1
  0
POLYLINE
  8
MERGEDLAYER-1
 66
  1
 70
  0
 62
  7
 10
14.293492
 20
15.677570
 30
0.000000
  0
VERTEX
  8
MERGEDLAYER-1
 10
14.293492
 20
15.677570
 30
0.000000
  0
VERTEX
  8
MERGEDLAYER-1
 10
14.308493
 20
15.692566
 30
0.000000
  0
SEQEND
  8
MERGEDLAYER-1
  0
POLYLINE
  8
MERGEDLAYER-1
 66
  1
 70
  0
 62
  7
 10
14.308494
 20
15.692566
 30
0.000000
  0
VERTEX
  8
MERGEDLAYER-1
 10
14.308494
 20
15.692566
 30
0.000000
  0
VERTEX
  8
MERGEDLAYER-1
 10
14.308494
 20
15.749113
 30
0.000000
  0
SEQEND
  8
MERGEDLAYER-1
  0
POLYLINE
  8
MERGEDLAYER-1
 66
  1
 70
  0
 62
  7
 10
14.308493
 20
15.749113
 30
0.000000
  0
VERTEX
  8
MERGEDLAYER-1
 10
14.308493
 20
15.749113
 30
0.000000
  0
VERTEX
  8
MERGEDLAYER-1
 10
14.293492
 20
15.764109
 30
0.000000
  0
SEQEND
  8
MERGEDLAYER-1
  0
POLYLINE
  8
MERGEDLAYER-1
 66
  1
 70
  0
 62
  7
 10
14.293492
 20
15.764113
 30
0.000000
  0
VERTEX
  8
MERGEDLAYER-1
 10
14.293492
 20
15.764113
 30
0.000000
  0
VERTEX
  8
MERGEDLAYER-1
 10
14.244656
 20
15.764113
 30
0.000000
  0
SEQEND
  8
MERGEDLAYER-1
  0
POLYLINE
  8
MERGEDLAYER-1
 66
  1
 70
  0
 62
  7
 10
14.229657
 20
15.779104
 30
0.000000
  0
VERTEX
  8
MERGEDLAYER-1
 10
14.229657
 20
15.779104
 30
0.000000
  0
VERTEX
  8
MERGEDLAYER-1
 10
14.244656
 20
15.764104
 30
0.000000
  0
SEQEND
  8
MERGEDLAYER-1
  0
POLYLINE
  8
MERGEDLAYER-1
 66
  1
 70
  0
 62
  7
 10
14.229654
 20
15.779104
 30
0.000000
  0
VERTEX
  8
MERGEDLAYER-1
 10
14.229654
 20
15.779104
 30
0.000000
  0
VERTEX
  8
MERGEDLAYER-1
 10
14.229654
 20
15.788471
 30
0.000000
  0
SEQEND
  8
MERGEDLAYER-1
  0
POLYLINE
  8
MERGEDLAYER-1
 66
  1
 70
  0
 62
  7
 10
14.244656
 20
15.803467
 30
0.000000
  0
VERTEX
  8
MERGEDLAYER-1
 10
14.244656
 20
15.803467
 30
0.000000
  0
VERTEX
  8
MERGEDLAYER-1
 10
14.229657
 20
15.788471
 30
0.000000
  0
SEQEND
  8
MERGEDLAYER-1
  0
POLYLINE
  8
MERGEDLAYER-1
 66
  1
 70
  0
 62
  7
 10
14.244656
 20
15.803471
 30
0.000000
  0
VERTEX
  8
MERGEDLAYER-1
 10
14.244656
 20
15.803471
 30
0.000000
  0
VERTEX
  8
MERGEDLAYER-1
 10
14.308541
 20
15.803471
 30
0.000000
  0
SEQEND
  8
MERGEDLAYER-1
  0
POLYLINE
  8
MERGEDLAYER-1
 66
  1
 70
  0
 62
  7
 10
14.363542
 20
15.748474
 30
0.000000
  0
VERTEX
  8
MERGEDLAYER-1
 10
14.363542
 20
15.748474
 30
0.000000
  0
VERTEX
  8
MERGEDLAYER-1
 10
14.308541
 20
15.803462
 30
0.000000
  0
SEQEND
  8
MERGEDLAYER-1
  0
POLYLINE
  8
MERGEDLAYER-1
 66
  1
 70
  0
 62
  7
 10
14.363536
 20
15.748474
 30
0.000000
  0
VERTEX
  8
MERGEDLAYER-1
 10
14.363536
 20
15.748474
 30
0.000000
  0
VERTEX
  8
MERGEDLAYER-1
 10
14.363536
 20
15.490554
 30
0.000000
  0
SEQEND
  8
MERGEDLAYER-1
  0
POLYLINE
  8
MERGEDLAYER-1
 66
  1
 70
  0
 62
  7
 10
14.239535
 20
15.366572
 30
0.000000
  0
VERTEX
  8
MERGEDLAYER-1
 10
14.239535
 20
15.366572
 30
0.000000
  0
VERTEX
  8
MERGEDLAYER-1
 10
14.325248
 20
15.404851
 30
0.000000
  0
VERTEX
  8
MERGEDLAYER-1
 10
14.363536
 20
15.490554
 30
0.000000
  0
SEQEND
  8
MERGEDLAYER-1
  0
POLYLINE
  8
MERGEDLAYER-1
 66
  1
 70
  1
 62
  7
  0
VERTEX
  8
MERGEDLAYER-1
 10
12.246087
 20
16.896653
 30
0.000000
  0
VERTEX
  8
MERGEDLAYER-1
 10
12.371412
 20
16.896653
 30
0.000000
  0
VERTEX
  8
MERGEDLAYER-1
 10
12.371412
 20
15.461618
 30
0.000000
  0
VERTEX
  8
MERGEDLAYER-1
 10
12.246087
 20
15.461618
 30
0.000000
  0
SEQEND
  8
MERGEDLAYER-1
  0
POLYLINE
  8
MERGEDLAYER-1
 66
  1
 70
  0
 62
  7
 10
11.693276
 20
15.461604
 30
0.000000
  0
VERTEX
  8
MERGEDLAYER-1
 10
11.693276
 20
15.461604
 30
0.000000
  0
VERTEX
  8
MERGEDLAYER-1
 10
11.613497
 20
15.381479
 30
0.000000
  0
SEQEND
  8
MERGEDLAYER-1
  0
POLYLINE
  8
MERGEDLAYER-1
 66
  1
 70
  0
 62
  7
 10
47.138634
 20
16.991774
 30
0.000000
  0
VERTEX
  8
MERGEDLAYER-1
 10
47.138634
 20
16.991774
 30
0.000000
  0
VERTEX
  8
MERGEDLAYER-1
 10
46.668790
 20
16.991774
 30
0.000000
  0
SEQEND
  8
MERGEDLAYER-1
  0
POLYLINE
  8
MERGEDLAYER-1
 66
  1
 70
  0
 62
  7
 10
47.138644
 20
16.991784
 30
0.000000
  0
VERTEX
  8
MERGEDLAYER-1
 10
47.138644
 20
16.991784
 30
0.000000
  0
VERTEX
  8
MERGEDLAYER-1
 10
47.151771
 20
16.978844
 30
0.000000
  0
VERTEX
  8
MERGEDLAYER-1
 10
47.168645
 20
16.991873
 30
0.000000
  0
SEQEND
  8
MERGEDLAYER-1
  0
POLYLINE
  8
MERGEDLAYER-1
 66
  1
 70
  0
 62
  7
 10
47.168645
 20
16.991873
 30
0.000000
  0
VERTEX
  8
MERGEDLAYER-1
 10
47.168645
 20
16.991873
 30
0.000000
  0
VERTEX
  8
MERGEDLAYER-1
 10
48.214877
 20
16.991873
 30
0.000000
  0
SEQEND
  8
MERGEDLAYER-1
  0
POLYLINE
  8
MERGEDLAYER-1
 66
  1
 70
  0
 62
  7
 10
48.214877
 20
16.991873
 30
0.000000
  0
VERTEX
  8
MERGEDLAYER-1
 10
48.214877
 20
16.991873
 30
0.000000
  0
VERTEX
  8
MERGEDLAYER-1
 10
48.227910
 20
16.978844
 30
0.000000
  0
VERTEX
  8
MERGEDLAYER-1
 10
48.244882
 20
16.991873
 30
0.000000
  0
SEQEND
  8
MERGEDLAYER-1
  0
POLYLINE
  8
MERGEDLAYER-1
 66
  1
 70
  0
 62
  7
 10
48.244873
 20
16.991873
 30
0.000000
  0
VERTEX
  8
MERGEDLAYER-1
 10
48.244873
 20
16.991873
 30
0.000000
  0
VERTEX
  8
MERGEDLAYER-1
 10
49.279827
 20
16.991873
 30
0.000000
  0
SEQEND
  8
MERGEDLAYER-1
  0
POLYLINE
  8
MERGEDLAYER-1
 66
  1
 70
  0
 62
  7
 10
49.294823
 20
16.976877
 30
0.000000
  0
VERTEX
  8
MERGEDLAYER-1
 10
49.294823
 20
16.976877
 30
0.000000
  0
VERTEX
  8
MERGEDLAYER-1
 10
49.279827
 20
16.991873
 30
0.000000
  0
SEQEND
  8
MERGEDLAYER-1
  0
POLYLINE
  8
MERGEDLAYER-1
 66
  1
 70
  0
 62
  7
 10
49.215046
 20
16.896743
 30
0.000000
  0
VERTEX
  8
MERGEDLAYER-1
 10
49.215046
 20
16.896743
 30
0.000000
  0
VERTEX
  8
MERGEDLAYER-1
 10
49.294828
 20
16.976877
 30
0.000000
  0
SEQEND
  8
MERGEDLAYER-1
  0
POLYLINE
  8
MERGEDLAYER-1
 66
  1
 70
  0
 62
  7
 10
49.215036
 20
16.896743
 30
0.000000
  0
VERTEX
  8
MERGEDLAYER-1
 10
49.215036
 20
16.896743
 30
0.000000
  0
VERTEX
  8
MERGEDLAYER-1
 10
49.200040
 20
16.911743
 30
0.000000
  0
SEQEND
  8
MERGEDLAYER-1
  0
POLYLINE
  8
MERGEDLAYER-1
 66
  1
 70
  0
 62
  7
 10
49.155325
 20
16.911748
 30
0.000000
  0
VERTEX
  8
MERGEDLAYER-1
 10
49.155325
 20
16.911748
 30
0.000000
  0
VERTEX
  8
MERGEDLAYER-1
 10
49.200040
 20
16.911748
 30
0.000000
  0
SEQEND
  8
MERGEDLAYER-1
  0
POLYLINE
  8
MERGEDLAYER-1
 66
  1
 70
  0
 62
  7
 10
49.155325
 20
16.911743
 30
0.000000
  0
VERTEX
  8
MERGEDLAYER-1
 10
49.155325
 20
16.911743
 30
0.000000
  0
VERTEX
  8
MERGEDLAYER-1
 10
49.140325
 20
16.896743
 30
0.000000
  0
SEQEND
  8
MERGEDLAYER-1
  0
POLYLINE
  8
MERGEDLAYER-1
 66
  1
 70
  0
 62
  7
 10
49.140325
 20
16.819486
 30
0.000000
  0
VERTEX
  8
MERGEDLAYER-1
 10
49.140325
 20
16.819486
 30
0.000000
  0
VERTEX
  8
MERGEDLAYER-1
 10
49.140325
 20
16.896743
 30
0.000000
  0
SEQEND
  8
MERGEDLAYER-1
  0
POLYLINE
  8
MERGEDLAYER-1
 66
  1
 70
  0
 62
  7
 10
49.125333
 20
16.804486
 30
0.000000
  0
VERTEX
  8
MERGEDLAYER-1
 10
49.125333
 20
16.804486
 30
0.000000
  0
VERTEX
  8
MERGEDLAYER-1
 10
49.140329
 20
16.819486
 30
0.000000
  0
SEQEND
  8
MERGEDLAYER-1
  0
POLYLINE
  8
MERGEDLAYER-1
 66
  1
 70
  0
 62
  7
 10
49.055321
 20
16.804481
 30
0.000000
  0
VERTEX
  8
MERGEDLAYER-1
 10
49.055321
 20
16.804481
 30
0.000000
  0
VERTEX
  8
MERGEDLAYER-1
 10
49.125333
 20
16.804481
 30
0.000000
  0
SEQEND
  8
MERGEDLAYER-1
  0
POLYLINE
  8
MERGEDLAYER-1
 66
  1
 70
  0
 62
  7
 10
49.040325
 20
16.819486
 30
0.000000
  0
VERTEX
  8
MERGEDLAYER-1
 10
49.040325
 20
16.819486
 30
0.000000
  0
VERTEX
  8
MERGEDLAYER-1
 10
49.055321
 20
16.804486
 30
0.000000
  0
SEQEND
  8
MERGEDLAYER-1
  0
POLYLINE
  8
MERGEDLAYER-1
 66
  1
 70
  0
 62
  7
 10
49.040330
 20
16.896893
 30
0.000000
  0
VERTEX
  8
MERGEDLAYER-1
 10
49.040330
 20
16.896893
 30
0.000000
  0
VERTEX
  8
MERGEDLAYER-1
 10
49.040330
 20
16.819486
 30
0.000000
  0
SEQEND
  8
MERGEDLAYER-1
  0
POLYLINE
  8
MERGEDLAYER-1
 66
  1
 70
  0
 62
  7
 10
49.040316
 20
16.896893
 30
0.000000
  0
VERTEX
  8
MERGEDLAYER-1
 10
49.040316
 20
16.896893
 30
0.000000
  0
VERTEX
  8
MERGEDLAYER-1
 10
49.025320
 20
16.911889
 30
0.000000
  0
SEQEND
  8
MERGEDLAYER-1
  0
POLYLINE
  8
MERGEDLAYER-1
 66
  1
 70
  0
 62
  7
 10
48.980046
 20
16.911889
 30
0.000000
  0
VERTEX
  8
MERGEDLAYER-1
 10
48.980046
 20
16.911889
 30
0.000000
  0
VERTEX
  8
MERGEDLAYER-1
 10
49.025320
 20
16.911889
 30
0.000000
  0
SEQEND
  8
MERGEDLAYER-1
  0
POLYLINE
  8
MERGEDLAYER-1
 66
  1
 70
  0
 62
  7
 10
48.980046
 20
16.911889
 30
0.000000
  0
VERTEX
  8
MERGEDLAYER-1
 10
48.980046
 20
16.911889
 30
0.000000
  0
VERTEX
  8
MERGEDLAYER-1
 10
48.965050
 20
16.896893
 30
0.000000
  0
SEQEND
  8
MERGEDLAYER-1
  0
POLYLINE
  8
MERGEDLAYER-1
 66
  1
 70
  0
 62
  7
 10
48.965046
 20
16.679467
 30
0.000000
  0
VERTEX
  8
MERGEDLAYER-1
 10
48.965046
 20
16.679467
 30
0.000000
  0
VERTEX
  8
MERGEDLAYER-1
 10
48.965046
 20
16.896893
 30
0.000000
  0
SEQEND
  8
MERGEDLAYER-1
  0
POLYLINE
  8
MERGEDLAYER-1
 66
  1
 70
  0
 62
  7
 10
48.950040
 20
16.664471
 30
0.000000
  0
VERTEX
  8
MERGEDLAYER-1
 10
48.950040
 20
16.664471
 30
0.000000
  0
VERTEX
  8
MERGEDLAYER-1
 10
48.965036
 20
16.679467
 30
0.000000
  0
SEQEND
  8
MERGEDLAYER-1
  0
POLYLINE
  8
MERGEDLAYER-1
 66
  1
 70
  0
 62
  7
 10
48.900043
 20
16.664466
 30
0.000000
  0
VERTEX
  8
MERGEDLAYER-1
 10
48.900043
 20
16.664466
 30
0.000000
  0
VERTEX
  8
MERGEDLAYER-1
 10
48.950040
 20
16.664466
 30
0.000000
  0
SEQEND
  8
MERGEDLAYER-1
  0
POLYLINE
  8
MERGEDLAYER-1
 66
  1
 70
  0
 62
  7
 10
48.885043
 20
16.679467
 30
0.000000
  0
VERTEX
  8
MERGEDLAYER-1
 10
48.885043
 20
16.679467
 30
0.000000
  0
VERTEX
  8
MERGEDLAYER-1
 10
48.900043
 20
16.664471
 30
0.000000
  0
SEQEND
  8
MERGEDLAYER-1
  0
POLYLINE
  8
MERGEDLAYER-1
 66
  1
 70
  0
 62
  7
 10
48.885038
 20
16.896738
 30
0.000000
  0
VERTEX
  8
MERGEDLAYER-1
 10
48.885038
 20
16.896738
 30
0.000000
  0
VERTEX
  8
MERGEDLAYER-1
 10
48.885038
 20
16.679467
 30
0.000000
  0
SEQEND
  8
MERGEDLAYER-1
  0
POLYLINE
  8
MERGEDLAYER-1
 66
  1
 70
  0
 62
  7
 10
48.885033
 20
16.896738
 30
0.000000
  0
VERTEX
  8
MERGEDLAYER-1
 10
48.885033
 20
16.896738
 30
0.000000
  0
VERTEX
  8
MERGEDLAYER-1
 10
48.870033
 20
16.911734
 30
0.000000
  0
SEQEND
  8
MERGEDLAYER-1
  0
POLYLINE
  8
MERGEDLAYER-1
 66
  1
 70
  0
 62
  7
 10
48.677232
 20
16.911734
 30
0.000000
  0
VERTEX
  8
MERGEDLAYER-1
 10
48.677232
 20
16.911734
 30
0.000000
  0
VERTEX
  8
MERGEDLAYER-1
 10
48.870033
 20
16.911734
 30
0.000000
  0
SEQEND
  8
MERGEDLAYER-1
  0
POLYLINE
  8
MERGEDLAYER-1
 66
  1
 70
  0
 62
  7
 10
48.677232
 20
16.911734
 30
0.000000
  0
VERTEX
  8
MERGEDLAYER-1
 10
48.677232
 20
16.911734
 30
0.000000
  0
VERTEX
  8
MERGEDLAYER-1
 10
48.662236
 20
16.896738
 30
0.000000
  0
SEQEND
  8
MERGEDLAYER-1
  0
POLYLINE
  8
MERGEDLAYER-1
 66
  1
 70
  0
 62
  7
 10
48.536907
 20
16.896743
 30
0.000000
  0
VERTEX
  8
MERGEDLAYER-1
 10
48.536907
 20
16.896743
 30
0.000000
  0
VERTEX
  8
MERGEDLAYER-1
 10
48.662231
 20
16.896738
 30
0.000000
  0
SEQEND
  8
MERGEDLAYER-1
  0
POLYLINE
  8
MERGEDLAYER-1
 66
  1
 70
  0
 62
  7
 10
48.536898
 20
16.896743
 30
0.000000
  0
VERTEX
  8
MERGEDLAYER-1
 10
48.536898
 20
16.896743
 30
0.000000
  0
VERTEX
  8
MERGEDLAYER-1
 10
48.521902
 20
16.911743
 30
0.000000
  0
SEQEND
  8
MERGEDLAYER-1
  0
POLYLINE
  8
MERGEDLAYER-1
 66
  1
 70
  0
 62
  7
 10
48.521902
 20
16.911748
 30
0.000000
  0
VERTEX
  8
MERGEDLAYER-1
 10
48.521902
 20
16.911748
 30
0.000000
  0
VERTEX
  8
MERGEDLAYER-1
 10
48.472196
 20
16.911748
 30
0.000000
  0
SEQEND
  8
MERGEDLAYER-1
  0
POLYLINE
  8
MERGEDLAYER-1
 66
  1
 70
  0
 62
  7
 10
48.472196
 20
16.911743
 30
0.000000
  0
VERTEX
  8
MERGEDLAYER-1
 10
48.472196
 20
16.911743
 30
0.000000
  0
VERTEX
  8
MERGEDLAYER-1
 10
48.457200
 20
16.896743
 30
0.000000
  0
SEQEND
  8
MERGEDLAYER-1
  0
POLYLINE
  8
MERGEDLAYER-1
 66
  1
 70
  0
 62
  7
 10
48.457191
 20
16.819486
 30
0.000000
  0
VERTEX
  8
MERGEDLAYER-1
 10
48.457191
 20
16.819486
 30
0.000000
  0
VERTEX
  8
MERGEDLAYER-1
 10
48.457191
 20
16.896743
 30
0.000000
  0
SEQEND
  8
MERGEDLAYER-1
  0
POLYLINE
  8
MERGEDLAYER-1
 66
  1
 70
  0
 62
  7
 10
48.442190
 20
16.804486
 30
0.000000
  0
VERTEX
  8
MERGEDLAYER-1
 10
48.442190
 20
16.804486
 30
0.000000
  0
VERTEX
  8
MERGEDLAYER-1
 10
48.457186
 20
16.819486
 30
0.000000
  0
SEQEND
  8
MERGEDLAYER-1
  0
POLYLINE
  8
MERGEDLAYER-1
 66
  1
 70
  0
 62
  7
 10
48.442190
 20
16.804481
 30
0.000000
  0
VERTEX
  8
MERGEDLAYER-1
 10
48.442190
 20
16.804481
 30
0.000000
  0
VERTEX
  8
MERGEDLAYER-1
 10
48.372188
 20
16.804481
 30
0.000000
  0
SEQEND
  8
MERGEDLAYER-1
  0
POLYLINE
  8
MERGEDLAYER-1
 66
  1
 70
  0
 62
  7
 10
48.357187
 20
16.819486
 30
0.000000
  0
VERTEX
  8
MERGEDLAYER-1
 10
48.357187
 20
16.819486
 30
0.000000
  0
VERTEX
  8
MERGEDLAYER-1
 10
48.372188
 20
16.804486
 30
0.000000
  0
SEQEND
  8
MERGEDLAYER-1
  0
POLYLINE
  8
MERGEDLAYER-1
 66
  1
 70
  0
 62
  7
 10
48.357187
 20
16.896893
 30
0.000000
  0
VERTEX
  8
MERGEDLAYER-1
 10
48.357187
 20
16.896893
 30
0.000000
  0
VERTEX
  8
MERGEDLAYER-1
 10
48.357187
 20
16.819486
 30
0.000000
  0
SEQEND
  8
MERGEDLAYER-1
  0
POLYLINE
  8
MERGEDLAYER-1
 66
  1
 70
  0
 62
  7
 10
48.357187
 20
16.896893
 30
0.000000
  0
VERTEX
  8
MERGEDLAYER-1
 10
48.357187
 20
16.896893
 30
0.000000
  0
VERTEX
  8
MERGEDLAYER-1
 10
48.342191
 20
16.911889
 30
0.000000
  0
SEQEND
  8
MERGEDLAYER-1
  0
POLYLINE
  8
MERGEDLAYER-1
 66
  1
 70
  0
 62
  7
 10
48.291908
 20
16.911889
 30
0.000000
  0
VERTEX
  8
MERGEDLAYER-1
 10
48.291908
 20
16.911889
 30
0.000000
  0
VERTEX
  8
MERGEDLAYER-1
 10
48.342191
 20
16.911889
 30
0.000000
  0
SEQEND
  8
MERGEDLAYER-1
  0
POLYLINE
  8
MERGEDLAYER-1
 66
  1
 70
  0
 62
  7
 10
48.291908
 20
16.911889
 30
0.000000
  0
VERTEX
  8
MERGEDLAYER-1
 10
48.291908
 20
16.911889
 30
0.000000
  0
VERTEX
  8
MERGEDLAYER-1
 10
48.276907
 20
16.896893
 30
0.000000
  0
SEQEND
  8
MERGEDLAYER-1
  0
POLYLINE
  8
MERGEDLAYER-1
 66
  1
 70
  0
 62
  7
 10
48.276912
 20
16.679467
 30
0.000000
  0
VERTEX
  8
MERGEDLAYER-1
 10
48.276912
 20
16.679467
 30
0.000000
  0
VERTEX
  8
MERGEDLAYER-1
 10
48.276912
 20
16.896893
 30
0.000000
  0
SEQEND
  8
MERGEDLAYER-1
  0
POLYLINE
  8
MERGEDLAYER-1
 66
  1
 70
  0
 62
  7
 10
48.261907
 20
16.664471
 30
0.000000
  0
VERTEX
  8
MERGEDLAYER-1
 10
48.261907
 20
16.664471
 30
0.000000
  0
VERTEX
  8
MERGEDLAYER-1
 10
48.276902
 20
16.679467
 30
0.000000
  0
SEQEND
  8
MERGEDLAYER-1
  0
POLYLINE
  8
MERGEDLAYER-1
 66
  1
 70
  0
 62
  7
 10
48.261907
 20
16.664466
 30
0.000000
  0
VERTEX
  8
MERGEDLAYER-1
 10
48.261907
 20
16.664466
 30
0.000000
  0
VERTEX
  8
MERGEDLAYER-1
 10
48.196904
 20
16.664466
 30
0.000000
  0
SEQEND
  8
MERGEDLAYER-1
  0
POLYLINE
  8
MERGEDLAYER-1
 66
  1
 70
  0
 62
  7
 10
48.181904
 20
16.679467
 30
0.000000
  0
VERTEX
  8
MERGEDLAYER-1
 10
48.181904
 20
16.679467
 30
0.000000
  0
VERTEX
  8
MERGEDLAYER-1
 10
48.196904
 20
16.664471
 30
0.000000
  0
SEQEND
  8
MERGEDLAYER-1
  0
POLYLINE
  8
MERGEDLAYER-1
 66
  1
 70
  0
 62
  7
 10
48.181899
 20
16.679467
 30
0.000000
  0
VERTEX
  8
MERGEDLAYER-1
 10
48.181899
 20
16.679467
 30
0.000000
  0
VERTEX
  8
MERGEDLAYER-1
 10
48.181899
 20
16.881737
 30
0.000000
  0
SEQEND
  8
MERGEDLAYER-1
  0
POLYLINE
  8
MERGEDLAYER-1
 66
  1
 70
  0
 62
  7
 10
48.181894
 20
16.881737
 30
0.000000
  0
VERTEX
  8
MERGEDLAYER-1
 10
48.181894
 20
16.881737
 30
0.000000
  0
VERTEX
  8
MERGEDLAYER-1
 10
48.166898
 20
16.896738
 30
0.000000
  0
SEQEND
  8
MERGEDLAYER-1
  0
POLYLINE
  8
MERGEDLAYER-1
 66
  1
 70
  0
 62
  7
 10
48.166898
 20
16.896738
 30
0.000000
  0
VERTEX
  8
MERGEDLAYER-1
 10
48.166898
 20
16.896738
 30
0.000000
  0
VERTEX
  8
MERGEDLAYER-1
 10
47.043837
 20
16.896738
 30
0.000000
  0
SEQEND
  8
MERGEDLAYER-1
  0
POLYLINE
  8
MERGEDLAYER-1
 66
  1
 70
  0
 62
  7
 10
47.043837
 20
16.896738
 30
0.000000
  0
VERTEX
  8
MERGEDLAYER-1
 10
47.043837
 20
16.896738
 30
0.000000
  0
VERTEX
  8
MERGEDLAYER-1
 10
47.028837
 20
16.881737
 30
0.000000
  0
SEQEND
  8
MERGEDLAYER-1
  0
POLYLINE
  8
MERGEDLAYER-1
 66
  1
 70
  0
 62
  7
 10
47.028841
 20
16.609877
 30
0.000000
  0
VERTEX
  8
MERGEDLAYER-1
 10
47.028841
 20
16.609877
 30
0.000000
  0
VERTEX
  8
MERGEDLAYER-1
 10
47.028841
 20
16.881737
 30
0.000000
  0
SEQEND
  8
MERGEDLAYER-1
  0
POLYLINE
  8
MERGEDLAYER-1
 66
  1
 70
  0
 62
  7
 10
46.973844
 20
16.554885
 30
0.000000
  0
VERTEX
  8
MERGEDLAYER-1
 10
46.973844
 20
16.554885
 30
0.000000
  0
VERTEX
  8
MERGEDLAYER-1
 10
47.028841
 20
16.609877
 30
0.000000
  0
SEQEND
  8
MERGEDLAYER-1
  0
POLYLINE
  8
MERGEDLAYER-1
 66
  1
 70
  0
 62
  7
 10
46.910147
 20
16.554885
 30
0.000000
  0
VERTEX
  8
MERGEDLAYER-1
 10
46.910147
 20
16.554885
 30
0.000000
  0
VERTEX
  8
MERGEDLAYER-1
 10
46.973844
 20
16.554885
 30
0.000000
  0
SEQEND
  8
MERGEDLAYER-1
  0
POLYLINE
  8
MERGEDLAYER-1
 66
  1
 70
  0
 62
  7
 10
46.895146
 20
16.569881
 30
0.000000
  0
VERTEX
  8
MERGEDLAYER-1
 10
46.895146
 20
16.569881
 30
0.000000
  0
VERTEX
  8
MERGEDLAYER-1
 10
46.910147
 20
16.554885
 30
0.000000
  0
SEQEND
  8
MERGEDLAYER-1
  0
POLYLINE
  8
MERGEDLAYER-1
 66
  1
 70
  0
 62
  7
 10
46.895146
 20
16.579242
 30
0.000000
  0
VERTEX
  8
MERGEDLAYER-1
 10
46.895146
 20
16.579242
 30
0.000000
  0
VERTEX
  8
MERGEDLAYER-1
 10
46.895146
 20
16.569881
 30
0.000000
  0
SEQEND
  8
MERGEDLAYER-1
  0
POLYLINE
  8
MERGEDLAYER-1
 66
  1
 70
  0
 62
  7
 10
46.910147
 20
16.594243
 30
0.000000
  0
VERTEX
  8
MERGEDLAYER-1
 10
46.910147
 20
16.594243
 30
0.000000
  0
VERTEX
  8
MERGEDLAYER-1
 10
46.895146
 20
16.579242
 30
0.000000
  0
SEQEND
  8
MERGEDLAYER-1
  0
POLYLINE
  8
MERGEDLAYER-1
 66
  1
 70
  0
 62
  7
 10
46.910147
 20
16.594243
 30
0.000000
  0
VERTEX
  8
MERGEDLAYER-1
 10
46.910147
 20
16.594243
 30
0.000000
  0
VERTEX
  8
MERGEDLAYER-1
 10
46.958834
 20
16.594243
 30
0.000000
  0
SEQEND
  8
MERGEDLAYER-1
  0
POLYLINE
  8
MERGEDLAYER-1
 66
  1
 70
  0
 62
  7
 10
46.958834
 20
16.594243
 30
0.000000
  0
VERTEX
  8
MERGEDLAYER-1
 10
46.958834
 20
16.594243
 30
0.000000
  0
VERTEX
  8
MERGEDLAYER-1
 10
46.973835
 20
16.609239
 30
0.000000
  0
SEQEND
  8
MERGEDLAYER-1
  0
POLYLINE
  8
MERGEDLAYER-1
 66
  1
 70
  0
 62
  7
 10
46.973835
 20
16.609239
 30
0.000000
  0
VERTEX
  8
MERGEDLAYER-1
 10
46.973835
 20
16.609239
 30
0.000000
  0
VERTEX
  8
MERGEDLAYER-1
 10
46.973835
 20
16.665781
 30
0.000000
  0
SEQEND
  8
MERGEDLAYER-1
  0
POLYLINE
  8
MERGEDLAYER-1
 66
  1
 70
  0
 62
  7
 10
46.973835
 20
16.665781
 30
0.000000
  0
VERTEX
  8
MERGEDLAYER-1
 10
46.973835
 20
16.665781
 30
0.000000
  0
VERTEX
  8
MERGEDLAYER-1
 10
46.958834
 20
16.680777
 30
0.000000
  0
SEQEND
  8
MERGEDLAYER-1
  0
POLYLINE
  8
MERGEDLAYER-1
 66
  1
 70
  0
 62
  7
 10
46.958834
 20
16.680781
 30
0.000000
  0
VERTEX
  8
MERGEDLAYER-1
 10
46.958834
 20
16.680781
 30
0.000000
  0
VERTEX
  8
MERGEDLAYER-1
 10
46.910053
 20
16.680781
 30
0.000000
  0
SEQEND
  8
MERGEDLAYER-1
  0
POLYLINE
  8
MERGEDLAYER-1
 66
  1
 70
  0
 62
  7
 10
46.895057
 20
16.695791
 30
0.000000
  0
VERTEX
  8
MERGEDLAYER-1
 10
46.895057
 20
16.695791
 30
0.000000
  0
VERTEX
  8
MERGEDLAYER-1
 10
46.908067
 20
16.682744
 30
0.000000
  0
VERTEX
  8
MERGEDLAYER-1
 10
46.910053
 20
16.680777
 30
0.000000
  0
SEQEND
  8
MERGEDLAYER-1
  0
POLYLINE
  8
MERGEDLAYER-1
 66
  1
 70
  0
 62
  7
 10
46.895048
 20
16.695796
 30
0.000000
  0
VERTEX
  8
MERGEDLAYER-1
 10
46.895048
 20
16.695796
 30
0.000000
  0
VERTEX
  8
MERGEDLAYER-1
 10
46.895146
 20
16.766085
 30
0.000000
  0
SEQEND
  8
MERGEDLAYER-1
  0
POLYLINE
  8
MERGEDLAYER-1
 66
  1
 70
  0
 62
  7
 10
46.910147
 20
16.781062
 30
0.000000
  0
VERTEX
  8
MERGEDLAYER-1
 10
46.910147
 20
16.781062
 30
0.000000
  0
VERTEX
  8
MERGEDLAYER-1
 10
46.903546
 20
16.782297
 30
0.000000
  0
VERTEX
  8
MERGEDLAYER-1
 10
46.899367
 20
16.780170
 30
0.000000
  0
VERTEX
  8
MERGEDLAYER-1
 10
46.896048
 20
16.776860
 30
0.000000
  0
VERTEX
  8
MERGEDLAYER-1
 10
46.893916
 20
16.772682
 30
0.000000
  0
VERTEX
  8
MERGEDLAYER-1
 10
46.895146
 20
16.766085
 30
0.000000
  0
SEQEND
  8
MERGEDLAYER-1
  0
POLYLINE
  8
MERGEDLAYER-1
 66
  1
 70
  0
 62
  7
 10
46.910147
 20
16.781062
 30
0.000000
  0
VERTEX
  8
MERGEDLAYER-1
 10
46.910147
 20
16.781062
 30
0.000000
  0
VERTEX
  8
MERGEDLAYER-1
 10
46.958834
 20
16.781062
 30
0.000000
  0
SEQEND
  8
MERGEDLAYER-1
  0
POLYLINE
  8
MERGEDLAYER-1
 66
  1
 70
  0
 62
  7
 10
46.958834
 20
16.781062
 30
0.000000
  0
VERTEX
  8
MERGEDLAYER-1
 10
46.958834
 20
16.781062
 30
0.000000
  0
VERTEX
  8
MERGEDLAYER-1
 10
46.973835
 20
16.796063
 30
0.000000
  0
SEQEND
  8
MERGEDLAYER-1
  0
POLYLINE
  8
MERGEDLAYER-1
 66
  1
 70
  0
 62
  7
 10
46.973835
 20
16.796063
 30
0.000000
  0
VERTEX
  8
MERGEDLAYER-1
 10
46.973835
 20
16.796063
 30
0.000000
  0
VERTEX
  8
MERGEDLAYER-1
 10
46.973835
 20
16.922091
 30
0.000000
  0
SEQEND
  8
MERGEDLAYER-1
  0
POLYLINE
  8
MERGEDLAYER-1
 66
  1
 70
  0
 62
  7
 10
46.973835
 20
16.922091
 30
0.000000
  0
VERTEX
  8
MERGEDLAYER-1
 10
46.973835
 20
16.922091
 30
0.000000
  0
VERTEX
  8
MERGEDLAYER-1
 10
46.958834
 20
16.937092
 30
0.000000
  0
SEQEND
  8
MERGEDLAYER-1
  0
POLYLINE
  8
MERGEDLAYER-1
 66
  1
 70
  0
 62
  7
 10
46.668837
 20
16.937092
 30
0.000000
  0
VERTEX
  8
MERGEDLAYER-1
 10
46.668837
 20
16.937092
 30
0.000000
  0
VERTEX
  8
MERGEDLAYER-1
 10
46.958834
 20
16.937092
 30
0.000000
  0
SEQEND
  8
MERGEDLAYER-1
  0
POLYLINE
  8
MERGEDLAYER-1
 66
  1
 70
  0
 62
  7
 10
46.668837
 20
16.937096
 30
0.000000
  0
VERTEX
  8
MERGEDLAYER-1
 10
46.668837
 20
16.937096
 30
0.000000
  0
VERTEX
  8
MERGEDLAYER-1
 10
46.599835
 20
16.868103
 30
0.000000
  0
SEQEND
  8
MERGEDLAYER-1
  0
POLYLINE
  8
MERGEDLAYER-1
 66
  1
 70
  0
 62
  7
 10
46.599825
 20
16.868103
 30
0.000000
  0
VERTEX
  8
MERGEDLAYER-1
 10
46.599825
 20
16.868103
 30
0.000000
  0
VERTEX
  8
MERGEDLAYER-1
 10
46.599825
 20
16.796063
 30
0.000000
  0
SEQEND
  8
MERGEDLAYER-1
  0
POLYLINE
  8
MERGEDLAYER-1
 66
  1
 70
  0
 62
  7
 10
46.599830
 20
16.796063
 30
0.000000
  0
VERTEX
  8
MERGEDLAYER-1
 10
46.599830
 20
16.796063
 30
0.000000
  0
VERTEX
  8
MERGEDLAYER-1
 10
46.614831
 20
16.781062
 30
0.000000
  0
SEQEND
  8
MERGEDLAYER-1
  0
POLYLINE
  8
MERGEDLAYER-1
 66
  1
 70
  0
 62
  7
 10
46.614831
 20
16.781062
 30
0.000000
  0
VERTEX
  8
MERGEDLAYER-1
 10
46.614831
 20
16.781062
 30
0.000000
  0
VERTEX
  8
MERGEDLAYER-1
 10
46.663668
 20
16.781062
 30
0.000000
  0
SEQEND
  8
MERGEDLAYER-1
  0
POLYLINE
  8
MERGEDLAYER-1
 66
  1
 70
  0
 62
  7
 10
46.678669
 20
16.766066
 30
0.000000
  0
VERTEX
  8
MERGEDLAYER-1
 10
46.678669
 20
16.766066
 30
0.000000
  0
VERTEX
  8
MERGEDLAYER-1
 10
46.663668
 20
16.781062
 30
0.000000
  0
SEQEND
  8
MERGEDLAYER-1
  0
POLYLINE
  8
MERGEDLAYER-1
 66
  1
 70
  0
 62
  7
 10
46.678669
 20
16.766066
 30
0.000000
  0
VERTEX
  8
MERGEDLAYER-1
 10
46.678669
 20
16.766066
 30
0.000000
  0
VERTEX
  8
MERGEDLAYER-1
 10
46.678669
 20
16.695773
 30
0.000000
  0
SEQEND
  8
MERGEDLAYER-1
  0
POLYLINE
  8
MERGEDLAYER-1
 66
  1
 70
  0
 62
  7
 10
46.663668
 20
16.680777
 30
0.000000
  0
VERTEX
  8
MERGEDLAYER-1
 10
46.663668
 20
16.680777
 30
0.000000
  0
VERTEX
  8
MERGEDLAYER-1
 10
46.678669
 20
16.695773
 30
0.000000
  0
SEQEND
  8
MERGEDLAYER-1
  0
POLYLINE
  8
MERGEDLAYER-1
 66
  1
 70
  0
 62
  7
 10
46.663668
 20
16.680781
 30
0.000000
  0
VERTEX
  8
MERGEDLAYER-1
 10
46.663668
 20
16.680781
 30
0.000000
  0
VERTEX
  8
MERGEDLAYER-1
 10
46.614831
 20
16.680781
 30
0.000000
  0
SEQEND
  8
MERGEDLAYER-1
  0
POLYLINE
  8
MERGEDLAYER-1
 66
  1
 70
  0
 62
  7
 10
46.614831
 20
16.680777
 30
0.000000
  0
VERTEX
  8
MERGEDLAYER-1
 10
46.614831
 20
16.680777
 30
0.000000
  0
VERTEX
  8
MERGEDLAYER-1
 10
46.599830
 20
16.665781
 30
0.000000
  0
SEQEND
  8
MERGEDLAYER-1
  0
POLYLINE
  8
MERGEDLAYER-1
 66
  1
 70
  0
 62
  7
 10
46.599825
 20
16.665781
 30
0.000000
  0
VERTEX
  8
MERGEDLAYER-1
 10
46.599825
 20
16.665781
 30
0.000000
  0
VERTEX
  8
MERGEDLAYER-1
 10
46.599825
 20
16.609239
 30
0.000000
  0
SEQEND
  8
MERGEDLAYER-1
  0
POLYLINE
  8
MERGEDLAYER-1
 66
  1
 70
  0
 62
  7
 10
46.599830
 20
16.609239
 30
0.000000
  0
VERTEX
  8
MERGEDLAYER-1
 10
46.599830
 20
16.609239
 30
0.000000
  0
VERTEX
  8
MERGEDLAYER-1
 10
46.614831
 20
16.594243
 30
0.000000
  0
SEQEND
  8
MERGEDLAYER-1
  0
POLYLINE
  8
MERGEDLAYER-1
 66
  1
 70
  0
 62
  7
 10
46.614831
 20
16.594243
 30
0.000000
  0
VERTEX
  8
MERGEDLAYER-1
 10
46.614831
 20
16.594243
 30
0.000000
  0
VERTEX
  8
MERGEDLAYER-1
 10
46.663668
 20
16.594243
 30
0.000000
  0
SEQEND
  8
MERGEDLAYER-1
  0
POLYLINE
  8
MERGEDLAYER-1
 66
  1
 70
  0
 62
  7
 10
46.678669
 20
16.579242
 30
0.000000
  0
VERTEX
  8
MERGEDLAYER-1
 10
46.678669
 20
16.579242
 30
0.000000
  0
VERTEX
  8
MERGEDLAYER-1
 10
46.663668
 20
16.594243
 30
0.000000
  0
SEQEND
  8
MERGEDLAYER-1
  0
POLYLINE
  8
MERGEDLAYER-1
 66
  1
 70
  0
 62
  7
 10
46.678669
 20
16.579242
 30
0.000000
  0
VERTEX
  8
MERGEDLAYER-1
 10
46.678669
 20
16.579242
 30
0.000000
  0
VERTEX
  8
MERGEDLAYER-1
 10
46.678669
 20
16.569881
 30
0.000000
  0
SEQEND
  8
MERGEDLAYER-1
  0
POLYLINE
  8
MERGEDLAYER-1
 66
  1
 70
  0
 62
  7
 10
46.663668
 20
16.554885
 30
0.000000
  0
VERTEX
  8
MERGEDLAYER-1
 10
46.663668
 20
16.554885
 30
0.000000
  0
VERTEX
  8
MERGEDLAYER-1
 10
46.678669
 20
16.569881
 30
0.000000
  0
SEQEND
  8
MERGEDLAYER-1
  0
POLYLINE
  8
MERGEDLAYER-1
 66
  1
 70
  0
 62
  7
 10
46.663668
 20
16.554885
 30
0.000000
  0
VERTEX
  8
MERGEDLAYER-1
 10
46.663668
 20
16.554885
 30
0.000000
  0
VERTEX
  8
MERGEDLAYER-1
 10
46.599778
 20
16.554885
 30
0.000000
  0
SEQEND
  8
MERGEDLAYER-1
  0
POLYLINE
  8
MERGEDLAYER-1
 66
  1
 70
  0
 62
  7
 10
46.544781
 20
16.609877
 30
0.000000
  0
VERTEX
  8
MERGEDLAYER-1
 10
46.544781
 20
16.609877
 30
0.000000
  0
VERTEX
  8
MERGEDLAYER-1
 10
46.599778
 20
16.554885
 30
0.000000
  0
SEQEND
  8
MERGEDLAYER-1
  0
POLYLINE
  8
MERGEDLAYER-1
 66
  1
 70
  0
 62
  7
 10
46.544781
 20
16.609877
 30
0.000000
  0
VERTEX
  8
MERGEDLAYER-1
 10
46.544781
 20
16.609877
 30
0.000000
  0
VERTEX
  8
MERGEDLAYER-1
 10
46.544781
 20
16.867798
 30
0.000000
  0
SEQEND
  8
MERGEDLAYER-1
  0
POLYLINE
  8
MERGEDLAYER-1
 66
  1
 70
  0
 62
  7
 10
46.668790
 20
16.991779
 30
0.000000
  0
VERTEX
  8
MERGEDLAYER-1
 10
46.668790
 20
16.991779
 30
0.000000
  0
VERTEX
  8
MERGEDLAYER-1
 10
46.579139
 20
16.957435
 30
0.000000
  0
VERTEX
  8
MERGEDLAYER-1
 10
46.544790
 20
16.867798
 30
0.000000
  0
SEQEND
  8
MERGEDLAYER-1
  0
POLYLINE
  8
MERGEDLAYER-1
 66
  1
 70
  0
 62
  7
 10
49.215046
 20
15.462257
 30
0.000000
  0
VERTEX
  8
MERGEDLAYER-1
 10
49.215046
 20
15.462257
 30
0.000000
  0
VERTEX
  8
MERGEDLAYER-1
 10
49.215046
 20
16.896743
 30
0.000000
  0
SEQEND
  8
MERGEDLAYER-1
  0
POLYLINE
  8
MERGEDLAYER-1
 66
  1
 70
  0
 62
  7
 10
49.294828
 20
16.976877
 30
0.000000
  0
VERTEX
  8
MERGEDLAYER-1
 10
49.294828
 20
16.976877
 30
0.000000
  0
VERTEX
  8
MERGEDLAYER-1
 10
49.215046
 20
16.896743
 30
0.000000
  0
SEQEND
  8
MERGEDLAYER-1
  0
POLYLINE
  8
MERGEDLAYER-1
 66
  1
 70
  0
 62
  7
 10
49.294828
 20
16.194580
 30
0.000000
  0
VERTEX
  8
MERGEDLAYER-1
 10
49.294828
 20
16.194580
 30
0.000000
  0
VERTEX
  8
MERGEDLAYER-1
 10
49.294828
 20
16.976877
 30
0.000000
  0
SEQEND
  8
MERGEDLAYER-1
  0
POLYLINE
  8
MERGEDLAYER-1
 66
  1
 70
  0
 62
  7
 10
49.294828
 20
16.194575
 30
0.000000
  0
VERTEX
  8
MERGEDLAYER-1
 10
49.294828
 20
16.194575
 30
0.000000
  0
VERTEX
  8
MERGEDLAYER-1
 10
49.277860
 20
16.181547
 30
0.000000
  0
VERTEX
  8
MERGEDLAYER-1
 10
49.294828
 20
16.164579
 30
0.000000
  0
SEQEND
  8
MERGEDLAYER-1
  0
POLYLINE
  8
MERGEDLAYER-1
 66
  1
 70
  0
 62
  7
 10
49.294828
 20
16.164584
 30
0.000000
  0
VERTEX
  8
MERGEDLAYER-1
 10
49.294828
 20
16.164584
 30
0.000000
  0
VERTEX
  8
MERGEDLAYER-1
 10
49.294828
 20
15.382132
 30
0.000000
  0
SEQEND
  8
MERGEDLAYER-1
  0
POLYLINE
  8
MERGEDLAYER-1
 66
  1
 70
  0
 62
  7
 10
49.279827
 20
15.367131
 30
0.000000
  0
VERTEX
  8
MERGEDLAYER-1
 10
49.279827
 20
15.367131
 30
0.000000
  0
VERTEX
  8
MERGEDLAYER-1
 10
48.244873
 20
15.367131
 30
0.000000
  0
SEQEND
  8
MERGEDLAYER-1
  0
POLYLINE
  8
MERGEDLAYER-1
 66
  1
 70
  0
 62
  7
 10
47.138634
 20
15.366671
 30
0.000000
  0
VERTEX
  8
MERGEDLAYER-1
 10
47.138634
 20
15.366671
 30
0.000000
  0
VERTEX
  8
MERGEDLAYER-1
 10
46.668790
 20
15.366671
 30
0.000000
  0
SEQEND
  8
MERGEDLAYER-1
  0
POLYLINE
  8
MERGEDLAYER-1
 66
  1
 70
  0
 62
  7
 10
47.168645
 20
15.366577
 30
0.000000
  0
VERTEX
  8
MERGEDLAYER-1
 10
47.168645
 20
15.366577
 30
0.000000
  0
VERTEX
  8
MERGEDLAYER-1
 10
47.151672
 20
15.383540
 30
0.000000
  0
VERTEX
  8
MERGEDLAYER-1
 10
47.138644
 20
15.366666
 30
0.000000
  0
SEQEND
  8
MERGEDLAYER-1
  0
POLYLINE
  8
MERGEDLAYER-1
 66
  1
 70
  0
 62
  7
 10
47.168645
 20
15.366577
 30
0.000000
  0
VERTEX
  8
MERGEDLAYER-1
 10
47.168645
 20
15.366577
 30
0.000000
  0
VERTEX
  8
MERGEDLAYER-1
 10
48.214877
 20
15.366577
 30
0.000000
  0
SEQEND
  8
MERGEDLAYER-1
  0
POLYLINE
  8
MERGEDLAYER-1
 66
  1
 70
  0
 62
  7
 10
48.244882
 20
15.366577
 30
0.000000
  0
VERTEX
  8
MERGEDLAYER-1
 10
48.244882
 20
15.366577
 30
0.000000
  0
VERTEX
  8
MERGEDLAYER-1
 10
48.227910
 20
15.383540
 30
0.000000
  0
VERTEX
  8
MERGEDLAYER-1
 10
48.214877
 20
15.366577
 30
0.000000
  0
SEQEND
  8
MERGEDLAYER-1
  0
POLYLINE
  8
MERGEDLAYER-1
 66
  1
 70
  0
 62
  7
 10
48.244873
 20
15.366577
 30
0.000000
  0
VERTEX
  8
MERGEDLAYER-1
 10
48.244873
 20
15.366577
 30
0.000000
  0
VERTEX
  8
MERGEDLAYER-1
 10
49.279827
 20
15.366577
 30
0.000000
  0
SEQEND
  8
MERGEDLAYER-1
  0
POLYLINE
  8
MERGEDLAYER-1
 66
  1
 70
  0
 62
  7
 10
49.279827
 20
15.366577
 30
0.000000
  0
VERTEX
  8
MERGEDLAYER-1
 10
49.279827
 20
15.366577
 30
0.000000
  0
VERTEX
  8
MERGEDLAYER-1
 10
49.294823
 20
15.381578
 30
0.000000
  0
SEQEND
  8
MERGEDLAYER-1
  0
POLYLINE
  8
MERGEDLAYER-1
 66
  1
 70
  0
 62
  7
 10
49.215046
 20
15.461703
 30
0.000000
  0
VERTEX
  8
MERGEDLAYER-1
 10
49.215046
 20
15.461703
 30
0.000000
  0
VERTEX
  8
MERGEDLAYER-1
 10
49.294828
 20
15.381578
 30
0.000000
  0
SEQEND
  8
MERGEDLAYER-1
  0
POLYLINE
  8
MERGEDLAYER-1
 66
  1
 70
  0
 62
  7
 10
49.200040
 20
15.446702
 30
0.000000
  0
VERTEX
  8
MERGEDLAYER-1
 10
49.200040
 20
15.446702
 30
0.000000
  0
VERTEX
  8
MERGEDLAYER-1
 10
49.215036
 20
15.461703
 30
0.000000
  0
SEQEND
  8
MERGEDLAYER-1
  0
POLYLINE
  8
MERGEDLAYER-1
 66
  1
 70
  0
 62
  7
 10
49.155325
 20
15.446702
 30
0.000000
  0
VERTEX
  8
MERGEDLAYER-1
 10
49.155325
 20
15.446702
 30
0.000000
  0
VERTEX
  8
MERGEDLAYER-1
 10
49.200040
 20
15.446702
 30
0.000000
  0
SEQEND
  8
MERGEDLAYER-1
  0
POLYLINE
  8
MERGEDLAYER-1
 66
  1
 70
  0
 62
  7
 10
49.140325
 20
15.461703
 30
0.000000
  0
VERTEX
  8
MERGEDLAYER-1
 10
49.140325
 20
15.461703
 30
0.000000
  0
VERTEX
  8
MERGEDLAYER-1
 10
49.155325
 20
15.446702
 30
0.000000
  0
SEQEND
  8
MERGEDLAYER-1
  0
POLYLINE
  8
MERGEDLAYER-1
 66
  1
 70
  0
 62
  7
 10
49.140325
 20
15.538969
 30
0.000000
  0
VERTEX
  8
MERGEDLAYER-1
 10
49.140325
 20
15.538969
 30
0.000000
  0
VERTEX
  8
MERGEDLAYER-1
 10
49.140325
 20
15.461703
 30
0.000000
  0
SEQEND
  8
MERGEDLAYER-1
  0
POLYLINE
  8
MERGEDLAYER-1
 66
  1
 70
  0
 62
  7
 10
49.140329
 20
15.538969
 30
0.000000
  0
VERTEX
  8
MERGEDLAYER-1
 10
49.140329
 20
15.538969
 30
0.000000
  0
VERTEX
  8
MERGEDLAYER-1
 10
49.125333
 20
15.553969
 30
0.000000
  0
SEQEND
  8
MERGEDLAYER-1
  0
POLYLINE
  8
MERGEDLAYER-1
 66
  1
 70
  0
 62
  7
 10
49.055321
 20
15.553969
 30
0.000000
  0
VERTEX
  8
MERGEDLAYER-1
 10
49.055321
 20
15.553969
 30
0.000000
  0
VERTEX
  8
MERGEDLAYER-1
 10
49.125333
 20
15.553969
 30
0.000000
  0
SEQEND
  8
MERGEDLAYER-1
  0
POLYLINE
  8
MERGEDLAYER-1
 66
  1
 70
  0
 62
  7
 10
49.055321
 20
15.553969
 30
0.000000
  0
VERTEX
  8
MERGEDLAYER-1
 10
49.055321
 20
15.553969
 30
0.000000
  0
VERTEX
  8
MERGEDLAYER-1
 10
49.040325
 20
15.538969
 30
0.000000
  0
SEQEND
  8
MERGEDLAYER-1
  0
POLYLINE
  8
MERGEDLAYER-1
 66
  1
 70
  0
 62
  7
 10
49.040330
 20
15.461557
 30
0.000000
  0
VERTEX
  8
MERGEDLAYER-1
 10
49.040330
 20
15.461557
 30
0.000000
  0
VERTEX
  8
MERGEDLAYER-1
 10
49.040330
 20
15.538969
 30
0.000000
  0
SEQEND
  8
MERGEDLAYER-1
  0
POLYLINE
  8
MERGEDLAYER-1
 66
  1
 70
  0
 62
  7
 10
49.025320
 20
15.446557
 30
0.000000
  0
VERTEX
  8
MERGEDLAYER-1
 10
49.025320
 20
15.446557
 30
0.000000
  0
VERTEX
  8
MERGEDLAYER-1
 10
49.040316
 20
15.461557
 30
0.000000
  0
SEQEND
  8
MERGEDLAYER-1
  0
POLYLINE
  8
MERGEDLAYER-1
 66
  1
 70
  0
 62
  7
 10
48.980046
 20
15.446561
 30
0.000000
  0
VERTEX
  8
MERGEDLAYER-1
 10
48.980046
 20
15.446561
 30
0.000000
  0
VERTEX
  8
MERGEDLAYER-1
 10
49.025320
 20
15.446561
 30
0.000000
  0
SEQEND
  8
MERGEDLAYER-1
  0
POLYLINE
  8
MERGEDLAYER-1
 66
  1
 70
  0
 62
  7
 10
48.965050
 20
15.461557
 30
0.000000
  0
VERTEX
  8
MERGEDLAYER-1
 10
48.965050
 20
15.461557
 30
0.000000
  0
VERTEX
  8
MERGEDLAYER-1
 10
48.980046
 20
15.446557
 30
0.000000
  0
SEQEND
  8
MERGEDLAYER-1
  0
POLYLINE
  8
MERGEDLAYER-1
 66
  1
 70
  0
 62
  7
 10
48.965046
 20
15.678983
 30
0.000000
  0
VERTEX
  8
MERGEDLAYER-1
 10
48.965046
 20
15.678983
 30
0.000000
  0
VERTEX
  8
MERGEDLAYER-1
 10
48.965046
 20
15.461557
 30
0.000000
  0
SEQEND
  8
MERGEDLAYER-1
  0
POLYLINE
  8
MERGEDLAYER-1
 66
  1
 70
  0
 62
  7
 10
48.965036
 20
15.678983
 30
0.000000
  0
VERTEX
  8
MERGEDLAYER-1
 10
48.965036
 20
15.678983
 30
0.000000
  0
VERTEX
  8
MERGEDLAYER-1
 10
48.950040
 20
15.693979
 30
0.000000
  0
SEQEND
  8
MERGEDLAYER-1
  0
POLYLINE
  8
MERGEDLAYER-1
 66
  1
 70
  0
 62
  7
 10
48.900043
 20
15.693979
 30
0.000000
  0
VERTEX
  8
MERGEDLAYER-1
 10
48.900043
 20
15.693979
 30
0.000000
  0
VERTEX
  8
MERGEDLAYER-1
 10
48.950040
 20
15.693979
 30
0.000000
  0
SEQEND
  8
MERGEDLAYER-1
  0
POLYLINE
  8
MERGEDLAYER-1
 66
  1
 70
  0
 62
  7
 10
48.900043
 20
15.693979
 30
0.000000
  0
VERTEX
  8
MERGEDLAYER-1
 10
48.900043
 20
15.693979
 30
0.000000
  0
VERTEX
  8
MERGEDLAYER-1
 10
48.885043
 20
15.678983
 30
0.000000
  0
SEQEND
  8
MERGEDLAYER-1
  0
POLYLINE
  8
MERGEDLAYER-1
 66
  1
 70
  0
 62
  7
 10
48.885038
 20
15.461712
 30
0.000000
  0
VERTEX
  8
MERGEDLAYER-1
 10
48.885038
 20
15.461712
 30
0.000000
  0
VERTEX
  8
MERGEDLAYER-1
 10
48.885038
 20
15.678983
 30
0.000000
  0
SEQEND
  8
MERGEDLAYER-1
  0
POLYLINE
  8
MERGEDLAYER-1
 66
  1
 70
  0
 62
  7
 10
48.870033
 20
15.446716
 30
0.000000
  0
VERTEX
  8
MERGEDLAYER-1
 10
48.870033
 20
15.446716
 30
0.000000
  0
VERTEX
  8
MERGEDLAYER-1
 10
48.885033
 20
15.461712
 30
0.000000
  0
SEQEND
  8
MERGEDLAYER-1
  0
POLYLINE
  8
MERGEDLAYER-1
 66
  1
 70
  0
 62
  7
 10
48.677232
 20
15.446716
 30
0.000000
  0
VERTEX
  8
MERGEDLAYER-1
 10
48.677232
 20
15.446716
 30
0.000000
  0
VERTEX
  8
MERGEDLAYER-1
 10
48.870033
 20
15.446716
 30
0.000000
  0
SEQEND
  8
MERGEDLAYER-1
  0
POLYLINE
  8
MERGEDLAYER-1
 66
  1
 70
  0
 62
  7
 10
48.662236
 20
15.461712
 30
0.000000
  0
VERTEX
  8
MERGEDLAYER-1
 10
48.662236
 20
15.461712
 30
0.000000
  0
VERTEX
  8
MERGEDLAYER-1
 10
48.677232
 20
15.446716
 30
0.000000
  0
SEQEND
  8
MERGEDLAYER-1
  0
POLYLINE
  8
MERGEDLAYER-1
 66
  1
 70
  0
 62
  7
 10
48.536907
 20
15.461703
 30
0.000000
  0
VERTEX
  8
MERGEDLAYER-1
 10
48.536907
 20
15.461703
 30
0.000000
  0
VERTEX
  8
MERGEDLAYER-1
 10
48.662231
 20
15.461712
 30
0.000000
  0
SEQEND
  8
MERGEDLAYER-1
  0
POLYLINE
  8
MERGEDLAYER-1
 66
  1
 70
  0
 62
  7
 10
48.521902
 20
15.446702
 30
0.000000
  0
VERTEX
  8
MERGEDLAYER-1
 10
48.521902
 20
15.446702
 30
0.000000
  0
VERTEX
  8
MERGEDLAYER-1
 10
48.536898
 20
15.461703
 30
0.000000
  0
SEQEND
  8
MERGEDLAYER-1
  0
POLYLINE
  8
MERGEDLAYER-1
 66
  1
 70
  0
 62
  7
 10
48.521902
 20
15.446702
 30
0.000000
  0
VERTEX
  8
MERGEDLAYER-1
 10
48.521902
 20
15.446702
 30
0.000000
  0
VERTEX
  8
MERGEDLAYER-1
 10
48.472196
 20
15.446702
 30
0.000000
  0
SEQEND
  8
MERGEDLAYER-1
  0
POLYLINE
  8
MERGEDLAYER-1
 66
  1
 70
  0
 62
  7
 10
48.457200
 20
15.461703
 30
0.000000
  0
VERTEX
  8
MERGEDLAYER-1
 10
48.457200
 20
15.461703
 30
0.000000
  0
VERTEX
  8
MERGEDLAYER-1
 10
48.472196
 20
15.446702
 30
0.000000
  0
SEQEND
  8
MERGEDLAYER-1
  0
POLYLINE
  8
MERGEDLAYER-1
 66
  1
 70
  0
 62
  7
 10
48.457191
 20
15.538969
 30
0.000000
  0
VERTEX
  8
MERGEDLAYER-1
 10
48.457191
 20
15.538969
 30
0.000000
  0
VERTEX
  8
MERGEDLAYER-1
 10
48.457191
 20
15.461703
 30
0.000000
  0
SEQEND
  8
MERGEDLAYER-1
  0
POLYLINE
  8
MERGEDLAYER-1
 66
  1
 70
  0
 62
  7
 10
48.457186
 20
15.538969
 30
0.000000
  0
VERTEX
  8
MERGEDLAYER-1
 10
48.457186
 20
15.538969
 30
0.000000
  0
VERTEX
  8
MERGEDLAYER-1
 10
48.442190
 20
15.553969
 30
0.000000
  0
SEQEND
  8
MERGEDLAYER-1
  0
POLYLINE
  8
MERGEDLAYER-1
 66
  1
 70
  0
 62
  7
 10
48.442190
 20
15.553969
 30
0.000000
  0
VERTEX
  8
MERGEDLAYER-1
 10
48.442190
 20
15.553969
 30
0.000000
  0
VERTEX
  8
MERGEDLAYER-1
 10
48.372188
 20
15.553969
 30
0.000000
  0
SEQEND
  8
MERGEDLAYER-1
  0
POLYLINE
  8
MERGEDLAYER-1
 66
  1
 70
  0
 62
  7
 10
48.372188
 20
15.553969
 30
0.000000
  0
VERTEX
  8
MERGEDLAYER-1
 10
48.372188
 20
15.553969
 30
0.000000
  0
VERTEX
  8
MERGEDLAYER-1
 10
48.357187
 20
15.538969
 30
0.000000
  0
SEQEND
  8
MERGEDLAYER-1
  0
POLYLINE
  8
MERGEDLAYER-1
 66
  1
 70
  0
 62
  7
 10
48.357187
 20
15.461557
 30
0.000000
  0
VERTEX
  8
MERGEDLAYER-1
 10
48.357187
 20
15.461557
 30
0.000000
  0
VERTEX
  8
MERGEDLAYER-1
 10
48.357187
 20
15.538969
 30
0.000000
  0
SEQEND
  8
MERGEDLAYER-1
  0
POLYLINE
  8
MERGEDLAYER-1
 66
  1
 70
  0
 62
  7
 10
48.342191
 20
15.446557
 30
0.000000
  0
VERTEX
  8
MERGEDLAYER-1
 10
48.342191
 20
15.446557
 30
0.000000
  0
VERTEX
  8
MERGEDLAYER-1
 10
48.357187
 20
15.461557
 30
0.000000
  0
SEQEND
  8
MERGEDLAYER-1
  0
POLYLINE
  8
MERGEDLAYER-1
 66
  1
 70
  0
 62
  7
 10
48.291908
 20
15.446561
 30
0.000000
  0
VERTEX
  8
MERGEDLAYER-1
 10
48.291908
 20
15.446561
 30
0.000000
  0
VERTEX
  8
MERGEDLAYER-1
 10
48.342191
 20
15.446561
 30
0.000000
  0
SEQEND
  8
MERGEDLAYER-1
  0
POLYLINE
  8
MERGEDLAYER-1
 66
  1
 70
  0
 62
  7
 10
48.276907
 20
15.461557
 30
0.000000
  0
VERTEX
  8
MERGEDLAYER-1
 10
48.276907
 20
15.461557
 30
0.000000
  0
VERTEX
  8
MERGEDLAYER-1
 10
48.291908
 20
15.446557
 30
0.000000
  0
SEQEND
  8
MERGEDLAYER-1
  0
POLYLINE
  8
MERGEDLAYER-1
 66
  1
 70
  0
 62
  7
 10
48.276912
 20
15.678983
 30
0.000000
  0
VERTEX
  8
MERGEDLAYER-1
 10
48.276912
 20
15.678983
 30
0.000000
  0
VERTEX
  8
MERGEDLAYER-1
 10
48.276912
 20
15.461557
 30
0.000000
  0
SEQEND
  8
MERGEDLAYER-1
  0
POLYLINE
  8
MERGEDLAYER-1
 66
  1
 70
  0
 62
  7
 10
48.276902
 20
15.678983
 30
0.000000
  0
VERTEX
  8
MERGEDLAYER-1
 10
48.276902
 20
15.678983
 30
0.000000
  0
VERTEX
  8
MERGEDLAYER-1
 10
48.261907
 20
15.693979
 30
0.000000
  0
SEQEND
  8
MERGEDLAYER-1
  0
POLYLINE
  8
MERGEDLAYER-1
 66
  1
 70
  0
 62
  7
 10
48.261907
 20
15.693979
 30
0.000000
  0
VERTEX
  8
MERGEDLAYER-1
 10
48.261907
 20
15.693979
 30
0.000000
  0
VERTEX
  8
MERGEDLAYER-1
 10
48.196904
 20
15.693979
 30
0.000000
  0
SEQEND
  8
MERGEDLAYER-1
  0
POLYLINE
  8
MERGEDLAYER-1
 66
  1
 70
  0
 62
  7
 10
48.196904
 20
15.693979
 30
0.000000
  0
VERTEX
  8
MERGEDLAYER-1
 10
48.196904
 20
15.693979
 30
0.000000
  0
VERTEX
  8
MERGEDLAYER-1
 10
48.181904
 20
15.678983
 30
0.000000
  0
SEQEND
  8
MERGEDLAYER-1
  0
POLYLINE
  8
MERGEDLAYER-1
 66
  1
 70
  0
 62
  7
 10
48.181899
 20
15.678983
 30
0.000000
  0
VERTEX
  8
MERGEDLAYER-1
 10
48.181899
 20
15.678983
 30
0.000000
  0
VERTEX
  8
MERGEDLAYER-1
 10
48.181899
 20
15.476708
 30
0.000000
  0
SEQEND
  8
MERGEDLAYER-1
  0
POLYLINE
  8
MERGEDLAYER-1
 66
  1
 70
  0
 62
  7
 10
48.166898
 20
15.461707
 30
0.000000
  0
VERTEX
  8
MERGEDLAYER-1
 10
48.166898
 20
15.461707
 30
0.000000
  0
VERTEX
  8
MERGEDLAYER-1
 10
48.181894
 20
15.476708
 30
0.000000
  0
SEQEND
  8
MERGEDLAYER-1
  0
POLYLINE
  8
MERGEDLAYER-1
 66
  1
 70
  0
 62
  7
 10
48.166898
 20
15.461712
 30
0.000000
  0
VERTEX
  8
MERGEDLAYER-1
 10
48.166898
 20
15.461712
 30
0.000000
  0
VERTEX
  8
MERGEDLAYER-1
 10
47.043837
 20
15.461712
 30
0.000000
  0
SEQEND
  8
MERGEDLAYER-1
  0
POLYLINE
  8
MERGEDLAYER-1
 66
  1
 70
  0
 62
  7
 10
47.028837
 20
15.476708
 30
0.000000
  0
VERTEX
  8
MERGEDLAYER-1
 10
47.028837
 20
15.476708
 30
0.000000
  0
VERTEX
  8
MERGEDLAYER-1
 10
47.043837
 20
15.461707
 30
0.000000
  0
SEQEND
  8
MERGEDLAYER-1
  0
POLYLINE
  8
MERGEDLAYER-1
 66
  1
 70
  0
 62
  7
 10
47.028841
 20
15.748573
 30
0.000000
  0
VERTEX
  8
MERGEDLAYER-1
 10
47.028841
 20
15.748573
 30
0.000000
  0
VERTEX
  8
MERGEDLAYER-1
 10
47.028841
 20
15.476708
 30
0.000000
  0
SEQEND
  8
MERGEDLAYER-1
  0
POLYLINE
  8
MERGEDLAYER-1
 66
  1
 70
  0
 62
  7
 10
47.028841
 20
15.748573
 30
0.000000
  0
VERTEX
  8
MERGEDLAYER-1
 10
47.028841
 20
15.748573
 30
0.000000
  0
VERTEX
  8
MERGEDLAYER-1
 10
46.973844
 20
15.803565
 30
0.000000
  0
SEQEND
  8
MERGEDLAYER-1
  0
POLYLINE
  8
MERGEDLAYER-1
 66
  1
 70
  0
 62
  7
 10
46.910147
 20
15.803565
 30
0.000000
  0
VERTEX
  8
MERGEDLAYER-1
 10
46.910147
 20
15.803565
 30
0.000000
  0
VERTEX
  8
MERGEDLAYER-1
 10
46.973844
 20
15.803565
 30
0.000000
  0
SEQEND
  8
MERGEDLAYER-1
  0
POLYLINE
  8
MERGEDLAYER-1
 66
  1
 70
  0
 62
  7
 10
46.910147
 20
15.803565
 30
0.000000
  0
VERTEX
  8
MERGEDLAYER-1
 10
46.910147
 20
15.803565
 30
0.000000
  0
VERTEX
  8
MERGEDLAYER-1
 10
46.895146
 20
15.788565
 30
0.000000
  0
SEQEND
  8
MERGEDLAYER-1
  0
POLYLINE
  8
MERGEDLAYER-1
 66
  1
 70
  0
 62
  7
 10
46.895146
 20
15.779203
 30
0.000000
  0
VERTEX
  8
MERGEDLAYER-1
 10
46.895146
 20
15.779203
 30
0.000000
  0
VERTEX
  8
MERGEDLAYER-1
 10
46.895146
 20
15.788565
 30
0.000000
  0
SEQEND
  8
MERGEDLAYER-1
  0
POLYLINE
  8
MERGEDLAYER-1
 66
  1
 70
  0
 62
  7
 10
46.895146
 20
15.779203
 30
0.000000
  0
VERTEX
  8
MERGEDLAYER-1
 10
46.895146
 20
15.779203
 30
0.000000
  0
VERTEX
  8
MERGEDLAYER-1
 10
46.910147
 20
15.764207
 30
0.000000
  0
SEQEND
  8
MERGEDLAYER-1
  0
POLYLINE
  8
MERGEDLAYER-1
 66
  1
 70
  0
 62
  7
 10
46.910147
 20
15.764207
 30
0.000000
  0
VERTEX
  8
MERGEDLAYER-1
 10
46.910147
 20
15.764207
 30
0.000000
  0
VERTEX
  8
MERGEDLAYER-1
 10
46.958834
 20
15.764207
 30
0.000000
  0
SEQEND
  8
MERGEDLAYER-1
  0
POLYLINE
  8
MERGEDLAYER-1
 66
  1
 70
  0
 62
  7
 10
46.973835
 20
15.749211
 30
0.000000
  0
VERTEX
  8
MERGEDLAYER-1
 10
46.973835
 20
15.749211
 30
0.000000
  0
VERTEX
  8
MERGEDLAYER-1
 10
46.958834
 20
15.764207
 30
0.000000
  0
SEQEND
  8
MERGEDLAYER-1
  0
POLYLINE
  8
MERGEDLAYER-1
 66
  1
 70
  0
 62
  7
 10
46.973835
 20
15.749211
 30
0.000000
  0
VERTEX
  8
MERGEDLAYER-1
 10
46.973835
 20
15.749211
 30
0.000000
  0
VERTEX
  8
MERGEDLAYER-1
 10
46.973835
 20
15.692665
 30
0.000000
  0
SEQEND
  8
MERGEDLAYER-1
  0
POLYLINE
  8
MERGEDLAYER-1
 66
  1
 70
  0
 62
  7
 10
46.958834
 20
15.677664
 30
0.000000
  0
VERTEX
  8
MERGEDLAYER-1
 10
46.958834
 20
15.677664
 30
0.000000
  0
VERTEX
  8
MERGEDLAYER-1
 10
46.973835
 20
15.692665
 30
0.000000
  0
SEQEND
  8
MERGEDLAYER-1
  0
POLYLINE
  8
MERGEDLAYER-1
 66
  1
 70
  0
 62
  7
 10
46.958834
 20
15.677673
 30
0.000000
  0
VERTEX
  8
MERGEDLAYER-1
 10
46.958834
 20
15.677673
 30
0.000000
  0
VERTEX
  8
MERGEDLAYER-1
 10
46.910053
 20
15.677673
 30
0.000000
  0
SEQEND
  8
MERGEDLAYER-1
  0
POLYLINE
  8
MERGEDLAYER-1
 66
  1
 70
  0
 62
  7
 10
46.910053
 20
15.677669
 30
0.000000
  0
VERTEX
  8
MERGEDLAYER-1
 10
46.910053
 20
15.677669
 30
0.000000
  0
VERTEX
  8
MERGEDLAYER-1
 10
46.893085
 20
15.664640
 30
0.000000
  0
VERTEX
  8
MERGEDLAYER-1
 10
46.895057
 20
15.662649
 30
0.000000
  0
SEQEND
  8
MERGEDLAYER-1
  0
POLYLINE
  8
MERGEDLAYER-1
 66
  1
 70
  0
 62
  7
 10
46.895048
 20
15.662645
 30
0.000000
  0
VERTEX
  8
MERGEDLAYER-1
 10
46.895048
 20
15.662645
 30
0.000000
  0
VERTEX
  8
MERGEDLAYER-1
 10
46.895146
 20
15.592356
 30
0.000000
  0
SEQEND
  8
MERGEDLAYER-1
  0
POLYLINE
  8
MERGEDLAYER-1
 66
  1
 70
  0
 62
  7
 10
46.895146
 20
15.592360
 30
0.000000
  0
VERTEX
  8
MERGEDLAYER-1
 10
46.895146
 20
15.592360
 30
0.000000
  0
VERTEX
  8
MERGEDLAYER-1
 10
46.893916
 20
15.589698
 30
0.000000
  0
VERTEX
  8
MERGEDLAYER-1
 10
46.896048
 20
15.585524
 30
0.000000
  0
VERTEX
  8
MERGEDLAYER-1
 10
46.899367
 20
15.582210
 30
0.000000
  0
VERTEX
  8
MERGEDLAYER-1
 10
46.903546
 20
15.580083
 30
0.000000
  0
VERTEX
  8
MERGEDLAYER-1
 10
46.910147
 20
15.577383
 30
0.000000
  0
SEQEND
  8
MERGEDLAYER-1
  0
POLYLINE
  8
MERGEDLAYER-1
 66
  1
 70
  0
 62
  7
 10
46.910147
 20
15.577383
 30
0.000000
  0
VERTEX
  8
MERGEDLAYER-1
 10
46.910147
 20
15.577383
 30
0.000000
  0
VERTEX
  8
MERGEDLAYER-1
 10
46.958834
 20
15.577383
 30
0.000000
  0
SEQEND
  8
MERGEDLAYER-1
  0
POLYLINE
  8
MERGEDLAYER-1
 66
  1
 70
  0
 62
  7
 10
46.973835
 20
15.562387
 30
0.000000
  0
VERTEX
  8
MERGEDLAYER-1
 10
46.973835
 20
15.562387
 30
0.000000
  0
VERTEX
  8
MERGEDLAYER-1
 10
46.958834
 20
15.577388
 30
0.000000
  0
SEQEND
  8
MERGEDLAYER-1
  0
POLYLINE
  8
MERGEDLAYER-1
 66
  1
 70
  0
 62
  7
 10
46.973835
 20
15.562387
 30
0.000000
  0
VERTEX
  8
MERGEDLAYER-1
 10
46.973835
 20
15.562387
 30
0.000000
  0
VERTEX
  8
MERGEDLAYER-1
 10
46.973835
 20
15.436354
 30
0.000000
  0
SEQEND
  8
MERGEDLAYER-1
  0
POLYLINE
  8
MERGEDLAYER-1
 66
  1
 70
  0
 62
  7
 10
46.958834
 20
15.421354
 30
0.000000
  0
VERTEX
  8
MERGEDLAYER-1
 10
46.958834
 20
15.421354
 30
0.000000
  0
VERTEX
  8
MERGEDLAYER-1
 10
46.973835
 20
15.436354
 30
0.000000
  0
SEQEND
  8
MERGEDLAYER-1
  0
POLYLINE
  8
MERGEDLAYER-1
 66
  1
 70
  0
 62
  7
 10
46.668837
 20
15.421354
 30
0.000000
  0
VERTEX
  8
MERGEDLAYER-1
 10
46.668837
 20
15.421354
 30
0.000000
  0
VERTEX
  8
MERGEDLAYER-1
 10
46.958834
 20
15.421354
 30
0.000000
  0
SEQEND
  8
MERGEDLAYER-1
  0
POLYLINE
  8
MERGEDLAYER-1
 66
  1
 70
  0
 62
  7
 10
46.599835
 20
15.490347
 30
0.000000
  0
VERTEX
  8
MERGEDLAYER-1
 10
46.599835
 20
15.490347
 30
0.000000
  0
VERTEX
  8
MERGEDLAYER-1
 10
46.668837
 20
15.421354
 30
0.000000
  0
SEQEND
  8
MERGEDLAYER-1
  0
POLYLINE
  8
MERGEDLAYER-1
 66
  1
 70
  0
 62
  7
 10
46.599825
 20
15.490347
 30
0.000000
  0
VERTEX
  8
MERGEDLAYER-1
 10
46.599825
 20
15.490347
 30
0.000000
  0
VERTEX
  8
MERGEDLAYER-1
 10
46.599825
 20
15.562387
 30
0.000000
  0
SEQEND
  8
MERGEDLAYER-1
  0
POLYLINE
  8
MERGEDLAYER-1
 66
  1
 70
  0
 62
  7
 10
46.614831
 20
15.577388
 30
0.000000
  0
VERTEX
  8
MERGEDLAYER-1
 10
46.614831
 20
15.577388
 30
0.000000
  0
VERTEX
  8
MERGEDLAYER-1
 10
46.599830
 20
15.562387
 30
0.000000
  0
SEQEND
  8
MERGEDLAYER-1
  0
POLYLINE
  8
MERGEDLAYER-1
 66
  1
 70
  0
 62
  7
 10
46.614831
 20
15.577383
 30
0.000000
  0
VERTEX
  8
MERGEDLAYER-1
 10
46.614831
 20
15.577383
 30
0.000000
  0
VERTEX
  8
MERGEDLAYER-1
 10
46.663668
 20
15.577383
 30
0.000000
  0
SEQEND
  8
MERGEDLAYER-1
  0
POLYLINE
  8
MERGEDLAYER-1
 66
  1
 70
  0
 62
  7
 10
46.663668
 20
15.577383
 30
0.000000
  0
VERTEX
  8
MERGEDLAYER-1
 10
46.663668
 20
15.577383
 30
0.000000
  0
VERTEX
  8
MERGEDLAYER-1
 10
46.678669
 20
15.592379
 30
0.000000
  0
SEQEND
  8
MERGEDLAYER-1
  0
POLYLINE
  8
MERGEDLAYER-1
 66
  1
 70
  0
 62
  7
 10
46.678669
 20
15.592379
 30
0.000000
  0
VERTEX
  8
MERGEDLAYER-1
 10
46.678669
 20
15.592379
 30
0.000000
  0
VERTEX
  8
MERGEDLAYER-1
 10
46.678669
 20
15.662668
 30
0.000000
  0
SEQEND
  8
MERGEDLAYER-1
  0
POLYLINE
  8
MERGEDLAYER-1
 66
  1
 70
  0
 62
  7
 10
46.678669
 20
15.662668
 30
0.000000
  0
VERTEX
  8
MERGEDLAYER-1
 10
46.678669
 20
15.662668
 30
0.000000
  0
VERTEX
  8
MERGEDLAYER-1
 10
46.663668
 20
15.677669
 30
0.000000
  0
SEQEND
  8
MERGEDLAYER-1
  0
POLYLINE
  8
MERGEDLAYER-1
 66
  1
 70
  0
 62
  7
 10
46.663668
 20
15.677673
 30
0.000000
  0
VERTEX
  8
MERGEDLAYER-1
 10
46.663668
 20
15.677673
 30
0.000000
  0
VERTEX
  8
MERGEDLAYER-1
 10
46.614831
 20
15.677673
 30
0.000000
  0
SEQEND
  8
MERGEDLAYER-1
  0
POLYLINE
  8
MERGEDLAYER-1
 66
  1
 70
  0
 62
  7
 10
46.599830
 20
15.692665
 30
0.000000
  0
VERTEX
  8
MERGEDLAYER-1
 10
46.599830
 20
15.692665
 30
0.000000
  0
VERTEX
  8
MERGEDLAYER-1
 10
46.614831
 20
15.677664
 30
0.000000
  0
SEQEND
  8
MERGEDLAYER-1
  0
POLYLINE
  8
MERGEDLAYER-1
 66
  1
 70
  0
 62
  7
 10
46.599825
 20
15.692665
 30
0.000000
  0
VERTEX
  8
MERGEDLAYER-1
 10
46.599825
 20
15.692665
 30
0.000000
  0
VERTEX
  8
MERGEDLAYER-1
 10
46.599825
 20
15.749211
 30
0.000000
  0
SEQEND
  8
MERGEDLAYER-1
  0
POLYLINE
  8
MERGEDLAYER-1
 66
  1
 70
  0
 62
  7
 10
46.614831
 20
15.764207
 30
0.000000
  0
VERTEX
  8
MERGEDLAYER-1
 10
46.614831
 20
15.764207
 30
0.000000
  0
VERTEX
  8
MERGEDLAYER-1
 10
46.599830
 20
15.749211
 30
0.000000
  0
SEQEND
  8
MERGEDLAYER-1
  0
POLYLINE
  8
MERGEDLAYER-1
 66
  1
 70
  0
 62
  7
 10
46.614831
 20
15.764207
 30
0.000000
  0
VERTEX
  8
MERGEDLAYER-1
 10
46.614831
 20
15.764207
 30
0.000000
  0
VERTEX
  8
MERGEDLAYER-1
 10
46.663668
 20
15.764207
 30
0.000000
  0
SEQEND
  8
MERGEDLAYER-1
  0
POLYLINE
  8
MERGEDLAYER-1
 66
  1
 70
  0
 62
  7
 10
46.663668
 20
15.764202
 30
0.000000
  0
VERTEX
  8
MERGEDLAYER-1
 10
46.663668
 20
15.764202
 30
0.000000
  0
VERTEX
  8
MERGEDLAYER-1
 10
46.678669
 20
15.779198
 30
0.000000
  0
SEQEND
  8
MERGEDLAYER-1
  0
POLYLINE
  8
MERGEDLAYER-1
 66
  1
 70
  0
 62
  7
 10
46.678669
 20
15.779198
 30
0.000000
  0
VERTEX
  8
MERGEDLAYER-1
 10
46.678669
 20
15.779198
 30
0.000000
  0
VERTEX
  8
MERGEDLAYER-1
 10
46.678669
 20
15.788565
 30
0.000000
  0
SEQEND
  8
MERGEDLAYER-1
  0
POLYLINE
  8
MERGEDLAYER-1
 66
  1
 70
  0
 62
  7
 10
46.678669
 20
15.788565
 30
0.000000
  0
VERTEX
  8
MERGEDLAYER-1
 10
46.678669
 20
15.788565
 30
0.000000
  0
VERTEX
  8
MERGEDLAYER-1
 10
46.663668
 20
15.803565
 30
0.000000
  0
SEQEND
  8
MERGEDLAYER-1
  0
POLYLINE
  8
MERGEDLAYER-1
 66
  1
 70
  0
 62
  7
 10
46.663668
 20
15.803565
 30
0.000000
  0
VERTEX
  8
MERGEDLAYER-1
 10
46.663668
 20
15.803565
 30
0.000000
  0
VERTEX
  8
MERGEDLAYER-1
 10
46.599778
 20
15.803565
 30
0.000000
  0
SEQEND
  8
MERGEDLAYER-1
  0
POLYLINE
  8
MERGEDLAYER-1
 66
  1
 70
  0
 62
  7
 10
46.599778
 20
15.803565
 30
0.000000
  0
VERTEX
  8
MERGEDLAYER-1
 10
46.599778
 20
15.803565
 30
0.000000
  0
VERTEX
  8
MERGEDLAYER-1
 10
46.544781
 20
15.748573
 30
0.000000
  0
SEQEND
  8
MERGEDLAYER-1
  0
POLYLINE
  8
MERGEDLAYER-1
 66
  1
 70
  0
 62
  7
 10
46.544781
 20
15.748573
 30
0.000000
  0
VERTEX
  8
MERGEDLAYER-1
 10
46.544781
 20
15.748573
 30
0.000000
  0
VERTEX
  8
MERGEDLAYER-1
 10
46.544781
 20
15.490652
 30
0.000000
  0
SEQEND
  8
MERGEDLAYER-1
  0
POLYLINE
  8
MERGEDLAYER-1
 66
  1
 70
  0
 62
  7
 10
46.544790
 20
15.490652
 30
0.000000
  0
VERTEX
  8
MERGEDLAYER-1
 10
46.544790
 20
15.490652
 30
0.000000
  0
VERTEX
  8
MERGEDLAYER-1
 10
46.579139
 20
15.404954
 30
0.000000
  0
VERTEX
  8
MERGEDLAYER-1
 10
46.668790
 20
15.366671
 30
0.000000
  0
SEQEND
  8
MERGEDLAYER-1
  0
POLYLINE
  8
MERGEDLAYER-1
 66
  1
 70
  1
 62
  7
  0
VERTEX
  8
MERGEDLAYER-1
 10
48.536907
 20
16.896743
 30
0.000000
  0
VERTEX
  8
MERGEDLAYER-1
 10
48.662231
 20
16.896743
 30
0.000000
  0
VERTEX
  8
MERGEDLAYER-1
 10
48.662231
 20
15.461712
 30
0.000000
  0
VERTEX
  8
MERGEDLAYER-1
 10
48.536907
 20
15.461712
 30
0.000000
  0
SEQEND
  8
MERGEDLAYER-1
  0
POLYLINE
  8
MERGEDLAYER-1
 66
  1
 70
  0
 62
  7
 10
49.215046
 20
15.461703
 30
0.000000
  0
VERTEX
  8
MERGEDLAYER-1
 10
49.215046
 20
15.461703
 30
0.000000
  0
VERTEX
  8
MERGEDLAYER-1
 10
49.294828
 20
15.381578
 30
0.000000
  0
SEQEND
  8
MERGEDLAYER-1
  0
TEXT
  8
MERGEDLAYER-1
 62
  7
 10
59.152644
 20
42.078022
 30
0.000000
 40
0.750000
  1
CLEAR OPENING
 50
90.000000
 72
  5
 11
59.152644
 21
50.616483
 31
0.000000
  0
POLYLINE
  8
MERGEDLAYER-1
 66
  1
 70
  1
 62
  7
  0
VERTEX
  8
MERGEDLAYER-1
 10
12.383413
 20
16.799176
 30
0.000000
  0
VERTEX
  8
MERGEDLAYER-1
 10
12.633413
 20
16.799176
 30
0.000000
  0
VERTEX
  8
MERGEDLAYER-1
 10
12.633413
 20
15.549176
 30
0.000000
  0
VERTEX
  8
MERGEDLAYER-1
 10
12.383413
 20
15.549176
 30
0.000000
  0
SEQEND
  8
MERGEDLAYER-1
  0
POLYLINE
  8
MERGEDLAYER-1
 66
  1
 70
  1
 62
  7
  0
VERTEX
  8
MERGEDLAYER-1
 10
12.633412
 20
16.549176
 30
0.000000
  0
VERTEX
  8
MERGEDLAYER-1
 10
13.383412
 20
16.549176
 30
0.000000
  0
VERTEX
  8
MERGEDLAYER-1
 10
13.383412
 20
15.799176
 30
0.000000
  0
VERTEX
  8
MERGEDLAYER-1
 10
12.633412
 20
15.799176
 30
0.000000
  0
SEQEND
  8
MERGEDLAYER-1
  0
POLYLINE
  8
MERGEDLAYER-1
 66
  1
 70
  1
 62
  7
  0
VERTEX
  8
MERGEDLAYER-1
 10
48.277283
 20
16.799176
 30
0.000000
  0
VERTEX
  8
MERGEDLAYER-1
 10
48.527283
 20
16.799176
 30
0.000000
  0
VERTEX
  8
MERGEDLAYER-1
 10
48.527283
 20
15.549176
 30
0.000000
  0
VERTEX
  8
MERGEDLAYER-1
 10
48.277283
 20
15.549176
 30
0.000000
  0
SEQEND
  8
MERGEDLAYER-1
  0
POLYLINE
  8
MERGEDLAYER-1
 66
  1
 70
  1
 62
  7
  0
VERTEX
  8
MERGEDLAYER-1
 10
47.527287
 20
16.549176
 30
0.000000
  0
VERTEX
  8
MERGEDLAYER-1
 10
48.277287
 20
16.549176
 30
0.000000
  0
VERTEX
  8
MERGEDLAYER-1
 10
48.277287
 20
15.799176
 30
0.000000
  0
VERTEX
  8
MERGEDLAYER-1
 10
47.527287
 20
15.799176
 30
0.000000
  0
SEQEND
  8
MERGEDLAYER-1
  0
POLYLINE
  8
MERGEDLAYER-1
 66
  1
 70
  1
 62
  7
  0
VERTEX
  8
MERGEDLAYER-1
 10
40.230577
 20
63.767926
 30
0.000000
  0
VERTEX
  8
MERGEDLAYER-1
 10
55.312500
 20
63.767926
 30
0.000000
  0
VERTEX
  8
MERGEDLAYER-1
 10
55.312500
 20
63.291710
 30
0.000000
  0
VERTEX
  8
MERGEDLAYER-1
 10
40.230577
 20
63.291710
 30
0.000000
  0
SEQEND
  8
MERGEDLAYER-1
  0
POLYLINE
  8
MERGEDLAYER-1
 66
  1
 70
  1
 62
  7
  0
VERTEX
  8
MERGEDLAYER-1
 10
1.157160
 20
63.767926
 30
0.000000
  0
VERTEX
  8
MERGEDLAYER-1
 10
32.210339
 20
63.767926
 30
0.000000
  0
VERTEX
  8
MERGEDLAYER-1
 10
32.210339
 20
63.291710
 30
0.000000
  0
VERTEX
  8
MERGEDLAYER-1
 10
1.157160
 20
63.291710
 30
0.000000
  0
SEQEND
  8
MERGEDLAYER-1
  0
LINE
  8
MERGEDLAYER-1
 62
  7
 10
37.644078
 20
40.251549
 30
0.000000
 11
37.644078
 21
63.272024
 31
0.000000
  0
LINE
  8
MERGEDLAYER-1
 62
  7
 10
41.768034
 20
40.231868
 30
0.000000
 11
36.644078
 21
40.231868
 31
0.000000
  0
LINE
  8
MERGEDLAYER-1
 62
  7
 10
39.730577
 20
63.291710
 30
0.000000
 11
36.644078
 21
63.291710
 31
0.000000
  0
POLYLINE
  8
MERGEDLAYER-1
 66
  1
 70
  1
 62
  7
  0
VERTEX
  8
MERGEDLAYER-1
 10
37.644078
 20
40.231868
 30
0.000000
  0
VERTEX
  8
MERGEDLAYER-1
 10
37.874850
 20
40.616483
 30
0.000000
  0
VERTEX
  8
MERGEDLAYER-1
 10
37.644081
 20
40.616483
 30
0.000000
  0
VERTEX
  8
MERGEDLAYER-1
 10
37.413311
 20
40.616483
 30
0.000000
  0
VERTEX
  8
MERGEDLAYER-1
 10
37.644078
 20
40.231868
 30
0.000000
  0
SEQEND
  8
MERGEDLAYER-1
  0
POLYLINE
  8
MERGEDLAYER-1
 66
  1
 70
  1
 62
  7
  0
VERTEX
  8
MERGEDLAYER-1
 10
37.644078
 20
63.291710
 30
0.000000
  0
VERTEX
  8
MERGEDLAYER-1
 10
37.874845
 20
62.907090
 30
0.000000
  0
VERTEX
  8
MERGEDLAYER-1
 10
37.644076
 20
62.907095
 30
0.000000
  0
VERTEX
  8
MERGEDLAYER-1
 10
37.413307
 20
62.907095
 30
0.000000
  0
VERTEX
  8
MERGEDLAYER-1
 10
37.644078
 20
63.291710
 30
0.000000
  0
SEQEND
  8
MERGEDLAYER-1
  0
TEXT
  8
MERGEDLAYER-1
 62
  7
 10
37.630538
 20
51.617392
 30
0.000000
 40
0.692308
  1
 
  0
TEXT
  8
MERGEDLAYER-1
 62
  7
 10
35.998798
 20
44.924176
 30
0.000000
 40
0.750000
  1
SUPPORT HEIGHT "HS"
 50
90.000000
 72
  5
 11
35.998798
 21
56.462637
 31
0.000000
  0
POLYLINE
  8
MERGEDLAYER-1
 66
  1
 70
  1
 62
  7
  0
VERTEX
  8
MERGEDLAYER-1
 10
36.120972
 20
47.000188
 30
0.000000
  0
VERTEX
  8
MERGEDLAYER-1
 10
36.120972
 20
53.829998
 30
0.000000
  0
VERTEX
  8
MERGEDLAYER-1
 10
39.199069
 20
53.829998
 30
0.000000
  0
VERTEX
  8
MERGEDLAYER-1
 10
39.199069
 20
47.000188
 30
0.000000
  0
SEQEND
  8
MERGEDLAYER-1
  0
POLYLINE
  8
MERGEDLAYER-1
 66
  1
 70
  0
 62
  7
 40
0.230769
 41
0.230769
 10
39.006695
 20
53.810650
 30
0.000000
  0
VERTEX
  8
MERGEDLAYER-1
 10
39.006695
 20
53.810650
 30
0.000000
  0
VERTEX
  8
MERGEDLAYER-1
 10
39.006695
 20
47.025203
 30
0.000000
  0
SEQEND
  8
MERGEDLAYER-1
  0
LINE
  8
MERGEDLAYER-1
 62
  7
 10
11.632843
 20
24.832867
 30
0.000000
 11
49.276611
 21
24.832867
 31
0.000000
  0
LINE
  8
MERGEDLAYER-1
 62
  7
 10
11.613158
 20
18.673021
 30
0.000000
 11
11.613158
 21
25.832867
 31
0.000000
  0
LINE
  8
MERGEDLAYER-1
 62
  7
 10
49.296298
 20
18.682645
 30
0.000000
 11
49.296298
 21
25.832867
 31
0.000000
  0
POLYLINE
  8
MERGEDLAYER-1
 66
  1
 70
  1
 62
  7
  0
VERTEX
  8
MERGEDLAYER-1
 10
11.613158
 20
24.832867
 30
0.000000
  0
VERTEX
  8
MERGEDLAYER-1
 10
11.997775
 20
24.602102
 30
0.000000
  0
VERTEX
  8
MERGEDLAYER-1
 10
11.997773
 20
24.832872
 30
0.000000
  0
VERTEX
  8
MERGEDLAYER-1
 10
11.997772
 20
25.063641
 30
0.000000
  0
VERTEX
  8
MERGEDLAYER-1
 10
11.613158
 20
24.832867
 30
0.000000
  0
SEQEND
  8
MERGEDLAYER-1
  0
POLYLINE
  8
MERGEDLAYER-1
 66
  1
 70
  1
 62
  7
  0
VERTEX
  8
MERGEDLAYER-1
 10
49.296298
 20
24.832867
 30
0.000000
  0
VERTEX
  8
MERGEDLAYER-1
 10
48.911682
 20
24.602093
 30
0.000000
  0
VERTEX
  8
MERGEDLAYER-1
 10
48.911682
 20
24.832862
 30
0.000000
  0
VERTEX
  8
MERGEDLAYER-1
 10
48.911682
 20
25.063631
 30
0.000000
  0
VERTEX
  8
MERGEDLAYER-1
 10
49.296298
 20
24.832867
 30
0.000000
  0
SEQEND
  8
MERGEDLAYER-1
  0
TEXT
  8
MERGEDLAYER-1
 62
  7
 10
30.406128
 20
25.656762
 30
0.000000
 40
0.576923
  1
 
  0
TEXT
  8
MERGEDLAYER-1
 62
  7
 10
26.383413
 20
2.231868
 30
0.000000
 40
0.980769
  1
PLAN VIEW
 72
  5
 11
33.844952
 21
2.231868
 31
0.000000
  0
POLYLINE
  8
MERGEDLAYER-1
 66
  1
 70
  1
 62
  7
  0
VERTEX
  8
MERGEDLAYER-1
 10
21.843823
 20
26.454294
 30
0.000000
  0
VERTEX
  8
MERGEDLAYER-1
 10
27.366410
 20
26.454294
 30
0.000000
  0
VERTEX
  8
MERGEDLAYER-1
 10
27.366410
 20
23.221839
 30
0.000000
  0
VERTEX
  8
MERGEDLAYER-1
 10
21.843823
 20
23.221839
 30
0.000000
  0
SEQEND
  8
MERGEDLAYER-1
  0
POLYLINE
  8
MERGEDLAYER-1
 66
  1
 70
  0
 62
  7
 40
0.230769
 41
0.230769
 10
27.330552
 20
23.423870
 30
0.000000
  0
VERTEX
  8
MERGEDLAYER-1
 10
27.330552
 20
23.423870
 30
0.000000
  0
VERTEX
  8
MERGEDLAYER-1
 10
21.843823
 20
23.423870
 30
0.000000
  0
SEQEND
  8
MERGEDLAYER-1
  0
POLYLINE
  8
MERGEDLAYER-1
 66
  1
 70
  1
 62
  7
  0
VERTEX
  8
MERGEDLAYER-1
 10
27.643266
 20
26.454294
 30
0.000000
  0
VERTEX
  8
MERGEDLAYER-1
 10
33.165779
 20
26.454294
 30
0.000000
  0
VERTEX
  8
MERGEDLAYER-1
 10
33.165779
 20
23.221839
 30
0.000000
  0
VERTEX
  8
MERGEDLAYER-1
 10
27.643266
 20
23.221839
 30
0.000000
  0
SEQEND
  8
MERGEDLAYER-1
  0
POLYLINE
  8
MERGEDLAYER-1
 66
  1
 70
  0
 62
  7
 40
0.230769
 41
0.230769
 10
33.129918
 20
23.423870
 30
0.000000
  0
VERTEX
  8
MERGEDLAYER-1
 10
33.129918
 20
23.423870
 30
0.000000
  0
VERTEX
  8
MERGEDLAYER-1
 10
27.643266
 20
23.423870
 30
0.000000
  0
SEQEND
  8
MERGEDLAYER-1
  0
POLYLINE
  8
MERGEDLAYER-1
 66
  1
 70
  1
 62
  7
  0
VERTEX
  8
MERGEDLAYER-1
 10
33.442700
 20
26.454294
 30
0.000000
  0
VERTEX
  8
MERGEDLAYER-1
 10
38.965224
 20
26.454294
 30
0.000000
  0
VERTEX
  8
MERGEDLAYER-1
 10
38.965224
 20
23.221839
 30
0.000000
  0
VERTEX
  8
MERGEDLAYER-1
 10
33.442700
 20
23.221839
 30
0.000000
  0
SEQEND
  8
MERGEDLAYER-1
  0
POLYLINE
  8
MERGEDLAYER-1
 66
  1
 70
  0
 62
  7
 40
0.230769
 41
0.230769
 10
38.929364
 20
23.423870
 30
0.000000
  0
VERTEX
  8
MERGEDLAYER-1
 10
38.929364
 20
23.423870
 30
0.000000
  0
VERTEX
  8
MERGEDLAYER-1
 10
33.442700
 20
23.423870
 30
0.000000
  0
SEQEND
  8
MERGEDLAYER-1
  0
TEXT
  8
MERGEDLAYER-1
 62
  7
 10
27.921875
 20
26.616483
 30
0.000000
 40
0.461538
  1
"W" AT MIDDLE:
 72
  5
 11
32.921875
 21
26.616483
 31
0.000000
  0
TEXT
  8
MERGEDLAYER-1
 62
  7
 10
22.229567
 20
26.616483
 30
0.000000
 40
0.461538
  1
"W" AT TOP:
 72
  5
 11
26.152644
 21
26.616483
 31
0.000000
  0
TEXT
  8
MERGEDLAYER-1
 62
  7
 10
33.768029
 20
26.616483
 30
0.000000
 40
0.461538
  1
"W" AT FLOOR:
 72
  5
 11
38.537260
 21
26.616483
 31
0.000000
  0
TEXT
  8
MERGEDLAYER-1
 62
  7
 10
22.306490
 20
21.770329
 30
0.000000
 40
0.750000
  1
DISTANCE BACK OF GUIDES  "W"
 72
  5
 11
38.844952
 21
21.770329
 31
0.000000
  0
LINE
  8
MERGEDLAYER-1
 62
  7
 10
56.247141
 20
40.256362
 30
0.000000
 11
56.247141
 21
51.827566
 31
0.000000
  0
LINE
  8
MERGEDLAYER-1
 62
  7
 10
55.604567
 20
40.236676
 30
0.000000
 11
57.247141
 21
40.236676
 31
0.000000
  0
LINE
  8
MERGEDLAYER-1
 62
  7
 10
49.658039
 20
51.847252
 30
0.000000
 11
57.247141
 21
51.847252
 31
0.000000
  0
POLYLINE
  8
MERGEDLAYER-1
 66
  1
 70
  1
 62
  7
  0
VERTEX
  8
MERGEDLAYER-1
 10
56.247141
 20
40.236676
 30
0.000000
  0
VERTEX
  8
MERGEDLAYER-1
 10
56.477910
 20
40.621291
 30
0.000000
  0
VERTEX
  8
MERGEDLAYER-1
 10
56.247141
 20
40.621291
 30
0.000000
  0
VERTEX
  8
MERGEDLAYER-1
 10
56.016372
 20
40.621291
 30
0.000000
  0
VERTEX
  8
MERGEDLAYER-1
 10
56.247141
 20
40.236676
 30
0.000000
  0
SEQEND
  8
MERGEDLAYER-1
  0
POLYLINE
  8
MERGEDLAYER-1
 66
  1
 70
  1
 62
  7
  0
VERTEX
  8
MERGEDLAYER-1
 10
56.247141
 20
51.847252
 30
0.000000
  0
VERTEX
  8
MERGEDLAYER-1
 10
56.477910
 20
51.462637
 30
0.000000
  0
VERTEX
  8
MERGEDLAYER-1
 10
56.247141
 20
51.462637
 30
0.000000
  0
VERTEX
  8
MERGEDLAYER-1
 10
56.016372
 20
51.462637
 30
0.000000
  0
VERTEX
  8
MERGEDLAYER-1
 10
56.247141
 20
51.847252
 30
0.000000
  0
SEQEND
  8
MERGEDLAYER-1
  0
TEXT
  8
MERGEDLAYER-1
 62
  7
 10
55.721975
 20
50.963967
 30
0.000000
 40
0.346154
  1
 
 50
90.000000
  0
POLYLINE
  8
MERGEDLAYER-1
 66
  1
 70
  1
 62
  7
 10
46.231948
 20
16.495394
 30
0.000000
  0
VERTEX
  8
MERGEDLAYER-1
 10
46.231948
 20
16.495394
 30
0.000000
  0
VERTEX
  8
MERGEDLAYER-1
 10
47.231971
 20
16.495394
 30
0.000000
  0
VERTEX
  8
MERGEDLAYER-1
 10
47.231971
 20
15.870526
 30
0.000000
  0
VERTEX
  8
MERGEDLAYER-1
 10
46.231948
 20
15.870526
 30
0.000000
  0
VERTEX
  8
MERGEDLAYER-1
 10
46.231948
 20
15.678265
 30
0.000000
  0
VERTEX
  8
MERGEDLAYER-1
 10
46.169448
 20
15.678265
 30
0.000000
  0
VERTEX
  8
MERGEDLAYER-1
 10
46.169448
 20
16.678049
 30
0.000000
  0
VERTEX
  8
MERGEDLAYER-1
 10
46.231948
 20
16.678049
 30
0.000000
  0
SEQEND
  8
MERGEDLAYER-1
  0
POLYLINE
  8
MERGEDLAYER-1
 66
  1
 70
  1
 62
  7
  0
VERTEX
  8
MERGEDLAYER-1
 10
46.680368
 20
15.842351
 30
0.000000
  0
VERTEX
  8
MERGEDLAYER-1
 10
46.900236
 20
15.842351
 30
0.000000
  0
VERTEX
  8
MERGEDLAYER-1
 10
46.900236
 20
15.717989
 30
0.000000
  0
VERTEX
  8
MERGEDLAYER-1
 10
46.680368
 20
15.717989
 30
0.000000
  0
SEQEND
  8
MERGEDLAYER-1
  0
POLYLINE
  8
MERGEDLAYER-1
 66
  1
 70
  0
 62
  7
 10
46.631000
 20
15.717403
 30
0.000000
  0
VERTEX
  8
MERGEDLAYER-1
 10
46.631000
 20
15.717403
 30
0.000000
  0
VERTEX
  8
MERGEDLAYER-1
 10
46.943505
 20
15.717403
 30
0.000000
  0
SEQEND
  8
MERGEDLAYER-1
  0
POLYLINE
  8
MERGEDLAYER-1
 66
  1
 70
  1
 62
  7
  0
VERTEX
  8
MERGEDLAYER-1
 10
46.900236
 20
16.517451
 30
0.000000
  0
VERTEX
  8
MERGEDLAYER-1
 10
46.680368
 20
16.517451
 30
0.000000
  0
VERTEX
  8
MERGEDLAYER-1
 10
46.680368
 20
16.641818
 30
0.000000
  0
VERTEX
  8
MERGEDLAYER-1
 10
46.900236
 20
16.641818
 30
0.000000
  0
SEQEND
  8
MERGEDLAYER-1
  0
POLYLINE
  8
MERGEDLAYER-1
 66
  1
 70
  0
 62
  7
 10
46.631000
 20
16.642409
 30
0.000000
  0
VERTEX
  8
MERGEDLAYER-1
 10
46.631000
 20
16.642409
 30
0.000000
  0
VERTEX
  8
MERGEDLAYER-1
 10
46.943505
 20
16.642409
 30
0.000000
  0
SEQEND
  8
MERGEDLAYER-1
  0
POLYLINE
  8
MERGEDLAYER-1
 66
  1
 70
  1
 62
  7
 10
14.676200
 20
16.504906
 30
0.000000
  0
VERTEX
  8
MERGEDLAYER-1
 10
14.676200
 20
16.504906
 30
0.000000
  0
VERTEX
  8
MERGEDLAYER-1
 10
13.676179
 20
16.504906
 30
0.000000
  0
VERTEX
  8
MERGEDLAYER-1
 10
13.676179
 20
15.880047
 30
0.000000
  0
VERTEX
  8
MERGEDLAYER-1
 10
14.676200
 20
15.880047
 30
0.000000
  0
VERTEX
  8
MERGEDLAYER-1
 10
14.676200
 20
15.687782
 30
0.000000
  0
VERTEX
  8
MERGEDLAYER-1
 10
14.738704
 20
15.687782
 30
0.000000
  0
VERTEX
  8
MERGEDLAYER-1
 10
14.738704
 20
16.687570
 30
0.000000
  0
VERTEX
  8
MERGEDLAYER-1
 10
14.676200
 20
16.687570
 30
0.000000
  0
SEQEND
  8
MERGEDLAYER-1
  0
POLYLINE
  8
MERGEDLAYER-1
 66
  1
 70
  1
 62
  7
  0
VERTEX
  8
MERGEDLAYER-1
 10
14.007918
 20
15.851863
 30
0.000000
  0
VERTEX
  8
MERGEDLAYER-1
 10
14.227789
 20
15.851863
 30
0.000000
  0
VERTEX
  8
MERGEDLAYER-1
 10
14.227789
 20
15.727511
 30
0.000000
  0
VERTEX
  8
MERGEDLAYER-1
 10
14.007918
 20
15.727511
 30
0.000000
  0
SEQEND
  8
MERGEDLAYER-1
  0
POLYLINE
  8
MERGEDLAYER-1
 66
  1
 70
  0
 62
  7
 10
14.277154
 20
15.726919
 30
0.000000
  0
VERTEX
  8
MERGEDLAYER-1
 10
14.277154
 20
15.726919
 30
0.000000
  0
VERTEX
  8
MERGEDLAYER-1
 10
13.964650
 20
15.726919
 30
0.000000
  0
SEQEND
  8
MERGEDLAYER-1
  0
POLYLINE
  8
MERGEDLAYER-1
 66
  1
 70
  1
 62
  7
  0
VERTEX
  8
MERGEDLAYER-1
 10
14.227789
 20
16.526973
 30
0.000000
  0
VERTEX
  8
MERGEDLAYER-1
 10
14.007918
 20
16.526973
 30
0.000000
  0
VERTEX
  8
MERGEDLAYER-1
 10
14.007918
 20
16.651339
 30
0.000000
  0
VERTEX
  8
MERGEDLAYER-1
 10
14.227789
 20
16.651339
 30
0.000000
  0
SEQEND
  8
MERGEDLAYER-1
  0
POLYLINE
  8
MERGEDLAYER-1
 66
  1
 70
  0
 62
  7
 10
14.277154
 20
16.651926
 30
0.000000
  0
VERTEX
  8
MERGEDLAYER-1
 10
14.277154
 20
16.651926
 30
0.000000
  0
VERTEX
  8
MERGEDLAYER-1
 10
13.964650
 20
16.651926
 30
0.000000
  0
SEQEND
  8
MERGEDLAYER-1
  0
TEXT
  8
MERGEDLAYER-1
 62
  7
 10
51.691106
 20
19.001099
 30
0.000000
 40
0.750000
  1
2 3/4" - 70mm
 72
  5
 11
58.383413
 21
19.001099
 31
0.000000
  0
POLYLINE
  8
MERGEDLAYER-1
 66
  1
 70
  0
 62
  7
 10
51.312425
 20
19.344774
 30
0.000000
  0
VERTEX
  8
MERGEDLAYER-1
 10
51.312425
 20
19.344774
 30
0.000000
  0
VERTEX
  8
MERGEDLAYER-1
 10
49.304875
 20
19.344774
 30
0.000000
  0
SEQEND
  8
MERGEDLAYER-1
  0
POLYLINE
  8
MERGEDLAYER-1
 66
  1
 70
  1
 62
  7
  0
VERTEX
  8
MERGEDLAYER-1
 10
47.754094
 20
53.874023
 30
0.000000
  0
VERTEX
  8
MERGEDLAYER-1
 10
48.227990
 20
53.874023
 30
0.000000
  0
VERTEX
  8
MERGEDLAYER-1
 10
48.227990
 20
40.241436
 30
0.000000
  0
VERTEX
  8
MERGEDLAYER-1
 10
47.754094
 20
40.241436
 30
0.000000
  0
SEQEND
  8
MERGEDLAYER-1
  0
POLYLINE
  8
MERGEDLAYER-1
  6
LTYPE02
 66
  1
 70
  0
 62
  7
  6
LTYPE02
 10
47.986455
 20
53.856680
 30
0.000000
  0
VERTEX
  8
MERGEDLAYER-1
  6
LTYPE02
 10
47.986455
 20
53.856680
 30
0.000000
  0
VERTEX
  8
MERGEDLAYER-1
  6
LTYPE02
 10
47.989183
 20
40.251099
 30
0.000000
  0
SEQEND
  8
MERGEDLAYER-1
  0
POLYLINE
  8
MERGEDLAYER-1
 66
  1
 70
  1
 62
  7
  0
VERTEX
  8
MERGEDLAYER-1
 10
27.921626
 20
53.856680
 30
0.000000
  0
VERTEX
  8
MERGEDLAYER-1
 10
28.562202
 20
53.856680
 30
0.000000
  0
VERTEX
  8
MERGEDLAYER-1
 10
28.562202
 20
40.242169
 30
0.000000
  0
VERTEX
  8
MERGEDLAYER-1
 10
27.921626
 20
40.242169
 30
0.000000
  0
SEQEND
  8
MERGEDLAYER-1
  0
POLYLINE
  8
MERGEDLAYER-1
 66
  1
 70
  1
 62
  7
  0
VERTEX
  8
MERGEDLAYER-1
 10
6.668350
 20
53.856530
 30
0.000000
  0
VERTEX
  8
MERGEDLAYER-1
 10
7.308920
 20
53.856530
 30
0.000000
  0
VERTEX
  8
MERGEDLAYER-1
 10
7.308920
 20
40.249437
 30
0.000000
  0
VERTEX
  8
MERGEDLAYER-1
 10
6.668350
 20
40.249437
 30
0.000000
  0
SEQEND
  8
MERGEDLAYER-1
  0
POLYLINE
  8
MERGEDLAYER-1
 66
  1
 70
  0
 62
  7
 10
7.308920
 20
41.124291
 30
0.000000
  0
VERTEX
  8
MERGEDLAYER-1
 10
7.308920
 20
41.124291
 30
0.000000
  0
VERTEX
  8
MERGEDLAYER-1
 10
27.921626
 20
41.124291
 30
0.000000
  0
SEQEND
  8
MERGEDLAYER-1
  0
TEXT
  8
MERGEDLAYER-1
 62
  7
 10
44.614183
 20
43.308791
 30
0.000000
 40
0.750000
  1
BOTTOM OF
 50
90.000000
 72
  5
 11
44.614183
 21
49.539560
 31
0.000000
  0
TEXT
  8
MERGEDLAYER-1
 62
  7
 10
45.768029
 20
42.539560
 30
0.000000
 40
0.750000
  1
END PLATE "H"
 50
90.000000
 72
  5
 11
45.768029
 21
50.231868
 31
0.000000
  0
LINE
  8
MERGEDLAYER-1
 62
  7
 10
41.862408
 20
40.253953
 30
0.000000
 11
41.862408
 21
53.856042
 31
0.000000
  0
LINE
  8
MERGEDLAYER-1
 62
  7
 10
42.578125
 20
40.234272
 30
0.000000
 11
40.862408
 21
40.234272
 31
0.000000
  0
LINE
  8
MERGEDLAYER-1
 62
  7
 10
46.918837
 20
53.875723
 30
0.000000
 11
40.862408
 21
53.875723
 31
0.000000
  0
POLYLINE
  8
MERGEDLAYER-1
 66
  1
 70
  1
 62
  7
  0
VERTEX
  8
MERGEDLAYER-1
 10
41.862408
 20
40.234272
 30
0.000000
  0
VERTEX
  8
MERGEDLAYER-1
 10
42.093177
 20
40.618887
 30
0.000000
  0
VERTEX
  8
MERGEDLAYER-1
 10
41.862408
 20
40.618887
 30
0.000000
  0
VERTEX
  8
MERGEDLAYER-1
 10
41.631639
 20
40.618887
 30
0.000000
  0
VERTEX
  8
MERGEDLAYER-1
 10
41.862408
 20
40.234272
 30
0.000000
  0
SEQEND
  8
MERGEDLAYER-1
  0
POLYLINE
  8
MERGEDLAYER-1
 66
  1
 70
  1
 62
  7
  0
VERTEX
  8
MERGEDLAYER-1
 10
41.862408
 20
53.875723
 30
0.000000
  0
VERTEX
  8
MERGEDLAYER-1
 10
42.093177
 20
53.491108
 30
0.000000
  0
VERTEX
  8
MERGEDLAYER-1
 10
41.862408
 20
53.491108
 30
0.000000
  0
VERTEX
  8
MERGEDLAYER-1
 10
41.631639
 20
53.491108
 30
0.000000
  0
VERTEX
  8
MERGEDLAYER-1
 10
41.862408
 20
53.875723
 30
0.000000
  0
SEQEND
  8
MERGEDLAYER-1
  0
TEXT
  8
MERGEDLAYER-1
 62
  7
 10
41.851008
 20
47.022903
 30
0.000000
 40
0.692308
  1
 
  0
POLYLINE
  8
MERGEDLAYER-1
 66
  1
 70
  1
 62
  7
  0
VERTEX
  8
MERGEDLAYER-1
 10
40.230577
 20
42.960139
 30
0.000000
  0
VERTEX
  8
MERGEDLAYER-1
 10
40.230577
 20
49.743793
 30
0.000000
  0
VERTEX
  8
MERGEDLAYER-1
 10
43.463675
 20
49.743793
 30
0.000000
  0
VERTEX
  8
MERGEDLAYER-1
 10
43.463675
 20
42.960139
 30
0.000000
  0
SEQEND
  8
MERGEDLAYER-1
  0
POLYLINE
  8
MERGEDLAYER-1
 66
  1
 70
  0
 62
  7
 40
0.230769
 41
0.230769
 10
43.261583
 20
49.699754
 30
0.000000
  0
VERTEX
  8
MERGEDLAYER-1
 10
43.261583
 20
49.699754
 30
0.000000
  0
VERTEX
  8
MERGEDLAYER-1
 10
43.261583
 20
42.960139
 30
0.000000
  0
SEQEND
  8
MERGEDLAYER-1
  0
POLYLINE
  8
MERGEDLAYER-1
 66
  1
 70
  1
 62
  7
  0
VERTEX
  8
MERGEDLAYER-1
 10
47.418837
 20
58.542847
 30
0.000000
  0
VERTEX
  8
MERGEDLAYER-1
 10
51.497094
 20
58.542847
 30
0.000000
  0
VERTEX
  8
MERGEDLAYER-1
 10
51.497094
 20
53.875723
 30
0.000000
  0
VERTEX
  8
MERGEDLAYER-1
 10
47.418837
 20
53.875723
 30
0.000000
  0
SEQEND
  8
MERGEDLAYER-1
  0
LINE
  8
MERGEDLAYER-1
 62
  7
 10
47.438519
 20
59.802246
 30
0.000000
 11
51.477412
 21
59.802246
 31
0.000000
  0
LINE
  8
MERGEDLAYER-1
 62
  7
 10
47.418837
 20
59.042847
 30
0.000000
 11
47.418837
 21
60.802246
 31
0.000000
  0
LINE
  8
MERGEDLAYER-1
 62
  7
 10
51.497094
 20
59.042847
 30
0.000000
 11
51.497094
 21
60.802246
 31
0.000000
  0
POLYLINE
  8
MERGEDLAYER-1
 66
  1
 70
  1
 62
  7
  0
VERTEX
  8
MERGEDLAYER-1
 10
47.418837
 20
59.802246
 30
0.000000
  0
VERTEX
  8
MERGEDLAYER-1
 10
47.803453
 20
59.571477
 30
0.000000
  0
VERTEX
  8
MERGEDLAYER-1
 10
47.803453
 20
59.802246
 30
0.000000
  0
VERTEX
  8
MERGEDLAYER-1
 10
47.803453
 20
60.033015
 30
0.000000
  0
VERTEX
  8
MERGEDLAYER-1
 10
47.418837
 20
59.802246
 30
0.000000
  0
SEQEND
  8
MERGEDLAYER-1
  0
POLYLINE
  8
MERGEDLAYER-1
 66
  1
 70
  1
 62
  7
  0
VERTEX
  8
MERGEDLAYER-1
 10
51.497094
 20
59.802246
 30
0.000000
  0
VERTEX
  8
MERGEDLAYER-1
 10
51.112478
 20
59.571472
 30
0.000000
  0
VERTEX
  8
MERGEDLAYER-1
 10
51.112478
 20
59.802241
 30
0.000000
  0
VERTEX
  8
MERGEDLAYER-1
 10
51.112478
 20
60.033011
 30
0.000000
  0
VERTEX
  8
MERGEDLAYER-1
 10
51.497094
 20
59.802246
 30
0.000000
  0
SEQEND
  8
MERGEDLAYER-1
  0
TEXT
  8
MERGEDLAYER-1
 62
  7
 10
49.563608
 20
60.625266
 30
0.000000
 40
0.576923
  1
"X"
  0
LINE
  8
MERGEDLAYER-1
 62
  7
 10
41.866770
 20
53.895409
 30
0.000000
 11
41.866770
 21
58.523165
 31
0.000000
  0
LINE
  8
MERGEDLAYER-1
 62
  7
 10
46.918837
 20
53.875723
 30
0.000000
 11
40.866770
 21
53.875723
 31
0.000000
  0
LINE
  8
MERGEDLAYER-1
 62
  7
 10
46.918837
 20
58.542847
 30
0.000000
 11
40.866770
 21
58.542847
 31
0.000000
  0
POLYLINE
  8
MERGEDLAYER-1
 66
  1
 70
  1
 62
  7
  0
VERTEX
  8
MERGEDLAYER-1
 10
41.866770
 20
53.875723
 30
0.000000
  0
VERTEX
  8
MERGEDLAYER-1
 10
42.097539
 20
54.260338
 30
0.000000
  0
VERTEX
  8
MERGEDLAYER-1
 10
41.866770
 20
54.260338
 30
0.000000
  0
VERTEX
  8
MERGEDLAYER-1
 10
41.636000
 20
54.260338
 30
0.000000
  0
VERTEX
  8
MERGEDLAYER-1
 10
41.866770
 20
53.875723
 30
0.000000
  0
SEQEND
  8
MERGEDLAYER-1
  0
POLYLINE
  8
MERGEDLAYER-1
 66
  1
 70
  1
 62
  7
  0
VERTEX
  8
MERGEDLAYER-1
 10
41.866770
 20
58.542847
 30
0.000000
  0
VERTEX
  8
MERGEDLAYER-1
 10
42.097539
 20
58.158231
 30
0.000000
  0
VERTEX
  8
MERGEDLAYER-1
 10
41.866770
 20
58.158231
 30
0.000000
  0
VERTEX
  8
MERGEDLAYER-1
 10
41.636000
 20
58.158231
 30
0.000000
  0
VERTEX
  8
MERGEDLAYER-1
 10
41.866770
 20
58.542847
 30
0.000000
  0
SEQEND
  8
MERGEDLAYER-1
  0
TEXT
  8
MERGEDLAYER-1
 62
  7
 10
41.044603
 20
56.170585
 30
0.000000
 40
0.576923
  1
"Y"
 50
90.000000
  0
POLYLINE
  8
MERGEDLAYER-1
 66
  1
 70
  0
 62
  7
 10
47.915879
 20
58.010484
 30
0.000000
  0
VERTEX
  8
MERGEDLAYER-1
 10
47.915879
 20
58.010484
 30
0.000000
  0
VERTEX
  8
MERGEDLAYER-1
 10
47.840745
 20
58.085618
 30
0.000000
  0
VERTEX
  8
MERGEDLAYER-1
 10
47.765611
 20
58.010484
 30
0.000000
  0
VERTEX
  8
MERGEDLAYER-1
 10
47.840745
 20
57.935350
 30
0.000000
  0
VERTEX
  8
MERGEDLAYER-1
 10
47.915879
 20
58.010484
 30
0.000000
  0
SEQEND
  8
MERGEDLAYER-1
  0
POLYLINE
  8
MERGEDLAYER-1
 66
  1
 70
  0
 62
  7
 10
47.820740
 20
54.452346
 30
0.000000
  0
VERTEX
  8
MERGEDLAYER-1
 10
47.820740
 20
54.452346
 30
0.000000
  0
VERTEX
  8
MERGEDLAYER-1
 10
47.763817
 20
54.509268
 30
0.000000
  0
VERTEX
  8
MERGEDLAYER-1
 10
47.706900
 20
54.452346
 30
0.000000
  0
VERTEX
  8
MERGEDLAYER-1
 10
47.763817
 20
54.395428
 30
0.000000
  0
VERTEX
  8
MERGEDLAYER-1
 10
47.820740
 20
54.452346
 30
0.000000
  0
SEQEND
  8
MERGEDLAYER-1
  0
POLYLINE
  8
MERGEDLAYER-1
 66
  1
 70
  0
 62
  7
 10
47.820740
 20
56.209900
 30
0.000000
  0
VERTEX
  8
MERGEDLAYER-1
 10
47.820740
 20
56.209900
 30
0.000000
  0
VERTEX
  8
MERGEDLAYER-1
 10
47.763817
 20
56.266818
 30
0.000000
  0
VERTEX
  8
MERGEDLAYER-1
 10
47.706900
 20
56.209900
 30
0.000000
  0
VERTEX
  8
MERGEDLAYER-1
 10
47.763817
 20
56.152982
 30
0.000000
  0
VERTEX
  8
MERGEDLAYER-1
 10
47.820740
 20
56.209900
 30
0.000000
  0
SEQEND
  8
MERGEDLAYER-1
  0
POLYLINE
  8
MERGEDLAYER-1
 66
  1
 70
  0
 62
  7
 10
49.594741
 20
56.493342
 30
0.000000
  0
VERTEX
  8
MERGEDLAYER-1
 10
49.594741
 20
56.493342
 30
0.000000
  0
VERTEX
  8
MERGEDLAYER-1
 10
49.552002
 20
56.596351
 30
0.000000
  0
VERTEX
  8
MERGEDLAYER-1
 10
49.448824
 20
56.639019
 30
0.000000
  0
VERTEX
  8
MERGEDLAYER-1
 10
49.345647
 20
56.596351
 30
0.000000
  0
VERTEX
  8
MERGEDLAYER-1
 10
49.302908
 20
56.493342
 30
0.000000
  0
VERTEX
  8
MERGEDLAYER-1
 10
49.345647
 20
56.390334
 30
0.000000
  0
VERTEX
  8
MERGEDLAYER-1
 10
49.448824
 20
56.347666
 30
0.000000
  0
VERTEX
  8
MERGEDLAYER-1
 10
49.552002
 20
56.390334
 30
0.000000
  0
VERTEX
  8
MERGEDLAYER-1
 10
49.594741
 20
56.493342
 30
0.000000
  0
SEQEND
  8
MERGEDLAYER-1
  0
POLYLINE
  8
MERGEDLAYER-1
 66
  1
 70
  0
 62
  7
 10
50.415513
 20
56.493342
 30
0.000000
  0
VERTEX
  8
MERGEDLAYER-1
 10
50.415513
 20
56.493342
 30
0.000000
  0
VERTEX
  8
MERGEDLAYER-1
 10
50.341928
 20
56.862676
 30
0.000000
  0
VERTEX
  8
MERGEDLAYER-1
 10
50.132376
 20
57.175777
 30
0.000000
  0
VERTEX
  8
MERGEDLAYER-1
 10
49.818763
 20
57.384991
 30
0.000000
  0
VERTEX
  8
MERGEDLAYER-1
 10
49.448824
 20
57.458454
 30
0.000000
  0
VERTEX
  8
MERGEDLAYER-1
 10
49.078886
 20
57.384991
 30
0.000000
  0
VERTEX
  8
MERGEDLAYER-1
 10
48.765273
 20
57.175777
 30
0.000000
  0
VERTEX
  8
MERGEDLAYER-1
 10
48.555720
 20
56.862676
 30
0.000000
  0
VERTEX
  8
MERGEDLAYER-1
 10
48.482135
 20
56.493342
 30
0.000000
  0
VERTEX
  8
MERGEDLAYER-1
 10
48.555720
 20
56.124014
 30
0.000000
  0
VERTEX
  8
MERGEDLAYER-1
 10
48.765273
 20
55.810908
 30
0.000000
  0
VERTEX
  8
MERGEDLAYER-1
 10
49.078886
 20
55.601699
 30
0.000000
  0
VERTEX
  8
MERGEDLAYER-1
 10
49.448824
 20
55.528236
 30
0.000000
  0
VERTEX
  8
MERGEDLAYER-1
 10
49.818763
 20
55.601699
 30
0.000000
  0
VERTEX
  8
MERGEDLAYER-1
 10
50.132376
 20
55.810908
 30
0.000000
  0
VERTEX
  8
MERGEDLAYER-1
 10
50.341928
 20
56.124014
 30
0.000000
  0
VERTEX
  8
MERGEDLAYER-1
 10
50.415513
 20
56.493342
 30
0.000000
  0
SEQEND
  8
MERGEDLAYER-1
  0
POLYLINE
  8
MERGEDLAYER-1
  6
LTYPE02
 66
  1
 70
  0
 62
  7
  6
LTYPE02
 10
50.162734
 20
57.219759
 30
0.000000
  0
VERTEX
  8
MERGEDLAYER-1
  6
LTYPE02
 10
50.162734
 20
57.219759
 30
0.000000
  0
VERTEX
  8
MERGEDLAYER-1
  6
LTYPE02
 10
50.004756
 20
57.346398
 30
0.000000
  0
VERTEX
  8
MERGEDLAYER-1
  6
LTYPE02
 10
49.827374
 20
57.438289
 30
0.000000
  0
VERTEX
  8
MERGEDLAYER-1
  6
LTYPE02
 10
49.635451
 20
57.493859
 30
0.000000
  0
VERTEX
  8
MERGEDLAYER-1
  6
LTYPE02
 10
49.436354
 20
57.510986
 30
0.000000
  0
VERTEX
  8
MERGEDLAYER-1
  6
LTYPE02
 10
49.237737
 20
57.489004
 30
0.000000
  0
VERTEX
  8
MERGEDLAYER-1
  6
LTYPE02
 10
49.047232
 20
57.428758
 30
0.000000
  0
VERTEX
  8
MERGEDLAYER-1
  6
LTYPE02
 10
48.872155
 20
57.332566
 30
0.000000
  0
VERTEX
  8
MERGEDLAYER-1
  6
LTYPE02
 10
48.719248
 20
57.204120
 30
0.000000
  0
VERTEX
  8
MERGEDLAYER-1
  6
LTYPE02
 10
48.594370
 20
57.048363
 30
0.000000
  0
VERTEX
  8
MERGEDLAYER-1
  6
LTYPE02
 10
48.550392
 20
56.968529
 30
0.000000
  0
SEQEND
  8
MERGEDLAYER-1
  0
ARC
  8
MERGEDLAYER-1
 62
  7
  6
LTYPE02
 10
56.701059
 20
53.884428
 30
0.000000
 40
8.714646
 50
159.274048
 51
180.182434
  0
LINE
  8
MERGEDLAYER-1
 62
  7
 10
8.493742
 20
16.198777
 30
0.000000
 11
8.493742
 21
18.153334
 31
0.000000
  0
LINE
  8
MERGEDLAYER-1
 62
  7
 10
13.018029
 20
16.179091
 30
0.000000
 11
7.493742
 21
16.179091
 31
0.000000
  0
LINE
  8
MERGEDLAYER-1
 62
  7
 10
11.113159
 20
18.173021
 30
0.000000
 11
7.493742
 21
18.173021
 31
0.000000
  0
POLYLINE
  8
MERGEDLAYER-1
 66
  1
 70
  1
 62
  7
  0
VERTEX
  8
MERGEDLAYER-1
 10
8.493742
 20
16.179091
 30
0.000000
  0
VERTEX
  8
MERGEDLAYER-1
 10
8.724513
 20
16.563707
 30
0.000000
  0
VERTEX
  8
MERGEDLAYER-1
 10
8.493744
 20
16.563707
 30
0.000000
  0
VERTEX
  8
MERGEDLAYER-1
 10
8.262975
 20
16.563707
 30
0.000000
  0
VERTEX
  8
MERGEDLAYER-1
 10
8.493742
 20
16.179091
 30
0.000000
  0
SEQEND
  8
MERGEDLAYER-1
  0
POLYLINE
  8
MERGEDLAYER-1
 66
  1
 70
  1
 62
  7
  0
VERTEX
  8
MERGEDLAYER-1
 10
8.493742
 20
18.173021
 30
0.000000
  0
VERTEX
  8
MERGEDLAYER-1
 10
8.724510
 20
17.788405
 30
0.000000
  0
VERTEX
  8
MERGEDLAYER-1
 10
8.493740
 20
17.788405
 30
0.000000
  0
VERTEX
  8
MERGEDLAYER-1
 10
8.262971
 20
17.788405
 30
0.000000
  0
VERTEX
  8
MERGEDLAYER-1
 10
8.493742
 20
18.173021
 30
0.000000
  0
SEQEND
  8
MERGEDLAYER-1
  0
TEXT
  8
MERGEDLAYER-1
 62
  7
 10
9.289093
 20
17.162649
 30
0.000000
 40
0.576923
  1
 
 50
90.000000
  0
TEXT
  8
MERGEDLAYER-1
 62
  7
 10
3.306490
 20
17.616483
 30
0.000000
 40
0.807692
  1
"Z"
 72
  5
 11
5.152644
 21
17.616483
 31
0.000000
  0
TEXT
  8
MERGEDLAYER-1
 62
  7
 10
1.306490
 20
16.385714
 30
0.000000
 40
0.807692
  1
PACK-OFF
 72
  5
 11
7.152644
 21
16.385714
 31
0.000000
  0
POLYLINE
  8
MERGEDLAYER-1
 66
  1
 70
  0
 62
  7
 40
0.153846
 41
0.153846
 10
1.152644
 20
40.246103
 30
0.000000
  0
VERTEX
  8
MERGEDLAYER-1
 10
1.152644
 20
40.246103
 30
0.000000
  0
VERTEX
  8
MERGEDLAYER-1
 10
32.229567
 20
40.232192
 30
0.000000
  0
SEQEND
  8
MERGEDLAYER-1
  0
POLYLINE
  8
MERGEDLAYER-1
 66
  1
 70
  0
 62
  7
 40
0.153846
 41
0.153846
 10
55.306490
 20
40.238488
 30
0.000000
  0
VERTEX
  8
MERGEDLAYER-1
 10
55.306490
 20
40.238488
 30
0.000000
  0
VERTEX
  8
MERGEDLAYER-1
 10
42.268034
 20
40.231868
 30
0.000000
  0
SEQEND
  8
MERGEDLAYER-1
  0
TEXT
  8
MERGEDLAYER-1
 62
  7
 10
1.460337
 20
39.308791
 30
0.000000
 40
0.576923
  1
UNFINISHED
 72
  5
 11
6.537260
 21
39.308791
 31
0.000000
  0
TEXT
  8
MERGEDLAYER-1
 62
  7
 10
1.460337
 20
38.462637
 30
0.000000
 40
0.576923
  1
FLOOR
 72
  5
 11
4.537260
 21
38.462637
 31
0.000000
  0
TEXT
  8
MERGEDLAYER-1
 62
  7
 10
1.460337
 20
37.616483
 30
0.000000
 40
0.576923
  1
*MUST BE
 72
  5
 11
5.614183
 21
37.616483
 31
0.000000
  0
TEXT
  8
MERGEDLAYER-1
 62
  7
 10
1.306490
 20
36.539560
 30
0.000000
 40
0.576923
  1
 LEVELED
 72
  5
 11
5.537260
 21
36.539560
 31
0.000000
  0
TEXT
  8
MERGEDLAYER-1
 62
  7
 10
14.229567
 20
34.078022
 30
0.000000
 40
0.750000
  1
( INTERIOR )
 72
  5
 11
20.383413
 21
34.078022
 31
0.000000
  0
TEXT
  8
MERGEDLAYER-1
 62
  7
 10
11.152644
 20
35.462637
 30
0.000000
 40
0.807692
  1
ELEVATION COIL SIDE
 72
  5
 11
23.383413
 21
35.462637
 31
0.000000
  0
TEXT
  8
MERGEDLAYER-1
 62
  7
 10
49.921875
 20
40.616483
 30
0.000000
 40
0.576923
  1
COIL SIDE
 72
  5
 11
54.229567
 21
40.616483
 31
0.000000
  0
TEXT
  8
MERGEDLAYER-1
 62
  7
 10
49.921875
 20
39.385714
 30
0.000000
 40
0.576923
  1
STORE OR
 72
  5
 11
54.383413
 21
39.385714
 31
0.000000
  0
TEXT
  8
MERGEDLAYER-1
 62
  7
 10
49.921875
 20
38.154945
 30
0.000000
 40
0.576923
  1
INTERIOR
 72
  5
 11
53.998798
 21
38.154945
 31
0.000000
  0
TEXT
  8
MERGEDLAYER-1
 62
  7
 10
42.229567
 20
39.385714
 30
0.000000
 40
0.576923
  1
MALL OR
 72
  5
 11
46.075721
 21
39.385714
 31
0.000000
  0
TEXT
  8
MERGEDLAYER-1
 62
  7
 10
42.229567
 20
38.154945
 30
0.000000
 40
0.576923
  1
EXTERIOR
 72
  5
 11
46.614183
 21
38.154945
 31
0.000000
  0
TEXT
  8
MERGEDLAYER-1
 62
  7
 10
44.921875
 20
35.462637
 30
0.000000
 40
0.807692
  1
SECTION
 72
  5
 11
50.075721
 21
35.462637
 31
0.000000
  0
TEXT
  8
MERGEDLAYER-1
 62
  7
 10
1.460337
 20
7.385714
 30
0.000000
 40
0.576923
  1
3/16" (5mm)
 72
  5
 11
6.152644
 21
7.385714
 31
0.000000
  0
TEXT
  8
MERGEDLAYER-1
 62
  7
 10
1.460337
 20
6.539560
 30
0.000000
 40
0.576923
  1
END PLATE
 72
  5
 11
6.229567
 21
6.539560
 31
0.000000
  0
TEXT
  8
MERGEDLAYER-1
 62
  7
 10
24.691106
 20
38.693406
 30
0.000000
 40
0.576923
  1
BOTTOM
 72
  5
 11
28.383413
 21
38.693406
 31
0.000000
  0
TEXT
  8
MERGEDLAYER-1
 62
  7
 10
24.691106
 20
37.847252
 30
0.000000
 40
0.576923
  1
BAR
 72
  5
 11
26.691106
 21
37.847252
 31
0.000000
  0
POLYLINE
  8
MERGEDLAYER-1
 66
  1
 70
  0
 62
  7
 10
24.078691
 20
40.227661
 30
0.000000
  0
VERTEX
  8
MERGEDLAYER-1
 10
24.078691
 20
40.227661
 30
0.000000
  0
VERTEX
  8
MERGEDLAYER-1
 10
24.076367
 20
38.649942
 30
0.000000
  0
SEQEND
  8
MERGEDLAYER-1
  0
POLYLINE
  8
MERGEDLAYER-1
 66
  1
 70
  1
 62
  7
  0
VERTEX
  8
MERGEDLAYER-1
 10
24.078719
 20
40.247352
 30
0.000000
  0
VERTEX
  8
MERGEDLAYER-1
 10
23.847382
 20
39.863075
 30
0.000000
  0
VERTEX
  8
MERGEDLAYER-1
 10
24.078151
 20
39.862737
 30
0.000000
  0
VERTEX
  8
MERGEDLAYER-1
 10
24.308920
 20
39.862394
 30
0.000000
  0
VERTEX
  8
MERGEDLAYER-1
 10
24.078719
 20
40.247352
 30
0.000000
  0
SEQEND
  8
MERGEDLAYER-1
  0
POLYLINE
  8
MERGEDLAYER-1
 66
  1
 70
  0
 62
  7
 10
7.084077
 20
38.483258
 30
0.000000
  0
VERTEX
  8
MERGEDLAYER-1
 10
7.084077
 20
38.483258
 30
0.000000
  0
VERTEX
  8
MERGEDLAYER-1
 10
7.084563
 20
40.227661
 30
0.000000
  0
SEQEND
  8
MERGEDLAYER-1
  0
POLYLINE
  8
MERGEDLAYER-1
 66
  1
 70
  1
 62
  7
  0
VERTEX
  8
MERGEDLAYER-1
 10
7.084569
 20
40.247352
 30
0.000000
  0
VERTEX
  8
MERGEDLAYER-1
 10
7.315231
 20
39.862671
 30
0.000000
  0
VERTEX
  8
MERGEDLAYER-1
 10
7.084462
 20
39.862737
 30
0.000000
  0
VERTEX
  8
MERGEDLAYER-1
 10
6.853692
 20
39.862798
 30
0.000000
  0
VERTEX
  8
MERGEDLAYER-1
 10
7.084569
 20
40.247352
 30
0.000000
  0
SEQEND
  8
MERGEDLAYER-1
  0
POLYLINE
  8
MERGEDLAYER-1
 66
  1
 70
  0
 62
  7
 10
7.650166
 20
38.483258
 30
0.000000
  0
VERTEX
  8
MERGEDLAYER-1
 10
7.650166
 20
38.483258
 30
0.000000
  0
VERTEX
  8
MERGEDLAYER-1
 10
7.084077
 20
38.483258
 30
0.000000
  0
SEQEND
  8
MERGEDLAYER-1
  0
POLYLINE
  8
MERGEDLAYER-1
 66
  1
 70
  0
 62
  7
 10
24.460682
 20
38.649942
 30
0.000000
  0
VERTEX
  8
MERGEDLAYER-1
 10
24.460682
 20
38.649942
 30
0.000000
  0
VERTEX
  8
MERGEDLAYER-1
 10
24.076367
 20
38.649942
 30
0.000000
  0
SEQEND
  8
MERGEDLAYER-1
  0
TEXT
  8
MERGEDLAYER-1
 62
  7
 10
7.921875
 20
38.693406
 30
0.000000
 40
0.576923
  1
ALUMINUM
 72
  5
 11
12.383413
 21
38.693406
 31
0.000000
  0
TEXT
  8
MERGEDLAYER-1
 62
  7
 10
7.921875
 20
37.847252
 30
0.000000
 40
0.576923
  1
GUIDE
 72
  5
 11
10.768029
 21
37.847252
 31
0.000000
  0
TEXT
  8
MERGEDLAYER-1
 62
  7
 10
14.844952
 20
18.539560
 30
0.000000
 40
0.576923
  1
BOTTOM BAR
 72
  5
 11
20.383413
 21
18.539560
 31
0.000000
  0
POLYLINE
  8
MERGEDLAYER-1
 66
  1
 70
  0
 62
  7
 10
48.419448
 20
53.877723
 30
0.000000
  0
VERTEX
  8
MERGEDLAYER-1
 10
48.419448
 20
53.877723
 30
0.000000
  0
VERTEX
  8
MERGEDLAYER-1
 10
48.228647
 20
53.877723
 30
0.000000
  0
SEQEND
  8
MERGEDLAYER-1
  0
POLYLINE
  8
MERGEDLAYER-1
 66
  1
 70
  0
 62
  7
 10
48.419452
 20
53.877723
 30
0.000000
  0
VERTEX
  8
MERGEDLAYER-1
 10
48.419452
 20
53.877723
 30
0.000000
  0
VERTEX
  8
MERGEDLAYER-1
 10
48.276278
 20
53.668354
 30
0.000000
  0
VERTEX
  8
MERGEDLAYER-1
 10
48.228661
 20
53.417095
 30
0.000000
  0
SEQEND
  8
MERGEDLAYER-1
  0
POLYLINE
  8
MERGEDLAYER-1
 66
  1
 70
  0
 62
  7
 10
48.228647
 20
53.417095
 30
0.000000
  0
VERTEX
  8
MERGEDLAYER-1
 10
48.228647
 20
53.417095
 30
0.000000
  0
VERTEX
  8
MERGEDLAYER-1
 10
48.228647
 20
53.877723
 30
0.000000
  0
SEQEND
  8
MERGEDLAYER-1
  0
TEXT
  8
MERGEDLAYER-1
 62
  7
 10
1.768029
 20
53.462637
 30
0.000000
 40
0.576923
  1
STOPPERS
 72
  5
 11
6.460337
 21
53.462637
 31
0.000000
  0
TEXT
  8
MERGEDLAYER-1
 62
  7
 10
53.614183
 20
52.462637
 30
0.000000
 40
0.461538
  1
FINISHED CEILING
 72
  5
 11
59.383413
 21
52.462637
 31
0.000000
  0
POLYLINE
  8
MERGEDLAYER-1
 66
  1
 70
  1
 62
  7
  0
VERTEX
  8
MERGEDLAYER-1
 10
14.750509
 20
16.835407
 30
0.000000
  0
VERTEX
  8
MERGEDLAYER-1
 10
46.172138
 20
16.835407
 30
0.000000
  0
VERTEX
  8
MERGEDLAYER-1
 10
46.172138
 20
15.522776
 30
0.000000
  0
VERTEX
  8
MERGEDLAYER-1
 10
14.750509
 20
15.522776
 30
0.000000
  0
SEQEND
  8
MERGEDLAYER-1
  0
POLYLINE
  8
MERGEDLAYER-1
  6
LTYPE06
 66
  1
 70
  0
 62
  7
 40
0.153846
 41
0.153846
  6
LTYPE06
 10
13.514091
 20
16.179091
 30
0.000000
  0
VERTEX
  8
MERGEDLAYER-1
  6
LTYPE06
 10
13.514091
 20
16.179091
 30
0.000000
  0
VERTEX
  8
MERGEDLAYER-1
  6
LTYPE06
 10
47.377737
 20
16.179091
 30
0.000000
  0
SEQEND
  8
MERGEDLAYER-1
  0
TEXT
  8
MERGEDLAYER-1
 62
  7
 10
29.537260
 20
15.693406
 30
0.000000
 40
0.461538
  1
OF CURTAIN
 72
  5
 11
33.691106
 21
15.693406
 31
0.000000
  0
POLYLINE
  8
MERGEDLAYER-1
 66
  1
 70
  1
 62
  7
  0
VERTEX
  8
MERGEDLAYER-1
 10
27.773858
 20
16.404748
 30
0.000000
  0
VERTEX
  8
MERGEDLAYER-1
 10
29.536771
 20
16.404748
 30
0.000000
  0
VERTEX
  8
MERGEDLAYER-1
 10
29.536771
 20
16.043588
 30
0.000000
  0
VERTEX
  8
MERGEDLAYER-1
 10
27.773858
 20
16.043588
 30
0.000000
  0
SEQEND
  8
MERGEDLAYER-1
  0
TEXT
  8
MERGEDLAYER-1
 62
  7
 10
28.306490
 20
16.078022
 30
0.000000
 40
0.634615
  1
C
 72
  5
 11
29.306490
 21
16.078022
 31
0.000000
  0
TEXT
  8
MERGEDLAYER-1
 62
  7
 10
28.537260
 20
15.693406
 30
0.000000
 40
0.634615
  1
L
 72
  5
 11
29.383413
 21
15.693406
 31
0.000000
  0
POLYLINE
  8
MERGEDLAYER-1
 66
  1
 70
  1
 62
  7
  0
VERTEX
  8
MERGEDLAYER-1
 10
5.790731
 20
56.667973
 30
0.000000
  0
VERTEX
  8
MERGEDLAYER-1
 10
29.445747
 20
56.667973
 30
0.000000
  0
VERTEX
  8
MERGEDLAYER-1
 10
29.445747
 20
56.355426
 30
0.000000
  0
VERTEX
  8
MERGEDLAYER-1
 10
5.790731
 20
56.355426
 30
0.000000
  0
SEQEND
  8
MERGEDLAYER-1
  0
POLYLINE
  8
MERGEDLAYER-1
 66
  1
 70
  1
 62
  7
  0
VERTEX
  8
MERGEDLAYER-1
 10
8.613462
 20
11.115084
 30
0.000000
  0
VERTEX
  8
MERGEDLAYER-1
 10
52.293307
 20
11.115084
 30
0.000000
  0
VERTEX
  8
MERGEDLAYER-1
 10
52.293307
 20
10.114939
 30
0.000000
  0
VERTEX
  8
MERGEDLAYER-1
 10
8.613462
 20
10.114939
 30
0.000000
  0
SEQEND
  8
MERGEDLAYER-1
  0
POLYLINE
  8
MERGEDLAYER-1
 66
  1
 70
  1
 62
  7
  0
VERTEX
  8
MERGEDLAYER-1
 10
7.586017
 20
57.486314
 30
0.000000
  0
VERTEX
  8
MERGEDLAYER-1
 10
27.625939
 20
57.486314
 30
0.000000
  0
VERTEX
  8
MERGEDLAYER-1
 10
27.625939
 20
55.511202
 30
0.000000
  0
VERTEX
  8
MERGEDLAYER-1
 10
7.586017
 20
55.511202
 30
0.000000
  0
SEQEND
  8
MERGEDLAYER-1
  0
POLYLINE
  8
MERGEDLAYER-1
 66
  1
 70
  1
 62
  7
  0
VERTEX
  8
MERGEDLAYER-1
 10
23.326994
 20
56.898705
 30
0.000000
  0
VERTEX
  8
MERGEDLAYER-1
 10
26.783227
 20
56.898705
 30
0.000000
  0
VERTEX
  8
MERGEDLAYER-1
 10
26.783227
 20
56.134709
 30
0.000000
  0
VERTEX
  8
MERGEDLAYER-1
 10
23.326994
 20
56.134709
 30
0.000000
  0
SEQEND
  8
MERGEDLAYER-1
  0
TEXT
  8
MERGEDLAYER-1
 62
  7
 10
23.537260
 20
56.231868
 30
0.000000
 40
0.576923
  1
BARREL
 72
  5
 11
27.075721
 21
56.231868
 31
0.000000
  0
POLYLINE
  8
MERGEDLAYER-1
 66
  1
 70
  1
 62
  7
  0
VERTEX
  8
MERGEDLAYER-1
 10
14.078125
 20
13.936190
 30
0.000000
  0
VERTEX
  8
MERGEDLAYER-1
 10
46.845464
 20
13.936190
 30
0.000000
  0
VERTEX
  8
MERGEDLAYER-1
 10
46.845464
 20
7.310528
 30
0.000000
  0
VERTEX
  8
MERGEDLAYER-1
 10
14.078125
 20
7.310528
 30
0.000000
  0
SEQEND
  8
MERGEDLAYER-1
  0
TEXT
  8
MERGEDLAYER-1
 62
  7
 10
14.998798
 20
8.078022
 30
0.000000
 40
0.576923
  1
BARREL
 72
  5
 11
18.537260
 21
8.078022
 31
0.000000
  0
POLYLINE
  8
MERGEDLAYER-1
 66
  1
 70
  0
 62
  7
 10
5.960337
 20
7.193406
 30
0.000000
  0
VERTEX
  8
MERGEDLAYER-1
 10
5.960337
 20
7.193406
 30
0.000000
  0
VERTEX
  8
MERGEDLAYER-1
 10
11.594734
 20
8.074979
 30
0.000000
  0
SEQEND
  8
MERGEDLAYER-1
  0
POLYLINE
  8
MERGEDLAYER-1
 66
  1
 70
  1
 62
  7
  0
VERTEX
  8
MERGEDLAYER-1
 10
11.614183
 20
8.078022
 30
0.000000
  0
VERTEX
  8
MERGEDLAYER-1
 10
11.269863
 20
7.790574
 30
0.000000
  0
VERTEX
  8
MERGEDLAYER-1
 10
11.234191
 20
8.018569
 30
0.000000
  0
VERTEX
  8
MERGEDLAYER-1
 10
11.198518
 20
8.246563
 30
0.000000
  0
VERTEX
  8
MERGEDLAYER-1
 10
11.614183
 20
8.078022
 30
0.000000
  0
SEQEND
  8
MERGEDLAYER-1
  0
TEXT
  8
MERGEDLAYER-1
 62
  7
 10
18.383413
 20
49.385714
 30
0.000000
 40
0.576923
  1
GC TO PROVIDE
 72
  5
 11
24.998798
 21
49.385714
 31
0.000000
  0
TEXT
  8
MERGEDLAYER-1
 62
  7
 10
18.383413
 20
48.539560
 30
0.000000
 40
0.576923
  1
ACCESS PANEL 24" x 24"
 72
  5
 11
28.383413
 21
48.539560
 31
0.000000
  0
TEXT
  8
MERGEDLAYER-1
 62
  7
 10
18.383413
 20
47.693406
 30
0.000000
 40
0.576923
  1
(610x610mm)
 72
  5
 11
23.614183
 21
47.693406
 31
0.000000
  0
TEXT
  8
MERGEDLAYER-1
 62
  7
 10
18.383413
 20
46.847252
 30
0.000000
 40
0.576923
  1
IN CEILING UNDER
 72
  5
 11
25.844952
 21
46.847252
 31
0.000000
  0
TEXT
  8
MERGEDLAYER-1
 62
  7
 10
18.383413
 20
46.001099
 30
0.000000
 40
0.576923
  1
CHARGING WHEEL
 72
  5
 11
25.921875
 21
46.001099
 31
0.000000
  0
TEXT
  8
MERGEDLAYER-1
 62
  7
 10
18.383413
 20
45.154945
 30
0.000000
 40
0.576923
  1
(RIGHT OR LEFT)
 72
  5
 11
25.152644
 21
45.154945
 31
0.000000
  0
POLYLINE
  8
MERGEDLAYER-1
 66
  1
 70
  1
 62
  7
  0
VERTEX
  8
MERGEDLAYER-1
 10
1.515625
 20
52.052781
 30
0.000000
  0
VERTEX
  8
MERGEDLAYER-1
 10
32.223123
 20
52.052781
 30
0.000000
  0
VERTEX
  8
MERGEDLAYER-1
 10
32.223123
 20
51.865619
 30
0.000000
  0
VERTEX
  8
MERGEDLAYER-1
 10
1.515625
 20
51.865619
 30
0.000000
  0
SEQEND
  8
MERGEDLAYER-1
  0
POLYLINE
  8
MERGEDLAYER-1
 66
  1
 70
  1
 62
  7
  0
VERTEX
  8
MERGEDLAYER-1
 10
22.924960
 20
52.075228
 30
0.000000
  0
VERTEX
  8
MERGEDLAYER-1
 10
29.648315
 20
52.075228
 30
0.000000
  0
VERTEX
  8
MERGEDLAYER-1
 10
29.648315
 20
51.848168
 30
0.000000
  0
VERTEX
  8
MERGEDLAYER-1
 10
22.924960
 20
51.848168
 30
0.000000
  0
SEQEND
  8
MERGEDLAYER-1
  0
POLYLINE
  8
MERGEDLAYER-1
 66
  1
 70
  0
 62
  7
 10
22.918992
 20
52.340806
 30
0.000000
  0
VERTEX
  8
MERGEDLAYER-1
 10
22.918992
 20
52.340806
 30
0.000000
  0
VERTEX
  8
MERGEDLAYER-1
 10
22.918992
 20
51.757634
 30
0.000000
  0
SEQEND
  8
MERGEDLAYER-1
  0
POLYLINE
  8
MERGEDLAYER-1
 66
  1
 70
  0
 62
  7
 10
23.436329
 20
51.757634
 30
0.000000
  0
VERTEX
  8
MERGEDLAYER-1
 10
23.436329
 20
51.757634
 30
0.000000
  0
VERTEX
  8
MERGEDLAYER-1
 10
22.918992
 20
51.757634
 30
0.000000
  0
SEQEND
  8
MERGEDLAYER-1
  0
POLYLINE
  8
MERGEDLAYER-1
 66
  1
 70
  0
 62
  7
 10
29.654989
 20
52.331961
 30
0.000000
  0
VERTEX
  8
MERGEDLAYER-1
 10
29.654989
 20
52.331961
 30
0.000000
  0
VERTEX
  8
MERGEDLAYER-1
 10
29.654989
 20
51.757634
 30
0.000000
  0
SEQEND
  8
MERGEDLAYER-1
  0
POLYLINE
  8
MERGEDLAYER-1
 66
  1
 70
  0
 62
  7
 10
29.137653
 20
51.757634
 30
0.000000
  0
VERTEX
  8
MERGEDLAYER-1
 10
29.137653
 20
51.757634
 30
0.000000
  0
VERTEX
  8
MERGEDLAYER-1
 10
29.654989
 20
51.757634
 30
0.000000
  0
SEQEND
  8
MERGEDLAYER-1
  0
POLYLINE
  8
MERGEDLAYER-1
 66
  1
 70
  1
 62
  7
  0
VERTEX
  8
MERGEDLAYER-1
 10
23.151100
 20
52.014282
 30
0.000000
  0
VERTEX
  8
MERGEDLAYER-1
 10
29.401015
 20
52.014282
 30
0.000000
  0
VERTEX
  8
MERGEDLAYER-1
 10
29.401015
 20
51.903123
 30
0.000000
  0
VERTEX
  8
MERGEDLAYER-1
 10
23.151100
 20
51.903123
 30
0.000000
  0
SEQEND
  8
MERGEDLAYER-1
  0
TEXT
  8
MERGEDLAYER-1
 62
  7
 10
49.075721
 20
50.385714
 30
0.000000
 40
0.576923
  1
6" MIN
 72
  5
 11
51.844952
 21
50.385714
 31
0.000000
  0
TEXT
  8
MERGEDLAYER-1
 62
  7
 10
48.614183
 20
49.154945
 30
0.000000
 40
0.576923
  1
152 mm
 72
  5
 11
51.844952
 21
49.154945
 31
0.000000
  0
POLYLINE
  8
MERGEDLAYER-1
 66
  1
 70
  1
 62
  7
  0
VERTEX
  8
MERGEDLAYER-1
 10
48.971727
 20
52.050345
 30
0.000000
  0
VERTEX
  8
MERGEDLAYER-1
 10
59.575721
 20
52.050345
 30
0.000000
  0
VERTEX
  8
MERGEDLAYER-1
 10
59.575721
 20
51.844886
 30
0.000000
  0
VERTEX
  8
MERGEDLAYER-1
 10
48.971727
 20
51.844886
 30
0.000000
  0
SEQEND
  8
MERGEDLAYER-1
  0
POLYLINE
  8
MERGEDLAYER-1
 66
  1
 70
  0
 62
  7
 10
26.286638
 20
49.941430
 30
0.000000
  0
VERTEX
  8
MERGEDLAYER-1
 10
26.286638
 20
49.941430
 30
0.000000
  0
VERTEX
  8
MERGEDLAYER-1
 10
24.574409
 20
49.941430
 30
0.000000
  0
SEQEND
  8
MERGEDLAYER-1
  0
POLYLINE
  8
MERGEDLAYER-1
 66
  1
 70
  1
 62
  7
  0
VERTEX
  8
MERGEDLAYER-1
 10
43.458501
 20
52.050345
 30
0.000000
  0
VERTEX
  8
MERGEDLAYER-1
 10
47.039663
 20
52.050345
 30
0.000000
  0
VERTEX
  8
MERGEDLAYER-1
 10
47.039663
 20
51.844886
 30
0.000000
  0
VERTEX
  8
MERGEDLAYER-1
 10
43.458501
 20
51.844886
 30
0.000000
  0
SEQEND
  8
MERGEDLAYER-1
  0
POLYLINE
  8
MERGEDLAYER-1
 66
  1
 70
  1
 62
  7
  0
VERTEX
  8
MERGEDLAYER-1
 10
14.747597
 20
17.546772
 30
0.000000
  0
VERTEX
  8
MERGEDLAYER-1
 10
46.171960
 20
17.546772
 30
0.000000
  0
VERTEX
  8
MERGEDLAYER-1
 10
46.171960
 20
14.796499
 30
0.000000
  0
VERTEX
  8
MERGEDLAYER-1
 10
14.747597
 20
14.796499
 30
0.000000
  0
SEQEND
  8
MERGEDLAYER-1
  0
POLYLINE
  8
MERGEDLAYER-1
 66
  1
 70
  1
 62
  7
 10
48.416480
 20
40.242338
 30
0.000000
  0
VERTEX
  8
MERGEDLAYER-1
 10
48.416480
 20
40.242338
 30
0.000000
  0
VERTEX
  8
MERGEDLAYER-1
 10
47.561425
 20
40.242338
 30
0.000000
  0
VERTEX
  8
MERGEDLAYER-1
 10
47.554406
 20
40.245239
 30
0.000000
  0
VERTEX
  8
MERGEDLAYER-1
 10
47.551509
 20
40.252258
 30
0.000000
  0
VERTEX
  8
MERGEDLAYER-1
 10
47.551509
 20
40.406907
 30
0.000000
  0
VERTEX
  8
MERGEDLAYER-1
 10
47.553406
 20
40.418617
 30
0.000000
  0
VERTEX
  8
MERGEDLAYER-1
 10
47.556819
 20
40.426744
 30
0.000000
  0
VERTEX
  8
MERGEDLAYER-1
 10
47.562946
 20
40.434645
 30
0.000000
  0
VERTEX
  8
MERGEDLAYER-1
 10
47.571350
 20
40.441270
 30
0.000000
  0
VERTEX
  8
MERGEDLAYER-1
 10
47.718046
 20
40.525968
 30
0.000000
  0
VERTEX
  8
MERGEDLAYER-1
 10
47.728168
 20
40.533090
 30
0.000000
  0
VERTEX
  8
MERGEDLAYER-1
 10
47.737699
 20
40.542246
 30
0.000000
  0
VERTEX
  8
MERGEDLAYER-1
 10
47.747094
 20
40.555021
 30
0.000000
  0
VERTEX
  8
MERGEDLAYER-1
 10
47.752967
 20
40.567430
 30
0.000000
  0
VERTEX
  8
MERGEDLAYER-1
 10
47.756395
 20
40.581167
 30
0.000000
  0
VERTEX
  8
MERGEDLAYER-1
 10
47.757723
 20
40.594698
 30
0.000000
  0
VERTEX
  8
MERGEDLAYER-1
 10
47.757723
 20
41.256273
 30
0.000000
  0
VERTEX
  8
MERGEDLAYER-1
 10
47.759831
 20
41.269503
 30
0.000000
  0
VERTEX
  8
MERGEDLAYER-1
 10
47.764409
 20
41.278663
 30
0.000000
  0
VERTEX
  8
MERGEDLAYER-1
 10
47.769358
 20
41.284330
 30
0.000000
  0
VERTEX
  8
MERGEDLAYER-1
 10
47.776621
 20
41.290114
 30
0.000000
  0
VERTEX
  8
MERGEDLAYER-1
 10
47.783119
 20
41.293166
 30
0.000000
  0
VERTEX
  8
MERGEDLAYER-1
 10
47.788832
 20
41.295072
 30
0.000000
  0
VERTEX
  8
MERGEDLAYER-1
 10
47.797406
 20
41.295964
 30
0.000000
  0
VERTEX
  8
MERGEDLAYER-1
 10
47.828548
 20
41.295964
 30
0.000000
  0
VERTEX
  8
MERGEDLAYER-1
 10
47.828548
 20
41.295964
 30
0.000000
  0
VERTEX
  8
MERGEDLAYER-1
 10
47.828548
 20
41.295964
 30
0.000000
  0
VERTEX
  8
MERGEDLAYER-1
 10
47.828548
 20
41.295964
 30
0.000000
  0
VERTEX
  8
MERGEDLAYER-1
 10
47.828548
 20
41.295964
 30
0.000000
  0
VERTEX
  8
MERGEDLAYER-1
 10
47.828548
 20
41.295964
 30
0.000000
  0
VERTEX
  8
MERGEDLAYER-1
 10
47.828548
 20
41.295964
 30
0.000000
  0
VERTEX
  8
MERGEDLAYER-1
 10
47.874681
 20
41.295964
 30
0.000000
  0
VERTEX
  8
MERGEDLAYER-1
 10
47.874681
 20
41.295964
 30
0.000000
  0
VERTEX
  8
MERGEDLAYER-1
 10
47.874681
 20
41.295964
 30
0.000000
  0
VERTEX
  8
MERGEDLAYER-1
 10
47.874681
 20
41.295964
 30
0.000000
  0
VERTEX
  8
MERGEDLAYER-1
 10
47.874681
 20
41.295964
 30
0.000000
  0
VERTEX
  8
MERGEDLAYER-1
 10
47.874681
 20
41.295964
 30
0.000000
  0
VERTEX
  8
MERGEDLAYER-1
 10
47.874681
 20
41.295964
 30
0.000000
  0
VERTEX
  8
MERGEDLAYER-1
 10
47.874681
 20
41.295964
 30
0.000000
  0
VERTEX
  8
MERGEDLAYER-1
 10
47.874681
 20
41.295964
 30
0.000000
  0
VERTEX
  8
MERGEDLAYER-1
 10
47.874681
 20
41.295964
 30
0.000000
  0
VERTEX
  8
MERGEDLAYER-1
 10
48.103215
 20
41.295964
 30
0.000000
  0
VERTEX
  8
MERGEDLAYER-1
 10
48.103215
 20
41.295964
 30
0.000000
  0
VERTEX
  8
MERGEDLAYER-1
 10
48.103215
 20
41.295964
 30
0.000000
  0
VERTEX
  8
MERGEDLAYER-1
 10
48.103215
 20
41.295964
 30
0.000000
  0
VERTEX
  8
MERGEDLAYER-1
 10
48.103215
 20
41.295964
 30
0.000000
  0
VERTEX
  8
MERGEDLAYER-1
 10
48.103215
 20
41.295964
 30
0.000000
  0
VERTEX
  8
MERGEDLAYER-1
 10
48.103215
 20
41.295964
 30
0.000000
  0
VERTEX
  8
MERGEDLAYER-1
 10
48.103215
 20
41.295964
 30
0.000000
  0
VERTEX
  8
MERGEDLAYER-1
 10
48.103215
 20
41.295964
 30
0.000000
  0
VERTEX
  8
MERGEDLAYER-1
 10
48.103215
 20
41.295964
 30
0.000000
  0
VERTEX
  8
MERGEDLAYER-1
 10
48.103215
 20
41.295964
 30
0.000000
  0
VERTEX
  8
MERGEDLAYER-1
 10
48.103215
 20
41.295964
 30
0.000000
  0
VERTEX
  8
MERGEDLAYER-1
 10
48.149344
 20
41.295964
 30
0.000000
  0
VERTEX
  8
MERGEDLAYER-1
 10
48.149344
 20
41.295964
 30
0.000000
  0
VERTEX
  8
MERGEDLAYER-1
 10
48.149344
 20
41.295964
 30
0.000000
  0
VERTEX
  8
MERGEDLAYER-1
 10
48.149344
 20
41.295964
 30
0.000000
  0
VERTEX
  8
MERGEDLAYER-1
 10
48.149344
 20
41.295964
 30
0.000000
  0
VERTEX
  8
MERGEDLAYER-1
 10
48.180500
 20
41.295964
 30
0.000000
  0
VERTEX
  8
MERGEDLAYER-1
 10
48.191383
 20
41.294312
 30
0.000000
  0
VERTEX
  8
MERGEDLAYER-1
 10
48.197885
 20
41.291635
 30
0.000000
  0
VERTEX
  8
MERGEDLAYER-1
 10
48.208557
 20
41.284330
 30
0.000000
  0
VERTEX
  8
MERGEDLAYER-1
 10
48.213524
 20
41.277902
 30
0.000000
  0
VERTEX
  8
MERGEDLAYER-1
 10
48.217726
 20
41.269127
 30
0.000000
  0
VERTEX
  8
MERGEDLAYER-1
 10
48.220182
 20
41.256273
 30
0.000000
  0
VERTEX
  8
MERGEDLAYER-1
 10
48.220182
 20
40.594698
 30
0.000000
  0
VERTEX
  8
MERGEDLAYER-1
 10
48.220774
 20
40.582313
 30
0.000000
  0
VERTEX
  8
MERGEDLAYER-1
 10
48.222680
 20
40.573538
 30
0.000000
  0
VERTEX
  8
MERGEDLAYER-1
 10
48.226497
 20
40.562852
 30
0.000000
  0
VERTEX
  8
MERGEDLAYER-1
 10
48.230816
 20
40.555021
 30
0.000000
  0
VERTEX
  8
MERGEDLAYER-1
 10
48.235657
 20
40.547208
 30
0.000000
  0
VERTEX
  8
MERGEDLAYER-1
 10
48.241385
 20
40.539955
 30
0.000000
  0
VERTEX
  8
MERGEDLAYER-1
 10
48.247868
 20
40.534236
 30
0.000000
  0
VERTEX
  8
MERGEDLAYER-1
 10
48.259860
 20
40.525968
 30
0.000000
  0
VERTEX
  8
MERGEDLAYER-1
 10
48.406550
 20
40.441270
 30
0.000000
  0
VERTEX
  8
MERGEDLAYER-1
 10
48.414232
 20
40.435411
 30
0.000000
  0
VERTEX
  8
MERGEDLAYER-1
 10
48.419185
 20
40.429688
 30
0.000000
  0
VERTEX
  8
MERGEDLAYER-1
 10
48.421091
 20
40.426744
 30
0.000000
  0
VERTEX
  8
MERGEDLAYER-1
 10
48.424143
 20
40.420147
 30
0.000000
  0
VERTEX
  8
MERGEDLAYER-1
 10
48.425673
 20
40.414419
 30
0.000000
  0
VERTEX
  8
MERGEDLAYER-1
 10
48.426396
 20
40.406907
 30
0.000000
  0
VERTEX
  8
MERGEDLAYER-1
 10
48.426396
 20
40.252258
 30
0.000000
  0
VERTEX
  8
MERGEDLAYER-1
 10
48.423499
 20
40.245239
 30
0.000000
  0
SEQEND
  8
MERGEDLAYER-1
  0
POLYLINE
  8
MERGEDLAYER-1
 66
  1
 70
  1
 62
  7
  0
VERTEX
  8
MERGEDLAYER-1
 10
48.223562
 20
52.681392
 30
0.000000
  0
VERTEX
  8
MERGEDLAYER-1
 10
48.387024
 20
52.681392
 30
0.000000
  0
VERTEX
  8
MERGEDLAYER-1
 10
48.387024
 20
52.267461
 30
0.000000
  0
VERTEX
  8
MERGEDLAYER-1
 10
48.223562
 20
52.267461
 30
0.000000
  0
SEQEND
  8
MERGEDLAYER-1
  0
POLYLINE
  8
MERGEDLAYER-1
 66
  1
 70
  1
 62
  7
  0
VERTEX
  8
MERGEDLAYER-1
 10
47.600112
 20
52.681392
 30
0.000000
  0
VERTEX
  8
MERGEDLAYER-1
 10
47.763573
 20
52.681392
 30
0.000000
  0
VERTEX
  8
MERGEDLAYER-1
 10
47.763573
 20
52.267461
 30
0.000000
  0
VERTEX
  8
MERGEDLAYER-1
 10
47.600112
 20
52.267461
 30
0.000000
  0
SEQEND
  8
MERGEDLAYER-1
  0
POLYLINE
  8
MERGEDLAYER-1
 66
  1
 70
  0
 62
  7
 10
27.918671
 20
40.559861
 30
0.000000
  0
VERTEX
  8
MERGEDLAYER-1
 10
27.918671
 20
40.559861
 30
0.000000
  0
VERTEX
  8
MERGEDLAYER-1
 10
7.310763
 20
40.559861
 30
0.000000
  0
SEQEND
  8
MERGEDLAYER-1
  0
POLYLINE
  8
MERGEDLAYER-1
 66
  1
 70
  0
 62
  7
 10
27.918668
 20
40.434861
 30
0.000000
  0
VERTEX
  8
MERGEDLAYER-1
 10
27.918668
 20
40.434861
 30
0.000000
  0
VERTEX
  8
MERGEDLAYER-1
 10
7.310763
 20
40.434861
 30
0.000000
  0
SEQEND
  8
MERGEDLAYER-1
  0
POLYLINE
  8
MERGEDLAYER-1
 66
  1
 70
  0
 62
  7
 10
20.894099
 20
18.800237
 30
0.000000
  0
VERTEX
  8
MERGEDLAYER-1
 10
20.894099
 20
18.800237
 30
0.000000
  0
VERTEX
  8
MERGEDLAYER-1
 10
21.468952
 20
17.595783
 30
0.000000
  0
SEQEND
  8
MERGEDLAYER-1
  0
POLYLINE
  8
MERGEDLAYER-1
 66
  1
 70
  1
 62
  7
  0
VERTEX
  8
MERGEDLAYER-1
 10
21.477431
 20
17.578017
 30
0.000000
  0
VERTEX
  8
MERGEDLAYER-1
 10
21.103502
 20
17.825726
 30
0.000000
  0
VERTEX
  8
MERGEDLAYER-1
 10
21.311765
 20
17.925124
 30
0.000000
  0
VERTEX
  8
MERGEDLAYER-1
 10
21.520029
 20
18.024522
 30
0.000000
  0
VERTEX
  8
MERGEDLAYER-1
 10
21.477431
 20
17.578017
 30
0.000000
  0
SEQEND
  8
MERGEDLAYER-1
  0
POLYLINE
  8
MERGEDLAYER-1
 66
  1
 70
  1
 62
  7
  0
VERTEX
  8
MERGEDLAYER-1
 10
6.710726
 20
52.566566
 30
0.000000
  0
VERTEX
  8
MERGEDLAYER-1
 10
7.621848
 20
52.566566
 30
0.000000
  0
VERTEX
  8
MERGEDLAYER-1
 10
7.621848
 20
52.247620
 30
0.000000
  0
VERTEX
  8
MERGEDLAYER-1
 10
6.710726
 20
52.247620
 30
0.000000
  0
SEQEND
  8
MERGEDLAYER-1
  0
POLYLINE
  8
MERGEDLAYER-1
 66
  1
 70
  1
 62
  7
  0
VERTEX
  8
MERGEDLAYER-1
 10
27.630970
 20
52.567420
 30
0.000000
  0
VERTEX
  8
MERGEDLAYER-1
 10
28.542088
 20
52.567420
 30
0.000000
  0
VERTEX
  8
MERGEDLAYER-1
 10
28.542088
 20
52.248474
 30
0.000000
  0
VERTEX
  8
MERGEDLAYER-1
 10
27.630970
 20
52.248474
 30
0.000000
  0
SEQEND
  8
MERGEDLAYER-1
  0
POLYLINE
  8
MERGEDLAYER-1
 66
  1
 70
  0
 62
  7
 10
5.141799
 20
53.402541
 30
0.000000
  0
VERTEX
  8
MERGEDLAYER-1
 10
5.141799
 20
53.402541
 30
0.000000
  0
VERTEX
  8
MERGEDLAYER-1
 10
6.693354
 20
52.575824
 30
0.000000
  0
SEQEND
  8
MERGEDLAYER-1
  0
POLYLINE
  8
MERGEDLAYER-1
 66
  1
 70
  1
 62
  7
  0
VERTEX
  8
MERGEDLAYER-1
 10
6.710726
 20
52.566566
 30
0.000000
  0
VERTEX
  8
MERGEDLAYER-1
 10
6.262772
 20
52.543767
 30
0.000000
  0
VERTEX
  8
MERGEDLAYER-1
 10
6.371290
 20
52.747432
 30
0.000000
  0
VERTEX
  8
MERGEDLAYER-1
 10
6.479808
 20
52.951097
 30
0.000000
  0
VERTEX
  8
MERGEDLAYER-1
 10
6.710726
 20
52.566566
 30
0.000000
  0
SEQEND
  8
MERGEDLAYER-1
  0
TEXT
  8
MERGEDLAYER-1
 62
  7
 10
27.614183
 20
19.924176
 30
0.000000
 40
0.807692
  1
EXTERIOR
 72
  5
 11
33.460337
 21
19.924176
 31
0.000000
  0
TEXT
  8
MERGEDLAYER-1
 62
  7
 10
23.075721
 20
5.154945
 30
0.000000
 40
0.807692
  1
INTERIOR ( SECURE SIDE )
 72
  5
 11
37.460337
 21
5.154945
 31
0.000000
  0
POLYLINE
  8
MERGEDLAYER-1
 66
  1
 70
  1
 62
  7
  0
VERTEX
  8
MERGEDLAYER-1
 10
17.864216
 20
17.595328
 30
0.000000
  0
VERTEX
  8
MERGEDLAYER-1
 10
18.135500
 20
17.793800
 30
0.000000
  0
VERTEX
  8
MERGEDLAYER-1
 10
20.354551
 20
14.759747
 30
0.000000
  0
VERTEX
  8
MERGEDLAYER-1
 10
20.083336
 20
14.561242
 30
0.000000
  0
SEQEND
  8
MERGEDLAYER-1
  0
POLYLINE
  8
MERGEDLAYER-1
 66
  1
 70
  0
 62
  7
 10
19.081233
 20
16.261667
 30
0.000000
  0
VERTEX
  8
MERGEDLAYER-1
 10
19.081233
 20
16.261667
 30
0.000000
  0
VERTEX
  8
MERGEDLAYER-1
 10
18.054365
 20
17.657123
 30
0.000000
  0
SEQEND
  8
MERGEDLAYER-1
  0
POLYLINE
  8
MERGEDLAYER-1
 66
  1
 70
  0
 62
  7
 10
19.308394
 20
15.951252
 30
0.000000
  0
VERTEX
  8
MERGEDLAYER-1
 10
19.308394
 20
15.951252
 30
0.000000
  0
VERTEX
  8
MERGEDLAYER-1
 10
20.200942
 20
14.727055
 30
0.000000
  0
SEQEND
  8
MERGEDLAYER-1
  0
POLYLINE
  8
MERGEDLAYER-1
 66
  1
 70
  0
 62
  7
 10
19.081233
 20
16.261667
 30
0.000000
  0
VERTEX
  8
MERGEDLAYER-1
 10
19.081233
 20
16.261667
 30
0.000000
  0
VERTEX
  8
MERGEDLAYER-1
 10
19.507275
 20
16.335200
 30
0.000000
  0
SEQEND
  8
MERGEDLAYER-1
  0
POLYLINE
  8
MERGEDLAYER-1
 66
  1
 70
  0
 62
  7
 10
19.308394
 20
15.951252
 30
0.000000
  0
VERTEX
  8
MERGEDLAYER-1
 10
19.308394
 20
15.951252
 30
0.000000
  0
VERTEX
  8
MERGEDLAYER-1
 10
18.882355
 20
15.877718
 30
0.000000
  0
SEQEND
  8
MERGEDLAYER-1
  0
POLYLINE
  8
MERGEDLAYER-1
 66
  1
 70
  0
 62
  7
 10
19.507275
 20
16.335200
 30
0.000000
  0
VERTEX
  8
MERGEDLAYER-1
 10
19.507275
 20
16.335200
 30
0.000000
  0
VERTEX
  8
MERGEDLAYER-1
 10
18.882355
 20
15.877718
 30
0.000000
  0
SEQEND
  8
MERGEDLAYER-1
  0
POLYLINE
  8
MERGEDLAYER-1
 66
  1
 70
  1
 62
  7
  0
VERTEX
  8
MERGEDLAYER-1
 10
40.528677
 20
17.598835
 30
0.000000
  0
VERTEX
  8
MERGEDLAYER-1
 10
40.799960
 20
17.797307
 30
0.000000
  0
VERTEX
  8
MERGEDLAYER-1
 10
43.019005
 20
14.763249
 30
0.000000
  0
VERTEX
  8
MERGEDLAYER-1
 10
42.747728
 20
14.564777
 30
0.000000
  0
SEQEND
  8
MERGEDLAYER-1
  0
POLYLINE
  8
MERGEDLAYER-1
 66
  1
 70
  0
 62
  7
 10
41.745690
 20
16.265170
 30
0.000000
  0
VERTEX
  8
MERGEDLAYER-1
 10
41.745690
 20
16.265170
 30
0.000000
  0
VERTEX
  8
MERGEDLAYER-1
 10
40.718825
 20
17.660626
 30
0.000000
  0
SEQEND
  8
MERGEDLAYER-1
  0
POLYLINE
  8
MERGEDLAYER-1
 66
  1
 70
  0
 62
  7
 10
41.972863
 20
15.954787
 30
0.000000
  0
VERTEX
  8
MERGEDLAYER-1
 10
41.972863
 20
15.954787
 30
0.000000
  0
VERTEX
  8
MERGEDLAYER-1
 10
42.865403
 20
14.730596
 30
0.000000
  0
SEQEND
  8
MERGEDLAYER-1
  0
POLYLINE
  8
MERGEDLAYER-1
 66
  1
 70
  0
 62
  7
 10
41.745690
 20
16.265170
 30
0.000000
  0
VERTEX
  8
MERGEDLAYER-1
 10
41.745690
 20
16.265170
 30
0.000000
  0
VERTEX
  8
MERGEDLAYER-1
 10
42.171734
 20
16.338703
 30
0.000000
  0
SEQEND
  8
MERGEDLAYER-1
  0
POLYLINE
  8
MERGEDLAYER-1
 66
  1
 70
  0
 62
  7
 10
41.972863
 20
15.954787
 30
0.000000
  0
VERTEX
  8
MERGEDLAYER-1
 10
41.972863
 20
15.954787
 30
0.000000
  0
VERTEX
  8
MERGEDLAYER-1
 10
41.546819
 20
15.881226
 30
0.000000
  0
SEQEND
  8
MERGEDLAYER-1
  0
POLYLINE
  8
MERGEDLAYER-1
 66
  1
 70
  0
 62
  7
 10
42.171734
 20
16.338703
 30
0.000000
  0
VERTEX
  8
MERGEDLAYER-1
 10
42.171734
 20
16.338703
 30
0.000000
  0
VERTEX
  8
MERGEDLAYER-1
 10
41.546819
 20
15.881226
 30
0.000000
  0
SEQEND
  8
MERGEDLAYER-1
  0
POLYLINE
  8
MERGEDLAYER-1
 66
  1
 70
  0
 62
  7
 10
27.649006
 20
14.618258
 30
0.000000
  0
VERTEX
  8
MERGEDLAYER-1
 10
27.649006
 20
14.618258
 30
0.000000
  0
VERTEX
  8
MERGEDLAYER-1
 10
28.391625
 20
13.557636
 30
0.000000
  0
SEQEND
  8
MERGEDLAYER-1
  0
POLYLINE
  8
MERGEDLAYER-1
 66
  1
 70
  0
 62
  7
 10
32.517322
 20
7.672875
 30
0.000000
  0
VERTEX
  8
MERGEDLAYER-1
 10
32.517322
 20
7.672875
 30
0.000000
  0
VERTEX
  8
MERGEDLAYER-1
 10
33.258317
 20
6.614568
 30
0.000000
  0
SEQEND
  8
MERGEDLAYER-1
  0
POLYLINE
  8
MERGEDLAYER-1
 66
  1
 70
  0
 62
  7
 10
28.676516
 20
13.158396
 30
0.000000
  0
VERTEX
  8
MERGEDLAYER-1
 10
28.676516
 20
13.158396
 30
0.000000
  0
VERTEX
  8
MERGEDLAYER-1
 10
32.236030
 20
8.074632
 30
0.000000
  0
SEQEND
  8
MERGEDLAYER-1
  0
POLYLINE
  8
MERGEDLAYER-1
 66
  1
 70
  0
 62
  7
 10
28.669713
 20
13.153630
 30
0.000000
  0
VERTEX
  8
MERGEDLAYER-1
 10
28.669713
 20
13.153630
 30
0.000000
  0
VERTEX
  8
MERGEDLAYER-1
 10
28.091365
 20
13.053819
 30
0.000000
  0
SEQEND
  8
MERGEDLAYER-1
  0
POLYLINE
  8
MERGEDLAYER-1
 66
  1
 70
  0
 62
  7
 10
29.016339
 20
13.663767
 30
0.000000
  0
VERTEX
  8
MERGEDLAYER-1
 10
29.016339
 20
13.663767
 30
0.000000
  0
VERTEX
  8
MERGEDLAYER-1
 10
28.388416
 20
13.555392
 30
0.000000
  0
SEQEND
  8
MERGEDLAYER-1
  0
POLYLINE
  8
MERGEDLAYER-1
 66
  1
 70
  0
 62
  7
 10
28.091365
 20
13.053819
 30
0.000000
  0
VERTEX
  8
MERGEDLAYER-1
 10
28.091365
 20
13.053819
 30
0.000000
  0
VERTEX
  8
MERGEDLAYER-1
 10
29.016339
 20
13.663767
 30
0.000000
  0
SEQEND
  8
MERGEDLAYER-1
  0
POLYLINE
  8
MERGEDLAYER-1
 66
  1
 70
  0
 62
  7
 10
32.521078
 20
7.675504
 30
0.000000
  0
VERTEX
  8
MERGEDLAYER-1
 10
32.521078
 20
7.675504
 30
0.000000
  0
VERTEX
  8
MERGEDLAYER-1
 10
31.942726
 20
7.575693
 30
0.000000
  0
SEQEND
  8
MERGEDLAYER-1
  0
POLYLINE
  8
MERGEDLAYER-1
 66
  1
 70
  0
 62
  7
 10
32.867709
 20
8.185636
 30
0.000000
  0
VERTEX
  8
MERGEDLAYER-1
 10
32.867709
 20
8.185636
 30
0.000000
  0
VERTEX
  8
MERGEDLAYER-1
 10
32.239781
 20
8.077261
 30
0.000000
  0
SEQEND
  8
MERGEDLAYER-1
  0
POLYLINE
  8
MERGEDLAYER-1
 66
  1
 70
  0
 62
  7
 10
31.942726
 20
7.575693
 30
0.000000
  0
VERTEX
  8
MERGEDLAYER-1
 10
31.942726
 20
7.575693
 30
0.000000
  0
VERTEX
  8
MERGEDLAYER-1
 10
32.867709
 20
8.185636
 30
0.000000
  0
SEQEND
  8
MERGEDLAYER-1
  0
LINE
  8
MERGEDLAYER-1
 62
  7
 10
53.358924
 20
53.875723
 30
0.000000
 11
53.358924
 21
51.844886
 31
0.000000
  0
LINE
  8
MERGEDLAYER-1
 62
  7
 10
51.997094
 20
53.875723
 30
0.000000
 11
54.358924
 21
53.875723
 31
0.000000
  0
LINE
  8
MERGEDLAYER-1
 62
  7
 10
49.471727
 20
51.844886
 30
0.000000
 11
54.358924
 21
51.844886
 31
0.000000
  0
LINE
  8
MERGEDLAYER-1
 62
  7
 10
53.522104
 20
53.712543
 30
0.000000
 11
53.195744
 21
54.038903
 31
0.000000
  0
LINE
  8
MERGEDLAYER-1
 62
  7
 10
53.522104
 20
51.681706
 30
0.000000
 11
53.195744
 21
52.008066
 31
0.000000
  0
TEXT
  8
MERGEDLAYER-1
 62
  7
 10
52.833257
 20
52.808373
 30
0.000000
 40
0.346154
  1
 
 50
90.000000
  0
POLYLINE
  8
MERGEDLAYER-1
 66
  1
 70
  0
 62
  7
 10
18.960745
 20
63.278419
 30
0.000000
  0
VERTEX
  8
MERGEDLAYER-1
 10
18.960745
 20
63.278419
 30
0.000000
  0
VERTEX
  8
MERGEDLAYER-1
 10
18.964682
 20
62.270386
 30
0.000000
  0
SEQEND
  8
MERGEDLAYER-1
  0
POLYLINE
  8
MERGEDLAYER-1
 66
  1
 70
  1
 62
  7
  0
VERTEX
  8
MERGEDLAYER-1
 10
18.960670
 20
63.298105
 30
0.000000
  0
VERTEX
  8
MERGEDLAYER-1
 10
18.731408
 20
62.912588
 30
0.000000
  0
VERTEX
  8
MERGEDLAYER-1
 10
18.962175
 20
62.913494
 30
0.000000
  0
VERTEX
  8
MERGEDLAYER-1
 10
19.192942
 20
62.914396
 30
0.000000
  0
VERTEX
  8
MERGEDLAYER-1
 10
18.960670
 20
63.298105
 30
0.000000
  0
SEQEND
  8
MERGEDLAYER-1
  0
TEXT
  8
MERGEDLAYER-1
 62
  7
 10
18.229567
 20
61.539560
 30
0.000000
 40
0.576923
  1
STRUCTURE
 72
  5
 11
23.306490
 21
61.539560
 31
0.000000
  0
POLYLINE
  8
MERGEDLAYER-1
 66
  1
 70
  0
 62
  7
 10
26.286638
 20
49.941430
 30
0.000000
  0
VERTEX
  8
MERGEDLAYER-1
 10
26.286638
 20
49.941430
 30
0.000000
  0
VERTEX
  8
MERGEDLAYER-1
 10
26.286638
 20
51.750643
 30
0.000000
  0
SEQEND
  8
MERGEDLAYER-1
  0
POLYLINE
  8
MERGEDLAYER-1
 66
  1
 70
  1
 62
  7
  0
VERTEX
  8
MERGEDLAYER-1
 10
26.286638
 20
51.770329
 30
0.000000
  0
VERTEX
  8
MERGEDLAYER-1
 10
26.517404
 20
51.385714
 30
0.000000
  0
VERTEX
  8
MERGEDLAYER-1
 10
26.286635
 20
51.385714
 30
0.000000
  0
VERTEX
  8
MERGEDLAYER-1
 10
26.055866
 20
51.385714
 30
0.000000
  0
VERTEX
  8
MERGEDLAYER-1
 10
26.286638
 20
51.770329
 30
0.000000
  0
SEQEND
  8
MERGEDLAYER-1
  0
POLYLINE
  8
MERGEDLAYER-1
 66
  1
 70
  0
 62
  7
 10
49.117788
 20
50.263479
 30
0.000000
  0
VERTEX
  8
MERGEDLAYER-1
 10
49.117788
 20
50.263479
 30
0.000000
  0
VERTEX
  8
MERGEDLAYER-1
 10
48.821158
 20
49.966844
 30
0.000000
  0
SEQEND
  8
MERGEDLAYER-1
  0
POLYLINE
  8
MERGEDLAYER-1
 66
  1
 70
  0
 62
  7
 10
51.757362
 20
50.107229
 30
0.000000
  0
VERTEX
  8
MERGEDLAYER-1
 10
51.757362
 20
50.107229
 30
0.000000
  0
VERTEX
  8
MERGEDLAYER-1
 10
47.039663
 20
50.107229
 30
0.000000
  0
SEQEND
  8
MERGEDLAYER-1
  0
LINE
  8
MERGEDLAYER-1
 62
  7
 10
46.876484
 20
49.944050
 30
0.000000
 11
47.202848
 21
50.270409
 31
0.000000
  0
TEXT
  8
MERGEDLAYER-1
 62
  7
 10
52.998798
 20
54.078022
 30
0.000000
 40
0.576923
  1
6" MIN
 50
90.000000
 72
  5
 11
52.998798
 21
56.847252
 31
0.000000
  0
TEXT
  8
MERGEDLAYER-1
 62
  7
 10
54.229567
 20
53.616483
 30
0.000000
 40
0.576923
  1
152 mm
 50
90.000000
 72
  5
 11
54.229567
 21
56.847252
 31
0.000000
  0
POLYLINE
  8
MERGEDLAYER-1
 66
  1
 70
  0
 62
  7
 10
53.359375
 20
53.848853
 30
0.000000
  0
VERTEX
  8
MERGEDLAYER-1
 10
53.359375
 20
53.848853
 30
0.000000
  0
VERTEX
  8
MERGEDLAYER-1
 10
53.359375
 20
56.640522
 30
0.000000
  0
SEQEND
  8
MERGEDLAYER-1
  0
POLYLINE
  8
MERGEDLAYER-1
 66
  1
 70
  1
 62
  7
  0
VERTEX
  8
MERGEDLAYER-1
 10
54.674269
 20
42.868483
 30
0.000000
  0
VERTEX
  8
MERGEDLAYER-1
 10
54.674269
 20
49.652142
 30
0.000000
  0
VERTEX
  8
MERGEDLAYER-1
 10
57.907367
 20
49.652142
 30
0.000000
  0
VERTEX
  8
MERGEDLAYER-1
 10
57.907367
 20
42.868483
 30
0.000000
  0
SEQEND
  8
MERGEDLAYER-1
  0
POLYLINE
  8
MERGEDLAYER-1
 66
  1
 70
  0
 62
  7
 40
0.230769
 41
0.230769
 10
57.705271
 20
49.608098
 30
0.000000
  0
VERTEX
  8
MERGEDLAYER-1
 10
57.705271
 20
49.608098
 30
0.000000
  0
VERTEX
  8
MERGEDLAYER-1
 10
57.705271
 20
42.868483
 30
0.000000
  0
SEQEND
  8
MERGEDLAYER-1
  0
LINE
  8
MERGEDLAYER-1
 62
  7
 10
47.402644
 20
44.650419
 30
0.000000
 11
47.984375
 21
44.650419
 31
0.000000
  0
LINE
  8
MERGEDLAYER-1
 62
  7
 10
47.402644
 20
45.304068
 30
0.000000
 11
47.402644
 21
43.650419
 31
0.000000
  0
LINE
  8
MERGEDLAYER-1
 62
  7
 10
47.984375
 20
45.356868
 30
0.000000
 11
47.984375
 21
43.650419
 31
0.000000
  0
LINE
  8
MERGEDLAYER-1
 62
  7
 10
47.984375
 20
44.650419
 30
0.000000
 11
51.591802
 21
44.650419
 31
0.000000
  0
LINE
  8
MERGEDLAYER-1
 62
  7
 10
47.565829
 20
44.813599
 30
0.000000
 11
47.239469
 21
44.487239
 31
0.000000
  0
LINE
  8
MERGEDLAYER-1
 62
  7
 10
48.147560
 20
44.813599
 30
0.000000
 11
47.821200
 21
44.487239
 31
0.000000
  0
TEXT
  8
MERGEDLAYER-1
 62
  7
 10
50.319514
 20
45.471722
 30
0.000000
 40
0.576923
  1
"Z"
  0
TEXT
  8
MERGEDLAYER-1
 62
  7
 10
48.998798
 20
43.616483
 30
0.000000
 40
0.576923
  1
PACK-OFF
 72
  5
 11
53.306490
 21
43.616483
 31
0.000000
  0
POLYLINE
  8
MERGEDLAYER-1
 66
  1
 70
  0
 62
  7
 10
48.969468
 20
49.165396
 30
0.000000
  0
VERTEX
  8
MERGEDLAYER-1
 10
48.969468
 20
49.165396
 30
0.000000
  0
VERTEX
  8
MERGEDLAYER-1
 10
48.969468
 20
51.714576
 30
0.000000
  0
SEQEND
  8
MERGEDLAYER-1
  0
POLYLINE
  8
MERGEDLAYER-1
 66
  1
 70
  0
 62
  7
 10
47.039663
 20
49.150226
 30
0.000000
  0
VERTEX
  8
MERGEDLAYER-1
 10
47.039663
 20
49.150226
 30
0.000000
  0
VERTEX
  8
MERGEDLAYER-1
 10
47.039663
 20
51.717839
 30
0.000000
  0
SEQEND
  8
MERGEDLAYER-1
  0
TEXT
  8
MERGEDLAYER-1
 62
  7
 10
14.844952
 20
20.847252
 30
0.000000
 40
0.576923
  1
ALUMINUM
 72
  5
 11
19.306490
 21
20.847252
 31
0.000000
  0
TEXT
  8
MERGEDLAYER-1
 62
  7
 10
14.844952
 20
20.001099
 30
0.000000
 40
0.576923
  1
GUIDE
 72
  5
 11
17.691106
 21
20.001099
 31
0.000000
  0
POLYLINE
  8
MERGEDLAYER-1
 66
  1
 70
  0
 62
  7
 10
14.344953
 20
20.462632
 30
0.000000
  0
VERTEX
  8
MERGEDLAYER-1
 10
14.344953
 20
20.462632
 30
0.000000
  0
VERTEX
  8
MERGEDLAYER-1
 10
12.701944
 20
17.031320
 30
0.000000
  0
SEQEND
  8
MERGEDLAYER-1
  0
POLYLINE
  8
MERGEDLAYER-1
 66
  1
 70
  1
 62
  7
  0
VERTEX
  8
MERGEDLAYER-1
 10
12.693443
 20
17.013564
 30
0.000000
  0
VERTEX
  8
MERGEDLAYER-1
 10
12.651412
 20
17.460125
 30
0.000000
  0
VERTEX
  8
MERGEDLAYER-1
 10
12.859550
 20
17.360460
 30
0.000000
  0
VERTEX
  8
MERGEDLAYER-1
 10
13.067688
 20
17.260794
 30
0.000000
  0
VERTEX
  8
MERGEDLAYER-1
 10
12.693443
 20
17.013564
 30
0.000000
  0
SEQEND
  8
MERGEDLAYER-1
  0
LINE
  8
MERGEDLAYER-1
 62
  7
 10
51.118990
 20
15.386263
 30
0.000000
 11
51.118990
 21
16.972191
 31
0.000000
  0
LINE
  8
MERGEDLAYER-1
 62
  7
 10
49.779827
 20
15.366577
 30
0.000000
 11
52.118990
 21
15.366577
 31
0.000000
  0
LINE
  8
MERGEDLAYER-1
 62
  7
 10
49.779827
 20
16.991873
 30
0.000000
 11
52.118990
 21
16.991873
 31
0.000000
  0
POLYLINE
  8
MERGEDLAYER-1
 66
  1
 70
  1
 62
  7
  0
VERTEX
  8
MERGEDLAYER-1
 10
51.118990
 20
15.366577
 30
0.000000
  0
VERTEX
  8
MERGEDLAYER-1
 10
51.349760
 20
15.751193
 30
0.000000
  0
VERTEX
  8
MERGEDLAYER-1
 10
51.118990
 20
15.751193
 30
0.000000
  0
VERTEX
  8
MERGEDLAYER-1
 10
50.888221
 20
15.751193
 30
0.000000
  0
VERTEX
  8
MERGEDLAYER-1
 10
51.118990
 20
15.366577
 30
0.000000
  0
SEQEND
  8
MERGEDLAYER-1
  0
POLYLINE
  8
MERGEDLAYER-1
 66
  1
 70
  1
 62
  7
  0
VERTEX
  8
MERGEDLAYER-1
 10
51.118990
 20
16.991873
 30
0.000000
  0
VERTEX
  8
MERGEDLAYER-1
 10
51.349760
 20
16.607258
 30
0.000000
  0
VERTEX
  8
MERGEDLAYER-1
 10
51.118990
 20
16.607258
 30
0.000000
  0
VERTEX
  8
MERGEDLAYER-1
 10
50.888221
 20
16.607258
 30
0.000000
  0
VERTEX
  8
MERGEDLAYER-1
 10
51.118990
 20
16.991873
 30
0.000000
  0
SEQEND
  8
MERGEDLAYER-1
  0
TEXT
  8
MERGEDLAYER-1
 62
  7
 10
50.110300
 20
16.140090
 30
0.000000
 40
0.692308
  1
 
 50
90.000000
  0
TEXT
  8
MERGEDLAYER-1
 62
  7
 10
51.691106
 20
15.847252
 30
0.000000
 40
0.750000
  1
1 5/8" - 41mm
 72
  5
 11
58.383413
 21
15.847252
 31
0.000000
  0
POLYLINE
  8
MERGEDLAYER-1
 66
  1
 70
  1
 62
  7
  0
VERTEX
  8
MERGEDLAYER-1
 10
6.683975
 20
58.532236
 30
0.000000
  0
VERTEX
  8
MERGEDLAYER-1
 10
6.738666
 20
58.532236
 30
0.000000
  0
VERTEX
  8
MERGEDLAYER-1
 10
6.738666
 20
53.861676
 30
0.000000
  0
VERTEX
  8
MERGEDLAYER-1
 10
6.683975
 20
53.861676
 30
0.000000
  0
SEQEND
  8
MERGEDLAYER-1
  0
POLYLINE
  8
MERGEDLAYER-1
 66
  1
 70
  1
 62
  7
  0
VERTEX
  8
MERGEDLAYER-1
 10
28.497962
 20
58.532236
 30
0.000000
  0
VERTEX
  8
MERGEDLAYER-1
 10
28.552655
 20
58.532236
 30
0.000000
  0
VERTEX
  8
MERGEDLAYER-1
 10
28.552655
 20
53.861145
 30
0.000000
  0
VERTEX
  8
MERGEDLAYER-1
 10
28.497962
 20
53.861145
 30
0.000000
  0
SEQEND
  8
MERGEDLAYER-1
  0
POLYLINE
  8
MERGEDLAYER-1
 66
  1
 70
  1
 62
  7
  0
VERTEX
  8
MERGEDLAYER-1
 10
11.613158
 20
18.173021
 30
0.000000
  0
VERTEX
  8
MERGEDLAYER-1
 10
11.800654
 20
18.173021
 30
0.000000
  0
VERTEX
  8
MERGEDLAYER-1
 10
11.800654
 20
4.230098
 30
0.000000
  0
VERTEX
  8
MERGEDLAYER-1
 10
11.613158
 20
4.230098
 30
0.000000
  0
SEQEND
  8
MERGEDLAYER-1
  0
POLYLINE
  8
MERGEDLAYER-1
 66
  1
 70
  1
 62
  7
  0
VERTEX
  8
MERGEDLAYER-1
 10
49.108788
 20
18.182645
 30
0.000000
  0
VERTEX
  8
MERGEDLAYER-1
 10
49.296298
 20
18.182645
 30
0.000000
  0
VERTEX
  8
MERGEDLAYER-1
 10
49.296298
 20
4.220731
 30
0.000000
  0
VERTEX
  8
MERGEDLAYER-1
 10
49.108788
 20
4.220731
 30
0.000000
  0
SEQEND
  8
MERGEDLAYER-1
  0
TEXT
  8
MERGEDLAYER-1
 62
  7
 10
61.306490
 20
4.847252
 30
0.000000
 40
0.750000
  1
NEW YORK.TORONTO.QUEBEC.LONDON.PARIS
 72
  5
 11
84.614183
 21
4.847252
 31
0.000000
  0
TEXT
  8
MERGEDLAYER-1
 62
 65
 10
71.383413
 20
6.693406
 30
0.000000
 40
2.076923
  1
Mobil
 72
  5
 11
79.460337
 21
6.693406
 31
0.000000
  0
TEXT
  8
MERGEDLAYER-1
 62
  7
 10
79.460337
 20
6.693406
 30
0.000000
 40
2.076923
  1
Flex
 72
  5
 11
85.306490
 21
6.693406
 31
0.000000
  0
POLYLINE
  8
MERGEDLAYER-1
 66
  1
 70
  1
 62
 65
  0
VERTEX
  8
MERGEDLAYER-1
 10
61.196759
 20
6.434190
 30
0.000000
  0
VERTEX
  8
MERGEDLAYER-1
 10
84.598736
 20
6.434190
 30
0.000000
  0
VERTEX
  8
MERGEDLAYER-1
 10
84.598736
 20
6.184190
 30
0.000000
  0
VERTEX
  8
MERGEDLAYER-1
 10
61.196759
 20
6.184190
 30
0.000000
  0
SEQEND
  8
MERGEDLAYER-1
  0
POLYLINE
  8
MERGEDLAYER-1
 66
  1
 70
  1
 62
 65
  0
VERTEX
  8
MERGEDLAYER-1
 10
61.196759
 20
9.849731
 30
0.000000
  0
VERTEX
  8
MERGEDLAYER-1
 10
62.539555
 20
9.849731
 30
0.000000
  0
VERTEX
  8
MERGEDLAYER-1
 10
62.539555
 20
6.892545
 30
0.000000
  0
VERTEX
  8
MERGEDLAYER-1
 10
61.196759
 20
6.892545
 30
0.000000
  0
SEQEND
  8
MERGEDLAYER-1
  0
POLYLINE
  8
MERGEDLAYER-1
 66
  1
 70
  1
 62
 65
  0
VERTEX
  8
MERGEDLAYER-1
 10
62.981455
 20
9.849731
 30
0.000000
  0
VERTEX
  8
MERGEDLAYER-1
 10
64.324252
 20
9.849731
 30
0.000000
  0
VERTEX
  8
MERGEDLAYER-1
 10
64.324252
 20
6.892545
 30
0.000000
  0
VERTEX
  8
MERGEDLAYER-1
 10
62.981455
 20
6.892545
 30
0.000000
  0
SEQEND
  8
MERGEDLAYER-1
  0
POLYLINE
  8
MERGEDLAYER-1
 66
  1
 70
  1
 62
 65
  0
VERTEX
  8
MERGEDLAYER-1
 10
64.699773
 20
9.849731
 30
0.000000
  0
VERTEX
  8
MERGEDLAYER-1
 10
66.042570
 20
9.849731
 30
0.000000
  0
VERTEX
  8
MERGEDLAYER-1
 10
66.042570
 20
6.892545
 30
0.000000
  0
VERTEX
  8
MERGEDLAYER-1
 10
64.699773
 20
6.892545
 30
0.000000
  0
SEQEND
  8
MERGEDLAYER-1
  0
POLYLINE
  8
MERGEDLAYER-1
 66
  1
 70
  1
 62
 65
  0
VERTEX
  8
MERGEDLAYER-1
 10
66.434397
 20
9.849731
 30
0.000000
  0
VERTEX
  8
MERGEDLAYER-1
 10
67.792016
 20
9.849731
 30
0.000000
  0
VERTEX
  8
MERGEDLAYER-1
 10
67.792016
 20
6.892545
 30
0.000000
  0
VERTEX
  8
MERGEDLAYER-1
 10
66.434397
 20
6.892545
 30
0.000000
  0
SEQEND
  8
MERGEDLAYER-1
  0
POLYLINE
  8
MERGEDLAYER-1
 66
  1
 70
  1
 62
 65
  0
VERTEX
  8
MERGEDLAYER-1
 10
68.249019
 20
9.849731
 30
0.000000
  0
VERTEX
  8
MERGEDLAYER-1
 10
70.404006
 20
9.849731
 30
0.000000
  0
VERTEX
  8
MERGEDLAYER-1
 10
70.404006
 20
9.082289
 30
0.000000
  0
VERTEX
  8
MERGEDLAYER-1
 10
68.249019
 20
9.082289
 30
0.000000
  0
SEQEND
  8
MERGEDLAYER-1
  0
POLYLINE
  8
MERGEDLAYER-1
 66
  1
 70
  1
 62
 65
  0
VERTEX
  8
MERGEDLAYER-1
 10
68.247451
 20
8.552241
 30
0.000000
  0
VERTEX
  8
MERGEDLAYER-1
 10
70.031682
 20
8.552241
 30
0.000000
  0
VERTEX
  8
MERGEDLAYER-1
 10
70.031682
 20
7.782555
 30
0.000000
  0
VERTEX
  8
MERGEDLAYER-1
 10
68.247451
 20
7.782555
 30
0.000000
  0
SEQEND
  8
MERGEDLAYER-1
  0
LINE
  8
MERGEDLAYER-1
 62
  7
 10
46.564472
 20
19.349454
 30
0.000000
 11
49.276611
 21
19.349454
 31
0.000000
  0
LINE
  8
MERGEDLAYER-1
 62
  7
 10
46.544790
 20
17.367798
 30
0.000000
 11
46.544790
 21
20.349454
 31
0.000000
  0
LINE
  8
MERGEDLAYER-1
 62
  7
 10
49.296298
 20
18.682645
 30
0.000000
 11
49.296298
 21
20.349454
 31
0.000000
  0
POLYLINE
  8
MERGEDLAYER-1
 66
  1
 70
  1
 62
  7
  0
VERTEX
  8
MERGEDLAYER-1
 10
46.544790
 20
19.349454
 30
0.000000
  0
VERTEX
  8
MERGEDLAYER-1
 10
46.929406
 20
19.118690
 30
0.000000
  0
VERTEX
  8
MERGEDLAYER-1
 10
46.929406
 20
19.349459
 30
0.000000
  0
VERTEX
  8
MERGEDLAYER-1
 10
46.929406
 20
19.580228
 30
0.000000
  0
VERTEX
  8
MERGEDLAYER-1
 10
46.544790
 20
19.349454
 30
0.000000
  0
SEQEND
  8
MERGEDLAYER-1
  0
POLYLINE
  8
MERGEDLAYER-1
 66
  1
 70
  1
 62
  7
  0
VERTEX
  8
MERGEDLAYER-1
 10
49.296298
 20
19.349454
 30
0.000000
  0
VERTEX
  8
MERGEDLAYER-1
 10
48.911682
 20
19.118681
 30
0.000000
  0
VERTEX
  8
MERGEDLAYER-1
 10
48.911682
 20
19.349450
 30
0.000000
  0
VERTEX
  8
MERGEDLAYER-1
 10
48.911682
 20
19.580219
 30
0.000000
  0
VERTEX
  8
MERGEDLAYER-1
 10
49.296298
 20
19.349454
 30
0.000000
  0
SEQEND
  8
MERGEDLAYER-1
  0
TEXT
  8
MERGEDLAYER-1
 62
  7
 10
47.795894
 20
20.357549
 30
0.000000
 40
0.692308
  1
 
  0
TEXT
  8
MERGEDLAYER-1
 62
  7
 10
54.075721
 20
33.847252
 30
0.000000
 40
0.576923
  1
BOTTOM BAR
 72
  5
 11
59.614183
 21
33.847252
 31
0.000000
  0
POLYLINE
  8
MERGEDLAYER-1
 66
  1
 70
  1
 62
  7
 10
55.101990
 20
28.628552
 30
0.000000
  0
VERTEX
  8
MERGEDLAYER-1
 10
55.101990
 20
28.628552
 30
0.000000
  0
VERTEX
  8
MERGEDLAYER-1
 10
55.090553
 20
28.600926
 30
0.000000
  0
VERTEX
  8
MERGEDLAYER-1
 10
55.062927
 20
28.589489
 30
0.000000
  0
VERTEX
  8
MERGEDLAYER-1
 10
55.018024
 20
28.589489
 30
0.000000
  0
VERTEX
  8
MERGEDLAYER-1
 10
54.990403
 20
28.600926
 30
0.000000
  0
VERTEX
  8
MERGEDLAYER-1
 10
54.978962
 20
28.628552
 30
0.000000
  0
VERTEX
  8
MERGEDLAYER-1
 10
54.978962
 20
29.237464
 30
0.000000
  0
VERTEX
  8
MERGEDLAYER-1
 10
54.986474
 20
29.283598
 30
0.000000
  0
VERTEX
  8
MERGEDLAYER-1
 10
54.999892
 20
29.315589
 30
0.000000
  0
VERTEX
  8
MERGEDLAYER-1
 10
55.024029
 20
29.346703
 30
0.000000
  0
VERTEX
  8
MERGEDLAYER-1
 10
55.057087
 20
29.372782
 30
0.000000
  0
VERTEX
  8
MERGEDLAYER-1
 10
55.634719
 20
29.706280
 30
0.000000
  0
VERTEX
  8
MERGEDLAYER-1
 10
55.674570
 20
29.734316
 30
0.000000
  0
VERTEX
  8
MERGEDLAYER-1
 10
55.712130
 20
29.770376
 30
0.000000
  0
VERTEX
  8
MERGEDLAYER-1
 10
55.749099
 20
29.820662
 30
0.000000
  0
VERTEX
  8
MERGEDLAYER-1
 10
55.772226
 20
29.869535
 30
0.000000
  0
VERTEX
  8
MERGEDLAYER-1
 10
55.785748
 20
29.923624
 30
0.000000
  0
VERTEX
  8
MERGEDLAYER-1
 10
55.790969
 20
29.976912
 30
0.000000
  0
VERTEX
  8
MERGEDLAYER-1
 10
55.790969
 20
32.581858
 30
0.000000
  0
VERTEX
  8
MERGEDLAYER-1
 10
55.799274
 20
32.633958
 30
0.000000
  0
VERTEX
  8
MERGEDLAYER-1
 10
55.817298
 20
32.670018
 30
0.000000
  0
VERTEX
  8
MERGEDLAYER-1
 10
55.836726
 20
32.692341
 30
0.000000
  0
VERTEX
  8
MERGEDLAYER-1
 10
55.865380
 20
32.715090
 30
0.000000
  0
VERTEX
  8
MERGEDLAYER-1
 10
55.890916
 20
32.727107
 30
0.000000
  0
VERTEX
  8
MERGEDLAYER-1
 10
55.913457
 20
32.734621
 30
0.000000
  0
VERTEX
  8
MERGEDLAYER-1
 10
55.947219
 20
32.738108
 30
0.000000
  0
VERTEX
  8
MERGEDLAYER-1
 10
56.069820
 20
32.738108
 30
0.000000
  0
VERTEX
  8
MERGEDLAYER-1
 10
56.097436
 20
32.749549
 30
0.000000
  0
VERTEX
  8
MERGEDLAYER-1
 10
56.108882
 20
32.777170
 30
0.000000
  0
VERTEX
  8
MERGEDLAYER-1
 10
56.108882
 20
32.881397
 30
0.000000
  0
VERTEX
  8
MERGEDLAYER-1
 10
56.120314
 20
32.909018
 30
0.000000
  0
VERTEX
  8
MERGEDLAYER-1
 10
56.147945
 20
32.920459
 30
0.000000
  0
VERTEX
  8
MERGEDLAYER-1
 10
56.348830
 20
32.920459
 30
0.000000
  0
VERTEX
  8
MERGEDLAYER-1
 10
56.376451
 20
32.909018
 30
0.000000
  0
VERTEX
  8
MERGEDLAYER-1
 10
56.387893
 20
32.882627
 30
0.000000
  0
VERTEX
  8
MERGEDLAYER-1
 10
56.376451
 20
32.855006
 30
0.000000
  0
VERTEX
  8
MERGEDLAYER-1
 10
56.348830
 20
32.843565
 30
0.000000
  0
VERTEX
  8
MERGEDLAYER-1
 10
56.251437
 20
32.843565
 30
0.000000
  0
VERTEX
  8
MERGEDLAYER-1
 10
56.237629
 20
32.837844
 30
0.000000
  0
VERTEX
  8
MERGEDLAYER-1
 10
56.231905
 20
32.824033
 30
0.000000
  0
VERTEX
  8
MERGEDLAYER-1
 10
56.231905
 20
32.757639
 30
0.000000
  0
VERTEX
  8
MERGEDLAYER-1
 10
56.237629
 20
32.743828
 30
0.000000
  0
VERTEX
  8
MERGEDLAYER-1
 10
56.251437
 20
32.738108
 30
0.000000
  0
VERTEX
  8
MERGEDLAYER-1
 10
57.151311
 20
32.738108
 30
0.000000
  0
VERTEX
  8
MERGEDLAYER-1
 10
57.165124
 20
32.743828
 30
0.000000
  0
VERTEX
  8
MERGEDLAYER-1
 10
57.170842
 20
32.757639
 30
0.000000
  0
VERTEX
  8
MERGEDLAYER-1
 10
57.170842
 20
32.824033
 30
0.000000
  0
VERTEX
  8
MERGEDLAYER-1
 10
57.165124
 20
32.837844
 30
0.000000
  0
VERTEX
  8
MERGEDLAYER-1
 10
57.151311
 20
32.843565
 30
0.000000
  0
VERTEX
  8
MERGEDLAYER-1
 10
57.053922
 20
32.843565
 30
0.000000
  0
VERTEX
  8
MERGEDLAYER-1
 10
57.026301
 20
32.855006
 30
0.000000
  0
VERTEX
  8
MERGEDLAYER-1
 10
57.014860
 20
32.881397
 30
0.000000
  0
VERTEX
  8
MERGEDLAYER-1
 10
57.026301
 20
32.909018
 30
0.000000
  0
VERTEX
  8
MERGEDLAYER-1
 10
57.053922
 20
32.920459
 30
0.000000
  0
VERTEX
  8
MERGEDLAYER-1
 10
57.254812
 20
32.920459
 30
0.000000
  0
VERTEX
  8
MERGEDLAYER-1
 10
57.282438
 20
32.909018
 30
0.000000
  0
VERTEX
  8
MERGEDLAYER-1
 10
57.293875
 20
32.881397
 30
0.000000
  0
VERTEX
  8
MERGEDLAYER-1
 10
57.293875
 20
32.777170
 30
0.000000
  0
VERTEX
  8
MERGEDLAYER-1
 10
57.305317
 20
32.749549
 30
0.000000
  0
VERTEX
  8
MERGEDLAYER-1
 10
57.332937
 20
32.738108
 30
0.000000
  0
VERTEX
  8
MERGEDLAYER-1
 10
57.455585
 20
32.738108
 30
0.000000
  0
VERTEX
  8
MERGEDLAYER-1
 10
57.498493
 20
32.731614
 30
0.000000
  0
VERTEX
  8
MERGEDLAYER-1
 10
57.524029
 20
32.721098
 30
0.000000
  0
VERTEX
  8
MERGEDLAYER-1
 10
57.566073
 20
32.692341
 30
0.000000
  0
VERTEX
  8
MERGEDLAYER-1
 10
57.585628
 20
32.667016
 30
0.000000
  0
VERTEX
  8
MERGEDLAYER-1
 10
57.602154
 20
32.632458
 30
0.000000
  0
VERTEX
  8
MERGEDLAYER-1
 10
57.611835
 20
32.581858
 30
0.000000
  0
VERTEX
  8
MERGEDLAYER-1
 10
57.611835
 20
29.976912
 30
0.000000
  0
VERTEX
  8
MERGEDLAYER-1
 10
57.614173
 20
29.928129
 30
0.000000
  0
VERTEX
  8
MERGEDLAYER-1
 10
57.621685
 20
29.893578
 30
0.000000
  0
VERTEX
  8
MERGEDLAYER-1
 10
57.636714
 20
29.851504
 30
0.000000
  0
VERTEX
  8
MERGEDLAYER-1
 10
57.653701
 20
29.820662
 30
0.000000
  0
VERTEX
  8
MERGEDLAYER-1
 10
57.672767
 20
29.789908
 30
0.000000
  0
VERTEX
  8
MERGEDLAYER-1
 10
57.695308
 20
29.761364
 30
0.000000
  0
VERTEX
  8
MERGEDLAYER-1
 10
57.720849
 20
29.738826
 30
0.000000
  0
VERTEX
  8
MERGEDLAYER-1
 10
57.768085
 20
29.706280
 30
0.000000
  0
VERTEX
  8
MERGEDLAYER-1
 10
58.345717
 20
29.372782
 30
0.000000
  0
VERTEX
  8
MERGEDLAYER-1
 10
58.375892
 20
29.349706
 30
0.000000
  0
VERTEX
  8
MERGEDLAYER-1
 10
58.395423
 20
29.327172
 30
0.000000
  0
VERTEX
  8
MERGEDLAYER-1
 10
58.402907
 20
29.315589
 30
0.000000
  0
VERTEX
  8
MERGEDLAYER-1
 10
58.414955
 20
29.289607
 30
0.000000
  0
VERTEX
  8
MERGEDLAYER-1
 10
58.420964
 20
29.267071
 30
0.000000
  0
VERTEX
  8
MERGEDLAYER-1
 10
58.423842
 20
29.237464
 30
0.000000
  0
VERTEX
  8
MERGEDLAYER-1
 10
58.423842
 20
28.628552
 30
0.000000
  0
VERTEX
  8
MERGEDLAYER-1
 10
58.412405
 20
28.600926
 30
0.000000
  0
VERTEX
  8
MERGEDLAYER-1
 10
58.384780
 20
28.589489
 30
0.000000
  0
VERTEX
  8
MERGEDLAYER-1
 10
58.339787
 20
28.589489
 30
0.000000
  0
VERTEX
  8
MERGEDLAYER-1
 10
58.312167
 20
28.600926
 30
0.000000
  0
VERTEX
  8
MERGEDLAYER-1
 10
58.300725
 20
28.628552
 30
0.000000
  0
VERTEX
  8
MERGEDLAYER-1
 10
58.300725
 20
28.885073
 30
0.000000
  0
VERTEX
  8
MERGEDLAYER-1
 10
58.289283
 20
28.912694
 30
0.000000
  0
VERTEX
  8
MERGEDLAYER-1
 10
58.261662
 20
28.924136
 30
0.000000
  0
VERTEX
  8
MERGEDLAYER-1
 10
57.571918
 20
28.924136
 30
0.000000
  0
VERTEX
  8
MERGEDLAYER-1
 10
57.530485
 20
28.941291
 30
0.000000
  0
VERTEX
  8
MERGEDLAYER-1
 10
57.513324
 20
28.988572
 30
0.000000
  0
VERTEX
  8
MERGEDLAYER-1
 10
57.530485
 20
29.029999
 30
0.000000
  0
VERTEX
  8
MERGEDLAYER-1
 10
57.571918
 20
29.047166
 30
0.000000
  0
VERTEX
  8
MERGEDLAYER-1
 10
58.261662
 20
29.047166
 30
0.000000
  0
VERTEX
  8
MERGEDLAYER-1
 10
58.289283
 20
29.058605
 30
0.000000
  0
VERTEX
  8
MERGEDLAYER-1
 10
58.300725
 20
29.086229
 30
0.000000
  0
VERTEX
  8
MERGEDLAYER-1
 10
58.300725
 20
29.233166
 30
0.000000
  0
VERTEX
  8
MERGEDLAYER-1
 10
58.295495
 20
29.252697
 30
0.000000
  0
VERTEX
  8
MERGEDLAYER-1
 10
58.281194
 20
29.266994
 30
0.000000
  0
VERTEX
  8
MERGEDLAYER-1
 10
57.703740
 20
29.600386
 30
0.000000
  0
VERTEX
  8
MERGEDLAYER-1
 10
57.663753
 20
29.627648
 30
0.000000
  0
VERTEX
  8
MERGEDLAYER-1
 10
57.629197
 20
29.654691
 30
0.000000
  0
VERTEX
  8
MERGEDLAYER-1
 10
57.603661
 20
29.681737
 30
0.000000
  0
VERTEX
  8
MERGEDLAYER-1
 10
57.576618
 20
29.714785
 30
0.000000
  0
VERTEX
  8
MERGEDLAYER-1
 10
57.555580
 20
29.744835
 30
0.000000
  0
VERTEX
  8
MERGEDLAYER-1
 10
57.533048
 20
29.785398
 30
0.000000
  0
VERTEX
  8
MERGEDLAYER-1
 10
57.518024
 20
29.819958
 30
0.000000
  0
VERTEX
  8
MERGEDLAYER-1
 10
57.506005
 20
29.856013
 30
0.000000
  0
VERTEX
  8
MERGEDLAYER-1
 10
57.496986
 20
29.893578
 30
0.000000
  0
VERTEX
  8
MERGEDLAYER-1
 10
57.490976
 20
29.929629
 30
0.000000
  0
VERTEX
  8
MERGEDLAYER-1
 10
57.488896
 20
29.972508
 30
0.000000
  0
VERTEX
  8
MERGEDLAYER-1
 10
57.488896
 20
30.459444
 30
0.000000
  0
VERTEX
  8
MERGEDLAYER-1
 10
57.483173
 20
30.473255
 30
0.000000
  0
VERTEX
  8
MERGEDLAYER-1
 10
57.469365
 20
30.478976
 30
0.000000
  0
VERTEX
  8
MERGEDLAYER-1
 10
57.380324
 20
30.478976
 30
0.000000
  0
VERTEX
  8
MERGEDLAYER-1
 10
57.352699
 20
30.490417
 30
0.000000
  0
VERTEX
  8
MERGEDLAYER-1
 10
57.341262
 20
30.518038
 30
0.000000
  0
VERTEX
  8
MERGEDLAYER-1
 10
57.352699
 20
30.541356
 30
0.000000
  0
VERTEX
  8
MERGEDLAYER-1
 10
57.380324
 20
30.552795
 30
0.000000
  0
VERTEX
  8
MERGEDLAYER-1
 10
57.449834
 20
30.552795
 30
0.000000
  0
VERTEX
  8
MERGEDLAYER-1
 10
57.477455
 20
30.564237
 30
0.000000
  0
VERTEX
  8
MERGEDLAYER-1
 10
57.488896
 20
30.591858
 30
0.000000
  0
VERTEX
  8
MERGEDLAYER-1
 10
57.488896
 20
32.576015
 30
0.000000
  0
VERTEX
  8
MERGEDLAYER-1
 10
57.477455
 20
32.603635
 30
0.000000
  0
VERTEX
  8
MERGEDLAYER-1
 10
57.449834
 20
32.615077
 30
0.000000
  0
VERTEX
  8
MERGEDLAYER-1
 10
55.953059
 20
32.615077
 30
0.000000
  0
VERTEX
  8
MERGEDLAYER-1
 10
55.925443
 20
32.603635
 30
0.000000
  0
VERTEX
  8
MERGEDLAYER-1
 10
55.913997
 20
32.576015
 30
0.000000
  0
VERTEX
  8
MERGEDLAYER-1
 10
55.913997
 20
30.592135
 30
0.000000
  0
VERTEX
  8
MERGEDLAYER-1
 10
55.925443
 20
30.564509
 30
0.000000
  0
VERTEX
  8
MERGEDLAYER-1
 10
55.953059
 20
30.553072
 30
0.000000
  0
VERTEX
  8
MERGEDLAYER-1
 10
56.022574
 20
30.553072
 30
0.000000
  0
VERTEX
  8
MERGEDLAYER-1
 10
56.050199
 20
30.541631
 30
0.000000
  0
VERTEX
  8
MERGEDLAYER-1
 10
56.061636
 20
30.518315
 30
0.000000
  0
VERTEX
  8
MERGEDLAYER-1
 10
56.050199
 20
30.490692
 30
0.000000
  0
VERTEX
  8
MERGEDLAYER-1
 10
56.030644
 20
30.479516
 30
0.000000
  0
VERTEX
  8
MERGEDLAYER-1
 10
55.933528
 20
30.479253
 30
0.000000
  0
VERTEX
  8
MERGEDLAYER-1
 10
55.919725
 20
30.473530
 30
0.000000
  0
VERTEX
  8
MERGEDLAYER-1
 10
55.913997
 20
30.459721
 30
0.000000
  0
VERTEX
  8
MERGEDLAYER-1
 10
55.913997
 20
29.972614
 30
0.000000
  0
VERTEX
  8
MERGEDLAYER-1
 10
55.910447
 20
29.923624
 30
0.000000
  0
VERTEX
  8
MERGEDLAYER-1
 10
55.902935
 20
29.877049
 30
0.000000
  0
VERTEX
  8
MERGEDLAYER-1
 10
55.892423
 20
29.839489
 30
0.000000
  0
VERTEX
  8
MERGEDLAYER-1
 10
55.878902
 20
29.803429
 30
0.000000
  0
VERTEX
  8
MERGEDLAYER-1
 10
55.863873
 20
29.773379
 30
0.000000
  0
VERTEX
  8
MERGEDLAYER-1
 10
55.848849
 20
29.746336
 30
0.000000
  0
VERTEX
  8
MERGEDLAYER-1
 10
55.827815
 20
29.717797
 30
0.000000
  0
VERTEX
  8
MERGEDLAYER-1
 10
55.805279
 20
29.687742
 30
0.000000
  0
VERTEX
  8
MERGEDLAYER-1
 10
55.778236
 20
29.660701
 30
0.000000
  0
VERTEX
  8
MERGEDLAYER-1
 10
55.745178
 20
29.633658
 30
0.000000
  0
VERTEX
  8
MERGEDLAYER-1
 10
55.699153
 20
29.600492
 30
0.000000
  0
VERTEX
  8
MERGEDLAYER-1
 10
55.121521
 20
29.266994
 30
0.000000
  0
VERTEX
  8
MERGEDLAYER-1
 10
55.107229
 20
29.252697
 30
0.000000
  0
VERTEX
  8
MERGEDLAYER-1
 10
55.101990
 20
29.233166
 30
0.000000
  0
VERTEX
  8
MERGEDLAYER-1
 10
55.101990
 20
29.086229
 30
0.000000
  0
VERTEX
  8
MERGEDLAYER-1
 10
55.113431
 20
29.058605
 30
0.000000
  0
VERTEX
  8
MERGEDLAYER-1
 10
55.141052
 20
29.047166
 30
0.000000
  0
VERTEX
  8
MERGEDLAYER-1
 10
55.830801
 20
29.047166
 30
0.000000
  0
VERTEX
  8
MERGEDLAYER-1
 10
55.872239
 20
29.029999
 30
0.000000
  0
VERTEX
  8
MERGEDLAYER-1
 10
55.889395
 20
28.988572
 30
0.000000
  0
VERTEX
  8
MERGEDLAYER-1
 10
55.881897
 20
28.953066
 30
0.000000
  0
VERTEX
  8
MERGEDLAYER-1
 10
55.863873
 20
28.933535
 30
0.000000
  0
VERTEX
  8
MERGEDLAYER-1
 10
55.830801
 20
28.924136
 30
0.000000
  0
VERTEX
  8
MERGEDLAYER-1
 10
55.141052
 20
28.924136
 30
0.000000
  0
VERTEX
  8
MERGEDLAYER-1
 10
55.113431
 20
28.912694
 30
0.000000
  0
VERTEX
  8
MERGEDLAYER-1
 10
55.101990
 20
28.885073
 30
0.000000
  0
VERTEX
  8
MERGEDLAYER-1
 10
55.102154
 20
28.751744
 30
0.000000
  0
SEQEND
  8
MERGEDLAYER-1
  0
POLYLINE
  8
MERGEDLAYER-1
 66
  1
 70
  1
 62
  7
 10
56.002779
 20
30.477081
 30
0.000000
  0
VERTEX
  8
MERGEDLAYER-1
 10
56.002779
 20
30.477081
 30
0.000000
  0
VERTEX
  8
MERGEDLAYER-1
 10
55.975163
 20
30.465640
 30
0.000000
  0
VERTEX
  8
MERGEDLAYER-1
 10
55.963717
 20
30.438019
 30
0.000000
  0
VERTEX
  8
MERGEDLAYER-1
 10
55.963717
 20
28.960675
 30
0.000000
  0
VERTEX
  8
MERGEDLAYER-1
 10
55.952275
 20
28.933054
 30
0.000000
  0
VERTEX
  8
MERGEDLAYER-1
 10
55.924654
 20
28.921612
 30
0.000000
  0
VERTEX
  8
MERGEDLAYER-1
 10
55.179857
 20
28.921612
 30
0.000000
  0
VERTEX
  8
MERGEDLAYER-1
 10
55.152236
 20
28.910170
 30
0.000000
  0
VERTEX
  8
MERGEDLAYER-1
 10
55.140794
 20
28.882550
 30
0.000000
  0
VERTEX
  8
MERGEDLAYER-1
 10
55.140794
 20
28.837290
 30
0.000000
  0
VERTEX
  8
MERGEDLAYER-1
 10
55.152236
 20
28.809669
 30
0.000000
  0
VERTEX
  8
MERGEDLAYER-1
 10
55.179857
 20
28.798227
 30
0.000000
  0
VERTEX
  8
MERGEDLAYER-1
 10
55.924654
 20
28.798227
 30
0.000000
  0
VERTEX
  8
MERGEDLAYER-1
 10
55.952275
 20
28.786785
 30
0.000000
  0
VERTEX
  8
MERGEDLAYER-1
 10
55.963717
 20
28.759165
 30
0.000000
  0
VERTEX
  8
MERGEDLAYER-1
 10
55.963717
 20
28.645360
 30
0.000000
  0
VERTEX
  8
MERGEDLAYER-1
 10
55.975163
 20
28.617742
 30
0.000000
  0
VERTEX
  8
MERGEDLAYER-1
 10
56.002779
 20
28.606297
 30
0.000000
  0
VERTEX
  8
MERGEDLAYER-1
 10
57.399508
 20
28.606297
 30
0.000000
  0
VERTEX
  8
MERGEDLAYER-1
 10
57.427129
 20
28.617742
 30
0.000000
  0
VERTEX
  8
MERGEDLAYER-1
 10
57.438570
 20
28.645360
 30
0.000000
  0
VERTEX
  8
MERGEDLAYER-1
 10
57.438570
 20
28.759212
 30
0.000000
  0
VERTEX
  8
MERGEDLAYER-1
 10
57.450012
 20
28.786832
 30
0.000000
  0
VERTEX
  8
MERGEDLAYER-1
 10
57.477633
 20
28.798274
 30
0.000000
  0
VERTEX
  8
MERGEDLAYER-1
 10
58.222436
 20
28.798274
 30
0.000000
  0
VERTEX
  8
MERGEDLAYER-1
 10
58.250056
 20
28.809716
 30
0.000000
  0
VERTEX
  8
MERGEDLAYER-1
 10
58.261498
 20
28.837337
 30
0.000000
  0
VERTEX
  8
MERGEDLAYER-1
 10
58.261498
 20
28.882592
 30
0.000000
  0
VERTEX
  8
MERGEDLAYER-1
 10
58.250056
 20
28.910213
 30
0.000000
  0
VERTEX
  8
MERGEDLAYER-1
 10
58.222436
 20
28.921654
 30
0.000000
  0
VERTEX
  8
MERGEDLAYER-1
 10
57.477633
 20
28.921654
 30
0.000000
  0
VERTEX
  8
MERGEDLAYER-1
 10
57.450012
 20
28.933094
 30
0.000000
  0
VERTEX
  8
MERGEDLAYER-1
 10
57.438570
 20
28.960717
 30
0.000000
  0
VERTEX
  8
MERGEDLAYER-1
 10
57.438570
 20
30.438061
 30
0.000000
  0
VERTEX
  8
MERGEDLAYER-1
 10
57.427129
 20
30.465682
 30
0.000000
  0
VERTEX
  8
MERGEDLAYER-1
 10
57.399508
 20
30.477124
 30
0.000000
  0
VERTEX
  8
MERGEDLAYER-1
 10
57.377822
 20
30.477124
 30
0.000000
  0
VERTEX
  8
MERGEDLAYER-1
 10
57.350206
 20
30.465682
 30
0.000000
  0
VERTEX
  8
MERGEDLAYER-1
 10
57.338759
 20
30.438061
 30
0.000000
  0
VERTEX
  8
MERGEDLAYER-1
 10
57.338759
 20
30.162713
 30
0.000000
  0
VERTEX
  8
MERGEDLAYER-1
 10
57.333045
 20
30.148907
 30
0.000000
  0
VERTEX
  8
MERGEDLAYER-1
 10
57.319228
 20
30.143181
 30
0.000000
  0
VERTEX
  8
MERGEDLAYER-1
 10
57.254794
 20
30.143181
 30
0.000000
  0
VERTEX
  8
MERGEDLAYER-1
 10
57.227173
 20
30.131740
 30
0.000000
  0
VERTEX
  8
MERGEDLAYER-1
 10
57.215731
 20
30.104119
 30
0.000000
  0
VERTEX
  8
MERGEDLAYER-1
 10
57.227173
 20
30.079923
 30
0.000000
  0
VERTEX
  8
MERGEDLAYER-1
 10
57.254794
 20
30.068481
 30
0.000000
  0
VERTEX
  8
MERGEDLAYER-1
 10
57.319228
 20
30.068481
 30
0.000000
  0
VERTEX
  8
MERGEDLAYER-1
 10
57.333045
 20
30.062765
 30
0.000000
  0
VERTEX
  8
MERGEDLAYER-1
 10
57.338759
 20
30.048950
 30
0.000000
  0
VERTEX
  8
MERGEDLAYER-1
 10
57.338759
 20
29.925439
 30
0.000000
  0
VERTEX
  8
MERGEDLAYER-1
 10
57.333045
 20
29.911628
 30
0.000000
  0
VERTEX
  8
MERGEDLAYER-1
 10
57.319228
 20
29.905907
 30
0.000000
  0
VERTEX
  8
MERGEDLAYER-1
 10
57.254794
 20
29.905907
 30
0.000000
  0
VERTEX
  8
MERGEDLAYER-1
 10
57.227173
 20
29.894466
 30
0.000000
  0
VERTEX
  8
MERGEDLAYER-1
 10
57.215731
 20
29.866845
 30
0.000000
  0
VERTEX
  8
MERGEDLAYER-1
 10
57.227173
 20
29.842654
 30
0.000000
  0
VERTEX
  8
MERGEDLAYER-1
 10
57.254794
 20
29.831207
 30
0.000000
  0
VERTEX
  8
MERGEDLAYER-1
 10
57.319228
 20
29.831207
 30
0.000000
  0
VERTEX
  8
MERGEDLAYER-1
 10
57.333045
 20
29.825486
 30
0.000000
  0
VERTEX
  8
MERGEDLAYER-1
 10
57.338759
 20
29.811676
 30
0.000000
  0
VERTEX
  8
MERGEDLAYER-1
 10
57.338759
 20
28.745413
 30
0.000000
  0
VERTEX
  8
MERGEDLAYER-1
 10
57.327317
 20
28.717788
 30
0.000000
  0
VERTEX
  8
MERGEDLAYER-1
 10
57.299697
 20
28.706350
 30
0.000000
  0
VERTEX
  8
MERGEDLAYER-1
 10
56.102591
 20
28.706308
 30
0.000000
  0
VERTEX
  8
MERGEDLAYER-1
 10
56.074975
 20
28.717750
 30
0.000000
  0
VERTEX
  8
MERGEDLAYER-1
 10
56.063528
 20
28.745371
 30
0.000000
  0
VERTEX
  8
MERGEDLAYER-1
 10
56.063528
 20
29.811634
 30
0.000000
  0
VERTEX
  8
MERGEDLAYER-1
 10
56.069251
 20
29.825449
 30
0.000000
  0
VERTEX
  8
MERGEDLAYER-1
 10
56.083059
 20
29.831165
 30
0.000000
  0
VERTEX
  8
MERGEDLAYER-1
 10
56.147498
 20
29.831165
 30
0.000000
  0
VERTEX
  8
MERGEDLAYER-1
 10
56.175119
 20
29.842604
 30
0.000000
  0
VERTEX
  8
MERGEDLAYER-1
 10
56.186561
 20
29.866803
 30
0.000000
  0
VERTEX
  8
MERGEDLAYER-1
 10
56.175119
 20
29.894423
 30
0.000000
  0
VERTEX
  8
MERGEDLAYER-1
 10
56.147498
 20
29.905865
 30
0.000000
  0
VERTEX
  8
MERGEDLAYER-1
 10
56.083059
 20
29.905865
 30
0.000000
  0
VERTEX
  8
MERGEDLAYER-1
 10
56.069251
 20
29.911581
 30
0.000000
  0
VERTEX
  8
MERGEDLAYER-1
 10
56.063528
 20
29.925396
 30
0.000000
  0
VERTEX
  8
MERGEDLAYER-1
 10
56.063528
 20
30.048908
 30
0.000000
  0
VERTEX
  8
MERGEDLAYER-1
 10
56.069251
 20
30.062718
 30
0.000000
  0
VERTEX
  8
MERGEDLAYER-1
 10
56.083059
 20
30.068439
 30
0.000000
  0
VERTEX
  8
MERGEDLAYER-1
 10
56.147498
 20
30.068439
 30
0.000000
  0
VERTEX
  8
MERGEDLAYER-1
 10
56.175119
 20
30.079881
 30
0.000000
  0
VERTEX
  8
MERGEDLAYER-1
 10
56.186561
 20
30.107502
 30
0.000000
  0
VERTEX
  8
MERGEDLAYER-1
 10
56.175119
 20
30.131700
 30
0.000000
  0
VERTEX
  8
MERGEDLAYER-1
 10
56.147498
 20
30.143139
 30
0.000000
  0
VERTEX
  8
MERGEDLAYER-1
 10
56.083059
 20
30.143139
 30
0.000000
  0
VERTEX
  8
MERGEDLAYER-1
 10
56.069251
 20
30.148855
 30
0.000000
  0
VERTEX
  8
MERGEDLAYER-1
 10
56.063528
 20
30.162670
 30
0.000000
  0
VERTEX
  8
MERGEDLAYER-1
 10
56.063528
 20
30.438019
 30
0.000000
  0
VERTEX
  8
MERGEDLAYER-1
 10
56.052086
 20
30.465640
 30
0.000000
  0
VERTEX
  8
MERGEDLAYER-1
 10
56.024466
 20
30.477081
 30
0.000000
  0
SEQEND
  8
MERGEDLAYER-1
  0
POLYLINE
  8
MERGEDLAYER-1
 66
  1
 70
  1
 62
  7
 10
56.211017
 20
29.580278
 30
0.000000
  0
VERTEX
  8
MERGEDLAYER-1
 10
56.211017
 20
29.580278
 30
0.000000
  0
VERTEX
  8
MERGEDLAYER-1
 10
56.336017
 20
29.580278
 30
0.000000
  0
VERTEX
  8
MERGEDLAYER-1
 10
56.336017
 20
29.830278
 30
0.000000
  0
VERTEX
  8
MERGEDLAYER-1
 10
56.211017
 20
29.830278
 30
0.000000
  0
VERTEX
  8
MERGEDLAYER-1
 10
56.211017
 20
31.736528
 30
0.000000
  0
VERTEX
  8
MERGEDLAYER-1
 10
57.211017
 20
31.736528
 30
0.000000
  0
VERTEX
  8
MERGEDLAYER-1
 10
57.211017
 20
29.830278
 30
0.000000
  0
VERTEX
  8
MERGEDLAYER-1
 10
57.086017
 20
29.830278
 30
0.000000
  0
VERTEX
  8
MERGEDLAYER-1
 10
57.086017
 20
29.580278
 30
0.000000
  0
VERTEX
  8
MERGEDLAYER-1
 10
57.211017
 20
29.580278
 30
0.000000
  0
VERTEX
  8
MERGEDLAYER-1
 10
57.211017
 20
28.861528
 30
0.000000
  0
VERTEX
  8
MERGEDLAYER-1
 10
56.211017
 20
28.861528
 30
0.000000
  0
SEQEND
  8
MERGEDLAYER-1
  0
POLYLINE
  8
MERGEDLAYER-1
 66
  1
 70
  0
 62
  7
 10
56.398517
 20
31.736528
 30
0.000000
  0
VERTEX
  8
MERGEDLAYER-1
 10
56.398517
 20
31.736528
 30
0.000000
  0
VERTEX
  8
MERGEDLAYER-1
 10
56.398517
 20
28.861528
 30
0.000000
  0
SEQEND
  8
MERGEDLAYER-1
  0
POLYLINE
  8
MERGEDLAYER-1
 66
  1
 70
  0
 62
  7
 10
57.023517
 20
31.736528
 30
0.000000
  0
VERTEX
  8
MERGEDLAYER-1
 10
57.023517
 20
31.736528
 30
0.000000
  0
VERTEX
  8
MERGEDLAYER-1
 10
57.023517
 20
28.861528
 30
0.000000
  0
SEQEND
  8
MERGEDLAYER-1
  0
CIRCLE
  8
MERGEDLAYER-1
 62
  7
 10
56.711017
 20
30.333750
 30
0.000000
 40
0.242187
  0
TEXT
  8
MERGEDLAYER-1
 62
  7
 10
50.306490
 20
30.924176
 30
0.000000
 40
0.576923
  1
3 1/2"
 72
  5
 11
52.844952
 21
30.924176
 31
0.000000
  0
TEXT
  8
MERGEDLAYER-1
 62
  7
 10
50.306490
 20
30.078022
 30
0.000000
 40
0.576923
  1
89mm
 72
  5
 11
52.844952
 21
30.078022
 31
0.000000
  0
TEXT
  8
MERGEDLAYER-1
 62
  7
 10
53.998798
 20
27.385714
 30
0.000000
 40
0.461538
  1
EXT.
 72
  5
 11
55.691106
 21
27.385714
 31
0.000000
  0
TEXT
  8
MERGEDLAYER-1
 62
  7
 10
57.998798
 20
27.385714
 30
0.000000
 40
0.461538
  1
INT.
 72
  5
 11
59.537260
 21
27.385714
 31
0.000000
  0
LINE
  8
MERGEDLAYER-1
 62
  7
 10
53.171875
 20
28.609175
 30
0.000000
 11
53.171875
 21
32.889332
 31
0.000000
  0
LINE
  8
MERGEDLAYER-1
 62
  7
 10
54.518024
 20
28.589489
 30
0.000000
 11
52.171875
 21
28.589489
 31
0.000000
  0
LINE
  8
MERGEDLAYER-1
 62
  7
 10
55.620314
 20
32.909018
 30
0.000000
 11
52.171875
 21
32.909018
 31
0.000000
  0
POLYLINE
  8
MERGEDLAYER-1
 66
  1
 70
  1
 62
  7
  0
VERTEX
  8
MERGEDLAYER-1
 10
53.171875
 20
28.589489
 30
0.000000
  0
VERTEX
  8
MERGEDLAYER-1
 10
53.402644
 20
28.974105
 30
0.000000
  0
VERTEX
  8
MERGEDLAYER-1
 10
53.171875
 20
28.974105
 30
0.000000
  0
VERTEX
  8
MERGEDLAYER-1
 10
52.941106
 20
28.974105
 30
0.000000
  0
VERTEX
  8
MERGEDLAYER-1
 10
53.171875
 20
28.589489
 30
0.000000
  0
SEQEND
  8
MERGEDLAYER-1
  0
POLYLINE
  8
MERGEDLAYER-1
 66
  1
 70
  1
 62
  7
  0
VERTEX
  8
MERGEDLAYER-1
 10
53.171875
 20
32.909018
 30
0.000000
  0
VERTEX
  8
MERGEDLAYER-1
 10
53.402644
 20
32.524402
 30
0.000000
  0
VERTEX
  8
MERGEDLAYER-1
 10
53.171875
 20
32.524402
 30
0.000000
  0
VERTEX
  8
MERGEDLAYER-1
 10
52.941106
 20
32.524402
 30
0.000000
  0
VERTEX
  8
MERGEDLAYER-1
 10
53.171875
 20
32.909018
 30
0.000000
  0
SEQEND
  8
MERGEDLAYER-1
  0
TEXT
  8
MERGEDLAYER-1
 62
  7
 10
52.161729
 20
31.026689
 30
0.000000
 40
0.692308
  1
 
 50
90.000000
  0
LINE
  8
MERGEDLAYER-1
 62
  7
 10
14.383221
 20
10.609272
 30
0.000000
 11
46.525104
 21
10.609272
 31
0.000000
  0
LINE
  8
MERGEDLAYER-1
 62
  7
 10
14.363536
 20
14.990554
 30
0.000000
 11
14.363536
 21
9.609272
 31
0.000000
  0
LINE
  8
MERGEDLAYER-1
 62
  7
 10
46.544790
 20
14.990652
 30
0.000000
 11
46.544790
 21
9.609272
 31
0.000000
  0
POLYLINE
  8
MERGEDLAYER-1
 66
  1
 70
  1
 62
  7
  0
VERTEX
  8
MERGEDLAYER-1
 10
14.363536
 20
10.609272
 30
0.000000
  0
VERTEX
  8
MERGEDLAYER-1
 10
14.748153
 20
10.378507
 30
0.000000
  0
VERTEX
  8
MERGEDLAYER-1
 10
14.748151
 20
10.609276
 30
0.000000
  0
VERTEX
  8
MERGEDLAYER-1
 10
14.748150
 20
10.840046
 30
0.000000
  0
VERTEX
  8
MERGEDLAYER-1
 10
14.363536
 20
10.609272
 30
0.000000
  0
SEQEND
  8
MERGEDLAYER-1
  0
POLYLINE
  8
MERGEDLAYER-1
 66
  1
 70
  1
 62
  7
  0
VERTEX
  8
MERGEDLAYER-1
 10
46.544790
 20
10.609272
 30
0.000000
  0
VERTEX
  8
MERGEDLAYER-1
 10
46.160175
 20
10.378498
 30
0.000000
  0
VERTEX
  8
MERGEDLAYER-1
 10
46.160175
 20
10.609267
 30
0.000000
  0
VERTEX
  8
MERGEDLAYER-1
 10
46.160175
 20
10.840036
 30
0.000000
  0
VERTEX
  8
MERGEDLAYER-1
 10
46.544790
 20
10.609272
 30
0.000000
  0
SEQEND
  8
MERGEDLAYER-1
  0
TEXT
  8
MERGEDLAYER-1
 62
  7
 10
30.563608
 20
11.617389
 30
0.000000
 40
0.692308
  1
 
  0
POLYLINE
  8
MERGEDLAYER-1
 66
  1
 70
  1
 62
  7
  0
VERTEX
  8
MERGEDLAYER-1
 10
26.549516
 20
12.737849
 30
0.000000
  0
VERTEX
  8
MERGEDLAYER-1
 10
34.197029
 20
12.737849
 30
0.000000
  0
VERTEX
  8
MERGEDLAYER-1
 10
34.197029
 20
9.505395
 30
0.000000
  0
VERTEX
  8
MERGEDLAYER-1
 10
26.549516
 20
9.505395
 30
0.000000
  0
SEQEND
  8
MERGEDLAYER-1
  0
POLYLINE
  8
MERGEDLAYER-1
 66
  1
 70
  0
 62
  7
 40
0.230769
 41
0.230769
 10
34.147369
 20
9.707426
 30
0.000000
  0
VERTEX
  8
MERGEDLAYER-1
 10
34.147369
 20
9.707426
 30
0.000000
  0
VERTEX
  8
MERGEDLAYER-1
 10
26.549516
 20
9.707426
 30
0.000000
  0
SEQEND
  8
MERGEDLAYER-1
  0
TEXT
  8
MERGEDLAYER-1
 62
  7
 10
25.844952
 20
8.308791
 30
0.000000
 40
0.750000
  1
BETWEEN GUIDES
 72
  5
 11
35.306490
 21
8.308791
 31
0.000000
  0
TEXT
  8
MERGEDLAYER-1
 62
  7
 10
61.152644
 20
0.539560
 30
0.000000
 40
0.807692
  1
FAX: 1 418.831.7817
 72
  5
 11
71.921875
 21
0.539560
 31
0.000000
  0
TEXT
  8
MERGEDLAYER-1
 62
  7
 10
73.998798
 20
0.539560
 30
0.000000
 40
0.807692
  1
FAX: 1 800.470.3359
 72
  5
 11
84.768029
 21
0.539560
 31
0.000000
  0
TEXT
  8
MERGEDLAYER-1
 62
  7
 10
61.152644
 20
2.385714
 30
0.000000
 40
0.807692
  1
TEL.:1 418.831.6652
 72
  5
 11
71.844952
 21
2.385714
 31
0.000000
  0
TEXT
  8
MERGEDLAYER-1
 62
  7
 10
73.998798
 20
2.385714
 30
0.000000
 40
0.807692
  1
TEL.:1 800.501.3359
 72
  5
 11
84.691106
 21
2.385714
 31
0.000000
  0
POLYLINE
  8
MERGEDLAYER-1
 66
  1
 70
  1
 62
  7
  0
VERTEX
  8
MERGEDLAYER-1
 10
47.102403
 20
48.165941
 30
0.000000
  0
VERTEX
  8
MERGEDLAYER-1
 10
47.283259
 20
48.298255
 30
0.000000
  0
VERTEX
  8
MERGEDLAYER-1
 10
48.762630
 20
46.275555
 30
0.000000
  0
VERTEX
  8
MERGEDLAYER-1
 10
48.581815
 20
46.143217
 30
0.000000
  0
SEQEND
  8
MERGEDLAYER-1
  0
POLYLINE
  8
MERGEDLAYER-1
 66
  1
 70
  0
 62
  7
 10
47.913748
 20
47.276832
 30
0.000000
  0
VERTEX
  8
MERGEDLAYER-1
 10
47.913748
 20
47.276832
 30
0.000000
  0
VERTEX
  8
MERGEDLAYER-1
 10
47.229173
 20
48.207135
 30
0.000000
  0
SEQEND
  8
MERGEDLAYER-1
  0
POLYLINE
  8
MERGEDLAYER-1
 66
  1
 70
  0
 62
  7
 10
48.065190
 20
47.069890
 30
0.000000
  0
VERTEX
  8
MERGEDLAYER-1
 10
48.065190
 20
47.069890
 30
0.000000
  0
VERTEX
  8
MERGEDLAYER-1
 10
48.660217
 20
46.253761
 30
0.000000
  0
SEQEND
  8
MERGEDLAYER-1
  0
POLYLINE
  8
MERGEDLAYER-1
 66
  1
 70
  0
 62
  7
 10
47.913748
 20
47.276832
 30
0.000000
  0
VERTEX
  8
MERGEDLAYER-1
 10
47.913748
 20
47.276832
 30
0.000000
  0
VERTEX
  8
MERGEDLAYER-1
 10
48.197773
 20
47.325853
 30
0.000000
  0
SEQEND
  8
MERGEDLAYER-1
  0
POLYLINE
  8
MERGEDLAYER-1
 66
  1
 70
  0
 62
  7
 10
48.065190
 20
47.069890
 30
0.000000
  0
VERTEX
  8
MERGEDLAYER-1
 10
48.065190
 20
47.069890
 30
0.000000
  0
VERTEX
  8
MERGEDLAYER-1
 10
47.781165
 20
47.020865
 30
0.000000
  0
SEQEND
  8
MERGEDLAYER-1
  0
POLYLINE
  8
MERGEDLAYER-1
 66
  1
 70
  0
 62
  7
 10
48.197773
 20
47.325853
 30
0.000000
  0
VERTEX
  8
MERGEDLAYER-1
 10
48.197773
 20
47.325853
 30
0.000000
  0
VERTEX
  8
MERGEDLAYER-1
 10
47.781165
 20
47.020865
 30
0.000000
  0
SEQEND
  8
MERGEDLAYER-1
  0
POLYLINE
  8
MERGEDLAYER-1
 66
  1
 70
  1
 62
  7
  0
VERTEX
  8
MERGEDLAYER-1
 10
27.411802
 20
48.165941
 30
0.000000
  0
VERTEX
  8
MERGEDLAYER-1
 10
27.592658
 20
48.298255
 30
0.000000
  0
VERTEX
  8
MERGEDLAYER-1
 10
29.072029
 20
46.275555
 30
0.000000
  0
VERTEX
  8
MERGEDLAYER-1
 10
28.891219
 20
46.143217
 30
0.000000
  0
SEQEND
  8
MERGEDLAYER-1
  0
POLYLINE
  8
MERGEDLAYER-1
 66
  1
 70
  0
 62
  7
 10
28.223149
 20
47.276832
 30
0.000000
  0
VERTEX
  8
MERGEDLAYER-1
 10
28.223149
 20
47.276832
 30
0.000000
  0
VERTEX
  8
MERGEDLAYER-1
 10
27.538572
 20
48.207135
 30
0.000000
  0
SEQEND
  8
MERGEDLAYER-1
  0
POLYLINE
  8
MERGEDLAYER-1
 66
  1
 70
  0
 62
  7
 10
28.374589
 20
47.069890
 30
0.000000
  0
VERTEX
  8
MERGEDLAYER-1
 10
28.374589
 20
47.069890
 30
0.000000
  0
VERTEX
  8
MERGEDLAYER-1
 10
28.969621
 20
46.253761
 30
0.000000
  0
SEQEND
  8
MERGEDLAYER-1
  0
POLYLINE
  8
MERGEDLAYER-1
 66
  1
 70
  0
 62
  7
 10
28.223149
 20
47.276832
 30
0.000000
  0
VERTEX
  8
MERGEDLAYER-1
 10
28.223149
 20
47.276832
 30
0.000000
  0
VERTEX
  8
MERGEDLAYER-1
 10
28.507176
 20
47.325853
 30
0.000000
  0
SEQEND
  8
MERGEDLAYER-1
  0
POLYLINE
  8
MERGEDLAYER-1
 66
  1
 70
  0
 62
  7
 10
28.374589
 20
47.069890
 30
0.000000
  0
VERTEX
  8
MERGEDLAYER-1
 10
28.374589
 20
47.069890
 30
0.000000
  0
VERTEX
  8
MERGEDLAYER-1
 10
28.090564
 20
47.020865
 30
0.000000
  0
SEQEND
  8
MERGEDLAYER-1
  0
POLYLINE
  8
MERGEDLAYER-1
 66
  1
 70
  0
 62
  7
 10
28.507176
 20
47.325853
 30
0.000000
  0
VERTEX
  8
MERGEDLAYER-1
 10
28.507176
 20
47.325853
 30
0.000000
  0
VERTEX
  8
MERGEDLAYER-1
 10
28.090564
 20
47.020865
 30
0.000000
  0
SEQEND
  8
MERGEDLAYER-1
  0
POLYLINE
  8
MERGEDLAYER-1
 66
  1
 70
  1
 62
  7
  0
VERTEX
  8
MERGEDLAYER-1
 10
6.158522
 20
48.165941
 30
0.000000
  0
VERTEX
  8
MERGEDLAYER-1
 10
6.339379
 20
48.298255
 30
0.000000
  0
VERTEX
  8
MERGEDLAYER-1
 10
7.818748
 20
46.275555
 30
0.000000
  0
VERTEX
  8
MERGEDLAYER-1
 10
7.637938
 20
46.143217
 30
0.000000
  0
SEQEND
  8
MERGEDLAYER-1
  0
POLYLINE
  8
MERGEDLAYER-1
 66
  1
 70
  0
 62
  7
 10
6.969869
 20
47.276832
 30
0.000000
  0
VERTEX
  8
MERGEDLAYER-1
 10
6.969869
 20
47.276832
 30
0.000000
  0
VERTEX
  8
MERGEDLAYER-1
 10
6.285291
 20
48.207135
 30
0.000000
  0
SEQEND
  8
MERGEDLAYER-1
  0
POLYLINE
  8
MERGEDLAYER-1
 66
  1
 70
  0
 62
  7
 10
7.121309
 20
47.069890
 30
0.000000
  0
VERTEX
  8
MERGEDLAYER-1
 10
7.121309
 20
47.069890
 30
0.000000
  0
VERTEX
  8
MERGEDLAYER-1
 10
7.716340
 20
46.253761
 30
0.000000
  0
SEQEND
  8
MERGEDLAYER-1
  0
POLYLINE
  8
MERGEDLAYER-1
 66
  1
 70
  0
 62
  7
 10
6.969869
 20
47.276832
 30
0.000000
  0
VERTEX
  8
MERGEDLAYER-1
 10
6.969869
 20
47.276832
 30
0.000000
  0
VERTEX
  8
MERGEDLAYER-1
 10
7.253895
 20
47.325853
 30
0.000000
  0
SEQEND
  8
MERGEDLAYER-1
  0
POLYLINE
  8
MERGEDLAYER-1
 66
  1
 70
  0
 62
  7
 10
7.121309
 20
47.069890
 30
0.000000
  0
VERTEX
  8
MERGEDLAYER-1
 10
7.121309
 20
47.069890
 30
0.000000
  0
VERTEX
  8
MERGEDLAYER-1
 10
6.837283
 20
47.020865
 30
0.000000
  0
SEQEND
  8
MERGEDLAYER-1
  0
POLYLINE
  8
MERGEDLAYER-1
 66
  1
 70
  0
 62
  7
 10
7.253895
 20
47.325853
 30
0.000000
  0
VERTEX
  8
MERGEDLAYER-1
 10
7.253895
 20
47.325853
 30
0.000000
  0
VERTEX
  8
MERGEDLAYER-1
 10
6.837283
 20
47.020865
 30
0.000000
  0
SEQEND
  8
MERGEDLAYER-1
  0
TEXT
  8
MERGEDLAYER-1
 62
  7
 10
61.691106
 20
26.154945
 30
0.000000
 40
0.807692
  1
CUSTOMER:
 72
  5
 11
68.614183
 21
26.154945
 31
0.000000
  0
POLYLINE
  8
MERGEDLAYER-1
 66
  1
 70
  0
 62
  7
 10
68.348037
 20
25.783593
 30
0.000000
  0
VERTEX
  8
MERGEDLAYER-1
 10
68.348037
 20
25.783593
 30
0.000000
  0
VERTEX
  8
MERGEDLAYER-1
 10
85.082257
 20
25.781569
 30
0.000000
  0
SEQEND
  8
MERGEDLAYER-1
  0
TEXT
  8
MERGEDLAYER-1
 62
  7
 10
61.691106
 20
24.001099
 30
0.000000
 40
0.807692
  1
PROJECT:
 72
  5
 11
67.537260
 21
24.001099
 31
0.000000
  0
TEXT
  8
MERGEDLAYER-1
 62
  7
 10
61.691106
 20
21.770329
 30
0.000000
 40
0.807692
  1
LOCATION:
 72
  5
 11
68.152644
 21
21.770329
 31
0.000000
  0
TEXT
  8
MERGEDLAYER-1
 62
  7
 10
61.691106
 20
19.539560
 30
0.000000
 40
0.807692
  1
CITY:
 72
  5
 11
64.921875
 21
19.539560
 31
0.000000
  0
TEXT
  8
MERGEDLAYER-1
 62
  7
 10
61.691106
 20
17.385714
 30
0.000000
 40
0.807692
  1
MODEL:
 72
  5
 11
66.383413
 21
17.385714
 31
0.000000
  0
TEXT
  8
MERGEDLAYER-1
 62
  7
 10
61.691106
 20
15.154945
 30
0.000000
 40
0.807692
  1
FINISH:
 72
  5
 11
65.998798
 21
15.154945
 31
0.000000
  0
TEXT
  8
MERGEDLAYER-1
 62
  7
 10
61.691106
 20
13.001099
 30
0.000000
 40
0.807692
  1
DATE:
 72
  5
 11
65.383413
 21
13.001099
 31
0.000000
  0
TEXT
  8
MERGEDLAYER-1
 62
  7
 10
75.921875
 20
13.001099
 30
0.000000
 40
0.807692
  1
NO:
 72
  5
 11
78.306490
 21
13.001099
 31
0.000000
  0
POLYLINE
  8
MERGEDLAYER-1
 66
  1
 70
  0
 62
  7
 10
60.900344
 20
27.990483
 30
0.000000
  0
VERTEX
  8
MERGEDLAYER-1
 10
60.900344
 20
27.990483
 30
0.000000
  0
VERTEX
  8
MERGEDLAYER-1
 10
85.084642
 20
27.990483
 30
0.000000
  0
SEQEND
  8
MERGEDLAYER-1
  0
TEXT
  8
MERGEDLAYER-1
 62
  7
 10
61.921875
 20
63.078022
 30
0.000000
 40
0.807692
  1
OPERATION
 72
  5
 11
68.691106
 21
63.078022
 31
0.000000
  0
POLYLINE
  8
MERGEDLAYER-1
 66
  1
 70
  0
 62
  7
 10
60.900344
 20
49.888972
 30
0.000000
  0
VERTEX
  8
MERGEDLAYER-1
 10
60.900344
 20
49.888972
 30
0.000000
  0
VERTEX
  8
MERGEDLAYER-1
 10
85.084642
 20
49.888972
 30
0.000000
  0
SEQEND
  8
MERGEDLAYER-1
  0
TEXT
  8
MERGEDLAYER-1
 62
  7
 10
72.998798
 20
63.308791
 30
0.000000
 40
0.634615
  1
VIEWED FROM COIL SIDE
 72
  5
 11
82.768029
 21
63.308791
 31
0.000000
  0
POLYLINE
  8
MERGEDLAYER-1
 66
  1
 70
  0
 62
  7
 10
60.900344
 20
10.327787
 30
0.000000
  0
VERTEX
  8
MERGEDLAYER-1
 10
60.900344
 20
10.327787
 30
0.000000
  0
VERTEX
  8
MERGEDLAYER-1
 10
85.084642
 20
10.327787
 30
0.000000
  0
SEQEND
  8
MERGEDLAYER-1
  0
TEXT
  8
MERGEDLAYER-1
 62
  7
 10
61.691106
 20
10.770329
 30
0.000000
 40
0.807692
  1
SHIP DATE:
 72
  5
 11
68.152644
 21
10.770329
 31
0.000000
  0
POLYLINE
  8
MERGEDLAYER-1
 66
  1
 70
  0
 62
  7
 10
68.348037
 20
23.576684
 30
0.000000
  0
VERTEX
  8
MERGEDLAYER-1
 10
68.348037
 20
23.576684
 30
0.000000
  0
VERTEX
  8
MERGEDLAYER-1
 10
85.082257
 20
23.574669
 30
0.000000
  0
SEQEND
  8
MERGEDLAYER-1
  0
POLYLINE
  8
MERGEDLAYER-1
 66
  1
 70
  0
 62
  7
 10
68.348037
 20
21.369784
 30
0.000000
  0
VERTEX
  8
MERGEDLAYER-1
 10
68.348037
 20
21.369784
 30
0.000000
  0
VERTEX
  8
MERGEDLAYER-1
 10
85.082257
 20
21.367765
 30
0.000000
  0
SEQEND
  8
MERGEDLAYER-1
  0
POLYLINE
  8
MERGEDLAYER-1
 66
  1
 70
  0
 62
  7
 10
68.348037
 20
19.162879
 30
0.000000
  0
VERTEX
  8
MERGEDLAYER-1
 10
68.348037
 20
19.162879
 30
0.000000
  0
VERTEX
  8
MERGEDLAYER-1
 10
85.082257
 20
19.160865
 30
0.000000
  0
SEQEND
  8
MERGEDLAYER-1
  0
POLYLINE
  8
MERGEDLAYER-1
 66
  1
 70
  0
 62
  7
 10
68.348037
 20
16.955980
 30
0.000000
  0
VERTEX
  8
MERGEDLAYER-1
 10
68.348037
 20
16.955980
 30
0.000000
  0
VERTEX
  8
MERGEDLAYER-1
 10
85.082257
 20
16.953965
 30
0.000000
  0
SEQEND
  8
MERGEDLAYER-1
  0
POLYLINE
  8
MERGEDLAYER-1
 66
  1
 70
  0
 62
  7
 10
68.348037
 20
14.749089
 30
0.000000
  0
VERTEX
  8
MERGEDLAYER-1
 10
68.348037
 20
14.749089
 30
0.000000
  0
VERTEX
  8
MERGEDLAYER-1
 10
85.082257
 20
14.747075
 30
0.000000
  0
SEQEND
  8
MERGEDLAYER-1
  0
POLYLINE
  8
MERGEDLAYER-1
 66
  1
 70
  0
 62
  7
 10
65.401625
 20
12.542189
 30
0.000000
  0
VERTEX
  8
MERGEDLAYER-1
 10
65.401625
 20
12.542189
 30
0.000000
  0
VERTEX
  8
MERGEDLAYER-1
 10
74.965576
 20
12.527001
 30
0.000000
  0
SEQEND
  8
MERGEDLAYER-1
  0
POLYLINE
  8
MERGEDLAYER-1
 66
  1
 70
  0
 62
  7
 10
78.197707
 20
12.544856
 30
0.000000
  0
VERTEX
  8
MERGEDLAYER-1
 10
78.197707
 20
12.544856
 30
0.000000
  0
VERTEX
  8
MERGEDLAYER-1
 10
85.082257
 20
12.540171
 30
0.000000
  0
SEQEND
  8
MERGEDLAYER-1
  0
TEXT
  8
MERGEDLAYER-1
 62
  7
 10
61.921875
 20
37.847252
 30
0.000000
 40
0.807692
  1
NOTES
 72
  5
 11
65.998798
 21
37.847252
 31
0.000000
  0
TEXT
  8
MERGEDLAYER-1
 62
  7
 10
61.921875
 20
42.462637
 30
0.000000
 40
0.807692
  1
HOOD
 72
  5
 11
65.537260
 21
42.462637
 31
0.000000
  0
TEXT
  8
MERGEDLAYER-1
 62
  7
 10
61.921875
 20
48.078022
 30
0.000000
 40
0.807692
  1
CHARGING SIDE
 72
  5
 11
70.921875
 21
48.078022
 31
0.000000
  0
POLYLINE
  8
MERGEDLAYER-1
 66
  1
 70
  0
 62
  7
 10
60.900344
 20
44.245009
 30
0.000000
  0
VERTEX
  8
MERGEDLAYER-1
 10
60.900344
 20
44.245009
 30
0.000000
  0
VERTEX
  8
MERGEDLAYER-1
 10
85.084642
 20
44.245009
 30
0.000000
  0
SEQEND
  8
MERGEDLAYER-1
  0
POLYLINE
  8
MERGEDLAYER-1
 66
  1
 70
  0
 62
  7
 10
60.901879
 20
39.627939
 30
0.000000
  0
VERTEX
  8
MERGEDLAYER-1
 10
60.901879
 20
39.627939
 30
0.000000
  0
VERTEX
  8
MERGEDLAYER-1
 10
85.087609
 20
39.627385
 30
0.000000
  0
SEQEND
  8
MERGEDLAYER-1
  0
TEXT
  8
MERGEDLAYER-1
 62
  7
 10
61.691106
 20
41.308791
 30
0.000000
 40
0.750000
  1
SIDES:
 72
  5
 11
65.383413
 21
41.308791
 31
0.000000
  0
POLYLINE
  8
MERGEDLAYER-1
 66
  1
 70
  1
 62
  7
  0
VERTEX
  8
MERGEDLAYER-1
 10
65.948167
 20
42.055044
 30
0.000000
  0
VERTEX
  8
MERGEDLAYER-1
 10
66.760630
 20
42.055044
 30
0.000000
  0
VERTEX
  8
MERGEDLAYER-1
 10
66.760630
 20
41.242591
 30
0.000000
  0
VERTEX
  8
MERGEDLAYER-1
 10
65.948167
 20
41.242591
 30
0.000000
  0
SEQEND
  8
MERGEDLAYER-1
  0
TEXT
  8
MERGEDLAYER-1
 62
  7
 10
67.229567
 20
41.308791
 30
0.000000
 40
0.750000
  1
2 ,
 72
  5
 11
68.768029
 21
41.308791
 31
0.000000
  0
POLYLINE
  8
MERGEDLAYER-1
 66
  1
 70
  1
 62
  7
  0
VERTEX
  8
MERGEDLAYER-1
 10
76.124366
 20
42.061467
 30
0.000000
  0
VERTEX
  8
MERGEDLAYER-1
 10
76.936857
 20
42.061467
 30
0.000000
  0
VERTEX
  8
MERGEDLAYER-1
 10
76.936857
 20
41.249009
 30
0.000000
  0
VERTEX
  8
MERGEDLAYER-1
 10
76.124366
 20
41.249009
 30
0.000000
  0
SEQEND
  8
MERGEDLAYER-1
  0
TEXT
  8
MERGEDLAYER-1
 62
  7
 10
77.460337
 20
41.308791
 30
0.000000
 40
0.750000
  1
FACIA
 72
  5
 11
80.768029
 21
41.308791
 31
0.000000
  0
TEXT
  8
MERGEDLAYER-1
 62
  7
 10
80.768029
 20
41.308791
 30
0.000000
 40
0.634615
  1
 (1 SIDE)
 72
  5
 11
84.383413
 21
41.308791
 31
0.000000
  0
POLYLINE
  8
MERGEDLAYER-1
 66
  1
 70
  1
 62
  7
  0
VERTEX
  8
MERGEDLAYER-1
 10
65.948167
 20
40.923903
 30
0.000000
  0
VERTEX
  8
MERGEDLAYER-1
 10
66.760658
 20
40.923903
 30
0.000000
  0
VERTEX
  8
MERGEDLAYER-1
 10
66.760658
 20
40.111450
 30
0.000000
  0
VERTEX
  8
MERGEDLAYER-1
 10
65.948167
 20
40.111450
 30
0.000000
  0
SEQEND
  8
MERGEDLAYER-1
  0
TEXT
  8
MERGEDLAYER-1
 62
  7
 10
67.152644
 20
40.154945
 30
0.000000
 40
0.750000
  1
END CAPS
 72
  5
 11
72.691106
 21
40.154945
 31
0.000000
  0
TEXT
  8
MERGEDLAYER-1
 62
  7
 10
77.460337
 20
40.154945
 30
0.000000
 40
0.750000
  1
NO HOOD
 72
  5
 11
82.537260
 21
40.154945
 31
0.000000
  0
POLYLINE
  8
MERGEDLAYER-1
 66
  1
 70
  1
 62
  7
  0
VERTEX
  8
MERGEDLAYER-1
 10
76.124366
 20
40.923941
 30
0.000000
  0
VERTEX
  8
MERGEDLAYER-1
 10
76.936857
 20
40.923941
 30
0.000000
  0
VERTEX
  8
MERGEDLAYER-1
 10
76.936857
 20
40.111488
 30
0.000000
  0
VERTEX
  8
MERGEDLAYER-1
 10
76.124366
 20
40.111488
 30
0.000000
  0
SEQEND
  8
MERGEDLAYER-1
  0
TEXT
  8
MERGEDLAYER-1
 62
  7
 10
75.614183
 20
48.078022
 30
0.000000
 40
0.807692
  1
TURNS:
 72
  5
 11
79.998798
 21
48.078022
 31
0.000000
  0
POLYLINE
  8
MERGEDLAYER-1
 66
  1
 70
  0
 62
  7
 10
75.712003
 20
48.100689
 30
0.000000
  0
VERTEX
  8
MERGEDLAYER-1
 10
75.712003
 20
48.100689
 30
0.000000
  0
VERTEX
  8
MERGEDLAYER-1
 10
85.090501
 20
48.096337
 30
0.000000
  0
SEQEND
  8
MERGEDLAYER-1
  0
POLYLINE
  8
MERGEDLAYER-1
 66
  1
 70
  1
 62
  7
  0
VERTEX
  8
MERGEDLAYER-1
 10
61.771743
 20
62.634174
 30
0.000000
  0
VERTEX
  8
MERGEDLAYER-1
 10
62.584243
 20
62.634174
 30
0.000000
  0
VERTEX
  8
MERGEDLAYER-1
 10
62.584243
 20
61.821726
 30
0.000000
  0
VERTEX
  8
MERGEDLAYER-1
 10
61.771743
 20
61.821726
 30
0.000000
  0
SEQEND
  8
MERGEDLAYER-1
  0
POLYLINE
  8
MERGEDLAYER-1
 66
  1
 70
  1
 62
  7
  0
VERTEX
  8
MERGEDLAYER-1
 10
61.771743
 20
61.412339
 30
0.000000
  0
VERTEX
  8
MERGEDLAYER-1
 10
62.584243
 20
61.412339
 30
0.000000
  0
VERTEX
  8
MERGEDLAYER-1
 10
62.584243
 20
60.599891
 30
0.000000
  0
VERTEX
  8
MERGEDLAYER-1
 10
61.771743
 20
60.599891
 30
0.000000
  0
SEQEND
  8
MERGEDLAYER-1
  0
POLYLINE
  8
MERGEDLAYER-1
 66
  1
 70
  1
 62
  7
  0
VERTEX
  8
MERGEDLAYER-1
 10
61.771743
 20
59.952674
 30
0.000000
  0
VERTEX
  8
MERGEDLAYER-1
 10
62.584243
 20
59.952674
 30
0.000000
  0
VERTEX
  8
MERGEDLAYER-1
 10
62.584243
 20
59.140221
 30
0.000000
  0
VERTEX
  8
MERGEDLAYER-1
 10
61.771743
 20
59.140221
 30
0.000000
  0
SEQEND
  8
MERGEDLAYER-1
  0
TEXT
  8
MERGEDLAYER-1
 62
  7
 10
63.383413
 20
61.616483
 30
0.000000
 40
0.750000
  1
MANUAL WITH PULL ROD
 72
  5
 11
75.921875
 21
61.616483
 31
0.000000
  0
TEXT
  8
MERGEDLAYER-1
 62
  7
 10
63.383413
 20
60.462637
 30
0.000000
 40
0.750000
  1
HAND CRANK :
 72
  5
 11
70.921875
 21
60.462637
 31
0.000000
  0
TEXT
  8
MERGEDLAYER-1
 62
  7
 10
63.383413
 20
59.001099
 30
0.000000
 40
0.750000
  1
1/2 HP MOTOR :
 72
  5
 11
71.383413
 21
59.001099
 31
0.000000
  0
TEXT
  8
MERGEDLAYER-1
 62
  7
 10
63.383413
 20
57.847252
 30
0.000000
 40
0.750000
  1
115/230V - 1PH - 60Hz - 1" SHAFT
 72
  5
 11
79.460337
 21
57.847252
 31
0.000000
  0
POLYLINE
  8
MERGEDLAYER-1
 66
  1
 70
  1
 62
  7
  0
VERTEX
  8
MERGEDLAYER-1
 10
80.157668
 20
61.425110
 30
0.000000
  0
VERTEX
  8
MERGEDLAYER-1
 10
80.970159
 20
61.425110
 30
0.000000
  0
VERTEX
  8
MERGEDLAYER-1
 10
80.970159
 20
60.612657
 30
0.000000
  0
VERTEX
  8
MERGEDLAYER-1
 10
80.157668
 20
60.612657
 30
0.000000
  0
SEQEND
  8
MERGEDLAYER-1
  0
TEXT
  8
MERGEDLAYER-1
 62
  7
 10
81.768029
 20
60.462637
 30
0.000000
 40
0.750000
  1
LEFT
 72
  5
 11
84.537260
 21
60.462637
 31
0.000000
  0
POLYLINE
  8
MERGEDLAYER-1
 66
  1
 70
  1
 62
  7
  0
VERTEX
  8
MERGEDLAYER-1
 10
80.157668
 20
59.972849
 30
0.000000
  0
VERTEX
  8
MERGEDLAYER-1
 10
80.970159
 20
59.972849
 30
0.000000
  0
VERTEX
  8
MERGEDLAYER-1
 10
80.970159
 20
59.160396
 30
0.000000
  0
VERTEX
  8
MERGEDLAYER-1
 10
80.157668
 20
59.160396
 30
0.000000
  0
SEQEND
  8
MERGEDLAYER-1
  0
TEXT
  8
MERGEDLAYER-1
 62
  7
 10
81.768029
 20
59.001099
 30
0.000000
 40
0.750000
  1
LEFT
 72
  5
 11
84.537260
 21
59.001099
 31
0.000000
  0
TEXT
  8
MERGEDLAYER-1
 62
  7
 10
63.383413
 20
56.539560
 30
0.000000
 40
0.750000
  1
ACCESSORIES:
 72
  5
 11
71.306490
 21
56.539560
 31
0.000000
  0
TEXT
  8
MERGEDLAYER-1
 62
  7
 10
74.537260
 20
56.539560
 30
0.000000
 40
0.750000
  1
POSITION:
 72
  5
 11
79.844952
 21
56.539560
 31
0.000000
  0
TEXT
  8
MERGEDLAYER-1
 62
  7
 10
75.921875
 20
55.231868
 30
0.000000
 40
0.750000
  1
FRONT OF COIL
 72
  5
 11
83.844952
 21
55.231868
 31
0.000000
  0
POLYLINE
  8
MERGEDLAYER-1
 66
  1
 70
  1
 62
  7
  0
VERTEX
  8
MERGEDLAYER-1
 10
74.289128
 20
56.194444
 30
0.000000
  0
VERTEX
  8
MERGEDLAYER-1
 10
75.101619
 20
56.194444
 30
0.000000
  0
VERTEX
  8
MERGEDLAYER-1
 10
75.101619
 20
55.381996
 30
0.000000
  0
VERTEX
  8
MERGEDLAYER-1
 10
74.289128
 20
55.381996
 30
0.000000
  0
SEQEND
  8
MERGEDLAYER-1
  0
TEXT
  8
MERGEDLAYER-1
 62
  7
 10
75.921875
 20
54.001099
 30
0.000000
 40
0.750000
  1
ABOVE COIL
 72
  5
 11
82.383413
 21
54.001099
 31
0.000000
  0
POLYLINE
  8
MERGEDLAYER-1
 66
  1
 70
  1
 62
  7
  0
VERTEX
  8
MERGEDLAYER-1
 10
74.289128
 20
54.996192
 30
0.000000
  0
VERTEX
  8
MERGEDLAYER-1
 10
75.101619
 20
54.996192
 30
0.000000
  0
VERTEX
  8
MERGEDLAYER-1
 10
75.101619
 20
54.183739
 30
0.000000
  0
VERTEX
  8
MERGEDLAYER-1
 10
74.289128
 20
54.183739
 30
0.000000
  0
SEQEND
  8
MERGEDLAYER-1
  0
POLYLINE
  8
MERGEDLAYER-1
 66
  1
 70
  1
 62
  7
  0
VERTEX
  8
MERGEDLAYER-1
 10
74.289128
 20
53.575425
 30
0.000000
  0
VERTEX
  8
MERGEDLAYER-1
 10
75.101619
 20
53.575425
 30
0.000000
  0
VERTEX
  8
MERGEDLAYER-1
 10
75.101619
 20
52.762972
 30
0.000000
  0
VERTEX
  8
MERGEDLAYER-1
 10
74.289128
 20
52.762972
 30
0.000000
  0
SEQEND
  8
MERGEDLAYER-1
  0
TEXT
  8
MERGEDLAYER-1
 62
  7
 10
75.921875
 20
52.616483
 30
0.000000
 40
0.750000
  1
WALL MOUNT
 72
  5
 11
82.921875
 21
52.616483
 31
0.000000
  0
TEXT
  8
MERGEDLAYER-1
 62
  7
 10
74.229567
 20
51.693406
 30
0.000000
 40
0.634615
  1
ELECTRICAL WIRING
 72
  5
 11
82.306490
 21
51.693406
 31
0.000000
  0
TEXT
  8
MERGEDLAYER-1
 62
  7
 10
74.229567
 20
50.770329
 30
0.000000
 40
0.634615
  1
BY OTHERS
 72
  5
 11
79.152644
 21
50.770329
 31
0.000000
  0
POLYLINE
  8
MERGEDLAYER-1
 66
  1
 70
  1
 62
  7
  0
VERTEX
  8
MERGEDLAYER-1
 10
61.358544
 20
60.274175
 30
0.000000
  0
VERTEX
  8
MERGEDLAYER-1
 10
84.429772
 20
60.274175
 30
0.000000
  0
VERTEX
  8
MERGEDLAYER-1
 10
84.429772
 20
50.381920
 30
0.000000
  0
VERTEX
  8
MERGEDLAYER-1
 10
61.358544
 20
50.381920
 30
0.000000
  0
SEQEND
  8
MERGEDLAYER-1
  0
TEXT
  8
MERGEDLAYER-1
 62
  7
 10
63.075721
 20
44.693406
 30
0.000000
 40
0.634615
  1
VIEWED FROM COIL SIDE
 72
  5
 11
72.844952
 21
44.693406
 31
0.000000
  0
TEXT
  8
MERGEDLAYER-1
 62
  7
 10
63.383413
 20
46.770329
 30
0.000000
 40
0.750000
  1
OUTSIDE
 72
  5
 11
68.075721
 21
46.770329
 31
0.000000
  0
POLYLINE
  8
MERGEDLAYER-1
 66
  1
 70
  1
 62
  7
  0
VERTEX
  8
MERGEDLAYER-1
 10
61.771743
 20
47.727746
 30
0.000000
  0
VERTEX
  8
MERGEDLAYER-1
 10
62.584243
 20
47.727746
 30
0.000000
  0
VERTEX
  8
MERGEDLAYER-1
 10
62.584243
 20
46.915293
 30
0.000000
  0
VERTEX
  8
MERGEDLAYER-1
 10
61.771743
 20
46.915293
 30
0.000000
  0
SEQEND
  8
MERGEDLAYER-1
  0
TEXT
  8
MERGEDLAYER-1
 62
  7
 10
75.844952
 20
46.770329
 30
0.000000
 40
0.750000
  1
INSIDE
 72
  5
 11
79.460337
 21
46.770329
 31
0.000000
  0
POLYLINE
  8
MERGEDLAYER-1
 66
  1
 70
  1
 62
  7
  0
VERTEX
  8
MERGEDLAYER-1
 10
74.295847
 20
47.727746
 30
0.000000
  0
VERTEX
  8
MERGEDLAYER-1
 10
75.108337
 20
47.727746
 30
0.000000
  0
VERTEX
  8
MERGEDLAYER-1
 10
75.108337
 20
46.915293
 30
0.000000
  0
VERTEX
  8
MERGEDLAYER-1
 10
74.295847
 20
46.915293
 30
0.000000
  0
SEQEND
  8
MERGEDLAYER-1
  0
POLYLINE
  8
MERGEDLAYER-1
 66
  1
 70
  1
 62
  7
  0
VERTEX
  8
MERGEDLAYER-1
 10
61.771743
 20
46.505653
 30
0.000000
  0
VERTEX
  8
MERGEDLAYER-1
 10
62.584243
 20
46.505653
 30
0.000000
  0
VERTEX
  8
MERGEDLAYER-1
 10
62.584243
 20
45.693200
 30
0.000000
  0
VERTEX
  8
MERGEDLAYER-1
 10
61.771743
 20
45.693200
 30
0.000000
  0
SEQEND
  8
MERGEDLAYER-1
  0
TEXT
  8
MERGEDLAYER-1
 62
  7
 10
63.383413
 20
45.539560
 30
0.000000
 40
0.750000
  1
RIGHT
 72
  5
 11
66.691106
 21
45.539560
 31
0.000000
  0
POLYLINE
  8
MERGEDLAYER-1
 66
  1
 70
  1
 62
  7
  0
VERTEX
  8
MERGEDLAYER-1
 10
74.295847
 20
46.505653
 30
0.000000
  0
VERTEX
  8
MERGEDLAYER-1
 10
75.108337
 20
46.505653
 30
0.000000
  0
VERTEX
  8
MERGEDLAYER-1
 10
75.108337
 20
45.693200
 30
0.000000
  0
VERTEX
  8
MERGEDLAYER-1
 10
74.295847
 20
45.693200
 30
0.000000
  0
SEQEND
  8
MERGEDLAYER-1
  0
TEXT
  8
MERGEDLAYER-1
 62
  7
 10
75.921875
 20
45.539560
 30
0.000000
 40
0.750000
  1
LEFT
 72
  5
 11
78.691106
 21
45.539560
 31
0.000000
  0
POLYLINE
  8
MERGEDLAYER-1
 66
  1
 70
  1
 62
  7
  0
VERTEX
  8
MERGEDLAYER-1
 10
74.282522
 20
61.425110
 30
0.000000
  0
VERTEX
  8
MERGEDLAYER-1
 10
75.095013
 20
61.425110
 30
0.000000
  0
VERTEX
  8
MERGEDLAYER-1
 10
75.095013
 20
60.612657
 30
0.000000
  0
VERTEX
  8
MERGEDLAYER-1
 10
74.282522
 20
60.612657
 30
0.000000
  0
SEQEND
  8
MERGEDLAYER-1
  0
TEXT
  8
MERGEDLAYER-1
 62
  7
 10
75.844952
 20
60.462637
 30
0.000000
 40
0.750000
  1
RIGHT
 72
  5
 11
79.152644
 21
60.462637
 31
0.000000
  0
POLYLINE
  8
MERGEDLAYER-1
 66
  1
 70
  1
 62
  7
  0
VERTEX
  8
MERGEDLAYER-1
 10
74.282522
 20
59.972849
 30
0.000000
  0
VERTEX
  8
MERGEDLAYER-1
 10
75.095013
 20
59.972849
 30
0.000000
  0
VERTEX
  8
MERGEDLAYER-1
 10
75.095013
 20
59.160396
 30
0.000000
  0
VERTEX
  8
MERGEDLAYER-1
 10
74.282522
 20
59.160396
 30
0.000000
  0
SEQEND
  8
MERGEDLAYER-1
  0
TEXT
  8
MERGEDLAYER-1
 62
  7
 10
75.844952
 20
59.001099
 30
0.000000
 40
0.750000
  1
RIGHT
 72
  5
 11
79.152644
 21
59.001099
 31
0.000000
  0
TEXT
  8
MERGEDLAYER-1
 62
  7
 10
64.844952
 20
52.616483
 30
0.000000
 40
0.750000
  1
EMERGENCY
 72
  5
 11
71.691106
 21
52.616483
 31
0.000000
  0
TEXT
  8
MERGEDLAYER-1
 62
  7
 10
64.844952
 20
51.462637
 30
0.000000
 40
0.750000
  1
PULL RELEASE
 72
  5
 11
72.691106
 21
51.462637
 31
0.000000
  0
POLYLINE
  8
MERGEDLAYER-1
 66
  1
 70
  1
 62
  7
  0
VERTEX
  8
MERGEDLAYER-1
 10
63.214689
 20
53.610089
 30
0.000000
  0
VERTEX
  8
MERGEDLAYER-1
 10
64.027184
 20
53.610089
 30
0.000000
  0
VERTEX
  8
MERGEDLAYER-1
 10
64.027184
 20
52.797636
 30
0.000000
  0
VERTEX
  8
MERGEDLAYER-1
 10
63.214689
 20
52.797636
 30
0.000000
  0
SEQEND
  8
MERGEDLAYER-1
  0
TEXT
  8
MERGEDLAYER-1
 62
  7
 10
64.844952
 20
55.231868
 30
0.000000
 40
0.750000
  1
KEY SWITCHES
 72
  5
 11
72.844952
 21
55.231868
 31
0.000000
  0
POLYLINE
  8
MERGEDLAYER-1
 66
  1
 70
  1
 62
  7
  0
VERTEX
  8
MERGEDLAYER-1
 10
63.214689
 20
56.202937
 30
0.000000
  0
VERTEX
  8
MERGEDLAYER-1
 10
64.027184
 20
56.202937
 30
0.000000
  0
VERTEX
  8
MERGEDLAYER-1
 10
64.027184
 20
55.390484
 30
0.000000
  0
VERTEX
  8
MERGEDLAYER-1
 10
63.214689
 20
55.390484
 30
0.000000
  0
SEQEND
  8
MERGEDLAYER-1
  0
POLYLINE
  8
MERGEDLAYER-1
 66
  1
 70
  1
 62
  7
  0
VERTEX
  8
MERGEDLAYER-1
 10
63.214689
 20
54.879385
 30
0.000000
  0
VERTEX
  8
MERGEDLAYER-1
 10
64.027184
 20
54.879385
 30
0.000000
  0
VERTEX
  8
MERGEDLAYER-1
 10
64.027184
 20
54.066932
 30
0.000000
  0
VERTEX
  8
MERGEDLAYER-1
 10
63.214689
 20
54.066932
 30
0.000000
  0
SEQEND
  8
MERGEDLAYER-1
  0
TEXT
  8
MERGEDLAYER-1
 62
  7
 10
64.844952
 20
53.924176
 30
0.000000
 40
0.750000
  1
PUSH BUTTONS
 72
  5
 11
72.921875
 21
53.924176
 31
0.000000
  0
TEXT
  8
MERGEDLAYER-1
 62
  7
 10
61.460337
 20
55.693406
 30
0.000000
 40
0.461538
  1
QTY:
 72
  5
 11
63.229567
 21
55.693406
 31
0.000000
  0
POLYLINE
  8
MERGEDLAYER-1
 66
  1
 70
  1
 62
  7
  0
VERTEX
  8
MERGEDLAYER-1
 10
72.726140
 20
42.055044
 30
0.000000
  0
VERTEX
  8
MERGEDLAYER-1
 10
73.538602
 20
42.055044
 30
0.000000
  0
VERTEX
  8
MERGEDLAYER-1
 10
73.538602
 20
41.242591
 30
0.000000
  0
VERTEX
  8
MERGEDLAYER-1
 10
72.726140
 20
41.242591
 30
0.000000
  0
SEQEND
  8
MERGEDLAYER-1
  0
TEXT
  8
MERGEDLAYER-1
 62
  7
 10
73.998798
 20
41.308791
 30
0.000000
 40
0.750000
  1
4 ,
 72
  5
 11
75.537260
 21
41.308791
 31
0.000000
  0
POLYLINE
  8
MERGEDLAYER-1
 66
  1
 70
  1
 62
  7
  0
VERTEX
  8
MERGEDLAYER-1
 10
69.334933
 20
42.055044
 30
0.000000
  0
VERTEX
  8
MERGEDLAYER-1
 10
70.147409
 20
42.055044
 30
0.000000
  0
VERTEX
  8
MERGEDLAYER-1
 10
70.147409
 20
41.242591
 30
0.000000
  0
VERTEX
  8
MERGEDLAYER-1
 10
69.334933
 20
41.242591
 30
0.000000
  0
SEQEND
  8
MERGEDLAYER-1
  0
TEXT
  8
MERGEDLAYER-1
 62
  7
 10
70.614183
 20
41.308791
 30
0.000000
 40
0.750000
  1
3 ,
 72
  5
 11
72.152644
 21
41.308791
 31
0.000000
  0
TEXT
  8
MERGEDLAYER-1
 62
  7
 10
61.691106
 20
28.385714
 30
0.000000
 40
0.807692
  1
CUSTOMER'S SIGNATURE
 72
  5
 11
75.768029
 21
28.385714
 31
0.000000
  0
POLYLINE
  8
MERGEDLAYER-1
 66
  1
 70
  0
 62
  7
 10
61.729084
 20
29.592999
 30
0.000000
  0
VERTEX
  8
MERGEDLAYER-1
 10
61.729084
 20
29.592999
 30
0.000000
  0
VERTEX
  8
MERGEDLAYER-1
 10
75.799537
 20
29.592999
 30
0.000000
  0
SEQEND
  8
MERGEDLAYER-1
  0
TEXT
  8
MERGEDLAYER-1
 62
  7
 10
61.768029
 20
30.001099
 30
0.000000
 40
0.750000
  1
x
 72
  5
 11
62.768029
 21
30.001099
 31
0.000000
  0
POLYLINE
  8
MERGEDLAYER-1
 66
  1
 70
  0
 62
  7
 10
60.900344
 20
31.793725
 30
0.000000
  0
VERTEX
  8
MERGEDLAYER-1
 10
60.900344
 20
31.793725
 30
0.000000
  0
VERTEX
  8
MERGEDLAYER-1
 10
85.084642
 20
31.793725
 30
0.000000
  0
SEQEND
  8
MERGEDLAYER-1
  0
TEXT
  8
MERGEDLAYER-1
 62
  7
 10
76.383413
 20
28.385714
 30
0.000000
 40
0.807692
  1
DATE JOB SITE
 72
  5
 11
84.921875
 21
28.385714
 31
0.000000
  0
POLYLINE
  8
MERGEDLAYER-1
 66
  1
 70
  0
 62
  7
 10
76.466947
 20
29.599398
 30
0.000000
  0
VERTEX
  8
MERGEDLAYER-1
 10
76.466947
 20
29.599398
 30
0.000000
  0
VERTEX
  8
MERGEDLAYER-1
 10
85.086529
 20
29.599398
 30
0.000000
  0
SEQEND
  8
MERGEDLAYER-1
  0
CIRCLE
  8
MERGEDLAYER-1
 62
  7
 10
77.748807
 20
42.813345
 30
0.000000
 40
0.197531
  0
POLYLINE
  8
MERGEDLAYER-1
 66
  1
 70
  0
 62
  7
 10
77.892203
 20
42.959670
 30
0.000000
  0
VERTEX
  8
MERGEDLAYER-1
 10
77.892203
 20
42.959670
 30
0.000000
  0
VERTEX
  8
MERGEDLAYER-1
 10
77.744770
 20
43.020179
 30
0.000000
  0
VERTEX
  8
MERGEDLAYER-1
 10
77.600511
 20
42.958712
 30
0.000000
  0
VERTEX
  8
MERGEDLAYER-1
 10
77.548809
 20
42.857788
 30
0.000000
  0
SEQEND
  8
MERGEDLAYER-1
  0
POLYLINE
  8
MERGEDLAYER-1
 66
  1
 70
  0
 62
  7
 10
77.490070
 20
43.246310
 30
0.000000
  0
VERTEX
  8
MERGEDLAYER-1
 10
77.490070
 20
43.246310
 30
0.000000
  0
VERTEX
  8
MERGEDLAYER-1
 10
77.330003
 20
43.246310
 30
0.000000
  0
SEQEND
  8
MERGEDLAYER-1
  0
POLYLINE
  8
MERGEDLAYER-1
 66
  1
 70
  0
 62
  7
 10
77.330003
 20
43.246310
 30
0.000000
  0
VERTEX
  8
MERGEDLAYER-1
 10
77.330003
 20
43.246310
 30
0.000000
  0
VERTEX
  8
MERGEDLAYER-1
 10
77.330003
 20
42.413724
 30
0.000000
  0
SEQEND
  8
MERGEDLAYER-1
  0
POLYLINE
  8
MERGEDLAYER-1
 66
  1
 70
  0
 62
  7
 10
77.330003
 20
42.413724
 30
0.000000
  0
VERTEX
  8
MERGEDLAYER-1
 10
77.330003
 20
42.413724
 30
0.000000
  0
VERTEX
  8
MERGEDLAYER-1
 10
77.389245
 20
42.472976
 30
0.000000
  0
SEQEND
  8
MERGEDLAYER-1
  0
POLYLINE
  8
MERGEDLAYER-1
 66
  1
 70
  0
 62
  7
 10
77.548814
 20
42.857788
 30
0.000000
  0
VERTEX
  8
MERGEDLAYER-1
 10
77.548814
 20
42.857788
 30
0.000000
  0
VERTEX
  8
MERGEDLAYER-1
 10
77.497573
 20
42.411307
 30
0.000000
  0
SEQEND
  8
MERGEDLAYER-1
  0
POLYLINE
  8
MERGEDLAYER-1
 66
  1
 70
  0
 62
  7
 10
74.724717
 20
43.231788
 30
0.000000
  0
VERTEX
  8
MERGEDLAYER-1
 10
74.724717
 20
43.231788
 30
0.000000
  0
VERTEX
  8
MERGEDLAYER-1
 10
74.724717
 20
42.402156
 30
0.000000
  0
SEQEND
  8
MERGEDLAYER-1
  0
POLYLINE
  8
MERGEDLAYER-1
 66
  1
 70
  0
 62
  7
 10
74.724717
 20
42.402156
 30
0.000000
  0
VERTEX
  8
MERGEDLAYER-1
 10
74.724717
 20
42.402156
 30
0.000000
  0
VERTEX
  8
MERGEDLAYER-1
 10
74.132136
 20
42.402156
 30
0.000000
  0
SEQEND
  8
MERGEDLAYER-1
  0
POLYLINE
  8
MERGEDLAYER-1
 66
  1
 70
  0
 62
  7
 10
74.132136
 20
42.402156
 30
0.000000
  0
VERTEX
  8
MERGEDLAYER-1
 10
74.132136
 20
42.402156
 30
0.000000
  0
VERTEX
  8
MERGEDLAYER-1
 10
74.191378
 20
42.461426
 30
0.000000
  0
SEQEND
  8
MERGEDLAYER-1
  0
CIRCLE
  8
MERGEDLAYER-1
 62
  7
 10
74.314838
 20
42.809575
 30
0.000000
 40
0.197531
  0
POLYLINE
  8
MERGEDLAYER-1
 66
  1
 70
  0
 62
  7
 10
74.114821
 20
42.854013
 30
0.000000
  0
VERTEX
  8
MERGEDLAYER-1
 10
74.114821
 20
42.854013
 30
0.000000
  0
VERTEX
  8
MERGEDLAYER-1
 10
74.096342
 20
42.768503
 30
0.000000
  0
VERTEX
  8
MERGEDLAYER-1
 10
74.081496
 20
42.680725
 30
0.000000
  0
VERTEX
  8
MERGEDLAYER-1
 10
74.068308
 20
42.592680
 30
0.000000
  0
VERTEX
  8
MERGEDLAYER-1
 10
74.056791
 20
42.504409
 30
0.000000
  0
VERTEX
  8
MERGEDLAYER-1
 10
74.048908
 20
42.413959
 30
0.000000
  0
SEQEND
  8
MERGEDLAYER-1
  0
POLYLINE
  8
MERGEDLAYER-1
 66
  1
 70
  0
 62
  7
 10
74.458243
 20
42.955900
 30
0.000000
  0
VERTEX
  8
MERGEDLAYER-1
 10
74.458243
 20
42.955900
 30
0.000000
  0
VERTEX
  8
MERGEDLAYER-1
 10
74.310805
 20
43.016414
 30
0.000000
  0
VERTEX
  8
MERGEDLAYER-1
 10
74.166551
 20
42.954947
 30
0.000000
  0
VERTEX
  8
MERGEDLAYER-1
 10
74.114835
 20
42.854018
 30
0.000000
  0
SEQEND
  8
MERGEDLAYER-1
  0
POLYLINE
  8
MERGEDLAYER-1
 66
  1
 70
  0
 62
  7
 10
74.725703
 20
43.242540
 30
0.000000
  0
VERTEX
  8
MERGEDLAYER-1
 10
74.725703
 20
43.242540
 30
0.000000
  0
VERTEX
  8
MERGEDLAYER-1
 10
73.896043
 20
43.242540
 30
0.000000
  0
SEQEND
  8
MERGEDLAYER-1
  0
POLYLINE
  8
MERGEDLAYER-1
 66
  1
 70
  0
 62
  7
 10
73.896043
 20
43.242540
 30
0.000000
  0
VERTEX
  8
MERGEDLAYER-1
 10
73.896043
 20
43.242540
 30
0.000000
  0
VERTEX
  8
MERGEDLAYER-1
 10
73.896043
 20
42.409940
 30
0.000000
  0
SEQEND
  8
MERGEDLAYER-1
  0
POLYLINE
  8
MERGEDLAYER-1
 66
  1
 70
  0
 62
  7
 10
73.896043
 20
42.409940
 30
0.000000
  0
VERTEX
  8
MERGEDLAYER-1
 10
73.896043
 20
42.409940
 30
0.000000
  0
VERTEX
  8
MERGEDLAYER-1
 10
73.955341
 20
42.469210
 30
0.000000
  0
SEQEND
  8
MERGEDLAYER-1
  0
POLYLINE
  8
MERGEDLAYER-1
 66
  1
 70
  0
 62
  7
 10
71.369075
 20
43.229614
 30
0.000000
  0
VERTEX
  8
MERGEDLAYER-1
 10
71.369075
 20
43.229614
 30
0.000000
  0
VERTEX
  8
MERGEDLAYER-1
 10
71.369075
 20
42.399977
 30
0.000000
  0
SEQEND
  8
MERGEDLAYER-1
  0
POLYLINE
  8
MERGEDLAYER-1
 66
  1
 70
  0
 62
  7
 10
71.369075
 20
42.399977
 30
0.000000
  0
VERTEX
  8
MERGEDLAYER-1
 10
71.369075
 20
42.399977
 30
0.000000
  0
VERTEX
  8
MERGEDLAYER-1
 10
70.776494
 20
42.399977
 30
0.000000
  0
SEQEND
  8
MERGEDLAYER-1
  0
POLYLINE
  8
MERGEDLAYER-1
 66
  1
 70
  0
 62
  7
 10
70.776494
 20
42.399977
 30
0.000000
  0
VERTEX
  8
MERGEDLAYER-1
 10
70.776494
 20
42.399977
 30
0.000000
  0
VERTEX
  8
MERGEDLAYER-1
 10
70.835731
 20
42.459252
 30
0.000000
  0
SEQEND
  8
MERGEDLAYER-1
  0
CIRCLE
  8
MERGEDLAYER-1
 62
  7
 10
70.959196
 20
42.807401
 30
0.000000
 40
0.197531
  0
POLYLINE
  8
MERGEDLAYER-1
 66
  1
 70
  0
 62
  7
 10
70.759174
 20
42.851835
 30
0.000000
  0
VERTEX
  8
MERGEDLAYER-1
 10
70.759174
 20
42.851835
 30
0.000000
  0
VERTEX
  8
MERGEDLAYER-1
 10
70.740699
 20
42.766329
 30
0.000000
  0
VERTEX
  8
MERGEDLAYER-1
 10
70.725849
 20
42.678551
 30
0.000000
  0
VERTEX
  8
MERGEDLAYER-1
 10
70.712661
 20
42.590506
 30
0.000000
  0
VERTEX
  8
MERGEDLAYER-1
 10
70.701144
 20
42.502235
 30
0.000000
  0
VERTEX
  8
MERGEDLAYER-1
 10
70.691294
 20
42.413753
 30
0.000000
  0
VERTEX
  8
MERGEDLAYER-1
 10
70.693261
 20
42.411781
 30
0.000000
  0
SEQEND
  8
MERGEDLAYER-1
  0
POLYLINE
  8
MERGEDLAYER-1
 66
  1
 70
  0
 62
  7
 10
71.102595
 20
42.953726
 30
0.000000
  0
VERTEX
  8
MERGEDLAYER-1
 10
71.102595
 20
42.953726
 30
0.000000
  0
VERTEX
  8
MERGEDLAYER-1
 10
70.955158
 20
43.014235
 30
0.000000
  0
VERTEX
  8
MERGEDLAYER-1
 10
70.810904
 20
42.952768
 30
0.000000
  0
VERTEX
  8
MERGEDLAYER-1
 10
70.759193
 20
42.851844
 30
0.000000
  0
SEQEND
  8
MERGEDLAYER-1
  0
POLYLINE
  8
MERGEDLAYER-1
 66
  1
 70
  0
 62
  7
 10
70.534058
 20
43.354060
 30
0.000000
  0
VERTEX
  8
MERGEDLAYER-1
 10
70.534058
 20
43.354060
 30
0.000000
  0
VERTEX
  8
MERGEDLAYER-1
 10
70.534058
 20
43.235549
 30
0.000000
  0
SEQEND
  8
MERGEDLAYER-1
  0
POLYLINE
  8
MERGEDLAYER-1
 66
  1
 70
  0
 62
  7
 10
70.534058
 20
43.235549
 30
0.000000
  0
VERTEX
  8
MERGEDLAYER-1
 10
70.534058
 20
43.235549
 30
0.000000
  0
VERTEX
  8
MERGEDLAYER-1
 10
71.363723
 20
43.235549
 30
0.000000
  0
SEQEND
  8
MERGEDLAYER-1
  0
POLYLINE
  8
MERGEDLAYER-1
 66
  1
 70
  0
 62
  7
 10
67.843229
 20
43.229614
 30
0.000000
  0
VERTEX
  8
MERGEDLAYER-1
 10
67.843229
 20
43.229614
 30
0.000000
  0
VERTEX
  8
MERGEDLAYER-1
 10
67.961769
 20
43.229614
 30
0.000000
  0
SEQEND
  8
MERGEDLAYER-1
  0
POLYLINE
  8
MERGEDLAYER-1
 66
  1
 70
  0
 62
  7
 10
67.961769
 20
43.229614
 30
0.000000
  0
VERTEX
  8
MERGEDLAYER-1
 10
67.961769
 20
43.229614
 30
0.000000
  0
VERTEX
  8
MERGEDLAYER-1
 10
67.961769
 20
42.399977
 30
0.000000
  0
SEQEND
  8
MERGEDLAYER-1
  0
POLYLINE
  8
MERGEDLAYER-1
 66
  1
 70
  0
 62
  7
 10
67.961769
 20
42.399977
 30
0.000000
  0
VERTEX
  8
MERGEDLAYER-1
 10
67.961769
 20
42.399977
 30
0.000000
  0
VERTEX
  8
MERGEDLAYER-1
 10
67.369188
 20
42.399977
 30
0.000000
  0
SEQEND
  8
MERGEDLAYER-1
  0
POLYLINE
  8
MERGEDLAYER-1
 66
  1
 70
  0
 62
  7
 10
67.369188
 20
42.399977
 30
0.000000
  0
VERTEX
  8
MERGEDLAYER-1
 10
67.369188
 20
42.399977
 30
0.000000
  0
VERTEX
  8
MERGEDLAYER-1
 10
67.428429
 20
42.459252
 30
0.000000
  0
SEQEND
  8
MERGEDLAYER-1
  0
CIRCLE
  8
MERGEDLAYER-1
 62
  7
 10
67.551889
 20
42.807401
 30
0.000000
 40
0.197531
  0
POLYLINE
  8
MERGEDLAYER-1
 66
  1
 70
  0
 62
  7
 10
67.351872
 20
42.851835
 30
0.000000
  0
VERTEX
  8
MERGEDLAYER-1
 10
67.351872
 20
42.851835
 30
0.000000
  0
VERTEX
  8
MERGEDLAYER-1
 10
67.333008
 20
42.764170
 30
0.000000
  0
VERTEX
  8
MERGEDLAYER-1
 10
67.317852
 20
42.674223
 30
0.000000
  0
VERTEX
  8
MERGEDLAYER-1
 10
67.304453
 20
42.584003
 30
0.000000
  0
VERTEX
  8
MERGEDLAYER-1
 10
67.292795
 20
42.493535
 30
0.000000
  0
VERTEX
  8
MERGEDLAYER-1
 10
67.284865
 20
42.400893
 30
0.000000
  0
SEQEND
  8
MERGEDLAYER-1
  0
POLYLINE
  8
MERGEDLAYER-1
 66
  1
 70
  0
 62
  7
 10
67.695294
 20
42.953726
 30
0.000000
  0
VERTEX
  8
MERGEDLAYER-1
 10
67.695294
 20
42.953726
 30
0.000000
  0
VERTEX
  8
MERGEDLAYER-1
 10
67.547852
 20
43.014235
 30
0.000000
  0
VERTEX
  8
MERGEDLAYER-1
 10
67.403597
 20
42.952768
 30
0.000000
  0
VERTEX
  8
MERGEDLAYER-1
 10
67.351886
 20
42.851844
 30
0.000000
  0
SEQEND
  8
MERGEDLAYER-1
  0
ENDSEC
  0
EOF
