  0
SECTION
  2
HEADER
999
MacDraft 5.0\0
  9
$ACADVER
  1
AC1006
  9
$CLAYER
  8
LAYER-1
  9
$EXTMIN
 10
0.000000
 20
0.000000
  9
$EXTMAX
 10
6.195878
 20
10.039363
  9
$FASTZOOM
 70
0
  9
$FILLMODE
 70
1
  0
ENDSEC
  0
SECTION
  2
TABLES
  0
TABLE
  2
LTYPE
 70
16
  0
LTYPE
  2
CONTINUOUS
 70
64
  3
Solid Line
 72
65
 73
0
 40
0.000000
  0
LTYPE
  2
LTYPE01
 70
64
  3
CUSTOM
 72
65
 73
2
 40
0.072727
 49
0.054545
 49
-0.018182
  0
LTYPE
  2
LTYPE02
 70
64
  3
CUSTOM
 72
65
 73
2
 40
0.127273
 49
0.109091
 49
-0.018182
  0
LTYPE
  2
LTYPE03
 70
64
  3
CUSTOM
 72
65
 73
2
 40
0.245455
 49
0.218182
 49
-0.027273
  0
LTYPE
  2
LTYPE04
 70
64
  3
CUSTOM
 72
65
 73
2
 40
0.472727
 49
0.436364
 49
-0.036364
  0
LTYPE
  2
LTYPE05
 70
64
  3
CUSTOM
 72
65
 73
4
 40
0.100000
 49
0.054545
 49
-0.018182
 49
0.009091
 49
-0.018182
  0
LTYPE
  2
LTYPE06
 70
64
  3
CUSTOM
 72
65
 73
4
 40
0.154545
 49
0.109091
 49
-0.018182
 49
0.009091
 49
-0.018182
  0
LTYPE
  2
LTYPE07
 70
64
  3
CUSTOM
 72
65
 73
4
 40
0.290909
 49
0.218182
 49
-0.027273
 49
0.018182
 49
-0.027273
  0
LTYPE
  2
LTYPE08
 70
64
  3
CUSTOM
 72
65
 73
4
 40
0.527273
 49
0.436364
 49
-0.036364
 49
0.018182
 49
-0.036364
  0
LTYPE
  2
LTYPE09
 70
64
  3
CUSTOM
 72
65
 73
6
 40
0.127273
 49
0.054545
 49
-0.018182
 49
0.009091
 49
-0.018182
 49
0.009091
 49
-0.018182
  0
LTYPE
  2
LTYPE10
 70
64
  3
CUSTOM
 72
65
 73
6
 40
0.181818
 49
0.109091
 49
-0.018182
 49
0.009091
 49
-0.018182
 49
0.009091
 49
-0.018182
  0
LTYPE
  2
LTYPE11
 70
64
  3
CUSTOM
 72
65
 73
6
 40
0.327273
 49
0.218182
 49
-0.027273
 49
0.018182
 49
-0.018182
 49
0.018182
 49
-0.027273
  0
LTYPE
  2
LTYPE12
 70
64
  3
CUSTOM
 72
65
 73
6
 40
0.563636
 49
0.436364
 49
-0.036364
 49
0.018182
 49
-0.018182
 49
0.018182
 49
-0.036364
  0
LTYPE
  2
LTYPE13
 70
64
  3
CUSTOM
 72
65
 73
8
 40
0.209091
 49
0.109091
 49
-0.018182
 49
0.009091
 49
-0.018182
 49
0.009091
 49
-0.018182
 49
0.009091
 49
-0.018182
  0
LTYPE
  2
LTYPE14
 70
64
  3
CUSTOM
 72
65
 73
8
 40
0.363636
 49
0.218182
 49
-0.027273
 49
0.018182
 49
-0.018182
 49
0.018182
 49
-0.018182
 49
0.018182
 49
-0.027273
  0
LTYPE
  2
LTYPE15
 70
64
  3
CUSTOM
 72
65
 73
8
 40
0.618182
 49
0.436364
 49
-0.036364
 49
0.018182
 49
-0.027273
 49
0.018182
 49
-0.027273
 49
0.018182
 49
-0.036364
  0
ENDTAB
  0
TABLE
  2
LAYER
 70
1
  0
LAYER
  2
LAYER-1
 70
0
 62
7
  6
CONTINUOUS
  0
ENDTAB
  0
ENDSEC
  0
SECTION
  2
BLOCKS
  0
ENDSEC
  0
SECTION
  2
ENTITIES
  0
ARC
  8
LAYER-1
 62
  7
 10
4.765216
 20
8.969688
 30
0.000000
 40
0.254425
 50
270.000000
 51
90.000000
  0
POLYLINE
  8
LAYER-1
 66
  1
 70
  0
 62
  7
 10
4.765216
 20
9.224113
 30
0.000000
  0
VERTEX
  8
LAYER-1
 10
4.765216
 20
9.224113
 30
0.000000
  0
VERTEX
  8
LAYER-1
 10
1.100295
 20
9.224113
 30
0.000000
  0
SEQEND
  8
LAYER-1
  0
POLYLINE
  8
LAYER-1
 66
  1
 70
  0
 62
  7
 10
1.100295
 20
9.224113
 30
0.000000
  0
VERTEX
  8
LAYER-1
 10
1.100295
 20
9.224113
 30
0.000000
  0
VERTEX
  8
LAYER-1
 10
1.100295
 20
8.715263
 30
0.000000
  0
SEQEND
  8
LAYER-1
  0
POLYLINE
  8
LAYER-1
 66
  1
 70
  0
 62
  7
 10
4.765216
 20
8.715263
 30
0.000000
  0
VERTEX
  8
LAYER-1
 10
4.765216
 20
8.715263
 30
0.000000
  0
VERTEX
  8
LAYER-1
 10
1.100295
 20
8.715263
 30
0.000000
  0
SEQEND
  8
LAYER-1
  0
TEXT
  8
LAYER-1
 62
  7
 10
2.888983
 20
9.526379
 30
0.000000
 40
0.340909
  1
MobilFlex
 72
  5
 11
5.098074
 21
9.526379
 31
0.000000
  0
POLYLINE
  8
LAYER-1
 66
  1
 70
  1
 62
  7
  0
VERTEX
  8
LAYER-1
 10
1.101798
 20
10.038272
 30
0.000000
  0
VERTEX
  8
LAYER-1
 10
1.339645
 20
10.038272
 30
0.000000
  0
VERTEX
  8
LAYER-1
 10
1.339645
 20
9.521328
 30
0.000000
  0
VERTEX
  8
LAYER-1
 10
1.101798
 20
9.521328
 30
0.000000
  0
SEQEND
  8
LAYER-1
  0
POLYLINE
  8
LAYER-1
 66
  1
 70
  1
 62
  7
  0
VERTEX
  8
LAYER-1
 10
1.414298
 20
10.038272
 30
0.000000
  0
VERTEX
  8
LAYER-1
 10
1.652145
 20
10.038272
 30
0.000000
  0
VERTEX
  8
LAYER-1
 10
1.652145
 20
9.521328
 30
0.000000
  0
VERTEX
  8
LAYER-1
 10
1.414298
 20
9.521328
 30
0.000000
  0
SEQEND
  8
LAYER-1
  0
POLYLINE
  8
LAYER-1
 66
  1
 70
  1
 62
  7
  0
VERTEX
  8
LAYER-1
 10
1.714645
 20
10.038272
 30
0.000000
  0
VERTEX
  8
LAYER-1
 10
1.952493
 20
10.038272
 30
0.000000
  0
VERTEX
  8
LAYER-1
 10
1.952493
 20
9.521328
 30
0.000000
  0
VERTEX
  8
LAYER-1
 10
1.714645
 20
9.521328
 30
0.000000
  0
SEQEND
  8
LAYER-1
  0
POLYLINE
  8
LAYER-1
 66
  1
 70
  1
 62
  7
  0
VERTEX
  8
LAYER-1
 10
2.018465
 20
10.038272
 30
0.000000
  0
VERTEX
  8
LAYER-1
 10
2.256312
 20
10.038272
 30
0.000000
  0
VERTEX
  8
LAYER-1
 10
2.256312
 20
9.521328
 30
0.000000
  0
VERTEX
  8
LAYER-1
 10
2.018465
 20
9.521328
 30
0.000000
  0
SEQEND
  8
LAYER-1
  0
POLYLINE
  8
LAYER-1
 66
  1
 70
  1
 62
  7
  0
VERTEX
  8
LAYER-1
 10
2.335305
 20
10.034357
 30
0.000000
  0
VERTEX
  8
LAYER-1
 10
2.710739
 20
10.034357
 30
0.000000
  0
VERTEX
  8
LAYER-1
 10
2.710739
 20
9.896337
 30
0.000000
  0
VERTEX
  8
LAYER-1
 10
2.335305
 20
9.896337
 30
0.000000
  0
SEQEND
  8
LAYER-1
  0
POLYLINE
  8
LAYER-1
 66
  1
 70
  1
 62
  7
  0
VERTEX
  8
LAYER-1
 10
2.334871
 20
9.806927
 30
0.000000
  0
VERTEX
  8
LAYER-1
 10
2.643031
 20
9.806927
 30
0.000000
  0
VERTEX
  8
LAYER-1
 10
2.643031
 20
9.672813
 30
0.000000
  0
VERTEX
  8
LAYER-1
 10
2.334871
 20
9.672813
 30
0.000000
  0
SEQEND
  8
LAYER-1
  0
POLYLINE
  8
LAYER-1
 66
  1
 70
  1
 62
  7
  0
VERTEX
  8
LAYER-1
 10
1.101798
 20
9.436701
 30
0.000000
  0
VERTEX
  8
LAYER-1
 10
5.020201
 20
9.436701
 30
0.000000
  0
VERTEX
  8
LAYER-1
 10
5.020201
 20
9.393298
 30
0.000000
  0
VERTEX
  8
LAYER-1
 10
1.101798
 20
9.393298
 30
0.000000
  0
SEQEND
  8
LAYER-1
  0
TEXT
  8
LAYER-1
 62
  7
 10
1.361710
 20
8.862743
 30
0.000000
 40
0.190909
  1
Vertical section ( to counter )
 72
  5
 11
4.943528
 21
8.862743
 31
0.000000
  0
POLYLINE
  8
LAYER-1
 66
  1
 70
  1
 62
  7
  0
VERTEX
  8
LAYER-1
 10
1.745113
 20
8.107948
 30
0.000000
  0
VERTEX
  8
LAYER-1
 10
2.227112
 20
8.107948
 30
0.000000
  0
VERTEX
  8
LAYER-1
 10
2.227112
 20
5.312124
 30
0.000000
  0
VERTEX
  8
LAYER-1
 10
1.745113
 20
5.312124
 30
0.000000
  0
SEQEND
  8
LAYER-1
  0
POLYLINE
  8
LAYER-1
 66
  1
 70
  1
 62
  7
  0
VERTEX
  8
LAYER-1
 10
0.018197
 20
0.463535
 30
0.000000
  0
VERTEX
  8
LAYER-1
 10
6.181603
 20
0.463535
 30
0.000000
  0
VERTEX
  8
LAYER-1
 10
6.181603
 20
0.006788
 30
0.000000
  0
VERTEX
  8
LAYER-1
 10
0.018197
 20
0.006788
 30
0.000000
  0
SEQEND
  8
LAYER-1
  0
POLYLINE
  8
LAYER-1
 66
  1
 70
  1
 62
  7
 10
0.116009
 20
0.414007
 30
0.000000
  0
VERTEX
  8
LAYER-1
 10
0.116009
 20
0.414007
 30
0.000000
  0
VERTEX
  8
LAYER-1
 10
0.091657
 20
0.390601
 30
0.000000
  0
VERTEX
  8
LAYER-1
 10
0.132249
 20
0.370784
 30
0.000000
  0
SEQEND
  8
LAYER-1
  0
POLYLINE
  8
LAYER-1
 66
  1
 70
  1
 62
  7
 10
0.178311
 20
0.303532
 30
0.000000
  0
VERTEX
  8
LAYER-1
 10
0.178311
 20
0.303532
 30
0.000000
  0
VERTEX
  8
LAYER-1
 10
0.199423
 20
0.276519
 30
0.000000
  0
VERTEX
  8
LAYER-1
 10
0.217283
 20
0.321549
 30
0.000000
  0
SEQEND
  8
LAYER-1
  0
POLYLINE
  8
LAYER-1
 66
  1
 70
  1
 62
  7
 10
0.396406
 20
0.396744
 30
0.000000
  0
VERTEX
  8
LAYER-1
 10
0.396406
 20
0.396744
 30
0.000000
  0
VERTEX
  8
LAYER-1
 10
0.316352
 20
0.390854
 30
0.000000
  0
VERTEX
  8
LAYER-1
 10
0.411869
 20
0.355575
 30
0.000000
  0
SEQEND
  8
LAYER-1
  0
POLYLINE
  8
LAYER-1
 66
  1
 70
  1
 62
  7
 10
0.577487
 20
0.376105
 30
0.000000
  0
VERTEX
  8
LAYER-1
 10
0.577487
 20
0.376105
 30
0.000000
  0
VERTEX
  8
LAYER-1
 10
0.553130
 20
0.352683
 30
0.000000
  0
VERTEX
  8
LAYER-1
 10
0.593725
 20
0.332876
 30
0.000000
  0
SEQEND
  8
LAYER-1
  0
POLYLINE
  8
LAYER-1
 66
  1
 70
  1
 62
  7
 10
1.079582
 20
0.351346
 30
0.000000
  0
VERTEX
  8
LAYER-1
 10
1.079582
 20
0.351346
 30
0.000000
  0
VERTEX
  8
LAYER-1
 10
1.055230
 20
0.327931
 30
0.000000
  0
VERTEX
  8
LAYER-1
 10
1.095824
 20
0.308123
 30
0.000000
  0
SEQEND
  8
LAYER-1
  0
POLYLINE
  8
LAYER-1
 66
  1
 70
  1
 62
  7
 10
1.230815
 20
0.362288
 30
0.000000
  0
VERTEX
  8
LAYER-1
 10
1.230815
 20
0.362288
 30
0.000000
  0
VERTEX
  8
LAYER-1
 10
1.311468
 20
0.350546
 30
0.000000
  0
VERTEX
  8
LAYER-1
 10
1.328481
 20
0.393430
 30
0.000000
  0
SEQEND
  8
LAYER-1
  0
POLYLINE
  8
LAYER-1
 66
  1
 70
  1
 62
  7
 10
1.571262
 20
0.333398
 30
0.000000
  0
VERTEX
  8
LAYER-1
 10
1.571262
 20
0.333398
 30
0.000000
  0
VERTEX
  8
LAYER-1
 10
1.591370
 20
0.307669
 30
0.000000
  0
VERTEX
  8
LAYER-1
 10
1.608379
 20
0.350546
 30
0.000000
  0
SEQEND
  8
LAYER-1
  0
POLYLINE
  8
LAYER-1
 66
  1
 70
  1
 62
  7
 10
1.492512
 20
0.241248
 30
0.000000
  0
VERTEX
  8
LAYER-1
 10
1.492512
 20
0.241248
 30
0.000000
  0
VERTEX
  8
LAYER-1
 10
1.519358
 20
0.257741
 30
0.000000
  0
VERTEX
  8
LAYER-1
 10
1.485052
 20
0.285062
 30
0.000000
  0
SEQEND
  8
LAYER-1
  0
POLYLINE
  8
LAYER-1
 66
  1
 70
  1
 62
  7
 10
1.644854
 20
0.091796
 30
0.000000
  0
VERTEX
  8
LAYER-1
 10
1.644854
 20
0.091796
 30
0.000000
  0
VERTEX
  8
LAYER-1
 10
1.668042
 20
0.114095
 30
0.000000
  0
VERTEX
  8
LAYER-1
 10
1.629381
 20
0.132965
 30
0.000000
  0
SEQEND
  8
LAYER-1
  0
POLYLINE
  8
LAYER-1
 66
  1
 70
  1
 62
  7
 10
1.492528
 20
0.137248
 30
0.000000
  0
VERTEX
  8
LAYER-1
 10
1.492528
 20
0.137248
 30
0.000000
  0
VERTEX
  8
LAYER-1
 10
1.472424
 20
0.162977
 30
0.000000
  0
VERTEX
  8
LAYER-1
 10
1.455413
 20
0.120101
 30
0.000000
  0
SEQEND
  8
LAYER-1
  0
POLYLINE
  8
LAYER-1
 66
  1
 70
  1
 62
  7
 10
1.136079
 20
0.054063
 30
0.000000
  0
VERTEX
  8
LAYER-1
 10
1.136079
 20
0.054063
 30
0.000000
  0
VERTEX
  8
LAYER-1
 10
1.177306
 20
0.083244
 30
0.000000
  0
VERTEX
  8
LAYER-1
 10
1.123795
 20
0.148905
 30
0.000000
  0
SEQEND
  8
LAYER-1
  0
POLYLINE
  8
LAYER-1
 66
  1
 70
  1
 62
  7
 10
0.960015
 20
0.091796
 30
0.000000
  0
VERTEX
  8
LAYER-1
 10
0.960015
 20
0.091796
 30
0.000000
  0
VERTEX
  8
LAYER-1
 10
0.938907
 20
0.118817
 30
0.000000
  0
VERTEX
  8
LAYER-1
 10
0.921048
 20
0.073795
 30
0.000000
  0
SEQEND
  8
LAYER-1
  0
POLYLINE
  8
LAYER-1
 66
  1
 70
  1
 62
  7
 10
0.117093
 20
0.151650
 30
0.000000
  0
VERTEX
  8
LAYER-1
 10
0.117093
 20
0.151650
 30
0.000000
  0
VERTEX
  8
LAYER-1
 10
0.153916
 20
0.102945
 30
0.000000
  0
VERTEX
  8
LAYER-1
 10
0.197627
 20
0.167652
 30
0.000000
  0
SEQEND
  8
LAYER-1
  0
POLYLINE
  8
LAYER-1
 66
  1
 70
  1
 62
  7
 10
0.280833
 20
0.091796
 30
0.000000
  0
VERTEX
  8
LAYER-1
 10
0.280833
 20
0.091796
 30
0.000000
  0
VERTEX
  8
LAYER-1
 10
0.309024
 20
0.109120
 30
0.000000
  0
VERTEX
  8
LAYER-1
 10
0.272993
 20
0.137816
 30
0.000000
  0
SEQEND
  8
LAYER-1
  0
POLYLINE
  8
LAYER-1
 66
  1
 70
  1
 62
  7
 10
0.657411
 20
0.143538
 30
0.000000
  0
VERTEX
  8
LAYER-1
 10
0.657411
 20
0.143538
 30
0.000000
  0
VERTEX
  8
LAYER-1
 10
0.678526
 20
0.116517
 30
0.000000
  0
VERTEX
  8
LAYER-1
 10
0.696387
 20
0.161547
 30
0.000000
  0
SEQEND
  8
LAYER-1
  0
POLYLINE
  8
LAYER-1
 66
  1
 70
  1
 62
  7
 10
0.592033
 20
0.050418
 30
0.000000
  0
VERTEX
  8
LAYER-1
 10
0.592033
 20
0.050418
 30
0.000000
  0
VERTEX
  8
LAYER-1
 10
0.643668
 20
0.073133
 30
0.000000
  0
VERTEX
  8
LAYER-1
 10
0.561935
 20
0.125921
 30
0.000000
  0
SEQEND
  8
LAYER-1
  0
POLYLINE
  8
LAYER-1
 66
  1
 70
  1
 62
  7
 10
0.889693
 20
0.336028
 30
0.000000
  0
VERTEX
  8
LAYER-1
 10
0.889693
 20
0.336028
 30
0.000000
  0
VERTEX
  8
LAYER-1
 10
0.858081
 20
0.402680
 30
0.000000
  0
VERTEX
  8
LAYER-1
 10
0.830242
 20
0.369001
 30
0.000000
  0
SEQEND
  8
LAYER-1
  0
POLYLINE
  8
LAYER-1
 66
  1
 70
  1
 62
  7
 10
1.802350
 20
0.381504
 30
0.000000
  0
VERTEX
  8
LAYER-1
 10
1.802350
 20
0.381504
 30
0.000000
  0
VERTEX
  8
LAYER-1
 10
1.777993
 20
0.358089
 30
0.000000
  0
VERTEX
  8
LAYER-1
 10
1.818592
 20
0.338273
 30
0.000000
  0
SEQEND
  8
LAYER-1
  0
POLYLINE
  8
LAYER-1
 66
  1
 70
  1
 62
  7
 10
1.964984
 20
0.307139
 30
0.000000
  0
VERTEX
  8
LAYER-1
 10
1.964984
 20
0.307139
 30
0.000000
  0
VERTEX
  8
LAYER-1
 10
1.986092
 20
0.280126
 30
0.000000
  0
VERTEX
  8
LAYER-1
 10
2.003958
 20
0.325148
 30
0.000000
  0
SEQEND
  8
LAYER-1
  0
POLYLINE
  8
LAYER-1
 66
  1
 70
  1
 62
  7
 10
2.097993
 20
0.400166
 30
0.000000
  0
VERTEX
  8
LAYER-1
 10
2.097993
 20
0.400166
 30
0.000000
  0
VERTEX
  8
LAYER-1
 10
2.017947
 20
0.394284
 30
0.000000
  0
VERTEX
  8
LAYER-1
 10
2.113464
 20
0.359004
 30
0.000000
  0
SEQEND
  8
LAYER-1
  0
POLYLINE
  8
LAYER-1
 66
  1
 70
  1
 62
  7
 10
2.364166
 20
0.379704
 30
0.000000
  0
VERTEX
  8
LAYER-1
 10
2.364166
 20
0.379704
 30
0.000000
  0
VERTEX
  8
LAYER-1
 10
2.339805
 20
0.356282
 30
0.000000
  0
VERTEX
  8
LAYER-1
 10
2.380402
 20
0.336475
 30
0.000000
  0
SEQEND
  8
LAYER-1
  0
POLYLINE
  8
LAYER-1
 66
  1
 70
  1
 62
  7
 10
2.909732
 20
0.433730
 30
0.000000
  0
VERTEX
  8
LAYER-1
 10
2.909732
 20
0.433730
 30
0.000000
  0
VERTEX
  8
LAYER-1
 10
2.885379
 20
0.410316
 30
0.000000
  0
VERTEX
  8
LAYER-1
 10
2.925977
 20
0.390508
 30
0.000000
  0
SEQEND
  8
LAYER-1
  0
POLYLINE
  8
LAYER-1
 66
  1
 70
  1
 62
  7
 10
2.932414
 20
0.365709
 30
0.000000
  0
VERTEX
  8
LAYER-1
 10
2.932414
 20
0.365709
 30
0.000000
  0
VERTEX
  8
LAYER-1
 10
3.013059
 20
0.353975
 30
0.000000
  0
VERTEX
  8
LAYER-1
 10
3.030070
 20
0.396859
 30
0.000000
  0
SEQEND
  8
LAYER-1
  0
POLYLINE
  8
LAYER-1
 66
  1
 70
  1
 62
  7
 10
2.837668
 20
0.057493
 30
0.000000
  0
VERTEX
  8
LAYER-1
 10
2.837668
 20
0.057493
 30
0.000000
  0
VERTEX
  8
LAYER-1
 10
2.878893
 20
0.086674
 30
0.000000
  0
VERTEX
  8
LAYER-1
 10
2.825384
 20
0.152327
 30
0.000000
  0
SEQEND
  8
LAYER-1
  0
POLYLINE
  8
LAYER-1
 66
  1
 70
  1
 62
  7
 10
2.746686
 20
0.095394
 30
0.000000
  0
VERTEX
  8
LAYER-1
 10
2.746686
 20
0.095394
 30
0.000000
  0
VERTEX
  8
LAYER-1
 10
2.725575
 20
0.122414
 30
0.000000
  0
VERTEX
  8
LAYER-1
 10
2.707716
 20
0.077393
 30
0.000000
  0
SEQEND
  8
LAYER-1
  0
POLYLINE
  8
LAYER-1
 66
  1
 70
  1
 62
  7
 10
1.818688
 20
0.155079
 30
0.000000
  0
VERTEX
  8
LAYER-1
 10
1.818688
 20
0.155079
 30
0.000000
  0
VERTEX
  8
LAYER-1
 10
1.855509
 20
0.106374
 30
0.000000
  0
VERTEX
  8
LAYER-1
 10
1.899222
 20
0.171082
 30
0.000000
  0
SEQEND
  8
LAYER-1
  0
POLYLINE
  8
LAYER-1
 66
  1
 70
  1
 62
  7
 10
2.067508
 20
0.095394
 30
0.000000
  0
VERTEX
  8
LAYER-1
 10
2.067508
 20
0.095394
 30
0.000000
  0
VERTEX
  8
LAYER-1
 10
2.095703
 20
0.112719
 30
0.000000
  0
VERTEX
  8
LAYER-1
 10
2.059667
 20
0.141415
 30
0.000000
  0
SEQEND
  8
LAYER-1
  0
POLYLINE
  8
LAYER-1
 66
  1
 70
  1
 62
  7
 10
2.444086
 20
0.147137
 30
0.000000
  0
VERTEX
  8
LAYER-1
 10
2.444086
 20
0.147137
 30
0.000000
  0
VERTEX
  8
LAYER-1
 10
2.465196
 20
0.120116
 30
0.000000
  0
VERTEX
  8
LAYER-1
 10
2.483060
 20
0.165146
 30
0.000000
  0
SEQEND
  8
LAYER-1
  0
POLYLINE
  8
LAYER-1
 66
  1
 70
  1
 62
  7
 10
2.293626
 20
0.053847
 30
0.000000
  0
VERTEX
  8
LAYER-1
 10
2.293626
 20
0.053847
 30
0.000000
  0
VERTEX
  8
LAYER-1
 10
2.345261
 20
0.076555
 30
0.000000
  0
VERTEX
  8
LAYER-1
 10
2.263533
 20
0.129350
 30
0.000000
  0
SEQEND
  8
LAYER-1
  0
POLYLINE
  8
LAYER-1
 66
  1
 70
  1
 62
  7
 10
2.632119
 20
0.227691
 30
0.000000
  0
VERTEX
  8
LAYER-1
 10
2.632119
 20
0.227691
 30
0.000000
  0
VERTEX
  8
LAYER-1
 10
2.618741
 20
0.336021
 30
0.000000
  0
VERTEX
  8
LAYER-1
 10
2.561931
 20
0.303495
 30
0.000000
  0
SEQEND
  8
LAYER-1
  0
POLYLINE
  8
LAYER-1
 66
  1
 70
  1
 62
  7
 10
3.178219
 20
0.406925
 30
0.000000
  0
VERTEX
  8
LAYER-1
 10
3.178219
 20
0.406925
 30
0.000000
  0
VERTEX
  8
LAYER-1
 10
3.153864
 20
0.383511
 30
0.000000
  0
VERTEX
  8
LAYER-1
 10
3.194457
 20
0.363703
 30
0.000000
  0
SEQEND
  8
LAYER-1
  0
POLYLINE
  8
LAYER-1
 66
  1
 70
  1
 62
  7
 10
3.240521
 20
0.296451
 30
0.000000
  0
VERTEX
  8
LAYER-1
 10
3.240521
 20
0.296451
 30
0.000000
  0
VERTEX
  8
LAYER-1
 10
3.261634
 20
0.269437
 30
0.000000
  0
VERTEX
  8
LAYER-1
 10
3.279491
 20
0.314460
 30
0.000000
  0
SEQEND
  8
LAYER-1
  0
POLYLINE
  8
LAYER-1
 66
  1
 70
  1
 62
  7
 10
3.458612
 20
0.389655
 30
0.000000
  0
VERTEX
  8
LAYER-1
 10
3.458612
 20
0.389655
 30
0.000000
  0
VERTEX
  8
LAYER-1
 10
3.378560
 20
0.383772
 30
0.000000
  0
VERTEX
  8
LAYER-1
 10
3.474077
 20
0.348485
 30
0.000000
  0
SEQEND
  8
LAYER-1
  0
POLYLINE
  8
LAYER-1
 66
  1
 70
  1
 62
  7
 10
3.639694
 20
0.369016
 30
0.000000
  0
VERTEX
  8
LAYER-1
 10
3.639694
 20
0.369016
 30
0.000000
  0
VERTEX
  8
LAYER-1
 10
3.615342
 20
0.345594
 30
0.000000
  0
VERTEX
  8
LAYER-1
 10
3.655935
 20
0.325793
 30
0.000000
  0
SEQEND
  8
LAYER-1
  0
POLYLINE
  8
LAYER-1
 66
  1
 70
  1
 62
  7
 10
4.141790
 20
0.344256
 30
0.000000
  0
VERTEX
  8
LAYER-1
 10
4.141790
 20
0.344256
 30
0.000000
  0
VERTEX
  8
LAYER-1
 10
4.117438
 20
0.320842
 30
0.000000
  0
VERTEX
  8
LAYER-1
 10
4.158034
 20
0.301033
 30
0.000000
  0
SEQEND
  8
LAYER-1
  0
POLYLINE
  8
LAYER-1
 66
  1
 70
  1
 62
  7
 10
4.293023
 20
0.355198
 30
0.000000
  0
VERTEX
  8
LAYER-1
 10
4.293023
 20
0.355198
 30
0.000000
  0
VERTEX
  8
LAYER-1
 10
4.373679
 20
0.343464
 30
0.000000
  0
VERTEX
  8
LAYER-1
 10
4.390690
 20
0.386340
 30
0.000000
  0
SEQEND
  8
LAYER-1
  0
POLYLINE
  8
LAYER-1
 66
  1
 70
  1
 62
  7
 10
4.633470
 20
0.326308
 30
0.000000
  0
VERTEX
  8
LAYER-1
 10
4.633470
 20
0.326308
 30
0.000000
  0
VERTEX
  8
LAYER-1
 10
4.653578
 20
0.300579
 30
0.000000
  0
VERTEX
  8
LAYER-1
 10
4.670591
 20
0.343464
 30
0.000000
  0
SEQEND
  8
LAYER-1
  0
POLYLINE
  8
LAYER-1
 66
  1
 70
  1
 62
  7
 10
4.554719
 20
0.234159
 30
0.000000
  0
VERTEX
  8
LAYER-1
 10
4.554719
 20
0.234159
 30
0.000000
  0
VERTEX
  8
LAYER-1
 10
4.581566
 20
0.250653
 30
0.000000
  0
VERTEX
  8
LAYER-1
 10
4.547260
 20
0.277981
 30
0.000000
  0
SEQEND
  8
LAYER-1
  0
POLYLINE
  8
LAYER-1
 66
  1
 70
  1
 62
  7
 10
4.707062
 20
0.084706
 30
0.000000
  0
VERTEX
  8
LAYER-1
 10
4.707062
 20
0.084706
 30
0.000000
  0
VERTEX
  8
LAYER-1
 10
4.730248
 20
0.107005
 30
0.000000
  0
VERTEX
  8
LAYER-1
 10
4.691595
 20
0.125876
 30
0.000000
  0
SEQEND
  8
LAYER-1
  0
POLYLINE
  8
LAYER-1
 66
  1
 70
  1
 62
  7
 10
4.554737
 20
0.130158
 30
0.000000
  0
VERTEX
  8
LAYER-1
 10
4.554737
 20
0.130158
 30
0.000000
  0
VERTEX
  8
LAYER-1
 10
4.534631
 20
0.155895
 30
0.000000
  0
VERTEX
  8
LAYER-1
 10
4.517619
 20
0.113010
 30
0.000000
  0
SEQEND
  8
LAYER-1
  0
POLYLINE
  8
LAYER-1
 66
  1
 70
  1
 62
  7
 10
4.198290
 20
0.046974
 30
0.000000
  0
VERTEX
  8
LAYER-1
 10
4.198290
 20
0.046974
 30
0.000000
  0
VERTEX
  8
LAYER-1
 10
4.239511
 20
0.076155
 30
0.000000
  0
VERTEX
  8
LAYER-1
 10
4.186002
 20
0.141816
 30
0.000000
  0
SEQEND
  8
LAYER-1
  0
POLYLINE
  8
LAYER-1
 66
  1
 70
  1
 62
  7
 10
4.022225
 20
0.084713
 30
0.000000
  0
VERTEX
  8
LAYER-1
 10
4.022225
 20
0.084713
 30
0.000000
  0
VERTEX
  8
LAYER-1
 10
4.001115
 20
0.111727
 30
0.000000
  0
VERTEX
  8
LAYER-1
 10
3.983256
 20
0.066705
 30
0.000000
  0
SEQEND
  8
LAYER-1
  0
POLYLINE
  8
LAYER-1
 66
  1
 70
  1
 62
  7
 10
3.179297
 20
0.144560
 30
0.000000
  0
VERTEX
  8
LAYER-1
 10
3.179297
 20
0.144560
 30
0.000000
  0
VERTEX
  8
LAYER-1
 10
3.216124
 20
0.095855
 30
0.000000
  0
VERTEX
  8
LAYER-1
 10
3.259839
 20
0.160562
 30
0.000000
  0
SEQEND
  8
LAYER-1
  0
POLYLINE
  8
LAYER-1
 66
  1
 70
  1
 62
  7
 10
3.343039
 20
0.084713
 30
0.000000
  0
VERTEX
  8
LAYER-1
 10
3.343039
 20
0.084713
 30
0.000000
  0
VERTEX
  8
LAYER-1
 10
3.371238
 20
0.102037
 30
0.000000
  0
VERTEX
  8
LAYER-1
 10
3.335201
 20
0.130727
 30
0.000000
  0
SEQEND
  8
LAYER-1
  0
POLYLINE
  8
LAYER-1
 66
  1
 70
  1
 62
  7
 10
3.719619
 20
0.136448
 30
0.000000
  0
VERTEX
  8
LAYER-1
 10
3.719619
 20
0.136448
 30
0.000000
  0
VERTEX
  8
LAYER-1
 10
3.740738
 20
0.109427
 30
0.000000
  0
VERTEX
  8
LAYER-1
 10
3.758595
 20
0.154457
 30
0.000000
  0
SEQEND
  8
LAYER-1
  0
POLYLINE
  8
LAYER-1
 66
  1
 70
  1
 62
  7
 10
3.654238
 20
0.043328
 30
0.000000
  0
VERTEX
  8
LAYER-1
 10
3.654238
 20
0.043328
 30
0.000000
  0
VERTEX
  8
LAYER-1
 10
3.705876
 20
0.066043
 30
0.000000
  0
VERTEX
  8
LAYER-1
 10
3.624144
 20
0.118831
 30
0.000000
  0
SEQEND
  8
LAYER-1
  0
POLYLINE
  8
LAYER-1
 66
  1
 70
  1
 62
  7
 10
3.951900
 20
0.328938
 30
0.000000
  0
VERTEX
  8
LAYER-1
 10
3.951900
 20
0.328938
 30
0.000000
  0
VERTEX
  8
LAYER-1
 10
3.920287
 20
0.395591
 30
0.000000
  0
VERTEX
  8
LAYER-1
 10
3.892451
 20
0.361919
 30
0.000000
  0
SEQEND
  8
LAYER-1
  0
POLYLINE
  8
LAYER-1
 66
  1
 70
  1
 62
  7
 10
4.864562
 20
0.374414
 30
0.000000
  0
VERTEX
  8
LAYER-1
 10
4.864562
 20
0.374414
 30
0.000000
  0
VERTEX
  8
LAYER-1
 10
4.840202
 20
0.351000
 30
0.000000
  0
VERTEX
  8
LAYER-1
 10
4.880798
 20
0.331191
 30
0.000000
  0
SEQEND
  8
LAYER-1
  0
POLYLINE
  8
LAYER-1
 66
  1
 70
  1
 62
  7
 10
5.027194
 20
0.300049
 30
0.000000
  0
VERTEX
  8
LAYER-1
 10
5.027194
 20
0.300049
 30
0.000000
  0
VERTEX
  8
LAYER-1
 10
5.048299
 20
0.273036
 30
0.000000
  0
VERTEX
  8
LAYER-1
 10
5.066168
 20
0.318058
 30
0.000000
  0
SEQEND
  8
LAYER-1
  0
POLYLINE
  8
LAYER-1
 66
  1
 70
  1
 62
  7
 10
5.160198
 20
0.393084
 30
0.000000
  0
VERTEX
  8
LAYER-1
 10
5.160198
 20
0.393084
 30
0.000000
  0
VERTEX
  8
LAYER-1
 10
5.080155
 20
0.387194
 30
0.000000
  0
VERTEX
  8
LAYER-1
 10
5.175672
 20
0.351914
 30
0.000000
  0
SEQEND
  8
LAYER-1
  0
POLYLINE
  8
LAYER-1
 66
  1
 70
  1
 62
  7
 10
5.426373
 20
0.372615
 30
0.000000
  0
VERTEX
  8
LAYER-1
 10
5.426373
 20
0.372615
 30
0.000000
  0
VERTEX
  8
LAYER-1
 10
5.402011
 20
0.349192
 30
0.000000
  0
VERTEX
  8
LAYER-1
 10
5.442610
 20
0.329392
 30
0.000000
  0
SEQEND
  8
LAYER-1
  0
POLYLINE
  8
LAYER-1
 66
  1
 70
  1
 62
  7
 10
5.971942
 20
0.426649
 30
0.000000
  0
VERTEX
  8
LAYER-1
 10
5.971942
 20
0.426649
 30
0.000000
  0
VERTEX
  8
LAYER-1
 10
5.947590
 20
0.403234
 30
0.000000
  0
VERTEX
  8
LAYER-1
 10
5.988186
 20
0.383418
 30
0.000000
  0
SEQEND
  8
LAYER-1
  0
POLYLINE
  8
LAYER-1
 66
  1
 70
  1
 62
  7
 10
5.994618
 20
0.358627
 30
0.000000
  0
VERTEX
  8
LAYER-1
 10
5.994618
 20
0.358627
 30
0.000000
  0
VERTEX
  8
LAYER-1
 10
6.075270
 20
0.346886
 30
0.000000
  0
VERTEX
  8
LAYER-1
 10
6.092278
 20
0.389769
 30
0.000000
  0
SEQEND
  8
LAYER-1
  0
POLYLINE
  8
LAYER-1
 66
  1
 70
  1
 62
  7
 10
5.899878
 20
0.050403
 30
0.000000
  0
VERTEX
  8
LAYER-1
 10
5.899878
 20
0.050403
 30
0.000000
  0
VERTEX
  8
LAYER-1
 10
5.941103
 20
0.079584
 30
0.000000
  0
VERTEX
  8
LAYER-1
 10
5.887593
 20
0.145237
 30
0.000000
  0
SEQEND
  8
LAYER-1
  0
POLYLINE
  8
LAYER-1
 66
  1
 70
  1
 62
  7
 10
5.808892
 20
0.088312
 30
0.000000
  0
VERTEX
  8
LAYER-1
 10
5.808892
 20
0.088312
 30
0.000000
  0
VERTEX
  8
LAYER-1
 10
5.787780
 20
0.115325
 30
0.000000
  0
VERTEX
  8
LAYER-1
 10
5.769924
 20
0.070304
 30
0.000000
  0
SEQEND
  8
LAYER-1
  0
POLYLINE
  8
LAYER-1
 66
  1
 70
  1
 62
  7
 10
4.880896
 20
0.147990
 30
0.000000
  0
VERTEX
  8
LAYER-1
 10
4.880896
 20
0.147990
 30
0.000000
  0
VERTEX
  8
LAYER-1
 10
4.917723
 20
0.099285
 30
0.000000
  0
VERTEX
  8
LAYER-1
 10
4.961430
 20
0.163991
 30
0.000000
  0
SEQEND
  8
LAYER-1
  0
POLYLINE
  8
LAYER-1
 66
  1
 70
  1
 62
  7
 10
5.129714
 20
0.088312
 30
0.000000
  0
VERTEX
  8
LAYER-1
 10
5.129714
 20
0.088312
 30
0.000000
  0
VERTEX
  8
LAYER-1
 10
5.157911
 20
0.105636
 30
0.000000
  0
VERTEX
  8
LAYER-1
 10
5.121876
 20
0.134326
 30
0.000000
  0
SEQEND
  8
LAYER-1
  0
POLYLINE
  8
LAYER-1
 66
  1
 70
  1
 62
  7
 10
5.506294
 20
0.140047
 30
0.000000
  0
VERTEX
  8
LAYER-1
 10
5.506294
 20
0.140047
 30
0.000000
  0
VERTEX
  8
LAYER-1
 10
5.527405
 20
0.113026
 30
0.000000
  0
VERTEX
  8
LAYER-1
 10
5.545268
 20
0.158056
 30
0.000000
  0
SEQEND
  8
LAYER-1
  0
POLYLINE
  8
LAYER-1
 66
  1
 70
  1
 62
  7
 10
5.355836
 20
0.046758
 30
0.000000
  0
VERTEX
  8
LAYER-1
 10
5.355836
 20
0.046758
 30
0.000000
  0
VERTEX
  8
LAYER-1
 10
5.407471
 20
0.069465
 30
0.000000
  0
VERTEX
  8
LAYER-1
 10
5.325740
 20
0.122261
 30
0.000000
  0
SEQEND
  8
LAYER-1
  0
POLYLINE
  8
LAYER-1
 66
  1
 70
  1
 62
  7
 10
5.694324
 20
0.220602
 30
0.000000
  0
VERTEX
  8
LAYER-1
 10
5.694324
 20
0.220602
 30
0.000000
  0
VERTEX
  8
LAYER-1
 10
5.680950
 20
0.328931
 30
0.000000
  0
VERTEX
  8
LAYER-1
 10
5.624139
 20
0.296404
 30
0.000000
  0
SEQEND
  8
LAYER-1
  0
POLYLINE
  8
LAYER-1
 66
  1
 70
  0
 62
  7
 40
0.018182
 41
0.018182
 10
6.177697
 20
0.463258
 30
0.000000
  0
VERTEX
  8
LAYER-1
 10
6.177697
 20
0.463258
 30
0.000000
  0
VERTEX
  8
LAYER-1
 10
0.018182
 20
0.463258
 30
0.000000
  0
SEQEND
  8
LAYER-1
  0
POLYLINE
  8
LAYER-1
 66
  1
 70
  1
 62
  7
  0
VERTEX
  8
LAYER-1
 10
1.745113
 20
5.262382
 30
0.000000
  0
VERTEX
  8
LAYER-1
 10
2.227112
 20
5.262382
 30
0.000000
  0
VERTEX
  8
LAYER-1
 10
2.227112
 20
2.609383
 30
0.000000
  0
VERTEX
  8
LAYER-1
 10
1.745113
 20
2.609383
 30
0.000000
  0
SEQEND
  8
LAYER-1
  0
POLYLINE
  8
LAYER-1
 66
  1
 70
  1
 62
  7
  0
VERTEX
  8
LAYER-1
 10
2.177504
 20
5.262417
 30
0.000000
  0
VERTEX
  8
LAYER-1
 10
2.177504
 20
8.094561
 30
0.000000
  0
VERTEX
  8
LAYER-1
 10
2.227112
 20
8.094561
 30
0.000000
  0
VERTEX
  8
LAYER-1
 10
2.227112
 20
5.262417
 30
0.000000
  0
SEQEND
  8
LAYER-1
  0
POLYLINE
  8
LAYER-1
 66
  1
 70
  1
 62
  7
  0
VERTEX
  8
LAYER-1
 10
1.745113
 20
5.262417
 30
0.000000
  0
VERTEX
  8
LAYER-1
 10
1.745113
 20
8.094561
 30
0.000000
  0
VERTEX
  8
LAYER-1
 10
1.795326
 20
8.094561
 30
0.000000
  0
VERTEX
  8
LAYER-1
 10
1.795326
 20
5.262417
 30
0.000000
  0
SEQEND
  8
LAYER-1
  0
POLYLINE
  8
LAYER-1
 66
  1
 70
  1
 62
  7
  0
VERTEX
  8
LAYER-1
 10
0.023049
 20
8.231318
 30
0.000000
  0
VERTEX
  8
LAYER-1
 10
6.176726
 20
8.231318
 30
0.000000
  0
VERTEX
  8
LAYER-1
 10
6.176726
 20
8.095131
 30
0.000000
  0
VERTEX
  8
LAYER-1
 10
0.023049
 20
8.095131
 30
0.000000
  0
SEQEND
  8
LAYER-1
  0
POLYLINE
  8
LAYER-1
 66
  1
 70
  1
 62
  7
  0
VERTEX
  8
LAYER-1
 10
5.630958
 20
5.266041
 30
0.000000
  0
VERTEX
  8
LAYER-1
 10
2.554674
 20
5.266041
 30
0.000000
  0
VERTEX
  8
LAYER-1
 10
2.554674
 20
5.315607
 30
0.000000
  0
VERTEX
  8
LAYER-1
 10
5.630958
 20
5.315607
 30
0.000000
  0
SEQEND
  8
LAYER-1
  0
POLYLINE
  8
LAYER-1
 66
  1
 70
  1
 62
  7
  0
VERTEX
  8
LAYER-1
 10
2.686729
 20
5.319271
 30
0.000000
  0
VERTEX
  8
LAYER-1
 10
4.609550
 20
5.319271
 30
0.000000
  0
VERTEX
  8
LAYER-1
 10
4.609550
 20
5.254356
 30
0.000000
  0
VERTEX
  8
LAYER-1
 10
2.686729
 20
5.254356
 30
0.000000
  0
SEQEND
  8
LAYER-1
  0
POLYLINE
  8
LAYER-1
 66
  1
 70
  0
 62
  7
 10
4.611457
 20
5.402598
 30
0.000000
  0
VERTEX
  8
LAYER-1
 10
4.611457
 20
5.402598
 30
0.000000
  0
VERTEX
  8
LAYER-1
 10
4.611457
 20
5.238404
 30
0.000000
  0
SEQEND
  8
LAYER-1
  0
POLYLINE
  8
LAYER-1
 66
  1
 70
  0
 62
  7
 10
4.463504
 20
5.238404
 30
0.000000
  0
VERTEX
  8
LAYER-1
 10
4.463504
 20
5.238404
 30
0.000000
  0
VERTEX
  8
LAYER-1
 10
4.611457
 20
5.238404
 30
0.000000
  0
SEQEND
  8
LAYER-1
  0
POLYLINE
  8
LAYER-1
 66
  1
 70
  1
 62
  7
  0
VERTEX
  8
LAYER-1
 10
2.751413
 20
5.297871
 30
0.000000
  0
VERTEX
  8
LAYER-1
 10
4.538818
 20
5.297871
 30
0.000000
  0
VERTEX
  8
LAYER-1
 10
4.538818
 20
5.266094
 30
0.000000
  0
VERTEX
  8
LAYER-1
 10
2.751413
 20
5.266094
 30
0.000000
  0
SEQEND
  8
LAYER-1
  0
TEXT
  8
LAYER-1
 62
  7
 10
4.234437
 20
4.544561
 30
0.000000
 40
0.150000
  1
Provide 
 72
  5
 11
5.007164
 21
4.544561
 31
0.000000
  0
TEXT
  8
LAYER-1
 62
  7
 10
5.007164
 20
4.544561
 30
0.000000
 40
0.150000
  1
24" x 24"
 72
  5
 11
5.888983
 21
4.544561
 31
0.000000
  0
TEXT
  8
LAYER-1
 62
  7
 10
4.234437
 20
4.308198
 30
0.000000
 40
0.150000
  1
(610 x 610mm)
 72
  5
 11
5.643528
 21
4.308198
 31
0.000000
  0
TEXT
  8
LAYER-1
 62
  7
 10
4.234437
 20
4.071834
 30
0.000000
 40
0.150000
  1
ACCESS PANEL
 72
  5
 11
5.861710
 21
4.071834
 31
0.000000
  0
TEXT
  8
LAYER-1
 62
  7
 10
4.234437
 20
3.835470
 30
0.000000
 40
0.150000
  1
for charging wheel
 72
  5
 11
5.888983
 21
3.835470
 31
0.000000
  0
LINE
  8
LAYER-1
 62
  7
 10
0.499156
 20
2.628891
 30
0.000000
 11
0.499156
 21
5.242732
 31
0.000000
  0
LINE
  8
LAYER-1
 62
  7
 10
1.357608
 20
2.609206
 30
0.000000
 11
0.374156
 21
2.609206
 31
0.000000
  0
LINE
  8
LAYER-1
 62
  7
 10
1.682613
 20
5.262417
 30
0.000000
 11
0.374156
 21
5.262417
 31
0.000000
  0
POLYLINE
  8
LAYER-1
 66
  1
 70
  1
 62
  7
  0
VERTEX
  8
LAYER-1
 10
0.499156
 20
2.609206
 30
0.000000
  0
VERTEX
  8
LAYER-1
 10
0.526429
 20
2.654661
 30
0.000000
  0
VERTEX
  8
LAYER-1
 10
0.499156
 20
2.654661
 30
0.000000
  0
VERTEX
  8
LAYER-1
 10
0.471884
 20
2.654661
 30
0.000000
  0
VERTEX
  8
LAYER-1
 10
0.499156
 20
2.609206
 30
0.000000
  0
SEQEND
  8
LAYER-1
  0
POLYLINE
  8
LAYER-1
 66
  1
 70
  1
 62
  7
  0
VERTEX
  8
LAYER-1
 10
0.499156
 20
5.262417
 30
0.000000
  0
VERTEX
  8
LAYER-1
 10
0.526429
 20
5.216962
 30
0.000000
  0
VERTEX
  8
LAYER-1
 10
0.499156
 20
5.216962
 30
0.000000
  0
VERTEX
  8
LAYER-1
 10
0.471883
 20
5.216962
 30
0.000000
  0
VERTEX
  8
LAYER-1
 10
0.499156
 20
5.262417
 30
0.000000
  0
SEQEND
  8
LAYER-1
  0
TEXT
  8
LAYER-1
 62
  7
 10
0.401658
 20
3.417383
 30
0.000000
 40
0.095455
  1
 
 50
90.000000
  0
TEXT
  8
LAYER-1
 62
  7
 10
3.634437
 20
3.399107
 30
0.000000
 40
0.150000
  1
BOTTOM OF
 50
90.000000
 72
  5
 11
3.634437
 21
4.617288
 31
0.000000
  0
TEXT
  8
LAYER-1
 62
  7
 10
3.988983
 20
3.426379
 30
0.000000
 40
0.150000
  1
END PLATE
 50
90.000000
 72
  5
 11
3.988983
 21
4.590016
 31
0.000000
  0
TEXT
  8
LAYER-1
 62
  7
 10
4.098074
 20
0.917288
 30
0.000000
 40
0.150000
  1
STORE OR
 72
  5
 11
5.188983
 21
0.917288
 31
0.000000
  0
TEXT
  8
LAYER-1
 62
  7
 10
4.098074
 20
0.635470
 30
0.000000
 40
0.150000
  1
INTERIOR
 72
  5
 11
5.098074
 21
0.635470
 31
0.000000
  0
TEXT
  8
LAYER-1
 62
  7
 10
0.079892
 20
0.917288
 30
0.000000
 40
0.150000
  1
MALL OR
 72
  5
 11
1.025346
 21
0.917288
 31
0.000000
  0
TEXT
  8
LAYER-1
 62
  7
 10
0.079892
 20
0.635470
 30
0.000000
 40
0.150000
  1
EXTERIOR
 72
  5
 11
1.152619
 21
0.635470
 31
0.000000
  0
TEXT
  8
LAYER-1
 62
  7
 10
0.125346
 20
7.817288
 30
0.000000
 40
0.150000
  1
EXAMPLE:
 72
  5
 11
1.207164
 21
7.817288
 31
0.000000
  0
TEXT
  8
LAYER-1
 62
  7
 10
0.125346
 20
7.580925
 30
0.000000
 40
0.150000
  1
Face of wall
 72
  5
 11
1.225346
 21
7.580925
 31
0.000000
  0
TEXT
  8
LAYER-1
 62
  7
 10
0.125346
 20
7.344561
 30
0.000000
 40
0.150000
  1
mount 
 72
  5
 11
0.770801
 21
7.344561
 31
0.000000
  0
POLYLINE
  8
LAYER-1
 66
  1
 70
  0
 62
  7
 10
2.247084
 20
5.496034
 30
0.000000
  0
VERTEX
  8
LAYER-1
 10
2.247084
 20
5.496034
 30
0.000000
  0
VERTEX
  8
LAYER-1
 10
2.247401
 20
2.611953
 30
0.000000
  0
SEQEND
  8
LAYER-1
  0
POLYLINE
  8
LAYER-1
 66
  1
 70
  0
 62
  7
 10
2.227766
 20
5.416718
 30
0.000000
  0
VERTEX
  8
LAYER-1
 10
2.227766
 20
5.416718
 30
0.000000
  0
VERTEX
  8
LAYER-1
 10
2.227766
 20
2.611953
 30
0.000000
  0
SEQEND
  8
LAYER-1
  0
POLYLINE
  8
LAYER-1
 66
  1
 70
  0
 62
  7
 10
2.306337
 20
5.436253
 30
0.000000
  0
VERTEX
  8
LAYER-1
 10
2.306337
 20
5.436253
 30
0.000000
  0
VERTEX
  8
LAYER-1
 10
2.306268
 20
2.611953
 30
0.000000
  0
SEQEND
  8
LAYER-1
  0
POLYLINE
  8
LAYER-1
 66
  1
 70
  0
 62
  7
 10
2.325934
 20
5.436872
 30
0.000000
  0
VERTEX
  8
LAYER-1
 10
2.325934
 20
5.436872
 30
0.000000
  0
VERTEX
  8
LAYER-1
 10
2.325891
 20
2.611953
 30
0.000000
  0
SEQEND
  8
LAYER-1
  0
TEXT
  8
LAYER-1
 62
  7
 10
2.725346
 20
7.844561
 30
0.000000
 40
0.150000
  1
COIL SIDE
 72
  5
 11
3.770801
 21
7.844561
 31
0.000000
  0
TEXT
  8
LAYER-1
 62
  7
 10
2.725346
 20
7.608198
 30
0.000000
 40
0.150000
  1
If coil is under the finished ceiling,
 72
  5
 11
5.725346
 21
7.608198
 31
0.000000
  0
TEXT
  8
LAYER-1
 62
  7
 10
2.725346
 20
7.371834
 30
0.000000
 40
0.150000
  1
optional hood and end caps
 72
  5
 11
5.188983
 21
7.371834
 31
0.000000
  0
TEXT
  8
LAYER-1
 62
  7
 10
2.725346
 20
7.135470
 30
0.000000
 40
0.150000
  1
are available
 72
  5
 11
3.888983
 21
7.135470
 31
0.000000
  0
POLYLINE
  8
LAYER-1
 66
  1
 70
  1
 62
  7
  0
VERTEX
  8
LAYER-1
 10
1.745113
 20
5.312691
 30
0.000000
  0
VERTEX
  8
LAYER-1
 10
2.227112
 20
5.312691
 30
0.000000
  0
VERTEX
  8
LAYER-1
 10
2.227112
 20
5.262417
 30
0.000000
  0
VERTEX
  8
LAYER-1
 10
1.745113
 20
5.262417
 30
0.000000
  0
SEQEND
  8
LAYER-1
  0
POLYLINE
  8
LAYER-1
 66
  1
 70
  0
 62
  7
 10
2.685030
 20
5.405124
 30
0.000000
  0
VERTEX
  8
LAYER-1
 10
2.685030
 20
5.405124
 30
0.000000
  0
VERTEX
  8
LAYER-1
 10
2.685030
 20
5.238404
 30
0.000000
  0
SEQEND
  8
LAYER-1
  0
POLYLINE
  8
LAYER-1
 66
  1
 70
  0
 62
  7
 10
2.832979
 20
5.238404
 30
0.000000
  0
VERTEX
  8
LAYER-1
 10
2.832979
 20
5.238404
 30
0.000000
  0
VERTEX
  8
LAYER-1
 10
2.685030
 20
5.238404
 30
0.000000
  0
SEQEND
  8
LAYER-1
  0
TEXT
  8
LAYER-1
 62
  7
 10
0.979892
 20
4.599107
 30
0.000000
 40
0.150000
  1
3" min
 72
  5
 11
1.579892
 21
4.599107
 31
0.000000
  0
TEXT
  8
LAYER-1
 62
  7
 10
0.988983
 20
4.362743
 30
0.000000
 40
0.150000
  1
76mm
 72
  5
 11
1.579892
 21
4.362743
 31
0.000000
  0
TEXT
  8
LAYER-1
 62
  7
 10
0.234437
 20
6.299107
 30
0.000000
 40
0.150000
  1
End plates
 72
  5
 11
1.216255
 21
6.299107
 31
0.000000
  0
TEXT
  8
LAYER-1
 62
  7
 10
0.234437
 20
6.062743
 30
0.000000
 40
0.150000
  1
sizes
 72
  5
 11
0.734437
 21
6.062743
 31
0.000000
  0
TEXT
  8
LAYER-1
 62
  7
 10
0.234437
 20
5.826379
 30
0.000000
 40
0.150000
  1
(see chart)
 72
  5
 11
1.216255
 21
5.826379
 31
0.000000
  0
POLYLINE
  8
LAYER-1
 66
  1
 70
  0
 62
  7
 10
2.138912
 20
5.008103
 30
0.000000
  0
VERTEX
  8
LAYER-1
 10
2.138912
 20
5.008103
 30
0.000000
  0
VERTEX
  8
LAYER-1
 10
1.252693
 20
5.008103
 30
0.000000
  0
SEQEND
  8
LAYER-1
  0
POLYLINE
  8
LAYER-1
 66
  1
 70
  0
 62
  7
 10
1.376782
 20
4.988418
 30
0.000000
  0
VERTEX
  8
LAYER-1
 10
1.376782
 20
4.988418
 30
0.000000
  0
VERTEX
  8
LAYER-1
 10
1.376782
 20
4.793817
 30
0.000000
  0
SEQEND
  8
LAYER-1
  0
POLYLINE
  8
LAYER-1
 66
  1
 70
  1
 62
  7
  0
VERTEX
  8
LAYER-1
 10
1.376782
 20
5.008103
 30
0.000000
  0
VERTEX
  8
LAYER-1
 10
1.349510
 20
4.962649
 30
0.000000
  0
VERTEX
  8
LAYER-1
 10
1.376783
 20
4.962649
 30
0.000000
  0
VERTEX
  8
LAYER-1
 10
1.404055
 20
4.962649
 30
0.000000
  0
VERTEX
  8
LAYER-1
 10
1.376782
 20
5.008103
 30
0.000000
  0
SEQEND
  8
LAYER-1
  0
POLYLINE
  8
LAYER-1
 66
  1
 70
  0
 62
  7
 10
3.367851
 20
5.704442
 30
0.000000
  0
VERTEX
  8
LAYER-1
 10
3.367851
 20
5.704442
 30
0.000000
  0
VERTEX
  8
LAYER-1
 10
3.367851
 20
5.518772
 30
0.000000
  0
SEQEND
  8
LAYER-1
  0
POLYLINE
  8
LAYER-1
 66
  1
 70
  1
 62
  7
  0
VERTEX
  8
LAYER-1
 10
3.367851
 20
5.499087
 30
0.000000
  0
VERTEX
  8
LAYER-1
 10
3.340578
 20
5.544542
 30
0.000000
  0
VERTEX
  8
LAYER-1
 10
3.367851
 20
5.544542
 30
0.000000
  0
VERTEX
  8
LAYER-1
 10
3.395123
 20
5.544542
 30
0.000000
  0
VERTEX
  8
LAYER-1
 10
3.367851
 20
5.499087
 30
0.000000
  0
SEQEND
  8
LAYER-1
  0
POLYLINE
  8
LAYER-1
 66
  1
 70
  0
 62
  7
 10
3.367851
 20
5.248682
 30
0.000000
  0
VERTEX
  8
LAYER-1
 10
3.367851
 20
5.248682
 30
0.000000
  0
VERTEX
  8
LAYER-1
 10
3.367851
 20
5.053425
 30
0.000000
  0
SEQEND
  8
LAYER-1
  0
POLYLINE
  8
LAYER-1
 66
  1
 70
  1
 62
  7
  0
VERTEX
  8
LAYER-1
 10
3.367851
 20
5.268367
 30
0.000000
  0
VERTEX
  8
LAYER-1
 10
3.340578
 20
5.222912
 30
0.000000
  0
VERTEX
  8
LAYER-1
 10
3.367851
 20
5.222912
 30
0.000000
  0
VERTEX
  8
LAYER-1
 10
3.395124
 20
5.222912
 30
0.000000
  0
VERTEX
  8
LAYER-1
 10
3.367851
 20
5.268367
 30
0.000000
  0
SEQEND
  8
LAYER-1
  0
POLYLINE
  8
LAYER-1
 66
  1
 70
  1
 62
  7
 10
2.879525
 20
5.494685
 30
0.000000
  0
VERTEX
  8
LAYER-1
 10
2.879525
 20
5.494685
 30
0.000000
  0
VERTEX
  8
LAYER-1
 10
2.227766
 20
5.494685
 30
0.000000
  0
VERTEX
  8
LAYER-1
 10
2.227766
 20
6.146444
 30
0.000000
  0
VERTEX
  8
LAYER-1
 10
2.879525
 20
6.146444
 30
0.000000
  0
SEQEND
  8
LAYER-1
  0
ARC
  8
LAYER-1
 62
  7
  6
LTYPE02
 10
2.547815
 20
5.820692
 30
0.000000
 40
0.195112
 50
45.379215
 51
0.136948
  0
ARC
  8
LAYER-1
 62
  7
  6
LTYPE02
 10
5.038553
 20
5.297883
 30
0.000000
 40
2.766367
 50
168.480835
 51
176.784607
  0
CIRCLE
  8
LAYER-1
 62
  7
 10
2.265510
 20
5.820651
 30
0.000000
 40
0.015936
  0
CIRCLE
  8
LAYER-1
 62
  7
 10
2.265510
 20
6.072145
 30
0.000000
 40
0.015936
  0
CIRCLE
  8
LAYER-1
 62
  7
 10
2.265510
 20
5.573398
 30
0.000000
 40
0.015936
  0
POLYLINE
  8
LAYER-1
 66
  1
 70
  1
 62
  7
 10
2.348864
 20
5.492286
 30
0.000000
  0
VERTEX
  8
LAYER-1
 10
2.348864
 20
5.492286
 30
0.000000
  0
VERTEX
  8
LAYER-1
 10
2.319717
 20
5.471782
 30
0.000000
  0
VERTEX
  8
LAYER-1
 10
2.325618
 20
5.438198
 30
0.000000
  0
VERTEX
  8
LAYER-1
 10
2.326745
 20
5.444308
 30
0.000000
  0
VERTEX
  8
LAYER-1
 10
2.329152
 20
5.451389
 30
0.000000
  0
SEQEND
  8
LAYER-1
  0
POLYLINE
  8
LAYER-1
 66
  1
 70
  0
 62
  7
 10
2.329152
 20
5.451251
 30
0.000000
  0
VERTEX
  8
LAYER-1
 10
2.329152
 20
5.451251
 30
0.000000
  0
VERTEX
  8
LAYER-1
 10
2.348864
 20
5.492286
 30
0.000000
  0
SEQEND
  8
LAYER-1
  0
POLYLINE
  8
LAYER-1
 66
  1
 70
  0
 62
  7
 10
2.329152
 20
5.451385
 30
0.000000
  0
VERTEX
  8
LAYER-1
 10
2.329152
 20
5.451385
 30
0.000000
  0
VERTEX
  8
LAYER-1
 10
2.323995
 20
5.440338
 30
0.000000
  0
VERTEX
  8
LAYER-1
 10
2.325934
 20
5.436872
 30
0.000000
  0
SEQEND
  8
LAYER-1
  0
POLYLINE
  8
LAYER-1
 66
  1
 70
  0
 62
  7
 10
2.309555
 20
5.450632
 30
0.000000
  0
VERTEX
  8
LAYER-1
 10
2.309555
 20
5.450632
 30
0.000000
  0
VERTEX
  8
LAYER-1
 10
2.319717
 20
5.471782
 30
0.000000
  0
SEQEND
  8
LAYER-1
  0
POLYLINE
  8
LAYER-1
 66
  1
 70
  0
 62
  7
 10
2.309555
 20
5.450767
 30
0.000000
  0
VERTEX
  8
LAYER-1
 10
2.309555
 20
5.450767
 30
0.000000
  0
VERTEX
  8
LAYER-1
 10
2.304402
 20
5.439719
 30
0.000000
  0
VERTEX
  8
LAYER-1
 10
2.306337
 20
5.436253
 30
0.000000
  0
SEQEND
  8
LAYER-1
  0
POLYLINE
  8
LAYER-1
 66
  1
 70
  0
 62
  7
 10
2.348864
 20
5.492286
 30
0.000000
  0
VERTEX
  8
LAYER-1
 10
2.348864
 20
5.492286
 30
0.000000
  0
VERTEX
  8
LAYER-1
 10
2.319717
 20
5.471782
 30
0.000000
  0
SEQEND
  8
LAYER-1
  0
POLYLINE
  8
LAYER-1
 66
  1
 70
  0
 62
  7
 10
2.316126
 20
5.494924
 30
0.000000
  0
VERTEX
  8
LAYER-1
 10
2.316126
 20
5.494924
 30
0.000000
  0
VERTEX
  8
LAYER-1
 10
2.316126
 20
5.465373
 30
0.000000
  0
SEQEND
  8
LAYER-1
  0
POLYLINE
  8
LAYER-1
 66
  1
 70
  0
 62
  7
 10
2.325891
 20
5.494892
 30
0.000000
  0
VERTEX
  8
LAYER-1
 10
2.325891
 20
5.494892
 30
0.000000
  0
VERTEX
  8
LAYER-1
 10
2.325891
 20
5.476357
 30
0.000000
  0
SEQEND
  8
LAYER-1
  0
POLYLINE
  8
LAYER-1
 66
  1
 70
  0
 62
  7
 10
2.336208
 20
5.344927
 30
0.000000
  0
VERTEX
  8
LAYER-1
 10
2.336208
 20
5.344927
 30
0.000000
  0
VERTEX
  8
LAYER-1
 10
2.329256
 20
5.312684
 30
0.000000
  0
VERTEX
  8
LAYER-1
 10
2.329709
 20
5.277915
 30
0.000000
  0
VERTEX
  8
LAYER-1
 10
2.336208
 20
5.247482
 30
0.000000
  0
SEQEND
  8
LAYER-1
  0
CIRCLE
  8
LAYER-1
 62
  7
  6
LTYPE01
 10
2.552161
 20
5.823627
 30
0.000000
 40
0.040735
  0
CIRCLE
  8
LAYER-1
 62
  7
 10
2.552161
 20
5.823627
 30
0.000000
 40
0.184499
  0
POLYLINE
  8
LAYER-1
 66
  1
 70
  0
 62
  7
 10
2.386584
 20
4.868122
 30
0.000000
  0
VERTEX
  8
LAYER-1
 10
2.386584
 20
4.868122
 30
0.000000
  0
VERTEX
  8
LAYER-1
 10
2.451411
 20
4.681130
 30
0.000000
  0
SEQEND
  8
LAYER-1
  0
ARC
  8
LAYER-1
 62
  7
  6
LTYPE02
 10
2.547815
 20
5.820692
 30
0.000000
 40
0.207633
 50
45.379215
 51
0.136948
  0
ARC
  8
LAYER-1
 62
  7
  6
LTYPE02
 10
2.543309
 20
5.836299
 30
0.000000
 40
0.200192
 50
355.662567
 51
41.320251
  0
ARC
  8
LAYER-1
 62
  7
  6
LTYPE02
 10
2.547815
 20
5.820692
 30
0.000000
 40
0.221896
 50
45.379124
 51
172.327759
  0
ARC
  8
LAYER-1
 62
  7
  6
LTYPE02
 10
2.543309
 20
5.836299
 30
0.000000
 40
0.211600
 50
355.662567
 51
41.320251
  0
POLYLINE
  8
LAYER-1
 66
  1
 70
  0
 62
  7
 10
2.276540
 20
5.453047
 30
0.000000
  0
VERTEX
  8
LAYER-1
 10
2.276540
 20
5.453047
 30
0.000000
  0
VERTEX
  8
LAYER-1
 10
2.276540
 20
5.252526
 30
0.000000
  0
SEQEND
  8
LAYER-1
  0
POLYLINE
  8
LAYER-1
 66
  1
 70
  0
 62
  7
 10
1.376782
 20
5.277435
 30
0.000000
  0
VERTEX
  8
LAYER-1
 10
1.376782
 20
5.277435
 30
0.000000
  0
VERTEX
  8
LAYER-1
 10
1.376782
 20
5.452764
 30
0.000000
  0
SEQEND
  8
LAYER-1
  0
POLYLINE
  8
LAYER-1
 66
  1
 70
  1
 62
  7
  0
VERTEX
  8
LAYER-1
 10
1.376782
 20
5.257749
 30
0.000000
  0
VERTEX
  8
LAYER-1
 10
1.404055
 20
5.303204
 30
0.000000
  0
VERTEX
  8
LAYER-1
 10
1.376783
 20
5.303204
 30
0.000000
  0
VERTEX
  8
LAYER-1
 10
1.349510
 20
5.303204
 30
0.000000
  0
VERTEX
  8
LAYER-1
 10
1.376782
 20
5.257749
 30
0.000000
  0
SEQEND
  8
LAYER-1
  0
TEXT
  8
LAYER-1
 62
  7
 10
2.479892
 20
4.599107
 30
0.000000
 40
0.150000
  1
4" min
 72
  5
 11
3.079892
 21
4.599107
 31
0.000000
  0
TEXT
  8
LAYER-1
 62
  7
 10
2.434437
 20
4.362743
 30
0.000000
 40
0.150000
  1
102mm
 72
  5
 11
3.134437
 21
4.362743
 31
0.000000
  0
TEXT
  8
LAYER-1
 62
  7
 10
3.125346
 20
6.053652
 30
0.000000
 40
0.150000
  1
3" min
 72
  5
 11
3.725346
 21
6.053652
 31
0.000000
  0
TEXT
  8
LAYER-1
 62
  7
 10
3.134437
 20
5.817288
 30
0.000000
 40
0.150000
  1
76mm
 72
  5
 11
3.725346
 21
5.817288
 31
0.000000
  0
POLYLINE
  8
LAYER-1
 66
  1
 70
  0
 62
  7
 10
3.541593
 20
5.499693
 30
0.000000
  0
VERTEX
  8
LAYER-1
 10
3.541593
 20
5.499693
 30
0.000000
  0
VERTEX
  8
LAYER-1
 10
2.943380
 20
5.499693
 30
0.000000
  0
SEQEND
  8
LAYER-1
  0
POLYLINE
  8
LAYER-1
 66
  1
 70
  0
 62
  7
 10
2.302001
 20
5.357168
 30
0.000000
  0
VERTEX
  8
LAYER-1
 10
2.302001
 20
5.357168
 30
0.000000
  0
VERTEX
  8
LAYER-1
 10
2.340235
 20
5.357168
 30
0.000000
  0
SEQEND
  8
LAYER-1
  0
POLYLINE
  8
LAYER-1
 66
  1
 70
  0
 62
  7
 10
2.343144
 20
5.354260
 30
0.000000
  0
VERTEX
  8
LAYER-1
 10
2.343144
 20
5.354260
 30
0.000000
  0
VERTEX
  8
LAYER-1
 10
2.343144
 20
5.257133
 30
0.000000
  0
SEQEND
  8
LAYER-1
  0
POLYLINE
  8
LAYER-1
 66
  1
 70
  0
 62
  7
 10
2.340235
 20
5.254224
 30
0.000000
  0
VERTEX
  8
LAYER-1
 10
2.340235
 20
5.254224
 30
0.000000
  0
VERTEX
  8
LAYER-1
 10
2.302001
 20
5.254224
 30
0.000000
  0
SEQEND
  8
LAYER-1
  0
POLYLINE
  8
LAYER-1
 66
  1
 70
  0
 62
  7
 10
2.299092
 20
5.257133
 30
0.000000
  0
VERTEX
  8
LAYER-1
 10
2.299092
 20
5.257133
 30
0.000000
  0
VERTEX
  8
LAYER-1
 10
2.299092
 20
5.354260
 30
0.000000
  0
SEQEND
  8
LAYER-1
  0
ARC
  8
LAYER-1
 62
  7
 10
2.302001
 20
5.354260
 30
0.000000
 40
0.002909
 50
270.000000
 51
0.000000
  0
ARC
  8
LAYER-1
 62
  7
 10
2.302001
 20
5.257133
 30
0.000000
 40
0.002909
 50
0.000000
 51
90.000000
  0
ARC
  8
LAYER-1
 62
  7
 10
2.340235
 20
5.257133
 30
0.000000
 40
0.002909
 50
90.000000
 51
180.000000
  0
ARC
  8
LAYER-1
 62
  7
 10
2.340235
 20
5.354260
 30
0.000000
 40
0.002909
 50
180.000000
 51
270.000000
  0
POLYLINE
  8
LAYER-1
 66
  1
 70
  1
 62
  7
 10
2.336207
 20
5.257094
 30
0.000000
  0
VERTEX
  8
LAYER-1
 10
2.336207
 20
5.257094
 30
0.000000
  0
VERTEX
  8
LAYER-1
 10
2.305680
 20
5.257094
 30
0.000000
  0
VERTEX
  8
LAYER-1
 10
2.305680
 20
5.354539
 30
0.000000
  0
VERTEX
  8
LAYER-1
 10
2.336207
 20
5.354539
 30
0.000000
  0
SEQEND
  8
LAYER-1
  0
POLYLINE
  8
LAYER-1
 66
  1
 70
  0
 62
  7
 10
2.325849
 20
5.354539
 30
0.000000
  0
VERTEX
  8
LAYER-1
 10
2.325849
 20
5.354539
 30
0.000000
  0
VERTEX
  8
LAYER-1
 10
2.325849
 20
5.257094
 30
0.000000
  0
SEQEND
  8
LAYER-1
  0
POLYLINE
  8
LAYER-1
 66
  1
 70
  0
 62
  7
 10
2.305680
 20
5.354540
 30
0.000000
  0
VERTEX
  8
LAYER-1
 10
2.305680
 20
5.354540
 30
0.000000
  0
VERTEX
  8
LAYER-1
 10
2.317609
 20
5.347899
 30
0.000000
  0
VERTEX
  8
LAYER-1
 10
2.332306
 20
5.354094
 30
0.000000
  0
VERTEX
  8
LAYER-1
 10
2.336207
 20
5.354540
 30
0.000000
  0
SEQEND
  8
LAYER-1
  0
POLYLINE
  8
LAYER-1
 66
  1
 70
  0
 62
  7
 10
2.336207
 20
5.257096
 30
0.000000
  0
VERTEX
  8
LAYER-1
 10
2.336207
 20
5.257096
 30
0.000000
  0
VERTEX
  8
LAYER-1
 10
2.321241
 20
5.268141
 30
0.000000
  0
VERTEX
  8
LAYER-1
 10
2.306916
 20
5.263071
 30
0.000000
  0
VERTEX
  8
LAYER-1
 10
2.305680
 20
5.257096
 30
0.000000
  0
SEQEND
  8
LAYER-1
  0
POLYLINE
  8
LAYER-1
 66
  1
 70
  0
 62
  7
 10
2.305680
 20
5.257094
 30
0.000000
  0
VERTEX
  8
LAYER-1
 10
2.305680
 20
5.257094
 30
0.000000
  0
VERTEX
  8
LAYER-1
 10
2.308882
 20
5.290889
 30
0.000000
  0
VERTEX
  8
LAYER-1
 10
2.308986
 20
5.323364
 30
0.000000
  0
VERTEX
  8
LAYER-1
 10
2.304019
 20
5.355241
 30
0.000000
  0
VERTEX
  8
LAYER-1
 10
2.305680
 20
5.354539
 30
0.000000
  0
SEQEND
  8
LAYER-1
  0
POLYLINE
  8
LAYER-1
 66
  1
 70
  0
 62
  7
 10
2.259799
 20
5.029309
 30
0.000000
  0
VERTEX
  8
LAYER-1
 10
2.259799
 20
5.029309
 30
0.000000
  0
VERTEX
  8
LAYER-1
 10
2.257761
 20
5.031348
 30
0.000000
  0
SEQEND
  8
LAYER-1
  0
POLYLINE
  8
LAYER-1
 66
  1
 70
  0
 62
  7
 10
2.257761
 20
5.031347
 30
0.000000
  0
VERTEX
  8
LAYER-1
 10
2.257761
 20
5.031347
 30
0.000000
  0
VERTEX
  8
LAYER-1
 10
2.255546
 20
5.031347
 30
0.000000
  0
SEQEND
  8
LAYER-1
  0
POLYLINE
  8
LAYER-1
 66
  1
 70
  0
 62
  7
 10
2.253997
 20
5.032900
 30
0.000000
  0
VERTEX
  8
LAYER-1
 10
2.253997
 20
5.032900
 30
0.000000
  0
VERTEX
  8
LAYER-1
 10
2.255546
 20
5.031350
 30
0.000000
  0
SEQEND
  8
LAYER-1
  0
POLYLINE
  8
LAYER-1
 66
  1
 70
  0
 62
  7
 10
2.253997
 20
5.032885
 30
0.000000
  0
VERTEX
  8
LAYER-1
 10
2.253997
 20
5.032885
 30
0.000000
  0
VERTEX
  8
LAYER-1
 10
2.253997
 20
5.032900
 30
0.000000
  0
SEQEND
  8
LAYER-1
  0
POLYLINE
  8
LAYER-1
 66
  1
 70
  0
 62
  7
 10
2.255546
 20
5.034434
 30
0.000000
  0
VERTEX
  8
LAYER-1
 10
2.255546
 20
5.034434
 30
0.000000
  0
VERTEX
  8
LAYER-1
 10
2.253997
 20
5.032885
 30
0.000000
  0
SEQEND
  8
LAYER-1
  0
POLYLINE
  8
LAYER-1
 66
  1
 70
  0
 62
  7
 10
2.255546
 20
5.034438
 30
0.000000
  0
VERTEX
  8
LAYER-1
 10
2.255546
 20
5.034438
 30
0.000000
  0
VERTEX
  8
LAYER-1
 10
2.260218
 20
5.034438
 30
0.000000
  0
SEQEND
  8
LAYER-1
  0
POLYLINE
  8
LAYER-1
 66
  1
 70
  0
 62
  7
 10
2.264039
 20
5.030616
 30
0.000000
  0
VERTEX
  8
LAYER-1
 10
2.264039
 20
5.030616
 30
0.000000
  0
VERTEX
  8
LAYER-1
 10
2.260218
 20
5.034438
 30
0.000000
  0
SEQEND
  8
LAYER-1
  0
POLYLINE
  8
LAYER-1
 66
  1
 70
  0
 62
  7
 10
2.264039
 20
5.012907
 30
0.000000
  0
VERTEX
  8
LAYER-1
 10
2.264039
 20
5.012907
 30
0.000000
  0
VERTEX
  8
LAYER-1
 10
2.264039
 20
5.030616
 30
0.000000
  0
SEQEND
  8
LAYER-1
  0
POLYLINE
  8
LAYER-1
 66
  1
 70
  0
 62
  7
 10
2.264039
 20
5.012907
 30
0.000000
  0
VERTEX
  8
LAYER-1
 10
2.264039
 20
5.012907
 30
0.000000
  0
VERTEX
  8
LAYER-1
 10
2.291944
 20
5.012907
 30
0.000000
  0
SEQEND
  8
LAYER-1
  0
POLYLINE
  8
LAYER-1
 66
  1
 70
  0
 62
  7
 10
2.291944
 20
5.012907
 30
0.000000
  0
VERTEX
  8
LAYER-1
 10
2.291944
 20
5.012907
 30
0.000000
  0
VERTEX
  8
LAYER-1
 10
2.291944
 20
5.030616
 30
0.000000
  0
SEQEND
  8
LAYER-1
  0
POLYLINE
  8
LAYER-1
 66
  1
 70
  0
 62
  7
 10
2.295766
 20
5.034438
 30
0.000000
  0
VERTEX
  8
LAYER-1
 10
2.295766
 20
5.034438
 30
0.000000
  0
VERTEX
  8
LAYER-1
 10
2.291944
 20
5.030616
 30
0.000000
  0
SEQEND
  8
LAYER-1
  0
POLYLINE
  8
LAYER-1
 66
  1
 70
  0
 62
  7
 10
2.300437
 20
5.034438
 30
0.000000
  0
VERTEX
  8
LAYER-1
 10
2.300437
 20
5.034438
 30
0.000000
  0
VERTEX
  8
LAYER-1
 10
2.295766
 20
5.034438
 30
0.000000
  0
SEQEND
  8
LAYER-1
  0
POLYLINE
  8
LAYER-1
 66
  1
 70
  0
 62
  7
 10
2.301986
 20
5.032885
 30
0.000000
  0
VERTEX
  8
LAYER-1
 10
2.301986
 20
5.032885
 30
0.000000
  0
VERTEX
  8
LAYER-1
 10
2.300437
 20
5.034434
 30
0.000000
  0
SEQEND
  8
LAYER-1
  0
POLYLINE
  8
LAYER-1
 66
  1
 70
  0
 62
  7
 10
2.300437
 20
5.031350
 30
0.000000
  0
VERTEX
  8
LAYER-1
 10
2.300437
 20
5.031350
 30
0.000000
  0
VERTEX
  8
LAYER-1
 10
2.301986
 20
5.032900
 30
0.000000
  0
SEQEND
  8
LAYER-1
  0
POLYLINE
  8
LAYER-1
 66
  1
 70
  0
 62
  7
 10
2.298223
 20
5.031347
 30
0.000000
  0
VERTEX
  8
LAYER-1
 10
2.298223
 20
5.031347
 30
0.000000
  0
VERTEX
  8
LAYER-1
 10
2.300437
 20
5.031347
 30
0.000000
  0
SEQEND
  8
LAYER-1
  0
POLYLINE
  8
LAYER-1
 66
  1
 70
  0
 62
  7
 10
2.298223
 20
5.031348
 30
0.000000
  0
VERTEX
  8
LAYER-1
 10
2.298223
 20
5.031348
 30
0.000000
  0
VERTEX
  8
LAYER-1
 10
2.296184
 20
5.029309
 30
0.000000
  0
SEQEND
  8
LAYER-1
  0
POLYLINE
  8
LAYER-1
 66
  1
 70
  0
 62
  7
 10
2.296181
 20
5.012907
 30
0.000000
  0
VERTEX
  8
LAYER-1
 10
2.296181
 20
5.012907
 30
0.000000
  0
VERTEX
  8
LAYER-1
 10
2.296181
 20
5.029309
 30
0.000000
  0
SEQEND
  8
LAYER-1
  0
POLYLINE
  8
LAYER-1
 66
  1
 70
  0
 62
  7
 10
2.304855
 20
5.012907
 30
0.000000
  0
VERTEX
  8
LAYER-1
 10
2.304855
 20
5.012907
 30
0.000000
  0
VERTEX
  8
LAYER-1
 10
2.296181
 20
5.012907
 30
0.000000
  0
SEQEND
  8
LAYER-1
  0
POLYLINE
  8
LAYER-1
 66
  1
 70
  0
 62
  7
 10
2.304855
 20
5.018428
 30
0.000000
  0
VERTEX
  8
LAYER-1
 10
2.304855
 20
5.018428
 30
0.000000
  0
VERTEX
  8
LAYER-1
 10
2.304855
 20
5.012907
 30
0.000000
  0
SEQEND
  8
LAYER-1
  0
POLYLINE
  8
LAYER-1
 66
  1
 70
  0
 62
  7
 10
2.330226
 20
5.018428
 30
0.000000
  0
VERTEX
  8
LAYER-1
 10
2.330226
 20
5.018428
 30
0.000000
  0
VERTEX
  8
LAYER-1
 10
2.304855
 20
5.018428
 30
0.000000
  0
SEQEND
  8
LAYER-1
  0
POLYLINE
  8
LAYER-1
 66
  1
 70
  0
 62
  7
 10
2.330226
 20
5.018428
 30
0.000000
  0
VERTEX
  8
LAYER-1
 10
2.330226
 20
5.018428
 30
0.000000
  0
VERTEX
  8
LAYER-1
 10
2.330226
 20
5.015991
 30
0.000000
  0
SEQEND
  8
LAYER-1
  0
POLYLINE
  8
LAYER-1
 66
  1
 70
  0
 62
  7
 10
2.322583
 20
5.008346
 30
0.000000
  0
VERTEX
  8
LAYER-1
 10
2.322583
 20
5.008346
 30
0.000000
  0
VERTEX
  8
LAYER-1
 10
2.330227
 20
5.015991
 30
0.000000
  0
SEQEND
  8
LAYER-1
  0
POLYLINE
  8
LAYER-1
 66
  1
 70
  0
 62
  7
 10
2.233400
 20
5.008347
 30
0.000000
  0
VERTEX
  8
LAYER-1
 10
2.233400
 20
5.008347
 30
0.000000
  0
VERTEX
  8
LAYER-1
 10
2.322583
 20
5.008347
 30
0.000000
  0
SEQEND
  8
LAYER-1
  0
POLYLINE
  8
LAYER-1
 66
  1
 70
  0
 62
  7
 10
2.225756
 20
5.015991
 30
0.000000
  0
VERTEX
  8
LAYER-1
 10
2.225756
 20
5.015991
 30
0.000000
  0
VERTEX
  8
LAYER-1
 10
2.233400
 20
5.008346
 30
0.000000
  0
SEQEND
  8
LAYER-1
  0
POLYLINE
  8
LAYER-1
 66
  1
 70
  0
 62
  7
 10
2.225757
 20
5.018428
 30
0.000000
  0
VERTEX
  8
LAYER-1
 10
2.225757
 20
5.018428
 30
0.000000
  0
VERTEX
  8
LAYER-1
 10
2.225757
 20
5.015991
 30
0.000000
  0
SEQEND
  8
LAYER-1
  0
POLYLINE
  8
LAYER-1
 66
  1
 70
  0
 62
  7
 10
2.225757
 20
5.018428
 30
0.000000
  0
VERTEX
  8
LAYER-1
 10
2.225757
 20
5.018428
 30
0.000000
  0
VERTEX
  8
LAYER-1
 10
2.251129
 20
5.018428
 30
0.000000
  0
SEQEND
  8
LAYER-1
  0
POLYLINE
  8
LAYER-1
 66
  1
 70
  0
 62
  7
 10
2.251129
 20
5.018428
 30
0.000000
  0
VERTEX
  8
LAYER-1
 10
2.251129
 20
5.018428
 30
0.000000
  0
VERTEX
  8
LAYER-1
 10
2.251129
 20
5.012907
 30
0.000000
  0
SEQEND
  8
LAYER-1
  0
POLYLINE
  8
LAYER-1
 66
  1
 70
  0
 62
  7
 10
2.251129
 20
5.012907
 30
0.000000
  0
VERTEX
  8
LAYER-1
 10
2.251129
 20
5.012907
 30
0.000000
  0
VERTEX
  8
LAYER-1
 10
2.259802
 20
5.012907
 30
0.000000
  0
SEQEND
  8
LAYER-1
  0
POLYLINE
  8
LAYER-1
 66
  1
 70
  0
 62
  7
 10
2.259802
 20
5.012907
 30
0.000000
  0
VERTEX
  8
LAYER-1
 10
2.259802
 20
5.012907
 30
0.000000
  0
VERTEX
  8
LAYER-1
 10
2.259802
 20
5.029309
 30
0.000000
  0
SEQEND
  8
LAYER-1
  0
CIRCLE
  8
LAYER-1
 62
  7
 10
2.277411
 20
5.257333
 30
0.000000
 40
0.007145
  0
POLYLINE
  8
LAYER-1
 66
  1
 70
  0
 62
  7
 10
2.271197
 20
5.268561
 30
0.000000
  0
VERTEX
  8
LAYER-1
 10
2.271197
 20
5.268561
 30
0.000000
  0
VERTEX
  8
LAYER-1
 10
2.263094
 20
5.262851
 30
0.000000
  0
VERTEX
  8
LAYER-1
 10
2.264812
 20
5.254776
 30
0.000000
  0
SEQEND
  8
LAYER-1
  0
POLYLINE
  8
LAYER-1
 66
  1
 70
  0
 62
  7
 10
2.271198
 20
5.268559
 30
0.000000
  0
VERTEX
  8
LAYER-1
 10
2.271198
 20
5.268559
 30
0.000000
  0
VERTEX
  8
LAYER-1
 10
2.273397
 20
5.268559
 30
0.000000
  0
SEQEND
  8
LAYER-1
  0
POLYLINE
  8
LAYER-1
 66
  1
 70
  0
 62
  7
 10
2.273886
 20
5.263561
 30
0.000000
  0
VERTEX
  8
LAYER-1
 10
2.273886
 20
5.263561
 30
0.000000
  0
VERTEX
  8
LAYER-1
 10
2.273397
 20
5.268559
 30
0.000000
  0
SEQEND
  8
LAYER-1
  0
POLYLINE
  8
LAYER-1
 66
  1
 70
  0
 62
  7
 10
2.273885
 20
5.263562
 30
0.000000
  0
VERTEX
  8
LAYER-1
 10
2.273885
 20
5.263562
 30
0.000000
  0
VERTEX
  8
LAYER-1
 10
2.280922
 20
5.263557
 30
0.000000
  0
SEQEND
  8
LAYER-1
  0
POLYLINE
  8
LAYER-1
 66
  1
 70
  0
 62
  7
 10
2.280921
 20
5.263557
 30
0.000000
  0
VERTEX
  8
LAYER-1
 10
2.280921
 20
5.263557
 30
0.000000
  0
VERTEX
  8
LAYER-1
 10
2.281413
 20
5.268559
 30
0.000000
  0
SEQEND
  8
LAYER-1
  0
POLYLINE
  8
LAYER-1
 66
  1
 70
  0
 62
  7
 10
2.283613
 20
5.268559
 30
0.000000
  0
VERTEX
  8
LAYER-1
 10
2.283613
 20
5.268559
 30
0.000000
  0
VERTEX
  8
LAYER-1
 10
2.281413
 20
5.268559
 30
0.000000
  0
SEQEND
  8
LAYER-1
  0
POLYLINE
  8
LAYER-1
 66
  1
 70
  0
 62
  7
 10
2.289999
 20
5.254778
 30
0.000000
  0
VERTEX
  8
LAYER-1
 10
2.289999
 20
5.254778
 30
0.000000
  0
VERTEX
  8
LAYER-1
 10
2.286139
 20
5.266391
 30
0.000000
  0
VERTEX
  8
LAYER-1
 10
2.283614
 20
5.268561
 30
0.000000
  0
SEQEND
  8
LAYER-1
  0
POLYLINE
  8
LAYER-1
 66
  1
 70
  0
 62
  7
 10
2.290004
 20
5.254774
 30
0.000000
  0
VERTEX
  8
LAYER-1
 10
2.290004
 20
5.254774
 30
0.000000
  0
VERTEX
  8
LAYER-1
 10
2.293163
 20
5.250902
 30
0.000000
  0
SEQEND
  8
LAYER-1
  0
POLYLINE
  8
LAYER-1
 66
  1
 70
  0
 62
  7
 10
2.306797
 20
5.250904
 30
0.000000
  0
VERTEX
  8
LAYER-1
 10
2.306797
 20
5.250904
 30
0.000000
  0
VERTEX
  8
LAYER-1
 10
2.293163
 20
5.250904
 30
0.000000
  0
SEQEND
  8
LAYER-1
  0
POLYLINE
  8
LAYER-1
 66
  1
 70
  0
 62
  7
 10
2.306797
 20
5.246106
 30
0.000000
  0
VERTEX
  8
LAYER-1
 10
2.306797
 20
5.246106
 30
0.000000
  0
VERTEX
  8
LAYER-1
 10
2.306797
 20
5.250904
 30
0.000000
  0
SEQEND
  8
LAYER-1
  0
POLYLINE
  8
LAYER-1
 66
  1
 70
  0
 62
  7
 10
2.299092
 20
5.246106
 30
0.000000
  0
VERTEX
  8
LAYER-1
 10
2.299092
 20
5.246106
 30
0.000000
  0
VERTEX
  8
LAYER-1
 10
2.306797
 20
5.246106
 30
0.000000
  0
SEQEND
  8
LAYER-1
  0
POLYLINE
  8
LAYER-1
 66
  1
 70
  0
 62
  7
 10
2.299092
 20
5.246100
 30
0.000000
  0
VERTEX
  8
LAYER-1
 10
2.299092
 20
5.246100
 30
0.000000
  0
VERTEX
  8
LAYER-1
 10
2.299092
 20
5.239652
 30
0.000000
  0
SEQEND
  8
LAYER-1
  0
POLYLINE
  8
LAYER-1
 66
  1
 70
  0
 62
  7
 10
2.306797
 20
5.239654
 30
0.000000
  0
VERTEX
  8
LAYER-1
 10
2.306797
 20
5.239654
 30
0.000000
  0
VERTEX
  8
LAYER-1
 10
2.299092
 20
5.239654
 30
0.000000
  0
SEQEND
  8
LAYER-1
  0
POLYLINE
  8
LAYER-1
 66
  1
 70
  0
 62
  7
 10
2.306797
 20
5.234848
 30
0.000000
  0
VERTEX
  8
LAYER-1
 10
2.306797
 20
5.234848
 30
0.000000
  0
VERTEX
  8
LAYER-1
 10
2.306797
 20
5.239654
 30
0.000000
  0
SEQEND
  8
LAYER-1
  0
POLYLINE
  8
LAYER-1
 66
  1
 70
  0
 62
  7
 10
2.291037
 20
5.234848
 30
0.000000
  0
VERTEX
  8
LAYER-1
 10
2.291037
 20
5.234848
 30
0.000000
  0
VERTEX
  8
LAYER-1
 10
2.306797
 20
5.234848
 30
0.000000
  0
SEQEND
  8
LAYER-1
  0
POLYLINE
  8
LAYER-1
 66
  1
 70
  0
 62
  7
 10
2.291038
 20
5.234849
 30
0.000000
  0
VERTEX
  8
LAYER-1
 10
2.291038
 20
5.234849
 30
0.000000
  0
VERTEX
  8
LAYER-1
 10
2.283193
 20
5.245682
 30
0.000000
  0
VERTEX
  8
LAYER-1
 10
2.272770
 20
5.247795
 30
0.000000
  0
VERTEX
  8
LAYER-1
 10
2.263905
 20
5.241918
 30
0.000000
  0
VERTEX
  8
LAYER-1
 10
2.263761
 20
5.234851
 30
0.000000
  0
SEQEND
  8
LAYER-1
  0
POLYLINE
  8
LAYER-1
 66
  1
 70
  0
 62
  7
 10
2.263762
 20
5.234848
 30
0.000000
  0
VERTEX
  8
LAYER-1
 10
2.263762
 20
5.234848
 30
0.000000
  0
VERTEX
  8
LAYER-1
 10
2.248014
 20
5.234848
 30
0.000000
  0
SEQEND
  8
LAYER-1
  0
POLYLINE
  8
LAYER-1
 66
  1
 70
  0
 62
  7
 10
2.248014
 20
5.234848
 30
0.000000
  0
VERTEX
  8
LAYER-1
 10
2.248014
 20
5.234848
 30
0.000000
  0
VERTEX
  8
LAYER-1
 10
2.248014
 20
5.239654
 30
0.000000
  0
SEQEND
  8
LAYER-1
  0
POLYLINE
  8
LAYER-1
 66
  1
 70
  0
 62
  7
 10
2.248014
 20
5.239654
 30
0.000000
  0
VERTEX
  8
LAYER-1
 10
2.248014
 20
5.239654
 30
0.000000
  0
VERTEX
  8
LAYER-1
 10
2.255715
 20
5.239654
 30
0.000000
  0
SEQEND
  8
LAYER-1
  0
POLYLINE
  8
LAYER-1
 66
  1
 70
  0
 62
  7
 10
2.255715
 20
5.239652
 30
0.000000
  0
VERTEX
  8
LAYER-1
 10
2.255715
 20
5.239652
 30
0.000000
  0
VERTEX
  8
LAYER-1
 10
2.255715
 20
5.246100
 30
0.000000
  0
SEQEND
  8
LAYER-1
  0
POLYLINE
  8
LAYER-1
 66
  1
 70
  0
 62
  7
 10
2.255715
 20
5.246106
 30
0.000000
  0
VERTEX
  8
LAYER-1
 10
2.255715
 20
5.246106
 30
0.000000
  0
VERTEX
  8
LAYER-1
 10
2.248014
 20
5.246106
 30
0.000000
  0
SEQEND
  8
LAYER-1
  0
POLYLINE
  8
LAYER-1
 66
  1
 70
  0
 62
  7
 10
2.248014
 20
5.246106
 30
0.000000
  0
VERTEX
  8
LAYER-1
 10
2.248014
 20
5.246106
 30
0.000000
  0
VERTEX
  8
LAYER-1
 10
2.248014
 20
5.250904
 30
0.000000
  0
SEQEND
  8
LAYER-1
  0
POLYLINE
  8
LAYER-1
 66
  1
 70
  0
 62
  7
 10
2.248014
 20
5.250904
 30
0.000000
  0
VERTEX
  8
LAYER-1
 10
2.248014
 20
5.250904
 30
0.000000
  0
VERTEX
  8
LAYER-1
 10
2.261644
 20
5.250904
 30
0.000000
  0
SEQEND
  8
LAYER-1
  0
POLYLINE
  8
LAYER-1
 66
  1
 70
  0
 62
  7
 10
2.261644
 20
5.250902
 30
0.000000
  0
VERTEX
  8
LAYER-1
 10
2.261644
 20
5.250902
 30
0.000000
  0
VERTEX
  8
LAYER-1
 10
2.264803
 20
5.254772
 30
0.000000
  0
SEQEND
  8
LAYER-1
  0
POLYLINE
  8
LAYER-1
 66
  1
 70
  1
 62
  7
  0
VERTEX
  8
LAYER-1
 10
2.224938
 20
5.252057
 30
0.000000
  0
VERTEX
  8
LAYER-1
 10
2.330226
 20
5.252057
 30
0.000000
  0
VERTEX
  8
LAYER-1
 10
2.330226
 20
5.018428
 30
0.000000
  0
VERTEX
  8
LAYER-1
 10
2.224938
 20
5.018428
 30
0.000000
  0
SEQEND
  8
LAYER-1
  0
POLYLINE
  8
LAYER-1
 66
  1
 70
  0
 62
  7
 10
2.277411
 20
5.257333
 30
0.000000
  0
VERTEX
  8
LAYER-1
 10
2.277411
 20
5.257333
 30
0.000000
  0
VERTEX
  8
LAYER-1
 10
2.277392
 20
5.257333
 30
0.000000
  0
SEQEND
  8
LAYER-1
  0
POLYLINE
  8
LAYER-1
 66
  1
 70
  0
 62
  7
 10
2.363379
 20
5.225436
 30
0.000000
  0
VERTEX
  8
LAYER-1
 10
2.363379
 20
5.225436
 30
0.000000
  0
VERTEX
  8
LAYER-1
 10
2.365079
 20
5.225436
 30
0.000000
  0
SEQEND
  8
LAYER-1
  0
POLYLINE
  8
LAYER-1
 66
  1
 70
  0
 62
  7
 10
2.365079
 20
5.225436
 30
0.000000
  0
VERTEX
  8
LAYER-1
 10
2.365079
 20
5.225436
 30
0.000000
  0
VERTEX
  8
LAYER-1
 10
2.365079
 20
5.115024
 30
0.000000
  0
SEQEND
  8
LAYER-1
  0
POLYLINE
  8
LAYER-1
 66
  1
 70
  0
 62
  7
 10
2.365079
 20
5.115024
 30
0.000000
  0
VERTEX
  8
LAYER-1
 10
2.365079
 20
5.115024
 30
0.000000
  0
VERTEX
  8
LAYER-1
 10
2.363379
 20
5.115024
 30
0.000000
  0
SEQEND
  8
LAYER-1
  0
POLYLINE
  8
LAYER-1
 66
  1
 70
  0
 62
  7
 10
2.373418
 20
5.219769
 30
0.000000
  0
VERTEX
  8
LAYER-1
 10
2.373418
 20
5.219769
 30
0.000000
  0
VERTEX
  8
LAYER-1
 10
2.373418
 20
5.120690
 30
0.000000
  0
SEQEND
  8
LAYER-1
  0
POLYLINE
  8
LAYER-1
 66
  1
 70
  0
 62
  7
 10
2.375117
 20
5.172571
 30
0.000000
  0
VERTEX
  8
LAYER-1
 10
2.375117
 20
5.172571
 30
0.000000
  0
VERTEX
  8
LAYER-1
 10
2.375117
 20
5.128534
 30
0.000000
  0
SEQEND
  8
LAYER-1
  0
POLYLINE
  8
LAYER-1
 66
  1
 70
  0
 62
  7
 10
2.373572
 20
5.219769
 30
0.000000
  0
VERTEX
  8
LAYER-1
 10
2.373572
 20
5.219769
 30
0.000000
  0
VERTEX
  8
LAYER-1
 10
2.365079
 20
5.225436
 30
0.000000
  0
SEQEND
  8
LAYER-1
  0
POLYLINE
  8
LAYER-1
 66
  1
 70
  0
 62
  7
 10
2.373572
 20
5.120690
 30
0.000000
  0
VERTEX
  8
LAYER-1
 10
2.373572
 20
5.120690
 30
0.000000
  0
VERTEX
  8
LAYER-1
 10
2.365079
 20
5.115024
 30
0.000000
  0
SEQEND
  8
LAYER-1
  0
POLYLINE
  8
LAYER-1
 66
  1
 70
  0
 62
  7
 10
2.375117
 20
5.172571
 30
0.000000
  0
VERTEX
  8
LAYER-1
 10
2.375117
 20
5.172571
 30
0.000000
  0
VERTEX
  8
LAYER-1
 10
2.373418
 20
5.172571
 30
0.000000
  0
SEQEND
  8
LAYER-1
  0
POLYLINE
  8
LAYER-1
 66
  1
 70
  0
 62
  7
 10
2.375117
 20
5.128534
 30
0.000000
  0
VERTEX
  8
LAYER-1
 10
2.375117
 20
5.128534
 30
0.000000
  0
VERTEX
  8
LAYER-1
 10
2.373418
 20
5.128534
 30
0.000000
  0
SEQEND
  8
LAYER-1
  0
POLYLINE
  8
LAYER-1
 66
  1
 70
  0
 62
  7
 10
2.330618
 20
5.245122
 30
0.000000
  0
VERTEX
  8
LAYER-1
 10
2.330618
 20
5.245122
 30
0.000000
  0
VERTEX
  8
LAYER-1
 10
2.360984
 20
5.232030
 30
0.000000
  0
SEQEND
  8
LAYER-1
  0
POLYLINE
  8
LAYER-1
 66
  1
 70
  0
 62
  7
 10
2.363278
 20
5.228539
 30
0.000000
  0
VERTEX
  8
LAYER-1
 10
2.363278
 20
5.228539
 30
0.000000
  0
VERTEX
  8
LAYER-1
 10
2.360982
 20
5.232030
 30
0.000000
  0
SEQEND
  8
LAYER-1
  0
POLYLINE
  8
LAYER-1
 66
  1
 70
  0
 62
  7
 10
2.363279
 20
5.228539
 30
0.000000
  0
VERTEX
  8
LAYER-1
 10
2.363279
 20
5.228539
 30
0.000000
  0
VERTEX
  8
LAYER-1
 10
2.363279
 20
5.111371
 30
0.000000
  0
SEQEND
  8
LAYER-1
  0
POLYLINE
  8
LAYER-1
 66
  1
 70
  0
 62
  7
 10
2.360931
 20
5.107858
 30
0.000000
  0
VERTEX
  8
LAYER-1
 10
2.360931
 20
5.107858
 30
0.000000
  0
VERTEX
  8
LAYER-1
 10
2.363278
 20
5.111371
 30
0.000000
  0
SEQEND
  8
LAYER-1
  0
POLYLINE
  8
LAYER-1
 66
  1
 70
  0
 62
  7
 10
2.330618
 20
5.095315
 30
0.000000
  0
VERTEX
  8
LAYER-1
 10
2.330618
 20
5.095315
 30
0.000000
  0
VERTEX
  8
LAYER-1
 10
2.360934
 20
5.107857
 30
0.000000
  0
SEQEND
  8
LAYER-1
  0
POLYLINE
  8
LAYER-1
 66
  1
 70
  0
 62
  7
 10
2.330618
 20
5.095315
 30
0.000000
  0
VERTEX
  8
LAYER-1
 10
2.330618
 20
5.095315
 30
0.000000
  0
VERTEX
  8
LAYER-1
 10
2.330618
 20
5.245122
 30
0.000000
  0
SEQEND
  8
LAYER-1
  0
POLYLINE
  8
LAYER-1
 66
  1
 70
  0
 62
  9
 10
2.409920
 20
5.184202
 30
0.000000
  0
VERTEX
  8
LAYER-1
 10
2.409920
 20
5.184202
 30
0.000000
  0
VERTEX
  8
LAYER-1
 10
2.354813
 20
5.144897
 30
0.000000
  0
SEQEND
  8
LAYER-1
  0
POLYLINE
  8
LAYER-1
 66
  1
 70
  0
 62
  9
 10
2.330584
 20
5.157377
 30
0.000000
  0
VERTEX
  8
LAYER-1
 10
2.330584
 20
5.157377
 30
0.000000
  0
VERTEX
  8
LAYER-1
 10
2.333105
 20
5.148506
 30
0.000000
  0
VERTEX
  8
LAYER-1
 10
2.343944
 20
5.144016
 30
0.000000
  0
VERTEX
  8
LAYER-1
 10
2.354813
 20
5.144896
 30
0.000000
  0
SEQEND
  8
LAYER-1
  0
POLYLINE
  8
LAYER-1
 66
  1
 70
  0
 62
  9
 10
2.330584
 20
5.157377
 30
0.000000
  0
VERTEX
  8
LAYER-1
 10
2.330584
 20
5.157377
 30
0.000000
  0
VERTEX
  8
LAYER-1
 10
2.330584
 20
5.252342
 30
0.000000
  0
SEQEND
  8
LAYER-1
  0
POLYLINE
  8
LAYER-1
 66
  1
 70
  0
 62
  9
 10
2.330584
 20
5.252342
 30
0.000000
  0
VERTEX
  8
LAYER-1
 10
2.330584
 20
5.252342
 30
0.000000
  0
VERTEX
  8
LAYER-1
 10
2.323144
 20
5.252380
 30
0.000000
  0
SEQEND
  8
LAYER-1
  0
POLYLINE
  8
LAYER-1
 66
  1
 70
  0
 62
  9
 10
2.339978
 20
5.252398
 30
0.000000
  0
VERTEX
  8
LAYER-1
 10
2.339978
 20
5.252398
 30
0.000000
  0
VERTEX
  8
LAYER-1
 10
2.329536
 20
5.262727
 30
0.000000
  0
VERTEX
  8
LAYER-1
 10
2.323143
 20
5.252381
 30
0.000000
  0
SEQEND
  8
LAYER-1
  0
POLYLINE
  8
LAYER-1
 66
  1
 70
  0
 62
  9
 10
2.339976
 20
5.252396
 30
0.000000
  0
VERTEX
  8
LAYER-1
 10
2.339976
 20
5.252396
 30
0.000000
  0
VERTEX
  8
LAYER-1
 10
2.339926
 20
5.156008
 30
0.000000
  0
SEQEND
  8
LAYER-1
  0
POLYLINE
  8
LAYER-1
 66
  1
 70
  0
 62
  9
 10
2.339927
 20
5.156008
 30
0.000000
  0
VERTEX
  8
LAYER-1
 10
2.339927
 20
5.156008
 30
0.000000
  0
VERTEX
  8
LAYER-1
 10
2.347918
 20
5.151893
 30
0.000000
  0
SEQEND
  8
LAYER-1
  0
POLYLINE
  8
LAYER-1
 66
  1
 70
  0
 62
  9
 10
2.404280
 20
5.192079
 30
0.000000
  0
VERTEX
  8
LAYER-1
 10
2.404280
 20
5.192079
 30
0.000000
  0
VERTEX
  8
LAYER-1
 10
2.347916
 20
5.151887
 30
0.000000
  0
SEQEND
  8
LAYER-1
  0
POLYLINE
  8
LAYER-1
 66
  1
 70
  0
 62
  9
 10
2.409920
 20
5.184199
 30
0.000000
  0
VERTEX
  8
LAYER-1
 10
2.409920
 20
5.184199
 30
0.000000
  0
VERTEX
  8
LAYER-1
 10
2.404280
 20
5.192080
 30
0.000000
  0
SEQEND
  8
LAYER-1
  0
POLYLINE
  8
LAYER-1
 66
  1
 70
  0
 62
  7
 10
2.191608
 20
5.225436
 30
0.000000
  0
VERTEX
  8
LAYER-1
 10
2.191608
 20
5.225436
 30
0.000000
  0
VERTEX
  8
LAYER-1
 10
2.189909
 20
5.225436
 30
0.000000
  0
SEQEND
  8
LAYER-1
  0
POLYLINE
  8
LAYER-1
 66
  1
 70
  0
 62
  7
 10
2.189909
 20
5.225436
 30
0.000000
  0
VERTEX
  8
LAYER-1
 10
2.189909
 20
5.225436
 30
0.000000
  0
VERTEX
  8
LAYER-1
 10
2.189909
 20
5.115024
 30
0.000000
  0
SEQEND
  8
LAYER-1
  0
POLYLINE
  8
LAYER-1
 66
  1
 70
  0
 62
  7
 10
2.189909
 20
5.115024
 30
0.000000
  0
VERTEX
  8
LAYER-1
 10
2.189909
 20
5.115024
 30
0.000000
  0
VERTEX
  8
LAYER-1
 10
2.191608
 20
5.115024
 30
0.000000
  0
SEQEND
  8
LAYER-1
  0
POLYLINE
  8
LAYER-1
 66
  1
 70
  0
 62
  7
 10
2.181566
 20
5.219769
 30
0.000000
  0
VERTEX
  8
LAYER-1
 10
2.181566
 20
5.219769
 30
0.000000
  0
VERTEX
  8
LAYER-1
 10
2.181566
 20
5.120690
 30
0.000000
  0
SEQEND
  8
LAYER-1
  0
POLYLINE
  8
LAYER-1
 66
  1
 70
  0
 62
  7
 10
2.179866
 20
5.172571
 30
0.000000
  0
VERTEX
  8
LAYER-1
 10
2.179866
 20
5.172571
 30
0.000000
  0
VERTEX
  8
LAYER-1
 10
2.179866
 20
5.128534
 30
0.000000
  0
SEQEND
  8
LAYER-1
  0
POLYLINE
  8
LAYER-1
 66
  1
 70
  0
 62
  7
 10
2.181416
 20
5.219769
 30
0.000000
  0
VERTEX
  8
LAYER-1
 10
2.181416
 20
5.219769
 30
0.000000
  0
VERTEX
  8
LAYER-1
 10
2.189909
 20
5.225436
 30
0.000000
  0
SEQEND
  8
LAYER-1
  0
POLYLINE
  8
LAYER-1
 66
  1
 70
  0
 62
  7
 10
2.181416
 20
5.120690
 30
0.000000
  0
VERTEX
  8
LAYER-1
 10
2.181416
 20
5.120690
 30
0.000000
  0
VERTEX
  8
LAYER-1
 10
2.189909
 20
5.115024
 30
0.000000
  0
SEQEND
  8
LAYER-1
  0
POLYLINE
  8
LAYER-1
 66
  1
 70
  0
 62
  7
 10
2.179866
 20
5.172571
 30
0.000000
  0
VERTEX
  8
LAYER-1
 10
2.179866
 20
5.172571
 30
0.000000
  0
VERTEX
  8
LAYER-1
 10
2.181566
 20
5.172571
 30
0.000000
  0
SEQEND
  8
LAYER-1
  0
POLYLINE
  8
LAYER-1
 66
  1
 70
  0
 62
  7
 10
2.179866
 20
5.128534
 30
0.000000
  0
VERTEX
  8
LAYER-1
 10
2.179866
 20
5.128534
 30
0.000000
  0
VERTEX
  8
LAYER-1
 10
2.181566
 20
5.128534
 30
0.000000
  0
SEQEND
  8
LAYER-1
  0
POLYLINE
  8
LAYER-1
 66
  1
 70
  0
 62
  7
 10
2.224369
 20
5.245122
 30
0.000000
  0
VERTEX
  8
LAYER-1
 10
2.224369
 20
5.245122
 30
0.000000
  0
VERTEX
  8
LAYER-1
 10
2.194000
 20
5.232030
 30
0.000000
  0
SEQEND
  8
LAYER-1
  0
POLYLINE
  8
LAYER-1
 66
  1
 70
  0
 62
  7
 10
2.194002
 20
5.232030
 30
0.000000
  0
VERTEX
  8
LAYER-1
 10
2.194002
 20
5.232030
 30
0.000000
  0
VERTEX
  8
LAYER-1
 10
2.191705
 20
5.228539
 30
0.000000
  0
SEQEND
  8
LAYER-1
  0
POLYLINE
  8
LAYER-1
 66
  1
 70
  0
 62
  7
 10
2.191704
 20
5.228539
 30
0.000000
  0
VERTEX
  8
LAYER-1
 10
2.191704
 20
5.228539
 30
0.000000
  0
VERTEX
  8
LAYER-1
 10
2.191704
 20
5.111371
 30
0.000000
  0
SEQEND
  8
LAYER-1
  0
POLYLINE
  8
LAYER-1
 66
  1
 70
  0
 62
  7
 10
2.191705
 20
5.111371
 30
0.000000
  0
VERTEX
  8
LAYER-1
 10
2.191705
 20
5.111371
 30
0.000000
  0
VERTEX
  8
LAYER-1
 10
2.194053
 20
5.107858
 30
0.000000
  0
SEQEND
  8
LAYER-1
  0
POLYLINE
  8
LAYER-1
 66
  1
 70
  0
 62
  7
 10
2.224369
 20
5.095315
 30
0.000000
  0
VERTEX
  8
LAYER-1
 10
2.224369
 20
5.095315
 30
0.000000
  0
VERTEX
  8
LAYER-1
 10
2.194054
 20
5.107857
 30
0.000000
  0
SEQEND
  8
LAYER-1
  0
POLYLINE
  8
LAYER-1
 66
  1
 70
  0
 62
  7
 10
2.224369
 20
5.095315
 30
0.000000
  0
VERTEX
  8
LAYER-1
 10
2.224369
 20
5.095315
 30
0.000000
  0
VERTEX
  8
LAYER-1
 10
2.224369
 20
5.245122
 30
0.000000
  0
SEQEND
  8
LAYER-1
  0
POLYLINE
  8
LAYER-1
 66
  1
 70
  0
 62
  9
 10
2.145068
 20
5.184202
 30
0.000000
  0
VERTEX
  8
LAYER-1
 10
2.145068
 20
5.184202
 30
0.000000
  0
VERTEX
  8
LAYER-1
 10
2.200174
 20
5.144897
 30
0.000000
  0
SEQEND
  8
LAYER-1
  0
POLYLINE
  8
LAYER-1
 66
  1
 70
  0
 62
  9
 10
2.200175
 20
5.144896
 30
0.000000
  0
VERTEX
  8
LAYER-1
 10
2.200175
 20
5.144896
 30
0.000000
  0
VERTEX
  8
LAYER-1
 10
2.209638
 20
5.144227
 30
0.000000
  0
VERTEX
  8
LAYER-1
 10
2.219587
 20
5.150446
 30
0.000000
  0
VERTEX
  8
LAYER-1
 10
2.224404
 20
5.157377
 30
0.000000
  0
SEQEND
  8
LAYER-1
  0
POLYLINE
  8
LAYER-1
 66
  1
 70
  0
 62
  9
 10
2.224404
 20
5.157377
 30
0.000000
  0
VERTEX
  8
LAYER-1
 10
2.224404
 20
5.157377
 30
0.000000
  0
VERTEX
  8
LAYER-1
 10
2.224404
 20
5.252342
 30
0.000000
  0
SEQEND
  8
LAYER-1
  0
POLYLINE
  8
LAYER-1
 66
  1
 70
  0
 62
  9
 10
2.224404
 20
5.252342
 30
0.000000
  0
VERTEX
  8
LAYER-1
 10
2.224404
 20
5.252342
 30
0.000000
  0
VERTEX
  8
LAYER-1
 10
2.231843
 20
5.252380
 30
0.000000
  0
SEQEND
  8
LAYER-1
  0
POLYLINE
  8
LAYER-1
 66
  1
 70
  0
 62
  9
 10
2.231841
 20
5.252381
 30
0.000000
  0
VERTEX
  8
LAYER-1
 10
2.231841
 20
5.252381
 30
0.000000
  0
VERTEX
  8
LAYER-1
 10
2.221415
 20
5.262728
 30
0.000000
  0
VERTEX
  8
LAYER-1
 10
2.215006
 20
5.252398
 30
0.000000
  0
SEQEND
  8
LAYER-1
  0
POLYLINE
  8
LAYER-1
 66
  1
 70
  0
 62
  9
 10
2.215007
 20
5.252396
 30
0.000000
  0
VERTEX
  8
LAYER-1
 10
2.215007
 20
5.252396
 30
0.000000
  0
VERTEX
  8
LAYER-1
 10
2.215061
 20
5.156008
 30
0.000000
  0
SEQEND
  8
LAYER-1
  0
POLYLINE
  8
LAYER-1
 66
  1
 70
  0
 62
  9
 10
2.207070
 20
5.151893
 30
0.000000
  0
VERTEX
  8
LAYER-1
 10
2.207070
 20
5.151893
 30
0.000000
  0
VERTEX
  8
LAYER-1
 10
2.215061
 20
5.156008
 30
0.000000
  0
SEQEND
  8
LAYER-1
  0
POLYLINE
  8
LAYER-1
 66
  1
 70
  0
 62
  9
 10
2.150708
 20
5.192079
 30
0.000000
  0
VERTEX
  8
LAYER-1
 10
2.150708
 20
5.192079
 30
0.000000
  0
VERTEX
  8
LAYER-1
 10
2.207072
 20
5.151887
 30
0.000000
  0
SEQEND
  8
LAYER-1
  0
POLYLINE
  8
LAYER-1
 66
  1
 70
  0
 62
  9
 10
2.150707
 20
5.192080
 30
0.000000
  0
VERTEX
  8
LAYER-1
 10
2.150707
 20
5.192080
 30
0.000000
  0
VERTEX
  8
LAYER-1
 10
2.145068
 20
5.184199
 30
0.000000
  0
SEQEND
  8
LAYER-1
  0
CIRCLE
  8
LAYER-1
 62
  7
 10
2.275930
 20
5.153486
 30
0.000000
 40
0.022842
  0
POLYLINE
  8
LAYER-1
 66
  1
 70
  0
 62
  7
 10
2.554777
 20
5.193150
 30
0.000000
  0
VERTEX
  8
LAYER-1
 10
2.554777
 20
5.193150
 30
0.000000
  0
VERTEX
  8
LAYER-1
 10
2.554777
 20
4.772476
 30
0.000000
  0
SEQEND
  8
LAYER-1
  0
POLYLINE
  8
LAYER-1
 66
  1
 70
  0
 62
  7
 10
2.535092
 20
4.868630
 30
0.000000
  0
VERTEX
  8
LAYER-1
 10
2.535092
 20
4.868630
 30
0.000000
  0
VERTEX
  8
LAYER-1
 10
2.247538
 20
4.868630
 30
0.000000
  0
SEQEND
  8
LAYER-1
  0
POLYLINE
  8
LAYER-1
 66
  1
 70
  1
 62
  7
  0
VERTEX
  8
LAYER-1
 10
2.554777
 20
4.868630
 30
0.000000
  0
VERTEX
  8
LAYER-1
 10
2.509322
 20
4.895902
 30
0.000000
  0
VERTEX
  8
LAYER-1
 10
2.509322
 20
4.868630
 30
0.000000
  0
VERTEX
  8
LAYER-1
 10
2.509322
 20
4.841357
 30
0.000000
  0
VERTEX
  8
LAYER-1
 10
2.554777
 20
4.868630
 30
0.000000
  0
SEQEND
  8
LAYER-1
  0
POLYLINE
  8
LAYER-1
 66
  1
 70
  1
 62
  7
  0
VERTEX
  8
LAYER-1
 10
2.227853
 20
4.868630
 30
0.000000
  0
VERTEX
  8
LAYER-1
 10
2.273308
 20
4.895902
 30
0.000000
  0
VERTEX
  8
LAYER-1
 10
2.273308
 20
4.868630
 30
0.000000
  0
VERTEX
  8
LAYER-1
 10
2.273308
 20
4.841357
 30
0.000000
  0
VERTEX
  8
LAYER-1
 10
2.227853
 20
4.868630
 30
0.000000
  0
SEQEND
  8
LAYER-1
  0
POLYLINE
  8
LAYER-1
 66
  1
 70
  0
 62
  7
 10
1.676304
 20
5.259122
 30
0.000000
  0
VERTEX
  8
LAYER-1
 10
1.676304
 20
5.259122
 30
0.000000
  0
VERTEX
  8
LAYER-1
 10
1.252693
 20
5.259122
 30
0.000000
  0
SEQEND
  8
LAYER-1
  0
POLYLINE
  8
LAYER-1
 66
  1
 70
  0
 62
  7
 10
1.340834
 20
6.231611
 30
0.000000
  0
VERTEX
  8
LAYER-1
 10
1.340834
 20
6.231611
 30
0.000000
  0
VERTEX
  8
LAYER-1
 10
2.208934
 20
5.982238
 30
0.000000
  0
SEQEND
  8
LAYER-1
  0
POLYLINE
  8
LAYER-1
 66
  1
 70
  1
 62
  7
  0
VERTEX
  8
LAYER-1
 10
2.227853
 20
5.976803
 30
0.000000
  0
VERTEX
  8
LAYER-1
 10
2.176636
 20
5.963140
 30
0.000000
  0
VERTEX
  8
LAYER-1
 10
2.184166
 20
5.989353
 30
0.000000
  0
VERTEX
  8
LAYER-1
 10
2.191695
 20
6.015566
 30
0.000000
  0
VERTEX
  8
LAYER-1
 10
2.227853
 20
5.976803
 30
0.000000
  0
SEQEND
  8
LAYER-1
  0
TEXT
  8
LAYER-1
 62
  7
 10
0.443528
 20
3.108198
 30
0.000000
 40
0.150000
  1
CLEAR OPENING
 50
90.000000
 72
  5
 11
0.443528
 21
4.808198
 31
0.000000
  0
LINE
  8
LAYER-1
 62
  7
 10
3.675790
 20
2.628891
 30
0.000000
 11
3.675790
 21
5.475000
 31
0.000000
  0
LINE
  8
LAYER-1
 62
  7
 10
3.411004
 20
2.609206
 30
0.000000
 11
3.800790
 21
2.609206
 31
0.000000
  0
LINE
  8
LAYER-1
 62
  7
 10
2.942025
 20
5.494685
 30
0.000000
 11
3.800790
 21
5.494685
 31
0.000000
  0
POLYLINE
  8
LAYER-1
 66
  1
 70
  1
 62
  7
  0
VERTEX
  8
LAYER-1
 10
3.675790
 20
2.609206
 30
0.000000
  0
VERTEX
  8
LAYER-1
 10
3.703063
 20
2.654661
 30
0.000000
  0
VERTEX
  8
LAYER-1
 10
3.675790
 20
2.654661
 30
0.000000
  0
VERTEX
  8
LAYER-1
 10
3.648517
 20
2.654661
 30
0.000000
  0
VERTEX
  8
LAYER-1
 10
3.675790
 20
2.609206
 30
0.000000
  0
SEQEND
  8
LAYER-1
  0
POLYLINE
  8
LAYER-1
 66
  1
 70
  1
 62
  7
  0
VERTEX
  8
LAYER-1
 10
3.675790
 20
5.494685
 30
0.000000
  0
VERTEX
  8
LAYER-1
 10
3.703063
 20
5.449230
 30
0.000000
  0
VERTEX
  8
LAYER-1
 10
3.675790
 20
5.449230
 30
0.000000
  0
VERTEX
  8
LAYER-1
 10
3.648517
 20
5.449230
 30
0.000000
  0
VERTEX
  8
LAYER-1
 10
3.675790
 20
5.494685
 30
0.000000
  0
SEQEND
  8
LAYER-1
  0
TEXT
  8
LAYER-1
 62
  7
 10
3.578516
 20
3.221290
 30
0.000000
 40
0.095455
  1
   
 50
90.000000
  0
POLYLINE
  8
LAYER-1
 66
  1
 70
  1
 62
  7
 40
0.018182
 41
0.018182
 10
2.223177
 20
0.458422
 30
0.000000
  0
VERTEX
  8
LAYER-1
 10
2.223177
 20
0.458422
 30
0.000000
  0
VERTEX
  8
LAYER-1
 10
2.223377
 20
2.242603
 30
0.000000
  0
VERTEX
  8
LAYER-1
 10
3.348504
 20
2.242603
 30
0.000000
  0
VERTEX
  8
LAYER-1
 10
3.348504
 20
2.609206
 30
0.000000
  0
VERTEX
  8
LAYER-1
 10
1.420108
 20
2.609206
 30
0.000000
  0
VERTEX
  8
LAYER-1
 10
1.420108
 20
2.242603
 30
0.000000
  0
VERTEX
  8
LAYER-1
 10
1.742474
 20
2.242603
 30
0.000000
  0
VERTEX
  8
LAYER-1
 10
1.741609
 20
0.458422
 30
0.000000
  0
SEQEND
  8
LAYER-1
  0
POLYLINE
  8
LAYER-1
 66
  1
 70
  1
 62
  7
  0
VERTEX
  8
LAYER-1
 10
2.339231
 20
0.388593
 30
0.000000
  0
VERTEX
  8
LAYER-1
 10
3.855902
 20
0.388593
 30
0.000000
  0
VERTEX
  8
LAYER-1
 10
3.855902
 20
0.074425
 30
0.000000
  0
VERTEX
  8
LAYER-1
 10
2.339231
 20
0.074425
 30
0.000000
  0
SEQEND
  8
LAYER-1
  0
TEXT
  8
LAYER-1
 62
  7
 10
2.316255
 20
0.108198
 30
0.000000
 40
0.252273
  1
SECTION
 72
  5
 11
3.861710
 21
0.108198
 31
0.000000
  0
ENDSEC
  0
EOF
