  0
SECTION
  2
HEADER
999
MacDraft 5.0\0
  9
$ACADVER
  1
AC1006
  9
$CLAYER
  8
LAYER-1
  9
$EXTMIN
 10
0.000000
 20
0.000000
  9
$EXTMAX
 10
7.299020
 20
9.980464
  9
$FASTZOOM
 70
0
  9
$FILLMODE
 70
1
  0
ENDSEC
  0
SECTION
  2
TABLES
  0
TABLE
  2
LTYPE
 70
16
  0
LTYPE
  2
CONTINUOUS
 70
64
  3
Solid Line
 72
65
 73
0
 40
0.000000
  0
LTYPE
  2
LTYPE01
 70
64
  3
CUSTOM
 72
65
 73
2
 40
0.076923
 49
0.057692
 49
-0.019231
  0
LTYPE
  2
LTYPE02
 70
64
  3
CUSTOM
 72
65
 73
2
 40
0.134615
 49
0.115385
 49
-0.019231
  0
LTYPE
  2
LTYPE03
 70
64
  3
CUSTOM
 72
65
 73
2
 40
0.259615
 49
0.230769
 49
-0.028846
  0
LTYPE
  2
LTYPE04
 70
64
  3
CUSTOM
 72
65
 73
2
 40
0.500000
 49
0.461538
 49
-0.038462
  0
LTYPE
  2
LTYPE05
 70
64
  3
CUSTOM
 72
65
 73
4
 40
0.105769
 49
0.057692
 49
-0.019231
 49
0.009615
 49
-0.019231
  0
LTYPE
  2
LTYPE06
 70
64
  3
CUSTOM
 72
65
 73
4
 40
0.163462
 49
0.115385
 49
-0.019231
 49
0.009615
 49
-0.019231
  0
LTYPE
  2
LTYPE07
 70
64
  3
CUSTOM
 72
65
 73
4
 40
0.307692
 49
0.230769
 49
-0.028846
 49
0.019231
 49
-0.028846
  0
LTYPE
  2
LTYPE08
 70
64
  3
CUSTOM
 72
65
 73
4
 40
0.557692
 49
0.461538
 49
-0.038462
 49
0.019231
 49
-0.038462
  0
LTYPE
  2
LTYPE09
 70
64
  3
CUSTOM
 72
65
 73
6
 40
0.134615
 49
0.057692
 49
-0.019231
 49
0.009615
 49
-0.019231
 49
0.009615
 49
-0.019231
  0
LTYPE
  2
LTYPE10
 70
64
  3
CUSTOM
 72
65
 73
6
 40
0.192308
 49
0.115385
 49
-0.019231
 49
0.009615
 49
-0.019231
 49
0.009615
 49
-0.019231
  0
LTYPE
  2
LTYPE11
 70
64
  3
CUSTOM
 72
65
 73
6
 40
0.346154
 49
0.230769
 49
-0.028846
 49
0.019231
 49
-0.019231
 49
0.019231
 49
-0.028846
  0
LTYPE
  2
LTYPE12
 70
64
  3
CUSTOM
 72
65
 73
6
 40
0.596154
 49
0.461538
 49
-0.038462
 49
0.019231
 49
-0.019231
 49
0.019231
 49
-0.038462
  0
LTYPE
  2
LTYPE13
 70
64
  3
CUSTOM
 72
65
 73
8
 40
0.221154
 49
0.115385
 49
-0.019231
 49
0.009615
 49
-0.019231
 49
0.009615
 49
-0.019231
 49
0.009615
 49
-0.019231
  0
LTYPE
  2
LTYPE14
 70
64
  3
CUSTOM
 72
65
 73
8
 40
0.384615
 49
0.230769
 49
-0.028846
 49
0.019231
 49
-0.019231
 49
0.019231
 49
-0.019231
 49
0.019231
 49
-0.028846
  0
LTYPE
  2
LTYPE15
 70
64
  3
CUSTOM
 72
65
 73
8
 40
0.653846
 49
0.461538
 49
-0.038462
 49
0.019231
 49
-0.028846
 49
0.019231
 49
-0.028846
 49
0.019231
 49
-0.038462
  0
ENDTAB
  0
TABLE
  2
LAYER
 70
1
  0
LAYER
  2
LAYER-1
 70
0
 62
7
  6
CONTINUOUS
  0
ENDTAB
  0
ENDSEC
  0
SECTION
  2
BLOCKS
  0
ENDSEC
  0
SECTION
  2
ENTITIES
  0
POLYLINE
  8
LAYER-1
  6
LTYPE02
 66
  1
 70
  0
 62
253
  6
LTYPE02
 10
3.749542
 20
5.447843
 30
0.000000
  0
VERTEX
  8
LAYER-1
  6
LTYPE02
 10
3.749542
 20
5.447843
 30
0.000000
  0
VERTEX
  8
LAYER-1
  6
LTYPE02
 10
3.749542
 20
5.447843
 30
0.000000
  0
SEQEND
  8
LAYER-1
  0
POLYLINE
  8
LAYER-1
  6
LTYPE02
 66
  1
 70
  0
 62
253
  6
LTYPE02
 10
3.749542
 20
5.447843
 30
0.000000
  0
VERTEX
  8
LAYER-1
  6
LTYPE02
 10
3.749542
 20
5.447843
 30
0.000000
  0
VERTEX
  8
LAYER-1
  6
LTYPE02
 10
3.742408
 20
5.466481
 30
0.000000
  0
VERTEX
  8
LAYER-1
  6
LTYPE02
 10
3.726968
 20
5.474616
 30
0.000000
  0
VERTEX
  8
LAYER-1
  6
LTYPE02
 10
3.721770
 20
5.472174
 30
0.000000
  0
SEQEND
  8
LAYER-1
  0
POLYLINE
  8
LAYER-1
  6
LTYPE02
 66
  1
 70
  0
 62
253
  6
LTYPE02
 10
3.598507
 20
5.483929
 30
0.000000
  0
VERTEX
  8
LAYER-1
  6
LTYPE02
 10
3.598507
 20
5.483929
 30
0.000000
  0
VERTEX
  8
LAYER-1
  6
LTYPE02
 10
3.687538
 20
5.474043
 30
0.000000
  0
VERTEX
  8
LAYER-1
  6
LTYPE02
 10
3.721769
 20
5.472175
 30
0.000000
  0
SEQEND
  8
LAYER-1
  0
POLYLINE
  8
LAYER-1
  6
LTYPE02
 66
  1
 70
  0
 62
253
  6
LTYPE02
 10
3.598507
 20
5.483928
 30
0.000000
  0
VERTEX
  8
LAYER-1
  6
LTYPE02
 10
3.598507
 20
5.483928
 30
0.000000
  0
VERTEX
  8
LAYER-1
  6
LTYPE02
 10
3.579100
 20
5.485220
 30
0.000000
  0
VERTEX
  8
LAYER-1
  6
LTYPE02
 10
3.567247
 20
5.472411
 30
0.000000
  0
VERTEX
  8
LAYER-1
  6
LTYPE02
 10
3.567899
 20
5.464640
 30
0.000000
  0
SEQEND
  8
LAYER-1
  0
POLYLINE
  8
LAYER-1
  6
LTYPE02
 66
  1
 70
  0
 62
253
  6
LTYPE02
 10
3.567898
 20
5.464640
 30
0.000000
  0
VERTEX
  8
LAYER-1
  6
LTYPE02
 10
3.567898
 20
5.464640
 30
0.000000
  0
VERTEX
  8
LAYER-1
  6
LTYPE02
 10
3.567898
 20
5.464640
 30
0.000000
  0
SEQEND
  8
LAYER-1
  0
POLYLINE
  8
LAYER-1
  6
LTYPE02
 66
  1
 70
  0
 62
253
  6
LTYPE02
 10
3.567899
 20
5.464640
 30
0.000000
  0
VERTEX
  8
LAYER-1
  6
LTYPE02
 10
3.567899
 20
5.464640
 30
0.000000
  0
VERTEX
  8
LAYER-1
  6
LTYPE02
 10
3.571096
 20
5.449938
 30
0.000000
  0
VERTEX
  8
LAYER-1
  6
LTYPE02
 10
3.580494
 20
5.442102
 30
0.000000
  0
SEQEND
  8
LAYER-1
  0
POLYLINE
  8
LAYER-1
  6
LTYPE02
 66
  1
 70
  0
 62
253
  6
LTYPE02
 10
3.580493
 20
5.442102
 30
0.000000
  0
VERTEX
  8
LAYER-1
  6
LTYPE02
 10
3.580493
 20
5.442102
 30
0.000000
  0
VERTEX
  8
LAYER-1
  6
LTYPE02
 10
3.665149
 20
5.429581
 30
0.000000
  0
VERTEX
  8
LAYER-1
  6
LTYPE02
 10
3.733107
 20
5.428019
 30
0.000000
  0
SEQEND
  8
LAYER-1
  0
POLYLINE
  8
LAYER-1
  6
LTYPE02
 66
  1
 70
  0
 62
253
  6
LTYPE02
 10
3.733110
 20
5.428020
 30
0.000000
  0
VERTEX
  8
LAYER-1
  6
LTYPE02
 10
3.733110
 20
5.428020
 30
0.000000
  0
VERTEX
  8
LAYER-1
  6
LTYPE02
 10
3.744805
 20
5.440845
 30
0.000000
  0
VERTEX
  8
LAYER-1
  6
LTYPE02
 10
3.749542
 20
5.447843
 30
0.000000
  0
SEQEND
  8
LAYER-1
  0
CIRCLE
  8
LAYER-1
 62
253
  6
LTYPE02
 10
3.705552
 20
5.446889
 30
0.000000
 40
0.037156
  0
CIRCLE
  8
LAYER-1
 62
253
  6
LTYPE02
 10
3.705655
 20
5.447021
 30
0.000000
 40
0.018001
  0
ARC
  8
LAYER-1
 62
  7
 10
4.973012
 20
8.960290
 30
0.000000
 40
0.254425
 50
270.000000
 51
90.000000
  0
POLYLINE
  8
LAYER-1
 66
  1
 70
  0
 62
  7
 10
4.973012
 20
9.214715
 30
0.000000
  0
VERTEX
  8
LAYER-1
 10
4.973012
 20
9.214715
 30
0.000000
  0
VERTEX
  8
LAYER-1
 10
1.308090
 20
9.214715
 30
0.000000
  0
SEQEND
  8
LAYER-1
  0
POLYLINE
  8
LAYER-1
 66
  1
 70
  0
 62
  7
 10
1.308090
 20
9.214715
 30
0.000000
  0
VERTEX
  8
LAYER-1
 10
1.308090
 20
9.214715
 30
0.000000
  0
VERTEX
  8
LAYER-1
 10
1.308090
 20
8.705866
 30
0.000000
  0
SEQEND
  8
LAYER-1
  0
POLYLINE
  8
LAYER-1
 66
  1
 70
  0
 62
  7
 10
4.973012
 20
8.705866
 30
0.000000
  0
VERTEX
  8
LAYER-1
 10
4.973012
 20
8.705866
 30
0.000000
  0
VERTEX
  8
LAYER-1
 10
1.308090
 20
8.705866
 30
0.000000
  0
SEQEND
  8
LAYER-1
  0
TEXT
  8
LAYER-1
 62
  7
 10
3.099925
 20
9.477498
 30
0.000000
 40
0.331731
  1
MobilFlex
 72
  5
 11
5.244156
 21
9.477498
 31
0.000000
  0
POLYLINE
  8
LAYER-1
 66
  1
 70
  1
 62
  7
  0
VERTEX
  8
LAYER-1
 10
1.309594
 20
9.979310
 30
0.000000
  0
VERTEX
  8
LAYER-1
 10
1.547441
 20
9.979310
 30
0.000000
  0
VERTEX
  8
LAYER-1
 10
1.547441
 20
9.462365
 30
0.000000
  0
VERTEX
  8
LAYER-1
 10
1.309594
 20
9.462365
 30
0.000000
  0
SEQEND
  8
LAYER-1
  0
POLYLINE
  8
LAYER-1
 66
  1
 70
  1
 62
  7
  0
VERTEX
  8
LAYER-1
 10
1.622094
 20
9.979310
 30
0.000000
  0
VERTEX
  8
LAYER-1
 10
1.859941
 20
9.979310
 30
0.000000
  0
VERTEX
  8
LAYER-1
 10
1.859941
 20
9.462365
 30
0.000000
  0
VERTEX
  8
LAYER-1
 10
1.622094
 20
9.462365
 30
0.000000
  0
SEQEND
  8
LAYER-1
  0
POLYLINE
  8
LAYER-1
 66
  1
 70
  1
 62
  7
  0
VERTEX
  8
LAYER-1
 10
1.922441
 20
9.979310
 30
0.000000
  0
VERTEX
  8
LAYER-1
 10
2.160288
 20
9.979310
 30
0.000000
  0
VERTEX
  8
LAYER-1
 10
2.160288
 20
9.462365
 30
0.000000
  0
VERTEX
  8
LAYER-1
 10
1.922441
 20
9.462365
 30
0.000000
  0
SEQEND
  8
LAYER-1
  0
POLYLINE
  8
LAYER-1
 66
  1
 70
  1
 62
  7
  0
VERTEX
  8
LAYER-1
 10
2.226260
 20
9.979310
 30
0.000000
  0
VERTEX
  8
LAYER-1
 10
2.464108
 20
9.979310
 30
0.000000
  0
VERTEX
  8
LAYER-1
 10
2.464108
 20
9.462365
 30
0.000000
  0
VERTEX
  8
LAYER-1
 10
2.226260
 20
9.462365
 30
0.000000
  0
SEQEND
  8
LAYER-1
  0
POLYLINE
  8
LAYER-1
 66
  1
 70
  1
 62
  7
  0
VERTEX
  8
LAYER-1
 10
2.543101
 20
9.975395
 30
0.000000
  0
VERTEX
  8
LAYER-1
 10
2.918534
 20
9.975395
 30
0.000000
  0
VERTEX
  8
LAYER-1
 10
2.918534
 20
9.837374
 30
0.000000
  0
VERTEX
  8
LAYER-1
 10
2.543101
 20
9.837374
 30
0.000000
  0
SEQEND
  8
LAYER-1
  0
POLYLINE
  8
LAYER-1
 66
  1
 70
  1
 62
  7
  0
VERTEX
  8
LAYER-1
 10
2.542667
 20
9.747964
 30
0.000000
  0
VERTEX
  8
LAYER-1
 10
2.850827
 20
9.747964
 30
0.000000
  0
VERTEX
  8
LAYER-1
 10
2.850827
 20
9.613849
 30
0.000000
  0
VERTEX
  8
LAYER-1
 10
2.542667
 20
9.613849
 30
0.000000
  0
SEQEND
  8
LAYER-1
  0
POLYLINE
  8
LAYER-1
 66
  1
 70
  1
 62
  7
  0
VERTEX
  8
LAYER-1
 10
1.309594
 20
9.377738
 30
0.000000
  0
VERTEX
  8
LAYER-1
 10
5.227997
 20
9.377738
 30
0.000000
  0
VERTEX
  8
LAYER-1
 10
5.227997
 20
9.334335
 30
0.000000
  0
VERTEX
  8
LAYER-1
 10
1.309594
 20
9.334335
 30
0.000000
  0
SEQEND
  8
LAYER-1
  0
TEXT
  8
LAYER-1
 62
  7
 10
1.638387
 20
8.833267
 30
0.000000
 40
0.187500
  1
Vertical section ( to floor )
 72
  5
 11
4.744156
 21
8.833267
 31
0.000000
  0
POLYLINE
  8
LAYER-1
 66
  1
 70
  1
 62
  7
  0
VERTEX
  8
LAYER-1
 10
2.650885
 20
8.154394
 30
0.000000
  0
VERTEX
  8
LAYER-1
 10
2.891700
 20
8.154394
 30
0.000000
  0
VERTEX
  8
LAYER-1
 10
2.891700
 20
6.297764
 30
0.000000
  0
VERTEX
  8
LAYER-1
 10
2.650885
 20
6.297764
 30
0.000000
  0
SEQEND
  8
LAYER-1
  0
POLYLINE
  8
LAYER-1
 66
  1
 70
  1
 62
  7
  0
VERTEX
  8
LAYER-1
 10
0.025977
 20
8.172355
 30
0.000000
  0
VERTEX
  8
LAYER-1
 10
6.530843
 20
8.172355
 30
0.000000
  0
VERTEX
  8
LAYER-1
 10
6.530843
 20
8.036166
 30
0.000000
  0
VERTEX
  8
LAYER-1
 10
0.025977
 20
8.036166
 30
0.000000
  0
SEQEND
  8
LAYER-1
  0
POLYLINE
  8
LAYER-1
 66
  1
 70
  1
 62
  7
  0
VERTEX
  8
LAYER-1
 10
0.019231
 20
0.460126
 30
0.000000
  0
VERTEX
  8
LAYER-1
 10
6.502838
 20
0.460126
 30
0.000000
  0
VERTEX
  8
LAYER-1
 10
6.502838
 20
0.003385
 30
0.000000
  0
VERTEX
  8
LAYER-1
 10
0.019231
 20
0.003385
 30
0.000000
  0
SEQEND
  8
LAYER-1
  0
POLYLINE
  8
LAYER-1
 66
  1
 70
  0
 62
  7
 40
0.019231
 41
0.019231
 10
6.516151
 20
0.459855
 30
0.000000
  0
VERTEX
  8
LAYER-1
 10
6.516151
 20
0.459855
 30
0.000000
  0
VERTEX
  8
LAYER-1
 10
0.019231
 20
0.459855
 30
0.000000
  0
SEQEND
  8
LAYER-1
  0
POLYLINE
  8
LAYER-1
 66
  1
 70
  1
 62
  7
 10
0.317118
 20
0.410605
 30
0.000000
  0
VERTEX
  8
LAYER-1
 10
0.317118
 20
0.410605
 30
0.000000
  0
VERTEX
  8
LAYER-1
 10
0.293212
 20
0.387193
 30
0.000000
  0
VERTEX
  8
LAYER-1
 10
0.333058
 20
0.367380
 30
0.000000
  0
SEQEND
  8
LAYER-1
  0
POLYLINE
  8
LAYER-1
 66
  1
 70
  1
 62
  7
 10
0.378273
 20
0.300129
 30
0.000000
  0
VERTEX
  8
LAYER-1
 10
0.378273
 20
0.300129
 30
0.000000
  0
VERTEX
  8
LAYER-1
 10
0.398995
 20
0.273115
 30
0.000000
  0
VERTEX
  8
LAYER-1
 10
0.416527
 20
0.318142
 30
0.000000
  0
SEQEND
  8
LAYER-1
  0
POLYLINE
  8
LAYER-1
 66
  1
 70
  1
 62
  7
 10
0.592350
 20
0.393335
 30
0.000000
  0
VERTEX
  8
LAYER-1
 10
0.592350
 20
0.393335
 30
0.000000
  0
VERTEX
  8
LAYER-1
 10
0.513773
 20
0.387451
 30
0.000000
  0
VERTEX
  8
LAYER-1
 10
0.607530
 20
0.352171
 30
0.000000
  0
SEQEND
  8
LAYER-1
  0
POLYLINE
  8
LAYER-1
 66
  1
 70
  1
 62
  7
 10
0.770100
 20
0.372697
 30
0.000000
  0
VERTEX
  8
LAYER-1
 10
0.770100
 20
0.372697
 30
0.000000
  0
VERTEX
  8
LAYER-1
 10
0.746193
 20
0.349280
 30
0.000000
  0
VERTEX
  8
LAYER-1
 10
0.786039
 20
0.329472
 30
0.000000
  0
SEQEND
  8
LAYER-1
  0
POLYLINE
  8
LAYER-1
 66
  1
 70
  1
 62
  7
 10
1.262950
 20
0.347938
 30
0.000000
  0
VERTEX
  8
LAYER-1
 10
1.262950
 20
0.347938
 30
0.000000
  0
VERTEX
  8
LAYER-1
 10
1.239047
 20
0.324524
 30
0.000000
  0
VERTEX
  8
LAYER-1
 10
1.278896
 20
0.304714
 30
0.000000
  0
SEQEND
  8
LAYER-1
  0
POLYLINE
  8
LAYER-1
 66
  1
 70
  1
 62
  7
 10
1.411400
 20
0.358880
 30
0.000000
  0
VERTEX
  8
LAYER-1
 10
1.411400
 20
0.358880
 30
0.000000
  0
VERTEX
  8
LAYER-1
 10
1.490570
 20
0.347142
 30
0.000000
  0
VERTEX
  8
LAYER-1
 10
1.507268
 20
0.390024
 30
0.000000
  0
SEQEND
  8
LAYER-1
  0
POLYLINE
  8
LAYER-1
 66
  1
 70
  1
 62
  7
 10
1.745580
 20
0.329992
 30
0.000000
  0
VERTEX
  8
LAYER-1
 10
1.745580
 20
0.329992
 30
0.000000
  0
VERTEX
  8
LAYER-1
 10
1.765317
 20
0.304260
 30
0.000000
  0
VERTEX
  8
LAYER-1
 10
1.782015
 20
0.347142
 30
0.000000
  0
SEQEND
  8
LAYER-1
  0
POLYLINE
  8
LAYER-1
 66
  1
 70
  1
 62
  7
 10
1.668281
 20
0.237841
 30
0.000000
  0
VERTEX
  8
LAYER-1
 10
1.668281
 20
0.237841
 30
0.000000
  0
VERTEX
  8
LAYER-1
 10
1.694631
 20
0.254337
 30
0.000000
  0
VERTEX
  8
LAYER-1
 10
1.660955
 20
0.281660
 30
0.000000
  0
SEQEND
  8
LAYER-1
  0
POLYLINE
  8
LAYER-1
 66
  1
 70
  1
 62
  7
 10
1.817818
 20
0.088392
 30
0.000000
  0
VERTEX
  8
LAYER-1
 10
1.817818
 20
0.088392
 30
0.000000
  0
VERTEX
  8
LAYER-1
 10
1.840577
 20
0.110687
 30
0.000000
  0
VERTEX
  8
LAYER-1
 10
1.802631
 20
0.129557
 30
0.000000
  0
SEQEND
  8
LAYER-1
  0
POLYLINE
  8
LAYER-1
 66
  1
 70
  1
 62
  7
 10
1.668297
 20
0.133843
 30
0.000000
  0
VERTEX
  8
LAYER-1
 10
1.668297
 20
0.133843
 30
0.000000
  0
VERTEX
  8
LAYER-1
 10
1.648560
 20
0.159575
 30
0.000000
  0
VERTEX
  8
LAYER-1
 10
1.631862
 20
0.116693
 30
0.000000
  0
SEQEND
  8
LAYER-1
  0
POLYLINE
  8
LAYER-1
 66
  1
 70
  1
 62
  7
 10
1.318410
 20
0.050656
 30
0.000000
  0
VERTEX
  8
LAYER-1
 10
1.318410
 20
0.050656
 30
0.000000
  0
VERTEX
  8
LAYER-1
 10
1.358875
 20
0.079840
 30
0.000000
  0
VERTEX
  8
LAYER-1
 10
1.306350
 20
0.145497
 30
0.000000
  0
SEQEND
  8
LAYER-1
  0
POLYLINE
  8
LAYER-1
 66
  1
 70
  1
 62
  7
 10
1.145586
 20
0.088394
 30
0.000000
  0
VERTEX
  8
LAYER-1
 10
1.145586
 20
0.088394
 30
0.000000
  0
VERTEX
  8
LAYER-1
 10
1.124865
 20
0.115410
 30
0.000000
  0
VERTEX
  8
LAYER-1
 10
1.107336
 20
0.070386
 30
0.000000
  0
SEQEND
  8
LAYER-1
  0
POLYLINE
  8
LAYER-1
 66
  1
 70
  1
 62
  7
 10
0.318181
 20
0.148246
 30
0.000000
  0
VERTEX
  8
LAYER-1
 10
0.318181
 20
0.148246
 30
0.000000
  0
VERTEX
  8
LAYER-1
 10
0.354328
 20
0.099540
 30
0.000000
  0
VERTEX
  8
LAYER-1
 10
0.397234
 20
0.164246
 30
0.000000
  0
SEQEND
  8
LAYER-1
  0
POLYLINE
  8
LAYER-1
 66
  1
 70
  1
 62
  7
 10
0.478906
 20
0.088394
 30
0.000000
  0
VERTEX
  8
LAYER-1
 10
0.478906
 20
0.088394
 30
0.000000
  0
VERTEX
  8
LAYER-1
 10
0.506580
 20
0.105718
 30
0.000000
  0
VERTEX
  8
LAYER-1
 10
0.471213
 20
0.134410
 30
0.000000
  0
SEQEND
  8
LAYER-1
  0
POLYLINE
  8
LAYER-1
 66
  1
 70
  1
 62
  7
 10
0.848553
 20
0.140132
 30
0.000000
  0
VERTEX
  8
LAYER-1
 10
0.848553
 20
0.140132
 30
0.000000
  0
VERTEX
  8
LAYER-1
 10
0.869278
 20
0.113112
 30
0.000000
  0
VERTEX
  8
LAYER-1
 10
0.886809
 20
0.158139
 30
0.000000
  0
SEQEND
  8
LAYER-1
  0
POLYLINE
  8
LAYER-1
 66
  1
 70
  1
 62
  7
 10
0.784377
 20
0.047014
 30
0.000000
  0
VERTEX
  8
LAYER-1
 10
0.784377
 20
0.047014
 30
0.000000
  0
VERTEX
  8
LAYER-1
 10
0.835060
 20
0.069724
 30
0.000000
  0
VERTEX
  8
LAYER-1
 10
0.754832
 20
0.122515
 30
0.000000
  0
SEQEND
  8
LAYER-1
  0
POLYLINE
  8
LAYER-1
 66
  1
 70
  1
 62
  7
 10
1.076555
 20
0.332620
 30
0.000000
  0
VERTEX
  8
LAYER-1
 10
1.076555
 20
0.332620
 30
0.000000
  0
VERTEX
  8
LAYER-1
 10
1.045527
 20
0.399272
 30
0.000000
  0
VERTEX
  8
LAYER-1
 10
1.018201
 20
0.365597
 30
0.000000
  0
SEQEND
  8
LAYER-1
  0
POLYLINE
  8
LAYER-1
 66
  1
 70
  1
 62
  7
 10
1.972416
 20
0.378095
 30
0.000000
  0
VERTEX
  8
LAYER-1
 10
1.972416
 20
0.378095
 30
0.000000
  0
VERTEX
  8
LAYER-1
 10
1.948505
 20
0.354681
 30
0.000000
  0
VERTEX
  8
LAYER-1
 10
1.988354
 20
0.334871
 30
0.000000
  0
SEQEND
  8
LAYER-1
  0
POLYLINE
  8
LAYER-1
 66
  1
 70
  1
 62
  7
 10
2.132054
 20
0.303732
 30
0.000000
  0
VERTEX
  8
LAYER-1
 10
2.132054
 20
0.303732
 30
0.000000
  0
VERTEX
  8
LAYER-1
 10
2.152774
 20
0.276718
 30
0.000000
  0
VERTEX
  8
LAYER-1
 10
2.170311
 20
0.321741
 30
0.000000
  0
SEQEND
  8
LAYER-1
  0
POLYLINE
  8
LAYER-1
 66
  1
 70
  1
 62
  7
 10
2.262613
 20
0.396764
 30
0.000000
  0
VERTEX
  8
LAYER-1
 10
2.262613
 20
0.396764
 30
0.000000
  0
VERTEX
  8
LAYER-1
 10
2.184043
 20
0.390881
 30
0.000000
  0
VERTEX
  8
LAYER-1
 10
2.277800
 20
0.355597
 30
0.000000
  0
SEQEND
  8
LAYER-1
  0
POLYLINE
  8
LAYER-1
 66
  1
 70
  1
 62
  7
 10
2.523885
 20
0.376296
 30
0.000000
  0
VERTEX
  8
LAYER-1
 10
2.523885
 20
0.376296
 30
0.000000
  0
VERTEX
  8
LAYER-1
 10
2.499974
 20
0.352878
 30
0.000000
  0
VERTEX
  8
LAYER-1
 10
2.539823
 20
0.333071
 30
0.000000
  0
SEQEND
  8
LAYER-1
  0
POLYLINE
  8
LAYER-1
 66
  1
 70
  1
 62
  7
 10
3.059407
 20
0.430325
 30
0.000000
  0
VERTEX
  8
LAYER-1
 10
3.059407
 20
0.430325
 30
0.000000
  0
VERTEX
  8
LAYER-1
 10
3.035504
 20
0.406914
 30
0.000000
  0
VERTEX
  8
LAYER-1
 10
3.075353
 20
0.387101
 30
0.000000
  0
SEQEND
  8
LAYER-1
  0
POLYLINE
  8
LAYER-1
 66
  1
 70
  1
 62
  7
 10
3.081671
 20
0.362306
 30
0.000000
  0
VERTEX
  8
LAYER-1
 10
3.081671
 20
0.362306
 30
0.000000
  0
VERTEX
  8
LAYER-1
 10
3.160835
 20
0.350571
 30
0.000000
  0
VERTEX
  8
LAYER-1
 10
3.177533
 20
0.393451
 30
0.000000
  0
SEQEND
  8
LAYER-1
  0
POLYLINE
  8
LAYER-1
 66
  1
 70
  1
 62
  7
 10
2.988673
 20
0.054084
 30
0.000000
  0
VERTEX
  8
LAYER-1
 10
2.988673
 20
0.054084
 30
0.000000
  0
VERTEX
  8
LAYER-1
 10
3.029138
 20
0.083270
 30
0.000000
  0
VERTEX
  8
LAYER-1
 10
2.976614
 20
0.148926
 30
0.000000
  0
SEQEND
  8
LAYER-1
  0
POLYLINE
  8
LAYER-1
 66
  1
 70
  1
 62
  7
 10
2.899362
 20
0.091993
 30
0.000000
  0
VERTEX
  8
LAYER-1
 10
2.899362
 20
0.091993
 30
0.000000
  0
VERTEX
  8
LAYER-1
 10
2.878642
 20
0.119008
 30
0.000000
  0
VERTEX
  8
LAYER-1
 10
2.861112
 20
0.073985
 30
0.000000
  0
SEQEND
  8
LAYER-1
  0
POLYLINE
  8
LAYER-1
 66
  1
 70
  1
 62
  7
 10
1.988450
 20
0.151672
 30
0.000000
  0
VERTEX
  8
LAYER-1
 10
1.988450
 20
0.151672
 30
0.000000
  0
VERTEX
  8
LAYER-1
 10
2.024597
 20
0.102966
 30
0.000000
  0
VERTEX
  8
LAYER-1
 10
2.067501
 20
0.167674
 30
0.000000
  0
SEQEND
  8
LAYER-1
  0
POLYLINE
  8
LAYER-1
 66
  1
 70
  1
 62
  7
 10
2.232688
 20
0.091993
 30
0.000000
  0
VERTEX
  8
LAYER-1
 10
2.232688
 20
0.091993
 30
0.000000
  0
VERTEX
  8
LAYER-1
 10
2.260366
 20
0.109316
 30
0.000000
  0
VERTEX
  8
LAYER-1
 10
2.224995
 20
0.138009
 30
0.000000
  0
SEQEND
  8
LAYER-1
  0
POLYLINE
  8
LAYER-1
 66
  1
 70
  1
 62
  7
 10
2.602336
 20
0.143731
 30
0.000000
  0
VERTEX
  8
LAYER-1
 10
2.602336
 20
0.143731
 30
0.000000
  0
VERTEX
  8
LAYER-1
 10
2.623056
 20
0.116711
 30
0.000000
  0
VERTEX
  8
LAYER-1
 10
2.640594
 20
0.161737
 30
0.000000
  0
SEQEND
  8
LAYER-1
  0
POLYLINE
  8
LAYER-1
 66
  1
 70
  1
 62
  7
 10
2.454646
 20
0.050442
 30
0.000000
  0
VERTEX
  8
LAYER-1
 10
2.454646
 20
0.050442
 30
0.000000
  0
VERTEX
  8
LAYER-1
 10
2.505332
 20
0.073153
 30
0.000000
  0
VERTEX
  8
LAYER-1
 10
2.425105
 20
0.125944
 30
0.000000
  0
SEQEND
  8
LAYER-1
  0
POLYLINE
  8
LAYER-1
 66
  1
 70
  1
 62
  7
 10
2.786908
 20
0.224285
 30
0.000000
  0
VERTEX
  8
LAYER-1
 10
2.786908
 20
0.224285
 30
0.000000
  0
VERTEX
  8
LAYER-1
 10
2.773777
 20
0.332617
 30
0.000000
  0
VERTEX
  8
LAYER-1
 10
2.718013
 20
0.300086
 30
0.000000
  0
SEQEND
  8
LAYER-1
  0
POLYLINE
  8
LAYER-1
 66
  1
 70
  1
 62
  7
 10
3.322951
 20
0.403519
 30
0.000000
  0
VERTEX
  8
LAYER-1
 10
3.322951
 20
0.403519
 30
0.000000
  0
VERTEX
  8
LAYER-1
 10
3.299048
 20
0.380106
 30
0.000000
  0
VERTEX
  8
LAYER-1
 10
3.338894
 20
0.360295
 30
0.000000
  0
SEQEND
  8
LAYER-1
  0
POLYLINE
  8
LAYER-1
 66
  1
 70
  1
 62
  7
 10
3.384108
 20
0.293044
 30
0.000000
  0
VERTEX
  8
LAYER-1
 10
3.384108
 20
0.293044
 30
0.000000
  0
VERTEX
  8
LAYER-1
 10
3.404833
 20
0.266029
 30
0.000000
  0
VERTEX
  8
LAYER-1
 10
3.422363
 20
0.311053
 30
0.000000
  0
SEQEND
  8
LAYER-1
  0
POLYLINE
  8
LAYER-1
 66
  1
 70
  1
 62
  7
 10
3.598185
 20
0.386249
 30
0.000000
  0
VERTEX
  8
LAYER-1
 10
3.598185
 20
0.386249
 30
0.000000
  0
VERTEX
  8
LAYER-1
 10
3.519606
 20
0.380364
 30
0.000000
  0
VERTEX
  8
LAYER-1
 10
3.613364
 20
0.345081
 30
0.000000
  0
SEQEND
  8
LAYER-1
  0
POLYLINE
  8
LAYER-1
 66
  1
 70
  1
 62
  7
 10
3.775936
 20
0.365609
 30
0.000000
  0
VERTEX
  8
LAYER-1
 10
3.775936
 20
0.365609
 30
0.000000
  0
VERTEX
  8
LAYER-1
 10
3.752028
 20
0.342191
 30
0.000000
  0
VERTEX
  8
LAYER-1
 10
3.791874
 20
0.322385
 30
0.000000
  0
SEQEND
  8
LAYER-1
  0
POLYLINE
  8
LAYER-1
 66
  1
 70
  1
 62
  7
 10
4.268786
 20
0.340851
 30
0.000000
  0
VERTEX
  8
LAYER-1
 10
4.268786
 20
0.340851
 30
0.000000
  0
VERTEX
  8
LAYER-1
 10
4.244882
 20
0.317439
 30
0.000000
  0
VERTEX
  8
LAYER-1
 10
4.284732
 20
0.297626
 30
0.000000
  0
SEQEND
  8
LAYER-1
  0
POLYLINE
  8
LAYER-1
 66
  1
 70
  1
 62
  7
 10
4.417235
 20
0.351793
 30
0.000000
  0
VERTEX
  8
LAYER-1
 10
4.417235
 20
0.351793
 30
0.000000
  0
VERTEX
  8
LAYER-1
 10
4.496406
 20
0.340055
 30
0.000000
  0
VERTEX
  8
LAYER-1
 10
4.513104
 20
0.382937
 30
0.000000
  0
SEQEND
  8
LAYER-1
  0
POLYLINE
  8
LAYER-1
 66
  1
 70
  1
 62
  7
 10
4.751416
 20
0.322905
 30
0.000000
  0
VERTEX
  8
LAYER-1
 10
4.751416
 20
0.322905
 30
0.000000
  0
VERTEX
  8
LAYER-1
 10
4.771152
 20
0.297173
 30
0.000000
  0
VERTEX
  8
LAYER-1
 10
4.787851
 20
0.340055
 30
0.000000
  0
SEQEND
  8
LAYER-1
  0
POLYLINE
  8
LAYER-1
 66
  1
 70
  1
 62
  7
 10
4.674116
 20
0.230753
 30
0.000000
  0
VERTEX
  8
LAYER-1
 10
4.674116
 20
0.230753
 30
0.000000
  0
VERTEX
  8
LAYER-1
 10
4.700466
 20
0.247249
 30
0.000000
  0
VERTEX
  8
LAYER-1
 10
4.666791
 20
0.274575
 30
0.000000
  0
SEQEND
  8
LAYER-1
  0
POLYLINE
  8
LAYER-1
 66
  1
 70
  1
 62
  7
 10
4.823653
 20
0.081302
 30
0.000000
  0
VERTEX
  8
LAYER-1
 10
4.823653
 20
0.081302
 30
0.000000
  0
VERTEX
  8
LAYER-1
 10
4.846413
 20
0.103600
 30
0.000000
  0
VERTEX
  8
LAYER-1
 10
4.808466
 20
0.122471
 30
0.000000
  0
SEQEND
  8
LAYER-1
  0
POLYLINE
  8
LAYER-1
 66
  1
 70
  1
 62
  7
 10
4.674132
 20
0.126756
 30
0.000000
  0
VERTEX
  8
LAYER-1
 10
4.674132
 20
0.126756
 30
0.000000
  0
VERTEX
  8
LAYER-1
 10
4.654395
 20
0.152488
 30
0.000000
  0
VERTEX
  8
LAYER-1
 10
4.637698
 20
0.109606
 30
0.000000
  0
SEQEND
  8
LAYER-1
  0
POLYLINE
  8
LAYER-1
 66
  1
 70
  1
 62
  7
 10
4.324246
 20
0.043569
 30
0.000000
  0
VERTEX
  8
LAYER-1
 10
4.324246
 20
0.043569
 30
0.000000
  0
VERTEX
  8
LAYER-1
 10
4.364710
 20
0.072754
 30
0.000000
  0
VERTEX
  8
LAYER-1
 10
4.312185
 20
0.138409
 30
0.000000
  0
SEQEND
  8
LAYER-1
  0
POLYLINE
  8
LAYER-1
 66
  1
 70
  1
 62
  7
 10
4.151421
 20
0.081306
 30
0.000000
  0
VERTEX
  8
LAYER-1
 10
4.151421
 20
0.081306
 30
0.000000
  0
VERTEX
  8
LAYER-1
 10
4.130701
 20
0.108322
 30
0.000000
  0
VERTEX
  8
LAYER-1
 10
4.113171
 20
0.063299
 30
0.000000
  0
SEQEND
  8
LAYER-1
  0
POLYLINE
  8
LAYER-1
 66
  1
 70
  1
 62
  7
 10
3.324015
 20
0.141157
 30
0.000000
  0
VERTEX
  8
LAYER-1
 10
3.324015
 20
0.141157
 30
0.000000
  0
VERTEX
  8
LAYER-1
 10
3.360161
 20
0.092452
 30
0.000000
  0
VERTEX
  8
LAYER-1
 10
3.403070
 20
0.157158
 30
0.000000
  0
SEQEND
  8
LAYER-1
  0
POLYLINE
  8
LAYER-1
 66
  1
 70
  1
 62
  7
 10
3.484739
 20
0.081306
 30
0.000000
  0
VERTEX
  8
LAYER-1
 10
3.484739
 20
0.081306
 30
0.000000
  0
VERTEX
  8
LAYER-1
 10
3.512417
 20
0.098632
 30
0.000000
  0
VERTEX
  8
LAYER-1
 10
3.477046
 20
0.127321
 30
0.000000
  0
SEQEND
  8
LAYER-1
  0
POLYLINE
  8
LAYER-1
 66
  1
 70
  1
 62
  7
 10
3.854387
 20
0.133043
 30
0.000000
  0
VERTEX
  8
LAYER-1
 10
3.854387
 20
0.133043
 30
0.000000
  0
VERTEX
  8
LAYER-1
 10
3.875115
 20
0.106025
 30
0.000000
  0
VERTEX
  8
LAYER-1
 10
3.892645
 20
0.151053
 30
0.000000
  0
SEQEND
  8
LAYER-1
  0
POLYLINE
  8
LAYER-1
 66
  1
 70
  1
 62
  7
 10
3.686341
 20
0.097567
 30
0.000000
  0
VERTEX
  8
LAYER-1
 10
3.686341
 20
0.097567
 30
0.000000
  0
VERTEX
  8
LAYER-1
 10
3.737027
 20
0.120279
 30
0.000000
  0
VERTEX
  8
LAYER-1
 10
3.656800
 20
0.173072
 30
0.000000
  0
SEQEND
  8
LAYER-1
  0
POLYLINE
  8
LAYER-1
 66
  1
 70
  1
 62
  7
 10
4.082391
 20
0.325532
 30
0.000000
  0
VERTEX
  8
LAYER-1
 10
4.082391
 20
0.325532
 30
0.000000
  0
VERTEX
  8
LAYER-1
 10
4.051362
 20
0.392184
 30
0.000000
  0
VERTEX
  8
LAYER-1
 10
4.024036
 20
0.358510
 30
0.000000
  0
SEQEND
  8
LAYER-1
  0
POLYLINE
  8
LAYER-1
 66
  1
 70
  1
 62
  7
 10
4.978252
 20
0.371007
 30
0.000000
  0
VERTEX
  8
LAYER-1
 10
4.978252
 20
0.371007
 30
0.000000
  0
VERTEX
  8
LAYER-1
 10
4.954341
 20
0.347594
 30
0.000000
  0
VERTEX
  8
LAYER-1
 10
4.994190
 20
0.327783
 30
0.000000
  0
SEQEND
  8
LAYER-1
  0
POLYLINE
  8
LAYER-1
 66
  1
 70
  1
 62
  7
 10
5.137889
 20
0.296647
 30
0.000000
  0
VERTEX
  8
LAYER-1
 10
5.137889
 20
0.296647
 30
0.000000
  0
VERTEX
  8
LAYER-1
 10
5.158609
 20
0.269629
 30
0.000000
  0
VERTEX
  8
LAYER-1
 10
5.176147
 20
0.314651
 30
0.000000
  0
SEQEND
  8
LAYER-1
  0
POLYLINE
  8
LAYER-1
 66
  1
 70
  1
 62
  7
 10
5.268449
 20
0.389675
 30
0.000000
  0
VERTEX
  8
LAYER-1
 10
5.268449
 20
0.389675
 30
0.000000
  0
VERTEX
  8
LAYER-1
 10
5.189878
 20
0.383790
 30
0.000000
  0
VERTEX
  8
LAYER-1
 10
5.283635
 20
0.348510
 30
0.000000
  0
SEQEND
  8
LAYER-1
  0
POLYLINE
  8
LAYER-1
 66
  1
 70
  1
 62
  7
 10
5.529721
 20
0.369208
 30
0.000000
  0
VERTEX
  8
LAYER-1
 10
5.529721
 20
0.369208
 30
0.000000
  0
VERTEX
  8
LAYER-1
 10
5.505809
 20
0.345790
 30
0.000000
  0
VERTEX
  8
LAYER-1
 10
5.545658
 20
0.325984
 30
0.000000
  0
SEQEND
  8
LAYER-1
  0
POLYLINE
  8
LAYER-1
 66
  1
 70
  1
 62
  7
 10
6.065243
 20
0.423240
 30
0.000000
  0
VERTEX
  8
LAYER-1
 10
6.065243
 20
0.423240
 30
0.000000
  0
VERTEX
  8
LAYER-1
 10
6.041340
 20
0.399825
 30
0.000000
  0
VERTEX
  8
LAYER-1
 10
6.081189
 20
0.380017
 30
0.000000
  0
SEQEND
  8
LAYER-1
  0
POLYLINE
  8
LAYER-1
 66
  1
 70
  1
 62
  7
 10
6.087506
 20
0.355221
 30
0.000000
  0
VERTEX
  8
LAYER-1
 10
6.087506
 20
0.355221
 30
0.000000
  0
VERTEX
  8
LAYER-1
 10
6.166669
 20
0.343481
 30
0.000000
  0
VERTEX
  8
LAYER-1
 10
6.183367
 20
0.386365
 30
0.000000
  0
SEQEND
  8
LAYER-1
  0
POLYLINE
  8
LAYER-1
 66
  1
 70
  1
 62
  7
 10
5.994509
 20
0.046995
 30
0.000000
  0
VERTEX
  8
LAYER-1
 10
5.994509
 20
0.046995
 30
0.000000
  0
VERTEX
  8
LAYER-1
 10
6.034974
 20
0.076180
 30
0.000000
  0
VERTEX
  8
LAYER-1
 10
5.982449
 20
0.141835
 30
0.000000
  0
SEQEND
  8
LAYER-1
  0
POLYLINE
  8
LAYER-1
 66
  1
 70
  1
 62
  7
 10
5.905198
 20
0.084905
 30
0.000000
  0
VERTEX
  8
LAYER-1
 10
5.905198
 20
0.084905
 30
0.000000
  0
VERTEX
  8
LAYER-1
 10
5.884477
 20
0.111921
 30
0.000000
  0
VERTEX
  8
LAYER-1
 10
5.866947
 20
0.066898
 30
0.000000
  0
SEQEND
  8
LAYER-1
  0
POLYLINE
  8
LAYER-1
 66
  1
 70
  1
 62
  7
 10
4.994286
 20
0.144585
 30
0.000000
  0
VERTEX
  8
LAYER-1
 10
4.994286
 20
0.144585
 30
0.000000
  0
VERTEX
  8
LAYER-1
 10
5.030432
 20
0.095880
 30
0.000000
  0
VERTEX
  8
LAYER-1
 10
5.073337
 20
0.160587
 30
0.000000
  0
SEQEND
  8
LAYER-1
  0
POLYLINE
  8
LAYER-1
 66
  1
 70
  1
 62
  7
 10
5.238524
 20
0.084905
 30
0.000000
  0
VERTEX
  8
LAYER-1
 10
5.238524
 20
0.084905
 30
0.000000
  0
VERTEX
  8
LAYER-1
 10
5.266202
 20
0.102230
 30
0.000000
  0
VERTEX
  8
LAYER-1
 10
5.230831
 20
0.130919
 30
0.000000
  0
SEQEND
  8
LAYER-1
  0
POLYLINE
  8
LAYER-1
 66
  1
 70
  1
 62
  7
 10
5.608171
 20
0.136641
 30
0.000000
  0
VERTEX
  8
LAYER-1
 10
5.608171
 20
0.136641
 30
0.000000
  0
VERTEX
  8
LAYER-1
 10
5.628892
 20
0.109624
 30
0.000000
  0
VERTEX
  8
LAYER-1
 10
5.646429
 20
0.154651
 30
0.000000
  0
SEQEND
  8
LAYER-1
  0
POLYLINE
  8
LAYER-1
 66
  1
 70
  1
 62
  7
 10
5.460482
 20
0.043351
 30
0.000000
  0
VERTEX
  8
LAYER-1
 10
5.460482
 20
0.043351
 30
0.000000
  0
VERTEX
  8
LAYER-1
 10
5.511167
 20
0.066064
 30
0.000000
  0
VERTEX
  8
LAYER-1
 10
5.430941
 20
0.118857
 30
0.000000
  0
SEQEND
  8
LAYER-1
  0
POLYLINE
  8
LAYER-1
 66
  1
 70
  1
 62
  7
 10
5.792743
 20
0.217198
 30
0.000000
  0
VERTEX
  8
LAYER-1
 10
5.792743
 20
0.217198
 30
0.000000
  0
VERTEX
  8
LAYER-1
 10
5.779612
 20
0.325529
 30
0.000000
  0
VERTEX
  8
LAYER-1
 10
5.723849
 20
0.293000
 30
0.000000
  0
SEQEND
  8
LAYER-1
  0
POLYLINE
  8
LAYER-1
  6
LTYPE01
 66
  1
 70
  0
 62
253
  6
LTYPE01
 10
6.392172
 20
6.576749
 30
0.000000
  0
VERTEX
  8
LAYER-1
  6
LTYPE01
 10
6.392172
 20
6.576749
 30
0.000000
  0
VERTEX
  8
LAYER-1
  6
LTYPE01
 10
6.393214
 20
4.593238
 30
0.000000
  0
SEQEND
  8
LAYER-1
  0
POLYLINE
  8
LAYER-1
 66
  1
 70
  1
 62
253
  0
VERTEX
  8
LAYER-1
 10
6.392162
 20
6.596434
 30
0.000000
  0
VERTEX
  8
LAYER-1
 10
6.363341
 20
6.548342
 30
0.000000
  0
VERTEX
  8
LAYER-1
 10
6.392187
 20
6.548357
 30
0.000000
  0
VERTEX
  8
LAYER-1
 10
6.421033
 20
6.548372
 30
0.000000
  0
VERTEX
  8
LAYER-1
 10
6.392162
 20
6.596434
 30
0.000000
  0
SEQEND
  8
LAYER-1
  0
POLYLINE
  8
LAYER-1
 66
  1
 70
  1
 62
253
  0
VERTEX
  8
LAYER-1
 10
6.393224
 20
4.573553
 30
0.000000
  0
VERTEX
  8
LAYER-1
 10
6.364353
 20
4.621614
 30
0.000000
  0
VERTEX
  8
LAYER-1
 10
6.393199
 20
4.621630
 30
0.000000
  0
VERTEX
  8
LAYER-1
 10
6.422045
 20
4.621645
 30
0.000000
  0
VERTEX
  8
LAYER-1
 10
6.393224
 20
4.573553
 30
0.000000
  0
SEQEND
  8
LAYER-1
  0
POLYLINE
  8
LAYER-1
  6
LTYPE01
 66
  1
 70
  0
 62
253
  6
LTYPE01
 10
5.918243
 20
6.596434
 30
0.000000
  0
VERTEX
  8
LAYER-1
  6
LTYPE01
 10
5.918243
 20
6.596434
 30
0.000000
  0
VERTEX
  8
LAYER-1
  6
LTYPE01
 10
6.459910
 20
6.596434
 30
0.000000
  0
SEQEND
  8
LAYER-1
  0
TEXT
  8
LAYER-1
 62
253
 10
6.311463
 20
5.025575
 30
0.000000
 40
0.144231
  1
26" (660mm)
 50
90.000000
 72
  5
 11
6.311463
 21
6.189036
 31
0.000000
  0
POLYLINE
  8
LAYER-1
 66
  1
 70
  1
 62
  7
  0
VERTEX
  8
LAYER-1
 10
2.650400
 20
5.000955
 30
0.000000
  0
VERTEX
  8
LAYER-1
 10
2.757940
 20
5.000955
 30
0.000000
  0
VERTEX
  8
LAYER-1
 10
2.757940
 20
0.460074
 30
0.000000
  0
VERTEX
  8
LAYER-1
 10
2.650400
 20
0.460074
 30
0.000000
  0
SEQEND
  8
LAYER-1
  0
POLYLINE
  8
LAYER-1
 66
  1
 70
  1
 62
  7
  0
VERTEX
  8
LAYER-1
 10
2.856064
 20
5.001006
 30
0.000000
  0
VERTEX
  8
LAYER-1
 10
2.891215
 20
5.001006
 30
0.000000
  0
VERTEX
  8
LAYER-1
 10
2.891215
 20
0.462784
 30
0.000000
  0
VERTEX
  8
LAYER-1
 10
2.856064
 20
0.462784
 30
0.000000
  0
SEQEND
  8
LAYER-1
  0
LINE
  8
LAYER-1
 62
  7
 10
1.017317
 20
5.020548
 30
0.000000
 11
1.017317
 21
6.277831
 31
0.000000
  0
LINE
  8
LAYER-1
 62
  7
 10
2.587900
 20
5.000863
 30
0.000000
 11
0.892317
 21
5.000863
 31
0.000000
  0
LINE
  8
LAYER-1
 62
  7
 10
2.587900
 20
6.297516
 30
0.000000
 11
0.892317
 21
6.297516
 31
0.000000
  0
POLYLINE
  8
LAYER-1
 66
  1
 70
  1
 62
  7
  0
VERTEX
  8
LAYER-1
 10
1.017317
 20
5.000863
 30
0.000000
  0
VERTEX
  8
LAYER-1
 10
1.046163
 20
5.048940
 30
0.000000
  0
VERTEX
  8
LAYER-1
 10
1.017317
 20
5.048940
 30
0.000000
  0
VERTEX
  8
LAYER-1
 10
0.988471
 20
5.048940
 30
0.000000
  0
VERTEX
  8
LAYER-1
 10
1.017317
 20
5.000863
 30
0.000000
  0
SEQEND
  8
LAYER-1
  0
POLYLINE
  8
LAYER-1
 66
  1
 70
  1
 62
  7
  0
VERTEX
  8
LAYER-1
 10
1.017317
 20
6.297516
 30
0.000000
  0
VERTEX
  8
LAYER-1
 10
1.046163
 20
6.249440
 30
0.000000
  0
VERTEX
  8
LAYER-1
 10
1.017317
 20
6.249440
 30
0.000000
  0
VERTEX
  8
LAYER-1
 10
0.988471
 20
6.249440
 30
0.000000
  0
VERTEX
  8
LAYER-1
 10
1.017317
 20
6.297516
 30
0.000000
  0
SEQEND
  8
LAYER-1
  0
TEXT
  8
LAYER-1
 62
  7
 10
0.861620
 20
5.565296
 30
0.000000
 40
0.129808
  1
"Y"
 50
90.000000
  0
LINE
  8
LAYER-1
 62
  7
 10
1.017199
 20
0.479020
 30
0.000000
 11
1.017199
 21
4.981178
 31
0.000000
  0
LINE
  8
LAYER-1
 62
  7
 10
1.201954
 20
0.459335
 30
0.000000
 11
0.892199
 21
0.459335
 31
0.000000
  0
LINE
  8
LAYER-1
 62
  7
 10
2.587900
 20
5.000863
 30
0.000000
 11
0.892199
 21
5.000863
 31
0.000000
  0
LINE
  8
LAYER-1
 62
  7
 10
1.017199
 20
2.970477
 30
0.000000
 11
1.017199
 21
0.459335
 31
0.000000
  0
POLYLINE
  8
LAYER-1
 66
  1
 70
  1
 62
  7
  0
VERTEX
  8
LAYER-1
 10
1.017199
 20
0.459335
 30
0.000000
  0
VERTEX
  8
LAYER-1
 10
1.046045
 20
0.507412
 30
0.000000
  0
VERTEX
  8
LAYER-1
 10
1.017199
 20
0.507412
 30
0.000000
  0
VERTEX
  8
LAYER-1
 10
0.988353
 20
0.507412
 30
0.000000
  0
VERTEX
  8
LAYER-1
 10
1.017199
 20
0.459335
 30
0.000000
  0
SEQEND
  8
LAYER-1
  0
POLYLINE
  8
LAYER-1
 66
  1
 70
  1
 62
  7
  0
VERTEX
  8
LAYER-1
 10
1.017199
 20
5.000863
 30
0.000000
  0
VERTEX
  8
LAYER-1
 10
1.046045
 20
4.952786
 30
0.000000
  0
VERTEX
  8
LAYER-1
 10
1.017199
 20
4.952786
 30
0.000000
  0
VERTEX
  8
LAYER-1
 10
0.988353
 20
4.952786
 30
0.000000
  0
VERTEX
  8
LAYER-1
 10
1.017199
 20
5.000863
 30
0.000000
  0
SEQEND
  8
LAYER-1
  0
TEXT
  8
LAYER-1
 62
  7
 10
0.918546
 20
2.777439
 30
0.000000
 40
0.086538
  1
 
 50
90.000000
  0
POLYLINE
  8
LAYER-1
  6
LTYPE02
 66
  1
 70
  0
 62
  7
  6
LTYPE02
 10
2.807919
 20
4.998880
 30
0.000000
  0
VERTEX
  8
LAYER-1
  6
LTYPE02
 10
2.807919
 20
4.998880
 30
0.000000
  0
VERTEX
  8
LAYER-1
  6
LTYPE02
 10
2.806510
 20
0.659902
 30
0.000000
  0
SEQEND
  8
LAYER-1
  0
POLYLINE
  8
LAYER-1
 66
  1
 70
  1
 62
  7
  0
VERTEX
  8
LAYER-1
 10
3.029586
 20
4.634846
 30
0.000000
  0
VERTEX
  8
LAYER-1
 10
6.190585
 20
4.634846
 30
0.000000
  0
VERTEX
  8
LAYER-1
 10
6.190585
 20
4.576108
 30
0.000000
  0
VERTEX
  8
LAYER-1
 10
3.029586
 20
4.576108
 30
0.000000
  0
SEQEND
  8
LAYER-1
  0
LINE
  8
LAYER-1
 62
  7
 10
2.650739
 20
2.102737
 30
0.000000
 11
2.806989
 21
2.102737
 31
0.000000
  0
LINE
  8
LAYER-1
 62
  7
 10
2.650739
 20
2.034858
 30
0.000000
 11
2.650739
 21
2.227737
 31
0.000000
  0
LINE
  8
LAYER-1
 62
  7
 10
2.806989
 20
2.028780
 30
0.000000
 11
2.806989
 21
2.227737
 31
0.000000
  0
LINE
  8
LAYER-1
 62
  7
 10
2.806989
 20
2.102737
 30
0.000000
 11
4.097474
 21
2.102737
 31
0.000000
  0
LINE
  8
LAYER-1
 62
  7
 10
2.671137
 20
2.123135
 30
0.000000
 11
2.630342
 21
2.082339
 31
0.000000
  0
LINE
  8
LAYER-1
 62
  7
 10
2.827387
 20
2.123135
 30
0.000000
 11
2.786592
 21
2.082339
 31
0.000000
  0
TEXT
  8
LAYER-1
 62
  7
 10
4.002863
 20
2.183963
 30
0.000000
 40
0.072115
  1
 
  0
TEXT
  8
LAYER-1
 62
  7
 10
3.099925
 20
1.929421
 30
0.000000
 40
0.144231
  1
PACK-OFF
 72
  5
 11
4.109540
 21
1.929421
 31
0.000000
  0
TEXT
  8
LAYER-1
 62
  7
 10
3.080694
 20
0.919806
 30
0.000000
 40
0.144231
  1
STORE OR
 72
  5
 11
4.128771
 21
0.919806
 31
0.000000
  0
TEXT
  8
LAYER-1
 62
  7
 10
1.349925
 20
0.919806
 30
0.000000
 40
0.144231
  1
MALL OR
 72
  5
 11
2.273002
 21
0.919806
 31
0.000000
  0
POLYLINE
  8
LAYER-1
 66
  1
 70
  1
 62
  7
  0
VERTEX
  8
LAYER-1
 10
1.318904
 20
4.634955
 30
0.000000
  0
VERTEX
  8
LAYER-1
 10
2.597465
 20
4.634955
 30
0.000000
  0
VERTEX
  8
LAYER-1
 10
2.597465
 20
4.576869
 30
0.000000
  0
VERTEX
  8
LAYER-1
 10
1.318904
 20
4.576869
 30
0.000000
  0
SEQEND
  8
LAYER-1
  0
TEXT
  8
LAYER-1
 62
  7
 10
0.965310
 20
1.208267
 30
0.000000
 40
0.144231
  1
BOTTOM OF END PLATE  "H"
 50
90.000000
 72
  5
 11
0.965310
 21
3.900575
 31
0.000000
  0
TEXT
  8
LAYER-1
 62
  7
 10
3.023002
 20
6.900575
 30
0.000000
 40
0.187500
  1
"X"
 72
  5
 11
3.407617
 21
6.900575
 31
0.000000
  0
TEXT
  8
LAYER-1
 62
  7
 10
3.090310
 20
1.227498
 30
0.000000
 40
0.144231
  1
COIL SIDE
 72
  5
 11
4.099925
 21
1.227498
 31
0.000000
  0
TEXT
  8
LAYER-1
 62
  7
 10
4.138387
 20
4.352498
 30
0.000000
 40
0.122596
  1
Provide
 72
  5
 11
4.715310
 21
4.352498
 31
0.000000
  0
TEXT
  8
LAYER-1
 62
  7
 10
4.138387
 20
4.160190
 30
0.000000
 40
0.122596
  1
24" x 24"
 72
  5
 11
4.869156
 21
4.160190
 31
0.000000
  0
TEXT
  8
LAYER-1
 62
  7
 10
4.138387
 20
3.967883
 30
0.000000
 40
0.122596
  1
(610 x 610mm)
 72
  5
 11
5.273002
 21
3.967883
 31
0.000000
  0
TEXT
  8
LAYER-1
 62
  7
 10
4.138387
 20
3.775575
 30
0.000000
 40
0.122596
  1
ACCESS PANELS
 72
  5
 11
5.523002
 21
3.775575
 31
0.000000
  0
TEXT
  8
LAYER-1
 62
  7
 10
4.138387
 20
3.583267
 30
0.000000
 40
0.122596
  1
1 for motor and
 72
  5
 11
5.263387
 21
3.583267
 31
0.000000
  0
TEXT
  8
LAYER-1
 62
  7
 10
4.138387
 20
3.390960
 30
0.000000
 40
0.122596
  1
1 for charging wheel
 72
  5
 11
5.619156
 21
3.390960
 31
0.000000
  0
POLYLINE
  8
LAYER-1
 66
  1
 70
  1
 62
  7
  0
VERTEX
  8
LAYER-1
 10
3.841525
 20
4.636847
 30
0.000000
  0
VERTEX
  8
LAYER-1
 10
5.764347
 20
4.636847
 30
0.000000
  0
VERTEX
  8
LAYER-1
 10
5.764347
 20
4.571935
 30
0.000000
  0
VERTEX
  8
LAYER-1
 10
3.841525
 20
4.571935
 30
0.000000
  0
SEQEND
  8
LAYER-1
  0
POLYLINE
  8
LAYER-1
 66
  1
 70
  0
 62
  7
 10
3.839826
 20
4.722701
 30
0.000000
  0
VERTEX
  8
LAYER-1
 10
3.839826
 20
4.722701
 30
0.000000
  0
VERTEX
  8
LAYER-1
 10
3.839826
 20
4.555980
 30
0.000000
  0
SEQEND
  8
LAYER-1
  0
POLYLINE
  8
LAYER-1
 66
  1
 70
  0
 62
  7
 10
3.987775
 20
4.555980
 30
0.000000
  0
VERTEX
  8
LAYER-1
 10
3.987775
 20
4.555980
 30
0.000000
  0
VERTEX
  8
LAYER-1
 10
3.839826
 20
4.555980
 30
0.000000
  0
SEQEND
  8
LAYER-1
  0
POLYLINE
  8
LAYER-1
 66
  1
 70
  0
 62
  7
 10
5.766254
 20
4.720174
 30
0.000000
  0
VERTEX
  8
LAYER-1
 10
5.766254
 20
4.720174
 30
0.000000
  0
VERTEX
  8
LAYER-1
 10
5.766254
 20
4.555980
 30
0.000000
  0
SEQEND
  8
LAYER-1
  0
POLYLINE
  8
LAYER-1
 66
  1
 70
  0
 62
  7
 10
5.618301
 20
4.555980
 30
0.000000
  0
VERTEX
  8
LAYER-1
 10
5.618301
 20
4.555980
 30
0.000000
  0
VERTEX
  8
LAYER-1
 10
5.766254
 20
4.555980
 30
0.000000
  0
SEQEND
  8
LAYER-1
  0
POLYLINE
  8
LAYER-1
 66
  1
 70
  1
 62
  7
  0
VERTEX
  8
LAYER-1
 10
3.906208
 20
4.615449
 30
0.000000
  0
VERTEX
  8
LAYER-1
 10
5.693613
 20
4.615449
 30
0.000000
  0
VERTEX
  8
LAYER-1
 10
5.693613
 20
4.583672
 30
0.000000
  0
VERTEX
  8
LAYER-1
 10
3.906208
 20
4.583672
 30
0.000000
  0
SEQEND
  8
LAYER-1
  0
TEXT
  8
LAYER-1
 62
253
 10
3.773002
 20
7.650575
 30
0.000000
 40
0.144231
  1
CLEARANCE
 72
  5
 11
4.965310
 21
7.650575
 31
0.000000
  0
TEXT
  8
LAYER-1
 62
253
 10
4.359540
 20
6.612113
 30
0.000000
 40
0.144231
  1
MOTOR
 72
  5
 11
5.128771
 21
6.612113
 31
0.000000
  0
TEXT
  8
LAYER-1
 62
  7
 10
2.724925
 20
2.756344
 30
0.000000
 40
0.122596
  1
C
 72
  5
 11
2.888387
 21
2.756344
 31
0.000000
  0
TEXT
  8
LAYER-1
 62
  7
 10
2.773002
 20
2.698652
 30
0.000000
 40
0.122596
  1
L
 72
  5
 11
2.907617
 21
2.698652
 31
0.000000
  0
LINE
  8
LAYER-1
 62
  7
 10
6.095415
 20
0.479889
 30
0.000000
 11
6.095415
 21
4.556423
 31
0.000000
  0
LINE
  8
LAYER-1
 62
  7
 10
5.294837
 20
0.460204
 30
0.000000
 11
6.220415
 21
0.460204
 31
0.000000
  0
LINE
  8
LAYER-1
 62
  7
 10
6.095415
 20
2.523436
 30
0.000000
 11
6.095415
 21
0.460204
 31
0.000000
  0
POLYLINE
  8
LAYER-1
 66
  1
 70
  1
 62
  7
  0
VERTEX
  8
LAYER-1
 10
6.095415
 20
0.460204
 30
0.000000
  0
VERTEX
  8
LAYER-1
 10
6.124261
 20
0.508281
 30
0.000000
  0
VERTEX
  8
LAYER-1
 10
6.095415
 20
0.508281
 30
0.000000
  0
VERTEX
  8
LAYER-1
 10
6.066569
 20
0.508281
 30
0.000000
  0
VERTEX
  8
LAYER-1
 10
6.095415
 20
0.460204
 30
0.000000
  0
SEQEND
  8
LAYER-1
  0
POLYLINE
  8
LAYER-1
 66
  1
 70
  1
 62
  7
  0
VERTEX
  8
LAYER-1
 10
6.095415
 20
4.576108
 30
0.000000
  0
VERTEX
  8
LAYER-1
 10
6.124261
 20
4.528031
 30
0.000000
  0
VERTEX
  8
LAYER-1
 10
6.095415
 20
4.528031
 30
0.000000
  0
VERTEX
  8
LAYER-1
 10
6.066569
 20
4.528031
 30
0.000000
  0
VERTEX
  8
LAYER-1
 10
6.095415
 20
4.576108
 30
0.000000
  0
SEQEND
  8
LAYER-1
  0
TEXT
  8
LAYER-1
 62
  7
 10
6.012984
 20
2.356346
 30
0.000000
 40
0.072115
  1
 
 50
90.000000
  0
TEXT
  8
LAYER-1
 62
  7
 10
6.061463
 20
1.746729
 30
0.000000
 40
0.144231
  1
CEILING HEIGHT
 50
90.000000
 72
  5
 11
6.061463
 21
3.342883
 31
0.000000
  0
LINE
  8
LAYER-1
 62
  7
 10
2.597465
 20
4.112382
 30
0.000000
 11
3.029586
 21
4.112382
 31
0.000000
  0
LINE
  8
LAYER-1
 62
  7
 10
2.597465
 20
4.514369
 30
0.000000
 11
2.597465
 21
3.987382
 31
0.000000
  0
LINE
  8
LAYER-1
 62
  7
 10
3.029586
 20
4.513608
 30
0.000000
 11
3.029586
 21
3.987382
 31
0.000000
  0
LINE
  8
LAYER-1
 62
  7
 10
2.597465
 20
4.112382
 30
0.000000
 11
1.434160
 21
4.112382
 31
0.000000
  0
LINE
  8
LAYER-1
 62
  7
 10
2.617862
 20
4.132780
 30
0.000000
 11
2.577068
 21
4.091985
 31
0.000000
  0
LINE
  8
LAYER-1
 62
  7
 10
3.049983
 20
4.132780
 30
0.000000
 11
3.009189
 21
4.091985
 31
0.000000
  0
TEXT
  8
LAYER-1
 62
  7
 10
1.333571
 20
4.081601
 30
0.000000
 40
0.086538
  1
 
  0
TEXT
  8
LAYER-1
 62
  7
 10
1.455694
 20
4.179421
 30
0.000000
 40
0.187500
  1
6"
 72
  5
 11
1.724925
 21
4.179421
 31
0.000000
  0
TEXT
  8
LAYER-1
 62
  7
 10
1.724925
 20
4.179421
 30
0.000000
 40
0.144231
  1
 (152mm)
 72
  5
 11
2.609540
 21
4.179421
 31
0.000000
  0
TEXT
  8
LAYER-1
 62
  7
 10
3.090310
 20
0.640960
 30
0.000000
 40
0.144231
  1
INTERIOR
 72
  5
 11
4.051848
 21
0.640960
 31
0.000000
  0
TEXT
  8
LAYER-1
 62
  7
 10
1.349925
 20
0.640960
 30
0.000000
 40
0.144231
  1
EXTERIOR
 72
  5
 11
2.369156
 21
0.640960
 31
0.000000
  0
LINE
  8
LAYER-1
 62
  7
 10
2.670796
 20
6.825312
 30
0.000000
 11
3.765289
 21
6.825312
 31
0.000000
  0
LINE
  8
LAYER-1
 62
  7
 10
2.651111
 20
6.365520
 30
0.000000
 11
2.651111
 21
6.950312
 31
0.000000
  0
LINE
  8
LAYER-1
 62
  7
 10
3.784974
 20
6.360016
 30
0.000000
 11
3.784974
 21
6.950312
 31
0.000000
  0
POLYLINE
  8
LAYER-1
 66
  1
 70
  1
 62
  7
  0
VERTEX
  8
LAYER-1
 10
2.651111
 20
6.825312
 30
0.000000
  0
VERTEX
  8
LAYER-1
 10
2.699188
 20
6.796465
 30
0.000000
  0
VERTEX
  8
LAYER-1
 10
2.699188
 20
6.825312
 30
0.000000
  0
VERTEX
  8
LAYER-1
 10
2.699187
 20
6.854158
 30
0.000000
  0
VERTEX
  8
LAYER-1
 10
2.651111
 20
6.825312
 30
0.000000
  0
SEQEND
  8
LAYER-1
  0
POLYLINE
  8
LAYER-1
 66
  1
 70
  1
 62
  7
  0
VERTEX
  8
LAYER-1
 10
3.784974
 20
6.825312
 30
0.000000
  0
VERTEX
  8
LAYER-1
 10
3.736897
 20
6.796465
 30
0.000000
  0
VERTEX
  8
LAYER-1
 10
3.736897
 20
6.825312
 30
0.000000
  0
VERTEX
  8
LAYER-1
 10
3.736896
 20
6.854158
 30
0.000000
  0
VERTEX
  8
LAYER-1
 10
3.784974
 20
6.825312
 30
0.000000
  0
SEQEND
  8
LAYER-1
  0
TEXT
  8
LAYER-1
 62
  7
 10
3.199713
 20
6.924121
 30
0.000000
 40
0.086538
  1
 
  0
TEXT
  8
LAYER-1
 62
253
 10
4.311463
 20
7.179421
 30
0.000000
 40
0.144231
  1
27" (686mm)
 72
  5
 11
5.474925
 21
7.179421
 31
0.000000
  0
POLYLINE
  8
LAYER-1
  6
LTYPE01
 66
  1
 70
  0
 62
253
  6
LTYPE01
 10
2.669336
 20
7.585128
 30
0.000000
  0
VERTEX
  8
LAYER-1
  6
LTYPE01
 10
2.669336
 20
7.585128
 30
0.000000
  0
VERTEX
  8
LAYER-1
  6
LTYPE01
 10
5.819423
 20
7.584772
 30
0.000000
  0
SEQEND
  8
LAYER-1
  0
POLYLINE
  8
LAYER-1
 66
  1
 70
  1
 62
253
  0
VERTEX
  8
LAYER-1
 10
2.649651
 20
7.585130
 30
0.000000
  0
VERTEX
  8
LAYER-1
 10
2.697725
 20
7.556278
 30
0.000000
  0
VERTEX
  8
LAYER-1
 10
2.697727
 20
7.585124
 30
0.000000
  0
VERTEX
  8
LAYER-1
 10
2.697731
 20
7.613970
 30
0.000000
  0
VERTEX
  8
LAYER-1
 10
2.649651
 20
7.585130
 30
0.000000
  0
SEQEND
  8
LAYER-1
  0
POLYLINE
  8
LAYER-1
 66
  1
 70
  1
 62
253
  0
VERTEX
  8
LAYER-1
 10
5.839108
 20
7.584770
 30
0.000000
  0
VERTEX
  8
LAYER-1
 10
5.791027
 20
7.555929
 30
0.000000
  0
VERTEX
  8
LAYER-1
 10
5.791031
 20
7.584775
 30
0.000000
  0
VERTEX
  8
LAYER-1
 10
5.791034
 20
7.613622
 30
0.000000
  0
VERTEX
  8
LAYER-1
 10
5.839108
 20
7.584770
 30
0.000000
  0
SEQEND
  8
LAYER-1
  0
POLYLINE
  8
LAYER-1
  6
LTYPE01
 66
  1
 70
  0
 62
253
  6
LTYPE01
 10
5.839563
 20
6.530687
 30
0.000000
  0
VERTEX
  8
LAYER-1
  6
LTYPE01
 10
5.839563
 20
6.530687
 30
0.000000
  0
VERTEX
  8
LAYER-1
  6
LTYPE01
 10
5.839563
 20
7.845130
 30
0.000000
  0
SEQEND
  8
LAYER-1
  0
POLYLINE
  8
LAYER-1
  6
LTYPE01
 66
  1
 70
  0
 62
253
  6
LTYPE01
 10
3.814407
 20
7.115689
 30
0.000000
  0
VERTEX
  8
LAYER-1
  6
LTYPE01
 10
3.814407
 20
7.115689
 30
0.000000
  0
VERTEX
  8
LAYER-1
  6
LTYPE01
 10
5.819423
 20
7.116016
 30
0.000000
  0
SEQEND
  8
LAYER-1
  0
POLYLINE
  8
LAYER-1
 66
  1
 70
  1
 62
253
  0
VERTEX
  8
LAYER-1
 10
3.794722
 20
7.115686
 30
0.000000
  0
VERTEX
  8
LAYER-1
 10
3.842803
 20
7.086848
 30
0.000000
  0
VERTEX
  8
LAYER-1
 10
3.842799
 20
7.115694
 30
0.000000
  0
VERTEX
  8
LAYER-1
 10
3.842794
 20
7.144540
 30
0.000000
  0
VERTEX
  8
LAYER-1
 10
3.794722
 20
7.115686
 30
0.000000
  0
SEQEND
  8
LAYER-1
  0
POLYLINE
  8
LAYER-1
 66
  1
 70
  1
 62
253
  0
VERTEX
  8
LAYER-1
 10
5.839108
 20
7.116020
 30
0.000000
  0
VERTEX
  8
LAYER-1
 10
5.791036
 20
7.087166
 30
0.000000
  0
VERTEX
  8
LAYER-1
 10
5.791031
 20
7.116012
 30
0.000000
  0
VERTEX
  8
LAYER-1
 10
5.791026
 20
7.144858
 30
0.000000
  0
VERTEX
  8
LAYER-1
 10
5.839108
 20
7.116020
 30
0.000000
  0
SEQEND
  8
LAYER-1
  0
POLYLINE
  8
LAYER-1
  6
LTYPE01
 66
  1
 70
  0
 62
253
  6
LTYPE01
 10
3.791107
 20
7.079575
 30
0.000000
  0
VERTEX
  8
LAYER-1
  6
LTYPE01
 10
3.791107
 20
7.079575
 30
0.000000
  0
VERTEX
  8
LAYER-1
  6
LTYPE01
 10
3.791107
 20
7.332352
 30
0.000000
  0
SEQEND
  8
LAYER-1
  0
LINE
  8
LAYER-1
 62
  7
 10
0.323065
 20
0.480829
 30
0.000000
 11
0.323064
 21
8.016481
 31
0.000000
  0
LINE
  8
LAYER-1
 62
  7
 10
1.446274
 20
0.461144
 30
0.000000
 11
0.198064
 21
0.461144
 31
0.000000
  0
LINE
  8
LAYER-1
 62
  7
 10
0.142644
 20
8.036166
 30
0.000000
 11
0.448064
 21
8.036166
 31
0.000000
  0
LINE
  8
LAYER-1
 62
  7
 10
0.323064
 20
3.997711
 30
0.000000
 11
0.323064
 21
0.461144
 31
0.000000
  0
POLYLINE
  8
LAYER-1
 66
  1
 70
  1
 62
  7
  0
VERTEX
  8
LAYER-1
 10
0.323064
 20
0.461144
 30
0.000000
  0
VERTEX
  8
LAYER-1
 10
0.351911
 20
0.509221
 30
0.000000
  0
VERTEX
  8
LAYER-1
 10
0.323065
 20
0.509221
 30
0.000000
  0
VERTEX
  8
LAYER-1
 10
0.294218
 20
0.509221
 30
0.000000
  0
VERTEX
  8
LAYER-1
 10
0.323064
 20
0.461144
 30
0.000000
  0
SEQEND
  8
LAYER-1
  0
POLYLINE
  8
LAYER-1
 66
  1
 70
  1
 62
  7
  0
VERTEX
  8
LAYER-1
 10
0.323064
 20
8.036166
 30
0.000000
  0
VERTEX
  8
LAYER-1
 10
0.351910
 20
7.988089
 30
0.000000
  0
VERTEX
  8
LAYER-1
 10
0.323064
 20
7.988089
 30
0.000000
  0
VERTEX
  8
LAYER-1
 10
0.294218
 20
7.988089
 30
0.000000
  0
VERTEX
  8
LAYER-1
 10
0.323064
 20
8.036166
 30
0.000000
  0
SEQEND
  8
LAYER-1
  0
TEXT
  8
LAYER-1
 62
  7
 10
0.221137
 20
3.788940
 30
0.000000
 40
0.086538
  1
 
 50
90.000000
  0
TEXT
  8
LAYER-1
 62
  7
 10
3.388387
 20
2.189036
 30
0.000000
 40
0.187500
  1
"Z"
 72
  5
 11
3.763387
 21
2.189036
 31
0.000000
  0
TEXT
  8
LAYER-1
 62
  7
 10
3.061463
 20
4.381344
 30
0.000000
 40
0.144231
  1
(152 mm)
 72
  5
 11
3.946079
 21
4.381344
 31
0.000000
  0
TEXT
  8
LAYER-1
 62
  7
 10
0.551848
 20
7.371729
 30
0.000000
 40
0.122596
  1
(See end plate
 72
  5
 11
1.619156
 21
7.371729
 31
0.000000
  0
TEXT
  8
LAYER-1
 62
  7
 10
0.551848
 20
7.179421
 30
0.000000
 40
0.122596
  1
 details for sizes)
 72
  5
 11
1.792233
 21
7.179421
 31
0.000000
  0
POLYLINE
  8
LAYER-1
 66
  1
 70
  0
 62
  7
 10
0.652595
 20
6.966279
 30
0.000000
  0
VERTEX
  8
LAYER-1
 10
0.652595
 20
6.966279
 30
0.000000
  0
VERTEX
  8
LAYER-1
 10
3.008658
 20
6.966280
 30
0.000000
  0
SEQEND
  8
LAYER-1
  0
POLYLINE
  8
LAYER-1
 66
  1
 70
  1
 62
  7
  0
VERTEX
  8
LAYER-1
 10
3.028343
 20
6.966280
 30
0.000000
  0
VERTEX
  8
LAYER-1
 10
2.980267
 20
6.937434
 30
0.000000
  0
VERTEX
  8
LAYER-1
 10
2.980266
 20
6.966280
 30
0.000000
  0
VERTEX
  8
LAYER-1
 10
2.980266
 20
6.995126
 30
0.000000
  0
VERTEX
  8
LAYER-1
 10
3.028343
 20
6.966280
 30
0.000000
  0
SEQEND
  8
LAYER-1
  0
POLYLINE
  8
LAYER-1
 66
  1
 70
  0
 62
  7
 10
0.632510
 20
7.112113
 30
0.000000
  0
VERTEX
  8
LAYER-1
 10
0.632510
 20
7.112113
 30
0.000000
  0
VERTEX
  8
LAYER-1
 10
0.789547
 20
5.971892
 30
0.000000
  0
SEQEND
  8
LAYER-1
  0
POLYLINE
  8
LAYER-1
 66
  1
 70
  1
 62
  7
  0
VERTEX
  8
LAYER-1
 10
0.792233
 20
5.952391
 30
0.000000
  0
VERTEX
  8
LAYER-1
 10
0.757097
 20
5.996083
 30
0.000000
  0
VERTEX
  8
LAYER-1
 10
0.785673
 20
6.000019
 30
0.000000
  0
VERTEX
  8
LAYER-1
 10
0.814250
 20
6.003954
 30
0.000000
  0
VERTEX
  8
LAYER-1
 10
0.792233
 20
5.952391
 30
0.000000
  0
SEQEND
  8
LAYER-1
  0
CIRCLE
  8
LAYER-1
 62
  7
 10
2.731444
 20
5.081904
 30
0.000000
 40
0.016208
  0
POLYLINE
  8
LAYER-1
 66
  1
 70
  0
 62
253
 10
3.287422
 20
5.730637
 30
0.000000
  0
VERTEX
  8
LAYER-1
 10
3.287422
 20
5.730637
 30
0.000000
  0
VERTEX
  8
LAYER-1
 10
3.147018
 20
5.730637
 30
0.000000
  0
SEQEND
  8
LAYER-1
  0
POLYLINE
  8
LAYER-1
 66
  1
 70
  0
 62
253
 10
3.217221
 20
5.800845
 30
0.000000
  0
VERTEX
  8
LAYER-1
 10
3.217221
 20
5.800845
 30
0.000000
  0
VERTEX
  8
LAYER-1
 10
3.217221
 20
5.660427
 30
0.000000
  0
SEQEND
  8
LAYER-1
  0
POLYLINE
  8
LAYER-1
  6
LTYPE02
 66
  1
 70
  0
 62
  7
  6
LTYPE02
 10
3.409877
 20
5.923293
 30
0.000000
  0
VERTEX
  8
LAYER-1
  6
LTYPE02
 10
3.409877
 20
5.923293
 30
0.000000
  0
VERTEX
  8
LAYER-1
  6
LTYPE02
 10
3.366621
 20
5.959146
 30
0.000000
  0
VERTEX
  8
LAYER-1
  6
LTYPE02
 10
3.319517
 20
5.984323
 30
0.000000
  0
VERTEX
  8
LAYER-1
  6
LTYPE02
 10
3.268406
 20
5.999827
 30
0.000000
  0
VERTEX
  8
LAYER-1
  6
LTYPE02
 10
3.215252
 20
6.005063
 30
0.000000
  0
VERTEX
  8
LAYER-1
  6
LTYPE02
 10
3.162098
 20
5.999827
 30
0.000000
  0
VERTEX
  8
LAYER-1
  6
LTYPE02
 10
3.110987
 20
5.984323
 30
0.000000
  0
VERTEX
  8
LAYER-1
  6
LTYPE02
 10
3.063883
 20
5.959145
 30
0.000000
  0
VERTEX
  8
LAYER-1
  6
LTYPE02
 10
3.022595
 20
5.925261
 30
0.000000
  0
VERTEX
  8
LAYER-1
  6
LTYPE02
 10
2.988712
 20
5.883975
 30
0.000000
  0
VERTEX
  8
LAYER-1
  6
LTYPE02
 10
2.963534
 20
5.836870
 30
0.000000
  0
VERTEX
  8
LAYER-1
  6
LTYPE02
 10
2.961596
 20
5.824919
 30
0.000000
  0
SEQEND
  8
LAYER-1
  0
CIRCLE
  8
LAYER-1
 62
253
  6
LTYPE01
 10
3.216081
 20
5.730754
 30
0.000000
 40
0.070100
  0
POLYLINE
  8
LAYER-1
  6
LTYPE01
 66
  1
 70
  0
 62
253
  6
LTYPE01
 10
3.197963
 20
5.942265
 30
0.000000
  0
VERTEX
  8
LAYER-1
  6
LTYPE01
 10
3.197963
 20
5.942265
 30
0.000000
  0
VERTEX
  8
LAYER-1
  6
LTYPE01
 10
3.209128
 20
5.926436
 30
0.000000
  0
SEQEND
  8
LAYER-1
  0
POLYLINE
  8
LAYER-1
  6
LTYPE01
 66
  1
 70
  0
 62
253
  6
LTYPE01
 10
3.209128
 20
5.926436
 30
0.000000
  0
VERTEX
  8
LAYER-1
  6
LTYPE01
 10
3.209128
 20
5.926436
 30
0.000000
  0
VERTEX
  8
LAYER-1
  6
LTYPE01
 10
3.219658
 20
5.926245
 30
0.000000
  0
VERTEX
  8
LAYER-1
  6
LTYPE01
 10
3.223787
 20
5.926436
 30
0.000000
  0
SEQEND
  8
LAYER-1
  0
POLYLINE
  8
LAYER-1
  6
LTYPE01
 66
  1
 70
  0
 62
253
  6
LTYPE01
 10
3.234954
 20
5.942265
 30
0.000000
  0
VERTEX
  8
LAYER-1
  6
LTYPE01
 10
3.234954
 20
5.942265
 30
0.000000
  0
VERTEX
  8
LAYER-1
  6
LTYPE01
 10
3.223785
 20
5.926436
 30
0.000000
  0
SEQEND
  8
LAYER-1
  0
POLYLINE
  8
LAYER-1
  6
LTYPE01
 66
  1
 70
  0
 62
253
  6
LTYPE01
 10
3.161534
 20
5.935841
 30
0.000000
  0
VERTEX
  8
LAYER-1
  6
LTYPE01
 10
3.161534
 20
5.935841
 30
0.000000
  0
VERTEX
  8
LAYER-1
  6
LTYPE01
 10
3.175278
 20
5.922191
 30
0.000000
  0
SEQEND
  8
LAYER-1
  0
POLYLINE
  8
LAYER-1
  6
LTYPE01
 66
  1
 70
  0
 62
253
  6
LTYPE01
 10
3.175280
 20
5.922192
 30
0.000000
  0
VERTEX
  8
LAYER-1
  6
LTYPE01
 10
3.175280
 20
5.922192
 30
0.000000
  0
VERTEX
  8
LAYER-1
  6
LTYPE01
 10
3.185996
 20
5.924205
 30
0.000000
  0
VERTEX
  8
LAYER-1
  6
LTYPE01
 10
3.189715
 20
5.924738
 30
0.000000
  0
SEQEND
  8
LAYER-1
  0
POLYLINE
  8
LAYER-1
  6
LTYPE01
 66
  1
 70
  0
 62
253
  6
LTYPE01
 10
3.197963
 20
5.942265
 30
0.000000
  0
VERTEX
  8
LAYER-1
  6
LTYPE01
 10
3.197963
 20
5.942265
 30
0.000000
  0
VERTEX
  8
LAYER-1
  6
LTYPE01
 10
3.189714
 20
5.924737
 30
0.000000
  0
SEQEND
  8
LAYER-1
  0
POLYLINE
  8
LAYER-1
  6
LTYPE01
 66
  1
 70
  0
 62
253
  6
LTYPE01
 10
3.126774
 20
5.923190
 30
0.000000
  0
VERTEX
  8
LAYER-1
  6
LTYPE01
 10
3.126774
 20
5.923190
 30
0.000000
  0
VERTEX
  8
LAYER-1
  6
LTYPE01
 10
3.142681
 20
5.912134
 30
0.000000
  0
SEQEND
  8
LAYER-1
  0
POLYLINE
  8
LAYER-1
  6
LTYPE01
 66
  1
 70
  0
 62
253
  6
LTYPE01
 10
3.142681
 20
5.912135
 30
0.000000
  0
VERTEX
  8
LAYER-1
  6
LTYPE01
 10
3.142681
 20
5.912135
 30
0.000000
  0
VERTEX
  8
LAYER-1
  6
LTYPE01
 10
3.153195
 20
5.916349
 30
0.000000
  0
VERTEX
  8
LAYER-1
  6
LTYPE01
 10
3.156455
 20
5.917148
 30
0.000000
  0
SEQEND
  8
LAYER-1
  0
POLYLINE
  8
LAYER-1
  6
LTYPE01
 66
  1
 70
  0
 62
253
  6
LTYPE01
 10
3.161534
 20
5.935841
 30
0.000000
  0
VERTEX
  8
LAYER-1
  6
LTYPE01
 10
3.161534
 20
5.935841
 30
0.000000
  0
VERTEX
  8
LAYER-1
  6
LTYPE01
 10
3.156455
 20
5.917148
 30
0.000000
  0
SEQEND
  8
LAYER-1
  0
POLYLINE
  8
LAYER-1
  6
LTYPE01
 66
  1
 70
  0
 62
253
  6
LTYPE01
 10
3.094739
 20
5.904695
 30
0.000000
  0
VERTEX
  8
LAYER-1
  6
LTYPE01
 10
3.094739
 20
5.904695
 30
0.000000
  0
VERTEX
  8
LAYER-1
  6
LTYPE01
 10
3.112322
 20
5.896569
 30
0.000000
  0
SEQEND
  8
LAYER-1
  0
POLYLINE
  8
LAYER-1
  6
LTYPE01
 66
  1
 70
  0
 62
253
  6
LTYPE01
 10
3.112322
 20
5.896569
 30
0.000000
  0
VERTEX
  8
LAYER-1
  6
LTYPE01
 10
3.112322
 20
5.896569
 30
0.000000
  0
VERTEX
  8
LAYER-1
  6
LTYPE01
 10
3.122257
 20
5.902918
 30
0.000000
  0
VERTEX
  8
LAYER-1
  6
LTYPE01
 10
3.125016
 20
5.903898
 30
0.000000
  0
SEQEND
  8
LAYER-1
  0
POLYLINE
  8
LAYER-1
  6
LTYPE01
 66
  1
 70
  0
 62
253
  6
LTYPE01
 10
3.126774
 20
5.923190
 30
0.000000
  0
VERTEX
  8
LAYER-1
  6
LTYPE01
 10
3.126774
 20
5.923190
 30
0.000000
  0
VERTEX
  8
LAYER-1
  6
LTYPE01
 10
3.125018
 20
5.903899
 30
0.000000
  0
SEQEND
  8
LAYER-1
  0
POLYLINE
  8
LAYER-1
  6
LTYPE01
 66
  1
 70
  0
 62
253
  6
LTYPE01
 10
3.066402
 20
5.880918
 30
0.000000
  0
VERTEX
  8
LAYER-1
  6
LTYPE01
 10
3.066402
 20
5.880918
 30
0.000000
  0
VERTEX
  8
LAYER-1
  6
LTYPE01
 10
3.085131
 20
5.875970
 30
0.000000
  0
SEQEND
  8
LAYER-1
  0
POLYLINE
  8
LAYER-1
  6
LTYPE01
 66
  1
 70
  0
 62
253
  6
LTYPE01
 10
3.085130
 20
5.875970
 30
0.000000
  0
VERTEX
  8
LAYER-1
  6
LTYPE01
 10
3.085130
 20
5.875970
 30
0.000000
  0
VERTEX
  8
LAYER-1
  6
LTYPE01
 10
3.094124
 20
5.884318
 30
0.000000
  0
VERTEX
  8
LAYER-1
  6
LTYPE01
 10
3.096359
 20
5.885391
 30
0.000000
  0
SEQEND
  8
LAYER-1
  0
POLYLINE
  8
LAYER-1
  6
LTYPE01
 66
  1
 70
  0
 62
253
  6
LTYPE01
 10
3.094738
 20
5.904695
 30
0.000000
  0
VERTEX
  8
LAYER-1
  6
LTYPE01
 10
3.094738
 20
5.904695
 30
0.000000
  0
VERTEX
  8
LAYER-1
  6
LTYPE01
 10
3.096359
 20
5.885391
 30
0.000000
  0
SEQEND
  8
LAYER-1
  0
POLYLINE
  8
LAYER-1
  6
LTYPE01
 66
  1
 70
  0
 62
253
  6
LTYPE01
 10
3.042627
 20
5.852581
 30
0.000000
  0
VERTEX
  8
LAYER-1
  6
LTYPE01
 10
3.042627
 20
5.852581
 30
0.000000
  0
VERTEX
  8
LAYER-1
  6
LTYPE01
 10
3.061928
 20
5.850960
 30
0.000000
  0
SEQEND
  8
LAYER-1
  0
POLYLINE
  8
LAYER-1
  6
LTYPE01
 66
  1
 70
  0
 62
253
  6
LTYPE01
 10
3.061928
 20
5.850960
 30
0.000000
  0
VERTEX
  8
LAYER-1
  6
LTYPE01
 10
3.061928
 20
5.850960
 30
0.000000
  0
VERTEX
  8
LAYER-1
  6
LTYPE01
 10
3.069648
 20
5.861115
 30
0.000000
  0
VERTEX
  8
LAYER-1
  6
LTYPE01
 10
3.071350
 20
5.862188
 30
0.000000
  0
SEQEND
  8
LAYER-1
  0
POLYLINE
  8
LAYER-1
  6
LTYPE01
 66
  1
 70
  0
 62
253
  6
LTYPE01
 10
3.066404
 20
5.880918
 30
0.000000
  0
VERTEX
  8
LAYER-1
  6
LTYPE01
 10
3.066404
 20
5.880918
 30
0.000000
  0
VERTEX
  8
LAYER-1
  6
LTYPE01
 10
3.071351
 20
5.862188
 30
0.000000
  0
SEQEND
  8
LAYER-1
  0
POLYLINE
  8
LAYER-1
  6
LTYPE01
 66
  1
 70
  0
 62
253
  6
LTYPE01
 10
3.024130
 20
5.820545
 30
0.000000
  0
VERTEX
  8
LAYER-1
  6
LTYPE01
 10
3.024130
 20
5.820545
 30
0.000000
  0
VERTEX
  8
LAYER-1
  6
LTYPE01
 10
3.043421
 20
5.822301
 30
0.000000
  0
SEQEND
  8
LAYER-1
  0
POLYLINE
  8
LAYER-1
  6
LTYPE01
 66
  1
 70
  0
 62
253
  6
LTYPE01
 10
3.043421
 20
5.822301
 30
0.000000
  0
VERTEX
  8
LAYER-1
  6
LTYPE01
 10
3.043421
 20
5.822301
 30
0.000000
  0
VERTEX
  8
LAYER-1
  6
LTYPE01
 10
3.049572
 20
5.834014
 30
0.000000
  0
VERTEX
  8
LAYER-1
  6
LTYPE01
 10
3.050750
 20
5.834995
 30
0.000000
  0
SEQEND
  8
LAYER-1
  0
POLYLINE
  8
LAYER-1
  6
LTYPE01
 66
  1
 70
  0
 62
253
  6
LTYPE01
 10
3.042627
 20
5.852580
 30
0.000000
  0
VERTEX
  8
LAYER-1
  6
LTYPE01
 10
3.042627
 20
5.852580
 30
0.000000
  0
VERTEX
  8
LAYER-1
  6
LTYPE01
 10
3.050750
 20
5.834996
 30
0.000000
  0
SEQEND
  8
LAYER-1
  0
POLYLINE
  8
LAYER-1
  6
LTYPE01
 66
  1
 70
  0
 62
253
  6
LTYPE01
 10
3.390291
 20
5.852581
 30
0.000000
  0
VERTEX
  8
LAYER-1
  6
LTYPE01
 10
3.390291
 20
5.852581
 30
0.000000
  0
VERTEX
  8
LAYER-1
  6
LTYPE01
 10
3.382165
 20
5.834996
 30
0.000000
  0
SEQEND
  8
LAYER-1
  0
POLYLINE
  8
LAYER-1
  6
LTYPE01
 66
  1
 70
  0
 62
253
  6
LTYPE01
 10
3.382165
 20
5.834996
 30
0.000000
  0
VERTEX
  8
LAYER-1
  6
LTYPE01
 10
3.382165
 20
5.834996
 30
0.000000
  0
VERTEX
  8
LAYER-1
  6
LTYPE01
 10
3.384576
 20
5.825060
 30
0.000000
  0
VERTEX
  8
LAYER-1
  6
LTYPE01
 10
3.389495
 20
5.822301
 30
0.000000
  0
SEQEND
  8
LAYER-1
  0
POLYLINE
  8
LAYER-1
  6
LTYPE01
 66
  1
 70
  0
 62
253
  6
LTYPE01
 10
3.408785
 20
5.820546
 30
0.000000
  0
VERTEX
  8
LAYER-1
  6
LTYPE01
 10
3.408785
 20
5.820546
 30
0.000000
  0
VERTEX
  8
LAYER-1
  6
LTYPE01
 10
3.389495
 20
5.822301
 30
0.000000
  0
SEQEND
  8
LAYER-1
  0
POLYLINE
  8
LAYER-1
  6
LTYPE01
 66
  1
 70
  0
 62
253
  6
LTYPE01
 10
3.366514
 20
5.880917
 30
0.000000
  0
VERTEX
  8
LAYER-1
  6
LTYPE01
 10
3.366514
 20
5.880917
 30
0.000000
  0
VERTEX
  8
LAYER-1
  6
LTYPE01
 10
3.361565
 20
5.862188
 30
0.000000
  0
SEQEND
  8
LAYER-1
  0
POLYLINE
  8
LAYER-1
  6
LTYPE01
 66
  1
 70
  0
 62
253
  6
LTYPE01
 10
3.361565
 20
5.862188
 30
0.000000
  0
VERTEX
  8
LAYER-1
  6
LTYPE01
 10
3.361565
 20
5.862188
 30
0.000000
  0
VERTEX
  8
LAYER-1
  6
LTYPE01
 10
3.365977
 20
5.853194
 30
0.000000
  0
VERTEX
  8
LAYER-1
  6
LTYPE01
 10
3.370987
 20
5.850960
 30
0.000000
  0
SEQEND
  8
LAYER-1
  0
POLYLINE
  8
LAYER-1
  6
LTYPE01
 66
  1
 70
  0
 62
253
  6
LTYPE01
 10
3.390291
 20
5.852580
 30
0.000000
  0
VERTEX
  8
LAYER-1
  6
LTYPE01
 10
3.390291
 20
5.852580
 30
0.000000
  0
VERTEX
  8
LAYER-1
  6
LTYPE01
 10
3.370987
 20
5.850959
 30
0.000000
  0
SEQEND
  8
LAYER-1
  0
POLYLINE
  8
LAYER-1
  6
LTYPE01
 66
  1
 70
  0
 62
253
  6
LTYPE01
 10
3.338177
 20
5.904695
 30
0.000000
  0
VERTEX
  8
LAYER-1
  6
LTYPE01
 10
3.338177
 20
5.904695
 30
0.000000
  0
VERTEX
  8
LAYER-1
  6
LTYPE01
 10
3.336556
 20
5.885391
 30
0.000000
  0
SEQEND
  8
LAYER-1
  0
POLYLINE
  8
LAYER-1
  6
LTYPE01
 66
  1
 70
  0
 62
253
  6
LTYPE01
 10
3.336555
 20
5.885391
 30
0.000000
  0
VERTEX
  8
LAYER-1
  6
LTYPE01
 10
3.336555
 20
5.885391
 30
0.000000
  0
VERTEX
  8
LAYER-1
  6
LTYPE01
 10
3.342773
 20
5.877671
 30
0.000000
  0
VERTEX
  8
LAYER-1
  6
LTYPE01
 10
3.347784
 20
5.875970
 30
0.000000
  0
SEQEND
  8
LAYER-1
  0
POLYLINE
  8
LAYER-1
  6
LTYPE01
 66
  1
 70
  0
 62
253
  6
LTYPE01
 10
3.366514
 20
5.880917
 30
0.000000
  0
VERTEX
  8
LAYER-1
  6
LTYPE01
 10
3.366514
 20
5.880917
 30
0.000000
  0
VERTEX
  8
LAYER-1
  6
LTYPE01
 10
3.347786
 20
5.875968
 30
0.000000
  0
SEQEND
  8
LAYER-1
  0
POLYLINE
  8
LAYER-1
  6
LTYPE01
 66
  1
 70
  0
 62
253
  6
LTYPE01
 10
3.306142
 20
5.923190
 30
0.000000
  0
VERTEX
  8
LAYER-1
  6
LTYPE01
 10
3.306142
 20
5.923190
 30
0.000000
  0
VERTEX
  8
LAYER-1
  6
LTYPE01
 10
3.307899
 20
5.903899
 30
0.000000
  0
SEQEND
  8
LAYER-1
  0
POLYLINE
  8
LAYER-1
  6
LTYPE01
 66
  1
 70
  0
 62
253
  6
LTYPE01
 10
3.307898
 20
5.903898
 30
0.000000
  0
VERTEX
  8
LAYER-1
  6
LTYPE01
 10
3.307898
 20
5.903898
 30
0.000000
  0
VERTEX
  8
LAYER-1
  6
LTYPE01
 10
3.315674
 20
5.897747
 30
0.000000
  0
VERTEX
  8
LAYER-1
  6
LTYPE01
 10
3.320592
 20
5.896569
 30
0.000000
  0
SEQEND
  8
LAYER-1
  0
POLYLINE
  8
LAYER-1
  6
LTYPE01
 66
  1
 70
  0
 62
253
  6
LTYPE01
 10
3.338177
 20
5.904695
 30
0.000000
  0
VERTEX
  8
LAYER-1
  6
LTYPE01
 10
3.338177
 20
5.904695
 30
0.000000
  0
VERTEX
  8
LAYER-1
  6
LTYPE01
 10
3.320591
 20
5.896570
 30
0.000000
  0
SEQEND
  8
LAYER-1
  0
POLYLINE
  8
LAYER-1
  6
LTYPE01
 66
  1
 70
  0
 62
253
  6
LTYPE01
 10
3.271382
 20
5.935841
 30
0.000000
  0
VERTEX
  8
LAYER-1
  6
LTYPE01
 10
3.271382
 20
5.935841
 30
0.000000
  0
VERTEX
  8
LAYER-1
  6
LTYPE01
 10
3.276461
 20
5.917148
 30
0.000000
  0
SEQEND
  8
LAYER-1
  0
POLYLINE
  8
LAYER-1
  6
LTYPE01
 66
  1
 70
  0
 62
253
  6
LTYPE01
 10
3.276461
 20
5.917148
 30
0.000000
  0
VERTEX
  8
LAYER-1
  6
LTYPE01
 10
3.276461
 20
5.917148
 30
0.000000
  0
VERTEX
  8
LAYER-1
  6
LTYPE01
 10
3.285500
 20
5.912812
 30
0.000000
  0
VERTEX
  8
LAYER-1
  6
LTYPE01
 10
3.290236
 20
5.912135
 30
0.000000
  0
SEQEND
  8
LAYER-1
  0
POLYLINE
  8
LAYER-1
  6
LTYPE01
 66
  1
 70
  0
 62
253
  6
LTYPE01
 10
3.306142
 20
5.923190
 30
0.000000
  0
VERTEX
  8
LAYER-1
  6
LTYPE01
 10
3.306142
 20
5.923190
 30
0.000000
  0
VERTEX
  8
LAYER-1
  6
LTYPE01
 10
3.290236
 20
5.912134
 30
0.000000
  0
SEQEND
  8
LAYER-1
  0
POLYLINE
  8
LAYER-1
  6
LTYPE01
 66
  1
 70
  0
 62
253
  6
LTYPE01
 10
3.234954
 20
5.942265
 30
0.000000
  0
VERTEX
  8
LAYER-1
  6
LTYPE01
 10
3.234954
 20
5.942265
 30
0.000000
  0
VERTEX
  8
LAYER-1
  6
LTYPE01
 10
3.243202
 20
5.924737
 30
0.000000
  0
SEQEND
  8
LAYER-1
  0
POLYLINE
  8
LAYER-1
  6
LTYPE01
 66
  1
 70
  0
 62
253
  6
LTYPE01
 10
3.243202
 20
5.924737
 30
0.000000
  0
VERTEX
  8
LAYER-1
  6
LTYPE01
 10
3.243202
 20
5.924737
 30
0.000000
  0
VERTEX
  8
LAYER-1
  6
LTYPE01
 10
3.253167
 20
5.922409
 30
0.000000
  0
VERTEX
  8
LAYER-1
  6
LTYPE01
 10
3.257636
 20
5.922192
 30
0.000000
  0
SEQEND
  8
LAYER-1
  0
POLYLINE
  8
LAYER-1
  6
LTYPE01
 66
  1
 70
  0
 62
253
  6
LTYPE01
 10
3.271380
 20
5.935841
 30
0.000000
  0
VERTEX
  8
LAYER-1
  6
LTYPE01
 10
3.271380
 20
5.935841
 30
0.000000
  0
VERTEX
  8
LAYER-1
  6
LTYPE01
 10
3.257636
 20
5.922191
 30
0.000000
  0
SEQEND
  8
LAYER-1
  0
POLYLINE
  8
LAYER-1
  6
LTYPE01
 66
  1
 70
  0
 62
253
  6
LTYPE01
 10
3.011477
 20
5.785786
 30
0.000000
  0
VERTEX
  8
LAYER-1
  6
LTYPE01
 10
3.011477
 20
5.785786
 30
0.000000
  0
VERTEX
  8
LAYER-1
  6
LTYPE01
 10
3.030171
 20
5.790865
 30
0.000000
  0
SEQEND
  8
LAYER-1
  0
POLYLINE
  8
LAYER-1
  6
LTYPE01
 66
  1
 70
  0
 62
253
  6
LTYPE01
 10
3.030170
 20
5.790865
 30
0.000000
  0
VERTEX
  8
LAYER-1
  6
LTYPE01
 10
3.030170
 20
5.790865
 30
0.000000
  0
VERTEX
  8
LAYER-1
  6
LTYPE01
 10
3.034505
 20
5.803840
 30
0.000000
  0
VERTEX
  8
LAYER-1
  6
LTYPE01
 10
3.035183
 20
5.804639
 30
0.000000
  0
SEQEND
  8
LAYER-1
  0
POLYLINE
  8
LAYER-1
  6
LTYPE01
 66
  1
 70
  0
 62
253
  6
LTYPE01
 10
3.024130
 20
5.820546
 30
0.000000
  0
VERTEX
  8
LAYER-1
  6
LTYPE01
 10
3.024130
 20
5.820546
 30
0.000000
  0
VERTEX
  8
LAYER-1
  6
LTYPE01
 10
3.035185
 20
5.804639
 30
0.000000
  0
SEQEND
  8
LAYER-1
  0
POLYLINE
  8
LAYER-1
  6
LTYPE01
 66
  1
 70
  0
 62
253
  6
LTYPE01
 10
3.005055
 20
5.749356
 30
0.000000
  0
VERTEX
  8
LAYER-1
  6
LTYPE01
 10
3.005055
 20
5.749356
 30
0.000000
  0
VERTEX
  8
LAYER-1
  6
LTYPE01
 10
3.022582
 20
5.757605
 30
0.000000
  0
SEQEND
  8
LAYER-1
  0
POLYLINE
  8
LAYER-1
  6
LTYPE01
 66
  1
 70
  0
 62
253
  6
LTYPE01
 10
3.022582
 20
5.757605
 30
0.000000
  0
VERTEX
  8
LAYER-1
  6
LTYPE01
 10
3.022582
 20
5.757605
 30
0.000000
  0
VERTEX
  8
LAYER-1
  6
LTYPE01
 10
3.024909
 20
5.771507
 30
0.000000
  0
VERTEX
  8
LAYER-1
  6
LTYPE01
 10
3.025127
 20
5.772040
 30
0.000000
  0
SEQEND
  8
LAYER-1
  0
POLYLINE
  8
LAYER-1
  6
LTYPE01
 66
  1
 70
  0
 62
253
  6
LTYPE01
 10
3.011477
 20
5.785786
 30
0.000000
  0
VERTEX
  8
LAYER-1
  6
LTYPE01
 10
3.011477
 20
5.785786
 30
0.000000
  0
VERTEX
  8
LAYER-1
  6
LTYPE01
 10
3.025128
 20
5.772040
 30
0.000000
  0
SEQEND
  8
LAYER-1
  0
POLYLINE
  8
LAYER-1
  6
LTYPE01
 66
  1
 70
  0
 62
253
  6
LTYPE01
 10
3.005055
 20
5.712366
 30
0.000000
  0
VERTEX
  8
LAYER-1
  6
LTYPE01
 10
3.005055
 20
5.712366
 30
0.000000
  0
VERTEX
  8
LAYER-1
  6
LTYPE01
 10
3.020884
 20
5.723532
 30
0.000000
  0
SEQEND
  8
LAYER-1
  0
POLYLINE
  8
LAYER-1
  6
LTYPE01
 66
  1
 70
  0
 62
253
  6
LTYPE01
 10
3.020884
 20
5.723531
 30
0.000000
  0
VERTEX
  8
LAYER-1
  6
LTYPE01
 10
3.020884
 20
5.723531
 30
0.000000
  0
VERTEX
  8
LAYER-1
  6
LTYPE01
 10
3.021075
 20
5.737998
 30
0.000000
  0
VERTEX
  8
LAYER-1
  6
LTYPE01
 10
3.020883
 20
5.738189
 30
0.000000
  0
SEQEND
  8
LAYER-1
  0
POLYLINE
  8
LAYER-1
  6
LTYPE01
 66
  1
 70
  0
 62
253
  6
LTYPE01
 10
3.005055
 20
5.749356
 30
0.000000
  0
VERTEX
  8
LAYER-1
  6
LTYPE01
 10
3.005055
 20
5.749356
 30
0.000000
  0
VERTEX
  8
LAYER-1
  6
LTYPE01
 10
3.020884
 20
5.738190
 30
0.000000
  0
SEQEND
  8
LAYER-1
  0
POLYLINE
  8
LAYER-1
  6
LTYPE01
 66
  1
 70
  0
 62
253
  6
LTYPE01
 10
3.011477
 20
5.675937
 30
0.000000
  0
VERTEX
  8
LAYER-1
  6
LTYPE01
 10
3.011477
 20
5.675937
 30
0.000000
  0
VERTEX
  8
LAYER-1
  6
LTYPE01
 10
3.025128
 20
5.689683
 30
0.000000
  0
SEQEND
  8
LAYER-1
  0
POLYLINE
  8
LAYER-1
  6
LTYPE01
 66
  1
 70
  0
 62
253
  6
LTYPE01
 10
3.025127
 20
5.689683
 30
0.000000
  0
VERTEX
  8
LAYER-1
  6
LTYPE01
 10
3.025127
 20
5.689683
 30
0.000000
  0
VERTEX
  8
LAYER-1
  6
LTYPE01
 10
3.023114
 20
5.704335
 30
0.000000
  0
VERTEX
  8
LAYER-1
  6
LTYPE01
 10
3.022582
 20
5.704118
 30
0.000000
  0
SEQEND
  8
LAYER-1
  0
POLYLINE
  8
LAYER-1
  6
LTYPE01
 66
  1
 70
  0
 62
253
  6
LTYPE01
 10
3.005055
 20
5.712366
 30
0.000000
  0
VERTEX
  8
LAYER-1
  6
LTYPE01
 10
3.005055
 20
5.712366
 30
0.000000
  0
VERTEX
  8
LAYER-1
  6
LTYPE01
 10
3.022582
 20
5.704119
 30
0.000000
  0
SEQEND
  8
LAYER-1
  0
POLYLINE
  8
LAYER-1
  6
LTYPE01
 66
  1
 70
  0
 62
253
  6
LTYPE01
 10
3.024130
 20
5.641178
 30
0.000000
  0
VERTEX
  8
LAYER-1
  6
LTYPE01
 10
3.024130
 20
5.641178
 30
0.000000
  0
VERTEX
  8
LAYER-1
  6
LTYPE01
 10
3.035185
 20
5.657085
 30
0.000000
  0
SEQEND
  8
LAYER-1
  0
POLYLINE
  8
LAYER-1
  6
LTYPE01
 66
  1
 70
  0
 62
253
  6
LTYPE01
 10
3.035183
 20
5.657085
 30
0.000000
  0
VERTEX
  8
LAYER-1
  6
LTYPE01
 10
3.035183
 20
5.657085
 30
0.000000
  0
VERTEX
  8
LAYER-1
  6
LTYPE01
 10
3.030969
 20
5.671536
 30
0.000000
  0
VERTEX
  8
LAYER-1
  6
LTYPE01
 10
3.030170
 20
5.670859
 30
0.000000
  0
SEQEND
  8
LAYER-1
  0
POLYLINE
  8
LAYER-1
  6
LTYPE01
 66
  1
 70
  0
 62
253
  6
LTYPE01
 10
3.011477
 20
5.675937
 30
0.000000
  0
VERTEX
  8
LAYER-1
  6
LTYPE01
 10
3.011477
 20
5.675937
 30
0.000000
  0
VERTEX
  8
LAYER-1
  6
LTYPE01
 10
3.030171
 20
5.670859
 30
0.000000
  0
SEQEND
  8
LAYER-1
  0
POLYLINE
  8
LAYER-1
  6
LTYPE01
 66
  1
 70
  0
 62
253
  6
LTYPE01
 10
3.042627
 20
5.609141
 30
0.000000
  0
VERTEX
  8
LAYER-1
  6
LTYPE01
 10
3.042627
 20
5.609141
 30
0.000000
  0
VERTEX
  8
LAYER-1
  6
LTYPE01
 10
3.050750
 20
5.626727
 30
0.000000
  0
SEQEND
  8
LAYER-1
  0
POLYLINE
  8
LAYER-1
  6
LTYPE01
 66
  1
 70
  0
 62
253
  6
LTYPE01
 10
3.050750
 20
5.626727
 30
0.000000
  0
VERTEX
  8
LAYER-1
  6
LTYPE01
 10
3.050750
 20
5.626727
 30
0.000000
  0
VERTEX
  8
LAYER-1
  6
LTYPE01
 10
3.044402
 20
5.640599
 30
0.000000
  0
VERTEX
  8
LAYER-1
  6
LTYPE01
 10
3.043420
 20
5.639421
 30
0.000000
  0
SEQEND
  8
LAYER-1
  0
POLYLINE
  8
LAYER-1
  6
LTYPE01
 66
  1
 70
  0
 62
253
  6
LTYPE01
 10
3.024130
 20
5.641177
 30
0.000000
  0
VERTEX
  8
LAYER-1
  6
LTYPE01
 10
3.024130
 20
5.641177
 30
0.000000
  0
VERTEX
  8
LAYER-1
  6
LTYPE01
 10
3.043421
 20
5.639421
 30
0.000000
  0
SEQEND
  8
LAYER-1
  0
POLYLINE
  8
LAYER-1
  6
LTYPE01
 66
  1
 70
  0
 62
253
  6
LTYPE01
 10
3.066402
 20
5.580806
 30
0.000000
  0
VERTEX
  8
LAYER-1
  6
LTYPE01
 10
3.066402
 20
5.580806
 30
0.000000
  0
VERTEX
  8
LAYER-1
  6
LTYPE01
 10
3.071351
 20
5.599534
 30
0.000000
  0
SEQEND
  8
LAYER-1
  0
POLYLINE
  8
LAYER-1
  6
LTYPE01
 66
  1
 70
  0
 62
253
  6
LTYPE01
 10
3.071351
 20
5.599534
 30
0.000000
  0
VERTEX
  8
LAYER-1
  6
LTYPE01
 10
3.071351
 20
5.599534
 30
0.000000
  0
VERTEX
  8
LAYER-1
  6
LTYPE01
 10
3.063001
 20
5.612465
 30
0.000000
  0
VERTEX
  8
LAYER-1
  6
LTYPE01
 10
3.061928
 20
5.610764
 30
0.000000
  0
SEQEND
  8
LAYER-1
  0
POLYLINE
  8
LAYER-1
  6
LTYPE01
 66
  1
 70
  0
 62
253
  6
LTYPE01
 10
3.042624
 20
5.609143
 30
0.000000
  0
VERTEX
  8
LAYER-1
  6
LTYPE01
 10
3.042624
 20
5.609143
 30
0.000000
  0
VERTEX
  8
LAYER-1
  6
LTYPE01
 10
3.061928
 20
5.610764
 30
0.000000
  0
SEQEND
  8
LAYER-1
  0
POLYLINE
  8
LAYER-1
  6
LTYPE01
 66
  1
 70
  0
 62
253
  6
LTYPE01
 10
3.094738
 20
5.557028
 30
0.000000
  0
VERTEX
  8
LAYER-1
  6
LTYPE01
 10
3.094738
 20
5.557028
 30
0.000000
  0
VERTEX
  8
LAYER-1
  6
LTYPE01
 10
3.096359
 20
5.576332
 30
0.000000
  0
SEQEND
  8
LAYER-1
  0
POLYLINE
  8
LAYER-1
  6
LTYPE01
 66
  1
 70
  0
 62
253
  6
LTYPE01
 10
3.096359
 20
5.576332
 30
0.000000
  0
VERTEX
  8
LAYER-1
  6
LTYPE01
 10
3.096359
 20
5.576332
 30
0.000000
  0
VERTEX
  8
LAYER-1
  6
LTYPE01
 10
3.086203
 20
5.587988
 30
0.000000
  0
VERTEX
  8
LAYER-1
  6
LTYPE01
 10
3.085130
 20
5.585754
 30
0.000000
  0
SEQEND
  8
LAYER-1
  0
POLYLINE
  8
LAYER-1
  6
LTYPE01
 66
  1
 70
  0
 62
253
  6
LTYPE01
 10
3.066402
 20
5.580806
 30
0.000000
  0
VERTEX
  8
LAYER-1
  6
LTYPE01
 10
3.066402
 20
5.580806
 30
0.000000
  0
VERTEX
  8
LAYER-1
  6
LTYPE01
 10
3.085131
 20
5.585754
 30
0.000000
  0
SEQEND
  8
LAYER-1
  0
POLYLINE
  8
LAYER-1
  6
LTYPE01
 66
  1
 70
  0
 62
253
  6
LTYPE01
 10
3.126772
 20
5.538533
 30
0.000000
  0
VERTEX
  8
LAYER-1
  6
LTYPE01
 10
3.126772
 20
5.538533
 30
0.000000
  0
VERTEX
  8
LAYER-1
  6
LTYPE01
 10
3.125016
 20
5.557824
 30
0.000000
  0
SEQEND
  8
LAYER-1
  0
POLYLINE
  8
LAYER-1
  6
LTYPE01
 66
  1
 70
  0
 62
253
  6
LTYPE01
 10
3.125016
 20
5.557824
 30
0.000000
  0
VERTEX
  8
LAYER-1
  6
LTYPE01
 10
3.125016
 20
5.557824
 30
0.000000
  0
VERTEX
  8
LAYER-1
  6
LTYPE01
 10
3.113303
 20
5.567912
 30
0.000000
  0
VERTEX
  8
LAYER-1
  6
LTYPE01
 10
3.112322
 20
5.565153
 30
0.000000
  0
SEQEND
  8
LAYER-1
  0
POLYLINE
  8
LAYER-1
  6
LTYPE01
 66
  1
 70
  0
 62
253
  6
LTYPE01
 10
3.094738
 20
5.557028
 30
0.000000
  0
VERTEX
  8
LAYER-1
  6
LTYPE01
 10
3.094738
 20
5.557028
 30
0.000000
  0
VERTEX
  8
LAYER-1
  6
LTYPE01
 10
3.112322
 20
5.565153
 30
0.000000
  0
SEQEND
  8
LAYER-1
  0
POLYLINE
  8
LAYER-1
  6
LTYPE01
 66
  1
 70
  0
 62
253
  6
LTYPE01
 10
3.161534
 20
5.525881
 30
0.000000
  0
VERTEX
  8
LAYER-1
  6
LTYPE01
 10
3.161534
 20
5.525881
 30
0.000000
  0
VERTEX
  8
LAYER-1
  6
LTYPE01
 10
3.156454
 20
5.544574
 30
0.000000
  0
SEQEND
  8
LAYER-1
  0
POLYLINE
  8
LAYER-1
  6
LTYPE01
 66
  1
 70
  0
 62
253
  6
LTYPE01
 10
3.156455
 20
5.544575
 30
0.000000
  0
VERTEX
  8
LAYER-1
  6
LTYPE01
 10
3.156455
 20
5.544575
 30
0.000000
  0
VERTEX
  8
LAYER-1
  6
LTYPE01
 10
3.143479
 20
5.552847
 30
0.000000
  0
VERTEX
  8
LAYER-1
  6
LTYPE01
 10
3.142680
 20
5.549588
 30
0.000000
  0
SEQEND
  8
LAYER-1
  0
POLYLINE
  8
LAYER-1
  6
LTYPE01
 66
  1
 70
  0
 62
253
  6
LTYPE01
 10
3.126772
 20
5.538533
 30
0.000000
  0
VERTEX
  8
LAYER-1
  6
LTYPE01
 10
3.126772
 20
5.538533
 30
0.000000
  0
VERTEX
  8
LAYER-1
  6
LTYPE01
 10
3.142681
 20
5.549589
 30
0.000000
  0
SEQEND
  8
LAYER-1
  0
POLYLINE
  8
LAYER-1
  6
LTYPE01
 66
  1
 70
  0
 62
253
  6
LTYPE01
 10
3.197961
 20
5.519458
 30
0.000000
  0
VERTEX
  8
LAYER-1
  6
LTYPE01
 10
3.197961
 20
5.519458
 30
0.000000
  0
VERTEX
  8
LAYER-1
  6
LTYPE01
 10
3.189714
 20
5.536986
 30
0.000000
  0
SEQEND
  8
LAYER-1
  0
POLYLINE
  8
LAYER-1
  6
LTYPE01
 66
  1
 70
  0
 62
253
  6
LTYPE01
 10
3.189715
 20
5.536986
 30
0.000000
  0
VERTEX
  8
LAYER-1
  6
LTYPE01
 10
3.189715
 20
5.536986
 30
0.000000
  0
VERTEX
  8
LAYER-1
  6
LTYPE01
 10
3.175813
 20
5.543251
 30
0.000000
  0
VERTEX
  8
LAYER-1
  6
LTYPE01
 10
3.175280
 20
5.539531
 30
0.000000
  0
SEQEND
  8
LAYER-1
  0
POLYLINE
  8
LAYER-1
  6
LTYPE01
 66
  1
 70
  0
 62
253
  6
LTYPE01
 10
3.161534
 20
5.525881
 30
0.000000
  0
VERTEX
  8
LAYER-1
  6
LTYPE01
 10
3.161534
 20
5.525881
 30
0.000000
  0
VERTEX
  8
LAYER-1
  6
LTYPE01
 10
3.175278
 20
5.539531
 30
0.000000
  0
SEQEND
  8
LAYER-1
  0
POLYLINE
  8
LAYER-1
  6
LTYPE01
 66
  1
 70
  0
 62
253
  6
LTYPE01
 10
3.234954
 20
5.519458
 30
0.000000
  0
VERTEX
  8
LAYER-1
  6
LTYPE01
 10
3.234954
 20
5.519458
 30
0.000000
  0
VERTEX
  8
LAYER-1
  6
LTYPE01
 10
3.223785
 20
5.535287
 30
0.000000
  0
SEQEND
  8
LAYER-1
  0
POLYLINE
  8
LAYER-1
  6
LTYPE01
 66
  1
 70
  0
 62
253
  6
LTYPE01
 10
3.223787
 20
5.535287
 30
0.000000
  0
VERTEX
  8
LAYER-1
  6
LTYPE01
 10
3.223787
 20
5.535287
 30
0.000000
  0
VERTEX
  8
LAYER-1
  6
LTYPE01
 10
3.209319
 20
5.539414
 30
0.000000
  0
VERTEX
  8
LAYER-1
  6
LTYPE01
 10
3.209128
 20
5.535287
 30
0.000000
  0
SEQEND
  8
LAYER-1
  0
POLYLINE
  8
LAYER-1
  6
LTYPE01
 66
  1
 70
  0
 62
253
  6
LTYPE01
 10
3.197961
 20
5.519458
 30
0.000000
  0
VERTEX
  8
LAYER-1
  6
LTYPE01
 10
3.197961
 20
5.519458
 30
0.000000
  0
VERTEX
  8
LAYER-1
  6
LTYPE01
 10
3.209128
 20
5.535287
 30
0.000000
  0
SEQEND
  8
LAYER-1
  0
POLYLINE
  8
LAYER-1
  6
LTYPE01
 66
  1
 70
  0
 62
253
  6
LTYPE01
 10
3.271380
 20
5.525881
 30
0.000000
  0
VERTEX
  8
LAYER-1
  6
LTYPE01
 10
3.271380
 20
5.525881
 30
0.000000
  0
VERTEX
  8
LAYER-1
  6
LTYPE01
 10
3.257636
 20
5.539531
 30
0.000000
  0
SEQEND
  8
LAYER-1
  0
POLYLINE
  8
LAYER-1
  6
LTYPE01
 66
  1
 70
  0
 62
253
  6
LTYPE01
 10
3.257636
 20
5.539531
 30
0.000000
  0
VERTEX
  8
LAYER-1
  6
LTYPE01
 10
3.257636
 20
5.539531
 30
0.000000
  0
VERTEX
  8
LAYER-1
  6
LTYPE01
 10
3.242984
 20
5.541456
 30
0.000000
  0
VERTEX
  8
LAYER-1
  6
LTYPE01
 10
3.243202
 20
5.536986
 30
0.000000
  0
SEQEND
  8
LAYER-1
  0
POLYLINE
  8
LAYER-1
  6
LTYPE01
 66
  1
 70
  0
 62
253
  6
LTYPE01
 10
3.234954
 20
5.519458
 30
0.000000
  0
VERTEX
  8
LAYER-1
  6
LTYPE01
 10
3.234954
 20
5.519458
 30
0.000000
  0
VERTEX
  8
LAYER-1
  6
LTYPE01
 10
3.243200
 20
5.536986
 30
0.000000
  0
SEQEND
  8
LAYER-1
  0
POLYLINE
  8
LAYER-1
  6
LTYPE01
 66
  1
 70
  0
 62
253
  6
LTYPE01
 10
3.306142
 20
5.538533
 30
0.000000
  0
VERTEX
  8
LAYER-1
  6
LTYPE01
 10
3.306142
 20
5.538533
 30
0.000000
  0
VERTEX
  8
LAYER-1
  6
LTYPE01
 10
3.290234
 20
5.549589
 30
0.000000
  0
SEQEND
  8
LAYER-1
  0
POLYLINE
  8
LAYER-1
  6
LTYPE01
 66
  1
 70
  0
 62
253
  6
LTYPE01
 10
3.290235
 20
5.549588
 30
0.000000
  0
VERTEX
  8
LAYER-1
  6
LTYPE01
 10
3.290235
 20
5.549588
 30
0.000000
  0
VERTEX
  8
LAYER-1
  6
LTYPE01
 10
3.275784
 20
5.549311
 30
0.000000
  0
VERTEX
  8
LAYER-1
  6
LTYPE01
 10
3.276461
 20
5.544574
 30
0.000000
  0
SEQEND
  8
LAYER-1
  0
POLYLINE
  8
LAYER-1
  6
LTYPE01
 66
  1
 70
  0
 62
253
  6
LTYPE01
 10
3.271380
 20
5.525881
 30
0.000000
  0
VERTEX
  8
LAYER-1
  6
LTYPE01
 10
3.271380
 20
5.525881
 30
0.000000
  0
VERTEX
  8
LAYER-1
  6
LTYPE01
 10
3.276461
 20
5.544576
 30
0.000000
  0
SEQEND
  8
LAYER-1
  0
POLYLINE
  8
LAYER-1
  6
LTYPE01
 66
  1
 70
  0
 62
253
  6
LTYPE01
 10
3.338177
 20
5.557028
 30
0.000000
  0
VERTEX
  8
LAYER-1
  6
LTYPE01
 10
3.338177
 20
5.557028
 30
0.000000
  0
VERTEX
  8
LAYER-1
  6
LTYPE01
 10
3.320591
 20
5.565154
 30
0.000000
  0
SEQEND
  8
LAYER-1
  0
POLYLINE
  8
LAYER-1
  6
LTYPE01
 66
  1
 70
  0
 62
253
  6
LTYPE01
 10
3.320592
 20
5.565153
 30
0.000000
  0
VERTEX
  8
LAYER-1
  6
LTYPE01
 10
3.320592
 20
5.565153
 30
0.000000
  0
VERTEX
  8
LAYER-1
  6
LTYPE01
 10
3.306720
 20
5.562742
 30
0.000000
  0
VERTEX
  8
LAYER-1
  6
LTYPE01
 10
3.307898
 20
5.557824
 30
0.000000
  0
SEQEND
  8
LAYER-1
  0
POLYLINE
  8
LAYER-1
  6
LTYPE01
 66
  1
 70
  0
 62
253
  6
LTYPE01
 10
3.306142
 20
5.538533
 30
0.000000
  0
VERTEX
  8
LAYER-1
  6
LTYPE01
 10
3.306142
 20
5.538533
 30
0.000000
  0
VERTEX
  8
LAYER-1
  6
LTYPE01
 10
3.307899
 20
5.557824
 30
0.000000
  0
SEQEND
  8
LAYER-1
  0
POLYLINE
  8
LAYER-1
  6
LTYPE01
 66
  1
 70
  0
 62
253
  6
LTYPE01
 10
3.366514
 20
5.580805
 30
0.000000
  0
VERTEX
  8
LAYER-1
  6
LTYPE01
 10
3.366514
 20
5.580805
 30
0.000000
  0
VERTEX
  8
LAYER-1
  6
LTYPE01
 10
3.347786
 20
5.585754
 30
0.000000
  0
SEQEND
  8
LAYER-1
  0
POLYLINE
  8
LAYER-1
  6
LTYPE01
 66
  1
 70
  0
 62
253
  6
LTYPE01
 10
3.347784
 20
5.585754
 30
0.000000
  0
VERTEX
  8
LAYER-1
  6
LTYPE01
 10
3.347784
 20
5.585754
 30
0.000000
  0
VERTEX
  8
LAYER-1
  6
LTYPE01
 10
3.334852
 20
5.581342
 30
0.000000
  0
VERTEX
  8
LAYER-1
  6
LTYPE01
 10
3.336555
 20
5.576332
 30
0.000000
  0
SEQEND
  8
LAYER-1
  0
POLYLINE
  8
LAYER-1
  6
LTYPE01
 66
  1
 70
  0
 62
253
  6
LTYPE01
 10
3.338177
 20
5.557028
 30
0.000000
  0
VERTEX
  8
LAYER-1
  6
LTYPE01
 10
3.338177
 20
5.557028
 30
0.000000
  0
VERTEX
  8
LAYER-1
  6
LTYPE01
 10
3.336556
 20
5.576332
 30
0.000000
  0
SEQEND
  8
LAYER-1
  0
POLYLINE
  8
LAYER-1
  6
LTYPE01
 66
  1
 70
  0
 62
253
  6
LTYPE01
 10
3.390289
 20
5.609141
 30
0.000000
  0
VERTEX
  8
LAYER-1
  6
LTYPE01
 10
3.390289
 20
5.609141
 30
0.000000
  0
VERTEX
  8
LAYER-1
  6
LTYPE01
 10
3.370987
 20
5.610762
 30
0.000000
  0
SEQEND
  8
LAYER-1
  0
POLYLINE
  8
LAYER-1
  6
LTYPE01
 66
  1
 70
  0
 62
253
  6
LTYPE01
 10
3.370987
 20
5.610764
 30
0.000000
  0
VERTEX
  8
LAYER-1
  6
LTYPE01
 10
3.370987
 20
5.610764
 30
0.000000
  0
VERTEX
  8
LAYER-1
  6
LTYPE01
 10
3.359330
 20
5.604545
 30
0.000000
  0
VERTEX
  8
LAYER-1
  6
LTYPE01
 10
3.361565
 20
5.599534
 30
0.000000
  0
SEQEND
  8
LAYER-1
  0
POLYLINE
  8
LAYER-1
  6
LTYPE01
 66
  1
 70
  0
 62
253
  6
LTYPE01
 10
3.366514
 20
5.580805
 30
0.000000
  0
VERTEX
  8
LAYER-1
  6
LTYPE01
 10
3.366514
 20
5.580805
 30
0.000000
  0
VERTEX
  8
LAYER-1
  6
LTYPE01
 10
3.361565
 20
5.599534
 30
0.000000
  0
SEQEND
  8
LAYER-1
  0
POLYLINE
  8
LAYER-1
  6
LTYPE01
 66
  1
 70
  0
 62
253
  6
LTYPE01
 10
3.408785
 20
5.641178
 30
0.000000
  0
VERTEX
  8
LAYER-1
  6
LTYPE01
 10
3.408785
 20
5.641178
 30
0.000000
  0
VERTEX
  8
LAYER-1
  6
LTYPE01
 10
3.389495
 20
5.639421
 30
0.000000
  0
SEQEND
  8
LAYER-1
  0
POLYLINE
  8
LAYER-1
  6
LTYPE01
 66
  1
 70
  0
 62
253
  6
LTYPE01
 10
3.389494
 20
5.639421
 30
0.000000
  0
VERTEX
  8
LAYER-1
  6
LTYPE01
 10
3.389494
 20
5.639421
 30
0.000000
  0
VERTEX
  8
LAYER-1
  6
LTYPE01
 10
3.379406
 20
5.631646
 30
0.000000
  0
VERTEX
  8
LAYER-1
  6
LTYPE01
 10
3.382165
 20
5.626727
 30
0.000000
  0
SEQEND
  8
LAYER-1
  0
POLYLINE
  8
LAYER-1
  6
LTYPE01
 66
  1
 70
  0
 62
253
  6
LTYPE01
 10
3.390291
 20
5.609143
 30
0.000000
  0
VERTEX
  8
LAYER-1
  6
LTYPE01
 10
3.390291
 20
5.609143
 30
0.000000
  0
VERTEX
  8
LAYER-1
  6
LTYPE01
 10
3.382165
 20
5.626727
 30
0.000000
  0
SEQEND
  8
LAYER-1
  0
POLYLINE
  8
LAYER-1
  6
LTYPE01
 66
  1
 70
  0
 62
253
  6
LTYPE01
 10
3.421437
 20
5.675937
 30
0.000000
  0
VERTEX
  8
LAYER-1
  6
LTYPE01
 10
3.421437
 20
5.675937
 30
0.000000
  0
VERTEX
  8
LAYER-1
  6
LTYPE01
 10
3.402745
 20
5.670857
 30
0.000000
  0
SEQEND
  8
LAYER-1
  0
POLYLINE
  8
LAYER-1
  6
LTYPE01
 66
  1
 70
  0
 62
253
  6
LTYPE01
 10
3.402745
 20
5.670858
 30
0.000000
  0
VERTEX
  8
LAYER-1
  6
LTYPE01
 10
3.402745
 20
5.670858
 30
0.000000
  0
VERTEX
  8
LAYER-1
  6
LTYPE01
 10
3.394472
 20
5.661819
 30
0.000000
  0
VERTEX
  8
LAYER-1
  6
LTYPE01
 10
3.397731
 20
5.657085
 30
0.000000
  0
SEQEND
  8
LAYER-1
  0
POLYLINE
  8
LAYER-1
  6
LTYPE01
 66
  1
 70
  0
 62
253
  6
LTYPE01
 10
3.408785
 20
5.641177
 30
0.000000
  0
VERTEX
  8
LAYER-1
  6
LTYPE01
 10
3.408785
 20
5.641177
 30
0.000000
  0
VERTEX
  8
LAYER-1
  6
LTYPE01
 10
3.397729
 20
5.657083
 30
0.000000
  0
SEQEND
  8
LAYER-1
  0
POLYLINE
  8
LAYER-1
  6
LTYPE01
 66
  1
 70
  0
 62
253
  6
LTYPE01
 10
3.427862
 20
5.712366
 30
0.000000
  0
VERTEX
  8
LAYER-1
  6
LTYPE01
 10
3.427862
 20
5.712366
 30
0.000000
  0
VERTEX
  8
LAYER-1
  6
LTYPE01
 10
3.410334
 20
5.704118
 30
0.000000
  0
SEQEND
  8
LAYER-1
  0
POLYLINE
  8
LAYER-1
  6
LTYPE01
 66
  1
 70
  0
 62
253
  6
LTYPE01
 10
3.410334
 20
5.704118
 30
0.000000
  0
VERTEX
  8
LAYER-1
  6
LTYPE01
 10
3.410334
 20
5.704118
 30
0.000000
  0
VERTEX
  8
LAYER-1
  6
LTYPE01
 10
3.404069
 20
5.694153
 30
0.000000
  0
VERTEX
  8
LAYER-1
  6
LTYPE01
 10
3.407789
 20
5.689683
 30
0.000000
  0
SEQEND
  8
LAYER-1
  0
POLYLINE
  8
LAYER-1
  6
LTYPE01
 66
  1
 70
  0
 62
253
  6
LTYPE01
 10
3.421437
 20
5.675937
 30
0.000000
  0
VERTEX
  8
LAYER-1
  6
LTYPE01
 10
3.421437
 20
5.675937
 30
0.000000
  0
VERTEX
  8
LAYER-1
  6
LTYPE01
 10
3.407789
 20
5.689682
 30
0.000000
  0
SEQEND
  8
LAYER-1
  0
POLYLINE
  8
LAYER-1
  6
LTYPE01
 66
  1
 70
  0
 62
253
  6
LTYPE01
 10
3.427862
 20
5.749356
 30
0.000000
  0
VERTEX
  8
LAYER-1
  6
LTYPE01
 10
3.427862
 20
5.749356
 30
0.000000
  0
VERTEX
  8
LAYER-1
  6
LTYPE01
 10
3.412032
 20
5.738191
 30
0.000000
  0
SEQEND
  8
LAYER-1
  0
POLYLINE
  8
LAYER-1
  6
LTYPE01
 66
  1
 70
  0
 62
253
  6
LTYPE01
 10
3.412031
 20
5.738192
 30
0.000000
  0
VERTEX
  8
LAYER-1
  6
LTYPE01
 10
3.412031
 20
5.738192
 30
0.000000
  0
VERTEX
  8
LAYER-1
  6
LTYPE01
 10
3.407904
 20
5.727661
 30
0.000000
  0
VERTEX
  8
LAYER-1
  6
LTYPE01
 10
3.412032
 20
5.723534
 30
0.000000
  0
SEQEND
  8
LAYER-1
  0
POLYLINE
  8
LAYER-1
  6
LTYPE01
 66
  1
 70
  0
 62
253
  6
LTYPE01
 10
3.427862
 20
5.712366
 30
0.000000
  0
VERTEX
  8
LAYER-1
  6
LTYPE01
 10
3.427862
 20
5.712366
 30
0.000000
  0
VERTEX
  8
LAYER-1
  6
LTYPE01
 10
3.412032
 20
5.723532
 30
0.000000
  0
SEQEND
  8
LAYER-1
  0
POLYLINE
  8
LAYER-1
  6
LTYPE01
 66
  1
 70
  0
 62
253
  6
LTYPE01
 10
3.421437
 20
5.785785
 30
0.000000
  0
VERTEX
  8
LAYER-1
  6
LTYPE01
 10
3.421437
 20
5.785785
 30
0.000000
  0
VERTEX
  8
LAYER-1
  6
LTYPE01
 10
3.407789
 20
5.772040
 30
0.000000
  0
SEQEND
  8
LAYER-1
  0
POLYLINE
  8
LAYER-1
  6
LTYPE01
 66
  1
 70
  0
 62
253
  6
LTYPE01
 10
3.407789
 20
5.772040
 30
0.000000
  0
VERTEX
  8
LAYER-1
  6
LTYPE01
 10
3.407789
 20
5.772040
 30
0.000000
  0
VERTEX
  8
LAYER-1
  6
LTYPE01
 10
3.405864
 20
5.761324
 30
0.000000
  0
VERTEX
  8
LAYER-1
  6
LTYPE01
 10
3.410334
 20
5.757605
 30
0.000000
  0
SEQEND
  8
LAYER-1
  0
POLYLINE
  8
LAYER-1
  6
LTYPE01
 66
  1
 70
  0
 62
253
  6
LTYPE01
 10
3.427862
 20
5.749356
 30
0.000000
  0
VERTEX
  8
LAYER-1
  6
LTYPE01
 10
3.427862
 20
5.749356
 30
0.000000
  0
VERTEX
  8
LAYER-1
  6
LTYPE01
 10
3.410334
 20
5.757604
 30
0.000000
  0
SEQEND
  8
LAYER-1
  0
POLYLINE
  8
LAYER-1
  6
LTYPE01
 66
  1
 70
  0
 62
253
  6
LTYPE01
 10
3.408785
 20
5.820545
 30
0.000000
  0
VERTEX
  8
LAYER-1
  6
LTYPE01
 10
3.408785
 20
5.820545
 30
0.000000
  0
VERTEX
  8
LAYER-1
  6
LTYPE01
 10
3.397733
 20
5.804638
 30
0.000000
  0
SEQEND
  8
LAYER-1
  0
POLYLINE
  8
LAYER-1
  6
LTYPE01
 66
  1
 70
  0
 62
253
  6
LTYPE01
 10
3.397731
 20
5.804639
 30
0.000000
  0
VERTEX
  8
LAYER-1
  6
LTYPE01
 10
3.397731
 20
5.804639
 30
0.000000
  0
VERTEX
  8
LAYER-1
  6
LTYPE01
 10
3.398008
 20
5.794124
 30
0.000000
  0
VERTEX
  8
LAYER-1
  6
LTYPE01
 10
3.402745
 20
5.790864
 30
0.000000
  0
SEQEND
  8
LAYER-1
  0
POLYLINE
  8
LAYER-1
  6
LTYPE01
 66
  1
 70
  0
 62
253
  6
LTYPE01
 10
3.421437
 20
5.785785
 30
0.000000
  0
VERTEX
  8
LAYER-1
  6
LTYPE01
 10
3.421437
 20
5.785785
 30
0.000000
  0
VERTEX
  8
LAYER-1
  6
LTYPE01
 10
3.402745
 20
5.790864
 30
0.000000
  0
SEQEND
  8
LAYER-1
  0
POLYLINE
  8
LAYER-1
  6
LTYPE01
 66
  1
 70
  0
 62
253
  6
LTYPE01
 10
3.175066
 20
5.939040
 30
0.000000
  0
VERTEX
  8
LAYER-1
  6
LTYPE01
 10
3.175066
 20
5.939040
 30
0.000000
  0
VERTEX
  8
LAYER-1
  6
LTYPE01
 10
3.133251
 20
5.929005
 30
0.000000
  0
VERTEX
  8
LAYER-1
  6
LTYPE01
 10
3.096512
 20
5.909458
 30
0.000000
  0
VERTEX
  8
LAYER-1
  6
LTYPE01
 10
3.064292
 20
5.883119
 30
0.000000
  0
VERTEX
  8
LAYER-1
  6
LTYPE01
 10
3.037830
 20
5.851001
 30
0.000000
  0
VERTEX
  8
LAYER-1
  6
LTYPE01
 10
3.018142
 20
5.814338
 30
0.000000
  0
VERTEX
  8
LAYER-1
  6
LTYPE01
 10
3.005986
 20
5.774537
 30
0.000000
  0
VERTEX
  8
LAYER-1
  6
LTYPE01
 10
3.001827
 20
5.733131
 30
0.000000
  0
VERTEX
  8
LAYER-1
  6
LTYPE01
 10
3.005827
 20
5.691708
 30
0.000000
  0
VERTEX
  8
LAYER-1
  6
LTYPE01
 10
3.017830
 20
5.651861
 30
0.000000
  0
VERTEX
  8
LAYER-1
  6
LTYPE01
 10
3.037377
 20
5.615122
 30
0.000000
  0
VERTEX
  8
LAYER-1
  6
LTYPE01
 10
3.063715
 20
5.582902
 30
0.000000
  0
VERTEX
  8
LAYER-1
  6
LTYPE01
 10
3.095833
 20
5.556441
 30
0.000000
  0
VERTEX
  8
LAYER-1
  6
LTYPE01
 10
3.132497
 20
5.536753
 30
0.000000
  0
VERTEX
  8
LAYER-1
  6
LTYPE01
 10
3.172298
 20
5.524596
 30
0.000000
  0
VERTEX
  8
LAYER-1
  6
LTYPE01
 10
3.213704
 20
5.520437
 30
0.000000
  0
VERTEX
  8
LAYER-1
  6
LTYPE01
 10
3.255127
 20
5.524436
 30
0.000000
  0
VERTEX
  8
LAYER-1
  6
LTYPE01
 10
3.282664
 20
5.529180
 30
0.000000
  0
SEQEND
  8
LAYER-1
  0
POLYLINE
  8
LAYER-1
  6
LTYPE01
 66
  1
 70
  0
 62
  7
  6
LTYPE01
 10
2.891215
 20
6.298632
 30
0.000000
  0
VERTEX
  8
LAYER-1
  6
LTYPE01
 10
2.891215
 20
6.298632
 30
0.000000
  0
VERTEX
  8
LAYER-1
  6
LTYPE01
 10
2.891215
 20
5.000493
 30
0.000000
  0
SEQEND
  8
LAYER-1
  0
POLYLINE
  8
LAYER-1
  6
LTYPE01
 66
  1
 70
  0
 62
253
  6
LTYPE01
 10
4.230527
 20
6.212462
 30
0.000000
  0
VERTEX
  8
LAYER-1
  6
LTYPE01
 10
4.230527
 20
6.212462
 30
0.000000
  0
VERTEX
  8
LAYER-1
  6
LTYPE01
 10
3.209128
 20
5.926436
 30
0.000000
  0
SEQEND
  8
LAYER-1
  0
POLYLINE
  8
LAYER-1
  6
LTYPE01
 66
  1
 70
  0
 62
253
  6
LTYPE01
 10
4.323443
 20
6.064096
 30
0.000000
  0
VERTEX
  8
LAYER-1
  6
LTYPE01
 10
4.323443
 20
6.064096
 30
0.000000
  0
VERTEX
  8
LAYER-1
  6
LTYPE01
 10
3.282664
 20
5.529180
 30
0.000000
  0
SEQEND
  8
LAYER-1
  0
POLYLINE
  8
LAYER-1
  6
LTYPE01
 66
  1
 70
  0
 62
253
  6
LTYPE01
 10
3.361565
 20
5.593293
 30
0.000000
  0
VERTEX
  8
LAYER-1
  6
LTYPE01
 10
3.361565
 20
5.593293
 30
0.000000
  0
VERTEX
  8
LAYER-1
  6
LTYPE01
 10
4.287651
 20
6.063682
 30
0.000000
  0
SEQEND
  8
LAYER-1
  0
POLYLINE
  8
LAYER-1
  6
LTYPE01
 66
  1
 70
  0
 62
253
  6
LTYPE01
 10
4.256893
 20
6.241308
 30
0.000000
  0
VERTEX
  8
LAYER-1
  6
LTYPE01
 10
4.256893
 20
6.241308
 30
0.000000
  0
VERTEX
  8
LAYER-1
  6
LTYPE01
 10
3.153561
 20
5.933402
 30
0.000000
  0
SEQEND
  8
LAYER-1
  0
TEXT
  8
LAYER-1
 62
  7
 10
0.253771
 20
3.208267
 30
0.000000
 40
0.144231
  1
SUPPORT HEIGHT  "HS"
 50
90.000000
 72
  5
 11
0.253771
 21
5.458267
 31
0.000000
  0
TEXT
  8
LAYER-1
 62
  7
 10
1.224925
 20
3.890960
 30
0.000000
 40
0.144231
  1
or 
 72
  5
 11
1.503771
 21
3.890960
 31
0.000000
  0
TEXT
  8
LAYER-1
 62
  7
 10
1.503771
 20
3.890960
 30
0.000000
 40
0.187500
  1
7"
 72
  5
 11
1.773002
 21
3.890960
 31
0.000000
  0
TEXT
  8
LAYER-1
 62
  7
 10
1.773002
 20
3.890960
 30
0.000000
 40
0.144231
  1
 (178mm)
 72
  5
 11
2.657617
 21
3.890960
 31
0.000000
  0
TEXT
  8
LAYER-1
 62
  7
 10
1.369156
 20
3.650575
 30
0.000000
 40
0.144231
  1
for closures
 72
  5
 11
2.417233
 21
3.650575
 31
0.000000
  0
TEXT
  8
LAYER-1
 62
  7
 10
1.215310
 20
3.429421
 30
0.000000
 40
0.144231
  1
over 22' (6,7m)
 72
  5
 11
2.571079
 21
3.429421
 31
0.000000
  0
TEXT
  8
LAYER-1
 62
  7
 10
1.676848
 20
3.208267
 30
0.000000
 40
0.144231
  1
wide
 72
  5
 11
2.109540
 21
3.208267
 31
0.000000
  0
TEXT
  8
LAYER-1
 62
  7
 10
1.907617
 20
7.814036
 30
0.000000
 40
0.122596
  1
Tube or
 72
  5
 11
2.494156
 21
7.814036
 31
0.000000
  0
TEXT
  8
LAYER-1
 62
  7
 10
1.907617
 20
7.621729
 30
0.000000
 40
0.122596
  1
Angle
 72
  5
 11
2.349925
 21
7.621729
 31
0.000000
  0
POLYLINE
  8
LAYER-1
 66
  1
 70
  0
 62
  7
 10
2.424177
 20
7.584335
 30
0.000000
  0
VERTEX
  8
LAYER-1
 10
2.424177
 20
7.584335
 30
0.000000
  0
VERTEX
  8
LAYER-1
 10
2.632038
 20
7.389465
 30
0.000000
  0
SEQEND
  8
LAYER-1
  0
POLYLINE
  8
LAYER-1
 66
  1
 70
  1
 62
  7
  0
VERTEX
  8
LAYER-1
 10
2.646399
 20
7.376002
 30
0.000000
  0
VERTEX
  8
LAYER-1
 10
2.591596
 20
7.387840
 30
0.000000
  0
VERTEX
  8
LAYER-1
 10
2.611325
 20
7.408884
 30
0.000000
  0
VERTEX
  8
LAYER-1
 10
2.631054
 20
7.429929
 30
0.000000
  0
VERTEX
  8
LAYER-1
 10
2.646399
 20
7.376002
 30
0.000000
  0
SEQEND
  8
LAYER-1
  0
POLYLINE
  8
LAYER-1
 66
  1
 70
  1
 62
  7
 10
2.879038
 20
4.998398
 30
0.000000
  0
VERTEX
  8
LAYER-1
 10
2.879038
 20
4.998398
 30
0.000000
  0
VERTEX
  8
LAYER-1
 10
2.849889
 20
4.977894
 30
0.000000
  0
VERTEX
  8
LAYER-1
 10
2.855792
 20
4.944312
 30
0.000000
  0
VERTEX
  8
LAYER-1
 10
2.856921
 20
4.950419
 30
0.000000
  0
VERTEX
  8
LAYER-1
 10
2.859325
 20
4.957501
 30
0.000000
  0
SEQEND
  8
LAYER-1
  0
POLYLINE
  8
LAYER-1
 66
  1
 70
  0
 62
  7
 10
2.777574
 20
5.000955
 30
0.000000
  0
VERTEX
  8
LAYER-1
 10
2.777574
 20
5.000955
 30
0.000000
  0
VERTEX
  8
LAYER-1
 10
2.777574
 20
0.460517
 30
0.000000
  0
SEQEND
  8
LAYER-1
  0
POLYLINE
  8
LAYER-1
 66
  1
 70
  0
 62
  7
 10
2.757940
 20
5.000955
 30
0.000000
  0
VERTEX
  8
LAYER-1
 10
2.757940
 20
5.000955
 30
0.000000
  0
VERTEX
  8
LAYER-1
 10
2.757940
 20
0.460517
 30
0.000000
  0
SEQEND
  8
LAYER-1
  0
POLYLINE
  8
LAYER-1
 66
  1
 70
  0
 62
  7
 10
2.836512
 20
4.906110
 30
0.000000
  0
VERTEX
  8
LAYER-1
 10
2.836512
 20
4.906110
 30
0.000000
  0
VERTEX
  8
LAYER-1
 10
2.836440
 20
0.460517
 30
0.000000
  0
SEQEND
  8
LAYER-1
  0
POLYLINE
  8
LAYER-1
 66
  1
 70
  0
 62
  7
 10
2.856107
 20
4.907113
 30
0.000000
  0
VERTEX
  8
LAYER-1
 10
2.856107
 20
4.907113
 30
0.000000
  0
VERTEX
  8
LAYER-1
 10
2.856064
 20
0.460517
 30
0.000000
  0
SEQEND
  8
LAYER-1
  0
POLYLINE
  8
LAYER-1
 66
  1
 70
  0
 62
  7
 10
2.859325
 20
4.957365
 30
0.000000
  0
VERTEX
  8
LAYER-1
 10
2.859325
 20
4.957365
 30
0.000000
  0
VERTEX
  8
LAYER-1
 10
2.879038
 20
4.998398
 30
0.000000
  0
SEQEND
  8
LAYER-1
  0
POLYLINE
  8
LAYER-1
 66
  1
 70
  0
 62
  7
 10
2.859325
 20
4.957500
 30
0.000000
  0
VERTEX
  8
LAYER-1
 10
2.859325
 20
4.957500
 30
0.000000
  0
VERTEX
  8
LAYER-1
 10
2.854171
 20
4.946452
 30
0.000000
  0
VERTEX
  8
LAYER-1
 10
2.856107
 20
4.942986
 30
0.000000
  0
SEQEND
  8
LAYER-1
  0
POLYLINE
  8
LAYER-1
 66
  1
 70
  0
 62
  7
 10
2.839730
 20
4.956746
 30
0.000000
  0
VERTEX
  8
LAYER-1
 10
2.839730
 20
4.956746
 30
0.000000
  0
VERTEX
  8
LAYER-1
 10
2.849889
 20
4.977894
 30
0.000000
  0
SEQEND
  8
LAYER-1
  0
POLYLINE
  8
LAYER-1
 66
  1
 70
  0
 62
  7
 10
2.839730
 20
4.956880
 30
0.000000
  0
VERTEX
  8
LAYER-1
 10
2.839730
 20
4.956880
 30
0.000000
  0
VERTEX
  8
LAYER-1
 10
2.834575
 20
4.945833
 30
0.000000
  0
VERTEX
  8
LAYER-1
 10
2.836512
 20
4.942367
 30
0.000000
  0
SEQEND
  8
LAYER-1
  0
POLYLINE
  8
LAYER-1
 66
  1
 70
  0
 62
  7
 10
2.879038
 20
4.998398
 30
0.000000
  0
VERTEX
  8
LAYER-1
 10
2.879038
 20
4.998398
 30
0.000000
  0
VERTEX
  8
LAYER-1
 10
2.849889
 20
4.977894
 30
0.000000
  0
SEQEND
  8
LAYER-1
  0
POLYLINE
  8
LAYER-1
 66
  1
 70
  0
 62
  7
 10
2.846298
 20
5.001038
 30
0.000000
  0
VERTEX
  8
LAYER-1
 10
2.846298
 20
5.001038
 30
0.000000
  0
VERTEX
  8
LAYER-1
 10
2.846298
 20
4.971485
 30
0.000000
  0
SEQEND
  8
LAYER-1
  0
POLYLINE
  8
LAYER-1
 66
  1
 70
  0
 62
  7
 10
2.856064
 20
5.001006
 30
0.000000
  0
VERTEX
  8
LAYER-1
 10
2.856064
 20
5.001006
 30
0.000000
  0
VERTEX
  8
LAYER-1
 10
2.856064
 20
4.982471
 30
0.000000
  0
SEQEND
  8
LAYER-1
  0
POLYLINE
  8
LAYER-1
 66
  1
 70
  0
 62
  7
 10
2.836057
 20
4.935940
 30
0.000000
  0
VERTEX
  8
LAYER-1
 10
2.836057
 20
4.935940
 30
0.000000
  0
VERTEX
  8
LAYER-1
 10
2.866643
 20
4.935940
 30
0.000000
  0
SEQEND
  8
LAYER-1
  0
POLYLINE
  8
LAYER-1
 66
  1
 70
  0
 62
  7
 10
2.868971
 20
4.933613
 30
0.000000
  0
VERTEX
  8
LAYER-1
 10
2.868971
 20
4.933613
 30
0.000000
  0
VERTEX
  8
LAYER-1
 10
2.868971
 20
4.855913
 30
0.000000
  0
SEQEND
  8
LAYER-1
  0
POLYLINE
  8
LAYER-1
 66
  1
 70
  0
 62
  7
 10
2.866643
 20
4.853586
 30
0.000000
  0
VERTEX
  8
LAYER-1
 10
2.866643
 20
4.853586
 30
0.000000
  0
VERTEX
  8
LAYER-1
 10
2.836057
 20
4.853586
 30
0.000000
  0
SEQEND
  8
LAYER-1
  0
POLYLINE
  8
LAYER-1
 66
  1
 70
  0
 62
  7
 10
2.833730
 20
4.855913
 30
0.000000
  0
VERTEX
  8
LAYER-1
 10
2.833730
 20
4.855913
 30
0.000000
  0
VERTEX
  8
LAYER-1
 10
2.833730
 20
4.933613
 30
0.000000
  0
SEQEND
  8
LAYER-1
  0
ARC
  8
LAYER-1
 62
  7
 10
2.836057
 20
4.933613
 30
0.000000
 40
0.002327
 50
270.000000
 51
0.000000
  0
ARC
  8
LAYER-1
 62
  7
 10
2.836057
 20
4.855913
 30
0.000000
 40
0.002327
 50
0.000000
 51
90.000000
  0
ARC
  8
LAYER-1
 62
  7
 10
2.866643
 20
4.855913
 30
0.000000
 40
0.002327
 50
90.000000
 51
180.000000
  0
ARC
  8
LAYER-1
 62
  7
 10
2.866643
 20
4.933613
 30
0.000000
 40
0.002327
 50
180.000000
 51
270.000000
  0
POLYLINE
  8
LAYER-1
 66
  1
 70
  1
 62
  7
 10
2.866381
 20
4.855883
 30
0.000000
  0
VERTEX
  8
LAYER-1
 10
2.866381
 20
4.855883
 30
0.000000
  0
VERTEX
  8
LAYER-1
 10
2.835855
 20
4.855883
 30
0.000000
  0
VERTEX
  8
LAYER-1
 10
2.835855
 20
4.933839
 30
0.000000
  0
VERTEX
  8
LAYER-1
 10
2.866381
 20
4.933837
 30
0.000000
  0
SEQEND
  8
LAYER-1
  0
POLYLINE
  8
LAYER-1
 66
  1
 70
  0
 62
  7
 10
2.856024
 20
4.933837
 30
0.000000
  0
VERTEX
  8
LAYER-1
 10
2.856024
 20
4.933837
 30
0.000000
  0
VERTEX
  8
LAYER-1
 10
2.856024
 20
4.855883
 30
0.000000
  0
SEQEND
  8
LAYER-1
  0
POLYLINE
  8
LAYER-1
 66
  1
 70
  0
 62
  7
 10
2.866381
 20
4.933839
 30
0.000000
  0
VERTEX
  8
LAYER-1
 10
2.866381
 20
4.933839
 30
0.000000
  0
VERTEX
  8
LAYER-1
 10
2.859431
 20
4.908438
 30
0.000000
  0
VERTEX
  8
LAYER-1
 10
2.859884
 20
4.880623
 30
0.000000
  0
VERTEX
  8
LAYER-1
 10
2.866381
 20
4.855883
 30
0.000000
  0
SEQEND
  8
LAYER-1
  0
POLYLINE
  8
LAYER-1
 66
  1
 70
  0
 62
  7
 10
2.835855
 20
4.933839
 30
0.000000
  0
VERTEX
  8
LAYER-1
 10
2.835855
 20
4.933839
 30
0.000000
  0
VERTEX
  8
LAYER-1
 10
2.847783
 20
4.928919
 30
0.000000
  0
VERTEX
  8
LAYER-1
 10
2.862481
 20
4.933875
 30
0.000000
  0
VERTEX
  8
LAYER-1
 10
2.835855
 20
4.933839
 30
0.000000
  0
SEQEND
  8
LAYER-1
  0
POLYLINE
  8
LAYER-1
 66
  1
 70
  0
 62
  7
 10
2.866381
 20
4.855883
 30
0.000000
  0
VERTEX
  8
LAYER-1
 10
2.866381
 20
4.855883
 30
0.000000
  0
VERTEX
  8
LAYER-1
 10
2.851416
 20
4.865112
 30
0.000000
  0
VERTEX
  8
LAYER-1
 10
2.837091
 20
4.861056
 30
0.000000
  0
VERTEX
  8
LAYER-1
 10
2.835855
 20
4.855883
 30
0.000000
  0
SEQEND
  8
LAYER-1
  0
POLYLINE
  8
LAYER-1
 66
  1
 70
  0
 62
  7
 10
2.835855
 20
4.855883
 30
0.000000
  0
VERTEX
  8
LAYER-1
 10
2.835855
 20
4.855883
 30
0.000000
  0
VERTEX
  8
LAYER-1
 10
2.839057
 20
4.883313
 30
0.000000
  0
VERTEX
  8
LAYER-1
 10
2.839161
 20
4.909293
 30
0.000000
  0
VERTEX
  8
LAYER-1
 10
2.834194
 20
4.934794
 30
0.000000
  0
VERTEX
  8
LAYER-1
 10
2.835855
 20
4.933839
 30
0.000000
  0
SEQEND
  8
LAYER-1
  0
POLYLINE
  8
LAYER-1
 66
  1
 70
  1
 62
  7
 10
2.864639
 20
0.538025
 30
0.000000
  0
VERTEX
  8
LAYER-1
 10
2.864639
 20
0.538025
 30
0.000000
  0
VERTEX
  8
LAYER-1
 10
2.864639
 20
0.738258
 30
0.000000
  0
VERTEX
  8
LAYER-1
 10
2.747921
 20
0.738258
 30
0.000000
  0
VERTEX
  8
LAYER-1
 10
2.747921
 20
0.538025
 30
0.000000
  0
VERTEX
  8
LAYER-1
 10
2.695874
 20
0.507974
 30
0.000000
  0
VERTEX
  8
LAYER-1
 10
2.695874
 20
0.460657
 30
0.000000
  0
VERTEX
  8
LAYER-1
 10
2.916686
 20
0.460657
 30
0.000000
  0
VERTEX
  8
LAYER-1
 10
2.916686
 20
0.507974
 30
0.000000
  0
SEQEND
  8
LAYER-1
  0
POLYLINE
  8
LAYER-1
  6
LTYPE01
 66
  1
 70
  1
 62
  7
  6
LTYPE01
 10
2.864639
 20
4.652516
 30
0.000000
  0
VERTEX
  8
LAYER-1
  6
LTYPE01
 10
2.864639
 20
4.652516
 30
0.000000
  0
VERTEX
  8
LAYER-1
  6
LTYPE01
 10
2.864639
 20
4.852749
 30
0.000000
  0
VERTEX
  8
LAYER-1
  6
LTYPE01
 10
2.747921
 20
4.852749
 30
0.000000
  0
VERTEX
  8
LAYER-1
  6
LTYPE01
 10
2.747921
 20
4.652516
 30
0.000000
  0
VERTEX
  8
LAYER-1
  6
LTYPE01
 10
2.695874
 20
4.622465
 30
0.000000
  0
VERTEX
  8
LAYER-1
  6
LTYPE01
 10
2.695874
 20
4.575148
 30
0.000000
  0
VERTEX
  8
LAYER-1
  6
LTYPE01
 10
2.916686
 20
4.575148
 30
0.000000
  0
VERTEX
  8
LAYER-1
  6
LTYPE01
 10
2.916686
 20
4.622465
 30
0.000000
  0
SEQEND
  8
LAYER-1
  0
POLYLINE
  8
LAYER-1
  6
LTYPE01
 66
  1
 70
  1
 62
253
  6
LTYPE01
 10
3.731982
 20
5.445595
 30
0.000000
  0
VERTEX
  8
LAYER-1
  6
LTYPE01
 10
3.731982
 20
5.445595
 30
0.000000
  0
VERTEX
  8
LAYER-1
  6
LTYPE01
 10
3.719127
 20
5.423331
 30
0.000000
  0
VERTEX
  8
LAYER-1
  6
LTYPE01
 10
3.693421
 20
5.423331
 30
0.000000
  0
VERTEX
  8
LAYER-1
  6
LTYPE01
 10
3.680565
 20
5.445595
 30
0.000000
  0
VERTEX
  8
LAYER-1
  6
LTYPE01
 10
3.693419
 20
5.467859
 30
0.000000
  0
VERTEX
  8
LAYER-1
  6
LTYPE01
 10
3.719127
 20
5.467859
 30
0.000000
  0
SEQEND
  8
LAYER-1
  0
POLYLINE
  8
LAYER-1
  6
LTYPE01
 66
  1
 70
  1
 62
253
  6
LTYPE01
 10
3.731982
 20
5.853956
 30
0.000000
  0
VERTEX
  8
LAYER-1
  6
LTYPE01
 10
3.731982
 20
5.853956
 30
0.000000
  0
VERTEX
  8
LAYER-1
  6
LTYPE01
 10
3.719127
 20
5.831692
 30
0.000000
  0
VERTEX
  8
LAYER-1
  6
LTYPE01
 10
3.693421
 20
5.831692
 30
0.000000
  0
VERTEX
  8
LAYER-1
  6
LTYPE01
 10
3.680565
 20
5.853956
 30
0.000000
  0
VERTEX
  8
LAYER-1
  6
LTYPE01
 10
3.693419
 20
5.876219
 30
0.000000
  0
VERTEX
  8
LAYER-1
  6
LTYPE01
 10
3.719127
 20
5.876219
 30
0.000000
  0
SEQEND
  8
LAYER-1
  0
TEXT
  8
LAYER-1
 62
253
 10
4.311463
 20
6.958267
 30
0.000000
 40
0.100962
  1
(With cover open)
 72
  5
 11
5.446079
 21
6.958267
 31
0.000000
  0
POLYLINE
  8
LAYER-1
  6
LTYPE01
 66
  1
 70
  0
 62
253
  6
LTYPE01
 10
5.918243
 20
4.573553
 30
0.000000
  0
VERTEX
  8
LAYER-1
  6
LTYPE01
 10
5.918243
 20
4.573553
 30
0.000000
  0
VERTEX
  8
LAYER-1
  6
LTYPE01
 10
6.459910
 20
4.573553
 30
0.000000
  0
SEQEND
  8
LAYER-1
  0
POLYLINE
  8
LAYER-1
 66
  1
 70
  1
 62
  7
  0
VERTEX
  8
LAYER-1
 10
2.011145
 20
0.378241
 30
0.000000
  0
VERTEX
  8
LAYER-1
 10
3.527817
 20
0.378241
 30
0.000000
  0
VERTEX
  8
LAYER-1
 10
3.527817
 20
0.064073
 30
0.000000
  0
VERTEX
  8
LAYER-1
 10
2.011145
 20
0.064073
 30
0.000000
  0
SEQEND
  8
LAYER-1
  0
TEXT
  8
LAYER-1
 62
  7
 10
2.042233
 20
0.102498
 30
0.000000
 40
0.237981
  1
SECTION
 72
  5
 11
3.494156
 21
0.102498
 31
0.000000
  0
POLYLINE
  8
LAYER-1
 66
  1
 70
  1
 62
  7
  0
VERTEX
  8
LAYER-1
 10
2.650380
 20
6.297980
 30
0.000000
  0
VERTEX
  8
LAYER-1
 10
3.785421
 20
6.297980
 30
0.000000
  0
VERTEX
  8
LAYER-1
 10
3.785421
 20
5.000793
 30
0.000000
  0
VERTEX
  8
LAYER-1
 10
2.650380
 20
5.000793
 30
0.000000
  0
SEQEND
  8
LAYER-1
  0
CIRCLE
  8
LAYER-1
 62
  7
 10
2.751724
 20
6.176370
 30
0.000000
 40
0.022802
  0
CIRCLE
  8
LAYER-1
 62
  7
 10
2.731456
 20
5.649387
 30
0.000000
 40
0.015834
  0
CIRCLE
  8
LAYER-1
 62
  7
 10
3.298974
 20
6.216906
 30
0.000000
 40
0.015831
  0
POLYLINE
  8
LAYER-1
  6
LTYPE02
 66
  1
 70
  1
 62
253
  0
VERTEX
  8
LAYER-1
  6
LTYPE02
 10
3.601033
 20
6.596434
 30
0.000000
  0
VERTEX
  8
LAYER-1
  6
LTYPE02
 10
3.944136
 20
6.564707
 30
0.000000
  0
VERTEX
  8
LAYER-1
  6
LTYPE02
 10
3.809760
 20
5.111574
 30
0.000000
  0
VERTEX
  8
LAYER-1
  6
LTYPE02
 10
3.466658
 20
5.143303
 30
0.000000
  0
SEQEND
  8
LAYER-1
  0
POLYLINE
  8
LAYER-1
  6
LTYPE02
 66
  1
 70
  0
 62
253
  6
LTYPE02
 10
3.923953
 20
6.566573
 30
0.000000
  0
VERTEX
  8
LAYER-1
  6
LTYPE02
 10
3.923953
 20
6.566573
 30
0.000000
  0
VERTEX
  8
LAYER-1
  6
LTYPE02
 10
3.789577
 20
5.113441
 30
0.000000
  0
SEQEND
  8
LAYER-1
  0
CIRCLE
  8
LAYER-1
 62
253
  6
LTYPE02
 10
3.705397
 20
5.854006
 30
0.000000
 40
0.018001
  0
CIRCLE
  8
LAYER-1
 62
253
  6
LTYPE02
 10
3.697932
 20
5.773277
 30
0.000000
 40
0.022607
  0
CIRCLE
  8
LAYER-1
 62
253
  6
LTYPE02
 10
3.712863
 20
5.934736
 30
0.000000
 40
0.022607
  0
POLYLINE
  8
LAYER-1
  6
LTYPE02
 66
  1
 70
  0
 62
253
  6
LTYPE02
 10
3.823269
 20
6.245115
 30
0.000000
  0
VERTEX
  8
LAYER-1
  6
LTYPE02
 10
3.823269
 20
6.245115
 30
0.000000
  0
VERTEX
  8
LAYER-1
  6
LTYPE02
 10
3.823269
 20
6.245115
 30
0.000000
  0
SEQEND
  8
LAYER-1
  0
POLYLINE
  8
LAYER-1
  6
LTYPE02
 66
  1
 70
  0
 62
253
  6
LTYPE02
 10
3.791506
 20
6.226288
 30
0.000000
  0
VERTEX
  8
LAYER-1
  6
LTYPE02
 10
3.791506
 20
6.226288
 30
0.000000
  0
VERTEX
  8
LAYER-1
  6
LTYPE02
 10
3.806987
 20
6.227981
 30
0.000000
  0
VERTEX
  8
LAYER-1
  6
LTYPE02
 10
3.819521
 20
6.240125
 30
0.000000
  0
VERTEX
  8
LAYER-1
  6
LTYPE02
 10
3.823269
 20
6.245115
 30
0.000000
  0
SEQEND
  8
LAYER-1
  0
POLYLINE
  8
LAYER-1
  6
LTYPE02
 66
  1
 70
  0
 62
253
  6
LTYPE02
 10
3.791505
 20
6.226293
 30
0.000000
  0
VERTEX
  8
LAYER-1
  6
LTYPE02
 10
3.791505
 20
6.226293
 30
0.000000
  0
VERTEX
  8
LAYER-1
  6
LTYPE02
 10
3.698471
 20
6.239594
 30
0.000000
  0
VERTEX
  8
LAYER-1
  6
LTYPE02
 10
3.668178
 20
6.237340
 30
0.000000
  0
SEQEND
  8
LAYER-1
  0
POLYLINE
  8
LAYER-1
  6
LTYPE02
 66
  1
 70
  0
 62
253
  6
LTYPE02
 10
3.641626
 20
6.261912
 30
0.000000
  0
VERTEX
  8
LAYER-1
  6
LTYPE02
 10
3.641626
 20
6.261912
 30
0.000000
  0
VERTEX
  8
LAYER-1
  6
LTYPE02
 10
3.644823
 20
6.247211
 30
0.000000
  0
VERTEX
  8
LAYER-1
  6
LTYPE02
 10
3.660263
 20
6.239076
 30
0.000000
  0
VERTEX
  8
LAYER-1
  6
LTYPE02
 10
3.668178
 20
6.237338
 30
0.000000
  0
SEQEND
  8
LAYER-1
  0
POLYLINE
  8
LAYER-1
  6
LTYPE02
 66
  1
 70
  0
 62
253
  6
LTYPE02
 10
3.641624
 20
6.261912
 30
0.000000
  0
VERTEX
  8
LAYER-1
  6
LTYPE02
 10
3.641624
 20
6.261912
 30
0.000000
  0
VERTEX
  8
LAYER-1
  6
LTYPE02
 10
3.641624
 20
6.261912
 30
0.000000
  0
SEQEND
  8
LAYER-1
  0
POLYLINE
  8
LAYER-1
  6
LTYPE02
 66
  1
 70
  0
 62
253
  6
LTYPE02
 10
3.658140
 20
6.281758
 30
0.000000
  0
VERTEX
  8
LAYER-1
  6
LTYPE02
 10
3.658140
 20
6.281758
 30
0.000000
  0
VERTEX
  8
LAYER-1
  6
LTYPE02
 10
3.642467
 20
6.272921
 30
0.000000
  0
VERTEX
  8
LAYER-1
  6
LTYPE02
 10
3.641626
 20
6.261912
 30
0.000000
  0
SEQEND
  8
LAYER-1
  0
POLYLINE
  8
LAYER-1
  6
LTYPE02
 66
  1
 70
  0
 62
253
  6
LTYPE02
 10
3.810749
 20
6.267617
 30
0.000000
  0
VERTEX
  8
LAYER-1
  6
LTYPE02
 10
3.810749
 20
6.267617
 30
0.000000
  0
VERTEX
  8
LAYER-1
  6
LTYPE02
 10
3.722162
 20
6.284109
 30
0.000000
  0
VERTEX
  8
LAYER-1
  6
LTYPE02
 10
3.658140
 20
6.281761
 30
0.000000
  0
SEQEND
  8
LAYER-1
  0
POLYLINE
  8
LAYER-1
  6
LTYPE02
 66
  1
 70
  0
 62
253
  6
LTYPE02
 10
3.823269
 20
6.245115
 30
0.000000
  0
VERTEX
  8
LAYER-1
  6
LTYPE02
 10
3.823269
 20
6.245115
 30
0.000000
  0
VERTEX
  8
LAYER-1
  6
LTYPE02
 10
3.816135
 20
6.263753
 30
0.000000
  0
VERTEX
  8
LAYER-1
  6
LTYPE02
 10
3.810749
 20
6.267615
 30
0.000000
  0
SEQEND
  8
LAYER-1
  0
POLYLINE
  8
LAYER-1
  6
LTYPE02
 66
  1
 70
  0
 62
253
  6
LTYPE02
 10
3.629157
 20
6.209633
 30
0.000000
  0
VERTEX
  8
LAYER-1
  6
LTYPE02
 10
3.629157
 20
6.209633
 30
0.000000
  0
VERTEX
  8
LAYER-1
  6
LTYPE02
 10
3.704842
 20
6.202634
 30
0.000000
  0
SEQEND
  8
LAYER-1
  0
POLYLINE
  8
LAYER-1
  6
LTYPE02
 66
  1
 70
  0
 62
253
  6
LTYPE02
 10
3.725448
 20
6.177831
 30
0.000000
  0
VERTEX
  8
LAYER-1
  6
LTYPE02
 10
3.725448
 20
6.177831
 30
0.000000
  0
VERTEX
  8
LAYER-1
  6
LTYPE02
 10
3.725447
 20
6.177828
 30
0.000000
  0
SEQEND
  8
LAYER-1
  0
POLYLINE
  8
LAYER-1
  6
LTYPE02
 66
  1
 70
  0
 62
253
  6
LTYPE02
 10
3.700643
 20
6.157223
 30
0.000000
  0
VERTEX
  8
LAYER-1
  6
LTYPE02
 10
3.700643
 20
6.157223
 30
0.000000
  0
VERTEX
  8
LAYER-1
  6
LTYPE02
 10
3.624958
 20
6.164222
 30
0.000000
  0
SEQEND
  8
LAYER-1
  0
POLYLINE
  8
LAYER-1
  6
LTYPE02
 66
  1
 70
  0
 62
253
  6
LTYPE02
 10
3.604352
 20
6.189026
 30
0.000000
  0
VERTEX
  8
LAYER-1
  6
LTYPE02
 10
3.604352
 20
6.189026
 30
0.000000
  0
VERTEX
  8
LAYER-1
  6
LTYPE02
 10
3.604353
 20
6.189028
 30
0.000000
  0
SEQEND
  8
LAYER-1
  0
ARC
  8
LAYER-1
 62
253
  6
LTYPE02
 10
3.627058
 20
6.186928
 30
0.000000
 40
0.022802
 50
84.716675
 51
174.716675
  0
ARC
  8
LAYER-1
 62
253
  6
LTYPE02
 10
3.627058
 20
6.186926
 30
0.000000
 40
0.022802
 50
174.716675
 51
264.716675
  0
ARC
  8
LAYER-1
 62
253
  6
LTYPE02
 10
3.702742
 20
6.179928
 30
0.000000
 40
0.022802
 50
264.716675
 51
354.716675
  0
ARC
  8
LAYER-1
 62
253
  6
LTYPE02
 10
3.702742
 20
6.179930
 30
0.000000
 40
0.022802
 50
354.716675
 51
84.716675
  0
POLYLINE
  8
LAYER-1
  6
LTYPE02
 66
  1
 70
  0
 62
253
  6
LTYPE02
 10
3.640913
 20
5.511320
 30
0.000000
  0
VERTEX
  8
LAYER-1
  6
LTYPE02
 10
3.640913
 20
5.511320
 30
0.000000
  0
VERTEX
  8
LAYER-1
  6
LTYPE02
 10
3.565228
 20
5.518319
 30
0.000000
  0
SEQEND
  8
LAYER-1
  0
POLYLINE
  8
LAYER-1
  6
LTYPE02
 66
  1
 70
  0
 62
253
  6
LTYPE02
 10
3.544623
 20
5.543123
 30
0.000000
  0
VERTEX
  8
LAYER-1
  6
LTYPE02
 10
3.544623
 20
5.543123
 30
0.000000
  0
VERTEX
  8
LAYER-1
  6
LTYPE02
 10
3.544623
 20
5.543123
 30
0.000000
  0
SEQEND
  8
LAYER-1
  0
POLYLINE
  8
LAYER-1
  6
LTYPE02
 66
  1
 70
  0
 62
253
  6
LTYPE02
 10
3.569428
 20
5.563729
 30
0.000000
  0
VERTEX
  8
LAYER-1
  6
LTYPE02
 10
3.569428
 20
5.563729
 30
0.000000
  0
VERTEX
  8
LAYER-1
  6
LTYPE02
 10
3.645113
 20
5.556730
 30
0.000000
  0
SEQEND
  8
LAYER-1
  0
POLYLINE
  8
LAYER-1
  6
LTYPE02
 66
  1
 70
  0
 62
253
  6
LTYPE02
 10
3.665718
 20
5.531925
 30
0.000000
  0
VERTEX
  8
LAYER-1
  6
LTYPE02
 10
3.665718
 20
5.531925
 30
0.000000
  0
VERTEX
  8
LAYER-1
  6
LTYPE02
 10
3.665718
 20
5.531925
 30
0.000000
  0
SEQEND
  8
LAYER-1
  0
ARC
  8
LAYER-1
 62
253
  6
LTYPE02
 10
3.643013
 20
5.534025
 30
0.000000
 40
0.022802
 50
264.716644
 51
354.716644
  0
ARC
  8
LAYER-1
 62
253
  6
LTYPE02
 10
3.643013
 20
5.534025
 30
0.000000
 40
0.022802
 50
354.716644
 51
84.716644
  0
ARC
  8
LAYER-1
 62
253
  6
LTYPE02
 10
3.567328
 20
5.541024
 30
0.000000
 40
0.022802
 50
84.716644
 51
174.716644
  0
ARC
  8
LAYER-1
 62
253
  6
LTYPE02
 10
3.567328
 20
5.541024
 30
0.000000
 40
0.022802
 50
174.716644
 51
264.716644
  0
CIRCLE
  8
LAYER-1
 62
253
  6
LTYPE02
 10
4.717129
 20
5.802694
 30
0.000000
 40
0.095440
  0
POLYLINE
  8
LAYER-1
  6
LTYPE02
 66
  1
 70
  1
 62
253
  0
VERTEX
  8
LAYER-1
  6
LTYPE02
 10
5.148193
 20
6.455490
 30
0.000000
  0
VERTEX
  8
LAYER-1
  6
LTYPE02
 10
5.192555
 20
6.451388
 30
0.000000
  0
VERTEX
  8
LAYER-1
  6
LTYPE02
 10
5.114875
 20
5.611722
 30
0.000000
  0
VERTEX
  8
LAYER-1
  6
LTYPE02
 10
5.070547
 20
5.615823
 30
0.000000
  0
SEQEND
  8
LAYER-1
  0
POLYLINE
  8
LAYER-1
  6
LTYPE02
 66
  1
 70
  0
 62
253
  6
LTYPE02
 10
5.058484
 20
5.757539
 30
0.000000
  0
VERTEX
  8
LAYER-1
  6
LTYPE02
 10
5.058484
 20
5.757539
 30
0.000000
  0
VERTEX
  8
LAYER-1
  6
LTYPE02
 10
5.037491
 20
5.759479
 30
0.000000
  0
SEQEND
  8
LAYER-1
  0
POLYLINE
  8
LAYER-1
  6
LTYPE02
 66
  1
 70
  0
 62
253
  6
LTYPE02
 10
5.037491
 20
5.759479
 30
0.000000
  0
VERTEX
  8
LAYER-1
  6
LTYPE02
 10
5.037491
 20
5.759479
 30
0.000000
  0
VERTEX
  8
LAYER-1
  6
LTYPE02
 10
5.024600
 20
5.620073
 30
0.000000
  0
SEQEND
  8
LAYER-1
  0
POLYLINE
  8
LAYER-1
  6
LTYPE02
 66
  1
 70
  0
 62
253
  6
LTYPE02
 10
5.024602
 20
5.620073
 30
0.000000
  0
VERTEX
  8
LAYER-1
  6
LTYPE02
 10
5.024602
 20
5.620073
 30
0.000000
  0
VERTEX
  8
LAYER-1
  6
LTYPE02
 10
5.070547
 20
5.615823
 30
0.000000
  0
SEQEND
  8
LAYER-1
  0
POLYLINE
  8
LAYER-1
  6
LTYPE02
 66
  1
 70
  0
 62
253
  6
LTYPE02
 10
5.070547
 20
5.615823
 30
0.000000
  0
VERTEX
  8
LAYER-1
  6
LTYPE02
 10
5.070547
 20
5.615823
 30
0.000000
  0
VERTEX
  8
LAYER-1
  6
LTYPE02
 10
5.148193
 20
6.455489
 30
0.000000
  0
SEQEND
  8
LAYER-1
  0
POLYLINE
  8
LAYER-1
  6
LTYPE02
 66
  1
 70
  0
 62
253
  6
LTYPE02
 10
5.148193
 20
6.455489
 30
0.000000
  0
VERTEX
  8
LAYER-1
  6
LTYPE02
 10
5.148193
 20
6.455489
 30
0.000000
  0
VERTEX
  8
LAYER-1
  6
LTYPE02
 10
5.102250
 20
6.459738
 30
0.000000
  0
SEQEND
  8
LAYER-1
  0
POLYLINE
  8
LAYER-1
  6
LTYPE02
 66
  1
 70
  0
 62
253
  6
LTYPE02
 10
5.102250
 20
6.459738
 30
0.000000
  0
VERTEX
  8
LAYER-1
  6
LTYPE02
 10
5.102250
 20
6.459738
 30
0.000000
  0
VERTEX
  8
LAYER-1
  6
LTYPE02
 10
5.088515
 20
6.311228
 30
0.000000
  0
SEQEND
  8
LAYER-1
  0
POLYLINE
  8
LAYER-1
  6
LTYPE02
 66
  1
 70
  0
 62
253
  6
LTYPE02
 10
5.109505
 20
6.309287
 30
0.000000
  0
VERTEX
  8
LAYER-1
  6
LTYPE02
 10
5.109505
 20
6.309287
 30
0.000000
  0
VERTEX
  8
LAYER-1
  6
LTYPE02
 10
5.088513
 20
6.311228
 30
0.000000
  0
SEQEND
  8
LAYER-1
  0
POLYLINE
  8
LAYER-1
  6
LTYPE02
 66
  1
 70
  0
 62
253
  6
LTYPE02
 10
5.107746
 20
6.290261
 30
0.000000
  0
VERTEX
  8
LAYER-1
  6
LTYPE02
 10
5.107746
 20
6.290261
 30
0.000000
  0
VERTEX
  8
LAYER-1
  6
LTYPE02
 10
5.116171
 20
6.300863
 30
0.000000
  0
VERTEX
  8
LAYER-1
  6
LTYPE02
 10
5.109506
 20
6.309289
 30
0.000000
  0
SEQEND
  8
LAYER-1
  0
POLYLINE
  8
LAYER-1
  6
LTYPE02
 66
  1
 70
  0
 62
253
  6
LTYPE02
 10
5.107746
 20
6.290260
 30
0.000000
  0
VERTEX
  8
LAYER-1
  6
LTYPE02
 10
5.107746
 20
6.290260
 30
0.000000
  0
VERTEX
  8
LAYER-1
  6
LTYPE02
 10
5.086754
 20
6.292201
 30
0.000000
  0
SEQEND
  8
LAYER-1
  0
POLYLINE
  8
LAYER-1
  6
LTYPE02
 66
  1
 70
  0
 62
253
  6
LTYPE02
 10
5.039250
 20
5.778507
 30
0.000000
  0
VERTEX
  8
LAYER-1
  6
LTYPE02
 10
5.039250
 20
5.778507
 30
0.000000
  0
VERTEX
  8
LAYER-1
  6
LTYPE02
 10
5.086754
 20
6.292201
 30
0.000000
  0
SEQEND
  8
LAYER-1
  0
POLYLINE
  8
LAYER-1
  6
LTYPE02
 66
  1
 70
  0
 62
253
  6
LTYPE02
 10
5.060243
 20
5.776565
 30
0.000000
  0
VERTEX
  8
LAYER-1
  6
LTYPE02
 10
5.060243
 20
5.776565
 30
0.000000
  0
VERTEX
  8
LAYER-1
  6
LTYPE02
 10
5.039250
 20
5.778507
 30
0.000000
  0
SEQEND
  8
LAYER-1
  0
POLYLINE
  8
LAYER-1
  6
LTYPE02
 66
  1
 70
  0
 62
253
  6
LTYPE02
 10
5.058484
 20
5.757539
 30
0.000000
  0
VERTEX
  8
LAYER-1
  6
LTYPE02
 10
5.058484
 20
5.757539
 30
0.000000
  0
VERTEX
  8
LAYER-1
  6
LTYPE02
 10
5.066909
 20
5.768142
 30
0.000000
  0
VERTEX
  8
LAYER-1
  6
LTYPE02
 10
5.060244
 20
5.776567
 30
0.000000
  0
SEQEND
  8
LAYER-1
  0
CIRCLE
  8
LAYER-1
 62
253
  6
LTYPE02
 10
4.995588
 20
6.230726
 30
0.000000
 40
0.038185
  0
CIRCLE
  8
LAYER-1
 62
253
  6
LTYPE02
 10
4.982804
 20
6.092499
 30
0.000000
 40
0.042933
  0
CIRCLE
  8
LAYER-1
 62
253
  6
LTYPE02
 10
4.970020
 20
5.954272
 30
0.000000
 40
0.037389
  0
CIRCLE
  8
LAYER-1
 62
253
  6
LTYPE02
 10
4.787074
 20
6.109798
 30
0.000000
 40
0.038583
  0
CIRCLE
  8
LAYER-1
 62
253
  6
LTYPE02
 10
5.035567
 20
6.118776
 30
0.000000
 40
0.005351
  0
CIRCLE
  8
LAYER-1
 62
253
  6
LTYPE02
 10
5.020049
 20
5.959632
 30
0.000000
 40
0.005351
  0
POLYLINE
  8
LAYER-1
  6
LTYPE02
 66
  1
 70
  0
 62
253
  6
LTYPE02
 10
5.100359
 20
6.447930
 30
0.000000
  0
VERTEX
  8
LAYER-1
  6
LTYPE02
 10
5.100359
 20
6.447930
 30
0.000000
  0
VERTEX
  8
LAYER-1
  6
LTYPE02
 10
4.612402
 20
6.493053
 30
0.000000
  0
SEQEND
  8
LAYER-1
  0
POLYLINE
  8
LAYER-1
  6
LTYPE02
 66
  1
 70
  0
 62
253
  6
LTYPE02
 10
4.551502
 20
5.834477
 30
0.000000
  0
VERTEX
  8
LAYER-1
  6
LTYPE02
 10
4.551502
 20
5.834477
 30
0.000000
  0
VERTEX
  8
LAYER-1
  6
LTYPE02
 10
4.536515
 20
5.672397
 30
0.000000
  0
SEQEND
  8
LAYER-1
  0
POLYLINE
  8
LAYER-1
  6
LTYPE02
 66
  1
 70
  0
 62
253
  6
LTYPE02
 10
4.536515
 20
5.672397
 30
0.000000
  0
VERTEX
  8
LAYER-1
  6
LTYPE02
 10
4.536515
 20
5.672397
 30
0.000000
  0
VERTEX
  8
LAYER-1
  6
LTYPE02
 10
5.025260
 20
5.627203
 30
0.000000
  0
SEQEND
  8
LAYER-1
  0
POLYLINE
  8
LAYER-1
  6
LTYPE02
 66
  1
 70
  0
 62
253
  6
LTYPE02
 10
4.829743
 20
5.923303
 30
0.000000
  0
VERTEX
  8
LAYER-1
  6
LTYPE02
 10
4.829743
 20
5.923303
 30
0.000000
  0
VERTEX
  8
LAYER-1
  6
LTYPE02
 10
4.669737
 20
5.938099
 30
0.000000
  0
SEQEND
  8
LAYER-1
  0
POLYLINE
  8
LAYER-1
  6
LTYPE02
 66
  1
 70
  0
 62
253
  6
LTYPE02
 10
4.804253
 20
5.647639
 30
0.000000
  0
VERTEX
  8
LAYER-1
  6
LTYPE02
 10
4.804253
 20
5.647639
 30
0.000000
  0
VERTEX
  8
LAYER-1
  6
LTYPE02
 10
4.829743
 20
5.923303
 30
0.000000
  0
SEQEND
  8
LAYER-1
  0
CIRCLE
  8
LAYER-1
 62
253
  6
LTYPE01
 10
4.765640
 20
5.316465
 30
0.000000
 40
0.260932
  0
CIRCLE
  8
LAYER-1
 62
253
  6
LTYPE02
 10
4.765175
 20
5.316508
 30
0.000000
 40
0.226326
  0
CIRCLE
  8
LAYER-1
 62
253
  6
LTYPE02
 10
4.765640
 20
5.316465
 30
0.000000
 40
0.093874
  0
CIRCLE
  8
LAYER-1
 62
253
  6
LTYPE02
 10
4.765640
 20
5.316465
 30
0.000000
 40
0.084328
  0
POLYLINE
  8
LAYER-1
  6
LTYPE02
 66
  1
 70
  0
 62
253
  6
LTYPE02
 10
4.787234
 20
5.542559
 30
0.000000
  0
VERTEX
  8
LAYER-1
  6
LTYPE02
 10
4.787234
 20
5.542559
 30
0.000000
  0
VERTEX
  8
LAYER-1
  6
LTYPE02
 10
4.782876
 20
5.495426
 30
0.000000
  0
SEQEND
  8
LAYER-1
  0
POLYLINE
  8
LAYER-1
  6
LTYPE02
 66
  1
 70
  0
 62
253
  6
LTYPE02
 10
4.748539
 20
5.137494
 30
0.000000
  0
VERTEX
  8
LAYER-1
  6
LTYPE02
 10
4.748539
 20
5.137494
 30
0.000000
  0
VERTEX
  8
LAYER-1
  6
LTYPE02
 10
4.744328
 20
5.091945
 30
0.000000
  0
SEQEND
  8
LAYER-1
  0
POLYLINE
  8
LAYER-1
  6
LTYPE02
 66
  1
 70
  0
 62
253
  6
LTYPE02
 10
4.641470
 20
5.546050
 30
0.000000
  0
VERTEX
  8
LAYER-1
  6
LTYPE02
 10
4.641470
 20
5.546050
 30
0.000000
  0
VERTEX
  8
LAYER-1
  6
LTYPE02
 10
4.522855
 20
5.688841
 30
0.000000
  0
SEQEND
  8
LAYER-1
  0
POLYLINE
  8
LAYER-1
  6
LTYPE02
 66
  1
 70
  0
 62
253
  6
LTYPE02
 10
4.676500
 20
5.561988
 30
0.000000
  0
VERTEX
  8
LAYER-1
  6
LTYPE02
 10
4.676500
 20
5.561988
 30
0.000000
  0
VERTEX
  8
LAYER-1
  6
LTYPE02
 10
4.588794
 20
5.667564
 30
0.000000
  0
SEQEND
  8
LAYER-1
  0
CIRCLE
  8
LAYER-1
 62
253
  6
LTYPE02
 10
4.924433
 20
5.443986
 30
0.000000
 40
0.008457
  0
CIRCLE
  8
LAYER-1
 62
253
  6
LTYPE02
 10
4.892297
 20
5.156953
 30
0.000000
 40
0.008457
  0
CIRCLE
  8
LAYER-1
 62
253
  6
LTYPE02
 10
4.605266
 20
5.189089
 30
0.000000
 40
0.008457
  0
CIRCLE
  8
LAYER-1
 62
253
  6
LTYPE02
 10
4.637399
 20
5.476124
 30
0.000000
 40
0.008457
  0
POLYLINE
  8
LAYER-1
  6
LTYPE02
 66
  1
 70
  0
 62
253
  6
LTYPE02
 10
4.936344
 20
5.425555
 30
0.000000
  0
VERTEX
  8
LAYER-1
  6
LTYPE02
 10
4.936344
 20
5.425555
 30
0.000000
  0
VERTEX
  8
LAYER-1
  6
LTYPE02
 10
4.943920
 20
5.441345
 30
0.000000
  0
VERTEX
  8
LAYER-1
  6
LTYPE02
 10
4.940896
 20
5.457866
 30
0.000000
  0
VERTEX
  8
LAYER-1
  6
LTYPE02
 10
4.927075
 20
5.467410
 30
0.000000
  0
VERTEX
  8
LAYER-1
  6
LTYPE02
 10
4.910553
 20
5.464386
 30
0.000000
  0
VERTEX
  8
LAYER-1
  6
LTYPE02
 10
4.910848
 20
5.461220
 30
0.000000
  0
SEQEND
  8
LAYER-1
  0
POLYLINE
  8
LAYER-1
  6
LTYPE02
 66
  1
 70
  0
 62
253
  6
LTYPE02
 10
4.910846
 20
5.461223
 30
0.000000
  0
VERTEX
  8
LAYER-1
  6
LTYPE02
 10
4.910846
 20
5.461223
 30
0.000000
  0
VERTEX
  8
LAYER-1
  6
LTYPE02
 10
4.890942
 20
5.444686
 30
0.000000
  0
SEQEND
  8
LAYER-1
  0
POLYLINE
  8
LAYER-1
  6
LTYPE02
 66
  1
 70
  0
 62
253
  6
LTYPE02
 10
4.936344
 20
5.425556
 30
0.000000
  0
VERTEX
  8
LAYER-1
  6
LTYPE02
 10
4.936344
 20
5.425556
 30
0.000000
  0
VERTEX
  8
LAYER-1
  6
LTYPE02
 10
4.918566
 20
5.410791
 30
0.000000
  0
SEQEND
  8
LAYER-1
  0
POLYLINE
  8
LAYER-1
  6
LTYPE02
 66
  1
 70
  0
 62
253
  6
LTYPE02
 10
4.873866
 20
5.145042
 30
0.000000
  0
VERTEX
  8
LAYER-1
  6
LTYPE02
 10
4.873866
 20
5.145042
 30
0.000000
  0
VERTEX
  8
LAYER-1
  6
LTYPE02
 10
4.885718
 20
5.137466
 30
0.000000
  0
VERTEX
  8
LAYER-1
  6
LTYPE02
 10
4.902240
 20
5.140491
 30
0.000000
  0
VERTEX
  8
LAYER-1
  6
LTYPE02
 10
4.911784
 20
5.154312
 30
0.000000
  0
VERTEX
  8
LAYER-1
  6
LTYPE02
 10
4.908759
 20
5.170833
 30
0.000000
  0
VERTEX
  8
LAYER-1
  6
LTYPE02
 10
4.909531
 20
5.170539
 30
0.000000
  0
SEQEND
  8
LAYER-1
  0
POLYLINE
  8
LAYER-1
  6
LTYPE02
 66
  1
 70
  0
 62
253
  6
LTYPE02
 10
4.909529
 20
5.170539
 30
0.000000
  0
VERTEX
  8
LAYER-1
  6
LTYPE02
 10
4.909529
 20
5.170539
 30
0.000000
  0
VERTEX
  8
LAYER-1
  6
LTYPE02
 10
4.892999
 20
5.190446
 30
0.000000
  0
SEQEND
  8
LAYER-1
  0
POLYLINE
  8
LAYER-1
  6
LTYPE02
 66
  1
 70
  0
 62
253
  6
LTYPE02
 10
4.873867
 20
5.145042
 30
0.000000
  0
VERTEX
  8
LAYER-1
  6
LTYPE02
 10
4.873867
 20
5.145042
 30
0.000000
  0
VERTEX
  8
LAYER-1
  6
LTYPE02
 10
4.859097
 20
5.162821
 30
0.000000
  0
SEQEND
  8
LAYER-1
  0
POLYLINE
  8
LAYER-1
  6
LTYPE02
 66
  1
 70
  0
 62
253
  6
LTYPE02
 10
4.593356
 20
5.207520
 30
0.000000
  0
VERTEX
  8
LAYER-1
  6
LTYPE02
 10
4.593356
 20
5.207520
 30
0.000000
  0
VERTEX
  8
LAYER-1
  6
LTYPE02
 10
4.581842
 20
5.195668
 30
0.000000
  0
VERTEX
  8
LAYER-1
  6
LTYPE02
 10
4.584867
 20
5.179146
 30
0.000000
  0
VERTEX
  8
LAYER-1
  6
LTYPE02
 10
4.598687
 20
5.169602
 30
0.000000
  0
VERTEX
  8
LAYER-1
  6
LTYPE02
 10
4.615209
 20
5.172626
 30
0.000000
  0
VERTEX
  8
LAYER-1
  6
LTYPE02
 10
4.618852
 20
5.171855
 30
0.000000
  0
SEQEND
  8
LAYER-1
  0
POLYLINE
  8
LAYER-1
  6
LTYPE02
 66
  1
 70
  0
 62
253
  6
LTYPE02
 10
4.618852
 20
5.171856
 30
0.000000
  0
VERTEX
  8
LAYER-1
  6
LTYPE02
 10
4.618852
 20
5.171856
 30
0.000000
  0
VERTEX
  8
LAYER-1
  6
LTYPE02
 10
4.638754
 20
5.188388
 30
0.000000
  0
SEQEND
  8
LAYER-1
  0
POLYLINE
  8
LAYER-1
  6
LTYPE02
 66
  1
 70
  0
 62
253
  6
LTYPE02
 10
4.593353
 20
5.207520
 30
0.000000
  0
VERTEX
  8
LAYER-1
  6
LTYPE02
 10
4.593353
 20
5.207520
 30
0.000000
  0
VERTEX
  8
LAYER-1
  6
LTYPE02
 10
4.611133
 20
5.222290
 30
0.000000
  0
SEQEND
  8
LAYER-1
  0
POLYLINE
  8
LAYER-1
  6
LTYPE02
 66
  1
 70
  0
 62
253
  6
LTYPE02
 10
4.655830
 20
5.488035
 30
0.000000
  0
VERTEX
  8
LAYER-1
  6
LTYPE02
 10
4.655830
 20
5.488035
 30
0.000000
  0
VERTEX
  8
LAYER-1
  6
LTYPE02
 10
4.640040
 20
5.499548
 30
0.000000
  0
VERTEX
  8
LAYER-1
  6
LTYPE02
 10
4.623519
 20
5.496524
 30
0.000000
  0
VERTEX
  8
LAYER-1
  6
LTYPE02
 10
4.613975
 20
5.482703
 30
0.000000
  0
VERTEX
  8
LAYER-1
  6
LTYPE02
 10
4.616999
 20
5.466181
 30
0.000000
  0
VERTEX
  8
LAYER-1
  6
LTYPE02
 10
4.620165
 20
5.462538
 30
0.000000
  0
SEQEND
  8
LAYER-1
  0
POLYLINE
  8
LAYER-1
  6
LTYPE02
 66
  1
 70
  0
 62
253
  6
LTYPE02
 10
4.620166
 20
5.462536
 30
0.000000
  0
VERTEX
  8
LAYER-1
  6
LTYPE02
 10
4.620166
 20
5.462536
 30
0.000000
  0
VERTEX
  8
LAYER-1
  6
LTYPE02
 10
4.636701
 20
5.442635
 30
0.000000
  0
SEQEND
  8
LAYER-1
  0
POLYLINE
  8
LAYER-1
  6
LTYPE02
 66
  1
 70
  0
 62
253
  6
LTYPE02
 10
4.655832
 20
5.488035
 30
0.000000
  0
VERTEX
  8
LAYER-1
  6
LTYPE02
 10
4.655832
 20
5.488035
 30
0.000000
  0
VERTEX
  8
LAYER-1
  6
LTYPE02
 10
4.670600
 20
5.470259
 30
0.000000
  0
SEQEND
  8
LAYER-1
  0
POLYLINE
  8
LAYER-1
  6
LTYPE02
 66
  1
 70
  0
 62
253
  6
LTYPE02
 10
4.890943
 20
5.444687
 30
0.000000
  0
VERTEX
  8
LAYER-1
  6
LTYPE02
 10
4.890943
 20
5.444687
 30
0.000000
  0
VERTEX
  8
LAYER-1
  6
LTYPE02
 10
4.861552
 20
5.468638
 30
0.000000
  0
VERTEX
  8
LAYER-1
  6
LTYPE02
 10
4.830368
 20
5.484847
 30
0.000000
  0
VERTEX
  8
LAYER-1
  6
LTYPE02
 10
4.796621
 20
5.494661
 30
0.000000
  0
VERTEX
  8
LAYER-1
  6
LTYPE02
 10
4.761607
 20
5.497703
 30
0.000000
  0
VERTEX
  8
LAYER-1
  6
LTYPE02
 10
4.726673
 20
5.493856
 30
0.000000
  0
VERTEX
  8
LAYER-1
  6
LTYPE02
 10
4.693161
 20
5.483268
 30
0.000000
  0
VERTEX
  8
LAYER-1
  6
LTYPE02
 10
4.671390
 20
5.468974
 30
0.000000
  0
SEQEND
  8
LAYER-1
  0
POLYLINE
  8
LAYER-1
  6
LTYPE02
 66
  1
 70
  0
 62
253
  6
LTYPE02
 10
4.636698
 20
5.442633
 30
0.000000
  0
VERTEX
  8
LAYER-1
  6
LTYPE02
 10
4.636698
 20
5.442633
 30
0.000000
  0
VERTEX
  8
LAYER-1
  6
LTYPE02
 10
4.612593
 20
5.417022
 30
0.000000
  0
VERTEX
  8
LAYER-1
  6
LTYPE02
 10
4.596262
 20
5.385654
 30
0.000000
  0
VERTEX
  8
LAYER-1
  6
LTYPE02
 10
4.586365
 20
5.351703
 30
0.000000
  0
VERTEX
  8
LAYER-1
  6
LTYPE02
 10
4.583282
 20
5.316473
 30
0.000000
  0
VERTEX
  8
LAYER-1
  6
LTYPE02
 10
4.587131
 20
5.281318
 30
0.000000
  0
VERTEX
  8
LAYER-1
  6
LTYPE02
 10
4.597764
 20
5.247590
 30
0.000000
  0
VERTEX
  8
LAYER-1
  6
LTYPE02
 10
4.611599
 20
5.222574
 30
0.000000
  0
SEQEND
  8
LAYER-1
  0
POLYLINE
  8
LAYER-1
  6
LTYPE02
 66
  1
 70
  0
 62
253
  6
LTYPE02
 10
4.638752
 20
5.188389
 30
0.000000
  0
VERTEX
  8
LAYER-1
  6
LTYPE02
 10
4.638752
 20
5.188389
 30
0.000000
  0
VERTEX
  8
LAYER-1
  6
LTYPE02
 10
4.664209
 20
5.168064
 30
0.000000
  0
VERTEX
  8
LAYER-1
  6
LTYPE02
 10
4.695456
 20
5.151549
 30
0.000000
  0
VERTEX
  8
LAYER-1
  6
LTYPE02
 10
4.729324
 20
5.141447
 30
0.000000
  0
VERTEX
  8
LAYER-1
  6
LTYPE02
 10
4.764512
 20
5.138147
 30
0.000000
  0
VERTEX
  8
LAYER-1
  6
LTYPE02
 10
4.799668
 20
5.141775
 30
0.000000
  0
VERTEX
  8
LAYER-1
  6
LTYPE02
 10
4.833442
 20
5.152192
 30
0.000000
  0
VERTEX
  8
LAYER-1
  6
LTYPE02
 10
4.859332
 20
5.162433
 30
0.000000
  0
SEQEND
  8
LAYER-1
  0
POLYLINE
  8
LAYER-1
  6
LTYPE02
 66
  1
 70
  0
 62
253
  6
LTYPE02
 10
4.892997
 20
5.190443
 30
0.000000
  0
VERTEX
  8
LAYER-1
  6
LTYPE02
 10
4.892997
 20
5.190443
 30
0.000000
  0
VERTEX
  8
LAYER-1
  6
LTYPE02
 10
4.913168
 20
5.219679
 30
0.000000
  0
VERTEX
  8
LAYER-1
  6
LTYPE02
 10
4.929561
 20
5.250742
 30
0.000000
  0
VERTEX
  8
LAYER-1
  6
LTYPE02
 10
4.939579
 20
5.284406
 30
0.000000
  0
VERTEX
  8
LAYER-1
  6
LTYPE02
 10
4.942838
 20
5.319378
 30
0.000000
  0
VERTEX
  8
LAYER-1
  6
LTYPE02
 10
4.939211
 20
5.354313
 30
0.000000
  0
VERTEX
  8
LAYER-1
  6
LTYPE02
 10
4.928839
 20
5.387870
 30
0.000000
  0
VERTEX
  8
LAYER-1
  6
LTYPE02
 10
4.918135
 20
5.410522
 30
0.000000
  0
SEQEND
  8
LAYER-1
  0
POLYLINE
  8
LAYER-1
  6
LTYPE02
 66
  1
 70
  0
 62
253
  6
LTYPE02
 10
4.536038
 20
5.598143
 30
0.000000
  0
VERTEX
  8
LAYER-1
  6
LTYPE02
 10
4.536038
 20
5.598143
 30
0.000000
  0
VERTEX
  8
LAYER-1
  6
LTYPE02
 10
4.514650
 20
5.600120
 30
0.000000
  0
SEQEND
  8
LAYER-1
  0
POLYLINE
  8
LAYER-1
  6
LTYPE02
 66
  1
 70
  0
 62
253
  6
LTYPE02
 10
4.512449
 20
5.481289
 30
0.000000
  0
VERTEX
  8
LAYER-1
  6
LTYPE02
 10
4.512449
 20
5.481289
 30
0.000000
  0
VERTEX
  8
LAYER-1
  6
LTYPE02
 10
4.558392
 20
5.477039
 30
0.000000
  0
SEQEND
  8
LAYER-1
  0
POLYLINE
  8
LAYER-1
  6
LTYPE02
 66
  1
 70
  0
 62
253
  6
LTYPE02
 10
4.508493
 20
5.438512
 30
0.000000
  0
VERTEX
  8
LAYER-1
  6
LTYPE02
 10
4.508493
 20
5.438512
 30
0.000000
  0
VERTEX
  8
LAYER-1
  6
LTYPE02
 10
4.533843
 20
5.436170
 30
0.000000
  0
SEQEND
  8
LAYER-1
  0
POLYLINE
  8
LAYER-1
  6
LTYPE02
 66
  1
 70
  0
 62
253
  6
LTYPE02
 10
4.490544
 20
5.244438
 30
0.000000
  0
VERTEX
  8
LAYER-1
  6
LTYPE02
 10
4.490544
 20
5.244438
 30
0.000000
  0
VERTEX
  8
LAYER-1
  6
LTYPE02
 10
4.515896
 20
5.242093
 30
0.000000
  0
SEQEND
  8
LAYER-1
  0
POLYLINE
  8
LAYER-1
  6
LTYPE02
 66
  1
 70
  0
 62
253
  6
LTYPE02
 10
4.486589
 20
5.201660
 30
0.000000
  0
VERTEX
  8
LAYER-1
  6
LTYPE02
 10
4.486589
 20
5.201660
 30
0.000000
  0
VERTEX
  8
LAYER-1
  6
LTYPE02
 10
4.532533
 20
5.197412
 30
0.000000
  0
SEQEND
  8
LAYER-1
  0
POLYLINE
  8
LAYER-1
  6
LTYPE02
 66
  1
 70
  0
 62
253
  6
LTYPE02
 10
4.488131
 20
5.080085
 30
0.000000
  0
VERTEX
  8
LAYER-1
  6
LTYPE02
 10
4.488131
 20
5.080085
 30
0.000000
  0
VERTEX
  8
LAYER-1
  6
LTYPE02
 10
3.814020
 20
5.142422
 30
0.000000
  0
SEQEND
  8
LAYER-1
  0
POLYLINE
  8
LAYER-1
  6
LTYPE02
 66
  1
 70
  0
 62
253
  6
LTYPE02
 10
4.574411
 20
5.494731
 30
0.000000
  0
VERTEX
  8
LAYER-1
  6
LTYPE02
 10
4.574411
 20
5.494731
 30
0.000000
  0
VERTEX
  8
LAYER-1
  6
LTYPE02
 10
4.530323
 20
5.536357
 30
0.000000
  0
SEQEND
  8
LAYER-1
  0
POLYLINE
  8
LAYER-1
  6
LTYPE02
 66
  1
 70
  0
 62
253
  6
LTYPE02
 10
4.545682
 20
5.175426
 30
0.000000
  0
VERTEX
  8
LAYER-1
  6
LTYPE02
 10
4.545682
 20
5.175426
 30
0.000000
  0
VERTEX
  8
LAYER-1
  6
LTYPE02
 10
4.494063
 20
5.144247
 30
0.000000
  0
SEQEND
  8
LAYER-1
  0
POLYLINE
  8
LAYER-1
  6
LTYPE02
 66
  1
 70
  0
 62
253
  6
LTYPE02
 10
4.494063
 20
5.144247
 30
0.000000
  0
VERTEX
  8
LAYER-1
  6
LTYPE02
 10
4.494063
 20
5.144247
 30
0.000000
  0
VERTEX
  8
LAYER-1
  6
LTYPE02
 10
4.488131
 20
5.080085
 30
0.000000
  0
SEQEND
  8
LAYER-1
  0
POLYLINE
  8
LAYER-1
  6
LTYPE02
 66
  1
 70
  0
 62
253
  6
LTYPE02
 10
4.530323
 20
5.536357
 30
0.000000
  0
VERTEX
  8
LAYER-1
  6
LTYPE02
 10
4.530323
 20
5.536357
 30
0.000000
  0
VERTEX
  8
LAYER-1
  6
LTYPE02
 10
4.536038
 20
5.598143
 30
0.000000
  0
SEQEND
  8
LAYER-1
  0
POLYLINE
  8
LAYER-1
  6
LTYPE02
 66
  1
 70
  0
 62
253
  6
LTYPE02
 10
4.490544
 20
5.244438
 30
0.000000
  0
VERTEX
  8
LAYER-1
  6
LTYPE02
 10
4.490544
 20
5.244438
 30
0.000000
  0
VERTEX
  8
LAYER-1
  6
LTYPE02
 10
4.475457
 20
5.081257
 30
0.000000
  0
SEQEND
  8
LAYER-1
  0
POLYLINE
  8
LAYER-1
  6
LTYPE02
 66
  1
 70
  0
 62
253
  6
LTYPE02
 10
4.508493
 20
5.438512
 30
0.000000
  0
VERTEX
  8
LAYER-1
  6
LTYPE02
 10
4.508493
 20
5.438512
 30
0.000000
  0
VERTEX
  8
LAYER-1
  6
LTYPE02
 10
4.523360
 20
5.599315
 30
0.000000
  0
SEQEND
  8
LAYER-1
  0
POLYLINE
  8
LAYER-1
  6
LTYPE02
 66
  1
 70
  0
 62
253
  6
LTYPE02
 10
4.595520
 20
6.474641
 30
0.000000
  0
VERTEX
  8
LAYER-1
  6
LTYPE02
 10
4.595520
 20
6.474641
 30
0.000000
  0
VERTEX
  8
LAYER-1
  6
LTYPE02
 10
4.555122
 20
6.037768
 30
0.000000
  0
SEQEND
  8
LAYER-1
  0
POLYLINE
  8
LAYER-1
  6
LTYPE02
 66
  1
 70
  0
 62
253
  6
LTYPE02
 10
4.507237
 20
5.278046
 30
0.000000
  0
VERTEX
  8
LAYER-1
  6
LTYPE02
 10
4.507237
 20
5.278046
 30
0.000000
  0
VERTEX
  8
LAYER-1
  6
LTYPE02
 10
4.485057
 20
5.280097
 30
0.000000
  0
SEQEND
  8
LAYER-1
  0
POLYLINE
  8
LAYER-1
  6
LTYPE02
 66
  1
 70
  0
 62
253
  6
LTYPE02
 10
4.504487
 20
5.317449
 30
0.000000
  0
VERTEX
  8
LAYER-1
  6
LTYPE02
 10
4.504487
 20
5.317449
 30
0.000000
  0
VERTEX
  8
LAYER-1
  6
LTYPE02
 10
4.488646
 20
5.318914
 30
0.000000
  0
SEQEND
  8
LAYER-1
  0
POLYLINE
  8
LAYER-1
  6
LTYPE02
 66
  1
 70
  0
 62
253
  6
LTYPE02
 10
4.505028
 20
5.340565
 30
0.000000
  0
VERTEX
  8
LAYER-1
  6
LTYPE02
 10
4.505028
 20
5.340565
 30
0.000000
  0
VERTEX
  8
LAYER-1
  6
LTYPE02
 10
4.490771
 20
5.341883
 30
0.000000
  0
SEQEND
  8
LAYER-1
  0
POLYLINE
  8
LAYER-1
  6
LTYPE02
 66
  1
 70
  0
 62
253
  6
LTYPE02
 10
4.464103
 20
5.900441
 30
0.000000
  0
VERTEX
  8
LAYER-1
  6
LTYPE02
 10
4.464103
 20
5.900441
 30
0.000000
  0
VERTEX
  8
LAYER-1
  6
LTYPE02
 10
4.389904
 20
5.089169
 30
0.000000
  0
SEQEND
  8
LAYER-1
  0
CIRCLE
  8
LAYER-1
 62
253
  6
LTYPE02
 10
4.450299
 20
5.228186
 30
0.000000
 40
0.006762
  0
CIRCLE
  8
LAYER-1
 62
253
  6
LTYPE02
 10
4.363216
 20
5.154749
 30
0.000000
 40
0.018297
  0
CIRCLE
  8
LAYER-1
 62
253
  6
LTYPE02
 10
4.279248
 20
5.162515
 30
0.000000
 40
0.018297
  0
CIRCLE
  8
LAYER-1
 62
253
  6
LTYPE02
 10
3.903772
 20
5.197236
 30
0.000000
 40
0.018297
  0
CIRCLE
  8
LAYER-1
 62
253
  6
LTYPE02
 10
4.480712
 20
6.425339
 30
0.000000
 40
0.018297
  0
CIRCLE
  8
LAYER-1
 62
253
  6
LTYPE02
 10
4.396743
 20
6.433104
 30
0.000000
 40
0.018297
  0
CIRCLE
  8
LAYER-1
 62
253
  6
LTYPE02
 10
4.021268
 20
6.467824
 30
0.000000
 40
0.018297
  0
CIRCLE
  8
LAYER-1
 62
253
  6
LTYPE02
 10
4.496155
 20
5.724066
 30
0.000000
 40
0.006762
  0
CIRCLE
  8
LAYER-1
 62
253
  6
LTYPE02
 10
4.502602
 20
5.793773
 30
0.000000
 40
0.006762
  0
CIRCLE
  8
LAYER-1
 62
253
  6
LTYPE02
 10
4.508606
 20
5.858727
 30
0.000000
 40
0.006762
  0
CIRCLE
  8
LAYER-1
 62
253
  6
LTYPE02
 10
4.558126
 20
6.394213
 30
0.000000
 40
0.006762
  0
CIRCLE
  8
LAYER-1
 62
253
  6
LTYPE02
 10
4.559591
 20
6.410055
 30
0.000000
 40
0.006762
  0
CIRCLE
  8
LAYER-1
 62
253
  6
LTYPE02
 10
4.561056
 20
6.425900
 30
0.000000
 40
0.006762
  0
CIRCLE
  8
LAYER-1
 62
253
  6
LTYPE02
 10
4.028772
 20
6.104024
 30
0.000000
 40
0.006762
  0
CIRCLE
  8
LAYER-1
 62
253
  6
LTYPE02
 10
3.955860
 20
6.110369
 30
0.000000
 40
0.006762
  0
POLYLINE
  8
LAYER-1
  6
LTYPE02
 66
  1
 70
  0
 62
253
  6
LTYPE02
 10
3.814020
 20
5.142422
 30
0.000000
  0
VERTEX
  8
LAYER-1
  6
LTYPE02
 10
3.814020
 20
5.142422
 30
0.000000
  0
VERTEX
  8
LAYER-1
  6
LTYPE02
 10
3.942797
 20
6.535001
 30
0.000000
  0
SEQEND
  8
LAYER-1
  0
POLYLINE
  8
LAYER-1
  6
LTYPE02
 66
  1
 70
  0
 62
253
  6
LTYPE02
 10
3.942797
 20
6.535001
 30
0.000000
  0
VERTEX
  8
LAYER-1
  6
LTYPE02
 10
3.942797
 20
6.535001
 30
0.000000
  0
VERTEX
  8
LAYER-1
  6
LTYPE02
 10
4.595520
 20
6.474641
 30
0.000000
  0
SEQEND
  8
LAYER-1
  0
POLYLINE
  8
LAYER-1
  6
LTYPE02
 66
  1
 70
  0
 62
253
  6
LTYPE02
 10
3.821940
 20
5.141691
 30
0.000000
  0
VERTEX
  8
LAYER-1
  6
LTYPE02
 10
3.821940
 20
5.141691
 30
0.000000
  0
VERTEX
  8
LAYER-1
  6
LTYPE02
 10
3.950716
 20
6.534268
 30
0.000000
  0
SEQEND
  8
LAYER-1
  0
POLYLINE
  8
LAYER-1
  6
LTYPE02
 66
  1
 70
  0
 62
253
  6
LTYPE02
 10
3.919348
 20
6.091375
 30
0.000000
  0
VERTEX
  8
LAYER-1
  6
LTYPE02
 10
3.919348
 20
6.091375
 30
0.000000
  0
VERTEX
  8
LAYER-1
  6
LTYPE02
 10
3.960224
 20
6.533389
 30
0.000000
  0
SEQEND
  8
LAYER-1
  0
POLYLINE
  8
LAYER-1
  6
LTYPE02
 66
  1
 70
  0
 62
253
  6
LTYPE02
 10
4.005556
 20
5.485819
 30
0.000000
  0
VERTEX
  8
LAYER-1
  6
LTYPE02
 10
4.005556
 20
5.485819
 30
0.000000
  0
VERTEX
  8
LAYER-1
  6
LTYPE02
 10
4.020352
 20
5.645829
 30
0.000000
  0
SEQEND
  8
LAYER-1
  0
POLYLINE
  8
LAYER-1
  6
LTYPE02
 66
  1
 70
  0
 62
253
  6
LTYPE02
 10
4.060347
 20
6.078337
 30
0.000000
  0
VERTEX
  8
LAYER-1
  6
LTYPE02
 10
4.060347
 20
6.078337
 30
0.000000
  0
VERTEX
  8
LAYER-1
  6
LTYPE02
 10
3.919348
 20
6.091375
 30
0.000000
  0
SEQEND
  8
LAYER-1
  0
POLYLINE
  8
LAYER-1
  6
LTYPE02
 66
  1
 70
  0
 62
253
  6
LTYPE02
 10
3.952080
 20
5.926969
 30
0.000000
  0
VERTEX
  8
LAYER-1
  6
LTYPE02
 10
3.952080
 20
5.926969
 30
0.000000
  0
VERTEX
  8
LAYER-1
  6
LTYPE02
 10
4.045551
 20
5.918324
 30
0.000000
  0
SEQEND
  8
LAYER-1
  0
POLYLINE
  8
LAYER-1
  6
LTYPE02
 66
  1
 70
  0
 62
253
  6
LTYPE02
 10
4.020352
 20
5.645829
 30
0.000000
  0
VERTEX
  8
LAYER-1
  6
LTYPE02
 10
4.020352
 20
5.645829
 30
0.000000
  0
VERTEX
  8
LAYER-1
  6
LTYPE02
 10
3.879353
 20
5.658868
 30
0.000000
  0
SEQEND
  8
LAYER-1
  0
POLYLINE
  8
LAYER-1
  6
LTYPE02
 66
  1
 70
  0
 62
253
  6
LTYPE02
 10
4.005556
 20
5.485819
 30
0.000000
  0
VERTEX
  8
LAYER-1
  6
LTYPE02
 10
4.005556
 20
5.485819
 30
0.000000
  0
VERTEX
  8
LAYER-1
  6
LTYPE02
 10
3.864555
 20
5.498857
 30
0.000000
  0
SEQEND
  8
LAYER-1
  0
POLYLINE
  8
LAYER-1
  6
LTYPE02
 66
  1
 70
  0
 62
253
  6
LTYPE02
 10
3.952080
 20
5.926969
 30
0.000000
  0
VERTEX
  8
LAYER-1
  6
LTYPE02
 10
3.952080
 20
5.926969
 30
0.000000
  0
VERTEX
  8
LAYER-1
  6
LTYPE02
 10
3.939627
 20
5.792307
 30
0.000000
  0
SEQEND
  8
LAYER-1
  0
POLYLINE
  8
LAYER-1
  6
LTYPE02
 66
  1
 70
  0
 62
253
  6
LTYPE02
 10
3.939627
 20
5.792307
 30
0.000000
  0
VERTEX
  8
LAYER-1
  6
LTYPE02
 10
3.939627
 20
5.792307
 30
0.000000
  0
VERTEX
  8
LAYER-1
  6
LTYPE02
 10
3.917448
 20
5.794357
 30
0.000000
  0
SEQEND
  8
LAYER-1
  0
POLYLINE
  8
LAYER-1
  6
LTYPE02
 66
  1
 70
  0
 62
253
  6
LTYPE02
 10
3.917448
 20
5.794357
 30
0.000000
  0
VERTEX
  8
LAYER-1
  6
LTYPE02
 10
3.917448
 20
5.794357
 30
0.000000
  0
VERTEX
  8
LAYER-1
  6
LTYPE02
 10
3.929901
 20
5.929020
 30
0.000000
  0
SEQEND
  8
LAYER-1
  0
POLYLINE
  8
LAYER-1
  6
LTYPE02
 66
  1
 70
  0
 62
253
  6
LTYPE02
 10
4.045551
 20
5.918324
 30
0.000000
  0
VERTEX
  8
LAYER-1
  6
LTYPE02
 10
4.045551
 20
5.918324
 30
0.000000
  0
VERTEX
  8
LAYER-1
  6
LTYPE02
 10
4.060347
 20
6.078337
 30
0.000000
  0
SEQEND
  8
LAYER-1
  0
POLYLINE
  8
LAYER-1
  6
LTYPE02
 66
  1
 70
  0
 62
253
  6
LTYPE02
 10
3.904551
 20
5.931363
 30
0.000000
  0
VERTEX
  8
LAYER-1
  6
LTYPE02
 10
3.904551
 20
5.931363
 30
0.000000
  0
VERTEX
  8
LAYER-1
  6
LTYPE02
 10
3.929901
 20
5.929020
 30
0.000000
  0
SEQEND
  8
LAYER-1
  0
POLYLINE
  8
LAYER-1
  6
LTYPE02
 66
  1
 70
  0
 62
253
  6
LTYPE02
 10
3.904551
 20
5.931363
 30
0.000000
  0
VERTEX
  8
LAYER-1
  6
LTYPE02
 10
3.904551
 20
5.931363
 30
0.000000
  0
VERTEX
  8
LAYER-1
  6
LTYPE02
 10
3.879353
 20
5.658868
 30
0.000000
  0
SEQEND
  8
LAYER-1
  0
POLYLINE
  8
LAYER-1
  6
LTYPE02
 66
  1
 70
  0
 62
253
  6
LTYPE02
 10
3.864555
 20
5.498857
 30
0.000000
  0
VERTEX
  8
LAYER-1
  6
LTYPE02
 10
3.864555
 20
5.498857
 30
0.000000
  0
VERTEX
  8
LAYER-1
  6
LTYPE02
 10
3.831446
 20
5.140811
 30
0.000000
  0
SEQEND
  8
LAYER-1
  0
POLYLINE
  8
LAYER-1
  6
LTYPE02
 66
  1
 70
  0
 62
253
  6
LTYPE02
 10
4.493831
 20
6.385779
 30
0.000000
  0
VERTEX
  8
LAYER-1
  6
LTYPE02
 10
4.493831
 20
6.385779
 30
0.000000
  0
VERTEX
  8
LAYER-1
  6
LTYPE02
 10
4.486064
 20
6.301812
 30
0.000000
  0
SEQEND
  8
LAYER-1
  0
POLYLINE
  8
LAYER-1
  6
LTYPE02
 66
  1
 70
  0
 62
253
  6
LTYPE02
 10
4.486064
 20
6.301812
 30
0.000000
  0
VERTEX
  8
LAYER-1
  6
LTYPE02
 10
4.486064
 20
6.301812
 30
0.000000
  0
VERTEX
  8
LAYER-1
  6
LTYPE02
 10
4.501904
 20
6.300346
 30
0.000000
  0
SEQEND
  8
LAYER-1
  0
POLYLINE
  8
LAYER-1
  6
LTYPE02
 66
  1
 70
  0
 62
253
  6
LTYPE02
 10
4.493831
 20
6.385779
 30
0.000000
  0
VERTEX
  8
LAYER-1
  6
LTYPE02
 10
4.493831
 20
6.385779
 30
0.000000
  0
VERTEX
  8
LAYER-1
  6
LTYPE02
 10
4.509671
 20
6.384314
 30
0.000000
  0
SEQEND
  8
LAYER-1
  0
POLYLINE
  8
LAYER-1
  6
LTYPE02
 66
  1
 70
  0
 62
253
  6
LTYPE02
 10
4.509671
 20
6.384314
 30
0.000000
  0
VERTEX
  8
LAYER-1
  6
LTYPE02
 10
4.509671
 20
6.384314
 30
0.000000
  0
VERTEX
  8
LAYER-1
  6
LTYPE02
 10
4.518681
 20
6.481746
 30
0.000000
  0
SEQEND
  8
LAYER-1
  0
CIRCLE
  8
LAYER-1
 62
253
  6
LTYPE02
 10
4.281786
 20
6.148936
 30
0.000000
 40
0.040164
  0
POLYLINE
  8
LAYER-1
  6
LTYPE02
 66
  1
 70
  0
 62
253
  6
LTYPE02
 10
4.334312
 20
6.068979
 30
0.000000
  0
VERTEX
  8
LAYER-1
  6
LTYPE02
 10
4.334312
 20
6.068979
 30
0.000000
  0
VERTEX
  8
LAYER-1
  6
LTYPE02
 10
4.333044
 20
6.085405
 30
0.000000
  0
SEQEND
  8
LAYER-1
  0
POLYLINE
  8
LAYER-1
  6
LTYPE02
 66
  1
 70
  0
 62
253
  6
LTYPE02
 10
4.348338
 20
6.100793
 30
0.000000
  0
VERTEX
  8
LAYER-1
  6
LTYPE02
 10
4.348338
 20
6.100793
 30
0.000000
  0
VERTEX
  8
LAYER-1
  6
LTYPE02
 10
4.335973
 20
6.099297
 30
0.000000
  0
VERTEX
  8
LAYER-1
  6
LTYPE02
 10
4.331069
 20
6.089496
 30
0.000000
  0
VERTEX
  8
LAYER-1
  6
LTYPE02
 10
4.333044
 20
6.085409
 30
0.000000
  0
SEQEND
  8
LAYER-1
  0
POLYLINE
  8
LAYER-1
  6
LTYPE02
 66
  1
 70
  0
 62
253
  6
LTYPE02
 10
4.363804
 20
6.099688
 30
0.000000
  0
VERTEX
  8
LAYER-1
  6
LTYPE02
 10
4.363804
 20
6.099688
 30
0.000000
  0
VERTEX
  8
LAYER-1
  6
LTYPE02
 10
4.348342
 20
6.100791
 30
0.000000
  0
SEQEND
  8
LAYER-1
  0
POLYLINE
  8
LAYER-1
  6
LTYPE02
 66
  1
 70
  0
 62
253
  6
LTYPE02
 10
4.294417
 20
6.054110
 30
0.000000
  0
VERTEX
  8
LAYER-1
  6
LTYPE02
 10
4.294417
 20
6.054110
 30
0.000000
  0
VERTEX
  8
LAYER-1
  6
LTYPE02
 10
4.300404
 20
6.069457
 30
0.000000
  0
SEQEND
  8
LAYER-1
  0
POLYLINE
  8
LAYER-1
  6
LTYPE02
 66
  1
 70
  0
 62
253
  6
LTYPE02
 10
4.320858
 20
6.076680
 30
0.000000
  0
VERTEX
  8
LAYER-1
  6
LTYPE02
 10
4.320858
 20
6.076680
 30
0.000000
  0
VERTEX
  8
LAYER-1
  6
LTYPE02
 10
4.308019
 20
6.080039
 30
0.000000
  0
VERTEX
  8
LAYER-1
  6
LTYPE02
 10
4.299349
 20
6.073336
 30
0.000000
  0
VERTEX
  8
LAYER-1
  6
LTYPE02
 10
4.300404
 20
6.069456
 30
0.000000
  0
SEQEND
  8
LAYER-1
  0
POLYLINE
  8
LAYER-1
  6
LTYPE02
 66
  1
 70
  0
 62
253
  6
LTYPE02
 10
4.334312
 20
6.068979
 30
0.000000
  0
VERTEX
  8
LAYER-1
  6
LTYPE02
 10
4.334312
 20
6.068979
 30
0.000000
  0
VERTEX
  8
LAYER-1
  6
LTYPE02
 10
4.320860
 20
6.076681
 30
0.000000
  0
SEQEND
  8
LAYER-1
  0
POLYLINE
  8
LAYER-1
  6
LTYPE02
 66
  1
 70
  0
 62
253
  6
LTYPE02
 10
4.258506
 20
6.064905
 30
0.000000
  0
VERTEX
  8
LAYER-1
  6
LTYPE02
 10
4.258506
 20
6.064905
 30
0.000000
  0
VERTEX
  8
LAYER-1
  6
LTYPE02
 10
4.264077
 20
6.069250
 30
0.000000
  0
SEQEND
  8
LAYER-1
  0
POLYLINE
  8
LAYER-1
  6
LTYPE02
 66
  1
 70
  0
 62
253
  6
LTYPE02
 10
4.285640
 20
6.066885
 30
0.000000
  0
VERTEX
  8
LAYER-1
  6
LTYPE02
 10
4.285640
 20
6.066885
 30
0.000000
  0
VERTEX
  8
LAYER-1
  6
LTYPE02
 10
4.274481
 20
6.074823
 30
0.000000
  0
VERTEX
  8
LAYER-1
  6
LTYPE02
 10
4.263761
 20
6.072545
 30
0.000000
  0
VERTEX
  8
LAYER-1
  6
LTYPE02
 10
4.264077
 20
6.069251
 30
0.000000
  0
SEQEND
  8
LAYER-1
  0
POLYLINE
  8
LAYER-1
  6
LTYPE02
 66
  1
 70
  0
 62
253
  6
LTYPE02
 10
4.294417
 20
6.054110
 30
0.000000
  0
VERTEX
  8
LAYER-1
  6
LTYPE02
 10
4.294417
 20
6.054110
 30
0.000000
  0
VERTEX
  8
LAYER-1
  6
LTYPE02
 10
4.285638
 20
6.066884
 30
0.000000
  0
SEQEND
  8
LAYER-1
  0
POLYLINE
  8
LAYER-1
  6
LTYPE02
 66
  1
 70
  0
 62
253
  6
LTYPE02
 10
4.249815
 20
6.071699
 30
0.000000
  0
VERTEX
  8
LAYER-1
  6
LTYPE02
 10
4.249815
 20
6.071699
 30
0.000000
  0
VERTEX
  8
LAYER-1
  6
LTYPE02
 10
4.243269
 20
6.083625
 30
0.000000
  0
VERTEX
  8
LAYER-1
  6
LTYPE02
 10
4.232991
 20
6.087428
 30
0.000000
  0
VERTEX
  8
LAYER-1
  6
LTYPE02
 10
4.231256
 20
6.084826
 30
0.000000
  0
SEQEND
  8
LAYER-1
  0
POLYLINE
  8
LAYER-1
  6
LTYPE02
 66
  1
 70
  0
 62
253
  6
LTYPE02
 10
4.220038
 20
6.094765
 30
0.000000
  0
VERTEX
  8
LAYER-1
  6
LTYPE02
 10
4.220038
 20
6.094765
 30
0.000000
  0
VERTEX
  8
LAYER-1
  6
LTYPE02
 10
4.217005
 20
6.107641
 30
0.000000
  0
VERTEX
  8
LAYER-1
  6
LTYPE02
 10
4.208541
 20
6.114602
 30
0.000000
  0
VERTEX
  8
LAYER-1
  6
LTYPE02
 10
4.208444
 20
6.113099
 30
0.000000
  0
SEQEND
  8
LAYER-1
  0
POLYLINE
  8
LAYER-1
  6
LTYPE02
 66
  1
 70
  0
 62
253
  6
LTYPE02
 10
4.202650
 20
6.126919
 30
0.000000
  0
VERTEX
  8
LAYER-1
  6
LTYPE02
 10
4.202650
 20
6.126919
 30
0.000000
  0
VERTEX
  8
LAYER-1
  6
LTYPE02
 10
4.204456
 20
6.139177
 30
0.000000
  0
VERTEX
  8
LAYER-1
  6
LTYPE02
 10
4.199850
 20
6.149121
 30
0.000000
  0
VERTEX
  8
LAYER-1
  6
LTYPE02
 10
4.200158
 20
6.148469
 30
0.000000
  0
SEQEND
  8
LAYER-1
  0
POLYLINE
  8
LAYER-1
  6
LTYPE02
 66
  1
 70
  0
 62
253
  6
LTYPE02
 10
4.200933
 20
6.163437
 30
0.000000
  0
VERTEX
  8
LAYER-1
  6
LTYPE02
 10
4.200933
 20
6.163437
 30
0.000000
  0
VERTEX
  8
LAYER-1
  6
LTYPE02
 10
4.206831
 20
6.173037
 30
0.000000
  0
VERTEX
  8
LAYER-1
  6
LTYPE02
 10
4.206995
 20
6.183996
 30
0.000000
  0
VERTEX
  8
LAYER-1
  6
LTYPE02
 10
4.208039
 20
6.183932
 30
0.000000
  0
SEQEND
  8
LAYER-1
  0
POLYLINE
  8
LAYER-1
  6
LTYPE02
 66
  1
 70
  0
 62
253
  6
LTYPE02
 10
4.215232
 20
6.197079
 30
0.000000
  0
VERTEX
  8
LAYER-1
  6
LTYPE02
 10
4.215232
 20
6.197079
 30
0.000000
  0
VERTEX
  8
LAYER-1
  6
LTYPE02
 10
4.223662
 20
6.202511
 30
0.000000
  0
VERTEX
  8
LAYER-1
  6
LTYPE02
 10
4.228565
 20
6.212313
 30
0.000000
  0
VERTEX
  8
LAYER-1
  6
LTYPE02
 10
4.230527
 20
6.212462
 30
0.000000
  0
SEQEND
  8
LAYER-1
  0
POLYLINE
  8
LAYER-1
  6
LTYPE02
 66
  1
 70
  0
 62
253
  6
LTYPE02
 10
4.242712
 20
6.221188
 30
0.000000
  0
VERTEX
  8
LAYER-1
  6
LTYPE02
 10
4.242712
 20
6.221188
 30
0.000000
  0
VERTEX
  8
LAYER-1
  6
LTYPE02
 10
4.251615
 20
6.221766
 30
0.000000
  0
VERTEX
  8
LAYER-1
  6
LTYPE02
 10
4.260285
 20
6.228470
 30
0.000000
  0
VERTEX
  8
LAYER-1
  6
LTYPE02
 10
4.263166
 20
6.228412
 30
0.000000
  0
SEQEND
  8
LAYER-1
  0
POLYLINE
  8
LAYER-1
  6
LTYPE02
 66
  1
 70
  0
 62
253
  6
LTYPE02
 10
4.277934
 20
6.230988
 30
0.000000
  0
VERTEX
  8
LAYER-1
  6
LTYPE02
 10
4.277934
 20
6.230988
 30
0.000000
  0
VERTEX
  8
LAYER-1
  6
LTYPE02
 10
4.285156
 20
6.226987
 30
0.000000
  0
VERTEX
  8
LAYER-1
  6
LTYPE02
 10
4.295876
 20
6.229264
 30
0.000000
  0
VERTEX
  8
LAYER-1
  6
LTYPE02
 10
4.299497
 20
6.228621
 30
0.000000
  0
SEQEND
  8
LAYER-1
  0
POLYLINE
  8
LAYER-1
  6
LTYPE02
 66
  1
 70
  0
 62
253
  6
LTYPE02
 10
4.313916
 20
6.224534
 30
0.000000
  0
VERTEX
  8
LAYER-1
  6
LTYPE02
 10
4.313916
 20
6.224534
 30
0.000000
  0
VERTEX
  8
LAYER-1
  6
LTYPE02
 10
4.317638
 20
6.217136
 30
0.000000
  0
VERTEX
  8
LAYER-1
  6
LTYPE02
 10
4.328285
 20
6.214537
 30
0.000000
  0
VERTEX
  8
LAYER-1
  6
LTYPE02
 10
4.332317
 20
6.213046
 30
0.000000
  0
SEQEND
  8
LAYER-1
  0
POLYLINE
  8
LAYER-1
  6
LTYPE02
 66
  1
 70
  0
 62
253
  6
LTYPE02
 10
4.367372
 20
6.182882
 30
0.000000
  0
VERTEX
  8
LAYER-1
  6
LTYPE02
 10
4.367372
 20
6.182882
 30
0.000000
  0
VERTEX
  8
LAYER-1
  6
LTYPE02
 10
4.355128
 20
6.184775
 30
0.000000
  0
SEQEND
  8
LAYER-1
  0
POLYLINE
  8
LAYER-1
  6
LTYPE02
 66
  1
 70
  0
 62
253
  6
LTYPE02
 10
4.343532
 20
6.203107
 30
0.000000
  0
VERTEX
  8
LAYER-1
  6
LTYPE02
 10
4.343532
 20
6.203107
 30
0.000000
  0
VERTEX
  8
LAYER-1
  6
LTYPE02
 10
4.342627
 20
6.194168
 30
0.000000
  0
VERTEX
  8
LAYER-1
  6
LTYPE02
 10
4.351092
 20
6.187207
 30
0.000000
  0
VERTEX
  8
LAYER-1
  6
LTYPE02
 10
4.355126
 20
6.184772
 30
0.000000
  0
SEQEND
  8
LAYER-1
  0
POLYLINE
  8
LAYER-1
  6
LTYPE02
 66
  1
 70
  0
 62
253
  6
LTYPE02
 10
4.377045
 20
6.140151
 30
0.000000
  0
VERTEX
  8
LAYER-1
  6
LTYPE02
 10
4.377045
 20
6.140151
 30
0.000000
  0
VERTEX
  8
LAYER-1
  6
LTYPE02
 10
4.363416
 20
6.149402
 30
0.000000
  0
SEQEND
  8
LAYER-1
  0
POLYLINE
  8
LAYER-1
  6
LTYPE02
 66
  1
 70
  0
 62
253
  6
LTYPE02
 10
4.360926
 20
6.170951
 30
0.000000
  0
VERTEX
  8
LAYER-1
  6
LTYPE02
 10
4.360926
 20
6.170951
 30
0.000000
  0
VERTEX
  8
LAYER-1
  6
LTYPE02
 10
4.355182
 20
6.162631
 30
0.000000
  0
VERTEX
  8
LAYER-1
  6
LTYPE02
 10
4.359788
 20
6.152685
 30
0.000000
  0
VERTEX
  8
LAYER-1
  6
LTYPE02
 10
4.363416
 20
6.149401
 30
0.000000
  0
SEQEND
  8
LAYER-1
  0
POLYLINE
  8
LAYER-1
  6
LTYPE02
 66
  1
 70
  0
 62
253
  6
LTYPE02
 10
4.369298
 20
6.180045
 30
0.000000
  0
VERTEX
  8
LAYER-1
  6
LTYPE02
 10
4.369298
 20
6.180045
 30
0.000000
  0
VERTEX
  8
LAYER-1
  6
LTYPE02
 10
4.360924
 20
6.170952
 30
0.000000
  0
SEQEND
  8
LAYER-1
  0
POLYLINE
  8
LAYER-1
  6
LTYPE02
 66
  1
 70
  0
 62
253
  6
LTYPE02
 10
4.363804
 20
6.099688
 30
0.000000
  0
VERTEX
  8
LAYER-1
  6
LTYPE02
 10
4.363804
 20
6.099688
 30
0.000000
  0
VERTEX
  8
LAYER-1
  6
LTYPE02
 10
4.355534
 20
6.113937
 30
0.000000
  0
SEQEND
  8
LAYER-1
  0
POLYLINE
  8
LAYER-1
  6
LTYPE02
 66
  1
 70
  0
 62
253
  6
LTYPE02
 10
4.362640
 20
6.134435
 30
0.000000
  0
VERTEX
  8
LAYER-1
  6
LTYPE02
 10
4.362640
 20
6.134435
 30
0.000000
  0
VERTEX
  8
LAYER-1
  6
LTYPE02
 10
4.352806
 20
6.128771
 30
0.000000
  0
VERTEX
  8
LAYER-1
  6
LTYPE02
 10
4.352641
 20
6.117813
 30
0.000000
  0
VERTEX
  8
LAYER-1
  6
LTYPE02
 10
4.355534
 20
6.113939
 30
0.000000
  0
SEQEND
  8
LAYER-1
  0
POLYLINE
  8
LAYER-1
  6
LTYPE02
 66
  1
 70
  0
 62
253
  6
LTYPE02
 10
4.377045
 20
6.140151
 30
0.000000
  0
VERTEX
  8
LAYER-1
  6
LTYPE02
 10
4.377045
 20
6.140151
 30
0.000000
  0
VERTEX
  8
LAYER-1
  6
LTYPE02
 10
4.362640
 20
6.134436
 30
0.000000
  0
SEQEND
  8
LAYER-1
  0
POLYLINE
  8
LAYER-1
  6
LTYPE02
 66
  1
 70
  0
 62
253
  6
LTYPE02
 10
4.363596
 20
6.173626
 30
0.000000
  0
VERTEX
  8
LAYER-1
  6
LTYPE02
 10
4.363596
 20
6.173626
 30
0.000000
  0
VERTEX
  8
LAYER-1
  6
LTYPE02
 10
4.360985
 20
6.177632
 30
0.000000
  0
VERTEX
  8
LAYER-1
  6
LTYPE02
 10
4.360292
 20
6.179653
 30
0.000000
  0
VERTEX
  8
LAYER-1
  6
LTYPE02
 10
4.359548
 20
6.181656
 30
0.000000
  0
VERTEX
  8
LAYER-1
  6
LTYPE02
 10
4.358755
 20
6.183640
 30
0.000000
  0
VERTEX
  8
LAYER-1
  6
LTYPE02
 10
4.359879
 20
6.183635
 30
0.000000
  0
SEQEND
  8
LAYER-1
  0
POLYLINE
  8
LAYER-1
  6
LTYPE02
 66
  1
 70
  0
 62
253
  6
LTYPE02
 10
4.366207
 20
6.135685
 30
0.000000
  0
VERTEX
  8
LAYER-1
  6
LTYPE02
 10
4.366207
 20
6.135685
 30
0.000000
  0
VERTEX
  8
LAYER-1
  6
LTYPE02
 10
4.364544
 20
6.139768
 30
0.000000
  0
VERTEX
  8
LAYER-1
  6
LTYPE02
 10
4.364796
 20
6.141890
 30
0.000000
  0
VERTEX
  8
LAYER-1
  6
LTYPE02
 10
4.364995
 20
6.144017
 30
0.000000
  0
VERTEX
  8
LAYER-1
  6
LTYPE02
 10
4.365140
 20
6.146149
 30
0.000000
  0
VERTEX
  8
LAYER-1
  6
LTYPE02
 10
4.367200
 20
6.146315
 30
0.000000
  0
SEQEND
  8
LAYER-1
  0
POLYLINE
  8
LAYER-1
  6
LTYPE02
 66
  1
 70
  0
 62
253
  6
LTYPE02
 10
4.352097
 20
6.100367
 30
0.000000
  0
VERTEX
  8
LAYER-1
  6
LTYPE02
 10
4.352097
 20
6.100367
 30
0.000000
  0
VERTEX
  8
LAYER-1
  6
LTYPE02
 10
4.351321
 20
6.104109
 30
0.000000
  0
VERTEX
  8
LAYER-1
  6
LTYPE02
 10
4.352469
 20
6.105911
 30
0.000000
  0
VERTEX
  8
LAYER-1
  6
LTYPE02
 10
4.353571
 20
6.107742
 30
0.000000
  0
VERTEX
  8
LAYER-1
  6
LTYPE02
 10
4.354627
 20
6.109600
 30
0.000000
  0
VERTEX
  8
LAYER-1
  6
LTYPE02
 10
4.357604
 20
6.109515
 30
0.000000
  0
SEQEND
  8
LAYER-1
  0
POLYLINE
  8
LAYER-1
  6
LTYPE02
 66
  1
 70
  0
 62
253
  6
LTYPE02
 10
4.324061
 20
6.074671
 30
0.000000
  0
VERTEX
  8
LAYER-1
  6
LTYPE02
 10
4.324061
 20
6.074671
 30
0.000000
  0
VERTEX
  8
LAYER-1
  6
LTYPE02
 10
4.323936
 20
6.077719
 30
0.000000
  0
VERTEX
  8
LAYER-1
  6
LTYPE02
 10
4.325752
 20
6.078845
 30
0.000000
  0
VERTEX
  8
LAYER-1
  6
LTYPE02
 10
4.327540
 20
6.080016
 30
0.000000
  0
VERTEX
  8
LAYER-1
  6
LTYPE02
 10
4.329297
 20
6.081231
 30
0.000000
  0
VERTEX
  8
LAYER-1
  6
LTYPE02
 10
4.332992
 20
6.080522
 30
0.000000
  0
SEQEND
  8
LAYER-1
  0
POLYLINE
  8
LAYER-1
  6
LTYPE02
 66
  1
 70
  0
 62
253
  6
LTYPE02
 10
4.287651
 20
6.063682
 30
0.000000
  0
VERTEX
  8
LAYER-1
  6
LTYPE02
 10
4.287651
 20
6.063682
 30
0.000000
  0
VERTEX
  8
LAYER-1
  6
LTYPE02
 10
4.287813
 20
6.065824
 30
0.000000
  0
VERTEX
  8
LAYER-1
  6
LTYPE02
 10
4.289938
 20
6.066051
 30
0.000000
  0
VERTEX
  8
LAYER-1
  6
LTYPE02
 10
4.292056
 20
6.066330
 30
0.000000
  0
VERTEX
  8
LAYER-1
  6
LTYPE02
 10
4.294167
 20
6.066663
 30
0.000000
  0
VERTEX
  8
LAYER-1
  6
LTYPE02
 10
4.298237
 20
6.065079
 30
0.000000
  0
SEQEND
  8
LAYER-1
  0
POLYLINE
  8
LAYER-1
  6
LTYPE02
 66
  1
 70
  1
 62
253
  0
VERTEX
  8
LAYER-1
  6
LTYPE02
 10
4.151182
 20
6.179386
 30
0.000000
  0
VERTEX
  8
LAYER-1
  6
LTYPE02
 10
4.186432
 20
6.176126
 30
0.000000
  0
VERTEX
  8
LAYER-1
  6
LTYPE02
 10
4.183172
 20
6.140875
 30
0.000000
  0
VERTEX
  8
LAYER-1
  6
LTYPE02
 10
4.147922
 20
6.144135
 30
0.000000
  0
SEQEND
  8
LAYER-1
  0
POLYLINE
  8
LAYER-1
  6
LTYPE02
 66
  1
 70
  0
 62
253
  6
LTYPE02
 10
4.397453
 20
6.156612
 30
0.000000
  0
VERTEX
  8
LAYER-1
  6
LTYPE02
 10
4.397453
 20
6.156612
 30
0.000000
  0
VERTEX
  8
LAYER-1
  6
LTYPE02
 10
4.382884
 20
6.157960
 30
0.000000
  0
SEQEND
  8
LAYER-1
  0
POLYLINE
  8
LAYER-1
  6
LTYPE02
 66
  1
 70
  0
 62
253
  6
LTYPE02
 10
4.382884
 20
6.157960
 30
0.000000
  0
VERTEX
  8
LAYER-1
  6
LTYPE02
 10
4.382884
 20
6.157960
 30
0.000000
  0
VERTEX
  8
LAYER-1
  6
LTYPE02
 10
4.379625
 20
6.122709
 30
0.000000
  0
SEQEND
  8
LAYER-1
  0
POLYLINE
  8
LAYER-1
  6
LTYPE02
 66
  1
 70
  0
 62
253
  6
LTYPE02
 10
4.379625
 20
6.122709
 30
0.000000
  0
VERTEX
  8
LAYER-1
  6
LTYPE02
 10
4.379625
 20
6.122709
 30
0.000000
  0
VERTEX
  8
LAYER-1
  6
LTYPE02
 10
4.414877
 20
6.119450
 30
0.000000
  0
SEQEND
  8
LAYER-1
  0
POLYLINE
  8
LAYER-1
  6
LTYPE02
 66
  1
 70
  0
 62
253
  6
LTYPE02
 10
4.414877
 20
6.119450
 30
0.000000
  0
VERTEX
  8
LAYER-1
  6
LTYPE02
 10
4.414877
 20
6.119450
 30
0.000000
  0
VERTEX
  8
LAYER-1
  6
LTYPE02
 10
4.416755
 20
6.139761
 30
0.000000
  0
SEQEND
  8
LAYER-1
  0
CIRCLE
  8
LAYER-1
 62
253
  6
LTYPE02
 10
4.717129
 20
5.802694
 30
0.000000
 40
0.079094
  0
CIRCLE
  8
LAYER-1
 62
253
  6
LTYPE02
 10
4.717129
 20
5.802694
 30
0.000000
 40
0.014319
  0
POLYLINE
  8
LAYER-1
  6
LTYPE02
 66
  1
 70
  0
 62
253
  6
LTYPE02
 10
4.744115
 20
5.740282
 30
0.000000
  0
VERTEX
  8
LAYER-1
  6
LTYPE02
 10
4.744115
 20
5.740282
 30
0.000000
  0
VERTEX
  8
LAYER-1
  6
LTYPE02
 10
4.745484
 20
5.760123
 30
0.000000
  0
SEQEND
  8
LAYER-1
  0
POLYLINE
  8
LAYER-1
  6
LTYPE02
 66
  1
 70
  0
 62
253
  6
LTYPE02
 10
4.760766
 20
5.773423
 30
0.000000
  0
VERTEX
  8
LAYER-1
  6
LTYPE02
 10
4.760766
 20
5.773423
 30
0.000000
  0
VERTEX
  8
LAYER-1
  6
LTYPE02
 10
4.748404
 20
5.771910
 30
0.000000
  0
VERTEX
  8
LAYER-1
  6
LTYPE02
 10
4.743518
 20
5.762100
 30
0.000000
  0
VERTEX
  8
LAYER-1
  6
LTYPE02
 10
4.745486
 20
5.760125
 30
0.000000
  0
SEQEND
  8
LAYER-1
  0
POLYLINE
  8
LAYER-1
  6
LTYPE02
 66
  1
 70
  0
 62
253
  6
LTYPE02
 10
4.777922
 20
5.772229
 30
0.000000
  0
VERTEX
  8
LAYER-1
  6
LTYPE02
 10
4.777922
 20
5.772229
 30
0.000000
  0
VERTEX
  8
LAYER-1
  6
LTYPE02
 10
4.760767
 20
5.773423
 30
0.000000
  0
SEQEND
  8
LAYER-1
  0
POLYLINE
  8
LAYER-1
  6
LTYPE02
 66
  1
 70
  0
 62
253
  6
LTYPE02
 10
4.697682
 20
5.737541
 30
0.000000
  0
VERTEX
  8
LAYER-1
  6
LTYPE02
 10
4.697682
 20
5.737541
 30
0.000000
  0
VERTEX
  8
LAYER-1
  6
LTYPE02
 10
4.711487
 20
5.751858
 30
0.000000
  0
SEQEND
  8
LAYER-1
  0
POLYLINE
  8
LAYER-1
  6
LTYPE02
 66
  1
 70
  0
 62
253
  6
LTYPE02
 10
4.731739
 20
5.752222
 30
0.000000
  0
VERTEX
  8
LAYER-1
  6
LTYPE02
 10
4.731739
 20
5.752222
 30
0.000000
  0
VERTEX
  8
LAYER-1
  6
LTYPE02
 10
4.719572
 20
5.758204
 30
0.000000
  0
VERTEX
  8
LAYER-1
  6
LTYPE02
 10
4.709522
 20
5.753830
 30
0.000000
  0
VERTEX
  8
LAYER-1
  6
LTYPE02
 10
4.711486
 20
5.751856
 30
0.000000
  0
SEQEND
  8
LAYER-1
  0
POLYLINE
  8
LAYER-1
  6
LTYPE02
 66
  1
 70
  0
 62
253
  6
LTYPE02
 10
4.744115
 20
5.740282
 30
0.000000
  0
VERTEX
  8
LAYER-1
  6
LTYPE02
 10
4.744115
 20
5.740282
 30
0.000000
  0
VERTEX
  8
LAYER-1
  6
LTYPE02
 10
4.731741
 20
5.752222
 30
0.000000
  0
SEQEND
  8
LAYER-1
  0
POLYLINE
  8
LAYER-1
  6
LTYPE02
 66
  1
 70
  0
 62
253
  6
LTYPE02
 10
4.660352
 20
5.765282
 30
0.000000
  0
VERTEX
  8
LAYER-1
  6
LTYPE02
 10
4.660352
 20
5.765282
 30
0.000000
  0
VERTEX
  8
LAYER-1
  6
LTYPE02
 10
4.680131
 20
5.767378
 30
0.000000
  0
SEQEND
  8
LAYER-1
  0
POLYLINE
  8
LAYER-1
  6
LTYPE02
 66
  1
 70
  0
 62
253
  6
LTYPE02
 10
4.695881
 20
5.754641
 30
0.000000
  0
VERTEX
  8
LAYER-1
  6
LTYPE02
 10
4.695881
 20
5.754641
 30
0.000000
  0
VERTEX
  8
LAYER-1
  6
LTYPE02
 10
4.688680
 20
5.766239
 30
0.000000
  0
VERTEX
  8
LAYER-1
  6
LTYPE02
 10
4.678170
 20
5.769348
 30
0.000000
  0
VERTEX
  8
LAYER-1
  6
LTYPE02
 10
4.680131
 20
5.767379
 30
0.000000
  0
SEQEND
  8
LAYER-1
  0
POLYLINE
  8
LAYER-1
  6
LTYPE02
 66
  1
 70
  0
 62
253
  6
LTYPE02
 10
4.697682
 20
5.737541
 30
0.000000
  0
VERTEX
  8
LAYER-1
  6
LTYPE02
 10
4.697682
 20
5.737541
 30
0.000000
  0
VERTEX
  8
LAYER-1
  6
LTYPE02
 10
4.695883
 20
5.754640
 30
0.000000
  0
SEQEND
  8
LAYER-1
  0
POLYLINE
  8
LAYER-1
  6
LTYPE02
 66
  1
 70
  0
 62
253
  6
LTYPE02
 10
4.649587
 20
5.810533
 30
0.000000
  0
VERTEX
  8
LAYER-1
  6
LTYPE02
 10
4.649587
 20
5.810533
 30
0.000000
  0
VERTEX
  8
LAYER-1
  6
LTYPE02
 10
4.666087
 20
5.799424
 30
0.000000
  0
SEQEND
  8
LAYER-1
  0
POLYLINE
  8
LAYER-1
  6
LTYPE02
 66
  1
 70
  0
 62
253
  6
LTYPE02
 10
4.669964
 20
5.779545
 30
0.000000
  0
VERTEX
  8
LAYER-1
  6
LTYPE02
 10
4.669964
 20
5.779545
 30
0.000000
  0
VERTEX
  8
LAYER-1
  6
LTYPE02
 10
4.670176
 20
5.792253
 30
0.000000
  0
VERTEX
  8
LAYER-1
  6
LTYPE02
 10
4.664124
 20
5.801390
 30
0.000000
  0
VERTEX
  8
LAYER-1
  6
LTYPE02
 10
4.666087
 20
5.799426
 30
0.000000
  0
SEQEND
  8
LAYER-1
  0
POLYLINE
  8
LAYER-1
  6
LTYPE02
 66
  1
 70
  0
 62
253
  6
LTYPE02
 10
4.660352
 20
5.765282
 30
0.000000
  0
VERTEX
  8
LAYER-1
  6
LTYPE02
 10
4.660352
 20
5.765282
 30
0.000000
  0
VERTEX
  8
LAYER-1
  6
LTYPE02
 10
4.669962
 20
5.779545
 30
0.000000
  0
SEQEND
  8
LAYER-1
  0
POLYLINE
  8
LAYER-1
  6
LTYPE02
 66
  1
 70
  0
 62
253
  6
LTYPE02
 10
4.670427
 20
5.852115
 30
0.000000
  0
VERTEX
  8
LAYER-1
  6
LTYPE02
 10
4.670427
 20
5.852115
 30
0.000000
  0
VERTEX
  8
LAYER-1
  6
LTYPE02
 10
4.675929
 20
5.833002
 30
0.000000
  0
SEQEND
  8
LAYER-1
  0
POLYLINE
  8
LAYER-1
  6
LTYPE02
 66
  1
 70
  0
 62
253
  6
LTYPE02
 10
4.666117
 20
5.815279
 30
0.000000
  0
VERTEX
  8
LAYER-1
  6
LTYPE02
 10
4.666117
 20
5.815279
 30
0.000000
  0
VERTEX
  8
LAYER-1
  6
LTYPE02
 10
4.672724
 20
5.824073
 30
0.000000
  0
VERTEX
  8
LAYER-1
  6
LTYPE02
 10
4.673961
 20
5.834963
 30
0.000000
  0
VERTEX
  8
LAYER-1
  6
LTYPE02
 10
4.675927
 20
5.833001
 30
0.000000
  0
SEQEND
  8
LAYER-1
  0
POLYLINE
  8
LAYER-1
  6
LTYPE02
 66
  1
 70
  0
 62
253
  6
LTYPE02
 10
4.649587
 20
5.810533
 30
0.000000
  0
VERTEX
  8
LAYER-1
  6
LTYPE02
 10
4.649587
 20
5.810533
 30
0.000000
  0
VERTEX
  8
LAYER-1
  6
LTYPE02
 10
4.666117
 20
5.815278
 30
0.000000
  0
SEQEND
  8
LAYER-1
  0
POLYLINE
  8
LAYER-1
  6
LTYPE02
 66
  1
 70
  0
 62
253
  6
LTYPE02
 10
4.713121
 20
5.870574
 30
0.000000
  0
VERTEX
  8
LAYER-1
  6
LTYPE02
 10
4.713121
 20
5.870574
 30
0.000000
  0
VERTEX
  8
LAYER-1
  6
LTYPE02
 10
4.705049
 20
5.852398
 30
0.000000
  0
SEQEND
  8
LAYER-1
  0
POLYLINE
  8
LAYER-1
  6
LTYPE02
 66
  1
 70
  0
 62
253
  6
LTYPE02
 10
4.686140
 20
5.845126
 30
0.000000
  0
VERTEX
  8
LAYER-1
  6
LTYPE02
 10
4.686140
 20
5.845126
 30
0.000000
  0
VERTEX
  8
LAYER-1
  6
LTYPE02
 10
4.695129
 20
5.846812
 30
0.000000
  0
VERTEX
  8
LAYER-1
  6
LTYPE02
 10
4.703076
 20
5.854358
 30
0.000000
  0
VERTEX
  8
LAYER-1
  6
LTYPE02
 10
4.705047
 20
5.852397
 30
0.000000
  0
SEQEND
  8
LAYER-1
  0
POLYLINE
  8
LAYER-1
  6
LTYPE02
 66
  1
 70
  0
 62
253
  6
LTYPE02
 10
4.670427
 20
5.852115
 30
0.000000
  0
VERTEX
  8
LAYER-1
  6
LTYPE02
 10
4.670427
 20
5.852115
 30
0.000000
  0
VERTEX
  8
LAYER-1
  6
LTYPE02
 10
4.686144
 20
5.845128
 30
0.000000
  0
SEQEND
  8
LAYER-1
  0
POLYLINE
  8
LAYER-1
  6
LTYPE02
 66
  1
 70
  0
 62
253
  6
LTYPE02
 10
4.757690
 20
5.857270
 30
0.000000
  0
VERTEX
  8
LAYER-1
  6
LTYPE02
 10
4.757690
 20
5.857270
 30
0.000000
  0
VERTEX
  8
LAYER-1
  6
LTYPE02
 10
4.739821
 20
5.848535
 30
0.000000
  0
SEQEND
  8
LAYER-1
  0
POLYLINE
  8
LAYER-1
  6
LTYPE02
 66
  1
 70
  0
 62
253
  6
LTYPE02
 10
4.720664
 20
5.855120
 30
0.000000
  0
VERTEX
  8
LAYER-1
  6
LTYPE02
 10
4.720664
 20
5.855120
 30
0.000000
  0
VERTEX
  8
LAYER-1
  6
LTYPE02
 10
4.726906
 20
5.849829
 30
0.000000
  0
VERTEX
  8
LAYER-1
  6
LTYPE02
 10
4.737845
 20
5.850502
 30
0.000000
  0
VERTEX
  8
LAYER-1
  6
LTYPE02
 10
4.739821
 20
5.848537
 30
0.000000
  0
SEQEND
  8
LAYER-1
  0
POLYLINE
  8
LAYER-1
  6
LTYPE02
 66
  1
 70
  0
 62
253
  6
LTYPE02
 10
4.713121
 20
5.870574
 30
0.000000
  0
VERTEX
  8
LAYER-1
  6
LTYPE02
 10
4.713121
 20
5.870574
 30
0.000000
  0
VERTEX
  8
LAYER-1
  6
LTYPE02
 10
4.720664
 20
5.855121
 30
0.000000
  0
SEQEND
  8
LAYER-1
  0
POLYLINE
  8
LAYER-1
  6
LTYPE02
 66
  1
 70
  0
 62
253
  6
LTYPE02
 10
4.783282
 20
5.818431
 30
0.000000
  0
VERTEX
  8
LAYER-1
  6
LTYPE02
 10
4.783282
 20
5.818431
 30
0.000000
  0
VERTEX
  8
LAYER-1
  6
LTYPE02
 10
4.763981
 20
5.823227
 30
0.000000
  0
SEQEND
  8
LAYER-1
  0
POLYLINE
  8
LAYER-1
  6
LTYPE02
 66
  1
 70
  0
 62
253
  6
LTYPE02
 10
4.753535
 20
5.840584
 30
0.000000
  0
VERTEX
  8
LAYER-1
  6
LTYPE02
 10
4.753535
 20
5.840584
 30
0.000000
  0
VERTEX
  8
LAYER-1
  6
LTYPE02
 10
4.753191
 20
5.831714
 30
0.000000
  0
VERTEX
  8
LAYER-1
  6
LTYPE02
 10
4.762003
 20
5.825198
 30
0.000000
  0
VERTEX
  8
LAYER-1
  6
LTYPE02
 10
4.763979
 20
5.823228
 30
0.000000
  0
SEQEND
  8
LAYER-1
  0
POLYLINE
  8
LAYER-1
  6
LTYPE02
 66
  1
 70
  0
 62
253
  6
LTYPE02
 10
4.757690
 20
5.857270
 30
0.000000
  0
VERTEX
  8
LAYER-1
  6
LTYPE02
 10
4.757690
 20
5.857270
 30
0.000000
  0
VERTEX
  8
LAYER-1
  6
LTYPE02
 10
4.753537
 20
5.840584
 30
0.000000
  0
SEQEND
  8
LAYER-1
  0
POLYLINE
  8
LAYER-1
  6
LTYPE02
 66
  1
 70
  0
 62
253
  6
LTYPE02
 10
4.777920
 20
5.772229
 30
0.000000
  0
VERTEX
  8
LAYER-1
  6
LTYPE02
 10
4.777920
 20
5.772229
 30
0.000000
  0
VERTEX
  8
LAYER-1
  6
LTYPE02
 10
4.766215
 20
5.788311
 30
0.000000
  0
SEQEND
  8
LAYER-1
  0
POLYLINE
  8
LAYER-1
  6
LTYPE02
 66
  1
 70
  0
 62
253
  6
LTYPE02
 10
4.769370
 20
5.808318
 30
0.000000
  0
VERTEX
  8
LAYER-1
  6
LTYPE02
 10
4.769370
 20
5.808318
 30
0.000000
  0
VERTEX
  8
LAYER-1
  6
LTYPE02
 10
4.761679
 20
5.800940
 30
0.000000
  0
VERTEX
  8
LAYER-1
  6
LTYPE02
 10
4.764241
 20
5.790284
 30
0.000000
  0
VERTEX
  8
LAYER-1
  6
LTYPE02
 10
4.766213
 20
5.788310
 30
0.000000
  0
SEQEND
  8
LAYER-1
  0
POLYLINE
  8
LAYER-1
  6
LTYPE02
 66
  1
 70
  0
 62
253
  6
LTYPE02
 10
4.783282
 20
5.818431
 30
0.000000
  0
VERTEX
  8
LAYER-1
  6
LTYPE02
 10
4.783282
 20
5.818431
 30
0.000000
  0
VERTEX
  8
LAYER-1
  6
LTYPE02
 10
4.769371
 20
5.808319
 30
0.000000
  0
SEQEND
  8
LAYER-1
  0
POLYLINE
  8
LAYER-1
  6
LTYPE02
 66
  1
 70
  0
 62
253
  6
LTYPE02
 10
4.769298
 20
5.773185
 30
0.000000
  0
VERTEX
  8
LAYER-1
  6
LTYPE02
 10
4.769298
 20
5.773185
 30
0.000000
  0
VERTEX
  8
LAYER-1
  6
LTYPE02
 10
4.768036
 20
5.776438
 30
0.000000
  0
VERTEX
  8
LAYER-1
  6
LTYPE02
 10
4.768710
 20
5.777739
 30
0.000000
  0
VERTEX
  8
LAYER-1
  6
LTYPE02
 10
4.769352
 20
5.779057
 30
0.000000
  0
VERTEX
  8
LAYER-1
  6
LTYPE02
 10
4.769963
 20
5.780391
 30
0.000000
  0
VERTEX
  8
LAYER-1
  6
LTYPE02
 10
4.772508
 20
5.779770
 30
0.000000
  0
SEQEND
  8
LAYER-1
  0
POLYLINE
  8
LAYER-1
  6
LTYPE02
 66
  1
 70
  0
 62
253
  6
LTYPE02
 10
4.776061
 20
5.813622
 30
0.000000
  0
VERTEX
  8
LAYER-1
  6
LTYPE02
 10
4.776061
 20
5.813622
 30
0.000000
  0
VERTEX
  8
LAYER-1
  6
LTYPE02
 10
4.773808
 20
5.817028
 30
0.000000
  0
VERTEX
  8
LAYER-1
  6
LTYPE02
 10
4.773487
 20
5.818459
 30
0.000000
  0
VERTEX
  8
LAYER-1
  6
LTYPE02
 10
4.773132
 20
5.819882
 30
0.000000
  0
VERTEX
  8
LAYER-1
  6
LTYPE02
 10
4.772743
 20
5.821295
 30
0.000000
  0
VERTEX
  8
LAYER-1
  6
LTYPE02
 10
4.774287
 20
5.820730
 30
0.000000
  0
SEQEND
  8
LAYER-1
  0
POLYLINE
  8
LAYER-1
  6
LTYPE02
 66
  1
 70
  0
 62
253
  6
LTYPE02
 10
4.738124
 20
5.746555
 30
0.000000
  0
VERTEX
  8
LAYER-1
  6
LTYPE02
 10
4.738124
 20
5.746555
 30
0.000000
  0
VERTEX
  8
LAYER-1
  6
LTYPE02
 10
4.737523
 20
5.749054
 30
0.000000
  0
VERTEX
  8
LAYER-1
  6
LTYPE02
 10
4.738876
 20
5.749617
 30
0.000000
  0
VERTEX
  8
LAYER-1
  6
LTYPE02
 10
4.740216
 20
5.750214
 30
0.000000
  0
VERTEX
  8
LAYER-1
  6
LTYPE02
 10
4.741540
 20
5.750843
 30
0.000000
  0
VERTEX
  8
LAYER-1
  6
LTYPE02
 10
4.744817
 20
5.749536
 30
0.000000
  0
SEQEND
  8
LAYER-1
  0
POLYLINE
  8
LAYER-1
  6
LTYPE02
 66
  1
 70
  0
 62
253
  6
LTYPE02
 10
4.697127
 20
5.746194
 30
0.000000
  0
VERTEX
  8
LAYER-1
  6
LTYPE02
 10
4.697127
 20
5.746194
 30
0.000000
  0
VERTEX
  8
LAYER-1
  6
LTYPE02
 10
4.696547
 20
5.747689
 30
0.000000
  0
VERTEX
  8
LAYER-1
  6
LTYPE02
 10
4.697946
 20
5.747251
 30
0.000000
  0
VERTEX
  8
LAYER-1
  6
LTYPE02
 10
4.699355
 20
5.746847
 30
0.000000
  0
VERTEX
  8
LAYER-1
  6
LTYPE02
 10
4.700774
 20
5.746478
 30
0.000000
  0
VERTEX
  8
LAYER-1
  6
LTYPE02
 10
4.704170
 20
5.744176
 30
0.000000
  0
SEQEND
  8
LAYER-1
  0
POLYLINE
  8
LAYER-1
  6
LTYPE02
 66
  1
 70
  0
 62
253
  6
LTYPE02
 10
4.665489
 20
5.772269
 30
0.000000
  0
VERTEX
  8
LAYER-1
  6
LTYPE02
 10
4.665489
 20
5.772269
 30
0.000000
  0
VERTEX
  8
LAYER-1
  6
LTYPE02
 10
4.664280
 20
5.772983
 30
0.000000
  0
VERTEX
  8
LAYER-1
  6
LTYPE02
 10
4.665070
 20
5.771748
 30
0.000000
  0
VERTEX
  8
LAYER-1
  6
LTYPE02
 10
4.665890
 20
5.770533
 30
0.000000
  0
VERTEX
  8
LAYER-1
  6
LTYPE02
 10
4.666739
 20
5.769339
 30
0.000000
  0
VERTEX
  8
LAYER-1
  6
LTYPE02
 10
4.669587
 20
5.766195
 30
0.000000
  0
SEQEND
  8
LAYER-1
  0
POLYLINE
  8
LAYER-1
  6
LTYPE02
 66
  1
 70
  0
 62
253
  6
LTYPE02
 10
4.658014
 20
5.812580
 30
0.000000
  0
VERTEX
  8
LAYER-1
  6
LTYPE02
 10
4.658014
 20
5.812580
 30
0.000000
  0
VERTEX
  8
LAYER-1
  6
LTYPE02
 10
4.655821
 20
5.813100
 30
0.000000
  0
VERTEX
  8
LAYER-1
  6
LTYPE02
 10
4.655633
 20
5.811647
 30
0.000000
  0
VERTEX
  8
LAYER-1
  6
LTYPE02
 10
4.655479
 20
5.810188
 30
0.000000
  0
VERTEX
  8
LAYER-1
  6
LTYPE02
 10
4.655362
 20
5.808726
 30
0.000000
  0
VERTEX
  8
LAYER-1
  6
LTYPE02
 10
4.657249
 20
5.805294
 30
0.000000
  0
SEQEND
  8
LAYER-1
  0
POLYLINE
  8
LAYER-1
  6
LTYPE02
 66
  1
 70
  0
 62
253
  6
LTYPE02
 10
4.678199
 20
5.848267
 30
0.000000
  0
VERTEX
  8
LAYER-1
  6
LTYPE02
 10
4.678199
 20
5.848267
 30
0.000000
  0
VERTEX
  8
LAYER-1
  6
LTYPE02
 10
4.675127
 20
5.849269
 30
0.000000
  0
VERTEX
  8
LAYER-1
  6
LTYPE02
 10
4.674049
 20
5.848277
 30
0.000000
  0
VERTEX
  8
LAYER-1
  6
LTYPE02
 10
4.672994
 20
5.847258
 30
0.000000
  0
VERTEX
  8
LAYER-1
  6
LTYPE02
 10
4.671965
 20
5.846214
 30
0.000000
  0
VERTEX
  8
LAYER-1
  6
LTYPE02
 10
4.672930
 20
5.843176
 30
0.000000
  0
SEQEND
  8
LAYER-1
  0
POLYLINE
  8
LAYER-1
  6
LTYPE02
 66
  1
 70
  0
 62
253
  6
LTYPE02
 10
4.716600
 20
5.862628
 30
0.000000
  0
VERTEX
  8
LAYER-1
  6
LTYPE02
 10
4.716600
 20
5.862628
 30
0.000000
  0
VERTEX
  8
LAYER-1
  6
LTYPE02
 10
4.713166
 20
5.864565
 30
0.000000
  0
VERTEX
  8
LAYER-1
  6
LTYPE02
 10
4.711702
 20
5.864499
 30
0.000000
  0
VERTEX
  8
LAYER-1
  6
LTYPE02
 10
4.710239
 20
5.864396
 30
0.000000
  0
VERTEX
  8
LAYER-1
  6
LTYPE02
 10
4.708779
 20
5.864258
 30
0.000000
  0
VERTEX
  8
LAYER-1
  6
LTYPE02
 10
4.707324
 20
5.864084
 30
0.000000
  0
VERTEX
  8
LAYER-1
  6
LTYPE02
 10
4.709291
 20
5.862116
 30
0.000000
  0
SEQEND
  8
LAYER-1
  0
POLYLINE
  8
LAYER-1
  6
LTYPE02
 66
  1
 70
  0
 62
253
  6
LTYPE02
 10
4.755250
 20
5.848946
 30
0.000000
  0
VERTEX
  8
LAYER-1
  6
LTYPE02
 10
4.755250
 20
5.848946
 30
0.000000
  0
VERTEX
  8
LAYER-1
  6
LTYPE02
 10
4.752138
 20
5.851832
 30
0.000000
  0
VERTEX
  8
LAYER-1
  6
LTYPE02
 10
4.750972
 20
5.852723
 30
0.000000
  0
VERTEX
  8
LAYER-1
  6
LTYPE02
 10
4.749786
 20
5.853585
 30
0.000000
  0
VERTEX
  8
LAYER-1
  6
LTYPE02
 10
4.748580
 20
5.854417
 30
0.000000
  0
VERTEX
  8
LAYER-1
  6
LTYPE02
 10
4.747353
 20
5.855220
 30
0.000000
  0
VERTEX
  8
LAYER-1
  6
LTYPE02
 10
4.749321
 20
5.853252
 30
0.000000
  0
SEQEND
  8
LAYER-1
  0
POLYLINE
  8
LAYER-1
  6
LTYPE02
 66
  1
 70
  0
 62
253
  6
LTYPE02
 10
4.769944
 20
5.821764
 30
0.000000
  0
VERTEX
  8
LAYER-1
  6
LTYPE02
 10
4.769944
 20
5.821764
 30
0.000000
  0
VERTEX
  8
LAYER-1
  6
LTYPE02
 10
4.756657
 20
5.842493
 30
0.000000
  0
VERTEX
  8
LAYER-1
  6
LTYPE02
 10
4.754636
 20
5.844482
 30
0.000000
  0
SEQEND
  8
LAYER-1
  0
POLYLINE
  8
LAYER-1
  6
LTYPE02
 66
  1
 70
  0
 62
253
  6
LTYPE02
 10
4.675035
 20
5.745453
 30
0.000000
  0
VERTEX
  8
LAYER-1
  6
LTYPE02
 10
4.675035
 20
5.745453
 30
0.000000
  0
VERTEX
  8
LAYER-1
  6
LTYPE02
 10
4.698176
 20
5.735670
 30
0.000000
  0
VERTEX
  8
LAYER-1
  6
LTYPE02
 10
4.725871
 20
5.734422
 30
0.000000
  0
VERTEX
  8
LAYER-1
  6
LTYPE02
 10
4.751936
 20
5.743867
 30
0.000000
  0
VERTEX
  8
LAYER-1
  6
LTYPE02
 10
4.772402
 20
5.762569
 30
0.000000
  0
VERTEX
  8
LAYER-1
  6
LTYPE02
 10
4.784153
 20
5.787677
 30
0.000000
  0
VERTEX
  8
LAYER-1
  6
LTYPE02
 10
4.785401
 20
5.815373
 30
0.000000
  0
VERTEX
  8
LAYER-1
  6
LTYPE02
 10
4.775955
 20
5.841438
 30
0.000000
  0
VERTEX
  8
LAYER-1
  6
LTYPE02
 10
4.763751
 20
5.856312
 30
0.000000
  0
SEQEND
  8
LAYER-1
  0
LINE
  8
LAYER-1
 62
253
  6
LTYPE02
 10
4.727672
 20
5.867839
 30
0.000000
 11
4.695197
 21
5.896808
 31
0.000000
  0
LINE
  8
LAYER-1
 62
253
  6
LTYPE02
 10
4.737204
 20
5.878525
 30
0.000000
 11
4.704730
 21
5.907494
 31
0.000000
  0
LINE
  8
LAYER-1
 62
253
  6
LTYPE02
 10
4.727672
 20
5.867839
 30
0.000000
 11
4.737204
 21
5.878525
 31
0.000000
  0
LINE
  8
LAYER-1
 62
253
  6
LTYPE02
 10
4.695197
 20
5.896808
 30
0.000000
 11
4.704730
 21
5.907494
 31
0.000000
  0
POLYLINE
  8
LAYER-1
  6
LTYPE02
 66
  1
 70
  0
 62
253
  6
LTYPE02
 10
4.746605
 20
5.851741
 30
0.000000
  0
VERTEX
  8
LAYER-1
  6
LTYPE02
 10
4.746605
 20
5.851741
 30
0.000000
  0
VERTEX
  8
LAYER-1
  6
LTYPE02
 10
4.335087
 20
6.211070
 30
0.000000
  0
SEQEND
  8
LAYER-1
  0
POLYLINE
  8
LAYER-1
  6
LTYPE02
 66
  1
 70
  0
 62
253
  6
LTYPE02
 10
4.763777
 20
5.856342
 30
0.000000
  0
VERTEX
  8
LAYER-1
  6
LTYPE02
 10
4.763777
 20
5.856342
 30
0.000000
  0
VERTEX
  8
LAYER-1
  6
LTYPE02
 10
4.343688
 20
6.221096
 30
0.000000
  0
SEQEND
  8
LAYER-1
  0
LINE
  8
LAYER-1
 62
253
  6
LTYPE02
 10
4.647716
 20
5.765794
 30
0.000000
 11
4.611420
 21
5.792317
 31
0.000000
  0
LINE
  8
LAYER-1
 62
253
  6
LTYPE02
 10
4.656165
 20
5.777355
 30
0.000000
 11
4.619869
 21
5.803878
 31
0.000000
  0
LINE
  8
LAYER-1
 62
253
  6
LTYPE02
 10
4.647716
 20
5.765794
 30
0.000000
 11
4.656165
 21
5.777355
 31
0.000000
  0
LINE
  8
LAYER-1
 62
253
  6
LTYPE02
 10
4.611420
 20
5.792317
 30
0.000000
 11
4.619869
 21
5.803878
 31
0.000000
  0
POLYLINE
  8
LAYER-1
  6
LTYPE02
 66
  1
 70
  0
 62
253
  6
LTYPE02
 10
4.769764
 20
5.783422
 30
0.000000
  0
VERTEX
  8
LAYER-1
  6
LTYPE02
 10
4.769764
 20
5.783422
 30
0.000000
  0
VERTEX
  8
LAYER-1
  6
LTYPE02
 10
4.771163
 20
5.807000
 30
0.000000
  0
VERTEX
  8
LAYER-1
  6
LTYPE02
 10
4.772599
 20
5.810746
 30
0.000000
  0
SEQEND
  8
LAYER-1
  0
POLYLINE
  8
LAYER-1
  6
LTYPE02
 66
  1
 70
  0
 62
253
  6
LTYPE02
 10
4.745400
 20
5.754316
 30
0.000000
  0
VERTEX
  8
LAYER-1
  6
LTYPE02
 10
4.745400
 20
5.754316
 30
0.000000
  0
VERTEX
  8
LAYER-1
  6
LTYPE02
 10
4.759794
 20
5.770785
 30
0.000000
  0
VERTEX
  8
LAYER-1
  6
LTYPE02
 10
4.764727
 20
5.773126
 30
0.000000
  0
SEQEND
  8
LAYER-1
  0
POLYLINE
  8
LAYER-1
  6
LTYPE02
 66
  1
 70
  0
 62
253
  6
LTYPE02
 10
4.707548
 20
5.747212
 30
0.000000
  0
VERTEX
  8
LAYER-1
  6
LTYPE02
 10
4.707548
 20
5.747212
 30
0.000000
  0
VERTEX
  8
LAYER-1
  6
LTYPE02
 10
4.727541
 20
5.749738
 30
0.000000
  0
VERTEX
  8
LAYER-1
  6
LTYPE02
 10
4.734548
 20
5.749154
 30
0.000000
  0
SEQEND
  8
LAYER-1
  0
POLYLINE
  8
LAYER-1
  6
LTYPE02
 66
  1
 70
  0
 62
253
  6
LTYPE02
 10
4.683774
 20
5.757336
 30
0.000000
  0
VERTEX
  8
LAYER-1
  6
LTYPE02
 10
4.683774
 20
5.757336
 30
0.000000
  0
VERTEX
  8
LAYER-1
  6
LTYPE02
 10
4.684161
 20
5.757662
 30
0.000000
  0
VERTEX
  8
LAYER-1
  6
LTYPE02
 10
4.686598
 20
5.756143
 30
0.000000
  0
VERTEX
  8
LAYER-1
  6
LTYPE02
 10
4.689109
 20
5.754750
 30
0.000000
  0
VERTEX
  8
LAYER-1
  6
LTYPE02
 10
4.691687
 20
5.753487
 30
0.000000
  0
VERTEX
  8
LAYER-1
  6
LTYPE02
 10
4.696296
 20
5.750387
 30
0.000000
  0
SEQEND
  8
LAYER-1
  0
POLYLINE
  8
LAYER-1
  6
LTYPE02
 66
  1
 70
  0
 62
253
  6
LTYPE02
 10
4.570324
 20
5.947293
 30
0.000000
  0
VERTEX
  8
LAYER-1
  6
LTYPE02
 10
4.570324
 20
5.947293
 30
0.000000
  0
VERTEX
  8
LAYER-1
  6
LTYPE02
 10
4.644782
 20
5.940408
 30
0.000000
  0
SEQEND
  8
LAYER-1
  0
POLYLINE
  8
LAYER-1
  6
LTYPE02
 66
  1
 70
  0
 62
253
  6
LTYPE02
 10
4.664325
 20
5.771628
 30
0.000000
  0
VERTEX
  8
LAYER-1
  6
LTYPE02
 10
4.664325
 20
5.771628
 30
0.000000
  0
VERTEX
  8
LAYER-1
  6
LTYPE02
 10
4.230295
 20
6.085291
 30
0.000000
  0
SEQEND
  8
LAYER-1
  0
POLYLINE
  8
LAYER-1
  6
LTYPE02
 66
  1
 70
  0
 62
253
  6
LTYPE02
 10
4.683828
 20
5.757060
 30
0.000000
  0
VERTEX
  8
LAYER-1
  6
LTYPE02
 10
4.683828
 20
5.757060
 30
0.000000
  0
VERTEX
  8
LAYER-1
  6
LTYPE02
 10
4.671775
 20
5.765745
 30
0.000000
  0
SEQEND
  8
LAYER-1
  0
POLYLINE
  8
LAYER-1
  6
LTYPE02
 66
  1
 70
  0
 62
253
  6
LTYPE02
 10
4.675419
 20
5.745042
 30
0.000000
  0
VERTEX
  8
LAYER-1
  6
LTYPE02
 10
4.675419
 20
5.745042
 30
0.000000
  0
VERTEX
  8
LAYER-1
  6
LTYPE02
 10
4.221989
 20
6.075023
 30
0.000000
  0
SEQEND
  8
LAYER-1
  0
POLYLINE
  8
LAYER-1
  6
LTYPE02
 66
  1
 70
  0
 62
253
  6
LTYPE02
 10
4.612402
 20
6.493053
 30
0.000000
  0
VERTEX
  8
LAYER-1
  6
LTYPE02
 10
4.612402
 20
6.493053
 30
0.000000
  0
VERTEX
  8
LAYER-1
  6
LTYPE02
 10
4.569170
 20
6.025554
 30
0.000000
  0
SEQEND
  8
LAYER-1
  0
POLYLINE
  8
LAYER-1
  6
LTYPE02
 66
  1
 70
  0
 62
253
  6
LTYPE02
 10
4.567492
 20
6.007374
 30
0.000000
  0
VERTEX
  8
LAYER-1
  6
LTYPE02
 10
4.567492
 20
6.007374
 30
0.000000
  0
VERTEX
  8
LAYER-1
  6
LTYPE02
 10
4.553124
 20
5.851996
 30
0.000000
  0
SEQEND
  8
LAYER-1
  0
POLYLINE
  8
LAYER-1
  6
LTYPE02
 66
  1
 70
  0
 62
253
  6
LTYPE02
 10
4.575326
 20
6.000566
 30
0.000000
  0
VERTEX
  8
LAYER-1
  6
LTYPE02
 10
4.575326
 20
6.000566
 30
0.000000
  0
VERTEX
  8
LAYER-1
  6
LTYPE02
 10
4.561054
 20
5.846259
 30
0.000000
  0
SEQEND
  8
LAYER-1
  0
POLYLINE
  8
LAYER-1
  6
LTYPE02
 66
  1
 70
  1
 62
253
  6
LTYPE02
 10
4.567011
 20
5.910668
 30
0.000000
  0
VERTEX
  8
LAYER-1
  6
LTYPE02
 10
4.567011
 20
5.910668
 30
0.000000
  0
VERTEX
  8
LAYER-1
  6
LTYPE02
 10
4.692294
 20
5.887499
 30
0.000000
  0
VERTEX
  8
LAYER-1
  6
LTYPE02
 10
4.693722
 20
5.895139
 30
0.000000
  0
VERTEX
  8
LAYER-1
  6
LTYPE02
 10
4.567730
 20
5.918442
 30
0.000000
  0
SEQEND
  8
LAYER-1
  0
POLYLINE
  8
LAYER-1
  6
LTYPE02
 66
  1
 70
  0
 62
253
  6
LTYPE02
 10
4.559426
 20
5.828650
 30
0.000000
  0
VERTEX
  8
LAYER-1
  6
LTYPE02
 10
4.559426
 20
5.828650
 30
0.000000
  0
VERTEX
  8
LAYER-1
  6
LTYPE02
 10
4.544906
 20
5.671622
 30
0.000000
  0
SEQEND
  8
LAYER-1
  0
POLYLINE
  8
LAYER-1
  6
LTYPE02
 66
  1
 70
  1
 62
253
  6
LTYPE02
 10
4.670444
 20
5.719432
 30
0.000000
  0
VERTEX
  8
LAYER-1
  6
LTYPE02
 10
4.670444
 20
5.719432
 30
0.000000
  0
VERTEX
  8
LAYER-1
  6
LTYPE02
 10
4.549470
 20
5.721791
 30
0.000000
  0
VERTEX
  8
LAYER-1
  6
LTYPE02
 10
4.550179
 20
5.729454
 30
0.000000
  0
VERTEX
  8
LAYER-1
  6
LTYPE02
 10
4.671154
 20
5.727095
 30
0.000000
  0
SEQEND
  8
LAYER-1
  0
POLYLINE
  8
LAYER-1
  6
LTYPE02
 66
  1
 70
  0
 62
253
  6
LTYPE02
 10
4.603037
 20
5.977102
 30
0.000000
  0
VERTEX
  8
LAYER-1
  6
LTYPE02
 10
4.603037
 20
5.977102
 30
0.000000
  0
VERTEX
  8
LAYER-1
  6
LTYPE02
 10
4.596912
 20
5.910882
 30
0.000000
  0
SEQEND
  8
LAYER-1
  0
POLYLINE
  8
LAYER-1
  6
LTYPE02
 66
  1
 70
  0
 62
253
  6
LTYPE02
 10
4.587800
 20
5.907330
 30
0.000000
  0
VERTEX
  8
LAYER-1
  6
LTYPE02
 10
4.587800
 20
5.907330
 30
0.000000
  0
VERTEX
  8
LAYER-1
  6
LTYPE02
 10
4.580829
 20
5.831971
 30
0.000000
  0
SEQEND
  8
LAYER-1
  0
POLYLINE
  8
LAYER-1
  6
LTYPE02
 66
  1
 70
  0
 62
253
  6
LTYPE02
 10
4.579253
 20
5.814917
 30
0.000000
  0
VERTEX
  8
LAYER-1
  6
LTYPE02
 10
4.579253
 20
5.814917
 30
0.000000
  0
VERTEX
  8
LAYER-1
  6
LTYPE02
 10
4.571135
 20
5.727118
 30
0.000000
  0
SEQEND
  8
LAYER-1
  0
POLYLINE
  8
LAYER-1
  6
LTYPE02
 66
  1
 70
  0
 62
253
  6
LTYPE02
 10
4.579478
 20
5.722353
 30
0.000000
  0
VERTEX
  8
LAYER-1
  6
LTYPE02
 10
4.579478
 20
5.722353
 30
0.000000
  0
VERTEX
  8
LAYER-1
  6
LTYPE02
 10
4.574536
 20
5.668884
 30
0.000000
  0
SEQEND
  8
LAYER-1
  0
POLYLINE
  8
LAYER-1
  6
LTYPE02
 66
  1
 70
  0
 62
253
  6
LTYPE02
 10
4.553439
 20
6.019581
 30
0.000000
  0
VERTEX
  8
LAYER-1
  6
LTYPE02
 10
4.553439
 20
6.019581
 30
0.000000
  0
VERTEX
  8
LAYER-1
  6
LTYPE02
 10
4.538893
 20
5.862278
 30
0.000000
  0
SEQEND
  8
LAYER-1
  0
POLYLINE
  8
LAYER-1
  6
LTYPE02
 66
  1
 70
  0
 62
253
  6
LTYPE02
 10
4.466743
 20
5.082063
 30
0.000000
  0
VERTEX
  8
LAYER-1
  6
LTYPE02
 10
4.466743
 20
5.082063
 30
0.000000
  0
VERTEX
  8
LAYER-1
  6
LTYPE02
 10
4.523295
 20
5.693594
 30
0.000000
  0
SEQEND
  8
LAYER-1
  0
POLYLINE
  8
LAYER-1
  6
LTYPE02
 66
  1
 70
  0
 62
253
  6
LTYPE02
 10
4.536430
 20
6.034359
 30
0.000000
  0
VERTEX
  8
LAYER-1
  6
LTYPE02
 10
4.536430
 20
6.034359
 30
0.000000
  0
VERTEX
  8
LAYER-1
  6
LTYPE02
 10
4.521669
 20
5.874724
 30
0.000000
  0
SEQEND
  8
LAYER-1
  0
POLYLINE
  8
LAYER-1
  6
LTYPE02
 66
  1
 70
  0
 62
253
  6
LTYPE02
 10
4.448524
 20
5.083747
 30
0.000000
  0
VERTEX
  8
LAYER-1
  6
LTYPE02
 10
4.448524
 20
5.083747
 30
0.000000
  0
VERTEX
  8
LAYER-1
  6
LTYPE02
 10
4.505075
 20
5.695279
 30
0.000000
  0
SEQEND
  8
LAYER-1
  0
POLYLINE
  8
LAYER-1
  6
LTYPE02
 66
  1
 70
  0
 62
253
  6
LTYPE02
 10
4.577300
 20
6.476325
 30
0.000000
  0
VERTEX
  8
LAYER-1
  6
LTYPE02
 10
4.577300
 20
6.476325
 30
0.000000
  0
VERTEX
  8
LAYER-1
  6
LTYPE02
 10
4.538111
 20
6.052555
 30
0.000000
  0
SEQEND
  8
LAYER-1
  0
POLYLINE
  8
LAYER-1
  6
LTYPE02
 66
  1
 70
  1
 62
253
  0
VERTEX
  8
LAYER-1
  6
LTYPE02
 10
4.518154
 20
6.372343
 30
0.000000
  0
VERTEX
  8
LAYER-1
  6
LTYPE02
 10
4.600534
 20
6.364725
 30
0.000000
  0
VERTEX
  8
LAYER-1
  6
LTYPE02
 10
4.594382
 20
6.298187
 30
0.000000
  0
VERTEX
  8
LAYER-1
  6
LTYPE02
 10
4.512001
 20
6.305806
 30
0.000000
  0
SEQEND
  8
LAYER-1
  0
CIRCLE
  8
LAYER-1
 62
253
  6
LTYPE02
 10
4.552851
 20
6.337177
 30
0.000000
 40
0.006762
  0
POLYLINE
  8
LAYER-1
  6
LTYPE02
 66
  1
 70
  0
 62
253
  6
LTYPE02
 10
4.501904
 20
6.300346
 30
0.000000
  0
VERTEX
  8
LAYER-1
  6
LTYPE02
 10
4.501904
 20
6.300346
 30
0.000000
  0
VERTEX
  8
LAYER-1
  6
LTYPE02
 10
4.483392
 20
6.100135
 30
0.000000
  0
SEQEND
  8
LAYER-1
  0
POLYLINE
  8
LAYER-1
  6
LTYPE02
 66
  1
 70
  0
 62
253
  6
LTYPE02
 10
4.480970
 20
6.082548
 30
0.000000
  0
VERTEX
  8
LAYER-1
  6
LTYPE02
 10
4.480970
 20
6.082548
 30
0.000000
  0
VERTEX
  8
LAYER-1
  6
LTYPE02
 10
4.465505
 20
5.915314
 30
0.000000
  0
SEQEND
  8
LAYER-1
  0
POLYLINE
  8
LAYER-1
  6
LTYPE02
 66
  1
 70
  0
 62
253
  6
LTYPE02
 10
4.335085
 20
6.211072
 30
0.000000
  0
VERTEX
  8
LAYER-1
  6
LTYPE02
 10
4.335085
 20
6.211072
 30
0.000000
  0
VERTEX
  8
LAYER-1
  6
LTYPE02
 10
4.305283
 20
6.228708
 30
0.000000
  0
VERTEX
  8
LAYER-1
  6
LTYPE02
 10
4.273570
 20
6.232531
 30
0.000000
  0
VERTEX
  8
LAYER-1
  6
LTYPE02
 10
4.242809
 20
6.223927
 30
0.000000
  0
VERTEX
  8
LAYER-1
  6
LTYPE02
 10
4.217682
 20
6.204206
 30
0.000000
  0
VERTEX
  8
LAYER-1
  6
LTYPE02
 10
4.202014
 20
6.176370
 30
0.000000
  0
VERTEX
  8
LAYER-1
  6
LTYPE02
 10
4.198191
 20
6.144657
 30
0.000000
  0
VERTEX
  8
LAYER-1
  6
LTYPE02
 10
4.206795
 20
6.113896
 30
0.000000
  0
VERTEX
  8
LAYER-1
  6
LTYPE02
 10
4.226516
 20
6.088769
 30
0.000000
  0
VERTEX
  8
LAYER-1
  6
LTYPE02
 10
4.230296
 20
6.085291
 30
0.000000
  0
SEQEND
  8
LAYER-1
  0
POLYLINE
  8
LAYER-1
  6
LTYPE02
 66
  1
 70
  0
 62
253
  6
LTYPE02
 10
4.343685
 20
6.221096
 30
0.000000
  0
VERTEX
  8
LAYER-1
  6
LTYPE02
 10
4.343685
 20
6.221096
 30
0.000000
  0
VERTEX
  8
LAYER-1
  6
LTYPE02
 10
4.309391
 20
6.241260
 30
0.000000
  0
VERTEX
  8
LAYER-1
  6
LTYPE02
 10
4.272562
 20
6.245699
 30
0.000000
  0
VERTEX
  8
LAYER-1
  6
LTYPE02
 10
4.236838
 20
6.235707
 30
0.000000
  0
VERTEX
  8
LAYER-1
  6
LTYPE02
 10
4.207657
 20
6.212804
 30
0.000000
  0
VERTEX
  8
LAYER-1
  6
LTYPE02
 10
4.189462
 20
6.180479
 30
0.000000
  0
VERTEX
  8
LAYER-1
  6
LTYPE02
 10
4.185023
 20
6.143650
 30
0.000000
  0
VERTEX
  8
LAYER-1
  6
LTYPE02
 10
4.195014
 20
6.107925
 30
0.000000
  0
VERTEX
  8
LAYER-1
  6
LTYPE02
 10
4.217917
 20
6.078744
 30
0.000000
  0
VERTEX
  8
LAYER-1
  6
LTYPE02
 10
4.221989
 20
6.075024
 30
0.000000
  0
SEQEND
  8
LAYER-1
  0
CIRCLE
  8
LAYER-1
 62
253
  6
LTYPE02
 10
4.237541
 20
5.670485
 30
0.000000
 40
0.029531
  0
CIRCLE
  8
LAYER-1
 62
253
  6
LTYPE02
 10
4.237541
 20
5.670485
 30
0.000000
 40
0.044577
  0
POLYLINE
  8
LAYER-1
  6
LTYPE02
 66
  1
 70
  0
 62
253
  6
LTYPE02
 10
4.552011
 20
5.749257
 30
0.000000
  0
VERTEX
  8
LAYER-1
  6
LTYPE02
 10
4.552011
 20
5.749257
 30
0.000000
  0
VERTEX
  8
LAYER-1
  6
LTYPE02
 10
4.463686
 20
5.757426
 30
0.000000
  0
SEQEND
  8
LAYER-1
  0
POLYLINE
  8
LAYER-1
  6
LTYPE02
 66
  1
 70
  0
 62
253
  6
LTYPE02
 10
4.547094
 20
5.691792
 30
0.000000
  0
VERTEX
  8
LAYER-1
  6
LTYPE02
 10
4.547094
 20
5.691792
 30
0.000000
  0
VERTEX
  8
LAYER-1
  6
LTYPE02
 10
4.458375
 20
5.699996
 30
0.000000
  0
SEQEND
  8
LAYER-1
  0
POLYLINE
  8
LAYER-1
  6
LTYPE02
 66
  1
 70
  0
 62
253
  6
LTYPE02
 10
4.494732
 20
5.713012
 30
0.000000
  0
VERTEX
  8
LAYER-1
  6
LTYPE02
 10
4.494732
 20
5.713012
 30
0.000000
  0
VERTEX
  8
LAYER-1
  6
LTYPE02
 10
4.500997
 20
5.717212
 30
0.000000
  0
VERTEX
  8
LAYER-1
  6
LTYPE02
 10
4.505240
 20
5.724613
 30
0.000000
  0
VERTEX
  8
LAYER-1
  6
LTYPE02
 10
4.503008
 20
5.732845
 30
0.000000
  0
VERTEX
  8
LAYER-1
  6
LTYPE02
 10
4.495608
 20
5.737088
 30
0.000000
  0
VERTEX
  8
LAYER-1
  6
LTYPE02
 10
4.496626
 20
5.735200
 30
0.000000
  0
SEQEND
  8
LAYER-1
  0
POLYLINE
  8
LAYER-1
  6
LTYPE02
 66
  1
 70
  0
 62
253
  6
LTYPE02
 10
4.496624
 20
5.735200
 30
0.000000
  0
VERTEX
  8
LAYER-1
  6
LTYPE02
 10
4.496624
 20
5.735200
 30
0.000000
  0
VERTEX
  8
LAYER-1
  6
LTYPE02
 10
4.461929
 20
5.738408
 30
0.000000
  0
SEQEND
  8
LAYER-1
  0
POLYLINE
  8
LAYER-1
  6
LTYPE02
 66
  1
 70
  0
 62
253
  6
LTYPE02
 10
4.494729
 20
5.713011
 30
0.000000
  0
VERTEX
  8
LAYER-1
  6
LTYPE02
 10
4.494729
 20
5.713011
 30
0.000000
  0
VERTEX
  8
LAYER-1
  6
LTYPE02
 10
4.459880
 20
5.716235
 30
0.000000
  0
SEQEND
  8
LAYER-1
  0
POLYLINE
  8
LAYER-1
  6
LTYPE02
 66
  1
 70
  0
 62
253
  6
LTYPE02
 10
4.459880
 20
5.716235
 30
0.000000
  0
VERTEX
  8
LAYER-1
  6
LTYPE02
 10
4.459880
 20
5.716235
 30
0.000000
  0
VERTEX
  8
LAYER-1
  6
LTYPE02
 10
4.458375
 20
5.699996
 30
0.000000
  0
SEQEND
  8
LAYER-1
  0
POLYLINE
  8
LAYER-1
  6
LTYPE02
 66
  1
 70
  0
 62
253
  6
LTYPE02
 10
4.461929
 20
5.738408
 30
0.000000
  0
VERTEX
  8
LAYER-1
  6
LTYPE02
 10
4.461929
 20
5.738408
 30
0.000000
  0
VERTEX
  8
LAYER-1
  6
LTYPE02
 10
4.463686
 20
5.757426
 30
0.000000
  0
SEQEND
  8
LAYER-1
  0
POLYLINE
  8
LAYER-1
  6
LTYPE02
 66
  1
 70
  0
 62
253
  6
LTYPE02
 10
4.537290
 20
5.844931
 30
0.000000
  0
VERTEX
  8
LAYER-1
  6
LTYPE02
 10
4.537290
 20
5.844931
 30
0.000000
  0
VERTEX
  8
LAYER-1
  6
LTYPE02
 10
4.528642
 20
5.751418
 30
0.000000
  0
SEQEND
  8
LAYER-1
  0
POLYLINE
  8
LAYER-1
  6
LTYPE02
 66
  1
 70
  0
 62
253
  6
LTYPE02
 10
4.520085
 20
5.857582
 30
0.000000
  0
VERTEX
  8
LAYER-1
  6
LTYPE02
 10
4.520085
 20
5.857582
 30
0.000000
  0
VERTEX
  8
LAYER-1
  6
LTYPE02
 10
4.510422
 20
5.753103
 30
0.000000
  0
SEQEND
  8
LAYER-1
  0
POLYLINE
  8
LAYER-1
  6
LTYPE02
 66
  1
 70
  0
 62
253
  6
LTYPE02
 10
5.093752
 20
5.367612
 30
0.000000
  0
VERTEX
  8
LAYER-1
  6
LTYPE02
 10
5.093752
 20
5.367612
 30
0.000000
  0
VERTEX
  8
LAYER-1
  6
LTYPE02
 10
5.019907
 20
5.374442
 30
0.000000
  0
SEQEND
  8
LAYER-1
  0
POLYLINE
  8
LAYER-1
  6
LTYPE02
 66
  1
 70
  0
 62
253
  6
LTYPE02
 10
5.078222
 20
5.199679
 30
0.000000
  0
VERTEX
  8
LAYER-1
  6
LTYPE02
 10
5.078222
 20
5.199679
 30
0.000000
  0
VERTEX
  8
LAYER-1
  6
LTYPE02
 10
5.002791
 20
5.206655
 30
0.000000
  0
SEQEND
  8
LAYER-1
  0
POLYLINE
  8
LAYER-1
  6
LTYPE02
 66
  1
 70
  0
 62
253
  6
LTYPE02
 10
5.078221
 20
5.199680
 30
0.000000
  0
VERTEX
  8
LAYER-1
  6
LTYPE02
 10
5.078221
 20
5.199680
 30
0.000000
  0
VERTEX
  8
LAYER-1
  6
LTYPE02
 10
5.108976
 20
5.205069
 30
0.000000
  0
VERTEX
  8
LAYER-1
  6
LTYPE02
 10
5.137900
 20
5.220751
 30
0.000000
  0
VERTEX
  8
LAYER-1
  6
LTYPE02
 10
5.158620
 20
5.246309
 30
0.000000
  0
VERTEX
  8
LAYER-1
  6
LTYPE02
 10
5.167983
 20
5.277851
 30
0.000000
  0
VERTEX
  8
LAYER-1
  6
LTYPE02
 10
5.164563
 20
5.310574
 30
0.000000
  0
VERTEX
  8
LAYER-1
  6
LTYPE02
 10
5.148881
 20
5.339499
 30
0.000000
  0
VERTEX
  8
LAYER-1
  6
LTYPE02
 10
5.123323
 20
5.360219
 30
0.000000
  0
VERTEX
  8
LAYER-1
  6
LTYPE02
 10
5.093751
 20
5.367614
 30
0.000000
  0
SEQEND
  8
LAYER-1
  0
POLYLINE
  8
LAYER-1
  6
LTYPE02
 66
  1
 70
  0
 62
253
  6
LTYPE02
 10
5.079239
 20
5.210702
 30
0.000000
  0
VERTEX
  8
LAYER-1
  6
LTYPE02
 10
5.079239
 20
5.210702
 30
0.000000
  0
VERTEX
  8
LAYER-1
  6
LTYPE02
 10
5.105699
 20
5.215641
 30
0.000000
  0
VERTEX
  8
LAYER-1
  6
LTYPE02
 10
5.130827
 20
5.229266
 30
0.000000
  0
VERTEX
  8
LAYER-1
  6
LTYPE02
 10
5.148828
 20
5.251468
 30
0.000000
  0
VERTEX
  8
LAYER-1
  6
LTYPE02
 10
5.156962
 20
5.278870
 30
0.000000
  0
VERTEX
  8
LAYER-1
  6
LTYPE02
 10
5.153991
 20
5.307299
 30
0.000000
  0
VERTEX
  8
LAYER-1
  6
LTYPE02
 10
5.140367
 20
5.332426
 30
0.000000
  0
VERTEX
  8
LAYER-1
  6
LTYPE02
 10
5.118163
 20
5.350427
 30
0.000000
  0
VERTEX
  8
LAYER-1
  6
LTYPE02
 10
5.092731
 20
5.356592
 30
0.000000
  0
SEQEND
  8
LAYER-1
  0
POLYLINE
  8
LAYER-1
  6
LTYPE02
 66
  1
 70
  0
 62
253
  6
LTYPE02
 10
5.092731
 20
5.356593
 30
0.000000
  0
VERTEX
  8
LAYER-1
  6
LTYPE02
 10
5.092731
 20
5.356593
 30
0.000000
  0
VERTEX
  8
LAYER-1
  6
LTYPE02
 10
5.021749
 20
5.363157
 30
0.000000
  0
SEQEND
  8
LAYER-1
  0
POLYLINE
  8
LAYER-1
  6
LTYPE02
 66
  1
 70
  0
 62
253
  6
LTYPE02
 10
5.079241
 20
5.210699
 30
0.000000
  0
VERTEX
  8
LAYER-1
  6
LTYPE02
 10
5.079241
 20
5.210699
 30
0.000000
  0
VERTEX
  8
LAYER-1
  6
LTYPE02
 10
5.006542
 20
5.217423
 30
0.000000
  0
SEQEND
  8
LAYER-1
  0
CIRCLE
  8
LAYER-1
 62
253
  6
LTYPE02
 10
3.705295
 20
5.853875
 30
0.000000
 40
0.037156
  0
POLYLINE
  8
LAYER-1
  6
LTYPE02
 66
  1
 70
  0
 62
253
  6
LTYPE02
 10
3.787334
 20
6.273136
 30
0.000000
  0
VERTEX
  8
LAYER-1
  6
LTYPE02
 10
3.787334
 20
6.273136
 30
0.000000
  0
VERTEX
  8
LAYER-1
  6
LTYPE02
 10
3.787334
 20
6.224492
 30
0.000000
  0
SEQEND
  8
LAYER-1
  0
POLYLINE
  8
LAYER-1
  6
LTYPE02
 66
  1
 70
  0
 62
253
  6
LTYPE02
 10
5.192423
 20
6.449952
 30
0.000000
  0
VERTEX
  8
LAYER-1
  6
LTYPE02
 10
5.192423
 20
6.449952
 30
0.000000
  0
VERTEX
  8
LAYER-1
  6
LTYPE02
 10
5.839563
 20
6.390103
 30
0.000000
  0
SEQEND
  8
LAYER-1
  0
POLYLINE
  8
LAYER-1
  6
LTYPE02
 66
  1
 70
  0
 62
253
  6
LTYPE02
 10
5.115001
 20
5.612835
 30
0.000000
  0
VERTEX
  8
LAYER-1
  6
LTYPE02
 10
5.115001
 20
5.612835
 30
0.000000
  0
VERTEX
  8
LAYER-1
  6
LTYPE02
 10
5.762141
 20
5.552985
 30
0.000000
  0
SEQEND
  8
LAYER-1
  0
POLYLINE
  8
LAYER-1
  6
LTYPE02
 66
  1
 70
  0
 62
253
  6
LTYPE02
 10
5.839563
 20
6.390103
 30
0.000000
  0
VERTEX
  8
LAYER-1
  6
LTYPE02
 10
5.839563
 20
6.390103
 30
0.000000
  0
VERTEX
  8
LAYER-1
  6
LTYPE02
 10
5.762141
 20
5.552985
 30
0.000000
  0
SEQEND
  8
LAYER-1
  0
CIRCLE
  8
LAYER-1
 62
253
  6
LTYPE02
 10
5.091593
 20
6.115592
 30
0.000000
 40
0.009554
  0
CIRCLE
  8
LAYER-1
 62
253
  6
LTYPE02
 10
5.076798
 20
5.955583
 30
0.000000
 40
0.009554
  0
CIRCLE
  8
LAYER-1
 62
  7
 10
3.217900
 20
5.730462
 30
0.000000
 40
0.268398
  0
ARC
  8
LAYER-1
 62
  7
  6
LTYPE02
 10
7.297052
 20
4.591033
 30
0.000000
 40
4.507620
 50
164.113464
 51
174.808838
  0
CIRCLE
  8
LAYER-1
 62
253
  6
LTYPE02
 10
3.706771
 20
5.445905
 30
0.000000
 40
0.018001
  0
ARC
  8
LAYER-1
 62
253
  6
LTYPE01
 10
4.281786
 20
6.148936
 30
0.000000
 40
0.095667
 50
293.508240
 51
105.082336
  0
LINE
  8
LAYER-1
 62
  7
 10
3.456726
 20
5.000919
 30
0.000000
 11
3.456726
 21
4.576108
 31
0.000000
  0
LINE
  8
LAYER-1
 62
  7
 10
2.660328
 20
5.000919
 30
0.000000
 11
3.581726
 21
5.000919
 31
0.000000
  0
LINE
  8
LAYER-1
 62
  7
 10
3.145657
 20
4.576108
 30
0.000000
 11
3.581726
 21
4.576108
 31
0.000000
  0
LINE
  8
LAYER-1
 62
  7
 10
3.477124
 20
4.980522
 30
0.000000
 11
3.436329
 21
5.021317
 31
0.000000
  0
LINE
  8
LAYER-1
 62
  7
 10
3.477124
 20
4.555710
 30
0.000000
 11
3.436329
 21
4.596505
 31
0.000000
  0
TEXT
  8
LAYER-1
 62
  7
 10
3.301318
 20
4.830901
 30
0.000000
 40
0.129808
  1
 
 50
90.000000
  0
TEXT
  8
LAYER-1
 62
  7
 10
3.138387
 20
4.708267
 30
0.000000
 40
0.187500
  1
6"
 72
  5
 11
3.407617
 21
4.708267
 31
0.000000
  0
CIRCLE
  8
LAYER-1
 62
  7
 10
3.711717
 20
6.216906
 30
0.000000
 40
0.015831
  0
POLYLINE
  8
LAYER-1
 66
  1
 70
  1
 62
  7
 10
6.061769
 20
0.252664
 30
0.000000
  0
VERTEX
  8
LAYER-1
 10
6.061769
 20
0.252664
 30
0.000000
  0
VERTEX
  8
LAYER-1
 10
6.062637
 20
0.219207
 30
0.000000
  0
VERTEX
  8
LAYER-1
 10
6.104277
 20
0.234903
 30
0.000000
  0
SEQEND
  8
LAYER-1
  0
POLYLINE
  8
LAYER-1
 66
  1
 70
  1
 62
  7
 10
6.285506
 20
0.151750
 30
0.000000
  0
VERTEX
  8
LAYER-1
 10
6.285506
 20
0.151750
 30
0.000000
  0
VERTEX
  8
LAYER-1
 10
6.319402
 20
0.148528
 30
0.000000
  0
VERTEX
  8
LAYER-1
 10
6.298369
 20
0.192032
 30
0.000000
  0
SEQEND
  8
LAYER-1
  0
POLYLINE
  8
LAYER-1
 66
  1
 70
  1
 62
  7
 10
0.197517
 20
0.090552
 30
0.000000
  0
VERTEX
  8
LAYER-1
 10
0.197517
 20
0.090552
 30
0.000000
  0
VERTEX
  8
LAYER-1
 10
0.220930
 20
0.066649
 30
0.000000
  0
VERTEX
  8
LAYER-1
 10
0.240740
 20
0.106498
 30
0.000000
  0
SEQEND
  8
LAYER-1
  0
POLYLINE
  8
LAYER-1
 66
  1
 70
  1
 62
  7
 10
0.186574
 20
0.239001
 30
0.000000
  0
VERTEX
  8
LAYER-1
 10
0.186574
 20
0.239001
 30
0.000000
  0
VERTEX
  8
LAYER-1
 10
0.198312
 20
0.318172
 30
0.000000
  0
VERTEX
  8
LAYER-1
 10
0.155430
 20
0.334871
 30
0.000000
  0
SEQEND
  8
LAYER-1
  0
POLYLINE
  8
LAYER-1
 66
  1
 70
  1
 62
  7
 10
6.327418
 20
0.291489
 30
0.000000
  0
VERTEX
  8
LAYER-1
 10
6.327418
 20
0.291489
 30
0.000000
  0
VERTEX
  8
LAYER-1
 10
6.304004
 20
0.315393
 30
0.000000
  0
VERTEX
  8
LAYER-1
 10
6.284195
 20
0.275543
 30
0.000000
  0
SEQEND
  8
LAYER-1
  0
ENDSEC
  0
EOF
