  0
SECTION
  2
HEADER
999
MacDraft 5.0\0
  9
$ACADVER
  1
AC1006
  9
$CLAYER
  8
LAYER-1
  9
$EXTMIN
 10
0.000000
 20
0.000000
  9
$EXTMAX
 10
5.936269
 20
8.583483
  9
$FASTZOOM
 70
0
  9
$FILLMODE
 70
1
  0
ENDSEC
  0
SECTION
  2
TABLES
  0
TABLE
  2
LTYPE
 70
16
  0
LTYPE
  2
CONTINUOUS
 70
64
  3
Solid Line
 72
65
 73
0
 40
0.000000
  0
LTYPE
  2
LTYPE01
 70
64
  3
CUSTOM
 72
65
 73
2
 40
0.076923
 49
0.057692
 49
-0.019231
  0
LTYPE
  2
LTYPE02
 70
64
  3
CUSTOM
 72
65
 73
2
 40
0.134615
 49
0.115385
 49
-0.019231
  0
LTYPE
  2
LTYPE03
 70
64
  3
CUSTOM
 72
65
 73
2
 40
0.259615
 49
0.230769
 49
-0.028846
  0
LTYPE
  2
LTYPE04
 70
64
  3
CUSTOM
 72
65
 73
2
 40
0.500000
 49
0.461538
 49
-0.038462
  0
LTYPE
  2
LTYPE05
 70
64
  3
CUSTOM
 72
65
 73
4
 40
0.105769
 49
0.057692
 49
-0.019231
 49
0.009615
 49
-0.019231
  0
LTYPE
  2
LTYPE06
 70
64
  3
CUSTOM
 72
65
 73
4
 40
0.163462
 49
0.115385
 49
-0.019231
 49
0.009615
 49
-0.019231
  0
LTYPE
  2
LTYPE07
 70
64
  3
CUSTOM
 72
65
 73
4
 40
0.307692
 49
0.230769
 49
-0.028846
 49
0.019231
 49
-0.028846
  0
LTYPE
  2
LTYPE08
 70
64
  3
CUSTOM
 72
65
 73
4
 40
0.557692
 49
0.461538
 49
-0.038462
 49
0.019231
 49
-0.038462
  0
LTYPE
  2
LTYPE09
 70
64
  3
CUSTOM
 72
65
 73
6
 40
0.134615
 49
0.057692
 49
-0.019231
 49
0.009615
 49
-0.019231
 49
0.009615
 49
-0.019231
  0
LTYPE
  2
LTYPE10
 70
64
  3
CUSTOM
 72
65
 73
6
 40
0.192308
 49
0.115385
 49
-0.019231
 49
0.009615
 49
-0.019231
 49
0.009615
 49
-0.019231
  0
LTYPE
  2
LTYPE11
 70
64
  3
CUSTOM
 72
65
 73
6
 40
0.346154
 49
0.230769
 49
-0.028846
 49
0.019231
 49
-0.019231
 49
0.019231
 49
-0.028846
  0
LTYPE
  2
LTYPE12
 70
64
  3
CUSTOM
 72
65
 73
6
 40
0.596154
 49
0.461538
 49
-0.038462
 49
0.019231
 49
-0.019231
 49
0.019231
 49
-0.038462
  0
LTYPE
  2
LTYPE13
 70
64
  3
CUSTOM
 72
65
 73
8
 40
0.221154
 49
0.115385
 49
-0.019231
 49
0.009615
 49
-0.019231
 49
0.009615
 49
-0.019231
 49
0.009615
 49
-0.019231
  0
LTYPE
  2
LTYPE14
 70
64
  3
CUSTOM
 72
65
 73
8
 40
0.384615
 49
0.230769
 49
-0.028846
 49
0.019231
 49
-0.019231
 49
0.019231
 49
-0.019231
 49
0.019231
 49
-0.028846
  0
LTYPE
  2
LTYPE15
 70
64
  3
CUSTOM
 72
65
 73
8
 40
0.653846
 49
0.461538
 49
-0.038462
 49
0.019231
 49
-0.028846
 49
0.019231
 49
-0.028846
 49
0.019231
 49
-0.038462
  0
ENDTAB
  0
TABLE
  2
LAYER
 70
1
  0
LAYER
  2
LAYER-1
 70
0
 62
7
  6
CONTINUOUS
  0
ENDTAB
  0
ENDSEC
  0
SECTION
  2
BLOCKS
  0
ENDSEC
  0
SECTION
  2
ENTITIES
  0
ARC
  8
LAYER-1
 62
  7
 10
4.345311
 20
7.526145
 30
0.000000
 40
0.254425
 50
270.000000
 51
90.000000
  0
POLYLINE
  8
LAYER-1
 66
  1
 70
  0
 62
  7
 10
4.345311
 20
7.780570
 30
0.000000
  0
VERTEX
  8
LAYER-1
 10
4.345311
 20
7.780570
 30
0.000000
  0
VERTEX
  8
LAYER-1
 10
0.680388
 20
7.780570
 30
0.000000
  0
SEQEND
  8
LAYER-1
  0
POLYLINE
  8
LAYER-1
 66
  1
 70
  0
 62
  7
 10
0.680388
 20
7.780570
 30
0.000000
  0
VERTEX
  8
LAYER-1
 10
0.680388
 20
7.780570
 30
0.000000
  0
VERTEX
  8
LAYER-1
 10
0.680388
 20
7.271720
 30
0.000000
  0
SEQEND
  8
LAYER-1
  0
POLYLINE
  8
LAYER-1
 66
  1
 70
  0
 62
  7
 10
4.345311
 20
7.271720
 30
0.000000
  0
VERTEX
  8
LAYER-1
 10
4.345311
 20
7.271720
 30
0.000000
  0
VERTEX
  8
LAYER-1
 10
0.680388
 20
7.271720
 30
0.000000
  0
SEQEND
  8
LAYER-1
  0
TEXT
  8
LAYER-1
 62
  7
 10
2.473291
 20
8.073573
 30
0.000000
 40
0.331731
  1
MobilFlex
 72
  5
 11
4.617521
 21
8.073573
 31
0.000000
  0
POLYLINE
  8
LAYER-1
 66
  1
 70
  1
 62
  7
  0
VERTEX
  8
LAYER-1
 10
0.681891
 20
8.582329
 30
0.000000
  0
VERTEX
  8
LAYER-1
 10
0.919738
 20
8.582329
 30
0.000000
  0
VERTEX
  8
LAYER-1
 10
0.919738
 20
8.065384
 30
0.000000
  0
VERTEX
  8
LAYER-1
 10
0.681891
 20
8.065384
 30
0.000000
  0
SEQEND
  8
LAYER-1
  0
POLYLINE
  8
LAYER-1
 66
  1
 70
  1
 62
  7
  0
VERTEX
  8
LAYER-1
 10
0.994391
 20
8.582329
 30
0.000000
  0
VERTEX
  8
LAYER-1
 10
1.232239
 20
8.582329
 30
0.000000
  0
VERTEX
  8
LAYER-1
 10
1.232239
 20
8.065384
 30
0.000000
  0
VERTEX
  8
LAYER-1
 10
0.994391
 20
8.065384
 30
0.000000
  0
SEQEND
  8
LAYER-1
  0
POLYLINE
  8
LAYER-1
 66
  1
 70
  1
 62
  7
  0
VERTEX
  8
LAYER-1
 10
1.294739
 20
8.582329
 30
0.000000
  0
VERTEX
  8
LAYER-1
 10
1.532586
 20
8.582329
 30
0.000000
  0
VERTEX
  8
LAYER-1
 10
1.532586
 20
8.065384
 30
0.000000
  0
VERTEX
  8
LAYER-1
 10
1.294739
 20
8.065384
 30
0.000000
  0
SEQEND
  8
LAYER-1
  0
POLYLINE
  8
LAYER-1
 66
  1
 70
  1
 62
  7
  0
VERTEX
  8
LAYER-1
 10
1.598558
 20
8.582329
 30
0.000000
  0
VERTEX
  8
LAYER-1
 10
1.836406
 20
8.582329
 30
0.000000
  0
VERTEX
  8
LAYER-1
 10
1.836406
 20
8.065384
 30
0.000000
  0
VERTEX
  8
LAYER-1
 10
1.598558
 20
8.065384
 30
0.000000
  0
SEQEND
  8
LAYER-1
  0
POLYLINE
  8
LAYER-1
 66
  1
 70
  1
 62
  7
  0
VERTEX
  8
LAYER-1
 10
1.915399
 20
8.578414
 30
0.000000
  0
VERTEX
  8
LAYER-1
 10
2.290833
 20
8.578414
 30
0.000000
  0
VERTEX
  8
LAYER-1
 10
2.290833
 20
8.440393
 30
0.000000
  0
VERTEX
  8
LAYER-1
 10
1.915399
 20
8.440393
 30
0.000000
  0
SEQEND
  8
LAYER-1
  0
POLYLINE
  8
LAYER-1
 66
  1
 70
  1
 62
  7
  0
VERTEX
  8
LAYER-1
 10
1.914965
 20
8.350984
 30
0.000000
  0
VERTEX
  8
LAYER-1
 10
2.223124
 20
8.350984
 30
0.000000
  0
VERTEX
  8
LAYER-1
 10
2.223124
 20
8.216869
 30
0.000000
  0
VERTEX
  8
LAYER-1
 10
1.914965
 20
8.216869
 30
0.000000
  0
SEQEND
  8
LAYER-1
  0
POLYLINE
  8
LAYER-1
 66
  1
 70
  1
 62
  7
  0
VERTEX
  8
LAYER-1
 10
0.681891
 20
7.980758
 30
0.000000
  0
VERTEX
  8
LAYER-1
 10
4.600295
 20
7.980758
 30
0.000000
  0
VERTEX
  8
LAYER-1
 10
4.600295
 20
7.937355
 30
0.000000
  0
VERTEX
  8
LAYER-1
 10
0.681891
 20
7.937355
 30
0.000000
  0
SEQEND
  8
LAYER-1
  0
TEXT
  8
LAYER-1
 62
  7
 10
4.405983
 20
0.477419
 30
0.000000
 40
0.122596
  1
RESSORT
 72
  5
 11
5.184829
 21
0.477419
 31
0.000000
  0
TEXT
  8
LAYER-1
 62
  7
 10
0.069444
 20
0.477419
 30
0.000000
 40
0.122596
  1
CAPUCHON
 72
  5
 11
0.992521
 21
0.477419
 31
0.000000
  0
TEXT
  8
LAYER-1
 62
  7
 10
0.069444
 20
0.285112
 30
0.000000
 40
0.122596
  1
ANTI-POUSSIÚRE
 72
  5
 11
1.425214
 21
0.285112
 31
0.000000
  0
TEXT
  8
LAYER-1
 62
  7
 10
0.069444
 20
4.487035
 30
0.000000
 40
0.122596
  1
PLANCHER FINI
 72
  5
 11
1.300214
 21
4.487035
 31
0.000000
  0
TEXT
  8
LAYER-1
 62
  7
 10
0.069444
 20
4.294727
 30
0.000000
 40
0.122596
  1
OU COMPTOIR
 72
  5
 11
1.204060
 21
4.294727
 31
0.000000
  0
TEXT
  8
LAYER-1
 62
  7
 10
0.069444
 20
5.525496
 30
0.000000
 40
0.122596
  1
TIGE DE VERROU
 72
  5
 11
1.434829
 21
5.525496
 31
0.000000
  0
TEXT
  8
LAYER-1
 62
  7
 10
0.069444
 20
5.333189
 30
0.000000
 40
0.122596
  1
7/16" - 11mm
 72
  5
 11
1.059829
 21
5.333189
 31
0.000000
  0
TEXT
  8
LAYER-1
 62
  7
 10
4.405983
 20
4.842804
 30
0.000000
 40
0.122596
  1
RONDELLE
 72
  5
 11
5.280983
 21
4.842804
 31
0.000000
  0
TEXT
  8
LAYER-1
 62
  7
 10
4.405983
 20
4.650496
 30
0.000000
 40
0.122596
  1
D'ACIER
 72
  5
 11
5.079060
 21
4.650496
 31
0.000000
  0
TEXT
  8
LAYER-1
 62
  7
 10
4.405983
 20
4.458189
 30
0.000000
 40
0.122596
  1
INOXYDABLE
 72
  5
 11
5.454060
 21
4.458189
 31
0.000000
  0
TEXT
  8
LAYER-1
 62
  7
 10
0.886752
 20
7.410112
 30
0.000000
 40
0.187500
  1
Douille anti-poussiÅre
 72
  5
 11
3.521367
 21
7.410112
 31
0.000000
  0
TEXT
  8
LAYER-1
 62
  7
 10
3.636752
 20
7.631265
 30
0.000000
 40
0.093750
  1
PLANCHER
 72
  5
 11
4.357906
 21
7.631265
 31
0.000000
  0
TEXT
  8
LAYER-1
 62
  7
 10
3.877137
 20
7.487035
 30
0.000000
 40
0.093750
  1
OU
 72
  5
 11
4.107906
 21
7.487035
 31
0.000000
  0
TEXT
  8
LAYER-1
 62
  7
 10
3.646367
 20
7.342804
 30
0.000000
 40
0.093750
  1
COMPTOIR
 72
  5
 11
4.348291
 21
7.342804
 31
0.000000
  0
POLYLINE
  8
LAYER-1
 66
  1
 70
  1
 62
  7
  0
VERTEX
  8
LAYER-1
 10
0.004808
 20
3.923467
 30
0.000000
  0
VERTEX
  8
LAYER-1
 10
5.251746
 20
3.923467
 30
0.000000
  0
VERTEX
  8
LAYER-1
 10
5.251746
 20
3.563366
 30
0.000000
  0
VERTEX
  8
LAYER-1
 10
0.004808
 20
3.563366
 30
0.000000
  0
SEQEND
  8
LAYER-1
  0
POLYLINE
  8
LAYER-1
 66
  1
 70
  1
 62
  7
  0
VERTEX
  8
LAYER-1
 10
0.004808
 20
3.563366
 30
0.000000
  0
VERTEX
  8
LAYER-1
 10
5.242261
 20
3.563366
 30
0.000000
  0
VERTEX
  8
LAYER-1
 10
5.242261
 20
0.907056
 30
0.000000
  0
VERTEX
  8
LAYER-1
 10
0.004808
 20
0.907056
 30
0.000000
  0
SEQEND
  8
LAYER-1
  0
POLYLINE
  8
LAYER-1
 66
  1
 70
  1
 62
  7
  0
VERTEX
  8
LAYER-1
 10
2.179680
 20
3.922160
 30
0.000000
  0
VERTEX
  8
LAYER-1
 10
3.049943
 20
3.922160
 30
0.000000
  0
VERTEX
  8
LAYER-1
 10
3.049943
 20
1.036018
 30
0.000000
  0
VERTEX
  8
LAYER-1
 10
2.179680
 20
1.036018
 30
0.000000
  0
SEQEND
  8
LAYER-1
  0
POLYLINE
  8
LAYER-1
  6
LTYPE01
 66
  1
 70
  1
 62
  7
  0
VERTEX
  8
LAYER-1
  6
LTYPE01
 10
2.251869
 20
4.062524
 30
0.000000
  0
VERTEX
  8
LAYER-1
  6
LTYPE01
 10
2.973747
 20
4.062524
 30
0.000000
  0
VERTEX
  8
LAYER-1
  6
LTYPE01
 10
2.973747
 20
1.183044
 30
0.000000
  0
VERTEX
  8
LAYER-1
  6
LTYPE01
 10
2.251869
 20
1.183044
 30
0.000000
  0
SEQEND
  8
LAYER-1
  0
LINE
  8
LAYER-1
 62
  7
 10
2.199366
 20
0.212522
 30
0.000000
 11
3.031358
 21
0.212522
 31
0.000000
  0
LINE
  8
LAYER-1
 62
  7
 10
2.179681
 20
0.799711
 30
0.000000
 11
2.179681
 21
0.087522
 31
0.000000
  0
LINE
  8
LAYER-1
 62
  7
 10
3.051043
 20
0.807962
 30
0.000000
 11
3.051043
 21
0.087522
 31
0.000000
  0
POLYLINE
  8
LAYER-1
 66
  1
 70
  1
 62
  7
  0
VERTEX
  8
LAYER-1
 10
2.179681
 20
0.212522
 30
0.000000
  0
VERTEX
  8
LAYER-1
 10
2.227758
 20
0.183676
 30
0.000000
  0
VERTEX
  8
LAYER-1
 10
2.227758
 20
0.212523
 30
0.000000
  0
VERTEX
  8
LAYER-1
 10
2.227758
 20
0.241369
 30
0.000000
  0
VERTEX
  8
LAYER-1
 10
2.179681
 20
0.212522
 30
0.000000
  0
SEQEND
  8
LAYER-1
  0
POLYLINE
  8
LAYER-1
 66
  1
 70
  1
 62
  7
  0
VERTEX
  8
LAYER-1
 10
3.051043
 20
0.212522
 30
0.000000
  0
VERTEX
  8
LAYER-1
 10
3.002966
 20
0.183675
 30
0.000000
  0
VERTEX
  8
LAYER-1
 10
3.002966
 20
0.212521
 30
0.000000
  0
VERTEX
  8
LAYER-1
 10
3.002965
 20
0.241368
 30
0.000000
  0
VERTEX
  8
LAYER-1
 10
3.051043
 20
0.212522
 30
0.000000
  0
SEQEND
  8
LAYER-1
  0
TEXT
  8
LAYER-1
 62
  7
 10
2.528484
 20
0.059566
 30
0.000000
 40
0.086538
  1
19mm
  0
LINE
  8
LAYER-1
 62
  7
 10
1.915726
 20
5.920519
 30
0.000000
 11
3.316098
 21
5.920518
 31
0.000000
  0
LINE
  8
LAYER-1
 62
  7
 10
1.896041
 20
4.008952
 30
0.000000
 11
1.896041
 21
6.045519
 31
0.000000
  0
LINE
  8
LAYER-1
 62
  7
 10
3.335783
 20
4.008952
 30
0.000000
 11
3.335783
 21
6.045519
 31
0.000000
  0
POLYLINE
  8
LAYER-1
 66
  1
 70
  1
 62
  7
  0
VERTEX
  8
LAYER-1
 10
1.896041
 20
5.920519
 30
0.000000
  0
VERTEX
  8
LAYER-1
 10
1.944119
 20
5.891673
 30
0.000000
  0
VERTEX
  8
LAYER-1
 10
1.944118
 20
5.920519
 30
0.000000
  0
VERTEX
  8
LAYER-1
 10
1.944118
 20
5.949365
 30
0.000000
  0
VERTEX
  8
LAYER-1
 10
1.896041
 20
5.920519
 30
0.000000
  0
SEQEND
  8
LAYER-1
  0
POLYLINE
  8
LAYER-1
 66
  1
 70
  1
 62
  7
  0
VERTEX
  8
LAYER-1
 10
3.335783
 20
5.920519
 30
0.000000
  0
VERTEX
  8
LAYER-1
 10
3.287706
 20
5.891672
 30
0.000000
  0
VERTEX
  8
LAYER-1
 10
3.287706
 20
5.920518
 30
0.000000
  0
VERTEX
  8
LAYER-1
 10
3.287706
 20
5.949364
 30
0.000000
  0
VERTEX
  8
LAYER-1
 10
3.335783
 20
5.920519
 30
0.000000
  0
SEQEND
  8
LAYER-1
  0
TEXT
  8
LAYER-1
 62
  7
 10
2.367067
 20
6.020196
 30
0.000000
 40
0.086538
  1
1-1/4"   -   30mm
  0
POLYLINE
  8
LAYER-1
 66
  1
 70
  0
 62
  7
 10
1.088675
 20
5.381265
 30
0.000000
  0
VERTEX
  8
LAYER-1
 10
1.088675
 20
5.381265
 30
0.000000
  0
VERTEX
  8
LAYER-1
 10
2.347711
 20
4.741410
 30
0.000000
  0
SEQEND
  8
LAYER-1
  0
POLYLINE
  8
LAYER-1
 66
  1
 70
  1
 62
  7
  0
VERTEX
  8
LAYER-1
 10
2.365260
 20
4.732492
 30
0.000000
  0
VERTEX
  8
LAYER-1
 10
2.309331
 20
4.728558
 30
0.000000
  0
VERTEX
  8
LAYER-1
 10
2.322400
 20
4.754274
 30
0.000000
  0
VERTEX
  8
LAYER-1
 10
2.335469
 20
4.779989
 30
0.000000
  0
VERTEX
  8
LAYER-1
 10
2.365260
 20
4.732492
 30
0.000000
  0
SEQEND
  8
LAYER-1
  0
POLYLINE
  8
LAYER-1
 66
  1
 70
  0
 62
  7
 10
0.912388
 20
4.262397
 30
0.000000
  0
VERTEX
  8
LAYER-1
 10
0.912388
 20
4.262397
 30
0.000000
  0
VERTEX
  8
LAYER-1
 10
1.225484
 20
3.933661
 30
0.000000
  0
SEQEND
  8
LAYER-1
  0
POLYLINE
  8
LAYER-1
 66
  1
 70
  1
 62
  7
  0
VERTEX
  8
LAYER-1
 10
1.239060
 20
3.919407
 30
0.000000
  0
VERTEX
  8
LAYER-1
 10
1.185015
 20
3.934326
 30
0.000000
  0
VERTEX
  8
LAYER-1
 10
1.205903
 20
3.954220
 30
0.000000
  0
VERTEX
  8
LAYER-1
 10
1.226791
 20
3.974115
 30
0.000000
  0
VERTEX
  8
LAYER-1
 10
1.239060
 20
3.919407
 30
0.000000
  0
SEQEND
  8
LAYER-1
  0
POLYLINE
  8
LAYER-1
 66
  1
 70
  0
 62
  7
 10
4.316572
 20
4.747655
 30
0.000000
  0
VERTEX
  8
LAYER-1
 10
4.316572
 20
4.747655
 30
0.000000
  0
VERTEX
  8
LAYER-1
 10
3.251759
 20
4.017737
 30
0.000000
  0
SEQEND
  8
LAYER-1
  0
POLYLINE
  8
LAYER-1
 66
  1
 70
  1
 62
  7
  0
VERTEX
  8
LAYER-1
 10
3.235523
 20
4.006607
 30
0.000000
  0
VERTEX
  8
LAYER-1
 10
3.258868
 20
4.057583
 30
0.000000
  0
VERTEX
  8
LAYER-1
 10
3.275178
 20
4.033790
 30
0.000000
  0
VERTEX
  8
LAYER-1
 10
3.291487
 20
4.009997
 30
0.000000
  0
VERTEX
  8
LAYER-1
 10
3.235523
 20
4.006607
 30
0.000000
  0
SEQEND
  8
LAYER-1
  0
POLYLINE
  8
LAYER-1
 66
  1
 70
  1
 62
  7
 10
1.677493
 20
2.226512
 30
0.000000
  0
VERTEX
  8
LAYER-1
 10
1.677493
 20
2.226512
 30
0.000000
  0
VERTEX
  8
LAYER-1
 10
1.755228
 20
2.294354
 30
0.000000
  0
VERTEX
  8
LAYER-1
 10
1.579397
 20
2.354778
 30
0.000000
  0
SEQEND
  8
LAYER-1
  0
POLYLINE
  8
LAYER-1
 66
  1
 70
  1
 62
  7
 10
0.710817
 20
2.760117
 30
0.000000
  0
VERTEX
  8
LAYER-1
 10
0.710817
 20
2.760117
 30
0.000000
  0
VERTEX
  8
LAYER-1
 10
0.788551
 20
2.827960
 30
0.000000
  0
VERTEX
  8
LAYER-1
 10
0.612721
 20
2.888384
 30
0.000000
  0
SEQEND
  8
LAYER-1
  0
POLYLINE
  8
LAYER-1
 66
  1
 70
  1
 62
  7
 10
0.798936
 20
1.933806
 30
0.000000
  0
VERTEX
  8
LAYER-1
 10
0.798936
 20
1.933806
 30
0.000000
  0
VERTEX
  8
LAYER-1
 10
0.824204
 20
1.833770
 30
0.000000
  0
VERTEX
  8
LAYER-1
 10
0.957724
 20
1.963152
 30
0.000000
  0
SEQEND
  8
LAYER-1
  0
POLYLINE
  8
LAYER-1
 66
  1
 70
  1
 62
  7
 10
1.355741
 20
2.776747
 30
0.000000
  0
VERTEX
  8
LAYER-1
 10
1.355741
 20
2.776747
 30
0.000000
  0
VERTEX
  8
LAYER-1
 10
1.381009
 20
2.676713
 30
0.000000
  0
VERTEX
  8
LAYER-1
 10
1.514530
 20
2.806094
 30
0.000000
  0
SEQEND
  8
LAYER-1
  0
POLYLINE
  8
LAYER-1
 66
  1
 70
  1
 62
  7
 10
1.441042
 20
1.590432
 30
0.000000
  0
VERTEX
  8
LAYER-1
 10
1.441042
 20
1.590432
 30
0.000000
  0
VERTEX
  8
LAYER-1
 10
1.340508
 20
1.613632
 30
0.000000
  0
VERTEX
  8
LAYER-1
 10
1.394642
 20
1.435762
 30
0.000000
  0
SEQEND
  8
LAYER-1
  0
POLYLINE
  8
LAYER-1
 66
  1
 70
  1
 62
  7
 10
3.566054
 20
2.921763
 30
0.000000
  0
VERTEX
  8
LAYER-1
 10
3.566054
 20
2.921763
 30
0.000000
  0
VERTEX
  8
LAYER-1
 10
3.643789
 20
2.989606
 30
0.000000
  0
VERTEX
  8
LAYER-1
 10
3.467958
 20
3.050030
 30
0.000000
  0
SEQEND
  8
LAYER-1
  0
POLYLINE
  8
LAYER-1
 66
  1
 70
  1
 62
  7
 10
4.169260
 20
2.202555
 30
0.000000
  0
VERTEX
  8
LAYER-1
 10
4.169260
 20
2.202555
 30
0.000000
  0
VERTEX
  8
LAYER-1
 10
4.246994
 20
2.270399
 30
0.000000
  0
VERTEX
  8
LAYER-1
 10
4.071163
 20
2.330822
 30
0.000000
  0
SEQEND
  8
LAYER-1
  0
POLYLINE
  8
LAYER-1
 66
  1
 70
  1
 62
  7
 10
4.718330
 20
2.975897
 30
0.000000
  0
VERTEX
  8
LAYER-1
 10
4.718330
 20
2.975897
 30
0.000000
  0
VERTEX
  8
LAYER-1
 10
4.796066
 20
3.043739
 30
0.000000
  0
VERTEX
  8
LAYER-1
 10
4.620236
 20
3.104164
 30
0.000000
  0
SEQEND
  8
LAYER-1
  0
POLYLINE
  8
LAYER-1
 66
  1
 70
  1
 62
  7
 10
4.157078
 20
3.120890
 30
0.000000
  0
VERTEX
  8
LAYER-1
 10
4.157078
 20
3.120890
 30
0.000000
  0
VERTEX
  8
LAYER-1
 10
4.056544
 20
3.144091
 30
0.000000
  0
VERTEX
  8
LAYER-1
 10
4.110678
 20
2.966222
 30
0.000000
  0
SEQEND
  8
LAYER-1
  0
POLYLINE
  8
LAYER-1
 66
  1
 70
  1
 62
  7
 10
4.389080
 20
1.674744
 30
0.000000
  0
VERTEX
  8
LAYER-1
 10
4.389080
 20
1.674744
 30
0.000000
  0
VERTEX
  8
LAYER-1
 10
4.288546
 20
1.697943
 30
0.000000
  0
VERTEX
  8
LAYER-1
 10
4.342679
 20
1.520075
 30
0.000000
  0
SEQEND
  8
LAYER-1
  0
POLYLINE
  8
LAYER-1
 66
  1
 70
  1
 62
  7
 10
3.468571
 20
1.623712
 30
0.000000
  0
VERTEX
  8
LAYER-1
 10
3.468571
 20
1.623712
 30
0.000000
  0
VERTEX
  8
LAYER-1
 10
3.493837
 20
1.523678
 30
0.000000
  0
VERTEX
  8
LAYER-1
 10
3.627360
 20
1.653059
 30
0.000000
  0
SEQEND
  8
LAYER-1
  0
POLYLINE
  8
LAYER-1
 66
  1
 70
  1
 62
  7
 10
4.690682
 20
1.373140
 30
0.000000
  0
VERTEX
  8
LAYER-1
 10
4.690682
 20
1.373140
 30
0.000000
  0
VERTEX
  8
LAYER-1
 10
4.768418
 20
1.440984
 30
0.000000
  0
VERTEX
  8
LAYER-1
 10
4.592586
 20
1.501407
 30
0.000000
  0
SEQEND
  8
LAYER-1
  0
POLYLINE
  8
LAYER-1
 66
  1
 70
  1
 62
  7
 10
4.435480
 20
3.360626
 30
0.000000
  0
VERTEX
  8
LAYER-1
 10
4.435480
 20
3.360626
 30
0.000000
  0
VERTEX
  8
LAYER-1
 10
4.460748
 20
3.260591
 30
0.000000
  0
VERTEX
  8
LAYER-1
 10
4.594269
 20
3.389973
 30
0.000000
  0
SEQEND
  8
LAYER-1
  0
POLYLINE
  8
LAYER-1
 66
  1
 70
  1
 62
  7
 10
4.636549
 20
2.324350
 30
0.000000
  0
VERTEX
  8
LAYER-1
 10
4.636549
 20
2.324350
 30
0.000000
  0
VERTEX
  8
LAYER-1
 10
4.661817
 20
2.224315
 30
0.000000
  0
VERTEX
  8
LAYER-1
 10
4.795337
 20
2.353696
 30
0.000000
  0
SEQEND
  8
LAYER-1
  0
POLYLINE
  8
LAYER-1
 66
  1
 70
  1
 62
  7
 10
3.476537
 20
2.200615
 30
0.000000
  0
VERTEX
  8
LAYER-1
 10
3.476537
 20
2.200615
 30
0.000000
  0
VERTEX
  8
LAYER-1
 10
3.376004
 20
2.223815
 30
0.000000
  0
VERTEX
  8
LAYER-1
 10
3.430138
 20
2.045947
 30
0.000000
  0
SEQEND
  8
LAYER-1
  0
POLYLINE
  8
LAYER-1
 66
  1
 70
  1
 62
  7
 10
0.416947
 20
1.321703
 30
0.000000
  0
VERTEX
  8
LAYER-1
 10
0.416947
 20
1.321703
 30
0.000000
  0
VERTEX
  8
LAYER-1
 10
0.494682
 20
1.389546
 30
0.000000
  0
VERTEX
  8
LAYER-1
 10
0.318850
 20
1.449970
 30
0.000000
  0
SEQEND
  8
LAYER-1
  0
POLYLINE
  8
LAYER-1
 66
  1
 70
  1
 62
  7
 10
1.897313
 20
3.137113
 30
0.000000
  0
VERTEX
  8
LAYER-1
 10
1.897313
 20
3.137113
 30
0.000000
  0
VERTEX
  8
LAYER-1
 10
1.975047
 20
3.204957
 30
0.000000
  0
VERTEX
  8
LAYER-1
 10
1.799217
 20
3.265380
 30
0.000000
  0
SEQEND
  8
LAYER-1
  0
POLYLINE
  8
LAYER-1
 66
  1
 70
  1
 62
  7
 10
0.412499
 20
3.229915
 30
0.000000
  0
VERTEX
  8
LAYER-1
 10
0.412499
 20
3.229915
 30
0.000000
  0
VERTEX
  8
LAYER-1
 10
0.437766
 20
3.129879
 30
0.000000
  0
VERTEX
  8
LAYER-1
 10
0.571287
 20
3.259261
 30
0.000000
  0
SEQEND
  8
LAYER-1
  0
POLYLINE
  8
LAYER-1
 66
  1
 70
  1
 62
  7
 10
1.147173
 20
3.129380
 30
0.000000
  0
VERTEX
  8
LAYER-1
 10
1.147173
 20
3.129380
 30
0.000000
  0
VERTEX
  8
LAYER-1
 10
1.046638
 20
3.152580
 30
0.000000
  0
VERTEX
  8
LAYER-1
 10
1.100773
 20
2.974711
 30
0.000000
  0
SEQEND
  8
LAYER-1
  0
POLYLINE
  8
LAYER-1
 66
  1
 70
  1
 62
  7
 10
0.546177
 20
2.107937
 30
0.000000
  0
VERTEX
  8
LAYER-1
 10
0.546177
 20
2.107937
 30
0.000000
  0
VERTEX
  8
LAYER-1
 10
0.445643
 20
2.131138
 30
0.000000
  0
VERTEX
  8
LAYER-1
 10
0.499777
 20
1.953269
 30
0.000000
  0
SEQEND
  8
LAYER-1
  0
POLYLINE
  8
LAYER-1
 66
  1
 70
  1
 62
  7
 10
1.023438
 20
1.304295
 30
0.000000
  0
VERTEX
  8
LAYER-1
 10
1.023438
 20
1.304295
 30
0.000000
  0
VERTEX
  8
LAYER-1
 10
0.922904
 20
1.327496
 30
0.000000
  0
VERTEX
  8
LAYER-1
 10
0.977037
 20
1.149628
 30
0.000000
  0
SEQEND
  8
LAYER-1
  0
POLYLINE
  8
LAYER-1
  6
LTYPE01
 66
  1
 70
  1
 62
  7
  0
VERTEX
  8
LAYER-1
  6
LTYPE01
 10
2.350027
 20
1.989140
 30
0.000000
  0
VERTEX
  8
LAYER-1
  6
LTYPE01
 10
2.879403
 20
1.989140
 30
0.000000
  0
VERTEX
  8
LAYER-1
  6
LTYPE01
 10
2.879403
 20
1.187056
 30
0.000000
  0
VERTEX
  8
LAYER-1
  6
LTYPE01
 10
2.350027
 20
1.187056
 30
0.000000
  0
SEQEND
  8
LAYER-1
  0
TEXT
  8
LAYER-1
 62
  7
 10
2.511752
 20
0.294727
 30
0.000000
 40
0.122596
  1
3/4"
 72
  5
 11
2.838675
 21
0.294727
 31
0.000000
  0
POLYLINE
  8
LAYER-1
  6
LTYPE02
 66
  1
 70
  1
 62
  7
  6
LTYPE02
 10
2.904145
 20
2.580904
 30
0.000000
  0
VERTEX
  8
LAYER-1
  6
LTYPE02
 10
2.904145
 20
2.580904
 30
0.000000
  0
VERTEX
  8
LAYER-1
  6
LTYPE02
 10
2.331109
 20
2.580904
 30
0.000000
  0
VERTEX
  8
LAYER-1
  6
LTYPE02
 10
2.331109
 20
2.512726
 30
0.000000
  0
VERTEX
  8
LAYER-1
  6
LTYPE02
 10
2.271016
 20
2.512726
 30
0.000000
  0
VERTEX
  8
LAYER-1
  6
LTYPE02
 10
2.271016
 20
1.991373
 30
0.000000
  0
VERTEX
  8
LAYER-1
  6
LTYPE02
 10
2.952788
 20
1.991373
 30
0.000000
  0
VERTEX
  8
LAYER-1
  6
LTYPE02
 10
2.952788
 20
2.512726
 30
0.000000
  0
VERTEX
  8
LAYER-1
  6
LTYPE02
 10
2.904145
 20
2.512726
 30
0.000000
  0
SEQEND
  8
LAYER-1
  0
POLYLINE
  8
LAYER-1
 66
  1
 70
  1
 62
254
 10
2.350027
 20
1.187056
 30
0.000000
  0
VERTEX
  8
LAYER-1
 10
2.350027
 20
1.187056
 30
0.000000
  0
VERTEX
  8
LAYER-1
 10
2.350027
 20
1.199086
 30
0.000000
  0
VERTEX
  8
LAYER-1
 10
2.879403
 20
1.243202
 30
0.000000
  0
VERTEX
  8
LAYER-1
 10
2.879403
 20
1.219140
 30
0.000000
  0
VERTEX
  8
LAYER-1
 10
2.525484
 20
1.187056
 30
0.000000
  0
SEQEND
  8
LAYER-1
  0
POLYLINE
  8
LAYER-1
  6
LTYPE02
 66
  1
 70
  0
 62
  7
  6
LTYPE02
 10
2.879403
 20
1.219140
 30
0.000000
  0
VERTEX
  8
LAYER-1
  6
LTYPE02
 10
2.879403
 20
1.219140
 30
0.000000
  0
VERTEX
  8
LAYER-1
  6
LTYPE02
 10
2.525484
 20
1.187056
 30
0.000000
  0
SEQEND
  8
LAYER-1
  0
POLYLINE
  8
LAYER-1
  6
LTYPE02
 66
  1
 70
  0
 62
  7
  6
LTYPE02
 10
2.879403
 20
1.243202
 30
0.000000
  0
VERTEX
  8
LAYER-1
  6
LTYPE02
 10
2.879403
 20
1.243202
 30
0.000000
  0
VERTEX
  8
LAYER-1
  6
LTYPE02
 10
2.350027
 20
1.199086
 30
0.000000
  0
SEQEND
  8
LAYER-1
  0
POLYLINE
  8
LAYER-1
 66
  1
 70
  1
 62
254
 10
2.350027
 20
1.250219
 30
0.000000
  0
VERTEX
  8
LAYER-1
 10
2.350027
 20
1.250219
 30
0.000000
  0
VERTEX
  8
LAYER-1
 10
2.350027
 20
1.278293
 30
0.000000
  0
VERTEX
  8
LAYER-1
 10
2.879403
 20
1.322407
 30
0.000000
  0
VERTEX
  8
LAYER-1
 10
2.879403
 20
1.298344
 30
0.000000
  0
SEQEND
  8
LAYER-1
  0
POLYLINE
  8
LAYER-1
  6
LTYPE02
 66
  1
 70
  0
 62
  7
  6
LTYPE02
 10
2.879403
 20
1.298344
 30
0.000000
  0
VERTEX
  8
LAYER-1
  6
LTYPE02
 10
2.879403
 20
1.298344
 30
0.000000
  0
VERTEX
  8
LAYER-1
  6
LTYPE02
 10
2.350027
 20
1.250219
 30
0.000000
  0
SEQEND
  8
LAYER-1
  0
POLYLINE
  8
LAYER-1
  6
LTYPE02
 66
  1
 70
  0
 62
  7
  6
LTYPE02
 10
2.879403
 20
1.322407
 30
0.000000
  0
VERTEX
  8
LAYER-1
  6
LTYPE02
 10
2.879403
 20
1.322407
 30
0.000000
  0
VERTEX
  8
LAYER-1
  6
LTYPE02
 10
2.350027
 20
1.278293
 30
0.000000
  0
SEQEND
  8
LAYER-1
  0
POLYLINE
  8
LAYER-1
 66
  1
 70
  1
 62
254
 10
2.350027
 20
1.326418
 30
0.000000
  0
VERTEX
  8
LAYER-1
 10
2.350027
 20
1.326418
 30
0.000000
  0
VERTEX
  8
LAYER-1
 10
2.350027
 20
1.354490
 30
0.000000
  0
VERTEX
  8
LAYER-1
 10
2.879403
 20
1.398605
 30
0.000000
  0
VERTEX
  8
LAYER-1
 10
2.879403
 20
1.374543
 30
0.000000
  0
SEQEND
  8
LAYER-1
  0
POLYLINE
  8
LAYER-1
 66
  1
 70
  1
 62
254
 10
2.349023
 20
1.462771
 30
0.000000
  0
VERTEX
  8
LAYER-1
 10
2.349023
 20
1.462771
 30
0.000000
  0
VERTEX
  8
LAYER-1
 10
2.349023
 20
1.490845
 30
0.000000
  0
VERTEX
  8
LAYER-1
 10
2.878401
 20
1.534960
 30
0.000000
  0
VERTEX
  8
LAYER-1
 10
2.878401
 20
1.510898
 30
0.000000
  0
SEQEND
  8
LAYER-1
  0
POLYLINE
  8
LAYER-1
 66
  1
 70
  1
 62
254
 10
2.349023
 20
1.541977
 30
0.000000
  0
VERTEX
  8
LAYER-1
 10
2.349023
 20
1.541977
 30
0.000000
  0
VERTEX
  8
LAYER-1
 10
2.349023
 20
1.570050
 30
0.000000
  0
VERTEX
  8
LAYER-1
 10
2.878401
 20
1.614166
 30
0.000000
  0
VERTEX
  8
LAYER-1
 10
2.878401
 20
1.590104
 30
0.000000
  0
SEQEND
  8
LAYER-1
  0
POLYLINE
  8
LAYER-1
 66
  1
 70
  1
 62
254
 10
2.349023
 20
1.618175
 30
0.000000
  0
VERTEX
  8
LAYER-1
 10
2.349023
 20
1.618175
 30
0.000000
  0
VERTEX
  8
LAYER-1
 10
2.349023
 20
1.646249
 30
0.000000
  0
VERTEX
  8
LAYER-1
 10
2.878401
 20
1.690363
 30
0.000000
  0
VERTEX
  8
LAYER-1
 10
2.878401
 20
1.666301
 30
0.000000
  0
SEQEND
  8
LAYER-1
  0
POLYLINE
  8
LAYER-1
 66
  1
 70
  1
 62
254
 10
2.349023
 20
1.692368
 30
0.000000
  0
VERTEX
  8
LAYER-1
 10
2.349023
 20
1.692368
 30
0.000000
  0
VERTEX
  8
LAYER-1
 10
2.349023
 20
1.720442
 30
0.000000
  0
VERTEX
  8
LAYER-1
 10
2.878401
 20
1.764555
 30
0.000000
  0
VERTEX
  8
LAYER-1
 10
2.878401
 20
1.740493
 30
0.000000
  0
SEQEND
  8
LAYER-1
  0
POLYLINE
  8
LAYER-1
 66
  1
 70
  1
 62
254
 10
2.350027
 20
1.761548
 30
0.000000
  0
VERTEX
  8
LAYER-1
 10
2.350027
 20
1.761548
 30
0.000000
  0
VERTEX
  8
LAYER-1
 10
2.350027
 20
1.789620
 30
0.000000
  0
VERTEX
  8
LAYER-1
 10
2.879403
 20
1.833737
 30
0.000000
  0
VERTEX
  8
LAYER-1
 10
2.879403
 20
1.809674
 30
0.000000
  0
SEQEND
  8
LAYER-1
  0
POLYLINE
  8
LAYER-1
 66
  1
 70
  1
 62
254
 10
2.350027
 20
1.840753
 30
0.000000
  0
VERTEX
  8
LAYER-1
 10
2.350027
 20
1.840753
 30
0.000000
  0
VERTEX
  8
LAYER-1
 10
2.350027
 20
1.868825
 30
0.000000
  0
VERTEX
  8
LAYER-1
 10
2.879403
 20
1.912941
 30
0.000000
  0
VERTEX
  8
LAYER-1
 10
2.879403
 20
1.888878
 30
0.000000
  0
SEQEND
  8
LAYER-1
  0
POLYLINE
  8
LAYER-1
 66
  1
 70
  1
 62
254
 10
2.350027
 20
1.916952
 30
0.000000
  0
VERTEX
  8
LAYER-1
 10
2.350027
 20
1.916952
 30
0.000000
  0
VERTEX
  8
LAYER-1
 10
2.350027
 20
1.945024
 30
0.000000
  0
VERTEX
  8
LAYER-1
 10
2.879403
 20
1.989140
 30
0.000000
  0
VERTEX
  8
LAYER-1
 10
2.879403
 20
1.965077
 30
0.000000
  0
SEQEND
  8
LAYER-1
  0
POLYLINE
  8
LAYER-1
  6
LTYPE02
 66
  1
 70
  0
 62
  7
  6
LTYPE02
 10
2.879403
 20
1.374543
 30
0.000000
  0
VERTEX
  8
LAYER-1
  6
LTYPE02
 10
2.879403
 20
1.374543
 30
0.000000
  0
VERTEX
  8
LAYER-1
  6
LTYPE02
 10
2.350027
 20
1.326418
 30
0.000000
  0
SEQEND
  8
LAYER-1
  0
POLYLINE
  8
LAYER-1
  6
LTYPE02
 66
  1
 70
  0
 62
  7
  6
LTYPE02
 10
2.879403
 20
1.398605
 30
0.000000
  0
VERTEX
  8
LAYER-1
  6
LTYPE02
 10
2.879403
 20
1.398605
 30
0.000000
  0
VERTEX
  8
LAYER-1
  6
LTYPE02
 10
2.350027
 20
1.354490
 30
0.000000
  0
SEQEND
  8
LAYER-1
  0
POLYLINE
  8
LAYER-1
 66
  1
 70
  1
 62
254
 10
2.348022
 20
1.393592
 30
0.000000
  0
VERTEX
  8
LAYER-1
 10
2.348022
 20
1.393592
 30
0.000000
  0
VERTEX
  8
LAYER-1
 10
2.348022
 20
1.421664
 30
0.000000
  0
VERTEX
  8
LAYER-1
 10
2.877399
 20
1.465780
 30
0.000000
  0
VERTEX
  8
LAYER-1
 10
2.877399
 20
1.441717
 30
0.000000
  0
SEQEND
  8
LAYER-1
  0
POLYLINE
  8
LAYER-1
  6
LTYPE02
 66
  1
 70
  0
 62
  7
  6
LTYPE02
 10
2.877399
 20
1.441717
 30
0.000000
  0
VERTEX
  8
LAYER-1
  6
LTYPE02
 10
2.877399
 20
1.441717
 30
0.000000
  0
VERTEX
  8
LAYER-1
  6
LTYPE02
 10
2.348022
 20
1.393592
 30
0.000000
  0
SEQEND
  8
LAYER-1
  0
POLYLINE
  8
LAYER-1
  6
LTYPE02
 66
  1
 70
  0
 62
  7
  6
LTYPE02
 10
2.877399
 20
1.465780
 30
0.000000
  0
VERTEX
  8
LAYER-1
  6
LTYPE02
 10
2.877399
 20
1.465780
 30
0.000000
  0
VERTEX
  8
LAYER-1
  6
LTYPE02
 10
2.348022
 20
1.421664
 30
0.000000
  0
SEQEND
  8
LAYER-1
  0
POLYLINE
  8
LAYER-1
  6
LTYPE02
 66
  1
 70
  0
 62
  7
  6
LTYPE02
 10
2.878401
 20
1.510898
 30
0.000000
  0
VERTEX
  8
LAYER-1
  6
LTYPE02
 10
2.878401
 20
1.510898
 30
0.000000
  0
VERTEX
  8
LAYER-1
  6
LTYPE02
 10
2.349023
 20
1.462771
 30
0.000000
  0
SEQEND
  8
LAYER-1
  0
POLYLINE
  8
LAYER-1
  6
LTYPE02
 66
  1
 70
  0
 62
  7
  6
LTYPE02
 10
2.878401
 20
1.534960
 30
0.000000
  0
VERTEX
  8
LAYER-1
  6
LTYPE02
 10
2.878401
 20
1.534960
 30
0.000000
  0
VERTEX
  8
LAYER-1
  6
LTYPE02
 10
2.349023
 20
1.490845
 30
0.000000
  0
SEQEND
  8
LAYER-1
  0
POLYLINE
  8
LAYER-1
  6
LTYPE02
 66
  1
 70
  0
 62
  7
  6
LTYPE02
 10
2.878401
 20
1.590104
 30
0.000000
  0
VERTEX
  8
LAYER-1
  6
LTYPE02
 10
2.878401
 20
1.590104
 30
0.000000
  0
VERTEX
  8
LAYER-1
  6
LTYPE02
 10
2.349023
 20
1.541977
 30
0.000000
  0
SEQEND
  8
LAYER-1
  0
POLYLINE
  8
LAYER-1
  6
LTYPE02
 66
  1
 70
  0
 62
  7
  6
LTYPE02
 10
2.878401
 20
1.614166
 30
0.000000
  0
VERTEX
  8
LAYER-1
  6
LTYPE02
 10
2.878401
 20
1.614166
 30
0.000000
  0
VERTEX
  8
LAYER-1
  6
LTYPE02
 10
2.349023
 20
1.570050
 30
0.000000
  0
SEQEND
  8
LAYER-1
  0
POLYLINE
  8
LAYER-1
  6
LTYPE02
 66
  1
 70
  0
 62
  7
  6
LTYPE02
 10
2.878401
 20
1.666301
 30
0.000000
  0
VERTEX
  8
LAYER-1
  6
LTYPE02
 10
2.878401
 20
1.666301
 30
0.000000
  0
VERTEX
  8
LAYER-1
  6
LTYPE02
 10
2.349023
 20
1.618175
 30
0.000000
  0
SEQEND
  8
LAYER-1
  0
POLYLINE
  8
LAYER-1
  6
LTYPE02
 66
  1
 70
  0
 62
  7
  6
LTYPE02
 10
2.878401
 20
1.690363
 30
0.000000
  0
VERTEX
  8
LAYER-1
  6
LTYPE02
 10
2.878401
 20
1.690363
 30
0.000000
  0
VERTEX
  8
LAYER-1
  6
LTYPE02
 10
2.349023
 20
1.646249
 30
0.000000
  0
SEQEND
  8
LAYER-1
  0
POLYLINE
  8
LAYER-1
  6
LTYPE02
 66
  1
 70
  0
 62
  7
  6
LTYPE02
 10
2.878401
 20
1.764555
 30
0.000000
  0
VERTEX
  8
LAYER-1
  6
LTYPE02
 10
2.878401
 20
1.764555
 30
0.000000
  0
VERTEX
  8
LAYER-1
  6
LTYPE02
 10
2.349023
 20
1.720442
 30
0.000000
  0
SEQEND
  8
LAYER-1
  0
POLYLINE
  8
LAYER-1
  6
LTYPE02
 66
  1
 70
  0
 62
  7
  6
LTYPE02
 10
2.878401
 20
1.740493
 30
0.000000
  0
VERTEX
  8
LAYER-1
  6
LTYPE02
 10
2.878401
 20
1.740493
 30
0.000000
  0
VERTEX
  8
LAYER-1
  6
LTYPE02
 10
2.349023
 20
1.692368
 30
0.000000
  0
SEQEND
  8
LAYER-1
  0
POLYLINE
  8
LAYER-1
  6
LTYPE02
 66
  1
 70
  0
 62
  7
  6
LTYPE02
 10
2.879403
 20
1.809674
 30
0.000000
  0
VERTEX
  8
LAYER-1
  6
LTYPE02
 10
2.879403
 20
1.809674
 30
0.000000
  0
VERTEX
  8
LAYER-1
  6
LTYPE02
 10
2.350027
 20
1.761548
 30
0.000000
  0
SEQEND
  8
LAYER-1
  0
POLYLINE
  8
LAYER-1
  6
LTYPE02
 66
  1
 70
  0
 62
  7
  6
LTYPE02
 10
2.879403
 20
1.833737
 30
0.000000
  0
VERTEX
  8
LAYER-1
  6
LTYPE02
 10
2.879403
 20
1.833737
 30
0.000000
  0
VERTEX
  8
LAYER-1
  6
LTYPE02
 10
2.350027
 20
1.789620
 30
0.000000
  0
SEQEND
  8
LAYER-1
  0
POLYLINE
  8
LAYER-1
  6
LTYPE02
 66
  1
 70
  0
 62
  7
  6
LTYPE02
 10
2.879403
 20
1.888878
 30
0.000000
  0
VERTEX
  8
LAYER-1
  6
LTYPE02
 10
2.879403
 20
1.888878
 30
0.000000
  0
VERTEX
  8
LAYER-1
  6
LTYPE02
 10
2.350027
 20
1.840753
 30
0.000000
  0
SEQEND
  8
LAYER-1
  0
POLYLINE
  8
LAYER-1
  6
LTYPE02
 66
  1
 70
  0
 62
  7
  6
LTYPE02
 10
2.879403
 20
1.912941
 30
0.000000
  0
VERTEX
  8
LAYER-1
  6
LTYPE02
 10
2.879403
 20
1.912941
 30
0.000000
  0
VERTEX
  8
LAYER-1
  6
LTYPE02
 10
2.350027
 20
1.868825
 30
0.000000
  0
SEQEND
  8
LAYER-1
  0
POLYLINE
  8
LAYER-1
  6
LTYPE02
 66
  1
 70
  0
 62
  7
  6
LTYPE02
 10
2.879403
 20
1.965077
 30
0.000000
  0
VERTEX
  8
LAYER-1
  6
LTYPE02
 10
2.879403
 20
1.965077
 30
0.000000
  0
VERTEX
  8
LAYER-1
  6
LTYPE02
 10
2.350027
 20
1.916952
 30
0.000000
  0
SEQEND
  8
LAYER-1
  0
POLYLINE
  8
LAYER-1
  6
LTYPE02
 66
  1
 70
  0
 62
  7
  6
LTYPE02
 10
2.879403
 20
1.989140
 30
0.000000
  0
VERTEX
  8
LAYER-1
  6
LTYPE02
 10
2.879403
 20
1.989140
 30
0.000000
  0
VERTEX
  8
LAYER-1
  6
LTYPE02
 10
2.350027
 20
1.945024
 30
0.000000
  0
SEQEND
  8
LAYER-1
  0
POLYLINE
  8
LAYER-1
 66
  1
 70
  0
 62
  7
 10
2.179749
 20
3.686007
 30
0.000000
  0
VERTEX
  8
LAYER-1
 10
2.179749
 20
3.686007
 30
0.000000
  0
VERTEX
  8
LAYER-1
 10
2.252667
 20
3.758925
 30
0.000000
  0
SEQEND
  8
LAYER-1
  0
POLYLINE
  8
LAYER-1
 66
  1
 70
  0
 62
  7
 10
2.179749
 20
3.061008
 30
0.000000
  0
VERTEX
  8
LAYER-1
 10
2.179749
 20
3.061008
 30
0.000000
  0
VERTEX
  8
LAYER-1
 10
2.252667
 20
3.133924
 30
0.000000
  0
SEQEND
  8
LAYER-1
  0
POLYLINE
  8
LAYER-1
 66
  1
 70
  0
 62
  7
 10
2.179749
 20
2.436008
 30
0.000000
  0
VERTEX
  8
LAYER-1
 10
2.179749
 20
2.436008
 30
0.000000
  0
VERTEX
  8
LAYER-1
 10
2.252667
 20
2.508924
 30
0.000000
  0
SEQEND
  8
LAYER-1
  0
POLYLINE
  8
LAYER-1
 66
  1
 70
  0
 62
  7
 10
2.179749
 20
1.811008
 30
0.000000
  0
VERTEX
  8
LAYER-1
 10
2.179749
 20
1.811008
 30
0.000000
  0
VERTEX
  8
LAYER-1
 10
2.252667
 20
1.883924
 30
0.000000
  0
SEQEND
  8
LAYER-1
  0
POLYLINE
  8
LAYER-1
 66
  1
 70
  0
 62
  7
 10
2.179749
 20
1.186008
 30
0.000000
  0
VERTEX
  8
LAYER-1
 10
2.179749
 20
1.186008
 30
0.000000
  0
VERTEX
  8
LAYER-1
 10
2.252667
 20
1.258924
 30
0.000000
  0
SEQEND
  8
LAYER-1
  0
POLYLINE
  8
LAYER-1
 66
  1
 70
  0
 62
  7
 10
2.179749
 20
3.654757
 30
0.000000
  0
VERTEX
  8
LAYER-1
 10
2.179749
 20
3.654757
 30
0.000000
  0
VERTEX
  8
LAYER-1
 10
2.252667
 20
3.727675
 30
0.000000
  0
SEQEND
  8
LAYER-1
  0
POLYLINE
  8
LAYER-1
 66
  1
 70
  0
 62
  7
 10
2.179749
 20
3.029758
 30
0.000000
  0
VERTEX
  8
LAYER-1
 10
2.179749
 20
3.029758
 30
0.000000
  0
VERTEX
  8
LAYER-1
 10
2.252667
 20
3.102674
 30
0.000000
  0
SEQEND
  8
LAYER-1
  0
POLYLINE
  8
LAYER-1
 66
  1
 70
  0
 62
  7
 10
2.179749
 20
2.404758
 30
0.000000
  0
VERTEX
  8
LAYER-1
 10
2.179749
 20
2.404758
 30
0.000000
  0
VERTEX
  8
LAYER-1
 10
2.252667
 20
2.477674
 30
0.000000
  0
SEQEND
  8
LAYER-1
  0
POLYLINE
  8
LAYER-1
 66
  1
 70
  0
 62
  7
 10
2.179749
 20
1.779758
 30
0.000000
  0
VERTEX
  8
LAYER-1
 10
2.179749
 20
1.779758
 30
0.000000
  0
VERTEX
  8
LAYER-1
 10
2.252667
 20
1.852674
 30
0.000000
  0
SEQEND
  8
LAYER-1
  0
POLYLINE
  8
LAYER-1
 66
  1
 70
  0
 62
  7
 10
2.179749
 20
1.154758
 30
0.000000
  0
VERTEX
  8
LAYER-1
 10
2.179749
 20
1.154758
 30
0.000000
  0
VERTEX
  8
LAYER-1
 10
2.252667
 20
1.227674
 30
0.000000
  0
SEQEND
  8
LAYER-1
  0
POLYLINE
  8
LAYER-1
 66
  1
 70
  0
 62
  7
 10
2.974889
 20
3.821426
 30
0.000000
  0
VERTEX
  8
LAYER-1
 10
2.974889
 20
3.821426
 30
0.000000
  0
VERTEX
  8
LAYER-1
 10
3.047806
 20
3.894343
 30
0.000000
  0
SEQEND
  8
LAYER-1
  0
POLYLINE
  8
LAYER-1
 66
  1
 70
  0
 62
  7
 10
2.974889
 20
3.196426
 30
0.000000
  0
VERTEX
  8
LAYER-1
 10
2.974889
 20
3.196426
 30
0.000000
  0
VERTEX
  8
LAYER-1
 10
3.047806
 20
3.269343
 30
0.000000
  0
SEQEND
  8
LAYER-1
  0
POLYLINE
  8
LAYER-1
 66
  1
 70
  0
 62
  7
 10
2.974889
 20
2.571426
 30
0.000000
  0
VERTEX
  8
LAYER-1
 10
2.974889
 20
2.571426
 30
0.000000
  0
VERTEX
  8
LAYER-1
 10
3.047806
 20
2.644343
 30
0.000000
  0
SEQEND
  8
LAYER-1
  0
POLYLINE
  8
LAYER-1
 66
  1
 70
  0
 62
  7
 10
2.974889
 20
1.946426
 30
0.000000
  0
VERTEX
  8
LAYER-1
 10
2.974889
 20
1.946426
 30
0.000000
  0
VERTEX
  8
LAYER-1
 10
3.047806
 20
2.019343
 30
0.000000
  0
SEQEND
  8
LAYER-1
  0
POLYLINE
  8
LAYER-1
 66
  1
 70
  0
 62
  7
 10
2.974889
 20
1.321426
 30
0.000000
  0
VERTEX
  8
LAYER-1
 10
2.974889
 20
1.321426
 30
0.000000
  0
VERTEX
  8
LAYER-1
 10
3.047806
 20
1.394343
 30
0.000000
  0
SEQEND
  8
LAYER-1
  0
POLYLINE
  8
LAYER-1
 66
  1
 70
  0
 62
  7
 10
2.974889
 20
3.790176
 30
0.000000
  0
VERTEX
  8
LAYER-1
 10
2.974889
 20
3.790176
 30
0.000000
  0
VERTEX
  8
LAYER-1
 10
3.047806
 20
3.863093
 30
0.000000
  0
SEQEND
  8
LAYER-1
  0
POLYLINE
  8
LAYER-1
 66
  1
 70
  0
 62
  7
 10
2.974889
 20
3.165176
 30
0.000000
  0
VERTEX
  8
LAYER-1
 10
2.974889
 20
3.165176
 30
0.000000
  0
VERTEX
  8
LAYER-1
 10
3.047806
 20
3.238093
 30
0.000000
  0
SEQEND
  8
LAYER-1
  0
POLYLINE
  8
LAYER-1
 66
  1
 70
  0
 62
  7
 10
2.974889
 20
2.540176
 30
0.000000
  0
VERTEX
  8
LAYER-1
 10
2.974889
 20
2.540176
 30
0.000000
  0
VERTEX
  8
LAYER-1
 10
3.047806
 20
2.613093
 30
0.000000
  0
SEQEND
  8
LAYER-1
  0
POLYLINE
  8
LAYER-1
 66
  1
 70
  0
 62
  7
 10
2.974889
 20
1.915176
 30
0.000000
  0
VERTEX
  8
LAYER-1
 10
2.974889
 20
1.915176
 30
0.000000
  0
VERTEX
  8
LAYER-1
 10
3.047806
 20
1.988093
 30
0.000000
  0
SEQEND
  8
LAYER-1
  0
POLYLINE
  8
LAYER-1
 66
  1
 70
  0
 62
  7
 10
2.974889
 20
1.290176
 30
0.000000
  0
VERTEX
  8
LAYER-1
 10
2.974889
 20
1.290176
 30
0.000000
  0
VERTEX
  8
LAYER-1
 10
3.047806
 20
1.363093
 30
0.000000
  0
SEQEND
  8
LAYER-1
  0
POLYLINE
  8
LAYER-1
 66
  1
 70
  0
 62
  7
 10
2.679751
 20
1.036703
 30
0.000000
  0
VERTEX
  8
LAYER-1
 10
2.679751
 20
1.036703
 30
0.000000
  0
VERTEX
  8
LAYER-1
 10
2.825586
 20
1.182537
 30
0.000000
  0
SEQEND
  8
LAYER-1
  0
POLYLINE
  8
LAYER-1
 66
  1
 70
  0
 62
  7
 10
2.721419
 20
1.040175
 30
0.000000
  0
VERTEX
  8
LAYER-1
 10
2.721419
 20
1.040175
 30
0.000000
  0
VERTEX
  8
LAYER-1
 10
2.863780
 20
1.182537
 30
0.000000
  0
SEQEND
  8
LAYER-1
  0
POLYLINE
  8
LAYER-1
 66
  1
 70
  0
 62
  7
 10
1.292683
 20
2.309402
 30
0.000000
  0
VERTEX
  8
LAYER-1
 10
1.292683
 20
2.309402
 30
0.000000
  0
VERTEX
  8
LAYER-1
 10
1.293639
 20
2.314177
 30
0.000000
  0
VERTEX
  8
LAYER-1
 10
1.300323
 20
2.317041
 30
0.000000
  0
VERTEX
  8
LAYER-1
 10
1.302233
 20
2.322770
 30
0.000000
  0
VERTEX
  8
LAYER-1
 10
1.303187
 20
2.328499
 30
0.000000
  0
VERTEX
  8
LAYER-1
 10
1.297458
 20
2.333274
 30
0.000000
  0
VERTEX
  8
LAYER-1
 10
1.291729
 20
2.335183
 30
0.000000
  0
VERTEX
  8
LAYER-1
 10
1.285999
 20
2.336139
 30
0.000000
  0
VERTEX
  8
LAYER-1
 10
1.280271
 20
2.339958
 30
0.000000
  0
VERTEX
  8
LAYER-1
 10
1.274541
 20
2.339958
 30
0.000000
  0
VERTEX
  8
LAYER-1
 10
1.268812
 20
2.336139
 30
0.000000
  0
VERTEX
  8
LAYER-1
 10
1.265947
 20
2.330409
 30
0.000000
  0
VERTEX
  8
LAYER-1
 10
1.264038
 20
2.324681
 30
0.000000
  0
VERTEX
  8
LAYER-1
 10
1.264038
 20
2.318951
 30
0.000000
  0
VERTEX
  8
LAYER-1
 10
1.268812
 20
2.313221
 30
0.000000
  0
VERTEX
  8
LAYER-1
 10
1.273587
 20
2.306538
 30
0.000000
  0
VERTEX
  8
LAYER-1
 10
1.278361
 20
2.303673
 30
0.000000
  0
VERTEX
  8
LAYER-1
 10
1.284089
 20
2.302719
 30
0.000000
  0
VERTEX
  8
LAYER-1
 10
1.289819
 20
2.304628
 30
0.000000
  0
VERTEX
  8
LAYER-1
 10
1.292683
 20
2.310358
 30
0.000000
  0
SEQEND
  8
LAYER-1
  0
POLYLINE
  8
LAYER-1
 66
  1
 70
  0
 62
  7
 10
0.973760
 20
2.668429
 30
0.000000
  0
VERTEX
  8
LAYER-1
 10
0.973760
 20
2.668429
 30
0.000000
  0
VERTEX
  8
LAYER-1
 10
0.979489
 20
2.673204
 30
0.000000
  0
VERTEX
  8
LAYER-1
 10
0.984264
 20
2.673204
 30
0.000000
  0
VERTEX
  8
LAYER-1
 10
0.989992
 20
2.673204
 30
0.000000
  0
VERTEX
  8
LAYER-1
 10
0.994767
 20
2.677024
 30
0.000000
  0
VERTEX
  8
LAYER-1
 10
0.998586
 20
2.682752
 30
0.000000
  0
VERTEX
  8
LAYER-1
 10
0.997632
 20
2.688482
 30
0.000000
  0
VERTEX
  8
LAYER-1
 10
0.995722
 20
2.694212
 30
0.000000
  0
VERTEX
  8
LAYER-1
 10
0.989992
 20
2.695166
 30
0.000000
  0
VERTEX
  8
LAYER-1
 10
0.984264
 20
2.692301
 30
0.000000
  0
VERTEX
  8
LAYER-1
 10
0.979489
 20
2.689437
 30
0.000000
  0
VERTEX
  8
LAYER-1
 10
0.973760
 20
2.689437
 30
0.000000
  0
VERTEX
  8
LAYER-1
 10
0.968030
 20
2.689437
 30
0.000000
  0
VERTEX
  8
LAYER-1
 10
0.962302
 20
2.689437
 30
0.000000
  0
VERTEX
  8
LAYER-1
 10
0.959437
 20
2.683708
 30
0.000000
  0
VERTEX
  8
LAYER-1
 10
0.957527
 20
2.678933
 30
0.000000
  0
VERTEX
  8
LAYER-1
 10
0.955618
 20
2.673204
 30
0.000000
  0
VERTEX
  8
LAYER-1
 10
0.957527
 20
2.667475
 30
0.000000
  0
VERTEX
  8
LAYER-1
 10
0.962302
 20
2.661746
 30
0.000000
  0
VERTEX
  8
LAYER-1
 10
0.968030
 20
2.662701
 30
0.000000
  0
VERTEX
  8
LAYER-1
 10
0.973760
 20
2.666520
 30
0.000000
  0
SEQEND
  8
LAYER-1
  0
POLYLINE
  8
LAYER-1
 66
  1
 70
  0
 62
  7
 10
1.561694
 20
3.120036
 30
0.000000
  0
VERTEX
  8
LAYER-1
 10
1.561694
 20
3.120036
 30
0.000000
  0
VERTEX
  8
LAYER-1
 10
1.560739
 20
3.115261
 30
0.000000
  0
VERTEX
  8
LAYER-1
 10
1.554055
 20
3.112397
 30
0.000000
  0
VERTEX
  8
LAYER-1
 10
1.552145
 20
3.106668
 30
0.000000
  0
VERTEX
  8
LAYER-1
 10
1.551191
 20
3.100939
 30
0.000000
  0
VERTEX
  8
LAYER-1
 10
1.556920
 20
3.096165
 30
0.000000
  0
VERTEX
  8
LAYER-1
 10
1.562649
 20
3.094255
 30
0.000000
  0
VERTEX
  8
LAYER-1
 10
1.568378
 20
3.093299
 30
0.000000
  0
VERTEX
  8
LAYER-1
 10
1.574107
 20
3.089480
 30
0.000000
  0
VERTEX
  8
LAYER-1
 10
1.579836
 20
3.089480
 30
0.000000
  0
VERTEX
  8
LAYER-1
 10
1.585566
 20
3.093299
 30
0.000000
  0
VERTEX
  8
LAYER-1
 10
1.588430
 20
3.099029
 30
0.000000
  0
VERTEX
  8
LAYER-1
 10
1.590340
 20
3.104758
 30
0.000000
  0
VERTEX
  8
LAYER-1
 10
1.590340
 20
3.110488
 30
0.000000
  0
VERTEX
  8
LAYER-1
 10
1.585566
 20
3.116217
 30
0.000000
  0
VERTEX
  8
LAYER-1
 10
1.580792
 20
3.122900
 30
0.000000
  0
VERTEX
  8
LAYER-1
 10
1.576017
 20
3.125765
 30
0.000000
  0
VERTEX
  8
LAYER-1
 10
1.570288
 20
3.126720
 30
0.000000
  0
VERTEX
  8
LAYER-1
 10
1.564559
 20
3.124810
 30
0.000000
  0
VERTEX
  8
LAYER-1
 10
1.561694
 20
3.119080
 30
0.000000
  0
SEQEND
  8
LAYER-1
  0
POLYLINE
  8
LAYER-1
 66
  1
 70
  0
 62
  7
 10
1.880617
 20
2.761009
 30
0.000000
  0
VERTEX
  8
LAYER-1
 10
1.880617
 20
2.761009
 30
0.000000
  0
VERTEX
  8
LAYER-1
 10
1.874889
 20
2.756234
 30
0.000000
  0
VERTEX
  8
LAYER-1
 10
1.870115
 20
2.756234
 30
0.000000
  0
VERTEX
  8
LAYER-1
 10
1.864385
 20
2.756234
 30
0.000000
  0
VERTEX
  8
LAYER-1
 10
1.859611
 20
2.752415
 30
0.000000
  0
VERTEX
  8
LAYER-1
 10
1.855792
 20
2.746686
 30
0.000000
  0
VERTEX
  8
LAYER-1
 10
1.856747
 20
2.740957
 30
0.000000
  0
VERTEX
  8
LAYER-1
 10
1.858656
 20
2.735227
 30
0.000000
  0
VERTEX
  8
LAYER-1
 10
1.864385
 20
2.734272
 30
0.000000
  0
VERTEX
  8
LAYER-1
 10
1.870115
 20
2.737137
 30
0.000000
  0
VERTEX
  8
LAYER-1
 10
1.874889
 20
2.740001
 30
0.000000
  0
VERTEX
  8
LAYER-1
 10
1.880617
 20
2.740001
 30
0.000000
  0
VERTEX
  8
LAYER-1
 10
1.886347
 20
2.740001
 30
0.000000
  0
VERTEX
  8
LAYER-1
 10
1.892077
 20
2.740001
 30
0.000000
  0
VERTEX
  8
LAYER-1
 10
1.894941
 20
2.745730
 30
0.000000
  0
VERTEX
  8
LAYER-1
 10
1.896851
 20
2.750505
 30
0.000000
  0
VERTEX
  8
LAYER-1
 10
1.898761
 20
2.756234
 30
0.000000
  0
VERTEX
  8
LAYER-1
 10
1.896851
 20
2.761963
 30
0.000000
  0
VERTEX
  8
LAYER-1
 10
1.892077
 20
2.767693
 30
0.000000
  0
VERTEX
  8
LAYER-1
 10
1.886347
 20
2.766737
 30
0.000000
  0
VERTEX
  8
LAYER-1
 10
1.880617
 20
2.762918
 30
0.000000
  0
SEQEND
  8
LAYER-1
  0
POLYLINE
  8
LAYER-1
 66
  1
 70
  0
 62
  7
 10
0.245722
 20
2.630453
 30
0.000000
  0
VERTEX
  8
LAYER-1
 10
0.245722
 20
2.630453
 30
0.000000
  0
VERTEX
  8
LAYER-1
 10
0.244767
 20
2.625678
 30
0.000000
  0
VERTEX
  8
LAYER-1
 10
0.238083
 20
2.622814
 30
0.000000
  0
VERTEX
  8
LAYER-1
 10
0.236172
 20
2.617084
 30
0.000000
  0
VERTEX
  8
LAYER-1
 10
0.235218
 20
2.611355
 30
0.000000
  0
VERTEX
  8
LAYER-1
 10
0.240947
 20
2.606581
 30
0.000000
  0
VERTEX
  8
LAYER-1
 10
0.246676
 20
2.604671
 30
0.000000
  0
VERTEX
  8
LAYER-1
 10
0.252406
 20
2.603717
 30
0.000000
  0
VERTEX
  8
LAYER-1
 10
0.258135
 20
2.599897
 30
0.000000
  0
VERTEX
  8
LAYER-1
 10
0.263864
 20
2.599897
 30
0.000000
  0
VERTEX
  8
LAYER-1
 10
0.269593
 20
2.603717
 30
0.000000
  0
VERTEX
  8
LAYER-1
 10
0.272458
 20
2.609445
 30
0.000000
  0
VERTEX
  8
LAYER-1
 10
0.274368
 20
2.615175
 30
0.000000
  0
VERTEX
  8
LAYER-1
 10
0.274368
 20
2.620904
 30
0.000000
  0
VERTEX
  8
LAYER-1
 10
0.269593
 20
2.626633
 30
0.000000
  0
VERTEX
  8
LAYER-1
 10
0.264819
 20
2.633317
 30
0.000000
  0
VERTEX
  8
LAYER-1
 10
0.260044
 20
2.636182
 30
0.000000
  0
VERTEX
  8
LAYER-1
 10
0.254316
 20
2.637136
 30
0.000000
  0
VERTEX
  8
LAYER-1
 10
0.248586
 20
2.635227
 30
0.000000
  0
VERTEX
  8
LAYER-1
 10
0.245722
 20
2.629498
 30
0.000000
  0
SEQEND
  8
LAYER-1
  0
POLYLINE
  8
LAYER-1
 66
  1
 70
  0
 62
  7
 10
0.564646
 20
2.271425
 30
0.000000
  0
VERTEX
  8
LAYER-1
 10
0.564646
 20
2.271425
 30
0.000000
  0
VERTEX
  8
LAYER-1
 10
0.558917
 20
2.266651
 30
0.000000
  0
VERTEX
  8
LAYER-1
 10
0.554142
 20
2.266651
 30
0.000000
  0
VERTEX
  8
LAYER-1
 10
0.548413
 20
2.266651
 30
0.000000
  0
VERTEX
  8
LAYER-1
 10
0.543639
 20
2.262831
 30
0.000000
  0
VERTEX
  8
LAYER-1
 10
0.539819
 20
2.257102
 30
0.000000
  0
VERTEX
  8
LAYER-1
 10
0.540774
 20
2.251373
 30
0.000000
  0
VERTEX
  8
LAYER-1
 10
0.542684
 20
2.245644
 30
0.000000
  0
VERTEX
  8
LAYER-1
 10
0.548413
 20
2.244690
 30
0.000000
  0
VERTEX
  8
LAYER-1
 10
0.554142
 20
2.247553
 30
0.000000
  0
VERTEX
  8
LAYER-1
 10
0.558917
 20
2.250418
 30
0.000000
  0
VERTEX
  8
LAYER-1
 10
0.564646
 20
2.250418
 30
0.000000
  0
VERTEX
  8
LAYER-1
 10
0.570375
 20
2.250418
 30
0.000000
  0
VERTEX
  8
LAYER-1
 10
0.576104
 20
2.250418
 30
0.000000
  0
VERTEX
  8
LAYER-1
 10
0.578968
 20
2.256147
 30
0.000000
  0
VERTEX
  8
LAYER-1
 10
0.580878
 20
2.260922
 30
0.000000
  0
VERTEX
  8
LAYER-1
 10
0.582788
 20
2.266651
 30
0.000000
  0
VERTEX
  8
LAYER-1
 10
0.580878
 20
2.272379
 30
0.000000
  0
VERTEX
  8
LAYER-1
 10
0.576104
 20
2.278109
 30
0.000000
  0
VERTEX
  8
LAYER-1
 10
0.570375
 20
2.277155
 30
0.000000
  0
VERTEX
  8
LAYER-1
 10
0.564646
 20
2.273335
 30
0.000000
  0
SEQEND
  8
LAYER-1
  0
POLYLINE
  8
LAYER-1
 66
  1
 70
  0
 62
  7
 10
0.242770
 20
1.590175
 30
0.000000
  0
VERTEX
  8
LAYER-1
 10
0.242770
 20
1.590175
 30
0.000000
  0
VERTEX
  8
LAYER-1
 10
0.241815
 20
1.585401
 30
0.000000
  0
VERTEX
  8
LAYER-1
 10
0.235131
 20
1.582536
 30
0.000000
  0
VERTEX
  8
LAYER-1
 10
0.233221
 20
1.576806
 30
0.000000
  0
VERTEX
  8
LAYER-1
 10
0.232267
 20
1.571078
 30
0.000000
  0
VERTEX
  8
LAYER-1
 10
0.237996
 20
1.566304
 30
0.000000
  0
VERTEX
  8
LAYER-1
 10
0.243725
 20
1.564394
 30
0.000000
  0
VERTEX
  8
LAYER-1
 10
0.249454
 20
1.563438
 30
0.000000
  0
VERTEX
  8
LAYER-1
 10
0.255183
 20
1.559618
 30
0.000000
  0
VERTEX
  8
LAYER-1
 10
0.260912
 20
1.559618
 30
0.000000
  0
VERTEX
  8
LAYER-1
 10
0.266642
 20
1.563438
 30
0.000000
  0
VERTEX
  8
LAYER-1
 10
0.269506
 20
1.569168
 30
0.000000
  0
VERTEX
  8
LAYER-1
 10
0.271416
 20
1.574897
 30
0.000000
  0
VERTEX
  8
LAYER-1
 10
0.271416
 20
1.580626
 30
0.000000
  0
VERTEX
  8
LAYER-1
 10
0.266642
 20
1.586356
 30
0.000000
  0
VERTEX
  8
LAYER-1
 10
0.261868
 20
1.593039
 30
0.000000
  0
VERTEX
  8
LAYER-1
 10
0.257093
 20
1.595904
 30
0.000000
  0
VERTEX
  8
LAYER-1
 10
0.251364
 20
1.596859
 30
0.000000
  0
VERTEX
  8
LAYER-1
 10
0.245635
 20
1.594949
 30
0.000000
  0
VERTEX
  8
LAYER-1
 10
0.242770
 20
1.589219
 30
0.000000
  0
SEQEND
  8
LAYER-1
  0
POLYLINE
  8
LAYER-1
 66
  1
 70
  0
 62
  7
 10
0.561694
 20
1.231148
 30
0.000000
  0
VERTEX
  8
LAYER-1
 10
0.561694
 20
1.231148
 30
0.000000
  0
VERTEX
  8
LAYER-1
 10
0.555965
 20
1.226374
 30
0.000000
  0
VERTEX
  8
LAYER-1
 10
0.551191
 20
1.226374
 30
0.000000
  0
VERTEX
  8
LAYER-1
 10
0.545461
 20
1.226374
 30
0.000000
  0
VERTEX
  8
LAYER-1
 10
0.540687
 20
1.222554
 30
0.000000
  0
VERTEX
  8
LAYER-1
 10
0.536868
 20
1.216825
 30
0.000000
  0
VERTEX
  8
LAYER-1
 10
0.537823
 20
1.211095
 30
0.000000
  0
VERTEX
  8
LAYER-1
 10
0.539733
 20
1.205366
 30
0.000000
  0
VERTEX
  8
LAYER-1
 10
0.545461
 20
1.204411
 30
0.000000
  0
VERTEX
  8
LAYER-1
 10
0.551191
 20
1.207275
 30
0.000000
  0
VERTEX
  8
LAYER-1
 10
0.555965
 20
1.210140
 30
0.000000
  0
VERTEX
  8
LAYER-1
 10
0.561694
 20
1.210140
 30
0.000000
  0
VERTEX
  8
LAYER-1
 10
0.567423
 20
1.210140
 30
0.000000
  0
VERTEX
  8
LAYER-1
 10
0.573153
 20
1.210140
 30
0.000000
  0
VERTEX
  8
LAYER-1
 10
0.576017
 20
1.215870
 30
0.000000
  0
VERTEX
  8
LAYER-1
 10
0.577927
 20
1.220644
 30
0.000000
  0
VERTEX
  8
LAYER-1
 10
0.579837
 20
1.226374
 30
0.000000
  0
VERTEX
  8
LAYER-1
 10
0.577927
 20
1.232102
 30
0.000000
  0
VERTEX
  8
LAYER-1
 10
0.573153
 20
1.237832
 30
0.000000
  0
VERTEX
  8
LAYER-1
 10
0.567423
 20
1.236876
 30
0.000000
  0
VERTEX
  8
LAYER-1
 10
0.561694
 20
1.233056
 30
0.000000
  0
SEQEND
  8
LAYER-1
  0
POLYLINE
  8
LAYER-1
 66
  1
 70
  0
 62
  7
 10
1.440687
 20
2.031147
 30
0.000000
  0
VERTEX
  8
LAYER-1
 10
1.440687
 20
2.031147
 30
0.000000
  0
VERTEX
  8
LAYER-1
 10
1.439732
 20
2.026372
 30
0.000000
  0
VERTEX
  8
LAYER-1
 10
1.433048
 20
2.023508
 30
0.000000
  0
VERTEX
  8
LAYER-1
 10
1.431138
 20
2.017778
 30
0.000000
  0
VERTEX
  8
LAYER-1
 10
1.430184
 20
2.012050
 30
0.000000
  0
VERTEX
  8
LAYER-1
 10
1.435913
 20
2.007276
 30
0.000000
  0
VERTEX
  8
LAYER-1
 10
1.441642
 20
2.005366
 30
0.000000
  0
VERTEX
  8
LAYER-1
 10
1.447372
 20
2.004411
 30
0.000000
  0
VERTEX
  8
LAYER-1
 10
1.453100
 20
2.000592
 30
0.000000
  0
VERTEX
  8
LAYER-1
 10
1.458830
 20
2.000592
 30
0.000000
  0
VERTEX
  8
LAYER-1
 10
1.464558
 20
2.004411
 30
0.000000
  0
VERTEX
  8
LAYER-1
 10
1.467423
 20
2.010140
 30
0.000000
  0
VERTEX
  8
LAYER-1
 10
1.469333
 20
2.015870
 30
0.000000
  0
VERTEX
  8
LAYER-1
 10
1.469333
 20
2.021598
 30
0.000000
  0
VERTEX
  8
LAYER-1
 10
1.464558
 20
2.027328
 30
0.000000
  0
VERTEX
  8
LAYER-1
 10
1.459784
 20
2.034012
 30
0.000000
  0
VERTEX
  8
LAYER-1
 10
1.455010
 20
2.036876
 30
0.000000
  0
VERTEX
  8
LAYER-1
 10
1.449281
 20
2.037831
 30
0.000000
  0
VERTEX
  8
LAYER-1
 10
1.443552
 20
2.035922
 30
0.000000
  0
VERTEX
  8
LAYER-1
 10
1.440687
 20
2.030192
 30
0.000000
  0
SEQEND
  8
LAYER-1
  0
POLYLINE
  8
LAYER-1
 66
  1
 70
  0
 62
  7
 10
1.759611
 20
1.672120
 30
0.000000
  0
VERTEX
  8
LAYER-1
 10
1.759611
 20
1.672120
 30
0.000000
  0
VERTEX
  8
LAYER-1
 10
1.753881
 20
1.667345
 30
0.000000
  0
VERTEX
  8
LAYER-1
 10
1.749107
 20
1.667345
 30
0.000000
  0
VERTEX
  8
LAYER-1
 10
1.743379
 20
1.667345
 30
0.000000
  0
VERTEX
  8
LAYER-1
 10
1.738604
 20
1.663526
 30
0.000000
  0
VERTEX
  8
LAYER-1
 10
1.734785
 20
1.657797
 30
0.000000
  0
VERTEX
  8
LAYER-1
 10
1.735739
 20
1.652067
 30
0.000000
  0
VERTEX
  8
LAYER-1
 10
1.737649
 20
1.646339
 30
0.000000
  0
VERTEX
  8
LAYER-1
 10
1.743379
 20
1.645384
 30
0.000000
  0
VERTEX
  8
LAYER-1
 10
1.749107
 20
1.648247
 30
0.000000
  0
VERTEX
  8
LAYER-1
 10
1.753881
 20
1.651112
 30
0.000000
  0
VERTEX
  8
LAYER-1
 10
1.759611
 20
1.651112
 30
0.000000
  0
VERTEX
  8
LAYER-1
 10
1.765340
 20
1.651112
 30
0.000000
  0
VERTEX
  8
LAYER-1
 10
1.771069
 20
1.651112
 30
0.000000
  0
VERTEX
  8
LAYER-1
 10
1.773934
 20
1.656842
 30
0.000000
  0
VERTEX
  8
LAYER-1
 10
1.775844
 20
1.661616
 30
0.000000
  0
VERTEX
  8
LAYER-1
 10
1.777754
 20
1.667345
 30
0.000000
  0
VERTEX
  8
LAYER-1
 10
1.775844
 20
1.673074
 30
0.000000
  0
VERTEX
  8
LAYER-1
 10
1.771069
 20
1.678804
 30
0.000000
  0
VERTEX
  8
LAYER-1
 10
1.765340
 20
1.677849
 30
0.000000
  0
VERTEX
  8
LAYER-1
 10
1.759611
 20
1.674029
 30
0.000000
  0
SEQEND
  8
LAYER-1
  0
POLYLINE
  8
LAYER-1
 66
  1
 70
  0
 62
  7
 10
1.890947
 20
1.028803
 30
0.000000
  0
VERTEX
  8
LAYER-1
 10
1.890947
 20
1.028803
 30
0.000000
  0
VERTEX
  8
LAYER-1
 10
1.891903
 20
1.033578
 30
0.000000
  0
VERTEX
  8
LAYER-1
 10
1.898587
 20
1.036443
 30
0.000000
  0
VERTEX
  8
LAYER-1
 10
1.900498
 20
1.042172
 30
0.000000
  0
VERTEX
  8
LAYER-1
 10
1.901451
 20
1.047901
 30
0.000000
  0
VERTEX
  8
LAYER-1
 10
1.895722
 20
1.052675
 30
0.000000
  0
VERTEX
  8
LAYER-1
 10
1.889994
 20
1.054585
 30
0.000000
  0
VERTEX
  8
LAYER-1
 10
1.884263
 20
1.055540
 30
0.000000
  0
VERTEX
  8
LAYER-1
 10
1.878535
 20
1.059359
 30
0.000000
  0
VERTEX
  8
LAYER-1
 10
1.872805
 20
1.059359
 30
0.000000
  0
VERTEX
  8
LAYER-1
 10
1.867076
 20
1.055540
 30
0.000000
  0
VERTEX
  8
LAYER-1
 10
1.864212
 20
1.049811
 30
0.000000
  0
VERTEX
  8
LAYER-1
 10
1.862302
 20
1.044081
 30
0.000000
  0
VERTEX
  8
LAYER-1
 10
1.862302
 20
1.038352
 30
0.000000
  0
VERTEX
  8
LAYER-1
 10
1.867076
 20
1.032623
 30
0.000000
  0
VERTEX
  8
LAYER-1
 10
1.871850
 20
1.025939
 30
0.000000
  0
VERTEX
  8
LAYER-1
 10
1.876625
 20
1.023074
 30
0.000000
  0
VERTEX
  8
LAYER-1
 10
1.882353
 20
1.022120
 30
0.000000
  0
VERTEX
  8
LAYER-1
 10
1.888083
 20
1.024029
 30
0.000000
  0
VERTEX
  8
LAYER-1
 10
1.890947
 20
1.029759
 30
0.000000
  0
SEQEND
  8
LAYER-1
  0
POLYLINE
  8
LAYER-1
 66
  1
 70
  0
 62
  7
 10
1.572024
 20
1.387831
 30
0.000000
  0
VERTEX
  8
LAYER-1
 10
1.572024
 20
1.387831
 30
0.000000
  0
VERTEX
  8
LAYER-1
 10
1.577753
 20
1.392605
 30
0.000000
  0
VERTEX
  8
LAYER-1
 10
1.582528
 20
1.392605
 30
0.000000
  0
VERTEX
  8
LAYER-1
 10
1.588256
 20
1.392605
 30
0.000000
  0
VERTEX
  8
LAYER-1
 10
1.593031
 20
1.396425
 30
0.000000
  0
VERTEX
  8
LAYER-1
 10
1.596850
 20
1.402154
 30
0.000000
  0
VERTEX
  8
LAYER-1
 10
1.595895
 20
1.407883
 30
0.000000
  0
VERTEX
  8
LAYER-1
 10
1.593986
 20
1.413612
 30
0.000000
  0
VERTEX
  8
LAYER-1
 10
1.588256
 20
1.414567
 30
0.000000
  0
VERTEX
  8
LAYER-1
 10
1.582528
 20
1.411703
 30
0.000000
  0
VERTEX
  8
LAYER-1
 10
1.577753
 20
1.408839
 30
0.000000
  0
VERTEX
  8
LAYER-1
 10
1.572024
 20
1.408839
 30
0.000000
  0
VERTEX
  8
LAYER-1
 10
1.566295
 20
1.408839
 30
0.000000
  0
VERTEX
  8
LAYER-1
 10
1.560566
 20
1.408839
 30
0.000000
  0
VERTEX
  8
LAYER-1
 10
1.557701
 20
1.403109
 30
0.000000
  0
VERTEX
  8
LAYER-1
 10
1.555791
 20
1.398335
 30
0.000000
  0
VERTEX
  8
LAYER-1
 10
1.553881
 20
1.392605
 30
0.000000
  0
VERTEX
  8
LAYER-1
 10
1.555791
 20
1.386877
 30
0.000000
  0
VERTEX
  8
LAYER-1
 10
1.560566
 20
1.381147
 30
0.000000
  0
VERTEX
  8
LAYER-1
 10
1.566295
 20
1.382102
 30
0.000000
  0
VERTEX
  8
LAYER-1
 10
1.572024
 20
1.385922
 30
0.000000
  0
SEQEND
  8
LAYER-1
  0
POLYLINE
  8
LAYER-1
 66
  1
 70
  0
 62
  7
 10
1.724888
 20
2.474203
 30
0.000000
  0
VERTEX
  8
LAYER-1
 10
1.724888
 20
2.474203
 30
0.000000
  0
VERTEX
  8
LAYER-1
 10
1.723934
 20
2.469428
 30
0.000000
  0
VERTEX
  8
LAYER-1
 10
1.717250
 20
2.466564
 30
0.000000
  0
VERTEX
  8
LAYER-1
 10
1.715340
 20
2.460834
 30
0.000000
  0
VERTEX
  8
LAYER-1
 10
1.714386
 20
2.455105
 30
0.000000
  0
VERTEX
  8
LAYER-1
 10
1.720114
 20
2.450331
 30
0.000000
  0
VERTEX
  8
LAYER-1
 10
1.725844
 20
2.448421
 30
0.000000
  0
VERTEX
  8
LAYER-1
 10
1.731573
 20
2.447467
 30
0.000000
  0
VERTEX
  8
LAYER-1
 10
1.737302
 20
2.443647
 30
0.000000
  0
VERTEX
  8
LAYER-1
 10
1.743031
 20
2.443647
 30
0.000000
  0
VERTEX
  8
LAYER-1
 10
1.748760
 20
2.447467
 30
0.000000
  0
VERTEX
  8
LAYER-1
 10
1.751625
 20
2.453195
 30
0.000000
  0
VERTEX
  8
LAYER-1
 10
1.753535
 20
2.458925
 30
0.000000
  0
VERTEX
  8
LAYER-1
 10
1.753535
 20
2.464654
 30
0.000000
  0
VERTEX
  8
LAYER-1
 10
1.748760
 20
2.470383
 30
0.000000
  0
VERTEX
  8
LAYER-1
 10
1.743986
 20
2.477067
 30
0.000000
  0
VERTEX
  8
LAYER-1
 10
1.739212
 20
2.479932
 30
0.000000
  0
VERTEX
  8
LAYER-1
 10
1.733482
 20
2.480886
 30
0.000000
  0
VERTEX
  8
LAYER-1
 10
1.727754
 20
2.478977
 30
0.000000
  0
VERTEX
  8
LAYER-1
 10
1.724888
 20
2.473248
 30
0.000000
  0
SEQEND
  8
LAYER-1
  0
POLYLINE
  8
LAYER-1
 66
  1
 70
  0
 62
  7
 10
2.043813
 20
2.115175
 30
0.000000
  0
VERTEX
  8
LAYER-1
 10
2.043813
 20
2.115175
 30
0.000000
  0
VERTEX
  8
LAYER-1
 10
2.038083
 20
2.110401
 30
0.000000
  0
VERTEX
  8
LAYER-1
 10
2.033309
 20
2.110401
 30
0.000000
  0
VERTEX
  8
LAYER-1
 10
2.027580
 20
2.110401
 30
0.000000
  0
VERTEX
  8
LAYER-1
 10
2.022805
 20
2.106581
 30
0.000000
  0
VERTEX
  8
LAYER-1
 10
2.018986
 20
2.100852
 30
0.000000
  0
VERTEX
  8
LAYER-1
 10
2.019941
 20
2.095123
 30
0.000000
  0
VERTEX
  8
LAYER-1
 10
2.021851
 20
2.089394
 30
0.000000
  0
VERTEX
  8
LAYER-1
 10
2.027580
 20
2.088440
 30
0.000000
  0
VERTEX
  8
LAYER-1
 10
2.033309
 20
2.091303
 30
0.000000
  0
VERTEX
  8
LAYER-1
 10
2.038083
 20
2.094168
 30
0.000000
  0
VERTEX
  8
LAYER-1
 10
2.043813
 20
2.094168
 30
0.000000
  0
VERTEX
  8
LAYER-1
 10
2.049542
 20
2.094168
 30
0.000000
  0
VERTEX
  8
LAYER-1
 10
2.055270
 20
2.094168
 30
0.000000
  0
VERTEX
  8
LAYER-1
 10
2.058136
 20
2.099897
 30
0.000000
  0
VERTEX
  8
LAYER-1
 10
2.060046
 20
2.104672
 30
0.000000
  0
VERTEX
  8
LAYER-1
 10
2.061954
 20
2.110401
 30
0.000000
  0
VERTEX
  8
LAYER-1
 10
2.060046
 20
2.116129
 30
0.000000
  0
VERTEX
  8
LAYER-1
 10
2.055270
 20
2.121859
 30
0.000000
  0
VERTEX
  8
LAYER-1
 10
2.049542
 20
2.120905
 30
0.000000
  0
VERTEX
  8
LAYER-1
 10
2.043813
 20
2.117085
 30
0.000000
  0
SEQEND
  8
LAYER-1
  0
POLYLINE
  8
LAYER-1
 66
  1
 70
  0
 62
  7
 10
0.210999
 20
3.335314
 30
0.000000
  0
VERTEX
  8
LAYER-1
 10
0.210999
 20
3.335314
 30
0.000000
  0
VERTEX
  8
LAYER-1
 10
0.210044
 20
3.330539
 30
0.000000
  0
VERTEX
  8
LAYER-1
 10
0.203360
 20
3.327674
 30
0.000000
  0
VERTEX
  8
LAYER-1
 10
0.201450
 20
3.321945
 30
0.000000
  0
VERTEX
  8
LAYER-1
 10
0.200496
 20
3.316216
 30
0.000000
  0
VERTEX
  8
LAYER-1
 10
0.206226
 20
3.311442
 30
0.000000
  0
VERTEX
  8
LAYER-1
 10
0.211954
 20
3.309532
 30
0.000000
  0
VERTEX
  8
LAYER-1
 10
0.217683
 20
3.308578
 30
0.000000
  0
VERTEX
  8
LAYER-1
 10
0.223413
 20
3.304758
 30
0.000000
  0
VERTEX
  8
LAYER-1
 10
0.229142
 20
3.304758
 30
0.000000
  0
VERTEX
  8
LAYER-1
 10
0.234871
 20
3.308578
 30
0.000000
  0
VERTEX
  8
LAYER-1
 10
0.237735
 20
3.314306
 30
0.000000
  0
VERTEX
  8
LAYER-1
 10
0.239645
 20
3.320036
 30
0.000000
  0
VERTEX
  8
LAYER-1
 10
0.239645
 20
3.325765
 30
0.000000
  0
VERTEX
  8
LAYER-1
 10
0.234871
 20
3.331494
 30
0.000000
  0
VERTEX
  8
LAYER-1
 10
0.230097
 20
3.338178
 30
0.000000
  0
VERTEX
  8
LAYER-1
 10
0.225322
 20
3.341043
 30
0.000000
  0
VERTEX
  8
LAYER-1
 10
0.219593
 20
3.341997
 30
0.000000
  0
VERTEX
  8
LAYER-1
 10
0.213864
 20
3.340088
 30
0.000000
  0
VERTEX
  8
LAYER-1
 10
0.210999
 20
3.334359
 30
0.000000
  0
SEQEND
  8
LAYER-1
  0
POLYLINE
  8
LAYER-1
 66
  1
 70
  0
 62
  7
 10
0.529923
 20
2.976286
 30
0.000000
  0
VERTEX
  8
LAYER-1
 10
0.529923
 20
2.976286
 30
0.000000
  0
VERTEX
  8
LAYER-1
 10
0.524194
 20
2.971512
 30
0.000000
  0
VERTEX
  8
LAYER-1
 10
0.519420
 20
2.971512
 30
0.000000
  0
VERTEX
  8
LAYER-1
 10
0.513690
 20
2.971512
 30
0.000000
  0
VERTEX
  8
LAYER-1
 10
0.508916
 20
2.967692
 30
0.000000
  0
VERTEX
  8
LAYER-1
 10
0.505097
 20
2.961963
 30
0.000000
  0
VERTEX
  8
LAYER-1
 10
0.506052
 20
2.956234
 30
0.000000
  0
VERTEX
  8
LAYER-1
 10
0.507962
 20
2.950505
 30
0.000000
  0
VERTEX
  8
LAYER-1
 10
0.513690
 20
2.949551
 30
0.000000
  0
VERTEX
  8
LAYER-1
 10
0.519420
 20
2.952414
 30
0.000000
  0
VERTEX
  8
LAYER-1
 10
0.524194
 20
2.955279
 30
0.000000
  0
VERTEX
  8
LAYER-1
 10
0.529923
 20
2.955279
 30
0.000000
  0
VERTEX
  8
LAYER-1
 10
0.535652
 20
2.955279
 30
0.000000
  0
VERTEX
  8
LAYER-1
 10
0.541382
 20
2.955279
 30
0.000000
  0
VERTEX
  8
LAYER-1
 10
0.544246
 20
2.961008
 30
0.000000
  0
VERTEX
  8
LAYER-1
 10
0.546156
 20
2.965783
 30
0.000000
  0
VERTEX
  8
LAYER-1
 10
0.548066
 20
2.971512
 30
0.000000
  0
VERTEX
  8
LAYER-1
 10
0.546156
 20
2.977240
 30
0.000000
  0
VERTEX
  8
LAYER-1
 10
0.541382
 20
2.982970
 30
0.000000
  0
VERTEX
  8
LAYER-1
 10
0.535652
 20
2.982016
 30
0.000000
  0
VERTEX
  8
LAYER-1
 10
0.529923
 20
2.978196
 30
0.000000
  0
SEQEND
  8
LAYER-1
  0
POLYLINE
  8
LAYER-1
 66
  1
 70
  0
 62
  7
 10
0.897110
 20
3.035835
 30
0.000000
  0
VERTEX
  8
LAYER-1
 10
0.897110
 20
3.035835
 30
0.000000
  0
VERTEX
  8
LAYER-1
 10
0.901886
 20
3.034880
 30
0.000000
  0
VERTEX
  8
LAYER-1
 10
0.904750
 20
3.028196
 30
0.000000
  0
VERTEX
  8
LAYER-1
 10
0.910479
 20
3.026286
 30
0.000000
  0
VERTEX
  8
LAYER-1
 10
0.916208
 20
3.025331
 30
0.000000
  0
VERTEX
  8
LAYER-1
 10
0.920982
 20
3.031061
 30
0.000000
  0
VERTEX
  8
LAYER-1
 10
0.922892
 20
3.036790
 30
0.000000
  0
VERTEX
  8
LAYER-1
 10
0.923847
 20
3.042519
 30
0.000000
  0
VERTEX
  8
LAYER-1
 10
0.927666
 20
3.048248
 30
0.000000
  0
VERTEX
  8
LAYER-1
 10
0.927666
 20
3.053977
 30
0.000000
  0
VERTEX
  8
LAYER-1
 10
0.923847
 20
3.059706
 30
0.000000
  0
VERTEX
  8
LAYER-1
 10
0.918118
 20
3.062572
 30
0.000000
  0
VERTEX
  8
LAYER-1
 10
0.912388
 20
3.064480
 30
0.000000
  0
VERTEX
  8
LAYER-1
 10
0.906660
 20
3.064480
 30
0.000000
  0
VERTEX
  8
LAYER-1
 10
0.900930
 20
3.059706
 30
0.000000
  0
VERTEX
  8
LAYER-1
 10
0.894246
 20
3.054932
 30
0.000000
  0
VERTEX
  8
LAYER-1
 10
0.891382
 20
3.050158
 30
0.000000
  0
VERTEX
  8
LAYER-1
 10
0.890427
 20
3.044429
 30
0.000000
  0
VERTEX
  8
LAYER-1
 10
0.892336
 20
3.038699
 30
0.000000
  0
VERTEX
  8
LAYER-1
 10
0.898066
 20
3.035835
 30
0.000000
  0
SEQEND
  8
LAYER-1
  0
POLYLINE
  8
LAYER-1
 66
  1
 70
  0
 62
  7
 10
1.256138
 20
3.354759
 30
0.000000
  0
VERTEX
  8
LAYER-1
 10
1.256138
 20
3.354759
 30
0.000000
  0
VERTEX
  8
LAYER-1
 10
1.260913
 20
3.349030
 30
0.000000
  0
VERTEX
  8
LAYER-1
 10
1.260913
 20
3.344255
 30
0.000000
  0
VERTEX
  8
LAYER-1
 10
1.260913
 20
3.338526
 30
0.000000
  0
VERTEX
  8
LAYER-1
 10
1.264732
 20
3.333752
 30
0.000000
  0
VERTEX
  8
LAYER-1
 10
1.270461
 20
3.329933
 30
0.000000
  0
VERTEX
  8
LAYER-1
 10
1.276191
 20
3.330887
 30
0.000000
  0
VERTEX
  8
LAYER-1
 10
1.281919
 20
3.332797
 30
0.000000
  0
VERTEX
  8
LAYER-1
 10
1.282874
 20
3.338526
 30
0.000000
  0
VERTEX
  8
LAYER-1
 10
1.280010
 20
3.344255
 30
0.000000
  0
VERTEX
  8
LAYER-1
 10
1.277145
 20
3.349030
 30
0.000000
  0
VERTEX
  8
LAYER-1
 10
1.277145
 20
3.354759
 30
0.000000
  0
VERTEX
  8
LAYER-1
 10
1.277145
 20
3.360488
 30
0.000000
  0
VERTEX
  8
LAYER-1
 10
1.277145
 20
3.366217
 30
0.000000
  0
VERTEX
  8
LAYER-1
 10
1.271416
 20
3.369081
 30
0.000000
  0
VERTEX
  8
LAYER-1
 10
1.266641
 20
3.370991
 30
0.000000
  0
VERTEX
  8
LAYER-1
 10
1.260913
 20
3.372901
 30
0.000000
  0
VERTEX
  8
LAYER-1
 10
1.255184
 20
3.370991
 30
0.000000
  0
VERTEX
  8
LAYER-1
 10
1.249454
 20
3.366217
 30
0.000000
  0
VERTEX
  8
LAYER-1
 10
1.250409
 20
3.360488
 30
0.000000
  0
VERTEX
  8
LAYER-1
 10
1.254229
 20
3.354759
 30
0.000000
  0
SEQEND
  8
LAYER-1
  0
POLYLINE
  8
LAYER-1
 66
  1
 70
  0
 62
  7
 10
4.261781
 20
2.388742
 30
0.000000
  0
VERTEX
  8
LAYER-1
 10
4.261781
 20
2.388742
 30
0.000000
  0
VERTEX
  8
LAYER-1
 10
4.262736
 20
2.393517
 30
0.000000
  0
VERTEX
  8
LAYER-1
 10
4.269420
 20
2.396381
 30
0.000000
  0
VERTEX
  8
LAYER-1
 10
4.271330
 20
2.402111
 30
0.000000
  0
VERTEX
  8
LAYER-1
 10
4.272284
 20
2.407839
 30
0.000000
  0
VERTEX
  8
LAYER-1
 10
4.266555
 20
2.412614
 30
0.000000
  0
VERTEX
  8
LAYER-1
 10
4.260826
 20
2.414523
 30
0.000000
  0
VERTEX
  8
LAYER-1
 10
4.255096
 20
2.415479
 30
0.000000
  0
VERTEX
  8
LAYER-1
 10
4.249368
 20
2.419299
 30
0.000000
  0
VERTEX
  8
LAYER-1
 10
4.243638
 20
2.419299
 30
0.000000
  0
VERTEX
  8
LAYER-1
 10
4.237910
 20
2.415479
 30
0.000000
  0
VERTEX
  8
LAYER-1
 10
4.235045
 20
2.409749
 30
0.000000
  0
VERTEX
  8
LAYER-1
 10
4.233136
 20
2.404020
 30
0.000000
  0
VERTEX
  8
LAYER-1
 10
4.233136
 20
2.398291
 30
0.000000
  0
VERTEX
  8
LAYER-1
 10
4.237910
 20
2.392561
 30
0.000000
  0
VERTEX
  8
LAYER-1
 10
4.242684
 20
2.385878
 30
0.000000
  0
VERTEX
  8
LAYER-1
 10
4.247458
 20
2.383013
 30
0.000000
  0
VERTEX
  8
LAYER-1
 10
4.253188
 20
2.382058
 30
0.000000
  0
VERTEX
  8
LAYER-1
 10
4.258916
 20
2.383968
 30
0.000000
  0
VERTEX
  8
LAYER-1
 10
4.261781
 20
2.389698
 30
0.000000
  0
SEQEND
  8
LAYER-1
  0
POLYLINE
  8
LAYER-1
 66
  1
 70
  0
 62
  7
 10
3.942857
 20
2.747769
 30
0.000000
  0
VERTEX
  8
LAYER-1
 10
3.942857
 20
2.747769
 30
0.000000
  0
VERTEX
  8
LAYER-1
 10
3.948587
 20
2.752544
 30
0.000000
  0
VERTEX
  8
LAYER-1
 10
3.953361
 20
2.752544
 30
0.000000
  0
VERTEX
  8
LAYER-1
 10
3.959089
 20
2.752544
 30
0.000000
  0
VERTEX
  8
LAYER-1
 10
3.963864
 20
2.756364
 30
0.000000
  0
VERTEX
  8
LAYER-1
 10
3.967684
 20
2.762092
 30
0.000000
  0
VERTEX
  8
LAYER-1
 10
3.966729
 20
2.767822
 30
0.000000
  0
VERTEX
  8
LAYER-1
 10
3.964819
 20
2.773551
 30
0.000000
  0
VERTEX
  8
LAYER-1
 10
3.959089
 20
2.774506
 30
0.000000
  0
VERTEX
  8
LAYER-1
 10
3.953361
 20
2.771642
 30
0.000000
  0
VERTEX
  8
LAYER-1
 10
3.948587
 20
2.768777
 30
0.000000
  0
VERTEX
  8
LAYER-1
 10
3.942857
 20
2.768777
 30
0.000000
  0
VERTEX
  8
LAYER-1
 10
3.937127
 20
2.768777
 30
0.000000
  0
VERTEX
  8
LAYER-1
 10
3.931399
 20
2.768777
 30
0.000000
  0
VERTEX
  8
LAYER-1
 10
3.928534
 20
2.763047
 30
0.000000
  0
VERTEX
  8
LAYER-1
 10
3.926625
 20
2.758273
 30
0.000000
  0
VERTEX
  8
LAYER-1
 10
3.924715
 20
2.752544
 30
0.000000
  0
VERTEX
  8
LAYER-1
 10
3.926625
 20
2.746815
 30
0.000000
  0
VERTEX
  8
LAYER-1
 10
3.931399
 20
2.741085
 30
0.000000
  0
VERTEX
  8
LAYER-1
 10
3.937127
 20
2.742041
 30
0.000000
  0
VERTEX
  8
LAYER-1
 10
3.942857
 20
2.745861
 30
0.000000
  0
SEQEND
  8
LAYER-1
  0
POLYLINE
  8
LAYER-1
 66
  1
 70
  0
 62
  7
 10
4.530791
 20
3.199376
 30
0.000000
  0
VERTEX
  8
LAYER-1
 10
4.530791
 20
3.199376
 30
0.000000
  0
VERTEX
  8
LAYER-1
 10
4.529837
 20
3.194602
 30
0.000000
  0
VERTEX
  8
LAYER-1
 10
4.523152
 20
3.191737
 30
0.000000
  0
VERTEX
  8
LAYER-1
 10
4.521243
 20
3.186008
 30
0.000000
  0
VERTEX
  8
LAYER-1
 10
4.520288
 20
3.180279
 30
0.000000
  0
VERTEX
  8
LAYER-1
 10
4.526018
 20
3.175505
 30
0.000000
  0
VERTEX
  8
LAYER-1
 10
4.531746
 20
3.173595
 30
0.000000
  0
VERTEX
  8
LAYER-1
 10
4.537475
 20
3.172640
 30
0.000000
  0
VERTEX
  8
LAYER-1
 10
4.543205
 20
3.168820
 30
0.000000
  0
VERTEX
  8
LAYER-1
 10
4.548934
 20
3.168820
 30
0.000000
  0
VERTEX
  8
LAYER-1
 10
4.554663
 20
3.172640
 30
0.000000
  0
VERTEX
  8
LAYER-1
 10
4.557527
 20
3.178369
 30
0.000000
  0
VERTEX
  8
LAYER-1
 10
4.559437
 20
3.184098
 30
0.000000
  0
VERTEX
  8
LAYER-1
 10
4.559437
 20
3.189828
 30
0.000000
  0
VERTEX
  8
LAYER-1
 10
4.554663
 20
3.195557
 30
0.000000
  0
VERTEX
  8
LAYER-1
 10
4.549889
 20
3.202240
 30
0.000000
  0
VERTEX
  8
LAYER-1
 10
4.545114
 20
3.205105
 30
0.000000
  0
VERTEX
  8
LAYER-1
 10
4.539386
 20
3.206060
 30
0.000000
  0
VERTEX
  8
LAYER-1
 10
4.533656
 20
3.204150
 30
0.000000
  0
VERTEX
  8
LAYER-1
 10
4.530791
 20
3.198421
 30
0.000000
  0
SEQEND
  8
LAYER-1
  0
POLYLINE
  8
LAYER-1
 66
  1
 70
  0
 62
  7
 10
4.849716
 20
2.840348
 30
0.000000
  0
VERTEX
  8
LAYER-1
 10
4.849716
 20
2.840348
 30
0.000000
  0
VERTEX
  8
LAYER-1
 10
4.843987
 20
2.835574
 30
0.000000
  0
VERTEX
  8
LAYER-1
 10
4.839212
 20
2.835574
 30
0.000000
  0
VERTEX
  8
LAYER-1
 10
4.833483
 20
2.835574
 30
0.000000
  0
VERTEX
  8
LAYER-1
 10
4.828708
 20
2.831755
 30
0.000000
  0
VERTEX
  8
LAYER-1
 10
4.824889
 20
2.826026
 30
0.000000
  0
VERTEX
  8
LAYER-1
 10
4.825844
 20
2.820297
 30
0.000000
  0
VERTEX
  8
LAYER-1
 10
4.827754
 20
2.814567
 30
0.000000
  0
VERTEX
  8
LAYER-1
 10
4.833483
 20
2.813612
 30
0.000000
  0
VERTEX
  8
LAYER-1
 10
4.839212
 20
2.816477
 30
0.000000
  0
VERTEX
  8
LAYER-1
 10
4.843987
 20
2.819341
 30
0.000000
  0
VERTEX
  8
LAYER-1
 10
4.849716
 20
2.819341
 30
0.000000
  0
VERTEX
  8
LAYER-1
 10
4.855444
 20
2.819341
 30
0.000000
  0
VERTEX
  8
LAYER-1
 10
4.861174
 20
2.819341
 30
0.000000
  0
VERTEX
  8
LAYER-1
 10
4.864038
 20
2.825071
 30
0.000000
  0
VERTEX
  8
LAYER-1
 10
4.865948
 20
2.829845
 30
0.000000
  0
VERTEX
  8
LAYER-1
 10
4.867858
 20
2.835574
 30
0.000000
  0
VERTEX
  8
LAYER-1
 10
4.865948
 20
2.841303
 30
0.000000
  0
VERTEX
  8
LAYER-1
 10
4.861174
 20
2.847033
 30
0.000000
  0
VERTEX
  8
LAYER-1
 10
4.855444
 20
2.846078
 30
0.000000
  0
VERTEX
  8
LAYER-1
 10
4.849716
 20
2.842258
 30
0.000000
  0
SEQEND
  8
LAYER-1
  0
POLYLINE
  8
LAYER-1
 66
  1
 70
  0
 62
  7
 10
3.589994
 20
2.395730
 30
0.000000
  0
VERTEX
  8
LAYER-1
 10
3.589994
 20
2.395730
 30
0.000000
  0
VERTEX
  8
LAYER-1
 10
3.589039
 20
2.390956
 30
0.000000
  0
VERTEX
  8
LAYER-1
 10
3.582355
 20
2.388091
 30
0.000000
  0
VERTEX
  8
LAYER-1
 10
3.580444
 20
2.382362
 30
0.000000
  0
VERTEX
  8
LAYER-1
 10
3.579490
 20
2.376633
 30
0.000000
  0
VERTEX
  8
LAYER-1
 10
3.585219
 20
2.371859
 30
0.000000
  0
VERTEX
  8
LAYER-1
 10
3.590948
 20
2.369949
 30
0.000000
  0
VERTEX
  8
LAYER-1
 10
3.596679
 20
2.368994
 30
0.000000
  0
VERTEX
  8
LAYER-1
 10
3.602407
 20
2.365174
 30
0.000000
  0
VERTEX
  8
LAYER-1
 10
3.608136
 20
2.365174
 30
0.000000
  0
VERTEX
  8
LAYER-1
 10
3.613864
 20
2.368994
 30
0.000000
  0
VERTEX
  8
LAYER-1
 10
3.616730
 20
2.374724
 30
0.000000
  0
VERTEX
  8
LAYER-1
 10
3.618639
 20
2.380452
 30
0.000000
  0
VERTEX
  8
LAYER-1
 10
3.618639
 20
2.386182
 30
0.000000
  0
VERTEX
  8
LAYER-1
 10
3.613864
 20
2.391911
 30
0.000000
  0
VERTEX
  8
LAYER-1
 10
3.609091
 20
2.398595
 30
0.000000
  0
VERTEX
  8
LAYER-1
 10
3.604316
 20
2.401460
 30
0.000000
  0
VERTEX
  8
LAYER-1
 10
3.598587
 20
2.402414
 30
0.000000
  0
VERTEX
  8
LAYER-1
 10
3.592859
 20
2.400504
 30
0.000000
  0
VERTEX
  8
LAYER-1
 10
3.589994
 20
2.394775
 30
0.000000
  0
SEQEND
  8
LAYER-1
  0
POLYLINE
  8
LAYER-1
 66
  1
 70
  0
 62
  7
 10
3.908917
 20
2.036703
 30
0.000000
  0
VERTEX
  8
LAYER-1
 10
3.908917
 20
2.036703
 30
0.000000
  0
VERTEX
  8
LAYER-1
 10
3.903188
 20
2.031929
 30
0.000000
  0
VERTEX
  8
LAYER-1
 10
3.898413
 20
2.031929
 30
0.000000
  0
VERTEX
  8
LAYER-1
 10
3.892684
 20
2.031929
 30
0.000000
  0
VERTEX
  8
LAYER-1
 10
3.887910
 20
2.028109
 30
0.000000
  0
VERTEX
  8
LAYER-1
 10
3.884091
 20
2.022381
 30
0.000000
  0
VERTEX
  8
LAYER-1
 10
3.885045
 20
2.016651
 30
0.000000
  0
VERTEX
  8
LAYER-1
 10
3.886956
 20
2.010921
 30
0.000000
  0
VERTEX
  8
LAYER-1
 10
3.892684
 20
2.009967
 30
0.000000
  0
VERTEX
  8
LAYER-1
 10
3.898413
 20
2.012831
 30
0.000000
  0
VERTEX
  8
LAYER-1
 10
3.903188
 20
2.015695
 30
0.000000
  0
VERTEX
  8
LAYER-1
 10
3.908917
 20
2.015695
 30
0.000000
  0
VERTEX
  8
LAYER-1
 10
3.914646
 20
2.015695
 30
0.000000
  0
VERTEX
  8
LAYER-1
 10
3.920376
 20
2.015695
 30
0.000000
  0
VERTEX
  8
LAYER-1
 10
3.923240
 20
2.021425
 30
0.000000
  0
VERTEX
  8
LAYER-1
 10
3.925149
 20
2.026199
 30
0.000000
  0
VERTEX
  8
LAYER-1
 10
3.927060
 20
2.031929
 30
0.000000
  0
VERTEX
  8
LAYER-1
 10
3.925149
 20
2.037658
 30
0.000000
  0
VERTEX
  8
LAYER-1
 10
3.920376
 20
2.043387
 30
0.000000
  0
VERTEX
  8
LAYER-1
 10
3.914646
 20
2.042432
 30
0.000000
  0
VERTEX
  8
LAYER-1
 10
3.908917
 20
2.038612
 30
0.000000
  0
SEQEND
  8
LAYER-1
  0
POLYLINE
  8
LAYER-1
 66
  1
 70
  0
 62
  7
 10
3.211868
 20
1.669515
 30
0.000000
  0
VERTEX
  8
LAYER-1
 10
3.211868
 20
1.669515
 30
0.000000
  0
VERTEX
  8
LAYER-1
 10
3.210913
 20
1.664740
 30
0.000000
  0
VERTEX
  8
LAYER-1
 10
3.204229
 20
1.661876
 30
0.000000
  0
VERTEX
  8
LAYER-1
 10
3.202319
 20
1.656147
 30
0.000000
  0
VERTEX
  8
LAYER-1
 10
3.201364
 20
1.650418
 30
0.000000
  0
VERTEX
  8
LAYER-1
 10
3.207093
 20
1.645643
 30
0.000000
  0
VERTEX
  8
LAYER-1
 10
3.212823
 20
1.643734
 30
0.000000
  0
VERTEX
  8
LAYER-1
 10
3.218552
 20
1.642778
 30
0.000000
  0
VERTEX
  8
LAYER-1
 10
3.224281
 20
1.638959
 30
0.000000
  0
VERTEX
  8
LAYER-1
 10
3.230010
 20
1.638959
 30
0.000000
  0
VERTEX
  8
LAYER-1
 10
3.235739
 20
1.642778
 30
0.000000
  0
VERTEX
  8
LAYER-1
 10
3.238605
 20
1.648508
 30
0.000000
  0
VERTEX
  8
LAYER-1
 10
3.240513
 20
1.654236
 30
0.000000
  0
VERTEX
  8
LAYER-1
 10
3.240513
 20
1.659966
 30
0.000000
  0
VERTEX
  8
LAYER-1
 10
3.235739
 20
1.665696
 30
0.000000
  0
VERTEX
  8
LAYER-1
 10
3.230965
 20
1.672379
 30
0.000000
  0
VERTEX
  8
LAYER-1
 10
3.226191
 20
1.675244
 30
0.000000
  0
VERTEX
  8
LAYER-1
 10
3.220461
 20
1.676199
 30
0.000000
  0
VERTEX
  8
LAYER-1
 10
3.214733
 20
1.674289
 30
0.000000
  0
VERTEX
  8
LAYER-1
 10
3.211868
 20
1.668559
 30
0.000000
  0
SEQEND
  8
LAYER-1
  0
POLYLINE
  8
LAYER-1
 66
  1
 70
  0
 62
  7
 10
3.530791
 20
1.310488
 30
0.000000
  0
VERTEX
  8
LAYER-1
 10
3.530791
 20
1.310488
 30
0.000000
  0
VERTEX
  8
LAYER-1
 10
3.525063
 20
1.305713
 30
0.000000
  0
VERTEX
  8
LAYER-1
 10
3.520288
 20
1.305713
 30
0.000000
  0
VERTEX
  8
LAYER-1
 10
3.514559
 20
1.305713
 30
0.000000
  0
VERTEX
  8
LAYER-1
 10
3.509786
 20
1.301893
 30
0.000000
  0
VERTEX
  8
LAYER-1
 10
3.505966
 20
1.296165
 30
0.000000
  0
VERTEX
  8
LAYER-1
 10
3.506920
 20
1.290435
 30
0.000000
  0
VERTEX
  8
LAYER-1
 10
3.508830
 20
1.284706
 30
0.000000
  0
VERTEX
  8
LAYER-1
 10
3.514559
 20
1.283751
 30
0.000000
  0
VERTEX
  8
LAYER-1
 10
3.520288
 20
1.286616
 30
0.000000
  0
VERTEX
  8
LAYER-1
 10
3.525063
 20
1.289480
 30
0.000000
  0
VERTEX
  8
LAYER-1
 10
3.530791
 20
1.289480
 30
0.000000
  0
VERTEX
  8
LAYER-1
 10
3.536521
 20
1.289480
 30
0.000000
  0
VERTEX
  8
LAYER-1
 10
3.542250
 20
1.289480
 30
0.000000
  0
VERTEX
  8
LAYER-1
 10
3.545114
 20
1.295209
 30
0.000000
  0
VERTEX
  8
LAYER-1
 10
3.547025
 20
1.299984
 30
0.000000
  0
VERTEX
  8
LAYER-1
 10
3.548934
 20
1.305713
 30
0.000000
  0
VERTEX
  8
LAYER-1
 10
3.547025
 20
1.311442
 30
0.000000
  0
VERTEX
  8
LAYER-1
 10
3.542250
 20
1.317172
 30
0.000000
  0
VERTEX
  8
LAYER-1
 10
3.536521
 20
1.316216
 30
0.000000
  0
VERTEX
  8
LAYER-1
 10
3.530791
 20
1.312397
 30
0.000000
  0
SEQEND
  8
LAYER-1
  0
POLYLINE
  8
LAYER-1
 66
  1
 70
  0
 62
  7
 10
4.409785
 20
2.110487
 30
0.000000
  0
VERTEX
  8
LAYER-1
 10
4.409785
 20
2.110487
 30
0.000000
  0
VERTEX
  8
LAYER-1
 10
4.408830
 20
2.105712
 30
0.000000
  0
VERTEX
  8
LAYER-1
 10
4.402146
 20
2.102848
 30
0.000000
  0
VERTEX
  8
LAYER-1
 10
4.400236
 20
2.097118
 30
0.000000
  0
VERTEX
  8
LAYER-1
 10
4.399281
 20
2.091390
 30
0.000000
  0
VERTEX
  8
LAYER-1
 10
4.405011
 20
2.086615
 30
0.000000
  0
VERTEX
  8
LAYER-1
 10
4.410739
 20
2.084706
 30
0.000000
  0
VERTEX
  8
LAYER-1
 10
4.416469
 20
2.083751
 30
0.000000
  0
VERTEX
  8
LAYER-1
 10
4.422198
 20
2.079931
 30
0.000000
  0
VERTEX
  8
LAYER-1
 10
4.427927
 20
2.079931
 30
0.000000
  0
VERTEX
  8
LAYER-1
 10
4.433656
 20
2.083751
 30
0.000000
  0
VERTEX
  8
LAYER-1
 10
4.436520
 20
2.089480
 30
0.000000
  0
VERTEX
  8
LAYER-1
 10
4.438431
 20
2.095210
 30
0.000000
  0
VERTEX
  8
LAYER-1
 10
4.438431
 20
2.100938
 30
0.000000
  0
VERTEX
  8
LAYER-1
 10
4.433656
 20
2.106668
 30
0.000000
  0
VERTEX
  8
LAYER-1
 10
4.428882
 20
2.113352
 30
0.000000
  0
VERTEX
  8
LAYER-1
 10
4.424107
 20
2.116216
 30
0.000000
  0
VERTEX
  8
LAYER-1
 10
4.418379
 20
2.117170
 30
0.000000
  0
VERTEX
  8
LAYER-1
 10
4.412649
 20
2.115261
 30
0.000000
  0
VERTEX
  8
LAYER-1
 10
4.409785
 20
2.109532
 30
0.000000
  0
SEQEND
  8
LAYER-1
  0
POLYLINE
  8
LAYER-1
 66
  1
 70
  0
 62
  7
 10
4.728708
 20
1.751460
 30
0.000000
  0
VERTEX
  8
LAYER-1
 10
4.728708
 20
1.751460
 30
0.000000
  0
VERTEX
  8
LAYER-1
 10
4.722980
 20
1.746685
 30
0.000000
  0
VERTEX
  8
LAYER-1
 10
4.718205
 20
1.746685
 30
0.000000
  0
VERTEX
  8
LAYER-1
 10
4.712476
 20
1.746685
 30
0.000000
  0
VERTEX
  8
LAYER-1
 10
4.707701
 20
1.742865
 30
0.000000
  0
VERTEX
  8
LAYER-1
 10
4.703882
 20
1.737137
 30
0.000000
  0
VERTEX
  8
LAYER-1
 10
4.704836
 20
1.731407
 30
0.000000
  0
VERTEX
  8
LAYER-1
 10
4.706747
 20
1.725679
 30
0.000000
  0
VERTEX
  8
LAYER-1
 10
4.712476
 20
1.724724
 30
0.000000
  0
VERTEX
  8
LAYER-1
 10
4.718205
 20
1.727587
 30
0.000000
  0
VERTEX
  8
LAYER-1
 10
4.722980
 20
1.730453
 30
0.000000
  0
VERTEX
  8
LAYER-1
 10
4.728708
 20
1.730453
 30
0.000000
  0
VERTEX
  8
LAYER-1
 10
4.734437
 20
1.730453
 30
0.000000
  0
VERTEX
  8
LAYER-1
 10
4.740167
 20
1.730453
 30
0.000000
  0
VERTEX
  8
LAYER-1
 10
4.743032
 20
1.736181
 30
0.000000
  0
VERTEX
  8
LAYER-1
 10
4.744941
 20
1.740956
 30
0.000000
  0
VERTEX
  8
LAYER-1
 10
4.746851
 20
1.746685
 30
0.000000
  0
VERTEX
  8
LAYER-1
 10
4.744941
 20
1.752414
 30
0.000000
  0
VERTEX
  8
LAYER-1
 10
4.740167
 20
1.758143
 30
0.000000
  0
VERTEX
  8
LAYER-1
 10
4.734437
 20
1.757189
 30
0.000000
  0
VERTEX
  8
LAYER-1
 10
4.728708
 20
1.753369
 30
0.000000
  0
SEQEND
  8
LAYER-1
  0
POLYLINE
  8
LAYER-1
 66
  1
 70
  0
 62
  7
 10
4.342423
 20
1.108231
 30
0.000000
  0
VERTEX
  8
LAYER-1
 10
4.342423
 20
1.108231
 30
0.000000
  0
VERTEX
  8
LAYER-1
 10
4.343379
 20
1.113005
 30
0.000000
  0
VERTEX
  8
LAYER-1
 10
4.350062
 20
1.115870
 30
0.000000
  0
VERTEX
  8
LAYER-1
 10
4.351973
 20
1.121600
 30
0.000000
  0
VERTEX
  8
LAYER-1
 10
4.352927
 20
1.127328
 30
0.000000
  0
VERTEX
  8
LAYER-1
 10
4.347198
 20
1.132102
 30
0.000000
  0
VERTEX
  8
LAYER-1
 10
4.341469
 20
1.134012
 30
0.000000
  0
VERTEX
  8
LAYER-1
 10
4.335740
 20
1.134967
 30
0.000000
  0
VERTEX
  8
LAYER-1
 10
4.330011
 20
1.138786
 30
0.000000
  0
VERTEX
  8
LAYER-1
 10
4.324281
 20
1.138786
 30
0.000000
  0
VERTEX
  8
LAYER-1
 10
4.318552
 20
1.134967
 30
0.000000
  0
VERTEX
  8
LAYER-1
 10
4.315688
 20
1.129238
 30
0.000000
  0
VERTEX
  8
LAYER-1
 10
4.313779
 20
1.123509
 30
0.000000
  0
VERTEX
  8
LAYER-1
 10
4.313779
 20
1.117780
 30
0.000000
  0
VERTEX
  8
LAYER-1
 10
4.318552
 20
1.112050
 30
0.000000
  0
VERTEX
  8
LAYER-1
 10
4.323327
 20
1.105366
 30
0.000000
  0
VERTEX
  8
LAYER-1
 10
4.328100
 20
1.102502
 30
0.000000
  0
VERTEX
  8
LAYER-1
 10
4.333829
 20
1.101547
 30
0.000000
  0
VERTEX
  8
LAYER-1
 10
4.339560
 20
1.103456
 30
0.000000
  0
VERTEX
  8
LAYER-1
 10
4.342423
 20
1.109186
 30
0.000000
  0
SEQEND
  8
LAYER-1
  0
POLYLINE
  8
LAYER-1
 66
  1
 70
  0
 62
  7
 10
4.023500
 20
1.467259
 30
0.000000
  0
VERTEX
  8
LAYER-1
 10
4.023500
 20
1.467259
 30
0.000000
  0
VERTEX
  8
LAYER-1
 10
4.029229
 20
1.472033
 30
0.000000
  0
VERTEX
  8
LAYER-1
 10
4.034003
 20
1.472033
 30
0.000000
  0
VERTEX
  8
LAYER-1
 10
4.039732
 20
1.472033
 30
0.000000
  0
VERTEX
  8
LAYER-1
 10
4.044507
 20
1.475852
 30
0.000000
  0
VERTEX
  8
LAYER-1
 10
4.048327
 20
1.481581
 30
0.000000
  0
VERTEX
  8
LAYER-1
 10
4.047371
 20
1.487311
 30
0.000000
  0
VERTEX
  8
LAYER-1
 10
4.045462
 20
1.493040
 30
0.000000
  0
VERTEX
  8
LAYER-1
 10
4.039732
 20
1.493995
 30
0.000000
  0
VERTEX
  8
LAYER-1
 10
4.034003
 20
1.491131
 30
0.000000
  0
VERTEX
  8
LAYER-1
 10
4.029229
 20
1.488266
 30
0.000000
  0
VERTEX
  8
LAYER-1
 10
4.023500
 20
1.488266
 30
0.000000
  0
VERTEX
  8
LAYER-1
 10
4.017771
 20
1.488266
 30
0.000000
  0
VERTEX
  8
LAYER-1
 10
4.012042
 20
1.488266
 30
0.000000
  0
VERTEX
  8
LAYER-1
 10
4.009178
 20
1.482536
 30
0.000000
  0
VERTEX
  8
LAYER-1
 10
4.007267
 20
1.477762
 30
0.000000
  0
VERTEX
  8
LAYER-1
 10
4.005358
 20
1.472033
 30
0.000000
  0
VERTEX
  8
LAYER-1
 10
4.007267
 20
1.466304
 30
0.000000
  0
VERTEX
  8
LAYER-1
 10
4.012042
 20
1.460574
 30
0.000000
  0
VERTEX
  8
LAYER-1
 10
4.017771
 20
1.461530
 30
0.000000
  0
VERTEX
  8
LAYER-1
 10
4.023500
 20
1.465350
 30
0.000000
  0
SEQEND
  8
LAYER-1
  0
POLYLINE
  8
LAYER-1
 66
  1
 70
  0
 62
  7
 10
4.693987
 20
2.553543
 30
0.000000
  0
VERTEX
  8
LAYER-1
 10
4.693987
 20
2.553543
 30
0.000000
  0
VERTEX
  8
LAYER-1
 10
4.693031
 20
2.548768
 30
0.000000
  0
VERTEX
  8
LAYER-1
 10
4.686347
 20
2.545904
 30
0.000000
  0
VERTEX
  8
LAYER-1
 10
4.684437
 20
2.540174
 30
0.000000
  0
VERTEX
  8
LAYER-1
 10
4.683483
 20
2.534446
 30
0.000000
  0
VERTEX
  8
LAYER-1
 10
4.689211
 20
2.529671
 30
0.000000
  0
VERTEX
  8
LAYER-1
 10
4.694941
 20
2.527761
 30
0.000000
  0
VERTEX
  8
LAYER-1
 10
4.700671
 20
2.526807
 30
0.000000
  0
VERTEX
  8
LAYER-1
 10
4.706399
 20
2.522987
 30
0.000000
  0
VERTEX
  8
LAYER-1
 10
4.712128
 20
2.522987
 30
0.000000
  0
VERTEX
  8
LAYER-1
 10
4.717857
 20
2.526807
 30
0.000000
  0
VERTEX
  8
LAYER-1
 10
4.720723
 20
2.532535
 30
0.000000
  0
VERTEX
  8
LAYER-1
 10
4.722632
 20
2.538265
 30
0.000000
  0
VERTEX
  8
LAYER-1
 10
4.722632
 20
2.543993
 30
0.000000
  0
VERTEX
  8
LAYER-1
 10
4.717857
 20
2.549723
 30
0.000000
  0
VERTEX
  8
LAYER-1
 10
4.713083
 20
2.556408
 30
0.000000
  0
VERTEX
  8
LAYER-1
 10
4.708309
 20
2.559272
 30
0.000000
  0
VERTEX
  8
LAYER-1
 10
4.702580
 20
2.560226
 30
0.000000
  0
VERTEX
  8
LAYER-1
 10
4.696851
 20
2.558317
 30
0.000000
  0
VERTEX
  8
LAYER-1
 10
4.693987
 20
2.552588
 30
0.000000
  0
SEQEND
  8
LAYER-1
  0
POLYLINE
  8
LAYER-1
 66
  1
 70
  0
 62
  7
 10
5.012909
 20
2.194515
 30
0.000000
  0
VERTEX
  8
LAYER-1
 10
5.012909
 20
2.194515
 30
0.000000
  0
VERTEX
  8
LAYER-1
 10
5.007180
 20
2.189741
 30
0.000000
  0
VERTEX
  8
LAYER-1
 10
5.002406
 20
2.189741
 30
0.000000
  0
VERTEX
  8
LAYER-1
 10
4.996677
 20
2.189741
 30
0.000000
  0
VERTEX
  8
LAYER-1
 10
4.991903
 20
2.185921
 30
0.000000
  0
VERTEX
  8
LAYER-1
 10
4.988083
 20
2.180192
 30
0.000000
  0
VERTEX
  8
LAYER-1
 10
4.989038
 20
2.174463
 30
0.000000
  0
VERTEX
  8
LAYER-1
 10
4.990948
 20
2.168734
 30
0.000000
  0
VERTEX
  8
LAYER-1
 10
4.996677
 20
2.167780
 30
0.000000
  0
VERTEX
  8
LAYER-1
 10
5.002406
 20
2.170643
 30
0.000000
  0
VERTEX
  8
LAYER-1
 10
5.007180
 20
2.173508
 30
0.000000
  0
VERTEX
  8
LAYER-1
 10
5.012909
 20
2.173508
 30
0.000000
  0
VERTEX
  8
LAYER-1
 10
5.018640
 20
2.173508
 30
0.000000
  0
VERTEX
  8
LAYER-1
 10
5.024368
 20
2.173508
 30
0.000000
  0
VERTEX
  8
LAYER-1
 10
5.027233
 20
2.179237
 30
0.000000
  0
VERTEX
  8
LAYER-1
 10
5.029143
 20
2.184012
 30
0.000000
  0
VERTEX
  8
LAYER-1
 10
5.031052
 20
2.189741
 30
0.000000
  0
VERTEX
  8
LAYER-1
 10
5.029143
 20
2.195469
 30
0.000000
  0
VERTEX
  8
LAYER-1
 10
5.024368
 20
2.201199
 30
0.000000
  0
VERTEX
  8
LAYER-1
 10
5.018640
 20
2.200245
 30
0.000000
  0
VERTEX
  8
LAYER-1
 10
5.012909
 20
2.196425
 30
0.000000
  0
SEQEND
  8
LAYER-1
  0
POLYLINE
  8
LAYER-1
 66
  1
 70
  0
 62
  7
 10
3.169333
 20
2.817953
 30
0.000000
  0
VERTEX
  8
LAYER-1
 10
3.169333
 20
2.817953
 30
0.000000
  0
VERTEX
  8
LAYER-1
 10
3.174107
 20
2.816998
 30
0.000000
  0
VERTEX
  8
LAYER-1
 10
3.176971
 20
2.810314
 30
0.000000
  0
VERTEX
  8
LAYER-1
 10
3.182702
 20
2.808405
 30
0.000000
  0
VERTEX
  8
LAYER-1
 10
3.188431
 20
2.807449
 30
0.000000
  0
VERTEX
  8
LAYER-1
 10
3.193204
 20
2.813179
 30
0.000000
  0
VERTEX
  8
LAYER-1
 10
3.195115
 20
2.818908
 30
0.000000
  0
VERTEX
  8
LAYER-1
 10
3.196069
 20
2.824637
 30
0.000000
  0
VERTEX
  8
LAYER-1
 10
3.199889
 20
2.830367
 30
0.000000
  0
VERTEX
  8
LAYER-1
 10
3.199889
 20
2.836095
 30
0.000000
  0
VERTEX
  8
LAYER-1
 10
3.196069
 20
2.841825
 30
0.000000
  0
VERTEX
  8
LAYER-1
 10
3.190340
 20
2.844690
 30
0.000000
  0
VERTEX
  8
LAYER-1
 10
3.184611
 20
2.846599
 30
0.000000
  0
VERTEX
  8
LAYER-1
 10
3.178882
 20
2.846599
 30
0.000000
  0
VERTEX
  8
LAYER-1
 10
3.173152
 20
2.841825
 30
0.000000
  0
VERTEX
  8
LAYER-1
 10
3.166469
 20
2.837051
 30
0.000000
  0
VERTEX
  8
LAYER-1
 10
3.163604
 20
2.832276
 30
0.000000
  0
VERTEX
  8
LAYER-1
 10
3.162650
 20
2.826547
 30
0.000000
  0
VERTEX
  8
LAYER-1
 10
3.164559
 20
2.820817
 30
0.000000
  0
VERTEX
  8
LAYER-1
 10
3.170289
 20
2.817953
 30
0.000000
  0
SEQEND
  8
LAYER-1
  0
POLYLINE
  8
LAYER-1
 66
  1
 70
  0
 62
  7
 10
3.528361
 20
3.136877
 30
0.000000
  0
VERTEX
  8
LAYER-1
 10
3.528361
 20
3.136877
 30
0.000000
  0
VERTEX
  8
LAYER-1
 10
3.533134
 20
3.131148
 30
0.000000
  0
VERTEX
  8
LAYER-1
 10
3.533134
 20
3.126373
 30
0.000000
  0
VERTEX
  8
LAYER-1
 10
3.533134
 20
3.120644
 30
0.000000
  0
VERTEX
  8
LAYER-1
 10
3.536954
 20
3.115870
 30
0.000000
  0
VERTEX
  8
LAYER-1
 10
3.542683
 20
3.112051
 30
0.000000
  0
VERTEX
  8
LAYER-1
 10
3.548413
 20
3.113005
 30
0.000000
  0
VERTEX
  8
LAYER-1
 10
3.554142
 20
3.114915
 30
0.000000
  0
VERTEX
  8
LAYER-1
 10
3.555097
 20
3.120644
 30
0.000000
  0
VERTEX
  8
LAYER-1
 10
3.552233
 20
3.126373
 30
0.000000
  0
VERTEX
  8
LAYER-1
 10
3.549368
 20
3.131148
 30
0.000000
  0
VERTEX
  8
LAYER-1
 10
3.549368
 20
3.136877
 30
0.000000
  0
VERTEX
  8
LAYER-1
 10
3.549368
 20
3.142606
 30
0.000000
  0
VERTEX
  8
LAYER-1
 10
3.549368
 20
3.148335
 30
0.000000
  0
VERTEX
  8
LAYER-1
 10
3.543638
 20
3.151199
 30
0.000000
  0
VERTEX
  8
LAYER-1
 10
3.538864
 20
3.153109
 30
0.000000
  0
VERTEX
  8
LAYER-1
 10
3.533134
 20
3.155019
 30
0.000000
  0
VERTEX
  8
LAYER-1
 10
3.527406
 20
3.153109
 30
0.000000
  0
VERTEX
  8
LAYER-1
 10
3.521677
 20
3.148335
 30
0.000000
  0
VERTEX
  8
LAYER-1
 10
3.522632
 20
3.142606
 30
0.000000
  0
VERTEX
  8
LAYER-1
 10
3.526451
 20
3.136877
 30
0.000000
  0
SEQEND
  8
LAYER-1
  0
POLYLINE
  8
LAYER-1
 66
  1
 70
  0
 62
  7
 10
3.866207
 20
3.115175
 30
0.000000
  0
VERTEX
  8
LAYER-1
 10
3.866207
 20
3.115175
 30
0.000000
  0
VERTEX
  8
LAYER-1
 10
3.870983
 20
3.114220
 30
0.000000
  0
VERTEX
  8
LAYER-1
 10
3.873847
 20
3.107536
 30
0.000000
  0
VERTEX
  8
LAYER-1
 10
3.879576
 20
3.105626
 30
0.000000
  0
VERTEX
  8
LAYER-1
 10
3.885306
 20
3.104671
 30
0.000000
  0
VERTEX
  8
LAYER-1
 10
3.890080
 20
3.110401
 30
0.000000
  0
VERTEX
  8
LAYER-1
 10
3.891989
 20
3.116129
 30
0.000000
  0
VERTEX
  8
LAYER-1
 10
3.892944
 20
3.121859
 30
0.000000
  0
VERTEX
  8
LAYER-1
 10
3.896764
 20
3.127588
 30
0.000000
  0
VERTEX
  8
LAYER-1
 10
3.896764
 20
3.133317
 30
0.000000
  0
VERTEX
  8
LAYER-1
 10
3.892944
 20
3.139046
 30
0.000000
  0
VERTEX
  8
LAYER-1
 10
3.887215
 20
3.141911
 30
0.000000
  0
VERTEX
  8
LAYER-1
 10
3.881487
 20
3.143821
 30
0.000000
  0
VERTEX
  8
LAYER-1
 10
3.875757
 20
3.143821
 30
0.000000
  0
VERTEX
  8
LAYER-1
 10
3.870027
 20
3.139046
 30
0.000000
  0
VERTEX
  8
LAYER-1
 10
3.863343
 20
3.134272
 30
0.000000
  0
VERTEX
  8
LAYER-1
 10
3.860479
 20
3.129498
 30
0.000000
  0
VERTEX
  8
LAYER-1
 10
3.859525
 20
3.123769
 30
0.000000
  0
VERTEX
  8
LAYER-1
 10
3.861434
 20
3.118040
 30
0.000000
  0
VERTEX
  8
LAYER-1
 10
3.867163
 20
3.115175
 30
0.000000
  0
SEQEND
  8
LAYER-1
  0
POLYLINE
  8
LAYER-1
 66
  1
 70
  0
 62
  7
 10
4.225236
 20
3.434099
 30
0.000000
  0
VERTEX
  8
LAYER-1
 10
4.225236
 20
3.434099
 30
0.000000
  0
VERTEX
  8
LAYER-1
 10
4.230010
 20
3.428369
 30
0.000000
  0
VERTEX
  8
LAYER-1
 10
4.230010
 20
3.423595
 30
0.000000
  0
VERTEX
  8
LAYER-1
 10
4.230010
 20
3.417867
 30
0.000000
  0
VERTEX
  8
LAYER-1
 10
4.233830
 20
3.413092
 30
0.000000
  0
VERTEX
  8
LAYER-1
 10
4.239558
 20
3.409273
 30
0.000000
  0
VERTEX
  8
LAYER-1
 10
4.245288
 20
3.410227
 30
0.000000
  0
VERTEX
  8
LAYER-1
 10
4.251018
 20
3.412137
 30
0.000000
  0
VERTEX
  8
LAYER-1
 10
4.251971
 20
3.417867
 30
0.000000
  0
VERTEX
  8
LAYER-1
 10
4.249107
 20
3.423595
 30
0.000000
  0
VERTEX
  8
LAYER-1
 10
4.246242
 20
3.428369
 30
0.000000
  0
VERTEX
  8
LAYER-1
 10
4.246242
 20
3.434099
 30
0.000000
  0
VERTEX
  8
LAYER-1
 10
4.246242
 20
3.439828
 30
0.000000
  0
VERTEX
  8
LAYER-1
 10
4.246242
 20
3.445557
 30
0.000000
  0
VERTEX
  8
LAYER-1
 10
4.240514
 20
3.448422
 30
0.000000
  0
VERTEX
  8
LAYER-1
 10
4.235738
 20
3.450331
 30
0.000000
  0
VERTEX
  8
LAYER-1
 10
4.230010
 20
3.452242
 30
0.000000
  0
VERTEX
  8
LAYER-1
 10
4.224281
 20
3.450331
 30
0.000000
  0
VERTEX
  8
LAYER-1
 10
4.218552
 20
3.445557
 30
0.000000
  0
VERTEX
  8
LAYER-1
 10
4.219506
 20
3.439828
 30
0.000000
  0
VERTEX
  8
LAYER-1
 10
4.223326
 20
3.434099
 30
0.000000
  0
SEQEND
  8
LAYER-1
  0
POLYLINE
  8
LAYER-1
 66
  1
 70
  0
 62
  7
 10
2.576714
 20
5.329819
 30
0.000000
  0
VERTEX
  8
LAYER-1
 10
2.576714
 20
5.329819
 30
0.000000
  0
VERTEX
  8
LAYER-1
 10
2.576714
 20
5.209507
 30
0.000000
  0
SEQEND
  8
LAYER-1
  0
POLYLINE
  8
LAYER-1
 66
  1
 70
  1
 62
  7
 10
2.365260
 20
4.062754
 30
0.000000
  0
VERTEX
  8
LAYER-1
 10
2.365260
 20
4.062754
 30
0.000000
  0
VERTEX
  8
LAYER-1
 10
2.363604
 20
5.422616
 30
0.000000
  0
VERTEX
  8
LAYER-1
 10
2.576714
 20
5.209507
 30
0.000000
  0
VERTEX
  8
LAYER-1
 10
2.576714
 20
5.329819
 30
0.000000
  0
VERTEX
  8
LAYER-1
 10
2.863938
 20
5.042593
 30
0.000000
  0
VERTEX
  8
LAYER-1
 10
2.862555
 20
4.062754
 30
0.000000
  0
SEQEND
  8
LAYER-1
  0
POLYLINE
  8
LAYER-1
 66
  1
 70
  0
 62
  7
 10
2.191712
 20
5.594506
 30
0.000000
  0
VERTEX
  8
LAYER-1
 10
2.191712
 20
5.594506
 30
0.000000
  0
VERTEX
  8
LAYER-1
 10
2.576714
 20
5.209507
 30
0.000000
  0
SEQEND
  8
LAYER-1
  0
POLYLINE
  8
LAYER-1
 66
  1
 70
  0
 62
  7
 10
2.576714
 20
5.329819
 30
0.000000
  0
VERTEX
  8
LAYER-1
 10
2.576714
 20
5.329819
 30
0.000000
  0
VERTEX
  8
LAYER-1
 10
3.033902
 20
4.872629
 30
0.000000
  0
SEQEND
  8
LAYER-1
  0
POLYLINE
  8
LAYER-1
 66
  1
 70
  1
 62
  7
 10
1.752901
 20
1.912311
 30
0.000000
  0
VERTEX
  8
LAYER-1
 10
1.752901
 20
1.912311
 30
0.000000
  0
VERTEX
  8
LAYER-1
 10
1.804724
 20
1.957539
 30
0.000000
  0
VERTEX
  8
LAYER-1
 10
1.687504
 20
1.997822
 30
0.000000
  0
SEQEND
  8
LAYER-1
  0
POLYLINE
  8
LAYER-1
 66
  1
 70
  1
 62
  7
 10
0.389700
 20
2.247215
 30
0.000000
  0
VERTEX
  8
LAYER-1
 10
0.389700
 20
2.247215
 30
0.000000
  0
VERTEX
  8
LAYER-1
 10
0.441524
 20
2.292443
 30
0.000000
  0
VERTEX
  8
LAYER-1
 10
0.324303
 20
2.332727
 30
0.000000
  0
SEQEND
  8
LAYER-1
  0
POLYLINE
  8
LAYER-1
 66
  1
 70
  1
 62
  7
 10
3.926278
 20
2.144342
 30
0.000000
  0
VERTEX
  8
LAYER-1
 10
3.926278
 20
2.144342
 30
0.000000
  0
VERTEX
  8
LAYER-1
 10
3.909433
 20
2.211032
 30
0.000000
  0
VERTEX
  8
LAYER-1
 10
3.820419
 20
2.124778
 30
0.000000
  0
SEQEND
  8
LAYER-1
  0
POLYLINE
  8
LAYER-1
 66
  1
 70
  1
 62
  7
 10
0.927288
 20
2.282606
 30
0.000000
  0
VERTEX
  8
LAYER-1
 10
0.927288
 20
2.282606
 30
0.000000
  0
VERTEX
  8
LAYER-1
 10
0.944134
 20
2.215918
 30
0.000000
  0
VERTEX
  8
LAYER-1
 10
1.033149
 20
2.302172
 30
0.000000
  0
SEQEND
  8
LAYER-1
  0
POLYLINE
  8
LAYER-1
 66
  1
 70
  1
 62
  7
 10
2.039713
 20
1.321591
 30
0.000000
  0
VERTEX
  8
LAYER-1
 10
2.039713
 20
1.321591
 30
0.000000
  0
VERTEX
  8
LAYER-1
 10
1.972689
 20
1.337058
 30
0.000000
  0
VERTEX
  8
LAYER-1
 10
2.008779
 20
1.218478
 30
0.000000
  0
SEQEND
  8
LAYER-1
  0
POLYLINE
  8
LAYER-1
 66
  1
 70
  1
 62
  7
 10
0.620871
 20
1.434106
 30
0.000000
  0
VERTEX
  8
LAYER-1
 10
0.620871
 20
1.434106
 30
0.000000
  0
VERTEX
  8
LAYER-1
 10
0.672694
 20
1.479334
 30
0.000000
  0
VERTEX
  8
LAYER-1
 10
0.555473
 20
1.519616
 30
0.000000
  0
SEQEND
  8
LAYER-1
  0
POLYLINE
  8
LAYER-1
 66
  1
 70
  1
 62
  7
 10
1.607781
 20
2.644379
 30
0.000000
  0
VERTEX
  8
LAYER-1
 10
1.607781
 20
2.644379
 30
0.000000
  0
VERTEX
  8
LAYER-1
 10
1.659604
 20
2.689608
 30
0.000000
  0
VERTEX
  8
LAYER-1
 10
1.542384
 20
2.729891
 30
0.000000
  0
SEQEND
  8
LAYER-1
  0
POLYLINE
  8
LAYER-1
 66
  1
 70
  1
 62
  7
 10
0.267211
 20
2.879858
 30
0.000000
  0
VERTEX
  8
LAYER-1
 10
0.267211
 20
2.879858
 30
0.000000
  0
VERTEX
  8
LAYER-1
 10
0.284056
 20
2.813167
 30
0.000000
  0
VERTEX
  8
LAYER-1
 10
0.373070
 20
2.899422
 30
0.000000
  0
SEQEND
  8
LAYER-1
  0
POLYLINE
  8
LAYER-1
 66
  1
 70
  1
 62
  7
 10
1.190076
 20
3.083773
 30
0.000000
  0
VERTEX
  8
LAYER-1
 10
1.190076
 20
3.083773
 30
0.000000
  0
VERTEX
  8
LAYER-1
 10
1.174609
 20
3.016751
 30
0.000000
  0
VERTEX
  8
LAYER-1
 10
1.293188
 20
3.052841
 30
0.000000
  0
SEQEND
  8
LAYER-1
  0
POLYLINE
  8
LAYER-1
 66
  1
 70
  1
 62
  7
 10
0.351700
 20
2.111039
 30
0.000000
  0
VERTEX
  8
LAYER-1
 10
0.351700
 20
2.111039
 30
0.000000
  0
VERTEX
  8
LAYER-1
 10
0.284677
 20
2.126505
 30
0.000000
  0
VERTEX
  8
LAYER-1
 10
0.320766
 20
2.007926
 30
0.000000
  0
SEQEND
  8
LAYER-1
  0
POLYLINE
  8
LAYER-1
 66
  1
 70
  1
 62
  7
 10
0.389781
 20
1.127362
 30
0.000000
  0
VERTEX
  8
LAYER-1
 10
0.389781
 20
1.127362
 30
0.000000
  0
VERTEX
  8
LAYER-1
 10
0.322759
 20
1.142828
 30
0.000000
  0
VERTEX
  8
LAYER-1
 10
0.358847
 20
1.024249
 30
0.000000
  0
SEQEND
  8
LAYER-1
  0
POLYLINE
  8
LAYER-1
 66
  1
 70
  0
 62
  7
 10
0.926972
 20
1.658925
 30
0.000000
  0
VERTEX
  8
LAYER-1
 10
0.926972
 20
1.658925
 30
0.000000
  0
VERTEX
  8
LAYER-1
 10
0.926017
 20
1.654151
 30
0.000000
  0
VERTEX
  8
LAYER-1
 10
0.919333
 20
1.651287
 30
0.000000
  0
VERTEX
  8
LAYER-1
 10
0.917423
 20
1.645557
 30
0.000000
  0
VERTEX
  8
LAYER-1
 10
0.916469
 20
1.639829
 30
0.000000
  0
VERTEX
  8
LAYER-1
 10
0.922198
 20
1.635054
 30
0.000000
  0
VERTEX
  8
LAYER-1
 10
0.927927
 20
1.633145
 30
0.000000
  0
VERTEX
  8
LAYER-1
 10
0.933656
 20
1.632189
 30
0.000000
  0
VERTEX
  8
LAYER-1
 10
0.939385
 20
1.628369
 30
0.000000
  0
VERTEX
  8
LAYER-1
 10
0.945115
 20
1.628369
 30
0.000000
  0
VERTEX
  8
LAYER-1
 10
0.950843
 20
1.632189
 30
0.000000
  0
VERTEX
  8
LAYER-1
 10
0.953708
 20
1.637918
 30
0.000000
  0
VERTEX
  8
LAYER-1
 10
0.955618
 20
1.643647
 30
0.000000
  0
VERTEX
  8
LAYER-1
 10
0.955618
 20
1.649377
 30
0.000000
  0
VERTEX
  8
LAYER-1
 10
0.950843
 20
1.655107
 30
0.000000
  0
VERTEX
  8
LAYER-1
 10
0.946069
 20
1.661790
 30
0.000000
  0
VERTEX
  8
LAYER-1
 10
0.941295
 20
1.664655
 30
0.000000
  0
VERTEX
  8
LAYER-1
 10
0.935566
 20
1.665610
 30
0.000000
  0
VERTEX
  8
LAYER-1
 10
0.929837
 20
1.663699
 30
0.000000
  0
VERTEX
  8
LAYER-1
 10
0.926972
 20
1.657970
 30
0.000000
  0
SEQEND
  8
LAYER-1
  0
POLYLINE
  8
LAYER-1
 66
  1
 70
  0
 62
  7
 10
1.245896
 20
1.299898
 30
0.000000
  0
VERTEX
  8
LAYER-1
 10
1.245896
 20
1.299898
 30
0.000000
  0
VERTEX
  8
LAYER-1
 10
1.240166
 20
1.295124
 30
0.000000
  0
VERTEX
  8
LAYER-1
 10
1.235392
 20
1.295124
 30
0.000000
  0
VERTEX
  8
LAYER-1
 10
1.229663
 20
1.295124
 30
0.000000
  0
VERTEX
  8
LAYER-1
 10
1.224888
 20
1.291304
 30
0.000000
  0
VERTEX
  8
LAYER-1
 10
1.221069
 20
1.285576
 30
0.000000
  0
VERTEX
  8
LAYER-1
 10
1.222024
 20
1.279846
 30
0.000000
  0
VERTEX
  8
LAYER-1
 10
1.223934
 20
1.274117
 30
0.000000
  0
VERTEX
  8
LAYER-1
 10
1.229663
 20
1.273162
 30
0.000000
  0
VERTEX
  8
LAYER-1
 10
1.235392
 20
1.276026
 30
0.000000
  0
VERTEX
  8
LAYER-1
 10
1.240166
 20
1.278891
 30
0.000000
  0
VERTEX
  8
LAYER-1
 10
1.245896
 20
1.278891
 30
0.000000
  0
VERTEX
  8
LAYER-1
 10
1.251625
 20
1.278891
 30
0.000000
  0
VERTEX
  8
LAYER-1
 10
1.257354
 20
1.278891
 30
0.000000
  0
VERTEX
  8
LAYER-1
 10
1.260219
 20
1.284620
 30
0.000000
  0
VERTEX
  8
LAYER-1
 10
1.262129
 20
1.289395
 30
0.000000
  0
VERTEX
  8
LAYER-1
 10
1.264038
 20
1.295124
 30
0.000000
  0
VERTEX
  8
LAYER-1
 10
1.262129
 20
1.300853
 30
0.000000
  0
VERTEX
  8
LAYER-1
 10
1.257354
 20
1.306583
 30
0.000000
  0
VERTEX
  8
LAYER-1
 10
1.251625
 20
1.305627
 30
0.000000
  0
VERTEX
  8
LAYER-1
 10
1.245896
 20
1.301807
 30
0.000000
  0
SEQEND
  8
LAYER-1
  0
POLYLINE
  8
LAYER-1
 66
  1
 70
  1
 62
  7
 10
3.779357
 20
1.365960
 30
0.000000
  0
VERTEX
  8
LAYER-1
 10
3.779357
 20
1.365960
 30
0.000000
  0
VERTEX
  8
LAYER-1
 10
3.734130
 20
1.417783
 30
0.000000
  0
VERTEX
  8
LAYER-1
 10
3.693846
 20
1.300562
 30
0.000000
  0
SEQEND
  8
LAYER-1
  0
POLYLINE
  8
LAYER-1
 66
  1
 70
  1
 62
  7
 10
4.185912
 20
2.584069
 30
0.000000
  0
VERTEX
  8
LAYER-1
 10
4.185912
 20
2.584069
 30
0.000000
  0
VERTEX
  8
LAYER-1
 10
4.140684
 20
2.635891
 30
0.000000
  0
VERTEX
  8
LAYER-1
 10
4.100402
 20
2.518671
 30
0.000000
  0
SEQEND
  8
LAYER-1
  0
POLYLINE
  8
LAYER-1
 66
  1
 70
  1
 62
  7
 10
3.611324
 20
3.307756
 30
0.000000
  0
VERTEX
  8
LAYER-1
 10
3.611324
 20
3.307756
 30
0.000000
  0
VERTEX
  8
LAYER-1
 10
3.566095
 20
3.359579
 30
0.000000
  0
VERTEX
  8
LAYER-1
 10
3.525812
 20
3.242359
 30
0.000000
  0
SEQEND
  8
LAYER-1
  0
POLYLINE
  8
LAYER-1
 66
  1
 70
  1
 62
  7
 10
3.233411
 20
2.350254
 30
0.000000
  0
VERTEX
  8
LAYER-1
 10
3.233411
 20
2.350254
 30
0.000000
  0
VERTEX
  8
LAYER-1
 10
3.217945
 20
2.283231
 30
0.000000
  0
VERTEX
  8
LAYER-1
 10
3.336524
 20
2.319321
 30
0.000000
  0
SEQEND
  8
LAYER-1
  0
POLYLINE
  8
LAYER-1
 66
  1
 70
  1
 62
  7
 10
4.923204
 20
3.268811
 30
0.000000
  0
VERTEX
  8
LAYER-1
 10
4.923204
 20
3.268811
 30
0.000000
  0
VERTEX
  8
LAYER-1
 10
4.907738
 20
3.201788
 30
0.000000
  0
VERTEX
  8
LAYER-1
 10
5.026316
 20
3.237876
 30
0.000000
  0
SEQEND
  8
LAYER-1
  0
POLYLINE
  8
LAYER-1
 66
  1
 70
  1
 62
  7
 10
4.735003
 20
1.849582
 30
0.000000
  0
VERTEX
  8
LAYER-1
 10
4.735003
 20
1.849582
 30
0.000000
  0
VERTEX
  8
LAYER-1
 10
4.801692
 20
1.866426
 30
0.000000
  0
VERTEX
  8
LAYER-1
 10
4.715438
 20
1.955442
 30
0.000000
  0
SEQEND
  8
LAYER-1
  0
POLYLINE
  8
LAYER-1
 66
  1
 70
  1
 62
  7
 10
5.099967
 20
2.587934
 30
0.000000
  0
VERTEX
  8
LAYER-1
 10
5.099967
 20
2.587934
 30
0.000000
  0
VERTEX
  8
LAYER-1
 10
5.054738
 20
2.639758
 30
0.000000
  0
VERTEX
  8
LAYER-1
 10
5.014456
 20
2.522537
 30
0.000000
  0
SEQEND
  8
LAYER-1
  0
POLYLINE
  8
LAYER-1
 66
  1
 70
  1
 62
  7
 10
3.354838
 20
3.119189
 30
0.000000
  0
VERTEX
  8
LAYER-1
 10
3.354838
 20
3.119189
 30
0.000000
  0
VERTEX
  8
LAYER-1
 10
3.421528
 20
3.136034
 30
0.000000
  0
VERTEX
  8
LAYER-1
 10
3.335273
 20
3.225048
 30
0.000000
  0
SEQEND
  8
LAYER-1
  0
POLYLINE
  8
LAYER-1
 66
  1
 70
  1
 62
  7
 10
3.694994
 20
2.638651
 30
0.000000
  0
VERTEX
  8
LAYER-1
 10
3.694994
 20
2.638651
 30
0.000000
  0
VERTEX
  8
LAYER-1
 10
3.761685
 20
2.655497
 30
0.000000
  0
VERTEX
  8
LAYER-1
 10
3.675430
 20
2.744511
 30
0.000000
  0
SEQEND
  8
LAYER-1
  0
POLYLINE
  8
LAYER-1
 66
  1
 70
  1
 62
  7
 10
4.096928
 20
1.875727
 30
0.000000
  0
VERTEX
  8
LAYER-1
 10
4.096928
 20
1.875727
 30
0.000000
  0
VERTEX
  8
LAYER-1
 10
4.081461
 20
1.808705
 30
0.000000
  0
VERTEX
  8
LAYER-1
 10
4.200040
 20
1.844794
 30
0.000000
  0
SEQEND
  8
LAYER-1
  0
POLYLINE
  8
LAYER-1
 66
  1
 70
  1
 62
  7
 10
4.883797
 20
1.267504
 30
0.000000
  0
VERTEX
  8
LAYER-1
 10
4.883797
 20
1.267504
 30
0.000000
  0
VERTEX
  8
LAYER-1
 10
4.950486
 20
1.284348
 30
0.000000
  0
VERTEX
  8
LAYER-1
 10
4.864231
 20
1.373363
 30
0.000000
  0
SEQEND
  8
LAYER-1
  0
POLYLINE
  8
LAYER-1
 66
  1
 70
  1
 62
  7
 10
4.245722
 20
1.293648
 30
0.000000
  0
VERTEX
  8
LAYER-1
 10
4.245722
 20
1.293648
 30
0.000000
  0
VERTEX
  8
LAYER-1
 10
4.230255
 20
1.226625
 30
0.000000
  0
VERTEX
  8
LAYER-1
 10
4.348834
 20
1.262715
 30
0.000000
  0
SEQEND
  8
LAYER-1
  0
POLYLINE
  8
LAYER-1
  6
LTYPE01
 66
  1
 70
  0
 62
  7
  6
LTYPE01
 10
2.365262
 20
2.899733
 30
0.000000
  0
VERTEX
  8
LAYER-1
  6
LTYPE01
 10
2.365262
 20
2.899733
 30
0.000000
  0
VERTEX
  8
LAYER-1
  6
LTYPE01
 10
2.365260
 20
4.062754
 30
0.000000
  0
SEQEND
  8
LAYER-1
  0
POLYLINE
  8
LAYER-1
  6
LTYPE01
 66
  1
 70
  0
 62
  7
  6
LTYPE01
 10
2.365262
 20
2.899733
 30
0.000000
  0
VERTEX
  8
LAYER-1
  6
LTYPE01
 10
2.365262
 20
2.899733
 30
0.000000
  0
VERTEX
  8
LAYER-1
  6
LTYPE01
 10
2.368071
 20
2.853193
 30
0.000000
  0
VERTEX
  8
LAYER-1
  6
LTYPE01
 10
2.382220
 20
2.806550
 30
0.000000
  0
VERTEX
  8
LAYER-1
  6
LTYPE01
 10
2.405197
 20
2.763562
 30
0.000000
  0
VERTEX
  8
LAYER-1
  6
LTYPE01
 10
2.436120
 20
2.725883
 30
0.000000
  0
VERTEX
  8
LAYER-1
  6
LTYPE01
 10
2.473798
 20
2.694960
 30
0.000000
  0
VERTEX
  8
LAYER-1
  6
LTYPE01
 10
2.516786
 20
2.671984
 30
0.000000
  0
VERTEX
  8
LAYER-1
  6
LTYPE01
 10
2.563430
 20
2.657834
 30
0.000000
  0
VERTEX
  8
LAYER-1
  6
LTYPE01
 10
2.611938
 20
2.653056
 30
0.000000
  0
VERTEX
  8
LAYER-1
  6
LTYPE01
 10
2.660447
 20
2.657834
 30
0.000000
  0
VERTEX
  8
LAYER-1
  6
LTYPE01
 10
2.707092
 20
2.671984
 30
0.000000
  0
VERTEX
  8
LAYER-1
  6
LTYPE01
 10
2.750079
 20
2.694960
 30
0.000000
  0
VERTEX
  8
LAYER-1
  6
LTYPE01
 10
2.787758
 20
2.725883
 30
0.000000
  0
VERTEX
  8
LAYER-1
  6
LTYPE01
 10
2.818680
 20
2.763562
 30
0.000000
  0
VERTEX
  8
LAYER-1
  6
LTYPE01
 10
2.841657
 20
2.806550
 30
0.000000
  0
VERTEX
  8
LAYER-1
  6
LTYPE01
 10
2.855807
 20
2.853193
 30
0.000000
  0
VERTEX
  8
LAYER-1
  6
LTYPE01
 10
2.862553
 20
2.899733
 30
0.000000
  0
SEQEND
  8
LAYER-1
  0
POLYLINE
  8
LAYER-1
  6
LTYPE01
 66
  1
 70
  0
 62
  7
  6
LTYPE01
 10
2.862553
 20
2.899733
 30
0.000000
  0
VERTEX
  8
LAYER-1
  6
LTYPE01
 10
2.862553
 20
2.899733
 30
0.000000
  0
VERTEX
  8
LAYER-1
  6
LTYPE01
 10
2.862555
 20
4.062754
 30
0.000000
  0
SEQEND
  8
LAYER-1
  0
POLYLINE
  8
LAYER-1
  6
LTYPE01
 66
  1
 70
  0
 62
  7
  6
LTYPE01
 10
2.365260
 20
4.062754
 30
0.000000
  0
VERTEX
  8
LAYER-1
  6
LTYPE01
 10
2.365260
 20
4.062754
 30
0.000000
  0
VERTEX
  8
LAYER-1
  6
LTYPE01
 10
2.862555
 20
4.062754
 30
0.000000
  0
SEQEND
  8
LAYER-1
  0
POLYLINE
  8
LAYER-1
 66
  1
 70
  0
 62
  7
 10
1.896041
 20
3.946452
 30
0.000000
  0
VERTEX
  8
LAYER-1
 10
1.896041
 20
3.946452
 30
0.000000
  0
VERTEX
  8
LAYER-1
 10
2.092552
 20
4.062754
 30
0.000000
  0
SEQEND
  8
LAYER-1
  0
POLYLINE
  8
LAYER-1
 66
  1
 70
  0
 62
  7
 10
1.896041
 20
3.946452
 30
0.000000
  0
VERTEX
  8
LAYER-1
 10
1.896041
 20
3.946452
 30
0.000000
  0
VERTEX
  8
LAYER-1
 10
1.896041
 20
3.922389
 30
0.000000
  0
SEQEND
  8
LAYER-1
  0
POLYLINE
  8
LAYER-1
 66
  1
 70
  0
 62
  7
 10
1.896041
 20
3.922389
 30
0.000000
  0
VERTEX
  8
LAYER-1
 10
1.896041
 20
3.922389
 30
0.000000
  0
VERTEX
  8
LAYER-1
 10
3.335783
 20
3.922389
 30
0.000000
  0
SEQEND
  8
LAYER-1
  0
POLYLINE
  8
LAYER-1
 66
  1
 70
  0
 62
  7
 10
3.335783
 20
3.922389
 30
0.000000
  0
VERTEX
  8
LAYER-1
 10
3.335783
 20
3.922389
 30
0.000000
  0
VERTEX
  8
LAYER-1
 10
3.335783
 20
3.946452
 30
0.000000
  0
SEQEND
  8
LAYER-1
  0
POLYLINE
  8
LAYER-1
 66
  1
 70
  0
 62
  7
 10
3.335783
 20
3.946452
 30
0.000000
  0
VERTEX
  8
LAYER-1
 10
3.335783
 20
3.946452
 30
0.000000
  0
VERTEX
  8
LAYER-1
 10
3.135262
 20
4.062754
 30
0.000000
  0
SEQEND
  8
LAYER-1
  0
POLYLINE
  8
LAYER-1
 66
  1
 70
  0
 62
  7
 10
2.092552
 20
4.062754
 30
0.000000
  0
VERTEX
  8
LAYER-1
 10
2.092552
 20
4.062754
 30
0.000000
  0
VERTEX
  8
LAYER-1
 10
3.135262
 20
4.062754
 30
0.000000
  0
SEQEND
  8
LAYER-1
  0
POLYLINE
  8
LAYER-1
 66
  1
 70
  0
 62
  7
 10
1.162388
 20
0.561009
 30
0.000000
  0
VERTEX
  8
LAYER-1
 10
1.162388
 20
0.561009
 30
0.000000
  0
VERTEX
  8
LAYER-1
 10
2.258956
 20
1.975814
 30
0.000000
  0
SEQEND
  8
LAYER-1
  0
POLYLINE
  8
LAYER-1
 66
  1
 70
  1
 62
  7
  0
VERTEX
  8
LAYER-1
 10
2.271016
 20
1.991373
 30
0.000000
  0
VERTEX
  8
LAYER-1
 10
2.264363
 20
1.935702
 30
0.000000
  0
VERTEX
  8
LAYER-1
 10
2.241564
 20
1.953373
 30
0.000000
  0
VERTEX
  8
LAYER-1
 10
2.218764
 20
1.971045
 30
0.000000
  0
VERTEX
  8
LAYER-1
 10
2.271016
 20
1.991373
 30
0.000000
  0
SEQEND
  8
LAYER-1
  0
POLYLINE
  8
LAYER-1
 66
  1
 70
  0
 62
  7
 10
4.329056
 20
0.561009
 30
0.000000
  0
VERTEX
  8
LAYER-1
 10
4.329056
 20
0.561009
 30
0.000000
  0
VERTEX
  8
LAYER-1
 10
2.894826
 20
1.545106
 30
0.000000
  0
SEQEND
  8
LAYER-1
  0
POLYLINE
  8
LAYER-1
 66
  1
 70
  1
 62
  7
  0
VERTEX
  8
LAYER-1
 10
2.878595
 20
1.556243
 30
0.000000
  0
VERTEX
  8
LAYER-1
 10
2.934558
 20
1.552828
 30
0.000000
  0
VERTEX
  8
LAYER-1
 10
2.918238
 20
1.529042
 30
0.000000
  0
VERTEX
  8
LAYER-1
 10
2.901918
 20
1.505257
 30
0.000000
  0
VERTEX
  8
LAYER-1
 10
2.878595
 20
1.556243
 30
0.000000
  0
SEQEND
  8
LAYER-1
  0
LINE
  8
LAYER-1
 62
  7
 10
5.791584
 20
1.054574
 30
0.000000
 11
5.791584
 21
3.903782
 31
0.000000
  0
LINE
  8
LAYER-1
 62
  7
 10
3.402293
 20
1.034889
 30
0.000000
 11
5.916584
 21
1.034889
 31
0.000000
  0
LINE
  8
LAYER-1
 62
  7
 10
5.314246
 20
3.923467
 30
0.000000
 11
5.916584
 21
3.923467
 31
0.000000
  0
LINE
  8
LAYER-1
 62
  7
 10
5.791584
 20
3.133441
 30
0.000000
 11
5.791584
 21
1.034889
 31
0.000000
  0
POLYLINE
  8
LAYER-1
 66
  1
 70
  1
 62
  7
  0
VERTEX
  8
LAYER-1
 10
5.791584
 20
1.034889
 30
0.000000
  0
VERTEX
  8
LAYER-1
 10
5.820430
 20
1.082966
 30
0.000000
  0
VERTEX
  8
LAYER-1
 10
5.791584
 20
1.082966
 30
0.000000
  0
VERTEX
  8
LAYER-1
 10
5.762738
 20
1.082966
 30
0.000000
  0
VERTEX
  8
LAYER-1
 10
5.791584
 20
1.034889
 30
0.000000
  0
SEQEND
  8
LAYER-1
  0
POLYLINE
  8
LAYER-1
 66
  1
 70
  1
 62
  7
  0
VERTEX
  8
LAYER-1
 10
5.791584
 20
3.923467
 30
0.000000
  0
VERTEX
  8
LAYER-1
 10
5.820430
 20
3.875390
 30
0.000000
  0
VERTEX
  8
LAYER-1
 10
5.791584
 20
3.875390
 30
0.000000
  0
VERTEX
  8
LAYER-1
 10
5.762738
 20
3.875390
 30
0.000000
  0
VERTEX
  8
LAYER-1
 10
5.791584
 20
3.923467
 30
0.000000
  0
SEQEND
  8
LAYER-1
  0
TEXT
  8
LAYER-1
 62
  7
 10
5.691086
 20
2.103223
 30
0.000000
 40
0.086538
  1
2-1/2"   -   65mm
 50
90.000000
  0
POLYLINE
  8
LAYER-1
  6
LTYPE02
 66
  1
 70
  0
 62
  7
  6
LTYPE02
 10
2.904145
 20
2.512876
 30
0.000000
  0
VERTEX
  8
LAYER-1
  6
LTYPE02
 10
2.904145
 20
2.512876
 30
0.000000
  0
VERTEX
  8
LAYER-1
  6
LTYPE02
 10
2.331109
 20
2.512876
 30
0.000000
  0
SEQEND
  8
LAYER-1
  0
LINE
  8
LAYER-1
 62
  7
 10
2.271822
 20
3.336278
 30
0.000000
 11
2.954330
 21
3.336278
 31
0.000000
  0
LINE
  8
LAYER-1
 62
  7
 10
2.252137
 20
3.989075
 30
0.000000
 11
2.252137
 21
3.211278
 31
0.000000
  0
LINE
  8
LAYER-1
 62
  7
 10
2.974015
 20
3.989075
 30
0.000000
 11
2.974015
 21
3.211278
 31
0.000000
  0
POLYLINE
  8
LAYER-1
 66
  1
 70
  1
 62
  7
  0
VERTEX
  8
LAYER-1
 10
2.252137
 20
3.336278
 30
0.000000
  0
VERTEX
  8
LAYER-1
 10
2.300214
 20
3.307432
 30
0.000000
  0
VERTEX
  8
LAYER-1
 10
2.300214
 20
3.336278
 30
0.000000
  0
VERTEX
  8
LAYER-1
 10
2.300214
 20
3.365125
 30
0.000000
  0
VERTEX
  8
LAYER-1
 10
2.252137
 20
3.336278
 30
0.000000
  0
SEQEND
  8
LAYER-1
  0
POLYLINE
  8
LAYER-1
 66
  1
 70
  1
 62
  7
  0
VERTEX
  8
LAYER-1
 10
2.974015
 20
3.336278
 30
0.000000
  0
VERTEX
  8
LAYER-1
 10
2.925938
 20
3.307431
 30
0.000000
  0
VERTEX
  8
LAYER-1
 10
2.925938
 20
3.336277
 30
0.000000
  0
VERTEX
  8
LAYER-1
 10
2.925937
 20
3.365123
 30
0.000000
  0
VERTEX
  8
LAYER-1
 10
2.974015
 20
3.336278
 30
0.000000
  0
SEQEND
  8
LAYER-1
  0
TEXT
  8
LAYER-1
 62
  7
 10
2.567855
 20
3.437519
 30
0.000000
 40
0.086538
  1
1/2"
  0
TEXT
  8
LAYER-1
 62
  7
 10
2.377137
 20
3.160112
 30
0.000000
 40
0.122596
  1
13mm
 72
  5
 11
2.848291
 21
3.160112
 31
0.000000
  0
ENDSEC
  0
EOF
