  0
SECTION
  2
HEADER
999
MacDraft 5.0\0
  9
$ACADVER
  1
AC1006
  9
$CLAYER
  8
LAYER-1
  9
$EXTMIN
 10
0.000000
 20
0.000000
  9
$EXTMAX
 10
6.974764
 20
9.833819
  9
$FASTZOOM
 70
0
  9
$FILLMODE
 70
1
  0
ENDSEC
  0
SECTION
  2
TABLES
  0
TABLE
  2
LTYPE
 70
16
  0
LTYPE
  2
CONTINUOUS
 70
64
  3
Solid Line
 72
65
 73
0
 40
0.000000
  0
LTYPE
  2
LTYPE01
 70
64
  3
CUSTOM
 72
65
 73
2
 40
0.072727
 49
0.054545
 49
-0.018182
  0
LTYPE
  2
LTYPE02
 70
64
  3
CUSTOM
 72
65
 73
2
 40
0.127273
 49
0.109091
 49
-0.018182
  0
LTYPE
  2
LTYPE03
 70
64
  3
CUSTOM
 72
65
 73
2
 40
0.245455
 49
0.218182
 49
-0.027273
  0
LTYPE
  2
LTYPE04
 70
64
  3
CUSTOM
 72
65
 73
2
 40
0.472727
 49
0.436364
 49
-0.036364
  0
LTYPE
  2
LTYPE05
 70
64
  3
CUSTOM
 72
65
 73
4
 40
0.100000
 49
0.054545
 49
-0.018182
 49
0.009091
 49
-0.018182
  0
LTYPE
  2
LTYPE06
 70
64
  3
CUSTOM
 72
65
 73
4
 40
0.154545
 49
0.109091
 49
-0.018182
 49
0.009091
 49
-0.018182
  0
LTYPE
  2
LTYPE07
 70
64
  3
CUSTOM
 72
65
 73
4
 40
0.290909
 49
0.218182
 49
-0.027273
 49
0.018182
 49
-0.027273
  0
LTYPE
  2
LTYPE08
 70
64
  3
CUSTOM
 72
65
 73
4
 40
0.527273
 49
0.436364
 49
-0.036364
 49
0.018182
 49
-0.036364
  0
LTYPE
  2
LTYPE09
 70
64
  3
CUSTOM
 72
65
 73
6
 40
0.127273
 49
0.054545
 49
-0.018182
 49
0.009091
 49
-0.018182
 49
0.009091
 49
-0.018182
  0
LTYPE
  2
LTYPE10
 70
64
  3
CUSTOM
 72
65
 73
6
 40
0.181818
 49
0.109091
 49
-0.018182
 49
0.009091
 49
-0.018182
 49
0.009091
 49
-0.018182
  0
LTYPE
  2
LTYPE11
 70
64
  3
CUSTOM
 72
65
 73
6
 40
0.327273
 49
0.218182
 49
-0.027273
 49
0.018182
 49
-0.018182
 49
0.018182
 49
-0.027273
  0
LTYPE
  2
LTYPE12
 70
64
  3
CUSTOM
 72
65
 73
6
 40
0.563636
 49
0.436364
 49
-0.036364
 49
0.018182
 49
-0.018182
 49
0.018182
 49
-0.036364
  0
LTYPE
  2
LTYPE13
 70
64
  3
CUSTOM
 72
65
 73
8
 40
0.209091
 49
0.109091
 49
-0.018182
 49
0.009091
 49
-0.018182
 49
0.009091
 49
-0.018182
 49
0.009091
 49
-0.018182
  0
LTYPE
  2
LTYPE14
 70
64
  3
CUSTOM
 72
65
 73
8
 40
0.363636
 49
0.218182
 49
-0.027273
 49
0.018182
 49
-0.018182
 49
0.018182
 49
-0.018182
 49
0.018182
 49
-0.027273
  0
LTYPE
  2
LTYPE15
 70
64
  3
CUSTOM
 72
65
 73
8
 40
0.618182
 49
0.436364
 49
-0.036364
 49
0.018182
 49
-0.027273
 49
0.018182
 49
-0.027273
 49
0.018182
 49
-0.036364
  0
ENDTAB
  0
TABLE
  2
LAYER
 70
2
  0
LAYER
  2
LAYER-1
 70
0
 62
7
  6
CONTINUOUS
  0
LAYER
  2
LAYER-2
 70
0
 62
7
  6
CONTINUOUS
  0
ENDTAB
  0
ENDSEC
  0
SECTION
  2
BLOCKS
  0
ENDSEC
  0
SECTION
  2
ENTITIES
  0
ARC
  8
LAYER-1
 62
  7
 10
4.860425
 20
8.774311
 30
0.000000
 40
0.254425
 50
270.000000
 51
90.000000
  0
POLYLINE
  8
LAYER-1
 66
  1
 70
  0
 62
  7
 10
4.860425
 20
9.028737
 30
0.000000
  0
VERTEX
  8
LAYER-1
 10
4.860425
 20
9.028737
 30
0.000000
  0
VERTEX
  8
LAYER-1
 10
1.195503
 20
9.028737
 30
0.000000
  0
SEQEND
  8
LAYER-1
  0
POLYLINE
  8
LAYER-1
 66
  1
 70
  0
 62
  7
 10
1.195503
 20
9.028737
 30
0.000000
  0
VERTEX
  8
LAYER-1
 10
1.195503
 20
9.028737
 30
0.000000
  0
VERTEX
  8
LAYER-1
 10
1.195503
 20
8.519887
 30
0.000000
  0
SEQEND
  8
LAYER-1
  0
POLYLINE
  8
LAYER-1
 66
  1
 70
  0
 62
  7
 10
4.860425
 20
8.519887
 30
0.000000
  0
VERTEX
  8
LAYER-1
 10
4.860425
 20
8.519887
 30
0.000000
  0
VERTEX
  8
LAYER-1
 10
1.195503
 20
8.519887
 30
0.000000
  0
SEQEND
  8
LAYER-1
  0
TEXT
  8
LAYER-1
 62
  7
 10
3.209318
 20
9.107501
 30
0.000000
 40
0.327273
  1
MobilFlex
 72
  5
 11
6.409318
 21
9.107501
 31
0.000000
  0
POLYLINE
  8
LAYER-1
 66
  1
 70
  1
 62
  7
  0
VERTEX
  8
LAYER-1
 10
1.197007
 20
9.832728
 30
0.000000
  0
VERTEX
  8
LAYER-1
 10
1.434854
 20
9.832728
 30
0.000000
  0
VERTEX
  8
LAYER-1
 10
1.434854
 20
9.315784
 30
0.000000
  0
VERTEX
  8
LAYER-1
 10
1.197007
 20
9.315784
 30
0.000000
  0
SEQEND
  8
LAYER-1
  0
POLYLINE
  8
LAYER-1
 66
  1
 70
  1
 62
  7
  0
VERTEX
  8
LAYER-1
 10
1.509507
 20
9.832728
 30
0.000000
  0
VERTEX
  8
LAYER-1
 10
1.747354
 20
9.832728
 30
0.000000
  0
VERTEX
  8
LAYER-1
 10
1.747354
 20
9.315784
 30
0.000000
  0
VERTEX
  8
LAYER-1
 10
1.509507
 20
9.315784
 30
0.000000
  0
SEQEND
  8
LAYER-1
  0
POLYLINE
  8
LAYER-1
 66
  1
 70
  1
 62
  7
  0
VERTEX
  8
LAYER-1
 10
1.809854
 20
9.832728
 30
0.000000
  0
VERTEX
  8
LAYER-1
 10
2.047701
 20
9.832728
 30
0.000000
  0
VERTEX
  8
LAYER-1
 10
2.047701
 20
9.315784
 30
0.000000
  0
VERTEX
  8
LAYER-1
 10
1.809854
 20
9.315784
 30
0.000000
  0
SEQEND
  8
LAYER-1
  0
POLYLINE
  8
LAYER-1
 66
  1
 70
  1
 62
  7
  0
VERTEX
  8
LAYER-1
 10
2.113674
 20
9.832728
 30
0.000000
  0
VERTEX
  8
LAYER-1
 10
2.351521
 20
9.832728
 30
0.000000
  0
VERTEX
  8
LAYER-1
 10
2.351521
 20
9.315784
 30
0.000000
  0
VERTEX
  8
LAYER-1
 10
2.113674
 20
9.315784
 30
0.000000
  0
SEQEND
  8
LAYER-1
  0
POLYLINE
  8
LAYER-1
 66
  1
 70
  1
 62
  7
  0
VERTEX
  8
LAYER-1
 10
2.430514
 20
9.828813
 30
0.000000
  0
VERTEX
  8
LAYER-1
 10
2.805948
 20
9.828813
 30
0.000000
  0
VERTEX
  8
LAYER-1
 10
2.805948
 20
9.690793
 30
0.000000
  0
VERTEX
  8
LAYER-1
 10
2.430514
 20
9.690793
 30
0.000000
  0
SEQEND
  8
LAYER-1
  0
POLYLINE
  8
LAYER-1
 66
  1
 70
  1
 62
  7
  0
VERTEX
  8
LAYER-1
 10
2.430080
 20
9.601383
 30
0.000000
  0
VERTEX
  8
LAYER-1
 10
2.738240
 20
9.601383
 30
0.000000
  0
VERTEX
  8
LAYER-1
 10
2.738240
 20
9.467267
 30
0.000000
  0
VERTEX
  8
LAYER-1
 10
2.430080
 20
9.467267
 30
0.000000
  0
SEQEND
  8
LAYER-1
  0
POLYLINE
  8
LAYER-1
 66
  1
 70
  1
 62
  7
  0
VERTEX
  8
LAYER-1
 10
1.197007
 20
9.231157
 30
0.000000
  0
VERTEX
  8
LAYER-1
 10
5.115410
 20
9.231157
 30
0.000000
  0
VERTEX
  8
LAYER-1
 10
5.115410
 20
9.187754
 30
0.000000
  0
VERTEX
  8
LAYER-1
 10
1.197007
 20
9.187754
 30
0.000000
  0
SEQEND
  8
LAYER-1
  0
TEXT
  8
LAYER-1
 62
  7
 10
0.245682
 20
4.043864
 30
0.000000
 40
0.122727
  1
La charge est plus importante lorsque la cloison est en position repliÄe.
 72
  5
 11
8.118409
 21
4.043864
 31
0.000000
  0
TEXT
  8
LAYER-1
 62
  7
 10
0.245682
 20
3.607501
 30
0.000000
 40
0.122727
  1
La structure du support doit Étre en mesure de soutenir le poids de la
 72
  5
 11
7.900227
 21
3.607501
 31
0.000000
  0
TEXT
  8
LAYER-1
 62
  7
 10
0.245682
 20
3.171137
 30
0.000000
 40
0.122727
  1
cloison entiÅrement repliÄe.
 72
  5
 11
3.318409
 21
3.171137
 31
0.000000
  0
TEXT
  8
LAYER-1
 62
  7
 10
1.618409
 20
8.452955
 30
0.000000
 40
0.184091
  1
Poids
 72
  5
 11
2.672954
 21
8.452955
 31
0.000000
  0
TEXT
  8
LAYER-1
 62
  7
 10
2.672954
 20
8.452955
 30
0.000000
 40
0.184091
  1
  
 72
  5
 11
2.918409
 21
8.452955
 31
0.000000
  0
TEXT
  8
LAYER-1
 62
  7
 10
2.918409
 20
8.452955
 30
0.000000
 40
0.102273
  1
(CLOISONS REPLIABLES)
 72
  5
 11
5.463864
 21
8.452955
 31
0.000000
  0
TEXT
  8
LAYER-1
 62
  7
 10
0.254773
 20
3.025682
 30
0.000000
 40
0.122727
  1
Poids linÄaire repliÄ
 72
  5
 11
2.682045
 21
3.025682
 31
0.000000
  0
TEXT
  8
LAYER-1
 62
  7
 10
2.682045
 20
3.025682
 30
0.000000
 40
0.122727
  1
  =  Poids par superficie de cloison  x  Hauteur  x  8
 72
  5
 11
8.327500
 21
3.025682
 31
0.000000
  0
TEXT
  8
LAYER-1
 62
  7
 10
0.254773
 20
2.552955
 30
0.000000
 40
0.122727
  1
Exemple: Fermeture modÅle Royal, 15' large x 10' haut
 72
  5
 11
6.309318
 21
2.552955
 31
0.000000
  0
TEXT
  8
LAYER-1
 62
  7
 10
0.254773
 20
1.380228
 30
0.000000
 40
0.122727
  1
Poids linÄaire repliÄ = 2,40 lb / pi   x 10' haut x 8 = 
 72
  5
 11
5.845682
 21
1.380228
 31
0.000000
  0
TEXT
  8
LAYER-1
 62
  7
 10
5.845682
 20
1.380228
 30
0.000000
 40
0.088636
  1
+/-
 72
  5
 11
6.091136
 21
1.380228
 31
0.000000
  0
TEXT
  8
LAYER-1
 62
  7
 10
6.091136
 20
1.380228
 30
0.000000
 40
0.122727
  1
192 lb / pi.lin ê l'intÄrieur de la niche.
 72
  5
 11
10.154773
 21
1.380228
 31
0.000000
  0
TEXT
  8
LAYER-1
 62
  7
 10
0.254773
 20
0.943864
 30
0.000000
 40
0.122727
  1
Il s'agit d'une approximation du poids linÄaire repliÄ rÄel qui est calculÄ avec le poids total
 72
  5
 11
10.082045
 21
0.943864
 31
0.000000
  0
TEXT
  8
LAYER-1
 62
  7
 10
0.254773
 20
0.507501
 30
0.000000
 40
0.122727
  1
du rideau divisÄ par la longueur de l'empilage.
 72
  5
 11
5.327500
 21
0.507501
 31
0.000000
  0
TEXT
  8
LAYER-1
 62
  7
 10
0.254773
 20
0.071137
 30
0.000000
 40
0.122727
  1
Poids total: 15' x 10' x 2,40 lb / pi   = 360 lb
 72
  5
 11
5.009318
 21
0.071137
 31
0.000000
  0
TEXT
  8
LAYER-1
 62
  7
 10
0.254773
 20
-0.365227
 30
0.000000
 40
0.122727
  1
Longueur de l'empilage: 15' x 1,15" / pi + 3x 3" par poteau = 26" / 12 = 2,2'
 72
  5
 11
8.463864
 21
-0.365227
 31
0.000000
  0
TEXT
  8
LAYER-1
 62
  7
 10
0.254773
 20
-0.801590
 30
0.000000
 40
0.122727
  1
Poids linÄaire repliÄ: 360 lb / 2,2' = 164 lb / pi.lin.
 72
  5
 11
5.636591
 21
-0.801590
 31
0.000000
  0
TEXT
  8
LAYER-1
 62
  7
 10
2.682045
 20
1.443864
 30
0.000000
 40
0.088636
  1
2
 72
  5
 11
2.827500
 21
1.443864
 31
0.000000
  0
TEXT
  8
LAYER-1
 62
  7
 10
2.691136
 20
0.571137
 30
0.000000
 40
0.088636
  1
2
 72
  5
 11
2.836591
 21
0.571137
 31
0.000000
  0
TEXT
  8
LAYER-1
 62
  7
 10
2.854773
 20
7.407501
 30
0.000000
 40
0.143182
  1
POIDS PAR SUPERFICIE DE CLOISON
 72
  5
 11
8.072954
 21
7.407501
 31
0.000000
  0
TEXT
  8
LAYER-1
 62
  7
 10
0.427500
 20
7.407501
 30
0.000000
 40
0.143182
  1
MODÚLE
 72
  5
 11
1.709318
 21
7.407501
 31
0.000000
  0
POLYLINE
  8
LAYER-1
 66
  1
 70
  0
 62
  7
 40
0.018182
 41
0.018182
 10
6.276871
 20
7.501062
 30
0.000000
  0
VERTEX
  8
LAYER-1
 10
6.276871
 20
7.501062
 30
0.000000
  0
VERTEX
  8
LAYER-1
 10
6.276871
 20
4.761476
 30
0.000000
  0
SEQEND
  8
LAYER-1
  0
POLYLINE
  8
LAYER-1
 66
  1
 70
  0
 62
  7
 40
0.018182
 41
0.018182
 10
6.276871
 20
4.761476
 30
0.000000
  0
VERTEX
  8
LAYER-1
 10
6.276871
 20
4.761476
 30
0.000000
  0
VERTEX
  8
LAYER-1
 10
0.054646
 20
4.761476
 30
0.000000
  0
SEQEND
  8
LAYER-1
  0
POLYLINE
  8
LAYER-1
 66
  1
 70
  0
 62
  7
 40
0.018182
 41
0.018182
 10
0.054646
 20
4.761476
 30
0.000000
  0
VERTEX
  8
LAYER-1
 10
0.054646
 20
4.761476
 30
0.000000
  0
VERTEX
  8
LAYER-1
 10
0.054646
 20
7.501062
 30
0.000000
  0
SEQEND
  8
LAYER-1
  0
TEXT
  8
LAYER-1
 62
  7
 10
0.427500
 20
7.016592
 30
0.000000
 40
0.122727
  1
ROYAL
 72
  5
 11
1.309318
 21
7.016592
 31
0.000000
  0
POLYLINE
  8
LAYER-1
 66
  1
 70
  0
 62
  7
 10
0.061591
 20
7.101650
 30
0.000000
  0
VERTEX
  8
LAYER-1
 10
0.061591
 20
7.101650
 30
0.000000
  0
VERTEX
  8
LAYER-1
 10
6.276871
 20
7.101650
 30
0.000000
  0
SEQEND
  8
LAYER-1
  0
POLYLINE
  8
LAYER-1
 66
  1
 70
  0
 62
  7
 10
0.061591
 20
6.711651
 30
0.000000
  0
VERTEX
  8
LAYER-1
 10
0.061591
 20
6.711651
 30
0.000000
  0
VERTEX
  8
LAYER-1
 10
6.276871
 20
6.711651
 30
0.000000
  0
SEQEND
  8
LAYER-1
  0
POLYLINE
  8
LAYER-1
 66
  1
 70
  0
 62
  7
 10
0.061591
 20
6.321650
 30
0.000000
  0
VERTEX
  8
LAYER-1
 10
0.061591
 20
6.321650
 30
0.000000
  0
VERTEX
  8
LAYER-1
 10
6.276871
 20
6.321650
 30
0.000000
  0
SEQEND
  8
LAYER-1
  0
POLYLINE
  8
LAYER-1
 66
  1
 70
  0
 62
  7
 10
0.061591
 20
5.931650
 30
0.000000
  0
VERTEX
  8
LAYER-1
 10
0.061591
 20
5.931650
 30
0.000000
  0
VERTEX
  8
LAYER-1
 10
6.276871
 20
5.931650
 30
0.000000
  0
SEQEND
  8
LAYER-1
  0
POLYLINE
  8
LAYER-1
 66
  1
 70
  0
 62
  7
 10
0.061591
 20
5.541650
 30
0.000000
  0
VERTEX
  8
LAYER-1
 10
0.061591
 20
5.541650
 30
0.000000
  0
VERTEX
  8
LAYER-1
 10
6.276871
 20
5.541650
 30
0.000000
  0
SEQEND
  8
LAYER-1
  0
POLYLINE
  8
LAYER-1
 66
  1
 70
  0
 62
  7
 10
0.061591
 20
5.151650
 30
0.000000
  0
VERTEX
  8
LAYER-1
 10
0.061591
 20
5.151650
 30
0.000000
  0
VERTEX
  8
LAYER-1
 10
6.276871
 20
5.151650
 30
0.000000
  0
SEQEND
  8
LAYER-1
  0
TEXT
  8
LAYER-1
 62
  7
 10
0.436591
 20
6.134773
 30
0.000000
 40
0.122727
  1
GLOBAL
 72
  5
 11
1.463864
 21
6.134773
 31
0.000000
  0
TEXT
  8
LAYER-1
 62
  7
 10
0.436591
 20
5.752955
 30
0.000000
 40
0.122727
  1
AEROFLEX
 72
  5
 11
1.791136
 21
5.752955
 31
0.000000
  0
TEXT
  8
LAYER-1
 62
  7
 10
0.436591
 20
5.352955
 30
0.000000
 40
0.122727
  1
CONCEPT
 72
  5
 11
1.672954
 21
5.352955
 31
0.000000
  0
TEXT
  8
LAYER-1
 62
  7
 10
0.436591
 20
4.971137
 30
0.000000
 40
0.122727
  1
SYSTEM S-12, S-525
 72
  5
 11
2.882045
 21
4.971137
 31
0.000000
  0
TEXT
  8
LAYER-1
 62
  7
 10
0.436591
 20
4.689319
 30
0.000000
 40
0.122727
  1
SYSTEM S-126
 72
  5
 11
2.218409
 21
4.689319
 31
0.000000
  0
POLYLINE
  8
LAYER-1
 66
  1
 70
  0
 62
  7
 40
0.018182
 41
0.018182
 10
6.276871
 20
7.501062
 30
0.000000
  0
VERTEX
  8
LAYER-1
 10
6.276871
 20
7.501062
 30
0.000000
  0
VERTEX
  8
LAYER-1
 10
0.054646
 20
7.501062
 30
0.000000
  0
SEQEND
  8
LAYER-1
  0
TEXT
  8
LAYER-1
 62
  7
 10
0.427500
 20
6.643864
 30
0.000000
 40
0.122727
  1
IMPACT
 72
  5
 11
1.400227
 21
6.643864
 31
0.000000
  0
TEXT
  8
LAYER-1
 62
  7
 10
3.227500
 20
7.025682
 30
0.000000
 40
0.122727
  1
2,40 lb / pi     =  11,7 kg / m
 72
  5
 11
6.318409
 21
7.025682
 31
0.000000
  0
TEXT
  8
LAYER-1
 62
  7
 10
6.327500
 20
7.080228
 30
0.000000
 40
0.088636
  1
2
 72
  5
 11
6.472954
 21
7.080228
 31
0.000000
  0
TEXT
  8
LAYER-1
 62
  7
 10
5.082045
 20
7.080228
 30
0.000000
 40
0.088636
  1
2
 72
  5
 11
5.227500
 21
7.080228
 31
0.000000
  0
TEXT
  8
LAYER-1
 62
  7
 10
4.309318
 20
6.534773
 30
0.000000
 40
0.122727
  1
1,75 lb / pi     =    8,5 kg / m
 72
  5
 11
7.409318
 21
6.534773
 31
0.000000
  0
TEXT
  8
LAYER-1
 62
  7
 10
6.327500
 20
6.689319
 30
0.000000
 40
0.088636
  1
2
 72
  5
 11
6.472954
 21
6.689319
 31
0.000000
  0
TEXT
  8
LAYER-1
 62
  7
 10
5.082045
 20
6.689319
 30
0.000000
 40
0.088636
  1
2
 72
  5
 11
5.227500
 21
6.689319
 31
0.000000
  0
TEXT
  8
LAYER-1
 62
  7
 10
6.327500
 20
6.298410
 30
0.000000
 40
0.088636
  1
2
 72
  5
 11
6.472954
 21
6.298410
 31
0.000000
  0
TEXT
  8
LAYER-1
 62
  7
 10
4.309318
 20
6.252955
 30
0.000000
 40
0.122727
  1
2,15 lb / pi     =  10,5 kg / m
 72
  5
 11
7.400227
 21
6.252955
 31
0.000000
  0
TEXT
  8
LAYER-1
 62
  7
 10
5.082045
 20
6.298410
 30
0.000000
 40
0.088636
  1
2
 72
  5
 11
5.227500
 21
6.298410
 31
0.000000
  0
TEXT
  8
LAYER-1
 62
  7
 10
6.327500
 20
5.907501
 30
0.000000
 40
0.088636
  1
2
 72
  5
 11
6.472954
 21
5.907501
 31
0.000000
  0
TEXT
  8
LAYER-1
 62
  7
 10
4.300227
 20
5.852955
 30
0.000000
 40
0.122727
  1
1,90 lb / pi     =    9,3 kg / m
 72
  5
 11
7.400227
 21
5.852955
 31
0.000000
  0
TEXT
  8
LAYER-1
 62
  7
 10
5.082045
 20
5.907501
 30
0.000000
 40
0.088636
  1
2
 72
  5
 11
5.227500
 21
5.907501
 31
0.000000
  0
TEXT
  8
LAYER-1
 62
  7
 10
6.327500
 20
5.516592
 30
0.000000
 40
0.088636
  1
2
 72
  5
 11
6.472954
 21
5.516592
 31
0.000000
  0
TEXT
  8
LAYER-1
 62
  7
 10
4.300227
 20
5.462046
 30
0.000000
 40
0.122727
  1
1,55 lb / pi     =    7,6 kg / m
 72
  5
 11
7.400227
 21
5.462046
 31
0.000000
  0
TEXT
  8
LAYER-1
 62
  7
 10
5.082045
 20
5.516592
 30
0.000000
 40
0.088636
  1
2
 72
  5
 11
5.227500
 21
5.516592
 31
0.000000
  0
TEXT
  8
LAYER-1
 62
  7
 10
6.327500
 20
5.134773
 30
0.000000
 40
0.088636
  1
2
 72
  5
 11
6.472954
 21
5.134773
 31
0.000000
  0
TEXT
  8
LAYER-1
 62
  7
 10
4.300227
 20
5.071137
 30
0.000000
 40
0.122727
  1
1,25 lb / pi     =    6,1 kg / m
 72
  5
 11
7.400227
 21
5.071137
 31
0.000000
  0
TEXT
  8
LAYER-1
 62
  7
 10
5.082045
 20
5.134773
 30
0.000000
 40
0.088636
  1
2
 72
  5
 11
5.227500
 21
5.134773
 31
0.000000
  0
TEXT
  8
LAYER-1
 62
  7
 10
6.327500
 20
4.743864
 30
0.000000
 40
0.088636
  1
2
 72
  5
 11
6.472954
 21
4.743864
 31
0.000000
  0
TEXT
  8
LAYER-1
 62
  7
 10
4.300227
 20
4.680228
 30
0.000000
 40
0.122727
  1
1,15 lb / pi     =    5,6 kg / m
 72
  5
 11
7.400227
 21
4.680228
 31
0.000000
  0
TEXT
  8
LAYER-1
 62
  7
 10
5.082045
 20
4.743864
 30
0.000000
 40
0.088636
  1
2
 72
  5
 11
5.227500
 21
4.743864
 31
0.000000
  0
POLYLINE
  8
LAYER-2
 66
  1
 70
  1
 62
  7
 10
182.914844
 20
70.367294
 30
0.000000
  0
VERTEX
  8
LAYER-2
 10
182.914844
 20
70.367294
 30
0.000000
  0
VERTEX
  8
LAYER-2
 10
183.725675
 20
70.367294
 30
0.000000
  0
VERTEX
  8
LAYER-2
 10
183.725675
 20
71.685138
 30
0.000000
  0
VERTEX
  8
LAYER-2
 10
182.914844
 20
71.685138
 30
0.000000
  0
SEQEND
  8
LAYER-2
  0
POLYLINE
  8
LAYER-2
 66
  1
 70
  1
 62
  7
 10
182.914844
 20
74.219531
 30
0.000000
  0
VERTEX
  8
LAYER-2
 10
182.914844
 20
74.219531
 30
0.000000
  0
VERTEX
  8
LAYER-2
 10
183.725675
 20
74.219531
 30
0.000000
  0
VERTEX
  8
LAYER-2
 10
183.725675
 20
72.901616
 30
0.000000
  0
VERTEX
  8
LAYER-2
 10
182.914844
 20
72.901616
 30
0.000000
  0
SEQEND
  8
LAYER-2
  0
POLYLINE
  8
LAYER-2
 66
  1
 70
  1
 62
  7
 10
177.694105
 20
70.367294
 30
0.000000
  0
VERTEX
  8
LAYER-2
 10
177.694105
 20
70.367294
 30
0.000000
  0
VERTEX
  8
LAYER-2
 10
178.504972
 20
70.367294
 30
0.000000
  0
VERTEX
  8
LAYER-2
 10
178.504972
 20
71.685138
 30
0.000000
  0
VERTEX
  8
LAYER-2
 10
177.694105
 20
71.685138
 30
0.000000
  0
SEQEND
  8
LAYER-2
  0
POLYLINE
  8
LAYER-2
 66
  1
 70
  1
 62
  7
 10
177.694105
 20
74.219531
 30
0.000000
  0
VERTEX
  8
LAYER-2
 10
177.694105
 20
74.219531
 30
0.000000
  0
VERTEX
  8
LAYER-2
 10
178.504972
 20
74.219531
 30
0.000000
  0
VERTEX
  8
LAYER-2
 10
178.504972
 20
72.901616
 30
0.000000
  0
VERTEX
  8
LAYER-2
 10
177.694105
 20
72.901616
 30
0.000000
  0
SEQEND
  8
LAYER-2
  0
POLYLINE
  8
LAYER-2
  6
LTYPE05
 66
  1
 70
  0
 62
  7
  6
LTYPE05
 10
177.369922
 20
72.303445
 30
0.000000
  0
VERTEX
  8
LAYER-2
  6
LTYPE05
 10
177.369922
 20
72.303445
 30
0.000000
  0
VERTEX
  8
LAYER-2
  6
LTYPE05
 10
195.438956
 20
72.307741
 30
0.000000
  0
SEQEND
  8
LAYER-2
  0
POLYLINE
  8
LAYER-2
 66
  1
 70
  0
 62
  7
 10
176.521982
 20
72.901367
 30
0.000000
  0
VERTEX
  8
LAYER-2
 10
176.521982
 20
72.901367
 30
0.000000
  0
VERTEX
  8
LAYER-2
 10
176.674325
 20
72.901367
 30
0.000000
  0
SEQEND
  8
LAYER-2
  0
POLYLINE
  8
LAYER-2
 66
  1
 70
  0
 62
  7
 10
176.674325
 20
71.684890
 30
0.000000
  0
VERTEX
  8
LAYER-2
 10
176.674325
 20
71.684890
 30
0.000000
  0
VERTEX
  8
LAYER-2
 10
176.521982
 20
71.684890
 30
0.000000
  0
SEQEND
  8
LAYER-2
  0
POLYLINE
  8
LAYER-2
 66
  1
 70
  0
 62
  7
 10
176.521982
 20
71.684890
 30
0.000000
  0
VERTEX
  8
LAYER-2
 10
176.521982
 20
71.684890
 30
0.000000
  0
VERTEX
  8
LAYER-2
 10
176.521982
 20
72.901367
 30
0.000000
  0
SEQEND
  8
LAYER-2
  0
CIRCLE
  8
LAYER-2
 62
  7
 10
183.320028
 20
73.813956
 30
0.000000
 40
0.126717
  0
CIRCLE
  8
LAYER-2
 62
  7
 10
183.320028
 20
70.772674
 30
0.000000
 40
0.126717
  0
CIRCLE
  8
LAYER-2
 62
  7
 10
178.099325
 20
73.813956
 30
0.000000
 40
0.126717
  0
CIRCLE
  8
LAYER-2
 62
  7
 10
178.099325
 20
70.772674
 30
0.000000
 40
0.126717
  0
POLYLINE
  8
LAYER-2
 66
  1
 70
  0
 62
  7
 10
184.025213
 20
71.767383
 30
0.000000
  0
VERTEX
  8
LAYER-2
 10
184.025213
 20
71.767383
 30
0.000000
  0
VERTEX
  8
LAYER-2
 10
184.158310
 20
72.019922
 30
0.000000
  0
SEQEND
  8
LAYER-2
  0
POLYLINE
  8
LAYER-2
 66
  1
 70
  0
 62
  7
 10
183.922763
 20
71.786399
 30
0.000000
  0
VERTEX
  8
LAYER-2
 10
183.922763
 20
71.786399
 30
0.000000
  0
VERTEX
  8
LAYER-2
 10
184.025213
 20
71.767383
 30
0.000000
  0
SEQEND
  8
LAYER-2
  0
POLYLINE
  8
LAYER-2
 66
  1
 70
  0
 62
  7
 10
183.916797
 20
72.491193
 30
0.000000
  0
VERTEX
  8
LAYER-2
 10
183.916797
 20
72.491193
 30
0.000000
  0
VERTEX
  8
LAYER-2
 10
183.916797
 20
72.795312
 30
0.000000
  0
SEQEND
  8
LAYER-2
  0
POLYLINE
  8
LAYER-2
 66
  1
 70
  0
 62
  7
 10
184.019283
 20
72.814258
 30
0.000000
  0
VERTEX
  8
LAYER-2
 10
184.019283
 20
72.814258
 30
0.000000
  0
VERTEX
  8
LAYER-2
 10
184.152344
 20
72.561808
 30
0.000000
  0
SEQEND
  8
LAYER-2
  0
POLYLINE
  8
LAYER-2
 66
  1
 70
  0
 62
  7
 10
183.916797
 20
72.795312
 30
0.000000
  0
VERTEX
  8
LAYER-2
 10
183.916797
 20
72.795312
 30
0.000000
  0
VERTEX
  8
LAYER-2
 10
184.019283
 20
72.814258
 30
0.000000
  0
SEQEND
  8
LAYER-2
  0
CIRCLE
  8
LAYER-2
 62
  7
 10
173.697798
 20
72.315749
 30
0.000000
 40
0.362911
  0
POLYLINE
  8
LAYER-2
  6
LTYPE01
 66
  1
 70
  0
 62
  7
  6
LTYPE01
 10
171.250462
 20
67.221325
 30
0.000000
  0
VERTEX
  8
LAYER-2
  6
LTYPE01
 10
171.250462
 20
67.221325
 30
0.000000
  0
VERTEX
  8
LAYER-2
  6
LTYPE01
 10
171.250462
 20
78.109659
 30
0.000000
  0
SEQEND
  8
LAYER-2
  0
POLYLINE
  8
LAYER-2
 66
  1
 70
  0
 62
  7
 10
170.124219
 20
81.363672
 30
0.000000
  0
VERTEX
  8
LAYER-2
 10
170.124219
 20
81.363672
 30
0.000000
  0
VERTEX
  8
LAYER-2
 10
170.124219
 20
81.363672
 30
0.000000
  0
SEQEND
  8
LAYER-2
  0
POLYLINE
  8
LAYER-2
  6
LTYPE01
 66
  1
 70
  0
 62
  7
  6
LTYPE01
 10
170.124219
 20
67.221325
 30
0.000000
  0
VERTEX
  8
LAYER-2
  6
LTYPE01
 10
170.124219
 20
67.221325
 30
0.000000
  0
VERTEX
  8
LAYER-2
  6
LTYPE01
 10
170.124219
 20
78.119762
 30
0.000000
  0
SEQEND
  8
LAYER-2
  0
POLYLINE
  8
LAYER-2
 66
  1
 70
  1
 62
  7
 10
170.124219
 20
78.119762
 30
0.000000
  0
VERTEX
  8
LAYER-2
 10
170.124219
 20
78.119762
 30
0.000000
  0
VERTEX
  8
LAYER-2
 10
195.438956
 20
78.164666
 30
0.000000
  0
VERTEX
  8
LAYER-2
 10
195.438956
 20
67.266229
 30
0.000000
  0
VERTEX
  8
LAYER-2
 10
170.124219
 20
67.221325
 30
0.000000
  0
VERTEX
  8
LAYER-2
 10
170.124219
 20
63.967383
 30
0.000000
  0
VERTEX
  8
LAYER-2
 10
198.678232
 20
63.967383
 30
0.000000
  0
VERTEX
  8
LAYER-2
 10
198.678232
 20
81.332422
 30
0.000000
  0
VERTEX
  8
LAYER-2
 10
170.124219
 20
81.332422
 30
0.000000
  0
SEQEND
  8
LAYER-2
  0
POLYLINE
  8
LAYER-2
 66
  1
 70
  1
 62
  7
  0
VERTEX
  8
LAYER-2
 10
170.129084
 20
78.114773
 30
0.000000
  0
VERTEX
  8
LAYER-2
 10
170.129084
 20
76.988352
 30
0.000000
  0
VERTEX
  8
LAYER-2
 10
159.230398
 20
76.988352
 30
0.000000
  0
VERTEX
  8
LAYER-2
 10
159.230398
 20
78.114773
 30
0.000000
  0
SEQEND
  8
LAYER-2
  0
POLYLINE
  8
LAYER-2
 66
  1
 70
  0
 62
  7
 10
195.941087
 20
78.204208
 30
0.000000
  0
VERTEX
  8
LAYER-2
 10
195.941087
 20
78.204208
 30
0.000000
  0
VERTEX
  8
LAYER-2
 10
203.924432
 20
78.204208
 30
0.000000
  0
SEQEND
  8
LAYER-2
  0
POLYLINE
  8
LAYER-2
 66
  1
 70
  0
 62
  7
 10
195.987926
 20
67.278338
 30
0.000000
  0
VERTEX
  8
LAYER-2
 10
195.987926
 20
67.278338
 30
0.000000
  0
VERTEX
  8
LAYER-2
 10
203.818643
 20
67.278338
 30
0.000000
  0
SEQEND
  8
LAYER-2
  0
POLYLINE
  8
LAYER-2
 66
  1
 70
  0
 62
  7
 10
201.278871
 20
78.158132
 30
0.000000
  0
VERTEX
  8
LAYER-2
 10
201.278871
 20
78.158132
 30
0.000000
  0
VERTEX
  8
LAYER-2
 10
201.278871
 20
67.298029
 30
0.000000
  0
SEQEND
  8
LAYER-2
  0
POLYLINE
  8
LAYER-2
 66
  1
 70
  1
 62
  7
  0
VERTEX
  8
LAYER-2
 10
201.278871
 20
78.177823
 30
0.000000
  0
VERTEX
  8
LAYER-2
 10
200.406143
 20
76.723278
 30
0.000000
  0
VERTEX
  8
LAYER-2
 10
201.278871
 20
76.723278
 30
0.000000
  0
VERTEX
  8
LAYER-2
 10
202.151598
 20
76.723278
 30
0.000000
  0
VERTEX
  8
LAYER-2
 10
201.278871
 20
78.177823
 30
0.000000
  0
SEQEND
  8
LAYER-2
  0
POLYLINE
  8
LAYER-2
 66
  1
 70
  1
 62
  7
  0
VERTEX
  8
LAYER-2
 10
201.278871
 20
67.278338
 30
0.000000
  0
VERTEX
  8
LAYER-2
 10
200.406143
 20
68.732884
 30
0.000000
  0
VERTEX
  8
LAYER-2
 10
201.278871
 20
68.732884
 30
0.000000
  0
VERTEX
  8
LAYER-2
 10
202.151598
 20
68.732884
 30
0.000000
  0
VERTEX
  8
LAYER-2
 10
201.278871
 20
67.278338
 30
0.000000
  0
SEQEND
  8
LAYER-2
  0
TEXT
  8
LAYER-2
 62
  7
 10
213.534544
 20
67.730930
 30
0.000000
 40
3.927273
  1
10"
 72
  5
 11
226.625453
 21
67.730930
 31
0.000000
  0
TEXT
  8
LAYER-2
 62
  7
 10
206.261816
 20
58.421839
 30
0.000000
 40
3.927273
  1
254mm
 72
  5
 11
233.607271
 21
58.421839
 31
0.000000
  0
POLYLINE
  8
LAYER-2
 66
  1
 70
  0
 62
  7
 10
176.674325
 20
72.497088
 30
0.000000
  0
VERTEX
  8
LAYER-2
 10
176.674325
 20
72.497088
 30
0.000000
  0
VERTEX
  8
LAYER-2
 10
176.674325
 20
72.092436
 30
0.000000
  0
SEQEND
  8
LAYER-2
  0
POLYLINE
  8
LAYER-2
 66
  1
 70
  0
 62
  7
 10
183.922763
 20
72.496112
 30
0.000000
  0
VERTEX
  8
LAYER-2
 10
183.922763
 20
72.496112
 30
0.000000
  0
VERTEX
  8
LAYER-2
 10
176.674325
 20
72.497088
 30
0.000000
  0
VERTEX
  8
LAYER-2
 10
176.674325
 20
72.901616
 30
0.000000
  0
VERTEX
  8
LAYER-2
 10
183.971236
 20
72.901616
 30
0.000000
  0
SEQEND
  8
LAYER-2
  0
POLYLINE
  8
LAYER-2
 66
  1
 70
  0
 62
  7
 10
183.961648
 20
72.896751
 30
0.000000
  0
VERTEX
  8
LAYER-2
 10
183.961648
 20
72.896751
 30
0.000000
  0
VERTEX
  8
LAYER-2
 10
190.457777
 20
76.314506
 30
0.000000
  0
VERTEX
  8
LAYER-2
 10
190.637038
 20
75.973846
 30
0.000000
  0
VERTEX
  8
LAYER-2
 10
184.152344
 20
72.561808
 30
0.000000
  0
SEQEND
  8
LAYER-2
  0
POLYLINE
  8
LAYER-2
 66
  1
 70
  0
 62
  7
 10
183.922763
 20
71.786399
 30
0.000000
  0
VERTEX
  8
LAYER-2
 10
183.922763
 20
71.786399
 30
0.000000
  0
VERTEX
  8
LAYER-2
 10
183.922763
 20
72.090589
 30
0.000000
  0
VERTEX
  8
LAYER-2
 10
176.674325
 20
72.092187
 30
0.000000
  0
VERTEX
  8
LAYER-2
 10
176.674325
 20
71.685138
 30
0.000000
  0
VERTEX
  8
LAYER-2
 10
183.968040
 20
71.685138
 30
0.000000
  0
SEQEND
  8
LAYER-2
  0
POLYLINE
  8
LAYER-2
 66
  1
 70
  0
 62
  7
 10
183.968040
 20
71.685138
 30
0.000000
  0
VERTEX
  8
LAYER-2
 10
183.968040
 20
71.685138
 30
0.000000
  0
VERTEX
  8
LAYER-2
 10
190.463743
 20
68.267330
 30
0.000000
  0
VERTEX
  8
LAYER-2
 10
190.643004
 20
68.607884
 30
0.000000
  0
VERTEX
  8
LAYER-2
 10
184.158310
 20
72.019922
 30
0.000000
  0
SEQEND
  8
LAYER-2
  0
POLYLINE
  8
LAYER-2
 66
  1
 70
  0
 62
  7
 10
174.548366
 20
73.334624
 30
0.000000
  0
VERTEX
  8
LAYER-2
 10
174.548366
 20
73.334624
 30
0.000000
  0
VERTEX
  8
LAYER-2
 10
176.886151
 20
73.334624
 30
0.000000
  0
SEQEND
  8
LAYER-2
  0
POLYLINE
  8
LAYER-2
 66
  1
 70
  0
 62
  7
 10
177.389489
 20
72.831268
 30
0.000000
  0
VERTEX
  8
LAYER-2
 10
177.389489
 20
72.831268
 30
0.000000
  0
VERTEX
  8
LAYER-2
 10
177.389489
 20
71.824503
 30
0.000000
  0
SEQEND
  8
LAYER-2
  0
POLYLINE
  8
LAYER-2
 66
  1
 70
  0
 62
  7
 10
176.886151
 20
71.321165
 30
0.000000
  0
VERTEX
  8
LAYER-2
 10
176.886151
 20
71.321165
 30
0.000000
  0
VERTEX
  8
LAYER-2
 10
174.548366
 20
71.321165
 30
0.000000
  0
SEQEND
  8
LAYER-2
  0
POLYLINE
  8
LAYER-2
 66
  1
 70
  0
 62
  7
 10
174.044993
 20
71.824503
 30
0.000000
  0
VERTEX
  8
LAYER-2
 10
174.044993
 20
71.824503
 30
0.000000
  0
VERTEX
  8
LAYER-2
 10
174.044993
 20
72.831268
 30
0.000000
  0
SEQEND
  8
LAYER-2
  0
ARC
  8
LAYER-2
 62
  7
 10
174.548366
 20
72.831268
 30
0.000000
 40
0.503351
 50
90.000000
 51
180.000000
  0
ARC
  8
LAYER-2
 62
  7
 10
174.548366
 20
71.824503
 30
0.000000
 40
0.503351
 50
180.000000
 51
270.000000
  0
ARC
  8
LAYER-2
 62
  7
 10
176.886151
 20
71.824503
 30
0.000000
 40
0.503351
 50
270.000000
 51
0.000000
  0
ARC
  8
LAYER-2
 62
  7
 10
176.886151
 20
72.831268
 30
0.000000
 40
0.503351
 50
0.000000
 51
90.000000
  0
POLYLINE
  8
LAYER-2
 66
  1
 70
  1
 62
  7
 10
177.765554
 20
67.945472
 30
0.000000
  0
VERTEX
  8
LAYER-2
 10
177.765554
 20
67.945472
 30
0.000000
  0
VERTEX
  8
LAYER-2
 10
177.765554
 20
67.556090
 30
0.000000
  0
VERTEX
  8
LAYER-2
 10
177.486506
 20
67.756925
 30
0.000000
  0
VERTEX
  8
LAYER-2
 10
177.206108
 20
67.556090
 30
0.000000
  0
VERTEX
  8
LAYER-2
 10
177.206108
 20
67.945472
 30
0.000000
  0
VERTEX
  8
LAYER-2
 10
177.409624
 20
67.945472
 30
0.000000
  0
VERTEX
  8
LAYER-2
 10
177.409624
 20
74.821768
 30
0.000000
  0
VERTEX
  8
LAYER-2
 10
177.204155
 20
74.821768
 30
0.000000
  0
VERTEX
  8
LAYER-2
 10
177.204155
 20
75.211541
 30
0.000000
  0
VERTEX
  8
LAYER-2
 10
177.484517
 20
75.010387
 30
0.000000
  0
VERTEX
  8
LAYER-2
 10
177.764240
 20
75.211541
 30
0.000000
  0
VERTEX
  8
LAYER-2
 10
177.764240
 20
74.821768
 30
0.000000
  0
VERTEX
  8
LAYER-2
 10
177.560760
 20
74.821768
 30
0.000000
  0
VERTEX
  8
LAYER-2
 10
177.560760
 20
67.945472
 30
0.000000
  0
SEQEND
  8
LAYER-2
  0
LINE
  8
LAYER-2
 62
  7
 10
171.270135
 20
83.721768
 30
0.000000
 11
195.419283
 21
83.721768
 31
0.000000
  0
LINE
  8
LAYER-2
 62
  7
 10
171.250462
 20
80.109659
 30
0.000000
 11
171.250462
 21
87.721768
 31
0.000000
  0
LINE
  8
LAYER-2
 62
  7
 10
195.438956
 20
80.164666
 30
0.000000
 11
195.438956
 21
87.721768
 31
0.000000
  0
POLYLINE
  8
LAYER-2
 66
  1
 70
  1
 62
  7
  0
VERTEX
  8
LAYER-2
 10
171.250462
 20
83.721768
 30
0.000000
  0
VERTEX
  8
LAYER-2
 10
172.705007
 20
82.849059
 30
0.000000
  0
VERTEX
  8
LAYER-2
 10
172.705007
 20
83.721786
 30
0.000000
  0
VERTEX
  8
LAYER-2
 10
172.705007
 20
84.594513
 30
0.000000
  0
VERTEX
  8
LAYER-2
 10
171.250462
 20
83.721768
 30
0.000000
  0
SEQEND
  8
LAYER-2
  0
POLYLINE
  8
LAYER-2
 66
  1
 70
  1
 62
  7
  0
VERTEX
  8
LAYER-2
 10
195.438956
 20
83.721768
 30
0.000000
  0
VERTEX
  8
LAYER-2
 10
193.984411
 20
82.849023
 30
0.000000
  0
VERTEX
  8
LAYER-2
 10
193.984411
 20
83.721751
 30
0.000000
  0
VERTEX
  8
LAYER-2
 10
193.984411
 20
84.594478
 30
0.000000
  0
VERTEX
  8
LAYER-2
 10
195.438956
 20
83.721768
 30
0.000000
  0
SEQEND
  8
LAYER-2
  0
TEXT
  8
LAYER-2
 62
  7
 10
183.746493
 20
87.906658
 30
0.000000
 40
2.618182
  1
 
  0
POLYLINE
  8
LAYER-2
 66
  1
 70
  0
 62
  7
 10
13.224916
 20
73.305131
 30
0.000000
  0
VERTEX
  8
LAYER-2
 10
13.224916
 20
73.305131
 30
0.000000
  0
VERTEX
  8
LAYER-2
 10
15.562802
 20
73.305131
 30
0.000000
  0
SEQEND
  8
LAYER-2
  0
POLYLINE
  8
LAYER-2
 66
  1
 70
  0
 62
  7
 10
16.066153
 20
72.801776
 30
0.000000
  0
VERTEX
  8
LAYER-2
 10
16.066153
 20
72.801776
 30
0.000000
  0
VERTEX
  8
LAYER-2
 10
16.066153
 20
71.795082
 30
0.000000
  0
SEQEND
  8
LAYER-2
  0
POLYLINE
  8
LAYER-2
 66
  1
 70
  0
 62
  7
 10
15.562802
 20
71.291726
 30
0.000000
  0
VERTEX
  8
LAYER-2
 10
15.562802
 20
71.291726
 30
0.000000
  0
VERTEX
  8
LAYER-2
 10
13.224916
 20
71.291726
 30
0.000000
  0
SEQEND
  8
LAYER-2
  0
POLYLINE
  8
LAYER-2
 66
  1
 70
  0
 62
  7
 10
12.721564
 20
71.795082
 30
0.000000
  0
VERTEX
  8
LAYER-2
 10
12.721564
 20
71.795082
 30
0.000000
  0
VERTEX
  8
LAYER-2
 10
12.721564
 20
72.801776
 30
0.000000
  0
SEQEND
  8
LAYER-2
  0
ARC
  8
LAYER-2
 62
  7
 10
13.224916
 20
72.801776
 30
0.000000
 40
0.503352
 50
90.000000
 51
180.000000
  0
ARC
  8
LAYER-2
 62
  7
 10
13.224916
 20
71.795082
 30
0.000000
 40
0.503352
 50
180.000000
 51
270.000000
  0
ARC
  8
LAYER-2
 62
  7
 10
15.562802
 20
71.795082
 30
0.000000
 40
0.503352
 50
270.000000
 51
0.000000
  0
ARC
  8
LAYER-2
 62
  7
 10
15.562802
 20
72.801776
 30
0.000000
 40
0.503352
 50
0.000000
 51
90.000000
  0
CIRCLE
  8
LAYER-2
 62
  7
 10
16.445952
 20
72.286239
 30
0.000000
 40
0.362911
  0
POLYLINE
  8
LAYER-2
 66
  1
 70
  0
 62
  7
 10
9.763610
 20
73.345827
 30
0.000000
  0
VERTEX
  8
LAYER-2
 10
9.763610
 20
73.345827
 30
0.000000
  0
VERTEX
  8
LAYER-2
 10
10.612198
 20
73.345827
 30
0.000000
  0
SEQEND
  8
LAYER-2
  0
POLYLINE
  8
LAYER-2
 66
  1
 70
  0
 62
  7
 10
11.036497
 20
72.921520
 30
0.000000
  0
VERTEX
  8
LAYER-2
 10
11.036497
 20
72.921520
 30
0.000000
  0
VERTEX
  8
LAYER-2
 10
11.036497
 20
71.766815
 30
0.000000
  0
SEQEND
  8
LAYER-2
  0
POLYLINE
  8
LAYER-2
 66
  1
 70
  0
 62
  7
 10
10.612198
 20
71.342507
 30
0.000000
  0
VERTEX
  8
LAYER-2
 10
10.612198
 20
71.342507
 30
0.000000
  0
VERTEX
  8
LAYER-2
 10
9.763610
 20
71.342507
 30
0.000000
  0
SEQEND
  8
LAYER-2
  0
POLYLINE
  8
LAYER-2
 66
  1
 70
  0
 62
  7
 10
9.339311
 20
71.766815
 30
0.000000
  0
VERTEX
  8
LAYER-2
 10
9.339311
 20
71.766815
 30
0.000000
  0
VERTEX
  8
LAYER-2
 10
9.339311
 20
72.921520
 30
0.000000
  0
SEQEND
  8
LAYER-2
  0
ARC
  8
LAYER-2
 62
  7
 10
9.763610
 20
72.921520
 30
0.000000
 40
0.424300
 50
270.000000
 51
0.000000
  0
ARC
  8
LAYER-2
 62
  7
 10
9.763610
 20
71.766815
 30
0.000000
 40
0.424300
 50
0.000000
 51
90.000000
  0
ARC
  8
LAYER-2
 62
  7
 10
10.612198
 20
71.766815
 30
0.000000
 40
0.424300
 50
90.000000
 51
180.000000
  0
ARC
  8
LAYER-2
 62
  7
 10
10.612198
 20
72.921520
 30
0.000000
 40
0.424300
 50
180.000000
 51
270.000000
  0
POLYLINE
  8
LAYER-2
 66
  1
 70
  0
 62
  7
 10
11.965132
 20
71.136577
 30
0.000000
  0
VERTEX
  8
LAYER-2
 10
11.965132
 20
71.136577
 30
0.000000
  0
VERTEX
  8
LAYER-2
 10
11.510409
 20
71.136577
 30
0.000000
  0
SEQEND
  8
LAYER-2
  0
POLYLINE
  8
LAYER-2
 66
  1
 70
  0
 62
  7
 10
11.510409
 20
71.136577
 30
0.000000
  0
VERTEX
  8
LAYER-2
 10
11.510409
 20
71.136577
 30
0.000000
  0
VERTEX
  8
LAYER-2
 10
10.768040
 20
71.332422
 30
0.000000
  0
SEQEND
  8
LAYER-2
  0
POLYLINE
  8
LAYER-2
 66
  1
 70
  0
 62
  7
 10
11.965132
 20
73.478640
 30
0.000000
  0
VERTEX
  8
LAYER-2
 10
11.965132
 20
73.478640
 30
0.000000
  0
VERTEX
  8
LAYER-2
 10
11.510409
 20
73.478480
 30
0.000000
  0
SEQEND
  8
LAYER-2
  0
POLYLINE
  8
LAYER-2
 66
  1
 70
  0
 62
  7
 10
11.510409
 20
73.478480
 30
0.000000
  0
VERTEX
  8
LAYER-2
 10
11.510409
 20
73.478480
 30
0.000000
  0
VERTEX
  8
LAYER-2
 10
10.880704
 20
73.297958
 30
0.000000
  0
SEQEND
  8
LAYER-2
  0
POLYLINE
  8
LAYER-2
 66
  1
 70
  0
 62
  7
 10
11.965132
 20
71.220579
 30
0.000000
  0
VERTEX
  8
LAYER-2
 10
11.965132
 20
71.220579
 30
0.000000
  0
VERTEX
  8
LAYER-2
 10
11.510409
 20
71.220543
 30
0.000000
  0
SEQEND
  8
LAYER-2
  0
POLYLINE
  8
LAYER-2
 66
  1
 70
  0
 62
  7
 10
11.536861
 20
71.237038
 30
0.000000
  0
VERTEX
  8
LAYER-2
 10
11.536861
 20
71.237038
 30
0.000000
  0
VERTEX
  8
LAYER-2
 10
10.794585
 20
71.432901
 30
0.000000
  0
SEQEND
  8
LAYER-2
  0
POLYLINE
  8
LAYER-2
 66
  1
 70
  0
 62
  7
 10
11.965163
 20
73.390661
 30
0.000000
  0
VERTEX
  8
LAYER-2
 10
11.965163
 20
73.390661
 30
0.000000
  0
VERTEX
  8
LAYER-2
 10
11.510409
 20
73.390518
 30
0.000000
  0
SEQEND
  8
LAYER-2
  0
POLYLINE
  8
LAYER-2
 66
  1
 70
  0
 62
  7
 10
11.540088
 20
73.374893
 30
0.000000
  0
VERTEX
  8
LAYER-2
 10
11.540088
 20
73.374893
 30
0.000000
  0
VERTEX
  8
LAYER-2
 10
10.910356
 20
73.194407
 30
0.000000
  0
SEQEND
  8
LAYER-2
  0
POLYLINE
  8
LAYER-2
 66
  1
 70
  0
 62
  7
 10
11.965132
 20
71.136577
 30
0.000000
  0
VERTEX
  8
LAYER-2
 10
11.965132
 20
71.136577
 30
0.000000
  0
VERTEX
  8
LAYER-2
 10
11.965132
 20
71.220579
 30
0.000000
  0
SEQEND
  8
LAYER-2
  0
POLYLINE
  8
LAYER-2
 66
  1
 70
  0
 62
  7
 10
11.965163
 20
73.390661
 30
0.000000
  0
VERTEX
  8
LAYER-2
 10
11.965163
 20
73.390661
 30
0.000000
  0
VERTEX
  8
LAYER-2
 10
11.965132
 20
73.478640
 30
0.000000
  0
SEQEND
  8
LAYER-2
  0
POLYLINE
  8
LAYER-2
 66
  1
 70
  1
 62
  7
 10
13.202157
 20
73.285689
 30
0.000000
  0
VERTEX
  8
LAYER-2
 10
13.202157
 20
73.285689
 30
0.000000
  0
VERTEX
  8
LAYER-2
 10
13.519638
 20
73.973526
 30
0.000000
  0
VERTEX
  8
LAYER-2
 10
15.318550
 20
73.973526
 30
0.000000
  0
VERTEX
  8
LAYER-2
 10
15.741841
 20
73.285689
 30
0.000000
  0
SEQEND
  8
LAYER-2
  0
POLYLINE
  8
LAYER-2
 66
  1
 70
  1
 62
  7
 10
15.688907
 20
71.275107
 30
0.000000
  0
VERTEX
  8
LAYER-2
 10
15.688907
 20
71.275107
 30
0.000000
  0
VERTEX
  8
LAYER-2
 10
15.371458
 20
70.587269
 30
0.000000
  0
VERTEX
  8
LAYER-2
 10
13.572545
 20
70.587269
 30
0.000000
  0
VERTEX
  8
LAYER-2
 10
13.149254
 20
71.275107
 30
0.000000
  0
SEQEND
  8
LAYER-2
  0
POLYLINE
  8
LAYER-2
 66
  1
 70
  0
 62
  7
 10
173.342578
 20
72.309499
 30
0.000000
  0
VERTEX
  8
LAYER-2
 10
173.342578
 20
72.309499
 30
0.000000
  0
VERTEX
  8
LAYER-2
 10
16.808865
 20
72.309499
 30
0.000000
  0
SEQEND
  8
LAYER-2
  0
POLYLINE
  8
LAYER-2
  6
LTYPE01
 66
  1
 70
  0
 62
  7
  6
LTYPE01
 10
170.813565
 20
76.954652
 30
0.000000
  0
VERTEX
  8
LAYER-2
  6
LTYPE01
 10
170.813565
 20
76.954652
 30
0.000000
  0
VERTEX
  8
LAYER-2
  6
LTYPE01
 10
159.718217
 20
74.904457
 30
0.000000
  0
VERTEX
  8
LAYER-2
  6
LTYPE01
 10
160.544886
 20
72.935476
 30
0.000000
  0
VERTEX
  8
LAYER-2
  6
LTYPE01
 10
161.739808
 20
71.165643
 30
0.000000
  0
VERTEX
  8
LAYER-2
  6
LTYPE01
 10
163.257067
 20
69.662908
 30
0.000000
  0
VERTEX
  8
LAYER-2
  6
LTYPE01
 10
165.038352
 20
68.485067
 30
0.000000
  0
VERTEX
  8
LAYER-2
  6
LTYPE01
 10
167.015163
 20
67.677362
 30
0.000000
  0
VERTEX
  8
LAYER-2
  6
LTYPE01
 10
169.111577
 20
67.270827
 30
0.000000
  0
VERTEX
  8
LAYER-2
  6
LTYPE01
 10
181.644176
 20
67.181214
 30
0.000000
  0
SEQEND
  8
LAYER-2
  0
TEXT
  8
LAYER-2
 62
  7
 10
176.298180
 20
81.403658
 30
0.000000
 40
3.927273
  1
26" - 662mm
 72
  5
 11
222.552725
 21
81.403658
 31
0.000000
  0
POLYLINE
  8
LAYER-2
 66
  1
 70
  1
 62
255
  0
VERTEX
  8
LAYER-2
 10
0.290909
 20
80.932227
 30
0.000000
  0
VERTEX
  8
LAYER-2
 10
9.344909
 20
80.932227
 30
0.000000
  0
VERTEX
  8
LAYER-2
 10
9.344909
 20
63.567099
 30
0.000000
  0
VERTEX
  8
LAYER-2
 10
0.290909
 20
63.567099
 30
0.000000
  0
SEQEND
  8
LAYER-2
  0
POLYLINE
  8
LAYER-2
 66
  1
 70
  0
 62
  7
 10
0.290909
 20
80.932227
 30
0.000000
  0
VERTEX
  8
LAYER-2
 10
0.290909
 20
80.932227
 30
0.000000
  0
VERTEX
  8
LAYER-2
 10
9.344909
 20
80.932227
 30
0.000000
  0
SEQEND
  8
LAYER-2
  0
POLYLINE
  8
LAYER-2
 66
  1
 70
  0
 62
  7
 10
9.344909
 20
80.932227
 30
0.000000
  0
VERTEX
  8
LAYER-2
 10
9.344909
 20
80.932227
 30
0.000000
  0
VERTEX
  8
LAYER-2
 10
9.344909
 20
63.567099
 30
0.000000
  0
SEQEND
  8
LAYER-2
  0
POLYLINE
  8
LAYER-2
 66
  1
 70
  0
 62
  7
 10
9.344909
 20
63.567099
 30
0.000000
  0
VERTEX
  8
LAYER-2
 10
9.344909
 20
63.567099
 30
0.000000
  0
VERTEX
  8
LAYER-2
 10
0.290909
 20
63.567099
 30
0.000000
  0
SEQEND
  8
LAYER-2
  0
POLYLINE
  8
LAYER-2
 66
  1
 70
  1
 62
 39
  0
VERTEX
  8
LAYER-2
 10
90.633194
 20
74.008097
 30
0.000000
  0
VERTEX
  8
LAYER-2
 10
90.633194
 20
73.639009
 30
0.000000
  0
VERTEX
  8
LAYER-2
 10
89.893217
 20
73.639009
 30
0.000000
  0
VERTEX
  8
LAYER-2
 10
89.893217
 20
74.008097
 30
0.000000
  0
SEQEND
  8
LAYER-2
  0
POLYLINE
  8
LAYER-2
 66
  1
 70
  0
 62
  7
 10
90.787260
 20
73.727166
 30
0.000000
  0
VERTEX
  8
LAYER-2
 10
90.787260
 20
73.727166
 30
0.000000
  0
VERTEX
  8
LAYER-2
 10
90.787260
 20
73.600621
 30
0.000000
  0
SEQEND
  8
LAYER-2
  0
POLYLINE
  8
LAYER-2
 66
  1
 70
  0
 62
  7
 10
90.723988
 20
73.537358
 30
0.000000
  0
VERTEX
  8
LAYER-2
 10
90.723988
 20
73.537358
 30
0.000000
  0
VERTEX
  8
LAYER-2
 10
89.783665
 20
73.537358
 30
0.000000
  0
SEQEND
  8
LAYER-2
  0
POLYLINE
  8
LAYER-2
 66
  1
 70
  0
 62
  7
 10
89.720392
 20
73.600621
 30
0.000000
  0
VERTEX
  8
LAYER-2
 10
89.720392
 20
73.600621
 30
0.000000
  0
VERTEX
  8
LAYER-2
 10
89.720392
 20
73.727166
 30
0.000000
  0
SEQEND
  8
LAYER-2
  0
POLYLINE
  8
LAYER-2
 66
  1
 70
  0
 62
  7
 10
89.783665
 20
73.790430
 30
0.000000
  0
VERTEX
  8
LAYER-2
 10
89.783665
 20
73.790430
 30
0.000000
  0
VERTEX
  8
LAYER-2
 10
90.723988
 20
73.790430
 30
0.000000
  0
SEQEND
  8
LAYER-2
  0
ARC
  8
LAYER-2
 62
  7
 10
90.723988
 20
73.727166
 30
0.000000
 40
0.063275
 50
0.000000
 51
90.000000
  0
ARC
  8
LAYER-2
 62
  7
 10
89.783665
 20
73.727166
 30
0.000000
 40
0.063275
 50
90.000000
 51
180.000000
  0
ARC
  8
LAYER-2
 62
  7
 10
89.783665
 20
73.600621
 30
0.000000
 40
0.063275
 50
180.000000
 51
270.000000
  0
ARC
  8
LAYER-2
 62
  7
 10
90.723988
 20
73.600621
 30
0.000000
 40
0.063275
 50
270.000000
 51
0.000000
  0
POLYLINE
  8
LAYER-2
 66
  1
 70
  0
 62
  7
 10
90.789586
 20
74.770224
 30
0.000000
  0
VERTEX
  8
LAYER-2
 10
90.789586
 20
74.770224
 30
0.000000
  0
VERTEX
  8
LAYER-2
 10
90.789586
 20
74.623313
 30
0.000000
  0
SEQEND
  8
LAYER-2
  0
POLYLINE
  8
LAYER-2
 66
  1
 70
  0
 62
  7
 10
90.716255
 20
74.550000
 30
0.000000
  0
VERTEX
  8
LAYER-2
 10
90.716255
 20
74.550000
 30
0.000000
  0
VERTEX
  8
LAYER-2
 10
89.796103
 20
74.550000
 30
0.000000
  0
SEQEND
  8
LAYER-2
  0
POLYLINE
  8
LAYER-2
 66
  1
 70
  0
 62
  7
 10
89.722781
 20
74.623313
 30
0.000000
  0
VERTEX
  8
LAYER-2
 10
89.722781
 20
74.623313
 30
0.000000
  0
VERTEX
  8
LAYER-2
 10
89.722781
 20
74.770224
 30
0.000000
  0
SEQEND
  8
LAYER-2
  0
POLYLINE
  8
LAYER-2
 66
  1
 70
  0
 62
  7
 10
89.796103
 20
74.843555
 30
0.000000
  0
VERTEX
  8
LAYER-2
 10
89.796103
 20
74.843555
 30
0.000000
  0
VERTEX
  8
LAYER-2
 10
90.716255
 20
74.843555
 30
0.000000
  0
SEQEND
  8
LAYER-2
  0
ARC
  8
LAYER-2
 62
  7
 10
90.716255
 20
74.770224
 30
0.000000
 40
0.073345
 50
0.000000
 51
90.000000
  0
ARC
  8
LAYER-2
 62
  7
 10
89.796103
 20
74.770224
 30
0.000000
 40
0.073345
 50
90.000000
 51
180.000000
  0
ARC
  8
LAYER-2
 62
  7
 10
89.796103
 20
74.623313
 30
0.000000
 40
0.073345
 50
180.000000
 51
270.000000
  0
ARC
  8
LAYER-2
 62
  7
 10
90.716255
 20
74.623313
 30
0.000000
 40
0.073345
 50
270.000000
 51
0.000000
  0
POLYLINE
  8
LAYER-2
 66
  1
 70
  1
 62
 39
 10
90.789595
 20
74.602752
 30
0.000000
  0
VERTEX
  8
LAYER-2
 10
90.789595
 20
74.602752
 30
0.000000
  0
VERTEX
  8
LAYER-2
 10
89.725684
 20
74.595703
 30
0.000000
  0
VERTEX
  8
LAYER-2
 10
89.845792
 20
73.949503
 30
0.000000
  0
VERTEX
  8
LAYER-2
 10
90.683576
 20
73.928409
 30
0.000000
  0
SEQEND
  8
LAYER-2
  0
POLYLINE
  8
LAYER-2
 66
  1
 70
  1
 62
 39
  0
VERTEX
  8
LAYER-2
 10
90.569895
 20
73.621715
 30
0.000000
  0
VERTEX
  8
LAYER-2
 10
90.569895
 20
73.218324
 30
0.000000
  0
VERTEX
  8
LAYER-2
 10
89.938343
 20
73.218324
 30
0.000000
  0
VERTEX
  8
LAYER-2
 10
89.938343
 20
73.621715
 30
0.000000
  0
SEQEND
  8
LAYER-2
  0
POLYLINE
  8
LAYER-2
 66
  1
 70
  0
 62
  7
 10
88.660449
 20
73.383221
 30
0.000000
  0
VERTEX
  8
LAYER-2
 10
88.660449
 20
73.383221
 30
0.000000
  0
VERTEX
  8
LAYER-2
 10
90.998295
 20
73.383221
 30
0.000000
  0
SEQEND
  8
LAYER-2
  0
POLYLINE
  8
LAYER-2
 66
  1
 70
  0
 62
  7
 10
91.501651
 20
72.879865
 30
0.000000
  0
VERTEX
  8
LAYER-2
 10
91.501651
 20
72.879865
 30
0.000000
  0
VERTEX
  8
LAYER-2
 10
91.501651
 20
71.873171
 30
0.000000
  0
SEQEND
  8
LAYER-2
  0
POLYLINE
  8
LAYER-2
 66
  1
 70
  0
 62
  7
 10
90.998295
 20
71.369815
 30
0.000000
  0
VERTEX
  8
LAYER-2
 10
90.998295
 20
71.369815
 30
0.000000
  0
VERTEX
  8
LAYER-2
 10
88.660449
 20
71.369815
 30
0.000000
  0
SEQEND
  8
LAYER-2
  0
POLYLINE
  8
LAYER-2
 66
  1
 70
  0
 62
  7
 10
88.157102
 20
71.873171
 30
0.000000
  0
VERTEX
  8
LAYER-2
 10
88.157102
 20
71.873171
 30
0.000000
  0
VERTEX
  8
LAYER-2
 10
88.157102
 20
72.879865
 30
0.000000
  0
SEQEND
  8
LAYER-2
  0
ARC
  8
LAYER-2
 62
  7
 10
88.660449
 20
72.879865
 30
0.000000
 40
0.503350
 50
90.000000
 51
180.000000
  0
ARC
  8
LAYER-2
 62
  7
 10
88.660449
 20
71.873171
 30
0.000000
 40
0.503350
 50
180.000000
 51
270.000000
  0
ARC
  8
LAYER-2
 62
  7
 10
90.998295
 20
71.873171
 30
0.000000
 40
0.503350
 50
270.000000
 51
0.000000
  0
ARC
  8
LAYER-2
 62
  7
 10
90.998295
 20
72.879865
 30
0.000000
 40
0.503350
 50
0.000000
 51
90.000000
  0
POLYLINE
  8
LAYER-2
 66
  1
 70
  0
 62
  7
 10
92.242392
 20
72.366371
 30
0.000000
  0
VERTEX
  8
LAYER-2
 10
92.242392
 20
72.366371
 30
0.000000
  0
VERTEX
  8
LAYER-2
 10
92.136097
 20
72.622976
 30
0.000000
  0
VERTEX
  8
LAYER-2
 10
91.879483
 20
72.729279
 30
0.000000
  0
VERTEX
  8
LAYER-2
 10
91.622860
 20
72.622976
 30
0.000000
  0
VERTEX
  8
LAYER-2
 10
91.516566
 20
72.366371
 30
0.000000
  0
VERTEX
  8
LAYER-2
 10
91.622860
 20
72.109766
 30
0.000000
  0
VERTEX
  8
LAYER-2
 10
91.879483
 20
72.003462
 30
0.000000
  0
VERTEX
  8
LAYER-2
 10
92.136097
 20
72.109766
 30
0.000000
  0
VERTEX
  8
LAYER-2
 10
92.242392
 20
72.366371
 30
0.000000
  0
SEQEND
  8
LAYER-2
  0
POLYLINE
  8
LAYER-2
 66
  1
 70
  0
 62
  7
 10
88.170872
 20
72.366371
 30
0.000000
  0
VERTEX
  8
LAYER-2
 10
88.170872
 20
72.366371
 30
0.000000
  0
VERTEX
  8
LAYER-2
 10
88.064577
 20
72.622976
 30
0.000000
  0
VERTEX
  8
LAYER-2
 10
87.807963
 20
72.729279
 30
0.000000
  0
VERTEX
  8
LAYER-2
 10
87.551341
 20
72.622976
 30
0.000000
  0
VERTEX
  8
LAYER-2
 10
87.445046
 20
72.366371
 30
0.000000
  0
VERTEX
  8
LAYER-2
 10
87.551341
 20
72.109766
 30
0.000000
  0
VERTEX
  8
LAYER-2
 10
87.807963
 20
72.003462
 30
0.000000
  0
VERTEX
  8
LAYER-2
 10
88.064577
 20
72.109766
 30
0.000000
  0
VERTEX
  8
LAYER-2
 10
88.170872
 20
72.366371
 30
0.000000
  0
SEQEND
  8
LAYER-2
  0
ENDSEC
  0
EOF
