  0
SECTION
  2
HEADER
999
MacDraft 5.0\0
  9
$ACADVER
  1
AC1006
  9
$CLAYER
  8
LAYER-2
  9
$EXTMIN
 10
0.000000
 20
0.000000
  9
$EXTMAX
 10
7.403824
 20
13.810549
  9
$FASTZOOM
 70
0
  9
$FILLMODE
 70
1
  0
ENDSEC
  0
SECTION
  2
TABLES
  0
TABLE
  2
LTYPE
 70
16
  0
LTYPE
  2
CONTINUOUS
 70
64
  3
Solid Line
 72
65
 73
0
 40
0.000000
  0
LTYPE
  2
LTYPE01
 70
64
  3
CUSTOM
 72
65
 73
2
 40
0.111111
 49
0.083333
 49
-0.027778
  0
LTYPE
  2
LTYPE02
 70
64
  3
CUSTOM
 72
65
 73
2
 40
0.194444
 49
0.166667
 49
-0.027778
  0
LTYPE
  2
LTYPE03
 70
64
  3
CUSTOM
 72
65
 73
2
 40
0.375000
 49
0.333333
 49
-0.041667
  0
LTYPE
  2
LTYPE04
 70
64
  3
CUSTOM
 72
65
 73
2
 40
0.722222
 49
0.666667
 49
-0.055556
  0
LTYPE
  2
LTYPE05
 70
64
  3
CUSTOM
 72
65
 73
4
 40
0.152778
 49
0.083333
 49
-0.027778
 49
0.013889
 49
-0.027778
  0
LTYPE
  2
LTYPE06
 70
64
  3
CUSTOM
 72
65
 73
4
 40
0.236111
 49
0.166667
 49
-0.027778
 49
0.013889
 49
-0.027778
  0
LTYPE
  2
LTYPE07
 70
64
  3
CUSTOM
 72
65
 73
4
 40
0.444444
 49
0.333333
 49
-0.041667
 49
0.027778
 49
-0.041667
  0
LTYPE
  2
LTYPE08
 70
64
  3
CUSTOM
 72
65
 73
4
 40
0.805556
 49
0.666667
 49
-0.055556
 49
0.027778
 49
-0.055556
  0
LTYPE
  2
LTYPE09
 70
64
  3
CUSTOM
 72
65
 73
6
 40
0.194444
 49
0.083333
 49
-0.027778
 49
0.013889
 49
-0.027778
 49
0.013889
 49
-0.027778
  0
LTYPE
  2
LTYPE10
 70
64
  3
CUSTOM
 72
65
 73
6
 40
0.277778
 49
0.166667
 49
-0.027778
 49
0.013889
 49
-0.027778
 49
0.013889
 49
-0.027778
  0
LTYPE
  2
LTYPE11
 70
64
  3
CUSTOM
 72
65
 73
6
 40
0.500000
 49
0.333333
 49
-0.041667
 49
0.027778
 49
-0.027778
 49
0.027778
 49
-0.041667
  0
LTYPE
  2
LTYPE12
 70
64
  3
CUSTOM
 72
65
 73
6
 40
0.861111
 49
0.666667
 49
-0.055556
 49
0.027778
 49
-0.027778
 49
0.027778
 49
-0.055556
  0
LTYPE
  2
LTYPE13
 70
64
  3
CUSTOM
 72
65
 73
8
 40
0.319444
 49
0.166667
 49
-0.027778
 49
0.013889
 49
-0.027778
 49
0.013889
 49
-0.027778
 49
0.013889
 49
-0.027778
  0
LTYPE
  2
LTYPE14
 70
64
  3
CUSTOM
 72
65
 73
8
 40
0.555556
 49
0.333333
 49
-0.041667
 49
0.027778
 49
-0.027778
 49
0.027778
 49
-0.027778
 49
0.027778
 49
-0.041667
  0
LTYPE
  2
LTYPE15
 70
64
  3
CUSTOM
 72
65
 73
8
 40
0.944444
 49
0.666667
 49
-0.055556
 49
0.027778
 49
-0.041667
 49
0.027778
 49
-0.041667
 49
0.027778
 49
-0.055556
  0
ENDTAB
  0
TABLE
  2
LAYER
 70
1
  0
LAYER
  2
LAYER-2
 70
0
 62
7
  6
CONTINUOUS
  0
ENDTAB
  0
ENDSEC
  0
SECTION
  2
BLOCKS
  0
ENDSEC
  0
SECTION
  2
ENTITIES
  0
POLYLINE
  8
LAYER-2
 66
  1
 70
  1
 62
  7
 10
7.950441
 20
12.900440
 30
0.000000
  0
VERTEX
  8
LAYER-2
 10
7.950441
 20
12.900440
 30
0.000000
  0
VERTEX
  8
LAYER-2
 10
8.094998
 20
12.551453
 30
0.000000
  0
VERTEX
  8
LAYER-2
 10
10.673767
 20
13.555946
 30
0.000000
  0
VERTEX
  8
LAYER-2
 10
10.533863
 20
13.915127
 30
0.000000
  0
SEQEND
  8
LAYER-2
  0
ARC
  8
LAYER-2
 62
  0
 10
7.441607
 20
0.001970
 30
0.000000
 40
10.005340
 50
58.144440
 51
126.727356
  0
POLYLINE
  8
LAYER-2
 66
  1
 70
  0
 62
  0
 10
1.312279
 20
7.995097
 30
0.000000
  0
VERTEX
  8
LAYER-2
 10
1.312279
 20
7.995097
 30
0.000000
  0
VERTEX
  8
LAYER-2
 10
1.322652
 20
8.075636
 30
0.000000
  0
SEQEND
  8
LAYER-2
  0
POLYLINE
  8
LAYER-2
 66
  1
 70
  0
 62
  0
 10
1.398938
 20
7.880373
 30
0.000000
  0
VERTEX
  8
LAYER-2
 10
1.398938
 20
7.880373
 30
0.000000
  0
VERTEX
  8
LAYER-2
 10
1.479481
 20
7.869999
 30
0.000000
  0
SEQEND
  8
LAYER-2
  0
POLYLINE
  8
LAYER-2
 66
  1
 70
  0
 62
  0
 10
1.220478
 20
7.937066
 30
0.000000
  0
VERTEX
  8
LAYER-2
 10
1.220478
 20
7.937066
 30
0.000000
  0
VERTEX
  8
LAYER-2
 10
1.284967
 20
7.986842
 30
0.000000
  0
SEQEND
  8
LAYER-2
  0
POLYLINE
  8
LAYER-2
 66
  1
 70
  0
 62
  0
 10
1.342101
 20
7.979485
 30
0.000000
  0
VERTEX
  8
LAYER-2
 10
1.342101
 20
7.979485
 30
0.000000
  0
VERTEX
  8
LAYER-2
 10
1.391877
 20
7.914993
 30
0.000000
  0
SEQEND
  8
LAYER-2
  0
POLYLINE
  8
LAYER-2
 66
  1
 70
  0
 62
  0
 10
1.384520
 20
7.857861
 30
0.000000
  0
VERTEX
  8
LAYER-2
 10
1.384520
 20
7.857861
 30
0.000000
  0
VERTEX
  8
LAYER-2
 10
1.320031
 20
7.808085
 30
0.000000
  0
SEQEND
  8
LAYER-2
  0
POLYLINE
  8
LAYER-2
 66
  1
 70
  0
 62
  0
 10
1.262897
 20
7.815442
 30
0.000000
  0
VERTEX
  8
LAYER-2
 10
1.262897
 20
7.815442
 30
0.000000
  0
VERTEX
  8
LAYER-2
 10
1.213121
 20
7.879934
 30
0.000000
  0
SEQEND
  8
LAYER-2
  0
ARC
  8
LAYER-2
 62
  0
 10
1.245366
 20
7.904821
 30
0.000000
 40
0.040734
 50
127.662506
 51
217.662506
  0
ARC
  8
LAYER-2
 62
  0
 10
1.295143
 20
7.840332
 30
0.000000
 40
0.040734
 50
217.662506
 51
307.662506
  0
ARC
  8
LAYER-2
 62
  0
 10
1.359631
 20
7.890108
 30
0.000000
 40
0.040734
 50
307.662506
 51
37.662498
  0
ARC
  8
LAYER-2
 62
  0
 10
1.309855
 20
7.954597
 30
0.000000
 40
0.040734
 50
37.662498
 51
127.662506
  0
POLYLINE
  8
LAYER-2
 66
  1
 70
  0
 62
  0
 10
1.470441
 20
7.936198
 30
0.000000
  0
VERTEX
  8
LAYER-2
 10
1.470441
 20
7.936198
 30
0.000000
  0
VERTEX
  8
LAYER-2
 10
1.577207
 20
8.018606
 30
0.000000
  0
SEQEND
  8
LAYER-2
  0
POLYLINE
  8
LAYER-2
 66
  1
 70
  0
 62
  0
 10
1.607065
 20
8.014760
 30
0.000000
  0
VERTEX
  8
LAYER-2
 10
1.607065
 20
8.014760
 30
0.000000
  0
VERTEX
  8
LAYER-2
 10
1.633079
 20
7.981057
 30
0.000000
  0
SEQEND
  8
LAYER-2
  0
POLYLINE
  8
LAYER-2
 66
  1
 70
  0
 62
  0
 10
1.629234
 20
7.951201
 30
0.000000
  0
VERTEX
  8
LAYER-2
 10
1.629234
 20
7.951201
 30
0.000000
  0
VERTEX
  8
LAYER-2
 10
1.522468
 20
7.868791
 30
0.000000
  0
SEQEND
  8
LAYER-2
  0
POLYLINE
  8
LAYER-2
 66
  1
 70
  0
 62
  0
 10
1.492610
 20
7.872637
 30
0.000000
  0
VERTEX
  8
LAYER-2
 10
1.492610
 20
7.872637
 30
0.000000
  0
VERTEX
  8
LAYER-2
 10
1.466595
 20
7.906342
 30
0.000000
  0
SEQEND
  8
LAYER-2
  0
ARC
  8
LAYER-2
 62
  0
 10
1.483447
 20
7.919349
 30
0.000000
 40
0.021287
 50
127.662506
 51
217.662506
  0
ARC
  8
LAYER-2
 62
  0
 10
1.509462
 20
7.885644
 30
0.000000
 40
0.021287
 50
217.662506
 51
307.662506
  0
ARC
  8
LAYER-2
 62
  0
 10
1.616228
 20
7.968050
 30
0.000000
 40
0.021287
 50
307.662506
 51
37.662498
  0
ARC
  8
LAYER-2
 62
  0
 10
1.590213
 20
8.001755
 30
0.000000
 40
0.021287
 50
37.662498
 51
127.662506
  0
POLYLINE
  8
LAYER-2
 66
  1
 70
  0
 62
  0
 10
1.332793
 20
8.115963
 30
0.000000
  0
VERTEX
  8
LAYER-2
 10
1.332793
 20
8.115963
 30
0.000000
  0
VERTEX
  8
LAYER-2
 10
1.439559
 20
8.198371
 30
0.000000
  0
SEQEND
  8
LAYER-2
  0
POLYLINE
  8
LAYER-2
 66
  1
 70
  0
 62
  0
 10
1.469416
 20
8.194526
 30
0.000000
  0
VERTEX
  8
LAYER-2
 10
1.469416
 20
8.194526
 30
0.000000
  0
VERTEX
  8
LAYER-2
 10
1.495431
 20
8.160821
 30
0.000000
  0
SEQEND
  8
LAYER-2
  0
POLYLINE
  8
LAYER-2
 66
  1
 70
  0
 62
  0
 10
1.491586
 20
8.130963
 30
0.000000
  0
VERTEX
  8
LAYER-2
 10
1.491586
 20
8.130963
 30
0.000000
  0
VERTEX
  8
LAYER-2
 10
1.384820
 20
8.048557
 30
0.000000
  0
SEQEND
  8
LAYER-2
  0
POLYLINE
  8
LAYER-2
 66
  1
 70
  0
 62
  0
 10
1.354963
 20
8.052400
 30
0.000000
  0
VERTEX
  8
LAYER-2
 10
1.354963
 20
8.052400
 30
0.000000
  0
VERTEX
  8
LAYER-2
 10
1.328948
 20
8.086105
 30
0.000000
  0
SEQEND
  8
LAYER-2
  0
ARC
  8
LAYER-2
 62
  0
 10
1.345799
 20
8.099113
 30
0.000000
 40
0.021287
 50
127.662506
 51
217.662506
  0
ARC
  8
LAYER-2
 62
  0
 10
1.371814
 20
8.065408
 30
0.000000
 40
0.021287
 50
217.662506
 51
307.662506
  0
ARC
  8
LAYER-2
 62
  0
 10
1.478580
 20
8.147814
 30
0.000000
 40
0.021287
 50
307.662506
 51
37.662498
  0
ARC
  8
LAYER-2
 62
  0
 10
1.452565
 20
8.181519
 30
0.000000
 40
0.021287
 50
37.662498
 51
127.662506
  0
POLYLINE
  8
LAYER-2
 66
  1
 70
  0
 62
  0
 10
1.359333
 20
8.047392
 30
0.000000
  0
VERTEX
  8
LAYER-2
 10
1.359333
 20
8.047392
 30
0.000000
  0
VERTEX
  8
LAYER-2
 10
1.498491
 20
8.154800
 30
0.000000
  0
SEQEND
  8
LAYER-2
  0
POLYLINE
  8
LAYER-2
 66
  1
 70
  0
 62
  0
 10
1.556220
 20
8.147366
 30
0.000000
  0
VERTEX
  8
LAYER-2
 10
1.556220
 20
8.147366
 30
0.000000
  0
VERTEX
  8
LAYER-2
 10
1.606518
 20
8.082199
 30
0.000000
  0
SEQEND
  8
LAYER-2
  0
POLYLINE
  8
LAYER-2
 66
  1
 70
  0
 62
  0
 10
1.599084
 20
8.024468
 30
0.000000
  0
VERTEX
  8
LAYER-2
 10
1.599084
 20
8.024468
 30
0.000000
  0
VERTEX
  8
LAYER-2
 10
1.459926
 20
7.917060
 30
0.000000
  0
SEQEND
  8
LAYER-2
  0
POLYLINE
  8
LAYER-2
 66
  1
 70
  0
 62
  0
 10
1.402197
 20
7.924494
 30
0.000000
  0
VERTEX
  8
LAYER-2
 10
1.402197
 20
7.924494
 30
0.000000
  0
VERTEX
  8
LAYER-2
 10
1.351899
 20
7.989661
 30
0.000000
  0
SEQEND
  8
LAYER-2
  0
ARC
  8
LAYER-2
 62
  0
 10
1.384480
 20
8.014810
 30
0.000000
 40
0.041159
 50
127.662506
 51
217.662506
  0
ARC
  8
LAYER-2
 62
  0
 10
1.434779
 20
7.949643
 30
0.000000
 40
0.041159
 50
217.662506
 51
307.662506
  0
ARC
  8
LAYER-2
 62
  0
 10
1.573936
 20
8.057051
 30
0.000000
 40
0.041159
 50
307.662506
 51
37.662498
  0
ARC
  8
LAYER-2
 62
  0
 10
1.523639
 20
8.122218
 30
0.000000
 40
0.041159
 50
37.662498
 51
127.662506
  0
POLYLINE
  8
LAYER-2
 66
  1
 70
  0
 62
  0
 10
5.176907
 20
9.674567
 30
0.000000
  0
VERTEX
  8
LAYER-2
 10
5.176907
 20
9.674567
 30
0.000000
  0
VERTEX
  8
LAYER-2
 10
5.309090
 20
9.701352
 30
0.000000
  0
SEQEND
  8
LAYER-2
  0
POLYLINE
  8
LAYER-2
 66
  1
 70
  0
 62
  0
 10
5.334180
 20
9.684718
 30
0.000000
  0
VERTEX
  8
LAYER-2
 10
5.334180
 20
9.684718
 30
0.000000
  0
VERTEX
  8
LAYER-2
 10
5.342636
 20
9.642988
 30
0.000000
  0
SEQEND
  8
LAYER-2
  0
POLYLINE
  8
LAYER-2
 66
  1
 70
  0
 62
  0
 10
5.326000
 20
9.617900
 30
0.000000
  0
VERTEX
  8
LAYER-2
 10
5.326000
 20
9.617900
 30
0.000000
  0
VERTEX
  8
LAYER-2
 10
5.193817
 20
9.591115
 30
0.000000
  0
SEQEND
  8
LAYER-2
  0
POLYLINE
  8
LAYER-2
 66
  1
 70
  0
 62
  0
 10
5.168727
 20
9.607749
 30
0.000000
  0
VERTEX
  8
LAYER-2
 10
5.168727
 20
9.607749
 30
0.000000
  0
VERTEX
  8
LAYER-2
 10
5.160272
 20
9.649478
 30
0.000000
  0
SEQEND
  8
LAYER-2
  0
ARC
  8
LAYER-2
 62
  0
 10
5.181135
 20
9.653707
 30
0.000000
 40
0.021287
 50
101.455017
 51
191.455017
  0
ARC
  8
LAYER-2
 62
  0
 10
5.189590
 20
9.611977
 30
0.000000
 40
0.021287
 50
191.455017
 51
281.454987
  0
ARC
  8
LAYER-2
 62
  0
 10
5.321773
 20
9.638762
 30
0.000000
 40
0.021287
 50
281.454987
 51
11.455002
  0
ARC
  8
LAYER-2
 62
  0
 10
5.313317
 20
9.680491
 30
0.000000
 40
0.021287
 50
11.455002
 51
101.455017
  0
POLYLINE
  8
LAYER-2
 66
  1
 70
  0
 62
  0
 10
5.127146
 20
9.819288
 30
0.000000
  0
VERTEX
  8
LAYER-2
 10
5.127146
 20
9.819288
 30
0.000000
  0
VERTEX
  8
LAYER-2
 10
5.299432
 20
9.854199
 30
0.000000
  0
SEQEND
  8
LAYER-2
  0
POLYLINE
  8
LAYER-2
 66
  1
 70
  0
 62
  0
 10
5.347945
 20
9.822037
 30
0.000000
  0
VERTEX
  8
LAYER-2
 10
5.347945
 20
9.822037
 30
0.000000
  0
VERTEX
  8
LAYER-2
 10
5.364293
 20
9.741360
 30
0.000000
  0
SEQEND
  8
LAYER-2
  0
POLYLINE
  8
LAYER-2
 66
  1
 70
  0
 62
  0
 10
5.332128
 20
9.692847
 30
0.000000
  0
VERTEX
  8
LAYER-2
 10
5.332128
 20
9.692847
 30
0.000000
  0
VERTEX
  8
LAYER-2
 10
5.159841
 20
9.657937
 30
0.000000
  0
SEQEND
  8
LAYER-2
  0
POLYLINE
  8
LAYER-2
 66
  1
 70
  0
 62
  0
 10
5.111329
 20
9.690101
 30
0.000000
  0
VERTEX
  8
LAYER-2
 10
5.111329
 20
9.690101
 30
0.000000
  0
VERTEX
  8
LAYER-2
 10
5.094980
 20
9.770776
 30
0.000000
  0
SEQEND
  8
LAYER-2
  0
ARC
  8
LAYER-2
 62
  0
 10
5.135320
 20
9.778951
 30
0.000000
 40
0.041159
 50
101.455017
 51
191.455017
  0
ARC
  8
LAYER-2
 62
  0
 10
5.151667
 20
9.698274
 30
0.000000
 40
0.041159
 50
191.455017
 51
281.454987
  0
ARC
  8
LAYER-2
 62
  0
 10
5.323954
 20
9.733187
 30
0.000000
 40
0.041159
 50
281.454987
 51
11.455002
  0
ARC
  8
LAYER-2
 62
  0
 10
5.307606
 20
9.813863
 30
0.000000
 40
0.041159
 50
11.455002
 51
101.455017
  0
POLYLINE
  8
LAYER-2
 66
  1
 70
  1
 62
  0
  0
VERTEX
  8
LAYER-2
 10
0.778037
 20
8.192902
 30
0.000000
  0
VERTEX
  8
LAYER-2
 10
0.901123
 20
8.286928
 30
0.000000
  0
VERTEX
  8
LAYER-2
 10
1.546116
 20
7.442600
 30
0.000000
  0
VERTEX
  8
LAYER-2
 10
1.423031
 20
7.348572
 30
0.000000
  0
SEQEND
  8
LAYER-2
  0
LINE
  8
LAYER-2
 62
  0
 10
12.851066
 20
8.878994
 30
0.000000
 11
14.190947
 21
8.001124
 31
0.000000
  0
LINE
  8
LAYER-2
 62
  0
 10
12.759729
 20
8.739583
 30
0.000000
 11
13.960197
 21
7.953057
 31
0.000000
  0
LINE
  8
LAYER-2
 62
  0
 10
12.851066
 20
8.878994
 30
0.000000
 11
12.759729
 21
8.739583
 31
0.000000
  0
LINE
  8
LAYER-2
 62
  0
 10
14.190947
 20
8.001124
 30
0.000000
 11
13.784995
 21
7.381531
 31
0.000000
  0
LINE
  8
LAYER-2
 62
  0
 10
13.960197
 20
7.953057
 30
0.000000
 11
13.736923
 21
7.612279
 31
0.000000
  0
LINE
  8
LAYER-2
 62
  0
 10
13.784995
 20
7.381531
 30
0.000000
 11
12.445116
 21
8.259401
 31
0.000000
  0
LINE
  8
LAYER-2
 62
  0
 10
13.736923
 20
7.612279
 30
0.000000
 11
12.536454
 21
8.398810
 31
0.000000
  0
LINE
  8
LAYER-2
 62
  0
 10
12.445116
 20
8.259401
 30
0.000000
 11
12.536454
 21
8.398810
 31
0.000000
  0
POLYLINE
  8
LAYER-2
 66
  1
 70
  0
 62
  0
 10
12.780001
 20
8.560260
 30
0.000000
  0
VERTEX
  8
LAYER-2
 10
12.780001
 20
8.560260
 30
0.000000
  0
VERTEX
  8
LAYER-2
 10
12.927040
 20
8.463921
 30
0.000000
  0
SEQEND
  8
LAYER-2
  0
POLYLINE
  8
LAYER-2
 66
  1
 70
  0
 62
  0
 10
12.938911
 20
8.406940
 30
0.000000
  0
VERTEX
  8
LAYER-2
 10
12.938911
 20
8.406940
 30
0.000000
  0
VERTEX
  8
LAYER-2
 10
12.893797
 20
8.338082
 30
0.000000
  0
SEQEND
  8
LAYER-2
  0
POLYLINE
  8
LAYER-2
 66
  1
 70
  0
 62
  0
 10
12.836813
 20
8.326211
 30
0.000000
  0
VERTEX
  8
LAYER-2
 10
12.836813
 20
8.326211
 30
0.000000
  0
VERTEX
  8
LAYER-2
 10
12.689775
 20
8.422550
 30
0.000000
  0
SEQEND
  8
LAYER-2
  0
POLYLINE
  8
LAYER-2
 66
  1
 70
  0
 62
  0
 10
12.677904
 20
8.479531
 30
0.000000
  0
VERTEX
  8
LAYER-2
 10
12.677904
 20
8.479531
 30
0.000000
  0
VERTEX
  8
LAYER-2
 10
12.723018
 20
8.548389
 30
0.000000
  0
SEQEND
  8
LAYER-2
  0
ARC
  8
LAYER-2
 62
  0
 10
12.757445
 20
8.525831
 30
0.000000
 40
0.041159
 50
56.767792
 51
146.767792
  0
ARC
  8
LAYER-2
 62
  0
 10
12.712331
 20
8.456977
 30
0.000000
 40
0.041159
 50
146.767792
 51
236.767822
  0
ARC
  8
LAYER-2
 62
  0
 10
12.859370
 20
8.360640
 30
0.000000
 40
0.041159
 50
236.767822
 51
326.767792
  0
ARC
  8
LAYER-2
 62
  0
 10
12.904483
 20
8.429494
 30
0.000000
 40
0.041159
 50
326.767792
 51
56.767792
  0
POLYLINE
  8
LAYER-2
 66
  1
 70
  0
 62
  0
 10
12.920154
 20
8.369926
 30
0.000000
  0
VERTEX
  8
LAYER-2
 10
12.920154
 20
8.369926
 30
0.000000
  0
VERTEX
  8
LAYER-2
 10
13.485938
 20
8.109928
 30
0.000000
  0
SEQEND
  8
LAYER-2
  0
POLYLINE
  8
LAYER-2
 66
  1
 70
  0
 62
  0
 10
12.917616
 20
8.366050
 30
0.000000
  0
VERTEX
  8
LAYER-2
 10
12.917616
 20
8.366050
 30
0.000000
  0
VERTEX
  8
LAYER-2
 10
13.389523
 20
7.962777
 30
0.000000
  0
SEQEND
  8
LAYER-2
  0
POLYLINE
  8
LAYER-2
 66
  1
 70
  0
 62
  0
 10
12.970043
 20
8.452350
 30
0.000000
  0
VERTEX
  8
LAYER-2
 10
12.970043
 20
8.452350
 30
0.000000
  0
VERTEX
  8
LAYER-2
 10
12.817813
 20
8.220000
 30
0.000000
  0
SEQEND
  8
LAYER-2
  0
POLYLINE
  8
LAYER-2
  6
LTYPE06
 66
  1
 70
  0
 62
  0
  6
LTYPE06
 10
12.920636
 20
8.368491
 30
0.000000
  0
VERTEX
  8
LAYER-2
  6
LTYPE06
 10
12.920636
 20
8.368491
 30
0.000000
  0
VERTEX
  8
LAYER-2
  6
LTYPE06
 10
13.834539
 20
7.769714
 30
0.000000
  0
SEQEND
  8
LAYER-2
  0
POLYLINE
  8
LAYER-2
  6
LTYPE01
 66
  1
 70
  0
 62
  0
  6
LTYPE01
 10
10.533863
 20
13.915127
 30
0.000000
  0
VERTEX
  8
LAYER-2
  6
LTYPE01
 10
10.533863
 20
13.915127
 30
0.000000
  0
VERTEX
  8
LAYER-2
  6
LTYPE01
 10
7.954781
 20
12.902176
 30
0.000000
  0
SEQEND
  8
LAYER-2
  0
POLYLINE
  8
LAYER-2
  6
LTYPE01
 66
  1
 70
  0
 62
  0
  6
LTYPE01
 10
7.954781
 20
12.902176
 30
0.000000
  0
VERTEX
  8
LAYER-2
  6
LTYPE01
 10
7.954781
 20
12.902176
 30
0.000000
  0
VERTEX
  8
LAYER-2
  6
LTYPE01
 10
8.099337
 20
12.553189
 30
0.000000
  0
SEQEND
  8
LAYER-2
  0
POLYLINE
  8
LAYER-2
  6
LTYPE01
 66
  1
 70
  0
 62
  0
  6
LTYPE01
 10
8.099337
 20
12.553189
 30
0.000000
  0
VERTEX
  8
LAYER-2
  6
LTYPE01
 10
8.099337
 20
12.553189
 30
0.000000
  0
VERTEX
  8
LAYER-2
  6
LTYPE01
 10
10.673767
 20
13.555946
 30
0.000000
  0
SEQEND
  8
LAYER-2
  0
TEXT
  8
LAYER-2
 62
  0
 10
11.250000
 20
13.951711
 30
0.000000
 40
0.250000
  1
Courbe 45  ou 90
 72
  5
 11
14.027778
 21
13.951711
 31
0.000000
  0
TEXT
  8
LAYER-2
 62
  0
 10
3.888889
 20
13.923933
 30
0.000000
 40
0.250000
  1
 Angle requis
 72
  5
 11
6.027778
 21
13.923933
 31
0.000000
  0
TEXT
  8
LAYER-2
 62
  0
 10
11.250000
 20
13.118378
 30
0.000000
 40
0.250000
  1
Rail droit
 72
  5
 11
12.750000
 21
13.118378
 31
0.000000
  0
CIRCLE
  8
LAYER-2
 62
  0
 10
7.950717
 20
12.906228
 30
0.000000
 40
0.107314
  0
CIRCLE
  8
LAYER-2
 62
  0
 10
8.105040
 20
12.554882
 30
0.000000
 40
0.107314
  0
TEXT
  8
LAYER-2
 62
  0
 10
8.888889
 20
11.729489
 30
0.000000
 40
0.250000
  1
Marquer la ligne
 72
  5
 11
11.472223
 21
11.729489
 31
0.000000
  0
TEXT
  8
LAYER-2
 62
  0
 10
8.888889
 20
11.340600
 30
0.000000
 40
0.250000
  1
de coupe ˆ cet endroit
 72
  5
 11
12.388889
 21
11.340600
 31
0.000000
  0
POLYLINE
  8
LAYER-2
  6
LTYPE05
 66
  1
 70
  0
 62
  0
  6
LTYPE05
 10
4.187499
 20
12.267556
 30
0.000000
  0
VERTEX
  8
LAYER-2
  6
LTYPE05
 10
4.187499
 20
12.267556
 30
0.000000
  0
VERTEX
  8
LAYER-2
  6
LTYPE05
 10
11.222228
 20
12.267556
 30
0.000000
  0
SEQEND
  8
LAYER-2
  0
POLYLINE
  8
LAYER-2
  6
LTYPE05
 66
  1
 70
  0
 62
  0
  6
LTYPE05
 10
4.180555
 20
11.024502
 30
0.000000
  0
VERTEX
  8
LAYER-2
  6
LTYPE05
 10
4.180555
 20
11.024502
 30
0.000000
  0
VERTEX
  8
LAYER-2
  6
LTYPE05
 10
8.094998
 20
12.551453
 30
0.000000
  0
SEQEND
  8
LAYER-2
  0
TEXT
  8
LAYER-2
 62
  0
 10
1.361111
 20
12.812822
 30
0.000000
 40
0.250000
  1
ligne d'axe #1
 72
  5
 11
3.805556
 21
12.812822
 31
0.000000
  0
TEXT
  8
LAYER-2
 62
  0
 10
1.333334
 20
11.590600
 30
0.000000
 40
0.250000
  1
ligne d'axe #2
 72
  5
 11
3.777778
 21
11.590600
 31
0.000000
  0
ARC
  8
LAYER-2
 62
  0
  6
LTYPE05
 10
7.381949
 20
12.639084
 30
0.000000
 40
1.616180
 50
22.713783
 51
179.687988
  0
POLYLINE
  8
LAYER-2
 66
  1
 70
  0
 62
  0
 10
11.055557
 20
14.146156
 30
0.000000
  0
VERTEX
  8
LAYER-2
 10
11.055557
 20
14.146156
 30
0.000000
  0
VERTEX
  8
LAYER-2
 10
10.353829
 20
14.387863
 30
0.000000
  0
SEQEND
  8
LAYER-2
  0
POLYLINE
  8
LAYER-2
 66
  1
 70
  1
 62
  0
  0
VERTEX
  8
LAYER-2
 10
10.335217
 20
14.394274
 30
0.000000
  0
VERTEX
  8
LAYER-2
 10
10.493674
 20
14.427834
 30
0.000000
  0
VERTEX
  8
LAYER-2
 10
10.466535
 20
14.349043
 30
0.000000
  0
VERTEX
  8
LAYER-2
 10
10.439396
 20
14.270253
 30
0.000000
  0
VERTEX
  8
LAYER-2
 10
10.335217
 20
14.394274
 30
0.000000
  0
SEQEND
  8
LAYER-2
  0
POLYLINE
  8
LAYER-2
 66
  1
 70
  0
 62
  0
 10
5.784721
 20
14.045336
 30
0.000000
  0
VERTEX
  8
LAYER-2
 10
5.784721
 20
14.045336
 30
0.000000
  0
VERTEX
  8
LAYER-2
 10
6.185135
 20
13.771718
 30
0.000000
  0
SEQEND
  8
LAYER-2
  0
POLYLINE
  8
LAYER-2
 66
  1
 70
  1
 62
  0
  0
VERTEX
  8
LAYER-2
 10
6.201388
 20
13.760612
 30
0.000000
  0
VERTEX
  8
LAYER-2
 10
6.039700
 20
13.770167
 30
0.000000
  0
VERTEX
  8
LAYER-2
 10
6.086715
 20
13.838971
 30
0.000000
  0
VERTEX
  8
LAYER-2
 10
6.133731
 20
13.907774
 30
0.000000
  0
VERTEX
  8
LAYER-2
 10
6.201388
 20
13.760612
 30
0.000000
  0
SEQEND
  8
LAYER-2
  0
POLYLINE
  8
LAYER-2
 66
  1
 70
  0
 62
  0
 10
11.125006
 20
13.305874
 30
0.000000
  0
VERTEX
  8
LAYER-2
 10
11.125006
 20
13.305874
 30
0.000000
  0
VERTEX
  8
LAYER-2
 10
10.560348
 20
13.494097
 30
0.000000
  0
SEQEND
  8
LAYER-2
  0
POLYLINE
  8
LAYER-2
 66
  1
 70
  1
 62
  0
  0
VERTEX
  8
LAYER-2
 10
10.541673
 20
13.500322
 30
0.000000
  0
VERTEX
  8
LAYER-2
 10
10.699788
 20
13.535458
 30
0.000000
  0
VERTEX
  8
LAYER-2
 10
10.673435
 20
13.456401
 30
0.000000
  0
VERTEX
  8
LAYER-2
 10
10.647081
 20
13.377343
 30
0.000000
  0
VERTEX
  8
LAYER-2
 10
10.541673
 20
13.500322
 30
0.000000
  0
SEQEND
  8
LAYER-2
  0
POLYLINE
  8
LAYER-2
 66
  1
 70
  0
 62
  0
 10
8.687506
 20
11.927278
 30
0.000000
  0
VERTEX
  8
LAYER-2
 10
8.687506
 20
11.927278
 30
0.000000
  0
VERTEX
  8
LAYER-2
 10
8.180408
 20
12.447900
 30
0.000000
  0
SEQEND
  8
LAYER-2
  0
POLYLINE
  8
LAYER-2
 66
  1
 70
  1
 62
  0
  0
VERTEX
  8
LAYER-2
 10
8.166673
 20
12.462001
 30
0.000000
  0
VERTEX
  8
LAYER-2
 10
8.323278
 20
12.420653
 30
0.000000
  0
VERTEX
  8
LAYER-2
 10
8.263582
 20
12.362508
 30
0.000000
  0
VERTEX
  8
LAYER-2
 10
8.203886
 20
12.304364
 30
0.000000
  0
VERTEX
  8
LAYER-2
 10
8.166673
 20
12.462001
 30
0.000000
  0
SEQEND
  8
LAYER-2
  0
POLYLINE
  8
LAYER-2
 66
  1
 70
  0
 62
  0
 10
3.722221
 20
12.889206
 30
0.000000
  0
VERTEX
  8
LAYER-2
 10
3.722221
 20
12.889206
 30
0.000000
  0
VERTEX
  8
LAYER-2
 10
4.182536
 20
12.283232
 30
0.000000
  0
SEQEND
  8
LAYER-2
  0
POLYLINE
  8
LAYER-2
 66
  1
 70
  1
 62
  0
  0
VERTEX
  8
LAYER-2
 10
4.194443
 20
12.267556
 30
0.000000
  0
VERTEX
  8
LAYER-2
 10
4.044071
 20
12.327745
 30
0.000000
  0
VERTEX
  8
LAYER-2
 10
4.110430
 20
12.378153
 30
0.000000
  0
VERTEX
  8
LAYER-2
 10
4.176789
 20
12.428562
 30
0.000000
  0
VERTEX
  8
LAYER-2
 10
4.194443
 20
12.267556
 30
0.000000
  0
SEQEND
  8
LAYER-2
  0
POLYLINE
  8
LAYER-2
 66
  1
 70
  0
 62
  0
 10
3.673609
 20
11.653095
 30
0.000000
  0
VERTEX
  8
LAYER-2
 10
3.673609
 20
11.653095
 30
0.000000
  0
VERTEX
  8
LAYER-2
 10
4.243148
 20
11.073264
 30
0.000000
  0
SEQEND
  8
LAYER-2
  0
POLYLINE
  8
LAYER-2
 66
  1
 70
  1
 62
  0
  0
VERTEX
  8
LAYER-2
 10
4.256943
 20
11.059221
 30
0.000000
  0
VERTEX
  8
LAYER-2
 10
4.100165
 20
11.099909
 30
0.000000
  0
VERTEX
  8
LAYER-2
 10
4.159616
 20
11.158305
 30
0.000000
  0
VERTEX
  8
LAYER-2
 10
4.219067
 20
11.216700
 30
0.000000
  0
VERTEX
  8
LAYER-2
 10
4.256943
 20
11.059221
 30
0.000000
  0
SEQEND
  8
LAYER-2
  0
ARC
  8
LAYER-2
 62
  0
 10
6.682295
 20
15.962002
 30
0.000000
 40
3.691552
 50
270.000000
 51
315.000000
  0
ARC
  8
LAYER-2
 62
  0
 10
6.682295
 20
15.962002
 30
0.000000
 40
3.313810
 50
270.000000
 51
315.000000
  0
POLYLINE
  8
LAYER-2
 66
  1
 70
  0
 62
  0
 10
6.682295
 20
12.270450
 30
0.000000
  0
VERTEX
  8
LAYER-2
 10
6.682295
 20
12.270450
 30
0.000000
  0
VERTEX
  8
LAYER-2
 10
4.682295
 20
12.270450
 30
0.000000
  0
SEQEND
  8
LAYER-2
  0
POLYLINE
  8
LAYER-2
 66
  1
 70
  0
 62
  0
 10
6.682295
 20
12.648192
 30
0.000000
  0
VERTEX
  8
LAYER-2
 10
6.682295
 20
12.648192
 30
0.000000
  0
VERTEX
  8
LAYER-2
 10
4.682295
 20
12.648192
 30
0.000000
  0
SEQEND
  8
LAYER-2
  0
POLYLINE
  8
LAYER-2
 66
  1
 70
  0
 62
  0
 10
9.292623
 20
13.351679
 30
0.000000
  0
VERTEX
  8
LAYER-2
 10
9.292623
 20
13.351679
 30
0.000000
  0
VERTEX
  8
LAYER-2
 10
10.335217
 20
14.394274
 30
0.000000
  0
SEQEND
  8
LAYER-2
  0
POLYLINE
  8
LAYER-2
 66
  1
 70
  0
 62
  0
 10
9.025519
 20
13.618785
 30
0.000000
  0
VERTEX
  8
LAYER-2
 10
9.025519
 20
13.618785
 30
0.000000
  0
VERTEX
  8
LAYER-2
 10
10.068114
 20
14.661379
 30
0.000000
  0
SEQEND
  8
LAYER-2
  0
POLYLINE
  8
LAYER-2
 66
  1
 70
  0
 62
  0
 10
8.988323
 20
19.327237
 30
0.000000
  0
VERTEX
  8
LAYER-2
 10
8.988323
 20
19.327237
 30
0.000000
  0
VERTEX
  8
LAYER-2
 10
8.751368
 20
19.317661
 30
0.000000
  0
VERTEX
  8
LAYER-2
 10
8.518645
 20
19.283140
 30
0.000000
  0
VERTEX
  8
LAYER-2
 10
8.290426
 20
19.225976
 30
0.000000
  0
VERTEX
  8
LAYER-2
 10
8.068910
 20
19.146715
 30
0.000000
  0
VERTEX
  8
LAYER-2
 10
7.856228
 20
19.046124
 30
0.000000
  0
VERTEX
  8
LAYER-2
 10
7.654431
 20
18.925171
 30
0.000000
  0
VERTEX
  8
LAYER-2
 10
7.465461
 20
18.785021
 30
0.000000
  0
VERTEX
  8
LAYER-2
 10
7.291137
 20
18.627024
 30
0.000000
  0
VERTEX
  8
LAYER-2
 10
7.133139
 20
18.452701
 30
0.000000
  0
VERTEX
  8
LAYER-2
 10
6.992991
 20
18.263731
 30
0.000000
  0
VERTEX
  8
LAYER-2
 10
6.872037
 20
18.061934
 30
0.000000
  0
VERTEX
  8
LAYER-2
 10
6.771447
 20
17.849253
 30
0.000000
  0
VERTEX
  8
LAYER-2
 10
6.692187
 20
17.627736
 30
0.000000
  0
VERTEX
  8
LAYER-2
 10
6.635020
 20
17.399516
 30
0.000000
  0
VERTEX
  8
LAYER-2
 10
6.600500
 20
17.166794
 30
0.000000
  0
VERTEX
  8
LAYER-2
 10
6.590922
 20
16.929840
 30
0.000000
  0
SEQEND
  8
LAYER-2
  0
POLYLINE
  8
LAYER-2
 66
  1
 70
  0
 62
  0
 10
8.988323
 20
19.083435
 30
0.000000
  0
VERTEX
  8
LAYER-2
 10
8.988323
 20
19.083435
 30
0.000000
  0
VERTEX
  8
LAYER-2
 10
8.775265
 20
19.075033
 30
0.000000
  0
VERTEX
  8
LAYER-2
 10
8.566208
 20
19.044022
 30
0.000000
  0
VERTEX
  8
LAYER-2
 10
8.361198
 20
18.992669
 30
0.000000
  0
VERTEX
  8
LAYER-2
 10
8.162209
 20
18.921470
 30
0.000000
  0
VERTEX
  8
LAYER-2
 10
7.971156
 20
18.831109
 30
0.000000
  0
VERTEX
  8
LAYER-2
 10
7.789881
 20
18.722456
 30
0.000000
  0
VERTEX
  8
LAYER-2
 10
7.620127
 20
18.596559
 30
0.000000
  0
VERTEX
  8
LAYER-2
 10
7.463532
 20
18.454629
 30
0.000000
  0
VERTEX
  8
LAYER-2
 10
7.321603
 20
18.298035
 30
0.000000
  0
VERTEX
  8
LAYER-2
 10
7.195705
 20
18.128282
 30
0.000000
  0
VERTEX
  8
LAYER-2
 10
7.087053
 20
17.947005
 30
0.000000
  0
VERTEX
  8
LAYER-2
 10
6.996692
 20
17.755953
 30
0.000000
  0
VERTEX
  8
LAYER-2
 10
6.925493
 20
17.556963
 30
0.000000
  0
VERTEX
  8
LAYER-2
 10
6.874140
 20
17.351952
 30
0.000000
  0
VERTEX
  8
LAYER-2
 10
6.843129
 20
17.142897
 30
0.000000
  0
VERTEX
  8
LAYER-2
 10
6.834726
 20
16.929840
 30
0.000000
  0
SEQEND
  8
LAYER-2
  0
POLYLINE
  8
LAYER-2
 66
  1
 70
  0
 62
  0
 10
6.590922
 20
16.929840
 30
0.000000
  0
VERTEX
  8
LAYER-2
 10
6.590922
 20
16.929840
 30
0.000000
  0
VERTEX
  8
LAYER-2
 10
6.590922
 20
15.792089
 30
0.000000
  0
SEQEND
  8
LAYER-2
  0
POLYLINE
  8
LAYER-2
 66
  1
 70
  0
 62
  0
 10
6.834727
 20
16.929840
 30
0.000000
  0
VERTEX
  8
LAYER-2
 10
6.834727
 20
16.929840
 30
0.000000
  0
VERTEX
  8
LAYER-2
 10
6.834727
 20
15.792089
 30
0.000000
  0
SEQEND
  8
LAYER-2
  0
POLYLINE
  8
LAYER-2
 66
  1
 70
  0
 62
  0
 10
8.988322
 20
19.327237
 30
0.000000
  0
VERTEX
  8
LAYER-2
 10
8.988322
 20
19.327237
 30
0.000000
  0
VERTEX
  8
LAYER-2
 10
10.126072
 20
19.327237
 30
0.000000
  0
SEQEND
  8
LAYER-2
  0
POLYLINE
  8
LAYER-2
 66
  1
 70
  0
 62
  0
 10
8.988322
 20
19.083435
 30
0.000000
  0
VERTEX
  8
LAYER-2
 10
8.988322
 20
19.083435
 30
0.000000
  0
VERTEX
  8
LAYER-2
 10
10.126072
 20
19.083435
 30
0.000000
  0
SEQEND
  8
LAYER-2
  0
POLYLINE
  8
LAYER-2
 66
  1
 70
  0
 62
  0
 10
10.126072
 20
19.083435
 30
0.000000
  0
VERTEX
  8
LAYER-2
 10
10.126072
 20
19.083435
 30
0.000000
  0
VERTEX
  8
LAYER-2
 10
10.126072
 20
19.327237
 30
0.000000
  0
SEQEND
  8
LAYER-2
  0
POLYLINE
  8
LAYER-2
 66
  1
 70
  0
 62
  0
 10
3.279604
 20
18.103868
 30
0.000000
  0
VERTEX
  8
LAYER-2
 10
3.279604
 20
18.103868
 30
0.000000
  0
VERTEX
  8
LAYER-2
 10
3.042649
 20
18.094293
 30
0.000000
  0
VERTEX
  8
LAYER-2
 10
2.809926
 20
18.059770
 30
0.000000
  0
VERTEX
  8
LAYER-2
 10
2.581707
 20
18.002604
 30
0.000000
  0
VERTEX
  8
LAYER-2
 10
2.360190
 20
17.923343
 30
0.000000
  0
VERTEX
  8
LAYER-2
 10
2.147509
 20
17.822754
 30
0.000000
  0
VERTEX
  8
LAYER-2
 10
1.945711
 20
17.701801
 30
0.000000
  0
VERTEX
  8
LAYER-2
 10
1.756741
 20
17.561651
 30
0.000000
  0
VERTEX
  8
LAYER-2
 10
1.584386
 20
17.401686
 30
0.000000
  0
SEQEND
  8
LAYER-2
  0
POLYLINE
  8
LAYER-2
 66
  1
 70
  0
 62
  0
 10
3.279604
 20
17.860065
 30
0.000000
  0
VERTEX
  8
LAYER-2
 10
3.279604
 20
17.860065
 30
0.000000
  0
VERTEX
  8
LAYER-2
 10
3.066546
 20
17.851663
 30
0.000000
  0
VERTEX
  8
LAYER-2
 10
2.857489
 20
17.820652
 30
0.000000
  0
VERTEX
  8
LAYER-2
 10
2.652479
 20
17.769299
 30
0.000000
  0
VERTEX
  8
LAYER-2
 10
2.453490
 20
17.698100
 30
0.000000
  0
VERTEX
  8
LAYER-2
 10
2.262437
 20
17.607739
 30
0.000000
  0
VERTEX
  8
LAYER-2
 10
2.081161
 20
17.499086
 30
0.000000
  0
VERTEX
  8
LAYER-2
 10
1.911408
 20
17.373189
 30
0.000000
  0
VERTEX
  8
LAYER-2
 10
1.756781
 20
17.229292
 30
0.000000
  0
SEQEND
  8
LAYER-2
  0
POLYLINE
  8
LAYER-2
 66
  1
 70
  0
 62
  0
 10
3.279604
 20
18.103865
 30
0.000000
  0
VERTEX
  8
LAYER-2
 10
3.279604
 20
18.103865
 30
0.000000
  0
VERTEX
  8
LAYER-2
 10
5.311298
 20
18.103865
 30
0.000000
  0
SEQEND
  8
LAYER-2
  0
POLYLINE
  8
LAYER-2
 66
  1
 70
  0
 62
  0
 10
3.279604
 20
17.860060
 30
0.000000
  0
VERTEX
  8
LAYER-2
 10
3.279604
 20
17.860060
 30
0.000000
  0
VERTEX
  8
LAYER-2
 10
5.311298
 20
17.860060
 30
0.000000
  0
SEQEND
  8
LAYER-2
  0
POLYLINE
  8
LAYER-2
 66
  1
 70
  0
 62
  0
 10
5.311298
 20
17.860060
 30
0.000000
  0
VERTEX
  8
LAYER-2
 10
5.311298
 20
17.860060
 30
0.000000
  0
VERTEX
  8
LAYER-2
 10
5.311298
 20
18.103865
 30
0.000000
  0
SEQEND
  8
LAYER-2
  0
POLYLINE
  8
LAYER-2
 66
  1
 70
  0
 62
  0
 10
1.756696
 20
17.229140
 30
0.000000
  0
VERTEX
  8
LAYER-2
 10
1.756696
 20
17.229140
 30
0.000000
  0
VERTEX
  8
LAYER-2
 10
0.320072
 20
15.792518
 30
0.000000
  0
SEQEND
  8
LAYER-2
  0
POLYLINE
  8
LAYER-2
 66
  1
 70
  0
 62
  0
 10
1.584300
 20
17.401537
 30
0.000000
  0
VERTEX
  8
LAYER-2
 10
1.584300
 20
17.401537
 30
0.000000
  0
VERTEX
  8
LAYER-2
 10
0.147676
 20
15.964912
 30
0.000000
  0
SEQEND
  8
LAYER-2
  0
POLYLINE
  8
LAYER-2
 66
  1
 70
  0
 62
  0
 10
0.147676
 20
15.964912
 30
0.000000
  0
VERTEX
  8
LAYER-2
 10
0.147676
 20
15.964912
 30
0.000000
  0
VERTEX
  8
LAYER-2
 10
0.320072
 20
15.792518
 30
0.000000
  0
SEQEND
  8
LAYER-2
  0
POLYLINE
  8
LAYER-2
 66
  1
 70
  0
 62
  0
 10
11.236650
 20
17.582109
 30
0.000000
  0
VERTEX
  8
LAYER-2
 10
11.236650
 20
17.582109
 30
0.000000
  0
VERTEX
  8
LAYER-2
 10
11.237150
 20
15.792525
 30
0.000000
  0
SEQEND
  8
LAYER-2
  0
POLYLINE
  8
LAYER-2
 66
  1
 70
  0
 62
  0
 10
11.480364
 20
17.582109
 30
0.000000
  0
VERTEX
  8
LAYER-2
 10
11.480364
 20
17.582109
 30
0.000000
  0
VERTEX
  8
LAYER-2
 10
11.480954
 20
15.792525
 30
0.000000
  0
SEQEND
  8
LAYER-2
  0
POLYLINE
  8
LAYER-2
 66
  1
 70
  0
 62
  0
 10
12.982715
 20
19.328176
 30
0.000000
  0
VERTEX
  8
LAYER-2
 10
12.982715
 20
19.328176
 30
0.000000
  0
VERTEX
  8
LAYER-2
 10
14.772298
 20
19.327674
 30
0.000000
  0
SEQEND
  8
LAYER-2
  0
POLYLINE
  8
LAYER-2
 66
  1
 70
  0
 62
  0
 10
12.982715
 20
19.084462
 30
0.000000
  0
VERTEX
  8
LAYER-2
 10
12.982715
 20
19.084462
 30
0.000000
  0
VERTEX
  8
LAYER-2
 10
14.772298
 20
19.083872
 30
0.000000
  0
SEQEND
  8
LAYER-2
  0
POLYLINE
  8
LAYER-2
 66
  1
 70
  0
 62
  0
 10
14.772298
 20
19.083872
 30
0.000000
  0
VERTEX
  8
LAYER-2
 10
14.772298
 20
19.083872
 30
0.000000
  0
VERTEX
  8
LAYER-2
 10
14.772298
 20
19.327674
 30
0.000000
  0
SEQEND
  8
LAYER-2
  0
POLYLINE
  8
LAYER-2
 66
  1
 70
  0
 62
  0
 10
12.982715
 20
19.084462
 30
0.000000
  0
VERTEX
  8
LAYER-2
 10
12.982715
 20
19.084462
 30
0.000000
  0
VERTEX
  8
LAYER-2
 10
12.833491
 20
19.079197
 30
0.000000
  0
VERTEX
  8
LAYER-2
 10
12.687652
 20
19.057563
 30
0.000000
  0
VERTEX
  8
LAYER-2
 10
12.544638
 20
19.021739
 30
0.000000
  0
VERTEX
  8
LAYER-2
 10
12.405822
 20
18.972070
 30
0.000000
  0
VERTEX
  8
LAYER-2
 10
12.272543
 20
18.909034
 30
0.000000
  0
VERTEX
  8
LAYER-2
 10
12.146085
 20
18.833238
 30
0.000000
  0
VERTEX
  8
LAYER-2
 10
12.027665
 20
18.745412
 30
0.000000
  0
VERTEX
  8
LAYER-2
 10
11.918424
 20
18.646401
 30
0.000000
  0
VERTEX
  8
LAYER-2
 10
11.819413
 20
18.537160
 30
0.000000
  0
VERTEX
  8
LAYER-2
 10
11.731587
 20
18.418740
 30
0.000000
  0
VERTEX
  8
LAYER-2
 10
11.655791
 20
18.292282
 30
0.000000
  0
VERTEX
  8
LAYER-2
 10
11.592755
 20
18.159003
 30
0.000000
  0
VERTEX
  8
LAYER-2
 10
11.543087
 20
18.020189
 30
0.000000
  0
VERTEX
  8
LAYER-2
 10
11.507263
 20
17.877174
 30
0.000000
  0
VERTEX
  8
LAYER-2
 10
11.485630
 20
17.731333
 30
0.000000
  0
VERTEX
  8
LAYER-2
 10
11.480364
 20
17.582109
 30
0.000000
  0
SEQEND
  8
LAYER-2
  0
POLYLINE
  8
LAYER-2
 66
  1
 70
  0
 62
  0
 10
12.982715
 20
19.328172
 30
0.000000
  0
VERTEX
  8
LAYER-2
 10
12.982715
 20
19.328172
 30
0.000000
  0
VERTEX
  8
LAYER-2
 10
12.809603
 20
19.321733
 30
0.000000
  0
VERTEX
  8
LAYER-2
 10
12.640107
 20
19.296592
 30
0.000000
  0
VERTEX
  8
LAYER-2
 10
12.473891
 20
19.254957
 30
0.000000
  0
VERTEX
  8
LAYER-2
 10
12.312557
 20
19.197232
 30
0.000000
  0
VERTEX
  8
LAYER-2
 10
12.157658
 20
19.123969
 30
0.000000
  0
VERTEX
  8
LAYER-2
 10
12.010685
 20
19.035877
 30
0.000000
  0
VERTEX
  8
LAYER-2
 10
11.873055
 20
18.933804
 30
0.000000
  0
VERTEX
  8
LAYER-2
 10
11.746094
 20
18.818732
 30
0.000000
  0
VERTEX
  8
LAYER-2
 10
11.631022
 20
18.691769
 30
0.000000
  0
VERTEX
  8
LAYER-2
 10
11.528948
 20
18.554138
 30
0.000000
  0
VERTEX
  8
LAYER-2
 10
11.440857
 20
18.407166
 30
0.000000
  0
VERTEX
  8
LAYER-2
 10
11.367594
 20
18.252268
 30
0.000000
  0
VERTEX
  8
LAYER-2
 10
11.309869
 20
18.090932
 30
0.000000
  0
VERTEX
  8
LAYER-2
 10
11.268234
 20
17.924718
 30
0.000000
  0
VERTEX
  8
LAYER-2
 10
11.243091
 20
17.755222
 30
0.000000
  0
VERTEX
  8
LAYER-2
 10
11.236652
 20
17.582109
 30
0.000000
  0
SEQEND
  8
LAYER-2
  0
TEXT
  8
LAYER-2
 62
  0
 10
0.083334
 20
24.201711
 30
0.000000
 40
0.291667
  1
RAIL
 72
  5
 11
1.138889
 21
24.201711
 31
0.000000
  0
TEXT
  8
LAYER-2
 62
  0
 10
0.083334
 20
19.368378
 30
0.000000
 40
0.291667
  1
COURBES STANDARDS
 72
  5
 11
4.666667
 21
19.368378
 31
0.000000
  0
POLYLINE
  8
LAYER-2
 66
  1
 70
  0
 62
  0
 10
1.131230
 20
18.103865
 30
0.000000
  0
VERTEX
  8
LAYER-2
 10
1.131230
 20
18.103865
 30
0.000000
  0
VERTEX
  8
LAYER-2
 10
2.520119
 20
18.103865
 30
0.000000
  0
SEQEND
  8
LAYER-2
  0
TEXT
  8
LAYER-2
 62
  0
 10
1.777778
 20
16.451711
 30
0.000000
 40
0.250000
  1
Rayon
 72
  5
 11
2.888889
 21
16.451711
 31
0.000000
  0
TEXT
  8
LAYER-2
 62
  0
 10
1.777778
 20
16.062822
 30
0.000000
 40
0.250000
  1
45  -  14" (356mm)
 72
  5
 11
4.750000
 21
16.062822
 31
0.000000
  0
TEXT
  8
LAYER-2
 62
  0
 10
2.166667
 20
16.229489
 30
0.000000
 40
0.125000
  1
o
 72
  5
 11
2.388889
 21
16.229489
 31
0.000000
  0
TEXT
  8
LAYER-2
 62
  0
 10
7.138889
 20
16.451711
 30
0.000000
 40
0.250000
  1
Rayon
 72
  5
 11
8.250000
 21
16.451711
 31
0.000000
  0
TEXT
  8
LAYER-2
 62
  0
 10
7.138889
 20
16.062822
 30
0.000000
 40
0.250000
  1
90  -  14" (356mm)
 72
  5
 11
10.111111
 21
16.062822
 31
0.000000
  0
TEXT
  8
LAYER-2
 62
  0
 10
7.527778
 20
16.229489
 30
0.000000
 40
0.125000
  1
o
 72
  5
 11
7.750000
 21
16.229489
 31
0.000000
  0
TEXT
  8
LAYER-2
 62
  0
 10
11.777778
 20
16.451711
 30
0.000000
 40
0.250000
  1
Rayon
 72
  5
 11
12.888889
 21
16.451711
 31
0.000000
  0
TEXT
  8
LAYER-2
 62
  0
 10
11.777778
 20
16.062822
 30
0.000000
 40
0.250000
  1
90  -  10" (254mm)
 72
  5
 11
14.750000
 21
16.062822
 31
0.000000
  0
TEXT
  8
LAYER-2
 62
  0
 10
12.166667
 20
16.229489
 30
0.000000
 40
0.125000
  1
o
 72
  5
 11
12.388889
 21
16.229489
 31
0.000000
  0
POLYLINE
  8
LAYER-2
 66
  1
 70
  0
 62
  0
 10
6.834727
 20
16.929840
 30
0.000000
  0
VERTEX
  8
LAYER-2
 10
6.834727
 20
16.929840
 30
0.000000
  0
VERTEX
  8
LAYER-2
 10
8.988322
 20
16.929840
 30
0.000000
  0
SEQEND
  8
LAYER-2
  0
POLYLINE
  8
LAYER-2
 66
  1
 70
  0
 62
  0
 10
8.988322
 20
19.083435
 30
0.000000
  0
VERTEX
  8
LAYER-2
 10
8.988322
 20
19.083435
 30
0.000000
  0
VERTEX
  8
LAYER-2
 10
8.988322
 20
16.929840
 30
0.000000
  0
SEQEND
  8
LAYER-2
  0
POLYLINE
  8
LAYER-2
 66
  1
 70
  0
 62
  0
 10
7.772814
 20
16.929840
 30
0.000000
  0
VERTEX
  8
LAYER-2
 10
7.772814
 20
16.929840
 30
0.000000
  0
VERTEX
  8
LAYER-2
 10
7.772814
 20
16.929840
 30
0.000000
  0
SEQEND
  8
LAYER-2
  0
POLYLINE
  8
LAYER-2
 66
  1
 70
  0
 62
  0
 10
8.988322
 20
18.145347
 30
0.000000
  0
VERTEX
  8
LAYER-2
 10
8.988322
 20
18.145347
 30
0.000000
  0
VERTEX
  8
LAYER-2
 10
8.988322
 20
18.145347
 30
0.000000
  0
SEQEND
  8
LAYER-2
  0
ARC
  8
LAYER-2
 62
  0
 10
8.988322
 20
16.929840
 30
0.000000
 40
1.251797
 50
90.000000
 51
180.000000
  0
POLYLINE
  8
LAYER-2
 66
  1
 70
  1
 62
  0
  0
VERTEX
  8
LAYER-2
 10
7.736524
 20
16.929840
 30
0.000000
  0
VERTEX
  8
LAYER-2
 10
7.819858
 20
17.068729
 30
0.000000
  0
VERTEX
  8
LAYER-2
 10
7.736525
 20
17.068729
 30
0.000000
  0
VERTEX
  8
LAYER-2
 10
7.653191
 20
17.068729
 30
0.000000
  0
VERTEX
  8
LAYER-2
 10
7.736524
 20
16.929840
 30
0.000000
  0
SEQEND
  8
LAYER-2
  0
POLYLINE
  8
LAYER-2
 66
  1
 70
  1
 62
  0
  0
VERTEX
  8
LAYER-2
 10
8.988322
 20
18.181637
 30
0.000000
  0
VERTEX
  8
LAYER-2
 10
8.849433
 20
18.264971
 30
0.000000
  0
VERTEX
  8
LAYER-2
 10
8.849433
 20
18.181637
 30
0.000000
  0
VERTEX
  8
LAYER-2
 10
8.849433
 20
18.098304
 30
0.000000
  0
VERTEX
  8
LAYER-2
 10
8.988322
 20
18.181637
 30
0.000000
  0
SEQEND
  8
LAYER-2
  0
TEXT
  8
LAYER-2
 62
  0
 10
8.006125
 20
17.762078
 30
0.000000
 40
0.250000
  1
90.0°
  0
POLYLINE
  8
LAYER-2
 66
  1
 70
  0
 62
  0
 10
11.480364
 20
17.582109
 30
0.000000
  0
VERTEX
  8
LAYER-2
 10
11.480364
 20
17.582109
 30
0.000000
  0
VERTEX
  8
LAYER-2
 10
12.982715
 20
17.582109
 30
0.000000
  0
SEQEND
  8
LAYER-2
  0
POLYLINE
  8
LAYER-2
 66
  1
 70
  0
 62
  0
 10
12.982715
 20
19.084462
 30
0.000000
  0
VERTEX
  8
LAYER-2
 10
12.982715
 20
19.084462
 30
0.000000
  0
VERTEX
  8
LAYER-2
 10
12.982715
 20
17.582109
 30
0.000000
  0
SEQEND
  8
LAYER-2
  0
POLYLINE
  8
LAYER-2
 66
  1
 70
  0
 62
  0
 10
12.064324
 20
17.582109
 30
0.000000
  0
VERTEX
  8
LAYER-2
 10
12.064324
 20
17.582109
 30
0.000000
  0
VERTEX
  8
LAYER-2
 10
12.064324
 20
17.582109
 30
0.000000
  0
SEQEND
  8
LAYER-2
  0
POLYLINE
  8
LAYER-2
 66
  1
 70
  0
 62
  0
 10
12.982715
 20
18.500500
 30
0.000000
  0
VERTEX
  8
LAYER-2
 10
12.982715
 20
18.500500
 30
0.000000
  0
VERTEX
  8
LAYER-2
 10
12.982715
 20
18.500500
 30
0.000000
  0
SEQEND
  8
LAYER-2
  0
ARC
  8
LAYER-2
 62
  0
 10
12.982715
 20
17.582109
 30
0.000000
 40
0.973707
 50
90.000000
 51
180.000000
  0
POLYLINE
  8
LAYER-2
 66
  1
 70
  1
 62
  0
  0
VERTEX
  8
LAYER-2
 10
12.009009
 20
17.582109
 30
0.000000
  0
VERTEX
  8
LAYER-2
 10
12.092343
 20
17.720998
 30
0.000000
  0
VERTEX
  8
LAYER-2
 10
12.009009
 20
17.720998
 30
0.000000
  0
VERTEX
  8
LAYER-2
 10
11.925676
 20
17.720998
 30
0.000000
  0
VERTEX
  8
LAYER-2
 10
12.009009
 20
17.582109
 30
0.000000
  0
SEQEND
  8
LAYER-2
  0
POLYLINE
  8
LAYER-2
 66
  1
 70
  1
 62
  0
  0
VERTEX
  8
LAYER-2
 10
12.982715
 20
18.555817
 30
0.000000
  0
VERTEX
  8
LAYER-2
 10
12.843826
 20
18.639150
 30
0.000000
  0
VERTEX
  8
LAYER-2
 10
12.843826
 20
18.555817
 30
0.000000
  0
VERTEX
  8
LAYER-2
 10
12.843826
 20
18.472483
 30
0.000000
  0
VERTEX
  8
LAYER-2
 10
12.982715
 20
18.555817
 30
0.000000
  0
SEQEND
  8
LAYER-2
  0
TEXT
  8
LAYER-2
 62
  0
 10
12.191165
 20
18.214834
 30
0.000000
 40
0.250000
  1
90.0°
  0
TEXT
  8
LAYER-2
 62
  0
 10
0.083334
 20
14.729489
 30
0.000000
 40
0.291667
  1
ANGLE COUPƒ SUR MESURE
 72
  5
 11
5.722223
 21
14.729489
 31
0.000000
  0
TEXT
  8
LAYER-2
 62
  0
 10
0.083334
 20
14.285044
 30
0.000000
 40
0.291667
  1
AU CHANTIER
 72
  5
 11
2.888889
 21
14.285044
 31
0.000000
  0
TEXT
  8
LAYER-2
 62
  0
 10
0.138889
 20
10.035044
 30
0.000000
 40
0.291667
  1
COURBES SPƒCIALES
 72
  5
 11
4.472223
 21
10.035044
 31
0.000000
  0
TEXT
  8
LAYER-2
 62
  0
 10
2.388889
 20
7.729489
 30
0.000000
 40
0.250000
  1
Mobilflex peut plier n'importe quel rayon pour rŽaliser votre projet.
 72
  5
 11
12.361111
 21
7.729489
 31
0.000000
  0
TEXT
  8
LAYER-2
 62
  0
 10
2.083334
 20
7.340600
 30
0.000000
 40
0.250000
  1
( PrŽciser le rayon et la longueur de la courbe sur le dessin d'atelier )
 72
  5
 11
12.666667
 21
7.340600
 31
0.000000
  0
POLYLINE
  8
LAYER-2
 66
  1
 70
  0
 62
  0
 10
6.590922
 20
15.792089
 30
0.000000
  0
VERTEX
  8
LAYER-2
 10
6.590922
 20
15.792089
 30
0.000000
  0
VERTEX
  8
LAYER-2
 10
6.834727
 20
15.792089
 30
0.000000
  0
SEQEND
  8
LAYER-2
  0
POLYLINE
  8
LAYER-2
 66
  1
 70
  0
 62
  0
 10
11.237150
 20
15.792525
 30
0.000000
  0
VERTEX
  8
LAYER-2
 10
11.237150
 20
15.792525
 30
0.000000
  0
VERTEX
  8
LAYER-2
 10
11.480954
 20
15.792525
 30
0.000000
  0
SEQEND
  8
LAYER-2
  0
TEXT
  8
LAYER-2
 62
  0
 10
12.027778
 20
21.062822
 30
0.000000
 40
0.250000
  1
Tiges de jonction
 72
  5
 11
14.777778
 21
21.062822
 31
0.000000
  0
TEXT
  8
LAYER-2
 62
  0
 10
7.527778
 20
23.423933
 30
0.000000
 40
0.250000
  1
Plaque de jonction
 72
  5
 11
10.500000
 21
23.423933
 31
0.000000
  0
POLYLINE
  8
LAYER-2
 66
  1
 70
  0
 62
  0
 10
10.601651
 20
25.024243
 30
0.000000
  0
VERTEX
  8
LAYER-2
 10
10.601651
 20
25.024243
 30
0.000000
  0
VERTEX
  8
LAYER-2
 10
10.696582
 20
25.035755
 30
0.000000
  0
VERTEX
  8
LAYER-2
 10
10.789757
 20
25.064019
 30
0.000000
  0
VERTEX
  8
LAYER-2
 10
10.875626
 20
25.109919
 30
0.000000
  0
VERTEX
  8
LAYER-2
 10
10.950893
 20
25.171689
 30
0.000000
  0
VERTEX
  8
LAYER-2
 10
11.012663
 20
25.246955
 30
0.000000
  0
VERTEX
  8
LAYER-2
 10
11.058562
 20
25.332825
 30
0.000000
  0
VERTEX
  8
LAYER-2
 10
11.086826
 20
25.426000
 30
0.000000
  0
VERTEX
  8
LAYER-2
 10
11.096369
 20
25.522898
 30
0.000000
  0
VERTEX
  8
LAYER-2
 10
11.086826
 20
25.619797
 30
0.000000
  0
VERTEX
  8
LAYER-2
 10
11.058562
 20
25.712972
 30
0.000000
  0
VERTEX
  8
LAYER-2
 10
11.012663
 20
25.798843
 30
0.000000
  0
VERTEX
  8
LAYER-2
 10
10.950893
 20
25.874110
 30
0.000000
  0
VERTEX
  8
LAYER-2
 10
10.875626
 20
25.935879
 30
0.000000
  0
VERTEX
  8
LAYER-2
 10
10.789757
 20
25.981778
 30
0.000000
  0
VERTEX
  8
LAYER-2
 10
10.696582
 20
26.010042
 30
0.000000
  0
VERTEX
  8
LAYER-2
 10
10.601651
 20
26.017617
 30
0.000000
  0
SEQEND
  8
LAYER-2
  0
POLYLINE
  8
LAYER-2
 66
  1
 70
  0
 62
  0
 10
10.601651
 20
26.017617
 30
0.000000
  0
VERTEX
  8
LAYER-2
 10
10.601651
 20
26.017617
 30
0.000000
  0
VERTEX
  8
LAYER-2
 10
3.447024
 20
26.017617
 30
0.000000
  0
SEQEND
  8
LAYER-2
  0
POLYLINE
  8
LAYER-2
 66
  1
 70
  0
 62
  0
 10
3.447024
 20
26.017617
 30
0.000000
  0
VERTEX
  8
LAYER-2
 10
3.447024
 20
26.017617
 30
0.000000
  0
VERTEX
  8
LAYER-2
 10
3.447024
 20
25.024245
 30
0.000000
  0
SEQEND
  8
LAYER-2
  0
POLYLINE
  8
LAYER-2
 66
  1
 70
  0
 62
  0
 10
10.601651
 20
25.024245
 30
0.000000
  0
VERTEX
  8
LAYER-2
 10
10.601651
 20
25.024245
 30
0.000000
  0
VERTEX
  8
LAYER-2
 10
3.447024
 20
25.024245
 30
0.000000
  0
SEQEND
  8
LAYER-2
  0
TEXT
  8
LAYER-2
 62
  0
 10
6.972223
 20
26.618378
 30
0.000000
 40
0.645833
  1
MobilFlex
 72
  5
 11
11.194445
 21
26.618378
 31
0.000000
  0
POLYLINE
  8
LAYER-2
 66
  1
 70
  1
 62
  0
  0
VERTEX
  8
LAYER-2
 10
3.449959
 20
27.617764
 30
0.000000
  0
VERTEX
  8
LAYER-2
 10
3.914282
 20
27.617764
 30
0.000000
  0
VERTEX
  8
LAYER-2
 10
3.914282
 20
26.608588
 30
0.000000
  0
VERTEX
  8
LAYER-2
 10
3.449959
 20
26.608588
 30
0.000000
  0
SEQEND
  8
LAYER-2
  0
POLYLINE
  8
LAYER-2
 66
  1
 70
  1
 62
  0
  0
VERTEX
  8
LAYER-2
 10
4.060018
 20
27.617764
 30
0.000000
  0
VERTEX
  8
LAYER-2
 10
4.524342
 20
27.617764
 30
0.000000
  0
VERTEX
  8
LAYER-2
 10
4.524342
 20
26.608588
 30
0.000000
  0
VERTEX
  8
LAYER-2
 10
4.060018
 20
26.608588
 30
0.000000
  0
SEQEND
  8
LAYER-2
  0
POLYLINE
  8
LAYER-2
 66
  1
 70
  1
 62
  0
  0
VERTEX
  8
LAYER-2
 10
4.646353
 20
27.617764
 30
0.000000
  0
VERTEX
  8
LAYER-2
 10
5.110677
 20
27.617764
 30
0.000000
  0
VERTEX
  8
LAYER-2
 10
5.110677
 20
26.608588
 30
0.000000
  0
VERTEX
  8
LAYER-2
 10
4.646353
 20
26.608588
 30
0.000000
  0
SEQEND
  8
LAYER-2
  0
POLYLINE
  8
LAYER-2
 66
  1
 70
  1
 62
  0
  0
VERTEX
  8
LAYER-2
 10
5.239468
 20
27.617764
 30
0.000000
  0
VERTEX
  8
LAYER-2
 10
5.703791
 20
27.617764
 30
0.000000
  0
VERTEX
  8
LAYER-2
 10
5.703791
 20
26.608588
 30
0.000000
  0
VERTEX
  8
LAYER-2
 10
5.239468
 20
26.608588
 30
0.000000
  0
SEQEND
  8
LAYER-2
  0
POLYLINE
  8
LAYER-2
 66
  1
 70
  1
 62
  0
  0
VERTEX
  8
LAYER-2
 10
5.858000
 20
27.610121
 30
0.000000
  0
VERTEX
  8
LAYER-2
 10
6.590919
 20
27.610121
 30
0.000000
  0
VERTEX
  8
LAYER-2
 10
6.590919
 20
27.340678
 30
0.000000
  0
VERTEX
  8
LAYER-2
 10
5.858000
 20
27.340678
 30
0.000000
  0
SEQEND
  8
LAYER-2
  0
POLYLINE
  8
LAYER-2
 66
  1
 70
  1
 62
  0
  0
VERTEX
  8
LAYER-2
 10
5.857153
 20
27.166133
 30
0.000000
  0
VERTEX
  8
LAYER-2
 10
6.458741
 20
27.166133
 30
0.000000
  0
VERTEX
  8
LAYER-2
 10
6.458741
 20
26.904316
 30
0.000000
  0
VERTEX
  8
LAYER-2
 10
5.857153
 20
26.904316
 30
0.000000
  0
SEQEND
  8
LAYER-2
  0
POLYLINE
  8
LAYER-2
 66
  1
 70
  1
 62
  0
  0
VERTEX
  8
LAYER-2
 10
3.449959
 20
26.443381
 30
0.000000
  0
VERTEX
  8
LAYER-2
 10
11.099431
 20
26.443381
 30
0.000000
  0
VERTEX
  8
LAYER-2
 10
11.099431
 20
26.358651
 30
0.000000
  0
VERTEX
  8
LAYER-2
 10
3.449959
 20
26.358651
 30
0.000000
  0
SEQEND
  8
LAYER-2
  0
TEXT
  8
LAYER-2
 62
  7
 10
3.916667
 20
25.257267
 30
0.000000
 40
0.375000
  1
Rail et courbes
 72
  5
 11
7.638889
 21
25.257267
 31
0.000000
  0
POLYLINE
  8
LAYER-2
  6
LTYPE05
 66
  1
 70
  0
 62
  0
  6
LTYPE05
 10
10.673767
 20
13.555946
 30
0.000000
  0
VERTEX
  8
LAYER-2
  6
LTYPE05
 10
10.673767
 20
13.555946
 30
0.000000
  0
VERTEX
  8
LAYER-2
  6
LTYPE05
 10
11.296387
 20
13.798104
 30
0.000000
  0
SEQEND
  8
LAYER-2
  0
POLYLINE
  8
LAYER-2
 66
  1
 70
  0
 62
  0
 10
1.172839
 20
16.990075
 30
0.000000
  0
VERTEX
  8
LAYER-2
 10
1.172839
 20
16.990075
 30
0.000000
  0
VERTEX
  8
LAYER-2
 10
1.481418
 20
17.298652
 30
0.000000
  0
SEQEND
  8
LAYER-2
  0
POLYLINE
  8
LAYER-2
 66
  1
 70
  0
 62
  0
 10
0.798387
 20
18.103865
 30
0.000000
  0
VERTEX
  8
LAYER-2
 10
0.798387
 20
18.103865
 30
0.000000
  0
VERTEX
  8
LAYER-2
 10
1.147888
 20
18.103865
 30
0.000000
  0
SEQEND
  8
LAYER-2
  0
ARC
  8
LAYER-2
 62
  0
 10
2.286630
 20
18.103865
 30
0.000000
 40
1.388742
 50
180.000000
 51
224.999985
  0
ARC
  8
LAYER-2
 62
  0
 10
2.286630
 20
18.103865
 30
0.000000
 40
1.388742
 50
163.605347
 51
180.000000
  0
POLYLINE
  8
LAYER-2
 66
  1
 70
  1
 62
  0
  0
VERTEX
  8
LAYER-2
 10
1.304641
 20
17.121877
 30
0.000000
  0
VERTEX
  8
LAYER-2
 10
1.265358
 20
17.279012
 30
0.000000
  0
VERTEX
  8
LAYER-2
 10
1.206432
 20
17.220086
 30
0.000000
  0
VERTEX
  8
LAYER-2
 10
1.147506
 20
17.161162
 30
0.000000
  0
VERTEX
  8
LAYER-2
 10
1.304641
 20
17.121877
 30
0.000000
  0
SEQEND
  8
LAYER-2
  0
POLYLINE
  8
LAYER-2
 66
  1
 70
  1
 62
  0
  0
VERTEX
  8
LAYER-2
 10
0.897888
 20
18.103865
 30
0.000000
  0
VERTEX
  8
LAYER-2
 10
0.814555
 20
17.964976
 30
0.000000
  0
VERTEX
  8
LAYER-2
 10
0.897889
 20
17.964976
 30
0.000000
  0
VERTEX
  8
LAYER-2
 10
0.981222
 20
17.964976
 30
0.000000
  0
VERTEX
  8
LAYER-2
 10
0.897888
 20
18.103865
 30
0.000000
  0
SEQEND
  8
LAYER-2
  0
TEXT
  8
LAYER-2
 62
  0
 10
0.888014
 20
18.474676
 30
0.000000
 40
0.250000
  1
45.0°
  0
POLYLINE
  8
LAYER-2
 66
  1
 70
  0
 62
  0
 10
9.515081
 20
9.719321
 30
0.000000
  0
VERTEX
  8
LAYER-2
 10
9.515081
 20
9.719321
 30
0.000000
  0
VERTEX
  8
LAYER-2
 10
9.646039
 20
9.687080
 30
0.000000
  0
SEQEND
  8
LAYER-2
  0
POLYLINE
  8
LAYER-2
 66
  1
 70
  0
 62
  0
 10
9.661621
 20
9.661323
 30
0.000000
  0
VERTEX
  8
LAYER-2
 10
9.661621
 20
9.661323
 30
0.000000
  0
VERTEX
  8
LAYER-2
 10
9.651443
 20
9.619980
 30
0.000000
  0
SEQEND
  8
LAYER-2
  0
POLYLINE
  8
LAYER-2
 66
  1
 70
  0
 62
  0
 10
9.625684
 20
9.604399
 30
0.000000
  0
VERTEX
  8
LAYER-2
 10
9.625684
 20
9.604399
 30
0.000000
  0
VERTEX
  8
LAYER-2
 10
9.494726
 20
9.636641
 30
0.000000
  0
SEQEND
  8
LAYER-2
  0
POLYLINE
  8
LAYER-2
 66
  1
 70
  0
 62
  0
 10
9.479145
 20
9.662399
 30
0.000000
  0
VERTEX
  8
LAYER-2
 10
9.479145
 20
9.662399
 30
0.000000
  0
VERTEX
  8
LAYER-2
 10
9.489322
 20
9.703742
 30
0.000000
  0
SEQEND
  8
LAYER-2
  0
ARC
  8
LAYER-2
 62
  0
 10
9.509993
 20
9.698652
 30
0.000000
 40
0.021287
 50
76.169434
 51
166.169434
  0
ARC
  8
LAYER-2
 62
  0
 10
9.499814
 20
9.657310
 30
0.000000
 40
0.021287
 50
166.169434
 51
256.169434
  0
ARC
  8
LAYER-2
 62
  0
 10
9.630773
 20
9.625068
 30
0.000000
 40
0.021287
 50
256.169434
 51
346.169434
  0
ARC
  8
LAYER-2
 62
  0
 10
9.640951
 20
9.666411
 30
0.000000
 40
0.021287
 50
346.169434
 51
76.169434
  0
POLYLINE
  8
LAYER-2
 66
  1
 70
  0
 62
  0
 10
9.531903
 20
9.871429
 30
0.000000
  0
VERTEX
  8
LAYER-2
 10
9.531903
 20
9.871429
 30
0.000000
  0
VERTEX
  8
LAYER-2
 10
9.702593
 20
9.829408
 30
0.000000
  0
SEQEND
  8
LAYER-2
  0
POLYLINE
  8
LAYER-2
 66
  1
 70
  0
 62
  0
 10
9.732719
 20
9.779604
 30
0.000000
  0
VERTEX
  8
LAYER-2
 10
9.732719
 20
9.779604
 30
0.000000
  0
VERTEX
  8
LAYER-2
 10
9.713042
 20
9.699675
 30
0.000000
  0
SEQEND
  8
LAYER-2
  0
POLYLINE
  8
LAYER-2
 66
  1
 70
  0
 62
  0
 10
9.663237
 20
9.669551
 30
0.000000
  0
VERTEX
  8
LAYER-2
 10
9.663237
 20
9.669551
 30
0.000000
  0
VERTEX
  8
LAYER-2
 10
9.492547
 20
9.711572
 30
0.000000
  0
SEQEND
  8
LAYER-2
  0
POLYLINE
  8
LAYER-2
 66
  1
 70
  0
 62
  0
 10
9.462421
 20
9.761376
 30
0.000000
  0
VERTEX
  8
LAYER-2
 10
9.462421
 20
9.761376
 30
0.000000
  0
VERTEX
  8
LAYER-2
 10
9.482098
 20
9.841304
 30
0.000000
  0
SEQEND
  8
LAYER-2
  0
ARC
  8
LAYER-2
 62
  0
 10
9.522063
 20
9.831465
 30
0.000000
 40
0.041159
 50
76.169434
 51
166.169434
  0
ARC
  8
LAYER-2
 62
  0
 10
9.502385
 20
9.751538
 30
0.000000
 40
0.041159
 50
166.169434
 51
256.169434
  0
ARC
  8
LAYER-2
 62
  0
 10
9.673076
 20
9.709515
 30
0.000000
 40
0.041159
 50
256.169434
 51
346.169434
  0
ARC
  8
LAYER-2
 62
  0
 10
9.692754
 20
9.789442
 30
0.000000
 40
0.041159
 50
346.169434
 51
76.169434
  0
TEXT
  8
LAYER-2
 62
  0
 10
12.750000
 20
14.201711
 30
0.000000
 40
0.125000
  1
o
 72
  5
 11
12.972223
 21
14.201711
 31
0.000000
  0
TEXT
  8
LAYER-2
 62
  0
 10
13.777778
 20
14.201711
 30
0.000000
 40
0.125000
  1
o
 72
  5
 11
14.000000
 21
14.201711
 31
0.000000
  0
POLYLINE
  8
LAYER-2
 66
  1
 70
  0
 62
  0
 10
10.383178
 20
21.636417
 30
0.000000
  0
VERTEX
  8
LAYER-2
 10
10.383178
 20
21.636417
 30
0.000000
  0
VERTEX
  8
LAYER-2
 10
11.343168
 20
21.893975
 30
0.000000
  0
SEQEND
  8
LAYER-2
  0
ARC
  8
LAYER-2
 62
  0
 10
10.402780
 20
21.604489
 30
0.000000
 40
0.037466
 50
121.547974
 51
283.694336
  0
POLYLINE
  8
LAYER-2
 66
  1
 70
  0
 62
  0
 10
11.368849
 20
21.824568
 30
0.000000
  0
VERTEX
  8
LAYER-2
 10
11.368849
 20
21.824568
 30
0.000000
  0
VERTEX
  8
LAYER-2
 10
10.411650
 20
21.568088
 30
0.000000
  0
SEQEND
  8
LAYER-2
  0
POLYLINE
  8
LAYER-2
 66
  1
 70
  0
 62
  0
 10
11.368746
 20
21.824624
 30
0.000000
  0
VERTEX
  8
LAYER-2
 10
11.368746
 20
21.824624
 30
0.000000
  0
VERTEX
  8
LAYER-2
 10
11.372214
 20
21.862556
 30
0.000000
  0
VERTEX
  8
LAYER-2
 10
11.350628
 20
21.891829
 30
0.000000
  0
VERTEX
  8
LAYER-2
 10
11.343241
 20
21.894196
 30
0.000000
  0
SEQEND
  8
LAYER-2
  0
POLYLINE
  8
LAYER-2
 66
  1
 70
  0
 62
  0
 10
10.422551
 20
21.614234
 30
0.000000
  0
VERTEX
  8
LAYER-2
 10
10.422551
 20
21.614234
 30
0.000000
  0
VERTEX
  8
LAYER-2
 10
10.405101
 20
21.635688
 30
0.000000
  0
VERTEX
  8
LAYER-2
 10
10.381209
 20
21.638385
 30
0.000000
  0
VERTEX
  8
LAYER-2
 10
10.364872
 20
21.620744
 30
0.000000
  0
VERTEX
  8
LAYER-2
 10
10.365658
 20
21.593102
 30
0.000000
  0
VERTEX
  8
LAYER-2
 10
10.383108
 20
21.571648
 30
0.000000
  0
VERTEX
  8
LAYER-2
 10
10.407000
 20
21.568951
 30
0.000000
  0
VERTEX
  8
LAYER-2
 10
10.423337
 20
21.586590
 30
0.000000
  0
VERTEX
  8
LAYER-2
 10
10.422551
 20
21.614234
 30
0.000000
  0
SEQEND
  8
LAYER-2
  0
POLYLINE
  8
LAYER-2
 66
  1
 70
  0
 62
  0
 10
6.816363
 20
21.839376
 30
0.000000
  0
VERTEX
  8
LAYER-2
 10
6.816363
 20
21.839376
 30
0.000000
  0
VERTEX
  8
LAYER-2
 10
6.274169
 20
21.984656
 30
0.000000
  0
SEQEND
  8
LAYER-2
  0
ARC
  8
LAYER-2
 62
  0
 10
6.812553
 20
21.825160
 30
0.000000
 40
0.014718
 50
0.000000
 51
74.998535
  0
POLYLINE
  8
LAYER-2
 66
  1
 70
  0
 62
  0
 10
6.994819
 20
21.780265
 30
0.000000
  0
VERTEX
  8
LAYER-2
 10
6.994819
 20
21.780265
 30
0.000000
  0
VERTEX
  8
LAYER-2
 10
6.994819
 20
20.358673
 30
0.000000
  0
SEQEND
  8
LAYER-2
  0
POLYLINE
  8
LAYER-2
 66
  1
 70
  0
 62
  0
 10
6.091382
 20
22.014453
 30
0.000000
  0
VERTEX
  8
LAYER-2
 10
6.091382
 20
22.014453
 30
0.000000
  0
VERTEX
  8
LAYER-2
 10
6.091382
 20
20.592862
 30
0.000000
  0
SEQEND
  8
LAYER-2
  0
ARC
  8
LAYER-2
 62
  0
 10
6.106100
 20
22.014453
 30
0.000000
 40
0.014718
 50
75.001892
 51
180.000000
  0
POLYLINE
  8
LAYER-2
 66
  1
 70
  0
 62
  0
 10
6.150517
 20
21.850271
 30
0.000000
  0
VERTEX
  8
LAYER-2
 10
6.150517
 20
21.850271
 30
0.000000
  0
VERTEX
  8
LAYER-2
 10
6.150517
 20
20.925429
 30
0.000000
  0
SEQEND
  8
LAYER-2
  0
ARC
  8
LAYER-2
 62
  0
 10
6.165234
 20
20.925429
 30
0.000000
 40
0.014718
 50
180.000000
 51
225.000000
  0
POLYLINE
  8
LAYER-2
 66
  1
 70
  0
 62
  0
 10
6.313135
 20
21.884340
 30
0.000000
  0
VERTEX
  8
LAYER-2
 10
6.313135
 20
21.884340
 30
0.000000
  0
VERTEX
  8
LAYER-2
 10
6.313135
 20
21.818581
 30
0.000000
  0
SEQEND
  8
LAYER-2
  0
ARC
  8
LAYER-2
 62
  0
 10
6.327852
 20
21.884340
 30
0.000000
 40
0.014718
 50
75.001892
 51
180.000000
  0
POLYLINE
  8
LAYER-2
 66
  1
 70
  0
 62
  0
 10
6.336130
 20
21.764938
 30
0.000000
  0
VERTEX
  8
LAYER-2
 10
6.336130
 20
21.764938
 30
0.000000
  0
VERTEX
  8
LAYER-2
 10
6.336130
 20
21.795478
 30
0.000000
  0
SEQEND
  8
LAYER-2
  0
ARC
  8
LAYER-2
 62
  0
 10
6.325092
 20
21.795478
 30
0.000000
 40
0.011038
 50
0.000000
 51
75.001312
  0
ARC
  8
LAYER-2
 62
  0
 10
6.321413
 20
21.764938
 30
0.000000
 40
0.014718
 50
255.001907
 51
0.000000
  0
POLYLINE
  8
LAYER-2
 66
  1
 70
  0
 62
  0
 10
6.741856
 20
21.680851
 30
0.000000
  0
VERTEX
  8
LAYER-2
 10
6.741856
 20
21.680851
 30
0.000000
  0
VERTEX
  8
LAYER-2
 10
6.741856
 20
21.648337
 30
0.000000
  0
SEQEND
  8
LAYER-2
  0
ARC
  8
LAYER-2
 62
  0
 10
6.752894
 20
21.680851
 30
0.000000
 40
0.011038
 50
75.001312
 51
180.000000
  0
POLYLINE
  8
LAYER-2
 66
  1
 70
  0
 62
  0
 10
6.773065
 20
21.768989
 30
0.000000
  0
VERTEX
  8
LAYER-2
 10
6.773065
 20
21.768989
 30
0.000000
  0
VERTEX
  8
LAYER-2
 10
6.773065
 20
21.701258
 30
0.000000
  0
SEQEND
  8
LAYER-2
  0
ARC
  8
LAYER-2
 62
  0
 10
6.762027
 20
21.701258
 30
0.000000
 40
0.011038
 50
255.001312
 51
0.000000
  0
ARC
  8
LAYER-2
 62
  0
 10
6.758347
 20
21.768989
 30
0.000000
 40
0.014718
 50
0.000000
 51
74.998535
  0
POLYLINE
  8
LAYER-2
 66
  1
 70
  0
 62
  0
 10
6.940612
 20
21.646452
 30
0.000000
  0
VERTEX
  8
LAYER-2
 10
6.940612
 20
21.646452
 30
0.000000
  0
VERTEX
  8
LAYER-2
 10
6.940612
 20
20.722015
 30
0.000000
  0
SEQEND
  8
LAYER-2
  0
ARC
  8
LAYER-2
 62
  0
 10
6.925895
 20
21.646452
 30
0.000000
 40
0.014718
 50
0.000000
 51
75.001892
  0
POLYLINE
  8
LAYER-2
 66
  1
 70
  0
 62
  0
 10
6.175155
 20
20.750144
 30
0.000000
  0
VERTEX
  8
LAYER-2
 10
6.175155
 20
20.750144
 30
0.000000
  0
VERTEX
  8
LAYER-2
 10
6.175155
 20
20.888597
 30
0.000000
  0
SEQEND
  8
LAYER-2
  0
POLYLINE
  8
LAYER-2
 66
  1
 70
  0
 62
  0
 10
6.907760
 20
20.566172
 30
0.000000
  0
VERTEX
  8
LAYER-2
 10
6.907760
 20
20.566172
 30
0.000000
  0
VERTEX
  8
LAYER-2
 10
6.907760
 20
20.690626
 30
0.000000
  0
SEQEND
  8
LAYER-2
  0
ARC
  8
LAYER-2
 62
  0
 10
6.922478
 20
20.690626
 30
0.000000
 40
0.014718
 50
104.998108
 51
180.000000
  0
POLYLINE
  8
LAYER-2
 66
  1
 70
  0
 62
  0
 10
6.391980
 20
20.601142
 30
0.000000
  0
VERTEX
  8
LAYER-2
 10
6.391980
 20
20.601142
 30
0.000000
  0
VERTEX
  8
LAYER-2
 10
6.391980
 20
20.520203
 30
0.000000
  0
SEQEND
  8
LAYER-2
  0
POLYLINE
  8
LAYER-2
 66
  1
 70
  0
 62
  0
 10
6.699147
 20
20.525174
 30
0.000000
  0
VERTEX
  8
LAYER-2
 10
6.699147
 20
20.525174
 30
0.000000
  0
VERTEX
  8
LAYER-2
 10
6.699147
 20
20.430010
 30
0.000000
  0
SEQEND
  8
LAYER-2
  0
POLYLINE
  8
LAYER-2
 66
  1
 70
  0
 62
  0
 10
6.331660
 20
21.898556
 30
0.000000
  0
VERTEX
  8
LAYER-2
 10
6.331660
 20
21.898556
 30
0.000000
  0
VERTEX
  8
LAYER-2
 10
6.762157
 20
21.783205
 30
0.000000
  0
SEQEND
  8
LAYER-2
  0
POLYLINE
  8
LAYER-2
 66
  1
 70
  0
 62
  0
 10
6.175155
 20
20.750146
 30
0.000000
  0
VERTEX
  8
LAYER-2
 10
6.175155
 20
20.750146
 30
0.000000
  0
VERTEX
  8
LAYER-2
 10
6.194842
 20
20.686286
 30
0.000000
  0
VERTEX
  8
LAYER-2
 10
6.240042
 20
20.633757
 30
0.000000
  0
VERTEX
  8
LAYER-2
 10
6.288495
 20
20.605596
 30
0.000000
  0
SEQEND
  8
LAYER-2
  0
POLYLINE
  8
LAYER-2
 66
  1
 70
  0
 62
  0
 10
6.288496
 20
20.605594
 30
0.000000
  0
VERTEX
  8
LAYER-2
 10
6.288496
 20
20.605594
 30
0.000000
  0
VERTEX
  8
LAYER-2
 10
6.336105
 20
20.608463
 30
0.000000
  0
VERTEX
  8
LAYER-2
 10
6.367341
 20
20.631877
 30
0.000000
  0
SEQEND
  8
LAYER-2
  0
POLYLINE
  8
LAYER-2
 66
  1
 70
  0
 62
  0
 10
6.812488
 20
20.474186
 30
0.000000
  0
VERTEX
  8
LAYER-2
 10
6.812488
 20
20.474186
 30
0.000000
  0
VERTEX
  8
LAYER-2
 10
6.851131
 20
20.489365
 30
0.000000
  0
VERTEX
  8
LAYER-2
 10
6.883597
 20
20.517110
 30
0.000000
  0
VERTEX
  8
LAYER-2
 10
6.902973
 20
20.555169
 30
0.000000
  0
VERTEX
  8
LAYER-2
 10
6.907760
 20
20.566172
 30
0.000000
  0
SEQEND
  8
LAYER-2
  0
POLYLINE
  8
LAYER-2
 66
  1
 70
  0
 62
  0
 10
6.723786
 20
20.539890
 30
0.000000
  0
VERTEX
  8
LAYER-2
 10
6.723786
 20
20.539890
 30
0.000000
  0
VERTEX
  8
LAYER-2
 10
6.743551
 20
20.507780
 30
0.000000
  0
VERTEX
  8
LAYER-2
 10
6.776672
 20
20.484612
 30
0.000000
  0
VERTEX
  8
LAYER-2
 10
6.812488
 20
20.474186
 30
0.000000
  0
SEQEND
  8
LAYER-2
  0
POLYLINE
  8
LAYER-2
 66
  1
 70
  0
 62
  0
 10
6.356253
 20
20.410126
 30
0.000000
  0
VERTEX
  8
LAYER-2
 10
6.356253
 20
20.410126
 30
0.000000
  0
VERTEX
  8
LAYER-2
 10
6.372286
 20
20.439440
 30
0.000000
  0
VERTEX
  8
LAYER-2
 10
6.378453
 20
20.471592
 30
0.000000
  0
VERTEX
  8
LAYER-2
 10
6.371847
 20
20.503655
 30
0.000000
  0
VERTEX
  8
LAYER-2
 10
6.371984
 20
20.505720
 30
0.000000
  0
SEQEND
  8
LAYER-2
  0
POLYLINE
  8
LAYER-2
 66
  1
 70
  0
 62
  0
 10
6.324222
 20
20.449546
 30
0.000000
  0
VERTEX
  8
LAYER-2
 10
6.324222
 20
20.449546
 30
0.000000
  0
VERTEX
  8
LAYER-2
 10
6.333177
 20
20.486206
 30
0.000000
  0
VERTEX
  8
LAYER-2
 10
6.316370
 20
20.518461
 30
0.000000
  0
VERTEX
  8
LAYER-2
 10
6.305415
 20
20.524217
 30
0.000000
  0
SEQEND
  8
LAYER-2
  0
POLYLINE
  8
LAYER-2
 66
  1
 70
  0
 62
  0
 10
6.233192
 20
20.543569
 30
0.000000
  0
VERTEX
  8
LAYER-2
 10
6.233192
 20
20.543569
 30
0.000000
  0
VERTEX
  8
LAYER-2
 10
6.222281
 20
20.504274
 30
0.000000
  0
VERTEX
  8
LAYER-2
 10
6.229811
 20
20.462731
 30
0.000000
  0
VERTEX
  8
LAYER-2
 10
6.249072
 20
20.431478
 30
0.000000
  0
SEQEND
  8
LAYER-2
  0
POLYLINE
  8
LAYER-2
 66
  1
 70
  0
 62
  0
 10
6.367341
 20
20.631877
 30
0.000000
  0
VERTEX
  8
LAYER-2
 10
6.367341
 20
20.631877
 30
0.000000
  0
VERTEX
  8
LAYER-2
 10
6.387669
 20
20.611549
 30
0.000000
  0
SEQEND
  8
LAYER-2
  0
ARC
  8
LAYER-2
 62
  0
 10
6.377262
 20
20.601142
 30
0.000000
 40
0.014718
 50
0.000000
 51
45.000000
  0
POLYLINE
  8
LAYER-2
 66
  1
 70
  0
 62
  0
 10
6.723787
 20
20.539890
 30
0.000000
  0
VERTEX
  8
LAYER-2
 10
6.723787
 20
20.539890
 30
0.000000
  0
VERTEX
  8
LAYER-2
 10
6.713865
 20
20.539890
 30
0.000000
  0
SEQEND
  8
LAYER-2
  0
ARC
  8
LAYER-2
 62
  0
 10
6.713865
 20
20.525174
 30
0.000000
 40
0.014718
 50
90.000000
 51
180.000000
  0
POLYLINE
  8
LAYER-2
 66
  1
 70
  0
 62
  0
 10
6.170844
 20
20.899004
 30
0.000000
  0
VERTEX
  8
LAYER-2
 10
6.170844
 20
20.899004
 30
0.000000
  0
VERTEX
  8
LAYER-2
 10
6.154827
 20
20.915022
 30
0.000000
  0
SEQEND
  8
LAYER-2
  0
ARC
  8
LAYER-2
 62
  0
 10
6.160437
 20
20.888597
 30
0.000000
 40
0.014718
 50
0.000000
 51
45.000000
  0
POLYLINE
  8
LAYER-2
 66
  1
 70
  0
 62
  0
 10
6.249072
 20
20.431478
 30
0.000000
  0
VERTEX
  8
LAYER-2
 10
6.249072
 20
20.431478
 30
0.000000
  0
VERTEX
  8
LAYER-2
 10
6.277248
 20
20.432792
 30
0.000000
  0
VERTEX
  8
LAYER-2
 10
6.283567
 20
20.455705
 30
0.000000
  0
SEQEND
  8
LAYER-2
  0
POLYLINE
  8
LAYER-2
 66
  1
 70
  0
 62
  0
 10
6.139608
 20
22.020711
 30
0.000000
  0
VERTEX
  8
LAYER-2
 10
6.139608
 20
22.020711
 30
0.000000
  0
VERTEX
  8
LAYER-2
 10
6.109909
 20
22.028670
 30
0.000000
  0
SEQEND
  8
LAYER-2
  0
ARC
  8
LAYER-2
 62
  0
 10
6.135799
 20
22.006495
 30
0.000000
 40
0.014718
 50
0.000000
 51
74.998535
  0
POLYLINE
  8
LAYER-2
 66
  1
 70
  0
 62
  0
 10
6.150517
 20
21.958388
 30
0.000000
  0
VERTEX
  8
LAYER-2
 10
6.150517
 20
21.958388
 30
0.000000
  0
VERTEX
  8
LAYER-2
 10
6.150517
 20
22.006495
 30
0.000000
  0
SEQEND
  8
LAYER-2
  0
ARC
  8
LAYER-2
 62
  0
 10
6.165234
 20
21.958388
 30
0.000000
 40
0.014718
 50
180.000000
 51
254.998535
  0
POLYLINE
  8
LAYER-2
 66
  1
 70
  0
 62
  0
 10
6.983911
 20
21.794481
 30
0.000000
  0
VERTEX
  8
LAYER-2
 10
6.983911
 20
21.794481
 30
0.000000
  0
VERTEX
  8
LAYER-2
 10
6.959140
 20
21.801120
 30
0.000000
  0
SEQEND
  8
LAYER-2
  0
ARC
  8
LAYER-2
 62
  0
 10
6.955330
 20
21.786903
 30
0.000000
 40
0.014718
 50
75.001892
 51
180.000000
  0
ARC
  8
LAYER-2
 62
  0
 10
6.980102
 20
21.780265
 30
0.000000
 40
0.014718
 50
0.000000
 51
75.001892
  0
POLYLINE
  8
LAYER-2
 66
  1
 70
  0
 62
  0
 10
6.940612
 20
21.786903
 30
0.000000
  0
VERTEX
  8
LAYER-2
 10
6.940612
 20
21.786903
 30
0.000000
  0
VERTEX
  8
LAYER-2
 10
6.940612
 20
21.754569
 30
0.000000
  0
SEQEND
  8
LAYER-2
  0
POLYLINE
  8
LAYER-2
 66
  1
 70
  0
 62
  0
 10
6.237115
 20
21.923889
 30
0.000000
  0
VERTEX
  8
LAYER-2
 10
6.237115
 20
21.923889
 30
0.000000
  0
VERTEX
  8
LAYER-2
 10
6.161424
 20
21.944170
 30
0.000000
  0
SEQEND
  8
LAYER-2
  0
ARC
  8
LAYER-2
 62
  0
 10
6.240925
 20
21.938105
 30
0.000000
 40
0.014718
 50
254.998535
 51
0.000000
  0
POLYLINE
  8
LAYER-2
 66
  1
 70
  0
 62
  0
 10
6.255643
 20
21.970439
 30
0.000000
  0
VERTEX
  8
LAYER-2
 10
6.255643
 20
21.970439
 30
0.000000
  0
VERTEX
  8
LAYER-2
 10
6.255643
 20
21.938105
 30
0.000000
  0
SEQEND
  8
LAYER-2
  0
ARC
  8
LAYER-2
 62
  0
 10
6.270361
 20
21.970439
 30
0.000000
 40
0.014718
 50
75.001892
 51
180.000000
  0
POLYLINE
  8
LAYER-2
 66
  1
 70
  0
 62
  0
 10
6.169044
 20
21.864487
 30
0.000000
  0
VERTEX
  8
LAYER-2
 10
6.169044
 20
21.864487
 30
0.000000
  0
VERTEX
  8
LAYER-2
 10
6.244734
 20
21.844204
 30
0.000000
  0
SEQEND
  8
LAYER-2
  0
ARC
  8
LAYER-2
 62
  0
 10
6.165234
 20
21.850271
 30
0.000000
 40
0.014718
 50
74.998535
 51
180.000000
  0
POLYLINE
  8
LAYER-2
 66
  1
 70
  0
 62
  0
 10
6.255643
 20
21.829988
 30
0.000000
  0
VERTEX
  8
LAYER-2
 10
6.255643
 20
21.829988
 30
0.000000
  0
VERTEX
  8
LAYER-2
 10
6.255643
 20
21.778619
 30
0.000000
  0
SEQEND
  8
LAYER-2
  0
ARC
  8
LAYER-2
 62
  0
 10
6.240925
 20
21.829988
 30
0.000000
 40
0.014718
 50
0.000000
 51
74.998535
  0
POLYLINE
  8
LAYER-2
 66
  1
 70
  0
 62
  0
 10
6.266552
 20
21.764401
 30
0.000000
  0
VERTEX
  8
LAYER-2
 10
6.266552
 20
21.764401
 30
0.000000
  0
VERTEX
  8
LAYER-2
 10
6.317604
 20
21.750722
 30
0.000000
  0
SEQEND
  8
LAYER-2
  0
ARC
  8
LAYER-2
 62
  0
 10
6.270361
 20
21.778619
 30
0.000000
 40
0.014718
 50
180.000000
 51
255.001907
  0
POLYLINE
  8
LAYER-2
 66
  1
 70
  0
 62
  0
 10
6.752764
 20
21.634121
 30
0.000000
  0
VERTEX
  8
LAYER-2
 10
6.752764
 20
21.634121
 30
0.000000
  0
VERTEX
  8
LAYER-2
 10
6.808744
 20
21.619122
 30
0.000000
  0
SEQEND
  8
LAYER-2
  0
ARC
  8
LAYER-2
 62
  0
 10
6.756573
 20
21.648337
 30
0.000000
 40
0.014718
 50
180.000000
 51
255.001907
  0
POLYLINE
  8
LAYER-2
 66
  1
 70
  0
 62
  0
 10
6.827272
 20
21.777050
 30
0.000000
  0
VERTEX
  8
LAYER-2
 10
6.827272
 20
21.777050
 30
0.000000
  0
VERTEX
  8
LAYER-2
 10
6.827272
 20
21.825160
 30
0.000000
  0
SEQEND
  8
LAYER-2
  0
ARC
  8
LAYER-2
 62
  0
 10
6.841990
 20
21.777050
 30
0.000000
 40
0.014718
 50
180.000000
 51
254.998535
  0
POLYLINE
  8
LAYER-2
 66
  1
 70
  0
 62
  0
 10
6.922085
 20
21.740353
 30
0.000000
  0
VERTEX
  8
LAYER-2
 10
6.922085
 20
21.740353
 30
0.000000
  0
VERTEX
  8
LAYER-2
 10
6.838179
 20
21.762834
 30
0.000000
  0
SEQEND
  8
LAYER-2
  0
ARC
  8
LAYER-2
 62
  0
 10
6.925895
 20
21.754569
 30
0.000000
 40
0.014718
 50
254.998535
 51
0.000000
  0
POLYLINE
  8
LAYER-2
 66
  1
 70
  0
 62
  0
 10
6.845798
 20
21.683151
 30
0.000000
  0
VERTEX
  8
LAYER-2
 10
6.845798
 20
21.683151
 30
0.000000
  0
VERTEX
  8
LAYER-2
 10
6.929703
 20
21.660668
 30
0.000000
  0
SEQEND
  8
LAYER-2
  0
ARC
  8
LAYER-2
 62
  0
 10
6.841990
 20
21.668935
 30
0.000000
 40
0.014718
 50
75.001892
 51
180.000000
  0
POLYLINE
  8
LAYER-2
 66
  1
 70
  0
 62
  0
 10
6.827272
 20
21.633338
 30
0.000000
  0
VERTEX
  8
LAYER-2
 10
6.827272
 20
21.633338
 30
0.000000
  0
VERTEX
  8
LAYER-2
 10
6.827272
 20
21.668935
 30
0.000000
  0
SEQEND
  8
LAYER-2
  0
ARC
  8
LAYER-2
 62
  0
 10
6.812553
 20
21.633338
 30
0.000000
 40
0.014718
 50
255.001907
 51
0.000000
  0
POLYLINE
  8
LAYER-2
 66
  1
 70
  0
 62
  0
 10
6.759170
 20
21.690596
 30
0.000000
  0
VERTEX
  8
LAYER-2
 10
6.759170
 20
21.690596
 30
0.000000
  0
VERTEX
  8
LAYER-2
 10
6.755750
 20
21.691511
 30
0.000000
  0
SEQEND
  8
LAYER-2
  0
POLYLINE
  8
LAYER-2
 66
  1
 70
  0
 62
  0
 10
6.856443
 20
20.376570
 30
0.000000
  0
VERTEX
  8
LAYER-2
 10
6.856443
 20
20.376570
 30
0.000000
  0
VERTEX
  8
LAYER-2
 10
6.976293
 20
20.344455
 30
0.000000
  0
SEQEND
  8
LAYER-2
  0
ARC
  8
LAYER-2
 62
  0
 10
6.980102
 20
20.358673
 30
0.000000
 40
0.014718
 50
255.001907
 51
0.000000
  0
POLYLINE
  8
LAYER-2
 66
  1
 70
  0
 62
  0
 10
6.233193
 20
20.543571
 30
0.000000
  0
VERTEX
  8
LAYER-2
 10
6.233193
 20
20.543571
 30
0.000000
  0
VERTEX
  8
LAYER-2
 10
6.102290
 20
20.578644
 30
0.000000
  0
SEQEND
  8
LAYER-2
  0
ARC
  8
LAYER-2
 62
  0
 10
6.106100
 20
20.592862
 30
0.000000
 40
0.014718
 50
180.000000
 51
254.998535
  0
POLYLINE
  8
LAYER-2
 66
  1
 70
  0
 62
  0
 10
6.929703
 20
20.707798
 30
0.000000
  0
VERTEX
  8
LAYER-2
 10
6.929703
 20
20.707798
 30
0.000000
  0
VERTEX
  8
LAYER-2
 10
6.918669
 20
20.704842
 30
0.000000
  0
SEQEND
  8
LAYER-2
  0
ARC
  8
LAYER-2
 62
  0
 10
6.925895
 20
20.722015
 30
0.000000
 40
0.014718
 50
284.998108
 51
0.000000
  0
POLYLINE
  8
LAYER-2
 66
  1
 70
  0
 62
  0
 10
6.372150
 20
20.506337
 30
0.000000
  0
VERTEX
  8
LAYER-2
 10
6.372150
 20
20.506337
 30
0.000000
  0
VERTEX
  8
LAYER-2
 10
6.373453
 20
20.505988
 30
0.000000
  0
SEQEND
  8
LAYER-2
  0
ARC
  8
LAYER-2
 62
  0
 10
6.377262
 20
20.520203
 30
0.000000
 40
0.014718
 50
254.998535
 51
0.000000
  0
POLYLINE
  8
LAYER-2
 66
  1
 70
  0
 62
  0
 10
6.305415
 20
20.524217
 30
0.000000
  0
VERTEX
  8
LAYER-2
 10
6.305415
 20
20.524217
 30
0.000000
  0
VERTEX
  8
LAYER-2
 10
6.299930
 20
20.525687
 30
0.000000
  0
SEQEND
  8
LAYER-2
  0
ARC
  8
LAYER-2
 62
  0
 10
6.321601
 20
20.492828
 30
0.000000
 40
0.053796
 50
167.036560
 51
225.834183
  0
ARC
  8
LAYER-2
 62
  0
 10
6.296101
 20
20.498211
 30
0.000000
 40
0.027742
 50
82.065369
 51
166.055542
  0
POLYLINE
  8
LAYER-2
 66
  1
 70
  0
 62
  0
 10
6.840603
 20
20.280570
 30
0.000000
  0
VERTEX
  8
LAYER-2
 10
6.840603
 20
20.280570
 30
0.000000
  0
VERTEX
  8
LAYER-2
 10
6.856635
 20
20.309882
 30
0.000000
  0
VERTEX
  8
LAYER-2
 10
6.862802
 20
20.342036
 30
0.000000
  0
VERTEX
  8
LAYER-2
 10
6.856196
 20
20.374100
 30
0.000000
  0
VERTEX
  8
LAYER-2
 10
6.856333
 20
20.376166
 30
0.000000
  0
SEQEND
  8
LAYER-2
  0
POLYLINE
  8
LAYER-2
 66
  1
 70
  0
 62
  0
 10
6.808570
 20
20.319994
 30
0.000000
  0
VERTEX
  8
LAYER-2
 10
6.808570
 20
20.319994
 30
0.000000
  0
VERTEX
  8
LAYER-2
 10
6.817526
 20
20.356654
 30
0.000000
  0
VERTEX
  8
LAYER-2
 10
6.800719
 20
20.388909
 30
0.000000
  0
VERTEX
  8
LAYER-2
 10
6.789764
 20
20.394663
 30
0.000000
  0
SEQEND
  8
LAYER-2
  0
POLYLINE
  8
LAYER-2
 66
  1
 70
  0
 62
  0
 10
6.717542
 20
20.414015
 30
0.000000
  0
VERTEX
  8
LAYER-2
 10
6.717542
 20
20.414015
 30
0.000000
  0
VERTEX
  8
LAYER-2
 10
6.706631
 20
20.374722
 30
0.000000
  0
VERTEX
  8
LAYER-2
 10
6.714159
 20
20.333177
 30
0.000000
  0
VERTEX
  8
LAYER-2
 10
6.733422
 20
20.301924
 30
0.000000
  0
SEQEND
  8
LAYER-2
  0
POLYLINE
  8
LAYER-2
 66
  1
 70
  0
 62
  0
 10
6.733422
 20
20.301924
 30
0.000000
  0
VERTEX
  8
LAYER-2
 10
6.733422
 20
20.301924
 30
0.000000
  0
VERTEX
  8
LAYER-2
 10
6.761598
 20
20.303240
 30
0.000000
  0
VERTEX
  8
LAYER-2
 10
6.767917
 20
20.326153
 30
0.000000
  0
SEQEND
  8
LAYER-2
  0
POLYLINE
  8
LAYER-2
 66
  1
 70
  0
 62
  0
 10
6.717542
 20
20.413788
 30
0.000000
  0
VERTEX
  8
LAYER-2
 10
6.717542
 20
20.413788
 30
0.000000
  0
VERTEX
  8
LAYER-2
 10
6.710055
 20
20.415794
 30
0.000000
  0
SEQEND
  8
LAYER-2
  0
ARC
  8
LAYER-2
 62
  0
 10
6.713865
 20
20.430010
 30
0.000000
 40
0.014718
 50
180.000000
 51
254.998535
  0
POLYLINE
  8
LAYER-2
 66
  1
 70
  0
 62
  0
 10
6.321316
 20
21.807919
 30
0.000000
  0
VERTEX
  8
LAYER-2
 10
6.321316
 20
21.807919
 30
0.000000
  0
VERTEX
  8
LAYER-2
 10
6.327949
 20
21.806142
 30
0.000000
  0
SEQEND
  8
LAYER-2
  0
ARC
  8
LAYER-2
 62
  0
 10
6.324173
 20
21.818581
 30
0.000000
 40
0.011038
 50
180.000000
 51
255.001312
  0
ARC
  8
LAYER-2
 62
  0
 10
6.345960
 20
20.434486
 30
0.000000
 40
0.026446
 50
145.282684
 51
292.906250
  0
ARC
  8
LAYER-2
 62
  0
 10
6.830284
 20
20.304911
 30
0.000000
 40
0.026437
 50
145.213287
 51
292.975128
  0
POLYLINE
  8
LAYER-2
 66
  1
 70
  0
 62
  0
 10
6.991534
 20
21.789300
 30
0.000000
  0
VERTEX
  8
LAYER-2
 10
6.991534
 20
21.789300
 30
0.000000
  0
VERTEX
  8
LAYER-2
 10
9.736334
 20
22.524767
 30
0.000000
  0
SEQEND
  8
LAYER-2
  0
POLYLINE
  8
LAYER-2
 66
  1
 70
  0
 62
  0
 10
6.983684
 20
20.343635
 30
0.000000
  0
VERTEX
  8
LAYER-2
 10
6.983684
 20
20.343635
 30
0.000000
  0
VERTEX
  8
LAYER-2
 10
9.739621
 20
21.082087
 30
0.000000
  0
SEQEND
  8
LAYER-2
  0
POLYLINE
  8
LAYER-2
 66
  1
 70
  0
 62
  0
 10
6.950477
 20
21.801042
 30
0.000000
  0
VERTEX
  8
LAYER-2
 10
6.950477
 20
21.801042
 30
0.000000
  0
VERTEX
  8
LAYER-2
 10
9.694482
 20
22.536299
 30
0.000000
  0
SEQEND
  8
LAYER-2
  0
POLYLINE
  8
LAYER-2
 66
  1
 70
  0
 62
  0
 10
6.822934
 20
21.835270
 30
0.000000
  0
VERTEX
  8
LAYER-2
 10
6.822934
 20
21.835270
 30
0.000000
  0
VERTEX
  8
LAYER-2
 10
9.567040
 20
22.570550
 30
0.000000
  0
SEQEND
  8
LAYER-2
  0
POLYLINE
  8
LAYER-2
 66
  1
 70
  0
 62
  0
 10
6.263492
 20
21.984656
 30
0.000000
  0
VERTEX
  8
LAYER-2
 10
6.263492
 20
21.984656
 30
0.000000
  0
VERTEX
  8
LAYER-2
 10
9.008364
 20
22.720142
 30
0.000000
  0
SEQEND
  8
LAYER-2
  0
POLYLINE
  8
LAYER-2
 66
  1
 70
  0
 62
  0
 10
6.148642
 20
22.014964
 30
0.000000
  0
VERTEX
  8
LAYER-2
 10
6.148642
 20
22.014964
 30
0.000000
  0
VERTEX
  8
LAYER-2
 10
8.894774
 20
22.750787
 30
0.000000
  0
SEQEND
  8
LAYER-2
  0
POLYLINE
  8
LAYER-2
 66
  1
 70
  0
 62
  0
 10
6.100052
 20
22.027849
 30
0.000000
  0
VERTEX
  8
LAYER-2
 10
6.100052
 20
22.027849
 30
0.000000
  0
VERTEX
  8
LAYER-2
 10
8.846046
 20
22.763635
 30
0.000000
  0
SEQEND
  8
LAYER-2
  0
POLYLINE
  8
LAYER-2
 66
  1
 70
  0
 62
  0
 10
6.328731
 20
21.752441
 30
0.000000
  0
VERTEX
  8
LAYER-2
 10
6.328731
 20
21.752441
 30
0.000000
  0
VERTEX
  8
LAYER-2
 10
6.601194
 20
21.825448
 30
0.000000
  0
SEQEND
  8
LAYER-2
  0
POLYLINE
  8
LAYER-2
 66
  1
 70
  0
 62
  0
 10
6.333697
 20
21.803677
 30
0.000000
  0
VERTEX
  8
LAYER-2
 10
6.333697
 20
21.803677
 30
0.000000
  0
VERTEX
  8
LAYER-2
 10
6.509258
 20
21.850718
 30
0.000000
  0
SEQEND
  8
LAYER-2
  0
POLYLINE
  8
LAYER-2
 66
  1
 70
  0
 62
  0
 10
6.313135
 20
21.816116
 30
0.000000
  0
VERTEX
  8
LAYER-2
 10
6.313135
 20
21.816116
 30
0.000000
  0
VERTEX
  8
LAYER-2
 10
6.475202
 20
21.859545
 30
0.000000
  0
SEQEND
  8
LAYER-2
  0
POLYLINE
  8
LAYER-2
 66
  1
 70
  0
 62
  0
 10
6.814952
 20
21.618554
 30
0.000000
  0
VERTEX
  8
LAYER-2
 10
6.814952
 20
21.618554
 30
0.000000
  0
VERTEX
  8
LAYER-2
 10
6.939365
 20
21.651891
 30
0.000000
  0
SEQEND
  8
LAYER-2
  0
POLYLINE
  8
LAYER-2
 66
  1
 70
  0
 62
  0
 10
6.173512
 20
20.895988
 30
0.000000
  0
VERTEX
  8
LAYER-2
 10
6.173512
 20
20.895988
 30
0.000000
  0
VERTEX
  8
LAYER-2
 10
6.941469
 20
21.101761
 30
0.000000
  0
SEQEND
  8
LAYER-2
  0
POLYLINE
  8
LAYER-2
 66
  1
 70
  0
 62
  0
 10
6.152159
 20
20.919683
 30
0.000000
  0
VERTEX
  8
LAYER-2
 10
6.152159
 20
20.919683
 30
0.000000
  0
VERTEX
  8
LAYER-2
 10
6.941711
 20
21.131243
 30
0.000000
  0
SEQEND
  8
LAYER-2
  0
POLYLINE
  8
LAYER-2
 66
  1
 70
  0
 62
  0
 10
6.367341
 20
20.631877
 30
0.000000
  0
VERTEX
  8
LAYER-2
 10
6.367341
 20
20.631877
 30
0.000000
  0
VERTEX
  8
LAYER-2
 10
6.940608
 20
20.785483
 30
0.000000
  0
SEQEND
  8
LAYER-2
  0
POLYLINE
  8
LAYER-2
 66
  1
 70
  0
 62
  0
 10
6.390338
 20
20.607710
 30
0.000000
  0
VERTEX
  8
LAYER-2
 10
6.390338
 20
20.607710
 30
0.000000
  0
VERTEX
  8
LAYER-2
 10
6.939566
 20
20.754876
 30
0.000000
  0
SEQEND
  8
LAYER-2
  0
POLYLINE
  8
LAYER-2
 66
  1
 70
  0
 62
  0
 10
6.383759
 20
20.506885
 30
0.000000
  0
VERTEX
  8
LAYER-2
 10
6.383759
 20
20.506885
 30
0.000000
  0
VERTEX
  8
LAYER-2
 10
6.908219
 20
20.647413
 30
0.000000
  0
SEQEND
  8
LAYER-2
  0
POLYLINE
  8
LAYER-2
 66
  1
 70
  0
 62
  0
 10
6.353791
 20
20.409305
 30
0.000000
  0
VERTEX
  8
LAYER-2
 10
6.353791
 20
20.409305
 30
0.000000
  0
VERTEX
  8
LAYER-2
 10
6.699010
 20
20.501807
 30
0.000000
  0
SEQEND
  8
LAYER-2
  0
POLYLINE
  8
LAYER-2
 66
  1
 70
  0
 62
  0
 10
6.284119
 20
20.454241
 30
0.000000
  0
VERTEX
  8
LAYER-2
 10
6.284119
 20
20.454241
 30
0.000000
  0
VERTEX
  8
LAYER-2
 10
6.333692
 20
20.467524
 30
0.000000
  0
SEQEND
  8
LAYER-2
  0
POLYLINE
  8
LAYER-2
 66
  1
 70
  0
 62
  0
 10
6.840603
 20
20.280570
 30
0.000000
  0
VERTEX
  8
LAYER-2
 10
6.840603
 20
20.280570
 30
0.000000
  0
VERTEX
  8
LAYER-2
 10
9.599183
 20
21.019728
 30
0.000000
  0
SEQEND
  8
LAYER-2
  0
POLYLINE
  8
LAYER-2
 66
  1
 70
  0
 62
  0
 10
6.269607
 20
20.424908
 30
0.000000
  0
VERTEX
  8
LAYER-2
 10
6.269607
 20
20.424908
 30
0.000000
  0
VERTEX
  8
LAYER-2
 10
6.318868
 20
20.438107
 30
0.000000
  0
SEQEND
  8
LAYER-2
  0
POLYLINE
  8
LAYER-2
 66
  1
 70
  0
 62
  0
 10
6.767916
 20
20.326152
 30
0.000000
  0
VERTEX
  8
LAYER-2
 10
6.767916
 20
20.326152
 30
0.000000
  0
VERTEX
  8
LAYER-2
 10
6.818238
 20
20.339637
 30
0.000000
  0
SEQEND
  8
LAYER-2
  0
POLYLINE
  8
LAYER-2
 66
  1
 70
  0
 62
  0
 10
6.753355
 20
20.295142
 30
0.000000
  0
VERTEX
  8
LAYER-2
 10
6.753355
 20
20.295142
 30
0.000000
  0
VERTEX
  8
LAYER-2
 10
6.804276
 20
20.308787
 30
0.000000
  0
SEQEND
  8
LAYER-2
  0
POLYLINE
  8
LAYER-2
 66
  1
 70
  0
 62
  0
 10
6.745962
 20
21.690540
 30
0.000000
  0
VERTEX
  8
LAYER-2
 10
6.745962
 20
21.690540
 30
0.000000
  0
VERTEX
  8
LAYER-2
 10
6.772892
 20
21.697756
 30
0.000000
  0
SEQEND
  8
LAYER-2
  0
POLYLINE
  8
LAYER-2
 66
  1
 70
  0
 62
  0
 10
9.739621
 20
21.082087
 30
0.000000
  0
VERTEX
  8
LAYER-2
 10
9.739621
 20
21.082087
 30
0.000000
  0
VERTEX
  8
LAYER-2
 10
9.739621
 20
22.514950
 30
0.000000
  0
SEQEND
  8
LAYER-2
  0
POLYLINE
  8
LAYER-2
 66
  1
 70
  0
 62
  0
 10
9.598651
 20
21.020257
 30
0.000000
  0
VERTEX
  8
LAYER-2
 10
9.598651
 20
21.020257
 30
0.000000
  0
VERTEX
  8
LAYER-2
 10
9.614825
 20
21.049477
 30
0.000000
  0
VERTEX
  8
LAYER-2
 10
9.617576
 20
21.049479
 30
0.000000
  0
SEQEND
  8
LAYER-2
  0
POLYLINE
  8
LAYER-2
 66
  1
 70
  0
 62
  0
 10
9.559525
 20
22.574502
 30
0.000000
  0
VERTEX
  8
LAYER-2
 10
9.559525
 20
22.574502
 30
0.000000
  0
VERTEX
  8
LAYER-2
 10
9.015983
 20
22.720142
 30
0.000000
  0
SEQEND
  8
LAYER-2
  0
ARC
  8
LAYER-2
 62
  0
 10
9.012175
 20
22.705926
 30
0.000000
 40
0.014718
 50
75.001892
 51
104.998108
  0
ARC
  8
LAYER-2
 62
  0
 10
9.555714
 20
22.560286
 30
0.000000
 40
0.014718
 50
0.000000
 51
75.001892
  0
ARC
  8
LAYER-2
 62
  0
 10
9.724904
 20
22.514950
 30
0.000000
 40
0.014718
 50
0.000000
 51
74.998535
  0
POLYLINE
  8
LAYER-2
 66
  1
 70
  0
 62
  0
 10
9.570432
 20
22.560286
 30
0.000000
  0
VERTEX
  8
LAYER-2
 10
9.570432
 20
22.560286
 30
0.000000
  0
VERTEX
  8
LAYER-2
 10
9.570432
 20
22.514279
 30
0.000000
  0
SEQEND
  8
LAYER-2
  0
POLYLINE
  8
LAYER-2
 66
  1
 70
  0
 62
  0
 10
9.728714
 20
22.529168
 30
0.000000
  0
VERTEX
  8
LAYER-2
 10
9.728714
 20
22.529168
 30
0.000000
  0
VERTEX
  8
LAYER-2
 10
9.702103
 20
22.536299
 30
0.000000
  0
SEQEND
  8
LAYER-2
  0
ARC
  8
LAYER-2
 62
  0
 10
9.698294
 20
22.522081
 30
0.000000
 40
0.014718
 50
74.998535
 51
105.001465
  0
POLYLINE
  8
LAYER-2
 66
  1
 70
  0
 62
  0
 10
8.853666
 20
22.763635
 30
0.000000
  0
VERTEX
  8
LAYER-2
 10
8.853666
 20
22.763635
 30
0.000000
  0
VERTEX
  8
LAYER-2
 10
8.887286
 20
22.754625
 30
0.000000
  0
SEQEND
  8
LAYER-2
  0
ARC
  8
LAYER-2
 62
  0
 10
8.849855
 20
22.749418
 30
0.000000
 40
0.014718
 50
74.998535
 51
105.001465
  0
POLYLINE
  8
LAYER-2
 66
  1
 70
  0
 62
  0
 10
8.898193
 20
22.740411
 30
0.000000
  0
VERTEX
  8
LAYER-2
 10
8.898193
 20
22.740411
 30
0.000000
  0
VERTEX
  8
LAYER-2
 10
8.898193
 20
22.697693
 30
0.000000
  0
SEQEND
  8
LAYER-2
  0
ARC
  8
LAYER-2
 62
  0
 10
8.883475
 20
22.740411
 30
0.000000
 40
0.014718
 50
0.000000
 51
74.998535
  0
ARC
  8
LAYER-2
 62
  0
 10
9.585152
 20
22.514279
 30
0.000000
 40
0.014718
 50
180.000000
 51
217.500793
  0
POLYLINE
  8
LAYER-2
 66
  1
 70
  0
 62
  0
 10
6.830313
 20
21.768092
 30
0.000000
  0
VERTEX
  8
LAYER-2
 10
6.830313
 20
21.768092
 30
0.000000
  0
VERTEX
  8
LAYER-2
 10
6.950667
 20
21.800340
 30
0.000000
  0
SEQEND
  8
LAYER-2
  0
ARC
  8
LAYER-2
 62
  0
 10
8.912911
 20
22.697693
 30
0.000000
 40
0.014718
 50
180.000000
 51
201.578766
  0
POLYLINE
  8
LAYER-2
 66
  1
 70
  0
 62
  0
 10
6.153558
 20
21.949427
 30
0.000000
  0
VERTEX
  8
LAYER-2
 10
6.153558
 20
21.949427
 30
0.000000
  0
VERTEX
  8
LAYER-2
 10
6.258107
 20
21.977442
 30
0.000000
  0
SEQEND
  8
LAYER-2
  0
POLYLINE
  8
LAYER-2
 66
  1
 70
  0
 62
  0
 10
11.856615
 20
23.208466
 30
0.000000
  0
VERTEX
  8
LAYER-2
 10
11.856615
 20
23.208466
 30
0.000000
  0
VERTEX
  8
LAYER-2
 10
11.314418
 20
23.353746
 30
0.000000
  0
SEQEND
  8
LAYER-2
  0
ARC
  8
LAYER-2
 62
  0
 10
11.852804
 20
23.194249
 30
0.000000
 40
0.014718
 50
0.000000
 51
74.998535
  0
POLYLINE
  8
LAYER-2
 66
  1
 70
  0
 62
  0
 10
12.035070
 20
23.149356
 30
0.000000
  0
VERTEX
  8
LAYER-2
 10
12.035070
 20
23.149356
 30
0.000000
  0
VERTEX
  8
LAYER-2
 10
12.035070
 20
21.727763
 30
0.000000
  0
SEQEND
  8
LAYER-2
  0
POLYLINE
  8
LAYER-2
 66
  1
 70
  0
 62
  0
 10
11.131632
 20
22.880091
 30
0.000000
  0
VERTEX
  8
LAYER-2
 10
11.131632
 20
22.880091
 30
0.000000
  0
VERTEX
  8
LAYER-2
 10
11.131632
 20
21.961951
 30
0.000000
  0
SEQEND
  8
LAYER-2
  0
ARC
  8
LAYER-2
 62
  0
 10
11.146350
 20
23.383545
 30
0.000000
 40
0.014718
 50
75.001892
 51
180.000000
  0
POLYLINE
  8
LAYER-2
 66
  1
 70
  0
 62
  0
 10
11.190766
 20
22.895937
 30
0.000000
  0
VERTEX
  8
LAYER-2
 10
11.190766
 20
22.895937
 30
0.000000
  0
VERTEX
  8
LAYER-2
 10
11.190766
 20
22.294520
 30
0.000000
  0
SEQEND
  8
LAYER-2
  0
ARC
  8
LAYER-2
 62
  0
 10
11.205484
 20
22.294520
 30
0.000000
 40
0.014718
 50
180.000000
 51
225.000000
  0
ARC
  8
LAYER-2
 62
  0
 10
11.368100
 20
23.253430
 30
0.000000
 40
0.014718
 50
75.001907
 51
127.495239
  0
POLYLINE
  8
LAYER-2
 66
  1
 70
  0
 62
  0
 10
11.782105
 20
23.049940
 30
0.000000
  0
VERTEX
  8
LAYER-2
 10
11.782105
 20
23.049940
 30
0.000000
  0
VERTEX
  8
LAYER-2
 10
11.782105
 20
23.017429
 30
0.000000
  0
SEQEND
  8
LAYER-2
  0
ARC
  8
LAYER-2
 62
  0
 10
11.793144
 20
23.049940
 30
0.000000
 40
0.011038
 50
155.840973
 51
180.000000
  0
POLYLINE
  8
LAYER-2
 66
  1
 70
  0
 62
  0
 10
11.370266
 20
23.268087
 30
0.000000
  0
VERTEX
  8
LAYER-2
 10
11.370266
 20
23.268087
 30
0.000000
  0
VERTEX
  8
LAYER-2
 10
10.407428
 20
23.010095
 30
0.000000
  0
SEQEND
  8
LAYER-2
  0
POLYLINE
  8
LAYER-2
 66
  1
 70
  0
 62
  0
 10
11.370266
 20
23.268087
 30
0.000000
  0
VERTEX
  8
LAYER-2
 10
11.370266
 20
23.268087
 30
0.000000
  0
VERTEX
  8
LAYER-2
 10
11.802408
 20
23.152296
 30
0.000000
  0
SEQEND
  8
LAYER-2
  0
ARC
  8
LAYER-2
 62
  0
 10
11.798598
 20
23.138078
 30
0.000000
 40
0.014718
 50
0.000000
 51
74.998535
  0
POLYLINE
  8
LAYER-2
 66
  1
 70
  0
 62
  0
 10
11.813315
 20
23.138078
 30
0.000000
  0
VERTEX
  8
LAYER-2
 10
11.813315
 20
23.138078
 30
0.000000
  0
VERTEX
  8
LAYER-2
 10
11.813315
 20
23.070348
 30
0.000000
  0
SEQEND
  8
LAYER-2
  0
ARC
  8
LAYER-2
 62
  0
 10
11.802277
 20
23.070348
 30
0.000000
 40
0.011038
 50
307.497528
 51
0.000000
  0
POLYLINE
  8
LAYER-2
 66
  1
 70
  0
 62
  0
 10
11.808997
 20
23.061591
 30
0.000000
  0
VERTEX
  8
LAYER-2
 10
11.808997
 20
23.061591
 30
0.000000
  0
VERTEX
  8
LAYER-2
 10
10.853310
 20
22.805517
 30
0.000000
  0
SEQEND
  8
LAYER-2
  0
POLYLINE
  8
LAYER-2
 66
  1
 70
  0
 62
  0
 10
10.853310
 20
22.805517
 30
0.000000
  0
VERTEX
  8
LAYER-2
 10
10.853310
 20
22.805517
 30
0.000000
  0
VERTEX
  8
LAYER-2
 10
10.407428
 20
22.924991
 30
0.000000
  0
SEQEND
  8
LAYER-2
  0
POLYLINE
  8
LAYER-2
 66
  1
 70
  0
 62
  0
 10
10.407428
 20
23.010095
 30
0.000000
  0
VERTEX
  8
LAYER-2
 10
10.407428
 20
23.010095
 30
0.000000
  0
VERTEX
  8
LAYER-2
 10
10.407428
 20
22.924991
 30
0.000000
  0
SEQEND
  8
LAYER-2
  0
POLYLINE
  8
LAYER-2
 66
  1
 70
  0
 62
  0
 10
11.980863
 20
23.015544
 30
0.000000
  0
VERTEX
  8
LAYER-2
 10
11.980863
 20
23.015544
 30
0.000000
  0
VERTEX
  8
LAYER-2
 10
11.980863
 20
22.091105
 30
0.000000
  0
SEQEND
  8
LAYER-2
  0
ARC
  8
LAYER-2
 62
  0
 10
11.966146
 20
23.015544
 30
0.000000
 40
0.014718
 50
0.000000
 51
75.001892
  0
POLYLINE
  8
LAYER-2
 66
  1
 70
  0
 62
  0
 10
11.215403
 20
22.119234
 30
0.000000
  0
VERTEX
  8
LAYER-2
 10
11.215403
 20
22.119234
 30
0.000000
  0
VERTEX
  8
LAYER-2
 10
11.215403
 20
22.257687
 30
0.000000
  0
SEQEND
  8
LAYER-2
  0
POLYLINE
  8
LAYER-2
 66
  1
 70
  0
 62
  0
 10
11.948012
 20
21.935262
 30
0.000000
  0
VERTEX
  8
LAYER-2
 10
11.948012
 20
21.935262
 30
0.000000
  0
VERTEX
  8
LAYER-2
 10
11.948012
 20
22.059714
 30
0.000000
  0
SEQEND
  8
LAYER-2
  0
ARC
  8
LAYER-2
 62
  0
 10
11.962730
 20
22.059714
 30
0.000000
 40
0.014718
 50
104.998108
 51
180.000000
  0
POLYLINE
  8
LAYER-2
 66
  1
 70
  0
 62
  0
 10
11.432229
 20
21.970232
 30
0.000000
  0
VERTEX
  8
LAYER-2
 10
11.432229
 20
21.970232
 30
0.000000
  0
VERTEX
  8
LAYER-2
 10
11.432229
 20
21.889292
 30
0.000000
  0
SEQEND
  8
LAYER-2
  0
POLYLINE
  8
LAYER-2
 66
  1
 70
  0
 62
  0
 10
11.739400
 20
21.894262
 30
0.000000
  0
VERTEX
  8
LAYER-2
 10
11.739400
 20
21.894262
 30
0.000000
  0
VERTEX
  8
LAYER-2
 10
11.739400
 20
21.799099
 30
0.000000
  0
SEQEND
  8
LAYER-2
  0
POLYLINE
  8
LAYER-2
 66
  1
 70
  0
 62
  0
 10
11.215403
 20
22.119236
 30
0.000000
  0
VERTEX
  8
LAYER-2
 10
11.215403
 20
22.119236
 30
0.000000
  0
VERTEX
  8
LAYER-2
 10
11.235092
 20
22.055376
 30
0.000000
  0
VERTEX
  8
LAYER-2
 10
11.280292
 20
22.002848
 30
0.000000
  0
VERTEX
  8
LAYER-2
 10
11.328744
 20
21.974686
 30
0.000000
  0
SEQEND
  8
LAYER-2
  0
POLYLINE
  8
LAYER-2
 66
  1
 70
  0
 62
  0
 10
11.328744
 20
21.974684
 30
0.000000
  0
VERTEX
  8
LAYER-2
 10
11.328744
 20
21.974684
 30
0.000000
  0
VERTEX
  8
LAYER-2
 10
11.376354
 20
21.977551
 30
0.000000
  0
VERTEX
  8
LAYER-2
 10
11.407589
 20
22.000966
 30
0.000000
  0
SEQEND
  8
LAYER-2
  0
POLYLINE
  8
LAYER-2
 66
  1
 70
  0
 62
  0
 10
11.852741
 20
21.843275
 30
0.000000
  0
VERTEX
  8
LAYER-2
 10
11.852741
 20
21.843275
 30
0.000000
  0
VERTEX
  8
LAYER-2
 10
11.891384
 20
21.858453
 30
0.000000
  0
VERTEX
  8
LAYER-2
 10
11.923848
 20
21.886200
 30
0.000000
  0
VERTEX
  8
LAYER-2
 10
11.943225
 20
21.924257
 30
0.000000
  0
VERTEX
  8
LAYER-2
 10
11.948012
 20
21.935262
 30
0.000000
  0
SEQEND
  8
LAYER-2
  0
POLYLINE
  8
LAYER-2
 66
  1
 70
  0
 62
  0
 10
11.764039
 20
21.908980
 30
0.000000
  0
VERTEX
  8
LAYER-2
 10
11.764039
 20
21.908980
 30
0.000000
  0
VERTEX
  8
LAYER-2
 10
11.783805
 20
21.876870
 30
0.000000
  0
VERTEX
  8
LAYER-2
 10
11.816926
 20
21.853702
 30
0.000000
  0
VERTEX
  8
LAYER-2
 10
11.852741
 20
21.843275
 30
0.000000
  0
SEQEND
  8
LAYER-2
  0
POLYLINE
  8
LAYER-2
 66
  1
 70
  0
 62
  0
 10
11.396502
 20
21.779215
 30
0.000000
  0
VERTEX
  8
LAYER-2
 10
11.396502
 20
21.779215
 30
0.000000
  0
VERTEX
  8
LAYER-2
 10
11.412536
 20
21.808528
 30
0.000000
  0
VERTEX
  8
LAYER-2
 10
11.418702
 20
21.840680
 30
0.000000
  0
VERTEX
  8
LAYER-2
 10
11.412095
 20
21.872743
 30
0.000000
  0
VERTEX
  8
LAYER-2
 10
11.412232
 20
21.874810
 30
0.000000
  0
SEQEND
  8
LAYER-2
  0
POLYLINE
  8
LAYER-2
 66
  1
 70
  0
 62
  0
 10
11.273442
 20
21.912659
 30
0.000000
  0
VERTEX
  8
LAYER-2
 10
11.273442
 20
21.912659
 30
0.000000
  0
VERTEX
  8
LAYER-2
 10
11.268547
 20
21.907143
 30
0.000000
  0
VERTEX
  8
LAYER-2
 10
11.266184
 20
21.899463
 30
0.000000
  0
VERTEX
  8
LAYER-2
 10
11.264398
 20
21.891629
 30
0.000000
  0
VERTEX
  8
LAYER-2
 10
11.263200
 20
21.883682
 30
0.000000
  0
VERTEX
  8
LAYER-2
 10
11.262594
 20
21.875671
 30
0.000000
  0
VERTEX
  8
LAYER-2
 10
11.264562
 20
21.873701
 30
0.000000
  0
SEQEND
  8
LAYER-2
  0
POLYLINE
  8
LAYER-2
 66
  1
 70
  0
 62
  0
 10
11.407590
 20
22.000966
 30
0.000000
  0
VERTEX
  8
LAYER-2
 10
11.407590
 20
22.000966
 30
0.000000
  0
VERTEX
  8
LAYER-2
 10
11.427917
 20
21.980638
 30
0.000000
  0
SEQEND
  8
LAYER-2
  0
ARC
  8
LAYER-2
 62
  0
 10
11.417512
 20
21.970232
 30
0.000000
 40
0.014718
 50
0.000000
 51
45.000000
  0
POLYLINE
  8
LAYER-2
 66
  1
 70
  0
 62
  0
 10
11.764039
 20
21.908980
 30
0.000000
  0
VERTEX
  8
LAYER-2
 10
11.764039
 20
21.908980
 30
0.000000
  0
VERTEX
  8
LAYER-2
 10
11.754118
 20
21.908980
 30
0.000000
  0
SEQEND
  8
LAYER-2
  0
ARC
  8
LAYER-2
 62
  0
 10
11.754118
 20
21.894262
 30
0.000000
 40
0.014718
 50
90.000000
 51
180.000000
  0
POLYLINE
  8
LAYER-2
 66
  1
 70
  0
 62
  0
 10
11.211092
 20
22.268095
 30
0.000000
  0
VERTEX
  8
LAYER-2
 10
11.211092
 20
22.268095
 30
0.000000
  0
VERTEX
  8
LAYER-2
 10
11.195079
 20
22.284112
 30
0.000000
  0
SEQEND
  8
LAYER-2
  0
ARC
  8
LAYER-2
 62
  0
 10
11.200685
 20
22.257687
 30
0.000000
 40
0.014718
 50
0.000000
 51
45.000000
  0
POLYLINE
  8
LAYER-2
 66
  1
 70
  0
 62
  0
 10
11.287387
 20
21.802897
 30
0.000000
  0
VERTEX
  8
LAYER-2
 10
11.287387
 20
21.802897
 30
0.000000
  0
VERTEX
  8
LAYER-2
 10
11.315167
 20
21.799947
 30
0.000000
  0
VERTEX
  8
LAYER-2
 10
11.325901
 20
21.812875
 30
0.000000
  0
SEQEND
  8
LAYER-2
  0
POLYLINE
  8
LAYER-2
 66
  1
 70
  0
 62
  0
 10
11.179857
 20
23.389803
 30
0.000000
  0
VERTEX
  8
LAYER-2
 10
11.179857
 20
23.389803
 30
0.000000
  0
VERTEX
  8
LAYER-2
 10
11.150158
 20
23.397759
 30
0.000000
  0
SEQEND
  8
LAYER-2
  0
ARC
  8
LAYER-2
 62
  0
 10
11.176048
 20
23.375587
 30
0.000000
 40
0.014718
 50
0.000000
 51
74.998535
  0
POLYLINE
  8
LAYER-2
 66
  1
 70
  0
 62
  0
 10
11.190766
 20
23.327477
 30
0.000000
  0
VERTEX
  8
LAYER-2
 10
11.190766
 20
23.327477
 30
0.000000
  0
VERTEX
  8
LAYER-2
 10
11.190766
 20
23.375587
 30
0.000000
  0
SEQEND
  8
LAYER-2
  0
ARC
  8
LAYER-2
 62
  0
 10
11.205484
 20
23.327477
 30
0.000000
 40
0.014718
 50
180.000000
 51
254.998535
  0
POLYLINE
  8
LAYER-2
 66
  1
 70
  0
 62
  0
 10
12.024162
 20
23.163571
 30
0.000000
  0
VERTEX
  8
LAYER-2
 10
12.024162
 20
23.163571
 30
0.000000
  0
VERTEX
  8
LAYER-2
 10
11.999390
 20
23.170210
 30
0.000000
  0
SEQEND
  8
LAYER-2
  0
ARC
  8
LAYER-2
 62
  0
 10
11.995581
 20
23.155992
 30
0.000000
 40
0.014718
 50
75.001892
 51
180.000000
  0
ARC
  8
LAYER-2
 62
  0
 10
12.020353
 20
23.149356
 30
0.000000
 40
0.014718
 50
0.000000
 51
75.001892
  0
POLYLINE
  8
LAYER-2
 66
  1
 70
  0
 62
  0
 10
11.980863
 20
23.155992
 30
0.000000
  0
VERTEX
  8
LAYER-2
 10
11.980863
 20
23.155992
 30
0.000000
  0
VERTEX
  8
LAYER-2
 10
11.980863
 20
23.123659
 30
0.000000
  0
SEQEND
  8
LAYER-2
  0
POLYLINE
  8
LAYER-2
 66
  1
 70
  0
 62
  0
 10
11.277365
 20
23.292979
 30
0.000000
  0
VERTEX
  8
LAYER-2
 10
11.277365
 20
23.292979
 30
0.000000
  0
VERTEX
  8
LAYER-2
 10
11.201674
 20
23.313261
 30
0.000000
  0
SEQEND
  8
LAYER-2
  0
ARC
  8
LAYER-2
 62
  0
 10
11.281174
 20
23.307195
 30
0.000000
 40
0.014718
 50
254.998535
 51
0.000000
  0
POLYLINE
  8
LAYER-2
 66
  1
 70
  0
 62
  0
 10
11.295893
 20
23.339530
 30
0.000000
  0
VERTEX
  8
LAYER-2
 10
11.295893
 20
23.339530
 30
0.000000
  0
VERTEX
  8
LAYER-2
 10
11.295893
 20
23.307195
 30
0.000000
  0
SEQEND
  8
LAYER-2
  0
ARC
  8
LAYER-2
 62
  0
 10
11.310610
 20
23.339530
 30
0.000000
 40
0.014718
 50
75.001892
 51
180.000000
  0
POLYLINE
  8
LAYER-2
 66
  1
 70
  0
 62
  0
 10
11.209292
 20
23.233576
 30
0.000000
  0
VERTEX
  8
LAYER-2
 10
11.209292
 20
23.233576
 30
0.000000
  0
VERTEX
  8
LAYER-2
 10
11.225382
 20
23.229265
 30
0.000000
  0
SEQEND
  8
LAYER-2
  0
ARC
  8
LAYER-2
 62
  0
 10
11.205484
 20
23.219360
 30
0.000000
 40
0.014718
 50
74.998535
 51
180.000000
  0
POLYLINE
  8
LAYER-2
 66
  1
 70
  0
 62
  0
 10
11.793015
 20
23.003211
 30
0.000000
  0
VERTEX
  8
LAYER-2
 10
11.793015
 20
23.003211
 30
0.000000
  0
VERTEX
  8
LAYER-2
 10
11.848996
 20
22.988212
 30
0.000000
  0
SEQEND
  8
LAYER-2
  0
ARC
  8
LAYER-2
 62
  0
 10
11.796823
 20
23.017429
 30
0.000000
 40
0.014718
 50
180.000000
 51
255.001907
  0
POLYLINE
  8
LAYER-2
 66
  1
 70
  0
 62
  0
 10
11.867522
 20
23.146142
 30
0.000000
  0
VERTEX
  8
LAYER-2
 10
11.867522
 20
23.146142
 30
0.000000
  0
VERTEX
  8
LAYER-2
 10
11.867522
 20
23.194249
 30
0.000000
  0
SEQEND
  8
LAYER-2
  0
ARC
  8
LAYER-2
 62
  0
 10
11.882242
 20
23.146142
 30
0.000000
 40
0.014718
 50
180.000000
 51
254.998535
  0
POLYLINE
  8
LAYER-2
 66
  1
 70
  0
 62
  0
 10
11.962334
 20
23.109443
 30
0.000000
  0
VERTEX
  8
LAYER-2
 10
11.962334
 20
23.109443
 30
0.000000
  0
VERTEX
  8
LAYER-2
 10
11.878432
 20
23.131924
 30
0.000000
  0
SEQEND
  8
LAYER-2
  0
ARC
  8
LAYER-2
 62
  0
 10
11.966146
 20
23.123659
 30
0.000000
 40
0.014718
 50
254.998535
 51
0.000000
  0
POLYLINE
  8
LAYER-2
 66
  1
 70
  0
 62
  0
 10
11.886050
 20
23.052241
 30
0.000000
  0
VERTEX
  8
LAYER-2
 10
11.886050
 20
23.052241
 30
0.000000
  0
VERTEX
  8
LAYER-2
 10
11.969955
 20
23.029760
 30
0.000000
  0
SEQEND
  8
LAYER-2
  0
ARC
  8
LAYER-2
 62
  0
 10
11.882242
 20
23.038025
 30
0.000000
 40
0.014718
 50
75.001892
 51
180.000000
  0
POLYLINE
  8
LAYER-2
 66
  1
 70
  0
 62
  0
 10
11.867522
 20
23.002428
 30
0.000000
  0
VERTEX
  8
LAYER-2
 10
11.867522
 20
23.002428
 30
0.000000
  0
VERTEX
  8
LAYER-2
 10
11.867522
 20
23.038025
 30
0.000000
  0
SEQEND
  8
LAYER-2
  0
ARC
  8
LAYER-2
 62
  0
 10
11.852804
 20
23.002428
 30
0.000000
 40
0.014718
 50
255.001907
 51
0.000000
  0
POLYLINE
  8
LAYER-2
 66
  1
 70
  0
 62
  0
 10
11.896692
 20
21.745661
 30
0.000000
  0
VERTEX
  8
LAYER-2
 10
11.896692
 20
21.745661
 30
0.000000
  0
VERTEX
  8
LAYER-2
 10
12.016544
 20
21.713545
 30
0.000000
  0
SEQEND
  8
LAYER-2
  0
ARC
  8
LAYER-2
 62
  0
 10
12.020353
 20
21.727763
 30
0.000000
 40
0.014718
 50
255.001907
 51
0.000000
  0
POLYLINE
  8
LAYER-2
 66
  1
 70
  0
 62
  0
 10
11.273442
 20
21.912659
 30
0.000000
  0
VERTEX
  8
LAYER-2
 10
11.273442
 20
21.912659
 30
0.000000
  0
VERTEX
  8
LAYER-2
 10
11.142542
 20
21.947734
 30
0.000000
  0
SEQEND
  8
LAYER-2
  0
ARC
  8
LAYER-2
 62
  0
 10
11.146350
 20
21.961951
 30
0.000000
 40
0.014718
 50
180.000000
 51
254.998535
  0
POLYLINE
  8
LAYER-2
 66
  1
 70
  0
 62
  0
 10
11.969955
 20
22.076887
 30
0.000000
  0
VERTEX
  8
LAYER-2
 10
11.969955
 20
22.076887
 30
0.000000
  0
VERTEX
  8
LAYER-2
 10
11.958919
 20
22.073932
 30
0.000000
  0
SEQEND
  8
LAYER-2
  0
ARC
  8
LAYER-2
 62
  0
 10
11.966146
 20
22.091105
 30
0.000000
 40
0.014718
 50
284.998108
 51
0.000000
  0
POLYLINE
  8
LAYER-2
 66
  1
 70
  0
 62
  0
 10
11.412398
 20
21.875427
 30
0.000000
  0
VERTEX
  8
LAYER-2
 10
11.412398
 20
21.875427
 30
0.000000
  0
VERTEX
  8
LAYER-2
 10
11.413703
 20
21.875078
 30
0.000000
  0
SEQEND
  8
LAYER-2
  0
ARC
  8
LAYER-2
 62
  0
 10
11.417512
 20
21.889292
 30
0.000000
 40
0.014718
 50
254.998535
 51
0.000000
  0
POLYLINE
  8
LAYER-2
 66
  1
 70
  0
 62
  0
 10
11.337762
 20
21.895423
 30
0.000000
  0
VERTEX
  8
LAYER-2
 10
11.337762
 20
21.895423
 30
0.000000
  0
VERTEX
  8
LAYER-2
 10
11.343168
 20
21.893975
 30
0.000000
  0
SEQEND
  8
LAYER-2
  0
POLYLINE
  8
LAYER-2
 66
  1
 70
  0
 62
  0
 10
11.880853
 20
21.649662
 30
0.000000
  0
VERTEX
  8
LAYER-2
 10
11.880853
 20
21.649662
 30
0.000000
  0
VERTEX
  8
LAYER-2
 10
11.896887
 20
21.678974
 30
0.000000
  0
VERTEX
  8
LAYER-2
 10
11.903054
 20
21.711126
 30
0.000000
  0
VERTEX
  8
LAYER-2
 10
11.896447
 20
21.743191
 30
0.000000
  0
VERTEX
  8
LAYER-2
 10
11.896584
 20
21.745256
 30
0.000000
  0
SEQEND
  8
LAYER-2
  0
POLYLINE
  8
LAYER-2
 66
  1
 70
  0
 62
  0
 10
11.848821
 20
21.689082
 30
0.000000
  0
VERTEX
  8
LAYER-2
 10
11.848821
 20
21.689082
 30
0.000000
  0
VERTEX
  8
LAYER-2
 10
11.857776
 20
21.725742
 30
0.000000
  0
VERTEX
  8
LAYER-2
 10
11.840970
 20
21.757997
 30
0.000000
  0
VERTEX
  8
LAYER-2
 10
11.830015
 20
21.763752
 30
0.000000
  0
SEQEND
  8
LAYER-2
  0
POLYLINE
  8
LAYER-2
 66
  1
 70
  0
 62
  0
 10
11.757794
 20
21.783106
 30
0.000000
  0
VERTEX
  8
LAYER-2
 10
11.757794
 20
21.783106
 30
0.000000
  0
VERTEX
  8
LAYER-2
 10
11.752883
 20
21.777546
 30
0.000000
  0
VERTEX
  8
LAYER-2
 10
11.750511
 20
21.769816
 30
0.000000
  0
VERTEX
  8
LAYER-2
 10
11.748723
 20
21.761932
 30
0.000000
  0
VERTEX
  8
LAYER-2
 10
11.747530
 20
21.753938
 30
0.000000
  0
VERTEX
  8
LAYER-2
 10
11.748905
 20
21.743907
 30
0.000000
  0
SEQEND
  8
LAYER-2
  0
POLYLINE
  8
LAYER-2
 66
  1
 70
  0
 62
  0
 10
11.770977
 20
21.674483
 30
0.000000
  0
VERTEX
  8
LAYER-2
 10
11.770977
 20
21.674483
 30
0.000000
  0
VERTEX
  8
LAYER-2
 10
11.798381
 20
21.669634
 30
0.000000
  0
VERTEX
  8
LAYER-2
 10
11.810368
 20
21.684740
 30
0.000000
  0
SEQEND
  8
LAYER-2
  0
POLYLINE
  8
LAYER-2
 66
  1
 70
  0
 62
  0
 10
11.757794
 20
21.782876
 30
0.000000
  0
VERTEX
  8
LAYER-2
 10
11.757794
 20
21.782876
 30
0.000000
  0
VERTEX
  8
LAYER-2
 10
11.750306
 20
21.784885
 30
0.000000
  0
SEQEND
  8
LAYER-2
  0
ARC
  8
LAYER-2
 62
  0
 10
11.754118
 20
21.799099
 30
0.000000
 40
0.014718
 50
180.000000
 51
254.998535
  0
ARC
  8
LAYER-2
 62
  0
 10
11.386212
 20
21.803575
 30
0.000000
 40
0.026446
 50
145.282684
 51
292.906250
  0
ARC
  8
LAYER-2
 62
  0
 10
11.870534
 20
21.674001
 30
0.000000
 40
0.026437
 50
145.214844
 51
292.973877
  0
POLYLINE
  8
LAYER-2
 66
  1
 70
  0
 62
  0
 10
12.031782
 20
23.158390
 30
0.000000
  0
VERTEX
  8
LAYER-2
 10
12.031782
 20
23.158390
 30
0.000000
  0
VERTEX
  8
LAYER-2
 10
14.776583
 20
23.893856
 30
0.000000
  0
SEQEND
  8
LAYER-2
  0
POLYLINE
  8
LAYER-2
 66
  1
 70
  0
 62
  0
 10
12.023932
 20
21.712726
 30
0.000000
  0
VERTEX
  8
LAYER-2
 10
12.023932
 20
21.712726
 30
0.000000
  0
VERTEX
  8
LAYER-2
 10
14.779870
 20
22.451177
 30
0.000000
  0
SEQEND
  8
LAYER-2
  0
POLYLINE
  8
LAYER-2
 66
  1
 70
  0
 62
  0
 10
11.990727
 20
23.170134
 30
0.000000
  0
VERTEX
  8
LAYER-2
 10
11.990727
 20
23.170134
 30
0.000000
  0
VERTEX
  8
LAYER-2
 10
14.734733
 20
23.905389
 30
0.000000
  0
SEQEND
  8
LAYER-2
  0
POLYLINE
  8
LAYER-2
 66
  1
 70
  0
 62
  0
 10
11.863185
 20
23.204359
 30
0.000000
  0
VERTEX
  8
LAYER-2
 10
11.863185
 20
23.204359
 30
0.000000
  0
VERTEX
  8
LAYER-2
 10
14.607288
 20
23.939640
 30
0.000000
  0
SEQEND
  8
LAYER-2
  0
POLYLINE
  8
LAYER-2
 66
  1
 70
  0
 62
  0
 10
11.303744
 20
23.353746
 30
0.000000
  0
VERTEX
  8
LAYER-2
 10
11.303744
 20
23.353746
 30
0.000000
  0
VERTEX
  8
LAYER-2
 10
14.048611
 20
24.089233
 30
0.000000
  0
SEQEND
  8
LAYER-2
  0
POLYLINE
  8
LAYER-2
 66
  1
 70
  0
 62
  0
 10
11.188894
 20
23.384054
 30
0.000000
  0
VERTEX
  8
LAYER-2
 10
11.188894
 20
23.384054
 30
0.000000
  0
VERTEX
  8
LAYER-2
 10
13.935021
 20
24.119880
 30
0.000000
  0
SEQEND
  8
LAYER-2
  0
POLYLINE
  8
LAYER-2
 66
  1
 70
  0
 62
  0
 10
11.140302
 20
23.396939
 30
0.000000
  0
VERTEX
  8
LAYER-2
 10
11.140302
 20
23.396939
 30
0.000000
  0
VERTEX
  8
LAYER-2
 10
13.886292
 20
24.132728
 30
0.000000
  0
SEQEND
  8
LAYER-2
  0
POLYLINE
  8
LAYER-2
 66
  1
 70
  0
 62
  0
 10
11.855202
 20
22.987645
 30
0.000000
  0
VERTEX
  8
LAYER-2
 10
11.855202
 20
22.987645
 30
0.000000
  0
VERTEX
  8
LAYER-2
 10
11.979613
 20
23.020983
 30
0.000000
  0
SEQEND
  8
LAYER-2
  0
POLYLINE
  8
LAYER-2
 66
  1
 70
  0
 62
  0
 10
11.213761
 20
22.265077
 30
0.000000
  0
VERTEX
  8
LAYER-2
 10
11.213761
 20
22.265077
 30
0.000000
  0
VERTEX
  8
LAYER-2
 10
11.981718
 20
22.470851
 30
0.000000
  0
SEQEND
  8
LAYER-2
  0
POLYLINE
  8
LAYER-2
 66
  1
 70
  0
 62
  0
 10
11.192408
 20
22.288771
 30
0.000000
  0
VERTEX
  8
LAYER-2
 10
11.192408
 20
22.288771
 30
0.000000
  0
VERTEX
  8
LAYER-2
 10
11.981959
 20
22.500331
 30
0.000000
  0
SEQEND
  8
LAYER-2
  0
POLYLINE
  8
LAYER-2
 66
  1
 70
  0
 62
  0
 10
11.407590
 20
22.000966
 30
0.000000
  0
VERTEX
  8
LAYER-2
 10
11.407590
 20
22.000966
 30
0.000000
  0
VERTEX
  8
LAYER-2
 10
11.980857
 20
22.154572
 30
0.000000
  0
SEQEND
  8
LAYER-2
  0
POLYLINE
  8
LAYER-2
 66
  1
 70
  0
 62
  0
 10
11.430588
 20
21.976800
 30
0.000000
  0
VERTEX
  8
LAYER-2
 10
11.430588
 20
21.976800
 30
0.000000
  0
VERTEX
  8
LAYER-2
 10
11.979815
 20
22.123966
 30
0.000000
  0
SEQEND
  8
LAYER-2
  0
POLYLINE
  8
LAYER-2
 66
  1
 70
  0
 62
  0
 10
11.424007
 20
21.875977
 30
0.000000
  0
VERTEX
  8
LAYER-2
 10
11.424007
 20
21.875977
 30
0.000000
  0
VERTEX
  8
LAYER-2
 10
11.948471
 20
22.016503
 30
0.000000
  0
SEQEND
  8
LAYER-2
  0
POLYLINE
  8
LAYER-2
 66
  1
 70
  0
 62
  0
 10
11.394041
 20
21.778395
 30
0.000000
  0
VERTEX
  8
LAYER-2
 10
11.394041
 20
21.778395
 30
0.000000
  0
VERTEX
  8
LAYER-2
 10
11.739260
 20
21.870895
 30
0.000000
  0
SEQEND
  8
LAYER-2
  0
POLYLINE
  8
LAYER-2
 66
  1
 70
  0
 62
  0
 10
11.880853
 20
21.649662
 30
0.000000
  0
VERTEX
  8
LAYER-2
 10
11.880853
 20
21.649662
 30
0.000000
  0
VERTEX
  8
LAYER-2
 10
14.639430
 20
22.388818
 30
0.000000
  0
SEQEND
  8
LAYER-2
  0
POLYLINE
  8
LAYER-2
 66
  1
 70
  0
 62
  0
 10
11.309855
 20
21.793996
 30
0.000000
  0
VERTEX
  8
LAYER-2
 10
11.309855
 20
21.793996
 30
0.000000
  0
VERTEX
  8
LAYER-2
 10
11.359117
 20
21.807198
 30
0.000000
  0
SEQEND
  8
LAYER-2
  0
POLYLINE
  8
LAYER-2
 66
  1
 70
  0
 62
  0
 10
11.793607
 20
21.664232
 30
0.000000
  0
VERTEX
  8
LAYER-2
 10
11.793607
 20
21.664232
 30
0.000000
  0
VERTEX
  8
LAYER-2
 10
11.844527
 20
21.677875
 30
0.000000
  0
SEQEND
  8
LAYER-2
  0
POLYLINE
  8
LAYER-2
 66
  1
 70
  0
 62
  0
 10
14.779870
 20
22.451177
 30
0.000000
  0
VERTEX
  8
LAYER-2
 10
14.779870
 20
22.451177
 30
0.000000
  0
VERTEX
  8
LAYER-2
 10
14.779870
 20
23.884040
 30
0.000000
  0
SEQEND
  8
LAYER-2
  0
POLYLINE
  8
LAYER-2
 66
  1
 70
  0
 62
  0
 10
14.638897
 20
22.389347
 30
0.000000
  0
VERTEX
  8
LAYER-2
 10
14.638897
 20
22.389347
 30
0.000000
  0
VERTEX
  8
LAYER-2
 10
14.655072
 20
22.418567
 30
0.000000
  0
VERTEX
  8
LAYER-2
 10
14.657823
 20
22.418569
 30
0.000000
  0
SEQEND
  8
LAYER-2
  0
POLYLINE
  8
LAYER-2
 66
  1
 70
  0
 62
  0
 10
14.599770
 20
23.943592
 30
0.000000
  0
VERTEX
  8
LAYER-2
 10
14.599770
 20
23.943592
 30
0.000000
  0
VERTEX
  8
LAYER-2
 10
14.056230
 20
24.089233
 30
0.000000
  0
SEQEND
  8
LAYER-2
  0
ARC
  8
LAYER-2
 62
  0
 10
14.052421
 20
24.075017
 30
0.000000
 40
0.014718
 50
75.001892
 51
104.998108
  0
ARC
  8
LAYER-2
 62
  0
 10
14.595963
 20
23.929376
 30
0.000000
 40
0.014718
 50
0.000000
 51
75.001892
  0
ARC
  8
LAYER-2
 62
  0
 10
14.765152
 20
23.884040
 30
0.000000
 40
0.014718
 50
0.000000
 51
74.998535
  0
POLYLINE
  8
LAYER-2
 66
  1
 70
  0
 62
  0
 10
14.610680
 20
23.929376
 30
0.000000
  0
VERTEX
  8
LAYER-2
 10
14.610680
 20
23.929376
 30
0.000000
  0
VERTEX
  8
LAYER-2
 10
14.610680
 20
23.883370
 30
0.000000
  0
SEQEND
  8
LAYER-2
  0
POLYLINE
  8
LAYER-2
 66
  1
 70
  0
 62
  0
 10
14.768960
 20
23.898258
 30
0.000000
  0
VERTEX
  8
LAYER-2
 10
14.768960
 20
23.898258
 30
0.000000
  0
VERTEX
  8
LAYER-2
 10
14.742349
 20
23.905389
 30
0.000000
  0
SEQEND
  8
LAYER-2
  0
ARC
  8
LAYER-2
 62
  0
 10
14.738541
 20
23.891171
 30
0.000000
 40
0.014718
 50
74.998535
 51
105.001465
  0
POLYLINE
  8
LAYER-2
 66
  1
 70
  0
 62
  0
 10
13.893912
 20
24.132728
 30
0.000000
  0
VERTEX
  8
LAYER-2
 10
13.893912
 20
24.132728
 30
0.000000
  0
VERTEX
  8
LAYER-2
 10
13.927534
 20
24.123718
 30
0.000000
  0
SEQEND
  8
LAYER-2
  0
ARC
  8
LAYER-2
 62
  0
 10
13.890105
 20
24.118510
 30
0.000000
 40
0.014718
 50
74.998535
 51
105.001465
  0
POLYLINE
  8
LAYER-2
 66
  1
 70
  0
 62
  0
 10
13.938441
 20
24.109500
 30
0.000000
  0
VERTEX
  8
LAYER-2
 10
13.938441
 20
24.109500
 30
0.000000
  0
VERTEX
  8
LAYER-2
 10
13.938441
 20
24.066786
 30
0.000000
  0
SEQEND
  8
LAYER-2
  0
ARC
  8
LAYER-2
 62
  0
 10
13.923723
 20
24.109500
 30
0.000000
 40
0.014718
 50
0.000000
 51
74.998535
  0
ARC
  8
LAYER-2
 62
  0
 10
14.625398
 20
23.883370
 30
0.000000
 40
0.014718
 50
180.000000
 51
217.500793
  0
POLYLINE
  8
LAYER-2
 66
  1
 70
  0
 62
  0
 10
11.870563
 20
23.137182
 30
0.000000
  0
VERTEX
  8
LAYER-2
 10
11.870563
 20
23.137182
 30
0.000000
  0
VERTEX
  8
LAYER-2
 10
11.990917
 20
23.169430
 30
0.000000
  0
SEQEND
  8
LAYER-2
  0
ARC
  8
LAYER-2
 62
  0
 10
13.953157
 20
24.066786
 30
0.000000
 40
0.014718
 50
180.000000
 51
201.578766
  0
POLYLINE
  8
LAYER-2
 66
  1
 70
  0
 62
  0
 10
11.193810
 20
23.318517
 30
0.000000
  0
VERTEX
  8
LAYER-2
 10
11.193810
 20
23.318517
 30
0.000000
  0
VERTEX
  8
LAYER-2
 10
11.298358
 20
23.346532
 30
0.000000
  0
SEQEND
  8
LAYER-2
  0
POLYLINE
  8
LAYER-2
 66
  1
 70
  0
 62
  0
 10
11.810276
 20
23.147039
 30
0.000000
  0
VERTEX
  8
LAYER-2
 10
11.810276
 20
23.147039
 30
0.000000
  0
VERTEX
  8
LAYER-2
 10
10.853310
 20
22.890622
 30
0.000000
  0
SEQEND
  8
LAYER-2
  0
POLYLINE
  8
LAYER-2
 66
  1
 70
  0
 62
  0
 10
10.853310
 20
22.890622
 30
0.000000
  0
VERTEX
  8
LAYER-2
 10
10.853310
 20
22.890622
 30
0.000000
  0
VERTEX
  8
LAYER-2
 10
10.853310
 20
22.805517
 30
0.000000
  0
SEQEND
  8
LAYER-2
  0
POLYLINE
  8
LAYER-2
 66
  1
 70
  0
 62
  0
 10
10.853310
 20
22.890622
 30
0.000000
  0
VERTEX
  8
LAYER-2
 10
10.853310
 20
22.890622
 30
0.000000
  0
VERTEX
  8
LAYER-2
 10
10.407428
 20
23.010095
 30
0.000000
  0
SEQEND
  8
LAYER-2
  0
POLYLINE
  8
LAYER-2
 66
  1
 70
  0
 62
  0
 10
11.131632
 20
23.383545
 30
0.000000
  0
VERTEX
  8
LAYER-2
 10
11.131632
 20
23.383545
 30
0.000000
  0
VERTEX
  8
LAYER-2
 10
11.131632
 20
23.204146
 30
0.000000
  0
SEQEND
  8
LAYER-2
  0
ARC
  8
LAYER-2
 62
  0
 10
11.335792
 20
21.863881
 30
0.000000
 40
0.031603
 50
86.422852
 51
133.433594
  0
POLYLINE
  8
LAYER-2
 66
  1
 70
  0
 62
  0
 10
11.830236
 20
21.764360
 30
0.000000
  0
VERTEX
  8
LAYER-2
 10
11.830236
 20
21.764360
 30
0.000000
  0
VERTEX
  8
LAYER-2
 10
11.822335
 20
21.766478
 30
0.000000
  0
SEQEND
  8
LAYER-2
  0
ARC
  8
LAYER-2
 62
  0
 10
11.820334
 20
21.735048
 30
0.000000
 40
0.031493
 50
86.356384
 51
135.645996
  0
POLYLINE
  8
LAYER-2
 66
  1
 70
  0
 62
  0
 10
6.789492
 20
20.394521
 30
0.000000
  0
VERTEX
  8
LAYER-2
 10
6.789492
 20
20.394521
 30
0.000000
  0
VERTEX
  8
LAYER-2
 10
6.784007
 20
20.395989
 30
0.000000
  0
SEQEND
  8
LAYER-2
  0
ARC
  8
LAYER-2
 62
  0
 10
6.805678
 20
20.363132
 30
0.000000
 40
0.053796
 50
167.036560
 51
225.834183
  0
ARC
  8
LAYER-2
 62
  0
 10
6.780178
 20
20.368513
 30
0.000000
 40
0.027742
 50
82.065369
 51
166.055542
  0
POLYLINE
  8
LAYER-2
 66
  1
 70
  0
 62
  0
 10
10.347191
 20
23.442727
 30
0.000000
  0
VERTEX
  8
LAYER-2
 10
10.347191
 20
23.442727
 30
0.000000
  0
VERTEX
  8
LAYER-2
 10
10.683738
 20
23.106179
 30
0.000000
  0
SEQEND
  8
LAYER-2
  0
POLYLINE
  8
LAYER-2
 66
  1
 70
  1
 62
  0
  0
VERTEX
  8
LAYER-2
 10
10.697658
 20
23.092260
 30
0.000000
  0
VERTEX
  8
LAYER-2
 10
10.540523
 20
23.131543
 30
0.000000
  0
VERTEX
  8
LAYER-2
 10
10.599448
 20
23.190469
 30
0.000000
  0
VERTEX
  8
LAYER-2
 10
10.658374
 20
23.249395
 30
0.000000
  0
VERTEX
  8
LAYER-2
 10
10.697658
 20
23.092260
 30
0.000000
  0
SEQEND
  8
LAYER-2
  0
POLYLINE
  8
LAYER-2
 66
  1
 70
  0
 62
  0
 10
11.972224
 20
21.146155
 30
0.000000
  0
VERTEX
  8
LAYER-2
 10
11.972224
 20
21.146155
 30
0.000000
  0
VERTEX
  8
LAYER-2
 10
11.424273
 20
21.556368
 30
0.000000
  0
SEQEND
  8
LAYER-2
  0
POLYLINE
  8
LAYER-2
 66
  1
 70
  1
 62
  0
  0
VERTEX
  8
LAYER-2
 10
11.408515
 20
21.568164
 30
0.000000
  0
VERTEX
  8
LAYER-2
 10
11.569640
 20
21.551639
 30
0.000000
  0
VERTEX
  8
LAYER-2
 10
11.519699
 20
21.484929
 30
0.000000
  0
VERTEX
  8
LAYER-2
 10
11.469758
 20
21.418218
 30
0.000000
  0
VERTEX
  8
LAYER-2
 10
11.408515
 20
21.568164
 30
0.000000
  0
SEQEND
  8
LAYER-2
  0
POLYLINE
  8
LAYER-2
 66
  1
 70
  0
 62
  0
 10
6.723787
 20
20.539890
 30
0.000000
  0
VERTEX
  8
LAYER-2
 10
6.723787
 20
20.539890
 30
0.000000
  0
VERTEX
  8
LAYER-2
 10
6.907226
 20
20.589044
 30
0.000000
  0
SEQEND
  8
LAYER-2
  0
POLYLINE
  8
LAYER-2
 66
  1
 70
  0
 62
  0
 10
11.368849
 20
21.824568
 30
0.000000
  0
VERTEX
  8
LAYER-2
 10
11.368849
 20
21.824568
 30
0.000000
  0
VERTEX
  8
LAYER-2
 10
11.364473
 20
21.818637
 30
0.000000
  0
SEQEND
  8
LAYER-2
  0
POLYLINE
  8
LAYER-2
 66
  1
 70
  0
 62
  0
 10
11.087322
 20
21.891795
 30
0.000000
  0
VERTEX
  8
LAYER-2
 10
11.087322
 20
21.891795
 30
0.000000
  0
VERTEX
  8
LAYER-2
 10
11.087322
 20
21.890927
 30
0.000000
  0
SEQEND
  8
LAYER-2
  0
POLYLINE
  8
LAYER-2
 66
  1
 70
  0
 62
  0
 10
10.866330
 20
21.507056
 30
0.000000
  0
VERTEX
  8
LAYER-2
 10
10.866330
 20
21.507056
 30
0.000000
  0
VERTEX
  8
LAYER-2
 10
11.826322
 20
21.764615
 30
0.000000
  0
SEQEND
  8
LAYER-2
  0
ARC
  8
LAYER-2
 62
  0
 10
10.885933
 20
21.475128
 30
0.000000
 40
0.037466
 50
121.547974
 51
283.694336
  0
POLYLINE
  8
LAYER-2
 66
  1
 70
  0
 62
  0
 10
11.852001
 20
21.695207
 30
0.000000
  0
VERTEX
  8
LAYER-2
 10
11.852001
 20
21.695207
 30
0.000000
  0
VERTEX
  8
LAYER-2
 10
10.894803
 20
21.438727
 30
0.000000
  0
SEQEND
  8
LAYER-2
  0
POLYLINE
  8
LAYER-2
 66
  1
 70
  0
 62
  0
 10
11.851901
 20
21.695263
 30
0.000000
  0
VERTEX
  8
LAYER-2
 10
11.851901
 20
21.695263
 30
0.000000
  0
VERTEX
  8
LAYER-2
 10
11.855368
 20
21.733195
 30
0.000000
  0
VERTEX
  8
LAYER-2
 10
11.833783
 20
21.762468
 30
0.000000
  0
VERTEX
  8
LAYER-2
 10
11.826396
 20
21.764835
 30
0.000000
  0
SEQEND
  8
LAYER-2
  0
POLYLINE
  8
LAYER-2
 66
  1
 70
  0
 62
  0
 10
10.905703
 20
21.484873
 30
0.000000
  0
VERTEX
  8
LAYER-2
 10
10.905703
 20
21.484873
 30
0.000000
  0
VERTEX
  8
LAYER-2
 10
10.888254
 20
21.506327
 30
0.000000
  0
VERTEX
  8
LAYER-2
 10
10.864362
 20
21.509025
 30
0.000000
  0
VERTEX
  8
LAYER-2
 10
10.848024
 20
21.491384
 30
0.000000
  0
VERTEX
  8
LAYER-2
 10
10.848811
 20
21.463742
 30
0.000000
  0
VERTEX
  8
LAYER-2
 10
10.866260
 20
21.442288
 30
0.000000
  0
VERTEX
  8
LAYER-2
 10
10.890152
 20
21.439590
 30
0.000000
  0
VERTEX
  8
LAYER-2
 10
10.906490
 20
21.457230
 30
0.000000
  0
VERTEX
  8
LAYER-2
 10
10.905703
 20
21.484873
 30
0.000000
  0
SEQEND
  8
LAYER-2
  0
ARC
  8
LAYER-2
 62
  0
 10
3.235895
 20
21.541863
 30
0.000000
 40
0.107387
 50
326.825317
 51
24.856018
  0
POLYLINE
  8
LAYER-2
 66
  1
 70
  0
 62
  0
 10
3.501661
 20
21.586992
 30
0.000000
  0
VERTEX
  8
LAYER-2
 10
3.501661
 20
21.586992
 30
0.000000
  0
VERTEX
  8
LAYER-2
 10
3.333333
 20
21.587002
 30
0.000000
  0
SEQEND
  8
LAYER-2
  0
ARC
  8
LAYER-2
 62
  0
 10
3.501661
 20
21.621992
 30
0.000000
 40
0.035000
 50
270.000000
 51
0.000000
  0
POLYLINE
  8
LAYER-2
 66
  1
 70
  0
 62
  0
 10
3.536661
 20
23.113832
 30
0.000000
  0
VERTEX
  8
LAYER-2
 10
3.536661
 20
23.113832
 30
0.000000
  0
VERTEX
  8
LAYER-2
 10
3.536661
 20
21.621992
 30
0.000000
  0
SEQEND
  8
LAYER-2
  0
ARC
  8
LAYER-2
 62
  0
 10
3.501661
 20
23.113832
 30
0.000000
 40
0.035000
 50
0.000000
 51
90.000000
  0
POLYLINE
  8
LAYER-2
 66
  1
 70
  0
 62
  0
 10
3.494290
 20
23.148831
 30
0.000000
  0
VERTEX
  8
LAYER-2
 10
3.494290
 20
23.148831
 30
0.000000
  0
VERTEX
  8
LAYER-2
 10
3.501661
 20
23.148831
 30
0.000000
  0
SEQEND
  8
LAYER-2
  0
ARC
  8
LAYER-2
 62
  0
 10
3.494290
 20
23.113832
 30
0.000000
 40
0.035000
 50
90.000000
 51
180.000000
  0
POLYLINE
  8
LAYER-2
 66
  1
 70
  0
 62
  0
 10
3.459291
 20
23.107137
 30
0.000000
  0
VERTEX
  8
LAYER-2
 10
3.459291
 20
23.107137
 30
0.000000
  0
VERTEX
  8
LAYER-2
 10
3.459291
 20
23.113832
 30
0.000000
  0
SEQEND
  8
LAYER-2
  0
ARC
  8
LAYER-2
 62
  0
 10
3.424290
 20
23.107137
 30
0.000000
 40
0.035000
 50
270.000000
 51
0.000000
  0
POLYLINE
  8
LAYER-2
 66
  1
 70
  0
 62
  0
 10
3.332534
 20
23.072137
 30
0.000000
  0
VERTEX
  8
LAYER-2
 10
3.332534
 20
23.072137
 30
0.000000
  0
VERTEX
  8
LAYER-2
 10
3.424290
 20
23.072137
 30
0.000000
  0
SEQEND
  8
LAYER-2
  0
ARC
  8
LAYER-2
 62
  0
 10
3.332534
 20
23.107137
 30
0.000000
 40
0.035000
 50
180.000000
 51
270.000000
  0
POLYLINE
  8
LAYER-2
 66
  1
 70
  0
 62
  0
 10
3.297534
 20
23.113832
 30
0.000000
  0
VERTEX
  8
LAYER-2
 10
3.297534
 20
23.113832
 30
0.000000
  0
VERTEX
  8
LAYER-2
 10
3.297534
 20
23.107137
 30
0.000000
  0
SEQEND
  8
LAYER-2
  0
ARC
  8
LAYER-2
 62
  0
 10
3.262533
 20
23.113832
 30
0.000000
 40
0.035000
 50
0.000000
 51
90.000000
  0
POLYLINE
  8
LAYER-2
 66
  1
 70
  0
 62
  0
 10
2.488567
 20
23.148831
 30
0.000000
  0
VERTEX
  8
LAYER-2
 10
2.488567
 20
23.148831
 30
0.000000
  0
VERTEX
  8
LAYER-2
 10
3.262533
 20
23.148831
 30
0.000000
  0
SEQEND
  8
LAYER-2
  0
ARC
  8
LAYER-2
 62
  0
 10
2.488567
 20
23.113832
 30
0.000000
 40
0.035000
 50
90.000000
 51
180.000000
  0
POLYLINE
  8
LAYER-2
 66
  1
 70
  0
 62
  0
 10
2.453567
 20
23.107137
 30
0.000000
  0
VERTEX
  8
LAYER-2
 10
2.453567
 20
23.107137
 30
0.000000
  0
VERTEX
  8
LAYER-2
 10
2.453567
 20
23.113832
 30
0.000000
  0
SEQEND
  8
LAYER-2
  0
ARC
  8
LAYER-2
 62
  0
 10
2.418567
 20
23.107137
 30
0.000000
 40
0.035000
 50
270.000000
 51
0.000000
  0
POLYLINE
  8
LAYER-2
 66
  1
 70
  0
 62
  0
 10
2.326802
 20
23.072137
 30
0.000000
  0
VERTEX
  8
LAYER-2
 10
2.326802
 20
23.072137
 30
0.000000
  0
VERTEX
  8
LAYER-2
 10
2.418567
 20
23.072137
 30
0.000000
  0
SEQEND
  8
LAYER-2
  0
ARC
  8
LAYER-2
 62
  0
 10
2.326802
 20
23.107137
 30
0.000000
 40
0.035000
 50
180.000000
 51
270.000000
  0
POLYLINE
  8
LAYER-2
 66
  1
 70
  0
 62
  0
 10
2.291802
 20
23.113832
 30
0.000000
  0
VERTEX
  8
LAYER-2
 10
2.291802
 20
23.113832
 30
0.000000
  0
VERTEX
  8
LAYER-2
 10
2.291802
 20
23.107137
 30
0.000000
  0
SEQEND
  8
LAYER-2
  0
ARC
  8
LAYER-2
 62
  0
 10
2.256802
 20
23.113832
 30
0.000000
 40
0.035000
 50
0.000000
 51
90.000000
  0
POLYLINE
  8
LAYER-2
 66
  1
 70
  0
 62
  0
 10
2.256471
 20
23.148831
 30
0.000000
  0
VERTEX
  8
LAYER-2
 10
2.256471
 20
23.148831
 30
0.000000
  0
VERTEX
  8
LAYER-2
 10
2.256802
 20
23.148831
 30
0.000000
  0
SEQEND
  8
LAYER-2
  0
ARC
  8
LAYER-2
 62
  0
 10
2.256471
 20
23.113832
 30
0.000000
 40
0.035000
 50
90.000000
 51
180.000000
  0
POLYLINE
  8
LAYER-2
 66
  1
 70
  0
 62
  0
 10
2.221472
 20
23.113832
 30
0.000000
  0
VERTEX
  8
LAYER-2
 10
2.221472
 20
23.113832
 30
0.000000
  0
VERTEX
  8
LAYER-2
 10
2.221472
 20
21.621992
 30
0.000000
  0
SEQEND
  8
LAYER-2
  0
ARC
  8
LAYER-2
 62
  0
 10
2.256471
 20
21.621992
 30
0.000000
 40
0.035000
 50
180.000000
 51
270.000000
  0
POLYLINE
  8
LAYER-2
 66
  1
 70
  0
 62
  0
 10
2.256471
 20
21.586992
 30
0.000000
  0
VERTEX
  8
LAYER-2
 10
2.256471
 20
21.586992
 30
0.000000
  0
VERTEX
  8
LAYER-2
 10
2.424699
 20
21.587001
 30
0.000000
  0
SEQEND
  8
LAYER-2
  0
ARC
  8
LAYER-2
 62
  0
 10
2.522138
 20
21.541863
 30
0.000000
 40
0.107387
 50
155.143982
 51
213.174698
  0
ARC
  8
LAYER-2
 62
  0
 10
2.457172
 20
21.499393
 30
0.000000
 40
0.029771
 50
213.178543
 51
33.178799
  0
ARC
  8
LAYER-2
 62
  0
 10
2.522138
 20
21.541863
 30
0.000000
 40
0.047844
 50
327.054993
 51
213.169800
  0
ARC
  8
LAYER-2
 62
  0
 10
2.587416
 20
21.499513
 30
0.000000
 40
0.029968
 50
146.983093
 51
326.983093
  0
ARC
  8
LAYER-2
 62
  0
 10
2.522138
 20
21.541863
 30
0.000000
 40
0.107781
 50
327.014923
 51
24.759079
  0
POLYLINE
  8
LAYER-2
 66
  1
 70
  0
 62
  0
 10
2.650493
 20
21.586992
 30
0.000000
  0
VERTEX
  8
LAYER-2
 10
2.650493
 20
21.586992
 30
0.000000
  0
VERTEX
  8
LAYER-2
 10
2.620011
 20
21.587001
 30
0.000000
  0
SEQEND
  8
LAYER-2
  0
POLYLINE
  8
LAYER-2
 66
  1
 70
  0
 62
  0
 10
2.650493
 20
21.705522
 30
0.000000
  0
VERTEX
  8
LAYER-2
 10
2.650493
 20
21.705522
 30
0.000000
  0
VERTEX
  8
LAYER-2
 10
2.650493
 20
21.586992
 30
0.000000
  0
SEQEND
  8
LAYER-2
  0
POLYLINE
  8
LAYER-2
 66
  1
 70
  0
 62
  0
 10
2.330486
 20
21.806627
 30
0.000000
  0
VERTEX
  8
LAYER-2
 10
2.330486
 20
21.806627
 30
0.000000
  0
VERTEX
  8
LAYER-2
 10
2.650493
 20
21.705522
 30
0.000000
  0
SEQEND
  8
LAYER-2
  0
POLYLINE
  8
LAYER-2
 66
  1
 70
  0
 62
  0
 10
2.330486
 20
21.806627
 30
0.000000
  0
VERTEX
  8
LAYER-2
 10
2.330486
 20
21.806627
 30
0.000000
  0
VERTEX
  8
LAYER-2
 10
2.330486
 20
21.928034
 30
0.000000
  0
SEQEND
  8
LAYER-2
  0
ARC
  8
LAYER-2
 62
  0
 10
2.295486
 20
21.928034
 30
0.000000
 40
0.035000
 50
0.000000
 51
84.851196
  0
POLYLINE
  8
LAYER-2
 66
  1
 70
  0
 62
  0
 10
2.291802
 20
21.963508
 30
0.000000
  0
VERTEX
  8
LAYER-2
 10
2.291802
 20
21.963508
 30
0.000000
  0
VERTEX
  8
LAYER-2
 10
2.298628
 20
21.962894
 30
0.000000
  0
SEQEND
  8
LAYER-2
  0
POLYLINE
  8
LAYER-2
 66
  1
 70
  0
 62
  0
 10
2.291802
 20
21.963508
 30
0.000000
  0
VERTEX
  8
LAYER-2
 10
2.291802
 20
21.963508
 30
0.000000
  0
VERTEX
  8
LAYER-2
 10
2.291802
 20
22.960439
 30
0.000000
  0
SEQEND
  8
LAYER-2
  0
ARC
  8
LAYER-2
 62
  0
 10
2.326802
 20
22.960439
 30
0.000000
 40
0.035000
 50
90.000000
 51
180.000000
  0
POLYLINE
  8
LAYER-2
 66
  1
 70
  0
 62
  0
 10
2.326802
 20
22.995439
 30
0.000000
  0
VERTEX
  8
LAYER-2
 10
2.326802
 20
22.995439
 30
0.000000
  0
VERTEX
  8
LAYER-2
 10
2.418567
 20
22.995439
 30
0.000000
  0
SEQEND
  8
LAYER-2
  0
ARC
  8
LAYER-2
 62
  0
 10
2.418567
 20
22.960439
 30
0.000000
 40
0.035000
 50
0.000000
 51
90.000000
  0
POLYLINE
  8
LAYER-2
 66
  1
 70
  0
 62
  0
 10
2.453567
 20
22.960439
 30
0.000000
  0
VERTEX
  8
LAYER-2
 10
2.453567
 20
22.960439
 30
0.000000
  0
VERTEX
  8
LAYER-2
 10
2.453567
 20
22.953740
 30
0.000000
  0
SEQEND
  8
LAYER-2
  0
ARC
  8
LAYER-2
 62
  0
 10
2.488567
 20
22.953740
 30
0.000000
 40
0.035000
 50
180.000000
 51
270.000000
  0
POLYLINE
  8
LAYER-2
 66
  1
 70
  0
 62
  0
 10
2.488567
 20
22.918740
 30
0.000000
  0
VERTEX
  8
LAYER-2
 10
2.488567
 20
22.918740
 30
0.000000
  0
VERTEX
  8
LAYER-2
 10
2.553122
 20
22.918740
 30
0.000000
  0
SEQEND
  8
LAYER-2
  0
ARC
  8
LAYER-2
 62
  0
 10
2.553122
 20
22.938741
 30
0.000000
 40
0.020000
 50
270.000000
 51
0.000000
  0
POLYLINE
  8
LAYER-2
 66
  1
 70
  0
 62
  0
 10
2.573122
 20
22.954522
 30
0.000000
  0
VERTEX
  8
LAYER-2
 10
2.573122
 20
22.954522
 30
0.000000
  0
VERTEX
  8
LAYER-2
 10
2.573122
 20
22.938741
 30
0.000000
  0
SEQEND
  8
LAYER-2
  0
ARC
  8
LAYER-2
 62
  0
 10
2.553122
 20
22.954522
 30
0.000000
 40
0.020000
 50
0.000000
 51
90.000000
  0
POLYLINE
  8
LAYER-2
 66
  1
 70
  0
 62
  0
 10
2.550929
 20
22.974521
 30
0.000000
  0
VERTEX
  8
LAYER-2
 10
2.550929
 20
22.974521
 30
0.000000
  0
VERTEX
  8
LAYER-2
 10
2.553122
 20
22.974521
 30
0.000000
  0
SEQEND
  8
LAYER-2
  0
ARC
  8
LAYER-2
 62
  0
 10
2.550929
 20
22.994520
 30
0.000000
 40
0.020000
 50
180.000000
 51
270.000000
  0
POLYLINE
  8
LAYER-2
 66
  1
 70
  0
 62
  0
 10
2.530930
 20
23.037137
 30
0.000000
  0
VERTEX
  8
LAYER-2
 10
2.530930
 20
23.037137
 30
0.000000
  0
VERTEX
  8
LAYER-2
 10
2.530930
 20
22.994520
 30
0.000000
  0
SEQEND
  8
LAYER-2
  0
ARC
  8
LAYER-2
 62
  0
 10
2.565929
 20
23.037137
 30
0.000000
 40
0.035000
 50
90.000000
 51
180.000000
  0
POLYLINE
  8
LAYER-2
 66
  1
 70
  0
 62
  0
 10
2.565929
 20
23.072137
 30
0.000000
  0
VERTEX
  8
LAYER-2
 10
2.565929
 20
23.072137
 30
0.000000
  0
VERTEX
  8
LAYER-2
 10
3.185172
 20
23.072137
 30
0.000000
  0
SEQEND
  8
LAYER-2
  0
ARC
  8
LAYER-2
 62
  0
 10
3.185172
 20
23.037137
 30
0.000000
 40
0.035000
 50
0.000000
 51
90.000000
  0
POLYLINE
  8
LAYER-2
 66
  1
 70
  0
 62
  0
 10
3.220171
 20
23.037137
 30
0.000000
  0
VERTEX
  8
LAYER-2
 10
3.220171
 20
23.037137
 30
0.000000
  0
VERTEX
  8
LAYER-2
 10
3.220171
 20
22.994520
 30
0.000000
  0
SEQEND
  8
LAYER-2
  0
ARC
  8
LAYER-2
 62
  0
 10
3.200172
 20
22.994520
 30
0.000000
 40
0.020000
 50
270.000000
 51
0.000000
  0
POLYLINE
  8
LAYER-2
 66
  1
 70
  0
 62
  0
 10
3.200172
 20
22.974521
 30
0.000000
  0
VERTEX
  8
LAYER-2
 10
3.200172
 20
22.974521
 30
0.000000
  0
VERTEX
  8
LAYER-2
 10
3.197970
 20
22.974521
 30
0.000000
  0
SEQEND
  8
LAYER-2
  0
ARC
  8
LAYER-2
 62
  0
 10
3.197970
 20
22.954522
 30
0.000000
 40
0.020000
 50
90.000000
 51
180.000000
  0
POLYLINE
  8
LAYER-2
 66
  1
 70
  0
 62
  0
 10
3.177971
 20
22.954522
 30
0.000000
  0
VERTEX
  8
LAYER-2
 10
3.177971
 20
22.954522
 30
0.000000
  0
VERTEX
  8
LAYER-2
 10
3.177971
 20
22.938741
 30
0.000000
  0
SEQEND
  8
LAYER-2
  0
ARC
  8
LAYER-2
 62
  0
 10
3.197970
 20
22.938741
 30
0.000000
 40
0.020000
 50
180.000000
 51
270.000000
  0
POLYLINE
  8
LAYER-2
 66
  1
 70
  0
 62
  0
 10
3.262533
 20
22.918740
 30
0.000000
  0
VERTEX
  8
LAYER-2
 10
3.262533
 20
22.918740
 30
0.000000
  0
VERTEX
  8
LAYER-2
 10
3.197970
 20
22.918740
 30
0.000000
  0
SEQEND
  8
LAYER-2
  0
ARC
  8
LAYER-2
 62
  0
 10
3.262533
 20
22.953740
 30
0.000000
 40
0.035000
 50
270.000000
 51
0.000000
  0
POLYLINE
  8
LAYER-2
 66
  1
 70
  0
 62
  0
 10
3.297534
 20
22.960439
 30
0.000000
  0
VERTEX
  8
LAYER-2
 10
3.297534
 20
22.960439
 30
0.000000
  0
VERTEX
  8
LAYER-2
 10
3.297534
 20
22.953740
 30
0.000000
  0
SEQEND
  8
LAYER-2
  0
ARC
  8
LAYER-2
 62
  0
 10
3.332534
 20
22.960439
 30
0.000000
 40
0.035000
 50
90.000000
 51
180.000000
  0
POLYLINE
  8
LAYER-2
 66
  1
 70
  0
 62
  0
 10
3.332534
 20
22.995439
 30
0.000000
  0
VERTEX
  8
LAYER-2
 10
3.332534
 20
22.995439
 30
0.000000
  0
VERTEX
  8
LAYER-2
 10
3.424290
 20
22.995439
 30
0.000000
  0
SEQEND
  8
LAYER-2
  0
ARC
  8
LAYER-2
 62
  0
 10
3.424290
 20
22.960439
 30
0.000000
 40
0.035000
 50
0.000000
 51
90.000000
  0
POLYLINE
  8
LAYER-2
 66
  1
 70
  0
 62
  0
 10
3.459291
 20
21.963508
 30
0.000000
  0
VERTEX
  8
LAYER-2
 10
3.459291
 20
21.963508
 30
0.000000
  0
VERTEX
  8
LAYER-2
 10
3.459291
 20
22.960439
 30
0.000000
  0
SEQEND
  8
LAYER-2
  0
POLYLINE
  8
LAYER-2
 66
  1
 70
  0
 62
  0
 10
3.459291
 20
21.963508
 30
0.000000
  0
VERTEX
  8
LAYER-2
 10
3.459291
 20
21.963508
 30
0.000000
  0
VERTEX
  8
LAYER-2
 10
3.449216
 20
21.962677
 30
0.000000
  0
SEQEND
  8
LAYER-2
  0
ARC
  8
LAYER-2
 62
  0
 10
3.452097
 20
21.927795
 30
0.000000
 40
0.035000
 50
94.722626
 51
180.000000
  0
POLYLINE
  8
LAYER-2
 66
  1
 70
  0
 62
  0
 10
3.417098
 20
21.806627
 30
0.000000
  0
VERTEX
  8
LAYER-2
 10
3.417098
 20
21.806627
 30
0.000000
  0
VERTEX
  8
LAYER-2
 10
3.417098
 20
21.927795
 30
0.000000
  0
SEQEND
  8
LAYER-2
  0
POLYLINE
  8
LAYER-2
 66
  1
 70
  0
 62
  0
 10
3.107641
 20
21.705522
 30
0.000000
  0
VERTEX
  8
LAYER-2
 10
3.107641
 20
21.705522
 30
0.000000
  0
VERTEX
  8
LAYER-2
 10
3.417098
 20
21.806627
 30
0.000000
  0
SEQEND
  8
LAYER-2
  0
POLYLINE
  8
LAYER-2
 66
  1
 70
  0
 62
  0
 10
3.107641
 20
21.705522
 30
0.000000
  0
VERTEX
  8
LAYER-2
 10
3.107641
 20
21.705522
 30
0.000000
  0
VERTEX
  8
LAYER-2
 10
3.107641
 20
21.586992
 30
0.000000
  0
SEQEND
  8
LAYER-2
  0
POLYLINE
  8
LAYER-2
 66
  1
 70
  0
 62
  0
 10
3.138022
 20
21.587002
 30
0.000000
  0
VERTEX
  8
LAYER-2
 10
3.138022
 20
21.587002
 30
0.000000
  0
VERTEX
  8
LAYER-2
 10
3.107641
 20
21.586992
 30
0.000000
  0
SEQEND
  8
LAYER-2
  0
ARC
  8
LAYER-2
 62
  0
 10
3.235895
 20
21.541863
 30
0.000000
 40
0.107781
 50
155.240906
 51
212.985077
  0
ARC
  8
LAYER-2
 62
  0
 10
3.170615
 20
21.499513
 30
0.000000
 40
0.029968
 50
213.016891
 51
33.016964
  0
ARC
  8
LAYER-2
 62
  0
 10
3.235895
 20
21.541863
 30
0.000000
 40
0.047844
 50
326.830200
 51
212.945007
  0
ARC
  8
LAYER-2
 62
  0
 10
3.300860
 20
21.499393
 30
0.000000
 40
0.029771
 50
146.821594
 51
326.821320
  0
POLYLINE
  8
LAYER-2
 66
  1
 70
  0
 62
  7
 10
2.679763
 20
21.838209
 30
0.000000
  0
VERTEX
  8
LAYER-2
 10
2.679763
 20
21.838209
 30
0.000000
  0
VERTEX
  8
LAYER-2
 10
2.666410
 20
21.904760
 30
0.000000
  0
VERTEX
  8
LAYER-2
 10
2.628385
 20
21.961178
 30
0.000000
  0
VERTEX
  8
LAYER-2
 10
2.571476
 20
21.998876
 30
0.000000
  0
VERTEX
  8
LAYER-2
 10
2.504347
 20
22.012114
 30
0.000000
  0
VERTEX
  8
LAYER-2
 10
2.437218
 20
21.998876
 30
0.000000
  0
VERTEX
  8
LAYER-2
 10
2.380309
 20
21.961178
 30
0.000000
  0
VERTEX
  8
LAYER-2
 10
2.342284
 20
21.904760
 30
0.000000
  0
VERTEX
  8
LAYER-2
 10
2.328931
 20
21.838209
 30
0.000000
  0
VERTEX
  8
LAYER-2
 10
2.342284
 20
21.771657
 30
0.000000
  0
VERTEX
  8
LAYER-2
 10
2.380309
 20
21.715239
 30
0.000000
  0
VERTEX
  8
LAYER-2
 10
2.437218
 20
21.677541
 30
0.000000
  0
VERTEX
  8
LAYER-2
 10
2.504347
 20
21.664303
 30
0.000000
  0
VERTEX
  8
LAYER-2
 10
2.571476
 20
21.677541
 30
0.000000
  0
VERTEX
  8
LAYER-2
 10
2.628385
 20
21.715239
 30
0.000000
  0
VERTEX
  8
LAYER-2
 10
2.666410
 20
21.771657
 30
0.000000
  0
VERTEX
  8
LAYER-2
 10
2.679763
 20
21.838209
 30
0.000000
  0
SEQEND
  8
LAYER-2
  0
POLYLINE
  8
LAYER-2
 66
  1
 70
  0
 62
  7
 10
3.410947
 20
21.845886
 30
0.000000
  0
VERTEX
  8
LAYER-2
 10
3.410947
 20
21.845886
 30
0.000000
  0
VERTEX
  8
LAYER-2
 10
3.397594
 20
21.912437
 30
0.000000
  0
VERTEX
  8
LAYER-2
 10
3.359569
 20
21.968855
 30
0.000000
  0
VERTEX
  8
LAYER-2
 10
3.302660
 20
22.006553
 30
0.000000
  0
VERTEX
  8
LAYER-2
 10
3.235531
 20
22.019791
 30
0.000000
  0
VERTEX
  8
LAYER-2
 10
3.168402
 20
22.006553
 30
0.000000
  0
VERTEX
  8
LAYER-2
 10
3.111493
 20
21.968855
 30
0.000000
  0
VERTEX
  8
LAYER-2
 10
3.073468
 20
21.912437
 30
0.000000
  0
VERTEX
  8
LAYER-2
 10
3.060115
 20
21.845886
 30
0.000000
  0
VERTEX
  8
LAYER-2
 10
3.073468
 20
21.779336
 30
0.000000
  0
VERTEX
  8
LAYER-2
 10
3.111493
 20
21.722916
 30
0.000000
  0
VERTEX
  8
LAYER-2
 10
3.168402
 20
21.685218
 30
0.000000
  0
VERTEX
  8
LAYER-2
 10
3.235531
 20
21.671980
 30
0.000000
  0
VERTEX
  8
LAYER-2
 10
3.302660
 20
21.685218
 30
0.000000
  0
VERTEX
  8
LAYER-2
 10
3.359569
 20
21.722916
 30
0.000000
  0
VERTEX
  8
LAYER-2
 10
3.397594
 20
21.779336
 30
0.000000
  0
VERTEX
  8
LAYER-2
 10
3.410947
 20
21.845886
 30
0.000000
  0
SEQEND
  8
LAYER-2
  0
LINE
  8
LAYER-2
 62
  0
 10
1.309029
 20
21.606676
 30
0.000000
 11
1.309029
 21
23.129147
 31
0.000000
  0
LINE
  8
LAYER-2
 62
  0
 10
2.131471
 20
21.586992
 30
0.000000
 11
1.059029
 21
21.586992
 31
0.000000
  0
LINE
  8
LAYER-2
 62
  0
 10
2.131471
 20
23.148831
 30
0.000000
 11
1.059029
 21
23.148831
 31
0.000000
  0
LINE
  8
LAYER-2
 62
  0
 10
1.309029
 20
22.378791
 30
0.000000
 11
1.309029
 21
21.586992
 31
0.000000
  0
POLYLINE
  8
LAYER-2
 66
  1
 70
  1
 62
  0
  0
VERTEX
  8
LAYER-2
 10
1.309029
 20
21.586992
 30
0.000000
  0
VERTEX
  8
LAYER-2
 10
1.392363
 20
21.725881
 30
0.000000
  0
VERTEX
  8
LAYER-2
 10
1.309030
 20
21.725881
 30
0.000000
  0
VERTEX
  8
LAYER-2
 10
1.225697
 20
21.725881
 30
0.000000
  0
VERTEX
  8
LAYER-2
 10
1.309029
 20
21.586992
 30
0.000000
  0
SEQEND
  8
LAYER-2
  0
POLYLINE
  8
LAYER-2
 66
  1
 70
  1
 62
  0
  0
VERTEX
  8
LAYER-2
 10
1.309029
 20
23.148831
 30
0.000000
  0
VERTEX
  8
LAYER-2
 10
1.392362
 20
23.009942
 30
0.000000
  0
VERTEX
  8
LAYER-2
 10
1.309029
 20
23.009942
 30
0.000000
  0
VERTEX
  8
LAYER-2
 10
1.225695
 20
23.009944
 30
0.000000
  0
VERTEX
  8
LAYER-2
 10
1.309029
 20
23.148831
 30
0.000000
  0
SEQEND
  8
LAYER-2
  0
TEXT
  8
LAYER-2
 62
  0
 10
1.230534
 20
22.553417
 30
0.000000
 40
0.250000
  1
1-9/16"
  0
TEXT
  8
LAYER-2
 62
  0
 10
2.388889
 20
23.173933
 30
0.000000
 40
0.250000
  1
(33mm)
 72
  5
 11
3.750000
 21
23.173933
 31
0.000000
  0
TEXT
  8
LAYER-2
 62
  0
 10
0.805556
 20
21.979489
 30
0.000000
 40
0.250000
  1
(40mm)
 72
  5
 11
2.166667
 21
21.979489
 31
0.000000
  0
POLYLINE
  8
LAYER-2
 66
  1
 70
  0
 62
  0
 10
3.374004
 20
22.678725
 30
0.000000
  0
VERTEX
  8
LAYER-2
 10
3.374004
 20
22.678725
 30
0.000000
  0
VERTEX
  8
LAYER-2
 10
3.361733
 20
22.723075
 30
0.000000
  0
VERTEX
  8
LAYER-2
 10
3.332395
 20
22.759004
 30
0.000000
  0
VERTEX
  8
LAYER-2
 10
3.288486
 20
22.783010
 30
0.000000
  0
VERTEX
  8
LAYER-2
 10
3.236692
 20
22.791441
 30
0.000000
  0
VERTEX
  8
LAYER-2
 10
3.184898
 20
22.783010
 30
0.000000
  0
VERTEX
  8
LAYER-2
 10
3.140989
 20
22.759004
 30
0.000000
  0
VERTEX
  8
LAYER-2
 10
3.111650
 20
22.723075
 30
0.000000
  0
VERTEX
  8
LAYER-2
 10
3.103316
 20
22.678725
 30
0.000000
  0
SEQEND
  8
LAYER-2
  0
POLYLINE
  8
LAYER-2
 66
  1
 70
  0
 62
  0
 10
3.103312
 20
22.678725
 30
0.000000
  0
VERTEX
  8
LAYER-2
 10
3.103312
 20
22.678725
 30
0.000000
  0
VERTEX
  8
LAYER-2
 10
3.103312
 20
21.787716
 30
0.000000
  0
SEQEND
  8
LAYER-2
  0
POLYLINE
  8
LAYER-2
 66
  1
 70
  0
 62
  0
 10
3.374004
 20
22.678725
 30
0.000000
  0
VERTEX
  8
LAYER-2
 10
3.374004
 20
22.678725
 30
0.000000
  0
VERTEX
  8
LAYER-2
 10
3.374004
 20
21.787716
 30
0.000000
  0
SEQEND
  8
LAYER-2
  0
POLYLINE
  8
LAYER-2
 66
  1
 70
  0
 62
  0
 10
3.103316
 20
21.787716
 30
0.000000
  0
VERTEX
  8
LAYER-2
 10
3.103316
 20
21.787716
 30
0.000000
  0
VERTEX
  8
LAYER-2
 10
3.111650
 20
21.747304
 30
0.000000
  0
VERTEX
  8
LAYER-2
 10
3.140989
 20
21.711375
 30
0.000000
  0
VERTEX
  8
LAYER-2
 10
3.184898
 20
21.687369
 30
0.000000
  0
VERTEX
  8
LAYER-2
 10
3.236692
 20
21.678938
 30
0.000000
  0
VERTEX
  8
LAYER-2
 10
3.288486
 20
21.687369
 30
0.000000
  0
VERTEX
  8
LAYER-2
 10
3.332395
 20
21.711375
 30
0.000000
  0
VERTEX
  8
LAYER-2
 10
3.361733
 20
21.747304
 30
0.000000
  0
VERTEX
  8
LAYER-2
 10
3.374004
 20
21.787716
 30
0.000000
  0
SEQEND
  8
LAYER-2
  0
POLYLINE
  8
LAYER-2
 66
  1
 70
  0
 62
  0
 10
2.635495
 20
22.678073
 30
0.000000
  0
VERTEX
  8
LAYER-2
 10
2.635495
 20
22.678073
 30
0.000000
  0
VERTEX
  8
LAYER-2
 10
2.623222
 20
22.722656
 30
0.000000
  0
VERTEX
  8
LAYER-2
 10
2.593879
 20
22.758786
 30
0.000000
  0
VERTEX
  8
LAYER-2
 10
2.549964
 20
22.782925
 30
0.000000
  0
VERTEX
  8
LAYER-2
 10
2.498162
 20
22.791402
 30
0.000000
  0
VERTEX
  8
LAYER-2
 10
2.446360
 20
22.782925
 30
0.000000
  0
VERTEX
  8
LAYER-2
 10
2.402445
 20
22.758786
 30
0.000000
  0
VERTEX
  8
LAYER-2
 10
2.373102
 20
22.722656
 30
0.000000
  0
VERTEX
  8
LAYER-2
 10
2.364766
 20
22.678073
 30
0.000000
  0
SEQEND
  8
LAYER-2
  0
POLYLINE
  8
LAYER-2
 66
  1
 70
  0
 62
  0
 10
2.364767
 20
22.678073
 30
0.000000
  0
VERTEX
  8
LAYER-2
 10
2.364767
 20
22.678073
 30
0.000000
  0
VERTEX
  8
LAYER-2
 10
2.364767
 20
21.782121
 30
0.000000
  0
SEQEND
  8
LAYER-2
  0
POLYLINE
  8
LAYER-2
 66
  1
 70
  0
 62
  0
 10
2.635505
 20
22.678073
 30
0.000000
  0
VERTEX
  8
LAYER-2
 10
2.635505
 20
22.678073
 30
0.000000
  0
VERTEX
  8
LAYER-2
 10
2.635505
 20
21.782121
 30
0.000000
  0
SEQEND
  8
LAYER-2
  0
POLYLINE
  8
LAYER-2
 66
  1
 70
  0
 62
  0
 10
2.364766
 20
21.782121
 30
0.000000
  0
VERTEX
  8
LAYER-2
 10
2.364766
 20
21.782121
 30
0.000000
  0
VERTEX
  8
LAYER-2
 10
2.373102
 20
21.741474
 30
0.000000
  0
VERTEX
  8
LAYER-2
 10
2.402445
 20
21.705346
 30
0.000000
  0
VERTEX
  8
LAYER-2
 10
2.446360
 20
21.681205
 30
0.000000
  0
VERTEX
  8
LAYER-2
 10
2.498162
 20
21.672728
 30
0.000000
  0
VERTEX
  8
LAYER-2
 10
2.549964
 20
21.681205
 30
0.000000
  0
VERTEX
  8
LAYER-2
 10
2.593879
 20
21.705346
 30
0.000000
  0
VERTEX
  8
LAYER-2
 10
2.623222
 20
21.741474
 30
0.000000
  0
VERTEX
  8
LAYER-2
 10
2.635495
 20
21.782121
 30
0.000000
  0
SEQEND
  8
LAYER-2
  0
POLYLINE
  8
LAYER-2
 66
  1
 70
  1
 62
  0
  0
VERTEX
  8
LAYER-2
 10
2.635806
 20
22.435103
 30
0.000000
  0
VERTEX
  8
LAYER-2
 10
3.102990
 20
22.435103
 30
0.000000
  0
VERTEX
  8
LAYER-2
 10
3.102990
 20
21.987128
 30
0.000000
  0
VERTEX
  8
LAYER-2
 10
2.635806
 20
21.987128
 30
0.000000
  0
SEQEND
  8
LAYER-2
  0
LINE
  8
LAYER-2
 62
  0
 10
3.784722
 20
21.696655
 30
0.000000
 11
3.784722
 21
22.769787
 31
0.000000
  0
LINE
  8
LAYER-2
 62
  0
 10
3.363660
 20
21.676970
 30
0.000000
 11
4.034722
 21
21.676970
 31
0.000000
  0
LINE
  8
LAYER-2
 62
  0
 10
3.363660
 20
22.789473
 30
0.000000
 11
4.034722
 21
22.789473
 31
0.000000
  0
LINE
  8
LAYER-2
 62
  0
 10
3.784722
 20
22.493378
 30
0.000000
 11
3.784722
 21
21.676970
 31
0.000000
  0
POLYLINE
  8
LAYER-2
 66
  1
 70
  1
 62
  0
  0
VERTEX
  8
LAYER-2
 10
3.784722
 20
21.676970
 30
0.000000
  0
VERTEX
  8
LAYER-2
 10
3.868056
 20
21.815859
 30
0.000000
  0
VERTEX
  8
LAYER-2
 10
3.784723
 20
21.815859
 30
0.000000
  0
VERTEX
  8
LAYER-2
 10
3.701389
 20
21.815860
 30
0.000000
  0
VERTEX
  8
LAYER-2
 10
3.784722
 20
21.676970
 30
0.000000
  0
SEQEND
  8
LAYER-2
  0
POLYLINE
  8
LAYER-2
 66
  1
 70
  1
 62
  0
  0
VERTEX
  8
LAYER-2
 10
3.784722
 20
22.789473
 30
0.000000
  0
VERTEX
  8
LAYER-2
 10
3.868055
 20
22.650584
 30
0.000000
  0
VERTEX
  8
LAYER-2
 10
3.784722
 20
22.650584
 30
0.000000
  0
VERTEX
  8
LAYER-2
 10
3.701388
 20
22.650584
 30
0.000000
  0
VERTEX
  8
LAYER-2
 10
3.784722
 20
22.789473
 30
0.000000
  0
SEQEND
  8
LAYER-2
  0
TEXT
  8
LAYER-2
 62
  0
 10
4.057032
 20
22.316815
 30
0.000000
 40
0.250000
  1
 
 50
90.000000
  0
TEXT
  8
LAYER-2
 62
  0
 10
4.027778
 20
22.451711
 30
0.000000
 40
0.208333
  1
Roulettes
 72
  5
 11
5.388889
 21
22.451711
 31
0.000000
  0
TEXT
  8
LAYER-2
 62
  0
 10
4.027778
 20
22.146155
 30
0.000000
 40
0.208333
  1
1-1/8" ¯
 72
  5
 11
5.250000
 21
22.146155
 31
0.000000
  0
TEXT
  8
LAYER-2
 62
  0
 10
4.027778
 20
21.840600
 30
0.000000
 40
0.208333
  1
(29mm)
 72
  5
 11
5.111111
 21
21.840600
 31
0.000000
  0
TEXT
  8
LAYER-2
 62
  0
 10
2.694445
 20
21.118378
 30
0.000000
 40
0.208333
  1
1"
 72
  5
 11
3.111111
 21
21.118378
 31
0.000000
  0
TEXT
  8
LAYER-2
 62
  0
 10
2.361111
 20
20.673933
 30
0.000000
 40
0.208333
  1
(25mm)
 72
  5
 11
3.444445
 21
20.673933
 31
0.000000
  0
POLYLINE
  8
LAYER-2
 66
  1
 70
  0
 62
  0
 10
2.387742
 20
21.007267
 30
0.000000
  0
VERTEX
  8
LAYER-2
 10
2.387742
 20
21.007267
 30
0.000000
  0
VERTEX
  8
LAYER-2
 10
3.362261
 20
21.007267
 30
0.000000
  0
SEQEND
  8
LAYER-2
  0
POLYLINE
  8
LAYER-2
 66
  1
 70
  1
 62
  0
  0
VERTEX
  8
LAYER-2
 10
2.368057
 20
21.007267
 30
0.000000
  0
VERTEX
  8
LAYER-2
 10
2.506947
 20
20.923933
 30
0.000000
  0
VERTEX
  8
LAYER-2
 10
2.506946
 20
21.007267
 30
0.000000
  0
VERTEX
  8
LAYER-2
 10
2.506946
 20
21.090600
 30
0.000000
  0
VERTEX
  8
LAYER-2
 10
2.368057
 20
21.007267
 30
0.000000
  0
SEQEND
  8
LAYER-2
  0
POLYLINE
  8
LAYER-2
 66
  1
 70
  1
 62
  0
  0
VERTEX
  8
LAYER-2
 10
3.381946
 20
21.007267
 30
0.000000
  0
VERTEX
  8
LAYER-2
 10
3.243057
 20
20.923933
 30
0.000000
  0
VERTEX
  8
LAYER-2
 10
3.243057
 20
21.007267
 30
0.000000
  0
VERTEX
  8
LAYER-2
 10
3.243056
 20
21.090600
 30
0.000000
  0
VERTEX
  8
LAYER-2
 10
3.381946
 20
21.007267
 30
0.000000
  0
SEQEND
  8
LAYER-2
  0
POLYLINE
  8
LAYER-2
 66
  1
 70
  0
 62
  0
 10
3.381946
 20
20.944767
 30
0.000000
  0
VERTEX
  8
LAYER-2
 10
3.381946
 20
20.944767
 30
0.000000
  0
VERTEX
  8
LAYER-2
 10
3.381946
 20
21.548933
 30
0.000000
  0
SEQEND
  8
LAYER-2
  0
POLYLINE
  8
LAYER-2
 66
  1
 70
  0
 62
  0
 10
2.368057
 20
20.937822
 30
0.000000
  0
VERTEX
  8
LAYER-2
 10
2.368057
 20
20.937822
 30
0.000000
  0
VERTEX
  8
LAYER-2
 10
2.368057
 20
21.555878
 30
0.000000
  0
SEQEND
  8
LAYER-2
  0
LINE
  8
LAYER-2
 62
  0
 10
2.241157
 20
23.632267
 30
0.000000
 11
3.516976
 21
23.632267
 31
0.000000
  0
LINE
  8
LAYER-2
 62
  0
 10
2.221472
 20
23.238832
 30
0.000000
 11
2.221472
 21
23.882267
 31
0.000000
  0
LINE
  8
LAYER-2
 62
  0
 10
3.536661
 20
23.238832
 30
0.000000
 11
3.536661
 21
23.882267
 31
0.000000
  0
POLYLINE
  8
LAYER-2
 66
  1
 70
  1
 62
  0
  0
VERTEX
  8
LAYER-2
 10
2.221472
 20
23.632267
 30
0.000000
  0
VERTEX
  8
LAYER-2
 10
2.360361
 20
23.548933
 30
0.000000
  0
VERTEX
  8
LAYER-2
 10
2.360360
 20
23.632267
 30
0.000000
  0
VERTEX
  8
LAYER-2
 10
2.360360
 20
23.715600
 30
0.000000
  0
VERTEX
  8
LAYER-2
 10
2.221472
 20
23.632267
 30
0.000000
  0
SEQEND
  8
LAYER-2
  0
POLYLINE
  8
LAYER-2
 66
  1
 70
  1
 62
  0
  0
VERTEX
  8
LAYER-2
 10
3.536661
 20
23.632267
 30
0.000000
  0
VERTEX
  8
LAYER-2
 10
3.397773
 20
23.548933
 30
0.000000
  0
VERTEX
  8
LAYER-2
 10
3.397772
 20
23.632267
 30
0.000000
  0
VERTEX
  8
LAYER-2
 10
3.397772
 20
23.715600
 30
0.000000
  0
VERTEX
  8
LAYER-2
 10
3.536661
 20
23.632267
 30
0.000000
  0
SEQEND
  8
LAYER-2
  0
TEXT
  8
LAYER-2
 62
  0
 10
2.801400
 20
23.892000
 30
0.000000
 40
0.250000
  1
1-5/16"
  0
POLYLINE
  8
LAYER-2
  6
LTYPE01
 66
  1
 70
  0
 62
  0
  6
LTYPE01
 10
11.370662
 20
23.267683
 30
0.000000
  0
VERTEX
  8
LAYER-2
  6
LTYPE01
 10
11.370662
 20
23.267683
 30
0.000000
  0
VERTEX
  8
LAYER-2
  6
LTYPE01
 10
12.325861
 20
23.523627
 30
0.000000
  0
SEQEND
  8
LAYER-2
  0
POLYLINE
  8
LAYER-2
  6
LTYPE01
 66
  1
 70
  0
 62
  0
  6
LTYPE01
 10
11.810672
 20
23.146635
 30
0.000000
  0
VERTEX
  8
LAYER-2
  6
LTYPE01
 10
11.810672
 20
23.146635
 30
0.000000
  0
VERTEX
  8
LAYER-2
  6
LTYPE01
 10
12.771746
 20
23.404154
 30
0.000000
  0
SEQEND
  8
LAYER-2
  0
POLYLINE
  8
LAYER-2
  6
LTYPE01
 66
  1
 70
  0
 62
  0
  6
LTYPE01
 10
11.809394
 20
23.061186
 30
0.000000
  0
VERTEX
  8
LAYER-2
  6
LTYPE01
 10
11.809394
 20
23.061186
 30
0.000000
  0
VERTEX
  8
LAYER-2
  6
LTYPE01
 10
12.771746
 20
23.319048
 30
0.000000
  0
SEQEND
  8
LAYER-2
  0
POLYLINE
  8
LAYER-2
  6
LTYPE01
 66
  1
 70
  0
 62
  0
  6
LTYPE01
 10
12.771746
 20
23.319048
 30
0.000000
  0
VERTEX
  8
LAYER-2
  6
LTYPE01
 10
12.771746
 20
23.319048
 30
0.000000
  0
VERTEX
  8
LAYER-2
  6
LTYPE01
 10
12.771746
 20
23.404154
 30
0.000000
  0
SEQEND
  8
LAYER-2
  0
POLYLINE
  8
LAYER-2
  6
LTYPE01
 66
  1
 70
  0
 62
  0
  6
LTYPE01
 10
12.771746
 20
23.404154
 30
0.000000
  0
VERTEX
  8
LAYER-2
  6
LTYPE01
 10
12.771746
 20
23.404154
 30
0.000000
  0
VERTEX
  8
LAYER-2
  6
LTYPE01
 10
12.325861
 20
23.523627
 30
0.000000
  0
SEQEND
  8
LAYER-2
  0
POLYLINE
  8
LAYER-2
  6
LTYPE01
 66
  1
 70
  0
 62
  0
  6
LTYPE01
 10
11.826792
 20
21.764431
 30
0.000000
  0
VERTEX
  8
LAYER-2
  6
LTYPE01
 10
11.826792
 20
21.764431
 30
0.000000
  0
VERTEX
  8
LAYER-2
  6
LTYPE01
 10
12.785634
 20
22.021352
 30
0.000000
  0
SEQEND
  8
LAYER-2
  0
POLYLINE
  8
LAYER-2
  6
LTYPE01
 66
  1
 70
  0
 62
  0
  6
LTYPE01
 10
11.852297
 20
21.694860
 30
0.000000
  0
VERTEX
  8
LAYER-2
  6
LTYPE01
 10
11.852297
 20
21.694860
 30
0.000000
  0
VERTEX
  8
LAYER-2
  6
LTYPE01
 10
12.811677
 20
21.951925
 30
0.000000
  0
SEQEND
  8
LAYER-2
  0
ARC
  8
LAYER-2
 62
  0
  6
LTYPE01
 10
12.787209
 20
21.982344
 30
0.000000
 40
0.039039
 50
308.811371
 51
92.311340
  0
TEXT
  8
LAYER-2
 62
  0
 10
2.333334
 20
20.340600
 30
0.000000
 40
0.208333
  1
Roulettes
 72
  5
 11
3.694445
 21
20.340600
 31
0.000000
  0
ENDSEC
  0
EOF
