  0
SECTION
  2
HEADER
999
MacDraft 5.0\0
  9
$ACADVER
  1
AC1006
  9
$CLAYER
  8
MERGEDLAYER-2
  9
$EXTMIN
 10
0.000000
 20
0.000000
  9
$EXTMAX
 10
7.074389
 20
10.223595
  9
$FASTZOOM
 70
0
  9
$FILLMODE
 70
1
  0
ENDSEC
  0
SECTION
  2
TABLES
  0
TABLE
  2
LTYPE
 70
16
  0
LTYPE
  2
CONTINUOUS
 70
64
  3
Solid Line
 72
65
 73
0
 40
0.000000
  0
LTYPE
  2
LTYPE01
 70
64
  3
CUSTOM
 72
65
 73
2
 40
0.072727
 49
0.054545
 49
-0.018182
  0
LTYPE
  2
LTYPE02
 70
64
  3
CUSTOM
 72
65
 73
2
 40
0.127273
 49
0.109091
 49
-0.018182
  0
LTYPE
  2
LTYPE03
 70
64
  3
CUSTOM
 72
65
 73
2
 40
0.245455
 49
0.218182
 49
-0.027273
  0
LTYPE
  2
LTYPE04
 70
64
  3
CUSTOM
 72
65
 73
2
 40
0.472727
 49
0.436364
 49
-0.036364
  0
LTYPE
  2
LTYPE05
 70
64
  3
CUSTOM
 72
65
 73
4
 40
0.100000
 49
0.054545
 49
-0.018182
 49
0.009091
 49
-0.018182
  0
LTYPE
  2
LTYPE06
 70
64
  3
CUSTOM
 72
65
 73
4
 40
0.154545
 49
0.109091
 49
-0.018182
 49
0.009091
 49
-0.018182
  0
LTYPE
  2
LTYPE07
 70
64
  3
CUSTOM
 72
65
 73
4
 40
0.290909
 49
0.218182
 49
-0.027273
 49
0.018182
 49
-0.027273
  0
LTYPE
  2
LTYPE08
 70
64
  3
CUSTOM
 72
65
 73
4
 40
0.527273
 49
0.436364
 49
-0.036364
 49
0.018182
 49
-0.036364
  0
LTYPE
  2
LTYPE09
 70
64
  3
CUSTOM
 72
65
 73
6
 40
0.127273
 49
0.054545
 49
-0.018182
 49
0.009091
 49
-0.018182
 49
0.009091
 49
-0.018182
  0
LTYPE
  2
LTYPE10
 70
64
  3
CUSTOM
 72
65
 73
6
 40
0.181818
 49
0.109091
 49
-0.018182
 49
0.009091
 49
-0.018182
 49
0.009091
 49
-0.018182
  0
LTYPE
  2
LTYPE11
 70
64
  3
CUSTOM
 72
65
 73
6
 40
0.327273
 49
0.218182
 49
-0.027273
 49
0.018182
 49
-0.018182
 49
0.018182
 49
-0.027273
  0
LTYPE
  2
LTYPE12
 70
64
  3
CUSTOM
 72
65
 73
6
 40
0.563636
 49
0.436364
 49
-0.036364
 49
0.018182
 49
-0.018182
 49
0.018182
 49
-0.036364
  0
LTYPE
  2
LTYPE13
 70
64
  3
CUSTOM
 72
65
 73
8
 40
0.209091
 49
0.109091
 49
-0.018182
 49
0.009091
 49
-0.018182
 49
0.009091
 49
-0.018182
 49
0.009091
 49
-0.018182
  0
LTYPE
  2
LTYPE14
 70
64
  3
CUSTOM
 72
65
 73
8
 40
0.363636
 49
0.218182
 49
-0.027273
 49
0.018182
 49
-0.018182
 49
0.018182
 49
-0.018182
 49
0.018182
 49
-0.027273
  0
LTYPE
  2
LTYPE15
 70
64
  3
CUSTOM
 72
65
 73
8
 40
0.618182
 49
0.436364
 49
-0.036364
 49
0.018182
 49
-0.027273
 49
0.018182
 49
-0.027273
 49
0.018182
 49
-0.036364
  0
ENDTAB
  0
TABLE
  2
LAYER
 70
1
  0
LAYER
  2
MERGEDLAYER-2
 70
0
 62
7
  6
CONTINUOUS
  0
ENDTAB
  0
ENDSEC
  0
SECTION
  2
BLOCKS
  0
ENDSEC
  0
SECTION
  2
ENTITIES
  0
POLYLINE
  8
MERGEDLAYER-2
 66
  1
 70
  1
 62
  7
 10
1.706698
 20
4.400307
 30
0.000000
  0
VERTEX
  8
MERGEDLAYER-2
 10
1.706698
 20
4.400307
 30
0.000000
  0
VERTEX
  8
MERGEDLAYER-2
 10
5.440676
 20
4.400307
 30
0.000000
  0
VERTEX
  8
MERGEDLAYER-2
 10
5.440676
 20
4.385168
 30
0.000000
  0
VERTEX
  8
MERGEDLAYER-2
 10
5.427071
 20
4.385168
 30
0.000000
  0
VERTEX
  8
MERGEDLAYER-2
 10
5.427071
 20
4.201788
 30
0.000000
  0
VERTEX
  8
MERGEDLAYER-2
 10
1.720832
 20
4.201788
 30
0.000000
  0
VERTEX
  8
MERGEDLAYER-2
 10
1.720832
 20
4.385345
 30
0.000000
  0
VERTEX
  8
MERGEDLAYER-2
 10
1.706698
 20
4.385345
 30
0.000000
  0
SEQEND
  8
MERGEDLAYER-2
  0
CIRCLE
  8
MERGEDLAYER-2
 62
  7
 10
3.576036
 20
4.321355
 30
0.000000
 40
0.056940
  0
POLYLINE
  8
MERGEDLAYER-2
 66
  1
 70
  0
 62
  7
 10
1.706698
 20
4.385345
 30
0.000000
  0
VERTEX
  8
MERGEDLAYER-2
 10
1.706698
 20
4.385345
 30
0.000000
  0
VERTEX
  8
MERGEDLAYER-2
 10
5.440676
 20
4.385168
 30
0.000000
  0
SEQEND
  8
MERGEDLAYER-2
  0
POLYLINE
  8
MERGEDLAYER-2
 66
  1
 70
  0
 62
  7
 10
1.707948
 20
4.251952
 30
0.000000
  0
VERTEX
  8
MERGEDLAYER-2
 10
1.707948
 20
4.251952
 30
0.000000
  0
VERTEX
  8
MERGEDLAYER-2
 10
5.440371
 20
4.251952
 30
0.000000
  0
SEQEND
  8
MERGEDLAYER-2
  0
POLYLINE
  8
MERGEDLAYER-2
 66
  1
 70
  0
 62
  7
 10
1.707948
 20
4.234200
 30
0.000000
  0
VERTEX
  8
MERGEDLAYER-2
 10
1.707948
 20
4.234200
 30
0.000000
  0
VERTEX
  8
MERGEDLAYER-2
 10
5.440371
 20
4.234200
 30
0.000000
  0
SEQEND
  8
MERGEDLAYER-2
  0
CIRCLE
  8
MERGEDLAYER-2
 62
  7
 10
3.576186
 20
4.320386
 30
0.000000
 40
0.040004
  0
CIRCLE
  8
MERGEDLAYER-2
 62
  7
 10
3.576186
 20
4.320386
 30
0.000000
 40
0.028933
  0
CIRCLE
  8
MERGEDLAYER-2
 62
  7
 10
3.586529
 20
4.320247
 30
0.000000
 40
0.010344
  0
POLYLINE
  8
MERGEDLAYER-2
 66
  1
 70
  0
 62
  7
 10
3.826174
 20
4.309378
 30
0.000000
  0
VERTEX
  8
MERGEDLAYER-2
 10
3.826174
 20
4.309378
 30
0.000000
  0
VERTEX
  8
MERGEDLAYER-2
 10
3.820169
 20
4.323674
 30
0.000000
  0
VERTEX
  8
MERGEDLAYER-2
 10
3.803068
 20
4.335794
 30
0.000000
  0
VERTEX
  8
MERGEDLAYER-2
 10
3.777476
 20
4.343892
 30
0.000000
  0
VERTEX
  8
MERGEDLAYER-2
 10
3.747286
 20
4.346736
 30
0.000000
  0
VERTEX
  8
MERGEDLAYER-2
 10
3.717097
 20
4.343892
 30
0.000000
  0
VERTEX
  8
MERGEDLAYER-2
 10
3.691504
 20
4.335794
 30
0.000000
  0
VERTEX
  8
MERGEDLAYER-2
 10
3.674403
 20
4.323674
 30
0.000000
  0
VERTEX
  8
MERGEDLAYER-2
 10
3.668398
 20
4.309378
 30
0.000000
  0
VERTEX
  8
MERGEDLAYER-2
 10
3.674403
 20
4.295082
 30
0.000000
  0
VERTEX
  8
MERGEDLAYER-2
 10
3.691504
 20
4.282962
 30
0.000000
  0
VERTEX
  8
MERGEDLAYER-2
 10
3.717097
 20
4.274864
 30
0.000000
  0
VERTEX
  8
MERGEDLAYER-2
 10
3.747286
 20
4.272020
 30
0.000000
  0
VERTEX
  8
MERGEDLAYER-2
 10
3.777476
 20
4.274864
 30
0.000000
  0
VERTEX
  8
MERGEDLAYER-2
 10
3.803068
 20
4.282962
 30
0.000000
  0
VERTEX
  8
MERGEDLAYER-2
 10
3.820169
 20
4.295082
 30
0.000000
  0
VERTEX
  8
MERGEDLAYER-2
 10
3.826174
 20
4.309378
 30
0.000000
  0
SEQEND
  8
MERGEDLAYER-2
  0
POLYLINE
  8
MERGEDLAYER-2
 66
  1
 70
  0
 62
  7
 10
3.932726
 20
4.299082
 30
0.000000
  0
VERTEX
  8
MERGEDLAYER-2
 10
3.932726
 20
4.299082
 30
0.000000
  0
VERTEX
  8
MERGEDLAYER-2
 10
3.749065
 20
4.288447
 30
0.000000
  0
SEQEND
  8
MERGEDLAYER-2
  0
POLYLINE
  8
MERGEDLAYER-2
 66
  1
 70
  0
 62
  7
 10
3.932728
 20
4.299079
 30
0.000000
  0
VERTEX
  8
MERGEDLAYER-2
 10
3.932728
 20
4.299079
 30
0.000000
  0
VERTEX
  8
MERGEDLAYER-2
 10
3.938616
 20
4.309853
 30
0.000000
  0
VERTEX
  8
MERGEDLAYER-2
 10
3.932745
 20
4.315739
 30
0.000000
  0
SEQEND
  8
MERGEDLAYER-2
  0
POLYLINE
  8
MERGEDLAYER-2
 66
  1
 70
  0
 62
  7
 10
3.932746
 20
4.315740
 30
0.000000
  0
VERTEX
  8
MERGEDLAYER-2
 10
3.932746
 20
4.315740
 30
0.000000
  0
VERTEX
  8
MERGEDLAYER-2
 10
3.749255
 20
4.326372
 30
0.000000
  0
SEQEND
  8
MERGEDLAYER-2
  0
POLYLINE
  8
MERGEDLAYER-2
 66
  1
 70
  0
 62
  7
 10
3.749255
 20
4.326373
 30
0.000000
  0
VERTEX
  8
MERGEDLAYER-2
 10
3.749255
 20
4.326373
 30
0.000000
  0
VERTEX
  8
MERGEDLAYER-2
 10
3.733877
 20
4.322787
 30
0.000000
  0
VERTEX
  8
MERGEDLAYER-2
 10
3.728323
 20
4.309378
 30
0.000000
  0
VERTEX
  8
MERGEDLAYER-2
 10
3.733877
 20
4.295969
 30
0.000000
  0
VERTEX
  8
MERGEDLAYER-2
 10
3.749065
 20
4.288447
 30
0.000000
  0
SEQEND
  8
MERGEDLAYER-2
  0
POLYLINE
  8
MERGEDLAYER-2
 66
  1
 70
  1
 62
  7
  0
VERTEX
  8
MERGEDLAYER-2
 10
3.563487
 20
4.325468
 30
0.000000
  0
VERTEX
  8
MERGEDLAYER-2
 10
3.601583
 20
4.325468
 30
0.000000
  0
VERTEX
  8
MERGEDLAYER-2
 10
3.601583
 20
4.315307
 30
0.000000
  0
VERTEX
  8
MERGEDLAYER-2
 10
3.563487
 20
4.315307
 30
0.000000
  0
SEQEND
  8
MERGEDLAYER-2
  0
POLYLINE
  8
MERGEDLAYER-2
 66
  1
 70
  1
 62
  7
  0
VERTEX
  8
MERGEDLAYER-2
 10
1.707233
 20
4.362346
 30
0.000000
  0
VERTEX
  8
MERGEDLAYER-2
 10
1.720375
 20
4.362346
 30
0.000000
  0
VERTEX
  8
MERGEDLAYER-2
 10
1.720375
 20
4.216887
 30
0.000000
  0
VERTEX
  8
MERGEDLAYER-2
 10
1.707233
 20
4.216887
 30
0.000000
  0
SEQEND
  8
MERGEDLAYER-2
  0
POLYLINE
  8
MERGEDLAYER-2
 66
  1
 70
  1
 62
  7
  0
VERTEX
  8
MERGEDLAYER-2
 10
5.427237
 20
4.362346
 30
0.000000
  0
VERTEX
  8
MERGEDLAYER-2
 10
5.440380
 20
4.362346
 30
0.000000
  0
VERTEX
  8
MERGEDLAYER-2
 10
5.440380
 20
4.216887
 30
0.000000
  0
VERTEX
  8
MERGEDLAYER-2
 10
5.427237
 20
4.216887
 30
0.000000
  0
SEQEND
  8
MERGEDLAYER-2
  0
POLYLINE
  8
MERGEDLAYER-2
 66
  1
 70
  1
 62
  7
  0
VERTEX
  8
MERGEDLAYER-2
 10
2.635750
 20
5.617669
 30
0.000000
  0
VERTEX
  8
MERGEDLAYER-2
 10
4.515102
 20
5.617669
 30
0.000000
  0
VERTEX
  8
MERGEDLAYER-2
 10
4.515102
 20
5.595300
 30
0.000000
  0
VERTEX
  8
MERGEDLAYER-2
 10
2.635750
 20
5.595300
 30
0.000000
  0
SEQEND
  8
MERGEDLAYER-2
  0
POLYLINE
  8
MERGEDLAYER-2
 66
  1
 70
  1
 62
  7
  0
VERTEX
  8
MERGEDLAYER-2
 10
2.635750
 20
5.490069
 30
0.000000
  0
VERTEX
  8
MERGEDLAYER-2
 10
4.515102
 20
5.490069
 30
0.000000
  0
VERTEX
  8
MERGEDLAYER-2
 10
4.515102
 20
5.467700
 30
0.000000
  0
VERTEX
  8
MERGEDLAYER-2
 10
2.635750
 20
5.467700
 30
0.000000
  0
SEQEND
  8
MERGEDLAYER-2
  0
POLYLINE
  8
MERGEDLAYER-2
 66
  1
 70
  1
 62
  7
  0
VERTEX
  8
MERGEDLAYER-2
 10
2.635750
 20
5.362469
 30
0.000000
  0
VERTEX
  8
MERGEDLAYER-2
 10
4.515102
 20
5.362469
 30
0.000000
  0
VERTEX
  8
MERGEDLAYER-2
 10
4.515102
 20
5.340101
 30
0.000000
  0
VERTEX
  8
MERGEDLAYER-2
 10
2.635750
 20
5.340101
 30
0.000000
  0
SEQEND
  8
MERGEDLAYER-2
  0
POLYLINE
  8
MERGEDLAYER-2
 66
  1
 70
  1
 62
  7
  0
VERTEX
  8
MERGEDLAYER-2
 10
2.635750
 20
5.234869
 30
0.000000
  0
VERTEX
  8
MERGEDLAYER-2
 10
4.515102
 20
5.234869
 30
0.000000
  0
VERTEX
  8
MERGEDLAYER-2
 10
4.515102
 20
5.212501
 30
0.000000
  0
VERTEX
  8
MERGEDLAYER-2
 10
2.635750
 20
5.212501
 30
0.000000
  0
SEQEND
  8
MERGEDLAYER-2
  0
POLYLINE
  8
MERGEDLAYER-2
 66
  1
 70
  1
 62
  7
  0
VERTEX
  8
MERGEDLAYER-2
 10
2.635750
 20
5.107269
 30
0.000000
  0
VERTEX
  8
MERGEDLAYER-2
 10
4.515102
 20
5.107269
 30
0.000000
  0
VERTEX
  8
MERGEDLAYER-2
 10
4.515102
 20
5.084900
 30
0.000000
  0
VERTEX
  8
MERGEDLAYER-2
 10
2.635750
 20
5.084900
 30
0.000000
  0
SEQEND
  8
MERGEDLAYER-2
  0
POLYLINE
  8
MERGEDLAYER-2
 66
  1
 70
  1
 62
  7
  0
VERTEX
  8
MERGEDLAYER-2
 10
2.635750
 20
4.979669
 30
0.000000
  0
VERTEX
  8
MERGEDLAYER-2
 10
4.515102
 20
4.979669
 30
0.000000
  0
VERTEX
  8
MERGEDLAYER-2
 10
4.515102
 20
4.957300
 30
0.000000
  0
VERTEX
  8
MERGEDLAYER-2
 10
2.635750
 20
4.957300
 30
0.000000
  0
SEQEND
  8
MERGEDLAYER-2
  0
POLYLINE
  8
MERGEDLAYER-2
 66
  1
 70
  1
 62
  7
  0
VERTEX
  8
MERGEDLAYER-2
 10
2.635750
 20
4.852069
 30
0.000000
  0
VERTEX
  8
MERGEDLAYER-2
 10
4.515102
 20
4.852069
 30
0.000000
  0
VERTEX
  8
MERGEDLAYER-2
 10
4.515102
 20
4.829700
 30
0.000000
  0
VERTEX
  8
MERGEDLAYER-2
 10
2.635750
 20
4.829700
 30
0.000000
  0
SEQEND
  8
MERGEDLAYER-2
  0
POLYLINE
  8
MERGEDLAYER-2
 66
  1
 70
  1
 62
  7
  0
VERTEX
  8
MERGEDLAYER-2
 10
2.635750
 20
4.724469
 30
0.000000
  0
VERTEX
  8
MERGEDLAYER-2
 10
4.515102
 20
4.724469
 30
0.000000
  0
VERTEX
  8
MERGEDLAYER-2
 10
4.515102
 20
4.702100
 30
0.000000
  0
VERTEX
  8
MERGEDLAYER-2
 10
2.635750
 20
4.702100
 30
0.000000
  0
SEQEND
  8
MERGEDLAYER-2
  0
POLYLINE
  8
MERGEDLAYER-2
 66
  1
 70
  1
 62
  7
  0
VERTEX
  8
MERGEDLAYER-2
 10
2.635750
 20
4.596869
 30
0.000000
  0
VERTEX
  8
MERGEDLAYER-2
 10
4.515102
 20
4.596869
 30
0.000000
  0
VERTEX
  8
MERGEDLAYER-2
 10
4.515102
 20
4.574501
 30
0.000000
  0
VERTEX
  8
MERGEDLAYER-2
 10
2.635750
 20
4.574501
 30
0.000000
  0
SEQEND
  8
MERGEDLAYER-2
  0
POLYLINE
  8
MERGEDLAYER-2
 66
  1
 70
  1
 62
  7
  0
VERTEX
  8
MERGEDLAYER-2
 10
2.635750
 20
4.469269
 30
0.000000
  0
VERTEX
  8
MERGEDLAYER-2
 10
4.515102
 20
4.469269
 30
0.000000
  0
VERTEX
  8
MERGEDLAYER-2
 10
4.515102
 20
4.446901
 30
0.000000
  0
VERTEX
  8
MERGEDLAYER-2
 10
2.635750
 20
4.446901
 30
0.000000
  0
SEQEND
  8
MERGEDLAYER-2
  0
POLYLINE
  8
MERGEDLAYER-2
 66
  1
 70
  1
 62
  7
  0
VERTEX
  8
MERGEDLAYER-2
 10
1.706666
 20
5.811203
 30
0.000000
  0
VERTEX
  8
MERGEDLAYER-2
 10
5.440212
 20
5.811203
 30
0.000000
  0
VERTEX
  8
MERGEDLAYER-2
 10
5.440212
 20
5.788834
 30
0.000000
  0
VERTEX
  8
MERGEDLAYER-2
 10
1.706666
 20
5.788834
 30
0.000000
  0
SEQEND
  8
MERGEDLAYER-2
  0
POLYLINE
  8
MERGEDLAYER-2
 66
  1
 70
  1
 62
  7
  0
VERTEX
  8
MERGEDLAYER-2
 10
1.706666
 20
5.683603
 30
0.000000
  0
VERTEX
  8
MERGEDLAYER-2
 10
5.440212
 20
5.683603
 30
0.000000
  0
VERTEX
  8
MERGEDLAYER-2
 10
5.440212
 20
5.661234
 30
0.000000
  0
VERTEX
  8
MERGEDLAYER-2
 10
1.706666
 20
5.661234
 30
0.000000
  0
SEQEND
  8
MERGEDLAYER-2
  0
POLYLINE
  8
MERGEDLAYER-2
 66
  1
 70
  1
 62
  7
  0
VERTEX
  8
MERGEDLAYER-2
 10
1.706666
 20
5.556003
 30
0.000000
  0
VERTEX
  8
MERGEDLAYER-2
 10
5.440212
 20
5.556003
 30
0.000000
  0
VERTEX
  8
MERGEDLAYER-2
 10
5.440212
 20
5.533634
 30
0.000000
  0
VERTEX
  8
MERGEDLAYER-2
 10
1.706666
 20
5.533634
 30
0.000000
  0
SEQEND
  8
MERGEDLAYER-2
  0
POLYLINE
  8
MERGEDLAYER-2
 66
  1
 70
  1
 62
  7
  0
VERTEX
  8
MERGEDLAYER-2
 10
1.706666
 20
5.428403
 30
0.000000
  0
VERTEX
  8
MERGEDLAYER-2
 10
5.440212
 20
5.428403
 30
0.000000
  0
VERTEX
  8
MERGEDLAYER-2
 10
5.440212
 20
5.406034
 30
0.000000
  0
VERTEX
  8
MERGEDLAYER-2
 10
1.706666
 20
5.406034
 30
0.000000
  0
SEQEND
  8
MERGEDLAYER-2
  0
POLYLINE
  8
MERGEDLAYER-2
 66
  1
 70
  1
 62
  7
  0
VERTEX
  8
MERGEDLAYER-2
 10
1.706666
 20
5.300803
 30
0.000000
  0
VERTEX
  8
MERGEDLAYER-2
 10
5.440212
 20
5.300803
 30
0.000000
  0
VERTEX
  8
MERGEDLAYER-2
 10
5.440212
 20
5.278434
 30
0.000000
  0
VERTEX
  8
MERGEDLAYER-2
 10
1.706666
 20
5.278434
 30
0.000000
  0
SEQEND
  8
MERGEDLAYER-2
  0
POLYLINE
  8
MERGEDLAYER-2
 66
  1
 70
  1
 62
  7
  0
VERTEX
  8
MERGEDLAYER-2
 10
1.706666
 20
5.173203
 30
0.000000
  0
VERTEX
  8
MERGEDLAYER-2
 10
5.440212
 20
5.173203
 30
0.000000
  0
VERTEX
  8
MERGEDLAYER-2
 10
5.440212
 20
5.150834
 30
0.000000
  0
VERTEX
  8
MERGEDLAYER-2
 10
1.706666
 20
5.150834
 30
0.000000
  0
SEQEND
  8
MERGEDLAYER-2
  0
POLYLINE
  8
MERGEDLAYER-2
 66
  1
 70
  1
 62
  7
  0
VERTEX
  8
MERGEDLAYER-2
 10
1.706666
 20
5.045603
 30
0.000000
  0
VERTEX
  8
MERGEDLAYER-2
 10
5.440212
 20
5.045603
 30
0.000000
  0
VERTEX
  8
MERGEDLAYER-2
 10
5.440212
 20
5.023234
 30
0.000000
  0
VERTEX
  8
MERGEDLAYER-2
 10
1.706666
 20
5.023234
 30
0.000000
  0
SEQEND
  8
MERGEDLAYER-2
  0
POLYLINE
  8
MERGEDLAYER-2
 66
  1
 70
  1
 62
  7
  0
VERTEX
  8
MERGEDLAYER-2
 10
1.706666
 20
4.918003
 30
0.000000
  0
VERTEX
  8
MERGEDLAYER-2
 10
5.440212
 20
4.918003
 30
0.000000
  0
VERTEX
  8
MERGEDLAYER-2
 10
5.440212
 20
4.895634
 30
0.000000
  0
VERTEX
  8
MERGEDLAYER-2
 10
1.706666
 20
4.895634
 30
0.000000
  0
SEQEND
  8
MERGEDLAYER-2
  0
POLYLINE
  8
MERGEDLAYER-2
 66
  1
 70
  1
 62
  7
  0
VERTEX
  8
MERGEDLAYER-2
 10
1.706666
 20
4.790403
 30
0.000000
  0
VERTEX
  8
MERGEDLAYER-2
 10
5.440212
 20
4.790403
 30
0.000000
  0
VERTEX
  8
MERGEDLAYER-2
 10
5.440212
 20
4.768034
 30
0.000000
  0
VERTEX
  8
MERGEDLAYER-2
 10
1.706666
 20
4.768034
 30
0.000000
  0
SEQEND
  8
MERGEDLAYER-2
  0
POLYLINE
  8
MERGEDLAYER-2
 66
  1
 70
  1
 62
  7
  0
VERTEX
  8
MERGEDLAYER-2
 10
1.706666
 20
4.662803
 30
0.000000
  0
VERTEX
  8
MERGEDLAYER-2
 10
5.440212
 20
4.662803
 30
0.000000
  0
VERTEX
  8
MERGEDLAYER-2
 10
5.440212
 20
4.640434
 30
0.000000
  0
VERTEX
  8
MERGEDLAYER-2
 10
1.706666
 20
4.640434
 30
0.000000
  0
SEQEND
  8
MERGEDLAYER-2
  0
POLYLINE
  8
MERGEDLAYER-2
 66
  1
 70
  1
 62
  7
  0
VERTEX
  8
MERGEDLAYER-2
 10
1.706666
 20
4.535203
 30
0.000000
  0
VERTEX
  8
MERGEDLAYER-2
 10
5.440212
 20
4.535203
 30
0.000000
  0
VERTEX
  8
MERGEDLAYER-2
 10
5.440212
 20
4.512834
 30
0.000000
  0
VERTEX
  8
MERGEDLAYER-2
 10
1.706666
 20
4.512834
 30
0.000000
  0
SEQEND
  8
MERGEDLAYER-2
  0
POLYLINE
  8
MERGEDLAYER-2
 66
  1
 70
  1
 62
  7
  0
VERTEX
  8
MERGEDLAYER-2
 10
1.706666
 20
8.235603
 30
0.000000
  0
VERTEX
  8
MERGEDLAYER-2
 10
5.440212
 20
8.235603
 30
0.000000
  0
VERTEX
  8
MERGEDLAYER-2
 10
5.440212
 20
8.213234
 30
0.000000
  0
VERTEX
  8
MERGEDLAYER-2
 10
1.706666
 20
8.213234
 30
0.000000
  0
SEQEND
  8
MERGEDLAYER-2
  0
POLYLINE
  8
MERGEDLAYER-2
 66
  1
 70
  1
 62
  7
  0
VERTEX
  8
MERGEDLAYER-2
 10
1.706666
 20
8.108003
 30
0.000000
  0
VERTEX
  8
MERGEDLAYER-2
 10
5.440212
 20
8.108003
 30
0.000000
  0
VERTEX
  8
MERGEDLAYER-2
 10
5.440212
 20
8.085633
 30
0.000000
  0
VERTEX
  8
MERGEDLAYER-2
 10
1.706666
 20
8.085633
 30
0.000000
  0
SEQEND
  8
MERGEDLAYER-2
  0
POLYLINE
  8
MERGEDLAYER-2
 66
  1
 70
  1
 62
  7
  0
VERTEX
  8
MERGEDLAYER-2
 10
1.706666
 20
7.980403
 30
0.000000
  0
VERTEX
  8
MERGEDLAYER-2
 10
5.440212
 20
7.980403
 30
0.000000
  0
VERTEX
  8
MERGEDLAYER-2
 10
5.440212
 20
7.958034
 30
0.000000
  0
VERTEX
  8
MERGEDLAYER-2
 10
1.706666
 20
7.958034
 30
0.000000
  0
SEQEND
  8
MERGEDLAYER-2
  0
POLYLINE
  8
MERGEDLAYER-2
 66
  1
 70
  1
 62
  7
  0
VERTEX
  8
MERGEDLAYER-2
 10
1.706666
 20
7.852803
 30
0.000000
  0
VERTEX
  8
MERGEDLAYER-2
 10
5.440212
 20
7.852803
 30
0.000000
  0
VERTEX
  8
MERGEDLAYER-2
 10
5.440212
 20
7.830434
 30
0.000000
  0
VERTEX
  8
MERGEDLAYER-2
 10
1.706666
 20
7.830434
 30
0.000000
  0
SEQEND
  8
MERGEDLAYER-2
  0
POLYLINE
  8
MERGEDLAYER-2
 66
  1
 70
  1
 62
  7
  0
VERTEX
  8
MERGEDLAYER-2
 10
1.706666
 20
7.725203
 30
0.000000
  0
VERTEX
  8
MERGEDLAYER-2
 10
5.440212
 20
7.725203
 30
0.000000
  0
VERTEX
  8
MERGEDLAYER-2
 10
5.440212
 20
7.702834
 30
0.000000
  0
VERTEX
  8
MERGEDLAYER-2
 10
1.706666
 20
7.702834
 30
0.000000
  0
SEQEND
  8
MERGEDLAYER-2
  0
POLYLINE
  8
MERGEDLAYER-2
 66
  1
 70
  1
 62
  7
  0
VERTEX
  8
MERGEDLAYER-2
 10
1.706666
 20
7.597603
 30
0.000000
  0
VERTEX
  8
MERGEDLAYER-2
 10
5.440212
 20
7.597603
 30
0.000000
  0
VERTEX
  8
MERGEDLAYER-2
 10
5.440212
 20
7.575234
 30
0.000000
  0
VERTEX
  8
MERGEDLAYER-2
 10
1.706666
 20
7.575234
 30
0.000000
  0
SEQEND
  8
MERGEDLAYER-2
  0
POLYLINE
  8
MERGEDLAYER-2
 66
  1
 70
  1
 62
  7
  0
VERTEX
  8
MERGEDLAYER-2
 10
1.706666
 20
7.470003
 30
0.000000
  0
VERTEX
  8
MERGEDLAYER-2
 10
5.440212
 20
7.470003
 30
0.000000
  0
VERTEX
  8
MERGEDLAYER-2
 10
5.440212
 20
7.447634
 30
0.000000
  0
VERTEX
  8
MERGEDLAYER-2
 10
1.706666
 20
7.447634
 30
0.000000
  0
SEQEND
  8
MERGEDLAYER-2
  0
POLYLINE
  8
MERGEDLAYER-2
 66
  1
 70
  1
 62
  7
  0
VERTEX
  8
MERGEDLAYER-2
 10
1.706666
 20
7.342403
 30
0.000000
  0
VERTEX
  8
MERGEDLAYER-2
 10
5.440212
 20
7.342403
 30
0.000000
  0
VERTEX
  8
MERGEDLAYER-2
 10
5.440212
 20
7.320034
 30
0.000000
  0
VERTEX
  8
MERGEDLAYER-2
 10
1.706666
 20
7.320034
 30
0.000000
  0
SEQEND
  8
MERGEDLAYER-2
  0
POLYLINE
  8
MERGEDLAYER-2
 66
  1
 70
  1
 62
  7
  0
VERTEX
  8
MERGEDLAYER-2
 10
1.706666
 20
7.214803
 30
0.000000
  0
VERTEX
  8
MERGEDLAYER-2
 10
5.440212
 20
7.214803
 30
0.000000
  0
VERTEX
  8
MERGEDLAYER-2
 10
5.440212
 20
7.192434
 30
0.000000
  0
VERTEX
  8
MERGEDLAYER-2
 10
1.706666
 20
7.192434
 30
0.000000
  0
SEQEND
  8
MERGEDLAYER-2
  0
POLYLINE
  8
MERGEDLAYER-2
 66
  1
 70
  1
 62
  7
  0
VERTEX
  8
MERGEDLAYER-2
 10
1.706666
 20
7.087203
 30
0.000000
  0
VERTEX
  8
MERGEDLAYER-2
 10
5.440212
 20
7.087203
 30
0.000000
  0
VERTEX
  8
MERGEDLAYER-2
 10
5.440212
 20
7.064834
 30
0.000000
  0
VERTEX
  8
MERGEDLAYER-2
 10
1.706666
 20
7.064834
 30
0.000000
  0
SEQEND
  8
MERGEDLAYER-2
  0
POLYLINE
  8
MERGEDLAYER-2
 66
  1
 70
  1
 62
  7
  0
VERTEX
  8
MERGEDLAYER-2
 10
1.706666
 20
6.959604
 30
0.000000
  0
VERTEX
  8
MERGEDLAYER-2
 10
5.440212
 20
6.959604
 30
0.000000
  0
VERTEX
  8
MERGEDLAYER-2
 10
5.440212
 20
6.937234
 30
0.000000
  0
VERTEX
  8
MERGEDLAYER-2
 10
1.706666
 20
6.937234
 30
0.000000
  0
SEQEND
  8
MERGEDLAYER-2
  0
POLYLINE
  8
MERGEDLAYER-2
 66
  1
 70
  1
 62
  7
  0
VERTEX
  8
MERGEDLAYER-2
 10
1.706666
 20
6.832004
 30
0.000000
  0
VERTEX
  8
MERGEDLAYER-2
 10
5.440212
 20
6.832004
 30
0.000000
  0
VERTEX
  8
MERGEDLAYER-2
 10
5.440212
 20
6.809634
 30
0.000000
  0
VERTEX
  8
MERGEDLAYER-2
 10
1.706666
 20
6.809634
 30
0.000000
  0
SEQEND
  8
MERGEDLAYER-2
  0
POLYLINE
  8
MERGEDLAYER-2
 66
  1
 70
  1
 62
  7
  0
VERTEX
  8
MERGEDLAYER-2
 10
1.706666
 20
6.704403
 30
0.000000
  0
VERTEX
  8
MERGEDLAYER-2
 10
5.440212
 20
6.704403
 30
0.000000
  0
VERTEX
  8
MERGEDLAYER-2
 10
5.440212
 20
6.682033
 30
0.000000
  0
VERTEX
  8
MERGEDLAYER-2
 10
1.706666
 20
6.682033
 30
0.000000
  0
SEQEND
  8
MERGEDLAYER-2
  0
POLYLINE
  8
MERGEDLAYER-2
 66
  1
 70
  1
 62
  7
  0
VERTEX
  8
MERGEDLAYER-2
 10
1.706666
 20
6.576803
 30
0.000000
  0
VERTEX
  8
MERGEDLAYER-2
 10
5.440212
 20
6.576803
 30
0.000000
  0
VERTEX
  8
MERGEDLAYER-2
 10
5.440212
 20
6.554434
 30
0.000000
  0
VERTEX
  8
MERGEDLAYER-2
 10
1.706666
 20
6.554434
 30
0.000000
  0
SEQEND
  8
MERGEDLAYER-2
  0
POLYLINE
  8
MERGEDLAYER-2
 66
  1
 70
  1
 62
  7
  0
VERTEX
  8
MERGEDLAYER-2
 10
1.706666
 20
6.449203
 30
0.000000
  0
VERTEX
  8
MERGEDLAYER-2
 10
5.440212
 20
6.449203
 30
0.000000
  0
VERTEX
  8
MERGEDLAYER-2
 10
5.440212
 20
6.426834
 30
0.000000
  0
VERTEX
  8
MERGEDLAYER-2
 10
1.706666
 20
6.426834
 30
0.000000
  0
SEQEND
  8
MERGEDLAYER-2
  0
POLYLINE
  8
MERGEDLAYER-2
 66
  1
 70
  1
 62
  7
  0
VERTEX
  8
MERGEDLAYER-2
 10
1.706666
 20
6.321603
 30
0.000000
  0
VERTEX
  8
MERGEDLAYER-2
 10
5.440212
 20
6.321603
 30
0.000000
  0
VERTEX
  8
MERGEDLAYER-2
 10
5.440212
 20
6.299234
 30
0.000000
  0
VERTEX
  8
MERGEDLAYER-2
 10
1.706666
 20
6.299234
 30
0.000000
  0
SEQEND
  8
MERGEDLAYER-2
  0
POLYLINE
  8
MERGEDLAYER-2
 66
  1
 70
  1
 62
  7
  0
VERTEX
  8
MERGEDLAYER-2
 10
1.706666
 20
6.194003
 30
0.000000
  0
VERTEX
  8
MERGEDLAYER-2
 10
5.440212
 20
6.194003
 30
0.000000
  0
VERTEX
  8
MERGEDLAYER-2
 10
5.440212
 20
6.171634
 30
0.000000
  0
VERTEX
  8
MERGEDLAYER-2
 10
1.706666
 20
6.171634
 30
0.000000
  0
SEQEND
  8
MERGEDLAYER-2
  0
POLYLINE
  8
MERGEDLAYER-2
 66
  1
 70
  1
 62
  7
  0
VERTEX
  8
MERGEDLAYER-2
 10
1.706666
 20
6.066403
 30
0.000000
  0
VERTEX
  8
MERGEDLAYER-2
 10
5.440212
 20
6.066403
 30
0.000000
  0
VERTEX
  8
MERGEDLAYER-2
 10
5.440212
 20
6.044034
 30
0.000000
  0
VERTEX
  8
MERGEDLAYER-2
 10
1.706666
 20
6.044034
 30
0.000000
  0
SEQEND
  8
MERGEDLAYER-2
  0
POLYLINE
  8
MERGEDLAYER-2
 66
  1
 70
  1
 62
  7
  0
VERTEX
  8
MERGEDLAYER-2
 10
1.706666
 20
5.938803
 30
0.000000
  0
VERTEX
  8
MERGEDLAYER-2
 10
5.440212
 20
5.938803
 30
0.000000
  0
VERTEX
  8
MERGEDLAYER-2
 10
5.440212
 20
5.916434
 30
0.000000
  0
VERTEX
  8
MERGEDLAYER-2
 10
1.706666
 20
5.916434
 30
0.000000
  0
SEQEND
  8
MERGEDLAYER-2
  0
POLYLINE
  8
MERGEDLAYER-2
 66
  1
 70
  1
 62
  7
  0
VERTEX
  8
MERGEDLAYER-2
 10
1.706860
 20
8.361746
 30
0.000000
  0
VERTEX
  8
MERGEDLAYER-2
 10
5.440234
 20
8.361746
 30
0.000000
  0
VERTEX
  8
MERGEDLAYER-2
 10
5.440234
 20
8.341100
 30
0.000000
  0
VERTEX
  8
MERGEDLAYER-2
 10
1.706860
 20
8.341100
 30
0.000000
  0
SEQEND
  8
MERGEDLAYER-2
  0
ARC
  8
MERGEDLAYER-2
 62
  7
 10
5.280673
 20
9.154267
 30
0.000000
 40
0.254425
 50
270.000000
 51
90.000000
  0
POLYLINE
  8
MERGEDLAYER-2
 66
  1
 70
  0
 62
  7
 10
5.280673
 20
9.408691
 30
0.000000
  0
VERTEX
  8
MERGEDLAYER-2
 10
5.280673
 20
9.408691
 30
0.000000
  0
VERTEX
  8
MERGEDLAYER-2
 10
1.615752
 20
9.408691
 30
0.000000
  0
SEQEND
  8
MERGEDLAYER-2
  0
POLYLINE
  8
MERGEDLAYER-2
 66
  1
 70
  0
 62
  7
 10
1.615752
 20
9.408691
 30
0.000000
  0
VERTEX
  8
MERGEDLAYER-2
 10
1.615752
 20
9.408691
 30
0.000000
  0
VERTEX
  8
MERGEDLAYER-2
 10
1.615752
 20
8.899842
 30
0.000000
  0
SEQEND
  8
MERGEDLAYER-2
  0
POLYLINE
  8
MERGEDLAYER-2
 66
  1
 70
  0
 62
  7
 10
5.280673
 20
8.899842
 30
0.000000
  0
VERTEX
  8
MERGEDLAYER-2
 10
5.280673
 20
8.899842
 30
0.000000
  0
VERTEX
  8
MERGEDLAYER-2
 10
1.615752
 20
8.899842
 30
0.000000
  0
SEQEND
  8
MERGEDLAYER-2
  0
TEXT
  8
MERGEDLAYER-2
 62
  7
 10
3.406586
 20
9.714399
 30
0.000000
 40
0.340909
  1
MobilFlex
 72
  5
 11
5.615677
 21
9.714399
 31
0.000000
  0
POLYLINE
  8
MERGEDLAYER-2
 66
  1
 70
  1
 62
  7
  0
VERTEX
  8
MERGEDLAYER-2
 10
1.617255
 20
10.222504
 30
0.000000
  0
VERTEX
  8
MERGEDLAYER-2
 10
1.855102
 20
10.222504
 30
0.000000
  0
VERTEX
  8
MERGEDLAYER-2
 10
1.855102
 20
9.705560
 30
0.000000
  0
VERTEX
  8
MERGEDLAYER-2
 10
1.617255
 20
9.705560
 30
0.000000
  0
SEQEND
  8
MERGEDLAYER-2
  0
POLYLINE
  8
MERGEDLAYER-2
 66
  1
 70
  1
 62
  7
  0
VERTEX
  8
MERGEDLAYER-2
 10
1.929755
 20
10.222504
 30
0.000000
  0
VERTEX
  8
MERGEDLAYER-2
 10
2.167602
 20
10.222504
 30
0.000000
  0
VERTEX
  8
MERGEDLAYER-2
 10
2.167602
 20
9.705560
 30
0.000000
  0
VERTEX
  8
MERGEDLAYER-2
 10
1.929755
 20
9.705560
 30
0.000000
  0
SEQEND
  8
MERGEDLAYER-2
  0
POLYLINE
  8
MERGEDLAYER-2
 66
  1
 70
  1
 62
  7
  0
VERTEX
  8
MERGEDLAYER-2
 10
2.230102
 20
10.222504
 30
0.000000
  0
VERTEX
  8
MERGEDLAYER-2
 10
2.467950
 20
10.222504
 30
0.000000
  0
VERTEX
  8
MERGEDLAYER-2
 10
2.467950
 20
9.705560
 30
0.000000
  0
VERTEX
  8
MERGEDLAYER-2
 10
2.230102
 20
9.705560
 30
0.000000
  0
SEQEND
  8
MERGEDLAYER-2
  0
POLYLINE
  8
MERGEDLAYER-2
 66
  1
 70
  1
 62
  7
  0
VERTEX
  8
MERGEDLAYER-2
 10
2.533922
 20
10.222504
 30
0.000000
  0
VERTEX
  8
MERGEDLAYER-2
 10
2.771769
 20
10.222504
 30
0.000000
  0
VERTEX
  8
MERGEDLAYER-2
 10
2.771769
 20
9.705560
 30
0.000000
  0
VERTEX
  8
MERGEDLAYER-2
 10
2.533922
 20
9.705560
 30
0.000000
  0
SEQEND
  8
MERGEDLAYER-2
  0
POLYLINE
  8
MERGEDLAYER-2
 66
  1
 70
  1
 62
  7
  0
VERTEX
  8
MERGEDLAYER-2
 10
2.850762
 20
10.218589
 30
0.000000
  0
VERTEX
  8
MERGEDLAYER-2
 10
3.226196
 20
10.218589
 30
0.000000
  0
VERTEX
  8
MERGEDLAYER-2
 10
3.226196
 20
10.080569
 30
0.000000
  0
VERTEX
  8
MERGEDLAYER-2
 10
2.850762
 20
10.080569
 30
0.000000
  0
SEQEND
  8
MERGEDLAYER-2
  0
POLYLINE
  8
MERGEDLAYER-2
 66
  1
 70
  1
 62
  7
  0
VERTEX
  8
MERGEDLAYER-2
 10
2.850328
 20
9.991159
 30
0.000000
  0
VERTEX
  8
MERGEDLAYER-2
 10
3.158488
 20
9.991159
 30
0.000000
  0
VERTEX
  8
MERGEDLAYER-2
 10
3.158488
 20
9.857043
 30
0.000000
  0
VERTEX
  8
MERGEDLAYER-2
 10
2.850328
 20
9.857043
 30
0.000000
  0
SEQEND
  8
MERGEDLAYER-2
  0
POLYLINE
  8
MERGEDLAYER-2
 66
  1
 70
  1
 62
  7
  0
VERTEX
  8
MERGEDLAYER-2
 10
1.617255
 20
9.620933
 30
0.000000
  0
VERTEX
  8
MERGEDLAYER-2
 10
5.535658
 20
9.620933
 30
0.000000
  0
VERTEX
  8
MERGEDLAYER-2
 10
5.535658
 20
9.577530
 30
0.000000
  0
VERTEX
  8
MERGEDLAYER-2
 10
1.617255
 20
9.577530
 30
0.000000
  0
SEQEND
  8
MERGEDLAYER-2
  0
POLYLINE
  8
MERGEDLAYER-2
 66
  1
 70
  0
 62
  7
 10
0.796839
 20
2.570959
 30
0.000000
  0
VERTEX
  8
MERGEDLAYER-2
 10
0.796839
 20
2.570959
 30
0.000000
  0
VERTEX
  8
MERGEDLAYER-2
 10
1.523315
 20
2.570959
 30
0.000000
  0
SEQEND
  8
MERGEDLAYER-2
  0
ARC
  8
MERGEDLAYER-2
 62
  7
 10
1.107334
 20
4.066045
 30
0.000000
 40
1.526987
 50
248.346130
 51
258.267761
  0
POLYLINE
  8
MERGEDLAYER-2
 66
  1
 70
  0
 62
  7
 10
0.543878
 20
2.646817
 30
0.000000
  0
VERTEX
  8
MERGEDLAYER-2
 10
0.543878
 20
2.646817
 30
0.000000
  0
VERTEX
  8
MERGEDLAYER-2
 10
1.778324
 20
2.646817
 30
0.000000
  0
SEQEND
  8
MERGEDLAYER-2
  0
ARC
  8
MERGEDLAYER-2
 62
  7
 10
1.221167
 20
4.053224
 30
0.000000
 40
1.512747
 50
281.521484
 51
291.611328
  0
POLYLINE
  8
MERGEDLAYER-2
 66
  1
 70
  0
 62
  7
 10
0.279557
 20
2.792696
 30
0.000000
  0
VERTEX
  8
MERGEDLAYER-2
 10
0.279557
 20
2.792696
 30
0.000000
  0
VERTEX
  8
MERGEDLAYER-2
 10
2.041774
 20
2.792696
 30
0.000000
  0
SEQEND
  8
MERGEDLAYER-2
  0
ARC
  8
MERGEDLAYER-2
 62
  7
 10
0.894571
 20
3.602991
 30
0.000000
 40
1.017261
 50
226.456055
 51
232.801529
  0
POLYLINE
  8
MERGEDLAYER-2
 66
  1
 70
  0
 62
  7
 10
0.193769
 20
2.865633
 30
0.000000
  0
VERTEX
  8
MERGEDLAYER-2
 10
0.193769
 20
2.865633
 30
0.000000
  0
VERTEX
  8
MERGEDLAYER-2
 10
2.127256
 20
2.865633
 30
0.000000
  0
SEQEND
  8
MERGEDLAYER-2
  0
ARC
  8
MERGEDLAYER-2
 62
  7
 10
1.286121
 20
3.764868
 30
0.000000
 40
1.231312
 50
307.857330
 51
313.087952
  0
POLYLINE
  8
MERGEDLAYER-2
 66
  1
 70
  0
 62
  7
 10
0.084081
 20
3.002759
 30
0.000000
  0
VERTEX
  8
MERGEDLAYER-2
 10
0.084081
 20
3.002759
 30
0.000000
  0
VERTEX
  8
MERGEDLAYER-2
 10
2.237254
 20
3.002759
 30
0.000000
  0
SEQEND
  8
MERGEDLAYER-2
  0
ARC
  8
MERGEDLAYER-2
 62
  7
 10
0.378535
 20
3.196827
 30
0.000000
 40
0.352655
 50
200.088867
 51
213.387970
  0
POLYLINE
  8
MERGEDLAYER-2
 66
  1
 70
  0
 62
  7
 10
0.047335
 20
3.075698
 30
0.000000
  0
VERTEX
  8
MERGEDLAYER-2
 10
0.047335
 20
3.075698
 30
0.000000
  0
VERTEX
  8
MERGEDLAYER-2
 10
2.272264
 20
3.075698
 30
0.000000
  0
SEQEND
  8
MERGEDLAYER-2
  0
ARC
  8
MERGEDLAYER-2
 62
  7
 10
1.773142
 20
3.270404
 30
0.000000
 40
0.535755
 50
330.028687
 51
338.689392
  0
POLYLINE
  8
MERGEDLAYER-2
 66
  1
 70
  0
 62
  7
 10
0.011141
 20
3.221578
 30
0.000000
  0
VERTEX
  8
MERGEDLAYER-2
 10
0.011141
 20
3.221578
 30
0.000000
  0
VERTEX
  8
MERGEDLAYER-2
 10
2.309326
 20
3.221578
 30
0.000000
  0
SEQEND
  8
MERGEDLAYER-2
  0
ARC
  8
MERGEDLAYER-2
 62
  7
 10
0.360901
 20
3.259507
 30
0.000000
 40
0.351810
 50
173.811035
 51
186.189026
  0
POLYLINE
  8
MERGEDLAYER-2
 66
  1
 70
  0
 62
  7
 10
0.011141
 20
3.297434
 30
0.000000
  0
VERTEX
  8
MERGEDLAYER-2
 10
0.011141
 20
3.297434
 30
0.000000
  0
VERTEX
  8
MERGEDLAYER-2
 10
2.309326
 20
3.297434
 30
0.000000
  0
SEQEND
  8
MERGEDLAYER-2
  0
ARC
  8
MERGEDLAYER-2
 62
  7
 10
1.896334
 20
3.259508
 30
0.000000
 40
0.414730
 50
354.752655
 51
5.247009
  0
POLYLINE
  8
MERGEDLAYER-2
 66
  1
 70
  0
 62
  7
 10
0.042920
 20
3.431643
 30
0.000000
  0
VERTEX
  8
MERGEDLAYER-2
 10
0.042920
 20
3.431643
 30
0.000000
  0
VERTEX
  8
MERGEDLAYER-2
 10
2.277542
 20
3.431643
 30
0.000000
  0
SEQEND
  8
MERGEDLAYER-2
  0
ARC
  8
MERGEDLAYER-2
 62
  7
 10
0.419431
 20
3.298550
 30
0.000000
 40
0.399342
 50
148.450623
 51
160.531860
  0
POLYLINE
  8
MERGEDLAYER-2
 66
  1
 70
  0
 62
  7
 10
0.079115
 20
3.507499
 30
0.000000
  0
VERTEX
  8
MERGEDLAYER-2
 10
0.079115
 20
3.507499
 30
0.000000
  0
VERTEX
  8
MERGEDLAYER-2
 10
2.241039
 20
3.507499
 30
0.000000
  0
SEQEND
  8
MERGEDLAYER-2
  0
ARC
  8
MERGEDLAYER-2
 62
  7
 10
1.923933
 20
3.308188
 30
0.000000
 40
0.374541
 50
19.245636
 51
32.150635
  0
POLYLINE
  8
MERGEDLAYER-2
 66
  1
 70
  0
 62
  7
 10
0.739512
 20
3.935779
 30
0.000000
  0
VERTEX
  8
MERGEDLAYER-2
 10
0.739512
 20
3.935779
 30
0.000000
  0
VERTEX
  8
MERGEDLAYER-2
 10
1.580639
 20
3.935779
 30
0.000000
  0
SEQEND
  8
MERGEDLAYER-2
  0
ARC
  8
MERGEDLAYER-2
 62
  7
 10
1.081723
 20
2.534385
 30
0.000000
 40
1.442572
 50
103.722656
 51
113.170685
  0
POLYLINE
  8
MERGEDLAYER-2
 66
  1
 70
  0
 62
  7
 10
0.514112
 20
3.860595
 30
0.000000
  0
VERTEX
  8
MERGEDLAYER-2
 10
0.514112
 20
3.860595
 30
0.000000
  0
VERTEX
  8
MERGEDLAYER-2
 10
1.806041
 20
3.860595
 30
0.000000
  0
SEQEND
  8
MERGEDLAYER-2
  0
ARC
  8
MERGEDLAYER-2
 62
  7
 10
1.248404
 20
2.564281
 30
0.000000
 40
1.411166
 50
66.723999
 51
76.382843
  0
POLYLINE
  8
MERGEDLAYER-2
 66
  1
 70
  0
 62
  7
 10
0.189982
 20
3.650461
 30
0.000000
  0
VERTEX
  8
MERGEDLAYER-2
 10
0.189982
 20
3.650461
 30
0.000000
  0
VERTEX
  8
MERGEDLAYER-2
 10
2.130172
 20
3.650461
 30
0.000000
  0
SEQEND
  8
MERGEDLAYER-2
  0
ARC
  8
MERGEDLAYER-2
 62
  7
 10
0.905878
 20
2.910080
 30
0.000000
 40
1.029889
 50
127.575531
 51
134.036743
  0
POLYLINE
  8
MERGEDLAYER-2
 66
  1
 70
  0
 62
  7
 10
0.277845
 20
3.726318
 30
0.000000
  0
VERTEX
  8
MERGEDLAYER-2
 10
0.277845
 20
3.726318
 30
0.000000
  0
VERTEX
  8
MERGEDLAYER-2
 10
2.042642
 20
3.726318
 30
0.000000
  0
SEQEND
  8
MERGEDLAYER-2
  0
ARC
  8
MERGEDLAYER-2
 62
  7
 10
1.313678
 20
2.796756
 30
0.000000
 40
1.181302
 50
46.276276
 51
51.896393
  0
POLYLINE
  8
MERGEDLAYER-2
 66
  1
 70
  1
 62
  7
  0
VERTEX
  8
MERGEDLAYER-2
 10
0.370902
 20
3.743823
 30
0.000000
  0
VERTEX
  8
MERGEDLAYER-2
 10
0.392393
 20
3.743823
 30
0.000000
  0
VERTEX
  8
MERGEDLAYER-2
 10
0.392393
 20
3.198237
 30
0.000000
  0
VERTEX
  8
MERGEDLAYER-2
 10
0.370902
 20
3.198237
 30
0.000000
  0
SEQEND
  8
MERGEDLAYER-2
  0
POLYLINE
  8
MERGEDLAYER-2
 66
  1
 70
  1
 62
  7
  0
VERTEX
  8
MERGEDLAYER-2
 10
0.349421
 20
3.314940
 30
0.000000
  0
VERTEX
  8
MERGEDLAYER-2
 10
0.370902
 20
3.314940
 30
0.000000
  0
VERTEX
  8
MERGEDLAYER-2
 10
0.370902
 20
2.772271
 30
0.000000
  0
VERTEX
  8
MERGEDLAYER-2
 10
0.349421
 20
2.772271
 30
0.000000
  0
SEQEND
  8
MERGEDLAYER-2
  0
POLYLINE
  8
MERGEDLAYER-2
 66
  1
 70
  1
 62
  7
  0
VERTEX
  8
MERGEDLAYER-2
 10
1.938942
 20
3.743823
 30
0.000000
  0
VERTEX
  8
MERGEDLAYER-2
 10
1.960411
 20
3.743823
 30
0.000000
  0
VERTEX
  8
MERGEDLAYER-2
 10
1.960411
 20
3.198237
 30
0.000000
  0
VERTEX
  8
MERGEDLAYER-2
 10
1.938942
 20
3.198237
 30
0.000000
  0
SEQEND
  8
MERGEDLAYER-2
  0
POLYLINE
  8
MERGEDLAYER-2
 66
  1
 70
  1
 62
  7
  0
VERTEX
  8
MERGEDLAYER-2
 10
1.917451
 20
3.314940
 30
0.000000
  0
VERTEX
  8
MERGEDLAYER-2
 10
1.938942
 20
3.314940
 30
0.000000
  0
VERTEX
  8
MERGEDLAYER-2
 10
1.938942
 20
2.772271
 30
0.000000
  0
VERTEX
  8
MERGEDLAYER-2
 10
1.917451
 20
2.772271
 30
0.000000
  0
SEQEND
  8
MERGEDLAYER-2
  0
POLYLINE
  8
MERGEDLAYER-2
 66
  1
 70
  1
 62
  7
 10
1.917189
 20
3.805406
 30
0.000000
  0
VERTEX
  8
MERGEDLAYER-2
 10
1.917189
 20
3.805406
 30
0.000000
  0
VERTEX
  8
MERGEDLAYER-2
 10
1.917451
 20
3.630039
 30
0.000000
  0
VERTEX
  8
MERGEDLAYER-2
 10
1.938942
 20
3.630039
 30
0.000000
  0
VERTEX
  8
MERGEDLAYER-2
 10
1.939345
 20
3.794604
 30
0.000000
  0
SEQEND
  8
MERGEDLAYER-2
  0
POLYLINE
  8
MERGEDLAYER-2
 66
  1
 70
  1
 62
  7
 10
0.370874
 20
3.787588
 30
0.000000
  0
VERTEX
  8
MERGEDLAYER-2
 10
0.370874
 20
3.787588
 30
0.000000
  0
VERTEX
  8
MERGEDLAYER-2
 10
0.370902
 20
3.627121
 30
0.000000
  0
VERTEX
  8
MERGEDLAYER-2
 10
0.349421
 20
3.627121
 30
0.000000
  0
VERTEX
  8
MERGEDLAYER-2
 10
0.349025
 20
3.774579
 30
0.000000
  0
SEQEND
  8
MERGEDLAYER-2
  0
POLYLINE
  8
MERGEDLAYER-2
 66
  1
 70
  1
 62
  7
 10
0.370874
 20
2.731426
 30
0.000000
  0
VERTEX
  8
MERGEDLAYER-2
 10
0.370874
 20
2.731426
 30
0.000000
  0
VERTEX
  8
MERGEDLAYER-2
 10
0.370902
 20
2.888970
 30
0.000000
  0
VERTEX
  8
MERGEDLAYER-2
 10
0.392393
 20
2.888970
 30
0.000000
  0
VERTEX
  8
MERGEDLAYER-2
 10
0.391297
 20
2.719755
 30
0.000000
  0
SEQEND
  8
MERGEDLAYER-2
  0
POLYLINE
  8
MERGEDLAYER-2
 66
  1
 70
  1
 62
  7
 10
1.937609
 20
2.722673
 30
0.000000
  0
VERTEX
  8
MERGEDLAYER-2
 10
1.937609
 20
2.722673
 30
0.000000
  0
VERTEX
  8
MERGEDLAYER-2
 10
1.938942
 20
2.888970
 30
0.000000
  0
VERTEX
  8
MERGEDLAYER-2
 10
1.960411
 20
2.888970
 30
0.000000
  0
VERTEX
  8
MERGEDLAYER-2
 10
1.960952
 20
2.737263
 30
0.000000
  0
SEQEND
  8
MERGEDLAYER-2
  0
TEXT
  8
MERGEDLAYER-2
 62
  7
 10
0.842949
 20
3.323490
 30
0.000000
 40
0.081818
  1
13/16
 72
  5
 11
1.170222
 21
3.323490
 31
0.000000
  0
TEXT
  8
MERGEDLAYER-2
 62
  7
 10
1.170222
 20
3.323490
 30
0.000000
 40
0.095455
  1
"  (21
 72
  5
 11
1.524768
 21
3.323490
 31
0.000000
  0
TEXT
  8
MERGEDLAYER-2
 62
  7
 10
1.524768
 20
3.323490
 30
0.000000
 40
0.081818
  1
mm
 72
  5
 11
1.770222
 21
3.323490
 31
0.000000
  0
TEXT
  8
MERGEDLAYER-2
 62
  7
 10
1.770222
 20
3.323490
 30
0.000000
 40
0.095455
  1
)
 72
  5
 11
1.861131
 21
3.323490
 31
0.000000
  0
POLYLINE
  8
MERGEDLAYER-2
 66
  1
 70
  0
 62
  7
 10
0.776977
 20
3.431697
 30
0.000000
  0
VERTEX
  8
MERGEDLAYER-2
 10
0.776977
 20
3.431697
 30
0.000000
  0
VERTEX
  8
MERGEDLAYER-2
 10
0.776977
 20
3.296281
 30
0.000000
  0
SEQEND
  8
MERGEDLAYER-2
  0
LINE
  8
MERGEDLAYER-2
 62
  7
 10
0.796262
 20
3.412412
 30
0.000000
 11
0.757692
 21
3.450982
 31
0.000000
  0
LINE
  8
MERGEDLAYER-2
 62
  7
 10
0.796262
 20
3.276996
 30
0.000000
 11
0.757692
 21
3.315566
 31
0.000000
  0
POLYLINE
  8
MERGEDLAYER-2
 66
  1
 70
  0
 62
  7
 40
0.018182
 41
0.018182
 10
2.307127
 20
3.263523
 30
0.000000
  0
VERTEX
  8
MERGEDLAYER-2
 10
2.307127
 20
3.263523
 30
0.000000
  0
VERTEX
  8
MERGEDLAYER-2
 10
2.301584
 20
3.334722
 30
0.000000
  0
VERTEX
  8
MERGEDLAYER-2
 10
2.285011
 20
3.405236
 30
0.000000
  0
VERTEX
  8
MERGEDLAYER-2
 10
2.257566
 20
3.474385
 30
0.000000
  0
VERTEX
  8
MERGEDLAYER-2
 10
2.219513
 20
3.541503
 30
0.000000
  0
VERTEX
  8
MERGEDLAYER-2
 10
2.171220
 20
3.605945
 30
0.000000
  0
VERTEX
  8
MERGEDLAYER-2
 10
2.113151
 20
3.667088
 30
0.000000
  0
VERTEX
  8
MERGEDLAYER-2
 10
2.045865
 20
3.724345
 30
0.000000
  0
VERTEX
  8
MERGEDLAYER-2
 10
1.970011
 20
3.777163
 30
0.000000
  0
VERTEX
  8
MERGEDLAYER-2
 10
1.886318
 20
3.825036
 30
0.000000
  0
VERTEX
  8
MERGEDLAYER-2
 10
1.795594
 20
3.867500
 30
0.000000
  0
VERTEX
  8
MERGEDLAYER-2
 10
1.698712
 20
3.904148
 30
0.000000
  0
VERTEX
  8
MERGEDLAYER-2
 10
1.596604
 20
3.934626
 30
0.000000
  0
VERTEX
  8
MERGEDLAYER-2
 10
1.490254
 20
3.958642
 30
0.000000
  0
VERTEX
  8
MERGEDLAYER-2
 10
1.380687
 20
3.975963
 30
0.000000
  0
VERTEX
  8
MERGEDLAYER-2
 10
1.268957
 20
3.986423
 30
0.000000
  0
VERTEX
  8
MERGEDLAYER-2
 10
1.156140
 20
3.989921
 30
0.000000
  0
VERTEX
  8
MERGEDLAYER-2
 10
1.043324
 20
3.986423
 30
0.000000
  0
VERTEX
  8
MERGEDLAYER-2
 10
0.931594
 20
3.975963
 30
0.000000
  0
VERTEX
  8
MERGEDLAYER-2
 10
0.822027
 20
3.958642
 30
0.000000
  0
VERTEX
  8
MERGEDLAYER-2
 10
0.715677
 20
3.934626
 30
0.000000
  0
VERTEX
  8
MERGEDLAYER-2
 10
0.613569
 20
3.904148
 30
0.000000
  0
VERTEX
  8
MERGEDLAYER-2
 10
0.516687
 20
3.867500
 30
0.000000
  0
VERTEX
  8
MERGEDLAYER-2
 10
0.425962
 20
3.825036
 30
0.000000
  0
VERTEX
  8
MERGEDLAYER-2
 10
0.342270
 20
3.777163
 30
0.000000
  0
VERTEX
  8
MERGEDLAYER-2
 10
0.266416
 20
3.724345
 30
0.000000
  0
VERTEX
  8
MERGEDLAYER-2
 10
0.199130
 20
3.667088
 30
0.000000
  0
VERTEX
  8
MERGEDLAYER-2
 10
0.141061
 20
3.605945
 30
0.000000
  0
VERTEX
  8
MERGEDLAYER-2
 10
0.092768
 20
3.541503
 30
0.000000
  0
VERTEX
  8
MERGEDLAYER-2
 10
0.054715
 20
3.474385
 30
0.000000
  0
VERTEX
  8
MERGEDLAYER-2
 10
0.027270
 20
3.405236
 30
0.000000
  0
VERTEX
  8
MERGEDLAYER-2
 10
0.010696
 20
3.334722
 30
0.000000
  0
VERTEX
  8
MERGEDLAYER-2
 10
0.005154
 20
3.263523
 30
0.000000
  0
VERTEX
  8
MERGEDLAYER-2
 10
0.010696
 20
3.192324
 30
0.000000
  0
VERTEX
  8
MERGEDLAYER-2
 10
0.027270
 20
3.121811
 30
0.000000
  0
VERTEX
  8
MERGEDLAYER-2
 10
0.054715
 20
3.052661
 30
0.000000
  0
VERTEX
  8
MERGEDLAYER-2
 10
0.092768
 20
2.985544
 30
0.000000
  0
VERTEX
  8
MERGEDLAYER-2
 10
0.141061
 20
2.921102
 30
0.000000
  0
VERTEX
  8
MERGEDLAYER-2
 10
0.199130
 20
2.859959
 30
0.000000
  0
VERTEX
  8
MERGEDLAYER-2
 10
0.266416
 20
2.802702
 30
0.000000
  0
VERTEX
  8
MERGEDLAYER-2
 10
0.342270
 20
2.749883
 30
0.000000
  0
VERTEX
  8
MERGEDLAYER-2
 10
0.425962
 20
2.702011
 30
0.000000
  0
VERTEX
  8
MERGEDLAYER-2
 10
0.516687
 20
2.659546
 30
0.000000
  0
VERTEX
  8
MERGEDLAYER-2
 10
0.613569
 20
2.622898
 30
0.000000
  0
VERTEX
  8
MERGEDLAYER-2
 10
0.715677
 20
2.592420
 30
0.000000
  0
VERTEX
  8
MERGEDLAYER-2
 10
0.822027
 20
2.568405
 30
0.000000
  0
VERTEX
  8
MERGEDLAYER-2
 10
0.931594
 20
2.551084
 30
0.000000
  0
VERTEX
  8
MERGEDLAYER-2
 10
1.043324
 20
2.540624
 30
0.000000
  0
VERTEX
  8
MERGEDLAYER-2
 10
1.156140
 20
2.537126
 30
0.000000
  0
VERTEX
  8
MERGEDLAYER-2
 10
1.268957
 20
2.540624
 30
0.000000
  0
VERTEX
  8
MERGEDLAYER-2
 10
1.380687
 20
2.551084
 30
0.000000
  0
VERTEX
  8
MERGEDLAYER-2
 10
1.490254
 20
2.568405
 30
0.000000
  0
VERTEX
  8
MERGEDLAYER-2
 10
1.596604
 20
2.592420
 30
0.000000
  0
VERTEX
  8
MERGEDLAYER-2
 10
1.698712
 20
2.622898
 30
0.000000
  0
VERTEX
  8
MERGEDLAYER-2
 10
1.795594
 20
2.659546
 30
0.000000
  0
VERTEX
  8
MERGEDLAYER-2
 10
1.886318
 20
2.702011
 30
0.000000
  0
VERTEX
  8
MERGEDLAYER-2
 10
1.970011
 20
2.749883
 30
0.000000
  0
VERTEX
  8
MERGEDLAYER-2
 10
2.045865
 20
2.802702
 30
0.000000
  0
VERTEX
  8
MERGEDLAYER-2
 10
2.113151
 20
2.859959
 30
0.000000
  0
VERTEX
  8
MERGEDLAYER-2
 10
2.171220
 20
2.921102
 30
0.000000
  0
VERTEX
  8
MERGEDLAYER-2
 10
2.219513
 20
2.985544
 30
0.000000
  0
VERTEX
  8
MERGEDLAYER-2
 10
2.257566
 20
3.052661
 30
0.000000
  0
VERTEX
  8
MERGEDLAYER-2
 10
2.285011
 20
3.121811
 30
0.000000
  0
VERTEX
  8
MERGEDLAYER-2
 10
2.301584
 20
3.192324
 30
0.000000
  0
VERTEX
  8
MERGEDLAYER-2
 10
2.307127
 20
3.263523
 30
0.000000
  0
SEQEND
  8
MERGEDLAYER-2
  0
POLYLINE
  8
MERGEDLAYER-2
 66
  1
 70
  0
 62
  7
 10
0.297811
 20
4.232044
 30
0.000000
  0
VERTEX
  8
MERGEDLAYER-2
 10
0.297811
 20
4.232044
 30
0.000000
  0
VERTEX
  8
MERGEDLAYER-2
 10
0.625475
 20
3.924339
 30
0.000000
  0
SEQEND
  8
MERGEDLAYER-2
  0
POLYLINE
  8
MERGEDLAYER-2
 66
  1
 70
  1
 62
  7
  0
VERTEX
  8
MERGEDLAYER-2
 10
0.639824
 20
3.910864
 30
0.000000
  0
VERTEX
  8
MERGEDLAYER-2
 10
0.588020
 20
3.922099
 30
0.000000
  0
VERTEX
  8
MERGEDLAYER-2
 10
0.606690
 20
3.941979
 30
0.000000
  0
VERTEX
  8
MERGEDLAYER-2
 10
0.625359
 20
3.961860
 30
0.000000
  0
VERTEX
  8
MERGEDLAYER-2
 10
0.639824
 20
3.910864
 30
0.000000
  0
SEQEND
  8
MERGEDLAYER-2
  0
TEXT
  8
MERGEDLAYER-2
 62
  7
 10
0.088404
 20
4.750762
 30
0.000000
 40
0.102273
  1
Tiges additionnelles
 72
  5
 11
1.297495
 21
4.750762
 31
0.000000
  0
TEXT
  8
MERGEDLAYER-2
 62
  7
 10
0.088404
 20
4.596217
 30
0.000000
 40
0.102273
  1
pour prÄvenir l'accÅs
 72
  5
 11
1.361131
 21
4.596217
 31
0.000000
  0
TEXT
  8
MERGEDLAYER-2
 62
  7
 10
0.088404
 20
4.441671
 30
0.000000
 40
0.102273
  1
au bouton papillon
 72
  5
 11
1.197495
 21
4.441671
 31
0.000000
  0
TEXT
  8
MERGEDLAYER-2
 62
  7
 10
0.088404
 20
4.287126
 30
0.000000
 40
0.102273
  1
du cÖtÄ extÄrieur
 72
  5
 11
1.115677
 21
4.287126
 31
0.000000
  0
POLYLINE
  8
MERGEDLAYER-2
 66
  1
 70
  0
 62
  7
 10
2.656489
 20
3.980605
 30
0.000000
  0
VERTEX
  8
MERGEDLAYER-2
 10
2.656489
 20
3.980605
 30
0.000000
  0
VERTEX
  8
MERGEDLAYER-2
 10
3.203187
 20
3.982448
 30
0.000000
  0
SEQEND
  8
MERGEDLAYER-2
  0
POLYLINE
  8
MERGEDLAYER-2
 66
  1
 70
  1
 62
  7
  0
VERTEX
  8
MERGEDLAYER-2
 10
2.636804
 20
3.980539
 30
0.000000
  0
VERTEX
  8
MERGEDLAYER-2
 10
2.682350
 20
3.953420
 30
0.000000
  0
VERTEX
  8
MERGEDLAYER-2
 10
2.682258
 20
3.980692
 30
0.000000
  0
VERTEX
  8
MERGEDLAYER-2
 10
2.682167
 20
4.007965
 30
0.000000
  0
VERTEX
  8
MERGEDLAYER-2
 10
2.636804
 20
3.980539
 30
0.000000
  0
SEQEND
  8
MERGEDLAYER-2
  0
POLYLINE
  8
MERGEDLAYER-2
 66
  1
 70
  0
 62
  7
 10
4.494425
 20
3.978314
 30
0.000000
  0
VERTEX
  8
MERGEDLAYER-2
 10
4.494425
 20
3.978314
 30
0.000000
  0
VERTEX
  8
MERGEDLAYER-2
 10
3.923588
 20
3.978166
 30
0.000000
  0
SEQEND
  8
MERGEDLAYER-2
  0
POLYLINE
  8
MERGEDLAYER-2
 66
  1
 70
  1
 62
  7
  0
VERTEX
  8
MERGEDLAYER-2
 10
4.514110
 20
3.978320
 30
0.000000
  0
VERTEX
  8
MERGEDLAYER-2
 10
4.468648
 20
4.005581
 30
0.000000
  0
VERTEX
  8
MERGEDLAYER-2
 10
4.468655
 20
3.978308
 30
0.000000
  0
VERTEX
  8
MERGEDLAYER-2
 10
4.468662
 20
3.951035
 30
0.000000
  0
VERTEX
  8
MERGEDLAYER-2
 10
4.514110
 20
3.978320
 30
0.000000
  0
SEQEND
  8
MERGEDLAYER-2
  0
POLYLINE
  8
MERGEDLAYER-2
 66
  1
 70
  0
 62
  7
 10
2.639377
 20
4.297368
 30
0.000000
  0
VERTEX
  8
MERGEDLAYER-2
 10
2.639377
 20
4.297368
 30
0.000000
  0
VERTEX
  8
MERGEDLAYER-2
 10
2.639377
 20
3.916415
 30
0.000000
  0
SEQEND
  8
MERGEDLAYER-2
  0
POLYLINE
  8
MERGEDLAYER-2
 66
  1
 70
  0
 62
  7
 10
4.513667
 20
4.302448
 30
0.000000
  0
VERTEX
  8
MERGEDLAYER-2
 10
4.513667
 20
4.302448
 30
0.000000
  0
VERTEX
  8
MERGEDLAYER-2
 10
4.513667
 20
3.911336
 30
0.000000
  0
SEQEND
  8
MERGEDLAYER-2
  0
POLYLINE
  8
MERGEDLAYER-2
 66
  1
 70
  1
 62
  7
  0
VERTEX
  8
MERGEDLAYER-2
 10
2.170437
 20
4.535870
 30
0.000000
  0
VERTEX
  8
MERGEDLAYER-2
 10
2.176825
 20
4.535870
 30
0.000000
  0
VERTEX
  8
MERGEDLAYER-2
 10
2.176825
 20
4.385706
 30
0.000000
  0
VERTEX
  8
MERGEDLAYER-2
 10
2.170437
 20
4.385706
 30
0.000000
  0
SEQEND
  8
MERGEDLAYER-2
  0
POLYLINE
  8
MERGEDLAYER-2
 66
  1
 70
  1
 62
  7
  0
VERTEX
  8
MERGEDLAYER-2
 10
2.176825
 20
4.663261
 30
0.000000
  0
VERTEX
  8
MERGEDLAYER-2
 10
2.183219
 20
4.663261
 30
0.000000
  0
VERTEX
  8
MERGEDLAYER-2
 10
2.183219
 20
4.503527
 30
0.000000
  0
VERTEX
  8
MERGEDLAYER-2
 10
2.176825
 20
4.503527
 30
0.000000
  0
SEQEND
  8
MERGEDLAYER-2
  0
POLYLINE
  8
MERGEDLAYER-2
 66
  1
 70
  1
 62
  7
  0
VERTEX
  8
MERGEDLAYER-2
 10
2.170437
 20
4.791512
 30
0.000000
  0
VERTEX
  8
MERGEDLAYER-2
 10
2.176825
 20
4.791512
 30
0.000000
  0
VERTEX
  8
MERGEDLAYER-2
 10
2.176825
 20
4.631343
 30
0.000000
  0
VERTEX
  8
MERGEDLAYER-2
 10
2.170437
 20
4.631343
 30
0.000000
  0
SEQEND
  8
MERGEDLAYER-2
  0
POLYLINE
  8
MERGEDLAYER-2
 66
  1
 70
  1
 62
  7
  0
VERTEX
  8
MERGEDLAYER-2
 10
2.176825
 20
4.920629
 30
0.000000
  0
VERTEX
  8
MERGEDLAYER-2
 10
2.183219
 20
4.920629
 30
0.000000
  0
VERTEX
  8
MERGEDLAYER-2
 10
2.183219
 20
4.758725
 30
0.000000
  0
VERTEX
  8
MERGEDLAYER-2
 10
2.176825
 20
4.758725
 30
0.000000
  0
SEQEND
  8
MERGEDLAYER-2
  0
POLYLINE
  8
MERGEDLAYER-2
 66
  1
 70
  1
 62
  7
  0
VERTEX
  8
MERGEDLAYER-2
 10
2.170437
 20
5.046709
 30
0.000000
  0
VERTEX
  8
MERGEDLAYER-2
 10
2.176825
 20
5.046709
 30
0.000000
  0
VERTEX
  8
MERGEDLAYER-2
 10
2.176825
 20
4.887411
 30
0.000000
  0
VERTEX
  8
MERGEDLAYER-2
 10
2.170437
 20
4.887411
 30
0.000000
  0
SEQEND
  8
MERGEDLAYER-2
  0
POLYLINE
  8
MERGEDLAYER-2
 66
  1
 70
  1
 62
  7
  0
VERTEX
  8
MERGEDLAYER-2
 10
2.176825
 20
5.174961
 30
0.000000
  0
VERTEX
  8
MERGEDLAYER-2
 10
2.183219
 20
5.174961
 30
0.000000
  0
VERTEX
  8
MERGEDLAYER-2
 10
2.183219
 20
5.014357
 30
0.000000
  0
VERTEX
  8
MERGEDLAYER-2
 10
2.176825
 20
5.014357
 30
0.000000
  0
SEQEND
  8
MERGEDLAYER-2
  0
POLYLINE
  8
MERGEDLAYER-2
 66
  1
 70
  1
 62
  7
  0
VERTEX
  8
MERGEDLAYER-2
 10
2.170437
 20
5.302776
 30
0.000000
  0
VERTEX
  8
MERGEDLAYER-2
 10
2.176825
 20
5.302776
 30
0.000000
  0
VERTEX
  8
MERGEDLAYER-2
 10
2.176825
 20
5.141741
 30
0.000000
  0
VERTEX
  8
MERGEDLAYER-2
 10
2.170437
 20
5.141741
 30
0.000000
  0
SEQEND
  8
MERGEDLAYER-2
  0
POLYLINE
  8
MERGEDLAYER-2
 66
  1
 70
  1
 62
  7
  0
VERTEX
  8
MERGEDLAYER-2
 10
2.176825
 20
5.431027
 30
0.000000
  0
VERTEX
  8
MERGEDLAYER-2
 10
2.183219
 20
5.431027
 30
0.000000
  0
VERTEX
  8
MERGEDLAYER-2
 10
2.183219
 20
5.269989
 30
0.000000
  0
VERTEX
  8
MERGEDLAYER-2
 10
2.176825
 20
5.269989
 30
0.000000
  0
SEQEND
  8
MERGEDLAYER-2
  0
POLYLINE
  8
MERGEDLAYER-2
 66
  1
 70
  1
 62
  7
  0
VERTEX
  8
MERGEDLAYER-2
 10
2.170437
 20
5.557976
 30
0.000000
  0
VERTEX
  8
MERGEDLAYER-2
 10
2.176825
 20
5.557976
 30
0.000000
  0
VERTEX
  8
MERGEDLAYER-2
 10
2.176825
 20
5.397807
 30
0.000000
  0
VERTEX
  8
MERGEDLAYER-2
 10
2.170437
 20
5.397807
 30
0.000000
  0
SEQEND
  8
MERGEDLAYER-2
  0
POLYLINE
  8
MERGEDLAYER-2
 66
  1
 70
  1
 62
  7
  0
VERTEX
  8
MERGEDLAYER-2
 10
2.176825
 20
5.686224
 30
0.000000
  0
VERTEX
  8
MERGEDLAYER-2
 10
2.183219
 20
5.686224
 30
0.000000
  0
VERTEX
  8
MERGEDLAYER-2
 10
2.183219
 20
5.525623
 30
0.000000
  0
VERTEX
  8
MERGEDLAYER-2
 10
2.176825
 20
5.525623
 30
0.000000
  0
SEQEND
  8
MERGEDLAYER-2
  0
POLYLINE
  8
MERGEDLAYER-2
 66
  1
 70
  1
 62
  7
  0
VERTEX
  8
MERGEDLAYER-2
 10
2.170437
 20
5.814041
 30
0.000000
  0
VERTEX
  8
MERGEDLAYER-2
 10
2.176825
 20
5.814041
 30
0.000000
  0
VERTEX
  8
MERGEDLAYER-2
 10
2.176825
 20
5.654306
 30
0.000000
  0
VERTEX
  8
MERGEDLAYER-2
 10
2.170437
 20
5.654306
 30
0.000000
  0
SEQEND
  8
MERGEDLAYER-2
  0
POLYLINE
  8
MERGEDLAYER-2
 66
  1
 70
  1
 62
  7
  0
VERTEX
  8
MERGEDLAYER-2
 10
2.176825
 20
5.942726
 30
0.000000
  0
VERTEX
  8
MERGEDLAYER-2
 10
2.183219
 20
5.942726
 30
0.000000
  0
VERTEX
  8
MERGEDLAYER-2
 10
2.183219
 20
5.781687
 30
0.000000
  0
VERTEX
  8
MERGEDLAYER-2
 10
2.176825
 20
5.781687
 30
0.000000
  0
SEQEND
  8
MERGEDLAYER-2
  0
POLYLINE
  8
MERGEDLAYER-2
 66
  1
 70
  1
 62
  7
  0
VERTEX
  8
MERGEDLAYER-2
 10
2.170437
 20
6.070109
 30
0.000000
  0
VERTEX
  8
MERGEDLAYER-2
 10
2.176825
 20
6.070109
 30
0.000000
  0
VERTEX
  8
MERGEDLAYER-2
 10
2.176825
 20
5.909505
 30
0.000000
  0
VERTEX
  8
MERGEDLAYER-2
 10
2.170437
 20
5.909505
 30
0.000000
  0
SEQEND
  8
MERGEDLAYER-2
  0
POLYLINE
  8
MERGEDLAYER-2
 66
  1
 70
  1
 62
  7
  0
VERTEX
  8
MERGEDLAYER-2
 10
2.176825
 20
6.197490
 30
0.000000
  0
VERTEX
  8
MERGEDLAYER-2
 10
2.183219
 20
6.197490
 30
0.000000
  0
VERTEX
  8
MERGEDLAYER-2
 10
2.183219
 20
6.037322
 30
0.000000
  0
VERTEX
  8
MERGEDLAYER-2
 10
2.176825
 20
6.037322
 30
0.000000
  0
SEQEND
  8
MERGEDLAYER-2
  0
POLYLINE
  8
MERGEDLAYER-2
 66
  1
 70
  1
 62
  7
  0
VERTEX
  8
MERGEDLAYER-2
 10
2.170437
 20
6.324438
 30
0.000000
  0
VERTEX
  8
MERGEDLAYER-2
 10
2.176825
 20
6.324438
 30
0.000000
  0
VERTEX
  8
MERGEDLAYER-2
 10
2.176825
 20
6.164271
 30
0.000000
  0
VERTEX
  8
MERGEDLAYER-2
 10
2.170437
 20
6.164271
 30
0.000000
  0
SEQEND
  8
MERGEDLAYER-2
  0
POLYLINE
  8
MERGEDLAYER-2
 66
  1
 70
  1
 62
  7
  0
VERTEX
  8
MERGEDLAYER-2
 10
2.176825
 20
6.453123
 30
0.000000
  0
VERTEX
  8
MERGEDLAYER-2
 10
2.183219
 20
6.453123
 30
0.000000
  0
VERTEX
  8
MERGEDLAYER-2
 10
2.183219
 20
6.293387
 30
0.000000
  0
VERTEX
  8
MERGEDLAYER-2
 10
2.176825
 20
6.293387
 30
0.000000
  0
SEQEND
  8
MERGEDLAYER-2
  0
POLYLINE
  8
MERGEDLAYER-2
 66
  1
 70
  1
 62
  7
  0
VERTEX
  8
MERGEDLAYER-2
 10
2.170437
 20
6.580938
 30
0.000000
  0
VERTEX
  8
MERGEDLAYER-2
 10
2.176825
 20
6.580938
 30
0.000000
  0
VERTEX
  8
MERGEDLAYER-2
 10
2.176825
 20
6.420335
 30
0.000000
  0
VERTEX
  8
MERGEDLAYER-2
 10
2.170437
 20
6.420335
 30
0.000000
  0
SEQEND
  8
MERGEDLAYER-2
  0
POLYLINE
  8
MERGEDLAYER-2
 66
  1
 70
  1
 62
  7
  0
VERTEX
  8
MERGEDLAYER-2
 10
2.176825
 20
6.709187
 30
0.000000
  0
VERTEX
  8
MERGEDLAYER-2
 10
2.183219
 20
6.709187
 30
0.000000
  0
VERTEX
  8
MERGEDLAYER-2
 10
2.183219
 20
6.548586
 30
0.000000
  0
VERTEX
  8
MERGEDLAYER-2
 10
2.176825
 20
6.548586
 30
0.000000
  0
SEQEND
  8
MERGEDLAYER-2
  0
POLYLINE
  8
MERGEDLAYER-2
 66
  1
 70
  1
 62
  7
  0
VERTEX
  8
MERGEDLAYER-2
 10
2.170437
 20
6.836569
 30
0.000000
  0
VERTEX
  8
MERGEDLAYER-2
 10
2.176825
 20
6.836569
 30
0.000000
  0
VERTEX
  8
MERGEDLAYER-2
 10
2.176825
 20
6.676401
 30
0.000000
  0
VERTEX
  8
MERGEDLAYER-2
 10
2.170437
 20
6.676401
 30
0.000000
  0
SEQEND
  8
MERGEDLAYER-2
  0
POLYLINE
  8
MERGEDLAYER-2
 66
  1
 70
  1
 62
  7
  0
VERTEX
  8
MERGEDLAYER-2
 10
2.176825
 20
8.240141
 30
0.000000
  0
VERTEX
  8
MERGEDLAYER-2
 10
2.183219
 20
8.240141
 30
0.000000
  0
VERTEX
  8
MERGEDLAYER-2
 10
2.183219
 20
8.080407
 30
0.000000
  0
VERTEX
  8
MERGEDLAYER-2
 10
2.176825
 20
8.080407
 30
0.000000
  0
SEQEND
  8
MERGEDLAYER-2
  0
POLYLINE
  8
MERGEDLAYER-2
 66
  1
 70
  1
 62
  7
  0
VERTEX
  8
MERGEDLAYER-2
 10
2.170437
 20
8.367958
 30
0.000000
  0
VERTEX
  8
MERGEDLAYER-2
 10
2.176825
 20
8.367958
 30
0.000000
  0
VERTEX
  8
MERGEDLAYER-2
 10
2.176825
 20
8.207798
 30
0.000000
  0
VERTEX
  8
MERGEDLAYER-2
 10
2.170437
 20
8.207798
 30
0.000000
  0
SEQEND
  8
MERGEDLAYER-2
  0
POLYLINE
  8
MERGEDLAYER-2
 66
  1
 70
  1
 62
  7
  0
VERTEX
  8
MERGEDLAYER-2
 10
2.176825
 20
7.984903
 30
0.000000
  0
VERTEX
  8
MERGEDLAYER-2
 10
2.183219
 20
7.984903
 30
0.000000
  0
VERTEX
  8
MERGEDLAYER-2
 10
2.183219
 20
7.825169
 30
0.000000
  0
VERTEX
  8
MERGEDLAYER-2
 10
2.176825
 20
7.825169
 30
0.000000
  0
SEQEND
  8
MERGEDLAYER-2
  0
POLYLINE
  8
MERGEDLAYER-2
 66
  1
 70
  1
 62
  7
  0
VERTEX
  8
MERGEDLAYER-2
 10
2.170437
 20
8.113154
 30
0.000000
  0
VERTEX
  8
MERGEDLAYER-2
 10
2.176825
 20
8.113154
 30
0.000000
  0
VERTEX
  8
MERGEDLAYER-2
 10
2.176825
 20
7.953428
 30
0.000000
  0
VERTEX
  8
MERGEDLAYER-2
 10
2.170437
 20
7.953428
 30
0.000000
  0
SEQEND
  8
MERGEDLAYER-2
  0
POLYLINE
  8
MERGEDLAYER-2
 66
  1
 70
  1
 62
  7
  0
VERTEX
  8
MERGEDLAYER-2
 10
2.176825
 20
7.729231
 30
0.000000
  0
VERTEX
  8
MERGEDLAYER-2
 10
2.183219
 20
7.729231
 30
0.000000
  0
VERTEX
  8
MERGEDLAYER-2
 10
2.183219
 20
7.569931
 30
0.000000
  0
VERTEX
  8
MERGEDLAYER-2
 10
2.176825
 20
7.569931
 30
0.000000
  0
SEQEND
  8
MERGEDLAYER-2
  0
POLYLINE
  8
MERGEDLAYER-2
 66
  1
 70
  1
 62
  7
  0
VERTEX
  8
MERGEDLAYER-2
 10
2.170437
 20
7.857048
 30
0.000000
  0
VERTEX
  8
MERGEDLAYER-2
 10
2.176825
 20
7.857048
 30
0.000000
  0
VERTEX
  8
MERGEDLAYER-2
 10
2.176825
 20
7.698624
 30
0.000000
  0
VERTEX
  8
MERGEDLAYER-2
 10
2.170437
 20
7.698624
 30
0.000000
  0
SEQEND
  8
MERGEDLAYER-2
  0
POLYLINE
  8
MERGEDLAYER-2
 66
  1
 70
  1
 62
  7
  0
VERTEX
  8
MERGEDLAYER-2
 10
2.176825
 20
7.475294
 30
0.000000
  0
VERTEX
  8
MERGEDLAYER-2
 10
2.183219
 20
7.475294
 30
0.000000
  0
VERTEX
  8
MERGEDLAYER-2
 10
2.183219
 20
7.315126
 30
0.000000
  0
VERTEX
  8
MERGEDLAYER-2
 10
2.176825
 20
7.315126
 30
0.000000
  0
SEQEND
  8
MERGEDLAYER-2
  0
POLYLINE
  8
MERGEDLAYER-2
 66
  1
 70
  1
 62
  7
  0
VERTEX
  8
MERGEDLAYER-2
 10
2.170437
 20
7.602243
 30
0.000000
  0
VERTEX
  8
MERGEDLAYER-2
 10
2.176825
 20
7.602243
 30
0.000000
  0
VERTEX
  8
MERGEDLAYER-2
 10
2.176825
 20
7.442517
 30
0.000000
  0
VERTEX
  8
MERGEDLAYER-2
 10
2.170437
 20
7.442517
 30
0.000000
  0
SEQEND
  8
MERGEDLAYER-2
  0
POLYLINE
  8
MERGEDLAYER-2
 66
  1
 70
  1
 62
  7
  0
VERTEX
  8
MERGEDLAYER-2
 10
2.176825
 20
7.220057
 30
0.000000
  0
VERTEX
  8
MERGEDLAYER-2
 10
2.183219
 20
7.220057
 30
0.000000
  0
VERTEX
  8
MERGEDLAYER-2
 10
2.183219
 20
7.059455
 30
0.000000
  0
VERTEX
  8
MERGEDLAYER-2
 10
2.176825
 20
7.059455
 30
0.000000
  0
SEQEND
  8
MERGEDLAYER-2
  0
POLYLINE
  8
MERGEDLAYER-2
 66
  1
 70
  1
 62
  7
  0
VERTEX
  8
MERGEDLAYER-2
 10
2.170437
 20
7.346571
 30
0.000000
  0
VERTEX
  8
MERGEDLAYER-2
 10
2.176825
 20
7.346571
 30
0.000000
  0
VERTEX
  8
MERGEDLAYER-2
 10
2.176825
 20
7.187279
 30
0.000000
  0
VERTEX
  8
MERGEDLAYER-2
 10
2.170437
 20
7.187279
 30
0.000000
  0
SEQEND
  8
MERGEDLAYER-2
  0
POLYLINE
  8
MERGEDLAYER-2
 66
  1
 70
  1
 62
  7
  0
VERTEX
  8
MERGEDLAYER-2
 10
2.176825
 20
6.964819
 30
0.000000
  0
VERTEX
  8
MERGEDLAYER-2
 10
2.183219
 20
6.964819
 30
0.000000
  0
VERTEX
  8
MERGEDLAYER-2
 10
2.183219
 20
6.803783
 30
0.000000
  0
VERTEX
  8
MERGEDLAYER-2
 10
2.176825
 20
6.803783
 30
0.000000
  0
SEQEND
  8
MERGEDLAYER-2
  0
POLYLINE
  8
MERGEDLAYER-2
 66
  1
 70
  1
 62
  7
  0
VERTEX
  8
MERGEDLAYER-2
 10
2.170437
 20
7.091333
 30
0.000000
  0
VERTEX
  8
MERGEDLAYER-2
 10
2.176825
 20
7.091333
 30
0.000000
  0
VERTEX
  8
MERGEDLAYER-2
 10
2.176825
 20
6.932041
 30
0.000000
  0
VERTEX
  8
MERGEDLAYER-2
 10
2.170437
 20
6.932041
 30
0.000000
  0
SEQEND
  8
MERGEDLAYER-2
  0
POLYLINE
  8
MERGEDLAYER-2
 66
  1
 70
  0
 62
  7
 10
5.626449
 20
5.681450
 30
0.000000
  0
VERTEX
  8
MERGEDLAYER-2
 10
5.626449
 20
5.681450
 30
0.000000
  0
VERTEX
  8
MERGEDLAYER-2
 10
6.447116
 20
5.681450
 30
0.000000
  0
SEQEND
  8
MERGEDLAYER-2
  0
POLYLINE
  8
MERGEDLAYER-2
 66
  1
 70
  0
 62
  7
 10
5.626449
 20
4.385706
 30
0.000000
  0
VERTEX
  8
MERGEDLAYER-2
 10
5.626449
 20
4.385706
 30
0.000000
  0
VERTEX
  8
MERGEDLAYER-2
 10
6.447116
 20
4.385706
 30
0.000000
  0
SEQEND
  8
MERGEDLAYER-2
  0
POLYLINE
  8
MERGEDLAYER-2
 66
  1
 70
  0
 62
  7
 10
6.134616
 20
5.662014
 30
0.000000
  0
VERTEX
  8
MERGEDLAYER-2
 10
6.134616
 20
5.662014
 30
0.000000
  0
VERTEX
  8
MERGEDLAYER-2
 10
6.134616
 20
4.402773
 30
0.000000
  0
SEQEND
  8
MERGEDLAYER-2
  0
POLYLINE
  8
MERGEDLAYER-2
 66
  1
 70
  1
 62
  7
  0
VERTEX
  8
MERGEDLAYER-2
 10
6.134616
 20
5.681699
 30
0.000000
  0
VERTEX
  8
MERGEDLAYER-2
 10
6.107344
 20
5.636244
 30
0.000000
  0
VERTEX
  8
MERGEDLAYER-2
 10
6.134616
 20
5.636244
 30
0.000000
  0
VERTEX
  8
MERGEDLAYER-2
 10
6.161889
 20
5.636244
 30
0.000000
  0
VERTEX
  8
MERGEDLAYER-2
 10
6.134616
 20
5.681699
 30
0.000000
  0
SEQEND
  8
MERGEDLAYER-2
  0
POLYLINE
  8
MERGEDLAYER-2
 66
  1
 70
  1
 62
  7
  0
VERTEX
  8
MERGEDLAYER-2
 10
6.134616
 20
4.383088
 30
0.000000
  0
VERTEX
  8
MERGEDLAYER-2
 10
6.107344
 20
4.428542
 30
0.000000
  0
VERTEX
  8
MERGEDLAYER-2
 10
6.134616
 20
4.428542
 30
0.000000
  0
VERTEX
  8
MERGEDLAYER-2
 10
6.161889
 20
4.428542
 30
0.000000
  0
VERTEX
  8
MERGEDLAYER-2
 10
6.134616
 20
4.383088
 30
0.000000
  0
SEQEND
  8
MERGEDLAYER-2
  0
POLYLINE
  8
MERGEDLAYER-2
 66
  1
 70
  0
 62
  7
 10
3.087632
 20
4.884714
 30
0.000000
  0
VERTEX
  8
MERGEDLAYER-2
 10
3.087632
 20
4.884714
 30
0.000000
  0
VERTEX
  8
MERGEDLAYER-2
 10
1.974025
 20
3.771107
 30
0.000000
  0
SEQEND
  8
MERGEDLAYER-2
  0
POLYLINE
  8
MERGEDLAYER-2
 66
  1
 70
  1
 62
  7
  0
VERTEX
  8
MERGEDLAYER-2
 10
2.636937
 20
4.535870
 30
0.000000
  0
VERTEX
  8
MERGEDLAYER-2
 10
2.643325
 20
4.535870
 30
0.000000
  0
VERTEX
  8
MERGEDLAYER-2
 10
2.643325
 20
4.385706
 30
0.000000
  0
VERTEX
  8
MERGEDLAYER-2
 10
2.636937
 20
4.385706
 30
0.000000
  0
SEQEND
  8
MERGEDLAYER-2
  0
POLYLINE
  8
MERGEDLAYER-2
 66
  1
 70
  1
 62
  7
  0
VERTEX
  8
MERGEDLAYER-2
 10
2.643325
 20
4.663261
 30
0.000000
  0
VERTEX
  8
MERGEDLAYER-2
 10
2.649719
 20
4.663261
 30
0.000000
  0
VERTEX
  8
MERGEDLAYER-2
 10
2.649719
 20
4.503527
 30
0.000000
  0
VERTEX
  8
MERGEDLAYER-2
 10
2.643325
 20
4.503527
 30
0.000000
  0
SEQEND
  8
MERGEDLAYER-2
  0
POLYLINE
  8
MERGEDLAYER-2
 66
  1
 70
  1
 62
  7
  0
VERTEX
  8
MERGEDLAYER-2
 10
2.636937
 20
4.791512
 30
0.000000
  0
VERTEX
  8
MERGEDLAYER-2
 10
2.643325
 20
4.791512
 30
0.000000
  0
VERTEX
  8
MERGEDLAYER-2
 10
2.643325
 20
4.631343
 30
0.000000
  0
VERTEX
  8
MERGEDLAYER-2
 10
2.636937
 20
4.631343
 30
0.000000
  0
SEQEND
  8
MERGEDLAYER-2
  0
POLYLINE
  8
MERGEDLAYER-2
 66
  1
 70
  1
 62
  7
  0
VERTEX
  8
MERGEDLAYER-2
 10
2.643325
 20
4.920629
 30
0.000000
  0
VERTEX
  8
MERGEDLAYER-2
 10
2.649719
 20
4.920629
 30
0.000000
  0
VERTEX
  8
MERGEDLAYER-2
 10
2.649719
 20
4.758725
 30
0.000000
  0
VERTEX
  8
MERGEDLAYER-2
 10
2.643325
 20
4.758725
 30
0.000000
  0
SEQEND
  8
MERGEDLAYER-2
  0
POLYLINE
  8
MERGEDLAYER-2
 66
  1
 70
  1
 62
  7
  0
VERTEX
  8
MERGEDLAYER-2
 10
2.636937
 20
5.046709
 30
0.000000
  0
VERTEX
  8
MERGEDLAYER-2
 10
2.643325
 20
5.046709
 30
0.000000
  0
VERTEX
  8
MERGEDLAYER-2
 10
2.643325
 20
4.887411
 30
0.000000
  0
VERTEX
  8
MERGEDLAYER-2
 10
2.636937
 20
4.887411
 30
0.000000
  0
SEQEND
  8
MERGEDLAYER-2
  0
POLYLINE
  8
MERGEDLAYER-2
 66
  1
 70
  1
 62
  7
  0
VERTEX
  8
MERGEDLAYER-2
 10
2.643325
 20
5.174961
 30
0.000000
  0
VERTEX
  8
MERGEDLAYER-2
 10
2.649719
 20
5.174961
 30
0.000000
  0
VERTEX
  8
MERGEDLAYER-2
 10
2.649719
 20
5.014357
 30
0.000000
  0
VERTEX
  8
MERGEDLAYER-2
 10
2.643325
 20
5.014357
 30
0.000000
  0
SEQEND
  8
MERGEDLAYER-2
  0
POLYLINE
  8
MERGEDLAYER-2
 66
  1
 70
  1
 62
  7
  0
VERTEX
  8
MERGEDLAYER-2
 10
2.636937
 20
5.302776
 30
0.000000
  0
VERTEX
  8
MERGEDLAYER-2
 10
2.643325
 20
5.302776
 30
0.000000
  0
VERTEX
  8
MERGEDLAYER-2
 10
2.643325
 20
5.141741
 30
0.000000
  0
VERTEX
  8
MERGEDLAYER-2
 10
2.636937
 20
5.141741
 30
0.000000
  0
SEQEND
  8
MERGEDLAYER-2
  0
POLYLINE
  8
MERGEDLAYER-2
 66
  1
 70
  1
 62
  7
  0
VERTEX
  8
MERGEDLAYER-2
 10
2.643325
 20
5.431027
 30
0.000000
  0
VERTEX
  8
MERGEDLAYER-2
 10
2.649719
 20
5.431027
 30
0.000000
  0
VERTEX
  8
MERGEDLAYER-2
 10
2.649719
 20
5.269989
 30
0.000000
  0
VERTEX
  8
MERGEDLAYER-2
 10
2.643325
 20
5.269989
 30
0.000000
  0
SEQEND
  8
MERGEDLAYER-2
  0
POLYLINE
  8
MERGEDLAYER-2
 66
  1
 70
  1
 62
  7
  0
VERTEX
  8
MERGEDLAYER-2
 10
2.636937
 20
5.557976
 30
0.000000
  0
VERTEX
  8
MERGEDLAYER-2
 10
2.643325
 20
5.557976
 30
0.000000
  0
VERTEX
  8
MERGEDLAYER-2
 10
2.643325
 20
5.397807
 30
0.000000
  0
VERTEX
  8
MERGEDLAYER-2
 10
2.636937
 20
5.397807
 30
0.000000
  0
SEQEND
  8
MERGEDLAYER-2
  0
POLYLINE
  8
MERGEDLAYER-2
 66
  1
 70
  1
 62
  7
  0
VERTEX
  8
MERGEDLAYER-2
 10
2.643325
 20
5.686224
 30
0.000000
  0
VERTEX
  8
MERGEDLAYER-2
 10
2.649719
 20
5.686224
 30
0.000000
  0
VERTEX
  8
MERGEDLAYER-2
 10
2.649719
 20
5.525623
 30
0.000000
  0
VERTEX
  8
MERGEDLAYER-2
 10
2.643325
 20
5.525623
 30
0.000000
  0
SEQEND
  8
MERGEDLAYER-2
  0
POLYLINE
  8
MERGEDLAYER-2
 66
  1
 70
  1
 62
  7
  0
VERTEX
  8
MERGEDLAYER-2
 10
2.636937
 20
5.814041
 30
0.000000
  0
VERTEX
  8
MERGEDLAYER-2
 10
2.643325
 20
5.814041
 30
0.000000
  0
VERTEX
  8
MERGEDLAYER-2
 10
2.643325
 20
5.654306
 30
0.000000
  0
VERTEX
  8
MERGEDLAYER-2
 10
2.636937
 20
5.654306
 30
0.000000
  0
SEQEND
  8
MERGEDLAYER-2
  0
POLYLINE
  8
MERGEDLAYER-2
 66
  1
 70
  1
 62
  7
  0
VERTEX
  8
MERGEDLAYER-2
 10
2.643325
 20
5.942726
 30
0.000000
  0
VERTEX
  8
MERGEDLAYER-2
 10
2.649719
 20
5.942726
 30
0.000000
  0
VERTEX
  8
MERGEDLAYER-2
 10
2.649719
 20
5.781687
 30
0.000000
  0
VERTEX
  8
MERGEDLAYER-2
 10
2.643325
 20
5.781687
 30
0.000000
  0
SEQEND
  8
MERGEDLAYER-2
  0
POLYLINE
  8
MERGEDLAYER-2
 66
  1
 70
  1
 62
  7
  0
VERTEX
  8
MERGEDLAYER-2
 10
2.636937
 20
6.070109
 30
0.000000
  0
VERTEX
  8
MERGEDLAYER-2
 10
2.643325
 20
6.070109
 30
0.000000
  0
VERTEX
  8
MERGEDLAYER-2
 10
2.643325
 20
5.909505
 30
0.000000
  0
VERTEX
  8
MERGEDLAYER-2
 10
2.636937
 20
5.909505
 30
0.000000
  0
SEQEND
  8
MERGEDLAYER-2
  0
POLYLINE
  8
MERGEDLAYER-2
 66
  1
 70
  1
 62
  7
  0
VERTEX
  8
MERGEDLAYER-2
 10
2.643325
 20
6.197490
 30
0.000000
  0
VERTEX
  8
MERGEDLAYER-2
 10
2.649719
 20
6.197490
 30
0.000000
  0
VERTEX
  8
MERGEDLAYER-2
 10
2.649719
 20
6.037322
 30
0.000000
  0
VERTEX
  8
MERGEDLAYER-2
 10
2.643325
 20
6.037322
 30
0.000000
  0
SEQEND
  8
MERGEDLAYER-2
  0
POLYLINE
  8
MERGEDLAYER-2
 66
  1
 70
  1
 62
  7
  0
VERTEX
  8
MERGEDLAYER-2
 10
2.636937
 20
6.324438
 30
0.000000
  0
VERTEX
  8
MERGEDLAYER-2
 10
2.643325
 20
6.324438
 30
0.000000
  0
VERTEX
  8
MERGEDLAYER-2
 10
2.643325
 20
6.164271
 30
0.000000
  0
VERTEX
  8
MERGEDLAYER-2
 10
2.636937
 20
6.164271
 30
0.000000
  0
SEQEND
  8
MERGEDLAYER-2
  0
POLYLINE
  8
MERGEDLAYER-2
 66
  1
 70
  1
 62
  7
  0
VERTEX
  8
MERGEDLAYER-2
 10
2.643325
 20
6.453123
 30
0.000000
  0
VERTEX
  8
MERGEDLAYER-2
 10
2.649719
 20
6.453123
 30
0.000000
  0
VERTEX
  8
MERGEDLAYER-2
 10
2.649719
 20
6.293387
 30
0.000000
  0
VERTEX
  8
MERGEDLAYER-2
 10
2.643325
 20
6.293387
 30
0.000000
  0
SEQEND
  8
MERGEDLAYER-2
  0
POLYLINE
  8
MERGEDLAYER-2
 66
  1
 70
  1
 62
  7
  0
VERTEX
  8
MERGEDLAYER-2
 10
2.636937
 20
6.580938
 30
0.000000
  0
VERTEX
  8
MERGEDLAYER-2
 10
2.643325
 20
6.580938
 30
0.000000
  0
VERTEX
  8
MERGEDLAYER-2
 10
2.643325
 20
6.420335
 30
0.000000
  0
VERTEX
  8
MERGEDLAYER-2
 10
2.636937
 20
6.420335
 30
0.000000
  0
SEQEND
  8
MERGEDLAYER-2
  0
POLYLINE
  8
MERGEDLAYER-2
 66
  1
 70
  1
 62
  7
  0
VERTEX
  8
MERGEDLAYER-2
 10
2.643325
 20
6.709187
 30
0.000000
  0
VERTEX
  8
MERGEDLAYER-2
 10
2.649719
 20
6.709187
 30
0.000000
  0
VERTEX
  8
MERGEDLAYER-2
 10
2.649719
 20
6.548586
 30
0.000000
  0
VERTEX
  8
MERGEDLAYER-2
 10
2.643325
 20
6.548586
 30
0.000000
  0
SEQEND
  8
MERGEDLAYER-2
  0
POLYLINE
  8
MERGEDLAYER-2
 66
  1
 70
  1
 62
  7
  0
VERTEX
  8
MERGEDLAYER-2
 10
2.636937
 20
6.836569
 30
0.000000
  0
VERTEX
  8
MERGEDLAYER-2
 10
2.643325
 20
6.836569
 30
0.000000
  0
VERTEX
  8
MERGEDLAYER-2
 10
2.643325
 20
6.676401
 30
0.000000
  0
VERTEX
  8
MERGEDLAYER-2
 10
2.636937
 20
6.676401
 30
0.000000
  0
SEQEND
  8
MERGEDLAYER-2
  0
POLYLINE
  8
MERGEDLAYER-2
 66
  1
 70
  1
 62
  7
  0
VERTEX
  8
MERGEDLAYER-2
 10
2.643325
 20
8.240141
 30
0.000000
  0
VERTEX
  8
MERGEDLAYER-2
 10
2.649719
 20
8.240141
 30
0.000000
  0
VERTEX
  8
MERGEDLAYER-2
 10
2.649719
 20
8.080407
 30
0.000000
  0
VERTEX
  8
MERGEDLAYER-2
 10
2.643325
 20
8.080407
 30
0.000000
  0
SEQEND
  8
MERGEDLAYER-2
  0
POLYLINE
  8
MERGEDLAYER-2
 66
  1
 70
  1
 62
  7
  0
VERTEX
  8
MERGEDLAYER-2
 10
2.636937
 20
8.367958
 30
0.000000
  0
VERTEX
  8
MERGEDLAYER-2
 10
2.643325
 20
8.367958
 30
0.000000
  0
VERTEX
  8
MERGEDLAYER-2
 10
2.643325
 20
8.207798
 30
0.000000
  0
VERTEX
  8
MERGEDLAYER-2
 10
2.636937
 20
8.207798
 30
0.000000
  0
SEQEND
  8
MERGEDLAYER-2
  0
POLYLINE
  8
MERGEDLAYER-2
 66
  1
 70
  1
 62
  7
  0
VERTEX
  8
MERGEDLAYER-2
 10
2.643325
 20
7.984903
 30
0.000000
  0
VERTEX
  8
MERGEDLAYER-2
 10
2.649719
 20
7.984903
 30
0.000000
  0
VERTEX
  8
MERGEDLAYER-2
 10
2.649719
 20
7.825169
 30
0.000000
  0
VERTEX
  8
MERGEDLAYER-2
 10
2.643325
 20
7.825169
 30
0.000000
  0
SEQEND
  8
MERGEDLAYER-2
  0
POLYLINE
  8
MERGEDLAYER-2
 66
  1
 70
  1
 62
  7
  0
VERTEX
  8
MERGEDLAYER-2
 10
2.636937
 20
8.113154
 30
0.000000
  0
VERTEX
  8
MERGEDLAYER-2
 10
2.643325
 20
8.113154
 30
0.000000
  0
VERTEX
  8
MERGEDLAYER-2
 10
2.643325
 20
7.953428
 30
0.000000
  0
VERTEX
  8
MERGEDLAYER-2
 10
2.636937
 20
7.953428
 30
0.000000
  0
SEQEND
  8
MERGEDLAYER-2
  0
POLYLINE
  8
MERGEDLAYER-2
 66
  1
 70
  1
 62
  7
  0
VERTEX
  8
MERGEDLAYER-2
 10
2.643325
 20
7.729231
 30
0.000000
  0
VERTEX
  8
MERGEDLAYER-2
 10
2.649719
 20
7.729231
 30
0.000000
  0
VERTEX
  8
MERGEDLAYER-2
 10
2.649719
 20
7.569931
 30
0.000000
  0
VERTEX
  8
MERGEDLAYER-2
 10
2.643325
 20
7.569931
 30
0.000000
  0
SEQEND
  8
MERGEDLAYER-2
  0
POLYLINE
  8
MERGEDLAYER-2
 66
  1
 70
  1
 62
  7
  0
VERTEX
  8
MERGEDLAYER-2
 10
2.636937
 20
7.857048
 30
0.000000
  0
VERTEX
  8
MERGEDLAYER-2
 10
2.643325
 20
7.857048
 30
0.000000
  0
VERTEX
  8
MERGEDLAYER-2
 10
2.643325
 20
7.698624
 30
0.000000
  0
VERTEX
  8
MERGEDLAYER-2
 10
2.636937
 20
7.698624
 30
0.000000
  0
SEQEND
  8
MERGEDLAYER-2
  0
POLYLINE
  8
MERGEDLAYER-2
 66
  1
 70
  1
 62
  7
  0
VERTEX
  8
MERGEDLAYER-2
 10
2.643325
 20
7.475294
 30
0.000000
  0
VERTEX
  8
MERGEDLAYER-2
 10
2.649719
 20
7.475294
 30
0.000000
  0
VERTEX
  8
MERGEDLAYER-2
 10
2.649719
 20
7.315126
 30
0.000000
  0
VERTEX
  8
MERGEDLAYER-2
 10
2.643325
 20
7.315126
 30
0.000000
  0
SEQEND
  8
MERGEDLAYER-2
  0
POLYLINE
  8
MERGEDLAYER-2
 66
  1
 70
  1
 62
  7
  0
VERTEX
  8
MERGEDLAYER-2
 10
2.636937
 20
7.602243
 30
0.000000
  0
VERTEX
  8
MERGEDLAYER-2
 10
2.643325
 20
7.602243
 30
0.000000
  0
VERTEX
  8
MERGEDLAYER-2
 10
2.643325
 20
7.442517
 30
0.000000
  0
VERTEX
  8
MERGEDLAYER-2
 10
2.636937
 20
7.442517
 30
0.000000
  0
SEQEND
  8
MERGEDLAYER-2
  0
POLYLINE
  8
MERGEDLAYER-2
 66
  1
 70
  1
 62
  7
  0
VERTEX
  8
MERGEDLAYER-2
 10
2.643325
 20
7.220057
 30
0.000000
  0
VERTEX
  8
MERGEDLAYER-2
 10
2.649719
 20
7.220057
 30
0.000000
  0
VERTEX
  8
MERGEDLAYER-2
 10
2.649719
 20
7.059455
 30
0.000000
  0
VERTEX
  8
MERGEDLAYER-2
 10
2.643325
 20
7.059455
 30
0.000000
  0
SEQEND
  8
MERGEDLAYER-2
  0
POLYLINE
  8
MERGEDLAYER-2
 66
  1
 70
  1
 62
  7
  0
VERTEX
  8
MERGEDLAYER-2
 10
2.636937
 20
7.346571
 30
0.000000
  0
VERTEX
  8
MERGEDLAYER-2
 10
2.643325
 20
7.346571
 30
0.000000
  0
VERTEX
  8
MERGEDLAYER-2
 10
2.643325
 20
7.187279
 30
0.000000
  0
VERTEX
  8
MERGEDLAYER-2
 10
2.636937
 20
7.187279
 30
0.000000
  0
SEQEND
  8
MERGEDLAYER-2
  0
POLYLINE
  8
MERGEDLAYER-2
 66
  1
 70
  1
 62
  7
  0
VERTEX
  8
MERGEDLAYER-2
 10
2.643325
 20
6.964819
 30
0.000000
  0
VERTEX
  8
MERGEDLAYER-2
 10
2.649719
 20
6.964819
 30
0.000000
  0
VERTEX
  8
MERGEDLAYER-2
 10
2.649719
 20
6.803783
 30
0.000000
  0
VERTEX
  8
MERGEDLAYER-2
 10
2.643325
 20
6.803783
 30
0.000000
  0
SEQEND
  8
MERGEDLAYER-2
  0
POLYLINE
  8
MERGEDLAYER-2
 66
  1
 70
  1
 62
  7
  0
VERTEX
  8
MERGEDLAYER-2
 10
2.636937
 20
7.091333
 30
0.000000
  0
VERTEX
  8
MERGEDLAYER-2
 10
2.643325
 20
7.091333
 30
0.000000
  0
VERTEX
  8
MERGEDLAYER-2
 10
2.643325
 20
6.932041
 30
0.000000
  0
VERTEX
  8
MERGEDLAYER-2
 10
2.636937
 20
6.932041
 30
0.000000
  0
SEQEND
  8
MERGEDLAYER-2
  0
POLYLINE
  8
MERGEDLAYER-2
 66
  1
 70
  1
 62
  7
  0
VERTEX
  8
MERGEDLAYER-2
 10
3.103436
 20
4.535870
 30
0.000000
  0
VERTEX
  8
MERGEDLAYER-2
 10
3.109825
 20
4.535870
 30
0.000000
  0
VERTEX
  8
MERGEDLAYER-2
 10
3.109825
 20
4.385706
 30
0.000000
  0
VERTEX
  8
MERGEDLAYER-2
 10
3.103436
 20
4.385706
 30
0.000000
  0
SEQEND
  8
MERGEDLAYER-2
  0
POLYLINE
  8
MERGEDLAYER-2
 66
  1
 70
  1
 62
  7
  0
VERTEX
  8
MERGEDLAYER-2
 10
3.109825
 20
4.663261
 30
0.000000
  0
VERTEX
  8
MERGEDLAYER-2
 10
3.116219
 20
4.663261
 30
0.000000
  0
VERTEX
  8
MERGEDLAYER-2
 10
3.116219
 20
4.503527
 30
0.000000
  0
VERTEX
  8
MERGEDLAYER-2
 10
3.109825
 20
4.503527
 30
0.000000
  0
SEQEND
  8
MERGEDLAYER-2
  0
POLYLINE
  8
MERGEDLAYER-2
 66
  1
 70
  1
 62
  7
  0
VERTEX
  8
MERGEDLAYER-2
 10
3.103436
 20
4.791512
 30
0.000000
  0
VERTEX
  8
MERGEDLAYER-2
 10
3.109825
 20
4.791512
 30
0.000000
  0
VERTEX
  8
MERGEDLAYER-2
 10
3.109825
 20
4.631343
 30
0.000000
  0
VERTEX
  8
MERGEDLAYER-2
 10
3.103436
 20
4.631343
 30
0.000000
  0
SEQEND
  8
MERGEDLAYER-2
  0
POLYLINE
  8
MERGEDLAYER-2
 66
  1
 70
  1
 62
  7
  0
VERTEX
  8
MERGEDLAYER-2
 10
3.109825
 20
4.920629
 30
0.000000
  0
VERTEX
  8
MERGEDLAYER-2
 10
3.116219
 20
4.920629
 30
0.000000
  0
VERTEX
  8
MERGEDLAYER-2
 10
3.116219
 20
4.758725
 30
0.000000
  0
VERTEX
  8
MERGEDLAYER-2
 10
3.109825
 20
4.758725
 30
0.000000
  0
SEQEND
  8
MERGEDLAYER-2
  0
POLYLINE
  8
MERGEDLAYER-2
 66
  1
 70
  1
 62
  7
  0
VERTEX
  8
MERGEDLAYER-2
 10
3.103436
 20
5.046709
 30
0.000000
  0
VERTEX
  8
MERGEDLAYER-2
 10
3.109825
 20
5.046709
 30
0.000000
  0
VERTEX
  8
MERGEDLAYER-2
 10
3.109825
 20
4.887411
 30
0.000000
  0
VERTEX
  8
MERGEDLAYER-2
 10
3.103436
 20
4.887411
 30
0.000000
  0
SEQEND
  8
MERGEDLAYER-2
  0
POLYLINE
  8
MERGEDLAYER-2
 66
  1
 70
  1
 62
  7
  0
VERTEX
  8
MERGEDLAYER-2
 10
3.109825
 20
5.174961
 30
0.000000
  0
VERTEX
  8
MERGEDLAYER-2
 10
3.116219
 20
5.174961
 30
0.000000
  0
VERTEX
  8
MERGEDLAYER-2
 10
3.116219
 20
5.014357
 30
0.000000
  0
VERTEX
  8
MERGEDLAYER-2
 10
3.109825
 20
5.014357
 30
0.000000
  0
SEQEND
  8
MERGEDLAYER-2
  0
POLYLINE
  8
MERGEDLAYER-2
 66
  1
 70
  1
 62
  7
  0
VERTEX
  8
MERGEDLAYER-2
 10
3.103436
 20
5.302776
 30
0.000000
  0
VERTEX
  8
MERGEDLAYER-2
 10
3.109825
 20
5.302776
 30
0.000000
  0
VERTEX
  8
MERGEDLAYER-2
 10
3.109825
 20
5.141741
 30
0.000000
  0
VERTEX
  8
MERGEDLAYER-2
 10
3.103436
 20
5.141741
 30
0.000000
  0
SEQEND
  8
MERGEDLAYER-2
  0
POLYLINE
  8
MERGEDLAYER-2
 66
  1
 70
  1
 62
  7
  0
VERTEX
  8
MERGEDLAYER-2
 10
3.109825
 20
5.431027
 30
0.000000
  0
VERTEX
  8
MERGEDLAYER-2
 10
3.116219
 20
5.431027
 30
0.000000
  0
VERTEX
  8
MERGEDLAYER-2
 10
3.116219
 20
5.269989
 30
0.000000
  0
VERTEX
  8
MERGEDLAYER-2
 10
3.109825
 20
5.269989
 30
0.000000
  0
SEQEND
  8
MERGEDLAYER-2
  0
POLYLINE
  8
MERGEDLAYER-2
 66
  1
 70
  1
 62
  7
  0
VERTEX
  8
MERGEDLAYER-2
 10
3.103436
 20
5.557976
 30
0.000000
  0
VERTEX
  8
MERGEDLAYER-2
 10
3.109825
 20
5.557976
 30
0.000000
  0
VERTEX
  8
MERGEDLAYER-2
 10
3.109825
 20
5.397807
 30
0.000000
  0
VERTEX
  8
MERGEDLAYER-2
 10
3.103436
 20
5.397807
 30
0.000000
  0
SEQEND
  8
MERGEDLAYER-2
  0
POLYLINE
  8
MERGEDLAYER-2
 66
  1
 70
  1
 62
  7
  0
VERTEX
  8
MERGEDLAYER-2
 10
3.109825
 20
5.686224
 30
0.000000
  0
VERTEX
  8
MERGEDLAYER-2
 10
3.116219
 20
5.686224
 30
0.000000
  0
VERTEX
  8
MERGEDLAYER-2
 10
3.116219
 20
5.525623
 30
0.000000
  0
VERTEX
  8
MERGEDLAYER-2
 10
3.109825
 20
5.525623
 30
0.000000
  0
SEQEND
  8
MERGEDLAYER-2
  0
POLYLINE
  8
MERGEDLAYER-2
 66
  1
 70
  1
 62
  7
  0
VERTEX
  8
MERGEDLAYER-2
 10
3.103436
 20
5.814041
 30
0.000000
  0
VERTEX
  8
MERGEDLAYER-2
 10
3.109825
 20
5.814041
 30
0.000000
  0
VERTEX
  8
MERGEDLAYER-2
 10
3.109825
 20
5.654306
 30
0.000000
  0
VERTEX
  8
MERGEDLAYER-2
 10
3.103436
 20
5.654306
 30
0.000000
  0
SEQEND
  8
MERGEDLAYER-2
  0
POLYLINE
  8
MERGEDLAYER-2
 66
  1
 70
  1
 62
  7
  0
VERTEX
  8
MERGEDLAYER-2
 10
3.109825
 20
5.942726
 30
0.000000
  0
VERTEX
  8
MERGEDLAYER-2
 10
3.116219
 20
5.942726
 30
0.000000
  0
VERTEX
  8
MERGEDLAYER-2
 10
3.116219
 20
5.781687
 30
0.000000
  0
VERTEX
  8
MERGEDLAYER-2
 10
3.109825
 20
5.781687
 30
0.000000
  0
SEQEND
  8
MERGEDLAYER-2
  0
POLYLINE
  8
MERGEDLAYER-2
 66
  1
 70
  1
 62
  7
  0
VERTEX
  8
MERGEDLAYER-2
 10
3.103436
 20
6.070109
 30
0.000000
  0
VERTEX
  8
MERGEDLAYER-2
 10
3.109825
 20
6.070109
 30
0.000000
  0
VERTEX
  8
MERGEDLAYER-2
 10
3.109825
 20
5.909505
 30
0.000000
  0
VERTEX
  8
MERGEDLAYER-2
 10
3.103436
 20
5.909505
 30
0.000000
  0
SEQEND
  8
MERGEDLAYER-2
  0
POLYLINE
  8
MERGEDLAYER-2
 66
  1
 70
  1
 62
  7
  0
VERTEX
  8
MERGEDLAYER-2
 10
3.109825
 20
6.197490
 30
0.000000
  0
VERTEX
  8
MERGEDLAYER-2
 10
3.116219
 20
6.197490
 30
0.000000
  0
VERTEX
  8
MERGEDLAYER-2
 10
3.116219
 20
6.037322
 30
0.000000
  0
VERTEX
  8
MERGEDLAYER-2
 10
3.109825
 20
6.037322
 30
0.000000
  0
SEQEND
  8
MERGEDLAYER-2
  0
POLYLINE
  8
MERGEDLAYER-2
 66
  1
 70
  1
 62
  7
  0
VERTEX
  8
MERGEDLAYER-2
 10
3.103436
 20
6.324438
 30
0.000000
  0
VERTEX
  8
MERGEDLAYER-2
 10
3.109825
 20
6.324438
 30
0.000000
  0
VERTEX
  8
MERGEDLAYER-2
 10
3.109825
 20
6.164271
 30
0.000000
  0
VERTEX
  8
MERGEDLAYER-2
 10
3.103436
 20
6.164271
 30
0.000000
  0
SEQEND
  8
MERGEDLAYER-2
  0
POLYLINE
  8
MERGEDLAYER-2
 66
  1
 70
  1
 62
  7
  0
VERTEX
  8
MERGEDLAYER-2
 10
3.109825
 20
6.453123
 30
0.000000
  0
VERTEX
  8
MERGEDLAYER-2
 10
3.116219
 20
6.453123
 30
0.000000
  0
VERTEX
  8
MERGEDLAYER-2
 10
3.116219
 20
6.293387
 30
0.000000
  0
VERTEX
  8
MERGEDLAYER-2
 10
3.109825
 20
6.293387
 30
0.000000
  0
SEQEND
  8
MERGEDLAYER-2
  0
POLYLINE
  8
MERGEDLAYER-2
 66
  1
 70
  1
 62
  7
  0
VERTEX
  8
MERGEDLAYER-2
 10
3.103436
 20
6.580938
 30
0.000000
  0
VERTEX
  8
MERGEDLAYER-2
 10
3.109825
 20
6.580938
 30
0.000000
  0
VERTEX
  8
MERGEDLAYER-2
 10
3.109825
 20
6.420335
 30
0.000000
  0
VERTEX
  8
MERGEDLAYER-2
 10
3.103436
 20
6.420335
 30
0.000000
  0
SEQEND
  8
MERGEDLAYER-2
  0
POLYLINE
  8
MERGEDLAYER-2
 66
  1
 70
  1
 62
  7
  0
VERTEX
  8
MERGEDLAYER-2
 10
3.109825
 20
6.709187
 30
0.000000
  0
VERTEX
  8
MERGEDLAYER-2
 10
3.116219
 20
6.709187
 30
0.000000
  0
VERTEX
  8
MERGEDLAYER-2
 10
3.116219
 20
6.548586
 30
0.000000
  0
VERTEX
  8
MERGEDLAYER-2
 10
3.109825
 20
6.548586
 30
0.000000
  0
SEQEND
  8
MERGEDLAYER-2
  0
POLYLINE
  8
MERGEDLAYER-2
 66
  1
 70
  1
 62
  7
  0
VERTEX
  8
MERGEDLAYER-2
 10
3.103436
 20
6.836569
 30
0.000000
  0
VERTEX
  8
MERGEDLAYER-2
 10
3.109825
 20
6.836569
 30
0.000000
  0
VERTEX
  8
MERGEDLAYER-2
 10
3.109825
 20
6.676401
 30
0.000000
  0
VERTEX
  8
MERGEDLAYER-2
 10
3.103436
 20
6.676401
 30
0.000000
  0
SEQEND
  8
MERGEDLAYER-2
  0
POLYLINE
  8
MERGEDLAYER-2
 66
  1
 70
  1
 62
  7
  0
VERTEX
  8
MERGEDLAYER-2
 10
3.109825
 20
8.240141
 30
0.000000
  0
VERTEX
  8
MERGEDLAYER-2
 10
3.116219
 20
8.240141
 30
0.000000
  0
VERTEX
  8
MERGEDLAYER-2
 10
3.116219
 20
8.080407
 30
0.000000
  0
VERTEX
  8
MERGEDLAYER-2
 10
3.109825
 20
8.080407
 30
0.000000
  0
SEQEND
  8
MERGEDLAYER-2
  0
POLYLINE
  8
MERGEDLAYER-2
 66
  1
 70
  1
 62
  7
  0
VERTEX
  8
MERGEDLAYER-2
 10
3.103436
 20
8.367958
 30
0.000000
  0
VERTEX
  8
MERGEDLAYER-2
 10
3.109825
 20
8.367958
 30
0.000000
  0
VERTEX
  8
MERGEDLAYER-2
 10
3.109825
 20
8.207798
 30
0.000000
  0
VERTEX
  8
MERGEDLAYER-2
 10
3.103436
 20
8.207798
 30
0.000000
  0
SEQEND
  8
MERGEDLAYER-2
  0
POLYLINE
  8
MERGEDLAYER-2
 66
  1
 70
  1
 62
  7
  0
VERTEX
  8
MERGEDLAYER-2
 10
3.109825
 20
7.984903
 30
0.000000
  0
VERTEX
  8
MERGEDLAYER-2
 10
3.116219
 20
7.984903
 30
0.000000
  0
VERTEX
  8
MERGEDLAYER-2
 10
3.116219
 20
7.825169
 30
0.000000
  0
VERTEX
  8
MERGEDLAYER-2
 10
3.109825
 20
7.825169
 30
0.000000
  0
SEQEND
  8
MERGEDLAYER-2
  0
POLYLINE
  8
MERGEDLAYER-2
 66
  1
 70
  1
 62
  7
  0
VERTEX
  8
MERGEDLAYER-2
 10
3.103436
 20
8.113154
 30
0.000000
  0
VERTEX
  8
MERGEDLAYER-2
 10
3.109825
 20
8.113154
 30
0.000000
  0
VERTEX
  8
MERGEDLAYER-2
 10
3.109825
 20
7.953428
 30
0.000000
  0
VERTEX
  8
MERGEDLAYER-2
 10
3.103436
 20
7.953428
 30
0.000000
  0
SEQEND
  8
MERGEDLAYER-2
  0
POLYLINE
  8
MERGEDLAYER-2
 66
  1
 70
  1
 62
  7
  0
VERTEX
  8
MERGEDLAYER-2
 10
3.109825
 20
7.729231
 30
0.000000
  0
VERTEX
  8
MERGEDLAYER-2
 10
3.116219
 20
7.729231
 30
0.000000
  0
VERTEX
  8
MERGEDLAYER-2
 10
3.116219
 20
7.569931
 30
0.000000
  0
VERTEX
  8
MERGEDLAYER-2
 10
3.109825
 20
7.569931
 30
0.000000
  0
SEQEND
  8
MERGEDLAYER-2
  0
POLYLINE
  8
MERGEDLAYER-2
 66
  1
 70
  1
 62
  7
  0
VERTEX
  8
MERGEDLAYER-2
 10
3.103436
 20
7.857048
 30
0.000000
  0
VERTEX
  8
MERGEDLAYER-2
 10
3.109825
 20
7.857048
 30
0.000000
  0
VERTEX
  8
MERGEDLAYER-2
 10
3.109825
 20
7.698624
 30
0.000000
  0
VERTEX
  8
MERGEDLAYER-2
 10
3.103436
 20
7.698624
 30
0.000000
  0
SEQEND
  8
MERGEDLAYER-2
  0
POLYLINE
  8
MERGEDLAYER-2
 66
  1
 70
  1
 62
  7
  0
VERTEX
  8
MERGEDLAYER-2
 10
3.109825
 20
7.475294
 30
0.000000
  0
VERTEX
  8
MERGEDLAYER-2
 10
3.116219
 20
7.475294
 30
0.000000
  0
VERTEX
  8
MERGEDLAYER-2
 10
3.116219
 20
7.315126
 30
0.000000
  0
VERTEX
  8
MERGEDLAYER-2
 10
3.109825
 20
7.315126
 30
0.000000
  0
SEQEND
  8
MERGEDLAYER-2
  0
POLYLINE
  8
MERGEDLAYER-2
 66
  1
 70
  1
 62
  7
  0
VERTEX
  8
MERGEDLAYER-2
 10
3.103436
 20
7.602243
 30
0.000000
  0
VERTEX
  8
MERGEDLAYER-2
 10
3.109825
 20
7.602243
 30
0.000000
  0
VERTEX
  8
MERGEDLAYER-2
 10
3.109825
 20
7.442517
 30
0.000000
  0
VERTEX
  8
MERGEDLAYER-2
 10
3.103436
 20
7.442517
 30
0.000000
  0
SEQEND
  8
MERGEDLAYER-2
  0
POLYLINE
  8
MERGEDLAYER-2
 66
  1
 70
  1
 62
  7
  0
VERTEX
  8
MERGEDLAYER-2
 10
3.109825
 20
7.220057
 30
0.000000
  0
VERTEX
  8
MERGEDLAYER-2
 10
3.116219
 20
7.220057
 30
0.000000
  0
VERTEX
  8
MERGEDLAYER-2
 10
3.116219
 20
7.059455
 30
0.000000
  0
VERTEX
  8
MERGEDLAYER-2
 10
3.109825
 20
7.059455
 30
0.000000
  0
SEQEND
  8
MERGEDLAYER-2
  0
POLYLINE
  8
MERGEDLAYER-2
 66
  1
 70
  1
 62
  7
  0
VERTEX
  8
MERGEDLAYER-2
 10
3.103436
 20
7.346571
 30
0.000000
  0
VERTEX
  8
MERGEDLAYER-2
 10
3.109825
 20
7.346571
 30
0.000000
  0
VERTEX
  8
MERGEDLAYER-2
 10
3.109825
 20
7.187279
 30
0.000000
  0
VERTEX
  8
MERGEDLAYER-2
 10
3.103436
 20
7.187279
 30
0.000000
  0
SEQEND
  8
MERGEDLAYER-2
  0
POLYLINE
  8
MERGEDLAYER-2
 66
  1
 70
  1
 62
  7
  0
VERTEX
  8
MERGEDLAYER-2
 10
3.109825
 20
6.964819
 30
0.000000
  0
VERTEX
  8
MERGEDLAYER-2
 10
3.116219
 20
6.964819
 30
0.000000
  0
VERTEX
  8
MERGEDLAYER-2
 10
3.116219
 20
6.803783
 30
0.000000
  0
VERTEX
  8
MERGEDLAYER-2
 10
3.109825
 20
6.803783
 30
0.000000
  0
SEQEND
  8
MERGEDLAYER-2
  0
POLYLINE
  8
MERGEDLAYER-2
 66
  1
 70
  1
 62
  7
  0
VERTEX
  8
MERGEDLAYER-2
 10
3.103436
 20
7.091333
 30
0.000000
  0
VERTEX
  8
MERGEDLAYER-2
 10
3.109825
 20
7.091333
 30
0.000000
  0
VERTEX
  8
MERGEDLAYER-2
 10
3.109825
 20
6.932041
 30
0.000000
  0
VERTEX
  8
MERGEDLAYER-2
 10
3.103436
 20
6.932041
 30
0.000000
  0
SEQEND
  8
MERGEDLAYER-2
  0
POLYLINE
  8
MERGEDLAYER-2
 66
  1
 70
  1
 62
  7
  0
VERTEX
  8
MERGEDLAYER-2
 10
3.569936
 20
4.535870
 30
0.000000
  0
VERTEX
  8
MERGEDLAYER-2
 10
3.576325
 20
4.535870
 30
0.000000
  0
VERTEX
  8
MERGEDLAYER-2
 10
3.576325
 20
4.385706
 30
0.000000
  0
VERTEX
  8
MERGEDLAYER-2
 10
3.569936
 20
4.385706
 30
0.000000
  0
SEQEND
  8
MERGEDLAYER-2
  0
POLYLINE
  8
MERGEDLAYER-2
 66
  1
 70
  1
 62
  7
  0
VERTEX
  8
MERGEDLAYER-2
 10
3.576325
 20
4.663261
 30
0.000000
  0
VERTEX
  8
MERGEDLAYER-2
 10
3.582718
 20
4.663261
 30
0.000000
  0
VERTEX
  8
MERGEDLAYER-2
 10
3.582718
 20
4.503527
 30
0.000000
  0
VERTEX
  8
MERGEDLAYER-2
 10
3.576325
 20
4.503527
 30
0.000000
  0
SEQEND
  8
MERGEDLAYER-2
  0
POLYLINE
  8
MERGEDLAYER-2
 66
  1
 70
  1
 62
  7
  0
VERTEX
  8
MERGEDLAYER-2
 10
3.569936
 20
4.791512
 30
0.000000
  0
VERTEX
  8
MERGEDLAYER-2
 10
3.576325
 20
4.791512
 30
0.000000
  0
VERTEX
  8
MERGEDLAYER-2
 10
3.576325
 20
4.631343
 30
0.000000
  0
VERTEX
  8
MERGEDLAYER-2
 10
3.569936
 20
4.631343
 30
0.000000
  0
SEQEND
  8
MERGEDLAYER-2
  0
POLYLINE
  8
MERGEDLAYER-2
 66
  1
 70
  1
 62
  7
  0
VERTEX
  8
MERGEDLAYER-2
 10
3.576325
 20
4.920629
 30
0.000000
  0
VERTEX
  8
MERGEDLAYER-2
 10
3.582718
 20
4.920629
 30
0.000000
  0
VERTEX
  8
MERGEDLAYER-2
 10
3.582718
 20
4.758725
 30
0.000000
  0
VERTEX
  8
MERGEDLAYER-2
 10
3.576325
 20
4.758725
 30
0.000000
  0
SEQEND
  8
MERGEDLAYER-2
  0
POLYLINE
  8
MERGEDLAYER-2
 66
  1
 70
  1
 62
  7
  0
VERTEX
  8
MERGEDLAYER-2
 10
3.569936
 20
5.046709
 30
0.000000
  0
VERTEX
  8
MERGEDLAYER-2
 10
3.576325
 20
5.046709
 30
0.000000
  0
VERTEX
  8
MERGEDLAYER-2
 10
3.576325
 20
4.887411
 30
0.000000
  0
VERTEX
  8
MERGEDLAYER-2
 10
3.569936
 20
4.887411
 30
0.000000
  0
SEQEND
  8
MERGEDLAYER-2
  0
POLYLINE
  8
MERGEDLAYER-2
 66
  1
 70
  1
 62
  7
  0
VERTEX
  8
MERGEDLAYER-2
 10
3.576325
 20
5.174961
 30
0.000000
  0
VERTEX
  8
MERGEDLAYER-2
 10
3.582718
 20
5.174961
 30
0.000000
  0
VERTEX
  8
MERGEDLAYER-2
 10
3.582718
 20
5.014357
 30
0.000000
  0
VERTEX
  8
MERGEDLAYER-2
 10
3.576325
 20
5.014357
 30
0.000000
  0
SEQEND
  8
MERGEDLAYER-2
  0
POLYLINE
  8
MERGEDLAYER-2
 66
  1
 70
  1
 62
  7
  0
VERTEX
  8
MERGEDLAYER-2
 10
3.569936
 20
5.302776
 30
0.000000
  0
VERTEX
  8
MERGEDLAYER-2
 10
3.576325
 20
5.302776
 30
0.000000
  0
VERTEX
  8
MERGEDLAYER-2
 10
3.576325
 20
5.141741
 30
0.000000
  0
VERTEX
  8
MERGEDLAYER-2
 10
3.569936
 20
5.141741
 30
0.000000
  0
SEQEND
  8
MERGEDLAYER-2
  0
POLYLINE
  8
MERGEDLAYER-2
 66
  1
 70
  1
 62
  7
  0
VERTEX
  8
MERGEDLAYER-2
 10
3.576325
 20
5.431027
 30
0.000000
  0
VERTEX
  8
MERGEDLAYER-2
 10
3.582718
 20
5.431027
 30
0.000000
  0
VERTEX
  8
MERGEDLAYER-2
 10
3.582718
 20
5.269989
 30
0.000000
  0
VERTEX
  8
MERGEDLAYER-2
 10
3.576325
 20
5.269989
 30
0.000000
  0
SEQEND
  8
MERGEDLAYER-2
  0
POLYLINE
  8
MERGEDLAYER-2
 66
  1
 70
  1
 62
  7
  0
VERTEX
  8
MERGEDLAYER-2
 10
3.569936
 20
5.557976
 30
0.000000
  0
VERTEX
  8
MERGEDLAYER-2
 10
3.576325
 20
5.557976
 30
0.000000
  0
VERTEX
  8
MERGEDLAYER-2
 10
3.576325
 20
5.397807
 30
0.000000
  0
VERTEX
  8
MERGEDLAYER-2
 10
3.569936
 20
5.397807
 30
0.000000
  0
SEQEND
  8
MERGEDLAYER-2
  0
POLYLINE
  8
MERGEDLAYER-2
 66
  1
 70
  1
 62
  7
  0
VERTEX
  8
MERGEDLAYER-2
 10
3.576325
 20
5.686224
 30
0.000000
  0
VERTEX
  8
MERGEDLAYER-2
 10
3.582718
 20
5.686224
 30
0.000000
  0
VERTEX
  8
MERGEDLAYER-2
 10
3.582718
 20
5.525623
 30
0.000000
  0
VERTEX
  8
MERGEDLAYER-2
 10
3.576325
 20
5.525623
 30
0.000000
  0
SEQEND
  8
MERGEDLAYER-2
  0
POLYLINE
  8
MERGEDLAYER-2
 66
  1
 70
  1
 62
  7
  0
VERTEX
  8
MERGEDLAYER-2
 10
3.569936
 20
5.814041
 30
0.000000
  0
VERTEX
  8
MERGEDLAYER-2
 10
3.576325
 20
5.814041
 30
0.000000
  0
VERTEX
  8
MERGEDLAYER-2
 10
3.576325
 20
5.654306
 30
0.000000
  0
VERTEX
  8
MERGEDLAYER-2
 10
3.569936
 20
5.654306
 30
0.000000
  0
SEQEND
  8
MERGEDLAYER-2
  0
POLYLINE
  8
MERGEDLAYER-2
 66
  1
 70
  1
 62
  7
  0
VERTEX
  8
MERGEDLAYER-2
 10
3.576325
 20
5.942726
 30
0.000000
  0
VERTEX
  8
MERGEDLAYER-2
 10
3.582718
 20
5.942726
 30
0.000000
  0
VERTEX
  8
MERGEDLAYER-2
 10
3.582718
 20
5.781687
 30
0.000000
  0
VERTEX
  8
MERGEDLAYER-2
 10
3.576325
 20
5.781687
 30
0.000000
  0
SEQEND
  8
MERGEDLAYER-2
  0
POLYLINE
  8
MERGEDLAYER-2
 66
  1
 70
  1
 62
  7
  0
VERTEX
  8
MERGEDLAYER-2
 10
3.569936
 20
6.070109
 30
0.000000
  0
VERTEX
  8
MERGEDLAYER-2
 10
3.576325
 20
6.070109
 30
0.000000
  0
VERTEX
  8
MERGEDLAYER-2
 10
3.576325
 20
5.909505
 30
0.000000
  0
VERTEX
  8
MERGEDLAYER-2
 10
3.569936
 20
5.909505
 30
0.000000
  0
SEQEND
  8
MERGEDLAYER-2
  0
POLYLINE
  8
MERGEDLAYER-2
 66
  1
 70
  1
 62
  7
  0
VERTEX
  8
MERGEDLAYER-2
 10
3.576325
 20
6.197490
 30
0.000000
  0
VERTEX
  8
MERGEDLAYER-2
 10
3.582718
 20
6.197490
 30
0.000000
  0
VERTEX
  8
MERGEDLAYER-2
 10
3.582718
 20
6.037322
 30
0.000000
  0
VERTEX
  8
MERGEDLAYER-2
 10
3.576325
 20
6.037322
 30
0.000000
  0
SEQEND
  8
MERGEDLAYER-2
  0
POLYLINE
  8
MERGEDLAYER-2
 66
  1
 70
  1
 62
  7
  0
VERTEX
  8
MERGEDLAYER-2
 10
3.569936
 20
6.324438
 30
0.000000
  0
VERTEX
  8
MERGEDLAYER-2
 10
3.576325
 20
6.324438
 30
0.000000
  0
VERTEX
  8
MERGEDLAYER-2
 10
3.576325
 20
6.164271
 30
0.000000
  0
VERTEX
  8
MERGEDLAYER-2
 10
3.569936
 20
6.164271
 30
0.000000
  0
SEQEND
  8
MERGEDLAYER-2
  0
POLYLINE
  8
MERGEDLAYER-2
 66
  1
 70
  1
 62
  7
  0
VERTEX
  8
MERGEDLAYER-2
 10
3.576325
 20
6.453123
 30
0.000000
  0
VERTEX
  8
MERGEDLAYER-2
 10
3.582718
 20
6.453123
 30
0.000000
  0
VERTEX
  8
MERGEDLAYER-2
 10
3.582718
 20
6.293387
 30
0.000000
  0
VERTEX
  8
MERGEDLAYER-2
 10
3.576325
 20
6.293387
 30
0.000000
  0
SEQEND
  8
MERGEDLAYER-2
  0
POLYLINE
  8
MERGEDLAYER-2
 66
  1
 70
  1
 62
  7
  0
VERTEX
  8
MERGEDLAYER-2
 10
3.569936
 20
6.580938
 30
0.000000
  0
VERTEX
  8
MERGEDLAYER-2
 10
3.576325
 20
6.580938
 30
0.000000
  0
VERTEX
  8
MERGEDLAYER-2
 10
3.576325
 20
6.420335
 30
0.000000
  0
VERTEX
  8
MERGEDLAYER-2
 10
3.569936
 20
6.420335
 30
0.000000
  0
SEQEND
  8
MERGEDLAYER-2
  0
POLYLINE
  8
MERGEDLAYER-2
 66
  1
 70
  1
 62
  7
  0
VERTEX
  8
MERGEDLAYER-2
 10
3.576325
 20
6.709187
 30
0.000000
  0
VERTEX
  8
MERGEDLAYER-2
 10
3.582718
 20
6.709187
 30
0.000000
  0
VERTEX
  8
MERGEDLAYER-2
 10
3.582718
 20
6.548586
 30
0.000000
  0
VERTEX
  8
MERGEDLAYER-2
 10
3.576325
 20
6.548586
 30
0.000000
  0
SEQEND
  8
MERGEDLAYER-2
  0
POLYLINE
  8
MERGEDLAYER-2
 66
  1
 70
  1
 62
  7
  0
VERTEX
  8
MERGEDLAYER-2
 10
3.569936
 20
6.836569
 30
0.000000
  0
VERTEX
  8
MERGEDLAYER-2
 10
3.576325
 20
6.836569
 30
0.000000
  0
VERTEX
  8
MERGEDLAYER-2
 10
3.576325
 20
6.676401
 30
0.000000
  0
VERTEX
  8
MERGEDLAYER-2
 10
3.569936
 20
6.676401
 30
0.000000
  0
SEQEND
  8
MERGEDLAYER-2
  0
POLYLINE
  8
MERGEDLAYER-2
 66
  1
 70
  1
 62
  7
  0
VERTEX
  8
MERGEDLAYER-2
 10
3.576325
 20
8.240141
 30
0.000000
  0
VERTEX
  8
MERGEDLAYER-2
 10
3.582718
 20
8.240141
 30
0.000000
  0
VERTEX
  8
MERGEDLAYER-2
 10
3.582718
 20
8.080407
 30
0.000000
  0
VERTEX
  8
MERGEDLAYER-2
 10
3.576325
 20
8.080407
 30
0.000000
  0
SEQEND
  8
MERGEDLAYER-2
  0
POLYLINE
  8
MERGEDLAYER-2
 66
  1
 70
  1
 62
  7
  0
VERTEX
  8
MERGEDLAYER-2
 10
3.569936
 20
8.367958
 30
0.000000
  0
VERTEX
  8
MERGEDLAYER-2
 10
3.576325
 20
8.367958
 30
0.000000
  0
VERTEX
  8
MERGEDLAYER-2
 10
3.576325
 20
8.207798
 30
0.000000
  0
VERTEX
  8
MERGEDLAYER-2
 10
3.569936
 20
8.207798
 30
0.000000
  0
SEQEND
  8
MERGEDLAYER-2
  0
POLYLINE
  8
MERGEDLAYER-2
 66
  1
 70
  1
 62
  7
  0
VERTEX
  8
MERGEDLAYER-2
 10
3.576325
 20
7.984903
 30
0.000000
  0
VERTEX
  8
MERGEDLAYER-2
 10
3.582718
 20
7.984903
 30
0.000000
  0
VERTEX
  8
MERGEDLAYER-2
 10
3.582718
 20
7.825169
 30
0.000000
  0
VERTEX
  8
MERGEDLAYER-2
 10
3.576325
 20
7.825169
 30
0.000000
  0
SEQEND
  8
MERGEDLAYER-2
  0
POLYLINE
  8
MERGEDLAYER-2
 66
  1
 70
  1
 62
  7
  0
VERTEX
  8
MERGEDLAYER-2
 10
3.569936
 20
8.113154
 30
0.000000
  0
VERTEX
  8
MERGEDLAYER-2
 10
3.576325
 20
8.113154
 30
0.000000
  0
VERTEX
  8
MERGEDLAYER-2
 10
3.576325
 20
7.953428
 30
0.000000
  0
VERTEX
  8
MERGEDLAYER-2
 10
3.569936
 20
7.953428
 30
0.000000
  0
SEQEND
  8
MERGEDLAYER-2
  0
POLYLINE
  8
MERGEDLAYER-2
 66
  1
 70
  1
 62
  7
  0
VERTEX
  8
MERGEDLAYER-2
 10
3.576325
 20
7.729231
 30
0.000000
  0
VERTEX
  8
MERGEDLAYER-2
 10
3.582718
 20
7.729231
 30
0.000000
  0
VERTEX
  8
MERGEDLAYER-2
 10
3.582718
 20
7.569931
 30
0.000000
  0
VERTEX
  8
MERGEDLAYER-2
 10
3.576325
 20
7.569931
 30
0.000000
  0
SEQEND
  8
MERGEDLAYER-2
  0
POLYLINE
  8
MERGEDLAYER-2
 66
  1
 70
  1
 62
  7
  0
VERTEX
  8
MERGEDLAYER-2
 10
3.569936
 20
7.857048
 30
0.000000
  0
VERTEX
  8
MERGEDLAYER-2
 10
3.576325
 20
7.857048
 30
0.000000
  0
VERTEX
  8
MERGEDLAYER-2
 10
3.576325
 20
7.698624
 30
0.000000
  0
VERTEX
  8
MERGEDLAYER-2
 10
3.569936
 20
7.698624
 30
0.000000
  0
SEQEND
  8
MERGEDLAYER-2
  0
POLYLINE
  8
MERGEDLAYER-2
 66
  1
 70
  1
 62
  7
  0
VERTEX
  8
MERGEDLAYER-2
 10
3.576325
 20
7.475294
 30
0.000000
  0
VERTEX
  8
MERGEDLAYER-2
 10
3.582718
 20
7.475294
 30
0.000000
  0
VERTEX
  8
MERGEDLAYER-2
 10
3.582718
 20
7.315126
 30
0.000000
  0
VERTEX
  8
MERGEDLAYER-2
 10
3.576325
 20
7.315126
 30
0.000000
  0
SEQEND
  8
MERGEDLAYER-2
  0
POLYLINE
  8
MERGEDLAYER-2
 66
  1
 70
  1
 62
  7
  0
VERTEX
  8
MERGEDLAYER-2
 10
3.569936
 20
7.602243
 30
0.000000
  0
VERTEX
  8
MERGEDLAYER-2
 10
3.576325
 20
7.602243
 30
0.000000
  0
VERTEX
  8
MERGEDLAYER-2
 10
3.576325
 20
7.442517
 30
0.000000
  0
VERTEX
  8
MERGEDLAYER-2
 10
3.569936
 20
7.442517
 30
0.000000
  0
SEQEND
  8
MERGEDLAYER-2
  0
POLYLINE
  8
MERGEDLAYER-2
 66
  1
 70
  1
 62
  7
  0
VERTEX
  8
MERGEDLAYER-2
 10
3.576325
 20
7.220057
 30
0.000000
  0
VERTEX
  8
MERGEDLAYER-2
 10
3.582718
 20
7.220057
 30
0.000000
  0
VERTEX
  8
MERGEDLAYER-2
 10
3.582718
 20
7.059455
 30
0.000000
  0
VERTEX
  8
MERGEDLAYER-2
 10
3.576325
 20
7.059455
 30
0.000000
  0
SEQEND
  8
MERGEDLAYER-2
  0
POLYLINE
  8
MERGEDLAYER-2
 66
  1
 70
  1
 62
  7
  0
VERTEX
  8
MERGEDLAYER-2
 10
3.569936
 20
7.346571
 30
0.000000
  0
VERTEX
  8
MERGEDLAYER-2
 10
3.576325
 20
7.346571
 30
0.000000
  0
VERTEX
  8
MERGEDLAYER-2
 10
3.576325
 20
7.187279
 30
0.000000
  0
VERTEX
  8
MERGEDLAYER-2
 10
3.569936
 20
7.187279
 30
0.000000
  0
SEQEND
  8
MERGEDLAYER-2
  0
POLYLINE
  8
MERGEDLAYER-2
 66
  1
 70
  1
 62
  7
  0
VERTEX
  8
MERGEDLAYER-2
 10
3.576325
 20
6.964819
 30
0.000000
  0
VERTEX
  8
MERGEDLAYER-2
 10
3.582718
 20
6.964819
 30
0.000000
  0
VERTEX
  8
MERGEDLAYER-2
 10
3.582718
 20
6.803783
 30
0.000000
  0
VERTEX
  8
MERGEDLAYER-2
 10
3.576325
 20
6.803783
 30
0.000000
  0
SEQEND
  8
MERGEDLAYER-2
  0
POLYLINE
  8
MERGEDLAYER-2
 66
  1
 70
  1
 62
  7
  0
VERTEX
  8
MERGEDLAYER-2
 10
3.569936
 20
7.091333
 30
0.000000
  0
VERTEX
  8
MERGEDLAYER-2
 10
3.576325
 20
7.091333
 30
0.000000
  0
VERTEX
  8
MERGEDLAYER-2
 10
3.576325
 20
6.932041
 30
0.000000
  0
VERTEX
  8
MERGEDLAYER-2
 10
3.569936
 20
6.932041
 30
0.000000
  0
SEQEND
  8
MERGEDLAYER-2
  0
POLYLINE
  8
MERGEDLAYER-2
 66
  1
 70
  1
 62
  7
  0
VERTEX
  8
MERGEDLAYER-2
 10
4.036436
 20
4.535870
 30
0.000000
  0
VERTEX
  8
MERGEDLAYER-2
 10
4.042824
 20
4.535870
 30
0.000000
  0
VERTEX
  8
MERGEDLAYER-2
 10
4.042824
 20
4.385706
 30
0.000000
  0
VERTEX
  8
MERGEDLAYER-2
 10
4.036436
 20
4.385706
 30
0.000000
  0
SEQEND
  8
MERGEDLAYER-2
  0
POLYLINE
  8
MERGEDLAYER-2
 66
  1
 70
  1
 62
  7
  0
VERTEX
  8
MERGEDLAYER-2
 10
4.042824
 20
4.663261
 30
0.000000
  0
VERTEX
  8
MERGEDLAYER-2
 10
4.049218
 20
4.663261
 30
0.000000
  0
VERTEX
  8
MERGEDLAYER-2
 10
4.049218
 20
4.503527
 30
0.000000
  0
VERTEX
  8
MERGEDLAYER-2
 10
4.042824
 20
4.503527
 30
0.000000
  0
SEQEND
  8
MERGEDLAYER-2
  0
POLYLINE
  8
MERGEDLAYER-2
 66
  1
 70
  1
 62
  7
  0
VERTEX
  8
MERGEDLAYER-2
 10
4.036436
 20
4.791512
 30
0.000000
  0
VERTEX
  8
MERGEDLAYER-2
 10
4.042824
 20
4.791512
 30
0.000000
  0
VERTEX
  8
MERGEDLAYER-2
 10
4.042824
 20
4.631343
 30
0.000000
  0
VERTEX
  8
MERGEDLAYER-2
 10
4.036436
 20
4.631343
 30
0.000000
  0
SEQEND
  8
MERGEDLAYER-2
  0
POLYLINE
  8
MERGEDLAYER-2
 66
  1
 70
  1
 62
  7
  0
VERTEX
  8
MERGEDLAYER-2
 10
4.042824
 20
4.920629
 30
0.000000
  0
VERTEX
  8
MERGEDLAYER-2
 10
4.049218
 20
4.920629
 30
0.000000
  0
VERTEX
  8
MERGEDLAYER-2
 10
4.049218
 20
4.758725
 30
0.000000
  0
VERTEX
  8
MERGEDLAYER-2
 10
4.042824
 20
4.758725
 30
0.000000
  0
SEQEND
  8
MERGEDLAYER-2
  0
POLYLINE
  8
MERGEDLAYER-2
 66
  1
 70
  1
 62
  7
  0
VERTEX
  8
MERGEDLAYER-2
 10
4.036436
 20
5.046709
 30
0.000000
  0
VERTEX
  8
MERGEDLAYER-2
 10
4.042824
 20
5.046709
 30
0.000000
  0
VERTEX
  8
MERGEDLAYER-2
 10
4.042824
 20
4.887411
 30
0.000000
  0
VERTEX
  8
MERGEDLAYER-2
 10
4.036436
 20
4.887411
 30
0.000000
  0
SEQEND
  8
MERGEDLAYER-2
  0
POLYLINE
  8
MERGEDLAYER-2
 66
  1
 70
  1
 62
  7
  0
VERTEX
  8
MERGEDLAYER-2
 10
4.042824
 20
5.174961
 30
0.000000
  0
VERTEX
  8
MERGEDLAYER-2
 10
4.049218
 20
5.174961
 30
0.000000
  0
VERTEX
  8
MERGEDLAYER-2
 10
4.049218
 20
5.014357
 30
0.000000
  0
VERTEX
  8
MERGEDLAYER-2
 10
4.042824
 20
5.014357
 30
0.000000
  0
SEQEND
  8
MERGEDLAYER-2
  0
POLYLINE
  8
MERGEDLAYER-2
 66
  1
 70
  1
 62
  7
  0
VERTEX
  8
MERGEDLAYER-2
 10
4.036436
 20
5.302776
 30
0.000000
  0
VERTEX
  8
MERGEDLAYER-2
 10
4.042824
 20
5.302776
 30
0.000000
  0
VERTEX
  8
MERGEDLAYER-2
 10
4.042824
 20
5.141741
 30
0.000000
  0
VERTEX
  8
MERGEDLAYER-2
 10
4.036436
 20
5.141741
 30
0.000000
  0
SEQEND
  8
MERGEDLAYER-2
  0
POLYLINE
  8
MERGEDLAYER-2
 66
  1
 70
  1
 62
  7
  0
VERTEX
  8
MERGEDLAYER-2
 10
4.042824
 20
5.431027
 30
0.000000
  0
VERTEX
  8
MERGEDLAYER-2
 10
4.049218
 20
5.431027
 30
0.000000
  0
VERTEX
  8
MERGEDLAYER-2
 10
4.049218
 20
5.269989
 30
0.000000
  0
VERTEX
  8
MERGEDLAYER-2
 10
4.042824
 20
5.269989
 30
0.000000
  0
SEQEND
  8
MERGEDLAYER-2
  0
POLYLINE
  8
MERGEDLAYER-2
 66
  1
 70
  1
 62
  7
  0
VERTEX
  8
MERGEDLAYER-2
 10
4.036436
 20
5.557976
 30
0.000000
  0
VERTEX
  8
MERGEDLAYER-2
 10
4.042824
 20
5.557976
 30
0.000000
  0
VERTEX
  8
MERGEDLAYER-2
 10
4.042824
 20
5.397807
 30
0.000000
  0
VERTEX
  8
MERGEDLAYER-2
 10
4.036436
 20
5.397807
 30
0.000000
  0
SEQEND
  8
MERGEDLAYER-2
  0
POLYLINE
  8
MERGEDLAYER-2
 66
  1
 70
  1
 62
  7
  0
VERTEX
  8
MERGEDLAYER-2
 10
4.042824
 20
5.686224
 30
0.000000
  0
VERTEX
  8
MERGEDLAYER-2
 10
4.049218
 20
5.686224
 30
0.000000
  0
VERTEX
  8
MERGEDLAYER-2
 10
4.049218
 20
5.525623
 30
0.000000
  0
VERTEX
  8
MERGEDLAYER-2
 10
4.042824
 20
5.525623
 30
0.000000
  0
SEQEND
  8
MERGEDLAYER-2
  0
POLYLINE
  8
MERGEDLAYER-2
 66
  1
 70
  1
 62
  7
  0
VERTEX
  8
MERGEDLAYER-2
 10
4.036436
 20
5.814041
 30
0.000000
  0
VERTEX
  8
MERGEDLAYER-2
 10
4.042824
 20
5.814041
 30
0.000000
  0
VERTEX
  8
MERGEDLAYER-2
 10
4.042824
 20
5.654306
 30
0.000000
  0
VERTEX
  8
MERGEDLAYER-2
 10
4.036436
 20
5.654306
 30
0.000000
  0
SEQEND
  8
MERGEDLAYER-2
  0
POLYLINE
  8
MERGEDLAYER-2
 66
  1
 70
  1
 62
  7
  0
VERTEX
  8
MERGEDLAYER-2
 10
4.042824
 20
5.942726
 30
0.000000
  0
VERTEX
  8
MERGEDLAYER-2
 10
4.049218
 20
5.942726
 30
0.000000
  0
VERTEX
  8
MERGEDLAYER-2
 10
4.049218
 20
5.781687
 30
0.000000
  0
VERTEX
  8
MERGEDLAYER-2
 10
4.042824
 20
5.781687
 30
0.000000
  0
SEQEND
  8
MERGEDLAYER-2
  0
POLYLINE
  8
MERGEDLAYER-2
 66
  1
 70
  1
 62
  7
  0
VERTEX
  8
MERGEDLAYER-2
 10
4.036436
 20
6.070109
 30
0.000000
  0
VERTEX
  8
MERGEDLAYER-2
 10
4.042824
 20
6.070109
 30
0.000000
  0
VERTEX
  8
MERGEDLAYER-2
 10
4.042824
 20
5.909505
 30
0.000000
  0
VERTEX
  8
MERGEDLAYER-2
 10
4.036436
 20
5.909505
 30
0.000000
  0
SEQEND
  8
MERGEDLAYER-2
  0
POLYLINE
  8
MERGEDLAYER-2
 66
  1
 70
  1
 62
  7
  0
VERTEX
  8
MERGEDLAYER-2
 10
4.042824
 20
6.197490
 30
0.000000
  0
VERTEX
  8
MERGEDLAYER-2
 10
4.049218
 20
6.197490
 30
0.000000
  0
VERTEX
  8
MERGEDLAYER-2
 10
4.049218
 20
6.037322
 30
0.000000
  0
VERTEX
  8
MERGEDLAYER-2
 10
4.042824
 20
6.037322
 30
0.000000
  0
SEQEND
  8
MERGEDLAYER-2
  0
POLYLINE
  8
MERGEDLAYER-2
 66
  1
 70
  1
 62
  7
  0
VERTEX
  8
MERGEDLAYER-2
 10
4.036436
 20
6.324438
 30
0.000000
  0
VERTEX
  8
MERGEDLAYER-2
 10
4.042824
 20
6.324438
 30
0.000000
  0
VERTEX
  8
MERGEDLAYER-2
 10
4.042824
 20
6.164271
 30
0.000000
  0
VERTEX
  8
MERGEDLAYER-2
 10
4.036436
 20
6.164271
 30
0.000000
  0
SEQEND
  8
MERGEDLAYER-2
  0
POLYLINE
  8
MERGEDLAYER-2
 66
  1
 70
  1
 62
  7
  0
VERTEX
  8
MERGEDLAYER-2
 10
4.042824
 20
6.453123
 30
0.000000
  0
VERTEX
  8
MERGEDLAYER-2
 10
4.049218
 20
6.453123
 30
0.000000
  0
VERTEX
  8
MERGEDLAYER-2
 10
4.049218
 20
6.293387
 30
0.000000
  0
VERTEX
  8
MERGEDLAYER-2
 10
4.042824
 20
6.293387
 30
0.000000
  0
SEQEND
  8
MERGEDLAYER-2
  0
POLYLINE
  8
MERGEDLAYER-2
 66
  1
 70
  1
 62
  7
  0
VERTEX
  8
MERGEDLAYER-2
 10
4.036436
 20
6.580938
 30
0.000000
  0
VERTEX
  8
MERGEDLAYER-2
 10
4.042824
 20
6.580938
 30
0.000000
  0
VERTEX
  8
MERGEDLAYER-2
 10
4.042824
 20
6.420335
 30
0.000000
  0
VERTEX
  8
MERGEDLAYER-2
 10
4.036436
 20
6.420335
 30
0.000000
  0
SEQEND
  8
MERGEDLAYER-2
  0
POLYLINE
  8
MERGEDLAYER-2
 66
  1
 70
  1
 62
  7
  0
VERTEX
  8
MERGEDLAYER-2
 10
4.042824
 20
6.709187
 30
0.000000
  0
VERTEX
  8
MERGEDLAYER-2
 10
4.049218
 20
6.709187
 30
0.000000
  0
VERTEX
  8
MERGEDLAYER-2
 10
4.049218
 20
6.548586
 30
0.000000
  0
VERTEX
  8
MERGEDLAYER-2
 10
4.042824
 20
6.548586
 30
0.000000
  0
SEQEND
  8
MERGEDLAYER-2
  0
POLYLINE
  8
MERGEDLAYER-2
 66
  1
 70
  1
 62
  7
  0
VERTEX
  8
MERGEDLAYER-2
 10
4.036436
 20
6.836569
 30
0.000000
  0
VERTEX
  8
MERGEDLAYER-2
 10
4.042824
 20
6.836569
 30
0.000000
  0
VERTEX
  8
MERGEDLAYER-2
 10
4.042824
 20
6.676401
 30
0.000000
  0
VERTEX
  8
MERGEDLAYER-2
 10
4.036436
 20
6.676401
 30
0.000000
  0
SEQEND
  8
MERGEDLAYER-2
  0
POLYLINE
  8
MERGEDLAYER-2
 66
  1
 70
  1
 62
  7
  0
VERTEX
  8
MERGEDLAYER-2
 10
4.042824
 20
8.240141
 30
0.000000
  0
VERTEX
  8
MERGEDLAYER-2
 10
4.049218
 20
8.240141
 30
0.000000
  0
VERTEX
  8
MERGEDLAYER-2
 10
4.049218
 20
8.080407
 30
0.000000
  0
VERTEX
  8
MERGEDLAYER-2
 10
4.042824
 20
8.080407
 30
0.000000
  0
SEQEND
  8
MERGEDLAYER-2
  0
POLYLINE
  8
MERGEDLAYER-2
 66
  1
 70
  1
 62
  7
  0
VERTEX
  8
MERGEDLAYER-2
 10
4.036436
 20
8.367958
 30
0.000000
  0
VERTEX
  8
MERGEDLAYER-2
 10
4.042824
 20
8.367958
 30
0.000000
  0
VERTEX
  8
MERGEDLAYER-2
 10
4.042824
 20
8.207798
 30
0.000000
  0
VERTEX
  8
MERGEDLAYER-2
 10
4.036436
 20
8.207798
 30
0.000000
  0
SEQEND
  8
MERGEDLAYER-2
  0
POLYLINE
  8
MERGEDLAYER-2
 66
  1
 70
  1
 62
  7
  0
VERTEX
  8
MERGEDLAYER-2
 10
4.042824
 20
7.984903
 30
0.000000
  0
VERTEX
  8
MERGEDLAYER-2
 10
4.049218
 20
7.984903
 30
0.000000
  0
VERTEX
  8
MERGEDLAYER-2
 10
4.049218
 20
7.825169
 30
0.000000
  0
VERTEX
  8
MERGEDLAYER-2
 10
4.042824
 20
7.825169
 30
0.000000
  0
SEQEND
  8
MERGEDLAYER-2
  0
POLYLINE
  8
MERGEDLAYER-2
 66
  1
 70
  1
 62
  7
  0
VERTEX
  8
MERGEDLAYER-2
 10
4.036436
 20
8.113154
 30
0.000000
  0
VERTEX
  8
MERGEDLAYER-2
 10
4.042824
 20
8.113154
 30
0.000000
  0
VERTEX
  8
MERGEDLAYER-2
 10
4.042824
 20
7.953428
 30
0.000000
  0
VERTEX
  8
MERGEDLAYER-2
 10
4.036436
 20
7.953428
 30
0.000000
  0
SEQEND
  8
MERGEDLAYER-2
  0
POLYLINE
  8
MERGEDLAYER-2
 66
  1
 70
  1
 62
  7
  0
VERTEX
  8
MERGEDLAYER-2
 10
4.042824
 20
7.729231
 30
0.000000
  0
VERTEX
  8
MERGEDLAYER-2
 10
4.049218
 20
7.729231
 30
0.000000
  0
VERTEX
  8
MERGEDLAYER-2
 10
4.049218
 20
7.569931
 30
0.000000
  0
VERTEX
  8
MERGEDLAYER-2
 10
4.042824
 20
7.569931
 30
0.000000
  0
SEQEND
  8
MERGEDLAYER-2
  0
POLYLINE
  8
MERGEDLAYER-2
 66
  1
 70
  1
 62
  7
  0
VERTEX
  8
MERGEDLAYER-2
 10
4.036436
 20
7.857048
 30
0.000000
  0
VERTEX
  8
MERGEDLAYER-2
 10
4.042824
 20
7.857048
 30
0.000000
  0
VERTEX
  8
MERGEDLAYER-2
 10
4.042824
 20
7.698624
 30
0.000000
  0
VERTEX
  8
MERGEDLAYER-2
 10
4.036436
 20
7.698624
 30
0.000000
  0
SEQEND
  8
MERGEDLAYER-2
  0
POLYLINE
  8
MERGEDLAYER-2
 66
  1
 70
  1
 62
  7
  0
VERTEX
  8
MERGEDLAYER-2
 10
4.042824
 20
7.475294
 30
0.000000
  0
VERTEX
  8
MERGEDLAYER-2
 10
4.049218
 20
7.475294
 30
0.000000
  0
VERTEX
  8
MERGEDLAYER-2
 10
4.049218
 20
7.315126
 30
0.000000
  0
VERTEX
  8
MERGEDLAYER-2
 10
4.042824
 20
7.315126
 30
0.000000
  0
SEQEND
  8
MERGEDLAYER-2
  0
POLYLINE
  8
MERGEDLAYER-2
 66
  1
 70
  1
 62
  7
  0
VERTEX
  8
MERGEDLAYER-2
 10
4.036436
 20
7.602243
 30
0.000000
  0
VERTEX
  8
MERGEDLAYER-2
 10
4.042824
 20
7.602243
 30
0.000000
  0
VERTEX
  8
MERGEDLAYER-2
 10
4.042824
 20
7.442517
 30
0.000000
  0
VERTEX
  8
MERGEDLAYER-2
 10
4.036436
 20
7.442517
 30
0.000000
  0
SEQEND
  8
MERGEDLAYER-2
  0
POLYLINE
  8
MERGEDLAYER-2
 66
  1
 70
  1
 62
  7
  0
VERTEX
  8
MERGEDLAYER-2
 10
4.042824
 20
7.220057
 30
0.000000
  0
VERTEX
  8
MERGEDLAYER-2
 10
4.049218
 20
7.220057
 30
0.000000
  0
VERTEX
  8
MERGEDLAYER-2
 10
4.049218
 20
7.059455
 30
0.000000
  0
VERTEX
  8
MERGEDLAYER-2
 10
4.042824
 20
7.059455
 30
0.000000
  0
SEQEND
  8
MERGEDLAYER-2
  0
POLYLINE
  8
MERGEDLAYER-2
 66
  1
 70
  1
 62
  7
  0
VERTEX
  8
MERGEDLAYER-2
 10
4.036436
 20
7.346571
 30
0.000000
  0
VERTEX
  8
MERGEDLAYER-2
 10
4.042824
 20
7.346571
 30
0.000000
  0
VERTEX
  8
MERGEDLAYER-2
 10
4.042824
 20
7.187279
 30
0.000000
  0
VERTEX
  8
MERGEDLAYER-2
 10
4.036436
 20
7.187279
 30
0.000000
  0
SEQEND
  8
MERGEDLAYER-2
  0
POLYLINE
  8
MERGEDLAYER-2
 66
  1
 70
  1
 62
  7
  0
VERTEX
  8
MERGEDLAYER-2
 10
4.042824
 20
6.964819
 30
0.000000
  0
VERTEX
  8
MERGEDLAYER-2
 10
4.049218
 20
6.964819
 30
0.000000
  0
VERTEX
  8
MERGEDLAYER-2
 10
4.049218
 20
6.803783
 30
0.000000
  0
VERTEX
  8
MERGEDLAYER-2
 10
4.042824
 20
6.803783
 30
0.000000
  0
SEQEND
  8
MERGEDLAYER-2
  0
POLYLINE
  8
MERGEDLAYER-2
 66
  1
 70
  1
 62
  7
  0
VERTEX
  8
MERGEDLAYER-2
 10
4.036436
 20
7.091333
 30
0.000000
  0
VERTEX
  8
MERGEDLAYER-2
 10
4.042824
 20
7.091333
 30
0.000000
  0
VERTEX
  8
MERGEDLAYER-2
 10
4.042824
 20
6.932041
 30
0.000000
  0
VERTEX
  8
MERGEDLAYER-2
 10
4.036436
 20
6.932041
 30
0.000000
  0
SEQEND
  8
MERGEDLAYER-2
  0
POLYLINE
  8
MERGEDLAYER-2
 66
  1
 70
  1
 62
  7
  0
VERTEX
  8
MERGEDLAYER-2
 10
4.502936
 20
4.535870
 30
0.000000
  0
VERTEX
  8
MERGEDLAYER-2
 10
4.509325
 20
4.535870
 30
0.000000
  0
VERTEX
  8
MERGEDLAYER-2
 10
4.509325
 20
4.385706
 30
0.000000
  0
VERTEX
  8
MERGEDLAYER-2
 10
4.502936
 20
4.385706
 30
0.000000
  0
SEQEND
  8
MERGEDLAYER-2
  0
POLYLINE
  8
MERGEDLAYER-2
 66
  1
 70
  1
 62
  7
  0
VERTEX
  8
MERGEDLAYER-2
 10
4.509325
 20
4.663261
 30
0.000000
  0
VERTEX
  8
MERGEDLAYER-2
 10
4.515718
 20
4.663261
 30
0.000000
  0
VERTEX
  8
MERGEDLAYER-2
 10
4.515718
 20
4.503527
 30
0.000000
  0
VERTEX
  8
MERGEDLAYER-2
 10
4.509325
 20
4.503527
 30
0.000000
  0
SEQEND
  8
MERGEDLAYER-2
  0
POLYLINE
  8
MERGEDLAYER-2
 66
  1
 70
  1
 62
  7
  0
VERTEX
  8
MERGEDLAYER-2
 10
4.502936
 20
4.791512
 30
0.000000
  0
VERTEX
  8
MERGEDLAYER-2
 10
4.509325
 20
4.791512
 30
0.000000
  0
VERTEX
  8
MERGEDLAYER-2
 10
4.509325
 20
4.631343
 30
0.000000
  0
VERTEX
  8
MERGEDLAYER-2
 10
4.502936
 20
4.631343
 30
0.000000
  0
SEQEND
  8
MERGEDLAYER-2
  0
POLYLINE
  8
MERGEDLAYER-2
 66
  1
 70
  1
 62
  7
  0
VERTEX
  8
MERGEDLAYER-2
 10
4.509325
 20
4.920629
 30
0.000000
  0
VERTEX
  8
MERGEDLAYER-2
 10
4.515718
 20
4.920629
 30
0.000000
  0
VERTEX
  8
MERGEDLAYER-2
 10
4.515718
 20
4.758725
 30
0.000000
  0
VERTEX
  8
MERGEDLAYER-2
 10
4.509325
 20
4.758725
 30
0.000000
  0
SEQEND
  8
MERGEDLAYER-2
  0
POLYLINE
  8
MERGEDLAYER-2
 66
  1
 70
  1
 62
  7
  0
VERTEX
  8
MERGEDLAYER-2
 10
4.502936
 20
5.046709
 30
0.000000
  0
VERTEX
  8
MERGEDLAYER-2
 10
4.509325
 20
5.046709
 30
0.000000
  0
VERTEX
  8
MERGEDLAYER-2
 10
4.509325
 20
4.887411
 30
0.000000
  0
VERTEX
  8
MERGEDLAYER-2
 10
4.502936
 20
4.887411
 30
0.000000
  0
SEQEND
  8
MERGEDLAYER-2
  0
POLYLINE
  8
MERGEDLAYER-2
 66
  1
 70
  1
 62
  7
  0
VERTEX
  8
MERGEDLAYER-2
 10
4.509325
 20
5.174961
 30
0.000000
  0
VERTEX
  8
MERGEDLAYER-2
 10
4.515718
 20
5.174961
 30
0.000000
  0
VERTEX
  8
MERGEDLAYER-2
 10
4.515718
 20
5.014357
 30
0.000000
  0
VERTEX
  8
MERGEDLAYER-2
 10
4.509325
 20
5.014357
 30
0.000000
  0
SEQEND
  8
MERGEDLAYER-2
  0
POLYLINE
  8
MERGEDLAYER-2
 66
  1
 70
  1
 62
  7
  0
VERTEX
  8
MERGEDLAYER-2
 10
4.502936
 20
5.302776
 30
0.000000
  0
VERTEX
  8
MERGEDLAYER-2
 10
4.509325
 20
5.302776
 30
0.000000
  0
VERTEX
  8
MERGEDLAYER-2
 10
4.509325
 20
5.141741
 30
0.000000
  0
VERTEX
  8
MERGEDLAYER-2
 10
4.502936
 20
5.141741
 30
0.000000
  0
SEQEND
  8
MERGEDLAYER-2
  0
POLYLINE
  8
MERGEDLAYER-2
 66
  1
 70
  1
 62
  7
  0
VERTEX
  8
MERGEDLAYER-2
 10
4.509325
 20
5.431027
 30
0.000000
  0
VERTEX
  8
MERGEDLAYER-2
 10
4.515718
 20
5.431027
 30
0.000000
  0
VERTEX
  8
MERGEDLAYER-2
 10
4.515718
 20
5.269989
 30
0.000000
  0
VERTEX
  8
MERGEDLAYER-2
 10
4.509325
 20
5.269989
 30
0.000000
  0
SEQEND
  8
MERGEDLAYER-2
  0
POLYLINE
  8
MERGEDLAYER-2
 66
  1
 70
  1
 62
  7
  0
VERTEX
  8
MERGEDLAYER-2
 10
4.502936
 20
5.557976
 30
0.000000
  0
VERTEX
  8
MERGEDLAYER-2
 10
4.509325
 20
5.557976
 30
0.000000
  0
VERTEX
  8
MERGEDLAYER-2
 10
4.509325
 20
5.397807
 30
0.000000
  0
VERTEX
  8
MERGEDLAYER-2
 10
4.502936
 20
5.397807
 30
0.000000
  0
SEQEND
  8
MERGEDLAYER-2
  0
POLYLINE
  8
MERGEDLAYER-2
 66
  1
 70
  1
 62
  7
  0
VERTEX
  8
MERGEDLAYER-2
 10
4.509325
 20
5.686224
 30
0.000000
  0
VERTEX
  8
MERGEDLAYER-2
 10
4.515718
 20
5.686224
 30
0.000000
  0
VERTEX
  8
MERGEDLAYER-2
 10
4.515718
 20
5.525623
 30
0.000000
  0
VERTEX
  8
MERGEDLAYER-2
 10
4.509325
 20
5.525623
 30
0.000000
  0
SEQEND
  8
MERGEDLAYER-2
  0
POLYLINE
  8
MERGEDLAYER-2
 66
  1
 70
  1
 62
  7
  0
VERTEX
  8
MERGEDLAYER-2
 10
4.502936
 20
5.814041
 30
0.000000
  0
VERTEX
  8
MERGEDLAYER-2
 10
4.509325
 20
5.814041
 30
0.000000
  0
VERTEX
  8
MERGEDLAYER-2
 10
4.509325
 20
5.654306
 30
0.000000
  0
VERTEX
  8
MERGEDLAYER-2
 10
4.502936
 20
5.654306
 30
0.000000
  0
SEQEND
  8
MERGEDLAYER-2
  0
POLYLINE
  8
MERGEDLAYER-2
 66
  1
 70
  1
 62
  7
  0
VERTEX
  8
MERGEDLAYER-2
 10
4.509325
 20
5.942726
 30
0.000000
  0
VERTEX
  8
MERGEDLAYER-2
 10
4.515718
 20
5.942726
 30
0.000000
  0
VERTEX
  8
MERGEDLAYER-2
 10
4.515718
 20
5.781687
 30
0.000000
  0
VERTEX
  8
MERGEDLAYER-2
 10
4.509325
 20
5.781687
 30
0.000000
  0
SEQEND
  8
MERGEDLAYER-2
  0
POLYLINE
  8
MERGEDLAYER-2
 66
  1
 70
  1
 62
  7
  0
VERTEX
  8
MERGEDLAYER-2
 10
4.502936
 20
6.070109
 30
0.000000
  0
VERTEX
  8
MERGEDLAYER-2
 10
4.509325
 20
6.070109
 30
0.000000
  0
VERTEX
  8
MERGEDLAYER-2
 10
4.509325
 20
5.909505
 30
0.000000
  0
VERTEX
  8
MERGEDLAYER-2
 10
4.502936
 20
5.909505
 30
0.000000
  0
SEQEND
  8
MERGEDLAYER-2
  0
POLYLINE
  8
MERGEDLAYER-2
 66
  1
 70
  1
 62
  7
  0
VERTEX
  8
MERGEDLAYER-2
 10
4.509325
 20
6.197490
 30
0.000000
  0
VERTEX
  8
MERGEDLAYER-2
 10
4.515718
 20
6.197490
 30
0.000000
  0
VERTEX
  8
MERGEDLAYER-2
 10
4.515718
 20
6.037322
 30
0.000000
  0
VERTEX
  8
MERGEDLAYER-2
 10
4.509325
 20
6.037322
 30
0.000000
  0
SEQEND
  8
MERGEDLAYER-2
  0
POLYLINE
  8
MERGEDLAYER-2
 66
  1
 70
  1
 62
  7
  0
VERTEX
  8
MERGEDLAYER-2
 10
4.502936
 20
6.324438
 30
0.000000
  0
VERTEX
  8
MERGEDLAYER-2
 10
4.509325
 20
6.324438
 30
0.000000
  0
VERTEX
  8
MERGEDLAYER-2
 10
4.509325
 20
6.164271
 30
0.000000
  0
VERTEX
  8
MERGEDLAYER-2
 10
4.502936
 20
6.164271
 30
0.000000
  0
SEQEND
  8
MERGEDLAYER-2
  0
POLYLINE
  8
MERGEDLAYER-2
 66
  1
 70
  1
 62
  7
  0
VERTEX
  8
MERGEDLAYER-2
 10
4.509325
 20
6.453123
 30
0.000000
  0
VERTEX
  8
MERGEDLAYER-2
 10
4.515718
 20
6.453123
 30
0.000000
  0
VERTEX
  8
MERGEDLAYER-2
 10
4.515718
 20
6.293387
 30
0.000000
  0
VERTEX
  8
MERGEDLAYER-2
 10
4.509325
 20
6.293387
 30
0.000000
  0
SEQEND
  8
MERGEDLAYER-2
  0
POLYLINE
  8
MERGEDLAYER-2
 66
  1
 70
  1
 62
  7
  0
VERTEX
  8
MERGEDLAYER-2
 10
4.502936
 20
6.580938
 30
0.000000
  0
VERTEX
  8
MERGEDLAYER-2
 10
4.509325
 20
6.580938
 30
0.000000
  0
VERTEX
  8
MERGEDLAYER-2
 10
4.509325
 20
6.420335
 30
0.000000
  0
VERTEX
  8
MERGEDLAYER-2
 10
4.502936
 20
6.420335
 30
0.000000
  0
SEQEND
  8
MERGEDLAYER-2
  0
POLYLINE
  8
MERGEDLAYER-2
 66
  1
 70
  1
 62
  7
  0
VERTEX
  8
MERGEDLAYER-2
 10
4.509325
 20
6.709187
 30
0.000000
  0
VERTEX
  8
MERGEDLAYER-2
 10
4.515718
 20
6.709187
 30
0.000000
  0
VERTEX
  8
MERGEDLAYER-2
 10
4.515718
 20
6.548586
 30
0.000000
  0
VERTEX
  8
MERGEDLAYER-2
 10
4.509325
 20
6.548586
 30
0.000000
  0
SEQEND
  8
MERGEDLAYER-2
  0
POLYLINE
  8
MERGEDLAYER-2
 66
  1
 70
  1
 62
  7
  0
VERTEX
  8
MERGEDLAYER-2
 10
4.502936
 20
6.836569
 30
0.000000
  0
VERTEX
  8
MERGEDLAYER-2
 10
4.509325
 20
6.836569
 30
0.000000
  0
VERTEX
  8
MERGEDLAYER-2
 10
4.509325
 20
6.676401
 30
0.000000
  0
VERTEX
  8
MERGEDLAYER-2
 10
4.502936
 20
6.676401
 30
0.000000
  0
SEQEND
  8
MERGEDLAYER-2
  0
POLYLINE
  8
MERGEDLAYER-2
 66
  1
 70
  1
 62
  7
  0
VERTEX
  8
MERGEDLAYER-2
 10
4.509325
 20
8.240141
 30
0.000000
  0
VERTEX
  8
MERGEDLAYER-2
 10
4.515718
 20
8.240141
 30
0.000000
  0
VERTEX
  8
MERGEDLAYER-2
 10
4.515718
 20
8.080407
 30
0.000000
  0
VERTEX
  8
MERGEDLAYER-2
 10
4.509325
 20
8.080407
 30
0.000000
  0
SEQEND
  8
MERGEDLAYER-2
  0
POLYLINE
  8
MERGEDLAYER-2
 66
  1
 70
  1
 62
  7
  0
VERTEX
  8
MERGEDLAYER-2
 10
4.502936
 20
8.367958
 30
0.000000
  0
VERTEX
  8
MERGEDLAYER-2
 10
4.509325
 20
8.367958
 30
0.000000
  0
VERTEX
  8
MERGEDLAYER-2
 10
4.509325
 20
8.207798
 30
0.000000
  0
VERTEX
  8
MERGEDLAYER-2
 10
4.502936
 20
8.207798
 30
0.000000
  0
SEQEND
  8
MERGEDLAYER-2
  0
POLYLINE
  8
MERGEDLAYER-2
 66
  1
 70
  1
 62
  7
  0
VERTEX
  8
MERGEDLAYER-2
 10
4.509325
 20
7.984903
 30
0.000000
  0
VERTEX
  8
MERGEDLAYER-2
 10
4.515718
 20
7.984903
 30
0.000000
  0
VERTEX
  8
MERGEDLAYER-2
 10
4.515718
 20
7.825169
 30
0.000000
  0
VERTEX
  8
MERGEDLAYER-2
 10
4.509325
 20
7.825169
 30
0.000000
  0
SEQEND
  8
MERGEDLAYER-2
  0
POLYLINE
  8
MERGEDLAYER-2
 66
  1
 70
  1
 62
  7
  0
VERTEX
  8
MERGEDLAYER-2
 10
4.502936
 20
8.113154
 30
0.000000
  0
VERTEX
  8
MERGEDLAYER-2
 10
4.509325
 20
8.113154
 30
0.000000
  0
VERTEX
  8
MERGEDLAYER-2
 10
4.509325
 20
7.953428
 30
0.000000
  0
VERTEX
  8
MERGEDLAYER-2
 10
4.502936
 20
7.953428
 30
0.000000
  0
SEQEND
  8
MERGEDLAYER-2
  0
POLYLINE
  8
MERGEDLAYER-2
 66
  1
 70
  1
 62
  7
  0
VERTEX
  8
MERGEDLAYER-2
 10
4.509325
 20
7.729231
 30
0.000000
  0
VERTEX
  8
MERGEDLAYER-2
 10
4.515718
 20
7.729231
 30
0.000000
  0
VERTEX
  8
MERGEDLAYER-2
 10
4.515718
 20
7.569931
 30
0.000000
  0
VERTEX
  8
MERGEDLAYER-2
 10
4.509325
 20
7.569931
 30
0.000000
  0
SEQEND
  8
MERGEDLAYER-2
  0
POLYLINE
  8
MERGEDLAYER-2
 66
  1
 70
  1
 62
  7
  0
VERTEX
  8
MERGEDLAYER-2
 10
4.502936
 20
7.857048
 30
0.000000
  0
VERTEX
  8
MERGEDLAYER-2
 10
4.509325
 20
7.857048
 30
0.000000
  0
VERTEX
  8
MERGEDLAYER-2
 10
4.509325
 20
7.698624
 30
0.000000
  0
VERTEX
  8
MERGEDLAYER-2
 10
4.502936
 20
7.698624
 30
0.000000
  0
SEQEND
  8
MERGEDLAYER-2
  0
POLYLINE
  8
MERGEDLAYER-2
 66
  1
 70
  1
 62
  7
  0
VERTEX
  8
MERGEDLAYER-2
 10
4.509325
 20
7.475294
 30
0.000000
  0
VERTEX
  8
MERGEDLAYER-2
 10
4.515718
 20
7.475294
 30
0.000000
  0
VERTEX
  8
MERGEDLAYER-2
 10
4.515718
 20
7.315126
 30
0.000000
  0
VERTEX
  8
MERGEDLAYER-2
 10
4.509325
 20
7.315126
 30
0.000000
  0
SEQEND
  8
MERGEDLAYER-2
  0
POLYLINE
  8
MERGEDLAYER-2
 66
  1
 70
  1
 62
  7
  0
VERTEX
  8
MERGEDLAYER-2
 10
4.502936
 20
7.602243
 30
0.000000
  0
VERTEX
  8
MERGEDLAYER-2
 10
4.509325
 20
7.602243
 30
0.000000
  0
VERTEX
  8
MERGEDLAYER-2
 10
4.509325
 20
7.442517
 30
0.000000
  0
VERTEX
  8
MERGEDLAYER-2
 10
4.502936
 20
7.442517
 30
0.000000
  0
SEQEND
  8
MERGEDLAYER-2
  0
POLYLINE
  8
MERGEDLAYER-2
 66
  1
 70
  1
 62
  7
  0
VERTEX
  8
MERGEDLAYER-2
 10
4.509325
 20
7.220057
 30
0.000000
  0
VERTEX
  8
MERGEDLAYER-2
 10
4.515718
 20
7.220057
 30
0.000000
  0
VERTEX
  8
MERGEDLAYER-2
 10
4.515718
 20
7.059455
 30
0.000000
  0
VERTEX
  8
MERGEDLAYER-2
 10
4.509325
 20
7.059455
 30
0.000000
  0
SEQEND
  8
MERGEDLAYER-2
  0
POLYLINE
  8
MERGEDLAYER-2
 66
  1
 70
  1
 62
  7
  0
VERTEX
  8
MERGEDLAYER-2
 10
4.502936
 20
7.346571
 30
0.000000
  0
VERTEX
  8
MERGEDLAYER-2
 10
4.509325
 20
7.346571
 30
0.000000
  0
VERTEX
  8
MERGEDLAYER-2
 10
4.509325
 20
7.187279
 30
0.000000
  0
VERTEX
  8
MERGEDLAYER-2
 10
4.502936
 20
7.187279
 30
0.000000
  0
SEQEND
  8
MERGEDLAYER-2
  0
POLYLINE
  8
MERGEDLAYER-2
 66
  1
 70
  1
 62
  7
  0
VERTEX
  8
MERGEDLAYER-2
 10
4.509325
 20
6.964819
 30
0.000000
  0
VERTEX
  8
MERGEDLAYER-2
 10
4.515718
 20
6.964819
 30
0.000000
  0
VERTEX
  8
MERGEDLAYER-2
 10
4.515718
 20
6.803783
 30
0.000000
  0
VERTEX
  8
MERGEDLAYER-2
 10
4.509325
 20
6.803783
 30
0.000000
  0
SEQEND
  8
MERGEDLAYER-2
  0
POLYLINE
  8
MERGEDLAYER-2
 66
  1
 70
  1
 62
  7
  0
VERTEX
  8
MERGEDLAYER-2
 10
4.502936
 20
7.091333
 30
0.000000
  0
VERTEX
  8
MERGEDLAYER-2
 10
4.509325
 20
7.091333
 30
0.000000
  0
VERTEX
  8
MERGEDLAYER-2
 10
4.509325
 20
6.932041
 30
0.000000
  0
VERTEX
  8
MERGEDLAYER-2
 10
4.502936
 20
6.932041
 30
0.000000
  0
SEQEND
  8
MERGEDLAYER-2
  0
POLYLINE
  8
MERGEDLAYER-2
 66
  1
 70
  1
 62
  7
  0
VERTEX
  8
MERGEDLAYER-2
 10
4.969436
 20
4.535870
 30
0.000000
  0
VERTEX
  8
MERGEDLAYER-2
 10
4.975825
 20
4.535870
 30
0.000000
  0
VERTEX
  8
MERGEDLAYER-2
 10
4.975825
 20
4.385706
 30
0.000000
  0
VERTEX
  8
MERGEDLAYER-2
 10
4.969436
 20
4.385706
 30
0.000000
  0
SEQEND
  8
MERGEDLAYER-2
  0
POLYLINE
  8
MERGEDLAYER-2
 66
  1
 70
  1
 62
  7
  0
VERTEX
  8
MERGEDLAYER-2
 10
4.975825
 20
4.663261
 30
0.000000
  0
VERTEX
  8
MERGEDLAYER-2
 10
4.982218
 20
4.663261
 30
0.000000
  0
VERTEX
  8
MERGEDLAYER-2
 10
4.982218
 20
4.503527
 30
0.000000
  0
VERTEX
  8
MERGEDLAYER-2
 10
4.975825
 20
4.503527
 30
0.000000
  0
SEQEND
  8
MERGEDLAYER-2
  0
POLYLINE
  8
MERGEDLAYER-2
 66
  1
 70
  1
 62
  7
  0
VERTEX
  8
MERGEDLAYER-2
 10
4.969436
 20
4.791512
 30
0.000000
  0
VERTEX
  8
MERGEDLAYER-2
 10
4.975825
 20
4.791512
 30
0.000000
  0
VERTEX
  8
MERGEDLAYER-2
 10
4.975825
 20
4.631343
 30
0.000000
  0
VERTEX
  8
MERGEDLAYER-2
 10
4.969436
 20
4.631343
 30
0.000000
  0
SEQEND
  8
MERGEDLAYER-2
  0
POLYLINE
  8
MERGEDLAYER-2
 66
  1
 70
  1
 62
  7
  0
VERTEX
  8
MERGEDLAYER-2
 10
4.975825
 20
4.920629
 30
0.000000
  0
VERTEX
  8
MERGEDLAYER-2
 10
4.982218
 20
4.920629
 30
0.000000
  0
VERTEX
  8
MERGEDLAYER-2
 10
4.982218
 20
4.758725
 30
0.000000
  0
VERTEX
  8
MERGEDLAYER-2
 10
4.975825
 20
4.758725
 30
0.000000
  0
SEQEND
  8
MERGEDLAYER-2
  0
POLYLINE
  8
MERGEDLAYER-2
 66
  1
 70
  1
 62
  7
  0
VERTEX
  8
MERGEDLAYER-2
 10
4.969436
 20
5.046709
 30
0.000000
  0
VERTEX
  8
MERGEDLAYER-2
 10
4.975825
 20
5.046709
 30
0.000000
  0
VERTEX
  8
MERGEDLAYER-2
 10
4.975825
 20
4.887411
 30
0.000000
  0
VERTEX
  8
MERGEDLAYER-2
 10
4.969436
 20
4.887411
 30
0.000000
  0
SEQEND
  8
MERGEDLAYER-2
  0
POLYLINE
  8
MERGEDLAYER-2
 66
  1
 70
  1
 62
  7
  0
VERTEX
  8
MERGEDLAYER-2
 10
4.975825
 20
5.174961
 30
0.000000
  0
VERTEX
  8
MERGEDLAYER-2
 10
4.982218
 20
5.174961
 30
0.000000
  0
VERTEX
  8
MERGEDLAYER-2
 10
4.982218
 20
5.014357
 30
0.000000
  0
VERTEX
  8
MERGEDLAYER-2
 10
4.975825
 20
5.014357
 30
0.000000
  0
SEQEND
  8
MERGEDLAYER-2
  0
POLYLINE
  8
MERGEDLAYER-2
 66
  1
 70
  1
 62
  7
  0
VERTEX
  8
MERGEDLAYER-2
 10
4.969436
 20
5.302776
 30
0.000000
  0
VERTEX
  8
MERGEDLAYER-2
 10
4.975825
 20
5.302776
 30
0.000000
  0
VERTEX
  8
MERGEDLAYER-2
 10
4.975825
 20
5.141741
 30
0.000000
  0
VERTEX
  8
MERGEDLAYER-2
 10
4.969436
 20
5.141741
 30
0.000000
  0
SEQEND
  8
MERGEDLAYER-2
  0
POLYLINE
  8
MERGEDLAYER-2
 66
  1
 70
  1
 62
  7
  0
VERTEX
  8
MERGEDLAYER-2
 10
4.975825
 20
5.431027
 30
0.000000
  0
VERTEX
  8
MERGEDLAYER-2
 10
4.982218
 20
5.431027
 30
0.000000
  0
VERTEX
  8
MERGEDLAYER-2
 10
4.982218
 20
5.269989
 30
0.000000
  0
VERTEX
  8
MERGEDLAYER-2
 10
4.975825
 20
5.269989
 30
0.000000
  0
SEQEND
  8
MERGEDLAYER-2
  0
POLYLINE
  8
MERGEDLAYER-2
 66
  1
 70
  1
 62
  7
  0
VERTEX
  8
MERGEDLAYER-2
 10
4.969436
 20
5.557976
 30
0.000000
  0
VERTEX
  8
MERGEDLAYER-2
 10
4.975825
 20
5.557976
 30
0.000000
  0
VERTEX
  8
MERGEDLAYER-2
 10
4.975825
 20
5.397807
 30
0.000000
  0
VERTEX
  8
MERGEDLAYER-2
 10
4.969436
 20
5.397807
 30
0.000000
  0
SEQEND
  8
MERGEDLAYER-2
  0
POLYLINE
  8
MERGEDLAYER-2
 66
  1
 70
  1
 62
  7
  0
VERTEX
  8
MERGEDLAYER-2
 10
4.975825
 20
5.686224
 30
0.000000
  0
VERTEX
  8
MERGEDLAYER-2
 10
4.982218
 20
5.686224
 30
0.000000
  0
VERTEX
  8
MERGEDLAYER-2
 10
4.982218
 20
5.525623
 30
0.000000
  0
VERTEX
  8
MERGEDLAYER-2
 10
4.975825
 20
5.525623
 30
0.000000
  0
SEQEND
  8
MERGEDLAYER-2
  0
POLYLINE
  8
MERGEDLAYER-2
 66
  1
 70
  1
 62
  7
  0
VERTEX
  8
MERGEDLAYER-2
 10
4.969436
 20
5.814041
 30
0.000000
  0
VERTEX
  8
MERGEDLAYER-2
 10
4.975825
 20
5.814041
 30
0.000000
  0
VERTEX
  8
MERGEDLAYER-2
 10
4.975825
 20
5.654306
 30
0.000000
  0
VERTEX
  8
MERGEDLAYER-2
 10
4.969436
 20
5.654306
 30
0.000000
  0
SEQEND
  8
MERGEDLAYER-2
  0
POLYLINE
  8
MERGEDLAYER-2
 66
  1
 70
  1
 62
  7
  0
VERTEX
  8
MERGEDLAYER-2
 10
4.975825
 20
5.942726
 30
0.000000
  0
VERTEX
  8
MERGEDLAYER-2
 10
4.982218
 20
5.942726
 30
0.000000
  0
VERTEX
  8
MERGEDLAYER-2
 10
4.982218
 20
5.781687
 30
0.000000
  0
VERTEX
  8
MERGEDLAYER-2
 10
4.975825
 20
5.781687
 30
0.000000
  0
SEQEND
  8
MERGEDLAYER-2
  0
POLYLINE
  8
MERGEDLAYER-2
 66
  1
 70
  1
 62
  7
  0
VERTEX
  8
MERGEDLAYER-2
 10
4.969436
 20
6.070109
 30
0.000000
  0
VERTEX
  8
MERGEDLAYER-2
 10
4.975825
 20
6.070109
 30
0.000000
  0
VERTEX
  8
MERGEDLAYER-2
 10
4.975825
 20
5.909505
 30
0.000000
  0
VERTEX
  8
MERGEDLAYER-2
 10
4.969436
 20
5.909505
 30
0.000000
  0
SEQEND
  8
MERGEDLAYER-2
  0
POLYLINE
  8
MERGEDLAYER-2
 66
  1
 70
  1
 62
  7
  0
VERTEX
  8
MERGEDLAYER-2
 10
4.975825
 20
6.197490
 30
0.000000
  0
VERTEX
  8
MERGEDLAYER-2
 10
4.982218
 20
6.197490
 30
0.000000
  0
VERTEX
  8
MERGEDLAYER-2
 10
4.982218
 20
6.037322
 30
0.000000
  0
VERTEX
  8
MERGEDLAYER-2
 10
4.975825
 20
6.037322
 30
0.000000
  0
SEQEND
  8
MERGEDLAYER-2
  0
POLYLINE
  8
MERGEDLAYER-2
 66
  1
 70
  1
 62
  7
  0
VERTEX
  8
MERGEDLAYER-2
 10
4.969436
 20
6.324438
 30
0.000000
  0
VERTEX
  8
MERGEDLAYER-2
 10
4.975825
 20
6.324438
 30
0.000000
  0
VERTEX
  8
MERGEDLAYER-2
 10
4.975825
 20
6.164271
 30
0.000000
  0
VERTEX
  8
MERGEDLAYER-2
 10
4.969436
 20
6.164271
 30
0.000000
  0
SEQEND
  8
MERGEDLAYER-2
  0
POLYLINE
  8
MERGEDLAYER-2
 66
  1
 70
  1
 62
  7
  0
VERTEX
  8
MERGEDLAYER-2
 10
4.975825
 20
6.453123
 30
0.000000
  0
VERTEX
  8
MERGEDLAYER-2
 10
4.982218
 20
6.453123
 30
0.000000
  0
VERTEX
  8
MERGEDLAYER-2
 10
4.982218
 20
6.293387
 30
0.000000
  0
VERTEX
  8
MERGEDLAYER-2
 10
4.975825
 20
6.293387
 30
0.000000
  0
SEQEND
  8
MERGEDLAYER-2
  0
POLYLINE
  8
MERGEDLAYER-2
 66
  1
 70
  1
 62
  7
  0
VERTEX
  8
MERGEDLAYER-2
 10
4.969436
 20
6.580938
 30
0.000000
  0
VERTEX
  8
MERGEDLAYER-2
 10
4.975825
 20
6.580938
 30
0.000000
  0
VERTEX
  8
MERGEDLAYER-2
 10
4.975825
 20
6.420335
 30
0.000000
  0
VERTEX
  8
MERGEDLAYER-2
 10
4.969436
 20
6.420335
 30
0.000000
  0
SEQEND
  8
MERGEDLAYER-2
  0
POLYLINE
  8
MERGEDLAYER-2
 66
  1
 70
  1
 62
  7
  0
VERTEX
  8
MERGEDLAYER-2
 10
4.975825
 20
6.709187
 30
0.000000
  0
VERTEX
  8
MERGEDLAYER-2
 10
4.982218
 20
6.709187
 30
0.000000
  0
VERTEX
  8
MERGEDLAYER-2
 10
4.982218
 20
6.548586
 30
0.000000
  0
VERTEX
  8
MERGEDLAYER-2
 10
4.975825
 20
6.548586
 30
0.000000
  0
SEQEND
  8
MERGEDLAYER-2
  0
POLYLINE
  8
MERGEDLAYER-2
 66
  1
 70
  1
 62
  7
  0
VERTEX
  8
MERGEDLAYER-2
 10
4.969436
 20
6.836569
 30
0.000000
  0
VERTEX
  8
MERGEDLAYER-2
 10
4.975825
 20
6.836569
 30
0.000000
  0
VERTEX
  8
MERGEDLAYER-2
 10
4.975825
 20
6.676401
 30
0.000000
  0
VERTEX
  8
MERGEDLAYER-2
 10
4.969436
 20
6.676401
 30
0.000000
  0
SEQEND
  8
MERGEDLAYER-2
  0
POLYLINE
  8
MERGEDLAYER-2
 66
  1
 70
  1
 62
  7
  0
VERTEX
  8
MERGEDLAYER-2
 10
4.975825
 20
8.240141
 30
0.000000
  0
VERTEX
  8
MERGEDLAYER-2
 10
4.982218
 20
8.240141
 30
0.000000
  0
VERTEX
  8
MERGEDLAYER-2
 10
4.982218
 20
8.080407
 30
0.000000
  0
VERTEX
  8
MERGEDLAYER-2
 10
4.975825
 20
8.080407
 30
0.000000
  0
SEQEND
  8
MERGEDLAYER-2
  0
POLYLINE
  8
MERGEDLAYER-2
 66
  1
 70
  1
 62
  7
  0
VERTEX
  8
MERGEDLAYER-2
 10
4.969436
 20
8.367958
 30
0.000000
  0
VERTEX
  8
MERGEDLAYER-2
 10
4.975825
 20
8.367958
 30
0.000000
  0
VERTEX
  8
MERGEDLAYER-2
 10
4.975825
 20
8.207798
 30
0.000000
  0
VERTEX
  8
MERGEDLAYER-2
 10
4.969436
 20
8.207798
 30
0.000000
  0
SEQEND
  8
MERGEDLAYER-2
  0
POLYLINE
  8
MERGEDLAYER-2
 66
  1
 70
  1
 62
  7
  0
VERTEX
  8
MERGEDLAYER-2
 10
4.975825
 20
7.984903
 30
0.000000
  0
VERTEX
  8
MERGEDLAYER-2
 10
4.982218
 20
7.984903
 30
0.000000
  0
VERTEX
  8
MERGEDLAYER-2
 10
4.982218
 20
7.825169
 30
0.000000
  0
VERTEX
  8
MERGEDLAYER-2
 10
4.975825
 20
7.825169
 30
0.000000
  0
SEQEND
  8
MERGEDLAYER-2
  0
POLYLINE
  8
MERGEDLAYER-2
 66
  1
 70
  1
 62
  7
  0
VERTEX
  8
MERGEDLAYER-2
 10
4.969436
 20
8.113154
 30
0.000000
  0
VERTEX
  8
MERGEDLAYER-2
 10
4.975825
 20
8.113154
 30
0.000000
  0
VERTEX
  8
MERGEDLAYER-2
 10
4.975825
 20
7.953428
 30
0.000000
  0
VERTEX
  8
MERGEDLAYER-2
 10
4.969436
 20
7.953428
 30
0.000000
  0
SEQEND
  8
MERGEDLAYER-2
  0
POLYLINE
  8
MERGEDLAYER-2
 66
  1
 70
  1
 62
  7
  0
VERTEX
  8
MERGEDLAYER-2
 10
4.975825
 20
7.729231
 30
0.000000
  0
VERTEX
  8
MERGEDLAYER-2
 10
4.982218
 20
7.729231
 30
0.000000
  0
VERTEX
  8
MERGEDLAYER-2
 10
4.982218
 20
7.569931
 30
0.000000
  0
VERTEX
  8
MERGEDLAYER-2
 10
4.975825
 20
7.569931
 30
0.000000
  0
SEQEND
  8
MERGEDLAYER-2
  0
POLYLINE
  8
MERGEDLAYER-2
 66
  1
 70
  1
 62
  7
  0
VERTEX
  8
MERGEDLAYER-2
 10
4.969436
 20
7.857048
 30
0.000000
  0
VERTEX
  8
MERGEDLAYER-2
 10
4.975825
 20
7.857048
 30
0.000000
  0
VERTEX
  8
MERGEDLAYER-2
 10
4.975825
 20
7.698624
 30
0.000000
  0
VERTEX
  8
MERGEDLAYER-2
 10
4.969436
 20
7.698624
 30
0.000000
  0
SEQEND
  8
MERGEDLAYER-2
  0
POLYLINE
  8
MERGEDLAYER-2
 66
  1
 70
  1
 62
  7
  0
VERTEX
  8
MERGEDLAYER-2
 10
4.975825
 20
7.475294
 30
0.000000
  0
VERTEX
  8
MERGEDLAYER-2
 10
4.982218
 20
7.475294
 30
0.000000
  0
VERTEX
  8
MERGEDLAYER-2
 10
4.982218
 20
7.315126
 30
0.000000
  0
VERTEX
  8
MERGEDLAYER-2
 10
4.975825
 20
7.315126
 30
0.000000
  0
SEQEND
  8
MERGEDLAYER-2
  0
POLYLINE
  8
MERGEDLAYER-2
 66
  1
 70
  1
 62
  7
  0
VERTEX
  8
MERGEDLAYER-2
 10
4.969436
 20
7.602243
 30
0.000000
  0
VERTEX
  8
MERGEDLAYER-2
 10
4.975825
 20
7.602243
 30
0.000000
  0
VERTEX
  8
MERGEDLAYER-2
 10
4.975825
 20
7.442517
 30
0.000000
  0
VERTEX
  8
MERGEDLAYER-2
 10
4.969436
 20
7.442517
 30
0.000000
  0
SEQEND
  8
MERGEDLAYER-2
  0
POLYLINE
  8
MERGEDLAYER-2
 66
  1
 70
  1
 62
  7
  0
VERTEX
  8
MERGEDLAYER-2
 10
4.975825
 20
7.220057
 30
0.000000
  0
VERTEX
  8
MERGEDLAYER-2
 10
4.982218
 20
7.220057
 30
0.000000
  0
VERTEX
  8
MERGEDLAYER-2
 10
4.982218
 20
7.059455
 30
0.000000
  0
VERTEX
  8
MERGEDLAYER-2
 10
4.975825
 20
7.059455
 30
0.000000
  0
SEQEND
  8
MERGEDLAYER-2
  0
POLYLINE
  8
MERGEDLAYER-2
 66
  1
 70
  1
 62
  7
  0
VERTEX
  8
MERGEDLAYER-2
 10
4.969436
 20
7.346571
 30
0.000000
  0
VERTEX
  8
MERGEDLAYER-2
 10
4.975825
 20
7.346571
 30
0.000000
  0
VERTEX
  8
MERGEDLAYER-2
 10
4.975825
 20
7.187279
 30
0.000000
  0
VERTEX
  8
MERGEDLAYER-2
 10
4.969436
 20
7.187279
 30
0.000000
  0
SEQEND
  8
MERGEDLAYER-2
  0
POLYLINE
  8
MERGEDLAYER-2
 66
  1
 70
  1
 62
  7
  0
VERTEX
  8
MERGEDLAYER-2
 10
4.975825
 20
6.964819
 30
0.000000
  0
VERTEX
  8
MERGEDLAYER-2
 10
4.982218
 20
6.964819
 30
0.000000
  0
VERTEX
  8
MERGEDLAYER-2
 10
4.982218
 20
6.803783
 30
0.000000
  0
VERTEX
  8
MERGEDLAYER-2
 10
4.975825
 20
6.803783
 30
0.000000
  0
SEQEND
  8
MERGEDLAYER-2
  0
POLYLINE
  8
MERGEDLAYER-2
 66
  1
 70
  1
 62
  7
  0
VERTEX
  8
MERGEDLAYER-2
 10
4.969436
 20
7.091333
 30
0.000000
  0
VERTEX
  8
MERGEDLAYER-2
 10
4.975825
 20
7.091333
 30
0.000000
  0
VERTEX
  8
MERGEDLAYER-2
 10
4.975825
 20
6.932041
 30
0.000000
  0
VERTEX
  8
MERGEDLAYER-2
 10
4.969436
 20
6.932041
 30
0.000000
  0
SEQEND
  8
MERGEDLAYER-2
  0
TEXT
  8
MERGEDLAYER-2
 62
  7
 10
2.561131
 20
3.541671
 30
0.000000
 40
0.122727
  1
ELEVATION INTâRIEURE 
 72
  5
 11
4.624768
 21
3.541671
 31
0.000000
  0
TEXT
  8
MERGEDLAYER-2
 62
  7
 10
3.324768
 20
3.923490
 30
0.000000
 40
0.102273
  1
37" ê 48"
 72
  5
 11
3.897495
 21
3.923490
 31
0.000000
  0
TEXT
  8
MERGEDLAYER-2
 62
  7
 10
3.024768
 20
3.787126
 30
0.000000
 40
0.102273
  1
940mm ê 1220mm
 72
  5
 11
4.197495
 21
3.787126
 31
0.000000
  0
TEXT
  8
MERGEDLAYER-2
 62
  7
 10
5.806586
 20
5.223490
 30
0.000000
 40
0.102273
  1
Hauteur de
 72
  5
 11
6.497495
 21
5.223490
 31
0.000000
  0
TEXT
  8
MERGEDLAYER-2
 62
  7
 10
5.806586
 20
5.068944
 30
0.000000
 40
0.102273
  1
la protection
 72
  5
 11
6.570222
 21
5.068944
 31
0.000000
  0
TEXT
  8
MERGEDLAYER-2
 62
  7
 10
5.806586
 20
4.914399
 30
0.000000
 40
0.102273
  1
est de
 72
  5
 11
6.215677
 21
4.914399
 31
0.000000
  0
TEXT
  8
MERGEDLAYER-2
 62
  7
 10
5.806586
 20
4.759853
 30
0.000000
 40
0.102273
  1
25" (635mm)
 72
  5
 11
6.624768
 21
4.759853
 31
0.000000
  0
TEXT
  8
MERGEDLAYER-2
 62
  7
 10
1.788404
 20
9.050762
 30
0.000000
 40
0.156818
  1
Protection bouton papillon Roll-126
 72
  5
 11
5.352040
 21
9.050762
 31
0.000000
  0
TEXT
  8
MERGEDLAYER-2
 62
  7
 10
4.588404
 20
2.887126
 30
0.000000
 40
0.102273
  1
Barre
 72
  5
 11
4.961131
 21
2.887126
 31
0.000000
  0
TEXT
  8
MERGEDLAYER-2
 62
  7
 10
4.588404
 20
2.732581
 30
0.000000
 40
0.102273
  1
du bas
 72
  5
 11
5.033858
 21
2.732581
 31
0.000000
  0
TEXT
  8
MERGEDLAYER-2
 62
  7
 10
4.633858
 20
0.668944
 30
0.000000
 40
0.102273
  1
Protecteur 
 72
  5
 11
5.333858
 21
0.668944
 31
0.000000
  0
TEXT
  8
MERGEDLAYER-2
 62
  7
 10
3.761131
 20
0.523490
 30
0.000000
 40
0.102273
  1
Bouton
 72
  5
 11
4.224768
 21
0.523490
 31
0.000000
  0
TEXT
  8
MERGEDLAYER-2
 62
  7
 10
3.761131
 20
0.368944
 30
0.000000
 40
0.102273
  1
papillon
 72
  5
 11
4.252040
 21
0.368944
 31
0.000000
  0
POLYLINE
  8
MERGEDLAYER-2
 66
  1
 70
  0
 62
  7
 10
3.731043
 20
1.512775
 30
0.000000
  0
VERTEX
  8
MERGEDLAYER-2
 10
3.731043
 20
1.512775
 30
0.000000
  0
VERTEX
  8
MERGEDLAYER-2
 10
3.372495
 20
1.719783
 30
0.000000
  0
SEQEND
  8
MERGEDLAYER-2
  0
POLYLINE
  8
MERGEDLAYER-2
 66
  1
 70
  0
 62
  7
 10
3.372496
 20
1.719782
 30
0.000000
  0
VERTEX
  8
MERGEDLAYER-2
 10
3.372496
 20
1.719782
 30
0.000000
  0
VERTEX
  8
MERGEDLAYER-2
 10
3.330488
 20
1.736897
 30
0.000000
  0
VERTEX
  8
MERGEDLAYER-2
 10
3.288264
 20
1.743941
 30
0.000000
  0
VERTEX
  8
MERGEDLAYER-2
 10
3.245476
 20
1.742613
 30
0.000000
  0
VERTEX
  8
MERGEDLAYER-2
 10
3.203770
 20
1.732962
 30
0.000000
  0
VERTEX
  8
MERGEDLAYER-2
 10
3.176525
 20
1.718706
 30
0.000000
  0
SEQEND
  8
MERGEDLAYER-2
  0
POLYLINE
  8
MERGEDLAYER-2
 66
  1
 70
  0
 62
  7
 10
3.176525
 20
1.718706
 30
0.000000
  0
VERTEX
  8
MERGEDLAYER-2
 10
3.176525
 20
1.718706
 30
0.000000
  0
VERTEX
  8
MERGEDLAYER-2
 10
3.106621
 20
1.676336
 30
0.000000
  0
VERTEX
  8
MERGEDLAYER-2
 10
3.048641
 20
1.619594
 30
0.000000
  0
VERTEX
  8
MERGEDLAYER-2
 10
3.002844
 20
1.552632
 30
0.000000
  0
VERTEX
  8
MERGEDLAYER-2
 10
2.970991
 20
1.478022
 30
0.000000
  0
VERTEX
  8
MERGEDLAYER-2
 10
2.954305
 20
1.398632
 30
0.000000
  0
VERTEX
  8
MERGEDLAYER-2
 10
2.953429
 20
1.317512
 30
0.000000
  0
VERTEX
  8
MERGEDLAYER-2
 10
2.961220
 20
1.273742
 30
0.000000
  0
SEQEND
  8
MERGEDLAYER-2
  0
POLYLINE
  8
MERGEDLAYER-2
 66
  1
 70
  0
 62
  7
 10
2.961219
 20
1.273742
 30
0.000000
  0
VERTEX
  8
MERGEDLAYER-2
 10
2.961219
 20
1.273742
 30
0.000000
  0
VERTEX
  8
MERGEDLAYER-2
 10
2.972052
 20
1.232233
 30
0.000000
  0
VERTEX
  8
MERGEDLAYER-2
 10
2.993090
 20
1.192089
 30
0.000000
  0
VERTEX
  8
MERGEDLAYER-2
 10
3.021554
 20
1.156822
 30
0.000000
  0
VERTEX
  8
MERGEDLAYER-2
 10
3.056353
 20
1.127784
 30
0.000000
  0
VERTEX
  8
MERGEDLAYER-2
 10
3.061989
 20
1.123372
 30
0.000000
  0
SEQEND
  8
MERGEDLAYER-2
  0
POLYLINE
  8
MERGEDLAYER-2
 66
  1
 70
  0
 62
  7
 10
3.420538
 20
0.916364
 30
0.000000
  0
VERTEX
  8
MERGEDLAYER-2
 10
3.420538
 20
0.916364
 30
0.000000
  0
VERTEX
  8
MERGEDLAYER-2
 10
3.061989
 20
1.123372
 30
0.000000
  0
SEQEND
  8
MERGEDLAYER-2
  0
POLYLINE
  8
MERGEDLAYER-2
 66
  1
 70
  0
 62
  7
 10
3.731043
 20
1.512775
 30
0.000000
  0
VERTEX
  8
MERGEDLAYER-2
 10
3.731043
 20
1.512775
 30
0.000000
  0
VERTEX
  8
MERGEDLAYER-2
 10
3.420538
 20
0.916364
 30
0.000000
  0
SEQEND
  8
MERGEDLAYER-2
  0
POLYLINE
  8
MERGEDLAYER-2
 66
  1
 70
  0
 62
  7
 10
3.804936
 20
1.111803
 30
0.000000
  0
VERTEX
  8
MERGEDLAYER-2
 10
3.804936
 20
1.111803
 30
0.000000
  0
VERTEX
  8
MERGEDLAYER-2
 10
3.827642
 20
1.173467
 30
0.000000
  0
VERTEX
  8
MERGEDLAYER-2
 10
3.840653
 20
1.236771
 30
0.000000
  0
VERTEX
  8
MERGEDLAYER-2
 10
3.843470
 20
1.299283
 30
0.000000
  0
VERTEX
  8
MERGEDLAYER-2
 10
3.835983
 20
1.358599
 30
0.000000
  0
VERTEX
  8
MERGEDLAYER-2
 10
3.818481
 20
1.412442
 30
0.000000
  0
VERTEX
  8
MERGEDLAYER-2
 10
3.791637
 20
1.458741
 30
0.000000
  0
VERTEX
  8
MERGEDLAYER-2
 10
3.756480
 20
1.495718
 30
0.000000
  0
VERTEX
  8
MERGEDLAYER-2
 10
3.714364
 20
1.521951
 30
0.000000
  0
VERTEX
  8
MERGEDLAYER-2
 10
3.666907
 20
1.536433
 30
0.000000
  0
VERTEX
  8
MERGEDLAYER-2
 10
3.615931
 20
1.538606
 30
0.000000
  0
VERTEX
  8
MERGEDLAYER-2
 10
3.563397
 20
1.528388
 30
0.000000
  0
VERTEX
  8
MERGEDLAYER-2
 10
3.511322
 20
1.506171
 30
0.000000
  0
VERTEX
  8
MERGEDLAYER-2
 10
3.461709
 20
1.472809
 30
0.000000
  0
VERTEX
  8
MERGEDLAYER-2
 10
3.416464
 20
1.429583
 30
0.000000
  0
VERTEX
  8
MERGEDLAYER-2
 10
3.377325
 20
1.378156
 30
0.000000
  0
VERTEX
  8
MERGEDLAYER-2
 10
3.345796
 20
1.320503
 30
0.000000
  0
VERTEX
  8
MERGEDLAYER-2
 10
3.323090
 20
1.258840
 30
0.000000
  0
VERTEX
  8
MERGEDLAYER-2
 10
3.310079
 20
1.195536
 30
0.000000
  0
VERTEX
  8
MERGEDLAYER-2
 10
3.307262
 20
1.133024
 30
0.000000
  0
VERTEX
  8
MERGEDLAYER-2
 10
3.314749
 20
1.073708
 30
0.000000
  0
VERTEX
  8
MERGEDLAYER-2
 10
3.332251
 20
1.019865
 30
0.000000
  0
VERTEX
  8
MERGEDLAYER-2
 10
3.359096
 20
0.973566
 30
0.000000
  0
VERTEX
  8
MERGEDLAYER-2
 10
3.394252
 20
0.936589
 30
0.000000
  0
VERTEX
  8
MERGEDLAYER-2
 10
3.436368
 20
0.910356
 30
0.000000
  0
VERTEX
  8
MERGEDLAYER-2
 10
3.483825
 20
0.895874
 30
0.000000
  0
VERTEX
  8
MERGEDLAYER-2
 10
3.534801
 20
0.893700
 30
0.000000
  0
VERTEX
  8
MERGEDLAYER-2
 10
3.587335
 20
0.903918
 30
0.000000
  0
VERTEX
  8
MERGEDLAYER-2
 10
3.639410
 20
0.926135
 30
0.000000
  0
VERTEX
  8
MERGEDLAYER-2
 10
3.689023
 20
0.959498
 30
0.000000
  0
VERTEX
  8
MERGEDLAYER-2
 10
3.734268
 20
1.002723
 30
0.000000
  0
VERTEX
  8
MERGEDLAYER-2
 10
3.773407
 20
1.054150
 30
0.000000
  0
VERTEX
  8
MERGEDLAYER-2
 10
3.804936
 20
1.111803
 30
0.000000
  0
SEQEND
  8
MERGEDLAYER-2
  0
POLYLINE
  8
MERGEDLAYER-2
 66
  1
 70
  1
 62
255
 10
0.384396
 20
1.052914
 30
0.000000
  0
VERTEX
  8
MERGEDLAYER-2
 10
0.384396
 20
1.052914
 30
0.000000
  0
VERTEX
  8
MERGEDLAYER-2
 10
0.672250
 20
1.130044
 30
0.000000
  0
VERTEX
  8
MERGEDLAYER-2
 10
0.672250
 20
1.158605
 30
0.000000
  0
VERTEX
  8
MERGEDLAYER-2
 10
0.772433
 20
1.185447
 30
0.000000
  0
VERTEX
  8
MERGEDLAYER-2
 10
0.882295
 20
1.121761
 30
0.000000
  0
VERTEX
  8
MERGEDLAYER-2
 10
0.884919
 20
1.117214
 30
0.000000
  0
VERTEX
  8
MERGEDLAYER-2
 10
0.884919
 20
0.604402
 30
0.000000
  0
VERTEX
  8
MERGEDLAYER-2
 10
0.867350
 20
0.600544
 30
0.000000
  0
VERTEX
  8
MERGEDLAYER-2
 10
0.863534
 20
0.596554
 30
0.000000
  0
VERTEX
  8
MERGEDLAYER-2
 10
0.863534
 20
0.581264
 30
0.000000
  0
VERTEX
  8
MERGEDLAYER-2
 10
0.867471
 20
0.577477
 30
0.000000
  0
VERTEX
  8
MERGEDLAYER-2
 10
0.863534
 20
0.575203
 30
0.000000
  0
VERTEX
  8
MERGEDLAYER-2
 10
0.863828
 20
0.504484
 30
0.000000
  0
VERTEX
  8
MERGEDLAYER-2
 10
0.847131
 20
0.500010
 30
0.000000
  0
VERTEX
  8
MERGEDLAYER-2
 10
0.847131
 20
0.487953
 30
0.000000
  0
VERTEX
  8
MERGEDLAYER-2
 10
0.849755
 20
0.483407
 30
0.000000
  0
VERTEX
  8
MERGEDLAYER-2
 10
0.860910
 20
0.476965
 30
0.000000
  0
VERTEX
  8
MERGEDLAYER-2
 10
0.863534
 20
0.472420
 30
0.000000
  0
VERTEX
  8
MERGEDLAYER-2
 10
0.863242
 20
0.443165
 30
0.000000
  0
VERTEX
  8
MERGEDLAYER-2
 10
0.850749
 20
0.440388
 30
0.000000
  0
VERTEX
  8
MERGEDLAYER-2
 10
0.847130
 20
0.436572
 30
0.000000
  0
VERTEX
  8
MERGEDLAYER-2
 10
0.846838
 20
0.428080
 30
0.000000
  0
VERTEX
  8
MERGEDLAYER-2
 10
0.847833
 20
0.421437
 30
0.000000
  0
VERTEX
  8
MERGEDLAYER-2
 10
0.862790
 20
0.411307
 30
0.000000
  0
VERTEX
  8
MERGEDLAYER-2
 10
0.863534
 20
0.154884
 30
0.000000
  0
VERTEX
  8
MERGEDLAYER-2
 10
0.841858
 20
0.149076
 30
0.000000
  0
VERTEX
  8
MERGEDLAYER-2
 10
0.808170
 20
0.168525
 30
0.000000
  0
VERTEX
  8
MERGEDLAYER-2
 10
0.486531
 20
0.082341
 30
0.000000
  0
VERTEX
  8
MERGEDLAYER-2
 10
0.384396
 20
0.141309
 30
0.000000
  0
SEQEND
  8
MERGEDLAYER-2
  0
POLYLINE
  8
MERGEDLAYER-2
 66
  1
 70
  0
 62
  7
 10
4.537380
 20
0.743339
 30
0.000000
  0
VERTEX
  8
MERGEDLAYER-2
 10
4.537380
 20
0.743339
 30
0.000000
  0
VERTEX
  8
MERGEDLAYER-2
 10
3.805491
 20
1.055070
 30
0.000000
  0
SEQEND
  8
MERGEDLAYER-2
  0
POLYLINE
  8
MERGEDLAYER-2
 66
  1
 70
  1
 62
  7
  0
VERTEX
  8
MERGEDLAYER-2
 10
3.787380
 20
1.062784
 30
0.000000
  0
VERTEX
  8
MERGEDLAYER-2
 10
3.839886
 20
1.070065
 30
0.000000
  0
VERTEX
  8
MERGEDLAYER-2
 10
3.829199
 20
1.044973
 30
0.000000
  0
VERTEX
  8
MERGEDLAYER-2
 10
3.818512
 20
1.019881
 30
0.000000
  0
VERTEX
  8
MERGEDLAYER-2
 10
3.787380
 20
1.062784
 30
0.000000
  0
SEQEND
  8
MERGEDLAYER-2
  0
POLYLINE
  8
MERGEDLAYER-2
 66
  1
 70
  0
 62
  7
 10
3.728352
 20
0.486395
 30
0.000000
  0
VERTEX
  8
MERGEDLAYER-2
 10
3.728352
 20
0.486395
 30
0.000000
  0
VERTEX
  8
MERGEDLAYER-2
 10
3.552140
 20
1.149261
 30
0.000000
  0
SEQEND
  8
MERGEDLAYER-2
  0
POLYLINE
  8
MERGEDLAYER-2
 66
  1
 70
  1
 62
  7
  0
VERTEX
  8
MERGEDLAYER-2
 10
3.547083
 20
1.168285
 30
0.000000
  0
VERTEX
  8
MERGEDLAYER-2
 10
3.585118
 20
1.131363
 30
0.000000
  0
VERTEX
  8
MERGEDLAYER-2
 10
3.558761
 20
1.124356
 30
0.000000
  0
VERTEX
  8
MERGEDLAYER-2
 10
3.532404
 20
1.117350
 30
0.000000
  0
VERTEX
  8
MERGEDLAYER-2
 10
3.547083
 20
1.168285
 30
0.000000
  0
SEQEND
  8
MERGEDLAYER-2
  0
POLYLINE
  8
MERGEDLAYER-2
 66
  1
 70
  0
 62
  7
 10
0.717936
 20
1.250283
 30
0.000000
  0
VERTEX
  8
MERGEDLAYER-2
 10
0.717936
 20
1.250283
 30
0.000000
  0
VERTEX
  8
MERGEDLAYER-2
 10
0.836456
 20
1.181856
 30
0.000000
  0
SEQEND
  8
MERGEDLAYER-2
  0
POLYLINE
  8
MERGEDLAYER-2
 66
  1
 70
  0
 62
  7
 10
0.910697
 20
1.126113
 30
0.000000
  0
VERTEX
  8
MERGEDLAYER-2
 10
0.910697
 20
1.126113
 30
0.000000
  0
VERTEX
  8
MERGEDLAYER-2
 10
0.910697
 20
0.387439
 30
0.000000
  0
SEQEND
  8
MERGEDLAYER-2
  0
POLYLINE
  8
MERGEDLAYER-2
 66
  1
 70
  0
 62
  7
 10
0.910697
 20
0.387439
 30
0.000000
  0
VERTEX
  8
MERGEDLAYER-2
 10
0.910697
 20
0.387439
 30
0.000000
  0
VERTEX
  8
MERGEDLAYER-2
 10
0.913124
 20
0.367310
 30
0.000000
  0
VERTEX
  8
MERGEDLAYER-2
 10
0.918433
 20
0.358567
 30
0.000000
  0
SEQEND
  8
MERGEDLAYER-2
  0
POLYLINE
  8
MERGEDLAYER-2
 66
  1
 70
  0
 62
  7
 10
0.882295
 20
1.121762
 30
0.000000
  0
VERTEX
  8
MERGEDLAYER-2
 10
0.882295
 20
1.121762
 30
0.000000
  0
VERTEX
  8
MERGEDLAYER-2
 10
0.679702
 20
1.238726
 30
0.000000
  0
SEQEND
  8
MERGEDLAYER-2
  0
POLYLINE
  8
MERGEDLAYER-2
 66
  1
 70
  0
 62
  7
 10
0.679701
 20
1.238726
 30
0.000000
  0
VERTEX
  8
MERGEDLAYER-2
 10
0.679701
 20
1.238726
 30
0.000000
  0
VERTEX
  8
MERGEDLAYER-2
 10
0.675764
 20
1.236455
 30
0.000000
  0
SEQEND
  8
MERGEDLAYER-2
  0
POLYLINE
  8
MERGEDLAYER-2
 66
  1
 70
  0
 62
  7
 10
0.884919
 20
1.117214
 30
0.000000
  0
VERTEX
  8
MERGEDLAYER-2
 10
0.884919
 20
1.117214
 30
0.000000
  0
VERTEX
  8
MERGEDLAYER-2
 10
0.884919
 20
0.593299
 30
0.000000
  0
SEQEND
  8
MERGEDLAYER-2
  0
POLYLINE
  8
MERGEDLAYER-2
 66
  1
 70
  0
 62
  7
 10
0.880983
 20
0.591028
 30
0.000000
  0
VERTEX
  8
MERGEDLAYER-2
 10
0.880983
 20
0.591028
 30
0.000000
  0
VERTEX
  8
MERGEDLAYER-2
 10
0.884920
 20
0.593299
 30
0.000000
  0
SEQEND
  8
MERGEDLAYER-2
  0
POLYLINE
  8
MERGEDLAYER-2
 66
  1
 70
  0
 62
  7
 10
0.884919
 20
1.117214
 30
0.000000
  0
VERTEX
  8
MERGEDLAYER-2
 10
0.884919
 20
1.117214
 30
0.000000
  0
VERTEX
  8
MERGEDLAYER-2
 10
0.882295
 20
1.121761
 30
0.000000
  0
SEQEND
  8
MERGEDLAYER-2
  0
POLYLINE
  8
MERGEDLAYER-2
 66
  1
 70
  0
 62
  7
 10
0.762329
 20
0.156242
 30
0.000000
  0
VERTEX
  8
MERGEDLAYER-2
 10
0.762329
 20
0.156242
 30
0.000000
  0
VERTEX
  8
MERGEDLAYER-2
 10
0.873952
 20
0.091797
 30
0.000000
  0
SEQEND
  8
MERGEDLAYER-2
  0
POLYLINE
  8
MERGEDLAYER-2
 66
  1
 70
  0
 62
  7
 10
0.880513
 20
0.169137
 30
0.000000
  0
VERTEX
  8
MERGEDLAYER-2
 10
0.880513
 20
0.169137
 30
0.000000
  0
VERTEX
  8
MERGEDLAYER-2
 10
0.984527
 20
0.109084
 30
0.000000
  0
SEQEND
  8
MERGEDLAYER-2
  0
POLYLINE
  8
MERGEDLAYER-2
 66
  1
 70
  0
 62
  7
 10
0.987151
 20
0.104538
 30
0.000000
  0
VERTEX
  8
MERGEDLAYER-2
 10
0.987151
 20
0.104538
 30
0.000000
  0
VERTEX
  8
MERGEDLAYER-2
 10
0.984527
 20
0.109084
 30
0.000000
  0
SEQEND
  8
MERGEDLAYER-2
  0
POLYLINE
  8
MERGEDLAYER-2
 66
  1
 70
  0
 62
  7
 10
0.877889
 20
0.173682
 30
0.000000
  0
VERTEX
  8
MERGEDLAYER-2
 10
0.877889
 20
0.173682
 30
0.000000
  0
VERTEX
  8
MERGEDLAYER-2
 10
0.880513
 20
0.169135
 30
0.000000
  0
SEQEND
  8
MERGEDLAYER-2
  0
POLYLINE
  8
MERGEDLAYER-2
 66
  1
 70
  0
 62
  7
 10
0.857969
 20
1.216845
 30
0.000000
  0
VERTEX
  8
MERGEDLAYER-2
 10
0.857969
 20
1.216845
 30
0.000000
  0
VERTEX
  8
MERGEDLAYER-2
 10
0.857969
 20
1.172465
 30
0.000000
  0
SEQEND
  8
MERGEDLAYER-2
  0
POLYLINE
  8
MERGEDLAYER-2
 66
  1
 70
  0
 62
  7
 10
0.857969
 20
1.172465
 30
0.000000
  0
VERTEX
  8
MERGEDLAYER-2
 10
0.857969
 20
1.172465
 30
0.000000
  0
VERTEX
  8
MERGEDLAYER-2
 10
0.860593
 20
1.167920
 30
0.000000
  0
SEQEND
  8
MERGEDLAYER-2
  0
POLYLINE
  8
MERGEDLAYER-2
 66
  1
 70
  0
 62
  7
 10
0.840393
 20
1.205559
 30
0.000000
  0
VERTEX
  8
MERGEDLAYER-2
 10
0.840393
 20
1.205559
 30
0.000000
  0
VERTEX
  8
MERGEDLAYER-2
 10
0.840393
 20
1.184129
 30
0.000000
  0
SEQEND
  8
MERGEDLAYER-2
  0
POLYLINE
  8
MERGEDLAYER-2
 66
  1
 70
  0
 62
  7
 10
0.836457
 20
1.181856
 30
0.000000
  0
VERTEX
  8
MERGEDLAYER-2
 10
0.836457
 20
1.181856
 30
0.000000
  0
VERTEX
  8
MERGEDLAYER-2
 10
0.840394
 20
1.184129
 30
0.000000
  0
SEQEND
  8
MERGEDLAYER-2
  0
POLYLINE
  8
MERGEDLAYER-2
 66
  1
 70
  0
 62
  7
 10
0.715311
 20
1.254830
 30
0.000000
  0
VERTEX
  8
MERGEDLAYER-2
 10
0.715311
 20
1.254830
 30
0.000000
  0
VERTEX
  8
MERGEDLAYER-2
 10
0.715311
 20
1.276260
 30
0.000000
  0
SEQEND
  8
MERGEDLAYER-2
  0
POLYLINE
  8
MERGEDLAYER-2
 66
  1
 70
  0
 62
  7
 10
0.719248
 20
1.278531
 30
0.000000
  0
VERTEX
  8
MERGEDLAYER-2
 10
0.719248
 20
1.278531
 30
0.000000
  0
VERTEX
  8
MERGEDLAYER-2
 10
0.715311
 20
1.276260
 30
0.000000
  0
SEQEND
  8
MERGEDLAYER-2
  0
POLYLINE
  8
MERGEDLAYER-2
 66
  1
 70
  0
 62
  7
 10
0.715311
 20
1.254830
 30
0.000000
  0
VERTEX
  8
MERGEDLAYER-2
 10
0.715311
 20
1.254830
 30
0.000000
  0
VERTEX
  8
MERGEDLAYER-2
 10
0.717935
 20
1.250284
 30
0.000000
  0
SEQEND
  8
MERGEDLAYER-2
  0
POLYLINE
  8
MERGEDLAYER-2
 66
  1
 70
  0
 62
  7
 10
0.700958
 20
1.305980
 30
0.000000
  0
VERTEX
  8
MERGEDLAYER-2
 10
0.700958
 20
1.305980
 30
0.000000
  0
VERTEX
  8
MERGEDLAYER-2
 10
0.700958
 20
1.264632
 30
0.000000
  0
SEQEND
  8
MERGEDLAYER-2
  0
POLYLINE
  8
MERGEDLAYER-2
 66
  1
 70
  0
 62
  7
 10
0.697021
 20
1.262358
 30
0.000000
  0
VERTEX
  8
MERGEDLAYER-2
 10
0.697021
 20
1.262358
 30
0.000000
  0
VERTEX
  8
MERGEDLAYER-2
 10
0.700958
 20
1.264632
 30
0.000000
  0
SEQEND
  8
MERGEDLAYER-2
  0
POLYLINE
  8
MERGEDLAYER-2
 66
  1
 70
  0
 62
  7
 10
0.857968
 20
1.216845
 30
0.000000
  0
VERTEX
  8
MERGEDLAYER-2
 10
0.857968
 20
1.216845
 30
0.000000
  0
VERTEX
  8
MERGEDLAYER-2
 10
0.855344
 20
1.221391
 30
0.000000
  0
SEQEND
  8
MERGEDLAYER-2
  0
POLYLINE
  8
MERGEDLAYER-2
 66
  1
 70
  0
 62
  7
 10
0.820473
 20
1.223120
 30
0.000000
  0
VERTEX
  8
MERGEDLAYER-2
 10
0.820473
 20
1.223120
 30
0.000000
  0
VERTEX
  8
MERGEDLAYER-2
 10
0.820473
 20
1.236977
 30
0.000000
  0
SEQEND
  8
MERGEDLAYER-2
  0
POLYLINE
  8
MERGEDLAYER-2
 66
  1
 70
  0
 62
  7
 10
0.824410
 20
1.239250
 30
0.000000
  0
VERTEX
  8
MERGEDLAYER-2
 10
0.824410
 20
1.239250
 30
0.000000
  0
VERTEX
  8
MERGEDLAYER-2
 10
0.820473
 20
1.236977
 30
0.000000
  0
SEQEND
  8
MERGEDLAYER-2
  0
POLYLINE
  8
MERGEDLAYER-2
 66
  1
 70
  0
 62
  7
 10
0.737281
 20
1.286523
 30
0.000000
  0
VERTEX
  8
MERGEDLAYER-2
 10
0.737281
 20
1.286523
 30
0.000000
  0
VERTEX
  8
MERGEDLAYER-2
 10
0.737281
 20
1.272666
 30
0.000000
  0
SEQEND
  8
MERGEDLAYER-2
  0
POLYLINE
  8
MERGEDLAYER-2
 66
  1
 70
  0
 62
  7
 10
0.737281
 20
1.286523
 30
0.000000
  0
VERTEX
  8
MERGEDLAYER-2
 10
0.737281
 20
1.286523
 30
0.000000
  0
VERTEX
  8
MERGEDLAYER-2
 10
0.734657
 20
1.291069
 30
0.000000
  0
SEQEND
  8
MERGEDLAYER-2
  0
POLYLINE
  8
MERGEDLAYER-2
 66
  1
 70
  0
 62
  7
 10
0.840393
 20
1.205559
 30
0.000000
  0
VERTEX
  8
MERGEDLAYER-2
 10
0.840393
 20
1.205559
 30
0.000000
  0
VERTEX
  8
MERGEDLAYER-2
 10
0.837769
 20
1.210104
 30
0.000000
  0
SEQEND
  8
MERGEDLAYER-2
  0
POLYLINE
  8
MERGEDLAYER-2
 66
  1
 70
  0
 62
  7
 10
0.885212
 20
0.564202
 30
0.000000
  0
VERTEX
  8
MERGEDLAYER-2
 10
0.885212
 20
0.564202
 30
0.000000
  0
VERTEX
  8
MERGEDLAYER-2
 10
0.885212
 20
0.384579
 30
0.000000
  0
SEQEND
  8
MERGEDLAYER-2
  0
POLYLINE
  8
MERGEDLAYER-2
 66
  1
 70
  0
 62
  7
 10
1.005254
 20
0.208188
 30
0.000000
  0
VERTEX
  8
MERGEDLAYER-2
 10
1.005254
 20
0.208188
 30
0.000000
  0
VERTEX
  8
MERGEDLAYER-2
 10
0.918433
 20
0.358567
 30
0.000000
  0
SEQEND
  8
MERGEDLAYER-2
  0
POLYLINE
  8
MERGEDLAYER-2
 66
  1
 70
  0
 62
  7
 10
1.008243
 20
0.197034
 30
0.000000
  0
VERTEX
  8
MERGEDLAYER-2
 10
1.008243
 20
0.197034
 30
0.000000
  0
VERTEX
  8
MERGEDLAYER-2
 10
1.006152
 20
0.201334
 30
0.000000
  0
VERTEX
  8
MERGEDLAYER-2
 10
1.005787
 20
0.203641
 30
0.000000
  0
VERTEX
  8
MERGEDLAYER-2
 10
1.005183
 20
0.205897
 30
0.000000
  0
VERTEX
  8
MERGEDLAYER-2
 10
1.004346
 20
0.208077
 30
0.000000
  0
VERTEX
  8
MERGEDLAYER-2
 10
1.005254
 20
0.208188
 30
0.000000
  0
SEQEND
  8
MERGEDLAYER-2
  0
POLYLINE
  8
MERGEDLAYER-2
 66
  1
 70
  0
 62
  7
 10
0.986448
 20
0.197978
 30
0.000000
  0
VERTEX
  8
MERGEDLAYER-2
 10
0.986448
 20
0.197978
 30
0.000000
  0
VERTEX
  8
MERGEDLAYER-2
 10
0.890838
 20
0.363581
 30
0.000000
  0
SEQEND
  8
MERGEDLAYER-2
  0
POLYLINE
  8
MERGEDLAYER-2
 66
  1
 70
  0
 62
  7
 10
0.885212
 20
0.384579
 30
0.000000
  0
VERTEX
  8
MERGEDLAYER-2
 10
0.885212
 20
0.384579
 30
0.000000
  0
VERTEX
  8
MERGEDLAYER-2
 10
0.886440
 20
0.370477
 30
0.000000
  0
VERTEX
  8
MERGEDLAYER-2
 10
0.890839
 20
0.363581
 30
0.000000
  0
SEQEND
  8
MERGEDLAYER-2
  0
POLYLINE
  8
MERGEDLAYER-2
 66
  1
 70
  0
 62
  7
 10
0.987151
 20
0.195354
 30
0.000000
  0
VERTEX
  8
MERGEDLAYER-2
 10
0.987151
 20
0.195354
 30
0.000000
  0
VERTEX
  8
MERGEDLAYER-2
 10
0.986448
 20
0.197978
 30
0.000000
  0
SEQEND
  8
MERGEDLAYER-2
  0
POLYLINE
  8
MERGEDLAYER-2
 66
  1
 70
  0
 62
  7
 10
0.987152
 20
0.195354
 30
0.000000
  0
VERTEX
  8
MERGEDLAYER-2
 10
0.987152
 20
0.195354
 30
0.000000
  0
VERTEX
  8
MERGEDLAYER-2
 10
0.987152
 20
0.145261
 30
0.000000
  0
SEQEND
  8
MERGEDLAYER-2
  0
POLYLINE
  8
MERGEDLAYER-2
 66
  1
 70
  0
 62
  7
 10
0.983215
 20
0.142988
 30
0.000000
  0
VERTEX
  8
MERGEDLAYER-2
 10
0.983215
 20
0.142988
 30
0.000000
  0
VERTEX
  8
MERGEDLAYER-2
 10
0.987152
 20
0.145261
 30
0.000000
  0
SEQEND
  8
MERGEDLAYER-2
  0
POLYLINE
  8
MERGEDLAYER-2
 66
  1
 70
  0
 62
  7
 10
0.891199
 20
0.196115
 30
0.000000
  0
VERTEX
  8
MERGEDLAYER-2
 10
0.891199
 20
0.196115
 30
0.000000
  0
VERTEX
  8
MERGEDLAYER-2
 10
0.983215
 20
0.142989
 30
0.000000
  0
SEQEND
  8
MERGEDLAYER-2
  0
POLYLINE
  8
MERGEDLAYER-2
 66
  1
 70
  0
 62
  7
 10
0.891199
 20
0.196114
 30
0.000000
  0
VERTEX
  8
MERGEDLAYER-2
 10
0.891199
 20
0.196114
 30
0.000000
  0
VERTEX
  8
MERGEDLAYER-2
 10
0.887262
 20
0.193841
 30
0.000000
  0
SEQEND
  8
MERGEDLAYER-2
  0
POLYLINE
  8
MERGEDLAYER-2
 66
  1
 70
  0
 62
  7
 10
1.008243
 20
0.011434
 30
0.000000
  0
VERTEX
  8
MERGEDLAYER-2
 10
1.008243
 20
0.011434
 30
0.000000
  0
VERTEX
  8
MERGEDLAYER-2
 10
1.008243
 20
0.197034
 30
0.000000
  0
SEQEND
  8
MERGEDLAYER-2
  0
POLYLINE
  8
MERGEDLAYER-2
 66
  1
 70
  0
 62
  7
 10
1.004306
 20
0.009161
 30
0.000000
  0
VERTEX
  8
MERGEDLAYER-2
 10
1.004306
 20
0.009161
 30
0.000000
  0
VERTEX
  8
MERGEDLAYER-2
 10
1.008243
 20
0.011434
 30
0.000000
  0
SEQEND
  8
MERGEDLAYER-2
  0
POLYLINE
  8
MERGEDLAYER-2
 66
  1
 70
  0
 62
  7
 10
0.863534
 20
0.408528
 30
0.000000
  0
VERTEX
  8
MERGEDLAYER-2
 10
0.863534
 20
0.408528
 30
0.000000
  0
VERTEX
  8
MERGEDLAYER-2
 10
0.863534
 20
0.125730
 30
0.000000
  0
SEQEND
  8
MERGEDLAYER-2
  0
POLYLINE
  8
MERGEDLAYER-2
 66
  1
 70
  0
 62
  7
 10
0.859598
 20
0.123456
 30
0.000000
  0
VERTEX
  8
MERGEDLAYER-2
 10
0.859598
 20
0.123456
 30
0.000000
  0
VERTEX
  8
MERGEDLAYER-2
 10
0.863535
 20
0.125730
 30
0.000000
  0
SEQEND
  8
MERGEDLAYER-2
  0
POLYLINE
  8
MERGEDLAYER-2
 66
  1
 70
  0
 62
  7
 10
0.863534
 20
0.408528
 30
0.000000
  0
VERTEX
  8
MERGEDLAYER-2
 10
0.863534
 20
0.408528
 30
0.000000
  0
VERTEX
  8
MERGEDLAYER-2
 10
0.860910
 20
0.413074
 30
0.000000
  0
SEQEND
  8
MERGEDLAYER-2
  0
POLYLINE
  8
MERGEDLAYER-2
 66
  1
 70
  0
 62
  7
 10
0.789981
 20
0.163651
 30
0.000000
  0
VERTEX
  8
MERGEDLAYER-2
 10
0.789981
 20
0.163651
 30
0.000000
  0
VERTEX
  8
MERGEDLAYER-2
 10
0.859597
 20
0.123456
 30
0.000000
  0
SEQEND
  8
MERGEDLAYER-2
  0
POLYLINE
  8
MERGEDLAYER-2
 66
  1
 70
  0
 62
  7
 10
0.887262
 20
0.168271
 30
0.000000
  0
VERTEX
  8
MERGEDLAYER-2
 10
0.887262
 20
0.168271
 30
0.000000
  0
VERTEX
  8
MERGEDLAYER-2
 10
0.887262
 20
0.193841
 30
0.000000
  0
SEQEND
  8
MERGEDLAYER-2
  0
POLYLINE
  8
MERGEDLAYER-2
 66
  1
 70
  0
 62
  7
 10
0.887263
 20
0.168271
 30
0.000000
  0
VERTEX
  8
MERGEDLAYER-2
 10
0.887263
 20
0.168271
 30
0.000000
  0
VERTEX
  8
MERGEDLAYER-2
 10
0.889887
 20
0.163725
 30
0.000000
  0
SEQEND
  8
MERGEDLAYER-2
  0
POLYLINE
  8
MERGEDLAYER-2
 66
  1
 70
  0
 62
  7
 10
0.877889
 20
0.568432
 30
0.000000
  0
VERTEX
  8
MERGEDLAYER-2
 10
0.877889
 20
0.568432
 30
0.000000
  0
VERTEX
  8
MERGEDLAYER-2
 10
0.877889
 20
0.173682
 30
0.000000
  0
SEQEND
  8
MERGEDLAYER-2
  0
POLYLINE
  8
MERGEDLAYER-2
 66
  1
 70
  0
 62
  7
 10
0.981001
 20
0.086573
 30
0.000000
  0
VERTEX
  8
MERGEDLAYER-2
 10
0.981001
 20
0.086573
 30
0.000000
  0
VERTEX
  8
MERGEDLAYER-2
 10
0.981001
 20
0.108090
 30
0.000000
  0
SEQEND
  8
MERGEDLAYER-2
  0
POLYLINE
  8
MERGEDLAYER-2
 66
  1
 70
  0
 62
  7
 10
0.981000
 20
0.108090
 30
0.000000
  0
VERTEX
  8
MERGEDLAYER-2
 10
0.981000
 20
0.108090
 30
0.000000
  0
VERTEX
  8
MERGEDLAYER-2
 10
0.978375
 20
0.112635
 30
0.000000
  0
SEQEND
  8
MERGEDLAYER-2
  0
POLYLINE
  8
MERGEDLAYER-2
 66
  1
 70
  0
 62
  7
 10
0.977063
 20
0.084300
 30
0.000000
  0
VERTEX
  8
MERGEDLAYER-2
 10
0.977063
 20
0.084300
 30
0.000000
  0
VERTEX
  8
MERGEDLAYER-2
 10
0.981001
 20
0.086573
 30
0.000000
  0
SEQEND
  8
MERGEDLAYER-2
  0
POLYLINE
  8
MERGEDLAYER-2
 66
  1
 70
  0
 62
  7
 10
0.734657
 20
1.291069
 30
0.000000
  0
VERTEX
  8
MERGEDLAYER-2
 10
0.734657
 20
1.291069
 30
0.000000
  0
VERTEX
  8
MERGEDLAYER-2
 10
0.704895
 20
1.308253
 30
0.000000
  0
SEQEND
  8
MERGEDLAYER-2
  0
POLYLINE
  8
MERGEDLAYER-2
 66
  1
 70
  0
 62
  7
 10
0.704894
 20
1.308253
 30
0.000000
  0
VERTEX
  8
MERGEDLAYER-2
 10
0.704894
 20
1.308253
 30
0.000000
  0
VERTEX
  8
MERGEDLAYER-2
 10
0.700957
 20
1.305980
 30
0.000000
  0
SEQEND
  8
MERGEDLAYER-2
  0
POLYLINE
  8
MERGEDLAYER-2
 66
  1
 70
  0
 62
  7
 10
0.733344
 20
1.270394
 30
0.000000
  0
VERTEX
  8
MERGEDLAYER-2
 10
0.733344
 20
1.270394
 30
0.000000
  0
VERTEX
  8
MERGEDLAYER-2
 10
0.719248
 20
1.278532
 30
0.000000
  0
SEQEND
  8
MERGEDLAYER-2
  0
POLYLINE
  8
MERGEDLAYER-2
 66
  1
 70
  0
 62
  7
 10
0.733345
 20
1.270394
 30
0.000000
  0
VERTEX
  8
MERGEDLAYER-2
 10
0.733345
 20
1.270394
 30
0.000000
  0
VERTEX
  8
MERGEDLAYER-2
 10
0.737282
 20
1.272666
 30
0.000000
  0
SEQEND
  8
MERGEDLAYER-2
  0
POLYLINE
  8
MERGEDLAYER-2
 66
  1
 70
  0
 62
  7
 10
0.855344
 20
1.221391
 30
0.000000
  0
VERTEX
  8
MERGEDLAYER-2
 10
0.855344
 20
1.221391
 30
0.000000
  0
VERTEX
  8
MERGEDLAYER-2
 10
0.824410
 20
1.239250
 30
0.000000
  0
SEQEND
  8
MERGEDLAYER-2
  0
POLYLINE
  8
MERGEDLAYER-2
 66
  1
 70
  0
 62
  7
 10
0.837769
 20
1.210105
 30
0.000000
  0
VERTEX
  8
MERGEDLAYER-2
 10
0.837769
 20
1.210105
 30
0.000000
  0
VERTEX
  8
MERGEDLAYER-2
 10
0.823098
 20
1.218575
 30
0.000000
  0
SEQEND
  8
MERGEDLAYER-2
  0
POLYLINE
  8
MERGEDLAYER-2
 66
  1
 70
  0
 62
  7
 10
0.820474
 20
1.223120
 30
0.000000
  0
VERTEX
  8
MERGEDLAYER-2
 10
0.820474
 20
1.223120
 30
0.000000
  0
VERTEX
  8
MERGEDLAYER-2
 10
0.823098
 20
1.218575
 30
0.000000
  0
SEQEND
  8
MERGEDLAYER-2
  0
POLYLINE
  8
MERGEDLAYER-2
 66
  1
 70
  0
 62
  7
 10
0.697021
 20
1.262358
 30
0.000000
  0
VERTEX
  8
MERGEDLAYER-2
 10
0.697021
 20
1.262358
 30
0.000000
  0
VERTEX
  8
MERGEDLAYER-2
 10
0.678882
 20
1.272832
 30
0.000000
  0
SEQEND
  8
MERGEDLAYER-2
  0
POLYLINE
  8
MERGEDLAYER-2
 66
  1
 70
  0
 62
  7
 10
0.678882
 20
1.272830
 30
0.000000
  0
VERTEX
  8
MERGEDLAYER-2
 10
0.678882
 20
1.272830
 30
0.000000
  0
VERTEX
  8
MERGEDLAYER-2
 10
0.664964
 20
1.276373
 30
0.000000
  0
VERTEX
  8
MERGEDLAYER-2
 10
0.655402
 20
1.269035
 30
0.000000
  0
VERTEX
  8
MERGEDLAYER-2
 10
0.655260
 20
1.259192
 30
0.000000
  0
SEQEND
  8
MERGEDLAYER-2
  0
POLYLINE
  8
MERGEDLAYER-2
 66
  1
 70
  0
 62
  7
 10
0.860593
 20
1.167920
 30
0.000000
  0
VERTEX
  8
MERGEDLAYER-2
 10
0.860593
 20
1.167920
 30
0.000000
  0
VERTEX
  8
MERGEDLAYER-2
 10
0.899542
 20
1.145433
 30
0.000000
  0
SEQEND
  8
MERGEDLAYER-2
  0
POLYLINE
  8
MERGEDLAYER-2
 66
  1
 70
  0
 62
  7
 10
0.910697
 20
1.126113
 30
0.000000
  0
VERTEX
  8
MERGEDLAYER-2
 10
0.910697
 20
1.126113
 30
0.000000
  0
VERTEX
  8
MERGEDLAYER-2
 10
0.902193
 20
1.143857
 30
0.000000
  0
VERTEX
  8
MERGEDLAYER-2
 10
0.899541
 20
1.145432
 30
0.000000
  0
SEQEND
  8
MERGEDLAYER-2
  0
POLYLINE
  8
MERGEDLAYER-2
 66
  1
 70
  0
 62
  7
 10
0.867471
 20
0.598827
 30
0.000000
  0
VERTEX
  8
MERGEDLAYER-2
 10
0.867471
 20
0.598827
 30
0.000000
  0
VERTEX
  8
MERGEDLAYER-2
 10
0.880982
 20
0.591028
 30
0.000000
  0
SEQEND
  8
MERGEDLAYER-2
  0
POLYLINE
  8
MERGEDLAYER-2
 66
  1
 70
  0
 62
  7
 10
0.867471
 20
0.598827
 30
0.000000
  0
VERTEX
  8
MERGEDLAYER-2
 10
0.867471
 20
0.598827
 30
0.000000
  0
VERTEX
  8
MERGEDLAYER-2
 10
0.863534
 20
0.596554
 30
0.000000
  0
SEQEND
  8
MERGEDLAYER-2
  0
POLYLINE
  8
MERGEDLAYER-2
 66
  1
 70
  0
 62
  7
 10
0.882587
 20
0.568749
 30
0.000000
  0
VERTEX
  8
MERGEDLAYER-2
 10
0.882587
 20
0.568749
 30
0.000000
  0
VERTEX
  8
MERGEDLAYER-2
 10
0.864847
 20
0.578992
 30
0.000000
  0
SEQEND
  8
MERGEDLAYER-2
  0
POLYLINE
  8
MERGEDLAYER-2
 66
  1
 70
  0
 62
  7
 10
0.867471
 20
0.577477
 30
0.000000
  0
VERTEX
  8
MERGEDLAYER-2
 10
0.867471
 20
0.577477
 30
0.000000
  0
VERTEX
  8
MERGEDLAYER-2
 10
0.863534
 20
0.575203
 30
0.000000
  0
SEQEND
  8
MERGEDLAYER-2
  0
POLYLINE
  8
MERGEDLAYER-2
 66
  1
 70
  0
 62
  7
 10
0.877888
 20
0.568432
 30
0.000000
  0
VERTEX
  8
MERGEDLAYER-2
 10
0.877888
 20
0.568432
 30
0.000000
  0
VERTEX
  8
MERGEDLAYER-2
 10
0.875264
 20
0.572977
 30
0.000000
  0
SEQEND
  8
MERGEDLAYER-2
  0
POLYLINE
  8
MERGEDLAYER-2
 66
  1
 70
  0
 62
  7
 10
0.885212
 20
0.564202
 30
0.000000
  0
VERTEX
  8
MERGEDLAYER-2
 10
0.885212
 20
0.564202
 30
0.000000
  0
VERTEX
  8
MERGEDLAYER-2
 10
0.882588
 20
0.568749
 30
0.000000
  0
SEQEND
  8
MERGEDLAYER-2
  0
POLYLINE
  8
MERGEDLAYER-2
 66
  1
 70
  0
 62
  7
 10
0.863534
 20
0.575203
 30
0.000000
  0
VERTEX
  8
MERGEDLAYER-2
 10
0.863534
 20
0.575203
 30
0.000000
  0
VERTEX
  8
MERGEDLAYER-2
 10
0.863534
 20
0.498464
 30
0.000000
  0
SEQEND
  8
MERGEDLAYER-2
  0
POLYLINE
  8
MERGEDLAYER-2
 66
  1
 70
  0
 62
  7
 10
0.859598
 20
0.496191
 30
0.000000
  0
VERTEX
  8
MERGEDLAYER-2
 10
0.859598
 20
0.496191
 30
0.000000
  0
VERTEX
  8
MERGEDLAYER-2
 10
0.863535
 20
0.498464
 30
0.000000
  0
SEQEND
  8
MERGEDLAYER-2
  0
POLYLINE
  8
MERGEDLAYER-2
 66
  1
 70
  0
 62
  7
 10
0.859597
 20
0.496191
 30
0.000000
  0
VERTEX
  8
MERGEDLAYER-2
 10
0.859597
 20
0.496191
 30
0.000000
  0
VERTEX
  8
MERGEDLAYER-2
 10
0.851068
 20
0.501114
 30
0.000000
  0
SEQEND
  8
MERGEDLAYER-2
  0
POLYLINE
  8
MERGEDLAYER-2
 66
  1
 70
  0
 62
  7
 10
0.847131
 20
0.487953
 30
0.000000
  0
VERTEX
  8
MERGEDLAYER-2
 10
0.847131
 20
0.487953
 30
0.000000
  0
VERTEX
  8
MERGEDLAYER-2
 10
0.847131
 20
0.500010
 30
0.000000
  0
SEQEND
  8
MERGEDLAYER-2
  0
POLYLINE
  8
MERGEDLAYER-2
 66
  1
 70
  0
 62
  7
 10
0.849755
 20
0.483406
 30
0.000000
  0
VERTEX
  8
MERGEDLAYER-2
 10
0.849755
 20
0.483406
 30
0.000000
  0
VERTEX
  8
MERGEDLAYER-2
 10
0.860910
 20
0.476965
 30
0.000000
  0
SEQEND
  8
MERGEDLAYER-2
  0
POLYLINE
  8
MERGEDLAYER-2
 66
  1
 70
  0
 62
  7
 10
0.847131
 20
0.487953
 30
0.000000
  0
VERTEX
  8
MERGEDLAYER-2
 10
0.847131
 20
0.487953
 30
0.000000
  0
VERTEX
  8
MERGEDLAYER-2
 10
0.849755
 20
0.483407
 30
0.000000
  0
SEQEND
  8
MERGEDLAYER-2
  0
POLYLINE
  8
MERGEDLAYER-2
 66
  1
 70
  0
 62
  7
 10
0.863534
 20
0.472420
 30
0.000000
  0
VERTEX
  8
MERGEDLAYER-2
 10
0.863534
 20
0.472420
 30
0.000000
  0
VERTEX
  8
MERGEDLAYER-2
 10
0.863534
 20
0.436193
 30
0.000000
  0
SEQEND
  8
MERGEDLAYER-2
  0
POLYLINE
  8
MERGEDLAYER-2
 66
  1
 70
  0
 62
  7
 10
0.859598
 20
0.433920
 30
0.000000
  0
VERTEX
  8
MERGEDLAYER-2
 10
0.859598
 20
0.433920
 30
0.000000
  0
VERTEX
  8
MERGEDLAYER-2
 10
0.863535
 20
0.436193
 30
0.000000
  0
SEQEND
  8
MERGEDLAYER-2
  0
POLYLINE
  8
MERGEDLAYER-2
 66
  1
 70
  0
 62
  7
 10
0.863534
 20
0.472420
 30
0.000000
  0
VERTEX
  8
MERGEDLAYER-2
 10
0.863534
 20
0.472420
 30
0.000000
  0
VERTEX
  8
MERGEDLAYER-2
 10
0.860910
 20
0.476965
 30
0.000000
  0
SEQEND
  8
MERGEDLAYER-2
  0
POLYLINE
  8
MERGEDLAYER-2
 66
  1
 70
  0
 62
  7
 10
0.859597
 20
0.433919
 30
0.000000
  0
VERTEX
  8
MERGEDLAYER-2
 10
0.859597
 20
0.433919
 30
0.000000
  0
VERTEX
  8
MERGEDLAYER-2
 10
0.851068
 20
0.438845
 30
0.000000
  0
SEQEND
  8
MERGEDLAYER-2
  0
POLYLINE
  8
MERGEDLAYER-2
 66
  1
 70
  0
 62
  7
 10
0.847131
 20
0.424060
 30
0.000000
  0
VERTEX
  8
MERGEDLAYER-2
 10
0.847131
 20
0.424060
 30
0.000000
  0
VERTEX
  8
MERGEDLAYER-2
 10
0.847131
 20
0.436572
 30
0.000000
  0
SEQEND
  8
MERGEDLAYER-2
  0
POLYLINE
  8
MERGEDLAYER-2
 66
  1
 70
  0
 62
  7
 10
0.851067
 20
0.438845
 30
0.000000
  0
VERTEX
  8
MERGEDLAYER-2
 10
0.851067
 20
0.438845
 30
0.000000
  0
VERTEX
  8
MERGEDLAYER-2
 10
0.847130
 20
0.436572
 30
0.000000
  0
SEQEND
  8
MERGEDLAYER-2
  0
POLYLINE
  8
MERGEDLAYER-2
 66
  1
 70
  0
 62
  7
 10
0.847131
 20
0.424060
 30
0.000000
  0
VERTEX
  8
MERGEDLAYER-2
 10
0.847131
 20
0.424060
 30
0.000000
  0
VERTEX
  8
MERGEDLAYER-2
 10
0.849755
 20
0.419513
 30
0.000000
  0
SEQEND
  8
MERGEDLAYER-2
  0
POLYLINE
  8
MERGEDLAYER-2
 66
  1
 70
  0
 62
  7
 10
0.849755
 20
0.419513
 30
0.000000
  0
VERTEX
  8
MERGEDLAYER-2
 10
0.849755
 20
0.419513
 30
0.000000
  0
VERTEX
  8
MERGEDLAYER-2
 10
0.860910
 20
0.413073
 30
0.000000
  0
SEQEND
  8
MERGEDLAYER-2
  0
POLYLINE
  8
MERGEDLAYER-2
 66
  1
 70
  0
 62
  7
 10
0.863534
 20
0.596554
 30
0.000000
  0
VERTEX
  8
MERGEDLAYER-2
 10
0.863534
 20
0.596554
 30
0.000000
  0
VERTEX
  8
MERGEDLAYER-2
 10
0.863534
 20
0.581264
 30
0.000000
  0
SEQEND
  8
MERGEDLAYER-2
  0
POLYLINE
  8
MERGEDLAYER-2
 66
  1
 70
  0
 62
  7
 10
0.863534
 20
0.581264
 30
0.000000
  0
VERTEX
  8
MERGEDLAYER-2
 10
0.863534
 20
0.581264
 30
0.000000
  0
VERTEX
  8
MERGEDLAYER-2
 10
0.864847
 20
0.578992
 30
0.000000
  0
SEQEND
  8
MERGEDLAYER-2
  0
POLYLINE
  8
MERGEDLAYER-2
 66
  1
 70
  0
 62
  7
 10
0.881826
 20
0.139286
 30
0.000000
  0
VERTEX
  8
MERGEDLAYER-2
 10
0.881826
 20
0.139286
 30
0.000000
  0
VERTEX
  8
MERGEDLAYER-2
 10
0.977063
 20
0.084300
 30
0.000000
  0
SEQEND
  8
MERGEDLAYER-2
  0
POLYLINE
  8
MERGEDLAYER-2
 66
  1
 70
  0
 62
  7
 10
0.881825
 20
0.139287
 30
0.000000
  0
VERTEX
  8
MERGEDLAYER-2
 10
0.881825
 20
0.139287
 30
0.000000
  0
VERTEX
  8
MERGEDLAYER-2
 10
0.877888
 20
0.137014
 30
0.000000
  0
SEQEND
  8
MERGEDLAYER-2
  0
POLYLINE
  8
MERGEDLAYER-2
 66
  1
 70
  0
 62
  7
 10
0.877889
 20
0.094071
 30
0.000000
  0
VERTEX
  8
MERGEDLAYER-2
 10
0.877889
 20
0.094071
 30
0.000000
  0
VERTEX
  8
MERGEDLAYER-2
 10
0.877889
 20
0.137014
 30
0.000000
  0
SEQEND
  8
MERGEDLAYER-2
  0
POLYLINE
  8
MERGEDLAYER-2
 66
  1
 70
  0
 62
  7
 10
0.873952
 20
0.091797
 30
0.000000
  0
VERTEX
  8
MERGEDLAYER-2
 10
0.873952
 20
0.091797
 30
0.000000
  0
VERTEX
  8
MERGEDLAYER-2
 10
0.877889
 20
0.094071
 30
0.000000
  0
SEQEND
  8
MERGEDLAYER-2
  0
POLYLINE
  8
MERGEDLAYER-2
 66
  1
 70
  0
 62
  7
 10
0.989776
 20
0.017549
 30
0.000000
  0
VERTEX
  8
MERGEDLAYER-2
 10
0.989776
 20
0.017549
 30
0.000000
  0
VERTEX
  8
MERGEDLAYER-2
 10
1.004306
 20
0.009161
 30
0.000000
  0
SEQEND
  8
MERGEDLAYER-2
  0
POLYLINE
  8
MERGEDLAYER-2
 66
  1
 70
  0
 62
  7
 10
0.987152
 20
0.022097
 30
0.000000
  0
VERTEX
  8
MERGEDLAYER-2
 10
0.987152
 20
0.022097
 30
0.000000
  0
VERTEX
  8
MERGEDLAYER-2
 10
0.989776
 20
0.017550
 30
0.000000
  0
SEQEND
  8
MERGEDLAYER-2
  0
POLYLINE
  8
MERGEDLAYER-2
 66
  1
 70
  0
 62
  7
 10
0.987152
 20
0.022097
 30
0.000000
  0
VERTEX
  8
MERGEDLAYER-2
 10
0.987152
 20
0.022097
 30
0.000000
  0
VERTEX
  8
MERGEDLAYER-2
 10
0.987152
 20
0.104538
 30
0.000000
  0
SEQEND
  8
MERGEDLAYER-2
  0
POLYLINE
  8
MERGEDLAYER-2
 66
  1
 70
  0
 62
  7
 10
1.006485
 20
0.009091
 30
0.000000
  0
VERTEX
  8
MERGEDLAYER-2
 10
1.006485
 20
0.009091
 30
0.000000
  0
VERTEX
  8
MERGEDLAYER-2
 10
6.674164
 20
1.527742
 30
0.000000
  0
SEQEND
  8
MERGEDLAYER-2
  0
POLYLINE
  8
MERGEDLAYER-2
 66
  1
 70
  0
 62
  7
 10
1.008243
 20
0.197034
 30
0.000000
  0
VERTEX
  8
MERGEDLAYER-2
 10
1.008243
 20
0.197034
 30
0.000000
  0
VERTEX
  8
MERGEDLAYER-2
 10
6.675489
 20
1.715568
 30
0.000000
  0
SEQEND
  8
MERGEDLAYER-2
  0
POLYLINE
  8
MERGEDLAYER-2
 66
  1
 70
  0
 62
  7
 10
0.910697
 20
1.126113
 30
0.000000
  0
VERTEX
  8
MERGEDLAYER-2
 10
0.910697
 20
1.126113
 30
0.000000
  0
VERTEX
  8
MERGEDLAYER-2
 10
6.577940
 20
2.644647
 30
0.000000
  0
SEQEND
  8
MERGEDLAYER-2
  0
POLYLINE
  8
MERGEDLAYER-2
 66
  1
 70
  0
 62
  7
 10
0.899542
 20
1.145433
 30
0.000000
  0
VERTEX
  8
MERGEDLAYER-2
 10
0.899542
 20
1.145433
 30
0.000000
  0
VERTEX
  8
MERGEDLAYER-2
 10
6.566785
 20
2.663968
 30
0.000000
  0
SEQEND
  8
MERGEDLAYER-2
  0
POLYLINE
  8
MERGEDLAYER-2
 66
  1
 70
  0
 62
  7
 10
0.860593
 20
1.167920
 30
0.000000
  0
VERTEX
  8
MERGEDLAYER-2
 10
0.860593
 20
1.167920
 30
0.000000
  0
VERTEX
  8
MERGEDLAYER-2
 10
6.527838
 20
2.686454
 30
0.000000
  0
SEQEND
  8
MERGEDLAYER-2
  0
POLYLINE
  8
MERGEDLAYER-2
 66
  1
 70
  0
 62
  7
 10
0.857969
 20
1.216845
 30
0.000000
  0
VERTEX
  8
MERGEDLAYER-2
 10
0.857969
 20
1.216845
 30
0.000000
  0
VERTEX
  8
MERGEDLAYER-2
 10
6.525213
 20
2.735379
 30
0.000000
  0
SEQEND
  8
MERGEDLAYER-2
  0
POLYLINE
  8
MERGEDLAYER-2
 66
  1
 70
  0
 62
  7
 10
0.821482
 20
1.239836
 30
0.000000
  0
VERTEX
  8
MERGEDLAYER-2
 10
0.821482
 20
1.239836
 30
0.000000
  0
VERTEX
  8
MERGEDLAYER-2
 10
6.490670
 20
2.758891
 30
0.000000
  0
SEQEND
  8
MERGEDLAYER-2
  0
POLYLINE
  8
MERGEDLAYER-2
 66
  1
 70
  0
 62
  7
 10
0.910697
 20
0.387439
 30
0.000000
  0
VERTEX
  8
MERGEDLAYER-2
 10
0.910697
 20
0.387439
 30
0.000000
  0
VERTEX
  8
MERGEDLAYER-2
 10
3.250220
 20
1.014312
 30
0.000000
  0
SEQEND
  8
MERGEDLAYER-2
  0
POLYLINE
  8
MERGEDLAYER-2
 66
  1
 70
  0
 62
  7
 10
0.918433
 20
0.358567
 30
0.000000
  0
VERTEX
  8
MERGEDLAYER-2
 10
0.918433
 20
0.358567
 30
0.000000
  0
VERTEX
  8
MERGEDLAYER-2
 10
3.286497
 20
0.993089
 30
0.000000
  0
SEQEND
  8
MERGEDLAYER-2
  0
POLYLINE
  8
MERGEDLAYER-2
 66
  1
 70
  0
 62
  7
 10
1.005254
 20
0.208188
 30
0.000000
  0
VERTEX
  8
MERGEDLAYER-2
 10
1.005254
 20
0.208188
 30
0.000000
  0
VERTEX
  8
MERGEDLAYER-2
 10
6.672498
 20
1.726723
 30
0.000000
  0
SEQEND
  8
MERGEDLAYER-2
  0
POLYLINE
  8
MERGEDLAYER-2
 66
  1
 70
  0
 62
  7
 10
0.735969
 20
1.270394
 30
0.000000
  0
VERTEX
  8
MERGEDLAYER-2
 10
0.735969
 20
1.270394
 30
0.000000
  0
VERTEX
  8
MERGEDLAYER-2
 10
6.404356
 20
2.789233
 30
0.000000
  0
SEQEND
  8
MERGEDLAYER-2
  0
POLYLINE
  8
MERGEDLAYER-2
 66
  1
 70
  0
 62
  7
 10
0.734657
 20
1.291069
 30
0.000000
  0
VERTEX
  8
MERGEDLAYER-2
 10
0.734657
 20
1.291069
 30
0.000000
  0
VERTEX
  8
MERGEDLAYER-2
 10
6.401900
 20
2.809604
 30
0.000000
  0
SEQEND
  8
MERGEDLAYER-2
  0
POLYLINE
  8
MERGEDLAYER-2
 66
  1
 70
  0
 62
  7
 10
0.701965
 20
1.308838
 30
0.000000
  0
VERTEX
  8
MERGEDLAYER-2
 10
0.701965
 20
1.308838
 30
0.000000
  0
VERTEX
  8
MERGEDLAYER-2
 10
6.371153
 20
2.827894
 30
0.000000
  0
SEQEND
  8
MERGEDLAYER-2
  0
POLYLINE
  8
MERGEDLAYER-2
 66
  1
 70
  0
 62
  7
 10
0.679468
 20
1.272832
 30
0.000000
  0
VERTEX
  8
MERGEDLAYER-2
 10
0.679468
 20
1.272832
 30
0.000000
  0
VERTEX
  8
MERGEDLAYER-2
 10
0.700372
 20
1.278432
 30
0.000000
  0
SEQEND
  8
MERGEDLAYER-2
  0
POLYLINE
  8
MERGEDLAYER-2
 66
  1
 70
  0
 62
  7
 10
0.663720
 20
1.273416
 30
0.000000
  0
VERTEX
  8
MERGEDLAYER-2
 10
0.663720
 20
1.273416
 30
0.000000
  0
VERTEX
  8
MERGEDLAYER-2
 10
0.701181
 20
1.283455
 30
0.000000
  0
SEQEND
  8
MERGEDLAYER-2
  0
POLYLINE
  8
MERGEDLAYER-2
 66
  1
 70
  0
 62
  7
 10
0.873952
 20
0.091797
 30
0.000000
  0
VERTEX
  8
MERGEDLAYER-2
 10
0.873952
 20
0.091797
 30
0.000000
  0
VERTEX
  8
MERGEDLAYER-2
 10
0.932960
 20
0.107608
 30
0.000000
  0
SEQEND
  8
MERGEDLAYER-2
  0
POLYLINE
  8
MERGEDLAYER-2
 66
  1
 70
  0
 62
  7
 10
0.978235
 20
0.083714
 30
0.000000
  0
VERTEX
  8
MERGEDLAYER-2
 10
0.978235
 20
0.083714
 30
0.000000
  0
VERTEX
  8
MERGEDLAYER-2
 10
0.987152
 20
0.086104
 30
0.000000
  0
SEQEND
  8
MERGEDLAYER-2
  0
POLYLINE
  8
MERGEDLAYER-2
 66
  1
 70
  0
 62
  7
 10
0.888434
 20
0.196771
 30
0.000000
  0
VERTEX
  8
MERGEDLAYER-2
 10
0.888434
 20
0.196771
 30
0.000000
  0
VERTEX
  8
MERGEDLAYER-2
 10
0.973298
 20
0.219510
 30
0.000000
  0
SEQEND
  8
MERGEDLAYER-2
  0
POLYLINE
  8
MERGEDLAYER-2
 66
  1
 70
  0
 62
  7
 10
0.866301
 20
0.599413
 30
0.000000
  0
VERTEX
  8
MERGEDLAYER-2
 10
0.866301
 20
0.599413
 30
0.000000
  0
VERTEX
  8
MERGEDLAYER-2
 10
0.884919
 20
0.604402
 30
0.000000
  0
SEQEND
  8
MERGEDLAYER-2
  0
POLYLINE
  8
MERGEDLAYER-2
 66
  1
 70
  0
 62
  7
 10
0.849310
 20
0.439430
 30
0.000000
  0
VERTEX
  8
MERGEDLAYER-2
 10
0.849310
 20
0.439430
 30
0.000000
  0
VERTEX
  8
MERGEDLAYER-2
 10
0.863242
 20
0.443165
 30
0.000000
  0
SEQEND
  8
MERGEDLAYER-2
  0
POLYLINE
  8
MERGEDLAYER-2
 66
  1
 70
  0
 62
  7
 10
3.763158
 20
1.131839
 30
0.000000
  0
VERTEX
  8
MERGEDLAYER-2
 10
3.763158
 20
1.131839
 30
0.000000
  0
VERTEX
  8
MERGEDLAYER-2
 10
3.781709
 20
1.182218
 30
0.000000
  0
VERTEX
  8
MERGEDLAYER-2
 10
3.792339
 20
1.233937
 30
0.000000
  0
VERTEX
  8
MERGEDLAYER-2
 10
3.794639
 20
1.285008
 30
0.000000
  0
VERTEX
  8
MERGEDLAYER-2
 10
3.788523
 20
1.333469
 30
0.000000
  0
VERTEX
  8
MERGEDLAYER-2
 10
3.774224
 20
1.377458
 30
0.000000
  0
VERTEX
  8
MERGEDLAYER-2
 10
3.752292
 20
1.415285
 30
0.000000
  0
VERTEX
  8
MERGEDLAYER-2
 10
3.723570
 20
1.445494
 30
0.000000
  0
VERTEX
  8
MERGEDLAYER-2
 10
3.689162
 20
1.466927
 30
0.000000
  0
VERTEX
  8
MERGEDLAYER-2
 10
3.650389
 20
1.478758
 30
0.000000
  0
VERTEX
  8
MERGEDLAYER-2
 10
3.608742
 20
1.480535
 30
0.000000
  0
VERTEX
  8
MERGEDLAYER-2
 10
3.565822
 20
1.472187
 30
0.000000
  0
VERTEX
  8
MERGEDLAYER-2
 10
3.523277
 20
1.454035
 30
0.000000
  0
VERTEX
  8
MERGEDLAYER-2
 10
3.482743
 20
1.426778
 30
0.000000
  0
VERTEX
  8
MERGEDLAYER-2
 10
3.445778
 20
1.391463
 30
0.000000
  0
VERTEX
  8
MERGEDLAYER-2
 10
3.413802
 20
1.349447
 30
0.000000
  0
VERTEX
  8
MERGEDLAYER-2
 10
3.388043
 20
1.302345
 30
0.000000
  0
VERTEX
  8
MERGEDLAYER-2
 10
3.369493
 20
1.251968
 30
0.000000
  0
VERTEX
  8
MERGEDLAYER-2
 10
3.358863
 20
1.200249
 30
0.000000
  0
VERTEX
  8
MERGEDLAYER-2
 10
3.356561
 20
1.149178
 30
0.000000
  0
VERTEX
  8
MERGEDLAYER-2
 10
3.362678
 20
1.100716
 30
0.000000
  0
VERTEX
  8
MERGEDLAYER-2
 10
3.376977
 20
1.056727
 30
0.000000
  0
VERTEX
  8
MERGEDLAYER-2
 10
3.398909
 20
1.018900
 30
0.000000
  0
VERTEX
  8
MERGEDLAYER-2
 10
3.427631
 20
0.988691
 30
0.000000
  0
VERTEX
  8
MERGEDLAYER-2
 10
3.462039
 20
0.967257
 30
0.000000
  0
VERTEX
  8
MERGEDLAYER-2
 10
3.500812
 20
0.955427
 30
0.000000
  0
VERTEX
  8
MERGEDLAYER-2
 10
3.542459
 20
0.953650
 30
0.000000
  0
VERTEX
  8
MERGEDLAYER-2
 10
3.585379
 20
0.961998
 30
0.000000
  0
VERTEX
  8
MERGEDLAYER-2
 10
3.627924
 20
0.980150
 30
0.000000
  0
VERTEX
  8
MERGEDLAYER-2
 10
3.668458
 20
1.007406
 30
0.000000
  0
VERTEX
  8
MERGEDLAYER-2
 10
3.705423
 20
1.042721
 30
0.000000
  0
VERTEX
  8
MERGEDLAYER-2
 10
3.737399
 20
1.084738
 30
0.000000
  0
VERTEX
  8
MERGEDLAYER-2
 10
3.763158
 20
1.131839
 30
0.000000
  0
SEQEND
  8
MERGEDLAYER-2
  0
POLYLINE
  8
MERGEDLAYER-2
 66
  1
 70
  0
 62
  7
 10
3.547083
 20
1.168285
 30
0.000000
  0
VERTEX
  8
MERGEDLAYER-2
 10
3.547083
 20
1.168285
 30
0.000000
  0
VERTEX
  8
MERGEDLAYER-2
 10
3.590436
 20
1.179903
 30
0.000000
  0
SEQEND
  8
MERGEDLAYER-2
  0
POLYLINE
  8
MERGEDLAYER-2
 66
  1
 70
  0
 62
  7
 10
3.590437
 20
1.179903
 30
0.000000
  0
VERTEX
  8
MERGEDLAYER-2
 10
3.590437
 20
1.179903
 30
0.000000
  0
VERTEX
  8
MERGEDLAYER-2
 10
3.598427
 20
1.234786
 30
0.000000
  0
VERTEX
  8
MERGEDLAYER-2
 10
3.603151
 20
1.288423
 30
0.000000
  0
VERTEX
  8
MERGEDLAYER-2
 10
3.602595
 20
1.342266
 30
0.000000
  0
VERTEX
  8
MERGEDLAYER-2
 10
3.596763
 20
1.395793
 30
0.000000
  0
VERTEX
  8
MERGEDLAYER-2
 10
3.585714
 20
1.448492
 30
0.000000
  0
VERTEX
  8
MERGEDLAYER-2
 10
3.586922
 20
1.449400
 30
0.000000
  0
SEQEND
  8
MERGEDLAYER-2
  0
POLYLINE
  8
MERGEDLAYER-2
 66
  1
 70
  0
 62
  7
 10
3.547083
 20
1.462390
 30
0.000000
  0
VERTEX
  8
MERGEDLAYER-2
 10
3.547083
 20
1.462390
 30
0.000000
  0
VERTEX
  8
MERGEDLAYER-2
 10
3.586921
 20
1.449401
 30
0.000000
  0
SEQEND
  8
MERGEDLAYER-2
  0
ARC
  8
MERGEDLAYER-2
 62
  7
 10
3.644674
 20
1.227901
 30
0.000000
 40
0.253986
 50
112.596405
 51
132.481506
  0
ARC
  8
MERGEDLAYER-2
 62
  7
 10
3.712969
 20
1.154922
 30
0.000000
 40
0.353933
 50
132.656311
 51
186.576385
  0
POLYLINE
  8
MERGEDLAYER-2
 66
  1
 70
  0
 62
  7
 10
3.361364
 20
1.114388
 30
0.000000
  0
VERTEX
  8
MERGEDLAYER-2
 10
3.361364
 20
1.114388
 30
0.000000
  0
VERTEX
  8
MERGEDLAYER-2
 10
3.417773
 20
1.153470
 30
0.000000
  0
VERTEX
  8
MERGEDLAYER-2
 10
3.467788
 20
1.201260
 30
0.000000
  0
VERTEX
  8
MERGEDLAYER-2
 10
3.474056
 20
1.204390
 30
0.000000
  0
SEQEND
  8
MERGEDLAYER-2
  0
POLYLINE
  8
MERGEDLAYER-2
 66
  1
 70
  0
 62
  7
 10
3.474056
 20
1.204390
 30
0.000000
  0
VERTEX
  8
MERGEDLAYER-2
 10
3.474056
 20
1.204390
 30
0.000000
  0
VERTEX
  8
MERGEDLAYER-2
 10
3.547083
 20
1.168285
 30
0.000000
  0
SEQEND
  8
MERGEDLAYER-2
  0
POLYLINE
  8
MERGEDLAYER-2
 66
  1
 70
  0
 62
  7
 10
3.543566
 20
1.437782
 30
0.000000
  0
VERTEX
  8
MERGEDLAYER-2
 10
3.543566
 20
1.437782
 30
0.000000
  0
VERTEX
  8
MERGEDLAYER-2
 10
3.538460
 20
1.277192
 30
0.000000
  0
VERTEX
  8
MERGEDLAYER-2
 10
3.547082
 20
1.168285
 30
0.000000
  0
SEQEND
  8
MERGEDLAYER-2
  0
POLYLINE
  8
MERGEDLAYER-2
 66
  1
 70
  0
 62
  7
 10
3.543568
 20
1.437783
 30
0.000000
  0
VERTEX
  8
MERGEDLAYER-2
 10
3.543568
 20
1.437783
 30
0.000000
  0
VERTEX
  8
MERGEDLAYER-2
 10
3.518376
 20
1.447157
 30
0.000000
  0
SEQEND
  8
MERGEDLAYER-2
  0
POLYLINE
  8
MERGEDLAYER-2
 66
  1
 70
  0
 62
  7
 10
3.474056
 20
1.204390
 30
0.000000
  0
VERTEX
  8
MERGEDLAYER-2
 10
3.474056
 20
1.204390
 30
0.000000
  0
VERTEX
  8
MERGEDLAYER-2
 10
3.424052
 20
1.229215
 30
0.000000
  0
SEQEND
  8
MERGEDLAYER-2
  0
POLYLINE
  8
MERGEDLAYER-2
 66
  1
 70
  0
 62
  7
 10
3.424051
 20
1.229215
 30
0.000000
  0
VERTEX
  8
MERGEDLAYER-2
 10
3.424051
 20
1.229215
 30
0.000000
  0
VERTEX
  8
MERGEDLAYER-2
 10
3.412485
 20
1.259685
 30
0.000000
  0
VERTEX
  8
MERGEDLAYER-2
 10
3.397101
 20
1.278428
 30
0.000000
  0
SEQEND
  8
MERGEDLAYER-2
  0
POLYLINE
  8
MERGEDLAYER-2
 66
  1
 70
  0
 62
  7
 10
3.543568
 20
1.437783
 30
0.000000
  0
VERTEX
  8
MERGEDLAYER-2
 10
3.543568
 20
1.437783
 30
0.000000
  0
VERTEX
  8
MERGEDLAYER-2
 10
3.586921
 20
1.449401
 30
0.000000
  0
SEQEND
  8
MERGEDLAYER-2
  0
POLYLINE
  8
MERGEDLAYER-2
 66
  1
 70
  0
 62
  7
 10
3.381284
 20
1.278428
 30
0.000000
  0
VERTEX
  8
MERGEDLAYER-2
 10
3.381284
 20
1.278428
 30
0.000000
  0
VERTEX
  8
MERGEDLAYER-2
 10
3.383345
 20
1.278629
 30
0.000000
  0
VERTEX
  8
MERGEDLAYER-2
 10
3.387490
 20
1.277151
 30
0.000000
  0
VERTEX
  8
MERGEDLAYER-2
 10
3.391729
 20
1.275973
 30
0.000000
  0
VERTEX
  8
MERGEDLAYER-2
 10
3.396042
 20
1.275101
 30
0.000000
  0
VERTEX
  8
MERGEDLAYER-2
 10
3.402375
 20
1.272569
 30
0.000000
  0
SEQEND
  8
MERGEDLAYER-2
  0
POLYLINE
  8
MERGEDLAYER-2
 66
  1
 70
  0
 62
  7
 10
3.397101
 20
1.278428
 30
0.000000
  0
VERTEX
  8
MERGEDLAYER-2
 10
3.397101
 20
1.278428
 30
0.000000
  0
VERTEX
  8
MERGEDLAYER-2
 10
3.408420
 20
1.324641
 30
0.000000
  0
VERTEX
  8
MERGEDLAYER-2
 10
3.413507
 20
1.343459
 30
0.000000
  0
SEQEND
  8
MERGEDLAYER-2
  0
POLYLINE
  8
MERGEDLAYER-2
 66
  1
 70
  0
 62
  7
 10
3.358435
 20
1.144851
 30
0.000000
  0
VERTEX
  8
MERGEDLAYER-2
 10
3.358435
 20
1.144851
 30
0.000000
  0
VERTEX
  8
MERGEDLAYER-2
 10
3.402069
 20
1.176272
 30
0.000000
  0
VERTEX
  8
MERGEDLAYER-2
 10
3.441049
 20
1.214055
 30
0.000000
  0
VERTEX
  8
MERGEDLAYER-2
 10
3.447486
 20
1.217498
 30
0.000000
  0
SEQEND
  8
MERGEDLAYER-2
  0
POLYLINE
  8
MERGEDLAYER-2
 66
  1
 70
  0
 62
  7
 10
5.279654
 20
1.800972
 30
0.000000
  0
VERTEX
  8
MERGEDLAYER-2
 10
5.279654
 20
1.800972
 30
0.000000
  0
VERTEX
  8
MERGEDLAYER-2
 10
4.385688
 20
1.638802
 30
0.000000
  0
SEQEND
  8
MERGEDLAYER-2
  0
POLYLINE
  8
MERGEDLAYER-2
 66
  1
 70
  0
 62
  7
 10
4.213382
 20
1.684971
 30
0.000000
  0
VERTEX
  8
MERGEDLAYER-2
 10
4.213382
 20
1.684971
 30
0.000000
  0
VERTEX
  8
MERGEDLAYER-2
 10
4.185495
 20
1.683283
 30
0.000000
  0
VERTEX
  8
MERGEDLAYER-2
 10
4.160787
 20
1.674639
 30
0.000000
  0
VERTEX
  8
MERGEDLAYER-2
 10
4.138241
 20
1.661342
 30
0.000000
  0
VERTEX
  8
MERGEDLAYER-2
 10
4.118722
 20
1.643901
 30
0.000000
  0
VERTEX
  8
MERGEDLAYER-2
 10
4.102980
 20
1.622988
 30
0.000000
  0
VERTEX
  8
MERGEDLAYER-2
 10
4.091621
 20
1.599405
 30
0.000000
  0
VERTEX
  8
MERGEDLAYER-2
 10
4.085081
 20
1.574060
 30
0.000000
  0
VERTEX
  8
MERGEDLAYER-2
 10
4.086249
 20
1.566041
 30
0.000000
  0
SEQEND
  8
MERGEDLAYER-2
  0
POLYLINE
  8
MERGEDLAYER-2
 66
  1
 70
  0
 62
  7
 10
4.086249
 20
1.566041
 30
0.000000
  0
VERTEX
  8
MERGEDLAYER-2
 10
4.086249
 20
1.566041
 30
0.000000
  0
VERTEX
  8
MERGEDLAYER-2
 10
4.082417
 20
1.544131
 30
0.000000
  0
VERTEX
  8
MERGEDLAYER-2
 10
4.085247
 20
1.520347
 30
0.000000
  0
VERTEX
  8
MERGEDLAYER-2
 10
4.092664
 20
1.497572
 30
0.000000
  0
VERTEX
  8
MERGEDLAYER-2
 10
4.104380
 20
1.476682
 30
0.000000
  0
VERTEX
  8
MERGEDLAYER-2
 10
4.119947
 20
1.458479
 30
0.000000
  0
VERTEX
  8
MERGEDLAYER-2
 10
4.138766
 20
1.443663
 30
0.000000
  0
VERTEX
  8
MERGEDLAYER-2
 10
4.160115
 20
1.432803
 30
0.000000
  0
VERTEX
  8
MERGEDLAYER-2
 10
4.162413
 20
1.430707
 30
0.000000
  0
SEQEND
  8
MERGEDLAYER-2
  0
POLYLINE
  8
MERGEDLAYER-2
 66
  1
 70
  0
 62
  7
 10
5.303676
 20
1.800973
 30
0.000000
  0
VERTEX
  8
MERGEDLAYER-2
 10
5.303676
 20
1.800973
 30
0.000000
  0
VERTEX
  8
MERGEDLAYER-2
 10
5.289808
 20
1.805352
 30
0.000000
  0
VERTEX
  8
MERGEDLAYER-2
 10
5.277891
 20
1.803026
 30
0.000000
  0
VERTEX
  8
MERGEDLAYER-2
 10
5.279654
 20
1.800972
 30
0.000000
  0
SEQEND
  8
MERGEDLAYER-2
  0
POLYLINE
  8
MERGEDLAYER-2
 66
  1
 70
  0
 62
  7
 10
4.535021
 20
1.747073
 30
0.000000
  0
VERTEX
  8
MERGEDLAYER-2
 10
4.535021
 20
1.747073
 30
0.000000
  0
VERTEX
  8
MERGEDLAYER-2
 10
4.482516
 20
1.764148
 30
0.000000
  0
VERTEX
  8
MERGEDLAYER-2
 10
4.430742
 20
1.774228
 30
0.000000
  0
VERTEX
  8
MERGEDLAYER-2
 10
4.378229
 20
1.779186
 30
0.000000
  0
VERTEX
  8
MERGEDLAYER-2
 10
4.325483
 20
1.778972
 30
0.000000
  0
VERTEX
  8
MERGEDLAYER-2
 10
4.273012
 20
1.773589
 30
0.000000
  0
VERTEX
  8
MERGEDLAYER-2
 10
4.223341
 20
1.761134
 30
0.000000
  0
SEQEND
  8
MERGEDLAYER-2
  0
POLYLINE
  8
MERGEDLAYER-2
 66
  1
 70
  0
 62
  7
 10
4.223341
 20
1.761134
 30
0.000000
  0
VERTEX
  8
MERGEDLAYER-2
 10
4.223341
 20
1.761134
 30
0.000000
  0
VERTEX
  8
MERGEDLAYER-2
 10
4.151202
 20
1.744738
 30
0.000000
  0
VERTEX
  8
MERGEDLAYER-2
 10
4.083170
 20
1.719585
 30
0.000000
  0
VERTEX
  8
MERGEDLAYER-2
 10
4.017930
 20
1.687884
 30
0.000000
  0
VERTEX
  8
MERGEDLAYER-2
 10
3.956112
 20
1.649941
 30
0.000000
  0
VERTEX
  8
MERGEDLAYER-2
 10
3.898310
 20
1.606122
 30
0.000000
  0
VERTEX
  8
MERGEDLAYER-2
 10
3.845082
 20
1.556849
 30
0.000000
  0
VERTEX
  8
MERGEDLAYER-2
 10
3.842530
 20
1.550223
 30
0.000000
  0
SEQEND
  8
MERGEDLAYER-2
  0
POLYLINE
  8
MERGEDLAYER-2
 66
  1
 70
  0
 62
  7
 10
3.842531
 20
1.550223
 30
0.000000
  0
VERTEX
  8
MERGEDLAYER-2
 10
3.842531
 20
1.550223
 30
0.000000
  0
VERTEX
  8
MERGEDLAYER-2
 10
3.824681
 20
1.533457
 30
0.000000
  0
VERTEX
  8
MERGEDLAYER-2
 10
3.812759
 20
1.511986
 30
0.000000
  0
VERTEX
  8
MERGEDLAYER-2
 10
3.805256
 20
1.488601
 30
0.000000
  0
VERTEX
  8
MERGEDLAYER-2
 10
3.802459
 20
1.464201
 30
0.000000
  0
VERTEX
  8
MERGEDLAYER-2
 10
3.806036
 20
1.440127
 30
0.000000
  0
SEQEND
  8
MERGEDLAYER-2
  0
POLYLINE
  8
MERGEDLAYER-2
 66
  1
 70
  0
 62
  7
 10
3.824197
 20
1.401460
 30
0.000000
  0
VERTEX
  8
MERGEDLAYER-2
 10
3.824197
 20
1.401460
 30
0.000000
  0
VERTEX
  8
MERGEDLAYER-2
 10
3.838287
 20
1.386033
 30
0.000000
  0
VERTEX
  8
MERGEDLAYER-2
 10
3.857430
 20
1.372105
 30
0.000000
  0
VERTEX
  8
MERGEDLAYER-2
 10
3.878922
 20
1.362179
 30
0.000000
  0
VERTEX
  8
MERGEDLAYER-2
 10
3.897602
 20
1.355715
 30
0.000000
  0
SEQEND
  8
MERGEDLAYER-2
  0
POLYLINE
  8
MERGEDLAYER-2
 66
  1
 70
  0
 62
  7
 10
3.897602
 20
1.355716
 30
0.000000
  0
VERTEX
  8
MERGEDLAYER-2
 10
3.897602
 20
1.355716
 30
0.000000
  0
VERTEX
  8
MERGEDLAYER-2
 10
3.959078
 20
1.347077
 30
0.000000
  0
VERTEX
  8
MERGEDLAYER-2
 10
4.023256
 20
1.342740
 30
0.000000
  0
VERTEX
  8
MERGEDLAYER-2
 10
4.087551
 20
1.344714
 30
0.000000
  0
VERTEX
  8
MERGEDLAYER-2
 10
4.151342
 20
1.352982
 30
0.000000
  0
VERTEX
  8
MERGEDLAYER-2
 10
4.214016
 20
1.367462
 30
0.000000
  0
VERTEX
  8
MERGEDLAYER-2
 10
4.274969
 20
1.388015
 30
0.000000
  0
VERTEX
  8
MERGEDLAYER-2
 10
4.297161
 20
1.394383
 30
0.000000
  0
SEQEND
  8
MERGEDLAYER-2
  0
POLYLINE
  8
MERGEDLAYER-2
 66
  1
 70
  0
 62
  7
 10
3.944952
 20
1.459440
 30
0.000000
  0
VERTEX
  8
MERGEDLAYER-2
 10
3.944952
 20
1.459440
 30
0.000000
  0
VERTEX
  8
MERGEDLAYER-2
 10
3.949499
 20
1.484629
 30
0.000000
  0
VERTEX
  8
MERGEDLAYER-2
 10
3.945775
 20
1.508629
 30
0.000000
  0
VERTEX
  8
MERGEDLAYER-2
 10
3.934348
 20
1.527788
 30
0.000000
  0
VERTEX
  8
MERGEDLAYER-2
 10
3.916957
 20
1.539189
 30
0.000000
  0
VERTEX
  8
MERGEDLAYER-2
 10
3.896250
 20
1.541096
 30
0.000000
  0
VERTEX
  8
MERGEDLAYER-2
 10
3.875379
 20
1.533220
 30
0.000000
  0
VERTEX
  8
MERGEDLAYER-2
 10
3.857521
 20
1.516758
 30
0.000000
  0
VERTEX
  8
MERGEDLAYER-2
 10
3.845396
 20
1.494218
 30
0.000000
  0
VERTEX
  8
MERGEDLAYER-2
 10
3.840849
 20
1.469030
 30
0.000000
  0
VERTEX
  8
MERGEDLAYER-2
 10
3.844572
 20
1.445030
 30
0.000000
  0
VERTEX
  8
MERGEDLAYER-2
 10
3.855999
 20
1.425871
 30
0.000000
  0
VERTEX
  8
MERGEDLAYER-2
 10
3.873391
 20
1.414470
 30
0.000000
  0
VERTEX
  8
MERGEDLAYER-2
 10
3.894098
 20
1.412563
 30
0.000000
  0
VERTEX
  8
MERGEDLAYER-2
 10
3.914969
 20
1.420438
 30
0.000000
  0
VERTEX
  8
MERGEDLAYER-2
 10
3.932827
 20
1.436901
 30
0.000000
  0
VERTEX
  8
MERGEDLAYER-2
 10
3.944952
 20
1.459440
 30
0.000000
  0
SEQEND
  8
MERGEDLAYER-2
  0
POLYLINE
  8
MERGEDLAYER-2
 66
  1
 70
  0
 62
  7
 10
3.911916
 20
1.470323
 30
0.000000
  0
VERTEX
  8
MERGEDLAYER-2
 10
3.911916
 20
1.470323
 30
0.000000
  0
VERTEX
  8
MERGEDLAYER-2
 10
3.912191
 20
1.486719
 30
0.000000
  0
VERTEX
  8
MERGEDLAYER-2
 10
3.902585
 20
1.496906
 30
0.000000
  0
VERTEX
  8
MERGEDLAYER-2
 10
3.888725
 20
1.494916
 30
0.000000
  0
VERTEX
  8
MERGEDLAYER-2
 10
3.878731
 20
1.481915
 30
0.000000
  0
VERTEX
  8
MERGEDLAYER-2
 10
3.878457
 20
1.465519
 30
0.000000
  0
VERTEX
  8
MERGEDLAYER-2
 10
3.888063
 20
1.455332
 30
0.000000
  0
VERTEX
  8
MERGEDLAYER-2
 10
3.901922
 20
1.457322
 30
0.000000
  0
VERTEX
  8
MERGEDLAYER-2
 10
3.911916
 20
1.470323
 30
0.000000
  0
SEQEND
  8
MERGEDLAYER-2
  0
POLYLINE
  8
MERGEDLAYER-2
 66
  1
 70
  0
 62
  7
 10
4.512504
 20
1.754711
 30
0.000000
  0
VERTEX
  8
MERGEDLAYER-2
 10
4.512504
 20
1.754711
 30
0.000000
  0
VERTEX
  8
MERGEDLAYER-2
 10
4.459999
 20
1.771787
 30
0.000000
  0
VERTEX
  8
MERGEDLAYER-2
 10
4.408225
 20
1.781866
 30
0.000000
  0
VERTEX
  8
MERGEDLAYER-2
 10
4.355712
 20
1.786824
 30
0.000000
  0
VERTEX
  8
MERGEDLAYER-2
 10
4.302966
 20
1.786610
 30
0.000000
  0
VERTEX
  8
MERGEDLAYER-2
 10
4.250495
 20
1.781227
 30
0.000000
  0
VERTEX
  8
MERGEDLAYER-2
 10
4.200825
 20
1.768772
 30
0.000000
  0
SEQEND
  8
MERGEDLAYER-2
  0
POLYLINE
  8
MERGEDLAYER-2
 66
  1
 70
  0
 62
  7
 10
4.200825
 20
1.768773
 30
0.000000
  0
VERTEX
  8
MERGEDLAYER-2
 10
4.200825
 20
1.768773
 30
0.000000
  0
VERTEX
  8
MERGEDLAYER-2
 10
4.128685
 20
1.752378
 30
0.000000
  0
VERTEX
  8
MERGEDLAYER-2
 10
4.060653
 20
1.727224
 30
0.000000
  0
VERTEX
  8
MERGEDLAYER-2
 10
3.995413
 20
1.695523
 30
0.000000
  0
VERTEX
  8
MERGEDLAYER-2
 10
3.933595
 20
1.657581
 30
0.000000
  0
VERTEX
  8
MERGEDLAYER-2
 10
3.875793
 20
1.613761
 30
0.000000
  0
VERTEX
  8
MERGEDLAYER-2
 10
3.822566
 20
1.564488
 30
0.000000
  0
VERTEX
  8
MERGEDLAYER-2
 10
3.820013
 20
1.557862
 30
0.000000
  0
SEQEND
  8
MERGEDLAYER-2
  0
POLYLINE
  8
MERGEDLAYER-2
 66
  1
 70
  0
 62
  7
 10
3.820013
 20
1.557862
 30
0.000000
  0
VERTEX
  8
MERGEDLAYER-2
 10
3.820013
 20
1.557862
 30
0.000000
  0
VERTEX
  8
MERGEDLAYER-2
 10
3.801915
 20
1.539802
 30
0.000000
  0
VERTEX
  8
MERGEDLAYER-2
 10
3.790004
 20
1.517012
 30
0.000000
  0
VERTEX
  8
MERGEDLAYER-2
 10
3.782766
 20
1.492335
 30
0.000000
  0
VERTEX
  8
MERGEDLAYER-2
 10
3.782601
 20
1.472350
 30
0.000000
  0
SEQEND
  8
MERGEDLAYER-2
  0
POLYLINE
  8
MERGEDLAYER-2
 66
  1
 70
  0
 62
  7
 10
4.443041
 20
1.619940
 30
0.000000
  0
VERTEX
  8
MERGEDLAYER-2
 10
4.443041
 20
1.619940
 30
0.000000
  0
VERTEX
  8
MERGEDLAYER-2
 10
5.339999
 20
1.785740
 30
0.000000
  0
SEQEND
  8
MERGEDLAYER-2
  0
POLYLINE
  8
MERGEDLAYER-2
 66
  1
 70
  0
 62
  7
 10
4.450656
 20
1.369777
 30
0.000000
  0
VERTEX
  8
MERGEDLAYER-2
 10
4.450656
 20
1.369777
 30
0.000000
  0
VERTEX
  8
MERGEDLAYER-2
 10
5.351717
 20
1.690829
 30
0.000000
  0
SEQEND
  8
MERGEDLAYER-2
  0
POLYLINE
  8
MERGEDLAYER-2
 66
  1
 70
  0
 62
  7
 10
4.443040
 20
1.619940
 30
0.000000
  0
VERTEX
  8
MERGEDLAYER-2
 10
4.443040
 20
1.619940
 30
0.000000
  0
VERTEX
  8
MERGEDLAYER-2
 10
4.410710
 20
1.608210
 30
0.000000
  0
VERTEX
  8
MERGEDLAYER-2
 10
4.383604
 20
1.588852
 30
0.000000
  0
VERTEX
  8
MERGEDLAYER-2
 10
4.360795
 20
1.564579
 30
0.000000
  0
VERTEX
  8
MERGEDLAYER-2
 10
4.343160
 20
1.536321
 30
0.000000
  0
VERTEX
  8
MERGEDLAYER-2
 10
4.331377
 20
1.505166
 30
0.000000
  0
VERTEX
  8
MERGEDLAYER-2
 10
4.325898
 20
1.472311
 30
0.000000
  0
VERTEX
  8
MERGEDLAYER-2
 10
4.327625
 20
1.465857
 30
0.000000
  0
SEQEND
  8
MERGEDLAYER-2
  0
POLYLINE
  8
MERGEDLAYER-2
 66
  1
 70
  0
 62
  7
 10
4.327625
 20
1.465859
 30
0.000000
  0
VERTEX
  8
MERGEDLAYER-2
 10
4.327625
 20
1.465859
 30
0.000000
  0
VERTEX
  8
MERGEDLAYER-2
 10
4.329817
 20
1.431631
 30
0.000000
  0
VERTEX
  8
MERGEDLAYER-2
 10
4.347512
 20
1.399782
 30
0.000000
  0
VERTEX
  8
MERGEDLAYER-2
 10
4.376049
 20
1.377128
 30
0.000000
  0
VERTEX
  8
MERGEDLAYER-2
 10
4.411082
 20
1.367120
 30
0.000000
  0
VERTEX
  8
MERGEDLAYER-2
 10
4.447278
 20
1.371280
 30
0.000000
  0
VERTEX
  8
MERGEDLAYER-2
 10
4.450656
 20
1.369777
 30
0.000000
  0
SEQEND
  8
MERGEDLAYER-2
  0
POLYLINE
  8
MERGEDLAYER-2
 66
  1
 70
  0
 62
  7
 10
5.385697
 20
1.751761
 30
0.000000
  0
VERTEX
  8
MERGEDLAYER-2
 10
5.385697
 20
1.751761
 30
0.000000
  0
VERTEX
  8
MERGEDLAYER-2
 10
5.382122
 20
1.766789
 30
0.000000
  0
VERTEX
  8
MERGEDLAYER-2
 10
5.375638
 20
1.778238
 30
0.000000
  0
VERTEX
  8
MERGEDLAYER-2
 10
5.365267
 20
1.786336
 30
0.000000
  0
VERTEX
  8
MERGEDLAYER-2
 10
5.352585
 20
1.789848
 30
0.000000
  0
VERTEX
  8
MERGEDLAYER-2
 10
5.339526
 20
1.788240
 30
0.000000
  0
VERTEX
  8
MERGEDLAYER-2
 10
5.340000
 20
1.785740
 30
0.000000
  0
SEQEND
  8
MERGEDLAYER-2
  0
POLYLINE
  8
MERGEDLAYER-2
 66
  1
 70
  0
 62
  7
 10
5.351717
 20
1.690829
 30
0.000000
  0
VERTEX
  8
MERGEDLAYER-2
 10
5.351717
 20
1.690829
 30
0.000000
  0
VERTEX
  8
MERGEDLAYER-2
 10
5.369065
 20
1.708325
 30
0.000000
  0
VERTEX
  8
MERGEDLAYER-2
 10
5.380970
 20
1.730061
 30
0.000000
  0
VERTEX
  8
MERGEDLAYER-2
 10
5.385697
 20
1.751759
 30
0.000000
  0
SEQEND
  8
MERGEDLAYER-2
  0
POLYLINE
  8
MERGEDLAYER-2
 66
  1
 70
  0
 62
  7
 10
4.213382
 20
1.684971
 30
0.000000
  0
VERTEX
  8
MERGEDLAYER-2
 10
4.213382
 20
1.684971
 30
0.000000
  0
VERTEX
  8
MERGEDLAYER-2
 10
4.385688
 20
1.638802
 30
0.000000
  0
SEQEND
  8
MERGEDLAYER-2
  0
POLYLINE
  8
MERGEDLAYER-2
 66
  1
 70
  0
 62
  7
 10
4.162413
 20
1.430706
 30
0.000000
  0
VERTEX
  8
MERGEDLAYER-2
 10
4.162413
 20
1.430706
 30
0.000000
  0
VERTEX
  8
MERGEDLAYER-2
 10
4.402616
 20
1.366344
 30
0.000000
  0
SEQEND
  8
MERGEDLAYER-2
  0
POLYLINE
  8
MERGEDLAYER-2
 66
  1
 70
  0
 62
  7
 10
5.301301
 20
1.802026
 30
0.000000
  0
VERTEX
  8
MERGEDLAYER-2
 10
5.301301
 20
1.802026
 30
0.000000
  0
VERTEX
  8
MERGEDLAYER-2
 10
5.358677
 20
1.786653
 30
0.000000
  0
SEQEND
  8
MERGEDLAYER-2
  0
POLYLINE
  8
MERGEDLAYER-2
 66
  1
 70
  0
 62
  7
 10
4.172372
 20
1.704890
 30
0.000000
  0
VERTEX
  8
MERGEDLAYER-2
 10
4.172372
 20
1.704890
 30
0.000000
  0
VERTEX
  8
MERGEDLAYER-2
 10
4.140652
 20
1.694000
 30
0.000000
  0
VERTEX
  8
MERGEDLAYER-2
 10
4.113981
 20
1.675583
 30
0.000000
  0
VERTEX
  8
MERGEDLAYER-2
 10
4.091416
 20
1.652317
 30
0.000000
  0
VERTEX
  8
MERGEDLAYER-2
 10
4.073823
 20
1.625097
 30
0.000000
  0
VERTEX
  8
MERGEDLAYER-2
 10
4.061879
 20
1.594966
 30
0.000000
  0
VERTEX
  8
MERGEDLAYER-2
 10
4.060471
 20
1.578930
 30
0.000000
  0
SEQEND
  8
MERGEDLAYER-2
  0
POLYLINE
  8
MERGEDLAYER-2
 66
  1
 70
  0
 62
  7
 10
4.056956
 20
1.498667
 30
0.000000
  0
VERTEX
  8
MERGEDLAYER-2
 10
4.056956
 20
1.498667
 30
0.000000
  0
VERTEX
  8
MERGEDLAYER-2
 10
4.060828
 20
1.477828
 30
0.000000
  0
VERTEX
  8
MERGEDLAYER-2
 10
4.071004
 20
1.456597
 30
0.000000
  0
VERTEX
  8
MERGEDLAYER-2
 10
4.085128
 20
1.437760
 30
0.000000
  0
VERTEX
  8
MERGEDLAYER-2
 10
4.102654
 20
1.422040
 30
0.000000
  0
VERTEX
  8
MERGEDLAYER-2
 10
4.122911
 20
1.410041
 30
0.000000
  0
VERTEX
  8
MERGEDLAYER-2
 10
4.140735
 20
1.401999
 30
0.000000
  0
SEQEND
  8
MERGEDLAYER-2
  0
POLYLINE
  8
MERGEDLAYER-2
 66
  1
 70
  0
 62
  7
 10
4.060471
 20
1.578930
 30
0.000000
  0
VERTEX
  8
MERGEDLAYER-2
 10
4.060471
 20
1.578930
 30
0.000000
  0
VERTEX
  8
MERGEDLAYER-2
 10
4.052736
 20
1.541984
 30
0.000000
  0
VERTEX
  8
MERGEDLAYER-2
 10
4.054671
 20
1.502693
 30
0.000000
  0
VERTEX
  8
MERGEDLAYER-2
 10
4.056956
 20
1.498667
 30
0.000000
  0
SEQEND
  8
MERGEDLAYER-2
  0
POLYLINE
  8
MERGEDLAYER-2
 66
  1
 70
  0
 62
  7
 10
4.140735
 20
1.401999
 30
0.000000
  0
VERTEX
  8
MERGEDLAYER-2
 10
4.140735
 20
1.401999
 30
0.000000
  0
VERTEX
  8
MERGEDLAYER-2
 10
4.181115
 20
1.401677
 30
0.000000
  0
VERTEX
  8
MERGEDLAYER-2
 10
4.221116
 20
1.415766
 30
0.000000
  0
VERTEX
  8
MERGEDLAYER-2
 10
4.223929
 20
1.414302
 30
0.000000
  0
SEQEND
  8
MERGEDLAYER-2
  0
POLYLINE
  8
MERGEDLAYER-2
 66
  1
 70
  0
 62
  7
 10
4.263181
 20
1.689658
 30
0.000000
  0
VERTEX
  8
MERGEDLAYER-2
 10
4.263181
 20
1.689658
 30
0.000000
  0
VERTEX
  8
MERGEDLAYER-2
 10
4.225422
 20
1.708519
 30
0.000000
  0
VERTEX
  8
MERGEDLAYER-2
 10
4.185891
 20
1.710429
 30
0.000000
  0
VERTEX
  8
MERGEDLAYER-2
 10
4.172372
 20
1.704890
 30
0.000000
  0
SEQEND
  8
MERGEDLAYER-2
  0
POLYLINE
  8
MERGEDLAYER-2
 66
  1
 70
  0
 62
  7
 10
4.288373
 20
1.665052
 30
0.000000
  0
VERTEX
  8
MERGEDLAYER-2
 10
4.288373
 20
1.665052
 30
0.000000
  0
VERTEX
  8
MERGEDLAYER-2
 10
4.282033
 20
1.672581
 30
0.000000
  0
VERTEX
  8
MERGEDLAYER-2
 10
4.277307
 20
1.677844
 30
0.000000
  0
VERTEX
  8
MERGEDLAYER-2
 10
4.272247
 20
1.682787
 30
0.000000
  0
VERTEX
  8
MERGEDLAYER-2
 10
4.266875
 20
1.687387
 30
0.000000
  0
VERTEX
  8
MERGEDLAYER-2
 10
4.261212
 20
1.691627
 30
0.000000
  0
VERTEX
  8
MERGEDLAYER-2
 10
4.263181
 20
1.689658
 30
0.000000
  0
SEQEND
  8
MERGEDLAYER-2
  0
POLYLINE
  8
MERGEDLAYER-2
 66
  1
 70
  0
 62
  7
 10
4.294232
 20
1.662709
 30
0.000000
  0
VERTEX
  8
MERGEDLAYER-2
 10
4.294232
 20
1.662709
 30
0.000000
  0
VERTEX
  8
MERGEDLAYER-2
 10
4.270473
 20
1.691801
 30
0.000000
  0
VERTEX
  8
MERGEDLAYER-2
 10
4.266376
 20
1.695737
 30
0.000000
  0
SEQEND
  8
MERGEDLAYER-2
  0
POLYLINE
  8
MERGEDLAYER-2
 66
  1
 70
  0
 62
  7
 10
4.266376
 20
1.695735
 30
0.000000
  0
VERTEX
  8
MERGEDLAYER-2
 10
4.266376
 20
1.695735
 30
0.000000
  0
VERTEX
  8
MERGEDLAYER-2
 10
4.223290
 20
1.717365
 30
0.000000
  0
VERTEX
  8
MERGEDLAYER-2
 10
4.177778
 20
1.719793
 30
0.000000
  0
VERTEX
  8
MERGEDLAYER-2
 10
4.168900
 20
1.715735
 30
0.000000
  0
SEQEND
  8
MERGEDLAYER-2
  0
POLYLINE
  8
MERGEDLAYER-2
 66
  1
 70
  0
 62
  7
 10
4.168900
 20
1.715735
 30
0.000000
  0
VERTEX
  8
MERGEDLAYER-2
 10
4.168900
 20
1.715735
 30
0.000000
  0
VERTEX
  8
MERGEDLAYER-2
 10
4.134634
 20
1.703560
 30
0.000000
  0
VERTEX
  8
MERGEDLAYER-2
 10
4.105716
 20
1.683388
 30
0.000000
  0
VERTEX
  8
MERGEDLAYER-2
 10
4.081290
 20
1.657961
 30
0.000000
  0
VERTEX
  8
MERGEDLAYER-2
 10
4.062293
 20
1.628257
 30
0.000000
  0
VERTEX
  8
MERGEDLAYER-2
 10
4.049456
 20
1.595418
 30
0.000000
  0
VERTEX
  8
MERGEDLAYER-2
 10
4.048582
 20
1.581906
 30
0.000000
  0
SEQEND
  8
MERGEDLAYER-2
  0
POLYLINE
  8
MERGEDLAYER-2
 66
  1
 70
  0
 62
  7
 10
4.048583
 20
1.581906
 30
0.000000
  0
VERTEX
  8
MERGEDLAYER-2
 10
4.048583
 20
1.581906
 30
0.000000
  0
VERTEX
  8
MERGEDLAYER-2
 10
4.040496
 20
1.542581
 30
0.000000
  0
VERTEX
  8
MERGEDLAYER-2
 10
4.042550
 20
1.500888
 30
0.000000
  0
VERTEX
  8
MERGEDLAYER-2
 10
4.044853
 20
1.496741
 30
0.000000
  0
SEQEND
  8
MERGEDLAYER-2
  0
POLYLINE
  8
MERGEDLAYER-2
 66
  1
 70
  0
 62
  7
 10
4.044853
 20
1.496741
 30
0.000000
  0
VERTEX
  8
MERGEDLAYER-2
 10
4.044853
 20
1.496741
 30
0.000000
  0
VERTEX
  8
MERGEDLAYER-2
 10
4.049426
 20
1.474454
 30
0.000000
  0
VERTEX
  8
MERGEDLAYER-2
 10
4.060572
 20
1.451940
 30
0.000000
  0
VERTEX
  8
MERGEDLAYER-2
 10
4.075897
 20
1.432033
 30
0.000000
  0
VERTEX
  8
MERGEDLAYER-2
 10
4.094812
 20
1.415499
 30
0.000000
  0
VERTEX
  8
MERGEDLAYER-2
 10
4.116588
 20
1.402973
 30
0.000000
  0
VERTEX
  8
MERGEDLAYER-2
 10
4.138978
 20
1.393797
 30
0.000000
  0
SEQEND
  8
MERGEDLAYER-2
  0
POLYLINE
  8
MERGEDLAYER-2
 66
  1
 70
  0
 62
  7
 10
4.138978
 20
1.393797
 30
0.000000
  0
VERTEX
  8
MERGEDLAYER-2
 10
4.138978
 20
1.393797
 30
0.000000
  0
VERTEX
  8
MERGEDLAYER-2
 10
4.182020
 20
1.395513
 30
0.000000
  0
VERTEX
  8
MERGEDLAYER-2
 10
4.223703
 20
1.412504
 30
0.000000
  0
VERTEX
  8
MERGEDLAYER-2
 10
4.228615
 20
1.412544
 30
0.000000
  0
SEQEND
  8
MERGEDLAYER-2
  0
POLYLINE
  8
MERGEDLAYER-2
 66
  1
 70
  0
 62
  7
 10
4.587164
 20
1.675011
 30
0.000000
  0
VERTEX
  8
MERGEDLAYER-2
 10
4.587164
 20
1.675011
 30
0.000000
  0
VERTEX
  8
MERGEDLAYER-2
 10
4.569842
 20
1.714902
 30
0.000000
  0
VERTEX
  8
MERGEDLAYER-2
 10
4.541144
 20
1.744061
 30
0.000000
  0
VERTEX
  8
MERGEDLAYER-2
 10
4.535022
 20
1.747072
 30
0.000000
  0
SEQEND
  8
MERGEDLAYER-2
  0
POLYLINE
  8
MERGEDLAYER-2
 66
  1
 70
  0
 62
  7
 10
4.504558
 20
1.700790
 30
0.000000
  0
VERTEX
  8
MERGEDLAYER-2
 10
4.504558
 20
1.700790
 30
0.000000
  0
VERTEX
  8
MERGEDLAYER-2
 10
4.477483
 20
1.690711
 30
0.000000
  0
VERTEX
  8
MERGEDLAYER-2
 10
4.458899
 20
1.669973
 30
0.000000
  0
VERTEX
  8
MERGEDLAYER-2
 10
4.453587
 20
1.650992
 30
0.000000
  0
SEQEND
  8
MERGEDLAYER-2
  0
POLYLINE
  8
MERGEDLAYER-2
 66
  1
 70
  0
 62
  7
 10
4.556114
 20
1.669153
 30
0.000000
  0
VERTEX
  8
MERGEDLAYER-2
 10
4.556114
 20
1.669153
 30
0.000000
  0
VERTEX
  8
MERGEDLAYER-2
 10
4.544055
 20
1.687433
 30
0.000000
  0
VERTEX
  8
MERGEDLAYER-2
 10
4.528491
 20
1.698641
 30
0.000000
  0
VERTEX
  8
MERGEDLAYER-2
 10
4.509822
 20
1.703039
 30
0.000000
  0
VERTEX
  8
MERGEDLAYER-2
 10
4.504558
 20
1.700791
 30
0.000000
  0
SEQEND
  8
MERGEDLAYER-2
  0
POLYLINE
  8
MERGEDLAYER-2
 66
  1
 70
  0
 62
  7
 10
3.831813
 20
1.380369
 30
0.000000
  0
VERTEX
  8
MERGEDLAYER-2
 10
3.831813
 20
1.380369
 30
0.000000
  0
VERTEX
  8
MERGEDLAYER-2
 10
3.852965
 20
1.369583
 30
0.000000
  0
VERTEX
  8
MERGEDLAYER-2
 10
3.878130
 20
1.361584
 30
0.000000
  0
VERTEX
  8
MERGEDLAYER-2
 10
3.888815
 20
1.358059
 30
0.000000
  0
SEQEND
  8
MERGEDLAYER-2
  0
POLYLINE
  8
MERGEDLAYER-2
 66
  1
 70
  0
 62
  7
 10
6.577940
 20
1.905973
 30
0.000000
  0
VERTEX
  8
MERGEDLAYER-2
 10
6.577940
 20
1.905973
 30
0.000000
  0
VERTEX
  8
MERGEDLAYER-2
 10
3.827775
 20
1.169067
 30
0.000000
  0
SEQEND
  8
MERGEDLAYER-2
  0
POLYLINE
  8
MERGEDLAYER-2
 66
  1
 70
  0
 62
  7
 10
6.585678
 20
1.877102
 30
0.000000
  0
VERTEX
  8
MERGEDLAYER-2
 10
6.585678
 20
1.877102
 30
0.000000
  0
VERTEX
  8
MERGEDLAYER-2
 10
3.816376
 20
1.135069
 30
0.000000
  0
SEQEND
  8
MERGEDLAYER-2
  0
POLYLINE
  8
MERGEDLAYER-2
 66
  1
 70
  0
 62
  7
 10
6.385009
 20
2.769452
 30
0.000000
  0
VERTEX
  8
MERGEDLAYER-2
 10
6.385009
 20
2.769452
 30
0.000000
  0
VERTEX
  8
MERGEDLAYER-2
 10
6.430997
 20
2.742903
 30
0.000000
  0
SEQEND
  8
MERGEDLAYER-2
  0
POLYLINE
  8
MERGEDLAYER-2
 66
  1
 70
  0
 62
  7
 10
6.525044
 20
2.691635
 30
0.000000
  0
VERTEX
  8
MERGEDLAYER-2
 10
6.525044
 20
2.691635
 30
0.000000
  0
VERTEX
  8
MERGEDLAYER-2
 10
6.527669
 20
2.687089
 30
0.000000
  0
SEQEND
  8
MERGEDLAYER-2
  0
POLYLINE
  8
MERGEDLAYER-2
 66
  1
 70
  0
 62
  7
 10
6.527669
 20
2.687089
 30
0.000000
  0
VERTEX
  8
MERGEDLAYER-2
 10
6.527669
 20
2.687089
 30
0.000000
  0
VERTEX
  8
MERGEDLAYER-2
 10
6.566617
 20
2.664603
 30
0.000000
  0
SEQEND
  8
MERGEDLAYER-2
  0
POLYLINE
  8
MERGEDLAYER-2
 66
  1
 70
  0
 62
  7
 10
6.577772
 20
2.645282
 30
0.000000
  0
VERTEX
  8
MERGEDLAYER-2
 10
6.577772
 20
2.645282
 30
0.000000
  0
VERTEX
  8
MERGEDLAYER-2
 10
6.569269
 20
2.663026
 30
0.000000
  0
VERTEX
  8
MERGEDLAYER-2
 10
6.566617
 20
2.664603
 30
0.000000
  0
SEQEND
  8
MERGEDLAYER-2
  0
POLYLINE
  8
MERGEDLAYER-2
 66
  1
 70
  0
 62
  7
 10
6.577771
 20
2.645282
 30
0.000000
  0
VERTEX
  8
MERGEDLAYER-2
 10
6.577771
 20
2.645282
 30
0.000000
  0
VERTEX
  8
MERGEDLAYER-2
 10
6.577771
 20
1.906609
 30
0.000000
  0
SEQEND
  8
MERGEDLAYER-2
  0
POLYLINE
  8
MERGEDLAYER-2
 66
  1
 70
  0
 62
  7
 10
6.577772
 20
1.906609
 30
0.000000
  0
VERTEX
  8
MERGEDLAYER-2
 10
6.577772
 20
1.906609
 30
0.000000
  0
VERTEX
  8
MERGEDLAYER-2
 10
6.580199
 20
1.886480
 30
0.000000
  0
VERTEX
  8
MERGEDLAYER-2
 10
6.585507
 20
1.877738
 30
0.000000
  0
SEQEND
  8
MERGEDLAYER-2
  0
POLYLINE
  8
MERGEDLAYER-2
 66
  1
 70
  0
 62
  7
 10
6.666147
 20
1.738064
 30
0.000000
  0
VERTEX
  8
MERGEDLAYER-2
 10
6.666147
 20
1.738064
 30
0.000000
  0
VERTEX
  8
MERGEDLAYER-2
 10
6.585506
 20
1.877737
 30
0.000000
  0
SEQEND
  8
MERGEDLAYER-2
  0
POLYLINE
  8
MERGEDLAYER-2
 66
  1
 70
  0
 62
  7
 10
6.750002
 20
1.760533
 30
0.000000
  0
VERTEX
  8
MERGEDLAYER-2
 10
6.750002
 20
1.760533
 30
0.000000
  0
VERTEX
  8
MERGEDLAYER-2
 10
6.666146
 20
1.738064
 30
0.000000
  0
SEQEND
  8
MERGEDLAYER-2
  0
POLYLINE
  8
MERGEDLAYER-2
 66
  1
 70
  0
 62
  7
 10
6.750002
 20
2.672139
 30
0.000000
  0
VERTEX
  8
MERGEDLAYER-2
 10
6.750002
 20
2.672139
 30
0.000000
  0
VERTEX
  8
MERGEDLAYER-2
 10
6.750002
 20
1.760533
 30
0.000000
  0
SEQEND
  8
MERGEDLAYER-2
  0
POLYLINE
  8
MERGEDLAYER-2
 66
  1
 70
  0
 62
  7
 10
6.750002
 20
2.672139
 30
0.000000
  0
VERTEX
  8
MERGEDLAYER-2
 10
6.750002
 20
2.672139
 30
0.000000
  0
VERTEX
  8
MERGEDLAYER-2
 10
6.647868
 20
2.731106
 30
0.000000
  0
SEQEND
  8
MERGEDLAYER-2
  0
POLYLINE
  8
MERGEDLAYER-2
 66
  1
 70
  0
 62
  7
 10
6.647868
 20
2.731167
 30
0.000000
  0
VERTEX
  8
MERGEDLAYER-2
 10
6.647868
 20
2.731167
 30
0.000000
  0
VERTEX
  8
MERGEDLAYER-2
 10
6.525044
 20
2.698256
 30
0.000000
  0
SEQEND
  8
MERGEDLAYER-2
  0
POLYLINE
  8
MERGEDLAYER-2
 66
  1
 70
  0
 62
  7
 10
6.525045
 20
2.691635
 30
0.000000
  0
VERTEX
  8
MERGEDLAYER-2
 10
6.525045
 20
2.691635
 30
0.000000
  0
VERTEX
  8
MERGEDLAYER-2
 10
6.525045
 20
2.698256
 30
0.000000
  0
SEQEND
  8
MERGEDLAYER-2
  0
POLYLINE
  8
MERGEDLAYER-2
 66
  1
 70
  0
 62
  7
 10
6.525044
 20
2.736015
 30
0.000000
  0
VERTEX
  8
MERGEDLAYER-2
 10
6.525044
 20
2.736015
 30
0.000000
  0
VERTEX
  8
MERGEDLAYER-2
 10
6.525044
 20
2.698256
 30
0.000000
  0
SEQEND
  8
MERGEDLAYER-2
  0
POLYLINE
  8
MERGEDLAYER-2
 66
  1
 70
  0
 62
  7
 10
6.382384
 20
2.773999
 30
0.000000
  0
VERTEX
  8
MERGEDLAYER-2
 10
6.382384
 20
2.773999
 30
0.000000
  0
VERTEX
  8
MERGEDLAYER-2
 10
6.382384
 20
2.783347
 30
0.000000
  0
SEQEND
  8
MERGEDLAYER-2
  0
POLYLINE
  8
MERGEDLAYER-2
 66
  1
 70
  0
 62
  7
 10
6.382384
 20
2.773999
 30
0.000000
  0
VERTEX
  8
MERGEDLAYER-2
 10
6.382384
 20
2.773999
 30
0.000000
  0
VERTEX
  8
MERGEDLAYER-2
 10
6.385008
 20
2.769454
 30
0.000000
  0
SEQEND
  8
MERGEDLAYER-2
  0
POLYLINE
  8
MERGEDLAYER-2
 66
  1
 70
  0
 62
  7
 10
6.525044
 20
2.736015
 30
0.000000
  0
VERTEX
  8
MERGEDLAYER-2
 10
6.525044
 20
2.736015
 30
0.000000
  0
VERTEX
  8
MERGEDLAYER-2
 10
6.522420
 20
2.740561
 30
0.000000
  0
SEQEND
  8
MERGEDLAYER-2
  0
POLYLINE
  8
MERGEDLAYER-2
 66
  1
 70
  0
 62
  7
 10
6.404356
 20
2.805693
 30
0.000000
  0
VERTEX
  8
MERGEDLAYER-2
 10
6.404356
 20
2.805693
 30
0.000000
  0
VERTEX
  8
MERGEDLAYER-2
 10
6.404356
 20
2.789233
 30
0.000000
  0
SEQEND
  8
MERGEDLAYER-2
  0
POLYLINE
  8
MERGEDLAYER-2
 66
  1
 70
  0
 62
  7
 10
6.404355
 20
2.805693
 30
0.000000
  0
VERTEX
  8
MERGEDLAYER-2
 10
6.404355
 20
2.805693
 30
0.000000
  0
VERTEX
  8
MERGEDLAYER-2
 10
6.401731
 20
2.810239
 30
0.000000
  0
SEQEND
  8
MERGEDLAYER-2
  0
POLYLINE
  8
MERGEDLAYER-2
 66
  1
 70
  0
 62
  7
 10
6.675317
 20
1.716203
 30
0.000000
  0
VERTEX
  8
MERGEDLAYER-2
 10
6.675317
 20
1.716203
 30
0.000000
  0
VERTEX
  8
MERGEDLAYER-2
 10
6.673227
 20
1.720504
 30
0.000000
  0
VERTEX
  8
MERGEDLAYER-2
 10
6.672861
 20
1.722811
 30
0.000000
  0
VERTEX
  8
MERGEDLAYER-2
 10
6.672257
 20
1.725067
 30
0.000000
  0
VERTEX
  8
MERGEDLAYER-2
 10
6.671420
 20
1.727247
 30
0.000000
  0
VERTEX
  8
MERGEDLAYER-2
 10
6.672328
 20
1.727358
 30
0.000000
  0
SEQEND
  8
MERGEDLAYER-2
  0
POLYLINE
  8
MERGEDLAYER-2
 66
  1
 70
  0
 62
  7
 10
6.675317
 20
1.530604
 30
0.000000
  0
VERTEX
  8
MERGEDLAYER-2
 10
6.675317
 20
1.530604
 30
0.000000
  0
VERTEX
  8
MERGEDLAYER-2
 10
6.675317
 20
1.716203
 30
0.000000
  0
SEQEND
  8
MERGEDLAYER-2
  0
POLYLINE
  8
MERGEDLAYER-2
 66
  1
 70
  0
 62
  7
 10
6.671381
 20
1.528330
 30
0.000000
  0
VERTEX
  8
MERGEDLAYER-2
 10
6.671381
 20
1.528330
 30
0.000000
  0
VERTEX
  8
MERGEDLAYER-2
 10
6.675317
 20
1.530604
 30
0.000000
  0
SEQEND
  8
MERGEDLAYER-2
  0
POLYLINE
  8
MERGEDLAYER-2
 66
  1
 70
  0
 62
  7
 10
6.401731
 20
2.810239
 30
0.000000
  0
VERTEX
  8
MERGEDLAYER-2
 10
6.401731
 20
2.810239
 30
0.000000
  0
VERTEX
  8
MERGEDLAYER-2
 10
6.371153
 20
2.827894
 30
0.000000
  0
SEQEND
  8
MERGEDLAYER-2
  0
POLYLINE
  8
MERGEDLAYER-2
 66
  1
 70
  0
 62
  7
 10
6.522420
 20
2.740560
 30
0.000000
  0
VERTEX
  8
MERGEDLAYER-2
 10
6.522420
 20
2.740560
 30
0.000000
  0
VERTEX
  8
MERGEDLAYER-2
 10
6.490670
 20
2.758891
 30
0.000000
  0
SEQEND
  8
MERGEDLAYER-2
  0
POLYLINE
  8
MERGEDLAYER-2
 66
  1
 70
  0
 62
  7
 10
0.717936
 20
1.250283
 30
0.000000
  0
VERTEX
  8
MERGEDLAYER-2
 10
0.717936
 20
1.250283
 30
0.000000
  0
VERTEX
  8
MERGEDLAYER-2
 10
6.385181
 20
2.768817
 30
0.000000
  0
SEQEND
  8
MERGEDLAYER-2
  0
POLYLINE
  8
MERGEDLAYER-2
 66
  1
 70
  0
 62
  7
 10
0.841858
 20
0.498598
 30
0.000000
  0
VERTEX
  8
MERGEDLAYER-2
 10
0.841858
 20
0.498598
 30
0.000000
  0
VERTEX
  8
MERGEDLAYER-2
 10
0.841858
 20
1.060680
 30
0.000000
  0
SEQEND
  8
MERGEDLAYER-2
  0
POLYLINE
  8
MERGEDLAYER-2
 66
  1
 70
  0
 62
  7
 10
0.816958
 20
0.420075
 30
0.000000
  0
VERTEX
  8
MERGEDLAYER-2
 10
0.816958
 20
0.420075
 30
0.000000
  0
VERTEX
  8
MERGEDLAYER-2
 10
0.816958
 20
0.512972
 30
0.000000
  0
SEQEND
  8
MERGEDLAYER-2
  0
POLYLINE
  8
MERGEDLAYER-2
 66
  1
 70
  0
 62
  7
 10
0.808170
 20
0.168525
 30
0.000000
  0
VERTEX
  8
MERGEDLAYER-2
 10
0.808170
 20
0.168525
 30
0.000000
  0
VERTEX
  8
MERGEDLAYER-2
 10
0.808170
 20
1.080130
 30
0.000000
  0
SEQEND
  8
MERGEDLAYER-2
  0
POLYLINE
  8
MERGEDLAYER-2
 66
  1
 70
  0
 62
  7
 10
0.841858
 20
1.060680
 30
0.000000
  0
VERTEX
  8
MERGEDLAYER-2
 10
0.841858
 20
1.060680
 30
0.000000
  0
VERTEX
  8
MERGEDLAYER-2
 10
0.808170
 20
1.080130
 30
0.000000
  0
SEQEND
  8
MERGEDLAYER-2
  0
POLYLINE
  8
MERGEDLAYER-2
 66
  1
 70
  0
 62
  7
 10
0.808170
 20
1.080130
 30
0.000000
  0
VERTEX
  8
MERGEDLAYER-2
 10
0.808170
 20
1.080130
 30
0.000000
  0
VERTEX
  8
MERGEDLAYER-2
 10
0.486531
 20
0.993948
 30
0.000000
  0
SEQEND
  8
MERGEDLAYER-2
  0
POLYLINE
  8
MERGEDLAYER-2
 66
  1
 70
  0
 62
  7
 10
0.706036
 20
1.139097
 30
0.000000
  0
VERTEX
  8
MERGEDLAYER-2
 10
0.706036
 20
1.139097
 30
0.000000
  0
VERTEX
  8
MERGEDLAYER-2
 10
0.384396
 20
1.052914
 30
0.000000
  0
SEQEND
  8
MERGEDLAYER-2
  0
POLYLINE
  8
MERGEDLAYER-2
 66
  1
 70
  0
 62
  7
 10
0.486531
 20
0.993948
 30
0.000000
  0
VERTEX
  8
MERGEDLAYER-2
 10
0.486531
 20
0.993948
 30
0.000000
  0
VERTEX
  8
MERGEDLAYER-2
 10
0.384396
 20
1.052914
 30
0.000000
  0
SEQEND
  8
MERGEDLAYER-2
  0
POLYLINE
  8
MERGEDLAYER-2
 66
  1
 70
  0
 62
  7
 10
0.486531
 20
0.993948
 30
0.000000
  0
VERTEX
  8
MERGEDLAYER-2
 10
0.486531
 20
0.993948
 30
0.000000
  0
VERTEX
  8
MERGEDLAYER-2
 10
0.486531
 20
0.082341
 30
0.000000
  0
SEQEND
  8
MERGEDLAYER-2
  0
POLYLINE
  8
MERGEDLAYER-2
 66
  1
 70
  0
 62
  7
 10
0.384396
 20
0.484011
 30
0.000000
  0
VERTEX
  8
MERGEDLAYER-2
 10
0.384396
 20
0.484011
 30
0.000000
  0
VERTEX
  8
MERGEDLAYER-2
 10
0.384396
 20
0.141309
 30
0.000000
  0
SEQEND
  8
MERGEDLAYER-2
  0
POLYLINE
  8
MERGEDLAYER-2
 66
  1
 70
  0
 62
  7
 10
0.486531
 20
0.082341
 30
0.000000
  0
VERTEX
  8
MERGEDLAYER-2
 10
0.486531
 20
0.082341
 30
0.000000
  0
VERTEX
  8
MERGEDLAYER-2
 10
0.384396
 20
0.141309
 30
0.000000
  0
SEQEND
  8
MERGEDLAYER-2
  0
POLYLINE
  8
MERGEDLAYER-2
 66
  1
 70
  0
 62
  7
 10
0.384396
 20
1.052914
 30
0.000000
  0
VERTEX
  8
MERGEDLAYER-2
 10
0.384396
 20
1.052914
 30
0.000000
  0
VERTEX
  8
MERGEDLAYER-2
 10
0.384396
 20
0.638601
 30
0.000000
  0
SEQEND
  8
MERGEDLAYER-2
  0
POLYLINE
  8
MERGEDLAYER-2
 66
  1
 70
  0
 62
  7
 10
0.841858
 20
1.060680
 30
0.000000
  0
VERTEX
  8
MERGEDLAYER-2
 10
0.841858
 20
1.060680
 30
0.000000
  0
VERTEX
  8
MERGEDLAYER-2
 10
0.885505
 20
1.072375
 30
0.000000
  0
SEQEND
  8
MERGEDLAYER-2
  0
POLYLINE
  8
MERGEDLAYER-2
 66
  1
 70
  0
 62
  7
 10
0.841858
 20
0.498598
 30
0.000000
  0
VERTEX
  8
MERGEDLAYER-2
 10
0.841858
 20
0.498598
 30
0.000000
  0
VERTEX
  8
MERGEDLAYER-2
 10
0.863828
 20
0.504484
 30
0.000000
  0
SEQEND
  8
MERGEDLAYER-2
  0
POLYLINE
  8
MERGEDLAYER-2
 66
  1
 70
  0
 62
  7
 10
0.816958
 20
0.420075
 30
0.000000
  0
VERTEX
  8
MERGEDLAYER-2
 10
0.816958
 20
0.420075
 30
0.000000
  0
VERTEX
  8
MERGEDLAYER-2
 10
0.841858
 20
0.405698
 30
0.000000
  0
SEQEND
  8
MERGEDLAYER-2
  0
POLYLINE
  8
MERGEDLAYER-2
 66
  1
 70
  0
 62
  7
 10
0.816958
 20
0.420075
 30
0.000000
  0
VERTEX
  8
MERGEDLAYER-2
 10
0.816958
 20
0.420075
 30
0.000000
  0
VERTEX
  8
MERGEDLAYER-2
 10
0.846838
 20
0.428080
 30
0.000000
  0
SEQEND
  8
MERGEDLAYER-2
  0
POLYLINE
  8
MERGEDLAYER-2
 66
  1
 70
  0
 62
  7
 10
0.841858
 20
0.498598
 30
0.000000
  0
VERTEX
  8
MERGEDLAYER-2
 10
0.841858
 20
0.498598
 30
0.000000
  0
VERTEX
  8
MERGEDLAYER-2
 10
0.816958
 20
0.512972
 30
0.000000
  0
SEQEND
  8
MERGEDLAYER-2
  0
POLYLINE
  8
MERGEDLAYER-2
 66
  1
 70
  0
 62
  7
 10
0.672250
 20
1.158605
 30
0.000000
  0
VERTEX
  8
MERGEDLAYER-2
 10
0.672250
 20
1.158605
 30
0.000000
  0
VERTEX
  8
MERGEDLAYER-2
 10
0.772433
 20
1.185447
 30
0.000000
  0
SEQEND
  8
MERGEDLAYER-2
  0
POLYLINE
  8
MERGEDLAYER-2
 66
  1
 70
  0
 62
  7
 10
0.675765
 20
1.236455
 30
0.000000
  0
VERTEX
  8
MERGEDLAYER-2
 10
0.675765
 20
1.236455
 30
0.000000
  0
VERTEX
  8
MERGEDLAYER-2
 10
0.675765
 20
1.159546
 30
0.000000
  0
SEQEND
  8
MERGEDLAYER-2
  0
POLYLINE
  8
MERGEDLAYER-2
 66
  1
 70
  0
 62
  7
 10
0.672250
 20
1.158605
 30
0.000000
  0
VERTEX
  8
MERGEDLAYER-2
 10
0.672250
 20
1.158605
 30
0.000000
  0
VERTEX
  8
MERGEDLAYER-2
 10
0.706036
 20
1.139097
 30
0.000000
  0
SEQEND
  8
MERGEDLAYER-2
  0
POLYLINE
  8
MERGEDLAYER-2
 66
  1
 70
  0
 62
  7
 10
0.672250
 20
1.158605
 30
0.000000
  0
VERTEX
  8
MERGEDLAYER-2
 10
0.672250
 20
1.158605
 30
0.000000
  0
VERTEX
  8
MERGEDLAYER-2
 10
0.672250
 20
1.130044
 30
0.000000
  0
SEQEND
  8
MERGEDLAYER-2
  0
POLYLINE
  8
MERGEDLAYER-2
 66
  1
 70
  0
 62
  7
 10
0.841858
 20
0.149076
 30
0.000000
  0
VERTEX
  8
MERGEDLAYER-2
 10
0.841858
 20
0.149076
 30
0.000000
  0
VERTEX
  8
MERGEDLAYER-2
 10
0.808170
 20
0.168525
 30
0.000000
  0
SEQEND
  8
MERGEDLAYER-2
  0
POLYLINE
  8
MERGEDLAYER-2
 66
  1
 70
  0
 62
  7
 10
0.808170
 20
0.168525
 30
0.000000
  0
VERTEX
  8
MERGEDLAYER-2
 10
0.808170
 20
0.168525
 30
0.000000
  0
VERTEX
  8
MERGEDLAYER-2
 10
0.486531
 20
0.082341
 30
0.000000
  0
SEQEND
  8
MERGEDLAYER-2
  0
POLYLINE
  8
MERGEDLAYER-2
 66
  1
 70
  0
 62
  7
 10
0.841858
 20
0.149076
 30
0.000000
  0
VERTEX
  8
MERGEDLAYER-2
 10
0.841858
 20
0.149076
 30
0.000000
  0
VERTEX
  8
MERGEDLAYER-2
 10
0.863534
 20
0.154884
 30
0.000000
  0
SEQEND
  8
MERGEDLAYER-2
  0
POLYLINE
  8
MERGEDLAYER-2
 66
  1
 70
  0
 62
  7
 10
0.841858
 20
0.405698
 30
0.000000
  0
VERTEX
  8
MERGEDLAYER-2
 10
0.841858
 20
0.405698
 30
0.000000
  0
VERTEX
  8
MERGEDLAYER-2
 10
0.862790
 20
0.411307
 30
0.000000
  0
SEQEND
  8
MERGEDLAYER-2
  0
POLYLINE
  8
MERGEDLAYER-2
 66
  1
 70
  0
 62
  7
 10
0.841858
 20
0.405698
 30
0.000000
  0
VERTEX
  8
MERGEDLAYER-2
 10
0.841858
 20
0.405698
 30
0.000000
  0
VERTEX
  8
MERGEDLAYER-2
 10
0.841858
 20
0.149076
 30
0.000000
  0
SEQEND
  8
MERGEDLAYER-2
  0
POLYLINE
  8
MERGEDLAYER-2
 66
  1
 70
  0
 62
  7
 10
0.878592
 20
0.171057
 30
0.000000
  0
VERTEX
  8
MERGEDLAYER-2
 10
0.878592
 20
0.171057
 30
0.000000
  0
VERTEX
  8
MERGEDLAYER-2
 10
0.887262
 20
0.173381
 30
0.000000
  0
SEQEND
  8
MERGEDLAYER-2
  0
POLYLINE
  8
MERGEDLAYER-2
 66
  1
 70
  0
 62
  7
 10
0.655260
 20
1.259192
 30
0.000000
  0
VERTEX
  8
MERGEDLAYER-2
 10
0.655260
 20
1.259192
 30
0.000000
  0
VERTEX
  8
MERGEDLAYER-2
 10
0.655260
 20
1.125492
 30
0.000000
  0
SEQEND
  8
MERGEDLAYER-2
  0
POLYLINE
  8
MERGEDLAYER-2
 66
  1
 70
  0
 62
  7
 10
7.042737
 20
2.268223
 30
0.000000
  0
VERTEX
  8
MERGEDLAYER-2
 10
7.042737
 20
2.268223
 30
0.000000
  0
VERTEX
  8
MERGEDLAYER-2
 10
6.750002
 20
2.189786
 30
0.000000
  0
SEQEND
  8
MERGEDLAYER-2
  0
POLYLINE
  8
MERGEDLAYER-2
 66
  1
 70
  0
 62
  7
 10
7.042737
 20
2.268223
 30
0.000000
  0
VERTEX
  8
MERGEDLAYER-2
 10
7.042737
 20
2.268223
 30
0.000000
  0
VERTEX
  8
MERGEDLAYER-2
 10
7.052611
 20
2.276009
 30
0.000000
  0
VERTEX
  8
MERGEDLAYER-2
 10
7.061326
 20
2.285915
 30
0.000000
  0
VERTEX
  8
MERGEDLAYER-2
 10
7.065586
 20
2.288728
 30
0.000000
  0
SEQEND
  8
MERGEDLAYER-2
  0
POLYLINE
  8
MERGEDLAYER-2
 66
  1
 70
  0
 62
  7
 10
7.065587
 20
2.288727
 30
0.000000
  0
VERTEX
  8
MERGEDLAYER-2
 10
7.065587
 20
2.288727
 30
0.000000
  0
VERTEX
  8
MERGEDLAYER-2
 10
7.069336
 20
2.331429
 30
0.000000
  0
VERTEX
  8
MERGEDLAYER-2
 10
7.067563
 20
2.351920
 30
0.000000
  0
SEQEND
  8
MERGEDLAYER-2
  0
POLYLINE
  8
MERGEDLAYER-2
 66
  1
 70
  0
 62
  7
 10
7.067561
 20
2.351923
 30
0.000000
  0
VERTEX
  8
MERGEDLAYER-2
 10
7.067561
 20
2.351923
 30
0.000000
  0
VERTEX
  8
MERGEDLAYER-2
 10
7.052810
 20
2.385485
 30
0.000000
  0
VERTEX
  8
MERGEDLAYER-2
 10
7.032776
 20
2.406488
 30
0.000000
  0
SEQEND
  8
MERGEDLAYER-2
  0
POLYLINE
  8
MERGEDLAYER-2
 66
  1
 70
  0
 62
  7
 10
7.032778
 20
2.406488
 30
0.000000
  0
VERTEX
  8
MERGEDLAYER-2
 10
7.032778
 20
2.406488
 30
0.000000
  0
VERTEX
  8
MERGEDLAYER-2
 10
7.020438
 20
2.414258
 30
0.000000
  0
VERTEX
  8
MERGEDLAYER-2
 10
7.008636
 20
2.415649
 30
0.000000
  0
VERTEX
  8
MERGEDLAYER-2
 10
7.004856
 20
2.412664
 30
0.000000
  0
SEQEND
  8
MERGEDLAYER-2
  0
POLYLINE
  8
MERGEDLAYER-2
 66
  1
 70
  0
 62
  7
 10
7.004856
 20
2.412664
 30
0.000000
  0
VERTEX
  8
MERGEDLAYER-2
 10
7.004856
 20
2.412664
 30
0.000000
  0
VERTEX
  8
MERGEDLAYER-2
 10
6.750002
 20
2.344376
 30
0.000000
  0
SEQEND
  8
MERGEDLAYER-2
  0
POLYLINE
  8
MERGEDLAYER-2
 66
  1
 70
  0
 62
  7
 10
6.750002
 20
2.344376
 30
0.000000
  0
VERTEX
  8
MERGEDLAYER-2
 10
6.750002
 20
2.344376
 30
0.000000
  0
VERTEX
  8
MERGEDLAYER-2
 10
6.750002
 20
2.189786
 30
0.000000
  0
SEQEND
  8
MERGEDLAYER-2
  0
POLYLINE
  8
MERGEDLAYER-2
 66
  1
 70
  0
 62
  7
 10
6.750006
 20
2.672200
 30
0.000000
  0
VERTEX
  8
MERGEDLAYER-2
 10
6.750006
 20
2.672200
 30
0.000000
  0
VERTEX
  8
MERGEDLAYER-2
 10
6.577771
 20
2.626050
 30
0.000000
  0
SEQEND
  8
MERGEDLAYER-2
  0
POLYLINE
  8
MERGEDLAYER-2
 66
  1
 70
  0
 62
  7
 10
6.666146
 20
1.738064
 30
0.000000
  0
VERTEX
  8
MERGEDLAYER-2
 10
6.666146
 20
1.738064
 30
0.000000
  0
VERTEX
  8
MERGEDLAYER-2
 10
6.672328
 20
1.727358
 30
0.000000
  0
SEQEND
  8
MERGEDLAYER-2
  0
POLYLINE
  8
MERGEDLAYER-2
 66
  1
 70
  1
 62
  7
 10
0.092831
 20
0.560476
 30
0.000000
  0
VERTEX
  8
MERGEDLAYER-2
 10
0.092831
 20
0.560476
 30
0.000000
  0
VERTEX
  8
MERGEDLAYER-2
 10
0.416428
 20
0.647185
 30
0.000000
  0
VERTEX
  8
MERGEDLAYER-2
 10
0.419759
 20
0.647854
 30
0.000000
  0
VERTEX
  8
MERGEDLAYER-2
 10
0.423231
 20
0.648288
 30
0.000000
  0
VERTEX
  8
MERGEDLAYER-2
 10
0.425835
 20
0.648288
 30
0.000000
  0
VERTEX
  8
MERGEDLAYER-2
 10
0.428006
 20
0.647854
 30
0.000000
  0
VERTEX
  8
MERGEDLAYER-2
 10
0.431158
 20
0.647576
 30
0.000000
  0
VERTEX
  8
MERGEDLAYER-2
 10
0.434082
 20
0.646551
 30
0.000000
  0
VERTEX
  8
MERGEDLAYER-2
 10
0.436686
 20
0.645683
 30
0.000000
  0
VERTEX
  8
MERGEDLAYER-2
 10
0.438422
 20
0.644815
 30
0.000000
  0
VERTEX
  8
MERGEDLAYER-2
 10
0.444348
 20
0.641008
 30
0.000000
  0
VERTEX
  8
MERGEDLAYER-2
 10
0.447103
 20
0.639173
 30
0.000000
  0
VERTEX
  8
MERGEDLAYER-2
 10
0.449273
 20
0.637437
 30
0.000000
  0
VERTEX
  8
MERGEDLAYER-2
 10
0.451877
 20
0.634832
 30
0.000000
  0
VERTEX
  8
MERGEDLAYER-2
 10
0.454047
 20
0.633097
 30
0.000000
  0
VERTEX
  8
MERGEDLAYER-2
 10
0.455783
 20
0.631361
 30
0.000000
  0
VERTEX
  8
MERGEDLAYER-2
 10
0.457520
 20
0.629190
 30
0.000000
  0
VERTEX
  8
MERGEDLAYER-2
 10
0.460124
 20
0.626587
 30
0.000000
  0
VERTEX
  8
MERGEDLAYER-2
 10
0.463162
 20
0.622681
 30
0.000000
  0
VERTEX
  8
MERGEDLAYER-2
 10
0.465332
 20
0.619642
 30
0.000000
  0
VERTEX
  8
MERGEDLAYER-2
 10
0.466980
 20
0.617065
 30
0.000000
  0
VERTEX
  8
MERGEDLAYER-2
 10
0.469238
 20
0.613999
 30
0.000000
  0
VERTEX
  8
MERGEDLAYER-2
 10
0.471408
 20
0.610093
 30
0.000000
  0
VERTEX
  8
MERGEDLAYER-2
 10
0.472710
 20
0.607056
 30
0.000000
  0
VERTEX
  8
MERGEDLAYER-2
 10
0.474447
 20
0.602714
 30
0.000000
  0
VERTEX
  8
MERGEDLAYER-2
 10
0.475749
 20
0.599676
 30
0.000000
  0
VERTEX
  8
MERGEDLAYER-2
 10
0.477485
 20
0.594902
 30
0.000000
  0
VERTEX
  8
MERGEDLAYER-2
 10
0.478353
 20
0.591431
 30
0.000000
  0
VERTEX
  8
MERGEDLAYER-2
 10
0.479133
 20
0.586441
 30
0.000000
  0
VERTEX
  8
MERGEDLAYER-2
 10
0.480523
 20
0.581881
 30
0.000000
  0
VERTEX
  8
MERGEDLAYER-2
 10
0.481391
 20
0.577541
 30
0.000000
  0
VERTEX
  8
MERGEDLAYER-2
 10
0.482259
 20
0.572767
 30
0.000000
  0
VERTEX
  8
MERGEDLAYER-2
 10
0.482693
 20
0.569295
 30
0.000000
  0
VERTEX
  8
MERGEDLAYER-2
 10
0.483127
 20
0.564520
 30
0.000000
  0
VERTEX
  8
MERGEDLAYER-2
 10
0.483127
 20
0.558444
 30
0.000000
  0
VERTEX
  8
MERGEDLAYER-2
 10
0.482994
 20
0.554694
 30
0.000000
  0
VERTEX
  8
MERGEDLAYER-2
 10
0.482693
 20
0.548895
 30
0.000000
  0
VERTEX
  8
MERGEDLAYER-2
 10
0.481825
 20
0.543687
 30
0.000000
  0
VERTEX
  8
MERGEDLAYER-2
 10
0.481391
 20
0.538479
 30
0.000000
  0
VERTEX
  8
MERGEDLAYER-2
 10
0.480523
 20
0.534573
 30
0.000000
  0
VERTEX
  8
MERGEDLAYER-2
 10
0.479655
 20
0.530666
 30
0.000000
  0
VERTEX
  8
MERGEDLAYER-2
 10
0.478353
 20
0.526326
 30
0.000000
  0
VERTEX
  8
MERGEDLAYER-2
 10
0.477157
 20
0.523251
 30
0.000000
  0
VERTEX
  8
MERGEDLAYER-2
 10
0.475315
 20
0.518948
 30
0.000000
  0
VERTEX
  8
MERGEDLAYER-2
 10
0.473579
 20
0.515909
 30
0.000000
  0
VERTEX
  8
MERGEDLAYER-2
 10
0.471408
 20
0.512871
 30
0.000000
  0
VERTEX
  8
MERGEDLAYER-2
 10
0.468194
 20
0.510255
 30
0.000000
  0
VERTEX
  8
MERGEDLAYER-2
 10
0.465766
 20
0.507663
 30
0.000000
  0
VERTEX
  8
MERGEDLAYER-2
 10
0.461860
 20
0.505493
 30
0.000000
  0
VERTEX
  8
MERGEDLAYER-2
 10
0.457954
 20
0.503323
 30
0.000000
  0
VERTEX
  8
MERGEDLAYER-2
 10
0.454309
 20
0.502744
 30
0.000000
  0
VERTEX
  8
MERGEDLAYER-2
 10
0.132670
 20
0.416562
 30
0.000000
  0
SEQEND
  8
MERGEDLAYER-2
  0
POLYLINE
  8
MERGEDLAYER-2
 66
  1
 70
  0
 62
  7
 10
0.153207
 20
0.501403
 30
0.000000
  0
VERTEX
  8
MERGEDLAYER-2
 10
0.153207
 20
0.501403
 30
0.000000
  0
VERTEX
  8
MERGEDLAYER-2
 10
0.142628
 20
0.528166
 30
0.000000
  0
VERTEX
  8
MERGEDLAYER-2
 10
0.126996
 20
0.549108
 30
0.000000
  0
VERTEX
  8
MERGEDLAYER-2
 10
0.108691
 20
0.561038
 30
0.000000
  0
VERTEX
  8
MERGEDLAYER-2
 10
0.090501
 20
0.562144
 30
0.000000
  0
VERTEX
  8
MERGEDLAYER-2
 10
0.075194
 20
0.552254
 30
0.000000
  0
VERTEX
  8
MERGEDLAYER-2
 10
0.065102
 20
0.532875
 30
0.000000
  0
VERTEX
  8
MERGEDLAYER-2
 10
0.061759
 20
0.506957
 30
0.000000
  0
VERTEX
  8
MERGEDLAYER-2
 10
0.065676
 20
0.478446
 30
0.000000
  0
VERTEX
  8
MERGEDLAYER-2
 10
0.076256
 20
0.451682
 30
0.000000
  0
VERTEX
  8
MERGEDLAYER-2
 10
0.091888
 20
0.430742
 30
0.000000
  0
VERTEX
  8
MERGEDLAYER-2
 10
0.110192
 20
0.418810
 30
0.000000
  0
VERTEX
  8
MERGEDLAYER-2
 10
0.128383
 20
0.417705
 30
0.000000
  0
VERTEX
  8
MERGEDLAYER-2
 10
0.143689
 20
0.427596
 30
0.000000
  0
VERTEX
  8
MERGEDLAYER-2
 10
0.153782
 20
0.446974
 30
0.000000
  0
VERTEX
  8
MERGEDLAYER-2
 10
0.157124
 20
0.472893
 30
0.000000
  0
VERTEX
  8
MERGEDLAYER-2
 10
0.153207
 20
0.501403
 30
0.000000
  0
SEQEND
  8
MERGEDLAYER-2
  0
POLYLINE
  8
MERGEDLAYER-2
 66
  1
 70
  0
 62
  7
 10
0.139634
 20
0.496353
 30
0.000000
  0
VERTEX
  8
MERGEDLAYER-2
 10
0.139634
 20
0.496353
 30
0.000000
  0
VERTEX
  8
MERGEDLAYER-2
 10
0.129928
 20
0.520907
 30
0.000000
  0
VERTEX
  8
MERGEDLAYER-2
 10
0.115586
 20
0.540119
 30
0.000000
  0
VERTEX
  8
MERGEDLAYER-2
 10
0.098793
 20
0.551065
 30
0.000000
  0
VERTEX
  8
MERGEDLAYER-2
 10
0.082105
 20
0.552080
 30
0.000000
  0
VERTEX
  8
MERGEDLAYER-2
 10
0.068062
 20
0.543005
 30
0.000000
  0
VERTEX
  8
MERGEDLAYER-2
 10
0.058803
 20
0.525226
 30
0.000000
  0
VERTEX
  8
MERGEDLAYER-2
 10
0.055737
 20
0.501449
 30
0.000000
  0
VERTEX
  8
MERGEDLAYER-2
 10
0.059330
 20
0.475292
 30
0.000000
  0
VERTEX
  8
MERGEDLAYER-2
 10
0.069036
 20
0.450739
 30
0.000000
  0
VERTEX
  8
MERGEDLAYER-2
 10
0.083378
 20
0.431526
 30
0.000000
  0
VERTEX
  8
MERGEDLAYER-2
 10
0.100171
 20
0.420581
 30
0.000000
  0
VERTEX
  8
MERGEDLAYER-2
 10
0.116859
 20
0.419567
 30
0.000000
  0
VERTEX
  8
MERGEDLAYER-2
 10
0.130901
 20
0.428640
 30
0.000000
  0
VERTEX
  8
MERGEDLAYER-2
 10
0.140161
 20
0.446419
 30
0.000000
  0
VERTEX
  8
MERGEDLAYER-2
 10
0.143227
 20
0.470197
 30
0.000000
  0
VERTEX
  8
MERGEDLAYER-2
 10
0.139634
 20
0.496353
 30
0.000000
  0
SEQEND
  8
MERGEDLAYER-2
  0
POLYLINE
  8
MERGEDLAYER-2
 66
  1
 70
  0
 62
  7
 10
5.406134
 20
2.588686
 30
0.000000
  0
VERTEX
  8
MERGEDLAYER-2
 10
5.406134
 20
2.588686
 30
0.000000
  0
VERTEX
  8
MERGEDLAYER-2
 10
5.060916
 20
2.840960
 30
0.000000
  0
SEQEND
  8
MERGEDLAYER-2
  0
POLYLINE
  8
MERGEDLAYER-2
 66
  1
 70
  1
 62
  7
  0
VERTEX
  8
MERGEDLAYER-2
 10
5.422028
 20
2.577071
 30
0.000000
  0
VERTEX
  8
MERGEDLAYER-2
 10
5.401419
 20
2.625910
 30
0.000000
  0
VERTEX
  8
MERGEDLAYER-2
 10
5.385328
 20
2.603890
 30
0.000000
  0
VERTEX
  8
MERGEDLAYER-2
 10
5.369237
 20
2.581870
 30
0.000000
  0
VERTEX
  8
MERGEDLAYER-2
 10
5.422028
 20
2.577071
 30
0.000000
  0
SEQEND
  8
MERGEDLAYER-2
  0
TEXT
  8
MERGEDLAYER-2
 62
  7
 10
5.833858
 20
7.168944
 30
0.000000
 40
0.102273
  1
espace libre de
 72
  5
 11
6.779313
 21
7.168944
 31
0.000000
  0
TEXT
  8
MERGEDLAYER-2
 62
  7
 10
5.833858
 20
7.014399
 30
0.000000
 40
0.102273
  1
2 
 72
  5
 11
5.988404
 21
7.014399
 31
0.000000
  0
TEXT
  8
MERGEDLAYER-2
 62
  7
 10
5.988404
 20
7.014399
 30
0.000000
 40
0.095455
  1
1/16
 72
  5
 11
6.288404
 21
7.014399
 31
0.000000
  0
TEXT
  8
MERGEDLAYER-2
 62
  7
 10
6.288404
 20
7.014399
 30
0.000000
 40
0.102273
  1
" (52mm)
 72
  5
 11
6.888404
 21
7.014399
 31
0.000000
  0
POLYLINE
  8
MERGEDLAYER-2
 66
  1
 70
  0
 62
  7
 10
5.638128
 20
6.822494
 30
0.000000
  0
VERTEX
  8
MERGEDLAYER-2
 10
5.638128
 20
6.822494
 30
0.000000
  0
VERTEX
  8
MERGEDLAYER-2
 10
6.270941
 20
6.822494
 30
0.000000
  0
SEQEND
  8
MERGEDLAYER-2
  0
POLYLINE
  8
MERGEDLAYER-2
 66
  1
 70
  0
 62
  7
 10
5.638128
 20
6.692807
 30
0.000000
  0
VERTEX
  8
MERGEDLAYER-2
 10
5.638128
 20
6.692807
 30
0.000000
  0
VERTEX
  8
MERGEDLAYER-2
 10
6.270941
 20
6.692807
 30
0.000000
  0
SEQEND
  8
MERGEDLAYER-2
  0
POLYLINE
  8
MERGEDLAYER-2
 66
  1
 70
  0
 62
  7
 10
6.152191
 20
6.967807
 30
0.000000
  0
VERTEX
  8
MERGEDLAYER-2
 10
6.152191
 20
6.967807
 30
0.000000
  0
VERTEX
  8
MERGEDLAYER-2
 10
6.152191
 20
6.842180
 30
0.000000
  0
SEQEND
  8
MERGEDLAYER-2
  0
POLYLINE
  8
MERGEDLAYER-2
 66
  1
 70
  1
 62
  7
  0
VERTEX
  8
MERGEDLAYER-2
 10
6.152191
 20
6.822494
 30
0.000000
  0
VERTEX
  8
MERGEDLAYER-2
 10
6.124918
 20
6.867949
 30
0.000000
  0
VERTEX
  8
MERGEDLAYER-2
 10
6.152191
 20
6.867949
 30
0.000000
  0
VERTEX
  8
MERGEDLAYER-2
 10
6.179463
 20
6.867949
 30
0.000000
  0
VERTEX
  8
MERGEDLAYER-2
 10
6.152191
 20
6.822494
 30
0.000000
  0
SEQEND
  8
MERGEDLAYER-2
  0
POLYLINE
  8
MERGEDLAYER-2
 66
  1
 70
  0
 62
  7
 10
6.152191
 20
6.547494
 30
0.000000
  0
VERTEX
  8
MERGEDLAYER-2
 10
6.152191
 20
6.547494
 30
0.000000
  0
VERTEX
  8
MERGEDLAYER-2
 10
6.152191
 20
6.673122
 30
0.000000
  0
SEQEND
  8
MERGEDLAYER-2
  0
POLYLINE
  8
MERGEDLAYER-2
 66
  1
 70
  1
 62
  7
  0
VERTEX
  8
MERGEDLAYER-2
 10
6.152191
 20
6.692807
 30
0.000000
  0
VERTEX
  8
MERGEDLAYER-2
 10
6.179463
 20
6.647353
 30
0.000000
  0
VERTEX
  8
MERGEDLAYER-2
 10
6.152191
 20
6.647353
 30
0.000000
  0
VERTEX
  8
MERGEDLAYER-2
 10
6.124918
 20
6.647353
 30
0.000000
  0
VERTEX
  8
MERGEDLAYER-2
 10
6.152191
 20
6.692807
 30
0.000000
  0
SEQEND
  8
MERGEDLAYER-2
  0
POLYLINE
  8
MERGEDLAYER-2
 66
  1
 70
  0
 62
  7
 10
3.684213
 20
5.032611
 30
0.000000
  0
VERTEX
  8
MERGEDLAYER-2
 10
3.684213
 20
5.032611
 30
0.000000
  0
VERTEX
  8
MERGEDLAYER-2
 10
3.677604
 20
5.074964
 30
0.000000
  0
VERTEX
  8
MERGEDLAYER-2
 10
3.658029
 20
5.115689
 30
0.000000
  0
VERTEX
  8
MERGEDLAYER-2
 10
3.626241
 20
5.153222
 30
0.000000
  0
VERTEX
  8
MERGEDLAYER-2
 10
3.583461
 20
5.186120
 30
0.000000
  0
VERTEX
  8
MERGEDLAYER-2
 10
3.531334
 20
5.213119
 30
0.000000
  0
VERTEX
  8
MERGEDLAYER-2
 10
3.471863
 20
5.233181
 30
0.000000
  0
VERTEX
  8
MERGEDLAYER-2
 10
3.407333
 20
5.245534
 30
0.000000
  0
VERTEX
  8
MERGEDLAYER-2
 10
3.340224
 20
5.249706
 30
0.000000
  0
VERTEX
  8
MERGEDLAYER-2
 10
3.273114
 20
5.245534
 30
0.000000
  0
VERTEX
  8
MERGEDLAYER-2
 10
3.208584
 20
5.233181
 30
0.000000
  0
VERTEX
  8
MERGEDLAYER-2
 10
3.149113
 20
5.213119
 30
0.000000
  0
VERTEX
  8
MERGEDLAYER-2
 10
3.096986
 20
5.186120
 30
0.000000
  0
VERTEX
  8
MERGEDLAYER-2
 10
3.054206
 20
5.153222
 30
0.000000
  0
VERTEX
  8
MERGEDLAYER-2
 10
3.022418
 20
5.115689
 30
0.000000
  0
VERTEX
  8
MERGEDLAYER-2
 10
3.002843
 20
5.074964
 30
0.000000
  0
VERTEX
  8
MERGEDLAYER-2
 10
2.996233
 20
5.032611
 30
0.000000
  0
VERTEX
  8
MERGEDLAYER-2
 10
3.002843
 20
4.990258
 30
0.000000
  0
VERTEX
  8
MERGEDLAYER-2
 10
3.022418
 20
4.949533
 30
0.000000
  0
VERTEX
  8
MERGEDLAYER-2
 10
3.054206
 20
4.912000
 30
0.000000
  0
VERTEX
  8
MERGEDLAYER-2
 10
3.096986
 20
4.879102
 30
0.000000
  0
VERTEX
  8
MERGEDLAYER-2
 10
3.149113
 20
4.852103
 30
0.000000
  0
VERTEX
  8
MERGEDLAYER-2
 10
3.208584
 20
4.832041
 30
0.000000
  0
VERTEX
  8
MERGEDLAYER-2
 10
3.273114
 20
4.819688
 30
0.000000
  0
VERTEX
  8
MERGEDLAYER-2
 10
3.340224
 20
4.815516
 30
0.000000
  0
VERTEX
  8
MERGEDLAYER-2
 10
3.407333
 20
4.819688
 30
0.000000
  0
VERTEX
  8
MERGEDLAYER-2
 10
3.471863
 20
4.832041
 30
0.000000
  0
VERTEX
  8
MERGEDLAYER-2
 10
3.531334
 20
4.852103
 30
0.000000
  0
VERTEX
  8
MERGEDLAYER-2
 10
3.583461
 20
4.879102
 30
0.000000
  0
VERTEX
  8
MERGEDLAYER-2
 10
3.626241
 20
4.912000
 30
0.000000
  0
VERTEX
  8
MERGEDLAYER-2
 10
3.658029
 20
4.949533
 30
0.000000
  0
VERTEX
  8
MERGEDLAYER-2
 10
3.677604
 20
4.990258
 30
0.000000
  0
VERTEX
  8
MERGEDLAYER-2
 10
3.684213
 20
5.032611
 30
0.000000
  0
SEQEND
  8
MERGEDLAYER-2
  0
POLYLINE
  8
MERGEDLAYER-2
 66
  1
 70
  1
 62
  7
  0
VERTEX
  8
MERGEDLAYER-2
 10
1.566332
 20
8.360460
 30
0.000000
  0
VERTEX
  8
MERGEDLAYER-2
 10
1.706632
 20
8.360460
 30
0.000000
  0
VERTEX
  8
MERGEDLAYER-2
 10
1.706632
 20
4.200859
 30
0.000000
  0
VERTEX
  8
MERGEDLAYER-2
 10
1.566332
 20
4.200859
 30
0.000000
  0
SEQEND
  8
MERGEDLAYER-2
  0
POLYLINE
  8
MERGEDLAYER-2
 66
  1
 70
  0
 62
252
 10
1.620225
 20
8.360691
 30
0.000000
  0
VERTEX
  8
MERGEDLAYER-2
 10
1.620225
 20
8.360691
 30
0.000000
  0
VERTEX
  8
MERGEDLAYER-2
 10
1.620225
 20
4.201085
 30
0.000000
  0
SEQEND
  8
MERGEDLAYER-2
  0
POLYLINE
  8
MERGEDLAYER-2
 66
  1
 70
  0
 62
252
 10
1.675224
 20
8.360518
 30
0.000000
  0
VERTEX
  8
MERGEDLAYER-2
 10
1.675224
 20
8.360518
 30
0.000000
  0
VERTEX
  8
MERGEDLAYER-2
 10
1.675224
 20
4.201085
 30
0.000000
  0
SEQEND
  8
MERGEDLAYER-2
  0
POLYLINE
  8
MERGEDLAYER-2
 66
  1
 70
  1
 62
  7
  0
VERTEX
  8
MERGEDLAYER-2
 10
5.439630
 20
8.360460
 30
0.000000
  0
VERTEX
  8
MERGEDLAYER-2
 10
5.579929
 20
8.360460
 30
0.000000
  0
VERTEX
  8
MERGEDLAYER-2
 10
5.579929
 20
4.200859
 30
0.000000
  0
VERTEX
  8
MERGEDLAYER-2
 10
5.439630
 20
4.200859
 30
0.000000
  0
SEQEND
  8
MERGEDLAYER-2
  0
POLYLINE
  8
MERGEDLAYER-2
 66
  1
 70
  0
 62
252
 10
5.526037
 20
8.360691
 30
0.000000
  0
VERTEX
  8
MERGEDLAYER-2
 10
5.526037
 20
8.360691
 30
0.000000
  0
VERTEX
  8
MERGEDLAYER-2
 10
5.526037
 20
4.201085
 30
0.000000
  0
SEQEND
  8
MERGEDLAYER-2
  0
POLYLINE
  8
MERGEDLAYER-2
 66
  1
 70
  0
 62
252
 10
5.471037
 20
8.360518
 30
0.000000
  0
VERTEX
  8
MERGEDLAYER-2
 10
5.471037
 20
8.360518
 30
0.000000
  0
VERTEX
  8
MERGEDLAYER-2
 10
5.471037
 20
4.201085
 30
0.000000
  0
SEQEND
  8
MERGEDLAYER-2
  0
POLYLINE
  8
MERGEDLAYER-2
 66
  1
 70
  0
 62
  7
 40
0.018182
 41
0.018182
 10
0.714295
 20
4.200859
 30
0.000000
  0
VERTEX
  8
MERGEDLAYER-2
 10
0.714295
 20
4.200859
 30
0.000000
  0
VERTEX
  8
MERGEDLAYER-2
 10
6.448906
 20
4.200859
 30
0.000000
  0
SEQEND
  8
MERGEDLAYER-2
  0
ENDSEC
  0
EOF
