  0
SECTION
  2
HEADER
999
MacDraft 5.0\0
  9
$ACADVER
  1
AC1006
  9
$CLAYER
  8
LAYER-1
  9
$EXTMIN
 10
0.000000
 20
0.000000
  9
$EXTMAX
 10
7.052641
 20
9.973081
  9
$FASTZOOM
 70
0
  9
$FILLMODE
 70
1
  0
ENDSEC
  0
SECTION
  2
TABLES
  0
TABLE
  2
LTYPE
 70
16
  0
LTYPE
  2
CONTINUOUS
 70
64
  3
Solid Line
 72
65
 73
0
 40
0.000000
  0
LTYPE
  2
LTYPE01
 70
64
  3
CUSTOM
 72
65
 73
2
 40
0.072727
 49
0.054545
 49
-0.018182
  0
LTYPE
  2
LTYPE02
 70
64
  3
CUSTOM
 72
65
 73
2
 40
0.127273
 49
0.109091
 49
-0.018182
  0
LTYPE
  2
LTYPE03
 70
64
  3
CUSTOM
 72
65
 73
2
 40
0.245455
 49
0.218182
 49
-0.027273
  0
LTYPE
  2
LTYPE04
 70
64
  3
CUSTOM
 72
65
 73
2
 40
0.472727
 49
0.436364
 49
-0.036364
  0
LTYPE
  2
LTYPE05
 70
64
  3
CUSTOM
 72
65
 73
4
 40
0.100000
 49
0.054545
 49
-0.018182
 49
0.009091
 49
-0.018182
  0
LTYPE
  2
LTYPE06
 70
64
  3
CUSTOM
 72
65
 73
4
 40
0.154545
 49
0.109091
 49
-0.018182
 49
0.009091
 49
-0.018182
  0
LTYPE
  2
LTYPE07
 70
64
  3
CUSTOM
 72
65
 73
4
 40
0.290909
 49
0.218182
 49
-0.027273
 49
0.018182
 49
-0.027273
  0
LTYPE
  2
LTYPE08
 70
64
  3
CUSTOM
 72
65
 73
4
 40
0.527273
 49
0.436364
 49
-0.036364
 49
0.018182
 49
-0.036364
  0
LTYPE
  2
LTYPE09
 70
64
  3
CUSTOM
 72
65
 73
6
 40
0.127273
 49
0.054545
 49
-0.018182
 49
0.009091
 49
-0.018182
 49
0.009091
 49
-0.018182
  0
LTYPE
  2
LTYPE10
 70
64
  3
CUSTOM
 72
65
 73
6
 40
0.181818
 49
0.109091
 49
-0.018182
 49
0.009091
 49
-0.018182
 49
0.009091
 49
-0.018182
  0
LTYPE
  2
LTYPE11
 70
64
  3
CUSTOM
 72
65
 73
6
 40
0.327273
 49
0.218182
 49
-0.027273
 49
0.018182
 49
-0.018182
 49
0.018182
 49
-0.027273
  0
LTYPE
  2
LTYPE12
 70
64
  3
CUSTOM
 72
65
 73
6
 40
0.563636
 49
0.436364
 49
-0.036364
 49
0.018182
 49
-0.018182
 49
0.018182
 49
-0.036364
  0
LTYPE
  2
LTYPE13
 70
64
  3
CUSTOM
 72
65
 73
8
 40
0.209091
 49
0.109091
 49
-0.018182
 49
0.009091
 49
-0.018182
 49
0.009091
 49
-0.018182
 49
0.009091
 49
-0.018182
  0
LTYPE
  2
LTYPE14
 70
64
  3
CUSTOM
 72
65
 73
8
 40
0.363636
 49
0.218182
 49
-0.027273
 49
0.018182
 49
-0.018182
 49
0.018182
 49
-0.018182
 49
0.018182
 49
-0.027273
  0
LTYPE
  2
LTYPE15
 70
64
  3
CUSTOM
 72
65
 73
8
 40
0.618182
 49
0.436364
 49
-0.036364
 49
0.018182
 49
-0.027273
 49
0.018182
 49
-0.027273
 49
0.018182
 49
-0.036364
  0
ENDTAB
  0
TABLE
  2
LAYER
 70
1
  0
LAYER
  2
LAYER-1
 70
0
 62
7
  6
CONTINUOUS
  0
ENDTAB
  0
ENDSEC
  0
SECTION
  2
BLOCKS
  0
ENDSEC
  0
SECTION
  2
ENTITIES
  0
POLYLINE
  8
LAYER-1
 66
  1
 70
  1
 62
255
  0
VERTEX
  8
LAYER-1
 10
2.576389
 20
3.250627
 30
0.000000
  0
VERTEX
  8
LAYER-1
 10
3.222501
 20
3.250627
 30
0.000000
  0
VERTEX
  8
LAYER-1
 10
3.222501
 20
1.800908
 30
0.000000
  0
VERTEX
  8
LAYER-1
 10
2.576389
 20
1.800908
 30
0.000000
  0
SEQEND
  8
LAYER-1
  0
POLYLINE
  8
LAYER-1
 66
  1
 70
  1
 62
255
  0
VERTEX
  8
LAYER-1
 10
5.756945
 20
4.120905
 30
0.000000
  0
VERTEX
  8
LAYER-1
 10
7.034725
 20
4.120905
 30
0.000000
  0
VERTEX
  8
LAYER-1
 10
7.034725
 20
3.833961
 30
0.000000
  0
VERTEX
  8
LAYER-1
 10
5.756945
 20
3.833961
 30
0.000000
  0
SEQEND
  8
LAYER-1
  0
POLYLINE
  8
LAYER-1
 66
  1
 70
  1
 62
255
  0
VERTEX
  8
LAYER-1
 10
0.034722
 20
5.271462
 30
0.000000
  0
VERTEX
  8
LAYER-1
 10
7.034725
 20
5.271462
 30
0.000000
  0
VERTEX
  8
LAYER-1
 10
7.034725
 20
4.994794
 30
0.000000
  0
VERTEX
  8
LAYER-1
 10
0.034722
 20
4.994794
 30
0.000000
  0
SEQEND
  8
LAYER-1
  0
POLYLINE
  8
LAYER-1
 66
  1
 70
  1
 62
255
  0
VERTEX
  8
LAYER-1
 10
3.847222
 20
8.139515
 30
0.000000
  0
VERTEX
  8
LAYER-1
 10
7.035000
 20
8.139515
 30
0.000000
  0
VERTEX
  8
LAYER-1
 10
7.035000
 20
7.849516
 30
0.000000
  0
VERTEX
  8
LAYER-1
 10
3.847222
 20
7.849516
 30
0.000000
  0
SEQEND
  8
LAYER-1
  0
POLYLINE
  8
LAYER-1
 66
  1
 70
  1
 62
255
  0
VERTEX
  8
LAYER-1
 10
0.034722
 20
8.139515
 30
0.000000
  0
VERTEX
  8
LAYER-1
 10
3.222500
 20
8.139515
 30
0.000000
  0
VERTEX
  8
LAYER-1
 10
3.222500
 20
7.849516
 30
0.000000
  0
VERTEX
  8
LAYER-1
 10
0.034722
 20
7.849516
 30
0.000000
  0
SEQEND
  8
LAYER-1
  0
ARC
  8
LAYER-1
 62
  7
 10
5.236335
 20
8.914689
 30
0.000000
 40
0.254425
 50
270.000000
 51
90.000000
  0
POLYLINE
  8
LAYER-1
 66
  1
 70
  0
 62
  7
 10
5.236335
 20
9.169115
 30
0.000000
  0
VERTEX
  8
LAYER-1
 10
5.236335
 20
9.169115
 30
0.000000
  0
VERTEX
  8
LAYER-1
 10
1.571413
 20
9.169115
 30
0.000000
  0
SEQEND
  8
LAYER-1
  0
POLYLINE
  8
LAYER-1
 66
  1
 70
  0
 62
  7
 10
1.571413
 20
9.169115
 30
0.000000
  0
VERTEX
  8
LAYER-1
 10
1.571413
 20
9.169115
 30
0.000000
  0
VERTEX
  8
LAYER-1
 10
1.571413
 20
8.660265
 30
0.000000
  0
SEQEND
  8
LAYER-1
  0
POLYLINE
  8
LAYER-1
 66
  1
 70
  0
 62
  7
 10
5.236335
 20
8.660265
 30
0.000000
  0
VERTEX
  8
LAYER-1
 10
5.236335
 20
8.660265
 30
0.000000
  0
VERTEX
  8
LAYER-1
 10
1.571413
 20
8.660265
 30
0.000000
  0
SEQEND
  8
LAYER-1
  0
TEXT
  8
LAYER-1
 62
  7
 10
3.585227
 20
9.254794
 30
0.000000
 40
0.327273
  1
MobilFlex
 72
  5
 11
6.785227
 21
9.254794
 31
0.000000
  0
POLYLINE
  8
LAYER-1
 66
  1
 70
  1
 62
  7
  0
VERTEX
  8
LAYER-1
 10
1.572917
 20
9.971990
 30
0.000000
  0
VERTEX
  8
LAYER-1
 10
1.810764
 20
9.971990
 30
0.000000
  0
VERTEX
  8
LAYER-1
 10
1.810764
 20
9.455045
 30
0.000000
  0
VERTEX
  8
LAYER-1
 10
1.572917
 20
9.455045
 30
0.000000
  0
SEQEND
  8
LAYER-1
  0
POLYLINE
  8
LAYER-1
 66
  1
 70
  1
 62
  7
  0
VERTEX
  8
LAYER-1
 10
1.885416
 20
9.971990
 30
0.000000
  0
VERTEX
  8
LAYER-1
 10
2.123264
 20
9.971990
 30
0.000000
  0
VERTEX
  8
LAYER-1
 10
2.123264
 20
9.455045
 30
0.000000
  0
VERTEX
  8
LAYER-1
 10
1.885416
 20
9.455045
 30
0.000000
  0
SEQEND
  8
LAYER-1
  0
POLYLINE
  8
LAYER-1
 66
  1
 70
  1
 62
  7
  0
VERTEX
  8
LAYER-1
 10
2.185764
 20
9.971990
 30
0.000000
  0
VERTEX
  8
LAYER-1
 10
2.423611
 20
9.971990
 30
0.000000
  0
VERTEX
  8
LAYER-1
 10
2.423611
 20
9.455045
 30
0.000000
  0
VERTEX
  8
LAYER-1
 10
2.185764
 20
9.455045
 30
0.000000
  0
SEQEND
  8
LAYER-1
  0
POLYLINE
  8
LAYER-1
 66
  1
 70
  1
 62
  7
  0
VERTEX
  8
LAYER-1
 10
2.489584
 20
9.971990
 30
0.000000
  0
VERTEX
  8
LAYER-1
 10
2.727431
 20
9.971990
 30
0.000000
  0
VERTEX
  8
LAYER-1
 10
2.727431
 20
9.455045
 30
0.000000
  0
VERTEX
  8
LAYER-1
 10
2.489584
 20
9.455045
 30
0.000000
  0
SEQEND
  8
LAYER-1
  0
POLYLINE
  8
LAYER-1
 66
  1
 70
  1
 62
  7
  0
VERTEX
  8
LAYER-1
 10
2.806424
 20
9.968075
 30
0.000000
  0
VERTEX
  8
LAYER-1
 10
3.181858
 20
9.968075
 30
0.000000
  0
VERTEX
  8
LAYER-1
 10
3.181858
 20
9.830054
 30
0.000000
  0
VERTEX
  8
LAYER-1
 10
2.806424
 20
9.830054
 30
0.000000
  0
SEQEND
  8
LAYER-1
  0
POLYLINE
  8
LAYER-1
 66
  1
 70
  1
 62
  7
  0
VERTEX
  8
LAYER-1
 10
2.805990
 20
9.740645
 30
0.000000
  0
VERTEX
  8
LAYER-1
 10
3.114149
 20
9.740645
 30
0.000000
  0
VERTEX
  8
LAYER-1
 10
3.114149
 20
9.606530
 30
0.000000
  0
VERTEX
  8
LAYER-1
 10
2.805990
 20
9.606530
 30
0.000000
  0
SEQEND
  8
LAYER-1
  0
POLYLINE
  8
LAYER-1
 66
  1
 70
  1
 62
  7
  0
VERTEX
  8
LAYER-1
 10
1.572917
 20
9.370419
 30
0.000000
  0
VERTEX
  8
LAYER-1
 10
5.491320
 20
9.370419
 30
0.000000
  0
VERTEX
  8
LAYER-1
 10
5.491320
 20
9.327016
 30
0.000000
  0
VERTEX
  8
LAYER-1
 10
1.572917
 20
9.327016
 30
0.000000
  0
SEQEND
  8
LAYER-1
  0
TEXT
  8
LAYER-1
 62
  7
 10
1.976136
 20
8.591158
 30
0.000000
 40
0.184091
  1
Calcul du poids 
 72
  5
 11
4.685227
 21
8.591158
 31
0.000000
  0
TEXT
  8
LAYER-1
 62
  7
 10
4.685227
 20
8.591158
 30
0.000000
 40
0.102273
  1
(PORTE ROULANTE)
 72
  5
 11
6.694318
 21
8.591158
 31
0.000000
  0
TEXT
  8
LAYER-1
 62
  7
 10
0.248864
 20
8.045703
 30
0.000000
 40
0.122727
  1
POIDS DU RIDEAU SEULEMENT:
 72
  5
 11
4.221591
 21
8.045703
 31
0.000000
  0
TEXT
  8
LAYER-1
 62
 19
 10
0.248864
 20
5.163885
 30
0.000000
 40
0.122727
  1
INCLURE TOUS LES âLâMENTS NâCESSAIRES
 72
  5
 11
6.003409
 21
5.163885
 31
0.000000
  0
TEXT
  8
LAYER-1
 62
  7
 10
6.003409
 20
5.163885
 30
0.000000
 40
0.122727
  1
:
 72
  5
 11
6.139773
 21
5.163885
 31
0.000000
  0
TEXT
  8
LAYER-1
 62
  7
 10
2.639773
 20
1.018430
 30
0.000000
 40
0.122727
  1
Rideau sera de 14' x 11' 6"
 72
  5
 11
5.630682
 21
1.018430
 31
0.000000
  0
TEXT
  8
LAYER-1
 62
  7
 10
2.639773
 20
0.727521
 30
0.000000
 40
0.122727
  1
+ Baril 6 
 72
  5
 11
3.676136
 21
0.727521
 31
0.000000
  0
TEXT
  8
LAYER-1
 62
  7
 10
3.676136
 20
0.727521
 30
0.000000
 40
0.102273
  1
5/8
 72
  5
 11
3.994318
 21
0.727521
 31
0.000000
  0
TEXT
  8
LAYER-1
 62
  7
 10
3.994318
 20
0.727521
 30
0.000000
 40
0.122727
  1
"
 72
  5
 11
4.130682
 21
0.727521
 31
0.000000
  0
TEXT
  8
LAYER-1
 62
  7
 10
2.639773
 20
0.436612
 30
0.000000
 40
0.122727
  1
+ Barre du bas
 72
  5
 11
4.321591
 21
0.436612
 31
0.000000
  0
TEXT
  8
LAYER-1
 62
  7
 10
2.639773
 20
0.145703
 30
0.000000
 40
0.122727
  1
+ Plaque d'extrÄmitÄ
 72
  5
 11
4.912500
 21
0.145703
 31
0.000000
  0
TEXT
  8
LAYER-1
 62
  7
 10
2.639773
 20
-0.145206
 30
0.000000
 40
0.122727
  1
+ Tube supports en acier 
 72
  5
 11
5.512500
 21
-0.145206
 31
0.000000
  0
TEXT
  8
LAYER-1
 62
  7
 10
2.639773
 20
-0.436115
 30
0.000000
 40
0.122727
  1
   3" x 3" x 20'
 72
  5
 11
4.185227
 21
-0.436115
 31
0.000000
  0
TEXT
  8
LAYER-1
 62
  7
 10
0.276136
 20
1.218430
 30
0.000000
 40
0.122727
  1
Example
 72
  5
 11
1.357955
 21
1.218430
 31
0.000000
  0
TEXT
  8
LAYER-1
 62
  7
 10
1.357955
 20
1.218430
 30
0.000000
 40
0.122727
  1
:
 72
  5
 11
1.476136
 21
1.218430
 31
0.000000
  0
TEXT
  8
LAYER-1
 62
  7
 10
0.276136
 20
0.927521
 30
0.000000
 40
0.122727
  1
C
 72
  5
 11
0.503409
 21
0.927521
 31
0.000000
  0
TEXT
  8
LAYER-1
 62
 19
 10
0.503409
 20
0.927521
 30
0.000000
 40
0.122727
  1
alcul du poids total
 72
  5
 11
2.612500
 21
0.927521
 31
0.000000
  0
TEXT
  8
LAYER-1
 62
  7
 10
2.612500
 20
0.927521
 30
0.000000
 40
0.122727
  1
 
 72
  5
 11
2.730682
 21
0.927521
 31
0.000000
  0
TEXT
  8
LAYER-1
 62
 19
 10
2.730682
 20
0.927521
 30
0.000000
 40
0.122727
  1
d'une 
 72
  5
 11
3.439773
 21
0.927521
 31
0.000000
  0
TEXT
  8
LAYER-1
 62
 19
 10
0.276136
 20
0.636612
 30
0.000000
 40
0.122727
  1
fermeture 
 72
  5
 11
1.439773
 21
0.636612
 31
0.000000
  0
TEXT
  8
LAYER-1
 62
  7
 10
1.439773
 20
0.636612
 30
0.000000
 40
0.122727
  1
Roll-Vision
 72
  5
 11
2.803409
 21
0.636612
 31
0.000000
  0
TEXT
  8
LAYER-1
 62
  7
 10
2.803409
 20
0.636612
 30
0.000000
 40
0.122727
  1
 
 72
  5
 11
2.921591
 21
0.636612
 31
0.000000
  0
TEXT
  8
LAYER-1
 62
  7
 10
2.921591
 20
0.636612
 30
0.000000
 40
0.122727
  1
pour 
 72
  5
 11
3.530682
 21
0.636612
 31
0.000000
  0
TEXT
  8
LAYER-1
 62
  7
 10
0.276136
 20
0.345703
 30
0.000000
 40
0.122727
  1
une ouverture de 14' x 10': 
 72
  5
 11
3.294318
 21
0.345703
 31
0.000000
  0
TEXT
  8
LAYER-1
 62
  7
 10
0.276136
 20
0.054794
 30
0.000000
 40
0.122727
  1
   Ajouter 1' 6" ê la hauteur
 72
  5
 11
3.257955
 21
0.054794
 31
0.000000
  0
TEXT
  8
LAYER-1
 62
  7
 10
0.276136
 20
-0.236115
 30
0.000000
 40
0.122727
  1
   de l'ouverture pour inclure
 72
  5
 11
3.385227
 21
-0.236115
 31
0.000000
  0
TEXT
  8
LAYER-1
 62
  7
 10
0.276136
 20
-0.527024
 30
0.000000
 40
0.122727
  1
   la partie du rideau qui
 72
  5
 11
2.921591
 21
-0.527024
 31
0.000000
  0
TEXT
  8
LAYER-1
 62
  7
 10
0.276136
 20
-0.817933
 30
0.000000
 40
0.122727
  1
   s'enroule autour du baril.
 72
  5
 11
3.257955
 21
-0.817933
 31
0.000000
  0
TEXT
  8
LAYER-1
 62
  7
 10
6.303409
 20
1.018430
 30
0.000000
 40
0.122727
  1
= 177 lb
 72
  5
 11
7.239773
 21
1.018430
 31
0.000000
  0
TEXT
  8
LAYER-1
 62
  7
 10
6.303409
 20
0.727521
 30
0.000000
 40
0.122727
  1
= 280 lb
 72
  5
 11
7.239773
 21
0.727521
 31
0.000000
  0
TEXT
  8
LAYER-1
 62
  7
 10
6.294318
 20
0.436612
 30
0.000000
 40
0.122727
  1
=   28 lb
 72
  5
 11
7.239773
 21
0.436612
 31
0.000000
  0
TEXT
  8
LAYER-1
 62
  7
 10
6.294318
 20
0.145703
 30
0.000000
 40
0.122727
  1
=   50 lb
 72
  5
 11
7.239773
 21
0.145703
 31
0.000000
  0
TEXT
  8
LAYER-1
 62
  7
 10
6.303409
 20
-0.145206
 30
0.000000
 40
0.122727
  1
= 
 72
  5
 11
6.567046
 21
-0.145206
 31
0.000000
  0
TEXT
  8
LAYER-1
 62
  7
 10
6.567046
 20
-0.145206
 30
0.000000
 40
0.122727
  1
190 lb
 72
  5
 11
7.285227
 21
-0.145206
 31
0.000000
  0
TEXT
  8
LAYER-1
 62
  7
 10
4.857955
 20
-0.727024
 30
0.000000
 40
0.122727
  1
Poids Total   = 725 lb
 72
  5
 11
7.239773
 21
-0.727024
 31
0.000000
  0
POLYLINE
  8
LAYER-1
 66
  1
 70
  0
 62
  7
 10
0.034722
 20
5.271462
 30
0.000000
  0
VERTEX
  8
LAYER-1
 10
0.034722
 20
5.271462
 30
0.000000
  0
VERTEX
  8
LAYER-1
 10
7.034725
 20
5.271462
 30
0.000000
  0
SEQEND
  8
LAYER-1
  0
POLYLINE
  8
LAYER-1
 66
  1
 70
  0
 62
  7
 10
0.034722
 20
4.410905
 30
0.000000
  0
VERTEX
  8
LAYER-1
 10
0.034722
 20
4.410905
 30
0.000000
  0
VERTEX
  8
LAYER-1
 10
7.034725
 20
4.410905
 30
0.000000
  0
SEQEND
  8
LAYER-1
  0
TEXT
  8
LAYER-1
 62
  7
 10
4.721591
 20
1.018430
 30
0.000000
 40
0.122727
  1
= 161 pi  x 1,1 lb / pi
 72
  5
 11
7.003409
 21
1.018430
 31
0.000000
  0
TEXT
  8
LAYER-1
 62
  7
 10
4.721591
 20
0.727521
 30
0.000000
 40
0.122727
  1
= 14' x 20 lb / pi.lin.
 72
  5
 11
6.894318
 21
0.727521
 31
0.000000
  0
TEXT
  8
LAYER-1
 62
  7
 10
4.721591
 20
0.436612
 30
0.000000
 40
0.122727
  1
= 14' x   2 lb / pi.lin.
 72
  5
 11
6.903409
 21
0.436612
 31
0.000000
  0
TEXT
  8
LAYER-1
 62
  7
 10
4.721591
 20
-0.145206
 30
0.000000
 40
0.122727
  1
= 2 x 20' x 4,76 lb / pi.lin.
 72
  5
 11
7.494318
 21
-0.145206
 31
0.000000
  0
POLYLINE
  8
LAYER-1
 66
  1
 70
  0
 62
  7
 10
0.034722
 20
3.250905
 30
0.000000
  0
VERTEX
  8
LAYER-1
 10
0.034722
 20
3.250905
 30
0.000000
  0
VERTEX
  8
LAYER-1
 10
7.034725
 20
3.250905
 30
0.000000
  0
SEQEND
  8
LAYER-1
  0
POLYLINE
  8
LAYER-1
 66
  1
 70
  0
 62
  7
 10
0.034722
 20
3.830905
 30
0.000000
  0
VERTEX
  8
LAYER-1
 10
0.034722
 20
3.830905
 30
0.000000
  0
VERTEX
  8
LAYER-1
 10
7.034725
 20
3.830905
 30
0.000000
  0
SEQEND
  8
LAYER-1
  0
POLYLINE
  8
LAYER-1
 66
  1
 70
  0
 62
  7
 10
7.034725
 20
5.271462
 30
0.000000
  0
VERTEX
  8
LAYER-1
 10
7.034725
 20
5.271462
 30
0.000000
  0
VERTEX
  8
LAYER-1
 10
7.034725
 20
1.800907
 30
0.000000
  0
SEQEND
  8
LAYER-1
  0
POLYLINE
  8
LAYER-1
 66
  1
 70
  0
 62
  7
 10
0.034722
 20
5.271462
 30
0.000000
  0
VERTEX
  8
LAYER-1
 10
0.034722
 20
5.271462
 30
0.000000
  0
VERTEX
  8
LAYER-1
 10
0.034722
 20
3.250905
 30
0.000000
  0
SEQEND
  8
LAYER-1
  0
TEXT
  8
LAYER-1
 62
 19
 10
0.248864
 20
2.782067
 30
0.000000
 40
0.122727
  1
INCLURE SUPPORTS
 72
  5
 11
2.857955
 21
2.782067
 31
0.000000
  0
TEXT
  8
LAYER-1
 62
  7
 10
2.857955
 20
2.782067
 30
0.000000
 40
0.122727
  1
:
 72
  5
 11
2.994318
 21
2.782067
 31
0.000000
  0
TEXT
  8
LAYER-1
 62
  7
 10
0.248864
 20
2.491158
 30
0.000000
 40
0.122727
  1
(si requis)
 72
  5
 11
1.385227
 21
2.491158
 31
0.000000
  0
POLYLINE
  8
LAYER-1
 66
  1
 70
  0
 62
  7
 10
0.034722
 20
8.139515
 30
0.000000
  0
VERTEX
  8
LAYER-1
 10
0.034722
 20
8.139515
 30
0.000000
  0
VERTEX
  8
LAYER-1
 10
0.034722
 20
5.819518
 30
0.000000
  0
SEQEND
  8
LAYER-1
  0
POLYLINE
  8
LAYER-1
 66
  1
 70
  0
 62
  7
 10
1.939722
 20
8.139515
 30
0.000000
  0
VERTEX
  8
LAYER-1
 10
1.939722
 20
8.139515
 30
0.000000
  0
VERTEX
  8
LAYER-1
 10
1.939722
 20
5.819518
 30
0.000000
  0
SEQEND
  8
LAYER-1
  0
POLYLINE
  8
LAYER-1
 66
  1
 70
  0
 62
  7
 10
2.577936
 20
8.139515
 30
0.000000
  0
VERTEX
  8
LAYER-1
 10
2.577936
 20
8.139515
 30
0.000000
  0
VERTEX
  8
LAYER-1
 10
2.577936
 20
5.819518
 30
0.000000
  0
SEQEND
  8
LAYER-1
  0
POLYLINE
  8
LAYER-1
 66
  1
 70
  0
 62
  7
 10
3.221608
 20
8.139515
 30
0.000000
  0
VERTEX
  8
LAYER-1
 10
3.221608
 20
8.139515
 30
0.000000
  0
VERTEX
  8
LAYER-1
 10
3.221608
 20
5.819518
 30
0.000000
  0
SEQEND
  8
LAYER-1
  0
TEXT
  8
LAYER-1
 62
  7
 10
2.294318
 20
6.272976
 30
0.000000
 40
0.122727
  1
0,77
 72
  5
 11
2.821591
 21
6.272976
 31
0.000000
  0
TEXT
  8
LAYER-1
 62
  7
 10
2.294318
 20
5.982067
 30
0.000000
 40
0.122727
  1
1,38
 72
  5
 11
2.821591
 21
5.982067
 31
0.000000
  0
TEXT
  8
LAYER-1
 62
  7
 10
2.294318
 20
5.691158
 30
0.000000
 40
0.122727
  1
0,87
 72
  5
 11
2.821591
 21
5.691158
 31
0.000000
  0
TEXT
  8
LAYER-1
 62
  7
 10
0.367046
 20
7.436612
 30
0.000000
 40
0.122727
  1
ROLL-VISION
 72
  5
 11
1.967046
 21
7.436612
 31
0.000000
  0
TEXT
  8
LAYER-1
 62
  7
 10
0.367046
 20
7.154794
 30
0.000000
 40
0.122727
  1
ROLL-AIR
 72
  5
 11
1.557955
 21
7.154794
 31
0.000000
  0
TEXT
  8
LAYER-1
 62
  7
 10
0.367046
 20
6.854794
 30
0.000000
 40
0.122727
  1
ROLL-FLEX
 72
  5
 11
1.748864
 21
6.854794
 31
0.000000
  0
TEXT
  8
LAYER-1
 62
  7
 10
0.367046
 20
6.563885
 30
0.000000
 40
0.122727
  1
ROLL-SHUTTER
 72
  5
 11
2.285227
 21
6.563885
 31
0.000000
  0
TEXT
  8
LAYER-1
 62
  7
 10
0.367046
 20
6.272976
 30
0.000000
 40
0.122727
  1
ROLL-126
 72
  5
 11
1.548864
 21
6.272976
 31
0.000000
  0
TEXT
  8
LAYER-1
 62
  7
 10
0.367046
 20
5.982067
 30
0.000000
 40
0.122727
  1
ROLL-GUARD
 72
  5
 11
2.030682
 21
5.982067
 31
0.000000
  0
TEXT
  8
LAYER-1
 62
  7
 10
0.367046
 20
5.691158
 30
0.000000
 40
0.122727
  1
ROLL-99
 72
  5
 11
1.412500
 21
5.691158
 31
0.000000
  0
TEXT
  8
LAYER-1
 62
  7
 10
2.939773
 20
6.272976
 30
0.000000
 40
0.122727
  1
3,76
 72
  5
 11
3.467046
 21
6.272976
 31
0.000000
  0
TEXT
  8
LAYER-1
 62
  7
 10
2.939773
 20
5.982067
 30
0.000000
 40
0.122727
  1
6,74
 72
  5
 11
3.467046
 21
5.982067
 31
0.000000
  0
TEXT
  8
LAYER-1
 62
  7
 10
2.939773
 20
5.691158
 30
0.000000
 40
0.122727
  1
4,25
 72
  5
 11
3.467046
 21
5.691158
 31
0.000000
  0
TEXT
  8
LAYER-1
 62
  7
 10
0.367046
 20
7.718430
 30
0.000000
 40
0.122727
  1
MODÚLE
 72
  5
 11
1.457955
 21
7.718430
 31
0.000000
  0
TEXT
  8
LAYER-1
 62
  7
 10
6.121591
 20
7.436612
 30
0.000000
 40
0.122727
  1
1,33
 72
  5
 11
6.648864
 21
7.436612
 31
0.000000
  0
TEXT
  8
LAYER-1
 62
  7
 10
6.121591
 20
7.154794
 30
0.000000
 40
0.122727
  1
1,52
 72
  5
 11
6.648864
 21
7.154794
 31
0.000000
  0
TEXT
  8
LAYER-1
 62
  7
 10
6.121591
 20
6.136612
 30
0.000000
 40
0.122727
  1
1,29
 72
  5
 11
6.648864
 21
6.136612
 31
0.000000
  0
TEXT
  8
LAYER-1
 62
  7
 10
6.785227
 20
7.436612
 30
0.000000
 40
0.122727
  1
6,49
 72
  5
 11
7.312500
 21
7.436612
 31
0.000000
  0
TEXT
  8
LAYER-1
 62
  7
 10
6.785227
 20
7.154794
 30
0.000000
 40
0.122727
  1
7,42
 72
  5
 11
7.312500
 21
7.154794
 31
0.000000
  0
TEXT
  8
LAYER-1
 62
  7
 10
6.785227
 20
6.136612
 30
0.000000
 40
0.122727
  1
6,30
 72
  5
 11
7.312500
 21
6.136612
 31
0.000000
  0
TEXT
  8
LAYER-1
 62
  7
 10
4.157955
 20
7.718430
 30
0.000000
 40
0.122727
  1
MODÚLE
 72
  5
 11
5.248864
 21
7.718430
 31
0.000000
  0
TEXT
  8
LAYER-1
 62
  7
 10
6.076136
 20
7.736612
 30
0.000000
 40
0.102273
  1
lb / pi
 72
  5
 11
6.594318
 21
7.736612
 31
0.000000
  0
TEXT
  8
LAYER-1
 62
  7
 10
7.112500
 20
7.800249
 30
0.000000
 40
0.061364
  1
2
 72
  5
 11
7.221591
 21
7.800249
 31
0.000000
  0
TEXT
  8
LAYER-1
 62
  7
 10
6.730682
 20
7.736612
 30
0.000000
 40
0.102273
  1
kg / m
 72
  5
 11
7.312500
 21
7.736612
 31
0.000000
  0
TEXT
  8
LAYER-1
 62
  7
 10
4.157955
 20
6.272976
 30
0.000000
 40
0.122727
  1
VOLET DE COMPTOIR
 72
  5
 11
6.812500
 21
6.272976
 31
0.000000
  0
TEXT
  8
LAYER-1
 62
  7
 10
4.157955
 20
5.982067
 30
0.000000
 40
0.122727
  1
VOLET TAMBOUR
 72
  5
 11
6.294318
 21
5.982067
 31
0.000000
  0
TEXT
  8
LAYER-1
 62
  7
 10
4.157955
 20
7.436612
 30
0.000000
 40
0.122727
  1
SLIM  ROLL-VISION
 72
  5
 11
6.485227
 21
7.436612
 31
0.000000
  0
TEXT
  8
LAYER-1
 62
  7
 10
4.157955
 20
7.154794
 30
0.000000
 40
0.122727
  1
SLIM  ROLL-AIR
 72
  5
 11
6.076136
 21
7.154794
 31
0.000000
  0
POLYLINE
  8
LAYER-1
 66
  1
 70
  0
 62
  7
 10
0.034722
 20
8.139515
 30
0.000000
  0
VERTEX
  8
LAYER-1
 10
0.034722
 20
8.139515
 30
0.000000
  0
VERTEX
  8
LAYER-1
 10
3.222500
 20
8.139515
 30
0.000000
  0
SEQEND
  8
LAYER-1
  0
POLYLINE
  8
LAYER-1
 66
  1
 70
  0
 62
  7
 10
0.034722
 20
7.849516
 30
0.000000
  0
VERTEX
  8
LAYER-1
 10
0.034722
 20
7.849516
 30
0.000000
  0
VERTEX
  8
LAYER-1
 10
3.222500
 20
7.849516
 30
0.000000
  0
SEQEND
  8
LAYER-1
  0
POLYLINE
  8
LAYER-1
 66
  1
 70
  0
 62
  7
 10
0.034722
 20
7.559516
 30
0.000000
  0
VERTEX
  8
LAYER-1
 10
0.034722
 20
7.559516
 30
0.000000
  0
VERTEX
  8
LAYER-1
 10
3.222500
 20
7.559516
 30
0.000000
  0
SEQEND
  8
LAYER-1
  0
POLYLINE
  8
LAYER-1
 66
  1
 70
  0
 62
  7
 10
0.034722
 20
7.269516
 30
0.000000
  0
VERTEX
  8
LAYER-1
 10
0.034722
 20
7.269516
 30
0.000000
  0
VERTEX
  8
LAYER-1
 10
3.222500
 20
7.269516
 30
0.000000
  0
SEQEND
  8
LAYER-1
  0
POLYLINE
  8
LAYER-1
 66
  1
 70
  0
 62
  7
 10
0.034722
 20
6.979515
 30
0.000000
  0
VERTEX
  8
LAYER-1
 10
0.034722
 20
6.979515
 30
0.000000
  0
VERTEX
  8
LAYER-1
 10
3.222500
 20
6.979515
 30
0.000000
  0
SEQEND
  8
LAYER-1
  0
POLYLINE
  8
LAYER-1
 66
  1
 70
  0
 62
  7
 10
0.034722
 20
6.689515
 30
0.000000
  0
VERTEX
  8
LAYER-1
 10
0.034722
 20
6.689515
 30
0.000000
  0
VERTEX
  8
LAYER-1
 10
3.222500
 20
6.689515
 30
0.000000
  0
SEQEND
  8
LAYER-1
  0
POLYLINE
  8
LAYER-1
 66
  1
 70
  0
 62
  7
 10
0.034722
 20
6.399516
 30
0.000000
  0
VERTEX
  8
LAYER-1
 10
0.034722
 20
6.399516
 30
0.000000
  0
VERTEX
  8
LAYER-1
 10
3.222500
 20
6.399516
 30
0.000000
  0
SEQEND
  8
LAYER-1
  0
POLYLINE
  8
LAYER-1
 66
  1
 70
  0
 62
  7
 10
0.034722
 20
5.819517
 30
0.000000
  0
VERTEX
  8
LAYER-1
 10
0.034722
 20
5.819517
 30
0.000000
  0
VERTEX
  8
LAYER-1
 10
3.222500
 20
5.819517
 30
0.000000
  0
SEQEND
  8
LAYER-1
  0
POLYLINE
  8
LAYER-1
 66
  1
 70
  0
 62
  7
 10
0.034722
 20
6.109516
 30
0.000000
  0
VERTEX
  8
LAYER-1
 10
0.034722
 20
6.109516
 30
0.000000
  0
VERTEX
  8
LAYER-1
 10
3.222500
 20
6.109516
 30
0.000000
  0
SEQEND
  8
LAYER-1
  0
POLYLINE
  8
LAYER-1
 66
  1
 70
  0
 62
  7
 10
3.849720
 20
8.139515
 30
0.000000
  0
VERTEX
  8
LAYER-1
 10
3.849720
 20
8.139515
 30
0.000000
  0
VERTEX
  8
LAYER-1
 10
7.037498
 20
8.139515
 30
0.000000
  0
SEQEND
  8
LAYER-1
  0
POLYLINE
  8
LAYER-1
 66
  1
 70
  0
 62
  7
 10
3.849720
 20
7.849516
 30
0.000000
  0
VERTEX
  8
LAYER-1
 10
3.849720
 20
7.849516
 30
0.000000
  0
VERTEX
  8
LAYER-1
 10
7.037498
 20
7.849516
 30
0.000000
  0
SEQEND
  8
LAYER-1
  0
POLYLINE
  8
LAYER-1
 66
  1
 70
  0
 62
  7
 10
3.849720
 20
7.559516
 30
0.000000
  0
VERTEX
  8
LAYER-1
 10
3.849720
 20
7.559516
 30
0.000000
  0
VERTEX
  8
LAYER-1
 10
7.037498
 20
7.559516
 30
0.000000
  0
SEQEND
  8
LAYER-1
  0
POLYLINE
  8
LAYER-1
 66
  1
 70
  0
 62
  7
 10
3.849724
 20
8.139515
 30
0.000000
  0
VERTEX
  8
LAYER-1
 10
3.849724
 20
8.139515
 30
0.000000
  0
VERTEX
  8
LAYER-1
 10
3.849724
 20
6.109336
 30
0.000000
  0
SEQEND
  8
LAYER-1
  0
POLYLINE
  8
LAYER-1
 66
  1
 70
  0
 62
  7
 10
5.759723
 20
8.139515
 30
0.000000
  0
VERTEX
  8
LAYER-1
 10
5.759723
 20
8.139515
 30
0.000000
  0
VERTEX
  8
LAYER-1
 10
5.759723
 20
6.109336
 30
0.000000
  0
SEQEND
  8
LAYER-1
  0
POLYLINE
  8
LAYER-1
 66
  1
 70
  0
 62
  7
 10
6.397937
 20
8.139515
 30
0.000000
  0
VERTEX
  8
LAYER-1
 10
6.397937
 20
8.139515
 30
0.000000
  0
VERTEX
  8
LAYER-1
 10
6.397937
 20
6.109336
 30
0.000000
  0
SEQEND
  8
LAYER-1
  0
POLYLINE
  8
LAYER-1
 66
  1
 70
  0
 62
  7
 10
7.036607
 20
8.139515
 30
0.000000
  0
VERTEX
  8
LAYER-1
 10
7.036607
 20
8.139515
 30
0.000000
  0
VERTEX
  8
LAYER-1
 10
7.036607
 20
6.109336
 30
0.000000
  0
SEQEND
  8
LAYER-1
  0
TEXT
  8
LAYER-1
 62
  7
 10
0.367046
 20
4.882067
 30
0.000000
 40
0.122727
  1
BARIL & RESSORT
 72
  5
 11
2.630682
 21
4.882067
 31
0.000000
  0
TEXT
  8
LAYER-1
 62
  7
 10
0.376136
 20
4.591158
 30
0.000000
 40
0.122727
  1
6 
 72
  5
 11
0.630682
 21
4.591158
 31
0.000000
  0
TEXT
  8
LAYER-1
 62
  7
 10
0.630682
 20
4.591158
 30
0.000000
 40
0.102273
  1
5/8
 72
  5
 11
0.948864
 21
4.591158
 31
0.000000
  0
TEXT
  8
LAYER-1
 62
  7
 10
0.948864
 20
4.591158
 30
0.000000
 40
0.122727
  1
" (168mm) DIA
 72
  5
 11
2.621591
 21
4.591158
 31
0.000000
  0
TEXT
  8
LAYER-1
 62
  7
 10
0.376136
 20
4.300249
 30
0.000000
 40
0.122727
  1
8 
 72
  5
 11
0.630682
 21
4.300249
 31
0.000000
  0
TEXT
  8
LAYER-1
 62
  7
 10
0.630682
 20
4.300249
 30
0.000000
 40
0.102273
  1
5/8
 72
  5
 11
0.948864
 21
4.300249
 31
0.000000
  0
TEXT
  8
LAYER-1
 62
  7
 10
0.948864
 20
4.300249
 30
0.000000
 40
0.122727
  1
" (219mm) DIA
 72
  5
 11
2.621591
 21
4.300249
 31
0.000000
  0
TEXT
  8
LAYER-1
 62
  7
 10
0.376136
 20
4.018430
 30
0.000000
 40
0.122727
  1
4 
 72
  5
 11
0.630682
 21
4.018430
 31
0.000000
  0
TEXT
  8
LAYER-1
 62
  7
 10
0.630682
 20
4.018430
 30
0.000000
 40
0.102273
  1
1/2
 72
  5
 11
0.948864
 21
4.018430
 31
0.000000
  0
TEXT
  8
LAYER-1
 62
  7
 10
0.948864
 20
4.018430
 30
0.000000
 40
0.122727
  1
" (114mm) DIA
 72
  5
 11
2.621591
 21
4.018430
 31
0.000000
  0
TEXT
  8
LAYER-1
 62
  7
 10
0.376136
 20
3.745703
 30
0.000000
 40
0.102273
  1
(Volet de comptoir manuel
 72
  5
 11
2.721591
 21
3.745703
 31
0.000000
  0
TEXT
  8
LAYER-1
 62
  7
 10
0.376136
 20
3.509339
 30
0.000000
 40
0.102273
  1
 & modÅles SLIM)
 72
  5
 11
1.994318
 21
3.509339
 31
0.000000
  0
TEXT
  8
LAYER-1
 62
  7
 10
0.376136
 20
3.436612
 30
0.000000
 40
0.122727
  1
4" (102mm) DIA
 72
  5
 11
2.185227
 21
3.436612
 31
0.000000
  0
TEXT
  8
LAYER-1
 62
  7
 10
0.376136
 20
3.163885
 30
0.000000
 40
0.102273
  1
(Moteur tubulaire,
 72
  5
 11
1.957955
 21
3.163885
 31
0.000000
  0
TEXT
  8
LAYER-1
 62
  7
 10
0.376136
 20
2.927521
 30
0.000000
 40
0.102273
  1
 aucun ressort)
 72
  5
 11
1.730682
 21
2.927521
 31
0.000000
  0
POLYLINE
  8
LAYER-1
 66
  1
 70
  0
 62
  7
 10
3.222501
 20
5.271463
 30
0.000000
  0
VERTEX
  8
LAYER-1
 10
3.222501
 20
5.271463
 30
0.000000
  0
VERTEX
  8
LAYER-1
 10
3.222501
 20
1.800908
 30
0.000000
  0
SEQEND
  8
LAYER-1
  0
POLYLINE
  8
LAYER-1
 66
  1
 70
  0
 62
  7
 10
2.577500
 20
5.271463
 30
0.000000
  0
VERTEX
  8
LAYER-1
 10
2.577500
 20
5.271463
 30
0.000000
  0
VERTEX
  8
LAYER-1
 10
2.576389
 20
3.250627
 30
0.000000
  0
SEQEND
  8
LAYER-1
  0
POLYLINE
  8
LAYER-1
 66
  1
 70
  0
 62
  7
 10
1.937500
 20
5.271462
 30
0.000000
  0
VERTEX
  8
LAYER-1
 10
1.937500
 20
5.271462
 30
0.000000
  0
VERTEX
  8
LAYER-1
 10
1.937500
 20
3.250905
 30
0.000000
  0
SEQEND
  8
LAYER-1
  0
TEXT
  8
LAYER-1
 62
  7
 10
2.267046
 20
7.736612
 30
0.000000
 40
0.102273
  1
lb / pi
 72
  5
 11
2.785227
 21
7.736612
 31
0.000000
  0
TEXT
  8
LAYER-1
 62
  7
 10
3.285227
 20
7.800249
 30
0.000000
 40
0.061364
  1
2
 72
  5
 11
3.394318
 21
7.800249
 31
0.000000
  0
TEXT
  8
LAYER-1
 62
  7
 10
2.903409
 20
7.736612
 30
0.000000
 40
0.102273
  1
kg / m
 72
  5
 11
3.485227
 21
7.736612
 31
0.000000
  0
POLYLINE
  8
LAYER-1
 66
  1
 70
  0
 62
  7
 10
0.034722
 20
4.704794
 30
0.000000
  0
VERTEX
  8
LAYER-1
 10
0.034722
 20
4.704794
 30
0.000000
  0
VERTEX
  8
LAYER-1
 10
7.034725
 20
4.704794
 30
0.000000
  0
SEQEND
  8
LAYER-1
  0
POLYLINE
  8
LAYER-1
 66
  1
 70
  0
 62
  7
 10
0.034722
 20
4.994794
 30
0.000000
  0
VERTEX
  8
LAYER-1
 10
0.034722
 20
4.994794
 30
0.000000
  0
VERTEX
  8
LAYER-1
 10
7.034725
 20
4.994794
 30
0.000000
  0
SEQEND
  8
LAYER-1
  0
POLYLINE
  8
LAYER-1
 66
  1
 70
  0
 62
  7
 10
3.222500
 20
4.120905
 30
0.000000
  0
VERTEX
  8
LAYER-1
 10
3.222500
 20
4.120905
 30
0.000000
  0
VERTEX
  8
LAYER-1
 10
7.034725
 20
4.120905
 30
0.000000
  0
SEQEND
  8
LAYER-1
  0
POLYLINE
  8
LAYER-1
 66
  1
 70
  0
 62
  7
 10
3.222500
 20
3.540905
 30
0.000000
  0
VERTEX
  8
LAYER-1
 10
3.222500
 20
3.540905
 30
0.000000
  0
VERTEX
  8
LAYER-1
 10
7.034725
 20
3.540905
 30
0.000000
  0
SEQEND
  8
LAYER-1
  0
TEXT
  8
LAYER-1
 62
  7
 10
4.176136
 20
6.154794
 30
0.000000
 40
0.102273
  1
ou 
 72
  5
 11
4.494318
 21
6.154794
 31
0.000000
  0
TEXT
  8
LAYER-1
 62
  7
 10
2.203409
 20
4.891158
 30
0.000000
 40
0.102273
  1
lb / pi.lin.
 72
  5
 11
3.030682
 21
4.891158
 31
0.000000
  0
TEXT
  8
LAYER-1
 62
  7
 10
2.930682
 20
4.891158
 30
0.000000
 40
0.102273
  1
kg / m
 72
  5
 11
3.512500
 21
4.891158
 31
0.000000
  0
TEXT
  8
LAYER-1
 62
  7
 10
2.294318
 20
7.436612
 30
0.000000
 40
0.122727
  1
1,10
 72
  5
 11
2.821591
 21
7.436612
 31
0.000000
  0
TEXT
  8
LAYER-1
 62
  7
 10
2.294318
 20
7.154794
 30
0.000000
 40
0.122727
  1
1,30
 72
  5
 11
2.821591
 21
7.154794
 31
0.000000
  0
TEXT
  8
LAYER-1
 62
  7
 10
2.294318
 20
6.854794
 30
0.000000
 40
0.122727
  1
0,82
 72
  5
 11
2.821591
 21
6.854794
 31
0.000000
  0
TEXT
  8
LAYER-1
 62
  7
 10
2.294318
 20
6.563885
 30
0.000000
 40
0.122727
  1
1,40
 72
  5
 11
2.821591
 21
6.563885
 31
0.000000
  0
TEXT
  8
LAYER-1
 62
  7
 10
2.939773
 20
7.436612
 30
0.000000
 40
0.122727
  1
5,37
 72
  5
 11
3.467046
 21
7.436612
 31
0.000000
  0
TEXT
  8
LAYER-1
 62
  7
 10
2.939773
 20
7.154794
 30
0.000000
 40
0.122727
  1
6,35
 72
  5
 11
3.467046
 21
7.154794
 31
0.000000
  0
TEXT
  8
LAYER-1
 62
  7
 10
2.939773
 20
6.854794
 30
0.000000
 40
0.122727
  1
4,00
 72
  5
 11
3.467046
 21
6.854794
 31
0.000000
  0
TEXT
  8
LAYER-1
 62
  7
 10
2.939773
 20
6.563885
 30
0.000000
 40
0.122727
  1
6,84
 72
  5
 11
3.467046
 21
6.563885
 31
0.000000
  0
TEXT
  8
LAYER-1
 62
  7
 10
2.376136
 20
4.591158
 30
0.000000
 40
0.122727
  1
20
 72
  5
 11
2.694318
 21
4.591158
 31
0.000000
  0
TEXT
  8
LAYER-1
 62
  7
 10
2.376136
 20
4.300249
 30
0.000000
 40
0.122727
  1
24
 72
  5
 11
2.694318
 21
4.300249
 31
0.000000
  0
TEXT
  8
LAYER-1
 62
  7
 10
2.376136
 20
3.845703
 30
0.000000
 40
0.122727
  1
12
 72
  5
 11
2.694318
 21
3.845703
 31
0.000000
  0
TEXT
  8
LAYER-1
 62
  7
 10
2.348864
 20
3.272976
 30
0.000000
 40
0.122727
  1
5,2
 72
  5
 11
2.739773
 21
3.272976
 31
0.000000
  0
TEXT
  8
LAYER-1
 62
  7
 10
3.021591
 20
4.591158
 30
0.000000
 40
0.122727
  1
30
 72
  5
 11
3.339773
 21
4.591158
 31
0.000000
  0
TEXT
  8
LAYER-1
 62
  7
 10
3.021591
 20
4.300249
 30
0.000000
 40
0.122727
  1
36
 72
  5
 11
3.339773
 21
4.300249
 31
0.000000
  0
TEXT
  8
LAYER-1
 62
  7
 10
3.021591
 20
3.845703
 30
0.000000
 40
0.122727
  1
18
 72
  5
 11
3.339773
 21
3.845703
 31
0.000000
  0
TEXT
  8
LAYER-1
 62
  7
 10
2.985227
 20
3.272976
 30
0.000000
 40
0.122727
  1
7,7
 72
  5
 11
3.376136
 21
3.272976
 31
0.000000
  0
TEXT
  8
LAYER-1
 62
  7
 10
3.557955
 20
2.836612
 30
0.000000
 40
0.122727
  1
ACIER 3" x 3"  (76 x 76mm)
 72
  5
 11
6.657955
 21
2.836612
 31
0.000000
  0
TEXT
  8
LAYER-1
 62
  7
 10
3.557955
 20
2.545703
 30
0.000000
 40
0.122727
  1
ACIER 4" x 4" (102 x 102mm)
 72
  5
 11
6.857955
 21
2.545703
 31
0.000000
  0
TEXT
  8
LAYER-1
 62
  7
 10
3.557955
 20
1.972976
 30
0.000000
 40
0.122727
  1
ACIER 2" x 3" (51x76mm)
 72
  5
 11
6.439773
 21
1.972976
 31
0.000000
  0
TEXT
  8
LAYER-1
 62
  7
 10
3.557955
 20
1.682067
 30
0.000000
 40
0.122727
  1
ALUM 2" x 3" (51x76mm)
 72
  5
 11
6.357955
 21
1.682067
 31
0.000000
  0
POLYLINE
  8
LAYER-1
 66
  1
 70
  0
 62
  7
 10
2.579306
 20
2.380907
 30
0.000000
  0
VERTEX
  8
LAYER-1
 10
2.579306
 20
2.380907
 30
0.000000
  0
VERTEX
  8
LAYER-1
 10
7.034725
 20
2.380907
 30
0.000000
  0
SEQEND
  8
LAYER-1
  0
POLYLINE
  8
LAYER-1
 66
  1
 70
  0
 62
  7
 10
2.577500
 20
1.800907
 30
0.000000
  0
VERTEX
  8
LAYER-1
 10
2.577500
 20
1.800907
 30
0.000000
  0
VERTEX
  8
LAYER-1
 10
7.034725
 20
1.800907
 30
0.000000
  0
SEQEND
  8
LAYER-1
  0
TEXT
  8
LAYER-1
 62
  7
 10
2.885227
 20
2.545703
 30
0.000000
 40
0.122727
  1
TUBE 
 72
  5
 11
3.648864
 21
2.545703
 31
0.000000
  0
TEXT
  8
LAYER-1
 62
  7
 10
2.830682
 20
1.827521
 30
0.000000
 40
0.122727
  1
ANGLE
 72
  5
 11
3.703409
 21
1.827521
 31
0.000000
  0
TEXT
  8
LAYER-1
 62
  7
 10
3.548864
 20
2.254794
 30
0.000000
 40
0.122727
  1
ALUM 1 
 72
  5
 11
4.557955
 21
2.254794
 31
0.000000
  0
TEXT
  8
LAYER-1
 62
  7
 10
4.557955
 20
2.254794
 30
0.000000
 40
0.102273
  1
3/4
 72
  5
 11
4.876136
 21
2.254794
 31
0.000000
  0
TEXT
  8
LAYER-1
 62
  7
 10
4.876136
 20
2.254794
 30
0.000000
 40
0.122727
  1
" x 4" (44x102mm)
 72
  5
 11
6.921591
 21
2.254794
 31
0.000000
  0
TEXT
  8
LAYER-1
 62
  7
 10
3.557955
 20
4.009339
 30
0.000000
 40
0.122727
  1
PL. D'EXTRâMITâ 
 72
  5
 11
5.739773
 21
4.009339
 31
0.000000
  0
TEXT
  8
LAYER-1
 62
  7
 10
5.739773
 20
4.009339
 30
0.000000
 40
0.102273
  1
(+Quincaillerie)
 72
  5
 11
7.121591
 21
4.009339
 31
0.000000
  0
TEXT
  8
LAYER-1
 62
  7
 10
6.230682
 20
4.891158
 30
0.000000
 40
0.102273
  1
lb
 72
  5
 11
6.430682
 21
4.891158
 31
0.000000
  0
TEXT
  8
LAYER-1
 62
  7
 10
6.867046
 20
4.891158
 30
0.000000
 40
0.102273
  1
kg
 72
  5
 11
7.121591
 21
4.891158
 31
0.000000
  0
TEXT
  8
LAYER-1
 62
  7
 10
3.557955
 20
4.863885
 30
0.000000
 40
0.122727
  1
MOTEUR  (si inclus)
 72
  5
 11
5.867046
 21
4.863885
 31
0.000000
  0
TEXT
  8
LAYER-1
 62
  7
 10
3.557955
 20
4.582067
 30
0.000000
 40
0.122727
  1
MOTEUR DJ (arbre secondaire)
 72
  5
 11
7.130682
 21
4.582067
 31
0.000000
  0
TEXT
  8
LAYER-1
 62
  7
 10
3.557955
 20
4.291158
 30
0.000000
 40
0.122727
  1
MOTEUR TUBULAIRE
 72
  5
 11
6.112500
 21
4.291158
 31
0.000000
  0
TEXT
  8
LAYER-1
 62
  7
 10
6.194318
 20
4.300249
 30
0.000000
 40
0.122727
  1
12
 72
  5
 11
6.512500
 21
4.300249
 31
0.000000
  0
TEXT
  8
LAYER-1
 62
  7
 10
6.148864
 20
4.582067
 30
0.000000
 40
0.122727
  1
120
 72
  5
 11
6.603409
 21
4.582067
 31
0.000000
  0
TEXT
  8
LAYER-1
 62
  7
 10
6.821591
 20
4.300249
 30
0.000000
 40
0.122727
  1
5,5
 72
  5
 11
7.212500
 21
4.300249
 31
0.000000
  0
TEXT
  8
LAYER-1
 62
  7
 10
6.839773
 20
4.582067
 30
0.000000
 40
0.122727
  1
54
 72
  5
 11
7.157955
 21
4.582067
 31
0.000000
  0
TEXT
  8
LAYER-1
 62
  7
 10
6.194318
 20
4.009339
 30
0.000000
 40
0.122727
  1
50
 72
  5
 11
6.512500
 21
4.009339
 31
0.000000
  0
TEXT
  8
LAYER-1
 62
  7
 10
6.839773
 20
4.009339
 30
0.000000
 40
0.122727
  1
23
 72
  5
 11
7.157955
 21
4.009339
 31
0.000000
  0
TEXT
  8
LAYER-1
 62
  7
 10
3.557955
 20
3.427521
 30
0.000000
 40
0.122727
  1
BARRE DU BAS (au plancher)
 72
  5
 11
6.976136
 21
3.427521
 31
0.000000
  0
TEXT
  8
LAYER-1
 62
  7
 10
3.557955
 20
3.136612
 30
0.000000
 40
0.122727
  1
BARRE DU BAS (sur comptoir)
 72
  5
 11
7.048864
 21
3.136612
 31
0.000000
  0
TEXT
  8
LAYER-1
 62
  7
 10
6.030682
 20
3.727521
 30
0.000000
 40
0.102273
  1
lb / pi.lin.
 72
  5
 11
6.857955
 21
3.727521
 31
0.000000
  0
TEXT
  8
LAYER-1
 62
  7
 10
6.748864
 20
3.727521
 30
0.000000
 40
0.102273
  1
kg / m
 72
  5
 11
7.330682
 21
3.727521
 31
0.000000
  0
TEXT
  8
LAYER-1
 62
  7
 10
6.248864
 20
3.427521
 30
0.000000
 40
0.122727
  1
2
 72
  5
 11
6.430682
 21
3.427521
 31
0.000000
  0
TEXT
  8
LAYER-1
 62
  7
 10
6.157955
 20
3.145703
 30
0.000000
 40
0.122727
  1
1,2
 72
  5
 11
6.548864
 21
3.145703
 31
0.000000
  0
TEXT
  8
LAYER-1
 62
  7
 10
6.894318
 20
3.427521
 30
0.000000
 40
0.122727
  1
3
 72
  5
 11
7.076136
 21
3.427521
 31
0.000000
  0
TEXT
  8
LAYER-1
 62
  7
 10
6.803409
 20
3.145703
 30
0.000000
 40
0.122727
  1
1,8
 72
  5
 11
7.194318
 21
3.145703
 31
0.000000
  0
POLYLINE
  8
LAYER-1
 66
  1
 70
  0
 62
  7
 10
6.397499
 20
5.271463
 30
0.000000
  0
VERTEX
  8
LAYER-1
 10
6.397499
 20
5.271463
 30
0.000000
  0
VERTEX
  8
LAYER-1
 10
6.397499
 20
1.800906
 30
0.000000
  0
SEQEND
  8
LAYER-1
  0
POLYLINE
  8
LAYER-1
 66
  1
 70
  0
 62
  7
 10
5.762499
 20
5.271463
 30
0.000000
  0
VERTEX
  8
LAYER-1
 10
5.762499
 20
5.271463
 30
0.000000
  0
VERTEX
  8
LAYER-1
 10
5.762499
 20
1.800906
 30
0.000000
  0
SEQEND
  8
LAYER-1
  0
POLYLINE
  8
LAYER-1
 66
  1
 70
  0
 62
  7
 10
3.221667
 20
2.960905
 30
0.000000
  0
VERTEX
  8
LAYER-1
 10
3.221667
 20
2.960905
 30
0.000000
  0
VERTEX
  8
LAYER-1
 10
7.035597
 20
2.960905
 30
0.000000
  0
SEQEND
  8
LAYER-1
  0
POLYLINE
  8
LAYER-1
 66
  1
 70
  0
 62
  7
 10
3.221667
 20
2.670905
 30
0.000000
  0
VERTEX
  8
LAYER-1
 10
3.221667
 20
2.670905
 30
0.000000
  0
VERTEX
  8
LAYER-1
 10
7.035597
 20
2.670905
 30
0.000000
  0
SEQEND
  8
LAYER-1
  0
POLYLINE
  8
LAYER-1
 66
  1
 70
  0
 62
  7
 10
3.221667
 20
2.090907
 30
0.000000
  0
VERTEX
  8
LAYER-1
 10
3.221667
 20
2.090907
 30
0.000000
  0
VERTEX
  8
LAYER-1
 10
7.035597
 20
2.090907
 30
0.000000
  0
SEQEND
  8
LAYER-1
  0
POLYLINE
  8
LAYER-1
 66
  1
 70
  0
 62
  7
 10
2.576389
 20
3.250627
 30
0.000000
  0
VERTEX
  8
LAYER-1
 10
2.576389
 20
3.250627
 30
0.000000
  0
VERTEX
  8
LAYER-1
 10
2.577500
 20
1.800908
 30
0.000000
  0
SEQEND
  8
LAYER-1
  0
TEXT
  8
LAYER-1
 62
  7
 10
5.939773
 20
2.836612
 30
0.000000
 40
0.122727
  1
4,76
 72
  5
 11
6.467046
 21
2.836612
 31
0.000000
  0
TEXT
  8
LAYER-1
 62
  7
 10
5.939773
 20
2.554794
 30
0.000000
 40
0.122727
  1
6,46
 72
  5
 11
6.467046
 21
2.554794
 31
0.000000
  0
TEXT
  8
LAYER-1
 62
  7
 10
6.003409
 20
1.972976
 30
0.000000
 40
0.122727
  1
1,4
 72
  5
 11
6.394318
 21
1.972976
 31
0.000000
  0
TEXT
  8
LAYER-1
 62
  7
 10
6.003409
 20
1.682067
 30
0.000000
 40
0.122727
  1
1,7
 72
  5
 11
6.394318
 21
1.682067
 31
0.000000
  0
TEXT
  8
LAYER-1
 62
  7
 10
5.939773
 20
2.263885
 30
0.000000
 40
0.122727
  1
3,07
 72
  5
 11
6.467046
 21
2.263885
 31
0.000000
  0
TEXT
  8
LAYER-1
 62
  7
 10
6.667046
 20
2.836612
 30
0.000000
 40
0.122727
  1
7,1
 72
  5
 11
7.057955
 21
2.836612
 31
0.000000
  0
TEXT
  8
LAYER-1
 62
  7
 10
6.667046
 20
2.554794
 30
0.000000
 40
0.122727
  1
9,6
 72
  5
 11
7.057955
 21
2.554794
 31
0.000000
  0
TEXT
  8
LAYER-1
 62
  7
 10
6.667046
 20
1.972976
 30
0.000000
 40
0.122727
  1
2,1
 72
  5
 11
7.057955
 21
1.972976
 31
0.000000
  0
TEXT
  8
LAYER-1
 62
  7
 10
6.667046
 20
1.682067
 30
0.000000
 40
0.122727
  1
2,5
 72
  5
 11
7.057955
 21
1.682067
 31
0.000000
  0
TEXT
  8
LAYER-1
 62
  7
 10
6.667046
 20
2.263885
 30
0.000000
 40
0.122727
  1
4,6
 72
  5
 11
7.057955
 21
2.263885
 31
0.000000
  0
POLYLINE
  8
LAYER-1
 66
  1
 70
  0
 62
  7
 10
5.410156
 20
0.032528
 30
0.000000
  0
VERTEX
  8
LAYER-1
 10
5.410156
 20
0.032528
 30
0.000000
  0
VERTEX
  8
LAYER-1
 10
7.023438
 20
0.032528
 30
0.000000
  0
SEQEND
  8
LAYER-1
  0
POLYLINE
  8
LAYER-1
 66
  1
 70
  0
 62
  7
 10
5.410156
 20
0.009091
 30
0.000000
  0
VERTEX
  8
LAYER-1
 10
5.410156
 20
0.009091
 30
0.000000
  0
VERTEX
  8
LAYER-1
 10
7.023438
 20
0.009091
 30
0.000000
  0
SEQEND
  8
LAYER-1
  0
TEXT
  8
LAYER-1
 62
  7
 10
2.612500
 20
7.800249
 30
0.000000
 40
0.061364
  1
2
 72
  5
 11
2.721591
 21
7.800249
 31
0.000000
  0
TEXT
  8
LAYER-1
 62
  7
 10
6.412500
 20
7.800249
 30
0.000000
 40
0.061364
  1
2
 72
  5
 11
6.521591
 21
7.800249
 31
0.000000
  0
TEXT
  8
LAYER-1
 62
  7
 10
5.330682
 20
1.082067
 30
0.000000
 40
0.061364
  1
2
 72
  5
 11
5.439773
 21
1.082067
 31
0.000000
  0
TEXT
  8
LAYER-1
 62
  7
 10
6.221591
 20
1.082067
 30
0.000000
 40
0.061364
  1
2
 72
  5
 11
6.330682
 21
1.082067
 31
0.000000
  0
POLYLINE
  8
LAYER-1
 66
  1
 70
  0
 62
  7
 10
3.849720
 20
7.269516
 30
0.000000
  0
VERTEX
  8
LAYER-1
 10
3.849720
 20
7.269516
 30
0.000000
  0
VERTEX
  8
LAYER-1
 10
7.037498
 20
7.269516
 30
0.000000
  0
SEQEND
  8
LAYER-1
  0
POLYLINE
  8
LAYER-1
 66
  1
 70
  0
 62
  7
 10
3.849720
 20
6.979337
 30
0.000000
  0
VERTEX
  8
LAYER-1
 10
3.849720
 20
6.979337
 30
0.000000
  0
VERTEX
  8
LAYER-1
 10
7.037498
 20
6.979337
 30
0.000000
  0
SEQEND
  8
LAYER-1
  0
POLYLINE
  8
LAYER-1
 66
  1
 70
  0
 62
  7
 10
3.849720
 20
6.689337
 30
0.000000
  0
VERTEX
  8
LAYER-1
 10
3.849720
 20
6.689337
 30
0.000000
  0
VERTEX
  8
LAYER-1
 10
7.037498
 20
6.689337
 30
0.000000
  0
SEQEND
  8
LAYER-1
  0
POLYLINE
  8
LAYER-1
 66
  1
 70
  0
 62
  7
 10
3.849720
 20
6.109336
 30
0.000000
  0
VERTEX
  8
LAYER-1
 10
3.849720
 20
6.109336
 30
0.000000
  0
VERTEX
  8
LAYER-1
 10
7.037498
 20
6.109336
 30
0.000000
  0
SEQEND
  8
LAYER-1
  0
TEXT
  8
LAYER-1
 62
  7
 10
6.121591
 20
6.854794
 30
0.000000
 40
0.122727
  1
1,08
 72
  5
 11
6.648864
 21
6.854794
 31
0.000000
  0
TEXT
  8
LAYER-1
 62
  7
 10
6.785227
 20
6.854794
 30
0.000000
 40
0.122727
  1
5,27
 72
  5
 11
7.312500
 21
6.854794
 31
0.000000
  0
TEXT
  8
LAYER-1
 62
  7
 10
4.157955
 20
6.845703
 30
0.000000
 40
0.122727
  1
SLIM  ROLL-FLEX
 72
  5
 11
6.267046
 21
6.845703
 31
0.000000
  0
TEXT
  8
LAYER-1
 62
  7
 10
6.121591
 20
6.572976
 30
0.000000
 40
0.122727
  1
1,69
 72
  5
 11
6.648864
 21
6.572976
 31
0.000000
  0
TEXT
  8
LAYER-1
 62
  7
 10
6.785227
 20
6.572976
 30
0.000000
 40
0.122727
  1
8,25
 72
  5
 11
7.312500
 21
6.572976
 31
0.000000
  0
TEXT
  8
LAYER-1
 62
  7
 10
4.157955
 20
6.563885
 30
0.000000
 40
0.122727
  1
SLIM  ROLL-SHUTTER
 72
  5
 11
6.803409
 21
6.563885
 31
0.000000
  0
ENDSEC
  0
EOF
