  0
SECTION
  2
HEADER
999
MacDraft 5.0\0
  9
$ACADVER
  1
AC1006
  9
$CLAYER
  8
LAYER-1
  9
$EXTMIN
 10
0.000000
 20
0.000000
  9
$EXTMAX
 10
6.220598
 20
9.994162
  9
$FASTZOOM
 70
0
  9
$FILLMODE
 70
1
  0
ENDSEC
  0
SECTION
  2
TABLES
  0
TABLE
  2
LTYPE
 70
16
  0
LTYPE
  2
CONTINUOUS
 70
64
  3
Solid Line
 72
65
 73
0
 40
0.000000
  0
LTYPE
  2
LTYPE01
 70
64
  3
CUSTOM
 72
65
 73
2
 40
0.072727
 49
0.054545
 49
-0.018182
  0
LTYPE
  2
LTYPE02
 70
64
  3
CUSTOM
 72
65
 73
2
 40
0.127273
 49
0.109091
 49
-0.018182
  0
LTYPE
  2
LTYPE03
 70
64
  3
CUSTOM
 72
65
 73
2
 40
0.245455
 49
0.218182
 49
-0.027273
  0
LTYPE
  2
LTYPE04
 70
64
  3
CUSTOM
 72
65
 73
2
 40
0.472727
 49
0.436364
 49
-0.036364
  0
LTYPE
  2
LTYPE05
 70
64
  3
CUSTOM
 72
65
 73
4
 40
0.100000
 49
0.054545
 49
-0.018182
 49
0.009091
 49
-0.018182
  0
LTYPE
  2
LTYPE06
 70
64
  3
CUSTOM
 72
65
 73
4
 40
0.154545
 49
0.109091
 49
-0.018182
 49
0.009091
 49
-0.018182
  0
LTYPE
  2
LTYPE07
 70
64
  3
CUSTOM
 72
65
 73
4
 40
0.290909
 49
0.218182
 49
-0.027273
 49
0.018182
 49
-0.027273
  0
LTYPE
  2
LTYPE08
 70
64
  3
CUSTOM
 72
65
 73
4
 40
0.527273
 49
0.436364
 49
-0.036364
 49
0.018182
 49
-0.036364
  0
LTYPE
  2
LTYPE09
 70
64
  3
CUSTOM
 72
65
 73
6
 40
0.127273
 49
0.054545
 49
-0.018182
 49
0.009091
 49
-0.018182
 49
0.009091
 49
-0.018182
  0
LTYPE
  2
LTYPE10
 70
64
  3
CUSTOM
 72
65
 73
6
 40
0.181818
 49
0.109091
 49
-0.018182
 49
0.009091
 49
-0.018182
 49
0.009091
 49
-0.018182
  0
LTYPE
  2
LTYPE11
 70
64
  3
CUSTOM
 72
65
 73
6
 40
0.327273
 49
0.218182
 49
-0.027273
 49
0.018182
 49
-0.018182
 49
0.018182
 49
-0.027273
  0
LTYPE
  2
LTYPE12
 70
64
  3
CUSTOM
 72
65
 73
6
 40
0.563636
 49
0.436364
 49
-0.036364
 49
0.018182
 49
-0.018182
 49
0.018182
 49
-0.036364
  0
LTYPE
  2
LTYPE13
 70
64
  3
CUSTOM
 72
65
 73
8
 40
0.209091
 49
0.109091
 49
-0.018182
 49
0.009091
 49
-0.018182
 49
0.009091
 49
-0.018182
 49
0.009091
 49
-0.018182
  0
LTYPE
  2
LTYPE14
 70
64
  3
CUSTOM
 72
65
 73
8
 40
0.363636
 49
0.218182
 49
-0.027273
 49
0.018182
 49
-0.018182
 49
0.018182
 49
-0.018182
 49
0.018182
 49
-0.027273
  0
LTYPE
  2
LTYPE15
 70
64
  3
CUSTOM
 72
65
 73
8
 40
0.618182
 49
0.436364
 49
-0.036364
 49
0.018182
 49
-0.027273
 49
0.018182
 49
-0.027273
 49
0.018182
 49
-0.036364
  0
ENDTAB
  0
TABLE
  2
LAYER
 70
1
  0
LAYER
  2
LAYER-1
 70
0
 62
7
  6
CONTINUOUS
  0
ENDTAB
  0
ENDSEC
  0
SECTION
  2
BLOCKS
  0
ENDSEC
  0
SECTION
  2
ENTITIES
  0
ARC
  8
LAYER-1
 62
  7
 10
4.798424
 20
8.924485
 30
0.000000
 40
0.254425
 50
270.000000
 51
90.000000
  0
POLYLINE
  8
LAYER-1
 66
  1
 70
  0
 62
  7
 10
4.798424
 20
9.178911
 30
0.000000
  0
VERTEX
  8
LAYER-1
 10
4.798424
 20
9.178911
 30
0.000000
  0
VERTEX
  8
LAYER-1
 10
1.133503
 20
9.178911
 30
0.000000
  0
SEQEND
  8
LAYER-1
  0
POLYLINE
  8
LAYER-1
 66
  1
 70
  0
 62
  7
 10
1.133503
 20
9.178911
 30
0.000000
  0
VERTEX
  8
LAYER-1
 10
1.133503
 20
9.178911
 30
0.000000
  0
VERTEX
  8
LAYER-1
 10
1.133503
 20
8.670061
 30
0.000000
  0
SEQEND
  8
LAYER-1
  0
POLYLINE
  8
LAYER-1
 66
  1
 70
  0
 62
  7
 10
4.798424
 20
8.670061
 30
0.000000
  0
VERTEX
  8
LAYER-1
 10
4.798424
 20
8.670061
 30
0.000000
  0
VERTEX
  8
LAYER-1
 10
1.133503
 20
8.670061
 30
0.000000
  0
SEQEND
  8
LAYER-1
  0
TEXT
  8
LAYER-1
 62
  7
 10
2.922191
 20
9.477894
 30
0.000000
 40
0.340909
  1
MobilFlex
 72
  5
 11
5.131281
 21
9.477894
 31
0.000000
  0
POLYLINE
  8
LAYER-1
 66
  1
 70
  1
 62
  7
  0
VERTEX
  8
LAYER-1
 10
1.135006
 20
9.993071
 30
0.000000
  0
VERTEX
  8
LAYER-1
 10
1.372853
 20
9.993071
 30
0.000000
  0
VERTEX
  8
LAYER-1
 10
1.372853
 20
9.476125
 30
0.000000
  0
VERTEX
  8
LAYER-1
 10
1.135006
 20
9.476125
 30
0.000000
  0
SEQEND
  8
LAYER-1
  0
POLYLINE
  8
LAYER-1
 66
  1
 70
  1
 62
  7
  0
VERTEX
  8
LAYER-1
 10
1.447506
 20
9.993071
 30
0.000000
  0
VERTEX
  8
LAYER-1
 10
1.685353
 20
9.993071
 30
0.000000
  0
VERTEX
  8
LAYER-1
 10
1.685353
 20
9.476125
 30
0.000000
  0
VERTEX
  8
LAYER-1
 10
1.447506
 20
9.476125
 30
0.000000
  0
SEQEND
  8
LAYER-1
  0
POLYLINE
  8
LAYER-1
 66
  1
 70
  1
 62
  7
  0
VERTEX
  8
LAYER-1
 10
1.747853
 20
9.993071
 30
0.000000
  0
VERTEX
  8
LAYER-1
 10
1.985701
 20
9.993071
 30
0.000000
  0
VERTEX
  8
LAYER-1
 10
1.985701
 20
9.476125
 30
0.000000
  0
VERTEX
  8
LAYER-1
 10
1.747853
 20
9.476125
 30
0.000000
  0
SEQEND
  8
LAYER-1
  0
POLYLINE
  8
LAYER-1
 66
  1
 70
  1
 62
  7
  0
VERTEX
  8
LAYER-1
 10
2.051673
 20
9.993071
 30
0.000000
  0
VERTEX
  8
LAYER-1
 10
2.289520
 20
9.993071
 30
0.000000
  0
VERTEX
  8
LAYER-1
 10
2.289520
 20
9.476125
 30
0.000000
  0
VERTEX
  8
LAYER-1
 10
2.051673
 20
9.476125
 30
0.000000
  0
SEQEND
  8
LAYER-1
  0
POLYLINE
  8
LAYER-1
 66
  1
 70
  1
 62
  7
  0
VERTEX
  8
LAYER-1
 10
2.368513
 20
9.989156
 30
0.000000
  0
VERTEX
  8
LAYER-1
 10
2.743947
 20
9.989156
 30
0.000000
  0
VERTEX
  8
LAYER-1
 10
2.743947
 20
9.851134
 30
0.000000
  0
VERTEX
  8
LAYER-1
 10
2.368513
 20
9.851134
 30
0.000000
  0
SEQEND
  8
LAYER-1
  0
POLYLINE
  8
LAYER-1
 66
  1
 70
  1
 62
  7
  0
VERTEX
  8
LAYER-1
 10
2.368079
 20
9.761724
 30
0.000000
  0
VERTEX
  8
LAYER-1
 10
2.676239
 20
9.761724
 30
0.000000
  0
VERTEX
  8
LAYER-1
 10
2.676239
 20
9.627610
 30
0.000000
  0
VERTEX
  8
LAYER-1
 10
2.368079
 20
9.627610
 30
0.000000
  0
SEQEND
  8
LAYER-1
  0
POLYLINE
  8
LAYER-1
 66
  1
 70
  1
 62
  7
  0
VERTEX
  8
LAYER-1
 10
1.135006
 20
9.391498
 30
0.000000
  0
VERTEX
  8
LAYER-1
 10
5.053409
 20
9.391498
 30
0.000000
  0
VERTEX
  8
LAYER-1
 10
5.053409
 20
9.348096
 30
0.000000
  0
VERTEX
  8
LAYER-1
 10
1.135006
 20
9.348096
 30
0.000000
  0
SEQEND
  8
LAYER-1
  0
TEXT
  8
LAYER-1
 62
  7
 10
1.440372
 20
8.814258
 30
0.000000
 40
0.190909
  1
Coupe verticale ( comptoir )
 72
  5
 11
4.876736
 21
8.814258
 31
0.000000
  0
POLYLINE
  8
LAYER-1
 66
  1
 70
  0
 62
  7
 10
2.309825
 20
5.432310
 30
0.000000
  0
VERTEX
  8
LAYER-1
 10
2.309825
 20
5.432310
 30
0.000000
  0
VERTEX
  8
LAYER-1
 10
2.309756
 20
2.605747
 30
0.000000
  0
SEQEND
  8
LAYER-1
  0
POLYLINE
  8
LAYER-1
 66
  1
 70
  0
 62
  7
 10
2.329422
 20
5.432947
 30
0.000000
  0
VERTEX
  8
LAYER-1
 10
2.329422
 20
5.432947
 30
0.000000
  0
VERTEX
  8
LAYER-1
 10
2.329380
 20
2.605747
 30
0.000000
  0
SEQEND
  8
LAYER-1
  0
POLYLINE
  8
LAYER-1
 66
  1
 70
  1
 62
  7
  0
VERTEX
  8
LAYER-1
 10
0.022743
 20
0.457838
 30
0.000000
  0
VERTEX
  8
LAYER-1
 10
6.197870
 20
0.457838
 30
0.000000
  0
VERTEX
  8
LAYER-1
 10
6.197870
 20
0.001091
 30
0.000000
  0
VERTEX
  8
LAYER-1
 10
0.022743
 20
0.001091
 30
0.000000
  0
SEQEND
  8
LAYER-1
  0
POLYLINE
  8
LAYER-1
 66
  1
 70
  1
 62
  7
 10
0.120555
 20
0.408311
 30
0.000000
  0
VERTEX
  8
LAYER-1
 10
0.120555
 20
0.408311
 30
0.000000
  0
VERTEX
  8
LAYER-1
 10
0.096202
 20
0.384903
 30
0.000000
  0
VERTEX
  8
LAYER-1
 10
0.136795
 20
0.365088
 30
0.000000
  0
SEQEND
  8
LAYER-1
  0
POLYLINE
  8
LAYER-1
 66
  1
 70
  1
 62
  7
 10
0.182857
 20
0.297836
 30
0.000000
  0
VERTEX
  8
LAYER-1
 10
0.182857
 20
0.297836
 30
0.000000
  0
VERTEX
  8
LAYER-1
 10
0.203968
 20
0.270823
 30
0.000000
  0
VERTEX
  8
LAYER-1
 10
0.221829
 20
0.315852
 30
0.000000
  0
SEQEND
  8
LAYER-1
  0
POLYLINE
  8
LAYER-1
 66
  1
 70
  1
 62
  7
 10
0.400950
 20
0.391048
 30
0.000000
  0
VERTEX
  8
LAYER-1
 10
0.400950
 20
0.391048
 30
0.000000
  0
VERTEX
  8
LAYER-1
 10
0.320897
 20
0.385157
 30
0.000000
  0
VERTEX
  8
LAYER-1
 10
0.416414
 20
0.349878
 30
0.000000
  0
SEQEND
  8
LAYER-1
  0
POLYLINE
  8
LAYER-1
 66
  1
 70
  1
 62
  7
 10
0.582032
 20
0.370409
 30
0.000000
  0
VERTEX
  8
LAYER-1
 10
0.582032
 20
0.370409
 30
0.000000
  0
VERTEX
  8
LAYER-1
 10
0.557676
 20
0.346987
 30
0.000000
  0
VERTEX
  8
LAYER-1
 10
0.598271
 20
0.327178
 30
0.000000
  0
SEQEND
  8
LAYER-1
  0
POLYLINE
  8
LAYER-1
 66
  1
 70
  1
 62
  7
 10
1.084131
 20
0.345649
 30
0.000000
  0
VERTEX
  8
LAYER-1
 10
1.084131
 20
0.345649
 30
0.000000
  0
VERTEX
  8
LAYER-1
 10
1.059778
 20
0.322235
 30
0.000000
  0
VERTEX
  8
LAYER-1
 10
1.100373
 20
0.302426
 30
0.000000
  0
SEQEND
  8
LAYER-1
  0
POLYLINE
  8
LAYER-1
 66
  1
 70
  1
 62
  7
 10
1.235363
 20
0.356591
 30
0.000000
  0
VERTEX
  8
LAYER-1
 10
1.235363
 20
0.356591
 30
0.000000
  0
VERTEX
  8
LAYER-1
 10
1.316016
 20
0.344849
 30
0.000000
  0
VERTEX
  8
LAYER-1
 10
1.333029
 20
0.387733
 30
0.000000
  0
SEQEND
  8
LAYER-1
  0
POLYLINE
  8
LAYER-1
 66
  1
 70
  1
 62
  7
 10
1.575811
 20
0.327701
 30
0.000000
  0
VERTEX
  8
LAYER-1
 10
1.575811
 20
0.327701
 30
0.000000
  0
VERTEX
  8
LAYER-1
 10
1.595919
 20
0.301973
 30
0.000000
  0
VERTEX
  8
LAYER-1
 10
1.612928
 20
0.344849
 30
0.000000
  0
SEQEND
  8
LAYER-1
  0
POLYLINE
  8
LAYER-1
 66
  1
 70
  1
 62
  7
 10
1.497061
 20
0.235551
 30
0.000000
  0
VERTEX
  8
LAYER-1
 10
1.497061
 20
0.235551
 30
0.000000
  0
VERTEX
  8
LAYER-1
 10
1.523907
 20
0.252045
 30
0.000000
  0
VERTEX
  8
LAYER-1
 10
1.489600
 20
0.279366
 30
0.000000
  0
SEQEND
  8
LAYER-1
  0
POLYLINE
  8
LAYER-1
 66
  1
 70
  1
 62
  7
 10
1.649403
 20
0.086098
 30
0.000000
  0
VERTEX
  8
LAYER-1
 10
1.649403
 20
0.086098
 30
0.000000
  0
VERTEX
  8
LAYER-1
 10
1.672590
 20
0.108398
 30
0.000000
  0
VERTEX
  8
LAYER-1
 10
1.633930
 20
0.127268
 30
0.000000
  0
SEQEND
  8
LAYER-1
  0
POLYLINE
  8
LAYER-1
 66
  1
 70
  1
 62
  7
 10
1.497076
 20
0.131551
 30
0.000000
  0
VERTEX
  8
LAYER-1
 10
1.497076
 20
0.131551
 30
0.000000
  0
VERTEX
  8
LAYER-1
 10
1.476972
 20
0.157280
 30
0.000000
  0
VERTEX
  8
LAYER-1
 10
1.459961
 20
0.114403
 30
0.000000
  0
SEQEND
  8
LAYER-1
  0
POLYLINE
  8
LAYER-1
 66
  1
 70
  1
 62
  7
 10
1.140627
 20
0.048366
 30
0.000000
  0
VERTEX
  8
LAYER-1
 10
1.140627
 20
0.048366
 30
0.000000
  0
VERTEX
  8
LAYER-1
 10
1.181854
 20
0.077548
 30
0.000000
  0
VERTEX
  8
LAYER-1
 10
1.128343
 20
0.143208
 30
0.000000
  0
SEQEND
  8
LAYER-1
  0
POLYLINE
  8
LAYER-1
 66
  1
 70
  1
 62
  7
 10
0.964563
 20
0.086098
 30
0.000000
  0
VERTEX
  8
LAYER-1
 10
0.964563
 20
0.086098
 30
0.000000
  0
VERTEX
  8
LAYER-1
 10
0.943456
 20
0.113119
 30
0.000000
  0
VERTEX
  8
LAYER-1
 10
0.925597
 20
0.068097
 30
0.000000
  0
SEQEND
  8
LAYER-1
  0
POLYLINE
  8
LAYER-1
 66
  1
 70
  1
 62
  7
 10
0.121639
 20
0.145953
 30
0.000000
  0
VERTEX
  8
LAYER-1
 10
0.121639
 20
0.145953
 30
0.000000
  0
VERTEX
  8
LAYER-1
 10
0.158462
 20
0.097248
 30
0.000000
  0
VERTEX
  8
LAYER-1
 10
0.202173
 20
0.161955
 30
0.000000
  0
SEQEND
  8
LAYER-1
  0
POLYLINE
  8
LAYER-1
 66
  1
 70
  1
 62
  7
 10
0.285377
 20
0.086098
 30
0.000000
  0
VERTEX
  8
LAYER-1
 10
0.285377
 20
0.086098
 30
0.000000
  0
VERTEX
  8
LAYER-1
 10
0.313569
 20
0.103422
 30
0.000000
  0
VERTEX
  8
LAYER-1
 10
0.277538
 20
0.132120
 30
0.000000
  0
SEQEND
  8
LAYER-1
  0
POLYLINE
  8
LAYER-1
 66
  1
 70
  1
 62
  7
 10
0.661957
 20
0.137841
 30
0.000000
  0
VERTEX
  8
LAYER-1
 10
0.661957
 20
0.137841
 30
0.000000
  0
VERTEX
  8
LAYER-1
 10
0.683072
 20
0.110820
 30
0.000000
  0
VERTEX
  8
LAYER-1
 10
0.700933
 20
0.155849
 30
0.000000
  0
SEQEND
  8
LAYER-1
  0
POLYLINE
  8
LAYER-1
 66
  1
 70
  1
 62
  7
 10
0.596579
 20
0.044721
 30
0.000000
  0
VERTEX
  8
LAYER-1
 10
0.596579
 20
0.044721
 30
0.000000
  0
VERTEX
  8
LAYER-1
 10
0.648214
 20
0.067436
 30
0.000000
  0
VERTEX
  8
LAYER-1
 10
0.566480
 20
0.120225
 30
0.000000
  0
SEQEND
  8
LAYER-1
  0
POLYLINE
  8
LAYER-1
 66
  1
 70
  1
 62
  7
 10
0.894241
 20
0.330331
 30
0.000000
  0
VERTEX
  8
LAYER-1
 10
0.894241
 20
0.330331
 30
0.000000
  0
VERTEX
  8
LAYER-1
 10
0.862629
 20
0.396984
 30
0.000000
  0
VERTEX
  8
LAYER-1
 10
0.834789
 20
0.363303
 30
0.000000
  0
SEQEND
  8
LAYER-1
  0
POLYLINE
  8
LAYER-1
 66
  1
 70
  1
 62
  7
 10
1.806898
 20
0.375807
 30
0.000000
  0
VERTEX
  8
LAYER-1
 10
1.806898
 20
0.375807
 30
0.000000
  0
VERTEX
  8
LAYER-1
 10
1.782542
 20
0.352393
 30
0.000000
  0
VERTEX
  8
LAYER-1
 10
1.823141
 20
0.332576
 30
0.000000
  0
SEQEND
  8
LAYER-1
  0
POLYLINE
  8
LAYER-1
 66
  1
 70
  1
 62
  7
 10
1.969532
 20
0.301442
 30
0.000000
  0
VERTEX
  8
LAYER-1
 10
1.969532
 20
0.301442
 30
0.000000
  0
VERTEX
  8
LAYER-1
 10
1.990640
 20
0.274428
 30
0.000000
  0
VERTEX
  8
LAYER-1
 10
2.008506
 20
0.319450
 30
0.000000
  0
SEQEND
  8
LAYER-1
  0
POLYLINE
  8
LAYER-1
 66
  1
 70
  1
 62
  7
 10
2.102541
 20
0.394469
 30
0.000000
  0
VERTEX
  8
LAYER-1
 10
2.102541
 20
0.394469
 30
0.000000
  0
VERTEX
  8
LAYER-1
 10
2.022496
 20
0.388586
 30
0.000000
  0
VERTEX
  8
LAYER-1
 10
2.118012
 20
0.353307
 30
0.000000
  0
SEQEND
  8
LAYER-1
  0
POLYLINE
  8
LAYER-1
 66
  1
 70
  1
 62
  7
 10
2.368714
 20
0.374008
 30
0.000000
  0
VERTEX
  8
LAYER-1
 10
2.368714
 20
0.374008
 30
0.000000
  0
VERTEX
  8
LAYER-1
 10
2.344354
 20
0.350586
 30
0.000000
  0
VERTEX
  8
LAYER-1
 10
2.384950
 20
0.330777
 30
0.000000
  0
SEQEND
  8
LAYER-1
  0
POLYLINE
  8
LAYER-1
 66
  1
 70
  1
 62
  7
 10
2.914280
 20
0.428034
 30
0.000000
  0
VERTEX
  8
LAYER-1
 10
2.914280
 20
0.428034
 30
0.000000
  0
VERTEX
  8
LAYER-1
 10
2.889928
 20
0.404620
 30
0.000000
  0
VERTEX
  8
LAYER-1
 10
2.930526
 20
0.384811
 30
0.000000
  0
SEQEND
  8
LAYER-1
  0
POLYLINE
  8
LAYER-1
 66
  1
 70
  1
 62
  7
 10
2.936962
 20
0.360013
 30
0.000000
  0
VERTEX
  8
LAYER-1
 10
2.936962
 20
0.360013
 30
0.000000
  0
VERTEX
  8
LAYER-1
 10
3.017607
 20
0.348279
 30
0.000000
  0
VERTEX
  8
LAYER-1
 10
3.034618
 20
0.391163
 30
0.000000
  0
SEQEND
  8
LAYER-1
  0
POLYLINE
  8
LAYER-1
 66
  1
 70
  1
 62
  7
 10
2.842216
 20
0.051796
 30
0.000000
  0
VERTEX
  8
LAYER-1
 10
2.842216
 20
0.051796
 30
0.000000
  0
VERTEX
  8
LAYER-1
 10
2.883441
 20
0.080977
 30
0.000000
  0
VERTEX
  8
LAYER-1
 10
2.829932
 20
0.146630
 30
0.000000
  0
SEQEND
  8
LAYER-1
  0
POLYLINE
  8
LAYER-1
 66
  1
 70
  1
 62
  7
 10
2.751234
 20
0.089697
 30
0.000000
  0
VERTEX
  8
LAYER-1
 10
2.751234
 20
0.089697
 30
0.000000
  0
VERTEX
  8
LAYER-1
 10
2.730123
 20
0.116718
 30
0.000000
  0
VERTEX
  8
LAYER-1
 10
2.712264
 20
0.071696
 30
0.000000
  0
SEQEND
  8
LAYER-1
  0
POLYLINE
  8
LAYER-1
 66
  1
 70
  1
 62
  7
 10
1.823237
 20
0.149383
 30
0.000000
  0
VERTEX
  8
LAYER-1
 10
1.823237
 20
0.149383
 30
0.000000
  0
VERTEX
  8
LAYER-1
 10
1.860058
 20
0.100678
 30
0.000000
  0
VERTEX
  8
LAYER-1
 10
1.903770
 20
0.165384
 30
0.000000
  0
SEQEND
  8
LAYER-1
  0
POLYLINE
  8
LAYER-1
 66
  1
 70
  1
 62
  7
 10
2.072056
 20
0.089697
 30
0.000000
  0
VERTEX
  8
LAYER-1
 10
2.072056
 20
0.089697
 30
0.000000
  0
VERTEX
  8
LAYER-1
 10
2.100251
 20
0.107021
 30
0.000000
  0
VERTEX
  8
LAYER-1
 10
2.064215
 20
0.135719
 30
0.000000
  0
SEQEND
  8
LAYER-1
  0
POLYLINE
  8
LAYER-1
 66
  1
 70
  1
 62
  7
 10
2.448634
 20
0.141440
 30
0.000000
  0
VERTEX
  8
LAYER-1
 10
2.448634
 20
0.141440
 30
0.000000
  0
VERTEX
  8
LAYER-1
 10
2.469744
 20
0.114419
 30
0.000000
  0
VERTEX
  8
LAYER-1
 10
2.487609
 20
0.159448
 30
0.000000
  0
SEQEND
  8
LAYER-1
  0
POLYLINE
  8
LAYER-1
 66
  1
 70
  1
 62
  7
 10
2.298175
 20
0.048151
 30
0.000000
  0
VERTEX
  8
LAYER-1
 10
2.298175
 20
0.048151
 30
0.000000
  0
VERTEX
  8
LAYER-1
 10
2.349810
 20
0.070857
 30
0.000000
  0
VERTEX
  8
LAYER-1
 10
2.268082
 20
0.123654
 30
0.000000
  0
SEQEND
  8
LAYER-1
  0
POLYLINE
  8
LAYER-1
 66
  1
 70
  1
 62
  7
 10
2.636667
 20
0.221995
 30
0.000000
  0
VERTEX
  8
LAYER-1
 10
2.636667
 20
0.221995
 30
0.000000
  0
VERTEX
  8
LAYER-1
 10
2.623289
 20
0.330323
 30
0.000000
  0
VERTEX
  8
LAYER-1
 10
2.566479
 20
0.297797
 30
0.000000
  0
SEQEND
  8
LAYER-1
  0
POLYLINE
  8
LAYER-1
 66
  1
 70
  1
 62
  7
 10
3.182767
 20
0.401228
 30
0.000000
  0
VERTEX
  8
LAYER-1
 10
3.182767
 20
0.401228
 30
0.000000
  0
VERTEX
  8
LAYER-1
 10
3.158413
 20
0.377814
 30
0.000000
  0
VERTEX
  8
LAYER-1
 10
3.199006
 20
0.358006
 30
0.000000
  0
SEQEND
  8
LAYER-1
  0
POLYLINE
  8
LAYER-1
 66
  1
 70
  1
 62
  7
 10
3.245069
 20
0.290754
 30
0.000000
  0
VERTEX
  8
LAYER-1
 10
3.245069
 20
0.290754
 30
0.000000
  0
VERTEX
  8
LAYER-1
 10
3.266183
 20
0.263741
 30
0.000000
  0
VERTEX
  8
LAYER-1
 10
3.284039
 20
0.308762
 30
0.000000
  0
SEQEND
  8
LAYER-1
  0
POLYLINE
  8
LAYER-1
 66
  1
 70
  1
 62
  7
 10
3.463160
 20
0.383958
 30
0.000000
  0
VERTEX
  8
LAYER-1
 10
3.463160
 20
0.383958
 30
0.000000
  0
VERTEX
  8
LAYER-1
 10
3.383109
 20
0.378075
 30
0.000000
  0
VERTEX
  8
LAYER-1
 10
3.478625
 20
0.342788
 30
0.000000
  0
SEQEND
  8
LAYER-1
  0
POLYLINE
  8
LAYER-1
 66
  1
 70
  1
 62
  7
 10
3.644243
 20
0.363319
 30
0.000000
  0
VERTEX
  8
LAYER-1
 10
3.644243
 20
0.363319
 30
0.000000
  0
VERTEX
  8
LAYER-1
 10
3.619891
 20
0.339897
 30
0.000000
  0
VERTEX
  8
LAYER-1
 10
3.660483
 20
0.320096
 30
0.000000
  0
SEQEND
  8
LAYER-1
  0
POLYLINE
  8
LAYER-1
 66
  1
 70
  1
 62
  7
 10
4.146338
 20
0.338559
 30
0.000000
  0
VERTEX
  8
LAYER-1
 10
4.146338
 20
0.338559
 30
0.000000
  0
VERTEX
  8
LAYER-1
 10
4.121986
 20
0.315144
 30
0.000000
  0
VERTEX
  8
LAYER-1
 10
4.162583
 20
0.295337
 30
0.000000
  0
SEQEND
  8
LAYER-1
  0
POLYLINE
  8
LAYER-1
 66
  1
 70
  1
 62
  7
 10
4.297571
 20
0.349502
 30
0.000000
  0
VERTEX
  8
LAYER-1
 10
4.297571
 20
0.349502
 30
0.000000
  0
VERTEX
  8
LAYER-1
 10
4.378228
 20
0.337767
 30
0.000000
  0
VERTEX
  8
LAYER-1
 10
4.395239
 20
0.380643
 30
0.000000
  0
SEQEND
  8
LAYER-1
  0
POLYLINE
  8
LAYER-1
 66
  1
 70
  1
 62
  7
 10
4.638019
 20
0.320612
 30
0.000000
  0
VERTEX
  8
LAYER-1
 10
4.638019
 20
0.320612
 30
0.000000
  0
VERTEX
  8
LAYER-1
 10
4.658127
 20
0.294883
 30
0.000000
  0
VERTEX
  8
LAYER-1
 10
4.675139
 20
0.337767
 30
0.000000
  0
SEQEND
  8
LAYER-1
  0
POLYLINE
  8
LAYER-1
 66
  1
 70
  1
 62
  7
 10
4.559267
 20
0.228461
 30
0.000000
  0
VERTEX
  8
LAYER-1
 10
4.559267
 20
0.228461
 30
0.000000
  0
VERTEX
  8
LAYER-1
 10
4.586115
 20
0.244955
 30
0.000000
  0
VERTEX
  8
LAYER-1
 10
4.551808
 20
0.272283
 30
0.000000
  0
SEQEND
  8
LAYER-1
  0
POLYLINE
  8
LAYER-1
 66
  1
 70
  1
 62
  7
 10
4.711611
 20
0.079008
 30
0.000000
  0
VERTEX
  8
LAYER-1
 10
4.711611
 20
0.079008
 30
0.000000
  0
VERTEX
  8
LAYER-1
 10
4.734796
 20
0.101308
 30
0.000000
  0
VERTEX
  8
LAYER-1
 10
4.696143
 20
0.120178
 30
0.000000
  0
SEQEND
  8
LAYER-1
  0
POLYLINE
  8
LAYER-1
 66
  1
 70
  1
 62
  7
 10
4.559286
 20
0.124461
 30
0.000000
  0
VERTEX
  8
LAYER-1
 10
4.559286
 20
0.124461
 30
0.000000
  0
VERTEX
  8
LAYER-1
 10
4.539180
 20
0.150198
 30
0.000000
  0
VERTEX
  8
LAYER-1
 10
4.522167
 20
0.107314
 30
0.000000
  0
SEQEND
  8
LAYER-1
  0
POLYLINE
  8
LAYER-1
 66
  1
 70
  1
 62
  7
 10
4.202839
 20
0.041276
 30
0.000000
  0
VERTEX
  8
LAYER-1
 10
4.202839
 20
0.041276
 30
0.000000
  0
VERTEX
  8
LAYER-1
 10
4.244060
 20
0.070458
 30
0.000000
  0
VERTEX
  8
LAYER-1
 10
4.190551
 20
0.136118
 30
0.000000
  0
SEQEND
  8
LAYER-1
  0
POLYLINE
  8
LAYER-1
 66
  1
 70
  1
 62
  7
 10
4.026773
 20
0.079016
 30
0.000000
  0
VERTEX
  8
LAYER-1
 10
4.026773
 20
0.079016
 30
0.000000
  0
VERTEX
  8
LAYER-1
 10
4.005664
 20
0.106029
 30
0.000000
  0
VERTEX
  8
LAYER-1
 10
3.987805
 20
0.061007
 30
0.000000
  0
SEQEND
  8
LAYER-1
  0
POLYLINE
  8
LAYER-1
 66
  1
 70
  1
 62
  7
 10
3.183846
 20
0.138864
 30
0.000000
  0
VERTEX
  8
LAYER-1
 10
3.183846
 20
0.138864
 30
0.000000
  0
VERTEX
  8
LAYER-1
 10
3.220673
 20
0.090159
 30
0.000000
  0
VERTEX
  8
LAYER-1
 10
3.264387
 20
0.154865
 30
0.000000
  0
SEQEND
  8
LAYER-1
  0
POLYLINE
  8
LAYER-1
 66
  1
 70
  1
 62
  7
 10
3.347587
 20
0.079016
 30
0.000000
  0
VERTEX
  8
LAYER-1
 10
3.347587
 20
0.079016
 30
0.000000
  0
VERTEX
  8
LAYER-1
 10
3.375786
 20
0.096341
 30
0.000000
  0
VERTEX
  8
LAYER-1
 10
3.339749
 20
0.125030
 30
0.000000
  0
SEQEND
  8
LAYER-1
  0
POLYLINE
  8
LAYER-1
 66
  1
 70
  1
 62
  7
 10
3.724168
 20
0.130752
 30
0.000000
  0
VERTEX
  8
LAYER-1
 10
3.724168
 20
0.130752
 30
0.000000
  0
VERTEX
  8
LAYER-1
 10
3.745286
 20
0.103731
 30
0.000000
  0
VERTEX
  8
LAYER-1
 10
3.763144
 20
0.148760
 30
0.000000
  0
SEQEND
  8
LAYER-1
  0
POLYLINE
  8
LAYER-1
 66
  1
 70
  1
 62
  7
 10
3.658786
 20
0.037632
 30
0.000000
  0
VERTEX
  8
LAYER-1
 10
3.658786
 20
0.037632
 30
0.000000
  0
VERTEX
  8
LAYER-1
 10
3.710424
 20
0.060346
 30
0.000000
  0
VERTEX
  8
LAYER-1
 10
3.628693
 20
0.113135
 30
0.000000
  0
SEQEND
  8
LAYER-1
  0
POLYLINE
  8
LAYER-1
 66
  1
 70
  1
 62
  7
 10
3.956449
 20
0.323242
 30
0.000000
  0
VERTEX
  8
LAYER-1
 10
3.956449
 20
0.323242
 30
0.000000
  0
VERTEX
  8
LAYER-1
 10
3.924836
 20
0.389894
 30
0.000000
  0
VERTEX
  8
LAYER-1
 10
3.897000
 20
0.356222
 30
0.000000
  0
SEQEND
  8
LAYER-1
  0
POLYLINE
  8
LAYER-1
 66
  1
 70
  1
 62
  7
 10
4.869110
 20
0.368717
 30
0.000000
  0
VERTEX
  8
LAYER-1
 10
4.869110
 20
0.368717
 30
0.000000
  0
VERTEX
  8
LAYER-1
 10
4.844750
 20
0.345303
 30
0.000000
  0
VERTEX
  8
LAYER-1
 10
4.885347
 20
0.325495
 30
0.000000
  0
SEQEND
  8
LAYER-1
  0
POLYLINE
  8
LAYER-1
 66
  1
 70
  1
 62
  7
 10
5.031742
 20
0.294353
 30
0.000000
  0
VERTEX
  8
LAYER-1
 10
5.031742
 20
0.294353
 30
0.000000
  0
VERTEX
  8
LAYER-1
 10
5.052848
 20
0.267340
 30
0.000000
  0
VERTEX
  8
LAYER-1
 10
5.070716
 20
0.312361
 30
0.000000
  0
SEQEND
  8
LAYER-1
  0
POLYLINE
  8
LAYER-1
 66
  1
 70
  1
 62
  7
 10
5.164747
 20
0.387387
 30
0.000000
  0
VERTEX
  8
LAYER-1
 10
5.164747
 20
0.387387
 30
0.000000
  0
VERTEX
  8
LAYER-1
 10
5.084703
 20
0.381497
 30
0.000000
  0
VERTEX
  8
LAYER-1
 10
5.180220
 20
0.346218
 30
0.000000
  0
SEQEND
  8
LAYER-1
  0
POLYLINE
  8
LAYER-1
 66
  1
 70
  1
 62
  7
 10
5.430922
 20
0.366918
 30
0.000000
  0
VERTEX
  8
LAYER-1
 10
5.430922
 20
0.366918
 30
0.000000
  0
VERTEX
  8
LAYER-1
 10
5.406560
 20
0.343496
 30
0.000000
  0
VERTEX
  8
LAYER-1
 10
5.447158
 20
0.323695
 30
0.000000
  0
SEQEND
  8
LAYER-1
  0
POLYLINE
  8
LAYER-1
 66
  1
 70
  1
 62
  7
 10
5.976491
 20
0.420952
 30
0.000000
  0
VERTEX
  8
LAYER-1
 10
5.976491
 20
0.420952
 30
0.000000
  0
VERTEX
  8
LAYER-1
 10
5.952138
 20
0.397538
 30
0.000000
  0
VERTEX
  8
LAYER-1
 10
5.992735
 20
0.377721
 30
0.000000
  0
SEQEND
  8
LAYER-1
  0
POLYLINE
  8
LAYER-1
 66
  1
 70
  1
 62
  7
 10
5.999167
 20
0.352931
 30
0.000000
  0
VERTEX
  8
LAYER-1
 10
5.999167
 20
0.352931
 30
0.000000
  0
VERTEX
  8
LAYER-1
 10
6.079818
 20
0.341189
 30
0.000000
  0
VERTEX
  8
LAYER-1
 10
6.096827
 20
0.384073
 30
0.000000
  0
SEQEND
  8
LAYER-1
  0
POLYLINE
  8
LAYER-1
 66
  1
 70
  1
 62
  7
 10
5.904425
 20
0.044705
 30
0.000000
  0
VERTEX
  8
LAYER-1
 10
5.904425
 20
0.044705
 30
0.000000
  0
VERTEX
  8
LAYER-1
 10
5.945652
 20
0.073888
 30
0.000000
  0
VERTEX
  8
LAYER-1
 10
5.892141
 20
0.139541
 30
0.000000
  0
SEQEND
  8
LAYER-1
  0
POLYLINE
  8
LAYER-1
 66
  1
 70
  1
 62
  7
 10
5.813440
 20
0.082615
 30
0.000000
  0
VERTEX
  8
LAYER-1
 10
5.813440
 20
0.082615
 30
0.000000
  0
VERTEX
  8
LAYER-1
 10
5.792329
 20
0.109628
 30
0.000000
  0
VERTEX
  8
LAYER-1
 10
5.774472
 20
0.064606
 30
0.000000
  0
SEQEND
  8
LAYER-1
  0
POLYLINE
  8
LAYER-1
 66
  1
 70
  1
 62
  7
 10
4.885444
 20
0.142293
 30
0.000000
  0
VERTEX
  8
LAYER-1
 10
4.885444
 20
0.142293
 30
0.000000
  0
VERTEX
  8
LAYER-1
 10
4.922271
 20
0.093588
 30
0.000000
  0
VERTEX
  8
LAYER-1
 10
4.965978
 20
0.158295
 30
0.000000
  0
SEQEND
  8
LAYER-1
  0
POLYLINE
  8
LAYER-1
 66
  1
 70
  1
 62
  7
 10
5.134262
 20
0.082615
 30
0.000000
  0
VERTEX
  8
LAYER-1
 10
5.134262
 20
0.082615
 30
0.000000
  0
VERTEX
  8
LAYER-1
 10
5.162459
 20
0.099939
 30
0.000000
  0
VERTEX
  8
LAYER-1
 10
5.126425
 20
0.128629
 30
0.000000
  0
SEQEND
  8
LAYER-1
  0
POLYLINE
  8
LAYER-1
 66
  1
 70
  1
 62
  7
 10
5.510843
 20
0.134349
 30
0.000000
  0
VERTEX
  8
LAYER-1
 10
5.510843
 20
0.134349
 30
0.000000
  0
VERTEX
  8
LAYER-1
 10
5.531954
 20
0.107329
 30
0.000000
  0
VERTEX
  8
LAYER-1
 10
5.549816
 20
0.152358
 30
0.000000
  0
SEQEND
  8
LAYER-1
  0
POLYLINE
  8
LAYER-1
 66
  1
 70
  1
 62
  7
 10
5.360384
 20
0.041061
 30
0.000000
  0
VERTEX
  8
LAYER-1
 10
5.360384
 20
0.041061
 30
0.000000
  0
VERTEX
  8
LAYER-1
 10
5.412019
 20
0.063768
 30
0.000000
  0
VERTEX
  8
LAYER-1
 10
5.330288
 20
0.116564
 30
0.000000
  0
SEQEND
  8
LAYER-1
  0
POLYLINE
  8
LAYER-1
 66
  1
 70
  1
 62
  7
 10
5.698873
 20
0.214905
 30
0.000000
  0
VERTEX
  8
LAYER-1
 10
5.698873
 20
0.214905
 30
0.000000
  0
VERTEX
  8
LAYER-1
 10
5.685499
 20
0.323234
 30
0.000000
  0
VERTEX
  8
LAYER-1
 10
5.628688
 20
0.290707
 30
0.000000
  0
SEQEND
  8
LAYER-1
  0
POLYLINE
  8
LAYER-1
 66
  1
 70
  0
 62
  7
 40
0.018182
 41
0.018182
 10
6.197870
 20
0.457838
 30
0.000000
  0
VERTEX
  8
LAYER-1
 10
6.197870
 20
0.457838
 30
0.000000
  0
VERTEX
  8
LAYER-1
 10
0.022727
 20
0.457562
 30
0.000000
  0
SEQEND
  8
LAYER-1
  0
POLYLINE
  8
LAYER-1
 66
  1
 70
  1
 62
  7
  0
VERTEX
  8
LAYER-1
 10
1.749662
 20
8.102252
 30
0.000000
  0
VERTEX
  8
LAYER-1
 10
2.231661
 20
8.102252
 30
0.000000
  0
VERTEX
  8
LAYER-1
 10
2.231661
 20
5.306426
 30
0.000000
  0
VERTEX
  8
LAYER-1
 10
1.749662
 20
5.306426
 30
0.000000
  0
SEQEND
  8
LAYER-1
  0
POLYLINE
  8
LAYER-1
 66
  1
 70
  1
 62
  7
  0
VERTEX
  8
LAYER-1
 10
1.749662
 20
5.256685
 30
0.000000
  0
VERTEX
  8
LAYER-1
 10
2.231661
 20
5.256685
 30
0.000000
  0
VERTEX
  8
LAYER-1
 10
2.231661
 20
2.603686
 30
0.000000
  0
VERTEX
  8
LAYER-1
 10
1.749662
 20
2.603686
 30
0.000000
  0
SEQEND
  8
LAYER-1
  0
POLYLINE
  8
LAYER-1
 66
  1
 70
  1
 62
  7
  0
VERTEX
  8
LAYER-1
 10
2.182052
 20
5.256719
 30
0.000000
  0
VERTEX
  8
LAYER-1
 10
2.182052
 20
8.088864
 30
0.000000
  0
VERTEX
  8
LAYER-1
 10
2.231661
 20
8.088864
 30
0.000000
  0
VERTEX
  8
LAYER-1
 10
2.231661
 20
5.256719
 30
0.000000
  0
SEQEND
  8
LAYER-1
  0
POLYLINE
  8
LAYER-1
 66
  1
 70
  1
 62
  7
  0
VERTEX
  8
LAYER-1
 10
1.749662
 20
5.256719
 30
0.000000
  0
VERTEX
  8
LAYER-1
 10
1.749662
 20
8.088864
 30
0.000000
  0
VERTEX
  8
LAYER-1
 10
1.799874
 20
8.088864
 30
0.000000
  0
VERTEX
  8
LAYER-1
 10
1.799874
 20
5.256719
 30
0.000000
  0
SEQEND
  8
LAYER-1
  0
POLYLINE
  8
LAYER-1
 66
  1
 70
  1
 62
  7
 40
0.018182
 41
0.018182
 10
2.227726
 20
0.452724
 30
0.000000
  0
VERTEX
  8
LAYER-1
 10
2.227726
 20
0.452724
 30
0.000000
  0
VERTEX
  8
LAYER-1
 10
2.227926
 20
2.236906
 30
0.000000
  0
VERTEX
  8
LAYER-1
 10
3.353052
 20
2.236906
 30
0.000000
  0
VERTEX
  8
LAYER-1
 10
3.353052
 20
2.603509
 30
0.000000
  0
VERTEX
  8
LAYER-1
 10
1.424657
 20
2.603509
 30
0.000000
  0
VERTEX
  8
LAYER-1
 10
1.424657
 20
2.236906
 30
0.000000
  0
VERTEX
  8
LAYER-1
 10
1.747022
 20
2.236906
 30
0.000000
  0
VERTEX
  8
LAYER-1
 10
1.746157
 20
0.452724
 30
0.000000
  0
SEQEND
  8
LAYER-1
  0
POLYLINE
  8
LAYER-1
 66
  1
 70
  1
 62
  7
  0
VERTEX
  8
LAYER-1
 10
0.027595
 20
8.225621
 30
0.000000
  0
VERTEX
  8
LAYER-1
 10
6.199132
 20
8.225621
 30
0.000000
  0
VERTEX
  8
LAYER-1
 10
6.199132
 20
8.089433
 30
0.000000
  0
VERTEX
  8
LAYER-1
 10
0.027595
 20
8.089433
 30
0.000000
  0
SEQEND
  8
LAYER-1
  0
POLYLINE
  8
LAYER-1
 66
  1
 70
  1
 62
  7
  0
VERTEX
  8
LAYER-1
 10
5.635506
 20
5.260343
 30
0.000000
  0
VERTEX
  8
LAYER-1
 10
2.544799
 20
5.260343
 30
0.000000
  0
VERTEX
  8
LAYER-1
 10
2.544799
 20
5.309909
 30
0.000000
  0
VERTEX
  8
LAYER-1
 10
5.635506
 20
5.309909
 30
0.000000
  0
SEQEND
  8
LAYER-1
  0
POLYLINE
  8
LAYER-1
 66
  1
 70
  1
 62
  7
  0
VERTEX
  8
LAYER-1
 10
2.691278
 20
5.313574
 30
0.000000
  0
VERTEX
  8
LAYER-1
 10
4.614099
 20
5.313574
 30
0.000000
  0
VERTEX
  8
LAYER-1
 10
4.614099
 20
5.248659
 30
0.000000
  0
VERTEX
  8
LAYER-1
 10
2.691278
 20
5.248659
 30
0.000000
  0
SEQEND
  8
LAYER-1
  0
POLYLINE
  8
LAYER-1
 66
  1
 70
  0
 62
  7
 10
4.616006
 20
5.396901
 30
0.000000
  0
VERTEX
  8
LAYER-1
 10
4.616006
 20
5.396901
 30
0.000000
  0
VERTEX
  8
LAYER-1
 10
4.616006
 20
5.232707
 30
0.000000
  0
SEQEND
  8
LAYER-1
  0
POLYLINE
  8
LAYER-1
 66
  1
 70
  0
 62
  7
 10
4.468053
 20
5.232707
 30
0.000000
  0
VERTEX
  8
LAYER-1
 10
4.468053
 20
5.232707
 30
0.000000
  0
VERTEX
  8
LAYER-1
 10
4.616006
 20
5.232707
 30
0.000000
  0
SEQEND
  8
LAYER-1
  0
POLYLINE
  8
LAYER-1
 66
  1
 70
  1
 62
  7
  0
VERTEX
  8
LAYER-1
 10
2.755961
 20
5.292174
 30
0.000000
  0
VERTEX
  8
LAYER-1
 10
4.543367
 20
5.292174
 30
0.000000
  0
VERTEX
  8
LAYER-1
 10
4.543367
 20
5.260397
 30
0.000000
  0
VERTEX
  8
LAYER-1
 10
2.755961
 20
5.260397
 30
0.000000
  0
SEQEND
  8
LAYER-1
  0
TEXT
  8
LAYER-1
 62
  7
 10
4.240372
 20
4.786985
 30
0.000000
 40
0.150000
  1
Fournir
 72
  5
 11
4.904009
 21
4.786985
 31
0.000000
  0
TEXT
  8
LAYER-1
 62
  7
 10
4.240372
 20
4.550621
 30
0.000000
 40
0.150000
  1
PANNEAU
 72
  5
 11
5.285827
 21
4.550621
 31
0.000000
  0
TEXT
  8
LAYER-1
 62
  7
 10
4.240372
 20
4.314258
 30
0.000000
 40
0.150000
  1
D'ACCéS
 72
  5
 11
5.185827
 21
4.314258
 31
0.000000
  0
TEXT
  8
LAYER-1
 62
  7
 10
4.240372
 20
4.077894
 30
0.000000
 40
0.150000
  1
24" x 24"
 72
  5
 11
5.122191
 21
4.077894
 31
0.000000
  0
TEXT
  8
LAYER-1
 62
  7
 10
4.240372
 20
3.841531
 30
0.000000
 40
0.150000
  1
(610 x 610mm)
 72
  5
 11
5.649463
 21
3.841531
 31
0.000000
  0
TEXT
  8
LAYER-1
 62
  7
 10
4.240372
 20
3.605167
 30
0.000000
 40
0.150000
  1
pour roue de
 72
  5
 11
5.394918
 21
3.605167
 31
0.000000
  0
TEXT
  8
LAYER-1
 62
  7
 10
4.240372
 20
3.368803
 30
0.000000
 40
0.150000
  1
chargement
 72
  5
 11
5.322191
 21
3.368803
 31
0.000000
  0
LINE
  8
LAYER-1
 62
  7
 10
3.697646
 20
2.623194
 30
0.000000
 11
3.697646
 21
5.469749
 31
0.000000
  0
LINE
  8
LAYER-1
 62
  7
 10
3.415552
 20
2.603509
 30
0.000000
 11
3.822646
 21
2.603509
 31
0.000000
  0
LINE
  8
LAYER-1
 62
  7
 10
2.943906
 20
5.489434
 30
0.000000
 11
3.822646
 21
5.489434
 31
0.000000
  0
POLYLINE
  8
LAYER-1
 66
  1
 70
  1
 62
  7
  0
VERTEX
  8
LAYER-1
 10
3.697646
 20
2.603509
 30
0.000000
  0
VERTEX
  8
LAYER-1
 10
3.724918
 20
2.648964
 30
0.000000
  0
VERTEX
  8
LAYER-1
 10
3.697646
 20
2.648964
 30
0.000000
  0
VERTEX
  8
LAYER-1
 10
3.670373
 20
2.648964
 30
0.000000
  0
VERTEX
  8
LAYER-1
 10
3.697646
 20
2.603509
 30
0.000000
  0
SEQEND
  8
LAYER-1
  0
POLYLINE
  8
LAYER-1
 66
  1
 70
  1
 62
  7
  0
VERTEX
  8
LAYER-1
 10
3.697646
 20
5.489434
 30
0.000000
  0
VERTEX
  8
LAYER-1
 10
3.724918
 20
5.443979
 30
0.000000
  0
VERTEX
  8
LAYER-1
 10
3.697646
 20
5.443979
 30
0.000000
  0
VERTEX
  8
LAYER-1
 10
3.670373
 20
5.443979
 30
0.000000
  0
VERTEX
  8
LAYER-1
 10
3.697646
 20
5.489434
 30
0.000000
  0
SEQEND
  8
LAYER-1
  0
TEXT
  8
LAYER-1
 62
  7
 10
3.598370
 20
3.782442
 30
0.000000
 40
0.095455
  1
   
 50
90.000000
  0
LINE
  8
LAYER-1
 62
  7
 10
0.366201
 20
2.623194
 30
0.000000
 11
0.366200
 21
5.238994
 31
0.000000
  0
LINE
  8
LAYER-1
 62
  7
 10
1.362157
 20
2.603509
 30
0.000000
 11
0.241201
 21
2.603509
 31
0.000000
  0
LINE
  8
LAYER-1
 62
  7
 10
1.615685
 20
5.258679
 30
0.000000
 11
0.241201
 21
5.258679
 31
0.000000
  0
POLYLINE
  8
LAYER-1
 66
  1
 70
  1
 62
  7
  0
VERTEX
  8
LAYER-1
 10
0.366201
 20
2.603509
 30
0.000000
  0
VERTEX
  8
LAYER-1
 10
0.393473
 20
2.648964
 30
0.000000
  0
VERTEX
  8
LAYER-1
 10
0.366201
 20
2.648964
 30
0.000000
  0
VERTEX
  8
LAYER-1
 10
0.338928
 20
2.648964
 30
0.000000
  0
VERTEX
  8
LAYER-1
 10
0.366201
 20
2.603509
 30
0.000000
  0
SEQEND
  8
LAYER-1
  0
POLYLINE
  8
LAYER-1
 66
  1
 70
  1
 62
  7
  0
VERTEX
  8
LAYER-1
 10
0.366201
 20
5.258679
 30
0.000000
  0
VERTEX
  8
LAYER-1
 10
0.393473
 20
5.213224
 30
0.000000
  0
VERTEX
  8
LAYER-1
 10
0.366200
 20
5.213224
 30
0.000000
  0
VERTEX
  8
LAYER-1
 10
0.338928
 20
5.213224
 30
0.000000
  0
VERTEX
  8
LAYER-1
 10
0.366201
 20
5.258679
 30
0.000000
  0
SEQEND
  8
LAYER-1
  0
TEXT
  8
LAYER-1
 62
  7
 10
0.266322
 20
3.412495
 30
0.000000
 40
0.095455
  1
 
 50
90.000000
  0
TEXT
  8
LAYER-1
 62
  7
 10
3.658554
 20
3.141531
 30
0.000000
 40
0.150000
  1
HAUTEUR SOUS
 50
90.000000
 72
  5
 11
3.658554
 21
4.786985
 31
0.000000
  0
TEXT
  8
LAYER-1
 62
  7
 10
4.013100
 20
2.841531
 30
0.000000
 40
0.150000
  1
PLAQUE D'EXTRƒMITƒ
 50
90.000000
 72
  5
 11
4.013100
 21
5.086985
 31
0.000000
  0
POLYLINE
  8
LAYER-1
 66
  1
 70
  0
 62
  7
 10
2.251633
 20
5.487931
 30
0.000000
  0
VERTEX
  8
LAYER-1
 10
2.251633
 20
5.487931
 30
0.000000
  0
VERTEX
  8
LAYER-1
 10
2.251632
 20
2.603316
 30
0.000000
  0
SEQEND
  8
LAYER-1
  0
POLYLINE
  8
LAYER-1
 66
  1
 70
  0
 62
  7
 10
2.231263
 20
5.416378
 30
0.000000
  0
VERTEX
  8
LAYER-1
 10
2.231263
 20
5.416378
 30
0.000000
  0
VERTEX
  8
LAYER-1
 10
2.231263
 20
2.611613
 30
0.000000
  0
SEQEND
  8
LAYER-1
  0
POLYLINE
  8
LAYER-1
 66
  1
 70
  1
 62
  7
  0
VERTEX
  8
LAYER-1
 10
2.415811
 20
0.382897
 30
0.000000
  0
VERTEX
  8
LAYER-1
 10
3.810449
 20
0.382897
 30
0.000000
  0
VERTEX
  8
LAYER-1
 10
3.810449
 20
0.068728
 30
0.000000
  0
VERTEX
  8
LAYER-1
 10
2.415811
 20
0.068728
 30
0.000000
  0
SEQEND
  8
LAYER-1
  0
TEXT
  8
LAYER-1
 62
  7
 10
2.476736
 20
0.114258
 30
0.000000
 40
0.252273
  1
COUPE
 72
  5
 11
3.731281
 21
0.114258
 31
0.000000
  0
TEXT
  8
LAYER-1
 62
  7
 10
0.076736
 20
0.914258
 30
0.000000
 40
0.150000
  1
MAIL OU
 72
  5
 11
0.958554
 21
0.914258
 31
0.000000
  0
TEXT
  8
LAYER-1
 62
  7
 10
0.085827
 20
0.632440
 30
0.000000
 40
0.150000
  1
EXTƒRIEUR
 72
  5
 11
1.285827
 21
0.632440
 31
0.000000
  0
TEXT
  8
LAYER-1
 62
  7
 10
0.131281
 20
7.814258
 30
0.000000
 40
0.150000
  1
EXEMPLE:
 72
  5
 11
1.204009
 21
7.814258
 31
0.000000
  0
TEXT
  8
LAYER-1
 62
  7
 10
0.131281
 20
7.577894
 30
0.000000
 40
0.150000
  1
Installation en
 72
  5
 11
1.394918
 21
7.577894
 31
0.000000
  0
TEXT
  8
LAYER-1
 62
  7
 10
0.131281
 20
7.341531
 30
0.000000
 40
0.150000
  1
surface du mur
 72
  5
 11
1.485827
 21
7.341531
 31
0.000000
  0
TEXT
  8
LAYER-1
 62
  7
 10
2.667645
 20
7.832440
 30
0.000000
 40
0.150000
  1
CïTƒ BARIL
 72
  5
 11
3.931281
 21
7.832440
 31
0.000000
  0
TEXT
  8
LAYER-1
 62
  7
 10
2.667645
 20
7.596076
 30
0.000000
 40
0.150000
  1
Si le baril est apparent,
 72
  5
 11
4.731281
 21
7.596076
 31
0.000000
  0
TEXT
  8
LAYER-1
 62
  7
 10
2.667645
 20
7.359712
 30
0.000000
 40
0.150000
  1
un capot et embouts sont
 72
  5
 11
4.922191
 21
7.359712
 31
0.000000
  0
TEXT
  8
LAYER-1
 62
  7
 10
2.667645
 20
7.123349
 30
0.000000
 40
0.150000
  1
disponibles en option
 72
  5
 11
4.567645
 21
7.123349
 31
0.000000
  0
TEXT
  8
LAYER-1
 62
  7
 10
4.049463
 20
0.914258
 30
0.000000
 40
0.150000
  1
BOUTIQUE OU
 72
  5
 11
5.504009
 21
0.914258
 31
0.000000
  0
TEXT
  8
LAYER-1
 62
  7
 10
4.049463
 20
0.632440
 30
0.000000
 40
0.150000
  1
INTƒRIEUR
 72
  5
 11
5.176736
 21
0.632440
 31
0.000000
  0
POLYLINE
  8
LAYER-1
 66
  1
 70
  1
 62
  7
  0
VERTEX
  8
LAYER-1
 10
1.746994
 20
5.307439
 30
0.000000
  0
VERTEX
  8
LAYER-1
 10
2.228994
 20
5.307439
 30
0.000000
  0
VERTEX
  8
LAYER-1
 10
2.228994
 20
5.257166
 30
0.000000
  0
VERTEX
  8
LAYER-1
 10
1.746994
 20
5.257166
 30
0.000000
  0
SEQEND
  8
LAYER-1
  0
POLYLINE
  8
LAYER-1
 66
  1
 70
  0
 62
  7
 10
2.686913
 20
5.399872
 30
0.000000
  0
VERTEX
  8
LAYER-1
 10
2.686913
 20
5.399872
 30
0.000000
  0
VERTEX
  8
LAYER-1
 10
2.686913
 20
5.233153
 30
0.000000
  0
SEQEND
  8
LAYER-1
  0
POLYLINE
  8
LAYER-1
 66
  1
 70
  0
 62
  7
 10
2.834862
 20
5.233153
 30
0.000000
  0
VERTEX
  8
LAYER-1
 10
2.834862
 20
5.233153
 30
0.000000
  0
VERTEX
  8
LAYER-1
 10
2.686913
 20
5.233153
 30
0.000000
  0
SEQEND
  8
LAYER-1
  0
TEXT
  8
LAYER-1
 62
  7
 10
0.976736
 20
4.596076
 30
0.000000
 40
0.150000
  1
3" min
 72
  5
 11
1.576736
 21
4.596076
 31
0.000000
  0
TEXT
  8
LAYER-1
 62
  7
 10
0.985827
 20
4.359712
 30
0.000000
 40
0.150000
  1
76mm
 72
  5
 11
1.576736
 21
4.359712
 31
0.000000
  0
TEXT
  8
LAYER-1
 62
  7
 10
0.076736
 20
6.441531
 30
0.000000
 40
0.150000
  1
Dimensions
 72
  5
 11
1.158554
 21
6.441531
 31
0.000000
  0
TEXT
  8
LAYER-1
 62
  7
 10
0.076736
 20
6.205167
 30
0.000000
 40
0.150000
  1
plaques
 72
  5
 11
0.813100
 21
6.205167
 31
0.000000
  0
TEXT
  8
LAYER-1
 62
  7
 10
0.076736
 20
5.968803
 30
0.000000
 40
0.150000
  1
d'extrŽmitŽ
 72
  5
 11
1.076736
 21
5.968803
 31
0.000000
  0
TEXT
  8
LAYER-1
 62
  7
 10
0.076736
 20
5.732440
 30
0.000000
 40
0.150000
  1
(voir tableau)
 72
  5
 11
1.267645
 21
5.732440
 31
0.000000
  0
POLYLINE
  8
LAYER-1
 66
  1
 70
  0
 62
  7
 10
2.140795
 20
5.002852
 30
0.000000
  0
VERTEX
  8
LAYER-1
 10
2.140795
 20
5.002852
 30
0.000000
  0
VERTEX
  8
LAYER-1
 10
1.254576
 20
5.002852
 30
0.000000
  0
SEQEND
  8
LAYER-1
  0
POLYLINE
  8
LAYER-1
 66
  1
 70
  0
 62
  7
 10
1.378665
 20
4.983167
 30
0.000000
  0
VERTEX
  8
LAYER-1
 10
1.378665
 20
4.983167
 30
0.000000
  0
VERTEX
  8
LAYER-1
 10
1.378665
 20
4.788565
 30
0.000000
  0
SEQEND
  8
LAYER-1
  0
POLYLINE
  8
LAYER-1
 66
  1
 70
  1
 62
  7
  0
VERTEX
  8
LAYER-1
 10
1.378665
 20
5.002852
 30
0.000000
  0
VERTEX
  8
LAYER-1
 10
1.351393
 20
4.957397
 30
0.000000
  0
VERTEX
  8
LAYER-1
 10
1.378665
 20
4.957397
 30
0.000000
  0
VERTEX
  8
LAYER-1
 10
1.405938
 20
4.957397
 30
0.000000
  0
VERTEX
  8
LAYER-1
 10
1.378665
 20
5.002852
 30
0.000000
  0
SEQEND
  8
LAYER-1
  0
POLYLINE
  8
LAYER-1
 66
  1
 70
  0
 62
  7
 10
3.369734
 20
5.699191
 30
0.000000
  0
VERTEX
  8
LAYER-1
 10
3.369734
 20
5.699191
 30
0.000000
  0
VERTEX
  8
LAYER-1
 10
3.369734
 20
5.513521
 30
0.000000
  0
SEQEND
  8
LAYER-1
  0
POLYLINE
  8
LAYER-1
 66
  1
 70
  1
 62
  7
  0
VERTEX
  8
LAYER-1
 10
3.369734
 20
5.493836
 30
0.000000
  0
VERTEX
  8
LAYER-1
 10
3.342461
 20
5.539291
 30
0.000000
  0
VERTEX
  8
LAYER-1
 10
3.369734
 20
5.539291
 30
0.000000
  0
VERTEX
  8
LAYER-1
 10
3.397007
 20
5.539291
 30
0.000000
  0
VERTEX
  8
LAYER-1
 10
3.369734
 20
5.493836
 30
0.000000
  0
SEQEND
  8
LAYER-1
  0
POLYLINE
  8
LAYER-1
 66
  1
 70
  0
 62
  7
 10
3.369734
 20
5.243430
 30
0.000000
  0
VERTEX
  8
LAYER-1
 10
3.369734
 20
5.243430
 30
0.000000
  0
VERTEX
  8
LAYER-1
 10
3.369734
 20
5.048173
 30
0.000000
  0
SEQEND
  8
LAYER-1
  0
POLYLINE
  8
LAYER-1
 66
  1
 70
  1
 62
  7
  0
VERTEX
  8
LAYER-1
 10
3.369734
 20
5.263115
 30
0.000000
  0
VERTEX
  8
LAYER-1
 10
3.342462
 20
5.217661
 30
0.000000
  0
VERTEX
  8
LAYER-1
 10
3.369734
 20
5.217661
 30
0.000000
  0
VERTEX
  8
LAYER-1
 10
3.397007
 20
5.217661
 30
0.000000
  0
VERTEX
  8
LAYER-1
 10
3.369734
 20
5.263115
 30
0.000000
  0
SEQEND
  8
LAYER-1
  0
POLYLINE
  8
LAYER-1
 66
  1
 70
  1
 62
  7
 10
2.881406
 20
5.489434
 30
0.000000
  0
VERTEX
  8
LAYER-1
 10
2.881406
 20
5.489434
 30
0.000000
  0
VERTEX
  8
LAYER-1
 10
2.229647
 20
5.489434
 30
0.000000
  0
VERTEX
  8
LAYER-1
 10
2.229647
 20
6.141193
 30
0.000000
  0
VERTEX
  8
LAYER-1
 10
2.881406
 20
6.141193
 30
0.000000
  0
SEQEND
  8
LAYER-1
  0
ARC
  8
LAYER-1
 62
  7
  6
LTYPE02
 10
2.549698
 20
5.815440
 30
0.000000
 40
0.195112
 50
45.379215
 51
0.136948
  0
ARC
  8
LAYER-1
 62
  7
  6
LTYPE02
 10
5.040436
 20
5.292631
 30
0.000000
 40
2.766367
 50
168.480835
 51
176.784607
  0
CIRCLE
  8
LAYER-1
 62
  7
 10
2.267391
 20
5.815400
 30
0.000000
 40
0.015936
  0
CIRCLE
  8
LAYER-1
 62
  7
 10
2.267391
 20
6.066893
 30
0.000000
 40
0.015936
  0
CIRCLE
  8
LAYER-1
 62
  7
 10
2.267391
 20
5.568147
 30
0.000000
 40
0.015936
  0
POLYLINE
  8
LAYER-1
 66
  1
 70
  1
 62
  7
 10
2.350745
 20
5.487034
 30
0.000000
  0
VERTEX
  8
LAYER-1
 10
2.350745
 20
5.487034
 30
0.000000
  0
VERTEX
  8
LAYER-1
 10
2.321598
 20
5.466531
 30
0.000000
  0
VERTEX
  8
LAYER-1
 10
2.327499
 20
5.432947
 30
0.000000
  0
VERTEX
  8
LAYER-1
 10
2.328626
 20
5.439056
 30
0.000000
  0
VERTEX
  8
LAYER-1
 10
2.331032
 20
5.446138
 30
0.000000
  0
SEQEND
  8
LAYER-1
  0
POLYLINE
  8
LAYER-1
 66
  1
 70
  0
 62
  7
 10
2.331032
 20
5.446000
 30
0.000000
  0
VERTEX
  8
LAYER-1
 10
2.331032
 20
5.446000
 30
0.000000
  0
VERTEX
  8
LAYER-1
 10
2.350745
 20
5.487034
 30
0.000000
  0
SEQEND
  8
LAYER-1
  0
POLYLINE
  8
LAYER-1
 66
  1
 70
  0
 62
  7
 10
2.331032
 20
5.446134
 30
0.000000
  0
VERTEX
  8
LAYER-1
 10
2.331032
 20
5.446134
 30
0.000000
  0
VERTEX
  8
LAYER-1
 10
2.325876
 20
5.435087
 30
0.000000
  0
VERTEX
  8
LAYER-1
 10
2.327815
 20
5.431621
 30
0.000000
  0
SEQEND
  8
LAYER-1
  0
POLYLINE
  8
LAYER-1
 66
  1
 70
  0
 62
  7
 10
2.311436
 20
5.445381
 30
0.000000
  0
VERTEX
  8
LAYER-1
 10
2.311436
 20
5.445381
 30
0.000000
  0
VERTEX
  8
LAYER-1
 10
2.321598
 20
5.466531
 30
0.000000
  0
SEQEND
  8
LAYER-1
  0
POLYLINE
  8
LAYER-1
 66
  1
 70
  0
 62
  7
 10
2.311436
 20
5.445515
 30
0.000000
  0
VERTEX
  8
LAYER-1
 10
2.311436
 20
5.445515
 30
0.000000
  0
VERTEX
  8
LAYER-1
 10
2.306283
 20
5.434468
 30
0.000000
  0
VERTEX
  8
LAYER-1
 10
2.308218
 20
5.431001
 30
0.000000
  0
SEQEND
  8
LAYER-1
  0
POLYLINE
  8
LAYER-1
 66
  1
 70
  0
 62
  7
 10
2.350745
 20
5.487034
 30
0.000000
  0
VERTEX
  8
LAYER-1
 10
2.350745
 20
5.487034
 30
0.000000
  0
VERTEX
  8
LAYER-1
 10
2.321598
 20
5.466531
 30
0.000000
  0
SEQEND
  8
LAYER-1
  0
POLYLINE
  8
LAYER-1
 66
  1
 70
  0
 62
  7
 10
2.318007
 20
5.489672
 30
0.000000
  0
VERTEX
  8
LAYER-1
 10
2.318007
 20
5.489672
 30
0.000000
  0
VERTEX
  8
LAYER-1
 10
2.318007
 20
5.460121
 30
0.000000
  0
SEQEND
  8
LAYER-1
  0
POLYLINE
  8
LAYER-1
 66
  1
 70
  0
 62
  7
 10
2.327772
 20
5.489641
 30
0.000000
  0
VERTEX
  8
LAYER-1
 10
2.327772
 20
5.489641
 30
0.000000
  0
VERTEX
  8
LAYER-1
 10
2.327772
 20
5.471106
 30
0.000000
  0
SEQEND
  8
LAYER-1
  0
POLYLINE
  8
LAYER-1
 66
  1
 70
  0
 62
  7
 10
2.338090
 20
5.339676
 30
0.000000
  0
VERTEX
  8
LAYER-1
 10
2.338090
 20
5.339676
 30
0.000000
  0
VERTEX
  8
LAYER-1
 10
2.331137
 20
5.307432
 30
0.000000
  0
VERTEX
  8
LAYER-1
 10
2.331591
 20
5.272663
 30
0.000000
  0
VERTEX
  8
LAYER-1
 10
2.338090
 20
5.242231
 30
0.000000
  0
SEQEND
  8
LAYER-1
  0
CIRCLE
  8
LAYER-1
 62
  7
  6
LTYPE01
 10
2.554043
 20
5.818375
 30
0.000000
 40
0.040735
  0
CIRCLE
  8
LAYER-1
 62
  7
 10
2.554043
 20
5.818375
 30
0.000000
 40
0.184499
  0
POLYLINE
  8
LAYER-1
 66
  1
 70
  0
 62
  7
 10
2.388465
 20
4.862871
 30
0.000000
  0
VERTEX
  8
LAYER-1
 10
2.388465
 20
4.862871
 30
0.000000
  0
VERTEX
  8
LAYER-1
 10
2.453293
 20
4.675878
 30
0.000000
  0
SEQEND
  8
LAYER-1
  0
ARC
  8
LAYER-1
 62
  7
  6
LTYPE02
 10
2.549698
 20
5.815440
 30
0.000000
 40
0.207633
 50
45.379215
 51
0.136948
  0
ARC
  8
LAYER-1
 62
  7
  6
LTYPE02
 10
2.545192
 20
5.831048
 30
0.000000
 40
0.200192
 50
355.662567
 51
41.320251
  0
ARC
  8
LAYER-1
 62
  7
  6
LTYPE02
 10
2.549698
 20
5.815440
 30
0.000000
 40
0.221896
 50
45.379124
 51
172.327759
  0
ARC
  8
LAYER-1
 62
  7
  6
LTYPE02
 10
2.545192
 20
5.831048
 30
0.000000
 40
0.211600
 50
355.662567
 51
41.320251
  0
POLYLINE
  8
LAYER-1
 66
  1
 70
  0
 62
  7
 10
2.278421
 20
5.447795
 30
0.000000
  0
VERTEX
  8
LAYER-1
 10
2.278421
 20
5.447795
 30
0.000000
  0
VERTEX
  8
LAYER-1
 10
2.278421
 20
5.247275
 30
0.000000
  0
SEQEND
  8
LAYER-1
  0
POLYLINE
  8
LAYER-1
 66
  1
 70
  0
 62
  7
 10
1.378665
 20
5.272183
 30
0.000000
  0
VERTEX
  8
LAYER-1
 10
1.378665
 20
5.272183
 30
0.000000
  0
VERTEX
  8
LAYER-1
 10
1.378665
 20
5.447513
 30
0.000000
  0
SEQEND
  8
LAYER-1
  0
POLYLINE
  8
LAYER-1
 66
  1
 70
  1
 62
  7
  0
VERTEX
  8
LAYER-1
 10
1.378665
 20
5.252498
 30
0.000000
  0
VERTEX
  8
LAYER-1
 10
1.405938
 20
5.297953
 30
0.000000
  0
VERTEX
  8
LAYER-1
 10
1.378665
 20
5.297953
 30
0.000000
  0
VERTEX
  8
LAYER-1
 10
1.351393
 20
5.297953
 30
0.000000
  0
VERTEX
  8
LAYER-1
 10
1.378665
 20
5.252498
 30
0.000000
  0
SEQEND
  8
LAYER-1
  0
TEXT
  8
LAYER-1
 62
  7
 10
2.476736
 20
4.596076
 30
0.000000
 40
0.150000
  1
4" min
 72
  5
 11
3.076736
 21
4.596076
 31
0.000000
  0
TEXT
  8
LAYER-1
 62
  7
 10
2.431281
 20
4.359712
 30
0.000000
 40
0.150000
  1
102mm
 72
  5
 11
3.131281
 21
4.359712
 31
0.000000
  0
TEXT
  8
LAYER-1
 62
  7
 10
3.131281
 20
6.041531
 30
0.000000
 40
0.150000
  1
3" min
 72
  5
 11
3.731281
 21
6.041531
 31
0.000000
  0
TEXT
  8
LAYER-1
 62
  7
 10
3.140372
 20
5.805167
 30
0.000000
 40
0.150000
  1
76mm
 72
  5
 11
3.731281
 21
5.805167
 31
0.000000
  0
POLYLINE
  8
LAYER-1
 66
  1
 70
  0
 62
  7
 10
3.543475
 20
5.494441
 30
0.000000
  0
VERTEX
  8
LAYER-1
 10
3.543475
 20
5.494441
 30
0.000000
  0
VERTEX
  8
LAYER-1
 10
2.945261
 20
5.494441
 30
0.000000
  0
SEQEND
  8
LAYER-1
  0
POLYLINE
  8
LAYER-1
 66
  1
 70
  0
 62
  7
 10
2.303884
 20
5.351917
 30
0.000000
  0
VERTEX
  8
LAYER-1
 10
2.303884
 20
5.351917
 30
0.000000
  0
VERTEX
  8
LAYER-1
 10
2.342116
 20
5.351917
 30
0.000000
  0
SEQEND
  8
LAYER-1
  0
POLYLINE
  8
LAYER-1
 66
  1
 70
  0
 62
  7
 10
2.345026
 20
5.349008
 30
0.000000
  0
VERTEX
  8
LAYER-1
 10
2.345026
 20
5.349008
 30
0.000000
  0
VERTEX
  8
LAYER-1
 10
2.345026
 20
5.251882
 30
0.000000
  0
SEQEND
  8
LAYER-1
  0
POLYLINE
  8
LAYER-1
 66
  1
 70
  0
 62
  7
 10
2.342116
 20
5.248972
 30
0.000000
  0
VERTEX
  8
LAYER-1
 10
2.342116
 20
5.248972
 30
0.000000
  0
VERTEX
  8
LAYER-1
 10
2.303884
 20
5.248972
 30
0.000000
  0
SEQEND
  8
LAYER-1
  0
POLYLINE
  8
LAYER-1
 66
  1
 70
  0
 62
  7
 10
2.300974
 20
5.251882
 30
0.000000
  0
VERTEX
  8
LAYER-1
 10
2.300974
 20
5.251882
 30
0.000000
  0
VERTEX
  8
LAYER-1
 10
2.300974
 20
5.349008
 30
0.000000
  0
SEQEND
  8
LAYER-1
  0
ARC
  8
LAYER-1
 62
  7
 10
2.303884
 20
5.349008
 30
0.000000
 40
0.002909
 50
270.000000
 51
0.000000
  0
ARC
  8
LAYER-1
 62
  7
 10
2.303884
 20
5.251882
 30
0.000000
 40
0.002909
 50
0.000000
 51
90.000000
  0
ARC
  8
LAYER-1
 62
  7
 10
2.342116
 20
5.251882
 30
0.000000
 40
0.002909
 50
90.000000
 51
180.000000
  0
ARC
  8
LAYER-1
 62
  7
 10
2.342116
 20
5.349008
 30
0.000000
 40
0.002909
 50
180.000000
 51
270.000000
  0
POLYLINE
  8
LAYER-1
 66
  1
 70
  1
 62
  7
 10
2.338088
 20
5.251843
 30
0.000000
  0
VERTEX
  8
LAYER-1
 10
2.338088
 20
5.251843
 30
0.000000
  0
VERTEX
  8
LAYER-1
 10
2.307561
 20
5.251843
 30
0.000000
  0
VERTEX
  8
LAYER-1
 10
2.307561
 20
5.349288
 30
0.000000
  0
VERTEX
  8
LAYER-1
 10
2.338088
 20
5.349288
 30
0.000000
  0
SEQEND
  8
LAYER-1
  0
POLYLINE
  8
LAYER-1
 66
  1
 70
  0
 62
  7
 10
2.327730
 20
5.349288
 30
0.000000
  0
VERTEX
  8
LAYER-1
 10
2.327730
 20
5.349288
 30
0.000000
  0
VERTEX
  8
LAYER-1
 10
2.327730
 20
5.251843
 30
0.000000
  0
SEQEND
  8
LAYER-1
  0
POLYLINE
  8
LAYER-1
 66
  1
 70
  0
 62
  7
 10
2.307561
 20
5.349289
 30
0.000000
  0
VERTEX
  8
LAYER-1
 10
2.307561
 20
5.349289
 30
0.000000
  0
VERTEX
  8
LAYER-1
 10
2.319489
 20
5.342647
 30
0.000000
  0
VERTEX
  8
LAYER-1
 10
2.334187
 20
5.348843
 30
0.000000
  0
VERTEX
  8
LAYER-1
 10
2.338088
 20
5.349289
 30
0.000000
  0
SEQEND
  8
LAYER-1
  0
POLYLINE
  8
LAYER-1
 66
  1
 70
  0
 62
  7
 10
2.338088
 20
5.251844
 30
0.000000
  0
VERTEX
  8
LAYER-1
 10
2.338088
 20
5.251844
 30
0.000000
  0
VERTEX
  8
LAYER-1
 10
2.323122
 20
5.262890
 30
0.000000
  0
VERTEX
  8
LAYER-1
 10
2.308797
 20
5.257820
 30
0.000000
  0
VERTEX
  8
LAYER-1
 10
2.307561
 20
5.251844
 30
0.000000
  0
SEQEND
  8
LAYER-1
  0
POLYLINE
  8
LAYER-1
 66
  1
 70
  0
 62
  7
 10
2.307562
 20
5.251843
 30
0.000000
  0
VERTEX
  8
LAYER-1
 10
2.307562
 20
5.251843
 30
0.000000
  0
VERTEX
  8
LAYER-1
 10
2.310763
 20
5.285637
 30
0.000000
  0
VERTEX
  8
LAYER-1
 10
2.310867
 20
5.318113
 30
0.000000
  0
VERTEX
  8
LAYER-1
 10
2.305900
 20
5.349989
 30
0.000000
  0
VERTEX
  8
LAYER-1
 10
2.307562
 20
5.349288
 30
0.000000
  0
SEQEND
  8
LAYER-1
  0
POLYLINE
  8
LAYER-1
 66
  1
 70
  0
 62
  7
 10
2.261682
 20
5.024057
 30
0.000000
  0
VERTEX
  8
LAYER-1
 10
2.261682
 20
5.024057
 30
0.000000
  0
VERTEX
  8
LAYER-1
 10
2.259644
 20
5.026096
 30
0.000000
  0
SEQEND
  8
LAYER-1
  0
POLYLINE
  8
LAYER-1
 66
  1
 70
  0
 62
  7
 10
2.259644
 20
5.026095
 30
0.000000
  0
VERTEX
  8
LAYER-1
 10
2.259644
 20
5.026095
 30
0.000000
  0
VERTEX
  8
LAYER-1
 10
2.257429
 20
5.026095
 30
0.000000
  0
SEQEND
  8
LAYER-1
  0
POLYLINE
  8
LAYER-1
 66
  1
 70
  0
 62
  7
 10
2.255880
 20
5.027648
 30
0.000000
  0
VERTEX
  8
LAYER-1
 10
2.255880
 20
5.027648
 30
0.000000
  0
VERTEX
  8
LAYER-1
 10
2.257429
 20
5.026099
 30
0.000000
  0
SEQEND
  8
LAYER-1
  0
POLYLINE
  8
LAYER-1
 66
  1
 70
  0
 62
  7
 10
2.255880
 20
5.027633
 30
0.000000
  0
VERTEX
  8
LAYER-1
 10
2.255880
 20
5.027633
 30
0.000000
  0
VERTEX
  8
LAYER-1
 10
2.255880
 20
5.027648
 30
0.000000
  0
SEQEND
  8
LAYER-1
  0
POLYLINE
  8
LAYER-1
 66
  1
 70
  0
 62
  7
 10
2.257429
 20
5.029183
 30
0.000000
  0
VERTEX
  8
LAYER-1
 10
2.257429
 20
5.029183
 30
0.000000
  0
VERTEX
  8
LAYER-1
 10
2.255880
 20
5.027633
 30
0.000000
  0
SEQEND
  8
LAYER-1
  0
POLYLINE
  8
LAYER-1
 66
  1
 70
  0
 62
  7
 10
2.257429
 20
5.029186
 30
0.000000
  0
VERTEX
  8
LAYER-1
 10
2.257429
 20
5.029186
 30
0.000000
  0
VERTEX
  8
LAYER-1
 10
2.262100
 20
5.029186
 30
0.000000
  0
SEQEND
  8
LAYER-1
  0
POLYLINE
  8
LAYER-1
 66
  1
 70
  0
 62
  7
 10
2.265923
 20
5.025365
 30
0.000000
  0
VERTEX
  8
LAYER-1
 10
2.265923
 20
5.025365
 30
0.000000
  0
VERTEX
  8
LAYER-1
 10
2.262100
 20
5.029187
 30
0.000000
  0
SEQEND
  8
LAYER-1
  0
POLYLINE
  8
LAYER-1
 66
  1
 70
  0
 62
  7
 10
2.265922
 20
5.007656
 30
0.000000
  0
VERTEX
  8
LAYER-1
 10
2.265922
 20
5.007656
 30
0.000000
  0
VERTEX
  8
LAYER-1
 10
2.265922
 20
5.025365
 30
0.000000
  0
SEQEND
  8
LAYER-1
  0
POLYLINE
  8
LAYER-1
 66
  1
 70
  0
 62
  7
 10
2.265922
 20
5.007656
 30
0.000000
  0
VERTEX
  8
LAYER-1
 10
2.265922
 20
5.007656
 30
0.000000
  0
VERTEX
  8
LAYER-1
 10
2.293827
 20
5.007656
 30
0.000000
  0
SEQEND
  8
LAYER-1
  0
POLYLINE
  8
LAYER-1
 66
  1
 70
  0
 62
  7
 10
2.293827
 20
5.007656
 30
0.000000
  0
VERTEX
  8
LAYER-1
 10
2.293827
 20
5.007656
 30
0.000000
  0
VERTEX
  8
LAYER-1
 10
2.293827
 20
5.025365
 30
0.000000
  0
SEQEND
  8
LAYER-1
  0
POLYLINE
  8
LAYER-1
 66
  1
 70
  0
 62
  7
 10
2.297649
 20
5.029187
 30
0.000000
  0
VERTEX
  8
LAYER-1
 10
2.297649
 20
5.029187
 30
0.000000
  0
VERTEX
  8
LAYER-1
 10
2.293827
 20
5.025365
 30
0.000000
  0
SEQEND
  8
LAYER-1
  0
POLYLINE
  8
LAYER-1
 66
  1
 70
  0
 62
  7
 10
2.302320
 20
5.029186
 30
0.000000
  0
VERTEX
  8
LAYER-1
 10
2.302320
 20
5.029186
 30
0.000000
  0
VERTEX
  8
LAYER-1
 10
2.297649
 20
5.029186
 30
0.000000
  0
SEQEND
  8
LAYER-1
  0
POLYLINE
  8
LAYER-1
 66
  1
 70
  0
 62
  7
 10
2.303869
 20
5.027633
 30
0.000000
  0
VERTEX
  8
LAYER-1
 10
2.303869
 20
5.027633
 30
0.000000
  0
VERTEX
  8
LAYER-1
 10
2.302320
 20
5.029183
 30
0.000000
  0
SEQEND
  8
LAYER-1
  0
POLYLINE
  8
LAYER-1
 66
  1
 70
  0
 62
  7
 10
2.302320
 20
5.026099
 30
0.000000
  0
VERTEX
  8
LAYER-1
 10
2.302320
 20
5.026099
 30
0.000000
  0
VERTEX
  8
LAYER-1
 10
2.303869
 20
5.027648
 30
0.000000
  0
SEQEND
  8
LAYER-1
  0
POLYLINE
  8
LAYER-1
 66
  1
 70
  0
 62
  7
 10
2.300106
 20
5.026095
 30
0.000000
  0
VERTEX
  8
LAYER-1
 10
2.300106
 20
5.026095
 30
0.000000
  0
VERTEX
  8
LAYER-1
 10
2.302320
 20
5.026095
 30
0.000000
  0
SEQEND
  8
LAYER-1
  0
POLYLINE
  8
LAYER-1
 66
  1
 70
  0
 62
  7
 10
2.300106
 20
5.026096
 30
0.000000
  0
VERTEX
  8
LAYER-1
 10
2.300106
 20
5.026096
 30
0.000000
  0
VERTEX
  8
LAYER-1
 10
2.298067
 20
5.024057
 30
0.000000
  0
SEQEND
  8
LAYER-1
  0
POLYLINE
  8
LAYER-1
 66
  1
 70
  0
 62
  7
 10
2.298064
 20
5.007656
 30
0.000000
  0
VERTEX
  8
LAYER-1
 10
2.298064
 20
5.007656
 30
0.000000
  0
VERTEX
  8
LAYER-1
 10
2.298064
 20
5.024057
 30
0.000000
  0
SEQEND
  8
LAYER-1
  0
POLYLINE
  8
LAYER-1
 66
  1
 70
  0
 62
  7
 10
2.306738
 20
5.007656
 30
0.000000
  0
VERTEX
  8
LAYER-1
 10
2.306738
 20
5.007656
 30
0.000000
  0
VERTEX
  8
LAYER-1
 10
2.298064
 20
5.007656
 30
0.000000
  0
SEQEND
  8
LAYER-1
  0
POLYLINE
  8
LAYER-1
 66
  1
 70
  0
 62
  7
 10
2.306738
 20
5.013177
 30
0.000000
  0
VERTEX
  8
LAYER-1
 10
2.306738
 20
5.013177
 30
0.000000
  0
VERTEX
  8
LAYER-1
 10
2.306738
 20
5.007656
 30
0.000000
  0
SEQEND
  8
LAYER-1
  0
POLYLINE
  8
LAYER-1
 66
  1
 70
  0
 62
  7
 10
2.332109
 20
5.013177
 30
0.000000
  0
VERTEX
  8
LAYER-1
 10
2.332109
 20
5.013177
 30
0.000000
  0
VERTEX
  8
LAYER-1
 10
2.306738
 20
5.013177
 30
0.000000
  0
SEQEND
  8
LAYER-1
  0
POLYLINE
  8
LAYER-1
 66
  1
 70
  0
 62
  7
 10
2.332109
 20
5.013177
 30
0.000000
  0
VERTEX
  8
LAYER-1
 10
2.332109
 20
5.013177
 30
0.000000
  0
VERTEX
  8
LAYER-1
 10
2.332109
 20
5.010739
 30
0.000000
  0
SEQEND
  8
LAYER-1
  0
POLYLINE
  8
LAYER-1
 66
  1
 70
  0
 62
  7
 10
2.324466
 20
5.003095
 30
0.000000
  0
VERTEX
  8
LAYER-1
 10
2.324466
 20
5.003095
 30
0.000000
  0
VERTEX
  8
LAYER-1
 10
2.332110
 20
5.010739
 30
0.000000
  0
SEQEND
  8
LAYER-1
  0
POLYLINE
  8
LAYER-1
 66
  1
 70
  0
 62
  7
 10
2.235283
 20
5.003096
 30
0.000000
  0
VERTEX
  8
LAYER-1
 10
2.235283
 20
5.003096
 30
0.000000
  0
VERTEX
  8
LAYER-1
 10
2.324466
 20
5.003096
 30
0.000000
  0
SEQEND
  8
LAYER-1
  0
POLYLINE
  8
LAYER-1
 66
  1
 70
  0
 62
  7
 10
2.227639
 20
5.010739
 30
0.000000
  0
VERTEX
  8
LAYER-1
 10
2.227639
 20
5.010739
 30
0.000000
  0
VERTEX
  8
LAYER-1
 10
2.235283
 20
5.003095
 30
0.000000
  0
SEQEND
  8
LAYER-1
  0
POLYLINE
  8
LAYER-1
 66
  1
 70
  0
 62
  7
 10
2.227640
 20
5.013177
 30
0.000000
  0
VERTEX
  8
LAYER-1
 10
2.227640
 20
5.013177
 30
0.000000
  0
VERTEX
  8
LAYER-1
 10
2.227640
 20
5.010739
 30
0.000000
  0
SEQEND
  8
LAYER-1
  0
POLYLINE
  8
LAYER-1
 66
  1
 70
  0
 62
  7
 10
2.227640
 20
5.013177
 30
0.000000
  0
VERTEX
  8
LAYER-1
 10
2.227640
 20
5.013177
 30
0.000000
  0
VERTEX
  8
LAYER-1
 10
2.253011
 20
5.013177
 30
0.000000
  0
SEQEND
  8
LAYER-1
  0
POLYLINE
  8
LAYER-1
 66
  1
 70
  0
 62
  7
 10
2.253011
 20
5.013177
 30
0.000000
  0
VERTEX
  8
LAYER-1
 10
2.253011
 20
5.013177
 30
0.000000
  0
VERTEX
  8
LAYER-1
 10
2.253011
 20
5.007656
 30
0.000000
  0
SEQEND
  8
LAYER-1
  0
POLYLINE
  8
LAYER-1
 66
  1
 70
  0
 62
  7
 10
2.253011
 20
5.007656
 30
0.000000
  0
VERTEX
  8
LAYER-1
 10
2.253011
 20
5.007656
 30
0.000000
  0
VERTEX
  8
LAYER-1
 10
2.261685
 20
5.007656
 30
0.000000
  0
SEQEND
  8
LAYER-1
  0
POLYLINE
  8
LAYER-1
 66
  1
 70
  0
 62
  7
 10
2.261685
 20
5.007656
 30
0.000000
  0
VERTEX
  8
LAYER-1
 10
2.261685
 20
5.007656
 30
0.000000
  0
VERTEX
  8
LAYER-1
 10
2.261685
 20
5.024057
 30
0.000000
  0
SEQEND
  8
LAYER-1
  0
CIRCLE
  8
LAYER-1
 62
  7
 10
2.279294
 20
5.252081
 30
0.000000
 40
0.007145
  0
POLYLINE
  8
LAYER-1
 66
  1
 70
  0
 62
  7
 10
2.273080
 20
5.263310
 30
0.000000
  0
VERTEX
  8
LAYER-1
 10
2.273080
 20
5.263310
 30
0.000000
  0
VERTEX
  8
LAYER-1
 10
2.264977
 20
5.257599
 30
0.000000
  0
VERTEX
  8
LAYER-1
 10
2.266695
 20
5.249524
 30
0.000000
  0
SEQEND
  8
LAYER-1
  0
POLYLINE
  8
LAYER-1
 66
  1
 70
  0
 62
  7
 10
2.273081
 20
5.263307
 30
0.000000
  0
VERTEX
  8
LAYER-1
 10
2.273081
 20
5.263307
 30
0.000000
  0
VERTEX
  8
LAYER-1
 10
2.275280
 20
5.263307
 30
0.000000
  0
SEQEND
  8
LAYER-1
  0
POLYLINE
  8
LAYER-1
 66
  1
 70
  0
 62
  7
 10
2.275769
 20
5.258310
 30
0.000000
  0
VERTEX
  8
LAYER-1
 10
2.275769
 20
5.258310
 30
0.000000
  0
VERTEX
  8
LAYER-1
 10
2.275280
 20
5.263307
 30
0.000000
  0
SEQEND
  8
LAYER-1
  0
POLYLINE
  8
LAYER-1
 66
  1
 70
  0
 62
  7
 10
2.275768
 20
5.258310
 30
0.000000
  0
VERTEX
  8
LAYER-1
 10
2.275768
 20
5.258310
 30
0.000000
  0
VERTEX
  8
LAYER-1
 10
2.282805
 20
5.258306
 30
0.000000
  0
SEQEND
  8
LAYER-1
  0
POLYLINE
  8
LAYER-1
 66
  1
 70
  0
 62
  7
 10
2.282804
 20
5.258306
 30
0.000000
  0
VERTEX
  8
LAYER-1
 10
2.282804
 20
5.258306
 30
0.000000
  0
VERTEX
  8
LAYER-1
 10
2.283296
 20
5.263307
 30
0.000000
  0
SEQEND
  8
LAYER-1
  0
POLYLINE
  8
LAYER-1
 66
  1
 70
  0
 62
  7
 10
2.285496
 20
5.263307
 30
0.000000
  0
VERTEX
  8
LAYER-1
 10
2.285496
 20
5.263307
 30
0.000000
  0
VERTEX
  8
LAYER-1
 10
2.283296
 20
5.263307
 30
0.000000
  0
SEQEND
  8
LAYER-1
  0
POLYLINE
  8
LAYER-1
 66
  1
 70
  0
 62
  7
 10
2.291882
 20
5.249527
 30
0.000000
  0
VERTEX
  8
LAYER-1
 10
2.291882
 20
5.249527
 30
0.000000
  0
VERTEX
  8
LAYER-1
 10
2.288022
 20
5.261140
 30
0.000000
  0
VERTEX
  8
LAYER-1
 10
2.285497
 20
5.263310
 30
0.000000
  0
SEQEND
  8
LAYER-1
  0
POLYLINE
  8
LAYER-1
 66
  1
 70
  0
 62
  7
 10
2.291887
 20
5.249523
 30
0.000000
  0
VERTEX
  8
LAYER-1
 10
2.291887
 20
5.249523
 30
0.000000
  0
VERTEX
  8
LAYER-1
 10
2.295046
 20
5.245650
 30
0.000000
  0
SEQEND
  8
LAYER-1
  0
POLYLINE
  8
LAYER-1
 66
  1
 70
  0
 62
  7
 10
2.308679
 20
5.245653
 30
0.000000
  0
VERTEX
  8
LAYER-1
 10
2.308679
 20
5.245653
 30
0.000000
  0
VERTEX
  8
LAYER-1
 10
2.295046
 20
5.245653
 30
0.000000
  0
SEQEND
  8
LAYER-1
  0
POLYLINE
  8
LAYER-1
 66
  1
 70
  0
 62
  7
 10
2.308679
 20
5.240854
 30
0.000000
  0
VERTEX
  8
LAYER-1
 10
2.308679
 20
5.240854
 30
0.000000
  0
VERTEX
  8
LAYER-1
 10
2.308679
 20
5.245653
 30
0.000000
  0
SEQEND
  8
LAYER-1
  0
POLYLINE
  8
LAYER-1
 66
  1
 70
  0
 62
  7
 10
2.300974
 20
5.240854
 30
0.000000
  0
VERTEX
  8
LAYER-1
 10
2.300974
 20
5.240854
 30
0.000000
  0
VERTEX
  8
LAYER-1
 10
2.308679
 20
5.240854
 30
0.000000
  0
SEQEND
  8
LAYER-1
  0
POLYLINE
  8
LAYER-1
 66
  1
 70
  0
 62
  7
 10
2.300974
 20
5.240849
 30
0.000000
  0
VERTEX
  8
LAYER-1
 10
2.300974
 20
5.240849
 30
0.000000
  0
VERTEX
  8
LAYER-1
 10
2.300974
 20
5.234401
 30
0.000000
  0
SEQEND
  8
LAYER-1
  0
POLYLINE
  8
LAYER-1
 66
  1
 70
  0
 62
  7
 10
2.308679
 20
5.234403
 30
0.000000
  0
VERTEX
  8
LAYER-1
 10
2.308679
 20
5.234403
 30
0.000000
  0
VERTEX
  8
LAYER-1
 10
2.300974
 20
5.234403
 30
0.000000
  0
SEQEND
  8
LAYER-1
  0
POLYLINE
  8
LAYER-1
 66
  1
 70
  0
 62
  7
 10
2.308679
 20
5.229597
 30
0.000000
  0
VERTEX
  8
LAYER-1
 10
2.308679
 20
5.229597
 30
0.000000
  0
VERTEX
  8
LAYER-1
 10
2.308679
 20
5.234403
 30
0.000000
  0
SEQEND
  8
LAYER-1
  0
POLYLINE
  8
LAYER-1
 66
  1
 70
  0
 62
  7
 10
2.292920
 20
5.229597
 30
0.000000
  0
VERTEX
  8
LAYER-1
 10
2.292920
 20
5.229597
 30
0.000000
  0
VERTEX
  8
LAYER-1
 10
2.308679
 20
5.229597
 30
0.000000
  0
SEQEND
  8
LAYER-1
  0
POLYLINE
  8
LAYER-1
 66
  1
 70
  0
 62
  7
 10
2.292921
 20
5.229598
 30
0.000000
  0
VERTEX
  8
LAYER-1
 10
2.292921
 20
5.229598
 30
0.000000
  0
VERTEX
  8
LAYER-1
 10
2.285076
 20
5.240430
 30
0.000000
  0
VERTEX
  8
LAYER-1
 10
2.274653
 20
5.242544
 30
0.000000
  0
VERTEX
  8
LAYER-1
 10
2.265788
 20
5.236667
 30
0.000000
  0
VERTEX
  8
LAYER-1
 10
2.265644
 20
5.229600
 30
0.000000
  0
SEQEND
  8
LAYER-1
  0
POLYLINE
  8
LAYER-1
 66
  1
 70
  0
 62
  7
 10
2.265645
 20
5.229597
 30
0.000000
  0
VERTEX
  8
LAYER-1
 10
2.265645
 20
5.229597
 30
0.000000
  0
VERTEX
  8
LAYER-1
 10
2.249897
 20
5.229597
 30
0.000000
  0
SEQEND
  8
LAYER-1
  0
POLYLINE
  8
LAYER-1
 66
  1
 70
  0
 62
  7
 10
2.249897
 20
5.229597
 30
0.000000
  0
VERTEX
  8
LAYER-1
 10
2.249897
 20
5.229597
 30
0.000000
  0
VERTEX
  8
LAYER-1
 10
2.249897
 20
5.234403
 30
0.000000
  0
SEQEND
  8
LAYER-1
  0
POLYLINE
  8
LAYER-1
 66
  1
 70
  0
 62
  7
 10
2.249897
 20
5.234403
 30
0.000000
  0
VERTEX
  8
LAYER-1
 10
2.249897
 20
5.234403
 30
0.000000
  0
VERTEX
  8
LAYER-1
 10
2.257598
 20
5.234403
 30
0.000000
  0
SEQEND
  8
LAYER-1
  0
POLYLINE
  8
LAYER-1
 66
  1
 70
  0
 62
  7
 10
2.257598
 20
5.234401
 30
0.000000
  0
VERTEX
  8
LAYER-1
 10
2.257598
 20
5.234401
 30
0.000000
  0
VERTEX
  8
LAYER-1
 10
2.257598
 20
5.240849
 30
0.000000
  0
SEQEND
  8
LAYER-1
  0
POLYLINE
  8
LAYER-1
 66
  1
 70
  0
 62
  7
 10
2.257598
 20
5.240854
 30
0.000000
  0
VERTEX
  8
LAYER-1
 10
2.257598
 20
5.240854
 30
0.000000
  0
VERTEX
  8
LAYER-1
 10
2.249897
 20
5.240854
 30
0.000000
  0
SEQEND
  8
LAYER-1
  0
POLYLINE
  8
LAYER-1
 66
  1
 70
  0
 62
  7
 10
2.249897
 20
5.240854
 30
0.000000
  0
VERTEX
  8
LAYER-1
 10
2.249897
 20
5.240854
 30
0.000000
  0
VERTEX
  8
LAYER-1
 10
2.249897
 20
5.245653
 30
0.000000
  0
SEQEND
  8
LAYER-1
  0
POLYLINE
  8
LAYER-1
 66
  1
 70
  0
 62
  7
 10
2.249897
 20
5.245653
 30
0.000000
  0
VERTEX
  8
LAYER-1
 10
2.249897
 20
5.245653
 30
0.000000
  0
VERTEX
  8
LAYER-1
 10
2.263527
 20
5.245653
 30
0.000000
  0
SEQEND
  8
LAYER-1
  0
POLYLINE
  8
LAYER-1
 66
  1
 70
  0
 62
  7
 10
2.263527
 20
5.245650
 30
0.000000
  0
VERTEX
  8
LAYER-1
 10
2.263527
 20
5.245650
 30
0.000000
  0
VERTEX
  8
LAYER-1
 10
2.266686
 20
5.249521
 30
0.000000
  0
SEQEND
  8
LAYER-1
  0
POLYLINE
  8
LAYER-1
 66
  1
 70
  1
 62
  7
  0
VERTEX
  8
LAYER-1
 10
2.226821
 20
5.246806
 30
0.000000
  0
VERTEX
  8
LAYER-1
 10
2.332109
 20
5.246806
 30
0.000000
  0
VERTEX
  8
LAYER-1
 10
2.332109
 20
5.013177
 30
0.000000
  0
VERTEX
  8
LAYER-1
 10
2.226821
 20
5.013177
 30
0.000000
  0
SEQEND
  8
LAYER-1
  0
POLYLINE
  8
LAYER-1
 66
  1
 70
  0
 62
  7
 10
2.279294
 20
5.252081
 30
0.000000
  0
VERTEX
  8
LAYER-1
 10
2.279294
 20
5.252081
 30
0.000000
  0
VERTEX
  8
LAYER-1
 10
2.279275
 20
5.252081
 30
0.000000
  0
SEQEND
  8
LAYER-1
  0
POLYLINE
  8
LAYER-1
 66
  1
 70
  0
 62
  7
 10
2.365262
 20
5.220185
 30
0.000000
  0
VERTEX
  8
LAYER-1
 10
2.365262
 20
5.220185
 30
0.000000
  0
VERTEX
  8
LAYER-1
 10
2.366962
 20
5.220185
 30
0.000000
  0
SEQEND
  8
LAYER-1
  0
POLYLINE
  8
LAYER-1
 66
  1
 70
  0
 62
  7
 10
2.366962
 20
5.220185
 30
0.000000
  0
VERTEX
  8
LAYER-1
 10
2.366962
 20
5.220185
 30
0.000000
  0
VERTEX
  8
LAYER-1
 10
2.366962
 20
5.109772
 30
0.000000
  0
SEQEND
  8
LAYER-1
  0
POLYLINE
  8
LAYER-1
 66
  1
 70
  0
 62
  7
 10
2.366962
 20
5.109772
 30
0.000000
  0
VERTEX
  8
LAYER-1
 10
2.366962
 20
5.109772
 30
0.000000
  0
VERTEX
  8
LAYER-1
 10
2.365262
 20
5.109772
 30
0.000000
  0
SEQEND
  8
LAYER-1
  0
POLYLINE
  8
LAYER-1
 66
  1
 70
  0
 62
  7
 10
2.375301
 20
5.214518
 30
0.000000
  0
VERTEX
  8
LAYER-1
 10
2.375301
 20
5.214518
 30
0.000000
  0
VERTEX
  8
LAYER-1
 10
2.375301
 20
5.115439
 30
0.000000
  0
SEQEND
  8
LAYER-1
  0
POLYLINE
  8
LAYER-1
 66
  1
 70
  0
 62
  7
 10
2.377000
 20
5.167320
 30
0.000000
  0
VERTEX
  8
LAYER-1
 10
2.377000
 20
5.167320
 30
0.000000
  0
VERTEX
  8
LAYER-1
 10
2.377000
 20
5.123282
 30
0.000000
  0
SEQEND
  8
LAYER-1
  0
POLYLINE
  8
LAYER-1
 66
  1
 70
  0
 62
  7
 10
2.375455
 20
5.214518
 30
0.000000
  0
VERTEX
  8
LAYER-1
 10
2.375455
 20
5.214518
 30
0.000000
  0
VERTEX
  8
LAYER-1
 10
2.366962
 20
5.220185
 30
0.000000
  0
SEQEND
  8
LAYER-1
  0
POLYLINE
  8
LAYER-1
 66
  1
 70
  0
 62
  7
 10
2.375455
 20
5.115439
 30
0.000000
  0
VERTEX
  8
LAYER-1
 10
2.375455
 20
5.115439
 30
0.000000
  0
VERTEX
  8
LAYER-1
 10
2.366962
 20
5.109772
 30
0.000000
  0
SEQEND
  8
LAYER-1
  0
POLYLINE
  8
LAYER-1
 66
  1
 70
  0
 62
  7
 10
2.377000
 20
5.167320
 30
0.000000
  0
VERTEX
  8
LAYER-1
 10
2.377000
 20
5.167320
 30
0.000000
  0
VERTEX
  8
LAYER-1
 10
2.375301
 20
5.167320
 30
0.000000
  0
SEQEND
  8
LAYER-1
  0
POLYLINE
  8
LAYER-1
 66
  1
 70
  0
 62
  7
 10
2.377000
 20
5.123282
 30
0.000000
  0
VERTEX
  8
LAYER-1
 10
2.377000
 20
5.123282
 30
0.000000
  0
VERTEX
  8
LAYER-1
 10
2.375301
 20
5.123282
 30
0.000000
  0
SEQEND
  8
LAYER-1
  0
POLYLINE
  8
LAYER-1
 66
  1
 70
  0
 62
  7
 10
2.332501
 20
5.239870
 30
0.000000
  0
VERTEX
  8
LAYER-1
 10
2.332501
 20
5.239870
 30
0.000000
  0
VERTEX
  8
LAYER-1
 10
2.362867
 20
5.226779
 30
0.000000
  0
SEQEND
  8
LAYER-1
  0
POLYLINE
  8
LAYER-1
 66
  1
 70
  0
 62
  7
 10
2.365162
 20
5.223288
 30
0.000000
  0
VERTEX
  8
LAYER-1
 10
2.365162
 20
5.223288
 30
0.000000
  0
VERTEX
  8
LAYER-1
 10
2.362865
 20
5.226779
 30
0.000000
  0
SEQEND
  8
LAYER-1
  0
POLYLINE
  8
LAYER-1
 66
  1
 70
  0
 62
  7
 10
2.365162
 20
5.223288
 30
0.000000
  0
VERTEX
  8
LAYER-1
 10
2.365162
 20
5.223288
 30
0.000000
  0
VERTEX
  8
LAYER-1
 10
2.365162
 20
5.106120
 30
0.000000
  0
SEQEND
  8
LAYER-1
  0
POLYLINE
  8
LAYER-1
 66
  1
 70
  0
 62
  7
 10
2.362813
 20
5.102607
 30
0.000000
  0
VERTEX
  8
LAYER-1
 10
2.362813
 20
5.102607
 30
0.000000
  0
VERTEX
  8
LAYER-1
 10
2.365162
 20
5.106120
 30
0.000000
  0
SEQEND
  8
LAYER-1
  0
POLYLINE
  8
LAYER-1
 66
  1
 70
  0
 62
  7
 10
2.332501
 20
5.090064
 30
0.000000
  0
VERTEX
  8
LAYER-1
 10
2.332501
 20
5.090064
 30
0.000000
  0
VERTEX
  8
LAYER-1
 10
2.362817
 20
5.102605
 30
0.000000
  0
SEQEND
  8
LAYER-1
  0
POLYLINE
  8
LAYER-1
 66
  1
 70
  0
 62
  7
 10
2.332501
 20
5.090064
 30
0.000000
  0
VERTEX
  8
LAYER-1
 10
2.332501
 20
5.090064
 30
0.000000
  0
VERTEX
  8
LAYER-1
 10
2.332501
 20
5.239870
 30
0.000000
  0
SEQEND
  8
LAYER-1
  0
POLYLINE
  8
LAYER-1
 66
  1
 70
  0
 62
  9
 10
2.411803
 20
5.178950
 30
0.000000
  0
VERTEX
  8
LAYER-1
 10
2.411803
 20
5.178950
 30
0.000000
  0
VERTEX
  8
LAYER-1
 10
2.356696
 20
5.139646
 30
0.000000
  0
SEQEND
  8
LAYER-1
  0
POLYLINE
  8
LAYER-1
 66
  1
 70
  0
 62
  9
 10
2.332467
 20
5.152126
 30
0.000000
  0
VERTEX
  8
LAYER-1
 10
2.332467
 20
5.152126
 30
0.000000
  0
VERTEX
  8
LAYER-1
 10
2.334988
 20
5.143255
 30
0.000000
  0
VERTEX
  8
LAYER-1
 10
2.345827
 20
5.138765
 30
0.000000
  0
VERTEX
  8
LAYER-1
 10
2.356696
 20
5.139645
 30
0.000000
  0
SEQEND
  8
LAYER-1
  0
POLYLINE
  8
LAYER-1
 66
  1
 70
  0
 62
  9
 10
2.332467
 20
5.152126
 30
0.000000
  0
VERTEX
  8
LAYER-1
 10
2.332467
 20
5.152126
 30
0.000000
  0
VERTEX
  8
LAYER-1
 10
2.332467
 20
5.247090
 30
0.000000
  0
SEQEND
  8
LAYER-1
  0
POLYLINE
  8
LAYER-1
 66
  1
 70
  0
 62
  9
 10
2.332467
 20
5.247090
 30
0.000000
  0
VERTEX
  8
LAYER-1
 10
2.332467
 20
5.247090
 30
0.000000
  0
VERTEX
  8
LAYER-1
 10
2.325027
 20
5.247129
 30
0.000000
  0
SEQEND
  8
LAYER-1
  0
POLYLINE
  8
LAYER-1
 66
  1
 70
  0
 62
  9
 10
2.341861
 20
5.247147
 30
0.000000
  0
VERTEX
  8
LAYER-1
 10
2.341861
 20
5.247147
 30
0.000000
  0
VERTEX
  8
LAYER-1
 10
2.331419
 20
5.257476
 30
0.000000
  0
VERTEX
  8
LAYER-1
 10
2.325026
 20
5.247130
 30
0.000000
  0
SEQEND
  8
LAYER-1
  0
POLYLINE
  8
LAYER-1
 66
  1
 70
  0
 62
  9
 10
2.341860
 20
5.247144
 30
0.000000
  0
VERTEX
  8
LAYER-1
 10
2.341860
 20
5.247144
 30
0.000000
  0
VERTEX
  8
LAYER-1
 10
2.341810
 20
5.150757
 30
0.000000
  0
SEQEND
  8
LAYER-1
  0
POLYLINE
  8
LAYER-1
 66
  1
 70
  0
 62
  9
 10
2.341810
 20
5.150757
 30
0.000000
  0
VERTEX
  8
LAYER-1
 10
2.341810
 20
5.150757
 30
0.000000
  0
VERTEX
  8
LAYER-1
 10
2.349801
 20
5.146641
 30
0.000000
  0
SEQEND
  8
LAYER-1
  0
POLYLINE
  8
LAYER-1
 66
  1
 70
  0
 62
  9
 10
2.406163
 20
5.186828
 30
0.000000
  0
VERTEX
  8
LAYER-1
 10
2.406163
 20
5.186828
 30
0.000000
  0
VERTEX
  8
LAYER-1
 10
2.349799
 20
5.146635
 30
0.000000
  0
SEQEND
  8
LAYER-1
  0
POLYLINE
  8
LAYER-1
 66
  1
 70
  0
 62
  9
 10
2.411803
 20
5.178947
 30
0.000000
  0
VERTEX
  8
LAYER-1
 10
2.411803
 20
5.178947
 30
0.000000
  0
VERTEX
  8
LAYER-1
 10
2.406163
 20
5.186829
 30
0.000000
  0
SEQEND
  8
LAYER-1
  0
POLYLINE
  8
LAYER-1
 66
  1
 70
  0
 62
  7
 10
2.193491
 20
5.220185
 30
0.000000
  0
VERTEX
  8
LAYER-1
 10
2.193491
 20
5.220185
 30
0.000000
  0
VERTEX
  8
LAYER-1
 10
2.191792
 20
5.220185
 30
0.000000
  0
SEQEND
  8
LAYER-1
  0
POLYLINE
  8
LAYER-1
 66
  1
 70
  0
 62
  7
 10
2.191792
 20
5.220185
 30
0.000000
  0
VERTEX
  8
LAYER-1
 10
2.191792
 20
5.220185
 30
0.000000
  0
VERTEX
  8
LAYER-1
 10
2.191792
 20
5.109772
 30
0.000000
  0
SEQEND
  8
LAYER-1
  0
POLYLINE
  8
LAYER-1
 66
  1
 70
  0
 62
  7
 10
2.191792
 20
5.109772
 30
0.000000
  0
VERTEX
  8
LAYER-1
 10
2.191792
 20
5.109772
 30
0.000000
  0
VERTEX
  8
LAYER-1
 10
2.193491
 20
5.109772
 30
0.000000
  0
SEQEND
  8
LAYER-1
  0
POLYLINE
  8
LAYER-1
 66
  1
 70
  0
 62
  7
 10
2.183449
 20
5.214518
 30
0.000000
  0
VERTEX
  8
LAYER-1
 10
2.183449
 20
5.214518
 30
0.000000
  0
VERTEX
  8
LAYER-1
 10
2.183449
 20
5.115439
 30
0.000000
  0
SEQEND
  8
LAYER-1
  0
POLYLINE
  8
LAYER-1
 66
  1
 70
  0
 62
  7
 10
2.181749
 20
5.167320
 30
0.000000
  0
VERTEX
  8
LAYER-1
 10
2.181749
 20
5.167320
 30
0.000000
  0
VERTEX
  8
LAYER-1
 10
2.181749
 20
5.123282
 30
0.000000
  0
SEQEND
  8
LAYER-1
  0
POLYLINE
  8
LAYER-1
 66
  1
 70
  0
 62
  7
 10
2.183299
 20
5.214518
 30
0.000000
  0
VERTEX
  8
LAYER-1
 10
2.183299
 20
5.214518
 30
0.000000
  0
VERTEX
  8
LAYER-1
 10
2.191792
 20
5.220185
 30
0.000000
  0
SEQEND
  8
LAYER-1
  0
POLYLINE
  8
LAYER-1
 66
  1
 70
  0
 62
  7
 10
2.183299
 20
5.115439
 30
0.000000
  0
VERTEX
  8
LAYER-1
 10
2.183299
 20
5.115439
 30
0.000000
  0
VERTEX
  8
LAYER-1
 10
2.191792
 20
5.109772
 30
0.000000
  0
SEQEND
  8
LAYER-1
  0
POLYLINE
  8
LAYER-1
 66
  1
 70
  0
 62
  7
 10
2.181749
 20
5.167320
 30
0.000000
  0
VERTEX
  8
LAYER-1
 10
2.181749
 20
5.167320
 30
0.000000
  0
VERTEX
  8
LAYER-1
 10
2.183449
 20
5.167320
 30
0.000000
  0
SEQEND
  8
LAYER-1
  0
POLYLINE
  8
LAYER-1
 66
  1
 70
  0
 62
  7
 10
2.181749
 20
5.123282
 30
0.000000
  0
VERTEX
  8
LAYER-1
 10
2.181749
 20
5.123282
 30
0.000000
  0
VERTEX
  8
LAYER-1
 10
2.183449
 20
5.123282
 30
0.000000
  0
SEQEND
  8
LAYER-1
  0
POLYLINE
  8
LAYER-1
 66
  1
 70
  0
 62
  7
 10
2.226252
 20
5.239870
 30
0.000000
  0
VERTEX
  8
LAYER-1
 10
2.226252
 20
5.239870
 30
0.000000
  0
VERTEX
  8
LAYER-1
 10
2.195882
 20
5.226779
 30
0.000000
  0
SEQEND
  8
LAYER-1
  0
POLYLINE
  8
LAYER-1
 66
  1
 70
  0
 62
  7
 10
2.195885
 20
5.226779
 30
0.000000
  0
VERTEX
  8
LAYER-1
 10
2.195885
 20
5.226779
 30
0.000000
  0
VERTEX
  8
LAYER-1
 10
2.193588
 20
5.223288
 30
0.000000
  0
SEQEND
  8
LAYER-1
  0
POLYLINE
  8
LAYER-1
 66
  1
 70
  0
 62
  7
 10
2.193587
 20
5.223288
 30
0.000000
  0
VERTEX
  8
LAYER-1
 10
2.193587
 20
5.223288
 30
0.000000
  0
VERTEX
  8
LAYER-1
 10
2.193587
 20
5.106120
 30
0.000000
  0
SEQEND
  8
LAYER-1
  0
POLYLINE
  8
LAYER-1
 66
  1
 70
  0
 62
  7
 10
2.193588
 20
5.106120
 30
0.000000
  0
VERTEX
  8
LAYER-1
 10
2.193588
 20
5.106120
 30
0.000000
  0
VERTEX
  8
LAYER-1
 10
2.195936
 20
5.102607
 30
0.000000
  0
SEQEND
  8
LAYER-1
  0
POLYLINE
  8
LAYER-1
 66
  1
 70
  0
 62
  7
 10
2.226252
 20
5.090064
 30
0.000000
  0
VERTEX
  8
LAYER-1
 10
2.226252
 20
5.090064
 30
0.000000
  0
VERTEX
  8
LAYER-1
 10
2.195936
 20
5.102605
 30
0.000000
  0
SEQEND
  8
LAYER-1
  0
POLYLINE
  8
LAYER-1
 66
  1
 70
  0
 62
  7
 10
2.226252
 20
5.090064
 30
0.000000
  0
VERTEX
  8
LAYER-1
 10
2.226252
 20
5.090064
 30
0.000000
  0
VERTEX
  8
LAYER-1
 10
2.226252
 20
5.239870
 30
0.000000
  0
SEQEND
  8
LAYER-1
  0
POLYLINE
  8
LAYER-1
 66
  1
 70
  0
 62
  9
 10
2.146951
 20
5.178950
 30
0.000000
  0
VERTEX
  8
LAYER-1
 10
2.146951
 20
5.178950
 30
0.000000
  0
VERTEX
  8
LAYER-1
 10
2.202057
 20
5.139646
 30
0.000000
  0
SEQEND
  8
LAYER-1
  0
POLYLINE
  8
LAYER-1
 66
  1
 70
  0
 62
  9
 10
2.202058
 20
5.139645
 30
0.000000
  0
VERTEX
  8
LAYER-1
 10
2.202058
 20
5.139645
 30
0.000000
  0
VERTEX
  8
LAYER-1
 10
2.211521
 20
5.138975
 30
0.000000
  0
VERTEX
  8
LAYER-1
 10
2.221470
 20
5.145194
 30
0.000000
  0
VERTEX
  8
LAYER-1
 10
2.226287
 20
5.152126
 30
0.000000
  0
SEQEND
  8
LAYER-1
  0
POLYLINE
  8
LAYER-1
 66
  1
 70
  0
 62
  9
 10
2.226287
 20
5.152126
 30
0.000000
  0
VERTEX
  8
LAYER-1
 10
2.226287
 20
5.152126
 30
0.000000
  0
VERTEX
  8
LAYER-1
 10
2.226287
 20
5.247090
 30
0.000000
  0
SEQEND
  8
LAYER-1
  0
POLYLINE
  8
LAYER-1
 66
  1
 70
  0
 62
  9
 10
2.226287
 20
5.247090
 30
0.000000
  0
VERTEX
  8
LAYER-1
 10
2.226287
 20
5.247090
 30
0.000000
  0
VERTEX
  8
LAYER-1
 10
2.233726
 20
5.247129
 30
0.000000
  0
SEQEND
  8
LAYER-1
  0
POLYLINE
  8
LAYER-1
 66
  1
 70
  0
 62
  9
 10
2.233724
 20
5.247130
 30
0.000000
  0
VERTEX
  8
LAYER-1
 10
2.233724
 20
5.247130
 30
0.000000
  0
VERTEX
  8
LAYER-1
 10
2.223298
 20
5.257477
 30
0.000000
  0
VERTEX
  8
LAYER-1
 10
2.216889
 20
5.247147
 30
0.000000
  0
SEQEND
  8
LAYER-1
  0
POLYLINE
  8
LAYER-1
 66
  1
 70
  0
 62
  9
 10
2.216890
 20
5.247144
 30
0.000000
  0
VERTEX
  8
LAYER-1
 10
2.216890
 20
5.247144
 30
0.000000
  0
VERTEX
  8
LAYER-1
 10
2.216944
 20
5.150757
 30
0.000000
  0
SEQEND
  8
LAYER-1
  0
POLYLINE
  8
LAYER-1
 66
  1
 70
  0
 62
  9
 10
2.208953
 20
5.146641
 30
0.000000
  0
VERTEX
  8
LAYER-1
 10
2.208953
 20
5.146641
 30
0.000000
  0
VERTEX
  8
LAYER-1
 10
2.216943
 20
5.150757
 30
0.000000
  0
SEQEND
  8
LAYER-1
  0
POLYLINE
  8
LAYER-1
 66
  1
 70
  0
 62
  9
 10
2.152591
 20
5.186828
 30
0.000000
  0
VERTEX
  8
LAYER-1
 10
2.152591
 20
5.186828
 30
0.000000
  0
VERTEX
  8
LAYER-1
 10
2.208955
 20
5.146635
 30
0.000000
  0
SEQEND
  8
LAYER-1
  0
POLYLINE
  8
LAYER-1
 66
  1
 70
  0
 62
  9
 10
2.152590
 20
5.186829
 30
0.000000
  0
VERTEX
  8
LAYER-1
 10
2.152590
 20
5.186829
 30
0.000000
  0
VERTEX
  8
LAYER-1
 10
2.146951
 20
5.178947
 30
0.000000
  0
SEQEND
  8
LAYER-1
  0
CIRCLE
  8
LAYER-1
 62
  7
 10
2.277812
 20
5.148234
 30
0.000000
 40
0.022842
  0
POLYLINE
  8
LAYER-1
 66
  1
 70
  0
 62
  7
 10
2.556659
 20
5.187899
 30
0.000000
  0
VERTEX
  8
LAYER-1
 10
2.556659
 20
5.187899
 30
0.000000
  0
VERTEX
  8
LAYER-1
 10
2.556659
 20
4.767225
 30
0.000000
  0
SEQEND
  8
LAYER-1
  0
POLYLINE
  8
LAYER-1
 66
  1
 70
  0
 62
  7
 10
2.536974
 20
4.863378
 30
0.000000
  0
VERTEX
  8
LAYER-1
 10
2.536974
 20
4.863378
 30
0.000000
  0
VERTEX
  8
LAYER-1
 10
2.249421
 20
4.863378
 30
0.000000
  0
SEQEND
  8
LAYER-1
  0
POLYLINE
  8
LAYER-1
 66
  1
 70
  1
 62
  7
  0
VERTEX
  8
LAYER-1
 10
2.556659
 20
4.863378
 30
0.000000
  0
VERTEX
  8
LAYER-1
 10
2.511204
 20
4.890651
 30
0.000000
  0
VERTEX
  8
LAYER-1
 10
2.511204
 20
4.863378
 30
0.000000
  0
VERTEX
  8
LAYER-1
 10
2.511204
 20
4.836106
 30
0.000000
  0
VERTEX
  8
LAYER-1
 10
2.556659
 20
4.863378
 30
0.000000
  0
SEQEND
  8
LAYER-1
  0
POLYLINE
  8
LAYER-1
 66
  1
 70
  1
 62
  7
  0
VERTEX
  8
LAYER-1
 10
2.229735
 20
4.863378
 30
0.000000
  0
VERTEX
  8
LAYER-1
 10
2.275190
 20
4.890651
 30
0.000000
  0
VERTEX
  8
LAYER-1
 10
2.275190
 20
4.863378
 30
0.000000
  0
VERTEX
  8
LAYER-1
 10
2.275190
 20
4.836106
 30
0.000000
  0
VERTEX
  8
LAYER-1
 10
2.229735
 20
4.863378
 30
0.000000
  0
SEQEND
  8
LAYER-1
  0
POLYLINE
  8
LAYER-1
 66
  1
 70
  0
 62
  7
 10
1.678185
 20
5.258679
 30
0.000000
  0
VERTEX
  8
LAYER-1
 10
1.678185
 20
5.258679
 30
0.000000
  0
VERTEX
  8
LAYER-1
 10
1.254576
 20
5.258679
 30
0.000000
  0
SEQEND
  8
LAYER-1
  0
POLYLINE
  8
LAYER-1
 66
  1
 70
  0
 62
  7
 10
1.303076
 20
5.998509
 30
0.000000
  0
VERTEX
  8
LAYER-1
 10
1.303076
 20
5.998509
 30
0.000000
  0
VERTEX
  8
LAYER-1
 10
2.214739
 20
5.906731
 30
0.000000
  0
SEQEND
  8
LAYER-1
  0
POLYLINE
  8
LAYER-1
 66
  1
 70
  1
 62
  7
  0
VERTEX
  8
LAYER-1
 10
2.234325
 20
5.904759
 30
0.000000
  0
VERTEX
  8
LAYER-1
 10
2.186367
 20
5.882177
 30
0.000000
  0
VERTEX
  8
LAYER-1
 10
2.189099
 20
5.909312
 30
0.000000
  0
VERTEX
  8
LAYER-1
 10
2.191831
 20
5.936448
 30
0.000000
  0
VERTEX
  8
LAYER-1
 10
2.234325
 20
5.904759
 30
0.000000
  0
SEQEND
  8
LAYER-1
  0
TEXT
  8
LAYER-1
 62
  7
 10
0.304009
 20
2.959712
 30
0.000000
 40
0.150000
  1
OUVERTURE LIBRE
 50
90.000000
 72
  5
 11
0.304009
 21
4.905167
 31
0.000000
  0
ENDSEC
  0
EOF
