  0
SECTION
  2
HEADER
999
MacDraft 5.0\0
  9
$ACADVER
  1
AC1006
  9
$CLAYER
  8
LAYER-1
  9
$EXTMIN
 10
0.000000
 20
0.000000
  9
$EXTMAX
 10
6.535379
 20
9.962820
  9
$FASTZOOM
 70
0
  9
$FILLMODE
 70
1
  0
ENDSEC
  0
SECTION
  2
TABLES
  0
TABLE
  2
LTYPE
 70
16
  0
LTYPE
  2
CONTINUOUS
 70
64
  3
Solid Line
 72
65
 73
0
 40
0.000000
  0
LTYPE
  2
LTYPE01
 70
64
  3
CUSTOM
 72
65
 73
2
 40
0.076923
 49
0.057692
 49
-0.019231
  0
LTYPE
  2
LTYPE02
 70
64
  3
CUSTOM
 72
65
 73
2
 40
0.134615
 49
0.115385
 49
-0.019231
  0
LTYPE
  2
LTYPE03
 70
64
  3
CUSTOM
 72
65
 73
2
 40
0.259615
 49
0.230769
 49
-0.028846
  0
LTYPE
  2
LTYPE04
 70
64
  3
CUSTOM
 72
65
 73
2
 40
0.500000
 49
0.461538
 49
-0.038462
  0
LTYPE
  2
LTYPE05
 70
64
  3
CUSTOM
 72
65
 73
4
 40
0.105769
 49
0.057692
 49
-0.019231
 49
0.009615
 49
-0.019231
  0
LTYPE
  2
LTYPE06
 70
64
  3
CUSTOM
 72
65
 73
4
 40
0.163462
 49
0.115385
 49
-0.019231
 49
0.009615
 49
-0.019231
  0
LTYPE
  2
LTYPE07
 70
64
  3
CUSTOM
 72
65
 73
4
 40
0.307692
 49
0.230769
 49
-0.028846
 49
0.019231
 49
-0.028846
  0
LTYPE
  2
LTYPE08
 70
64
  3
CUSTOM
 72
65
 73
4
 40
0.557692
 49
0.461538
 49
-0.038462
 49
0.019231
 49
-0.038462
  0
LTYPE
  2
LTYPE09
 70
64
  3
CUSTOM
 72
65
 73
6
 40
0.134615
 49
0.057692
 49
-0.019231
 49
0.009615
 49
-0.019231
 49
0.009615
 49
-0.019231
  0
LTYPE
  2
LTYPE10
 70
64
  3
CUSTOM
 72
65
 73
6
 40
0.192308
 49
0.115385
 49
-0.019231
 49
0.009615
 49
-0.019231
 49
0.009615
 49
-0.019231
  0
LTYPE
  2
LTYPE11
 70
64
  3
CUSTOM
 72
65
 73
6
 40
0.346154
 49
0.230769
 49
-0.028846
 49
0.019231
 49
-0.019231
 49
0.019231
 49
-0.028846
  0
LTYPE
  2
LTYPE12
 70
64
  3
CUSTOM
 72
65
 73
6
 40
0.596154
 49
0.461538
 49
-0.038462
 49
0.019231
 49
-0.019231
 49
0.019231
 49
-0.038462
  0
LTYPE
  2
LTYPE13
 70
64
  3
CUSTOM
 72
65
 73
8
 40
0.221154
 49
0.115385
 49
-0.019231
 49
0.009615
 49
-0.019231
 49
0.009615
 49
-0.019231
 49
0.009615
 49
-0.019231
  0
LTYPE
  2
LTYPE14
 70
64
  3
CUSTOM
 72
65
 73
8
 40
0.384615
 49
0.230769
 49
-0.028846
 49
0.019231
 49
-0.019231
 49
0.019231
 49
-0.019231
 49
0.019231
 49
-0.028846
  0
LTYPE
  2
LTYPE15
 70
64
  3
CUSTOM
 72
65
 73
8
 40
0.653846
 49
0.461538
 49
-0.038462
 49
0.019231
 49
-0.028846
 49
0.019231
 49
-0.028846
 49
0.019231
 49
-0.038462
  0
ENDTAB
  0
TABLE
  2
LAYER
 70
1
  0
LAYER
  2
LAYER-1
 70
0
 62
7
  6
CONTINUOUS
  0
ENDTAB
  0
ENDSEC
  0
SECTION
  2
BLOCKS
  0
ENDSEC
  0
SECTION
  2
ENTITIES
  0
ARC
  8
LAYER-1
 62
  7
 10
4.960227
 20
8.908271
 30
0.000000
 40
0.254425
 50
270.000000
 51
90.000000
  0
POLYLINE
  8
LAYER-1
 66
  1
 70
  0
 62
  7
 10
4.960227
 20
9.162696
 30
0.000000
  0
VERTEX
  8
LAYER-1
 10
4.960227
 20
9.162696
 30
0.000000
  0
VERTEX
  8
LAYER-1
 10
1.295305
 20
9.162696
 30
0.000000
  0
SEQEND
  8
LAYER-1
  0
POLYLINE
  8
LAYER-1
 66
  1
 70
  0
 62
  7
 10
1.295305
 20
9.162696
 30
0.000000
  0
VERTEX
  8
LAYER-1
 10
1.295305
 20
9.162696
 30
0.000000
  0
VERTEX
  8
LAYER-1
 10
1.295305
 20
8.653847
 30
0.000000
  0
SEQEND
  8
LAYER-1
  0
POLYLINE
  8
LAYER-1
 66
  1
 70
  0
 62
  7
 10
4.960227
 20
8.653847
 30
0.000000
  0
VERTEX
  8
LAYER-1
 10
4.960227
 20
8.653847
 30
0.000000
  0
VERTEX
  8
LAYER-1
 10
1.295305
 20
8.653847
 30
0.000000
  0
SEQEND
  8
LAYER-1
  0
TEXT
  8
LAYER-1
 62
  7
 10
3.094308
 20
9.459854
 30
0.000000
 40
0.331731
  1
MobilFlex
 72
  5
 11
5.238539
 21
9.459854
 31
0.000000
  0
POLYLINE
  8
LAYER-1
 66
  1
 70
  1
 62
  7
  0
VERTEX
  8
LAYER-1
 10
1.296808
 20
9.961665
 30
0.000000
  0
VERTEX
  8
LAYER-1
 10
1.534655
 20
9.961665
 30
0.000000
  0
VERTEX
  8
LAYER-1
 10
1.534655
 20
9.444721
 30
0.000000
  0
VERTEX
  8
LAYER-1
 10
1.296808
 20
9.444721
 30
0.000000
  0
SEQEND
  8
LAYER-1
  0
POLYLINE
  8
LAYER-1
 66
  1
 70
  1
 62
  7
  0
VERTEX
  8
LAYER-1
 10
1.609308
 20
9.961665
 30
0.000000
  0
VERTEX
  8
LAYER-1
 10
1.847155
 20
9.961665
 30
0.000000
  0
VERTEX
  8
LAYER-1
 10
1.847155
 20
9.444721
 30
0.000000
  0
VERTEX
  8
LAYER-1
 10
1.609308
 20
9.444721
 30
0.000000
  0
SEQEND
  8
LAYER-1
  0
POLYLINE
  8
LAYER-1
 66
  1
 70
  1
 62
  7
  0
VERTEX
  8
LAYER-1
 10
1.909655
 20
9.961665
 30
0.000000
  0
VERTEX
  8
LAYER-1
 10
2.147503
 20
9.961665
 30
0.000000
  0
VERTEX
  8
LAYER-1
 10
2.147503
 20
9.444721
 30
0.000000
  0
VERTEX
  8
LAYER-1
 10
1.909655
 20
9.444721
 30
0.000000
  0
SEQEND
  8
LAYER-1
  0
POLYLINE
  8
LAYER-1
 66
  1
 70
  1
 62
  7
  0
VERTEX
  8
LAYER-1
 10
2.213475
 20
9.961665
 30
0.000000
  0
VERTEX
  8
LAYER-1
 10
2.451322
 20
9.961665
 30
0.000000
  0
VERTEX
  8
LAYER-1
 10
2.451322
 20
9.444721
 30
0.000000
  0
VERTEX
  8
LAYER-1
 10
2.213475
 20
9.444721
 30
0.000000
  0
SEQEND
  8
LAYER-1
  0
POLYLINE
  8
LAYER-1
 66
  1
 70
  1
 62
  7
  0
VERTEX
  8
LAYER-1
 10
2.530315
 20
9.957751
 30
0.000000
  0
VERTEX
  8
LAYER-1
 10
2.905749
 20
9.957751
 30
0.000000
  0
VERTEX
  8
LAYER-1
 10
2.905749
 20
9.819730
 30
0.000000
  0
VERTEX
  8
LAYER-1
 10
2.530315
 20
9.819730
 30
0.000000
  0
SEQEND
  8
LAYER-1
  0
POLYLINE
  8
LAYER-1
 66
  1
 70
  1
 62
  7
  0
VERTEX
  8
LAYER-1
 10
2.529881
 20
9.730320
 30
0.000000
  0
VERTEX
  8
LAYER-1
 10
2.838041
 20
9.730320
 30
0.000000
  0
VERTEX
  8
LAYER-1
 10
2.838041
 20
9.596205
 30
0.000000
  0
VERTEX
  8
LAYER-1
 10
2.529881
 20
9.596205
 30
0.000000
  0
SEQEND
  8
LAYER-1
  0
POLYLINE
  8
LAYER-1
 66
  1
 70
  1
 62
  7
  0
VERTEX
  8
LAYER-1
 10
1.296808
 20
9.360095
 30
0.000000
  0
VERTEX
  8
LAYER-1
 10
5.215212
 20
9.360095
 30
0.000000
  0
VERTEX
  8
LAYER-1
 10
5.215212
 20
9.316691
 30
0.000000
  0
VERTEX
  8
LAYER-1
 10
1.296808
 20
9.316691
 30
0.000000
  0
SEQEND
  8
LAYER-1
  0
TEXT
  8
LAYER-1
 62
  7
 10
1.527000
 20
8.796393
 30
0.000000
 40
0.187500
  1
Coupe verticale ( plancher )
 72
  5
 11
4.815462
 21
8.796393
 31
0.000000
  0
POLYLINE
  8
LAYER-1
 66
  1
 70
  1
 62
  7
  0
VERTEX
  8
LAYER-1
 10
2.650439
 20
8.152162
 30
0.000000
  0
VERTEX
  8
LAYER-1
 10
2.891254
 20
8.152162
 30
0.000000
  0
VERTEX
  8
LAYER-1
 10
2.891254
 20
6.295531
 30
0.000000
  0
VERTEX
  8
LAYER-1
 10
2.650439
 20
6.295531
 30
0.000000
  0
SEQEND
  8
LAYER-1
  0
POLYLINE
  8
LAYER-1
 66
  1
 70
  1
 62
  7
  0
VERTEX
  8
LAYER-1
 10
0.025976
 20
8.170123
 30
0.000000
  0
VERTEX
  8
LAYER-1
 10
6.530839
 20
8.170123
 30
0.000000
  0
VERTEX
  8
LAYER-1
 10
6.530839
 20
8.033934
 30
0.000000
  0
VERTEX
  8
LAYER-1
 10
0.025976
 20
8.033934
 30
0.000000
  0
SEQEND
  8
LAYER-1
  0
POLYLINE
  8
LAYER-1
 66
  1
 70
  1
 62
  7
  0
VERTEX
  8
LAYER-1
 10
0.019231
 20
0.457895
 30
0.000000
  0
VERTEX
  8
LAYER-1
 10
6.502834
 20
0.457895
 30
0.000000
  0
VERTEX
  8
LAYER-1
 10
6.502834
 20
0.001154
 30
0.000000
  0
VERTEX
  8
LAYER-1
 10
0.019231
 20
0.001154
 30
0.000000
  0
SEQEND
  8
LAYER-1
  0
POLYLINE
  8
LAYER-1
 66
  1
 70
  0
 62
  7
 40
0.019231
 41
0.019231
 10
6.516148
 20
0.457624
 30
0.000000
  0
VERTEX
  8
LAYER-1
 10
6.516148
 20
0.457624
 30
0.000000
  0
VERTEX
  8
LAYER-1
 10
0.019231
 20
0.457624
 30
0.000000
  0
SEQEND
  8
LAYER-1
  0
POLYLINE
  8
LAYER-1
 66
  1
 70
  1
 62
  7
 10
0.317117
 20
0.408372
 30
0.000000
  0
VERTEX
  8
LAYER-1
 10
0.317117
 20
0.408372
 30
0.000000
  0
VERTEX
  8
LAYER-1
 10
0.293212
 20
0.384962
 30
0.000000
  0
VERTEX
  8
LAYER-1
 10
0.333057
 20
0.365148
 30
0.000000
  0
SEQEND
  8
LAYER-1
  0
POLYLINE
  8
LAYER-1
 66
  1
 70
  1
 62
  7
 10
0.378272
 20
0.297897
 30
0.000000
  0
VERTEX
  8
LAYER-1
 10
0.378272
 20
0.297897
 30
0.000000
  0
VERTEX
  8
LAYER-1
 10
0.398995
 20
0.270883
 30
0.000000
  0
VERTEX
  8
LAYER-1
 10
0.416527
 20
0.315911
 30
0.000000
  0
SEQEND
  8
LAYER-1
  0
POLYLINE
  8
LAYER-1
 66
  1
 70
  1
 62
  7
 10
0.592351
 20
0.391104
 30
0.000000
  0
VERTEX
  8
LAYER-1
 10
0.592351
 20
0.391104
 30
0.000000
  0
VERTEX
  8
LAYER-1
 10
0.513773
 20
0.385220
 30
0.000000
  0
VERTEX
  8
LAYER-1
 10
0.607531
 20
0.349938
 30
0.000000
  0
SEQEND
  8
LAYER-1
  0
POLYLINE
  8
LAYER-1
 66
  1
 70
  1
 62
  7
 10
0.770100
 20
0.370466
 30
0.000000
  0
VERTEX
  8
LAYER-1
 10
0.770100
 20
0.370466
 30
0.000000
  0
VERTEX
  8
LAYER-1
 10
0.746194
 20
0.347047
 30
0.000000
  0
VERTEX
  8
LAYER-1
 10
0.786038
 20
0.327241
 30
0.000000
  0
SEQEND
  8
LAYER-1
  0
POLYLINE
  8
LAYER-1
 66
  1
 70
  1
 62
  7
 10
1.262951
 20
0.345705
 30
0.000000
  0
VERTEX
  8
LAYER-1
 10
1.262951
 20
0.345705
 30
0.000000
  0
VERTEX
  8
LAYER-1
 10
1.239047
 20
0.322293
 30
0.000000
  0
VERTEX
  8
LAYER-1
 10
1.278898
 20
0.302483
 30
0.000000
  0
SEQEND
  8
LAYER-1
  0
POLYLINE
  8
LAYER-1
 66
  1
 70
  1
 62
  7
 10
1.411400
 20
0.356647
 30
0.000000
  0
VERTEX
  8
LAYER-1
 10
1.411400
 20
0.356647
 30
0.000000
  0
VERTEX
  8
LAYER-1
 10
1.490571
 20
0.344910
 30
0.000000
  0
VERTEX
  8
LAYER-1
 10
1.507269
 20
0.387792
 30
0.000000
  0
SEQEND
  8
LAYER-1
  0
POLYLINE
  8
LAYER-1
 66
  1
 70
  1
 62
  7
 10
1.745581
 20
0.327760
 30
0.000000
  0
VERTEX
  8
LAYER-1
 10
1.745581
 20
0.327760
 30
0.000000
  0
VERTEX
  8
LAYER-1
 10
1.765318
 20
0.302029
 30
0.000000
  0
VERTEX
  8
LAYER-1
 10
1.782015
 20
0.344910
 30
0.000000
  0
SEQEND
  8
LAYER-1
  0
POLYLINE
  8
LAYER-1
 66
  1
 70
  1
 62
  7
 10
1.668281
 20
0.235610
 30
0.000000
  0
VERTEX
  8
LAYER-1
 10
1.668281
 20
0.235610
 30
0.000000
  0
VERTEX
  8
LAYER-1
 10
1.694632
 20
0.252106
 30
0.000000
  0
VERTEX
  8
LAYER-1
 10
1.660956
 20
0.279428
 30
0.000000
  0
SEQEND
  8
LAYER-1
  0
POLYLINE
  8
LAYER-1
 66
  1
 70
  1
 62
  7
 10
1.817818
 20
0.086161
 30
0.000000
  0
VERTEX
  8
LAYER-1
 10
1.817818
 20
0.086161
 30
0.000000
  0
VERTEX
  8
LAYER-1
 10
1.840577
 20
0.108456
 30
0.000000
  0
VERTEX
  8
LAYER-1
 10
1.802631
 20
0.127324
 30
0.000000
  0
SEQEND
  8
LAYER-1
  0
POLYLINE
  8
LAYER-1
 66
  1
 70
  1
 62
  7
 10
1.668297
 20
0.131612
 30
0.000000
  0
VERTEX
  8
LAYER-1
 10
1.668297
 20
0.131612
 30
0.000000
  0
VERTEX
  8
LAYER-1
 10
1.648561
 20
0.157344
 30
0.000000
  0
VERTEX
  8
LAYER-1
 10
1.631863
 20
0.114462
 30
0.000000
  0
SEQEND
  8
LAYER-1
  0
POLYLINE
  8
LAYER-1
 66
  1
 70
  1
 62
  7
 10
1.318410
 20
0.048424
 30
0.000000
  0
VERTEX
  8
LAYER-1
 10
1.318410
 20
0.048424
 30
0.000000
  0
VERTEX
  8
LAYER-1
 10
1.358876
 20
0.077609
 30
0.000000
  0
VERTEX
  8
LAYER-1
 10
1.306351
 20
0.143265
 30
0.000000
  0
SEQEND
  8
LAYER-1
  0
POLYLINE
  8
LAYER-1
 66
  1
 70
  1
 62
  7
 10
1.145585
 20
0.086163
 30
0.000000
  0
VERTEX
  8
LAYER-1
 10
1.145585
 20
0.086163
 30
0.000000
  0
VERTEX
  8
LAYER-1
 10
1.124865
 20
0.113178
 30
0.000000
  0
VERTEX
  8
LAYER-1
 10
1.107335
 20
0.068154
 30
0.000000
  0
SEQEND
  8
LAYER-1
  0
POLYLINE
  8
LAYER-1
 66
  1
 70
  1
 62
  7
 10
0.318180
 20
0.146014
 30
0.000000
  0
VERTEX
  8
LAYER-1
 10
0.318180
 20
0.146014
 30
0.000000
  0
VERTEX
  8
LAYER-1
 10
0.354327
 20
0.097309
 30
0.000000
  0
VERTEX
  8
LAYER-1
 10
0.397234
 20
0.162013
 30
0.000000
  0
SEQEND
  8
LAYER-1
  0
POLYLINE
  8
LAYER-1
 66
  1
 70
  1
 62
  7
 10
0.478906
 20
0.086163
 30
0.000000
  0
VERTEX
  8
LAYER-1
 10
0.478906
 20
0.086163
 30
0.000000
  0
VERTEX
  8
LAYER-1
 10
0.506580
 20
0.103485
 30
0.000000
  0
VERTEX
  8
LAYER-1
 10
0.471212
 20
0.132179
 30
0.000000
  0
SEQEND
  8
LAYER-1
  0
POLYLINE
  8
LAYER-1
 66
  1
 70
  1
 62
  7
 10
0.848554
 20
0.137901
 30
0.000000
  0
VERTEX
  8
LAYER-1
 10
0.848554
 20
0.137901
 30
0.000000
  0
VERTEX
  8
LAYER-1
 10
0.869277
 20
0.110881
 30
0.000000
  0
VERTEX
  8
LAYER-1
 10
0.886809
 20
0.155906
 30
0.000000
  0
SEQEND
  8
LAYER-1
  0
POLYLINE
  8
LAYER-1
 66
  1
 70
  1
 62
  7
 10
0.784377
 20
0.044782
 30
0.000000
  0
VERTEX
  8
LAYER-1
 10
0.784377
 20
0.044782
 30
0.000000
  0
VERTEX
  8
LAYER-1
 10
0.835060
 20
0.067493
 30
0.000000
  0
VERTEX
  8
LAYER-1
 10
0.754831
 20
0.120283
 30
0.000000
  0
SEQEND
  8
LAYER-1
  0
POLYLINE
  8
LAYER-1
 66
  1
 70
  1
 62
  7
 10
1.076555
 20
0.330390
 30
0.000000
  0
VERTEX
  8
LAYER-1
 10
1.076555
 20
0.330390
 30
0.000000
  0
VERTEX
  8
LAYER-1
 10
1.045526
 20
0.397041
 30
0.000000
  0
VERTEX
  8
LAYER-1
 10
1.018201
 20
0.363366
 30
0.000000
  0
SEQEND
  8
LAYER-1
  0
POLYLINE
  8
LAYER-1
 66
  1
 70
  1
 62
  7
 10
1.972416
 20
0.375864
 30
0.000000
  0
VERTEX
  8
LAYER-1
 10
1.972416
 20
0.375864
 30
0.000000
  0
VERTEX
  8
LAYER-1
 10
1.948506
 20
0.352449
 30
0.000000
  0
VERTEX
  8
LAYER-1
 10
1.988354
 20
0.332639
 30
0.000000
  0
SEQEND
  8
LAYER-1
  0
POLYLINE
  8
LAYER-1
 66
  1
 70
  1
 62
  7
 10
2.132053
 20
0.301501
 30
0.000000
  0
VERTEX
  8
LAYER-1
 10
2.132053
 20
0.301501
 30
0.000000
  0
VERTEX
  8
LAYER-1
 10
2.152774
 20
0.274486
 30
0.000000
  0
VERTEX
  8
LAYER-1
 10
2.170311
 20
0.319510
 30
0.000000
  0
SEQEND
  8
LAYER-1
  0
POLYLINE
  8
LAYER-1
 66
  1
 70
  1
 62
  7
 10
2.262613
 20
0.394531
 30
0.000000
  0
VERTEX
  8
LAYER-1
 10
2.262613
 20
0.394531
 30
0.000000
  0
VERTEX
  8
LAYER-1
 10
2.184043
 20
0.388650
 30
0.000000
  0
VERTEX
  8
LAYER-1
 10
2.277799
 20
0.353365
 30
0.000000
  0
SEQEND
  8
LAYER-1
  0
POLYLINE
  8
LAYER-1
 66
  1
 70
  1
 62
  7
 10
2.523884
 20
0.374065
 30
0.000000
  0
VERTEX
  8
LAYER-1
 10
2.523884
 20
0.374065
 30
0.000000
  0
VERTEX
  8
LAYER-1
 10
2.499973
 20
0.350646
 30
0.000000
  0
VERTEX
  8
LAYER-1
 10
2.539823
 20
0.330840
 30
0.000000
  0
SEQEND
  8
LAYER-1
  0
POLYLINE
  8
LAYER-1
 66
  1
 70
  1
 62
  7
 10
3.059407
 20
0.428094
 30
0.000000
  0
VERTEX
  8
LAYER-1
 10
3.059407
 20
0.428094
 30
0.000000
  0
VERTEX
  8
LAYER-1
 10
3.035505
 20
0.404682
 30
0.000000
  0
VERTEX
  8
LAYER-1
 10
3.075353
 20
0.384870
 30
0.000000
  0
SEQEND
  8
LAYER-1
  0
POLYLINE
  8
LAYER-1
 66
  1
 70
  1
 62
  7
 10
3.081671
 20
0.360075
 30
0.000000
  0
VERTEX
  8
LAYER-1
 10
3.081671
 20
0.360075
 30
0.000000
  0
VERTEX
  8
LAYER-1
 10
3.160834
 20
0.348339
 30
0.000000
  0
VERTEX
  8
LAYER-1
 10
3.177531
 20
0.391219
 30
0.000000
  0
SEQEND
  8
LAYER-1
  0
POLYLINE
  8
LAYER-1
 66
  1
 70
  1
 62
  7
 10
2.988674
 20
0.051852
 30
0.000000
  0
VERTEX
  8
LAYER-1
 10
2.988674
 20
0.051852
 30
0.000000
  0
VERTEX
  8
LAYER-1
 10
3.029139
 20
0.081037
 30
0.000000
  0
VERTEX
  8
LAYER-1
 10
2.976614
 20
0.146694
 30
0.000000
  0
SEQEND
  8
LAYER-1
  0
POLYLINE
  8
LAYER-1
 66
  1
 70
  1
 62
  7
 10
2.899362
 20
0.089762
 30
0.000000
  0
VERTEX
  8
LAYER-1
 10
2.899362
 20
0.089762
 30
0.000000
  0
VERTEX
  8
LAYER-1
 10
2.878642
 20
0.116777
 30
0.000000
  0
VERTEX
  8
LAYER-1
 10
2.861113
 20
0.071753
 30
0.000000
  0
SEQEND
  8
LAYER-1
  0
POLYLINE
  8
LAYER-1
 66
  1
 70
  1
 62
  7
 10
1.988451
 20
0.149441
 30
0.000000
  0
VERTEX
  8
LAYER-1
 10
1.988451
 20
0.149441
 30
0.000000
  0
VERTEX
  8
LAYER-1
 10
2.024597
 20
0.100734
 30
0.000000
  0
VERTEX
  8
LAYER-1
 10
2.067501
 20
0.165443
 30
0.000000
  0
SEQEND
  8
LAYER-1
  0
POLYLINE
  8
LAYER-1
 66
  1
 70
  1
 62
  7
 10
2.232688
 20
0.089762
 30
0.000000
  0
VERTEX
  8
LAYER-1
 10
2.232688
 20
0.089762
 30
0.000000
  0
VERTEX
  8
LAYER-1
 10
2.260366
 20
0.107084
 30
0.000000
  0
VERTEX
  8
LAYER-1
 10
2.224995
 20
0.135777
 30
0.000000
  0
SEQEND
  8
LAYER-1
  0
POLYLINE
  8
LAYER-1
 66
  1
 70
  1
 62
  7
 10
2.602335
 20
0.141499
 30
0.000000
  0
VERTEX
  8
LAYER-1
 10
2.602335
 20
0.141499
 30
0.000000
  0
VERTEX
  8
LAYER-1
 10
2.623056
 20
0.114480
 30
0.000000
  0
VERTEX
  8
LAYER-1
 10
2.640594
 20
0.159505
 30
0.000000
  0
SEQEND
  8
LAYER-1
  0
POLYLINE
  8
LAYER-1
 66
  1
 70
  1
 62
  7
 10
2.454646
 20
0.048210
 30
0.000000
  0
VERTEX
  8
LAYER-1
 10
2.454646
 20
0.048210
 30
0.000000
  0
VERTEX
  8
LAYER-1
 10
2.505331
 20
0.070922
 30
0.000000
  0
VERTEX
  8
LAYER-1
 10
2.425105
 20
0.123712
 30
0.000000
  0
SEQEND
  8
LAYER-1
  0
POLYLINE
  8
LAYER-1
 66
  1
 70
  1
 62
  7
 10
2.786907
 20
0.222053
 30
0.000000
  0
VERTEX
  8
LAYER-1
 10
2.786907
 20
0.222053
 30
0.000000
  0
VERTEX
  8
LAYER-1
 10
2.773777
 20
0.330386
 30
0.000000
  0
VERTEX
  8
LAYER-1
 10
2.718013
 20
0.297854
 30
0.000000
  0
SEQEND
  8
LAYER-1
  0
POLYLINE
  8
LAYER-1
 66
  1
 70
  1
 62
  7
 10
3.322948
 20
0.401286
 30
0.000000
  0
VERTEX
  8
LAYER-1
 10
3.322948
 20
0.401286
 30
0.000000
  0
VERTEX
  8
LAYER-1
 10
3.299044
 20
0.377875
 30
0.000000
  0
VERTEX
  8
LAYER-1
 10
3.338890
 20
0.358064
 30
0.000000
  0
SEQEND
  8
LAYER-1
  0
POLYLINE
  8
LAYER-1
 66
  1
 70
  1
 62
  7
 10
3.384105
 20
0.290813
 30
0.000000
  0
VERTEX
  8
LAYER-1
 10
3.384105
 20
0.290813
 30
0.000000
  0
VERTEX
  8
LAYER-1
 10
3.404829
 20
0.263797
 30
0.000000
  0
VERTEX
  8
LAYER-1
 10
3.422359
 20
0.308820
 30
0.000000
  0
SEQEND
  8
LAYER-1
  0
POLYLINE
  8
LAYER-1
 66
  1
 70
  1
 62
  7
 10
3.598182
 20
0.384018
 30
0.000000
  0
VERTEX
  8
LAYER-1
 10
3.598182
 20
0.384018
 30
0.000000
  0
VERTEX
  8
LAYER-1
 10
3.519603
 20
0.378132
 30
0.000000
  0
VERTEX
  8
LAYER-1
 10
3.613361
 20
0.342849
 30
0.000000
  0
SEQEND
  8
LAYER-1
  0
POLYLINE
  8
LAYER-1
 66
  1
 70
  1
 62
  7
 10
3.775933
 20
0.363377
 30
0.000000
  0
VERTEX
  8
LAYER-1
 10
3.775933
 20
0.363377
 30
0.000000
  0
VERTEX
  8
LAYER-1
 10
3.752025
 20
0.339959
 30
0.000000
  0
VERTEX
  8
LAYER-1
 10
3.791871
 20
0.320153
 30
0.000000
  0
SEQEND
  8
LAYER-1
  0
POLYLINE
  8
LAYER-1
 66
  1
 70
  1
 62
  7
 10
4.268782
 20
0.338620
 30
0.000000
  0
VERTEX
  8
LAYER-1
 10
4.268782
 20
0.338620
 30
0.000000
  0
VERTEX
  8
LAYER-1
 10
4.244880
 20
0.315207
 30
0.000000
  0
VERTEX
  8
LAYER-1
 10
4.284728
 20
0.295395
 30
0.000000
  0
SEQEND
  8
LAYER-1
  0
POLYLINE
  8
LAYER-1
 66
  1
 70
  1
 62
  7
 10
4.417233
 20
0.349561
 30
0.000000
  0
VERTEX
  8
LAYER-1
 10
4.417233
 20
0.349561
 30
0.000000
  0
VERTEX
  8
LAYER-1
 10
4.496404
 20
0.337824
 30
0.000000
  0
VERTEX
  8
LAYER-1
 10
4.513101
 20
0.380706
 30
0.000000
  0
SEQEND
  8
LAYER-1
  0
POLYLINE
  8
LAYER-1
 66
  1
 70
  1
 62
  7
 10
4.751413
 20
0.320674
 30
0.000000
  0
VERTEX
  8
LAYER-1
 10
4.751413
 20
0.320674
 30
0.000000
  0
VERTEX
  8
LAYER-1
 10
4.771150
 20
0.294942
 30
0.000000
  0
VERTEX
  8
LAYER-1
 10
4.787848
 20
0.337824
 30
0.000000
  0
SEQEND
  8
LAYER-1
  0
POLYLINE
  8
LAYER-1
 66
  1
 70
  1
 62
  7
 10
4.674115
 20
0.228521
 30
0.000000
  0
VERTEX
  8
LAYER-1
 10
4.674115
 20
0.228521
 30
0.000000
  0
VERTEX
  8
LAYER-1
 10
4.700465
 20
0.245017
 30
0.000000
  0
VERTEX
  8
LAYER-1
 10
4.666789
 20
0.272344
 30
0.000000
  0
SEQEND
  8
LAYER-1
  0
POLYLINE
  8
LAYER-1
 66
  1
 70
  1
 62
  7
 10
4.823652
 20
0.079071
 30
0.000000
  0
VERTEX
  8
LAYER-1
 10
4.823652
 20
0.079071
 30
0.000000
  0
VERTEX
  8
LAYER-1
 10
4.846411
 20
0.101369
 30
0.000000
  0
VERTEX
  8
LAYER-1
 10
4.808465
 20
0.120238
 30
0.000000
  0
SEQEND
  8
LAYER-1
  0
POLYLINE
  8
LAYER-1
 66
  1
 70
  1
 62
  7
 10
4.674130
 20
0.124523
 30
0.000000
  0
VERTEX
  8
LAYER-1
 10
4.674130
 20
0.124523
 30
0.000000
  0
VERTEX
  8
LAYER-1
 10
4.654393
 20
0.150257
 30
0.000000
  0
VERTEX
  8
LAYER-1
 10
4.637695
 20
0.107374
 30
0.000000
  0
SEQEND
  8
LAYER-1
  0
POLYLINE
  8
LAYER-1
 66
  1
 70
  1
 62
  7
 10
4.324243
 20
0.041337
 30
0.000000
  0
VERTEX
  8
LAYER-1
 10
4.324243
 20
0.041337
 30
0.000000
  0
VERTEX
  8
LAYER-1
 10
4.364707
 20
0.070523
 30
0.000000
  0
VERTEX
  8
LAYER-1
 10
4.312182
 20
0.136176
 30
0.000000
  0
SEQEND
  8
LAYER-1
  0
POLYLINE
  8
LAYER-1
 66
  1
 70
  1
 62
  7
 10
4.151418
 20
0.079075
 30
0.000000
  0
VERTEX
  8
LAYER-1
 10
4.151418
 20
0.079075
 30
0.000000
  0
VERTEX
  8
LAYER-1
 10
4.130697
 20
0.106090
 30
0.000000
  0
VERTEX
  8
LAYER-1
 10
4.113169
 20
0.061068
 30
0.000000
  0
SEQEND
  8
LAYER-1
  0
POLYLINE
  8
LAYER-1
 66
  1
 70
  1
 62
  7
 10
3.324011
 20
0.138924
 30
0.000000
  0
VERTEX
  8
LAYER-1
 10
3.324011
 20
0.138924
 30
0.000000
  0
VERTEX
  8
LAYER-1
 10
3.360158
 20
0.090221
 30
0.000000
  0
VERTEX
  8
LAYER-1
 10
3.403067
 20
0.154926
 30
0.000000
  0
SEQEND
  8
LAYER-1
  0
POLYLINE
  8
LAYER-1
 66
  1
 70
  1
 62
  7
 10
3.484737
 20
0.079075
 30
0.000000
  0
VERTEX
  8
LAYER-1
 10
3.484737
 20
0.079075
 30
0.000000
  0
VERTEX
  8
LAYER-1
 10
3.512414
 20
0.096399
 30
0.000000
  0
VERTEX
  8
LAYER-1
 10
3.477043
 20
0.125089
 30
0.000000
  0
SEQEND
  8
LAYER-1
  0
POLYLINE
  8
LAYER-1
 66
  1
 70
  1
 62
  7
 10
3.854384
 20
0.130811
 30
0.000000
  0
VERTEX
  8
LAYER-1
 10
3.854384
 20
0.130811
 30
0.000000
  0
VERTEX
  8
LAYER-1
 10
3.875113
 20
0.103793
 30
0.000000
  0
VERTEX
  8
LAYER-1
 10
3.892642
 20
0.148820
 30
0.000000
  0
SEQEND
  8
LAYER-1
  0
POLYLINE
  8
LAYER-1
 66
  1
 70
  1
 62
  7
 10
3.790207
 20
0.037694
 30
0.000000
  0
VERTEX
  8
LAYER-1
 10
3.790207
 20
0.037694
 30
0.000000
  0
VERTEX
  8
LAYER-1
 10
3.840892
 20
0.060405
 30
0.000000
  0
VERTEX
  8
LAYER-1
 10
3.760666
 20
0.113199
 30
0.000000
  0
SEQEND
  8
LAYER-1
  0
POLYLINE
  8
LAYER-1
 66
  1
 70
  1
 62
  7
 10
4.082387
 20
0.323300
 30
0.000000
  0
VERTEX
  8
LAYER-1
 10
4.082387
 20
0.323300
 30
0.000000
  0
VERTEX
  8
LAYER-1
 10
4.051358
 20
0.389952
 30
0.000000
  0
VERTEX
  8
LAYER-1
 10
4.024033
 20
0.356279
 30
0.000000
  0
SEQEND
  8
LAYER-1
  0
POLYLINE
  8
LAYER-1
 66
  1
 70
  1
 62
  7
 10
4.978250
 20
0.368776
 30
0.000000
  0
VERTEX
  8
LAYER-1
 10
4.978250
 20
0.368776
 30
0.000000
  0
VERTEX
  8
LAYER-1
 10
4.954337
 20
0.345363
 30
0.000000
  0
VERTEX
  8
LAYER-1
 10
4.994188
 20
0.325551
 30
0.000000
  0
SEQEND
  8
LAYER-1
  0
POLYLINE
  8
LAYER-1
 66
  1
 70
  1
 62
  7
 10
5.137886
 20
0.294415
 30
0.000000
  0
VERTEX
  8
LAYER-1
 10
5.137886
 20
0.294415
 30
0.000000
  0
VERTEX
  8
LAYER-1
 10
5.158606
 20
0.267397
 30
0.000000
  0
VERTEX
  8
LAYER-1
 10
5.176143
 20
0.312419
 30
0.000000
  0
SEQEND
  8
LAYER-1
  0
POLYLINE
  8
LAYER-1
 66
  1
 70
  1
 62
  7
 10
5.268446
 20
0.387444
 30
0.000000
  0
VERTEX
  8
LAYER-1
 10
5.268446
 20
0.387444
 30
0.000000
  0
VERTEX
  8
LAYER-1
 10
5.189875
 20
0.381559
 30
0.000000
  0
VERTEX
  8
LAYER-1
 10
5.283633
 20
0.346278
 30
0.000000
  0
SEQEND
  8
LAYER-1
  0
POLYLINE
  8
LAYER-1
 66
  1
 70
  1
 62
  7
 10
5.529716
 20
0.366976
 30
0.000000
  0
VERTEX
  8
LAYER-1
 10
5.529716
 20
0.366976
 30
0.000000
  0
VERTEX
  8
LAYER-1
 10
5.505806
 20
0.343558
 30
0.000000
  0
VERTEX
  8
LAYER-1
 10
5.545655
 20
0.323752
 30
0.000000
  0
SEQEND
  8
LAYER-1
  0
POLYLINE
  8
LAYER-1
 66
  1
 70
  1
 62
  7
 10
6.065239
 20
0.421009
 30
0.000000
  0
VERTEX
  8
LAYER-1
 10
6.065239
 20
0.421009
 30
0.000000
  0
VERTEX
  8
LAYER-1
 10
6.041334
 20
0.397594
 30
0.000000
  0
VERTEX
  8
LAYER-1
 10
6.081185
 20
0.377784
 30
0.000000
  0
SEQEND
  8
LAYER-1
  0
POLYLINE
  8
LAYER-1
 66
  1
 70
  1
 62
  7
 10
6.087502
 20
0.352989
 30
0.000000
  0
VERTEX
  8
LAYER-1
 10
6.087502
 20
0.352989
 30
0.000000
  0
VERTEX
  8
LAYER-1
 10
6.166666
 20
0.341249
 30
0.000000
  0
VERTEX
  8
LAYER-1
 10
6.183363
 20
0.384133
 30
0.000000
  0
SEQEND
  8
LAYER-1
  0
POLYLINE
  8
LAYER-1
 66
  1
 70
  1
 62
  7
 10
5.994504
 20
0.044762
 30
0.000000
  0
VERTEX
  8
LAYER-1
 10
5.994504
 20
0.044762
 30
0.000000
  0
VERTEX
  8
LAYER-1
 10
6.034970
 20
0.073948
 30
0.000000
  0
VERTEX
  8
LAYER-1
 10
5.982444
 20
0.139605
 30
0.000000
  0
SEQEND
  8
LAYER-1
  0
POLYLINE
  8
LAYER-1
 66
  1
 70
  1
 62
  7
 10
5.905192
 20
0.082673
 30
0.000000
  0
VERTEX
  8
LAYER-1
 10
5.905192
 20
0.082673
 30
0.000000
  0
VERTEX
  8
LAYER-1
 10
5.884473
 20
0.109688
 30
0.000000
  0
VERTEX
  8
LAYER-1
 10
5.866943
 20
0.064667
 30
0.000000
  0
SEQEND
  8
LAYER-1
  0
POLYLINE
  8
LAYER-1
 66
  1
 70
  1
 62
  7
 10
4.994282
 20
0.142354
 30
0.000000
  0
VERTEX
  8
LAYER-1
 10
4.994282
 20
0.142354
 30
0.000000
  0
VERTEX
  8
LAYER-1
 10
5.030430
 20
0.093648
 30
0.000000
  0
VERTEX
  8
LAYER-1
 10
5.073333
 20
0.158356
 30
0.000000
  0
SEQEND
  8
LAYER-1
  0
POLYLINE
  8
LAYER-1
 66
  1
 70
  1
 62
  7
 10
5.238520
 20
0.082673
 30
0.000000
  0
VERTEX
  8
LAYER-1
 10
5.238520
 20
0.082673
 30
0.000000
  0
VERTEX
  8
LAYER-1
 10
5.266198
 20
0.099998
 30
0.000000
  0
VERTEX
  8
LAYER-1
 10
5.230827
 20
0.128687
 30
0.000000
  0
SEQEND
  8
LAYER-1
  0
POLYLINE
  8
LAYER-1
 66
  1
 70
  1
 62
  7
 10
5.608168
 20
0.134410
 30
0.000000
  0
VERTEX
  8
LAYER-1
 10
5.608168
 20
0.134410
 30
0.000000
  0
VERTEX
  8
LAYER-1
 10
5.628887
 20
0.107391
 30
0.000000
  0
VERTEX
  8
LAYER-1
 10
5.646426
 20
0.152419
 30
0.000000
  0
SEQEND
  8
LAYER-1
  0
POLYLINE
  8
LAYER-1
 66
  1
 70
  1
 62
  7
 10
5.460479
 20
0.041120
 30
0.000000
  0
VERTEX
  8
LAYER-1
 10
5.460479
 20
0.041120
 30
0.000000
  0
VERTEX
  8
LAYER-1
 10
5.511164
 20
0.063832
 30
0.000000
  0
VERTEX
  8
LAYER-1
 10
5.430938
 20
0.116624
 30
0.000000
  0
SEQEND
  8
LAYER-1
  0
POLYLINE
  8
LAYER-1
 66
  1
 70
  1
 62
  7
 10
5.792740
 20
0.214967
 30
0.000000
  0
VERTEX
  8
LAYER-1
 10
5.792740
 20
0.214967
 30
0.000000
  0
VERTEX
  8
LAYER-1
 10
5.779608
 20
0.323296
 30
0.000000
  0
VERTEX
  8
LAYER-1
 10
5.723845
 20
0.290768
 30
0.000000
  0
SEQEND
  8
LAYER-1
  0
POLYLINE
  8
LAYER-1
  6
LTYPE01
 66
  1
 70
  0
 62
253
  6
LTYPE01
 10
6.392169
 20
6.574372
 30
0.000000
  0
VERTEX
  8
LAYER-1
  6
LTYPE01
 10
6.392169
 20
6.574372
 30
0.000000
  0
VERTEX
  8
LAYER-1
  6
LTYPE01
 10
6.393180
 20
4.648797
 30
0.000000
  0
SEQEND
  8
LAYER-1
  0
POLYLINE
  8
LAYER-1
 66
  1
 70
  1
 62
253
  0
VERTEX
  8
LAYER-1
 10
6.392159
 20
6.594057
 30
0.000000
  0
VERTEX
  8
LAYER-1
 10
6.363338
 20
6.545965
 30
0.000000
  0
VERTEX
  8
LAYER-1
 10
6.392184
 20
6.545980
 30
0.000000
  0
VERTEX
  8
LAYER-1
 10
6.421030
 20
6.545995
 30
0.000000
  0
VERTEX
  8
LAYER-1
 10
6.392159
 20
6.594057
 30
0.000000
  0
SEQEND
  8
LAYER-1
  0
POLYLINE
  8
LAYER-1
 66
  1
 70
  1
 62
253
  0
VERTEX
  8
LAYER-1
 10
6.393190
 20
4.629112
 30
0.000000
  0
VERTEX
  8
LAYER-1
 10
6.364319
 20
4.677174
 30
0.000000
  0
VERTEX
  8
LAYER-1
 10
6.393165
 20
4.677189
 30
0.000000
  0
VERTEX
  8
LAYER-1
 10
6.422011
 20
4.677204
 30
0.000000
  0
VERTEX
  8
LAYER-1
 10
6.393190
 20
4.629112
 30
0.000000
  0
SEQEND
  8
LAYER-1
  0
POLYLINE
  8
LAYER-1
  6
LTYPE01
 66
  1
 70
  0
 62
253
  6
LTYPE01
 10
5.918237
 20
6.594057
 30
0.000000
  0
VERTEX
  8
LAYER-1
  6
LTYPE01
 10
5.918237
 20
6.594057
 30
0.000000
  0
VERTEX
  8
LAYER-1
  6
LTYPE01
 10
6.459908
 20
6.594057
 30
0.000000
  0
SEQEND
  8
LAYER-1
  0
TEXT
  8
LAYER-1
 62
253
 10
6.305846
 20
5.046393
 30
0.000000
 40
0.144231
  1
26" (660mm)
 50
90.000000
 72
  5
 11
6.305846
 21
6.209854
 31
0.000000
  0
POLYLINE
  8
LAYER-1
 66
  1
 70
  1
 62
  7
  0
VERTEX
  8
LAYER-1
 10
2.650400
 20
4.998723
 30
0.000000
  0
VERTEX
  8
LAYER-1
 10
2.757940
 20
4.998723
 30
0.000000
  0
VERTEX
  8
LAYER-1
 10
2.757940
 20
0.457842
 30
0.000000
  0
VERTEX
  8
LAYER-1
 10
2.650400
 20
0.457842
 30
0.000000
  0
SEQEND
  8
LAYER-1
  0
POLYLINE
  8
LAYER-1
 66
  1
 70
  1
 62
  7
  0
VERTEX
  8
LAYER-1
 10
2.856064
 20
4.997993
 30
0.000000
  0
VERTEX
  8
LAYER-1
 10
2.891215
 20
4.997993
 30
0.000000
  0
VERTEX
  8
LAYER-1
 10
2.891215
 20
0.460551
 30
0.000000
  0
VERTEX
  8
LAYER-1
 10
2.856064
 20
0.460551
 30
0.000000
  0
SEQEND
  8
LAYER-1
  0
LINE
  8
LAYER-1
 62
  7
 10
1.017316
 20
5.018316
 30
0.000000
 11
1.017316
 21
6.275600
 31
0.000000
  0
LINE
  8
LAYER-1
 62
  7
 10
2.587900
 20
4.998631
 30
0.000000
 11
0.892316
 21
4.998631
 31
0.000000
  0
LINE
  8
LAYER-1
 62
  7
 10
2.587900
 20
6.295285
 30
0.000000
 11
0.892316
 21
6.295285
 31
0.000000
  0
POLYLINE
  8
LAYER-1
 66
  1
 70
  1
 62
  7
  0
VERTEX
  8
LAYER-1
 10
1.017316
 20
4.998631
 30
0.000000
  0
VERTEX
  8
LAYER-1
 10
1.046163
 20
5.046708
 30
0.000000
  0
VERTEX
  8
LAYER-1
 10
1.017316
 20
5.046708
 30
0.000000
  0
VERTEX
  8
LAYER-1
 10
0.988470
 20
5.046708
 30
0.000000
  0
VERTEX
  8
LAYER-1
 10
1.017316
 20
4.998631
 30
0.000000
  0
SEQEND
  8
LAYER-1
  0
POLYLINE
  8
LAYER-1
 66
  1
 70
  1
 62
  7
  0
VERTEX
  8
LAYER-1
 10
1.017316
 20
6.295285
 30
0.000000
  0
VERTEX
  8
LAYER-1
 10
1.046162
 20
6.247208
 30
0.000000
  0
VERTEX
  8
LAYER-1
 10
1.017316
 20
6.247208
 30
0.000000
  0
VERTEX
  8
LAYER-1
 10
0.988470
 20
6.247208
 30
0.000000
  0
VERTEX
  8
LAYER-1
 10
1.017316
 20
6.295285
 30
0.000000
  0
SEQEND
  8
LAYER-1
  0
TEXT
  8
LAYER-1
 62
  7
 10
0.860322
 20
5.560424
 30
0.000000
 40
0.129808
  1
"Y"
 50
90.000000
  0
LINE
  8
LAYER-1
 62
  7
 10
1.017199
 20
0.476789
 30
0.000000
 11
1.017199
 21
4.978946
 31
0.000000
  0
LINE
  8
LAYER-1
 62
  7
 10
1.201954
 20
0.457104
 30
0.000000
 11
0.892199
 21
0.457104
 31
0.000000
  0
LINE
  8
LAYER-1
 62
  7
 10
2.587900
 20
4.998631
 30
0.000000
 11
0.892199
 21
4.998631
 31
0.000000
  0
LINE
  8
LAYER-1
 62
  7
 10
1.017199
 20
2.965574
 30
0.000000
 11
1.017199
 21
0.457104
 31
0.000000
  0
POLYLINE
  8
LAYER-1
 66
  1
 70
  1
 62
  7
  0
VERTEX
  8
LAYER-1
 10
1.017199
 20
0.457104
 30
0.000000
  0
VERTEX
  8
LAYER-1
 10
1.046045
 20
0.505181
 30
0.000000
  0
VERTEX
  8
LAYER-1
 10
1.017199
 20
0.505181
 30
0.000000
  0
VERTEX
  8
LAYER-1
 10
0.988353
 20
0.505181
 30
0.000000
  0
VERTEX
  8
LAYER-1
 10
1.017199
 20
0.457104
 30
0.000000
  0
SEQEND
  8
LAYER-1
  0
POLYLINE
  8
LAYER-1
 66
  1
 70
  1
 62
  7
  0
VERTEX
  8
LAYER-1
 10
1.017199
 20
4.998631
 30
0.000000
  0
VERTEX
  8
LAYER-1
 10
1.046045
 20
4.950554
 30
0.000000
  0
VERTEX
  8
LAYER-1
 10
1.017199
 20
4.950554
 30
0.000000
  0
VERTEX
  8
LAYER-1
 10
0.988353
 20
4.950554
 30
0.000000
  0
VERTEX
  8
LAYER-1
 10
1.017199
 20
4.998631
 30
0.000000
  0
SEQEND
  8
LAYER-1
  0
TEXT
  8
LAYER-1
 62
  7
 10
0.918210
 20
2.773528
 30
0.000000
 40
0.086538
  1
 
 50
90.000000
  0
POLYLINE
  8
LAYER-1
  6
LTYPE02
 66
  1
 70
  0
 62
  7
  6
LTYPE02
 10
2.807919
 20
4.996648
 30
0.000000
  0
VERTEX
  8
LAYER-1
  6
LTYPE02
 10
2.807919
 20
4.996648
 30
0.000000
  0
VERTEX
  8
LAYER-1
  6
LTYPE02
 10
2.806510
 20
0.657671
 30
0.000000
  0
SEQEND
  8
LAYER-1
  0
POLYLINE
  8
LAYER-1
 66
  1
 70
  1
 62
  7
  0
VERTEX
  8
LAYER-1
 10
3.020656
 20
4.632614
 30
0.000000
  0
VERTEX
  8
LAYER-1
 10
6.197330
 20
4.632614
 30
0.000000
  0
VERTEX
  8
LAYER-1
 10
6.197330
 20
4.573876
 30
0.000000
  0
VERTEX
  8
LAYER-1
 10
3.020656
 20
4.573876
 30
0.000000
  0
SEQEND
  8
LAYER-1
  0
LINE
  8
LAYER-1
 62
  7
 10
2.650739
 20
2.100506
 30
0.000000
 11
2.806989
 21
2.100506
 31
0.000000
  0
LINE
  8
LAYER-1
 62
  7
 10
2.650739
 20
2.032627
 30
0.000000
 11
2.650739
 21
2.225506
 31
0.000000
  0
LINE
  8
LAYER-1
 62
  7
 10
2.806989
 20
2.026548
 30
0.000000
 11
2.806989
 21
2.225506
 31
0.000000
  0
LINE
  8
LAYER-1
 62
  7
 10
2.806989
 20
2.100506
 30
0.000000
 11
4.094266
 21
2.100506
 31
0.000000
  0
LINE
  8
LAYER-1
 62
  7
 10
2.671137
 20
2.120903
 30
0.000000
 11
2.630342
 21
2.080108
 31
0.000000
  0
LINE
  8
LAYER-1
 62
  7
 10
2.827387
 20
2.120903
 30
0.000000
 11
2.786592
 21
2.080108
 31
0.000000
  0
TEXT
  8
LAYER-1
 62
  7
 10
4.001183
 20
2.182068
 30
0.000000
 40
0.072115
  1
 
  0
POLYLINE
  8
LAYER-1
 66
  1
 70
  1
 62
  7
  0
VERTEX
  8
LAYER-1
 10
1.309974
 20
4.632723
 30
0.000000
  0
VERTEX
  8
LAYER-1
 10
2.588534
 20
4.632723
 30
0.000000
  0
VERTEX
  8
LAYER-1
 10
2.588534
 20
4.574637
 30
0.000000
  0
VERTEX
  8
LAYER-1
 10
1.309974
 20
4.574637
 30
0.000000
  0
SEQEND
  8
LAYER-1
  0
TEXT
  8
LAYER-1
 62
  7
 10
3.027000
 20
6.902162
 30
0.000000
 40
0.187500
  1
"X"
 72
  5
 11
3.411616
 21
6.902162
 31
0.000000
  0
POLYLINE
  8
LAYER-1
 66
  1
 70
  1
 62
  7
  0
VERTEX
  8
LAYER-1
 10
3.841522
 20
4.634615
 30
0.000000
  0
VERTEX
  8
LAYER-1
 10
5.764343
 20
4.634615
 30
0.000000
  0
VERTEX
  8
LAYER-1
 10
5.764343
 20
4.569703
 30
0.000000
  0
VERTEX
  8
LAYER-1
 10
3.841522
 20
4.569703
 30
0.000000
  0
SEQEND
  8
LAYER-1
  0
POLYLINE
  8
LAYER-1
 66
  1
 70
  0
 62
  7
 10
3.839823
 20
4.720469
 30
0.000000
  0
VERTEX
  8
LAYER-1
 10
3.839823
 20
4.720469
 30
0.000000
  0
VERTEX
  8
LAYER-1
 10
3.839823
 20
4.553748
 30
0.000000
  0
SEQEND
  8
LAYER-1
  0
POLYLINE
  8
LAYER-1
 66
  1
 70
  0
 62
  7
 10
3.987772
 20
4.553748
 30
0.000000
  0
VERTEX
  8
LAYER-1
 10
3.987772
 20
4.553748
 30
0.000000
  0
VERTEX
  8
LAYER-1
 10
3.839823
 20
4.553748
 30
0.000000
  0
SEQEND
  8
LAYER-1
  0
POLYLINE
  8
LAYER-1
 66
  1
 70
  0
 62
  7
 10
5.766250
 20
4.717942
 30
0.000000
  0
VERTEX
  8
LAYER-1
 10
5.766250
 20
4.717942
 30
0.000000
  0
VERTEX
  8
LAYER-1
 10
5.766250
 20
4.553748
 30
0.000000
  0
SEQEND
  8
LAYER-1
  0
POLYLINE
  8
LAYER-1
 66
  1
 70
  0
 62
  7
 10
5.618297
 20
4.553748
 30
0.000000
  0
VERTEX
  8
LAYER-1
 10
5.618297
 20
4.553748
 30
0.000000
  0
VERTEX
  8
LAYER-1
 10
5.766250
 20
4.553748
 30
0.000000
  0
SEQEND
  8
LAYER-1
  0
POLYLINE
  8
LAYER-1
 66
  1
 70
  1
 62
  7
  0
VERTEX
  8
LAYER-1
 10
3.906206
 20
4.613217
 30
0.000000
  0
VERTEX
  8
LAYER-1
 10
5.693609
 20
4.613217
 30
0.000000
  0
VERTEX
  8
LAYER-1
 10
5.693609
 20
4.581440
 30
0.000000
  0
VERTEX
  8
LAYER-1
 10
3.906206
 20
4.581440
 30
0.000000
  0
SEQEND
  8
LAYER-1
  0
TEXT
  8
LAYER-1
 62
  7
 10
2.728923
 20
2.748316
 30
0.000000
 40
0.122596
  1
C
 72
  5
 11
2.892385
 21
2.748316
 31
0.000000
  0
TEXT
  8
LAYER-1
 62
  7
 10
2.767385
 20
2.700239
 30
0.000000
 40
0.122596
  1
L
 72
  5
 11
2.902000
 21
2.700239
 31
0.000000
  0
LINE
  8
LAYER-1
 62
  7
 10
6.095411
 20
0.477656
 30
0.000000
 11
6.095411
 21
4.554191
 31
0.000000
  0
LINE
  8
LAYER-1
 62
  7
 10
5.294834
 20
0.457971
 30
0.000000
 11
6.220411
 21
0.457971
 31
0.000000
  0
LINE
  8
LAYER-1
 62
  7
 10
6.095411
 20
2.521204
 30
0.000000
 11
6.095411
 21
0.457971
 31
0.000000
  0
POLYLINE
  8
LAYER-1
 66
  1
 70
  1
 62
  7
  0
VERTEX
  8
LAYER-1
 10
6.095411
 20
0.457971
 30
0.000000
  0
VERTEX
  8
LAYER-1
 10
6.124257
 20
0.506048
 30
0.000000
  0
VERTEX
  8
LAYER-1
 10
6.095411
 20
0.506048
 30
0.000000
  0
VERTEX
  8
LAYER-1
 10
6.066565
 20
0.506048
 30
0.000000
  0
VERTEX
  8
LAYER-1
 10
6.095411
 20
0.457971
 30
0.000000
  0
SEQEND
  8
LAYER-1
  0
POLYLINE
  8
LAYER-1
 66
  1
 70
  1
 62
  7
  0
VERTEX
  8
LAYER-1
 10
6.095411
 20
4.573876
 30
0.000000
  0
VERTEX
  8
LAYER-1
 10
6.124257
 20
4.525799
 30
0.000000
  0
VERTEX
  8
LAYER-1
 10
6.095411
 20
4.525799
 30
0.000000
  0
VERTEX
  8
LAYER-1
 10
6.066565
 20
4.525799
 30
0.000000
  0
VERTEX
  8
LAYER-1
 10
6.095411
 20
4.573876
 30
0.000000
  0
SEQEND
  8
LAYER-1
  0
TEXT
  8
LAYER-1
 62
  7
 10
6.012645
 20
2.352439
 30
0.000000
 40
0.072115
  1
 
 50
90.000000
  0
LINE
  8
LAYER-1
 62
  7
 10
2.588534
 20
4.110150
 30
0.000000
 11
3.020656
 21
4.110150
 31
0.000000
  0
LINE
  8
LAYER-1
 62
  7
 10
2.588534
 20
4.512137
 30
0.000000
 11
2.588534
 21
3.985150
 31
0.000000
  0
LINE
  8
LAYER-1
 62
  7
 10
3.020656
 20
4.511376
 30
0.000000
 11
3.020656
 21
3.985150
 31
0.000000
  0
LINE
  8
LAYER-1
 62
  7
 10
2.588534
 20
4.110150
 30
0.000000
 11
1.425230
 21
4.110150
 31
0.000000
  0
LINE
  8
LAYER-1
 62
  7
 10
2.608932
 20
4.130547
 30
0.000000
 11
2.568138
 21
4.089752
 31
0.000000
  0
LINE
  8
LAYER-1
 62
  7
 10
3.041054
 20
4.130547
 30
0.000000
 11
3.000259
 21
4.089752
 31
0.000000
  0
TEXT
  8
LAYER-1
 62
  7
 10
1.324017
 20
4.079705
 30
0.000000
 40
0.086538
  1
 
  0
TEXT
  8
LAYER-1
 62
  7
 10
1.459693
 20
4.171393
 30
0.000000
 40
0.187500
  1
6"
 72
  5
 11
1.728923
 21
4.171393
 31
0.000000
  0
TEXT
  8
LAYER-1
 62
  7
 10
1.728923
 20
4.171393
 30
0.000000
 40
0.144231
  1
 (152mm)
 72
  5
 11
2.613539
 21
4.171393
 31
0.000000
  0
LINE
  8
LAYER-1
 62
  7
 10
2.670795
 20
6.823080
 30
0.000000
 11
3.765286
 21
6.823079
 31
0.000000
  0
LINE
  8
LAYER-1
 62
  7
 10
2.651110
 20
6.363287
 30
0.000000
 11
2.651110
 21
6.948080
 31
0.000000
  0
LINE
  8
LAYER-1
 62
  7
 10
3.784971
 20
6.357785
 30
0.000000
 11
3.784971
 21
6.948080
 31
0.000000
  0
POLYLINE
  8
LAYER-1
 66
  1
 70
  1
 62
  7
  0
VERTEX
  8
LAYER-1
 10
2.651110
 20
6.823080
 30
0.000000
  0
VERTEX
  8
LAYER-1
 10
2.699188
 20
6.794234
 30
0.000000
  0
VERTEX
  8
LAYER-1
 10
2.699187
 20
6.823080
 30
0.000000
  0
VERTEX
  8
LAYER-1
 10
2.699187
 20
6.851926
 30
0.000000
  0
VERTEX
  8
LAYER-1
 10
2.651110
 20
6.823080
 30
0.000000
  0
SEQEND
  8
LAYER-1
  0
POLYLINE
  8
LAYER-1
 66
  1
 70
  1
 62
  7
  0
VERTEX
  8
LAYER-1
 10
3.784971
 20
6.823080
 30
0.000000
  0
VERTEX
  8
LAYER-1
 10
3.736894
 20
6.794233
 30
0.000000
  0
VERTEX
  8
LAYER-1
 10
3.736894
 20
6.823079
 30
0.000000
  0
VERTEX
  8
LAYER-1
 10
3.736893
 20
6.851925
 30
0.000000
  0
VERTEX
  8
LAYER-1
 10
3.784971
 20
6.823080
 30
0.000000
  0
SEQEND
  8
LAYER-1
  0
TEXT
  8
LAYER-1
 62
  7
 10
3.201970
 20
6.922225
 30
0.000000
 40
0.086538
  1
 
  0
TEXT
  8
LAYER-1
 62
253
 10
4.315462
 20
7.171393
 30
0.000000
 40
0.144231
  1
27" (686mm)
 72
  5
 11
5.478923
 21
7.171393
 31
0.000000
  0
POLYLINE
  8
LAYER-1
  6
LTYPE01
 66
  1
 70
  0
 62
253
  6
LTYPE01
 10
2.669335
 20
7.582887
 30
0.000000
  0
VERTEX
  8
LAYER-1
  6
LTYPE01
 10
2.669335
 20
7.582887
 30
0.000000
  0
VERTEX
  8
LAYER-1
  6
LTYPE01
 10
5.820503
 20
7.581088
 30
0.000000
  0
SEQEND
  8
LAYER-1
  0
POLYLINE
  8
LAYER-1
 66
  1
 70
  1
 62
253
  0
VERTEX
  8
LAYER-1
 10
2.649650
 20
7.582898
 30
0.000000
  0
VERTEX
  8
LAYER-1
 10
2.697710
 20
7.554024
 30
0.000000
  0
VERTEX
  8
LAYER-1
 10
2.697727
 20
7.582870
 30
0.000000
  0
VERTEX
  8
LAYER-1
 10
2.697743
 20
7.611717
 30
0.000000
  0
VERTEX
  8
LAYER-1
 10
2.649650
 20
7.582898
 30
0.000000
  0
SEQEND
  8
LAYER-1
  0
POLYLINE
  8
LAYER-1
 66
  1
 70
  1
 62
253
  0
VERTEX
  8
LAYER-1
 10
5.840188
 20
7.581076
 30
0.000000
  0
VERTEX
  8
LAYER-1
 10
5.792095
 20
7.552258
 30
0.000000
  0
VERTEX
  8
LAYER-1
 10
5.792111
 20
7.581104
 30
0.000000
  0
VERTEX
  8
LAYER-1
 10
5.792128
 20
7.609950
 30
0.000000
  0
VERTEX
  8
LAYER-1
 10
5.840188
 20
7.581076
 30
0.000000
  0
SEQEND
  8
LAYER-1
  0
POLYLINE
  8
LAYER-1
  6
LTYPE01
 66
  1
 70
  0
 62
253
  6
LTYPE01
 10
5.839512
 20
6.532624
 30
0.000000
  0
VERTEX
  8
LAYER-1
  6
LTYPE01
 10
5.839512
 20
6.532624
 30
0.000000
  0
VERTEX
  8
LAYER-1
  6
LTYPE01
 10
5.839512
 20
7.847068
 30
0.000000
  0
SEQEND
  8
LAYER-1
  0
POLYLINE
  8
LAYER-1
  6
LTYPE01
 66
  1
 70
  0
 62
253
  6
LTYPE01
 10
3.814404
 20
7.113443
 30
0.000000
  0
VERTEX
  8
LAYER-1
  6
LTYPE01
 10
3.814404
 20
7.113443
 30
0.000000
  0
VERTEX
  8
LAYER-1
  6
LTYPE01
 10
5.820503
 20
7.112338
 30
0.000000
  0
SEQEND
  8
LAYER-1
  0
POLYLINE
  8
LAYER-1
 66
  1
 70
  1
 62
253
  0
VERTEX
  8
LAYER-1
 10
3.794719
 20
7.113454
 30
0.000000
  0
VERTEX
  8
LAYER-1
 10
3.842780
 20
7.084582
 30
0.000000
  0
VERTEX
  8
LAYER-1
 10
3.842796
 20
7.113428
 30
0.000000
  0
VERTEX
  8
LAYER-1
 10
3.842812
 20
7.142274
 30
0.000000
  0
VERTEX
  8
LAYER-1
 10
3.794719
 20
7.113454
 30
0.000000
  0
SEQEND
  8
LAYER-1
  0
POLYLINE
  8
LAYER-1
 66
  1
 70
  1
 62
253
  0
VERTEX
  8
LAYER-1
 10
5.840188
 20
7.112326
 30
0.000000
  0
VERTEX
  8
LAYER-1
 10
5.792095
 20
7.083507
 30
0.000000
  0
VERTEX
  8
LAYER-1
 10
5.792111
 20
7.112353
 30
0.000000
  0
VERTEX
  8
LAYER-1
 10
5.792127
 20
7.141199
 30
0.000000
  0
VERTEX
  8
LAYER-1
 10
5.840188
 20
7.112326
 30
0.000000
  0
SEQEND
  8
LAYER-1
  0
POLYLINE
  8
LAYER-1
  6
LTYPE01
 66
  1
 70
  0
 62
253
  6
LTYPE01
 10
3.791104
 20
7.077343
 30
0.000000
  0
VERTEX
  8
LAYER-1
  6
LTYPE01
 10
3.791104
 20
7.077343
 30
0.000000
  0
VERTEX
  8
LAYER-1
  6
LTYPE01
 10
3.791104
 20
7.330120
 30
0.000000
  0
SEQEND
  8
LAYER-1
  0
LINE
  8
LAYER-1
 62
  7
 10
0.323064
 20
0.478597
 30
0.000000
 11
0.323064
 21
8.014249
 31
0.000000
  0
LINE
  8
LAYER-1
 62
  7
 10
1.446275
 20
0.458912
 30
0.000000
 11
0.198064
 21
0.458912
 31
0.000000
  0
LINE
  8
LAYER-1
 62
  7
 10
0.142643
 20
8.033934
 30
0.000000
 11
0.448064
 21
8.033934
 31
0.000000
  0
LINE
  8
LAYER-1
 62
  7
 10
0.323064
 20
3.983727
 30
0.000000
 11
0.323064
 21
0.458912
 31
0.000000
  0
POLYLINE
  8
LAYER-1
 66
  1
 70
  1
 62
  7
  0
VERTEX
  8
LAYER-1
 10
0.323064
 20
0.458912
 30
0.000000
  0
VERTEX
  8
LAYER-1
 10
0.351910
 20
0.506989
 30
0.000000
  0
VERTEX
  8
LAYER-1
 10
0.323064
 20
0.506989
 30
0.000000
  0
VERTEX
  8
LAYER-1
 10
0.294218
 20
0.506989
 30
0.000000
  0
VERTEX
  8
LAYER-1
 10
0.323064
 20
0.458912
 30
0.000000
  0
SEQEND
  8
LAYER-1
  0
POLYLINE
  8
LAYER-1
 66
  1
 70
  1
 62
  7
  0
VERTEX
  8
LAYER-1
 10
0.323064
 20
8.033934
 30
0.000000
  0
VERTEX
  8
LAYER-1
 10
0.351910
 20
7.985857
 30
0.000000
  0
VERTEX
  8
LAYER-1
 10
0.323064
 20
7.985857
 30
0.000000
  0
VERTEX
  8
LAYER-1
 10
0.294218
 20
7.985857
 30
0.000000
  0
VERTEX
  8
LAYER-1
 10
0.323064
 20
8.033934
 30
0.000000
  0
SEQEND
  8
LAYER-1
  0
TEXT
  8
LAYER-1
 62
  7
 10
0.220801
 20
3.788965
 30
0.000000
 40
0.086538
  1
 
 50
90.000000
  0
TEXT
  8
LAYER-1
 62
  7
 10
3.382770
 20
2.181008
 30
0.000000
 40
0.187500
  1
"Z"
 72
  5
 11
3.757770
 21
2.181008
 31
0.000000
  0
TEXT
  8
LAYER-1
 62
  7
 10
3.094308
 20
4.373316
 30
0.000000
 40
0.144231
  1
(152 mm)
 72
  5
 11
3.978923
 21
4.373316
 31
0.000000
  0
POLYLINE
  8
LAYER-1
 66
  1
 70
  0
 62
  7
 10
0.652596
 20
6.964048
 30
0.000000
  0
VERTEX
  8
LAYER-1
 10
0.652596
 20
6.964048
 30
0.000000
  0
VERTEX
  8
LAYER-1
 10
3.008659
 20
6.964048
 30
0.000000
  0
SEQEND
  8
LAYER-1
  0
POLYLINE
  8
LAYER-1
 66
  1
 70
  1
 62
  7
  0
VERTEX
  8
LAYER-1
 10
3.028344
 20
6.964048
 30
0.000000
  0
VERTEX
  8
LAYER-1
 10
2.980267
 20
6.935202
 30
0.000000
  0
VERTEX
  8
LAYER-1
 10
2.980267
 20
6.964048
 30
0.000000
  0
VERTEX
  8
LAYER-1
 10
2.980267
 20
6.992894
 30
0.000000
  0
VERTEX
  8
LAYER-1
 10
3.028344
 20
6.964048
 30
0.000000
  0
SEQEND
  8
LAYER-1
  0
POLYLINE
  8
LAYER-1
 66
  1
 70
  0
 62
  7
 10
0.632511
 20
7.109882
 30
0.000000
  0
VERTEX
  8
LAYER-1
 10
0.632511
 20
7.109882
 30
0.000000
  0
VERTEX
  8
LAYER-1
 10
0.789546
 20
5.969660
 30
0.000000
  0
SEQEND
  8
LAYER-1
  0
POLYLINE
  8
LAYER-1
 66
  1
 70
  1
 62
  7
  0
VERTEX
  8
LAYER-1
 10
0.792232
 20
5.950159
 30
0.000000
  0
VERTEX
  8
LAYER-1
 10
0.757096
 20
5.993851
 30
0.000000
  0
VERTEX
  8
LAYER-1
 10
0.785673
 20
5.997786
 30
0.000000
  0
VERTEX
  8
LAYER-1
 10
0.814249
 20
6.001722
 30
0.000000
  0
VERTEX
  8
LAYER-1
 10
0.792232
 20
5.950159
 30
0.000000
  0
SEQEND
  8
LAYER-1
  0
LINE
  8
LAYER-1
 62
  7
 10
3.456723
 20
4.998687
 30
0.000000
 11
3.456723
 21
4.573876
 31
0.000000
  0
LINE
  8
LAYER-1
 62
  7
 10
2.660328
 20
4.998687
 30
0.000000
 11
3.581723
 21
4.998687
 31
0.000000
  0
LINE
  8
LAYER-1
 62
  7
 10
3.145657
 20
4.573876
 30
0.000000
 11
3.581723
 21
4.573876
 31
0.000000
  0
LINE
  8
LAYER-1
 62
  7
 10
3.477121
 20
4.978290
 30
0.000000
 11
3.436326
 21
5.019084
 31
0.000000
  0
LINE
  8
LAYER-1
 62
  7
 10
3.477121
 20
4.553478
 30
0.000000
 11
3.436326
 21
4.594273
 31
0.000000
  0
TEXT
  8
LAYER-1
 62
  7
 10
3.300979
 20
4.826992
 30
0.000000
 40
0.129808
  1
 
 50
90.000000
  0
TEXT
  8
LAYER-1
 62
  7
 10
3.142385
 20
4.690623
 30
0.000000
 40
0.187500
  1
6"
 72
  5
 11
3.411616
 21
4.690623
 31
0.000000
  0
POLYLINE
  8
LAYER-1
 66
  1
 70
  0
 62
  7
 10
2.424177
 20
7.582104
 30
0.000000
  0
VERTEX
  8
LAYER-1
 10
2.424177
 20
7.582104
 30
0.000000
  0
VERTEX
  8
LAYER-1
 10
2.632037
 20
7.387234
 30
0.000000
  0
SEQEND
  8
LAYER-1
  0
POLYLINE
  8
LAYER-1
 66
  1
 70
  1
 62
  7
  0
VERTEX
  8
LAYER-1
 10
2.646399
 20
7.373770
 30
0.000000
  0
VERTEX
  8
LAYER-1
 10
2.591596
 20
7.385608
 30
0.000000
  0
VERTEX
  8
LAYER-1
 10
2.611325
 20
7.406653
 30
0.000000
  0
VERTEX
  8
LAYER-1
 10
2.631054
 20
7.427697
 30
0.000000
  0
VERTEX
  8
LAYER-1
 10
2.646399
 20
7.373770
 30
0.000000
  0
SEQEND
  8
LAYER-1
  0
POLYLINE
  8
LAYER-1
 66
  1
 70
  0
 62
  7
 10
2.777574
 20
4.998723
 30
0.000000
  0
VERTEX
  8
LAYER-1
 10
2.777574
 20
4.998723
 30
0.000000
  0
VERTEX
  8
LAYER-1
 10
2.777574
 20
0.458285
 30
0.000000
  0
SEQEND
  8
LAYER-1
  0
POLYLINE
  8
LAYER-1
 66
  1
 70
  0
 62
  7
 10
2.757940
 20
4.998723
 30
0.000000
  0
VERTEX
  8
LAYER-1
 10
2.757940
 20
4.998723
 30
0.000000
  0
VERTEX
  8
LAYER-1
 10
2.757940
 20
0.458285
 30
0.000000
  0
SEQEND
  8
LAYER-1
  0
POLYLINE
  8
LAYER-1
 66
  1
 70
  0
 62
  7
 10
2.836512
 20
4.903878
 30
0.000000
  0
VERTEX
  8
LAYER-1
 10
2.836512
 20
4.903878
 30
0.000000
  0
VERTEX
  8
LAYER-1
 10
2.836441
 20
0.458285
 30
0.000000
  0
SEQEND
  8
LAYER-1
  0
POLYLINE
  8
LAYER-1
 66
  1
 70
  0
 62
  7
 10
2.856107
 20
4.904881
 30
0.000000
  0
VERTEX
  8
LAYER-1
 10
2.856107
 20
4.904881
 30
0.000000
  0
VERTEX
  8
LAYER-1
 10
2.856064
 20
0.458285
 30
0.000000
  0
SEQEND
  8
LAYER-1
  0
POLYLINE
  8
LAYER-1
 66
  1
 70
  0
 62
  7
 10
2.836058
 20
4.933709
 30
0.000000
  0
VERTEX
  8
LAYER-1
 10
2.836058
 20
4.933709
 30
0.000000
  0
VERTEX
  8
LAYER-1
 10
2.866643
 20
4.933709
 30
0.000000
  0
SEQEND
  8
LAYER-1
  0
POLYLINE
  8
LAYER-1
 66
  1
 70
  0
 62
  7
 10
2.868970
 20
4.931381
 30
0.000000
  0
VERTEX
  8
LAYER-1
 10
2.868970
 20
4.931381
 30
0.000000
  0
VERTEX
  8
LAYER-1
 10
2.868970
 20
4.853681
 30
0.000000
  0
SEQEND
  8
LAYER-1
  0
POLYLINE
  8
LAYER-1
 66
  1
 70
  0
 62
  7
 10
2.866643
 20
4.851354
 30
0.000000
  0
VERTEX
  8
LAYER-1
 10
2.866643
 20
4.851354
 30
0.000000
  0
VERTEX
  8
LAYER-1
 10
2.836058
 20
4.851354
 30
0.000000
  0
SEQEND
  8
LAYER-1
  0
POLYLINE
  8
LAYER-1
 66
  1
 70
  0
 62
  7
 10
2.833731
 20
4.853681
 30
0.000000
  0
VERTEX
  8
LAYER-1
 10
2.833731
 20
4.853681
 30
0.000000
  0
VERTEX
  8
LAYER-1
 10
2.833731
 20
4.931381
 30
0.000000
  0
SEQEND
  8
LAYER-1
  0
ARC
  8
LAYER-1
 62
  7
 10
2.836058
 20
4.931381
 30
0.000000
 40
0.002327
 50
270.000000
 51
0.000000
  0
ARC
  8
LAYER-1
 62
  7
 10
2.836058
 20
4.853681
 30
0.000000
 40
0.002327
 50
0.000000
 51
90.000000
  0
ARC
  8
LAYER-1
 62
  7
 10
2.866643
 20
4.853681
 30
0.000000
 40
0.002327
 50
90.000000
 51
180.000000
  0
ARC
  8
LAYER-1
 62
  7
 10
2.866643
 20
4.931381
 30
0.000000
 40
0.002327
 50
180.000000
 51
270.000000
  0
POLYLINE
  8
LAYER-1
 66
  1
 70
  1
 62
  7
 10
2.866381
 20
4.853652
 30
0.000000
  0
VERTEX
  8
LAYER-1
 10
2.866381
 20
4.853652
 30
0.000000
  0
VERTEX
  8
LAYER-1
 10
2.835855
 20
4.853652
 30
0.000000
  0
VERTEX
  8
LAYER-1
 10
2.835855
 20
4.931607
 30
0.000000
  0
VERTEX
  8
LAYER-1
 10
2.866381
 20
4.931605
 30
0.000000
  0
SEQEND
  8
LAYER-1
  0
POLYLINE
  8
LAYER-1
 66
  1
 70
  0
 62
  7
 10
2.856023
 20
4.931605
 30
0.000000
  0
VERTEX
  8
LAYER-1
 10
2.856023
 20
4.931605
 30
0.000000
  0
VERTEX
  8
LAYER-1
 10
2.856023
 20
4.853652
 30
0.000000
  0
SEQEND
  8
LAYER-1
  0
POLYLINE
  8
LAYER-1
 66
  1
 70
  0
 62
  7
 10
2.866381
 20
4.931607
 30
0.000000
  0
VERTEX
  8
LAYER-1
 10
2.866381
 20
4.931607
 30
0.000000
  0
VERTEX
  8
LAYER-1
 10
2.859431
 20
4.906207
 30
0.000000
  0
VERTEX
  8
LAYER-1
 10
2.859884
 20
4.878392
 30
0.000000
  0
VERTEX
  8
LAYER-1
 10
2.866381
 20
4.853652
 30
0.000000
  0
SEQEND
  8
LAYER-1
  0
POLYLINE
  8
LAYER-1
 66
  1
 70
  0
 62
  7
 10
2.835855
 20
4.931607
 30
0.000000
  0
VERTEX
  8
LAYER-1
 10
2.835855
 20
4.931607
 30
0.000000
  0
VERTEX
  8
LAYER-1
 10
2.847783
 20
4.926687
 30
0.000000
  0
VERTEX
  8
LAYER-1
 10
2.862481
 20
4.931644
 30
0.000000
  0
VERTEX
  8
LAYER-1
 10
2.835855
 20
4.931607
 30
0.000000
  0
SEQEND
  8
LAYER-1
  0
POLYLINE
  8
LAYER-1
 66
  1
 70
  0
 62
  7
 10
2.866381
 20
4.853652
 30
0.000000
  0
VERTEX
  8
LAYER-1
 10
2.866381
 20
4.853652
 30
0.000000
  0
VERTEX
  8
LAYER-1
 10
2.851415
 20
4.862881
 30
0.000000
  0
VERTEX
  8
LAYER-1
 10
2.837091
 20
4.858825
 30
0.000000
  0
VERTEX
  8
LAYER-1
 10
2.835855
 20
4.853652
 30
0.000000
  0
SEQEND
  8
LAYER-1
  0
POLYLINE
  8
LAYER-1
 66
  1
 70
  0
 62
  7
 10
2.835855
 20
4.853652
 30
0.000000
  0
VERTEX
  8
LAYER-1
 10
2.835855
 20
4.853652
 30
0.000000
  0
VERTEX
  8
LAYER-1
 10
2.839057
 20
4.881081
 30
0.000000
  0
VERTEX
  8
LAYER-1
 10
2.839161
 20
4.907061
 30
0.000000
  0
VERTEX
  8
LAYER-1
 10
2.834194
 20
4.932563
 30
0.000000
  0
VERTEX
  8
LAYER-1
 10
2.835855
 20
4.931607
 30
0.000000
  0
SEQEND
  8
LAYER-1
  0
POLYLINE
  8
LAYER-1
 66
  1
 70
  1
 62
  7
 10
2.864640
 20
0.535792
 30
0.000000
  0
VERTEX
  8
LAYER-1
 10
2.864640
 20
0.535792
 30
0.000000
  0
VERTEX
  8
LAYER-1
 10
2.864640
 20
0.736026
 30
0.000000
  0
VERTEX
  8
LAYER-1
 10
2.747920
 20
0.736026
 30
0.000000
  0
VERTEX
  8
LAYER-1
 10
2.747920
 20
0.535792
 30
0.000000
  0
VERTEX
  8
LAYER-1
 10
2.695874
 20
0.505742
 30
0.000000
  0
VERTEX
  8
LAYER-1
 10
2.695874
 20
0.458426
 30
0.000000
  0
VERTEX
  8
LAYER-1
 10
2.916687
 20
0.458426
 30
0.000000
  0
VERTEX
  8
LAYER-1
 10
2.916687
 20
0.505742
 30
0.000000
  0
SEQEND
  8
LAYER-1
  0
POLYLINE
  8
LAYER-1
  6
LTYPE01
 66
  1
 70
  1
 62
  7
  6
LTYPE01
 10
2.864640
 20
4.650283
 30
0.000000
  0
VERTEX
  8
LAYER-1
  6
LTYPE01
 10
2.864640
 20
4.650283
 30
0.000000
  0
VERTEX
  8
LAYER-1
  6
LTYPE01
 10
2.864640
 20
4.850516
 30
0.000000
  0
VERTEX
  8
LAYER-1
  6
LTYPE01
 10
2.747920
 20
4.850516
 30
0.000000
  0
VERTEX
  8
LAYER-1
  6
LTYPE01
 10
2.747920
 20
4.650283
 30
0.000000
  0
VERTEX
  8
LAYER-1
  6
LTYPE01
 10
2.695874
 20
4.620233
 30
0.000000
  0
VERTEX
  8
LAYER-1
  6
LTYPE01
 10
2.695874
 20
4.572916
 30
0.000000
  0
VERTEX
  8
LAYER-1
  6
LTYPE01
 10
2.916687
 20
4.572916
 30
0.000000
  0
VERTEX
  8
LAYER-1
  6
LTYPE01
 10
2.916687
 20
4.620233
 30
0.000000
  0
SEQEND
  8
LAYER-1
  0
TEXT
  8
LAYER-1
 62
253
 10
4.296231
 20
6.959854
 30
0.000000
 40
0.100962
  1
(Couvercle ouvert)
 72
  5
 11
5.478923
 21
6.959854
 31
0.000000
  0
POLYLINE
  8
LAYER-1
  6
LTYPE01
 66
  1
 70
  0
 62
253
  6
LTYPE01
 10
5.918237
 20
4.633821
 30
0.000000
  0
VERTEX
  8
LAYER-1
  6
LTYPE01
 10
5.918237
 20
4.633821
 30
0.000000
  0
VERTEX
  8
LAYER-1
  6
LTYPE01
 10
6.459908
 20
4.633821
 30
0.000000
  0
SEQEND
  8
LAYER-1
  0
POLYLINE
  8
LAYER-1
 66
  1
 70
  1
 62
  7
  0
VERTEX
  8
LAYER-1
 10
2.339556
 20
0.360597
 30
0.000000
  0
VERTEX
  8
LAYER-1
 10
3.647897
 20
0.360597
 30
0.000000
  0
VERTEX
  8
LAYER-1
 10
3.647897
 20
0.046429
 30
0.000000
  0
VERTEX
  8
LAYER-1
 10
2.339556
 20
0.046429
 30
0.000000
  0
SEQEND
  8
LAYER-1
  0
TEXT
  8
LAYER-1
 62
  7
 10
3.267385
 20
1.911777
 30
0.000000
 40
0.144231
  1
RECUL
 72
  5
 11
3.950077
 21
1.911777
 31
0.000000
  0
TEXT
  8
LAYER-1
 62
  7
 10
2.411616
 20
0.113700
 30
0.000000
 40
0.237981
  1
COUPE
 72
  5
 11
3.565462
 21
0.113700
 31
0.000000
  0
TEXT
  8
LAYER-1
 62
  7
 10
3.228923
 20
0.902162
 30
0.000000
 40
0.144231
  1
BOUTIQUE OU
 72
  5
 11
4.632770
 21
0.902162
 31
0.000000
  0
TEXT
  8
LAYER-1
 62
  7
 10
1.488539
 20
0.902162
 30
0.000000
 40
0.144231
  1
MAIL OU
 72
  5
 11
2.353923
 21
0.902162
 31
0.000000
  0
TEXT
  8
LAYER-1
 62
  7
 10
0.930846
 20
0.959854
 30
0.000000
 40
0.144231
  1
SOUS PLAQUE D'EXTRƒMITƒ  "H"
 50
90.000000
 72
  5
 11
0.930846
 21
4.075239
 31
0.000000
  0
TEXT
  8
LAYER-1
 62
  7
 10
3.228923
 20
1.209854
 30
0.000000
 40
0.144231
  1
CïTƒ BARIL
 72
  5
 11
4.440462
 21
1.209854
 31
0.000000
  0
TEXT
  8
LAYER-1
 62
  7
 10
4.171231
 20
4.354085
 30
0.000000
 40
0.122596
  1
Fournir
 72
  5
 11
4.728923
 21
4.354085
 31
0.000000
  0
TEXT
  8
LAYER-1
 62
  7
 10
4.171231
 20
4.161777
 30
0.000000
 40
0.122596
  1
PANNEAU D'ACCéS
 72
  5
 11
5.738539
 21
4.161777
 31
0.000000
  0
TEXT
  8
LAYER-1
 62
  7
 10
4.171231
 20
3.969470
 30
0.000000
 40
0.122596
  1
24" x 24"
 72
  5
 11
4.902000
 21
3.969470
 31
0.000000
  0
TEXT
  8
LAYER-1
 62
  7
 10
4.171231
 20
3.777162
 30
0.000000
 40
0.122596
  1
(610 x 610 mm)
 72
  5
 11
5.353923
 21
3.777162
 31
0.000000
  0
TEXT
  8
LAYER-1
 62
  7
 10
4.171231
 20
3.584854
 30
0.000000
 40
0.122596
  1
1 pour moteur et
 72
  5
 11
5.373154
 21
3.584854
 31
0.000000
  0
TEXT
  8
LAYER-1
 62
  7
 10
4.171231
 20
3.392546
 30
0.000000
 40
0.122596
  1
1 pour roue de
 72
  5
 11
5.257770
 21
3.392546
 31
0.000000
  0
TEXT
  8
LAYER-1
 62
  7
 10
4.171231
 20
3.200239
 30
0.000000
 40
0.122596
  1
chargement
 72
  5
 11
5.046231
 21
3.200239
 31
0.000000
  0
TEXT
  8
LAYER-1
 62
253
 10
3.594308
 20
7.642546
 30
0.000000
 40
0.144231
  1
DƒGAGEMENT
 72
  5
 11
4.998154
 21
7.642546
 31
0.000000
  0
TEXT
  8
LAYER-1
 62
  7
 10
6.055846
 20
1.498316
 30
0.000000
 40
0.144231
  1
HAUTEUR PLAFOND
 50
90.000000
 72
  5
 11
6.055846
 21
3.402162
 31
0.000000
  0
TEXT
  8
LAYER-1
 62
  7
 10
3.219308
 20
0.623316
 30
0.000000
 40
0.144231
  1
INTƒRIEUR
 72
  5
 11
4.286616
 21
0.623316
 31
0.000000
  0
TEXT
  8
LAYER-1
 62
  7
 10
1.498154
 20
0.623316
 30
0.000000
 40
0.144231
  1
EXTƒRIEUR
 72
  5
 11
2.623154
 21
0.623316
 31
0.000000
  0
TEXT
  8
LAYER-1
 62
  7
 10
0.594308
 20
7.536777
 30
0.000000
 40
0.122596
  1
(Voir dŽtails
 72
  5
 11
1.478923
 21
7.536777
 31
0.000000
  0
TEXT
  8
LAYER-1
 62
  7
 10
0.594308
 20
7.344470
 30
0.000000
 40
0.122596
  1
Plaques d'extrŽmitŽ
 72
  5
 11
1.988539
 21
7.344470
 31
0.000000
  0
TEXT
  8
LAYER-1
 62
  7
 10
0.594308
 20
7.152162
 30
0.000000
 40
0.122596
  1
pour les dimensions)
 72
  5
 11
2.094308
 21
7.152162
 31
0.000000
  0
TEXT
  8
LAYER-1
 62
  7
 10
0.286616
 20
2.767546
 30
0.000000
 40
0.144231
  1
HAUTEUR DU SUPPORT  "HS"
 50
90.000000
 72
  5
 11
0.286616
 21
5.527162
 31
0.000000
  0
TEXT
  8
LAYER-1
 62
  7
 10
1.190462
 20
3.873316
 30
0.000000
 40
0.144231
  1
ou 
 72
  5
 11
1.507770
 21
3.873316
 31
0.000000
  0
TEXT
  8
LAYER-1
 62
  7
 10
1.507770
 20
3.873316
 30
0.000000
 40
0.187500
  1
7"
 72
  5
 11
1.777000
 21
3.873316
 31
0.000000
  0
TEXT
  8
LAYER-1
 62
  7
 10
1.777000
 20
3.873316
 30
0.000000
 40
0.144231
  1
 (178mm)
 72
  5
 11
2.661616
 21
3.873316
 31
0.000000
  0
TEXT
  8
LAYER-1
 62
  7
 10
1.286616
 20
3.632931
 30
0.000000
 40
0.144231
  1
pour cloisons
 72
  5
 11
2.459693
 21
3.632931
 31
0.000000
  0
TEXT
  8
LAYER-1
 62
  7
 10
1.411616
 20
3.411777
 30
0.000000
 40
0.144231
  1
de plus de
 72
  5
 11
2.344308
 21
3.411777
 31
0.000000
  0
TEXT
  8
LAYER-1
 62
  7
 10
1.411616
 20
3.190623
 30
0.000000
 40
0.144231
  1
22' (6,7m)
 72
  5
 11
2.334693
 21
3.190623
 31
0.000000
  0
TEXT
  8
LAYER-1
 62
  7
 10
1.421231
 20
2.969470
 30
0.000000
 40
0.144231
  1
de largeur
 72
  5
 11
2.334693
 21
2.969470
 31
0.000000
  0
TEXT
  8
LAYER-1
 62
  7
 10
1.950077
 20
7.854085
 30
0.000000
 40
0.122596
  1
Tube ou
 72
  5
 11
2.565462
 21
7.854085
 31
0.000000
  0
TEXT
  8
LAYER-1
 62
  7
 10
1.950077
 20
7.661777
 30
0.000000
 40
0.122596
  1
Angle
 72
  5
 11
2.392385
 21
7.661777
 31
0.000000
  0
POLYLINE
  8
LAYER-1
  6
LTYPE02
 66
  1
 70
  0
 62
253
  6
LTYPE02
 10
3.749491
 20
5.445466
 30
0.000000
  0
VERTEX
  8
LAYER-1
  6
LTYPE02
 10
3.749491
 20
5.445466
 30
0.000000
  0
VERTEX
  8
LAYER-1
  6
LTYPE02
 10
3.749491
 20
5.445466
 30
0.000000
  0
SEQEND
  8
LAYER-1
  0
POLYLINE
  8
LAYER-1
  6
LTYPE02
 66
  1
 70
  0
 62
253
  6
LTYPE02
 10
3.749491
 20
5.445466
 30
0.000000
  0
VERTEX
  8
LAYER-1
  6
LTYPE02
 10
3.749491
 20
5.445466
 30
0.000000
  0
VERTEX
  8
LAYER-1
  6
LTYPE02
 10
3.742357
 20
5.464104
 30
0.000000
  0
VERTEX
  8
LAYER-1
  6
LTYPE02
 10
3.726917
 20
5.472239
 30
0.000000
  0
VERTEX
  8
LAYER-1
  6
LTYPE02
 10
3.721718
 20
5.469798
 30
0.000000
  0
SEQEND
  8
LAYER-1
  0
POLYLINE
  8
LAYER-1
  6
LTYPE02
 66
  1
 70
  0
 62
253
  6
LTYPE02
 10
3.598456
 20
5.481552
 30
0.000000
  0
VERTEX
  8
LAYER-1
  6
LTYPE02
 10
3.598456
 20
5.481552
 30
0.000000
  0
VERTEX
  8
LAYER-1
  6
LTYPE02
 10
3.687486
 20
5.471666
 30
0.000000
  0
VERTEX
  8
LAYER-1
  6
LTYPE02
 10
3.721718
 20
5.469798
 30
0.000000
  0
SEQEND
  8
LAYER-1
  0
POLYLINE
  8
LAYER-1
  6
LTYPE02
 66
  1
 70
  0
 62
253
  6
LTYPE02
 10
3.598456
 20
5.481552
 30
0.000000
  0
VERTEX
  8
LAYER-1
  6
LTYPE02
 10
3.598456
 20
5.481552
 30
0.000000
  0
VERTEX
  8
LAYER-1
  6
LTYPE02
 10
3.579049
 20
5.482843
 30
0.000000
  0
VERTEX
  8
LAYER-1
  6
LTYPE02
 10
3.567196
 20
5.470034
 30
0.000000
  0
VERTEX
  8
LAYER-1
  6
LTYPE02
 10
3.567848
 20
5.462263
 30
0.000000
  0
SEQEND
  8
LAYER-1
  0
POLYLINE
  8
LAYER-1
  6
LTYPE02
 66
  1
 70
  0
 62
253
  6
LTYPE02
 10
3.567847
 20
5.462263
 30
0.000000
  0
VERTEX
  8
LAYER-1
  6
LTYPE02
 10
3.567847
 20
5.462263
 30
0.000000
  0
VERTEX
  8
LAYER-1
  6
LTYPE02
 10
3.567847
 20
5.462263
 30
0.000000
  0
SEQEND
  8
LAYER-1
  0
POLYLINE
  8
LAYER-1
  6
LTYPE02
 66
  1
 70
  0
 62
253
  6
LTYPE02
 10
3.567848
 20
5.462263
 30
0.000000
  0
VERTEX
  8
LAYER-1
  6
LTYPE02
 10
3.567848
 20
5.462263
 30
0.000000
  0
VERTEX
  8
LAYER-1
  6
LTYPE02
 10
3.571045
 20
5.447561
 30
0.000000
  0
VERTEX
  8
LAYER-1
  6
LTYPE02
 10
3.580443
 20
5.439725
 30
0.000000
  0
SEQEND
  8
LAYER-1
  0
POLYLINE
  8
LAYER-1
  6
LTYPE02
 66
  1
 70
  0
 62
253
  6
LTYPE02
 10
3.580442
 20
5.439725
 30
0.000000
  0
VERTEX
  8
LAYER-1
  6
LTYPE02
 10
3.580442
 20
5.439725
 30
0.000000
  0
VERTEX
  8
LAYER-1
  6
LTYPE02
 10
3.665098
 20
5.427204
 30
0.000000
  0
VERTEX
  8
LAYER-1
  6
LTYPE02
 10
3.733056
 20
5.425642
 30
0.000000
  0
SEQEND
  8
LAYER-1
  0
POLYLINE
  8
LAYER-1
  6
LTYPE02
 66
  1
 70
  0
 62
253
  6
LTYPE02
 10
3.733058
 20
5.425643
 30
0.000000
  0
VERTEX
  8
LAYER-1
  6
LTYPE02
 10
3.733058
 20
5.425643
 30
0.000000
  0
VERTEX
  8
LAYER-1
  6
LTYPE02
 10
3.744754
 20
5.438468
 30
0.000000
  0
VERTEX
  8
LAYER-1
  6
LTYPE02
 10
3.749491
 20
5.445466
 30
0.000000
  0
SEQEND
  8
LAYER-1
  0
CIRCLE
  8
LAYER-1
 62
253
  6
LTYPE02
 10
3.705501
 20
5.444513
 30
0.000000
 40
0.037156
  0
CIRCLE
  8
LAYER-1
 62
253
  6
LTYPE02
 10
3.705604
 20
5.444645
 30
0.000000
 40
0.018001
  0
TEXT
  8
LAYER-1
 62
253
 10
4.353923
 20
6.604085
 30
0.000000
 40
0.144231
  1
MOTOR
 72
  5
 11
5.123154
 21
6.604085
 31
0.000000
  0
CIRCLE
  8
LAYER-1
 62
  7
 10
2.731392
 20
5.079527
 30
0.000000
 40
0.016208
  0
POLYLINE
  8
LAYER-1
 66
  1
 70
  0
 62
253
 10
3.287371
 20
5.728260
 30
0.000000
  0
VERTEX
  8
LAYER-1
 10
3.287371
 20
5.728260
 30
0.000000
  0
VERTEX
  8
LAYER-1
 10
3.146966
 20
5.728260
 30
0.000000
  0
SEQEND
  8
LAYER-1
  0
POLYLINE
  8
LAYER-1
 66
  1
 70
  0
 62
253
 10
3.217170
 20
5.798468
 30
0.000000
  0
VERTEX
  8
LAYER-1
 10
3.217170
 20
5.798468
 30
0.000000
  0
VERTEX
  8
LAYER-1
 10
3.217170
 20
5.658051
 30
0.000000
  0
SEQEND
  8
LAYER-1
  0
POLYLINE
  8
LAYER-1
  6
LTYPE02
 66
  1
 70
  0
 62
  7
  6
LTYPE02
 10
3.409825
 20
5.920917
 30
0.000000
  0
VERTEX
  8
LAYER-1
  6
LTYPE02
 10
3.409825
 20
5.920917
 30
0.000000
  0
VERTEX
  8
LAYER-1
  6
LTYPE02
 10
3.366570
 20
5.956768
 30
0.000000
  0
VERTEX
  8
LAYER-1
  6
LTYPE02
 10
3.319466
 20
5.981947
 30
0.000000
  0
VERTEX
  8
LAYER-1
  6
LTYPE02
 10
3.268355
 20
5.997451
 30
0.000000
  0
VERTEX
  8
LAYER-1
  6
LTYPE02
 10
3.215201
 20
6.002686
 30
0.000000
  0
VERTEX
  8
LAYER-1
  6
LTYPE02
 10
3.162047
 20
5.997451
 30
0.000000
  0
VERTEX
  8
LAYER-1
  6
LTYPE02
 10
3.110936
 20
5.981946
 30
0.000000
  0
VERTEX
  8
LAYER-1
  6
LTYPE02
 10
3.063832
 20
5.956768
 30
0.000000
  0
VERTEX
  8
LAYER-1
  6
LTYPE02
 10
3.022544
 20
5.922884
 30
0.000000
  0
VERTEX
  8
LAYER-1
  6
LTYPE02
 10
2.988660
 20
5.881598
 30
0.000000
  0
VERTEX
  8
LAYER-1
  6
LTYPE02
 10
2.963483
 20
5.834493
 30
0.000000
  0
VERTEX
  8
LAYER-1
  6
LTYPE02
 10
2.961545
 20
5.822543
 30
0.000000
  0
SEQEND
  8
LAYER-1
  0
CIRCLE
  8
LAYER-1
 62
253
  6
LTYPE01
 10
3.216029
 20
5.728377
 30
0.000000
 40
0.070100
  0
POLYLINE
  8
LAYER-1
  6
LTYPE01
 66
  1
 70
  0
 62
253
  6
LTYPE01
 10
3.197912
 20
5.939889
 30
0.000000
  0
VERTEX
  8
LAYER-1
  6
LTYPE01
 10
3.197912
 20
5.939889
 30
0.000000
  0
VERTEX
  8
LAYER-1
  6
LTYPE01
 10
3.209077
 20
5.924059
 30
0.000000
  0
SEQEND
  8
LAYER-1
  0
POLYLINE
  8
LAYER-1
  6
LTYPE01
 66
  1
 70
  0
 62
253
  6
LTYPE01
 10
3.209077
 20
5.924059
 30
0.000000
  0
VERTEX
  8
LAYER-1
  6
LTYPE01
 10
3.209077
 20
5.924059
 30
0.000000
  0
VERTEX
  8
LAYER-1
  6
LTYPE01
 10
3.219607
 20
5.923868
 30
0.000000
  0
VERTEX
  8
LAYER-1
  6
LTYPE01
 10
3.223735
 20
5.924059
 30
0.000000
  0
SEQEND
  8
LAYER-1
  0
POLYLINE
  8
LAYER-1
  6
LTYPE01
 66
  1
 70
  0
 62
253
  6
LTYPE01
 10
3.234902
 20
5.939889
 30
0.000000
  0
VERTEX
  8
LAYER-1
  6
LTYPE01
 10
3.234902
 20
5.939889
 30
0.000000
  0
VERTEX
  8
LAYER-1
  6
LTYPE01
 10
3.223734
 20
5.924059
 30
0.000000
  0
SEQEND
  8
LAYER-1
  0
POLYLINE
  8
LAYER-1
  6
LTYPE01
 66
  1
 70
  0
 62
253
  6
LTYPE01
 10
3.161482
 20
5.933465
 30
0.000000
  0
VERTEX
  8
LAYER-1
  6
LTYPE01
 10
3.161482
 20
5.933465
 30
0.000000
  0
VERTEX
  8
LAYER-1
  6
LTYPE01
 10
3.175227
 20
5.919814
 30
0.000000
  0
SEQEND
  8
LAYER-1
  0
POLYLINE
  8
LAYER-1
  6
LTYPE01
 66
  1
 70
  0
 62
253
  6
LTYPE01
 10
3.175229
 20
5.919815
 30
0.000000
  0
VERTEX
  8
LAYER-1
  6
LTYPE01
 10
3.175229
 20
5.919815
 30
0.000000
  0
VERTEX
  8
LAYER-1
  6
LTYPE01
 10
3.185944
 20
5.921828
 30
0.000000
  0
VERTEX
  8
LAYER-1
  6
LTYPE01
 10
3.189664
 20
5.922361
 30
0.000000
  0
SEQEND
  8
LAYER-1
  0
POLYLINE
  8
LAYER-1
  6
LTYPE01
 66
  1
 70
  0
 62
253
  6
LTYPE01
 10
3.197912
 20
5.939889
 30
0.000000
  0
VERTEX
  8
LAYER-1
  6
LTYPE01
 10
3.197912
 20
5.939889
 30
0.000000
  0
VERTEX
  8
LAYER-1
  6
LTYPE01
 10
3.189663
 20
5.922360
 30
0.000000
  0
SEQEND
  8
LAYER-1
  0
POLYLINE
  8
LAYER-1
  6
LTYPE01
 66
  1
 70
  0
 62
253
  6
LTYPE01
 10
3.126723
 20
5.920813
 30
0.000000
  0
VERTEX
  8
LAYER-1
  6
LTYPE01
 10
3.126723
 20
5.920813
 30
0.000000
  0
VERTEX
  8
LAYER-1
  6
LTYPE01
 10
3.142630
 20
5.909757
 30
0.000000
  0
SEQEND
  8
LAYER-1
  0
POLYLINE
  8
LAYER-1
  6
LTYPE01
 66
  1
 70
  0
 62
253
  6
LTYPE01
 10
3.142630
 20
5.909758
 30
0.000000
  0
VERTEX
  8
LAYER-1
  6
LTYPE01
 10
3.142630
 20
5.909758
 30
0.000000
  0
VERTEX
  8
LAYER-1
  6
LTYPE01
 10
3.153144
 20
5.913972
 30
0.000000
  0
VERTEX
  8
LAYER-1
  6
LTYPE01
 10
3.156403
 20
5.914771
 30
0.000000
  0
SEQEND
  8
LAYER-1
  0
POLYLINE
  8
LAYER-1
  6
LTYPE01
 66
  1
 70
  0
 62
253
  6
LTYPE01
 10
3.161482
 20
5.933465
 30
0.000000
  0
VERTEX
  8
LAYER-1
  6
LTYPE01
 10
3.161482
 20
5.933465
 30
0.000000
  0
VERTEX
  8
LAYER-1
  6
LTYPE01
 10
3.156404
 20
5.914771
 30
0.000000
  0
SEQEND
  8
LAYER-1
  0
POLYLINE
  8
LAYER-1
  6
LTYPE01
 66
  1
 70
  0
 62
253
  6
LTYPE01
 10
3.094688
 20
5.902318
 30
0.000000
  0
VERTEX
  8
LAYER-1
  6
LTYPE01
 10
3.094688
 20
5.902318
 30
0.000000
  0
VERTEX
  8
LAYER-1
  6
LTYPE01
 10
3.112271
 20
5.894192
 30
0.000000
  0
SEQEND
  8
LAYER-1
  0
POLYLINE
  8
LAYER-1
  6
LTYPE01
 66
  1
 70
  0
 62
253
  6
LTYPE01
 10
3.112271
 20
5.894192
 30
0.000000
  0
VERTEX
  8
LAYER-1
  6
LTYPE01
 10
3.112271
 20
5.894192
 30
0.000000
  0
VERTEX
  8
LAYER-1
  6
LTYPE01
 10
3.122206
 20
5.900541
 30
0.000000
  0
VERTEX
  8
LAYER-1
  6
LTYPE01
 10
3.124965
 20
5.901521
 30
0.000000
  0
SEQEND
  8
LAYER-1
  0
POLYLINE
  8
LAYER-1
  6
LTYPE01
 66
  1
 70
  0
 62
253
  6
LTYPE01
 10
3.126723
 20
5.920813
 30
0.000000
  0
VERTEX
  8
LAYER-1
  6
LTYPE01
 10
3.126723
 20
5.920813
 30
0.000000
  0
VERTEX
  8
LAYER-1
  6
LTYPE01
 10
3.124967
 20
5.901522
 30
0.000000
  0
SEQEND
  8
LAYER-1
  0
POLYLINE
  8
LAYER-1
  6
LTYPE01
 66
  1
 70
  0
 62
253
  6
LTYPE01
 10
3.066350
 20
5.878541
 30
0.000000
  0
VERTEX
  8
LAYER-1
  6
LTYPE01
 10
3.066350
 20
5.878541
 30
0.000000
  0
VERTEX
  8
LAYER-1
  6
LTYPE01
 10
3.085079
 20
5.873593
 30
0.000000
  0
SEQEND
  8
LAYER-1
  0
POLYLINE
  8
LAYER-1
  6
LTYPE01
 66
  1
 70
  0
 62
253
  6
LTYPE01
 10
3.085079
 20
5.873593
 30
0.000000
  0
VERTEX
  8
LAYER-1
  6
LTYPE01
 10
3.085079
 20
5.873593
 30
0.000000
  0
VERTEX
  8
LAYER-1
  6
LTYPE01
 10
3.094073
 20
5.881941
 30
0.000000
  0
VERTEX
  8
LAYER-1
  6
LTYPE01
 10
3.096307
 20
5.883014
 30
0.000000
  0
SEQEND
  8
LAYER-1
  0
POLYLINE
  8
LAYER-1
  6
LTYPE01
 66
  1
 70
  0
 62
253
  6
LTYPE01
 10
3.094687
 20
5.902318
 30
0.000000
  0
VERTEX
  8
LAYER-1
  6
LTYPE01
 10
3.094687
 20
5.902318
 30
0.000000
  0
VERTEX
  8
LAYER-1
  6
LTYPE01
 10
3.096308
 20
5.883014
 30
0.000000
  0
SEQEND
  8
LAYER-1
  0
POLYLINE
  8
LAYER-1
  6
LTYPE01
 66
  1
 70
  0
 62
253
  6
LTYPE01
 10
3.042575
 20
5.850204
 30
0.000000
  0
VERTEX
  8
LAYER-1
  6
LTYPE01
 10
3.042575
 20
5.850204
 30
0.000000
  0
VERTEX
  8
LAYER-1
  6
LTYPE01
 10
3.061877
 20
5.848584
 30
0.000000
  0
SEQEND
  8
LAYER-1
  0
POLYLINE
  8
LAYER-1
  6
LTYPE01
 66
  1
 70
  0
 62
253
  6
LTYPE01
 10
3.061877
 20
5.848582
 30
0.000000
  0
VERTEX
  8
LAYER-1
  6
LTYPE01
 10
3.061877
 20
5.848582
 30
0.000000
  0
VERTEX
  8
LAYER-1
  6
LTYPE01
 10
3.069597
 20
5.858738
 30
0.000000
  0
VERTEX
  8
LAYER-1
  6
LTYPE01
 10
3.071298
 20
5.859812
 30
0.000000
  0
SEQEND
  8
LAYER-1
  0
POLYLINE
  8
LAYER-1
  6
LTYPE01
 66
  1
 70
  0
 62
253
  6
LTYPE01
 10
3.066353
 20
5.878541
 30
0.000000
  0
VERTEX
  8
LAYER-1
  6
LTYPE01
 10
3.066353
 20
5.878541
 30
0.000000
  0
VERTEX
  8
LAYER-1
  6
LTYPE01
 10
3.071299
 20
5.859812
 30
0.000000
  0
SEQEND
  8
LAYER-1
  0
POLYLINE
  8
LAYER-1
  6
LTYPE01
 66
  1
 70
  0
 62
253
  6
LTYPE01
 10
3.024079
 20
5.818168
 30
0.000000
  0
VERTEX
  8
LAYER-1
  6
LTYPE01
 10
3.024079
 20
5.818168
 30
0.000000
  0
VERTEX
  8
LAYER-1
  6
LTYPE01
 10
3.043370
 20
5.819924
 30
0.000000
  0
SEQEND
  8
LAYER-1
  0
POLYLINE
  8
LAYER-1
  6
LTYPE01
 66
  1
 70
  0
 62
253
  6
LTYPE01
 10
3.043370
 20
5.819924
 30
0.000000
  0
VERTEX
  8
LAYER-1
  6
LTYPE01
 10
3.043370
 20
5.819924
 30
0.000000
  0
VERTEX
  8
LAYER-1
  6
LTYPE01
 10
3.049521
 20
5.831637
 30
0.000000
  0
VERTEX
  8
LAYER-1
  6
LTYPE01
 10
3.050698
 20
5.832618
 30
0.000000
  0
SEQEND
  8
LAYER-1
  0
POLYLINE
  8
LAYER-1
  6
LTYPE01
 66
  1
 70
  0
 62
253
  6
LTYPE01
 10
3.042575
 20
5.850203
 30
0.000000
  0
VERTEX
  8
LAYER-1
  6
LTYPE01
 10
3.042575
 20
5.850203
 30
0.000000
  0
VERTEX
  8
LAYER-1
  6
LTYPE01
 10
3.050698
 20
5.832619
 30
0.000000
  0
SEQEND
  8
LAYER-1
  0
POLYLINE
  8
LAYER-1
  6
LTYPE01
 66
  1
 70
  0
 62
253
  6
LTYPE01
 10
3.390240
 20
5.850204
 30
0.000000
  0
VERTEX
  8
LAYER-1
  6
LTYPE01
 10
3.390240
 20
5.850204
 30
0.000000
  0
VERTEX
  8
LAYER-1
  6
LTYPE01
 10
3.382114
 20
5.832619
 30
0.000000
  0
SEQEND
  8
LAYER-1
  0
POLYLINE
  8
LAYER-1
  6
LTYPE01
 66
  1
 70
  0
 62
253
  6
LTYPE01
 10
3.382114
 20
5.832619
 30
0.000000
  0
VERTEX
  8
LAYER-1
  6
LTYPE01
 10
3.382114
 20
5.832619
 30
0.000000
  0
VERTEX
  8
LAYER-1
  6
LTYPE01
 10
3.384525
 20
5.822683
 30
0.000000
  0
VERTEX
  8
LAYER-1
  6
LTYPE01
 10
3.389443
 20
5.819925
 30
0.000000
  0
SEQEND
  8
LAYER-1
  0
POLYLINE
  8
LAYER-1
  6
LTYPE01
 66
  1
 70
  0
 62
253
  6
LTYPE01
 10
3.408734
 20
5.818169
 30
0.000000
  0
VERTEX
  8
LAYER-1
  6
LTYPE01
 10
3.408734
 20
5.818169
 30
0.000000
  0
VERTEX
  8
LAYER-1
  6
LTYPE01
 10
3.389443
 20
5.819924
 30
0.000000
  0
SEQEND
  8
LAYER-1
  0
POLYLINE
  8
LAYER-1
  6
LTYPE01
 66
  1
 70
  0
 62
253
  6
LTYPE01
 10
3.366462
 20
5.878540
 30
0.000000
  0
VERTEX
  8
LAYER-1
  6
LTYPE01
 10
3.366462
 20
5.878540
 30
0.000000
  0
VERTEX
  8
LAYER-1
  6
LTYPE01
 10
3.361514
 20
5.859812
 30
0.000000
  0
SEQEND
  8
LAYER-1
  0
POLYLINE
  8
LAYER-1
  6
LTYPE01
 66
  1
 70
  0
 62
253
  6
LTYPE01
 10
3.361513
 20
5.859812
 30
0.000000
  0
VERTEX
  8
LAYER-1
  6
LTYPE01
 10
3.361513
 20
5.859812
 30
0.000000
  0
VERTEX
  8
LAYER-1
  6
LTYPE01
 10
3.365926
 20
5.850817
 30
0.000000
  0
VERTEX
  8
LAYER-1
  6
LTYPE01
 10
3.370936
 20
5.848582
 30
0.000000
  0
SEQEND
  8
LAYER-1
  0
POLYLINE
  8
LAYER-1
  6
LTYPE01
 66
  1
 70
  0
 62
253
  6
LTYPE01
 10
3.390240
 20
5.850203
 30
0.000000
  0
VERTEX
  8
LAYER-1
  6
LTYPE01
 10
3.390240
 20
5.850203
 30
0.000000
  0
VERTEX
  8
LAYER-1
  6
LTYPE01
 10
3.370936
 20
5.848582
 30
0.000000
  0
SEQEND
  8
LAYER-1
  0
POLYLINE
  8
LAYER-1
  6
LTYPE01
 66
  1
 70
  0
 62
253
  6
LTYPE01
 10
3.338125
 20
5.902318
 30
0.000000
  0
VERTEX
  8
LAYER-1
  6
LTYPE01
 10
3.338125
 20
5.902318
 30
0.000000
  0
VERTEX
  8
LAYER-1
  6
LTYPE01
 10
3.336505
 20
5.883014
 30
0.000000
  0
SEQEND
  8
LAYER-1
  0
POLYLINE
  8
LAYER-1
  6
LTYPE01
 66
  1
 70
  0
 62
253
  6
LTYPE01
 10
3.336504
 20
5.883014
 30
0.000000
  0
VERTEX
  8
LAYER-1
  6
LTYPE01
 10
3.336504
 20
5.883014
 30
0.000000
  0
VERTEX
  8
LAYER-1
  6
LTYPE01
 10
3.342722
 20
5.875295
 30
0.000000
  0
VERTEX
  8
LAYER-1
  6
LTYPE01
 10
3.347733
 20
5.873593
 30
0.000000
  0
SEQEND
  8
LAYER-1
  0
POLYLINE
  8
LAYER-1
  6
LTYPE01
 66
  1
 70
  0
 62
253
  6
LTYPE01
 10
3.366462
 20
5.878540
 30
0.000000
  0
VERTEX
  8
LAYER-1
  6
LTYPE01
 10
3.366462
 20
5.878540
 30
0.000000
  0
VERTEX
  8
LAYER-1
  6
LTYPE01
 10
3.347734
 20
5.873591
 30
0.000000
  0
SEQEND
  8
LAYER-1
  0
POLYLINE
  8
LAYER-1
  6
LTYPE01
 66
  1
 70
  0
 62
253
  6
LTYPE01
 10
3.306091
 20
5.920813
 30
0.000000
  0
VERTEX
  8
LAYER-1
  6
LTYPE01
 10
3.306091
 20
5.920813
 30
0.000000
  0
VERTEX
  8
LAYER-1
  6
LTYPE01
 10
3.307847
 20
5.901522
 30
0.000000
  0
SEQEND
  8
LAYER-1
  0
POLYLINE
  8
LAYER-1
  6
LTYPE01
 66
  1
 70
  0
 62
253
  6
LTYPE01
 10
3.307847
 20
5.901521
 30
0.000000
  0
VERTEX
  8
LAYER-1
  6
LTYPE01
 10
3.307847
 20
5.901521
 30
0.000000
  0
VERTEX
  8
LAYER-1
  6
LTYPE01
 10
3.315623
 20
5.895370
 30
0.000000
  0
VERTEX
  8
LAYER-1
  6
LTYPE01
 10
3.320541
 20
5.894192
 30
0.000000
  0
SEQEND
  8
LAYER-1
  0
POLYLINE
  8
LAYER-1
  6
LTYPE01
 66
  1
 70
  0
 62
253
  6
LTYPE01
 10
3.338125
 20
5.902318
 30
0.000000
  0
VERTEX
  8
LAYER-1
  6
LTYPE01
 10
3.338125
 20
5.902318
 30
0.000000
  0
VERTEX
  8
LAYER-1
  6
LTYPE01
 10
3.320540
 20
5.894193
 30
0.000000
  0
SEQEND
  8
LAYER-1
  0
POLYLINE
  8
LAYER-1
  6
LTYPE01
 66
  1
 70
  0
 62
253
  6
LTYPE01
 10
3.271331
 20
5.933465
 30
0.000000
  0
VERTEX
  8
LAYER-1
  6
LTYPE01
 10
3.271331
 20
5.933465
 30
0.000000
  0
VERTEX
  8
LAYER-1
  6
LTYPE01
 10
3.276410
 20
5.914771
 30
0.000000
  0
SEQEND
  8
LAYER-1
  0
POLYLINE
  8
LAYER-1
  6
LTYPE01
 66
  1
 70
  0
 62
253
  6
LTYPE01
 10
3.276410
 20
5.914771
 30
0.000000
  0
VERTEX
  8
LAYER-1
  6
LTYPE01
 10
3.276410
 20
5.914771
 30
0.000000
  0
VERTEX
  8
LAYER-1
  6
LTYPE01
 10
3.285449
 20
5.910436
 30
0.000000
  0
VERTEX
  8
LAYER-1
  6
LTYPE01
 10
3.290185
 20
5.909758
 30
0.000000
  0
SEQEND
  8
LAYER-1
  0
POLYLINE
  8
LAYER-1
  6
LTYPE01
 66
  1
 70
  0
 62
253
  6
LTYPE01
 10
3.306091
 20
5.920813
 30
0.000000
  0
VERTEX
  8
LAYER-1
  6
LTYPE01
 10
3.306091
 20
5.920813
 30
0.000000
  0
VERTEX
  8
LAYER-1
  6
LTYPE01
 10
3.290185
 20
5.909757
 30
0.000000
  0
SEQEND
  8
LAYER-1
  0
POLYLINE
  8
LAYER-1
  6
LTYPE01
 66
  1
 70
  0
 62
253
  6
LTYPE01
 10
3.234902
 20
5.939889
 30
0.000000
  0
VERTEX
  8
LAYER-1
  6
LTYPE01
 10
3.234902
 20
5.939889
 30
0.000000
  0
VERTEX
  8
LAYER-1
  6
LTYPE01
 10
3.243150
 20
5.922360
 30
0.000000
  0
SEQEND
  8
LAYER-1
  0
POLYLINE
  8
LAYER-1
  6
LTYPE01
 66
  1
 70
  0
 62
253
  6
LTYPE01
 10
3.243150
 20
5.922360
 30
0.000000
  0
VERTEX
  8
LAYER-1
  6
LTYPE01
 10
3.243150
 20
5.922360
 30
0.000000
  0
VERTEX
  8
LAYER-1
  6
LTYPE01
 10
3.253116
 20
5.920032
 30
0.000000
  0
VERTEX
  8
LAYER-1
  6
LTYPE01
 10
3.257585
 20
5.919815
 30
0.000000
  0
SEQEND
  8
LAYER-1
  0
POLYLINE
  8
LAYER-1
  6
LTYPE01
 66
  1
 70
  0
 62
253
  6
LTYPE01
 10
3.271329
 20
5.933465
 30
0.000000
  0
VERTEX
  8
LAYER-1
  6
LTYPE01
 10
3.271329
 20
5.933465
 30
0.000000
  0
VERTEX
  8
LAYER-1
  6
LTYPE01
 10
3.257585
 20
5.919814
 30
0.000000
  0
SEQEND
  8
LAYER-1
  0
POLYLINE
  8
LAYER-1
  6
LTYPE01
 66
  1
 70
  0
 62
253
  6
LTYPE01
 10
3.011426
 20
5.783409
 30
0.000000
  0
VERTEX
  8
LAYER-1
  6
LTYPE01
 10
3.011426
 20
5.783409
 30
0.000000
  0
VERTEX
  8
LAYER-1
  6
LTYPE01
 10
3.030120
 20
5.788489
 30
0.000000
  0
SEQEND
  8
LAYER-1
  0
POLYLINE
  8
LAYER-1
  6
LTYPE01
 66
  1
 70
  0
 62
253
  6
LTYPE01
 10
3.030118
 20
5.788489
 30
0.000000
  0
VERTEX
  8
LAYER-1
  6
LTYPE01
 10
3.030118
 20
5.788489
 30
0.000000
  0
VERTEX
  8
LAYER-1
  6
LTYPE01
 10
3.034454
 20
5.801463
 30
0.000000
  0
VERTEX
  8
LAYER-1
  6
LTYPE01
 10
3.035132
 20
5.802262
 30
0.000000
  0
SEQEND
  8
LAYER-1
  0
POLYLINE
  8
LAYER-1
  6
LTYPE01
 66
  1
 70
  0
 62
253
  6
LTYPE01
 10
3.024079
 20
5.818169
 30
0.000000
  0
VERTEX
  8
LAYER-1
  6
LTYPE01
 10
3.024079
 20
5.818169
 30
0.000000
  0
VERTEX
  8
LAYER-1
  6
LTYPE01
 10
3.035133
 20
5.802263
 30
0.000000
  0
SEQEND
  8
LAYER-1
  0
POLYLINE
  8
LAYER-1
  6
LTYPE01
 66
  1
 70
  0
 62
253
  6
LTYPE01
 10
3.005004
 20
5.746979
 30
0.000000
  0
VERTEX
  8
LAYER-1
  6
LTYPE01
 10
3.005004
 20
5.746979
 30
0.000000
  0
VERTEX
  8
LAYER-1
  6
LTYPE01
 10
3.022530
 20
5.755228
 30
0.000000
  0
SEQEND
  8
LAYER-1
  0
POLYLINE
  8
LAYER-1
  6
LTYPE01
 66
  1
 70
  0
 62
253
  6
LTYPE01
 10
3.022530
 20
5.755228
 30
0.000000
  0
VERTEX
  8
LAYER-1
  6
LTYPE01
 10
3.022530
 20
5.755228
 30
0.000000
  0
VERTEX
  8
LAYER-1
  6
LTYPE01
 10
3.024858
 20
5.769130
 30
0.000000
  0
VERTEX
  8
LAYER-1
  6
LTYPE01
 10
3.025075
 20
5.769663
 30
0.000000
  0
SEQEND
  8
LAYER-1
  0
POLYLINE
  8
LAYER-1
  6
LTYPE01
 66
  1
 70
  0
 62
253
  6
LTYPE01
 10
3.011426
 20
5.783409
 30
0.000000
  0
VERTEX
  8
LAYER-1
  6
LTYPE01
 10
3.011426
 20
5.783409
 30
0.000000
  0
VERTEX
  8
LAYER-1
  6
LTYPE01
 10
3.025077
 20
5.769663
 30
0.000000
  0
SEQEND
  8
LAYER-1
  0
POLYLINE
  8
LAYER-1
  6
LTYPE01
 66
  1
 70
  0
 62
253
  6
LTYPE01
 10
3.005004
 20
5.709989
 30
0.000000
  0
VERTEX
  8
LAYER-1
  6
LTYPE01
 10
3.005004
 20
5.709989
 30
0.000000
  0
VERTEX
  8
LAYER-1
  6
LTYPE01
 10
3.020833
 20
5.721155
 30
0.000000
  0
SEQEND
  8
LAYER-1
  0
POLYLINE
  8
LAYER-1
  6
LTYPE01
 66
  1
 70
  0
 62
253
  6
LTYPE01
 10
3.020833
 20
5.721154
 30
0.000000
  0
VERTEX
  8
LAYER-1
  6
LTYPE01
 10
3.020833
 20
5.721154
 30
0.000000
  0
VERTEX
  8
LAYER-1
  6
LTYPE01
 10
3.021023
 20
5.735622
 30
0.000000
  0
VERTEX
  8
LAYER-1
  6
LTYPE01
 10
3.020832
 20
5.735812
 30
0.000000
  0
SEQEND
  8
LAYER-1
  0
POLYLINE
  8
LAYER-1
  6
LTYPE01
 66
  1
 70
  0
 62
253
  6
LTYPE01
 10
3.005004
 20
5.746979
 30
0.000000
  0
VERTEX
  8
LAYER-1
  6
LTYPE01
 10
3.005004
 20
5.746979
 30
0.000000
  0
VERTEX
  8
LAYER-1
  6
LTYPE01
 10
3.020833
 20
5.735813
 30
0.000000
  0
SEQEND
  8
LAYER-1
  0
POLYLINE
  8
LAYER-1
  6
LTYPE01
 66
  1
 70
  0
 62
253
  6
LTYPE01
 10
3.011426
 20
5.673561
 30
0.000000
  0
VERTEX
  8
LAYER-1
  6
LTYPE01
 10
3.011426
 20
5.673561
 30
0.000000
  0
VERTEX
  8
LAYER-1
  6
LTYPE01
 10
3.025077
 20
5.687306
 30
0.000000
  0
SEQEND
  8
LAYER-1
  0
POLYLINE
  8
LAYER-1
  6
LTYPE01
 66
  1
 70
  0
 62
253
  6
LTYPE01
 10
3.025075
 20
5.687306
 30
0.000000
  0
VERTEX
  8
LAYER-1
  6
LTYPE01
 10
3.025075
 20
5.687306
 30
0.000000
  0
VERTEX
  8
LAYER-1
  6
LTYPE01
 10
3.023063
 20
5.701958
 30
0.000000
  0
VERTEX
  8
LAYER-1
  6
LTYPE01
 10
3.022530
 20
5.701741
 30
0.000000
  0
SEQEND
  8
LAYER-1
  0
POLYLINE
  8
LAYER-1
  6
LTYPE01
 66
  1
 70
  0
 62
253
  6
LTYPE01
 10
3.005004
 20
5.709989
 30
0.000000
  0
VERTEX
  8
LAYER-1
  6
LTYPE01
 10
3.005004
 20
5.709989
 30
0.000000
  0
VERTEX
  8
LAYER-1
  6
LTYPE01
 10
3.022530
 20
5.701742
 30
0.000000
  0
SEQEND
  8
LAYER-1
  0
POLYLINE
  8
LAYER-1
  6
LTYPE01
 66
  1
 70
  0
 62
253
  6
LTYPE01
 10
3.024079
 20
5.638801
 30
0.000000
  0
VERTEX
  8
LAYER-1
  6
LTYPE01
 10
3.024079
 20
5.638801
 30
0.000000
  0
VERTEX
  8
LAYER-1
  6
LTYPE01
 10
3.035133
 20
5.654707
 30
0.000000
  0
SEQEND
  8
LAYER-1
  0
POLYLINE
  8
LAYER-1
  6
LTYPE01
 66
  1
 70
  0
 62
253
  6
LTYPE01
 10
3.035132
 20
5.654707
 30
0.000000
  0
VERTEX
  8
LAYER-1
  6
LTYPE01
 10
3.035132
 20
5.654707
 30
0.000000
  0
VERTEX
  8
LAYER-1
  6
LTYPE01
 10
3.030917
 20
5.669159
 30
0.000000
  0
VERTEX
  8
LAYER-1
  6
LTYPE01
 10
3.030118
 20
5.668482
 30
0.000000
  0
SEQEND
  8
LAYER-1
  0
POLYLINE
  8
LAYER-1
  6
LTYPE01
 66
  1
 70
  0
 62
253
  6
LTYPE01
 10
3.011426
 20
5.673561
 30
0.000000
  0
VERTEX
  8
LAYER-1
  6
LTYPE01
 10
3.011426
 20
5.673561
 30
0.000000
  0
VERTEX
  8
LAYER-1
  6
LTYPE01
 10
3.030120
 20
5.668482
 30
0.000000
  0
SEQEND
  8
LAYER-1
  0
POLYLINE
  8
LAYER-1
  6
LTYPE01
 66
  1
 70
  0
 62
253
  6
LTYPE01
 10
3.042575
 20
5.606765
 30
0.000000
  0
VERTEX
  8
LAYER-1
  6
LTYPE01
 10
3.042575
 20
5.606765
 30
0.000000
  0
VERTEX
  8
LAYER-1
  6
LTYPE01
 10
3.050698
 20
5.624350
 30
0.000000
  0
SEQEND
  8
LAYER-1
  0
POLYLINE
  8
LAYER-1
  6
LTYPE01
 66
  1
 70
  0
 62
253
  6
LTYPE01
 10
3.050699
 20
5.624350
 30
0.000000
  0
VERTEX
  8
LAYER-1
  6
LTYPE01
 10
3.050699
 20
5.624350
 30
0.000000
  0
VERTEX
  8
LAYER-1
  6
LTYPE01
 10
3.044350
 20
5.638222
 30
0.000000
  0
VERTEX
  8
LAYER-1
  6
LTYPE01
 10
3.043369
 20
5.637044
 30
0.000000
  0
SEQEND
  8
LAYER-1
  0
POLYLINE
  8
LAYER-1
  6
LTYPE01
 66
  1
 70
  0
 62
253
  6
LTYPE01
 10
3.024079
 20
5.638800
 30
0.000000
  0
VERTEX
  8
LAYER-1
  6
LTYPE01
 10
3.024079
 20
5.638800
 30
0.000000
  0
VERTEX
  8
LAYER-1
  6
LTYPE01
 10
3.043370
 20
5.637044
 30
0.000000
  0
SEQEND
  8
LAYER-1
  0
POLYLINE
  8
LAYER-1
  6
LTYPE01
 66
  1
 70
  0
 62
253
  6
LTYPE01
 10
3.066350
 20
5.578429
 30
0.000000
  0
VERTEX
  8
LAYER-1
  6
LTYPE01
 10
3.066350
 20
5.578429
 30
0.000000
  0
VERTEX
  8
LAYER-1
  6
LTYPE01
 10
3.071299
 20
5.597157
 30
0.000000
  0
SEQEND
  8
LAYER-1
  0
POLYLINE
  8
LAYER-1
  6
LTYPE01
 66
  1
 70
  0
 62
253
  6
LTYPE01
 10
3.071299
 20
5.597157
 30
0.000000
  0
VERTEX
  8
LAYER-1
  6
LTYPE01
 10
3.071299
 20
5.597157
 30
0.000000
  0
VERTEX
  8
LAYER-1
  6
LTYPE01
 10
3.062950
 20
5.610089
 30
0.000000
  0
VERTEX
  8
LAYER-1
  6
LTYPE01
 10
3.061877
 20
5.608387
 30
0.000000
  0
SEQEND
  8
LAYER-1
  0
POLYLINE
  8
LAYER-1
  6
LTYPE01
 66
  1
 70
  0
 62
253
  6
LTYPE01
 10
3.042572
 20
5.606766
 30
0.000000
  0
VERTEX
  8
LAYER-1
  6
LTYPE01
 10
3.042572
 20
5.606766
 30
0.000000
  0
VERTEX
  8
LAYER-1
  6
LTYPE01
 10
3.061877
 20
5.608387
 30
0.000000
  0
SEQEND
  8
LAYER-1
  0
POLYLINE
  8
LAYER-1
  6
LTYPE01
 66
  1
 70
  0
 62
253
  6
LTYPE01
 10
3.094687
 20
5.554651
 30
0.000000
  0
VERTEX
  8
LAYER-1
  6
LTYPE01
 10
3.094687
 20
5.554651
 30
0.000000
  0
VERTEX
  8
LAYER-1
  6
LTYPE01
 10
3.096308
 20
5.573955
 30
0.000000
  0
SEQEND
  8
LAYER-1
  0
POLYLINE
  8
LAYER-1
  6
LTYPE01
 66
  1
 70
  0
 62
253
  6
LTYPE01
 10
3.096307
 20
5.573955
 30
0.000000
  0
VERTEX
  8
LAYER-1
  6
LTYPE01
 10
3.096307
 20
5.573955
 30
0.000000
  0
VERTEX
  8
LAYER-1
  6
LTYPE01
 10
3.086152
 20
5.585611
 30
0.000000
  0
VERTEX
  8
LAYER-1
  6
LTYPE01
 10
3.085079
 20
5.583377
 30
0.000000
  0
SEQEND
  8
LAYER-1
  0
POLYLINE
  8
LAYER-1
  6
LTYPE01
 66
  1
 70
  0
 62
253
  6
LTYPE01
 10
3.066350
 20
5.578429
 30
0.000000
  0
VERTEX
  8
LAYER-1
  6
LTYPE01
 10
3.066350
 20
5.578429
 30
0.000000
  0
VERTEX
  8
LAYER-1
  6
LTYPE01
 10
3.085079
 20
5.583378
 30
0.000000
  0
SEQEND
  8
LAYER-1
  0
POLYLINE
  8
LAYER-1
  6
LTYPE01
 66
  1
 70
  0
 62
253
  6
LTYPE01
 10
3.126721
 20
5.536156
 30
0.000000
  0
VERTEX
  8
LAYER-1
  6
LTYPE01
 10
3.126721
 20
5.536156
 30
0.000000
  0
VERTEX
  8
LAYER-1
  6
LTYPE01
 10
3.124965
 20
5.555447
 30
0.000000
  0
SEQEND
  8
LAYER-1
  0
POLYLINE
  8
LAYER-1
  6
LTYPE01
 66
  1
 70
  0
 62
253
  6
LTYPE01
 10
3.124965
 20
5.555447
 30
0.000000
  0
VERTEX
  8
LAYER-1
  6
LTYPE01
 10
3.124965
 20
5.555447
 30
0.000000
  0
VERTEX
  8
LAYER-1
  6
LTYPE01
 10
3.113251
 20
5.565535
 30
0.000000
  0
VERTEX
  8
LAYER-1
  6
LTYPE01
 10
3.112271
 20
5.562776
 30
0.000000
  0
SEQEND
  8
LAYER-1
  0
POLYLINE
  8
LAYER-1
  6
LTYPE01
 66
  1
 70
  0
 62
253
  6
LTYPE01
 10
3.094687
 20
5.554651
 30
0.000000
  0
VERTEX
  8
LAYER-1
  6
LTYPE01
 10
3.094687
 20
5.554651
 30
0.000000
  0
VERTEX
  8
LAYER-1
  6
LTYPE01
 10
3.112271
 20
5.562776
 30
0.000000
  0
SEQEND
  8
LAYER-1
  0
POLYLINE
  8
LAYER-1
  6
LTYPE01
 66
  1
 70
  0
 62
253
  6
LTYPE01
 10
3.161482
 20
5.523504
 30
0.000000
  0
VERTEX
  8
LAYER-1
  6
LTYPE01
 10
3.161482
 20
5.523504
 30
0.000000
  0
VERTEX
  8
LAYER-1
  6
LTYPE01
 10
3.156403
 20
5.542198
 30
0.000000
  0
SEQEND
  8
LAYER-1
  0
POLYLINE
  8
LAYER-1
  6
LTYPE01
 66
  1
 70
  0
 62
253
  6
LTYPE01
 10
3.156403
 20
5.542198
 30
0.000000
  0
VERTEX
  8
LAYER-1
  6
LTYPE01
 10
3.156403
 20
5.542198
 30
0.000000
  0
VERTEX
  8
LAYER-1
  6
LTYPE01
 10
3.143428
 20
5.550470
 30
0.000000
  0
VERTEX
  8
LAYER-1
  6
LTYPE01
 10
3.142629
 20
5.547211
 30
0.000000
  0
SEQEND
  8
LAYER-1
  0
POLYLINE
  8
LAYER-1
  6
LTYPE01
 66
  1
 70
  0
 62
253
  6
LTYPE01
 10
3.126721
 20
5.536156
 30
0.000000
  0
VERTEX
  8
LAYER-1
  6
LTYPE01
 10
3.126721
 20
5.536156
 30
0.000000
  0
VERTEX
  8
LAYER-1
  6
LTYPE01
 10
3.142630
 20
5.547212
 30
0.000000
  0
SEQEND
  8
LAYER-1
  0
POLYLINE
  8
LAYER-1
  6
LTYPE01
 66
  1
 70
  0
 62
253
  6
LTYPE01
 10
3.197910
 20
5.517081
 30
0.000000
  0
VERTEX
  8
LAYER-1
  6
LTYPE01
 10
3.197910
 20
5.517081
 30
0.000000
  0
VERTEX
  8
LAYER-1
  6
LTYPE01
 10
3.189663
 20
5.534609
 30
0.000000
  0
SEQEND
  8
LAYER-1
  0
POLYLINE
  8
LAYER-1
  6
LTYPE01
 66
  1
 70
  0
 62
253
  6
LTYPE01
 10
3.189664
 20
5.534609
 30
0.000000
  0
VERTEX
  8
LAYER-1
  6
LTYPE01
 10
3.189664
 20
5.534609
 30
0.000000
  0
VERTEX
  8
LAYER-1
  6
LTYPE01
 10
3.175761
 20
5.540874
 30
0.000000
  0
VERTEX
  8
LAYER-1
  6
LTYPE01
 10
3.175229
 20
5.537155
 30
0.000000
  0
SEQEND
  8
LAYER-1
  0
POLYLINE
  8
LAYER-1
  6
LTYPE01
 66
  1
 70
  0
 62
253
  6
LTYPE01
 10
3.161482
 20
5.523504
 30
0.000000
  0
VERTEX
  8
LAYER-1
  6
LTYPE01
 10
3.161482
 20
5.523504
 30
0.000000
  0
VERTEX
  8
LAYER-1
  6
LTYPE01
 10
3.175227
 20
5.537155
 30
0.000000
  0
SEQEND
  8
LAYER-1
  0
POLYLINE
  8
LAYER-1
  6
LTYPE01
 66
  1
 70
  0
 62
253
  6
LTYPE01
 10
3.234902
 20
5.517081
 30
0.000000
  0
VERTEX
  8
LAYER-1
  6
LTYPE01
 10
3.234902
 20
5.517081
 30
0.000000
  0
VERTEX
  8
LAYER-1
  6
LTYPE01
 10
3.223734
 20
5.532910
 30
0.000000
  0
SEQEND
  8
LAYER-1
  0
POLYLINE
  8
LAYER-1
  6
LTYPE01
 66
  1
 70
  0
 62
253
  6
LTYPE01
 10
3.223735
 20
5.532909
 30
0.000000
  0
VERTEX
  8
LAYER-1
  6
LTYPE01
 10
3.223735
 20
5.532909
 30
0.000000
  0
VERTEX
  8
LAYER-1
  6
LTYPE01
 10
3.209268
 20
5.537037
 30
0.000000
  0
VERTEX
  8
LAYER-1
  6
LTYPE01
 10
3.209077
 20
5.532909
 30
0.000000
  0
SEQEND
  8
LAYER-1
  0
POLYLINE
  8
LAYER-1
  6
LTYPE01
 66
  1
 70
  0
 62
253
  6
LTYPE01
 10
3.197910
 20
5.517081
 30
0.000000
  0
VERTEX
  8
LAYER-1
  6
LTYPE01
 10
3.197910
 20
5.517081
 30
0.000000
  0
VERTEX
  8
LAYER-1
  6
LTYPE01
 10
3.209077
 20
5.532910
 30
0.000000
  0
SEQEND
  8
LAYER-1
  0
POLYLINE
  8
LAYER-1
  6
LTYPE01
 66
  1
 70
  0
 62
253
  6
LTYPE01
 10
3.271329
 20
5.523504
 30
0.000000
  0
VERTEX
  8
LAYER-1
  6
LTYPE01
 10
3.271329
 20
5.523504
 30
0.000000
  0
VERTEX
  8
LAYER-1
  6
LTYPE01
 10
3.257585
 20
5.537155
 30
0.000000
  0
SEQEND
  8
LAYER-1
  0
POLYLINE
  8
LAYER-1
  6
LTYPE01
 66
  1
 70
  0
 62
253
  6
LTYPE01
 10
3.257585
 20
5.537155
 30
0.000000
  0
VERTEX
  8
LAYER-1
  6
LTYPE01
 10
3.257585
 20
5.537155
 30
0.000000
  0
VERTEX
  8
LAYER-1
  6
LTYPE01
 10
3.242933
 20
5.539079
 30
0.000000
  0
VERTEX
  8
LAYER-1
  6
LTYPE01
 10
3.243150
 20
5.534609
 30
0.000000
  0
SEQEND
  8
LAYER-1
  0
POLYLINE
  8
LAYER-1
  6
LTYPE01
 66
  1
 70
  0
 62
253
  6
LTYPE01
 10
3.234902
 20
5.517081
 30
0.000000
  0
VERTEX
  8
LAYER-1
  6
LTYPE01
 10
3.234902
 20
5.517081
 30
0.000000
  0
VERTEX
  8
LAYER-1
  6
LTYPE01
 10
3.243149
 20
5.534609
 30
0.000000
  0
SEQEND
  8
LAYER-1
  0
POLYLINE
  8
LAYER-1
  6
LTYPE01
 66
  1
 70
  0
 62
253
  6
LTYPE01
 10
3.306091
 20
5.536156
 30
0.000000
  0
VERTEX
  8
LAYER-1
  6
LTYPE01
 10
3.306091
 20
5.536156
 30
0.000000
  0
VERTEX
  8
LAYER-1
  6
LTYPE01
 10
3.290183
 20
5.547212
 30
0.000000
  0
SEQEND
  8
LAYER-1
  0
POLYLINE
  8
LAYER-1
  6
LTYPE01
 66
  1
 70
  0
 62
253
  6
LTYPE01
 10
3.290183
 20
5.547211
 30
0.000000
  0
VERTEX
  8
LAYER-1
  6
LTYPE01
 10
3.290183
 20
5.547211
 30
0.000000
  0
VERTEX
  8
LAYER-1
  6
LTYPE01
 10
3.275732
 20
5.546934
 30
0.000000
  0
VERTEX
  8
LAYER-1
  6
LTYPE01
 10
3.276410
 20
5.542198
 30
0.000000
  0
SEQEND
  8
LAYER-1
  0
POLYLINE
  8
LAYER-1
  6
LTYPE01
 66
  1
 70
  0
 62
253
  6
LTYPE01
 10
3.271329
 20
5.523504
 30
0.000000
  0
VERTEX
  8
LAYER-1
  6
LTYPE01
 10
3.271329
 20
5.523504
 30
0.000000
  0
VERTEX
  8
LAYER-1
  6
LTYPE01
 10
3.276410
 20
5.542199
 30
0.000000
  0
SEQEND
  8
LAYER-1
  0
POLYLINE
  8
LAYER-1
  6
LTYPE01
 66
  1
 70
  0
 62
253
  6
LTYPE01
 10
3.338125
 20
5.554651
 30
0.000000
  0
VERTEX
  8
LAYER-1
  6
LTYPE01
 10
3.338125
 20
5.554651
 30
0.000000
  0
VERTEX
  8
LAYER-1
  6
LTYPE01
 10
3.320540
 20
5.562777
 30
0.000000
  0
SEQEND
  8
LAYER-1
  0
POLYLINE
  8
LAYER-1
  6
LTYPE01
 66
  1
 70
  0
 62
253
  6
LTYPE01
 10
3.320541
 20
5.562776
 30
0.000000
  0
VERTEX
  8
LAYER-1
  6
LTYPE01
 10
3.320541
 20
5.562776
 30
0.000000
  0
VERTEX
  8
LAYER-1
  6
LTYPE01
 10
3.306668
 20
5.560365
 30
0.000000
  0
VERTEX
  8
LAYER-1
  6
LTYPE01
 10
3.307847
 20
5.555447
 30
0.000000
  0
SEQEND
  8
LAYER-1
  0
POLYLINE
  8
LAYER-1
  6
LTYPE01
 66
  1
 70
  0
 62
253
  6
LTYPE01
 10
3.306091
 20
5.536156
 30
0.000000
  0
VERTEX
  8
LAYER-1
  6
LTYPE01
 10
3.306091
 20
5.536156
 30
0.000000
  0
VERTEX
  8
LAYER-1
  6
LTYPE01
 10
3.307847
 20
5.555447
 30
0.000000
  0
SEQEND
  8
LAYER-1
  0
POLYLINE
  8
LAYER-1
  6
LTYPE01
 66
  1
 70
  0
 62
253
  6
LTYPE01
 10
3.366462
 20
5.578428
 30
0.000000
  0
VERTEX
  8
LAYER-1
  6
LTYPE01
 10
3.366462
 20
5.578428
 30
0.000000
  0
VERTEX
  8
LAYER-1
  6
LTYPE01
 10
3.347734
 20
5.583377
 30
0.000000
  0
SEQEND
  8
LAYER-1
  0
POLYLINE
  8
LAYER-1
  6
LTYPE01
 66
  1
 70
  0
 62
253
  6
LTYPE01
 10
3.347733
 20
5.583377
 30
0.000000
  0
VERTEX
  8
LAYER-1
  6
LTYPE01
 10
3.347733
 20
5.583377
 30
0.000000
  0
VERTEX
  8
LAYER-1
  6
LTYPE01
 10
3.334801
 20
5.578965
 30
0.000000
  0
VERTEX
  8
LAYER-1
  6
LTYPE01
 10
3.336504
 20
5.573955
 30
0.000000
  0
SEQEND
  8
LAYER-1
  0
POLYLINE
  8
LAYER-1
  6
LTYPE01
 66
  1
 70
  0
 62
253
  6
LTYPE01
 10
3.338125
 20
5.554651
 30
0.000000
  0
VERTEX
  8
LAYER-1
  6
LTYPE01
 10
3.338125
 20
5.554651
 30
0.000000
  0
VERTEX
  8
LAYER-1
  6
LTYPE01
 10
3.336505
 20
5.573955
 30
0.000000
  0
SEQEND
  8
LAYER-1
  0
POLYLINE
  8
LAYER-1
  6
LTYPE01
 66
  1
 70
  0
 62
253
  6
LTYPE01
 10
3.390238
 20
5.606765
 30
0.000000
  0
VERTEX
  8
LAYER-1
  6
LTYPE01
 10
3.390238
 20
5.606765
 30
0.000000
  0
VERTEX
  8
LAYER-1
  6
LTYPE01
 10
3.370936
 20
5.608386
 30
0.000000
  0
SEQEND
  8
LAYER-1
  0
POLYLINE
  8
LAYER-1
  6
LTYPE01
 66
  1
 70
  0
 62
253
  6
LTYPE01
 10
3.370936
 20
5.608387
 30
0.000000
  0
VERTEX
  8
LAYER-1
  6
LTYPE01
 10
3.370936
 20
5.608387
 30
0.000000
  0
VERTEX
  8
LAYER-1
  6
LTYPE01
 10
3.359279
 20
5.602168
 30
0.000000
  0
VERTEX
  8
LAYER-1
  6
LTYPE01
 10
3.361514
 20
5.597157
 30
0.000000
  0
SEQEND
  8
LAYER-1
  0
POLYLINE
  8
LAYER-1
  6
LTYPE01
 66
  1
 70
  0
 62
253
  6
LTYPE01
 10
3.366462
 20
5.578428
 30
0.000000
  0
VERTEX
  8
LAYER-1
  6
LTYPE01
 10
3.366462
 20
5.578428
 30
0.000000
  0
VERTEX
  8
LAYER-1
  6
LTYPE01
 10
3.361514
 20
5.597157
 30
0.000000
  0
SEQEND
  8
LAYER-1
  0
POLYLINE
  8
LAYER-1
  6
LTYPE01
 66
  1
 70
  0
 62
253
  6
LTYPE01
 10
3.408734
 20
5.638801
 30
0.000000
  0
VERTEX
  8
LAYER-1
  6
LTYPE01
 10
3.408734
 20
5.638801
 30
0.000000
  0
VERTEX
  8
LAYER-1
  6
LTYPE01
 10
3.389443
 20
5.637044
 30
0.000000
  0
SEQEND
  8
LAYER-1
  0
POLYLINE
  8
LAYER-1
  6
LTYPE01
 66
  1
 70
  0
 62
253
  6
LTYPE01
 10
3.389442
 20
5.637044
 30
0.000000
  0
VERTEX
  8
LAYER-1
  6
LTYPE01
 10
3.389442
 20
5.637044
 30
0.000000
  0
VERTEX
  8
LAYER-1
  6
LTYPE01
 10
3.379355
 20
5.629269
 30
0.000000
  0
VERTEX
  8
LAYER-1
  6
LTYPE01
 10
3.382114
 20
5.624350
 30
0.000000
  0
SEQEND
  8
LAYER-1
  0
POLYLINE
  8
LAYER-1
  6
LTYPE01
 66
  1
 70
  0
 62
253
  6
LTYPE01
 10
3.390240
 20
5.606766
 30
0.000000
  0
VERTEX
  8
LAYER-1
  6
LTYPE01
 10
3.390240
 20
5.606766
 30
0.000000
  0
VERTEX
  8
LAYER-1
  6
LTYPE01
 10
3.382114
 20
5.624350
 30
0.000000
  0
SEQEND
  8
LAYER-1
  0
POLYLINE
  8
LAYER-1
  6
LTYPE01
 66
  1
 70
  0
 62
253
  6
LTYPE01
 10
3.421386
 20
5.673560
 30
0.000000
  0
VERTEX
  8
LAYER-1
  6
LTYPE01
 10
3.421386
 20
5.673560
 30
0.000000
  0
VERTEX
  8
LAYER-1
  6
LTYPE01
 10
3.402693
 20
5.668481
 30
0.000000
  0
SEQEND
  8
LAYER-1
  0
POLYLINE
  8
LAYER-1
  6
LTYPE01
 66
  1
 70
  0
 62
253
  6
LTYPE01
 10
3.402693
 20
5.668481
 30
0.000000
  0
VERTEX
  8
LAYER-1
  6
LTYPE01
 10
3.402693
 20
5.668481
 30
0.000000
  0
VERTEX
  8
LAYER-1
  6
LTYPE01
 10
3.394421
 20
5.659443
 30
0.000000
  0
VERTEX
  8
LAYER-1
  6
LTYPE01
 10
3.397680
 20
5.654707
 30
0.000000
  0
SEQEND
  8
LAYER-1
  0
POLYLINE
  8
LAYER-1
  6
LTYPE01
 66
  1
 70
  0
 62
253
  6
LTYPE01
 10
3.408734
 20
5.638800
 30
0.000000
  0
VERTEX
  8
LAYER-1
  6
LTYPE01
 10
3.408734
 20
5.638800
 30
0.000000
  0
VERTEX
  8
LAYER-1
  6
LTYPE01
 10
3.397677
 20
5.654707
 30
0.000000
  0
SEQEND
  8
LAYER-1
  0
POLYLINE
  8
LAYER-1
  6
LTYPE01
 66
  1
 70
  0
 62
253
  6
LTYPE01
 10
3.427811
 20
5.709989
 30
0.000000
  0
VERTEX
  8
LAYER-1
  6
LTYPE01
 10
3.427811
 20
5.709989
 30
0.000000
  0
VERTEX
  8
LAYER-1
  6
LTYPE01
 10
3.410282
 20
5.701741
 30
0.000000
  0
SEQEND
  8
LAYER-1
  0
POLYLINE
  8
LAYER-1
  6
LTYPE01
 66
  1
 70
  0
 62
253
  6
LTYPE01
 10
3.410282
 20
5.701741
 30
0.000000
  0
VERTEX
  8
LAYER-1
  6
LTYPE01
 10
3.410282
 20
5.701741
 30
0.000000
  0
VERTEX
  8
LAYER-1
  6
LTYPE01
 10
3.404018
 20
5.691776
 30
0.000000
  0
VERTEX
  8
LAYER-1
  6
LTYPE01
 10
3.407737
 20
5.687306
 30
0.000000
  0
SEQEND
  8
LAYER-1
  0
POLYLINE
  8
LAYER-1
  6
LTYPE01
 66
  1
 70
  0
 62
253
  6
LTYPE01
 10
3.421386
 20
5.673560
 30
0.000000
  0
VERTEX
  8
LAYER-1
  6
LTYPE01
 10
3.421386
 20
5.673560
 30
0.000000
  0
VERTEX
  8
LAYER-1
  6
LTYPE01
 10
3.407737
 20
5.687305
 30
0.000000
  0
SEQEND
  8
LAYER-1
  0
POLYLINE
  8
LAYER-1
  6
LTYPE01
 66
  1
 70
  0
 62
253
  6
LTYPE01
 10
3.427811
 20
5.746979
 30
0.000000
  0
VERTEX
  8
LAYER-1
  6
LTYPE01
 10
3.427811
 20
5.746979
 30
0.000000
  0
VERTEX
  8
LAYER-1
  6
LTYPE01
 10
3.411981
 20
5.735814
 30
0.000000
  0
SEQEND
  8
LAYER-1
  0
POLYLINE
  8
LAYER-1
  6
LTYPE01
 66
  1
 70
  0
 62
253
  6
LTYPE01
 10
3.411980
 20
5.735815
 30
0.000000
  0
VERTEX
  8
LAYER-1
  6
LTYPE01
 10
3.411980
 20
5.735815
 30
0.000000
  0
VERTEX
  8
LAYER-1
  6
LTYPE01
 10
3.407853
 20
5.725284
 30
0.000000
  0
VERTEX
  8
LAYER-1
  6
LTYPE01
 10
3.411981
 20
5.721157
 30
0.000000
  0
SEQEND
  8
LAYER-1
  0
POLYLINE
  8
LAYER-1
  6
LTYPE01
 66
  1
 70
  0
 62
253
  6
LTYPE01
 10
3.427811
 20
5.709989
 30
0.000000
  0
VERTEX
  8
LAYER-1
  6
LTYPE01
 10
3.427811
 20
5.709989
 30
0.000000
  0
VERTEX
  8
LAYER-1
  6
LTYPE01
 10
3.411981
 20
5.721155
 30
0.000000
  0
SEQEND
  8
LAYER-1
  0
POLYLINE
  8
LAYER-1
  6
LTYPE01
 66
  1
 70
  0
 62
253
  6
LTYPE01
 10
3.421386
 20
5.783409
 30
0.000000
  0
VERTEX
  8
LAYER-1
  6
LTYPE01
 10
3.421386
 20
5.783409
 30
0.000000
  0
VERTEX
  8
LAYER-1
  6
LTYPE01
 10
3.407737
 20
5.769663
 30
0.000000
  0
SEQEND
  8
LAYER-1
  0
POLYLINE
  8
LAYER-1
  6
LTYPE01
 66
  1
 70
  0
 62
253
  6
LTYPE01
 10
3.407737
 20
5.769663
 30
0.000000
  0
VERTEX
  8
LAYER-1
  6
LTYPE01
 10
3.407737
 20
5.769663
 30
0.000000
  0
VERTEX
  8
LAYER-1
  6
LTYPE01
 10
3.405813
 20
5.758948
 30
0.000000
  0
VERTEX
  8
LAYER-1
  6
LTYPE01
 10
3.410282
 20
5.755228
 30
0.000000
  0
SEQEND
  8
LAYER-1
  0
POLYLINE
  8
LAYER-1
  6
LTYPE01
 66
  1
 70
  0
 62
253
  6
LTYPE01
 10
3.427811
 20
5.746979
 30
0.000000
  0
VERTEX
  8
LAYER-1
  6
LTYPE01
 10
3.427811
 20
5.746979
 30
0.000000
  0
VERTEX
  8
LAYER-1
  6
LTYPE01
 10
3.410282
 20
5.755227
 30
0.000000
  0
SEQEND
  8
LAYER-1
  0
POLYLINE
  8
LAYER-1
  6
LTYPE01
 66
  1
 70
  0
 62
253
  6
LTYPE01
 10
3.408734
 20
5.818168
 30
0.000000
  0
VERTEX
  8
LAYER-1
  6
LTYPE01
 10
3.408734
 20
5.818168
 30
0.000000
  0
VERTEX
  8
LAYER-1
  6
LTYPE01
 10
3.397682
 20
5.802261
 30
0.000000
  0
SEQEND
  8
LAYER-1
  0
POLYLINE
  8
LAYER-1
  6
LTYPE01
 66
  1
 70
  0
 62
253
  6
LTYPE01
 10
3.397680
 20
5.802262
 30
0.000000
  0
VERTEX
  8
LAYER-1
  6
LTYPE01
 10
3.397680
 20
5.802262
 30
0.000000
  0
VERTEX
  8
LAYER-1
  6
LTYPE01
 10
3.397957
 20
5.791747
 30
0.000000
  0
VERTEX
  8
LAYER-1
  6
LTYPE01
 10
3.402693
 20
5.788487
 30
0.000000
  0
SEQEND
  8
LAYER-1
  0
POLYLINE
  8
LAYER-1
  6
LTYPE01
 66
  1
 70
  0
 62
253
  6
LTYPE01
 10
3.421386
 20
5.783409
 30
0.000000
  0
VERTEX
  8
LAYER-1
  6
LTYPE01
 10
3.421386
 20
5.783409
 30
0.000000
  0
VERTEX
  8
LAYER-1
  6
LTYPE01
 10
3.402693
 20
5.788487
 30
0.000000
  0
SEQEND
  8
LAYER-1
  0
POLYLINE
  8
LAYER-1
  6
LTYPE01
 66
  1
 70
  0
 62
253
  6
LTYPE01
 10
3.175015
 20
5.936663
 30
0.000000
  0
VERTEX
  8
LAYER-1
  6
LTYPE01
 10
3.175015
 20
5.936663
 30
0.000000
  0
VERTEX
  8
LAYER-1
  6
LTYPE01
 10
3.133199
 20
5.926628
 30
0.000000
  0
VERTEX
  8
LAYER-1
  6
LTYPE01
 10
3.096461
 20
5.907081
 30
0.000000
  0
VERTEX
  8
LAYER-1
  6
LTYPE01
 10
3.064241
 20
5.880743
 30
0.000000
  0
VERTEX
  8
LAYER-1
  6
LTYPE01
 10
3.037779
 20
5.848624
 30
0.000000
  0
VERTEX
  8
LAYER-1
  6
LTYPE01
 10
3.018091
 20
5.811961
 30
0.000000
  0
VERTEX
  8
LAYER-1
  6
LTYPE01
 10
3.005934
 20
5.772160
 30
0.000000
  0
VERTEX
  8
LAYER-1
  6
LTYPE01
 10
3.001775
 20
5.730754
 30
0.000000
  0
VERTEX
  8
LAYER-1
  6
LTYPE01
 10
3.005775
 20
5.689331
 30
0.000000
  0
VERTEX
  8
LAYER-1
  6
LTYPE01
 10
3.017779
 20
5.649484
 30
0.000000
  0
VERTEX
  8
LAYER-1
  6
LTYPE01
 10
3.037325
 20
5.612745
 30
0.000000
  0
VERTEX
  8
LAYER-1
  6
LTYPE01
 10
3.063664
 20
5.580525
 30
0.000000
  0
VERTEX
  8
LAYER-1
  6
LTYPE01
 10
3.095782
 20
5.554064
 30
0.000000
  0
VERTEX
  8
LAYER-1
  6
LTYPE01
 10
3.132446
 20
5.534376
 30
0.000000
  0
VERTEX
  8
LAYER-1
  6
LTYPE01
 10
3.172246
 20
5.522219
 30
0.000000
  0
VERTEX
  8
LAYER-1
  6
LTYPE01
 10
3.213653
 20
5.518061
 30
0.000000
  0
VERTEX
  8
LAYER-1
  6
LTYPE01
 10
3.255075
 20
5.522060
 30
0.000000
  0
VERTEX
  8
LAYER-1
  6
LTYPE01
 10
3.282613
 20
5.526803
 30
0.000000
  0
SEQEND
  8
LAYER-1
  0
POLYLINE
  8
LAYER-1
  6
LTYPE01
 66
  1
 70
  0
 62
  7
  6
LTYPE01
 10
2.891164
 20
6.296255
 30
0.000000
  0
VERTEX
  8
LAYER-1
  6
LTYPE01
 10
2.891164
 20
6.296255
 30
0.000000
  0
VERTEX
  8
LAYER-1
  6
LTYPE01
 10
2.891164
 20
4.998116
 30
0.000000
  0
SEQEND
  8
LAYER-1
  0
POLYLINE
  8
LAYER-1
  6
LTYPE01
 66
  1
 70
  0
 62
253
  6
LTYPE01
 10
4.230476
 20
6.210085
 30
0.000000
  0
VERTEX
  8
LAYER-1
  6
LTYPE01
 10
4.230476
 20
6.210085
 30
0.000000
  0
VERTEX
  8
LAYER-1
  6
LTYPE01
 10
3.209077
 20
5.924059
 30
0.000000
  0
SEQEND
  8
LAYER-1
  0
POLYLINE
  8
LAYER-1
  6
LTYPE01
 66
  1
 70
  0
 62
253
  6
LTYPE01
 10
4.323391
 20
6.061719
 30
0.000000
  0
VERTEX
  8
LAYER-1
  6
LTYPE01
 10
4.323391
 20
6.061719
 30
0.000000
  0
VERTEX
  8
LAYER-1
  6
LTYPE01
 10
3.282613
 20
5.526803
 30
0.000000
  0
SEQEND
  8
LAYER-1
  0
POLYLINE
  8
LAYER-1
  6
LTYPE01
 66
  1
 70
  0
 62
253
  6
LTYPE01
 10
3.361514
 20
5.590916
 30
0.000000
  0
VERTEX
  8
LAYER-1
  6
LTYPE01
 10
3.361514
 20
5.590916
 30
0.000000
  0
VERTEX
  8
LAYER-1
  6
LTYPE01
 10
4.287600
 20
6.061305
 30
0.000000
  0
SEQEND
  8
LAYER-1
  0
POLYLINE
  8
LAYER-1
  6
LTYPE01
 66
  1
 70
  0
 62
253
  6
LTYPE01
 10
4.256841
 20
6.238931
 30
0.000000
  0
VERTEX
  8
LAYER-1
  6
LTYPE01
 10
4.256841
 20
6.238931
 30
0.000000
  0
VERTEX
  8
LAYER-1
  6
LTYPE01
 10
3.153509
 20
5.931026
 30
0.000000
  0
SEQEND
  8
LAYER-1
  0
POLYLINE
  8
LAYER-1
 66
  1
 70
  1
 62
  7
 10
2.878987
 20
4.996021
 30
0.000000
  0
VERTEX
  8
LAYER-1
 10
2.878987
 20
4.996021
 30
0.000000
  0
VERTEX
  8
LAYER-1
 10
2.849838
 20
4.975517
 30
0.000000
  0
VERTEX
  8
LAYER-1
 10
2.855740
 20
4.941935
 30
0.000000
  0
VERTEX
  8
LAYER-1
 10
2.856869
 20
4.948043
 30
0.000000
  0
VERTEX
  8
LAYER-1
 10
2.859273
 20
4.955124
 30
0.000000
  0
SEQEND
  8
LAYER-1
  0
POLYLINE
  8
LAYER-1
 66
  1
 70
  0
 62
  7
 10
2.859273
 20
4.954988
 30
0.000000
  0
VERTEX
  8
LAYER-1
 10
2.859273
 20
4.954988
 30
0.000000
  0
VERTEX
  8
LAYER-1
 10
2.878987
 20
4.996021
 30
0.000000
  0
SEQEND
  8
LAYER-1
  0
POLYLINE
  8
LAYER-1
 66
  1
 70
  0
 62
  7
 10
2.859273
 20
4.955123
 30
0.000000
  0
VERTEX
  8
LAYER-1
 10
2.859273
 20
4.955123
 30
0.000000
  0
VERTEX
  8
LAYER-1
 10
2.854120
 20
4.944075
 30
0.000000
  0
VERTEX
  8
LAYER-1
 10
2.856056
 20
4.940609
 30
0.000000
  0
SEQEND
  8
LAYER-1
  0
POLYLINE
  8
LAYER-1
 66
  1
 70
  0
 62
  7
 10
2.839678
 20
4.954369
 30
0.000000
  0
VERTEX
  8
LAYER-1
 10
2.839678
 20
4.954369
 30
0.000000
  0
VERTEX
  8
LAYER-1
 10
2.849838
 20
4.975517
 30
0.000000
  0
SEQEND
  8
LAYER-1
  0
POLYLINE
  8
LAYER-1
 66
  1
 70
  0
 62
  7
 10
2.839678
 20
4.954504
 30
0.000000
  0
VERTEX
  8
LAYER-1
 10
2.839678
 20
4.954504
 30
0.000000
  0
VERTEX
  8
LAYER-1
 10
2.834524
 20
4.943456
 30
0.000000
  0
VERTEX
  8
LAYER-1
 10
2.836460
 20
4.939990
 30
0.000000
  0
SEQEND
  8
LAYER-1
  0
POLYLINE
  8
LAYER-1
 66
  1
 70
  0
 62
  7
 10
2.878987
 20
4.996021
 30
0.000000
  0
VERTEX
  8
LAYER-1
 10
2.878987
 20
4.996021
 30
0.000000
  0
VERTEX
  8
LAYER-1
 10
2.849838
 20
4.975517
 30
0.000000
  0
SEQEND
  8
LAYER-1
  0
POLYLINE
  8
LAYER-1
 66
  1
 70
  0
 62
  7
 10
2.846247
 20
4.998661
 30
0.000000
  0
VERTEX
  8
LAYER-1
 10
2.846247
 20
4.998661
 30
0.000000
  0
VERTEX
  8
LAYER-1
 10
2.846247
 20
4.969108
 30
0.000000
  0
SEQEND
  8
LAYER-1
  0
POLYLINE
  8
LAYER-1
 66
  1
 70
  0
 62
  7
 10
2.856013
 20
4.998630
 30
0.000000
  0
VERTEX
  8
LAYER-1
 10
2.856013
 20
4.998630
 30
0.000000
  0
VERTEX
  8
LAYER-1
 10
2.856013
 20
4.980094
 30
0.000000
  0
SEQEND
  8
LAYER-1
  0
POLYLINE
  8
LAYER-1
  6
LTYPE01
 66
  1
 70
  1
 62
253
  6
LTYPE01
 10
3.731929
 20
5.443219
 30
0.000000
  0
VERTEX
  8
LAYER-1
  6
LTYPE01
 10
3.731929
 20
5.443219
 30
0.000000
  0
VERTEX
  8
LAYER-1
  6
LTYPE01
 10
3.719076
 20
5.420954
 30
0.000000
  0
VERTEX
  8
LAYER-1
  6
LTYPE01
 10
3.693369
 20
5.420954
 30
0.000000
  0
VERTEX
  8
LAYER-1
  6
LTYPE01
 10
3.680513
 20
5.443219
 30
0.000000
  0
VERTEX
  8
LAYER-1
  6
LTYPE01
 10
3.693367
 20
5.465482
 30
0.000000
  0
VERTEX
  8
LAYER-1
  6
LTYPE01
 10
3.719076
 20
5.465482
 30
0.000000
  0
SEQEND
  8
LAYER-1
  0
POLYLINE
  8
LAYER-1
  6
LTYPE01
 66
  1
 70
  1
 62
253
  6
LTYPE01
 10
3.731929
 20
5.851579
 30
0.000000
  0
VERTEX
  8
LAYER-1
  6
LTYPE01
 10
3.731929
 20
5.851579
 30
0.000000
  0
VERTEX
  8
LAYER-1
  6
LTYPE01
 10
3.719076
 20
5.829315
 30
0.000000
  0
VERTEX
  8
LAYER-1
  6
LTYPE01
 10
3.693369
 20
5.829315
 30
0.000000
  0
VERTEX
  8
LAYER-1
  6
LTYPE01
 10
3.680513
 20
5.851579
 30
0.000000
  0
VERTEX
  8
LAYER-1
  6
LTYPE01
 10
3.693367
 20
5.873842
 30
0.000000
  0
VERTEX
  8
LAYER-1
  6
LTYPE01
 10
3.719076
 20
5.873842
 30
0.000000
  0
SEQEND
  8
LAYER-1
  0
POLYLINE
  8
LAYER-1
 66
  1
 70
  1
 62
  7
  0
VERTEX
  8
LAYER-1
 10
2.650329
 20
6.295603
 30
0.000000
  0
VERTEX
  8
LAYER-1
 10
3.785370
 20
6.295603
 30
0.000000
  0
VERTEX
  8
LAYER-1
 10
3.785370
 20
4.998417
 30
0.000000
  0
VERTEX
  8
LAYER-1
 10
2.650329
 20
4.998417
 30
0.000000
  0
SEQEND
  8
LAYER-1
  0
CIRCLE
  8
LAYER-1
 62
  7
 10
2.751673
 20
6.173994
 30
0.000000
 40
0.022802
  0
CIRCLE
  8
LAYER-1
 62
  7
 10
2.731405
 20
5.647010
 30
0.000000
 40
0.015834
  0
CIRCLE
  8
LAYER-1
 62
  7
 10
3.298923
 20
6.214529
 30
0.000000
 40
0.015831
  0
POLYLINE
  8
LAYER-1
  6
LTYPE02
 66
  1
 70
  1
 62
253
  0
VERTEX
  8
LAYER-1
  6
LTYPE02
 10
3.600982
 20
6.594057
 30
0.000000
  0
VERTEX
  8
LAYER-1
  6
LTYPE02
 10
3.944085
 20
6.562329
 30
0.000000
  0
VERTEX
  8
LAYER-1
  6
LTYPE02
 10
3.809709
 20
5.109197
 30
0.000000
  0
VERTEX
  8
LAYER-1
  6
LTYPE02
 10
3.466606
 20
5.140926
 30
0.000000
  0
SEQEND
  8
LAYER-1
  0
POLYLINE
  8
LAYER-1
  6
LTYPE02
 66
  1
 70
  0
 62
253
  6
LTYPE02
 10
3.923901
 20
6.564196
 30
0.000000
  0
VERTEX
  8
LAYER-1
  6
LTYPE02
 10
3.923901
 20
6.564196
 30
0.000000
  0
VERTEX
  8
LAYER-1
  6
LTYPE02
 10
3.789526
 20
5.111065
 30
0.000000
  0
SEQEND
  8
LAYER-1
  0
CIRCLE
  8
LAYER-1
 62
253
  6
LTYPE02
 10
3.705346
 20
5.851629
 30
0.000000
 40
0.018001
  0
CIRCLE
  8
LAYER-1
 62
253
  6
LTYPE02
 10
3.697881
 20
5.770900
 30
0.000000
 40
0.022607
  0
CIRCLE
  8
LAYER-1
 62
253
  6
LTYPE02
 10
3.712812
 20
5.932359
 30
0.000000
 40
0.022607
  0
POLYLINE
  8
LAYER-1
  6
LTYPE02
 66
  1
 70
  0
 62
253
  6
LTYPE02
 10
3.823217
 20
6.242738
 30
0.000000
  0
VERTEX
  8
LAYER-1
  6
LTYPE02
 10
3.823217
 20
6.242738
 30
0.000000
  0
VERTEX
  8
LAYER-1
  6
LTYPE02
 10
3.823217
 20
6.242738
 30
0.000000
  0
SEQEND
  8
LAYER-1
  0
POLYLINE
  8
LAYER-1
  6
LTYPE02
 66
  1
 70
  0
 62
253
  6
LTYPE02
 10
3.791455
 20
6.223912
 30
0.000000
  0
VERTEX
  8
LAYER-1
  6
LTYPE02
 10
3.791455
 20
6.223912
 30
0.000000
  0
VERTEX
  8
LAYER-1
  6
LTYPE02
 10
3.806936
 20
6.225604
 30
0.000000
  0
VERTEX
  8
LAYER-1
  6
LTYPE02
 10
3.819470
 20
6.237748
 30
0.000000
  0
VERTEX
  8
LAYER-1
  6
LTYPE02
 10
3.823217
 20
6.242738
 30
0.000000
  0
SEQEND
  8
LAYER-1
  0
POLYLINE
  8
LAYER-1
  6
LTYPE02
 66
  1
 70
  0
 62
253
  6
LTYPE02
 10
3.791454
 20
6.223916
 30
0.000000
  0
VERTEX
  8
LAYER-1
  6
LTYPE02
 10
3.791454
 20
6.223916
 30
0.000000
  0
VERTEX
  8
LAYER-1
  6
LTYPE02
 10
3.698420
 20
6.237217
 30
0.000000
  0
VERTEX
  8
LAYER-1
  6
LTYPE02
 10
3.668127
 20
6.234963
 30
0.000000
  0
SEQEND
  8
LAYER-1
  0
POLYLINE
  8
LAYER-1
  6
LTYPE02
 66
  1
 70
  0
 62
253
  6
LTYPE02
 10
3.641575
 20
6.259536
 30
0.000000
  0
VERTEX
  8
LAYER-1
  6
LTYPE02
 10
3.641575
 20
6.259536
 30
0.000000
  0
VERTEX
  8
LAYER-1
  6
LTYPE02
 10
3.644771
 20
6.244833
 30
0.000000
  0
VERTEX
  8
LAYER-1
  6
LTYPE02
 10
3.660211
 20
6.236699
 30
0.000000
  0
VERTEX
  8
LAYER-1
  6
LTYPE02
 10
3.668127
 20
6.234961
 30
0.000000
  0
SEQEND
  8
LAYER-1
  0
POLYLINE
  8
LAYER-1
  6
LTYPE02
 66
  1
 70
  0
 62
253
  6
LTYPE02
 10
3.641573
 20
6.259536
 30
0.000000
  0
VERTEX
  8
LAYER-1
  6
LTYPE02
 10
3.641573
 20
6.259536
 30
0.000000
  0
VERTEX
  8
LAYER-1
  6
LTYPE02
 10
3.641573
 20
6.259536
 30
0.000000
  0
SEQEND
  8
LAYER-1
  0
POLYLINE
  8
LAYER-1
  6
LTYPE02
 66
  1
 70
  0
 62
253
  6
LTYPE02
 10
3.658089
 20
6.279381
 30
0.000000
  0
VERTEX
  8
LAYER-1
  6
LTYPE02
 10
3.658089
 20
6.279381
 30
0.000000
  0
VERTEX
  8
LAYER-1
  6
LTYPE02
 10
3.642416
 20
6.270544
 30
0.000000
  0
VERTEX
  8
LAYER-1
  6
LTYPE02
 10
3.641575
 20
6.259536
 30
0.000000
  0
SEQEND
  8
LAYER-1
  0
POLYLINE
  8
LAYER-1
  6
LTYPE02
 66
  1
 70
  0
 62
253
  6
LTYPE02
 10
3.810698
 20
6.265241
 30
0.000000
  0
VERTEX
  8
LAYER-1
  6
LTYPE02
 10
3.810698
 20
6.265241
 30
0.000000
  0
VERTEX
  8
LAYER-1
  6
LTYPE02
 10
3.722110
 20
6.281732
 30
0.000000
  0
VERTEX
  8
LAYER-1
  6
LTYPE02
 10
3.658089
 20
6.279384
 30
0.000000
  0
SEQEND
  8
LAYER-1
  0
POLYLINE
  8
LAYER-1
  6
LTYPE02
 66
  1
 70
  0
 62
253
  6
LTYPE02
 10
3.823217
 20
6.242738
 30
0.000000
  0
VERTEX
  8
LAYER-1
  6
LTYPE02
 10
3.823217
 20
6.242738
 30
0.000000
  0
VERTEX
  8
LAYER-1
  6
LTYPE02
 10
3.816083
 20
6.261377
 30
0.000000
  0
VERTEX
  8
LAYER-1
  6
LTYPE02
 10
3.810698
 20
6.265238
 30
0.000000
  0
SEQEND
  8
LAYER-1
  0
POLYLINE
  8
LAYER-1
  6
LTYPE02
 66
  1
 70
  0
 62
253
  6
LTYPE02
 10
3.629106
 20
6.207257
 30
0.000000
  0
VERTEX
  8
LAYER-1
  6
LTYPE02
 10
3.629106
 20
6.207257
 30
0.000000
  0
VERTEX
  8
LAYER-1
  6
LTYPE02
 10
3.704791
 20
6.200258
 30
0.000000
  0
SEQEND
  8
LAYER-1
  0
POLYLINE
  8
LAYER-1
  6
LTYPE02
 66
  1
 70
  0
 62
253
  6
LTYPE02
 10
3.725396
 20
6.175454
 30
0.000000
  0
VERTEX
  8
LAYER-1
  6
LTYPE02
 10
3.725396
 20
6.175454
 30
0.000000
  0
VERTEX
  8
LAYER-1
  6
LTYPE02
 10
3.725396
 20
6.175451
 30
0.000000
  0
SEQEND
  8
LAYER-1
  0
POLYLINE
  8
LAYER-1
  6
LTYPE02
 66
  1
 70
  0
 62
253
  6
LTYPE02
 10
3.700591
 20
6.154846
 30
0.000000
  0
VERTEX
  8
LAYER-1
  6
LTYPE02
 10
3.700591
 20
6.154846
 30
0.000000
  0
VERTEX
  8
LAYER-1
  6
LTYPE02
 10
3.624907
 20
6.161845
 30
0.000000
  0
SEQEND
  8
LAYER-1
  0
POLYLINE
  8
LAYER-1
  6
LTYPE02
 66
  1
 70
  0
 62
253
  6
LTYPE02
 10
3.604301
 20
6.186649
 30
0.000000
  0
VERTEX
  8
LAYER-1
  6
LTYPE02
 10
3.604301
 20
6.186649
 30
0.000000
  0
VERTEX
  8
LAYER-1
  6
LTYPE02
 10
3.604301
 20
6.186651
 30
0.000000
  0
SEQEND
  8
LAYER-1
  0
ARC
  8
LAYER-1
 62
253
  6
LTYPE02
 10
3.627007
 20
6.184552
 30
0.000000
 40
0.022802
 50
84.716675
 51
174.716675
  0
ARC
  8
LAYER-1
 62
253
  6
LTYPE02
 10
3.627007
 20
6.184549
 30
0.000000
 40
0.022802
 50
174.716675
 51
264.716675
  0
ARC
  8
LAYER-1
 62
253
  6
LTYPE02
 10
3.702691
 20
6.177551
 30
0.000000
 40
0.022802
 50
264.716675
 51
354.716675
  0
ARC
  8
LAYER-1
 62
253
  6
LTYPE02
 10
3.702691
 20
6.177553
 30
0.000000
 40
0.022802
 50
354.716675
 51
84.716675
  0
POLYLINE
  8
LAYER-1
  6
LTYPE02
 66
  1
 70
  0
 62
253
  6
LTYPE02
 10
3.640862
 20
5.508943
 30
0.000000
  0
VERTEX
  8
LAYER-1
  6
LTYPE02
 10
3.640862
 20
5.508943
 30
0.000000
  0
VERTEX
  8
LAYER-1
  6
LTYPE02
 10
3.565177
 20
5.515942
 30
0.000000
  0
SEQEND
  8
LAYER-1
  0
POLYLINE
  8
LAYER-1
  6
LTYPE02
 66
  1
 70
  0
 62
253
  6
LTYPE02
 10
3.544572
 20
5.540747
 30
0.000000
  0
VERTEX
  8
LAYER-1
  6
LTYPE02
 10
3.544572
 20
5.540747
 30
0.000000
  0
VERTEX
  8
LAYER-1
  6
LTYPE02
 10
3.544572
 20
5.540747
 30
0.000000
  0
SEQEND
  8
LAYER-1
  0
POLYLINE
  8
LAYER-1
  6
LTYPE02
 66
  1
 70
  0
 62
253
  6
LTYPE02
 10
3.569377
 20
5.561353
 30
0.000000
  0
VERTEX
  8
LAYER-1
  6
LTYPE02
 10
3.569377
 20
5.561353
 30
0.000000
  0
VERTEX
  8
LAYER-1
  6
LTYPE02
 10
3.645061
 20
5.554354
 30
0.000000
  0
SEQEND
  8
LAYER-1
  0
POLYLINE
  8
LAYER-1
  6
LTYPE02
 66
  1
 70
  0
 62
253
  6
LTYPE02
 10
3.665666
 20
5.529549
 30
0.000000
  0
VERTEX
  8
LAYER-1
  6
LTYPE02
 10
3.665666
 20
5.529549
 30
0.000000
  0
VERTEX
  8
LAYER-1
  6
LTYPE02
 10
3.665666
 20
5.529549
 30
0.000000
  0
SEQEND
  8
LAYER-1
  0
ARC
  8
LAYER-1
 62
253
  6
LTYPE02
 10
3.642961
 20
5.531648
 30
0.000000
 40
0.022802
 50
264.716644
 51
354.716644
  0
ARC
  8
LAYER-1
 62
253
  6
LTYPE02
 10
3.642961
 20
5.531648
 30
0.000000
 40
0.022802
 50
354.716644
 51
84.716644
  0
ARC
  8
LAYER-1
 62
253
  6
LTYPE02
 10
3.567277
 20
5.538648
 30
0.000000
 40
0.022802
 50
84.716644
 51
174.716644
  0
ARC
  8
LAYER-1
 62
253
  6
LTYPE02
 10
3.567277
 20
5.538648
 30
0.000000
 40
0.022802
 50
174.716644
 51
264.716644
  0
CIRCLE
  8
LAYER-1
 62
253
  6
LTYPE02
 10
4.717078
 20
5.800317
 30
0.000000
 40
0.095440
  0
POLYLINE
  8
LAYER-1
  6
LTYPE02
 66
  1
 70
  1
 62
253
  0
VERTEX
  8
LAYER-1
  6
LTYPE02
 10
5.148142
 20
6.453113
 30
0.000000
  0
VERTEX
  8
LAYER-1
  6
LTYPE02
 10
5.192504
 20
6.449012
 30
0.000000
  0
VERTEX
  8
LAYER-1
  6
LTYPE02
 10
5.114824
 20
5.609345
 30
0.000000
  0
VERTEX
  8
LAYER-1
  6
LTYPE02
 10
5.070496
 20
5.613446
 30
0.000000
  0
SEQEND
  8
LAYER-1
  0
POLYLINE
  8
LAYER-1
  6
LTYPE02
 66
  1
 70
  0
 62
253
  6
LTYPE02
 10
5.058432
 20
5.755162
 30
0.000000
  0
VERTEX
  8
LAYER-1
  6
LTYPE02
 10
5.058432
 20
5.755162
 30
0.000000
  0
VERTEX
  8
LAYER-1
  6
LTYPE02
 10
5.037440
 20
5.757102
 30
0.000000
  0
SEQEND
  8
LAYER-1
  0
POLYLINE
  8
LAYER-1
  6
LTYPE02
 66
  1
 70
  0
 62
253
  6
LTYPE02
 10
5.037440
 20
5.757102
 30
0.000000
  0
VERTEX
  8
LAYER-1
  6
LTYPE02
 10
5.037440
 20
5.757102
 30
0.000000
  0
VERTEX
  8
LAYER-1
  6
LTYPE02
 10
5.024549
 20
5.617696
 30
0.000000
  0
SEQEND
  8
LAYER-1
  0
POLYLINE
  8
LAYER-1
  6
LTYPE02
 66
  1
 70
  0
 62
253
  6
LTYPE02
 10
5.024551
 20
5.617696
 30
0.000000
  0
VERTEX
  8
LAYER-1
  6
LTYPE02
 10
5.024551
 20
5.617696
 30
0.000000
  0
VERTEX
  8
LAYER-1
  6
LTYPE02
 10
5.070496
 20
5.613446
 30
0.000000
  0
SEQEND
  8
LAYER-1
  0
POLYLINE
  8
LAYER-1
  6
LTYPE02
 66
  1
 70
  0
 62
253
  6
LTYPE02
 10
5.070496
 20
5.613446
 30
0.000000
  0
VERTEX
  8
LAYER-1
  6
LTYPE02
 10
5.070496
 20
5.613446
 30
0.000000
  0
VERTEX
  8
LAYER-1
  6
LTYPE02
 10
5.148142
 20
6.453112
 30
0.000000
  0
SEQEND
  8
LAYER-1
  0
POLYLINE
  8
LAYER-1
  6
LTYPE02
 66
  1
 70
  0
 62
253
  6
LTYPE02
 10
5.148142
 20
6.453112
 30
0.000000
  0
VERTEX
  8
LAYER-1
  6
LTYPE02
 10
5.148142
 20
6.453112
 30
0.000000
  0
VERTEX
  8
LAYER-1
  6
LTYPE02
 10
5.102199
 20
6.457361
 30
0.000000
  0
SEQEND
  8
LAYER-1
  0
POLYLINE
  8
LAYER-1
  6
LTYPE02
 66
  1
 70
  0
 62
253
  6
LTYPE02
 10
5.102199
 20
6.457361
 30
0.000000
  0
VERTEX
  8
LAYER-1
  6
LTYPE02
 10
5.102199
 20
6.457361
 30
0.000000
  0
VERTEX
  8
LAYER-1
  6
LTYPE02
 10
5.088463
 20
6.308851
 30
0.000000
  0
SEQEND
  8
LAYER-1
  0
POLYLINE
  8
LAYER-1
  6
LTYPE02
 66
  1
 70
  0
 62
253
  6
LTYPE02
 10
5.109454
 20
6.306911
 30
0.000000
  0
VERTEX
  8
LAYER-1
  6
LTYPE02
 10
5.109454
 20
6.306911
 30
0.000000
  0
VERTEX
  8
LAYER-1
  6
LTYPE02
 10
5.088462
 20
6.308851
 30
0.000000
  0
SEQEND
  8
LAYER-1
  0
POLYLINE
  8
LAYER-1
  6
LTYPE02
 66
  1
 70
  0
 62
253
  6
LTYPE02
 10
5.107695
 20
6.287884
 30
0.000000
  0
VERTEX
  8
LAYER-1
  6
LTYPE02
 10
5.107695
 20
6.287884
 30
0.000000
  0
VERTEX
  8
LAYER-1
  6
LTYPE02
 10
5.116120
 20
6.298487
 30
0.000000
  0
VERTEX
  8
LAYER-1
  6
LTYPE02
 10
5.109454
 20
6.306912
 30
0.000000
  0
SEQEND
  8
LAYER-1
  0
POLYLINE
  8
LAYER-1
  6
LTYPE02
 66
  1
 70
  0
 62
253
  6
LTYPE02
 10
5.107695
 20
6.287883
 30
0.000000
  0
VERTEX
  8
LAYER-1
  6
LTYPE02
 10
5.107695
 20
6.287883
 30
0.000000
  0
VERTEX
  8
LAYER-1
  6
LTYPE02
 10
5.086703
 20
6.289824
 30
0.000000
  0
SEQEND
  8
LAYER-1
  0
POLYLINE
  8
LAYER-1
  6
LTYPE02
 66
  1
 70
  0
 62
253
  6
LTYPE02
 10
5.039199
 20
5.776130
 30
0.000000
  0
VERTEX
  8
LAYER-1
  6
LTYPE02
 10
5.039199
 20
5.776130
 30
0.000000
  0
VERTEX
  8
LAYER-1
  6
LTYPE02
 10
5.086703
 20
6.289824
 30
0.000000
  0
SEQEND
  8
LAYER-1
  0
POLYLINE
  8
LAYER-1
  6
LTYPE02
 66
  1
 70
  0
 62
253
  6
LTYPE02
 10
5.060191
 20
5.774188
 30
0.000000
  0
VERTEX
  8
LAYER-1
  6
LTYPE02
 10
5.060191
 20
5.774188
 30
0.000000
  0
VERTEX
  8
LAYER-1
  6
LTYPE02
 10
5.039199
 20
5.776130
 30
0.000000
  0
SEQEND
  8
LAYER-1
  0
POLYLINE
  8
LAYER-1
  6
LTYPE02
 66
  1
 70
  0
 62
253
  6
LTYPE02
 10
5.058433
 20
5.755162
 30
0.000000
  0
VERTEX
  8
LAYER-1
  6
LTYPE02
 10
5.058433
 20
5.755162
 30
0.000000
  0
VERTEX
  8
LAYER-1
  6
LTYPE02
 10
5.066858
 20
5.765765
 30
0.000000
  0
VERTEX
  8
LAYER-1
  6
LTYPE02
 10
5.060193
 20
5.774190
 30
0.000000
  0
SEQEND
  8
LAYER-1
  0
CIRCLE
  8
LAYER-1
 62
253
  6
LTYPE02
 10
4.995536
 20
6.228349
 30
0.000000
 40
0.038185
  0
CIRCLE
  8
LAYER-1
 62
253
  6
LTYPE02
 10
4.982753
 20
6.090121
 30
0.000000
 40
0.042933
  0
CIRCLE
  8
LAYER-1
 62
253
  6
LTYPE02
 10
4.969969
 20
5.951895
 30
0.000000
 40
0.037389
  0
CIRCLE
  8
LAYER-1
 62
253
  6
LTYPE02
 10
4.787023
 20
6.107421
 30
0.000000
 40
0.038583
  0
CIRCLE
  8
LAYER-1
 62
253
  6
LTYPE02
 10
5.035516
 20
6.116399
 30
0.000000
 40
0.005351
  0
CIRCLE
  8
LAYER-1
 62
253
  6
LTYPE02
 10
5.019998
 20
5.957255
 30
0.000000
 40
0.005351
  0
POLYLINE
  8
LAYER-1
  6
LTYPE02
 66
  1
 70
  0
 62
253
  6
LTYPE02
 10
5.100307
 20
6.445553
 30
0.000000
  0
VERTEX
  8
LAYER-1
  6
LTYPE02
 10
5.100307
 20
6.445553
 30
0.000000
  0
VERTEX
  8
LAYER-1
  6
LTYPE02
 10
4.612351
 20
6.490676
 30
0.000000
  0
SEQEND
  8
LAYER-1
  0
POLYLINE
  8
LAYER-1
  6
LTYPE02
 66
  1
 70
  0
 62
253
  6
LTYPE02
 10
4.551450
 20
5.832101
 30
0.000000
  0
VERTEX
  8
LAYER-1
  6
LTYPE02
 10
4.551450
 20
5.832101
 30
0.000000
  0
VERTEX
  8
LAYER-1
  6
LTYPE02
 10
4.536464
 20
5.670020
 30
0.000000
  0
SEQEND
  8
LAYER-1
  0
POLYLINE
  8
LAYER-1
  6
LTYPE02
 66
  1
 70
  0
 62
253
  6
LTYPE02
 10
4.536464
 20
5.670020
 30
0.000000
  0
VERTEX
  8
LAYER-1
  6
LTYPE02
 10
4.536464
 20
5.670020
 30
0.000000
  0
VERTEX
  8
LAYER-1
  6
LTYPE02
 10
5.025208
 20
5.624826
 30
0.000000
  0
SEQEND
  8
LAYER-1
  0
POLYLINE
  8
LAYER-1
  6
LTYPE02
 66
  1
 70
  0
 62
253
  6
LTYPE02
 10
4.829692
 20
5.920927
 30
0.000000
  0
VERTEX
  8
LAYER-1
  6
LTYPE02
 10
4.829692
 20
5.920927
 30
0.000000
  0
VERTEX
  8
LAYER-1
  6
LTYPE02
 10
4.669685
 20
5.935722
 30
0.000000
  0
SEQEND
  8
LAYER-1
  0
POLYLINE
  8
LAYER-1
  6
LTYPE02
 66
  1
 70
  0
 62
253
  6
LTYPE02
 10
4.804202
 20
5.645262
 30
0.000000
  0
VERTEX
  8
LAYER-1
  6
LTYPE02
 10
4.804202
 20
5.645262
 30
0.000000
  0
VERTEX
  8
LAYER-1
  6
LTYPE02
 10
4.829692
 20
5.920927
 30
0.000000
  0
SEQEND
  8
LAYER-1
  0
CIRCLE
  8
LAYER-1
 62
253
  6
LTYPE01
 10
4.765589
 20
5.314088
 30
0.000000
 40
0.260932
  0
CIRCLE
  8
LAYER-1
 62
253
  6
LTYPE02
 10
4.765123
 20
5.314131
 30
0.000000
 40
0.226326
  0
CIRCLE
  8
LAYER-1
 62
253
  6
LTYPE02
 10
4.765589
 20
5.314088
 30
0.000000
 40
0.093874
  0
CIRCLE
  8
LAYER-1
 62
253
  6
LTYPE02
 10
4.765589
 20
5.314088
 30
0.000000
 40
0.084328
  0
POLYLINE
  8
LAYER-1
  6
LTYPE02
 66
  1
 70
  0
 62
253
  6
LTYPE02
 10
4.787183
 20
5.540182
 30
0.000000
  0
VERTEX
  8
LAYER-1
  6
LTYPE02
 10
4.787183
 20
5.540182
 30
0.000000
  0
VERTEX
  8
LAYER-1
  6
LTYPE02
 10
4.782825
 20
5.493050
 30
0.000000
  0
SEQEND
  8
LAYER-1
  0
POLYLINE
  8
LAYER-1
  6
LTYPE02
 66
  1
 70
  0
 62
253
  6
LTYPE02
 10
4.748487
 20
5.135117
 30
0.000000
  0
VERTEX
  8
LAYER-1
  6
LTYPE02
 10
4.748487
 20
5.135117
 30
0.000000
  0
VERTEX
  8
LAYER-1
  6
LTYPE02
 10
4.744277
 20
5.089568
 30
0.000000
  0
SEQEND
  8
LAYER-1
  0
POLYLINE
  8
LAYER-1
  6
LTYPE02
 66
  1
 70
  0
 62
253
  6
LTYPE02
 10
4.641419
 20
5.543673
 30
0.000000
  0
VERTEX
  8
LAYER-1
  6
LTYPE02
 10
4.641419
 20
5.543673
 30
0.000000
  0
VERTEX
  8
LAYER-1
  6
LTYPE02
 10
4.522803
 20
5.686464
 30
0.000000
  0
SEQEND
  8
LAYER-1
  0
POLYLINE
  8
LAYER-1
  6
LTYPE02
 66
  1
 70
  0
 62
253
  6
LTYPE02
 10
4.676449
 20
5.559610
 30
0.000000
  0
VERTEX
  8
LAYER-1
  6
LTYPE02
 10
4.676449
 20
5.559610
 30
0.000000
  0
VERTEX
  8
LAYER-1
  6
LTYPE02
 10
4.588742
 20
5.665187
 30
0.000000
  0
SEQEND
  8
LAYER-1
  0
CIRCLE
  8
LAYER-1
 62
253
  6
LTYPE02
 10
4.924382
 20
5.441609
 30
0.000000
 40
0.008457
  0
CIRCLE
  8
LAYER-1
 62
253
  6
LTYPE02
 10
4.892246
 20
5.154576
 30
0.000000
 40
0.008457
  0
CIRCLE
  8
LAYER-1
 62
253
  6
LTYPE02
 10
4.605215
 20
5.186712
 30
0.000000
 40
0.008457
  0
CIRCLE
  8
LAYER-1
 62
253
  6
LTYPE02
 10
4.637347
 20
5.473747
 30
0.000000
 40
0.008457
  0
POLYLINE
  8
LAYER-1
  6
LTYPE02
 66
  1
 70
  0
 62
253
  6
LTYPE02
 10
4.936293
 20
5.423178
 30
0.000000
  0
VERTEX
  8
LAYER-1
  6
LTYPE02
 10
4.936293
 20
5.423178
 30
0.000000
  0
VERTEX
  8
LAYER-1
  6
LTYPE02
 10
4.943869
 20
5.438968
 30
0.000000
  0
VERTEX
  8
LAYER-1
  6
LTYPE02
 10
4.940845
 20
5.455490
 30
0.000000
  0
VERTEX
  8
LAYER-1
  6
LTYPE02
 10
4.927024
 20
5.465033
 30
0.000000
  0
VERTEX
  8
LAYER-1
  6
LTYPE02
 10
4.910502
 20
5.462009
 30
0.000000
  0
VERTEX
  8
LAYER-1
  6
LTYPE02
 10
4.910797
 20
5.458844
 30
0.000000
  0
SEQEND
  8
LAYER-1
  0
POLYLINE
  8
LAYER-1
  6
LTYPE02
 66
  1
 70
  0
 62
253
  6
LTYPE02
 10
4.910795
 20
5.458846
 30
0.000000
  0
VERTEX
  8
LAYER-1
  6
LTYPE02
 10
4.910795
 20
5.458846
 30
0.000000
  0
VERTEX
  8
LAYER-1
  6
LTYPE02
 10
4.890890
 20
5.442309
 30
0.000000
  0
SEQEND
  8
LAYER-1
  0
POLYLINE
  8
LAYER-1
  6
LTYPE02
 66
  1
 70
  0
 62
253
  6
LTYPE02
 10
4.936293
 20
5.423179
 30
0.000000
  0
VERTEX
  8
LAYER-1
  6
LTYPE02
 10
4.936293
 20
5.423179
 30
0.000000
  0
VERTEX
  8
LAYER-1
  6
LTYPE02
 10
4.918515
 20
5.408414
 30
0.000000
  0
SEQEND
  8
LAYER-1
  0
POLYLINE
  8
LAYER-1
  6
LTYPE02
 66
  1
 70
  0
 62
253
  6
LTYPE02
 10
4.873815
 20
5.142665
 30
0.000000
  0
VERTEX
  8
LAYER-1
  6
LTYPE02
 10
4.873815
 20
5.142665
 30
0.000000
  0
VERTEX
  8
LAYER-1
  6
LTYPE02
 10
4.885667
 20
5.135090
 30
0.000000
  0
VERTEX
  8
LAYER-1
  6
LTYPE02
 10
4.902189
 20
5.138114
 30
0.000000
  0
VERTEX
  8
LAYER-1
  6
LTYPE02
 10
4.911733
 20
5.151935
 30
0.000000
  0
VERTEX
  8
LAYER-1
  6
LTYPE02
 10
4.908708
 20
5.168456
 30
0.000000
  0
VERTEX
  8
LAYER-1
  6
LTYPE02
 10
4.909480
 20
5.168162
 30
0.000000
  0
SEQEND
  8
LAYER-1
  0
POLYLINE
  8
LAYER-1
  6
LTYPE02
 66
  1
 70
  0
 62
253
  6
LTYPE02
 10
4.909478
 20
5.168162
 30
0.000000
  0
VERTEX
  8
LAYER-1
  6
LTYPE02
 10
4.909478
 20
5.168162
 30
0.000000
  0
VERTEX
  8
LAYER-1
  6
LTYPE02
 10
4.892947
 20
5.188069
 30
0.000000
  0
SEQEND
  8
LAYER-1
  0
POLYLINE
  8
LAYER-1
  6
LTYPE02
 66
  1
 70
  0
 62
253
  6
LTYPE02
 10
4.873816
 20
5.142665
 30
0.000000
  0
VERTEX
  8
LAYER-1
  6
LTYPE02
 10
4.873816
 20
5.142665
 30
0.000000
  0
VERTEX
  8
LAYER-1
  6
LTYPE02
 10
4.859046
 20
5.160444
 30
0.000000
  0
SEQEND
  8
LAYER-1
  0
POLYLINE
  8
LAYER-1
  6
LTYPE02
 66
  1
 70
  0
 62
253
  6
LTYPE02
 10
4.593304
 20
5.205143
 30
0.000000
  0
VERTEX
  8
LAYER-1
  6
LTYPE02
 10
4.593304
 20
5.205143
 30
0.000000
  0
VERTEX
  8
LAYER-1
  6
LTYPE02
 10
4.581791
 20
5.193291
 30
0.000000
  0
VERTEX
  8
LAYER-1
  6
LTYPE02
 10
4.584815
 20
5.176769
 30
0.000000
  0
VERTEX
  8
LAYER-1
  6
LTYPE02
 10
4.598636
 20
5.167225
 30
0.000000
  0
VERTEX
  8
LAYER-1
  6
LTYPE02
 10
4.615158
 20
5.170249
 30
0.000000
  0
VERTEX
  8
LAYER-1
  6
LTYPE02
 10
4.618801
 20
5.169478
 30
0.000000
  0
SEQEND
  8
LAYER-1
  0
POLYLINE
  8
LAYER-1
  6
LTYPE02
 66
  1
 70
  0
 62
253
  6
LTYPE02
 10
4.618801
 20
5.169479
 30
0.000000
  0
VERTEX
  8
LAYER-1
  6
LTYPE02
 10
4.618801
 20
5.169479
 30
0.000000
  0
VERTEX
  8
LAYER-1
  6
LTYPE02
 10
4.638703
 20
5.186011
 30
0.000000
  0
SEQEND
  8
LAYER-1
  0
POLYLINE
  8
LAYER-1
  6
LTYPE02
 66
  1
 70
  0
 62
253
  6
LTYPE02
 10
4.593302
 20
5.205143
 30
0.000000
  0
VERTEX
  8
LAYER-1
  6
LTYPE02
 10
4.593302
 20
5.205143
 30
0.000000
  0
VERTEX
  8
LAYER-1
  6
LTYPE02
 10
4.611081
 20
5.219913
 30
0.000000
  0
SEQEND
  8
LAYER-1
  0
POLYLINE
  8
LAYER-1
  6
LTYPE02
 66
  1
 70
  0
 62
253
  6
LTYPE02
 10
4.655779
 20
5.485658
 30
0.000000
  0
VERTEX
  8
LAYER-1
  6
LTYPE02
 10
4.655779
 20
5.485658
 30
0.000000
  0
VERTEX
  8
LAYER-1
  6
LTYPE02
 10
4.639989
 20
5.497171
 30
0.000000
  0
VERTEX
  8
LAYER-1
  6
LTYPE02
 10
4.623468
 20
5.494146
 30
0.000000
  0
VERTEX
  8
LAYER-1
  6
LTYPE02
 10
4.613923
 20
5.480326
 30
0.000000
  0
VERTEX
  8
LAYER-1
  6
LTYPE02
 10
4.616948
 20
5.463804
 30
0.000000
  0
VERTEX
  8
LAYER-1
  6
LTYPE02
 10
4.620114
 20
5.460161
 30
0.000000
  0
SEQEND
  8
LAYER-1
  0
POLYLINE
  8
LAYER-1
  6
LTYPE02
 66
  1
 70
  0
 62
253
  6
LTYPE02
 10
4.620115
 20
5.460159
 30
0.000000
  0
VERTEX
  8
LAYER-1
  6
LTYPE02
 10
4.620115
 20
5.460159
 30
0.000000
  0
VERTEX
  8
LAYER-1
  6
LTYPE02
 10
4.636649
 20
5.440258
 30
0.000000
  0
SEQEND
  8
LAYER-1
  0
POLYLINE
  8
LAYER-1
  6
LTYPE02
 66
  1
 70
  0
 62
253
  6
LTYPE02
 10
4.655781
 20
5.485658
 30
0.000000
  0
VERTEX
  8
LAYER-1
  6
LTYPE02
 10
4.655781
 20
5.485658
 30
0.000000
  0
VERTEX
  8
LAYER-1
  6
LTYPE02
 10
4.670549
 20
5.467882
 30
0.000000
  0
SEQEND
  8
LAYER-1
  0
POLYLINE
  8
LAYER-1
  6
LTYPE02
 66
  1
 70
  0
 62
253
  6
LTYPE02
 10
4.890891
 20
5.442311
 30
0.000000
  0
VERTEX
  8
LAYER-1
  6
LTYPE02
 10
4.890891
 20
5.442311
 30
0.000000
  0
VERTEX
  8
LAYER-1
  6
LTYPE02
 10
4.861501
 20
5.466261
 30
0.000000
  0
VERTEX
  8
LAYER-1
  6
LTYPE02
 10
4.830317
 20
5.482471
 30
0.000000
  0
VERTEX
  8
LAYER-1
  6
LTYPE02
 10
4.796570
 20
5.492284
 30
0.000000
  0
VERTEX
  8
LAYER-1
  6
LTYPE02
 10
4.761556
 20
5.495326
 30
0.000000
  0
VERTEX
  8
LAYER-1
  6
LTYPE02
 10
4.726622
 20
5.491479
 30
0.000000
  0
VERTEX
  8
LAYER-1
  6
LTYPE02
 10
4.693109
 20
5.480891
 30
0.000000
  0
VERTEX
  8
LAYER-1
  6
LTYPE02
 10
4.671339
 20
5.466597
 30
0.000000
  0
SEQEND
  8
LAYER-1
  0
POLYLINE
  8
LAYER-1
  6
LTYPE02
 66
  1
 70
  0
 62
253
  6
LTYPE02
 10
4.636647
 20
5.440256
 30
0.000000
  0
VERTEX
  8
LAYER-1
  6
LTYPE02
 10
4.636647
 20
5.440256
 30
0.000000
  0
VERTEX
  8
LAYER-1
  6
LTYPE02
 10
4.612542
 20
5.414645
 30
0.000000
  0
VERTEX
  8
LAYER-1
  6
LTYPE02
 10
4.596211
 20
5.383277
 30
0.000000
  0
VERTEX
  8
LAYER-1
  6
LTYPE02
 10
4.586314
 20
5.349326
 30
0.000000
  0
VERTEX
  8
LAYER-1
  6
LTYPE02
 10
4.583230
 20
5.314096
 30
0.000000
  0
VERTEX
  8
LAYER-1
  6
LTYPE02
 10
4.587079
 20
5.278941
 30
0.000000
  0
VERTEX
  8
LAYER-1
  6
LTYPE02
 10
4.597712
 20
5.245213
 30
0.000000
  0
VERTEX
  8
LAYER-1
  6
LTYPE02
 10
4.611548
 20
5.220197
 30
0.000000
  0
SEQEND
  8
LAYER-1
  0
POLYLINE
  8
LAYER-1
  6
LTYPE02
 66
  1
 70
  0
 62
253
  6
LTYPE02
 10
4.638701
 20
5.186012
 30
0.000000
  0
VERTEX
  8
LAYER-1
  6
LTYPE02
 10
4.638701
 20
5.186012
 30
0.000000
  0
VERTEX
  8
LAYER-1
  6
LTYPE02
 10
4.664158
 20
5.165686
 30
0.000000
  0
VERTEX
  8
LAYER-1
  6
LTYPE02
 10
4.695405
 20
5.149172
 30
0.000000
  0
VERTEX
  8
LAYER-1
  6
LTYPE02
 10
4.729273
 20
5.139070
 30
0.000000
  0
VERTEX
  8
LAYER-1
  6
LTYPE02
 10
4.764461
 20
5.135770
 30
0.000000
  0
VERTEX
  8
LAYER-1
  6
LTYPE02
 10
4.799617
 20
5.139398
 30
0.000000
  0
VERTEX
  8
LAYER-1
  6
LTYPE02
 10
4.833390
 20
5.149815
 30
0.000000
  0
VERTEX
  8
LAYER-1
  6
LTYPE02
 10
4.859281
 20
5.160056
 30
0.000000
  0
SEQEND
  8
LAYER-1
  0
POLYLINE
  8
LAYER-1
  6
LTYPE02
 66
  1
 70
  0
 62
253
  6
LTYPE02
 10
4.892946
 20
5.188066
 30
0.000000
  0
VERTEX
  8
LAYER-1
  6
LTYPE02
 10
4.892946
 20
5.188066
 30
0.000000
  0
VERTEX
  8
LAYER-1
  6
LTYPE02
 10
4.913116
 20
5.217302
 30
0.000000
  0
VERTEX
  8
LAYER-1
  6
LTYPE02
 10
4.929510
 20
5.248365
 30
0.000000
  0
VERTEX
  8
LAYER-1
  6
LTYPE02
 10
4.939528
 20
5.282029
 30
0.000000
  0
VERTEX
  8
LAYER-1
  6
LTYPE02
 10
4.942787
 20
5.317001
 30
0.000000
  0
VERTEX
  8
LAYER-1
  6
LTYPE02
 10
4.939160
 20
5.351936
 30
0.000000
  0
VERTEX
  8
LAYER-1
  6
LTYPE02
 10
4.928788
 20
5.385493
 30
0.000000
  0
VERTEX
  8
LAYER-1
  6
LTYPE02
 10
4.918083
 20
5.408146
 30
0.000000
  0
SEQEND
  8
LAYER-1
  0
POLYLINE
  8
LAYER-1
  6
LTYPE02
 66
  1
 70
  0
 62
253
  6
LTYPE02
 10
4.535987
 20
5.595767
 30
0.000000
  0
VERTEX
  8
LAYER-1
  6
LTYPE02
 10
4.535987
 20
5.595767
 30
0.000000
  0
VERTEX
  8
LAYER-1
  6
LTYPE02
 10
4.514599
 20
5.597743
 30
0.000000
  0
SEQEND
  8
LAYER-1
  0
POLYLINE
  8
LAYER-1
  6
LTYPE02
 66
  1
 70
  0
 62
253
  6
LTYPE02
 10
4.512398
 20
5.478912
 30
0.000000
  0
VERTEX
  8
LAYER-1
  6
LTYPE02
 10
4.512398
 20
5.478912
 30
0.000000
  0
VERTEX
  8
LAYER-1
  6
LTYPE02
 10
4.558341
 20
5.474662
 30
0.000000
  0
SEQEND
  8
LAYER-1
  0
POLYLINE
  8
LAYER-1
  6
LTYPE02
 66
  1
 70
  0
 62
253
  6
LTYPE02
 10
4.508441
 20
5.436136
 30
0.000000
  0
VERTEX
  8
LAYER-1
  6
LTYPE02
 10
4.508441
 20
5.436136
 30
0.000000
  0
VERTEX
  8
LAYER-1
  6
LTYPE02
 10
4.533792
 20
5.433793
 30
0.000000
  0
SEQEND
  8
LAYER-1
  0
POLYLINE
  8
LAYER-1
  6
LTYPE02
 66
  1
 70
  0
 62
253
  6
LTYPE02
 10
4.490492
 20
5.242061
 30
0.000000
  0
VERTEX
  8
LAYER-1
  6
LTYPE02
 10
4.490492
 20
5.242061
 30
0.000000
  0
VERTEX
  8
LAYER-1
  6
LTYPE02
 10
4.515844
 20
5.239716
 30
0.000000
  0
SEQEND
  8
LAYER-1
  0
POLYLINE
  8
LAYER-1
  6
LTYPE02
 66
  1
 70
  0
 62
253
  6
LTYPE02
 10
4.486538
 20
5.199283
 30
0.000000
  0
VERTEX
  8
LAYER-1
  6
LTYPE02
 10
4.486538
 20
5.199283
 30
0.000000
  0
VERTEX
  8
LAYER-1
  6
LTYPE02
 10
4.532482
 20
5.195034
 30
0.000000
  0
SEQEND
  8
LAYER-1
  0
POLYLINE
  8
LAYER-1
  6
LTYPE02
 66
  1
 70
  0
 62
253
  6
LTYPE02
 10
4.488079
 20
5.077708
 30
0.000000
  0
VERTEX
  8
LAYER-1
  6
LTYPE02
 10
4.488079
 20
5.077708
 30
0.000000
  0
VERTEX
  8
LAYER-1
  6
LTYPE02
 10
3.813969
 20
5.140045
 30
0.000000
  0
SEQEND
  8
LAYER-1
  0
POLYLINE
  8
LAYER-1
  6
LTYPE02
 66
  1
 70
  0
 62
253
  6
LTYPE02
 10
4.574359
 20
5.492354
 30
0.000000
  0
VERTEX
  8
LAYER-1
  6
LTYPE02
 10
4.574359
 20
5.492354
 30
0.000000
  0
VERTEX
  8
LAYER-1
  6
LTYPE02
 10
4.530272
 20
5.533980
 30
0.000000
  0
SEQEND
  8
LAYER-1
  0
POLYLINE
  8
LAYER-1
  6
LTYPE02
 66
  1
 70
  0
 62
253
  6
LTYPE02
 10
4.545631
 20
5.173049
 30
0.000000
  0
VERTEX
  8
LAYER-1
  6
LTYPE02
 10
4.545631
 20
5.173049
 30
0.000000
  0
VERTEX
  8
LAYER-1
  6
LTYPE02
 10
4.494012
 20
5.141870
 30
0.000000
  0
SEQEND
  8
LAYER-1
  0
POLYLINE
  8
LAYER-1
  6
LTYPE02
 66
  1
 70
  0
 62
253
  6
LTYPE02
 10
4.494012
 20
5.141870
 30
0.000000
  0
VERTEX
  8
LAYER-1
  6
LTYPE02
 10
4.494012
 20
5.141870
 30
0.000000
  0
VERTEX
  8
LAYER-1
  6
LTYPE02
 10
4.488079
 20
5.077708
 30
0.000000
  0
SEQEND
  8
LAYER-1
  0
POLYLINE
  8
LAYER-1
  6
LTYPE02
 66
  1
 70
  0
 62
253
  6
LTYPE02
 10
4.530272
 20
5.533980
 30
0.000000
  0
VERTEX
  8
LAYER-1
  6
LTYPE02
 10
4.530272
 20
5.533980
 30
0.000000
  0
VERTEX
  8
LAYER-1
  6
LTYPE02
 10
4.535987
 20
5.595767
 30
0.000000
  0
SEQEND
  8
LAYER-1
  0
POLYLINE
  8
LAYER-1
  6
LTYPE02
 66
  1
 70
  0
 62
253
  6
LTYPE02
 10
4.490492
 20
5.242061
 30
0.000000
  0
VERTEX
  8
LAYER-1
  6
LTYPE02
 10
4.490492
 20
5.242061
 30
0.000000
  0
VERTEX
  8
LAYER-1
  6
LTYPE02
 10
4.475405
 20
5.078880
 30
0.000000
  0
SEQEND
  8
LAYER-1
  0
POLYLINE
  8
LAYER-1
  6
LTYPE02
 66
  1
 70
  0
 62
253
  6
LTYPE02
 10
4.508441
 20
5.436136
 30
0.000000
  0
VERTEX
  8
LAYER-1
  6
LTYPE02
 10
4.508441
 20
5.436136
 30
0.000000
  0
VERTEX
  8
LAYER-1
  6
LTYPE02
 10
4.523309
 20
5.596938
 30
0.000000
  0
SEQEND
  8
LAYER-1
  0
POLYLINE
  8
LAYER-1
  6
LTYPE02
 66
  1
 70
  0
 62
253
  6
LTYPE02
 10
4.595469
 20
6.472264
 30
0.000000
  0
VERTEX
  8
LAYER-1
  6
LTYPE02
 10
4.595469
 20
6.472264
 30
0.000000
  0
VERTEX
  8
LAYER-1
  6
LTYPE02
 10
4.555070
 20
6.035391
 30
0.000000
  0
SEQEND
  8
LAYER-1
  0
POLYLINE
  8
LAYER-1
  6
LTYPE02
 66
  1
 70
  0
 62
253
  6
LTYPE02
 10
4.507186
 20
5.275669
 30
0.000000
  0
VERTEX
  8
LAYER-1
  6
LTYPE02
 10
4.507186
 20
5.275669
 30
0.000000
  0
VERTEX
  8
LAYER-1
  6
LTYPE02
 10
4.485006
 20
5.277721
 30
0.000000
  0
SEQEND
  8
LAYER-1
  0
POLYLINE
  8
LAYER-1
  6
LTYPE02
 66
  1
 70
  0
 62
253
  6
LTYPE02
 10
4.504436
 20
5.315072
 30
0.000000
  0
VERTEX
  8
LAYER-1
  6
LTYPE02
 10
4.504436
 20
5.315072
 30
0.000000
  0
VERTEX
  8
LAYER-1
  6
LTYPE02
 10
4.488595
 20
5.316537
 30
0.000000
  0
SEQEND
  8
LAYER-1
  0
POLYLINE
  8
LAYER-1
  6
LTYPE02
 66
  1
 70
  0
 62
253
  6
LTYPE02
 10
4.504977
 20
5.338188
 30
0.000000
  0
VERTEX
  8
LAYER-1
  6
LTYPE02
 10
4.504977
 20
5.338188
 30
0.000000
  0
VERTEX
  8
LAYER-1
  6
LTYPE02
 10
4.490720
 20
5.339506
 30
0.000000
  0
SEQEND
  8
LAYER-1
  0
POLYLINE
  8
LAYER-1
  6
LTYPE02
 66
  1
 70
  0
 62
253
  6
LTYPE02
 10
4.464052
 20
5.898064
 30
0.000000
  0
VERTEX
  8
LAYER-1
  6
LTYPE02
 10
4.464052
 20
5.898064
 30
0.000000
  0
VERTEX
  8
LAYER-1
  6
LTYPE02
 10
4.389853
 20
5.086792
 30
0.000000
  0
SEQEND
  8
LAYER-1
  0
CIRCLE
  8
LAYER-1
 62
253
  6
LTYPE02
 10
4.450248
 20
5.225809
 30
0.000000
 40
0.006762
  0
CIRCLE
  8
LAYER-1
 62
253
  6
LTYPE02
 10
4.363164
 20
5.152373
 30
0.000000
 40
0.018297
  0
CIRCLE
  8
LAYER-1
 62
253
  6
LTYPE02
 10
4.279197
 20
5.160138
 30
0.000000
 40
0.018297
  0
CIRCLE
  8
LAYER-1
 62
253
  6
LTYPE02
 10
3.903720
 20
5.194859
 30
0.000000
 40
0.018297
  0
CIRCLE
  8
LAYER-1
 62
253
  6
LTYPE02
 10
4.480661
 20
6.422962
 30
0.000000
 40
0.018297
  0
CIRCLE
  8
LAYER-1
 62
253
  6
LTYPE02
 10
4.396692
 20
6.430727
 30
0.000000
 40
0.018297
  0
CIRCLE
  8
LAYER-1
 62
253
  6
LTYPE02
 10
4.021217
 20
6.465447
 30
0.000000
 40
0.018297
  0
CIRCLE
  8
LAYER-1
 62
253
  6
LTYPE02
 10
4.496104
 20
5.721689
 30
0.000000
 40
0.006762
  0
CIRCLE
  8
LAYER-1
 62
253
  6
LTYPE02
 10
4.502551
 20
5.791396
 30
0.000000
 40
0.006762
  0
CIRCLE
  8
LAYER-1
 62
253
  6
LTYPE02
 10
4.508555
 20
5.856350
 30
0.000000
 40
0.006762
  0
CIRCLE
  8
LAYER-1
 62
253
  6
LTYPE02
 10
4.558075
 20
6.391836
 30
0.000000
 40
0.006762
  0
CIRCLE
  8
LAYER-1
 62
253
  6
LTYPE02
 10
4.559540
 20
6.407678
 30
0.000000
 40
0.006762
  0
CIRCLE
  8
LAYER-1
 62
253
  6
LTYPE02
 10
4.561005
 20
6.423523
 30
0.000000
 40
0.006762
  0
CIRCLE
  8
LAYER-1
 62
253
  6
LTYPE02
 10
4.028721
 20
6.101648
 30
0.000000
 40
0.006762
  0
CIRCLE
  8
LAYER-1
 62
253
  6
LTYPE02
 10
3.955809
 20
6.107992
 30
0.000000
 40
0.006762
  0
POLYLINE
  8
LAYER-1
  6
LTYPE02
 66
  1
 70
  0
 62
253
  6
LTYPE02
 10
3.813969
 20
5.140045
 30
0.000000
  0
VERTEX
  8
LAYER-1
  6
LTYPE02
 10
3.813969
 20
5.140045
 30
0.000000
  0
VERTEX
  8
LAYER-1
  6
LTYPE02
 10
3.942745
 20
6.532624
 30
0.000000
  0
SEQEND
  8
LAYER-1
  0
POLYLINE
  8
LAYER-1
  6
LTYPE02
 66
  1
 70
  0
 62
253
  6
LTYPE02
 10
3.942745
 20
6.532624
 30
0.000000
  0
VERTEX
  8
LAYER-1
  6
LTYPE02
 10
3.942745
 20
6.532624
 30
0.000000
  0
VERTEX
  8
LAYER-1
  6
LTYPE02
 10
4.595469
 20
6.472264
 30
0.000000
  0
SEQEND
  8
LAYER-1
  0
POLYLINE
  8
LAYER-1
  6
LTYPE02
 66
  1
 70
  0
 62
253
  6
LTYPE02
 10
3.821889
 20
5.139314
 30
0.000000
  0
VERTEX
  8
LAYER-1
  6
LTYPE02
 10
3.821889
 20
5.139314
 30
0.000000
  0
VERTEX
  8
LAYER-1
  6
LTYPE02
 10
3.950665
 20
6.531891
 30
0.000000
  0
SEQEND
  8
LAYER-1
  0
POLYLINE
  8
LAYER-1
  6
LTYPE02
 66
  1
 70
  0
 62
253
  6
LTYPE02
 10
3.919297
 20
6.088999
 30
0.000000
  0
VERTEX
  8
LAYER-1
  6
LTYPE02
 10
3.919297
 20
6.088999
 30
0.000000
  0
VERTEX
  8
LAYER-1
  6
LTYPE02
 10
3.960173
 20
6.531012
 30
0.000000
  0
SEQEND
  8
LAYER-1
  0
POLYLINE
  8
LAYER-1
  6
LTYPE02
 66
  1
 70
  0
 62
253
  6
LTYPE02
 10
4.005505
 20
5.483442
 30
0.000000
  0
VERTEX
  8
LAYER-1
  6
LTYPE02
 10
4.005505
 20
5.483442
 30
0.000000
  0
VERTEX
  8
LAYER-1
  6
LTYPE02
 10
4.020301
 20
5.643453
 30
0.000000
  0
SEQEND
  8
LAYER-1
  0
POLYLINE
  8
LAYER-1
  6
LTYPE02
 66
  1
 70
  0
 62
253
  6
LTYPE02
 10
4.060295
 20
6.075961
 30
0.000000
  0
VERTEX
  8
LAYER-1
  6
LTYPE02
 10
4.060295
 20
6.075961
 30
0.000000
  0
VERTEX
  8
LAYER-1
  6
LTYPE02
 10
3.919297
 20
6.088999
 30
0.000000
  0
SEQEND
  8
LAYER-1
  0
POLYLINE
  8
LAYER-1
  6
LTYPE02
 66
  1
 70
  0
 62
253
  6
LTYPE02
 10
3.952029
 20
5.924592
 30
0.000000
  0
VERTEX
  8
LAYER-1
  6
LTYPE02
 10
3.952029
 20
5.924592
 30
0.000000
  0
VERTEX
  8
LAYER-1
  6
LTYPE02
 10
4.045500
 20
5.915948
 30
0.000000
  0
SEQEND
  8
LAYER-1
  0
POLYLINE
  8
LAYER-1
  6
LTYPE02
 66
  1
 70
  0
 62
253
  6
LTYPE02
 10
4.020301
 20
5.643453
 30
0.000000
  0
VERTEX
  8
LAYER-1
  6
LTYPE02
 10
4.020301
 20
5.643453
 30
0.000000
  0
VERTEX
  8
LAYER-1
  6
LTYPE02
 10
3.879302
 20
5.656491
 30
0.000000
  0
SEQEND
  8
LAYER-1
  0
POLYLINE
  8
LAYER-1
  6
LTYPE02
 66
  1
 70
  0
 62
253
  6
LTYPE02
 10
4.005505
 20
5.483442
 30
0.000000
  0
VERTEX
  8
LAYER-1
  6
LTYPE02
 10
4.005505
 20
5.483442
 30
0.000000
  0
VERTEX
  8
LAYER-1
  6
LTYPE02
 10
3.864504
 20
5.496480
 30
0.000000
  0
SEQEND
  8
LAYER-1
  0
POLYLINE
  8
LAYER-1
  6
LTYPE02
 66
  1
 70
  0
 62
253
  6
LTYPE02
 10
3.952029
 20
5.924592
 30
0.000000
  0
VERTEX
  8
LAYER-1
  6
LTYPE02
 10
3.952029
 20
5.924592
 30
0.000000
  0
VERTEX
  8
LAYER-1
  6
LTYPE02
 10
3.939576
 20
5.789930
 30
0.000000
  0
SEQEND
  8
LAYER-1
  0
POLYLINE
  8
LAYER-1
  6
LTYPE02
 66
  1
 70
  0
 62
253
  6
LTYPE02
 10
3.939576
 20
5.789930
 30
0.000000
  0
VERTEX
  8
LAYER-1
  6
LTYPE02
 10
3.939576
 20
5.789930
 30
0.000000
  0
VERTEX
  8
LAYER-1
  6
LTYPE02
 10
3.917397
 20
5.791980
 30
0.000000
  0
SEQEND
  8
LAYER-1
  0
POLYLINE
  8
LAYER-1
  6
LTYPE02
 66
  1
 70
  0
 62
253
  6
LTYPE02
 10
3.917397
 20
5.791980
 30
0.000000
  0
VERTEX
  8
LAYER-1
  6
LTYPE02
 10
3.917397
 20
5.791980
 30
0.000000
  0
VERTEX
  8
LAYER-1
  6
LTYPE02
 10
3.929850
 20
5.926643
 30
0.000000
  0
SEQEND
  8
LAYER-1
  0
POLYLINE
  8
LAYER-1
  6
LTYPE02
 66
  1
 70
  0
 62
253
  6
LTYPE02
 10
4.045500
 20
5.915948
 30
0.000000
  0
VERTEX
  8
LAYER-1
  6
LTYPE02
 10
4.045500
 20
5.915948
 30
0.000000
  0
VERTEX
  8
LAYER-1
  6
LTYPE02
 10
4.060295
 20
6.075961
 30
0.000000
  0
SEQEND
  8
LAYER-1
  0
POLYLINE
  8
LAYER-1
  6
LTYPE02
 66
  1
 70
  0
 62
253
  6
LTYPE02
 10
3.904500
 20
5.928986
 30
0.000000
  0
VERTEX
  8
LAYER-1
  6
LTYPE02
 10
3.904500
 20
5.928986
 30
0.000000
  0
VERTEX
  8
LAYER-1
  6
LTYPE02
 10
3.929850
 20
5.926643
 30
0.000000
  0
SEQEND
  8
LAYER-1
  0
POLYLINE
  8
LAYER-1
  6
LTYPE02
 66
  1
 70
  0
 62
253
  6
LTYPE02
 10
3.904500
 20
5.928986
 30
0.000000
  0
VERTEX
  8
LAYER-1
  6
LTYPE02
 10
3.904500
 20
5.928986
 30
0.000000
  0
VERTEX
  8
LAYER-1
  6
LTYPE02
 10
3.879302
 20
5.656491
 30
0.000000
  0
SEQEND
  8
LAYER-1
  0
POLYLINE
  8
LAYER-1
  6
LTYPE02
 66
  1
 70
  0
 62
253
  6
LTYPE02
 10
3.864504
 20
5.496480
 30
0.000000
  0
VERTEX
  8
LAYER-1
  6
LTYPE02
 10
3.864504
 20
5.496480
 30
0.000000
  0
VERTEX
  8
LAYER-1
  6
LTYPE02
 10
3.831395
 20
5.138434
 30
0.000000
  0
SEQEND
  8
LAYER-1
  0
POLYLINE
  8
LAYER-1
  6
LTYPE02
 66
  1
 70
  0
 62
253
  6
LTYPE02
 10
4.493780
 20
6.383402
 30
0.000000
  0
VERTEX
  8
LAYER-1
  6
LTYPE02
 10
4.493780
 20
6.383402
 30
0.000000
  0
VERTEX
  8
LAYER-1
  6
LTYPE02
 10
4.486013
 20
6.299435
 30
0.000000
  0
SEQEND
  8
LAYER-1
  0
POLYLINE
  8
LAYER-1
  6
LTYPE02
 66
  1
 70
  0
 62
253
  6
LTYPE02
 10
4.486013
 20
6.299435
 30
0.000000
  0
VERTEX
  8
LAYER-1
  6
LTYPE02
 10
4.486013
 20
6.299435
 30
0.000000
  0
VERTEX
  8
LAYER-1
  6
LTYPE02
 10
4.501853
 20
6.297969
 30
0.000000
  0
SEQEND
  8
LAYER-1
  0
POLYLINE
  8
LAYER-1
  6
LTYPE02
 66
  1
 70
  0
 62
253
  6
LTYPE02
 10
4.493780
 20
6.383402
 30
0.000000
  0
VERTEX
  8
LAYER-1
  6
LTYPE02
 10
4.493780
 20
6.383402
 30
0.000000
  0
VERTEX
  8
LAYER-1
  6
LTYPE02
 10
4.509619
 20
6.381937
 30
0.000000
  0
SEQEND
  8
LAYER-1
  0
POLYLINE
  8
LAYER-1
  6
LTYPE02
 66
  1
 70
  0
 62
253
  6
LTYPE02
 10
4.509619
 20
6.381937
 30
0.000000
  0
VERTEX
  8
LAYER-1
  6
LTYPE02
 10
4.509619
 20
6.381937
 30
0.000000
  0
VERTEX
  8
LAYER-1
  6
LTYPE02
 10
4.518630
 20
6.479369
 30
0.000000
  0
SEQEND
  8
LAYER-1
  0
CIRCLE
  8
LAYER-1
 62
253
  6
LTYPE02
 10
4.281735
 20
6.146559
 30
0.000000
 40
0.040164
  0
POLYLINE
  8
LAYER-1
  6
LTYPE02
 66
  1
 70
  0
 62
253
  6
LTYPE02
 10
4.334261
 20
6.066602
 30
0.000000
  0
VERTEX
  8
LAYER-1
  6
LTYPE02
 10
4.334261
 20
6.066602
 30
0.000000
  0
VERTEX
  8
LAYER-1
  6
LTYPE02
 10
4.332993
 20
6.083028
 30
0.000000
  0
SEQEND
  8
LAYER-1
  0
POLYLINE
  8
LAYER-1
  6
LTYPE02
 66
  1
 70
  0
 62
253
  6
LTYPE02
 10
4.348287
 20
6.098416
 30
0.000000
  0
VERTEX
  8
LAYER-1
  6
LTYPE02
 10
4.348287
 20
6.098416
 30
0.000000
  0
VERTEX
  8
LAYER-1
  6
LTYPE02
 10
4.335921
 20
6.096920
 30
0.000000
  0
VERTEX
  8
LAYER-1
  6
LTYPE02
 10
4.331018
 20
6.087118
 30
0.000000
  0
VERTEX
  8
LAYER-1
  6
LTYPE02
 10
4.332993
 20
6.083032
 30
0.000000
  0
SEQEND
  8
LAYER-1
  0
POLYLINE
  8
LAYER-1
  6
LTYPE02
 66
  1
 70
  0
 62
253
  6
LTYPE02
 10
4.363753
 20
6.097311
 30
0.000000
  0
VERTEX
  8
LAYER-1
  6
LTYPE02
 10
4.363753
 20
6.097311
 30
0.000000
  0
VERTEX
  8
LAYER-1
  6
LTYPE02
 10
4.348291
 20
6.098414
 30
0.000000
  0
SEQEND
  8
LAYER-1
  0
POLYLINE
  8
LAYER-1
  6
LTYPE02
 66
  1
 70
  0
 62
253
  6
LTYPE02
 10
4.294366
 20
6.051733
 30
0.000000
  0
VERTEX
  8
LAYER-1
  6
LTYPE02
 10
4.294366
 20
6.051733
 30
0.000000
  0
VERTEX
  8
LAYER-1
  6
LTYPE02
 10
4.300353
 20
6.067081
 30
0.000000
  0
SEQEND
  8
LAYER-1
  0
POLYLINE
  8
LAYER-1
  6
LTYPE02
 66
  1
 70
  0
 62
253
  6
LTYPE02
 10
4.320807
 20
6.074303
 30
0.000000
  0
VERTEX
  8
LAYER-1
  6
LTYPE02
 10
4.320807
 20
6.074303
 30
0.000000
  0
VERTEX
  8
LAYER-1
  6
LTYPE02
 10
4.307968
 20
6.077663
 30
0.000000
  0
VERTEX
  8
LAYER-1
  6
LTYPE02
 10
4.299298
 20
6.070959
 30
0.000000
  0
VERTEX
  8
LAYER-1
  6
LTYPE02
 10
4.300353
 20
6.067079
 30
0.000000
  0
SEQEND
  8
LAYER-1
  0
POLYLINE
  8
LAYER-1
  6
LTYPE02
 66
  1
 70
  0
 62
253
  6
LTYPE02
 10
4.334261
 20
6.066602
 30
0.000000
  0
VERTEX
  8
LAYER-1
  6
LTYPE02
 10
4.334261
 20
6.066602
 30
0.000000
  0
VERTEX
  8
LAYER-1
  6
LTYPE02
 10
4.320808
 20
6.074304
 30
0.000000
  0
SEQEND
  8
LAYER-1
  0
POLYLINE
  8
LAYER-1
  6
LTYPE02
 66
  1
 70
  0
 62
253
  6
LTYPE02
 10
4.258455
 20
6.062528
 30
0.000000
  0
VERTEX
  8
LAYER-1
  6
LTYPE02
 10
4.258455
 20
6.062528
 30
0.000000
  0
VERTEX
  8
LAYER-1
  6
LTYPE02
 10
4.264026
 20
6.066873
 30
0.000000
  0
SEQEND
  8
LAYER-1
  0
POLYLINE
  8
LAYER-1
  6
LTYPE02
 66
  1
 70
  0
 62
253
  6
LTYPE02
 10
4.285589
 20
6.064508
 30
0.000000
  0
VERTEX
  8
LAYER-1
  6
LTYPE02
 10
4.285589
 20
6.064508
 30
0.000000
  0
VERTEX
  8
LAYER-1
  6
LTYPE02
 10
4.274430
 20
6.072446
 30
0.000000
  0
VERTEX
  8
LAYER-1
  6
LTYPE02
 10
4.263709
 20
6.070168
 30
0.000000
  0
VERTEX
  8
LAYER-1
  6
LTYPE02
 10
4.264026
 20
6.066875
 30
0.000000
  0
SEQEND
  8
LAYER-1
  0
POLYLINE
  8
LAYER-1
  6
LTYPE02
 66
  1
 70
  0
 62
253
  6
LTYPE02
 10
4.294366
 20
6.051733
 30
0.000000
  0
VERTEX
  8
LAYER-1
  6
LTYPE02
 10
4.294366
 20
6.051733
 30
0.000000
  0
VERTEX
  8
LAYER-1
  6
LTYPE02
 10
4.285587
 20
6.064507
 30
0.000000
  0
SEQEND
  8
LAYER-1
  0
POLYLINE
  8
LAYER-1
  6
LTYPE02
 66
  1
 70
  0
 62
253
  6
LTYPE02
 10
4.249763
 20
6.069322
 30
0.000000
  0
VERTEX
  8
LAYER-1
  6
LTYPE02
 10
4.249763
 20
6.069322
 30
0.000000
  0
VERTEX
  8
LAYER-1
  6
LTYPE02
 10
4.243217
 20
6.081248
 30
0.000000
  0
VERTEX
  8
LAYER-1
  6
LTYPE02
 10
4.232940
 20
6.085051
 30
0.000000
  0
VERTEX
  8
LAYER-1
  6
LTYPE02
 10
4.231205
 20
6.082449
 30
0.000000
  0
SEQEND
  8
LAYER-1
  0
POLYLINE
  8
LAYER-1
  6
LTYPE02
 66
  1
 70
  0
 62
253
  6
LTYPE02
 10
4.219987
 20
6.092388
 30
0.000000
  0
VERTEX
  8
LAYER-1
  6
LTYPE02
 10
4.219987
 20
6.092388
 30
0.000000
  0
VERTEX
  8
LAYER-1
  6
LTYPE02
 10
4.216954
 20
6.105265
 30
0.000000
  0
VERTEX
  8
LAYER-1
  6
LTYPE02
 10
4.208490
 20
6.112225
 30
0.000000
  0
VERTEX
  8
LAYER-1
  6
LTYPE02
 10
4.208392
 20
6.110722
 30
0.000000
  0
SEQEND
  8
LAYER-1
  0
POLYLINE
  8
LAYER-1
  6
LTYPE02
 66
  1
 70
  0
 62
253
  6
LTYPE02
 10
4.202599
 20
6.124542
 30
0.000000
  0
VERTEX
  8
LAYER-1
  6
LTYPE02
 10
4.202599
 20
6.124542
 30
0.000000
  0
VERTEX
  8
LAYER-1
  6
LTYPE02
 10
4.204404
 20
6.136800
 30
0.000000
  0
VERTEX
  8
LAYER-1
  6
LTYPE02
 10
4.199799
 20
6.146744
 30
0.000000
  0
VERTEX
  8
LAYER-1
  6
LTYPE02
 10
4.200107
 20
6.146092
 30
0.000000
  0
SEQEND
  8
LAYER-1
  0
POLYLINE
  8
LAYER-1
  6
LTYPE02
 66
  1
 70
  0
 62
253
  6
LTYPE02
 10
4.200882
 20
6.161060
 30
0.000000
  0
VERTEX
  8
LAYER-1
  6
LTYPE02
 10
4.200882
 20
6.161060
 30
0.000000
  0
VERTEX
  8
LAYER-1
  6
LTYPE02
 10
4.206779
 20
6.170660
 30
0.000000
  0
VERTEX
  8
LAYER-1
  6
LTYPE02
 10
4.206944
 20
6.181619
 30
0.000000
  0
VERTEX
  8
LAYER-1
  6
LTYPE02
 10
4.207988
 20
6.181556
 30
0.000000
  0
SEQEND
  8
LAYER-1
  0
POLYLINE
  8
LAYER-1
  6
LTYPE02
 66
  1
 70
  0
 62
253
  6
LTYPE02
 10
4.215181
 20
6.194702
 30
0.000000
  0
VERTEX
  8
LAYER-1
  6
LTYPE02
 10
4.215181
 20
6.194702
 30
0.000000
  0
VERTEX
  8
LAYER-1
  6
LTYPE02
 10
4.223611
 20
6.200134
 30
0.000000
  0
VERTEX
  8
LAYER-1
  6
LTYPE02
 10
4.228514
 20
6.209936
 30
0.000000
  0
VERTEX
  8
LAYER-1
  6
LTYPE02
 10
4.230476
 20
6.210085
 30
0.000000
  0
SEQEND
  8
LAYER-1
  0
POLYLINE
  8
LAYER-1
  6
LTYPE02
 66
  1
 70
  0
 62
253
  6
LTYPE02
 10
4.242661
 20
6.218811
 30
0.000000
  0
VERTEX
  8
LAYER-1
  6
LTYPE02
 10
4.242661
 20
6.218811
 30
0.000000
  0
VERTEX
  8
LAYER-1
  6
LTYPE02
 10
4.251563
 20
6.219389
 30
0.000000
  0
VERTEX
  8
LAYER-1
  6
LTYPE02
 10
4.260234
 20
6.226093
 30
0.000000
  0
VERTEX
  8
LAYER-1
  6
LTYPE02
 10
4.263114
 20
6.226035
 30
0.000000
  0
SEQEND
  8
LAYER-1
  0
POLYLINE
  8
LAYER-1
  6
LTYPE02
 66
  1
 70
  0
 62
253
  6
LTYPE02
 10
4.277882
 20
6.228611
 30
0.000000
  0
VERTEX
  8
LAYER-1
  6
LTYPE02
 10
4.277882
 20
6.228611
 30
0.000000
  0
VERTEX
  8
LAYER-1
  6
LTYPE02
 10
4.285105
 20
6.224609
 30
0.000000
  0
VERTEX
  8
LAYER-1
  6
LTYPE02
 10
4.295824
 20
6.226888
 30
0.000000
  0
VERTEX
  8
LAYER-1
  6
LTYPE02
 10
4.299446
 20
6.226244
 30
0.000000
  0
SEQEND
  8
LAYER-1
  0
POLYLINE
  8
LAYER-1
  6
LTYPE02
 66
  1
 70
  0
 62
253
  6
LTYPE02
 10
4.313865
 20
6.222157
 30
0.000000
  0
VERTEX
  8
LAYER-1
  6
LTYPE02
 10
4.313865
 20
6.222157
 30
0.000000
  0
VERTEX
  8
LAYER-1
  6
LTYPE02
 10
4.317586
 20
6.214759
 30
0.000000
  0
VERTEX
  8
LAYER-1
  6
LTYPE02
 10
4.328234
 20
6.212161
 30
0.000000
  0
VERTEX
  8
LAYER-1
  6
LTYPE02
 10
4.332266
 20
6.210669
 30
0.000000
  0
SEQEND
  8
LAYER-1
  0
POLYLINE
  8
LAYER-1
  6
LTYPE02
 66
  1
 70
  0
 62
253
  6
LTYPE02
 10
4.367320
 20
6.180505
 30
0.000000
  0
VERTEX
  8
LAYER-1
  6
LTYPE02
 10
4.367320
 20
6.180505
 30
0.000000
  0
VERTEX
  8
LAYER-1
  6
LTYPE02
 10
4.355077
 20
6.182398
 30
0.000000
  0
SEQEND
  8
LAYER-1
  0
POLYLINE
  8
LAYER-1
  6
LTYPE02
 66
  1
 70
  0
 62
253
  6
LTYPE02
 10
4.343481
 20
6.200731
 30
0.000000
  0
VERTEX
  8
LAYER-1
  6
LTYPE02
 10
4.343481
 20
6.200731
 30
0.000000
  0
VERTEX
  8
LAYER-1
  6
LTYPE02
 10
4.342576
 20
6.191791
 30
0.000000
  0
VERTEX
  8
LAYER-1
  6
LTYPE02
 10
4.351041
 20
6.184830
 30
0.000000
  0
VERTEX
  8
LAYER-1
  6
LTYPE02
 10
4.355075
 20
6.182395
 30
0.000000
  0
SEQEND
  8
LAYER-1
  0
POLYLINE
  8
LAYER-1
  6
LTYPE02
 66
  1
 70
  0
 62
253
  6
LTYPE02
 10
4.376994
 20
6.137774
 30
0.000000
  0
VERTEX
  8
LAYER-1
  6
LTYPE02
 10
4.376994
 20
6.137774
 30
0.000000
  0
VERTEX
  8
LAYER-1
  6
LTYPE02
 10
4.363364
 20
6.147025
 30
0.000000
  0
SEQEND
  8
LAYER-1
  0
POLYLINE
  8
LAYER-1
  6
LTYPE02
 66
  1
 70
  0
 62
253
  6
LTYPE02
 10
4.360874
 20
6.168574
 30
0.000000
  0
VERTEX
  8
LAYER-1
  6
LTYPE02
 10
4.360874
 20
6.168574
 30
0.000000
  0
VERTEX
  8
LAYER-1
  6
LTYPE02
 10
4.355131
 20
6.160254
 30
0.000000
  0
VERTEX
  8
LAYER-1
  6
LTYPE02
 10
4.359737
 20
6.150308
 30
0.000000
  0
VERTEX
  8
LAYER-1
  6
LTYPE02
 10
4.363365
 20
6.147024
 30
0.000000
  0
SEQEND
  8
LAYER-1
  0
POLYLINE
  8
LAYER-1
  6
LTYPE02
 66
  1
 70
  0
 62
253
  6
LTYPE02
 10
4.369246
 20
6.177668
 30
0.000000
  0
VERTEX
  8
LAYER-1
  6
LTYPE02
 10
4.369246
 20
6.177668
 30
0.000000
  0
VERTEX
  8
LAYER-1
  6
LTYPE02
 10
4.360873
 20
6.168576
 30
0.000000
  0
SEQEND
  8
LAYER-1
  0
POLYLINE
  8
LAYER-1
  6
LTYPE02
 66
  1
 70
  0
 62
253
  6
LTYPE02
 10
4.363753
 20
6.097311
 30
0.000000
  0
VERTEX
  8
LAYER-1
  6
LTYPE02
 10
4.363753
 20
6.097311
 30
0.000000
  0
VERTEX
  8
LAYER-1
  6
LTYPE02
 10
4.355482
 20
6.111561
 30
0.000000
  0
SEQEND
  8
LAYER-1
  0
POLYLINE
  8
LAYER-1
  6
LTYPE02
 66
  1
 70
  0
 62
253
  6
LTYPE02
 10
4.362589
 20
6.132058
 30
0.000000
  0
VERTEX
  8
LAYER-1
  6
LTYPE02
 10
4.362589
 20
6.132058
 30
0.000000
  0
VERTEX
  8
LAYER-1
  6
LTYPE02
 10
4.352754
 20
6.126394
 30
0.000000
  0
VERTEX
  8
LAYER-1
  6
LTYPE02
 10
4.352589
 20
6.115436
 30
0.000000
  0
VERTEX
  8
LAYER-1
  6
LTYPE02
 10
4.355482
 20
6.111562
 30
0.000000
  0
SEQEND
  8
LAYER-1
  0
POLYLINE
  8
LAYER-1
  6
LTYPE02
 66
  1
 70
  0
 62
253
  6
LTYPE02
 10
4.376994
 20
6.137774
 30
0.000000
  0
VERTEX
  8
LAYER-1
  6
LTYPE02
 10
4.376994
 20
6.137774
 30
0.000000
  0
VERTEX
  8
LAYER-1
  6
LTYPE02
 10
4.362589
 20
6.132059
 30
0.000000
  0
SEQEND
  8
LAYER-1
  0
POLYLINE
  8
LAYER-1
  6
LTYPE02
 66
  1
 70
  0
 62
253
  6
LTYPE02
 10
4.363545
 20
6.171249
 30
0.000000
  0
VERTEX
  8
LAYER-1
  6
LTYPE02
 10
4.363545
 20
6.171249
 30
0.000000
  0
VERTEX
  8
LAYER-1
  6
LTYPE02
 10
4.360935
 20
6.175255
 30
0.000000
  0
VERTEX
  8
LAYER-1
  6
LTYPE02
 10
4.360241
 20
6.177277
 30
0.000000
  0
VERTEX
  8
LAYER-1
  6
LTYPE02
 10
4.359496
 20
6.179279
 30
0.000000
  0
VERTEX
  8
LAYER-1
  6
LTYPE02
 10
4.358703
 20
6.181263
 30
0.000000
  0
VERTEX
  8
LAYER-1
  6
LTYPE02
 10
4.359828
 20
6.181258
 30
0.000000
  0
SEQEND
  8
LAYER-1
  0
POLYLINE
  8
LAYER-1
  6
LTYPE02
 66
  1
 70
  0
 62
253
  6
LTYPE02
 10
4.366155
 20
6.133308
 30
0.000000
  0
VERTEX
  8
LAYER-1
  6
LTYPE02
 10
4.366155
 20
6.133308
 30
0.000000
  0
VERTEX
  8
LAYER-1
  6
LTYPE02
 10
4.364493
 20
6.137390
 30
0.000000
  0
VERTEX
  8
LAYER-1
  6
LTYPE02
 10
4.364745
 20
6.139513
 30
0.000000
  0
VERTEX
  8
LAYER-1
  6
LTYPE02
 10
4.364944
 20
6.141640
 30
0.000000
  0
VERTEX
  8
LAYER-1
  6
LTYPE02
 10
4.365089
 20
6.143772
 30
0.000000
  0
VERTEX
  8
LAYER-1
  6
LTYPE02
 10
4.367149
 20
6.143939
 30
0.000000
  0
SEQEND
  8
LAYER-1
  0
POLYLINE
  8
LAYER-1
  6
LTYPE02
 66
  1
 70
  0
 62
253
  6
LTYPE02
 10
4.352045
 20
6.097990
 30
0.000000
  0
VERTEX
  8
LAYER-1
  6
LTYPE02
 10
4.352045
 20
6.097990
 30
0.000000
  0
VERTEX
  8
LAYER-1
  6
LTYPE02
 10
4.351270
 20
6.101732
 30
0.000000
  0
VERTEX
  8
LAYER-1
  6
LTYPE02
 10
4.352418
 20
6.103534
 30
0.000000
  0
VERTEX
  8
LAYER-1
  6
LTYPE02
 10
4.353520
 20
6.105365
 30
0.000000
  0
VERTEX
  8
LAYER-1
  6
LTYPE02
 10
4.354576
 20
6.107223
 30
0.000000
  0
VERTEX
  8
LAYER-1
  6
LTYPE02
 10
4.357553
 20
6.107138
 30
0.000000
  0
SEQEND
  8
LAYER-1
  0
POLYLINE
  8
LAYER-1
  6
LTYPE02
 66
  1
 70
  0
 62
253
  6
LTYPE02
 10
4.324009
 20
6.072294
 30
0.000000
  0
VERTEX
  8
LAYER-1
  6
LTYPE02
 10
4.324009
 20
6.072294
 30
0.000000
  0
VERTEX
  8
LAYER-1
  6
LTYPE02
 10
4.323885
 20
6.075342
 30
0.000000
  0
VERTEX
  8
LAYER-1
  6
LTYPE02
 10
4.325701
 20
6.076468
 30
0.000000
  0
VERTEX
  8
LAYER-1
  6
LTYPE02
 10
4.327488
 20
6.077639
 30
0.000000
  0
VERTEX
  8
LAYER-1
  6
LTYPE02
 10
4.329246
 20
6.078854
 30
0.000000
  0
VERTEX
  8
LAYER-1
  6
LTYPE02
 10
4.332941
 20
6.078145
 30
0.000000
  0
SEQEND
  8
LAYER-1
  0
POLYLINE
  8
LAYER-1
  6
LTYPE02
 66
  1
 70
  0
 62
253
  6
LTYPE02
 10
4.287600
 20
6.061305
 30
0.000000
  0
VERTEX
  8
LAYER-1
  6
LTYPE02
 10
4.287600
 20
6.061305
 30
0.000000
  0
VERTEX
  8
LAYER-1
  6
LTYPE02
 10
4.287762
 20
6.063447
 30
0.000000
  0
VERTEX
  8
LAYER-1
  6
LTYPE02
 10
4.289886
 20
6.063674
 30
0.000000
  0
VERTEX
  8
LAYER-1
  6
LTYPE02
 10
4.292005
 20
6.063953
 30
0.000000
  0
VERTEX
  8
LAYER-1
  6
LTYPE02
 10
4.294116
 20
6.064286
 30
0.000000
  0
VERTEX
  8
LAYER-1
  6
LTYPE02
 10
4.298185
 20
6.062702
 30
0.000000
  0
SEQEND
  8
LAYER-1
  0
POLYLINE
  8
LAYER-1
  6
LTYPE02
 66
  1
 70
  1
 62
253
  0
VERTEX
  8
LAYER-1
  6
LTYPE02
 10
4.151131
 20
6.177009
 30
0.000000
  0
VERTEX
  8
LAYER-1
  6
LTYPE02
 10
4.186381
 20
6.173749
 30
0.000000
  0
VERTEX
  8
LAYER-1
  6
LTYPE02
 10
4.183121
 20
6.138498
 30
0.000000
  0
VERTEX
  8
LAYER-1
  6
LTYPE02
 10
4.147871
 20
6.141758
 30
0.000000
  0
SEQEND
  8
LAYER-1
  0
POLYLINE
  8
LAYER-1
  6
LTYPE02
 66
  1
 70
  0
 62
253
  6
LTYPE02
 10
4.397402
 20
6.154235
 30
0.000000
  0
VERTEX
  8
LAYER-1
  6
LTYPE02
 10
4.397402
 20
6.154235
 30
0.000000
  0
VERTEX
  8
LAYER-1
  6
LTYPE02
 10
4.382833
 20
6.155583
 30
0.000000
  0
SEQEND
  8
LAYER-1
  0
POLYLINE
  8
LAYER-1
  6
LTYPE02
 66
  1
 70
  0
 62
253
  6
LTYPE02
 10
4.382833
 20
6.155583
 30
0.000000
  0
VERTEX
  8
LAYER-1
  6
LTYPE02
 10
4.382833
 20
6.155583
 30
0.000000
  0
VERTEX
  8
LAYER-1
  6
LTYPE02
 10
4.379574
 20
6.120332
 30
0.000000
  0
SEQEND
  8
LAYER-1
  0
POLYLINE
  8
LAYER-1
  6
LTYPE02
 66
  1
 70
  0
 62
253
  6
LTYPE02
 10
4.379574
 20
6.120332
 30
0.000000
  0
VERTEX
  8
LAYER-1
  6
LTYPE02
 10
4.379574
 20
6.120332
 30
0.000000
  0
VERTEX
  8
LAYER-1
  6
LTYPE02
 10
4.414826
 20
6.117073
 30
0.000000
  0
SEQEND
  8
LAYER-1
  0
POLYLINE
  8
LAYER-1
  6
LTYPE02
 66
  1
 70
  0
 62
253
  6
LTYPE02
 10
4.414826
 20
6.117073
 30
0.000000
  0
VERTEX
  8
LAYER-1
  6
LTYPE02
 10
4.414826
 20
6.117073
 30
0.000000
  0
VERTEX
  8
LAYER-1
  6
LTYPE02
 10
4.416704
 20
6.137384
 30
0.000000
  0
SEQEND
  8
LAYER-1
  0
CIRCLE
  8
LAYER-1
 62
253
  6
LTYPE02
 10
4.717078
 20
5.800317
 30
0.000000
 40
0.079094
  0
CIRCLE
  8
LAYER-1
 62
253
  6
LTYPE02
 10
4.717078
 20
5.800317
 30
0.000000
 40
0.014319
  0
POLYLINE
  8
LAYER-1
  6
LTYPE02
 66
  1
 70
  0
 62
253
  6
LTYPE02
 10
4.744064
 20
5.737906
 30
0.000000
  0
VERTEX
  8
LAYER-1
  6
LTYPE02
 10
4.744064
 20
5.737906
 30
0.000000
  0
VERTEX
  8
LAYER-1
  6
LTYPE02
 10
4.745433
 20
5.757746
 30
0.000000
  0
SEQEND
  8
LAYER-1
  0
POLYLINE
  8
LAYER-1
  6
LTYPE02
 66
  1
 70
  0
 62
253
  6
LTYPE02
 10
4.760715
 20
5.771046
 30
0.000000
  0
VERTEX
  8
LAYER-1
  6
LTYPE02
 10
4.760715
 20
5.771046
 30
0.000000
  0
VERTEX
  8
LAYER-1
  6
LTYPE02
 10
4.748353
 20
5.769533
 30
0.000000
  0
VERTEX
  8
LAYER-1
  6
LTYPE02
 10
4.743466
 20
5.759723
 30
0.000000
  0
VERTEX
  8
LAYER-1
  6
LTYPE02
 10
4.745435
 20
5.757748
 30
0.000000
  0
SEQEND
  8
LAYER-1
  0
POLYLINE
  8
LAYER-1
  6
LTYPE02
 66
  1
 70
  0
 62
253
  6
LTYPE02
 10
4.777871
 20
5.769851
 30
0.000000
  0
VERTEX
  8
LAYER-1
  6
LTYPE02
 10
4.777871
 20
5.769851
 30
0.000000
  0
VERTEX
  8
LAYER-1
  6
LTYPE02
 10
4.760715
 20
5.771046
 30
0.000000
  0
SEQEND
  8
LAYER-1
  0
POLYLINE
  8
LAYER-1
  6
LTYPE02
 66
  1
 70
  0
 62
253
  6
LTYPE02
 10
4.697631
 20
5.735164
 30
0.000000
  0
VERTEX
  8
LAYER-1
  6
LTYPE02
 10
4.697631
 20
5.735164
 30
0.000000
  0
VERTEX
  8
LAYER-1
  6
LTYPE02
 10
4.711436
 20
5.749481
 30
0.000000
  0
SEQEND
  8
LAYER-1
  0
POLYLINE
  8
LAYER-1
  6
LTYPE02
 66
  1
 70
  0
 62
253
  6
LTYPE02
 10
4.731688
 20
5.749845
 30
0.000000
  0
VERTEX
  8
LAYER-1
  6
LTYPE02
 10
4.731688
 20
5.749845
 30
0.000000
  0
VERTEX
  8
LAYER-1
  6
LTYPE02
 10
4.719520
 20
5.755827
 30
0.000000
  0
VERTEX
  8
LAYER-1
  6
LTYPE02
 10
4.709471
 20
5.751453
 30
0.000000
  0
VERTEX
  8
LAYER-1
  6
LTYPE02
 10
4.711435
 20
5.749479
 30
0.000000
  0
SEQEND
  8
LAYER-1
  0
POLYLINE
  8
LAYER-1
  6
LTYPE02
 66
  1
 70
  0
 62
253
  6
LTYPE02
 10
4.744064
 20
5.737906
 30
0.000000
  0
VERTEX
  8
LAYER-1
  6
LTYPE02
 10
4.744064
 20
5.737906
 30
0.000000
  0
VERTEX
  8
LAYER-1
  6
LTYPE02
 10
4.731689
 20
5.749845
 30
0.000000
  0
SEQEND
  8
LAYER-1
  0
POLYLINE
  8
LAYER-1
  6
LTYPE02
 66
  1
 70
  0
 62
253
  6
LTYPE02
 10
4.660301
 20
5.762905
 30
0.000000
  0
VERTEX
  8
LAYER-1
  6
LTYPE02
 10
4.660301
 20
5.762905
 30
0.000000
  0
VERTEX
  8
LAYER-1
  6
LTYPE02
 10
4.680080
 20
5.765001
 30
0.000000
  0
SEQEND
  8
LAYER-1
  0
POLYLINE
  8
LAYER-1
  6
LTYPE02
 66
  1
 70
  0
 62
253
  6
LTYPE02
 10
4.695830
 20
5.752264
 30
0.000000
  0
VERTEX
  8
LAYER-1
  6
LTYPE02
 10
4.695830
 20
5.752264
 30
0.000000
  0
VERTEX
  8
LAYER-1
  6
LTYPE02
 10
4.688628
 20
5.763862
 30
0.000000
  0
VERTEX
  8
LAYER-1
  6
LTYPE02
 10
4.678119
 20
5.766971
 30
0.000000
  0
VERTEX
  8
LAYER-1
  6
LTYPE02
 10
4.680080
 20
5.765002
 30
0.000000
  0
SEQEND
  8
LAYER-1
  0
POLYLINE
  8
LAYER-1
  6
LTYPE02
 66
  1
 70
  0
 62
253
  6
LTYPE02
 10
4.697631
 20
5.735164
 30
0.000000
  0
VERTEX
  8
LAYER-1
  6
LTYPE02
 10
4.697631
 20
5.735164
 30
0.000000
  0
VERTEX
  8
LAYER-1
  6
LTYPE02
 10
4.695832
 20
5.752263
 30
0.000000
  0
SEQEND
  8
LAYER-1
  0
POLYLINE
  8
LAYER-1
  6
LTYPE02
 66
  1
 70
  0
 62
253
  6
LTYPE02
 10
4.649536
 20
5.808156
 30
0.000000
  0
VERTEX
  8
LAYER-1
  6
LTYPE02
 10
4.649536
 20
5.808156
 30
0.000000
  0
VERTEX
  8
LAYER-1
  6
LTYPE02
 10
4.666036
 20
5.797048
 30
0.000000
  0
SEQEND
  8
LAYER-1
  0
POLYLINE
  8
LAYER-1
  6
LTYPE02
 66
  1
 70
  0
 62
253
  6
LTYPE02
 10
4.669912
 20
5.777168
 30
0.000000
  0
VERTEX
  8
LAYER-1
  6
LTYPE02
 10
4.669912
 20
5.777168
 30
0.000000
  0
VERTEX
  8
LAYER-1
  6
LTYPE02
 10
4.670125
 20
5.789876
 30
0.000000
  0
VERTEX
  8
LAYER-1
  6
LTYPE02
 10
4.664073
 20
5.799013
 30
0.000000
  0
VERTEX
  8
LAYER-1
  6
LTYPE02
 10
4.666036
 20
5.797049
 30
0.000000
  0
SEQEND
  8
LAYER-1
  0
POLYLINE
  8
LAYER-1
  6
LTYPE02
 66
  1
 70
  0
 62
253
  6
LTYPE02
 10
4.660301
 20
5.762905
 30
0.000000
  0
VERTEX
  8
LAYER-1
  6
LTYPE02
 10
4.660301
 20
5.762905
 30
0.000000
  0
VERTEX
  8
LAYER-1
  6
LTYPE02
 10
4.669911
 20
5.777168
 30
0.000000
  0
SEQEND
  8
LAYER-1
  0
POLYLINE
  8
LAYER-1
  6
LTYPE02
 66
  1
 70
  0
 62
253
  6
LTYPE02
 10
4.670376
 20
5.849738
 30
0.000000
  0
VERTEX
  8
LAYER-1
  6
LTYPE02
 10
4.670376
 20
5.849738
 30
0.000000
  0
VERTEX
  8
LAYER-1
  6
LTYPE02
 10
4.675877
 20
5.830625
 30
0.000000
  0
SEQEND
  8
LAYER-1
  0
POLYLINE
  8
LAYER-1
  6
LTYPE02
 66
  1
 70
  0
 62
253
  6
LTYPE02
 10
4.666066
 20
5.812903
 30
0.000000
  0
VERTEX
  8
LAYER-1
  6
LTYPE02
 10
4.666066
 20
5.812903
 30
0.000000
  0
VERTEX
  8
LAYER-1
  6
LTYPE02
 10
4.672673
 20
5.821696
 30
0.000000
  0
VERTEX
  8
LAYER-1
  6
LTYPE02
 10
4.673910
 20
5.832586
 30
0.000000
  0
VERTEX
  8
LAYER-1
  6
LTYPE02
 10
4.675876
 20
5.830625
 30
0.000000
  0
SEQEND
  8
LAYER-1
  0
POLYLINE
  8
LAYER-1
  6
LTYPE02
 66
  1
 70
  0
 62
253
  6
LTYPE02
 10
4.649536
 20
5.808156
 30
0.000000
  0
VERTEX
  8
LAYER-1
  6
LTYPE02
 10
4.649536
 20
5.808156
 30
0.000000
  0
VERTEX
  8
LAYER-1
  6
LTYPE02
 10
4.666066
 20
5.812901
 30
0.000000
  0
SEQEND
  8
LAYER-1
  0
POLYLINE
  8
LAYER-1
  6
LTYPE02
 66
  1
 70
  0
 62
253
  6
LTYPE02
 10
4.713070
 20
5.868197
 30
0.000000
  0
VERTEX
  8
LAYER-1
  6
LTYPE02
 10
4.713070
 20
5.868197
 30
0.000000
  0
VERTEX
  8
LAYER-1
  6
LTYPE02
 10
4.704998
 20
5.850021
 30
0.000000
  0
SEQEND
  8
LAYER-1
  0
POLYLINE
  8
LAYER-1
  6
LTYPE02
 66
  1
 70
  0
 62
253
  6
LTYPE02
 10
4.686089
 20
5.842749
 30
0.000000
  0
VERTEX
  8
LAYER-1
  6
LTYPE02
 10
4.686089
 20
5.842749
 30
0.000000
  0
VERTEX
  8
LAYER-1
  6
LTYPE02
 10
4.695078
 20
5.844435
 30
0.000000
  0
VERTEX
  8
LAYER-1
  6
LTYPE02
 10
4.703025
 20
5.851982
 30
0.000000
  0
VERTEX
  8
LAYER-1
  6
LTYPE02
 10
4.704995
 20
5.850020
 30
0.000000
  0
SEQEND
  8
LAYER-1
  0
POLYLINE
  8
LAYER-1
  6
LTYPE02
 66
  1
 70
  0
 62
253
  6
LTYPE02
 10
4.670376
 20
5.849738
 30
0.000000
  0
VERTEX
  8
LAYER-1
  6
LTYPE02
 10
4.670376
 20
5.849738
 30
0.000000
  0
VERTEX
  8
LAYER-1
  6
LTYPE02
 10
4.686093
 20
5.842751
 30
0.000000
  0
SEQEND
  8
LAYER-1
  0
POLYLINE
  8
LAYER-1
  6
LTYPE02
 66
  1
 70
  0
 62
253
  6
LTYPE02
 10
4.757639
 20
5.854893
 30
0.000000
  0
VERTEX
  8
LAYER-1
  6
LTYPE02
 10
4.757639
 20
5.854893
 30
0.000000
  0
VERTEX
  8
LAYER-1
  6
LTYPE02
 10
4.739770
 20
5.846159
 30
0.000000
  0
SEQEND
  8
LAYER-1
  0
POLYLINE
  8
LAYER-1
  6
LTYPE02
 66
  1
 70
  0
 62
253
  6
LTYPE02
 10
4.720613
 20
5.852743
 30
0.000000
  0
VERTEX
  8
LAYER-1
  6
LTYPE02
 10
4.720613
 20
5.852743
 30
0.000000
  0
VERTEX
  8
LAYER-1
  6
LTYPE02
 10
4.726855
 20
5.847452
 30
0.000000
  0
VERTEX
  8
LAYER-1
  6
LTYPE02
 10
4.737794
 20
5.848125
 30
0.000000
  0
VERTEX
  8
LAYER-1
  6
LTYPE02
 10
4.739770
 20
5.846160
 30
0.000000
  0
SEQEND
  8
LAYER-1
  0
POLYLINE
  8
LAYER-1
  6
LTYPE02
 66
  1
 70
  0
 62
253
  6
LTYPE02
 10
4.713070
 20
5.868197
 30
0.000000
  0
VERTEX
  8
LAYER-1
  6
LTYPE02
 10
4.713070
 20
5.868197
 30
0.000000
  0
VERTEX
  8
LAYER-1
  6
LTYPE02
 10
4.720613
 20
5.852744
 30
0.000000
  0
SEQEND
  8
LAYER-1
  0
POLYLINE
  8
LAYER-1
  6
LTYPE02
 66
  1
 70
  0
 62
253
  6
LTYPE02
 10
4.783230
 20
5.816054
 30
0.000000
  0
VERTEX
  8
LAYER-1
  6
LTYPE02
 10
4.783230
 20
5.816054
 30
0.000000
  0
VERTEX
  8
LAYER-1
  6
LTYPE02
 10
4.763930
 20
5.820850
 30
0.000000
  0
SEQEND
  8
LAYER-1
  0
POLYLINE
  8
LAYER-1
  6
LTYPE02
 66
  1
 70
  0
 62
253
  6
LTYPE02
 10
4.753484
 20
5.838208
 30
0.000000
  0
VERTEX
  8
LAYER-1
  6
LTYPE02
 10
4.753484
 20
5.838208
 30
0.000000
  0
VERTEX
  8
LAYER-1
  6
LTYPE02
 10
4.753139
 20
5.829337
 30
0.000000
  0
VERTEX
  8
LAYER-1
  6
LTYPE02
 10
4.761952
 20
5.822821
 30
0.000000
  0
VERTEX
  8
LAYER-1
  6
LTYPE02
 10
4.763928
 20
5.820851
 30
0.000000
  0
SEQEND
  8
LAYER-1
  0
POLYLINE
  8
LAYER-1
  6
LTYPE02
 66
  1
 70
  0
 62
253
  6
LTYPE02
 10
4.757639
 20
5.854893
 30
0.000000
  0
VERTEX
  8
LAYER-1
  6
LTYPE02
 10
4.757639
 20
5.854893
 30
0.000000
  0
VERTEX
  8
LAYER-1
  6
LTYPE02
 10
4.753485
 20
5.838206
 30
0.000000
  0
SEQEND
  8
LAYER-1
  0
POLYLINE
  8
LAYER-1
  6
LTYPE02
 66
  1
 70
  0
 62
253
  6
LTYPE02
 10
4.777869
 20
5.769851
 30
0.000000
  0
VERTEX
  8
LAYER-1
  6
LTYPE02
 10
4.777869
 20
5.769851
 30
0.000000
  0
VERTEX
  8
LAYER-1
  6
LTYPE02
 10
4.766163
 20
5.785934
 30
0.000000
  0
SEQEND
  8
LAYER-1
  0
POLYLINE
  8
LAYER-1
  6
LTYPE02
 66
  1
 70
  0
 62
253
  6
LTYPE02
 10
4.769319
 20
5.805941
 30
0.000000
  0
VERTEX
  8
LAYER-1
  6
LTYPE02
 10
4.769319
 20
5.805941
 30
0.000000
  0
VERTEX
  8
LAYER-1
  6
LTYPE02
 10
4.761628
 20
5.798563
 30
0.000000
  0
VERTEX
  8
LAYER-1
  6
LTYPE02
 10
4.764190
 20
5.787908
 30
0.000000
  0
VERTEX
  8
LAYER-1
  6
LTYPE02
 10
4.766161
 20
5.785933
 30
0.000000
  0
SEQEND
  8
LAYER-1
  0
POLYLINE
  8
LAYER-1
  6
LTYPE02
 66
  1
 70
  0
 62
253
  6
LTYPE02
 10
4.783230
 20
5.816054
 30
0.000000
  0
VERTEX
  8
LAYER-1
  6
LTYPE02
 10
4.783230
 20
5.816054
 30
0.000000
  0
VERTEX
  8
LAYER-1
  6
LTYPE02
 10
4.769320
 20
5.805942
 30
0.000000
  0
SEQEND
  8
LAYER-1
  0
POLYLINE
  8
LAYER-1
  6
LTYPE02
 66
  1
 70
  0
 62
253
  6
LTYPE02
 10
4.769247
 20
5.770808
 30
0.000000
  0
VERTEX
  8
LAYER-1
  6
LTYPE02
 10
4.769247
 20
5.770808
 30
0.000000
  0
VERTEX
  8
LAYER-1
  6
LTYPE02
 10
4.767984
 20
5.774061
 30
0.000000
  0
VERTEX
  8
LAYER-1
  6
LTYPE02
 10
4.768659
 20
5.775362
 30
0.000000
  0
VERTEX
  8
LAYER-1
  6
LTYPE02
 10
4.769301
 20
5.776681
 30
0.000000
  0
VERTEX
  8
LAYER-1
  6
LTYPE02
 10
4.769911
 20
5.778014
 30
0.000000
  0
VERTEX
  8
LAYER-1
  6
LTYPE02
 10
4.772457
 20
5.777393
 30
0.000000
  0
SEQEND
  8
LAYER-1
  0
POLYLINE
  8
LAYER-1
  6
LTYPE02
 66
  1
 70
  0
 62
253
  6
LTYPE02
 10
4.776010
 20
5.811245
 30
0.000000
  0
VERTEX
  8
LAYER-1
  6
LTYPE02
 10
4.776010
 20
5.811245
 30
0.000000
  0
VERTEX
  8
LAYER-1
  6
LTYPE02
 10
4.773756
 20
5.814651
 30
0.000000
  0
VERTEX
  8
LAYER-1
  6
LTYPE02
 10
4.773436
 20
5.816082
 30
0.000000
  0
VERTEX
  8
LAYER-1
  6
LTYPE02
 10
4.773081
 20
5.817505
 30
0.000000
  0
VERTEX
  8
LAYER-1
  6
LTYPE02
 10
4.772692
 20
5.818918
 30
0.000000
  0
VERTEX
  8
LAYER-1
  6
LTYPE02
 10
4.774236
 20
5.818354
 30
0.000000
  0
SEQEND
  8
LAYER-1
  0
POLYLINE
  8
LAYER-1
  6
LTYPE02
 66
  1
 70
  0
 62
253
  6
LTYPE02
 10
4.738073
 20
5.744178
 30
0.000000
  0
VERTEX
  8
LAYER-1
  6
LTYPE02
 10
4.738073
 20
5.744178
 30
0.000000
  0
VERTEX
  8
LAYER-1
  6
LTYPE02
 10
4.737471
 20
5.746677
 30
0.000000
  0
VERTEX
  8
LAYER-1
  6
LTYPE02
 10
4.738825
 20
5.747241
 30
0.000000
  0
VERTEX
  8
LAYER-1
  6
LTYPE02
 10
4.740165
 20
5.747837
 30
0.000000
  0
VERTEX
  8
LAYER-1
  6
LTYPE02
 10
4.741489
 20
5.748466
 30
0.000000
  0
VERTEX
  8
LAYER-1
  6
LTYPE02
 10
4.744766
 20
5.747160
 30
0.000000
  0
SEQEND
  8
LAYER-1
  0
POLYLINE
  8
LAYER-1
  6
LTYPE02
 66
  1
 70
  0
 62
253
  6
LTYPE02
 10
4.697075
 20
5.743817
 30
0.000000
  0
VERTEX
  8
LAYER-1
  6
LTYPE02
 10
4.697075
 20
5.743817
 30
0.000000
  0
VERTEX
  8
LAYER-1
  6
LTYPE02
 10
4.696496
 20
5.745313
 30
0.000000
  0
VERTEX
  8
LAYER-1
  6
LTYPE02
 10
4.697894
 20
5.744874
 30
0.000000
  0
VERTEX
  8
LAYER-1
  6
LTYPE02
 10
4.699303
 20
5.744470
 30
0.000000
  0
VERTEX
  8
LAYER-1
  6
LTYPE02
 10
4.700723
 20
5.744101
 30
0.000000
  0
VERTEX
  8
LAYER-1
  6
LTYPE02
 10
4.704119
 20
5.741799
 30
0.000000
  0
SEQEND
  8
LAYER-1
  0
POLYLINE
  8
LAYER-1
  6
LTYPE02
 66
  1
 70
  0
 62
253
  6
LTYPE02
 10
4.665437
 20
5.769892
 30
0.000000
  0
VERTEX
  8
LAYER-1
  6
LTYPE02
 10
4.665437
 20
5.769892
 30
0.000000
  0
VERTEX
  8
LAYER-1
  6
LTYPE02
 10
4.664229
 20
5.770606
 30
0.000000
  0
VERTEX
  8
LAYER-1
  6
LTYPE02
 10
4.665019
 20
5.769372
 30
0.000000
  0
VERTEX
  8
LAYER-1
  6
LTYPE02
 10
4.665839
 20
5.768156
 30
0.000000
  0
VERTEX
  8
LAYER-1
  6
LTYPE02
 10
4.666688
 20
5.766961
 30
0.000000
  0
VERTEX
  8
LAYER-1
  6
LTYPE02
 10
4.669536
 20
5.763819
 30
0.000000
  0
SEQEND
  8
LAYER-1
  0
POLYLINE
  8
LAYER-1
  6
LTYPE02
 66
  1
 70
  0
 62
253
  6
LTYPE02
 10
4.657963
 20
5.810204
 30
0.000000
  0
VERTEX
  8
LAYER-1
  6
LTYPE02
 10
4.657963
 20
5.810204
 30
0.000000
  0
VERTEX
  8
LAYER-1
  6
LTYPE02
 10
4.655769
 20
5.810723
 30
0.000000
  0
VERTEX
  8
LAYER-1
  6
LTYPE02
 10
4.655581
 20
5.809269
 30
0.000000
  0
VERTEX
  8
LAYER-1
  6
LTYPE02
 10
4.655428
 20
5.807811
 30
0.000000
  0
VERTEX
  8
LAYER-1
  6
LTYPE02
 10
4.655310
 20
5.806350
 30
0.000000
  0
VERTEX
  8
LAYER-1
  6
LTYPE02
 10
4.657198
 20
5.802917
 30
0.000000
  0
SEQEND
  8
LAYER-1
  0
POLYLINE
  8
LAYER-1
  6
LTYPE02
 66
  1
 70
  0
 62
253
  6
LTYPE02
 10
4.678148
 20
5.845890
 30
0.000000
  0
VERTEX
  8
LAYER-1
  6
LTYPE02
 10
4.678148
 20
5.845890
 30
0.000000
  0
VERTEX
  8
LAYER-1
  6
LTYPE02
 10
4.675076
 20
5.846892
 30
0.000000
  0
VERTEX
  8
LAYER-1
  6
LTYPE02
 10
4.673997
 20
5.845900
 30
0.000000
  0
VERTEX
  8
LAYER-1
  6
LTYPE02
 10
4.672943
 20
5.844880
 30
0.000000
  0
VERTEX
  8
LAYER-1
  6
LTYPE02
 10
4.671914
 20
5.843837
 30
0.000000
  0
VERTEX
  8
LAYER-1
  6
LTYPE02
 10
4.672879
 20
5.840799
 30
0.000000
  0
SEQEND
  8
LAYER-1
  0
POLYLINE
  8
LAYER-1
  6
LTYPE02
 66
  1
 70
  0
 62
253
  6
LTYPE02
 10
4.716549
 20
5.860251
 30
0.000000
  0
VERTEX
  8
LAYER-1
  6
LTYPE02
 10
4.716549
 20
5.860251
 30
0.000000
  0
VERTEX
  8
LAYER-1
  6
LTYPE02
 10
4.713115
 20
5.862188
 30
0.000000
  0
VERTEX
  8
LAYER-1
  6
LTYPE02
 10
4.711651
 20
5.862122
 30
0.000000
  0
VERTEX
  8
LAYER-1
  6
LTYPE02
 10
4.710187
 20
5.862019
 30
0.000000
  0
VERTEX
  8
LAYER-1
  6
LTYPE02
 10
4.708728
 20
5.861881
 30
0.000000
  0
VERTEX
  8
LAYER-1
  6
LTYPE02
 10
4.707272
 20
5.861707
 30
0.000000
  0
VERTEX
  8
LAYER-1
  6
LTYPE02
 10
4.709240
 20
5.859739
 30
0.000000
  0
SEQEND
  8
LAYER-1
  0
POLYLINE
  8
LAYER-1
  6
LTYPE02
 66
  1
 70
  0
 62
253
  6
LTYPE02
 10
4.755199
 20
5.846568
 30
0.000000
  0
VERTEX
  8
LAYER-1
  6
LTYPE02
 10
4.755199
 20
5.846568
 30
0.000000
  0
VERTEX
  8
LAYER-1
  6
LTYPE02
 10
4.752086
 20
5.849456
 30
0.000000
  0
VERTEX
  8
LAYER-1
  6
LTYPE02
 10
4.750921
 20
5.850346
 30
0.000000
  0
VERTEX
  8
LAYER-1
  6
LTYPE02
 10
4.749735
 20
5.851208
 30
0.000000
  0
VERTEX
  8
LAYER-1
  6
LTYPE02
 10
4.748529
 20
5.852040
 30
0.000000
  0
VERTEX
  8
LAYER-1
  6
LTYPE02
 10
4.747302
 20
5.852843
 30
0.000000
  0
VERTEX
  8
LAYER-1
  6
LTYPE02
 10
4.749270
 20
5.850874
 30
0.000000
  0
SEQEND
  8
LAYER-1
  0
POLYLINE
  8
LAYER-1
  6
LTYPE02
 66
  1
 70
  0
 62
253
  6
LTYPE02
 10
4.769893
 20
5.819388
 30
0.000000
  0
VERTEX
  8
LAYER-1
  6
LTYPE02
 10
4.769893
 20
5.819388
 30
0.000000
  0
VERTEX
  8
LAYER-1
  6
LTYPE02
 10
4.756606
 20
5.840116
 30
0.000000
  0
VERTEX
  8
LAYER-1
  6
LTYPE02
 10
4.754585
 20
5.842106
 30
0.000000
  0
SEQEND
  8
LAYER-1
  0
POLYLINE
  8
LAYER-1
  6
LTYPE02
 66
  1
 70
  0
 62
253
  6
LTYPE02
 10
4.674984
 20
5.743076
 30
0.000000
  0
VERTEX
  8
LAYER-1
  6
LTYPE02
 10
4.674984
 20
5.743076
 30
0.000000
  0
VERTEX
  8
LAYER-1
  6
LTYPE02
 10
4.698125
 20
5.733293
 30
0.000000
  0
VERTEX
  8
LAYER-1
  6
LTYPE02
 10
4.725820
 20
5.732045
 30
0.000000
  0
VERTEX
  8
LAYER-1
  6
LTYPE02
 10
4.751884
 20
5.741490
 30
0.000000
  0
VERTEX
  8
LAYER-1
  6
LTYPE02
 10
4.772350
 20
5.760192
 30
0.000000
  0
VERTEX
  8
LAYER-1
  6
LTYPE02
 10
4.784102
 20
5.785301
 30
0.000000
  0
VERTEX
  8
LAYER-1
  6
LTYPE02
 10
4.785350
 20
5.812996
 30
0.000000
  0
VERTEX
  8
LAYER-1
  6
LTYPE02
 10
4.775904
 20
5.839061
 30
0.000000
  0
VERTEX
  8
LAYER-1
  6
LTYPE02
 10
4.763699
 20
5.853935
 30
0.000000
  0
SEQEND
  8
LAYER-1
  0
LINE
  8
LAYER-1
 62
253
  6
LTYPE02
 10
4.727621
 20
5.865462
 30
0.000000
 11
4.695146
 21
5.894431
 31
0.000000
  0
LINE
  8
LAYER-1
 62
253
  6
LTYPE02
 10
4.737153
 20
5.876148
 30
0.000000
 11
4.704678
 21
5.905117
 31
0.000000
  0
LINE
  8
LAYER-1
 62
253
  6
LTYPE02
 10
4.727621
 20
5.865462
 30
0.000000
 11
4.737153
 21
5.876148
 31
0.000000
  0
LINE
  8
LAYER-1
 62
253
  6
LTYPE02
 10
4.695146
 20
5.894431
 30
0.000000
 11
4.704678
 21
5.905117
 31
0.000000
  0
POLYLINE
  8
LAYER-1
  6
LTYPE02
 66
  1
 70
  0
 62
253
  6
LTYPE02
 10
4.746553
 20
5.849365
 30
0.000000
  0
VERTEX
  8
LAYER-1
  6
LTYPE02
 10
4.746553
 20
5.849365
 30
0.000000
  0
VERTEX
  8
LAYER-1
  6
LTYPE02
 10
4.335035
 20
6.208693
 30
0.000000
  0
SEQEND
  8
LAYER-1
  0
POLYLINE
  8
LAYER-1
  6
LTYPE02
 66
  1
 70
  0
 62
253
  6
LTYPE02
 10
4.763726
 20
5.853965
 30
0.000000
  0
VERTEX
  8
LAYER-1
  6
LTYPE02
 10
4.763726
 20
5.853965
 30
0.000000
  0
VERTEX
  8
LAYER-1
  6
LTYPE02
 10
4.343637
 20
6.218719
 30
0.000000
  0
SEQEND
  8
LAYER-1
  0
LINE
  8
LAYER-1
 62
253
  6
LTYPE02
 10
4.647665
 20
5.763417
 30
0.000000
 11
4.611369
 21
5.789940
 31
0.000000
  0
LINE
  8
LAYER-1
 62
253
  6
LTYPE02
 10
4.656114
 20
5.774978
 30
0.000000
 11
4.619817
 21
5.801501
 31
0.000000
  0
LINE
  8
LAYER-1
 62
253
  6
LTYPE02
 10
4.647665
 20
5.763417
 30
0.000000
 11
4.656114
 21
5.774978
 31
0.000000
  0
LINE
  8
LAYER-1
 62
253
  6
LTYPE02
 10
4.611369
 20
5.789940
 30
0.000000
 11
4.619817
 21
5.801501
 31
0.000000
  0
POLYLINE
  8
LAYER-1
  6
LTYPE02
 66
  1
 70
  0
 62
253
  6
LTYPE02
 10
4.769712
 20
5.781045
 30
0.000000
  0
VERTEX
  8
LAYER-1
  6
LTYPE02
 10
4.769712
 20
5.781045
 30
0.000000
  0
VERTEX
  8
LAYER-1
  6
LTYPE02
 10
4.771112
 20
5.804623
 30
0.000000
  0
VERTEX
  8
LAYER-1
  6
LTYPE02
 10
4.772548
 20
5.808370
 30
0.000000
  0
SEQEND
  8
LAYER-1
  0
POLYLINE
  8
LAYER-1
  6
LTYPE02
 66
  1
 70
  0
 62
253
  6
LTYPE02
 10
4.745349
 20
5.751939
 30
0.000000
  0
VERTEX
  8
LAYER-1
  6
LTYPE02
 10
4.745349
 20
5.751939
 30
0.000000
  0
VERTEX
  8
LAYER-1
  6
LTYPE02
 10
4.759742
 20
5.768409
 30
0.000000
  0
VERTEX
  8
LAYER-1
  6
LTYPE02
 10
4.764675
 20
5.770750
 30
0.000000
  0
SEQEND
  8
LAYER-1
  0
POLYLINE
  8
LAYER-1
  6
LTYPE02
 66
  1
 70
  0
 62
253
  6
LTYPE02
 10
4.707497
 20
5.744835
 30
0.000000
  0
VERTEX
  8
LAYER-1
  6
LTYPE02
 10
4.707497
 20
5.744835
 30
0.000000
  0
VERTEX
  8
LAYER-1
  6
LTYPE02
 10
4.727490
 20
5.747361
 30
0.000000
  0
VERTEX
  8
LAYER-1
  6
LTYPE02
 10
4.734496
 20
5.746777
 30
0.000000
  0
SEQEND
  8
LAYER-1
  0
POLYLINE
  8
LAYER-1
  6
LTYPE02
 66
  1
 70
  0
 62
253
  6
LTYPE02
 10
4.683723
 20
5.754959
 30
0.000000
  0
VERTEX
  8
LAYER-1
  6
LTYPE02
 10
4.683723
 20
5.754959
 30
0.000000
  0
VERTEX
  8
LAYER-1
  6
LTYPE02
 10
4.684110
 20
5.755285
 30
0.000000
  0
VERTEX
  8
LAYER-1
  6
LTYPE02
 10
4.686547
 20
5.753767
 30
0.000000
  0
VERTEX
  8
LAYER-1
  6
LTYPE02
 10
4.689058
 20
5.752373
 30
0.000000
  0
VERTEX
  8
LAYER-1
  6
LTYPE02
 10
4.691636
 20
5.751109
 30
0.000000
  0
VERTEX
  8
LAYER-1
  6
LTYPE02
 10
4.696245
 20
5.748010
 30
0.000000
  0
SEQEND
  8
LAYER-1
  0
POLYLINE
  8
LAYER-1
  6
LTYPE02
 66
  1
 70
  0
 62
253
  6
LTYPE02
 10
4.570273
 20
5.944916
 30
0.000000
  0
VERTEX
  8
LAYER-1
  6
LTYPE02
 10
4.570273
 20
5.944916
 30
0.000000
  0
VERTEX
  8
LAYER-1
  6
LTYPE02
 10
4.644731
 20
5.938031
 30
0.000000
  0
SEQEND
  8
LAYER-1
  0
POLYLINE
  8
LAYER-1
  6
LTYPE02
 66
  1
 70
  0
 62
253
  6
LTYPE02
 10
4.664274
 20
5.769251
 30
0.000000
  0
VERTEX
  8
LAYER-1
  6
LTYPE02
 10
4.664274
 20
5.769251
 30
0.000000
  0
VERTEX
  8
LAYER-1
  6
LTYPE02
 10
4.230244
 20
6.082914
 30
0.000000
  0
SEQEND
  8
LAYER-1
  0
POLYLINE
  8
LAYER-1
  6
LTYPE02
 66
  1
 70
  0
 62
253
  6
LTYPE02
 10
4.683777
 20
5.754683
 30
0.000000
  0
VERTEX
  8
LAYER-1
  6
LTYPE02
 10
4.683777
 20
5.754683
 30
0.000000
  0
VERTEX
  8
LAYER-1
  6
LTYPE02
 10
4.671724
 20
5.763368
 30
0.000000
  0
SEQEND
  8
LAYER-1
  0
POLYLINE
  8
LAYER-1
  6
LTYPE02
 66
  1
 70
  0
 62
253
  6
LTYPE02
 10
4.675368
 20
5.742665
 30
0.000000
  0
VERTEX
  8
LAYER-1
  6
LTYPE02
 10
4.675368
 20
5.742665
 30
0.000000
  0
VERTEX
  8
LAYER-1
  6
LTYPE02
 10
4.221937
 20
6.072646
 30
0.000000
  0
SEQEND
  8
LAYER-1
  0
POLYLINE
  8
LAYER-1
  6
LTYPE02
 66
  1
 70
  0
 62
253
  6
LTYPE02
 10
4.612351
 20
6.490676
 30
0.000000
  0
VERTEX
  8
LAYER-1
  6
LTYPE02
 10
4.612351
 20
6.490676
 30
0.000000
  0
VERTEX
  8
LAYER-1
  6
LTYPE02
 10
4.569119
 20
6.023178
 30
0.000000
  0
SEQEND
  8
LAYER-1
  0
POLYLINE
  8
LAYER-1
  6
LTYPE02
 66
  1
 70
  0
 62
253
  6
LTYPE02
 10
4.567441
 20
6.004997
 30
0.000000
  0
VERTEX
  8
LAYER-1
  6
LTYPE02
 10
4.567441
 20
6.004997
 30
0.000000
  0
VERTEX
  8
LAYER-1
  6
LTYPE02
 10
4.553073
 20
5.849619
 30
0.000000
  0
SEQEND
  8
LAYER-1
  0
POLYLINE
  8
LAYER-1
  6
LTYPE02
 66
  1
 70
  0
 62
253
  6
LTYPE02
 10
4.575275
 20
5.998189
 30
0.000000
  0
VERTEX
  8
LAYER-1
  6
LTYPE02
 10
4.575275
 20
5.998189
 30
0.000000
  0
VERTEX
  8
LAYER-1
  6
LTYPE02
 10
4.561003
 20
5.843883
 30
0.000000
  0
SEQEND
  8
LAYER-1
  0
POLYLINE
  8
LAYER-1
  6
LTYPE02
 66
  1
 70
  1
 62
253
  6
LTYPE02
 10
4.566960
 20
5.908291
 30
0.000000
  0
VERTEX
  8
LAYER-1
  6
LTYPE02
 10
4.566960
 20
5.908291
 30
0.000000
  0
VERTEX
  8
LAYER-1
  6
LTYPE02
 10
4.692243
 20
5.885122
 30
0.000000
  0
VERTEX
  8
LAYER-1
  6
LTYPE02
 10
4.693671
 20
5.892762
 30
0.000000
  0
VERTEX
  8
LAYER-1
  6
LTYPE02
 10
4.567679
 20
5.916065
 30
0.000000
  0
SEQEND
  8
LAYER-1
  0
POLYLINE
  8
LAYER-1
  6
LTYPE02
 66
  1
 70
  0
 62
253
  6
LTYPE02
 10
4.559374
 20
5.826273
 30
0.000000
  0
VERTEX
  8
LAYER-1
  6
LTYPE02
 10
4.559374
 20
5.826273
 30
0.000000
  0
VERTEX
  8
LAYER-1
  6
LTYPE02
 10
4.544855
 20
5.669245
 30
0.000000
  0
SEQEND
  8
LAYER-1
  0
POLYLINE
  8
LAYER-1
  6
LTYPE02
 66
  1
 70
  1
 62
253
  6
LTYPE02
 10
4.670393
 20
5.717055
 30
0.000000
  0
VERTEX
  8
LAYER-1
  6
LTYPE02
 10
4.670393
 20
5.717055
 30
0.000000
  0
VERTEX
  8
LAYER-1
  6
LTYPE02
 10
4.549419
 20
5.719413
 30
0.000000
  0
VERTEX
  8
LAYER-1
  6
LTYPE02
 10
4.550128
 20
5.727077
 30
0.000000
  0
VERTEX
  8
LAYER-1
  6
LTYPE02
 10
4.671103
 20
5.724719
 30
0.000000
  0
SEQEND
  8
LAYER-1
  0
POLYLINE
  8
LAYER-1
  6
LTYPE02
 66
  1
 70
  0
 62
253
  6
LTYPE02
 10
4.602985
 20
5.974726
 30
0.000000
  0
VERTEX
  8
LAYER-1
  6
LTYPE02
 10
4.602985
 20
5.974726
 30
0.000000
  0
VERTEX
  8
LAYER-1
  6
LTYPE02
 10
4.596860
 20
5.908505
 30
0.000000
  0
SEQEND
  8
LAYER-1
  0
POLYLINE
  8
LAYER-1
  6
LTYPE02
 66
  1
 70
  0
 62
253
  6
LTYPE02
 10
4.587749
 20
5.904953
 30
0.000000
  0
VERTEX
  8
LAYER-1
  6
LTYPE02
 10
4.587749
 20
5.904953
 30
0.000000
  0
VERTEX
  8
LAYER-1
  6
LTYPE02
 10
4.580778
 20
5.829595
 30
0.000000
  0
SEQEND
  8
LAYER-1
  0
POLYLINE
  8
LAYER-1
  6
LTYPE02
 66
  1
 70
  0
 62
253
  6
LTYPE02
 10
4.579202
 20
5.812540
 30
0.000000
  0
VERTEX
  8
LAYER-1
  6
LTYPE02
 10
4.579202
 20
5.812540
 30
0.000000
  0
VERTEX
  8
LAYER-1
  6
LTYPE02
 10
4.571084
 20
5.724741
 30
0.000000
  0
SEQEND
  8
LAYER-1
  0
POLYLINE
  8
LAYER-1
  6
LTYPE02
 66
  1
 70
  0
 62
253
  6
LTYPE02
 10
4.579427
 20
5.719977
 30
0.000000
  0
VERTEX
  8
LAYER-1
  6
LTYPE02
 10
4.579427
 20
5.719977
 30
0.000000
  0
VERTEX
  8
LAYER-1
  6
LTYPE02
 10
4.574484
 20
5.666507
 30
0.000000
  0
SEQEND
  8
LAYER-1
  0
POLYLINE
  8
LAYER-1
  6
LTYPE02
 66
  1
 70
  0
 62
253
  6
LTYPE02
 10
4.553388
 20
6.017204
 30
0.000000
  0
VERTEX
  8
LAYER-1
  6
LTYPE02
 10
4.553388
 20
6.017204
 30
0.000000
  0
VERTEX
  8
LAYER-1
  6
LTYPE02
 10
4.538842
 20
5.859901
 30
0.000000
  0
SEQEND
  8
LAYER-1
  0
POLYLINE
  8
LAYER-1
  6
LTYPE02
 66
  1
 70
  0
 62
253
  6
LTYPE02
 10
4.466692
 20
5.079686
 30
0.000000
  0
VERTEX
  8
LAYER-1
  6
LTYPE02
 10
4.466692
 20
5.079686
 30
0.000000
  0
VERTEX
  8
LAYER-1
  6
LTYPE02
 10
4.523243
 20
5.691217
 30
0.000000
  0
SEQEND
  8
LAYER-1
  0
POLYLINE
  8
LAYER-1
  6
LTYPE02
 66
  1
 70
  0
 62
253
  6
LTYPE02
 10
4.536379
 20
6.031982
 30
0.000000
  0
VERTEX
  8
LAYER-1
  6
LTYPE02
 10
4.536379
 20
6.031982
 30
0.000000
  0
VERTEX
  8
LAYER-1
  6
LTYPE02
 10
4.521617
 20
5.872347
 30
0.000000
  0
SEQEND
  8
LAYER-1
  0
POLYLINE
  8
LAYER-1
  6
LTYPE02
 66
  1
 70
  0
 62
253
  6
LTYPE02
 10
4.448473
 20
5.081370
 30
0.000000
  0
VERTEX
  8
LAYER-1
  6
LTYPE02
 10
4.448473
 20
5.081370
 30
0.000000
  0
VERTEX
  8
LAYER-1
  6
LTYPE02
 10
4.505023
 20
5.692902
 30
0.000000
  0
SEQEND
  8
LAYER-1
  0
POLYLINE
  8
LAYER-1
  6
LTYPE02
 66
  1
 70
  0
 62
253
  6
LTYPE02
 10
4.577249
 20
6.473949
 30
0.000000
  0
VERTEX
  8
LAYER-1
  6
LTYPE02
 10
4.577249
 20
6.473949
 30
0.000000
  0
VERTEX
  8
LAYER-1
  6
LTYPE02
 10
4.538059
 20
6.050178
 30
0.000000
  0
SEQEND
  8
LAYER-1
  0
POLYLINE
  8
LAYER-1
  6
LTYPE02
 66
  1
 70
  1
 62
253
  0
VERTEX
  8
LAYER-1
  6
LTYPE02
 10
4.518103
 20
6.369966
 30
0.000000
  0
VERTEX
  8
LAYER-1
  6
LTYPE02
 10
4.600482
 20
6.362348
 30
0.000000
  0
VERTEX
  8
LAYER-1
  6
LTYPE02
 10
4.594331
 20
6.295810
 30
0.000000
  0
VERTEX
  8
LAYER-1
  6
LTYPE02
 10
4.511949
 20
6.303429
 30
0.000000
  0
SEQEND
  8
LAYER-1
  0
CIRCLE
  8
LAYER-1
 62
253
  6
LTYPE02
 10
4.552800
 20
6.334800
 30
0.000000
 40
0.006762
  0
POLYLINE
  8
LAYER-1
  6
LTYPE02
 66
  1
 70
  0
 62
253
  6
LTYPE02
 10
4.501853
 20
6.297969
 30
0.000000
  0
VERTEX
  8
LAYER-1
  6
LTYPE02
 10
4.501853
 20
6.297969
 30
0.000000
  0
VERTEX
  8
LAYER-1
  6
LTYPE02
 10
4.483341
 20
6.097758
 30
0.000000
  0
SEQEND
  8
LAYER-1
  0
POLYLINE
  8
LAYER-1
  6
LTYPE02
 66
  1
 70
  0
 62
253
  6
LTYPE02
 10
4.480919
 20
6.080171
 30
0.000000
  0
VERTEX
  8
LAYER-1
  6
LTYPE02
 10
4.480919
 20
6.080171
 30
0.000000
  0
VERTEX
  8
LAYER-1
  6
LTYPE02
 10
4.465454
 20
5.912937
 30
0.000000
  0
SEQEND
  8
LAYER-1
  0
POLYLINE
  8
LAYER-1
  6
LTYPE02
 66
  1
 70
  0
 62
253
  6
LTYPE02
 10
4.335034
 20
6.208695
 30
0.000000
  0
VERTEX
  8
LAYER-1
  6
LTYPE02
 10
4.335034
 20
6.208695
 30
0.000000
  0
VERTEX
  8
LAYER-1
  6
LTYPE02
 10
4.305231
 20
6.226331
 30
0.000000
  0
VERTEX
  8
LAYER-1
  6
LTYPE02
 10
4.273519
 20
6.230154
 30
0.000000
  0
VERTEX
  8
LAYER-1
  6
LTYPE02
 10
4.242758
 20
6.221550
 30
0.000000
  0
VERTEX
  8
LAYER-1
  6
LTYPE02
 10
4.217630
 20
6.201829
 30
0.000000
  0
VERTEX
  8
LAYER-1
  6
LTYPE02
 10
4.201962
 20
6.173993
 30
0.000000
  0
VERTEX
  8
LAYER-1
  6
LTYPE02
 10
4.198140
 20
6.142281
 30
0.000000
  0
VERTEX
  8
LAYER-1
  6
LTYPE02
 10
4.206744
 20
6.111519
 30
0.000000
  0
VERTEX
  8
LAYER-1
  6
LTYPE02
 10
4.226465
 20
6.086392
 30
0.000000
  0
VERTEX
  8
LAYER-1
  6
LTYPE02
 10
4.230245
 20
6.082914
 30
0.000000
  0
SEQEND
  8
LAYER-1
  0
POLYLINE
  8
LAYER-1
  6
LTYPE02
 66
  1
 70
  0
 62
253
  6
LTYPE02
 10
4.343634
 20
6.218719
 30
0.000000
  0
VERTEX
  8
LAYER-1
  6
LTYPE02
 10
4.343634
 20
6.218719
 30
0.000000
  0
VERTEX
  8
LAYER-1
  6
LTYPE02
 10
4.309340
 20
6.238883
 30
0.000000
  0
VERTEX
  8
LAYER-1
  6
LTYPE02
 10
4.272511
 20
6.243323
 30
0.000000
  0
VERTEX
  8
LAYER-1
  6
LTYPE02
 10
4.236787
 20
6.233330
 30
0.000000
  0
VERTEX
  8
LAYER-1
  6
LTYPE02
 10
4.207606
 20
6.210428
 30
0.000000
  0
VERTEX
  8
LAYER-1
  6
LTYPE02
 10
4.189410
 20
6.178102
 30
0.000000
  0
VERTEX
  8
LAYER-1
  6
LTYPE02
 10
4.184971
 20
6.141273
 30
0.000000
  0
VERTEX
  8
LAYER-1
  6
LTYPE02
 10
4.194963
 20
6.105549
 30
0.000000
  0
VERTEX
  8
LAYER-1
  6
LTYPE02
 10
4.217866
 20
6.076367
 30
0.000000
  0
VERTEX
  8
LAYER-1
  6
LTYPE02
 10
4.221937
 20
6.072647
 30
0.000000
  0
SEQEND
  8
LAYER-1
  0
CIRCLE
  8
LAYER-1
 62
253
  6
LTYPE02
 10
4.237490
 20
5.668108
 30
0.000000
 40
0.029531
  0
CIRCLE
  8
LAYER-1
 62
253
  6
LTYPE02
 10
4.237490
 20
5.668108
 30
0.000000
 40
0.044577
  0
POLYLINE
  8
LAYER-1
  6
LTYPE02
 66
  1
 70
  0
 62
253
  6
LTYPE02
 10
4.551960
 20
5.746880
 30
0.000000
  0
VERTEX
  8
LAYER-1
  6
LTYPE02
 10
4.551960
 20
5.746880
 30
0.000000
  0
VERTEX
  8
LAYER-1
  6
LTYPE02
 10
4.463635
 20
5.755049
 30
0.000000
  0
SEQEND
  8
LAYER-1
  0
POLYLINE
  8
LAYER-1
  6
LTYPE02
 66
  1
 70
  0
 62
253
  6
LTYPE02
 10
4.547043
 20
5.689415
 30
0.000000
  0
VERTEX
  8
LAYER-1
  6
LTYPE02
 10
4.547043
 20
5.689415
 30
0.000000
  0
VERTEX
  8
LAYER-1
  6
LTYPE02
 10
4.458324
 20
5.697619
 30
0.000000
  0
SEQEND
  8
LAYER-1
  0
POLYLINE
  8
LAYER-1
  6
LTYPE02
 66
  1
 70
  0
 62
253
  6
LTYPE02
 10
4.494681
 20
5.710635
 30
0.000000
  0
VERTEX
  8
LAYER-1
  6
LTYPE02
 10
4.494681
 20
5.710635
 30
0.000000
  0
VERTEX
  8
LAYER-1
  6
LTYPE02
 10
4.500946
 20
5.714836
 30
0.000000
  0
VERTEX
  8
LAYER-1
  6
LTYPE02
 10
4.505189
 20
5.722236
 30
0.000000
  0
VERTEX
  8
LAYER-1
  6
LTYPE02
 10
4.502957
 20
5.730468
 30
0.000000
  0
VERTEX
  8
LAYER-1
  6
LTYPE02
 10
4.495557
 20
5.734711
 30
0.000000
  0
VERTEX
  8
LAYER-1
  6
LTYPE02
 10
4.496574
 20
5.732823
 30
0.000000
  0
SEQEND
  8
LAYER-1
  0
POLYLINE
  8
LAYER-1
  6
LTYPE02
 66
  1
 70
  0
 62
253
  6
LTYPE02
 10
4.496573
 20
5.732823
 30
0.000000
  0
VERTEX
  8
LAYER-1
  6
LTYPE02
 10
4.496573
 20
5.732823
 30
0.000000
  0
VERTEX
  8
LAYER-1
  6
LTYPE02
 10
4.461878
 20
5.736031
 30
0.000000
  0
SEQEND
  8
LAYER-1
  0
POLYLINE
  8
LAYER-1
  6
LTYPE02
 66
  1
 70
  0
 62
253
  6
LTYPE02
 10
4.494678
 20
5.710634
 30
0.000000
  0
VERTEX
  8
LAYER-1
  6
LTYPE02
 10
4.494678
 20
5.710634
 30
0.000000
  0
VERTEX
  8
LAYER-1
  6
LTYPE02
 10
4.459828
 20
5.713858
 30
0.000000
  0
SEQEND
  8
LAYER-1
  0
POLYLINE
  8
LAYER-1
  6
LTYPE02
 66
  1
 70
  0
 62
253
  6
LTYPE02
 10
4.459828
 20
5.713858
 30
0.000000
  0
VERTEX
  8
LAYER-1
  6
LTYPE02
 10
4.459828
 20
5.713858
 30
0.000000
  0
VERTEX
  8
LAYER-1
  6
LTYPE02
 10
4.458324
 20
5.697619
 30
0.000000
  0
SEQEND
  8
LAYER-1
  0
POLYLINE
  8
LAYER-1
  6
LTYPE02
 66
  1
 70
  0
 62
253
  6
LTYPE02
 10
4.461878
 20
5.736031
 30
0.000000
  0
VERTEX
  8
LAYER-1
  6
LTYPE02
 10
4.461878
 20
5.736031
 30
0.000000
  0
VERTEX
  8
LAYER-1
  6
LTYPE02
 10
4.463635
 20
5.755049
 30
0.000000
  0
SEQEND
  8
LAYER-1
  0
POLYLINE
  8
LAYER-1
  6
LTYPE02
 66
  1
 70
  0
 62
253
  6
LTYPE02
 10
4.537238
 20
5.842554
 30
0.000000
  0
VERTEX
  8
LAYER-1
  6
LTYPE02
 10
4.537238
 20
5.842554
 30
0.000000
  0
VERTEX
  8
LAYER-1
  6
LTYPE02
 10
4.528591
 20
5.749042
 30
0.000000
  0
SEQEND
  8
LAYER-1
  0
POLYLINE
  8
LAYER-1
  6
LTYPE02
 66
  1
 70
  0
 62
253
  6
LTYPE02
 10
4.520033
 20
5.855205
 30
0.000000
  0
VERTEX
  8
LAYER-1
  6
LTYPE02
 10
4.520033
 20
5.855205
 30
0.000000
  0
VERTEX
  8
LAYER-1
  6
LTYPE02
 10
4.510371
 20
5.750727
 30
0.000000
  0
SEQEND
  8
LAYER-1
  0
POLYLINE
  8
LAYER-1
  6
LTYPE02
 66
  1
 70
  0
 62
253
  6
LTYPE02
 10
5.093700
 20
5.365236
 30
0.000000
  0
VERTEX
  8
LAYER-1
  6
LTYPE02
 10
5.093700
 20
5.365236
 30
0.000000
  0
VERTEX
  8
LAYER-1
  6
LTYPE02
 10
5.019856
 20
5.372066
 30
0.000000
  0
SEQEND
  8
LAYER-1
  0
POLYLINE
  8
LAYER-1
  6
LTYPE02
 66
  1
 70
  0
 62
253
  6
LTYPE02
 10
5.078171
 20
5.197303
 30
0.000000
  0
VERTEX
  8
LAYER-1
  6
LTYPE02
 10
5.078171
 20
5.197303
 30
0.000000
  0
VERTEX
  8
LAYER-1
  6
LTYPE02
 10
5.002740
 20
5.204278
 30
0.000000
  0
SEQEND
  8
LAYER-1
  0
POLYLINE
  8
LAYER-1
  6
LTYPE02
 66
  1
 70
  0
 62
253
  6
LTYPE02
 10
5.078170
 20
5.197303
 30
0.000000
  0
VERTEX
  8
LAYER-1
  6
LTYPE02
 10
5.078170
 20
5.197303
 30
0.000000
  0
VERTEX
  8
LAYER-1
  6
LTYPE02
 10
5.108924
 20
5.202692
 30
0.000000
  0
VERTEX
  8
LAYER-1
  6
LTYPE02
 10
5.137848
 20
5.218374
 30
0.000000
  0
VERTEX
  8
LAYER-1
  6
LTYPE02
 10
5.158569
 20
5.243932
 30
0.000000
  0
VERTEX
  8
LAYER-1
  6
LTYPE02
 10
5.167932
 20
5.275473
 30
0.000000
  0
VERTEX
  8
LAYER-1
  6
LTYPE02
 10
5.164512
 20
5.308198
 30
0.000000
  0
VERTEX
  8
LAYER-1
  6
LTYPE02
 10
5.148830
 20
5.337122
 30
0.000000
  0
VERTEX
  8
LAYER-1
  6
LTYPE02
 10
5.123272
 20
5.357842
 30
0.000000
  0
VERTEX
  8
LAYER-1
  6
LTYPE02
 10
5.093700
 20
5.365237
 30
0.000000
  0
SEQEND
  8
LAYER-1
  0
POLYLINE
  8
LAYER-1
  6
LTYPE02
 66
  1
 70
  0
 62
253
  6
LTYPE02
 10
5.079188
 20
5.208325
 30
0.000000
  0
VERTEX
  8
LAYER-1
  6
LTYPE02
 10
5.079188
 20
5.208325
 30
0.000000
  0
VERTEX
  8
LAYER-1
  6
LTYPE02
 10
5.105648
 20
5.213264
 30
0.000000
  0
VERTEX
  8
LAYER-1
  6
LTYPE02
 10
5.130776
 20
5.226889
 30
0.000000
  0
VERTEX
  8
LAYER-1
  6
LTYPE02
 10
5.148777
 20
5.249092
 30
0.000000
  0
VERTEX
  8
LAYER-1
  6
LTYPE02
 10
5.156911
 20
5.276493
 30
0.000000
  0
VERTEX
  8
LAYER-1
  6
LTYPE02
 10
5.153939
 20
5.304922
 30
0.000000
  0
VERTEX
  8
LAYER-1
  6
LTYPE02
 10
5.140315
 20
5.330049
 30
0.000000
  0
VERTEX
  8
LAYER-1
  6
LTYPE02
 10
5.118112
 20
5.348050
 30
0.000000
  0
VERTEX
  8
LAYER-1
  6
LTYPE02
 10
5.092680
 20
5.354215
 30
0.000000
  0
SEQEND
  8
LAYER-1
  0
POLYLINE
  8
LAYER-1
  6
LTYPE02
 66
  1
 70
  0
 62
253
  6
LTYPE02
 10
5.092680
 20
5.354216
 30
0.000000
  0
VERTEX
  8
LAYER-1
  6
LTYPE02
 10
5.092680
 20
5.354216
 30
0.000000
  0
VERTEX
  8
LAYER-1
  6
LTYPE02
 10
5.021698
 20
5.360780
 30
0.000000
  0
SEQEND
  8
LAYER-1
  0
POLYLINE
  8
LAYER-1
  6
LTYPE02
 66
  1
 70
  0
 62
253
  6
LTYPE02
 10
5.079190
 20
5.208322
 30
0.000000
  0
VERTEX
  8
LAYER-1
  6
LTYPE02
 10
5.079190
 20
5.208322
 30
0.000000
  0
VERTEX
  8
LAYER-1
  6
LTYPE02
 10
5.006491
 20
5.215046
 30
0.000000
  0
SEQEND
  8
LAYER-1
  0
CIRCLE
  8
LAYER-1
 62
253
  6
LTYPE02
 10
3.705244
 20
5.851498
 30
0.000000
 40
0.037156
  0
POLYLINE
  8
LAYER-1
  6
LTYPE02
 66
  1
 70
  0
 62
253
  6
LTYPE02
 10
3.787283
 20
6.270759
 30
0.000000
  0
VERTEX
  8
LAYER-1
  6
LTYPE02
 10
3.787283
 20
6.270759
 30
0.000000
  0
VERTEX
  8
LAYER-1
  6
LTYPE02
 10
3.787283
 20
6.222115
 30
0.000000
  0
SEQEND
  8
LAYER-1
  0
POLYLINE
  8
LAYER-1
  6
LTYPE02
 66
  1
 70
  0
 62
253
  6
LTYPE02
 10
5.192372
 20
6.447575
 30
0.000000
  0
VERTEX
  8
LAYER-1
  6
LTYPE02
 10
5.192372
 20
6.447575
 30
0.000000
  0
VERTEX
  8
LAYER-1
  6
LTYPE02
 10
5.839512
 20
6.387726
 30
0.000000
  0
SEQEND
  8
LAYER-1
  0
POLYLINE
  8
LAYER-1
  6
LTYPE02
 66
  1
 70
  0
 62
253
  6
LTYPE02
 10
5.114950
 20
5.610458
 30
0.000000
  0
VERTEX
  8
LAYER-1
  6
LTYPE02
 10
5.114950
 20
5.610458
 30
0.000000
  0
VERTEX
  8
LAYER-1
  6
LTYPE02
 10
5.762090
 20
5.550608
 30
0.000000
  0
SEQEND
  8
LAYER-1
  0
POLYLINE
  8
LAYER-1
  6
LTYPE02
 66
  1
 70
  0
 62
253
  6
LTYPE02
 10
5.839512
 20
6.387726
 30
0.000000
  0
VERTEX
  8
LAYER-1
  6
LTYPE02
 10
5.839512
 20
6.387726
 30
0.000000
  0
VERTEX
  8
LAYER-1
  6
LTYPE02
 10
5.762090
 20
5.550608
 30
0.000000
  0
SEQEND
  8
LAYER-1
  0
CIRCLE
  8
LAYER-1
 62
253
  6
LTYPE02
 10
5.091542
 20
6.113216
 30
0.000000
 40
0.009554
  0
CIRCLE
  8
LAYER-1
 62
253
  6
LTYPE02
 10
5.076747
 20
5.953207
 30
0.000000
 40
0.009554
  0
CIRCLE
  8
LAYER-1
 62
  7
 10
3.217848
 20
5.728085
 30
0.000000
 40
0.268398
  0
CIRCLE
  8
LAYER-1
 62
253
  6
LTYPE02
 10
3.706720
 20
5.443528
 30
0.000000
 40
0.018001
  0
ARC
  8
LAYER-1
 62
253
  6
LTYPE01
 10
4.281735
 20
6.146559
 30
0.000000
 40
0.095667
 50
293.508240
 51
105.082336
  0
CIRCLE
  8
LAYER-1
 62
  7
 10
3.711665
 20
6.214529
 30
0.000000
 40
0.015831
  0
POLYLINE
  8
LAYER-1
 66
  1
 70
  1
 62
  7
 10
0.176339
 20
0.099349
 30
0.000000
  0
VERTEX
  8
LAYER-1
 10
0.176339
 20
0.099349
 30
0.000000
  0
VERTEX
  8
LAYER-1
 10
0.199753
 20
0.075446
 30
0.000000
  0
VERTEX
  8
LAYER-1
 10
0.219563
 20
0.115295
 30
0.000000
  0
SEQEND
  8
LAYER-1
  0
POLYLINE
  8
LAYER-1
 66
  1
 70
  1
 62
  7
 10
0.165397
 20
0.247798
 30
0.000000
  0
VERTEX
  8
LAYER-1
 10
0.165397
 20
0.247798
 30
0.000000
  0
VERTEX
  8
LAYER-1
 10
0.177135
 20
0.326969
 30
0.000000
  0
VERTEX
  8
LAYER-1
 10
0.134253
 20
0.343668
 30
0.000000
  0
SEQEND
  8
LAYER-1
  0
POLYLINE
  8
LAYER-1
 66
  1
 70
  1
 62
  7
 10
6.114373
 20
0.224217
 30
0.000000
  0
VERTEX
  8
LAYER-1
 10
6.114373
 20
0.224217
 30
0.000000
  0
VERTEX
  8
LAYER-1
 10
6.115240
 20
0.190761
 30
0.000000
  0
VERTEX
  8
LAYER-1
 10
6.156881
 20
0.206456
 30
0.000000
  0
SEQEND
  8
LAYER-1
  0
POLYLINE
  8
LAYER-1
 66
  1
 70
  1
 62
  7
 10
6.338110
 20
0.123304
 30
0.000000
  0
VERTEX
  8
LAYER-1
 10
6.338110
 20
0.123304
 30
0.000000
  0
VERTEX
  8
LAYER-1
 10
6.372006
 20
0.120081
 30
0.000000
  0
VERTEX
  8
LAYER-1
 10
6.350973
 20
0.163585
 30
0.000000
  0
SEQEND
  8
LAYER-1
  0
POLYLINE
  8
LAYER-1
 66
  1
 70
  1
 62
  7
 10
6.380022
 20
0.263043
 30
0.000000
  0
VERTEX
  8
LAYER-1
 10
6.380022
 20
0.263043
 30
0.000000
  0
VERTEX
  8
LAYER-1
 10
6.356607
 20
0.286946
 30
0.000000
  0
VERTEX
  8
LAYER-1
 10
6.336798
 20
0.247096
 30
0.000000
  0
SEQEND
  8
LAYER-1
  0
ENDSEC
  0
EOF
