  0
SECTION
  2
HEADER
999
MacDraft 5.0\0
  9
$ACADVER
  1
AC1006
  9
$CLAYER
  8
MERGEDLAYER-1
  9
$EXTMIN
 10
0.000000
 20
0.000000
  9
$EXTMAX
 10
10.642496
 20
8.103984
  9
$FASTZOOM
 70
0
  9
$FILLMODE
 70
1
  0
ENDSEC
  0
SECTION
  2
TABLES
  0
TABLE
  2
LTYPE
 70
16
  0
LTYPE
  2
CONTINUOUS
 70
64
  3
Solid Line
 72
65
 73
0
 40
0.000000
  0
LTYPE
  2
LTYPE01
 70
64
  3
CUSTOM
 72
65
 73
2
 40
0.076923
 49
0.057692
 49
-0.019231
  0
LTYPE
  2
LTYPE02
 70
64
  3
CUSTOM
 72
65
 73
2
 40
0.134615
 49
0.115385
 49
-0.019231
  0
LTYPE
  2
LTYPE03
 70
64
  3
CUSTOM
 72
65
 73
2
 40
0.259615
 49
0.230769
 49
-0.028846
  0
LTYPE
  2
LTYPE04
 70
64
  3
CUSTOM
 72
65
 73
2
 40
0.500000
 49
0.461538
 49
-0.038462
  0
LTYPE
  2
LTYPE05
 70
64
  3
CUSTOM
 72
65
 73
4
 40
0.105769
 49
0.057692
 49
-0.019231
 49
0.009615
 49
-0.019231
  0
LTYPE
  2
LTYPE06
 70
64
  3
CUSTOM
 72
65
 73
4
 40
0.163462
 49
0.115385
 49
-0.019231
 49
0.009615
 49
-0.019231
  0
LTYPE
  2
LTYPE07
 70
64
  3
CUSTOM
 72
65
 73
4
 40
0.307692
 49
0.230769
 49
-0.028846
 49
0.019231
 49
-0.028846
  0
LTYPE
  2
LTYPE08
 70
64
  3
CUSTOM
 72
65
 73
4
 40
0.557692
 49
0.461538
 49
-0.038462
 49
0.019231
 49
-0.038462
  0
LTYPE
  2
LTYPE09
 70
64
  3
CUSTOM
 72
65
 73
6
 40
0.134615
 49
0.057692
 49
-0.019231
 49
0.009615
 49
-0.019231
 49
0.009615
 49
-0.019231
  0
LTYPE
  2
LTYPE10
 70
64
  3
CUSTOM
 72
65
 73
6
 40
0.192308
 49
0.115385
 49
-0.019231
 49
0.009615
 49
-0.019231
 49
0.009615
 49
-0.019231
  0
LTYPE
  2
LTYPE11
 70
64
  3
CUSTOM
 72
65
 73
6
 40
0.346154
 49
0.230769
 49
-0.028846
 49
0.019231
 49
-0.019231
 49
0.019231
 49
-0.028846
  0
LTYPE
  2
LTYPE12
 70
64
  3
CUSTOM
 72
65
 73
6
 40
0.596154
 49
0.461538
 49
-0.038462
 49
0.019231
 49
-0.019231
 49
0.019231
 49
-0.038462
  0
LTYPE
  2
LTYPE13
 70
64
  3
CUSTOM
 72
65
 73
8
 40
0.221154
 49
0.115385
 49
-0.019231
 49
0.009615
 49
-0.019231
 49
0.009615
 49
-0.019231
 49
0.009615
 49
-0.019231
  0
LTYPE
  2
LTYPE14
 70
64
  3
CUSTOM
 72
65
 73
8
 40
0.384615
 49
0.230769
 49
-0.028846
 49
0.019231
 49
-0.019231
 49
0.019231
 49
-0.019231
 49
0.019231
 49
-0.028846
  0
LTYPE
  2
LTYPE15
 70
64
  3
CUSTOM
 72
65
 73
8
 40
0.653846
 49
0.461538
 49
-0.038462
 49
0.019231
 49
-0.028846
 49
0.019231
 49
-0.028846
 49
0.019231
 49
-0.038462
  0
ENDTAB
  0
TABLE
  2
LAYER
 70
1
  0
LAYER
  2
MERGEDLAYER-1
 70
0
 62
7
  6
CONTINUOUS
  0
ENDTAB
  0
ENDSEC
  0
SECTION
  2
BLOCKS
  0
ENDSEC
  0
SECTION
  2
ENTITIES
  0
POLYLINE
  8
MERGEDLAYER-1
 66
  1
 70
  0
 62
  7
 10
0.076923
 20
64.754949
 30
0.000000
  0
VERTEX
  8
MERGEDLAYER-1
 10
0.076923
 20
64.754949
 30
0.000000
  0
VERTEX
  8
MERGEDLAYER-1
 10
0.076923
 20
0.076923
 30
0.000000
  0
SEQEND
  8
MERGEDLAYER-1
  0
TEXT
  8
MERGEDLAYER-1
 62
  7
 10
61.692308
 20
26.081872
 30
0.000000
 40
0.807692
  1
CLIENT:
 72
  5
 11
66.384615
 21
26.081872
 31
0.000000
  0
POLYLINE
  8
MERGEDLAYER-1
 66
  1
 70
  0
 62
  7
 10
68.323331
 20
25.696388
 30
0.000000
  0
VERTEX
  8
MERGEDLAYER-1
 10
68.323331
 20
25.696388
 30
0.000000
  0
VERTEX
  8
MERGEDLAYER-1
 10
85.057692
 20
25.694369
 30
0.000000
  0
SEQEND
  8
MERGEDLAYER-1
  0
TEXT
  8
MERGEDLAYER-1
 62
  7
 10
61.692308
 20
23.928025
 30
0.000000
 40
0.807692
  1
PROJET:
 72
  5
 11
66.769231
 21
23.928025
 31
0.000000
  0
TEXT
  8
MERGEDLAYER-1
 62
  7
 10
61.692308
 20
21.697256
 30
0.000000
 40
0.807692
  1
ENDROIT:
 72
  5
 11
67.307692
 21
21.697256
 31
0.000000
  0
TEXT
  8
MERGEDLAYER-1
 62
  7
 10
61.692308
 20
19.466487
 30
0.000000
 40
0.807692
  1
VILLE:
 72
  5
 11
65.538462
 21
19.466487
 31
0.000000
  0
TEXT
  8
MERGEDLAYER-1
 62
  7
 10
61.692308
 20
17.312641
 30
0.000000
 40
0.807692
  1
MODéLE:
 72
  5
 11
67.076923
 21
17.312641
 31
0.000000
  0
TEXT
  8
MERGEDLAYER-1
 62
  7
 10
61.692308
 20
15.081872
 30
0.000000
 40
0.807692
  1
FINI:
 72
  5
 11
64.538462
 21
15.081872
 31
0.000000
  0
TEXT
  8
MERGEDLAYER-1
 62
  7
 10
61.692308
 20
12.851102
 30
0.000000
 40
0.807692
  1
DATE:
 72
  5
 11
65.384615
 21
12.851102
 31
0.000000
  0
TEXT
  8
MERGEDLAYER-1
 62
  7
 10
75.923077
 20
12.851102
 30
0.000000
 40
0.807692
  1
NO:
 72
  5
 11
78.307692
 21
12.851102
 31
0.000000
  0
POLYLINE
  8
MERGEDLAYER-1
 66
  1
 70
  0
 62
  7
 10
0.076923
 20
64.754949
 30
0.000000
  0
VERTEX
  8
MERGEDLAYER-1
 10
0.076923
 20
64.754949
 30
0.000000
  0
VERTEX
  8
MERGEDLAYER-1
 10
85.060077
 20
64.754949
 30
0.000000
  0
SEQEND
  8
MERGEDLAYER-1
  0
POLYLINE
  8
MERGEDLAYER-1
 66
  1
 70
  0
 62
  7
 10
85.060077
 20
64.754949
 30
0.000000
  0
VERTEX
  8
MERGEDLAYER-1
 10
85.060077
 20
64.754949
 30
0.000000
  0
VERTEX
  8
MERGEDLAYER-1
 10
85.060077
 20
0.076923
 30
0.000000
  0
SEQEND
  8
MERGEDLAYER-1
  0
POLYLINE
  8
MERGEDLAYER-1
 66
  1
 70
  0
 62
  7
 10
0.076923
 20
0.076923
 30
0.000000
  0
VERTEX
  8
MERGEDLAYER-1
 10
0.076923
 20
0.076923
 30
0.000000
  0
VERTEX
  8
MERGEDLAYER-1
 10
85.060077
 20
0.076923
 30
0.000000
  0
SEQEND
  8
MERGEDLAYER-1
  0
POLYLINE
  8
MERGEDLAYER-1
 66
  1
 70
  0
 62
  7
 10
60.875582
 20
27.903417
 30
0.000000
  0
VERTEX
  8
MERGEDLAYER-1
 10
60.875582
 20
27.903417
 30
0.000000
  0
VERTEX
  8
MERGEDLAYER-1
 10
85.060077
 20
27.903417
 30
0.000000
  0
SEQEND
  8
MERGEDLAYER-1
  0
POLYLINE
  8
MERGEDLAYER-1
 66
  1
 70
  0
 62
  7
 10
60.875582
 20
64.754949
 30
0.000000
  0
VERTEX
  8
MERGEDLAYER-1
 10
60.875582
 20
64.754949
 30
0.000000
  0
VERTEX
  8
MERGEDLAYER-1
 10
60.875582
 20
0.076923
 30
0.000000
  0
SEQEND
  8
MERGEDLAYER-1
  0
TEXT
  8
MERGEDLAYER-1
 62
  7
 10
56.384615
 20
63.158795
 30
0.000000
 40
0.634615
  1
AUCUNE
 72
  5
 11
60.000000
 21
63.158795
 31
0.000000
  0
TEXT
  8
MERGEDLAYER-1
 62
  7
 10
56.384615
 20
62.235718
 30
0.000000
 40
0.634615
  1
ƒCHELLE
 72
  5
 11
60.153846
 21
62.235718
 31
0.000000
  0
POLYLINE
  8
MERGEDLAYER-1
 66
  1
 70
  1
 62
  7
  0
VERTEX
  8
MERGEDLAYER-1
 10
57.613230
 20
1.967971
 30
0.000000
  0
VERTEX
  8
MERGEDLAYER-1
 10
60.875582
 20
1.967971
 30
0.000000
  0
VERTEX
  8
MERGEDLAYER-1
 10
60.875582
 20
0.076923
 30
0.000000
  0
VERTEX
  8
MERGEDLAYER-1
 10
57.613230
 20
0.076923
 30
0.000000
  0
SEQEND
  8
MERGEDLAYER-1
  0
TEXT
  8
MERGEDLAYER-1
 62
  7
 10
57.230769
 20
2.081872
 30
0.000000
 40
0.807692
  1
PAR:
 72
  5
 11
60.076923
 21
2.081872
 31
0.000000
  0
TEXT
  8
MERGEDLAYER-1
 62
  7
 10
61.923077
 20
44.620333
 30
0.000000
 40
0.807692
  1
NOTES
 72
  5
 11
66.000000
 21
44.620333
 31
0.000000
  0
TEXT
  8
MERGEDLAYER-1
 62
  7
 10
61.923077
 20
49.697256
 30
0.000000
 40
0.807692
  1
CAPOT
 72
  5
 11
66.076923
 21
49.697256
 31
0.000000
  0
POLYLINE
  8
MERGEDLAYER-1
 66
  1
 70
  0
 62
  7
 10
60.875582
 20
51.848877
 30
0.000000
  0
VERTEX
  8
MERGEDLAYER-1
 10
60.875582
 20
51.848877
 30
0.000000
  0
VERTEX
  8
MERGEDLAYER-1
 10
85.060077
 20
51.848877
 30
0.000000
  0
SEQEND
  8
MERGEDLAYER-1
  0
POLYLINE
  8
MERGEDLAYER-1
 66
  1
 70
  0
 62
  7
 10
60.877127
 20
46.666936
 30
0.000000
  0
VERTEX
  8
MERGEDLAYER-1
 10
60.877127
 20
46.666936
 30
0.000000
  0
VERTEX
  8
MERGEDLAYER-1
 10
85.063045
 20
46.666382
 30
0.000000
  0
SEQEND
  8
MERGEDLAYER-1
  0
POLYLINE
  8
MERGEDLAYER-1
 66
  1
 70
  0
 62
  7
 10
60.875582
 20
10.239666
 30
0.000000
  0
VERTEX
  8
MERGEDLAYER-1
 10
60.875582
 20
10.239666
 30
0.000000
  0
VERTEX
  8
MERGEDLAYER-1
 10
85.060077
 20
10.239666
 30
0.000000
  0
SEQEND
  8
MERGEDLAYER-1
  0
TEXT
  8
MERGEDLAYER-1
 62
  7
 10
61.615385
 20
48.466487
 30
0.000000
 40
0.807692
  1
CïTƒS:
 72
  5
 11
66.000000
 21
48.466487
 31
0.000000
  0
POLYLINE
  8
MERGEDLAYER-1
 66
  1
 70
  1
 62
  7
  0
VERTEX
  8
MERGEDLAYER-1
 10
66.270667
 20
49.205294
 30
0.000000
  0
VERTEX
  8
MERGEDLAYER-1
 10
67.083135
 20
49.205294
 30
0.000000
  0
VERTEX
  8
MERGEDLAYER-1
 10
67.083135
 20
48.392794
 30
0.000000
  0
VERTEX
  8
MERGEDLAYER-1
 10
66.270667
 20
48.392794
 30
0.000000
  0
SEQEND
  8
MERGEDLAYER-1
  0
TEXT
  8
MERGEDLAYER-1
 62
  7
 10
67.615385
 20
48.466487
 30
0.000000
 40
0.807692
  1
2 ,
 72
  5
 11
69.230769
 21
48.466487
 31
0.000000
  0
POLYLINE
  8
MERGEDLAYER-1
 66
  1
 70
  1
 62
  7
  0
VERTEX
  8
MERGEDLAYER-1
 10
69.415983
 20
49.205294
 30
0.000000
  0
VERTEX
  8
MERGEDLAYER-1
 10
70.228450
 20
49.205294
 30
0.000000
  0
VERTEX
  8
MERGEDLAYER-1
 10
70.228450
 20
48.392794
 30
0.000000
  0
VERTEX
  8
MERGEDLAYER-1
 10
69.415983
 20
48.392794
 30
0.000000
  0
SEQEND
  8
MERGEDLAYER-1
  0
TEXT
  8
MERGEDLAYER-1
 62
  7
 10
70.692308
 20
48.466487
 30
0.000000
 40
0.807692
  1
3 ,
 72
  5
 11
72.307692
 21
48.466487
 31
0.000000
  0
POLYLINE
  8
MERGEDLAYER-1
 66
  1
 70
  1
 62
  7
  0
VERTEX
  8
MERGEDLAYER-1
 10
72.518850
 20
49.205294
 30
0.000000
  0
VERTEX
  8
MERGEDLAYER-1
 10
73.331322
 20
49.205294
 30
0.000000
  0
VERTEX
  8
MERGEDLAYER-1
 10
73.331322
 20
48.392794
 30
0.000000
  0
VERTEX
  8
MERGEDLAYER-1
 10
72.518850
 20
48.392794
 30
0.000000
  0
SEQEND
  8
MERGEDLAYER-1
  0
TEXT
  8
MERGEDLAYER-1
 62
  7
 10
73.846154
 20
48.466487
 30
0.000000
 40
0.807692
  1
4 ,
 72
  5
 11
75.461538
 21
48.466487
 31
0.000000
  0
POLYLINE
  8
MERGEDLAYER-1
 66
  1
 70
  1
 62
  7
  0
VERTEX
  8
MERGEDLAYER-1
 10
75.674748
 20
49.211717
 30
0.000000
  0
VERTEX
  8
MERGEDLAYER-1
 10
76.487248
 20
49.211717
 30
0.000000
  0
VERTEX
  8
MERGEDLAYER-1
 10
76.487248
 20
48.399217
 30
0.000000
  0
VERTEX
  8
MERGEDLAYER-1
 10
75.674748
 20
48.399217
 30
0.000000
  0
SEQEND
  8
MERGEDLAYER-1
  0
TEXT
  8
MERGEDLAYER-1
 62
  7
 10
77.000000
 20
48.466487
 30
0.000000
 40
0.807692
  1
FACIA
 72
  5
 11
80.538462
 21
48.466487
 31
0.000000
  0
TEXT
  8
MERGEDLAYER-1
 62
  7
 10
80.538462
 20
48.466487
 30
0.000000
 40
0.634615
  1
 (1 CïTƒ)
 72
  5
 11
84.538462
 21
48.466487
 31
0.000000
  0
POLYLINE
  8
MERGEDLAYER-1
 66
  1
 70
  1
 62
  7
  0
VERTEX
  8
MERGEDLAYER-1
 10
66.270667
 20
47.990756
 30
0.000000
  0
VERTEX
  8
MERGEDLAYER-1
 10
67.083167
 20
47.990756
 30
0.000000
  0
VERTEX
  8
MERGEDLAYER-1
 10
67.083167
 20
47.178256
 30
0.000000
  0
VERTEX
  8
MERGEDLAYER-1
 10
66.270667
 20
47.178256
 30
0.000000
  0
SEQEND
  8
MERGEDLAYER-1
  0
TEXT
  8
MERGEDLAYER-1
 62
  7
 10
67.538462
 20
47.235718
 30
0.000000
 40
0.807692
  1
EMBOUTS
 72
  5
 11
73.230769
 21
47.235718
 31
0.000000
  0
TEXT
  8
MERGEDLAYER-1
 62
  7
 10
77.000000
 20
47.235718
 30
0.000000
 40
0.807692
  1
AUCUN 
 72
  5
 11
81.461538
 21
47.235718
 31
0.000000
  0
POLYLINE
  8
MERGEDLAYER-1
 66
  1
 70
  1
 62
  7
  0
VERTEX
  8
MERGEDLAYER-1
 10
75.674748
 20
47.990788
 30
0.000000
  0
VERTEX
  8
MERGEDLAYER-1
 10
76.487248
 20
47.990788
 30
0.000000
  0
VERTEX
  8
MERGEDLAYER-1
 10
76.487248
 20
47.178288
 30
0.000000
  0
VERTEX
  8
MERGEDLAYER-1
 10
75.674748
 20
47.178288
 30
0.000000
  0
SEQEND
  8
MERGEDLAYER-1
  0
TEXT
  8
MERGEDLAYER-1
 62
  7
 10
61.692308
 20
10.697256
 30
0.000000
 40
0.807692
  1
DATE D'EXPƒDITION:
 72
  5
 11
73.153846
 21
10.697256
 31
0.000000
  0
POLYLINE
  8
MERGEDLAYER-1
 66
  1
 70
  0
 62
  7
 10
68.323331
 20
23.489356
 30
0.000000
  0
VERTEX
  8
MERGEDLAYER-1
 10
68.323331
 20
23.489356
 30
0.000000
  0
VERTEX
  8
MERGEDLAYER-1
 10
85.057692
 20
23.487338
 30
0.000000
  0
SEQEND
  8
MERGEDLAYER-1
  0
POLYLINE
  8
MERGEDLAYER-1
 66
  1
 70
  0
 62
  7
 10
68.323331
 20
21.282325
 30
0.000000
  0
VERTEX
  8
MERGEDLAYER-1
 10
68.323331
 20
21.282325
 30
0.000000
  0
VERTEX
  8
MERGEDLAYER-1
 10
85.057692
 20
21.280306
 30
0.000000
  0
SEQEND
  8
MERGEDLAYER-1
  0
POLYLINE
  8
MERGEDLAYER-1
 66
  1
 70
  0
 62
  7
 10
68.323331
 20
19.075294
 30
0.000000
  0
VERTEX
  8
MERGEDLAYER-1
 10
68.323331
 20
19.075294
 30
0.000000
  0
VERTEX
  8
MERGEDLAYER-1
 10
85.057692
 20
19.073275
 30
0.000000
  0
SEQEND
  8
MERGEDLAYER-1
  0
POLYLINE
  8
MERGEDLAYER-1
 66
  1
 70
  0
 62
  7
 10
68.323331
 20
16.868263
 30
0.000000
  0
VERTEX
  8
MERGEDLAYER-1
 10
68.323331
 20
16.868263
 30
0.000000
  0
VERTEX
  8
MERGEDLAYER-1
 10
85.057692
 20
16.866244
 30
0.000000
  0
SEQEND
  8
MERGEDLAYER-1
  0
POLYLINE
  8
MERGEDLAYER-1
 66
  1
 70
  0
 62
  7
 10
68.323331
 20
14.661231
 30
0.000000
  0
VERTEX
  8
MERGEDLAYER-1
 10
68.323331
 20
14.661231
 30
0.000000
  0
VERTEX
  8
MERGEDLAYER-1
 10
85.057692
 20
14.659213
 30
0.000000
  0
SEQEND
  8
MERGEDLAYER-1
  0
POLYLINE
  8
MERGEDLAYER-1
 66
  1
 70
  0
 62
  7
 10
65.376897
 20
12.454195
 30
0.000000
  0
VERTEX
  8
MERGEDLAYER-1
 10
65.376897
 20
12.454195
 30
0.000000
  0
VERTEX
  8
MERGEDLAYER-1
 10
74.940941
 20
12.439007
 30
0.000000
  0
SEQEND
  8
MERGEDLAYER-1
  0
POLYLINE
  8
MERGEDLAYER-1
 66
  1
 70
  0
 62
  7
 10
78.173086
 20
12.456867
 30
0.000000
  0
VERTEX
  8
MERGEDLAYER-1
 10
78.173086
 20
12.456867
 30
0.000000
  0
VERTEX
  8
MERGEDLAYER-1
 10
85.057692
 20
12.452181
 30
0.000000
  0
SEQEND
  8
MERGEDLAYER-1
  0
TEXT
  8
MERGEDLAYER-1
 62
  7
 10
61.692308
 20
28.312641
 30
0.000000
 40
0.807692
  1
SIGNATURE DU CLIENT
 72
  5
 11
74.461538
 21
28.312641
 31
0.000000
  0
POLYLINE
  8
MERGEDLAYER-1
 66
  1
 70
  0
 62
  7
 10
61.704327
 20
29.506033
 30
0.000000
  0
VERTEX
  8
MERGEDLAYER-1
 10
61.704327
 20
29.506033
 30
0.000000
  0
VERTEX
  8
MERGEDLAYER-1
 10
74.364699
 20
29.506033
 30
0.000000
  0
SEQEND
  8
MERGEDLAYER-1
  0
TEXT
  8
MERGEDLAYER-1
 62
  7
 10
61.692308
 20
29.928025
 30
0.000000
 40
0.750000
  1
x
 72
  5
 11
62.692308
 21
29.928025
 31
0.000000
  0
POLYLINE
  8
MERGEDLAYER-1
 66
  1
 70
  0
 62
  7
 10
60.875582
 20
31.831872
 30
0.000000
  0
VERTEX
  8
MERGEDLAYER-1
 10
60.875582
 20
31.831872
 30
0.000000
  0
VERTEX
  8
MERGEDLAYER-1
 10
85.060077
 20
31.831872
 30
0.000000
  0
SEQEND
  8
MERGEDLAYER-1
  0
TEXT
  8
MERGEDLAYER-1
 62
  7
 10
75.692308
 20
28.312641
 30
0.000000
 40
0.807692
  1
DATE CHANTIER
 72
  5
 11
84.846154
 21
28.312641
 31
0.000000
  0
POLYLINE
  8
MERGEDLAYER-1
 66
  1
 70
  0
 62
  7
 10
75.787006
 20
29.512428
 30
0.000000
  0
VERTEX
  8
MERGEDLAYER-1
 10
75.787006
 20
29.512428
 30
0.000000
  0
VERTEX
  8
MERGEDLAYER-1
 10
85.060077
 20
29.512428
 30
0.000000
  0
SEQEND
  8
MERGEDLAYER-1
  0
POLYLINE
  8
MERGEDLAYER-1
 66
  1
 70
  1
 62
  7
  0
VERTEX
  8
MERGEDLAYER-1
 10
36.731307
 20
63.934866
 30
0.000000
  0
VERTEX
  8
MERGEDLAYER-1
 10
55.315317
 20
63.934866
 30
0.000000
  0
VERTEX
  8
MERGEDLAYER-1
 10
55.315317
 20
63.458628
 30
0.000000
  0
VERTEX
  8
MERGEDLAYER-1
 10
36.731307
 20
63.458628
 30
0.000000
  0
SEQEND
  8
MERGEDLAYER-1
  0
TEXT
  8
MERGEDLAYER-1
 62
  7
 10
26.000000
 20
1.851102
 30
0.000000
 40
0.980769
  1
VUE EN PLAN
 72
  5
 11
34.923077
 21
1.851102
 31
0.000000
  0
TEXT
  8
MERGEDLAYER-1
 62
  7
 10
21.769231
 20
21.774179
 30
0.000000
 40
0.750000
  1
LARGEUR TOTALE AVEC GUIDES "W"
 72
  5
 11
40.230769
 21
21.774179
 31
0.000000
  0
LINE
  8
MERGEDLAYER-1
 62
  7
 10
11.620647
 20
24.824961
 30
0.000000
 11
49.263968
 21
24.824961
 31
0.000000
  0
LINE
  8
MERGEDLAYER-1
 62
  7
 10
11.600962
 20
19.269372
 30
0.000000
 11
11.600962
 21
25.824961
 31
0.000000
  0
LINE
  8
MERGEDLAYER-1
 62
  7
 10
49.283654
 20
19.235718
 30
0.000000
 11
49.283654
 21
25.824961
 31
0.000000
  0
POLYLINE
  8
MERGEDLAYER-1
 66
  1
 70
  1
 62
  7
  0
VERTEX
  8
MERGEDLAYER-1
 10
11.600962
 20
24.824961
 30
0.000000
  0
VERTEX
  8
MERGEDLAYER-1
 10
11.985578
 20
24.594196
 30
0.000000
  0
VERTEX
  8
MERGEDLAYER-1
 10
11.985577
 20
24.824965
 30
0.000000
  0
VERTEX
  8
MERGEDLAYER-1
 10
11.985576
 20
25.055734
 30
0.000000
  0
VERTEX
  8
MERGEDLAYER-1
 10
11.600962
 20
24.824961
 30
0.000000
  0
SEQEND
  8
MERGEDLAYER-1
  0
POLYLINE
  8
MERGEDLAYER-1
 66
  1
 70
  1
 62
  7
  0
VERTEX
  8
MERGEDLAYER-1
 10
49.283654
 20
24.824961
 30
0.000000
  0
VERTEX
  8
MERGEDLAYER-1
 10
48.899038
 20
24.594187
 30
0.000000
  0
VERTEX
  8
MERGEDLAYER-1
 10
48.899038
 20
24.824956
 30
0.000000
  0
VERTEX
  8
MERGEDLAYER-1
 10
48.899038
 20
25.055725
 30
0.000000
  0
VERTEX
  8
MERGEDLAYER-1
 10
49.283654
 20
24.824961
 30
0.000000
  0
SEQEND
  8
MERGEDLAYER-1
  0
TEXT
  8
MERGEDLAYER-1
 62
  7
 10
30.403393
 20
25.648799
 30
0.000000
 40
0.576923
  1
 
  0
POLYLINE
  8
MERGEDLAYER-1
 66
  1
 70
  1
 62
  7
  0
VERTEX
  8
MERGEDLAYER-1
 10
21.841189
 20
26.451637
 30
0.000000
  0
VERTEX
  8
MERGEDLAYER-1
 10
27.364396
 20
26.451637
 30
0.000000
  0
VERTEX
  8
MERGEDLAYER-1
 10
27.364396
 20
23.219036
 30
0.000000
  0
VERTEX
  8
MERGEDLAYER-1
 10
21.841189
 20
23.219036
 30
0.000000
  0
SEQEND
  8
MERGEDLAYER-1
  0
POLYLINE
  8
MERGEDLAYER-1
 66
  1
 70
  0
 62
  7
 40
0.230769
 41
0.230769
 10
27.328531
 20
23.421072
 30
0.000000
  0
VERTEX
  8
MERGEDLAYER-1
 10
27.328531
 20
23.421072
 30
0.000000
  0
VERTEX
  8
MERGEDLAYER-1
 10
21.841189
 20
23.421072
 30
0.000000
  0
SEQEND
  8
MERGEDLAYER-1
  0
POLYLINE
  8
MERGEDLAYER-1
 66
  1
 70
  1
 62
  7
  0
VERTEX
  8
MERGEDLAYER-1
 10
27.641282
 20
26.451637
 30
0.000000
  0
VERTEX
  8
MERGEDLAYER-1
 10
33.164417
 20
26.451637
 30
0.000000
  0
VERTEX
  8
MERGEDLAYER-1
 10
33.164417
 20
23.219036
 30
0.000000
  0
VERTEX
  8
MERGEDLAYER-1
 10
27.641282
 20
23.219036
 30
0.000000
  0
SEQEND
  8
MERGEDLAYER-1
  0
POLYLINE
  8
MERGEDLAYER-1
 66
  1
 70
  0
 62
  7
 40
0.230769
 41
0.230769
 10
33.128552
 20
23.421072
 30
0.000000
  0
VERTEX
  8
MERGEDLAYER-1
 10
33.128552
 20
23.421072
 30
0.000000
  0
VERTEX
  8
MERGEDLAYER-1
 10
27.641282
 20
23.421072
 30
0.000000
  0
SEQEND
  8
MERGEDLAYER-1
  0
POLYLINE
  8
MERGEDLAYER-1
 66
  1
 70
  1
 62
  7
  0
VERTEX
  8
MERGEDLAYER-1
 10
33.441364
 20
26.451637
 30
0.000000
  0
VERTEX
  8
MERGEDLAYER-1
 10
38.964510
 20
26.451637
 30
0.000000
  0
VERTEX
  8
MERGEDLAYER-1
 10
38.964510
 20
23.219036
 30
0.000000
  0
VERTEX
  8
MERGEDLAYER-1
 10
33.441364
 20
23.219036
 30
0.000000
  0
SEQEND
  8
MERGEDLAYER-1
  0
POLYLINE
  8
MERGEDLAYER-1
 66
  1
 70
  0
 62
  7
 40
0.230769
 41
0.230769
 10
38.928645
 20
23.421072
 30
0.000000
  0
VERTEX
  8
MERGEDLAYER-1
 10
38.928645
 20
23.421072
 30
0.000000
  0
VERTEX
  8
MERGEDLAYER-1
 10
33.441364
 20
23.421072
 30
0.000000
  0
SEQEND
  8
MERGEDLAYER-1
  0
TEXT
  8
MERGEDLAYER-1
 62
  7
 10
27.615385
 20
26.620333
 30
0.000000
 40
0.461538
  1
"W" AU CENTRE:
 72
  5
 11
32.923077
 21
26.620333
 31
0.000000
  0
TEXT
  8
MERGEDLAYER-1
 62
  7
 10
21.692308
 20
26.620333
 30
0.000000
 40
0.461538
  1
"W" EN HAUT:
 72
  5
 11
26.153846
 21
26.620333
 31
0.000000
  0
LINE
  8
MERGEDLAYER-1
 62
  7
 10
56.699069
 20
43.058096
 30
0.000000
 11
56.699069
 21
52.792955
 31
0.000000
  0
LINE
  8
MERGEDLAYER-1
 62
  7
 10
50.698026
 20
43.038405
 30
0.000000
 11
57.699069
 21
43.038405
 31
0.000000
  0
LINE
  8
MERGEDLAYER-1
 62
  7
 10
50.000000
 20
52.812641
 30
0.000000
 11
57.699069
 21
52.812641
 31
0.000000
  0
POLYLINE
  8
MERGEDLAYER-1
 66
  1
 70
  1
 62
  7
  0
VERTEX
  8
MERGEDLAYER-1
 10
56.699069
 20
43.038405
 30
0.000000
  0
VERTEX
  8
MERGEDLAYER-1
 10
56.929838
 20
43.423021
 30
0.000000
  0
VERTEX
  8
MERGEDLAYER-1
 10
56.699069
 20
43.423021
 30
0.000000
  0
VERTEX
  8
MERGEDLAYER-1
 10
56.468299
 20
43.423021
 30
0.000000
  0
VERTEX
  8
MERGEDLAYER-1
 10
56.699069
 20
43.038405
 30
0.000000
  0
SEQEND
  8
MERGEDLAYER-1
  0
POLYLINE
  8
MERGEDLAYER-1
 66
  1
 70
  1
 62
  7
  0
VERTEX
  8
MERGEDLAYER-1
 10
56.699069
 20
52.812641
 30
0.000000
  0
VERTEX
  8
MERGEDLAYER-1
 10
56.929838
 20
52.428025
 30
0.000000
  0
VERTEX
  8
MERGEDLAYER-1
 10
56.699069
 20
52.428025
 30
0.000000
  0
VERTEX
  8
MERGEDLAYER-1
 10
56.468299
 20
52.428025
 30
0.000000
  0
VERTEX
  8
MERGEDLAYER-1
 10
56.699069
 20
52.812641
 30
0.000000
  0
SEQEND
  8
MERGEDLAYER-1
  0
TEXT
  8
MERGEDLAYER-1
 62
  7
 10
56.173185
 20
51.673854
 30
0.000000
 40
0.346154
  1
 
 50
90.000000
  0
POLYLINE
  8
MERGEDLAYER-1
 66
  1
 70
  1
 62
  7
  0
VERTEX
  8
MERGEDLAYER-1
 10
1.153894
 20
63.934866
 30
0.000000
  0
VERTEX
  8
MERGEDLAYER-1
 10
33.997711
 20
63.934866
 30
0.000000
  0
VERTEX
  8
MERGEDLAYER-1
 10
33.997711
 20
63.458628
 30
0.000000
  0
VERTEX
  8
MERGEDLAYER-1
 10
1.153894
 20
63.458628
 30
0.000000
  0
SEQEND
  8
MERGEDLAYER-1
  0
POLYLINE
  8
MERGEDLAYER-1
 66
  1
 70
  1
 62
  7
  0
VERTEX
  8
MERGEDLAYER-1
 10
47.560650
 20
54.230572
 30
0.000000
  0
VERTEX
  8
MERGEDLAYER-1
 10
47.695266
 20
54.230572
 30
0.000000
  0
VERTEX
  8
MERGEDLAYER-1
 10
47.695266
 20
53.817073
 30
0.000000
  0
VERTEX
  8
MERGEDLAYER-1
 10
47.560650
 20
53.817073
 30
0.000000
  0
SEQEND
  8
MERGEDLAYER-1
  0
TEXT
  8
MERGEDLAYER-1
 62
  7
 10
16.615385
 20
21.928025
 30
0.000000
 40
0.576923
  1
GUIDE
 72
  5
 11
19.461538
 21
21.928025
 31
0.000000
  0
TEXT
  8
MERGEDLAYER-1
 62
  7
 10
16.615385
 20
21.081872
 30
0.000000
 40
0.576923
  1
D'ALUMINIUM
 72
  5
 11
22.000000
 21
21.081872
 31
0.000000
  0
POLYLINE
  8
MERGEDLAYER-1
 66
  1
 70
  0
 62
  7
 10
49.263977
 20
20.532832
 30
0.000000
  0
VERTEX
  8
MERGEDLAYER-1
 10
49.263977
 20
20.532832
 30
0.000000
  0
VERTEX
  8
MERGEDLAYER-1
 10
46.553190
 20
20.532832
 30
0.000000
  0
SEQEND
  8
MERGEDLAYER-1
  0
POLYLINE
  8
MERGEDLAYER-1
 66
  1
 70
  1
 62
  7
  0
VERTEX
  8
MERGEDLAYER-1
 10
49.283659
 20
20.532832
 30
0.000000
  0
VERTEX
  8
MERGEDLAYER-1
 10
48.899043
 20
20.763601
 30
0.000000
  0
VERTEX
  8
MERGEDLAYER-1
 10
48.899043
 20
20.532832
 30
0.000000
  0
VERTEX
  8
MERGEDLAYER-1
 10
48.899043
 20
20.302063
 30
0.000000
  0
VERTEX
  8
MERGEDLAYER-1
 10
49.283659
 20
20.532832
 30
0.000000
  0
SEQEND
  8
MERGEDLAYER-1
  0
POLYLINE
  8
MERGEDLAYER-1
 66
  1
 70
  1
 62
  7
  0
VERTEX
  8
MERGEDLAYER-1
 10
46.533508
 20
20.532832
 30
0.000000
  0
VERTEX
  8
MERGEDLAYER-1
 10
46.918124
 20
20.763601
 30
0.000000
  0
VERTEX
  8
MERGEDLAYER-1
 10
46.918124
 20
20.532832
 30
0.000000
  0
VERTEX
  8
MERGEDLAYER-1
 10
46.918124
 20
20.302063
 30
0.000000
  0
VERTEX
  8
MERGEDLAYER-1
 10
46.533508
 20
20.532832
 30
0.000000
  0
SEQEND
  8
MERGEDLAYER-1
  0
POLYLINE
  8
MERGEDLAYER-1
 66
  1
 70
  0
 62
  7
 10
51.066721
 20
20.532832
 30
0.000000
  0
VERTEX
  8
MERGEDLAYER-1
 10
51.066721
 20
20.532832
 30
0.000000
  0
VERTEX
  8
MERGEDLAYER-1
 10
49.283659
 20
20.532832
 30
0.000000
  0
SEQEND
  8
MERGEDLAYER-1
  0
POLYLINE
  8
MERGEDLAYER-1
 66
  1
 70
  0
 62
  7
 10
46.533508
 20
21.828947
 30
0.000000
  0
VERTEX
  8
MERGEDLAYER-1
 10
46.533508
 20
21.828947
 30
0.000000
  0
VERTEX
  8
MERGEDLAYER-1
 10
46.533508
 20
18.790645
 30
0.000000
  0
SEQEND
  8
MERGEDLAYER-1
  0
TEXT
  8
MERGEDLAYER-1
 62
  7
 10
48.000000
 20
58.774179
 30
0.000000
 40
0.807692
  1
"X"
 72
  5
 11
49.846154
 21
58.774179
 31
0.000000
  0
TEXT
  8
MERGEDLAYER-1
 62
  7
 10
41.692308
 20
55.081872
 30
0.000000
 40
0.807692
  1
"Y"
 50
90.000000
 72
  5
 11
41.692308
 21
56.928025
 31
0.000000
  0
POLYLINE
  8
MERGEDLAYER-1
 66
  1
 70
  1
 62
  7
  0
VERTEX
  8
MERGEDLAYER-1
 10
47.690444
 20
54.628742
 30
0.000000
  0
VERTEX
  8
MERGEDLAYER-1
 10
48.091703
 20
54.628742
 30
0.000000
  0
VERTEX
  8
MERGEDLAYER-1
 10
48.091703
 20
43.044250
 30
0.000000
  0
VERTEX
  8
MERGEDLAYER-1
 10
47.690444
 20
43.044250
 30
0.000000
  0
SEQEND
  8
MERGEDLAYER-1
  0
POLYLINE
  8
MERGEDLAYER-1
  6
LTYPE02
 66
  1
 70
  0
 62
  7
  6
LTYPE02
 10
47.893926
 20
54.622483
 30
0.000000
  0
VERTEX
  8
MERGEDLAYER-1
  6
LTYPE02
 10
47.893926
 20
54.622483
 30
0.000000
  0
VERTEX
  8
MERGEDLAYER-1
  6
LTYPE02
 10
47.895710
 20
43.376254
 30
0.000000
  0
SEQEND
  8
MERGEDLAYER-1
  0
TEXT
  8
MERGEDLAYER-1
 62
  7
 10
59.384615
 20
43.774179
 30
0.000000
 40
0.634615
  1
HAUTEUR PLAFOND
 50
90.000000
 72
  5
 11
59.384615
 21
51.774179
 31
0.000000
  0
TEXT
  8
MERGEDLAYER-1
 62
  7
 10
44.846154
 20
44.004949
 30
0.000000
 40
0.750000
  1
HAUTEUR SOUS
 50
90.000000
 72
  5
 11
44.846154
 21
52.235718
 31
0.000000
  0
TEXT
  8
MERGEDLAYER-1
 62
  7
 10
46.000000
 20
45.004949
 30
0.000000
 40
0.750000
  1
PLAQUE "H"
 50
90.000000
 72
  5
 11
46.000000
 21
51.235718
 31
0.000000
  0
LINE
  8
MERGEDLAYER-1
 62
  7
 10
42.501202
 20
43.063937
 30
0.000000
 11
42.501202
 21
54.609056
 31
0.000000
  0
LINE
  8
MERGEDLAYER-1
 62
  7
 10
47.190444
 20
43.044250
 30
0.000000
 11
41.501202
 21
43.044250
 31
0.000000
  0
LINE
  8
MERGEDLAYER-1
 62
  7
 10
47.190444
 20
54.628742
 30
0.000000
 11
41.501202
 21
54.628742
 31
0.000000
  0
POLYLINE
  8
MERGEDLAYER-1
 66
  1
 70
  1
 62
  7
  0
VERTEX
  8
MERGEDLAYER-1
 10
42.501202
 20
43.044250
 30
0.000000
  0
VERTEX
  8
MERGEDLAYER-1
 10
42.731971
 20
43.428866
 30
0.000000
  0
VERTEX
  8
MERGEDLAYER-1
 10
42.501202
 20
43.428866
 30
0.000000
  0
VERTEX
  8
MERGEDLAYER-1
 10
42.270433
 20
43.428866
 30
0.000000
  0
VERTEX
  8
MERGEDLAYER-1
 10
42.501202
 20
43.044250
 30
0.000000
  0
SEQEND
  8
MERGEDLAYER-1
  0
POLYLINE
  8
MERGEDLAYER-1
 66
  1
 70
  1
 62
  7
  0
VERTEX
  8
MERGEDLAYER-1
 10
42.501202
 20
54.628742
 30
0.000000
  0
VERTEX
  8
MERGEDLAYER-1
 10
42.731971
 20
54.244127
 30
0.000000
  0
VERTEX
  8
MERGEDLAYER-1
 10
42.501202
 20
54.244127
 30
0.000000
  0
VERTEX
  8
MERGEDLAYER-1
 10
42.270433
 20
54.244127
 30
0.000000
  0
VERTEX
  8
MERGEDLAYER-1
 10
42.501202
 20
54.628742
 30
0.000000
  0
SEQEND
  8
MERGEDLAYER-1
  0
TEXT
  8
MERGEDLAYER-1
 62
  7
 10
42.486070
 20
48.806280
 30
0.000000
 40
0.692308
  1
 
  0
POLYLINE
  8
MERGEDLAYER-1
 66
  1
 70
  1
 62
  7
  0
VERTEX
  8
MERGEDLAYER-1
 10
40.477976
 20
44.593910
 30
0.000000
  0
VERTEX
  8
MERGEDLAYER-1
 10
40.477976
 20
51.378995
 30
0.000000
  0
VERTEX
  8
MERGEDLAYER-1
 10
43.710064
 20
51.378995
 30
0.000000
  0
VERTEX
  8
MERGEDLAYER-1
 10
43.710064
 20
44.593910
 30
0.000000
  0
SEQEND
  8
MERGEDLAYER-1
  0
POLYLINE
  8
MERGEDLAYER-1
 66
  1
 70
  0
 62
  7
 40
0.230769
 41
0.230769
 10
43.508033
 20
51.334942
 30
0.000000
  0
VERTEX
  8
MERGEDLAYER-1
 10
43.508033
 20
51.334942
 30
0.000000
  0
VERTEX
  8
MERGEDLAYER-1
 10
43.508033
 20
44.593910
 30
0.000000
  0
SEQEND
  8
MERGEDLAYER-1
  0
POLYLINE
  8
MERGEDLAYER-1
 66
  1
 70
  1
 62
255
  0
VERTEX
  8
MERGEDLAYER-1
 10
0.860584
 20
40.894907
 30
0.000000
  0
VERTEX
  8
MERGEDLAYER-1
 10
5.178047
 20
40.894907
 30
0.000000
  0
VERTEX
  8
MERGEDLAYER-1
 10
5.178047
 20
38.337646
 30
0.000000
  0
VERTEX
  8
MERGEDLAYER-1
 10
0.860584
 20
38.337646
 30
0.000000
  0
SEQEND
  8
MERGEDLAYER-1
  0
POLYLINE
  8
MERGEDLAYER-1
 66
  1
 70
  0
 62
  7
 10
52.180209
 20
28.424654
 30
0.000000
  0
VERTEX
  8
MERGEDLAYER-1
 10
52.180209
 20
28.424654
 30
0.000000
  0
VERTEX
  8
MERGEDLAYER-1
 10
8.846426
 20
28.424654
 30
0.000000
  0
SEQEND
  8
MERGEDLAYER-1
  0
POLYLINE
  8
MERGEDLAYER-1
 66
  1
 70
  0
 62
  7
 10
10.223078
 20
6.631869
 30
0.000000
  0
VERTEX
  8
MERGEDLAYER-1
 10
10.223078
 20
6.631869
 30
0.000000
  0
VERTEX
  8
MERGEDLAYER-1
 10
50.073078
 20
6.631869
 30
0.000000
  0
SEQEND
  8
MERGEDLAYER-1
  0
POLYLINE
  8
MERGEDLAYER-1
 66
  1
 70
  0
 62
  7
 10
16.536895
 20
8.279179
 30
0.000000
  0
VERTEX
  8
MERGEDLAYER-1
 10
16.536895
 20
8.279179
 30
0.000000
  0
VERTEX
  8
MERGEDLAYER-1
 10
15.402566
 20
6.712064
 30
0.000000
  0
SEQEND
  8
MERGEDLAYER-1
  0
POLYLINE
  8
MERGEDLAYER-1
 66
  1
 70
  1
 62
  7
  0
VERTEX
  8
MERGEDLAYER-1
 10
15.391024
 20
6.696115
 30
0.000000
  0
VERTEX
  8
MERGEDLAYER-1
 10
15.429603
 20
7.142987
 30
0.000000
  0
VERTEX
  8
MERGEDLAYER-1
 10
15.616541
 20
7.007676
 30
0.000000
  0
VERTEX
  8
MERGEDLAYER-1
 10
15.803479
 20
6.872366
 30
0.000000
  0
VERTEX
  8
MERGEDLAYER-1
 10
15.391024
 20
6.696115
 30
0.000000
  0
SEQEND
  8
MERGEDLAYER-1
  0
TEXT
  8
MERGEDLAYER-1
 62
  7
 10
14.230769
 20
36.851102
 30
0.000000
 40
0.750000
  1
( INTƒRIEUR )
 72
  5
 11
21.000000
 21
36.851102
 31
0.000000
  0
POLYLINE
  8
MERGEDLAYER-1
 66
  1
 70
  0
 62
  7
 40
0.153846
 41
0.153846
 10
1.063306
 20
38.082240
 30
0.000000
  0
VERTEX
  8
MERGEDLAYER-1
 10
1.063306
 20
38.082240
 30
0.000000
  0
VERTEX
  8
MERGEDLAYER-1
 10
33.906285
 20
38.071935
 30
0.000000
  0
SEQEND
  8
MERGEDLAYER-1
  0
TEXT
  8
MERGEDLAYER-1
 62
  7
 10
0.923077
 20
40.158795
 30
0.000000
 40
0.576923
  1
*COMPTOIR
 72
  5
 11
5.769231
 21
40.158795
 31
0.000000
  0
TEXT
  8
MERGEDLAYER-1
 62
  7
 10
0.923077
 20
39.312641
 30
0.000000
 40
0.576923
  1
 DOIT æTRE
 72
  5
 11
5.692308
 21
39.312641
 31
0.000000
  0
TEXT
  8
MERGEDLAYER-1
 62
  7
 10
0.923077
 20
38.466487
 30
0.000000
 40
0.576923
  1
 DE NIVEAU
 72
  5
 11
5.769231
 21
38.466487
 31
0.000000
  0
POLYLINE
  8
MERGEDLAYER-1
 66
  1
 70
  0
 62
  7
 40
0.153846
 41
0.153846
 10
53.969501
 20
38.055272
 30
0.000000
  0
VERTEX
  8
MERGEDLAYER-1
 10
53.969501
 20
38.055272
 30
0.000000
  0
VERTEX
  8
MERGEDLAYER-1
 10
40.927359
 20
38.071937
 30
0.000000
  0
SEQEND
  8
MERGEDLAYER-1
  0
TEXT
  8
MERGEDLAYER-1
 62
  7
 10
10.769231
 20
35.235718
 30
0.000000
 40
0.807692
  1
ƒLƒVATION CïTƒ BARIL
 72
  5
 11
24.230769
 21
35.235718
 31
0.000000
  0
TEXT
  8
MERGEDLAYER-1
 62
  7
 10
41.538462
 20
35.235718
 30
0.000000
 40
0.807692
  1
COUPE ( COMPTOIR )
 72
  5
 11
53.230769
 21
35.235718
 31
0.000000
  0
POLYLINE
  8
MERGEDLAYER-1
 66
  1
 70
  1
 62
  7
 10
48.690143
 20
38.067026
 30
0.000000
  0
VERTEX
  8
MERGEDLAYER-1
 10
48.690143
 20
38.067026
 30
0.000000
  0
VERTEX
  8
MERGEDLAYER-1
 10
48.690143
 20
42.455172
 30
0.000000
  0
VERTEX
  8
MERGEDLAYER-1
 10
50.198026
 20
42.455172
 30
0.000000
  0
VERTEX
  8
MERGEDLAYER-1
 10
50.198026
 20
43.038405
 30
0.000000
  0
VERTEX
  8
MERGEDLAYER-1
 10
44.936979
 20
43.038405
 30
0.000000
  0
VERTEX
  8
MERGEDLAYER-1
 10
44.936979
 20
42.469060
 30
0.000000
  0
VERTEX
  8
MERGEDLAYER-1
 10
46.340520
 20
42.469060
 30
0.000000
  0
VERTEX
  8
MERGEDLAYER-1
 10
46.340520
 20
38.067026
 30
0.000000
  0
SEQEND
  8
MERGEDLAYER-1
  0
TEXT
  8
MERGEDLAYER-1
 62
  7
 10
49.000000
 20
39.697256
 30
0.000000
 40
0.576923
  1
CïTƒ BARIL
 72
  5
 11
54.076923
 21
39.697256
 31
0.000000
  0
TEXT
  8
MERGEDLAYER-1
 62
  7
 10
49.000000
 20
38.466487
 30
0.000000
 40
0.576923
  1
COMMERCE OU
 72
  5
 11
55.307692
 21
38.466487
 31
0.000000
  0
TEXT
  8
MERGEDLAYER-1
 62
  7
 10
49.000000
 20
37.235718
 30
0.000000
 40
0.576923
  1
INTƒRIEUR
 72
  5
 11
53.538462
 21
37.235718
 31
0.000000
  0
TEXT
  8
MERGEDLAYER-1
 62
  7
 10
41.846154
 20
38.389564
 30
0.000000
 40
0.576923
  1
MAIL OU
 72
  5
 11
45.461538
 21
38.389564
 31
0.000000
  0
TEXT
  8
MERGEDLAYER-1
 62
  7
 10
41.846154
 20
37.158795
 30
0.000000
 40
0.576923
  1
EXTƒRIEUR
 72
  5
 11
46.692308
 21
37.158795
 31
0.000000
  0
TEXT
  8
MERGEDLAYER-1
 62
  7
 10
59.384615
 20
38.543410
 30
0.000000
 40
0.634615
  1
HAUTEUR
 50
90.000000
 72
  5
 11
59.384615
 21
42.620333
 31
0.000000
  0
TEXT
  8
MERGEDLAYER-1
 62
  7
 10
60.307692
 20
38.389564
 30
0.000000
 40
0.634615
  1
COMPTOIR
 50
90.000000
 72
  5
 11
60.307692
 21
42.774179
 31
0.000000
  0
LINE
  8
MERGEDLAYER-1
 62
  7
 10
56.720299
 20
38.077479
 30
0.000000
 11
56.720299
 21
43.018724
 31
0.000000
  0
LINE
  8
MERGEDLAYER-1
 62
  7
 10
54.460914
 20
38.057796
 30
0.000000
 11
57.720299
 21
38.057796
 31
0.000000
  0
LINE
  8
MERGEDLAYER-1
 62
  7
 10
50.698026
 20
43.038405
 30
0.000000
 11
57.720299
 21
43.038405
 31
0.000000
  0
POLYLINE
  8
MERGEDLAYER-1
 66
  1
 70
  1
 62
  7
  0
VERTEX
  8
MERGEDLAYER-1
 10
56.720299
 20
38.057796
 30
0.000000
  0
VERTEX
  8
MERGEDLAYER-1
 10
56.951069
 20
38.442411
 30
0.000000
  0
VERTEX
  8
MERGEDLAYER-1
 10
56.720299
 20
38.442411
 30
0.000000
  0
VERTEX
  8
MERGEDLAYER-1
 10
56.489530
 20
38.442411
 30
0.000000
  0
VERTEX
  8
MERGEDLAYER-1
 10
56.720299
 20
38.057796
 30
0.000000
  0
SEQEND
  8
MERGEDLAYER-1
  0
POLYLINE
  8
MERGEDLAYER-1
 66
  1
 70
  1
 62
  7
  0
VERTEX
  8
MERGEDLAYER-1
 10
56.720299
 20
43.038405
 30
0.000000
  0
VERTEX
  8
MERGEDLAYER-1
 10
56.951069
 20
42.653790
 30
0.000000
  0
VERTEX
  8
MERGEDLAYER-1
 10
56.720299
 20
42.653790
 30
0.000000
  0
VERTEX
  8
MERGEDLAYER-1
 10
56.489530
 20
42.653790
 30
0.000000
  0
VERTEX
  8
MERGEDLAYER-1
 10
56.720299
 20
43.038405
 30
0.000000
  0
SEQEND
  8
MERGEDLAYER-1
  0
TEXT
  8
MERGEDLAYER-1
 62
  7
 10
56.739192
 20
40.149999
 30
0.000000
 40
0.403846
  1
 
 50
90.000000
  0
POLYLINE
  8
MERGEDLAYER-1
 66
  1
 70
  1
 62
  7
  0
VERTEX
  8
MERGEDLAYER-1
 10
55.082186
 20
38.915161
 30
0.000000
  0
VERTEX
  8
MERGEDLAYER-1
 10
55.082186
 20
42.230797
 30
0.000000
  0
VERTEX
  8
MERGEDLAYER-1
 10
57.625709
 20
42.230797
 30
0.000000
  0
VERTEX
  8
MERGEDLAYER-1
 10
57.625709
 20
38.915161
 30
0.000000
  0
SEQEND
  8
MERGEDLAYER-1
  0
POLYLINE
  8
MERGEDLAYER-1
 66
  1
 70
  0
 62
  7
 40
0.230769
 41
0.230769
 10
57.466726
 20
42.209266
 30
0.000000
  0
VERTEX
  8
MERGEDLAYER-1
 10
57.466726
 20
42.209266
 30
0.000000
  0
VERTEX
  8
MERGEDLAYER-1
 10
57.466726
 20
38.915161
 30
0.000000
  0
SEQEND
  8
MERGEDLAYER-1
  0
POLYLINE
  8
MERGEDLAYER-1
 66
  1
 70
  0
 62
  7
 40
0.153846
 41
0.153846
 10
44.936979
 20
43.038405
 30
0.000000
  0
VERTEX
  8
MERGEDLAYER-1
 10
44.936979
 20
43.038405
 30
0.000000
  0
VERTEX
  8
MERGEDLAYER-1
 10
50.198026
 20
43.038405
 30
0.000000
  0
SEQEND
  8
MERGEDLAYER-1
  0
POLYLINE
  8
MERGEDLAYER-1
 66
  1
 70
  1
 62
  7
 10
28.557544
 20
38.076540
 30
0.000000
  0
VERTEX
  8
MERGEDLAYER-1
 10
28.557544
 20
38.076540
 30
0.000000
  0
VERTEX
  8
MERGEDLAYER-1
 10
6.660936
 20
38.076540
 30
0.000000
  0
VERTEX
  8
MERGEDLAYER-1
 10
6.656815
 20
43.046852
 30
0.000000
  0
VERTEX
  8
MERGEDLAYER-1
 10
28.549964
 20
43.044748
 30
0.000000
  0
SEQEND
  8
MERGEDLAYER-1
  0
POLYLINE
  8
MERGEDLAYER-1
 66
  1
 70
  0
 62
  7
 10
28.550610
 20
42.464684
 30
0.000000
  0
VERTEX
  8
MERGEDLAYER-1
 10
28.550610
 20
42.464684
 30
0.000000
  0
VERTEX
  8
MERGEDLAYER-1
 10
6.660936
 20
42.464684
 30
0.000000
  0
SEQEND
  8
MERGEDLAYER-1
  0
POLYLINE
  8
MERGEDLAYER-1
 66
  1
 70
  0
 62
  7
 10
13.573723
 20
42.463600
 30
0.000000
  0
VERTEX
  8
MERGEDLAYER-1
 10
13.573723
 20
42.463600
 30
0.000000
  0
VERTEX
  8
MERGEDLAYER-1
 10
13.573723
 20
38.089337
 30
0.000000
  0
SEQEND
  8
MERGEDLAYER-1
  0
POLYLINE
  8
MERGEDLAYER-1
 66
  1
 70
  0
 62
  7
 10
13.670945
 20
42.463600
 30
0.000000
  0
VERTEX
  8
MERGEDLAYER-1
 10
13.670945
 20
42.463600
 30
0.000000
  0
VERTEX
  8
MERGEDLAYER-1
 10
13.670945
 20
38.089337
 30
0.000000
  0
SEQEND
  8
MERGEDLAYER-1
  0
POLYLINE
  8
MERGEDLAYER-1
 66
  1
 70
  0
 62
  7
 10
21.435103
 20
42.463604
 30
0.000000
  0
VERTEX
  8
MERGEDLAYER-1
 10
21.435103
 20
42.463604
 30
0.000000
  0
VERTEX
  8
MERGEDLAYER-1
 10
21.435103
 20
38.089341
 30
0.000000
  0
SEQEND
  8
MERGEDLAYER-1
  0
POLYLINE
  8
MERGEDLAYER-1
 66
  1
 70
  0
 62
  7
 10
21.532335
 20
42.463604
 30
0.000000
  0
VERTEX
  8
MERGEDLAYER-1
 10
21.532335
 20
42.463604
 30
0.000000
  0
VERTEX
  8
MERGEDLAYER-1
 10
21.532335
 20
38.089341
 30
0.000000
  0
SEQEND
  8
MERGEDLAYER-1
  0
POLYLINE
  8
MERGEDLAYER-1
 66
  1
 70
  0
 62
  7
 10
8.846426
 20
25.754953
 30
0.000000
  0
VERTEX
  8
MERGEDLAYER-1
 10
8.846426
 20
25.754953
 30
0.000000
  0
VERTEX
  8
MERGEDLAYER-1
 10
8.846426
 20
28.424654
 30
0.000000
  0
SEQEND
  8
MERGEDLAYER-1
  0
POLYLINE
  8
MERGEDLAYER-1
 66
  1
 70
  0
 62
  7
 10
52.180209
 20
25.775729
 30
0.000000
  0
VERTEX
  8
MERGEDLAYER-1
 10
52.180209
 20
25.775729
 30
0.000000
  0
VERTEX
  8
MERGEDLAYER-1
 10
52.180209
 20
28.424654
 30
0.000000
  0
SEQEND
  8
MERGEDLAYER-1
  0
TEXT
  8
MERGEDLAYER-1
 62
  7
 10
1.769231
 20
9.851102
 30
0.000000
 40
0.576923
  1
3/16" (5mm)
 72
  5
 11
6.461538
 21
9.851102
 31
0.000000
  0
TEXT
  8
MERGEDLAYER-1
 62
  7
 10
1.769231
 20
9.004949
 30
0.000000
 40
0.576923
  1
PLAQUE D'EXTRƒMITƒ
 72
  5
 11
10.769231
 21
9.004949
 31
0.000000
  0
TEXT
  8
MERGEDLAYER-1
 62
  7
 10
1.769231
 20
8.158795
 30
0.000000
 40
0.576923
  1
8"x8" (203x203mm) ou
 72
  5
 11
10.307692
 21
8.158795
 31
0.000000
  0
TEXT
  8
MERGEDLAYER-1
 62
  7
 10
1.769231
 20
7.312641
 30
0.000000
 40
0.576923
  1
10"x10" (254x254mm)
 72
  5
 11
10.076923
 21
7.312641
 31
0.000000
  0
POLYLINE
  8
MERGEDLAYER-1
  6
LTYPE01
 66
  1
 70
  0
 62
  7
  6
LTYPE01
 10
48.272414
 20
56.197923
 30
0.000000
  0
VERTEX
  8
MERGEDLAYER-1
  6
LTYPE01
 10
48.272414
 20
56.197923
 30
0.000000
  0
VERTEX
  8
MERGEDLAYER-1
  6
LTYPE01
 10
48.048884
 20
55.452778
 30
0.000000
  0
VERTEX
  8
MERGEDLAYER-1
  6
LTYPE01
 10
47.901616
 20
54.687547
 30
0.000000
  0
VERTEX
  8
MERGEDLAYER-1
  6
LTYPE01
 10
47.899339
 20
54.655208
 30
0.000000
  0
SEQEND
  8
MERGEDLAYER-1
  0
POLYLINE
  8
MERGEDLAYER-1
 66
  1
 70
  0
 62
  7
 10
7.018633
 20
41.303932
 30
0.000000
  0
VERTEX
  8
MERGEDLAYER-1
 10
7.018633
 20
41.303932
 30
0.000000
  0
VERTEX
  8
MERGEDLAYER-1
 10
7.019120
 20
43.048330
 30
0.000000
  0
SEQEND
  8
MERGEDLAYER-1
  0
POLYLINE
  8
MERGEDLAYER-1
 66
  1
 70
  1
 62
  7
  0
VERTEX
  8
MERGEDLAYER-1
 10
7.019125
 20
43.068012
 30
0.000000
  0
VERTEX
  8
MERGEDLAYER-1
 10
7.249787
 20
42.683336
 30
0.000000
  0
VERTEX
  8
MERGEDLAYER-1
 10
7.019018
 20
42.683397
 30
0.000000
  0
VERTEX
  8
MERGEDLAYER-1
 10
6.788249
 20
42.683462
 30
0.000000
  0
VERTEX
  8
MERGEDLAYER-1
 10
7.019125
 20
43.068012
 30
0.000000
  0
SEQEND
  8
MERGEDLAYER-1
  0
POLYLINE
  8
MERGEDLAYER-1
 66
  1
 70
  0
 62
  7
 10
7.584719
 20
41.303932
 30
0.000000
  0
VERTEX
  8
MERGEDLAYER-1
 10
7.584719
 20
41.303932
 30
0.000000
  0
VERTEX
  8
MERGEDLAYER-1
 10
7.018633
 20
41.303932
 30
0.000000
  0
SEQEND
  8
MERGEDLAYER-1
  0
TEXT
  8
MERGEDLAYER-1
 62
  7
 10
7.615385
 20
41.543410
 30
0.000000
 40
0.576923
  1
GUIDE
 72
  5
 11
10.461538
 21
41.543410
 31
0.000000
  0
TEXT
  8
MERGEDLAYER-1
 62
  7
 10
7.615385
 20
40.697256
 30
0.000000
 40
0.576923
  1
D'ALUMINIUM
 72
  5
 11
13.000000
 21
40.697256
 31
0.000000
  0
LINE
  8
MERGEDLAYER-1
 62
  7
 10
42.506038
 20
54.662696
 30
0.000000
 11
42.506038
 21
57.222069
 31
0.000000
  0
LINE
  8
MERGEDLAYER-1
 62
  7
 10
47.046819
 20
54.643010
 30
0.000000
 11
41.506038
 21
54.643010
 31
0.000000
  0
LINE
  8
MERGEDLAYER-1
 62
  7
 10
47.046819
 20
57.241756
 30
0.000000
 11
41.506038
 21
57.241756
 31
0.000000
  0
POLYLINE
  8
MERGEDLAYER-1
 66
  1
 70
  1
 62
  7
  0
VERTEX
  8
MERGEDLAYER-1
 10
42.506038
 20
54.643010
 30
0.000000
  0
VERTEX
  8
MERGEDLAYER-1
 10
42.736807
 20
55.027625
 30
0.000000
  0
VERTEX
  8
MERGEDLAYER-1
 10
42.506038
 20
55.027625
 30
0.000000
  0
VERTEX
  8
MERGEDLAYER-1
 10
42.275269
 20
55.027625
 30
0.000000
  0
VERTEX
  8
MERGEDLAYER-1
 10
42.506038
 20
54.643010
 30
0.000000
  0
SEQEND
  8
MERGEDLAYER-1
  0
POLYLINE
  8
MERGEDLAYER-1
 66
  1
 70
  1
 62
  7
  0
VERTEX
  8
MERGEDLAYER-1
 10
42.506038
 20
57.241756
 30
0.000000
  0
VERTEX
  8
MERGEDLAYER-1
 10
42.736807
 20
56.857140
 30
0.000000
  0
VERTEX
  8
MERGEDLAYER-1
 10
42.506038
 20
56.857140
 30
0.000000
  0
VERTEX
  8
MERGEDLAYER-1
 10
42.275269
 20
56.857140
 30
0.000000
  0
VERTEX
  8
MERGEDLAYER-1
 10
42.506038
 20
57.241756
 30
0.000000
  0
SEQEND
  8
MERGEDLAYER-1
  0
TEXT
  8
MERGEDLAYER-1
 62
  7
 10
41.719736
 20
55.392956
 30
0.000000
 40
0.519231
  1
 
 50
90.000000
  0
LINE
  8
MERGEDLAYER-1
 62
  7
 10
47.713816
 20
58.427171
 30
0.000000
 11
50.196500
 21
58.427171
 31
0.000000
  0
LINE
  8
MERGEDLAYER-1
 62
  7
 10
47.694134
 20
57.741995
 30
0.000000
 11
47.694134
 21
59.427171
 31
0.000000
  0
LINE
  8
MERGEDLAYER-1
 62
  7
 10
50.216187
 20
57.741995
 30
0.000000
 11
50.216187
 21
59.427171
 31
0.000000
  0
POLYLINE
  8
MERGEDLAYER-1
 66
  1
 70
  1
 62
  7
  0
VERTEX
  8
MERGEDLAYER-1
 10
47.694134
 20
58.427171
 30
0.000000
  0
VERTEX
  8
MERGEDLAYER-1
 10
48.078749
 20
58.196406
 30
0.000000
  0
VERTEX
  8
MERGEDLAYER-1
 10
48.078749
 20
58.427176
 30
0.000000
  0
VERTEX
  8
MERGEDLAYER-1
 10
48.078749
 20
58.657945
 30
0.000000
  0
VERTEX
  8
MERGEDLAYER-1
 10
47.694134
 20
58.427171
 30
0.000000
  0
SEQEND
  8
MERGEDLAYER-1
  0
POLYLINE
  8
MERGEDLAYER-1
 66
  1
 70
  1
 62
  7
  0
VERTEX
  8
MERGEDLAYER-1
 10
50.216187
 20
58.427171
 30
0.000000
  0
VERTEX
  8
MERGEDLAYER-1
 10
49.831571
 20
58.196402
 30
0.000000
  0
VERTEX
  8
MERGEDLAYER-1
 10
49.831571
 20
58.427171
 30
0.000000
  0
VERTEX
  8
MERGEDLAYER-1
 10
49.831571
 20
58.657940
 30
0.000000
  0
VERTEX
  8
MERGEDLAYER-1
 10
50.216187
 20
58.427171
 30
0.000000
  0
SEQEND
  8
MERGEDLAYER-1
  0
TEXT
  8
MERGEDLAYER-1
 62
  7
 10
49.104182
 20
59.251163
 30
0.000000
 40
0.576923
  1
 
  0
POLYLINE
  8
MERGEDLAYER-1
 66
  1
 70
  1
 62
  7
  0
VERTEX
  8
MERGEDLAYER-1
 10
47.692204
 20
57.241995
 30
0.000000
  0
VERTEX
  8
MERGEDLAYER-1
 10
50.214257
 20
57.241995
 30
0.000000
  0
VERTEX
  8
MERGEDLAYER-1
 10
50.214257
 20
54.643254
 30
0.000000
  0
VERTEX
  8
MERGEDLAYER-1
 10
47.692204
 20
54.643254
 30
0.000000
  0
SEQEND
  8
MERGEDLAYER-1
  0
POLYLINE
  8
MERGEDLAYER-1
 66
  1
 70
  0
 62
  7
 10
48.045452
 20
56.921950
 30
0.000000
  0
VERTEX
  8
MERGEDLAYER-1
 10
48.045452
 20
56.921950
 30
0.000000
  0
VERTEX
  8
MERGEDLAYER-1
 10
47.988530
 20
56.978877
 30
0.000000
  0
VERTEX
  8
MERGEDLAYER-1
 10
47.931608
 20
56.921950
 30
0.000000
  0
VERTEX
  8
MERGEDLAYER-1
 10
47.988530
 20
56.865028
 30
0.000000
  0
VERTEX
  8
MERGEDLAYER-1
 10
48.045452
 20
56.921950
 30
0.000000
  0
SEQEND
  8
MERGEDLAYER-1
  0
POLYLINE
  8
MERGEDLAYER-1
 66
  1
 70
  0
 62
  7
 10
48.045452
 20
54.930997
 30
0.000000
  0
VERTEX
  8
MERGEDLAYER-1
 10
48.045452
 20
54.930997
 30
0.000000
  0
VERTEX
  8
MERGEDLAYER-1
 10
47.988530
 20
54.987920
 30
0.000000
  0
VERTEX
  8
MERGEDLAYER-1
 10
47.931608
 20
54.930997
 30
0.000000
  0
VERTEX
  8
MERGEDLAYER-1
 10
47.988530
 20
54.874070
 30
0.000000
  0
VERTEX
  8
MERGEDLAYER-1
 10
48.045452
 20
54.930997
 30
0.000000
  0
SEQEND
  8
MERGEDLAYER-1
  0
POLYLINE
  8
MERGEDLAYER-1
 66
  1
 70
  0
 62
  7
 10
49.194219
 20
55.941740
 30
0.000000
  0
VERTEX
  8
MERGEDLAYER-1
 10
49.194219
 20
55.941740
 30
0.000000
  0
VERTEX
  8
MERGEDLAYER-1
 10
48.701139
 20
55.941740
 30
0.000000
  0
SEQEND
  8
MERGEDLAYER-1
  0
POLYLINE
  8
MERGEDLAYER-1
 66
  1
 70
  0
 62
  7
 10
48.947679
 20
56.188312
 30
0.000000
  0
VERTEX
  8
MERGEDLAYER-1
 10
48.947679
 20
56.188312
 30
0.000000
  0
VERTEX
  8
MERGEDLAYER-1
 10
48.947679
 20
55.695153
 30
0.000000
  0
SEQEND
  8
MERGEDLAYER-1
  0
POLYLINE
  8
MERGEDLAYER-1
 66
  1
 70
  0
 62
  7
 10
48.045452
 20
55.948233
 30
0.000000
  0
VERTEX
  8
MERGEDLAYER-1
 10
48.045452
 20
55.948233
 30
0.000000
  0
VERTEX
  8
MERGEDLAYER-1
 10
47.988530
 20
56.005155
 30
0.000000
  0
VERTEX
  8
MERGEDLAYER-1
 10
47.931608
 20
55.948233
 30
0.000000
  0
VERTEX
  8
MERGEDLAYER-1
 10
47.988530
 20
55.891310
 30
0.000000
  0
VERTEX
  8
MERGEDLAYER-1
 10
48.045452
 20
55.948233
 30
0.000000
  0
SEQEND
  8
MERGEDLAYER-1
  0
POLYLINE
  8
MERGEDLAYER-1
 66
  1
 70
  0
 62
  7
 10
49.635883
 20
55.943819
 30
0.000000
  0
VERTEX
  8
MERGEDLAYER-1
 10
49.635883
 20
55.943819
 30
0.000000
  0
VERTEX
  8
MERGEDLAYER-1
 10
49.583543
 20
56.206942
 30
0.000000
  0
VERTEX
  8
MERGEDLAYER-1
 10
49.434505
 20
56.430007
 30
0.000000
  0
VERTEX
  8
MERGEDLAYER-1
 10
49.211449
 20
56.579055
 30
0.000000
  0
VERTEX
  8
MERGEDLAYER-1
 10
48.948341
 20
56.631395
 30
0.000000
  0
VERTEX
  8
MERGEDLAYER-1
 10
48.685228
 20
56.579055
 30
0.000000
  0
VERTEX
  8
MERGEDLAYER-1
 10
48.462172
 20
56.430007
 30
0.000000
  0
VERTEX
  8
MERGEDLAYER-1
 10
48.313134
 20
56.206942
 30
0.000000
  0
VERTEX
  8
MERGEDLAYER-1
 10
48.260794
 20
55.943819
 30
0.000000
  0
VERTEX
  8
MERGEDLAYER-1
 10
48.313134
 20
55.680692
 30
0.000000
  0
VERTEX
  8
MERGEDLAYER-1
 10
48.462172
 20
55.457628
 30
0.000000
  0
VERTEX
  8
MERGEDLAYER-1
 10
48.685228
 20
55.308580
 30
0.000000
  0
VERTEX
  8
MERGEDLAYER-1
 10
48.948341
 20
55.256244
 30
0.000000
  0
VERTEX
  8
MERGEDLAYER-1
 10
49.211449
 20
55.308580
 30
0.000000
  0
VERTEX
  8
MERGEDLAYER-1
 10
49.434505
 20
55.457628
 30
0.000000
  0
VERTEX
  8
MERGEDLAYER-1
 10
49.583543
 20
55.680692
 30
0.000000
  0
VERTEX
  8
MERGEDLAYER-1
 10
49.635883
 20
55.943819
 30
0.000000
  0
SEQEND
  8
MERGEDLAYER-1
  0
POLYLINE
  8
MERGEDLAYER-1
 66
  1
 70
  0
 62
  7
 10
49.464177
 20
56.448899
 30
0.000000
  0
VERTEX
  8
MERGEDLAYER-1
 10
49.464177
 20
56.448899
 30
0.000000
  0
VERTEX
  8
MERGEDLAYER-1
 10
49.229065
 20
56.608929
 30
0.000000
  0
VERTEX
  8
MERGEDLAYER-1
 10
49.123761
 20
56.642634
 30
0.000000
  0
SEQEND
  8
MERGEDLAYER-1
  0
POLYLINE
  8
MERGEDLAYER-1
  6
LTYPE01
 66
  1
 70
  0
 62
  7
  6
LTYPE01
 10
48.950308
 20
56.664152
 30
0.000000
  0
VERTEX
  8
MERGEDLAYER-1
  6
LTYPE01
 10
48.950308
 20
56.664152
 30
0.000000
  0
VERTEX
  8
MERGEDLAYER-1
  6
LTYPE01
 10
48.671941
 20
56.611140
 30
0.000000
  0
VERTEX
  8
MERGEDLAYER-1
  6
LTYPE01
 10
48.437617
 20
56.454562
 30
0.000000
  0
VERTEX
  8
MERGEDLAYER-1
  6
LTYPE01
 10
48.328543
 20
56.309397
 30
0.000000
  0
SEQEND
  8
MERGEDLAYER-1
  0
TEXT
  8
MERGEDLAYER-1
 62
  7
 10
16.615385
 20
19.928025
 30
0.000000
 40
0.576923
  1
BARRE DU BAS
 72
  5
 11
22.846154
 21
19.928025
 31
0.000000
  0
POLYLINE
  8
MERGEDLAYER-1
 66
  1
 70
  0
 62
  7
 10
15.353005
 20
18.581228
 30
0.000000
  0
VERTEX
  8
MERGEDLAYER-1
 10
15.353005
 20
18.581228
 30
0.000000
  0
VERTEX
  8
MERGEDLAYER-1
 10
16.485577
 20
20.206872
 30
0.000000
  0
SEQEND
  8
MERGEDLAYER-1
  0
POLYLINE
  8
MERGEDLAYER-1
 66
  1
 70
  1
 62
  7
  0
VERTEX
  8
MERGEDLAYER-1
 10
15.341752
 20
18.565078
 30
0.000000
  0
VERTEX
  8
MERGEDLAYER-1
 10
15.750962
 20
18.748732
 30
0.000000
  0
VERTEX
  8
MERGEDLAYER-1
 10
15.561616
 20
18.880653
 30
0.000000
  0
VERTEX
  8
MERGEDLAYER-1
 10
15.372270
 20
19.012573
 30
0.000000
  0
VERTEX
  8
MERGEDLAYER-1
 10
15.341752
 20
18.565078
 30
0.000000
  0
SEQEND
  8
MERGEDLAYER-1
  0
POLYLINE
  8
MERGEDLAYER-1
 66
  1
 70
  1
 62
  7
  0
VERTEX
  8
MERGEDLAYER-1
 10
47.694134
 20
53.823848
 30
0.000000
  0
VERTEX
  8
MERGEDLAYER-1
 10
48.084783
 20
53.823848
 30
0.000000
  0
VERTEX
  8
MERGEDLAYER-1
 10
48.084783
 20
52.854990
 30
0.000000
  0
VERTEX
  8
MERGEDLAYER-1
 10
47.694134
 20
52.854990
 30
0.000000
  0
SEQEND
  8
MERGEDLAYER-1
  0
POLYLINE
  8
MERGEDLAYER-1
 66
  1
 70
  0
 62
  7
 10
52.201106
 20
54.633723
 30
0.000000
  0
VERTEX
  8
MERGEDLAYER-1
 10
52.201106
 20
54.633723
 30
0.000000
  0
VERTEX
  8
MERGEDLAYER-1
 10
52.201106
 20
57.697256
 30
0.000000
  0
SEQEND
  8
MERGEDLAYER-1
  0
POLYLINE
  8
MERGEDLAYER-1
 66
  1
 70
  0
 62
  7
 10
48.250160
 20
54.639799
 30
0.000000
  0
VERTEX
  8
MERGEDLAYER-1
 10
48.250160
 20
54.639799
 30
0.000000
  0
VERTEX
  8
MERGEDLAYER-1
 10
48.091163
 20
54.639799
 30
0.000000
  0
SEQEND
  8
MERGEDLAYER-1
  0
POLYLINE
  8
MERGEDLAYER-1
 66
  1
 70
  0
 62
  7
 10
48.250160
 20
54.639799
 30
0.000000
  0
VERTEX
  8
MERGEDLAYER-1
 10
48.250160
 20
54.639799
 30
0.000000
  0
VERTEX
  8
MERGEDLAYER-1
 10
48.130521
 20
54.465656
 30
0.000000
  0
VERTEX
  8
MERGEDLAYER-1
 10
48.091172
 20
54.255949
 30
0.000000
  0
SEQEND
  8
MERGEDLAYER-1
  0
POLYLINE
  8
MERGEDLAYER-1
 66
  1
 70
  0
 62
  7
 10
48.091163
 20
54.255949
 30
0.000000
  0
VERTEX
  8
MERGEDLAYER-1
 10
48.091163
 20
54.255949
 30
0.000000
  0
VERTEX
  8
MERGEDLAYER-1
 10
48.091163
 20
54.639799
 30
0.000000
  0
SEQEND
  8
MERGEDLAYER-1
  0
POLYLINE
  8
MERGEDLAYER-1
 66
  1
 70
  1
 62
  7
  0
VERTEX
  8
MERGEDLAYER-1
 10
47.990037
 20
54.231154
 30
0.000000
  0
VERTEX
  8
MERGEDLAYER-1
 10
48.153503
 20
54.231154
 30
0.000000
  0
VERTEX
  8
MERGEDLAYER-1
 10
48.153503
 20
53.817336
 30
0.000000
  0
VERTEX
  8
MERGEDLAYER-1
 10
47.990037
 20
53.817336
 30
0.000000
  0
SEQEND
  8
MERGEDLAYER-1
  0
TEXT
  8
MERGEDLAYER-1
 62
  7
 10
1.307692
 20
55.620333
 30
0.000000
 40
0.576923
  1
ARRæT
 72
  5
 11
4.307692
 21
55.620333
 31
0.000000
  0
TEXT
  8
MERGEDLAYER-1
 62
  7
 10
1.307692
 20
54.774179
 30
0.000000
 40
0.576923
  1
DU HAUT
 72
  5
 11
5.076923
 21
54.774179
 31
0.000000
  0
POLYLINE
  8
MERGEDLAYER-1
 66
  1
 70
  0
 62
  7
 10
5.230769
 20
55.504949
 30
0.000000
  0
VERTEX
  8
MERGEDLAYER-1
 10
5.230769
 20
55.504949
 30
0.000000
  0
VERTEX
  8
MERGEDLAYER-1
 10
6.694596
 20
54.120859
 30
0.000000
  0
SEQEND
  8
MERGEDLAYER-1
  0
POLYLINE
  8
MERGEDLAYER-1
 66
  1
 70
  1
 62
  7
  0
VERTEX
  8
MERGEDLAYER-1
 10
6.708899
 20
54.107333
 30
0.000000
  0
VERTEX
  8
MERGEDLAYER-1
 10
6.270882
 20
54.203900
 30
0.000000
  0
VERTEX
  8
MERGEDLAYER-1
 10
6.429430
 20
54.371582
 30
0.000000
  0
VERTEX
  8
MERGEDLAYER-1
 10
6.587977
 20
54.539260
 30
0.000000
  0
VERTEX
  8
MERGEDLAYER-1
 10
6.708899
 20
54.107333
 30
0.000000
  0
SEQEND
  8
MERGEDLAYER-1
  0
POLYLINE
  8
MERGEDLAYER-1
 66
  1
 70
  1
 62
  7
  0
VERTEX
  8
MERGEDLAYER-1
 10
1.520865
 20
53.005817
 30
0.000000
  0
VERTEX
  8
MERGEDLAYER-1
 10
32.697449
 20
53.005817
 30
0.000000
  0
VERTEX
  8
MERGEDLAYER-1
 10
32.697449
 20
52.818538
 30
0.000000
  0
VERTEX
  8
MERGEDLAYER-1
 10
1.520865
 20
52.818538
 30
0.000000
  0
SEQEND
  8
MERGEDLAYER-1
  0
POLYLINE
  8
MERGEDLAYER-1
 66
  1
 70
  1
 62
  7
  0
VERTEX
  8
MERGEDLAYER-1
 10
49.076923
 20
53.035457
 30
0.000000
  0
VERTEX
  8
MERGEDLAYER-1
 10
59.802115
 20
53.035457
 30
0.000000
  0
VERTEX
  8
MERGEDLAYER-1
 10
59.802115
 20
52.829862
 30
0.000000
  0
VERTEX
  8
MERGEDLAYER-1
 10
49.076923
 20
52.829862
 30
0.000000
  0
SEQEND
  8
MERGEDLAYER-1
  0
POLYLINE
  8
MERGEDLAYER-1
 66
  1
 70
  1
 62
  7
  0
VERTEX
  8
MERGEDLAYER-1
 10
43.190491
 20
53.018545
 30
0.000000
  0
VERTEX
  8
MERGEDLAYER-1
 10
47.094558
 20
53.018545
 30
0.000000
  0
VERTEX
  8
MERGEDLAYER-1
 10
47.094558
 20
52.815228
 30
0.000000
  0
VERTEX
  8
MERGEDLAYER-1
 10
43.190491
 20
52.815228
 30
0.000000
  0
SEQEND
  8
MERGEDLAYER-1
  0
POLYLINE
  8
MERGEDLAYER-1
 66
  1
 70
  0
 62
  7
 10
29.677002
 20
53.292260
 30
0.000000
  0
VERTEX
  8
MERGEDLAYER-1
 10
29.677002
 20
53.292260
 30
0.000000
  0
VERTEX
  8
MERGEDLAYER-1
 10
31.199768
 20
53.879164
 30
0.000000
  0
SEQEND
  8
MERGEDLAYER-1
  0
POLYLINE
  8
MERGEDLAYER-1
 66
  1
 70
  1
 62
  7
  0
VERTEX
  8
MERGEDLAYER-1
 10
29.658633
 20
53.285180
 30
0.000000
  0
VERTEX
  8
MERGEDLAYER-1
 10
30.100508
 20
53.208177
 30
0.000000
  0
VERTEX
  8
MERGEDLAYER-1
 10
30.017515
 20
53.423504
 30
0.000000
  0
VERTEX
  8
MERGEDLAYER-1
 10
29.934521
 20
53.638832
 30
0.000000
  0
VERTEX
  8
MERGEDLAYER-1
 10
29.658633
 20
53.285180
 30
0.000000
  0
SEQEND
  8
MERGEDLAYER-1
  0
POLYLINE
  8
MERGEDLAYER-1
 66
  1
 70
  0
 62
  7
 10
31.199768
 20
53.879164
 30
0.000000
  0
VERTEX
  8
MERGEDLAYER-1
 10
31.199768
 20
53.879164
 30
0.000000
  0
VERTEX
  8
MERGEDLAYER-1
 10
31.199768
 20
55.592515
 30
0.000000
  0
SEQEND
  8
MERGEDLAYER-1
  0
TEXT
  8
MERGEDLAYER-1
 62
  7
 10
27.538462
 20
19.928025
 30
0.000000
 40
0.807692
  1
EXTƒRIEUR
 72
  5
 11
34.000000
 21
19.928025
 31
0.000000
  0
TEXT
  8
MERGEDLAYER-1
 62
  7
 10
23.230769
 20
5.081872
 30
0.000000
 40
0.807692
  1
INTƒRIEUR ( CïTƒ SƒCURE )
 72
  5
 11
38.769231
 21
5.081872
 31
0.000000
  0
POLYLINE
  8
MERGEDLAYER-1
 66
  1
 70
  1
 62
  7
  0
VERTEX
  8
MERGEDLAYER-1
 10
18.910290
 20
19.128897
 30
0.000000
  0
VERTEX
  8
MERGEDLAYER-1
 10
19.156910
 20
19.309326
 30
0.000000
  0
VERTEX
  8
MERGEDLAYER-1
 10
21.174227
 20
16.551096
 30
0.000000
  0
VERTEX
  8
MERGEDLAYER-1
 10
20.927669
 20
16.370638
 30
0.000000
  0
SEQEND
  8
MERGEDLAYER-1
  0
POLYLINE
  8
MERGEDLAYER-1
 66
  1
 70
  0
 62
  7
 10
20.016667
 20
17.916476
 30
0.000000
  0
VERTEX
  8
MERGEDLAYER-1
 10
20.016667
 20
17.916476
 30
0.000000
  0
VERTEX
  8
MERGEDLAYER-1
 10
19.083151
 20
19.185073
 30
0.000000
  0
SEQEND
  8
MERGEDLAYER-1
  0
POLYLINE
  8
MERGEDLAYER-1
 66
  1
 70
  0
 62
  7
 10
20.223177
 20
17.634282
 30
0.000000
  0
VERTEX
  8
MERGEDLAYER-1
 10
20.223177
 20
17.634282
 30
0.000000
  0
VERTEX
  8
MERGEDLAYER-1
 10
21.034583
 20
16.521376
 30
0.000000
  0
SEQEND
  8
MERGEDLAYER-1
  0
POLYLINE
  8
MERGEDLAYER-1
 66
  1
 70
  0
 62
  7
 10
20.016667
 20
17.916476
 30
0.000000
  0
VERTEX
  8
MERGEDLAYER-1
 10
20.016667
 20
17.916476
 30
0.000000
  0
VERTEX
  8
MERGEDLAYER-1
 10
20.403978
 20
17.983323
 30
0.000000
  0
SEQEND
  8
MERGEDLAYER-1
  0
POLYLINE
  8
MERGEDLAYER-1
 66
  1
 70
  0
 62
  7
 10
20.223177
 20
17.634282
 30
0.000000
  0
VERTEX
  8
MERGEDLAYER-1
 10
20.223177
 20
17.634282
 30
0.000000
  0
VERTEX
  8
MERGEDLAYER-1
 10
19.835869
 20
17.567434
 30
0.000000
  0
SEQEND
  8
MERGEDLAYER-1
  0
POLYLINE
  8
MERGEDLAYER-1
 66
  1
 70
  0
 62
  7
 10
20.403978
 20
17.983323
 30
0.000000
  0
VERTEX
  8
MERGEDLAYER-1
 10
20.403978
 20
17.983323
 30
0.000000
  0
VERTEX
  8
MERGEDLAYER-1
 10
19.835869
 20
17.567434
 30
0.000000
  0
SEQEND
  8
MERGEDLAYER-1
  0
POLYLINE
  8
MERGEDLAYER-1
 66
  1
 70
  1
 62
  7
  0
VERTEX
  8
MERGEDLAYER-1
 10
39.630277
 20
19.132404
 30
0.000000
  0
VERTEX
  8
MERGEDLAYER-1
 10
39.876897
 20
19.312833
 30
0.000000
  0
VERTEX
  8
MERGEDLAYER-1
 10
41.894212
 20
16.554603
 30
0.000000
  0
VERTEX
  8
MERGEDLAYER-1
 10
41.647597
 20
16.374174
 30
0.000000
  0
SEQEND
  8
MERGEDLAYER-1
  0
POLYLINE
  8
MERGEDLAYER-1
 66
  1
 70
  0
 62
  7
 10
40.736657
 20
17.919983
 30
0.000000
  0
VERTEX
  8
MERGEDLAYER-1
 10
40.736657
 20
17.919983
 30
0.000000
  0
VERTEX
  8
MERGEDLAYER-1
 10
39.803138
 20
19.188580
 30
0.000000
  0
SEQEND
  8
MERGEDLAYER-1
  0
POLYLINE
  8
MERGEDLAYER-1
 66
  1
 70
  0
 62
  7
 10
40.943167
 20
17.637817
 30
0.000000
  0
VERTEX
  8
MERGEDLAYER-1
 10
40.943167
 20
17.637817
 30
0.000000
  0
VERTEX
  8
MERGEDLAYER-1
 10
41.754573
 20
16.524916
 30
0.000000
  0
SEQEND
  8
MERGEDLAYER-1
  0
POLYLINE
  8
MERGEDLAYER-1
 66
  1
 70
  0
 62
  7
 10
40.736657
 20
17.919983
 30
0.000000
  0
VERTEX
  8
MERGEDLAYER-1
 10
40.736657
 20
17.919983
 30
0.000000
  0
VERTEX
  8
MERGEDLAYER-1
 10
41.123967
 20
17.986830
 30
0.000000
  0
SEQEND
  8
MERGEDLAYER-1
  0
POLYLINE
  8
MERGEDLAYER-1
 66
  1
 70
  0
 62
  7
 10
40.943167
 20
17.637817
 30
0.000000
  0
VERTEX
  8
MERGEDLAYER-1
 10
40.943167
 20
17.637817
 30
0.000000
  0
VERTEX
  8
MERGEDLAYER-1
 10
40.555857
 20
17.570942
 30
0.000000
  0
SEQEND
  8
MERGEDLAYER-1
  0
POLYLINE
  8
MERGEDLAYER-1
 66
  1
 70
  0
 62
  7
 10
41.123967
 20
17.986830
 30
0.000000
  0
VERTEX
  8
MERGEDLAYER-1
 10
41.123967
 20
17.986830
 30
0.000000
  0
VERTEX
  8
MERGEDLAYER-1
 10
40.555857
 20
17.570942
 30
0.000000
  0
SEQEND
  8
MERGEDLAYER-1
  0
TEXT
  8
MERGEDLAYER-1
 62
 65
 10
71.615385
 20
6.851102
 30
0.000000
 40
1.961538
  1
Mobil
 72
  5
 11
79.230769
 21
6.851102
 31
0.000000
  0
TEXT
  8
MERGEDLAYER-1
 62
  7
 10
79.230769
 20
6.851102
 30
0.000000
 40
1.961538
  1
Flex
 72
  5
 11
84.846154
 21
6.851102
 31
0.000000
  0
POLYLINE
  8
MERGEDLAYER-1
 66
  1
 70
  1
 62
 65
  0
VERTEX
  8
MERGEDLAYER-1
 10
61.472478
 20
6.403142
 30
0.000000
  0
VERTEX
  8
MERGEDLAYER-1
 10
84.285842
 20
6.403142
 30
0.000000
  0
VERTEX
  8
MERGEDLAYER-1
 10
84.285842
 20
6.155452
 30
0.000000
  0
VERTEX
  8
MERGEDLAYER-1
 10
61.472478
 20
6.155452
 30
0.000000
  0
SEQEND
  8
MERGEDLAYER-1
  0
POLYLINE
  8
MERGEDLAYER-1
 66
  1
 70
  1
 62
 65
  0
VERTEX
  8
MERGEDLAYER-1
 10
61.472478
 20
9.787372
 30
0.000000
  0
VERTEX
  8
MERGEDLAYER-1
 10
62.802974
 20
9.787372
 30
0.000000
  0
VERTEX
  8
MERGEDLAYER-1
 10
62.802974
 20
6.857286
 30
0.000000
  0
VERTEX
  8
MERGEDLAYER-1
 10
61.472478
 20
6.857286
 30
0.000000
  0
SEQEND
  8
MERGEDLAYER-1
  0
POLYLINE
  8
MERGEDLAYER-1
 66
  1
 70
  1
 62
 65
  0
VERTEX
  8
MERGEDLAYER-1
 10
63.240812
 20
9.787372
 30
0.000000
  0
VERTEX
  8
MERGEDLAYER-1
 10
64.571303
 20
9.787372
 30
0.000000
  0
VERTEX
  8
MERGEDLAYER-1
 10
64.571303
 20
6.857286
 30
0.000000
  0
VERTEX
  8
MERGEDLAYER-1
 10
63.240812
 20
6.857286
 30
0.000000
  0
SEQEND
  8
MERGEDLAYER-1
  0
POLYLINE
  8
MERGEDLAYER-1
 66
  1
 70
  1
 62
 65
  0
VERTEX
  8
MERGEDLAYER-1
 10
64.943378
 20
9.787372
 30
0.000000
  0
VERTEX
  8
MERGEDLAYER-1
 10
66.273841
 20
9.787372
 30
0.000000
  0
VERTEX
  8
MERGEDLAYER-1
 10
66.273841
 20
6.857286
 30
0.000000
  0
VERTEX
  8
MERGEDLAYER-1
 10
64.943378
 20
6.857286
 30
0.000000
  0
SEQEND
  8
MERGEDLAYER-1
  0
POLYLINE
  8
MERGEDLAYER-1
 66
  1
 70
  1
 62
 65
  0
VERTEX
  8
MERGEDLAYER-1
 10
66.662100
 20
9.787372
 30
0.000000
  0
VERTEX
  8
MERGEDLAYER-1
 10
68.007296
 20
9.787372
 30
0.000000
  0
VERTEX
  8
MERGEDLAYER-1
 10
68.007296
 20
6.857286
 30
0.000000
  0
VERTEX
  8
MERGEDLAYER-1
 10
66.662100
 20
6.857286
 30
0.000000
  0
SEQEND
  8
MERGEDLAYER-1
  0
POLYLINE
  8
MERGEDLAYER-1
 66
  1
 70
  1
 62
 65
  0
VERTEX
  8
MERGEDLAYER-1
 10
68.460083
 20
9.787372
 30
0.000000
  0
VERTEX
  8
MERGEDLAYER-1
 10
70.595323
 20
9.787372
 30
0.000000
  0
VERTEX
  8
MERGEDLAYER-1
 10
70.595323
 20
9.026973
 30
0.000000
  0
VERTEX
  8
MERGEDLAYER-1
 10
68.460083
 20
9.026973
 30
0.000000
  0
SEQEND
  8
MERGEDLAYER-1
  0
POLYLINE
  8
MERGEDLAYER-1
 66
  1
 70
  1
 62
 65
  0
VERTEX
  8
MERGEDLAYER-1
 10
68.458543
 20
8.501751
 30
0.000000
  0
VERTEX
  8
MERGEDLAYER-1
 10
70.226412
 20
8.501751
 30
0.000000
  0
VERTEX
  8
MERGEDLAYER-1
 10
70.226412
 20
7.739140
 30
0.000000
  0
VERTEX
  8
MERGEDLAYER-1
 10
68.458543
 20
7.739140
 30
0.000000
  0
SEQEND
  8
MERGEDLAYER-1
  0
TEXT
  8
MERGEDLAYER-1
 62
  7
 10
61.461538
 20
4.928025
 30
0.000000
 40
0.634615
  1
NEW YORK . TORONTO . QUƒBEC . LONDRES . PARIS
 72
  5
 11
81.923077
 21
4.928025
 31
0.000000
  0
TEXT
  8
MERGEDLAYER-1
 62
  7
 10
30.153846
 20
60.774179
 30
0.000000
 40
0.576923
  1
CONTRACTEUR
 72
  5
 11
36.384615
 21
60.774179
 31
0.000000
  0
TEXT
  8
MERGEDLAYER-1
 62
  7
 10
30.153846
 20
59.928025
 30
0.000000
 40
0.576923
  1
DOIT FOURNIR
 72
  5
 11
36.076923
 21
59.928025
 31
0.000000
  0
TEXT
  8
MERGEDLAYER-1
 62
  7
 10
30.153846
 20
59.081872
 30
0.000000
 40
0.576923
  1
PANNEAU D'ACCéS
 72
  5
 11
37.923077
 21
59.081872
 31
0.000000
  0
TEXT
  8
MERGEDLAYER-1
 62
  7
 10
30.153846
 20
58.235718
 30
0.000000
 40
0.576923
  1
AU PLAFOND
 72
  5
 11
35.538462
 21
58.235718
 31
0.000000
  0
TEXT
  8
MERGEDLAYER-1
 62
  7
 10
30.153846
 20
57.389564
 30
0.000000
 40
0.576923
  1
24" x 24"
 72
  5
 11
33.846154
 21
57.389564
 31
0.000000
  0
TEXT
  8
MERGEDLAYER-1
 62
  7
 10
30.153846
 20
56.543410
 30
0.000000
 40
0.576923
  1
(610x610mm)
 72
  5
 11
35.384615
 21
56.543410
 31
0.000000
  0
TEXT
  8
MERGEDLAYER-1
 62
  7
 10
30.153846
 20
55.697256
 30
0.000000
 40
0.576923
  1
SOUS LE MOTEUR
 72
  5
 11
37.538462
 21
55.697256
 31
0.000000
  0
POLYLINE
  8
MERGEDLAYER-1
 66
  1
 70
  0
 62
  7
 10
18.082473
 20
63.522264
 30
0.000000
  0
VERTEX
  8
MERGEDLAYER-1
 10
18.082473
 20
63.522264
 30
0.000000
  0
VERTEX
  8
MERGEDLAYER-1
 10
18.096183
 20
61.444481
 30
0.000000
  0
SEQEND
  8
MERGEDLAYER-1
  0
POLYLINE
  8
MERGEDLAYER-1
 66
  1
 70
  1
 62
  7
  0
VERTEX
  8
MERGEDLAYER-1
 10
18.082342
 20
63.541950
 30
0.000000
  0
VERTEX
  8
MERGEDLAYER-1
 10
17.854114
 20
63.155818
 30
0.000000
  0
VERTEX
  8
MERGEDLAYER-1
 10
18.084879
 20
63.157339
 30
0.000000
  0
VERTEX
  8
MERGEDLAYER-1
 10
18.315643
 20
63.158865
 30
0.000000
  0
VERTEX
  8
MERGEDLAYER-1
 10
18.082342
 20
63.541950
 30
0.000000
  0
SEQEND
  8
MERGEDLAYER-1
  0
TEXT
  8
MERGEDLAYER-1
 62
  7
 10
18.307692
 20
61.774179
 30
0.000000
 40
0.576923
  1
STRUCTURE
 72
  5
 11
23.384615
 21
61.774179
 31
0.000000
  0
TEXT
  8
MERGEDLAYER-1
 62
  7
 10
51.769231
 20
54.928025
 30
0.000000
 40
0.576923
  1
6" MIN
 50
90.000000
 72
  5
 11
51.769231
 21
57.697256
 31
0.000000
  0
TEXT
  8
MERGEDLAYER-1
 62
  7
 10
53.000000
 20
54.466487
 30
0.000000
 40
0.576923
  1
152 mm
 50
90.000000
 72
  5
 11
53.000000
 21
57.697256
 31
0.000000
  0
LINE
  8
MERGEDLAYER-1
 62
  7
 10
52.192308
 20
52.812641
 30
0.000000
 11
52.192308
 21
54.643254
 31
0.000000
  0
LINE
  8
MERGEDLAYER-1
 62
  7
 10
50.000000
 20
52.812641
 30
0.000000
 11
53.192308
 21
52.812641
 31
0.000000
  0
LINE
  8
MERGEDLAYER-1
 62
  7
 10
50.714257
 20
54.643254
 30
0.000000
 11
53.192308
 21
54.643254
 31
0.000000
  0
LINE
  8
MERGEDLAYER-1
 62
  7
 10
52.192308
 20
55.984680
 30
0.000000
 11
52.192308
 21
52.812641
 31
0.000000
  0
LINE
  8
MERGEDLAYER-1
 62
  7
 10
52.029137
 20
52.975821
 30
0.000000
 11
52.355483
 21
52.649461
 31
0.000000
  0
LINE
  8
MERGEDLAYER-1
 62
  7
 10
52.029137
 20
54.806434
 30
0.000000
 11
52.355483
 21
54.480070
 31
0.000000
  0
TEXT
  8
MERGEDLAYER-1
 62
  7
 10
51.664692
 20
55.359988
 30
0.000000
 40
0.346154
  1
 
 50
90.000000
  0
TEXT
  8
MERGEDLAYER-1
 62
  7
 10
55.153846
 20
53.389564
 30
0.000000
 40
0.461538
  1
PLAFOND FINI
 72
  5
 11
59.692308
 21
53.389564
 31
0.000000
  0
TEXT
  8
MERGEDLAYER-1
 62
  7
 10
49.153846
 20
51.389564
 30
0.000000
 40
0.576923
  1
6" MIN
 72
  5
 11
51.923077
 21
51.389564
 31
0.000000
  0
TEXT
  8
MERGEDLAYER-1
 62
  7
 10
48.692308
 20
50.158795
 30
0.000000
 40
0.576923
  1
152 mm
 72
  5
 11
51.923077
 21
50.158795
 31
0.000000
  0
POLYLINE
  8
MERGEDLAYER-1
 66
  1
 70
  0
 62
  7
 10
51.853431
 20
51.051072
 30
0.000000
  0
VERTEX
  8
MERGEDLAYER-1
 10
51.853431
 20
51.051072
 30
0.000000
  0
VERTEX
  8
MERGEDLAYER-1
 10
47.135733
 20
51.051072
 30
0.000000
  0
SEQEND
  8
MERGEDLAYER-1
  0
LINE
  8
MERGEDLAYER-1
 62
  7
 10
46.972558
 20
50.887893
 30
0.000000
 11
47.298913
 21
51.214252
 31
0.000000
  0
POLYLINE
  8
MERGEDLAYER-1
 66
  1
 70
  0
 62
  7
 10
49.065542
 20
50.109244
 30
0.000000
  0
VERTEX
  8
MERGEDLAYER-1
 10
49.065542
 20
50.109244
 30
0.000000
  0
VERTEX
  8
MERGEDLAYER-1
 10
49.065542
 20
52.658419
 30
0.000000
  0
SEQEND
  8
MERGEDLAYER-1
  0
POLYLINE
  8
MERGEDLAYER-1
 66
  1
 70
  0
 62
  7
 10
47.135733
 20
50.094069
 30
0.000000
  0
VERTEX
  8
MERGEDLAYER-1
 10
47.135733
 20
50.094069
 30
0.000000
  0
VERTEX
  8
MERGEDLAYER-1
 10
47.135733
 20
52.661682
 30
0.000000
  0
SEQEND
  8
MERGEDLAYER-1
  0
POLYLINE
  8
MERGEDLAYER-1
 66
  1
 70
  1
 62
  7
  0
VERTEX
  8
MERGEDLAYER-1
 10
55.036912
 20
44.593910
 30
0.000000
  0
VERTEX
  8
MERGEDLAYER-1
 10
55.036912
 20
51.378995
 30
0.000000
  0
VERTEX
  8
MERGEDLAYER-1
 10
58.269005
 20
51.378995
 30
0.000000
  0
VERTEX
  8
MERGEDLAYER-1
 10
58.269005
 20
44.593910
 30
0.000000
  0
SEQEND
  8
MERGEDLAYER-1
  0
POLYLINE
  8
MERGEDLAYER-1
 66
  1
 70
  0
 62
  7
 40
0.230769
 41
0.230769
 10
58.066970
 20
51.334942
 30
0.000000
  0
VERTEX
  8
MERGEDLAYER-1
 10
58.066970
 20
51.334942
 30
0.000000
  0
VERTEX
  8
MERGEDLAYER-1
 10
58.066970
 20
44.593910
 30
0.000000
  0
SEQEND
  8
MERGEDLAYER-1
  0
POLYLINE
  8
MERGEDLAYER-1
 66
  1
 70
  0
 62
  7
 10
9.500000
 20
9.928025
 30
0.000000
  0
VERTEX
  8
MERGEDLAYER-1
 10
9.500000
 20
9.928025
 30
0.000000
  0
VERTEX
  8
MERGEDLAYER-1
 10
11.924058
 20
11.937641
 30
0.000000
  0
SEQEND
  8
MERGEDLAYER-1
  0
POLYLINE
  8
MERGEDLAYER-1
 66
  1
 70
  1
 62
  7
  0
VERTEX
  8
MERGEDLAYER-1
 10
11.939214
 20
11.950205
 30
0.000000
  0
VERTEX
  8
MERGEDLAYER-1
 10
11.790401
 20
11.527076
 30
0.000000
  0
VERTEX
  8
MERGEDLAYER-1
 10
11.643118
 20
11.704735
 30
0.000000
  0
VERTEX
  8
MERGEDLAYER-1
 10
11.495836
 20
11.882395
 30
0.000000
  0
VERTEX
  8
MERGEDLAYER-1
 10
11.939214
 20
11.950205
 30
0.000000
  0
SEQEND
  8
MERGEDLAYER-1
  0
TEXT
  8
MERGEDLAYER-1
 62
  7
 10
51.461538
 20
20.235718
 30
0.000000
 40
0.750000
  1
2 3/4" - 70mm
 72
  5
 11
58.153846
 21
20.235718
 31
0.000000
  0
POLYLINE
  8
MERGEDLAYER-1
 66
  1
 70
  0
 62
  7
 10
13.618044
 20
18.669377
 30
0.000000
  0
VERTEX
  8
MERGEDLAYER-1
 10
13.618044
 20
18.669377
 30
0.000000
  0
VERTEX
  8
MERGEDLAYER-1
 10
16.423077
 20
22.186035
 30
0.000000
  0
SEQEND
  8
MERGEDLAYER-1
  0
POLYLINE
  8
MERGEDLAYER-1
 66
  1
 70
  1
 62
  7
  0
VERTEX
  8
MERGEDLAYER-1
 10
13.605769
 20
18.653987
 30
0.000000
  0
VERTEX
  8
MERGEDLAYER-1
 10
14.026012
 20
18.810768
 30
0.000000
  0
VERTEX
  8
MERGEDLAYER-1
 10
13.845603
 20
18.954670
 30
0.000000
  0
VERTEX
  8
MERGEDLAYER-1
 10
13.665195
 20
19.098572
 30
0.000000
  0
VERTEX
  8
MERGEDLAYER-1
 10
13.605769
 20
18.653987
 30
0.000000
  0
SEQEND
  8
MERGEDLAYER-1
  0
TEXT
  8
MERGEDLAYER-1
 62
  7
 10
53.000000
 20
33.851102
 30
0.000000
 40
0.576923
  1
BARRE DU BAS
 72
  5
 11
59.230769
 21
33.851102
 31
0.000000
  0
POLYLINE
  8
MERGEDLAYER-1
 66
  1
 70
  0
 62
  7
 10
56.550401
 20
32.190193
 30
0.000000
  0
VERTEX
  8
MERGEDLAYER-1
 10
56.550401
 20
32.190193
 30
0.000000
  0
VERTEX
  8
MERGEDLAYER-1
 10
58.083642
 20
32.190193
 30
0.000000
  0
SEQEND
  8
MERGEDLAYER-1
  0
POLYLINE
  8
MERGEDLAYER-1
 66
  1
 70
  0
 62
  7
 10
58.127728
 20
32.146109
 30
0.000000
  0
VERTEX
  8
MERGEDLAYER-1
 10
58.127728
 20
32.146109
 30
0.000000
  0
VERTEX
  8
MERGEDLAYER-1
 10
58.127728
 20
28.636681
 30
0.000000
  0
SEQEND
  8
MERGEDLAYER-1
  0
POLYLINE
  8
MERGEDLAYER-1
 66
  1
 70
  0
 62
  7
 10
58.083642
 20
28.592597
 30
0.000000
  0
VERTEX
  8
MERGEDLAYER-1
 10
58.083642
 20
28.592597
 30
0.000000
  0
VERTEX
  8
MERGEDLAYER-1
 10
56.550401
 20
28.592597
 30
0.000000
  0
SEQEND
  8
MERGEDLAYER-1
  0
POLYLINE
  8
MERGEDLAYER-1
 66
  1
 70
  0
 62
  7
 10
56.506319
 20
28.636681
 30
0.000000
  0
VERTEX
  8
MERGEDLAYER-1
 10
56.506319
 20
28.636681
 30
0.000000
  0
VERTEX
  8
MERGEDLAYER-1
 10
56.506319
 20
32.146109
 30
0.000000
  0
SEQEND
  8
MERGEDLAYER-1
  0
ARC
  8
MERGEDLAYER-1
 62
  7
 10
56.550401
 20
32.146109
 30
0.000000
 40
0.044083
 50
90.000000
 51
180.000000
  0
ARC
  8
MERGEDLAYER-1
 62
  7
 10
56.550401
 20
28.636681
 30
0.000000
 40
0.044083
 50
180.000000
 51
270.000000
  0
ARC
  8
MERGEDLAYER-1
 62
  7
 10
58.083642
 20
28.636681
 30
0.000000
 40
0.044083
 50
270.000000
 51
0.000000
  0
ARC
  8
MERGEDLAYER-1
 62
  7
 10
58.083642
 20
32.146109
 30
0.000000
 40
0.044083
 50
0.000000
 51
90.000000
  0
POLYLINE
  8
MERGEDLAYER-1
 66
  1
 70
  0
 62
  7
 10
56.903410
 20
28.502791
 30
0.000000
  0
VERTEX
  8
MERGEDLAYER-1
 10
56.903410
 20
28.502791
 30
0.000000
  0
VERTEX
  8
MERGEDLAYER-1
 10
57.036931
 20
28.502791
 30
0.000000
  0
SEQEND
  8
MERGEDLAYER-1
  0
POLYLINE
  8
MERGEDLAYER-1
 66
  1
 70
  0
 62
  7
 10
56.903410
 20
28.587963
 30
0.000000
  0
VERTEX
  8
MERGEDLAYER-1
 10
56.903410
 20
28.587963
 30
0.000000
  0
VERTEX
  8
MERGEDLAYER-1
 10
56.903410
 20
28.502791
 30
0.000000
  0
SEQEND
  8
MERGEDLAYER-1
  0
POLYLINE
  8
MERGEDLAYER-1
 66
  1
 70
  0
 62
  7
 10
56.512667
 20
28.587963
 30
0.000000
  0
VERTEX
  8
MERGEDLAYER-1
 10
56.512667
 20
28.587963
 30
0.000000
  0
VERTEX
  8
MERGEDLAYER-1
 10
56.903410
 20
28.587963
 30
0.000000
  0
SEQEND
  8
MERGEDLAYER-1
  0
POLYLINE
  8
MERGEDLAYER-1
 66
  1
 70
  0
 62
  7
 10
56.512667
 20
28.587963
 30
0.000000
  0
VERTEX
  8
MERGEDLAYER-1
 10
56.512667
 20
28.587963
 30
0.000000
  0
VERTEX
  8
MERGEDLAYER-1
 10
56.512667
 20
28.558157
 30
0.000000
  0
SEQEND
  8
MERGEDLAYER-1
  0
POLYLINE
  8
MERGEDLAYER-1
 66
  1
 70
  0
 62
  7
 10
56.512644
 20
28.558157
 30
0.000000
  0
VERTEX
  8
MERGEDLAYER-1
 10
56.512644
 20
28.558157
 30
0.000000
  0
VERTEX
  8
MERGEDLAYER-1
 10
56.547448
 20
28.471177
 30
0.000000
  0
VERTEX
  8
MERGEDLAYER-1
 10
56.638202
 20
28.432364
 30
0.000000
  0
SEQEND
  8
MERGEDLAYER-1
  0
POLYLINE
  8
MERGEDLAYER-1
 66
  1
 70
  0
 62
  7
 10
57.995840
 20
28.432357
 30
0.000000
  0
VERTEX
  8
MERGEDLAYER-1
 10
57.995840
 20
28.432357
 30
0.000000
  0
VERTEX
  8
MERGEDLAYER-1
 10
56.638202
 20
28.432357
 30
0.000000
  0
SEQEND
  8
MERGEDLAYER-1
  0
POLYLINE
  8
MERGEDLAYER-1
 66
  1
 70
  0
 62
  7
 10
57.995840
 20
28.432364
 30
0.000000
  0
VERTEX
  8
MERGEDLAYER-1
 10
57.995840
 20
28.432364
 30
0.000000
  0
VERTEX
  8
MERGEDLAYER-1
 10
58.082660
 20
28.471177
 30
0.000000
  0
VERTEX
  8
MERGEDLAYER-1
 10
58.121404
 20
28.558157
 30
0.000000
  0
SEQEND
  8
MERGEDLAYER-1
  0
POLYLINE
  8
MERGEDLAYER-1
 66
  1
 70
  0
 62
  7
 10
58.121418
 20
28.587963
 30
0.000000
  0
VERTEX
  8
MERGEDLAYER-1
 10
58.121418
 20
28.587963
 30
0.000000
  0
VERTEX
  8
MERGEDLAYER-1
 10
58.121418
 20
28.558157
 30
0.000000
  0
SEQEND
  8
MERGEDLAYER-1
  0
POLYLINE
  8
MERGEDLAYER-1
 66
  1
 70
  0
 62
  7
 10
58.121418
 20
28.587963
 30
0.000000
  0
VERTEX
  8
MERGEDLAYER-1
 10
58.121418
 20
28.587963
 30
0.000000
  0
VERTEX
  8
MERGEDLAYER-1
 10
57.730671
 20
28.587963
 30
0.000000
  0
SEQEND
  8
MERGEDLAYER-1
  0
POLYLINE
  8
MERGEDLAYER-1
 66
  1
 70
  0
 62
  7
 10
57.730671
 20
28.587963
 30
0.000000
  0
VERTEX
  8
MERGEDLAYER-1
 10
57.730671
 20
28.587963
 30
0.000000
  0
VERTEX
  8
MERGEDLAYER-1
 10
57.730671
 20
28.502791
 30
0.000000
  0
SEQEND
  8
MERGEDLAYER-1
  0
POLYLINE
  8
MERGEDLAYER-1
 66
  1
 70
  0
 62
  7
 10
57.730671
 20
28.502791
 30
0.000000
  0
VERTEX
  8
MERGEDLAYER-1
 10
57.730671
 20
28.502791
 30
0.000000
  0
VERTEX
  8
MERGEDLAYER-1
 10
57.597144
 20
28.502791
 30
0.000000
  0
SEQEND
  8
MERGEDLAYER-1
  0
POLYLINE
  8
MERGEDLAYER-1
 66
  1
 70
  0
 62
  7
 10
57.597144
 20
28.502791
 30
0.000000
  0
VERTEX
  8
MERGEDLAYER-1
 10
57.597144
 20
28.502791
 30
0.000000
  0
VERTEX
  8
MERGEDLAYER-1
 10
57.597144
 20
28.755815
 30
0.000000
  0
SEQEND
  8
MERGEDLAYER-1
  0
POLYLINE
  8
MERGEDLAYER-1
 66
  1
 70
  0
 62
  7
 10
57.628535
 20
28.787260
 30
0.000000
  0
VERTEX
  8
MERGEDLAYER-1
 10
57.628535
 20
28.787260
 30
0.000000
  0
VERTEX
  8
MERGEDLAYER-1
 10
57.597140
 20
28.755815
 30
0.000000
  0
SEQEND
  8
MERGEDLAYER-1
  0
POLYLINE
  8
MERGEDLAYER-1
 66
  1
 70
  0
 62
  7
 10
57.628535
 20
28.787241
 30
0.000000
  0
VERTEX
  8
MERGEDLAYER-1
 10
57.628535
 20
28.787241
 30
0.000000
  0
VERTEX
  8
MERGEDLAYER-1
 10
57.662654
 20
28.787241
 30
0.000000
  0
SEQEND
  8
MERGEDLAYER-1
  0
POLYLINE
  8
MERGEDLAYER-1
 66
  1
 70
  0
 62
  7
 10
57.662654
 20
28.787241
 30
0.000000
  0
VERTEX
  8
MERGEDLAYER-1
 10
57.662654
 20
28.787241
 30
0.000000
  0
VERTEX
  8
MERGEDLAYER-1
 10
57.686509
 20
28.811138
 30
0.000000
  0
SEQEND
  8
MERGEDLAYER-1
  0
POLYLINE
  8
MERGEDLAYER-1
 66
  1
 70
  0
 62
  7
 10
57.686509
 20
28.811005
 30
0.000000
  0
VERTEX
  8
MERGEDLAYER-1
 10
57.686509
 20
28.811005
 30
0.000000
  0
VERTEX
  8
MERGEDLAYER-1
 10
57.662654
 20
28.834905
 30
0.000000
  0
SEQEND
  8
MERGEDLAYER-1
  0
POLYLINE
  8
MERGEDLAYER-1
 66
  1
 70
  0
 62
  7
 10
57.594628
 20
28.834888
 30
0.000000
  0
VERTEX
  8
MERGEDLAYER-1
 10
57.594628
 20
28.834888
 30
0.000000
  0
VERTEX
  8
MERGEDLAYER-1
 10
57.662654
 20
28.834888
 30
0.000000
  0
SEQEND
  8
MERGEDLAYER-1
  0
POLYLINE
  8
MERGEDLAYER-1
 66
  1
 70
  0
 62
  7
 10
57.594628
 20
28.834895
 30
0.000000
  0
VERTEX
  8
MERGEDLAYER-1
 10
57.594628
 20
28.834895
 30
0.000000
  0
VERTEX
  8
MERGEDLAYER-1
 10
57.531846
 20
28.772001
 30
0.000000
  0
SEQEND
  8
MERGEDLAYER-1
  0
POLYLINE
  8
MERGEDLAYER-1
 66
  1
 70
  0
 62
  7
 10
57.531851
 20
28.502791
 30
0.000000
  0
VERTEX
  8
MERGEDLAYER-1
 10
57.531851
 20
28.502791
 30
0.000000
  0
VERTEX
  8
MERGEDLAYER-1
 10
57.531851
 20
28.772001
 30
0.000000
  0
SEQEND
  8
MERGEDLAYER-1
  0
POLYLINE
  8
MERGEDLAYER-1
 66
  1
 70
  0
 62
  7
 10
57.102210
 20
28.502791
 30
0.000000
  0
VERTEX
  8
MERGEDLAYER-1
 10
57.102210
 20
28.502791
 30
0.000000
  0
VERTEX
  8
MERGEDLAYER-1
 10
57.531851
 20
28.502791
 30
0.000000
  0
SEQEND
  8
MERGEDLAYER-1
  0
POLYLINE
  8
MERGEDLAYER-1
 66
  1
 70
  0
 62
  7
 10
57.102210
 20
28.502791
 30
0.000000
  0
VERTEX
  8
MERGEDLAYER-1
 10
57.102210
 20
28.502791
 30
0.000000
  0
VERTEX
  8
MERGEDLAYER-1
 10
57.102210
 20
28.772001
 30
0.000000
  0
SEQEND
  8
MERGEDLAYER-1
  0
POLYLINE
  8
MERGEDLAYER-1
 66
  1
 70
  0
 62
  7
 10
57.102210
 20
28.772001
 30
0.000000
  0
VERTEX
  8
MERGEDLAYER-1
 10
57.102210
 20
28.772001
 30
0.000000
  0
VERTEX
  8
MERGEDLAYER-1
 10
57.039433
 20
28.834895
 30
0.000000
  0
SEQEND
  8
MERGEDLAYER-1
  0
POLYLINE
  8
MERGEDLAYER-1
 66
  1
 70
  0
 62
  7
 10
57.039433
 20
28.834888
 30
0.000000
  0
VERTEX
  8
MERGEDLAYER-1
 10
57.039433
 20
28.834888
 30
0.000000
  0
VERTEX
  8
MERGEDLAYER-1
 10
56.971393
 20
28.834888
 30
0.000000
  0
SEQEND
  8
MERGEDLAYER-1
  0
POLYLINE
  8
MERGEDLAYER-1
 66
  1
 70
  0
 62
  7
 10
56.971393
 20
28.834905
 30
0.000000
  0
VERTEX
  8
MERGEDLAYER-1
 10
56.971393
 20
28.834905
 30
0.000000
  0
VERTEX
  8
MERGEDLAYER-1
 10
56.947533
 20
28.811005
 30
0.000000
  0
SEQEND
  8
MERGEDLAYER-1
  0
POLYLINE
  8
MERGEDLAYER-1
 66
  1
 70
  0
 62
  7
 10
56.947557
 20
28.811005
 30
0.000000
  0
VERTEX
  8
MERGEDLAYER-1
 10
56.947557
 20
28.811005
 30
0.000000
  0
VERTEX
  8
MERGEDLAYER-1
 10
56.947557
 20
28.811138
 30
0.000000
  0
SEQEND
  8
MERGEDLAYER-1
  0
POLYLINE
  8
MERGEDLAYER-1
 66
  1
 70
  0
 62
  7
 10
56.947533
 20
28.811138
 30
0.000000
  0
VERTEX
  8
MERGEDLAYER-1
 10
56.947533
 20
28.811138
 30
0.000000
  0
VERTEX
  8
MERGEDLAYER-1
 10
56.971393
 20
28.787241
 30
0.000000
  0
SEQEND
  8
MERGEDLAYER-1
  0
POLYLINE
  8
MERGEDLAYER-1
 66
  1
 70
  0
 62
  7
 10
57.005531
 20
28.787241
 30
0.000000
  0
VERTEX
  8
MERGEDLAYER-1
 10
57.005531
 20
28.787241
 30
0.000000
  0
VERTEX
  8
MERGEDLAYER-1
 10
56.971393
 20
28.787241
 30
0.000000
  0
SEQEND
  8
MERGEDLAYER-1
  0
POLYLINE
  8
MERGEDLAYER-1
 66
  1
 70
  0
 62
  7
 10
57.036922
 20
28.755815
 30
0.000000
  0
VERTEX
  8
MERGEDLAYER-1
 10
57.036922
 20
28.755815
 30
0.000000
  0
VERTEX
  8
MERGEDLAYER-1
 10
57.005531
 20
28.787260
 30
0.000000
  0
SEQEND
  8
MERGEDLAYER-1
  0
POLYLINE
  8
MERGEDLAYER-1
 66
  1
 70
  0
 62
  7
 10
57.036931
 20
28.502791
 30
0.000000
  0
VERTEX
  8
MERGEDLAYER-1
 10
57.036931
 20
28.502791
 30
0.000000
  0
VERTEX
  8
MERGEDLAYER-1
 10
57.036931
 20
28.755815
 30
0.000000
  0
SEQEND
  8
MERGEDLAYER-1
  0
POLYLINE
  8
MERGEDLAYER-1
 66
  1
 70
  1
 62
  7
 10
57.017869
 20
29.483945
 30
0.000000
  0
VERTEX
  8
MERGEDLAYER-1
 10
57.017869
 20
29.483945
 30
0.000000
  0
VERTEX
  8
MERGEDLAYER-1
 10
57.017869
 20
29.640364
 30
0.000000
  0
VERTEX
  8
MERGEDLAYER-1
 10
56.706853
 20
29.640364
 30
0.000000
  0
VERTEX
  8
MERGEDLAYER-1
 10
56.706853
 20
31.907992
 30
0.000000
  0
VERTEX
  8
MERGEDLAYER-1
 10
57.955937
 20
31.907992
 30
0.000000
  0
VERTEX
  8
MERGEDLAYER-1
 10
57.955937
 20
29.640364
 30
0.000000
  0
VERTEX
  8
MERGEDLAYER-1
 10
57.644893
 20
29.640364
 30
0.000000
  0
VERTEX
  8
MERGEDLAYER-1
 10
57.644893
 20
29.483945
 30
0.000000
  0
VERTEX
  8
MERGEDLAYER-1
 10
57.955937
 20
29.483945
 30
0.000000
  0
VERTEX
  8
MERGEDLAYER-1
 10
57.955937
 20
28.863866
 30
0.000000
  0
VERTEX
  8
MERGEDLAYER-1
 10
56.706853
 20
28.863866
 30
0.000000
  0
VERTEX
  8
MERGEDLAYER-1
 10
56.706853
 20
29.483945
 30
0.000000
  0
SEQEND
  8
MERGEDLAYER-1
  0
POLYLINE
  8
MERGEDLAYER-1
 66
  1
 70
  0
 62
  7
 10
57.553871
 20
30.706320
 30
0.000000
  0
VERTEX
  8
MERGEDLAYER-1
 10
57.553871
 20
30.706320
 30
0.000000
  0
VERTEX
  8
MERGEDLAYER-1
 10
57.488131
 20
30.865312
 30
0.000000
  0
VERTEX
  8
MERGEDLAYER-1
 10
57.329426
 20
30.931171
 30
0.000000
  0
VERTEX
  8
MERGEDLAYER-1
 10
57.170720
 20
30.865312
 30
0.000000
  0
VERTEX
  8
MERGEDLAYER-1
 10
57.104980
 20
30.706320
 30
0.000000
  0
VERTEX
  8
MERGEDLAYER-1
 10
57.170720
 20
30.547330
 30
0.000000
  0
VERTEX
  8
MERGEDLAYER-1
 10
57.329426
 20
30.481469
 30
0.000000
  0
VERTEX
  8
MERGEDLAYER-1
 10
57.488131
 20
30.547330
 30
0.000000
  0
VERTEX
  8
MERGEDLAYER-1
 10
57.553871
 20
30.706320
 30
0.000000
  0
SEQEND
  8
MERGEDLAYER-1
  0
POLYLINE
  8
MERGEDLAYER-1
 66
  1
 70
  0
 62
  7
 10
57.721736
 20
31.907992
 30
0.000000
  0
VERTEX
  8
MERGEDLAYER-1
 10
57.721736
 20
31.907992
 30
0.000000
  0
VERTEX
  8
MERGEDLAYER-1
 10
57.721736
 20
29.642374
 30
0.000000
  0
SEQEND
  8
MERGEDLAYER-1
  0
POLYLINE
  8
MERGEDLAYER-1
 66
  1
 70
  0
 62
  7
 10
56.941054
 20
31.907992
 30
0.000000
  0
VERTEX
  8
MERGEDLAYER-1
 10
56.941054
 20
31.907992
 30
0.000000
  0
VERTEX
  8
MERGEDLAYER-1
 10
56.941054
 20
29.642374
 30
0.000000
  0
SEQEND
  8
MERGEDLAYER-1
  0
POLYLINE
  8
MERGEDLAYER-1
 66
  1
 70
  0
 62
  7
 10
57.719595
 20
29.486507
 30
0.000000
  0
VERTEX
  8
MERGEDLAYER-1
 10
57.719595
 20
29.486507
 30
0.000000
  0
VERTEX
  8
MERGEDLAYER-1
 10
57.719595
 20
28.863270
 30
0.000000
  0
SEQEND
  8
MERGEDLAYER-1
  0
POLYLINE
  8
MERGEDLAYER-1
 66
  1
 70
  0
 62
  7
 10
56.938918
 20
29.486507
 30
0.000000
  0
VERTEX
  8
MERGEDLAYER-1
 10
56.938918
 20
29.486507
 30
0.000000
  0
VERTEX
  8
MERGEDLAYER-1
 10
56.938918
 20
28.863270
 30
0.000000
  0
SEQEND
  8
MERGEDLAYER-1
  0
TEXT
  8
MERGEDLAYER-1
 62
  7
 10
55.230769
 20
32.851102
 30
0.000000
 40
0.461538
  1
EXT.
 72
  5
 11
56.923077
 21
32.851102
 31
0.000000
  0
TEXT
  8
MERGEDLAYER-1
 62
  7
 10
58.076923
 20
32.851102
 30
0.000000
 40
0.461538
  1
INT.
 72
  5
 11
59.615385
 21
32.851102
 31
0.000000
  0
POLYLINE
  8
MERGEDLAYER-1
 66
  1
 70
  0
 62
  7
 10
57.332515
 20
32.347274
 30
0.000000
  0
VERTEX
  8
MERGEDLAYER-1
 10
57.332515
 20
32.347274
 30
0.000000
  0
VERTEX
  8
MERGEDLAYER-1
 10
57.332515
 20
33.281870
 30
0.000000
  0
SEQEND
  8
MERGEDLAYER-1
  0
POLYLINE
  8
MERGEDLAYER-1
 66
  1
 70
  1
 62
  7
 10
57.269221
 20
32.554953
 30
0.000000
  0
VERTEX
  8
MERGEDLAYER-1
 10
57.269221
 20
32.554953
 30
0.000000
  0
VERTEX
  8
MERGEDLAYER-1
 10
57.235272
 20
32.554953
 30
0.000000
  0
VERTEX
  8
MERGEDLAYER-1
 10
57.213388
 20
32.543605
 30
0.000000
  0
VERTEX
  8
MERGEDLAYER-1
 10
57.191510
 20
32.522773
 30
0.000000
  0
VERTEX
  8
MERGEDLAYER-1
 10
57.174842
 20
32.502981
 30
0.000000
  0
VERTEX
  8
MERGEDLAYER-1
 10
57.158175
 20
32.477978
 30
0.000000
  0
VERTEX
  8
MERGEDLAYER-1
 10
57.145677
 20
32.450895
 30
0.000000
  0
VERTEX
  8
MERGEDLAYER-1
 10
57.138385
 20
32.425896
 30
0.000000
  0
VERTEX
  8
MERGEDLAYER-1
 10
57.134221
 20
32.391522
 30
0.000000
  0
VERTEX
  8
MERGEDLAYER-1
 10
57.134221
 20
32.366523
 30
0.000000
  0
VERTEX
  8
MERGEDLAYER-1
 10
57.137836
 20
32.343346
 30
0.000000
  0
VERTEX
  8
MERGEDLAYER-1
 10
57.137348
 20
32.321728
 30
0.000000
  0
VERTEX
  8
MERGEDLAYER-1
 10
57.127615
 20
32.302361
 30
0.000000
  0
VERTEX
  8
MERGEDLAYER-1
 10
57.113385
 20
32.290478
 30
0.000000
  0
VERTEX
  8
MERGEDLAYER-1
 10
57.089496
 20
32.284274
 30
0.000000
  0
VERTEX
  8
MERGEDLAYER-1
 10
56.814171
 20
32.284046
 30
0.000000
  0
VERTEX
  8
MERGEDLAYER-1
 10
56.792556
 20
32.279020
 30
0.000000
  0
VERTEX
  8
MERGEDLAYER-1
 10
56.779372
 20
32.269627
 30
0.000000
  0
VERTEX
  8
MERGEDLAYER-1
 10
56.770677
 20
32.259228
 30
0.000000
  0
VERTEX
  8
MERGEDLAYER-1
 10
56.764799
 20
32.238093
 30
0.000000
  0
VERTEX
  8
MERGEDLAYER-1
 10
56.764949
 20
32.198899
 30
0.000000
  0
VERTEX
  8
MERGEDLAYER-1
 10
56.768555
 20
32.190200
 30
0.000000
  0
VERTEX
  8
MERGEDLAYER-1
 10
56.777255
 20
32.186596
 30
0.000000
  0
VERTEX
  8
MERGEDLAYER-1
 10
56.969741
 20
32.186763
 30
0.000000
  0
VERTEX
  8
MERGEDLAYER-1
 10
56.992554
 20
32.181103
 30
0.000000
  0
VERTEX
  8
MERGEDLAYER-1
 10
57.004526
 20
32.172180
 30
0.000000
  0
VERTEX
  8
MERGEDLAYER-1
 10
57.014428
 20
32.159231
 30
0.000000
  0
VERTEX
  8
MERGEDLAYER-1
 10
57.018757
 20
32.140646
 30
0.000000
  0
VERTEX
  8
MERGEDLAYER-1
 10
57.018940
 20
32.035980
 30
0.000000
  0
VERTEX
  8
MERGEDLAYER-1
 10
57.014428
 20
32.017564
 30
0.000000
  0
VERTEX
  8
MERGEDLAYER-1
 10
57.004526
 20
32.001176
 30
0.000000
  0
VERTEX
  8
MERGEDLAYER-1
 10
56.990469
 20
31.991523
 30
0.000000
  0
VERTEX
  8
MERGEDLAYER-1
 10
56.969741
 20
31.986931
 30
0.000000
  0
VERTEX
  8
MERGEDLAYER-1
 10
56.880127
 20
31.986762
 30
0.000000
  0
VERTEX
  8
MERGEDLAYER-1
 10
56.861300
 20
31.982145
 30
0.000000
  0
VERTEX
  8
MERGEDLAYER-1
 10
56.852976
 20
31.975520
 30
0.000000
  0
VERTEX
  8
MERGEDLAYER-1
 10
56.845675
 20
31.965480
 30
0.000000
  0
VERTEX
  8
MERGEDLAYER-1
 10
56.841576
 20
31.951141
 30
0.000000
  0
VERTEX
  8
MERGEDLAYER-1
 10
56.841731
 20
31.947874
 30
0.000000
  0
VERTEX
  8
MERGEDLAYER-1
 10
56.844633
 20
31.933188
 30
0.000000
  0
VERTEX
  8
MERGEDLAYER-1
 10
56.852976
 20
31.920727
 30
0.000000
  0
VERTEX
  8
MERGEDLAYER-1
 10
56.863385
 20
31.913398
 30
0.000000
  0
VERTEX
  8
MERGEDLAYER-1
 10
56.880127
 20
31.909485
 30
0.000000
  0
VERTEX
  8
MERGEDLAYER-1
 10
57.067157
 20
31.909492
 30
0.000000
  0
VERTEX
  8
MERGEDLAYER-1
 10
57.087346
 20
31.913398
 30
0.000000
  0
VERTEX
  8
MERGEDLAYER-1
 10
57.101957
 20
31.923910
 30
0.000000
  0
VERTEX
  8
MERGEDLAYER-1
 10
57.112342
 20
31.938397
 30
0.000000
  0
VERTEX
  8
MERGEDLAYER-1
 10
57.116371
 20
31.958712
 30
0.000000
  0
VERTEX
  8
MERGEDLAYER-1
 10
57.116375
 20
32.137376
 30
0.000000
  0
VERTEX
  8
MERGEDLAYER-1
 10
57.120681
 20
32.158189
 30
0.000000
  0
VERTEX
  8
MERGEDLAYER-1
 10
57.130794
 20
32.172180
 30
0.000000
  0
VERTEX
  8
MERGEDLAYER-1
 10
57.144635
 20
32.184230
 30
0.000000
  0
VERTEX
  8
MERGEDLAYER-1
 10
57.165598
 20
32.186596
 30
0.000000
  0
VERTEX
  8
MERGEDLAYER-1
 10
57.728666
 20
32.186594
 30
0.000000
  0
VERTEX
  8
MERGEDLAYER-1
 10
57.737366
 20
32.182990
 30
0.000000
  0
VERTEX
  8
MERGEDLAYER-1
 10
57.740971
 20
32.174291
 30
0.000000
  0
VERTEX
  8
MERGEDLAYER-1
 10
57.740967
 20
32.140327
 30
0.000000
  0
VERTEX
  8
MERGEDLAYER-1
 10
57.744573
 20
32.131625
 30
0.000000
  0
VERTEX
  8
MERGEDLAYER-1
 10
57.753272
 20
32.128019
 30
0.000000
  0
VERTEX
  8
MERGEDLAYER-1
 10
57.767545
 20
32.128024
 30
0.000000
  0
VERTEX
  8
MERGEDLAYER-1
 10
57.776245
 20
32.131625
 30
0.000000
  0
VERTEX
  8
MERGEDLAYER-1
 10
57.779846
 20
32.140327
 30
0.000000
  0
VERTEX
  8
MERGEDLAYER-1
 10
57.779851
 20
32.174291
 30
0.000000
  0
VERTEX
  8
MERGEDLAYER-1
 10
57.783457
 20
32.182990
 30
0.000000
  0
VERTEX
  8
MERGEDLAYER-1
 10
57.792157
 20
32.186594
 30
0.000000
  0
VERTEX
  8
MERGEDLAYER-1
 10
58.115953
 20
32.186594
 30
0.000000
  0
VERTEX
  8
MERGEDLAYER-1
 10
58.129179
 20
32.181115
 30
0.000000
  0
VERTEX
  8
MERGEDLAYER-1
 10
58.134686
 20
32.168063
 30
0.000000
  0
VERTEX
  8
MERGEDLAYER-1
 10
58.134672
 20
31.671272
 30
0.000000
  0
VERTEX
  8
MERGEDLAYER-1
 10
58.138282
 20
31.662572
 30
0.000000
  0
VERTEX
  8
MERGEDLAYER-1
 10
58.146982
 20
31.658968
 30
0.000000
  0
VERTEX
  8
MERGEDLAYER-1
 10
58.219825
 20
31.658968
 30
0.000000
  0
VERTEX
  8
MERGEDLAYER-1
 10
58.228525
 20
31.662572
 30
0.000000
  0
VERTEX
  8
MERGEDLAYER-1
 10
58.232126
 20
31.671272
 30
0.000000
  0
VERTEX
  8
MERGEDLAYER-1
 10
58.232126
 20
31.874584
 30
0.000000
  0
VERTEX
  8
MERGEDLAYER-1
 10
58.222760
 20
31.877981
 30
0.000000
  0
VERTEX
  8
MERGEDLAYER-1
 10
58.215473
 20
31.885270
 30
0.000000
  0
VERTEX
  8
MERGEDLAYER-1
 10
58.213435
 20
31.893480
 30
0.000000
  0
VERTEX
  8
MERGEDLAYER-1
 10
58.217553
 20
31.907147
 30
0.000000
  0
VERTEX
  8
MERGEDLAYER-1
 10
58.232173
 20
31.912168
 30
0.000000
  0
VERTEX
  8
MERGEDLAYER-1
 10
58.232121
 20
32.234826
 30
0.000000
  0
VERTEX
  8
MERGEDLAYER-1
 10
58.227971
 20
32.256101
 30
0.000000
  0
VERTEX
  8
MERGEDLAYER-1
 10
58.217708
 20
32.269627
 30
0.000000
  0
VERTEX
  8
MERGEDLAYER-1
 10
58.200885
 20
32.281104
 30
0.000000
  0
VERTEX
  8
MERGEDLAYER-1
 10
58.182908
 20
32.284046
 30
0.000000
  0
VERTEX
  8
MERGEDLAYER-1
 10
57.571960
 20
32.284274
 30
0.000000
  0
VERTEX
  8
MERGEDLAYER-1
 10
57.551927
 20
32.287351
 30
0.000000
  0
VERTEX
  8
MERGEDLAYER-1
 10
57.533837
 20
32.302361
 30
0.000000
  0
VERTEX
  8
MERGEDLAYER-1
 10
57.522761
 20
32.321728
 30
0.000000
  0
VERTEX
  8
MERGEDLAYER-1
 10
57.523644
 20
32.343346
 30
0.000000
  0
VERTEX
  8
MERGEDLAYER-1
 10
57.527973
 20
32.372770
 30
0.000000
  0
VERTEX
  8
MERGEDLAYER-1
 10
57.526931
 20
32.402980
 30
0.000000
  0
VERTEX
  8
MERGEDLAYER-1
 10
57.521719
 20
32.435270
 30
0.000000
  0
VERTEX
  8
MERGEDLAYER-1
 10
57.509512
 20
32.465156
 30
0.000000
  0
VERTEX
  8
MERGEDLAYER-1
 10
57.494638
 20
32.494645
 30
0.000000
  0
VERTEX
  8
MERGEDLAYER-1
 10
57.475886
 20
32.516522
 30
0.000000
  0
VERTEX
  8
MERGEDLAYER-1
 10
57.454008
 20
32.537354
 30
0.000000
  0
VERTEX
  8
MERGEDLAYER-1
 10
57.426007
 20
32.554953
 30
0.000000
  0
VERTEX
  8
MERGEDLAYER-1
 10
57.392268
 20
32.554953
 30
0.000000
  0
VERTEX
  8
MERGEDLAYER-1
 10
57.384902
 20
32.477870
 30
0.000000
  0
VERTEX
  8
MERGEDLAYER-1
 10
57.410260
 20
32.459229
 30
0.000000
  0
VERTEX
  8
MERGEDLAYER-1
 10
57.426927
 20
32.437354
 30
0.000000
  0
VERTEX
  8
MERGEDLAYER-1
 10
57.435260
 20
32.416520
 30
0.000000
  0
VERTEX
  8
MERGEDLAYER-1
 10
57.439425
 20
32.397773
 30
0.000000
  0
VERTEX
  8
MERGEDLAYER-1
 10
57.440467
 20
32.372770
 30
0.000000
  0
VERTEX
  8
MERGEDLAYER-1
 10
57.436303
 20
32.352978
 30
0.000000
  0
VERTEX
  8
MERGEDLAYER-1
 10
57.424842
 20
32.326937
 30
0.000000
  0
VERTEX
  8
MERGEDLAYER-1
 10
57.412344
 20
32.310270
 30
0.000000
  0
VERTEX
  8
MERGEDLAYER-1
 10
57.395677
 20
32.294645
 30
0.000000
  0
VERTEX
  8
MERGEDLAYER-1
 10
57.374845
 20
32.283189
 30
0.000000
  0
VERTEX
  8
MERGEDLAYER-1
 10
57.352971
 20
32.274853
 30
0.000000
  0
VERTEX
  8
MERGEDLAYER-1
 10
57.330717
 20
32.273182
 30
0.000000
  0
VERTEX
  8
MERGEDLAYER-1
 10
57.314425
 20
32.274853
 30
0.000000
  0
VERTEX
  8
MERGEDLAYER-1
 10
57.294635
 20
32.279020
 30
0.000000
  0
VERTEX
  8
MERGEDLAYER-1
 10
57.276931
 20
32.288398
 30
0.000000
  0
VERTEX
  8
MERGEDLAYER-1
 10
57.259221
 20
32.300896
 30
0.000000
  0
VERTEX
  8
MERGEDLAYER-1
 10
57.239427
 20
32.323813
 30
0.000000
  0
VERTEX
  8
MERGEDLAYER-1
 10
57.224844
 20
32.354020
 30
0.000000
  0
VERTEX
  8
MERGEDLAYER-1
 10
57.221717
 20
32.389437
 30
0.000000
  0
VERTEX
  8
MERGEDLAYER-1
 10
57.227971
 20
32.420687
 30
0.000000
  0
VERTEX
  8
MERGEDLAYER-1
 10
57.238385
 20
32.442564
 30
0.000000
  0
VERTEX
  8
MERGEDLAYER-1
 10
57.252967
 20
32.461311
 30
0.000000
  0
VERTEX
  8
MERGEDLAYER-1
 10
57.264428
 20
32.470689
 30
0.000000
  0
VERTEX
  8
MERGEDLAYER-1
 10
57.276616
 20
32.477889
 30
0.000000
  0
SEQEND
  8
MERGEDLAYER-1
  0
LINE
  8
MERGEDLAYER-1
 62
  7
 10
54.975952
 20
32.170504
 30
0.000000
 11
54.975952
 21
28.452040
 31
0.000000
  0
LINE
  8
MERGEDLAYER-1
 62
  7
 10
56.006319
 20
32.190188
 30
0.000000
 11
53.975952
 21
32.190188
 31
0.000000
  0
LINE
  8
MERGEDLAYER-1
 62
  7
 10
56.138202
 20
28.432357
 30
0.000000
 11
53.975952
 21
28.432357
 31
0.000000
  0
POLYLINE
  8
MERGEDLAYER-1
 66
  1
 70
  1
 62
  7
  0
VERTEX
  8
MERGEDLAYER-1
 10
54.975952
 20
32.190188
 30
0.000000
  0
VERTEX
  8
MERGEDLAYER-1
 10
54.745183
 20
31.805573
 30
0.000000
  0
VERTEX
  8
MERGEDLAYER-1
 10
54.975952
 20
31.805573
 30
0.000000
  0
VERTEX
  8
MERGEDLAYER-1
 10
55.206721
 20
31.805573
 30
0.000000
  0
VERTEX
  8
MERGEDLAYER-1
 10
54.975952
 20
32.190188
 30
0.000000
  0
SEQEND
  8
MERGEDLAYER-1
  0
POLYLINE
  8
MERGEDLAYER-1
 66
  1
 70
  1
 62
  7
  0
VERTEX
  8
MERGEDLAYER-1
 10
54.975952
 20
28.432357
 30
0.000000
  0
VERTEX
  8
MERGEDLAYER-1
 10
54.745183
 20
28.816972
 30
0.000000
  0
VERTEX
  8
MERGEDLAYER-1
 10
54.975952
 20
28.816972
 30
0.000000
  0
VERTEX
  8
MERGEDLAYER-1
 10
55.206721
 20
28.816972
 30
0.000000
  0
VERTEX
  8
MERGEDLAYER-1
 10
54.975952
 20
28.432357
 30
0.000000
  0
SEQEND
  8
MERGEDLAYER-1
  0
TEXT
  8
MERGEDLAYER-1
 62
  7
 10
53.967215
 20
30.394428
 30
0.000000
 40
0.692308
  1
 
 50
90.000000
  0
TEXT
  8
MERGEDLAYER-1
 62
  7
 10
52.076923
 20
30.620333
 30
0.000000
 40
0.634615
  1
3"
 72
  5
 11
53.230769
 21
30.620333
 31
0.000000
  0
TEXT
  8
MERGEDLAYER-1
 62
  7
 10
52.076923
 20
29.697256
 30
0.000000
 40
0.634615
  1
76mm
 72
  5
 11
54.615385
 21
29.697256
 31
0.000000
  0
CIRCLE
  8
MERGEDLAYER-1
 62
  7
 10
77.303861
 20
50.037039
 30
0.000000
 40
0.197531
  0
POLYLINE
  8
MERGEDLAYER-1
 66
  1
 70
  0
 62
  7
 10
77.447261
 20
50.183364
 30
0.000000
  0
VERTEX
  8
MERGEDLAYER-1
 10
77.447261
 20
50.183364
 30
0.000000
  0
VERTEX
  8
MERGEDLAYER-1
 10
77.299823
 20
50.243873
 30
0.000000
  0
VERTEX
  8
MERGEDLAYER-1
 10
77.155569
 20
50.182411
 30
0.000000
  0
VERTEX
  8
MERGEDLAYER-1
 10
77.103868
 20
50.081482
 30
0.000000
  0
SEQEND
  8
MERGEDLAYER-1
  0
POLYLINE
  8
MERGEDLAYER-1
 66
  1
 70
  0
 62
  7
 10
77.045128
 20
50.470004
 30
0.000000
  0
VERTEX
  8
MERGEDLAYER-1
 10
77.045128
 20
50.470004
 30
0.000000
  0
VERTEX
  8
MERGEDLAYER-1
 10
76.885061
 20
50.470004
 30
0.000000
  0
SEQEND
  8
MERGEDLAYER-1
  0
POLYLINE
  8
MERGEDLAYER-1
 66
  1
 70
  0
 62
  7
 10
76.885061
 20
50.470004
 30
0.000000
  0
VERTEX
  8
MERGEDLAYER-1
 10
76.885061
 20
50.470004
 30
0.000000
  0
VERTEX
  8
MERGEDLAYER-1
 10
76.885061
 20
49.637418
 30
0.000000
  0
SEQEND
  8
MERGEDLAYER-1
  0
POLYLINE
  8
MERGEDLAYER-1
 66
  1
 70
  0
 62
  7
 10
76.885061
 20
49.637418
 30
0.000000
  0
VERTEX
  8
MERGEDLAYER-1
 10
76.885061
 20
49.637418
 30
0.000000
  0
VERTEX
  8
MERGEDLAYER-1
 10
76.944303
 20
49.696674
 30
0.000000
  0
SEQEND
  8
MERGEDLAYER-1
  0
POLYLINE
  8
MERGEDLAYER-1
 66
  1
 70
  0
 62
  7
 10
77.103872
 20
50.081487
 30
0.000000
  0
VERTEX
  8
MERGEDLAYER-1
 10
77.103872
 20
50.081487
 30
0.000000
  0
VERTEX
  8
MERGEDLAYER-1
 10
77.052631
 20
49.635005
 30
0.000000
  0
SEQEND
  8
MERGEDLAYER-1
  0
POLYLINE
  8
MERGEDLAYER-1
 66
  1
 70
  0
 62
  7
 10
74.515869
 20
50.455482
 30
0.000000
  0
VERTEX
  8
MERGEDLAYER-1
 10
74.515869
 20
50.455482
 30
0.000000
  0
VERTEX
  8
MERGEDLAYER-1
 10
74.515869
 20
49.625854
 30
0.000000
  0
SEQEND
  8
MERGEDLAYER-1
  0
POLYLINE
  8
MERGEDLAYER-1
 66
  1
 70
  0
 62
  7
 10
74.515869
 20
49.625854
 30
0.000000
  0
VERTEX
  8
MERGEDLAYER-1
 10
74.515869
 20
49.625854
 30
0.000000
  0
VERTEX
  8
MERGEDLAYER-1
 10
73.923288
 20
49.625854
 30
0.000000
  0
SEQEND
  8
MERGEDLAYER-1
  0
POLYLINE
  8
MERGEDLAYER-1
 66
  1
 70
  0
 62
  7
 10
73.923288
 20
49.625854
 30
0.000000
  0
VERTEX
  8
MERGEDLAYER-1
 10
73.923288
 20
49.625854
 30
0.000000
  0
VERTEX
  8
MERGEDLAYER-1
 10
73.982525
 20
49.685124
 30
0.000000
  0
SEQEND
  8
MERGEDLAYER-1
  0
CIRCLE
  8
MERGEDLAYER-1
 62
  7
 10
74.105990
 20
50.033269
 30
0.000000
 40
0.197531
  0
POLYLINE
  8
MERGEDLAYER-1
 66
  1
 70
  0
 62
  7
 10
73.905968
 20
50.077707
 30
0.000000
  0
VERTEX
  8
MERGEDLAYER-1
 10
73.905968
 20
50.077707
 30
0.000000
  0
VERTEX
  8
MERGEDLAYER-1
 10
73.887493
 20
49.992197
 30
0.000000
  0
VERTEX
  8
MERGEDLAYER-1
 10
73.872643
 20
49.904419
 30
0.000000
  0
VERTEX
  8
MERGEDLAYER-1
 10
73.859455
 20
49.816373
 30
0.000000
  0
VERTEX
  8
MERGEDLAYER-1
 10
73.847938
 20
49.728102
 30
0.000000
  0
VERTEX
  8
MERGEDLAYER-1
 10
73.840055
 20
49.637658
 30
0.000000
  0
SEQEND
  8
MERGEDLAYER-1
  0
POLYLINE
  8
MERGEDLAYER-1
 66
  1
 70
  0
 62
  7
 10
74.249390
 20
50.179594
 30
0.000000
  0
VERTEX
  8
MERGEDLAYER-1
 10
74.249390
 20
50.179594
 30
0.000000
  0
VERTEX
  8
MERGEDLAYER-1
 10
74.101952
 20
50.240108
 30
0.000000
  0
VERTEX
  8
MERGEDLAYER-1
 10
73.957698
 20
50.178641
 30
0.000000
  0
VERTEX
  8
MERGEDLAYER-1
 10
73.905987
 20
50.077712
 30
0.000000
  0
SEQEND
  8
MERGEDLAYER-1
  0
POLYLINE
  8
MERGEDLAYER-1
 66
  1
 70
  0
 62
  7
 10
74.516850
 20
50.466233
 30
0.000000
  0
VERTEX
  8
MERGEDLAYER-1
 10
74.516850
 20
50.466233
 30
0.000000
  0
VERTEX
  8
MERGEDLAYER-1
 10
73.687190
 20
50.466233
 30
0.000000
  0
SEQEND
  8
MERGEDLAYER-1
  0
POLYLINE
  8
MERGEDLAYER-1
 66
  1
 70
  0
 62
  7
 10
73.687190
 20
50.466233
 30
0.000000
  0
VERTEX
  8
MERGEDLAYER-1
 10
73.687190
 20
50.466233
 30
0.000000
  0
VERTEX
  8
MERGEDLAYER-1
 10
73.687190
 20
49.633634
 30
0.000000
  0
SEQEND
  8
MERGEDLAYER-1
  0
POLYLINE
  8
MERGEDLAYER-1
 66
  1
 70
  0
 62
  7
 10
73.687190
 20
49.633634
 30
0.000000
  0
VERTEX
  8
MERGEDLAYER-1
 10
73.687190
 20
49.633634
 30
0.000000
  0
VERTEX
  8
MERGEDLAYER-1
 10
73.746493
 20
49.692904
 30
0.000000
  0
SEQEND
  8
MERGEDLAYER-1
  0
POLYLINE
  8
MERGEDLAYER-1
 66
  1
 70
  0
 62
  7
 10
71.457106
 20
50.453308
 30
0.000000
  0
VERTEX
  8
MERGEDLAYER-1
 10
71.457106
 20
50.453308
 30
0.000000
  0
VERTEX
  8
MERGEDLAYER-1
 10
71.457106
 20
49.623676
 30
0.000000
  0
SEQEND
  8
MERGEDLAYER-1
  0
POLYLINE
  8
MERGEDLAYER-1
 66
  1
 70
  0
 62
  7
 10
71.457106
 20
49.623676
 30
0.000000
  0
VERTEX
  8
MERGEDLAYER-1
 10
71.457106
 20
49.623676
 30
0.000000
  0
VERTEX
  8
MERGEDLAYER-1
 10
70.864525
 20
49.623676
 30
0.000000
  0
SEQEND
  8
MERGEDLAYER-1
  0
POLYLINE
  8
MERGEDLAYER-1
 66
  1
 70
  0
 62
  7
 10
70.864525
 20
49.623676
 30
0.000000
  0
VERTEX
  8
MERGEDLAYER-1
 10
70.864525
 20
49.623676
 30
0.000000
  0
VERTEX
  8
MERGEDLAYER-1
 10
70.923762
 20
49.682946
 30
0.000000
  0
SEQEND
  8
MERGEDLAYER-1
  0
CIRCLE
  8
MERGEDLAYER-1
 62
  7
 10
71.047227
 20
50.031095
 30
0.000000
 40
0.197531
  0
POLYLINE
  8
MERGEDLAYER-1
 66
  1
 70
  0
 62
  7
 10
70.847206
 20
50.075533
 30
0.000000
  0
VERTEX
  8
MERGEDLAYER-1
 10
70.847206
 20
50.075533
 30
0.000000
  0
VERTEX
  8
MERGEDLAYER-1
 10
70.828731
 20
49.990018
 30
0.000000
  0
VERTEX
  8
MERGEDLAYER-1
 10
70.813880
 20
49.902240
 30
0.000000
  0
VERTEX
  8
MERGEDLAYER-1
 10
70.800692
 20
49.814200
 30
0.000000
  0
VERTEX
  8
MERGEDLAYER-1
 10
70.789175
 20
49.725924
 30
0.000000
  0
VERTEX
  8
MERGEDLAYER-1
 10
70.779325
 20
49.637446
 30
0.000000
  0
VERTEX
  8
MERGEDLAYER-1
 10
70.781292
 20
49.635475
 30
0.000000
  0
SEQEND
  8
MERGEDLAYER-1
  0
POLYLINE
  8
MERGEDLAYER-1
 66
  1
 70
  0
 62
  7
 10
71.190627
 20
50.177420
 30
0.000000
  0
VERTEX
  8
MERGEDLAYER-1
 10
71.190627
 20
50.177420
 30
0.000000
  0
VERTEX
  8
MERGEDLAYER-1
 10
71.043189
 20
50.237929
 30
0.000000
  0
VERTEX
  8
MERGEDLAYER-1
 10
70.898935
 20
50.176467
 30
0.000000
  0
VERTEX
  8
MERGEDLAYER-1
 10
70.847224
 20
50.075538
 30
0.000000
  0
SEQEND
  8
MERGEDLAYER-1
  0
POLYLINE
  8
MERGEDLAYER-1
 66
  1
 70
  0
 62
  7
 10
70.622089
 20
50.577754
 30
0.000000
  0
VERTEX
  8
MERGEDLAYER-1
 10
70.622089
 20
50.577754
 30
0.000000
  0
VERTEX
  8
MERGEDLAYER-1
 10
70.622089
 20
50.459243
 30
0.000000
  0
SEQEND
  8
MERGEDLAYER-1
  0
POLYLINE
  8
MERGEDLAYER-1
 66
  1
 70
  0
 62
  7
 10
70.622089
 20
50.459243
 30
0.000000
  0
VERTEX
  8
MERGEDLAYER-1
 10
70.622089
 20
50.459243
 30
0.000000
  0
VERTEX
  8
MERGEDLAYER-1
 10
71.451754
 20
50.459243
 30
0.000000
  0
SEQEND
  8
MERGEDLAYER-1
  0
POLYLINE
  8
MERGEDLAYER-1
 66
  1
 70
  0
 62
  7
 10
68.163006
 20
50.453308
 30
0.000000
  0
VERTEX
  8
MERGEDLAYER-1
 10
68.163006
 20
50.453308
 30
0.000000
  0
VERTEX
  8
MERGEDLAYER-1
 10
68.281546
 20
50.453308
 30
0.000000
  0
SEQEND
  8
MERGEDLAYER-1
  0
POLYLINE
  8
MERGEDLAYER-1
 66
  1
 70
  0
 62
  7
 10
68.281546
 20
50.453308
 30
0.000000
  0
VERTEX
  8
MERGEDLAYER-1
 10
68.281546
 20
50.453308
 30
0.000000
  0
VERTEX
  8
MERGEDLAYER-1
 10
68.281546
 20
49.623676
 30
0.000000
  0
SEQEND
  8
MERGEDLAYER-1
  0
POLYLINE
  8
MERGEDLAYER-1
 66
  1
 70
  0
 62
  7
 10
68.281546
 20
49.623676
 30
0.000000
  0
VERTEX
  8
MERGEDLAYER-1
 10
68.281546
 20
49.623676
 30
0.000000
  0
VERTEX
  8
MERGEDLAYER-1
 10
67.688960
 20
49.623676
 30
0.000000
  0
SEQEND
  8
MERGEDLAYER-1
  0
POLYLINE
  8
MERGEDLAYER-1
 66
  1
 70
  0
 62
  7
 10
67.688960
 20
49.623676
 30
0.000000
  0
VERTEX
  8
MERGEDLAYER-1
 10
67.688960
 20
49.623676
 30
0.000000
  0
VERTEX
  8
MERGEDLAYER-1
 10
67.748197
 20
49.682946
 30
0.000000
  0
SEQEND
  8
MERGEDLAYER-1
  0
CIRCLE
  8
MERGEDLAYER-1
 62
  7
 10
67.871662
 20
50.031095
 30
0.000000
 40
0.197531
  0
POLYLINE
  8
MERGEDLAYER-1
 66
  1
 70
  0
 62
  7
 10
67.671640
 20
50.075533
 30
0.000000
  0
VERTEX
  8
MERGEDLAYER-1
 10
67.671640
 20
50.075533
 30
0.000000
  0
VERTEX
  8
MERGEDLAYER-1
 10
67.652785
 20
49.987863
 30
0.000000
  0
VERTEX
  8
MERGEDLAYER-1
 10
67.637630
 20
49.897916
 30
0.000000
  0
VERTEX
  8
MERGEDLAYER-1
 10
67.624230
 20
49.807692
 30
0.000000
  0
VERTEX
  8
MERGEDLAYER-1
 10
67.612572
 20
49.717229
 30
0.000000
  0
VERTEX
  8
MERGEDLAYER-1
 10
67.604633
 20
49.624587
 30
0.000000
  0
SEQEND
  8
MERGEDLAYER-1
  0
POLYLINE
  8
MERGEDLAYER-1
 66
  1
 70
  0
 62
  7
 10
68.015066
 20
50.177420
 30
0.000000
  0
VERTEX
  8
MERGEDLAYER-1
 10
68.015066
 20
50.177420
 30
0.000000
  0
VERTEX
  8
MERGEDLAYER-1
 10
67.867624
 20
50.237929
 30
0.000000
  0
VERTEX
  8
MERGEDLAYER-1
 10
67.723370
 20
50.176467
 30
0.000000
  0
VERTEX
  8
MERGEDLAYER-1
 10
67.671654
 20
50.075538
 30
0.000000
  0
SEQEND
  8
MERGEDLAYER-1
  0
TEXT
  8
MERGEDLAYER-1
 62
  7
 10
33.461538
 20
26.620333
 30
0.000000
 40
0.461538
  1
"W" COMPTOIR:
 72
  5
 11
38.538462
 21
26.620333
 31
0.000000
  0
TEXT
  8
MERGEDLAYER-1
 62
  7
 10
61.384615
 20
0.697256
 30
0.000000
 40
0.807692
  1
FAX: 1 418.831.7817
 72
  5
 11
72.307692
 21
0.697256
 31
0.000000
  0
TEXT
  8
MERGEDLAYER-1
 62
  7
 10
74.153846
 20
0.697256
 30
0.000000
 40
0.807692
  1
FAX: 1 800.470.3359
 72
  5
 11
85.076923
 21
0.697256
 31
0.000000
  0
TEXT
  8
MERGEDLAYER-1
 62
  7
 10
61.384615
 20
2.543410
 30
0.000000
 40
0.807692
  1
TEL.:1 418.831.6652
 72
  5
 11
72.230769
 21
2.543410
 31
0.000000
  0
TEXT
  8
MERGEDLAYER-1
 62
  7
 10
74.153846
 20
2.543410
 30
0.000000
 40
0.807692
  1
TEL.:1 800.501.3359
 72
  5
 11
85.000000
 21
2.543410
 31
0.000000
  0
POLYLINE
  8
MERGEDLAYER-1
 66
  1
 70
  1
 62
  7
  0
VERTEX
  8
MERGEDLAYER-1
 10
27.911797
 20
54.650156
 30
0.000000
  0
VERTEX
  8
MERGEDLAYER-1
 10
28.552281
 20
54.650156
 30
0.000000
  0
VERTEX
  8
MERGEDLAYER-1
 10
28.552281
 20
43.045814
 30
0.000000
  0
VERTEX
  8
MERGEDLAYER-1
 10
27.911797
 20
43.045814
 30
0.000000
  0
SEQEND
  8
MERGEDLAYER-1
  0
POLYLINE
  8
MERGEDLAYER-1
 66
  1
 70
  1
 62
  7
  0
VERTEX
  8
MERGEDLAYER-1
 10
6.661653
 20
54.645921
 30
0.000000
  0
VERTEX
  8
MERGEDLAYER-1
 10
7.302129
 20
54.645921
 30
0.000000
  0
VERTEX
  8
MERGEDLAYER-1
 10
7.302129
 20
43.047917
 30
0.000000
  0
VERTEX
  8
MERGEDLAYER-1
 10
6.661653
 20
43.047917
 30
0.000000
  0
SEQEND
  8
MERGEDLAYER-1
  0
POLYLINE
  8
MERGEDLAYER-1
 66
  1
 70
  1
 62
  7
  0
VERTEX
  8
MERGEDLAYER-1
 10
6.734600
 20
57.241957
 30
0.000000
  0
VERTEX
  8
MERGEDLAYER-1
 10
6.785986
 20
57.241957
 30
0.000000
  0
VERTEX
  8
MERGEDLAYER-1
 10
6.785986
 20
54.661790
 30
0.000000
  0
VERTEX
  8
MERGEDLAYER-1
 10
6.734600
 20
54.661790
 30
0.000000
  0
SEQEND
  8
MERGEDLAYER-1
  0
POLYLINE
  8
MERGEDLAYER-1
 66
  1
 70
  1
 62
  7
  0
VERTEX
  8
MERGEDLAYER-1
 10
28.450648
 20
57.241957
 30
0.000000
  0
VERTEX
  8
MERGEDLAYER-1
 10
28.502045
 20
57.241957
 30
0.000000
  0
VERTEX
  8
MERGEDLAYER-1
 10
28.502045
 20
54.661790
 30
0.000000
  0
VERTEX
  8
MERGEDLAYER-1
 10
28.450648
 20
54.661790
 30
0.000000
  0
SEQEND
  8
MERGEDLAYER-1
  0
POLYLINE
  8
MERGEDLAYER-1
 66
  1
 70
  1
 62
  7
  0
VERTEX
  8
MERGEDLAYER-1
 10
6.724877
 20
54.200083
 30
0.000000
  0
VERTEX
  8
MERGEDLAYER-1
 10
7.635999
 20
54.200083
 30
0.000000
  0
VERTEX
  8
MERGEDLAYER-1
 10
7.635999
 20
53.881221
 30
0.000000
  0
VERTEX
  8
MERGEDLAYER-1
 10
6.724877
 20
53.881221
 30
0.000000
  0
SEQEND
  8
MERGEDLAYER-1
  0
POLYLINE
  8
MERGEDLAYER-1
 66
  1
 70
  1
 62
  7
  0
VERTEX
  8
MERGEDLAYER-1
 10
27.606664
 20
54.200937
 30
0.000000
  0
VERTEX
  8
MERGEDLAYER-1
 10
28.517782
 20
54.200937
 30
0.000000
  0
VERTEX
  8
MERGEDLAYER-1
 10
28.517782
 20
53.882075
 30
0.000000
  0
VERTEX
  8
MERGEDLAYER-1
 10
27.606664
 20
53.882075
 30
0.000000
  0
SEQEND
  8
MERGEDLAYER-1
  0
POLYLINE
  8
MERGEDLAYER-1
 66
  1
 70
  0
 62
  7
 10
5.230931
 20
55.505155
 30
0.000000
  0
VERTEX
  8
MERGEDLAYER-1
 10
5.230931
 20
55.505155
 30
0.000000
  0
VERTEX
  8
MERGEDLAYER-1
 10
6.694758
 20
54.121061
 30
0.000000
  0
SEQEND
  8
MERGEDLAYER-1
  0
POLYLINE
  8
MERGEDLAYER-1
 66
  1
 70
  1
 62
  7
  0
VERTEX
  8
MERGEDLAYER-1
 10
6.709062
 20
54.107539
 30
0.000000
  0
VERTEX
  8
MERGEDLAYER-1
 10
6.271045
 20
54.204102
 30
0.000000
  0
VERTEX
  8
MERGEDLAYER-1
 10
6.429592
 20
54.371784
 30
0.000000
  0
VERTEX
  8
MERGEDLAYER-1
 10
6.588140
 20
54.539466
 30
0.000000
  0
VERTEX
  8
MERGEDLAYER-1
 10
6.709062
 20
54.107539
 30
0.000000
  0
SEQEND
  8
MERGEDLAYER-1
  0
POLYLINE
  8
MERGEDLAYER-1
 66
  1
 70
  1
 62
  7
  0
VERTEX
  8
MERGEDLAYER-1
 10
22.928765
 20
53.028485
 30
0.000000
  0
VERTEX
  8
MERGEDLAYER-1
 10
29.652121
 20
53.028485
 30
0.000000
  0
VERTEX
  8
MERGEDLAYER-1
 10
29.652121
 20
52.801274
 30
0.000000
  0
VERTEX
  8
MERGEDLAYER-1
 10
22.928765
 20
52.801274
 30
0.000000
  0
SEQEND
  8
MERGEDLAYER-1
  0
POLYLINE
  8
MERGEDLAYER-1
 66
  1
 70
  0
 62
  7
 10
22.922798
 20
53.294236
 30
0.000000
  0
VERTEX
  8
MERGEDLAYER-1
 10
22.922798
 20
53.294236
 30
0.000000
  0
VERTEX
  8
MERGEDLAYER-1
 10
22.922798
 20
52.710684
 30
0.000000
  0
SEQEND
  8
MERGEDLAYER-1
  0
POLYLINE
  8
MERGEDLAYER-1
 66
  1
 70
  0
 62
  7
 10
23.440134
 20
52.710684
 30
0.000000
  0
VERTEX
  8
MERGEDLAYER-1
 10
23.440134
 20
52.710684
 30
0.000000
  0
VERTEX
  8
MERGEDLAYER-1
 10
22.922798
 20
52.710684
 30
0.000000
  0
SEQEND
  8
MERGEDLAYER-1
  0
POLYLINE
  8
MERGEDLAYER-1
 66
  1
 70
  0
 62
  7
 10
29.658795
 20
53.285382
 30
0.000000
  0
VERTEX
  8
MERGEDLAYER-1
 10
29.658795
 20
53.285382
 30
0.000000
  0
VERTEX
  8
MERGEDLAYER-1
 10
29.658795
 20
52.710684
 30
0.000000
  0
SEQEND
  8
MERGEDLAYER-1
  0
POLYLINE
  8
MERGEDLAYER-1
 66
  1
 70
  0
 62
  7
 10
29.141463
 20
52.710684
 30
0.000000
  0
VERTEX
  8
MERGEDLAYER-1
 10
29.141463
 20
52.710684
 30
0.000000
  0
VERTEX
  8
MERGEDLAYER-1
 10
29.658795
 20
52.710684
 30
0.000000
  0
SEQEND
  8
MERGEDLAYER-1
  0
POLYLINE
  8
MERGEDLAYER-1
 66
  1
 70
  1
 62
  7
  0
VERTEX
  8
MERGEDLAYER-1
 10
23.154903
 20
52.967496
 30
0.000000
  0
VERTEX
  8
MERGEDLAYER-1
 10
29.404820
 20
52.967496
 30
0.000000
  0
VERTEX
  8
MERGEDLAYER-1
 10
29.404820
 20
52.856267
 30
0.000000
  0
VERTEX
  8
MERGEDLAYER-1
 10
23.154903
 20
52.856267
 30
0.000000
  0
SEQEND
  8
MERGEDLAYER-1
  0
POLYLINE
  8
MERGEDLAYER-1
 66
  1
 70
  0
 62
  7
 10
29.677164
 20
53.292462
 30
0.000000
  0
VERTEX
  8
MERGEDLAYER-1
 10
29.677164
 20
53.292462
 30
0.000000
  0
VERTEX
  8
MERGEDLAYER-1
 10
31.199925
 20
53.879366
 30
0.000000
  0
SEQEND
  8
MERGEDLAYER-1
  0
POLYLINE
  8
MERGEDLAYER-1
 66
  1
 70
  1
 62
  7
  0
VERTEX
  8
MERGEDLAYER-1
 10
29.658795
 20
53.285382
 30
0.000000
  0
VERTEX
  8
MERGEDLAYER-1
 10
30.100670
 20
53.208379
 30
0.000000
  0
VERTEX
  8
MERGEDLAYER-1
 10
30.017677
 20
53.423706
 30
0.000000
  0
VERTEX
  8
MERGEDLAYER-1
 10
29.934683
 20
53.639033
 30
0.000000
  0
VERTEX
  8
MERGEDLAYER-1
 10
29.658795
 20
53.285382
 30
0.000000
  0
SEQEND
  8
MERGEDLAYER-1
  0
POLYLINE
  8
MERGEDLAYER-1
 66
  1
 70
  0
 62
  7
 10
31.199925
 20
53.879366
 30
0.000000
  0
VERTEX
  8
MERGEDLAYER-1
 10
31.199925
 20
53.879366
 30
0.000000
  0
VERTEX
  8
MERGEDLAYER-1
 10
31.199925
 20
55.592717
 30
0.000000
  0
SEQEND
  8
MERGEDLAYER-1
  0
POLYLINE
  8
MERGEDLAYER-1
 66
  1
 70
  1
 62
  7
  0
VERTEX
  8
MERGEDLAYER-1
 10
7.180496
 20
56.593473
 30
0.000000
  0
VERTEX
  8
MERGEDLAYER-1
 10
28.088891
 20
56.593473
 30
0.000000
  0
VERTEX
  8
MERGEDLAYER-1
 10
28.088891
 20
55.284607
 30
0.000000
  0
VERTEX
  8
MERGEDLAYER-1
 10
7.180496
 20
55.284607
 30
0.000000
  0
SEQEND
  8
MERGEDLAYER-1
  0
POLYLINE
  8
MERGEDLAYER-1
 66
  1
 70
  1
 62
  7
 10
6.786883
 20
55.771902
 30
0.000000
  0
VERTEX
  8
MERGEDLAYER-1
 10
6.786883
 20
55.771902
 30
0.000000
  0
VERTEX
  8
MERGEDLAYER-1
 10
7.180494
 20
55.771902
 30
0.000000
  0
VERTEX
  8
MERGEDLAYER-1
 10
7.180494
 20
56.084402
 30
0.000000
  0
VERTEX
  8
MERGEDLAYER-1
 10
6.786883
 20
56.084402
 30
0.000000
  0
SEQEND
  8
MERGEDLAYER-1
  0
POLYLINE
  8
MERGEDLAYER-1
 66
  1
 70
  1
 62
  7
 10
6.990875
 20
56.139498
 30
0.000000
  0
VERTEX
  8
MERGEDLAYER-1
 10
6.990875
 20
56.139498
 30
0.000000
  0
VERTEX
  8
MERGEDLAYER-1
 10
6.990875
 20
56.139498
 30
0.000000
  0
VERTEX
  8
MERGEDLAYER-1
 10
6.990875
 20
56.254362
 30
0.000000
  0
VERTEX
  8
MERGEDLAYER-1
 10
6.917196
 20
56.284696
 30
0.000000
  0
VERTEX
  8
MERGEDLAYER-1
 10
6.917196
 20
56.520902
 30
0.000000
  0
VERTEX
  8
MERGEDLAYER-1
 10
6.844164
 20
56.520902
 30
0.000000
  0
VERTEX
  8
MERGEDLAYER-1
 10
6.844970
 20
56.284696
 30
0.000000
  0
VERTEX
  8
MERGEDLAYER-1
 10
6.844970
 20
56.284696
 30
0.000000
  0
VERTEX
  8
MERGEDLAYER-1
 10
6.844970
 20
55.582581
 30
0.000000
  0
VERTEX
  8
MERGEDLAYER-1
 10
6.844970
 20
55.582581
 30
0.000000
  0
VERTEX
  8
MERGEDLAYER-1
 10
6.844164
 20
55.350666
 30
0.000000
  0
VERTEX
  8
MERGEDLAYER-1
 10
6.916391
 20
55.350666
 30
0.000000
  0
VERTEX
  8
MERGEDLAYER-1
 10
6.917196
 20
55.582581
 30
0.000000
  0
VERTEX
  8
MERGEDLAYER-1
 10
6.990875
 20
55.612929
 30
0.000000
  0
VERTEX
  8
MERGEDLAYER-1
 10
6.990875
 20
55.724520
 30
0.000000
  0
VERTEX
  8
MERGEDLAYER-1
 10
6.990875
 20
55.724520
 30
0.000000
  0
SEQEND
  8
MERGEDLAYER-1
  0
POLYLINE
  8
MERGEDLAYER-1
 66
  1
 70
  1
 62
  7
  0
VERTEX
  8
MERGEDLAYER-1
 10
6.990875
 20
56.139498
 30
0.000000
  0
VERTEX
  8
MERGEDLAYER-1
 10
7.121967
 20
56.139498
 30
0.000000
  0
VERTEX
  8
MERGEDLAYER-1
 10
7.121967
 20
55.724520
 30
0.000000
  0
VERTEX
  8
MERGEDLAYER-1
 10
6.990875
 20
55.724520
 30
0.000000
  0
SEQEND
  8
MERGEDLAYER-1
  0
POLYLINE
  8
MERGEDLAYER-1
 66
  1
 70
  1
 62
  7
  0
VERTEX
  8
MERGEDLAYER-1
 10
6.787875
 20
56.520902
 30
0.000000
  0
VERTEX
  8
MERGEDLAYER-1
 10
6.844164
 20
56.520902
 30
0.000000
  0
VERTEX
  8
MERGEDLAYER-1
 10
6.844164
 20
55.350666
 30
0.000000
  0
VERTEX
  8
MERGEDLAYER-1
 10
6.787875
 20
55.350666
 30
0.000000
  0
SEQEND
  8
MERGEDLAYER-1
  0
POLYLINE
  8
MERGEDLAYER-1
 66
  1
 70
  0
 62
  7
 10
6.844970
 20
56.284696
 30
0.000000
  0
VERTEX
  8
MERGEDLAYER-1
 10
6.844970
 20
56.284696
 30
0.000000
  0
VERTEX
  8
MERGEDLAYER-1
 10
6.844970
 20
55.582581
 30
0.000000
  0
SEQEND
  8
MERGEDLAYER-1
  0
POLYLINE
  8
MERGEDLAYER-1
 66
  1
 70
  1
 62
  7
 10
28.194651
 20
56.471849
 30
0.000000
  0
VERTEX
  8
MERGEDLAYER-1
 10
28.194651
 20
56.471849
 30
0.000000
  0
VERTEX
  8
MERGEDLAYER-1
 10
28.450648
 20
56.471849
 30
0.000000
  0
VERTEX
  8
MERGEDLAYER-1
 10
28.450648
 20
55.399724
 30
0.000000
  0
VERTEX
  8
MERGEDLAYER-1
 10
28.092496
 20
55.399724
 30
0.000000
  0
VERTEX
  8
MERGEDLAYER-1
 10
28.092496
 20
56.421157
 30
0.000000
  0
VERTEX
  8
MERGEDLAYER-1
 10
28.194651
 20
56.421157
 30
0.000000
  0
SEQEND
  8
MERGEDLAYER-1
  0
POLYLINE
  8
MERGEDLAYER-1
 66
  1
 70
  1
 62
  7
  0
VERTEX
  8
MERGEDLAYER-1
 10
8.398390
 20
56.240300
 30
0.000000
  0
VERTEX
  8
MERGEDLAYER-1
 10
10.969831
 20
56.240300
 30
0.000000
  0
VERTEX
  8
MERGEDLAYER-1
 10
10.969831
 20
55.476408
 30
0.000000
  0
VERTEX
  8
MERGEDLAYER-1
 10
8.398390
 20
55.476408
 30
0.000000
  0
SEQEND
  8
MERGEDLAYER-1
  0
TEXT
  8
MERGEDLAYER-1
 62
  7
 10
8.461538
 20
55.543410
 30
0.000000
 40
0.576923
  1
BARIL
 72
  5
 11
11.153846
 21
55.543410
 31
0.000000
  0
POLYLINE
  8
MERGEDLAYER-1
 66
  1
 70
  0
 62
  7
 10
28.096318
 20
51.771926
 30
0.000000
  0
VERTEX
  8
MERGEDLAYER-1
 10
28.096318
 20
51.771926
 30
0.000000
  0
VERTEX
  8
MERGEDLAYER-1
 10
28.136383
 20
51.554594
 30
0.000000
  0
SEQEND
  8
MERGEDLAYER-1
  0
POLYLINE
  8
MERGEDLAYER-1
 66
  1
 70
  0
 62
  7
 10
28.088402
 20
51.901330
 30
0.000000
  0
VERTEX
  8
MERGEDLAYER-1
 10
28.088402
 20
51.901330
 30
0.000000
  0
VERTEX
  8
MERGEDLAYER-1
 10
28.094177
 20
51.774578
 30
0.000000
  0
VERTEX
  8
MERGEDLAYER-1
 10
28.096330
 20
51.771916
 30
0.000000
  0
SEQEND
  8
MERGEDLAYER-1
  0
POLYLINE
  8
MERGEDLAYER-1
 66
  1
 70
  0
 62
  7
 10
28.221140
 20
52.185228
 30
0.000000
  0
VERTEX
  8
MERGEDLAYER-1
 10
28.221140
 20
52.185228
 30
0.000000
  0
VERTEX
  8
MERGEDLAYER-1
 10
28.124420
 20
52.057838
 30
0.000000
  0
VERTEX
  8
MERGEDLAYER-1
 10
28.088409
 20
51.901339
 30
0.000000
  0
SEQEND
  8
MERGEDLAYER-1
  0
POLYLINE
  8
MERGEDLAYER-1
 66
  1
 70
  0
 62
  7
 10
28.388402
 20
52.186683
 30
0.000000
  0
VERTEX
  8
MERGEDLAYER-1
 10
28.388402
 20
52.186683
 30
0.000000
  0
VERTEX
  8
MERGEDLAYER-1
 10
28.279109
 20
52.212637
 30
0.000000
  0
VERTEX
  8
MERGEDLAYER-1
 10
28.221130
 20
52.185223
 30
0.000000
  0
SEQEND
  8
MERGEDLAYER-1
  0
POLYLINE
  8
MERGEDLAYER-1
 66
  1
 70
  0
 62
  7
 10
28.484035
 20
52.037508
 30
0.000000
  0
VERTEX
  8
MERGEDLAYER-1
 10
28.484035
 20
52.037508
 30
0.000000
  0
VERTEX
  8
MERGEDLAYER-1
 10
28.396524
 20
52.181622
 30
0.000000
  0
VERTEX
  8
MERGEDLAYER-1
 10
28.388400
 20
52.186678
 30
0.000000
  0
SEQEND
  8
MERGEDLAYER-1
  0
POLYLINE
  8
MERGEDLAYER-1
 66
  1
 70
  0
 62
  7
 10
28.494425
 20
51.887381
 30
0.000000
  0
VERTEX
  8
MERGEDLAYER-1
 10
28.494425
 20
51.887381
 30
0.000000
  0
VERTEX
  8
MERGEDLAYER-1
 10
28.484049
 20
52.037508
 30
0.000000
  0
SEQEND
  8
MERGEDLAYER-1
  0
POLYLINE
  8
MERGEDLAYER-1
 66
  1
 70
  0
 62
  7
 10
28.472645
 20
51.735333
 30
0.000000
  0
VERTEX
  8
MERGEDLAYER-1
 10
28.472645
 20
51.735333
 30
0.000000
  0
VERTEX
  8
MERGEDLAYER-1
 10
28.494425
 20
51.887381
 30
0.000000
  0
SEQEND
  8
MERGEDLAYER-1
  0
POLYLINE
  8
MERGEDLAYER-1
 66
  1
 70
  0
 62
  7
 10
28.472645
 20
51.735333
 30
0.000000
  0
VERTEX
  8
MERGEDLAYER-1
 10
28.472645
 20
51.735333
 30
0.000000
  0
VERTEX
  8
MERGEDLAYER-1
 10
28.433075
 20
51.730426
 30
0.000000
  0
SEQEND
  8
MERGEDLAYER-1
  0
POLYLINE
  8
MERGEDLAYER-1
 66
  1
 70
  0
 62
  7
 10
28.433075
 20
51.730426
 30
0.000000
  0
VERTEX
  8
MERGEDLAYER-1
 10
28.433075
 20
51.730426
 30
0.000000
  0
VERTEX
  8
MERGEDLAYER-1
 10
28.396334
 20
51.875169
 30
0.000000
  0
SEQEND
  8
MERGEDLAYER-1
  0
POLYLINE
  8
MERGEDLAYER-1
 66
  1
 70
  0
 62
  7
 10
28.396334
 20
51.875169
 30
0.000000
  0
VERTEX
  8
MERGEDLAYER-1
 10
28.396334
 20
51.875169
 30
0.000000
  0
VERTEX
  8
MERGEDLAYER-1
 10
28.389566
 20
51.988948
 30
0.000000
  0
SEQEND
  8
MERGEDLAYER-1
  0
POLYLINE
  8
MERGEDLAYER-1
 66
  1
 70
  0
 62
  7
 10
28.389564
 20
51.988943
 30
0.000000
  0
VERTEX
  8
MERGEDLAYER-1
 10
28.389564
 20
51.988943
 30
0.000000
  0
VERTEX
  8
MERGEDLAYER-1
 10
28.385888
 20
52.012601
 30
0.000000
  0
VERTEX
  8
MERGEDLAYER-1
 10
28.381270
 20
52.033860
 30
0.000000
  0
VERTEX
  8
MERGEDLAYER-1
 10
28.373831
 20
52.054303
 30
0.000000
  0
VERTEX
  8
MERGEDLAYER-1
 10
28.363701
 20
52.073552
 30
0.000000
  0
VERTEX
  8
MERGEDLAYER-1
 10
28.353039
 20
52.089294
 30
0.000000
  0
SEQEND
  8
MERGEDLAYER-1
  0
POLYLINE
  8
MERGEDLAYER-1
 66
  1
 70
  0
 62
  7
 10
28.353051
 20
52.089299
 30
0.000000
  0
VERTEX
  8
MERGEDLAYER-1
 10
28.353051
 20
52.089299
 30
0.000000
  0
VERTEX
  8
MERGEDLAYER-1
 10
28.288281
 20
52.103802
 30
0.000000
  0
VERTEX
  8
MERGEDLAYER-1
 10
28.275205
 20
52.085055
 30
0.000000
  0
SEQEND
  8
MERGEDLAYER-1
  0
POLYLINE
  8
MERGEDLAYER-1
 66
  1
 70
  0
 62
  7
 10
28.275217
 20
52.085050
 30
0.000000
  0
VERTEX
  8
MERGEDLAYER-1
 10
28.275217
 20
52.085050
 30
0.000000
  0
VERTEX
  8
MERGEDLAYER-1
 10
28.199782
 20
51.896456
 30
0.000000
  0
VERTEX
  8
MERGEDLAYER-1
 10
28.198622
 20
51.874052
 30
0.000000
  0
SEQEND
  8
MERGEDLAYER-1
  0
POLYLINE
  8
MERGEDLAYER-1
 66
  1
 70
  0
 62
  7
 10
28.198620
 20
51.874052
 30
0.000000
  0
VERTEX
  8
MERGEDLAYER-1
 10
28.198620
 20
51.874052
 30
0.000000
  0
VERTEX
  8
MERGEDLAYER-1
 10
28.194784
 20
51.856060
 30
0.000000
  0
VERTEX
  8
MERGEDLAYER-1
 10
28.194465
 20
51.836017
 30
0.000000
  0
VERTEX
  8
MERGEDLAYER-1
 10
28.195693
 20
51.816012
 30
0.000000
  0
VERTEX
  8
MERGEDLAYER-1
 10
28.198461
 20
51.796161
 30
0.000000
  0
VERTEX
  8
MERGEDLAYER-1
 10
28.202749
 20
51.776578
 30
0.000000
  0
VERTEX
  8
MERGEDLAYER-1
 10
28.204719
 20
51.774611
 30
0.000000
  0
SEQEND
  8
MERGEDLAYER-1
  0
POLYLINE
  8
MERGEDLAYER-1
 66
  1
 70
  0
 62
  7
 10
28.204693
 20
51.774611
 30
0.000000
  0
VERTEX
  8
MERGEDLAYER-1
 10
28.204693
 20
51.774611
 30
0.000000
  0
VERTEX
  8
MERGEDLAYER-1
 10
28.244298
 20
51.567918
 30
0.000000
  0
SEQEND
  8
MERGEDLAYER-1
  0
POLYLINE
  8
MERGEDLAYER-1
 66
  1
 70
  0
 62
  7
 10
28.246584
 20
51.462369
 30
0.000000
  0
VERTEX
  8
MERGEDLAYER-1
 10
28.246584
 20
51.462369
 30
0.000000
  0
VERTEX
  8
MERGEDLAYER-1
 10
28.245080
 20
51.557467
 30
0.000000
  0
VERTEX
  8
MERGEDLAYER-1
 10
28.244300
 20
51.567913
 30
0.000000
  0
SEQEND
  8
MERGEDLAYER-1
  0
POLYLINE
  8
MERGEDLAYER-1
 66
  1
 70
  0
 62
  7
 10
28.246575
 20
51.462379
 30
0.000000
  0
VERTEX
  8
MERGEDLAYER-1
 10
28.246575
 20
51.462379
 30
0.000000
  0
VERTEX
  8
MERGEDLAYER-1
 10
28.143024
 20
51.487150
 30
0.000000
  0
SEQEND
  8
MERGEDLAYER-1
  0
POLYLINE
  8
MERGEDLAYER-1
 66
  1
 70
  0
 62
  7
 10
28.143026
 20
51.487145
 30
0.000000
  0
VERTEX
  8
MERGEDLAYER-1
 10
28.143026
 20
51.487145
 30
0.000000
  0
VERTEX
  8
MERGEDLAYER-1
 10
28.141444
 20
51.502718
 30
0.000000
  0
VERTEX
  8
MERGEDLAYER-1
 10
28.140970
 20
51.516320
 30
0.000000
  0
VERTEX
  8
MERGEDLAYER-1
 10
28.139634
 20
51.529865
 30
0.000000
  0
VERTEX
  8
MERGEDLAYER-1
 10
28.137446
 20
51.543297
 30
0.000000
  0
VERTEX
  8
MERGEDLAYER-1
 10
28.134411
 20
51.556566
 30
0.000000
  0
VERTEX
  8
MERGEDLAYER-1
 10
28.136381
 20
51.554594
 30
0.000000
  0
SEQEND
  8
MERGEDLAYER-1
  0
POLYLINE
  8
MERGEDLAYER-1
 66
  1
 70
  1
 62
  7
 10
28.275212
 20
52.085045
 30
0.000000
  0
VERTEX
  8
MERGEDLAYER-1
 10
28.275212
 20
52.085045
 30
0.000000
  0
VERTEX
  8
MERGEDLAYER-1
 10
28.353046
 20
52.089299
 30
0.000000
  0
VERTEX
  8
MERGEDLAYER-1
 10
28.389566
 20
51.988948
 30
0.000000
  0
SEQEND
  8
MERGEDLAYER-1
  0
POLYLINE
  8
MERGEDLAYER-1
 66
  1
 70
  1
 62
  7
  0
VERTEX
  8
MERGEDLAYER-1
 10
25.628998
 20
46.542034
 30
0.000000
  0
VERTEX
  8
MERGEDLAYER-1
 10
25.831158
 20
46.493244
 30
0.000000
  0
VERTEX
  8
MERGEDLAYER-1
 10
25.602793
 20
45.547185
 30
0.000000
  0
VERTEX
  8
MERGEDLAYER-1
 10
25.400632
 20
45.595980
 30
0.000000
  0
SEQEND
  8
MERGEDLAYER-1
  0
POLYLINE
  8
MERGEDLAYER-1
 66
  1
 70
  0
 62
  7
 10
25.661008
 20
46.534292
 30
0.000000
  0
VERTEX
  8
MERGEDLAYER-1
 10
25.661008
 20
46.534292
 30
0.000000
  0
VERTEX
  8
MERGEDLAYER-1
 10
25.795666
 20
46.501793
 30
0.000000
  0
SEQEND
  8
MERGEDLAYER-1
  0
POLYLINE
  8
MERGEDLAYER-1
 66
  1
 70
  0
 62
  7
 10
25.661008
 20
46.534292
 30
0.000000
  0
VERTEX
  8
MERGEDLAYER-1
 10
25.661008
 20
46.534292
 30
0.000000
  0
VERTEX
  8
MERGEDLAYER-1
 10
25.705249
 20
46.719126
 30
0.000000
  0
SEQEND
  8
MERGEDLAYER-1
  0
POLYLINE
  8
MERGEDLAYER-1
 66
  1
 70
  0
 62
  7
 10
25.814594
 20
46.869840
 30
0.000000
  0
VERTEX
  8
MERGEDLAYER-1
 10
25.814594
 20
46.869840
 30
0.000000
  0
VERTEX
  8
MERGEDLAYER-1
 10
25.742965
 20
46.807326
 30
0.000000
  0
VERTEX
  8
MERGEDLAYER-1
 10
25.705252
 20
46.719121
 30
0.000000
  0
SEQEND
  8
MERGEDLAYER-1
  0
POLYLINE
  8
MERGEDLAYER-1
 66
  1
 70
  0
 62
  7
 10
25.814580
 20
46.869845
 30
0.000000
  0
VERTEX
  8
MERGEDLAYER-1
 10
25.814580
 20
46.869845
 30
0.000000
  0
VERTEX
  8
MERGEDLAYER-1
 10
27.150963
 20
47.690078
 30
0.000000
  0
SEQEND
  8
MERGEDLAYER-1
  0
POLYLINE
  8
MERGEDLAYER-1
 66
  1
 70
  0
 62
  7
 10
27.150978
 20
47.690092
 30
0.000000
  0
VERTEX
  8
MERGEDLAYER-1
 10
27.150978
 20
47.690092
 30
0.000000
  0
VERTEX
  8
MERGEDLAYER-1
 10
27.239760
 20
47.812472
 30
0.000000
  0
SEQEND
  8
MERGEDLAYER-1
  0
POLYLINE
  8
MERGEDLAYER-1
 66
  1
 70
  0
 62
  7
 10
27.294530
 20
48.038950
 30
0.000000
  0
VERTEX
  8
MERGEDLAYER-1
 10
27.294530
 20
48.038950
 30
0.000000
  0
VERTEX
  8
MERGEDLAYER-1
 10
27.239753
 20
47.812462
 30
0.000000
  0
SEQEND
  8
MERGEDLAYER-1
  0
POLYLINE
  8
MERGEDLAYER-1
 66
  1
 70
  0
 62
  7
 10
27.294530
 20
48.038950
 30
0.000000
  0
VERTEX
  8
MERGEDLAYER-1
 10
27.294530
 20
48.038950
 30
0.000000
  0
VERTEX
  8
MERGEDLAYER-1
 10
27.429542
 20
48.006366
 30
0.000000
  0
SEQEND
  8
MERGEDLAYER-1
  0
POLYLINE
  8
MERGEDLAYER-1
 66
  1
 70
  0
 62
  7
 10
27.429542
 20
48.006366
 30
0.000000
  0
VERTEX
  8
MERGEDLAYER-1
 10
27.429542
 20
48.006366
 30
0.000000
  0
VERTEX
  8
MERGEDLAYER-1
 10
27.365518
 20
47.742845
 30
0.000000
  0
SEQEND
  8
MERGEDLAYER-1
  0
POLYLINE
  8
MERGEDLAYER-1
 66
  1
 70
  0
 62
  7
 10
27.256181
 20
47.592135
 30
0.000000
  0
VERTEX
  8
MERGEDLAYER-1
 10
27.256181
 20
47.592135
 30
0.000000
  0
VERTEX
  8
MERGEDLAYER-1
 10
27.323871
 20
47.658588
 30
0.000000
  0
VERTEX
  8
MERGEDLAYER-1
 10
27.365521
 20
47.742854
 30
0.000000
  0
SEQEND
  8
MERGEDLAYER-1
  0
POLYLINE
  8
MERGEDLAYER-1
 66
  1
 70
  0
 62
  7
 10
27.256186
 20
47.592126
 30
0.000000
  0
VERTEX
  8
MERGEDLAYER-1
 10
27.256186
 20
47.592126
 30
0.000000
  0
VERTEX
  8
MERGEDLAYER-1
 10
25.919790
 20
46.771893
 30
0.000000
  0
SEQEND
  8
MERGEDLAYER-1
  0
POLYLINE
  8
MERGEDLAYER-1
 66
  1
 70
  0
 62
  7
 10
25.919793
 20
46.771888
 30
0.000000
  0
VERTEX
  8
MERGEDLAYER-1
 10
25.919793
 20
46.771888
 30
0.000000
  0
VERTEX
  8
MERGEDLAYER-1
 10
25.829041
 20
46.651475
 30
0.000000
  0
VERTEX
  8
MERGEDLAYER-1
 10
25.831008
 20
46.649508
 30
0.000000
  0
SEQEND
  8
MERGEDLAYER-1
  0
POLYLINE
  8
MERGEDLAYER-1
 66
  1
 70
  0
 62
  7
 10
25.795725
 20
46.502047
 30
0.000000
  0
VERTEX
  8
MERGEDLAYER-1
 10
25.795725
 20
46.502047
 30
0.000000
  0
VERTEX
  8
MERGEDLAYER-1
 10
25.831003
 20
46.649503
 30
0.000000
  0
SEQEND
  8
MERGEDLAYER-1
  0
POLYLINE
  8
MERGEDLAYER-1
 66
  1
 70
  1
 62
  7
  0
VERTEX
  8
MERGEDLAYER-1
 10
27.484152
 20
48.994404
 30
0.000000
  0
VERTEX
  8
MERGEDLAYER-1
 10
27.688235
 20
48.945575
 30
0.000000
  0
VERTEX
  8
MERGEDLAYER-1
 10
27.461811
 20
47.999479
 30
0.000000
  0
VERTEX
  8
MERGEDLAYER-1
 10
27.257740
 20
48.048307
 30
0.000000
  0
SEQEND
  8
MERGEDLAYER-1
  0
POLYLINE
  8
MERGEDLAYER-1
 66
  1
 70
  1
 62
  7
  0
VERTEX
  8
MERGEDLAYER-1
 10
28.123897
 20
51.496113
 30
0.000000
  0
VERTEX
  8
MERGEDLAYER-1
 10
28.263353
 20
51.462449
 30
0.000000
  0
VERTEX
  8
MERGEDLAYER-1
 10
27.657614
 20
48.952965
 30
0.000000
  0
VERTEX
  8
MERGEDLAYER-1
 10
27.518163
 20
48.986624
 30
0.000000
  0
SEQEND
  8
MERGEDLAYER-1
  0
POLYLINE
  8
MERGEDLAYER-1
 66
  1
 70
  1
 62
  7
 10
28.228365
 20
52.903546
 30
0.000000
  0
VERTEX
  8
MERGEDLAYER-1
 10
28.228365
 20
52.903546
 30
0.000000
  0
VERTEX
  8
MERGEDLAYER-1
 10
28.382634
 20
52.905104
 30
0.000000
  0
VERTEX
  8
MERGEDLAYER-1
 10
28.406219
 20
52.894329
 30
0.000000
  0
VERTEX
  8
MERGEDLAYER-1
 10
28.415433
 20
52.872080
 30
0.000000
  0
VERTEX
  8
MERGEDLAYER-1
 10
28.424669
 20
52.556861
 30
0.000000
  0
VERTEX
  8
MERGEDLAYER-1
 10
28.499915
 20
52.468065
 30
0.000000
  0
VERTEX
  8
MERGEDLAYER-1
 10
28.509496
 20
52.419898
 30
0.000000
  0
VERTEX
  8
MERGEDLAYER-1
 10
28.509507
 20
52.087191
 30
0.000000
  0
VERTEX
  8
MERGEDLAYER-1
 10
28.501225
 20
52.046128
 30
0.000000
  0
VERTEX
  8
MERGEDLAYER-1
 10
28.483267
 20
52.023869
 30
0.000000
  0
VERTEX
  8
MERGEDLAYER-1
 10
28.456355
 20
52.007667
 30
0.000000
  0
VERTEX
  8
MERGEDLAYER-1
 10
28.419941
 20
51.997638
 30
0.000000
  0
VERTEX
  8
MERGEDLAYER-1
 10
28.192406
 20
51.997634
 30
0.000000
  0
VERTEX
  8
MERGEDLAYER-1
 10
28.158276
 20
52.004460
 30
0.000000
  0
VERTEX
  8
MERGEDLAYER-1
 10
28.129078
 20
52.023869
 30
0.000000
  0
VERTEX
  8
MERGEDLAYER-1
 10
28.110197
 20
52.058951
 30
0.000000
  0
VERTEX
  8
MERGEDLAYER-1
 10
28.102849
 20
52.087191
 30
0.000000
  0
VERTEX
  8
MERGEDLAYER-1
 10
28.102849
 20
52.419898
 30
0.000000
  0
VERTEX
  8
MERGEDLAYER-1
 10
28.112434
 20
52.468065
 30
0.000000
  0
VERTEX
  8
MERGEDLAYER-1
 10
28.139721
 20
52.508892
 30
0.000000
  0
VERTEX
  8
MERGEDLAYER-1
 10
28.187700
 20
52.556861
 30
0.000000
  0
VERTEX
  8
MERGEDLAYER-1
 10
28.196899
 20
52.872080
 30
0.000000
  0
VERTEX
  8
MERGEDLAYER-1
 10
28.206116
 20
52.894329
 30
0.000000
  0
SEQEND
  8
MERGEDLAYER-1
  0
POLYLINE
  8
MERGEDLAYER-1
 66
  1
 70
  0
 62
  7
 10
28.278642
 20
52.475614
 30
0.000000
  0
VERTEX
  8
MERGEDLAYER-1
 10
28.278642
 20
52.475614
 30
0.000000
  0
VERTEX
  8
MERGEDLAYER-1
 10
28.339189
 20
52.475614
 30
0.000000
  0
SEQEND
  8
MERGEDLAYER-1
  0
POLYLINE
  8
MERGEDLAYER-1
 66
  1
 70
  0
 62
  7
 10
28.401867
 20
52.412940
 30
0.000000
  0
VERTEX
  8
MERGEDLAYER-1
 10
28.401867
 20
52.412940
 30
0.000000
  0
VERTEX
  8
MERGEDLAYER-1
 10
28.401867
 20
52.166499
 30
0.000000
  0
SEQEND
  8
MERGEDLAYER-1
  0
POLYLINE
  8
MERGEDLAYER-1
 66
  1
 70
  0
 62
  7
 10
28.339189
 20
52.103821
 30
0.000000
  0
VERTEX
  8
MERGEDLAYER-1
 10
28.339189
 20
52.103821
 30
0.000000
  0
VERTEX
  8
MERGEDLAYER-1
 10
28.278642
 20
52.103821
 30
0.000000
  0
SEQEND
  8
MERGEDLAYER-1
  0
POLYLINE
  8
MERGEDLAYER-1
 66
  1
 70
  0
 62
  7
 10
28.215966
 20
52.166499
 30
0.000000
  0
VERTEX
  8
MERGEDLAYER-1
 10
28.215966
 20
52.166499
 30
0.000000
  0
VERTEX
  8
MERGEDLAYER-1
 10
28.215966
 20
52.412940
 30
0.000000
  0
SEQEND
  8
MERGEDLAYER-1
  0
ARC
  8
MERGEDLAYER-1
 62
  7
 10
28.278642
 20
52.412940
 30
0.000000
 40
0.062676
 50
90.000000
 51
180.000000
  0
ARC
  8
MERGEDLAYER-1
 62
  7
 10
28.278642
 20
52.166499
 30
0.000000
 40
0.062676
 50
180.000000
 51
270.000000
  0
ARC
  8
MERGEDLAYER-1
 62
  7
 10
28.339189
 20
52.166499
 30
0.000000
 40
0.062676
 50
270.000000
 51
0.000000
  0
ARC
  8
MERGEDLAYER-1
 62
  7
 10
28.339189
 20
52.412940
 30
0.000000
 40
0.062676
 50
0.000000
 51
90.000000
  0
TEXT
  8
MERGEDLAYER-1
 62
  7
 10
29.923077
 20
46.928025
 30
0.000000
 40
0.576923
  1
POIGNƒE DE
 72
  5
 11
35.230769
 21
46.928025
 31
0.000000
  0
TEXT
  8
MERGEDLAYER-1
 62
  7
 10
29.923077
 20
46.081872
 30
0.000000
 40
0.576923
  1
MANIVELLE
 72
  5
 11
34.769231
 21
46.081872
 31
0.000000
  0
POLYLINE
  8
MERGEDLAYER-1
 66
  1
 70
  0
 62
  7
 10
29.249899
 20
47.348853
 30
0.000000
  0
VERTEX
  8
MERGEDLAYER-1
 10
29.249899
 20
47.348853
 30
0.000000
  0
VERTEX
  8
MERGEDLAYER-1
 10
27.345278
 20
47.653508
 30
0.000000
  0
SEQEND
  8
MERGEDLAYER-1
  0
POLYLINE
  8
MERGEDLAYER-1
 66
  1
 70
  1
 62
  7
  0
VERTEX
  8
MERGEDLAYER-1
 10
27.325841
 20
47.656616
 30
0.000000
  0
VERTEX
  8
MERGEDLAYER-1
 10
27.742077
 20
47.823740
 30
0.000000
  0
VERTEX
  8
MERGEDLAYER-1
 10
27.705627
 20
47.595863
 30
0.000000
  0
VERTEX
  8
MERGEDLAYER-1
 10
27.669178
 20
47.367995
 30
0.000000
  0
VERTEX
  8
MERGEDLAYER-1
 10
27.325841
 20
47.656616
 30
0.000000
  0
SEQEND
  8
MERGEDLAYER-1
  0
POLYLINE
  8
MERGEDLAYER-1
 66
  1
 70
  1
 62
  7
  0
VERTEX
  8
MERGEDLAYER-1
 10
28.246883
 20
55.391249
 30
0.000000
  0
VERTEX
  8
MERGEDLAYER-1
 10
28.347360
 20
55.391249
 30
0.000000
  0
VERTEX
  8
MERGEDLAYER-1
 10
28.347360
 20
52.895855
 30
0.000000
  0
VERTEX
  8
MERGEDLAYER-1
 10
28.246883
 20
52.895855
 30
0.000000
  0
SEQEND
  8
MERGEDLAYER-1
  0
POLYLINE
  8
MERGEDLAYER-1
 66
  1
 70
  0
 62
255
 10
28.230692
 20
51.998000
 30
0.000000
  0
VERTEX
  8
MERGEDLAYER-1
 10
28.230692
 20
51.998000
 30
0.000000
  0
VERTEX
  8
MERGEDLAYER-1
 10
28.183251
 20
51.998000
 30
0.000000
  0
SEQEND
  8
MERGEDLAYER-1
  0
POLYLINE
  8
MERGEDLAYER-1
 66
  1
 70
  0
 62
255
 10
28.115387
 20
52.030086
 30
0.000000
  0
VERTEX
  8
MERGEDLAYER-1
 10
28.115387
 20
52.030086
 30
0.000000
  0
VERTEX
  8
MERGEDLAYER-1
 10
28.168196
 20
52.000615
 30
0.000000
  0
VERTEX
  8
MERGEDLAYER-1
 10
28.183246
 20
51.998005
 30
0.000000
  0
SEQEND
  8
MERGEDLAYER-1
  0
POLYLINE
  8
MERGEDLAYER-1
 66
  1
 70
  0
 62
255
 10
28.205625
 20
52.167448
 30
0.000000
  0
VERTEX
  8
MERGEDLAYER-1
 10
28.205625
 20
52.167448
 30
0.000000
  0
VERTEX
  8
MERGEDLAYER-1
 10
28.117129
 20
52.041213
 30
0.000000
  0
VERTEX
  8
MERGEDLAYER-1
 10
28.115387
 20
52.030086
 30
0.000000
  0
SEQEND
  8
MERGEDLAYER-1
  0
POLYLINE
  8
MERGEDLAYER-1
 66
  1
 70
  0
 62
255
 10
28.388569
 20
52.184007
 30
0.000000
  0
VERTEX
  8
MERGEDLAYER-1
 10
28.388569
 20
52.184007
 30
0.000000
  0
VERTEX
  8
MERGEDLAYER-1
 10
28.281412
 20
52.210186
 30
0.000000
  0
VERTEX
  8
MERGEDLAYER-1
 10
28.205632
 20
52.167448
 30
0.000000
  0
SEQEND
  8
MERGEDLAYER-1
  0
POLYLINE
  8
MERGEDLAYER-1
 66
  1
 70
  0
 62
255
 10
28.388569
 20
52.184007
 30
0.000000
  0
VERTEX
  8
MERGEDLAYER-1
 10
28.388569
 20
52.184007
 30
0.000000
  0
VERTEX
  8
MERGEDLAYER-1
 10
28.388569
 20
52.169321
 30
0.000000
  0
SEQEND
  8
MERGEDLAYER-1
  0
POLYLINE
  8
MERGEDLAYER-1
 66
  1
 70
  0
 62
255
 10
28.323216
 20
52.103971
 30
0.000000
  0
VERTEX
  8
MERGEDLAYER-1
 10
28.323216
 20
52.103971
 30
0.000000
  0
VERTEX
  8
MERGEDLAYER-1
 10
28.386599
 20
52.171283
 30
0.000000
  0
VERTEX
  8
MERGEDLAYER-1
 10
28.388569
 20
52.169321
 30
0.000000
  0
SEQEND
  8
MERGEDLAYER-1
  0
POLYLINE
  8
MERGEDLAYER-1
 66
  1
 70
  0
 62
255
 10
28.323214
 20
52.103971
 30
0.000000
  0
VERTEX
  8
MERGEDLAYER-1
 10
28.323214
 20
52.103971
 30
0.000000
  0
VERTEX
  8
MERGEDLAYER-1
 10
28.297877
 20
52.103971
 30
0.000000
  0
SEQEND
  8
MERGEDLAYER-1
  0
POLYLINE
  8
MERGEDLAYER-1
 66
  1
 70
  0
 62
255
 10
28.297873
 20
52.103966
 30
0.000000
  0
VERTEX
  8
MERGEDLAYER-1
 10
28.297873
 20
52.103966
 30
0.000000
  0
VERTEX
  8
MERGEDLAYER-1
 10
28.277313
 20
52.088487
 30
0.000000
  0
VERTEX
  8
MERGEDLAYER-1
 10
28.261064
 20
52.068838
 30
0.000000
  0
VERTEX
  8
MERGEDLAYER-1
 10
28.247413
 20
52.047307
 30
0.000000
  0
VERTEX
  8
MERGEDLAYER-1
 10
28.236575
 20
52.024226
 30
0.000000
  0
VERTEX
  8
MERGEDLAYER-1
 10
28.230694
 20
51.998000
 30
0.000000
  0
SEQEND
  8
MERGEDLAYER-1
  0
POLYLINE
  8
MERGEDLAYER-1
 66
  1
 70
  1
 62
255
 10
28.388569
 20
52.184007
 30
0.000000
  0
VERTEX
  8
MERGEDLAYER-1
 10
28.388569
 20
52.184007
 30
0.000000
  0
VERTEX
  8
MERGEDLAYER-1
 10
28.205627
 20
52.167448
 30
0.000000
  0
VERTEX
  8
MERGEDLAYER-1
 10
28.115387
 20
52.030086
 30
0.000000
  0
VERTEX
  8
MERGEDLAYER-1
 10
28.183251
 20
51.998000
 30
0.000000
  0
VERTEX
  8
MERGEDLAYER-1
 10
28.297877
 20
52.103971
 30
0.000000
  0
SEQEND
  8
MERGEDLAYER-1
  0
POLYLINE
  8
MERGEDLAYER-1
 66
  1
 70
  1
 62
  7
  0
VERTEX
  8
MERGEDLAYER-1
 10
49.486154
 20
56.206942
 30
0.000000
  0
VERTEX
  8
MERGEDLAYER-1
 10
49.586642
 20
56.206942
 30
0.000000
  0
VERTEX
  8
MERGEDLAYER-1
 10
49.586642
 20
53.077857
 30
0.000000
  0
VERTEX
  8
MERGEDLAYER-1
 10
49.486154
 20
53.077857
 30
0.000000
  0
SEQEND
  8
MERGEDLAYER-1
  0
POLYLINE
  8
MERGEDLAYER-1
 66
  1
 70
  0
 62
  7
 10
49.599445
 20
56.206782
 30
0.000000
  0
VERTEX
  8
MERGEDLAYER-1
 10
49.599445
 20
56.206782
 30
0.000000
  0
VERTEX
  8
MERGEDLAYER-1
 10
49.478436
 20
56.206782
 30
0.000000
  0
SEQEND
  8
MERGEDLAYER-1
  0
POLYLINE
  8
MERGEDLAYER-1
 66
  1
 70
  0
 62
  7
 10
49.559397
 20
56.237056
 30
0.000000
  0
VERTEX
  8
MERGEDLAYER-1
 10
49.559397
 20
56.237056
 30
0.000000
  0
VERTEX
  8
MERGEDLAYER-1
 10
49.518527
 20
56.237056
 30
0.000000
  0
SEQEND
  8
MERGEDLAYER-1
  0
POLYLINE
  8
MERGEDLAYER-1
 66
  1
 70
  0
 62
  7
 10
49.599445
 20
56.213341
 30
0.000000
  0
VERTEX
  8
MERGEDLAYER-1
 10
49.599445
 20
56.213341
 30
0.000000
  0
VERTEX
  8
MERGEDLAYER-1
 10
49.591487
 20
56.222839
 30
0.000000
  0
VERTEX
  8
MERGEDLAYER-1
 10
49.584229
 20
56.229164
 30
0.000000
  0
VERTEX
  8
MERGEDLAYER-1
 10
49.575951
 20
56.234065
 30
0.000000
  0
VERTEX
  8
MERGEDLAYER-1
 10
49.566918
 20
56.237389
 30
0.000000
  0
VERTEX
  8
MERGEDLAYER-1
 10
49.557434
 20
56.239023
 30
0.000000
  0
VERTEX
  8
MERGEDLAYER-1
 10
49.559397
 20
56.237056
 30
0.000000
  0
SEQEND
  8
MERGEDLAYER-1
  0
POLYLINE
  8
MERGEDLAYER-1
 66
  1
 70
  0
 62
  7
 10
49.518536
 20
56.237056
 30
0.000000
  0
VERTEX
  8
MERGEDLAYER-1
 10
49.518536
 20
56.237056
 30
0.000000
  0
VERTEX
  8
MERGEDLAYER-1
 10
49.507296
 20
56.236821
 30
0.000000
  0
VERTEX
  8
MERGEDLAYER-1
 10
49.498460
 20
56.233248
 30
0.000000
  0
VERTEX
  8
MERGEDLAYER-1
 10
49.490258
 20
56.228398
 30
0.000000
  0
VERTEX
  8
MERGEDLAYER-1
 10
49.482877
 20
56.222375
 30
0.000000
  0
VERTEX
  8
MERGEDLAYER-1
 10
49.478450
 20
56.213341
 30
0.000000
  0
SEQEND
  8
MERGEDLAYER-1
  0
POLYLINE
  8
MERGEDLAYER-1
 66
  1
 70
  0
 62
  7
 10
49.599445
 20
56.206782
 30
0.000000
  0
VERTEX
  8
MERGEDLAYER-1
 10
49.599445
 20
56.206782
 30
0.000000
  0
VERTEX
  8
MERGEDLAYER-1
 10
49.599445
 20
56.213341
 30
0.000000
  0
SEQEND
  8
MERGEDLAYER-1
  0
POLYLINE
  8
MERGEDLAYER-1
 66
  1
 70
  0
 62
  7
 10
49.478441
 20
56.213341
 30
0.000000
  0
VERTEX
  8
MERGEDLAYER-1
 10
49.478441
 20
56.213341
 30
0.000000
  0
VERTEX
  8
MERGEDLAYER-1
 10
49.478441
 20
56.206782
 30
0.000000
  0
SEQEND
  8
MERGEDLAYER-1
  0
POLYLINE
  8
MERGEDLAYER-1
 66
  1
 70
  1
 62
  7
  0
VERTEX
  8
MERGEDLAYER-1
 10
49.471468
 20
56.206942
 30
0.000000
  0
VERTEX
  8
MERGEDLAYER-1
 10
49.605478
 20
56.206942
 30
0.000000
  0
VERTEX
  8
MERGEDLAYER-1
 10
49.605478
 20
56.192449
 30
0.000000
  0
VERTEX
  8
MERGEDLAYER-1
 10
49.471468
 20
56.192449
 30
0.000000
  0
SEQEND
  8
MERGEDLAYER-1
  0
POLYLINE
  8
MERGEDLAYER-1
 66
  1
 70
  1
 62
  7
 10
49.461149
 20
53.083041
 30
0.000000
  0
VERTEX
  8
MERGEDLAYER-1
 10
49.461149
 20
53.083041
 30
0.000000
  0
VERTEX
  8
MERGEDLAYER-1
 10
49.615417
 20
53.084599
 30
0.000000
  0
VERTEX
  8
MERGEDLAYER-1
 10
49.639001
 20
53.073824
 30
0.000000
  0
VERTEX
  8
MERGEDLAYER-1
 10
49.648217
 20
53.051575
 30
0.000000
  0
VERTEX
  8
MERGEDLAYER-1
 10
49.657452
 20
52.736356
 30
0.000000
  0
VERTEX
  8
MERGEDLAYER-1
 10
49.732694
 20
52.647555
 30
0.000000
  0
VERTEX
  8
MERGEDLAYER-1
 10
49.742277
 20
52.599393
 30
0.000000
  0
VERTEX
  8
MERGEDLAYER-1
 10
49.742291
 20
52.266686
 30
0.000000
  0
VERTEX
  8
MERGEDLAYER-1
 10
49.734009
 20
52.225623
 30
0.000000
  0
VERTEX
  8
MERGEDLAYER-1
 10
49.716046
 20
52.203360
 30
0.000000
  0
VERTEX
  8
MERGEDLAYER-1
 10
49.689134
 20
52.187162
 30
0.000000
  0
VERTEX
  8
MERGEDLAYER-1
 10
49.652724
 20
52.177133
 30
0.000000
  0
VERTEX
  8
MERGEDLAYER-1
 10
49.425185
 20
52.177129
 30
0.000000
  0
VERTEX
  8
MERGEDLAYER-1
 10
49.391062
 20
52.183955
 30
0.000000
  0
VERTEX
  8
MERGEDLAYER-1
 10
49.361863
 20
52.203360
 30
0.000000
  0
VERTEX
  8
MERGEDLAYER-1
 10
49.342975
 20
52.238441
 30
0.000000
  0
VERTEX
  8
MERGEDLAYER-1
 10
49.335632
 20
52.266686
 30
0.000000
  0
VERTEX
  8
MERGEDLAYER-1
 10
49.335632
 20
52.599393
 30
0.000000
  0
VERTEX
  8
MERGEDLAYER-1
 10
49.345215
 20
52.647555
 30
0.000000
  0
VERTEX
  8
MERGEDLAYER-1
 10
49.372507
 20
52.688387
 30
0.000000
  0
VERTEX
  8
MERGEDLAYER-1
 10
49.420481
 20
52.736356
 30
0.000000
  0
VERTEX
  8
MERGEDLAYER-1
 10
49.429683
 20
53.051575
 30
0.000000
  0
VERTEX
  8
MERGEDLAYER-1
 10
49.438894
 20
53.073824
 30
0.000000
  0
SEQEND
  8
MERGEDLAYER-1
  0
POLYLINE
  8
MERGEDLAYER-1
 66
  1
 70
  0
 62
255
 10
49.511423
 20
52.655109
 30
0.000000
  0
VERTEX
  8
MERGEDLAYER-1
 10
49.511423
 20
52.655109
 30
0.000000
  0
VERTEX
  8
MERGEDLAYER-1
 10
49.571970
 20
52.655109
 30
0.000000
  0
SEQEND
  8
MERGEDLAYER-1
  0
POLYLINE
  8
MERGEDLAYER-1
 66
  1
 70
  0
 62
255
 10
49.634648
 20
52.592435
 30
0.000000
  0
VERTEX
  8
MERGEDLAYER-1
 10
49.634648
 20
52.592435
 30
0.000000
  0
VERTEX
  8
MERGEDLAYER-1
 10
49.634648
 20
52.345990
 30
0.000000
  0
SEQEND
  8
MERGEDLAYER-1
  0
POLYLINE
  8
MERGEDLAYER-1
 66
  1
 70
  0
 62
255
 10
49.571970
 20
52.283316
 30
0.000000
  0
VERTEX
  8
MERGEDLAYER-1
 10
49.571970
 20
52.283316
 30
0.000000
  0
VERTEX
  8
MERGEDLAYER-1
 10
49.511423
 20
52.283316
 30
0.000000
  0
SEQEND
  8
MERGEDLAYER-1
  0
POLYLINE
  8
MERGEDLAYER-1
 66
  1
 70
  0
 62
255
 10
49.448745
 20
52.345990
 30
0.000000
  0
VERTEX
  8
MERGEDLAYER-1
 10
49.448745
 20
52.345990
 30
0.000000
  0
VERTEX
  8
MERGEDLAYER-1
 10
49.448745
 20
52.592435
 30
0.000000
  0
SEQEND
  8
MERGEDLAYER-1
  0
ARC
  8
MERGEDLAYER-1
 62
255
 10
49.511423
 20
52.592435
 30
0.000000
 40
0.062676
 50
90.000000
 51
180.000000
  0
ARC
  8
MERGEDLAYER-1
 62
255
 10
49.511423
 20
52.345990
 30
0.000000
 40
0.062676
 50
180.000000
 51
270.000000
  0
ARC
  8
MERGEDLAYER-1
 62
255
 10
49.571970
 20
52.345990
 30
0.000000
 40
0.062676
 50
270.000000
 51
0.000000
  0
ARC
  8
MERGEDLAYER-1
 62
255
 10
49.571970
 20
52.592435
 30
0.000000
 40
0.062676
 50
0.000000
 51
90.000000
  0
POLYLINE
  8
MERGEDLAYER-1
 66
  1
 70
  0
 62
  7
 10
49.106882
 20
56.949125
 30
0.000000
  0
VERTEX
  8
MERGEDLAYER-1
 10
49.106882
 20
56.949125
 30
0.000000
  0
VERTEX
  8
MERGEDLAYER-1
 10
49.059106
 20
57.064472
 30
0.000000
  0
VERTEX
  8
MERGEDLAYER-1
 10
48.943763
 20
57.112248
 30
0.000000
  0
VERTEX
  8
MERGEDLAYER-1
 10
48.828421
 20
57.064472
 30
0.000000
  0
VERTEX
  8
MERGEDLAYER-1
 10
48.780644
 20
56.949125
 30
0.000000
  0
VERTEX
  8
MERGEDLAYER-1
 10
48.828421
 20
56.833782
 30
0.000000
  0
VERTEX
  8
MERGEDLAYER-1
 10
48.943763
 20
56.786001
 30
0.000000
  0
VERTEX
  8
MERGEDLAYER-1
 10
49.059106
 20
56.833782
 30
0.000000
  0
VERTEX
  8
MERGEDLAYER-1
 10
49.106882
 20
56.949125
 30
0.000000
  0
SEQEND
  8
MERGEDLAYER-1
  0
POLYLINE
  8
MERGEDLAYER-1
 66
  1
 70
  0
 62
  7
 10
49.022898
 20
56.949125
 30
0.000000
  0
VERTEX
  8
MERGEDLAYER-1
 10
49.022898
 20
56.949125
 30
0.000000
  0
VERTEX
  8
MERGEDLAYER-1
 10
48.999718
 20
57.005089
 30
0.000000
  0
VERTEX
  8
MERGEDLAYER-1
 10
48.943763
 20
57.028269
 30
0.000000
  0
VERTEX
  8
MERGEDLAYER-1
 10
48.887808
 20
57.005089
 30
0.000000
  0
VERTEX
  8
MERGEDLAYER-1
 10
48.864629
 20
56.949125
 30
0.000000
  0
VERTEX
  8
MERGEDLAYER-1
 10
48.887808
 20
56.893165
 30
0.000000
  0
VERTEX
  8
MERGEDLAYER-1
 10
48.943763
 20
56.869986
 30
0.000000
  0
VERTEX
  8
MERGEDLAYER-1
 10
48.999718
 20
56.893165
 30
0.000000
  0
VERTEX
  8
MERGEDLAYER-1
 10
49.022898
 20
56.949125
 30
0.000000
  0
SEQEND
  8
MERGEDLAYER-1
  0
POLYLINE
  8
MERGEDLAYER-1
 66
  1
 70
  0
 62
  7
 10
49.060406
 20
55.942984
 30
0.000000
  0
VERTEX
  8
MERGEDLAYER-1
 10
49.060406
 20
55.942984
 30
0.000000
  0
VERTEX
  8
MERGEDLAYER-1
 10
49.027668
 20
56.022029
 30
0.000000
  0
VERTEX
  8
MERGEDLAYER-1
 10
48.948632
 20
56.054767
 30
0.000000
  0
VERTEX
  8
MERGEDLAYER-1
 10
48.869596
 20
56.022029
 30
0.000000
  0
VERTEX
  8
MERGEDLAYER-1
 10
48.836858
 20
55.942984
 30
0.000000
  0
VERTEX
  8
MERGEDLAYER-1
 10
48.869596
 20
55.863948
 30
0.000000
  0
VERTEX
  8
MERGEDLAYER-1
 10
48.948632
 20
55.831205
 30
0.000000
  0
VERTEX
  8
MERGEDLAYER-1
 10
49.027668
 20
55.863948
 30
0.000000
  0
VERTEX
  8
MERGEDLAYER-1
 10
49.060406
 20
55.942984
 30
0.000000
  0
SEQEND
  8
MERGEDLAYER-1
  0
POLYLINE
  8
MERGEDLAYER-1
 66
  1
 70
  0
 62
  7
 10
48.554819
 20
56.506127
 30
0.000000
  0
VERTEX
  8
MERGEDLAYER-1
 10
48.554819
 20
56.506127
 30
0.000000
  0
VERTEX
  8
MERGEDLAYER-1
 10
49.326759
 20
56.506127
 30
0.000000
  0
SEQEND
  8
MERGEDLAYER-1
  0
POLYLINE
  8
MERGEDLAYER-1
 66
  1
 70
  0
 62
  7
 10
49.644620
 20
55.655940
 30
0.000000
  0
VERTEX
  8
MERGEDLAYER-1
 10
49.644620
 20
55.655940
 30
0.000000
  0
VERTEX
  8
MERGEDLAYER-1
 10
49.644620
 20
56.248803
 30
0.000000
  0
SEQEND
  8
MERGEDLAYER-1
  0
POLYLINE
  8
MERGEDLAYER-1
 66
  1
 70
  0
 62
  7
 10
49.594163
 20
55.605488
 30
0.000000
  0
VERTEX
  8
MERGEDLAYER-1
 10
49.594163
 20
55.605488
 30
0.000000
  0
VERTEX
  8
MERGEDLAYER-1
 10
49.644620
 20
55.655940
 30
0.000000
  0
SEQEND
  8
MERGEDLAYER-1
  0
POLYLINE
  8
MERGEDLAYER-1
 66
  1
 70
  0
 62
  7
 10
48.554819
 20
55.398616
 30
0.000000
  0
VERTEX
  8
MERGEDLAYER-1
 10
48.554819
 20
55.398616
 30
0.000000
  0
VERTEX
  8
MERGEDLAYER-1
 10
49.326759
 20
55.398616
 30
0.000000
  0
SEQEND
  8
MERGEDLAYER-1
  0
POLYLINE
  8
MERGEDLAYER-1
 66
  1
 70
  0
 62
  7
 10
48.436251
 20
55.471778
 30
0.000000
  0
VERTEX
  8
MERGEDLAYER-1
 10
48.436251
 20
55.471778
 30
0.000000
  0
VERTEX
  8
MERGEDLAYER-1
 10
48.436251
 20
56.432965
 30
0.000000
  0
SEQEND
  8
MERGEDLAYER-1
  0
POLYLINE
  8
MERGEDLAYER-1
 66
  1
 70
  0
 62
  7
 10
49.430185
 20
56.299255
 30
0.000000
  0
VERTEX
  8
MERGEDLAYER-1
 10
49.430185
 20
56.299255
 30
0.000000
  0
VERTEX
  8
MERGEDLAYER-1
 10
49.594163
 20
56.299255
 30
0.000000
  0
SEQEND
  8
MERGEDLAYER-1
  0
POLYLINE
  8
MERGEDLAYER-1
 66
  1
 70
  0
 62
  7
 10
49.644620
 20
56.248803
 30
0.000000
  0
VERTEX
  8
MERGEDLAYER-1
 10
49.644620
 20
56.248803
 30
0.000000
  0
VERTEX
  8
MERGEDLAYER-1
 10
49.594163
 20
56.299255
 30
0.000000
  0
SEQEND
  8
MERGEDLAYER-1
  0
POLYLINE
  8
MERGEDLAYER-1
 66
  1
 70
  0
 62
  7
 10
49.399916
 20
56.329529
 30
0.000000
  0
VERTEX
  8
MERGEDLAYER-1
 10
49.399916
 20
56.329529
 30
0.000000
  0
VERTEX
  8
MERGEDLAYER-1
 10
49.399916
 20
56.402691
 30
0.000000
  0
SEQEND
  8
MERGEDLAYER-1
  0
POLYLINE
  8
MERGEDLAYER-1
 66
  1
 70
  0
 62
  7
 10
49.399912
 20
56.329529
 30
0.000000
  0
VERTEX
  8
MERGEDLAYER-1
 10
49.399912
 20
56.329529
 30
0.000000
  0
VERTEX
  8
MERGEDLAYER-1
 10
49.430185
 20
56.299255
 30
0.000000
  0
SEQEND
  8
MERGEDLAYER-1
  0
POLYLINE
  8
MERGEDLAYER-1
 66
  1
 70
  0
 62
  7
 10
49.430185
 20
55.605488
 30
0.000000
  0
VERTEX
  8
MERGEDLAYER-1
 10
49.430185
 20
55.605488
 30
0.000000
  0
VERTEX
  8
MERGEDLAYER-1
 10
49.594163
 20
55.605488
 30
0.000000
  0
SEQEND
  8
MERGEDLAYER-1
  0
POLYLINE
  8
MERGEDLAYER-1
 66
  1
 70
  0
 62
  7
 10
49.399916
 20
55.575214
 30
0.000000
  0
VERTEX
  8
MERGEDLAYER-1
 10
49.399916
 20
55.575214
 30
0.000000
  0
VERTEX
  8
MERGEDLAYER-1
 10
49.399916
 20
55.502052
 30
0.000000
  0
SEQEND
  8
MERGEDLAYER-1
  0
POLYLINE
  8
MERGEDLAYER-1
 66
  1
 70
  0
 62
  7
 10
49.430185
 20
55.605488
 30
0.000000
  0
VERTEX
  8
MERGEDLAYER-1
 10
49.430185
 20
55.605488
 30
0.000000
  0
VERTEX
  8
MERGEDLAYER-1
 10
49.399912
 20
55.575214
 30
0.000000
  0
SEQEND
  8
MERGEDLAYER-1
  0
POLYLINE
  8
MERGEDLAYER-1
 66
  1
 70
  0
 62
  7
 10
49.369643
 20
56.432965
 30
0.000000
  0
VERTEX
  8
MERGEDLAYER-1
 10
49.369643
 20
56.432965
 30
0.000000
  0
VERTEX
  8
MERGEDLAYER-1
 10
49.326759
 20
56.432965
 30
0.000000
  0
SEQEND
  8
MERGEDLAYER-1
  0
POLYLINE
  8
MERGEDLAYER-1
 66
  1
 70
  0
 62
  7
 10
49.399916
 20
56.402691
 30
0.000000
  0
VERTEX
  8
MERGEDLAYER-1
 10
49.399916
 20
56.402691
 30
0.000000
  0
VERTEX
  8
MERGEDLAYER-1
 10
49.369643
 20
56.432965
 30
0.000000
  0
SEQEND
  8
MERGEDLAYER-1
  0
POLYLINE
  8
MERGEDLAYER-1
 66
  1
 70
  0
 62
  7
 10
49.326759
 20
56.506127
 30
0.000000
  0
VERTEX
  8
MERGEDLAYER-1
 10
49.326759
 20
56.506127
 30
0.000000
  0
VERTEX
  8
MERGEDLAYER-1
 10
49.326759
 20
56.432965
 30
0.000000
  0
SEQEND
  8
MERGEDLAYER-1
  0
POLYLINE
  8
MERGEDLAYER-1
 66
  1
 70
  0
 62
  7
 10
48.554819
 20
56.506127
 30
0.000000
  0
VERTEX
  8
MERGEDLAYER-1
 10
48.554819
 20
56.506127
 30
0.000000
  0
VERTEX
  8
MERGEDLAYER-1
 10
48.554819
 20
56.432965
 30
0.000000
  0
SEQEND
  8
MERGEDLAYER-1
  0
POLYLINE
  8
MERGEDLAYER-1
 66
  1
 70
  0
 62
  7
 10
48.436251
 20
56.432965
 30
0.000000
  0
VERTEX
  8
MERGEDLAYER-1
 10
48.436251
 20
56.432965
 30
0.000000
  0
VERTEX
  8
MERGEDLAYER-1
 10
48.554819
 20
56.432965
 30
0.000000
  0
SEQEND
  8
MERGEDLAYER-1
  0
POLYLINE
  8
MERGEDLAYER-1
 66
  1
 70
  0
 62
  7
 10
49.369643
 20
55.471778
 30
0.000000
  0
VERTEX
  8
MERGEDLAYER-1
 10
49.369643
 20
55.471778
 30
0.000000
  0
VERTEX
  8
MERGEDLAYER-1
 10
49.326759
 20
55.471778
 30
0.000000
  0
SEQEND
  8
MERGEDLAYER-1
  0
POLYLINE
  8
MERGEDLAYER-1
 66
  1
 70
  0
 62
  7
 10
49.369643
 20
55.471778
 30
0.000000
  0
VERTEX
  8
MERGEDLAYER-1
 10
49.369643
 20
55.471778
 30
0.000000
  0
VERTEX
  8
MERGEDLAYER-1
 10
49.399916
 20
55.502052
 30
0.000000
  0
SEQEND
  8
MERGEDLAYER-1
  0
POLYLINE
  8
MERGEDLAYER-1
 66
  1
 70
  0
 62
  7
 10
49.326759
 20
55.471778
 30
0.000000
  0
VERTEX
  8
MERGEDLAYER-1
 10
49.326759
 20
55.471778
 30
0.000000
  0
VERTEX
  8
MERGEDLAYER-1
 10
49.326759
 20
55.398616
 30
0.000000
  0
SEQEND
  8
MERGEDLAYER-1
  0
POLYLINE
  8
MERGEDLAYER-1
 66
  1
 70
  0
 62
  7
 10
48.436251
 20
55.471778
 30
0.000000
  0
VERTEX
  8
MERGEDLAYER-1
 10
48.436251
 20
55.471778
 30
0.000000
  0
VERTEX
  8
MERGEDLAYER-1
 10
48.554819
 20
55.471778
 30
0.000000
  0
SEQEND
  8
MERGEDLAYER-1
  0
POLYLINE
  8
MERGEDLAYER-1
 66
  1
 70
  0
 62
  7
 10
48.554819
 20
55.471778
 30
0.000000
  0
VERTEX
  8
MERGEDLAYER-1
 10
48.554819
 20
55.471778
 30
0.000000
  0
VERTEX
  8
MERGEDLAYER-1
 10
48.554819
 20
55.398616
 30
0.000000
  0
SEQEND
  8
MERGEDLAYER-1
  0
POLYLINE
  8
MERGEDLAYER-1
 66
  1
 70
  0
 62
  7
 10
47.127329
 20
18.646926
 30
0.000000
  0
VERTEX
  8
MERGEDLAYER-1
 10
47.127329
 20
18.646926
 30
0.000000
  0
VERTEX
  8
MERGEDLAYER-1
 10
46.657513
 20
18.646926
 30
0.000000
  0
SEQEND
  8
MERGEDLAYER-1
  0
POLYLINE
  8
MERGEDLAYER-1
 66
  1
 70
  0
 62
  7
 10
47.127333
 20
18.646935
 30
0.000000
  0
VERTEX
  8
MERGEDLAYER-1
 10
47.127333
 20
18.646935
 30
0.000000
  0
VERTEX
  8
MERGEDLAYER-1
 10
47.140456
 20
18.633996
 30
0.000000
  0
VERTEX
  8
MERGEDLAYER-1
 10
47.157330
 20
18.647029
 30
0.000000
  0
SEQEND
  8
MERGEDLAYER-1
  0
POLYLINE
  8
MERGEDLAYER-1
 66
  1
 70
  0
 62
  7
 10
47.157335
 20
18.647029
 30
0.000000
  0
VERTEX
  8
MERGEDLAYER-1
 10
47.157335
 20
18.647029
 30
0.000000
  0
VERTEX
  8
MERGEDLAYER-1
 10
48.203501
 20
18.647029
 30
0.000000
  0
SEQEND
  8
MERGEDLAYER-1
  0
POLYLINE
  8
MERGEDLAYER-1
 66
  1
 70
  0
 62
  7
 10
48.203505
 20
18.647029
 30
0.000000
  0
VERTEX
  8
MERGEDLAYER-1
 10
48.203505
 20
18.647029
 30
0.000000
  0
VERTEX
  8
MERGEDLAYER-1
 10
48.216534
 20
18.633996
 30
0.000000
  0
VERTEX
  8
MERGEDLAYER-1
 10
48.233502
 20
18.647029
 30
0.000000
  0
SEQEND
  8
MERGEDLAYER-1
  0
POLYLINE
  8
MERGEDLAYER-1
 66
  1
 70
  0
 62
  7
 10
48.233497
 20
18.647029
 30
0.000000
  0
VERTEX
  8
MERGEDLAYER-1
 10
48.233497
 20
18.647029
 30
0.000000
  0
VERTEX
  8
MERGEDLAYER-1
 10
49.268386
 20
18.647029
 30
0.000000
  0
SEQEND
  8
MERGEDLAYER-1
  0
POLYLINE
  8
MERGEDLAYER-1
 66
  1
 70
  0
 62
  7
 10
49.283386
 20
18.632024
 30
0.000000
  0
VERTEX
  8
MERGEDLAYER-1
 10
49.283386
 20
18.632024
 30
0.000000
  0
VERTEX
  8
MERGEDLAYER-1
 10
49.268386
 20
18.647024
 30
0.000000
  0
SEQEND
  8
MERGEDLAYER-1
  0
POLYLINE
  8
MERGEDLAYER-1
 66
  1
 70
  0
 62
  7
 10
49.203609
 20
18.551885
 30
0.000000
  0
VERTEX
  8
MERGEDLAYER-1
 10
49.203609
 20
18.551885
 30
0.000000
  0
VERTEX
  8
MERGEDLAYER-1
 10
49.283386
 20
18.632024
 30
0.000000
  0
SEQEND
  8
MERGEDLAYER-1
  0
POLYLINE
  8
MERGEDLAYER-1
 66
  1
 70
  0
 62
  7
 10
49.203604
 20
18.551885
 30
0.000000
  0
VERTEX
  8
MERGEDLAYER-1
 10
49.203604
 20
18.551885
 30
0.000000
  0
VERTEX
  8
MERGEDLAYER-1
 10
49.188608
 20
18.566885
 30
0.000000
  0
SEQEND
  8
MERGEDLAYER-1
  0
POLYLINE
  8
MERGEDLAYER-1
 66
  1
 70
  0
 62
  7
 10
49.143893
 20
18.566885
 30
0.000000
  0
VERTEX
  8
MERGEDLAYER-1
 10
49.143893
 20
18.566885
 30
0.000000
  0
VERTEX
  8
MERGEDLAYER-1
 10
49.188608
 20
18.566885
 30
0.000000
  0
SEQEND
  8
MERGEDLAYER-1
  0
POLYLINE
  8
MERGEDLAYER-1
 66
  1
 70
  0
 62
  7
 10
49.143893
 20
18.566885
 30
0.000000
  0
VERTEX
  8
MERGEDLAYER-1
 10
49.143893
 20
18.566885
 30
0.000000
  0
VERTEX
  8
MERGEDLAYER-1
 10
49.128897
 20
18.551885
 30
0.000000
  0
SEQEND
  8
MERGEDLAYER-1
  0
POLYLINE
  8
MERGEDLAYER-1
 66
  1
 70
  0
 62
  7
 10
49.128897
 20
18.474614
 30
0.000000
  0
VERTEX
  8
MERGEDLAYER-1
 10
49.128897
 20
18.474614
 30
0.000000
  0
VERTEX
  8
MERGEDLAYER-1
 10
49.128897
 20
18.551885
 30
0.000000
  0
SEQEND
  8
MERGEDLAYER-1
  0
POLYLINE
  8
MERGEDLAYER-1
 66
  1
 70
  0
 62
  7
 10
49.113906
 20
18.459614
 30
0.000000
  0
VERTEX
  8
MERGEDLAYER-1
 10
49.113906
 20
18.459614
 30
0.000000
  0
VERTEX
  8
MERGEDLAYER-1
 10
49.128902
 20
18.474614
 30
0.000000
  0
SEQEND
  8
MERGEDLAYER-1
  0
POLYLINE
  8
MERGEDLAYER-1
 66
  1
 70
  0
 62
  7
 10
49.043898
 20
18.459614
 30
0.000000
  0
VERTEX
  8
MERGEDLAYER-1
 10
49.043898
 20
18.459614
 30
0.000000
  0
VERTEX
  8
MERGEDLAYER-1
 10
49.113906
 20
18.459614
 30
0.000000
  0
SEQEND
  8
MERGEDLAYER-1
  0
POLYLINE
  8
MERGEDLAYER-1
 66
  1
 70
  0
 62
  7
 10
49.028902
 20
18.474614
 30
0.000000
  0
VERTEX
  8
MERGEDLAYER-1
 10
49.028902
 20
18.474614
 30
0.000000
  0
VERTEX
  8
MERGEDLAYER-1
 10
49.043898
 20
18.459614
 30
0.000000
  0
SEQEND
  8
MERGEDLAYER-1
  0
POLYLINE
  8
MERGEDLAYER-1
 66
  1
 70
  0
 62
  7
 10
49.028907
 20
18.552030
 30
0.000000
  0
VERTEX
  8
MERGEDLAYER-1
 10
49.028907
 20
18.552030
 30
0.000000
  0
VERTEX
  8
MERGEDLAYER-1
 10
49.028907
 20
18.474614
 30
0.000000
  0
SEQEND
  8
MERGEDLAYER-1
  0
POLYLINE
  8
MERGEDLAYER-1
 66
  1
 70
  0
 62
  7
 10
49.028893
 20
18.552030
 30
0.000000
  0
VERTEX
  8
MERGEDLAYER-1
 10
49.028893
 20
18.552030
 30
0.000000
  0
VERTEX
  8
MERGEDLAYER-1
 10
49.013897
 20
18.567031
 30
0.000000
  0
SEQEND
  8
MERGEDLAYER-1
  0
POLYLINE
  8
MERGEDLAYER-1
 66
  1
 70
  0
 62
  7
 10
48.968628
 20
18.567031
 30
0.000000
  0
VERTEX
  8
MERGEDLAYER-1
 10
48.968628
 20
18.567031
 30
0.000000
  0
VERTEX
  8
MERGEDLAYER-1
 10
49.013897
 20
18.567031
 30
0.000000
  0
SEQEND
  8
MERGEDLAYER-1
  0
POLYLINE
  8
MERGEDLAYER-1
 66
  1
 70
  0
 62
  7
 10
48.968628
 20
18.567031
 30
0.000000
  0
VERTEX
  8
MERGEDLAYER-1
 10
48.968628
 20
18.567031
 30
0.000000
  0
VERTEX
  8
MERGEDLAYER-1
 10
48.953627
 20
18.552030
 30
0.000000
  0
SEQEND
  8
MERGEDLAYER-1
  0
POLYLINE
  8
MERGEDLAYER-1
 66
  1
 70
  0
 62
  7
 10
48.953623
 20
18.334581
 30
0.000000
  0
VERTEX
  8
MERGEDLAYER-1
 10
48.953623
 20
18.334581
 30
0.000000
  0
VERTEX
  8
MERGEDLAYER-1
 10
48.953623
 20
18.552030
 30
0.000000
  0
SEQEND
  8
MERGEDLAYER-1
  0
POLYLINE
  8
MERGEDLAYER-1
 66
  1
 70
  0
 62
  7
 10
48.938622
 20
18.319580
 30
0.000000
  0
VERTEX
  8
MERGEDLAYER-1
 10
48.938622
 20
18.319580
 30
0.000000
  0
VERTEX
  8
MERGEDLAYER-1
 10
48.953623
 20
18.334581
 30
0.000000
  0
SEQEND
  8
MERGEDLAYER-1
  0
POLYLINE
  8
MERGEDLAYER-1
 66
  1
 70
  0
 62
  7
 10
48.888625
 20
18.319580
 30
0.000000
  0
VERTEX
  8
MERGEDLAYER-1
 10
48.888625
 20
18.319580
 30
0.000000
  0
VERTEX
  8
MERGEDLAYER-1
 10
48.938622
 20
18.319580
 30
0.000000
  0
SEQEND
  8
MERGEDLAYER-1
  0
POLYLINE
  8
MERGEDLAYER-1
 66
  1
 70
  0
 62
  7
 10
48.873629
 20
18.334581
 30
0.000000
  0
VERTEX
  8
MERGEDLAYER-1
 10
48.873629
 20
18.334581
 30
0.000000
  0
VERTEX
  8
MERGEDLAYER-1
 10
48.888625
 20
18.319580
 30
0.000000
  0
SEQEND
  8
MERGEDLAYER-1
  0
POLYLINE
  8
MERGEDLAYER-1
 66
  1
 70
  0
 62
  7
 10
48.873624
 20
18.551875
 30
0.000000
  0
VERTEX
  8
MERGEDLAYER-1
 10
48.873624
 20
18.551875
 30
0.000000
  0
VERTEX
  8
MERGEDLAYER-1
 10
48.873624
 20
18.334581
 30
0.000000
  0
SEQEND
  8
MERGEDLAYER-1
  0
POLYLINE
  8
MERGEDLAYER-1
 66
  1
 70
  0
 62
  7
 10
48.873620
 20
18.551875
 30
0.000000
  0
VERTEX
  8
MERGEDLAYER-1
 10
48.873620
 20
18.551875
 30
0.000000
  0
VERTEX
  8
MERGEDLAYER-1
 10
48.858624
 20
18.566876
 30
0.000000
  0
SEQEND
  8
MERGEDLAYER-1
  0
POLYLINE
  8
MERGEDLAYER-1
 66
  1
 70
  0
 62
  7
 10
48.665833
 20
18.566871
 30
0.000000
  0
VERTEX
  8
MERGEDLAYER-1
 10
48.665833
 20
18.566871
 30
0.000000
  0
VERTEX
  8
MERGEDLAYER-1
 10
48.858624
 20
18.566871
 30
0.000000
  0
SEQEND
  8
MERGEDLAYER-1
  0
POLYLINE
  8
MERGEDLAYER-1
 66
  1
 70
  0
 62
  7
 10
48.665833
 20
18.566876
 30
0.000000
  0
VERTEX
  8
MERGEDLAYER-1
 10
48.665833
 20
18.566876
 30
0.000000
  0
VERTEX
  8
MERGEDLAYER-1
 10
48.650832
 20
18.551875
 30
0.000000
  0
SEQEND
  8
MERGEDLAYER-1
  0
POLYLINE
  8
MERGEDLAYER-1
 66
  1
 70
  0
 62
  7
 10
48.525513
 20
18.551885
 30
0.000000
  0
VERTEX
  8
MERGEDLAYER-1
 10
48.525513
 20
18.551885
 30
0.000000
  0
VERTEX
  8
MERGEDLAYER-1
 10
48.650827
 20
18.551875
 30
0.000000
  0
SEQEND
  8
MERGEDLAYER-1
  0
POLYLINE
  8
MERGEDLAYER-1
 66
  1
 70
  0
 62
  7
 10
48.525508
 20
18.551885
 30
0.000000
  0
VERTEX
  8
MERGEDLAYER-1
 10
48.525508
 20
18.551885
 30
0.000000
  0
VERTEX
  8
MERGEDLAYER-1
 10
48.510512
 20
18.566885
 30
0.000000
  0
SEQEND
  8
MERGEDLAYER-1
  0
POLYLINE
  8
MERGEDLAYER-1
 66
  1
 70
  0
 62
  7
 10
48.510512
 20
18.566885
 30
0.000000
  0
VERTEX
  8
MERGEDLAYER-1
 10
48.510512
 20
18.566885
 30
0.000000
  0
VERTEX
  8
MERGEDLAYER-1
 10
48.460806
 20
18.566885
 30
0.000000
  0
SEQEND
  8
MERGEDLAYER-1
  0
POLYLINE
  8
MERGEDLAYER-1
 66
  1
 70
  0
 62
  7
 10
48.460806
 20
18.566885
 30
0.000000
  0
VERTEX
  8
MERGEDLAYER-1
 10
48.460806
 20
18.566885
 30
0.000000
  0
VERTEX
  8
MERGEDLAYER-1
 10
48.445810
 20
18.551885
 30
0.000000
  0
SEQEND
  8
MERGEDLAYER-1
  0
POLYLINE
  8
MERGEDLAYER-1
 66
  1
 70
  0
 62
  7
 10
48.445805
 20
18.474614
 30
0.000000
  0
VERTEX
  8
MERGEDLAYER-1
 10
48.445805
 20
18.474614
 30
0.000000
  0
VERTEX
  8
MERGEDLAYER-1
 10
48.445805
 20
18.551885
 30
0.000000
  0
SEQEND
  8
MERGEDLAYER-1
  0
POLYLINE
  8
MERGEDLAYER-1
 66
  1
 70
  0
 62
  7
 10
48.430805
 20
18.459614
 30
0.000000
  0
VERTEX
  8
MERGEDLAYER-1
 10
48.430805
 20
18.459614
 30
0.000000
  0
VERTEX
  8
MERGEDLAYER-1
 10
48.445801
 20
18.474614
 30
0.000000
  0
SEQEND
  8
MERGEDLAYER-1
  0
POLYLINE
  8
MERGEDLAYER-1
 66
  1
 70
  0
 62
  7
 10
48.430805
 20
18.459614
 30
0.000000
  0
VERTEX
  8
MERGEDLAYER-1
 10
48.430805
 20
18.459614
 30
0.000000
  0
VERTEX
  8
MERGEDLAYER-1
 10
48.360807
 20
18.459614
 30
0.000000
  0
SEQEND
  8
MERGEDLAYER-1
  0
POLYLINE
  8
MERGEDLAYER-1
 66
  1
 70
  0
 62
  7
 10
48.345806
 20
18.474614
 30
0.000000
  0
VERTEX
  8
MERGEDLAYER-1
 10
48.345806
 20
18.474614
 30
0.000000
  0
VERTEX
  8
MERGEDLAYER-1
 10
48.360807
 20
18.459614
 30
0.000000
  0
SEQEND
  8
MERGEDLAYER-1
  0
POLYLINE
  8
MERGEDLAYER-1
 66
  1
 70
  0
 62
  7
 10
48.345802
 20
18.552030
 30
0.000000
  0
VERTEX
  8
MERGEDLAYER-1
 10
48.345802
 20
18.552030
 30
0.000000
  0
VERTEX
  8
MERGEDLAYER-1
 10
48.345802
 20
18.474614
 30
0.000000
  0
SEQEND
  8
MERGEDLAYER-1
  0
POLYLINE
  8
MERGEDLAYER-1
 66
  1
 70
  0
 62
  7
 10
48.345806
 20
18.552030
 30
0.000000
  0
VERTEX
  8
MERGEDLAYER-1
 10
48.345806
 20
18.552030
 30
0.000000
  0
VERTEX
  8
MERGEDLAYER-1
 10
48.330811
 20
18.567031
 30
0.000000
  0
SEQEND
  8
MERGEDLAYER-1
  0
POLYLINE
  8
MERGEDLAYER-1
 66
  1
 70
  0
 62
  7
 10
48.280527
 20
18.567031
 30
0.000000
  0
VERTEX
  8
MERGEDLAYER-1
 10
48.280527
 20
18.567031
 30
0.000000
  0
VERTEX
  8
MERGEDLAYER-1
 10
48.330811
 20
18.567031
 30
0.000000
  0
SEQEND
  8
MERGEDLAYER-1
  0
POLYLINE
  8
MERGEDLAYER-1
 66
  1
 70
  0
 62
  7
 10
48.280527
 20
18.567031
 30
0.000000
  0
VERTEX
  8
MERGEDLAYER-1
 10
48.280527
 20
18.567031
 30
0.000000
  0
VERTEX
  8
MERGEDLAYER-1
 10
48.265531
 20
18.552030
 30
0.000000
  0
SEQEND
  8
MERGEDLAYER-1
  0
POLYLINE
  8
MERGEDLAYER-1
 66
  1
 70
  0
 62
  7
 10
48.265531
 20
18.334581
 30
0.000000
  0
VERTEX
  8
MERGEDLAYER-1
 10
48.265531
 20
18.334581
 30
0.000000
  0
VERTEX
  8
MERGEDLAYER-1
 10
48.265531
 20
18.552030
 30
0.000000
  0
SEQEND
  8
MERGEDLAYER-1
  0
POLYLINE
  8
MERGEDLAYER-1
 66
  1
 70
  0
 62
  7
 10
48.250531
 20
18.319580
 30
0.000000
  0
VERTEX
  8
MERGEDLAYER-1
 10
48.250531
 20
18.319580
 30
0.000000
  0
VERTEX
  8
MERGEDLAYER-1
 10
48.265531
 20
18.334581
 30
0.000000
  0
SEQEND
  8
MERGEDLAYER-1
  0
POLYLINE
  8
MERGEDLAYER-1
 66
  1
 70
  0
 62
  7
 10
48.250531
 20
18.319580
 30
0.000000
  0
VERTEX
  8
MERGEDLAYER-1
 10
48.250531
 20
18.319580
 30
0.000000
  0
VERTEX
  8
MERGEDLAYER-1
 10
48.185533
 20
18.319580
 30
0.000000
  0
SEQEND
  8
MERGEDLAYER-1
  0
POLYLINE
  8
MERGEDLAYER-1
 66
  1
 70
  0
 62
  7
 10
48.170532
 20
18.334581
 30
0.000000
  0
VERTEX
  8
MERGEDLAYER-1
 10
48.170532
 20
18.334581
 30
0.000000
  0
VERTEX
  8
MERGEDLAYER-1
 10
48.185533
 20
18.319580
 30
0.000000
  0
SEQEND
  8
MERGEDLAYER-1
  0
POLYLINE
  8
MERGEDLAYER-1
 66
  1
 70
  0
 62
  7
 10
48.170528
 20
18.334581
 30
0.000000
  0
VERTEX
  8
MERGEDLAYER-1
 10
48.170528
 20
18.334581
 30
0.000000
  0
VERTEX
  8
MERGEDLAYER-1
 10
48.170528
 20
18.536875
 30
0.000000
  0
SEQEND
  8
MERGEDLAYER-1
  0
POLYLINE
  8
MERGEDLAYER-1
 66
  1
 70
  0
 62
  7
 10
48.170528
 20
18.536875
 30
0.000000
  0
VERTEX
  8
MERGEDLAYER-1
 10
48.170528
 20
18.536875
 30
0.000000
  0
VERTEX
  8
MERGEDLAYER-1
 10
48.155527
 20
18.551875
 30
0.000000
  0
SEQEND
  8
MERGEDLAYER-1
  0
POLYLINE
  8
MERGEDLAYER-1
 66
  1
 70
  0
 62
  7
 10
48.155527
 20
18.551875
 30
0.000000
  0
VERTEX
  8
MERGEDLAYER-1
 10
48.155527
 20
18.551875
 30
0.000000
  0
VERTEX
  8
MERGEDLAYER-1
 10
47.032536
 20
18.551875
 30
0.000000
  0
SEQEND
  8
MERGEDLAYER-1
  0
POLYLINE
  8
MERGEDLAYER-1
 66
  1
 70
  0
 62
  7
 10
47.032536
 20
18.551875
 30
0.000000
  0
VERTEX
  8
MERGEDLAYER-1
 10
47.032536
 20
18.551875
 30
0.000000
  0
VERTEX
  8
MERGEDLAYER-1
 10
47.017536
 20
18.536875
 30
0.000000
  0
SEQEND
  8
MERGEDLAYER-1
  0
POLYLINE
  8
MERGEDLAYER-1
 66
  1
 70
  0
 62
  7
 10
47.017541
 20
18.264982
 30
0.000000
  0
VERTEX
  8
MERGEDLAYER-1
 10
47.017541
 20
18.264982
 30
0.000000
  0
VERTEX
  8
MERGEDLAYER-1
 10
47.017541
 20
18.536875
 30
0.000000
  0
SEQEND
  8
MERGEDLAYER-1
  0
POLYLINE
  8
MERGEDLAYER-1
 66
  1
 70
  0
 62
  7
 10
46.962543
 20
18.209984
 30
0.000000
  0
VERTEX
  8
MERGEDLAYER-1
 10
46.962543
 20
18.209984
 30
0.000000
  0
VERTEX
  8
MERGEDLAYER-1
 10
47.017545
 20
18.264982
 30
0.000000
  0
SEQEND
  8
MERGEDLAYER-1
  0
POLYLINE
  8
MERGEDLAYER-1
 66
  1
 70
  0
 62
  7
 10
46.898851
 20
18.209980
 30
0.000000
  0
VERTEX
  8
MERGEDLAYER-1
 10
46.898851
 20
18.209980
 30
0.000000
  0
VERTEX
  8
MERGEDLAYER-1
 10
46.962543
 20
18.209980
 30
0.000000
  0
SEQEND
  8
MERGEDLAYER-1
  0
POLYLINE
  8
MERGEDLAYER-1
 66
  1
 70
  0
 62
  7
 10
46.883855
 20
18.224980
 30
0.000000
  0
VERTEX
  8
MERGEDLAYER-1
 10
46.883855
 20
18.224980
 30
0.000000
  0
VERTEX
  8
MERGEDLAYER-1
 10
46.898851
 20
18.209984
 30
0.000000
  0
SEQEND
  8
MERGEDLAYER-1
  0
POLYLINE
  8
MERGEDLAYER-1
 66
  1
 70
  0
 62
  7
 10
46.883859
 20
18.234347
 30
0.000000
  0
VERTEX
  8
MERGEDLAYER-1
 10
46.883859
 20
18.234347
 30
0.000000
  0
VERTEX
  8
MERGEDLAYER-1
 10
46.883859
 20
18.224980
 30
0.000000
  0
SEQEND
  8
MERGEDLAYER-1
  0
POLYLINE
  8
MERGEDLAYER-1
 66
  1
 70
  0
 62
  7
 10
46.898851
 20
18.249343
 30
0.000000
  0
VERTEX
  8
MERGEDLAYER-1
 10
46.898851
 20
18.249343
 30
0.000000
  0
VERTEX
  8
MERGEDLAYER-1
 10
46.883855
 20
18.234347
 30
0.000000
  0
SEQEND
  8
MERGEDLAYER-1
  0
POLYLINE
  8
MERGEDLAYER-1
 66
  1
 70
  0
 62
  7
 10
46.898851
 20
18.249347
 30
0.000000
  0
VERTEX
  8
MERGEDLAYER-1
 10
46.898851
 20
18.249347
 30
0.000000
  0
VERTEX
  8
MERGEDLAYER-1
 10
46.947543
 20
18.249347
 30
0.000000
  0
SEQEND
  8
MERGEDLAYER-1
  0
POLYLINE
  8
MERGEDLAYER-1
 66
  1
 70
  0
 62
  7
 10
46.947543
 20
18.249347
 30
0.000000
  0
VERTEX
  8
MERGEDLAYER-1
 10
46.947543
 20
18.249347
 30
0.000000
  0
VERTEX
  8
MERGEDLAYER-1
 10
46.962538
 20
18.264343
 30
0.000000
  0
SEQEND
  8
MERGEDLAYER-1
  0
POLYLINE
  8
MERGEDLAYER-1
 66
  1
 70
  0
 62
  7
 10
46.962538
 20
18.264343
 30
0.000000
  0
VERTEX
  8
MERGEDLAYER-1
 10
46.962538
 20
18.264343
 30
0.000000
  0
VERTEX
  8
MERGEDLAYER-1
 10
46.962538
 20
18.320895
 30
0.000000
  0
SEQEND
  8
MERGEDLAYER-1
  0
POLYLINE
  8
MERGEDLAYER-1
 66
  1
 70
  0
 62
  7
 10
46.962538
 20
18.320895
 30
0.000000
  0
VERTEX
  8
MERGEDLAYER-1
 10
46.962538
 20
18.320895
 30
0.000000
  0
VERTEX
  8
MERGEDLAYER-1
 10
46.947543
 20
18.335891
 30
0.000000
  0
SEQEND
  8
MERGEDLAYER-1
  0
POLYLINE
  8
MERGEDLAYER-1
 66
  1
 70
  0
 62
  7
 10
46.947543
 20
18.335895
 30
0.000000
  0
VERTEX
  8
MERGEDLAYER-1
 10
46.947543
 20
18.335895
 30
0.000000
  0
VERTEX
  8
MERGEDLAYER-1
 10
46.898761
 20
18.335895
 30
0.000000
  0
SEQEND
  8
MERGEDLAYER-1
  0
POLYLINE
  8
MERGEDLAYER-1
 66
  1
 70
  0
 62
  7
 10
46.883761
 20
18.350910
 30
0.000000
  0
VERTEX
  8
MERGEDLAYER-1
 10
46.883761
 20
18.350910
 30
0.000000
  0
VERTEX
  8
MERGEDLAYER-1
 10
46.896771
 20
18.337862
 30
0.000000
  0
VERTEX
  8
MERGEDLAYER-1
 10
46.898761
 20
18.335891
 30
0.000000
  0
SEQEND
  8
MERGEDLAYER-1
  0
POLYLINE
  8
MERGEDLAYER-1
 66
  1
 70
  0
 62
  7
 10
46.883756
 20
18.350915
 30
0.000000
  0
VERTEX
  8
MERGEDLAYER-1
 10
46.883756
 20
18.350915
 30
0.000000
  0
VERTEX
  8
MERGEDLAYER-1
 10
46.883859
 20
18.421208
 30
0.000000
  0
SEQEND
  8
MERGEDLAYER-1
  0
POLYLINE
  8
MERGEDLAYER-1
 66
  1
 70
  0
 62
  7
 10
46.898851
 20
18.436190
 30
0.000000
  0
VERTEX
  8
MERGEDLAYER-1
 10
46.898851
 20
18.436190
 30
0.000000
  0
VERTEX
  8
MERGEDLAYER-1
 10
46.892249
 20
18.437430
 30
0.000000
  0
VERTEX
  8
MERGEDLAYER-1
 10
46.888076
 20
18.435298
 30
0.000000
  0
VERTEX
  8
MERGEDLAYER-1
 10
46.884756
 20
18.431988
 30
0.000000
  0
VERTEX
  8
MERGEDLAYER-1
 10
46.882625
 20
18.427809
 30
0.000000
  0
VERTEX
  8
MERGEDLAYER-1
 10
46.883855
 20
18.421208
 30
0.000000
  0
SEQEND
  8
MERGEDLAYER-1
  0
POLYLINE
  8
MERGEDLAYER-1
 66
  1
 70
  0
 62
  7
 10
46.898851
 20
18.436190
 30
0.000000
  0
VERTEX
  8
MERGEDLAYER-1
 10
46.898851
 20
18.436190
 30
0.000000
  0
VERTEX
  8
MERGEDLAYER-1
 10
46.947543
 20
18.436190
 30
0.000000
  0
SEQEND
  8
MERGEDLAYER-1
  0
POLYLINE
  8
MERGEDLAYER-1
 66
  1
 70
  0
 62
  7
 10
46.947543
 20
18.436195
 30
0.000000
  0
VERTEX
  8
MERGEDLAYER-1
 10
46.947543
 20
18.436195
 30
0.000000
  0
VERTEX
  8
MERGEDLAYER-1
 10
46.962538
 20
18.451191
 30
0.000000
  0
SEQEND
  8
MERGEDLAYER-1
  0
POLYLINE
  8
MERGEDLAYER-1
 66
  1
 70
  0
 62
  7
 10
46.962538
 20
18.451191
 30
0.000000
  0
VERTEX
  8
MERGEDLAYER-1
 10
46.962538
 20
18.451191
 30
0.000000
  0
VERTEX
  8
MERGEDLAYER-1
 10
46.962538
 20
18.577238
 30
0.000000
  0
SEQEND
  8
MERGEDLAYER-1
  0
POLYLINE
  8
MERGEDLAYER-1
 66
  1
 70
  0
 62
  7
 10
46.962538
 20
18.577238
 30
0.000000
  0
VERTEX
  8
MERGEDLAYER-1
 10
46.962538
 20
18.577238
 30
0.000000
  0
VERTEX
  8
MERGEDLAYER-1
 10
46.947543
 20
18.592234
 30
0.000000
  0
SEQEND
  8
MERGEDLAYER-1
  0
POLYLINE
  8
MERGEDLAYER-1
 66
  1
 70
  0
 62
  7
 10
46.657555
 20
18.592234
 30
0.000000
  0
VERTEX
  8
MERGEDLAYER-1
 10
46.657555
 20
18.592234
 30
0.000000
  0
VERTEX
  8
MERGEDLAYER-1
 10
46.947543
 20
18.592234
 30
0.000000
  0
SEQEND
  8
MERGEDLAYER-1
  0
POLYLINE
  8
MERGEDLAYER-1
 66
  1
 70
  0
 62
  7
 10
46.657555
 20
18.592238
 30
0.000000
  0
VERTEX
  8
MERGEDLAYER-1
 10
46.657555
 20
18.592238
 30
0.000000
  0
VERTEX
  8
MERGEDLAYER-1
 10
46.588562
 20
18.523240
 30
0.000000
  0
SEQEND
  8
MERGEDLAYER-1
  0
POLYLINE
  8
MERGEDLAYER-1
 66
  1
 70
  0
 62
  7
 10
46.588553
 20
18.523240
 30
0.000000
  0
VERTEX
  8
MERGEDLAYER-1
 10
46.588553
 20
18.523240
 30
0.000000
  0
VERTEX
  8
MERGEDLAYER-1
 10
46.588553
 20
18.451191
 30
0.000000
  0
SEQEND
  8
MERGEDLAYER-1
  0
POLYLINE
  8
MERGEDLAYER-1
 66
  1
 70
  0
 62
  7
 10
46.588557
 20
18.451191
 30
0.000000
  0
VERTEX
  8
MERGEDLAYER-1
 10
46.588557
 20
18.451191
 30
0.000000
  0
VERTEX
  8
MERGEDLAYER-1
 10
46.603553
 20
18.436195
 30
0.000000
  0
SEQEND
  8
MERGEDLAYER-1
  0
POLYLINE
  8
MERGEDLAYER-1
 66
  1
 70
  0
 62
  7
 10
46.603553
 20
18.436190
 30
0.000000
  0
VERTEX
  8
MERGEDLAYER-1
 10
46.603553
 20
18.436190
 30
0.000000
  0
VERTEX
  8
MERGEDLAYER-1
 10
46.652391
 20
18.436190
 30
0.000000
  0
SEQEND
  8
MERGEDLAYER-1
  0
POLYLINE
  8
MERGEDLAYER-1
 66
  1
 70
  0
 62
  7
 10
46.667387
 20
18.421190
 30
0.000000
  0
VERTEX
  8
MERGEDLAYER-1
 10
46.667387
 20
18.421190
 30
0.000000
  0
VERTEX
  8
MERGEDLAYER-1
 10
46.652391
 20
18.436190
 30
0.000000
  0
SEQEND
  8
MERGEDLAYER-1
  0
POLYLINE
  8
MERGEDLAYER-1
 66
  1
 70
  0
 62
  7
 10
46.667391
 20
18.421190
 30
0.000000
  0
VERTEX
  8
MERGEDLAYER-1
 10
46.667391
 20
18.421190
 30
0.000000
  0
VERTEX
  8
MERGEDLAYER-1
 10
46.667391
 20
18.350891
 30
0.000000
  0
SEQEND
  8
MERGEDLAYER-1
  0
POLYLINE
  8
MERGEDLAYER-1
 66
  1
 70
  0
 62
  7
 10
46.652391
 20
18.335891
 30
0.000000
  0
VERTEX
  8
MERGEDLAYER-1
 10
46.652391
 20
18.335891
 30
0.000000
  0
VERTEX
  8
MERGEDLAYER-1
 10
46.667387
 20
18.350891
 30
0.000000
  0
SEQEND
  8
MERGEDLAYER-1
  0
POLYLINE
  8
MERGEDLAYER-1
 66
  1
 70
  0
 62
  7
 10
46.652391
 20
18.335895
 30
0.000000
  0
VERTEX
  8
MERGEDLAYER-1
 10
46.652391
 20
18.335895
 30
0.000000
  0
VERTEX
  8
MERGEDLAYER-1
 10
46.603553
 20
18.335895
 30
0.000000
  0
SEQEND
  8
MERGEDLAYER-1
  0
POLYLINE
  8
MERGEDLAYER-1
 66
  1
 70
  0
 62
  7
 10
46.603553
 20
18.335891
 30
0.000000
  0
VERTEX
  8
MERGEDLAYER-1
 10
46.603553
 20
18.335891
 30
0.000000
  0
VERTEX
  8
MERGEDLAYER-1
 10
46.588557
 20
18.320895
 30
0.000000
  0
SEQEND
  8
MERGEDLAYER-1
  0
POLYLINE
  8
MERGEDLAYER-1
 66
  1
 70
  0
 62
  7
 10
46.588553
 20
18.320895
 30
0.000000
  0
VERTEX
  8
MERGEDLAYER-1
 10
46.588553
 20
18.320895
 30
0.000000
  0
VERTEX
  8
MERGEDLAYER-1
 10
46.588553
 20
18.264343
 30
0.000000
  0
SEQEND
  8
MERGEDLAYER-1
  0
POLYLINE
  8
MERGEDLAYER-1
 66
  1
 70
  0
 62
  7
 10
46.588557
 20
18.264343
 30
0.000000
  0
VERTEX
  8
MERGEDLAYER-1
 10
46.588557
 20
18.264343
 30
0.000000
  0
VERTEX
  8
MERGEDLAYER-1
 10
46.603553
 20
18.249347
 30
0.000000
  0
SEQEND
  8
MERGEDLAYER-1
  0
POLYLINE
  8
MERGEDLAYER-1
 66
  1
 70
  0
 62
  7
 10
46.603553
 20
18.249347
 30
0.000000
  0
VERTEX
  8
MERGEDLAYER-1
 10
46.603553
 20
18.249347
 30
0.000000
  0
VERTEX
  8
MERGEDLAYER-1
 10
46.652391
 20
18.249347
 30
0.000000
  0
SEQEND
  8
MERGEDLAYER-1
  0
POLYLINE
  8
MERGEDLAYER-1
 66
  1
 70
  0
 62
  7
 10
46.667387
 20
18.234347
 30
0.000000
  0
VERTEX
  8
MERGEDLAYER-1
 10
46.667387
 20
18.234347
 30
0.000000
  0
VERTEX
  8
MERGEDLAYER-1
 10
46.652391
 20
18.249343
 30
0.000000
  0
SEQEND
  8
MERGEDLAYER-1
  0
POLYLINE
  8
MERGEDLAYER-1
 66
  1
 70
  0
 62
  7
 10
46.667391
 20
18.234347
 30
0.000000
  0
VERTEX
  8
MERGEDLAYER-1
 10
46.667391
 20
18.234347
 30
0.000000
  0
VERTEX
  8
MERGEDLAYER-1
 10
46.667391
 20
18.224980
 30
0.000000
  0
SEQEND
  8
MERGEDLAYER-1
  0
POLYLINE
  8
MERGEDLAYER-1
 66
  1
 70
  0
 62
  7
 10
46.652391
 20
18.209984
 30
0.000000
  0
VERTEX
  8
MERGEDLAYER-1
 10
46.652391
 20
18.209984
 30
0.000000
  0
VERTEX
  8
MERGEDLAYER-1
 10
46.667387
 20
18.224980
 30
0.000000
  0
SEQEND
  8
MERGEDLAYER-1
  0
POLYLINE
  8
MERGEDLAYER-1
 66
  1
 70
  0
 62
  7
 10
46.652391
 20
18.209980
 30
0.000000
  0
VERTEX
  8
MERGEDLAYER-1
 10
46.652391
 20
18.209980
 30
0.000000
  0
VERTEX
  8
MERGEDLAYER-1
 10
46.588506
 20
18.209980
 30
0.000000
  0
SEQEND
  8
MERGEDLAYER-1
  0
POLYLINE
  8
MERGEDLAYER-1
 66
  1
 70
  0
 62
  7
 10
46.533508
 20
18.264982
 30
0.000000
  0
VERTEX
  8
MERGEDLAYER-1
 10
46.533508
 20
18.264982
 30
0.000000
  0
VERTEX
  8
MERGEDLAYER-1
 10
46.588506
 20
18.209984
 30
0.000000
  0
SEQEND
  8
MERGEDLAYER-1
  0
POLYLINE
  8
MERGEDLAYER-1
 66
  1
 70
  0
 62
  7
 10
46.533513
 20
18.264982
 30
0.000000
  0
VERTEX
  8
MERGEDLAYER-1
 10
46.533513
 20
18.264982
 30
0.000000
  0
VERTEX
  8
MERGEDLAYER-1
 10
46.533513
 20
18.522935
 30
0.000000
  0
SEQEND
  8
MERGEDLAYER-1
  0
POLYLINE
  8
MERGEDLAYER-1
 66
  1
 70
  0
 62
  7
 10
46.657513
 20
18.646926
 30
0.000000
  0
VERTEX
  8
MERGEDLAYER-1
 10
46.657513
 20
18.646926
 30
0.000000
  0
VERTEX
  8
MERGEDLAYER-1
 10
46.567866
 20
18.612582
 30
0.000000
  0
VERTEX
  8
MERGEDLAYER-1
 10
46.533518
 20
18.522935
 30
0.000000
  0
SEQEND
  8
MERGEDLAYER-1
  0
POLYLINE
  8
MERGEDLAYER-1
 66
  1
 70
  0
 62
  7
 10
49.203609
 20
17.117230
 30
0.000000
  0
VERTEX
  8
MERGEDLAYER-1
 10
49.203609
 20
17.117230
 30
0.000000
  0
VERTEX
  8
MERGEDLAYER-1
 10
49.203609
 20
18.551885
 30
0.000000
  0
SEQEND
  8
MERGEDLAYER-1
  0
POLYLINE
  8
MERGEDLAYER-1
 66
  1
 70
  0
 62
  7
 10
49.283386
 20
18.632024
 30
0.000000
  0
VERTEX
  8
MERGEDLAYER-1
 10
49.283386
 20
18.632024
 30
0.000000
  0
VERTEX
  8
MERGEDLAYER-1
 10
49.203609
 20
18.551885
 30
0.000000
  0
SEQEND
  8
MERGEDLAYER-1
  0
POLYLINE
  8
MERGEDLAYER-1
 66
  1
 70
  0
 62
  7
 10
49.283386
 20
17.849638
 30
0.000000
  0
VERTEX
  8
MERGEDLAYER-1
 10
49.283386
 20
17.849638
 30
0.000000
  0
VERTEX
  8
MERGEDLAYER-1
 10
49.283386
 20
18.632024
 30
0.000000
  0
SEQEND
  8
MERGEDLAYER-1
  0
POLYLINE
  8
MERGEDLAYER-1
 66
  1
 70
  0
 62
  7
 10
49.283386
 20
17.849633
 30
0.000000
  0
VERTEX
  8
MERGEDLAYER-1
 10
49.283386
 20
17.849633
 30
0.000000
  0
VERTEX
  8
MERGEDLAYER-1
 10
49.266423
 20
17.836604
 30
0.000000
  0
VERTEX
  8
MERGEDLAYER-1
 10
49.283386
 20
17.819636
 30
0.000000
  0
SEQEND
  8
MERGEDLAYER-1
  0
POLYLINE
  8
MERGEDLAYER-1
 66
  1
 70
  0
 62
  7
 10
49.283386
 20
17.819636
 30
0.000000
  0
VERTEX
  8
MERGEDLAYER-1
 10
49.283386
 20
17.819636
 30
0.000000
  0
VERTEX
  8
MERGEDLAYER-1
 10
49.283386
 20
17.037091
 30
0.000000
  0
SEQEND
  8
MERGEDLAYER-1
  0
POLYLINE
  8
MERGEDLAYER-1
 66
  1
 70
  0
 62
  7
 10
49.268386
 20
17.022090
 30
0.000000
  0
VERTEX
  8
MERGEDLAYER-1
 10
49.268386
 20
17.022090
 30
0.000000
  0
VERTEX
  8
MERGEDLAYER-1
 10
48.233497
 20
17.022090
 30
0.000000
  0
SEQEND
  8
MERGEDLAYER-1
  0
POLYLINE
  8
MERGEDLAYER-1
 66
  1
 70
  0
 62
  7
 10
47.127329
 20
17.021630
 30
0.000000
  0
VERTEX
  8
MERGEDLAYER-1
 10
47.127329
 20
17.021630
 30
0.000000
  0
VERTEX
  8
MERGEDLAYER-1
 10
46.657513
 20
17.021630
 30
0.000000
  0
SEQEND
  8
MERGEDLAYER-1
  0
POLYLINE
  8
MERGEDLAYER-1
 66
  1
 70
  0
 62
  7
 10
47.157330
 20
17.021536
 30
0.000000
  0
VERTEX
  8
MERGEDLAYER-1
 10
47.157330
 20
17.021536
 30
0.000000
  0
VERTEX
  8
MERGEDLAYER-1
 10
47.140362
 20
17.038499
 30
0.000000
  0
VERTEX
  8
MERGEDLAYER-1
 10
47.127333
 20
17.021625
 30
0.000000
  0
SEQEND
  8
MERGEDLAYER-1
  0
POLYLINE
  8
MERGEDLAYER-1
 66
  1
 70
  0
 62
  7
 10
47.157335
 20
17.021536
 30
0.000000
  0
VERTEX
  8
MERGEDLAYER-1
 10
47.157335
 20
17.021536
 30
0.000000
  0
VERTEX
  8
MERGEDLAYER-1
 10
48.203501
 20
17.021536
 30
0.000000
  0
SEQEND
  8
MERGEDLAYER-1
  0
POLYLINE
  8
MERGEDLAYER-1
 66
  1
 70
  0
 62
  7
 10
48.233502
 20
17.021536
 30
0.000000
  0
VERTEX
  8
MERGEDLAYER-1
 10
48.233502
 20
17.021536
 30
0.000000
  0
VERTEX
  8
MERGEDLAYER-1
 10
48.216534
 20
17.038499
 30
0.000000
  0
VERTEX
  8
MERGEDLAYER-1
 10
48.203505
 20
17.021536
 30
0.000000
  0
SEQEND
  8
MERGEDLAYER-1
  0
POLYLINE
  8
MERGEDLAYER-1
 66
  1
 70
  0
 62
  7
 10
48.233497
 20
17.021536
 30
0.000000
  0
VERTEX
  8
MERGEDLAYER-1
 10
48.233497
 20
17.021536
 30
0.000000
  0
VERTEX
  8
MERGEDLAYER-1
 10
49.268386
 20
17.021536
 30
0.000000
  0
SEQEND
  8
MERGEDLAYER-1
  0
POLYLINE
  8
MERGEDLAYER-1
 66
  1
 70
  0
 62
  7
 10
49.268386
 20
17.021541
 30
0.000000
  0
VERTEX
  8
MERGEDLAYER-1
 10
49.268386
 20
17.021541
 30
0.000000
  0
VERTEX
  8
MERGEDLAYER-1
 10
49.283386
 20
17.036537
 30
0.000000
  0
SEQEND
  8
MERGEDLAYER-1
  0
POLYLINE
  8
MERGEDLAYER-1
 66
  1
 70
  0
 62
  7
 10
49.203609
 20
17.116671
 30
0.000000
  0
VERTEX
  8
MERGEDLAYER-1
 10
49.203609
 20
17.116671
 30
0.000000
  0
VERTEX
  8
MERGEDLAYER-1
 10
49.283386
 20
17.036537
 30
0.000000
  0
SEQEND
  8
MERGEDLAYER-1
  0
POLYLINE
  8
MERGEDLAYER-1
 66
  1
 70
  0
 62
  7
 10
49.188608
 20
17.101675
 30
0.000000
  0
VERTEX
  8
MERGEDLAYER-1
 10
49.188608
 20
17.101675
 30
0.000000
  0
VERTEX
  8
MERGEDLAYER-1
 10
49.203604
 20
17.116671
 30
0.000000
  0
SEQEND
  8
MERGEDLAYER-1
  0
POLYLINE
  8
MERGEDLAYER-1
 66
  1
 70
  0
 62
  7
 10
49.143893
 20
17.101670
 30
0.000000
  0
VERTEX
  8
MERGEDLAYER-1
 10
49.143893
 20
17.101670
 30
0.000000
  0
VERTEX
  8
MERGEDLAYER-1
 10
49.188608
 20
17.101670
 30
0.000000
  0
SEQEND
  8
MERGEDLAYER-1
  0
POLYLINE
  8
MERGEDLAYER-1
 66
  1
 70
  0
 62
  7
 10
49.128897
 20
17.116671
 30
0.000000
  0
VERTEX
  8
MERGEDLAYER-1
 10
49.128897
 20
17.116671
 30
0.000000
  0
VERTEX
  8
MERGEDLAYER-1
 10
49.143893
 20
17.101675
 30
0.000000
  0
SEQEND
  8
MERGEDLAYER-1
  0
POLYLINE
  8
MERGEDLAYER-1
 66
  1
 70
  0
 62
  7
 10
49.128897
 20
17.193946
 30
0.000000
  0
VERTEX
  8
MERGEDLAYER-1
 10
49.128897
 20
17.193946
 30
0.000000
  0
VERTEX
  8
MERGEDLAYER-1
 10
49.128897
 20
17.116671
 30
0.000000
  0
SEQEND
  8
MERGEDLAYER-1
  0
POLYLINE
  8
MERGEDLAYER-1
 66
  1
 70
  0
 62
  7
 10
49.128902
 20
17.193946
 30
0.000000
  0
VERTEX
  8
MERGEDLAYER-1
 10
49.128902
 20
17.193946
 30
0.000000
  0
VERTEX
  8
MERGEDLAYER-1
 10
49.113906
 20
17.208947
 30
0.000000
  0
SEQEND
  8
MERGEDLAYER-1
  0
POLYLINE
  8
MERGEDLAYER-1
 66
  1
 70
  0
 62
  7
 10
49.043898
 20
17.208952
 30
0.000000
  0
VERTEX
  8
MERGEDLAYER-1
 10
49.043898
 20
17.208952
 30
0.000000
  0
VERTEX
  8
MERGEDLAYER-1
 10
49.113906
 20
17.208952
 30
0.000000
  0
SEQEND
  8
MERGEDLAYER-1
  0
POLYLINE
  8
MERGEDLAYER-1
 66
  1
 70
  0
 62
  7
 10
49.043898
 20
17.208947
 30
0.000000
  0
VERTEX
  8
MERGEDLAYER-1
 10
49.043898
 20
17.208947
 30
0.000000
  0
VERTEX
  8
MERGEDLAYER-1
 10
49.028902
 20
17.193946
 30
0.000000
  0
SEQEND
  8
MERGEDLAYER-1
  0
POLYLINE
  8
MERGEDLAYER-1
 66
  1
 70
  0
 62
  7
 10
49.028907
 20
17.116526
 30
0.000000
  0
VERTEX
  8
MERGEDLAYER-1
 10
49.028907
 20
17.116526
 30
0.000000
  0
VERTEX
  8
MERGEDLAYER-1
 10
49.028907
 20
17.193946
 30
0.000000
  0
SEQEND
  8
MERGEDLAYER-1
  0
POLYLINE
  8
MERGEDLAYER-1
 66
  1
 70
  0
 62
  7
 10
49.013897
 20
17.101530
 30
0.000000
  0
VERTEX
  8
MERGEDLAYER-1
 10
49.013897
 20
17.101530
 30
0.000000
  0
VERTEX
  8
MERGEDLAYER-1
 10
49.028893
 20
17.116526
 30
0.000000
  0
SEQEND
  8
MERGEDLAYER-1
  0
POLYLINE
  8
MERGEDLAYER-1
 66
  1
 70
  0
 62
  7
 10
48.968628
 20
17.101530
 30
0.000000
  0
VERTEX
  8
MERGEDLAYER-1
 10
48.968628
 20
17.101530
 30
0.000000
  0
VERTEX
  8
MERGEDLAYER-1
 10
49.013897
 20
17.101530
 30
0.000000
  0
SEQEND
  8
MERGEDLAYER-1
  0
POLYLINE
  8
MERGEDLAYER-1
 66
  1
 70
  0
 62
  7
 10
48.953627
 20
17.116526
 30
0.000000
  0
VERTEX
  8
MERGEDLAYER-1
 10
48.953627
 20
17.116526
 30
0.000000
  0
VERTEX
  8
MERGEDLAYER-1
 10
48.968628
 20
17.101530
 30
0.000000
  0
SEQEND
  8
MERGEDLAYER-1
  0
POLYLINE
  8
MERGEDLAYER-1
 66
  1
 70
  0
 62
  7
 10
48.953623
 20
17.333980
 30
0.000000
  0
VERTEX
  8
MERGEDLAYER-1
 10
48.953623
 20
17.333980
 30
0.000000
  0
VERTEX
  8
MERGEDLAYER-1
 10
48.953623
 20
17.116526
 30
0.000000
  0
SEQEND
  8
MERGEDLAYER-1
  0
POLYLINE
  8
MERGEDLAYER-1
 66
  1
 70
  0
 62
  7
 10
48.953623
 20
17.333980
 30
0.000000
  0
VERTEX
  8
MERGEDLAYER-1
 10
48.953623
 20
17.333980
 30
0.000000
  0
VERTEX
  8
MERGEDLAYER-1
 10
48.938622
 20
17.348980
 30
0.000000
  0
SEQEND
  8
MERGEDLAYER-1
  0
POLYLINE
  8
MERGEDLAYER-1
 66
  1
 70
  0
 62
  7
 10
48.888625
 20
17.348980
 30
0.000000
  0
VERTEX
  8
MERGEDLAYER-1
 10
48.888625
 20
17.348980
 30
0.000000
  0
VERTEX
  8
MERGEDLAYER-1
 10
48.938622
 20
17.348980
 30
0.000000
  0
SEQEND
  8
MERGEDLAYER-1
  0
POLYLINE
  8
MERGEDLAYER-1
 66
  1
 70
  0
 62
  7
 10
48.888625
 20
17.348980
 30
0.000000
  0
VERTEX
  8
MERGEDLAYER-1
 10
48.888625
 20
17.348980
 30
0.000000
  0
VERTEX
  8
MERGEDLAYER-1
 10
48.873629
 20
17.333980
 30
0.000000
  0
SEQEND
  8
MERGEDLAYER-1
  0
POLYLINE
  8
MERGEDLAYER-1
 66
  1
 70
  0
 62
  7
 10
48.873624
 20
17.116685
 30
0.000000
  0
VERTEX
  8
MERGEDLAYER-1
 10
48.873624
 20
17.116685
 30
0.000000
  0
VERTEX
  8
MERGEDLAYER-1
 10
48.873624
 20
17.333980
 30
0.000000
  0
SEQEND
  8
MERGEDLAYER-1
  0
POLYLINE
  8
MERGEDLAYER-1
 66
  1
 70
  0
 62
  7
 10
48.858624
 20
17.101685
 30
0.000000
  0
VERTEX
  8
MERGEDLAYER-1
 10
48.858624
 20
17.101685
 30
0.000000
  0
VERTEX
  8
MERGEDLAYER-1
 10
48.873620
 20
17.116685
 30
0.000000
  0
SEQEND
  8
MERGEDLAYER-1
  0
POLYLINE
  8
MERGEDLAYER-1
 66
  1
 70
  0
 62
  7
 10
48.665833
 20
17.101680
 30
0.000000
  0
VERTEX
  8
MERGEDLAYER-1
 10
48.665833
 20
17.101680
 30
0.000000
  0
VERTEX
  8
MERGEDLAYER-1
 10
48.858624
 20
17.101680
 30
0.000000
  0
SEQEND
  8
MERGEDLAYER-1
  0
POLYLINE
  8
MERGEDLAYER-1
 66
  1
 70
  0
 62
  7
 10
48.650832
 20
17.116685
 30
0.000000
  0
VERTEX
  8
MERGEDLAYER-1
 10
48.650832
 20
17.116685
 30
0.000000
  0
VERTEX
  8
MERGEDLAYER-1
 10
48.665833
 20
17.101685
 30
0.000000
  0
SEQEND
  8
MERGEDLAYER-1
  0
POLYLINE
  8
MERGEDLAYER-1
 66
  1
 70
  0
 62
  7
 10
48.525513
 20
17.116671
 30
0.000000
  0
VERTEX
  8
MERGEDLAYER-1
 10
48.525513
 20
17.116671
 30
0.000000
  0
VERTEX
  8
MERGEDLAYER-1
 10
48.650827
 20
17.116685
 30
0.000000
  0
SEQEND
  8
MERGEDLAYER-1
  0
POLYLINE
  8
MERGEDLAYER-1
 66
  1
 70
  0
 62
  7
 10
48.510512
 20
17.101675
 30
0.000000
  0
VERTEX
  8
MERGEDLAYER-1
 10
48.510512
 20
17.101675
 30
0.000000
  0
VERTEX
  8
MERGEDLAYER-1
 10
48.525508
 20
17.116671
 30
0.000000
  0
SEQEND
  8
MERGEDLAYER-1
  0
POLYLINE
  8
MERGEDLAYER-1
 66
  1
 70
  0
 62
  7
 10
48.510512
 20
17.101670
 30
0.000000
  0
VERTEX
  8
MERGEDLAYER-1
 10
48.510512
 20
17.101670
 30
0.000000
  0
VERTEX
  8
MERGEDLAYER-1
 10
48.460806
 20
17.101670
 30
0.000000
  0
SEQEND
  8
MERGEDLAYER-1
  0
POLYLINE
  8
MERGEDLAYER-1
 66
  1
 70
  0
 62
  7
 10
48.445810
 20
17.116671
 30
0.000000
  0
VERTEX
  8
MERGEDLAYER-1
 10
48.445810
 20
17.116671
 30
0.000000
  0
VERTEX
  8
MERGEDLAYER-1
 10
48.460806
 20
17.101675
 30
0.000000
  0
SEQEND
  8
MERGEDLAYER-1
  0
POLYLINE
  8
MERGEDLAYER-1
 66
  1
 70
  0
 62
  7
 10
48.445805
 20
17.193946
 30
0.000000
  0
VERTEX
  8
MERGEDLAYER-1
 10
48.445805
 20
17.193946
 30
0.000000
  0
VERTEX
  8
MERGEDLAYER-1
 10
48.445805
 20
17.116671
 30
0.000000
  0
SEQEND
  8
MERGEDLAYER-1
  0
POLYLINE
  8
MERGEDLAYER-1
 66
  1
 70
  0
 62
  7
 10
48.445801
 20
17.193946
 30
0.000000
  0
VERTEX
  8
MERGEDLAYER-1
 10
48.445801
 20
17.193946
 30
0.000000
  0
VERTEX
  8
MERGEDLAYER-1
 10
48.430805
 20
17.208947
 30
0.000000
  0
SEQEND
  8
MERGEDLAYER-1
  0
POLYLINE
  8
MERGEDLAYER-1
 66
  1
 70
  0
 62
  7
 10
48.430805
 20
17.208952
 30
0.000000
  0
VERTEX
  8
MERGEDLAYER-1
 10
48.430805
 20
17.208952
 30
0.000000
  0
VERTEX
  8
MERGEDLAYER-1
 10
48.360807
 20
17.208952
 30
0.000000
  0
SEQEND
  8
MERGEDLAYER-1
  0
POLYLINE
  8
MERGEDLAYER-1
 66
  1
 70
  0
 62
  7
 10
48.360807
 20
17.208947
 30
0.000000
  0
VERTEX
  8
MERGEDLAYER-1
 10
48.360807
 20
17.208947
 30
0.000000
  0
VERTEX
  8
MERGEDLAYER-1
 10
48.345806
 20
17.193946
 30
0.000000
  0
SEQEND
  8
MERGEDLAYER-1
  0
POLYLINE
  8
MERGEDLAYER-1
 66
  1
 70
  0
 62
  7
 10
48.345802
 20
17.116526
 30
0.000000
  0
VERTEX
  8
MERGEDLAYER-1
 10
48.345802
 20
17.116526
 30
0.000000
  0
VERTEX
  8
MERGEDLAYER-1
 10
48.345802
 20
17.193946
 30
0.000000
  0
SEQEND
  8
MERGEDLAYER-1
  0
POLYLINE
  8
MERGEDLAYER-1
 66
  1
 70
  0
 62
  7
 10
48.330811
 20
17.101530
 30
0.000000
  0
VERTEX
  8
MERGEDLAYER-1
 10
48.330811
 20
17.101530
 30
0.000000
  0
VERTEX
  8
MERGEDLAYER-1
 10
48.345806
 20
17.116526
 30
0.000000
  0
SEQEND
  8
MERGEDLAYER-1
  0
POLYLINE
  8
MERGEDLAYER-1
 66
  1
 70
  0
 62
  7
 10
48.280527
 20
17.101530
 30
0.000000
  0
VERTEX
  8
MERGEDLAYER-1
 10
48.280527
 20
17.101530
 30
0.000000
  0
VERTEX
  8
MERGEDLAYER-1
 10
48.330811
 20
17.101530
 30
0.000000
  0
SEQEND
  8
MERGEDLAYER-1
  0
POLYLINE
  8
MERGEDLAYER-1
 66
  1
 70
  0
 62
  7
 10
48.265531
 20
17.116526
 30
0.000000
  0
VERTEX
  8
MERGEDLAYER-1
 10
48.265531
 20
17.116526
 30
0.000000
  0
VERTEX
  8
MERGEDLAYER-1
 10
48.280527
 20
17.101530
 30
0.000000
  0
SEQEND
  8
MERGEDLAYER-1
  0
POLYLINE
  8
MERGEDLAYER-1
 66
  1
 70
  0
 62
  7
 10
48.265531
 20
17.333980
 30
0.000000
  0
VERTEX
  8
MERGEDLAYER-1
 10
48.265531
 20
17.333980
 30
0.000000
  0
VERTEX
  8
MERGEDLAYER-1
 10
48.265531
 20
17.116526
 30
0.000000
  0
SEQEND
  8
MERGEDLAYER-1
  0
POLYLINE
  8
MERGEDLAYER-1
 66
  1
 70
  0
 62
  7
 10
48.265531
 20
17.333980
 30
0.000000
  0
VERTEX
  8
MERGEDLAYER-1
 10
48.265531
 20
17.333980
 30
0.000000
  0
VERTEX
  8
MERGEDLAYER-1
 10
48.250531
 20
17.348980
 30
0.000000
  0
SEQEND
  8
MERGEDLAYER-1
  0
POLYLINE
  8
MERGEDLAYER-1
 66
  1
 70
  0
 62
  7
 10
48.250531
 20
17.348980
 30
0.000000
  0
VERTEX
  8
MERGEDLAYER-1
 10
48.250531
 20
17.348980
 30
0.000000
  0
VERTEX
  8
MERGEDLAYER-1
 10
48.185533
 20
17.348980
 30
0.000000
  0
SEQEND
  8
MERGEDLAYER-1
  0
POLYLINE
  8
MERGEDLAYER-1
 66
  1
 70
  0
 62
  7
 10
48.185533
 20
17.348980
 30
0.000000
  0
VERTEX
  8
MERGEDLAYER-1
 10
48.185533
 20
17.348980
 30
0.000000
  0
VERTEX
  8
MERGEDLAYER-1
 10
48.170532
 20
17.333980
 30
0.000000
  0
SEQEND
  8
MERGEDLAYER-1
  0
POLYLINE
  8
MERGEDLAYER-1
 66
  1
 70
  0
 62
  7
 10
48.170528
 20
17.333980
 30
0.000000
  0
VERTEX
  8
MERGEDLAYER-1
 10
48.170528
 20
17.333980
 30
0.000000
  0
VERTEX
  8
MERGEDLAYER-1
 10
48.170528
 20
17.131676
 30
0.000000
  0
SEQEND
  8
MERGEDLAYER-1
  0
POLYLINE
  8
MERGEDLAYER-1
 66
  1
 70
  0
 62
  7
 10
48.155527
 20
17.116680
 30
0.000000
  0
VERTEX
  8
MERGEDLAYER-1
 10
48.155527
 20
17.116680
 30
0.000000
  0
VERTEX
  8
MERGEDLAYER-1
 10
48.170528
 20
17.131676
 30
0.000000
  0
SEQEND
  8
MERGEDLAYER-1
  0
POLYLINE
  8
MERGEDLAYER-1
 66
  1
 70
  0
 62
  7
 10
48.155527
 20
17.116685
 30
0.000000
  0
VERTEX
  8
MERGEDLAYER-1
 10
48.155527
 20
17.116685
 30
0.000000
  0
VERTEX
  8
MERGEDLAYER-1
 10
47.032536
 20
17.116685
 30
0.000000
  0
SEQEND
  8
MERGEDLAYER-1
  0
POLYLINE
  8
MERGEDLAYER-1
 66
  1
 70
  0
 62
  7
 10
47.017536
 20
17.131676
 30
0.000000
  0
VERTEX
  8
MERGEDLAYER-1
 10
47.017536
 20
17.131676
 30
0.000000
  0
VERTEX
  8
MERGEDLAYER-1
 10
47.032536
 20
17.116680
 30
0.000000
  0
SEQEND
  8
MERGEDLAYER-1
  0
POLYLINE
  8
MERGEDLAYER-1
 66
  1
 70
  0
 62
  7
 10
47.017541
 20
17.403579
 30
0.000000
  0
VERTEX
  8
MERGEDLAYER-1
 10
47.017541
 20
17.403579
 30
0.000000
  0
VERTEX
  8
MERGEDLAYER-1
 10
47.017541
 20
17.131676
 30
0.000000
  0
SEQEND
  8
MERGEDLAYER-1
  0
POLYLINE
  8
MERGEDLAYER-1
 66
  1
 70
  0
 62
  7
 10
47.017545
 20
17.403579
 30
0.000000
  0
VERTEX
  8
MERGEDLAYER-1
 10
47.017545
 20
17.403579
 30
0.000000
  0
VERTEX
  8
MERGEDLAYER-1
 10
46.962543
 20
17.458576
 30
0.000000
  0
SEQEND
  8
MERGEDLAYER-1
  0
POLYLINE
  8
MERGEDLAYER-1
 66
  1
 70
  0
 62
  7
 10
46.898851
 20
17.458576
 30
0.000000
  0
VERTEX
  8
MERGEDLAYER-1
 10
46.898851
 20
17.458576
 30
0.000000
  0
VERTEX
  8
MERGEDLAYER-1
 10
46.962543
 20
17.458576
 30
0.000000
  0
SEQEND
  8
MERGEDLAYER-1
  0
POLYLINE
  8
MERGEDLAYER-1
 66
  1
 70
  0
 62
  7
 10
46.898851
 20
17.458571
 30
0.000000
  0
VERTEX
  8
MERGEDLAYER-1
 10
46.898851
 20
17.458571
 30
0.000000
  0
VERTEX
  8
MERGEDLAYER-1
 10
46.883855
 20
17.443575
 30
0.000000
  0
SEQEND
  8
MERGEDLAYER-1
  0
POLYLINE
  8
MERGEDLAYER-1
 66
  1
 70
  0
 62
  7
 10
46.883859
 20
17.434213
 30
0.000000
  0
VERTEX
  8
MERGEDLAYER-1
 10
46.883859
 20
17.434213
 30
0.000000
  0
VERTEX
  8
MERGEDLAYER-1
 10
46.883859
 20
17.443575
 30
0.000000
  0
SEQEND
  8
MERGEDLAYER-1
  0
POLYLINE
  8
MERGEDLAYER-1
 66
  1
 70
  0
 62
  7
 10
46.883855
 20
17.434213
 30
0.000000
  0
VERTEX
  8
MERGEDLAYER-1
 10
46.883855
 20
17.434213
 30
0.000000
  0
VERTEX
  8
MERGEDLAYER-1
 10
46.898851
 20
17.419213
 30
0.000000
  0
SEQEND
  8
MERGEDLAYER-1
  0
POLYLINE
  8
MERGEDLAYER-1
 66
  1
 70
  0
 62
  7
 10
46.898851
 20
17.419213
 30
0.000000
  0
VERTEX
  8
MERGEDLAYER-1
 10
46.898851
 20
17.419213
 30
0.000000
  0
VERTEX
  8
MERGEDLAYER-1
 10
46.947543
 20
17.419213
 30
0.000000
  0
SEQEND
  8
MERGEDLAYER-1
  0
POLYLINE
  8
MERGEDLAYER-1
 66
  1
 70
  0
 62
  7
 10
46.962538
 20
17.404217
 30
0.000000
  0
VERTEX
  8
MERGEDLAYER-1
 10
46.962538
 20
17.404217
 30
0.000000
  0
VERTEX
  8
MERGEDLAYER-1
 10
46.947543
 20
17.419213
 30
0.000000
  0
SEQEND
  8
MERGEDLAYER-1
  0
POLYLINE
  8
MERGEDLAYER-1
 66
  1
 70
  0
 62
  7
 10
46.962538
 20
17.404217
 30
0.000000
  0
VERTEX
  8
MERGEDLAYER-1
 10
46.962538
 20
17.404217
 30
0.000000
  0
VERTEX
  8
MERGEDLAYER-1
 10
46.962538
 20
17.347661
 30
0.000000
  0
SEQEND
  8
MERGEDLAYER-1
  0
POLYLINE
  8
MERGEDLAYER-1
 66
  1
 70
  0
 62
  7
 10
46.947543
 20
17.332660
 30
0.000000
  0
VERTEX
  8
MERGEDLAYER-1
 10
46.947543
 20
17.332660
 30
0.000000
  0
VERTEX
  8
MERGEDLAYER-1
 10
46.962538
 20
17.347661
 30
0.000000
  0
SEQEND
  8
MERGEDLAYER-1
  0
POLYLINE
  8
MERGEDLAYER-1
 66
  1
 70
  0
 62
  7
 10
46.947543
 20
17.332665
 30
0.000000
  0
VERTEX
  8
MERGEDLAYER-1
 10
46.947543
 20
17.332665
 30
0.000000
  0
VERTEX
  8
MERGEDLAYER-1
 10
46.898761
 20
17.332665
 30
0.000000
  0
SEQEND
  8
MERGEDLAYER-1
  0
POLYLINE
  8
MERGEDLAYER-1
 66
  1
 70
  0
 62
  7
 10
46.898761
 20
17.332660
 30
0.000000
  0
VERTEX
  8
MERGEDLAYER-1
 10
46.898761
 20
17.332660
 30
0.000000
  0
VERTEX
  8
MERGEDLAYER-1
 10
46.881794
 20
17.319632
 30
0.000000
  0
VERTEX
  8
MERGEDLAYER-1
 10
46.883761
 20
17.317646
 30
0.000000
  0
SEQEND
  8
MERGEDLAYER-1
  0
POLYLINE
  8
MERGEDLAYER-1
 66
  1
 70
  0
 62
  7
 10
46.883756
 20
17.317641
 30
0.000000
  0
VERTEX
  8
MERGEDLAYER-1
 10
46.883756
 20
17.317641
 30
0.000000
  0
VERTEX
  8
MERGEDLAYER-1
 10
46.883859
 20
17.247343
 30
0.000000
  0
SEQEND
  8
MERGEDLAYER-1
  0
POLYLINE
  8
MERGEDLAYER-1
 66
  1
 70
  0
 62
  7
 10
46.883855
 20
17.247347
 30
0.000000
  0
VERTEX
  8
MERGEDLAYER-1
 10
46.883855
 20
17.247347
 30
0.000000
  0
VERTEX
  8
MERGEDLAYER-1
 10
46.882625
 20
17.244685
 30
0.000000
  0
VERTEX
  8
MERGEDLAYER-1
 10
46.884756
 20
17.240507
 30
0.000000
  0
VERTEX
  8
MERGEDLAYER-1
 10
46.888076
 20
17.237197
 30
0.000000
  0
VERTEX
  8
MERGEDLAYER-1
 10
46.892249
 20
17.235065
 30
0.000000
  0
VERTEX
  8
MERGEDLAYER-1
 10
46.898851
 20
17.232370
 30
0.000000
  0
SEQEND
  8
MERGEDLAYER-1
  0
POLYLINE
  8
MERGEDLAYER-1
 66
  1
 70
  0
 62
  7
 10
46.898851
 20
17.232366
 30
0.000000
  0
VERTEX
  8
MERGEDLAYER-1
 10
46.898851
 20
17.232366
 30
0.000000
  0
VERTEX
  8
MERGEDLAYER-1
 10
46.947543
 20
17.232366
 30
0.000000
  0
SEQEND
  8
MERGEDLAYER-1
  0
POLYLINE
  8
MERGEDLAYER-1
 66
  1
 70
  0
 62
  7
 10
46.962538
 20
17.217370
 30
0.000000
  0
VERTEX
  8
MERGEDLAYER-1
 10
46.962538
 20
17.217370
 30
0.000000
  0
VERTEX
  8
MERGEDLAYER-1
 10
46.947543
 20
17.232370
 30
0.000000
  0
SEQEND
  8
MERGEDLAYER-1
  0
POLYLINE
  8
MERGEDLAYER-1
 66
  1
 70
  0
 62
  7
 10
46.962538
 20
17.217370
 30
0.000000
  0
VERTEX
  8
MERGEDLAYER-1
 10
46.962538
 20
17.217370
 30
0.000000
  0
VERTEX
  8
MERGEDLAYER-1
 10
46.962538
 20
17.091323
 30
0.000000
  0
SEQEND
  8
MERGEDLAYER-1
  0
POLYLINE
  8
MERGEDLAYER-1
 66
  1
 70
  0
 62
  7
 10
46.947543
 20
17.076322
 30
0.000000
  0
VERTEX
  8
MERGEDLAYER-1
 10
46.947543
 20
17.076322
 30
0.000000
  0
VERTEX
  8
MERGEDLAYER-1
 10
46.962538
 20
17.091323
 30
0.000000
  0
SEQEND
  8
MERGEDLAYER-1
  0
POLYLINE
  8
MERGEDLAYER-1
 66
  1
 70
  0
 62
  7
 10
46.657555
 20
17.076322
 30
0.000000
  0
VERTEX
  8
MERGEDLAYER-1
 10
46.657555
 20
17.076322
 30
0.000000
  0
VERTEX
  8
MERGEDLAYER-1
 10
46.947543
 20
17.076322
 30
0.000000
  0
SEQEND
  8
MERGEDLAYER-1
  0
POLYLINE
  8
MERGEDLAYER-1
 66
  1
 70
  0
 62
  7
 10
46.588562
 20
17.145320
 30
0.000000
  0
VERTEX
  8
MERGEDLAYER-1
 10
46.588562
 20
17.145320
 30
0.000000
  0
VERTEX
  8
MERGEDLAYER-1
 10
46.657555
 20
17.076322
 30
0.000000
  0
SEQEND
  8
MERGEDLAYER-1
  0
POLYLINE
  8
MERGEDLAYER-1
 66
  1
 70
  0
 62
  7
 10
46.588553
 20
17.145320
 30
0.000000
  0
VERTEX
  8
MERGEDLAYER-1
 10
46.588553
 20
17.145320
 30
0.000000
  0
VERTEX
  8
MERGEDLAYER-1
 10
46.588553
 20
17.217370
 30
0.000000
  0
SEQEND
  8
MERGEDLAYER-1
  0
POLYLINE
  8
MERGEDLAYER-1
 66
  1
 70
  0
 62
  7
 10
46.603553
 20
17.232370
 30
0.000000
  0
VERTEX
  8
MERGEDLAYER-1
 10
46.603553
 20
17.232370
 30
0.000000
  0
VERTEX
  8
MERGEDLAYER-1
 10
46.588557
 20
17.217370
 30
0.000000
  0
SEQEND
  8
MERGEDLAYER-1
  0
POLYLINE
  8
MERGEDLAYER-1
 66
  1
 70
  0
 62
  7
 10
46.603553
 20
17.232366
 30
0.000000
  0
VERTEX
  8
MERGEDLAYER-1
 10
46.603553
 20
17.232366
 30
0.000000
  0
VERTEX
  8
MERGEDLAYER-1
 10
46.652391
 20
17.232366
 30
0.000000
  0
SEQEND
  8
MERGEDLAYER-1
  0
POLYLINE
  8
MERGEDLAYER-1
 66
  1
 70
  0
 62
  7
 10
46.652391
 20
17.232370
 30
0.000000
  0
VERTEX
  8
MERGEDLAYER-1
 10
46.652391
 20
17.232370
 30
0.000000
  0
VERTEX
  8
MERGEDLAYER-1
 10
46.667387
 20
17.247366
 30
0.000000
  0
SEQEND
  8
MERGEDLAYER-1
  0
POLYLINE
  8
MERGEDLAYER-1
 66
  1
 70
  0
 62
  7
 10
46.667391
 20
17.247366
 30
0.000000
  0
VERTEX
  8
MERGEDLAYER-1
 10
46.667391
 20
17.247366
 30
0.000000
  0
VERTEX
  8
MERGEDLAYER-1
 10
46.667391
 20
17.317665
 30
0.000000
  0
SEQEND
  8
MERGEDLAYER-1
  0
POLYLINE
  8
MERGEDLAYER-1
 66
  1
 70
  0
 62
  7
 10
46.667387
 20
17.317665
 30
0.000000
  0
VERTEX
  8
MERGEDLAYER-1
 10
46.667387
 20
17.317665
 30
0.000000
  0
VERTEX
  8
MERGEDLAYER-1
 10
46.652391
 20
17.332660
 30
0.000000
  0
SEQEND
  8
MERGEDLAYER-1
  0
POLYLINE
  8
MERGEDLAYER-1
 66
  1
 70
  0
 62
  7
 10
46.652391
 20
17.332665
 30
0.000000
  0
VERTEX
  8
MERGEDLAYER-1
 10
46.652391
 20
17.332665
 30
0.000000
  0
VERTEX
  8
MERGEDLAYER-1
 10
46.603553
 20
17.332665
 30
0.000000
  0
SEQEND
  8
MERGEDLAYER-1
  0
POLYLINE
  8
MERGEDLAYER-1
 66
  1
 70
  0
 62
  7
 10
46.588557
 20
17.347661
 30
0.000000
  0
VERTEX
  8
MERGEDLAYER-1
 10
46.588557
 20
17.347661
 30
0.000000
  0
VERTEX
  8
MERGEDLAYER-1
 10
46.603553
 20
17.332660
 30
0.000000
  0
SEQEND
  8
MERGEDLAYER-1
  0
POLYLINE
  8
MERGEDLAYER-1
 66
  1
 70
  0
 62
  7
 10
46.588553
 20
17.347661
 30
0.000000
  0
VERTEX
  8
MERGEDLAYER-1
 10
46.588553
 20
17.347661
 30
0.000000
  0
VERTEX
  8
MERGEDLAYER-1
 10
46.588553
 20
17.404217
 30
0.000000
  0
SEQEND
  8
MERGEDLAYER-1
  0
POLYLINE
  8
MERGEDLAYER-1
 66
  1
 70
  0
 62
  7
 10
46.603553
 20
17.419213
 30
0.000000
  0
VERTEX
  8
MERGEDLAYER-1
 10
46.603553
 20
17.419213
 30
0.000000
  0
VERTEX
  8
MERGEDLAYER-1
 10
46.588557
 20
17.404217
 30
0.000000
  0
SEQEND
  8
MERGEDLAYER-1
  0
POLYLINE
  8
MERGEDLAYER-1
 66
  1
 70
  0
 62
  7
 10
46.603553
 20
17.419213
 30
0.000000
  0
VERTEX
  8
MERGEDLAYER-1
 10
46.603553
 20
17.419213
 30
0.000000
  0
VERTEX
  8
MERGEDLAYER-1
 10
46.652391
 20
17.419213
 30
0.000000
  0
SEQEND
  8
MERGEDLAYER-1
  0
POLYLINE
  8
MERGEDLAYER-1
 66
  1
 70
  0
 62
  7
 10
46.652391
 20
17.419213
 30
0.000000
  0
VERTEX
  8
MERGEDLAYER-1
 10
46.652391
 20
17.419213
 30
0.000000
  0
VERTEX
  8
MERGEDLAYER-1
 10
46.667387
 20
17.434209
 30
0.000000
  0
SEQEND
  8
MERGEDLAYER-1
  0
POLYLINE
  8
MERGEDLAYER-1
 66
  1
 70
  0
 62
  7
 10
46.667391
 20
17.434209
 30
0.000000
  0
VERTEX
  8
MERGEDLAYER-1
 10
46.667391
 20
17.434209
 30
0.000000
  0
VERTEX
  8
MERGEDLAYER-1
 10
46.667391
 20
17.443575
 30
0.000000
  0
SEQEND
  8
MERGEDLAYER-1
  0
POLYLINE
  8
MERGEDLAYER-1
 66
  1
 70
  0
 62
  7
 10
46.667387
 20
17.443575
 30
0.000000
  0
VERTEX
  8
MERGEDLAYER-1
 10
46.667387
 20
17.443575
 30
0.000000
  0
VERTEX
  8
MERGEDLAYER-1
 10
46.652391
 20
17.458571
 30
0.000000
  0
SEQEND
  8
MERGEDLAYER-1
  0
POLYLINE
  8
MERGEDLAYER-1
 66
  1
 70
  0
 62
  7
 10
46.652391
 20
17.458576
 30
0.000000
  0
VERTEX
  8
MERGEDLAYER-1
 10
46.652391
 20
17.458576
 30
0.000000
  0
VERTEX
  8
MERGEDLAYER-1
 10
46.588506
 20
17.458576
 30
0.000000
  0
SEQEND
  8
MERGEDLAYER-1
  0
POLYLINE
  8
MERGEDLAYER-1
 66
  1
 70
  0
 62
  7
 10
46.588506
 20
17.458576
 30
0.000000
  0
VERTEX
  8
MERGEDLAYER-1
 10
46.588506
 20
17.458576
 30
0.000000
  0
VERTEX
  8
MERGEDLAYER-1
 10
46.533508
 20
17.403579
 30
0.000000
  0
SEQEND
  8
MERGEDLAYER-1
  0
POLYLINE
  8
MERGEDLAYER-1
 66
  1
 70
  0
 62
  7
 10
46.533513
 20
17.403579
 30
0.000000
  0
VERTEX
  8
MERGEDLAYER-1
 10
46.533513
 20
17.403579
 30
0.000000
  0
VERTEX
  8
MERGEDLAYER-1
 10
46.533513
 20
17.145625
 30
0.000000
  0
SEQEND
  8
MERGEDLAYER-1
  0
POLYLINE
  8
MERGEDLAYER-1
 66
  1
 70
  0
 62
  7
 10
46.533518
 20
17.145625
 30
0.000000
  0
VERTEX
  8
MERGEDLAYER-1
 10
46.533518
 20
17.145625
 30
0.000000
  0
VERTEX
  8
MERGEDLAYER-1
 10
46.567866
 20
17.059918
 30
0.000000
  0
VERTEX
  8
MERGEDLAYER-1
 10
46.657513
 20
17.021635
 30
0.000000
  0
SEQEND
  8
MERGEDLAYER-1
  0
POLYLINE
  8
MERGEDLAYER-1
 66
  1
 70
  1
 62
  7
  0
VERTEX
  8
MERGEDLAYER-1
 10
48.525513
 20
18.551885
 30
0.000000
  0
VERTEX
  8
MERGEDLAYER-1
 10
48.650827
 20
18.551885
 30
0.000000
  0
VERTEX
  8
MERGEDLAYER-1
 10
48.650827
 20
17.116685
 30
0.000000
  0
VERTEX
  8
MERGEDLAYER-1
 10
48.525513
 20
17.116685
 30
0.000000
  0
SEQEND
  8
MERGEDLAYER-1
  0
POLYLINE
  8
MERGEDLAYER-1
 66
  1
 70
  0
 62
  7
 10
49.203609
 20
17.116671
 30
0.000000
  0
VERTEX
  8
MERGEDLAYER-1
 10
49.203609
 20
17.116671
 30
0.000000
  0
VERTEX
  8
MERGEDLAYER-1
 10
49.283386
 20
17.036537
 30
0.000000
  0
SEQEND
  8
MERGEDLAYER-1
  0
POLYLINE
  8
MERGEDLAYER-1
 66
  1
 70
  1
 62
  7
 10
46.393738
 20
18.154799
 30
0.000000
  0
VERTEX
  8
MERGEDLAYER-1
 10
46.393738
 20
18.154799
 30
0.000000
  0
VERTEX
  8
MERGEDLAYER-1
 10
47.393696
 20
18.154799
 30
0.000000
  0
VERTEX
  8
MERGEDLAYER-1
 10
47.393696
 20
17.529823
 30
0.000000
  0
VERTEX
  8
MERGEDLAYER-1
 10
46.393738
 20
17.529823
 30
0.000000
  0
VERTEX
  8
MERGEDLAYER-1
 10
46.393738
 20
17.337534
 30
0.000000
  0
VERTEX
  8
MERGEDLAYER-1
 10
46.331247
 20
17.337534
 30
0.000000
  0
VERTEX
  8
MERGEDLAYER-1
 10
46.331247
 20
18.337487
 30
0.000000
  0
VERTEX
  8
MERGEDLAYER-1
 10
46.393738
 20
18.337487
 30
0.000000
  0
SEQEND
  8
MERGEDLAYER-1
  0
POLYLINE
  8
MERGEDLAYER-1
 66
  1
 70
  0
 62
  7
 10
13.760415
 20
18.646827
 30
0.000000
  0
VERTEX
  8
MERGEDLAYER-1
 10
13.760415
 20
18.646827
 30
0.000000
  0
VERTEX
  8
MERGEDLAYER-1
 10
14.230233
 20
18.646827
 30
0.000000
  0
SEQEND
  8
MERGEDLAYER-1
  0
POLYLINE
  8
MERGEDLAYER-1
 66
  1
 70
  0
 62
  7
 10
13.730412
 20
18.646921
 30
0.000000
  0
VERTEX
  8
MERGEDLAYER-1
 10
13.730412
 20
18.646921
 30
0.000000
  0
VERTEX
  8
MERGEDLAYER-1
 10
13.743443
 20
18.633888
 30
0.000000
  0
VERTEX
  8
MERGEDLAYER-1
 10
13.760411
 20
18.646827
 30
0.000000
  0
SEQEND
  8
MERGEDLAYER-1
  0
POLYLINE
  8
MERGEDLAYER-1
 66
  1
 70
  0
 62
  7
 10
13.730410
 20
18.646921
 30
0.000000
  0
VERTEX
  8
MERGEDLAYER-1
 10
13.730410
 20
18.646921
 30
0.000000
  0
VERTEX
  8
MERGEDLAYER-1
 10
12.684238
 20
18.646921
 30
0.000000
  0
SEQEND
  8
MERGEDLAYER-1
  0
POLYLINE
  8
MERGEDLAYER-1
 66
  1
 70
  0
 62
  7
 10
12.654238
 20
18.646921
 30
0.000000
  0
VERTEX
  8
MERGEDLAYER-1
 10
12.654238
 20
18.646921
 30
0.000000
  0
VERTEX
  8
MERGEDLAYER-1
 10
12.667269
 20
18.633888
 30
0.000000
  0
VERTEX
  8
MERGEDLAYER-1
 10
12.684237
 20
18.646921
 30
0.000000
  0
SEQEND
  8
MERGEDLAYER-1
  0
POLYLINE
  8
MERGEDLAYER-1
 66
  1
 70
  0
 62
  7
 10
12.654244
 20
18.646921
 30
0.000000
  0
VERTEX
  8
MERGEDLAYER-1
 10
12.654244
 20
18.646921
 30
0.000000
  0
VERTEX
  8
MERGEDLAYER-1
 10
11.619358
 20
18.646921
 30
0.000000
  0
SEQEND
  8
MERGEDLAYER-1
  0
POLYLINE
  8
MERGEDLAYER-1
 66
  1
 70
  0
 62
  7
 10
11.619358
 20
18.646916
 30
0.000000
  0
VERTEX
  8
MERGEDLAYER-1
 10
11.619358
 20
18.646916
 30
0.000000
  0
VERTEX
  8
MERGEDLAYER-1
 10
11.604358
 20
18.631916
 30
0.000000
  0
SEQEND
  8
MERGEDLAYER-1
  0
POLYLINE
  8
MERGEDLAYER-1
 66
  1
 70
  0
 62
  7
 10
11.684131
 20
18.551786
 30
0.000000
  0
VERTEX
  8
MERGEDLAYER-1
 10
11.684131
 20
18.551786
 30
0.000000
  0
VERTEX
  8
MERGEDLAYER-1
 10
11.604356
 20
18.631916
 30
0.000000
  0
SEQEND
  8
MERGEDLAYER-1
  0
POLYLINE
  8
MERGEDLAYER-1
 66
  1
 70
  0
 62
  7
 10
11.699132
 20
18.566782
 30
0.000000
  0
VERTEX
  8
MERGEDLAYER-1
 10
11.699132
 20
18.566782
 30
0.000000
  0
VERTEX
  8
MERGEDLAYER-1
 10
11.684133
 20
18.551786
 30
0.000000
  0
SEQEND
  8
MERGEDLAYER-1
  0
POLYLINE
  8
MERGEDLAYER-1
 66
  1
 70
  0
 62
  7
 10
11.743845
 20
18.566782
 30
0.000000
  0
VERTEX
  8
MERGEDLAYER-1
 10
11.743845
 20
18.566782
 30
0.000000
  0
VERTEX
  8
MERGEDLAYER-1
 10
11.699132
 20
18.566782
 30
0.000000
  0
SEQEND
  8
MERGEDLAYER-1
  0
POLYLINE
  8
MERGEDLAYER-1
 66
  1
 70
  0
 62
  7
 10
11.758844
 20
18.551786
 30
0.000000
  0
VERTEX
  8
MERGEDLAYER-1
 10
11.758844
 20
18.551786
 30
0.000000
  0
VERTEX
  8
MERGEDLAYER-1
 10
11.743845
 20
18.566782
 30
0.000000
  0
SEQEND
  8
MERGEDLAYER-1
  0
POLYLINE
  8
MERGEDLAYER-1
 66
  1
 70
  0
 62
  7
 10
11.758845
 20
18.474506
 30
0.000000
  0
VERTEX
  8
MERGEDLAYER-1
 10
11.758845
 20
18.474506
 30
0.000000
  0
VERTEX
  8
MERGEDLAYER-1
 10
11.758845
 20
18.551786
 30
0.000000
  0
SEQEND
  8
MERGEDLAYER-1
  0
POLYLINE
  8
MERGEDLAYER-1
 66
  1
 70
  0
 62
  7
 10
11.758841
 20
18.474506
 30
0.000000
  0
VERTEX
  8
MERGEDLAYER-1
 10
11.758841
 20
18.474506
 30
0.000000
  0
VERTEX
  8
MERGEDLAYER-1
 10
11.773840
 20
18.459506
 30
0.000000
  0
SEQEND
  8
MERGEDLAYER-1
  0
POLYLINE
  8
MERGEDLAYER-1
 66
  1
 70
  0
 62
  7
 10
11.843842
 20
18.459506
 30
0.000000
  0
VERTEX
  8
MERGEDLAYER-1
 10
11.843842
 20
18.459506
 30
0.000000
  0
VERTEX
  8
MERGEDLAYER-1
 10
11.773840
 20
18.459506
 30
0.000000
  0
SEQEND
  8
MERGEDLAYER-1
  0
POLYLINE
  8
MERGEDLAYER-1
 66
  1
 70
  0
 62
  7
 10
11.843842
 20
18.459506
 30
0.000000
  0
VERTEX
  8
MERGEDLAYER-1
 10
11.843842
 20
18.459506
 30
0.000000
  0
VERTEX
  8
MERGEDLAYER-1
 10
11.858841
 20
18.474506
 30
0.000000
  0
SEQEND
  8
MERGEDLAYER-1
  0
POLYLINE
  8
MERGEDLAYER-1
 66
  1
 70
  0
 62
  7
 10
11.858836
 20
18.551932
 30
0.000000
  0
VERTEX
  8
MERGEDLAYER-1
 10
11.858836
 20
18.551932
 30
0.000000
  0
VERTEX
  8
MERGEDLAYER-1
 10
11.858836
 20
18.474506
 30
0.000000
  0
SEQEND
  8
MERGEDLAYER-1
  0
POLYLINE
  8
MERGEDLAYER-1
 66
  1
 70
  0
 62
  7
 10
11.873845
 20
18.566927
 30
0.000000
  0
VERTEX
  8
MERGEDLAYER-1
 10
11.873845
 20
18.566927
 30
0.000000
  0
VERTEX
  8
MERGEDLAYER-1
 10
11.858846
 20
18.551932
 30
0.000000
  0
SEQEND
  8
MERGEDLAYER-1
  0
POLYLINE
  8
MERGEDLAYER-1
 66
  1
 70
  0
 62
  7
 10
11.919118
 20
18.566927
 30
0.000000
  0
VERTEX
  8
MERGEDLAYER-1
 10
11.919118
 20
18.566927
 30
0.000000
  0
VERTEX
  8
MERGEDLAYER-1
 10
11.873845
 20
18.566927
 30
0.000000
  0
SEQEND
  8
MERGEDLAYER-1
  0
POLYLINE
  8
MERGEDLAYER-1
 66
  1
 70
  0
 62
  7
 10
11.934117
 20
18.551932
 30
0.000000
  0
VERTEX
  8
MERGEDLAYER-1
 10
11.934117
 20
18.551932
 30
0.000000
  0
VERTEX
  8
MERGEDLAYER-1
 10
11.919118
 20
18.566927
 30
0.000000
  0
SEQEND
  8
MERGEDLAYER-1
  0
POLYLINE
  8
MERGEDLAYER-1
 66
  1
 70
  0
 62
  7
 10
11.934120
 20
18.334477
 30
0.000000
  0
VERTEX
  8
MERGEDLAYER-1
 10
11.934120
 20
18.334477
 30
0.000000
  0
VERTEX
  8
MERGEDLAYER-1
 10
11.934120
 20
18.551932
 30
0.000000
  0
SEQEND
  8
MERGEDLAYER-1
  0
POLYLINE
  8
MERGEDLAYER-1
 66
  1
 70
  0
 62
  7
 10
11.934121
 20
18.334477
 30
0.000000
  0
VERTEX
  8
MERGEDLAYER-1
 10
11.934121
 20
18.334477
 30
0.000000
  0
VERTEX
  8
MERGEDLAYER-1
 10
11.949120
 20
18.319477
 30
0.000000
  0
SEQEND
  8
MERGEDLAYER-1
  0
POLYLINE
  8
MERGEDLAYER-1
 66
  1
 70
  0
 62
  7
 10
11.999116
 20
18.319477
 30
0.000000
  0
VERTEX
  8
MERGEDLAYER-1
 10
11.999116
 20
18.319477
 30
0.000000
  0
VERTEX
  8
MERGEDLAYER-1
 10
11.949120
 20
18.319477
 30
0.000000
  0
SEQEND
  8
MERGEDLAYER-1
  0
POLYLINE
  8
MERGEDLAYER-1
 66
  1
 70
  0
 62
  7
 10
11.999116
 20
18.319477
 30
0.000000
  0
VERTEX
  8
MERGEDLAYER-1
 10
11.999116
 20
18.319477
 30
0.000000
  0
VERTEX
  8
MERGEDLAYER-1
 10
12.014114
 20
18.334477
 30
0.000000
  0
SEQEND
  8
MERGEDLAYER-1
  0
POLYLINE
  8
MERGEDLAYER-1
 66
  1
 70
  0
 62
  7
 10
12.014117
 20
18.551772
 30
0.000000
  0
VERTEX
  8
MERGEDLAYER-1
 10
12.014117
 20
18.551772
 30
0.000000
  0
VERTEX
  8
MERGEDLAYER-1
 10
12.014117
 20
18.334477
 30
0.000000
  0
SEQEND
  8
MERGEDLAYER-1
  0
POLYLINE
  8
MERGEDLAYER-1
 66
  1
 70
  0
 62
  7
 10
12.029118
 20
18.566768
 30
0.000000
  0
VERTEX
  8
MERGEDLAYER-1
 10
12.029118
 20
18.566768
 30
0.000000
  0
VERTEX
  8
MERGEDLAYER-1
 10
12.014119
 20
18.551772
 30
0.000000
  0
SEQEND
  8
MERGEDLAYER-1
  0
POLYLINE
  8
MERGEDLAYER-1
 66
  1
 70
  0
 62
  7
 10
12.221907
 20
18.566768
 30
0.000000
  0
VERTEX
  8
MERGEDLAYER-1
 10
12.221907
 20
18.566768
 30
0.000000
  0
VERTEX
  8
MERGEDLAYER-1
 10
12.029118
 20
18.566768
 30
0.000000
  0
SEQEND
  8
MERGEDLAYER-1
  0
POLYLINE
  8
MERGEDLAYER-1
 66
  1
 70
  0
 62
  7
 10
12.236907
 20
18.551772
 30
0.000000
  0
VERTEX
  8
MERGEDLAYER-1
 10
12.236907
 20
18.551772
 30
0.000000
  0
VERTEX
  8
MERGEDLAYER-1
 10
12.221907
 20
18.566768
 30
0.000000
  0
SEQEND
  8
MERGEDLAYER-1
  0
POLYLINE
  8
MERGEDLAYER-1
 66
  1
 70
  0
 62
  7
 10
12.362226
 20
18.551786
 30
0.000000
  0
VERTEX
  8
MERGEDLAYER-1
 10
12.362226
 20
18.551786
 30
0.000000
  0
VERTEX
  8
MERGEDLAYER-1
 10
12.236909
 20
18.551772
 30
0.000000
  0
SEQEND
  8
MERGEDLAYER-1
  0
POLYLINE
  8
MERGEDLAYER-1
 66
  1
 70
  0
 62
  7
 10
12.377227
 20
18.566782
 30
0.000000
  0
VERTEX
  8
MERGEDLAYER-1
 10
12.377227
 20
18.566782
 30
0.000000
  0
VERTEX
  8
MERGEDLAYER-1
 10
12.362227
 20
18.551786
 30
0.000000
  0
SEQEND
  8
MERGEDLAYER-1
  0
POLYLINE
  8
MERGEDLAYER-1
 66
  1
 70
  0
 62
  7
 10
12.377227
 20
18.566782
 30
0.000000
  0
VERTEX
  8
MERGEDLAYER-1
 10
12.377227
 20
18.566782
 30
0.000000
  0
VERTEX
  8
MERGEDLAYER-1
 10
12.426937
 20
18.566782
 30
0.000000
  0
SEQEND
  8
MERGEDLAYER-1
  0
POLYLINE
  8
MERGEDLAYER-1
 66
  1
 70
  0
 62
  7
 10
12.441937
 20
18.551786
 30
0.000000
  0
VERTEX
  8
MERGEDLAYER-1
 10
12.441937
 20
18.551786
 30
0.000000
  0
VERTEX
  8
MERGEDLAYER-1
 10
12.426937
 20
18.566782
 30
0.000000
  0
SEQEND
  8
MERGEDLAYER-1
  0
POLYLINE
  8
MERGEDLAYER-1
 66
  1
 70
  0
 62
  7
 10
12.441939
 20
18.474506
 30
0.000000
  0
VERTEX
  8
MERGEDLAYER-1
 10
12.441939
 20
18.474506
 30
0.000000
  0
VERTEX
  8
MERGEDLAYER-1
 10
12.441939
 20
18.551786
 30
0.000000
  0
SEQEND
  8
MERGEDLAYER-1
  0
POLYLINE
  8
MERGEDLAYER-1
 66
  1
 70
  0
 62
  7
 10
12.441940
 20
18.474506
 30
0.000000
  0
VERTEX
  8
MERGEDLAYER-1
 10
12.441940
 20
18.474506
 30
0.000000
  0
VERTEX
  8
MERGEDLAYER-1
 10
12.456940
 20
18.459506
 30
0.000000
  0
SEQEND
  8
MERGEDLAYER-1
  0
POLYLINE
  8
MERGEDLAYER-1
 66
  1
 70
  0
 62
  7
 10
12.456940
 20
18.459506
 30
0.000000
  0
VERTEX
  8
MERGEDLAYER-1
 10
12.456940
 20
18.459506
 30
0.000000
  0
VERTEX
  8
MERGEDLAYER-1
 10
12.526934
 20
18.459506
 30
0.000000
  0
SEQEND
  8
MERGEDLAYER-1
  0
POLYLINE
  8
MERGEDLAYER-1
 66
  1
 70
  0
 62
  7
 10
12.526934
 20
18.459506
 30
0.000000
  0
VERTEX
  8
MERGEDLAYER-1
 10
12.526934
 20
18.459506
 30
0.000000
  0
VERTEX
  8
MERGEDLAYER-1
 10
12.541933
 20
18.474506
 30
0.000000
  0
SEQEND
  8
MERGEDLAYER-1
  0
POLYLINE
  8
MERGEDLAYER-1
 66
  1
 70
  0
 62
  7
 10
12.541936
 20
18.551932
 30
0.000000
  0
VERTEX
  8
MERGEDLAYER-1
 10
12.541936
 20
18.551932
 30
0.000000
  0
VERTEX
  8
MERGEDLAYER-1
 10
12.541936
 20
18.474506
 30
0.000000
  0
SEQEND
  8
MERGEDLAYER-1
  0
POLYLINE
  8
MERGEDLAYER-1
 66
  1
 70
  0
 62
  7
 10
12.556929
 20
18.566927
 30
0.000000
  0
VERTEX
  8
MERGEDLAYER-1
 10
12.556929
 20
18.566927
 30
0.000000
  0
VERTEX
  8
MERGEDLAYER-1
 10
12.541930
 20
18.551932
 30
0.000000
  0
SEQEND
  8
MERGEDLAYER-1
  0
POLYLINE
  8
MERGEDLAYER-1
 66
  1
 70
  0
 62
  7
 10
12.607218
 20
18.566927
 30
0.000000
  0
VERTEX
  8
MERGEDLAYER-1
 10
12.607218
 20
18.566927
 30
0.000000
  0
VERTEX
  8
MERGEDLAYER-1
 10
12.556929
 20
18.566927
 30
0.000000
  0
SEQEND
  8
MERGEDLAYER-1
  0
POLYLINE
  8
MERGEDLAYER-1
 66
  1
 70
  0
 62
  7
 10
12.622216
 20
18.551932
 30
0.000000
  0
VERTEX
  8
MERGEDLAYER-1
 10
12.622216
 20
18.551932
 30
0.000000
  0
VERTEX
  8
MERGEDLAYER-1
 10
12.607218
 20
18.566927
 30
0.000000
  0
SEQEND
  8
MERGEDLAYER-1
  0
POLYLINE
  8
MERGEDLAYER-1
 66
  1
 70
  0
 62
  7
 10
12.622210
 20
18.334477
 30
0.000000
  0
VERTEX
  8
MERGEDLAYER-1
 10
12.622210
 20
18.334477
 30
0.000000
  0
VERTEX
  8
MERGEDLAYER-1
 10
12.622210
 20
18.551932
 30
0.000000
  0
SEQEND
  8
MERGEDLAYER-1
  0
POLYLINE
  8
MERGEDLAYER-1
 66
  1
 70
  0
 62
  7
 10
12.622214
 20
18.334477
 30
0.000000
  0
VERTEX
  8
MERGEDLAYER-1
 10
12.622214
 20
18.334477
 30
0.000000
  0
VERTEX
  8
MERGEDLAYER-1
 10
12.637213
 20
18.319477
 30
0.000000
  0
SEQEND
  8
MERGEDLAYER-1
  0
POLYLINE
  8
MERGEDLAYER-1
 66
  1
 70
  0
 62
  7
 10
12.637213
 20
18.319477
 30
0.000000
  0
VERTEX
  8
MERGEDLAYER-1
 10
12.637213
 20
18.319477
 30
0.000000
  0
VERTEX
  8
MERGEDLAYER-1
 10
12.702208
 20
18.319477
 30
0.000000
  0
SEQEND
  8
MERGEDLAYER-1
  0
POLYLINE
  8
MERGEDLAYER-1
 66
  1
 70
  0
 62
  7
 10
12.702208
 20
18.319477
 30
0.000000
  0
VERTEX
  8
MERGEDLAYER-1
 10
12.702208
 20
18.319477
 30
0.000000
  0
VERTEX
  8
MERGEDLAYER-1
 10
12.717208
 20
18.334477
 30
0.000000
  0
SEQEND
  8
MERGEDLAYER-1
  0
POLYLINE
  8
MERGEDLAYER-1
 66
  1
 70
  0
 62
  7
 10
12.717210
 20
18.334477
 30
0.000000
  0
VERTEX
  8
MERGEDLAYER-1
 10
12.717210
 20
18.334477
 30
0.000000
  0
VERTEX
  8
MERGEDLAYER-1
 10
12.717210
 20
18.536776
 30
0.000000
  0
SEQEND
  8
MERGEDLAYER-1
  0
POLYLINE
  8
MERGEDLAYER-1
 66
  1
 70
  0
 62
  7
 10
12.732212
 20
18.551772
 30
0.000000
  0
VERTEX
  8
MERGEDLAYER-1
 10
12.732212
 20
18.551772
 30
0.000000
  0
VERTEX
  8
MERGEDLAYER-1
 10
12.717212
 20
18.536776
 30
0.000000
  0
SEQEND
  8
MERGEDLAYER-1
  0
POLYLINE
  8
MERGEDLAYER-1
 66
  1
 70
  0
 62
  7
 10
12.732212
 20
18.551772
 30
0.000000
  0
VERTEX
  8
MERGEDLAYER-1
 10
12.732212
 20
18.551772
 30
0.000000
  0
VERTEX
  8
MERGEDLAYER-1
 10
13.855205
 20
18.551772
 30
0.000000
  0
SEQEND
  8
MERGEDLAYER-1
  0
POLYLINE
  8
MERGEDLAYER-1
 66
  1
 70
  0
 62
  7
 10
13.870204
 20
18.536776
 30
0.000000
  0
VERTEX
  8
MERGEDLAYER-1
 10
13.870204
 20
18.536776
 30
0.000000
  0
VERTEX
  8
MERGEDLAYER-1
 10
13.855205
 20
18.551772
 30
0.000000
  0
SEQEND
  8
MERGEDLAYER-1
  0
POLYLINE
  8
MERGEDLAYER-1
 66
  1
 70
  0
 62
  7
 10
13.870199
 20
18.264874
 30
0.000000
  0
VERTEX
  8
MERGEDLAYER-1
 10
13.870199
 20
18.264874
 30
0.000000
  0
VERTEX
  8
MERGEDLAYER-1
 10
13.870199
 20
18.536776
 30
0.000000
  0
SEQEND
  8
MERGEDLAYER-1
  0
POLYLINE
  8
MERGEDLAYER-1
 66
  1
 70
  0
 62
  7
 10
13.870201
 20
18.264874
 30
0.000000
  0
VERTEX
  8
MERGEDLAYER-1
 10
13.870201
 20
18.264874
 30
0.000000
  0
VERTEX
  8
MERGEDLAYER-1
 10
13.925198
 20
18.209876
 30
0.000000
  0
SEQEND
  8
MERGEDLAYER-1
  0
POLYLINE
  8
MERGEDLAYER-1
 66
  1
 70
  0
 62
  7
 10
13.988888
 20
18.209881
 30
0.000000
  0
VERTEX
  8
MERGEDLAYER-1
 10
13.988888
 20
18.209881
 30
0.000000
  0
VERTEX
  8
MERGEDLAYER-1
 10
13.925198
 20
18.209881
 30
0.000000
  0
SEQEND
  8
MERGEDLAYER-1
  0
POLYLINE
  8
MERGEDLAYER-1
 66
  1
 70
  0
 62
  7
 10
13.988888
 20
18.209881
 30
0.000000
  0
VERTEX
  8
MERGEDLAYER-1
 10
13.988888
 20
18.209881
 30
0.000000
  0
VERTEX
  8
MERGEDLAYER-1
 10
14.003887
 20
18.224877
 30
0.000000
  0
SEQEND
  8
MERGEDLAYER-1
  0
POLYLINE
  8
MERGEDLAYER-1
 66
  1
 70
  0
 62
  7
 10
14.003883
 20
18.234239
 30
0.000000
  0
VERTEX
  8
MERGEDLAYER-1
 10
14.003883
 20
18.234239
 30
0.000000
  0
VERTEX
  8
MERGEDLAYER-1
 10
14.003883
 20
18.224877
 30
0.000000
  0
SEQEND
  8
MERGEDLAYER-1
  0
POLYLINE
  8
MERGEDLAYER-1
 66
  1
 70
  0
 62
  7
 10
14.003887
 20
18.234239
 30
0.000000
  0
VERTEX
  8
MERGEDLAYER-1
 10
14.003887
 20
18.234239
 30
0.000000
  0
VERTEX
  8
MERGEDLAYER-1
 10
13.988888
 20
18.249239
 30
0.000000
  0
SEQEND
  8
MERGEDLAYER-1
  0
POLYLINE
  8
MERGEDLAYER-1
 66
  1
 70
  0
 62
  7
 10
13.988888
 20
18.249244
 30
0.000000
  0
VERTEX
  8
MERGEDLAYER-1
 10
13.988888
 20
18.249244
 30
0.000000
  0
VERTEX
  8
MERGEDLAYER-1
 10
13.940200
 20
18.249244
 30
0.000000
  0
SEQEND
  8
MERGEDLAYER-1
  0
POLYLINE
  8
MERGEDLAYER-1
 66
  1
 70
  0
 62
  7
 10
13.925200
 20
18.264235
 30
0.000000
  0
VERTEX
  8
MERGEDLAYER-1
 10
13.925200
 20
18.264235
 30
0.000000
  0
VERTEX
  8
MERGEDLAYER-1
 10
13.940200
 20
18.249239
 30
0.000000
  0
SEQEND
  8
MERGEDLAYER-1
  0
POLYLINE
  8
MERGEDLAYER-1
 66
  1
 70
  0
 62
  7
 10
13.925205
 20
18.264235
 30
0.000000
  0
VERTEX
  8
MERGEDLAYER-1
 10
13.925205
 20
18.264235
 30
0.000000
  0
VERTEX
  8
MERGEDLAYER-1
 10
13.925205
 20
18.320791
 30
0.000000
  0
SEQEND
  8
MERGEDLAYER-1
  0
POLYLINE
  8
MERGEDLAYER-1
 66
  1
 70
  0
 62
  7
 10
13.940200
 20
18.335787
 30
0.000000
  0
VERTEX
  8
MERGEDLAYER-1
 10
13.940200
 20
18.335787
 30
0.000000
  0
VERTEX
  8
MERGEDLAYER-1
 10
13.925200
 20
18.320791
 30
0.000000
  0
SEQEND
  8
MERGEDLAYER-1
  0
POLYLINE
  8
MERGEDLAYER-1
 66
  1
 70
  0
 62
  7
 10
13.940200
 20
18.335792
 30
0.000000
  0
VERTEX
  8
MERGEDLAYER-1
 10
13.940200
 20
18.335792
 30
0.000000
  0
VERTEX
  8
MERGEDLAYER-1
 10
13.988980
 20
18.335792
 30
0.000000
  0
SEQEND
  8
MERGEDLAYER-1
  0
POLYLINE
  8
MERGEDLAYER-1
 66
  1
 70
  0
 62
  7
 10
13.988980
 20
18.335792
 30
0.000000
  0
VERTEX
  8
MERGEDLAYER-1
 10
13.988980
 20
18.335792
 30
0.000000
  0
VERTEX
  8
MERGEDLAYER-1
 10
14.002011
 20
18.352760
 30
0.000000
  0
VERTEX
  8
MERGEDLAYER-1
 10
14.003979
 20
18.350811
 30
0.000000
  0
SEQEND
  8
MERGEDLAYER-1
  0
POLYLINE
  8
MERGEDLAYER-1
 66
  1
 70
  0
 62
  7
 10
14.003983
 20
18.350811
 30
0.000000
  0
VERTEX
  8
MERGEDLAYER-1
 10
14.003983
 20
18.350811
 30
0.000000
  0
VERTEX
  8
MERGEDLAYER-1
 10
14.003883
 20
18.421105
 30
0.000000
  0
SEQEND
  8
MERGEDLAYER-1
  0
POLYLINE
  8
MERGEDLAYER-1
 66
  1
 70
  0
 62
  7
 10
14.003887
 20
18.421105
 30
0.000000
  0
VERTEX
  8
MERGEDLAYER-1
 10
14.003887
 20
18.421105
 30
0.000000
  0
VERTEX
  8
MERGEDLAYER-1
 10
14.001180
 20
18.427706
 30
0.000000
  0
VERTEX
  8
MERGEDLAYER-1
 10
13.999047
 20
18.431885
 30
0.000000
  0
VERTEX
  8
MERGEDLAYER-1
 10
13.995730
 20
18.435195
 30
0.000000
  0
VERTEX
  8
MERGEDLAYER-1
 10
13.991550
 20
18.437322
 30
0.000000
  0
VERTEX
  8
MERGEDLAYER-1
 10
13.988888
 20
18.436087
 30
0.000000
  0
SEQEND
  8
MERGEDLAYER-1
  0
POLYLINE
  8
MERGEDLAYER-1
 66
  1
 70
  0
 62
  7
 10
13.988888
 20
18.436091
 30
0.000000
  0
VERTEX
  8
MERGEDLAYER-1
 10
13.988888
 20
18.436091
 30
0.000000
  0
VERTEX
  8
MERGEDLAYER-1
 10
13.940200
 20
18.436091
 30
0.000000
  0
SEQEND
  8
MERGEDLAYER-1
  0
POLYLINE
  8
MERGEDLAYER-1
 66
  1
 70
  0
 62
  7
 10
13.925200
 20
18.451083
 30
0.000000
  0
VERTEX
  8
MERGEDLAYER-1
 10
13.925200
 20
18.451083
 30
0.000000
  0
VERTEX
  8
MERGEDLAYER-1
 10
13.940200
 20
18.436087
 30
0.000000
  0
SEQEND
  8
MERGEDLAYER-1
  0
POLYLINE
  8
MERGEDLAYER-1
 66
  1
 70
  0
 62
  7
 10
13.925205
 20
18.451083
 30
0.000000
  0
VERTEX
  8
MERGEDLAYER-1
 10
13.925205
 20
18.451083
 30
0.000000
  0
VERTEX
  8
MERGEDLAYER-1
 10
13.925205
 20
18.577134
 30
0.000000
  0
SEQEND
  8
MERGEDLAYER-1
  0
POLYLINE
  8
MERGEDLAYER-1
 66
  1
 70
  0
 62
  7
 10
13.940200
 20
18.592130
 30
0.000000
  0
VERTEX
  8
MERGEDLAYER-1
 10
13.940200
 20
18.592130
 30
0.000000
  0
VERTEX
  8
MERGEDLAYER-1
 10
13.925200
 20
18.577134
 30
0.000000
  0
SEQEND
  8
MERGEDLAYER-1
  0
POLYLINE
  8
MERGEDLAYER-1
 66
  1
 70
  0
 62
  7
 10
14.230187
 20
18.592130
 30
0.000000
  0
VERTEX
  8
MERGEDLAYER-1
 10
14.230187
 20
18.592130
 30
0.000000
  0
VERTEX
  8
MERGEDLAYER-1
 10
13.940200
 20
18.592130
 30
0.000000
  0
SEQEND
  8
MERGEDLAYER-1
  0
POLYLINE
  8
MERGEDLAYER-1
 66
  1
 70
  0
 62
  7
 10
14.299184
 20
18.523132
 30
0.000000
  0
VERTEX
  8
MERGEDLAYER-1
 10
14.299184
 20
18.523132
 30
0.000000
  0
VERTEX
  8
MERGEDLAYER-1
 10
14.230187
 20
18.592130
 30
0.000000
  0
SEQEND
  8
MERGEDLAYER-1
  0
POLYLINE
  8
MERGEDLAYER-1
 66
  1
 70
  0
 62
  7
 10
14.299188
 20
18.523132
 30
0.000000
  0
VERTEX
  8
MERGEDLAYER-1
 10
14.299188
 20
18.523132
 30
0.000000
  0
VERTEX
  8
MERGEDLAYER-1
 10
14.299188
 20
18.451083
 30
0.000000
  0
SEQEND
  8
MERGEDLAYER-1
  0
POLYLINE
  8
MERGEDLAYER-1
 66
  1
 70
  0
 62
  7
 10
14.284188
 20
18.436087
 30
0.000000
  0
VERTEX
  8
MERGEDLAYER-1
 10
14.284188
 20
18.436087
 30
0.000000
  0
VERTEX
  8
MERGEDLAYER-1
 10
14.299187
 20
18.451083
 30
0.000000
  0
SEQEND
  8
MERGEDLAYER-1
  0
POLYLINE
  8
MERGEDLAYER-1
 66
  1
 70
  0
 62
  7
 10
14.284188
 20
18.436091
 30
0.000000
  0
VERTEX
  8
MERGEDLAYER-1
 10
14.284188
 20
18.436091
 30
0.000000
  0
VERTEX
  8
MERGEDLAYER-1
 10
14.235354
 20
18.436091
 30
0.000000
  0
SEQEND
  8
MERGEDLAYER-1
  0
POLYLINE
  8
MERGEDLAYER-1
 66
  1
 70
  0
 62
  7
 10
14.235354
 20
18.436087
 30
0.000000
  0
VERTEX
  8
MERGEDLAYER-1
 10
14.235354
 20
18.436087
 30
0.000000
  0
VERTEX
  8
MERGEDLAYER-1
 10
14.220356
 20
18.421086
 30
0.000000
  0
SEQEND
  8
MERGEDLAYER-1
  0
POLYLINE
  8
MERGEDLAYER-1
 66
  1
 70
  0
 62
  7
 10
14.220352
 20
18.421086
 30
0.000000
  0
VERTEX
  8
MERGEDLAYER-1
 10
14.220352
 20
18.421086
 30
0.000000
  0
VERTEX
  8
MERGEDLAYER-1
 10
14.220352
 20
18.350788
 30
0.000000
  0
SEQEND
  8
MERGEDLAYER-1
  0
POLYLINE
  8
MERGEDLAYER-1
 66
  1
 70
  0
 62
  7
 10
14.220356
 20
18.350788
 30
0.000000
  0
VERTEX
  8
MERGEDLAYER-1
 10
14.220356
 20
18.350788
 30
0.000000
  0
VERTEX
  8
MERGEDLAYER-1
 10
14.235354
 20
18.335792
 30
0.000000
  0
SEQEND
  8
MERGEDLAYER-1
  0
POLYLINE
  8
MERGEDLAYER-1
 66
  1
 70
  0
 62
  7
 10
14.235354
 20
18.335792
 30
0.000000
  0
VERTEX
  8
MERGEDLAYER-1
 10
14.235354
 20
18.335792
 30
0.000000
  0
VERTEX
  8
MERGEDLAYER-1
 10
14.284188
 20
18.335792
 30
0.000000
  0
SEQEND
  8
MERGEDLAYER-1
  0
POLYLINE
  8
MERGEDLAYER-1
 66
  1
 70
  0
 62
  7
 10
14.299187
 20
18.320791
 30
0.000000
  0
VERTEX
  8
MERGEDLAYER-1
 10
14.299187
 20
18.320791
 30
0.000000
  0
VERTEX
  8
MERGEDLAYER-1
 10
14.284188
 20
18.335787
 30
0.000000
  0
SEQEND
  8
MERGEDLAYER-1
  0
POLYLINE
  8
MERGEDLAYER-1
 66
  1
 70
  0
 62
  7
 10
14.299188
 20
18.320791
 30
0.000000
  0
VERTEX
  8
MERGEDLAYER-1
 10
14.299188
 20
18.320791
 30
0.000000
  0
VERTEX
  8
MERGEDLAYER-1
 10
14.299188
 20
18.264235
 30
0.000000
  0
SEQEND
  8
MERGEDLAYER-1
  0
POLYLINE
  8
MERGEDLAYER-1
 66
  1
 70
  0
 62
  7
 10
14.284188
 20
18.249239
 30
0.000000
  0
VERTEX
  8
MERGEDLAYER-1
 10
14.284188
 20
18.249239
 30
0.000000
  0
VERTEX
  8
MERGEDLAYER-1
 10
14.299187
 20
18.264235
 30
0.000000
  0
SEQEND
  8
MERGEDLAYER-1
  0
POLYLINE
  8
MERGEDLAYER-1
 66
  1
 70
  0
 62
  7
 10
14.284188
 20
18.249244
 30
0.000000
  0
VERTEX
  8
MERGEDLAYER-1
 10
14.284188
 20
18.249244
 30
0.000000
  0
VERTEX
  8
MERGEDLAYER-1
 10
14.235354
 20
18.249244
 30
0.000000
  0
SEQEND
  8
MERGEDLAYER-1
  0
POLYLINE
  8
MERGEDLAYER-1
 66
  1
 70
  0
 62
  7
 10
14.235354
 20
18.249239
 30
0.000000
  0
VERTEX
  8
MERGEDLAYER-1
 10
14.235354
 20
18.249239
 30
0.000000
  0
VERTEX
  8
MERGEDLAYER-1
 10
14.220356
 20
18.234239
 30
0.000000
  0
SEQEND
  8
MERGEDLAYER-1
  0
POLYLINE
  8
MERGEDLAYER-1
 66
  1
 70
  0
 62
  7
 10
14.220352
 20
18.234239
 30
0.000000
  0
VERTEX
  8
MERGEDLAYER-1
 10
14.220352
 20
18.234239
 30
0.000000
  0
VERTEX
  8
MERGEDLAYER-1
 10
14.220352
 20
18.224877
 30
0.000000
  0
SEQEND
  8
MERGEDLAYER-1
  0
POLYLINE
  8
MERGEDLAYER-1
 66
  1
 70
  0
 62
  7
 10
14.220356
 20
18.224877
 30
0.000000
  0
VERTEX
  8
MERGEDLAYER-1
 10
14.220356
 20
18.224877
 30
0.000000
  0
VERTEX
  8
MERGEDLAYER-1
 10
14.235354
 20
18.209881
 30
0.000000
  0
SEQEND
  8
MERGEDLAYER-1
  0
POLYLINE
  8
MERGEDLAYER-1
 66
  1
 70
  0
 62
  7
 10
14.235354
 20
18.209881
 30
0.000000
  0
VERTEX
  8
MERGEDLAYER-1
 10
14.235354
 20
18.209881
 30
0.000000
  0
VERTEX
  8
MERGEDLAYER-1
 10
14.299234
 20
18.209881
 30
0.000000
  0
SEQEND
  8
MERGEDLAYER-1
  0
POLYLINE
  8
MERGEDLAYER-1
 66
  1
 70
  0
 62
  7
 10
14.299234
 20
18.209876
 30
0.000000
  0
VERTEX
  8
MERGEDLAYER-1
 10
14.299234
 20
18.209876
 30
0.000000
  0
VERTEX
  8
MERGEDLAYER-1
 10
14.354232
 20
18.264874
 30
0.000000
  0
SEQEND
  8
MERGEDLAYER-1
  0
POLYLINE
  8
MERGEDLAYER-1
 66
  1
 70
  0
 62
  7
 10
14.354228
 20
18.264874
 30
0.000000
  0
VERTEX
  8
MERGEDLAYER-1
 10
14.354228
 20
18.264874
 30
0.000000
  0
VERTEX
  8
MERGEDLAYER-1
 10
14.354228
 20
18.522827
 30
0.000000
  0
SEQEND
  8
MERGEDLAYER-1
  0
POLYLINE
  8
MERGEDLAYER-1
 66
  1
 70
  0
 62
  7
 10
14.354228
 20
18.522827
 30
0.000000
  0
VERTEX
  8
MERGEDLAYER-1
 10
14.354228
 20
18.522827
 30
0.000000
  0
VERTEX
  8
MERGEDLAYER-1
 10
14.315941
 20
18.612474
 30
0.000000
  0
VERTEX
  8
MERGEDLAYER-1
 10
14.230233
 20
18.646818
 30
0.000000
  0
SEQEND
  8
MERGEDLAYER-1
  0
POLYLINE
  8
MERGEDLAYER-1
 66
  1
 70
  0
 62
  7
 10
11.684131
 20
17.117126
 30
0.000000
  0
VERTEX
  8
MERGEDLAYER-1
 10
11.684131
 20
17.117126
 30
0.000000
  0
VERTEX
  8
MERGEDLAYER-1
 10
11.684131
 20
18.551786
 30
0.000000
  0
SEQEND
  8
MERGEDLAYER-1
  0
POLYLINE
  8
MERGEDLAYER-1
 66
  1
 70
  0
 62
  7
 10
11.604356
 20
18.631916
 30
0.000000
  0
VERTEX
  8
MERGEDLAYER-1
 10
11.604356
 20
18.631916
 30
0.000000
  0
VERTEX
  8
MERGEDLAYER-1
 10
11.684131
 20
18.551786
 30
0.000000
  0
SEQEND
  8
MERGEDLAYER-1
  0
POLYLINE
  8
MERGEDLAYER-1
 66
  1
 70
  0
 62
  7
 10
11.604356
 20
17.849530
 30
0.000000
  0
VERTEX
  8
MERGEDLAYER-1
 10
11.604356
 20
17.849530
 30
0.000000
  0
VERTEX
  8
MERGEDLAYER-1
 10
11.604356
 20
18.631916
 30
0.000000
  0
SEQEND
  8
MERGEDLAYER-1
  0
POLYLINE
  8
MERGEDLAYER-1
 66
  1
 70
  0
 62
  7
 10
11.604356
 20
17.819528
 30
0.000000
  0
VERTEX
  8
MERGEDLAYER-1
 10
11.604356
 20
17.819528
 30
0.000000
  0
VERTEX
  8
MERGEDLAYER-1
 10
11.617387
 20
17.836496
 30
0.000000
  0
VERTEX
  8
MERGEDLAYER-1
 10
11.604356
 20
17.849525
 30
0.000000
  0
SEQEND
  8
MERGEDLAYER-1
  0
POLYLINE
  8
MERGEDLAYER-1
 66
  1
 70
  0
 62
  7
 10
11.604356
 20
17.819533
 30
0.000000
  0
VERTEX
  8
MERGEDLAYER-1
 10
11.604356
 20
17.819533
 30
0.000000
  0
VERTEX
  8
MERGEDLAYER-1
 10
11.604356
 20
17.036992
 30
0.000000
  0
SEQEND
  8
MERGEDLAYER-1
  0
POLYLINE
  8
MERGEDLAYER-1
 66
  1
 70
  0
 62
  7
 10
11.619358
 20
17.021987
 30
0.000000
  0
VERTEX
  8
MERGEDLAYER-1
 10
11.619358
 20
17.021987
 30
0.000000
  0
VERTEX
  8
MERGEDLAYER-1
 10
12.654244
 20
17.021987
 30
0.000000
  0
SEQEND
  8
MERGEDLAYER-1
  0
POLYLINE
  8
MERGEDLAYER-1
 66
  1
 70
  0
 62
  7
 10
13.760415
 20
17.021527
 30
0.000000
  0
VERTEX
  8
MERGEDLAYER-1
 10
13.760415
 20
17.021527
 30
0.000000
  0
VERTEX
  8
MERGEDLAYER-1
 10
14.230233
 20
17.021527
 30
0.000000
  0
SEQEND
  8
MERGEDLAYER-1
  0
POLYLINE
  8
MERGEDLAYER-1
 66
  1
 70
  0
 62
  7
 10
13.760411
 20
17.021522
 30
0.000000
  0
VERTEX
  8
MERGEDLAYER-1
 10
13.760411
 20
17.021522
 30
0.000000
  0
VERTEX
  8
MERGEDLAYER-1
 10
13.743350
 20
17.038396
 30
0.000000
  0
VERTEX
  8
MERGEDLAYER-1
 10
13.730412
 20
17.021433
 30
0.000000
  0
SEQEND
  8
MERGEDLAYER-1
  0
POLYLINE
  8
MERGEDLAYER-1
 66
  1
 70
  0
 62
  7
 10
13.730410
 20
17.021433
 30
0.000000
  0
VERTEX
  8
MERGEDLAYER-1
 10
13.730410
 20
17.021433
 30
0.000000
  0
VERTEX
  8
MERGEDLAYER-1
 10
12.684238
 20
17.021433
 30
0.000000
  0
SEQEND
  8
MERGEDLAYER-1
  0
POLYLINE
  8
MERGEDLAYER-1
 66
  1
 70
  0
 62
  7
 10
12.684237
 20
17.021433
 30
0.000000
  0
VERTEX
  8
MERGEDLAYER-1
 10
12.684237
 20
17.021433
 30
0.000000
  0
VERTEX
  8
MERGEDLAYER-1
 10
12.667269
 20
17.038396
 30
0.000000
  0
VERTEX
  8
MERGEDLAYER-1
 10
12.654238
 20
17.021433
 30
0.000000
  0
SEQEND
  8
MERGEDLAYER-1
  0
POLYLINE
  8
MERGEDLAYER-1
 66
  1
 70
  0
 62
  7
 10
12.654244
 20
17.021433
 30
0.000000
  0
VERTEX
  8
MERGEDLAYER-1
 10
12.654244
 20
17.021433
 30
0.000000
  0
VERTEX
  8
MERGEDLAYER-1
 10
11.619358
 20
17.021433
 30
0.000000
  0
SEQEND
  8
MERGEDLAYER-1
  0
POLYLINE
  8
MERGEDLAYER-1
 66
  1
 70
  0
 62
  7
 10
11.604358
 20
17.036429
 30
0.000000
  0
VERTEX
  8
MERGEDLAYER-1
 10
11.604358
 20
17.036429
 30
0.000000
  0
VERTEX
  8
MERGEDLAYER-1
 10
11.619358
 20
17.021433
 30
0.000000
  0
SEQEND
  8
MERGEDLAYER-1
  0
POLYLINE
  8
MERGEDLAYER-1
 66
  1
 70
  0
 62
  7
 10
11.684131
 20
17.116568
 30
0.000000
  0
VERTEX
  8
MERGEDLAYER-1
 10
11.684131
 20
17.116568
 30
0.000000
  0
VERTEX
  8
MERGEDLAYER-1
 10
11.604356
 20
17.036429
 30
0.000000
  0
SEQEND
  8
MERGEDLAYER-1
  0
POLYLINE
  8
MERGEDLAYER-1
 66
  1
 70
  0
 62
  7
 10
11.684133
 20
17.116568
 30
0.000000
  0
VERTEX
  8
MERGEDLAYER-1
 10
11.684133
 20
17.116568
 30
0.000000
  0
VERTEX
  8
MERGEDLAYER-1
 10
11.699132
 20
17.101572
 30
0.000000
  0
SEQEND
  8
MERGEDLAYER-1
  0
POLYLINE
  8
MERGEDLAYER-1
 66
  1
 70
  0
 62
  7
 10
11.743845
 20
17.101567
 30
0.000000
  0
VERTEX
  8
MERGEDLAYER-1
 10
11.743845
 20
17.101567
 30
0.000000
  0
VERTEX
  8
MERGEDLAYER-1
 10
11.699132
 20
17.101567
 30
0.000000
  0
SEQEND
  8
MERGEDLAYER-1
  0
POLYLINE
  8
MERGEDLAYER-1
 66
  1
 70
  0
 62
  7
 10
11.743845
 20
17.101572
 30
0.000000
  0
VERTEX
  8
MERGEDLAYER-1
 10
11.743845
 20
17.101572
 30
0.000000
  0
VERTEX
  8
MERGEDLAYER-1
 10
11.758844
 20
17.116568
 30
0.000000
  0
SEQEND
  8
MERGEDLAYER-1
  0
POLYLINE
  8
MERGEDLAYER-1
 66
  1
 70
  0
 62
  7
 10
11.758845
 20
17.193843
 30
0.000000
  0
VERTEX
  8
MERGEDLAYER-1
 10
11.758845
 20
17.193843
 30
0.000000
  0
VERTEX
  8
MERGEDLAYER-1
 10
11.758845
 20
17.116568
 30
0.000000
  0
SEQEND
  8
MERGEDLAYER-1
  0
POLYLINE
  8
MERGEDLAYER-1
 66
  1
 70
  0
 62
  7
 10
11.773840
 20
17.208844
 30
0.000000
  0
VERTEX
  8
MERGEDLAYER-1
 10
11.773840
 20
17.208844
 30
0.000000
  0
VERTEX
  8
MERGEDLAYER-1
 10
11.758841
 20
17.193843
 30
0.000000
  0
SEQEND
  8
MERGEDLAYER-1
  0
POLYLINE
  8
MERGEDLAYER-1
 66
  1
 70
  0
 62
  7
 10
11.843842
 20
17.208848
 30
0.000000
  0
VERTEX
  8
MERGEDLAYER-1
 10
11.843842
 20
17.208848
 30
0.000000
  0
VERTEX
  8
MERGEDLAYER-1
 10
11.773840
 20
17.208848
 30
0.000000
  0
SEQEND
  8
MERGEDLAYER-1
  0
POLYLINE
  8
MERGEDLAYER-1
 66
  1
 70
  0
 62
  7
 10
11.858841
 20
17.193843
 30
0.000000
  0
VERTEX
  8
MERGEDLAYER-1
 10
11.858841
 20
17.193843
 30
0.000000
  0
VERTEX
  8
MERGEDLAYER-1
 10
11.843842
 20
17.208844
 30
0.000000
  0
SEQEND
  8
MERGEDLAYER-1
  0
POLYLINE
  8
MERGEDLAYER-1
 66
  1
 70
  0
 62
  7
 10
11.858836
 20
17.116422
 30
0.000000
  0
VERTEX
  8
MERGEDLAYER-1
 10
11.858836
 20
17.116422
 30
0.000000
  0
VERTEX
  8
MERGEDLAYER-1
 10
11.858836
 20
17.193843
 30
0.000000
  0
SEQEND
  8
MERGEDLAYER-1
  0
POLYLINE
  8
MERGEDLAYER-1
 66
  1
 70
  0
 62
  7
 10
11.858846
 20
17.116422
 30
0.000000
  0
VERTEX
  8
MERGEDLAYER-1
 10
11.858846
 20
17.116422
 30
0.000000
  0
VERTEX
  8
MERGEDLAYER-1
 10
11.873845
 20
17.101426
 30
0.000000
  0
SEQEND
  8
MERGEDLAYER-1
  0
POLYLINE
  8
MERGEDLAYER-1
 66
  1
 70
  0
 62
  7
 10
11.919118
 20
17.101426
 30
0.000000
  0
VERTEX
  8
MERGEDLAYER-1
 10
11.919118
 20
17.101426
 30
0.000000
  0
VERTEX
  8
MERGEDLAYER-1
 10
11.873845
 20
17.101426
 30
0.000000
  0
SEQEND
  8
MERGEDLAYER-1
  0
POLYLINE
  8
MERGEDLAYER-1
 66
  1
 70
  0
 62
  7
 10
11.919118
 20
17.101426
 30
0.000000
  0
VERTEX
  8
MERGEDLAYER-1
 10
11.919118
 20
17.101426
 30
0.000000
  0
VERTEX
  8
MERGEDLAYER-1
 10
11.934117
 20
17.116422
 30
0.000000
  0
SEQEND
  8
MERGEDLAYER-1
  0
POLYLINE
  8
MERGEDLAYER-1
 66
  1
 70
  0
 62
  7
 10
11.934120
 20
17.333872
 30
0.000000
  0
VERTEX
  8
MERGEDLAYER-1
 10
11.934120
 20
17.333872
 30
0.000000
  0
VERTEX
  8
MERGEDLAYER-1
 10
11.934120
 20
17.116422
 30
0.000000
  0
SEQEND
  8
MERGEDLAYER-1
  0
POLYLINE
  8
MERGEDLAYER-1
 66
  1
 70
  0
 62
  7
 10
11.949120
 20
17.348872
 30
0.000000
  0
VERTEX
  8
MERGEDLAYER-1
 10
11.949120
 20
17.348872
 30
0.000000
  0
VERTEX
  8
MERGEDLAYER-1
 10
11.934121
 20
17.333872
 30
0.000000
  0
SEQEND
  8
MERGEDLAYER-1
  0
POLYLINE
  8
MERGEDLAYER-1
 66
  1
 70
  0
 62
  7
 10
11.999116
 20
17.348877
 30
0.000000
  0
VERTEX
  8
MERGEDLAYER-1
 10
11.999116
 20
17.348877
 30
0.000000
  0
VERTEX
  8
MERGEDLAYER-1
 10
11.949120
 20
17.348877
 30
0.000000
  0
SEQEND
  8
MERGEDLAYER-1
  0
POLYLINE
  8
MERGEDLAYER-1
 66
  1
 70
  0
 62
  7
 10
12.014114
 20
17.333872
 30
0.000000
  0
VERTEX
  8
MERGEDLAYER-1
 10
12.014114
 20
17.333872
 30
0.000000
  0
VERTEX
  8
MERGEDLAYER-1
 10
11.999116
 20
17.348872
 30
0.000000
  0
SEQEND
  8
MERGEDLAYER-1
  0
POLYLINE
  8
MERGEDLAYER-1
 66
  1
 70
  0
 62
  7
 10
12.014117
 20
17.116582
 30
0.000000
  0
VERTEX
  8
MERGEDLAYER-1
 10
12.014117
 20
17.116582
 30
0.000000
  0
VERTEX
  8
MERGEDLAYER-1
 10
12.014117
 20
17.333872
 30
0.000000
  0
SEQEND
  8
MERGEDLAYER-1
  0
POLYLINE
  8
MERGEDLAYER-1
 66
  1
 70
  0
 62
  7
 10
12.014119
 20
17.116582
 30
0.000000
  0
VERTEX
  8
MERGEDLAYER-1
 10
12.014119
 20
17.116582
 30
0.000000
  0
VERTEX
  8
MERGEDLAYER-1
 10
12.029118
 20
17.101581
 30
0.000000
  0
SEQEND
  8
MERGEDLAYER-1
  0
POLYLINE
  8
MERGEDLAYER-1
 66
  1
 70
  0
 62
  7
 10
12.221907
 20
17.101577
 30
0.000000
  0
VERTEX
  8
MERGEDLAYER-1
 10
12.221907
 20
17.101577
 30
0.000000
  0
VERTEX
  8
MERGEDLAYER-1
 10
12.029118
 20
17.101577
 30
0.000000
  0
SEQEND
  8
MERGEDLAYER-1
  0
POLYLINE
  8
MERGEDLAYER-1
 66
  1
 70
  0
 62
  7
 10
12.221907
 20
17.101581
 30
0.000000
  0
VERTEX
  8
MERGEDLAYER-1
 10
12.221907
 20
17.101581
 30
0.000000
  0
VERTEX
  8
MERGEDLAYER-1
 10
12.236907
 20
17.116582
 30
0.000000
  0
SEQEND
  8
MERGEDLAYER-1
  0
POLYLINE
  8
MERGEDLAYER-1
 66
  1
 70
  0
 62
  7
 10
12.362226
 20
17.116568
 30
0.000000
  0
VERTEX
  8
MERGEDLAYER-1
 10
12.362226
 20
17.116568
 30
0.000000
  0
VERTEX
  8
MERGEDLAYER-1
 10
12.236909
 20
17.116582
 30
0.000000
  0
SEQEND
  8
MERGEDLAYER-1
  0
POLYLINE
  8
MERGEDLAYER-1
 66
  1
 70
  0
 62
  7
 10
12.362227
 20
17.116568
 30
0.000000
  0
VERTEX
  8
MERGEDLAYER-1
 10
12.362227
 20
17.116568
 30
0.000000
  0
VERTEX
  8
MERGEDLAYER-1
 10
12.377227
 20
17.101572
 30
0.000000
  0
SEQEND
  8
MERGEDLAYER-1
  0
POLYLINE
  8
MERGEDLAYER-1
 66
  1
 70
  0
 62
  7
 10
12.377227
 20
17.101567
 30
0.000000
  0
VERTEX
  8
MERGEDLAYER-1
 10
12.377227
 20
17.101567
 30
0.000000
  0
VERTEX
  8
MERGEDLAYER-1
 10
12.426937
 20
17.101567
 30
0.000000
  0
SEQEND
  8
MERGEDLAYER-1
  0
POLYLINE
  8
MERGEDLAYER-1
 66
  1
 70
  0
 62
  7
 10
12.426937
 20
17.101572
 30
0.000000
  0
VERTEX
  8
MERGEDLAYER-1
 10
12.426937
 20
17.101572
 30
0.000000
  0
VERTEX
  8
MERGEDLAYER-1
 10
12.441937
 20
17.116568
 30
0.000000
  0
SEQEND
  8
MERGEDLAYER-1
  0
POLYLINE
  8
MERGEDLAYER-1
 66
  1
 70
  0
 62
  7
 10
12.441939
 20
17.193843
 30
0.000000
  0
VERTEX
  8
MERGEDLAYER-1
 10
12.441939
 20
17.193843
 30
0.000000
  0
VERTEX
  8
MERGEDLAYER-1
 10
12.441939
 20
17.116568
 30
0.000000
  0
SEQEND
  8
MERGEDLAYER-1
  0
POLYLINE
  8
MERGEDLAYER-1
 66
  1
 70
  0
 62
  7
 10
12.456940
 20
17.208844
 30
0.000000
  0
VERTEX
  8
MERGEDLAYER-1
 10
12.456940
 20
17.208844
 30
0.000000
  0
VERTEX
  8
MERGEDLAYER-1
 10
12.441940
 20
17.193843
 30
0.000000
  0
SEQEND
  8
MERGEDLAYER-1
  0
POLYLINE
  8
MERGEDLAYER-1
 66
  1
 70
  0
 62
  7
 10
12.456940
 20
17.208848
 30
0.000000
  0
VERTEX
  8
MERGEDLAYER-1
 10
12.456940
 20
17.208848
 30
0.000000
  0
VERTEX
  8
MERGEDLAYER-1
 10
12.526934
 20
17.208848
 30
0.000000
  0
SEQEND
  8
MERGEDLAYER-1
  0
POLYLINE
  8
MERGEDLAYER-1
 66
  1
 70
  0
 62
  7
 10
12.541933
 20
17.193843
 30
0.000000
  0
VERTEX
  8
MERGEDLAYER-1
 10
12.541933
 20
17.193843
 30
0.000000
  0
VERTEX
  8
MERGEDLAYER-1
 10
12.526934
 20
17.208844
 30
0.000000
  0
SEQEND
  8
MERGEDLAYER-1
  0
POLYLINE
  8
MERGEDLAYER-1
 66
  1
 70
  0
 62
  7
 10
12.541936
 20
17.116422
 30
0.000000
  0
VERTEX
  8
MERGEDLAYER-1
 10
12.541936
 20
17.116422
 30
0.000000
  0
VERTEX
  8
MERGEDLAYER-1
 10
12.541936
 20
17.193843
 30
0.000000
  0
SEQEND
  8
MERGEDLAYER-1
  0
POLYLINE
  8
MERGEDLAYER-1
 66
  1
 70
  0
 62
  7
 10
12.541930
 20
17.116422
 30
0.000000
  0
VERTEX
  8
MERGEDLAYER-1
 10
12.541930
 20
17.116422
 30
0.000000
  0
VERTEX
  8
MERGEDLAYER-1
 10
12.556929
 20
17.101426
 30
0.000000
  0
SEQEND
  8
MERGEDLAYER-1
  0
POLYLINE
  8
MERGEDLAYER-1
 66
  1
 70
  0
 62
  7
 10
12.607218
 20
17.101426
 30
0.000000
  0
VERTEX
  8
MERGEDLAYER-1
 10
12.607218
 20
17.101426
 30
0.000000
  0
VERTEX
  8
MERGEDLAYER-1
 10
12.556929
 20
17.101426
 30
0.000000
  0
SEQEND
  8
MERGEDLAYER-1
  0
POLYLINE
  8
MERGEDLAYER-1
 66
  1
 70
  0
 62
  7
 10
12.607218
 20
17.101426
 30
0.000000
  0
VERTEX
  8
MERGEDLAYER-1
 10
12.607218
 20
17.101426
 30
0.000000
  0
VERTEX
  8
MERGEDLAYER-1
 10
12.622216
 20
17.116422
 30
0.000000
  0
SEQEND
  8
MERGEDLAYER-1
  0
POLYLINE
  8
MERGEDLAYER-1
 66
  1
 70
  0
 62
  7
 10
12.622210
 20
17.333872
 30
0.000000
  0
VERTEX
  8
MERGEDLAYER-1
 10
12.622210
 20
17.333872
 30
0.000000
  0
VERTEX
  8
MERGEDLAYER-1
 10
12.622210
 20
17.116422
 30
0.000000
  0
SEQEND
  8
MERGEDLAYER-1
  0
POLYLINE
  8
MERGEDLAYER-1
 66
  1
 70
  0
 62
  7
 10
12.637213
 20
17.348872
 30
0.000000
  0
VERTEX
  8
MERGEDLAYER-1
 10
12.637213
 20
17.348872
 30
0.000000
  0
VERTEX
  8
MERGEDLAYER-1
 10
12.622214
 20
17.333872
 30
0.000000
  0
SEQEND
  8
MERGEDLAYER-1
  0
POLYLINE
  8
MERGEDLAYER-1
 66
  1
 70
  0
 62
  7
 10
12.637213
 20
17.348877
 30
0.000000
  0
VERTEX
  8
MERGEDLAYER-1
 10
12.637213
 20
17.348877
 30
0.000000
  0
VERTEX
  8
MERGEDLAYER-1
 10
12.702208
 20
17.348877
 30
0.000000
  0
SEQEND
  8
MERGEDLAYER-1
  0
POLYLINE
  8
MERGEDLAYER-1
 66
  1
 70
  0
 62
  7
 10
12.717208
 20
17.333872
 30
0.000000
  0
VERTEX
  8
MERGEDLAYER-1
 10
12.717208
 20
17.333872
 30
0.000000
  0
VERTEX
  8
MERGEDLAYER-1
 10
12.702208
 20
17.348872
 30
0.000000
  0
SEQEND
  8
MERGEDLAYER-1
  0
POLYLINE
  8
MERGEDLAYER-1
 66
  1
 70
  0
 62
  7
 10
12.717210
 20
17.333872
 30
0.000000
  0
VERTEX
  8
MERGEDLAYER-1
 10
12.717210
 20
17.333872
 30
0.000000
  0
VERTEX
  8
MERGEDLAYER-1
 10
12.717210
 20
17.131578
 30
0.000000
  0
SEQEND
  8
MERGEDLAYER-1
  0
POLYLINE
  8
MERGEDLAYER-1
 66
  1
 70
  0
 62
  7
 10
12.717212
 20
17.131578
 30
0.000000
  0
VERTEX
  8
MERGEDLAYER-1
 10
12.717212
 20
17.131578
 30
0.000000
  0
VERTEX
  8
MERGEDLAYER-1
 10
12.732212
 20
17.116582
 30
0.000000
  0
SEQEND
  8
MERGEDLAYER-1
  0
POLYLINE
  8
MERGEDLAYER-1
 66
  1
 70
  0
 62
  7
 10
12.732212
 20
17.116582
 30
0.000000
  0
VERTEX
  8
MERGEDLAYER-1
 10
12.732212
 20
17.116582
 30
0.000000
  0
VERTEX
  8
MERGEDLAYER-1
 10
13.855205
 20
17.116582
 30
0.000000
  0
SEQEND
  8
MERGEDLAYER-1
  0
POLYLINE
  8
MERGEDLAYER-1
 66
  1
 70
  0
 62
  7
 10
13.855205
 20
17.116582
 30
0.000000
  0
VERTEX
  8
MERGEDLAYER-1
 10
13.855205
 20
17.116582
 30
0.000000
  0
VERTEX
  8
MERGEDLAYER-1
 10
13.870204
 20
17.131578
 30
0.000000
  0
SEQEND
  8
MERGEDLAYER-1
  0
POLYLINE
  8
MERGEDLAYER-1
 66
  1
 70
  0
 62
  7
 10
13.870199
 20
17.403471
 30
0.000000
  0
VERTEX
  8
MERGEDLAYER-1
 10
13.870199
 20
17.403471
 30
0.000000
  0
VERTEX
  8
MERGEDLAYER-1
 10
13.870199
 20
17.131578
 30
0.000000
  0
SEQEND
  8
MERGEDLAYER-1
  0
POLYLINE
  8
MERGEDLAYER-1
 66
  1
 70
  0
 62
  7
 10
13.925198
 20
17.458468
 30
0.000000
  0
VERTEX
  8
MERGEDLAYER-1
 10
13.925198
 20
17.458468
 30
0.000000
  0
VERTEX
  8
MERGEDLAYER-1
 10
13.870201
 20
17.403471
 30
0.000000
  0
SEQEND
  8
MERGEDLAYER-1
  0
POLYLINE
  8
MERGEDLAYER-1
 66
  1
 70
  0
 62
  7
 10
13.988888
 20
17.458473
 30
0.000000
  0
VERTEX
  8
MERGEDLAYER-1
 10
13.988888
 20
17.458473
 30
0.000000
  0
VERTEX
  8
MERGEDLAYER-1
 10
13.925198
 20
17.458473
 30
0.000000
  0
SEQEND
  8
MERGEDLAYER-1
  0
POLYLINE
  8
MERGEDLAYER-1
 66
  1
 70
  0
 62
  7
 10
14.003887
 20
17.443472
 30
0.000000
  0
VERTEX
  8
MERGEDLAYER-1
 10
14.003887
 20
17.443472
 30
0.000000
  0
VERTEX
  8
MERGEDLAYER-1
 10
13.988888
 20
17.458468
 30
0.000000
  0
SEQEND
  8
MERGEDLAYER-1
  0
POLYLINE
  8
MERGEDLAYER-1
 66
  1
 70
  0
 62
  7
 10
14.003883
 20
17.434110
 30
0.000000
  0
VERTEX
  8
MERGEDLAYER-1
 10
14.003883
 20
17.434110
 30
0.000000
  0
VERTEX
  8
MERGEDLAYER-1
 10
14.003883
 20
17.443472
 30
0.000000
  0
SEQEND
  8
MERGEDLAYER-1
  0
POLYLINE
  8
MERGEDLAYER-1
 66
  1
 70
  0
 62
  7
 10
13.988888
 20
17.419110
 30
0.000000
  0
VERTEX
  8
MERGEDLAYER-1
 10
13.988888
 20
17.419110
 30
0.000000
  0
VERTEX
  8
MERGEDLAYER-1
 10
14.003887
 20
17.434110
 30
0.000000
  0
SEQEND
  8
MERGEDLAYER-1
  0
POLYLINE
  8
MERGEDLAYER-1
 66
  1
 70
  0
 62
  7
 10
13.988888
 20
17.419110
 30
0.000000
  0
VERTEX
  8
MERGEDLAYER-1
 10
13.988888
 20
17.419110
 30
0.000000
  0
VERTEX
  8
MERGEDLAYER-1
 10
13.940200
 20
17.419110
 30
0.000000
  0
SEQEND
  8
MERGEDLAYER-1
  0
POLYLINE
  8
MERGEDLAYER-1
 66
  1
 70
  0
 62
  7
 10
13.940200
 20
17.419105
 30
0.000000
  0
VERTEX
  8
MERGEDLAYER-1
 10
13.940200
 20
17.419105
 30
0.000000
  0
VERTEX
  8
MERGEDLAYER-1
 10
13.925200
 20
17.404109
 30
0.000000
  0
SEQEND
  8
MERGEDLAYER-1
  0
POLYLINE
  8
MERGEDLAYER-1
 66
  1
 70
  0
 62
  7
 10
13.925205
 20
17.404109
 30
0.000000
  0
VERTEX
  8
MERGEDLAYER-1
 10
13.925205
 20
17.404109
 30
0.000000
  0
VERTEX
  8
MERGEDLAYER-1
 10
13.925205
 20
17.347558
 30
0.000000
  0
SEQEND
  8
MERGEDLAYER-1
  0
POLYLINE
  8
MERGEDLAYER-1
 66
  1
 70
  0
 62
  7
 10
13.925200
 20
17.347558
 30
0.000000
  0
VERTEX
  8
MERGEDLAYER-1
 10
13.925200
 20
17.347558
 30
0.000000
  0
VERTEX
  8
MERGEDLAYER-1
 10
13.940200
 20
17.332557
 30
0.000000
  0
SEQEND
  8
MERGEDLAYER-1
  0
POLYLINE
  8
MERGEDLAYER-1
 66
  1
 70
  0
 62
  7
 10
13.940200
 20
17.332557
 30
0.000000
  0
VERTEX
  8
MERGEDLAYER-1
 10
13.940200
 20
17.332557
 30
0.000000
  0
VERTEX
  8
MERGEDLAYER-1
 10
13.988980
 20
17.332557
 30
0.000000
  0
SEQEND
  8
MERGEDLAYER-1
  0
POLYLINE
  8
MERGEDLAYER-1
 66
  1
 70
  0
 62
  7
 10
14.003979
 20
17.317542
 30
0.000000
  0
VERTEX
  8
MERGEDLAYER-1
 10
14.003979
 20
17.317542
 30
0.000000
  0
VERTEX
  8
MERGEDLAYER-1
 10
13.987031
 20
17.334529
 30
0.000000
  0
VERTEX
  8
MERGEDLAYER-1
 10
13.988980
 20
17.332562
 30
0.000000
  0
SEQEND
  8
MERGEDLAYER-1
  0
POLYLINE
  8
MERGEDLAYER-1
 66
  1
 70
  0
 62
  7
 10
14.003983
 20
17.317542
 30
0.000000
  0
VERTEX
  8
MERGEDLAYER-1
 10
14.003983
 20
17.317542
 30
0.000000
  0
VERTEX
  8
MERGEDLAYER-1
 10
14.003883
 20
17.247244
 30
0.000000
  0
SEQEND
  8
MERGEDLAYER-1
  0
POLYLINE
  8
MERGEDLAYER-1
 66
  1
 70
  0
 62
  7
 10
13.988888
 20
17.232267
 30
0.000000
  0
VERTEX
  8
MERGEDLAYER-1
 10
13.988888
 20
17.232267
 30
0.000000
  0
VERTEX
  8
MERGEDLAYER-1
 10
13.991550
 20
17.234967
 30
0.000000
  0
VERTEX
  8
MERGEDLAYER-1
 10
13.995730
 20
17.237098
 30
0.000000
  0
VERTEX
  8
MERGEDLAYER-1
 10
13.999047
 20
17.240408
 30
0.000000
  0
VERTEX
  8
MERGEDLAYER-1
 10
14.001180
 20
17.244582
 30
0.000000
  0
VERTEX
  8
MERGEDLAYER-1
 10
14.003887
 20
17.247249
 30
0.000000
  0
SEQEND
  8
MERGEDLAYER-1
  0
POLYLINE
  8
MERGEDLAYER-1
 66
  1
 70
  0
 62
  7
 10
13.988888
 20
17.232262
 30
0.000000
  0
VERTEX
  8
MERGEDLAYER-1
 10
13.988888
 20
17.232262
 30
0.000000
  0
VERTEX
  8
MERGEDLAYER-1
 10
13.940200
 20
17.232262
 30
0.000000
  0
SEQEND
  8
MERGEDLAYER-1
  0
POLYLINE
  8
MERGEDLAYER-1
 66
  1
 70
  0
 62
  7
 10
13.940200
 20
17.232262
 30
0.000000
  0
VERTEX
  8
MERGEDLAYER-1
 10
13.940200
 20
17.232262
 30
0.000000
  0
VERTEX
  8
MERGEDLAYER-1
 10
13.925200
 20
17.217262
 30
0.000000
  0
SEQEND
  8
MERGEDLAYER-1
  0
POLYLINE
  8
MERGEDLAYER-1
 66
  1
 70
  0
 62
  7
 10
13.925205
 20
17.217262
 30
0.000000
  0
VERTEX
  8
MERGEDLAYER-1
 10
13.925205
 20
17.217262
 30
0.000000
  0
VERTEX
  8
MERGEDLAYER-1
 10
13.925205
 20
17.091215
 30
0.000000
  0
SEQEND
  8
MERGEDLAYER-1
  0
POLYLINE
  8
MERGEDLAYER-1
 66
  1
 70
  0
 62
  7
 10
13.925200
 20
17.091215
 30
0.000000
  0
VERTEX
  8
MERGEDLAYER-1
 10
13.925200
 20
17.091215
 30
0.000000
  0
VERTEX
  8
MERGEDLAYER-1
 10
13.940200
 20
17.076219
 30
0.000000
  0
SEQEND
  8
MERGEDLAYER-1
  0
POLYLINE
  8
MERGEDLAYER-1
 66
  1
 70
  0
 62
  7
 10
14.230187
 20
17.076214
 30
0.000000
  0
VERTEX
  8
MERGEDLAYER-1
 10
14.230187
 20
17.076214
 30
0.000000
  0
VERTEX
  8
MERGEDLAYER-1
 10
13.940200
 20
17.076214
 30
0.000000
  0
SEQEND
  8
MERGEDLAYER-1
  0
POLYLINE
  8
MERGEDLAYER-1
 66
  1
 70
  0
 62
  7
 10
14.230187
 20
17.076214
 30
0.000000
  0
VERTEX
  8
MERGEDLAYER-1
 10
14.230187
 20
17.076214
 30
0.000000
  0
VERTEX
  8
MERGEDLAYER-1
 10
14.299184
 20
17.145212
 30
0.000000
  0
SEQEND
  8
MERGEDLAYER-1
  0
POLYLINE
  8
MERGEDLAYER-1
 66
  1
 70
  0
 62
  7
 10
14.299188
 20
17.145212
 30
0.000000
  0
VERTEX
  8
MERGEDLAYER-1
 10
14.299188
 20
17.145212
 30
0.000000
  0
VERTEX
  8
MERGEDLAYER-1
 10
14.299188
 20
17.217262
 30
0.000000
  0
SEQEND
  8
MERGEDLAYER-1
  0
POLYLINE
  8
MERGEDLAYER-1
 66
  1
 70
  0
 62
  7
 10
14.299187
 20
17.217262
 30
0.000000
  0
VERTEX
  8
MERGEDLAYER-1
 10
14.299187
 20
17.217262
 30
0.000000
  0
VERTEX
  8
MERGEDLAYER-1
 10
14.284188
 20
17.232262
 30
0.000000
  0
SEQEND
  8
MERGEDLAYER-1
  0
POLYLINE
  8
MERGEDLAYER-1
 66
  1
 70
  0
 62
  7
 10
14.284188
 20
17.232262
 30
0.000000
  0
VERTEX
  8
MERGEDLAYER-1
 10
14.284188
 20
17.232262
 30
0.000000
  0
VERTEX
  8
MERGEDLAYER-1
 10
14.235354
 20
17.232262
 30
0.000000
  0
SEQEND
  8
MERGEDLAYER-1
  0
POLYLINE
  8
MERGEDLAYER-1
 66
  1
 70
  0
 62
  7
 10
14.220356
 20
17.247268
 30
0.000000
  0
VERTEX
  8
MERGEDLAYER-1
 10
14.220356
 20
17.247268
 30
0.000000
  0
VERTEX
  8
MERGEDLAYER-1
 10
14.235354
 20
17.232267
 30
0.000000
  0
SEQEND
  8
MERGEDLAYER-1
  0
POLYLINE
  8
MERGEDLAYER-1
 66
  1
 70
  0
 62
  7
 10
14.220352
 20
17.247268
 30
0.000000
  0
VERTEX
  8
MERGEDLAYER-1
 10
14.220352
 20
17.247268
 30
0.000000
  0
VERTEX
  8
MERGEDLAYER-1
 10
14.220352
 20
17.317566
 30
0.000000
  0
SEQEND
  8
MERGEDLAYER-1
  0
POLYLINE
  8
MERGEDLAYER-1
 66
  1
 70
  0
 62
  7
 10
14.235354
 20
17.332562
 30
0.000000
  0
VERTEX
  8
MERGEDLAYER-1
 10
14.235354
 20
17.332562
 30
0.000000
  0
VERTEX
  8
MERGEDLAYER-1
 10
14.220356
 20
17.317566
 30
0.000000
  0
SEQEND
  8
MERGEDLAYER-1
  0
POLYLINE
  8
MERGEDLAYER-1
 66
  1
 70
  0
 62
  7
 10
14.235354
 20
17.332557
 30
0.000000
  0
VERTEX
  8
MERGEDLAYER-1
 10
14.235354
 20
17.332557
 30
0.000000
  0
VERTEX
  8
MERGEDLAYER-1
 10
14.284188
 20
17.332557
 30
0.000000
  0
SEQEND
  8
MERGEDLAYER-1
  0
POLYLINE
  8
MERGEDLAYER-1
 66
  1
 70
  0
 62
  7
 10
14.284188
 20
17.332557
 30
0.000000
  0
VERTEX
  8
MERGEDLAYER-1
 10
14.284188
 20
17.332557
 30
0.000000
  0
VERTEX
  8
MERGEDLAYER-1
 10
14.299187
 20
17.347558
 30
0.000000
  0
SEQEND
  8
MERGEDLAYER-1
  0
POLYLINE
  8
MERGEDLAYER-1
 66
  1
 70
  0
 62
  7
 10
14.299188
 20
17.347558
 30
0.000000
  0
VERTEX
  8
MERGEDLAYER-1
 10
14.299188
 20
17.347558
 30
0.000000
  0
VERTEX
  8
MERGEDLAYER-1
 10
14.299188
 20
17.404109
 30
0.000000
  0
SEQEND
  8
MERGEDLAYER-1
  0
POLYLINE
  8
MERGEDLAYER-1
 66
  1
 70
  0
 62
  7
 10
14.299187
 20
17.404109
 30
0.000000
  0
VERTEX
  8
MERGEDLAYER-1
 10
14.299187
 20
17.404109
 30
0.000000
  0
VERTEX
  8
MERGEDLAYER-1
 10
14.284188
 20
17.419105
 30
0.000000
  0
SEQEND
  8
MERGEDLAYER-1
  0
POLYLINE
  8
MERGEDLAYER-1
 66
  1
 70
  0
 62
  7
 10
14.284188
 20
17.419110
 30
0.000000
  0
VERTEX
  8
MERGEDLAYER-1
 10
14.284188
 20
17.419110
 30
0.000000
  0
VERTEX
  8
MERGEDLAYER-1
 10
14.235354
 20
17.419110
 30
0.000000
  0
SEQEND
  8
MERGEDLAYER-1
  0
POLYLINE
  8
MERGEDLAYER-1
 66
  1
 70
  0
 62
  7
 10
14.220356
 20
17.434106
 30
0.000000
  0
VERTEX
  8
MERGEDLAYER-1
 10
14.220356
 20
17.434106
 30
0.000000
  0
VERTEX
  8
MERGEDLAYER-1
 10
14.235354
 20
17.419105
 30
0.000000
  0
SEQEND
  8
MERGEDLAYER-1
  0
POLYLINE
  8
MERGEDLAYER-1
 66
  1
 70
  0
 62
  7
 10
14.220352
 20
17.434106
 30
0.000000
  0
VERTEX
  8
MERGEDLAYER-1
 10
14.220352
 20
17.434106
 30
0.000000
  0
VERTEX
  8
MERGEDLAYER-1
 10
14.220352
 20
17.443472
 30
0.000000
  0
SEQEND
  8
MERGEDLAYER-1
  0
POLYLINE
  8
MERGEDLAYER-1
 66
  1
 70
  0
 62
  7
 10
14.235354
 20
17.458468
 30
0.000000
  0
VERTEX
  8
MERGEDLAYER-1
 10
14.235354
 20
17.458468
 30
0.000000
  0
VERTEX
  8
MERGEDLAYER-1
 10
14.220356
 20
17.443472
 30
0.000000
  0
SEQEND
  8
MERGEDLAYER-1
  0
POLYLINE
  8
MERGEDLAYER-1
 66
  1
 70
  0
 62
  7
 10
14.235354
 20
17.458473
 30
0.000000
  0
VERTEX
  8
MERGEDLAYER-1
 10
14.235354
 20
17.458473
 30
0.000000
  0
VERTEX
  8
MERGEDLAYER-1
 10
14.299234
 20
17.458473
 30
0.000000
  0
SEQEND
  8
MERGEDLAYER-1
  0
POLYLINE
  8
MERGEDLAYER-1
 66
  1
 70
  0
 62
  7
 10
14.354232
 20
17.403471
 30
0.000000
  0
VERTEX
  8
MERGEDLAYER-1
 10
14.354232
 20
17.403471
 30
0.000000
  0
VERTEX
  8
MERGEDLAYER-1
 10
14.299234
 20
17.458468
 30
0.000000
  0
SEQEND
  8
MERGEDLAYER-1
  0
POLYLINE
  8
MERGEDLAYER-1
 66
  1
 70
  0
 62
  7
 10
14.354228
 20
17.403471
 30
0.000000
  0
VERTEX
  8
MERGEDLAYER-1
 10
14.354228
 20
17.403471
 30
0.000000
  0
VERTEX
  8
MERGEDLAYER-1
 10
14.354228
 20
17.145522
 30
0.000000
  0
SEQEND
  8
MERGEDLAYER-1
  0
POLYLINE
  8
MERGEDLAYER-1
 66
  1
 70
  0
 62
  7
 10
14.230233
 20
17.021527
 30
0.000000
  0
VERTEX
  8
MERGEDLAYER-1
 10
14.230233
 20
17.021527
 30
0.000000
  0
VERTEX
  8
MERGEDLAYER-1
 10
14.315941
 20
17.059810
 30
0.000000
  0
VERTEX
  8
MERGEDLAYER-1
 10
14.354228
 20
17.145522
 30
0.000000
  0
SEQEND
  8
MERGEDLAYER-1
  0
POLYLINE
  8
MERGEDLAYER-1
 66
  1
 70
  1
 62
  7
  0
VERTEX
  8
MERGEDLAYER-1
 10
12.236909
 20
18.551786
 30
0.000000
  0
VERTEX
  8
MERGEDLAYER-1
 10
12.362226
 20
18.551786
 30
0.000000
  0
VERTEX
  8
MERGEDLAYER-1
 10
12.362226
 20
17.116582
 30
0.000000
  0
VERTEX
  8
MERGEDLAYER-1
 10
12.236909
 20
17.116582
 30
0.000000
  0
SEQEND
  8
MERGEDLAYER-1
  0
POLYLINE
  8
MERGEDLAYER-1
 66
  1
 70
  0
 62
  7
 10
11.684131
 20
17.116568
 30
0.000000
  0
VERTEX
  8
MERGEDLAYER-1
 10
11.684131
 20
17.116568
 30
0.000000
  0
VERTEX
  8
MERGEDLAYER-1
 10
11.604356
 20
17.036429
 30
0.000000
  0
SEQEND
  8
MERGEDLAYER-1
  0
POLYLINE
  8
MERGEDLAYER-1
 66
  1
 70
  1
 62
  7
 10
14.493997
 20
18.154691
 30
0.000000
  0
VERTEX
  8
MERGEDLAYER-1
 10
14.493997
 20
18.154691
 30
0.000000
  0
VERTEX
  8
MERGEDLAYER-1
 10
13.494042
 20
18.154691
 30
0.000000
  0
VERTEX
  8
MERGEDLAYER-1
 10
13.494042
 20
17.529719
 30
0.000000
  0
VERTEX
  8
MERGEDLAYER-1
 10
14.493997
 20
17.529719
 30
0.000000
  0
VERTEX
  8
MERGEDLAYER-1
 10
14.493997
 20
17.337426
 30
0.000000
  0
VERTEX
  8
MERGEDLAYER-1
 10
14.556494
 20
17.337426
 30
0.000000
  0
VERTEX
  8
MERGEDLAYER-1
 10
14.556494
 20
18.337384
 30
0.000000
  0
VERTEX
  8
MERGEDLAYER-1
 10
14.493997
 20
18.337384
 30
0.000000
  0
SEQEND
  8
MERGEDLAYER-1
  0
POLYLINE
  8
MERGEDLAYER-1
 66
  1
 70
  0
 62
  7
 10
47.492267
 20
11.485643
 30
0.000000
  0
VERTEX
  8
MERGEDLAYER-1
 10
47.492267
 20
11.485643
 30
0.000000
  0
VERTEX
  8
MERGEDLAYER-1
 10
31.319669
 20
11.485643
 30
0.000000
  0
SEQEND
  8
MERGEDLAYER-1
  0
POLYLINE
  8
MERGEDLAYER-1
 66
  1
 70
  1
 62
  7
  0
VERTEX
  8
MERGEDLAYER-1
 10
14.556916
 20
18.523132
 30
0.000000
  0
VERTEX
  8
MERGEDLAYER-1
 10
46.330825
 20
18.523132
 30
0.000000
  0
VERTEX
  8
MERGEDLAYER-1
 10
46.330825
 20
17.148132
 30
0.000000
  0
VERTEX
  8
MERGEDLAYER-1
 10
14.556916
 20
17.148132
 30
0.000000
  0
SEQEND
  8
MERGEDLAYER-1
  0
POLYLINE
  8
MERGEDLAYER-1
  6
LTYPE06
 66
  1
 70
  0
 62
  7
 40
0.153846
 41
0.153846
  6
LTYPE06
 10
13.101126
 20
17.838506
 30
0.000000
  0
VERTEX
  8
MERGEDLAYER-1
  6
LTYPE06
 10
13.101126
 20
17.838506
 30
0.000000
  0
VERTEX
  8
MERGEDLAYER-1
  6
LTYPE06
 10
47.786616
 20
17.838506
 30
0.000000
  0
SEQEND
  8
MERGEDLAYER-1
  0
POLYLINE
  8
MERGEDLAYER-1
 66
  1
 70
  1
 62
  7
  0
VERTEX
  8
MERGEDLAYER-1
 10
11.683750
 20
18.456346
 30
0.000000
  0
VERTEX
  8
MERGEDLAYER-1
 10
11.933750
 20
18.456346
 30
0.000000
  0
VERTEX
  8
MERGEDLAYER-1
 10
11.933750
 20
17.206346
 30
0.000000
  0
VERTEX
  8
MERGEDLAYER-1
 10
11.683750
 20
17.206346
 30
0.000000
  0
SEQEND
  8
MERGEDLAYER-1
  0
POLYLINE
  8
MERGEDLAYER-1
 66
  1
 70
  1
 62
  7
  0
VERTEX
  8
MERGEDLAYER-1
 10
11.933763
 20
18.644174
 30
0.000000
  0
VERTEX
  8
MERGEDLAYER-1
 10
12.121272
 20
18.644174
 30
0.000000
  0
VERTEX
  8
MERGEDLAYER-1
 10
12.121272
 20
8.484704
 30
0.000000
  0
VERTEX
  8
MERGEDLAYER-1
 10
11.933763
 20
8.484704
 30
0.000000
  0
SEQEND
  8
MERGEDLAYER-1
  0
POLYLINE
  8
MERGEDLAYER-1
 66
  1
 70
  1
 62
  7
  0
VERTEX
  8
MERGEDLAYER-1
 10
48.951012
 20
18.461163
 30
0.000000
  0
VERTEX
  8
MERGEDLAYER-1
 10
49.201012
 20
18.461163
 30
0.000000
  0
VERTEX
  8
MERGEDLAYER-1
 10
49.201012
 20
17.211163
 30
0.000000
  0
VERTEX
  8
MERGEDLAYER-1
 10
48.951012
 20
17.211163
 30
0.000000
  0
SEQEND
  8
MERGEDLAYER-1
  0
POLYLINE
  8
MERGEDLAYER-1
 66
  1
 70
  1
 62
  7
  0
VERTEX
  8
MERGEDLAYER-1
 10
48.763503
 20
18.644174
 30
0.000000
  0
VERTEX
  8
MERGEDLAYER-1
 10
48.951012
 20
18.644174
 30
0.000000
  0
VERTEX
  8
MERGEDLAYER-1
 10
48.951012
 20
8.484704
 30
0.000000
  0
VERTEX
  8
MERGEDLAYER-1
 10
48.763503
 20
8.484704
 30
0.000000
  0
SEQEND
  8
MERGEDLAYER-1
  0
TEXT
  8
MERGEDLAYER-1
 62
  7
 10
29.538462
 20
17.312641
 30
0.000000
 40
0.461538
  1
DE LA CLOISON
 72
  5
 11
34.461538
 21
17.312641
 31
0.000000
  0
POLYLINE
  8
MERGEDLAYER-1
 66
  1
 70
  1
 62
  7
  0
VERTEX
  8
MERGEDLAYER-1
 10
27.916119
 20
18.070810
 30
0.000000
  0
VERTEX
  8
MERGEDLAYER-1
 10
29.505951
 20
18.070810
 30
0.000000
  0
VERTEX
  8
MERGEDLAYER-1
 10
29.505951
 20
17.709656
 30
0.000000
  0
VERTEX
  8
MERGEDLAYER-1
 10
27.916119
 20
17.709656
 30
0.000000
  0
SEQEND
  8
MERGEDLAYER-1
  0
TEXT
  8
MERGEDLAYER-1
 62
  7
 10
28.307692
 20
17.697256
 30
0.000000
 40
0.634615
  1
C
 72
  5
 11
29.307692
 21
17.697256
 31
0.000000
  0
TEXT
  8
MERGEDLAYER-1
 62
  7
 10
28.461538
 20
17.389564
 30
0.000000
 40
0.634615
  1
L
 72
  5
 11
29.307692
 21
17.389564
 31
0.000000
  0
POLYLINE
  8
MERGEDLAYER-1
 66
  1
 70
  1
 62
  7
  0
VERTEX
  8
MERGEDLAYER-1
 10
18.873587
 20
19.117037
 30
0.000000
  0
VERTEX
  8
MERGEDLAYER-1
 10
19.120206
 20
19.297467
 30
0.000000
  0
VERTEX
  8
MERGEDLAYER-1
 10
21.137526
 20
16.539236
 30
0.000000
  0
VERTEX
  8
MERGEDLAYER-1
 10
20.890965
 20
16.358774
 30
0.000000
  0
SEQEND
  8
MERGEDLAYER-1
  0
POLYLINE
  8
MERGEDLAYER-1
 66
  1
 70
  0
 62
  7
 10
19.979962
 20
17.904616
 30
0.000000
  0
VERTEX
  8
MERGEDLAYER-1
 10
19.979962
 20
17.904616
 30
0.000000
  0
VERTEX
  8
MERGEDLAYER-1
 10
19.046448
 20
19.173213
 30
0.000000
  0
SEQEND
  8
MERGEDLAYER-1
  0
POLYLINE
  8
MERGEDLAYER-1
 66
  1
 70
  0
 62
  7
 10
20.186472
 20
17.622422
 30
0.000000
  0
VERTEX
  8
MERGEDLAYER-1
 10
20.186472
 20
17.622422
 30
0.000000
  0
VERTEX
  8
MERGEDLAYER-1
 10
20.997880
 20
16.509517
 30
0.000000
  0
SEQEND
  8
MERGEDLAYER-1
  0
POLYLINE
  8
MERGEDLAYER-1
 66
  1
 70
  0
 62
  7
 10
19.979962
 20
17.904616
 30
0.000000
  0
VERTEX
  8
MERGEDLAYER-1
 10
19.979962
 20
17.904616
 30
0.000000
  0
VERTEX
  8
MERGEDLAYER-1
 10
20.367272
 20
17.971464
 30
0.000000
  0
SEQEND
  8
MERGEDLAYER-1
  0
POLYLINE
  8
MERGEDLAYER-1
 66
  1
 70
  0
 62
  7
 10
20.186472
 20
17.622422
 30
0.000000
  0
VERTEX
  8
MERGEDLAYER-1
 10
20.186472
 20
17.622422
 30
0.000000
  0
VERTEX
  8
MERGEDLAYER-1
 10
19.799166
 20
17.555570
 30
0.000000
  0
SEQEND
  8
MERGEDLAYER-1
  0
POLYLINE
  8
MERGEDLAYER-1
 66
  1
 70
  0
 62
  7
 10
20.367272
 20
17.971464
 30
0.000000
  0
VERTEX
  8
MERGEDLAYER-1
 10
20.367272
 20
17.971464
 30
0.000000
  0
VERTEX
  8
MERGEDLAYER-1
 10
19.799166
 20
17.555570
 30
0.000000
  0
SEQEND
  8
MERGEDLAYER-1
  0
POLYLINE
  8
MERGEDLAYER-1
 66
  1
 70
  1
 62
  7
  0
VERTEX
  8
MERGEDLAYER-1
 10
39.593590
 20
19.120544
 30
0.000000
  0
VERTEX
  8
MERGEDLAYER-1
 10
39.840210
 20
19.300974
 30
0.000000
  0
VERTEX
  8
MERGEDLAYER-1
 10
41.857525
 20
16.542743
 30
0.000000
  0
VERTEX
  8
MERGEDLAYER-1
 10
41.610910
 20
16.362314
 30
0.000000
  0
SEQEND
  8
MERGEDLAYER-1
  0
POLYLINE
  8
MERGEDLAYER-1
 66
  1
 70
  0
 62
  7
 10
40.699970
 20
17.908123
 30
0.000000
  0
VERTEX
  8
MERGEDLAYER-1
 10
40.699970
 20
17.908123
 30
0.000000
  0
VERTEX
  8
MERGEDLAYER-1
 10
39.766451
 20
19.176720
 30
0.000000
  0
SEQEND
  8
MERGEDLAYER-1
  0
POLYLINE
  8
MERGEDLAYER-1
 66
  1
 70
  0
 62
  7
 10
40.906480
 20
17.625958
 30
0.000000
  0
VERTEX
  8
MERGEDLAYER-1
 10
40.906480
 20
17.625958
 30
0.000000
  0
VERTEX
  8
MERGEDLAYER-1
 10
41.717886
 20
16.513052
 30
0.000000
  0
SEQEND
  8
MERGEDLAYER-1
  0
POLYLINE
  8
MERGEDLAYER-1
 66
  1
 70
  0
 62
  7
 10
40.699970
 20
17.908123
 30
0.000000
  0
VERTEX
  8
MERGEDLAYER-1
 10
40.699970
 20
17.908123
 30
0.000000
  0
VERTEX
  8
MERGEDLAYER-1
 10
41.087280
 20
17.974971
 30
0.000000
  0
SEQEND
  8
MERGEDLAYER-1
  0
POLYLINE
  8
MERGEDLAYER-1
 66
  1
 70
  0
 62
  7
 10
40.906480
 20
17.625958
 30
0.000000
  0
VERTEX
  8
MERGEDLAYER-1
 10
40.906480
 20
17.625958
 30
0.000000
  0
VERTEX
  8
MERGEDLAYER-1
 10
40.519170
 20
17.559077
 30
0.000000
  0
SEQEND
  8
MERGEDLAYER-1
  0
POLYLINE
  8
MERGEDLAYER-1
 66
  1
 70
  0
 62
  7
 10
41.087280
 20
17.974971
 30
0.000000
  0
VERTEX
  8
MERGEDLAYER-1
 10
41.087280
 20
17.974971
 30
0.000000
  0
VERTEX
  8
MERGEDLAYER-1
 10
40.519170
 20
17.559077
 30
0.000000
  0
SEQEND
  8
MERGEDLAYER-1
  0
LINE
  8
MERGEDLAYER-1
 62
  7
 10
50.167640
 20
17.041222
 30
0.000000
 11
50.167640
 21
18.627338
 31
0.000000
  0
LINE
  8
MERGEDLAYER-1
 62
  7
 10
49.768386
 20
17.021541
 30
0.000000
 11
51.167640
 21
17.021541
 31
0.000000
  0
LINE
  8
MERGEDLAYER-1
 62
  7
 10
49.768386
 20
18.647024
 30
0.000000
 11
51.167640
 21
18.647024
 31
0.000000
  0
POLYLINE
  8
MERGEDLAYER-1
 66
  1
 70
  1
 62
  7
  0
VERTEX
  8
MERGEDLAYER-1
 10
50.167640
 20
17.021541
 30
0.000000
  0
VERTEX
  8
MERGEDLAYER-1
 10
50.398409
 20
17.406156
 30
0.000000
  0
VERTEX
  8
MERGEDLAYER-1
 10
50.167640
 20
17.406156
 30
0.000000
  0
VERTEX
  8
MERGEDLAYER-1
 10
49.936871
 20
17.406156
 30
0.000000
  0
VERTEX
  8
MERGEDLAYER-1
 10
50.167640
 20
17.021541
 30
0.000000
  0
SEQEND
  8
MERGEDLAYER-1
  0
POLYLINE
  8
MERGEDLAYER-1
 66
  1
 70
  1
 62
  7
  0
VERTEX
  8
MERGEDLAYER-1
 10
50.167640
 20
18.647024
 30
0.000000
  0
VERTEX
  8
MERGEDLAYER-1
 10
50.398409
 20
18.262409
 30
0.000000
  0
VERTEX
  8
MERGEDLAYER-1
 10
50.167640
 20
18.262409
 30
0.000000
  0
VERTEX
  8
MERGEDLAYER-1
 10
49.936871
 20
18.262409
 30
0.000000
  0
VERTEX
  8
MERGEDLAYER-1
 10
50.167640
 20
18.647024
 30
0.000000
  0
SEQEND
  8
MERGEDLAYER-1
  0
TEXT
  8
MERGEDLAYER-1
 62
  7
 10
51.160626
 20
17.806824
 30
0.000000
 40
0.692308
  1
 
 50
90.000000
  0
TEXT
  8
MERGEDLAYER-1
 62
  7
 10
51.076923
 20
17.543410
 30
0.000000
 40
0.750000
  1
1 5/8" - 41mm
 72
  5
 11
57.769231
 21
17.543410
 31
0.000000
  0
TEXT
  8
MERGEDLAYER-1
 62
  7
 10
16.692308
 20
12.312641
 30
0.000000
 40
0.634615
  1
BARIL: 4" - 102mm dia          
 72
  5
 11
27.615385
 21
12.312641
 31
0.000000
  0
POLYLINE
  8
MERGEDLAYER-1
 66
  1
 70
  0
 62
  7
 10
13.375775
 20
15.496084
 30
0.000000
  0
VERTEX
  8
MERGEDLAYER-1
 10
13.375775
 20
15.496084
 30
0.000000
  0
VERTEX
  8
MERGEDLAYER-1
 10
27.188664
 20
15.496084
 30
0.000000
  0
SEQEND
  8
MERGEDLAYER-1
  0
POLYLINE
  8
MERGEDLAYER-1
 66
  1
 70
  0
 62
  7
 10
13.375775
 20
11.485643
 30
0.000000
  0
VERTEX
  8
MERGEDLAYER-1
 10
13.375775
 20
11.485643
 30
0.000000
  0
VERTEX
  8
MERGEDLAYER-1
 10
30.004956
 20
11.485643
 30
0.000000
  0
SEQEND
  8
MERGEDLAYER-1
  0
POLYLINE
  8
MERGEDLAYER-1
 66
  1
 70
  0
 62
  7
 10
13.375775
 20
11.485643
 30
0.000000
  0
VERTEX
  8
MERGEDLAYER-1
 10
13.375775
 20
11.485643
 30
0.000000
  0
VERTEX
  8
MERGEDLAYER-1
 10
13.375775
 20
15.496084
 30
0.000000
  0
SEQEND
  8
MERGEDLAYER-1
  0
POLYLINE
  8
MERGEDLAYER-1
 66
  1
 70
  0
 62
  7
 10
11.937092
 20
13.983441
 30
0.000000
  0
VERTEX
  8
MERGEDLAYER-1
 10
11.937092
 20
13.983441
 30
0.000000
  0
VERTEX
  8
MERGEDLAYER-1
 10
13.381265
 20
13.983441
 30
0.000000
  0
SEQEND
  8
MERGEDLAYER-1
  0
POLYLINE
  8
MERGEDLAYER-1
 66
  1
 70
  0
 62
  7
 10
13.381265
 20
12.983441
 30
0.000000
  0
VERTEX
  8
MERGEDLAYER-1
 10
13.381265
 20
12.983441
 30
0.000000
  0
VERTEX
  8
MERGEDLAYER-1
 10
11.937092
 20
12.983441
 30
0.000000
  0
SEQEND
  8
MERGEDLAYER-1
  0
POLYLINE
  8
MERGEDLAYER-1
 66
  1
 70
  0
 62
  7
 10
11.937092
 20
12.983441
 30
0.000000
  0
VERTEX
  8
MERGEDLAYER-1
 10
11.937092
 20
12.983441
 30
0.000000
  0
VERTEX
  8
MERGEDLAYER-1
 10
11.937092
 20
13.983441
 30
0.000000
  0
SEQEND
  8
MERGEDLAYER-1
  0
POLYLINE
  8
MERGEDLAYER-1
 66
  1
 70
  0
 62
  7
 10
12.307570
 20
14.624376
 30
0.000000
  0
VERTEX
  8
MERGEDLAYER-1
 10
12.307570
 20
14.624376
 30
0.000000
  0
VERTEX
  8
MERGEDLAYER-1
 10
12.307570
 20
12.377615
 30
0.000000
  0
SEQEND
  8
MERGEDLAYER-1
  0
POLYLINE
  8
MERGEDLAYER-1
 66
  1
 70
  1
 62
  7
 10
12.774483
 20
14.159743
 30
0.000000
  0
VERTEX
  8
MERGEDLAYER-1
 10
12.774483
 20
14.159743
 30
0.000000
  0
VERTEX
  8
MERGEDLAYER-1
 10
12.774483
 20
14.159743
 30
0.000000
  0
VERTEX
  8
MERGEDLAYER-1
 10
12.774483
 20
14.527306
 30
0.000000
  0
VERTEX
  8
MERGEDLAYER-1
 10
12.538700
 20
14.624376
 30
0.000000
  0
VERTEX
  8
MERGEDLAYER-1
 10
12.538700
 20
15.380235
 30
0.000000
  0
VERTEX
  8
MERGEDLAYER-1
 10
12.304994
 20
15.380235
 30
0.000000
  0
VERTEX
  8
MERGEDLAYER-1
 10
12.307570
 20
14.624376
 30
0.000000
  0
VERTEX
  8
MERGEDLAYER-1
 10
12.307570
 20
14.624376
 30
0.000000
  0
VERTEX
  8
MERGEDLAYER-1
 10
12.307570
 20
12.377615
 30
0.000000
  0
VERTEX
  8
MERGEDLAYER-1
 10
12.307570
 20
12.377615
 30
0.000000
  0
VERTEX
  8
MERGEDLAYER-1
 10
12.304994
 20
11.635489
 30
0.000000
  0
VERTEX
  8
MERGEDLAYER-1
 10
12.536125
 20
11.635489
 30
0.000000
  0
VERTEX
  8
MERGEDLAYER-1
 10
12.538700
 20
12.377615
 30
0.000000
  0
VERTEX
  8
MERGEDLAYER-1
 10
12.774483
 20
12.474731
 30
0.000000
  0
VERTEX
  8
MERGEDLAYER-1
 10
12.774483
 20
12.831815
 30
0.000000
  0
VERTEX
  8
MERGEDLAYER-1
 10
12.774483
 20
12.831815
 30
0.000000
  0
SEQEND
  8
MERGEDLAYER-1
  0
POLYLINE
  8
MERGEDLAYER-1
 66
  1
 70
  0
 62
  7
 10
12.538700
 20
14.624376
 30
0.000000
  0
VERTEX
  8
MERGEDLAYER-1
 10
12.538700
 20
14.624376
 30
0.000000
  0
VERTEX
  8
MERGEDLAYER-1
 10
12.538700
 20
12.377615
 30
0.000000
  0
SEQEND
  8
MERGEDLAYER-1
  0
POLYLINE
  8
MERGEDLAYER-1
 66
  1
 70
  0
 62
  7
 10
12.774483
 20
14.159743
 30
0.000000
  0
VERTEX
  8
MERGEDLAYER-1
 10
12.774483
 20
14.159743
 30
0.000000
  0
VERTEX
  8
MERGEDLAYER-1
 10
12.774483
 20
12.831815
 30
0.000000
  0
SEQEND
  8
MERGEDLAYER-1
  0
POLYLINE
  8
MERGEDLAYER-1
 66
  1
 70
  0
 62
  7
 10
12.420828
 20
15.380085
 30
0.000000
  0
VERTEX
  8
MERGEDLAYER-1
 10
12.420828
 20
15.380085
 30
0.000000
  0
VERTEX
  8
MERGEDLAYER-1
 10
12.420828
 20
11.634780
 30
0.000000
  0
SEQEND
  8
MERGEDLAYER-1
  0
POLYLINE
  8
MERGEDLAYER-1
 66
  1
 70
  1
 62
  7
  0
VERTEX
  8
MERGEDLAYER-1
 10
12.774483
 20
14.159743
 30
0.000000
  0
VERTEX
  8
MERGEDLAYER-1
 10
13.193981
 20
14.159743
 30
0.000000
  0
VERTEX
  8
MERGEDLAYER-1
 10
13.193981
 20
12.831815
 30
0.000000
  0
VERTEX
  8
MERGEDLAYER-1
 10
12.774483
 20
12.831815
 30
0.000000
  0
SEQEND
  8
MERGEDLAYER-1
  0
POLYLINE
  8
MERGEDLAYER-1
 66
  1
 70
  0
 62
  7
 10
13.119604
 20
13.338877
 30
0.000000
  0
VERTEX
  8
MERGEDLAYER-1
 10
13.119604
 20
13.338877
 30
0.000000
  0
VERTEX
  8
MERGEDLAYER-1
 10
13.084525
 20
13.423570
 30
0.000000
  0
VERTEX
  8
MERGEDLAYER-1
 10
12.999838
 20
13.458651
 30
0.000000
  0
VERTEX
  8
MERGEDLAYER-1
 10
12.915152
 20
13.423570
 30
0.000000
  0
VERTEX
  8
MERGEDLAYER-1
 10
12.880073
 20
13.338877
 30
0.000000
  0
VERTEX
  8
MERGEDLAYER-1
 10
12.915152
 20
13.254188
 30
0.000000
  0
VERTEX
  8
MERGEDLAYER-1
 10
12.999838
 20
13.219107
 30
0.000000
  0
VERTEX
  8
MERGEDLAYER-1
 10
13.084525
 20
13.254188
 30
0.000000
  0
VERTEX
  8
MERGEDLAYER-1
 10
13.119604
 20
13.338877
 30
0.000000
  0
SEQEND
  8
MERGEDLAYER-1
  0
POLYLINE
  8
MERGEDLAYER-1
 66
  1
 70
  1
 62
  7
  0
VERTEX
  8
MERGEDLAYER-1
 10
12.124869
 20
15.380235
 30
0.000000
  0
VERTEX
  8
MERGEDLAYER-1
 10
12.304994
 20
15.380235
 30
0.000000
  0
VERTEX
  8
MERGEDLAYER-1
 10
12.304994
 20
11.635489
 30
0.000000
  0
VERTEX
  8
MERGEDLAYER-1
 10
12.124869
 20
11.635489
 30
0.000000
  0
SEQEND
  8
MERGEDLAYER-1
  0
POLYLINE
  8
MERGEDLAYER-1
 66
  1
 70
  1
 62
255
 10
46.276794
 20
14.655273
 30
0.000000
  0
VERTEX
  8
MERGEDLAYER-1
 10
46.276794
 20
14.655273
 30
0.000000
  0
VERTEX
  8
MERGEDLAYER-1
 10
28.458052
 20
14.654818
 30
0.000000
  0
VERTEX
  8
MERGEDLAYER-1
 10
29.227255
 20
13.568270
 30
0.000000
  0
VERTEX
  8
MERGEDLAYER-1
 10
30.092604
 20
13.712510
 30
0.000000
  0
VERTEX
  8
MERGEDLAYER-1
 10
28.833031
 20
12.875967
 30
0.000000
  0
VERTEX
  8
MERGEDLAYER-1
 10
29.602239
 20
13.020198
 30
0.000000
  0
VERTEX
  8
MERGEDLAYER-1
 10
30.092604
 20
12.327886
 30
0.000000
  0
VERTEX
  8
MERGEDLAYER-1
 10
46.276794
 20
12.322191
 30
0.000000
  0
SEQEND
  8
MERGEDLAYER-1
  0
POLYLINE
  8
MERGEDLAYER-1
 66
  1
 70
  0
 62
  7
 10
29.227255
 20
13.568270
 30
0.000000
  0
VERTEX
  8
MERGEDLAYER-1
 10
29.227255
 20
13.568270
 30
0.000000
  0
VERTEX
  8
MERGEDLAYER-1
 10
27.078294
 20
16.637423
 30
0.000000
  0
SEQEND
  8
MERGEDLAYER-1
  0
POLYLINE
  8
MERGEDLAYER-1
 66
  1
 70
  0
 62
  7
 10
29.602239
 20
13.020198
 30
0.000000
  0
VERTEX
  8
MERGEDLAYER-1
 10
29.602239
 20
13.020198
 30
0.000000
  0
VERTEX
  8
MERGEDLAYER-1
 10
31.390583
 20
10.466008
 30
0.000000
  0
SEQEND
  8
MERGEDLAYER-1
  0
POLYLINE
  8
MERGEDLAYER-1
 66
  1
 70
  0
 62
  7
 10
29.227255
 20
13.568270
 30
0.000000
  0
VERTEX
  8
MERGEDLAYER-1
 10
29.227255
 20
13.568270
 30
0.000000
  0
VERTEX
  8
MERGEDLAYER-1
 10
30.092604
 20
13.712510
 30
0.000000
  0
SEQEND
  8
MERGEDLAYER-1
  0
POLYLINE
  8
MERGEDLAYER-1
 66
  1
 70
  0
 62
  7
 10
30.092604
 20
13.712510
 30
0.000000
  0
VERTEX
  8
MERGEDLAYER-1
 10
30.092604
 20
13.712510
 30
0.000000
  0
VERTEX
  8
MERGEDLAYER-1
 10
28.833031
 20
12.875967
 30
0.000000
  0
SEQEND
  8
MERGEDLAYER-1
  0
POLYLINE
  8
MERGEDLAYER-1
 66
  1
 70
  0
 62
  7
 10
28.833031
 20
12.875967
 30
0.000000
  0
VERTEX
  8
MERGEDLAYER-1
 10
28.833031
 20
12.875967
 30
0.000000
  0
VERTEX
  8
MERGEDLAYER-1
 10
29.602239
 20
13.020198
 30
0.000000
  0
SEQEND
  8
MERGEDLAYER-1
  0
TEXT
  8
MERGEDLAYER-1
 62
  7
 10
34.538462
 20
13.158795
 30
0.000000
 40
0.576923
  1
MOTEUR TUBULAIRE
 72
  5
 11
42.846154
 21
13.158795
 31
0.000000
  0
POLYLINE
  8
MERGEDLAYER-1
  6
LTYPE01
 66
  1
 70
  0
 62
  7
  6
LTYPE01
 10
46.276794
 20
14.655273
 30
0.000000
  0
VERTEX
  8
MERGEDLAYER-1
  6
LTYPE01
 10
46.276794
 20
14.655273
 30
0.000000
  0
VERTEX
  8
MERGEDLAYER-1
  6
LTYPE01
 10
46.276794
 20
12.322191
 30
0.000000
  0
SEQEND
  8
MERGEDLAYER-1
  0
POLYLINE
  8
MERGEDLAYER-1
  6
LTYPE01
 66
  1
 70
  1
 62
  7
  0
VERTEX
  8
MERGEDLAYER-1
  6
LTYPE01
 10
46.277456
 20
15.308293
 30
0.000000
  0
VERTEX
  8
MERGEDLAYER-1
  6
LTYPE01
 10
47.492267
 20
15.308293
 30
0.000000
  0
VERTEX
  8
MERGEDLAYER-1
  6
LTYPE01
 10
47.492267
 20
11.685514
 30
0.000000
  0
VERTEX
  8
MERGEDLAYER-1
  6
LTYPE01
 10
46.277456
 20
11.685514
 30
0.000000
  0
SEQEND
  8
MERGEDLAYER-1
  0
POLYLINE
  8
MERGEDLAYER-1
 66
  1
 70
  0
 62
  7
 10
47.492267
 20
11.485643
 30
0.000000
  0
VERTEX
  8
MERGEDLAYER-1
 10
47.492267
 20
11.485643
 30
0.000000
  0
VERTEX
  8
MERGEDLAYER-1
 10
47.492267
 20
15.496084
 30
0.000000
  0
SEQEND
  8
MERGEDLAYER-1
  0
POLYLINE
  8
MERGEDLAYER-1
 66
  1
 70
  1
 62
  7
  0
VERTEX
  8
MERGEDLAYER-1
 10
48.754493
 20
15.377085
 30
0.000000
  0
VERTEX
  8
MERGEDLAYER-1
 10
48.754493
 20
11.090764
 30
0.000000
  0
VERTEX
  8
MERGEDLAYER-1
 10
47.622911
 20
11.090764
 30
0.000000
  0
VERTEX
  8
MERGEDLAYER-1
 10
47.622911
 20
15.377085
 30
0.000000
  0
SEQEND
  8
MERGEDLAYER-1
  0
POLYLINE
  8
MERGEDLAYER-1
 66
  1
 70
  0
 62
  7
 10
48.426917
 20
11.646001
 30
0.000000
  0
VERTEX
  8
MERGEDLAYER-1
 10
48.426917
 20
11.646001
 30
0.000000
  0
VERTEX
  8
MERGEDLAYER-1
 10
48.408818
 20
11.736985
 30
0.000000
  0
VERTEX
  8
MERGEDLAYER-1
 10
48.357281
 20
11.814124
 30
0.000000
  0
VERTEX
  8
MERGEDLAYER-1
 10
48.280147
 20
11.865662
 30
0.000000
  0
VERTEX
  8
MERGEDLAYER-1
 10
48.189167
 20
11.883756
 30
0.000000
  0
VERTEX
  8
MERGEDLAYER-1
 10
48.098182
 20
11.865662
 30
0.000000
  0
VERTEX
  8
MERGEDLAYER-1
 10
48.021048
 20
11.814124
 30
0.000000
  0
VERTEX
  8
MERGEDLAYER-1
 10
47.969511
 20
11.736985
 30
0.000000
  0
VERTEX
  8
MERGEDLAYER-1
 10
47.951416
 20
11.646001
 30
0.000000
  0
VERTEX
  8
MERGEDLAYER-1
 10
47.969511
 20
11.555016
 30
0.000000
  0
VERTEX
  8
MERGEDLAYER-1
 10
48.021048
 20
11.477877
 30
0.000000
  0
VERTEX
  8
MERGEDLAYER-1
 10
48.098182
 20
11.426340
 30
0.000000
  0
VERTEX
  8
MERGEDLAYER-1
 10
48.189167
 20
11.408241
 30
0.000000
  0
VERTEX
  8
MERGEDLAYER-1
 10
48.280147
 20
11.426340
 30
0.000000
  0
VERTEX
  8
MERGEDLAYER-1
 10
48.357281
 20
11.477877
 30
0.000000
  0
VERTEX
  8
MERGEDLAYER-1
 10
48.408818
 20
11.555016
 30
0.000000
  0
VERTEX
  8
MERGEDLAYER-1
 10
48.426917
 20
11.646001
 30
0.000000
  0
SEQEND
  8
MERGEDLAYER-1
  0
POLYLINE
  8
MERGEDLAYER-1
 66
  1
 70
  1
 62
  7
  0
VERTEX
  8
MERGEDLAYER-1
 10
47.622911
 20
15.496084
 30
0.000000
  0
VERTEX
  8
MERGEDLAYER-1
 10
47.622911
 20
11.483844
 30
0.000000
  0
VERTEX
  8
MERGEDLAYER-1
 10
47.492267
 20
11.483844
 30
0.000000
  0
VERTEX
  8
MERGEDLAYER-1
 10
47.492267
 20
15.496084
 30
0.000000
  0
SEQEND
  8
MERGEDLAYER-1
  0
POLYLINE
  8
MERGEDLAYER-1
 66
  1
 70
  0
 62
253
 10
48.751986
 20
11.890043
 30
0.000000
  0
VERTEX
  8
MERGEDLAYER-1
 10
48.751986
 20
11.890043
 30
0.000000
  0
VERTEX
  8
MERGEDLAYER-1
 10
47.625418
 20
11.890043
 30
0.000000
  0
SEQEND
  8
MERGEDLAYER-1
  0
POLYLINE
  8
MERGEDLAYER-1
 66
  1
 70
  0
 62
253
 10
48.751986
 20
14.968036
 30
0.000000
  0
VERTEX
  8
MERGEDLAYER-1
 10
48.751986
 20
14.968036
 30
0.000000
  0
VERTEX
  8
MERGEDLAYER-1
 10
47.635479
 20
14.968036
 30
0.000000
  0
SEQEND
  8
MERGEDLAYER-1
  0
POLYLINE
  8
MERGEDLAYER-1
 66
  1
 70
  0
 62
  7
 10
47.836651
 20
14.261338
 30
0.000000
  0
VERTEX
  8
MERGEDLAYER-1
 10
47.836651
 20
14.261338
 30
0.000000
  0
VERTEX
  8
MERGEDLAYER-1
 10
47.836651
 20
12.796227
 30
0.000000
  0
SEQEND
  8
MERGEDLAYER-1
  0
POLYLINE
  8
MERGEDLAYER-1
 66
  1
 70
  0
 62
  7
 10
48.371019
 20
12.755873
 30
0.000000
  0
VERTEX
  8
MERGEDLAYER-1
 10
48.371019
 20
12.755873
 30
0.000000
  0
VERTEX
  8
MERGEDLAYER-1
 10
48.338351
 20
12.849281
 30
0.000000
  0
VERTEX
  8
MERGEDLAYER-1
 10
48.275006
 20
12.922011
 30
0.000000
  0
VERTEX
  8
MERGEDLAYER-1
 10
48.188650
 20
12.964961
 30
0.000000
  0
VERTEX
  8
MERGEDLAYER-1
 10
48.125836
 20
12.971633
 30
0.000000
  0
SEQEND
  8
MERGEDLAYER-1
  0
POLYLINE
  8
MERGEDLAYER-1
 66
  1
 70
  1
 62
  7
 10
48.371005
 20
12.755873
 30
0.000000
  0
VERTEX
  8
MERGEDLAYER-1
 10
48.371005
 20
12.755873
 30
0.000000
  0
VERTEX
  8
MERGEDLAYER-1
 10
48.319453
 20
12.799889
 30
0.000000
  0
VERTEX
  8
MERGEDLAYER-1
 10
48.389874
 20
12.814974
 30
0.000000
  0
SEQEND
  8
MERGEDLAYER-1
  0
POLYLINE
  8
MERGEDLAYER-1
 66
  1
 70
  1
 62
  7
 10
48.125836
 20
12.971647
 30
0.000000
  0
VERTEX
  8
MERGEDLAYER-1
 10
48.125836
 20
12.971647
 30
0.000000
  0
VERTEX
  8
MERGEDLAYER-1
 10
48.173617
 20
12.930659
 30
0.000000
  0
VERTEX
  8
MERGEDLAYER-1
 10
48.173617
 20
13.001070
 30
0.000000
  0
SEQEND
  8
MERGEDLAYER-1
  0
POLYLINE
  8
MERGEDLAYER-1
 66
  1
 70
  0
 62
  7
 10
48.125836
 20
14.025818
 30
0.000000
  0
VERTEX
  8
MERGEDLAYER-1
 10
48.125836
 20
14.025818
 30
0.000000
  0
VERTEX
  8
MERGEDLAYER-1
 10
48.218459
 20
14.046603
 30
0.000000
  0
VERTEX
  8
MERGEDLAYER-1
 10
48.298650
 20
14.100187
 30
0.000000
  0
VERTEX
  8
MERGEDLAYER-1
 10
48.352234
 20
14.180382
 30
0.000000
  0
VERTEX
  8
MERGEDLAYER-1
 10
48.371019
 20
14.241577
 30
0.000000
  0
SEQEND
  8
MERGEDLAYER-1
  0
POLYLINE
  8
MERGEDLAYER-1
 66
  1
 70
  1
 62
  7
 10
48.371005
 20
14.241577
 30
0.000000
  0
VERTEX
  8
MERGEDLAYER-1
 10
48.371005
 20
14.241577
 30
0.000000
  0
VERTEX
  8
MERGEDLAYER-1
 10
48.319453
 20
14.197561
 30
0.000000
  0
VERTEX
  8
MERGEDLAYER-1
 10
48.389874
 20
14.182476
 30
0.000000
  0
SEQEND
  8
MERGEDLAYER-1
  0
POLYLINE
  8
MERGEDLAYER-1
 66
  1
 70
  1
 62
  7
 10
48.125836
 20
14.025818
 30
0.000000
  0
VERTEX
  8
MERGEDLAYER-1
 10
48.125836
 20
14.025818
 30
0.000000
  0
VERTEX
  8
MERGEDLAYER-1
 10
48.173617
 20
14.066801
 30
0.000000
  0
VERTEX
  8
MERGEDLAYER-1
 10
48.173617
 20
13.996390
 30
0.000000
  0
SEQEND
  8
MERGEDLAYER-1
  0
POLYLINE
  8
MERGEDLAYER-1
 66
  1
 70
  0
 62
253
 10
48.197500
 20
11.095360
 30
0.000000
  0
VERTEX
  8
MERGEDLAYER-1
 10
48.197500
 20
11.095360
 30
0.000000
  0
VERTEX
  8
MERGEDLAYER-1
 10
48.197500
 20
15.374624
 30
0.000000
  0
SEQEND
  8
MERGEDLAYER-1
  0
POLYLINE
  8
MERGEDLAYER-1
 66
  1
 70
  1
 62
  7
 10
48.259831
 20
11.761240
 30
0.000000
  0
VERTEX
  8
MERGEDLAYER-1
 10
48.259831
 20
11.761240
 30
0.000000
  0
VERTEX
  8
MERGEDLAYER-1
 10
48.117577
 20
11.761240
 30
0.000000
  0
VERTEX
  8
MERGEDLAYER-1
 10
48.046434
 20
11.638024
 30
0.000000
  0
VERTEX
  8
MERGEDLAYER-1
 10
48.117558
 20
11.514794
 30
0.000000
  0
VERTEX
  8
MERGEDLAYER-1
 10
48.259831
 20
11.514794
 30
0.000000
  0
VERTEX
  8
MERGEDLAYER-1
 10
48.330989
 20
11.638024
 30
0.000000
  0
SEQEND
  8
MERGEDLAYER-1
  0
POLYLINE
  8
MERGEDLAYER-1
 66
  1
 70
  0
 62
  7
 10
48.544974
 20
13.550772
 30
0.000000
  0
VERTEX
  8
MERGEDLAYER-1
 10
48.544974
 20
13.550772
 30
0.000000
  0
VERTEX
  8
MERGEDLAYER-1
 10
48.544974
 20
14.099980
 30
0.000000
  0
SEQEND
  8
MERGEDLAYER-1
  0
POLYLINE
  8
MERGEDLAYER-1
 66
  1
 70
  1
 62
  7
 10
48.619206
 20
13.860427
 30
0.000000
  0
VERTEX
  8
MERGEDLAYER-1
 10
48.619206
 20
13.860427
 30
0.000000
  0
VERTEX
  8
MERGEDLAYER-1
 10
48.452623
 20
13.860427
 30
0.000000
  0
VERTEX
  8
MERGEDLAYER-1
 10
48.546772
 20
14.128385
 30
0.000000
  0
SEQEND
  8
MERGEDLAYER-1
  0
POLYLINE
  8
MERGEDLAYER-1
 66
  1
 70
  0
 62
  7
 10
48.544974
 20
13.417443
 30
0.000000
  0
VERTEX
  8
MERGEDLAYER-1
 10
48.544974
 20
13.417443
 30
0.000000
  0
VERTEX
  8
MERGEDLAYER-1
 10
48.544974
 20
12.868225
 30
0.000000
  0
SEQEND
  8
MERGEDLAYER-1
  0
POLYLINE
  8
MERGEDLAYER-1
 66
  1
 70
  1
 62
  7
 10
48.619206
 20
13.113878
 30
0.000000
  0
VERTEX
  8
MERGEDLAYER-1
 10
48.619206
 20
13.113878
 30
0.000000
  0
VERTEX
  8
MERGEDLAYER-1
 10
48.452637
 20
13.113878
 30
0.000000
  0
VERTEX
  8
MERGEDLAYER-1
 10
48.546772
 20
12.845896
 30
0.000000
  0
SEQEND
  8
MERGEDLAYER-1
  0
POLYLINE
  8
MERGEDLAYER-1
 66
  1
 70
  0
 62
253
 10
48.751986
 20
12.028100
 30
0.000000
  0
VERTEX
  8
MERGEDLAYER-1
 10
48.751986
 20
12.028100
 30
0.000000
  0
VERTEX
  8
MERGEDLAYER-1
 10
47.625418
 20
12.028100
 30
0.000000
  0
SEQEND
  8
MERGEDLAYER-1
  0
TEXT
  8
MERGEDLAYER-1
 62
  7
 10
47.846154
 20
14.235718
 30
0.000000
 40
0.288462
  1
+
 50
270.000000
 72
  5
 11
47.846154
 21
13.620333
 31
0.000000
  0
TEXT
  8
MERGEDLAYER-1
 62
  7
 10
48.230769
 20
12.620333
 30
0.000000
 40
0.288462
  1
+
 50
270.000000
 72
  5
 11
48.230769
 21
12.004949
 31
0.000000
  0
TEXT
  8
MERGEDLAYER-1
 62
  7
 10
48.615385
 20
14.697256
 30
0.000000
 40
0.288462
  1
_
 50
270.000000
 72
  5
 11
48.615385
 21
14.081872
 31
0.000000
  0
TEXT
  8
MERGEDLAYER-1
 62
  7
 10
48.000000
 20
13.235718
 30
0.000000
 40
0.288462
  1
_
 50
270.000000
 72
  5
 11
48.000000
 21
12.620333
 31
0.000000
  0
POLYLINE
  8
MERGEDLAYER-1
 66
  1
 70
  0
 62
  7
 10
48.012738
 20
13.477548
 30
0.000000
  0
VERTEX
  8
MERGEDLAYER-1
 10
48.012738
 20
13.477548
 30
0.000000
  0
VERTEX
  8
MERGEDLAYER-1
 10
47.958233
 20
13.609136
 30
0.000000
  0
VERTEX
  8
MERGEDLAYER-1
 10
47.826651
 20
13.663645
 30
0.000000
  0
VERTEX
  8
MERGEDLAYER-1
 10
47.695068
 20
13.609136
 30
0.000000
  0
VERTEX
  8
MERGEDLAYER-1
 10
47.640569
 20
13.477548
 30
0.000000
  0
VERTEX
  8
MERGEDLAYER-1
 10
47.695068
 20
13.345966
 30
0.000000
  0
VERTEX
  8
MERGEDLAYER-1
 10
47.826651
 20
13.291457
 30
0.000000
  0
VERTEX
  8
MERGEDLAYER-1
 10
47.958233
 20
13.345966
 30
0.000000
  0
VERTEX
  8
MERGEDLAYER-1
 10
48.012738
 20
13.477548
 30
0.000000
  0
SEQEND
  8
MERGEDLAYER-1
  0
POLYLINE
  8
MERGEDLAYER-1
 66
  1
 70
  0
 62
  7
 10
46.492347
 20
11.082116
 30
0.000000
  0
VERTEX
  8
MERGEDLAYER-1
 10
46.492347
 20
11.082116
 30
0.000000
  0
VERTEX
  8
MERGEDLAYER-1
 10
46.830867
 20
11.731380
 30
0.000000
  0
VERTEX
  8
MERGEDLAYER-1
 10
47.023973
 20
12.349464
 30
0.000000
  0
SEQEND
  8
MERGEDLAYER-1
  0
POLYLINE
  8
MERGEDLAYER-1
 66
  1
 70
  0
 62
  7
 10
47.873333
 20
13.366521
 30
0.000000
  0
VERTEX
  8
MERGEDLAYER-1
 10
47.873333
 20
13.366521
 30
0.000000
  0
VERTEX
  8
MERGEDLAYER-1
 10
47.599370
 20
13.199702
 30
0.000000
  0
VERTEX
  8
MERGEDLAYER-1
 10
47.365535
 20
12.981098
 30
0.000000
  0
VERTEX
  8
MERGEDLAYER-1
 10
47.178838
 20
12.721069
 30
0.000000
  0
VERTEX
  8
MERGEDLAYER-1
 10
47.046457
 20
12.429612
 30
0.000000
  0
VERTEX
  8
MERGEDLAYER-1
 10
47.023977
 20
12.349469
 30
0.000000
  0
SEQEND
  8
MERGEDLAYER-1
  0
POLYLINE
  8
MERGEDLAYER-1
 66
  1
 70
  0
 62
  7
 10
47.873329
 20
13.366516
 30
0.000000
  0
VERTEX
  8
MERGEDLAYER-1
 10
47.873329
 20
13.366516
 30
0.000000
  0
VERTEX
  8
MERGEDLAYER-1
 10
47.768259
 20
13.581196
 30
0.000000
  0
SEQEND
  8
MERGEDLAYER-1
  0
POLYLINE
  8
MERGEDLAYER-1
 66
  1
 70
  0
 62
  7
 10
47.768259
 20
13.581200
 30
0.000000
  0
VERTEX
  8
MERGEDLAYER-1
 10
47.768259
 20
13.581200
 30
0.000000
  0
VERTEX
  8
MERGEDLAYER-1
 10
47.456698
 20
13.391930
 30
0.000000
  0
VERTEX
  8
MERGEDLAYER-1
 10
47.190355
 20
13.143968
 30
0.000000
  0
VERTEX
  8
MERGEDLAYER-1
 10
46.977506
 20
12.848802
 30
0.000000
  0
VERTEX
  8
MERGEDLAYER-1
 10
46.826332
 20
12.517780
 30
0.000000
  0
VERTEX
  8
MERGEDLAYER-1
 10
46.792579
 20
12.399269
 30
0.000000
  0
SEQEND
  8
MERGEDLAYER-1
  0
POLYLINE
  8
MERGEDLAYER-1
 66
  1
 70
  0
 62
  7
 10
46.294697
 20
11.212308
 30
0.000000
  0
VERTEX
  8
MERGEDLAYER-1
 10
46.294697
 20
11.212308
 30
0.000000
  0
VERTEX
  8
MERGEDLAYER-1
 10
46.611615
 20
11.820505
 30
0.000000
  0
VERTEX
  8
MERGEDLAYER-1
 10
46.792593
 20
12.399259
 30
0.000000
  0
SEQEND
  8
MERGEDLAYER-1
  0
POLYLINE
  8
MERGEDLAYER-1
 66
  1
 70
  0
 62
  7
 10
46.492347
 20
11.082120
 30
0.000000
  0
VERTEX
  8
MERGEDLAYER-1
 10
46.492347
 20
11.082120
 30
0.000000
  0
VERTEX
  8
MERGEDLAYER-1
 10
46.294697
 20
11.212308
 30
0.000000
  0
SEQEND
  8
MERGEDLAYER-1
  0
POLYLINE
  8
MERGEDLAYER-1
 66
  1
 70
  0
 62
255
 10
47.949125
 20
13.477548
 30
0.000000
  0
VERTEX
  8
MERGEDLAYER-1
 10
47.949125
 20
13.477548
 30
0.000000
  0
VERTEX
  8
MERGEDLAYER-1
 10
47.913250
 20
13.564153
 30
0.000000
  0
VERTEX
  8
MERGEDLAYER-1
 10
47.826651
 20
13.600027
 30
0.000000
  0
VERTEX
  8
MERGEDLAYER-1
 10
47.740056
 20
13.564153
 30
0.000000
  0
VERTEX
  8
MERGEDLAYER-1
 10
47.704181
 20
13.477548
 30
0.000000
  0
VERTEX
  8
MERGEDLAYER-1
 10
47.740056
 20
13.390949
 30
0.000000
  0
VERTEX
  8
MERGEDLAYER-1
 10
47.826651
 20
13.355074
 30
0.000000
  0
VERTEX
  8
MERGEDLAYER-1
 10
47.913250
 20
13.390949
 30
0.000000
  0
VERTEX
  8
MERGEDLAYER-1
 10
47.949125
 20
13.477548
 30
0.000000
  0
SEQEND
  8
MERGEDLAYER-1
  0
POLYLINE
  8
MERGEDLAYER-1
 66
  1
 70
  0
 62
  7
 10
47.874756
 20
13.363028
 30
0.000000
  0
VERTEX
  8
MERGEDLAYER-1
 10
47.874756
 20
13.363028
 30
0.000000
  0
VERTEX
  8
MERGEDLAYER-1
 10
47.938866
 20
13.430589
 30
0.000000
  0
VERTEX
  8
MERGEDLAYER-1
 10
47.939204
 20
13.523696
 30
0.000000
  0
VERTEX
  8
MERGEDLAYER-1
 10
47.873610
 20
13.589769
 30
0.000000
  0
VERTEX
  8
MERGEDLAYER-1
 10
47.780513
 20
13.590107
 30
0.000000
  0
VERTEX
  8
MERGEDLAYER-1
 10
47.768273
 20
13.581200
 30
0.000000
  0
SEQEND
  8
MERGEDLAYER-1
  0
POLYLINE
  8
MERGEDLAYER-1
 66
  1
 70
  1
 62
255
  0
VERTEX
  8
MERGEDLAYER-1
 10
46.621591
 20
11.267630
 30
0.000000
  0
VERTEX
  8
MERGEDLAYER-1
 10
46.621591
 20
11.016160
 30
0.000000
  0
VERTEX
  8
MERGEDLAYER-1
 10
46.219248
 20
11.016160
 30
0.000000
  0
VERTEX
  8
MERGEDLAYER-1
 10
46.219248
 20
11.267630
 30
0.000000
  0
SEQEND
  8
MERGEDLAYER-1
  0
POLYLINE
  8
MERGEDLAYER-1
 66
  1
 70
  0
 62
  7
 10
47.949824
 20
14.331764
 30
0.000000
  0
VERTEX
  8
MERGEDLAYER-1
 10
47.949824
 20
14.331764
 30
0.000000
  0
VERTEX
  8
MERGEDLAYER-1
 10
47.913156
 20
14.420297
 30
0.000000
  0
VERTEX
  8
MERGEDLAYER-1
 10
47.824623
 20
14.456970
 30
0.000000
  0
VERTEX
  8
MERGEDLAYER-1
 10
47.736089
 20
14.420297
 30
0.000000
  0
VERTEX
  8
MERGEDLAYER-1
 10
47.699421
 20
14.331764
 30
0.000000
  0
VERTEX
  8
MERGEDLAYER-1
 10
47.736089
 20
14.243225
 30
0.000000
  0
VERTEX
  8
MERGEDLAYER-1
 10
47.824623
 20
14.206552
 30
0.000000
  0
VERTEX
  8
MERGEDLAYER-1
 10
47.913156
 20
14.243225
 30
0.000000
  0
VERTEX
  8
MERGEDLAYER-1
 10
47.949824
 20
14.331764
 30
0.000000
  0
SEQEND
  8
MERGEDLAYER-1
  0
POLYLINE
  8
MERGEDLAYER-1
 66
  1
 70
  0
 62
  7
 10
47.949824
 20
12.696665
 30
0.000000
  0
VERTEX
  8
MERGEDLAYER-1
 10
47.949824
 20
12.696665
 30
0.000000
  0
VERTEX
  8
MERGEDLAYER-1
 10
47.913156
 20
12.785203
 30
0.000000
  0
VERTEX
  8
MERGEDLAYER-1
 10
47.824623
 20
12.821871
 30
0.000000
  0
VERTEX
  8
MERGEDLAYER-1
 10
47.736089
 20
12.785203
 30
0.000000
  0
VERTEX
  8
MERGEDLAYER-1
 10
47.699421
 20
12.696665
 30
0.000000
  0
VERTEX
  8
MERGEDLAYER-1
 10
47.736089
 20
12.608131
 30
0.000000
  0
VERTEX
  8
MERGEDLAYER-1
 10
47.824623
 20
12.571458
 30
0.000000
  0
VERTEX
  8
MERGEDLAYER-1
 10
47.913156
 20
12.608131
 30
0.000000
  0
VERTEX
  8
MERGEDLAYER-1
 10
47.949824
 20
12.696665
 30
0.000000
  0
SEQEND
  8
MERGEDLAYER-1
  0
POLYLINE
  8
MERGEDLAYER-1
 66
  1
 70
  0
 62
  7
 10
28.500707
 20
15.496084
 30
0.000000
  0
VERTEX
  8
MERGEDLAYER-1
 10
28.500707
 20
15.496084
 30
0.000000
  0
VERTEX
  8
MERGEDLAYER-1
 10
47.492267
 20
15.496084
 30
0.000000
  0
SEQEND
  8
MERGEDLAYER-1
  0
POLYLINE
  8
MERGEDLAYER-1
  6
LTYPE01
 66
  1
 70
  0
 62
  7
  6
LTYPE01
 10
28.448435
 20
14.654818
 30
0.000000
  0
VERTEX
  8
MERGEDLAYER-1
  6
LTYPE01
 10
28.448435
 20
14.654818
 30
0.000000
  0
VERTEX
  8
MERGEDLAYER-1
  6
LTYPE01
 10
46.276794
 20
14.655273
 30
0.000000
  0
SEQEND
  8
MERGEDLAYER-1
  0
POLYLINE
  8
MERGEDLAYER-1
  6
LTYPE01
 66
  1
 70
  0
 62
  7
  6
LTYPE01
 10
46.276794
 20
12.322191
 30
0.000000
  0
VERTEX
  8
MERGEDLAYER-1
  6
LTYPE01
 10
46.276794
 20
12.322191
 30
0.000000
  0
VERTEX
  8
MERGEDLAYER-1
  6
LTYPE01
 10
30.082984
 20
12.327886
 30
0.000000
  0
SEQEND
  8
MERGEDLAYER-1
  0
POLYLINE
  8
MERGEDLAYER-1
 66
  1
 70
  1
 62
  7
  0
VERTEX
  8
MERGEDLAYER-1
 10
46.659447
 20
17.520865
 30
0.000000
  0
VERTEX
  8
MERGEDLAYER-1
 10
46.879301
 20
17.520865
 30
0.000000
  0
VERTEX
  8
MERGEDLAYER-1
 10
46.879301
 20
17.396480
 30
0.000000
  0
VERTEX
  8
MERGEDLAYER-1
 10
46.659447
 20
17.396480
 30
0.000000
  0
SEQEND
  8
MERGEDLAYER-1
  0
POLYLINE
  8
MERGEDLAYER-1
 66
  1
 70
  0
 62
  7
 10
46.610084
 20
17.395893
 30
0.000000
  0
VERTEX
  8
MERGEDLAYER-1
 10
46.610084
 20
17.395893
 30
0.000000
  0
VERTEX
  8
MERGEDLAYER-1
 10
46.922565
 20
17.395893
 30
0.000000
  0
SEQEND
  8
MERGEDLAYER-1
  0
POLYLINE
  8
MERGEDLAYER-1
 66
  1
 70
  1
 62
  7
  0
VERTEX
  8
MERGEDLAYER-1
 10
46.879301
 20
18.205698
 30
0.000000
  0
VERTEX
  8
MERGEDLAYER-1
 10
46.659447
 20
18.205698
 30
0.000000
  0
VERTEX
  8
MERGEDLAYER-1
 10
46.659447
 20
18.330083
 30
0.000000
  0
VERTEX
  8
MERGEDLAYER-1
 10
46.879301
 20
18.330083
 30
0.000000
  0
SEQEND
  8
MERGEDLAYER-1
  0
POLYLINE
  8
MERGEDLAYER-1
 66
  1
 70
  0
 62
  7
 10
46.610084
 20
18.330674
 30
0.000000
  0
VERTEX
  8
MERGEDLAYER-1
 10
46.610084
 20
18.330674
 30
0.000000
  0
VERTEX
  8
MERGEDLAYER-1
 10
46.922565
 20
18.330674
 30
0.000000
  0
SEQEND
  8
MERGEDLAYER-1
  0
POLYLINE
  8
MERGEDLAYER-1
 66
  1
 70
  1
 62
  7
  0
VERTEX
  8
MERGEDLAYER-1
 10
14.008440
 20
17.496737
 30
0.000000
  0
VERTEX
  8
MERGEDLAYER-1
 10
14.228295
 20
17.496737
 30
0.000000
  0
VERTEX
  8
MERGEDLAYER-1
 10
14.228295
 20
17.372357
 30
0.000000
  0
VERTEX
  8
MERGEDLAYER-1
 10
14.008440
 20
17.372357
 30
0.000000
  0
SEQEND
  8
MERGEDLAYER-1
  0
POLYLINE
  8
MERGEDLAYER-1
 66
  1
 70
  0
 62
  7
 10
14.277659
 20
17.371765
 30
0.000000
  0
VERTEX
  8
MERGEDLAYER-1
 10
14.277659
 20
17.371765
 30
0.000000
  0
VERTEX
  8
MERGEDLAYER-1
 10
13.965175
 20
17.371765
 30
0.000000
  0
SEQEND
  8
MERGEDLAYER-1
  0
POLYLINE
  8
MERGEDLAYER-1
 66
  1
 70
  1
 62
  7
  0
VERTEX
  8
MERGEDLAYER-1
 10
14.228295
 20
18.181575
 30
0.000000
  0
VERTEX
  8
MERGEDLAYER-1
 10
14.008440
 20
18.181575
 30
0.000000
  0
VERTEX
  8
MERGEDLAYER-1
 10
14.008440
 20
18.305960
 30
0.000000
  0
VERTEX
  8
MERGEDLAYER-1
 10
14.228295
 20
18.305960
 30
0.000000
  0
SEQEND
  8
MERGEDLAYER-1
  0
POLYLINE
  8
MERGEDLAYER-1
 66
  1
 70
  0
 62
  7
 10
14.277659
 20
18.306547
 30
0.000000
  0
VERTEX
  8
MERGEDLAYER-1
 10
14.277659
 20
18.306547
 30
0.000000
  0
VERTEX
  8
MERGEDLAYER-1
 10
13.965175
 20
18.306547
 30
0.000000
  0
SEQEND
  8
MERGEDLAYER-1
  0
TEXT
  8
MERGEDLAYER-1
 62
  7
 10
16.615385
 20
8.389564
 30
0.000000
 40
0.576923
  1
COMPTOIR
 72
  5
 11
21.153846
 21
8.389564
 31
0.000000
  0
TEXT
  8
MERGEDLAYER-1
 62
  7
 10
61.846154
 20
62.543410
 30
0.000000
 40
0.807692
  1
MOTEUR TUBULAIRE
 72
  5
 11
73.461538
 21
62.543410
 31
0.000000
  0
TEXT
  8
MERGEDLAYER-1
 62
  7
 10
61.615385
 20
61.466487
 30
0.000000
 40
0.634615
  1
VUE DU CïTƒ DU BARIL
 72
  5
 11
71.076923
 21
61.466487
 31
0.000000
  0
TEXT
  8
MERGEDLAYER-1
 62
  7
 10
77.230769
 20
60.004949
 30
0.000000
 40
0.807692
  1
Ë GAUCHE
 72
  5
 11
83.153846
 21
60.004949
 31
0.000000
  0
POLYLINE
  8
MERGEDLAYER-1
 66
  1
 70
  1
 62
  7
  0
VERTEX
  8
MERGEDLAYER-1
 10
75.705313
 20
60.961806
 30
0.000000
  0
VERTEX
  8
MERGEDLAYER-1
 10
76.517813
 20
60.961806
 30
0.000000
  0
VERTEX
  8
MERGEDLAYER-1
 10
76.517813
 20
60.149306
 30
0.000000
  0
VERTEX
  8
MERGEDLAYER-1
 10
75.705313
 20
60.149306
 30
0.000000
  0
SEQEND
  8
MERGEDLAYER-1
  0
POLYLINE
  8
MERGEDLAYER-1
 66
  1
 70
  1
 62
  7
  0
VERTEX
  8
MERGEDLAYER-1
 10
61.685735
 20
60.962055
 30
0.000000
  0
VERTEX
  8
MERGEDLAYER-1
 10
62.498235
 20
60.962055
 30
0.000000
  0
VERTEX
  8
MERGEDLAYER-1
 10
62.498235
 20
60.149550
 30
0.000000
  0
VERTEX
  8
MERGEDLAYER-1
 10
61.685735
 20
60.149550
 30
0.000000
  0
SEQEND
  8
MERGEDLAYER-1
  0
TEXT
  8
MERGEDLAYER-1
 62
  7
 10
63.230769
 20
60.004949
 30
0.000000
 40
0.807692
  1
Ë DROITE
 72
  5
 11
68.692308
 21
60.004949
 31
0.000000
  0
POLYLINE
  8
MERGEDLAYER-1
 66
  1
 70
  0
 62
  7
 10
61.688866
 20
60.962938
 30
0.000000
  0
VERTEX
  8
MERGEDLAYER-1
 10
61.688866
 20
60.962938
 30
0.000000
  0
VERTEX
  8
MERGEDLAYER-1
 10
62.498235
 20
60.149550
 30
0.000000
  0
SEQEND
  8
MERGEDLAYER-1
  0
POLYLINE
  8
MERGEDLAYER-1
 66
  1
 70
  0
 62
  7
 10
62.498235
 20
60.962055
 30
0.000000
  0
VERTEX
  8
MERGEDLAYER-1
 10
62.498235
 20
60.962055
 30
0.000000
  0
VERTEX
  8
MERGEDLAYER-1
 10
61.688866
 20
60.147414
 30
0.000000
  0
SEQEND
  8
MERGEDLAYER-1
  0
TEXT
  8
MERGEDLAYER-1
 62
  7
 10
61.846154
 20
52.158795
 30
0.000000
 40
0.634615
  1
CONNEXION ƒLECTRIQUE PAR AUTRES
 72
  5
 11
76.923077
 21
52.158795
 31
0.000000
  0
TEXT
  8
MERGEDLAYER-1
 62
  7
 10
61.846154
 20
58.466487
 30
0.000000
 40
0.807692
  1
Ë MANIVELLE 100 NM, VITESSE 11 RPM
 72
  5
 11
82.692308
 21
58.466487
 31
0.000000
  0
TEXT
  8
MERGEDLAYER-1
 62
  7
 10
61.846154
 20
55.851102
 30
0.000000
 40
0.807692
  1
120 V Ac  60Hz  2.94A
 72
  5
 11
73.230769
 21
55.851102
 31
0.000000
  0
TEXT
  8
MERGEDLAYER-1
 62
  7
 10
61.846154
 20
57.158795
 30
0.000000
 40
0.807692
  1
AJUSTEMENT MƒCANIQUE DES LIMITES
 72
  5
 11
83.153846
 21
57.158795
 31
0.000000
  0
TEXT
  8
MERGEDLAYER-1
 62
  7
 10
61.615385
 20
54.697256
 30
0.000000
 40
0.807692
  1
CONTRïLE:
 72
  5
 11
68.307692
 21
54.697256
 31
0.000000
  0
TEXT
  8
MERGEDLAYER-1
 62
  7
 10
61.615385
 20
53.697256
 30
0.000000
 40
0.634615
  1
(QTƒ: 1 ou 2)
 72
  5
 11
66.923077
 21
53.697256
 31
0.000000
  0
POLYLINE
  8
MERGEDLAYER-1
 66
  1
 70
  1
 62
  7
  0
VERTEX
  8
MERGEDLAYER-1
 10
78.795410
 20
55.432284
 30
0.000000
  0
VERTEX
  8
MERGEDLAYER-1
 10
79.607910
 20
55.432284
 30
0.000000
  0
VERTEX
  8
MERGEDLAYER-1
 10
79.607910
 20
54.619789
 30
0.000000
  0
VERTEX
  8
MERGEDLAYER-1
 10
78.795410
 20
54.619789
 30
0.000000
  0
SEQEND
  8
MERGEDLAYER-1
  0
TEXT
  8
MERGEDLAYER-1
 62
  7
 10
80.307692
 20
54.466487
 30
0.000000
 40
0.807692
  1
Ë CLƒ
 72
  5
 11
83.769231
 21
54.466487
 31
0.000000
  0
POLYLINE
  8
MERGEDLAYER-1
 66
  1
 70
  1
 62
  7
  0
VERTEX
  8
MERGEDLAYER-1
 10
69.416560
 20
55.440181
 30
0.000000
  0
VERTEX
  8
MERGEDLAYER-1
 10
70.229060
 20
55.440181
 30
0.000000
  0
VERTEX
  8
MERGEDLAYER-1
 10
70.229060
 20
54.627681
 30
0.000000
  0
VERTEX
  8
MERGEDLAYER-1
 10
69.416560
 20
54.627681
 30
0.000000
  0
SEQEND
  8
MERGEDLAYER-1
  0
TEXT
  8
MERGEDLAYER-1
 62
  7
 10
70.923077
 20
54.466487
 30
0.000000
 40
0.807692
  1
Ë BASCULE
 72
  5
 11
77.230769
 21
54.466487
 31
0.000000
  0
TEXT
  8
MERGEDLAYER-1
 62
  7
 10
70.923077
 20
53.235718
 30
0.000000
 40
0.807692
  1
TƒLƒCOMMANDE
 72
  5
 11
80.384615
 21
53.235718
 31
0.000000
  0
POLYLINE
  8
MERGEDLAYER-1
 66
  1
 70
  1
 62
  7
  0
VERTEX
  8
MERGEDLAYER-1
 10
69.416560
 20
54.213276
 30
0.000000
  0
VERTEX
  8
MERGEDLAYER-1
 10
70.229060
 20
54.213276
 30
0.000000
  0
VERTEX
  8
MERGEDLAYER-1
 10
70.229060
 20
53.400776
 30
0.000000
  0
VERTEX
  8
MERGEDLAYER-1
 10
69.416560
 20
53.400776
 30
0.000000
  0
SEQEND
  8
MERGEDLAYER-1
  0
ENDSEC
  0
EOF
