  0
SECTION
  2
HEADER
999
MacDraft 5.0\0
  9
$ACADVER
  1
AC1006
  9
$CLAYER
  8
MERGEDLAYER-1
  9
$EXTMIN
 10
0.000000
 20
0.000000
  9
$EXTMAX
 10
270.298150
 20
205.797160
  9
$FASTZOOM
 70
0
  9
$FILLMODE
 70
1
  0
ENDSEC
  0
SECTION
  2
TABLES
  0
TABLE
  2
LTYPE
 70
16
  0
LTYPE
  2
CONTINUOUS
 70
64
  3
Solid Line
 72
65
 73
0
 40
0.000000
  0
LTYPE
  2
LTYPE01
 70
64
  3
CUSTOM
 72
65
 73
2
 40
1.777778
 49
1.333333
 49
-0.444444
  0
LTYPE
  2
LTYPE02
 70
64
  3
CUSTOM
 72
65
 73
2
 40
3.111111
 49
2.666667
 49
-0.444444
  0
LTYPE
  2
LTYPE03
 70
64
  3
CUSTOM
 72
65
 73
2
 40
6.000000
 49
5.333333
 49
-0.666667
  0
LTYPE
  2
LTYPE04
 70
64
  3
CUSTOM
 72
65
 73
2
 40
11.555556
 49
10.666667
 49
-0.888889
  0
LTYPE
  2
LTYPE05
 70
64
  3
CUSTOM
 72
65
 73
4
 40
2.444444
 49
1.333333
 49
-0.444444
 49
0.222222
 49
-0.444444
  0
LTYPE
  2
LTYPE06
 70
64
  3
CUSTOM
 72
65
 73
4
 40
3.777778
 49
2.666667
 49
-0.444444
 49
0.222222
 49
-0.444444
  0
LTYPE
  2
LTYPE07
 70
64
  3
CUSTOM
 72
65
 73
4
 40
7.111111
 49
5.333333
 49
-0.666667
 49
0.444444
 49
-0.666667
  0
LTYPE
  2
LTYPE08
 70
64
  3
CUSTOM
 72
65
 73
4
 40
12.888889
 49
10.666667
 49
-0.888889
 49
0.444444
 49
-0.888889
  0
LTYPE
  2
LTYPE09
 70
64
  3
CUSTOM
 72
65
 73
6
 40
3.111111
 49
1.333333
 49
-0.444444
 49
0.222222
 49
-0.444444
 49
0.222222
 49
-0.444444
  0
LTYPE
  2
LTYPE10
 70
64
  3
CUSTOM
 72
65
 73
6
 40
4.444444
 49
2.666667
 49
-0.444444
 49
0.222222
 49
-0.444444
 49
0.222222
 49
-0.444444
  0
LTYPE
  2
LTYPE11
 70
64
  3
CUSTOM
 72
65
 73
6
 40
8.000000
 49
5.333333
 49
-0.666667
 49
0.444444
 49
-0.444444
 49
0.444444
 49
-0.666667
  0
LTYPE
  2
LTYPE12
 70
64
  3
CUSTOM
 72
65
 73
6
 40
13.777778
 49
10.666667
 49
-0.888889
 49
0.444444
 49
-0.444444
 49
0.444444
 49
-0.888889
  0
LTYPE
  2
LTYPE13
 70
64
  3
CUSTOM
 72
65
 73
8
 40
5.111111
 49
2.666667
 49
-0.444444
 49
0.222222
 49
-0.444444
 49
0.222222
 49
-0.444444
 49
0.222222
 49
-0.444444
  0
LTYPE
  2
LTYPE14
 70
64
  3
CUSTOM
 72
65
 73
8
 40
8.888889
 49
5.333333
 49
-0.666667
 49
0.444444
 49
-0.444444
 49
0.444444
 49
-0.444444
 49
0.444444
 49
-0.666667
  0
LTYPE
  2
LTYPE15
 70
64
  3
CUSTOM
 72
65
 73
8
 40
15.111111
 49
10.666667
 49
-0.888889
 49
0.444444
 49
-0.666667
 49
0.444444
 49
-0.666667
 49
0.444444
 49
-0.888889
  0
ENDTAB
  0
TABLE
  2
LAYER
 70
1
  0
LAYER
  2
MERGEDLAYER-1
 70
0
 62
7
  6
CONTINUOUS
  0
ENDTAB
  0
ENDSEC
  0
SECTION
  2
BLOCKS
  0
ENDSEC
  0
SECTION
  2
ENTITIES
  0
POLYLINE
  8
MERGEDLAYER-1
 66
  1
 70
  0
 62
  7
 10
0.222222
 20
205.574938
 30
0.000000
  0
VERTEX
  8
MERGEDLAYER-1
 10
0.222222
 20
205.574938
 30
0.000000
  0
VERTEX
  8
MERGEDLAYER-1
 10
0.222222
 20
0.222222
 30
0.000000
  0
SEQEND
  8
MERGEDLAYER-1
  0
POLYLINE
  8
MERGEDLAYER-1
 66
  1
 70
  0
 62
  7
 10
0.222222
 20
205.574938
 30
0.000000
  0
VERTEX
  8
MERGEDLAYER-1
 10
0.222222
 20
205.574938
 30
0.000000
  0
VERTEX
  8
MERGEDLAYER-1
 10
270.043674
 20
205.574938
 30
0.000000
  0
SEQEND
  8
MERGEDLAYER-1
  0
POLYLINE
  8
MERGEDLAYER-1
 66
  1
 70
  0
 62
  7
 10
270.043674
 20
205.574938
 30
0.000000
  0
VERTEX
  8
MERGEDLAYER-1
 10
270.043674
 20
205.574938
 30
0.000000
  0
VERTEX
  8
MERGEDLAYER-1
 10
270.043674
 20
0.222222
 30
0.000000
  0
SEQEND
  8
MERGEDLAYER-1
  0
POLYLINE
  8
MERGEDLAYER-1
 66
  1
 70
  0
 62
  7
 10
0.222222
 20
0.222222
 30
0.000000
  0
VERTEX
  8
MERGEDLAYER-1
 10
0.222222
 20
0.222222
 30
0.000000
  0
VERTEX
  8
MERGEDLAYER-1
 10
270.043674
 20
0.222222
 30
0.000000
  0
SEQEND
  8
MERGEDLAYER-1
  0
POLYLINE
  8
MERGEDLAYER-1
 66
  1
 70
  0
 62
  7
 10
193.257962
 20
205.574938
 30
0.000000
  0
VERTEX
  8
MERGEDLAYER-1
 10
193.257962
 20
205.574938
 30
0.000000
  0
VERTEX
  8
MERGEDLAYER-1
 10
193.257962
 20
0.222222
 30
0.000000
  0
SEQEND
  8
MERGEDLAYER-1
  0
TEXT
  8
MERGEDLAYER-1
 62
  7
 10
178.984469
 20
200.661024
 30
0.000000
 40
2.000000
  1
AUCUNE
 72
  5
 11
191.428914
 21
200.661024
 31
0.000000
  0
TEXT
  8
MERGEDLAYER-1
 62
  7
 10
178.984469
 20
197.549913
 30
0.000000
 40
2.000000
  1
ƒCHELLE
 72
  5
 11
192.540025
 21
197.549913
 31
0.000000
  0
POLYLINE
  8
MERGEDLAYER-1
 66
  1
 70
  1
 62
  7
  0
VERTEX
  8
MERGEDLAYER-1
 10
182.900011
 20
6.226264
 30
0.000000
  0
VERTEX
  8
MERGEDLAYER-1
 10
193.257975
 20
6.226264
 30
0.000000
  0
VERTEX
  8
MERGEDLAYER-1
 10
193.257975
 20
0.222222
 30
0.000000
  0
VERTEX
  8
MERGEDLAYER-1
 10
182.900011
 20
0.222222
 30
0.000000
  0
SEQEND
  8
MERGEDLAYER-1
  0
TEXT
  8
MERGEDLAYER-1
 62
  7
 10
182.540025
 20
6.438802
 30
0.000000
 40
2.500000
  1
PAR:
 72
  5
 11
191.206691
 21
6.438802
 31
0.000000
  0
TEXT
  8
MERGEDLAYER-1
 62
  7
 10
196.317802
 20
198.883247
 30
0.000000
 40
2.500000
  1
NOTES
 72
  5
 11
209.206691
 21
198.883247
 31
0.000000
  0
TEXT
  8
MERGEDLAYER-1
 62
  7
 10
196.540025
 20
194.216580
 30
0.000000
 40
2.500000
  1
OPƒRATION MANUELLE
 72
  5
 11
234.540025
 21
194.216580
 31
0.000000
  0
TEXT
  8
MERGEDLAYER-1
 62
  7
 10
196.540025
 20
187.772135
 30
0.000000
 40
2.500000
  1
GUIDES EN ALUMINIUM NON INCLUS
 72
  5
 11
253.206691
 21
187.772135
 31
0.000000
  0
TEXT
  8
MERGEDLAYER-1
 62
  7
 10
196.540025
 20
183.772135
 30
0.000000
 40
2.500000
  1
RAINURES ET FINITION INTƒRIEURE
 72
  5
 11
253.428914
 21
183.772135
 31
0.000000
  0
TEXT
  8
MERGEDLAYER-1
 62
  7
 10
196.540025
 20
179.994358
 30
0.000000
 40
2.500000
  1
DES RAINURES PAR AUTRES
 72
  5
 11
243.428914
 21
179.994358
 31
0.000000
  0
TEXT
  8
MERGEDLAYER-1
 62
  7
 10
196.540025
 20
173.549913
 30
0.000000
 40
2.500000
  1
PRƒVOIR PANNEAU D'ACCéS
 72
  5
 11
243.651136
 21
173.549913
 31
0.000000
  0
TEXT
  8
MERGEDLAYER-1
 62
  7
 10
196.540025
 20
169.772135
 30
0.000000
 40
2.500000
  1
Ë L'ARRIéRE DU MEUBLE POUR
 72
  5
 11
247.428914
 21
169.772135
 31
0.000000
  0
TEXT
  8
MERGEDLAYER-1
 62
  7
 10
196.540025
 20
165.994358
 30
0.000000
 40
2.500000
  1
INSTALLATION ET MAINTENANCE
 72
  5
 11
248.540025
 21
165.994358
 31
0.000000
  0
TEXT
  8
MERGEDLAYER-1
 62
  7
 10
196.540025
 20
159.327691
 30
0.000000
 40
2.500000
  1
CORDON ƒLASTIQUE: INSƒRER LES DEUX
 72
  5
 11
264.540025
 21
159.327691
 31
0.000000
  0
TEXT
  8
MERGEDLAYER-1
 62
  7
 10
196.540025
 20
155.549913
 30
0.000000
 40
2.500000
  1
COCHETS EN "S" DANS LES TROUS DE 
 72
  5
 11
260.317802
 21
155.549913
 31
0.000000
  0
TEXT
  8
MERGEDLAYER-1
 62
  7
 10
196.540025
 20
151.772135
 30
0.000000
 40
2.500000
  1
LA LAMELLE ARRIéRE, AJUSTER
 72
  5
 11
248.317802
 21
151.772135
 31
0.000000
  0
TEXT
  8
MERGEDLAYER-1
 62
  7
 10
196.540025
 20
147.994358
 30
0.000000
 40
2.500000
  1
LA LONGUEUR DU CORDON POUR
 72
  5
 11
252.317802
 21
147.994358
 31
0.000000
  0
TEXT
  8
MERGEDLAYER-1
 62
  7
 10
196.540025
 20
144.216580
 30
0.000000
 40
2.500000
  1
OBTENIR LA TENSION APPROPIRƒE
 72
  5
 11
254.095580
 21
144.216580
 31
0.000000
  0
TEXT
  8
MERGEDLAYER-1
 62
  7
 10
196.540025
 20
140.438802
 30
0.000000
 40
2.500000
  1
LORS DE L'INSTALLATION
 72
  5
 11
237.873358
 21
140.438802
 31
0.000000
  0
POLYLINE
  8
MERGEDLAYER-1
 66
  1
 70
  1
 62
  7
  0
VERTEX
  8
MERGEDLAYER-1
 10
37.498220
 20
51.293701
 30
0.000000
  0
VERTEX
  8
MERGEDLAYER-1
 10
155.941650
 20
51.293701
 30
0.000000
  0
VERTEX
  8
MERGEDLAYER-1
 10
155.941650
 20
45.040405
 30
0.000000
  0
VERTEX
  8
MERGEDLAYER-1
 10
37.498220
 20
45.040405
 30
0.000000
  0
SEQEND
  8
MERGEDLAYER-1
  0
POLYLINE
  8
MERGEDLAYER-1
 66
  1
 70
  1
 62
  7
  0
VERTEX
  8
MERGEDLAYER-1
 10
32.479848
 20
56.450155
 30
0.000000
  0
VERTEX
  8
MERGEDLAYER-1
 10
36.241977
 20
56.450155
 30
0.000000
  0
VERTEX
  8
MERGEDLAYER-1
 10
36.241977
 20
19.990980
 30
0.000000
  0
VERTEX
  8
MERGEDLAYER-1
 10
32.479848
 20
19.990980
 30
0.000000
  0
SEQEND
  8
MERGEDLAYER-1
  0
POLYLINE
  8
MERGEDLAYER-1
 66
  1
 70
  1
 62
255
  0
VERTEX
  8
MERGEDLAYER-1
 10
32.502479
 20
50.030843
 30
0.000000
  0
VERTEX
  8
MERGEDLAYER-1
 10
36.427555
 20
50.030843
 30
0.000000
  0
VERTEX
  8
MERGEDLAYER-1
 10
36.427555
 20
46.322605
 30
0.000000
  0
VERTEX
  8
MERGEDLAYER-1
 10
32.502479
 20
46.322605
 30
0.000000
  0
SEQEND
  8
MERGEDLAYER-1
  0
POLYLINE
  8
MERGEDLAYER-1
 66
  1
 70
  1
 62
  7
  0
VERTEX
  8
MERGEDLAYER-1
 10
28.717726
 20
56.450155
 30
0.000000
  0
VERTEX
  8
MERGEDLAYER-1
 10
32.479848
 20
56.450155
 30
0.000000
  0
VERTEX
  8
MERGEDLAYER-1
 10
32.479848
 20
19.990980
 30
0.000000
  0
VERTEX
  8
MERGEDLAYER-1
 10
28.717726
 20
19.990980
 30
0.000000
  0
SEQEND
  8
MERGEDLAYER-1
  0
POLYLINE
  8
MERGEDLAYER-1
 66
  1
 70
  0
 62
  7
 10
32.502479
 20
50.030843
 30
0.000000
  0
VERTEX
  8
MERGEDLAYER-1
 10
32.502479
 20
50.030843
 30
0.000000
  0
VERTEX
  8
MERGEDLAYER-1
 10
36.241977
 20
50.030843
 30
0.000000
  0
SEQEND
  8
MERGEDLAYER-1
  0
POLYLINE
  8
MERGEDLAYER-1
 66
  1
 70
  0
 62
  7
 10
32.502479
 20
46.322605
 30
0.000000
  0
VERTEX
  8
MERGEDLAYER-1
 10
32.502479
 20
46.322605
 30
0.000000
  0
VERTEX
  8
MERGEDLAYER-1
 10
36.241977
 20
46.322605
 30
0.000000
  0
SEQEND
  8
MERGEDLAYER-1
  0
POLYLINE
  8
MERGEDLAYER-1
 66
  1
 70
  0
 62
  7
 10
36.241977
 20
50.030843
 30
0.000000
  0
VERTEX
  8
MERGEDLAYER-1
 10
36.241977
 20
50.030843
 30
0.000000
  0
VERTEX
  8
MERGEDLAYER-1
 10
36.241977
 20
56.450155
 30
0.000000
  0
SEQEND
  8
MERGEDLAYER-1
  0
POLYLINE
  8
MERGEDLAYER-1
 66
  1
 70
  0
 62
  7
 10
36.241977
 20
56.450155
 30
0.000000
  0
VERTEX
  8
MERGEDLAYER-1
 10
36.241977
 20
56.450155
 30
0.000000
  0
VERTEX
  8
MERGEDLAYER-1
 10
28.717726
 20
56.450155
 30
0.000000
  0
SEQEND
  8
MERGEDLAYER-1
  0
POLYLINE
  8
MERGEDLAYER-1
 66
  1
 70
  0
 62
  7
 10
28.717726
 20
56.450155
 30
0.000000
  0
VERTEX
  8
MERGEDLAYER-1
 10
28.717726
 20
56.450155
 30
0.000000
  0
VERTEX
  8
MERGEDLAYER-1
 10
28.717726
 20
21.133247
 30
0.000000
  0
SEQEND
  8
MERGEDLAYER-1
  0
POLYLINE
  8
MERGEDLAYER-1
 66
  1
 70
  0
 62
  7
 10
36.241977
 20
46.322605
 30
0.000000
  0
VERTEX
  8
MERGEDLAYER-1
 10
36.241977
 20
46.322605
 30
0.000000
  0
VERTEX
  8
MERGEDLAYER-1
 10
36.241977
 20
21.133247
 30
0.000000
  0
SEQEND
  8
MERGEDLAYER-1
  0
POLYLINE
  8
MERGEDLAYER-1
 66
  1
 70
  1
 62
  7
 10
36.887248
 20
50.664497
 30
0.000000
  0
VERTEX
  8
MERGEDLAYER-1
 10
36.887248
 20
50.664497
 30
0.000000
  0
VERTEX
  8
MERGEDLAYER-1
 10
37.512248
 20
50.664497
 30
0.000000
  0
VERTEX
  8
MERGEDLAYER-1
 10
37.512248
 20
45.664497
 30
0.000000
  0
VERTEX
  8
MERGEDLAYER-1
 10
36.887248
 20
45.664497
 30
0.000000
  0
VERTEX
  8
MERGEDLAYER-1
 10
36.887248
 20
46.601997
 30
0.000000
  0
VERTEX
  8
MERGEDLAYER-1
 10
33.762248
 20
46.601997
 30
0.000000
  0
VERTEX
  8
MERGEDLAYER-1
 10
33.762248
 20
49.726997
 30
0.000000
  0
VERTEX
  8
MERGEDLAYER-1
 10
36.887248
 20
49.726997
 30
0.000000
  0
SEQEND
  8
MERGEDLAYER-1
  0
LINE
  8
MERGEDLAYER-1
 62
  7
 10
32.502479
 20
52.030843
 30
0.000000
 11
32.502479
 21
66.383247
 31
0.000000
  0
LINE
  8
MERGEDLAYER-1
 62
  7
 10
36.241977
 20
58.450155
 30
0.000000
 11
36.241977
 21
66.383247
 31
0.000000
  0
LINE
  8
MERGEDLAYER-1
 62
  7
 10
32.502479
 20
63.383247
 30
0.000000
 11
26.637248
 21
63.383247
 31
0.000000
  0
LINE
  8
MERGEDLAYER-1
 62
  7
 10
32.502479
 20
63.383233
 30
0.000000
 11
26.502479
 21
63.383260
 31
0.000000
  0
POLYLINE
  8
MERGEDLAYER-1
 66
  1
 70
  1
 62
  7
  0
VERTEX
  8
MERGEDLAYER-1
 10
32.502479
 20
63.383247
 30
0.000000
  0
VERTEX
  8
MERGEDLAYER-1
 10
31.391371
 20
64.049913
 30
0.000000
  0
VERTEX
  8
MERGEDLAYER-1
 10
31.391368
 20
63.383247
 30
0.000000
  0
VERTEX
  8
MERGEDLAYER-1
 10
31.391364
 20
62.716580
 30
0.000000
  0
VERTEX
  8
MERGEDLAYER-1
 10
32.502479
 20
63.383247
 30
0.000000
  0
SEQEND
  8
MERGEDLAYER-1
  0
LINE
  8
MERGEDLAYER-1
 62
  7
 10
36.241977
 20
63.383233
 30
0.000000
 11
62.851651
 21
-114.450060
 31
0.000000
  0
POLYLINE
  8
MERGEDLAYER-1
 66
  1
 70
  1
 62
  7
  0
VERTEX
  8
MERGEDLAYER-1
 10
36.241977
 20
63.383247
 30
0.000000
  0
VERTEX
  8
MERGEDLAYER-1
 10
37.353092
 20
64.049913
 30
0.000000
  0
VERTEX
  8
MERGEDLAYER-1
 10
37.353088
 20
63.383247
 30
0.000000
  0
VERTEX
  8
MERGEDLAYER-1
 10
37.353085
 20
62.716580
 30
0.000000
  0
VERTEX
  8
MERGEDLAYER-1
 10
36.241977
 20
63.383247
 30
0.000000
  0
SEQEND
  8
MERGEDLAYER-1
  0
TEXT
  8
MERGEDLAYER-1
 62
  7
 10
24.862246
 20
62.683255
 30
0.000000
 40
1.666667
  1
 
  0
LINE
  8
MERGEDLAYER-1
 62
  7
 10
30.502479
 20
46.322605
 30
0.000000
 11
19.512248
 21
46.322605
 31
0.000000
  0
LINE
  8
MERGEDLAYER-1
 62
  7
 10
30.502479
 20
50.030843
 30
0.000000
 11
19.512248
 21
50.030843
 31
0.000000
  0
LINE
  8
MERGEDLAYER-1
 62
  7
 10
22.512248
 20
50.030843
 30
0.000000
 11
22.512248
 21
40.008247
 31
0.000000
  0
LINE
  8
MERGEDLAYER-1
 62
  7
 10
22.512248
 20
46.322605
 30
0.000000
 11
22.512166
 21
40.322605
 31
0.000000
  0
POLYLINE
  8
MERGEDLAYER-1
 66
  1
 70
  1
 62
  7
  0
VERTEX
  8
MERGEDLAYER-1
 10
22.512248
 20
46.322605
 30
0.000000
  0
VERTEX
  8
MERGEDLAYER-1
 10
21.845564
 20
45.211507
 30
0.000000
  0
VERTEX
  8
MERGEDLAYER-1
 10
22.512231
 20
45.211494
 30
0.000000
  0
VERTEX
  8
MERGEDLAYER-1
 10
23.178897
 20
45.211480
 30
0.000000
  0
VERTEX
  8
MERGEDLAYER-1
 10
22.512248
 20
46.322605
 30
0.000000
  0
SEQEND
  8
MERGEDLAYER-1
  0
LINE
  8
MERGEDLAYER-1
 62
  7
 10
22.512248
 20
50.030830
 30
0.000000
 11
53.984294
 21
-165.695964
 31
0.000000
  0
POLYLINE
  8
MERGEDLAYER-1
 66
  1
 70
  1
 62
  7
  0
VERTEX
  8
MERGEDLAYER-1
 10
22.512248
 20
50.030843
 30
0.000000
  0
VERTEX
  8
MERGEDLAYER-1
 10
21.845595
 20
51.141968
 30
0.000000
  0
VERTEX
  8
MERGEDLAYER-1
 10
22.512261
 20
51.141954
 30
0.000000
  0
VERTEX
  8
MERGEDLAYER-1
 10
23.178928
 20
51.141941
 30
0.000000
  0
VERTEX
  8
MERGEDLAYER-1
 10
22.512248
 20
50.030843
 30
0.000000
  0
SEQEND
  8
MERGEDLAYER-1
  0
TEXT
  8
MERGEDLAYER-1
 62
  7
 10
22.262247
 20
37.483249
 30
0.000000
 40
1.666667
  1
 
  0
POLYLINE
  8
MERGEDLAYER-1
  6
LTYPE05
 66
  1
 70
  1
 62
  7
  0
VERTEX
  8
MERGEDLAYER-1
  6
LTYPE05
 10
30.574748
 20
49.133247
 30
0.000000
  0
VERTEX
  8
MERGEDLAYER-1
  6
LTYPE05
 10
32.449748
 20
49.133247
 30
0.000000
  0
VERTEX
  8
MERGEDLAYER-1
  6
LTYPE05
 10
32.449748
 20
47.258247
 30
0.000000
  0
VERTEX
  8
MERGEDLAYER-1
  6
LTYPE05
 10
30.574748
 20
47.258247
 30
0.000000
  0
SEQEND
  8
MERGEDLAYER-1
  0
POLYLINE
  8
MERGEDLAYER-1
 66
  1
 70
  0
 62
  7
 10
32.502479
 20
50.030843
 30
0.000000
  0
VERTEX
  8
MERGEDLAYER-1
 10
32.502479
 20
50.030843
 30
0.000000
  0
VERTEX
  8
MERGEDLAYER-1
 10
32.502479
 20
46.322605
 30
0.000000
  0
SEQEND
  8
MERGEDLAYER-1
  0
POLYLINE
  8
MERGEDLAYER-1
 66
  1
 70
  0
 62
  7
 10
25.873359
 20
35.549913
 30
0.000000
  0
VERTEX
  8
MERGEDLAYER-1
 10
25.873359
 20
35.549913
 30
0.000000
  0
VERTEX
  8
MERGEDLAYER-1
 10
32.250994
 20
45.956936
 30
0.000000
  0
SEQEND
  8
MERGEDLAYER-1
  0
POLYLINE
  8
MERGEDLAYER-1
 66
  1
 70
  1
 62
  7
  0
VERTEX
  8
MERGEDLAYER-1
 10
32.512248
 20
46.383247
 30
0.000000
  0
VERTEX
  8
MERGEDLAYER-1
 10
32.500098
 20
45.087538
 30
0.000000
  0
VERTEX
  8
MERGEDLAYER-1
 10
31.931678
 20
45.435872
 30
0.000000
  0
VERTEX
  8
MERGEDLAYER-1
 10
31.363258
 20
45.784207
 30
0.000000
  0
VERTEX
  8
MERGEDLAYER-1
 10
32.512248
 20
46.383247
 30
0.000000
  0
SEQEND
  8
MERGEDLAYER-1
  0
POLYLINE
  8
MERGEDLAYER-1
 66
  1
 70
  1
 62
  7
  0
VERTEX
  8
MERGEDLAYER-1
 10
33.215373
 20
49.101997
 30
0.000000
  0
VERTEX
  8
MERGEDLAYER-1
 10
33.387248
 20
49.101997
 30
0.000000
  0
VERTEX
  8
MERGEDLAYER-1
 10
33.387248
 20
47.242622
 30
0.000000
  0
VERTEX
  8
MERGEDLAYER-1
 10
33.215373
 20
47.242622
 30
0.000000
  0
SEQEND
  8
MERGEDLAYER-1
  0
POLYLINE
  8
MERGEDLAYER-1
 66
  1
 70
  0
 62
  7
 10
32.989980
 20
48.654161
 30
0.000000
  0
VERTEX
  8
MERGEDLAYER-1
 10
32.989980
 20
48.654161
 30
0.000000
  0
VERTEX
  8
MERGEDLAYER-1
 10
32.767832
 20
48.482164
 30
0.000000
  0
VERTEX
  8
MERGEDLAYER-1
 10
32.805084
 20
48.348863
 30
0.000000
  0
SEQEND
  8
MERGEDLAYER-1
  0
POLYLINE
  8
MERGEDLAYER-1
 66
  1
 70
  0
 62
  7
 10
33.193868
 20
48.654161
 30
0.000000
  0
VERTEX
  8
MERGEDLAYER-1
 10
33.193868
 20
48.654161
 30
0.000000
  0
VERTEX
  8
MERGEDLAYER-1
 10
32.950890
 20
48.708659
 30
0.000000
  0
VERTEX
  8
MERGEDLAYER-1
 10
32.990031
 20
48.654161
 30
0.000000
  0
SEQEND
  8
MERGEDLAYER-1
  0
POLYLINE
  8
MERGEDLAYER-1
 66
  1
 70
  0
 62
  7
 10
32.805101
 20
47.979031
 30
0.000000
  0
VERTEX
  8
MERGEDLAYER-1
 10
32.805101
 20
47.979031
 30
0.000000
  0
VERTEX
  8
MERGEDLAYER-1
 10
32.858151
 20
47.783854
 30
0.000000
  0
VERTEX
  8
MERGEDLAYER-1
 10
32.990007
 20
47.673733
 30
0.000000
  0
SEQEND
  8
MERGEDLAYER-1
  0
POLYLINE
  8
MERGEDLAYER-1
 66
  1
 70
  0
 62
  7
 10
33.193746
 20
47.673774
 30
0.000000
  0
VERTEX
  8
MERGEDLAYER-1
 10
33.193746
 20
47.673774
 30
0.000000
  0
VERTEX
  8
MERGEDLAYER-1
 10
33.193810
 20
48.654175
 30
0.000000
  0
SEQEND
  8
MERGEDLAYER-1
  0
POLYLINE
  8
MERGEDLAYER-1
 66
  1
 70
  0
 62
  7
 10
32.805054
 20
48.348823
 30
0.000000
  0
VERTEX
  8
MERGEDLAYER-1
 10
32.805054
 20
48.348823
 30
0.000000
  0
VERTEX
  8
MERGEDLAYER-1
 10
32.805101
 20
47.979031
 30
0.000000
  0
SEQEND
  8
MERGEDLAYER-1
  0
POLYLINE
  8
MERGEDLAYER-1
 66
  1
 70
  0
 62
  7
 10
32.989939
 20
47.673733
 30
0.000000
  0
VERTEX
  8
MERGEDLAYER-1
 10
32.989939
 20
47.673733
 30
0.000000
  0
VERTEX
  8
MERGEDLAYER-1
 10
33.193783
 20
47.673733
 30
0.000000
  0
SEQEND
  8
MERGEDLAYER-1
  0
POLYLINE
  8
MERGEDLAYER-1
 66
  1
 70
  1
 62
  7
  0
VERTEX
  8
MERGEDLAYER-1
 10
33.387248
 20
48.789497
 30
0.000000
  0
VERTEX
  8
MERGEDLAYER-1
 10
34.637248
 20
48.789497
 30
0.000000
  0
VERTEX
  8
MERGEDLAYER-1
 10
34.637248
 20
47.539497
 30
0.000000
  0
VERTEX
  8
MERGEDLAYER-1
 10
33.387248
 20
47.539497
 30
0.000000
  0
SEQEND
  8
MERGEDLAYER-1
  0
POLYLINE
  8
MERGEDLAYER-1
 66
  1
 70
  1
 62
  7
  0
VERTEX
  8
MERGEDLAYER-1
 10
33.512248
 20
49.726997
 30
0.000000
  0
VERTEX
  8
MERGEDLAYER-1
 10
34.496623
 20
49.726997
 30
0.000000
  0
VERTEX
  8
MERGEDLAYER-1
 10
34.496623
 20
46.601997
 30
0.000000
  0
VERTEX
  8
MERGEDLAYER-1
 10
33.512248
 20
46.601997
 30
0.000000
  0
SEQEND
  8
MERGEDLAYER-1
  0
POLYLINE
  8
MERGEDLAYER-1
 66
  1
 70
  1
 62
  7
  0
VERTEX
  8
MERGEDLAYER-1
 10
33.512248
 20
49.726997
 30
0.000000
  0
VERTEX
  8
MERGEDLAYER-1
 10
34.496623
 20
49.726997
 30
0.000000
  0
VERTEX
  8
MERGEDLAYER-1
 10
34.496623
 20
46.601997
 30
0.000000
  0
VERTEX
  8
MERGEDLAYER-1
 10
33.512248
 20
46.601997
 30
0.000000
  0
SEQEND
  8
MERGEDLAYER-1
  0
POLYLINE
  8
MERGEDLAYER-1
 66
  1
 70
  1
 62
  7
  0
VERTEX
  8
MERGEDLAYER-1
 10
156.362996
 20
49.626180
 30
0.000000
  0
VERTEX
  8
MERGEDLAYER-1
 10
161.888468
 20
49.626180
 30
0.000000
  0
VERTEX
  8
MERGEDLAYER-1
 10
161.888468
 20
46.731133
 30
0.000000
  0
VERTEX
  8
MERGEDLAYER-1
 10
156.362996
 20
46.731133
 30
0.000000
  0
SEQEND
  8
MERGEDLAYER-1
  0
POLYLINE
  8
MERGEDLAYER-1
 66
  1
 70
  1
 62
  7
  0
VERTEX
  8
MERGEDLAYER-1
 10
160.946981
 20
56.450155
 30
0.000000
  0
VERTEX
  8
MERGEDLAYER-1
 10
164.709106
 20
56.450155
 30
0.000000
  0
VERTEX
  8
MERGEDLAYER-1
 10
164.709106
 20
19.990980
 30
0.000000
  0
VERTEX
  8
MERGEDLAYER-1
 10
160.946981
 20
19.990980
 30
0.000000
  0
SEQEND
  8
MERGEDLAYER-1
  0
POLYLINE
  8
MERGEDLAYER-1
 66
  1
 70
  1
 62
  7
  0
VERTEX
  8
MERGEDLAYER-1
 10
157.184855
 20
56.450155
 30
0.000000
  0
VERTEX
  8
MERGEDLAYER-1
 10
160.946981
 20
56.450155
 30
0.000000
  0
VERTEX
  8
MERGEDLAYER-1
 10
160.946981
 20
19.990980
 30
0.000000
  0
VERTEX
  8
MERGEDLAYER-1
 10
157.184855
 20
19.990980
 30
0.000000
  0
SEQEND
  8
MERGEDLAYER-1
  0
POLYLINE
  8
MERGEDLAYER-1
 66
  1
 70
  1
 62
255
  0
VERTEX
  8
MERGEDLAYER-1
 10
156.999281
 20
50.030843
 30
0.000000
  0
VERTEX
  8
MERGEDLAYER-1
 10
160.924357
 20
50.030843
 30
0.000000
  0
VERTEX
  8
MERGEDLAYER-1
 10
160.924357
 20
46.322605
 30
0.000000
  0
VERTEX
  8
MERGEDLAYER-1
 10
156.999281
 20
46.322605
 30
0.000000
  0
SEQEND
  8
MERGEDLAYER-1
  0
POLYLINE
  8
MERGEDLAYER-1
 66
  1
 70
  0
 62
  7
 10
160.924357
 20
50.030843
 30
0.000000
  0
VERTEX
  8
MERGEDLAYER-1
 10
160.924357
 20
50.030843
 30
0.000000
  0
VERTEX
  8
MERGEDLAYER-1
 10
157.184855
 20
50.030843
 30
0.000000
  0
SEQEND
  8
MERGEDLAYER-1
  0
POLYLINE
  8
MERGEDLAYER-1
 66
  1
 70
  0
 62
  7
 10
160.924357
 20
46.322605
 30
0.000000
  0
VERTEX
  8
MERGEDLAYER-1
 10
160.924357
 20
46.322605
 30
0.000000
  0
VERTEX
  8
MERGEDLAYER-1
 10
157.184855
 20
46.322605
 30
0.000000
  0
SEQEND
  8
MERGEDLAYER-1
  0
POLYLINE
  8
MERGEDLAYER-1
 66
  1
 70
  0
 62
  7
 10
157.184855
 20
50.030843
 30
0.000000
  0
VERTEX
  8
MERGEDLAYER-1
 10
157.184855
 20
50.030843
 30
0.000000
  0
VERTEX
  8
MERGEDLAYER-1
 10
157.184855
 20
56.450155
 30
0.000000
  0
SEQEND
  8
MERGEDLAYER-1
  0
POLYLINE
  8
MERGEDLAYER-1
 66
  1
 70
  0
 62
  7
 10
157.184855
 20
56.450155
 30
0.000000
  0
VERTEX
  8
MERGEDLAYER-1
 10
157.184855
 20
56.450155
 30
0.000000
  0
VERTEX
  8
MERGEDLAYER-1
 10
164.709106
 20
56.450155
 30
0.000000
  0
SEQEND
  8
MERGEDLAYER-1
  0
POLYLINE
  8
MERGEDLAYER-1
 66
  1
 70
  0
 62
  7
 10
164.709106
 20
56.450155
 30
0.000000
  0
VERTEX
  8
MERGEDLAYER-1
 10
164.709106
 20
56.450155
 30
0.000000
  0
VERTEX
  8
MERGEDLAYER-1
 10
164.709106
 20
21.133247
 30
0.000000
  0
SEQEND
  8
MERGEDLAYER-1
  0
POLYLINE
  8
MERGEDLAYER-1
 66
  1
 70
  0
 62
  7
 10
157.184855
 20
46.322605
 30
0.000000
  0
VERTEX
  8
MERGEDLAYER-1
 10
157.184855
 20
46.322605
 30
0.000000
  0
VERTEX
  8
MERGEDLAYER-1
 10
157.184855
 20
21.133247
 30
0.000000
  0
SEQEND
  8
MERGEDLAYER-1
  0
POLYLINE
  8
MERGEDLAYER-1
 66
  1
 70
  1
 62
  7
 10
156.565823
 20
50.664497
 30
0.000000
  0
VERTEX
  8
MERGEDLAYER-1
 10
156.565823
 20
50.664497
 30
0.000000
  0
VERTEX
  8
MERGEDLAYER-1
 10
155.940823
 20
50.664497
 30
0.000000
  0
VERTEX
  8
MERGEDLAYER-1
 10
155.940823
 20
45.664497
 30
0.000000
  0
VERTEX
  8
MERGEDLAYER-1
 10
156.565823
 20
45.664497
 30
0.000000
  0
VERTEX
  8
MERGEDLAYER-1
 10
156.565823
 20
46.601997
 30
0.000000
  0
VERTEX
  8
MERGEDLAYER-1
 10
159.690823
 20
46.601997
 30
0.000000
  0
VERTEX
  8
MERGEDLAYER-1
 10
159.690823
 20
49.726997
 30
0.000000
  0
VERTEX
  8
MERGEDLAYER-1
 10
156.565823
 20
49.726997
 30
0.000000
  0
SEQEND
  8
MERGEDLAYER-1
  0
POLYLINE
  8
MERGEDLAYER-1
  6
LTYPE05
 66
  1
 70
  1
 62
  7
  0
VERTEX
  8
MERGEDLAYER-1
  6
LTYPE05
 10
160.949748
 20
49.133247
 30
0.000000
  0
VERTEX
  8
MERGEDLAYER-1
  6
LTYPE05
 10
162.824748
 20
49.133247
 30
0.000000
  0
VERTEX
  8
MERGEDLAYER-1
  6
LTYPE05
 10
162.824748
 20
47.258247
 30
0.000000
  0
VERTEX
  8
MERGEDLAYER-1
  6
LTYPE05
 10
160.949748
 20
47.258247
 30
0.000000
  0
SEQEND
  8
MERGEDLAYER-1
  0
POLYLINE
  8
MERGEDLAYER-1
 66
  1
 70
  0
 62
  7
 10
160.924357
 20
50.030843
 30
0.000000
  0
VERTEX
  8
MERGEDLAYER-1
 10
160.924357
 20
50.030843
 30
0.000000
  0
VERTEX
  8
MERGEDLAYER-1
 10
160.924357
 20
46.322605
 30
0.000000
  0
SEQEND
  8
MERGEDLAYER-1
  0
POLYLINE
  8
MERGEDLAYER-1
 66
  1
 70
  0
 62
  7
 10
171.512248
 20
31.508247
 30
0.000000
  0
VERTEX
  8
MERGEDLAYER-1
 10
171.512248
 20
31.508247
 30
0.000000
  0
VERTEX
  8
MERGEDLAYER-1
 10
163.066230
 20
46.820435
 30
0.000000
  0
SEQEND
  8
MERGEDLAYER-1
  0
POLYLINE
  8
MERGEDLAYER-1
 66
  1
 70
  1
 62
  7
  0
VERTEX
  8
MERGEDLAYER-1
 10
162.824748
 20
47.258247
 30
0.000000
  0
VERTEX
  8
MERGEDLAYER-1
 10
163.945150
 20
46.607300
 30
0.000000
  0
VERTEX
  8
MERGEDLAYER-1
 10
163.361396
 20
46.285319
 30
0.000000
  0
VERTEX
  8
MERGEDLAYER-1
 10
162.777642
 20
45.963338
 30
0.000000
  0
VERTEX
  8
MERGEDLAYER-1
 10
162.824748
 20
47.258247
 30
0.000000
  0
SEQEND
  8
MERGEDLAYER-1
  0
LINE
  8
MERGEDLAYER-1
 62
  7
 10
157.684855
 20
63.383247
 30
0.000000
 11
164.209106
 21
63.383247
 31
0.000000
  0
LINE
  8
MERGEDLAYER-1
 62
  7
 10
157.184855
 20
58.450155
 30
0.000000
 11
157.184855
 21
66.383247
 31
0.000000
  0
LINE
  8
MERGEDLAYER-1
 62
  7
 10
164.709106
 20
58.450155
 30
0.000000
 11
164.709106
 21
66.383247
 31
0.000000
  0
POLYLINE
  8
MERGEDLAYER-1
 66
  1
 70
  1
 62
  7
  0
VERTEX
  8
MERGEDLAYER-1
 10
157.184855
 20
63.383247
 30
0.000000
  0
VERTEX
  8
MERGEDLAYER-1
 10
158.295966
 20
62.716593
 30
0.000000
  0
VERTEX
  8
MERGEDLAYER-1
 10
158.295966
 20
63.383260
 30
0.000000
  0
VERTEX
  8
MERGEDLAYER-1
 10
158.295966
 20
64.049927
 30
0.000000
  0
VERTEX
  8
MERGEDLAYER-1
 10
157.184855
 20
63.383247
 30
0.000000
  0
SEQEND
  8
MERGEDLAYER-1
  0
POLYLINE
  8
MERGEDLAYER-1
 66
  1
 70
  1
 62
  7
  0
VERTEX
  8
MERGEDLAYER-1
 10
164.709106
 20
63.383247
 30
0.000000
  0
VERTEX
  8
MERGEDLAYER-1
 10
163.597995
 20
62.716566
 30
0.000000
  0
VERTEX
  8
MERGEDLAYER-1
 10
163.597995
 20
63.383233
 30
0.000000
  0
VERTEX
  8
MERGEDLAYER-1
 10
163.597995
 20
64.049900
 30
0.000000
  0
VERTEX
  8
MERGEDLAYER-1
 10
164.709106
 20
63.383247
 30
0.000000
  0
SEQEND
  8
MERGEDLAYER-1
  0
TEXT
  8
MERGEDLAYER-1
 62
  7
 10
160.962239
 20
65.283244
 30
0.000000
 40
1.666667
  1
 
  0
POLYLINE
  8
MERGEDLAYER-1
 66
  1
 70
  1
 62
  7
  0
VERTEX
  8
MERGEDLAYER-1
 10
160.019599
 20
49.101997
 30
0.000000
  0
VERTEX
  8
MERGEDLAYER-1
 10
160.191474
 20
49.101997
 30
0.000000
  0
VERTEX
  8
MERGEDLAYER-1
 10
160.191474
 20
47.242622
 30
0.000000
  0
VERTEX
  8
MERGEDLAYER-1
 10
160.019599
 20
47.242622
 30
0.000000
  0
SEQEND
  8
MERGEDLAYER-1
  0
POLYLINE
  8
MERGEDLAYER-1
 66
  1
 70
  0
 62
  7
 10
160.601766
 20
48.348863
 30
0.000000
  0
VERTEX
  8
MERGEDLAYER-1
 10
160.601766
 20
48.348863
 30
0.000000
  0
VERTEX
  8
MERGEDLAYER-1
 10
160.434787
 20
48.654270
 30
0.000000
  0
VERTEX
  8
MERGEDLAYER-1
 10
160.416870
 20
48.654161
 30
0.000000
  0
SEQEND
  8
MERGEDLAYER-1
  0
POLYLINE
  8
MERGEDLAYER-1
 66
  1
 70
  0
 62
  7
 10
160.416816
 20
48.654161
 30
0.000000
  0
VERTEX
  8
MERGEDLAYER-1
 10
160.416816
 20
48.654161
 30
0.000000
  0
VERTEX
  8
MERGEDLAYER-1
 10
160.173842
 20
48.708659
 30
0.000000
  0
VERTEX
  8
MERGEDLAYER-1
 10
160.212972
 20
48.654161
 30
0.000000
  0
SEQEND
  8
MERGEDLAYER-1
  0
POLYLINE
  8
MERGEDLAYER-1
 66
  1
 70
  0
 62
  7
 10
160.416843
 20
47.673733
 30
0.000000
  0
VERTEX
  8
MERGEDLAYER-1
 10
160.416843
 20
47.673733
 30
0.000000
  0
VERTEX
  8
MERGEDLAYER-1
 10
160.536377
 20
47.928643
 30
0.000000
  0
VERTEX
  8
MERGEDLAYER-1
 10
160.601739
 20
47.979031
 30
0.000000
  0
SEQEND
  8
MERGEDLAYER-1
  0
POLYLINE
  8
MERGEDLAYER-1
 66
  1
 70
  0
 62
  7
 10
160.213094
 20
47.673774
 30
0.000000
  0
VERTEX
  8
MERGEDLAYER-1
 10
160.213094
 20
47.673774
 30
0.000000
  0
VERTEX
  8
MERGEDLAYER-1
 10
160.213040
 20
48.654175
 30
0.000000
  0
SEQEND
  8
MERGEDLAYER-1
  0
POLYLINE
  8
MERGEDLAYER-1
 66
  1
 70
  0
 62
  7
 10
160.601793
 20
48.348823
 30
0.000000
  0
VERTEX
  8
MERGEDLAYER-1
 10
160.601793
 20
48.348823
 30
0.000000
  0
VERTEX
  8
MERGEDLAYER-1
 10
160.601739
 20
47.979031
 30
0.000000
  0
SEQEND
  8
MERGEDLAYER-1
  0
POLYLINE
  8
MERGEDLAYER-1
 66
  1
 70
  0
 62
  7
 10
160.416911
 20
47.673733
 30
0.000000
  0
VERTEX
  8
MERGEDLAYER-1
 10
160.416911
 20
47.673733
 30
0.000000
  0
VERTEX
  8
MERGEDLAYER-1
 10
160.213067
 20
47.673733
 30
0.000000
  0
SEQEND
  8
MERGEDLAYER-1
  0
POLYLINE
  8
MERGEDLAYER-1
 66
  1
 70
  1
 62
  7
  0
VERTEX
  8
MERGEDLAYER-1
 10
158.769599
 20
48.789497
 30
0.000000
  0
VERTEX
  8
MERGEDLAYER-1
 10
160.019599
 20
48.789497
 30
0.000000
  0
VERTEX
  8
MERGEDLAYER-1
 10
160.019599
 20
47.539497
 30
0.000000
  0
VERTEX
  8
MERGEDLAYER-1
 10
158.769599
 20
47.539497
 30
0.000000
  0
SEQEND
  8
MERGEDLAYER-1
  0
POLYLINE
  8
MERGEDLAYER-1
 66
  1
 70
  1
 62
  7
  0
VERTEX
  8
MERGEDLAYER-1
 10
158.910224
 20
49.726997
 30
0.000000
  0
VERTEX
  8
MERGEDLAYER-1
 10
159.894599
 20
49.726997
 30
0.000000
  0
VERTEX
  8
MERGEDLAYER-1
 10
159.894599
 20
46.601997
 30
0.000000
  0
VERTEX
  8
MERGEDLAYER-1
 10
158.910224
 20
46.601997
 30
0.000000
  0
SEQEND
  8
MERGEDLAYER-1
  0
POLYLINE
  8
MERGEDLAYER-1
 66
  1
 70
  1
 62
  7
  0
VERTEX
  8
MERGEDLAYER-1
 10
158.910224
 20
49.726997
 30
0.000000
  0
VERTEX
  8
MERGEDLAYER-1
 10
159.894599
 20
49.726997
 30
0.000000
  0
VERTEX
  8
MERGEDLAYER-1
 10
159.894599
 20
46.601997
 30
0.000000
  0
VERTEX
  8
MERGEDLAYER-1
 10
158.910224
 20
46.601997
 30
0.000000
  0
SEQEND
  8
MERGEDLAYER-1
  0
TEXT
  8
MERGEDLAYER-1
 62
  7
 10
82.540025
 20
5.994358
 30
0.000000
 40
3.166667
  1
VUE EN PLAN
 72
  5
 11
111.651136
 21
5.994358
 31
0.000000
  0
TEXT
  8
MERGEDLAYER-1
 62
  7
 10
38.762247
 20
99.772135
 30
0.000000
 40
3.166667
  1
COUPE
 72
  5
 11
54.984469
 21
99.772135
 31
0.000000
  0
TEXT
  8
MERGEDLAYER-1
 62
  7
 10
16.095580
 20
94.883247
 30
0.000000
 40
3.166667
  1
( RIDEAU ET BARRE DU BAS )
 72
  5
 11
77.651136
 21
94.883247
 31
0.000000
  0
TEXT
  8
MERGEDLAYER-1
 62
  7
 10
86.540025
 20
59.994358
 30
0.000000
 40
2.500000
  1
EXTƒRIEUR
 72
  5
 11
106.984469
 21
59.994358
 31
0.000000
  0
TEXT
  8
MERGEDLAYER-1
 62
  7
 10
77.873358
 20
36.661024
 30
0.000000
 40
2.500000
  1
INTƒRIEUR DU MEUBLE
 72
  5
 11
118.095580
 21
36.661024
 31
0.000000
  0
LINE
  8
MERGEDLAYER-1
 62
  7
 10
33.002479
 20
77.026625
 30
0.000000
 11
160.424357
 21
77.026625
 31
0.000000
  0
LINE
  8
MERGEDLAYER-1
 62
  7
 10
32.502479
 20
51.618340
 30
0.000000
 11
32.502479
 21
80.201619
 31
0.000000
  0
LINE
  8
MERGEDLAYER-1
 62
  7
 10
160.924357
 20
51.618340
 30
0.000000
 11
160.924357
 21
80.201619
 31
0.000000
  0
POLYLINE
  8
MERGEDLAYER-1
 66
  1
 70
  1
 62
  7
  0
VERTEX
  8
MERGEDLAYER-1
 10
32.502479
 20
77.026625
 30
0.000000
  0
VERTEX
  8
MERGEDLAYER-1
 10
33.613593
 20
76.359972
 30
0.000000
  0
VERTEX
  8
MERGEDLAYER-1
 10
33.613590
 20
77.026638
 30
0.000000
  0
VERTEX
  8
MERGEDLAYER-1
 10
33.613586
 20
77.693305
 30
0.000000
  0
VERTEX
  8
MERGEDLAYER-1
 10
32.502479
 20
77.026625
 30
0.000000
  0
SEQEND
  8
MERGEDLAYER-1
  0
POLYLINE
  8
MERGEDLAYER-1
 66
  1
 70
  1
 62
  7
  0
VERTEX
  8
MERGEDLAYER-1
 10
160.924357
 20
77.026625
 30
0.000000
  0
VERTEX
  8
MERGEDLAYER-1
 10
159.813246
 20
76.359945
 30
0.000000
  0
VERTEX
  8
MERGEDLAYER-1
 10
159.813246
 20
77.026611
 30
0.000000
  0
VERTEX
  8
MERGEDLAYER-1
 10
159.813246
 20
77.693278
 30
0.000000
  0
VERTEX
  8
MERGEDLAYER-1
 10
160.924357
 20
77.026625
 30
0.000000
  0
SEQEND
  8
MERGEDLAYER-1
  0
TEXT
  8
MERGEDLAYER-1
 62
  7
 10
96.362243
 20
76.183255
 30
0.000000
 40
2.000000
  1
 
  0
POLYLINE
  8
MERGEDLAYER-1
 66
  1
 70
  1
 62
  7
  0
VERTEX
  8
MERGEDLAYER-1
 10
84.404711
 20
82.133247
 30
0.000000
  0
VERTEX
  8
MERGEDLAYER-1
 10
109.099108
 20
82.133247
 30
0.000000
  0
VERTEX
  8
MERGEDLAYER-1
 10
109.099108
 20
71.870633
 30
0.000000
  0
VERTEX
  8
MERGEDLAYER-1
 10
84.404711
 20
71.870633
 30
0.000000
  0
SEQEND
  8
MERGEDLAYER-1
  0
POLYLINE
  8
MERGEDLAYER-1
 66
  1
 70
  0
 62
  7
 40
0.666667
 41
0.666667
 10
108.938761
 20
72.512058
 30
0.000000
  0
VERTEX
  8
MERGEDLAYER-1
 10
108.938761
 20
72.512058
 30
0.000000
  0
VERTEX
  8
MERGEDLAYER-1
 10
84.404711
 20
72.512058
 30
0.000000
  0
SEQEND
  8
MERGEDLAYER-1
  0
TEXT
  8
MERGEDLAYER-1
 62
  7
 10
66.317802
 20
12.883247
 30
0.000000
 40
2.333333
  1
LARGEUR INTƒRIEURE DU MEUBLE "W"
 72
  5
 11
126.762247
 21
12.883247
 31
0.000000
  0
TEXT
  8
MERGEDLAYER-1
 62
  7
 10
67.206691
 20
67.772135
 30
0.000000
 40
2.333333
  1
LARGEUR INTƒRIEURE DES RAINURES
 72
  5
 11
126.540025
 21
67.772135
 31
0.000000
  0
TEXT
  8
MERGEDLAYER-1
 62
  7
 10
41.428914
 20
41.105469
 30
0.000000
 40
2.000000
  1
RIDEAU
 72
  5
 11
52.540025
 21
41.105469
 31
0.000000
  0
POLYLINE
  8
MERGEDLAYER-1
 66
  1
 70
  1
 62
255
  0
VERTEX
  8
MERGEDLAYER-1
 10
27.135291
 20
24.884671
 30
0.000000
  0
VERTEX
  8
MERGEDLAYER-1
 10
37.291541
 20
24.884671
 30
0.000000
  0
VERTEX
  8
MERGEDLAYER-1
 10
37.291541
 20
16.920139
 30
0.000000
  0
VERTEX
  8
MERGEDLAYER-1
 10
27.135291
 20
16.920139
 30
0.000000
  0
SEQEND
  8
MERGEDLAYER-1
  0
POLYLINE
  8
MERGEDLAYER-1
 66
  1
 70
  1
 62
255
  0
VERTEX
  8
MERGEDLAYER-1
 10
156.385295
 20
24.884671
 30
0.000000
  0
VERTEX
  8
MERGEDLAYER-1
 10
166.541545
 20
24.884671
 30
0.000000
  0
VERTEX
  8
MERGEDLAYER-1
 10
166.541545
 20
16.920139
 30
0.000000
  0
VERTEX
  8
MERGEDLAYER-1
 10
156.385295
 20
16.920139
 30
0.000000
  0
SEQEND
  8
MERGEDLAYER-1
  0
LINE
  8
MERGEDLAYER-1
 62
  7
 10
36.762248
 20
22.026625
 30
0.000000
 11
156.762248
 21
22.026625
 31
0.000000
  0
LINE
  8
MERGEDLAYER-1
 62
  7
 10
36.262248
 20
29.795749
 30
0.000000
 11
36.262248
 21
18.851617
 31
0.000000
  0
LINE
  8
MERGEDLAYER-1
 62
  7
 10
157.262248
 20
28.295749
 30
0.000000
 11
157.262248
 21
18.851617
 31
0.000000
  0
POLYLINE
  8
MERGEDLAYER-1
 66
  1
 70
  1
 62
  7
  0
VERTEX
  8
MERGEDLAYER-1
 10
36.262248
 20
22.026625
 30
0.000000
  0
VERTEX
  8
MERGEDLAYER-1
 10
37.373362
 20
21.359972
 30
0.000000
  0
VERTEX
  8
MERGEDLAYER-1
 10
37.373359
 20
22.026638
 30
0.000000
  0
VERTEX
  8
MERGEDLAYER-1
 10
37.373355
 20
22.693305
 30
0.000000
  0
VERTEX
  8
MERGEDLAYER-1
 10
36.262248
 20
22.026625
 30
0.000000
  0
SEQEND
  8
MERGEDLAYER-1
  0
POLYLINE
  8
MERGEDLAYER-1
 66
  1
 70
  1
 62
  7
  0
VERTEX
  8
MERGEDLAYER-1
 10
157.262248
 20
22.026625
 30
0.000000
  0
VERTEX
  8
MERGEDLAYER-1
 10
156.151137
 20
21.359945
 30
0.000000
  0
VERTEX
  8
MERGEDLAYER-1
 10
156.151137
 20
22.026611
 30
0.000000
  0
VERTEX
  8
MERGEDLAYER-1
 10
156.151137
 20
22.693278
 30
0.000000
  0
VERTEX
  8
MERGEDLAYER-1
 10
157.262248
 20
22.026625
 30
0.000000
  0
SEQEND
  8
MERGEDLAYER-1
  0
TEXT
  8
MERGEDLAYER-1
 62
  7
 10
96.362243
 20
21.183255
 30
0.000000
 40
2.000000
  1
 
  0
POLYLINE
  8
MERGEDLAYER-1
 66
  1
 70
  1
 62
  7
  0
VERTEX
  8
MERGEDLAYER-1
 10
84.404711
 20
27.383247
 30
0.000000
  0
VERTEX
  8
MERGEDLAYER-1
 10
109.099108
 20
27.383247
 30
0.000000
  0
VERTEX
  8
MERGEDLAYER-1
 10
109.099108
 20
17.120633
 30
0.000000
  0
VERTEX
  8
MERGEDLAYER-1
 10
84.404711
 20
17.120633
 30
0.000000
  0
SEQEND
  8
MERGEDLAYER-1
  0
POLYLINE
  8
MERGEDLAYER-1
 66
  1
 70
  0
 62
  7
 40
0.666667
 41
0.666667
 10
108.938761
 20
17.762058
 30
0.000000
  0
VERTEX
  8
MERGEDLAYER-1
 10
108.938761
 20
17.762058
 30
0.000000
  0
VERTEX
  8
MERGEDLAYER-1
 10
84.404711
 20
17.762058
 30
0.000000
  0
SEQEND
  8
MERGEDLAYER-1
  0
TEXT
  8
MERGEDLAYER-1
 62
  7
 10
4.984469
 20
34.883247
 30
0.000000
 40
2.333333
  1
DIMENSIONS
 72
  5
 11
25.651136
 21
34.883247
 31
0.000000
  0
TEXT
  8
MERGEDLAYER-1
 62
  7
 10
4.984469
 20
31.327691
 30
0.000000
 40
2.333333
  1
INTƒRIEURES
 72
  5
 11
26.762247
 21
31.327691
 31
0.000000
  0
TEXT
  8
MERGEDLAYER-1
 62
  7
 10
4.984469
 20
27.772135
 30
0.000000
 40
2.333333
  1
MINIMUM DES
 72
  5
 11
27.428914
 21
27.772135
 31
0.000000
  0
TEXT
  8
MERGEDLAYER-1
 62
  7
 10
4.984469
 20
24.216580
 30
0.000000
 40
2.333333
  1
RAINURES
 72
  5
 11
21.873358
 21
24.216580
 31
0.000000
  0
TEXT
  8
MERGEDLAYER-1
 62
  7
 10
4.984469
 20
20.661024
 30
0.000000
 40
2.333333
  1
ET FINITION:
 72
  5
 11
25.428914
 21
20.661024
 31
0.000000
  0
TEXT
  8
MERGEDLAYER-1
 62
  7
 10
4.984469
 20
17.105469
 30
0.000000
 40
2.333333
  1
3/4" x 3/4"
 72
  5
 11
20.540025
 21
17.105469
 31
0.000000
  0
TEXT
  8
MERGEDLAYER-1
 62
  7
 10
4.984469
 20
13.549913
 30
0.000000
 40
2.333333
  1
(19x19mm)
 72
  5
 11
22.317802
 21
13.549913
 31
0.000000
  0
TEXT
  8
MERGEDLAYER-1
 62
  7
 10
179.873358
 20
31.327691
 30
0.000000
 40
2.333333
  1
TROU
 72
  5
 11
189.873358
 21
31.327691
 31
0.000000
  0
TEXT
  8
MERGEDLAYER-1
 62
  7
 10
167.428914
 20
27.772135
 30
0.000000
 40
2.333333
  1
3/8" DIA x 3/8" 
 72
  5
 11
189.873358
 21
27.772135
 31
0.000000
  0
TEXT
  8
MERGEDLAYER-1
 62
  7
 10
172.540025
 20
24.216580
 30
0.000000
 40
2.333333
  1
(10x10mm)
 72
  5
 11
189.873358
 21
24.216580
 31
0.000000
  0
TEXT
  8
MERGEDLAYER-1
 62
  7
 10
163.651136
 20
20.661024
 30
0.000000
 40
2.333333
  1
DANS RAINURES
 72
  5
 11
189.873358
 21
20.661024
 31
0.000000
  0
TEXT
  8
MERGEDLAYER-1
 62
  7
 10
169.651136
 20
17.105469
 30
0.000000
 40
2.333333
  1
POUR TIGES
 72
  5
 11
189.873358
 21
17.105469
 31
0.000000
  0
TEXT
  8
MERGEDLAYER-1
 62
  7
 10
168.540025
 20
13.549913
 30
0.000000
 40
2.333333
  1
DE VERROUS
 72
  5
 11
189.873358
 21
13.549913
 31
0.000000
  0
TEXT
  8
MERGEDLAYER-1
 62
  7
 10
41.428914
 20
36.216580
 30
0.000000
 40
2.000000
  1
BARRE DU BAS
 72
  5
 11
62.095580
 21
36.216580
 31
0.000000
  0
POLYLINE
  8
MERGEDLAYER-1
 66
  1
 70
  0
 62
  7
 10
66.936849
 20
44.628621
 30
0.000000
  0
VERTEX
  8
MERGEDLAYER-1
 10
66.936849
 20
44.628621
 30
0.000000
  0
VERTEX
  8
MERGEDLAYER-1
 10
60.512248
 20
37.133247
 30
0.000000
  0
SEQEND
  8
MERGEDLAYER-1
  0
POLYLINE
  8
MERGEDLAYER-1
 66
  1
 70
  1
 62
  7
  0
VERTEX
  8
MERGEDLAYER-1
 10
67.262248
 20
45.008247
 30
0.000000
  0
VERTEX
  8
MERGEDLAYER-1
 10
66.032973
 20
44.598497
 30
0.000000
  0
VERTEX
  8
MERGEDLAYER-1
 10
66.539144
 20
44.164632
 30
0.000000
  0
VERTEX
  8
MERGEDLAYER-1
 10
67.045315
 20
43.730767
 30
0.000000
  0
VERTEX
  8
MERGEDLAYER-1
 10
67.262248
 20
45.008247
 30
0.000000
  0
SEQEND
  8
MERGEDLAYER-1
  0
TEXT
  8
MERGEDLAYER-1
 62
  7
 10
104.984469
 20
53.994358
 30
0.000000
 40
2.000000
  1
CYLINDRE
 72
  5
 11
119.651136
 21
53.994358
 31
0.000000
  0
POLYLINE
  8
MERGEDLAYER-1
 66
  1
 70
  0
 62
  7
 10
101.135071
 20
53.789103
 30
0.000000
  0
VERTEX
  8
MERGEDLAYER-1
 10
101.135071
 20
53.789103
 30
0.000000
  0
VERTEX
  8
MERGEDLAYER-1
 10
104.262248
 20
54.883247
 30
0.000000
  0
SEQEND
  8
MERGEDLAYER-1
  0
POLYLINE
  8
MERGEDLAYER-1
 66
  1
 70
  1
 62
  7
  0
VERTEX
  8
MERGEDLAYER-1
 10
100.663127
 20
53.623969
 30
0.000000
  0
VERTEX
  8
MERGEDLAYER-1
 10
101.932061
 20
53.361654
 30
0.000000
  0
VERTEX
  8
MERGEDLAYER-1
 10
101.711894
 20
53.990913
 30
0.000000
  0
VERTEX
  8
MERGEDLAYER-1
 10
101.491726
 20
54.620171
 30
0.000000
  0
VERTEX
  8
MERGEDLAYER-1
 10
100.663127
 20
53.623969
 30
0.000000
  0
SEQEND
  8
MERGEDLAYER-1
  0
POLYLINE
  8
MERGEDLAYER-1
 66
  1
 70
  0
 62
  7
 10
59.422723
 20
47.016195
 30
0.000000
  0
VERTEX
  8
MERGEDLAYER-1
 10
59.422723
 20
47.016195
 30
0.000000
  0
VERTEX
  8
MERGEDLAYER-1
 10
55.137248
 20
42.383247
 30
0.000000
  0
SEQEND
  8
MERGEDLAYER-1
  0
POLYLINE
  8
MERGEDLAYER-1
 66
  1
 70
  1
 62
  7
  0
VERTEX
  8
MERGEDLAYER-1
 10
59.762248
 20
47.383247
 30
0.000000
  0
VERTEX
  8
MERGEDLAYER-1
 10
58.518358
 20
47.020264
 30
0.000000
  0
VERTEX
  8
MERGEDLAYER-1
 10
59.007758
 20
46.567573
 30
0.000000
  0
VERTEX
  8
MERGEDLAYER-1
 10
59.497158
 20
46.114882
 30
0.000000
  0
VERTEX
  8
MERGEDLAYER-1
 10
59.762248
 20
47.383247
 30
0.000000
  0
SEQEND
  8
MERGEDLAYER-1
  0
TEXT
  8
MERGEDLAYER-1
 62
  7
 10
41.206691
 20
57.105469
 30
0.000000
 40
2.000000
  1
POIGNƒE
 72
  5
 11
54.317802
 21
57.105469
 31
0.000000
  0
TEXT
  8
MERGEDLAYER-1
 62
  7
 10
41.206691
 20
53.994358
 30
0.000000
 40
2.000000
  1
ENCASTRƒE
 72
  5
 11
58.540025
 21
53.994358
 31
0.000000
  0
POLYLINE
  8
MERGEDLAYER-1
 66
  1
 70
  0
 62
  7
 10
62.616469
 20
52.110623
 30
0.000000
  0
VERTEX
  8
MERGEDLAYER-1
 10
62.616469
 20
52.110623
 30
0.000000
  0
VERTEX
  8
MERGEDLAYER-1
 10
59.118910
 20
55.327691
 30
0.000000
  0
SEQEND
  8
MERGEDLAYER-1
  0
POLYLINE
  8
MERGEDLAYER-1
 66
  1
 70
  1
 62
  7
  0
VERTEX
  8
MERGEDLAYER-1
 10
62.984470
 20
51.772135
 30
0.000000
  0
VERTEX
  8
MERGEDLAYER-1
 10
62.618015
 20
53.015001
 30
0.000000
  0
VERTEX
  8
MERGEDLAYER-1
 10
62.166694
 20
52.524333
 30
0.000000
  0
VERTEX
  8
MERGEDLAYER-1
 10
61.715373
 20
52.033664
 30
0.000000
  0
VERTEX
  8
MERGEDLAYER-1
 10
62.984470
 20
51.772135
 30
0.000000
  0
SEQEND
  8
MERGEDLAYER-1
  0
ARC
  8
MERGEDLAYER-1
 62
  7
 10
53.762248
 20
51.323256
 30
0.000000
 40
0.310000
 50
90.000000
 51
180.000000
  0
POLYLINE
  8
MERGEDLAYER-1
 66
  1
 70
  0
 62
  7
 10
53.762248
 20
51.633247
 30
0.000000
  0
VERTEX
  8
MERGEDLAYER-1
 10
53.762248
 20
51.633247
 30
0.000000
  0
VERTEX
  8
MERGEDLAYER-1
 10
68.142253
 20
51.633247
 30
0.000000
  0
SEQEND
  8
MERGEDLAYER-1
  0
ARC
  8
MERGEDLAYER-1
 62
  7
 10
68.142253
 20
51.323256
 30
0.000000
 40
0.310000
 50
0.000000
 51
90.000000
  0
POLYLINE
  8
MERGEDLAYER-1
 66
  1
 70
  0
 62
  7
 10
68.452250
 20
51.320747
 30
0.000000
  0
VERTEX
  8
MERGEDLAYER-1
 10
68.452250
 20
51.320747
 30
0.000000
  0
VERTEX
  8
MERGEDLAYER-1
 10
68.452250
 20
51.323256
 30
0.000000
  0
SEQEND
  8
MERGEDLAYER-1
  0
POLYLINE
  8
MERGEDLAYER-1
 66
  1
 70
  0
 62
  7
 10
68.452250
 20
51.320747
 30
0.000000
  0
VERTEX
  8
MERGEDLAYER-1
 10
68.452250
 20
51.320747
 30
0.000000
  0
VERTEX
  8
MERGEDLAYER-1
 10
53.452250
 20
51.320747
 30
0.000000
  0
SEQEND
  8
MERGEDLAYER-1
  0
POLYLINE
  8
MERGEDLAYER-1
 66
  1
 70
  0
 62
  7
 10
53.452250
 20
51.320747
 30
0.000000
  0
VERTEX
  8
MERGEDLAYER-1
 10
53.452250
 20
51.320747
 30
0.000000
  0
VERTEX
  8
MERGEDLAYER-1
 10
53.452250
 20
51.323256
 30
0.000000
  0
SEQEND
  8
MERGEDLAYER-1
  0
ARC
  8
MERGEDLAYER-1
 62
  7
 10
124.621514
 20
51.333672
 30
0.000000
 40
0.310000
 50
90.000000
 51
180.000000
  0
POLYLINE
  8
MERGEDLAYER-1
 66
  1
 70
  0
 62
  7
 10
124.621514
 20
51.643663
 30
0.000000
  0
VERTEX
  8
MERGEDLAYER-1
 10
124.621514
 20
51.643663
 30
0.000000
  0
VERTEX
  8
MERGEDLAYER-1
 10
139.001519
 20
51.643663
 30
0.000000
  0
SEQEND
  8
MERGEDLAYER-1
  0
ARC
  8
MERGEDLAYER-1
 62
  7
 10
139.001519
 20
51.333672
 30
0.000000
 40
0.310000
 50
0.000000
 51
90.000000
  0
POLYLINE
  8
MERGEDLAYER-1
 66
  1
 70
  0
 62
  7
 10
139.311523
 20
51.331163
 30
0.000000
  0
VERTEX
  8
MERGEDLAYER-1
 10
139.311523
 20
51.331163
 30
0.000000
  0
VERTEX
  8
MERGEDLAYER-1
 10
139.311523
 20
51.333672
 30
0.000000
  0
SEQEND
  8
MERGEDLAYER-1
  0
POLYLINE
  8
MERGEDLAYER-1
 66
  1
 70
  0
 62
  7
 10
139.311523
 20
51.331163
 30
0.000000
  0
VERTEX
  8
MERGEDLAYER-1
 10
139.311523
 20
51.331163
 30
0.000000
  0
VERTEX
  8
MERGEDLAYER-1
 10
124.311523
 20
51.331163
 30
0.000000
  0
SEQEND
  8
MERGEDLAYER-1
  0
POLYLINE
  8
MERGEDLAYER-1
 66
  1
 70
  0
 62
  7
 10
124.311523
 20
51.331163
 30
0.000000
  0
VERTEX
  8
MERGEDLAYER-1
 10
124.311523
 20
51.331163
 30
0.000000
  0
VERTEX
  8
MERGEDLAYER-1
 10
124.311523
 20
51.333672
 30
0.000000
  0
SEQEND
  8
MERGEDLAYER-1
  0
POLYLINE
  8
MERGEDLAYER-1
 66
  1
 70
  1
 62
  7
  0
VERTEX
  8
MERGEDLAYER-1
 10
34.574748
 20
48.945747
 30
0.000000
  0
VERTEX
  8
MERGEDLAYER-1
 10
158.824748
 20
48.945747
 30
0.000000
  0
VERTEX
  8
MERGEDLAYER-1
 10
158.824748
 20
47.383247
 30
0.000000
  0
VERTEX
  8
MERGEDLAYER-1
 10
34.574748
 20
47.383247
 30
0.000000
  0
SEQEND
  8
MERGEDLAYER-1
  0
POLYLINE
  8
MERGEDLAYER-1
 66
  1
 70
  0
 62
  7
 10
160.887248
 20
63.383247
 30
0.000000
  0
VERTEX
  8
MERGEDLAYER-1
 10
160.887248
 20
63.383247
 30
0.000000
  0
VERTEX
  8
MERGEDLAYER-1
 10
162.637248
 20
67.133247
 30
0.000000
  0
SEQEND
  8
MERGEDLAYER-1
  0
TEXT
  8
MERGEDLAYER-1
 62
  7
 10
69.873358
 20
107.772135
 30
0.000000
 40
2.333333
  1
INTƒRIEUR
 72
  5
 11
87.651136
 21
107.772135
 31
0.000000
  0
TEXT
  8
MERGEDLAYER-1
 62
  7
 10
9.206691
 20
107.772135
 30
0.000000
 40
2.333333
  1
EXTƒRIEUR
 72
  5
 11
27.873358
 21
107.772135
 31
0.000000
  0
TEXT
  8
MERGEDLAYER-1
 62
  7
 10
10.095580
 20
171.772135
 30
0.000000
 40
2.333333
  1
PANNEAUX
 72
  5
 11
27.873358
 21
171.772135
 31
0.000000
  0
TEXT
  8
MERGEDLAYER-1
 62
  7
 10
10.095580
 20
168.216580
 30
0.000000
 40
2.333333
  1
D'ALUMINIUM
 72
  5
 11
31.651136
 21
168.216580
 31
0.000000
  0
TEXT
  8
MERGEDLAYER-1
 62
  7
 10
10.095580
 20
164.661024
 30
0.000000
 40
2.333333
  1
0.050" (1.3mm)
 72
  5
 11
33.206691
 21
164.661024
 31
0.000000
  0
TEXT
  8
MERGEDLAYER-1
 62
  7
 10
10.095580
 20
161.105469
 30
0.000000
 40
2.333333
  1
ANODISƒ NATUREL
 72
  5
 11
40.317802
 21
161.105469
 31
0.000000
  0
TEXT
  8
MERGEDLAYER-1
 62
  7
 10
10.095580
 20
157.549913
 30
0.000000
 40
2.333333
  1
PLEINE LARGEUR
 72
  5
 11
37.873358
 21
157.549913
 31
0.000000
  0
TEXT
  8
MERGEDLAYER-1
 62
  7
 10
10.095580
 20
141.549913
 30
0.000000
 40
2.333333
  1
BARRE DU BAS
 72
  5
 11
33.873358
 21
141.549913
 31
0.000000
  0
TEXT
  8
MERGEDLAYER-1
 62
  7
 10
10.095580
 20
137.994358
 30
0.000000
 40
2.333333
  1
AVEC CYLINDRE
 72
  5
 11
35.873358
 21
137.994358
 31
0.000000
  0
TEXT
  8
MERGEDLAYER-1
 62
  7
 10
10.095580
 20
134.438802
 30
0.000000
 40
2.333333
  1
EXTƒRIEUR
 72
  5
 11
28.762247
 21
134.438802
 31
0.000000
  0
TEXT
  8
MERGEDLAYER-1
 62
  7
 10
10.095580
 20
130.883247
 30
0.000000
 40
2.333333
  1
+ 2x POIGNƒES
 72
  5
 11
34.095580
 21
130.883247
 31
0.000000
  0
TEXT
  8
MERGEDLAYER-1
 62
  7
 10
10.095580
 20
127.327691
 30
0.000000
 40
2.333333
  1
ENCASTRƒES
 72
  5
 11
31.873358
 21
127.327691
 31
0.000000
  0
TEXT
  8
MERGEDLAYER-1
 62
  7
 10
36.095580
 20
70.216580
 30
0.000000
 40
2.500000
  1
3/4"
 72
  5
 11
42.762247
 21
70.216580
 31
0.000000
  0
TEXT
  8
MERGEDLAYER-1
 62
  7
 10
33.206691
 20
66.438802
 30
0.000000
 40
2.500000
  1
(19mm)
 72
  5
 11
45.873358
 21
66.438802
 31
0.000000
  0
TEXT
  8
MERGEDLAYER-1
 62
  7
 10
163.206691
 20
66.216580
 30
0.000000
 40
2.500000
  1
1-1/2" (38mm)
 72
  5
 11
185.206691
 21
66.216580
 31
0.000000
  0
TEXT
  8
MERGEDLAYER-1
 62
  7
 10
10.762247
 20
49.105469
 30
0.000000
 40
2.500000
  1
3/4"
 72
  5
 11
17.428914
 21
49.105469
 31
0.000000
  0
TEXT
  8
MERGEDLAYER-1
 62
  7
 10
7.873358
 20
45.327691
 30
0.000000
 40
2.500000
  1
(19mm)
 72
  5
 11
20.540025
 21
45.327691
 31
0.000000
  0
TEXT
  8
MERGEDLAYER-1
 62
  7
 10
122.762247
 20
94.883247
 30
0.000000
 40
3.166667
  1
COUPE ( MEUBLE ) 
 72
  5
 11
164.317802
 21
94.883247
 31
0.000000
  0
TEXT
  8
MERGEDLAYER-1
 62
  7
 10
127.206691
 20
158.216580
 30
0.000000
 40
2.333333
  1
RAYON:
 72
  5
 11
140.095580
 21
158.216580
 31
0.000000
  0
TEXT
  8
MERGEDLAYER-1
 62
  7
 10
127.206691
 20
154.661024
 30
0.000000
 40
2.333333
  1
Min. 3" (76mm) 
 72
  5
 11
150.984469
 21
154.661024
 31
0.000000
  0
TEXT
  8
MERGEDLAYER-1
 62
  7
 10
127.206691
 20
151.105469
 30
0.000000
 40
2.333333
  1
IdŽal 5" (127mm) 
 72
  5
 11
153.651136
 21
151.105469
 31
0.000000
  0
TEXT
  8
MERGEDLAYER-1
 62
  7
 10
188.317802
 20
109.772135
 30
0.000000
 40
2.333333
  1
HAUTEUR TOTALE DES RAINURES
 50
90.000000
 72
  5
 11
188.317802
 21
162.661024
 31
0.000000
  0
TEXT
  8
MERGEDLAYER-1
 62
  7
 10
127.428914
 20
117.772135
 30
0.000000
 40
1.833333
  1
PERCER
 72
  5
 11
137.206691
 21
117.772135
 31
0.000000
  0
TEXT
  8
MERGEDLAYER-1
 62
  7
 10
127.428914
 20
115.105469
 30
0.000000
 40
1.833333
  1
3/8" (10mm) DIA x 3/8" (10mm)
 72
  5
 11
161.428914
 21
115.105469
 31
0.000000
  0
TEXT
  8
MERGEDLAYER-1
 62
  7
 10
127.428914
 20
112.438802
 30
0.000000
 40
1.833333
  1
POUR TIGE DE VERROU Ë
 72
  5
 11
156.540025
 21
112.438802
 31
0.000000
  0
TEXT
  8
MERGEDLAYER-1
 62
  7
 10
127.428914
 20
109.772135
 30
0.000000
 40
1.500000
  1
+/-
 72
  5
 11
130.984469
 21
109.772135
 31
0.000000
  0
TEXT
  8
MERGEDLAYER-1
 62
  7
 10
130.984469
 20
109.772135
 30
0.000000
 40
1.833333
  1
1-13/16" (46mm) AU-DESSUS 
 72
  5
 11
164.540025
 21
109.772135
 31
0.000000
  0
TEXT
  8
MERGEDLAYER-1
 62
  7
 10
127.428914
 20
107.105469
 30
0.000000
 40
1.833333
  1
DE LA BASE DU MEUBLE
 72
  5
 11
155.428914
 21
107.105469
 31
0.000000
  0
POLYLINE
  8
MERGEDLAYER-1
 66
  1
 70
  1
 62
  7
  0
VERTEX
  8
MERGEDLAYER-1
 10
118.470174
 20
105.062595
 30
0.000000
  0
VERTEX
  8
MERGEDLAYER-1
 10
168.470174
 20
105.062595
 30
0.000000
  0
VERTEX
  8
MERGEDLAYER-1
 10
168.470174
 20
103.586887
 30
0.000000
  0
VERTEX
  8
MERGEDLAYER-1
 10
118.470174
 20
103.586887
 30
0.000000
  0
SEQEND
  8
MERGEDLAYER-1
  0
POLYLINE
  8
MERGEDLAYER-1
 66
  1
 70
  0
 62
  7
 10
168.470174
 20
175.187568
 30
0.000000
  0
VERTEX
  8
MERGEDLAYER-1
 10
168.470174
 20
175.187568
 30
0.000000
  0
VERTEX
  8
MERGEDLAYER-1
 10
118.105550
 20
175.149984
 30
0.000000
  0
SEQEND
  8
MERGEDLAYER-1
  0
POLYLINE
  8
MERGEDLAYER-1
 66
  1
 70
  0
 62
  7
 10
168.470174
 20
105.062595
 30
0.000000
  0
VERTEX
  8
MERGEDLAYER-1
 10
168.470174
 20
105.062595
 30
0.000000
  0
VERTEX
  8
MERGEDLAYER-1
 10
118.470174
 20
105.062595
 30
0.000000
  0
SEQEND
  8
MERGEDLAYER-1
  0
POLYLINE
  8
MERGEDLAYER-1
 66
  1
 70
  1
 62
  7
  0
VERTEX
  8
MERGEDLAYER-1
 10
167.081312
 20
175.149387
 30
0.000000
  0
VERTEX
  8
MERGEDLAYER-1
 10
168.470174
 20
175.149387
 30
0.000000
  0
VERTEX
  8
MERGEDLAYER-1
 10
168.470174
 20
105.062595
 30
0.000000
  0
VERTEX
  8
MERGEDLAYER-1
 10
167.081312
 20
105.062595
 30
0.000000
  0
SEQEND
  8
MERGEDLAYER-1
  0
LINE
  8
MERGEDLAYER-1
 62
  7
 10
178.970147
 20
105.565620
 30
0.000000
 11
178.970147
 21
171.753540
 31
0.000000
  0
LINE
  8
MERGEDLAYER-1
 62
  7
 10
172.057671
 20
105.065620
 30
0.000000
 11
182.145155
 21
105.065620
 31
0.000000
  0
LINE
  8
MERGEDLAYER-1
 62
  7
 10
155.057699
 20
172.253540
 30
0.000000
 11
182.145155
 21
172.253540
 31
0.000000
  0
POLYLINE
  8
MERGEDLAYER-1
 66
  1
 70
  1
 62
  7
  0
VERTEX
  8
MERGEDLAYER-1
 10
178.970147
 20
105.065620
 30
0.000000
  0
VERTEX
  8
MERGEDLAYER-1
 10
179.636814
 20
106.176731
 30
0.000000
  0
VERTEX
  8
MERGEDLAYER-1
 10
178.970147
 20
106.176731
 30
0.000000
  0
VERTEX
  8
MERGEDLAYER-1
 10
178.303480
 20
106.176731
 30
0.000000
  0
VERTEX
  8
MERGEDLAYER-1
 10
178.970147
 20
105.065620
 30
0.000000
  0
SEQEND
  8
MERGEDLAYER-1
  0
POLYLINE
  8
MERGEDLAYER-1
 66
  1
 70
  1
 62
  7
  0
VERTEX
  8
MERGEDLAYER-1
 10
178.970147
 20
172.253540
 30
0.000000
  0
VERTEX
  8
MERGEDLAYER-1
 10
179.636814
 20
171.142415
 30
0.000000
  0
VERTEX
  8
MERGEDLAYER-1
 10
178.970147
 20
171.142429
 30
0.000000
  0
VERTEX
  8
MERGEDLAYER-1
 10
178.303480
 20
171.142429
 30
0.000000
  0
VERTEX
  8
MERGEDLAYER-1
 10
178.970147
 20
172.253540
 30
0.000000
  0
SEQEND
  8
MERGEDLAYER-1
  0
TEXT
  8
MERGEDLAYER-1
 62
  7
 10
178.662244
 20
142.483249
 30
0.000000
 40
2.000000
  1
 
  0
POLYLINE
  8
MERGEDLAYER-1
 66
  1
 70
  1
 62
  7
  0
VERTEX
  8
MERGEDLAYER-1
 10
173.762193
 20
124.792453
 30
0.000000
  0
VERTEX
  8
MERGEDLAYER-1
 10
173.762193
 20
149.486830
 30
0.000000
  0
VERTEX
  8
MERGEDLAYER-1
 10
184.024821
 20
149.486830
 30
0.000000
  0
VERTEX
  8
MERGEDLAYER-1
 10
184.024821
 20
124.792453
 30
0.000000
  0
SEQEND
  8
MERGEDLAYER-1
  0
POLYLINE
  8
MERGEDLAYER-1
 66
  1
 70
  0
 62
  7
 40
0.666667
 41
0.666667
 10
183.383382
 20
149.326470
 30
0.000000
  0
VERTEX
  8
MERGEDLAYER-1
 10
183.383382
 20
149.326470
 30
0.000000
  0
VERTEX
  8
MERGEDLAYER-1
 10
183.383382
 20
124.792453
 30
0.000000
  0
SEQEND
  8
MERGEDLAYER-1
  0
POLYLINE
  8
MERGEDLAYER-1
  6
LTYPE01
 66
  1
 70
  1
 62
  7
  0
VERTEX
  8
MERGEDLAYER-1
  6
LTYPE01
 10
118.138618
 20
173.727485
 30
0.000000
  0
VERTEX
  8
MERGEDLAYER-1
  6
LTYPE01
 10
118.138618
 20
175.132907
 30
0.000000
  0
VERTEX
  8
MERGEDLAYER-1
  6
LTYPE01
 10
167.041341
 20
175.132907
 30
0.000000
  0
VERTEX
  8
MERGEDLAYER-1
  6
LTYPE01
 10
167.041341
 20
173.727485
 30
0.000000
  0
SEQEND
  8
MERGEDLAYER-1
  0
POLYLINE
  8
MERGEDLAYER-1
 66
  1
 70
  0
 62
  7
 10
118.136854
 20
105.062595
 30
0.000000
  0
VERTEX
  8
MERGEDLAYER-1
 10
118.136854
 20
105.062595
 30
0.000000
  0
VERTEX
  8
MERGEDLAYER-1
 10
118.105550
 20
175.149984
 30
0.000000
  0
SEQEND
  8
MERGEDLAYER-1
  0
POLYLINE
  8
MERGEDLAYER-1
 66
  1
 70
  0
 62
  7
 10
164.220201
 20
105.062595
 30
0.000000
  0
VERTEX
  8
MERGEDLAYER-1
 10
164.220201
 20
105.062595
 30
0.000000
  0
VERTEX
  8
MERGEDLAYER-1
 10
164.220201
 20
161.503540
 30
0.000000
  0
SEQEND
  8
MERGEDLAYER-1
  0
POLYLINE
  8
MERGEDLAYER-1
 66
  1
 70
  0
 62
  7
 10
162.692424
 20
105.062595
 30
0.000000
  0
VERTEX
  8
MERGEDLAYER-1
 10
162.692424
 20
105.062595
 30
0.000000
  0
VERTEX
  8
MERGEDLAYER-1
 10
162.692424
 20
161.475762
 30
0.000000
  0
SEQEND
  8
MERGEDLAYER-1
  0
ARC
  8
MERGEDLAYER-1
 62
  7
 10
153.442424
 20
161.475762
 30
0.000000
 40
9.250000
 50
0.000000
 51
90.000000
  0
POLYLINE
  8
MERGEDLAYER-1
 66
  1
 70
  0
 62
  7
 10
153.470201
 20
172.253540
 30
0.000000
  0
VERTEX
  8
MERGEDLAYER-1
 10
153.470201
 20
172.253540
 30
0.000000
  0
VERTEX
  8
MERGEDLAYER-1
 10
131.511854
 20
172.253540
 30
0.000000
  0
SEQEND
  8
MERGEDLAYER-1
  0
ARC
  8
MERGEDLAYER-1
 62
  7
 10
153.470201
 20
161.503540
 30
0.000000
 40
10.750000
 50
0.000000
 51
90.000000
  0
POLYLINE
  8
MERGEDLAYER-1
 66
  1
 70
  0
 62
  7
 10
153.442424
 20
170.725762
 30
0.000000
  0
VERTEX
  8
MERGEDLAYER-1
 10
153.442424
 20
170.725762
 30
0.000000
  0
VERTEX
  8
MERGEDLAYER-1
 10
131.511854
 20
170.725762
 30
0.000000
  0
SEQEND
  8
MERGEDLAYER-1
  0
ARC
  8
MERGEDLAYER-1
 62
  7
 10
131.511854
 20
161.503540
 30
0.000000
 40
10.750000
 50
90.000000
 51
180.000000
  0
ARC
  8
MERGEDLAYER-1
 62
  7
 10
131.511854
 20
161.475762
 30
0.000000
 40
9.250000
 50
90.000000
 51
180.000000
  0
POLYLINE
  8
MERGEDLAYER-1
  6
LTYPE06
 66
  1
 70
  0
 62
  7
  6
LTYPE06
 10
131.511854
 20
171.468818
 30
0.000000
  0
VERTEX
  8
MERGEDLAYER-1
  6
LTYPE06
 10
131.511854
 20
171.468818
 30
0.000000
  0
VERTEX
  8
MERGEDLAYER-1
  6
LTYPE06
 10
153.449354
 20
171.468818
 30
0.000000
  0
SEQEND
  8
MERGEDLAYER-1
  0
ARC
  8
MERGEDLAYER-1
 62
  7
  6
LTYPE06
 10
131.511854
 20
161.468818
 30
0.000000
 40
10.000000
 50
90.000000
 51
180.000000
  0
POLYLINE
  8
MERGEDLAYER-1
  6
LTYPE06
 66
  1
 70
  0
 62
  7
  6
LTYPE06
 10
163.449354
 20
105.062595
 30
0.000000
  0
VERTEX
  8
MERGEDLAYER-1
  6
LTYPE06
 10
163.449354
 20
105.062595
 30
0.000000
  0
VERTEX
  8
MERGEDLAYER-1
  6
LTYPE06
 10
163.449354
 20
161.468818
 30
0.000000
  0
SEQEND
  8
MERGEDLAYER-1
  0
ARC
  8
MERGEDLAYER-1
 62
  7
  6
LTYPE06
 10
153.449354
 20
161.468818
 30
0.000000
 40
10.000000
 50
0.000000
 51
90.000000
  0
LINE
  8
MERGEDLAYER-1
 62
  7
 10
131.511854
 20
161.468818
 30
0.000000
 11
124.852295
 21
168.243788
 31
0.000000
  0
POLYLINE
  8
MERGEDLAYER-1
 66
  1
 70
  1
 62
  7
  0
VERTEX
  8
MERGEDLAYER-1
 10
124.501790
 20
168.600369
 30
0.000000
  0
VERTEX
  8
MERGEDLAYER-1
 10
125.756117
 20
168.275309
 30
0.000000
  0
VERTEX
  8
MERGEDLAYER-1
 10
125.280680
 20
167.807983
 30
0.000000
  0
VERTEX
  8
MERGEDLAYER-1
 10
124.805244
 20
167.340644
 30
0.000000
  0
VERTEX
  8
MERGEDLAYER-1
 10
124.501790
 20
168.600369
 30
0.000000
  0
SEQEND
  8
MERGEDLAYER-1
  0
TEXT
  8
MERGEDLAYER-1
 62
  7
 10
130.186618
 20
166.142436
 30
0.000000
 40
2.000000
  1
 
 50
314.507751
  0
POLYLINE
  8
MERGEDLAYER-1
 66
  1
 70
  1
 62
  7
  0
VERTEX
  8
MERGEDLAYER-1
 10
139.962850
 20
165.700819
 30
0.000000
  0
VERTEX
  8
MERGEDLAYER-1
 10
155.021891
 20
165.700819
 30
0.000000
  0
VERTEX
  8
MERGEDLAYER-1
 10
155.021891
 20
158.124403
 30
0.000000
  0
VERTEX
  8
MERGEDLAYER-1
 10
139.962850
 20
158.124403
 30
0.000000
  0
SEQEND
  8
MERGEDLAYER-1
  0
POLYLINE
  8
MERGEDLAYER-1
 66
  1
 70
  0
 62
  7
 40
0.666667
 41
0.666667
 10
154.924113
 20
158.597941
 30
0.000000
  0
VERTEX
  8
MERGEDLAYER-1
 10
154.924113
 20
158.597941
 30
0.000000
  0
VERTEX
  8
MERGEDLAYER-1
 10
139.962850
 20
158.597941
 30
0.000000
  0
SEQEND
  8
MERGEDLAYER-1
  0
POLYLINE
  8
MERGEDLAYER-1
 66
  1
 70
  0
 62
  7
 10
124.261895
 20
101.781345
 30
0.000000
  0
VERTEX
  8
MERGEDLAYER-1
 10
124.261895
 20
101.781345
 30
0.000000
  0
VERTEX
  8
MERGEDLAYER-1
 10
124.261895
 20
104.531345
 30
0.000000
  0
SEQEND
  8
MERGEDLAYER-1
  0
POLYLINE
  8
MERGEDLAYER-1
 66
  1
 70
  1
 62
  7
  0
VERTEX
  8
MERGEDLAYER-1
 10
124.261895
 20
105.031345
 30
0.000000
  0
VERTEX
  8
MERGEDLAYER-1
 10
124.928562
 20
103.920234
 30
0.000000
  0
VERTEX
  8
MERGEDLAYER-1
 10
124.261895
 20
103.920234
 30
0.000000
  0
VERTEX
  8
MERGEDLAYER-1
 10
123.595228
 20
103.920234
 30
0.000000
  0
VERTEX
  8
MERGEDLAYER-1
 10
124.261895
 20
105.031345
 30
0.000000
  0
SEQEND
  8
MERGEDLAYER-1
  0
POLYLINE
  8
MERGEDLAYER-1
 66
  1
 70
  0
 62
  7
 10
120.761854
 20
105.062595
 30
0.000000
  0
VERTEX
  8
MERGEDLAYER-1
 10
120.761854
 20
105.062595
 30
0.000000
  0
VERTEX
  8
MERGEDLAYER-1
 10
120.761854
 20
161.499051
 30
0.000000
  0
SEQEND
  8
MERGEDLAYER-1
  0
POLYLINE
  8
MERGEDLAYER-1
 66
  1
 70
  0
 62
  7
 10
122.261854
 20
105.062595
 30
0.000000
  0
VERTEX
  8
MERGEDLAYER-1
 10
122.261854
 20
105.062595
 30
0.000000
  0
VERTEX
  8
MERGEDLAYER-1
 10
122.261854
 20
161.474731
 30
0.000000
  0
SEQEND
  8
MERGEDLAYER-1
  0
POLYLINE
  8
MERGEDLAYER-1
  6
LTYPE06
 66
  1
 70
  0
 62
  7
  6
LTYPE06
 10
121.511854
 20
105.062595
 30
0.000000
  0
VERTEX
  8
MERGEDLAYER-1
  6
LTYPE06
 10
121.511854
 20
105.062595
 30
0.000000
  0
VERTEX
  8
MERGEDLAYER-1
  6
LTYPE06
 10
121.511854
 20
161.468655
 30
0.000000
  0
SEQEND
  8
MERGEDLAYER-1
  0
POLYLINE
  8
MERGEDLAYER-1
  6
LTYPE01
 66
  1
 70
  1
 62
  7
  0
VERTEX
  8
MERGEDLAYER-1
  6
LTYPE01
 10
119.527479
 20
168.946248
 30
0.000000
  0
VERTEX
  8
MERGEDLAYER-1
  6
LTYPE01
 10
118.138618
 20
168.946248
 30
0.000000
  0
VERTEX
  8
MERGEDLAYER-1
  6
LTYPE01
 10
118.138618
 20
173.727485
 30
0.000000
  0
VERTEX
  8
MERGEDLAYER-1
  6
LTYPE01
 10
119.527479
 20
173.727485
 30
0.000000
  0
SEQEND
  8
MERGEDLAYER-1
  0
LINE
  8
MERGEDLAYER-1
 62
  7
 10
105.525696
 20
105.562595
 30
0.000000
 11
105.525696
 21
168.446248
 31
0.000000
  0
LINE
  8
MERGEDLAYER-1
 62
  7
 10
116.549357
 20
105.062595
 30
0.000000
 11
102.350694
 21
105.062595
 31
0.000000
  0
LINE
  8
MERGEDLAYER-1
 62
  7
 10
116.551107
 20
168.946248
 30
0.000000
 11
102.350694
 21
168.946248
 31
0.000000
  0
POLYLINE
  8
MERGEDLAYER-1
 66
  1
 70
  1
 62
  7
  0
VERTEX
  8
MERGEDLAYER-1
 10
105.525696
 20
105.062595
 30
0.000000
  0
VERTEX
  8
MERGEDLAYER-1
 10
106.192369
 20
106.173706
 30
0.000000
  0
VERTEX
  8
MERGEDLAYER-1
 10
105.525703
 20
106.173706
 30
0.000000
  0
VERTEX
  8
MERGEDLAYER-1
 10
104.859036
 20
106.173706
 30
0.000000
  0
VERTEX
  8
MERGEDLAYER-1
 10
105.525696
 20
105.062595
 30
0.000000
  0
SEQEND
  8
MERGEDLAYER-1
  0
POLYLINE
  8
MERGEDLAYER-1
 66
  1
 70
  1
 62
  7
  0
VERTEX
  8
MERGEDLAYER-1
 10
105.525696
 20
168.946248
 30
0.000000
  0
VERTEX
  8
MERGEDLAYER-1
 10
106.192356
 20
167.835137
 30
0.000000
  0
VERTEX
  8
MERGEDLAYER-1
 10
105.525689
 20
167.835137
 30
0.000000
  0
VERTEX
  8
MERGEDLAYER-1
 10
104.859022
 20
167.835137
 30
0.000000
  0
VERTEX
  8
MERGEDLAYER-1
 10
105.525696
 20
168.946248
 30
0.000000
  0
SEQEND
  8
MERGEDLAYER-1
  0
TEXT
  8
MERGEDLAYER-1
 62
  7
 10
105.262247
 20
137.283251
 30
0.000000
 40
2.000000
  1
 
  0
POLYLINE
  8
MERGEDLAYER-1
 66
  1
 70
  1
 62
  7
  0
VERTEX
  8
MERGEDLAYER-1
 10
100.317810
 20
124.792453
 30
0.000000
  0
VERTEX
  8
MERGEDLAYER-1
 10
100.317810
 20
149.486830
 30
0.000000
  0
VERTEX
  8
MERGEDLAYER-1
 10
110.580431
 20
149.486830
 30
0.000000
  0
VERTEX
  8
MERGEDLAYER-1
 10
110.580431
 20
124.792453
 30
0.000000
  0
SEQEND
  8
MERGEDLAYER-1
  0
POLYLINE
  8
MERGEDLAYER-1
 66
  1
 70
  0
 62
  7
 40
0.666667
 41
0.666667
 10
109.939006
 20
149.326470
 30
0.000000
  0
VERTEX
  8
MERGEDLAYER-1
 10
109.939006
 20
149.326470
 30
0.000000
  0
VERTEX
  8
MERGEDLAYER-1
 10
109.939006
 20
124.792453
 30
0.000000
  0
SEQEND
  8
MERGEDLAYER-1
  0
TEXT
  8
MERGEDLAYER-1
 62
  7
 10
115.428914
 20
121.994358
 30
0.000000
 40
2.333333
  1
OUVERTURE LIBRE
 50
90.000000
 72
  5
 11
115.428914
 21
152.216580
 31
0.000000
  0
TEXT
  8
MERGEDLAYER-1
 62
  7
 10
132.984469
 20
137.772135
 30
0.000000
 40
1.833333
  1
VISSER LES ARRæTS
 72
  5
 11
156.984469
 21
137.772135
 31
0.000000
  0
TEXT
  8
MERGEDLAYER-1
 62
  7
 10
132.984469
 20
135.105469
 30
0.000000
 40
1.833333
  1
DANS LES RAINURES
 72
  5
 11
157.428914
 21
135.105469
 31
0.000000
  0
POLYLINE
  8
MERGEDLAYER-1
 66
  1
 70
  0
 62
  7
 10
158.268812
 20
136.211860
 30
0.000000
  0
VERTEX
  8
MERGEDLAYER-1
 10
158.268812
 20
136.211860
 30
0.000000
  0
VERTEX
  8
MERGEDLAYER-1
 10
162.417765
 20
130.125027
 30
0.000000
  0
SEQEND
  8
MERGEDLAYER-1
  0
POLYLINE
  8
MERGEDLAYER-1
 66
  1
 70
  1
 62
  7
  0
VERTEX
  8
MERGEDLAYER-1
 10
162.699382
 20
129.711860
 30
0.000000
  0
VERTEX
  8
MERGEDLAYER-1
 10
161.522705
 20
130.254503
 30
0.000000
  0
VERTEX
  8
MERGEDLAYER-1
 10
162.073568
 20
130.629978
 30
0.000000
  0
VERTEX
  8
MERGEDLAYER-1
 10
162.624430
 20
131.005452
 30
0.000000
  0
VERTEX
  8
MERGEDLAYER-1
 10
162.699382
 20
129.711860
 30
0.000000
  0
SEQEND
  8
MERGEDLAYER-1
  0
POLYLINE
  8
MERGEDLAYER-1
 66
  1
 70
  1
 62
  7
  0
VERTEX
  8
MERGEDLAYER-1
 10
162.699382
 20
129.711860
 30
0.000000
  0
VERTEX
  8
MERGEDLAYER-1
 10
164.227132
 20
129.711860
 30
0.000000
  0
VERTEX
  8
MERGEDLAYER-1
 10
164.227132
 20
126.711860
 30
0.000000
  0
VERTEX
  8
MERGEDLAYER-1
 10
162.699382
 20
126.711860
 30
0.000000
  0
SEQEND
  8
MERGEDLAYER-1
  0
POLYLINE
  8
MERGEDLAYER-1
 66
  1
 70
  0
 62
  7
 10
163.456312
 20
128.899360
 30
0.000000
  0
VERTEX
  8
MERGEDLAYER-1
 10
163.456312
 20
128.899360
 30
0.000000
  0
VERTEX
  8
MERGEDLAYER-1
 10
163.456312
 20
128.899360
 30
0.000000
  0
SEQEND
  8
MERGEDLAYER-1
  0
POLYLINE
  8
MERGEDLAYER-1
 66
  1
 70
  0
 62
  7
 10
163.456312
 20
127.461860
 30
0.000000
  0
VERTEX
  8
MERGEDLAYER-1
 10
163.456312
 20
127.461860
 30
0.000000
  0
VERTEX
  8
MERGEDLAYER-1
 10
163.456312
 20
127.461860
 30
0.000000
  0
SEQEND
  8
MERGEDLAYER-1
  0
LINE
  8
MERGEDLAYER-1
 62
  7
 10
164.220201
 20
163.503540
 30
0.000000
 11
164.220201
 21
183.586887
 31
0.000000
  0
LINE
  8
MERGEDLAYER-1
 62
  7
 10
167.041341
 20
175.727485
 30
0.000000
 11
167.041341
 21
183.586887
 31
0.000000
  0
LINE
  8
MERGEDLAYER-1
 62
  7
 10
167.041341
 20
180.586887
 30
0.000000
 11
189.609077
 21
180.586887
 31
0.000000
  0
LINE
  8
MERGEDLAYER-1
 62
  7
 10
164.220201
 20
180.586887
 30
0.000000
 11
158.220201
 21
180.586900
 31
0.000000
  0
POLYLINE
  8
MERGEDLAYER-1
 66
  1
 70
  1
 62
  7
  0
VERTEX
  8
MERGEDLAYER-1
 10
164.220201
 20
180.586887
 30
0.000000
  0
VERTEX
  8
MERGEDLAYER-1
 10
163.109090
 20
181.253554
 30
0.000000
  0
VERTEX
  8
MERGEDLAYER-1
 10
163.109090
 20
180.586887
 30
0.000000
  0
VERTEX
  8
MERGEDLAYER-1
 10
163.109090
 20
179.920220
 30
0.000000
  0
VERTEX
  8
MERGEDLAYER-1
 10
164.220201
 20
180.586887
 30
0.000000
  0
SEQEND
  8
MERGEDLAYER-1
  0
LINE
  8
MERGEDLAYER-1
 62
  7
 10
167.041341
 20
180.586887
 30
0.000000
 11
355.557699
 21
146.002469
 31
0.000000
  0
POLYLINE
  8
MERGEDLAYER-1
 66
  1
 70
  1
 62
  7
  0
VERTEX
  8
MERGEDLAYER-1
 10
167.041341
 20
180.586887
 30
0.000000
  0
VERTEX
  8
MERGEDLAYER-1
 10
168.152452
 20
181.253554
 30
0.000000
  0
VERTEX
  8
MERGEDLAYER-1
 10
168.152452
 20
180.586887
 30
0.000000
  0
VERTEX
  8
MERGEDLAYER-1
 10
168.152452
 20
179.920220
 30
0.000000
  0
VERTEX
  8
MERGEDLAYER-1
 10
167.041341
 20
180.586887
 30
0.000000
  0
SEQEND
  8
MERGEDLAYER-1
  0
TEXT
  8
MERGEDLAYER-1
 62
  7
 10
186.162244
 20
182.983248
 30
0.000000
 40
2.000000
  1
   
  0
TEXT
  8
MERGEDLAYER-1
 62
  7
 10
167.651136
 20
182.216580
 30
0.000000
 40
2.333333
  1
MINIMUM:
 72
  5
 11
183.873358
 21
182.216580
 31
0.000000
  0
TEXT
  8
MERGEDLAYER-1
 62
  7
 10
167.651136
 20
176.883247
 30
0.000000
 40
2.333333
  1
1-1/4" (32mm)
 72
  5
 11
189.206691
 21
176.883247
 31
0.000000
  0
TEXT
  8
MERGEDLAYER-1
 62
  7
 10
167.873358
 20
185.772135
 30
0.000000
 40
2.333333
  1
DƒGAGEMENT
 72
  5
 11
190.984469
 21
185.772135
 31
0.000000
  0
LINE
  8
MERGEDLAYER-1
 62
  7
 10
121.261854
 20
184.364665
 30
0.000000
 11
163.720201
 21
184.364665
 31
0.000000
  0
LINE
  8
MERGEDLAYER-1
 62
  7
 10
120.761854
 20
163.499051
 30
0.000000
 11
120.761854
 21
187.364665
 31
0.000000
  0
LINE
  8
MERGEDLAYER-1
 62
  7
 10
164.220201
 20
163.503540
 30
0.000000
 11
164.220201
 21
187.364665
 31
0.000000
  0
POLYLINE
  8
MERGEDLAYER-1
 66
  1
 70
  1
 62
  7
  0
VERTEX
  8
MERGEDLAYER-1
 10
120.761854
 20
184.364665
 30
0.000000
  0
VERTEX
  8
MERGEDLAYER-1
 10
121.872965
 20
183.697998
 30
0.000000
  0
VERTEX
  8
MERGEDLAYER-1
 10
121.872965
 20
184.364665
 30
0.000000
  0
VERTEX
  8
MERGEDLAYER-1
 10
121.872965
 20
185.031331
 30
0.000000
  0
VERTEX
  8
MERGEDLAYER-1
 10
120.761854
 20
184.364665
 30
0.000000
  0
SEQEND
  8
MERGEDLAYER-1
  0
POLYLINE
  8
MERGEDLAYER-1
 66
  1
 70
  1
 62
  7
  0
VERTEX
  8
MERGEDLAYER-1
 10
164.220201
 20
184.364665
 30
0.000000
  0
VERTEX
  8
MERGEDLAYER-1
 10
163.109090
 20
183.697984
 30
0.000000
  0
VERTEX
  8
MERGEDLAYER-1
 10
163.109090
 20
184.364651
 30
0.000000
  0
VERTEX
  8
MERGEDLAYER-1
 10
163.109090
 20
185.031318
 30
0.000000
  0
VERTEX
  8
MERGEDLAYER-1
 10
164.220201
 20
184.364665
 30
0.000000
  0
SEQEND
  8
MERGEDLAYER-1
  0
TEXT
  8
MERGEDLAYER-1
 62
  7
 10
142.562241
 20
186.683248
 30
0.000000
 40
2.000000
  1
 
  0
POLYLINE
  8
MERGEDLAYER-1
 66
  1
 70
  1
 62
  7
  0
VERTEX
  8
MERGEDLAYER-1
 10
130.164632
 20
189.475776
 30
0.000000
  0
VERTEX
  8
MERGEDLAYER-1
 10
154.859049
 20
189.475776
 30
0.000000
  0
VERTEX
  8
MERGEDLAYER-1
 10
154.859049
 20
179.213162
 30
0.000000
  0
VERTEX
  8
MERGEDLAYER-1
 10
130.164632
 20
179.213162
 30
0.000000
  0
SEQEND
  8
MERGEDLAYER-1
  0
POLYLINE
  8
MERGEDLAYER-1
 66
  1
 70
  0
 62
  7
 40
0.666667
 41
0.666667
 10
154.698690
 20
179.854587
 30
0.000000
  0
VERTEX
  8
MERGEDLAYER-1
 10
154.698690
 20
179.854587
 30
0.000000
  0
VERTEX
  8
MERGEDLAYER-1
 10
130.164632
 20
179.854587
 30
0.000000
  0
SEQEND
  8
MERGEDLAYER-1
  0
TEXT
  8
MERGEDLAYER-1
 62
  7
 10
120.540025
 20
192.661024
 30
0.000000
 40
2.333333
  1
LARGEUR ENTRE RAINURES
 72
  5
 11
164.540025
 21
192.661024
 31
0.000000
  0
TEXT
  8
MERGEDLAYER-1
 62
  7
 10
127.651136
 20
189.772135
 30
0.000000
 40
1.833333
  1
(EXTƒRIEUR Ë EXTƒRIEUR)
 72
  5
 11
157.651136
 21
189.772135
 31
0.000000
  0
POLYLINE
  8
MERGEDLAYER-1
 66
  1
 70
  0
 62
  7
 10
48.519107
 20
164.980414
 30
0.000000
  0
VERTEX
  8
MERGEDLAYER-1
 10
48.519107
 20
164.980414
 30
0.000000
  0
VERTEX
  8
MERGEDLAYER-1
 10
48.387343
 20
160.732652
 30
0.000000
  0
VERTEX
  8
MERGEDLAYER-1
 10
48.703678
 20
157.000705
 30
0.000000
  0
SEQEND
  8
MERGEDLAYER-1
  0
POLYLINE
  8
MERGEDLAYER-1
 66
  1
 70
  0
 62
  7
 10
48.433902
 20
168.743001
 30
0.000000
  0
VERTEX
  8
MERGEDLAYER-1
 10
48.433902
 20
168.743001
 30
0.000000
  0
VERTEX
  8
MERGEDLAYER-1
 10
47.933712
 20
164.468777
 30
0.000000
  0
VERTEX
  8
MERGEDLAYER-1
 10
47.909546
 20
160.121284
 30
0.000000
  0
VERTEX
  8
MERGEDLAYER-1
 10
48.311625
 20
155.792345
 30
0.000000
  0
VERTEX
  8
MERGEDLAYER-1
 10
48.535075
 20
154.628065
 30
0.000000
  0
SEQEND
  8
MERGEDLAYER-1
  0
POLYLINE
  8
MERGEDLAYER-1
 66
  1
 70
  0
 62
  7
 10
49.181607
 20
168.730442
 30
0.000000
  0
VERTEX
  8
MERGEDLAYER-1
 10
49.181607
 20
168.730442
 30
0.000000
  0
VERTEX
  8
MERGEDLAYER-1
 10
48.981937
 20
168.427300
 30
0.000000
  0
VERTEX
  8
MERGEDLAYER-1
 10
48.978811
 20
168.043769
 30
0.000000
  0
VERTEX
  8
MERGEDLAYER-1
 10
49.122694
 20
167.688246
 30
0.000000
  0
VERTEX
  8
MERGEDLAYER-1
 10
49.391683
 20
167.414836
 30
0.000000
  0
VERTEX
  8
MERGEDLAYER-1
 10
49.744822
 20
167.265177
 30
0.000000
  0
VERTEX
  8
MERGEDLAYER-1
 10
50.128347
 20
167.262058
 30
0.000000
  0
VERTEX
  8
MERGEDLAYER-1
 10
50.483877
 20
167.405952
 30
0.000000
  0
VERTEX
  8
MERGEDLAYER-1
 10
50.757284
 20
167.674927
 30
0.000000
  0
VERTEX
  8
MERGEDLAYER-1
 10
50.906935
 20
168.028076
 30
0.000000
  0
VERTEX
  8
MERGEDLAYER-1
 10
50.910061
 20
168.411594
 30
0.000000
  0
VERTEX
  8
MERGEDLAYER-1
 10
50.766178
 20
168.767117
 30
0.000000
  0
VERTEX
  8
MERGEDLAYER-1
 10
50.791117
 20
168.753472
 30
0.000000
  0
SEQEND
  8
MERGEDLAYER-1
  0
POLYLINE
  8
MERGEDLAYER-1
 66
  1
 70
  0
 62
  7
 10
50.194533
 20
166.748101
 30
0.000000
  0
VERTEX
  8
MERGEDLAYER-1
 10
50.194533
 20
166.748101
 30
0.000000
  0
VERTEX
  8
MERGEDLAYER-1
 10
50.729001
 20
166.982829
 30
0.000000
  0
VERTEX
  8
MERGEDLAYER-1
 10
51.198307
 20
167.377170
 30
0.000000
  0
VERTEX
  8
MERGEDLAYER-1
 10
51.480977
 20
167.921088
 30
0.000000
  0
VERTEX
  8
MERGEDLAYER-1
 10
51.543850
 20
167.917996
 30
0.000000
  0
SEQEND
  8
MERGEDLAYER-1
  0
POLYLINE
  8
MERGEDLAYER-1
 66
  1
 70
  0
 62
  7
 10
49.113200
 20
168.935371
 30
0.000000
  0
VERTEX
  8
MERGEDLAYER-1
 10
49.113200
 20
168.935371
 30
0.000000
  0
VERTEX
  8
MERGEDLAYER-1
 10
48.719449
 20
168.935181
 30
0.000000
  0
SEQEND
  8
MERGEDLAYER-1
  0
POLYLINE
  8
MERGEDLAYER-1
 66
  1
 70
  0
 62
  7
 10
48.719449
 20
168.935181
 30
0.000000
  0
VERTEX
  8
MERGEDLAYER-1
 10
48.719449
 20
168.935181
 30
0.000000
  0
VERTEX
  8
MERGEDLAYER-1
 10
48.452901
 20
168.895481
 30
0.000000
  0
VERTEX
  8
MERGEDLAYER-1
 10
48.435170
 20
168.742811
 30
0.000000
  0
SEQEND
  8
MERGEDLAYER-1
  0
POLYLINE
  8
MERGEDLAYER-1
 66
  1
 70
  0
 62
  7
 10
51.647902
 20
168.498630
 30
0.000000
  0
VERTEX
  8
MERGEDLAYER-1
 10
51.647902
 20
168.498630
 30
0.000000
  0
VERTEX
  8
MERGEDLAYER-1
 10
51.538008
 20
168.775228
 30
0.000000
  0
VERTEX
  8
MERGEDLAYER-1
 10
51.335409
 20
168.893094
 30
0.000000
  0
VERTEX
  8
MERGEDLAYER-1
 10
51.343411
 20
168.845852
 30
0.000000
  0
SEQEND
  8
MERGEDLAYER-1
  0
POLYLINE
  8
MERGEDLAYER-1
 66
  1
 70
  0
 62
  7
 10
51.545705
 20
167.917670
 30
0.000000
  0
VERTEX
  8
MERGEDLAYER-1
 10
51.545705
 20
167.917670
 30
0.000000
  0
VERTEX
  8
MERGEDLAYER-1
 10
51.648098
 20
168.498589
 30
0.000000
  0
SEQEND
  8
MERGEDLAYER-1
  0
POLYLINE
  8
MERGEDLAYER-1
 66
  1
 70
  0
 62
  7
 10
51.343411
 20
168.845852
 30
0.000000
  0
VERTEX
  8
MERGEDLAYER-1
 10
51.343411
 20
168.845852
 30
0.000000
  0
VERTEX
  8
MERGEDLAYER-1
 10
50.836673
 20
168.845852
 30
0.000000
  0
SEQEND
  8
MERGEDLAYER-1
  0
POLYLINE
  8
MERGEDLAYER-1
 66
  1
 70
  0
 62
  7
 10
50.836673
 20
168.844822
 30
0.000000
  0
VERTEX
  8
MERGEDLAYER-1
 10
50.836673
 20
168.844822
 30
0.000000
  0
VERTEX
  8
MERGEDLAYER-1
 10
50.787845
 20
168.751221
 30
0.000000
  0
SEQEND
  8
MERGEDLAYER-1
  0
POLYLINE
  8
MERGEDLAYER-1
 66
  1
 70
  0
 62
  7
 10
49.182682
 20
168.729696
 30
0.000000
  0
VERTEX
  8
MERGEDLAYER-1
 10
49.182682
 20
168.729696
 30
0.000000
  0
VERTEX
  8
MERGEDLAYER-1
 10
49.088199
 20
168.936659
 30
0.000000
  0
SEQEND
  8
MERGEDLAYER-1
  0
POLYLINE
  8
MERGEDLAYER-1
 66
  1
 70
  0
 62
  7
 10
50.194875
 20
166.750990
 30
0.000000
  0
VERTEX
  8
MERGEDLAYER-1
 10
50.194875
 20
166.750990
 30
0.000000
  0
VERTEX
  8
MERGEDLAYER-1
 10
49.446615
 20
166.582709
 30
0.000000
  0
VERTEX
  8
MERGEDLAYER-1
 10
48.885020
 20
166.113824
 30
0.000000
  0
VERTEX
  8
MERGEDLAYER-1
 10
48.545603
 20
165.465725
 30
0.000000
  0
VERTEX
  8
MERGEDLAYER-1
 10
48.521742
 20
164.980225
 30
0.000000
  0
SEQEND
  8
MERGEDLAYER-1
  0
POLYLINE
  8
MERGEDLAYER-1
 66
  1
 70
  0
 62
  7
 10
50.473341
 20
153.373657
 30
0.000000
  0
VERTEX
  8
MERGEDLAYER-1
 10
50.473341
 20
153.373657
 30
0.000000
  0
VERTEX
  8
MERGEDLAYER-1
 10
50.340810
 20
153.786214
 30
0.000000
  0
VERTEX
  8
MERGEDLAYER-1
 10
50.026065
 20
153.984212
 30
0.000000
  0
VERTEX
  8
MERGEDLAYER-1
 10
49.663496
 20
153.901652
 30
0.000000
  0
VERTEX
  8
MERGEDLAYER-1
 10
49.465505
 20
153.586914
 30
0.000000
  0
VERTEX
  8
MERGEDLAYER-1
 10
49.548062
 20
153.224338
 30
0.000000
  0
VERTEX
  8
MERGEDLAYER-1
 10
49.826955
 20
152.999213
 30
0.000000
  0
SEQEND
  8
MERGEDLAYER-1
  0
POLYLINE
  8
MERGEDLAYER-1
 66
  1
 70
  0
 62
  7
 10
50.824565
 20
153.017456
 30
0.000000
  0
VERTEX
  8
MERGEDLAYER-1
 10
50.824565
 20
153.017456
 30
0.000000
  0
VERTEX
  8
MERGEDLAYER-1
 10
50.878927
 20
153.418457
 30
0.000000
  0
VERTEX
  8
MERGEDLAYER-1
 10
50.841024
 20
153.782674
 30
0.000000
  0
VERTEX
  8
MERGEDLAYER-1
 10
50.666623
 20
154.104669
 30
0.000000
  0
VERTEX
  8
MERGEDLAYER-1
 10
50.382273
 20
154.335409
 30
0.000000
  0
VERTEX
  8
MERGEDLAYER-1
 10
50.031264
 20
154.439779
 30
0.000000
  0
VERTEX
  8
MERGEDLAYER-1
 10
49.871389
 20
154.385701
 30
0.000000
  0
SEQEND
  8
MERGEDLAYER-1
  0
POLYLINE
  8
MERGEDLAYER-1
 66
  1
 70
  0
 62
  7
 10
49.256510
 20
154.035156
 30
0.000000
  0
VERTEX
  8
MERGEDLAYER-1
 10
49.256510
 20
154.035156
 30
0.000000
  0
VERTEX
  8
MERGEDLAYER-1
 10
49.040761
 20
153.758626
 30
0.000000
  0
VERTEX
  8
MERGEDLAYER-1
 10
49.012600
 20
153.393528
 30
0.000000
  0
VERTEX
  8
MERGEDLAYER-1
 10
49.126295
 20
153.045437
 30
0.000000
  0
VERTEX
  8
MERGEDLAYER-1
 10
49.364553
 20
152.767334
 30
0.000000
  0
VERTEX
  8
MERGEDLAYER-1
 10
49.691091
 20
152.601603
 30
0.000000
  0
VERTEX
  8
MERGEDLAYER-1
 10
49.945265
 20
152.518053
 30
0.000000
  0
SEQEND
  8
MERGEDLAYER-1
  0
POLYLINE
  8
MERGEDLAYER-1
 66
  1
 70
  0
 62
  7
 10
50.484623
 20
153.301229
 30
0.000000
  0
VERTEX
  8
MERGEDLAYER-1
 10
50.484623
 20
153.301229
 30
0.000000
  0
VERTEX
  8
MERGEDLAYER-1
 10
50.645216
 20
153.014025
 30
0.000000
  0
SEQEND
  8
MERGEDLAYER-1
  0
POLYLINE
  8
MERGEDLAYER-1
 66
  1
 70
  0
 62
  7
 10
49.881694
 20
152.953234
 30
0.000000
  0
VERTEX
  8
MERGEDLAYER-1
 10
49.881694
 20
152.953234
 30
0.000000
  0
VERTEX
  8
MERGEDLAYER-1
 10
50.040822
 20
152.671875
 30
0.000000
  0
SEQEND
  8
MERGEDLAYER-1
  0
POLYLINE
  8
MERGEDLAYER-1
 66
  1
 70
  0
 62
  7
 10
50.645216
 20
153.014011
 30
0.000000
  0
VERTEX
  8
MERGEDLAYER-1
 10
50.645216
 20
153.014011
 30
0.000000
  0
VERTEX
  8
MERGEDLAYER-1
 10
50.826274
 20
153.016520
 30
0.000000
  0
SEQEND
  8
MERGEDLAYER-1
  0
POLYLINE
  8
MERGEDLAYER-1
 66
  1
 70
  0
 62
  7
 10
49.945265
 20
152.517917
 30
0.000000
  0
VERTEX
  8
MERGEDLAYER-1
 10
49.945265
 20
152.517917
 30
0.000000
  0
VERTEX
  8
MERGEDLAYER-1
 10
50.040432
 20
152.671658
 30
0.000000
  0
SEQEND
  8
MERGEDLAYER-1
  0
POLYLINE
  8
MERGEDLAYER-1
 66
  1
 70
  0
 62
  7
 10
50.474124
 20
153.370144
 30
0.000000
  0
VERTEX
  8
MERGEDLAYER-1
 10
50.474124
 20
153.370144
 30
0.000000
  0
VERTEX
  8
MERGEDLAYER-1
 10
50.485647
 20
153.301799
 30
0.000000
  0
SEQEND
  8
MERGEDLAYER-1
  0
POLYLINE
  8
MERGEDLAYER-1
 66
  1
 70
  0
 62
  7
 10
49.881056
 20
152.952908
 30
0.000000
  0
VERTEX
  8
MERGEDLAYER-1
 10
49.881056
 20
152.952908
 30
0.000000
  0
VERTEX
  8
MERGEDLAYER-1
 10
49.826857
 20
152.998942
 30
0.000000
  0
SEQEND
  8
MERGEDLAYER-1
  0
POLYLINE
  8
MERGEDLAYER-1
 66
  1
 70
  0
 62
  7
 10
49.266958
 20
154.150675
 30
0.000000
  0
VERTEX
  8
MERGEDLAYER-1
 10
49.266958
 20
154.150675
 30
0.000000
  0
VERTEX
  8
MERGEDLAYER-1
 10
49.176188
 20
154.315186
 30
0.000000
  0
SEQEND
  8
MERGEDLAYER-1
  0
POLYLINE
  8
MERGEDLAYER-1
 66
  1
 70
  0
 62
  7
 10
49.085073
 20
154.366252
 30
0.000000
  0
VERTEX
  8
MERGEDLAYER-1
 10
49.085073
 20
154.366252
 30
0.000000
  0
VERTEX
  8
MERGEDLAYER-1
 10
48.844449
 20
154.366252
 30
0.000000
  0
SEQEND
  8
MERGEDLAYER-1
  0
POLYLINE
  8
MERGEDLAYER-1
 66
  1
 70
  0
 62
  7
 10
49.255534
 20
154.035889
 30
0.000000
  0
VERTEX
  8
MERGEDLAYER-1
 10
49.255534
 20
154.035889
 30
0.000000
  0
VERTEX
  8
MERGEDLAYER-1
 10
49.264713
 20
154.149441
 30
0.000000
  0
SEQEND
  8
MERGEDLAYER-1
  0
POLYLINE
  8
MERGEDLAYER-1
 66
  1
 70
  0
 62
  7
 10
49.175991
 20
154.315077
 30
0.000000
  0
VERTEX
  8
MERGEDLAYER-1
 10
49.175991
 20
154.315077
 30
0.000000
  0
VERTEX
  8
MERGEDLAYER-1
 10
49.085073
 20
154.368381
 30
0.000000
  0
SEQEND
  8
MERGEDLAYER-1
  0
POLYLINE
  8
MERGEDLAYER-1
 66
  1
 70
  0
 62
  7
 10
48.536296
 20
154.628255
 30
0.000000
  0
VERTEX
  8
MERGEDLAYER-1
 10
48.536296
 20
154.628255
 30
0.000000
  0
VERTEX
  8
MERGEDLAYER-1
 10
48.613325
 20
154.475600
 30
0.000000
  0
VERTEX
  8
MERGEDLAYER-1
 10
48.844449
 20
154.367757
 30
0.000000
  0
SEQEND
  8
MERGEDLAYER-1
  0
POLYLINE
  8
MERGEDLAYER-1
 66
  1
 70
  0
 62
  7
 10
48.703532
 20
157.000678
 30
0.000000
  0
VERTEX
  8
MERGEDLAYER-1
 10
48.703532
 20
157.000678
 30
0.000000
  0
VERTEX
  8
MERGEDLAYER-1
 10
48.877194
 20
156.354099
 30
0.000000
  0
VERTEX
  8
MERGEDLAYER-1
 10
49.350406
 20
155.796143
 30
0.000000
  0
VERTEX
  8
MERGEDLAYER-1
 10
49.776320
 20
155.514133
 30
0.000000
  0
SEQEND
  8
MERGEDLAYER-1
  0
POLYLINE
  8
MERGEDLAYER-1
 66
  1
 70
  0
 62
  7
 10
49.768412
 20
154.434367
 30
0.000000
  0
VERTEX
  8
MERGEDLAYER-1
 10
49.768412
 20
154.434367
 30
0.000000
  0
VERTEX
  8
MERGEDLAYER-1
 10
49.871731
 20
154.382785
 30
0.000000
  0
SEQEND
  8
MERGEDLAYER-1
  0
POLYLINE
  8
MERGEDLAYER-1
 66
  1
 70
  0
 62
  7
 10
49.680433
 20
154.701999
 30
0.000000
  0
VERTEX
  8
MERGEDLAYER-1
 10
49.680433
 20
154.701999
 30
0.000000
  0
VERTEX
  8
MERGEDLAYER-1
 10
49.677945
 20
154.596598
 30
0.000000
  0
SEQEND
  8
MERGEDLAYER-1
  0
POLYLINE
  8
MERGEDLAYER-1
 66
  1
 70
  0
 62
  7
 10
49.768412
 20
154.434380
 30
0.000000
  0
VERTEX
  8
MERGEDLAYER-1
 10
49.768412
 20
154.434380
 30
0.000000
  0
VERTEX
  8
MERGEDLAYER-1
 10
49.677260
 20
154.596219
 30
0.000000
  0
SEQEND
  8
MERGEDLAYER-1
  0
POLYLINE
  8
MERGEDLAYER-1
 66
  1
 70
  0
 62
  7
 10
49.680678
 20
154.701823
 30
0.000000
  0
VERTEX
  8
MERGEDLAYER-1
 10
49.680678
 20
154.701823
 30
0.000000
  0
VERTEX
  8
MERGEDLAYER-1
 10
49.908352
 20
155.064697
 30
0.000000
  0
SEQEND
  8
MERGEDLAYER-1
  0
POLYLINE
  8
MERGEDLAYER-1
 66
  1
 70
  0
 62
  7
 10
49.909132
 20
155.064168
 30
0.000000
  0
VERTEX
  8
MERGEDLAYER-1
 10
49.909132
 20
155.064168
 30
0.000000
  0
VERTEX
  8
MERGEDLAYER-1
 10
49.899061
 20
155.349989
 30
0.000000
  0
VERTEX
  8
MERGEDLAYER-1
 10
49.760525
 20
155.544963
 30
0.000000
  0
VERTEX
  8
MERGEDLAYER-1
 10
49.776076
 20
155.513658
 30
0.000000
  0
SEQEND
  8
MERGEDLAYER-1
  0
POLYLINE
  8
MERGEDLAYER-1
 66
  1
 70
  0
 62
  7
 10
48.519107
 20
179.670356
 30
0.000000
  0
VERTEX
  8
MERGEDLAYER-1
 10
48.519107
 20
179.670356
 30
0.000000
  0
VERTEX
  8
MERGEDLAYER-1
 10
48.387343
 20
175.422635
 30
0.000000
  0
VERTEX
  8
MERGEDLAYER-1
 10
48.703678
 20
171.690742
 30
0.000000
  0
SEQEND
  8
MERGEDLAYER-1
  0
POLYLINE
  8
MERGEDLAYER-1
 66
  1
 70
  0
 62
  7
 10
48.433902
 20
183.432956
 30
0.000000
  0
VERTEX
  8
MERGEDLAYER-1
 10
48.433902
 20
183.432956
 30
0.000000
  0
VERTEX
  8
MERGEDLAYER-1
 10
47.933712
 20
179.158759
 30
0.000000
  0
VERTEX
  8
MERGEDLAYER-1
 10
47.909546
 20
174.811252
 30
0.000000
  0
VERTEX
  8
MERGEDLAYER-1
 10
48.311625
 20
170.482313
 30
0.000000
  0
VERTEX
  8
MERGEDLAYER-1
 10
48.535075
 20
169.318115
 30
0.000000
  0
SEQEND
  8
MERGEDLAYER-1
  0
POLYLINE
  8
MERGEDLAYER-1
 66
  1
 70
  0
 62
  7
 10
49.181607
 20
183.420397
 30
0.000000
  0
VERTEX
  8
MERGEDLAYER-1
 10
49.181607
 20
183.420397
 30
0.000000
  0
VERTEX
  8
MERGEDLAYER-1
 10
48.981937
 20
183.117269
 30
0.000000
  0
VERTEX
  8
MERGEDLAYER-1
 10
48.978811
 20
182.733738
 30
0.000000
  0
VERTEX
  8
MERGEDLAYER-1
 10
49.122694
 20
182.378201
 30
0.000000
  0
VERTEX
  8
MERGEDLAYER-1
 10
49.391683
 20
182.104804
 30
0.000000
  0
VERTEX
  8
MERGEDLAYER-1
 10
49.744822
 20
181.955146
 30
0.000000
  0
VERTEX
  8
MERGEDLAYER-1
 10
50.128347
 20
181.952026
 30
0.000000
  0
VERTEX
  8
MERGEDLAYER-1
 10
50.483877
 20
182.095907
 30
0.000000
  0
VERTEX
  8
MERGEDLAYER-1
 10
50.757284
 20
182.364895
 30
0.000000
  0
VERTEX
  8
MERGEDLAYER-1
 10
50.906935
 20
182.718031
 30
0.000000
  0
VERTEX
  8
MERGEDLAYER-1
 10
50.910061
 20
183.101562
 30
0.000000
  0
VERTEX
  8
MERGEDLAYER-1
 10
50.766178
 20
183.457086
 30
0.000000
  0
VERTEX
  8
MERGEDLAYER-1
 10
50.791117
 20
183.443441
 30
0.000000
  0
SEQEND
  8
MERGEDLAYER-1
  0
POLYLINE
  8
MERGEDLAYER-1
 66
  1
 70
  0
 62
  7
 10
50.194533
 20
181.438070
 30
0.000000
  0
VERTEX
  8
MERGEDLAYER-1
 10
50.194533
 20
181.438070
 30
0.000000
  0
VERTEX
  8
MERGEDLAYER-1
 10
50.729001
 20
181.672784
 30
0.000000
  0
VERTEX
  8
MERGEDLAYER-1
 10
51.198307
 20
182.067125
 30
0.000000
  0
VERTEX
  8
MERGEDLAYER-1
 10
51.480977
 20
182.611043
 30
0.000000
  0
VERTEX
  8
MERGEDLAYER-1
 10
51.543850
 20
182.607951
 30
0.000000
  0
SEQEND
  8
MERGEDLAYER-1
  0
POLYLINE
  8
MERGEDLAYER-1
 66
  1
 70
  0
 62
  7
 10
49.113200
 20
183.625326
 30
0.000000
  0
VERTEX
  8
MERGEDLAYER-1
 10
49.113200
 20
183.625326
 30
0.000000
  0
VERTEX
  8
MERGEDLAYER-1
 10
48.719449
 20
183.625136
 30
0.000000
  0
SEQEND
  8
MERGEDLAYER-1
  0
POLYLINE
  8
MERGEDLAYER-1
 66
  1
 70
  0
 62
  7
 10
48.719449
 20
183.625136
 30
0.000000
  0
VERTEX
  8
MERGEDLAYER-1
 10
48.719449
 20
183.625136
 30
0.000000
  0
VERTEX
  8
MERGEDLAYER-1
 10
48.452901
 20
183.585422
 30
0.000000
  0
VERTEX
  8
MERGEDLAYER-1
 10
48.435170
 20
183.432753
 30
0.000000
  0
SEQEND
  8
MERGEDLAYER-1
  0
POLYLINE
  8
MERGEDLAYER-1
 66
  1
 70
  0
 62
  7
 10
51.647902
 20
183.188572
 30
0.000000
  0
VERTEX
  8
MERGEDLAYER-1
 10
51.647902
 20
183.188572
 30
0.000000
  0
VERTEX
  8
MERGEDLAYER-1
 10
51.538008
 20
183.465183
 30
0.000000
  0
VERTEX
  8
MERGEDLAYER-1
 10
51.335409
 20
183.583049
 30
0.000000
  0
VERTEX
  8
MERGEDLAYER-1
 10
51.343411
 20
183.535794
 30
0.000000
  0
SEQEND
  8
MERGEDLAYER-1
  0
POLYLINE
  8
MERGEDLAYER-1
 66
  1
 70
  0
 62
  7
 10
51.545705
 20
182.607625
 30
0.000000
  0
VERTEX
  8
MERGEDLAYER-1
 10
51.545705
 20
182.607625
 30
0.000000
  0
VERTEX
  8
MERGEDLAYER-1
 10
51.648098
 20
183.188544
 30
0.000000
  0
SEQEND
  8
MERGEDLAYER-1
  0
POLYLINE
  8
MERGEDLAYER-1
 66
  1
 70
  0
 62
  7
 10
51.343411
 20
183.535794
 30
0.000000
  0
VERTEX
  8
MERGEDLAYER-1
 10
51.343411
 20
183.535794
 30
0.000000
  0
VERTEX
  8
MERGEDLAYER-1
 10
50.836673
 20
183.535794
 30
0.000000
  0
SEQEND
  8
MERGEDLAYER-1
  0
POLYLINE
  8
MERGEDLAYER-1
 66
  1
 70
  0
 62
  7
 10
50.836673
 20
183.534776
 30
0.000000
  0
VERTEX
  8
MERGEDLAYER-1
 10
50.836673
 20
183.534776
 30
0.000000
  0
VERTEX
  8
MERGEDLAYER-1
 10
50.787845
 20
183.441162
 30
0.000000
  0
SEQEND
  8
MERGEDLAYER-1
  0
POLYLINE
  8
MERGEDLAYER-1
 66
  1
 70
  0
 62
  7
 10
49.182682
 20
183.419651
 30
0.000000
  0
VERTEX
  8
MERGEDLAYER-1
 10
49.182682
 20
183.419651
 30
0.000000
  0
VERTEX
  8
MERGEDLAYER-1
 10
49.088199
 20
183.626600
 30
0.000000
  0
SEQEND
  8
MERGEDLAYER-1
  0
POLYLINE
  8
MERGEDLAYER-1
 66
  1
 70
  0
 62
  7
 10
50.194875
 20
181.440945
 30
0.000000
  0
VERTEX
  8
MERGEDLAYER-1
 10
50.194875
 20
181.440945
 30
0.000000
  0
VERTEX
  8
MERGEDLAYER-1
 10
49.446615
 20
181.272678
 30
0.000000
  0
VERTEX
  8
MERGEDLAYER-1
 10
48.885020
 20
180.803792
 30
0.000000
  0
VERTEX
  8
MERGEDLAYER-1
 10
48.545603
 20
180.155680
 30
0.000000
  0
VERTEX
  8
MERGEDLAYER-1
 10
48.521742
 20
179.670193
 30
0.000000
  0
SEQEND
  8
MERGEDLAYER-1
  0
POLYLINE
  8
MERGEDLAYER-1
 66
  1
 70
  0
 62
  7
 10
50.473341
 20
168.063707
 30
0.000000
  0
VERTEX
  8
MERGEDLAYER-1
 10
50.473341
 20
168.063707
 30
0.000000
  0
VERTEX
  8
MERGEDLAYER-1
 10
50.340810
 20
168.476278
 30
0.000000
  0
VERTEX
  8
MERGEDLAYER-1
 10
50.026065
 20
168.674262
 30
0.000000
  0
VERTEX
  8
MERGEDLAYER-1
 10
49.663496
 20
168.591715
 30
0.000000
  0
VERTEX
  8
MERGEDLAYER-1
 10
49.465505
 20
168.276964
 30
0.000000
  0
VERTEX
  8
MERGEDLAYER-1
 10
49.548062
 20
167.914402
 30
0.000000
  0
VERTEX
  8
MERGEDLAYER-1
 10
49.826955
 20
167.689263
 30
0.000000
  0
SEQEND
  8
MERGEDLAYER-1
  0
POLYLINE
  8
MERGEDLAYER-1
 66
  1
 70
  0
 62
  7
 10
50.824565
 20
167.707506
 30
0.000000
  0
VERTEX
  8
MERGEDLAYER-1
 10
50.824565
 20
167.707506
 30
0.000000
  0
VERTEX
  8
MERGEDLAYER-1
 10
50.878927
 20
168.108507
 30
0.000000
  0
VERTEX
  8
MERGEDLAYER-1
 10
50.841024
 20
168.472724
 30
0.000000
  0
VERTEX
  8
MERGEDLAYER-1
 10
50.666623
 20
168.794718
 30
0.000000
  0
VERTEX
  8
MERGEDLAYER-1
 10
50.382273
 20
169.025472
 30
0.000000
  0
VERTEX
  8
MERGEDLAYER-1
 10
50.031264
 20
169.129829
 30
0.000000
  0
VERTEX
  8
MERGEDLAYER-1
 10
49.871389
 20
169.075751
 30
0.000000
  0
SEQEND
  8
MERGEDLAYER-1
  0
POLYLINE
  8
MERGEDLAYER-1
 66
  1
 70
  0
 62
  7
 10
49.256510
 20
168.725220
 30
0.000000
  0
VERTEX
  8
MERGEDLAYER-1
 10
49.256510
 20
168.725220
 30
0.000000
  0
VERTEX
  8
MERGEDLAYER-1
 10
49.040761
 20
168.448676
 30
0.000000
  0
VERTEX
  8
MERGEDLAYER-1
 10
49.012600
 20
168.083577
 30
0.000000
  0
VERTEX
  8
MERGEDLAYER-1
 10
49.126295
 20
167.735487
 30
0.000000
  0
VERTEX
  8
MERGEDLAYER-1
 10
49.364553
 20
167.457397
 30
0.000000
  0
VERTEX
  8
MERGEDLAYER-1
 10
49.691091
 20
167.291667
 30
0.000000
  0
VERTEX
  8
MERGEDLAYER-1
 10
49.945265
 20
167.208103
 30
0.000000
  0
SEQEND
  8
MERGEDLAYER-1
  0
POLYLINE
  8
MERGEDLAYER-1
 66
  1
 70
  0
 62
  7
 10
50.484623
 20
167.991279
 30
0.000000
  0
VERTEX
  8
MERGEDLAYER-1
 10
50.484623
 20
167.991279
 30
0.000000
  0
VERTEX
  8
MERGEDLAYER-1
 10
50.645216
 20
167.704074
 30
0.000000
  0
SEQEND
  8
MERGEDLAYER-1
  0
POLYLINE
  8
MERGEDLAYER-1
 66
  1
 70
  0
 62
  7
 10
49.881694
 20
167.643283
 30
0.000000
  0
VERTEX
  8
MERGEDLAYER-1
 10
49.881694
 20
167.643283
 30
0.000000
  0
VERTEX
  8
MERGEDLAYER-1
 10
50.040822
 20
167.361938
 30
0.000000
  0
SEQEND
  8
MERGEDLAYER-1
  0
POLYLINE
  8
MERGEDLAYER-1
 66
  1
 70
  0
 62
  7
 10
50.645216
 20
167.704061
 30
0.000000
  0
VERTEX
  8
MERGEDLAYER-1
 10
50.645216
 20
167.704061
 30
0.000000
  0
VERTEX
  8
MERGEDLAYER-1
 10
50.826274
 20
167.706570
 30
0.000000
  0
SEQEND
  8
MERGEDLAYER-1
  0
POLYLINE
  8
MERGEDLAYER-1
 66
  1
 70
  0
 62
  7
 10
49.945265
 20
167.207967
 30
0.000000
  0
VERTEX
  8
MERGEDLAYER-1
 10
49.945265
 20
167.207967
 30
0.000000
  0
VERTEX
  8
MERGEDLAYER-1
 10
50.040432
 20
167.361708
 30
0.000000
  0
SEQEND
  8
MERGEDLAYER-1
  0
POLYLINE
  8
MERGEDLAYER-1
 66
  1
 70
  0
 62
  7
 10
50.474124
 20
168.060208
 30
0.000000
  0
VERTEX
  8
MERGEDLAYER-1
 10
50.474124
 20
168.060208
 30
0.000000
  0
VERTEX
  8
MERGEDLAYER-1
 10
50.485647
 20
167.991862
 30
0.000000
  0
SEQEND
  8
MERGEDLAYER-1
  0
POLYLINE
  8
MERGEDLAYER-1
 66
  1
 70
  0
 62
  7
 10
49.881056
 20
167.642944
 30
0.000000
  0
VERTEX
  8
MERGEDLAYER-1
 10
49.881056
 20
167.642944
 30
0.000000
  0
VERTEX
  8
MERGEDLAYER-1
 10
49.826857
 20
167.688992
 30
0.000000
  0
SEQEND
  8
MERGEDLAYER-1
  0
POLYLINE
  8
MERGEDLAYER-1
 66
  1
 70
  0
 62
  7
 10
49.266958
 20
168.840739
 30
0.000000
  0
VERTEX
  8
MERGEDLAYER-1
 10
49.266958
 20
168.840739
 30
0.000000
  0
VERTEX
  8
MERGEDLAYER-1
 10
49.176188
 20
169.005249
 30
0.000000
  0
SEQEND
  8
MERGEDLAYER-1
  0
POLYLINE
  8
MERGEDLAYER-1
 66
  1
 70
  0
 62
  7
 10
49.085073
 20
169.056315
 30
0.000000
  0
VERTEX
  8
MERGEDLAYER-1
 10
49.085073
 20
169.056315
 30
0.000000
  0
VERTEX
  8
MERGEDLAYER-1
 10
48.844449
 20
169.056315
 30
0.000000
  0
SEQEND
  8
MERGEDLAYER-1
  0
POLYLINE
  8
MERGEDLAYER-1
 66
  1
 70
  0
 62
  7
 10
49.255534
 20
168.725952
 30
0.000000
  0
VERTEX
  8
MERGEDLAYER-1
 10
49.255534
 20
168.725952
 30
0.000000
  0
VERTEX
  8
MERGEDLAYER-1
 10
49.264713
 20
168.839491
 30
0.000000
  0
SEQEND
  8
MERGEDLAYER-1
  0
POLYLINE
  8
MERGEDLAYER-1
 66
  1
 70
  0
 62
  7
 10
49.175991
 20
169.005127
 30
0.000000
  0
VERTEX
  8
MERGEDLAYER-1
 10
49.175991
 20
169.005127
 30
0.000000
  0
VERTEX
  8
MERGEDLAYER-1
 10
49.085073
 20
169.058431
 30
0.000000
  0
SEQEND
  8
MERGEDLAYER-1
  0
POLYLINE
  8
MERGEDLAYER-1
 66
  1
 70
  0
 62
  7
 10
48.536296
 20
169.318305
 30
0.000000
  0
VERTEX
  8
MERGEDLAYER-1
 10
48.536296
 20
169.318305
 30
0.000000
  0
VERTEX
  8
MERGEDLAYER-1
 10
48.613325
 20
169.165649
 30
0.000000
  0
VERTEX
  8
MERGEDLAYER-1
 10
48.844449
 20
169.057807
 30
0.000000
  0
SEQEND
  8
MERGEDLAYER-1
  0
POLYLINE
  8
MERGEDLAYER-1
 66
  1
 70
  0
 62
  7
 10
48.703532
 20
171.690728
 30
0.000000
  0
VERTEX
  8
MERGEDLAYER-1
 10
48.703532
 20
171.690728
 30
0.000000
  0
VERTEX
  8
MERGEDLAYER-1
 10
48.877194
 20
171.044162
 30
0.000000
  0
VERTEX
  8
MERGEDLAYER-1
 10
49.350406
 20
170.486206
 30
0.000000
  0
VERTEX
  8
MERGEDLAYER-1
 10
49.776320
 20
170.204183
 30
0.000000
  0
SEQEND
  8
MERGEDLAYER-1
  0
POLYLINE
  8
MERGEDLAYER-1
 66
  1
 70
  0
 62
  7
 10
49.768412
 20
169.124430
 30
0.000000
  0
VERTEX
  8
MERGEDLAYER-1
 10
49.768412
 20
169.124430
 30
0.000000
  0
VERTEX
  8
MERGEDLAYER-1
 10
49.871731
 20
169.072835
 30
0.000000
  0
SEQEND
  8
MERGEDLAYER-1
  0
POLYLINE
  8
MERGEDLAYER-1
 66
  1
 70
  0
 62
  7
 10
49.680433
 20
169.392049
 30
0.000000
  0
VERTEX
  8
MERGEDLAYER-1
 10
49.680433
 20
169.392049
 30
0.000000
  0
VERTEX
  8
MERGEDLAYER-1
 10
49.677945
 20
169.286648
 30
0.000000
  0
SEQEND
  8
MERGEDLAYER-1
  0
POLYLINE
  8
MERGEDLAYER-1
 66
  1
 70
  0
 62
  7
 10
49.768412
 20
169.124430
 30
0.000000
  0
VERTEX
  8
MERGEDLAYER-1
 10
49.768412
 20
169.124430
 30
0.000000
  0
VERTEX
  8
MERGEDLAYER-1
 10
49.677260
 20
169.286255
 30
0.000000
  0
SEQEND
  8
MERGEDLAYER-1
  0
POLYLINE
  8
MERGEDLAYER-1
 66
  1
 70
  0
 62
  7
 10
49.680678
 20
169.391873
 30
0.000000
  0
VERTEX
  8
MERGEDLAYER-1
 10
49.680678
 20
169.391873
 30
0.000000
  0
VERTEX
  8
MERGEDLAYER-1
 10
49.908352
 20
169.754734
 30
0.000000
  0
SEQEND
  8
MERGEDLAYER-1
  0
POLYLINE
  8
MERGEDLAYER-1
 66
  1
 70
  0
 62
  7
 10
49.909132
 20
169.754218
 30
0.000000
  0
VERTEX
  8
MERGEDLAYER-1
 10
49.909132
 20
169.754218
 30
0.000000
  0
VERTEX
  8
MERGEDLAYER-1
 10
49.899061
 20
170.040053
 30
0.000000
  0
VERTEX
  8
MERGEDLAYER-1
 10
49.760525
 20
170.235026
 30
0.000000
  0
VERTEX
  8
MERGEDLAYER-1
 10
49.776076
 20
170.203708
 30
0.000000
  0
SEQEND
  8
MERGEDLAYER-1
  0
POLYLINE
  8
MERGEDLAYER-1
 66
  1
 70
  0
 62
  7
 10
48.519107
 20
194.377943
 30
0.000000
  0
VERTEX
  8
MERGEDLAYER-1
 10
48.519107
 20
194.377943
 30
0.000000
  0
VERTEX
  8
MERGEDLAYER-1
 10
48.387343
 20
190.130222
 30
0.000000
  0
VERTEX
  8
MERGEDLAYER-1
 10
48.703678
 20
186.398356
 30
0.000000
  0
SEQEND
  8
MERGEDLAYER-1
  0
POLYLINE
  8
MERGEDLAYER-1
 66
  1
 70
  0
 62
  7
 10
48.020328
 20
194.411987
 30
0.000000
  0
VERTEX
  8
MERGEDLAYER-1
 10
48.020328
 20
194.411987
 30
0.000000
  0
VERTEX
  8
MERGEDLAYER-1
 10
47.887594
 20
190.115194
 30
0.000000
  0
VERTEX
  8
MERGEDLAYER-1
 10
48.231327
 20
185.781236
 30
0.000000
  0
VERTEX
  8
MERGEDLAYER-1
 10
48.535075
 20
184.025730
 30
0.000000
  0
SEQEND
  8
MERGEDLAYER-1
  0
POLYLINE
  8
MERGEDLAYER-1
 66
  1
 70
  0
 62
  7
 10
50.473341
 20
182.771308
 30
0.000000
  0
VERTEX
  8
MERGEDLAYER-1
 10
50.473341
 20
182.771308
 30
0.000000
  0
VERTEX
  8
MERGEDLAYER-1
 10
50.340810
 20
183.183865
 30
0.000000
  0
VERTEX
  8
MERGEDLAYER-1
 10
50.026065
 20
183.381863
 30
0.000000
  0
VERTEX
  8
MERGEDLAYER-1
 10
49.663496
 20
183.299303
 30
0.000000
  0
VERTEX
  8
MERGEDLAYER-1
 10
49.465505
 20
182.984565
 30
0.000000
  0
VERTEX
  8
MERGEDLAYER-1
 10
49.548062
 20
182.621989
 30
0.000000
  0
VERTEX
  8
MERGEDLAYER-1
 10
49.826955
 20
182.396878
 30
0.000000
  0
SEQEND
  8
MERGEDLAYER-1
  0
POLYLINE
  8
MERGEDLAYER-1
 66
  1
 70
  0
 62
  7
 10
49.256510
 20
183.432807
 30
0.000000
  0
VERTEX
  8
MERGEDLAYER-1
 10
49.256510
 20
183.432807
 30
0.000000
  0
VERTEX
  8
MERGEDLAYER-1
 10
49.040761
 20
183.156277
 30
0.000000
  0
VERTEX
  8
MERGEDLAYER-1
 10
49.012600
 20
182.791165
 30
0.000000
  0
VERTEX
  8
MERGEDLAYER-1
 10
49.126295
 20
182.443075
 30
0.000000
  0
VERTEX
  8
MERGEDLAYER-1
 10
49.364553
 20
182.164998
 30
0.000000
  0
VERTEX
  8
MERGEDLAYER-1
 10
49.691091
 20
181.999254
 30
0.000000
  0
VERTEX
  8
MERGEDLAYER-1
 10
49.945265
 20
181.915704
 30
0.000000
  0
SEQEND
  8
MERGEDLAYER-1
  0
POLYLINE
  8
MERGEDLAYER-1
 66
  1
 70
  0
 62
  7
 10
50.484623
 20
182.698880
 30
0.000000
  0
VERTEX
  8
MERGEDLAYER-1
 10
50.484623
 20
182.698880
 30
0.000000
  0
VERTEX
  8
MERGEDLAYER-1
 10
50.645216
 20
182.411675
 30
0.000000
  0
SEQEND
  8
MERGEDLAYER-1
  0
POLYLINE
  8
MERGEDLAYER-1
 66
  1
 70
  0
 62
  7
 10
49.881694
 20
182.350884
 30
0.000000
  0
VERTEX
  8
MERGEDLAYER-1
 10
49.881694
 20
182.350884
 30
0.000000
  0
VERTEX
  8
MERGEDLAYER-1
 10
50.040822
 20
182.069526
 30
0.000000
  0
SEQEND
  8
MERGEDLAYER-1
  0
POLYLINE
  8
MERGEDLAYER-1
 66
  1
 70
  0
 62
  7
 10
50.645216
 20
182.411662
 30
0.000000
  0
VERTEX
  8
MERGEDLAYER-1
 10
50.645216
 20
182.411662
 30
0.000000
  0
VERTEX
  8
MERGEDLAYER-1
 10
50.826274
 20
182.414157
 30
0.000000
  0
SEQEND
  8
MERGEDLAYER-1
  0
POLYLINE
  8
MERGEDLAYER-1
 66
  1
 70
  0
 62
  7
 10
49.945265
 20
181.915568
 30
0.000000
  0
VERTEX
  8
MERGEDLAYER-1
 10
49.945265
 20
181.915568
 30
0.000000
  0
VERTEX
  8
MERGEDLAYER-1
 10
50.040432
 20
182.069309
 30
0.000000
  0
SEQEND
  8
MERGEDLAYER-1
  0
POLYLINE
  8
MERGEDLAYER-1
 66
  1
 70
  0
 62
  7
 10
50.474124
 20
182.767795
 30
0.000000
  0
VERTEX
  8
MERGEDLAYER-1
 10
50.474124
 20
182.767795
 30
0.000000
  0
VERTEX
  8
MERGEDLAYER-1
 10
50.485647
 20
182.699449
 30
0.000000
  0
SEQEND
  8
MERGEDLAYER-1
  0
POLYLINE
  8
MERGEDLAYER-1
 66
  1
 70
  0
 62
  7
 10
49.881056
 20
182.350559
 30
0.000000
  0
VERTEX
  8
MERGEDLAYER-1
 10
49.881056
 20
182.350559
 30
0.000000
  0
VERTEX
  8
MERGEDLAYER-1
 10
49.826857
 20
182.396593
 30
0.000000
  0
SEQEND
  8
MERGEDLAYER-1
  0
POLYLINE
  8
MERGEDLAYER-1
 66
  1
 70
  0
 62
  7
 10
49.255534
 20
183.433539
 30
0.000000
  0
VERTEX
  8
MERGEDLAYER-1
 10
49.255534
 20
183.433539
 30
0.000000
  0
VERTEX
  8
MERGEDLAYER-1
 10
49.264713
 20
183.547078
 30
0.000000
  0
SEQEND
  8
MERGEDLAYER-1
  0
POLYLINE
  8
MERGEDLAYER-1
 66
  1
 70
  0
 62
  7
 10
50.824565
 20
182.415093
 30
0.000000
  0
VERTEX
  8
MERGEDLAYER-1
 10
50.824565
 20
182.415093
 30
0.000000
  0
VERTEX
  8
MERGEDLAYER-1
 10
50.878927
 20
182.816094
 30
0.000000
  0
VERTEX
  8
MERGEDLAYER-1
 10
50.841024
 20
183.180325
 30
0.000000
  0
VERTEX
  8
MERGEDLAYER-1
 10
50.666623
 20
183.502319
 30
0.000000
  0
VERTEX
  8
MERGEDLAYER-1
 10
50.382273
 20
183.733059
 30
0.000000
  0
VERTEX
  8
MERGEDLAYER-1
 10
50.031264
 20
183.837429
 30
0.000000
  0
VERTEX
  8
MERGEDLAYER-1
 10
49.871389
 20
183.783339
 30
0.000000
  0
SEQEND
  8
MERGEDLAYER-1
  0
POLYLINE
  8
MERGEDLAYER-1
 66
  1
 70
  0
 62
  7
 10
49.266958
 20
183.548326
 30
0.000000
  0
VERTEX
  8
MERGEDLAYER-1
 10
49.266958
 20
183.548326
 30
0.000000
  0
VERTEX
  8
MERGEDLAYER-1
 10
49.176188
 20
183.712836
 30
0.000000
  0
SEQEND
  8
MERGEDLAYER-1
  0
POLYLINE
  8
MERGEDLAYER-1
 66
  1
 70
  0
 62
  7
 10
49.085073
 20
183.763902
 30
0.000000
  0
VERTEX
  8
MERGEDLAYER-1
 10
49.085073
 20
183.763902
 30
0.000000
  0
VERTEX
  8
MERGEDLAYER-1
 10
48.844449
 20
183.763902
 30
0.000000
  0
SEQEND
  8
MERGEDLAYER-1
  0
POLYLINE
  8
MERGEDLAYER-1
 66
  1
 70
  0
 62
  7
 10
49.175991
 20
183.712714
 30
0.000000
  0
VERTEX
  8
MERGEDLAYER-1
 10
49.175991
 20
183.712714
 30
0.000000
  0
VERTEX
  8
MERGEDLAYER-1
 10
49.085073
 20
183.766018
 30
0.000000
  0
SEQEND
  8
MERGEDLAYER-1
  0
POLYLINE
  8
MERGEDLAYER-1
 66
  1
 70
  0
 62
  7
 10
48.536296
 20
184.025906
 30
0.000000
  0
VERTEX
  8
MERGEDLAYER-1
 10
48.536296
 20
184.025906
 30
0.000000
  0
VERTEX
  8
MERGEDLAYER-1
 10
48.613325
 20
183.873250
 30
0.000000
  0
VERTEX
  8
MERGEDLAYER-1
 10
48.844449
 20
183.765408
 30
0.000000
  0
SEQEND
  8
MERGEDLAYER-1
  0
POLYLINE
  8
MERGEDLAYER-1
 66
  1
 70
  0
 62
  7
 10
48.703532
 20
186.398329
 30
0.000000
  0
VERTEX
  8
MERGEDLAYER-1
 10
48.703532
 20
186.398329
 30
0.000000
  0
VERTEX
  8
MERGEDLAYER-1
 10
48.877194
 20
185.751750
 30
0.000000
  0
VERTEX
  8
MERGEDLAYER-1
 10
49.350406
 20
185.193793
 30
0.000000
  0
VERTEX
  8
MERGEDLAYER-1
 10
49.776320
 20
184.911784
 30
0.000000
  0
SEQEND
  8
MERGEDLAYER-1
  0
POLYLINE
  8
MERGEDLAYER-1
 66
  1
 70
  0
 62
  7
 10
49.768412
 20
183.832018
 30
0.000000
  0
VERTEX
  8
MERGEDLAYER-1
 10
49.768412
 20
183.832018
 30
0.000000
  0
VERTEX
  8
MERGEDLAYER-1
 10
49.871731
 20
183.780423
 30
0.000000
  0
SEQEND
  8
MERGEDLAYER-1
  0
POLYLINE
  8
MERGEDLAYER-1
 66
  1
 70
  0
 62
  7
 10
49.680433
 20
184.099637
 30
0.000000
  0
VERTEX
  8
MERGEDLAYER-1
 10
49.680433
 20
184.099637
 30
0.000000
  0
VERTEX
  8
MERGEDLAYER-1
 10
49.677945
 20
183.994236
 30
0.000000
  0
SEQEND
  8
MERGEDLAYER-1
  0
POLYLINE
  8
MERGEDLAYER-1
 66
  1
 70
  0
 62
  7
 10
49.768412
 20
183.832031
 30
0.000000
  0
VERTEX
  8
MERGEDLAYER-1
 10
49.768412
 20
183.832031
 30
0.000000
  0
VERTEX
  8
MERGEDLAYER-1
 10
49.677260
 20
183.993856
 30
0.000000
  0
SEQEND
  8
MERGEDLAYER-1
  0
POLYLINE
  8
MERGEDLAYER-1
 66
  1
 70
  0
 62
  7
 10
49.680678
 20
184.099474
 30
0.000000
  0
VERTEX
  8
MERGEDLAYER-1
 10
49.680678
 20
184.099474
 30
0.000000
  0
VERTEX
  8
MERGEDLAYER-1
 10
49.908352
 20
184.462335
 30
0.000000
  0
SEQEND
  8
MERGEDLAYER-1
  0
POLYLINE
  8
MERGEDLAYER-1
 66
  1
 70
  0
 62
  7
 10
49.909132
 20
184.461819
 30
0.000000
  0
VERTEX
  8
MERGEDLAYER-1
 10
49.909132
 20
184.461819
 30
0.000000
  0
VERTEX
  8
MERGEDLAYER-1
 10
49.899061
 20
184.747640
 30
0.000000
  0
VERTEX
  8
MERGEDLAYER-1
 10
49.760525
 20
184.942613
 30
0.000000
  0
VERTEX
  8
MERGEDLAYER-1
 10
49.776076
 20
184.911296
 30
0.000000
  0
SEQEND
  8
MERGEDLAYER-1
  0
CIRCLE
  8
MERGEDLAYER-1
 62
  7
 10
49.987942
 20
182.852932
 30
0.000000
 40
1.171875
  0
POLYLINE
  8
MERGEDLAYER-1
 66
  1
 70
  1
 62
  7
 10
49.987942
 20
181.863336
 30
0.000000
  0
VERTEX
  8
MERGEDLAYER-1
 10
49.987942
 20
181.863336
 30
0.000000
  0
VERTEX
  8
MERGEDLAYER-1
 10
49.130924
 20
182.358127
 30
0.000000
  0
VERTEX
  8
MERGEDLAYER-1
 10
49.130924
 20
183.347751
 30
0.000000
  0
VERTEX
  8
MERGEDLAYER-1
 10
49.987942
 20
183.842543
 30
0.000000
  0
VERTEX
  8
MERGEDLAYER-1
 10
50.844974
 20
183.347751
 30
0.000000
  0
VERTEX
  8
MERGEDLAYER-1
 10
50.844974
 20
182.358141
 30
0.000000
  0
SEQEND
  8
MERGEDLAYER-1
  0
CIRCLE
  8
MERGEDLAYER-1
 62
  7
 10
49.994436
 20
182.852932
 30
0.000000
 40
0.799004
  0
LINE
  8
MERGEDLAYER-1
 62
  7
 10
47.905192
 20
185.320869
 30
0.000000
 11
47.905192
 21
191.281806
 31
0.000000
  0
LINE
  8
MERGEDLAYER-1
 62
  7
 10
51.648098
 20
185.188544
 30
0.000000
 11
51.648098
 21
191.281806
 31
0.000000
  0
LINE
  8
MERGEDLAYER-1
 62
  7
 10
47.905195
 20
188.281806
 30
0.000000
 11
41.905195
 21
188.281820
 31
0.000000
  0
POLYLINE
  8
MERGEDLAYER-1
 66
  1
 70
  1
 62
  7
  0
VERTEX
  8
MERGEDLAYER-1
 10
47.905192
 20
188.281806
 30
0.000000
  0
VERTEX
  8
MERGEDLAYER-1
 10
46.794084
 20
188.948473
 30
0.000000
  0
VERTEX
  8
MERGEDLAYER-1
 10
46.794081
 20
188.281806
 30
0.000000
  0
VERTEX
  8
MERGEDLAYER-1
 10
46.794078
 20
187.615139
 30
0.000000
  0
VERTEX
  8
MERGEDLAYER-1
 10
47.905192
 20
188.281806
 30
0.000000
  0
SEQEND
  8
MERGEDLAYER-1
  0
LINE
  8
MERGEDLAYER-1
 62
  7
 10
51.648098
 20
188.281806
 30
0.000000
 11
97.079909
 21
163.102295
 31
0.000000
  0
POLYLINE
  8
MERGEDLAYER-1
 66
  1
 70
  1
 62
  7
  0
VERTEX
  8
MERGEDLAYER-1
 10
51.648098
 20
188.281806
 30
0.000000
  0
VERTEX
  8
MERGEDLAYER-1
 10
52.759213
 20
188.948473
 30
0.000000
  0
VERTEX
  8
MERGEDLAYER-1
 10
52.759210
 20
188.281806
 30
0.000000
  0
VERTEX
  8
MERGEDLAYER-1
 10
52.759206
 20
187.615139
 30
0.000000
  0
VERTEX
  8
MERGEDLAYER-1
 10
51.648098
 20
188.281806
 30
0.000000
  0
SEQEND
  8
MERGEDLAYER-1
  0
TEXT
  8
MERGEDLAYER-1
 62
  7
 10
49.362246
 20
190.183246
 30
0.000000
 40
1.666667
  1
 
  0
LINE
  8
MERGEDLAYER-1
 62
  7
 10
52.148417
 20
165.937229
 30
0.000000
 11
57.598952
 21
160.369629
 31
0.000000
  0
LINE
  8
MERGEDLAYER-1
 62
  7
 10
47.802565
 20
170.376383
 30
0.000000
 11
43.605235
 21
174.663845
 31
0.000000
  0
POLYLINE
  8
MERGEDLAYER-1
 66
  1
 70
  1
 62
  7
  0
VERTEX
  8
MERGEDLAYER-1
 10
47.802565
 20
170.376383
 30
0.000000
  0
VERTEX
  8
MERGEDLAYER-1
 10
47.501668
 20
171.636732
 30
0.000000
  0
VERTEX
  8
MERGEDLAYER-1
 10
47.025282
 20
171.170356
 30
0.000000
  0
VERTEX
  8
MERGEDLAYER-1
 10
46.548896
 20
170.703993
 30
0.000000
  0
VERTEX
  8
MERGEDLAYER-1
 10
47.802565
 20
170.376383
 30
0.000000
  0
SEQEND
  8
MERGEDLAYER-1
  0
LINE
  8
MERGEDLAYER-1
 62
  7
 10
52.148417
 20
165.937229
 30
0.000000
 11
100.857775
 21
132.840142
 31
0.000000
  0
POLYLINE
  8
MERGEDLAYER-1
 66
  1
 70
  1
 62
  7
  0
VERTEX
  8
MERGEDLAYER-1
 10
52.148417
 20
165.937229
 30
0.000000
  0
VERTEX
  8
MERGEDLAYER-1
 10
53.402086
 20
165.609619
 30
0.000000
  0
VERTEX
  8
MERGEDLAYER-1
 10
52.925700
 20
165.143256
 30
0.000000
  0
VERTEX
  8
MERGEDLAYER-1
 10
52.449314
 20
164.676893
 30
0.000000
  0
VERTEX
  8
MERGEDLAYER-1
 10
52.148417
 20
165.937229
 30
0.000000
  0
SEQEND
  8
MERGEDLAYER-1
  0
TEXT
  8
MERGEDLAYER-1
 62
  7
 10
58.762247
 20
159.683248
 30
0.000000
 40
1.666667
  1
 
  0
TEXT
  8
MERGEDLAYER-1
 62
  7
 10
58.984469
 20
162.438802
 30
0.000000
 40
2.333333
  1
5/8" (16mm)
 72
  5
 11
77.651136
 21
162.438802
 31
0.000000
  0
TEXT
  8
MERGEDLAYER-1
 62
  7
 10
58.984469
 20
158.883247
 30
0.000000
 40
2.333333
  1
ROULEMENTS
 72
  5
 11
81.651136
 21
158.883247
 31
0.000000
  0
TEXT
  8
MERGEDLAYER-1
 62
  7
 10
58.984469
 20
155.994358
 30
0.000000
 40
1.833333
  1
(AUX 3 PANNEAUX)
 72
  5
 11
81.873358
 21
155.994358
 31
0.000000
  0
LINE
  8
MERGEDLAYER-1
 62
  7
 10
66.131741
 20
168.645331
 30
0.000000
 11
66.131741
 21
182.352932
 31
0.000000
  0
LINE
  8
MERGEDLAYER-1
 62
  7
 10
51.994436
 20
168.145331
 30
0.000000
 11
69.131741
 21
168.145331
 31
0.000000
  0
LINE
  8
MERGEDLAYER-1
 62
  7
 10
51.994436
 20
182.852932
 30
0.000000
 11
69.131741
 21
182.852932
 31
0.000000
  0
POLYLINE
  8
MERGEDLAYER-1
 66
  1
 70
  1
 62
  7
  0
VERTEX
  8
MERGEDLAYER-1
 10
66.131741
 20
168.145331
 30
0.000000
  0
VERTEX
  8
MERGEDLAYER-1
 10
66.798414
 20
169.256443
 30
0.000000
  0
VERTEX
  8
MERGEDLAYER-1
 10
66.131748
 20
169.256443
 30
0.000000
  0
VERTEX
  8
MERGEDLAYER-1
 10
65.465081
 20
169.256456
 30
0.000000
  0
VERTEX
  8
MERGEDLAYER-1
 10
66.131741
 20
168.145331
 30
0.000000
  0
SEQEND
  8
MERGEDLAYER-1
  0
POLYLINE
  8
MERGEDLAYER-1
 66
  1
 70
  1
 62
  7
  0
VERTEX
  8
MERGEDLAYER-1
 10
66.131741
 20
182.852932
 30
0.000000
  0
VERTEX
  8
MERGEDLAYER-1
 10
66.798401
 20
181.741821
 30
0.000000
  0
VERTEX
  8
MERGEDLAYER-1
 10
66.131734
 20
181.741821
 30
0.000000
  0
VERTEX
  8
MERGEDLAYER-1
 10
65.465068
 20
181.741821
 30
0.000000
  0
VERTEX
  8
MERGEDLAYER-1
 10
66.131741
 20
182.852932
 30
0.000000
  0
SEQEND
  8
MERGEDLAYER-1
  0
TEXT
  8
MERGEDLAYER-1
 62
  7
 10
64.240030
 20
174.483154
 30
0.000000
 40
1.666667
  1
 
 50
90.000000
  0
TEXT
  8
MERGEDLAYER-1
 62
  7
 10
49.206691
 20
192.883247
 30
0.000000
 40
2.500000
  1
3/8" (10mm)
 72
  5
 11
68.317802
 21
192.883247
 31
0.000000
  0
CIRCLE
  8
MERGEDLAYER-1
 62
  7
 10
49.975491
 20
168.156806
 30
0.000000
 40
3.106142
  0
CIRCLE
  8
MERGEDLAYER-1
 62
  7
 10
49.975491
 20
168.156806
 30
0.000000
 40
0.980230
  0
CIRCLE
  8
MERGEDLAYER-1
 62
  7
 10
49.975491
 20
168.156806
 30
0.000000
 40
0.408518
  0
POLYLINE
  8
MERGEDLAYER-1
 66
  1
 70
  1
 62
  7
 10
49.894094
 20
168.605781
 30
0.000000
  0
VERTEX
  8
MERGEDLAYER-1
 10
49.894094
 20
168.605781
 30
0.000000
  0
VERTEX
  8
MERGEDLAYER-1
 10
50.056936
 20
168.605781
 30
0.000000
  0
VERTEX
  8
MERGEDLAYER-1
 10
50.056936
 20
168.238227
 30
0.000000
  0
VERTEX
  8
MERGEDLAYER-1
 10
50.424466
 20
168.238227
 30
0.000000
  0
VERTEX
  8
MERGEDLAYER-1
 10
50.424466
 20
168.075385
 30
0.000000
  0
VERTEX
  8
MERGEDLAYER-1
 10
50.056936
 20
168.075385
 30
0.000000
  0
VERTEX
  8
MERGEDLAYER-1
 10
50.056936
 20
167.707831
 30
0.000000
  0
VERTEX
  8
MERGEDLAYER-1
 10
49.894094
 20
167.707831
 30
0.000000
  0
VERTEX
  8
MERGEDLAYER-1
 10
49.894094
 20
168.075385
 30
0.000000
  0
VERTEX
  8
MERGEDLAYER-1
 10
49.526530
 20
168.075385
 30
0.000000
  0
VERTEX
  8
MERGEDLAYER-1
 10
49.526530
 20
168.238227
 30
0.000000
  0
VERTEX
  8
MERGEDLAYER-1
 10
49.894094
 20
168.238227
 30
0.000000
  0
SEQEND
  8
MERGEDLAYER-1
  0
CIRCLE
  8
MERGEDLAYER-1
 62
  7
 10
49.975491
 20
168.156806
 30
0.000000
 40
0.090549
  0
CIRCLE
  8
MERGEDLAYER-1
 62
  7
 10
49.975491
 20
168.156806
 30
0.000000
 40
2.594291
  0
CIRCLE
  8
MERGEDLAYER-1
 62
  7
 10
49.975491
 20
168.156806
 30
0.000000
 40
1.871168
  0
LINE
  8
MERGEDLAYER-1
 62
  7
 10
66.173414
 20
124.090224
 30
0.000000
 11
66.173414
 21
150.926473
 31
0.000000
  0
LINE
  8
MERGEDLAYER-1
 62
  7
 10
57.178080
 20
123.590224
 30
0.000000
 11
69.173414
 21
123.590224
 31
0.000000
  0
LINE
  8
MERGEDLAYER-1
 62
  7
 10
58.148173
 20
151.426473
 30
0.000000
 11
69.173414
 21
151.426473
 31
0.000000
  0
POLYLINE
  8
MERGEDLAYER-1
 66
  1
 70
  1
 62
  7
  0
VERTEX
  8
MERGEDLAYER-1
 10
66.173414
 20
123.590224
 30
0.000000
  0
VERTEX
  8
MERGEDLAYER-1
 10
66.840088
 20
124.701335
 30
0.000000
  0
VERTEX
  8
MERGEDLAYER-1
 10
66.173421
 20
124.701335
 30
0.000000
  0
VERTEX
  8
MERGEDLAYER-1
 10
65.506755
 20
124.701335
 30
0.000000
  0
VERTEX
  8
MERGEDLAYER-1
 10
66.173414
 20
123.590224
 30
0.000000
  0
SEQEND
  8
MERGEDLAYER-1
  0
POLYLINE
  8
MERGEDLAYER-1
 66
  1
 70
  1
 62
  7
  0
VERTEX
  8
MERGEDLAYER-1
 10
66.173414
 20
151.426473
 30
0.000000
  0
VERTEX
  8
MERGEDLAYER-1
 10
66.840074
 20
150.315362
 30
0.000000
  0
VERTEX
  8
MERGEDLAYER-1
 10
66.173408
 20
150.315362
 30
0.000000
  0
VERTEX
  8
MERGEDLAYER-1
 10
65.506741
 20
150.315362
 30
0.000000
  0
VERTEX
  8
MERGEDLAYER-1
 10
66.173414
 20
151.426473
 30
0.000000
  0
SEQEND
  8
MERGEDLAYER-1
  0
TEXT
  8
MERGEDLAYER-1
 62
  7
 10
64.228834
 20
136.788608
 30
0.000000
 40
1.666667
  1
 
 50
90.000000
  0
LINE
  8
MERGEDLAYER-1
 62
  7
 10
50.482402
 20
117.760959
 30
0.000000
 11
55.793701
 21
117.760932
 31
0.000000
  0
LINE
  8
MERGEDLAYER-1
 62
  7
 10
49.982402
 20
119.202379
 30
0.000000
 11
49.982402
 21
114.760946
 31
0.000000
  0
LINE
  8
MERGEDLAYER-1
 62
  7
 10
56.293701
 20
121.644586
 30
0.000000
 11
56.293701
 21
114.760946
 31
0.000000
  0
POLYLINE
  8
MERGEDLAYER-1
 66
  1
 70
  1
 62
  7
  0
VERTEX
  8
MERGEDLAYER-1
 10
49.982402
 20
117.760946
 30
0.000000
  0
VERTEX
  8
MERGEDLAYER-1
 10
51.093516
 20
117.094293
 30
0.000000
  0
VERTEX
  8
MERGEDLAYER-1
 10
51.093513
 20
117.760959
 30
0.000000
  0
VERTEX
  8
MERGEDLAYER-1
 10
51.093509
 20
118.427626
 30
0.000000
  0
VERTEX
  8
MERGEDLAYER-1
 10
49.982402
 20
117.760946
 30
0.000000
  0
SEQEND
  8
MERGEDLAYER-1
  0
POLYLINE
  8
MERGEDLAYER-1
 66
  1
 70
  1
 62
  7
  0
VERTEX
  8
MERGEDLAYER-1
 10
56.293701
 20
117.760946
 30
0.000000
  0
VERTEX
  8
MERGEDLAYER-1
 10
55.182597
 20
117.094265
 30
0.000000
  0
VERTEX
  8
MERGEDLAYER-1
 10
55.182590
 20
117.760932
 30
0.000000
  0
VERTEX
  8
MERGEDLAYER-1
 10
55.182583
 20
118.427599
 30
0.000000
  0
VERTEX
  8
MERGEDLAYER-1
 10
56.293701
 20
117.760946
 30
0.000000
  0
SEQEND
  8
MERGEDLAYER-1
  0
TEXT
  8
MERGEDLAYER-1
 62
  7
 10
52.862246
 20
118.983249
 30
0.000000
 40
1.000000
  1
 
  0
POLYLINE
  8
MERGEDLAYER-1
 66
  1
 70
  0
 62
  7
 10
52.973097
 20
130.881565
 30
0.000000
  0
VERTEX
  8
MERGEDLAYER-1
 10
52.973097
 20
130.881565
 30
0.000000
  0
VERTEX
  8
MERGEDLAYER-1
 10
53.216115
 20
130.730089
 30
0.000000
  0
SEQEND
  8
MERGEDLAYER-1
  0
POLYLINE
  8
MERGEDLAYER-1
 66
  1
 70
  0
 62
  7
 10
52.973097
 20
130.881565
 30
0.000000
  0
VERTEX
  8
MERGEDLAYER-1
 10
52.973097
 20
130.881565
 30
0.000000
  0
VERTEX
  8
MERGEDLAYER-1
 10
53.216115
 20
131.033095
 30
0.000000
  0
SEQEND
  8
MERGEDLAYER-1
  0
POLYLINE
  8
MERGEDLAYER-1
 66
  1
 70
  0
 62
  7
 10
54.548394
 20
131.150974
 30
0.000000
  0
VERTEX
  8
MERGEDLAYER-1
 10
54.548394
 20
131.150974
 30
0.000000
  0
VERTEX
  8
MERGEDLAYER-1
 10
54.305400
 20
130.999430
 30
0.000000
  0
SEQEND
  8
MERGEDLAYER-1
  0
POLYLINE
  8
MERGEDLAYER-1
 66
  1
 70
  0
 62
  7
 10
54.548394
 20
131.150974
 30
0.000000
  0
VERTEX
  8
MERGEDLAYER-1
 10
54.548394
 20
131.150974
 30
0.000000
  0
VERTEX
  8
MERGEDLAYER-1
 10
54.305400
 20
131.302450
 30
0.000000
  0
SEQEND
  8
MERGEDLAYER-1
  0
POLYLINE
  8
MERGEDLAYER-1
 66
  1
 70
  0
 62
  7
 10
52.973097
 20
130.881565
 30
0.000000
  0
VERTEX
  8
MERGEDLAYER-1
 10
52.973097
 20
130.881565
 30
0.000000
  0
VERTEX
  8
MERGEDLAYER-1
 10
54.548394
 20
131.150974
 30
0.000000
  0
SEQEND
  8
MERGEDLAYER-1
  0
POLYLINE
  8
MERGEDLAYER-1
 66
  1
 70
  0
 62
  7
 10
52.973097
 20
131.182183
 30
0.000000
  0
VERTEX
  8
MERGEDLAYER-1
 10
52.973097
 20
131.182183
 30
0.000000
  0
VERTEX
  8
MERGEDLAYER-1
 10
53.216115
 20
131.030653
 30
0.000000
  0
SEQEND
  8
MERGEDLAYER-1
  0
POLYLINE
  8
MERGEDLAYER-1
 66
  1
 70
  0
 62
  7
 10
52.973097
 20
131.182183
 30
0.000000
  0
VERTEX
  8
MERGEDLAYER-1
 10
52.973097
 20
131.182183
 30
0.000000
  0
VERTEX
  8
MERGEDLAYER-1
 10
53.216115
 20
131.333713
 30
0.000000
  0
SEQEND
  8
MERGEDLAYER-1
  0
POLYLINE
  8
MERGEDLAYER-1
 66
  1
 70
  0
 62
  7
 10
54.548394
 20
131.451552
 30
0.000000
  0
VERTEX
  8
MERGEDLAYER-1
 10
54.548394
 20
131.451552
 30
0.000000
  0
VERTEX
  8
MERGEDLAYER-1
 10
54.305400
 20
131.300008
 30
0.000000
  0
SEQEND
  8
MERGEDLAYER-1
  0
POLYLINE
  8
MERGEDLAYER-1
 66
  1
 70
  0
 62
  7
 10
53.216115
 20
131.030653
 30
0.000000
  0
VERTEX
  8
MERGEDLAYER-1
 10
53.216115
 20
131.030653
 30
0.000000
  0
VERTEX
  8
MERGEDLAYER-1
 10
54.305400
 20
131.300008
 30
0.000000
  0
SEQEND
  8
MERGEDLAYER-1
  0
POLYLINE
  8
MERGEDLAYER-1
 66
  1
 70
  0
 62
  7
 10
52.973097
 20
131.182183
 30
0.000000
  0
VERTEX
  8
MERGEDLAYER-1
 10
52.973097
 20
131.182183
 30
0.000000
  0
VERTEX
  8
MERGEDLAYER-1
 10
54.548394
 20
131.451552
 30
0.000000
  0
SEQEND
  8
MERGEDLAYER-1
  0
POLYLINE
  8
MERGEDLAYER-1
 66
  1
 70
  0
 62
  7
 10
53.044779
 20
131.449002
 30
0.000000
  0
VERTEX
  8
MERGEDLAYER-1
 10
53.044779
 20
131.449002
 30
0.000000
  0
VERTEX
  8
MERGEDLAYER-1
 10
53.216115
 20
131.331285
 30
0.000000
  0
SEQEND
  8
MERGEDLAYER-1
  0
POLYLINE
  8
MERGEDLAYER-1
 66
  1
 70
  0
 62
  7
 10
53.216115
 20
131.331285
 30
0.000000
  0
VERTEX
  8
MERGEDLAYER-1
 10
53.216115
 20
131.331285
 30
0.000000
  0
VERTEX
  8
MERGEDLAYER-1
 10
53.692993
 20
131.451294
 30
0.000000
  0
SEQEND
  8
MERGEDLAYER-1
  0
POLYLINE
  8
MERGEDLAYER-1
 66
  1
 70
  0
 62
  7
 10
54.305400
 20
130.999430
 30
0.000000
  0
VERTEX
  8
MERGEDLAYER-1
 10
54.305400
 20
130.999430
 30
0.000000
  0
VERTEX
  8
MERGEDLAYER-1
 10
54.305400
 20
130.730089
 30
0.000000
  0
SEQEND
  8
MERGEDLAYER-1
  0
POLYLINE
  8
MERGEDLAYER-1
 66
  1
 70
  0
 62
  7
 10
53.736627
 20
131.072456
 30
0.000000
  0
VERTEX
  8
MERGEDLAYER-1
 10
53.736627
 20
131.072456
 30
0.000000
  0
VERTEX
  8
MERGEDLAYER-1
 10
53.394314
 20
130.730089
 30
0.000000
  0
SEQEND
  8
MERGEDLAYER-1
  0
POLYLINE
  8
MERGEDLAYER-1
 66
  1
 70
  0
 62
  7
 10
53.736627
 20
131.072456
 30
0.000000
  0
VERTEX
  8
MERGEDLAYER-1
 10
53.736627
 20
131.072456
 30
0.000000
  0
VERTEX
  8
MERGEDLAYER-1
 10
54.078979
 20
130.730089
 30
0.000000
  0
SEQEND
  8
MERGEDLAYER-1
  0
POLYLINE
  8
MERGEDLAYER-1
 66
  1
 70
  0
 62
  7
 10
53.216115
 20
130.730089
 30
0.000000
  0
VERTEX
  8
MERGEDLAYER-1
 10
53.216115
 20
130.730089
 30
0.000000
  0
VERTEX
  8
MERGEDLAYER-1
 10
53.394314
 20
130.730089
 30
0.000000
  0
SEQEND
  8
MERGEDLAYER-1
  0
POLYLINE
  8
MERGEDLAYER-1
 66
  1
 70
  0
 62
  7
 10
54.078979
 20
130.730089
 30
0.000000
  0
VERTEX
  8
MERGEDLAYER-1
 10
54.078979
 20
130.730089
 30
0.000000
  0
VERTEX
  8
MERGEDLAYER-1
 10
54.305400
 20
130.730089
 30
0.000000
  0
SEQEND
  8
MERGEDLAYER-1
  0
POLYLINE
  8
MERGEDLAYER-1
 66
  1
 70
  0
 62
  7
 10
54.305400
 20
130.999430
 30
0.000000
  0
VERTEX
  8
MERGEDLAYER-1
 10
54.305400
 20
130.999430
 30
0.000000
  0
VERTEX
  8
MERGEDLAYER-1
 10
53.907057
 20
130.898627
 30
0.000000
  0
SEQEND
  8
MERGEDLAYER-1
  0
POLYLINE
  8
MERGEDLAYER-1
 66
  1
 70
  0
 62
  7
 10
53.216115
 20
130.730089
 30
0.000000
  0
VERTEX
  8
MERGEDLAYER-1
 10
53.216115
 20
130.730089
 30
0.000000
  0
VERTEX
  8
MERGEDLAYER-1
 10
53.446879
 20
130.783542
 30
0.000000
  0
SEQEND
  8
MERGEDLAYER-1
  0
POLYLINE
  8
MERGEDLAYER-1
 66
  1
 70
  0
 62
  7
 10
45.518612
 20
130.881565
 30
0.000000
  0
VERTEX
  8
MERGEDLAYER-1
 10
45.518612
 20
130.881565
 30
0.000000
  0
VERTEX
  8
MERGEDLAYER-1
 10
45.761607
 20
130.730089
 30
0.000000
  0
SEQEND
  8
MERGEDLAYER-1
  0
POLYLINE
  8
MERGEDLAYER-1
 66
  1
 70
  0
 62
  7
 10
45.518612
 20
130.881565
 30
0.000000
  0
VERTEX
  8
MERGEDLAYER-1
 10
45.518612
 20
130.881565
 30
0.000000
  0
VERTEX
  8
MERGEDLAYER-1
 10
45.761607
 20
131.033095
 30
0.000000
  0
SEQEND
  8
MERGEDLAYER-1
  0
POLYLINE
  8
MERGEDLAYER-1
 66
  1
 70
  0
 62
  7
 10
47.093909
 20
131.150974
 30
0.000000
  0
VERTEX
  8
MERGEDLAYER-1
 10
47.093909
 20
131.150974
 30
0.000000
  0
VERTEX
  8
MERGEDLAYER-1
 10
46.850891
 20
130.999430
 30
0.000000
  0
SEQEND
  8
MERGEDLAYER-1
  0
POLYLINE
  8
MERGEDLAYER-1
 66
  1
 70
  0
 62
  7
 10
47.093909
 20
131.150974
 30
0.000000
  0
VERTEX
  8
MERGEDLAYER-1
 10
47.093909
 20
131.150974
 30
0.000000
  0
VERTEX
  8
MERGEDLAYER-1
 10
46.850891
 20
131.302450
 30
0.000000
  0
SEQEND
  8
MERGEDLAYER-1
  0
POLYLINE
  8
MERGEDLAYER-1
 66
  1
 70
  0
 62
  7
 10
45.518612
 20
130.881565
 30
0.000000
  0
VERTEX
  8
MERGEDLAYER-1
 10
45.518612
 20
130.881565
 30
0.000000
  0
VERTEX
  8
MERGEDLAYER-1
 10
47.093909
 20
131.150974
 30
0.000000
  0
SEQEND
  8
MERGEDLAYER-1
  0
POLYLINE
  8
MERGEDLAYER-1
 66
  1
 70
  0
 62
  7
 10
45.518612
 20
131.182183
 30
0.000000
  0
VERTEX
  8
MERGEDLAYER-1
 10
45.518612
 20
131.182183
 30
0.000000
  0
VERTEX
  8
MERGEDLAYER-1
 10
45.761607
 20
131.030653
 30
0.000000
  0
SEQEND
  8
MERGEDLAYER-1
  0
POLYLINE
  8
MERGEDLAYER-1
 66
  1
 70
  0
 62
  7
 10
45.518612
 20
131.182183
 30
0.000000
  0
VERTEX
  8
MERGEDLAYER-1
 10
45.518612
 20
131.182183
 30
0.000000
  0
VERTEX
  8
MERGEDLAYER-1
 10
45.761607
 20
131.333713
 30
0.000000
  0
SEQEND
  8
MERGEDLAYER-1
  0
POLYLINE
  8
MERGEDLAYER-1
 66
  1
 70
  0
 62
  7
 10
47.093909
 20
131.451552
 30
0.000000
  0
VERTEX
  8
MERGEDLAYER-1
 10
47.093909
 20
131.451552
 30
0.000000
  0
VERTEX
  8
MERGEDLAYER-1
 10
46.850891
 20
131.300008
 30
0.000000
  0
SEQEND
  8
MERGEDLAYER-1
  0
POLYLINE
  8
MERGEDLAYER-1
 66
  1
 70
  0
 62
  7
 10
45.761607
 20
131.030653
 30
0.000000
  0
VERTEX
  8
MERGEDLAYER-1
 10
45.761607
 20
131.030653
 30
0.000000
  0
VERTEX
  8
MERGEDLAYER-1
 10
46.850891
 20
131.300008
 30
0.000000
  0
SEQEND
  8
MERGEDLAYER-1
  0
POLYLINE
  8
MERGEDLAYER-1
 66
  1
 70
  0
 62
  7
 10
45.518612
 20
131.182183
 30
0.000000
  0
VERTEX
  8
MERGEDLAYER-1
 10
45.518612
 20
131.182183
 30
0.000000
  0
VERTEX
  8
MERGEDLAYER-1
 10
47.093909
 20
131.451552
 30
0.000000
  0
SEQEND
  8
MERGEDLAYER-1
  0
POLYLINE
  8
MERGEDLAYER-1
 66
  1
 70
  0
 62
  7
 10
45.584530
 20
131.449002
 30
0.000000
  0
VERTEX
  8
MERGEDLAYER-1
 10
45.584530
 20
131.449002
 30
0.000000
  0
VERTEX
  8
MERGEDLAYER-1
 10
45.761607
 20
131.331285
 30
0.000000
  0
SEQEND
  8
MERGEDLAYER-1
  0
POLYLINE
  8
MERGEDLAYER-1
 66
  1
 70
  0
 62
  7
 10
45.761607
 20
131.331285
 30
0.000000
  0
VERTEX
  8
MERGEDLAYER-1
 10
45.761607
 20
131.331285
 30
0.000000
  0
VERTEX
  8
MERGEDLAYER-1
 10
46.233948
 20
131.451294
 30
0.000000
  0
SEQEND
  8
MERGEDLAYER-1
  0
POLYLINE
  8
MERGEDLAYER-1
 66
  1
 70
  0
 62
  7
 10
46.850891
 20
130.999430
 30
0.000000
  0
VERTEX
  8
MERGEDLAYER-1
 10
46.850891
 20
130.999430
 30
0.000000
  0
VERTEX
  8
MERGEDLAYER-1
 10
46.850891
 20
130.730089
 30
0.000000
  0
SEQEND
  8
MERGEDLAYER-1
  0
POLYLINE
  8
MERGEDLAYER-1
 66
  1
 70
  0
 62
  7
 10
46.282166
 20
131.072456
 30
0.000000
  0
VERTEX
  8
MERGEDLAYER-1
 10
46.282166
 20
131.072456
 30
0.000000
  0
VERTEX
  8
MERGEDLAYER-1
 10
45.939802
 20
130.730089
 30
0.000000
  0
SEQEND
  8
MERGEDLAYER-1
  0
POLYLINE
  8
MERGEDLAYER-1
 66
  1
 70
  0
 62
  7
 10
46.282166
 20
131.072456
 30
0.000000
  0
VERTEX
  8
MERGEDLAYER-1
 10
46.282166
 20
131.072456
 30
0.000000
  0
VERTEX
  8
MERGEDLAYER-1
 10
46.624525
 20
130.730089
 30
0.000000
  0
SEQEND
  8
MERGEDLAYER-1
  0
POLYLINE
  8
MERGEDLAYER-1
 66
  1
 70
  0
 62
  7
 10
45.761607
 20
130.730089
 30
0.000000
  0
VERTEX
  8
MERGEDLAYER-1
 10
45.761607
 20
130.730089
 30
0.000000
  0
VERTEX
  8
MERGEDLAYER-1
 10
45.939802
 20
130.730089
 30
0.000000
  0
SEQEND
  8
MERGEDLAYER-1
  0
POLYLINE
  8
MERGEDLAYER-1
 66
  1
 70
  0
 62
  7
 10
46.624525
 20
130.730089
 30
0.000000
  0
VERTEX
  8
MERGEDLAYER-1
 10
46.624525
 20
130.730089
 30
0.000000
  0
VERTEX
  8
MERGEDLAYER-1
 10
46.850891
 20
130.730089
 30
0.000000
  0
SEQEND
  8
MERGEDLAYER-1
  0
POLYLINE
  8
MERGEDLAYER-1
 66
  1
 70
  0
 62
  7
 10
46.850891
 20
130.999430
 30
0.000000
  0
VERTEX
  8
MERGEDLAYER-1
 10
46.850891
 20
130.999430
 30
0.000000
  0
VERTEX
  8
MERGEDLAYER-1
 10
46.452552
 20
130.898627
 30
0.000000
  0
SEQEND
  8
MERGEDLAYER-1
  0
POLYLINE
  8
MERGEDLAYER-1
 66
  1
 70
  0
 62
  7
 10
45.761607
 20
130.730089
 30
0.000000
  0
VERTEX
  8
MERGEDLAYER-1
 10
45.761607
 20
130.730089
 30
0.000000
  0
VERTEX
  8
MERGEDLAYER-1
 10
45.992415
 20
130.783542
 30
0.000000
  0
SEQEND
  8
MERGEDLAYER-1
  0
POLYLINE
  8
MERGEDLAYER-1
 66
  1
 70
  0
 62
  7
 10
56.293627
 20
151.280992
 30
0.000000
  0
VERTEX
  8
MERGEDLAYER-1
 10
56.293627
 20
151.280992
 30
0.000000
  0
VERTEX
  8
MERGEDLAYER-1
 10
56.148173
 20
151.426446
 30
0.000000
  0
SEQEND
  8
MERGEDLAYER-1
  0
POLYLINE
  8
MERGEDLAYER-1
 66
  1
 70
  0
 62
  7
 10
56.148173
 20
151.426473
 30
0.000000
  0
VERTEX
  8
MERGEDLAYER-1
 10
56.148173
 20
151.426473
 30
0.000000
  0
VERTEX
  8
MERGEDLAYER-1
 10
53.845215
 20
151.426473
 30
0.000000
  0
SEQEND
  8
MERGEDLAYER-1
  0
POLYLINE
  8
MERGEDLAYER-1
 66
  1
 70
  0
 62
  7
 10
53.845215
 20
151.426446
 30
0.000000
  0
VERTEX
  8
MERGEDLAYER-1
 10
53.845215
 20
151.426446
 30
0.000000
  0
VERTEX
  8
MERGEDLAYER-1
 10
53.699761
 20
151.280992
 30
0.000000
  0
SEQEND
  8
MERGEDLAYER-1
  0
POLYLINE
  8
MERGEDLAYER-1
 66
  1
 70
  0
 62
  7
 10
53.699829
 20
150.660387
 30
0.000000
  0
VERTEX
  8
MERGEDLAYER-1
 10
53.699829
 20
150.660387
 30
0.000000
  0
VERTEX
  8
MERGEDLAYER-1
 10
53.699829
 20
151.280992
 30
0.000000
  0
SEQEND
  8
MERGEDLAYER-1
  0
POLYLINE
  8
MERGEDLAYER-1
 66
  1
 70
  0
 62
  7
 10
53.699829
 20
150.660387
 30
0.000000
  0
VERTEX
  8
MERGEDLAYER-1
 10
53.699829
 20
150.660387
 30
0.000000
  0
VERTEX
  8
MERGEDLAYER-1
 10
52.788357
 20
150.660387
 30
0.000000
  0
SEQEND
  8
MERGEDLAYER-1
  0
POLYLINE
  8
MERGEDLAYER-1
 66
  1
 70
  0
 62
  7
 10
52.788357
 20
150.660400
 30
0.000000
  0
VERTEX
  8
MERGEDLAYER-1
 10
52.788357
 20
150.660400
 30
0.000000
  0
VERTEX
  8
MERGEDLAYER-1
 10
52.525798
 20
150.622369
 30
0.000000
  0
VERTEX
  8
MERGEDLAYER-1
 10
52.437754
 20
150.409804
 30
0.000000
  0
VERTEX
  8
MERGEDLAYER-1
 10
52.525798
 20
150.197238
 30
0.000000
  0
VERTEX
  8
MERGEDLAYER-1
 10
52.788357
 20
150.059191
 30
0.000000
  0
SEQEND
  8
MERGEDLAYER-1
  0
POLYLINE
  8
MERGEDLAYER-1
 66
  1
 70
  0
 62
  7
 10
54.019775
 20
150.059191
 30
0.000000
  0
VERTEX
  8
MERGEDLAYER-1
 10
54.019775
 20
150.059191
 30
0.000000
  0
VERTEX
  8
MERGEDLAYER-1
 10
52.788357
 20
150.059191
 30
0.000000
  0
SEQEND
  8
MERGEDLAYER-1
  0
POLYLINE
  8
MERGEDLAYER-1
 66
  1
 70
  0
 62
  7
 10
54.019775
 20
150.059218
 30
0.000000
  0
VERTEX
  8
MERGEDLAYER-1
 10
54.019775
 20
150.059218
 30
0.000000
  0
VERTEX
  8
MERGEDLAYER-1
 10
54.175476
 20
150.194417
 30
0.000000
  0
VERTEX
  8
MERGEDLAYER-1
 10
54.310683
 20
150.350125
 30
0.000000
  0
SEQEND
  8
MERGEDLAYER-1
  0
POLYLINE
  8
MERGEDLAYER-1
 66
  1
 70
  0
 62
  7
 10
54.310723
 20
150.524658
 30
0.000000
  0
VERTEX
  8
MERGEDLAYER-1
 10
54.310723
 20
150.524658
 30
0.000000
  0
VERTEX
  8
MERGEDLAYER-1
 10
54.310723
 20
150.350125
 30
0.000000
  0
SEQEND
  8
MERGEDLAYER-1
  0
POLYLINE
  8
MERGEDLAYER-1
 66
  1
 70
  0
 62
  7
 10
54.601562
 20
150.815565
 30
0.000000
  0
VERTEX
  8
MERGEDLAYER-1
 10
54.601562
 20
150.815565
 30
0.000000
  0
VERTEX
  8
MERGEDLAYER-1
 10
54.345866
 20
150.780368
 30
0.000000
  0
VERTEX
  8
MERGEDLAYER-1
 10
54.310662
 20
150.524658
 30
0.000000
  0
SEQEND
  8
MERGEDLAYER-1
  0
POLYLINE
  8
MERGEDLAYER-1
 66
  1
 70
  0
 62
  7
 10
55.323975
 20
150.815565
 30
0.000000
  0
VERTEX
  8
MERGEDLAYER-1
 10
55.323975
 20
150.815565
 30
0.000000
  0
VERTEX
  8
MERGEDLAYER-1
 10
54.601562
 20
150.815565
 30
0.000000
  0
SEQEND
  8
MERGEDLAYER-1
  0
POLYLINE
  8
MERGEDLAYER-1
 66
  1
 70
  0
 62
  7
 10
55.614882
 20
150.524658
 30
0.000000
  0
VERTEX
  8
MERGEDLAYER-1
 10
55.614882
 20
150.524658
 30
0.000000
  0
VERTEX
  8
MERGEDLAYER-1
 10
55.479675
 20
150.780368
 30
0.000000
  0
VERTEX
  8
MERGEDLAYER-1
 10
55.323975
 20
150.815565
 30
0.000000
  0
SEQEND
  8
MERGEDLAYER-1
  0
POLYLINE
  8
MERGEDLAYER-1
 66
  1
 70
  0
 62
  7
 10
55.614990
 20
150.524658
 30
0.000000
  0
VERTEX
  8
MERGEDLAYER-1
 10
55.614990
 20
150.524658
 30
0.000000
  0
VERTEX
  8
MERGEDLAYER-1
 10
55.614990
 20
131.586317
 30
0.000000
  0
SEQEND
  8
MERGEDLAYER-1
  0
POLYLINE
  8
MERGEDLAYER-1
 66
  1
 70
  0
 62
  7
 10
55.469482
 20
131.440864
 30
0.000000
  0
VERTEX
  8
MERGEDLAYER-1
 10
55.469482
 20
131.440864
 30
0.000000
  0
VERTEX
  8
MERGEDLAYER-1
 10
55.614936
 20
131.586317
 30
0.000000
  0
SEQEND
  8
MERGEDLAYER-1
  0
POLYLINE
  8
MERGEDLAYER-1
 66
  1
 70
  0
 62
  7
 10
55.469482
 20
131.440837
 30
0.000000
  0
VERTEX
  8
MERGEDLAYER-1
 10
55.469482
 20
131.440837
 30
0.000000
  0
VERTEX
  8
MERGEDLAYER-1
 10
52.390750
 20
131.440837
 30
0.000000
  0
SEQEND
  8
MERGEDLAYER-1
  0
POLYLINE
  8
MERGEDLAYER-1
 66
  1
 70
  0
 62
  7
 10
52.390750
 20
131.440837
 30
0.000000
  0
VERTEX
  8
MERGEDLAYER-1
 10
52.390750
 20
131.440837
 30
0.000000
  0
VERTEX
  8
MERGEDLAYER-1
 10
52.390750
 20
130.665093
 30
0.000000
  0
SEQEND
  8
MERGEDLAYER-1
  0
POLYLINE
  8
MERGEDLAYER-1
 66
  1
 70
  0
 62
  7
 10
55.469482
 20
130.665093
 30
0.000000
  0
VERTEX
  8
MERGEDLAYER-1
 10
55.469482
 20
130.665093
 30
0.000000
  0
VERTEX
  8
MERGEDLAYER-1
 10
52.390750
 20
130.665093
 30
0.000000
  0
SEQEND
  8
MERGEDLAYER-1
  0
POLYLINE
  8
MERGEDLAYER-1
 66
  1
 70
  0
 62
  7
 10
55.614936
 20
130.519667
 30
0.000000
  0
VERTEX
  8
MERGEDLAYER-1
 10
55.614936
 20
130.519667
 30
0.000000
  0
VERTEX
  8
MERGEDLAYER-1
 10
55.469482
 20
130.665120
 30
0.000000
  0
SEQEND
  8
MERGEDLAYER-1
  0
POLYLINE
  8
MERGEDLAYER-1
 66
  1
 70
  0
 62
  7
 10
55.614990
 20
130.519667
 30
0.000000
  0
VERTEX
  8
MERGEDLAYER-1
 10
55.614990
 20
130.519667
 30
0.000000
  0
VERTEX
  8
MERGEDLAYER-1
 10
55.614990
 20
128.871257
 30
0.000000
  0
SEQEND
  8
MERGEDLAYER-1
  0
POLYLINE
  8
MERGEDLAYER-1
 66
  1
 70
  0
 62
  7
 10
55.469482
 20
128.725803
 30
0.000000
  0
VERTEX
  8
MERGEDLAYER-1
 10
55.469482
 20
128.725803
 30
0.000000
  0
VERTEX
  8
MERGEDLAYER-1
 10
55.614936
 20
128.871257
 30
0.000000
  0
SEQEND
  8
MERGEDLAYER-1
  0
POLYLINE
  8
MERGEDLAYER-1
 66
  1
 70
  0
 62
  7
 10
44.657793
 20
128.725830
 30
0.000000
  0
VERTEX
  8
MERGEDLAYER-1
 10
44.657793
 20
128.725830
 30
0.000000
  0
VERTEX
  8
MERGEDLAYER-1
 10
55.469482
 20
128.725830
 30
0.000000
  0
SEQEND
  8
MERGEDLAYER-1
  0
POLYLINE
  8
MERGEDLAYER-1
 66
  1
 70
  0
 62
  7
 10
44.512343
 20
128.871257
 30
0.000000
  0
VERTEX
  8
MERGEDLAYER-1
 10
44.512343
 20
128.871257
 30
0.000000
  0
VERTEX
  8
MERGEDLAYER-1
 10
44.657793
 20
128.725803
 30
0.000000
  0
SEQEND
  8
MERGEDLAYER-1
  0
POLYLINE
  8
MERGEDLAYER-1
 66
  1
 70
  0
 62
  7
 10
44.512261
 20
130.519667
 30
0.000000
  0
VERTEX
  8
MERGEDLAYER-1
 10
44.512261
 20
130.519667
 30
0.000000
  0
VERTEX
  8
MERGEDLAYER-1
 10
44.512261
 20
128.871257
 30
0.000000
  0
SEQEND
  8
MERGEDLAYER-1
  0
POLYLINE
  8
MERGEDLAYER-1
 66
  1
 70
  0
 62
  7
 10
44.657793
 20
130.665120
 30
0.000000
  0
VERTEX
  8
MERGEDLAYER-1
 10
44.657793
 20
130.665120
 30
0.000000
  0
VERTEX
  8
MERGEDLAYER-1
 10
44.512343
 20
130.519667
 30
0.000000
  0
SEQEND
  8
MERGEDLAYER-1
  0
POLYLINE
  8
MERGEDLAYER-1
 66
  1
 70
  0
 62
  7
 10
44.657793
 20
130.665093
 30
0.000000
  0
VERTEX
  8
MERGEDLAYER-1
 10
44.657793
 20
130.665093
 30
0.000000
  0
VERTEX
  8
MERGEDLAYER-1
 10
47.736464
 20
130.665093
 30
0.000000
  0
SEQEND
  8
MERGEDLAYER-1
  0
POLYLINE
  8
MERGEDLAYER-1
 66
  1
 70
  0
 62
  7
 10
47.736464
 20
131.440837
 30
0.000000
  0
VERTEX
  8
MERGEDLAYER-1
 10
47.736464
 20
131.440837
 30
0.000000
  0
VERTEX
  8
MERGEDLAYER-1
 10
47.736464
 20
130.665093
 30
0.000000
  0
SEQEND
  8
MERGEDLAYER-1
  0
POLYLINE
  8
MERGEDLAYER-1
 66
  1
 70
  0
 62
  7
 10
44.657793
 20
131.440837
 30
0.000000
  0
VERTEX
  8
MERGEDLAYER-1
 10
44.657793
 20
131.440837
 30
0.000000
  0
VERTEX
  8
MERGEDLAYER-1
 10
47.736464
 20
131.440837
 30
0.000000
  0
SEQEND
  8
MERGEDLAYER-1
  0
POLYLINE
  8
MERGEDLAYER-1
 66
  1
 70
  0
 62
  7
 10
44.512343
 20
131.586317
 30
0.000000
  0
VERTEX
  8
MERGEDLAYER-1
 10
44.512343
 20
131.586317
 30
0.000000
  0
VERTEX
  8
MERGEDLAYER-1
 10
44.657793
 20
131.440864
 30
0.000000
  0
SEQEND
  8
MERGEDLAYER-1
  0
POLYLINE
  8
MERGEDLAYER-1
 66
  1
 70
  0
 62
  7
 10
44.512261
 20
150.524658
 30
0.000000
  0
VERTEX
  8
MERGEDLAYER-1
 10
44.512261
 20
150.524658
 30
0.000000
  0
VERTEX
  8
MERGEDLAYER-1
 10
44.512261
 20
131.586317
 30
0.000000
  0
SEQEND
  8
MERGEDLAYER-1
  0
POLYLINE
  8
MERGEDLAYER-1
 66
  1
 70
  0
 62
  7
 10
44.803131
 20
150.815565
 30
0.000000
  0
VERTEX
  8
MERGEDLAYER-1
 10
44.803131
 20
150.815565
 30
0.000000
  0
VERTEX
  8
MERGEDLAYER-1
 10
44.547428
 20
150.780368
 30
0.000000
  0
VERTEX
  8
MERGEDLAYER-1
 10
44.512224
 20
150.524658
 30
0.000000
  0
SEQEND
  8
MERGEDLAYER-1
  0
POLYLINE
  8
MERGEDLAYER-1
 66
  1
 70
  0
 62
  7
 10
44.803131
 20
150.815565
 30
0.000000
  0
VERTEX
  8
MERGEDLAYER-1
 10
44.803131
 20
150.815565
 30
0.000000
  0
VERTEX
  8
MERGEDLAYER-1
 10
45.525645
 20
150.815565
 30
0.000000
  0
SEQEND
  8
MERGEDLAYER-1
  0
POLYLINE
  8
MERGEDLAYER-1
 66
  1
 70
  0
 62
  7
 10
45.816549
 20
150.524658
 30
0.000000
  0
VERTEX
  8
MERGEDLAYER-1
 10
45.816549
 20
150.524658
 30
0.000000
  0
VERTEX
  8
MERGEDLAYER-1
 10
45.681346
 20
150.780368
 30
0.000000
  0
VERTEX
  8
MERGEDLAYER-1
 10
45.525645
 20
150.815565
 30
0.000000
  0
SEQEND
  8
MERGEDLAYER-1
  0
POLYLINE
  8
MERGEDLAYER-1
 66
  1
 70
  0
 62
  7
 10
45.816562
 20
150.524658
 30
0.000000
  0
VERTEX
  8
MERGEDLAYER-1
 10
45.816562
 20
150.524658
 30
0.000000
  0
VERTEX
  8
MERGEDLAYER-1
 10
45.816562
 20
150.350125
 30
0.000000
  0
SEQEND
  8
MERGEDLAYER-1
  0
POLYLINE
  8
MERGEDLAYER-1
 66
  1
 70
  0
 62
  7
 10
45.816477
 20
150.350125
 30
0.000000
  0
VERTEX
  8
MERGEDLAYER-1
 10
45.816477
 20
150.350125
 30
0.000000
  0
VERTEX
  8
MERGEDLAYER-1
 10
45.851681
 20
150.194417
 30
0.000000
  0
VERTEX
  8
MERGEDLAYER-1
 10
46.107381
 20
150.059218
 30
0.000000
  0
SEQEND
  8
MERGEDLAYER-1
  0
POLYLINE
  8
MERGEDLAYER-1
 66
  1
 70
  0
 62
  7
 10
46.107381
 20
150.059191
 30
0.000000
  0
VERTEX
  8
MERGEDLAYER-1
 10
46.107381
 20
150.059191
 30
0.000000
  0
VERTEX
  8
MERGEDLAYER-1
 10
47.338928
 20
150.059191
 30
0.000000
  0
SEQEND
  8
MERGEDLAYER-1
  0
POLYLINE
  8
MERGEDLAYER-1
 66
  1
 70
  0
 62
  7
 10
47.338928
 20
150.059191
 30
0.000000
  0
VERTEX
  8
MERGEDLAYER-1
 10
47.338928
 20
150.059191
 30
0.000000
  0
VERTEX
  8
MERGEDLAYER-1
 10
47.501485
 20
150.197238
 30
0.000000
  0
VERTEX
  8
MERGEDLAYER-1
 10
47.589532
 20
150.409804
 30
0.000000
  0
VERTEX
  8
MERGEDLAYER-1
 10
47.501485
 20
150.622369
 30
0.000000
  0
VERTEX
  8
MERGEDLAYER-1
 10
47.338928
 20
150.660400
 30
0.000000
  0
SEQEND
  8
MERGEDLAYER-1
  0
POLYLINE
  8
MERGEDLAYER-1
 66
  1
 70
  0
 62
  7
 10
46.427405
 20
150.660387
 30
0.000000
  0
VERTEX
  8
MERGEDLAYER-1
 10
46.427405
 20
150.660387
 30
0.000000
  0
VERTEX
  8
MERGEDLAYER-1
 10
47.338928
 20
150.660387
 30
0.000000
  0
SEQEND
  8
MERGEDLAYER-1
  0
POLYLINE
  8
MERGEDLAYER-1
 66
  1
 70
  0
 62
  7
 10
46.427405
 20
150.660387
 30
0.000000
  0
VERTEX
  8
MERGEDLAYER-1
 10
46.427405
 20
150.660387
 30
0.000000
  0
VERTEX
  8
MERGEDLAYER-1
 10
46.427405
 20
151.280992
 30
0.000000
  0
SEQEND
  8
MERGEDLAYER-1
  0
POLYLINE
  8
MERGEDLAYER-1
 66
  1
 70
  0
 62
  7
 10
46.427446
 20
151.280992
 30
0.000000
  0
VERTEX
  8
MERGEDLAYER-1
 10
46.427446
 20
151.280992
 30
0.000000
  0
VERTEX
  8
MERGEDLAYER-1
 10
46.281996
 20
151.426446
 30
0.000000
  0
SEQEND
  8
MERGEDLAYER-1
  0
POLYLINE
  8
MERGEDLAYER-1
 66
  1
 70
  0
 62
  7
 10
43.978865
 20
151.426473
 30
0.000000
  0
VERTEX
  8
MERGEDLAYER-1
 10
43.978865
 20
151.426473
 30
0.000000
  0
VERTEX
  8
MERGEDLAYER-1
 10
46.281996
 20
151.426473
 30
0.000000
  0
SEQEND
  8
MERGEDLAYER-1
  0
POLYLINE
  8
MERGEDLAYER-1
 66
  1
 70
  0
 62
  7
 10
43.978865
 20
151.426446
 30
0.000000
  0
VERTEX
  8
MERGEDLAYER-1
 10
43.978865
 20
151.426446
 30
0.000000
  0
VERTEX
  8
MERGEDLAYER-1
 10
43.833411
 20
151.280992
 30
0.000000
  0
SEQEND
  8
MERGEDLAYER-1
  0
POLYLINE
  8
MERGEDLAYER-1
 66
  1
 70
  0
 62
  7
 10
43.833527
 20
151.280992
 30
0.000000
  0
VERTEX
  8
MERGEDLAYER-1
 10
43.833527
 20
151.280992
 30
0.000000
  0
VERTEX
  8
MERGEDLAYER-1
 10
43.833527
 20
123.644586
 30
0.000000
  0
SEQEND
  8
MERGEDLAYER-1
  0
POLYLINE
  8
MERGEDLAYER-1
 66
  1
 70
  0
 62
  7
 10
43.833411
 20
123.644586
 30
0.000000
  0
VERTEX
  8
MERGEDLAYER-1
 10
43.833411
 20
123.644586
 30
0.000000
  0
VERTEX
  8
MERGEDLAYER-1
 10
43.978865
 20
123.499132
 30
0.000000
  0
SEQEND
  8
MERGEDLAYER-1
  0
POLYLINE
  8
MERGEDLAYER-1
 66
  1
 70
  0
 62
  7
 10
43.978865
 20
123.499091
 30
0.000000
  0
VERTEX
  8
MERGEDLAYER-1
 10
43.978865
 20
123.499091
 30
0.000000
  0
VERTEX
  8
MERGEDLAYER-1
 10
46.281996
 20
123.499091
 30
0.000000
  0
SEQEND
  8
MERGEDLAYER-1
  0
POLYLINE
  8
MERGEDLAYER-1
 66
  1
 70
  0
 62
  7
 10
46.281996
 20
123.499132
 30
0.000000
  0
VERTEX
  8
MERGEDLAYER-1
 10
46.281996
 20
123.499132
 30
0.000000
  0
VERTEX
  8
MERGEDLAYER-1
 10
46.427446
 20
123.644586
 30
0.000000
  0
SEQEND
  8
MERGEDLAYER-1
  0
POLYLINE
  8
MERGEDLAYER-1
 66
  1
 70
  0
 62
  7
 10
46.427405
 20
124.265191
 30
0.000000
  0
VERTEX
  8
MERGEDLAYER-1
 10
46.427405
 20
124.265191
 30
0.000000
  0
VERTEX
  8
MERGEDLAYER-1
 10
46.427405
 20
123.644586
 30
0.000000
  0
SEQEND
  8
MERGEDLAYER-1
  0
POLYLINE
  8
MERGEDLAYER-1
 66
  1
 70
  0
 62
  7
 10
46.427405
 20
124.265191
 30
0.000000
  0
VERTEX
  8
MERGEDLAYER-1
 10
46.427405
 20
124.265191
 30
0.000000
  0
VERTEX
  8
MERGEDLAYER-1
 10
47.338928
 20
124.265191
 30
0.000000
  0
SEQEND
  8
MERGEDLAYER-1
  0
POLYLINE
  8
MERGEDLAYER-1
 66
  1
 70
  0
 62
  7
 10
47.338928
 20
124.265191
 30
0.000000
  0
VERTEX
  8
MERGEDLAYER-1
 10
47.338928
 20
124.265191
 30
0.000000
  0
VERTEX
  8
MERGEDLAYER-1
 10
47.501485
 20
124.403239
 30
0.000000
  0
VERTEX
  8
MERGEDLAYER-1
 10
47.589532
 20
124.615790
 30
0.000000
  0
VERTEX
  8
MERGEDLAYER-1
 10
47.501485
 20
124.828356
 30
0.000000
  0
VERTEX
  8
MERGEDLAYER-1
 10
47.338928
 20
124.866401
 30
0.000000
  0
SEQEND
  8
MERGEDLAYER-1
  0
POLYLINE
  8
MERGEDLAYER-1
 66
  1
 70
  0
 62
  7
 10
46.107381
 20
124.866374
 30
0.000000
  0
VERTEX
  8
MERGEDLAYER-1
 10
46.107381
 20
124.866374
 30
0.000000
  0
VERTEX
  8
MERGEDLAYER-1
 10
47.338928
 20
124.866374
 30
0.000000
  0
SEQEND
  8
MERGEDLAYER-1
  0
POLYLINE
  8
MERGEDLAYER-1
 66
  1
 70
  0
 62
  7
 10
46.107381
 20
124.866374
 30
0.000000
  0
VERTEX
  8
MERGEDLAYER-1
 10
46.107381
 20
124.866374
 30
0.000000
  0
VERTEX
  8
MERGEDLAYER-1
 10
45.851681
 20
124.831177
 30
0.000000
  0
VERTEX
  8
MERGEDLAYER-1
 10
45.816477
 20
124.575467
 30
0.000000
  0
SEQEND
  8
MERGEDLAYER-1
  0
POLYLINE
  8
MERGEDLAYER-1
 66
  1
 70
  0
 62
  7
 10
45.816562
 20
124.400960
 30
0.000000
  0
VERTEX
  8
MERGEDLAYER-1
 10
45.816562
 20
124.400960
 30
0.000000
  0
VERTEX
  8
MERGEDLAYER-1
 10
45.816562
 20
124.575467
 30
0.000000
  0
SEQEND
  8
MERGEDLAYER-1
  0
POLYLINE
  8
MERGEDLAYER-1
 66
  1
 70
  0
 62
  7
 10
45.525645
 20
124.110053
 30
0.000000
  0
VERTEX
  8
MERGEDLAYER-1
 10
45.525645
 20
124.110053
 30
0.000000
  0
VERTEX
  8
MERGEDLAYER-1
 10
45.681346
 20
124.245253
 30
0.000000
  0
VERTEX
  8
MERGEDLAYER-1
 10
45.816549
 20
124.400960
 30
0.000000
  0
SEQEND
  8
MERGEDLAYER-1
  0
POLYLINE
  8
MERGEDLAYER-1
 66
  1
 70
  0
 62
  7
 10
44.803131
 20
124.110053
 30
0.000000
  0
VERTEX
  8
MERGEDLAYER-1
 10
44.803131
 20
124.110053
 30
0.000000
  0
VERTEX
  8
MERGEDLAYER-1
 10
45.525645
 20
124.110053
 30
0.000000
  0
SEQEND
  8
MERGEDLAYER-1
  0
POLYLINE
  8
MERGEDLAYER-1
 66
  1
 70
  0
 62
  7
 10
44.512224
 20
124.400960
 30
0.000000
  0
VERTEX
  8
MERGEDLAYER-1
 10
44.512224
 20
124.400960
 30
0.000000
  0
VERTEX
  8
MERGEDLAYER-1
 10
44.547428
 20
124.245253
 30
0.000000
  0
VERTEX
  8
MERGEDLAYER-1
 10
44.803131
 20
124.110053
 30
0.000000
  0
SEQEND
  8
MERGEDLAYER-1
  0
POLYLINE
  8
MERGEDLAYER-1
 66
  1
 70
  0
 62
  7
 10
44.512261
 20
124.400960
 30
0.000000
  0
VERTEX
  8
MERGEDLAYER-1
 10
44.512261
 20
124.400960
 30
0.000000
  0
VERTEX
  8
MERGEDLAYER-1
 10
44.512261
 20
127.513699
 30
0.000000
  0
SEQEND
  8
MERGEDLAYER-1
  0
POLYLINE
  8
MERGEDLAYER-1
 66
  1
 70
  0
 62
  7
 10
44.657793
 20
127.659153
 30
0.000000
  0
VERTEX
  8
MERGEDLAYER-1
 10
44.657793
 20
127.659153
 30
0.000000
  0
VERTEX
  8
MERGEDLAYER-1
 10
44.512343
 20
127.513699
 30
0.000000
  0
SEQEND
  8
MERGEDLAYER-1
  0
POLYLINE
  8
MERGEDLAYER-1
 66
  1
 70
  0
 62
  7
 10
44.657793
 20
127.659125
 30
0.000000
  0
VERTEX
  8
MERGEDLAYER-1
 10
44.657793
 20
127.659125
 30
0.000000
  0
VERTEX
  8
MERGEDLAYER-1
 10
49.760624
 20
127.659125
 30
0.000000
  0
SEQEND
  8
MERGEDLAYER-1
  0
POLYLINE
  8
MERGEDLAYER-1
 66
  1
 70
  0
 62
  7
 10
50.063504
 20
127.962158
 30
0.000000
  0
VERTEX
  8
MERGEDLAYER-1
 10
50.063504
 20
127.962158
 30
0.000000
  0
VERTEX
  8
MERGEDLAYER-1
 10
49.760624
 20
127.659125
 30
0.000000
  0
SEQEND
  8
MERGEDLAYER-1
  0
POLYLINE
  8
MERGEDLAYER-1
 66
  1
 70
  0
 62
  7
 10
50.063504
 20
127.962158
 30
0.000000
  0
VERTEX
  8
MERGEDLAYER-1
 10
50.063504
 20
127.962158
 30
0.000000
  0
VERTEX
  8
MERGEDLAYER-1
 10
50.366581
 20
127.659125
 30
0.000000
  0
SEQEND
  8
MERGEDLAYER-1
  0
POLYLINE
  8
MERGEDLAYER-1
 66
  1
 70
  0
 62
  7
 10
55.469482
 20
127.659125
 30
0.000000
  0
VERTEX
  8
MERGEDLAYER-1
 10
55.469482
 20
127.659125
 30
0.000000
  0
VERTEX
  8
MERGEDLAYER-1
 10
50.366581
 20
127.659125
 30
0.000000
  0
SEQEND
  8
MERGEDLAYER-1
  0
POLYLINE
  8
MERGEDLAYER-1
 66
  1
 70
  0
 62
  7
 10
55.614936
 20
127.513699
 30
0.000000
  0
VERTEX
  8
MERGEDLAYER-1
 10
55.614936
 20
127.513699
 30
0.000000
  0
VERTEX
  8
MERGEDLAYER-1
 10
55.469482
 20
127.659153
 30
0.000000
  0
SEQEND
  8
MERGEDLAYER-1
  0
POLYLINE
  8
MERGEDLAYER-1
 66
  1
 70
  0
 62
  7
 10
55.614990
 20
124.400960
 30
0.000000
  0
VERTEX
  8
MERGEDLAYER-1
 10
55.614990
 20
124.400960
 30
0.000000
  0
VERTEX
  8
MERGEDLAYER-1
 10
55.614990
 20
127.513699
 30
0.000000
  0
SEQEND
  8
MERGEDLAYER-1
  0
POLYLINE
  8
MERGEDLAYER-1
 66
  1
 70
  0
 62
  7
 10
55.323975
 20
124.110053
 30
0.000000
  0
VERTEX
  8
MERGEDLAYER-1
 10
55.323975
 20
124.110053
 30
0.000000
  0
VERTEX
  8
MERGEDLAYER-1
 10
55.479675
 20
124.245253
 30
0.000000
  0
VERTEX
  8
MERGEDLAYER-1
 10
55.614882
 20
124.400960
 30
0.000000
  0
SEQEND
  8
MERGEDLAYER-1
  0
POLYLINE
  8
MERGEDLAYER-1
 66
  1
 70
  0
 62
  7
 10
55.323975
 20
124.110053
 30
0.000000
  0
VERTEX
  8
MERGEDLAYER-1
 10
55.323975
 20
124.110053
 30
0.000000
  0
VERTEX
  8
MERGEDLAYER-1
 10
54.601562
 20
124.110053
 30
0.000000
  0
SEQEND
  8
MERGEDLAYER-1
  0
POLYLINE
  8
MERGEDLAYER-1
 66
  1
 70
  0
 62
  7
 10
54.310662
 20
124.400960
 30
0.000000
  0
VERTEX
  8
MERGEDLAYER-1
 10
54.310662
 20
124.400960
 30
0.000000
  0
VERTEX
  8
MERGEDLAYER-1
 10
54.345866
 20
124.245253
 30
0.000000
  0
VERTEX
  8
MERGEDLAYER-1
 10
54.601562
 20
124.110053
 30
0.000000
  0
SEQEND
  8
MERGEDLAYER-1
  0
POLYLINE
  8
MERGEDLAYER-1
 66
  1
 70
  0
 62
  7
 10
54.310723
 20
124.400960
 30
0.000000
  0
VERTEX
  8
MERGEDLAYER-1
 10
54.310723
 20
124.400960
 30
0.000000
  0
VERTEX
  8
MERGEDLAYER-1
 10
54.310723
 20
124.575467
 30
0.000000
  0
SEQEND
  8
MERGEDLAYER-1
  0
POLYLINE
  8
MERGEDLAYER-1
 66
  1
 70
  0
 62
  7
 10
54.310683
 20
124.575467
 30
0.000000
  0
VERTEX
  8
MERGEDLAYER-1
 10
54.310683
 20
124.575467
 30
0.000000
  0
VERTEX
  8
MERGEDLAYER-1
 10
54.175476
 20
124.831177
 30
0.000000
  0
VERTEX
  8
MERGEDLAYER-1
 10
54.019775
 20
124.866374
 30
0.000000
  0
SEQEND
  8
MERGEDLAYER-1
  0
POLYLINE
  8
MERGEDLAYER-1
 66
  1
 70
  0
 62
  7
 10
54.019775
 20
124.866374
 30
0.000000
  0
VERTEX
  8
MERGEDLAYER-1
 10
54.019775
 20
124.866374
 30
0.000000
  0
VERTEX
  8
MERGEDLAYER-1
 10
52.788357
 20
124.866374
 30
0.000000
  0
SEQEND
  8
MERGEDLAYER-1
  0
POLYLINE
  8
MERGEDLAYER-1
 66
  1
 70
  0
 62
  7
 10
52.788357
 20
124.866401
 30
0.000000
  0
VERTEX
  8
MERGEDLAYER-1
 10
52.788357
 20
124.866401
 30
0.000000
  0
VERTEX
  8
MERGEDLAYER-1
 10
52.525798
 20
124.828356
 30
0.000000
  0
VERTEX
  8
MERGEDLAYER-1
 10
52.437754
 20
124.615790
 30
0.000000
  0
VERTEX
  8
MERGEDLAYER-1
 10
52.525798
 20
124.403239
 30
0.000000
  0
VERTEX
  8
MERGEDLAYER-1
 10
52.788357
 20
124.265191
 30
0.000000
  0
SEQEND
  8
MERGEDLAYER-1
  0
POLYLINE
  8
MERGEDLAYER-1
 66
  1
 70
  0
 62
  7
 10
53.699829
 20
124.265191
 30
0.000000
  0
VERTEX
  8
MERGEDLAYER-1
 10
53.699829
 20
124.265191
 30
0.000000
  0
VERTEX
  8
MERGEDLAYER-1
 10
52.788357
 20
124.265191
 30
0.000000
  0
SEQEND
  8
MERGEDLAYER-1
  0
POLYLINE
  8
MERGEDLAYER-1
 66
  1
 70
  0
 62
  7
 10
53.699829
 20
124.265191
 30
0.000000
  0
VERTEX
  8
MERGEDLAYER-1
 10
53.699829
 20
124.265191
 30
0.000000
  0
VERTEX
  8
MERGEDLAYER-1
 10
53.699829
 20
123.644586
 30
0.000000
  0
SEQEND
  8
MERGEDLAYER-1
  0
POLYLINE
  8
MERGEDLAYER-1
 66
  1
 70
  0
 62
  7
 10
53.699761
 20
123.644586
 30
0.000000
  0
VERTEX
  8
MERGEDLAYER-1
 10
53.699761
 20
123.644586
 30
0.000000
  0
VERTEX
  8
MERGEDLAYER-1
 10
53.845215
 20
123.499132
 30
0.000000
  0
SEQEND
  8
MERGEDLAYER-1
  0
POLYLINE
  8
MERGEDLAYER-1
 66
  1
 70
  0
 62
  7
 10
56.148173
 20
123.499091
 30
0.000000
  0
VERTEX
  8
MERGEDLAYER-1
 10
56.148173
 20
123.499091
 30
0.000000
  0
VERTEX
  8
MERGEDLAYER-1
 10
53.845215
 20
123.499091
 30
0.000000
  0
SEQEND
  8
MERGEDLAYER-1
  0
POLYLINE
  8
MERGEDLAYER-1
 66
  1
 70
  0
 62
  7
 10
56.148173
 20
123.499132
 30
0.000000
  0
VERTEX
  8
MERGEDLAYER-1
 10
56.148173
 20
123.499132
 30
0.000000
  0
VERTEX
  8
MERGEDLAYER-1
 10
56.293627
 20
123.644586
 30
0.000000
  0
SEQEND
  8
MERGEDLAYER-1
  0
POLYLINE
  8
MERGEDLAYER-1
 66
  1
 70
  0
 62
  7
 10
56.293701
 20
123.644586
 30
0.000000
  0
VERTEX
  8
MERGEDLAYER-1
 10
56.293701
 20
123.644586
 30
0.000000
  0
VERTEX
  8
MERGEDLAYER-1
 10
56.294047
 20
151.280992
 30
0.000000
  0
SEQEND
  8
MERGEDLAYER-1
  0
POLYLINE
  8
MERGEDLAYER-1
 66
  1
 70
  0
 62
  7
 10
50.896878
 20
127.678562
 30
0.000000
  0
VERTEX
  8
MERGEDLAYER-1
 10
50.896878
 20
127.678562
 30
0.000000
  0
VERTEX
  8
MERGEDLAYER-1
 10
50.896878
 20
128.739149
 30
0.000000
  0
SEQEND
  8
MERGEDLAYER-1
  0
POLYLINE
  8
MERGEDLAYER-1
 66
  1
 70
  0
 62
  7
 10
49.228017
 20
127.678562
 30
0.000000
  0
VERTEX
  8
MERGEDLAYER-1
 10
49.228017
 20
127.678562
 30
0.000000
  0
VERTEX
  8
MERGEDLAYER-1
 10
49.228017
 20
128.739149
 30
0.000000
  0
SEQEND
  8
MERGEDLAYER-1
  0
POLYLINE
  8
MERGEDLAYER-1
  6
LTYPE01
 66
  1
 70
  0
 62
  7
  6
LTYPE01
 10
54.914503
 20
127.518053
 30
0.000000
  0
VERTEX
  8
MERGEDLAYER-1
  6
LTYPE01
 10
54.914503
 20
127.518053
 30
0.000000
  0
VERTEX
  8
MERGEDLAYER-1
  6
LTYPE01
 10
45.217587
 20
127.518053
 30
0.000000
  0
SEQEND
  8
MERGEDLAYER-1
  0
POLYLINE
  8
MERGEDLAYER-1
  6
LTYPE01
 66
  1
 70
  0
 62
  7
  6
LTYPE01
 10
54.914503
 20
128.730170
 30
0.000000
  0
VERTEX
  8
MERGEDLAYER-1
  6
LTYPE01
 10
54.914503
 20
128.730170
 30
0.000000
  0
VERTEX
  8
MERGEDLAYER-1
  6
LTYPE01
 10
45.217587
 20
128.730170
 30
0.000000
  0
SEQEND
  8
MERGEDLAYER-1
  0
POLYLINE
  8
MERGEDLAYER-1
 66
  1
 70
  1
 62
  7
 10
52.499807
 20
130.505073
 30
0.000000
  0
VERTEX
  8
MERGEDLAYER-1
 10
52.499807
 20
130.505073
 30
0.000000
  0
VERTEX
  8
MERGEDLAYER-1
 10
52.499807
 20
131.717204
 30
0.000000
  0
VERTEX
  8
MERGEDLAYER-1
 10
54.914503
 20
131.717204
 30
0.000000
  0
VERTEX
  8
MERGEDLAYER-1
 10
54.914503
 20
149.289578
 30
0.000000
  0
VERTEX
  8
MERGEDLAYER-1
 10
45.217587
 20
149.289578
 30
0.000000
  0
VERTEX
  8
MERGEDLAYER-1
 10
45.217587
 20
131.717204
 30
0.000000
  0
VERTEX
  8
MERGEDLAYER-1
 10
47.632094
 20
131.717204
 30
0.000000
  0
VERTEX
  8
MERGEDLAYER-1
 10
47.632094
 20
130.505073
 30
0.000000
  0
VERTEX
  8
MERGEDLAYER-1
 10
45.217587
 20
130.505073
 30
0.000000
  0
VERTEX
  8
MERGEDLAYER-1
 10
45.217587
 20
125.699870
 30
0.000000
  0
VERTEX
  8
MERGEDLAYER-1
 10
54.914503
 20
125.699870
 30
0.000000
  0
VERTEX
  8
MERGEDLAYER-1
 10
54.914503
 20
130.505073
 30
0.000000
  0
SEQEND
  8
MERGEDLAYER-1
  0
CIRCLE
  8
MERGEDLAYER-1
 62
  7
 10
50.066067
 20
139.962294
 30
0.000000
 40
1.742411
  0
CIRCLE
  8
MERGEDLAYER-1
 62
  7
 10
50.093119
 20
139.931288
 30
0.000000
 40
1.147584
  0
POLYLINE
  8
MERGEDLAYER-1
 66
  1
 70
  0
 62
  7
 10
52.423442
 20
125.041043
 30
0.000000
  0
VERTEX
  8
MERGEDLAYER-1
 10
52.423442
 20
125.041043
 30
0.000000
  0
VERTEX
  8
MERGEDLAYER-1
 10
52.201375
 20
125.019775
 30
0.000000
  0
VERTEX
  8
MERGEDLAYER-1
 10
52.180105
 20
124.797702
 30
0.000000
  0
SEQEND
  8
MERGEDLAYER-1
  0
POLYLINE
  8
MERGEDLAYER-1
 66
  1
 70
  0
 62
  7
 10
52.423442
 20
125.041043
 30
0.000000
  0
VERTEX
  8
MERGEDLAYER-1
 10
52.423442
 20
125.041043
 30
0.000000
  0
VERTEX
  8
MERGEDLAYER-1
 10
52.687870
 20
125.041043
 30
0.000000
  0
SEQEND
  8
MERGEDLAYER-1
  0
POLYLINE
  8
MERGEDLAYER-1
 66
  1
 70
  0
 62
  7
 10
52.687870
 20
125.041070
 30
0.000000
  0
VERTEX
  8
MERGEDLAYER-1
 10
52.687870
 20
125.041070
 30
0.000000
  0
VERTEX
  8
MERGEDLAYER-1
 10
52.872806
 20
125.226020
 30
0.000000
  0
SEQEND
  8
MERGEDLAYER-1
  0
POLYLINE
  8
MERGEDLAYER-1
 66
  1
 70
  0
 62
  7
 10
52.872904
 20
125.224799
 30
0.000000
  0
VERTEX
  8
MERGEDLAYER-1
 10
52.872904
 20
125.224799
 30
0.000000
  0
VERTEX
  8
MERGEDLAYER-1
 10
52.872904
 20
125.226020
 30
0.000000
  0
SEQEND
  8
MERGEDLAYER-1
  0
POLYLINE
  8
MERGEDLAYER-1
 66
  1
 70
  0
 62
  7
 10
52.872806
 20
125.224799
 30
0.000000
  0
VERTEX
  8
MERGEDLAYER-1
 10
52.872806
 20
125.224799
 30
0.000000
  0
VERTEX
  8
MERGEDLAYER-1
 10
52.687870
 20
125.409722
 30
0.000000
  0
SEQEND
  8
MERGEDLAYER-1
  0
POLYLINE
  8
MERGEDLAYER-1
 66
  1
 70
  0
 62
  7
 10
52.687870
 20
125.409804
 30
0.000000
  0
VERTEX
  8
MERGEDLAYER-1
 10
52.687870
 20
125.409804
 30
0.000000
  0
VERTEX
  8
MERGEDLAYER-1
 10
52.130107
 20
125.409804
 30
0.000000
  0
SEQEND
  8
MERGEDLAYER-1
  0
POLYLINE
  8
MERGEDLAYER-1
 66
  1
 70
  0
 62
  7
 10
52.130107
 20
125.409790
 30
0.000000
  0
VERTEX
  8
MERGEDLAYER-1
 10
52.130107
 20
125.409790
 30
0.000000
  0
VERTEX
  8
MERGEDLAYER-1
 10
51.757487
 20
125.326158
 30
0.000000
  0
VERTEX
  8
MERGEDLAYER-1
 10
51.673848
 20
124.953532
 30
0.000000
  0
SEQEND
  8
MERGEDLAYER-1
  0
POLYLINE
  8
MERGEDLAYER-1
 66
  1
 70
  0
 62
  7
 10
51.673855
 20
122.840074
 30
0.000000
  0
VERTEX
  8
MERGEDLAYER-1
 10
51.673855
 20
122.840074
 30
0.000000
  0
VERTEX
  8
MERGEDLAYER-1
 10
51.673855
 20
124.953532
 30
0.000000
  0
SEQEND
  8
MERGEDLAYER-1
  0
POLYLINE
  8
MERGEDLAYER-1
 66
  1
 70
  0
 62
  7
 10
51.673855
 20
122.840074
 30
0.000000
  0
VERTEX
  8
MERGEDLAYER-1
 10
51.673855
 20
122.840074
 30
0.000000
  0
VERTEX
  8
MERGEDLAYER-1
 10
48.343252
 20
122.840074
 30
0.000000
  0
SEQEND
  8
MERGEDLAYER-1
  0
POLYLINE
  8
MERGEDLAYER-1
 66
  1
 70
  0
 62
  7
 10
48.343252
 20
122.840074
 30
0.000000
  0
VERTEX
  8
MERGEDLAYER-1
 10
48.343252
 20
122.840074
 30
0.000000
  0
VERTEX
  8
MERGEDLAYER-1
 10
48.343252
 20
124.953532
 30
0.000000
  0
SEQEND
  8
MERGEDLAYER-1
  0
POLYLINE
  8
MERGEDLAYER-1
 66
  1
 70
  0
 62
  7
 10
48.343282
 20
124.953532
 30
0.000000
  0
VERTEX
  8
MERGEDLAYER-1
 10
48.343282
 20
124.953532
 30
0.000000
  0
VERTEX
  8
MERGEDLAYER-1
 10
48.159648
 20
125.326158
 30
0.000000
  0
VERTEX
  8
MERGEDLAYER-1
 10
47.887027
 20
125.409790
 30
0.000000
  0
SEQEND
  8
MERGEDLAYER-1
  0
POLYLINE
  8
MERGEDLAYER-1
 66
  1
 70
  0
 62
  7
 10
47.329359
 20
125.409804
 30
0.000000
  0
VERTEX
  8
MERGEDLAYER-1
 10
47.329359
 20
125.409804
 30
0.000000
  0
VERTEX
  8
MERGEDLAYER-1
 10
47.887027
 20
125.409804
 30
0.000000
  0
SEQEND
  8
MERGEDLAYER-1
  0
POLYLINE
  8
MERGEDLAYER-1
 66
  1
 70
  0
 62
  7
 10
47.329359
 20
125.409722
 30
0.000000
  0
VERTEX
  8
MERGEDLAYER-1
 10
47.329359
 20
125.409722
 30
0.000000
  0
VERTEX
  8
MERGEDLAYER-1
 10
47.144423
 20
125.224799
 30
0.000000
  0
SEQEND
  8
MERGEDLAYER-1
  0
POLYLINE
  8
MERGEDLAYER-1
 66
  1
 70
  0
 62
  7
 10
47.144423
 20
125.226020
 30
0.000000
  0
VERTEX
  8
MERGEDLAYER-1
 10
47.144423
 20
125.226020
 30
0.000000
  0
VERTEX
  8
MERGEDLAYER-1
 10
47.329359
 20
125.041070
 30
0.000000
  0
SEQEND
  8
MERGEDLAYER-1
  0
POLYLINE
  8
MERGEDLAYER-1
 66
  1
 70
  0
 62
  7
 10
47.593814
 20
125.041043
 30
0.000000
  0
VERTEX
  8
MERGEDLAYER-1
 10
47.593814
 20
125.041043
 30
0.000000
  0
VERTEX
  8
MERGEDLAYER-1
 10
47.329359
 20
125.041043
 30
0.000000
  0
SEQEND
  8
MERGEDLAYER-1
  0
POLYLINE
  8
MERGEDLAYER-1
 66
  1
 70
  0
 62
  7
 10
47.837148
 20
124.797702
 30
0.000000
  0
VERTEX
  8
MERGEDLAYER-1
 10
47.837148
 20
124.797702
 30
0.000000
  0
VERTEX
  8
MERGEDLAYER-1
 10
47.715878
 20
125.019775
 30
0.000000
  0
VERTEX
  8
MERGEDLAYER-1
 10
47.593814
 20
125.041043
 30
0.000000
  0
SEQEND
  8
MERGEDLAYER-1
  0
POLYLINE
  8
MERGEDLAYER-1
 66
  1
 70
  0
 62
  7
 10
47.837246
 20
122.840074
 30
0.000000
  0
VERTEX
  8
MERGEDLAYER-1
 10
47.837246
 20
122.840074
 30
0.000000
  0
VERTEX
  8
MERGEDLAYER-1
 10
47.837246
 20
124.797702
 30
0.000000
  0
SEQEND
  8
MERGEDLAYER-1
  0
POLYLINE
  8
MERGEDLAYER-1
 66
  1
 70
  0
 62
  7
 10
46.802087
 20
122.840074
 30
0.000000
  0
VERTEX
  8
MERGEDLAYER-1
 10
46.802087
 20
122.840074
 30
0.000000
  0
VERTEX
  8
MERGEDLAYER-1
 10
47.837246
 20
122.840074
 30
0.000000
  0
SEQEND
  8
MERGEDLAYER-1
  0
POLYLINE
  8
MERGEDLAYER-1
 66
  1
 70
  0
 62
  7
 10
46.802087
 20
123.499091
 30
0.000000
  0
VERTEX
  8
MERGEDLAYER-1
 10
46.802087
 20
123.499091
 30
0.000000
  0
VERTEX
  8
MERGEDLAYER-1
 10
46.802087
 20
122.840074
 30
0.000000
  0
SEQEND
  8
MERGEDLAYER-1
  0
POLYLINE
  8
MERGEDLAYER-1
 66
  1
 70
  0
 62
  7
 10
43.773149
 20
123.499091
 30
0.000000
  0
VERTEX
  8
MERGEDLAYER-1
 10
43.773149
 20
123.499091
 30
0.000000
  0
VERTEX
  8
MERGEDLAYER-1
 10
46.802087
 20
123.499091
 30
0.000000
  0
SEQEND
  8
MERGEDLAYER-1
  0
POLYLINE
  8
MERGEDLAYER-1
 66
  1
 70
  0
 62
  7
 10
43.773149
 20
123.499091
 30
0.000000
  0
VERTEX
  8
MERGEDLAYER-1
 10
43.773149
 20
123.499091
 30
0.000000
  0
VERTEX
  8
MERGEDLAYER-1
 10
43.773149
 20
123.207520
 30
0.000000
  0
SEQEND
  8
MERGEDLAYER-1
  0
POLYLINE
  8
MERGEDLAYER-1
 66
  1
 70
  0
 62
  7
 10
43.773092
 20
123.207520
 30
0.000000
  0
VERTEX
  8
MERGEDLAYER-1
 10
43.773092
 20
123.207520
 30
0.000000
  0
VERTEX
  8
MERGEDLAYER-1
 10
43.792555
 20
122.908325
 30
0.000000
  0
VERTEX
  8
MERGEDLAYER-1
 10
43.990360
 20
122.612278
 30
0.000000
  0
VERTEX
  8
MERGEDLAYER-1
 10
44.286397
 20
122.414483
 30
0.000000
  0
VERTEX
  8
MERGEDLAYER-1
 10
44.685601
 20
122.295017
 30
0.000000
  0
SEQEND
  8
MERGEDLAYER-1
  0
POLYLINE
  8
MERGEDLAYER-1
 66
  1
 70
  0
 62
  7
 10
55.331570
 20
122.295030
 30
0.000000
  0
VERTEX
  8
MERGEDLAYER-1
 10
55.331570
 20
122.295030
 30
0.000000
  0
VERTEX
  8
MERGEDLAYER-1
 10
44.685601
 20
122.295030
 30
0.000000
  0
SEQEND
  8
MERGEDLAYER-1
  0
POLYLINE
  8
MERGEDLAYER-1
 66
  1
 70
  0
 62
  7
 10
55.331570
 20
122.295017
 30
0.000000
  0
VERTEX
  8
MERGEDLAYER-1
 10
55.331570
 20
122.295017
 30
0.000000
  0
VERTEX
  8
MERGEDLAYER-1
 10
55.630771
 20
122.414483
 30
0.000000
  0
VERTEX
  8
MERGEDLAYER-1
 10
55.926812
 20
122.612278
 30
0.000000
  0
VERTEX
  8
MERGEDLAYER-1
 10
56.124620
 20
122.908325
 30
0.000000
  0
VERTEX
  8
MERGEDLAYER-1
 10
56.244080
 20
123.207520
 30
0.000000
  0
SEQEND
  8
MERGEDLAYER-1
  0
POLYLINE
  8
MERGEDLAYER-1
 66
  1
 70
  0
 62
  7
 10
56.244019
 20
123.499091
 30
0.000000
  0
VERTEX
  8
MERGEDLAYER-1
 10
56.244019
 20
123.499091
 30
0.000000
  0
VERTEX
  8
MERGEDLAYER-1
 10
56.244019
 20
123.207520
 30
0.000000
  0
SEQEND
  8
MERGEDLAYER-1
  0
POLYLINE
  8
MERGEDLAYER-1
 66
  1
 70
  0
 62
  7
 10
56.244019
 20
123.499091
 30
0.000000
  0
VERTEX
  8
MERGEDLAYER-1
 10
56.244019
 20
123.499091
 30
0.000000
  0
VERTEX
  8
MERGEDLAYER-1
 10
53.215091
 20
123.499091
 30
0.000000
  0
SEQEND
  8
MERGEDLAYER-1
  0
POLYLINE
  8
MERGEDLAYER-1
 66
  1
 70
  0
 62
  7
 10
53.215091
 20
123.499091
 30
0.000000
  0
VERTEX
  8
MERGEDLAYER-1
 10
53.215091
 20
123.499091
 30
0.000000
  0
VERTEX
  8
MERGEDLAYER-1
 10
53.215091
 20
122.840074
 30
0.000000
  0
SEQEND
  8
MERGEDLAYER-1
  0
POLYLINE
  8
MERGEDLAYER-1
 66
  1
 70
  0
 62
  7
 10
53.215091
 20
122.840074
 30
0.000000
  0
VERTEX
  8
MERGEDLAYER-1
 10
53.215091
 20
122.840074
 30
0.000000
  0
VERTEX
  8
MERGEDLAYER-1
 10
52.179983
 20
122.840074
 30
0.000000
  0
SEQEND
  8
MERGEDLAYER-1
  0
POLYLINE
  8
MERGEDLAYER-1
 66
  1
 70
  0
 62
  7
 10
52.179983
 20
122.840074
 30
0.000000
  0
VERTEX
  8
MERGEDLAYER-1
 10
52.179983
 20
122.840074
 30
0.000000
  0
VERTEX
  8
MERGEDLAYER-1
 10
52.179983
 20
124.797702
 30
0.000000
  0
SEQEND
  8
MERGEDLAYER-1
  0
POLYLINE
  8
MERGEDLAYER-1
 66
  1
 70
  0
 62
  7
 10
48.538801
 20
144.438802
 30
0.000000
  0
VERTEX
  8
MERGEDLAYER-1
 10
48.538801
 20
144.438802
 30
0.000000
  0
VERTEX
  8
MERGEDLAYER-1
 10
51.647420
 20
144.438802
 30
0.000000
  0
SEQEND
  8
MERGEDLAYER-1
  0
POLYLINE
  8
MERGEDLAYER-1
 66
  1
 70
  0
 62
  7
 10
53.201762
 20
142.884467
 30
0.000000
  0
VERTEX
  8
MERGEDLAYER-1
 10
53.201762
 20
142.884467
 30
0.000000
  0
VERTEX
  8
MERGEDLAYER-1
 10
53.201762
 20
136.877252
 30
0.000000
  0
SEQEND
  8
MERGEDLAYER-1
  0
POLYLINE
  8
MERGEDLAYER-1
 66
  1
 70
  0
 62
  7
 10
51.647420
 20
135.322917
 30
0.000000
  0
VERTEX
  8
MERGEDLAYER-1
 10
51.647420
 20
135.322917
 30
0.000000
  0
VERTEX
  8
MERGEDLAYER-1
 10
48.538801
 20
135.322917
 30
0.000000
  0
SEQEND
  8
MERGEDLAYER-1
  0
POLYLINE
  8
MERGEDLAYER-1
 66
  1
 70
  0
 62
  7
 10
46.984463
 20
136.877252
 30
0.000000
  0
VERTEX
  8
MERGEDLAYER-1
 10
46.984463
 20
136.877252
 30
0.000000
  0
VERTEX
  8
MERGEDLAYER-1
 10
46.984463
 20
142.884467
 30
0.000000
  0
SEQEND
  8
MERGEDLAYER-1
  0
ARC
  8
MERGEDLAYER-1
 62
  7
 10
48.538801
 20
142.884467
 30
0.000000
 40
1.554339
 50
90.000000
 51
180.000000
  0
ARC
  8
MERGEDLAYER-1
 62
  7
 10
48.538801
 20
136.877252
 30
0.000000
 40
1.554339
 50
180.000000
 51
270.000000
  0
ARC
  8
MERGEDLAYER-1
 62
  7
 10
51.647420
 20
136.877252
 30
0.000000
 40
1.554339
 50
270.000000
 51
0.000000
  0
ARC
  8
MERGEDLAYER-1
 62
  7
 10
51.647420
 20
142.884467
 30
0.000000
 40
1.554339
 50
0.000000
 51
90.000000
  0
POLYLINE
  8
MERGEDLAYER-1
 66
  1
 70
  1
 62
255
  0
VERTEX
  8
MERGEDLAYER-1
 10
43.002055
 20
150.861789
 30
0.000000
  0
VERTEX
  8
MERGEDLAYER-1
 10
43.799150
 20
150.861789
 30
0.000000
  0
VERTEX
  8
MERGEDLAYER-1
 10
43.799150
 20
147.383531
 30
0.000000
  0
VERTEX
  8
MERGEDLAYER-1
 10
43.002055
 20
147.383531
 30
0.000000
  0
SEQEND
  8
MERGEDLAYER-1
  0
POLYLINE
  8
MERGEDLAYER-1
 66
  1
 70
  0
 62
  7
 10
51.275808
 20
151.486844
 30
0.000000
  0
VERTEX
  8
MERGEDLAYER-1
 10
51.275808
 20
151.486844
 30
0.000000
  0
VERTEX
  8
MERGEDLAYER-1
 10
46.922106
 20
151.488132
 30
0.000000
  0
SEQEND
  8
MERGEDLAYER-1
  0
POLYLINE
  8
MERGEDLAYER-1
 66
  1
 70
  0
 62
  7
 10
46.922326
 20
151.486871
 30
0.000000
  0
VERTEX
  8
MERGEDLAYER-1
 10
46.922326
 20
151.486871
 30
0.000000
  0
VERTEX
  8
MERGEDLAYER-1
 10
46.827209
 20
151.391737
 30
0.000000
  0
SEQEND
  8
MERGEDLAYER-1
  0
POLYLINE
  8
MERGEDLAYER-1
 66
  1
 70
  0
 62
  7
 10
51.656375
 20
151.106296
 30
0.000000
  0
VERTEX
  8
MERGEDLAYER-1
 10
51.656375
 20
151.106296
 30
0.000000
  0
VERTEX
  8
MERGEDLAYER-1
 10
51.494900
 20
151.425388
 30
0.000000
  0
VERTEX
  8
MERGEDLAYER-1
 10
51.275808
 20
151.486844
 30
0.000000
  0
SEQEND
  8
MERGEDLAYER-1
  0
POLYLINE
  8
MERGEDLAYER-1
 66
  1
 70
  0
 62
  7
 10
46.827186
 20
151.391737
 30
0.000000
  0
VERTEX
  8
MERGEDLAYER-1
 10
46.827186
 20
151.391737
 30
0.000000
  0
VERTEX
  8
MERGEDLAYER-1
 10
46.827186
 20
151.129137
 30
0.000000
  0
SEQEND
  8
MERGEDLAYER-1
  0
POLYLINE
  8
MERGEDLAYER-1
 66
  1
 70
  0
 62
  7
 10
46.526527
 20
151.129137
 30
0.000000
  0
VERTEX
  8
MERGEDLAYER-1
 10
46.526527
 20
151.129137
 30
0.000000
  0
VERTEX
  8
MERGEDLAYER-1
 10
46.526306
 20
151.392985
 30
0.000000
  0
SEQEND
  8
MERGEDLAYER-1
  0
POLYLINE
  8
MERGEDLAYER-1
 66
  1
 70
  0
 62
  7
 10
46.526550
 20
151.129137
 30
0.000000
  0
VERTEX
  8
MERGEDLAYER-1
 10
46.526550
 20
151.129137
 30
0.000000
  0
VERTEX
  8
MERGEDLAYER-1
 10
46.621691
 20
151.033990
 30
0.000000
  0
SEQEND
  8
MERGEDLAYER-1
  0
POLYLINE
  8
MERGEDLAYER-1
 66
  1
 70
  0
 62
  7
 10
46.431335
 20
151.486844
 30
0.000000
  0
VERTEX
  8
MERGEDLAYER-1
 10
46.431335
 20
151.486844
 30
0.000000
  0
VERTEX
  8
MERGEDLAYER-1
 10
43.931624
 20
151.486844
 30
0.000000
  0
SEQEND
  8
MERGEDLAYER-1
  0
POLYLINE
  8
MERGEDLAYER-1
 66
  1
 70
  0
 62
  7
 10
43.927863
 20
151.486816
 30
0.000000
  0
VERTEX
  8
MERGEDLAYER-1
 10
43.927863
 20
151.486816
 30
0.000000
  0
VERTEX
  8
MERGEDLAYER-1
 10
43.783257
 20
151.342204
 30
0.000000
  0
SEQEND
  8
MERGEDLAYER-1
  0
POLYLINE
  8
MERGEDLAYER-1
 66
  1
 70
  0
 62
  7
 10
46.526527
 20
151.391737
 30
0.000000
  0
VERTEX
  8
MERGEDLAYER-1
 10
46.526527
 20
151.391737
 30
0.000000
  0
VERTEX
  8
MERGEDLAYER-1
 10
46.431383
 20
151.486871
 30
0.000000
  0
SEQEND
  8
MERGEDLAYER-1
  0
POLYLINE
  8
MERGEDLAYER-1
 66
  1
 70
  0
 62
  7
 10
52.790385
 20
151.486844
 30
0.000000
  0
VERTEX
  8
MERGEDLAYER-1
 10
52.790385
 20
151.486844
 30
0.000000
  0
VERTEX
  8
MERGEDLAYER-1
 10
52.471293
 20
151.425388
 30
0.000000
  0
VERTEX
  8
MERGEDLAYER-1
 10
52.409817
 20
151.106296
 30
0.000000
  0
SEQEND
  8
MERGEDLAYER-1
  0
POLYLINE
  8
MERGEDLAYER-1
 66
  1
 70
  0
 62
  7
 10
46.731896
 20
151.033990
 30
0.000000
  0
VERTEX
  8
MERGEDLAYER-1
 10
46.731896
 20
151.033990
 30
0.000000
  0
VERTEX
  8
MERGEDLAYER-1
 10
46.621691
 20
151.033990
 30
0.000000
  0
SEQEND
  8
MERGEDLAYER-1
  0
POLYLINE
  8
MERGEDLAYER-1
 66
  1
 70
  0
 62
  7
 10
46.732042
 20
151.033990
 30
0.000000
  0
VERTEX
  8
MERGEDLAYER-1
 10
46.732042
 20
151.033990
 30
0.000000
  0
VERTEX
  8
MERGEDLAYER-1
 10
46.827162
 20
151.129137
 30
0.000000
  0
SEQEND
  8
MERGEDLAYER-1
  0
POLYLINE
  8
MERGEDLAYER-1
 66
  1
 70
  0
 62
  7
 10
48.130191
 20
152.240302
 30
0.000000
  0
VERTEX
  8
MERGEDLAYER-1
 10
48.130191
 20
152.240302
 30
0.000000
  0
VERTEX
  8
MERGEDLAYER-1
 10
43.414137
 20
152.240302
 30
0.000000
  0
SEQEND
  8
MERGEDLAYER-1
  0
POLYLINE
  8
MERGEDLAYER-1
 66
  1
 70
  0
 62
  7
 10
54.373488
 20
151.859755
 30
0.000000
  0
VERTEX
  8
MERGEDLAYER-1
 10
54.373488
 20
151.859755
 30
0.000000
  0
VERTEX
  8
MERGEDLAYER-1
 10
54.373488
 20
151.582004
 30
0.000000
  0
SEQEND
  8
MERGEDLAYER-1
  0
POLYLINE
  8
MERGEDLAYER-1
 66
  1
 70
  0
 62
  7
 10
54.373488
 20
151.859755
 30
0.000000
  0
VERTEX
  8
MERGEDLAYER-1
 10
54.373488
 20
151.859755
 30
0.000000
  0
VERTEX
  8
MERGEDLAYER-1
 10
54.212036
 20
152.178847
 30
0.000000
  0
VERTEX
  8
MERGEDLAYER-1
 10
53.992947
 20
152.240302
 30
0.000000
  0
SEQEND
  8
MERGEDLAYER-1
  0
POLYLINE
  8
MERGEDLAYER-1
 66
  1
 70
  0
 62
  7
 10
51.860402
 20
152.240302
 30
0.000000
  0
VERTEX
  8
MERGEDLAYER-1
 10
51.860402
 20
152.240302
 30
0.000000
  0
VERTEX
  8
MERGEDLAYER-1
 10
53.992947
 20
152.240302
 30
0.000000
  0
SEQEND
  8
MERGEDLAYER-1
  0
POLYLINE
  8
MERGEDLAYER-1
 66
  1
 70
  0
 62
  7
 10
52.790141
 20
151.488132
 30
0.000000
  0
VERTEX
  8
MERGEDLAYER-1
 10
52.790141
 20
151.488132
 30
0.000000
  0
VERTEX
  8
MERGEDLAYER-1
 10
54.278347
 20
151.486844
 30
0.000000
  0
SEQEND
  8
MERGEDLAYER-1
  0
POLYLINE
  8
MERGEDLAYER-1
 66
  1
 70
  0
 62
  7
 10
54.278347
 20
151.486871
 30
0.000000
  0
VERTEX
  8
MERGEDLAYER-1
 10
54.278347
 20
151.486871
 30
0.000000
  0
VERTEX
  8
MERGEDLAYER-1
 10
54.373488
 20
151.582004
 30
0.000000
  0
SEQEND
  8
MERGEDLAYER-1
  0
POLYLINE
  8
MERGEDLAYER-1
 66
  1
 70
  0
 62
  7
 10
52.409817
 20
151.106296
 30
0.000000
  0
VERTEX
  8
MERGEDLAYER-1
 10
52.409817
 20
151.106296
 30
0.000000
  0
VERTEX
  8
MERGEDLAYER-1
 10
52.409817
 20
150.322252
 30
0.000000
  0
SEQEND
  8
MERGEDLAYER-1
  0
POLYLINE
  8
MERGEDLAYER-1
 66
  1
 70
  0
 62
  7
 10
51.656375
 20
151.106296
 30
0.000000
  0
VERTEX
  8
MERGEDLAYER-1
 10
51.656375
 20
151.106296
 30
0.000000
  0
VERTEX
  8
MERGEDLAYER-1
 10
51.656375
 20
149.724881
 30
0.000000
  0
SEQEND
  8
MERGEDLAYER-1
  0
POLYLINE
  8
MERGEDLAYER-1
 66
  1
 70
  0
 62
  7
 10
52.036916
 20
149.344320
 30
0.000000
  0
VERTEX
  8
MERGEDLAYER-1
 10
52.036916
 20
149.344320
 30
0.000000
  0
VERTEX
  8
MERGEDLAYER-1
 10
53.482985
 20
149.344320
 30
0.000000
  0
SEQEND
  8
MERGEDLAYER-1
  0
POLYLINE
  8
MERGEDLAYER-1
 66
  1
 70
  0
 62
  7
 10
52.409817
 20
150.322293
 30
0.000000
  0
VERTEX
  8
MERGEDLAYER-1
 10
52.409817
 20
150.322293
 30
0.000000
  0
VERTEX
  8
MERGEDLAYER-1
 10
52.471293
 20
150.103204
 30
0.000000
  0
VERTEX
  8
MERGEDLAYER-1
 10
52.790385
 20
149.941759
 30
0.000000
  0
SEQEND
  8
MERGEDLAYER-1
  0
POLYLINE
  8
MERGEDLAYER-1
 66
  1
 70
  0
 62
  7
 10
51.656375
 20
149.724881
 30
0.000000
  0
VERTEX
  8
MERGEDLAYER-1
 10
51.656375
 20
149.724881
 30
0.000000
  0
VERTEX
  8
MERGEDLAYER-1
 10
51.717824
 20
149.505778
 30
0.000000
  0
VERTEX
  8
MERGEDLAYER-1
 10
52.036916
 20
149.344320
 30
0.000000
  0
SEQEND
  8
MERGEDLAYER-1
  0
POLYLINE
  8
MERGEDLAYER-1
 66
  1
 70
  0
 62
  7
 10
52.790141
 20
149.943115
 30
0.000000
  0
VERTEX
  8
MERGEDLAYER-1
 10
52.790141
 20
149.943115
 30
0.000000
  0
VERTEX
  8
MERGEDLAYER-1
 10
53.482985
 20
149.941745
 30
0.000000
  0
SEQEND
  8
MERGEDLAYER-1
  0
POLYLINE
  8
MERGEDLAYER-1
 66
  1
 70
  0
 62
  7
 10
53.779812
 20
149.644992
 30
0.000000
  0
VERTEX
  8
MERGEDLAYER-1
 10
53.779812
 20
149.644992
 30
0.000000
  0
VERTEX
  8
MERGEDLAYER-1
 10
53.642873
 20
149.904880
 30
0.000000
  0
VERTEX
  8
MERGEDLAYER-1
 10
53.482985
 20
149.941813
 30
0.000000
  0
SEQEND
  8
MERGEDLAYER-1
  0
POLYLINE
  8
MERGEDLAYER-1
 66
  1
 70
  0
 62
  7
 10
43.782990
 20
151.343574
 30
0.000000
  0
VERTEX
  8
MERGEDLAYER-1
 10
43.782990
 20
151.343574
 30
0.000000
  0
VERTEX
  8
MERGEDLAYER-1
 10
43.782990
 20
147.503798
 30
0.000000
  0
SEQEND
  8
MERGEDLAYER-1
  0
POLYLINE
  8
MERGEDLAYER-1
 66
  1
 70
  0
 62
  7
 10
43.688137
 20
147.407322
 30
0.000000
  0
VERTEX
  8
MERGEDLAYER-1
 10
43.688137
 20
147.407322
 30
0.000000
  0
VERTEX
  8
MERGEDLAYER-1
 10
43.783257
 20
147.502469
 30
0.000000
  0
SEQEND
  8
MERGEDLAYER-1
  0
POLYLINE
  8
MERGEDLAYER-1
 66
  1
 70
  0
 62
  7
 10
43.124685
 20
147.408651
 30
0.000000
  0
VERTEX
  8
MERGEDLAYER-1
 10
43.124685
 20
147.408651
 30
0.000000
  0
VERTEX
  8
MERGEDLAYER-1
 10
43.688137
 20
147.407308
 30
0.000000
  0
SEQEND
  8
MERGEDLAYER-1
  0
POLYLINE
  8
MERGEDLAYER-1
 66
  1
 70
  0
 62
  7
 10
43.029765
 20
151.859755
 30
0.000000
  0
VERTEX
  8
MERGEDLAYER-1
 10
43.029765
 20
151.859755
 30
0.000000
  0
VERTEX
  8
MERGEDLAYER-1
 10
43.029765
 20
149.363742
 30
0.000000
  0
SEQEND
  8
MERGEDLAYER-1
  0
POLYLINE
  8
MERGEDLAYER-1
 66
  1
 70
  0
 62
  7
 10
43.410305
 20
152.240302
 30
0.000000
  0
VERTEX
  8
MERGEDLAYER-1
 10
43.410305
 20
152.240302
 30
0.000000
  0
VERTEX
  8
MERGEDLAYER-1
 10
43.091217
 20
152.178847
 30
0.000000
  0
VERTEX
  8
MERGEDLAYER-1
 10
43.029765
 20
151.859755
 30
0.000000
  0
SEQEND
  8
MERGEDLAYER-1
  0
POLYLINE
  8
MERGEDLAYER-1
 66
  1
 70
  0
 62
  7
 10
43.029714
 20
147.502469
 30
0.000000
  0
VERTEX
  8
MERGEDLAYER-1
 10
43.029714
 20
147.502469
 30
0.000000
  0
VERTEX
  8
MERGEDLAYER-1
 10
43.124858
 20
147.407322
 30
0.000000
  0
SEQEND
  8
MERGEDLAYER-1
  0
POLYLINE
  8
MERGEDLAYER-1
 66
  1
 70
  0
 62
  7
 10
53.779785
 20
149.644992
 30
0.000000
  0
VERTEX
  8
MERGEDLAYER-1
 10
53.779785
 20
149.644992
 30
0.000000
  0
VERTEX
  8
MERGEDLAYER-1
 10
53.779785
 20
149.641113
 30
0.000000
  0
SEQEND
  8
MERGEDLAYER-1
  0
POLYLINE
  8
MERGEDLAYER-1
 66
  1
 70
  0
 62
  7
 10
53.482985
 20
149.344293
 30
0.000000
  0
VERTEX
  8
MERGEDLAYER-1
 10
53.482985
 20
149.344293
 30
0.000000
  0
VERTEX
  8
MERGEDLAYER-1
 10
53.642873
 20
149.481228
 30
0.000000
  0
VERTEX
  8
MERGEDLAYER-1
 10
53.779812
 20
149.641113
 30
0.000000
  0
SEQEND
  8
MERGEDLAYER-1
  0
POLYLINE
  8
MERGEDLAYER-1
 66
  1
 70
  0
 62
  7
 10
43.029544
 20
149.075819
 30
0.000000
  0
VERTEX
  8
MERGEDLAYER-1
 10
43.029544
 20
149.075819
 30
0.000000
  0
VERTEX
  8
MERGEDLAYER-1
 10
43.029277
 20
149.365044
 30
0.000000
  0
SEQEND
  8
MERGEDLAYER-1
  0
POLYLINE
  8
MERGEDLAYER-1
 66
  1
 70
  0
 62
  7
 10
43.029765
 20
149.074463
 30
0.000000
  0
VERTEX
  8
MERGEDLAYER-1
 10
43.029765
 20
149.074463
 30
0.000000
  0
VERTEX
  8
MERGEDLAYER-1
 10
43.029765
 20
147.502469
 30
0.000000
  0
SEQEND
  8
MERGEDLAYER-1
  0
POLYLINE
  8
MERGEDLAYER-1
 66
  1
 70
  0
 62
  7
 10
48.133952
 20
152.242052
 30
0.000000
  0
VERTEX
  8
MERGEDLAYER-1
 10
48.133952
 20
152.242052
 30
0.000000
  0
VERTEX
  8
MERGEDLAYER-1
 10
48.353041
 20
152.403510
 30
0.000000
  0
VERTEX
  8
MERGEDLAYER-1
 10
48.464498
 20
152.672607
 30
0.000000
  0
VERTEX
  8
MERGEDLAYER-1
 10
48.506802
 20
152.698649
 30
0.000000
  0
SEQEND
  8
MERGEDLAYER-1
  0
POLYLINE
  8
MERGEDLAYER-1
 66
  1
 70
  0
 62
  7
 10
51.491286
 20
152.698649
 30
0.000000
  0
VERTEX
  8
MERGEDLAYER-1
 10
51.491286
 20
152.698649
 30
0.000000
  0
VERTEX
  8
MERGEDLAYER-1
 10
51.496724
 20
152.462714
 30
0.000000
  0
VERTEX
  8
MERGEDLAYER-1
 10
51.738112
 20
152.299723
 30
0.000000
  0
VERTEX
  8
MERGEDLAYER-1
 10
51.864163
 20
152.242052
 30
0.000000
  0
SEQEND
  8
MERGEDLAYER-1
  0
POLYLINE
  8
MERGEDLAYER-1
 66
  1
 70
  0
 62
  7
 10
49.580241
 20
153.738905
 30
0.000000
  0
VERTEX
  8
MERGEDLAYER-1
 10
49.580241
 20
153.738905
 30
0.000000
  0
VERTEX
  8
MERGEDLAYER-1
 10
49.280501
 20
153.572632
 30
0.000000
  0
VERTEX
  8
MERGEDLAYER-1
 10
49.132541
 20
153.277249
 30
0.000000
  0
VERTEX
  8
MERGEDLAYER-1
 10
49.108877
 20
152.947727
 30
0.000000
  0
VERTEX
  8
MERGEDLAYER-1
 10
49.213125
 20
152.634223
 30
0.000000
  0
VERTEX
  8
MERGEDLAYER-1
 10
49.429403
 20
152.384494
 30
0.000000
  0
VERTEX
  8
MERGEDLAYER-1
 10
49.724789
 20
152.236518
 30
0.000000
  0
VERTEX
  8
MERGEDLAYER-1
 10
50.054318
 20
152.212863
 30
0.000000
  0
VERTEX
  8
MERGEDLAYER-1
 10
50.367811
 20
152.317112
 30
0.000000
  0
VERTEX
  8
MERGEDLAYER-1
 10
50.617550
 20
152.533393
 30
0.000000
  0
VERTEX
  8
MERGEDLAYER-1
 10
50.765513
 20
152.828776
 30
0.000000
  0
VERTEX
  8
MERGEDLAYER-1
 10
50.789174
 20
153.158298
 30
0.000000
  0
VERTEX
  8
MERGEDLAYER-1
 10
50.684926
 20
153.471802
 30
0.000000
  0
VERTEX
  8
MERGEDLAYER-1
 10
50.468648
 20
153.721530
 30
0.000000
  0
VERTEX
  8
MERGEDLAYER-1
 10
50.417460
 20
153.739109
 30
0.000000
  0
SEQEND
  8
MERGEDLAYER-1
  0
POLYLINE
  8
MERGEDLAYER-1
 66
  1
 70
  0
 62
  7
 10
49.262370
 20
154.335069
 30
0.000000
  0
VERTEX
  8
MERGEDLAYER-1
 10
49.262370
 20
154.335069
 30
0.000000
  0
VERTEX
  8
MERGEDLAYER-1
 10
48.758670
 20
154.001763
 30
0.000000
  0
VERTEX
  8
MERGEDLAYER-1
 10
48.486209
 20
153.474013
 30
0.000000
  0
VERTEX
  8
MERGEDLAYER-1
 10
48.436445
 20
152.882175
 30
0.000000
  0
VERTEX
  8
MERGEDLAYER-1
 10
48.507534
 20
152.698798
 30
0.000000
  0
SEQEND
  8
MERGEDLAYER-1
  0
POLYLINE
  8
MERGEDLAYER-1
 66
  1
 70
  0
 62
  7
 10
51.490506
 20
152.698812
 30
0.000000
  0
VERTEX
  8
MERGEDLAYER-1
 10
51.490506
 20
152.698812
 30
0.000000
  0
VERTEX
  8
MERGEDLAYER-1
 10
51.443393
 20
153.342746
 30
0.000000
  0
VERTEX
  8
MERGEDLAYER-1
 10
51.218764
 20
153.892565
 30
0.000000
  0
VERTEX
  8
MERGEDLAYER-1
 10
50.800832
 20
154.314562
 30
0.000000
  0
VERTEX
  8
MERGEDLAYER-1
 10
50.737111
 20
154.334296
 30
0.000000
  0
SEQEND
  8
MERGEDLAYER-1
  0
POLYLINE
  8
MERGEDLAYER-1
 66
  1
 70
  0
 62
  7
 10
49.523329
 20
154.334947
 30
0.000000
  0
VERTEX
  8
MERGEDLAYER-1
 10
49.523329
 20
154.334947
 30
0.000000
  0
VERTEX
  8
MERGEDLAYER-1
 10
49.262370
 20
154.334947
 30
0.000000
  0
SEQEND
  8
MERGEDLAYER-1
  0
POLYLINE
  8
MERGEDLAYER-1
 66
  1
 70
  0
 62
  7
 10
50.474660
 20
154.334947
 30
0.000000
  0
VERTEX
  8
MERGEDLAYER-1
 10
50.474660
 20
154.334947
 30
0.000000
  0
VERTEX
  8
MERGEDLAYER-1
 10
50.737111
 20
154.334947
 30
0.000000
  0
SEQEND
  8
MERGEDLAYER-1
  0
POLYLINE
  8
MERGEDLAYER-1
 66
  1
 70
  0
 62
  7
 10
50.474660
 20
154.334947
 30
0.000000
  0
VERTEX
  8
MERGEDLAYER-1
 10
50.474660
 20
154.334947
 30
0.000000
  0
VERTEX
  8
MERGEDLAYER-1
 10
50.417460
 20
153.739109
 30
0.000000
  0
SEQEND
  8
MERGEDLAYER-1
  0
POLYLINE
  8
MERGEDLAYER-1
 66
  1
 70
  0
 62
  7
 10
49.523329
 20
154.334947
 30
0.000000
  0
VERTEX
  8
MERGEDLAYER-1
 10
49.523329
 20
154.334947
 30
0.000000
  0
VERTEX
  8
MERGEDLAYER-1
 10
49.580241
 20
153.738905
 30
0.000000
  0
SEQEND
  8
MERGEDLAYER-1
  0
POLYLINE
  8
MERGEDLAYER-1
 66
  1
 70
  0
 62
  7
 10
50.078006
 20
152.017782
 30
0.000000
  0
VERTEX
  8
MERGEDLAYER-1
 10
50.078006
 20
152.017782
 30
0.000000
  0
VERTEX
  8
MERGEDLAYER-1
 10
50.080204
 20
152.017782
 30
0.000000
  0
SEQEND
  8
MERGEDLAYER-1
  0
CIRCLE
  8
MERGEDLAYER-1
 62
  7
 10
50.078006
 20
152.017782
 30
0.000000
 40
0.852891
  0
POLYLINE
  8
MERGEDLAYER-1
 66
  1
 70
  0
 62
  7
 10
48.349745
 20
152.325222
 30
0.000000
  0
VERTEX
  8
MERGEDLAYER-1
 10
48.349745
 20
152.325222
 30
0.000000
  0
VERTEX
  8
MERGEDLAYER-1
 10
48.552799
 20
151.569024
 30
0.000000
  0
SEQEND
  8
MERGEDLAYER-1
  0
POLYLINE
  8
MERGEDLAYER-1
 66
  1
 70
  0
 62
  7
 10
51.672757
 20
152.323975
 30
0.000000
  0
VERTEX
  8
MERGEDLAYER-1
 10
51.672757
 20
152.323975
 30
0.000000
  0
VERTEX
  8
MERGEDLAYER-1
 10
51.384989
 20
151.490506
 30
0.000000
  0
SEQEND
  8
MERGEDLAYER-1
  0
POLYLINE
  8
MERGEDLAYER-1
 66
  1
 70
  0
 62
  7
 10
40.913554
 20
146.410536
 30
0.000000
  0
VERTEX
  8
MERGEDLAYER-1
 10
40.913554
 20
146.410536
 30
0.000000
  0
VERTEX
  8
MERGEDLAYER-1
 10
40.098273
 20
146.410536
 30
0.000000
  0
SEQEND
  8
MERGEDLAYER-1
  0
POLYLINE
  8
MERGEDLAYER-1
 66
  1
 70
  0
 62
  7
 10
40.098273
 20
146.410536
 30
0.000000
  0
VERTEX
  8
MERGEDLAYER-1
 10
40.098273
 20
146.410536
 30
0.000000
  0
VERTEX
  8
MERGEDLAYER-1
 10
40.098273
 20
133.161919
 30
0.000000
  0
SEQEND
  8
MERGEDLAYER-1
  0
POLYLINE
  8
MERGEDLAYER-1
 66
  1
 70
  0
 62
  7
 10
40.098273
 20
133.161919
 30
0.000000
  0
VERTEX
  8
MERGEDLAYER-1
 10
40.098273
 20
133.161919
 30
0.000000
  0
VERTEX
  8
MERGEDLAYER-1
 10
40.913554
 20
133.161919
 30
0.000000
  0
SEQEND
  8
MERGEDLAYER-1
  0
POLYLINE
  8
MERGEDLAYER-1
 66
  1
 70
  0
 62
  7
 10
40.913554
 20
133.161919
 30
0.000000
  0
VERTEX
  8
MERGEDLAYER-1
 10
40.913554
 20
133.161919
 30
0.000000
  0
VERTEX
  8
MERGEDLAYER-1
 10
40.913554
 20
146.410536
 30
0.000000
  0
SEQEND
  8
MERGEDLAYER-1
  0
POLYLINE
  8
MERGEDLAYER-1
 66
  1
 70
  0
 62
  7
 10
39.079183
 20
145.730523
 30
0.000000
  0
VERTEX
  8
MERGEDLAYER-1
 10
39.079183
 20
145.730523
 30
0.000000
  0
VERTEX
  8
MERGEDLAYER-1
 10
39.079183
 20
133.841987
 30
0.000000
  0
SEQEND
  8
MERGEDLAYER-1
  0
POLYLINE
  8
MERGEDLAYER-1
 66
  1
 70
  0
 62
  7
 10
39.079183
 20
145.730523
 30
0.000000
  0
VERTEX
  8
MERGEDLAYER-1
 10
39.079183
 20
145.730523
 30
0.000000
  0
VERTEX
  8
MERGEDLAYER-1
 10
40.098273
 20
146.410536
 30
0.000000
  0
SEQEND
  8
MERGEDLAYER-1
  0
POLYLINE
  8
MERGEDLAYER-1
 66
  1
 70
  0
 62
  7
 10
39.079183
 20
133.841987
 30
0.000000
  0
VERTEX
  8
MERGEDLAYER-1
 10
39.079183
 20
133.841987
 30
0.000000
  0
VERTEX
  8
MERGEDLAYER-1
 10
40.098273
 20
133.161919
 30
0.000000
  0
SEQEND
  8
MERGEDLAYER-1
  0
POLYLINE
  8
MERGEDLAYER-1
 66
  1
 70
  1
 62
  7
  0
VERTEX
  8
MERGEDLAYER-1
 10
40.919142
 20
146.454400
 30
0.000000
  0
VERTEX
  8
MERGEDLAYER-1
 10
41.926832
 20
146.454400
 30
0.000000
  0
VERTEX
  8
MERGEDLAYER-1
 10
41.926832
 20
132.953301
 30
0.000000
  0
VERTEX
  8
MERGEDLAYER-1
 10
40.919142
 20
132.953301
 30
0.000000
  0
SEQEND
  8
MERGEDLAYER-1
  0
POLYLINE
  8
MERGEDLAYER-1
 66
  1
 70
  0
 62
  7
 10
42.302979
 20
146.636936
 30
0.000000
  0
VERTEX
  8
MERGEDLAYER-1
 10
42.302979
 20
146.636936
 30
0.000000
  0
VERTEX
  8
MERGEDLAYER-1
 10
42.880764
 20
146.636936
 30
0.000000
  0
SEQEND
  8
MERGEDLAYER-1
  0
POLYLINE
  8
MERGEDLAYER-1
 66
  1
 70
  0
 62
  7
 10
42.302979
 20
146.636963
 30
0.000000
  0
VERTEX
  8
MERGEDLAYER-1
 10
42.302979
 20
146.636963
 30
0.000000
  0
VERTEX
  8
MERGEDLAYER-1
 10
41.980621
 20
146.574137
 30
0.000000
  0
VERTEX
  8
MERGEDLAYER-1
 10
41.917803
 20
146.251777
 30
0.000000
  0
SEQEND
  8
MERGEDLAYER-1
  0
POLYLINE
  8
MERGEDLAYER-1
 66
  1
 70
  0
 62
  7
 10
41.917823
 20
146.251777
 30
0.000000
  0
VERTEX
  8
MERGEDLAYER-1
 10
41.917823
 20
146.251777
 30
0.000000
  0
VERTEX
  8
MERGEDLAYER-1
 10
41.917823
 20
133.155897
 30
0.000000
  0
SEQEND
  8
MERGEDLAYER-1
  0
POLYLINE
  8
MERGEDLAYER-1
 66
  1
 70
  0
 62
  7
 10
41.917803
 20
133.155897
 30
0.000000
  0
VERTEX
  8
MERGEDLAYER-1
 10
41.917803
 20
133.155897
 30
0.000000
  0
VERTEX
  8
MERGEDLAYER-1
 10
41.980621
 20
132.933539
 30
0.000000
  0
VERTEX
  8
MERGEDLAYER-1
 10
42.302979
 20
132.770725
 30
0.000000
  0
SEQEND
  8
MERGEDLAYER-1
  0
POLYLINE
  8
MERGEDLAYER-1
 66
  1
 70
  0
 62
  7
 10
42.302979
 20
132.770738
 30
0.000000
  0
VERTEX
  8
MERGEDLAYER-1
 10
42.302979
 20
132.770738
 30
0.000000
  0
VERTEX
  8
MERGEDLAYER-1
 10
42.880764
 20
132.770738
 30
0.000000
  0
SEQEND
  8
MERGEDLAYER-1
  0
POLYLINE
  8
MERGEDLAYER-1
 66
  1
 70
  0
 62
  7
 10
43.651109
 20
132.000366
 30
0.000000
  0
VERTEX
  8
MERGEDLAYER-1
 10
43.651109
 20
132.000366
 30
0.000000
  0
VERTEX
  8
MERGEDLAYER-1
 10
43.542470
 20
132.345161
 30
0.000000
  0
VERTEX
  8
MERGEDLAYER-1
 10
43.375481
 20
132.595079
 30
0.000000
  0
VERTEX
  8
MERGEDLAYER-1
 10
43.125563
 20
132.762071
 30
0.000000
  0
VERTEX
  8
MERGEDLAYER-1
 10
42.880764
 20
132.770711
 30
0.000000
  0
SEQEND
  8
MERGEDLAYER-1
  0
POLYLINE
  8
MERGEDLAYER-1
 66
  1
 70
  0
 62
  7
 10
43.651103
 20
132.000366
 30
0.000000
  0
VERTEX
  8
MERGEDLAYER-1
 10
43.651103
 20
132.000366
 30
0.000000
  0
VERTEX
  8
MERGEDLAYER-1
 10
43.843682
 20
132.000366
 30
0.000000
  0
SEQEND
  8
MERGEDLAYER-1
  0
POLYLINE
  8
MERGEDLAYER-1
 66
  1
 70
  0
 62
  7
 10
43.843682
 20
132.000366
 30
0.000000
  0
VERTEX
  8
MERGEDLAYER-1
 10
43.843682
 20
132.000366
 30
0.000000
  0
VERTEX
  8
MERGEDLAYER-1
 10
43.843682
 20
147.407308
 30
0.000000
  0
SEQEND
  8
MERGEDLAYER-1
  0
POLYLINE
  8
MERGEDLAYER-1
 66
  1
 70
  0
 62
  7
 10
43.843682
 20
147.407308
 30
0.000000
  0
VERTEX
  8
MERGEDLAYER-1
 10
43.843682
 20
147.407308
 30
0.000000
  0
VERTEX
  8
MERGEDLAYER-1
 10
43.651103
 20
147.407308
 30
0.000000
  0
SEQEND
  8
MERGEDLAYER-1
  0
POLYLINE
  8
MERGEDLAYER-1
 66
  1
 70
  0
 62
  7
 10
43.651103
 20
147.407308
 30
0.000000
  0
VERTEX
  8
MERGEDLAYER-1
 10
43.651103
 20
147.407308
 30
0.000000
  0
VERTEX
  8
MERGEDLAYER-1
 10
43.651103
 20
147.407308
 30
0.000000
  0
SEQEND
  8
MERGEDLAYER-1
  0
POLYLINE
  8
MERGEDLAYER-1
 66
  1
 70
  0
 62
  7
 10
42.880764
 20
146.636963
 30
0.000000
  0
VERTEX
  8
MERGEDLAYER-1
 10
42.880764
 20
146.636963
 30
0.000000
  0
VERTEX
  8
MERGEDLAYER-1
 10
43.125563
 20
146.745605
 30
0.000000
  0
VERTEX
  8
MERGEDLAYER-1
 10
43.375481
 20
146.912598
 30
0.000000
  0
VERTEX
  8
MERGEDLAYER-1
 10
43.542470
 20
147.162516
 30
0.000000
  0
VERTEX
  8
MERGEDLAYER-1
 10
43.651109
 20
147.407308
 30
0.000000
  0
SEQEND
  8
MERGEDLAYER-1
  0
POLYLINE
  8
MERGEDLAYER-1
 66
  1
 70
  0
 62
  7
 10
43.651103
 20
147.407308
 30
0.000000
  0
VERTEX
  8
MERGEDLAYER-1
 10
43.651103
 20
147.407308
 30
0.000000
  0
VERTEX
  8
MERGEDLAYER-1
 10
43.651103
 20
132.000366
 30
0.000000
  0
SEQEND
  8
MERGEDLAYER-1
  0
POLYLINE
  8
MERGEDLAYER-1
 66
  1
 70
  0
 62
  7
 10
43.651103
 20
132.000366
 30
0.000000
  0
VERTEX
  8
MERGEDLAYER-1
 10
43.651103
 20
132.000366
 30
0.000000
  0
VERTEX
  8
MERGEDLAYER-1
 10
43.651103
 20
132.000366
 30
0.000000
  0
SEQEND
  8
MERGEDLAYER-1
  0
POLYLINE
  8
MERGEDLAYER-1
 66
  1
 70
  0
 62
  7
 10
51.199544
 20
153.314779
 30
0.000000
  0
VERTEX
  8
MERGEDLAYER-1
 10
51.199544
 20
153.314779
 30
0.000000
  0
VERTEX
  8
MERGEDLAYER-1
 10
51.104353
 20
153.793335
 30
0.000000
  0
VERTEX
  8
MERGEDLAYER-1
 10
50.833279
 20
154.199029
 30
0.000000
  0
VERTEX
  8
MERGEDLAYER-1
 10
50.427578
 20
154.470106
 30
0.000000
  0
VERTEX
  8
MERGEDLAYER-1
 10
49.949025
 20
154.565294
 30
0.000000
  0
VERTEX
  8
MERGEDLAYER-1
 10
49.470473
 20
154.470106
 30
0.000000
  0
VERTEX
  8
MERGEDLAYER-1
 10
49.064772
 20
154.199029
 30
0.000000
  0
VERTEX
  8
MERGEDLAYER-1
 10
48.793698
 20
153.793335
 30
0.000000
  0
VERTEX
  8
MERGEDLAYER-1
 10
48.698507
 20
153.314779
 30
0.000000
  0
VERTEX
  8
MERGEDLAYER-1
 10
48.793698
 20
152.836222
 30
0.000000
  0
VERTEX
  8
MERGEDLAYER-1
 10
49.064772
 20
152.430528
 30
0.000000
  0
VERTEX
  8
MERGEDLAYER-1
 10
49.470473
 20
152.159451
 30
0.000000
  0
VERTEX
  8
MERGEDLAYER-1
 10
49.949025
 20
152.064263
 30
0.000000
  0
VERTEX
  8
MERGEDLAYER-1
 10
50.427578
 20
152.159451
 30
0.000000
  0
VERTEX
  8
MERGEDLAYER-1
 10
50.833279
 20
152.430528
 30
0.000000
  0
VERTEX
  8
MERGEDLAYER-1
 10
51.104353
 20
152.836222
 30
0.000000
  0
VERTEX
  8
MERGEDLAYER-1
 10
51.199544
 20
153.314779
 30
0.000000
  0
SEQEND
  8
MERGEDLAYER-1
  0
POLYLINE
  8
MERGEDLAYER-1
 66
  1
 70
  1
 62
  7
  0
VERTEX
  8
MERGEDLAYER-1
 10
49.614224
 20
153.637858
 30
0.000000
  0
VERTEX
  8
MERGEDLAYER-1
 10
50.383840
 20
153.637858
 30
0.000000
  0
VERTEX
  8
MERGEDLAYER-1
 10
50.383840
 20
152.891683
 30
0.000000
  0
VERTEX
  8
MERGEDLAYER-1
 10
49.614224
 20
152.891683
 30
0.000000
  0
SEQEND
  8
MERGEDLAYER-1
  0
POLYLINE
  8
MERGEDLAYER-1
 66
  1
 70
  0
 62
  7
 10
38.875349
 20
142.604140
 30
0.000000
  0
VERTEX
  8
MERGEDLAYER-1
 10
38.875349
 20
142.604140
 30
0.000000
  0
VERTEX
  8
MERGEDLAYER-1
 10
38.875349
 20
137.320421
 30
0.000000
  0
SEQEND
  8
MERGEDLAYER-1
  0
POLYLINE
  8
MERGEDLAYER-1
 66
  1
 70
  0
 62
  7
 10
38.875349
 20
142.604140
 30
0.000000
  0
VERTEX
  8
MERGEDLAYER-1
 10
38.875349
 20
142.604140
 30
0.000000
  0
VERTEX
  8
MERGEDLAYER-1
 10
39.079183
 20
142.604140
 30
0.000000
  0
SEQEND
  8
MERGEDLAYER-1
  0
POLYLINE
  8
MERGEDLAYER-1
 66
  1
 70
  0
 62
  7
 10
38.875349
 20
137.320421
 30
0.000000
  0
VERTEX
  8
MERGEDLAYER-1
 10
38.875349
 20
137.320421
 30
0.000000
  0
VERTEX
  8
MERGEDLAYER-1
 10
39.079183
 20
137.320421
 30
0.000000
  0
SEQEND
  8
MERGEDLAYER-1
  0
TEXT
  8
MERGEDLAYER-1
 62
  7
 10
68.095580
 20
176.438802
 30
0.000000
 40
2.500000
  1
1-1/2"
 72
  5
 11
77.651136
 21
176.438802
 31
0.000000
  0
TEXT
  8
MERGEDLAYER-1
 62
  7
 10
66.540025
 20
172.661024
 30
0.000000
 40
2.500000
  1
(38mm)
 72
  5
 11
79.206691
 21
172.661024
 31
0.000000
  0
TEXT
  8
MERGEDLAYER-1
 62
  7
 10
70.762247
 20
137.772135
 30
0.000000
 40
2.500000
  1
3"
 72
  5
 11
74.762247
 21
137.772135
 31
0.000000
  0
TEXT
  8
MERGEDLAYER-1
 62
  7
 10
66.540025
 20
133.994358
 30
0.000000
 40
2.500000
  1
(76mm)
 72
  5
 11
79.206691
 21
133.994358
 31
0.000000
  0
TEXT
  8
MERGEDLAYER-1
 62
  7
 10
53.428914
 20
111.994358
 30
0.000000
 40
2.500000
  1
5/8"
 72
  5
 11
60.095580
 21
111.994358
 31
0.000000
  0
TEXT
  8
MERGEDLAYER-1
 62
  7
 10
50.540025
 20
108.216580
 30
0.000000
 40
2.500000
  1
(16mm)
 72
  5
 11
63.206691
 21
108.216580
 31
0.000000
  0
LINE
  8
MERGEDLAYER-1
 62
  7
 10
49.547770
 20
117.697917
 30
0.000000
 11
39.373332
 21
117.697917
 31
0.000000
  0
LINE
  8
MERGEDLAYER-1
 62
  7
 10
50.047770
 20
119.202379
 30
0.000000
 11
50.047770
 21
114.697917
 31
0.000000
  0
LINE
  8
MERGEDLAYER-1
 62
  7
 10
38.873332
 20
126.434028
 30
0.000000
 11
38.873332
 21
114.697917
 31
0.000000
  0
POLYLINE
  8
MERGEDLAYER-1
 66
  1
 70
  1
 62
  7
  0
VERTEX
  8
MERGEDLAYER-1
 10
50.047770
 20
117.697917
 30
0.000000
  0
VERTEX
  8
MERGEDLAYER-1
 10
48.936659
 20
118.364583
 30
0.000000
  0
VERTEX
  8
MERGEDLAYER-1
 10
48.936659
 20
117.697917
 30
0.000000
  0
VERTEX
  8
MERGEDLAYER-1
 10
48.936659
 20
117.031250
 30
0.000000
  0
VERTEX
  8
MERGEDLAYER-1
 10
50.047770
 20
117.697917
 30
0.000000
  0
SEQEND
  8
MERGEDLAYER-1
  0
POLYLINE
  8
MERGEDLAYER-1
 66
  1
 70
  1
 62
  7
  0
VERTEX
  8
MERGEDLAYER-1
 10
38.873332
 20
117.697917
 30
0.000000
  0
VERTEX
  8
MERGEDLAYER-1
 10
39.984443
 20
118.364583
 30
0.000000
  0
VERTEX
  8
MERGEDLAYER-1
 10
39.984443
 20
117.697917
 30
0.000000
  0
VERTEX
  8
MERGEDLAYER-1
 10
39.984443
 20
117.031250
 30
0.000000
  0
VERTEX
  8
MERGEDLAYER-1
 10
38.873332
 20
117.697917
 30
0.000000
  0
SEQEND
  8
MERGEDLAYER-1
  0
TEXT
  8
MERGEDLAYER-1
 62
  7
 10
45.162244
 20
119.583252
 30
0.000000
 40
1.666667
  1
 
  0
POLYLINE
  8
MERGEDLAYER-1
  6
LTYPE05
 66
  1
 70
  0
 62
  7
  6
LTYPE05
 10
50.047770
 20
186.612278
 30
0.000000
  0
VERTEX
  8
MERGEDLAYER-1
  6
LTYPE05
 10
50.047770
 20
186.612278
 30
0.000000
  0
VERTEX
  8
MERGEDLAYER-1
  6
LTYPE05
 10
50.047770
 20
121.202379
 30
0.000000
  0
SEQEND
  8
MERGEDLAYER-1
  0
TEXT
  8
MERGEDLAYER-1
 62
  7
 10
38.762247
 20
111.772135
 30
0.000000
 40
2.500000
  1
1-1/8"
 72
  5
 11
48.317802
 21
111.772135
 31
0.000000
  0
TEXT
  8
MERGEDLAYER-1
 62
  7
 10
37.206691
 20
107.994358
 30
0.000000
 40
2.500000
  1
(29mm)
 72
  5
 11
49.873358
 21
107.994358
 31
0.000000
  0
POLYLINE
  8
MERGEDLAYER-1
 66
  1
 70
  0
 62
  7
 10
43.108575
 20
134.620660
 30
0.000000
  0
VERTEX
  8
MERGEDLAYER-1
 10
43.108575
 20
134.620660
 30
0.000000
  0
VERTEX
  8
MERGEDLAYER-1
 10
43.116336
 20
134.380263
 30
0.000000
  0
VERTEX
  8
MERGEDLAYER-1
 10
43.280823
 20
134.134087
 30
0.000000
  0
VERTEX
  8
MERGEDLAYER-1
 10
43.526998
 20
133.969591
 30
0.000000
  0
VERTEX
  8
MERGEDLAYER-1
 10
43.867384
 20
133.861844
 30
0.000000
  0
SEQEND
  8
MERGEDLAYER-1
  0
POLYLINE
  8
MERGEDLAYER-1
 66
  1
 70
  0
 62
  7
 10
43.873328
 20
133.861911
 30
0.000000
  0
VERTEX
  8
MERGEDLAYER-1
 10
43.873328
 20
133.861911
 30
0.000000
  0
VERTEX
  8
MERGEDLAYER-1
 10
43.867384
 20
133.861911
 30
0.000000
  0
SEQEND
  8
MERGEDLAYER-1
  0
POLYLINE
  8
MERGEDLAYER-1
 66
  1
 70
  0
 62
  7
 10
43.873328
 20
146.100694
 30
0.000000
  0
VERTEX
  8
MERGEDLAYER-1
 10
43.873328
 20
146.100694
 30
0.000000
  0
VERTEX
  8
MERGEDLAYER-1
 10
43.873328
 20
133.861911
 30
0.000000
  0
SEQEND
  8
MERGEDLAYER-1
  0
POLYLINE
  8
MERGEDLAYER-1
 66
  1
 70
  0
 62
  7
 10
43.873328
 20
146.100694
 30
0.000000
  0
VERTEX
  8
MERGEDLAYER-1
 10
43.873328
 20
146.100694
 30
0.000000
  0
VERTEX
  8
MERGEDLAYER-1
 10
43.867384
 20
146.100694
 30
0.000000
  0
SEQEND
  8
MERGEDLAYER-1
  0
POLYLINE
  8
MERGEDLAYER-1
 66
  1
 70
  0
 62
  7
 10
43.867384
 20
146.100722
 30
0.000000
  0
VERTEX
  8
MERGEDLAYER-1
 10
43.867384
 20
146.100722
 30
0.000000
  0
VERTEX
  8
MERGEDLAYER-1
 10
43.526998
 20
146.092963
 30
0.000000
  0
VERTEX
  8
MERGEDLAYER-1
 10
43.280823
 20
145.928467
 30
0.000000
  0
VERTEX
  8
MERGEDLAYER-1
 10
43.116336
 20
145.682305
 30
0.000000
  0
VERTEX
  8
MERGEDLAYER-1
 10
43.108575
 20
145.341905
 30
0.000000
  0
SEQEND
  8
MERGEDLAYER-1
  0
POLYLINE
  8
MERGEDLAYER-1
 66
  1
 70
  0
 62
  7
 10
43.108395
 20
145.341905
 30
0.000000
  0
VERTEX
  8
MERGEDLAYER-1
 10
43.108395
 20
145.341905
 30
0.000000
  0
VERTEX
  8
MERGEDLAYER-1
 10
43.108395
 20
134.620660
 30
0.000000
  0
SEQEND
  8
MERGEDLAYER-1
  0
POLYLINE
  8
MERGEDLAYER-1
  6
LTYPE01
 66
  1
 70
  1
 62
  7
  0
VERTEX
  8
MERGEDLAYER-1
  6
LTYPE01
 10
120.239421
 20
111.416999
 30
0.000000
  0
VERTEX
  8
MERGEDLAYER-1
  6
LTYPE01
 10
122.679403
 20
111.416999
 30
0.000000
  0
VERTEX
  8
MERGEDLAYER-1
  6
LTYPE01
 10
122.679403
 20
105.098178
 30
0.000000
  0
VERTEX
  8
MERGEDLAYER-1
  6
LTYPE01
 10
120.239421
 20
105.098178
 30
0.000000
  0
SEQEND
  8
MERGEDLAYER-1
  0
CIRCLE
  8
MERGEDLAYER-1
 62
  7
 10
121.508341
 20
108.980903
 30
0.000000
 40
0.375000
  0
POLYLINE
  8
MERGEDLAYER-1
 66
  1
 70
  0
 62
  7
 10
119.601156
 20
110.348083
 30
0.000000
  0
VERTEX
  8
MERGEDLAYER-1
 10
119.601156
 20
110.348083
 30
0.000000
  0
VERTEX
  8
MERGEDLAYER-1
 10
119.423557
 20
110.348083
 30
0.000000
  0
SEQEND
  8
MERGEDLAYER-1
  0
POLYLINE
  8
MERGEDLAYER-1
 66
  1
 70
  0
 62
  7
 10
119.423557
 20
110.348083
 30
0.000000
  0
VERTEX
  8
MERGEDLAYER-1
 10
119.423557
 20
110.348083
 30
0.000000
  0
VERTEX
  8
MERGEDLAYER-1
 10
119.423557
 20
107.462151
 30
0.000000
  0
SEQEND
  8
MERGEDLAYER-1
  0
POLYLINE
  8
MERGEDLAYER-1
 66
  1
 70
  0
 62
  7
 10
119.423557
 20
107.462151
 30
0.000000
  0
VERTEX
  8
MERGEDLAYER-1
 10
119.423557
 20
107.462151
 30
0.000000
  0
VERTEX
  8
MERGEDLAYER-1
 10
119.601156
 20
107.462151
 30
0.000000
  0
SEQEND
  8
MERGEDLAYER-1
  0
POLYLINE
  8
MERGEDLAYER-1
 66
  1
 70
  0
 62
  7
 10
119.601156
 20
107.462151
 30
0.000000
  0
VERTEX
  8
MERGEDLAYER-1
 10
119.601156
 20
107.462151
 30
0.000000
  0
VERTEX
  8
MERGEDLAYER-1
 10
119.601156
 20
110.348083
 30
0.000000
  0
SEQEND
  8
MERGEDLAYER-1
  0
POLYLINE
  8
MERGEDLAYER-1
 66
  1
 70
  0
 62
  7
 10
119.201579
 20
110.199965
 30
0.000000
  0
VERTEX
  8
MERGEDLAYER-1
 10
119.201579
 20
110.199965
 30
0.000000
  0
VERTEX
  8
MERGEDLAYER-1
 10
119.201579
 20
107.610291
 30
0.000000
  0
SEQEND
  8
MERGEDLAYER-1
  0
POLYLINE
  8
MERGEDLAYER-1
 66
  1
 70
  0
 62
  7
 10
119.157172
 20
108.966288
 30
0.000000
  0
VERTEX
  8
MERGEDLAYER-1
 10
119.157172
 20
108.966288
 30
0.000000
  0
VERTEX
  8
MERGEDLAYER-1
 10
119.157172
 20
107.815335
 30
0.000000
  0
SEQEND
  8
MERGEDLAYER-1
  0
POLYLINE
  8
MERGEDLAYER-1
 66
  1
 70
  0
 62
  7
 10
119.201579
 20
110.199965
 30
0.000000
  0
VERTEX
  8
MERGEDLAYER-1
 10
119.201579
 20
110.199965
 30
0.000000
  0
VERTEX
  8
MERGEDLAYER-1
 10
119.423557
 20
110.348083
 30
0.000000
  0
SEQEND
  8
MERGEDLAYER-1
  0
POLYLINE
  8
MERGEDLAYER-1
 66
  1
 70
  0
 62
  7
 10
119.201579
 20
107.610291
 30
0.000000
  0
VERTEX
  8
MERGEDLAYER-1
 10
119.201579
 20
107.610291
 30
0.000000
  0
VERTEX
  8
MERGEDLAYER-1
 10
119.423557
 20
107.462151
 30
0.000000
  0
SEQEND
  8
MERGEDLAYER-1
  0
POLYLINE
  8
MERGEDLAYER-1
 66
  1
 70
  0
 62
  7
 10
119.157172
 20
108.966288
 30
0.000000
  0
VERTEX
  8
MERGEDLAYER-1
 10
119.157172
 20
108.966288
 30
0.000000
  0
VERTEX
  8
MERGEDLAYER-1
 10
119.201579
 20
108.966288
 30
0.000000
  0
SEQEND
  8
MERGEDLAYER-1
  0
POLYLINE
  8
MERGEDLAYER-1
 66
  1
 70
  0
 62
  7
 10
119.157172
 20
107.815335
 30
0.000000
  0
VERTEX
  8
MERGEDLAYER-1
 10
119.157172
 20
107.815335
 30
0.000000
  0
VERTEX
  8
MERGEDLAYER-1
 10
119.201579
 20
107.815335
 30
0.000000
  0
SEQEND
  8
MERGEDLAYER-1
  0
POLYLINE
  8
MERGEDLAYER-1
 66
  1
 70
  1
 62
  7
  0
VERTEX
  8
MERGEDLAYER-1
 10
119.602363
 20
110.357646
 30
0.000000
  0
VERTEX
  8
MERGEDLAYER-1
 10
119.821872
 20
110.357646
 30
0.000000
  0
VERTEX
  8
MERGEDLAYER-1
 10
119.821872
 20
107.416714
 30
0.000000
  0
VERTEX
  8
MERGEDLAYER-1
 10
119.602363
 20
107.416714
 30
0.000000
  0
SEQEND
  8
MERGEDLAYER-1
  0
POLYLINE
  8
MERGEDLAYER-1
 66
  1
 70
  0
 62
  7
 10
119.903822
 20
110.397400
 30
0.000000
  0
VERTEX
  8
MERGEDLAYER-1
 10
119.903822
 20
110.397400
 30
0.000000
  0
VERTEX
  8
MERGEDLAYER-1
 10
120.029677
 20
110.397400
 30
0.000000
  0
SEQEND
  8
MERGEDLAYER-1
  0
POLYLINE
  8
MERGEDLAYER-1
 66
  1
 70
  0
 62
  7
 10
119.903822
 20
110.397407
 30
0.000000
  0
VERTEX
  8
MERGEDLAYER-1
 10
119.903822
 20
110.397407
 30
0.000000
  0
VERTEX
  8
MERGEDLAYER-1
 10
119.819919
 20
110.313504
 30
0.000000
  0
SEQEND
  8
MERGEDLAYER-1
  0
POLYLINE
  8
MERGEDLAYER-1
 66
  1
 70
  0
 62
  7
 10
119.819906
 20
110.313504
 30
0.000000
  0
VERTEX
  8
MERGEDLAYER-1
 10
119.819906
 20
110.313504
 30
0.000000
  0
VERTEX
  8
MERGEDLAYER-1
 10
119.819906
 20
107.460843
 30
0.000000
  0
SEQEND
  8
MERGEDLAYER-1
  0
POLYLINE
  8
MERGEDLAYER-1
 66
  1
 70
  0
 62
  7
 10
119.819919
 20
107.460843
 30
0.000000
  0
VERTEX
  8
MERGEDLAYER-1
 10
119.819919
 20
107.460843
 30
0.000000
  0
VERTEX
  8
MERGEDLAYER-1
 10
119.903822
 20
107.376940
 30
0.000000
  0
SEQEND
  8
MERGEDLAYER-1
  0
POLYLINE
  8
MERGEDLAYER-1
 66
  1
 70
  0
 62
  7
 10
119.903822
 20
107.376946
 30
0.000000
  0
VERTEX
  8
MERGEDLAYER-1
 10
119.903822
 20
107.376946
 30
0.000000
  0
VERTEX
  8
MERGEDLAYER-1
 10
120.029677
 20
107.376946
 30
0.000000
  0
SEQEND
  8
MERGEDLAYER-1
  0
POLYLINE
  8
MERGEDLAYER-1
 66
  1
 70
  0
 62
  7
 10
120.197483
 20
107.209134
 30
0.000000
  0
VERTEX
  8
MERGEDLAYER-1
 10
120.197483
 20
107.209134
 30
0.000000
  0
VERTEX
  8
MERGEDLAYER-1
 10
120.029677
 20
107.376940
 30
0.000000
  0
SEQEND
  8
MERGEDLAYER-1
  0
POLYLINE
  8
MERGEDLAYER-1
 66
  1
 70
  0
 62
  7
 10
120.197469
 20
107.209134
 30
0.000000
  0
VERTEX
  8
MERGEDLAYER-1
 10
120.197469
 20
107.209134
 30
0.000000
  0
VERTEX
  8
MERGEDLAYER-1
 10
120.239421
 20
107.209134
 30
0.000000
  0
SEQEND
  8
MERGEDLAYER-1
  0
POLYLINE
  8
MERGEDLAYER-1
 66
  1
 70
  0
 62
  7
 10
120.239421
 20
107.209134
 30
0.000000
  0
VERTEX
  8
MERGEDLAYER-1
 10
120.239421
 20
107.209134
 30
0.000000
  0
VERTEX
  8
MERGEDLAYER-1
 10
120.239421
 20
110.565213
 30
0.000000
  0
SEQEND
  8
MERGEDLAYER-1
  0
POLYLINE
  8
MERGEDLAYER-1
 66
  1
 70
  0
 62
  7
 10
120.239421
 20
110.565213
 30
0.000000
  0
VERTEX
  8
MERGEDLAYER-1
 10
120.239421
 20
110.565213
 30
0.000000
  0
VERTEX
  8
MERGEDLAYER-1
 10
120.197469
 20
110.565213
 30
0.000000
  0
SEQEND
  8
MERGEDLAYER-1
  0
POLYLINE
  8
MERGEDLAYER-1
 66
  1
 70
  0
 62
  7
 10
120.197469
 20
110.565213
 30
0.000000
  0
VERTEX
  8
MERGEDLAYER-1
 10
120.197469
 20
110.565213
 30
0.000000
  0
VERTEX
  8
MERGEDLAYER-1
 10
120.197469
 20
110.565213
 30
0.000000
  0
SEQEND
  8
MERGEDLAYER-1
  0
POLYLINE
  8
MERGEDLAYER-1
 66
  1
 70
  0
 62
  7
 10
120.029677
 20
110.397407
 30
0.000000
  0
VERTEX
  8
MERGEDLAYER-1
 10
120.029677
 20
110.397407
 30
0.000000
  0
VERTEX
  8
MERGEDLAYER-1
 10
120.197483
 20
110.565213
 30
0.000000
  0
SEQEND
  8
MERGEDLAYER-1
  0
POLYLINE
  8
MERGEDLAYER-1
 66
  1
 70
  0
 62
  7
 10
120.197469
 20
110.565213
 30
0.000000
  0
VERTEX
  8
MERGEDLAYER-1
 10
120.197469
 20
110.565213
 30
0.000000
  0
VERTEX
  8
MERGEDLAYER-1
 10
120.197469
 20
107.209134
 30
0.000000
  0
SEQEND
  8
MERGEDLAYER-1
  0
POLYLINE
  8
MERGEDLAYER-1
 66
  1
 70
  0
 62
  7
 10
120.197469
 20
107.209134
 30
0.000000
  0
VERTEX
  8
MERGEDLAYER-1
 10
120.197469
 20
107.209134
 30
0.000000
  0
VERTEX
  8
MERGEDLAYER-1
 10
120.197469
 20
107.209134
 30
0.000000
  0
SEQEND
  8
MERGEDLAYER-1
  0
POLYLINE
  8
MERGEDLAYER-1
 66
  1
 70
  0
 62
  7
 10
124.261895
 20
112.238369
 30
0.000000
  0
VERTEX
  8
MERGEDLAYER-1
 10
124.261895
 20
112.238369
 30
0.000000
  0
VERTEX
  8
MERGEDLAYER-1
 10
124.261895
 20
109.488369
 30
0.000000
  0
SEQEND
  8
MERGEDLAYER-1
  0
POLYLINE
  8
MERGEDLAYER-1
 66
  1
 70
  1
 62
  7
  0
VERTEX
  8
MERGEDLAYER-1
 10
124.261895
 20
108.988369
 30
0.000000
  0
VERTEX
  8
MERGEDLAYER-1
 10
123.595228
 20
110.099481
 30
0.000000
  0
VERTEX
  8
MERGEDLAYER-1
 10
124.261895
 20
110.099481
 30
0.000000
  0
VERTEX
  8
MERGEDLAYER-1
 10
124.928562
 20
110.099481
 30
0.000000
  0
VERTEX
  8
MERGEDLAYER-1
 10
124.261895
 20
108.988369
 30
0.000000
  0
SEQEND
  8
MERGEDLAYER-1
  0
POLYLINE
  8
MERGEDLAYER-1
 66
  1
 70
  0
 62
  7
 10
123.261895
 20
108.988369
 30
0.000000
  0
VERTEX
  8
MERGEDLAYER-1
 10
123.261895
 20
108.988369
 30
0.000000
  0
VERTEX
  8
MERGEDLAYER-1
 10
126.886895
 20
108.988369
 30
0.000000
  0
SEQEND
  8
MERGEDLAYER-1
  0
POLYLINE
  8
MERGEDLAYER-1
  6
LTYPE01
 66
  1
 70
  1
 62
  7
  0
VERTEX
  8
MERGEDLAYER-1
  6
LTYPE01
 10
124.875936
 20
51.249580
 30
0.000000
  0
VERTEX
  8
MERGEDLAYER-1
  6
LTYPE01
 10
138.860311
 20
51.249580
 30
0.000000
  0
VERTEX
  8
MERGEDLAYER-1
  6
LTYPE01
 10
138.860311
 20
49.960517
 30
0.000000
  0
VERTEX
  8
MERGEDLAYER-1
  6
LTYPE01
 10
124.875936
 20
49.960517
 30
0.000000
  0
SEQEND
  8
MERGEDLAYER-1
  0
POLYLINE
  8
MERGEDLAYER-1
 66
  1
 70
  0
 62
  7
 10
100.234463
 20
52.855482
 30
0.000000
  0
VERTEX
  8
MERGEDLAYER-1
 10
100.234463
 20
52.855482
 30
0.000000
  0
VERTEX
  8
MERGEDLAYER-1
 10
100.234463
 20
53.288194
 30
0.000000
  0
SEQEND
  8
MERGEDLAYER-1
  0
POLYLINE
  8
MERGEDLAYER-1
 66
  1
 70
  0
 62
  7
 10
100.234463
 20
53.288194
 30
0.000000
  0
VERTEX
  8
MERGEDLAYER-1
 10
100.234463
 20
53.288194
 30
0.000000
  0
VERTEX
  8
MERGEDLAYER-1
 10
93.202827
 20
53.288194
 30
0.000000
  0
SEQEND
  8
MERGEDLAYER-1
  0
POLYLINE
  8
MERGEDLAYER-1
 66
  1
 70
  0
 62
  7
 10
93.202827
 20
53.288194
 30
0.000000
  0
VERTEX
  8
MERGEDLAYER-1
 10
93.202827
 20
53.288194
 30
0.000000
  0
VERTEX
  8
MERGEDLAYER-1
 10
93.202827
 20
52.855482
 30
0.000000
  0
SEQEND
  8
MERGEDLAYER-1
  0
POLYLINE
  8
MERGEDLAYER-1
 66
  1
 70
  0
 62
  7
 10
93.202827
 20
52.855482
 30
0.000000
  0
VERTEX
  8
MERGEDLAYER-1
 10
93.202827
 20
52.855482
 30
0.000000
  0
VERTEX
  8
MERGEDLAYER-1
 10
100.234463
 20
52.855482
 30
0.000000
  0
SEQEND
  8
MERGEDLAYER-1
  0
POLYLINE
  8
MERGEDLAYER-1
 66
  1
 70
  0
 62
  7
 10
99.873549
 20
53.829088
 30
0.000000
  0
VERTEX
  8
MERGEDLAYER-1
 10
99.873549
 20
53.829088
 30
0.000000
  0
VERTEX
  8
MERGEDLAYER-1
 10
93.563775
 20
53.829088
 30
0.000000
  0
SEQEND
  8
MERGEDLAYER-1
  0
POLYLINE
  8
MERGEDLAYER-1
 66
  1
 70
  0
 62
  7
 10
96.867683
 20
53.937269
 30
0.000000
  0
VERTEX
  8
MERGEDLAYER-1
 10
96.867683
 20
53.937269
 30
0.000000
  0
VERTEX
  8
MERGEDLAYER-1
 10
94.063375
 20
53.937269
 30
0.000000
  0
SEQEND
  8
MERGEDLAYER-1
  0
POLYLINE
  8
MERGEDLAYER-1
 66
  1
 70
  0
 62
  7
 10
99.873549
 20
53.829088
 30
0.000000
  0
VERTEX
  8
MERGEDLAYER-1
 10
99.873549
 20
53.829088
 30
0.000000
  0
VERTEX
  8
MERGEDLAYER-1
 10
100.234463
 20
53.288194
 30
0.000000
  0
SEQEND
  8
MERGEDLAYER-1
  0
POLYLINE
  8
MERGEDLAYER-1
 66
  1
 70
  0
 62
  7
 10
93.563775
 20
53.829088
 30
0.000000
  0
VERTEX
  8
MERGEDLAYER-1
 10
93.563775
 20
53.829088
 30
0.000000
  0
VERTEX
  8
MERGEDLAYER-1
 10
93.202827
 20
53.288194
 30
0.000000
  0
SEQEND
  8
MERGEDLAYER-1
  0
POLYLINE
  8
MERGEDLAYER-1
 66
  1
 70
  0
 62
  7
 10
96.867683
 20
53.937269
 30
0.000000
  0
VERTEX
  8
MERGEDLAYER-1
 10
96.867683
 20
53.937269
 30
0.000000
  0
VERTEX
  8
MERGEDLAYER-1
 10
96.867683
 20
53.829088
 30
0.000000
  0
SEQEND
  8
MERGEDLAYER-1
  0
POLYLINE
  8
MERGEDLAYER-1
 66
  1
 70
  0
 62
  7
 10
94.063375
 20
53.937269
 30
0.000000
  0
VERTEX
  8
MERGEDLAYER-1
 10
94.063375
 20
53.937269
 30
0.000000
  0
VERTEX
  8
MERGEDLAYER-1
 10
94.063375
 20
53.829088
 30
0.000000
  0
SEQEND
  8
MERGEDLAYER-1
  0
POLYLINE
  8
MERGEDLAYER-1
 66
  1
 70
  1
 62
  7
  0
VERTEX
  8
MERGEDLAYER-1
 10
100.257751
 20
52.852525
 30
0.000000
  0
VERTEX
  8
MERGEDLAYER-1
 10
100.257751
 20
52.317695
 30
0.000000
  0
VERTEX
  8
MERGEDLAYER-1
 10
93.092109
 20
52.317695
 30
0.000000
  0
VERTEX
  8
MERGEDLAYER-1
 10
93.092109
 20
52.852525
 30
0.000000
  0
SEQEND
  8
MERGEDLAYER-1
  0
POLYLINE
  8
MERGEDLAYER-1
 66
  1
 70
  0
 62
  7
 10
100.354628
 20
52.118069
 30
0.000000
  0
VERTEX
  8
MERGEDLAYER-1
 10
100.354628
 20
52.118069
 30
0.000000
  0
VERTEX
  8
MERGEDLAYER-1
 10
100.354628
 20
51.811415
 30
0.000000
  0
SEQEND
  8
MERGEDLAYER-1
  0
POLYLINE
  8
MERGEDLAYER-1
 66
  1
 70
  0
 62
  7
 10
100.354641
 20
52.118069
 30
0.000000
  0
VERTEX
  8
MERGEDLAYER-1
 10
100.354641
 20
52.118069
 30
0.000000
  0
VERTEX
  8
MERGEDLAYER-1
 10
100.150208
 20
52.322496
 30
0.000000
  0
SEQEND
  8
MERGEDLAYER-1
  0
POLYLINE
  8
MERGEDLAYER-1
 66
  1
 70
  0
 62
  7
 10
100.150208
 20
52.322483
 30
0.000000
  0
VERTEX
  8
MERGEDLAYER-1
 10
100.150208
 20
52.322483
 30
0.000000
  0
VERTEX
  8
MERGEDLAYER-1
 10
93.199639
 20
52.322483
 30
0.000000
  0
SEQEND
  8
MERGEDLAYER-1
  0
POLYLINE
  8
MERGEDLAYER-1
 66
  1
 70
  0
 62
  7
 10
93.199639
 20
52.322496
 30
0.000000
  0
VERTEX
  8
MERGEDLAYER-1
 10
93.199639
 20
52.322496
 30
0.000000
  0
VERTEX
  8
MERGEDLAYER-1
 10
92.995212
 20
52.118069
 30
0.000000
  0
SEQEND
  8
MERGEDLAYER-1
  0
POLYLINE
  8
MERGEDLAYER-1
 66
  1
 70
  0
 62
  7
 10
92.995212
 20
52.118069
 30
0.000000
  0
VERTEX
  8
MERGEDLAYER-1
 10
92.995212
 20
52.118069
 30
0.000000
  0
VERTEX
  8
MERGEDLAYER-1
 10
92.995212
 20
51.811415
 30
0.000000
  0
SEQEND
  8
MERGEDLAYER-1
  0
POLYLINE
  8
MERGEDLAYER-1
 66
  1
 70
  0
 62
  7
 10
92.586338
 20
51.402561
 30
0.000000
  0
VERTEX
  8
MERGEDLAYER-1
 10
92.586338
 20
51.402561
 30
0.000000
  0
VERTEX
  8
MERGEDLAYER-1
 10
92.825439
 20
51.572306
 30
0.000000
  0
VERTEX
  8
MERGEDLAYER-1
 10
92.995199
 20
51.811415
 30
0.000000
  0
SEQEND
  8
MERGEDLAYER-1
  0
POLYLINE
  8
MERGEDLAYER-1
 66
  1
 70
  0
 62
  7
 10
92.586338
 20
51.402547
 30
0.000000
  0
VERTEX
  8
MERGEDLAYER-1
 10
92.586338
 20
51.402547
 30
0.000000
  0
VERTEX
  8
MERGEDLAYER-1
 10
92.586338
 20
51.300347
 30
0.000000
  0
SEQEND
  8
MERGEDLAYER-1
  0
POLYLINE
  8
MERGEDLAYER-1
 66
  1
 70
  0
 62
  7
 10
92.586338
 20
51.300347
 30
0.000000
  0
VERTEX
  8
MERGEDLAYER-1
 10
92.586338
 20
51.300347
 30
0.000000
  0
VERTEX
  8
MERGEDLAYER-1
 10
100.763516
 20
51.300347
 30
0.000000
  0
SEQEND
  8
MERGEDLAYER-1
  0
POLYLINE
  8
MERGEDLAYER-1
 66
  1
 70
  0
 62
  7
 10
100.763516
 20
51.300347
 30
0.000000
  0
VERTEX
  8
MERGEDLAYER-1
 10
100.763516
 20
51.300347
 30
0.000000
  0
VERTEX
  8
MERGEDLAYER-1
 10
100.763516
 20
51.402547
 30
0.000000
  0
SEQEND
  8
MERGEDLAYER-1
  0
POLYLINE
  8
MERGEDLAYER-1
 66
  1
 70
  0
 62
  7
 10
100.763516
 20
51.402547
 30
0.000000
  0
VERTEX
  8
MERGEDLAYER-1
 10
100.763516
 20
51.402547
 30
0.000000
  0
VERTEX
  8
MERGEDLAYER-1
 10
100.763516
 20
51.402547
 30
0.000000
  0
SEQEND
  8
MERGEDLAYER-1
  0
POLYLINE
  8
MERGEDLAYER-1
 66
  1
 70
  0
 62
  7
 10
100.354655
 20
51.811415
 30
0.000000
  0
VERTEX
  8
MERGEDLAYER-1
 10
100.354655
 20
51.811415
 30
0.000000
  0
VERTEX
  8
MERGEDLAYER-1
 10
100.424405
 20
51.572306
 30
0.000000
  0
VERTEX
  8
MERGEDLAYER-1
 10
100.763516
 20
51.402547
 30
0.000000
  0
SEQEND
  8
MERGEDLAYER-1
  0
POLYLINE
  8
MERGEDLAYER-1
 66
  1
 70
  0
 62
  7
 10
100.763516
 20
51.402547
 30
0.000000
  0
VERTEX
  8
MERGEDLAYER-1
 10
100.763516
 20
51.402547
 30
0.000000
  0
VERTEX
  8
MERGEDLAYER-1
 10
92.586338
 20
51.402547
 30
0.000000
  0
SEQEND
  8
MERGEDLAYER-1
  0
POLYLINE
  8
MERGEDLAYER-1
 66
  1
 70
  0
 62
  7
 10
92.586338
 20
51.402547
 30
0.000000
  0
VERTEX
  8
MERGEDLAYER-1
 10
92.586338
 20
51.402547
 30
0.000000
  0
VERTEX
  8
MERGEDLAYER-1
 10
92.586338
 20
51.402547
 30
0.000000
  0
SEQEND
  8
MERGEDLAYER-1
  0
POLYLINE
  8
MERGEDLAYER-1
  6
LTYPE01
 66
  1
 70
  1
 62
  7
  0
VERTEX
  8
MERGEDLAYER-1
  6
LTYPE01
 10
54.042616
 20
51.249580
 30
0.000000
  0
VERTEX
  8
MERGEDLAYER-1
  6
LTYPE01
 10
68.026991
 20
51.249580
 30
0.000000
  0
VERTEX
  8
MERGEDLAYER-1
  6
LTYPE01
 10
68.026991
 20
49.960517
 30
0.000000
  0
VERTEX
  8
MERGEDLAYER-1
  6
LTYPE01
 10
54.042616
 20
49.960517
 30
0.000000
  0
SEQEND
  8
MERGEDLAYER-1
  0
TEXT
  8
MERGEDLAYER-1
 62
  7
 10
195.651136
 20
83.327691
 30
0.000000
 40
2.500000
  1
CLIENT:
 72
  5
 11
209.873358
 21
83.327691
 31
0.000000
  0
POLYLINE
  8
MERGEDLAYER-1
 66
  1
 70
  0
 62
  7
 10
216.936781
 20
81.995348
 30
0.000000
  0
VERTEX
  8
MERGEDLAYER-1
 10
216.936781
 20
81.995348
 30
0.000000
  0
VERTEX
  8
MERGEDLAYER-1
 10
270.068359
 20
81.988946
 30
0.000000
  0
SEQEND
  8
MERGEDLAYER-1
  0
TEXT
  8
MERGEDLAYER-1
 62
  7
 10
195.651136
 20
76.438802
 30
0.000000
 40
2.500000
  1
PROJET:
 72
  5
 11
211.206691
 21
76.438802
 31
0.000000
  0
TEXT
  8
MERGEDLAYER-1
 62
  7
 10
195.651136
 20
69.327691
 30
0.000000
 40
2.500000
  1
ENDROIT:
 72
  5
 11
212.984469
 21
69.327691
 31
0.000000
  0
TEXT
  8
MERGEDLAYER-1
 62
  7
 10
195.873358
 20
62.438802
 30
0.000000
 40
2.500000
  1
VILLE:
 72
  5
 11
206.984469
 21
62.438802
 31
0.000000
  0
TEXT
  8
MERGEDLAYER-1
 62
  7
 10
195.873358
 20
55.327691
 30
0.000000
 40
2.500000
  1
MODéLE:
 72
  5
 11
212.317802
 21
55.327691
 31
0.000000
  0
TEXT
  8
MERGEDLAYER-1
 62
  7
 10
195.873358
 20
48.438802
 30
0.000000
 40
2.500000
  1
FINI:
 72
  5
 11
204.095580
 21
48.438802
 31
0.000000
  0
TEXT
  8
MERGEDLAYER-1
 62
  7
 10
195.873358
 20
41.327691
 30
0.000000
 40
2.500000
  1
DATE:
 72
  5
 11
206.762247
 21
41.327691
 31
0.000000
  0
TEXT
  8
MERGEDLAYER-1
 62
  7
 10
240.984469
 20
41.327691
 30
0.000000
 40
2.500000
  1
NO:
 72
  5
 11
248.095580
 21
41.327691
 31
0.000000
  0
POLYLINE
  8
MERGEDLAYER-1
 66
  1
 70
  0
 62
  7
 10
193.290202
 20
89.002672
 30
0.000000
  0
VERTEX
  8
MERGEDLAYER-1
 10
193.290202
 20
89.002672
 30
0.000000
  0
VERTEX
  8
MERGEDLAYER-1
 10
270.075928
 20
89.002672
 30
0.000000
  0
SEQEND
  8
MERGEDLAYER-1
  0
POLYLINE
  8
MERGEDLAYER-1
 66
  1
 70
  0
 62
  7
 10
193.290202
 20
32.920302
 30
0.000000
  0
VERTEX
  8
MERGEDLAYER-1
 10
193.290202
 20
32.920302
 30
0.000000
  0
VERTEX
  8
MERGEDLAYER-1
 10
270.075928
 20
32.920302
 30
0.000000
  0
SEQEND
  8
MERGEDLAYER-1
  0
TEXT
  8
MERGEDLAYER-1
 62
  7
 10
195.873358
 20
34.438802
 30
0.000000
 40
2.500000
  1
DATE D'EXPƒDITION:
 72
  5
 11
231.428914
 21
34.438802
 31
0.000000
  0
POLYLINE
  8
MERGEDLAYER-1
 66
  1
 70
  0
 62
  7
 10
216.936781
 20
74.988024
 30
0.000000
  0
VERTEX
  8
MERGEDLAYER-1
 10
216.936781
 20
74.988024
 30
0.000000
  0
VERTEX
  8
MERGEDLAYER-1
 10
270.068359
 20
74.981622
 30
0.000000
  0
SEQEND
  8
MERGEDLAYER-1
  0
POLYLINE
  8
MERGEDLAYER-1
 66
  1
 70
  0
 62
  7
 10
216.936781
 20
67.980699
 30
0.000000
  0
VERTEX
  8
MERGEDLAYER-1
 10
216.936781
 20
67.980699
 30
0.000000
  0
VERTEX
  8
MERGEDLAYER-1
 10
270.068359
 20
67.974297
 30
0.000000
  0
SEQEND
  8
MERGEDLAYER-1
  0
POLYLINE
  8
MERGEDLAYER-1
 66
  1
 70
  0
 62
  7
 10
216.936781
 20
60.973375
 30
0.000000
  0
VERTEX
  8
MERGEDLAYER-1
 10
216.936781
 20
60.973375
 30
0.000000
  0
VERTEX
  8
MERGEDLAYER-1
 10
270.068359
 20
60.966973
 30
0.000000
  0
SEQEND
  8
MERGEDLAYER-1
  0
POLYLINE
  8
MERGEDLAYER-1
 66
  1
 70
  0
 62
  7
 10
216.936781
 20
53.966051
 30
0.000000
  0
VERTEX
  8
MERGEDLAYER-1
 10
216.936781
 20
53.966051
 30
0.000000
  0
VERTEX
  8
MERGEDLAYER-1
 10
270.068359
 20
53.959649
 30
0.000000
  0
SEQEND
  8
MERGEDLAYER-1
  0
POLYLINE
  8
MERGEDLAYER-1
 66
  1
 70
  0
 62
  7
 10
216.936781
 20
46.958727
 30
0.000000
  0
VERTEX
  8
MERGEDLAYER-1
 10
216.936781
 20
46.958727
 30
0.000000
  0
VERTEX
  8
MERGEDLAYER-1
 10
270.068359
 20
46.952379
 30
0.000000
  0
SEQEND
  8
MERGEDLAYER-1
  0
POLYLINE
  8
MERGEDLAYER-1
 66
  1
 70
  0
 62
  7
 10
207.581841
 20
39.951402
 30
0.000000
  0
VERTEX
  8
MERGEDLAYER-1
 10
207.581841
 20
39.951402
 30
0.000000
  0
VERTEX
  8
MERGEDLAYER-1
 10
237.947700
 20
39.903212
 30
0.000000
  0
SEQEND
  8
MERGEDLAYER-1
  0
POLYLINE
  8
MERGEDLAYER-1
 66
  1
 70
  0
 62
  7
 10
248.209717
 20
39.959893
 30
0.000000
  0
VERTEX
  8
MERGEDLAYER-1
 10
248.209717
 20
39.959893
 30
0.000000
  0
VERTEX
  8
MERGEDLAYER-1
 10
270.068359
 20
39.945055
 30
0.000000
  0
SEQEND
  8
MERGEDLAYER-1
  0
TEXT
  8
MERGEDLAYER-1
 62
  7
 10
195.873358
 20
90.216580
 30
0.000000
 40
2.500000
  1
SIGNATURE DU CLIENT
 72
  5
 11
235.428914
 21
90.216580
 31
0.000000
  0
POLYLINE
  8
MERGEDLAYER-1
 66
  1
 70
  0
 62
  7
 10
195.921441
 20
94.090997
 30
0.000000
  0
VERTEX
  8
MERGEDLAYER-1
 10
195.921441
 20
94.090997
 30
0.000000
  0
VERTEX
  8
MERGEDLAYER-1
 10
236.118110
 20
94.090997
 30
0.000000
  0
SEQEND
  8
MERGEDLAYER-1
  0
TEXT
  8
MERGEDLAYER-1
 62
  7
 10
195.873358
 20
95.327691
 30
0.000000
 40
2.500000
  1
x
 72
  5
 11
198.762247
 21
95.327691
 31
0.000000
  0
POLYLINE
  8
MERGEDLAYER-1
 66
  1
 70
  0
 62
  7
 10
193.290202
 20
101.475525
 30
0.000000
  0
VERTEX
  8
MERGEDLAYER-1
 10
193.290202
 20
101.475525
 30
0.000000
  0
VERTEX
  8
MERGEDLAYER-1
 10
270.075928
 20
101.475525
 30
0.000000
  0
SEQEND
  8
MERGEDLAYER-1
  0
TEXT
  8
MERGEDLAYER-1
 62
  7
 10
240.317802
 20
90.438802
 30
0.000000
 40
2.500000
  1
DATE CHANTIER
 72
  5
 11
268.317802
 21
90.438802
 31
0.000000
  0
POLYLINE
  8
MERGEDLAYER-1
 66
  1
 70
  0
 62
  7
 10
240.633925
 20
94.111315
 30
0.000000
  0
VERTEX
  8
MERGEDLAYER-1
 10
240.633925
 20
94.111315
 30
0.000000
  0
VERTEX
  8
MERGEDLAYER-1
 10
270.075928
 20
94.111315
 30
0.000000
  0
SEQEND
  8
MERGEDLAYER-1
  0
TEXT
  8
MERGEDLAYER-1
 62
  7
 10
217.873358
 20
55.549913
 30
0.000000
 40
3.166667
  1
Volet de cabinet
 72
  5
 11
249.428914
 21
55.549913
 31
0.000000
  0
TEXT
  8
MERGEDLAYER-1
 62
  7
 10
217.651136
 20
48.661024
 30
0.000000
 40
3.166667
  1
AnodisŽ naturel
 72
  5
 11
247.873358
 21
48.661024
 31
0.000000
  0
TEXT
  8
MERGEDLAYER-1
 62
 65
 10
227.206691
 20
21.994358
 30
0.000000
 40
6.333333
  1
Mobil
 72
  5
 11
251.873358
 21
21.994358
 31
0.000000
  0
TEXT
  8
MERGEDLAYER-1
 62
  7
 10
251.873358
 20
21.994358
 30
0.000000
 40
6.333333
  1
Flex
 72
  5
 11
269.651136
 21
21.994358
 31
0.000000
  0
POLYLINE
  8
MERGEDLAYER-1
 66
  1
 70
  1
 62
 65
  0
VERTEX
  8
MERGEDLAYER-1
 10
195.185357
 20
20.739339
 30
0.000000
  0
VERTEX
  8
MERGEDLAYER-1
 10
267.617730
 20
20.739339
 30
0.000000
  0
VERTEX
  8
MERGEDLAYER-1
 10
267.617730
 20
19.952922
 30
0.000000
  0
VERTEX
  8
MERGEDLAYER-1
 10
195.185357
 20
19.952922
 30
0.000000
  0
SEQEND
  8
MERGEDLAYER-1
  0
POLYLINE
  8
MERGEDLAYER-1
 66
  1
 70
  1
 62
 65
  0
VERTEX
  8
MERGEDLAYER-1
 10
195.185357
 20
31.484266
 30
0.000000
  0
VERTEX
  8
MERGEDLAYER-1
 10
199.409682
 20
31.484266
 30
0.000000
  0
VERTEX
  8
MERGEDLAYER-1
 10
199.409682
 20
22.181234
 30
0.000000
  0
VERTEX
  8
MERGEDLAYER-1
 10
195.185357
 20
22.181234
 30
0.000000
  0
SEQEND
  8
MERGEDLAYER-1
  0
POLYLINE
  8
MERGEDLAYER-1
 66
  1
 70
  1
 62
 65
  0
VERTEX
  8
MERGEDLAYER-1
 10
200.799818
 20
31.484266
 30
0.000000
  0
VERTEX
  8
MERGEDLAYER-1
 10
205.024089
 20
31.484266
 30
0.000000
  0
VERTEX
  8
MERGEDLAYER-1
 10
205.024089
 20
22.181234
 30
0.000000
  0
VERTEX
  8
MERGEDLAYER-1
 10
200.799818
 20
22.181234
 30
0.000000
  0
SEQEND
  8
MERGEDLAYER-1
  0
POLYLINE
  8
MERGEDLAYER-1
 66
  1
 70
  1
 62
 65
  0
VERTEX
  8
MERGEDLAYER-1
 10
206.205431
 20
31.484266
 30
0.000000
  0
VERTEX
  8
MERGEDLAYER-1
 10
210.429647
 20
31.484266
 30
0.000000
  0
VERTEX
  8
MERGEDLAYER-1
 10
210.429647
 20
22.181234
 30
0.000000
  0
VERTEX
  8
MERGEDLAYER-1
 10
206.205431
 20
22.181234
 30
0.000000
  0
SEQEND
  8
MERGEDLAYER-1
  0
POLYLINE
  8
MERGEDLAYER-1
 66
  1
 70
  1
 62
 65
  0
VERTEX
  8
MERGEDLAYER-1
 10
211.662367
 20
31.484266
 30
0.000000
  0
VERTEX
  8
MERGEDLAYER-1
 10
215.933363
 20
31.484266
 30
0.000000
  0
VERTEX
  8
MERGEDLAYER-1
 10
215.933363
 20
22.181234
 30
0.000000
  0
VERTEX
  8
MERGEDLAYER-1
 10
211.662367
 20
22.181234
 30
0.000000
  0
SEQEND
  8
MERGEDLAYER-1
  0
POLYLINE
  8
MERGEDLAYER-1
 66
  1
 70
  1
 62
 65
  0
VERTEX
  8
MERGEDLAYER-1
 10
217.370958
 20
31.484266
 30
0.000000
  0
VERTEX
  8
MERGEDLAYER-1
 10
224.150350
 20
31.484266
 30
0.000000
  0
VERTEX
  8
MERGEDLAYER-1
 10
224.150350
 20
29.070001
 30
0.000000
  0
VERTEX
  8
MERGEDLAYER-1
 10
217.370958
 20
29.070001
 30
0.000000
  0
SEQEND
  8
MERGEDLAYER-1
  0
POLYLINE
  8
MERGEDLAYER-1
 66
  1
 70
  1
 62
 65
  0
VERTEX
  8
MERGEDLAYER-1
 10
217.366075
 20
27.402425
 30
0.000000
  0
VERTEX
  8
MERGEDLAYER-1
 10
222.979058
 20
27.402425
 30
0.000000
  0
VERTEX
  8
MERGEDLAYER-1
 10
222.979058
 20
24.981133
 30
0.000000
  0
VERTEX
  8
MERGEDLAYER-1
 10
217.366075
 20
24.981133
 30
0.000000
  0
SEQEND
  8
MERGEDLAYER-1
  0
TEXT
  8
MERGEDLAYER-1
 62
  7
 10
194.984469
 20
15.772135
 30
0.000000
 40
2.000000
  1
NEW YORK . TORONTO . QUƒBEC . LONDRES . PARIS
 72
  5
 11
263.651136
 21
15.772135
 31
0.000000
  0
TEXT
  8
MERGEDLAYER-1
 62
  7
 10
194.762247
 20
2.883247
 30
0.000000
 40
2.500000
  1
FAX: 1 418.831.7817
 72
  5
 11
226.095580
 21
2.883247
 31
0.000000
  0
TEXT
  8
MERGEDLAYER-1
 62
  7
 10
235.428914
 20
2.883247
 30
0.000000
 40
2.500000
  1
FAX: 1 800.470.3359
 72
  5
 11
266.762247
 21
2.883247
 31
0.000000
  0
TEXT
  8
MERGEDLAYER-1
 62
  7
 10
194.762247
 20
8.661024
 30
0.000000
 40
2.500000
  1
TEL.:1 418.831.6652
 72
  5
 11
226.317802
 21
8.661024
 31
0.000000
  0
TEXT
  8
MERGEDLAYER-1
 62
  7
 10
235.428914
 20
8.661024
 30
0.000000
 40
2.500000
  1
TEL.:1 800.501.3359
 72
  5
 11
266.984469
 21
8.661024
 31
0.000000
  0
ENDSEC
  0
EOF
