  0
SECTION
  2
HEADER
999
MacDraft 5.0\0
  9
$ACADVER
  1
AC1006
  9
$CLAYER
  8
MERGEDLAYER-1
  9
$EXTMIN
 10
0.000000
 20
0.000000
  9
$EXTMAX
 10
10.642496
 20
8.103984
  9
$FASTZOOM
 70
0
  9
$FILLMODE
 70
1
  0
ENDSEC
  0
SECTION
  2
TABLES
  0
TABLE
  2
LTYPE
 70
16
  0
LTYPE
  2
CONTINUOUS
 70
64
  3
Solid Line
 72
65
 73
0
 40
0.000000
  0
LTYPE
  2
LTYPE01
 70
64
  3
CUSTOM
 72
65
 73
2
 40
0.076923
 49
0.057692
 49
-0.019231
  0
LTYPE
  2
LTYPE02
 70
64
  3
CUSTOM
 72
65
 73
2
 40
0.134615
 49
0.115385
 49
-0.019231
  0
LTYPE
  2
LTYPE03
 70
64
  3
CUSTOM
 72
65
 73
2
 40
0.259615
 49
0.230769
 49
-0.028846
  0
LTYPE
  2
LTYPE04
 70
64
  3
CUSTOM
 72
65
 73
2
 40
0.500000
 49
0.461538
 49
-0.038462
  0
LTYPE
  2
LTYPE05
 70
64
  3
CUSTOM
 72
65
 73
4
 40
0.105769
 49
0.057692
 49
-0.019231
 49
0.009615
 49
-0.019231
  0
LTYPE
  2
LTYPE06
 70
64
  3
CUSTOM
 72
65
 73
4
 40
0.163462
 49
0.115385
 49
-0.019231
 49
0.009615
 49
-0.019231
  0
LTYPE
  2
LTYPE07
 70
64
  3
CUSTOM
 72
65
 73
4
 40
0.307692
 49
0.230769
 49
-0.028846
 49
0.019231
 49
-0.028846
  0
LTYPE
  2
LTYPE08
 70
64
  3
CUSTOM
 72
65
 73
4
 40
0.557692
 49
0.461538
 49
-0.038462
 49
0.019231
 49
-0.038462
  0
LTYPE
  2
LTYPE09
 70
64
  3
CUSTOM
 72
65
 73
6
 40
0.134615
 49
0.057692
 49
-0.019231
 49
0.009615
 49
-0.019231
 49
0.009615
 49
-0.019231
  0
LTYPE
  2
LTYPE10
 70
64
  3
CUSTOM
 72
65
 73
6
 40
0.192308
 49
0.115385
 49
-0.019231
 49
0.009615
 49
-0.019231
 49
0.009615
 49
-0.019231
  0
LTYPE
  2
LTYPE11
 70
64
  3
CUSTOM
 72
65
 73
6
 40
0.346154
 49
0.230769
 49
-0.028846
 49
0.019231
 49
-0.019231
 49
0.019231
 49
-0.028846
  0
LTYPE
  2
LTYPE12
 70
64
  3
CUSTOM
 72
65
 73
6
 40
0.596154
 49
0.461538
 49
-0.038462
 49
0.019231
 49
-0.019231
 49
0.019231
 49
-0.038462
  0
LTYPE
  2
LTYPE13
 70
64
  3
CUSTOM
 72
65
 73
8
 40
0.221154
 49
0.115385
 49
-0.019231
 49
0.009615
 49
-0.019231
 49
0.009615
 49
-0.019231
 49
0.009615
 49
-0.019231
  0
LTYPE
  2
LTYPE14
 70
64
  3
CUSTOM
 72
65
 73
8
 40
0.384615
 49
0.230769
 49
-0.028846
 49
0.019231
 49
-0.019231
 49
0.019231
 49
-0.019231
 49
0.019231
 49
-0.028846
  0
LTYPE
  2
LTYPE15
 70
64
  3
CUSTOM
 72
65
 73
8
 40
0.653846
 49
0.461538
 49
-0.038462
 49
0.019231
 49
-0.028846
 49
0.019231
 49
-0.028846
 49
0.019231
 49
-0.038462
  0
ENDTAB
  0
TABLE
  2
LAYER
 70
1
  0
LAYER
  2
MERGEDLAYER-1
 70
0
 62
7
  6
CONTINUOUS
  0
ENDTAB
  0
ENDSEC
  0
SECTION
  2
BLOCKS
  0
ENDSEC
  0
SECTION
  2
ENTITIES
  0
POLYLINE
  8
MERGEDLAYER-1
 66
  1
 70
  0
 62
  7
 10
0.076923
 20
64.754949
 30
0.000000
  0
VERTEX
  8
MERGEDLAYER-1
 10
0.076923
 20
64.754949
 30
0.000000
  0
VERTEX
  8
MERGEDLAYER-1
 10
0.076923
 20
0.076923
 30
0.000000
  0
SEQEND
  8
MERGEDLAYER-1
  0
TEXT
  8
MERGEDLAYER-1
 62
  7
 10
61.692308
 20
26.081872
 30
0.000000
 40
0.807692
  1
CLIENT:
 72
  5
 11
66.384615
 21
26.081872
 31
0.000000
  0
POLYLINE
  8
MERGEDLAYER-1
 66
  1
 70
  0
 62
  7
 10
68.323331
 20
25.696388
 30
0.000000
  0
VERTEX
  8
MERGEDLAYER-1
 10
68.323331
 20
25.696388
 30
0.000000
  0
VERTEX
  8
MERGEDLAYER-1
 10
85.057692
 20
25.694369
 30
0.000000
  0
SEQEND
  8
MERGEDLAYER-1
  0
TEXT
  8
MERGEDLAYER-1
 62
  7
 10
61.692308
 20
23.928025
 30
0.000000
 40
0.807692
  1
PROJET:
 72
  5
 11
66.769231
 21
23.928025
 31
0.000000
  0
TEXT
  8
MERGEDLAYER-1
 62
  7
 10
61.692308
 20
21.697256
 30
0.000000
 40
0.807692
  1
ENDROIT:
 72
  5
 11
67.307692
 21
21.697256
 31
0.000000
  0
TEXT
  8
MERGEDLAYER-1
 62
  7
 10
61.692308
 20
19.466487
 30
0.000000
 40
0.807692
  1
VILLE:
 72
  5
 11
65.538462
 21
19.466487
 31
0.000000
  0
TEXT
  8
MERGEDLAYER-1
 62
  7
 10
61.692308
 20
17.312641
 30
0.000000
 40
0.807692
  1
MODéLE:
 72
  5
 11
67.076923
 21
17.312641
 31
0.000000
  0
TEXT
  8
MERGEDLAYER-1
 62
  7
 10
61.692308
 20
15.081872
 30
0.000000
 40
0.807692
  1
FINI:
 72
  5
 11
64.538462
 21
15.081872
 31
0.000000
  0
TEXT
  8
MERGEDLAYER-1
 62
  7
 10
61.692308
 20
12.851102
 30
0.000000
 40
0.807692
  1
DATE:
 72
  5
 11
65.384615
 21
12.851102
 31
0.000000
  0
TEXT
  8
MERGEDLAYER-1
 62
  7
 10
75.923077
 20
12.851102
 30
0.000000
 40
0.807692
  1
NO:
 72
  5
 11
78.307692
 21
12.851102
 31
0.000000
  0
POLYLINE
  8
MERGEDLAYER-1
 66
  1
 70
  0
 62
  7
 10
0.076923
 20
64.754949
 30
0.000000
  0
VERTEX
  8
MERGEDLAYER-1
 10
0.076923
 20
64.754949
 30
0.000000
  0
VERTEX
  8
MERGEDLAYER-1
 10
85.060077
 20
64.754949
 30
0.000000
  0
SEQEND
  8
MERGEDLAYER-1
  0
POLYLINE
  8
MERGEDLAYER-1
 66
  1
 70
  0
 62
  7
 10
85.060077
 20
64.754949
 30
0.000000
  0
VERTEX
  8
MERGEDLAYER-1
 10
85.060077
 20
64.754949
 30
0.000000
  0
VERTEX
  8
MERGEDLAYER-1
 10
85.060077
 20
0.076923
 30
0.000000
  0
SEQEND
  8
MERGEDLAYER-1
  0
POLYLINE
  8
MERGEDLAYER-1
 66
  1
 70
  0
 62
  7
 10
0.076923
 20
0.076923
 30
0.000000
  0
VERTEX
  8
MERGEDLAYER-1
 10
0.076923
 20
0.076923
 30
0.000000
  0
VERTEX
  8
MERGEDLAYER-1
 10
85.060077
 20
0.076923
 30
0.000000
  0
SEQEND
  8
MERGEDLAYER-1
  0
POLYLINE
  8
MERGEDLAYER-1
 66
  1
 70
  0
 62
  7
 10
60.875582
 20
27.903417
 30
0.000000
  0
VERTEX
  8
MERGEDLAYER-1
 10
60.875582
 20
27.903417
 30
0.000000
  0
VERTEX
  8
MERGEDLAYER-1
 10
85.060077
 20
27.903417
 30
0.000000
  0
SEQEND
  8
MERGEDLAYER-1
  0
POLYLINE
  8
MERGEDLAYER-1
 66
  1
 70
  0
 62
  7
 10
60.875582
 20
64.754949
 30
0.000000
  0
VERTEX
  8
MERGEDLAYER-1
 10
60.875582
 20
64.754949
 30
0.000000
  0
VERTEX
  8
MERGEDLAYER-1
 10
60.875582
 20
0.076923
 30
0.000000
  0
SEQEND
  8
MERGEDLAYER-1
  0
TEXT
  8
MERGEDLAYER-1
 62
  7
 10
56.384615
 20
63.158795
 30
0.000000
 40
0.634615
  1
AUCUNE
 72
  5
 11
60.000000
 21
63.158795
 31
0.000000
  0
TEXT
  8
MERGEDLAYER-1
 62
  7
 10
56.384615
 20
62.235718
 30
0.000000
 40
0.634615
  1
ƒCHELLE
 72
  5
 11
60.153846
 21
62.235718
 31
0.000000
  0
POLYLINE
  8
MERGEDLAYER-1
 66
  1
 70
  1
 62
  7
  0
VERTEX
  8
MERGEDLAYER-1
 10
57.613230
 20
1.967971
 30
0.000000
  0
VERTEX
  8
MERGEDLAYER-1
 10
60.875582
 20
1.967971
 30
0.000000
  0
VERTEX
  8
MERGEDLAYER-1
 10
60.875582
 20
0.076923
 30
0.000000
  0
VERTEX
  8
MERGEDLAYER-1
 10
57.613230
 20
0.076923
 30
0.000000
  0
SEQEND
  8
MERGEDLAYER-1
  0
TEXT
  8
MERGEDLAYER-1
 62
  7
 10
57.230769
 20
2.081872
 30
0.000000
 40
0.807692
  1
PAR:
 72
  5
 11
60.076923
 21
2.081872
 31
0.000000
  0
TEXT
  8
MERGEDLAYER-1
 62
  7
 10
61.923077
 20
44.620333
 30
0.000000
 40
0.807692
  1
NOTES
 72
  5
 11
66.000000
 21
44.620333
 31
0.000000
  0
TEXT
  8
MERGEDLAYER-1
 62
  7
 10
63.307692
 20
54.466487
 30
0.000000
 40
0.807692
  1
INTƒRIEURE
 72
  5
 11
70.153846
 21
54.466487
 31
0.000000
  0
POLYLINE
  8
MERGEDLAYER-1
 66
  1
 70
  1
 62
  7
  0
VERTEX
  8
MERGEDLAYER-1
 10
61.747000
 20
62.174157
 30
0.000000
  0
VERTEX
  8
MERGEDLAYER-1
 10
62.559500
 20
62.174157
 30
0.000000
  0
VERTEX
  8
MERGEDLAYER-1
 10
62.559500
 20
61.361657
 30
0.000000
  0
VERTEX
  8
MERGEDLAYER-1
 10
61.747000
 20
61.361657
 30
0.000000
  0
SEQEND
  8
MERGEDLAYER-1
  0
POLYLINE
  8
MERGEDLAYER-1
 66
  1
 70
  1
 62
  7
  0
VERTEX
  8
MERGEDLAYER-1
 10
61.747000
 20
60.952247
 30
0.000000
  0
VERTEX
  8
MERGEDLAYER-1
 10
62.559500
 20
60.952247
 30
0.000000
  0
VERTEX
  8
MERGEDLAYER-1
 10
62.559500
 20
60.139747
 30
0.000000
  0
VERTEX
  8
MERGEDLAYER-1
 10
61.747000
 20
60.139747
 30
0.000000
  0
SEQEND
  8
MERGEDLAYER-1
  0
POLYLINE
  8
MERGEDLAYER-1
 66
  1
 70
  1
 62
  7
  0
VERTEX
  8
MERGEDLAYER-1
 10
61.747000
 20
55.502657
 30
0.000000
  0
VERTEX
  8
MERGEDLAYER-1
 10
62.559500
 20
55.502657
 30
0.000000
  0
VERTEX
  8
MERGEDLAYER-1
 10
62.559500
 20
54.690157
 30
0.000000
  0
VERTEX
  8
MERGEDLAYER-1
 10
61.747000
 20
54.690157
 30
0.000000
  0
SEQEND
  8
MERGEDLAYER-1
  0
POLYLINE
  8
MERGEDLAYER-1
 66
  1
 70
  1
 62
  7
  0
VERTEX
  8
MERGEDLAYER-1
 10
61.747000
 20
54.280489
 30
0.000000
  0
VERTEX
  8
MERGEDLAYER-1
 10
62.559500
 20
54.280489
 30
0.000000
  0
VERTEX
  8
MERGEDLAYER-1
 10
62.559500
 20
53.467989
 30
0.000000
  0
VERTEX
  8
MERGEDLAYER-1
 10
61.747000
 20
53.467989
 30
0.000000
  0
SEQEND
  8
MERGEDLAYER-1
  0
TEXT
  8
MERGEDLAYER-1
 62
  7
 10
61.923077
 20
49.697256
 30
0.000000
 40
0.807692
  1
CAPOT
 72
  5
 11
66.076923
 21
49.697256
 31
0.000000
  0
TEXT
  8
MERGEDLAYER-1
 62
  7
 10
61.923077
 20
62.620333
 30
0.000000
 40
0.807692
  1
OPƒRATION
 72
  5
 11
68.692308
 21
62.620333
 31
0.000000
  0
TEXT
  8
MERGEDLAYER-1
 62
  7
 10
61.923077
 20
56.158795
 30
0.000000
 40
0.807692
  1
ROUE DE CHARGEMENT
 72
  5
 11
75.153846
 21
56.158795
 31
0.000000
  0
POLYLINE
  8
MERGEDLAYER-1
 66
  1
 70
  0
 62
  7
 10
60.875582
 20
58.299208
 30
0.000000
  0
VERTEX
  8
MERGEDLAYER-1
 10
60.875582
 20
58.299208
 30
0.000000
  0
VERTEX
  8
MERGEDLAYER-1
 10
85.060077
 20
58.299208
 30
0.000000
  0
SEQEND
  8
MERGEDLAYER-1
  0
POLYLINE
  8
MERGEDLAYER-1
 66
  1
 70
  0
 62
  7
 10
60.875582
 20
51.848877
 30
0.000000
  0
VERTEX
  8
MERGEDLAYER-1
 10
60.875582
 20
51.848877
 30
0.000000
  0
VERTEX
  8
MERGEDLAYER-1
 10
85.060077
 20
51.848877
 30
0.000000
  0
SEQEND
  8
MERGEDLAYER-1
  0
TEXT
  8
MERGEDLAYER-1
 62
  7
 10
63.076923
 20
59.081872
 30
0.000000
 40
0.576923
  1
VUE DU CïTƒ DU BARIL
 72
  5
 11
72.615385
 21
59.081872
 31
0.000000
  0
TEXT
  8
MERGEDLAYER-1
 62
  7
 10
63.076923
 20
52.543410
 30
0.000000
 40
0.576923
  1
VUE DU CïTƒ DU BARIL
 72
  5
 11
72.615385
 21
52.543410
 31
0.000000
  0
TEXT
  8
MERGEDLAYER-1
 62
  7
 10
76.615385
 20
54.466487
 30
0.000000
 40
0.807692
  1
TOURS:
 72
  5
 11
81.076923
 21
54.466487
 31
0.000000
  0
POLYLINE
  8
MERGEDLAYER-1
 66
  1
 70
  0
 62
  7
 10
76.724351
 20
54.470454
 30
0.000000
  0
VERTEX
  8
MERGEDLAYER-1
 10
76.724351
 20
54.470454
 30
0.000000
  0
VERTEX
  8
MERGEDLAYER-1
 10
85.057692
 20
54.470454
 30
0.000000
  0
SEQEND
  8
MERGEDLAYER-1
  0
POLYLINE
  8
MERGEDLAYER-1
 66
  1
 70
  0
 62
  7
 10
60.877127
 20
46.666936
 30
0.000000
  0
VERTEX
  8
MERGEDLAYER-1
 10
60.877127
 20
46.666936
 30
0.000000
  0
VERTEX
  8
MERGEDLAYER-1
 10
85.063045
 20
46.666382
 30
0.000000
  0
SEQEND
  8
MERGEDLAYER-1
  0
TEXT
  8
MERGEDLAYER-1
 62
  7
 10
63.307692
 20
61.158795
 30
0.000000
 40
0.807692
  1
MANUELLE AVEC TIGE DE TIRAGE
 72
  5
 11
81.538462
 21
61.158795
 31
0.000000
  0
TEXT
  8
MERGEDLAYER-1
 62
  7
 10
63.307692
 20
59.928025
 30
0.000000
 40
0.807692
  1
MANIVELLE (CïTƒ GAUCHE)
 72
  5
 11
78.615385
 21
59.928025
 31
0.000000
  0
TEXT
  8
MERGEDLAYER-1
 62
  7
 10
63.307692
 20
53.312641
 30
0.000000
 40
0.807692
  1
DROITE 
 72
  5
 11
68.076923
 21
53.312641
 31
0.000000
  0
TEXT
  8
MERGEDLAYER-1
 62
  7
 10
68.076923
 20
53.312641
 30
0.000000
 40
0.750000
  1
(STANDARD)
 72
  5
 11
74.461538
 21
53.312641
 31
0.000000
  0
POLYLINE
  8
MERGEDLAYER-1
 66
  1
 70
  0
 62
  7
 10
60.875582
 20
10.239666
 30
0.000000
  0
VERTEX
  8
MERGEDLAYER-1
 10
60.875582
 20
10.239666
 30
0.000000
  0
VERTEX
  8
MERGEDLAYER-1
 10
85.060077
 20
10.239666
 30
0.000000
  0
SEQEND
  8
MERGEDLAYER-1
  0
TEXT
  8
MERGEDLAYER-1
 62
  7
 10
61.615385
 20
48.466487
 30
0.000000
 40
0.807692
  1
CïTƒS:
 72
  5
 11
66.000000
 21
48.466487
 31
0.000000
  0
POLYLINE
  8
MERGEDLAYER-1
 66
  1
 70
  1
 62
  7
  0
VERTEX
  8
MERGEDLAYER-1
 10
66.270667
 20
49.205294
 30
0.000000
  0
VERTEX
  8
MERGEDLAYER-1
 10
67.083135
 20
49.205294
 30
0.000000
  0
VERTEX
  8
MERGEDLAYER-1
 10
67.083135
 20
48.392794
 30
0.000000
  0
VERTEX
  8
MERGEDLAYER-1
 10
66.270667
 20
48.392794
 30
0.000000
  0
SEQEND
  8
MERGEDLAYER-1
  0
TEXT
  8
MERGEDLAYER-1
 62
  7
 10
67.615385
 20
48.466487
 30
0.000000
 40
0.807692
  1
2 ,
 72
  5
 11
69.230769
 21
48.466487
 31
0.000000
  0
POLYLINE
  8
MERGEDLAYER-1
 66
  1
 70
  1
 62
  7
  0
VERTEX
  8
MERGEDLAYER-1
 10
69.415983
 20
49.205294
 30
0.000000
  0
VERTEX
  8
MERGEDLAYER-1
 10
70.228450
 20
49.205294
 30
0.000000
  0
VERTEX
  8
MERGEDLAYER-1
 10
70.228450
 20
48.392794
 30
0.000000
  0
VERTEX
  8
MERGEDLAYER-1
 10
69.415983
 20
48.392794
 30
0.000000
  0
SEQEND
  8
MERGEDLAYER-1
  0
TEXT
  8
MERGEDLAYER-1
 62
  7
 10
70.692308
 20
48.466487
 30
0.000000
 40
0.807692
  1
3 ,
 72
  5
 11
72.307692
 21
48.466487
 31
0.000000
  0
POLYLINE
  8
MERGEDLAYER-1
 66
  1
 70
  1
 62
  7
  0
VERTEX
  8
MERGEDLAYER-1
 10
72.518850
 20
49.205294
 30
0.000000
  0
VERTEX
  8
MERGEDLAYER-1
 10
73.331322
 20
49.205294
 30
0.000000
  0
VERTEX
  8
MERGEDLAYER-1
 10
73.331322
 20
48.392794
 30
0.000000
  0
VERTEX
  8
MERGEDLAYER-1
 10
72.518850
 20
48.392794
 30
0.000000
  0
SEQEND
  8
MERGEDLAYER-1
  0
TEXT
  8
MERGEDLAYER-1
 62
  7
 10
73.846154
 20
48.466487
 30
0.000000
 40
0.807692
  1
4 ,
 72
  5
 11
75.461538
 21
48.466487
 31
0.000000
  0
POLYLINE
  8
MERGEDLAYER-1
 66
  1
 70
  1
 62
  7
  0
VERTEX
  8
MERGEDLAYER-1
 10
75.674748
 20
49.211717
 30
0.000000
  0
VERTEX
  8
MERGEDLAYER-1
 10
76.487248
 20
49.211717
 30
0.000000
  0
VERTEX
  8
MERGEDLAYER-1
 10
76.487248
 20
48.399217
 30
0.000000
  0
VERTEX
  8
MERGEDLAYER-1
 10
75.674748
 20
48.399217
 30
0.000000
  0
SEQEND
  8
MERGEDLAYER-1
  0
TEXT
  8
MERGEDLAYER-1
 62
  7
 10
77.000000
 20
48.466487
 30
0.000000
 40
0.807692
  1
FACIA
 72
  5
 11
80.538462
 21
48.466487
 31
0.000000
  0
TEXT
  8
MERGEDLAYER-1
 62
  7
 10
80.538462
 20
48.466487
 30
0.000000
 40
0.634615
  1
 (1 CïTƒ)
 72
  5
 11
84.538462
 21
48.466487
 31
0.000000
  0
POLYLINE
  8
MERGEDLAYER-1
 66
  1
 70
  1
 62
  7
  0
VERTEX
  8
MERGEDLAYER-1
 10
66.270667
 20
47.990756
 30
0.000000
  0
VERTEX
  8
MERGEDLAYER-1
 10
67.083167
 20
47.990756
 30
0.000000
  0
VERTEX
  8
MERGEDLAYER-1
 10
67.083167
 20
47.178256
 30
0.000000
  0
VERTEX
  8
MERGEDLAYER-1
 10
66.270667
 20
47.178256
 30
0.000000
  0
SEQEND
  8
MERGEDLAYER-1
  0
TEXT
  8
MERGEDLAYER-1
 62
  7
 10
67.538462
 20
47.235718
 30
0.000000
 40
0.807692
  1
EMBOUTS
 72
  5
 11
73.230769
 21
47.235718
 31
0.000000
  0
TEXT
  8
MERGEDLAYER-1
 62
  7
 10
77.000000
 20
47.235718
 30
0.000000
 40
0.807692
  1
AUCUN 
 72
  5
 11
81.461538
 21
47.235718
 31
0.000000
  0
POLYLINE
  8
MERGEDLAYER-1
 66
  1
 70
  1
 62
  7
  0
VERTEX
  8
MERGEDLAYER-1
 10
75.674748
 20
47.990788
 30
0.000000
  0
VERTEX
  8
MERGEDLAYER-1
 10
76.487248
 20
47.990788
 30
0.000000
  0
VERTEX
  8
MERGEDLAYER-1
 10
76.487248
 20
47.178288
 30
0.000000
  0
VERTEX
  8
MERGEDLAYER-1
 10
75.674748
 20
47.178288
 30
0.000000
  0
SEQEND
  8
MERGEDLAYER-1
  0
TEXT
  8
MERGEDLAYER-1
 62
  7
 10
61.692308
 20
10.697256
 30
0.000000
 40
0.807692
  1
DATE D'EXPƒDITION:
 72
  5
 11
73.153846
 21
10.697256
 31
0.000000
  0
POLYLINE
  8
MERGEDLAYER-1
 66
  1
 70
  0
 62
  7
 10
68.323331
 20
23.489356
 30
0.000000
  0
VERTEX
  8
MERGEDLAYER-1
 10
68.323331
 20
23.489356
 30
0.000000
  0
VERTEX
  8
MERGEDLAYER-1
 10
85.057692
 20
23.487338
 30
0.000000
  0
SEQEND
  8
MERGEDLAYER-1
  0
POLYLINE
  8
MERGEDLAYER-1
 66
  1
 70
  0
 62
  7
 10
68.323331
 20
21.282325
 30
0.000000
  0
VERTEX
  8
MERGEDLAYER-1
 10
68.323331
 20
21.282325
 30
0.000000
  0
VERTEX
  8
MERGEDLAYER-1
 10
85.057692
 20
21.280306
 30
0.000000
  0
SEQEND
  8
MERGEDLAYER-1
  0
POLYLINE
  8
MERGEDLAYER-1
 66
  1
 70
  0
 62
  7
 10
68.323331
 20
19.075294
 30
0.000000
  0
VERTEX
  8
MERGEDLAYER-1
 10
68.323331
 20
19.075294
 30
0.000000
  0
VERTEX
  8
MERGEDLAYER-1
 10
85.057692
 20
19.073275
 30
0.000000
  0
SEQEND
  8
MERGEDLAYER-1
  0
POLYLINE
  8
MERGEDLAYER-1
 66
  1
 70
  0
 62
  7
 10
68.323331
 20
16.868263
 30
0.000000
  0
VERTEX
  8
MERGEDLAYER-1
 10
68.323331
 20
16.868263
 30
0.000000
  0
VERTEX
  8
MERGEDLAYER-1
 10
85.057692
 20
16.866244
 30
0.000000
  0
SEQEND
  8
MERGEDLAYER-1
  0
POLYLINE
  8
MERGEDLAYER-1
 66
  1
 70
  0
 62
  7
 10
68.323331
 20
14.661231
 30
0.000000
  0
VERTEX
  8
MERGEDLAYER-1
 10
68.323331
 20
14.661231
 30
0.000000
  0
VERTEX
  8
MERGEDLAYER-1
 10
85.057692
 20
14.659213
 30
0.000000
  0
SEQEND
  8
MERGEDLAYER-1
  0
POLYLINE
  8
MERGEDLAYER-1
 66
  1
 70
  0
 62
  7
 10
65.376897
 20
12.454195
 30
0.000000
  0
VERTEX
  8
MERGEDLAYER-1
 10
65.376897
 20
12.454195
 30
0.000000
  0
VERTEX
  8
MERGEDLAYER-1
 10
74.940941
 20
12.439007
 30
0.000000
  0
SEQEND
  8
MERGEDLAYER-1
  0
POLYLINE
  8
MERGEDLAYER-1
 66
  1
 70
  0
 62
  7
 10
78.173086
 20
12.456867
 30
0.000000
  0
VERTEX
  8
MERGEDLAYER-1
 10
78.173086
 20
12.456867
 30
0.000000
  0
VERTEX
  8
MERGEDLAYER-1
 10
85.057692
 20
12.452181
 30
0.000000
  0
SEQEND
  8
MERGEDLAYER-1
  0
TEXT
  8
MERGEDLAYER-1
 62
  7
 10
61.692308
 20
28.312641
 30
0.000000
 40
0.807692
  1
SIGNATURE DU CLIENT
 72
  5
 11
74.461538
 21
28.312641
 31
0.000000
  0
POLYLINE
  8
MERGEDLAYER-1
 66
  1
 70
  0
 62
  7
 10
61.704327
 20
29.506033
 30
0.000000
  0
VERTEX
  8
MERGEDLAYER-1
 10
61.704327
 20
29.506033
 30
0.000000
  0
VERTEX
  8
MERGEDLAYER-1
 10
74.364699
 20
29.506033
 30
0.000000
  0
SEQEND
  8
MERGEDLAYER-1
  0
TEXT
  8
MERGEDLAYER-1
 62
  7
 10
61.692308
 20
29.928025
 30
0.000000
 40
0.750000
  1
x
 72
  5
 11
62.692308
 21
29.928025
 31
0.000000
  0
POLYLINE
  8
MERGEDLAYER-1
 66
  1
 70
  0
 62
  7
 10
60.875582
 20
31.831872
 30
0.000000
  0
VERTEX
  8
MERGEDLAYER-1
 10
60.875582
 20
31.831872
 30
0.000000
  0
VERTEX
  8
MERGEDLAYER-1
 10
85.060077
 20
31.831872
 30
0.000000
  0
SEQEND
  8
MERGEDLAYER-1
  0
TEXT
  8
MERGEDLAYER-1
 62
  7
 10
75.692308
 20
28.312641
 30
0.000000
 40
0.807692
  1
DATE CHANTIER
 72
  5
 11
84.846154
 21
28.312641
 31
0.000000
  0
POLYLINE
  8
MERGEDLAYER-1
 66
  1
 70
  0
 62
  7
 10
75.787006
 20
29.512428
 30
0.000000
  0
VERTEX
  8
MERGEDLAYER-1
 10
75.787006
 20
29.512428
 30
0.000000
  0
VERTEX
  8
MERGEDLAYER-1
 10
85.060077
 20
29.512428
 30
0.000000
  0
SEQEND
  8
MERGEDLAYER-1
  0
POLYLINE
  8
MERGEDLAYER-1
 66
  1
 70
  1
 62
  7
  0
VERTEX
  8
MERGEDLAYER-1
 10
13.844952
 20
18.534997
 30
0.000000
  0
VERTEX
  8
MERGEDLAYER-1
 10
47.094952
 20
18.534997
 30
0.000000
  0
VERTEX
  8
MERGEDLAYER-1
 10
47.094952
 20
17.159997
 30
0.000000
  0
VERTEX
  8
MERGEDLAYER-1
 10
13.844952
 20
17.159997
 30
0.000000
  0
SEQEND
  8
MERGEDLAYER-1
  0
POLYLINE
  8
MERGEDLAYER-1
  6
LTYPE06
 66
  1
 70
  0
 62
  7
 40
0.153846
 41
0.153846
  6
LTYPE06
 10
13.841015
 20
17.850365
 30
0.000000
  0
VERTEX
  8
MERGEDLAYER-1
  6
LTYPE06
 10
13.841015
 20
17.850365
 30
0.000000
  0
VERTEX
  8
MERGEDLAYER-1
  6
LTYPE06
 10
47.098891
 20
17.850365
 30
0.000000
  0
SEQEND
  8
MERGEDLAYER-1
  0
POLYLINE
  8
MERGEDLAYER-1
 66
  1
 70
  1
 62
  7
  0
VERTEX
  8
MERGEDLAYER-1
 10
36.731307
 20
63.934866
 30
0.000000
  0
VERTEX
  8
MERGEDLAYER-1
 10
55.315317
 20
63.934866
 30
0.000000
  0
VERTEX
  8
MERGEDLAYER-1
 10
55.315317
 20
63.458628
 30
0.000000
  0
VERTEX
  8
MERGEDLAYER-1
 10
36.731307
 20
63.458628
 30
0.000000
  0
SEQEND
  8
MERGEDLAYER-1
  0
TEXT
  8
MERGEDLAYER-1
 62
  7
 10
26.000000
 20
1.851102
 30
0.000000
 40
0.980769
  1
VUE EN PLAN
 72
  5
 11
34.923077
 21
1.851102
 31
0.000000
  0
TEXT
  8
MERGEDLAYER-1
 62
  7
 10
21.769231
 20
21.774179
 30
0.000000
 40
0.750000
  1
LARGEUR TOTALE AVEC GUIDES "W"
 72
  5
 11
40.230769
 21
21.774179
 31
0.000000
  0
LINE
  8
MERGEDLAYER-1
 62
  7
 10
11.630262
 20
24.824961
 30
0.000000
 11
49.340895
 21
24.824961
 31
0.000000
  0
LINE
  8
MERGEDLAYER-1
 62
  7
 10
11.610577
 20
19.238122
 30
0.000000
 11
11.610577
 21
25.824961
 31
0.000000
  0
LINE
  8
MERGEDLAYER-1
 62
  7
 10
49.360577
 20
19.269372
 30
0.000000
 11
49.360577
 21
25.824961
 31
0.000000
  0
POLYLINE
  8
MERGEDLAYER-1
 66
  1
 70
  1
 62
  7
  0
VERTEX
  8
MERGEDLAYER-1
 10
11.610577
 20
24.824961
 30
0.000000
  0
VERTEX
  8
MERGEDLAYER-1
 10
11.995193
 20
24.594196
 30
0.000000
  0
VERTEX
  8
MERGEDLAYER-1
 10
11.995192
 20
24.824965
 30
0.000000
  0
VERTEX
  8
MERGEDLAYER-1
 10
11.995191
 20
25.055734
 30
0.000000
  0
VERTEX
  8
MERGEDLAYER-1
 10
11.610577
 20
24.824961
 30
0.000000
  0
SEQEND
  8
MERGEDLAYER-1
  0
POLYLINE
  8
MERGEDLAYER-1
 66
  1
 70
  1
 62
  7
  0
VERTEX
  8
MERGEDLAYER-1
 10
49.360577
 20
24.824961
 30
0.000000
  0
VERTEX
  8
MERGEDLAYER-1
 10
48.975962
 20
24.594187
 30
0.000000
  0
VERTEX
  8
MERGEDLAYER-1
 10
48.975962
 20
24.824956
 30
0.000000
  0
VERTEX
  8
MERGEDLAYER-1
 10
48.975962
 20
25.055725
 30
0.000000
  0
VERTEX
  8
MERGEDLAYER-1
 10
49.360577
 20
24.824961
 30
0.000000
  0
SEQEND
  8
MERGEDLAYER-1
  0
TEXT
  8
MERGEDLAYER-1
 62
  7
 10
30.403393
 20
25.648799
 30
0.000000
 40
0.576923
  1
 
  0
POLYLINE
  8
MERGEDLAYER-1
 66
  1
 70
  1
 62
  7
  0
VERTEX
  8
MERGEDLAYER-1
 10
21.841189
 20
26.451637
 30
0.000000
  0
VERTEX
  8
MERGEDLAYER-1
 10
27.364396
 20
26.451637
 30
0.000000
  0
VERTEX
  8
MERGEDLAYER-1
 10
27.364396
 20
23.219036
 30
0.000000
  0
VERTEX
  8
MERGEDLAYER-1
 10
21.841189
 20
23.219036
 30
0.000000
  0
SEQEND
  8
MERGEDLAYER-1
  0
POLYLINE
  8
MERGEDLAYER-1
 66
  1
 70
  0
 62
  7
 40
0.230769
 41
0.230769
 10
27.328531
 20
23.421072
 30
0.000000
  0
VERTEX
  8
MERGEDLAYER-1
 10
27.328531
 20
23.421072
 30
0.000000
  0
VERTEX
  8
MERGEDLAYER-1
 10
21.841189
 20
23.421072
 30
0.000000
  0
SEQEND
  8
MERGEDLAYER-1
  0
POLYLINE
  8
MERGEDLAYER-1
 66
  1
 70
  1
 62
  7
  0
VERTEX
  8
MERGEDLAYER-1
 10
27.641282
 20
26.451637
 30
0.000000
  0
VERTEX
  8
MERGEDLAYER-1
 10
33.164417
 20
26.451637
 30
0.000000
  0
VERTEX
  8
MERGEDLAYER-1
 10
33.164417
 20
23.219036
 30
0.000000
  0
VERTEX
  8
MERGEDLAYER-1
 10
27.641282
 20
23.219036
 30
0.000000
  0
SEQEND
  8
MERGEDLAYER-1
  0
POLYLINE
  8
MERGEDLAYER-1
 66
  1
 70
  0
 62
  7
 40
0.230769
 41
0.230769
 10
33.128552
 20
23.421072
 30
0.000000
  0
VERTEX
  8
MERGEDLAYER-1
 10
33.128552
 20
23.421072
 30
0.000000
  0
VERTEX
  8
MERGEDLAYER-1
 10
27.641282
 20
23.421072
 30
0.000000
  0
SEQEND
  8
MERGEDLAYER-1
  0
POLYLINE
  8
MERGEDLAYER-1
 66
  1
 70
  1
 62
  7
  0
VERTEX
  8
MERGEDLAYER-1
 10
33.441364
 20
26.451637
 30
0.000000
  0
VERTEX
  8
MERGEDLAYER-1
 10
38.964510
 20
26.451637
 30
0.000000
  0
VERTEX
  8
MERGEDLAYER-1
 10
38.964510
 20
23.219036
 30
0.000000
  0
VERTEX
  8
MERGEDLAYER-1
 10
33.441364
 20
23.219036
 30
0.000000
  0
SEQEND
  8
MERGEDLAYER-1
  0
POLYLINE
  8
MERGEDLAYER-1
 66
  1
 70
  0
 62
  7
 40
0.230769
 41
0.230769
 10
38.928645
 20
23.421072
 30
0.000000
  0
VERTEX
  8
MERGEDLAYER-1
 10
38.928645
 20
23.421072
 30
0.000000
  0
VERTEX
  8
MERGEDLAYER-1
 10
33.441364
 20
23.421072
 30
0.000000
  0
SEQEND
  8
MERGEDLAYER-1
  0
TEXT
  8
MERGEDLAYER-1
 62
  7
 10
27.615385
 20
26.620333
 30
0.000000
 40
0.461538
  1
"W" AU CENTRE:
 72
  5
 11
32.923077
 21
26.620333
 31
0.000000
  0
TEXT
  8
MERGEDLAYER-1
 62
  7
 10
21.692308
 20
26.620333
 30
0.000000
 40
0.461538
  1
"W" EN HAUT:
 72
  5
 11
26.153846
 21
26.620333
 31
0.000000
  0
LINE
  8
MERGEDLAYER-1
 62
  7
 10
56.699069
 20
43.058096
 30
0.000000
 11
56.699069
 21
52.792955
 31
0.000000
  0
LINE
  8
MERGEDLAYER-1
 62
  7
 10
50.698026
 20
43.038405
 30
0.000000
 11
57.699069
 21
43.038405
 31
0.000000
  0
LINE
  8
MERGEDLAYER-1
 62
  7
 10
50.000000
 20
52.812641
 30
0.000000
 11
57.699069
 21
52.812641
 31
0.000000
  0
POLYLINE
  8
MERGEDLAYER-1
 66
  1
 70
  1
 62
  7
  0
VERTEX
  8
MERGEDLAYER-1
 10
56.699069
 20
43.038405
 30
0.000000
  0
VERTEX
  8
MERGEDLAYER-1
 10
56.929838
 20
43.423021
 30
0.000000
  0
VERTEX
  8
MERGEDLAYER-1
 10
56.699069
 20
43.423021
 30
0.000000
  0
VERTEX
  8
MERGEDLAYER-1
 10
56.468299
 20
43.423021
 30
0.000000
  0
VERTEX
  8
MERGEDLAYER-1
 10
56.699069
 20
43.038405
 30
0.000000
  0
SEQEND
  8
MERGEDLAYER-1
  0
POLYLINE
  8
MERGEDLAYER-1
 66
  1
 70
  1
 62
  7
  0
VERTEX
  8
MERGEDLAYER-1
 10
56.699069
 20
52.812641
 30
0.000000
  0
VERTEX
  8
MERGEDLAYER-1
 10
56.929838
 20
52.428025
 30
0.000000
  0
VERTEX
  8
MERGEDLAYER-1
 10
56.699069
 20
52.428025
 30
0.000000
  0
VERTEX
  8
MERGEDLAYER-1
 10
56.468299
 20
52.428025
 30
0.000000
  0
VERTEX
  8
MERGEDLAYER-1
 10
56.699069
 20
52.812641
 30
0.000000
  0
SEQEND
  8
MERGEDLAYER-1
  0
TEXT
  8
MERGEDLAYER-1
 62
  7
 10
56.173185
 20
51.673854
 30
0.000000
 40
0.346154
  1
 
 50
90.000000
  0
POLYLINE
  8
MERGEDLAYER-1
 66
  1
 70
  1
 62
  7
  0
VERTEX
  8
MERGEDLAYER-1
 10
1.153894
 20
63.934866
 30
0.000000
  0
VERTEX
  8
MERGEDLAYER-1
 10
33.997711
 20
63.934866
 30
0.000000
  0
VERTEX
  8
MERGEDLAYER-1
 10
33.997711
 20
63.458628
 30
0.000000
  0
VERTEX
  8
MERGEDLAYER-1
 10
1.153894
 20
63.458628
 30
0.000000
  0
SEQEND
  8
MERGEDLAYER-1
  0
POLYLINE
  8
MERGEDLAYER-1
 66
  1
 70
  1
 62
  7
  0
VERTEX
  8
MERGEDLAYER-1
 10
47.560650
 20
54.230572
 30
0.000000
  0
VERTEX
  8
MERGEDLAYER-1
 10
47.695266
 20
54.230572
 30
0.000000
  0
VERTEX
  8
MERGEDLAYER-1
 10
47.695266
 20
53.817073
 30
0.000000
  0
VERTEX
  8
MERGEDLAYER-1
 10
47.560650
 20
53.817073
 30
0.000000
  0
SEQEND
  8
MERGEDLAYER-1
  0
POLYLINE
  8
MERGEDLAYER-1
 66
  1
 70
  1
 62
  7
 10
13.788271
 20
18.188547
 30
0.000000
  0
VERTEX
  8
MERGEDLAYER-1
 10
13.788271
 20
18.188547
 30
0.000000
  0
VERTEX
  8
MERGEDLAYER-1
 10
12.788287
 20
18.188547
 30
0.000000
  0
VERTEX
  8
MERGEDLAYER-1
 10
12.788287
 20
17.563580
 30
0.000000
  0
VERTEX
  8
MERGEDLAYER-1
 10
13.788271
 20
17.563580
 30
0.000000
  0
VERTEX
  8
MERGEDLAYER-1
 10
13.788271
 20
17.371291
 30
0.000000
  0
VERTEX
  8
MERGEDLAYER-1
 10
13.850770
 20
17.371291
 30
0.000000
  0
VERTEX
  8
MERGEDLAYER-1
 10
13.850770
 20
18.371239
 30
0.000000
  0
VERTEX
  8
MERGEDLAYER-1
 10
13.788271
 20
18.371239
 30
0.000000
  0
SEQEND
  8
MERGEDLAYER-1
  0
POLYLINE
  8
MERGEDLAYER-1
 66
  1
 70
  1
 62
  7
 10
13.529259
 20
18.286217
 30
0.000000
  0
VERTEX
  8
MERGEDLAYER-1
 10
13.529259
 20
18.286217
 30
0.000000
  0
VERTEX
  8
MERGEDLAYER-1
 10
13.525196
 20
18.285771
 30
0.000000
  0
VERTEX
  8
MERGEDLAYER-1
 10
13.522562
 20
18.284893
 30
0.000000
  0
VERTEX
  8
MERGEDLAYER-1
 10
13.518652
 20
18.281827
 30
0.000000
  0
VERTEX
  8
MERGEDLAYER-1
 10
13.516849
 20
18.280057
 30
0.000000
  0
VERTEX
  8
MERGEDLAYER-1
 10
13.515531
 20
18.277865
 30
0.000000
  0
VERTEX
  8
MERGEDLAYER-1
 10
13.514654
 20
18.275231
 30
0.000000
  0
VERTEX
  8
MERGEDLAYER-1
 10
13.514262
 20
18.271217
 30
0.000000
  0
VERTEX
  8
MERGEDLAYER-1
 10
13.514262
 20
18.261860
 30
0.000000
  0
VERTEX
  8
MERGEDLAYER-1
 10
13.514654
 20
18.258090
 30
0.000000
  0
VERTEX
  8
MERGEDLAYER-1
 10
13.515969
 20
18.255014
 30
0.000000
  0
VERTEX
  8
MERGEDLAYER-1
 10
13.516849
 20
18.253258
 30
0.000000
  0
VERTEX
  8
MERGEDLAYER-1
 10
13.518652
 20
18.251244
 30
0.000000
  0
VERTEX
  8
MERGEDLAYER-1
 10
13.521682
 20
18.248864
 30
0.000000
  0
VERTEX
  8
MERGEDLAYER-1
 10
13.525196
 20
18.247549
 30
0.000000
  0
VERTEX
  8
MERGEDLAYER-1
 10
13.529259
 20
18.246854
 30
0.000000
  0
VERTEX
  8
MERGEDLAYER-1
 10
13.593138
 20
18.246854
 30
0.000000
  0
VERTEX
  8
MERGEDLAYER-1
 10
13.599013
 20
18.247549
 30
0.000000
  0
VERTEX
  8
MERGEDLAYER-1
 10
13.603408
 20
18.248422
 30
0.000000
  0
VERTEX
  8
MERGEDLAYER-1
 10
13.608682
 20
18.249737
 30
0.000000
  0
VERTEX
  8
MERGEDLAYER-1
 10
13.613954
 20
18.251498
 30
0.000000
  0
VERTEX
  8
MERGEDLAYER-1
 10
13.618787
 20
18.253700
 30
0.000000
  0
VERTEX
  8
MERGEDLAYER-1
 10
13.622305
 20
18.255451
 30
0.000000
  0
VERTEX
  8
MERGEDLAYER-1
 10
13.625819
 20
18.257653
 30
0.000000
  0
VERTEX
  8
MERGEDLAYER-1
 10
13.629333
 20
18.260287
 30
0.000000
  0
VERTEX
  8
MERGEDLAYER-1
 10
13.632032
 20
18.262963
 30
0.000000
  0
VERTEX
  8
MERGEDLAYER-1
 10
13.635485
 20
18.266879
 30
0.000000
  0
VERTEX
  8
MERGEDLAYER-1
 10
13.639441
 20
18.271714
 30
0.000000
  0
VERTEX
  8
MERGEDLAYER-1
 10
13.641636
 20
18.275668
 30
0.000000
  0
VERTEX
  8
MERGEDLAYER-1
 10
13.644273
 20
18.281818
 30
0.000000
  0
VERTEX
  8
MERGEDLAYER-1
 10
13.646030
 20
18.286208
 30
0.000000
  0
VERTEX
  8
MERGEDLAYER-1
 10
13.646910
 20
18.290171
 30
0.000000
  0
VERTEX
  8
MERGEDLAYER-1
 10
13.648225
 20
18.296321
 30
0.000000
  0
VERTEX
  8
MERGEDLAYER-1
 10
13.648141
 20
18.372803
 30
0.000000
  0
VERTEX
  8
MERGEDLAYER-1
 10
13.647787
 20
18.381113
 30
0.000000
  0
VERTEX
  8
MERGEDLAYER-1
 10
13.647348
 20
18.389465
 30
0.000000
  0
VERTEX
  8
MERGEDLAYER-1
 10
13.646030
 20
18.396494
 30
0.000000
  0
VERTEX
  8
MERGEDLAYER-1
 10
13.644711
 20
18.402644
 30
0.000000
  0
VERTEX
  8
MERGEDLAYER-1
 10
13.642516
 20
18.409673
 30
0.000000
  0
VERTEX
  8
MERGEDLAYER-1
 10
13.639880
 20
18.417147
 30
0.000000
  0
VERTEX
  8
MERGEDLAYER-1
 10
13.637241
 20
18.424176
 30
0.000000
  0
VERTEX
  8
MERGEDLAYER-1
 10
13.634166
 20
18.430326
 30
0.000000
  0
VERTEX
  8
MERGEDLAYER-1
 10
13.630652
 20
18.436476
 30
0.000000
  0
VERTEX
  8
MERGEDLAYER-1
 10
13.626257
 20
18.443068
 30
0.000000
  0
VERTEX
  8
MERGEDLAYER-1
 10
13.620986
 20
18.450101
 30
0.000000
  0
VERTEX
  8
MERGEDLAYER-1
 10
13.615273
 20
18.457130
 30
0.000000
  0
VERTEX
  8
MERGEDLAYER-1
 10
13.608241
 20
18.464158
 30
0.000000
  0
VERTEX
  8
MERGEDLAYER-1
 10
13.600774
 20
18.470304
 30
0.000000
  0
VERTEX
  8
MERGEDLAYER-1
 10
13.592861
 20
18.476018
 30
0.000000
  0
VERTEX
  8
MERGEDLAYER-1
 10
13.585834
 20
18.480417
 30
0.000000
  0
VERTEX
  8
MERGEDLAYER-1
 10
13.577925
 20
18.484807
 30
0.000000
  0
VERTEX
  8
MERGEDLAYER-1
 10
13.569136
 20
18.488319
 30
0.000000
  0
VERTEX
  8
MERGEDLAYER-1
 10
13.559472
 20
18.491835
 30
0.000000
  0
VERTEX
  8
MERGEDLAYER-1
 10
13.550244
 20
18.494469
 30
0.000000
  0
VERTEX
  8
MERGEDLAYER-1
 10
13.538817
 20
18.496235
 30
0.000000
  0
VERTEX
  8
MERGEDLAYER-1
 10
13.530471
 20
18.496671
 30
0.000000
  0
VERTEX
  8
MERGEDLAYER-1
 10
13.074600
 20
18.496549
 30
0.000000
  0
VERTEX
  8
MERGEDLAYER-1
 10
13.074385
 20
18.493596
 30
0.000000
  0
VERTEX
  8
MERGEDLAYER-1
 10
13.073063
 20
18.490079
 30
0.000000
  0
VERTEX
  8
MERGEDLAYER-1
 10
13.071309
 20
18.487446
 30
0.000000
  0
VERTEX
  8
MERGEDLAYER-1
 10
13.068672
 20
18.484807
 30
0.000000
  0
VERTEX
  8
MERGEDLAYER-1
 10
13.065157
 20
18.482605
 30
0.000000
  0
VERTEX
  8
MERGEDLAYER-1
 10
13.061640
 20
18.482168
 30
0.000000
  0
VERTEX
  8
MERGEDLAYER-1
 10
13.059552
 20
18.481647
 30
0.000000
  0
VERTEX
  8
MERGEDLAYER-1
 10
13.056368
 20
18.482168
 30
0.000000
  0
VERTEX
  8
MERGEDLAYER-1
 10
13.051974
 20
18.483492
 30
0.000000
  0
VERTEX
  8
MERGEDLAYER-1
 10
13.049336
 20
18.485680
 30
0.000000
  0
VERTEX
  8
MERGEDLAYER-1
 10
13.047141
 20
18.488319
 30
0.000000
  0
VERTEX
  8
MERGEDLAYER-1
 10
13.045381
 20
18.491394
 30
0.000000
  0
VERTEX
  8
MERGEDLAYER-1
 10
13.044942
 20
18.493596
 30
0.000000
  0
VERTEX
  8
MERGEDLAYER-1
 10
13.044600
 20
18.496638
 30
0.000000
  0
VERTEX
  8
MERGEDLAYER-1
 10
12.655107
 20
18.496638
 30
0.000000
  0
VERTEX
  8
MERGEDLAYER-1
 10
12.654765
 20
18.492718
 30
0.000000
  0
VERTEX
  8
MERGEDLAYER-1
 10
12.653008
 20
18.489197
 30
0.000000
  0
VERTEX
  8
MERGEDLAYER-1
 10
12.651247
 20
18.486568
 30
0.000000
  0
VERTEX
  8
MERGEDLAYER-1
 10
12.649490
 20
18.484807
 30
0.000000
  0
VERTEX
  8
MERGEDLAYER-1
 10
12.645976
 20
18.483046
 30
0.000000
  0
VERTEX
  8
MERGEDLAYER-1
 10
12.643340
 20
18.482168
 30
0.000000
  0
VERTEX
  8
MERGEDLAYER-1
 10
12.640059
 20
18.481647
 30
0.000000
  0
VERTEX
  8
MERGEDLAYER-1
 10
12.637630
 20
18.482168
 30
0.000000
  0
VERTEX
  8
MERGEDLAYER-1
 10
12.634112
 20
18.483046
 30
0.000000
  0
VERTEX
  8
MERGEDLAYER-1
 10
12.631037
 20
18.484807
 30
0.000000
  0
VERTEX
  8
MERGEDLAYER-1
 10
12.628841
 20
18.486568
 30
0.000000
  0
VERTEX
  8
MERGEDLAYER-1
 10
12.627083
 20
18.489643
 30
0.000000
  0
VERTEX
  8
MERGEDLAYER-1
 10
12.626203
 20
18.491394
 30
0.000000
  0
VERTEX
  8
MERGEDLAYER-1
 10
12.625326
 20
18.493596
 30
0.000000
  0
VERTEX
  8
MERGEDLAYER-1
 10
12.625108
 20
18.496638
 30
0.000000
  0
VERTEX
  8
MERGEDLAYER-1
 10
12.235614
 20
18.496549
 30
0.000000
  0
VERTEX
  8
MERGEDLAYER-1
 10
12.235146
 20
18.493155
 30
0.000000
  0
VERTEX
  8
MERGEDLAYER-1
 10
12.233827
 20
18.489197
 30
0.000000
  0
VERTEX
  8
MERGEDLAYER-1
 10
12.232070
 20
18.487004
 30
0.000000
  0
VERTEX
  8
MERGEDLAYER-1
 10
12.229432
 20
18.484366
 30
0.000000
  0
VERTEX
  8
MERGEDLAYER-1
 10
12.226357
 20
18.483046
 30
0.000000
  0
VERTEX
  8
MERGEDLAYER-1
 10
12.224161
 20
18.482168
 30
0.000000
  0
VERTEX
  8
MERGEDLAYER-1
 10
12.220567
 20
18.481647
 30
0.000000
  0
VERTEX
  8
MERGEDLAYER-1
 10
12.217568
 20
18.481732
 30
0.000000
  0
VERTEX
  8
MERGEDLAYER-1
 10
12.213177
 20
18.483492
 30
0.000000
  0
VERTEX
  8
MERGEDLAYER-1
 10
12.210540
 20
18.485680
 30
0.000000
  0
VERTEX
  8
MERGEDLAYER-1
 10
12.208341
 20
18.487882
 30
0.000000
  0
VERTEX
  8
MERGEDLAYER-1
 10
12.207027
 20
18.490521
 30
0.000000
  0
VERTEX
  8
MERGEDLAYER-1
 10
12.205707
 20
18.493596
 30
0.000000
  0
VERTEX
  8
MERGEDLAYER-1
 10
12.205616
 20
18.496638
 30
0.000000
  0
VERTEX
  8
MERGEDLAYER-1
 10
11.663173
 20
18.496638
 30
0.000000
  0
VERTEX
  8
MERGEDLAYER-1
 10
11.659102
 20
18.496235
 30
0.000000
  0
VERTEX
  8
MERGEDLAYER-1
 10
11.656026
 20
18.494911
 30
0.000000
  0
VERTEX
  8
MERGEDLAYER-1
 10
11.652566
 20
18.492249
 30
0.000000
  0
VERTEX
  8
MERGEDLAYER-1
 10
11.650317
 20
18.490521
 30
0.000000
  0
VERTEX
  8
MERGEDLAYER-1
 10
11.648999
 20
18.487882
 30
0.000000
  0
VERTEX
  8
MERGEDLAYER-1
 10
11.648118
 20
18.485244
 30
0.000000
  0
VERTEX
  8
MERGEDLAYER-1
 10
11.648172
 20
18.481647
 30
0.000000
  0
VERTEX
  8
MERGEDLAYER-1
 10
11.648118
 20
18.411870
 30
0.000000
  0
VERTEX
  8
MERGEDLAYER-1
 10
11.728087
 20
18.411870
 30
0.000000
  0
VERTEX
  8
MERGEDLAYER-1
 10
11.727949
 20
18.421513
 30
0.000000
  0
VERTEX
  8
MERGEDLAYER-1
 10
11.728968
 20
18.426814
 30
0.000000
  0
VERTEX
  8
MERGEDLAYER-1
 10
11.730286
 20
18.429448
 30
0.000000
  0
VERTEX
  8
MERGEDLAYER-1
 10
11.732343
 20
18.432120
 30
0.000000
  0
VERTEX
  8
MERGEDLAYER-1
 10
11.735119
 20
18.434279
 30
0.000000
  0
VERTEX
  8
MERGEDLAYER-1
 10
11.737753
 20
18.435603
 30
0.000000
  0
VERTEX
  8
MERGEDLAYER-1
 10
11.740828
 20
18.436476
 30
0.000000
  0
VERTEX
  8
MERGEDLAYER-1
 10
11.742950
 20
18.436509
 30
0.000000
  0
VERTEX
  8
MERGEDLAYER-1
 10
11.792693
 20
18.436509
 30
0.000000
  0
VERTEX
  8
MERGEDLAYER-1
 10
11.796633
 20
18.435603
 30
0.000000
  0
VERTEX
  8
MERGEDLAYER-1
 10
11.799744
 20
18.433570
 30
0.000000
  0
VERTEX
  8
MERGEDLAYER-1
 10
11.801905
 20
18.430326
 30
0.000000
  0
VERTEX
  8
MERGEDLAYER-1
 10
11.802663
 20
18.426514
 30
0.000000
  0
VERTEX
  8
MERGEDLAYER-1
 10
11.802663
 20
18.386728
 30
0.000000
  0
VERTEX
  8
MERGEDLAYER-1
 10
11.803224
 20
18.382437
 30
0.000000
  0
VERTEX
  8
MERGEDLAYER-1
 10
11.804542
 20
18.379362
 30
0.000000
  0
VERTEX
  8
MERGEDLAYER-1
 10
11.807057
 20
18.376122
 30
0.000000
  0
VERTEX
  8
MERGEDLAYER-1
 10
11.809375
 20
18.374526
 30
0.000000
  0
VERTEX
  8
MERGEDLAYER-1
 10
11.811570
 20
18.373207
 30
0.000000
  0
VERTEX
  8
MERGEDLAYER-1
 10
11.814208
 20
18.372324
 30
0.000000
  0
VERTEX
  8
MERGEDLAYER-1
 10
11.817661
 20
18.371732
 30
0.000000
  0
VERTEX
  8
MERGEDLAYER-1
 10
11.887660
 20
18.371732
 30
0.000000
  0
VERTEX
  8
MERGEDLAYER-1
 10
11.891982
 20
18.372770
 30
0.000000
  0
VERTEX
  8
MERGEDLAYER-1
 10
11.895496
 20
18.374084
 30
0.000000
  0
VERTEX
  8
MERGEDLAYER-1
 10
11.898268
 20
18.376122
 30
0.000000
  0
VERTEX
  8
MERGEDLAYER-1
 10
11.899889
 20
18.378474
 30
0.000000
  0
VERTEX
  8
MERGEDLAYER-1
 10
11.901209
 20
18.381113
 30
0.000000
  0
VERTEX
  8
MERGEDLAYER-1
 10
11.902086
 20
18.383315
 30
0.000000
  0
VERTEX
  8
MERGEDLAYER-1
 10
11.902662
 20
18.386728
 30
0.000000
  0
VERTEX
  8
MERGEDLAYER-1
 10
11.902662
 20
18.421654
 30
0.000000
  0
VERTEX
  8
MERGEDLAYER-1
 10
11.903843
 20
18.427251
 30
0.000000
  0
VERTEX
  8
MERGEDLAYER-1
 10
11.905161
 20
18.430326
 30
0.000000
  0
VERTEX
  8
MERGEDLAYER-1
 10
11.907053
 20
18.432265
 30
0.000000
  0
VERTEX
  8
MERGEDLAYER-1
 10
11.909555
 20
18.434279
 30
0.000000
  0
VERTEX
  8
MERGEDLAYER-1
 10
11.913070
 20
18.435603
 30
0.000000
  0
VERTEX
  8
MERGEDLAYER-1
 10
11.917660
 20
18.436655
 30
0.000000
  0
VERTEX
  8
MERGEDLAYER-1
 10
11.962946
 20
18.436655
 30
0.000000
  0
VERTEX
  8
MERGEDLAYER-1
 10
11.968874
 20
18.435603
 30
0.000000
  0
VERTEX
  8
MERGEDLAYER-1
 10
11.971071
 20
18.434279
 30
0.000000
  0
VERTEX
  8
MERGEDLAYER-1
 10
11.973549
 20
18.432265
 30
0.000000
  0
VERTEX
  8
MERGEDLAYER-1
 10
11.975903
 20
18.429448
 30
0.000000
  0
VERTEX
  8
MERGEDLAYER-1
 10
11.977222
 20
18.425936
 30
0.000000
  0
VERTEX
  8
MERGEDLAYER-1
 10
11.977944
 20
18.421654
 30
0.000000
  0
VERTEX
  8
MERGEDLAYER-1
 10
11.977944
 20
18.261705
 30
0.000000
  0
VERTEX
  8
MERGEDLAYER-1
 10
11.978540
 20
18.258526
 30
0.000000
  0
VERTEX
  8
MERGEDLAYER-1
 10
11.978979
 20
18.255892
 30
0.000000
  0
VERTEX
  8
MERGEDLAYER-1
 10
11.980736
 20
18.253258
 30
0.000000
  0
VERTEX
  8
MERGEDLAYER-1
 10
11.982339
 20
18.251094
 30
0.000000
  0
VERTEX
  8
MERGEDLAYER-1
 10
11.985572
 20
18.248864
 30
0.000000
  0
VERTEX
  8
MERGEDLAYER-1
 10
11.992947
 20
18.246699
 30
0.000000
  0
VERTEX
  8
MERGEDLAYER-1
 10
12.042946
 20
18.246699
 30
0.000000
  0
VERTEX
  8
MERGEDLAYER-1
 10
12.046645
 20
18.247108
 30
0.000000
  0
VERTEX
  8
MERGEDLAYER-1
 10
12.049721
 20
18.248422
 30
0.000000
  0
VERTEX
  8
MERGEDLAYER-1
 10
12.053550
 20
18.251094
 30
0.000000
  0
VERTEX
  8
MERGEDLAYER-1
 10
12.056314
 20
18.254136
 30
0.000000
  0
VERTEX
  8
MERGEDLAYER-1
 10
12.057191
 20
18.256775
 30
0.000000
  0
VERTEX
  8
MERGEDLAYER-1
 10
12.057945
 20
18.261705
 30
0.000000
  0
VERTEX
  8
MERGEDLAYER-1
 10
12.057945
 20
18.391503
 30
0.000000
  0
VERTEX
  8
MERGEDLAYER-1
 10
12.058948
 20
18.396930
 30
0.000000
  0
VERTEX
  8
MERGEDLAYER-1
 10
12.060268
 20
18.400006
 30
0.000000
  0
VERTEX
  8
MERGEDLAYER-1
 10
12.062339
 20
18.402104
 30
0.000000
  0
VERTEX
  8
MERGEDLAYER-1
 10
12.064662
 20
18.404405
 30
0.000000
  0
VERTEX
  8
MERGEDLAYER-1
 10
12.067737
 20
18.405719
 30
0.000000
  0
VERTEX
  8
MERGEDLAYER-1
 10
12.072943
 20
18.406494
 30
0.000000
  0
VERTEX
  8
MERGEDLAYER-1
 10
12.310736
 20
18.406494
 30
0.000000
  0
VERTEX
  8
MERGEDLAYER-1
 10
12.315992
 20
18.405719
 30
0.000000
  0
VERTEX
  8
MERGEDLAYER-1
 10
12.319067
 20
18.404405
 30
0.000000
  0
VERTEX
  8
MERGEDLAYER-1
 10
12.321344
 20
18.402104
 30
0.000000
  0
VERTEX
  8
MERGEDLAYER-1
 10
12.323904
 20
18.400006
 30
0.000000
  0
VERTEX
  8
MERGEDLAYER-1
 10
12.325219
 20
18.396052
 30
0.000000
  0
VERTEX
  8
MERGEDLAYER-1
 10
12.325739
 20
18.391503
 30
0.000000
  0
VERTEX
  8
MERGEDLAYER-1
 10
12.325661
 20
18.352117
 30
0.000000
  0
VERTEX
  8
MERGEDLAYER-1
 10
12.405630
 20
18.352117
 30
0.000000
  0
VERTEX
  8
MERGEDLAYER-1
 10
12.405737
 20
18.391503
 30
0.000000
  0
VERTEX
  8
MERGEDLAYER-1
 10
12.406507
 20
18.397367
 30
0.000000
  0
VERTEX
  8
MERGEDLAYER-1
 10
12.408264
 20
18.400006
 30
0.000000
  0
VERTEX
  8
MERGEDLAYER-1
 10
12.410128
 20
18.402104
 30
0.000000
  0
VERTEX
  8
MERGEDLAYER-1
 10
12.412659
 20
18.404405
 30
0.000000
  0
VERTEX
  8
MERGEDLAYER-1
 10
12.415734
 20
18.406156
 30
0.000000
  0
VERTEX
  8
MERGEDLAYER-1
 10
12.420736
 20
18.406494
 30
0.000000
  0
VERTEX
  8
MERGEDLAYER-1
 10
13.149094
 20
18.406494
 30
0.000000
  0
VERTEX
  8
MERGEDLAYER-1
 10
13.154353
 20
18.405719
 30
0.000000
  0
VERTEX
  8
MERGEDLAYER-1
 10
13.157867
 20
18.403968
 30
0.000000
  0
VERTEX
  8
MERGEDLAYER-1
 10
13.159702
 20
18.402104
 30
0.000000
  0
VERTEX
  8
MERGEDLAYER-1
 10
13.162258
 20
18.399569
 30
0.000000
  0
VERTEX
  8
MERGEDLAYER-1
 10
13.163139
 20
18.396930
 30
0.000000
  0
VERTEX
  8
MERGEDLAYER-1
 10
13.164019
 20
18.394292
 30
0.000000
  0
VERTEX
  8
MERGEDLAYER-1
 10
13.164097
 20
18.391503
 30
0.000000
  0
VERTEX
  8
MERGEDLAYER-1
 10
13.164097
 20
18.301706
 30
0.000000
  0
VERTEX
  8
MERGEDLAYER-1
 10
13.164458
 20
18.294560
 30
0.000000
  0
VERTEX
  8
MERGEDLAYER-1
 10
13.165334
 20
18.291048
 30
0.000000
  0
VERTEX
  8
MERGEDLAYER-1
 10
13.166656
 20
18.285335
 30
0.000000
  0
VERTEX
  8
MERGEDLAYER-1
 10
13.168410
 20
18.280057
 30
0.000000
  0
VERTEX
  8
MERGEDLAYER-1
 10
13.170171
 20
18.276546
 30
0.000000
  0
VERTEX
  8
MERGEDLAYER-1
 10
13.172808
 20
18.271714
 30
0.000000
  0
VERTEX
  8
MERGEDLAYER-1
 10
13.175442
 20
18.268193
 30
0.000000
  0
VERTEX
  8
MERGEDLAYER-1
 10
13.178079
 20
18.264681
 30
0.000000
  0
VERTEX
  8
MERGEDLAYER-1
 10
13.180205
 20
18.262813
 30
0.000000
  0
VERTEX
  8
MERGEDLAYER-1
 10
13.183789
 20
18.259413
 30
0.000000
  0
VERTEX
  8
MERGEDLAYER-1
 10
13.188187
 20
18.255892
 30
0.000000
  0
VERTEX
  8
MERGEDLAYER-1
 10
13.192578
 20
18.253258
 30
0.000000
  0
VERTEX
  8
MERGEDLAYER-1
 10
13.198291
 20
18.250624
 30
0.000000
  0
VERTEX
  8
MERGEDLAYER-1
 10
13.204004
 20
18.248864
 30
0.000000
  0
VERTEX
  8
MERGEDLAYER-1
 10
13.209274
 20
18.247549
 30
0.000000
  0
VERTEX
  8
MERGEDLAYER-1
 10
13.212792
 20
18.246662
 30
0.000000
  0
VERTEX
  8
MERGEDLAYER-1
 10
13.219094
 20
18.246699
 30
0.000000
  0
VERTEX
  8
MERGEDLAYER-1
 10
13.282781
 20
18.246699
 30
0.000000
  0
VERTEX
  8
MERGEDLAYER-1
 10
13.287487
 20
18.247986
 30
0.000000
  0
VERTEX
  8
MERGEDLAYER-1
 10
13.291002
 20
18.249737
 30
0.000000
  0
VERTEX
  8
MERGEDLAYER-1
 10
13.293389
 20
18.251244
 30
0.000000
  0
VERTEX
  8
MERGEDLAYER-1
 10
13.295396
 20
18.254136
 30
0.000000
  0
VERTEX
  8
MERGEDLAYER-1
 10
13.296276
 20
18.255892
 30
0.000000
  0
VERTEX
  8
MERGEDLAYER-1
 10
13.297591
 20
18.258967
 30
0.000000
  0
VERTEX
  8
MERGEDLAYER-1
 10
13.297783
 20
18.261860
 30
0.000000
  0
VERTEX
  8
MERGEDLAYER-1
 10
13.297783
 20
18.271217
 30
0.000000
  0
VERTEX
  8
MERGEDLAYER-1
 10
13.297153
 20
18.275668
 30
0.000000
  0
VERTEX
  8
MERGEDLAYER-1
 10
13.294957
 20
18.279621
 30
0.000000
  0
VERTEX
  8
MERGEDLAYER-1
 10
13.293389
 20
18.281827
 30
0.000000
  0
VERTEX
  8
MERGEDLAYER-1
 10
13.291002
 20
18.283574
 30
0.000000
  0
VERTEX
  8
MERGEDLAYER-1
 10
13.288805
 20
18.284893
 30
0.000000
  0
VERTEX
  8
MERGEDLAYER-1
 10
13.286168
 20
18.285771
 30
0.000000
  0
VERTEX
  8
MERGEDLAYER-1
 10
13.282781
 20
18.286217
 30
0.000000
  0
VERTEX
  8
MERGEDLAYER-1
 10
13.234200
 20
18.286217
 30
0.000000
  0
VERTEX
  8
MERGEDLAYER-1
 10
13.229486
 20
18.287095
 30
0.000000
  0
VERTEX
  8
MERGEDLAYER-1
 10
13.225972
 20
18.288847
 30
0.000000
  0
VERTEX
  8
MERGEDLAYER-1
 10
13.223596
 20
18.290617
 30
0.000000
  0
VERTEX
  8
MERGEDLAYER-1
 10
13.221140
 20
18.293682
 30
0.000000
  0
VERTEX
  8
MERGEDLAYER-1
 10
13.219820
 20
18.297199
 30
0.000000
  0
VERTEX
  8
MERGEDLAYER-1
 10
13.219094
 20
18.301706
 30
0.000000
  0
VERTEX
  8
MERGEDLAYER-1
 10
13.219202
 20
18.357769
 30
0.000000
  0
VERTEX
  8
MERGEDLAYER-1
 10
13.220259
 20
18.363098
 30
0.000000
  0
VERTEX
  8
MERGEDLAYER-1
 10
13.221578
 20
18.366173
 30
0.000000
  0
VERTEX
  8
MERGEDLAYER-1
 10
13.223596
 20
18.368371
 30
0.000000
  0
VERTEX
  8
MERGEDLAYER-1
 10
13.226849
 20
18.371009
 30
0.000000
  0
VERTEX
  8
MERGEDLAYER-1
 10
13.229924
 20
18.372324
 30
0.000000
  0
VERTEX
  8
MERGEDLAYER-1
 10
13.234200
 20
18.372770
 30
0.000000
  0
VERTEX
  8
MERGEDLAYER-1
 10
13.282877
 20
18.372770
 30
0.000000
  0
VERTEX
  8
MERGEDLAYER-1
 10
13.287487
 20
18.373648
 30
0.000000
  0
VERTEX
  8
MERGEDLAYER-1
 10
13.291439
 20
18.375399
 30
0.000000
  0
VERTEX
  8
MERGEDLAYER-1
 10
13.293485
 20
18.377160
 30
0.000000
  0
VERTEX
  8
MERGEDLAYER-1
 10
13.295837
 20
18.379798
 30
0.000000
  0
VERTEX
  8
MERGEDLAYER-1
 10
13.297153
 20
18.383315
 30
0.000000
  0
VERTEX
  8
MERGEDLAYER-1
 10
13.297875
 20
18.387766
 30
0.000000
  0
VERTEX
  8
MERGEDLAYER-1
 10
13.297875
 20
18.426767
 30
0.000000
  0
VERTEX
  8
MERGEDLAYER-1
 10
13.298914
 20
18.430763
 30
0.000000
  0
VERTEX
  8
MERGEDLAYER-1
 10
13.299352
 20
18.432965
 30
0.000000
  0
VERTEX
  8
MERGEDLAYER-1
 10
13.300667
 20
18.435603
 30
0.000000
  0
VERTEX
  8
MERGEDLAYER-1
 10
13.302270
 20
18.437369
 30
0.000000
  0
VERTEX
  8
MERGEDLAYER-1
 10
13.305065
 20
18.439552
 30
0.000000
  0
VERTEX
  8
MERGEDLAYER-1
 10
13.309017
 20
18.441312
 30
0.000000
  0
VERTEX
  8
MERGEDLAYER-1
 10
13.312878
 20
18.441758
 30
0.000000
  0
VERTEX
  8
MERGEDLAYER-1
 10
13.499259
 20
18.441758
 30
0.000000
  0
VERTEX
  8
MERGEDLAYER-1
 10
13.503228
 20
18.440876
 30
0.000000
  0
VERTEX
  8
MERGEDLAYER-1
 10
13.508060
 20
18.439115
 30
0.000000
  0
VERTEX
  8
MERGEDLAYER-1
 10
13.509868
 20
18.437369
 30
0.000000
  0
VERTEX
  8
MERGEDLAYER-1
 10
13.512017
 20
18.434725
 30
0.000000
  0
VERTEX
  8
MERGEDLAYER-1
 10
13.513335
 20
18.432523
 30
0.000000
  0
VERTEX
  8
MERGEDLAYER-1
 10
13.514212
 20
18.429448
 30
0.000000
  0
VERTEX
  8
MERGEDLAYER-1
 10
13.514262
 20
18.426767
 30
0.000000
  0
VERTEX
  8
MERGEDLAYER-1
 10
13.514262
 20
18.387766
 30
0.000000
  0
VERTEX
  8
MERGEDLAYER-1
 10
13.514654
 20
18.383752
 30
0.000000
  0
VERTEX
  8
MERGEDLAYER-1
 10
13.515969
 20
18.380235
 30
0.000000
  0
VERTEX
  8
MERGEDLAYER-1
 10
13.518652
 20
18.377160
 30
0.000000
  0
VERTEX
  8
MERGEDLAYER-1
 10
13.521243
 20
18.374962
 30
0.000000
  0
VERTEX
  8
MERGEDLAYER-1
 10
13.524142
 20
18.372803
 30
0.000000
  0
VERTEX
  8
MERGEDLAYER-1
 10
13.529259
 20
18.372770
 30
0.000000
  0
VERTEX
  8
MERGEDLAYER-1
 10
13.577895
 20
18.372770
 30
0.000000
  0
VERTEX
  8
MERGEDLAYER-1
 10
13.582758
 20
18.371887
 30
0.000000
  0
VERTEX
  8
MERGEDLAYER-1
 10
13.586710
 20
18.370131
 30
0.000000
  0
VERTEX
  8
MERGEDLAYER-1
 10
13.588702
 20
18.368371
 30
0.000000
  0
VERTEX
  8
MERGEDLAYER-1
 10
13.591104
 20
18.365737
 30
0.000000
  0
VERTEX
  8
MERGEDLAYER-1
 10
13.592424
 20
18.363098
 30
0.000000
  0
VERTEX
  8
MERGEDLAYER-1
 10
13.593093
 20
18.357769
 30
0.000000
  0
VERTEX
  8
MERGEDLAYER-1
 10
13.593093
 20
18.301218
 30
0.000000
  0
VERTEX
  8
MERGEDLAYER-1
 10
13.592424
 20
18.297636
 30
0.000000
  0
VERTEX
  8
MERGEDLAYER-1
 10
13.591104
 20
18.293682
 30
0.000000
  0
VERTEX
  8
MERGEDLAYER-1
 10
13.588702
 20
18.290617
 30
0.000000
  0
VERTEX
  8
MERGEDLAYER-1
 10
13.585395
 20
18.287969
 30
0.000000
  0
VERTEX
  8
MERGEDLAYER-1
 10
13.583196
 20
18.287095
 30
0.000000
  0
VERTEX
  8
MERGEDLAYER-1
 10
13.578096
 20
18.286217
 30
0.000000
  0
SEQEND
  8
MERGEDLAYER-1
  0
POLYLINE
  8
MERGEDLAYER-1
 66
  1
 70
  1
 62
  7
 10
13.529259
 20
17.457106
 30
0.000000
  0
VERTEX
  8
MERGEDLAYER-1
 10
13.529259
 20
17.457106
 30
0.000000
  0
VERTEX
  8
MERGEDLAYER-1
 10
13.525196
 20
17.457552
 30
0.000000
  0
VERTEX
  8
MERGEDLAYER-1
 10
13.522562
 20
17.458426
 30
0.000000
  0
VERTEX
  8
MERGEDLAYER-1
 10
13.518652
 20
17.461496
 30
0.000000
  0
VERTEX
  8
MERGEDLAYER-1
 10
13.516849
 20
17.463262
 30
0.000000
  0
VERTEX
  8
MERGEDLAYER-1
 10
13.515531
 20
17.465454
 30
0.000000
  0
VERTEX
  8
MERGEDLAYER-1
 10
13.514654
 20
17.468093
 30
0.000000
  0
VERTEX
  8
MERGEDLAYER-1
 10
13.514262
 20
17.472107
 30
0.000000
  0
VERTEX
  8
MERGEDLAYER-1
 10
13.514262
 20
17.481459
 30
0.000000
  0
VERTEX
  8
MERGEDLAYER-1
 10
13.514654
 20
17.485229
 30
0.000000
  0
VERTEX
  8
MERGEDLAYER-1
 10
13.515969
 20
17.488305
 30
0.000000
  0
VERTEX
  8
MERGEDLAYER-1
 10
13.516849
 20
17.490061
 30
0.000000
  0
VERTEX
  8
MERGEDLAYER-1
 10
13.518652
 20
17.492070
 30
0.000000
  0
VERTEX
  8
MERGEDLAYER-1
 10
13.521682
 20
17.494455
 30
0.000000
  0
VERTEX
  8
MERGEDLAYER-1
 10
13.525196
 20
17.495770
 30
0.000000
  0
VERTEX
  8
MERGEDLAYER-1
 10
13.529259
 20
17.496465
 30
0.000000
  0
VERTEX
  8
MERGEDLAYER-1
 10
13.593138
 20
17.496465
 30
0.000000
  0
VERTEX
  8
MERGEDLAYER-1
 10
13.599013
 20
17.495770
 30
0.000000
  0
VERTEX
  8
MERGEDLAYER-1
 10
13.603408
 20
17.494897
 30
0.000000
  0
VERTEX
  8
MERGEDLAYER-1
 10
13.608682
 20
17.493577
 30
0.000000
  0
VERTEX
  8
MERGEDLAYER-1
 10
13.613954
 20
17.491817
 30
0.000000
  0
VERTEX
  8
MERGEDLAYER-1
 10
13.618787
 20
17.489619
 30
0.000000
  0
VERTEX
  8
MERGEDLAYER-1
 10
13.622305
 20
17.487868
 30
0.000000
  0
VERTEX
  8
MERGEDLAYER-1
 10
13.625819
 20
17.485666
 30
0.000000
  0
VERTEX
  8
MERGEDLAYER-1
 10
13.629333
 20
17.483028
 30
0.000000
  0
VERTEX
  8
MERGEDLAYER-1
 10
13.632032
 20
17.480351
 30
0.000000
  0
VERTEX
  8
MERGEDLAYER-1
 10
13.635485
 20
17.476445
 30
0.000000
  0
VERTEX
  8
MERGEDLAYER-1
 10
13.639441
 20
17.471605
 30
0.000000
  0
VERTEX
  8
MERGEDLAYER-1
 10
13.641636
 20
17.467656
 30
0.000000
  0
VERTEX
  8
MERGEDLAYER-1
 10
13.644273
 20
17.461501
 30
0.000000
  0
VERTEX
  8
MERGEDLAYER-1
 10
13.646030
 20
17.457111
 30
0.000000
  0
VERTEX
  8
MERGEDLAYER-1
 10
13.646910
 20
17.453153
 30
0.000000
  0
VERTEX
  8
MERGEDLAYER-1
 10
13.648225
 20
17.447003
 30
0.000000
  0
VERTEX
  8
MERGEDLAYER-1
 10
13.648141
 20
17.370512
 30
0.000000
  0
VERTEX
  8
MERGEDLAYER-1
 10
13.647787
 20
17.362201
 30
0.000000
  0
VERTEX
  8
MERGEDLAYER-1
 10
13.647348
 20
17.353854
 30
0.000000
  0
VERTEX
  8
MERGEDLAYER-1
 10
13.646030
 20
17.346825
 30
0.000000
  0
VERTEX
  8
MERGEDLAYER-1
 10
13.644711
 20
17.340675
 30
0.000000
  0
VERTEX
  8
MERGEDLAYER-1
 10
13.642516
 20
17.333646
 30
0.000000
  0
VERTEX
  8
MERGEDLAYER-1
 10
13.639880
 20
17.326172
 30
0.000000
  0
VERTEX
  8
MERGEDLAYER-1
 10
13.637241
 20
17.319143
 30
0.000000
  0
VERTEX
  8
MERGEDLAYER-1
 10
13.634166
 20
17.312998
 30
0.000000
  0
VERTEX
  8
MERGEDLAYER-1
 10
13.630652
 20
17.306843
 30
0.000000
  0
VERTEX
  8
MERGEDLAYER-1
 10
13.626257
 20
17.300255
 30
0.000000
  0
VERTEX
  8
MERGEDLAYER-1
 10
13.620986
 20
17.293218
 30
0.000000
  0
VERTEX
  8
MERGEDLAYER-1
 10
13.615273
 20
17.286189
 30
0.000000
  0
VERTEX
  8
MERGEDLAYER-1
 10
13.608241
 20
17.279161
 30
0.000000
  0
VERTEX
  8
MERGEDLAYER-1
 10
13.600774
 20
17.273010
 30
0.000000
  0
VERTEX
  8
MERGEDLAYER-1
 10
13.592861
 20
17.267296
 30
0.000000
  0
VERTEX
  8
MERGEDLAYER-1
 10
13.585834
 20
17.262907
 30
0.000000
  0
VERTEX
  8
MERGEDLAYER-1
 10
13.577925
 20
17.258507
 30
0.000000
  0
VERTEX
  8
MERGEDLAYER-1
 10
13.569136
 20
17.254995
 30
0.000000
  0
VERTEX
  8
MERGEDLAYER-1
 10
13.559472
 20
17.251479
 30
0.000000
  0
VERTEX
  8
MERGEDLAYER-1
 10
13.550244
 20
17.248845
 30
0.000000
  0
VERTEX
  8
MERGEDLAYER-1
 10
13.538817
 20
17.247084
 30
0.000000
  0
VERTEX
  8
MERGEDLAYER-1
 10
13.530471
 20
17.246643
 30
0.000000
  0
VERTEX
  8
MERGEDLAYER-1
 10
13.074600
 20
17.246765
 30
0.000000
  0
VERTEX
  8
MERGEDLAYER-1
 10
13.074385
 20
17.249718
 30
0.000000
  0
VERTEX
  8
MERGEDLAYER-1
 10
13.073063
 20
17.253240
 30
0.000000
  0
VERTEX
  8
MERGEDLAYER-1
 10
13.071309
 20
17.255873
 30
0.000000
  0
VERTEX
  8
MERGEDLAYER-1
 10
13.068672
 20
17.258507
 30
0.000000
  0
VERTEX
  8
MERGEDLAYER-1
 10
13.065157
 20
17.260709
 30
0.000000
  0
VERTEX
  8
MERGEDLAYER-1
 10
13.061640
 20
17.261146
 30
0.000000
  0
VERTEX
  8
MERGEDLAYER-1
 10
13.059552
 20
17.261672
 30
0.000000
  0
VERTEX
  8
MERGEDLAYER-1
 10
13.056368
 20
17.261146
 30
0.000000
  0
VERTEX
  8
MERGEDLAYER-1
 10
13.051974
 20
17.259831
 30
0.000000
  0
VERTEX
  8
MERGEDLAYER-1
 10
13.049336
 20
17.257634
 30
0.000000
  0
VERTEX
  8
MERGEDLAYER-1
 10
13.047141
 20
17.254995
 30
0.000000
  0
VERTEX
  8
MERGEDLAYER-1
 10
13.045381
 20
17.251920
 30
0.000000
  0
VERTEX
  8
MERGEDLAYER-1
 10
13.044942
 20
17.249718
 30
0.000000
  0
VERTEX
  8
MERGEDLAYER-1
 10
13.044600
 20
17.246676
 30
0.000000
  0
VERTEX
  8
MERGEDLAYER-1
 10
12.655107
 20
17.246676
 30
0.000000
  0
VERTEX
  8
MERGEDLAYER-1
 10
12.654765
 20
17.250606
 30
0.000000
  0
VERTEX
  8
MERGEDLAYER-1
 10
12.653008
 20
17.254118
 30
0.000000
  0
VERTEX
  8
MERGEDLAYER-1
 10
12.651247
 20
17.256756
 30
0.000000
  0
VERTEX
  8
MERGEDLAYER-1
 10
12.649490
 20
17.258507
 30
0.000000
  0
VERTEX
  8
MERGEDLAYER-1
 10
12.645976
 20
17.260268
 30
0.000000
  0
VERTEX
  8
MERGEDLAYER-1
 10
12.643340
 20
17.261146
 30
0.000000
  0
VERTEX
  8
MERGEDLAYER-1
 10
12.640059
 20
17.261672
 30
0.000000
  0
VERTEX
  8
MERGEDLAYER-1
 10
12.637630
 20
17.261146
 30
0.000000
  0
VERTEX
  8
MERGEDLAYER-1
 10
12.634112
 20
17.260268
 30
0.000000
  0
VERTEX
  8
MERGEDLAYER-1
 10
12.631037
 20
17.258507
 30
0.000000
  0
VERTEX
  8
MERGEDLAYER-1
 10
12.628841
 20
17.256756
 30
0.000000
  0
VERTEX
  8
MERGEDLAYER-1
 10
12.627083
 20
17.253681
 30
0.000000
  0
VERTEX
  8
MERGEDLAYER-1
 10
12.626203
 20
17.251920
 30
0.000000
  0
VERTEX
  8
MERGEDLAYER-1
 10
12.625326
 20
17.249718
 30
0.000000
  0
VERTEX
  8
MERGEDLAYER-1
 10
12.625108
 20
17.246676
 30
0.000000
  0
VERTEX
  8
MERGEDLAYER-1
 10
12.235614
 20
17.246765
 30
0.000000
  0
VERTEX
  8
MERGEDLAYER-1
 10
12.235146
 20
17.250160
 30
0.000000
  0
VERTEX
  8
MERGEDLAYER-1
 10
12.233827
 20
17.254118
 30
0.000000
  0
VERTEX
  8
MERGEDLAYER-1
 10
12.232070
 20
17.256315
 30
0.000000
  0
VERTEX
  8
MERGEDLAYER-1
 10
12.229432
 20
17.258949
 30
0.000000
  0
VERTEX
  8
MERGEDLAYER-1
 10
12.226357
 20
17.260268
 30
0.000000
  0
VERTEX
  8
MERGEDLAYER-1
 10
12.224161
 20
17.261146
 30
0.000000
  0
VERTEX
  8
MERGEDLAYER-1
 10
12.220567
 20
17.261672
 30
0.000000
  0
VERTEX
  8
MERGEDLAYER-1
 10
12.217568
 20
17.261583
 30
0.000000
  0
VERTEX
  8
MERGEDLAYER-1
 10
12.213177
 20
17.259831
 30
0.000000
  0
VERTEX
  8
MERGEDLAYER-1
 10
12.210540
 20
17.257634
 30
0.000000
  0
VERTEX
  8
MERGEDLAYER-1
 10
12.208341
 20
17.255432
 30
0.000000
  0
VERTEX
  8
MERGEDLAYER-1
 10
12.207027
 20
17.252794
 30
0.000000
  0
VERTEX
  8
MERGEDLAYER-1
 10
12.205707
 20
17.249718
 30
0.000000
  0
VERTEX
  8
MERGEDLAYER-1
 10
12.205616
 20
17.246676
 30
0.000000
  0
VERTEX
  8
MERGEDLAYER-1
 10
11.663173
 20
17.246676
 30
0.000000
  0
VERTEX
  8
MERGEDLAYER-1
 10
11.659102
 20
17.247084
 30
0.000000
  0
VERTEX
  8
MERGEDLAYER-1
 10
11.656026
 20
17.248404
 30
0.000000
  0
VERTEX
  8
MERGEDLAYER-1
 10
11.652566
 20
17.251066
 30
0.000000
  0
VERTEX
  8
MERGEDLAYER-1
 10
11.650317
 20
17.252794
 30
0.000000
  0
VERTEX
  8
MERGEDLAYER-1
 10
11.648999
 20
17.255432
 30
0.000000
  0
VERTEX
  8
MERGEDLAYER-1
 10
11.648118
 20
17.258071
 30
0.000000
  0
VERTEX
  8
MERGEDLAYER-1
 10
11.648172
 20
17.261672
 30
0.000000
  0
VERTEX
  8
MERGEDLAYER-1
 10
11.648118
 20
17.331449
 30
0.000000
  0
VERTEX
  8
MERGEDLAYER-1
 10
11.728087
 20
17.331449
 30
0.000000
  0
VERTEX
  8
MERGEDLAYER-1
 10
11.727949
 20
17.321810
 30
0.000000
  0
VERTEX
  8
MERGEDLAYER-1
 10
11.728968
 20
17.316510
 30
0.000000
  0
VERTEX
  8
MERGEDLAYER-1
 10
11.730286
 20
17.313871
 30
0.000000
  0
VERTEX
  8
MERGEDLAYER-1
 10
11.732343
 20
17.311204
 30
0.000000
  0
VERTEX
  8
MERGEDLAYER-1
 10
11.735119
 20
17.309044
 30
0.000000
  0
VERTEX
  8
MERGEDLAYER-1
 10
11.737753
 20
17.307720
 30
0.000000
  0
VERTEX
  8
MERGEDLAYER-1
 10
11.740828
 20
17.306843
 30
0.000000
  0
VERTEX
  8
MERGEDLAYER-1
 10
11.742950
 20
17.306814
 30
0.000000
  0
VERTEX
  8
MERGEDLAYER-1
 10
11.792693
 20
17.306814
 30
0.000000
  0
VERTEX
  8
MERGEDLAYER-1
 10
11.796633
 20
17.307720
 30
0.000000
  0
VERTEX
  8
MERGEDLAYER-1
 10
11.799744
 20
17.309753
 30
0.000000
  0
VERTEX
  8
MERGEDLAYER-1
 10
11.801905
 20
17.312998
 30
0.000000
  0
VERTEX
  8
MERGEDLAYER-1
 10
11.802663
 20
17.316810
 30
0.000000
  0
VERTEX
  8
MERGEDLAYER-1
 10
11.802663
 20
17.356591
 30
0.000000
  0
VERTEX
  8
MERGEDLAYER-1
 10
11.803224
 20
17.360887
 30
0.000000
  0
VERTEX
  8
MERGEDLAYER-1
 10
11.804542
 20
17.363962
 30
0.000000
  0
VERTEX
  8
MERGEDLAYER-1
 10
11.807057
 20
17.367192
 30
0.000000
  0
VERTEX
  8
MERGEDLAYER-1
 10
11.809375
 20
17.368793
 30
0.000000
  0
VERTEX
  8
MERGEDLAYER-1
 10
11.811570
 20
17.370112
 30
0.000000
  0
VERTEX
  8
MERGEDLAYER-1
 10
11.814208
 20
17.370990
 30
0.000000
  0
VERTEX
  8
MERGEDLAYER-1
 10
11.817661
 20
17.371591
 30
0.000000
  0
VERTEX
  8
MERGEDLAYER-1
 10
11.887660
 20
17.371591
 30
0.000000
  0
VERTEX
  8
MERGEDLAYER-1
 10
11.891982
 20
17.370554
 30
0.000000
  0
VERTEX
  8
MERGEDLAYER-1
 10
11.895496
 20
17.369230
 30
0.000000
  0
VERTEX
  8
MERGEDLAYER-1
 10
11.898268
 20
17.367192
 30
0.000000
  0
VERTEX
  8
MERGEDLAYER-1
 10
11.899889
 20
17.364840
 30
0.000000
  0
VERTEX
  8
MERGEDLAYER-1
 10
11.901209
 20
17.362201
 30
0.000000
  0
VERTEX
  8
MERGEDLAYER-1
 10
11.902086
 20
17.360004
 30
0.000000
  0
VERTEX
  8
MERGEDLAYER-1
 10
11.902662
 20
17.356591
 30
0.000000
  0
VERTEX
  8
MERGEDLAYER-1
 10
11.902662
 20
17.321665
 30
0.000000
  0
VERTEX
  8
MERGEDLAYER-1
 10
11.903843
 20
17.316073
 30
0.000000
  0
VERTEX
  8
MERGEDLAYER-1
 10
11.905161
 20
17.312998
 30
0.000000
  0
VERTEX
  8
MERGEDLAYER-1
 10
11.907053
 20
17.311059
 30
0.000000
  0
VERTEX
  8
MERGEDLAYER-1
 10
11.909555
 20
17.309044
 30
0.000000
  0
VERTEX
  8
MERGEDLAYER-1
 10
11.913070
 20
17.307720
 30
0.000000
  0
VERTEX
  8
MERGEDLAYER-1
 10
11.917660
 20
17.306669
 30
0.000000
  0
VERTEX
  8
MERGEDLAYER-1
 10
11.962946
 20
17.306669
 30
0.000000
  0
VERTEX
  8
MERGEDLAYER-1
 10
11.968874
 20
17.307720
 30
0.000000
  0
VERTEX
  8
MERGEDLAYER-1
 10
11.971071
 20
17.309044
 30
0.000000
  0
VERTEX
  8
MERGEDLAYER-1
 10
11.973549
 20
17.311059
 30
0.000000
  0
VERTEX
  8
MERGEDLAYER-1
 10
11.975903
 20
17.313871
 30
0.000000
  0
VERTEX
  8
MERGEDLAYER-1
 10
11.977222
 20
17.317388
 30
0.000000
  0
VERTEX
  8
MERGEDLAYER-1
 10
11.977944
 20
17.321665
 30
0.000000
  0
VERTEX
  8
MERGEDLAYER-1
 10
11.977944
 20
17.481619
 30
0.000000
  0
VERTEX
  8
MERGEDLAYER-1
 10
11.978540
 20
17.484788
 30
0.000000
  0
VERTEX
  8
MERGEDLAYER-1
 10
11.978979
 20
17.487427
 30
0.000000
  0
VERTEX
  8
MERGEDLAYER-1
 10
11.980736
 20
17.490061
 30
0.000000
  0
VERTEX
  8
MERGEDLAYER-1
 10
11.982339
 20
17.492225
 30
0.000000
  0
VERTEX
  8
MERGEDLAYER-1
 10
11.985572
 20
17.494455
 30
0.000000
  0
VERTEX
  8
MERGEDLAYER-1
 10
11.992947
 20
17.496615
 30
0.000000
  0
VERTEX
  8
MERGEDLAYER-1
 10
12.042946
 20
17.496615
 30
0.000000
  0
VERTEX
  8
MERGEDLAYER-1
 10
12.046645
 20
17.496211
 30
0.000000
  0
VERTEX
  8
MERGEDLAYER-1
 10
12.049721
 20
17.494897
 30
0.000000
  0
VERTEX
  8
MERGEDLAYER-1
 10
12.053550
 20
17.492225
 30
0.000000
  0
VERTEX
  8
MERGEDLAYER-1
 10
12.056314
 20
17.489183
 30
0.000000
  0
VERTEX
  8
MERGEDLAYER-1
 10
12.057191
 20
17.486544
 30
0.000000
  0
VERTEX
  8
MERGEDLAYER-1
 10
12.057945
 20
17.481619
 30
0.000000
  0
VERTEX
  8
MERGEDLAYER-1
 10
12.057945
 20
17.351821
 30
0.000000
  0
VERTEX
  8
MERGEDLAYER-1
 10
12.058948
 20
17.346389
 30
0.000000
  0
VERTEX
  8
MERGEDLAYER-1
 10
12.060268
 20
17.343313
 30
0.000000
  0
VERTEX
  8
MERGEDLAYER-1
 10
12.062339
 20
17.341215
 30
0.000000
  0
VERTEX
  8
MERGEDLAYER-1
 10
12.064662
 20
17.338914
 30
0.000000
  0
VERTEX
  8
MERGEDLAYER-1
 10
12.067737
 20
17.337600
 30
0.000000
  0
VERTEX
  8
MERGEDLAYER-1
 10
12.072943
 20
17.336820
 30
0.000000
  0
VERTEX
  8
MERGEDLAYER-1
 10
12.310736
 20
17.336820
 30
0.000000
  0
VERTEX
  8
MERGEDLAYER-1
 10
12.315992
 20
17.337600
 30
0.000000
  0
VERTEX
  8
MERGEDLAYER-1
 10
12.319067
 20
17.338914
 30
0.000000
  0
VERTEX
  8
MERGEDLAYER-1
 10
12.321344
 20
17.341215
 30
0.000000
  0
VERTEX
  8
MERGEDLAYER-1
 10
12.323904
 20
17.343313
 30
0.000000
  0
VERTEX
  8
MERGEDLAYER-1
 10
12.325219
 20
17.347267
 30
0.000000
  0
VERTEX
  8
MERGEDLAYER-1
 10
12.325739
 20
17.351821
 30
0.000000
  0
VERTEX
  8
MERGEDLAYER-1
 10
12.325661
 20
17.391198
 30
0.000000
  0
VERTEX
  8
MERGEDLAYER-1
 10
12.405630
 20
17.391198
 30
0.000000
  0
VERTEX
  8
MERGEDLAYER-1
 10
12.405737
 20
17.351821
 30
0.000000
  0
VERTEX
  8
MERGEDLAYER-1
 10
12.406507
 20
17.345947
 30
0.000000
  0
VERTEX
  8
MERGEDLAYER-1
 10
12.408264
 20
17.343313
 30
0.000000
  0
VERTEX
  8
MERGEDLAYER-1
 10
12.410128
 20
17.341215
 30
0.000000
  0
VERTEX
  8
MERGEDLAYER-1
 10
12.412659
 20
17.338914
 30
0.000000
  0
VERTEX
  8
MERGEDLAYER-1
 10
12.415734
 20
17.337158
 30
0.000000
  0
VERTEX
  8
MERGEDLAYER-1
 10
12.420736
 20
17.336820
 30
0.000000
  0
VERTEX
  8
MERGEDLAYER-1
 10
13.149094
 20
17.336820
 30
0.000000
  0
VERTEX
  8
MERGEDLAYER-1
 10
13.154353
 20
17.337600
 30
0.000000
  0
VERTEX
  8
MERGEDLAYER-1
 10
13.157867
 20
17.339355
 30
0.000000
  0
VERTEX
  8
MERGEDLAYER-1
 10
13.159702
 20
17.341215
 30
0.000000
  0
VERTEX
  8
MERGEDLAYER-1
 10
13.162258
 20
17.343750
 30
0.000000
  0
VERTEX
  8
MERGEDLAYER-1
 10
13.163139
 20
17.346389
 30
0.000000
  0
VERTEX
  8
MERGEDLAYER-1
 10
13.164019
 20
17.349027
 30
0.000000
  0
VERTEX
  8
MERGEDLAYER-1
 10
13.164097
 20
17.351821
 30
0.000000
  0
VERTEX
  8
MERGEDLAYER-1
 10
13.164097
 20
17.441618
 30
0.000000
  0
VERTEX
  8
MERGEDLAYER-1
 10
13.164458
 20
17.448763
 30
0.000000
  0
VERTEX
  8
MERGEDLAYER-1
 10
13.165334
 20
17.452275
 30
0.000000
  0
VERTEX
  8
MERGEDLAYER-1
 10
13.166656
 20
17.457989
 30
0.000000
  0
VERTEX
  8
MERGEDLAYER-1
 10
13.168410
 20
17.463262
 30
0.000000
  0
VERTEX
  8
MERGEDLAYER-1
 10
13.170171
 20
17.466778
 30
0.000000
  0
VERTEX
  8
MERGEDLAYER-1
 10
13.172808
 20
17.471605
 30
0.000000
  0
VERTEX
  8
MERGEDLAYER-1
 10
13.175442
 20
17.475131
 30
0.000000
  0
VERTEX
  8
MERGEDLAYER-1
 10
13.178079
 20
17.478638
 30
0.000000
  0
VERTEX
  8
MERGEDLAYER-1
 10
13.180205
 20
17.480506
 30
0.000000
  0
VERTEX
  8
MERGEDLAYER-1
 10
13.183789
 20
17.483910
 30
0.000000
  0
VERTEX
  8
MERGEDLAYER-1
 10
13.188187
 20
17.487427
 30
0.000000
  0
VERTEX
  8
MERGEDLAYER-1
 10
13.192578
 20
17.490061
 30
0.000000
  0
VERTEX
  8
MERGEDLAYER-1
 10
13.198291
 20
17.492695
 30
0.000000
  0
VERTEX
  8
MERGEDLAYER-1
 10
13.204004
 20
17.494455
 30
0.000000
  0
VERTEX
  8
MERGEDLAYER-1
 10
13.209274
 20
17.495770
 30
0.000000
  0
VERTEX
  8
MERGEDLAYER-1
 10
13.212792
 20
17.496657
 30
0.000000
  0
VERTEX
  8
MERGEDLAYER-1
 10
13.219094
 20
17.496615
 30
0.000000
  0
VERTEX
  8
MERGEDLAYER-1
 10
13.282781
 20
17.496615
 30
0.000000
  0
VERTEX
  8
MERGEDLAYER-1
 10
13.287487
 20
17.495333
 30
0.000000
  0
VERTEX
  8
MERGEDLAYER-1
 10
13.291002
 20
17.493577
 30
0.000000
  0
VERTEX
  8
MERGEDLAYER-1
 10
13.293389
 20
17.492070
 30
0.000000
  0
VERTEX
  8
MERGEDLAYER-1
 10
13.295396
 20
17.489183
 30
0.000000
  0
VERTEX
  8
MERGEDLAYER-1
 10
13.296276
 20
17.487427
 30
0.000000
  0
VERTEX
  8
MERGEDLAYER-1
 10
13.297591
 20
17.484352
 30
0.000000
  0
VERTEX
  8
MERGEDLAYER-1
 10
13.297783
 20
17.481459
 30
0.000000
  0
VERTEX
  8
MERGEDLAYER-1
 10
13.297783
 20
17.472107
 30
0.000000
  0
VERTEX
  8
MERGEDLAYER-1
 10
13.297153
 20
17.467656
 30
0.000000
  0
VERTEX
  8
MERGEDLAYER-1
 10
13.294957
 20
17.463703
 30
0.000000
  0
VERTEX
  8
MERGEDLAYER-1
 10
13.293389
 20
17.461496
 30
0.000000
  0
VERTEX
  8
MERGEDLAYER-1
 10
13.291002
 20
17.459750
 30
0.000000
  0
VERTEX
  8
MERGEDLAYER-1
 10
13.288805
 20
17.458426
 30
0.000000
  0
VERTEX
  8
MERGEDLAYER-1
 10
13.286168
 20
17.457552
 30
0.000000
  0
VERTEX
  8
MERGEDLAYER-1
 10
13.282781
 20
17.457106
 30
0.000000
  0
VERTEX
  8
MERGEDLAYER-1
 10
13.234200
 20
17.457106
 30
0.000000
  0
VERTEX
  8
MERGEDLAYER-1
 10
13.229486
 20
17.456228
 30
0.000000
  0
VERTEX
  8
MERGEDLAYER-1
 10
13.225972
 20
17.454472
 30
0.000000
  0
VERTEX
  8
MERGEDLAYER-1
 10
13.223596
 20
17.452707
 30
0.000000
  0
VERTEX
  8
MERGEDLAYER-1
 10
13.221140
 20
17.449637
 30
0.000000
  0
VERTEX
  8
MERGEDLAYER-1
 10
13.219820
 20
17.446125
 30
0.000000
  0
VERTEX
  8
MERGEDLAYER-1
 10
13.219094
 20
17.441618
 30
0.000000
  0
VERTEX
  8
MERGEDLAYER-1
 10
13.219202
 20
17.385545
 30
0.000000
  0
VERTEX
  8
MERGEDLAYER-1
 10
13.220259
 20
17.380216
 30
0.000000
  0
VERTEX
  8
MERGEDLAYER-1
 10
13.221578
 20
17.377141
 30
0.000000
  0
VERTEX
  8
MERGEDLAYER-1
 10
13.223596
 20
17.374944
 30
0.000000
  0
VERTEX
  8
MERGEDLAYER-1
 10
13.226849
 20
17.372305
 30
0.000000
  0
VERTEX
  8
MERGEDLAYER-1
 10
13.229924
 20
17.370990
 30
0.000000
  0
VERTEX
  8
MERGEDLAYER-1
 10
13.234200
 20
17.370554
 30
0.000000
  0
VERTEX
  8
MERGEDLAYER-1
 10
13.282877
 20
17.370554
 30
0.000000
  0
VERTEX
  8
MERGEDLAYER-1
 10
13.287487
 20
17.369666
 30
0.000000
  0
VERTEX
  8
MERGEDLAYER-1
 10
13.291439
 20
17.367915
 30
0.000000
  0
VERTEX
  8
MERGEDLAYER-1
 10
13.293485
 20
17.366155
 30
0.000000
  0
VERTEX
  8
MERGEDLAYER-1
 10
13.295837
 20
17.363516
 30
0.000000
  0
VERTEX
  8
MERGEDLAYER-1
 10
13.297153
 20
17.360004
 30
0.000000
  0
VERTEX
  8
MERGEDLAYER-1
 10
13.297875
 20
17.355553
 30
0.000000
  0
VERTEX
  8
MERGEDLAYER-1
 10
13.297875
 20
17.316556
 30
0.000000
  0
VERTEX
  8
MERGEDLAYER-1
 10
13.298914
 20
17.312556
 30
0.000000
  0
VERTEX
  8
MERGEDLAYER-1
 10
13.299352
 20
17.310359
 30
0.000000
  0
VERTEX
  8
MERGEDLAYER-1
 10
13.300667
 20
17.307720
 30
0.000000
  0
VERTEX
  8
MERGEDLAYER-1
 10
13.302270
 20
17.305950
 30
0.000000
  0
VERTEX
  8
MERGEDLAYER-1
 10
13.305065
 20
17.303767
 30
0.000000
  0
VERTEX
  8
MERGEDLAYER-1
 10
13.309017
 20
17.302007
 30
0.000000
  0
VERTEX
  8
MERGEDLAYER-1
 10
13.312878
 20
17.301561
 30
0.000000
  0
VERTEX
  8
MERGEDLAYER-1
 10
13.499259
 20
17.301561
 30
0.000000
  0
VERTEX
  8
MERGEDLAYER-1
 10
13.503228
 20
17.302448
 30
0.000000
  0
VERTEX
  8
MERGEDLAYER-1
 10
13.508060
 20
17.304209
 30
0.000000
  0
VERTEX
  8
MERGEDLAYER-1
 10
13.509868
 20
17.305950
 30
0.000000
  0
VERTEX
  8
MERGEDLAYER-1
 10
13.512017
 20
17.308598
 30
0.000000
  0
VERTEX
  8
MERGEDLAYER-1
 10
13.513335
 20
17.310796
 30
0.000000
  0
VERTEX
  8
MERGEDLAYER-1
 10
13.514212
 20
17.313871
 30
0.000000
  0
VERTEX
  8
MERGEDLAYER-1
 10
13.514262
 20
17.316556
 30
0.000000
  0
VERTEX
  8
MERGEDLAYER-1
 10
13.514262
 20
17.355553
 30
0.000000
  0
VERTEX
  8
MERGEDLAYER-1
 10
13.514654
 20
17.359563
 30
0.000000
  0
VERTEX
  8
MERGEDLAYER-1
 10
13.515969
 20
17.363079
 30
0.000000
  0
VERTEX
  8
MERGEDLAYER-1
 10
13.518652
 20
17.366155
 30
0.000000
  0
VERTEX
  8
MERGEDLAYER-1
 10
13.521243
 20
17.368352
 30
0.000000
  0
VERTEX
  8
MERGEDLAYER-1
 10
13.524142
 20
17.370512
 30
0.000000
  0
VERTEX
  8
MERGEDLAYER-1
 10
13.529259
 20
17.370554
 30
0.000000
  0
VERTEX
  8
MERGEDLAYER-1
 10
13.577895
 20
17.370554
 30
0.000000
  0
VERTEX
  8
MERGEDLAYER-1
 10
13.582758
 20
17.371427
 30
0.000000
  0
VERTEX
  8
MERGEDLAYER-1
 10
13.586710
 20
17.373188
 30
0.000000
  0
VERTEX
  8
MERGEDLAYER-1
 10
13.588702
 20
17.374944
 30
0.000000
  0
VERTEX
  8
MERGEDLAYER-1
 10
13.591104
 20
17.377582
 30
0.000000
  0
VERTEX
  8
MERGEDLAYER-1
 10
13.592424
 20
17.380216
 30
0.000000
  0
VERTEX
  8
MERGEDLAYER-1
 10
13.593093
 20
17.385545
 30
0.000000
  0
VERTEX
  8
MERGEDLAYER-1
 10
13.593093
 20
17.442101
 30
0.000000
  0
VERTEX
  8
MERGEDLAYER-1
 10
13.592424
 20
17.445683
 30
0.000000
  0
VERTEX
  8
MERGEDLAYER-1
 10
13.591104
 20
17.449637
 30
0.000000
  0
VERTEX
  8
MERGEDLAYER-1
 10
13.588702
 20
17.452707
 30
0.000000
  0
VERTEX
  8
MERGEDLAYER-1
 10
13.585395
 20
17.455350
 30
0.000000
  0
VERTEX
  8
MERGEDLAYER-1
 10
13.583196
 20
17.456228
 30
0.000000
  0
VERTEX
  8
MERGEDLAYER-1
 10
13.578096
 20
17.457106
 30
0.000000
  0
SEQEND
  8
MERGEDLAYER-1
  0
POLYLINE
  8
MERGEDLAYER-1
 66
  1
 70
  1
 62
  7
 10
12.405630
 20
18.352117
 30
0.000000
  0
VERTEX
  8
MERGEDLAYER-1
 10
12.405630
 20
18.352117
 30
0.000000
  0
VERTEX
  8
MERGEDLAYER-1
 10
12.325661
 20
18.352117
 30
0.000000
  0
VERTEX
  8
MERGEDLAYER-1
 10
12.325739
 20
18.171697
 30
0.000000
  0
VERTEX
  8
MERGEDLAYER-1
 10
12.324781
 20
18.166255
 30
0.000000
  0
VERTEX
  8
MERGEDLAYER-1
 10
12.323462
 20
18.163180
 30
0.000000
  0
VERTEX
  8
MERGEDLAYER-1
 10
12.321344
 20
18.161095
 30
0.000000
  0
VERTEX
  8
MERGEDLAYER-1
 10
12.318192
 20
18.158790
 30
0.000000
  0
VERTEX
  8
MERGEDLAYER-1
 10
12.314677
 20
18.157471
 30
0.000000
  0
VERTEX
  8
MERGEDLAYER-1
 10
12.310736
 20
18.156705
 30
0.000000
  0
VERTEX
  8
MERGEDLAYER-1
 10
12.295738
 20
18.156705
 30
0.000000
  0
VERTEX
  8
MERGEDLAYER-1
 10
12.290948
 20
18.155710
 30
0.000000
  0
VERTEX
  8
MERGEDLAYER-1
 10
12.287433
 20
18.153949
 30
0.000000
  0
VERTEX
  8
MERGEDLAYER-1
 10
12.285130
 20
18.152306
 30
0.000000
  0
VERTEX
  8
MERGEDLAYER-1
 10
12.283039
 20
18.149560
 30
0.000000
  0
VERTEX
  8
MERGEDLAYER-1
 10
12.281282
 20
18.145616
 30
0.000000
  0
VERTEX
  8
MERGEDLAYER-1
 10
12.280739
 20
18.141710
 30
0.000000
  0
VERTEX
  8
MERGEDLAYER-1
 10
12.280739
 20
17.601652
 30
0.000000
  0
VERTEX
  8
MERGEDLAYER-1
 10
12.281282
 20
17.597267
 30
0.000000
  0
VERTEX
  8
MERGEDLAYER-1
 10
12.282600
 20
17.594191
 30
0.000000
  0
VERTEX
  8
MERGEDLAYER-1
 10
12.285130
 20
17.591041
 30
0.000000
  0
VERTEX
  8
MERGEDLAYER-1
 10
12.288310
 20
17.588924
 30
0.000000
  0
VERTEX
  8
MERGEDLAYER-1
 10
12.291828
 20
17.587163
 30
0.000000
  0
VERTEX
  8
MERGEDLAYER-1
 10
12.295738
 20
17.586651
 30
0.000000
  0
VERTEX
  8
MERGEDLAYER-1
 10
12.310736
 20
17.586651
 30
0.000000
  0
VERTEX
  8
MERGEDLAYER-1
 10
12.315554
 20
17.586290
 30
0.000000
  0
VERTEX
  8
MERGEDLAYER-1
 10
12.318629
 20
17.584088
 30
0.000000
  0
VERTEX
  8
MERGEDLAYER-1
 10
12.321344
 20
17.582257
 30
0.000000
  0
VERTEX
  8
MERGEDLAYER-1
 10
12.323462
 20
17.579256
 30
0.000000
  0
VERTEX
  8
MERGEDLAYER-1
 10
12.325219
 20
17.576181
 30
0.000000
  0
VERTEX
  8
MERGEDLAYER-1
 10
12.325739
 20
17.571646
 30
0.000000
  0
VERTEX
  8
MERGEDLAYER-1
 10
12.325661
 20
17.391198
 30
0.000000
  0
VERTEX
  8
MERGEDLAYER-1
 10
12.405630
 20
17.391198
 30
0.000000
  0
VERTEX
  8
MERGEDLAYER-1
 10
12.405737
 20
17.839872
 30
0.000000
  0
VERTEX
  8
MERGEDLAYER-1
 10
12.373854
 20
17.871751
 30
0.000000
  0
VERTEX
  8
MERGEDLAYER-1
 10
12.405737
 20
17.903640
 30
0.000000
  0
SEQEND
  8
MERGEDLAYER-1
  0
POLYLINE
  8
MERGEDLAYER-1
 66
  1
 70
  1
 62
  7
 10
11.728087
 20
18.411870
 30
0.000000
  0
VERTEX
  8
MERGEDLAYER-1
 10
11.728087
 20
18.411870
 30
0.000000
  0
VERTEX
  8
MERGEDLAYER-1
 10
11.648118
 20
18.411870
 30
0.000000
  0
VERTEX
  8
MERGEDLAYER-1
 10
11.648118
 20
17.331449
 30
0.000000
  0
VERTEX
  8
MERGEDLAYER-1
 10
11.728087
 20
17.331449
 30
0.000000
  0
SEQEND
  8
MERGEDLAYER-1
  0
POLYLINE
  8
MERGEDLAYER-1
  6
LTYPE06
 66
  1
 70
  0
 62
  7
 40
0.153846
 41
0.153846
  6
LTYPE06
 10
12.778340
 20
17.844816
 30
0.000000
  0
VERTEX
  8
MERGEDLAYER-1
  6
LTYPE06
 10
12.778340
 20
17.844816
 30
0.000000
  0
VERTEX
  8
MERGEDLAYER-1
  6
LTYPE06
 10
13.855909
 20
17.844816
 30
0.000000
  0
SEQEND
  8
MERGEDLAYER-1
  0
POLYLINE
  8
MERGEDLAYER-1
 66
  1
 70
  1
 62
  7
  0
VERTEX
  8
MERGEDLAYER-1
 10
13.302700
 20
17.535400
 30
0.000000
  0
VERTEX
  8
MERGEDLAYER-1
 10
13.522562
 20
17.535400
 30
0.000000
  0
VERTEX
  8
MERGEDLAYER-1
 10
13.522562
 20
17.411015
 30
0.000000
  0
VERTEX
  8
MERGEDLAYER-1
 10
13.302700
 20
17.411015
 30
0.000000
  0
SEQEND
  8
MERGEDLAYER-1
  0
POLYLINE
  8
MERGEDLAYER-1
 66
  1
 70
  0
 62
  7
 10
13.571929
 20
17.410429
 30
0.000000
  0
VERTEX
  8
MERGEDLAYER-1
 10
13.571929
 20
17.410429
 30
0.000000
  0
VERTEX
  8
MERGEDLAYER-1
 10
13.259433
 20
17.410429
 30
0.000000
  0
SEQEND
  8
MERGEDLAYER-1
  0
POLYLINE
  8
MERGEDLAYER-1
 66
  1
 70
  1
 62
  7
  0
VERTEX
  8
MERGEDLAYER-1
 10
13.522562
 20
18.220234
 30
0.000000
  0
VERTEX
  8
MERGEDLAYER-1
 10
13.302700
 20
18.220234
 30
0.000000
  0
VERTEX
  8
MERGEDLAYER-1
 10
13.302700
 20
18.344609
 30
0.000000
  0
VERTEX
  8
MERGEDLAYER-1
 10
13.522562
 20
18.344609
 30
0.000000
  0
SEQEND
  8
MERGEDLAYER-1
  0
POLYLINE
  8
MERGEDLAYER-1
 66
  1
 70
  0
 62
  7
 10
13.571929
 20
18.345205
 30
0.000000
  0
VERTEX
  8
MERGEDLAYER-1
 10
13.571929
 20
18.345205
 30
0.000000
  0
VERTEX
  8
MERGEDLAYER-1
 10
13.259433
 20
18.345205
 30
0.000000
  0
SEQEND
  8
MERGEDLAYER-1
  0
POLYLINE
  8
MERGEDLAYER-1
 66
  1
 70
  1
 62
  7
 10
47.174011
 20
18.188547
 30
0.000000
  0
VERTEX
  8
MERGEDLAYER-1
 10
47.174011
 20
18.188547
 30
0.000000
  0
VERTEX
  8
MERGEDLAYER-1
 10
48.173997
 20
18.188547
 30
0.000000
  0
VERTEX
  8
MERGEDLAYER-1
 10
48.173997
 20
17.563580
 30
0.000000
  0
VERTEX
  8
MERGEDLAYER-1
 10
47.174011
 20
17.563580
 30
0.000000
  0
VERTEX
  8
MERGEDLAYER-1
 10
47.174011
 20
17.371291
 30
0.000000
  0
VERTEX
  8
MERGEDLAYER-1
 10
47.111516
 20
17.371291
 30
0.000000
  0
VERTEX
  8
MERGEDLAYER-1
 10
47.111516
 20
18.371239
 30
0.000000
  0
VERTEX
  8
MERGEDLAYER-1
 10
47.174011
 20
18.371239
 30
0.000000
  0
SEQEND
  8
MERGEDLAYER-1
  0
POLYLINE
  8
MERGEDLAYER-1
 66
  1
 70
  1
 62
  7
 10
47.442641
 20
18.286217
 30
0.000000
  0
VERTEX
  8
MERGEDLAYER-1
 10
47.442641
 20
18.286217
 30
0.000000
  0
VERTEX
  8
MERGEDLAYER-1
 10
47.446702
 20
18.285771
 30
0.000000
  0
VERTEX
  8
MERGEDLAYER-1
 10
47.449336
 20
18.284893
 30
0.000000
  0
VERTEX
  8
MERGEDLAYER-1
 10
47.453247
 20
18.281827
 30
0.000000
  0
VERTEX
  8
MERGEDLAYER-1
 10
47.455050
 20
18.280057
 30
0.000000
  0
VERTEX
  8
MERGEDLAYER-1
 10
47.456369
 20
18.277865
 30
0.000000
  0
VERTEX
  8
MERGEDLAYER-1
 10
47.457247
 20
18.275231
 30
0.000000
  0
VERTEX
  8
MERGEDLAYER-1
 10
47.457637
 20
18.271217
 30
0.000000
  0
VERTEX
  8
MERGEDLAYER-1
 10
47.457637
 20
18.261860
 30
0.000000
  0
VERTEX
  8
MERGEDLAYER-1
 10
47.457247
 20
18.258090
 30
0.000000
  0
VERTEX
  8
MERGEDLAYER-1
 10
47.455933
 20
18.255014
 30
0.000000
  0
VERTEX
  8
MERGEDLAYER-1
 10
47.455050
 20
18.253258
 30
0.000000
  0
VERTEX
  8
MERGEDLAYER-1
 10
47.453247
 20
18.251244
 30
0.000000
  0
VERTEX
  8
MERGEDLAYER-1
 10
47.450219
 20
18.248864
 30
0.000000
  0
VERTEX
  8
MERGEDLAYER-1
 10
47.446702
 20
18.247549
 30
0.000000
  0
VERTEX
  8
MERGEDLAYER-1
 10
47.442641
 20
18.246854
 30
0.000000
  0
VERTEX
  8
MERGEDLAYER-1
 10
47.378765
 20
18.246854
 30
0.000000
  0
VERTEX
  8
MERGEDLAYER-1
 10
47.372887
 20
18.247549
 30
0.000000
  0
VERTEX
  8
MERGEDLAYER-1
 10
47.368493
 20
18.248422
 30
0.000000
  0
VERTEX
  8
MERGEDLAYER-1
 10
47.363220
 20
18.249737
 30
0.000000
  0
VERTEX
  8
MERGEDLAYER-1
 10
47.357948
 20
18.251498
 30
0.000000
  0
VERTEX
  8
MERGEDLAYER-1
 10
47.353117
 20
18.253700
 30
0.000000
  0
VERTEX
  8
MERGEDLAYER-1
 10
47.349600
 20
18.255451
 30
0.000000
  0
VERTEX
  8
MERGEDLAYER-1
 10
47.346083
 20
18.257653
 30
0.000000
  0
VERTEX
  8
MERGEDLAYER-1
 10
47.342572
 20
18.260287
 30
0.000000
  0
VERTEX
  8
MERGEDLAYER-1
 10
47.339872
 20
18.262963
 30
0.000000
  0
VERTEX
  8
MERGEDLAYER-1
 10
47.336416
 20
18.266879
 30
0.000000
  0
VERTEX
  8
MERGEDLAYER-1
 10
47.332463
 20
18.271714
 30
0.000000
  0
VERTEX
  8
MERGEDLAYER-1
 10
47.330266
 20
18.275668
 30
0.000000
  0
VERTEX
  8
MERGEDLAYER-1
 10
47.327627
 20
18.281818
 30
0.000000
  0
VERTEX
  8
MERGEDLAYER-1
 10
47.325871
 20
18.286208
 30
0.000000
  0
VERTEX
  8
MERGEDLAYER-1
 10
47.324993
 20
18.290171
 30
0.000000
  0
VERTEX
  8
MERGEDLAYER-1
 10
47.323679
 20
18.296321
 30
0.000000
  0
VERTEX
  8
MERGEDLAYER-1
 10
47.323763
 20
18.372803
 30
0.000000
  0
VERTEX
  8
MERGEDLAYER-1
 10
47.324115
 20
18.381113
 30
0.000000
  0
VERTEX
  8
MERGEDLAYER-1
 10
47.324552
 20
18.389465
 30
0.000000
  0
VERTEX
  8
MERGEDLAYER-1
 10
47.325871
 20
18.396494
 30
0.000000
  0
VERTEX
  8
MERGEDLAYER-1
 10
47.327191
 20
18.402644
 30
0.000000
  0
VERTEX
  8
MERGEDLAYER-1
 10
47.329388
 20
18.409673
 30
0.000000
  0
VERTEX
  8
MERGEDLAYER-1
 10
47.332022
 20
18.417147
 30
0.000000
  0
VERTEX
  8
MERGEDLAYER-1
 10
47.334660
 20
18.424176
 30
0.000000
  0
VERTEX
  8
MERGEDLAYER-1
 10
47.337736
 20
18.430326
 30
0.000000
  0
VERTEX
  8
MERGEDLAYER-1
 10
47.341252
 20
18.436476
 30
0.000000
  0
VERTEX
  8
MERGEDLAYER-1
 10
47.345647
 20
18.443068
 30
0.000000
  0
VERTEX
  8
MERGEDLAYER-1
 10
47.350915
 20
18.450101
 30
0.000000
  0
VERTEX
  8
MERGEDLAYER-1
 10
47.356628
 20
18.457130
 30
0.000000
  0
VERTEX
  8
MERGEDLAYER-1
 10
47.363662
 20
18.464158
 30
0.000000
  0
VERTEX
  8
MERGEDLAYER-1
 10
47.371127
 20
18.470304
 30
0.000000
  0
VERTEX
  8
MERGEDLAYER-1
 10
47.379042
 20
18.476018
 30
0.000000
  0
VERTEX
  8
MERGEDLAYER-1
 10
47.386071
 20
18.480417
 30
0.000000
  0
VERTEX
  8
MERGEDLAYER-1
 10
47.393977
 20
18.484807
 30
0.000000
  0
VERTEX
  8
MERGEDLAYER-1
 10
47.402766
 20
18.488319
 30
0.000000
  0
VERTEX
  8
MERGEDLAYER-1
 10
47.412433
 20
18.491835
 30
0.000000
  0
VERTEX
  8
MERGEDLAYER-1
 10
47.421654
 20
18.494469
 30
0.000000
  0
VERTEX
  8
MERGEDLAYER-1
 10
47.433082
 20
18.496235
 30
0.000000
  0
VERTEX
  8
MERGEDLAYER-1
 10
47.441430
 20
18.496671
 30
0.000000
  0
VERTEX
  8
MERGEDLAYER-1
 10
47.897301
 20
18.496549
 30
0.000000
  0
VERTEX
  8
MERGEDLAYER-1
 10
47.897517
 20
18.493596
 30
0.000000
  0
VERTEX
  8
MERGEDLAYER-1
 10
47.898841
 20
18.490079
 30
0.000000
  0
VERTEX
  8
MERGEDLAYER-1
 10
47.900593
 20
18.487446
 30
0.000000
  0
VERTEX
  8
MERGEDLAYER-1
 10
47.903231
 20
18.484807
 30
0.000000
  0
VERTEX
  8
MERGEDLAYER-1
 10
47.906748
 20
18.482605
 30
0.000000
  0
VERTEX
  8
MERGEDLAYER-1
 10
47.910264
 20
18.482168
 30
0.000000
  0
VERTEX
  8
MERGEDLAYER-1
 10
47.912354
 20
18.481647
 30
0.000000
  0
VERTEX
  8
MERGEDLAYER-1
 10
47.915537
 20
18.482168
 30
0.000000
  0
VERTEX
  8
MERGEDLAYER-1
 10
47.919927
 20
18.483492
 30
0.000000
  0
VERTEX
  8
MERGEDLAYER-1
 10
47.922565
 20
18.485680
 30
0.000000
  0
VERTEX
  8
MERGEDLAYER-1
 10
47.924758
 20
18.488319
 30
0.000000
  0
VERTEX
  8
MERGEDLAYER-1
 10
47.926518
 20
18.491394
 30
0.000000
  0
VERTEX
  8
MERGEDLAYER-1
 10
47.926960
 20
18.493596
 30
0.000000
  0
VERTEX
  8
MERGEDLAYER-1
 10
47.927298
 20
18.496638
 30
0.000000
  0
VERTEX
  8
MERGEDLAYER-1
 10
48.316796
 20
18.496638
 30
0.000000
  0
VERTEX
  8
MERGEDLAYER-1
 10
48.317139
 20
18.492718
 30
0.000000
  0
VERTEX
  8
MERGEDLAYER-1
 10
48.318895
 20
18.489197
 30
0.000000
  0
VERTEX
  8
MERGEDLAYER-1
 10
48.320655
 20
18.486568
 30
0.000000
  0
VERTEX
  8
MERGEDLAYER-1
 10
48.322411
 20
18.484807
 30
0.000000
  0
VERTEX
  8
MERGEDLAYER-1
 10
48.325928
 20
18.483046
 30
0.000000
  0
VERTEX
  8
MERGEDLAYER-1
 10
48.328562
 20
18.482168
 30
0.000000
  0
VERTEX
  8
MERGEDLAYER-1
 10
48.331843
 20
18.481647
 30
0.000000
  0
VERTEX
  8
MERGEDLAYER-1
 10
48.334271
 20
18.482168
 30
0.000000
  0
VERTEX
  8
MERGEDLAYER-1
 10
48.337792
 20
18.483046
 30
0.000000
  0
VERTEX
  8
MERGEDLAYER-1
 10
48.340867
 20
18.484807
 30
0.000000
  0
VERTEX
  8
MERGEDLAYER-1
 10
48.343060
 20
18.486568
 30
0.000000
  0
VERTEX
  8
MERGEDLAYER-1
 10
48.344820
 20
18.489643
 30
0.000000
  0
VERTEX
  8
MERGEDLAYER-1
 10
48.345698
 20
18.491394
 30
0.000000
  0
VERTEX
  8
MERGEDLAYER-1
 10
48.346576
 20
18.493596
 30
0.000000
  0
VERTEX
  8
MERGEDLAYER-1
 10
48.346797
 20
18.496638
 30
0.000000
  0
VERTEX
  8
MERGEDLAYER-1
 10
48.736286
 20
18.496549
 30
0.000000
  0
VERTEX
  8
MERGEDLAYER-1
 10
48.736755
 20
18.493155
 30
0.000000
  0
VERTEX
  8
MERGEDLAYER-1
 10
48.738075
 20
18.489197
 30
0.000000
  0
VERTEX
  8
MERGEDLAYER-1
 10
48.739831
 20
18.487004
 30
0.000000
  0
VERTEX
  8
MERGEDLAYER-1
 10
48.742469
 20
18.484366
 30
0.000000
  0
VERTEX
  8
MERGEDLAYER-1
 10
48.745544
 20
18.483046
 30
0.000000
  0
VERTEX
  8
MERGEDLAYER-1
 10
48.747742
 20
18.482168
 30
0.000000
  0
VERTEX
  8
MERGEDLAYER-1
 10
48.751333
 20
18.481647
 30
0.000000
  0
VERTEX
  8
MERGEDLAYER-1
 10
48.754333
 20
18.481732
 30
0.000000
  0
VERTEX
  8
MERGEDLAYER-1
 10
48.758723
 20
18.483492
 30
0.000000
  0
VERTEX
  8
MERGEDLAYER-1
 10
48.761362
 20
18.485680
 30
0.000000
  0
VERTEX
  8
MERGEDLAYER-1
 10
48.763559
 20
18.487882
 30
0.000000
  0
VERTEX
  8
MERGEDLAYER-1
 10
48.764874
 20
18.490521
 30
0.000000
  0
VERTEX
  8
MERGEDLAYER-1
 10
48.766193
 20
18.493596
 30
0.000000
  0
VERTEX
  8
MERGEDLAYER-1
 10
48.766287
 20
18.496638
 30
0.000000
  0
VERTEX
  8
MERGEDLAYER-1
 10
49.308730
 20
18.496638
 30
0.000000
  0
VERTEX
  8
MERGEDLAYER-1
 10
49.312800
 20
18.496235
 30
0.000000
  0
VERTEX
  8
MERGEDLAYER-1
 10
49.315876
 20
18.494911
 30
0.000000
  0
VERTEX
  8
MERGEDLAYER-1
 10
49.319336
 20
18.492249
 30
0.000000
  0
VERTEX
  8
MERGEDLAYER-1
 10
49.321585
 20
18.490521
 30
0.000000
  0
VERTEX
  8
MERGEDLAYER-1
 10
49.322904
 20
18.487882
 30
0.000000
  0
VERTEX
  8
MERGEDLAYER-1
 10
49.323787
 20
18.485244
 30
0.000000
  0
VERTEX
  8
MERGEDLAYER-1
 10
49.323730
 20
18.481647
 30
0.000000
  0
VERTEX
  8
MERGEDLAYER-1
 10
49.323787
 20
18.411870
 30
0.000000
  0
VERTEX
  8
MERGEDLAYER-1
 10
49.243812
 20
18.411870
 30
0.000000
  0
VERTEX
  8
MERGEDLAYER-1
 10
49.243953
 20
18.421513
 30
0.000000
  0
VERTEX
  8
MERGEDLAYER-1
 10
49.242934
 20
18.426814
 30
0.000000
  0
VERTEX
  8
MERGEDLAYER-1
 10
49.241615
 20
18.429448
 30
0.000000
  0
VERTEX
  8
MERGEDLAYER-1
 10
49.239558
 20
18.432120
 30
0.000000
  0
VERTEX
  8
MERGEDLAYER-1
 10
49.236784
 20
18.434279
 30
0.000000
  0
VERTEX
  8
MERGEDLAYER-1
 10
49.234150
 20
18.435603
 30
0.000000
  0
VERTEX
  8
MERGEDLAYER-1
 10
49.231074
 20
18.436476
 30
0.000000
  0
VERTEX
  8
MERGEDLAYER-1
 10
49.228952
 20
18.436509
 30
0.000000
  0
VERTEX
  8
MERGEDLAYER-1
 10
49.179209
 20
18.436509
 30
0.000000
  0
VERTEX
  8
MERGEDLAYER-1
 10
49.175265
 20
18.435603
 30
0.000000
  0
VERTEX
  8
MERGEDLAYER-1
 10
49.172157
 20
18.433570
 30
0.000000
  0
VERTEX
  8
MERGEDLAYER-1
 10
49.169997
 20
18.430326
 30
0.000000
  0
VERTEX
  8
MERGEDLAYER-1
 10
49.169236
 20
18.426514
 30
0.000000
  0
VERTEX
  8
MERGEDLAYER-1
 10
49.169236
 20
18.386728
 30
0.000000
  0
VERTEX
  8
MERGEDLAYER-1
 10
49.168678
 20
18.382437
 30
0.000000
  0
VERTEX
  8
MERGEDLAYER-1
 10
49.167358
 20
18.379362
 30
0.000000
  0
VERTEX
  8
MERGEDLAYER-1
 10
49.164842
 20
18.376122
 30
0.000000
  0
VERTEX
  8
MERGEDLAYER-1
 10
49.162523
 20
18.374526
 30
0.000000
  0
VERTEX
  8
MERGEDLAYER-1
 10
49.160335
 20
18.373207
 30
0.000000
  0
VERTEX
  8
MERGEDLAYER-1
 10
49.157696
 20
18.372324
 30
0.000000
  0
VERTEX
  8
MERGEDLAYER-1
 10
49.154245
 20
18.371732
 30
0.000000
  0
VERTEX
  8
MERGEDLAYER-1
 10
49.084243
 20
18.371732
 30
0.000000
  0
VERTEX
  8
MERGEDLAYER-1
 10
49.079918
 20
18.372770
 30
0.000000
  0
VERTEX
  8
MERGEDLAYER-1
 10
49.076407
 20
18.374084
 30
0.000000
  0
VERTEX
  8
MERGEDLAYER-1
 10
49.073637
 20
18.376122
 30
0.000000
  0
VERTEX
  8
MERGEDLAYER-1
 10
49.072012
 20
18.378474
 30
0.000000
  0
VERTEX
  8
MERGEDLAYER-1
 10
49.070693
 20
18.381113
 30
0.000000
  0
VERTEX
  8
MERGEDLAYER-1
 10
49.069815
 20
18.383315
 30
0.000000
  0
VERTEX
  8
MERGEDLAYER-1
 10
49.069242
 20
18.386728
 30
0.000000
  0
VERTEX
  8
MERGEDLAYER-1
 10
49.069242
 20
18.421654
 30
0.000000
  0
VERTEX
  8
MERGEDLAYER-1
 10
49.068059
 20
18.427251
 30
0.000000
  0
VERTEX
  8
MERGEDLAYER-1
 10
49.066740
 20
18.430326
 30
0.000000
  0
VERTEX
  8
MERGEDLAYER-1
 10
49.064848
 20
18.432265
 30
0.000000
  0
VERTEX
  8
MERGEDLAYER-1
 10
49.062345
 20
18.434279
 30
0.000000
  0
VERTEX
  8
MERGEDLAYER-1
 10
49.058833
 20
18.435603
 30
0.000000
  0
VERTEX
  8
MERGEDLAYER-1
 10
49.054241
 20
18.436655
 30
0.000000
  0
VERTEX
  8
MERGEDLAYER-1
 10
49.008953
 20
18.436655
 30
0.000000
  0
VERTEX
  8
MERGEDLAYER-1
 10
49.003028
 20
18.435603
 30
0.000000
  0
VERTEX
  8
MERGEDLAYER-1
 10
49.000831
 20
18.434279
 30
0.000000
  0
VERTEX
  8
MERGEDLAYER-1
 10
48.998352
 20
18.432265
 30
0.000000
  0
VERTEX
  8
MERGEDLAYER-1
 10
48.996000
 20
18.429448
 30
0.000000
  0
VERTEX
  8
MERGEDLAYER-1
 10
48.994681
 20
18.425936
 30
0.000000
  0
VERTEX
  8
MERGEDLAYER-1
 10
48.993958
 20
18.421654
 30
0.000000
  0
VERTEX
  8
MERGEDLAYER-1
 10
48.993958
 20
18.261705
 30
0.000000
  0
VERTEX
  8
MERGEDLAYER-1
 10
48.993361
 20
18.258526
 30
0.000000
  0
VERTEX
  8
MERGEDLAYER-1
 10
48.992920
 20
18.255892
 30
0.000000
  0
VERTEX
  8
MERGEDLAYER-1
 10
48.991164
 20
18.253258
 30
0.000000
  0
VERTEX
  8
MERGEDLAYER-1
 10
48.989563
 20
18.251094
 30
0.000000
  0
VERTEX
  8
MERGEDLAYER-1
 10
48.986328
 20
18.248864
 30
0.000000
  0
VERTEX
  8
MERGEDLAYER-1
 10
48.978952
 20
18.246699
 30
0.000000
  0
VERTEX
  8
MERGEDLAYER-1
 10
48.928955
 20
18.246699
 30
0.000000
  0
VERTEX
  8
MERGEDLAYER-1
 10
48.925255
 20
18.247108
 30
0.000000
  0
VERTEX
  8
MERGEDLAYER-1
 10
48.922180
 20
18.248422
 30
0.000000
  0
VERTEX
  8
MERGEDLAYER-1
 10
48.918349
 20
18.251094
 30
0.000000
  0
VERTEX
  8
MERGEDLAYER-1
 10
48.915584
 20
18.254136
 30
0.000000
  0
VERTEX
  8
MERGEDLAYER-1
 10
48.914710
 20
18.256775
 30
0.000000
  0
VERTEX
  8
MERGEDLAYER-1
 10
48.913955
 20
18.261705
 30
0.000000
  0
VERTEX
  8
MERGEDLAYER-1
 10
48.913955
 20
18.391503
 30
0.000000
  0
VERTEX
  8
MERGEDLAYER-1
 10
48.912954
 20
18.396930
 30
0.000000
  0
VERTEX
  8
MERGEDLAYER-1
 10
48.911635
 20
18.400006
 30
0.000000
  0
VERTEX
  8
MERGEDLAYER-1
 10
48.909565
 20
18.402104
 30
0.000000
  0
VERTEX
  8
MERGEDLAYER-1
 10
48.907241
 20
18.404405
 30
0.000000
  0
VERTEX
  8
MERGEDLAYER-1
 10
48.904165
 20
18.405719
 30
0.000000
  0
VERTEX
  8
MERGEDLAYER-1
 10
48.898959
 20
18.406494
 30
0.000000
  0
VERTEX
  8
MERGEDLAYER-1
 10
48.661166
 20
18.406494
 30
0.000000
  0
VERTEX
  8
MERGEDLAYER-1
 10
48.655912
 20
18.405719
 30
0.000000
  0
VERTEX
  8
MERGEDLAYER-1
 10
48.652837
 20
18.404405
 30
0.000000
  0
VERTEX
  8
MERGEDLAYER-1
 10
48.650560
 20
18.402104
 30
0.000000
  0
VERTEX
  8
MERGEDLAYER-1
 10
48.648001
 20
18.400006
 30
0.000000
  0
VERTEX
  8
MERGEDLAYER-1
 10
48.646686
 20
18.396052
 30
0.000000
  0
VERTEX
  8
MERGEDLAYER-1
 10
48.646165
 20
18.391503
 30
0.000000
  0
VERTEX
  8
MERGEDLAYER-1
 10
48.646240
 20
18.352117
 30
0.000000
  0
VERTEX
  8
MERGEDLAYER-1
 10
48.566270
 20
18.352117
 30
0.000000
  0
VERTEX
  8
MERGEDLAYER-1
 10
48.566162
 20
18.391503
 30
0.000000
  0
VERTEX
  8
MERGEDLAYER-1
 10
48.565397
 20
18.397367
 30
0.000000
  0
VERTEX
  8
MERGEDLAYER-1
 10
48.563636
 20
18.400006
 30
0.000000
  0
VERTEX
  8
MERGEDLAYER-1
 10
48.561772
 20
18.402104
 30
0.000000
  0
VERTEX
  8
MERGEDLAYER-1
 10
48.559242
 20
18.404405
 30
0.000000
  0
VERTEX
  8
MERGEDLAYER-1
 10
48.556166
 20
18.406156
 30
0.000000
  0
VERTEX
  8
MERGEDLAYER-1
 10
48.551166
 20
18.406494
 30
0.000000
  0
VERTEX
  8
MERGEDLAYER-1
 10
47.822806
 20
18.406494
 30
0.000000
  0
VERTEX
  8
MERGEDLAYER-1
 10
47.817547
 20
18.405719
 30
0.000000
  0
VERTEX
  8
MERGEDLAYER-1
 10
47.814035
 20
18.403968
 30
0.000000
  0
VERTEX
  8
MERGEDLAYER-1
 10
47.812200
 20
18.402104
 30
0.000000
  0
VERTEX
  8
MERGEDLAYER-1
 10
47.809645
 20
18.399569
 30
0.000000
  0
VERTEX
  8
MERGEDLAYER-1
 10
47.808763
 20
18.396930
 30
0.000000
  0
VERTEX
  8
MERGEDLAYER-1
 10
47.807885
 20
18.394292
 30
0.000000
  0
VERTEX
  8
MERGEDLAYER-1
 10
47.807805
 20
18.391503
 30
0.000000
  0
VERTEX
  8
MERGEDLAYER-1
 10
47.807805
 20
18.301706
 30
0.000000
  0
VERTEX
  8
MERGEDLAYER-1
 10
47.807443
 20
18.294560
 30
0.000000
  0
VERTEX
  8
MERGEDLAYER-1
 10
47.806566
 20
18.291048
 30
0.000000
  0
VERTEX
  8
MERGEDLAYER-1
 10
47.805246
 20
18.285335
 30
0.000000
  0
VERTEX
  8
MERGEDLAYER-1
 10
47.803490
 20
18.280057
 30
0.000000
  0
VERTEX
  8
MERGEDLAYER-1
 10
47.801730
 20
18.276546
 30
0.000000
  0
VERTEX
  8
MERGEDLAYER-1
 10
47.799096
 20
18.271714
 30
0.000000
  0
VERTEX
  8
MERGEDLAYER-1
 10
47.796462
 20
18.268193
 30
0.000000
  0
VERTEX
  8
MERGEDLAYER-1
 10
47.793823
 20
18.264681
 30
0.000000
  0
VERTEX
  8
MERGEDLAYER-1
 10
47.791696
 20
18.262813
 30
0.000000
  0
VERTEX
  8
MERGEDLAYER-1
 10
47.788114
 20
18.259413
 30
0.000000
  0
VERTEX
  8
MERGEDLAYER-1
 10
47.783715
 20
18.255892
 30
0.000000
  0
VERTEX
  8
MERGEDLAYER-1
 10
47.779325
 20
18.253258
 30
0.000000
  0
VERTEX
  8
MERGEDLAYER-1
 10
47.773611
 20
18.250624
 30
0.000000
  0
VERTEX
  8
MERGEDLAYER-1
 10
47.767897
 20
18.248864
 30
0.000000
  0
VERTEX
  8
MERGEDLAYER-1
 10
47.762625
 20
18.247549
 30
0.000000
  0
VERTEX
  8
MERGEDLAYER-1
 10
47.759108
 20
18.246662
 30
0.000000
  0
VERTEX
  8
MERGEDLAYER-1
 10
47.752808
 20
18.246699
 30
0.000000
  0
VERTEX
  8
MERGEDLAYER-1
 10
47.689120
 20
18.246699
 30
0.000000
  0
VERTEX
  8
MERGEDLAYER-1
 10
47.684411
 20
18.247986
 30
0.000000
  0
VERTEX
  8
MERGEDLAYER-1
 10
47.680899
 20
18.249737
 30
0.000000
  0
VERTEX
  8
MERGEDLAYER-1
 10
47.678509
 20
18.251244
 30
0.000000
  0
VERTEX
  8
MERGEDLAYER-1
 10
47.676504
 20
18.254136
 30
0.000000
  0
VERTEX
  8
MERGEDLAYER-1
 10
47.675622
 20
18.255892
 30
0.000000
  0
VERTEX
  8
MERGEDLAYER-1
 10
47.674307
 20
18.258967
 30
0.000000
  0
VERTEX
  8
MERGEDLAYER-1
 10
47.674115
 20
18.261860
 30
0.000000
  0
VERTEX
  8
MERGEDLAYER-1
 10
47.674115
 20
18.271217
 30
0.000000
  0
VERTEX
  8
MERGEDLAYER-1
 10
47.674748
 20
18.275668
 30
0.000000
  0
VERTEX
  8
MERGEDLAYER-1
 10
47.676941
 20
18.279621
 30
0.000000
  0
VERTEX
  8
MERGEDLAYER-1
 10
47.678509
 20
18.281827
 30
0.000000
  0
VERTEX
  8
MERGEDLAYER-1
 10
47.680899
 20
18.283574
 30
0.000000
  0
VERTEX
  8
MERGEDLAYER-1
 10
47.683096
 20
18.284893
 30
0.000000
  0
VERTEX
  8
MERGEDLAYER-1
 10
47.685730
 20
18.285771
 30
0.000000
  0
VERTEX
  8
MERGEDLAYER-1
 10
47.689120
 20
18.286217
 30
0.000000
  0
VERTEX
  8
MERGEDLAYER-1
 10
47.737699
 20
18.286217
 30
0.000000
  0
VERTEX
  8
MERGEDLAYER-1
 10
47.742413
 20
18.287095
 30
0.000000
  0
VERTEX
  8
MERGEDLAYER-1
 10
47.745929
 20
18.288847
 30
0.000000
  0
VERTEX
  8
MERGEDLAYER-1
 10
47.748305
 20
18.290617
 30
0.000000
  0
VERTEX
  8
MERGEDLAYER-1
 10
47.750761
 20
18.293682
 30
0.000000
  0
VERTEX
  8
MERGEDLAYER-1
 10
47.752080
 20
18.297199
 30
0.000000
  0
VERTEX
  8
MERGEDLAYER-1
 10
47.752808
 20
18.301706
 30
0.000000
  0
VERTEX
  8
MERGEDLAYER-1
 10
47.752700
 20
18.357769
 30
0.000000
  0
VERTEX
  8
MERGEDLAYER-1
 10
47.751643
 20
18.363098
 30
0.000000
  0
VERTEX
  8
MERGEDLAYER-1
 10
47.750324
 20
18.366173
 30
0.000000
  0
VERTEX
  8
MERGEDLAYER-1
 10
47.748305
 20
18.368371
 30
0.000000
  0
VERTEX
  8
MERGEDLAYER-1
 10
47.745051
 20
18.371009
 30
0.000000
  0
VERTEX
  8
MERGEDLAYER-1
 10
47.741976
 20
18.372324
 30
0.000000
  0
VERTEX
  8
MERGEDLAYER-1
 10
47.737699
 20
18.372770
 30
0.000000
  0
VERTEX
  8
MERGEDLAYER-1
 10
47.689021
 20
18.372770
 30
0.000000
  0
VERTEX
  8
MERGEDLAYER-1
 10
47.684411
 20
18.373648
 30
0.000000
  0
VERTEX
  8
MERGEDLAYER-1
 10
47.680462
 20
18.375399
 30
0.000000
  0
VERTEX
  8
MERGEDLAYER-1
 10
47.678415
 20
18.377160
 30
0.000000
  0
VERTEX
  8
MERGEDLAYER-1
 10
47.676063
 20
18.379798
 30
0.000000
  0
VERTEX
  8
MERGEDLAYER-1
 10
47.674748
 20
18.383315
 30
0.000000
  0
VERTEX
  8
MERGEDLAYER-1
 10
47.674025
 20
18.387766
 30
0.000000
  0
VERTEX
  8
MERGEDLAYER-1
 10
47.674025
 20
18.426767
 30
0.000000
  0
VERTEX
  8
MERGEDLAYER-1
 10
47.672988
 20
18.430763
 30
0.000000
  0
VERTEX
  8
MERGEDLAYER-1
 10
47.672546
 20
18.432965
 30
0.000000
  0
VERTEX
  8
MERGEDLAYER-1
 10
47.671232
 20
18.435603
 30
0.000000
  0
VERTEX
  8
MERGEDLAYER-1
 10
47.669631
 20
18.437369
 30
0.000000
  0
VERTEX
  8
MERGEDLAYER-1
 10
47.666837
 20
18.439552
 30
0.000000
  0
VERTEX
  8
MERGEDLAYER-1
 10
47.662884
 20
18.441312
 30
0.000000
  0
VERTEX
  8
MERGEDLAYER-1
 10
47.659025
 20
18.441758
 30
0.000000
  0
VERTEX
  8
MERGEDLAYER-1
 10
47.472642
 20
18.441758
 30
0.000000
  0
VERTEX
  8
MERGEDLAYER-1
 10
47.468675
 20
18.440876
 30
0.000000
  0
VERTEX
  8
MERGEDLAYER-1
 10
47.463839
 20
18.439115
 30
0.000000
  0
VERTEX
  8
MERGEDLAYER-1
 10
47.462031
 20
18.437369
 30
0.000000
  0
VERTEX
  8
MERGEDLAYER-1
 10
47.459886
 20
18.434725
 30
0.000000
  0
VERTEX
  8
MERGEDLAYER-1
 10
47.458567
 20
18.432523
 30
0.000000
  0
VERTEX
  8
MERGEDLAYER-1
 10
47.457689
 20
18.429448
 30
0.000000
  0
VERTEX
  8
MERGEDLAYER-1
 10
47.457637
 20
18.426767
 30
0.000000
  0
VERTEX
  8
MERGEDLAYER-1
 10
47.457637
 20
18.387766
 30
0.000000
  0
VERTEX
  8
MERGEDLAYER-1
 10
47.457247
 20
18.383752
 30
0.000000
  0
VERTEX
  8
MERGEDLAYER-1
 10
47.455933
 20
18.380235
 30
0.000000
  0
VERTEX
  8
MERGEDLAYER-1
 10
47.453247
 20
18.377160
 30
0.000000
  0
VERTEX
  8
MERGEDLAYER-1
 10
47.450655
 20
18.374962
 30
0.000000
  0
VERTEX
  8
MERGEDLAYER-1
 10
47.447759
 20
18.372803
 30
0.000000
  0
VERTEX
  8
MERGEDLAYER-1
 10
47.442641
 20
18.372770
 30
0.000000
  0
VERTEX
  8
MERGEDLAYER-1
 10
47.394010
 20
18.372770
 30
0.000000
  0
VERTEX
  8
MERGEDLAYER-1
 10
47.389146
 20
18.371887
 30
0.000000
  0
VERTEX
  8
MERGEDLAYER-1
 10
47.385193
 20
18.370131
 30
0.000000
  0
VERTEX
  8
MERGEDLAYER-1
 10
47.383202
 20
18.368371
 30
0.000000
  0
VERTEX
  8
MERGEDLAYER-1
 10
47.380798
 20
18.365737
 30
0.000000
  0
VERTEX
  8
MERGEDLAYER-1
 10
47.379479
 20
18.363098
 30
0.000000
  0
VERTEX
  8
MERGEDLAYER-1
 10
47.378812
 20
18.357769
 30
0.000000
  0
VERTEX
  8
MERGEDLAYER-1
 10
47.378812
 20
18.301218
 30
0.000000
  0
VERTEX
  8
MERGEDLAYER-1
 10
47.379479
 20
18.297636
 30
0.000000
  0
VERTEX
  8
MERGEDLAYER-1
 10
47.380798
 20
18.293682
 30
0.000000
  0
VERTEX
  8
MERGEDLAYER-1
 10
47.383202
 20
18.290617
 30
0.000000
  0
VERTEX
  8
MERGEDLAYER-1
 10
47.386507
 20
18.287969
 30
0.000000
  0
VERTEX
  8
MERGEDLAYER-1
 10
47.388705
 20
18.287095
 30
0.000000
  0
VERTEX
  8
MERGEDLAYER-1
 10
47.393808
 20
18.286217
 30
0.000000
  0
SEQEND
  8
MERGEDLAYER-1
  0
POLYLINE
  8
MERGEDLAYER-1
 66
  1
 70
  1
 62
  7
 10
47.442641
 20
17.457106
 30
0.000000
  0
VERTEX
  8
MERGEDLAYER-1
 10
47.442641
 20
17.457106
 30
0.000000
  0
VERTEX
  8
MERGEDLAYER-1
 10
47.446702
 20
17.457552
 30
0.000000
  0
VERTEX
  8
MERGEDLAYER-1
 10
47.449336
 20
17.458426
 30
0.000000
  0
VERTEX
  8
MERGEDLAYER-1
 10
47.453247
 20
17.461496
 30
0.000000
  0
VERTEX
  8
MERGEDLAYER-1
 10
47.455050
 20
17.463262
 30
0.000000
  0
VERTEX
  8
MERGEDLAYER-1
 10
47.456369
 20
17.465454
 30
0.000000
  0
VERTEX
  8
MERGEDLAYER-1
 10
47.457247
 20
17.468093
 30
0.000000
  0
VERTEX
  8
MERGEDLAYER-1
 10
47.457637
 20
17.472107
 30
0.000000
  0
VERTEX
  8
MERGEDLAYER-1
 10
47.457637
 20
17.481459
 30
0.000000
  0
VERTEX
  8
MERGEDLAYER-1
 10
47.457247
 20
17.485229
 30
0.000000
  0
VERTEX
  8
MERGEDLAYER-1
 10
47.455933
 20
17.488305
 30
0.000000
  0
VERTEX
  8
MERGEDLAYER-1
 10
47.455050
 20
17.490061
 30
0.000000
  0
VERTEX
  8
MERGEDLAYER-1
 10
47.453247
 20
17.492070
 30
0.000000
  0
VERTEX
  8
MERGEDLAYER-1
 10
47.450219
 20
17.494455
 30
0.000000
  0
VERTEX
  8
MERGEDLAYER-1
 10
47.446702
 20
17.495770
 30
0.000000
  0
VERTEX
  8
MERGEDLAYER-1
 10
47.442641
 20
17.496465
 30
0.000000
  0
VERTEX
  8
MERGEDLAYER-1
 10
47.378765
 20
17.496465
 30
0.000000
  0
VERTEX
  8
MERGEDLAYER-1
 10
47.372887
 20
17.495770
 30
0.000000
  0
VERTEX
  8
MERGEDLAYER-1
 10
47.368493
 20
17.494897
 30
0.000000
  0
VERTEX
  8
MERGEDLAYER-1
 10
47.363220
 20
17.493577
 30
0.000000
  0
VERTEX
  8
MERGEDLAYER-1
 10
47.357948
 20
17.491817
 30
0.000000
  0
VERTEX
  8
MERGEDLAYER-1
 10
47.353117
 20
17.489619
 30
0.000000
  0
VERTEX
  8
MERGEDLAYER-1
 10
47.349600
 20
17.487868
 30
0.000000
  0
VERTEX
  8
MERGEDLAYER-1
 10
47.346083
 20
17.485666
 30
0.000000
  0
VERTEX
  8
MERGEDLAYER-1
 10
47.342572
 20
17.483028
 30
0.000000
  0
VERTEX
  8
MERGEDLAYER-1
 10
47.339872
 20
17.480351
 30
0.000000
  0
VERTEX
  8
MERGEDLAYER-1
 10
47.336416
 20
17.476445
 30
0.000000
  0
VERTEX
  8
MERGEDLAYER-1
 10
47.332463
 20
17.471605
 30
0.000000
  0
VERTEX
  8
MERGEDLAYER-1
 10
47.330266
 20
17.467656
 30
0.000000
  0
VERTEX
  8
MERGEDLAYER-1
 10
47.327627
 20
17.461501
 30
0.000000
  0
VERTEX
  8
MERGEDLAYER-1
 10
47.325871
 20
17.457111
 30
0.000000
  0
VERTEX
  8
MERGEDLAYER-1
 10
47.324993
 20
17.453153
 30
0.000000
  0
VERTEX
  8
MERGEDLAYER-1
 10
47.323679
 20
17.447003
 30
0.000000
  0
VERTEX
  8
MERGEDLAYER-1
 10
47.323763
 20
17.370512
 30
0.000000
  0
VERTEX
  8
MERGEDLAYER-1
 10
47.324115
 20
17.362201
 30
0.000000
  0
VERTEX
  8
MERGEDLAYER-1
 10
47.324552
 20
17.353854
 30
0.000000
  0
VERTEX
  8
MERGEDLAYER-1
 10
47.325871
 20
17.346825
 30
0.000000
  0
VERTEX
  8
MERGEDLAYER-1
 10
47.327191
 20
17.340675
 30
0.000000
  0
VERTEX
  8
MERGEDLAYER-1
 10
47.329388
 20
17.333646
 30
0.000000
  0
VERTEX
  8
MERGEDLAYER-1
 10
47.332022
 20
17.326172
 30
0.000000
  0
VERTEX
  8
MERGEDLAYER-1
 10
47.334660
 20
17.319143
 30
0.000000
  0
VERTEX
  8
MERGEDLAYER-1
 10
47.337736
 20
17.312998
 30
0.000000
  0
VERTEX
  8
MERGEDLAYER-1
 10
47.341252
 20
17.306843
 30
0.000000
  0
VERTEX
  8
MERGEDLAYER-1
 10
47.345647
 20
17.300255
 30
0.000000
  0
VERTEX
  8
MERGEDLAYER-1
 10
47.350915
 20
17.293218
 30
0.000000
  0
VERTEX
  8
MERGEDLAYER-1
 10
47.356628
 20
17.286189
 30
0.000000
  0
VERTEX
  8
MERGEDLAYER-1
 10
47.363662
 20
17.279161
 30
0.000000
  0
VERTEX
  8
MERGEDLAYER-1
 10
47.371127
 20
17.273010
 30
0.000000
  0
VERTEX
  8
MERGEDLAYER-1
 10
47.379042
 20
17.267296
 30
0.000000
  0
VERTEX
  8
MERGEDLAYER-1
 10
47.386071
 20
17.262907
 30
0.000000
  0
VERTEX
  8
MERGEDLAYER-1
 10
47.393977
 20
17.258507
 30
0.000000
  0
VERTEX
  8
MERGEDLAYER-1
 10
47.402766
 20
17.254995
 30
0.000000
  0
VERTEX
  8
MERGEDLAYER-1
 10
47.412433
 20
17.251479
 30
0.000000
  0
VERTEX
  8
MERGEDLAYER-1
 10
47.421654
 20
17.248845
 30
0.000000
  0
VERTEX
  8
MERGEDLAYER-1
 10
47.433082
 20
17.247084
 30
0.000000
  0
VERTEX
  8
MERGEDLAYER-1
 10
47.441430
 20
17.246643
 30
0.000000
  0
VERTEX
  8
MERGEDLAYER-1
 10
47.897301
 20
17.246765
 30
0.000000
  0
VERTEX
  8
MERGEDLAYER-1
 10
47.897517
 20
17.249718
 30
0.000000
  0
VERTEX
  8
MERGEDLAYER-1
 10
47.898841
 20
17.253240
 30
0.000000
  0
VERTEX
  8
MERGEDLAYER-1
 10
47.900593
 20
17.255873
 30
0.000000
  0
VERTEX
  8
MERGEDLAYER-1
 10
47.903231
 20
17.258507
 30
0.000000
  0
VERTEX
  8
MERGEDLAYER-1
 10
47.906748
 20
17.260709
 30
0.000000
  0
VERTEX
  8
MERGEDLAYER-1
 10
47.910264
 20
17.261146
 30
0.000000
  0
VERTEX
  8
MERGEDLAYER-1
 10
47.912354
 20
17.261672
 30
0.000000
  0
VERTEX
  8
MERGEDLAYER-1
 10
47.915537
 20
17.261146
 30
0.000000
  0
VERTEX
  8
MERGEDLAYER-1
 10
47.919927
 20
17.259831
 30
0.000000
  0
VERTEX
  8
MERGEDLAYER-1
 10
47.922565
 20
17.257634
 30
0.000000
  0
VERTEX
  8
MERGEDLAYER-1
 10
47.924758
 20
17.254995
 30
0.000000
  0
VERTEX
  8
MERGEDLAYER-1
 10
47.926518
 20
17.251920
 30
0.000000
  0
VERTEX
  8
MERGEDLAYER-1
 10
47.926960
 20
17.249718
 30
0.000000
  0
VERTEX
  8
MERGEDLAYER-1
 10
47.927298
 20
17.246676
 30
0.000000
  0
VERTEX
  8
MERGEDLAYER-1
 10
48.316796
 20
17.246676
 30
0.000000
  0
VERTEX
  8
MERGEDLAYER-1
 10
48.317139
 20
17.250606
 30
0.000000
  0
VERTEX
  8
MERGEDLAYER-1
 10
48.318895
 20
17.254118
 30
0.000000
  0
VERTEX
  8
MERGEDLAYER-1
 10
48.320655
 20
17.256756
 30
0.000000
  0
VERTEX
  8
MERGEDLAYER-1
 10
48.322411
 20
17.258507
 30
0.000000
  0
VERTEX
  8
MERGEDLAYER-1
 10
48.325928
 20
17.260268
 30
0.000000
  0
VERTEX
  8
MERGEDLAYER-1
 10
48.328562
 20
17.261146
 30
0.000000
  0
VERTEX
  8
MERGEDLAYER-1
 10
48.331843
 20
17.261672
 30
0.000000
  0
VERTEX
  8
MERGEDLAYER-1
 10
48.334271
 20
17.261146
 30
0.000000
  0
VERTEX
  8
MERGEDLAYER-1
 10
48.337792
 20
17.260268
 30
0.000000
  0
VERTEX
  8
MERGEDLAYER-1
 10
48.340867
 20
17.258507
 30
0.000000
  0
VERTEX
  8
MERGEDLAYER-1
 10
48.343060
 20
17.256756
 30
0.000000
  0
VERTEX
  8
MERGEDLAYER-1
 10
48.344820
 20
17.253681
 30
0.000000
  0
VERTEX
  8
MERGEDLAYER-1
 10
48.345698
 20
17.251920
 30
0.000000
  0
VERTEX
  8
MERGEDLAYER-1
 10
48.346576
 20
17.249718
 30
0.000000
  0
VERTEX
  8
MERGEDLAYER-1
 10
48.346797
 20
17.246676
 30
0.000000
  0
VERTEX
  8
MERGEDLAYER-1
 10
48.736286
 20
17.246765
 30
0.000000
  0
VERTEX
  8
MERGEDLAYER-1
 10
48.736755
 20
17.250160
 30
0.000000
  0
VERTEX
  8
MERGEDLAYER-1
 10
48.738075
 20
17.254118
 30
0.000000
  0
VERTEX
  8
MERGEDLAYER-1
 10
48.739831
 20
17.256315
 30
0.000000
  0
VERTEX
  8
MERGEDLAYER-1
 10
48.742469
 20
17.258949
 30
0.000000
  0
VERTEX
  8
MERGEDLAYER-1
 10
48.745544
 20
17.260268
 30
0.000000
  0
VERTEX
  8
MERGEDLAYER-1
 10
48.747742
 20
17.261146
 30
0.000000
  0
VERTEX
  8
MERGEDLAYER-1
 10
48.751333
 20
17.261672
 30
0.000000
  0
VERTEX
  8
MERGEDLAYER-1
 10
48.754333
 20
17.261583
 30
0.000000
  0
VERTEX
  8
MERGEDLAYER-1
 10
48.758723
 20
17.259831
 30
0.000000
  0
VERTEX
  8
MERGEDLAYER-1
 10
48.761362
 20
17.257634
 30
0.000000
  0
VERTEX
  8
MERGEDLAYER-1
 10
48.763559
 20
17.255432
 30
0.000000
  0
VERTEX
  8
MERGEDLAYER-1
 10
48.764874
 20
17.252794
 30
0.000000
  0
VERTEX
  8
MERGEDLAYER-1
 10
48.766193
 20
17.249718
 30
0.000000
  0
VERTEX
  8
MERGEDLAYER-1
 10
48.766287
 20
17.246676
 30
0.000000
  0
VERTEX
  8
MERGEDLAYER-1
 10
49.308730
 20
17.246676
 30
0.000000
  0
VERTEX
  8
MERGEDLAYER-1
 10
49.312800
 20
17.247084
 30
0.000000
  0
VERTEX
  8
MERGEDLAYER-1
 10
49.315876
 20
17.248404
 30
0.000000
  0
VERTEX
  8
MERGEDLAYER-1
 10
49.319336
 20
17.251066
 30
0.000000
  0
VERTEX
  8
MERGEDLAYER-1
 10
49.321585
 20
17.252794
 30
0.000000
  0
VERTEX
  8
MERGEDLAYER-1
 10
49.322904
 20
17.255432
 30
0.000000
  0
VERTEX
  8
MERGEDLAYER-1
 10
49.323787
 20
17.258071
 30
0.000000
  0
VERTEX
  8
MERGEDLAYER-1
 10
49.323730
 20
17.261672
 30
0.000000
  0
VERTEX
  8
MERGEDLAYER-1
 10
49.323787
 20
17.331449
 30
0.000000
  0
VERTEX
  8
MERGEDLAYER-1
 10
49.243812
 20
17.331449
 30
0.000000
  0
VERTEX
  8
MERGEDLAYER-1
 10
49.243953
 20
17.321810
 30
0.000000
  0
VERTEX
  8
MERGEDLAYER-1
 10
49.242934
 20
17.316510
 30
0.000000
  0
VERTEX
  8
MERGEDLAYER-1
 10
49.241615
 20
17.313871
 30
0.000000
  0
VERTEX
  8
MERGEDLAYER-1
 10
49.239558
 20
17.311204
 30
0.000000
  0
VERTEX
  8
MERGEDLAYER-1
 10
49.236784
 20
17.309044
 30
0.000000
  0
VERTEX
  8
MERGEDLAYER-1
 10
49.234150
 20
17.307720
 30
0.000000
  0
VERTEX
  8
MERGEDLAYER-1
 10
49.231074
 20
17.306843
 30
0.000000
  0
VERTEX
  8
MERGEDLAYER-1
 10
49.228952
 20
17.306814
 30
0.000000
  0
VERTEX
  8
MERGEDLAYER-1
 10
49.179209
 20
17.306814
 30
0.000000
  0
VERTEX
  8
MERGEDLAYER-1
 10
49.175265
 20
17.307720
 30
0.000000
  0
VERTEX
  8
MERGEDLAYER-1
 10
49.172157
 20
17.309753
 30
0.000000
  0
VERTEX
  8
MERGEDLAYER-1
 10
49.169997
 20
17.312998
 30
0.000000
  0
VERTEX
  8
MERGEDLAYER-1
 10
49.169236
 20
17.316810
 30
0.000000
  0
VERTEX
  8
MERGEDLAYER-1
 10
49.169236
 20
17.356591
 30
0.000000
  0
VERTEX
  8
MERGEDLAYER-1
 10
49.168678
 20
17.360887
 30
0.000000
  0
VERTEX
  8
MERGEDLAYER-1
 10
49.167358
 20
17.363962
 30
0.000000
  0
VERTEX
  8
MERGEDLAYER-1
 10
49.164842
 20
17.367192
 30
0.000000
  0
VERTEX
  8
MERGEDLAYER-1
 10
49.162523
 20
17.368793
 30
0.000000
  0
VERTEX
  8
MERGEDLAYER-1
 10
49.160335
 20
17.370112
 30
0.000000
  0
VERTEX
  8
MERGEDLAYER-1
 10
49.157696
 20
17.370990
 30
0.000000
  0
VERTEX
  8
MERGEDLAYER-1
 10
49.154245
 20
17.371591
 30
0.000000
  0
VERTEX
  8
MERGEDLAYER-1
 10
49.084243
 20
17.371591
 30
0.000000
  0
VERTEX
  8
MERGEDLAYER-1
 10
49.079918
 20
17.370554
 30
0.000000
  0
VERTEX
  8
MERGEDLAYER-1
 10
49.076407
 20
17.369230
 30
0.000000
  0
VERTEX
  8
MERGEDLAYER-1
 10
49.073637
 20
17.367192
 30
0.000000
  0
VERTEX
  8
MERGEDLAYER-1
 10
49.072012
 20
17.364840
 30
0.000000
  0
VERTEX
  8
MERGEDLAYER-1
 10
49.070693
 20
17.362201
 30
0.000000
  0
VERTEX
  8
MERGEDLAYER-1
 10
49.069815
 20
17.360004
 30
0.000000
  0
VERTEX
  8
MERGEDLAYER-1
 10
49.069242
 20
17.356591
 30
0.000000
  0
VERTEX
  8
MERGEDLAYER-1
 10
49.069242
 20
17.321665
 30
0.000000
  0
VERTEX
  8
MERGEDLAYER-1
 10
49.068059
 20
17.316073
 30
0.000000
  0
VERTEX
  8
MERGEDLAYER-1
 10
49.066740
 20
17.312998
 30
0.000000
  0
VERTEX
  8
MERGEDLAYER-1
 10
49.064848
 20
17.311059
 30
0.000000
  0
VERTEX
  8
MERGEDLAYER-1
 10
49.062345
 20
17.309044
 30
0.000000
  0
VERTEX
  8
MERGEDLAYER-1
 10
49.058833
 20
17.307720
 30
0.000000
  0
VERTEX
  8
MERGEDLAYER-1
 10
49.054241
 20
17.306669
 30
0.000000
  0
VERTEX
  8
MERGEDLAYER-1
 10
49.008953
 20
17.306669
 30
0.000000
  0
VERTEX
  8
MERGEDLAYER-1
 10
49.003028
 20
17.307720
 30
0.000000
  0
VERTEX
  8
MERGEDLAYER-1
 10
49.000831
 20
17.309044
 30
0.000000
  0
VERTEX
  8
MERGEDLAYER-1
 10
48.998352
 20
17.311059
 30
0.000000
  0
VERTEX
  8
MERGEDLAYER-1
 10
48.996000
 20
17.313871
 30
0.000000
  0
VERTEX
  8
MERGEDLAYER-1
 10
48.994681
 20
17.317388
 30
0.000000
  0
VERTEX
  8
MERGEDLAYER-1
 10
48.993958
 20
17.321665
 30
0.000000
  0
VERTEX
  8
MERGEDLAYER-1
 10
48.993958
 20
17.481619
 30
0.000000
  0
VERTEX
  8
MERGEDLAYER-1
 10
48.993361
 20
17.484788
 30
0.000000
  0
VERTEX
  8
MERGEDLAYER-1
 10
48.992920
 20
17.487427
 30
0.000000
  0
VERTEX
  8
MERGEDLAYER-1
 10
48.991164
 20
17.490061
 30
0.000000
  0
VERTEX
  8
MERGEDLAYER-1
 10
48.989563
 20
17.492225
 30
0.000000
  0
VERTEX
  8
MERGEDLAYER-1
 10
48.986328
 20
17.494455
 30
0.000000
  0
VERTEX
  8
MERGEDLAYER-1
 10
48.978952
 20
17.496615
 30
0.000000
  0
VERTEX
  8
MERGEDLAYER-1
 10
48.928955
 20
17.496615
 30
0.000000
  0
VERTEX
  8
MERGEDLAYER-1
 10
48.925255
 20
17.496211
 30
0.000000
  0
VERTEX
  8
MERGEDLAYER-1
 10
48.922180
 20
17.494897
 30
0.000000
  0
VERTEX
  8
MERGEDLAYER-1
 10
48.918349
 20
17.492225
 30
0.000000
  0
VERTEX
  8
MERGEDLAYER-1
 10
48.915584
 20
17.489183
 30
0.000000
  0
VERTEX
  8
MERGEDLAYER-1
 10
48.914710
 20
17.486544
 30
0.000000
  0
VERTEX
  8
MERGEDLAYER-1
 10
48.913955
 20
17.481619
 30
0.000000
  0
VERTEX
  8
MERGEDLAYER-1
 10
48.913955
 20
17.351821
 30
0.000000
  0
VERTEX
  8
MERGEDLAYER-1
 10
48.912954
 20
17.346389
 30
0.000000
  0
VERTEX
  8
MERGEDLAYER-1
 10
48.911635
 20
17.343313
 30
0.000000
  0
VERTEX
  8
MERGEDLAYER-1
 10
48.909565
 20
17.341215
 30
0.000000
  0
VERTEX
  8
MERGEDLAYER-1
 10
48.907241
 20
17.338914
 30
0.000000
  0
VERTEX
  8
MERGEDLAYER-1
 10
48.904165
 20
17.337600
 30
0.000000
  0
VERTEX
  8
MERGEDLAYER-1
 10
48.898959
 20
17.336820
 30
0.000000
  0
VERTEX
  8
MERGEDLAYER-1
 10
48.661166
 20
17.336820
 30
0.000000
  0
VERTEX
  8
MERGEDLAYER-1
 10
48.655912
 20
17.337600
 30
0.000000
  0
VERTEX
  8
MERGEDLAYER-1
 10
48.652837
 20
17.338914
 30
0.000000
  0
VERTEX
  8
MERGEDLAYER-1
 10
48.650560
 20
17.341215
 30
0.000000
  0
VERTEX
  8
MERGEDLAYER-1
 10
48.648001
 20
17.343313
 30
0.000000
  0
VERTEX
  8
MERGEDLAYER-1
 10
48.646686
 20
17.347267
 30
0.000000
  0
VERTEX
  8
MERGEDLAYER-1
 10
48.646165
 20
17.351821
 30
0.000000
  0
VERTEX
  8
MERGEDLAYER-1
 10
48.646240
 20
17.391198
 30
0.000000
  0
VERTEX
  8
MERGEDLAYER-1
 10
48.566270
 20
17.391198
 30
0.000000
  0
VERTEX
  8
MERGEDLAYER-1
 10
48.566162
 20
17.351821
 30
0.000000
  0
VERTEX
  8
MERGEDLAYER-1
 10
48.565397
 20
17.345947
 30
0.000000
  0
VERTEX
  8
MERGEDLAYER-1
 10
48.563636
 20
17.343313
 30
0.000000
  0
VERTEX
  8
MERGEDLAYER-1
 10
48.561772
 20
17.341215
 30
0.000000
  0
VERTEX
  8
MERGEDLAYER-1
 10
48.559242
 20
17.338914
 30
0.000000
  0
VERTEX
  8
MERGEDLAYER-1
 10
48.556166
 20
17.337158
 30
0.000000
  0
VERTEX
  8
MERGEDLAYER-1
 10
48.551166
 20
17.336820
 30
0.000000
  0
VERTEX
  8
MERGEDLAYER-1
 10
47.822806
 20
17.336820
 30
0.000000
  0
VERTEX
  8
MERGEDLAYER-1
 10
47.817547
 20
17.337600
 30
0.000000
  0
VERTEX
  8
MERGEDLAYER-1
 10
47.814035
 20
17.339355
 30
0.000000
  0
VERTEX
  8
MERGEDLAYER-1
 10
47.812200
 20
17.341215
 30
0.000000
  0
VERTEX
  8
MERGEDLAYER-1
 10
47.809645
 20
17.343750
 30
0.000000
  0
VERTEX
  8
MERGEDLAYER-1
 10
47.808763
 20
17.346389
 30
0.000000
  0
VERTEX
  8
MERGEDLAYER-1
 10
47.807885
 20
17.349027
 30
0.000000
  0
VERTEX
  8
MERGEDLAYER-1
 10
47.807805
 20
17.351821
 30
0.000000
  0
VERTEX
  8
MERGEDLAYER-1
 10
47.807805
 20
17.441618
 30
0.000000
  0
VERTEX
  8
MERGEDLAYER-1
 10
47.807443
 20
17.448763
 30
0.000000
  0
VERTEX
  8
MERGEDLAYER-1
 10
47.806566
 20
17.452275
 30
0.000000
  0
VERTEX
  8
MERGEDLAYER-1
 10
47.805246
 20
17.457989
 30
0.000000
  0
VERTEX
  8
MERGEDLAYER-1
 10
47.803490
 20
17.463262
 30
0.000000
  0
VERTEX
  8
MERGEDLAYER-1
 10
47.801730
 20
17.466778
 30
0.000000
  0
VERTEX
  8
MERGEDLAYER-1
 10
47.799096
 20
17.471605
 30
0.000000
  0
VERTEX
  8
MERGEDLAYER-1
 10
47.796462
 20
17.475131
 30
0.000000
  0
VERTEX
  8
MERGEDLAYER-1
 10
47.793823
 20
17.478638
 30
0.000000
  0
VERTEX
  8
MERGEDLAYER-1
 10
47.791696
 20
17.480506
 30
0.000000
  0
VERTEX
  8
MERGEDLAYER-1
 10
47.788114
 20
17.483910
 30
0.000000
  0
VERTEX
  8
MERGEDLAYER-1
 10
47.783715
 20
17.487427
 30
0.000000
  0
VERTEX
  8
MERGEDLAYER-1
 10
47.779325
 20
17.490061
 30
0.000000
  0
VERTEX
  8
MERGEDLAYER-1
 10
47.773611
 20
17.492695
 30
0.000000
  0
VERTEX
  8
MERGEDLAYER-1
 10
47.767897
 20
17.494455
 30
0.000000
  0
VERTEX
  8
MERGEDLAYER-1
 10
47.762625
 20
17.495770
 30
0.000000
  0
VERTEX
  8
MERGEDLAYER-1
 10
47.759108
 20
17.496657
 30
0.000000
  0
VERTEX
  8
MERGEDLAYER-1
 10
47.752808
 20
17.496615
 30
0.000000
  0
VERTEX
  8
MERGEDLAYER-1
 10
47.689120
 20
17.496615
 30
0.000000
  0
VERTEX
  8
MERGEDLAYER-1
 10
47.684411
 20
17.495333
 30
0.000000
  0
VERTEX
  8
MERGEDLAYER-1
 10
47.680899
 20
17.493577
 30
0.000000
  0
VERTEX
  8
MERGEDLAYER-1
 10
47.678509
 20
17.492070
 30
0.000000
  0
VERTEX
  8
MERGEDLAYER-1
 10
47.676504
 20
17.489183
 30
0.000000
  0
VERTEX
  8
MERGEDLAYER-1
 10
47.675622
 20
17.487427
 30
0.000000
  0
VERTEX
  8
MERGEDLAYER-1
 10
47.674307
 20
17.484352
 30
0.000000
  0
VERTEX
  8
MERGEDLAYER-1
 10
47.674115
 20
17.481459
 30
0.000000
  0
VERTEX
  8
MERGEDLAYER-1
 10
47.674115
 20
17.472107
 30
0.000000
  0
VERTEX
  8
MERGEDLAYER-1
 10
47.674748
 20
17.467656
 30
0.000000
  0
VERTEX
  8
MERGEDLAYER-1
 10
47.676941
 20
17.463703
 30
0.000000
  0
VERTEX
  8
MERGEDLAYER-1
 10
47.678509
 20
17.461496
 30
0.000000
  0
VERTEX
  8
MERGEDLAYER-1
 10
47.680899
 20
17.459750
 30
0.000000
  0
VERTEX
  8
MERGEDLAYER-1
 10
47.683096
 20
17.458426
 30
0.000000
  0
VERTEX
  8
MERGEDLAYER-1
 10
47.685730
 20
17.457552
 30
0.000000
  0
VERTEX
  8
MERGEDLAYER-1
 10
47.689120
 20
17.457106
 30
0.000000
  0
VERTEX
  8
MERGEDLAYER-1
 10
47.737699
 20
17.457106
 30
0.000000
  0
VERTEX
  8
MERGEDLAYER-1
 10
47.742413
 20
17.456228
 30
0.000000
  0
VERTEX
  8
MERGEDLAYER-1
 10
47.745929
 20
17.454472
 30
0.000000
  0
VERTEX
  8
MERGEDLAYER-1
 10
47.748305
 20
17.452707
 30
0.000000
  0
VERTEX
  8
MERGEDLAYER-1
 10
47.750761
 20
17.449637
 30
0.000000
  0
VERTEX
  8
MERGEDLAYER-1
 10
47.752080
 20
17.446125
 30
0.000000
  0
VERTEX
  8
MERGEDLAYER-1
 10
47.752808
 20
17.441618
 30
0.000000
  0
VERTEX
  8
MERGEDLAYER-1
 10
47.752700
 20
17.385545
 30
0.000000
  0
VERTEX
  8
MERGEDLAYER-1
 10
47.751643
 20
17.380216
 30
0.000000
  0
VERTEX
  8
MERGEDLAYER-1
 10
47.750324
 20
17.377141
 30
0.000000
  0
VERTEX
  8
MERGEDLAYER-1
 10
47.748305
 20
17.374944
 30
0.000000
  0
VERTEX
  8
MERGEDLAYER-1
 10
47.745051
 20
17.372305
 30
0.000000
  0
VERTEX
  8
MERGEDLAYER-1
 10
47.741976
 20
17.370990
 30
0.000000
  0
VERTEX
  8
MERGEDLAYER-1
 10
47.737699
 20
17.370554
 30
0.000000
  0
VERTEX
  8
MERGEDLAYER-1
 10
47.689021
 20
17.370554
 30
0.000000
  0
VERTEX
  8
MERGEDLAYER-1
 10
47.684411
 20
17.369666
 30
0.000000
  0
VERTEX
  8
MERGEDLAYER-1
 10
47.680462
 20
17.367915
 30
0.000000
  0
VERTEX
  8
MERGEDLAYER-1
 10
47.678415
 20
17.366155
 30
0.000000
  0
VERTEX
  8
MERGEDLAYER-1
 10
47.676063
 20
17.363516
 30
0.000000
  0
VERTEX
  8
MERGEDLAYER-1
 10
47.674748
 20
17.360004
 30
0.000000
  0
VERTEX
  8
MERGEDLAYER-1
 10
47.674025
 20
17.355553
 30
0.000000
  0
VERTEX
  8
MERGEDLAYER-1
 10
47.674025
 20
17.316556
 30
0.000000
  0
VERTEX
  8
MERGEDLAYER-1
 10
47.672988
 20
17.312556
 30
0.000000
  0
VERTEX
  8
MERGEDLAYER-1
 10
47.672546
 20
17.310359
 30
0.000000
  0
VERTEX
  8
MERGEDLAYER-1
 10
47.671232
 20
17.307720
 30
0.000000
  0
VERTEX
  8
MERGEDLAYER-1
 10
47.669631
 20
17.305950
 30
0.000000
  0
VERTEX
  8
MERGEDLAYER-1
 10
47.666837
 20
17.303767
 30
0.000000
  0
VERTEX
  8
MERGEDLAYER-1
 10
47.662884
 20
17.302007
 30
0.000000
  0
VERTEX
  8
MERGEDLAYER-1
 10
47.659025
 20
17.301561
 30
0.000000
  0
VERTEX
  8
MERGEDLAYER-1
 10
47.472642
 20
17.301561
 30
0.000000
  0
VERTEX
  8
MERGEDLAYER-1
 10
47.468675
 20
17.302448
 30
0.000000
  0
VERTEX
  8
MERGEDLAYER-1
 10
47.463839
 20
17.304209
 30
0.000000
  0
VERTEX
  8
MERGEDLAYER-1
 10
47.462031
 20
17.305950
 30
0.000000
  0
VERTEX
  8
MERGEDLAYER-1
 10
47.459886
 20
17.308598
 30
0.000000
  0
VERTEX
  8
MERGEDLAYER-1
 10
47.458567
 20
17.310796
 30
0.000000
  0
VERTEX
  8
MERGEDLAYER-1
 10
47.457689
 20
17.313871
 30
0.000000
  0
VERTEX
  8
MERGEDLAYER-1
 10
47.457637
 20
17.316556
 30
0.000000
  0
VERTEX
  8
MERGEDLAYER-1
 10
47.457637
 20
17.355553
 30
0.000000
  0
VERTEX
  8
MERGEDLAYER-1
 10
47.457247
 20
17.359563
 30
0.000000
  0
VERTEX
  8
MERGEDLAYER-1
 10
47.455933
 20
17.363079
 30
0.000000
  0
VERTEX
  8
MERGEDLAYER-1
 10
47.453247
 20
17.366155
 30
0.000000
  0
VERTEX
  8
MERGEDLAYER-1
 10
47.450655
 20
17.368352
 30
0.000000
  0
VERTEX
  8
MERGEDLAYER-1
 10
47.447759
 20
17.370512
 30
0.000000
  0
VERTEX
  8
MERGEDLAYER-1
 10
47.442641
 20
17.370554
 30
0.000000
  0
VERTEX
  8
MERGEDLAYER-1
 10
47.394010
 20
17.370554
 30
0.000000
  0
VERTEX
  8
MERGEDLAYER-1
 10
47.389146
 20
17.371427
 30
0.000000
  0
VERTEX
  8
MERGEDLAYER-1
 10
47.385193
 20
17.373188
 30
0.000000
  0
VERTEX
  8
MERGEDLAYER-1
 10
47.383202
 20
17.374944
 30
0.000000
  0
VERTEX
  8
MERGEDLAYER-1
 10
47.380798
 20
17.377582
 30
0.000000
  0
VERTEX
  8
MERGEDLAYER-1
 10
47.379479
 20
17.380216
 30
0.000000
  0
VERTEX
  8
MERGEDLAYER-1
 10
47.378812
 20
17.385545
 30
0.000000
  0
VERTEX
  8
MERGEDLAYER-1
 10
47.378812
 20
17.442101
 30
0.000000
  0
VERTEX
  8
MERGEDLAYER-1
 10
47.379479
 20
17.445683
 30
0.000000
  0
VERTEX
  8
MERGEDLAYER-1
 10
47.380798
 20
17.449637
 30
0.000000
  0
VERTEX
  8
MERGEDLAYER-1
 10
47.383202
 20
17.452707
 30
0.000000
  0
VERTEX
  8
MERGEDLAYER-1
 10
47.386507
 20
17.455350
 30
0.000000
  0
VERTEX
  8
MERGEDLAYER-1
 10
47.388705
 20
17.456228
 30
0.000000
  0
VERTEX
  8
MERGEDLAYER-1
 10
47.393808
 20
17.457106
 30
0.000000
  0
SEQEND
  8
MERGEDLAYER-1
  0
POLYLINE
  8
MERGEDLAYER-1
 66
  1
 70
  1
 62
  7
 10
48.566270
 20
18.352117
 30
0.000000
  0
VERTEX
  8
MERGEDLAYER-1
 10
48.566270
 20
18.352117
 30
0.000000
  0
VERTEX
  8
MERGEDLAYER-1
 10
48.646240
 20
18.352117
 30
0.000000
  0
VERTEX
  8
MERGEDLAYER-1
 10
48.646165
 20
18.171697
 30
0.000000
  0
VERTEX
  8
MERGEDLAYER-1
 10
48.647123
 20
18.166255
 30
0.000000
  0
VERTEX
  8
MERGEDLAYER-1
 10
48.648442
 20
18.163180
 30
0.000000
  0
VERTEX
  8
MERGEDLAYER-1
 10
48.650560
 20
18.161095
 30
0.000000
  0
VERTEX
  8
MERGEDLAYER-1
 10
48.653715
 20
18.158790
 30
0.000000
  0
VERTEX
  8
MERGEDLAYER-1
 10
48.657227
 20
18.157471
 30
0.000000
  0
VERTEX
  8
MERGEDLAYER-1
 10
48.661166
 20
18.156705
 30
0.000000
  0
VERTEX
  8
MERGEDLAYER-1
 10
48.676162
 20
18.156705
 30
0.000000
  0
VERTEX
  8
MERGEDLAYER-1
 10
48.680950
 20
18.155710
 30
0.000000
  0
VERTEX
  8
MERGEDLAYER-1
 10
48.684467
 20
18.153949
 30
0.000000
  0
VERTEX
  8
MERGEDLAYER-1
 10
48.686768
 20
18.152306
 30
0.000000
  0
VERTEX
  8
MERGEDLAYER-1
 10
48.688862
 20
18.149560
 30
0.000000
  0
VERTEX
  8
MERGEDLAYER-1
 10
48.690617
 20
18.145616
 30
0.000000
  0
VERTEX
  8
MERGEDLAYER-1
 10
48.691162
 20
18.141710
 30
0.000000
  0
VERTEX
  8
MERGEDLAYER-1
 10
48.691162
 20
17.601652
 30
0.000000
  0
VERTEX
  8
MERGEDLAYER-1
 10
48.690617
 20
17.597267
 30
0.000000
  0
VERTEX
  8
MERGEDLAYER-1
 10
48.689298
 20
17.594191
 30
0.000000
  0
VERTEX
  8
MERGEDLAYER-1
 10
48.686768
 20
17.591041
 30
0.000000
  0
VERTEX
  8
MERGEDLAYER-1
 10
48.683589
 20
17.588924
 30
0.000000
  0
VERTEX
  8
MERGEDLAYER-1
 10
48.680072
 20
17.587163
 30
0.000000
  0
VERTEX
  8
MERGEDLAYER-1
 10
48.676162
 20
17.586651
 30
0.000000
  0
VERTEX
  8
MERGEDLAYER-1
 10
48.661166
 20
17.586651
 30
0.000000
  0
VERTEX
  8
MERGEDLAYER-1
 10
48.656349
 20
17.586290
 30
0.000000
  0
VERTEX
  8
MERGEDLAYER-1
 10
48.653273
 20
17.584088
 30
0.000000
  0
VERTEX
  8
MERGEDLAYER-1
 10
48.650560
 20
17.582257
 30
0.000000
  0
VERTEX
  8
MERGEDLAYER-1
 10
48.648442
 20
17.579256
 30
0.000000
  0
VERTEX
  8
MERGEDLAYER-1
 10
48.646686
 20
17.576181
 30
0.000000
  0
VERTEX
  8
MERGEDLAYER-1
 10
48.646165
 20
17.571646
 30
0.000000
  0
VERTEX
  8
MERGEDLAYER-1
 10
48.646240
 20
17.391198
 30
0.000000
  0
VERTEX
  8
MERGEDLAYER-1
 10
48.566270
 20
17.391198
 30
0.000000
  0
VERTEX
  8
MERGEDLAYER-1
 10
48.566162
 20
17.839872
 30
0.000000
  0
VERTEX
  8
MERGEDLAYER-1
 10
48.598051
 20
17.871751
 30
0.000000
  0
VERTEX
  8
MERGEDLAYER-1
 10
48.566162
 20
17.903640
 30
0.000000
  0
SEQEND
  8
MERGEDLAYER-1
  0
POLYLINE
  8
MERGEDLAYER-1
 66
  1
 70
  1
 62
  7
 10
49.243812
 20
18.411870
 30
0.000000
  0
VERTEX
  8
MERGEDLAYER-1
 10
49.243812
 20
18.411870
 30
0.000000
  0
VERTEX
  8
MERGEDLAYER-1
 10
49.323787
 20
18.411870
 30
0.000000
  0
VERTEX
  8
MERGEDLAYER-1
 10
49.323787
 20
17.331449
 30
0.000000
  0
VERTEX
  8
MERGEDLAYER-1
 10
49.243812
 20
17.331449
 30
0.000000
  0
SEQEND
  8
MERGEDLAYER-1
  0
POLYLINE
  8
MERGEDLAYER-1
 66
  1
 70
  1
 62
  7
  0
VERTEX
  8
MERGEDLAYER-1
 10
47.449336
 20
17.535400
 30
0.000000
  0
VERTEX
  8
MERGEDLAYER-1
 10
47.669199
 20
17.535400
 30
0.000000
  0
VERTEX
  8
MERGEDLAYER-1
 10
47.669199
 20
17.411015
 30
0.000000
  0
VERTEX
  8
MERGEDLAYER-1
 10
47.449336
 20
17.411015
 30
0.000000
  0
SEQEND
  8
MERGEDLAYER-1
  0
POLYLINE
  8
MERGEDLAYER-1
 66
  1
 70
  0
 62
  7
 10
47.399977
 20
17.410429
 30
0.000000
  0
VERTEX
  8
MERGEDLAYER-1
 10
47.399977
 20
17.410429
 30
0.000000
  0
VERTEX
  8
MERGEDLAYER-1
 10
47.712468
 20
17.410429
 30
0.000000
  0
SEQEND
  8
MERGEDLAYER-1
  0
POLYLINE
  8
MERGEDLAYER-1
 66
  1
 70
  1
 62
  7
  0
VERTEX
  8
MERGEDLAYER-1
 10
47.669199
 20
18.220234
 30
0.000000
  0
VERTEX
  8
MERGEDLAYER-1
 10
47.449336
 20
18.220234
 30
0.000000
  0
VERTEX
  8
MERGEDLAYER-1
 10
47.449336
 20
18.344609
 30
0.000000
  0
VERTEX
  8
MERGEDLAYER-1
 10
47.669199
 20
18.344609
 30
0.000000
  0
SEQEND
  8
MERGEDLAYER-1
  0
POLYLINE
  8
MERGEDLAYER-1
 66
  1
 70
  0
 62
  7
 10
47.399977
 20
18.345205
 30
0.000000
  0
VERTEX
  8
MERGEDLAYER-1
 10
47.399977
 20
18.345205
 30
0.000000
  0
VERTEX
  8
MERGEDLAYER-1
 10
47.712468
 20
18.345205
 30
0.000000
  0
SEQEND
  8
MERGEDLAYER-1
  0
POLYLINE
  8
MERGEDLAYER-1
  6
LTYPE06
 66
  1
 70
  0
 62
  7
 40
0.153846
 41
0.153846
  6
LTYPE06
 10
48.188514
 20
17.841933
 30
0.000000
  0
VERTEX
  8
MERGEDLAYER-1
  6
LTYPE06
 10
48.188514
 20
17.841933
 30
0.000000
  0
VERTEX
  8
MERGEDLAYER-1
  6
LTYPE06
 10
47.107135
 20
17.841933
 30
0.000000
  0
SEQEND
  8
MERGEDLAYER-1
  0
TEXT
  8
MERGEDLAYER-1
 62
  7
 10
16.615385
 20
21.928025
 30
0.000000
 40
0.576923
  1
GUIDE
 72
  5
 11
19.461538
 21
21.928025
 31
0.000000
  0
TEXT
  8
MERGEDLAYER-1
 62
  7
 10
16.615385
 20
21.081872
 30
0.000000
 40
0.576923
  1
D'ALUMINIUM
 72
  5
 11
22.000000
 21
21.081872
 31
0.000000
  0
POLYLINE
  8
MERGEDLAYER-1
 66
  1
 70
  0
 62
  7
 10
49.340895
 20
20.532832
 30
0.000000
  0
VERTEX
  8
MERGEDLAYER-1
 10
49.340895
 20
20.532832
 30
0.000000
  0
VERTEX
  8
MERGEDLAYER-1
 10
47.332679
 20
20.532832
 30
0.000000
  0
SEQEND
  8
MERGEDLAYER-1
  0
POLYLINE
  8
MERGEDLAYER-1
 66
  1
 70
  1
 62
  7
  0
VERTEX
  8
MERGEDLAYER-1
 10
49.360577
 20
20.532832
 30
0.000000
  0
VERTEX
  8
MERGEDLAYER-1
 10
48.975962
 20
20.763601
 30
0.000000
  0
VERTEX
  8
MERGEDLAYER-1
 10
48.975962
 20
20.532832
 30
0.000000
  0
VERTEX
  8
MERGEDLAYER-1
 10
48.975962
 20
20.302063
 30
0.000000
  0
VERTEX
  8
MERGEDLAYER-1
 10
49.360577
 20
20.532832
 30
0.000000
  0
SEQEND
  8
MERGEDLAYER-1
  0
POLYLINE
  8
MERGEDLAYER-1
 66
  1
 70
  1
 62
  7
  0
VERTEX
  8
MERGEDLAYER-1
 10
47.312998
 20
20.532832
 30
0.000000
  0
VERTEX
  8
MERGEDLAYER-1
 10
47.697613
 20
20.763601
 30
0.000000
  0
VERTEX
  8
MERGEDLAYER-1
 10
47.697613
 20
20.532832
 30
0.000000
  0
VERTEX
  8
MERGEDLAYER-1
 10
47.697613
 20
20.302063
 30
0.000000
  0
VERTEX
  8
MERGEDLAYER-1
 10
47.312998
 20
20.532832
 30
0.000000
  0
SEQEND
  8
MERGEDLAYER-1
  0
POLYLINE
  8
MERGEDLAYER-1
 66
  1
 70
  0
 62
  7
 10
51.066721
 20
20.532832
 30
0.000000
  0
VERTEX
  8
MERGEDLAYER-1
 10
51.066721
 20
20.532832
 30
0.000000
  0
VERTEX
  8
MERGEDLAYER-1
 10
49.360577
 20
20.532832
 30
0.000000
  0
SEQEND
  8
MERGEDLAYER-1
  0
POLYLINE
  8
MERGEDLAYER-1
 66
  1
 70
  0
 62
  7
 10
47.332224
 20
21.828947
 30
0.000000
  0
VERTEX
  8
MERGEDLAYER-1
 10
47.332224
 20
21.828947
 30
0.000000
  0
VERTEX
  8
MERGEDLAYER-1
 10
47.332224
 20
18.790645
 30
0.000000
  0
SEQEND
  8
MERGEDLAYER-1
  0
POLYLINE
  8
MERGEDLAYER-1
 66
  1
 70
  1
 62
  7
  0
VERTEX
  8
MERGEDLAYER-1
 10
11.720452
 20
18.381662
 30
0.000000
  0
VERTEX
  8
MERGEDLAYER-1
 10
11.970465
 20
18.381662
 30
0.000000
  0
VERTEX
  8
MERGEDLAYER-1
 10
11.970465
 20
17.381582
 30
0.000000
  0
VERTEX
  8
MERGEDLAYER-1
 10
11.720452
 20
17.381582
 30
0.000000
  0
SEQEND
  8
MERGEDLAYER-1
  0
POLYLINE
  8
MERGEDLAYER-1
 66
  1
 70
  1
 62
  7
  0
VERTEX
  8
MERGEDLAYER-1
 10
11.970465
 20
18.497380
 30
0.000000
  0
VERTEX
  8
MERGEDLAYER-1
 10
12.157974
 20
18.497380
 30
0.000000
  0
VERTEX
  8
MERGEDLAYER-1
 10
12.157974
 20
8.496563
 30
0.000000
  0
VERTEX
  8
MERGEDLAYER-1
 10
11.970465
 20
8.496563
 30
0.000000
  0
SEQEND
  8
MERGEDLAYER-1
  0
POLYLINE
  8
MERGEDLAYER-1
 66
  1
 70
  1
 62
  7
  0
VERTEX
  8
MERGEDLAYER-1
 10
48.987699
 20
18.381662
 30
0.000000
  0
VERTEX
  8
MERGEDLAYER-1
 10
49.237713
 20
18.381662
 30
0.000000
  0
VERTEX
  8
MERGEDLAYER-1
 10
49.237713
 20
17.381582
 30
0.000000
  0
VERTEX
  8
MERGEDLAYER-1
 10
48.987699
 20
17.381582
 30
0.000000
  0
SEQEND
  8
MERGEDLAYER-1
  0
POLYLINE
  8
MERGEDLAYER-1
 66
  1
 70
  1
 62
  7
  0
VERTEX
  8
MERGEDLAYER-1
 10
48.800190
 20
18.497380
 30
0.000000
  0
VERTEX
  8
MERGEDLAYER-1
 10
48.987699
 20
18.497380
 30
0.000000
  0
VERTEX
  8
MERGEDLAYER-1
 10
48.987699
 20
8.496563
 30
0.000000
  0
VERTEX
  8
MERGEDLAYER-1
 10
48.800190
 20
8.496563
 30
0.000000
  0
SEQEND
  8
MERGEDLAYER-1
  0
TEXT
  8
MERGEDLAYER-1
 62
  7
 10
48.000000
 20
58.774179
 30
0.000000
 40
0.807692
  1
"X"
 72
  5
 11
49.846154
 21
58.774179
 31
0.000000
  0
TEXT
  8
MERGEDLAYER-1
 62
  7
 10
41.692308
 20
55.081872
 30
0.000000
 40
0.807692
  1
"Y"
 50
90.000000
 72
  5
 11
41.692308
 21
56.928025
 31
0.000000
  0
POLYLINE
  8
MERGEDLAYER-1
 66
  1
 70
  1
 62
  7
 10
7.032452
 20
56.613122
 30
0.000000
  0
VERTEX
  8
MERGEDLAYER-1
 10
7.032452
 20
56.613122
 30
0.000000
  0
VERTEX
  8
MERGEDLAYER-1
 10
7.032452
 20
54.642644
 30
0.000000
  0
VERTEX
  8
MERGEDLAYER-1
 10
7.298526
 20
54.641789
 30
0.000000
  0
VERTEX
  8
MERGEDLAYER-1
 10
7.296328
 20
52.715647
 30
0.000000
  0
VERTEX
  8
MERGEDLAYER-1
 10
27.906710
 20
52.718478
 30
0.000000
  0
VERTEX
  8
MERGEDLAYER-1
 10
27.908295
 20
54.646015
 30
0.000000
  0
VERTEX
  8
MERGEDLAYER-1
 10
28.177514
 20
54.642644
 30
0.000000
  0
VERTEX
  8
MERGEDLAYER-1
 10
28.177514
 20
54.793138
 30
0.000000
  0
VERTEX
  8
MERGEDLAYER-1
 10
28.177514
 20
55.407104
 30
0.000000
  0
VERTEX
  8
MERGEDLAYER-1
 10
27.532292
 20
55.407104
 30
0.000000
  0
VERTEX
  8
MERGEDLAYER-1
 10
27.532292
 20
56.615868
 30
0.000000
  0
SEQEND
  8
MERGEDLAYER-1
  0
POLYLINE
  8
MERGEDLAYER-1
 66
  1
 70
  0
 62
  7
 10
7.296328
 20
44.029025
 30
0.000000
  0
VERTEX
  8
MERGEDLAYER-1
 10
7.296328
 20
44.029025
 30
0.000000
  0
VERTEX
  8
MERGEDLAYER-1
 10
27.906710
 20
44.031856
 30
0.000000
  0
SEQEND
  8
MERGEDLAYER-1
  0
POLYLINE
  8
MERGEDLAYER-1
 66
  1
 70
  0
 62
  7
 10
7.296328
 20
44.077022
 30
0.000000
  0
VERTEX
  8
MERGEDLAYER-1
 10
7.296328
 20
44.077022
 30
0.000000
  0
VERTEX
  8
MERGEDLAYER-1
 10
27.906710
 20
44.079853
 30
0.000000
  0
SEQEND
  8
MERGEDLAYER-1
  0
POLYLINE
  8
MERGEDLAYER-1
 66
  1
 70
  0
 62
  7
 10
7.296328
 20
44.557035
 30
0.000000
  0
VERTEX
  8
MERGEDLAYER-1
 10
7.296328
 20
44.557035
 30
0.000000
  0
VERTEX
  8
MERGEDLAYER-1
 10
27.906710
 20
44.559861
 30
0.000000
  0
SEQEND
  8
MERGEDLAYER-1
  0
POLYLINE
  8
MERGEDLAYER-1
 66
  1
 70
  0
 62
  7
 10
7.296328
 20
45.037044
 30
0.000000
  0
VERTEX
  8
MERGEDLAYER-1
 10
7.296328
 20
45.037044
 30
0.000000
  0
VERTEX
  8
MERGEDLAYER-1
 10
27.906710
 20
45.039870
 30
0.000000
  0
SEQEND
  8
MERGEDLAYER-1
  0
POLYLINE
  8
MERGEDLAYER-1
 66
  1
 70
  0
 62
  7
 10
7.296328
 20
45.517052
 30
0.000000
  0
VERTEX
  8
MERGEDLAYER-1
 10
7.296328
 20
45.517052
 30
0.000000
  0
VERTEX
  8
MERGEDLAYER-1
 10
27.906710
 20
45.519883
 30
0.000000
  0
SEQEND
  8
MERGEDLAYER-1
  0
POLYLINE
  8
MERGEDLAYER-1
 66
  1
 70
  0
 62
  7
 10
7.296328
 20
45.997061
 30
0.000000
  0
VERTEX
  8
MERGEDLAYER-1
 10
7.296328
 20
45.997061
 30
0.000000
  0
VERTEX
  8
MERGEDLAYER-1
 10
27.906710
 20
45.999897
 30
0.000000
  0
SEQEND
  8
MERGEDLAYER-1
  0
POLYLINE
  8
MERGEDLAYER-1
 66
  1
 70
  0
 62
  7
 10
7.296328
 20
46.477074
 30
0.000000
  0
VERTEX
  8
MERGEDLAYER-1
 10
7.296328
 20
46.477074
 30
0.000000
  0
VERTEX
  8
MERGEDLAYER-1
 10
27.906710
 20
46.479905
 30
0.000000
  0
SEQEND
  8
MERGEDLAYER-1
  0
POLYLINE
  8
MERGEDLAYER-1
 66
  1
 70
  0
 62
  7
 10
7.296328
 20
46.957083
 30
0.000000
  0
VERTEX
  8
MERGEDLAYER-1
 10
7.296328
 20
46.957083
 30
0.000000
  0
VERTEX
  8
MERGEDLAYER-1
 10
27.906710
 20
46.959914
 30
0.000000
  0
SEQEND
  8
MERGEDLAYER-1
  0
POLYLINE
  8
MERGEDLAYER-1
 66
  1
 70
  0
 62
  7
 10
7.296328
 20
47.437096
 30
0.000000
  0
VERTEX
  8
MERGEDLAYER-1
 10
7.296328
 20
47.437096
 30
0.000000
  0
VERTEX
  8
MERGEDLAYER-1
 10
27.906710
 20
47.439923
 30
0.000000
  0
SEQEND
  8
MERGEDLAYER-1
  0
POLYLINE
  8
MERGEDLAYER-1
 66
  1
 70
  0
 62
  7
 10
7.296328
 20
47.917105
 30
0.000000
  0
VERTEX
  8
MERGEDLAYER-1
 10
7.296328
 20
47.917105
 30
0.000000
  0
VERTEX
  8
MERGEDLAYER-1
 10
27.906710
 20
47.919931
 30
0.000000
  0
SEQEND
  8
MERGEDLAYER-1
  0
POLYLINE
  8
MERGEDLAYER-1
 66
  1
 70
  0
 62
  7
 10
7.296328
 20
48.397114
 30
0.000000
  0
VERTEX
  8
MERGEDLAYER-1
 10
7.296328
 20
48.397114
 30
0.000000
  0
VERTEX
  8
MERGEDLAYER-1
 10
27.906710
 20
48.399940
 30
0.000000
  0
SEQEND
  8
MERGEDLAYER-1
  0
POLYLINE
  8
MERGEDLAYER-1
 66
  1
 70
  0
 62
  7
 10
7.296328
 20
48.877122
 30
0.000000
  0
VERTEX
  8
MERGEDLAYER-1
 10
7.296328
 20
48.877122
 30
0.000000
  0
VERTEX
  8
MERGEDLAYER-1
 10
27.906710
 20
48.879953
 30
0.000000
  0
SEQEND
  8
MERGEDLAYER-1
  0
POLYLINE
  8
MERGEDLAYER-1
 66
  1
 70
  0
 62
  7
 10
7.296328
 20
49.357131
 30
0.000000
  0
VERTEX
  8
MERGEDLAYER-1
 10
7.296328
 20
49.357131
 30
0.000000
  0
VERTEX
  8
MERGEDLAYER-1
 10
27.906710
 20
49.359962
 30
0.000000
  0
SEQEND
  8
MERGEDLAYER-1
  0
POLYLINE
  8
MERGEDLAYER-1
 66
  1
 70
  0
 62
  7
 10
7.296328
 20
49.837139
 30
0.000000
  0
VERTEX
  8
MERGEDLAYER-1
 10
7.296328
 20
49.837139
 30
0.000000
  0
VERTEX
  8
MERGEDLAYER-1
 10
27.906710
 20
49.839971
 30
0.000000
  0
SEQEND
  8
MERGEDLAYER-1
  0
POLYLINE
  8
MERGEDLAYER-1
 66
  1
 70
  0
 62
  7
 10
7.296328
 20
50.317143
 30
0.000000
  0
VERTEX
  8
MERGEDLAYER-1
 10
7.296328
 20
50.317143
 30
0.000000
  0
VERTEX
  8
MERGEDLAYER-1
 10
27.906710
 20
50.319974
 30
0.000000
  0
SEQEND
  8
MERGEDLAYER-1
  0
POLYLINE
  8
MERGEDLAYER-1
 66
  1
 70
  0
 62
  7
 10
7.296328
 20
50.797152
 30
0.000000
  0
VERTEX
  8
MERGEDLAYER-1
 10
7.296328
 20
50.797152
 30
0.000000
  0
VERTEX
  8
MERGEDLAYER-1
 10
27.906710
 20
50.799983
 30
0.000000
  0
SEQEND
  8
MERGEDLAYER-1
  0
POLYLINE
  8
MERGEDLAYER-1
 66
  1
 70
  0
 62
  7
 10
7.296328
 20
51.277161
 30
0.000000
  0
VERTEX
  8
MERGEDLAYER-1
 10
7.296328
 20
51.277161
 30
0.000000
  0
VERTEX
  8
MERGEDLAYER-1
 10
27.906710
 20
51.279992
 30
0.000000
  0
SEQEND
  8
MERGEDLAYER-1
  0
POLYLINE
  8
MERGEDLAYER-1
 66
  1
 70
  0
 62
  7
 10
7.296328
 20
51.757174
 30
0.000000
  0
VERTEX
  8
MERGEDLAYER-1
 10
7.296328
 20
51.757174
 30
0.000000
  0
VERTEX
  8
MERGEDLAYER-1
 10
27.906710
 20
51.760000
 30
0.000000
  0
SEQEND
  8
MERGEDLAYER-1
  0
POLYLINE
  8
MERGEDLAYER-1
 66
  1
 70
  0
 62
  7
 10
7.296328
 20
52.237183
 30
0.000000
  0
VERTEX
  8
MERGEDLAYER-1
 10
7.296328
 20
52.237183
 30
0.000000
  0
VERTEX
  8
MERGEDLAYER-1
 10
27.906710
 20
52.240014
 30
0.000000
  0
SEQEND
  8
MERGEDLAYER-1
  0
POLYLINE
  8
MERGEDLAYER-1
 66
  1
 70
  0
 62
  7
 10
7.296328
 20
52.717191
 30
0.000000
  0
VERTEX
  8
MERGEDLAYER-1
 10
7.296328
 20
52.717191
 30
0.000000
  0
VERTEX
  8
MERGEDLAYER-1
 10
27.906710
 20
52.720022
 30
0.000000
  0
SEQEND
  8
MERGEDLAYER-1
  0
POLYLINE
  8
MERGEDLAYER-1
 66
  1
 70
  0
 62
  7
 10
7.296328
 20
53.197200
 30
0.000000
  0
VERTEX
  8
MERGEDLAYER-1
 10
7.296328
 20
53.197200
 30
0.000000
  0
VERTEX
  8
MERGEDLAYER-1
 10
27.906710
 20
53.200031
 30
0.000000
  0
SEQEND
  8
MERGEDLAYER-1
  0
POLYLINE
  8
MERGEDLAYER-1
 66
  1
 70
  0
 62
  7
 10
7.296328
 20
53.677209
 30
0.000000
  0
VERTEX
  8
MERGEDLAYER-1
 10
7.296328
 20
53.677209
 30
0.000000
  0
VERTEX
  8
MERGEDLAYER-1
 10
27.906710
 20
53.680044
 30
0.000000
  0
SEQEND
  8
MERGEDLAYER-1
  0
POLYLINE
  8
MERGEDLAYER-1
 66
  1
 70
  0
 62
  7
 10
7.296328
 20
54.157222
 30
0.000000
  0
VERTEX
  8
MERGEDLAYER-1
 10
7.296328
 20
54.157222
 30
0.000000
  0
VERTEX
  8
MERGEDLAYER-1
 10
27.906710
 20
54.160053
 30
0.000000
  0
SEQEND
  8
MERGEDLAYER-1
  0
POLYLINE
  8
MERGEDLAYER-1
 66
  1
 70
  0
 62
  7
 10
7.293790
 20
54.634014
 30
0.000000
  0
VERTEX
  8
MERGEDLAYER-1
 10
7.293790
 20
54.634014
 30
0.000000
  0
VERTEX
  8
MERGEDLAYER-1
 10
27.912262
 20
54.644015
 30
0.000000
  0
SEQEND
  8
MERGEDLAYER-1
  0
POLYLINE
  8
MERGEDLAYER-1
 66
  1
 70
  0
 62
  7
 10
7.032452
 20
55.117239
 30
0.000000
  0
VERTEX
  8
MERGEDLAYER-1
 10
7.032452
 20
55.117239
 30
0.000000
  0
VERTEX
  8
MERGEDLAYER-1
 10
28.177514
 20
55.120070
 30
0.000000
  0
SEQEND
  8
MERGEDLAYER-1
  0
POLYLINE
  8
MERGEDLAYER-1
 66
  1
 70
  0
 62
  7
 10
7.032452
 20
55.597252
 30
0.000000
  0
VERTEX
  8
MERGEDLAYER-1
 10
7.032452
 20
55.597252
 30
0.000000
  0
VERTEX
  8
MERGEDLAYER-1
 10
27.536940
 20
55.604689
 30
0.000000
  0
SEQEND
  8
MERGEDLAYER-1
  0
POLYLINE
  8
MERGEDLAYER-1
 66
  1
 70
  0
 62
  7
 10
7.032452
 20
56.077261
 30
0.000000
  0
VERTEX
  8
MERGEDLAYER-1
 10
7.032452
 20
56.077261
 30
0.000000
  0
VERTEX
  8
MERGEDLAYER-1
 10
27.532292
 20
56.080003
 30
0.000000
  0
SEQEND
  8
MERGEDLAYER-1
  0
POLYLINE
  8
MERGEDLAYER-1
 66
  1
 70
  0
 62
  7
 10
7.032452
 20
56.603506
 30
0.000000
  0
VERTEX
  8
MERGEDLAYER-1
 10
7.032452
 20
56.603506
 30
0.000000
  0
VERTEX
  8
MERGEDLAYER-1
 10
7.032452
 20
54.633028
 30
0.000000
  0
SEQEND
  8
MERGEDLAYER-1
  0
POLYLINE
  8
MERGEDLAYER-1
 66
  1
 70
  0
 62
  7
 10
28.177638
 20
55.406879
 30
0.000000
  0
VERTEX
  8
MERGEDLAYER-1
 10
28.177638
 20
55.406879
 30
0.000000
  0
VERTEX
  8
MERGEDLAYER-1
 10
28.177638
 20
54.642423
 30
0.000000
  0
SEQEND
  8
MERGEDLAYER-1
  0
TEXT
  8
MERGEDLAYER-1
 62
  7
 10
68.615385
 20
17.389564
 30
0.000000
 40
0.980769
  1
Volet de comptoir
 72
  5
 11
78.769231
 21
17.389564
 31
0.000000
  0
POLYLINE
  8
MERGEDLAYER-1
 66
  1
 70
  0
 62
  7
 10
27.532292
 20
56.615868
 30
0.000000
  0
VERTEX
  8
MERGEDLAYER-1
 10
27.532292
 20
56.615868
 30
0.000000
  0
VERTEX
  8
MERGEDLAYER-1
 10
27.532292
 20
55.407104
 30
0.000000
  0
SEQEND
  8
MERGEDLAYER-1
  0
POLYLINE
  8
MERGEDLAYER-1
 66
  1
 70
  0
 62
  7
 10
27.532292
 20
55.407104
 30
0.000000
  0
VERTEX
  8
MERGEDLAYER-1
 10
27.532292
 20
55.407104
 30
0.000000
  0
VERTEX
  8
MERGEDLAYER-1
 10
28.177638
 20
55.407104
 30
0.000000
  0
SEQEND
  8
MERGEDLAYER-1
  0
POLYLINE
  8
MERGEDLAYER-1
 66
  1
 70
  0
 62
  7
 10
23.015817
 20
48.172448
 30
0.000000
  0
VERTEX
  8
MERGEDLAYER-1
 10
23.015817
 20
48.172448
 30
0.000000
  0
VERTEX
  8
MERGEDLAYER-1
 10
22.989734
 20
48.525043
 30
0.000000
  0
VERTEX
  8
MERGEDLAYER-1
 10
22.911743
 20
48.874244
 30
0.000000
  0
VERTEX
  8
MERGEDLAYER-1
 10
22.782593
 20
49.216684
 30
0.000000
  0
VERTEX
  8
MERGEDLAYER-1
 10
22.603527
 20
49.549072
 30
0.000000
  0
VERTEX
  8
MERGEDLAYER-1
 10
22.376270
 20
49.868202
 30
0.000000
  0
VERTEX
  8
MERGEDLAYER-1
 10
22.103011
 20
50.170997
 30
0.000000
  0
VERTEX
  8
MERGEDLAYER-1
 10
21.786379
 20
50.454548
 30
0.000000
  0
VERTEX
  8
MERGEDLAYER-1
 10
21.429429
 20
50.716121
 30
0.000000
  0
VERTEX
  8
MERGEDLAYER-1
 10
21.035593
 20
50.953195
 30
0.000000
  0
VERTEX
  8
MERGEDLAYER-1
 10
20.608666
 20
51.163490
 30
0.000000
  0
VERTEX
  8
MERGEDLAYER-1
 10
20.152759
 20
51.344980
 30
0.000000
  0
VERTEX
  8
MERGEDLAYER-1
 10
19.672267
 20
51.495915
 30
0.000000
  0
VERTEX
  8
MERGEDLAYER-1
 10
19.171809
 20
51.614849
 30
0.000000
  0
VERTEX
  8
MERGEDLAYER-1
 10
18.656210
 20
51.700627
 30
0.000000
  0
VERTEX
  8
MERGEDLAYER-1
 10
18.130438
 20
51.752423
 30
0.000000
  0
VERTEX
  8
MERGEDLAYER-1
 10
17.599551
 20
51.769747
 30
0.000000
  0
VERTEX
  8
MERGEDLAYER-1
 10
17.068665
 20
51.752423
 30
0.000000
  0
VERTEX
  8
MERGEDLAYER-1
 10
16.542891
 20
51.700627
 30
0.000000
  0
VERTEX
  8
MERGEDLAYER-1
 10
16.027293
 20
51.614849
 30
0.000000
  0
VERTEX
  8
MERGEDLAYER-1
 10
15.526836
 20
51.495915
 30
0.000000
  0
VERTEX
  8
MERGEDLAYER-1
 10
15.046342
 20
51.344980
 30
0.000000
  0
VERTEX
  8
MERGEDLAYER-1
 10
14.590435
 20
51.163490
 30
0.000000
  0
VERTEX
  8
MERGEDLAYER-1
 10
14.163508
 20
50.953195
 30
0.000000
  0
VERTEX
  8
MERGEDLAYER-1
 10
13.769673
 20
50.716121
 30
0.000000
  0
VERTEX
  8
MERGEDLAYER-1
 10
13.412722
 20
50.454548
 30
0.000000
  0
VERTEX
  8
MERGEDLAYER-1
 10
13.096092
 20
50.170997
 30
0.000000
  0
VERTEX
  8
MERGEDLAYER-1
 10
12.822831
 20
49.868202
 30
0.000000
  0
VERTEX
  8
MERGEDLAYER-1
 10
12.595575
 20
49.549072
 30
0.000000
  0
VERTEX
  8
MERGEDLAYER-1
 10
12.416509
 20
49.216684
 30
0.000000
  0
VERTEX
  8
MERGEDLAYER-1
 10
12.287358
 20
48.874244
 30
0.000000
  0
VERTEX
  8
MERGEDLAYER-1
 10
12.209367
 20
48.525043
 30
0.000000
  0
VERTEX
  8
MERGEDLAYER-1
 10
12.183286
 20
48.172448
 30
0.000000
  0
VERTEX
  8
MERGEDLAYER-1
 10
12.209367
 20
47.819848
 30
0.000000
  0
VERTEX
  8
MERGEDLAYER-1
 10
12.287358
 20
47.470647
 30
0.000000
  0
VERTEX
  8
MERGEDLAYER-1
 10
12.416509
 20
47.128202
 30
0.000000
  0
VERTEX
  8
MERGEDLAYER-1
 10
12.595575
 20
46.795819
 30
0.000000
  0
VERTEX
  8
MERGEDLAYER-1
 10
12.822831
 20
46.476689
 30
0.000000
  0
VERTEX
  8
MERGEDLAYER-1
 10
13.096092
 20
46.173894
 30
0.000000
  0
VERTEX
  8
MERGEDLAYER-1
 10
13.412722
 20
45.890343
 30
0.000000
  0
VERTEX
  8
MERGEDLAYER-1
 10
13.769673
 20
45.628770
 30
0.000000
  0
VERTEX
  8
MERGEDLAYER-1
 10
14.163508
 20
45.391695
 30
0.000000
  0
VERTEX
  8
MERGEDLAYER-1
 10
14.590435
 20
45.181396
 30
0.000000
  0
VERTEX
  8
MERGEDLAYER-1
 10
15.046342
 20
44.999906
 30
0.000000
  0
VERTEX
  8
MERGEDLAYER-1
 10
15.526836
 20
44.848971
 30
0.000000
  0
VERTEX
  8
MERGEDLAYER-1
 10
16.027293
 20
44.730046
 30
0.000000
  0
VERTEX
  8
MERGEDLAYER-1
 10
16.542891
 20
44.644268
 30
0.000000
  0
VERTEX
  8
MERGEDLAYER-1
 10
17.068665
 20
44.592464
 30
0.000000
  0
VERTEX
  8
MERGEDLAYER-1
 10
17.599551
 20
44.575144
 30
0.000000
  0
VERTEX
  8
MERGEDLAYER-1
 10
18.130438
 20
44.592464
 30
0.000000
  0
VERTEX
  8
MERGEDLAYER-1
 10
18.656210
 20
44.644268
 30
0.000000
  0
VERTEX
  8
MERGEDLAYER-1
 10
19.171809
 20
44.730046
 30
0.000000
  0
VERTEX
  8
MERGEDLAYER-1
 10
19.672267
 20
44.848971
 30
0.000000
  0
VERTEX
  8
MERGEDLAYER-1
 10
20.152759
 20
44.999906
 30
0.000000
  0
VERTEX
  8
MERGEDLAYER-1
 10
20.608666
 20
45.181396
 30
0.000000
  0
VERTEX
  8
MERGEDLAYER-1
 10
21.035593
 20
45.391695
 30
0.000000
  0
VERTEX
  8
MERGEDLAYER-1
 10
21.429429
 20
45.628770
 30
0.000000
  0
VERTEX
  8
MERGEDLAYER-1
 10
21.786379
 20
45.890343
 30
0.000000
  0
VERTEX
  8
MERGEDLAYER-1
 10
22.103011
 20
46.173894
 30
0.000000
  0
VERTEX
  8
MERGEDLAYER-1
 10
22.376270
 20
46.476689
 30
0.000000
  0
VERTEX
  8
MERGEDLAYER-1
 10
22.603527
 20
46.795819
 30
0.000000
  0
VERTEX
  8
MERGEDLAYER-1
 10
22.782593
 20
47.128202
 30
0.000000
  0
VERTEX
  8
MERGEDLAYER-1
 10
22.911743
 20
47.470647
 30
0.000000
  0
VERTEX
  8
MERGEDLAYER-1
 10
22.989734
 20
47.819848
 30
0.000000
  0
VERTEX
  8
MERGEDLAYER-1
 10
23.015817
 20
48.172448
 30
0.000000
  0
SEQEND
  8
MERGEDLAYER-1
  0
TEXT
  8
MERGEDLAYER-1
 62
  7
 10
13.000000
 20
49.158795
 30
0.000000
 40
0.750000
  1
panneaux
 72
  5
 11
17.692308
 21
49.158795
 31
0.000000
  0
TEXT
  8
MERGEDLAYER-1
 62
  7
 10
12.538462
 20
48.004949
 30
0.000000
 40
0.750000
  1
d'aluminium
 72
  5
 11
18.153846
 21
48.004949
 31
0.000000
  0
TEXT
  8
MERGEDLAYER-1
 62
  7
 10
13.846154
 20
46.851102
 30
0.000000
 40
0.750000
  1
pleine
 72
  5
 11
16.846154
 21
46.851102
 31
0.000000
  0
TEXT
  8
MERGEDLAYER-1
 62
  7
 10
13.615385
 20
45.697256
 30
0.000000
 40
0.750000
  1
largeur
 72
  5
 11
17.000000
 21
45.697256
 31
0.000000
  0
POLYLINE
  8
MERGEDLAYER-1
 66
  1
 70
  0
 62
  7
 10
19.634172
 20
50.517733
 30
0.000000
  0
VERTEX
  8
MERGEDLAYER-1
 10
19.634172
 20
50.517733
 30
0.000000
  0
VERTEX
  8
MERGEDLAYER-1
 10
19.634172
 20
46.295429
 30
0.000000
  0
SEQEND
  8
MERGEDLAYER-1
  0
LINE
  8
MERGEDLAYER-1
 62
  7
 10
19.797354
 20
50.354553
 30
0.000000
 11
19.470992
 21
50.680913
 31
0.000000
  0
LINE
  8
MERGEDLAYER-1
 62
  7
 10
19.797354
 20
46.132249
 30
0.000000
 11
19.470992
 21
46.458604
 31
0.000000
  0
POLYLINE
  8
MERGEDLAYER-1
 66
  1
 70
  0
 62
  7
 10
19.011134
 20
50.517733
 30
0.000000
  0
VERTEX
  8
MERGEDLAYER-1
 10
19.011134
 20
50.517733
 30
0.000000
  0
VERTEX
  8
MERGEDLAYER-1
 10
19.873103
 20
50.517733
 30
0.000000
  0
SEQEND
  8
MERGEDLAYER-1
  0
POLYLINE
  8
MERGEDLAYER-1
 66
  1
 70
  0
 62
  7
 10
19.004190
 20
46.295429
 30
0.000000
  0
VERTEX
  8
MERGEDLAYER-1
 10
19.004190
 20
46.295429
 30
0.000000
  0
VERTEX
  8
MERGEDLAYER-1
 10
19.872174
 20
46.295429
 30
0.000000
  0
SEQEND
  8
MERGEDLAYER-1
  0
POLYLINE
  8
MERGEDLAYER-1
 66
  1
 70
  1
 62
  7
 10
18.685392
 20
51.249620
 30
0.000000
  0
VERTEX
  8
MERGEDLAYER-1
 10
18.685392
 20
51.249620
 30
0.000000
  0
VERTEX
  8
MERGEDLAYER-1
 10
18.633484
 20
51.213144
 30
0.000000
  0
VERTEX
  8
MERGEDLAYER-1
 10
18.578771
 20
51.302950
 30
0.000000
  0
VERTEX
  8
MERGEDLAYER-1
 10
18.539480
 20
51.249620
 30
0.000000
  0
VERTEX
  8
MERGEDLAYER-1
 10
18.527209
 20
51.171190
 30
0.000000
  0
VERTEX
  8
MERGEDLAYER-1
 10
18.504103
 20
51.106995
 30
0.000000
  0
VERTEX
  8
MERGEDLAYER-1
 10
18.461300
 20
51.022250
 30
0.000000
  0
VERTEX
  8
MERGEDLAYER-1
 10
18.397950
 20
50.946078
 30
0.000000
  0
VERTEX
  8
MERGEDLAYER-1
 10
18.326905
 20
50.881024
 30
0.000000
  0
VERTEX
  8
MERGEDLAYER-1
 10
18.225059
 20
50.815115
 30
0.000000
  0
VERTEX
  8
MERGEDLAYER-1
 10
18.202807
 20
50.788584
 30
0.000000
  0
VERTEX
  8
MERGEDLAYER-1
 10
18.196809
 20
50.750056
 30
0.000000
  0
VERTEX
  8
MERGEDLAYER-1
 10
18.205381
 20
50.715820
 30
0.000000
  0
VERTEX
  8
MERGEDLAYER-1
 10
18.256728
 20
50.632794
 30
0.000000
  0
VERTEX
  8
MERGEDLAYER-1
 10
18.257581
 20
50.597703
 30
0.000000
  0
VERTEX
  8
MERGEDLAYER-1
 10
18.228480
 20
50.542067
 30
0.000000
  0
VERTEX
  8
MERGEDLAYER-1
 10
18.129886
 20
50.541753
 30
0.000000
  0
VERTEX
  8
MERGEDLAYER-1
 10
18.083829
 20
50.528367
 30
0.000000
  0
VERTEX
  8
MERGEDLAYER-1
 10
18.037618
 20
50.506113
 30
0.000000
  0
VERTEX
  8
MERGEDLAYER-1
 10
18.000803
 20
50.481295
 30
0.000000
  0
VERTEX
  8
MERGEDLAYER-1
 10
17.964005
 20
50.447909
 30
0.000000
  0
VERTEX
  8
MERGEDLAYER-1
 10
17.937462
 20
50.412814
 30
0.000000
  0
VERTEX
  8
MERGEDLAYER-1
 10
17.918648
 20
50.370873
 30
0.000000
  0
VERTEX
  8
MERGEDLAYER-1
 10
17.904093
 20
50.324646
 30
0.000000
  0
VERTEX
  8
MERGEDLAYER-1
 10
17.900670
 20
50.271578
 30
0.000000
  0
VERTEX
  8
MERGEDLAYER-1
 10
17.908360
 20
50.214233
 30
0.000000
  0
VERTEX
  8
MERGEDLAYER-1
 10
17.921209
 20
50.168865
 30
0.000000
  0
VERTEX
  8
MERGEDLAYER-1
 10
17.941745
 20
50.130343
 30
0.000000
  0
VERTEX
  8
MERGEDLAYER-1
 10
17.975992
 20
50.130343
 30
0.000000
  0
VERTEX
  8
MERGEDLAYER-1
 10
18.032468
 20
50.224501
 30
0.000000
  0
VERTEX
  8
MERGEDLAYER-1
 10
18.032960
 20
50.251977
 30
0.000000
  0
VERTEX
  8
MERGEDLAYER-1
 10
18.031607
 20
50.281001
 30
0.000000
  0
VERTEX
  8
MERGEDLAYER-1
 10
18.038471
 20
50.318650
 30
0.000000
  0
VERTEX
  8
MERGEDLAYER-1
 10
18.056440
 20
50.355469
 30
0.000000
  0
VERTEX
  8
MERGEDLAYER-1
 10
18.087257
 20
50.386282
 30
0.000000
  0
VERTEX
  8
MERGEDLAYER-1
 10
18.118060
 20
50.405968
 30
0.000000
  0
VERTEX
  8
MERGEDLAYER-1
 10
18.157441
 20
50.412814
 30
0.000000
  0
VERTEX
  8
MERGEDLAYER-1
 10
18.195102
 20
50.413673
 30
0.000000
  0
VERTEX
  8
MERGEDLAYER-1
 10
18.233625
 20
50.406832
 30
0.000000
  0
VERTEX
  8
MERGEDLAYER-1
 10
18.258442
 20
50.390559
 30
0.000000
  0
VERTEX
  8
MERGEDLAYER-1
 10
18.288401
 20
50.352037
 30
0.000000
  0
VERTEX
  8
MERGEDLAYER-1
 10
18.307220
 20
50.316951
 30
0.000000
  0
VERTEX
  8
MERGEDLAYER-1
 10
18.312365
 20
50.269005
 30
0.000000
  0
VERTEX
  8
MERGEDLAYER-1
 10
18.301225
 20
50.224501
 30
0.000000
  0
VERTEX
  8
MERGEDLAYER-1
 10
18.280688
 20
50.184270
 30
0.000000
  0
VERTEX
  8
MERGEDLAYER-1
 10
18.252446
 20
50.156020
 30
0.000000
  0
VERTEX
  8
MERGEDLAYER-1
 10
18.215647
 20
50.132057
 30
0.000000
  0
VERTEX
  8
MERGEDLAYER-1
 10
18.155718
 20
50.025921
 30
0.000000
  0
VERTEX
  8
MERGEDLAYER-1
 10
18.181409
 20
50.009653
 30
0.000000
  0
VERTEX
  8
MERGEDLAYER-1
 10
18.214785
 20
50.010507
 30
0.000000
  0
VERTEX
  8
MERGEDLAYER-1
 10
18.255030
 20
50.018207
 30
0.000000
  0
VERTEX
  8
MERGEDLAYER-1
 10
18.296949
 20
50.040462
 30
0.000000
  0
VERTEX
  8
MERGEDLAYER-1
 10
18.344884
 20
50.072998
 30
0.000000
  0
VERTEX
  8
MERGEDLAYER-1
 10
18.386834
 20
50.113225
 30
0.000000
  0
VERTEX
  8
MERGEDLAYER-1
 10
18.418495
 20
50.155165
 30
0.000000
  0
VERTEX
  8
MERGEDLAYER-1
 10
18.436473
 20
50.211661
 30
0.000000
  0
VERTEX
  8
MERGEDLAYER-1
 10
18.442662
 20
50.284255
 30
0.000000
  0
VERTEX
  8
MERGEDLAYER-1
 10
18.437333
 20
50.328933
 30
0.000000
  0
VERTEX
  8
MERGEDLAYER-1
 10
18.409931
 20
50.405968
 30
0.000000
  0
VERTEX
  8
MERGEDLAYER-1
 10
18.380836
 20
50.441923
 30
0.000000
  0
VERTEX
  8
MERGEDLAYER-1
 10
18.375683
 20
50.459891
 30
0.000000
  0
VERTEX
  8
MERGEDLAYER-1
 10
18.380836
 20
50.481295
 30
0.000000
  0
VERTEX
  8
MERGEDLAYER-1
 10
18.421916
 20
50.541213
 30
0.000000
  0
VERTEX
  8
MERGEDLAYER-1
 10
18.537481
 20
50.542922
 30
0.000000
  0
VERTEX
  8
MERGEDLAYER-1
 10
18.572565
 20
50.556617
 30
0.000000
  0
VERTEX
  8
MERGEDLAYER-1
 10
18.600808
 20
50.591712
 30
0.000000
  0
VERTEX
  8
MERGEDLAYER-1
 10
18.611948
 20
50.628517
 30
0.000000
  0
VERTEX
  8
MERGEDLAYER-1
 10
18.639799
 20
50.848323
 30
0.000000
  0
VERTEX
  8
MERGEDLAYER-1
 10
18.663649
 20
51.045466
 30
0.000000
  0
SEQEND
  8
MERGEDLAYER-1
  0
POLYLINE
  8
MERGEDLAYER-1
 66
  1
 70
  1
 62
  7
 10
18.031254
 20
45.910579
 30
0.000000
  0
VERTEX
  8
MERGEDLAYER-1
 10
18.031254
 20
45.910579
 30
0.000000
  0
VERTEX
  8
MERGEDLAYER-1
 10
17.997005
 20
45.910579
 30
0.000000
  0
VERTEX
  8
MERGEDLAYER-1
 10
17.976470
 20
45.949092
 30
0.000000
  0
VERTEX
  8
MERGEDLAYER-1
 10
17.963636
 20
45.994460
 30
0.000000
  0
VERTEX
  8
MERGEDLAYER-1
 10
17.955930
 20
46.051814
 30
0.000000
  0
VERTEX
  8
MERGEDLAYER-1
 10
17.959353
 20
46.104877
 30
0.000000
  0
VERTEX
  8
MERGEDLAYER-1
 10
17.973909
 20
46.151100
 30
0.000000
  0
VERTEX
  8
MERGEDLAYER-1
 10
17.992731
 20
46.193050
 30
0.000000
  0
VERTEX
  8
MERGEDLAYER-1
 10
18.019273
 20
46.228135
 30
0.000000
  0
VERTEX
  8
MERGEDLAYER-1
 10
18.056070
 20
46.261522
 30
0.000000
  0
VERTEX
  8
MERGEDLAYER-1
 10
18.092886
 20
46.286349
 30
0.000000
  0
VERTEX
  8
MERGEDLAYER-1
 10
18.139104
 20
46.308603
 30
0.000000
  0
VERTEX
  8
MERGEDLAYER-1
 10
18.184462
 20
46.320585
 30
0.000000
  0
VERTEX
  8
MERGEDLAYER-1
 10
18.227250
 20
46.323158
 30
0.000000
  0
VERTEX
  8
MERGEDLAYER-1
 10
18.283756
 20
46.322294
 30
0.000000
  0
VERTEX
  8
MERGEDLAYER-1
 10
18.312857
 20
46.377934
 30
0.000000
  0
VERTEX
  8
MERGEDLAYER-1
 10
18.311995
 20
46.413030
 30
0.000000
  0
VERTEX
  8
MERGEDLAYER-1
 10
18.293175
 20
46.446406
 30
0.000000
  0
VERTEX
  8
MERGEDLAYER-1
 10
18.260649
 20
46.496056
 30
0.000000
  0
VERTEX
  8
MERGEDLAYER-1
 10
18.252078
 20
46.530292
 30
0.000000
  0
VERTEX
  8
MERGEDLAYER-1
 10
18.258073
 20
46.568819
 30
0.000000
  0
VERTEX
  8
MERGEDLAYER-1
 10
18.280326
 20
46.595351
 30
0.000000
  0
VERTEX
  8
MERGEDLAYER-1
 10
18.382174
 20
46.661260
 30
0.000000
  0
VERTEX
  8
MERGEDLAYER-1
 10
18.453234
 20
46.726318
 30
0.000000
  0
VERTEX
  8
MERGEDLAYER-1
 10
18.516573
 20
46.802500
 30
0.000000
  0
VERTEX
  8
MERGEDLAYER-1
 10
18.559372
 20
46.887235
 30
0.000000
  0
VERTEX
  8
MERGEDLAYER-1
 10
18.582476
 20
46.951435
 30
0.000000
  0
VERTEX
  8
MERGEDLAYER-1
 10
18.597878
 20
47.043020
 30
0.000000
  0
VERTEX
  8
MERGEDLAYER-1
 10
18.625265
 20
47.362300
 30
0.000000
  0
VERTEX
  8
MERGEDLAYER-1
 10
18.644949
 20
47.635357
 30
0.000000
  0
VERTEX
  8
MERGEDLAYER-1
 10
18.655215
 20
47.952923
 30
0.000000
  0
VERTEX
  8
MERGEDLAYER-1
 10
18.657790
 20
48.388606
 30
0.000000
  0
VERTEX
  8
MERGEDLAYER-1
 10
18.650095
 20
48.812312
 30
0.000000
  0
VERTEX
  8
MERGEDLAYER-1
 10
18.632970
 20
49.128174
 30
0.000000
  0
VERTEX
  8
MERGEDLAYER-1
 10
18.614132
 20
49.339600
 30
0.000000
  0
VERTEX
  8
MERGEDLAYER-1
 10
18.591895
 20
49.460280
 30
0.000000
  0
VERTEX
  8
MERGEDLAYER-1
 10
18.565353
 20
49.537321
 30
0.000000
  0
VERTEX
  8
MERGEDLAYER-1
 10
18.526832
 20
49.613507
 30
0.000000
  0
VERTEX
  8
MERGEDLAYER-1
 10
18.474632
 20
49.687974
 30
0.000000
  0
VERTEX
  8
MERGEDLAYER-1
 10
18.395883
 20
49.755596
 30
0.000000
  0
VERTEX
  8
MERGEDLAYER-1
 10
18.317132
 20
49.810378
 30
0.000000
  0
VERTEX
  8
MERGEDLAYER-1
 10
18.240099
 20
49.846328
 30
0.000000
  0
VERTEX
  8
MERGEDLAYER-1
 10
18.146808
 20
49.865169
 30
0.000000
  0
VERTEX
  8
MERGEDLAYER-1
 10
18.059500
 20
49.878855
 30
0.000000
  0
VERTEX
  8
MERGEDLAYER-1
 10
17.986733
 20
49.901963
 30
0.000000
  0
VERTEX
  8
MERGEDLAYER-1
 10
17.934526
 20
49.931922
 30
0.000000
  0
VERTEX
  8
MERGEDLAYER-1
 10
17.881472
 20
49.971295
 30
0.000000
  0
VERTEX
  8
MERGEDLAYER-1
 10
17.830118
 20
50.015813
 30
0.000000
  0
VERTEX
  8
MERGEDLAYER-1
 10
17.795025
 20
50.068881
 30
0.000000
  0
VERTEX
  8
MERGEDLAYER-1
 10
17.765071
 20
50.126230
 30
0.000000
  0
VERTEX
  8
MERGEDLAYER-1
 10
17.737680
 20
50.195561
 30
0.000000
  0
VERTEX
  8
MERGEDLAYER-1
 10
17.719714
 20
50.267465
 30
0.000000
  0
VERTEX
  8
MERGEDLAYER-1
 10
17.706011
 20
50.347069
 30
0.000000
  0
VERTEX
  8
MERGEDLAYER-1
 10
17.700860
 20
50.396719
 30
0.000000
  0
VERTEX
  8
MERGEDLAYER-1
 10
17.704305
 20
50.415546
 30
0.000000
  0
VERTEX
  8
MERGEDLAYER-1
 10
17.750514
 20
50.460055
 30
0.000000
  0
VERTEX
  8
MERGEDLAYER-1
 10
17.951655
 20
50.468619
 30
0.000000
  0
VERTEX
  8
MERGEDLAYER-1
 10
17.952517
 20
50.439519
 30
0.000000
  0
VERTEX
  8
MERGEDLAYER-1
 10
17.918272
 20
50.392437
 30
0.000000
  0
VERTEX
  8
MERGEDLAYER-1
 10
17.896872
 20
50.338506
 30
0.000000
  0
VERTEX
  8
MERGEDLAYER-1
 10
17.895165
 20
50.270034
 30
0.000000
  0
VERTEX
  8
MERGEDLAYER-1
 10
17.898595
 20
50.216966
 30
0.000000
  0
VERTEX
  8
MERGEDLAYER-1
 10
17.927691
 20
50.148494
 30
0.000000
  0
VERTEX
  8
MERGEDLAYER-1
 10
17.964496
 20
50.091135
 30
0.000000
  0
VERTEX
  8
MERGEDLAYER-1
 10
18.008984
 20
50.049194
 30
0.000000
  0
VERTEX
  8
MERGEDLAYER-1
 10
18.073195
 20
50.014949
 30
0.000000
  0
VERTEX
  8
MERGEDLAYER-1
 10
18.127964
 20
50.000404
 30
0.000000
  0
VERTEX
  8
MERGEDLAYER-1
 10
18.181048
 20
49.993558
 30
0.000000
  0
VERTEX
  8
MERGEDLAYER-1
 10
18.246956
 20
50.002113
 30
0.000000
  0
VERTEX
  8
MERGEDLAYER-1
 10
18.302578
 20
50.022658
 30
0.000000
  0
VERTEX
  8
MERGEDLAYER-1
 10
18.354801
 20
50.056040
 30
0.000000
  0
VERTEX
  8
MERGEDLAYER-1
 10
18.398442
 20
50.102262
 30
0.000000
  0
VERTEX
  8
MERGEDLAYER-1
 10
18.430121
 20
50.151048
 30
0.000000
  0
VERTEX
  8
MERGEDLAYER-1
 10
18.457509
 20
50.214398
 30
0.000000
  0
VERTEX
  8
MERGEDLAYER-1
 10
18.462644
 20
50.276015
 30
0.000000
  0
VERTEX
  8
MERGEDLAYER-1
 10
18.457509
 20
50.329092
 30
0.000000
  0
VERTEX
  8
MERGEDLAYER-1
 10
18.443809
 20
50.378737
 30
0.000000
  0
VERTEX
  8
MERGEDLAYER-1
 10
18.415557
 20
50.426678
 30
0.000000
  0
VERTEX
  8
MERGEDLAYER-1
 10
18.396737
 20
50.455778
 30
0.000000
  0
VERTEX
  8
MERGEDLAYER-1
 10
18.396737
 20
50.477173
 30
0.000000
  0
VERTEX
  8
MERGEDLAYER-1
 10
18.418141
 20
50.496868
 30
0.000000
  0
VERTEX
  8
MERGEDLAYER-1
 10
18.561932
 20
50.495155
 30
0.000000
  0
VERTEX
  8
MERGEDLAYER-1
 10
18.590174
 20
50.471182
 30
0.000000
  0
VERTEX
  8
MERGEDLAYER-1
 10
18.614132
 20
50.435232
 30
0.000000
  0
VERTEX
  8
MERGEDLAYER-1
 10
18.626972
 20
50.370183
 30
0.000000
  0
VERTEX
  8
MERGEDLAYER-1
 10
18.668908
 20
50.104826
 30
0.000000
  0
VERTEX
  8
MERGEDLAYER-1
 10
18.714271
 20
49.720501
 30
0.000000
  0
VERTEX
  8
MERGEDLAYER-1
 10
18.755348
 20
49.342163
 30
0.000000
  0
VERTEX
  8
MERGEDLAYER-1
 10
18.787025
 20
48.942420
 30
0.000000
  0
VERTEX
  8
MERGEDLAYER-1
 10
18.798159
 20
48.649677
 30
0.000000
  0
VERTEX
  8
MERGEDLAYER-1
 10
18.804148
 20
48.387752
 30
0.000000
  0
VERTEX
  8
MERGEDLAYER-1
 10
18.796436
 20
47.760329
 30
0.000000
  0
VERTEX
  8
MERGEDLAYER-1
 10
18.779327
 20
47.462454
 30
0.000000
  0
VERTEX
  8
MERGEDLAYER-1
 10
18.749373
 20
47.120915
 30
0.000000
  0
VERTEX
  8
MERGEDLAYER-1
 10
18.715994
 20
46.796509
 30
0.000000
  0
VERTEX
  8
MERGEDLAYER-1
 10
18.667215
 20
46.408752
 30
0.000000
  0
VERTEX
  8
MERGEDLAYER-1
 10
18.656076
 20
46.371939
 30
0.000000
  0
VERTEX
  8
MERGEDLAYER-1
 10
18.627824
 20
46.336848
 30
0.000000
  0
VERTEX
  8
MERGEDLAYER-1
 10
18.592750
 20
46.323158
 30
0.000000
  0
VERTEX
  8
MERGEDLAYER-1
 10
18.477192
 20
46.321444
 30
0.000000
  0
VERTEX
  8
MERGEDLAYER-1
 10
18.436111
 20
46.261522
 30
0.000000
  0
VERTEX
  8
MERGEDLAYER-1
 10
18.430967
 20
46.240122
 30
0.000000
  0
VERTEX
  8
MERGEDLAYER-1
 10
18.436111
 20
46.222149
 30
0.000000
  0
VERTEX
  8
MERGEDLAYER-1
 10
18.465204
 20
46.186204
 30
0.000000
  0
VERTEX
  8
MERGEDLAYER-1
 10
18.479768
 20
46.150250
 30
0.000000
  0
VERTEX
  8
MERGEDLAYER-1
 10
18.492610
 20
46.109159
 30
0.000000
  0
VERTEX
  8
MERGEDLAYER-1
 10
18.496032
 20
46.054373
 30
0.000000
  0
VERTEX
  8
MERGEDLAYER-1
 10
18.491756
 20
45.991901
 30
0.000000
  0
VERTEX
  8
MERGEDLAYER-1
 10
18.473770
 20
45.935401
 30
0.000000
  0
VERTEX
  8
MERGEDLAYER-1
 10
18.442109
 20
45.893451
 30
0.000000
  0
VERTEX
  8
MERGEDLAYER-1
 10
18.400157
 20
45.853229
 30
0.000000
  0
VERTEX
  8
MERGEDLAYER-1
 10
18.352217
 20
45.820697
 30
0.000000
  0
VERTEX
  8
MERGEDLAYER-1
 10
18.310289
 20
45.798443
 30
0.000000
  0
VERTEX
  8
MERGEDLAYER-1
 10
18.270054
 20
45.790748
 30
0.000000
  0
VERTEX
  8
MERGEDLAYER-1
 10
18.236677
 20
45.789889
 30
0.000000
  0
VERTEX
  8
MERGEDLAYER-1
 10
18.210987
 20
45.806152
 30
0.000000
  0
VERTEX
  8
MERGEDLAYER-1
 10
18.270914
 20
45.912283
 30
0.000000
  0
VERTEX
  8
MERGEDLAYER-1
 10
18.307712
 20
45.936251
 30
0.000000
  0
VERTEX
  8
MERGEDLAYER-1
 10
18.335963
 20
45.964506
 30
0.000000
  0
VERTEX
  8
MERGEDLAYER-1
 10
18.356500
 20
46.004737
 30
0.000000
  0
VERTEX
  8
MERGEDLAYER-1
 10
18.367641
 20
46.049241
 30
0.000000
  0
VERTEX
  8
MERGEDLAYER-1
 10
18.362496
 20
46.097177
 30
0.000000
  0
VERTEX
  8
MERGEDLAYER-1
 10
18.343676
 20
46.132268
 30
0.000000
  0
VERTEX
  8
MERGEDLAYER-1
 10
18.313710
 20
46.170795
 30
0.000000
  0
VERTEX
  8
MERGEDLAYER-1
 10
18.288892
 20
46.187063
 30
0.000000
  0
VERTEX
  8
MERGEDLAYER-1
 10
18.250370
 20
46.193904
 30
0.000000
  0
VERTEX
  8
MERGEDLAYER-1
 10
18.212709
 20
46.193050
 30
0.000000
  0
VERTEX
  8
MERGEDLAYER-1
 10
18.173327
 20
46.186204
 30
0.000000
  0
VERTEX
  8
MERGEDLAYER-1
 10
18.142525
 20
46.166513
 30
0.000000
  0
VERTEX
  8
MERGEDLAYER-1
 10
18.111692
 20
46.135695
 30
0.000000
  0
VERTEX
  8
MERGEDLAYER-1
 10
18.093739
 20
46.098877
 30
0.000000
  0
VERTEX
  8
MERGEDLAYER-1
 10
18.086873
 20
46.061228
 30
0.000000
  0
VERTEX
  8
MERGEDLAYER-1
 10
18.087735
 20
46.026123
 30
0.000000
  0
VERTEX
  8
MERGEDLAYER-1
 10
18.087735
 20
46.004737
 30
0.000000
  0
SEQEND
  8
MERGEDLAYER-1
  0
POLYLINE
  8
MERGEDLAYER-1
 66
  1
 70
  1
 62
  7
 10
18.001457
 20
46.249789
 30
0.000000
  0
VERTEX
  8
MERGEDLAYER-1
 10
18.001457
 20
46.249789
 30
0.000000
  0
VERTEX
  8
MERGEDLAYER-1
 10
17.800322
 20
46.241234
 30
0.000000
  0
VERTEX
  8
MERGEDLAYER-1
 10
17.754106
 20
46.196726
 30
0.000000
  0
VERTEX
  8
MERGEDLAYER-1
 10
17.750668
 20
46.177903
 30
0.000000
  0
VERTEX
  8
MERGEDLAYER-1
 10
17.755821
 20
46.128258
 30
0.000000
  0
VERTEX
  8
MERGEDLAYER-1
 10
17.769515
 20
46.048650
 30
0.000000
  0
VERTEX
  8
MERGEDLAYER-1
 10
17.787491
 20
45.976741
 30
0.000000
  0
VERTEX
  8
MERGEDLAYER-1
 10
17.814879
 20
45.907405
 30
0.000000
  0
VERTEX
  8
MERGEDLAYER-1
 10
17.844833
 20
45.850060
 30
0.000000
  0
VERTEX
  8
MERGEDLAYER-1
 10
17.879918
 20
45.796988
 30
0.000000
  0
VERTEX
  8
MERGEDLAYER-1
 10
17.931272
 20
45.752479
 30
0.000000
  0
VERTEX
  8
MERGEDLAYER-1
 10
17.984334
 20
45.713097
 30
0.000000
  0
VERTEX
  8
MERGEDLAYER-1
 10
18.036549
 20
45.683148
 30
0.000000
  0
VERTEX
  8
MERGEDLAYER-1
 10
18.109309
 20
45.660039
 30
0.000000
  0
VERTEX
  8
MERGEDLAYER-1
 10
18.196617
 20
45.646339
 30
0.000000
  0
VERTEX
  8
MERGEDLAYER-1
 10
18.289908
 20
45.627507
 30
0.000000
  0
VERTEX
  8
MERGEDLAYER-1
 10
18.366941
 20
45.591557
 30
0.000000
  0
VERTEX
  8
MERGEDLAYER-1
 10
18.445693
 20
45.536771
 30
0.000000
  0
VERTEX
  8
MERGEDLAYER-1
 10
18.524433
 20
45.469154
 30
0.000000
  0
VERTEX
  8
MERGEDLAYER-1
 10
18.576640
 20
45.394691
 30
0.000000
  0
VERTEX
  8
MERGEDLAYER-1
 10
18.615163
 20
45.318510
 30
0.000000
  0
VERTEX
  8
MERGEDLAYER-1
 10
18.641698
 20
45.241460
 30
0.000000
  0
VERTEX
  8
MERGEDLAYER-1
 10
18.663940
 20
45.120784
 30
0.000000
  0
VERTEX
  8
MERGEDLAYER-1
 10
18.668401
 20
45.072979
 30
0.000000
  0
VERTEX
  8
MERGEDLAYER-1
 10
18.717501
 20
45.110863
 30
0.000000
  0
VERTEX
  8
MERGEDLAYER-1
 10
18.786255
 20
45.025269
 30
0.000000
  0
VERTEX
  8
MERGEDLAYER-1
 10
18.807310
 20
45.072979
 30
0.000000
  0
VERTEX
  8
MERGEDLAYER-1
 10
18.805155
 20
45.123347
 30
0.000000
  0
VERTEX
  8
MERGEDLAYER-1
 10
18.764080
 20
45.501676
 30
0.000000
  0
VERTEX
  8
MERGEDLAYER-1
 10
18.718717
 20
45.886014
 30
0.000000
  0
VERTEX
  8
MERGEDLAYER-1
 10
18.676772
 20
46.151367
 30
0.000000
  0
VERTEX
  8
MERGEDLAYER-1
 10
18.663940
 20
46.216412
 30
0.000000
  0
VERTEX
  8
MERGEDLAYER-1
 10
18.639975
 20
46.252357
 30
0.000000
  0
VERTEX
  8
MERGEDLAYER-1
 10
18.611733
 20
46.276334
 30
0.000000
  0
VERTEX
  8
MERGEDLAYER-1
 10
18.467950
 20
46.278048
 30
0.000000
  0
VERTEX
  8
MERGEDLAYER-1
 10
18.446553
 20
46.258348
 30
0.000000
  0
VERTEX
  8
MERGEDLAYER-1
 10
18.446553
 20
46.236957
 30
0.000000
  0
VERTEX
  8
MERGEDLAYER-1
 10
18.465366
 20
46.207858
 30
0.000000
  0
VERTEX
  8
MERGEDLAYER-1
 10
18.493617
 20
46.159921
 30
0.000000
  0
VERTEX
  8
MERGEDLAYER-1
 10
18.507317
 20
46.110267
 30
0.000000
  0
VERTEX
  8
MERGEDLAYER-1
 10
18.512455
 20
46.057199
 30
0.000000
  0
VERTEX
  8
MERGEDLAYER-1
 10
18.507317
 20
45.995577
 30
0.000000
  0
VERTEX
  8
MERGEDLAYER-1
 10
18.479930
 20
45.932232
 30
0.000000
  0
VERTEX
  8
MERGEDLAYER-1
 10
18.448253
 20
45.883442
 30
0.000000
  0
VERTEX
  8
MERGEDLAYER-1
 10
18.404609
 20
45.837224
 30
0.000000
  0
VERTEX
  8
MERGEDLAYER-1
 10
18.352386
 20
45.803842
 30
0.000000
  0
VERTEX
  8
MERGEDLAYER-1
 10
18.296756
 20
45.783297
 30
0.000000
  0
VERTEX
  8
MERGEDLAYER-1
 10
18.230856
 20
45.774733
 30
0.000000
  0
VERTEX
  8
MERGEDLAYER-1
 10
18.177780
 20
45.781579
 30
0.000000
  0
VERTEX
  8
MERGEDLAYER-1
 10
18.123003
 20
45.796133
 30
0.000000
  0
VERTEX
  8
MERGEDLAYER-1
 10
18.051034
 20
45.834905
 30
0.000000
  0
VERTEX
  8
MERGEDLAYER-1
 10
18.014297
 20
45.872314
 30
0.000000
  0
VERTEX
  8
MERGEDLAYER-1
 10
17.977500
 20
45.929673
 30
0.000000
  0
VERTEX
  8
MERGEDLAYER-1
 10
17.948395
 20
45.998141
 30
0.000000
  0
VERTEX
  8
MERGEDLAYER-1
 10
17.944982
 20
46.051213
 30
0.000000
  0
VERTEX
  8
MERGEDLAYER-1
 10
17.946680
 20
46.119695
 30
0.000000
  0
VERTEX
  8
MERGEDLAYER-1
 10
17.968080
 20
46.173622
 30
0.000000
  0
VERTEX
  8
MERGEDLAYER-1
 10
18.002317
 20
46.220694
 30
0.000000
  0
SEQEND
  8
MERGEDLAYER-1
  0
TEXT
  8
MERGEDLAYER-1
 62
  7
 10
20.000000
 20
48.928025
 30
0.000000
 40
0.750000
  1
1 
 72
  5
 11
21.230769
 21
48.928025
 31
0.000000
  0
TEXT
  8
MERGEDLAYER-1
 62
  7
 10
21.230769
 20
48.928025
 30
0.000000
 40
0.576923
  1
1/2
 72
  5
 11
22.769231
 21
48.928025
 31
0.000000
  0
TEXT
  8
MERGEDLAYER-1
 62
  7
 10
22.769231
 20
48.928025
 30
0.000000
 40
0.750000
  1
"
 72
  5
 11
23.538462
 21
48.928025
 31
0.000000
  0
TEXT
  8
MERGEDLAYER-1
 62
  7
 10
20.000000
 20
47.774179
 30
0.000000
 40
0.750000
  1
38mm
 72
  5
 11
23.153846
 21
47.774179
 31
0.000000
  0
POLYLINE
  8
MERGEDLAYER-1
 66
  1
 70
  1
 62
  7
  0
VERTEX
  8
MERGEDLAYER-1
 10
27.911635
 20
54.649949
 30
0.000000
  0
VERTEX
  8
MERGEDLAYER-1
 10
28.552117
 20
54.649949
 30
0.000000
  0
VERTEX
  8
MERGEDLAYER-1
 10
28.552117
 20
43.045612
 30
0.000000
  0
VERTEX
  8
MERGEDLAYER-1
 10
27.911635
 20
43.045612
 30
0.000000
  0
SEQEND
  8
MERGEDLAYER-1
  0
POLYLINE
  8
MERGEDLAYER-1
 66
  1
 70
  1
 62
  7
  0
VERTEX
  8
MERGEDLAYER-1
 10
6.661491
 20
54.645719
 30
0.000000
  0
VERTEX
  8
MERGEDLAYER-1
 10
7.301967
 20
54.645719
 30
0.000000
  0
VERTEX
  8
MERGEDLAYER-1
 10
7.301967
 20
43.047720
 30
0.000000
  0
VERTEX
  8
MERGEDLAYER-1
 10
6.661491
 20
43.047720
 30
0.000000
  0
SEQEND
  8
MERGEDLAYER-1
  0
POLYLINE
  8
MERGEDLAYER-1
 66
  1
 70
  1
 62
  7
  0
VERTEX
  8
MERGEDLAYER-1
 10
47.690444
 20
54.628742
 30
0.000000
  0
VERTEX
  8
MERGEDLAYER-1
 10
48.091703
 20
54.628742
 30
0.000000
  0
VERTEX
  8
MERGEDLAYER-1
 10
48.091703
 20
43.044250
 30
0.000000
  0
VERTEX
  8
MERGEDLAYER-1
 10
47.690444
 20
43.044250
 30
0.000000
  0
SEQEND
  8
MERGEDLAYER-1
  0
POLYLINE
  8
MERGEDLAYER-1
  6
LTYPE02
 66
  1
 70
  0
 62
  7
  6
LTYPE02
 10
47.893926
 20
54.622483
 30
0.000000
  0
VERTEX
  8
MERGEDLAYER-1
  6
LTYPE02
 10
47.893926
 20
54.622483
 30
0.000000
  0
VERTEX
  8
MERGEDLAYER-1
  6
LTYPE02
 10
47.895710
 20
43.376254
 30
0.000000
  0
SEQEND
  8
MERGEDLAYER-1
  0
TEXT
  8
MERGEDLAYER-1
 62
  7
 10
59.384615
 20
43.774179
 30
0.000000
 40
0.634615
  1
HAUTEUR PLAFOND
 50
90.000000
 72
  5
 11
59.384615
 21
51.774179
 31
0.000000
  0
TEXT
  8
MERGEDLAYER-1
 62
  7
 10
44.846154
 20
44.004949
 30
0.000000
 40
0.750000
  1
HAUTEUR SOUS
 50
90.000000
 72
  5
 11
44.846154
 21
52.235718
 31
0.000000
  0
TEXT
  8
MERGEDLAYER-1
 62
  7
 10
46.000000
 20
45.004949
 30
0.000000
 40
0.750000
  1
PLAQUE "H"
 50
90.000000
 72
  5
 11
46.000000
 21
51.235718
 31
0.000000
  0
LINE
  8
MERGEDLAYER-1
 62
  7
 10
42.501202
 20
43.063937
 30
0.000000
 11
42.501202
 21
54.609056
 31
0.000000
  0
LINE
  8
MERGEDLAYER-1
 62
  7
 10
47.190444
 20
43.044250
 30
0.000000
 11
41.501202
 21
43.044250
 31
0.000000
  0
LINE
  8
MERGEDLAYER-1
 62
  7
 10
47.190444
 20
54.628742
 30
0.000000
 11
41.501202
 21
54.628742
 31
0.000000
  0
POLYLINE
  8
MERGEDLAYER-1
 66
  1
 70
  1
 62
  7
  0
VERTEX
  8
MERGEDLAYER-1
 10
42.501202
 20
43.044250
 30
0.000000
  0
VERTEX
  8
MERGEDLAYER-1
 10
42.731971
 20
43.428866
 30
0.000000
  0
VERTEX
  8
MERGEDLAYER-1
 10
42.501202
 20
43.428866
 30
0.000000
  0
VERTEX
  8
MERGEDLAYER-1
 10
42.270433
 20
43.428866
 30
0.000000
  0
VERTEX
  8
MERGEDLAYER-1
 10
42.501202
 20
43.044250
 30
0.000000
  0
SEQEND
  8
MERGEDLAYER-1
  0
POLYLINE
  8
MERGEDLAYER-1
 66
  1
 70
  1
 62
  7
  0
VERTEX
  8
MERGEDLAYER-1
 10
42.501202
 20
54.628742
 30
0.000000
  0
VERTEX
  8
MERGEDLAYER-1
 10
42.731971
 20
54.244127
 30
0.000000
  0
VERTEX
  8
MERGEDLAYER-1
 10
42.501202
 20
54.244127
 30
0.000000
  0
VERTEX
  8
MERGEDLAYER-1
 10
42.270433
 20
54.244127
 30
0.000000
  0
VERTEX
  8
MERGEDLAYER-1
 10
42.501202
 20
54.628742
 30
0.000000
  0
SEQEND
  8
MERGEDLAYER-1
  0
TEXT
  8
MERGEDLAYER-1
 62
  7
 10
42.486070
 20
48.806280
 30
0.000000
 40
0.692308
  1
 
  0
POLYLINE
  8
MERGEDLAYER-1
 66
  1
 70
  1
 62
  7
  0
VERTEX
  8
MERGEDLAYER-1
 10
40.477976
 20
44.593910
 30
0.000000
  0
VERTEX
  8
MERGEDLAYER-1
 10
40.477976
 20
51.378995
 30
0.000000
  0
VERTEX
  8
MERGEDLAYER-1
 10
43.710064
 20
51.378995
 30
0.000000
  0
VERTEX
  8
MERGEDLAYER-1
 10
43.710064
 20
44.593910
 30
0.000000
  0
SEQEND
  8
MERGEDLAYER-1
  0
POLYLINE
  8
MERGEDLAYER-1
 66
  1
 70
  0
 62
  7
 40
0.230769
 41
0.230769
 10
43.508033
 20
51.334942
 30
0.000000
  0
VERTEX
  8
MERGEDLAYER-1
 10
43.508033
 20
51.334942
 30
0.000000
  0
VERTEX
  8
MERGEDLAYER-1
 10
43.508033
 20
44.593910
 30
0.000000
  0
SEQEND
  8
MERGEDLAYER-1
  0
POLYLINE
  8
MERGEDLAYER-1
 66
  1
 70
  1
 62
255
  0
VERTEX
  8
MERGEDLAYER-1
 10
0.860584
 20
40.894907
 30
0.000000
  0
VERTEX
  8
MERGEDLAYER-1
 10
5.178047
 20
40.894907
 30
0.000000
  0
VERTEX
  8
MERGEDLAYER-1
 10
5.178047
 20
38.337646
 30
0.000000
  0
VERTEX
  8
MERGEDLAYER-1
 10
0.860584
 20
38.337646
 30
0.000000
  0
SEQEND
  8
MERGEDLAYER-1
  0
POLYLINE
  8
MERGEDLAYER-1
 66
  1
 70
  0
 62
  7
 10
52.180209
 20
28.424654
 30
0.000000
  0
VERTEX
  8
MERGEDLAYER-1
 10
52.180209
 20
28.424654
 30
0.000000
  0
VERTEX
  8
MERGEDLAYER-1
 10
8.846426
 20
28.424654
 30
0.000000
  0
SEQEND
  8
MERGEDLAYER-1
  0
POLYLINE
  8
MERGEDLAYER-1
 66
  1
 70
  0
 62
  7
 10
10.223078
 20
6.631869
 30
0.000000
  0
VERTEX
  8
MERGEDLAYER-1
 10
10.223078
 20
6.631869
 30
0.000000
  0
VERTEX
  8
MERGEDLAYER-1
 10
50.073078
 20
6.631869
 30
0.000000
  0
SEQEND
  8
MERGEDLAYER-1
  0
TEXT
  8
MERGEDLAYER-1
 62
  7
 10
16.692308
 20
8.312641
 30
0.000000
 40
0.576923
  1
COMPTOIR
 72
  5
 11
21.230769
 21
8.312641
 31
0.000000
  0
POLYLINE
  8
MERGEDLAYER-1
 66
  1
 70
  0
 62
  7
 10
16.536895
 20
8.279179
 30
0.000000
  0
VERTEX
  8
MERGEDLAYER-1
 10
16.536895
 20
8.279179
 30
0.000000
  0
VERTEX
  8
MERGEDLAYER-1
 10
15.402566
 20
6.712064
 30
0.000000
  0
SEQEND
  8
MERGEDLAYER-1
  0
POLYLINE
  8
MERGEDLAYER-1
 66
  1
 70
  1
 62
  7
  0
VERTEX
  8
MERGEDLAYER-1
 10
15.391024
 20
6.696115
 30
0.000000
  0
VERTEX
  8
MERGEDLAYER-1
 10
15.429603
 20
7.142987
 30
0.000000
  0
VERTEX
  8
MERGEDLAYER-1
 10
15.616541
 20
7.007676
 30
0.000000
  0
VERTEX
  8
MERGEDLAYER-1
 10
15.803479
 20
6.872366
 30
0.000000
  0
VERTEX
  8
MERGEDLAYER-1
 10
15.391024
 20
6.696115
 30
0.000000
  0
SEQEND
  8
MERGEDLAYER-1
  0
TEXT
  8
MERGEDLAYER-1
 62
  7
 10
14.230769
 20
36.851102
 30
0.000000
 40
0.750000
  1
( INTƒRIEUR )
 72
  5
 11
21.000000
 21
36.851102
 31
0.000000
  0
POLYLINE
  8
MERGEDLAYER-1
 66
  1
 70
  0
 62
  7
 40
0.153846
 41
0.153846
 10
1.063306
 20
38.082240
 30
0.000000
  0
VERTEX
  8
MERGEDLAYER-1
 10
1.063306
 20
38.082240
 30
0.000000
  0
VERTEX
  8
MERGEDLAYER-1
 10
33.906285
 20
38.071935
 30
0.000000
  0
SEQEND
  8
MERGEDLAYER-1
  0
TEXT
  8
MERGEDLAYER-1
 62
  7
 10
0.923077
 20
40.158795
 30
0.000000
 40
0.576923
  1
*COMPTOIR
 72
  5
 11
5.769231
 21
40.158795
 31
0.000000
  0
TEXT
  8
MERGEDLAYER-1
 62
  7
 10
0.923077
 20
39.312641
 30
0.000000
 40
0.576923
  1
 DOIT æTRE
 72
  5
 11
5.692308
 21
39.312641
 31
0.000000
  0
TEXT
  8
MERGEDLAYER-1
 62
  7
 10
0.923077
 20
38.466487
 30
0.000000
 40
0.576923
  1
 DE NIVEAU
 72
  5
 11
5.769231
 21
38.466487
 31
0.000000
  0
POLYLINE
  8
MERGEDLAYER-1
 66
  1
 70
  0
 62
  7
 40
0.153846
 41
0.153846
 10
53.969501
 20
38.055272
 30
0.000000
  0
VERTEX
  8
MERGEDLAYER-1
 10
53.969501
 20
38.055272
 30
0.000000
  0
VERTEX
  8
MERGEDLAYER-1
 10
40.927359
 20
38.071937
 30
0.000000
  0
SEQEND
  8
MERGEDLAYER-1
  0
TEXT
  8
MERGEDLAYER-1
 62
  7
 10
10.769231
 20
35.235718
 30
0.000000
 40
0.807692
  1
ƒLƒVATION CïTƒ BARIL
 72
  5
 11
24.230769
 21
35.235718
 31
0.000000
  0
TEXT
  8
MERGEDLAYER-1
 62
  7
 10
41.538462
 20
35.235718
 30
0.000000
 40
0.807692
  1
COUPE ( COMPTOIR )
 72
  5
 11
53.230769
 21
35.235718
 31
0.000000
  0
POLYLINE
  8
MERGEDLAYER-1
 66
  1
 70
  1
 62
  7
 10
48.690143
 20
38.067026
 30
0.000000
  0
VERTEX
  8
MERGEDLAYER-1
 10
48.690143
 20
38.067026
 30
0.000000
  0
VERTEX
  8
MERGEDLAYER-1
 10
48.690143
 20
42.455172
 30
0.000000
  0
VERTEX
  8
MERGEDLAYER-1
 10
50.198026
 20
42.455172
 30
0.000000
  0
VERTEX
  8
MERGEDLAYER-1
 10
50.198026
 20
43.038405
 30
0.000000
  0
VERTEX
  8
MERGEDLAYER-1
 10
44.936979
 20
43.038405
 30
0.000000
  0
VERTEX
  8
MERGEDLAYER-1
 10
44.936979
 20
42.469060
 30
0.000000
  0
VERTEX
  8
MERGEDLAYER-1
 10
46.340520
 20
42.469060
 30
0.000000
  0
VERTEX
  8
MERGEDLAYER-1
 10
46.340520
 20
38.067026
 30
0.000000
  0
SEQEND
  8
MERGEDLAYER-1
  0
TEXT
  8
MERGEDLAYER-1
 62
  7
 10
49.000000
 20
39.697256
 30
0.000000
 40
0.576923
  1
CïTƒ BARIL
 72
  5
 11
54.076923
 21
39.697256
 31
0.000000
  0
TEXT
  8
MERGEDLAYER-1
 62
  7
 10
49.000000
 20
38.466487
 30
0.000000
 40
0.576923
  1
COMMERCE OU
 72
  5
 11
55.307692
 21
38.466487
 31
0.000000
  0
TEXT
  8
MERGEDLAYER-1
 62
  7
 10
49.000000
 20
37.235718
 30
0.000000
 40
0.576923
  1
INTƒRIEUR
 72
  5
 11
53.538462
 21
37.235718
 31
0.000000
  0
TEXT
  8
MERGEDLAYER-1
 62
  7
 10
41.846154
 20
38.389564
 30
0.000000
 40
0.576923
  1
MAIL OU
 72
  5
 11
45.461538
 21
38.389564
 31
0.000000
  0
TEXT
  8
MERGEDLAYER-1
 62
  7
 10
41.846154
 20
37.158795
 30
0.000000
 40
0.576923
  1
EXTƒRIEUR
 72
  5
 11
46.692308
 21
37.158795
 31
0.000000
  0
TEXT
  8
MERGEDLAYER-1
 62
  7
 10
59.384615
 20
38.543410
 30
0.000000
 40
0.634615
  1
HAUTEUR
 50
90.000000
 72
  5
 11
59.384615
 21
42.620333
 31
0.000000
  0
TEXT
  8
MERGEDLAYER-1
 62
  7
 10
60.307692
 20
38.389564
 30
0.000000
 40
0.634615
  1
COMPTOIR
 50
90.000000
 72
  5
 11
60.307692
 21
42.774179
 31
0.000000
  0
LINE
  8
MERGEDLAYER-1
 62
  7
 10
56.720299
 20
38.077479
 30
0.000000
 11
56.720299
 21
43.018724
 31
0.000000
  0
LINE
  8
MERGEDLAYER-1
 62
  7
 10
54.460914
 20
38.057796
 30
0.000000
 11
57.720299
 21
38.057796
 31
0.000000
  0
LINE
  8
MERGEDLAYER-1
 62
  7
 10
50.698026
 20
43.038405
 30
0.000000
 11
57.720299
 21
43.038405
 31
0.000000
  0
POLYLINE
  8
MERGEDLAYER-1
 66
  1
 70
  1
 62
  7
  0
VERTEX
  8
MERGEDLAYER-1
 10
56.720299
 20
38.057796
 30
0.000000
  0
VERTEX
  8
MERGEDLAYER-1
 10
56.951069
 20
38.442411
 30
0.000000
  0
VERTEX
  8
MERGEDLAYER-1
 10
56.720299
 20
38.442411
 30
0.000000
  0
VERTEX
  8
MERGEDLAYER-1
 10
56.489530
 20
38.442411
 30
0.000000
  0
VERTEX
  8
MERGEDLAYER-1
 10
56.720299
 20
38.057796
 30
0.000000
  0
SEQEND
  8
MERGEDLAYER-1
  0
POLYLINE
  8
MERGEDLAYER-1
 66
  1
 70
  1
 62
  7
  0
VERTEX
  8
MERGEDLAYER-1
 10
56.720299
 20
43.038405
 30
0.000000
  0
VERTEX
  8
MERGEDLAYER-1
 10
56.951069
 20
42.653790
 30
0.000000
  0
VERTEX
  8
MERGEDLAYER-1
 10
56.720299
 20
42.653790
 30
0.000000
  0
VERTEX
  8
MERGEDLAYER-1
 10
56.489530
 20
42.653790
 30
0.000000
  0
VERTEX
  8
MERGEDLAYER-1
 10
56.720299
 20
43.038405
 30
0.000000
  0
SEQEND
  8
MERGEDLAYER-1
  0
TEXT
  8
MERGEDLAYER-1
 62
  7
 10
56.739192
 20
40.149999
 30
0.000000
 40
0.403846
  1
 
 50
90.000000
  0
POLYLINE
  8
MERGEDLAYER-1
 66
  1
 70
  1
 62
  7
  0
VERTEX
  8
MERGEDLAYER-1
 10
55.082186
 20
38.915161
 30
0.000000
  0
VERTEX
  8
MERGEDLAYER-1
 10
55.082186
 20
42.230797
 30
0.000000
  0
VERTEX
  8
MERGEDLAYER-1
 10
57.625709
 20
42.230797
 30
0.000000
  0
VERTEX
  8
MERGEDLAYER-1
 10
57.625709
 20
38.915161
 30
0.000000
  0
SEQEND
  8
MERGEDLAYER-1
  0
POLYLINE
  8
MERGEDLAYER-1
 66
  1
 70
  0
 62
  7
 40
0.230769
 41
0.230769
 10
57.466726
 20
42.209266
 30
0.000000
  0
VERTEX
  8
MERGEDLAYER-1
 10
57.466726
 20
42.209266
 30
0.000000
  0
VERTEX
  8
MERGEDLAYER-1
 10
57.466726
 20
38.915161
 30
0.000000
  0
SEQEND
  8
MERGEDLAYER-1
  0
POLYLINE
  8
MERGEDLAYER-1
 66
  1
 70
  0
 62
  7
 40
0.153846
 41
0.153846
 10
44.936979
 20
43.038405
 30
0.000000
  0
VERTEX
  8
MERGEDLAYER-1
 10
44.936979
 20
43.038405
 30
0.000000
  0
VERTEX
  8
MERGEDLAYER-1
 10
50.198026
 20
43.038405
 30
0.000000
  0
SEQEND
  8
MERGEDLAYER-1
  0
POLYLINE
  8
MERGEDLAYER-1
 66
  1
 70
  1
 62
  7
 10
28.557544
 20
38.076540
 30
0.000000
  0
VERTEX
  8
MERGEDLAYER-1
 10
28.557544
 20
38.076540
 30
0.000000
  0
VERTEX
  8
MERGEDLAYER-1
 10
6.660936
 20
38.076540
 30
0.000000
  0
VERTEX
  8
MERGEDLAYER-1
 10
6.656815
 20
43.046852
 30
0.000000
  0
VERTEX
  8
MERGEDLAYER-1
 10
28.549964
 20
43.044748
 30
0.000000
  0
SEQEND
  8
MERGEDLAYER-1
  0
POLYLINE
  8
MERGEDLAYER-1
 66
  1
 70
  0
 62
  7
 10
28.550610
 20
42.464684
 30
0.000000
  0
VERTEX
  8
MERGEDLAYER-1
 10
28.550610
 20
42.464684
 30
0.000000
  0
VERTEX
  8
MERGEDLAYER-1
 10
6.660936
 20
42.464684
 30
0.000000
  0
SEQEND
  8
MERGEDLAYER-1
  0
POLYLINE
  8
MERGEDLAYER-1
 66
  1
 70
  0
 62
  7
 10
13.573723
 20
42.463600
 30
0.000000
  0
VERTEX
  8
MERGEDLAYER-1
 10
13.573723
 20
42.463600
 30
0.000000
  0
VERTEX
  8
MERGEDLAYER-1
 10
13.573723
 20
38.089337
 30
0.000000
  0
SEQEND
  8
MERGEDLAYER-1
  0
POLYLINE
  8
MERGEDLAYER-1
 66
  1
 70
  0
 62
  7
 10
13.670945
 20
42.463600
 30
0.000000
  0
VERTEX
  8
MERGEDLAYER-1
 10
13.670945
 20
42.463600
 30
0.000000
  0
VERTEX
  8
MERGEDLAYER-1
 10
13.670945
 20
38.089337
 30
0.000000
  0
SEQEND
  8
MERGEDLAYER-1
  0
POLYLINE
  8
MERGEDLAYER-1
 66
  1
 70
  0
 62
  7
 10
21.435103
 20
42.463604
 30
0.000000
  0
VERTEX
  8
MERGEDLAYER-1
 10
21.435103
 20
42.463604
 30
0.000000
  0
VERTEX
  8
MERGEDLAYER-1
 10
21.435103
 20
38.089341
 30
0.000000
  0
SEQEND
  8
MERGEDLAYER-1
  0
POLYLINE
  8
MERGEDLAYER-1
 66
  1
 70
  0
 62
  7
 10
21.532335
 20
42.463604
 30
0.000000
  0
VERTEX
  8
MERGEDLAYER-1
 10
21.532335
 20
42.463604
 30
0.000000
  0
VERTEX
  8
MERGEDLAYER-1
 10
21.532335
 20
38.089341
 30
0.000000
  0
SEQEND
  8
MERGEDLAYER-1
  0
POLYLINE
  8
MERGEDLAYER-1
 66
  1
 70
  0
 62
  7
 10
8.846426
 20
25.754953
 30
0.000000
  0
VERTEX
  8
MERGEDLAYER-1
 10
8.846426
 20
25.754953
 30
0.000000
  0
VERTEX
  8
MERGEDLAYER-1
 10
8.846426
 20
28.424654
 30
0.000000
  0
SEQEND
  8
MERGEDLAYER-1
  0
POLYLINE
  8
MERGEDLAYER-1
 66
  1
 70
  0
 62
  7
 10
52.180209
 20
25.775729
 30
0.000000
  0
VERTEX
  8
MERGEDLAYER-1
 10
52.180209
 20
25.775729
 30
0.000000
  0
VERTEX
  8
MERGEDLAYER-1
 10
52.180209
 20
28.424654
 30
0.000000
  0
SEQEND
  8
MERGEDLAYER-1
  0
TEXT
  8
MERGEDLAYER-1
 62
  7
 10
1.769231
 20
9.851102
 30
0.000000
 40
0.576923
  1
3/16" (5mm)
 72
  5
 11
6.461538
 21
9.851102
 31
0.000000
  0
TEXT
  8
MERGEDLAYER-1
 62
  7
 10
1.769231
 20
9.004949
 30
0.000000
 40
0.576923
  1
PLAQUE D'EXTRƒMITƒ
 72
  5
 11
10.769231
 21
9.004949
 31
0.000000
  0
TEXT
  8
MERGEDLAYER-1
 62
  7
 10
1.769231
 20
8.158795
 30
0.000000
 40
0.576923
  1
8"x8" (203x203mm) ou
 72
  5
 11
10.307692
 21
8.158795
 31
0.000000
  0
TEXT
  8
MERGEDLAYER-1
 62
  7
 10
1.769231
 20
7.312641
 30
0.000000
 40
0.576923
  1
10"x10" (254x254mm)
 72
  5
 11
10.076923
 21
7.312641
 31
0.000000
  0
TEXT
  8
MERGEDLAYER-1
 62
  7
 10
29.538462
 20
17.389564
 30
0.000000
 40
0.461538
  1
DE LA CLOISON
 72
  5
 11
34.461538
 21
17.389564
 31
0.000000
  0
POLYLINE
  8
MERGEDLAYER-1
  6
LTYPE01
 66
  1
 70
  0
 62
  7
  6
LTYPE01
 10
48.272414
 20
56.197923
 30
0.000000
  0
VERTEX
  8
MERGEDLAYER-1
  6
LTYPE01
 10
48.272414
 20
56.197923
 30
0.000000
  0
VERTEX
  8
MERGEDLAYER-1
  6
LTYPE01
 10
48.048884
 20
55.452778
 30
0.000000
  0
VERTEX
  8
MERGEDLAYER-1
  6
LTYPE01
 10
47.901616
 20
54.687547
 30
0.000000
  0
VERTEX
  8
MERGEDLAYER-1
  6
LTYPE01
 10
47.899339
 20
54.655208
 30
0.000000
  0
SEQEND
  8
MERGEDLAYER-1
  0
TEXT
  8
MERGEDLAYER-1
 62
  7
 10
24.461538
 20
41.543410
 30
0.000000
 40
0.576923
  1
BARRE
 72
  5
 11
27.538462
 21
41.543410
 31
0.000000
  0
TEXT
  8
MERGEDLAYER-1
 62
  7
 10
24.461538
 20
40.697256
 30
0.000000
 40
0.576923
  1
DU BAS
 72
  5
 11
27.769231
 21
40.697256
 31
0.000000
  0
POLYLINE
  8
MERGEDLAYER-1
 66
  1
 70
  0
 62
  7
 10
24.013172
 20
43.048330
 30
0.000000
  0
VERTEX
  8
MERGEDLAYER-1
 10
24.013172
 20
43.048330
 30
0.000000
  0
VERTEX
  8
MERGEDLAYER-1
 10
24.010848
 20
41.470619
 30
0.000000
  0
SEQEND
  8
MERGEDLAYER-1
  0
POLYLINE
  8
MERGEDLAYER-1
 66
  1
 70
  1
 62
  7
  0
VERTEX
  8
MERGEDLAYER-1
 10
24.013200
 20
43.068012
 30
0.000000
  0
VERTEX
  8
MERGEDLAYER-1
 10
23.781863
 20
42.683739
 30
0.000000
  0
VERTEX
  8
MERGEDLAYER-1
 10
24.012632
 20
42.683397
 30
0.000000
  0
VERTEX
  8
MERGEDLAYER-1
 10
24.243401
 20
42.683059
 30
0.000000
  0
VERTEX
  8
MERGEDLAYER-1
 10
24.013200
 20
43.068012
 30
0.000000
  0
SEQEND
  8
MERGEDLAYER-1
  0
POLYLINE
  8
MERGEDLAYER-1
 66
  1
 70
  0
 62
  7
 10
7.018633
 20
41.303932
 30
0.000000
  0
VERTEX
  8
MERGEDLAYER-1
 10
7.018633
 20
41.303932
 30
0.000000
  0
VERTEX
  8
MERGEDLAYER-1
 10
7.019120
 20
43.048330
 30
0.000000
  0
SEQEND
  8
MERGEDLAYER-1
  0
POLYLINE
  8
MERGEDLAYER-1
 66
  1
 70
  1
 62
  7
  0
VERTEX
  8
MERGEDLAYER-1
 10
7.019125
 20
43.068012
 30
0.000000
  0
VERTEX
  8
MERGEDLAYER-1
 10
7.249787
 20
42.683336
 30
0.000000
  0
VERTEX
  8
MERGEDLAYER-1
 10
7.019018
 20
42.683397
 30
0.000000
  0
VERTEX
  8
MERGEDLAYER-1
 10
6.788249
 20
42.683462
 30
0.000000
  0
VERTEX
  8
MERGEDLAYER-1
 10
7.019125
 20
43.068012
 30
0.000000
  0
SEQEND
  8
MERGEDLAYER-1
  0
POLYLINE
  8
MERGEDLAYER-1
 66
  1
 70
  0
 62
  7
 10
7.584719
 20
41.303932
 30
0.000000
  0
VERTEX
  8
MERGEDLAYER-1
 10
7.584719
 20
41.303932
 30
0.000000
  0
VERTEX
  8
MERGEDLAYER-1
 10
7.018633
 20
41.303932
 30
0.000000
  0
SEQEND
  8
MERGEDLAYER-1
  0
POLYLINE
  8
MERGEDLAYER-1
 66
  1
 70
  0
 62
  7
 10
24.395160
 20
41.470619
 30
0.000000
  0
VERTEX
  8
MERGEDLAYER-1
 10
24.395160
 20
41.470619
 30
0.000000
  0
VERTEX
  8
MERGEDLAYER-1
 10
24.010848
 20
41.470619
 30
0.000000
  0
SEQEND
  8
MERGEDLAYER-1
  0
TEXT
  8
MERGEDLAYER-1
 62
  7
 10
7.615385
 20
41.543410
 30
0.000000
 40
0.576923
  1
GUIDE
 72
  5
 11
10.461538
 21
41.543410
 31
0.000000
  0
TEXT
  8
MERGEDLAYER-1
 62
  7
 10
7.615385
 20
40.697256
 30
0.000000
 40
0.576923
  1
D'ALUMINIUM
 72
  5
 11
13.000000
 21
40.697256
 31
0.000000
  0
LINE
  8
MERGEDLAYER-1
 62
  7
 10
42.506038
 20
54.662696
 30
0.000000
 11
42.506038
 21
57.222069
 31
0.000000
  0
LINE
  8
MERGEDLAYER-1
 62
  7
 10
47.046819
 20
54.643010
 30
0.000000
 11
41.506038
 21
54.643010
 31
0.000000
  0
LINE
  8
MERGEDLAYER-1
 62
  7
 10
47.046819
 20
57.241756
 30
0.000000
 11
41.506038
 21
57.241756
 31
0.000000
  0
POLYLINE
  8
MERGEDLAYER-1
 66
  1
 70
  1
 62
  7
  0
VERTEX
  8
MERGEDLAYER-1
 10
42.506038
 20
54.643010
 30
0.000000
  0
VERTEX
  8
MERGEDLAYER-1
 10
42.736807
 20
55.027625
 30
0.000000
  0
VERTEX
  8
MERGEDLAYER-1
 10
42.506038
 20
55.027625
 30
0.000000
  0
VERTEX
  8
MERGEDLAYER-1
 10
42.275269
 20
55.027625
 30
0.000000
  0
VERTEX
  8
MERGEDLAYER-1
 10
42.506038
 20
54.643010
 30
0.000000
  0
SEQEND
  8
MERGEDLAYER-1
  0
POLYLINE
  8
MERGEDLAYER-1
 66
  1
 70
  1
 62
  7
  0
VERTEX
  8
MERGEDLAYER-1
 10
42.506038
 20
57.241756
 30
0.000000
  0
VERTEX
  8
MERGEDLAYER-1
 10
42.736807
 20
56.857140
 30
0.000000
  0
VERTEX
  8
MERGEDLAYER-1
 10
42.506038
 20
56.857140
 30
0.000000
  0
VERTEX
  8
MERGEDLAYER-1
 10
42.275269
 20
56.857140
 30
0.000000
  0
VERTEX
  8
MERGEDLAYER-1
 10
42.506038
 20
57.241756
 30
0.000000
  0
SEQEND
  8
MERGEDLAYER-1
  0
TEXT
  8
MERGEDLAYER-1
 62
  7
 10
41.719736
 20
55.392956
 30
0.000000
 40
0.519231
  1
 
 50
90.000000
  0
LINE
  8
MERGEDLAYER-1
 62
  7
 10
47.713816
 20
58.427171
 30
0.000000
 11
50.196500
 21
58.427171
 31
0.000000
  0
LINE
  8
MERGEDLAYER-1
 62
  7
 10
47.694134
 20
57.741995
 30
0.000000
 11
47.694134
 21
59.427171
 31
0.000000
  0
LINE
  8
MERGEDLAYER-1
 62
  7
 10
50.216187
 20
57.741995
 30
0.000000
 11
50.216187
 21
59.427171
 31
0.000000
  0
POLYLINE
  8
MERGEDLAYER-1
 66
  1
 70
  1
 62
  7
  0
VERTEX
  8
MERGEDLAYER-1
 10
47.694134
 20
58.427171
 30
0.000000
  0
VERTEX
  8
MERGEDLAYER-1
 10
48.078749
 20
58.196406
 30
0.000000
  0
VERTEX
  8
MERGEDLAYER-1
 10
48.078749
 20
58.427176
 30
0.000000
  0
VERTEX
  8
MERGEDLAYER-1
 10
48.078749
 20
58.657945
 30
0.000000
  0
VERTEX
  8
MERGEDLAYER-1
 10
47.694134
 20
58.427171
 30
0.000000
  0
SEQEND
  8
MERGEDLAYER-1
  0
POLYLINE
  8
MERGEDLAYER-1
 66
  1
 70
  1
 62
  7
  0
VERTEX
  8
MERGEDLAYER-1
 10
50.216187
 20
58.427171
 30
0.000000
  0
VERTEX
  8
MERGEDLAYER-1
 10
49.831571
 20
58.196402
 30
0.000000
  0
VERTEX
  8
MERGEDLAYER-1
 10
49.831571
 20
58.427171
 30
0.000000
  0
VERTEX
  8
MERGEDLAYER-1
 10
49.831571
 20
58.657940
 30
0.000000
  0
VERTEX
  8
MERGEDLAYER-1
 10
50.216187
 20
58.427171
 30
0.000000
  0
SEQEND
  8
MERGEDLAYER-1
  0
TEXT
  8
MERGEDLAYER-1
 62
  7
 10
49.104182
 20
59.251163
 30
0.000000
 40
0.576923
  1
 
  0
POLYLINE
  8
MERGEDLAYER-1
 66
  1
 70
  1
 62
  7
  0
VERTEX
  8
MERGEDLAYER-1
 10
6.734438
 20
57.241756
 30
0.000000
  0
VERTEX
  8
MERGEDLAYER-1
 10
6.785823
 20
57.241756
 30
0.000000
  0
VERTEX
  8
MERGEDLAYER-1
 10
6.785823
 20
54.661588
 30
0.000000
  0
VERTEX
  8
MERGEDLAYER-1
 10
6.734438
 20
54.661588
 30
0.000000
  0
SEQEND
  8
MERGEDLAYER-1
  0
POLYLINE
  8
MERGEDLAYER-1
 66
  1
 70
  1
 62
  7
  0
VERTEX
  8
MERGEDLAYER-1
 10
28.450484
 20
57.241756
 30
0.000000
  0
VERTEX
  8
MERGEDLAYER-1
 10
28.501883
 20
57.241756
 30
0.000000
  0
VERTEX
  8
MERGEDLAYER-1
 10
28.501883
 20
54.661588
 30
0.000000
  0
VERTEX
  8
MERGEDLAYER-1
 10
28.450484
 20
54.661588
 30
0.000000
  0
SEQEND
  8
MERGEDLAYER-1
  0
POLYLINE
  8
MERGEDLAYER-1
 66
  1
 70
  0
 62
  7
 10
7.037735
 20
56.628789
 30
0.000000
  0
VERTEX
  8
MERGEDLAYER-1
 10
7.037735
 20
56.628789
 30
0.000000
  0
VERTEX
  8
MERGEDLAYER-1
 10
27.540318
 20
56.631620
 30
0.000000
  0
SEQEND
  8
MERGEDLAYER-1
  0
POLYLINE
  8
MERGEDLAYER-1
 66
  1
 70
  0
 62
  7
 10
7.037704
 20
56.447777
 30
0.000000
  0
VERTEX
  8
MERGEDLAYER-1
 10
7.037704
 20
56.447777
 30
0.000000
  0
VERTEX
  8
MERGEDLAYER-1
 10
27.540318
 20
56.452778
 30
0.000000
  0
SEQEND
  8
MERGEDLAYER-1
  0
POLYLINE
  8
MERGEDLAYER-1
 66
  1
 70
  0
 62
  7
 10
17.673645
 20
56.542898
 30
0.000000
  0
VERTEX
  8
MERGEDLAYER-1
 10
17.673645
 20
56.542898
 30
0.000000
  0
VERTEX
  8
MERGEDLAYER-1
 10
17.606640
 20
56.594290
 30
0.000000
  0
VERTEX
  8
MERGEDLAYER-1
 10
17.539636
 20
56.542898
 30
0.000000
  0
VERTEX
  8
MERGEDLAYER-1
 10
17.606640
 20
56.491507
 30
0.000000
  0
VERTEX
  8
MERGEDLAYER-1
 10
17.673645
 20
56.542898
 30
0.000000
  0
SEQEND
  8
MERGEDLAYER-1
  0
POLYLINE
  8
MERGEDLAYER-1
 66
  1
 70
  0
 62
  7
 10
20.655982
 20
56.542898
 30
0.000000
  0
VERTEX
  8
MERGEDLAYER-1
 10
20.655982
 20
56.542898
 30
0.000000
  0
VERTEX
  8
MERGEDLAYER-1
 10
20.588978
 20
56.594290
 30
0.000000
  0
VERTEX
  8
MERGEDLAYER-1
 10
20.521973
 20
56.542898
 30
0.000000
  0
VERTEX
  8
MERGEDLAYER-1
 10
20.588978
 20
56.491507
 30
0.000000
  0
VERTEX
  8
MERGEDLAYER-1
 10
20.655982
 20
56.542898
 30
0.000000
  0
SEQEND
  8
MERGEDLAYER-1
  0
POLYLINE
  8
MERGEDLAYER-1
 66
  1
 70
  0
 62
  7
 10
23.634406
 20
56.542898
 30
0.000000
  0
VERTEX
  8
MERGEDLAYER-1
 10
23.634406
 20
56.542898
 30
0.000000
  0
VERTEX
  8
MERGEDLAYER-1
 10
23.567402
 20
56.594290
 30
0.000000
  0
VERTEX
  8
MERGEDLAYER-1
 10
23.500397
 20
56.542898
 30
0.000000
  0
VERTEX
  8
MERGEDLAYER-1
 10
23.567402
 20
56.491507
 30
0.000000
  0
VERTEX
  8
MERGEDLAYER-1
 10
23.634406
 20
56.542898
 30
0.000000
  0
SEQEND
  8
MERGEDLAYER-1
  0
POLYLINE
  8
MERGEDLAYER-1
 66
  1
 70
  0
 62
  7
 10
26.612967
 20
56.542898
 30
0.000000
  0
VERTEX
  8
MERGEDLAYER-1
 10
26.612967
 20
56.542898
 30
0.000000
  0
VERTEX
  8
MERGEDLAYER-1
 10
26.545964
 20
56.594290
 30
0.000000
  0
VERTEX
  8
MERGEDLAYER-1
 10
26.478959
 20
56.542898
 30
0.000000
  0
VERTEX
  8
MERGEDLAYER-1
 10
26.545964
 20
56.491507
 30
0.000000
  0
VERTEX
  8
MERGEDLAYER-1
 10
26.612967
 20
56.542898
 30
0.000000
  0
SEQEND
  8
MERGEDLAYER-1
  0
POLYLINE
  8
MERGEDLAYER-1
 66
  1
 70
  0
 62
  7
 10
14.695256
 20
56.542898
 30
0.000000
  0
VERTEX
  8
MERGEDLAYER-1
 10
14.695256
 20
56.542898
 30
0.000000
  0
VERTEX
  8
MERGEDLAYER-1
 10
14.628252
 20
56.594290
 30
0.000000
  0
VERTEX
  8
MERGEDLAYER-1
 10
14.561250
 20
56.542898
 30
0.000000
  0
VERTEX
  8
MERGEDLAYER-1
 10
14.628252
 20
56.491507
 30
0.000000
  0
VERTEX
  8
MERGEDLAYER-1
 10
14.695256
 20
56.542898
 30
0.000000
  0
SEQEND
  8
MERGEDLAYER-1
  0
POLYLINE
  8
MERGEDLAYER-1
 66
  1
 70
  0
 62
  7
 10
11.716872
 20
56.542898
 30
0.000000
  0
VERTEX
  8
MERGEDLAYER-1
 10
11.716872
 20
56.542898
 30
0.000000
  0
VERTEX
  8
MERGEDLAYER-1
 10
11.649868
 20
56.594290
 30
0.000000
  0
VERTEX
  8
MERGEDLAYER-1
 10
11.582866
 20
56.542898
 30
0.000000
  0
VERTEX
  8
MERGEDLAYER-1
 10
11.649868
 20
56.491507
 30
0.000000
  0
VERTEX
  8
MERGEDLAYER-1
 10
11.716872
 20
56.542898
 30
0.000000
  0
SEQEND
  8
MERGEDLAYER-1
  0
POLYLINE
  8
MERGEDLAYER-1
 66
  1
 70
  0
 62
  7
 10
8.741116
 20
56.542898
 30
0.000000
  0
VERTEX
  8
MERGEDLAYER-1
 10
8.741116
 20
56.542898
 30
0.000000
  0
VERTEX
  8
MERGEDLAYER-1
 10
8.674113
 20
56.594290
 30
0.000000
  0
VERTEX
  8
MERGEDLAYER-1
 10
8.607110
 20
56.542898
 30
0.000000
  0
VERTEX
  8
MERGEDLAYER-1
 10
8.674113
 20
56.491507
 30
0.000000
  0
VERTEX
  8
MERGEDLAYER-1
 10
8.741116
 20
56.542898
 30
0.000000
  0
SEQEND
  8
MERGEDLAYER-1
  0
POLYLINE
  8
MERGEDLAYER-1
 66
  1
 70
  1
 62
  7
  0
VERTEX
  8
MERGEDLAYER-1
 10
47.692204
 20
57.241995
 30
0.000000
  0
VERTEX
  8
MERGEDLAYER-1
 10
50.214257
 20
57.241995
 30
0.000000
  0
VERTEX
  8
MERGEDLAYER-1
 10
50.214257
 20
54.643254
 30
0.000000
  0
VERTEX
  8
MERGEDLAYER-1
 10
47.692204
 20
54.643254
 30
0.000000
  0
SEQEND
  8
MERGEDLAYER-1
  0
POLYLINE
  8
MERGEDLAYER-1
 66
  1
 70
  0
 62
  7
 10
48.045452
 20
56.921950
 30
0.000000
  0
VERTEX
  8
MERGEDLAYER-1
 10
48.045452
 20
56.921950
 30
0.000000
  0
VERTEX
  8
MERGEDLAYER-1
 10
47.988530
 20
56.978877
 30
0.000000
  0
VERTEX
  8
MERGEDLAYER-1
 10
47.931608
 20
56.921950
 30
0.000000
  0
VERTEX
  8
MERGEDLAYER-1
 10
47.988530
 20
56.865028
 30
0.000000
  0
VERTEX
  8
MERGEDLAYER-1
 10
48.045452
 20
56.921950
 30
0.000000
  0
SEQEND
  8
MERGEDLAYER-1
  0
POLYLINE
  8
MERGEDLAYER-1
 66
  1
 70
  0
 62
  7
 10
48.045452
 20
54.930997
 30
0.000000
  0
VERTEX
  8
MERGEDLAYER-1
 10
48.045452
 20
54.930997
 30
0.000000
  0
VERTEX
  8
MERGEDLAYER-1
 10
47.988530
 20
54.987920
 30
0.000000
  0
VERTEX
  8
MERGEDLAYER-1
 10
47.931608
 20
54.930997
 30
0.000000
  0
VERTEX
  8
MERGEDLAYER-1
 10
47.988530
 20
54.874070
 30
0.000000
  0
VERTEX
  8
MERGEDLAYER-1
 10
48.045452
 20
54.930997
 30
0.000000
  0
SEQEND
  8
MERGEDLAYER-1
  0
POLYLINE
  8
MERGEDLAYER-1
 66
  1
 70
  0
 62
  7
 10
49.194219
 20
55.941740
 30
0.000000
  0
VERTEX
  8
MERGEDLAYER-1
 10
49.194219
 20
55.941740
 30
0.000000
  0
VERTEX
  8
MERGEDLAYER-1
 10
48.701139
 20
55.941740
 30
0.000000
  0
SEQEND
  8
MERGEDLAYER-1
  0
POLYLINE
  8
MERGEDLAYER-1
 66
  1
 70
  0
 62
  7
 10
48.947679
 20
56.188312
 30
0.000000
  0
VERTEX
  8
MERGEDLAYER-1
 10
48.947679
 20
56.188312
 30
0.000000
  0
VERTEX
  8
MERGEDLAYER-1
 10
48.947679
 20
55.695153
 30
0.000000
  0
SEQEND
  8
MERGEDLAYER-1
  0
POLYLINE
  8
MERGEDLAYER-1
 66
  1
 70
  0
 62
  7
 10
48.045452
 20
55.948233
 30
0.000000
  0
VERTEX
  8
MERGEDLAYER-1
 10
48.045452
 20
55.948233
 30
0.000000
  0
VERTEX
  8
MERGEDLAYER-1
 10
47.988530
 20
56.005155
 30
0.000000
  0
VERTEX
  8
MERGEDLAYER-1
 10
47.931608
 20
55.948233
 30
0.000000
  0
VERTEX
  8
MERGEDLAYER-1
 10
47.988530
 20
55.891310
 30
0.000000
  0
VERTEX
  8
MERGEDLAYER-1
 10
48.045452
 20
55.948233
 30
0.000000
  0
SEQEND
  8
MERGEDLAYER-1
  0
POLYLINE
  8
MERGEDLAYER-1
 66
  1
 70
  0
 62
  7
 10
49.635883
 20
55.943819
 30
0.000000
  0
VERTEX
  8
MERGEDLAYER-1
 10
49.635883
 20
55.943819
 30
0.000000
  0
VERTEX
  8
MERGEDLAYER-1
 10
49.583543
 20
56.206942
 30
0.000000
  0
VERTEX
  8
MERGEDLAYER-1
 10
49.434505
 20
56.430007
 30
0.000000
  0
VERTEX
  8
MERGEDLAYER-1
 10
49.211449
 20
56.579055
 30
0.000000
  0
VERTEX
  8
MERGEDLAYER-1
 10
48.948341
 20
56.631395
 30
0.000000
  0
VERTEX
  8
MERGEDLAYER-1
 10
48.685228
 20
56.579055
 30
0.000000
  0
VERTEX
  8
MERGEDLAYER-1
 10
48.462172
 20
56.430007
 30
0.000000
  0
VERTEX
  8
MERGEDLAYER-1
 10
48.313134
 20
56.206942
 30
0.000000
  0
VERTEX
  8
MERGEDLAYER-1
 10
48.260794
 20
55.943819
 30
0.000000
  0
VERTEX
  8
MERGEDLAYER-1
 10
48.313134
 20
55.680692
 30
0.000000
  0
VERTEX
  8
MERGEDLAYER-1
 10
48.462172
 20
55.457628
 30
0.000000
  0
VERTEX
  8
MERGEDLAYER-1
 10
48.685228
 20
55.308580
 30
0.000000
  0
VERTEX
  8
MERGEDLAYER-1
 10
48.948341
 20
55.256244
 30
0.000000
  0
VERTEX
  8
MERGEDLAYER-1
 10
49.211449
 20
55.308580
 30
0.000000
  0
VERTEX
  8
MERGEDLAYER-1
 10
49.434505
 20
55.457628
 30
0.000000
  0
VERTEX
  8
MERGEDLAYER-1
 10
49.583543
 20
55.680692
 30
0.000000
  0
VERTEX
  8
MERGEDLAYER-1
 10
49.635883
 20
55.943819
 30
0.000000
  0
SEQEND
  8
MERGEDLAYER-1
  0
POLYLINE
  8
MERGEDLAYER-1
 66
  1
 70
  0
 62
  7
 10
49.464177
 20
56.448899
 30
0.000000
  0
VERTEX
  8
MERGEDLAYER-1
 10
49.464177
 20
56.448899
 30
0.000000
  0
VERTEX
  8
MERGEDLAYER-1
 10
49.229065
 20
56.608929
 30
0.000000
  0
VERTEX
  8
MERGEDLAYER-1
 10
49.123761
 20
56.642634
 30
0.000000
  0
SEQEND
  8
MERGEDLAYER-1
  0
POLYLINE
  8
MERGEDLAYER-1
  6
LTYPE01
 66
  1
 70
  0
 62
  7
  6
LTYPE01
 10
48.950308
 20
56.664152
 30
0.000000
  0
VERTEX
  8
MERGEDLAYER-1
  6
LTYPE01
 10
48.950308
 20
56.664152
 30
0.000000
  0
VERTEX
  8
MERGEDLAYER-1
  6
LTYPE01
 10
48.671941
 20
56.611140
 30
0.000000
  0
VERTEX
  8
MERGEDLAYER-1
  6
LTYPE01
 10
48.437617
 20
56.454562
 30
0.000000
  0
VERTEX
  8
MERGEDLAYER-1
  6
LTYPE01
 10
48.328543
 20
56.309397
 30
0.000000
  0
SEQEND
  8
MERGEDLAYER-1
  0
POLYLINE
  8
MERGEDLAYER-1
 66
  1
 70
  0
 62
  7
 10
29.633883
 20
13.039048
 30
0.000000
  0
VERTEX
  8
MERGEDLAYER-1
 10
29.633883
 20
13.039048
 30
0.000000
  0
VERTEX
  8
MERGEDLAYER-1
 10
28.845229
 20
12.902945
 30
0.000000
  0
SEQEND
  8
MERGEDLAYER-1
  0
POLYLINE
  8
MERGEDLAYER-1
 66
  1
 70
  0
 62
  7
 10
30.106549
 20
13.734685
 30
0.000000
  0
VERTEX
  8
MERGEDLAYER-1
 10
30.106549
 20
13.734685
 30
0.000000
  0
VERTEX
  8
MERGEDLAYER-1
 10
29.250298
 20
13.586900
 30
0.000000
  0
SEQEND
  8
MERGEDLAYER-1
  0
POLYLINE
  8
MERGEDLAYER-1
 66
  1
 70
  0
 62
  7
 10
28.845229
 20
12.902945
 30
0.000000
  0
VERTEX
  8
MERGEDLAYER-1
 10
28.845229
 20
12.902945
 30
0.000000
  0
VERTEX
  8
MERGEDLAYER-1
 10
30.106549
 20
13.734685
 30
0.000000
  0
SEQEND
  8
MERGEDLAYER-1
  0
POLYLINE
  8
MERGEDLAYER-1
 66
  1
 70
  1
 62
  7
  0
VERTEX
  8
MERGEDLAYER-1
 10
27.952822
 20
18.082670
 30
0.000000
  0
VERTEX
  8
MERGEDLAYER-1
 10
29.542654
 20
18.082670
 30
0.000000
  0
VERTEX
  8
MERGEDLAYER-1
 10
29.542654
 20
17.721520
 30
0.000000
  0
VERTEX
  8
MERGEDLAYER-1
 10
27.952822
 20
17.721520
 30
0.000000
  0
SEQEND
  8
MERGEDLAYER-1
  0
TEXT
  8
MERGEDLAYER-1
 62
  7
 10
28.307692
 20
17.697256
 30
0.000000
 40
0.634615
  1
C
 72
  5
 11
29.307692
 21
17.697256
 31
0.000000
  0
TEXT
  8
MERGEDLAYER-1
 62
  7
 10
28.538462
 20
17.389564
 30
0.000000
 40
0.634615
  1
L
 72
  5
 11
29.384615
 21
17.389564
 31
0.000000
  0
TEXT
  8
MERGEDLAYER-1
 62
  7
 10
16.615385
 20
19.928025
 30
0.000000
 40
0.576923
  1
BARRE DU BAS
 72
  5
 11
22.846154
 21
19.928025
 31
0.000000
  0
POLYLINE
  8
MERGEDLAYER-1
 66
  1
 70
  0
 62
  7
 10
15.353005
 20
18.581228
 30
0.000000
  0
VERTEX
  8
MERGEDLAYER-1
 10
15.353005
 20
18.581228
 30
0.000000
  0
VERTEX
  8
MERGEDLAYER-1
 10
16.485577
 20
20.206872
 30
0.000000
  0
SEQEND
  8
MERGEDLAYER-1
  0
POLYLINE
  8
MERGEDLAYER-1
 66
  1
 70
  1
 62
  7
  0
VERTEX
  8
MERGEDLAYER-1
 10
15.341752
 20
18.565078
 30
0.000000
  0
VERTEX
  8
MERGEDLAYER-1
 10
15.750962
 20
18.748732
 30
0.000000
  0
VERTEX
  8
MERGEDLAYER-1
 10
15.561616
 20
18.880653
 30
0.000000
  0
VERTEX
  8
MERGEDLAYER-1
 10
15.372270
 20
19.012573
 30
0.000000
  0
VERTEX
  8
MERGEDLAYER-1
 10
15.341752
 20
18.565078
 30
0.000000
  0
SEQEND
  8
MERGEDLAYER-1
  0
POLYLINE
  8
MERGEDLAYER-1
 66
  1
 70
  1
 62
  7
  0
VERTEX
  8
MERGEDLAYER-1
 10
47.694134
 20
53.823848
 30
0.000000
  0
VERTEX
  8
MERGEDLAYER-1
 10
48.084783
 20
53.823848
 30
0.000000
  0
VERTEX
  8
MERGEDLAYER-1
 10
48.084783
 20
52.854990
 30
0.000000
  0
VERTEX
  8
MERGEDLAYER-1
 10
47.694134
 20
52.854990
 30
0.000000
  0
SEQEND
  8
MERGEDLAYER-1
  0
POLYLINE
  8
MERGEDLAYER-1
 66
  1
 70
  0
 62
  7
 10
52.201106
 20
54.633723
 30
0.000000
  0
VERTEX
  8
MERGEDLAYER-1
 10
52.201106
 20
54.633723
 30
0.000000
  0
VERTEX
  8
MERGEDLAYER-1
 10
52.201106
 20
57.697256
 30
0.000000
  0
SEQEND
  8
MERGEDLAYER-1
  0
POLYLINE
  8
MERGEDLAYER-1
 66
  1
 70
  0
 62
  7
 10
48.250160
 20
54.639799
 30
0.000000
  0
VERTEX
  8
MERGEDLAYER-1
 10
48.250160
 20
54.639799
 30
0.000000
  0
VERTEX
  8
MERGEDLAYER-1
 10
48.091163
 20
54.639799
 30
0.000000
  0
SEQEND
  8
MERGEDLAYER-1
  0
POLYLINE
  8
MERGEDLAYER-1
 66
  1
 70
  0
 62
  7
 10
48.250160
 20
54.639799
 30
0.000000
  0
VERTEX
  8
MERGEDLAYER-1
 10
48.250160
 20
54.639799
 30
0.000000
  0
VERTEX
  8
MERGEDLAYER-1
 10
48.130521
 20
54.465656
 30
0.000000
  0
VERTEX
  8
MERGEDLAYER-1
 10
48.091172
 20
54.255949
 30
0.000000
  0
SEQEND
  8
MERGEDLAYER-1
  0
POLYLINE
  8
MERGEDLAYER-1
 66
  1
 70
  0
 62
  7
 10
48.091163
 20
54.255949
 30
0.000000
  0
VERTEX
  8
MERGEDLAYER-1
 10
48.091163
 20
54.255949
 30
0.000000
  0
VERTEX
  8
MERGEDLAYER-1
 10
48.091163
 20
54.639799
 30
0.000000
  0
SEQEND
  8
MERGEDLAYER-1
  0
POLYLINE
  8
MERGEDLAYER-1
 66
  1
 70
  0
 62
  7
 10
29.633883
 20
13.039048
 30
0.000000
  0
VERTEX
  8
MERGEDLAYER-1
 10
29.633883
 20
13.039048
 30
0.000000
  0
VERTEX
  8
MERGEDLAYER-1
 10
31.606633
 20
10.221525
 30
0.000000
  0
SEQEND
  8
MERGEDLAYER-1
  0
POLYLINE
  8
MERGEDLAYER-1
 66
  1
 70
  0
 62
  7
 10
27.095281
 20
16.664739
 30
0.000000
  0
VERTEX
  8
MERGEDLAYER-1
 10
27.095281
 20
16.664739
 30
0.000000
  0
VERTEX
  8
MERGEDLAYER-1
 10
29.250298
 20
13.586900
 30
0.000000
  0
SEQEND
  8
MERGEDLAYER-1
  0
TEXT
  8
MERGEDLAYER-1
 62
  7
 10
16.615385
 20
13.004949
 30
0.000000
 40
0.576923
  1
BARIL
 72
  5
 11
19.307692
 21
13.004949
 31
0.000000
  0
TEXT
  8
MERGEDLAYER-1
 62
  7
 10
16.615385
 20
12.158795
 30
0.000000
 40
0.576923
  1
4 
 72
  5
 11
17.692308
 21
12.158795
 31
0.000000
  0
TEXT
  8
MERGEDLAYER-1
 62
  7
 10
17.692308
 20
12.158795
 30
0.000000
 40
0.403846
  1
1/2
 72
  5
 11
18.846154
 21
12.158795
 31
0.000000
  0
TEXT
  8
MERGEDLAYER-1
 62
  7
 10
18.846154
 20
12.158795
 30
0.000000
 40
0.576923
  1
" (114mm) dia
 72
  5
 11
24.153846
 21
12.158795
 31
0.000000
  0
POLYLINE
  8
MERGEDLAYER-1
 66
  1
 70
  1
 62
  7
  0
VERTEX
  8
MERGEDLAYER-1
 10
47.990037
 20
54.231154
 30
0.000000
  0
VERTEX
  8
MERGEDLAYER-1
 10
48.153503
 20
54.231154
 30
0.000000
  0
VERTEX
  8
MERGEDLAYER-1
 10
48.153503
 20
53.817336
 30
0.000000
  0
VERTEX
  8
MERGEDLAYER-1
 10
47.990037
 20
53.817336
 30
0.000000
  0
SEQEND
  8
MERGEDLAYER-1
  0
POLYLINE
  8
MERGEDLAYER-1
 66
  1
 70
  1
 62
  7
  0
VERTEX
  8
MERGEDLAYER-1
 10
6.724716
 20
54.199876
 30
0.000000
  0
VERTEX
  8
MERGEDLAYER-1
 10
7.635837
 20
54.199876
 30
0.000000
  0
VERTEX
  8
MERGEDLAYER-1
 10
7.635837
 20
53.881019
 30
0.000000
  0
VERTEX
  8
MERGEDLAYER-1
 10
6.724716
 20
53.881019
 30
0.000000
  0
SEQEND
  8
MERGEDLAYER-1
  0
POLYLINE
  8
MERGEDLAYER-1
 66
  1
 70
  1
 62
  7
  0
VERTEX
  8
MERGEDLAYER-1
 10
27.606502
 20
54.200731
 30
0.000000
  0
VERTEX
  8
MERGEDLAYER-1
 10
28.517620
 20
54.200731
 30
0.000000
  0
VERTEX
  8
MERGEDLAYER-1
 10
28.517620
 20
53.881873
 30
0.000000
  0
VERTEX
  8
MERGEDLAYER-1
 10
27.606502
 20
53.881873
 30
0.000000
  0
SEQEND
  8
MERGEDLAYER-1
  0
TEXT
  8
MERGEDLAYER-1
 62
  7
 10
1.307692
 20
55.620333
 30
0.000000
 40
0.576923
  1
ARRæT
 72
  5
 11
4.307692
 21
55.620333
 31
0.000000
  0
TEXT
  8
MERGEDLAYER-1
 62
  7
 10
1.307692
 20
54.774179
 30
0.000000
 40
0.576923
  1
DU HAUT
 72
  5
 11
5.076923
 21
54.774179
 31
0.000000
  0
POLYLINE
  8
MERGEDLAYER-1
 66
  1
 70
  0
 62
  7
 10
5.230769
 20
55.504949
 30
0.000000
  0
VERTEX
  8
MERGEDLAYER-1
 10
5.230769
 20
55.504949
 30
0.000000
  0
VERTEX
  8
MERGEDLAYER-1
 10
6.694596
 20
54.120859
 30
0.000000
  0
SEQEND
  8
MERGEDLAYER-1
  0
POLYLINE
  8
MERGEDLAYER-1
 66
  1
 70
  1
 62
  7
  0
VERTEX
  8
MERGEDLAYER-1
 10
6.708899
 20
54.107333
 30
0.000000
  0
VERTEX
  8
MERGEDLAYER-1
 10
6.270882
 20
54.203900
 30
0.000000
  0
VERTEX
  8
MERGEDLAYER-1
 10
6.429430
 20
54.371582
 30
0.000000
  0
VERTEX
  8
MERGEDLAYER-1
 10
6.587977
 20
54.539260
 30
0.000000
  0
VERTEX
  8
MERGEDLAYER-1
 10
6.708899
 20
54.107333
 30
0.000000
  0
SEQEND
  8
MERGEDLAYER-1
  0
POLYLINE
  8
MERGEDLAYER-1
 66
  1
 70
  0
 62
  7
 10
48.780541
 20
14.000225
 30
0.000000
  0
VERTEX
  8
MERGEDLAYER-1
 10
48.780541
 20
14.000225
 30
0.000000
  0
VERTEX
  8
MERGEDLAYER-1
 10
44.780316
 20
14.000225
 30
0.000000
  0
SEQEND
  8
MERGEDLAYER-1
  0
POLYLINE
  8
MERGEDLAYER-1
 66
  1
 70
  0
 62
  7
 10
44.780316
 20
13.000089
 30
0.000000
  0
VERTEX
  8
MERGEDLAYER-1
 10
44.780316
 20
13.000089
 30
0.000000
  0
VERTEX
  8
MERGEDLAYER-1
 10
48.780541
 20
13.000089
 30
0.000000
  0
SEQEND
  8
MERGEDLAYER-1
  0
POLYLINE
  8
MERGEDLAYER-1
 66
  1
 70
  0
 62
  7
 10
12.152755
 20
14.000225
 30
0.000000
  0
VERTEX
  8
MERGEDLAYER-1
 10
12.152755
 20
14.000225
 30
0.000000
  0
VERTEX
  8
MERGEDLAYER-1
 10
16.152979
 20
14.000225
 30
0.000000
  0
SEQEND
  8
MERGEDLAYER-1
  0
POLYLINE
  8
MERGEDLAYER-1
 66
  1
 70
  0
 62
  7
 10
16.152979
 20
13.000089
 30
0.000000
  0
VERTEX
  8
MERGEDLAYER-1
 10
16.152979
 20
13.000089
 30
0.000000
  0
VERTEX
  8
MERGEDLAYER-1
 10
12.152755
 20
13.000089
 30
0.000000
  0
SEQEND
  8
MERGEDLAYER-1
  0
POLYLINE
  8
MERGEDLAYER-1
 66
  1
 70
  0
 62
  7
 10
16.152979
 20
15.750460
 30
0.000000
  0
VERTEX
  8
MERGEDLAYER-1
 10
16.152979
 20
15.750460
 30
0.000000
  0
VERTEX
  8
MERGEDLAYER-1
 10
16.152979
 20
11.249845
 30
0.000000
  0
SEQEND
  8
MERGEDLAYER-1
  0
POLYLINE
  8
MERGEDLAYER-1
 66
  1
 70
  0
 62
  7
 10
16.152979
 20
15.750460
 30
0.000000
  0
VERTEX
  8
MERGEDLAYER-1
 10
16.152979
 20
15.750460
 30
0.000000
  0
VERTEX
  8
MERGEDLAYER-1
 10
27.071174
 20
15.750460
 30
0.000000
  0
SEQEND
  8
MERGEDLAYER-1
  0
POLYLINE
  8
MERGEDLAYER-1
 66
  1
 70
  0
 62
  7
 10
16.152979
 20
11.249845
 30
0.000000
  0
VERTEX
  8
MERGEDLAYER-1
 10
16.152979
 20
11.249845
 30
0.000000
  0
VERTEX
  8
MERGEDLAYER-1
 10
30.222283
 20
11.249845
 30
0.000000
  0
SEQEND
  8
MERGEDLAYER-1
  0
POLYLINE
  8
MERGEDLAYER-1
 66
  1
 70
  0
 62
  7
 10
44.780316
 20
15.750460
 30
0.000000
  0
VERTEX
  8
MERGEDLAYER-1
 10
44.780316
 20
15.750460
 30
0.000000
  0
VERTEX
  8
MERGEDLAYER-1
 10
44.780316
 20
11.249845
 30
0.000000
  0
SEQEND
  8
MERGEDLAYER-1
  0
POLYLINE
  8
MERGEDLAYER-1
 66
  1
 70
  0
 62
  7
 10
44.780316
 20
15.750460
 30
0.000000
  0
VERTEX
  8
MERGEDLAYER-1
 10
44.780316
 20
15.750460
 30
0.000000
  0
VERTEX
  8
MERGEDLAYER-1
 10
28.375592
 20
15.750460
 30
0.000000
  0
SEQEND
  8
MERGEDLAYER-1
  0
POLYLINE
  8
MERGEDLAYER-1
 66
  1
 70
  0
 62
  7
 10
44.780316
 20
11.249845
 30
0.000000
  0
VERTEX
  8
MERGEDLAYER-1
 10
44.780316
 20
11.249845
 30
0.000000
  0
VERTEX
  8
MERGEDLAYER-1
 10
31.529607
 20
11.249845
 30
0.000000
  0
SEQEND
  8
MERGEDLAYER-1
  0
POLYLINE
  8
MERGEDLAYER-1
 66
  1
 70
  0
 62
  7
 10
51.307692
 20
8.851102
 30
0.000000
  0
VERTEX
  8
MERGEDLAYER-1
 10
51.307692
 20
8.851102
 30
0.000000
  0
VERTEX
  8
MERGEDLAYER-1
 10
47.931716
 20
11.861830
 30
0.000000
  0
SEQEND
  8
MERGEDLAYER-1
  0
POLYLINE
  8
MERGEDLAYER-1
 66
  1
 70
  1
 62
  7
  0
VERTEX
  8
MERGEDLAYER-1
 10
47.917025
 20
11.874934
 30
0.000000
  0
VERTEX
  8
MERGEDLAYER-1
 10
48.357671
 20
11.791171
 30
0.000000
  0
VERTEX
  8
MERGEDLAYER-1
 10
48.204073
 20
11.618943
 30
0.000000
  0
VERTEX
  8
MERGEDLAYER-1
 10
48.050476
 20
11.446716
 30
0.000000
  0
VERTEX
  8
MERGEDLAYER-1
 10
47.917025
 20
11.874934
 30
0.000000
  0
SEQEND
  8
MERGEDLAYER-1
  0
TEXT
  8
MERGEDLAYER-1
 62
  7
 10
53.000000
 20
8.774179
 30
0.000000
 40
0.576923
  1
ROUE DE
 72
  5
 11
56.923077
 21
8.774179
 31
0.000000
  0
TEXT
  8
MERGEDLAYER-1
 62
  7
 10
51.076923
 20
7.928025
 30
0.000000
 40
0.576923
  1
CHARGEMENT
 72
  5
 11
56.923077
 21
7.928025
 31
0.000000
  0
TEXT
  8
MERGEDLAYER-1
 62
  7
 10
48.692308
 20
7.081872
 30
0.000000
 40
0.576923
  1
INTƒRIEURE DROITE
 72
  5
 11
56.923077
 21
7.081872
 31
0.000000
  0
TEXT
  8
MERGEDLAYER-1
 62
  7
 10
50.230769
 20
6.235718
 30
0.000000
 40
0.576923
  1
DE 3 1/4" (83mm)
 72
  5
 11
56.923077
 21
6.235718
 31
0.000000
  0
POLYLINE
  8
MERGEDLAYER-1
 66
  1
 70
  0
 62
  7
 10
61.743986
 20
55.495465
 30
0.000000
  0
VERTEX
  8
MERGEDLAYER-1
 10
61.743986
 20
55.495465
 30
0.000000
  0
VERTEX
  8
MERGEDLAYER-1
 10
62.557692
 20
54.697256
 30
0.000000
  0
SEQEND
  8
MERGEDLAYER-1
  0
POLYLINE
  8
MERGEDLAYER-1
 66
  1
 70
  0
 62
  7
 10
62.557692
 20
55.495333
 30
0.000000
  0
VERTEX
  8
MERGEDLAYER-1
 10
62.557692
 20
55.495333
 30
0.000000
  0
VERTEX
  8
MERGEDLAYER-1
 10
61.743986
 20
54.679828
 30
0.000000
  0
SEQEND
  8
MERGEDLAYER-1
  0
POLYLINE
  8
MERGEDLAYER-1
 66
  1
 70
  0
 62
  7
 10
61.743986
 20
54.276550
 30
0.000000
  0
VERTEX
  8
MERGEDLAYER-1
 10
61.743986
 20
54.276550
 30
0.000000
  0
VERTEX
  8
MERGEDLAYER-1
 10
62.557692
 20
53.476102
 30
0.000000
  0
SEQEND
  8
MERGEDLAYER-1
  0
POLYLINE
  8
MERGEDLAYER-1
 66
  1
 70
  0
 62
  7
 10
62.557692
 20
54.283795
 30
0.000000
  0
VERTEX
  8
MERGEDLAYER-1
 10
62.557692
 20
54.283795
 30
0.000000
  0
VERTEX
  8
MERGEDLAYER-1
 10
61.743986
 20
53.460914
 30
0.000000
  0
SEQEND
  8
MERGEDLAYER-1
  0
POLYLINE
  8
MERGEDLAYER-1
 66
  1
 70
  1
 62
  7
  0
VERTEX
  8
MERGEDLAYER-1
 10
6.781879
 20
56.105018
 30
0.000000
  0
VERTEX
  8
MERGEDLAYER-1
 10
28.438181
 20
56.105018
 30
0.000000
  0
VERTEX
  8
MERGEDLAYER-1
 10
28.438181
 20
55.784668
 30
0.000000
  0
VERTEX
  8
MERGEDLAYER-1
 10
6.781879
 20
55.784668
 30
0.000000
  0
SEQEND
  8
MERGEDLAYER-1
  0
POLYLINE
  8
MERGEDLAYER-1
 66
  1
 70
  1
 62
  7
  0
VERTEX
  8
MERGEDLAYER-1
 10
8.060794
 20
56.444449
 30
0.000000
  0
VERTEX
  8
MERGEDLAYER-1
 10
27.157982
 20
56.444449
 30
0.000000
  0
VERTEX
  8
MERGEDLAYER-1
 10
27.157982
 20
55.224051
 30
0.000000
  0
VERTEX
  8
MERGEDLAYER-1
 10
8.060794
 20
55.224051
 30
0.000000
  0
SEQEND
  8
MERGEDLAYER-1
  0
POLYLINE
  8
MERGEDLAYER-1
 66
  1
 70
  1
 62
  7
  0
VERTEX
  8
MERGEDLAYER-1
 10
23.666595
 20
56.216243
 30
0.000000
  0
VERTEX
  8
MERGEDLAYER-1
 10
26.199874
 20
56.216243
 30
0.000000
  0
VERTEX
  8
MERGEDLAYER-1
 10
26.199874
 20
55.452252
 30
0.000000
  0
VERTEX
  8
MERGEDLAYER-1
 10
23.666595
 20
55.452252
 30
0.000000
  0
SEQEND
  8
MERGEDLAYER-1
  0
TEXT
  8
MERGEDLAYER-1
 62
  7
 10
23.769231
 20
55.543410
 30
0.000000
 40
0.576923
  1
BARIL
 72
  5
 11
26.461538
 21
55.543410
 31
0.000000
  0
POLYLINE
  8
MERGEDLAYER-1
 66
  1
 70
  1
 62
  7
  0
VERTEX
  8
MERGEDLAYER-1
 10
28.200390
 20
56.172528
 30
0.000000
  0
VERTEX
  8
MERGEDLAYER-1
 10
28.440636
 20
56.172528
 30
0.000000
  0
VERTEX
  8
MERGEDLAYER-1
 10
28.440636
 20
55.752066
 30
0.000000
  0
VERTEX
  8
MERGEDLAYER-1
 10
28.200390
 20
55.752066
 30
0.000000
  0
SEQEND
  8
MERGEDLAYER-1
  0
POLYLINE
  8
MERGEDLAYER-1
 66
  1
 70
  1
 62
  7
  0
VERTEX
  8
MERGEDLAYER-1
 10
27.827482
 20
56.482868
 30
0.000000
  0
VERTEX
  8
MERGEDLAYER-1
 10
28.147787
 20
56.482868
 30
0.000000
  0
VERTEX
  8
MERGEDLAYER-1
 10
28.147787
 20
55.441726
 30
0.000000
  0
VERTEX
  8
MERGEDLAYER-1
 10
27.827482
 20
55.441726
 30
0.000000
  0
SEQEND
  8
MERGEDLAYER-1
  0
POLYLINE
  8
MERGEDLAYER-1
 66
  1
 70
  0
 62
  7
 10
28.065742
 20
55.963539
 30
0.000000
  0
VERTEX
  8
MERGEDLAYER-1
 10
28.065742
 20
55.963539
 30
0.000000
  0
VERTEX
  8
MERGEDLAYER-1
 10
28.042288
 20
56.020170
 30
0.000000
  0
VERTEX
  8
MERGEDLAYER-1
 10
27.985659
 20
56.043626
 30
0.000000
  0
VERTEX
  8
MERGEDLAYER-1
 10
27.929030
 20
56.020170
 30
0.000000
  0
VERTEX
  8
MERGEDLAYER-1
 10
27.905574
 20
55.963539
 30
0.000000
  0
VERTEX
  8
MERGEDLAYER-1
 10
27.929030
 20
55.906903
 30
0.000000
  0
VERTEX
  8
MERGEDLAYER-1
 10
27.985659
 20
55.883446
 30
0.000000
  0
VERTEX
  8
MERGEDLAYER-1
 10
28.042288
 20
55.906903
 30
0.000000
  0
VERTEX
  8
MERGEDLAYER-1
 10
28.065742
 20
55.963539
 30
0.000000
  0
SEQEND
  8
MERGEDLAYER-1
  0
POLYLINE
  8
MERGEDLAYER-1
 66
  1
 70
  0
 62
  7
 10
27.985654
 20
56.407715
 30
0.000000
  0
VERTEX
  8
MERGEDLAYER-1
 10
27.985654
 20
56.407715
 30
0.000000
  0
VERTEX
  8
MERGEDLAYER-1
 10
27.929030
 20
56.392578
 30
0.000000
  0
VERTEX
  8
MERGEDLAYER-1
 10
27.905574
 20
56.356023
 30
0.000000
  0
VERTEX
  8
MERGEDLAYER-1
 10
27.929030
 20
56.319472
 30
0.000000
  0
VERTEX
  8
MERGEDLAYER-1
 10
27.985654
 20
56.304331
 30
0.000000
  0
VERTEX
  8
MERGEDLAYER-1
 10
28.042281
 20
56.319472
 30
0.000000
  0
VERTEX
  8
MERGEDLAYER-1
 10
28.065737
 20
56.356023
 30
0.000000
  0
VERTEX
  8
MERGEDLAYER-1
 10
28.042281
 20
56.392578
 30
0.000000
  0
VERTEX
  8
MERGEDLAYER-1
 10
27.985654
 20
56.407715
 30
0.000000
  0
SEQEND
  8
MERGEDLAYER-1
  0
POLYLINE
  8
MERGEDLAYER-1
 66
  1
 70
  0
 62
  7
 10
27.985654
 20
55.609018
 30
0.000000
  0
VERTEX
  8
MERGEDLAYER-1
 10
27.985654
 20
55.609018
 30
0.000000
  0
VERTEX
  8
MERGEDLAYER-1
 10
27.929030
 20
55.593881
 30
0.000000
  0
VERTEX
  8
MERGEDLAYER-1
 10
27.905574
 20
55.557326
 30
0.000000
  0
VERTEX
  8
MERGEDLAYER-1
 10
27.929030
 20
55.520775
 30
0.000000
  0
VERTEX
  8
MERGEDLAYER-1
 10
27.985654
 20
55.505634
 30
0.000000
  0
VERTEX
  8
MERGEDLAYER-1
 10
28.042281
 20
55.520775
 30
0.000000
  0
VERTEX
  8
MERGEDLAYER-1
 10
28.065737
 20
55.557326
 30
0.000000
  0
VERTEX
  8
MERGEDLAYER-1
 10
28.042281
 20
55.593881
 30
0.000000
  0
VERTEX
  8
MERGEDLAYER-1
 10
27.985654
 20
55.609018
 30
0.000000
  0
SEQEND
  8
MERGEDLAYER-1
  0
POLYLINE
  8
MERGEDLAYER-1
 66
  1
 70
  1
 62
255
  0
VERTEX
  8
MERGEDLAYER-1
 10
46.915058
 20
14.035485
 30
0.000000
  0
VERTEX
  8
MERGEDLAYER-1
 10
47.915114
 20
14.035485
 30
0.000000
  0
VERTEX
  8
MERGEDLAYER-1
 10
47.915114
 20
12.948801
 30
0.000000
  0
VERTEX
  8
MERGEDLAYER-1
 10
46.915058
 20
12.948801
 30
0.000000
  0
SEQEND
  8
MERGEDLAYER-1
  0
POLYLINE
  8
MERGEDLAYER-1
 66
  1
 70
  1
 62
  7
  0
VERTEX
  8
MERGEDLAYER-1
 10
48.040119
 20
14.156494
 30
0.000000
  0
VERTEX
  8
MERGEDLAYER-1
 10
48.790156
 20
14.156494
 30
0.000000
  0
VERTEX
  8
MERGEDLAYER-1
 10
48.790156
 20
12.843816
 30
0.000000
  0
VERTEX
  8
MERGEDLAYER-1
 10
48.040119
 20
12.843816
 30
0.000000
  0
SEQEND
  8
MERGEDLAYER-1
  0
POLYLINE
  8
MERGEDLAYER-1
 66
  1
 70
  0
 62
  7
 10
46.916973
 20
15.125376
 30
0.000000
  0
VERTEX
  8
MERGEDLAYER-1
 10
46.916973
 20
15.125376
 30
0.000000
  0
VERTEX
  8
MERGEDLAYER-1
 10
47.917025
 20
15.125376
 30
0.000000
  0
SEQEND
  8
MERGEDLAYER-1
  0
POLYLINE
  8
MERGEDLAYER-1
 66
  1
 70
  0
 62
  7
 10
47.665053
 20
13.499854
 30
0.000000
  0
VERTEX
  8
MERGEDLAYER-1
 10
47.665053
 20
13.499854
 30
0.000000
  0
VERTEX
  8
MERGEDLAYER-1
 10
47.646024
 20
13.595543
 30
0.000000
  0
VERTEX
  8
MERGEDLAYER-1
 10
47.591825
 20
13.676664
 30
0.000000
  0
VERTEX
  8
MERGEDLAYER-1
 10
47.510709
 20
13.730863
 30
0.000000
  0
VERTEX
  8
MERGEDLAYER-1
 10
47.415030
 20
13.749901
 30
0.000000
  0
VERTEX
  8
MERGEDLAYER-1
 10
47.319350
 20
13.730863
 30
0.000000
  0
VERTEX
  8
MERGEDLAYER-1
 10
47.238239
 20
13.676664
 30
0.000000
  0
VERTEX
  8
MERGEDLAYER-1
 10
47.184040
 20
13.595543
 30
0.000000
  0
VERTEX
  8
MERGEDLAYER-1
 10
47.165006
 20
13.499854
 30
0.000000
  0
VERTEX
  8
MERGEDLAYER-1
 10
47.184040
 20
13.404165
 30
0.000000
  0
VERTEX
  8
MERGEDLAYER-1
 10
47.238239
 20
13.323045
 30
0.000000
  0
VERTEX
  8
MERGEDLAYER-1
 10
47.319350
 20
13.268841
 30
0.000000
  0
VERTEX
  8
MERGEDLAYER-1
 10
47.415030
 20
13.249808
 30
0.000000
  0
VERTEX
  8
MERGEDLAYER-1
 10
47.510709
 20
13.268841
 30
0.000000
  0
VERTEX
  8
MERGEDLAYER-1
 10
47.591825
 20
13.323045
 30
0.000000
  0
VERTEX
  8
MERGEDLAYER-1
 10
47.646024
 20
13.404165
 30
0.000000
  0
VERTEX
  8
MERGEDLAYER-1
 10
47.665053
 20
13.499854
 30
0.000000
  0
SEQEND
  8
MERGEDLAYER-1
  0
POLYLINE
  8
MERGEDLAYER-1
 66
  1
 70
  0
 62
  7
 10
47.415030
 20
12.413231
 30
0.000000
  0
VERTEX
  8
MERGEDLAYER-1
 10
47.415030
 20
12.413231
 30
0.000000
  0
VERTEX
  8
MERGEDLAYER-1
 10
47.307397
 20
12.399414
 30
0.000000
  0
VERTEX
  8
MERGEDLAYER-1
 10
47.216149
 20
12.360056
 30
0.000000
  0
VERTEX
  8
MERGEDLAYER-1
 10
47.155180
 20
12.301152
 30
0.000000
  0
VERTEX
  8
MERGEDLAYER-1
 10
47.133766
 20
12.231671
 30
0.000000
  0
VERTEX
  8
MERGEDLAYER-1
 10
47.155180
 20
12.162189
 30
0.000000
  0
VERTEX
  8
MERGEDLAYER-1
 10
47.216149
 20
12.103290
 30
0.000000
  0
VERTEX
  8
MERGEDLAYER-1
 10
47.307397
 20
12.063932
 30
0.000000
  0
VERTEX
  8
MERGEDLAYER-1
 10
47.415030
 20
12.050115
 30
0.000000
  0
VERTEX
  8
MERGEDLAYER-1
 10
47.522663
 20
12.063932
 30
0.000000
  0
VERTEX
  8
MERGEDLAYER-1
 10
47.613915
 20
12.103290
 30
0.000000
  0
VERTEX
  8
MERGEDLAYER-1
 10
47.674885
 20
12.162189
 30
0.000000
  0
VERTEX
  8
MERGEDLAYER-1
 10
47.696298
 20
12.231671
 30
0.000000
  0
VERTEX
  8
MERGEDLAYER-1
 10
47.674885
 20
12.301152
 30
0.000000
  0
VERTEX
  8
MERGEDLAYER-1
 10
47.613915
 20
12.360056
 30
0.000000
  0
VERTEX
  8
MERGEDLAYER-1
 10
47.522663
 20
12.399414
 30
0.000000
  0
VERTEX
  8
MERGEDLAYER-1
 10
47.415030
 20
12.413231
 30
0.000000
  0
SEQEND
  8
MERGEDLAYER-1
  0
POLYLINE
  8
MERGEDLAYER-1
 66
  1
 70
  0
 62
  7
 10
47.415016
 20
14.886583
 30
0.000000
  0
VERTEX
  8
MERGEDLAYER-1
 10
47.415016
 20
14.886583
 30
0.000000
  0
VERTEX
  8
MERGEDLAYER-1
 10
47.319341
 20
14.874296
 30
0.000000
  0
VERTEX
  8
MERGEDLAYER-1
 10
47.238230
 20
14.839309
 30
0.000000
  0
VERTEX
  8
MERGEDLAYER-1
 10
47.184030
 20
14.786950
 30
0.000000
  0
VERTEX
  8
MERGEDLAYER-1
 10
47.165002
 20
14.725196
 30
0.000000
  0
VERTEX
  8
MERGEDLAYER-1
 10
47.184030
 20
14.663438
 30
0.000000
  0
VERTEX
  8
MERGEDLAYER-1
 10
47.238230
 20
14.611079
 30
0.000000
  0
VERTEX
  8
MERGEDLAYER-1
 10
47.319341
 20
14.576092
 30
0.000000
  0
VERTEX
  8
MERGEDLAYER-1
 10
47.415016
 20
14.563805
 30
0.000000
  0
VERTEX
  8
MERGEDLAYER-1
 10
47.510691
 20
14.576092
 30
0.000000
  0
VERTEX
  8
MERGEDLAYER-1
 10
47.591802
 20
14.611079
 30
0.000000
  0
VERTEX
  8
MERGEDLAYER-1
 10
47.646001
 20
14.663438
 30
0.000000
  0
VERTEX
  8
MERGEDLAYER-1
 10
47.665030
 20
14.725196
 30
0.000000
  0
VERTEX
  8
MERGEDLAYER-1
 10
47.646001
 20
14.786950
 30
0.000000
  0
VERTEX
  8
MERGEDLAYER-1
 10
47.591802
 20
14.839309
 30
0.000000
  0
VERTEX
  8
MERGEDLAYER-1
 10
47.510691
 20
14.874296
 30
0.000000
  0
VERTEX
  8
MERGEDLAYER-1
 10
47.415016
 20
14.886583
 30
0.000000
  0
SEQEND
  8
MERGEDLAYER-1
  0
POLYLINE
  8
MERGEDLAYER-1
 66
  1
 70
  0
 62
  7
 10
46.790048
 20
11.967891
 30
0.000000
  0
VERTEX
  8
MERGEDLAYER-1
 10
46.790048
 20
11.967891
 30
0.000000
  0
VERTEX
  8
MERGEDLAYER-1
 10
46.790048
 20
12.404903
 30
0.000000
  0
SEQEND
  8
MERGEDLAYER-1
  0
POLYLINE
  8
MERGEDLAYER-1
 66
  1
 70
  0
 62
  7
 10
46.790048
 20
12.020240
 30
0.000000
  0
VERTEX
  8
MERGEDLAYER-1
 10
46.790048
 20
12.020240
 30
0.000000
  0
VERTEX
  8
MERGEDLAYER-1
 10
46.807115
 20
11.926523
 30
0.000000
  0
VERTEX
  8
MERGEDLAYER-1
 10
46.861314
 20
11.845407
 30
0.000000
  0
VERTEX
  8
MERGEDLAYER-1
 10
46.942420
 20
11.791203
 30
0.000000
  0
VERTEX
  8
MERGEDLAYER-1
 10
47.040067
 20
11.770203
 30
0.000000
  0
SEQEND
  8
MERGEDLAYER-1
  0
POLYLINE
  8
MERGEDLAYER-1
 66
  1
 70
  0
 62
  7
 10
48.790156
 20
12.654940
 30
0.000000
  0
VERTEX
  8
MERGEDLAYER-1
 10
48.790156
 20
12.654940
 30
0.000000
  0
VERTEX
  8
MERGEDLAYER-1
 10
47.040067
 20
12.654940
 30
0.000000
  0
SEQEND
  8
MERGEDLAYER-1
  0
POLYLINE
  8
MERGEDLAYER-1
 66
  1
 70
  0
 62
  7
 10
47.040067
 20
12.654940
 30
0.000000
  0
VERTEX
  8
MERGEDLAYER-1
 10
47.040067
 20
12.654940
 30
0.000000
  0
VERTEX
  8
MERGEDLAYER-1
 10
46.942420
 20
12.637878
 30
0.000000
  0
VERTEX
  8
MERGEDLAYER-1
 10
46.861314
 20
12.583675
 30
0.000000
  0
VERTEX
  8
MERGEDLAYER-1
 10
46.807115
 20
12.502559
 30
0.000000
  0
VERTEX
  8
MERGEDLAYER-1
 10
46.790048
 20
12.404903
 30
0.000000
  0
SEQEND
  8
MERGEDLAYER-1
  0
POLYLINE
  8
MERGEDLAYER-1
 66
  1
 70
  0
 62
  7
 10
48.790156
 20
12.654940
 30
0.000000
  0
VERTEX
  8
MERGEDLAYER-1
 10
48.790156
 20
12.654940
 30
0.000000
  0
VERTEX
  8
MERGEDLAYER-1
 10
48.790156
 20
11.770203
 30
0.000000
  0
SEQEND
  8
MERGEDLAYER-1
  0
POLYLINE
  8
MERGEDLAYER-1
 66
  1
 70
  0
 62
  7
 10
48.790156
 20
11.770203
 30
0.000000
  0
VERTEX
  8
MERGEDLAYER-1
 10
48.790156
 20
11.770203
 30
0.000000
  0
VERTEX
  8
MERGEDLAYER-1
 10
47.040067
 20
11.770203
 30
0.000000
  0
SEQEND
  8
MERGEDLAYER-1
  0
POLYLINE
  8
MERGEDLAYER-1
 66
  1
 70
  0
 62
  7
 10
48.665156
 20
12.654940
 30
0.000000
  0
VERTEX
  8
MERGEDLAYER-1
 10
48.665156
 20
12.654940
 30
0.000000
  0
VERTEX
  8
MERGEDLAYER-1
 10
48.665156
 20
11.765944
 30
0.000000
  0
SEQEND
  8
MERGEDLAYER-1
  0
POLYLINE
  8
MERGEDLAYER-1
 66
  1
 70
  0
 62
  7
 10
46.915058
 20
12.621826
 30
0.000000
  0
VERTEX
  8
MERGEDLAYER-1
 10
46.915058
 20
12.621826
 30
0.000000
  0
VERTEX
  8
MERGEDLAYER-1
 10
46.917025
 20
15.125376
 30
0.000000
  0
SEQEND
  8
MERGEDLAYER-1
  0
POLYLINE
  8
MERGEDLAYER-1
 66
  1
 70
  0
 62
  7
 10
47.917025
 20
15.125376
 30
0.000000
  0
VERTEX
  8
MERGEDLAYER-1
 10
47.917025
 20
15.125376
 30
0.000000
  0
VERTEX
  8
MERGEDLAYER-1
 10
47.915114
 20
12.660297
 30
0.000000
  0
SEQEND
  8
MERGEDLAYER-1
  0
POLYLINE
  8
MERGEDLAYER-1
 66
  1
 70
  1
 62
  7
  0
VERTEX
  8
MERGEDLAYER-1
 10
1.520865
 20
53.005817
 30
0.000000
  0
VERTEX
  8
MERGEDLAYER-1
 10
32.697449
 20
53.005817
 30
0.000000
  0
VERTEX
  8
MERGEDLAYER-1
 10
32.697449
 20
52.818538
 30
0.000000
  0
VERTEX
  8
MERGEDLAYER-1
 10
1.520865
 20
52.818538
 30
0.000000
  0
SEQEND
  8
MERGEDLAYER-1
  0
POLYLINE
  8
MERGEDLAYER-1
 66
  1
 70
  1
 62
  7
  0
VERTEX
  8
MERGEDLAYER-1
 10
22.928603
 20
53.028283
 30
0.000000
  0
VERTEX
  8
MERGEDLAYER-1
 10
29.651959
 20
53.028283
 30
0.000000
  0
VERTEX
  8
MERGEDLAYER-1
 10
29.651959
 20
52.801072
 30
0.000000
  0
VERTEX
  8
MERGEDLAYER-1
 10
22.928603
 20
52.801072
 30
0.000000
  0
SEQEND
  8
MERGEDLAYER-1
  0
POLYLINE
  8
MERGEDLAYER-1
 66
  1
 70
  0
 62
  7
 10
22.922636
 20
53.294030
 30
0.000000
  0
VERTEX
  8
MERGEDLAYER-1
 10
22.922636
 20
53.294030
 30
0.000000
  0
VERTEX
  8
MERGEDLAYER-1
 10
22.922636
 20
52.710477
 30
0.000000
  0
SEQEND
  8
MERGEDLAYER-1
  0
POLYLINE
  8
MERGEDLAYER-1
 66
  1
 70
  0
 62
  7
 10
23.439972
 20
52.710477
 30
0.000000
  0
VERTEX
  8
MERGEDLAYER-1
 10
23.439972
 20
52.710477
 30
0.000000
  0
VERTEX
  8
MERGEDLAYER-1
 10
22.922636
 20
52.710477
 30
0.000000
  0
SEQEND
  8
MERGEDLAYER-1
  0
POLYLINE
  8
MERGEDLAYER-1
 66
  1
 70
  0
 62
  7
 10
29.658633
 20
53.285180
 30
0.000000
  0
VERTEX
  8
MERGEDLAYER-1
 10
29.658633
 20
53.285180
 30
0.000000
  0
VERTEX
  8
MERGEDLAYER-1
 10
29.658633
 20
52.710477
 30
0.000000
  0
SEQEND
  8
MERGEDLAYER-1
  0
POLYLINE
  8
MERGEDLAYER-1
 66
  1
 70
  0
 62
  7
 10
29.141301
 20
52.710477
 30
0.000000
  0
VERTEX
  8
MERGEDLAYER-1
 10
29.141301
 20
52.710477
 30
0.000000
  0
VERTEX
  8
MERGEDLAYER-1
 10
29.658633
 20
52.710477
 30
0.000000
  0
SEQEND
  8
MERGEDLAYER-1
  0
POLYLINE
  8
MERGEDLAYER-1
 66
  1
 70
  1
 62
  7
  0
VERTEX
  8
MERGEDLAYER-1
 10
23.154743
 20
52.967295
 30
0.000000
  0
VERTEX
  8
MERGEDLAYER-1
 10
29.404658
 20
52.967295
 30
0.000000
  0
VERTEX
  8
MERGEDLAYER-1
 10
29.404658
 20
52.856060
 30
0.000000
  0
VERTEX
  8
MERGEDLAYER-1
 10
23.154743
 20
52.856060
 30
0.000000
  0
SEQEND
  8
MERGEDLAYER-1
  0
POLYLINE
  8
MERGEDLAYER-1
 66
  1
 70
  1
 62
  7
  0
VERTEX
  8
MERGEDLAYER-1
 10
49.076923
 20
53.035457
 30
0.000000
  0
VERTEX
  8
MERGEDLAYER-1
 10
59.802115
 20
53.035457
 30
0.000000
  0
VERTEX
  8
MERGEDLAYER-1
 10
59.802115
 20
52.829862
 30
0.000000
  0
VERTEX
  8
MERGEDLAYER-1
 10
49.076923
 20
52.829862
 30
0.000000
  0
SEQEND
  8
MERGEDLAYER-1
  0
POLYLINE
  8
MERGEDLAYER-1
 66
  1
 70
  1
 62
  7
  0
VERTEX
  8
MERGEDLAYER-1
 10
43.190491
 20
53.018545
 30
0.000000
  0
VERTEX
  8
MERGEDLAYER-1
 10
47.094558
 20
53.018545
 30
0.000000
  0
VERTEX
  8
MERGEDLAYER-1
 10
47.094558
 20
52.815228
 30
0.000000
  0
VERTEX
  8
MERGEDLAYER-1
 10
43.190491
 20
52.815228
 30
0.000000
  0
SEQEND
  8
MERGEDLAYER-1
  0
POLYLINE
  8
MERGEDLAYER-1
 66
  1
 70
  0
 62
  7
 10
29.677002
 20
53.292260
 30
0.000000
  0
VERTEX
  8
MERGEDLAYER-1
 10
29.677002
 20
53.292260
 30
0.000000
  0
VERTEX
  8
MERGEDLAYER-1
 10
31.199768
 20
53.879164
 30
0.000000
  0
SEQEND
  8
MERGEDLAYER-1
  0
POLYLINE
  8
MERGEDLAYER-1
 66
  1
 70
  1
 62
  7
  0
VERTEX
  8
MERGEDLAYER-1
 10
29.658633
 20
53.285180
 30
0.000000
  0
VERTEX
  8
MERGEDLAYER-1
 10
30.100508
 20
53.208177
 30
0.000000
  0
VERTEX
  8
MERGEDLAYER-1
 10
30.017515
 20
53.423504
 30
0.000000
  0
VERTEX
  8
MERGEDLAYER-1
 10
29.934521
 20
53.638832
 30
0.000000
  0
VERTEX
  8
MERGEDLAYER-1
 10
29.658633
 20
53.285180
 30
0.000000
  0
SEQEND
  8
MERGEDLAYER-1
  0
POLYLINE
  8
MERGEDLAYER-1
 66
  1
 70
  0
 62
  7
 10
31.199768
 20
53.879164
 30
0.000000
  0
VERTEX
  8
MERGEDLAYER-1
 10
31.199768
 20
53.879164
 30
0.000000
  0
VERTEX
  8
MERGEDLAYER-1
 10
31.199768
 20
55.592515
 30
0.000000
  0
SEQEND
  8
MERGEDLAYER-1
  0
TEXT
  8
MERGEDLAYER-1
 62
  7
 10
27.538462
 20
19.928025
 30
0.000000
 40
0.807692
  1
EXTƒRIEUR
 72
  5
 11
34.000000
 21
19.928025
 31
0.000000
  0
TEXT
  8
MERGEDLAYER-1
 62
  7
 10
23.230769
 20
5.081872
 30
0.000000
 40
0.807692
  1
INTƒRIEUR ( CïTƒ SƒCURE )
 72
  5
 11
38.769231
 21
5.081872
 31
0.000000
  0
POLYLINE
  8
MERGEDLAYER-1
 66
  1
 70
  0
 62
  7
 10
27.908764
 20
43.875948
 30
0.000000
  0
VERTEX
  8
MERGEDLAYER-1
 10
27.908764
 20
43.875948
 30
0.000000
  0
VERTEX
  8
MERGEDLAYER-1
 10
7.300325
 20
43.875948
 30
0.000000
  0
SEQEND
  8
MERGEDLAYER-1
  0
TEXT
  8
MERGEDLAYER-1
 62
  7
 10
68.538462
 20
15.158795
 30
0.000000
 40
0.980769
  1
AnodisŽ naturel
 72
  5
 11
77.615385
 21
15.158795
 31
0.000000
  0
POLYLINE
  8
MERGEDLAYER-1
 66
  1
 70
  1
 62
  7
  0
VERTEX
  8
MERGEDLAYER-1
 10
18.910290
 20
19.128897
 30
0.000000
  0
VERTEX
  8
MERGEDLAYER-1
 10
19.156910
 20
19.309326
 30
0.000000
  0
VERTEX
  8
MERGEDLAYER-1
 10
21.174227
 20
16.551096
 30
0.000000
  0
VERTEX
  8
MERGEDLAYER-1
 10
20.927669
 20
16.370638
 30
0.000000
  0
SEQEND
  8
MERGEDLAYER-1
  0
POLYLINE
  8
MERGEDLAYER-1
 66
  1
 70
  0
 62
  7
 10
20.016667
 20
17.916476
 30
0.000000
  0
VERTEX
  8
MERGEDLAYER-1
 10
20.016667
 20
17.916476
 30
0.000000
  0
VERTEX
  8
MERGEDLAYER-1
 10
19.083151
 20
19.185073
 30
0.000000
  0
SEQEND
  8
MERGEDLAYER-1
  0
POLYLINE
  8
MERGEDLAYER-1
 66
  1
 70
  0
 62
  7
 10
20.223177
 20
17.634282
 30
0.000000
  0
VERTEX
  8
MERGEDLAYER-1
 10
20.223177
 20
17.634282
 30
0.000000
  0
VERTEX
  8
MERGEDLAYER-1
 10
21.034583
 20
16.521376
 30
0.000000
  0
SEQEND
  8
MERGEDLAYER-1
  0
POLYLINE
  8
MERGEDLAYER-1
 66
  1
 70
  0
 62
  7
 10
20.016667
 20
17.916476
 30
0.000000
  0
VERTEX
  8
MERGEDLAYER-1
 10
20.016667
 20
17.916476
 30
0.000000
  0
VERTEX
  8
MERGEDLAYER-1
 10
20.403978
 20
17.983323
 30
0.000000
  0
SEQEND
  8
MERGEDLAYER-1
  0
POLYLINE
  8
MERGEDLAYER-1
 66
  1
 70
  0
 62
  7
 10
20.223177
 20
17.634282
 30
0.000000
  0
VERTEX
  8
MERGEDLAYER-1
 10
20.223177
 20
17.634282
 30
0.000000
  0
VERTEX
  8
MERGEDLAYER-1
 10
19.835869
 20
17.567434
 30
0.000000
  0
SEQEND
  8
MERGEDLAYER-1
  0
POLYLINE
  8
MERGEDLAYER-1
 66
  1
 70
  0
 62
  7
 10
20.403978
 20
17.983323
 30
0.000000
  0
VERTEX
  8
MERGEDLAYER-1
 10
20.403978
 20
17.983323
 30
0.000000
  0
VERTEX
  8
MERGEDLAYER-1
 10
19.835869
 20
17.567434
 30
0.000000
  0
SEQEND
  8
MERGEDLAYER-1
  0
POLYLINE
  8
MERGEDLAYER-1
 66
  1
 70
  1
 62
  7
  0
VERTEX
  8
MERGEDLAYER-1
 10
39.630277
 20
19.132404
 30
0.000000
  0
VERTEX
  8
MERGEDLAYER-1
 10
39.876897
 20
19.312833
 30
0.000000
  0
VERTEX
  8
MERGEDLAYER-1
 10
41.894212
 20
16.554603
 30
0.000000
  0
VERTEX
  8
MERGEDLAYER-1
 10
41.647597
 20
16.374174
 30
0.000000
  0
SEQEND
  8
MERGEDLAYER-1
  0
POLYLINE
  8
MERGEDLAYER-1
 66
  1
 70
  0
 62
  7
 10
40.736657
 20
17.919983
 30
0.000000
  0
VERTEX
  8
MERGEDLAYER-1
 10
40.736657
 20
17.919983
 30
0.000000
  0
VERTEX
  8
MERGEDLAYER-1
 10
39.803138
 20
19.188580
 30
0.000000
  0
SEQEND
  8
MERGEDLAYER-1
  0
POLYLINE
  8
MERGEDLAYER-1
 66
  1
 70
  0
 62
  7
 10
40.943167
 20
17.637817
 30
0.000000
  0
VERTEX
  8
MERGEDLAYER-1
 10
40.943167
 20
17.637817
 30
0.000000
  0
VERTEX
  8
MERGEDLAYER-1
 10
41.754573
 20
16.524916
 30
0.000000
  0
SEQEND
  8
MERGEDLAYER-1
  0
POLYLINE
  8
MERGEDLAYER-1
 66
  1
 70
  0
 62
  7
 10
40.736657
 20
17.919983
 30
0.000000
  0
VERTEX
  8
MERGEDLAYER-1
 10
40.736657
 20
17.919983
 30
0.000000
  0
VERTEX
  8
MERGEDLAYER-1
 10
41.123967
 20
17.986830
 30
0.000000
  0
SEQEND
  8
MERGEDLAYER-1
  0
POLYLINE
  8
MERGEDLAYER-1
 66
  1
 70
  0
 62
  7
 10
40.943167
 20
17.637817
 30
0.000000
  0
VERTEX
  8
MERGEDLAYER-1
 10
40.943167
 20
17.637817
 30
0.000000
  0
VERTEX
  8
MERGEDLAYER-1
 10
40.555857
 20
17.570942
 30
0.000000
  0
SEQEND
  8
MERGEDLAYER-1
  0
POLYLINE
  8
MERGEDLAYER-1
 66
  1
 70
  0
 62
  7
 10
41.123967
 20
17.986830
 30
0.000000
  0
VERTEX
  8
MERGEDLAYER-1
 10
41.123967
 20
17.986830
 30
0.000000
  0
VERTEX
  8
MERGEDLAYER-1
 10
40.555857
 20
17.570942
 30
0.000000
  0
SEQEND
  8
MERGEDLAYER-1
  0
TEXT
  8
MERGEDLAYER-1
 62
 65
 10
71.615385
 20
6.851102
 30
0.000000
 40
1.961538
  1
Mobil
 72
  5
 11
79.230769
 21
6.851102
 31
0.000000
  0
TEXT
  8
MERGEDLAYER-1
 62
  7
 10
79.230769
 20
6.851102
 30
0.000000
 40
1.961538
  1
Flex
 72
  5
 11
84.846154
 21
6.851102
 31
0.000000
  0
POLYLINE
  8
MERGEDLAYER-1
 66
  1
 70
  1
 62
 65
  0
VERTEX
  8
MERGEDLAYER-1
 10
61.472478
 20
6.403142
 30
0.000000
  0
VERTEX
  8
MERGEDLAYER-1
 10
84.285842
 20
6.403142
 30
0.000000
  0
VERTEX
  8
MERGEDLAYER-1
 10
84.285842
 20
6.155452
 30
0.000000
  0
VERTEX
  8
MERGEDLAYER-1
 10
61.472478
 20
6.155452
 30
0.000000
  0
SEQEND
  8
MERGEDLAYER-1
  0
POLYLINE
  8
MERGEDLAYER-1
 66
  1
 70
  1
 62
 65
  0
VERTEX
  8
MERGEDLAYER-1
 10
61.472478
 20
9.787372
 30
0.000000
  0
VERTEX
  8
MERGEDLAYER-1
 10
62.802974
 20
9.787372
 30
0.000000
  0
VERTEX
  8
MERGEDLAYER-1
 10
62.802974
 20
6.857286
 30
0.000000
  0
VERTEX
  8
MERGEDLAYER-1
 10
61.472478
 20
6.857286
 30
0.000000
  0
SEQEND
  8
MERGEDLAYER-1
  0
POLYLINE
  8
MERGEDLAYER-1
 66
  1
 70
  1
 62
 65
  0
VERTEX
  8
MERGEDLAYER-1
 10
63.240812
 20
9.787372
 30
0.000000
  0
VERTEX
  8
MERGEDLAYER-1
 10
64.571303
 20
9.787372
 30
0.000000
  0
VERTEX
  8
MERGEDLAYER-1
 10
64.571303
 20
6.857286
 30
0.000000
  0
VERTEX
  8
MERGEDLAYER-1
 10
63.240812
 20
6.857286
 30
0.000000
  0
SEQEND
  8
MERGEDLAYER-1
  0
POLYLINE
  8
MERGEDLAYER-1
 66
  1
 70
  1
 62
 65
  0
VERTEX
  8
MERGEDLAYER-1
 10
64.943378
 20
9.787372
 30
0.000000
  0
VERTEX
  8
MERGEDLAYER-1
 10
66.273841
 20
9.787372
 30
0.000000
  0
VERTEX
  8
MERGEDLAYER-1
 10
66.273841
 20
6.857286
 30
0.000000
  0
VERTEX
  8
MERGEDLAYER-1
 10
64.943378
 20
6.857286
 30
0.000000
  0
SEQEND
  8
MERGEDLAYER-1
  0
POLYLINE
  8
MERGEDLAYER-1
 66
  1
 70
  1
 62
 65
  0
VERTEX
  8
MERGEDLAYER-1
 10
66.662100
 20
9.787372
 30
0.000000
  0
VERTEX
  8
MERGEDLAYER-1
 10
68.007296
 20
9.787372
 30
0.000000
  0
VERTEX
  8
MERGEDLAYER-1
 10
68.007296
 20
6.857286
 30
0.000000
  0
VERTEX
  8
MERGEDLAYER-1
 10
66.662100
 20
6.857286
 30
0.000000
  0
SEQEND
  8
MERGEDLAYER-1
  0
POLYLINE
  8
MERGEDLAYER-1
 66
  1
 70
  1
 62
 65
  0
VERTEX
  8
MERGEDLAYER-1
 10
68.460083
 20
9.787372
 30
0.000000
  0
VERTEX
  8
MERGEDLAYER-1
 10
70.595323
 20
9.787372
 30
0.000000
  0
VERTEX
  8
MERGEDLAYER-1
 10
70.595323
 20
9.026973
 30
0.000000
  0
VERTEX
  8
MERGEDLAYER-1
 10
68.460083
 20
9.026973
 30
0.000000
  0
SEQEND
  8
MERGEDLAYER-1
  0
POLYLINE
  8
MERGEDLAYER-1
 66
  1
 70
  1
 62
 65
  0
VERTEX
  8
MERGEDLAYER-1
 10
68.458543
 20
8.501751
 30
0.000000
  0
VERTEX
  8
MERGEDLAYER-1
 10
70.226412
 20
8.501751
 30
0.000000
  0
VERTEX
  8
MERGEDLAYER-1
 10
70.226412
 20
7.739140
 30
0.000000
  0
VERTEX
  8
MERGEDLAYER-1
 10
68.458543
 20
7.739140
 30
0.000000
  0
SEQEND
  8
MERGEDLAYER-1
  0
TEXT
  8
MERGEDLAYER-1
 62
  7
 10
61.461538
 20
4.928025
 30
0.000000
 40
0.634615
  1
NEW YORK . TORONTO . QUƒBEC . LONDRES . PARIS
 72
  5
 11
81.923077
 21
4.928025
 31
0.000000
  0
TEXT
  8
MERGEDLAYER-1
 62
  7
 10
30.769231
 20
61.543410
 30
0.000000
 40
0.576923
  1
CONTRACTEUR
 72
  5
 11
37.000000
 21
61.543410
 31
0.000000
  0
TEXT
  8
MERGEDLAYER-1
 62
  7
 10
30.769231
 20
60.697256
 30
0.000000
 40
0.576923
  1
DOIT FOURNIR
 72
  5
 11
36.692308
 21
60.697256
 31
0.000000
  0
TEXT
  8
MERGEDLAYER-1
 62
  7
 10
30.769231
 20
59.851102
 30
0.000000
 40
0.576923
  1
PANNEAU D'ACCéS
 72
  5
 11
38.538462
 21
59.851102
 31
0.000000
  0
TEXT
  8
MERGEDLAYER-1
 62
  7
 10
30.769231
 20
59.004949
 30
0.000000
 40
0.576923
  1
AU PLAFOND
 72
  5
 11
36.153846
 21
59.004949
 31
0.000000
  0
TEXT
  8
MERGEDLAYER-1
 62
  7
 10
30.769231
 20
58.158795
 30
0.000000
 40
0.576923
  1
24" x 24"
 72
  5
 11
34.461538
 21
58.158795
 31
0.000000
  0
TEXT
  8
MERGEDLAYER-1
 62
  7
 10
30.769231
 20
57.312641
 30
0.000000
 40
0.576923
  1
(610x610mm)
 72
  5
 11
36.000000
 21
57.312641
 31
0.000000
  0
TEXT
  8
MERGEDLAYER-1
 62
  7
 10
30.769231
 20
56.466487
 30
0.000000
 40
0.576923
  1
SOUS ROUE DE
 72
  5
 11
37.153846
 21
56.466487
 31
0.000000
  0
TEXT
  8
MERGEDLAYER-1
 62
  7
 10
30.769231
 20
55.620333
 30
0.000000
 40
0.576923
  1
CHARGEMENT
 72
  5
 11
36.615385
 21
55.620333
 31
0.000000
  0
POLYLINE
  8
MERGEDLAYER-1
 66
  1
 70
  0
 62
  7
 10
18.082473
 20
63.522264
 30
0.000000
  0
VERTEX
  8
MERGEDLAYER-1
 10
18.082473
 20
63.522264
 30
0.000000
  0
VERTEX
  8
MERGEDLAYER-1
 10
18.096183
 20
61.444481
 30
0.000000
  0
SEQEND
  8
MERGEDLAYER-1
  0
POLYLINE
  8
MERGEDLAYER-1
 66
  1
 70
  1
 62
  7
  0
VERTEX
  8
MERGEDLAYER-1
 10
18.082342
 20
63.541950
 30
0.000000
  0
VERTEX
  8
MERGEDLAYER-1
 10
17.854114
 20
63.155818
 30
0.000000
  0
VERTEX
  8
MERGEDLAYER-1
 10
18.084879
 20
63.157339
 30
0.000000
  0
VERTEX
  8
MERGEDLAYER-1
 10
18.315643
 20
63.158865
 30
0.000000
  0
VERTEX
  8
MERGEDLAYER-1
 10
18.082342
 20
63.541950
 30
0.000000
  0
SEQEND
  8
MERGEDLAYER-1
  0
TEXT
  8
MERGEDLAYER-1
 62
  7
 10
18.307692
 20
61.774179
 30
0.000000
 40
0.576923
  1
STRUCTURE
 72
  5
 11
23.384615
 21
61.774179
 31
0.000000
  0
TEXT
  8
MERGEDLAYER-1
 62
  7
 10
51.769231
 20
54.928025
 30
0.000000
 40
0.576923
  1
6" MIN
 50
90.000000
 72
  5
 11
51.769231
 21
57.697256
 31
0.000000
  0
TEXT
  8
MERGEDLAYER-1
 62
  7
 10
53.000000
 20
54.466487
 30
0.000000
 40
0.576923
  1
152 mm
 50
90.000000
 72
  5
 11
53.000000
 21
57.697256
 31
0.000000
  0
LINE
  8
MERGEDLAYER-1
 62
  7
 10
52.192308
 20
52.812641
 30
0.000000
 11
52.192308
 21
54.643254
 31
0.000000
  0
LINE
  8
MERGEDLAYER-1
 62
  7
 10
50.000000
 20
52.812641
 30
0.000000
 11
53.192308
 21
52.812641
 31
0.000000
  0
LINE
  8
MERGEDLAYER-1
 62
  7
 10
50.714257
 20
54.643254
 30
0.000000
 11
53.192308
 21
54.643254
 31
0.000000
  0
LINE
  8
MERGEDLAYER-1
 62
  7
 10
52.192308
 20
55.984680
 30
0.000000
 11
52.192308
 21
52.812641
 31
0.000000
  0
LINE
  8
MERGEDLAYER-1
 62
  7
 10
52.029137
 20
52.975821
 30
0.000000
 11
52.355483
 21
52.649461
 31
0.000000
  0
LINE
  8
MERGEDLAYER-1
 62
  7
 10
52.029137
 20
54.806434
 30
0.000000
 11
52.355483
 21
54.480070
 31
0.000000
  0
TEXT
  8
MERGEDLAYER-1
 62
  7
 10
51.664692
 20
55.359988
 30
0.000000
 40
0.346154
  1
 
 50
90.000000
  0
TEXT
  8
MERGEDLAYER-1
 62
  7
 10
55.153846
 20
53.389564
 30
0.000000
 40
0.461538
  1
PLAFOND FINI
 72
  5
 11
59.692308
 21
53.389564
 31
0.000000
  0
TEXT
  8
MERGEDLAYER-1
 62
  7
 10
49.153846
 20
51.389564
 30
0.000000
 40
0.576923
  1
6" MIN
 72
  5
 11
51.923077
 21
51.389564
 31
0.000000
  0
TEXT
  8
MERGEDLAYER-1
 62
  7
 10
48.692308
 20
50.158795
 30
0.000000
 40
0.576923
  1
152 mm
 72
  5
 11
51.923077
 21
50.158795
 31
0.000000
  0
POLYLINE
  8
MERGEDLAYER-1
 66
  1
 70
  0
 62
  7
 10
51.853431
 20
51.051072
 30
0.000000
  0
VERTEX
  8
MERGEDLAYER-1
 10
51.853431
 20
51.051072
 30
0.000000
  0
VERTEX
  8
MERGEDLAYER-1
 10
47.135733
 20
51.051072
 30
0.000000
  0
SEQEND
  8
MERGEDLAYER-1
  0
LINE
  8
MERGEDLAYER-1
 62
  7
 10
46.972558
 20
50.887893
 30
0.000000
 11
47.298913
 21
51.214252
 31
0.000000
  0
POLYLINE
  8
MERGEDLAYER-1
 66
  1
 70
  0
 62
  7
 10
49.065542
 20
50.109244
 30
0.000000
  0
VERTEX
  8
MERGEDLAYER-1
 10
49.065542
 20
50.109244
 30
0.000000
  0
VERTEX
  8
MERGEDLAYER-1
 10
49.065542
 20
52.658419
 30
0.000000
  0
SEQEND
  8
MERGEDLAYER-1
  0
POLYLINE
  8
MERGEDLAYER-1
 66
  1
 70
  0
 62
  7
 10
47.135733
 20
50.094069
 30
0.000000
  0
VERTEX
  8
MERGEDLAYER-1
 10
47.135733
 20
50.094069
 30
0.000000
  0
VERTEX
  8
MERGEDLAYER-1
 10
47.135733
 20
52.661682
 30
0.000000
  0
SEQEND
  8
MERGEDLAYER-1
  0
POLYLINE
  8
MERGEDLAYER-1
 66
  1
 70
  1
 62
  7
  0
VERTEX
  8
MERGEDLAYER-1
 10
55.036912
 20
44.593910
 30
0.000000
  0
VERTEX
  8
MERGEDLAYER-1
 10
55.036912
 20
51.378995
 30
0.000000
  0
VERTEX
  8
MERGEDLAYER-1
 10
58.269005
 20
51.378995
 30
0.000000
  0
VERTEX
  8
MERGEDLAYER-1
 10
58.269005
 20
44.593910
 30
0.000000
  0
SEQEND
  8
MERGEDLAYER-1
  0
POLYLINE
  8
MERGEDLAYER-1
 66
  1
 70
  0
 62
  7
 40
0.230769
 41
0.230769
 10
58.066970
 20
51.334942
 30
0.000000
  0
VERTEX
  8
MERGEDLAYER-1
 10
58.066970
 20
51.334942
 30
0.000000
  0
VERTEX
  8
MERGEDLAYER-1
 10
58.066970
 20
44.593910
 30
0.000000
  0
SEQEND
  8
MERGEDLAYER-1
  0
POLYLINE
  8
MERGEDLAYER-1
 66
  1
 70
  0
 62
  7
 10
8.548550
 20
8.926373
 30
0.000000
  0
VERTEX
  8
MERGEDLAYER-1
 10
8.548550
 20
8.926373
 30
0.000000
  0
VERTEX
  8
MERGEDLAYER-1
 10
11.924522
 20
11.937106
 30
0.000000
  0
SEQEND
  8
MERGEDLAYER-1
  0
POLYLINE
  8
MERGEDLAYER-1
 66
  1
 70
  1
 62
  7
  0
VERTEX
  8
MERGEDLAYER-1
 10
11.939214
 20
11.950205
 30
0.000000
  0
VERTEX
  8
MERGEDLAYER-1
 10
11.805763
 20
11.521982
 30
0.000000
  0
VERTEX
  8
MERGEDLAYER-1
 10
11.652167
 20
11.694209
 30
0.000000
  0
VERTEX
  8
MERGEDLAYER-1
 10
11.498570
 20
11.866436
 30
0.000000
  0
VERTEX
  8
MERGEDLAYER-1
 10
11.939214
 20
11.950205
 30
0.000000
  0
SEQEND
  8
MERGEDLAYER-1
  0
LINE
  8
MERGEDLAYER-1
 62
  7
 10
50.204327
 20
17.266357
 30
0.000000
 11
50.204327
 21
18.476957
 31
0.000000
  0
LINE
  8
MERGEDLAYER-1
 62
  7
 10
49.808730
 20
17.246676
 30
0.000000
 11
51.204327
 21
17.246676
 31
0.000000
  0
LINE
  8
MERGEDLAYER-1
 62
  7
 10
49.808730
 20
18.496638
 30
0.000000
 11
51.204327
 21
18.496638
 31
0.000000
  0
POLYLINE
  8
MERGEDLAYER-1
 66
  1
 70
  1
 62
  7
  0
VERTEX
  8
MERGEDLAYER-1
 10
50.204327
 20
17.246676
 30
0.000000
  0
VERTEX
  8
MERGEDLAYER-1
 10
50.435096
 20
17.631291
 30
0.000000
  0
VERTEX
  8
MERGEDLAYER-1
 10
50.204327
 20
17.631291
 30
0.000000
  0
VERTEX
  8
MERGEDLAYER-1
 10
49.973558
 20
17.631291
 30
0.000000
  0
VERTEX
  8
MERGEDLAYER-1
 10
50.204327
 20
17.246676
 30
0.000000
  0
SEQEND
  8
MERGEDLAYER-1
  0
POLYLINE
  8
MERGEDLAYER-1
 66
  1
 70
  1
 62
  7
  0
VERTEX
  8
MERGEDLAYER-1
 10
50.204327
 20
18.496638
 30
0.000000
  0
VERTEX
  8
MERGEDLAYER-1
 10
50.435096
 20
18.112023
 30
0.000000
  0
VERTEX
  8
MERGEDLAYER-1
 10
50.204327
 20
18.112023
 30
0.000000
  0
VERTEX
  8
MERGEDLAYER-1
 10
49.973558
 20
18.112023
 30
0.000000
  0
VERTEX
  8
MERGEDLAYER-1
 10
50.204327
 20
18.496638
 30
0.000000
  0
SEQEND
  8
MERGEDLAYER-1
  0
TEXT
  8
MERGEDLAYER-1
 62
  7
 10
51.197364
 20
17.821364
 30
0.000000
 40
0.692308
  1
 
 50
90.000000
  0
TEXT
  8
MERGEDLAYER-1
 62
  7
 10
51.461538
 20
20.235718
 30
0.000000
 40
0.750000
  1
2" - 51mm
 72
  5
 11
56.461538
 21
20.235718
 31
0.000000
  0
TEXT
  8
MERGEDLAYER-1
 62
  7
 10
50.846154
 20
17.543410
 30
0.000000
 40
0.750000
  1
1 1/4" - 32mm
 72
  5
 11
57.538462
 21
17.543410
 31
0.000000
  0
POLYLINE
  8
MERGEDLAYER-1
 66
  1
 70
  0
 62
  7
 10
13.534839
 20
18.566162
 30
0.000000
  0
VERTEX
  8
MERGEDLAYER-1
 10
13.534839
 20
18.566162
 30
0.000000
  0
VERTEX
  8
MERGEDLAYER-1
 10
16.423077
 20
22.186035
 30
0.000000
  0
SEQEND
  8
MERGEDLAYER-1
  0
POLYLINE
  8
MERGEDLAYER-1
 66
  1
 70
  1
 62
  7
  0
VERTEX
  8
MERGEDLAYER-1
 10
13.522562
 20
18.550772
 30
0.000000
  0
VERTEX
  8
MERGEDLAYER-1
 10
13.942828
 20
18.707491
 30
0.000000
  0
VERTEX
  8
MERGEDLAYER-1
 10
13.762442
 20
18.851417
 30
0.000000
  0
VERTEX
  8
MERGEDLAYER-1
 10
13.582056
 20
18.995343
 30
0.000000
  0
VERTEX
  8
MERGEDLAYER-1
 10
13.522562
 20
18.550772
 30
0.000000
  0
SEQEND
  8
MERGEDLAYER-1
  0
TEXT
  8
MERGEDLAYER-1
 62
  7
 10
53.000000
 20
33.851102
 30
0.000000
 40
0.576923
  1
BARRE DU BAS
 72
  5
 11
59.230769
 21
33.851102
 31
0.000000
  0
POLYLINE
  8
MERGEDLAYER-1
 66
  1
 70
  0
 62
  7
 10
56.550401
 20
32.190193
 30
0.000000
  0
VERTEX
  8
MERGEDLAYER-1
 10
56.550401
 20
32.190193
 30
0.000000
  0
VERTEX
  8
MERGEDLAYER-1
 10
58.083642
 20
32.190193
 30
0.000000
  0
SEQEND
  8
MERGEDLAYER-1
  0
POLYLINE
  8
MERGEDLAYER-1
 66
  1
 70
  0
 62
  7
 10
58.127728
 20
32.146109
 30
0.000000
  0
VERTEX
  8
MERGEDLAYER-1
 10
58.127728
 20
32.146109
 30
0.000000
  0
VERTEX
  8
MERGEDLAYER-1
 10
58.127728
 20
28.636681
 30
0.000000
  0
SEQEND
  8
MERGEDLAYER-1
  0
POLYLINE
  8
MERGEDLAYER-1
 66
  1
 70
  0
 62
  7
 10
58.083642
 20
28.592597
 30
0.000000
  0
VERTEX
  8
MERGEDLAYER-1
 10
58.083642
 20
28.592597
 30
0.000000
  0
VERTEX
  8
MERGEDLAYER-1
 10
56.550401
 20
28.592597
 30
0.000000
  0
SEQEND
  8
MERGEDLAYER-1
  0
POLYLINE
  8
MERGEDLAYER-1
 66
  1
 70
  0
 62
  7
 10
56.506319
 20
28.636681
 30
0.000000
  0
VERTEX
  8
MERGEDLAYER-1
 10
56.506319
 20
28.636681
 30
0.000000
  0
VERTEX
  8
MERGEDLAYER-1
 10
56.506319
 20
32.146109
 30
0.000000
  0
SEQEND
  8
MERGEDLAYER-1
  0
ARC
  8
MERGEDLAYER-1
 62
  7
 10
56.550401
 20
32.146109
 30
0.000000
 40
0.044083
 50
90.000000
 51
180.000000
  0
ARC
  8
MERGEDLAYER-1
 62
  7
 10
56.550401
 20
28.636681
 30
0.000000
 40
0.044083
 50
180.000000
 51
270.000000
  0
ARC
  8
MERGEDLAYER-1
 62
  7
 10
58.083642
 20
28.636681
 30
0.000000
 40
0.044083
 50
270.000000
 51
0.000000
  0
ARC
  8
MERGEDLAYER-1
 62
  7
 10
58.083642
 20
32.146109
 30
0.000000
 40
0.044083
 50
0.000000
 51
90.000000
  0
POLYLINE
  8
MERGEDLAYER-1
 66
  1
 70
  0
 62
  7
 10
56.903410
 20
28.502791
 30
0.000000
  0
VERTEX
  8
MERGEDLAYER-1
 10
56.903410
 20
28.502791
 30
0.000000
  0
VERTEX
  8
MERGEDLAYER-1
 10
57.036931
 20
28.502791
 30
0.000000
  0
SEQEND
  8
MERGEDLAYER-1
  0
POLYLINE
  8
MERGEDLAYER-1
 66
  1
 70
  0
 62
  7
 10
56.903410
 20
28.587963
 30
0.000000
  0
VERTEX
  8
MERGEDLAYER-1
 10
56.903410
 20
28.587963
 30
0.000000
  0
VERTEX
  8
MERGEDLAYER-1
 10
56.903410
 20
28.502791
 30
0.000000
  0
SEQEND
  8
MERGEDLAYER-1
  0
POLYLINE
  8
MERGEDLAYER-1
 66
  1
 70
  0
 62
  7
 10
56.512667
 20
28.587963
 30
0.000000
  0
VERTEX
  8
MERGEDLAYER-1
 10
56.512667
 20
28.587963
 30
0.000000
  0
VERTEX
  8
MERGEDLAYER-1
 10
56.903410
 20
28.587963
 30
0.000000
  0
SEQEND
  8
MERGEDLAYER-1
  0
POLYLINE
  8
MERGEDLAYER-1
 66
  1
 70
  0
 62
  7
 10
56.512667
 20
28.587963
 30
0.000000
  0
VERTEX
  8
MERGEDLAYER-1
 10
56.512667
 20
28.587963
 30
0.000000
  0
VERTEX
  8
MERGEDLAYER-1
 10
56.512667
 20
28.558157
 30
0.000000
  0
SEQEND
  8
MERGEDLAYER-1
  0
POLYLINE
  8
MERGEDLAYER-1
 66
  1
 70
  0
 62
  7
 10
56.512644
 20
28.558157
 30
0.000000
  0
VERTEX
  8
MERGEDLAYER-1
 10
56.512644
 20
28.558157
 30
0.000000
  0
VERTEX
  8
MERGEDLAYER-1
 10
56.547448
 20
28.471177
 30
0.000000
  0
VERTEX
  8
MERGEDLAYER-1
 10
56.638202
 20
28.432364
 30
0.000000
  0
SEQEND
  8
MERGEDLAYER-1
  0
POLYLINE
  8
MERGEDLAYER-1
 66
  1
 70
  0
 62
  7
 10
57.995840
 20
28.432357
 30
0.000000
  0
VERTEX
  8
MERGEDLAYER-1
 10
57.995840
 20
28.432357
 30
0.000000
  0
VERTEX
  8
MERGEDLAYER-1
 10
56.638202
 20
28.432357
 30
0.000000
  0
SEQEND
  8
MERGEDLAYER-1
  0
POLYLINE
  8
MERGEDLAYER-1
 66
  1
 70
  0
 62
  7
 10
57.995840
 20
28.432364
 30
0.000000
  0
VERTEX
  8
MERGEDLAYER-1
 10
57.995840
 20
28.432364
 30
0.000000
  0
VERTEX
  8
MERGEDLAYER-1
 10
58.082660
 20
28.471177
 30
0.000000
  0
VERTEX
  8
MERGEDLAYER-1
 10
58.121404
 20
28.558157
 30
0.000000
  0
SEQEND
  8
MERGEDLAYER-1
  0
POLYLINE
  8
MERGEDLAYER-1
 66
  1
 70
  0
 62
  7
 10
58.121418
 20
28.587963
 30
0.000000
  0
VERTEX
  8
MERGEDLAYER-1
 10
58.121418
 20
28.587963
 30
0.000000
  0
VERTEX
  8
MERGEDLAYER-1
 10
58.121418
 20
28.558157
 30
0.000000
  0
SEQEND
  8
MERGEDLAYER-1
  0
POLYLINE
  8
MERGEDLAYER-1
 66
  1
 70
  0
 62
  7
 10
58.121418
 20
28.587963
 30
0.000000
  0
VERTEX
  8
MERGEDLAYER-1
 10
58.121418
 20
28.587963
 30
0.000000
  0
VERTEX
  8
MERGEDLAYER-1
 10
57.730671
 20
28.587963
 30
0.000000
  0
SEQEND
  8
MERGEDLAYER-1
  0
POLYLINE
  8
MERGEDLAYER-1
 66
  1
 70
  0
 62
  7
 10
57.730671
 20
28.587963
 30
0.000000
  0
VERTEX
  8
MERGEDLAYER-1
 10
57.730671
 20
28.587963
 30
0.000000
  0
VERTEX
  8
MERGEDLAYER-1
 10
57.730671
 20
28.502791
 30
0.000000
  0
SEQEND
  8
MERGEDLAYER-1
  0
POLYLINE
  8
MERGEDLAYER-1
 66
  1
 70
  0
 62
  7
 10
57.730671
 20
28.502791
 30
0.000000
  0
VERTEX
  8
MERGEDLAYER-1
 10
57.730671
 20
28.502791
 30
0.000000
  0
VERTEX
  8
MERGEDLAYER-1
 10
57.597144
 20
28.502791
 30
0.000000
  0
SEQEND
  8
MERGEDLAYER-1
  0
POLYLINE
  8
MERGEDLAYER-1
 66
  1
 70
  0
 62
  7
 10
57.597144
 20
28.502791
 30
0.000000
  0
VERTEX
  8
MERGEDLAYER-1
 10
57.597144
 20
28.502791
 30
0.000000
  0
VERTEX
  8
MERGEDLAYER-1
 10
57.597144
 20
28.755815
 30
0.000000
  0
SEQEND
  8
MERGEDLAYER-1
  0
POLYLINE
  8
MERGEDLAYER-1
 66
  1
 70
  0
 62
  7
 10
57.628535
 20
28.787260
 30
0.000000
  0
VERTEX
  8
MERGEDLAYER-1
 10
57.628535
 20
28.787260
 30
0.000000
  0
VERTEX
  8
MERGEDLAYER-1
 10
57.597140
 20
28.755815
 30
0.000000
  0
SEQEND
  8
MERGEDLAYER-1
  0
POLYLINE
  8
MERGEDLAYER-1
 66
  1
 70
  0
 62
  7
 10
57.628535
 20
28.787241
 30
0.000000
  0
VERTEX
  8
MERGEDLAYER-1
 10
57.628535
 20
28.787241
 30
0.000000
  0
VERTEX
  8
MERGEDLAYER-1
 10
57.662654
 20
28.787241
 30
0.000000
  0
SEQEND
  8
MERGEDLAYER-1
  0
POLYLINE
  8
MERGEDLAYER-1
 66
  1
 70
  0
 62
  7
 10
57.662654
 20
28.787241
 30
0.000000
  0
VERTEX
  8
MERGEDLAYER-1
 10
57.662654
 20
28.787241
 30
0.000000
  0
VERTEX
  8
MERGEDLAYER-1
 10
57.686509
 20
28.811138
 30
0.000000
  0
SEQEND
  8
MERGEDLAYER-1
  0
POLYLINE
  8
MERGEDLAYER-1
 66
  1
 70
  0
 62
  7
 10
57.686509
 20
28.811005
 30
0.000000
  0
VERTEX
  8
MERGEDLAYER-1
 10
57.686509
 20
28.811005
 30
0.000000
  0
VERTEX
  8
MERGEDLAYER-1
 10
57.662654
 20
28.834905
 30
0.000000
  0
SEQEND
  8
MERGEDLAYER-1
  0
POLYLINE
  8
MERGEDLAYER-1
 66
  1
 70
  0
 62
  7
 10
57.594628
 20
28.834888
 30
0.000000
  0
VERTEX
  8
MERGEDLAYER-1
 10
57.594628
 20
28.834888
 30
0.000000
  0
VERTEX
  8
MERGEDLAYER-1
 10
57.662654
 20
28.834888
 30
0.000000
  0
SEQEND
  8
MERGEDLAYER-1
  0
POLYLINE
  8
MERGEDLAYER-1
 66
  1
 70
  0
 62
  7
 10
57.594628
 20
28.834895
 30
0.000000
  0
VERTEX
  8
MERGEDLAYER-1
 10
57.594628
 20
28.834895
 30
0.000000
  0
VERTEX
  8
MERGEDLAYER-1
 10
57.531846
 20
28.772001
 30
0.000000
  0
SEQEND
  8
MERGEDLAYER-1
  0
POLYLINE
  8
MERGEDLAYER-1
 66
  1
 70
  0
 62
  7
 10
57.531851
 20
28.502791
 30
0.000000
  0
VERTEX
  8
MERGEDLAYER-1
 10
57.531851
 20
28.502791
 30
0.000000
  0
VERTEX
  8
MERGEDLAYER-1
 10
57.531851
 20
28.772001
 30
0.000000
  0
SEQEND
  8
MERGEDLAYER-1
  0
POLYLINE
  8
MERGEDLAYER-1
 66
  1
 70
  0
 62
  7
 10
57.102210
 20
28.502791
 30
0.000000
  0
VERTEX
  8
MERGEDLAYER-1
 10
57.102210
 20
28.502791
 30
0.000000
  0
VERTEX
  8
MERGEDLAYER-1
 10
57.531851
 20
28.502791
 30
0.000000
  0
SEQEND
  8
MERGEDLAYER-1
  0
POLYLINE
  8
MERGEDLAYER-1
 66
  1
 70
  0
 62
  7
 10
57.102210
 20
28.502791
 30
0.000000
  0
VERTEX
  8
MERGEDLAYER-1
 10
57.102210
 20
28.502791
 30
0.000000
  0
VERTEX
  8
MERGEDLAYER-1
 10
57.102210
 20
28.772001
 30
0.000000
  0
SEQEND
  8
MERGEDLAYER-1
  0
POLYLINE
  8
MERGEDLAYER-1
 66
  1
 70
  0
 62
  7
 10
57.102210
 20
28.772001
 30
0.000000
  0
VERTEX
  8
MERGEDLAYER-1
 10
57.102210
 20
28.772001
 30
0.000000
  0
VERTEX
  8
MERGEDLAYER-1
 10
57.039433
 20
28.834895
 30
0.000000
  0
SEQEND
  8
MERGEDLAYER-1
  0
POLYLINE
  8
MERGEDLAYER-1
 66
  1
 70
  0
 62
  7
 10
57.039433
 20
28.834888
 30
0.000000
  0
VERTEX
  8
MERGEDLAYER-1
 10
57.039433
 20
28.834888
 30
0.000000
  0
VERTEX
  8
MERGEDLAYER-1
 10
56.971393
 20
28.834888
 30
0.000000
  0
SEQEND
  8
MERGEDLAYER-1
  0
POLYLINE
  8
MERGEDLAYER-1
 66
  1
 70
  0
 62
  7
 10
56.971393
 20
28.834905
 30
0.000000
  0
VERTEX
  8
MERGEDLAYER-1
 10
56.971393
 20
28.834905
 30
0.000000
  0
VERTEX
  8
MERGEDLAYER-1
 10
56.947533
 20
28.811005
 30
0.000000
  0
SEQEND
  8
MERGEDLAYER-1
  0
POLYLINE
  8
MERGEDLAYER-1
 66
  1
 70
  0
 62
  7
 10
56.947557
 20
28.811005
 30
0.000000
  0
VERTEX
  8
MERGEDLAYER-1
 10
56.947557
 20
28.811005
 30
0.000000
  0
VERTEX
  8
MERGEDLAYER-1
 10
56.947557
 20
28.811138
 30
0.000000
  0
SEQEND
  8
MERGEDLAYER-1
  0
POLYLINE
  8
MERGEDLAYER-1
 66
  1
 70
  0
 62
  7
 10
56.947533
 20
28.811138
 30
0.000000
  0
VERTEX
  8
MERGEDLAYER-1
 10
56.947533
 20
28.811138
 30
0.000000
  0
VERTEX
  8
MERGEDLAYER-1
 10
56.971393
 20
28.787241
 30
0.000000
  0
SEQEND
  8
MERGEDLAYER-1
  0
POLYLINE
  8
MERGEDLAYER-1
 66
  1
 70
  0
 62
  7
 10
57.005531
 20
28.787241
 30
0.000000
  0
VERTEX
  8
MERGEDLAYER-1
 10
57.005531
 20
28.787241
 30
0.000000
  0
VERTEX
  8
MERGEDLAYER-1
 10
56.971393
 20
28.787241
 30
0.000000
  0
SEQEND
  8
MERGEDLAYER-1
  0
POLYLINE
  8
MERGEDLAYER-1
 66
  1
 70
  0
 62
  7
 10
57.036922
 20
28.755815
 30
0.000000
  0
VERTEX
  8
MERGEDLAYER-1
 10
57.036922
 20
28.755815
 30
0.000000
  0
VERTEX
  8
MERGEDLAYER-1
 10
57.005531
 20
28.787260
 30
0.000000
  0
SEQEND
  8
MERGEDLAYER-1
  0
POLYLINE
  8
MERGEDLAYER-1
 66
  1
 70
  0
 62
  7
 10
57.036931
 20
28.502791
 30
0.000000
  0
VERTEX
  8
MERGEDLAYER-1
 10
57.036931
 20
28.502791
 30
0.000000
  0
VERTEX
  8
MERGEDLAYER-1
 10
57.036931
 20
28.755815
 30
0.000000
  0
SEQEND
  8
MERGEDLAYER-1
  0
POLYLINE
  8
MERGEDLAYER-1
 66
  1
 70
  1
 62
  7
 10
57.017869
 20
29.483945
 30
0.000000
  0
VERTEX
  8
MERGEDLAYER-1
 10
57.017869
 20
29.483945
 30
0.000000
  0
VERTEX
  8
MERGEDLAYER-1
 10
57.017869
 20
29.640364
 30
0.000000
  0
VERTEX
  8
MERGEDLAYER-1
 10
56.706853
 20
29.640364
 30
0.000000
  0
VERTEX
  8
MERGEDLAYER-1
 10
56.706853
 20
31.907992
 30
0.000000
  0
VERTEX
  8
MERGEDLAYER-1
 10
57.955937
 20
31.907992
 30
0.000000
  0
VERTEX
  8
MERGEDLAYER-1
 10
57.955937
 20
29.640364
 30
0.000000
  0
VERTEX
  8
MERGEDLAYER-1
 10
57.644893
 20
29.640364
 30
0.000000
  0
VERTEX
  8
MERGEDLAYER-1
 10
57.644893
 20
29.483945
 30
0.000000
  0
VERTEX
  8
MERGEDLAYER-1
 10
57.955937
 20
29.483945
 30
0.000000
  0
VERTEX
  8
MERGEDLAYER-1
 10
57.955937
 20
28.863866
 30
0.000000
  0
VERTEX
  8
MERGEDLAYER-1
 10
56.706853
 20
28.863866
 30
0.000000
  0
VERTEX
  8
MERGEDLAYER-1
 10
56.706853
 20
29.483945
 30
0.000000
  0
SEQEND
  8
MERGEDLAYER-1
  0
POLYLINE
  8
MERGEDLAYER-1
 66
  1
 70
  0
 62
  7
 10
57.553871
 20
30.706320
 30
0.000000
  0
VERTEX
  8
MERGEDLAYER-1
 10
57.553871
 20
30.706320
 30
0.000000
  0
VERTEX
  8
MERGEDLAYER-1
 10
57.488131
 20
30.865312
 30
0.000000
  0
VERTEX
  8
MERGEDLAYER-1
 10
57.329426
 20
30.931171
 30
0.000000
  0
VERTEX
  8
MERGEDLAYER-1
 10
57.170720
 20
30.865312
 30
0.000000
  0
VERTEX
  8
MERGEDLAYER-1
 10
57.104980
 20
30.706320
 30
0.000000
  0
VERTEX
  8
MERGEDLAYER-1
 10
57.170720
 20
30.547330
 30
0.000000
  0
VERTEX
  8
MERGEDLAYER-1
 10
57.329426
 20
30.481469
 30
0.000000
  0
VERTEX
  8
MERGEDLAYER-1
 10
57.488131
 20
30.547330
 30
0.000000
  0
VERTEX
  8
MERGEDLAYER-1
 10
57.553871
 20
30.706320
 30
0.000000
  0
SEQEND
  8
MERGEDLAYER-1
  0
POLYLINE
  8
MERGEDLAYER-1
 66
  1
 70
  0
 62
  7
 10
57.721736
 20
31.907992
 30
0.000000
  0
VERTEX
  8
MERGEDLAYER-1
 10
57.721736
 20
31.907992
 30
0.000000
  0
VERTEX
  8
MERGEDLAYER-1
 10
57.721736
 20
29.642374
 30
0.000000
  0
SEQEND
  8
MERGEDLAYER-1
  0
POLYLINE
  8
MERGEDLAYER-1
 66
  1
 70
  0
 62
  7
 10
56.941054
 20
31.907992
 30
0.000000
  0
VERTEX
  8
MERGEDLAYER-1
 10
56.941054
 20
31.907992
 30
0.000000
  0
VERTEX
  8
MERGEDLAYER-1
 10
56.941054
 20
29.642374
 30
0.000000
  0
SEQEND
  8
MERGEDLAYER-1
  0
POLYLINE
  8
MERGEDLAYER-1
 66
  1
 70
  0
 62
  7
 10
57.719595
 20
29.486507
 30
0.000000
  0
VERTEX
  8
MERGEDLAYER-1
 10
57.719595
 20
29.486507
 30
0.000000
  0
VERTEX
  8
MERGEDLAYER-1
 10
57.719595
 20
28.863270
 30
0.000000
  0
SEQEND
  8
MERGEDLAYER-1
  0
POLYLINE
  8
MERGEDLAYER-1
 66
  1
 70
  0
 62
  7
 10
56.938918
 20
29.486507
 30
0.000000
  0
VERTEX
  8
MERGEDLAYER-1
 10
56.938918
 20
29.486507
 30
0.000000
  0
VERTEX
  8
MERGEDLAYER-1
 10
56.938918
 20
28.863270
 30
0.000000
  0
SEQEND
  8
MERGEDLAYER-1
  0
TEXT
  8
MERGEDLAYER-1
 62
  7
 10
55.230769
 20
32.851102
 30
0.000000
 40
0.461538
  1
EXT.
 72
  5
 11
56.923077
 21
32.851102
 31
0.000000
  0
TEXT
  8
MERGEDLAYER-1
 62
  7
 10
58.076923
 20
32.851102
 30
0.000000
 40
0.461538
  1
INT.
 72
  5
 11
59.615385
 21
32.851102
 31
0.000000
  0
POLYLINE
  8
MERGEDLAYER-1
 66
  1
 70
  0
 62
  7
 10
57.332515
 20
32.347274
 30
0.000000
  0
VERTEX
  8
MERGEDLAYER-1
 10
57.332515
 20
32.347274
 30
0.000000
  0
VERTEX
  8
MERGEDLAYER-1
 10
57.332515
 20
33.281870
 30
0.000000
  0
SEQEND
  8
MERGEDLAYER-1
  0
POLYLINE
  8
MERGEDLAYER-1
 66
  1
 70
  1
 62
  7
 10
57.269221
 20
32.554953
 30
0.000000
  0
VERTEX
  8
MERGEDLAYER-1
 10
57.269221
 20
32.554953
 30
0.000000
  0
VERTEX
  8
MERGEDLAYER-1
 10
57.235272
 20
32.554953
 30
0.000000
  0
VERTEX
  8
MERGEDLAYER-1
 10
57.213388
 20
32.543605
 30
0.000000
  0
VERTEX
  8
MERGEDLAYER-1
 10
57.191510
 20
32.522773
 30
0.000000
  0
VERTEX
  8
MERGEDLAYER-1
 10
57.174842
 20
32.502981
 30
0.000000
  0
VERTEX
  8
MERGEDLAYER-1
 10
57.158175
 20
32.477978
 30
0.000000
  0
VERTEX
  8
MERGEDLAYER-1
 10
57.145677
 20
32.450895
 30
0.000000
  0
VERTEX
  8
MERGEDLAYER-1
 10
57.138385
 20
32.425896
 30
0.000000
  0
VERTEX
  8
MERGEDLAYER-1
 10
57.134221
 20
32.391522
 30
0.000000
  0
VERTEX
  8
MERGEDLAYER-1
 10
57.134221
 20
32.366523
 30
0.000000
  0
VERTEX
  8
MERGEDLAYER-1
 10
57.137836
 20
32.343346
 30
0.000000
  0
VERTEX
  8
MERGEDLAYER-1
 10
57.137348
 20
32.321728
 30
0.000000
  0
VERTEX
  8
MERGEDLAYER-1
 10
57.127615
 20
32.302361
 30
0.000000
  0
VERTEX
  8
MERGEDLAYER-1
 10
57.113385
 20
32.290478
 30
0.000000
  0
VERTEX
  8
MERGEDLAYER-1
 10
57.089496
 20
32.284274
 30
0.000000
  0
VERTEX
  8
MERGEDLAYER-1
 10
56.814171
 20
32.284046
 30
0.000000
  0
VERTEX
  8
MERGEDLAYER-1
 10
56.792556
 20
32.279020
 30
0.000000
  0
VERTEX
  8
MERGEDLAYER-1
 10
56.779372
 20
32.269627
 30
0.000000
  0
VERTEX
  8
MERGEDLAYER-1
 10
56.770677
 20
32.259228
 30
0.000000
  0
VERTEX
  8
MERGEDLAYER-1
 10
56.764799
 20
32.238093
 30
0.000000
  0
VERTEX
  8
MERGEDLAYER-1
 10
56.764949
 20
32.198899
 30
0.000000
  0
VERTEX
  8
MERGEDLAYER-1
 10
56.768555
 20
32.190200
 30
0.000000
  0
VERTEX
  8
MERGEDLAYER-1
 10
56.777255
 20
32.186596
 30
0.000000
  0
VERTEX
  8
MERGEDLAYER-1
 10
56.969741
 20
32.186763
 30
0.000000
  0
VERTEX
  8
MERGEDLAYER-1
 10
56.992554
 20
32.181103
 30
0.000000
  0
VERTEX
  8
MERGEDLAYER-1
 10
57.004526
 20
32.172180
 30
0.000000
  0
VERTEX
  8
MERGEDLAYER-1
 10
57.014428
 20
32.159231
 30
0.000000
  0
VERTEX
  8
MERGEDLAYER-1
 10
57.018757
 20
32.140646
 30
0.000000
  0
VERTEX
  8
MERGEDLAYER-1
 10
57.018940
 20
32.035980
 30
0.000000
  0
VERTEX
  8
MERGEDLAYER-1
 10
57.014428
 20
32.017564
 30
0.000000
  0
VERTEX
  8
MERGEDLAYER-1
 10
57.004526
 20
32.001176
 30
0.000000
  0
VERTEX
  8
MERGEDLAYER-1
 10
56.990469
 20
31.991523
 30
0.000000
  0
VERTEX
  8
MERGEDLAYER-1
 10
56.969741
 20
31.986931
 30
0.000000
  0
VERTEX
  8
MERGEDLAYER-1
 10
56.880127
 20
31.986762
 30
0.000000
  0
VERTEX
  8
MERGEDLAYER-1
 10
56.861300
 20
31.982145
 30
0.000000
  0
VERTEX
  8
MERGEDLAYER-1
 10
56.852976
 20
31.975520
 30
0.000000
  0
VERTEX
  8
MERGEDLAYER-1
 10
56.845675
 20
31.965480
 30
0.000000
  0
VERTEX
  8
MERGEDLAYER-1
 10
56.841576
 20
31.951141
 30
0.000000
  0
VERTEX
  8
MERGEDLAYER-1
 10
56.841731
 20
31.947874
 30
0.000000
  0
VERTEX
  8
MERGEDLAYER-1
 10
56.844633
 20
31.933188
 30
0.000000
  0
VERTEX
  8
MERGEDLAYER-1
 10
56.852976
 20
31.920727
 30
0.000000
  0
VERTEX
  8
MERGEDLAYER-1
 10
56.863385
 20
31.913398
 30
0.000000
  0
VERTEX
  8
MERGEDLAYER-1
 10
56.880127
 20
31.909485
 30
0.000000
  0
VERTEX
  8
MERGEDLAYER-1
 10
57.067157
 20
31.909492
 30
0.000000
  0
VERTEX
  8
MERGEDLAYER-1
 10
57.087346
 20
31.913398
 30
0.000000
  0
VERTEX
  8
MERGEDLAYER-1
 10
57.101957
 20
31.923910
 30
0.000000
  0
VERTEX
  8
MERGEDLAYER-1
 10
57.112342
 20
31.938397
 30
0.000000
  0
VERTEX
  8
MERGEDLAYER-1
 10
57.116371
 20
31.958712
 30
0.000000
  0
VERTEX
  8
MERGEDLAYER-1
 10
57.116375
 20
32.137376
 30
0.000000
  0
VERTEX
  8
MERGEDLAYER-1
 10
57.120681
 20
32.158189
 30
0.000000
  0
VERTEX
  8
MERGEDLAYER-1
 10
57.130794
 20
32.172180
 30
0.000000
  0
VERTEX
  8
MERGEDLAYER-1
 10
57.144635
 20
32.184230
 30
0.000000
  0
VERTEX
  8
MERGEDLAYER-1
 10
57.165598
 20
32.186596
 30
0.000000
  0
VERTEX
  8
MERGEDLAYER-1
 10
57.728666
 20
32.186594
 30
0.000000
  0
VERTEX
  8
MERGEDLAYER-1
 10
57.737366
 20
32.182990
 30
0.000000
  0
VERTEX
  8
MERGEDLAYER-1
 10
57.740971
 20
32.174291
 30
0.000000
  0
VERTEX
  8
MERGEDLAYER-1
 10
57.740967
 20
32.140327
 30
0.000000
  0
VERTEX
  8
MERGEDLAYER-1
 10
57.744573
 20
32.131625
 30
0.000000
  0
VERTEX
  8
MERGEDLAYER-1
 10
57.753272
 20
32.128019
 30
0.000000
  0
VERTEX
  8
MERGEDLAYER-1
 10
57.767545
 20
32.128024
 30
0.000000
  0
VERTEX
  8
MERGEDLAYER-1
 10
57.776245
 20
32.131625
 30
0.000000
  0
VERTEX
  8
MERGEDLAYER-1
 10
57.779846
 20
32.140327
 30
0.000000
  0
VERTEX
  8
MERGEDLAYER-1
 10
57.779851
 20
32.174291
 30
0.000000
  0
VERTEX
  8
MERGEDLAYER-1
 10
57.783457
 20
32.182990
 30
0.000000
  0
VERTEX
  8
MERGEDLAYER-1
 10
57.792157
 20
32.186594
 30
0.000000
  0
VERTEX
  8
MERGEDLAYER-1
 10
58.115953
 20
32.186594
 30
0.000000
  0
VERTEX
  8
MERGEDLAYER-1
 10
58.129179
 20
32.181115
 30
0.000000
  0
VERTEX
  8
MERGEDLAYER-1
 10
58.134686
 20
32.168063
 30
0.000000
  0
VERTEX
  8
MERGEDLAYER-1
 10
58.134672
 20
31.671272
 30
0.000000
  0
VERTEX
  8
MERGEDLAYER-1
 10
58.138282
 20
31.662572
 30
0.000000
  0
VERTEX
  8
MERGEDLAYER-1
 10
58.146982
 20
31.658968
 30
0.000000
  0
VERTEX
  8
MERGEDLAYER-1
 10
58.219825
 20
31.658968
 30
0.000000
  0
VERTEX
  8
MERGEDLAYER-1
 10
58.228525
 20
31.662572
 30
0.000000
  0
VERTEX
  8
MERGEDLAYER-1
 10
58.232126
 20
31.671272
 30
0.000000
  0
VERTEX
  8
MERGEDLAYER-1
 10
58.232126
 20
31.874584
 30
0.000000
  0
VERTEX
  8
MERGEDLAYER-1
 10
58.222760
 20
31.877981
 30
0.000000
  0
VERTEX
  8
MERGEDLAYER-1
 10
58.215473
 20
31.885270
 30
0.000000
  0
VERTEX
  8
MERGEDLAYER-1
 10
58.213435
 20
31.893480
 30
0.000000
  0
VERTEX
  8
MERGEDLAYER-1
 10
58.217553
 20
31.907147
 30
0.000000
  0
VERTEX
  8
MERGEDLAYER-1
 10
58.232173
 20
31.912168
 30
0.000000
  0
VERTEX
  8
MERGEDLAYER-1
 10
58.232121
 20
32.234826
 30
0.000000
  0
VERTEX
  8
MERGEDLAYER-1
 10
58.227971
 20
32.256101
 30
0.000000
  0
VERTEX
  8
MERGEDLAYER-1
 10
58.217708
 20
32.269627
 30
0.000000
  0
VERTEX
  8
MERGEDLAYER-1
 10
58.200885
 20
32.281104
 30
0.000000
  0
VERTEX
  8
MERGEDLAYER-1
 10
58.182908
 20
32.284046
 30
0.000000
  0
VERTEX
  8
MERGEDLAYER-1
 10
57.571960
 20
32.284274
 30
0.000000
  0
VERTEX
  8
MERGEDLAYER-1
 10
57.551927
 20
32.287351
 30
0.000000
  0
VERTEX
  8
MERGEDLAYER-1
 10
57.533837
 20
32.302361
 30
0.000000
  0
VERTEX
  8
MERGEDLAYER-1
 10
57.522761
 20
32.321728
 30
0.000000
  0
VERTEX
  8
MERGEDLAYER-1
 10
57.523644
 20
32.343346
 30
0.000000
  0
VERTEX
  8
MERGEDLAYER-1
 10
57.527973
 20
32.372770
 30
0.000000
  0
VERTEX
  8
MERGEDLAYER-1
 10
57.526931
 20
32.402980
 30
0.000000
  0
VERTEX
  8
MERGEDLAYER-1
 10
57.521719
 20
32.435270
 30
0.000000
  0
VERTEX
  8
MERGEDLAYER-1
 10
57.509512
 20
32.465156
 30
0.000000
  0
VERTEX
  8
MERGEDLAYER-1
 10
57.494638
 20
32.494645
 30
0.000000
  0
VERTEX
  8
MERGEDLAYER-1
 10
57.475886
 20
32.516522
 30
0.000000
  0
VERTEX
  8
MERGEDLAYER-1
 10
57.454008
 20
32.537354
 30
0.000000
  0
VERTEX
  8
MERGEDLAYER-1
 10
57.426007
 20
32.554953
 30
0.000000
  0
VERTEX
  8
MERGEDLAYER-1
 10
57.392268
 20
32.554953
 30
0.000000
  0
VERTEX
  8
MERGEDLAYER-1
 10
57.384902
 20
32.477870
 30
0.000000
  0
VERTEX
  8
MERGEDLAYER-1
 10
57.410260
 20
32.459229
 30
0.000000
  0
VERTEX
  8
MERGEDLAYER-1
 10
57.426927
 20
32.437354
 30
0.000000
  0
VERTEX
  8
MERGEDLAYER-1
 10
57.435260
 20
32.416520
 30
0.000000
  0
VERTEX
  8
MERGEDLAYER-1
 10
57.439425
 20
32.397773
 30
0.000000
  0
VERTEX
  8
MERGEDLAYER-1
 10
57.440467
 20
32.372770
 30
0.000000
  0
VERTEX
  8
MERGEDLAYER-1
 10
57.436303
 20
32.352978
 30
0.000000
  0
VERTEX
  8
MERGEDLAYER-1
 10
57.424842
 20
32.326937
 30
0.000000
  0
VERTEX
  8
MERGEDLAYER-1
 10
57.412344
 20
32.310270
 30
0.000000
  0
VERTEX
  8
MERGEDLAYER-1
 10
57.395677
 20
32.294645
 30
0.000000
  0
VERTEX
  8
MERGEDLAYER-1
 10
57.374845
 20
32.283189
 30
0.000000
  0
VERTEX
  8
MERGEDLAYER-1
 10
57.352971
 20
32.274853
 30
0.000000
  0
VERTEX
  8
MERGEDLAYER-1
 10
57.330717
 20
32.273182
 30
0.000000
  0
VERTEX
  8
MERGEDLAYER-1
 10
57.314425
 20
32.274853
 30
0.000000
  0
VERTEX
  8
MERGEDLAYER-1
 10
57.294635
 20
32.279020
 30
0.000000
  0
VERTEX
  8
MERGEDLAYER-1
 10
57.276931
 20
32.288398
 30
0.000000
  0
VERTEX
  8
MERGEDLAYER-1
 10
57.259221
 20
32.300896
 30
0.000000
  0
VERTEX
  8
MERGEDLAYER-1
 10
57.239427
 20
32.323813
 30
0.000000
  0
VERTEX
  8
MERGEDLAYER-1
 10
57.224844
 20
32.354020
 30
0.000000
  0
VERTEX
  8
MERGEDLAYER-1
 10
57.221717
 20
32.389437
 30
0.000000
  0
VERTEX
  8
MERGEDLAYER-1
 10
57.227971
 20
32.420687
 30
0.000000
  0
VERTEX
  8
MERGEDLAYER-1
 10
57.238385
 20
32.442564
 30
0.000000
  0
VERTEX
  8
MERGEDLAYER-1
 10
57.252967
 20
32.461311
 30
0.000000
  0
VERTEX
  8
MERGEDLAYER-1
 10
57.264428
 20
32.470689
 30
0.000000
  0
VERTEX
  8
MERGEDLAYER-1
 10
57.276616
 20
32.477889
 30
0.000000
  0
SEQEND
  8
MERGEDLAYER-1
  0
LINE
  8
MERGEDLAYER-1
 62
  7
 10
54.975952
 20
32.170504
 30
0.000000
 11
54.975952
 21
28.452040
 31
0.000000
  0
LINE
  8
MERGEDLAYER-1
 62
  7
 10
56.006319
 20
32.190188
 30
0.000000
 11
53.975952
 21
32.190188
 31
0.000000
  0
LINE
  8
MERGEDLAYER-1
 62
  7
 10
56.138202
 20
28.432357
 30
0.000000
 11
53.975952
 21
28.432357
 31
0.000000
  0
POLYLINE
  8
MERGEDLAYER-1
 66
  1
 70
  1
 62
  7
  0
VERTEX
  8
MERGEDLAYER-1
 10
54.975952
 20
32.190188
 30
0.000000
  0
VERTEX
  8
MERGEDLAYER-1
 10
54.745183
 20
31.805573
 30
0.000000
  0
VERTEX
  8
MERGEDLAYER-1
 10
54.975952
 20
31.805573
 30
0.000000
  0
VERTEX
  8
MERGEDLAYER-1
 10
55.206721
 20
31.805573
 30
0.000000
  0
VERTEX
  8
MERGEDLAYER-1
 10
54.975952
 20
32.190188
 30
0.000000
  0
SEQEND
  8
MERGEDLAYER-1
  0
POLYLINE
  8
MERGEDLAYER-1
 66
  1
 70
  1
 62
  7
  0
VERTEX
  8
MERGEDLAYER-1
 10
54.975952
 20
28.432357
 30
0.000000
  0
VERTEX
  8
MERGEDLAYER-1
 10
54.745183
 20
28.816972
 30
0.000000
  0
VERTEX
  8
MERGEDLAYER-1
 10
54.975952
 20
28.816972
 30
0.000000
  0
VERTEX
  8
MERGEDLAYER-1
 10
55.206721
 20
28.816972
 30
0.000000
  0
VERTEX
  8
MERGEDLAYER-1
 10
54.975952
 20
28.432357
 30
0.000000
  0
SEQEND
  8
MERGEDLAYER-1
  0
TEXT
  8
MERGEDLAYER-1
 62
  7
 10
53.967215
 20
30.394428
 30
0.000000
 40
0.692308
  1
 
 50
90.000000
  0
TEXT
  8
MERGEDLAYER-1
 62
  7
 10
52.076923
 20
30.620333
 30
0.000000
 40
0.634615
  1
3"
 72
  5
 11
53.230769
 21
30.620333
 31
0.000000
  0
TEXT
  8
MERGEDLAYER-1
 62
  7
 10
52.076923
 20
29.697256
 30
0.000000
 40
0.634615
  1
76mm
 72
  5
 11
54.615385
 21
29.697256
 31
0.000000
  0
CIRCLE
  8
MERGEDLAYER-1
 62
  7
 10
77.303861
 20
50.037039
 30
0.000000
 40
0.197531
  0
POLYLINE
  8
MERGEDLAYER-1
 66
  1
 70
  0
 62
  7
 10
77.447261
 20
50.183364
 30
0.000000
  0
VERTEX
  8
MERGEDLAYER-1
 10
77.447261
 20
50.183364
 30
0.000000
  0
VERTEX
  8
MERGEDLAYER-1
 10
77.299823
 20
50.243873
 30
0.000000
  0
VERTEX
  8
MERGEDLAYER-1
 10
77.155569
 20
50.182411
 30
0.000000
  0
VERTEX
  8
MERGEDLAYER-1
 10
77.103868
 20
50.081482
 30
0.000000
  0
SEQEND
  8
MERGEDLAYER-1
  0
POLYLINE
  8
MERGEDLAYER-1
 66
  1
 70
  0
 62
  7
 10
77.045128
 20
50.470004
 30
0.000000
  0
VERTEX
  8
MERGEDLAYER-1
 10
77.045128
 20
50.470004
 30
0.000000
  0
VERTEX
  8
MERGEDLAYER-1
 10
76.885061
 20
50.470004
 30
0.000000
  0
SEQEND
  8
MERGEDLAYER-1
  0
POLYLINE
  8
MERGEDLAYER-1
 66
  1
 70
  0
 62
  7
 10
76.885061
 20
50.470004
 30
0.000000
  0
VERTEX
  8
MERGEDLAYER-1
 10
76.885061
 20
50.470004
 30
0.000000
  0
VERTEX
  8
MERGEDLAYER-1
 10
76.885061
 20
49.637418
 30
0.000000
  0
SEQEND
  8
MERGEDLAYER-1
  0
POLYLINE
  8
MERGEDLAYER-1
 66
  1
 70
  0
 62
  7
 10
76.885061
 20
49.637418
 30
0.000000
  0
VERTEX
  8
MERGEDLAYER-1
 10
76.885061
 20
49.637418
 30
0.000000
  0
VERTEX
  8
MERGEDLAYER-1
 10
76.944303
 20
49.696674
 30
0.000000
  0
SEQEND
  8
MERGEDLAYER-1
  0
POLYLINE
  8
MERGEDLAYER-1
 66
  1
 70
  0
 62
  7
 10
77.103872
 20
50.081487
 30
0.000000
  0
VERTEX
  8
MERGEDLAYER-1
 10
77.103872
 20
50.081487
 30
0.000000
  0
VERTEX
  8
MERGEDLAYER-1
 10
77.052631
 20
49.635005
 30
0.000000
  0
SEQEND
  8
MERGEDLAYER-1
  0
POLYLINE
  8
MERGEDLAYER-1
 66
  1
 70
  0
 62
  7
 10
74.515869
 20
50.455482
 30
0.000000
  0
VERTEX
  8
MERGEDLAYER-1
 10
74.515869
 20
50.455482
 30
0.000000
  0
VERTEX
  8
MERGEDLAYER-1
 10
74.515869
 20
49.625854
 30
0.000000
  0
SEQEND
  8
MERGEDLAYER-1
  0
POLYLINE
  8
MERGEDLAYER-1
 66
  1
 70
  0
 62
  7
 10
74.515869
 20
49.625854
 30
0.000000
  0
VERTEX
  8
MERGEDLAYER-1
 10
74.515869
 20
49.625854
 30
0.000000
  0
VERTEX
  8
MERGEDLAYER-1
 10
73.923288
 20
49.625854
 30
0.000000
  0
SEQEND
  8
MERGEDLAYER-1
  0
POLYLINE
  8
MERGEDLAYER-1
 66
  1
 70
  0
 62
  7
 10
73.923288
 20
49.625854
 30
0.000000
  0
VERTEX
  8
MERGEDLAYER-1
 10
73.923288
 20
49.625854
 30
0.000000
  0
VERTEX
  8
MERGEDLAYER-1
 10
73.982525
 20
49.685124
 30
0.000000
  0
SEQEND
  8
MERGEDLAYER-1
  0
CIRCLE
  8
MERGEDLAYER-1
 62
  7
 10
74.105990
 20
50.033269
 30
0.000000
 40
0.197531
  0
POLYLINE
  8
MERGEDLAYER-1
 66
  1
 70
  0
 62
  7
 10
73.905968
 20
50.077707
 30
0.000000
  0
VERTEX
  8
MERGEDLAYER-1
 10
73.905968
 20
50.077707
 30
0.000000
  0
VERTEX
  8
MERGEDLAYER-1
 10
73.887493
 20
49.992197
 30
0.000000
  0
VERTEX
  8
MERGEDLAYER-1
 10
73.872643
 20
49.904419
 30
0.000000
  0
VERTEX
  8
MERGEDLAYER-1
 10
73.859455
 20
49.816373
 30
0.000000
  0
VERTEX
  8
MERGEDLAYER-1
 10
73.847938
 20
49.728102
 30
0.000000
  0
VERTEX
  8
MERGEDLAYER-1
 10
73.840055
 20
49.637658
 30
0.000000
  0
SEQEND
  8
MERGEDLAYER-1
  0
POLYLINE
  8
MERGEDLAYER-1
 66
  1
 70
  0
 62
  7
 10
74.249390
 20
50.179594
 30
0.000000
  0
VERTEX
  8
MERGEDLAYER-1
 10
74.249390
 20
50.179594
 30
0.000000
  0
VERTEX
  8
MERGEDLAYER-1
 10
74.101952
 20
50.240108
 30
0.000000
  0
VERTEX
  8
MERGEDLAYER-1
 10
73.957698
 20
50.178641
 30
0.000000
  0
VERTEX
  8
MERGEDLAYER-1
 10
73.905987
 20
50.077712
 30
0.000000
  0
SEQEND
  8
MERGEDLAYER-1
  0
POLYLINE
  8
MERGEDLAYER-1
 66
  1
 70
  0
 62
  7
 10
74.516850
 20
50.466233
 30
0.000000
  0
VERTEX
  8
MERGEDLAYER-1
 10
74.516850
 20
50.466233
 30
0.000000
  0
VERTEX
  8
MERGEDLAYER-1
 10
73.687190
 20
50.466233
 30
0.000000
  0
SEQEND
  8
MERGEDLAYER-1
  0
POLYLINE
  8
MERGEDLAYER-1
 66
  1
 70
  0
 62
  7
 10
73.687190
 20
50.466233
 30
0.000000
  0
VERTEX
  8
MERGEDLAYER-1
 10
73.687190
 20
50.466233
 30
0.000000
  0
VERTEX
  8
MERGEDLAYER-1
 10
73.687190
 20
49.633634
 30
0.000000
  0
SEQEND
  8
MERGEDLAYER-1
  0
POLYLINE
  8
MERGEDLAYER-1
 66
  1
 70
  0
 62
  7
 10
73.687190
 20
49.633634
 30
0.000000
  0
VERTEX
  8
MERGEDLAYER-1
 10
73.687190
 20
49.633634
 30
0.000000
  0
VERTEX
  8
MERGEDLAYER-1
 10
73.746493
 20
49.692904
 30
0.000000
  0
SEQEND
  8
MERGEDLAYER-1
  0
POLYLINE
  8
MERGEDLAYER-1
 66
  1
 70
  0
 62
  7
 10
71.457106
 20
50.453308
 30
0.000000
  0
VERTEX
  8
MERGEDLAYER-1
 10
71.457106
 20
50.453308
 30
0.000000
  0
VERTEX
  8
MERGEDLAYER-1
 10
71.457106
 20
49.623676
 30
0.000000
  0
SEQEND
  8
MERGEDLAYER-1
  0
POLYLINE
  8
MERGEDLAYER-1
 66
  1
 70
  0
 62
  7
 10
71.457106
 20
49.623676
 30
0.000000
  0
VERTEX
  8
MERGEDLAYER-1
 10
71.457106
 20
49.623676
 30
0.000000
  0
VERTEX
  8
MERGEDLAYER-1
 10
70.864525
 20
49.623676
 30
0.000000
  0
SEQEND
  8
MERGEDLAYER-1
  0
POLYLINE
  8
MERGEDLAYER-1
 66
  1
 70
  0
 62
  7
 10
70.864525
 20
49.623676
 30
0.000000
  0
VERTEX
  8
MERGEDLAYER-1
 10
70.864525
 20
49.623676
 30
0.000000
  0
VERTEX
  8
MERGEDLAYER-1
 10
70.923762
 20
49.682946
 30
0.000000
  0
SEQEND
  8
MERGEDLAYER-1
  0
CIRCLE
  8
MERGEDLAYER-1
 62
  7
 10
71.047227
 20
50.031095
 30
0.000000
 40
0.197531
  0
POLYLINE
  8
MERGEDLAYER-1
 66
  1
 70
  0
 62
  7
 10
70.847206
 20
50.075533
 30
0.000000
  0
VERTEX
  8
MERGEDLAYER-1
 10
70.847206
 20
50.075533
 30
0.000000
  0
VERTEX
  8
MERGEDLAYER-1
 10
70.828731
 20
49.990018
 30
0.000000
  0
VERTEX
  8
MERGEDLAYER-1
 10
70.813880
 20
49.902240
 30
0.000000
  0
VERTEX
  8
MERGEDLAYER-1
 10
70.800692
 20
49.814200
 30
0.000000
  0
VERTEX
  8
MERGEDLAYER-1
 10
70.789175
 20
49.725924
 30
0.000000
  0
VERTEX
  8
MERGEDLAYER-1
 10
70.779325
 20
49.637446
 30
0.000000
  0
VERTEX
  8
MERGEDLAYER-1
 10
70.781292
 20
49.635475
 30
0.000000
  0
SEQEND
  8
MERGEDLAYER-1
  0
POLYLINE
  8
MERGEDLAYER-1
 66
  1
 70
  0
 62
  7
 10
71.190627
 20
50.177420
 30
0.000000
  0
VERTEX
  8
MERGEDLAYER-1
 10
71.190627
 20
50.177420
 30
0.000000
  0
VERTEX
  8
MERGEDLAYER-1
 10
71.043189
 20
50.237929
 30
0.000000
  0
VERTEX
  8
MERGEDLAYER-1
 10
70.898935
 20
50.176467
 30
0.000000
  0
VERTEX
  8
MERGEDLAYER-1
 10
70.847224
 20
50.075538
 30
0.000000
  0
SEQEND
  8
MERGEDLAYER-1
  0
POLYLINE
  8
MERGEDLAYER-1
 66
  1
 70
  0
 62
  7
 10
70.622089
 20
50.577754
 30
0.000000
  0
VERTEX
  8
MERGEDLAYER-1
 10
70.622089
 20
50.577754
 30
0.000000
  0
VERTEX
  8
MERGEDLAYER-1
 10
70.622089
 20
50.459243
 30
0.000000
  0
SEQEND
  8
MERGEDLAYER-1
  0
POLYLINE
  8
MERGEDLAYER-1
 66
  1
 70
  0
 62
  7
 10
70.622089
 20
50.459243
 30
0.000000
  0
VERTEX
  8
MERGEDLAYER-1
 10
70.622089
 20
50.459243
 30
0.000000
  0
VERTEX
  8
MERGEDLAYER-1
 10
71.451754
 20
50.459243
 30
0.000000
  0
SEQEND
  8
MERGEDLAYER-1
  0
POLYLINE
  8
MERGEDLAYER-1
 66
  1
 70
  0
 62
  7
 10
68.163006
 20
50.453308
 30
0.000000
  0
VERTEX
  8
MERGEDLAYER-1
 10
68.163006
 20
50.453308
 30
0.000000
  0
VERTEX
  8
MERGEDLAYER-1
 10
68.281546
 20
50.453308
 30
0.000000
  0
SEQEND
  8
MERGEDLAYER-1
  0
POLYLINE
  8
MERGEDLAYER-1
 66
  1
 70
  0
 62
  7
 10
68.281546
 20
50.453308
 30
0.000000
  0
VERTEX
  8
MERGEDLAYER-1
 10
68.281546
 20
50.453308
 30
0.000000
  0
VERTEX
  8
MERGEDLAYER-1
 10
68.281546
 20
49.623676
 30
0.000000
  0
SEQEND
  8
MERGEDLAYER-1
  0
POLYLINE
  8
MERGEDLAYER-1
 66
  1
 70
  0
 62
  7
 10
68.281546
 20
49.623676
 30
0.000000
  0
VERTEX
  8
MERGEDLAYER-1
 10
68.281546
 20
49.623676
 30
0.000000
  0
VERTEX
  8
MERGEDLAYER-1
 10
67.688960
 20
49.623676
 30
0.000000
  0
SEQEND
  8
MERGEDLAYER-1
  0
POLYLINE
  8
MERGEDLAYER-1
 66
  1
 70
  0
 62
  7
 10
67.688960
 20
49.623676
 30
0.000000
  0
VERTEX
  8
MERGEDLAYER-1
 10
67.688960
 20
49.623676
 30
0.000000
  0
VERTEX
  8
MERGEDLAYER-1
 10
67.748197
 20
49.682946
 30
0.000000
  0
SEQEND
  8
MERGEDLAYER-1
  0
CIRCLE
  8
MERGEDLAYER-1
 62
  7
 10
67.871662
 20
50.031095
 30
0.000000
 40
0.197531
  0
POLYLINE
  8
MERGEDLAYER-1
 66
  1
 70
  0
 62
  7
 10
67.671640
 20
50.075533
 30
0.000000
  0
VERTEX
  8
MERGEDLAYER-1
 10
67.671640
 20
50.075533
 30
0.000000
  0
VERTEX
  8
MERGEDLAYER-1
 10
67.652785
 20
49.987863
 30
0.000000
  0
VERTEX
  8
MERGEDLAYER-1
 10
67.637630
 20
49.897916
 30
0.000000
  0
VERTEX
  8
MERGEDLAYER-1
 10
67.624230
 20
49.807692
 30
0.000000
  0
VERTEX
  8
MERGEDLAYER-1
 10
67.612572
 20
49.717229
 30
0.000000
  0
VERTEX
  8
MERGEDLAYER-1
 10
67.604633
 20
49.624587
 30
0.000000
  0
SEQEND
  8
MERGEDLAYER-1
  0
POLYLINE
  8
MERGEDLAYER-1
 66
  1
 70
  0
 62
  7
 10
68.015066
 20
50.177420
 30
0.000000
  0
VERTEX
  8
MERGEDLAYER-1
 10
68.015066
 20
50.177420
 30
0.000000
  0
VERTEX
  8
MERGEDLAYER-1
 10
67.867624
 20
50.237929
 30
0.000000
  0
VERTEX
  8
MERGEDLAYER-1
 10
67.723370
 20
50.176467
 30
0.000000
  0
VERTEX
  8
MERGEDLAYER-1
 10
67.671654
 20
50.075538
 30
0.000000
  0
SEQEND
  8
MERGEDLAYER-1
  0
TEXT
  8
MERGEDLAYER-1
 62
  7
 10
33.461538
 20
26.620333
 30
0.000000
 40
0.461538
  1
"W" COMPTOIR:
 72
  5
 11
38.538462
 21
26.620333
 31
0.000000
  0
TEXT
  8
MERGEDLAYER-1
 62
  7
 10
61.384615
 20
0.697256
 30
0.000000
 40
0.807692
  1
FAX: 1 418.831.7817
 72
  5
 11
72.307692
 21
0.697256
 31
0.000000
  0
TEXT
  8
MERGEDLAYER-1
 62
  7
 10
74.153846
 20
0.697256
 30
0.000000
 40
0.807692
  1
FAX: 1 800.470.3359
 72
  5
 11
85.076923
 21
0.697256
 31
0.000000
  0
TEXT
  8
MERGEDLAYER-1
 62
  7
 10
61.384615
 20
2.543410
 30
0.000000
 40
0.807692
  1
TEL.:1 418.831.6652
 72
  5
 11
72.230769
 21
2.543410
 31
0.000000
  0
TEXT
  8
MERGEDLAYER-1
 62
  7
 10
74.153846
 20
2.543410
 30
0.000000
 40
0.807692
  1
TEL.:1 800.501.3359
 72
  5
 11
85.000000
 21
2.543410
 31
0.000000
  0
ENDSEC
  0
EOF
