  0
SECTION
  2
HEADER
999
MacDraft 5.0\0
  9
$ACADVER
  1
AC1006
  9
$CLAYER
  8
LAYER-1
  9
$EXTMIN
 10
0.000000
 20
0.000000
  9
$EXTMAX
 10
8.223521
 20
10.147605
  9
$FASTZOOM
 70
0
  9
$FILLMODE
 70
1
  0
ENDSEC
  0
SECTION
  2
TABLES
  0
TABLE
  2
LTYPE
 70
16
  0
LTYPE
  2
CONTINUOUS
 70
64
  3
Solid Line
 72
65
 73
0
 40
0.000000
  0
LTYPE
  2
LTYPE01
 70
64
  3
CUSTOM
 72
65
 73
2
 40
0.076923
 49
0.057692
 49
-0.019231
  0
LTYPE
  2
LTYPE02
 70
64
  3
CUSTOM
 72
65
 73
2
 40
0.134615
 49
0.115385
 49
-0.019231
  0
LTYPE
  2
LTYPE03
 70
64
  3
CUSTOM
 72
65
 73
2
 40
0.259615
 49
0.230769
 49
-0.028846
  0
LTYPE
  2
LTYPE04
 70
64
  3
CUSTOM
 72
65
 73
2
 40
0.500000
 49
0.461538
 49
-0.038462
  0
LTYPE
  2
LTYPE05
 70
64
  3
CUSTOM
 72
65
 73
4
 40
0.105769
 49
0.057692
 49
-0.019231
 49
0.009615
 49
-0.019231
  0
LTYPE
  2
LTYPE06
 70
64
  3
CUSTOM
 72
65
 73
4
 40
0.163462
 49
0.115385
 49
-0.019231
 49
0.009615
 49
-0.019231
  0
LTYPE
  2
LTYPE07
 70
64
  3
CUSTOM
 72
65
 73
4
 40
0.307692
 49
0.230769
 49
-0.028846
 49
0.019231
 49
-0.028846
  0
LTYPE
  2
LTYPE08
 70
64
  3
CUSTOM
 72
65
 73
4
 40
0.557692
 49
0.461538
 49
-0.038462
 49
0.019231
 49
-0.038462
  0
LTYPE
  2
LTYPE09
 70
64
  3
CUSTOM
 72
65
 73
6
 40
0.134615
 49
0.057692
 49
-0.019231
 49
0.009615
 49
-0.019231
 49
0.009615
 49
-0.019231
  0
LTYPE
  2
LTYPE10
 70
64
  3
CUSTOM
 72
65
 73
6
 40
0.192308
 49
0.115385
 49
-0.019231
 49
0.009615
 49
-0.019231
 49
0.009615
 49
-0.019231
  0
LTYPE
  2
LTYPE11
 70
64
  3
CUSTOM
 72
65
 73
6
 40
0.346154
 49
0.230769
 49
-0.028846
 49
0.019231
 49
-0.019231
 49
0.019231
 49
-0.028846
  0
LTYPE
  2
LTYPE12
 70
64
  3
CUSTOM
 72
65
 73
6
 40
0.596154
 49
0.461538
 49
-0.038462
 49
0.019231
 49
-0.019231
 49
0.019231
 49
-0.038462
  0
LTYPE
  2
LTYPE13
 70
64
  3
CUSTOM
 72
65
 73
8
 40
0.221154
 49
0.115385
 49
-0.019231
 49
0.009615
 49
-0.019231
 49
0.009615
 49
-0.019231
 49
0.009615
 49
-0.019231
  0
LTYPE
  2
LTYPE14
 70
64
  3
CUSTOM
 72
65
 73
8
 40
0.384615
 49
0.230769
 49
-0.028846
 49
0.019231
 49
-0.019231
 49
0.019231
 49
-0.019231
 49
0.019231
 49
-0.028846
  0
LTYPE
  2
LTYPE15
 70
64
  3
CUSTOM
 72
65
 73
8
 40
0.653846
 49
0.461538
 49
-0.038462
 49
0.019231
 49
-0.028846
 49
0.019231
 49
-0.028846
 49
0.019231
 49
-0.038462
  0
ENDTAB
  0
TABLE
  2
LAYER
 70
2
  0
LAYER
  2
LAYER-1
 70
0
 62
7
  6
CONTINUOUS
  0
LAYER
  2
LAYER-2
 70
0
 62
7
  6
CONTINUOUS
  0
ENDTAB
  0
ENDSEC
  0
SECTION
  2
BLOCKS
  0
ENDSEC
  0
SECTION
  2
ENTITIES
  0
ARC
  8
LAYER-1
 62
  7
 10
5.491142
 20
9.090452
 30
0.000000
 40
0.254425
 50
270.000000
 51
90.000000
  0
POLYLINE
  8
LAYER-1
 66
  1
 70
  0
 62
  7
 10
5.491142
 20
9.344877
 30
0.000000
  0
VERTEX
  8
LAYER-1
 10
5.491142
 20
9.344877
 30
0.000000
  0
VERTEX
  8
LAYER-1
 10
1.826220
 20
9.344877
 30
0.000000
  0
SEQEND
  8
LAYER-1
  0
POLYLINE
  8
LAYER-1
 66
  1
 70
  0
 62
  7
 10
1.826220
 20
9.344877
 30
0.000000
  0
VERTEX
  8
LAYER-1
 10
1.826220
 20
9.344877
 30
0.000000
  0
VERTEX
  8
LAYER-1
 10
1.826220
 20
8.836028
 30
0.000000
  0
SEQEND
  8
LAYER-1
  0
POLYLINE
  8
LAYER-1
 66
  1
 70
  0
 62
  7
 10
5.491142
 20
8.836028
 30
0.000000
  0
VERTEX
  8
LAYER-1
 10
5.491142
 20
8.836028
 30
0.000000
  0
VERTEX
  8
LAYER-1
 10
1.826220
 20
8.836028
 30
0.000000
  0
SEQEND
  8
LAYER-1
  0
TEXT
  8
LAYER-1
 62
  7
 10
3.625000
 20
9.640366
 30
0.000000
 40
0.331731
  1
MobilFlex
 72
  5
 11
5.769231
 21
9.640366
 31
0.000000
  0
POLYLINE
  8
LAYER-1
 66
  1
 70
  1
 62
  7
  0
VERTEX
  8
LAYER-1
 10
1.827724
 20
10.146452
 30
0.000000
  0
VERTEX
  8
LAYER-1
 10
2.065571
 20
10.146452
 30
0.000000
  0
VERTEX
  8
LAYER-1
 10
2.065571
 20
9.629506
 30
0.000000
  0
VERTEX
  8
LAYER-1
 10
1.827724
 20
9.629506
 30
0.000000
  0
SEQEND
  8
LAYER-1
  0
POLYLINE
  8
LAYER-1
 66
  1
 70
  1
 62
  7
  0
VERTEX
  8
LAYER-1
 10
2.140223
 20
10.146452
 30
0.000000
  0
VERTEX
  8
LAYER-1
 10
2.378071
 20
10.146452
 30
0.000000
  0
VERTEX
  8
LAYER-1
 10
2.378071
 20
9.629506
 30
0.000000
  0
VERTEX
  8
LAYER-1
 10
2.140223
 20
9.629506
 30
0.000000
  0
SEQEND
  8
LAYER-1
  0
POLYLINE
  8
LAYER-1
 66
  1
 70
  1
 62
  7
  0
VERTEX
  8
LAYER-1
 10
2.440571
 20
10.146452
 30
0.000000
  0
VERTEX
  8
LAYER-1
 10
2.678418
 20
10.146452
 30
0.000000
  0
VERTEX
  8
LAYER-1
 10
2.678418
 20
9.629506
 30
0.000000
  0
VERTEX
  8
LAYER-1
 10
2.440571
 20
9.629506
 30
0.000000
  0
SEQEND
  8
LAYER-1
  0
POLYLINE
  8
LAYER-1
 66
  1
 70
  1
 62
  7
  0
VERTEX
  8
LAYER-1
 10
2.744390
 20
10.146452
 30
0.000000
  0
VERTEX
  8
LAYER-1
 10
2.982237
 20
10.146452
 30
0.000000
  0
VERTEX
  8
LAYER-1
 10
2.982237
 20
9.629506
 30
0.000000
  0
VERTEX
  8
LAYER-1
 10
2.744390
 20
9.629506
 30
0.000000
  0
SEQEND
  8
LAYER-1
  0
POLYLINE
  8
LAYER-1
 66
  1
 70
  1
 62
  7
  0
VERTEX
  8
LAYER-1
 10
3.061231
 20
10.142536
 30
0.000000
  0
VERTEX
  8
LAYER-1
 10
3.436665
 20
10.142536
 30
0.000000
  0
VERTEX
  8
LAYER-1
 10
3.436665
 20
10.004515
 30
0.000000
  0
VERTEX
  8
LAYER-1
 10
3.061231
 20
10.004515
 30
0.000000
  0
SEQEND
  8
LAYER-1
  0
POLYLINE
  8
LAYER-1
 66
  1
 70
  1
 62
  7
  0
VERTEX
  8
LAYER-1
 10
3.060797
 20
9.915105
 30
0.000000
  0
VERTEX
  8
LAYER-1
 10
3.368956
 20
9.915105
 30
0.000000
  0
VERTEX
  8
LAYER-1
 10
3.368956
 20
9.780991
 30
0.000000
  0
VERTEX
  8
LAYER-1
 10
3.060797
 20
9.780991
 30
0.000000
  0
SEQEND
  8
LAYER-1
  0
POLYLINE
  8
LAYER-1
 66
  1
 70
  1
 62
  7
  0
VERTEX
  8
LAYER-1
 10
1.827724
 20
9.544880
 30
0.000000
  0
VERTEX
  8
LAYER-1
 10
5.746127
 20
9.544880
 30
0.000000
  0
VERTEX
  8
LAYER-1
 10
5.746127
 20
9.501477
 30
0.000000
  0
VERTEX
  8
LAYER-1
 10
1.827724
 20
9.501477
 30
0.000000
  0
SEQEND
  8
LAYER-1
  0
TEXT
  8
LAYER-1
 62
  7
 10
1.942308
 20
8.976904
 30
0.000000
 40
0.187500
  1
Moteur tubulaire 
 72
  5
 11
4.009615
 21
8.976904
 31
0.000000
  0
TEXT
  8
LAYER-1
 62
  7
 10
4.009615
 20
8.976904
 30
0.000000
 40
0.122596
  1
(baril 4" - 102mm dia)
 72
  5
 11
5.644231
 21
8.976904
 31
0.000000
  0
POLYLINE
  8
LAYER-2
 66
  1
 70
  1
 62
  7
  0
VERTEX
  8
LAYER-2
 10
2.461540
 20
32.215306
 30
0.000000
  0
VERTEX
  8
LAYER-2
 10
2.653848
 20
32.215306
 30
0.000000
  0
VERTEX
  8
LAYER-2
 10
2.653848
 20
24.176831
 30
0.000000
  0
VERTEX
  8
LAYER-2
 10
2.461540
 20
24.176831
 30
0.000000
  0
SEQEND
  8
LAYER-2
  0
POLYLINE
  8
LAYER-2
 66
  1
 70
  1
 62
255
 10
2.673757
 20
27.063077
 30
0.000000
  0
VERTEX
  8
LAYER-2
 10
2.673757
 20
27.063077
 30
0.000000
  0
VERTEX
  8
LAYER-2
 10
2.698391
 20
27.100661
 30
0.000000
  0
VERTEX
  8
LAYER-2
 10
2.722628
 20
27.063077
 30
0.000000
  0
VERTEX
  8
LAYER-2
 10
2.747258
 20
27.100661
 30
0.000000
  0
VERTEX
  8
LAYER-2
 10
2.771495
 20
27.063077
 30
0.000000
  0
VERTEX
  8
LAYER-2
 10
2.796128
 20
27.100661
 30
0.000000
  0
VERTEX
  8
LAYER-2
 10
2.820363
 20
27.063077
 30
0.000000
  0
VERTEX
  8
LAYER-2
 10
2.844994
 20
27.100661
 30
0.000000
  0
VERTEX
  8
LAYER-2
 10
2.869232
 20
27.063077
 30
0.000000
  0
VERTEX
  8
LAYER-2
 10
2.893863
 20
27.100661
 30
0.000000
  0
VERTEX
  8
LAYER-2
 10
2.918100
 20
27.063077
 30
0.000000
  0
VERTEX
  8
LAYER-2
 10
2.942732
 20
27.100661
 30
0.000000
  0
VERTEX
  8
LAYER-2
 10
2.966969
 20
27.063077
 30
0.000000
  0
VERTEX
  8
LAYER-2
 10
2.991600
 20
27.100661
 30
0.000000
  0
VERTEX
  8
LAYER-2
 10
3.016231
 20
27.063077
 30
0.000000
  0
VERTEX
  8
LAYER-2
 10
3.017509
 20
27.063077
 30
0.000000
  0
VERTEX
  8
LAYER-2
 10
3.042142
 20
27.100661
 30
0.000000
  0
VERTEX
  8
LAYER-2
 10
3.066379
 20
27.063077
 30
0.000000
  0
VERTEX
  8
LAYER-2
 10
3.091009
 20
27.100661
 30
0.000000
  0
VERTEX
  8
LAYER-2
 10
3.115245
 20
27.063077
 30
0.000000
  0
VERTEX
  8
LAYER-2
 10
3.139878
 20
27.100661
 30
0.000000
  0
VERTEX
  8
LAYER-2
 10
3.164113
 20
27.063077
 30
0.000000
  0
VERTEX
  8
LAYER-2
 10
3.188744
 20
27.100661
 30
0.000000
  0
VERTEX
  8
LAYER-2
 10
3.212982
 20
27.063077
 30
0.000000
  0
VERTEX
  8
LAYER-2
 10
3.237613
 20
27.100661
 30
0.000000
  0
VERTEX
  8
LAYER-2
 10
3.261851
 20
27.063077
 30
0.000000
  0
VERTEX
  8
LAYER-2
 10
3.286482
 20
27.100661
 30
0.000000
  0
VERTEX
  8
LAYER-2
 10
3.310719
 20
27.063077
 30
0.000000
  0
VERTEX
  8
LAYER-2
 10
3.335350
 20
27.100661
 30
0.000000
  0
VERTEX
  8
LAYER-2
 10
3.359588
 20
27.063077
 30
0.000000
  0
VERTEX
  8
LAYER-2
 10
3.384220
 20
27.100661
 30
0.000000
  0
VERTEX
  8
LAYER-2
 10
3.408457
 20
27.063077
 30
0.000000
  0
VERTEX
  8
LAYER-2
 10
3.433088
 20
27.100661
 30
0.000000
  0
VERTEX
  8
LAYER-2
 10
3.457324
 20
27.063077
 30
0.000000
  0
VERTEX
  8
LAYER-2
 10
3.481956
 20
27.100661
 30
0.000000
  0
VERTEX
  8
LAYER-2
 10
3.506194
 20
27.063077
 30
0.000000
  0
VERTEX
  8
LAYER-2
 10
3.530825
 20
27.100661
 30
0.000000
  0
VERTEX
  8
LAYER-2
 10
3.555062
 20
27.063077
 30
0.000000
  0
VERTEX
  8
LAYER-2
 10
3.579693
 20
27.100661
 30
0.000000
  0
VERTEX
  8
LAYER-2
 10
3.603931
 20
27.063077
 30
0.000000
  0
VERTEX
  8
LAYER-2
 10
3.628562
 20
27.100661
 30
0.000000
  0
VERTEX
  8
LAYER-2
 10
3.652799
 20
27.063077
 30
0.000000
  0
VERTEX
  8
LAYER-2
 10
3.677431
 20
27.100661
 30
0.000000
  0
VERTEX
  8
LAYER-2
 10
3.702062
 20
27.063077
 30
0.000000
  0
VERTEX
  8
LAYER-2
 10
3.702062
 20
26.872488
 30
0.000000
  0
VERTEX
  8
LAYER-2
 10
3.682248
 20
26.856863
 30
0.000000
  0
VERTEX
  8
LAYER-2
 10
3.658272
 20
26.894571
 30
0.000000
  0
VERTEX
  8
LAYER-2
 10
3.633641
 20
26.856990
 30
0.000000
  0
VERTEX
  8
LAYER-2
 10
3.609010
 20
26.894571
 30
0.000000
  0
VERTEX
  8
LAYER-2
 10
3.584772
 20
26.856990
 30
0.000000
  0
VERTEX
  8
LAYER-2
 10
3.560141
 20
26.894571
 30
0.000000
  0
VERTEX
  8
LAYER-2
 10
3.535904
 20
26.856990
 30
0.000000
  0
VERTEX
  8
LAYER-2
 10
3.511272
 20
26.894571
 30
0.000000
  0
VERTEX
  8
LAYER-2
 10
3.487036
 20
26.856990
 30
0.000000
  0
VERTEX
  8
LAYER-2
 10
3.462403
 20
26.894571
 30
0.000000
  0
VERTEX
  8
LAYER-2
 10
3.438166
 20
26.856990
 30
0.000000
  0
VERTEX
  8
LAYER-2
 10
3.413536
 20
26.894571
 30
0.000000
  0
VERTEX
  8
LAYER-2
 10
3.389298
 20
26.856990
 30
0.000000
  0
VERTEX
  8
LAYER-2
 10
3.364669
 20
26.894571
 30
0.000000
  0
VERTEX
  8
LAYER-2
 10
3.340431
 20
26.856990
 30
0.000000
  0
VERTEX
  8
LAYER-2
 10
3.315798
 20
26.894571
 30
0.000000
  0
VERTEX
  8
LAYER-2
 10
3.291561
 20
26.856990
 30
0.000000
  0
VERTEX
  8
LAYER-2
 10
3.266931
 20
26.894571
 30
0.000000
  0
VERTEX
  8
LAYER-2
 10
3.242694
 20
26.856990
 30
0.000000
  0
VERTEX
  8
LAYER-2
 10
3.218061
 20
26.894571
 30
0.000000
  0
VERTEX
  8
LAYER-2
 10
3.193823
 20
26.856990
 30
0.000000
  0
VERTEX
  8
LAYER-2
 10
3.169194
 20
26.894571
 30
0.000000
  0
VERTEX
  8
LAYER-2
 10
3.144957
 20
26.856990
 30
0.000000
  0
VERTEX
  8
LAYER-2
 10
3.120324
 20
26.894571
 30
0.000000
  0
VERTEX
  8
LAYER-2
 10
3.096088
 20
26.856990
 30
0.000000
  0
VERTEX
  8
LAYER-2
 10
3.071458
 20
26.894571
 30
0.000000
  0
VERTEX
  8
LAYER-2
 10
3.047221
 20
26.856990
 30
0.000000
  0
VERTEX
  8
LAYER-2
 10
3.022588
 20
26.894571
 30
0.000000
  0
VERTEX
  8
LAYER-2
 10
2.998351
 20
26.856990
 30
0.000000
  0
VERTEX
  8
LAYER-2
 10
2.950963
 20
26.861800
 30
0.000000
  0
VERTEX
  8
LAYER-2
 10
2.947811
 20
26.856990
 30
0.000000
  0
VERTEX
  8
LAYER-2
 10
2.944209
 20
26.862485
 30
0.000000
  0
VERTEX
  8
LAYER-2
 10
2.905051
 20
26.866460
 30
0.000000
  0
VERTEX
  8
LAYER-2
 10
2.898944
 20
26.856990
 30
0.000000
  0
VERTEX
  8
LAYER-2
 10
2.891859
 20
26.867798
 30
0.000000
  0
VERTEX
  8
LAYER-2
 10
2.859184
 20
26.871117
 30
0.000000
  0
VERTEX
  8
LAYER-2
 10
2.850074
 20
26.856990
 30
0.000000
  0
VERTEX
  8
LAYER-2
 10
2.839507
 20
26.873113
 30
0.000000
  0
VERTEX
  8
LAYER-2
 10
2.813320
 20
26.875770
 30
0.000000
  0
VERTEX
  8
LAYER-2
 10
2.801207
 20
26.856990
 30
0.000000
  0
VERTEX
  8
LAYER-2
 10
2.787155
 20
26.878427
 30
0.000000
  0
VERTEX
  8
LAYER-2
 10
2.767451
 20
26.880427
 30
0.000000
  0
VERTEX
  8
LAYER-2
 10
2.752336
 20
26.856990
 30
0.000000
  0
VERTEX
  8
LAYER-2
 10
2.734805
 20
26.883740
 30
0.000000
  0
VERTEX
  8
LAYER-2
 10
2.721587
 20
26.885080
 30
0.000000
  0
VERTEX
  8
LAYER-2
 10
2.703470
 20
26.856990
 30
0.000000
  0
VERTEX
  8
LAYER-2
 10
2.682453
 20
26.889055
 30
0.000000
  0
VERTEX
  8
LAYER-2
 10
2.675720
 20
26.889738
 30
0.000000
  0
VERTEX
  8
LAYER-2
 10
2.654599
 20
26.856990
 30
0.000000
  0
VERTEX
  8
LAYER-2
 10
2.628101
 20
26.894571
 30
0.000000
  0
VERTEX
  8
LAYER-2
 10
2.487117
 20
26.786508
 30
0.000000
  0
VERTEX
  8
LAYER-2
 10
2.461102
 20
26.786508
 30
0.000000
  0
VERTEX
  8
LAYER-2
 10
2.461102
 20
27.183730
 30
0.000000
  0
VERTEX
  8
LAYER-2
 10
2.487117
 20
27.183730
 30
0.000000
  0
VERTEX
  8
LAYER-2
 10
2.628101
 20
27.063077
 30
0.000000
  0
SEQEND
  8
LAYER-2
  0
POLYLINE
  8
LAYER-2
 66
  1
 70
  0
 62
  7
 10
3.340431
 20
26.856990
 30
0.000000
  0
VERTEX
  8
LAYER-2
 10
3.340431
 20
26.856990
 30
0.000000
  0
VERTEX
  8
LAYER-2
 10
3.315798
 20
26.894571
 30
0.000000
  0
SEQEND
  8
LAYER-2
  0
POLYLINE
  8
LAYER-2
 66
  1
 70
  0
 62
  7
 10
3.340431
 20
26.856990
 30
0.000000
  0
VERTEX
  8
LAYER-2
 10
3.340431
 20
26.856990
 30
0.000000
  0
VERTEX
  8
LAYER-2
 10
3.365061
 20
26.894571
 30
0.000000
  0
SEQEND
  8
LAYER-2
  0
POLYLINE
  8
LAYER-2
 66
  1
 70
  0
 62
  7
 10
3.384220
 20
27.100661
 30
0.000000
  0
VERTEX
  8
LAYER-2
 10
3.384220
 20
27.100661
 30
0.000000
  0
VERTEX
  8
LAYER-2
 10
3.359588
 20
27.063077
 30
0.000000
  0
SEQEND
  8
LAYER-2
  0
POLYLINE
  8
LAYER-2
 66
  1
 70
  0
 62
  7
 10
3.384220
 20
27.100661
 30
0.000000
  0
VERTEX
  8
LAYER-2
 10
3.384220
 20
27.100661
 30
0.000000
  0
VERTEX
  8
LAYER-2
 10
3.408851
 20
27.063077
 30
0.000000
  0
SEQEND
  8
LAYER-2
  0
POLYLINE
  8
LAYER-2
 66
  1
 70
  0
 62
  7
 10
3.315798
 20
26.894571
 30
0.000000
  0
VERTEX
  8
LAYER-2
 10
3.315798
 20
26.894571
 30
0.000000
  0
VERTEX
  8
LAYER-2
 10
3.359588
 20
27.063077
 30
0.000000
  0
SEQEND
  8
LAYER-2
  0
POLYLINE
  8
LAYER-2
 66
  1
 70
  0
 62
  7
 10
3.340431
 20
26.856990
 30
0.000000
  0
VERTEX
  8
LAYER-2
 10
3.340431
 20
26.856990
 30
0.000000
  0
VERTEX
  8
LAYER-2
 10
3.384220
 20
27.100661
 30
0.000000
  0
SEQEND
  8
LAYER-2
  0
POLYLINE
  8
LAYER-2
 66
  1
 70
  0
 62
  7
 10
3.389298
 20
26.856990
 30
0.000000
  0
VERTEX
  8
LAYER-2
 10
3.389298
 20
26.856990
 30
0.000000
  0
VERTEX
  8
LAYER-2
 10
3.364669
 20
26.894571
 30
0.000000
  0
SEQEND
  8
LAYER-2
  0
POLYLINE
  8
LAYER-2
 66
  1
 70
  0
 62
  7
 10
3.389298
 20
26.856990
 30
0.000000
  0
VERTEX
  8
LAYER-2
 10
3.389298
 20
26.856990
 30
0.000000
  0
VERTEX
  8
LAYER-2
 10
3.413930
 20
26.894571
 30
0.000000
  0
SEQEND
  8
LAYER-2
  0
POLYLINE
  8
LAYER-2
 66
  1
 70
  0
 62
  7
 10
3.433088
 20
27.100661
 30
0.000000
  0
VERTEX
  8
LAYER-2
 10
3.433088
 20
27.100661
 30
0.000000
  0
VERTEX
  8
LAYER-2
 10
3.408457
 20
27.063077
 30
0.000000
  0
SEQEND
  8
LAYER-2
  0
POLYLINE
  8
LAYER-2
 66
  1
 70
  0
 62
  7
 10
3.433088
 20
27.100661
 30
0.000000
  0
VERTEX
  8
LAYER-2
 10
3.433088
 20
27.100661
 30
0.000000
  0
VERTEX
  8
LAYER-2
 10
3.457718
 20
27.063077
 30
0.000000
  0
SEQEND
  8
LAYER-2
  0
POLYLINE
  8
LAYER-2
 66
  1
 70
  0
 62
  7
 10
3.364669
 20
26.894571
 30
0.000000
  0
VERTEX
  8
LAYER-2
 10
3.364669
 20
26.894571
 30
0.000000
  0
VERTEX
  8
LAYER-2
 10
3.408457
 20
27.063077
 30
0.000000
  0
SEQEND
  8
LAYER-2
  0
POLYLINE
  8
LAYER-2
 66
  1
 70
  0
 62
  7
 10
3.389298
 20
26.856990
 30
0.000000
  0
VERTEX
  8
LAYER-2
 10
3.389298
 20
26.856990
 30
0.000000
  0
VERTEX
  8
LAYER-2
 10
3.433088
 20
27.100661
 30
0.000000
  0
SEQEND
  8
LAYER-2
  0
POLYLINE
  8
LAYER-2
 66
  1
 70
  0
 62
  7
 10
3.438166
 20
26.856990
 30
0.000000
  0
VERTEX
  8
LAYER-2
 10
3.438166
 20
26.856990
 30
0.000000
  0
VERTEX
  8
LAYER-2
 10
3.413536
 20
26.894571
 30
0.000000
  0
SEQEND
  8
LAYER-2
  0
POLYLINE
  8
LAYER-2
 66
  1
 70
  0
 62
  7
 10
3.438166
 20
26.856990
 30
0.000000
  0
VERTEX
  8
LAYER-2
 10
3.438166
 20
26.856990
 30
0.000000
  0
VERTEX
  8
LAYER-2
 10
3.462797
 20
26.894571
 30
0.000000
  0
SEQEND
  8
LAYER-2
  0
POLYLINE
  8
LAYER-2
 66
  1
 70
  0
 62
  7
 10
3.481956
 20
27.100661
 30
0.000000
  0
VERTEX
  8
LAYER-2
 10
3.481956
 20
27.100661
 30
0.000000
  0
VERTEX
  8
LAYER-2
 10
3.457324
 20
27.063077
 30
0.000000
  0
SEQEND
  8
LAYER-2
  0
POLYLINE
  8
LAYER-2
 66
  1
 70
  0
 62
  7
 10
3.481956
 20
27.100661
 30
0.000000
  0
VERTEX
  8
LAYER-2
 10
3.481956
 20
27.100661
 30
0.000000
  0
VERTEX
  8
LAYER-2
 10
3.506588
 20
27.063077
 30
0.000000
  0
SEQEND
  8
LAYER-2
  0
POLYLINE
  8
LAYER-2
 66
  1
 70
  0
 62
  7
 10
3.413536
 20
26.894571
 30
0.000000
  0
VERTEX
  8
LAYER-2
 10
3.413536
 20
26.894571
 30
0.000000
  0
VERTEX
  8
LAYER-2
 10
3.457324
 20
27.063077
 30
0.000000
  0
SEQEND
  8
LAYER-2
  0
POLYLINE
  8
LAYER-2
 66
  1
 70
  0
 62
  7
 10
3.438166
 20
26.856990
 30
0.000000
  0
VERTEX
  8
LAYER-2
 10
3.438166
 20
26.856990
 30
0.000000
  0
VERTEX
  8
LAYER-2
 10
3.481956
 20
27.100661
 30
0.000000
  0
SEQEND
  8
LAYER-2
  0
POLYLINE
  8
LAYER-2
 66
  1
 70
  0
 62
  7
 10
3.487036
 20
26.856990
 30
0.000000
  0
VERTEX
  8
LAYER-2
 10
3.487036
 20
26.856990
 30
0.000000
  0
VERTEX
  8
LAYER-2
 10
3.462403
 20
26.894571
 30
0.000000
  0
SEQEND
  8
LAYER-2
  0
POLYLINE
  8
LAYER-2
 66
  1
 70
  0
 62
  7
 10
3.487036
 20
26.856990
 30
0.000000
  0
VERTEX
  8
LAYER-2
 10
3.487036
 20
26.856990
 30
0.000000
  0
VERTEX
  8
LAYER-2
 10
3.511667
 20
26.894571
 30
0.000000
  0
SEQEND
  8
LAYER-2
  0
POLYLINE
  8
LAYER-2
 66
  1
 70
  0
 62
  7
 10
3.530825
 20
27.100661
 30
0.000000
  0
VERTEX
  8
LAYER-2
 10
3.530825
 20
27.100661
 30
0.000000
  0
VERTEX
  8
LAYER-2
 10
3.506194
 20
27.063077
 30
0.000000
  0
SEQEND
  8
LAYER-2
  0
POLYLINE
  8
LAYER-2
 66
  1
 70
  0
 62
  7
 10
3.530825
 20
27.100661
 30
0.000000
  0
VERTEX
  8
LAYER-2
 10
3.530825
 20
27.100661
 30
0.000000
  0
VERTEX
  8
LAYER-2
 10
3.555457
 20
27.063077
 30
0.000000
  0
SEQEND
  8
LAYER-2
  0
POLYLINE
  8
LAYER-2
 66
  1
 70
  0
 62
  7
 10
3.462403
 20
26.894571
 30
0.000000
  0
VERTEX
  8
LAYER-2
 10
3.462403
 20
26.894571
 30
0.000000
  0
VERTEX
  8
LAYER-2
 10
3.506194
 20
27.063077
 30
0.000000
  0
SEQEND
  8
LAYER-2
  0
POLYLINE
  8
LAYER-2
 66
  1
 70
  0
 62
  7
 10
3.487036
 20
26.856990
 30
0.000000
  0
VERTEX
  8
LAYER-2
 10
3.487036
 20
26.856990
 30
0.000000
  0
VERTEX
  8
LAYER-2
 10
3.530825
 20
27.100661
 30
0.000000
  0
SEQEND
  8
LAYER-2
  0
POLYLINE
  8
LAYER-2
 66
  1
 70
  0
 62
  7
 10
3.535904
 20
26.856990
 30
0.000000
  0
VERTEX
  8
LAYER-2
 10
3.535904
 20
26.856990
 30
0.000000
  0
VERTEX
  8
LAYER-2
 10
3.511272
 20
26.894571
 30
0.000000
  0
SEQEND
  8
LAYER-2
  0
POLYLINE
  8
LAYER-2
 66
  1
 70
  0
 62
  7
 10
3.535904
 20
26.856990
 30
0.000000
  0
VERTEX
  8
LAYER-2
 10
3.535904
 20
26.856990
 30
0.000000
  0
VERTEX
  8
LAYER-2
 10
3.560535
 20
26.894571
 30
0.000000
  0
SEQEND
  8
LAYER-2
  0
POLYLINE
  8
LAYER-2
 66
  1
 70
  0
 62
  7
 10
3.579693
 20
27.100661
 30
0.000000
  0
VERTEX
  8
LAYER-2
 10
3.579693
 20
27.100661
 30
0.000000
  0
VERTEX
  8
LAYER-2
 10
3.555062
 20
27.063077
 30
0.000000
  0
SEQEND
  8
LAYER-2
  0
POLYLINE
  8
LAYER-2
 66
  1
 70
  0
 62
  7
 10
3.579693
 20
27.100661
 30
0.000000
  0
VERTEX
  8
LAYER-2
 10
3.579693
 20
27.100661
 30
0.000000
  0
VERTEX
  8
LAYER-2
 10
3.604325
 20
27.063077
 30
0.000000
  0
SEQEND
  8
LAYER-2
  0
POLYLINE
  8
LAYER-2
 66
  1
 70
  0
 62
  7
 10
3.511272
 20
26.894571
 30
0.000000
  0
VERTEX
  8
LAYER-2
 10
3.511272
 20
26.894571
 30
0.000000
  0
VERTEX
  8
LAYER-2
 10
3.555062
 20
27.063077
 30
0.000000
  0
SEQEND
  8
LAYER-2
  0
POLYLINE
  8
LAYER-2
 66
  1
 70
  0
 62
  7
 10
3.535904
 20
26.856990
 30
0.000000
  0
VERTEX
  8
LAYER-2
 10
3.535904
 20
26.856990
 30
0.000000
  0
VERTEX
  8
LAYER-2
 10
3.579693
 20
27.100661
 30
0.000000
  0
SEQEND
  8
LAYER-2
  0
POLYLINE
  8
LAYER-2
 66
  1
 70
  0
 62
  7
 10
3.584772
 20
26.856990
 30
0.000000
  0
VERTEX
  8
LAYER-2
 10
3.584772
 20
26.856990
 30
0.000000
  0
VERTEX
  8
LAYER-2
 10
3.560141
 20
26.894571
 30
0.000000
  0
SEQEND
  8
LAYER-2
  0
POLYLINE
  8
LAYER-2
 66
  1
 70
  0
 62
  7
 10
3.584772
 20
26.856990
 30
0.000000
  0
VERTEX
  8
LAYER-2
 10
3.584772
 20
26.856990
 30
0.000000
  0
VERTEX
  8
LAYER-2
 10
3.609403
 20
26.894571
 30
0.000000
  0
SEQEND
  8
LAYER-2
  0
POLYLINE
  8
LAYER-2
 66
  1
 70
  0
 62
  7
 10
3.628562
 20
27.100661
 30
0.000000
  0
VERTEX
  8
LAYER-2
 10
3.628562
 20
27.100661
 30
0.000000
  0
VERTEX
  8
LAYER-2
 10
3.603931
 20
27.063077
 30
0.000000
  0
SEQEND
  8
LAYER-2
  0
POLYLINE
  8
LAYER-2
 66
  1
 70
  0
 62
  7
 10
3.628562
 20
27.100661
 30
0.000000
  0
VERTEX
  8
LAYER-2
 10
3.628562
 20
27.100661
 30
0.000000
  0
VERTEX
  8
LAYER-2
 10
3.653193
 20
27.063077
 30
0.000000
  0
SEQEND
  8
LAYER-2
  0
POLYLINE
  8
LAYER-2
 66
  1
 70
  0
 62
  7
 10
3.560141
 20
26.894571
 30
0.000000
  0
VERTEX
  8
LAYER-2
 10
3.560141
 20
26.894571
 30
0.000000
  0
VERTEX
  8
LAYER-2
 10
3.603931
 20
27.063077
 30
0.000000
  0
SEQEND
  8
LAYER-2
  0
POLYLINE
  8
LAYER-2
 66
  1
 70
  0
 62
  7
 10
3.584772
 20
26.856990
 30
0.000000
  0
VERTEX
  8
LAYER-2
 10
3.584772
 20
26.856990
 30
0.000000
  0
VERTEX
  8
LAYER-2
 10
3.628562
 20
27.100661
 30
0.000000
  0
SEQEND
  8
LAYER-2
  0
POLYLINE
  8
LAYER-2
 66
  1
 70
  0
 62
  7
 10
3.633641
 20
26.856990
 30
0.000000
  0
VERTEX
  8
LAYER-2
 10
3.633641
 20
26.856990
 30
0.000000
  0
VERTEX
  8
LAYER-2
 10
3.609010
 20
26.894571
 30
0.000000
  0
SEQEND
  8
LAYER-2
  0
POLYLINE
  8
LAYER-2
 66
  1
 70
  0
 62
  7
 10
3.633641
 20
26.856990
 30
0.000000
  0
VERTEX
  8
LAYER-2
 10
3.633641
 20
26.856990
 30
0.000000
  0
VERTEX
  8
LAYER-2
 10
3.677431
 20
27.100661
 30
0.000000
  0
SEQEND
  8
LAYER-2
  0
POLYLINE
  8
LAYER-2
 66
  1
 70
  0
 62
  7
 10
3.633641
 20
26.856990
 30
0.000000
  0
VERTEX
  8
LAYER-2
 10
3.633641
 20
26.856990
 30
0.000000
  0
VERTEX
  8
LAYER-2
 10
3.658272
 20
26.894571
 30
0.000000
  0
SEQEND
  8
LAYER-2
  0
POLYLINE
  8
LAYER-2
 66
  1
 70
  0
 62
  7
 10
3.677431
 20
27.100661
 30
0.000000
  0
VERTEX
  8
LAYER-2
 10
3.677431
 20
27.100661
 30
0.000000
  0
VERTEX
  8
LAYER-2
 10
3.652799
 20
27.063077
 30
0.000000
  0
SEQEND
  8
LAYER-2
  0
POLYLINE
  8
LAYER-2
 66
  1
 70
  0
 62
  7
 10
3.677431
 20
27.100661
 30
0.000000
  0
VERTEX
  8
LAYER-2
 10
3.677431
 20
27.100661
 30
0.000000
  0
VERTEX
  8
LAYER-2
 10
3.702062
 20
27.063077
 30
0.000000
  0
SEQEND
  8
LAYER-2
  0
POLYLINE
  8
LAYER-2
 66
  1
 70
  0
 62
  7
 10
3.609010
 20
26.894571
 30
0.000000
  0
VERTEX
  8
LAYER-2
 10
3.609010
 20
26.894571
 30
0.000000
  0
VERTEX
  8
LAYER-2
 10
3.652799
 20
27.063077
 30
0.000000
  0
SEQEND
  8
LAYER-2
  0
POLYLINE
  8
LAYER-2
 66
  1
 70
  0
 62
  7
 10
3.702062
 20
27.063077
 30
0.000000
  0
VERTEX
  8
LAYER-2
 10
3.702062
 20
27.063077
 30
0.000000
  0
VERTEX
  8
LAYER-2
 10
3.702062
 20
26.872488
 30
0.000000
  0
SEQEND
  8
LAYER-2
  0
POLYLINE
  8
LAYER-2
 66
  1
 70
  0
 62
  7
 10
3.658272
 20
26.894571
 30
0.000000
  0
VERTEX
  8
LAYER-2
 10
3.658272
 20
26.894571
 30
0.000000
  0
VERTEX
  8
LAYER-2
 10
3.702062
 20
27.063077
 30
0.000000
  0
SEQEND
  8
LAYER-2
  0
POLYLINE
  8
LAYER-2
 66
  1
 70
  0
 62
  7
 10
3.682248
 20
26.856863
 30
0.000000
  0
VERTEX
  8
LAYER-2
 10
3.682248
 20
26.856863
 30
0.000000
  0
VERTEX
  8
LAYER-2
 10
3.658272
 20
26.894571
 30
0.000000
  0
SEQEND
  8
LAYER-2
  0
POLYLINE
  8
LAYER-2
 66
  1
 70
  0
 62
  7
 10
3.682248
 20
26.856863
 30
0.000000
  0
VERTEX
  8
LAYER-2
 10
3.682248
 20
26.856863
 30
0.000000
  0
VERTEX
  8
LAYER-2
 10
3.702214
 20
26.968844
 30
0.000000
  0
SEQEND
  8
LAYER-2
  0
POLYLINE
  8
LAYER-2
 66
  1
 70
  0
 62
  7
 10
3.682248
 20
26.856863
 30
0.000000
  0
VERTEX
  8
LAYER-2
 10
3.682248
 20
26.856863
 30
0.000000
  0
VERTEX
  8
LAYER-2
 10
3.702062
 20
26.872488
 30
0.000000
  0
SEQEND
  8
LAYER-2
  0
POLYLINE
  8
LAYER-2
 66
  1
 70
  0
 62
  7
 10
2.461102
 20
26.786508
 30
0.000000
  0
VERTEX
  8
LAYER-2
 10
2.461102
 20
26.786508
 30
0.000000
  0
VERTEX
  8
LAYER-2
 10
2.461102
 20
27.183730
 30
0.000000
  0
SEQEND
  8
LAYER-2
  0
POLYLINE
  8
LAYER-2
 66
  1
 70
  0
 62
  7
 10
2.628116
 20
26.894534
 30
0.000000
  0
VERTEX
  8
LAYER-2
 10
2.628116
 20
26.894534
 30
0.000000
  0
VERTEX
  8
LAYER-2
 10
2.487117
 20
26.786508
 30
0.000000
  0
SEQEND
  8
LAYER-2
  0
POLYLINE
  8
LAYER-2
 66
  1
 70
  0
 62
  7
 10
2.628101
 20
27.063077
 30
0.000000
  0
VERTEX
  8
LAYER-2
 10
2.628101
 20
27.063077
 30
0.000000
  0
VERTEX
  8
LAYER-2
 10
2.487117
 20
27.183730
 30
0.000000
  0
SEQEND
  8
LAYER-2
  0
POLYLINE
  8
LAYER-2
 66
  1
 70
  0
 62
  7
 10
2.461102
 20
26.786508
 30
0.000000
  0
VERTEX
  8
LAYER-2
 10
2.461102
 20
26.786508
 30
0.000000
  0
VERTEX
  8
LAYER-2
 10
2.487117
 20
26.786508
 30
0.000000
  0
SEQEND
  8
LAYER-2
  0
POLYLINE
  8
LAYER-2
 66
  1
 70
  0
 62
  7
 10
2.461102
 20
27.183730
 30
0.000000
  0
VERTEX
  8
LAYER-2
 10
2.461102
 20
27.183730
 30
0.000000
  0
VERTEX
  8
LAYER-2
 10
2.487117
 20
27.183730
 30
0.000000
  0
SEQEND
  8
LAYER-2
  0
POLYLINE
  8
LAYER-2
 66
  1
 70
  0
 62
  7
 10
2.487117
 20
26.786508
 30
0.000000
  0
VERTEX
  8
LAYER-2
 10
2.487117
 20
26.786508
 30
0.000000
  0
VERTEX
  8
LAYER-2
 10
2.487117
 20
27.183730
 30
0.000000
  0
SEQEND
  8
LAYER-2
  0
POLYLINE
  8
LAYER-2
 66
  1
 70
  0
 62
  7
 10
2.998351
 20
26.856990
 30
0.000000
  0
VERTEX
  8
LAYER-2
 10
2.998351
 20
26.856990
 30
0.000000
  0
VERTEX
  8
LAYER-2
 10
2.973721
 20
26.894571
 30
0.000000
  0
SEQEND
  8
LAYER-2
  0
POLYLINE
  8
LAYER-2
 66
  1
 70
  0
 62
  7
 10
2.998351
 20
26.856990
 30
0.000000
  0
VERTEX
  8
LAYER-2
 10
2.998351
 20
26.856990
 30
0.000000
  0
VERTEX
  8
LAYER-2
 10
3.022984
 20
26.894571
 30
0.000000
  0
SEQEND
  8
LAYER-2
  0
POLYLINE
  8
LAYER-2
 66
  1
 70
  0
 62
  7
 10
3.042142
 20
27.100661
 30
0.000000
  0
VERTEX
  8
LAYER-2
 10
3.042142
 20
27.100661
 30
0.000000
  0
VERTEX
  8
LAYER-2
 10
3.017509
 20
27.063077
 30
0.000000
  0
SEQEND
  8
LAYER-2
  0
POLYLINE
  8
LAYER-2
 66
  1
 70
  0
 62
  7
 10
3.042142
 20
27.100661
 30
0.000000
  0
VERTEX
  8
LAYER-2
 10
3.042142
 20
27.100661
 30
0.000000
  0
VERTEX
  8
LAYER-2
 10
3.066771
 20
27.063077
 30
0.000000
  0
SEQEND
  8
LAYER-2
  0
POLYLINE
  8
LAYER-2
 66
  1
 70
  0
 62
  7
 10
2.973721
 20
26.894571
 30
0.000000
  0
VERTEX
  8
LAYER-2
 10
2.973721
 20
26.894571
 30
0.000000
  0
VERTEX
  8
LAYER-2
 10
3.017509
 20
27.063077
 30
0.000000
  0
SEQEND
  8
LAYER-2
  0
POLYLINE
  8
LAYER-2
 66
  1
 70
  0
 62
  7
 10
2.998351
 20
26.856990
 30
0.000000
  0
VERTEX
  8
LAYER-2
 10
2.998351
 20
26.856990
 30
0.000000
  0
VERTEX
  8
LAYER-2
 10
3.042142
 20
27.100661
 30
0.000000
  0
SEQEND
  8
LAYER-2
  0
POLYLINE
  8
LAYER-2
 66
  1
 70
  0
 62
  7
 10
3.047221
 20
26.856990
 30
0.000000
  0
VERTEX
  8
LAYER-2
 10
3.047221
 20
26.856990
 30
0.000000
  0
VERTEX
  8
LAYER-2
 10
3.022588
 20
26.894571
 30
0.000000
  0
SEQEND
  8
LAYER-2
  0
POLYLINE
  8
LAYER-2
 66
  1
 70
  0
 62
  7
 10
3.047221
 20
26.856990
 30
0.000000
  0
VERTEX
  8
LAYER-2
 10
3.047221
 20
26.856990
 30
0.000000
  0
VERTEX
  8
LAYER-2
 10
3.071850
 20
26.894571
 30
0.000000
  0
SEQEND
  8
LAYER-2
  0
POLYLINE
  8
LAYER-2
 66
  1
 70
  0
 62
  7
 10
3.091009
 20
27.100661
 30
0.000000
  0
VERTEX
  8
LAYER-2
 10
3.091009
 20
27.100661
 30
0.000000
  0
VERTEX
  8
LAYER-2
 10
3.066379
 20
27.063077
 30
0.000000
  0
SEQEND
  8
LAYER-2
  0
POLYLINE
  8
LAYER-2
 66
  1
 70
  0
 62
  7
 10
3.091009
 20
27.100661
 30
0.000000
  0
VERTEX
  8
LAYER-2
 10
3.091009
 20
27.100661
 30
0.000000
  0
VERTEX
  8
LAYER-2
 10
3.115641
 20
27.063077
 30
0.000000
  0
SEQEND
  8
LAYER-2
  0
POLYLINE
  8
LAYER-2
 66
  1
 70
  0
 62
  7
 10
3.022588
 20
26.894571
 30
0.000000
  0
VERTEX
  8
LAYER-2
 10
3.022588
 20
26.894571
 30
0.000000
  0
VERTEX
  8
LAYER-2
 10
3.066379
 20
27.063077
 30
0.000000
  0
SEQEND
  8
LAYER-2
  0
POLYLINE
  8
LAYER-2
 66
  1
 70
  0
 62
  7
 10
3.047221
 20
26.856990
 30
0.000000
  0
VERTEX
  8
LAYER-2
 10
3.047221
 20
26.856990
 30
0.000000
  0
VERTEX
  8
LAYER-2
 10
3.091009
 20
27.100661
 30
0.000000
  0
SEQEND
  8
LAYER-2
  0
POLYLINE
  8
LAYER-2
 66
  1
 70
  0
 62
  7
 10
3.096088
 20
26.856990
 30
0.000000
  0
VERTEX
  8
LAYER-2
 10
3.096088
 20
26.856990
 30
0.000000
  0
VERTEX
  8
LAYER-2
 10
3.071458
 20
26.894571
 30
0.000000
  0
SEQEND
  8
LAYER-2
  0
POLYLINE
  8
LAYER-2
 66
  1
 70
  0
 62
  7
 10
3.096088
 20
26.856990
 30
0.000000
  0
VERTEX
  8
LAYER-2
 10
3.096088
 20
26.856990
 30
0.000000
  0
VERTEX
  8
LAYER-2
 10
3.120720
 20
26.894571
 30
0.000000
  0
SEQEND
  8
LAYER-2
  0
POLYLINE
  8
LAYER-2
 66
  1
 70
  0
 62
  7
 10
3.139878
 20
27.100661
 30
0.000000
  0
VERTEX
  8
LAYER-2
 10
3.139878
 20
27.100661
 30
0.000000
  0
VERTEX
  8
LAYER-2
 10
3.115245
 20
27.063077
 30
0.000000
  0
SEQEND
  8
LAYER-2
  0
POLYLINE
  8
LAYER-2
 66
  1
 70
  0
 62
  7
 10
3.139878
 20
27.100661
 30
0.000000
  0
VERTEX
  8
LAYER-2
 10
3.139878
 20
27.100661
 30
0.000000
  0
VERTEX
  8
LAYER-2
 10
3.164507
 20
27.063077
 30
0.000000
  0
SEQEND
  8
LAYER-2
  0
POLYLINE
  8
LAYER-2
 66
  1
 70
  0
 62
  7
 10
3.071458
 20
26.894571
 30
0.000000
  0
VERTEX
  8
LAYER-2
 10
3.071458
 20
26.894571
 30
0.000000
  0
VERTEX
  8
LAYER-2
 10
3.115245
 20
27.063077
 30
0.000000
  0
SEQEND
  8
LAYER-2
  0
POLYLINE
  8
LAYER-2
 66
  1
 70
  0
 62
  7
 10
3.096088
 20
26.856990
 30
0.000000
  0
VERTEX
  8
LAYER-2
 10
3.096088
 20
26.856990
 30
0.000000
  0
VERTEX
  8
LAYER-2
 10
3.139878
 20
27.100661
 30
0.000000
  0
SEQEND
  8
LAYER-2
  0
POLYLINE
  8
LAYER-2
 66
  1
 70
  0
 62
  7
 10
3.144957
 20
26.856990
 30
0.000000
  0
VERTEX
  8
LAYER-2
 10
3.144957
 20
26.856990
 30
0.000000
  0
VERTEX
  8
LAYER-2
 10
3.120324
 20
26.894571
 30
0.000000
  0
SEQEND
  8
LAYER-2
  0
POLYLINE
  8
LAYER-2
 66
  1
 70
  0
 62
  7
 10
3.144957
 20
26.856990
 30
0.000000
  0
VERTEX
  8
LAYER-2
 10
3.144957
 20
26.856990
 30
0.000000
  0
VERTEX
  8
LAYER-2
 10
3.169586
 20
26.894571
 30
0.000000
  0
SEQEND
  8
LAYER-2
  0
POLYLINE
  8
LAYER-2
 66
  1
 70
  0
 62
  7
 10
3.188744
 20
27.100661
 30
0.000000
  0
VERTEX
  8
LAYER-2
 10
3.188744
 20
27.100661
 30
0.000000
  0
VERTEX
  8
LAYER-2
 10
3.164113
 20
27.063077
 30
0.000000
  0
SEQEND
  8
LAYER-2
  0
POLYLINE
  8
LAYER-2
 66
  1
 70
  0
 62
  7
 10
3.188744
 20
27.100661
 30
0.000000
  0
VERTEX
  8
LAYER-2
 10
3.188744
 20
27.100661
 30
0.000000
  0
VERTEX
  8
LAYER-2
 10
3.213376
 20
27.063077
 30
0.000000
  0
SEQEND
  8
LAYER-2
  0
POLYLINE
  8
LAYER-2
 66
  1
 70
  0
 62
  7
 10
3.120324
 20
26.894571
 30
0.000000
  0
VERTEX
  8
LAYER-2
 10
3.120324
 20
26.894571
 30
0.000000
  0
VERTEX
  8
LAYER-2
 10
3.164113
 20
27.063077
 30
0.000000
  0
SEQEND
  8
LAYER-2
  0
POLYLINE
  8
LAYER-2
 66
  1
 70
  0
 62
  7
 10
3.144957
 20
26.856990
 30
0.000000
  0
VERTEX
  8
LAYER-2
 10
3.144957
 20
26.856990
 30
0.000000
  0
VERTEX
  8
LAYER-2
 10
3.188744
 20
27.100661
 30
0.000000
  0
SEQEND
  8
LAYER-2
  0
POLYLINE
  8
LAYER-2
 66
  1
 70
  0
 62
  7
 10
3.193823
 20
26.856990
 30
0.000000
  0
VERTEX
  8
LAYER-2
 10
3.193823
 20
26.856990
 30
0.000000
  0
VERTEX
  8
LAYER-2
 10
3.169194
 20
26.894571
 30
0.000000
  0
SEQEND
  8
LAYER-2
  0
POLYLINE
  8
LAYER-2
 66
  1
 70
  0
 62
  7
 10
3.193823
 20
26.856990
 30
0.000000
  0
VERTEX
  8
LAYER-2
 10
3.193823
 20
26.856990
 30
0.000000
  0
VERTEX
  8
LAYER-2
 10
3.218457
 20
26.894571
 30
0.000000
  0
SEQEND
  8
LAYER-2
  0
POLYLINE
  8
LAYER-2
 66
  1
 70
  0
 62
  7
 10
3.237613
 20
27.100661
 30
0.000000
  0
VERTEX
  8
LAYER-2
 10
3.237613
 20
27.100661
 30
0.000000
  0
VERTEX
  8
LAYER-2
 10
3.212982
 20
27.063077
 30
0.000000
  0
SEQEND
  8
LAYER-2
  0
POLYLINE
  8
LAYER-2
 66
  1
 70
  0
 62
  7
 10
3.237613
 20
27.100661
 30
0.000000
  0
VERTEX
  8
LAYER-2
 10
3.237613
 20
27.100661
 30
0.000000
  0
VERTEX
  8
LAYER-2
 10
3.262244
 20
27.063077
 30
0.000000
  0
SEQEND
  8
LAYER-2
  0
POLYLINE
  8
LAYER-2
 66
  1
 70
  0
 62
  7
 10
3.169194
 20
26.894571
 30
0.000000
  0
VERTEX
  8
LAYER-2
 10
3.169194
 20
26.894571
 30
0.000000
  0
VERTEX
  8
LAYER-2
 10
3.212982
 20
27.063077
 30
0.000000
  0
SEQEND
  8
LAYER-2
  0
POLYLINE
  8
LAYER-2
 66
  1
 70
  0
 62
  7
 10
3.193823
 20
26.856990
 30
0.000000
  0
VERTEX
  8
LAYER-2
 10
3.193823
 20
26.856990
 30
0.000000
  0
VERTEX
  8
LAYER-2
 10
3.237613
 20
27.100661
 30
0.000000
  0
SEQEND
  8
LAYER-2
  0
POLYLINE
  8
LAYER-2
 66
  1
 70
  0
 62
  7
 10
3.242694
 20
26.856990
 30
0.000000
  0
VERTEX
  8
LAYER-2
 10
3.242694
 20
26.856990
 30
0.000000
  0
VERTEX
  8
LAYER-2
 10
3.218061
 20
26.894571
 30
0.000000
  0
SEQEND
  8
LAYER-2
  0
POLYLINE
  8
LAYER-2
 66
  1
 70
  0
 62
  7
 10
3.242694
 20
26.856990
 30
0.000000
  0
VERTEX
  8
LAYER-2
 10
3.242694
 20
26.856990
 30
0.000000
  0
VERTEX
  8
LAYER-2
 10
3.267323
 20
26.894571
 30
0.000000
  0
SEQEND
  8
LAYER-2
  0
POLYLINE
  8
LAYER-2
 66
  1
 70
  0
 62
  7
 10
3.286482
 20
27.100661
 30
0.000000
  0
VERTEX
  8
LAYER-2
 10
3.286482
 20
27.100661
 30
0.000000
  0
VERTEX
  8
LAYER-2
 10
3.261851
 20
27.063077
 30
0.000000
  0
SEQEND
  8
LAYER-2
  0
POLYLINE
  8
LAYER-2
 66
  1
 70
  0
 62
  7
 10
3.286482
 20
27.100661
 30
0.000000
  0
VERTEX
  8
LAYER-2
 10
3.286482
 20
27.100661
 30
0.000000
  0
VERTEX
  8
LAYER-2
 10
3.311113
 20
27.063077
 30
0.000000
  0
SEQEND
  8
LAYER-2
  0
POLYLINE
  8
LAYER-2
 66
  1
 70
  0
 62
  7
 10
3.218061
 20
26.894571
 30
0.000000
  0
VERTEX
  8
LAYER-2
 10
3.218061
 20
26.894571
 30
0.000000
  0
VERTEX
  8
LAYER-2
 10
3.261851
 20
27.063077
 30
0.000000
  0
SEQEND
  8
LAYER-2
  0
POLYLINE
  8
LAYER-2
 66
  1
 70
  0
 62
  7
 10
3.242694
 20
26.856990
 30
0.000000
  0
VERTEX
  8
LAYER-2
 10
3.242694
 20
26.856990
 30
0.000000
  0
VERTEX
  8
LAYER-2
 10
3.286482
 20
27.100661
 30
0.000000
  0
SEQEND
  8
LAYER-2
  0
POLYLINE
  8
LAYER-2
 66
  1
 70
  0
 62
  7
 10
3.291561
 20
26.856990
 30
0.000000
  0
VERTEX
  8
LAYER-2
 10
3.291561
 20
26.856990
 30
0.000000
  0
VERTEX
  8
LAYER-2
 10
3.266931
 20
26.894571
 30
0.000000
  0
SEQEND
  8
LAYER-2
  0
POLYLINE
  8
LAYER-2
 66
  1
 70
  0
 62
  7
 10
3.291561
 20
26.856990
 30
0.000000
  0
VERTEX
  8
LAYER-2
 10
3.291561
 20
26.856990
 30
0.000000
  0
VERTEX
  8
LAYER-2
 10
3.316194
 20
26.894571
 30
0.000000
  0
SEQEND
  8
LAYER-2
  0
POLYLINE
  8
LAYER-2
 66
  1
 70
  0
 62
  7
 10
3.335350
 20
27.100661
 30
0.000000
  0
VERTEX
  8
LAYER-2
 10
3.335350
 20
27.100661
 30
0.000000
  0
VERTEX
  8
LAYER-2
 10
3.310719
 20
27.063077
 30
0.000000
  0
SEQEND
  8
LAYER-2
  0
POLYLINE
  8
LAYER-2
 66
  1
 70
  0
 62
  7
 10
3.335350
 20
27.100661
 30
0.000000
  0
VERTEX
  8
LAYER-2
 10
3.335350
 20
27.100661
 30
0.000000
  0
VERTEX
  8
LAYER-2
 10
3.359982
 20
27.063077
 30
0.000000
  0
SEQEND
  8
LAYER-2
  0
POLYLINE
  8
LAYER-2
 66
  1
 70
  0
 62
  7
 10
3.266931
 20
26.894571
 30
0.000000
  0
VERTEX
  8
LAYER-2
 10
3.266931
 20
26.894571
 30
0.000000
  0
VERTEX
  8
LAYER-2
 10
3.310719
 20
27.063077
 30
0.000000
  0
SEQEND
  8
LAYER-2
  0
POLYLINE
  8
LAYER-2
 66
  1
 70
  0
 62
  7
 10
3.291561
 20
26.856990
 30
0.000000
  0
VERTEX
  8
LAYER-2
 10
3.291561
 20
26.856990
 30
0.000000
  0
VERTEX
  8
LAYER-2
 10
3.335350
 20
27.100661
 30
0.000000
  0
SEQEND
  8
LAYER-2
  0
POLYLINE
  8
LAYER-2
 66
  1
 70
  0
 62
  7
 10
2.654599
 20
26.856990
 30
0.000000
  0
VERTEX
  8
LAYER-2
 10
2.654599
 20
26.856990
 30
0.000000
  0
VERTEX
  8
LAYER-2
 10
2.629969
 20
26.894571
 30
0.000000
  0
SEQEND
  8
LAYER-2
  0
POLYLINE
  8
LAYER-2
 66
  1
 70
  0
 62
  7
 10
2.654599
 20
26.856990
 30
0.000000
  0
VERTEX
  8
LAYER-2
 10
2.654599
 20
26.856990
 30
0.000000
  0
VERTEX
  8
LAYER-2
 10
2.679233
 20
26.894571
 30
0.000000
  0
SEQEND
  8
LAYER-2
  0
POLYLINE
  8
LAYER-2
 66
  1
 70
  0
 62
  7
 10
2.698391
 20
27.100661
 30
0.000000
  0
VERTEX
  8
LAYER-2
 10
2.698391
 20
27.100661
 30
0.000000
  0
VERTEX
  8
LAYER-2
 10
2.673757
 20
27.063077
 30
0.000000
  0
SEQEND
  8
LAYER-2
  0
POLYLINE
  8
LAYER-2
 66
  1
 70
  0
 62
  7
 10
2.698391
 20
27.100661
 30
0.000000
  0
VERTEX
  8
LAYER-2
 10
2.698391
 20
27.100661
 30
0.000000
  0
VERTEX
  8
LAYER-2
 10
2.723020
 20
27.063077
 30
0.000000
  0
SEQEND
  8
LAYER-2
  0
POLYLINE
  8
LAYER-2
 66
  1
 70
  0
 62
  7
 10
2.629969
 20
26.894571
 30
0.000000
  0
VERTEX
  8
LAYER-2
 10
2.629969
 20
26.894571
 30
0.000000
  0
VERTEX
  8
LAYER-2
 10
2.673757
 20
27.063077
 30
0.000000
  0
SEQEND
  8
LAYER-2
  0
POLYLINE
  8
LAYER-2
 66
  1
 70
  0
 62
  7
 10
2.654599
 20
26.856990
 30
0.000000
  0
VERTEX
  8
LAYER-2
 10
2.654599
 20
26.856990
 30
0.000000
  0
VERTEX
  8
LAYER-2
 10
2.698391
 20
27.100661
 30
0.000000
  0
SEQEND
  8
LAYER-2
  0
POLYLINE
  8
LAYER-2
 66
  1
 70
  0
 62
  7
 10
2.703470
 20
26.856990
 30
0.000000
  0
VERTEX
  8
LAYER-2
 10
2.703470
 20
26.856990
 30
0.000000
  0
VERTEX
  8
LAYER-2
 10
2.678837
 20
26.894571
 30
0.000000
  0
SEQEND
  8
LAYER-2
  0
POLYLINE
  8
LAYER-2
 66
  1
 70
  0
 62
  7
 10
2.703470
 20
26.856990
 30
0.000000
  0
VERTEX
  8
LAYER-2
 10
2.703470
 20
26.856990
 30
0.000000
  0
VERTEX
  8
LAYER-2
 10
2.728099
 20
26.894571
 30
0.000000
  0
SEQEND
  8
LAYER-2
  0
POLYLINE
  8
LAYER-2
 66
  1
 70
  0
 62
  7
 10
2.747258
 20
27.100661
 30
0.000000
  0
VERTEX
  8
LAYER-2
 10
2.747258
 20
27.100661
 30
0.000000
  0
VERTEX
  8
LAYER-2
 10
2.722628
 20
27.063077
 30
0.000000
  0
SEQEND
  8
LAYER-2
  0
POLYLINE
  8
LAYER-2
 66
  1
 70
  0
 62
  7
 10
2.747258
 20
27.100661
 30
0.000000
  0
VERTEX
  8
LAYER-2
 10
2.747258
 20
27.100661
 30
0.000000
  0
VERTEX
  8
LAYER-2
 10
2.771891
 20
27.063077
 30
0.000000
  0
SEQEND
  8
LAYER-2
  0
POLYLINE
  8
LAYER-2
 66
  1
 70
  0
 62
  7
 10
2.678837
 20
26.894571
 30
0.000000
  0
VERTEX
  8
LAYER-2
 10
2.678837
 20
26.894571
 30
0.000000
  0
VERTEX
  8
LAYER-2
 10
2.722628
 20
27.063077
 30
0.000000
  0
SEQEND
  8
LAYER-2
  0
POLYLINE
  8
LAYER-2
 66
  1
 70
  0
 62
  7
 10
2.703470
 20
26.856990
 30
0.000000
  0
VERTEX
  8
LAYER-2
 10
2.703470
 20
26.856990
 30
0.000000
  0
VERTEX
  8
LAYER-2
 10
2.747258
 20
27.100661
 30
0.000000
  0
SEQEND
  8
LAYER-2
  0
POLYLINE
  8
LAYER-2
 66
  1
 70
  0
 62
  7
 10
2.752336
 20
26.856990
 30
0.000000
  0
VERTEX
  8
LAYER-2
 10
2.752336
 20
26.856990
 30
0.000000
  0
VERTEX
  8
LAYER-2
 10
2.727707
 20
26.894571
 30
0.000000
  0
SEQEND
  8
LAYER-2
  0
POLYLINE
  8
LAYER-2
 66
  1
 70
  0
 62
  7
 10
2.752336
 20
26.856990
 30
0.000000
  0
VERTEX
  8
LAYER-2
 10
2.752336
 20
26.856990
 30
0.000000
  0
VERTEX
  8
LAYER-2
 10
2.776970
 20
26.894571
 30
0.000000
  0
SEQEND
  8
LAYER-2
  0
POLYLINE
  8
LAYER-2
 66
  1
 70
  0
 62
  7
 10
2.796128
 20
27.100661
 30
0.000000
  0
VERTEX
  8
LAYER-2
 10
2.796128
 20
27.100661
 30
0.000000
  0
VERTEX
  8
LAYER-2
 10
2.771495
 20
27.063077
 30
0.000000
  0
SEQEND
  8
LAYER-2
  0
POLYLINE
  8
LAYER-2
 66
  1
 70
  0
 62
  7
 10
2.796128
 20
27.100661
 30
0.000000
  0
VERTEX
  8
LAYER-2
 10
2.796128
 20
27.100661
 30
0.000000
  0
VERTEX
  8
LAYER-2
 10
2.820757
 20
27.063077
 30
0.000000
  0
SEQEND
  8
LAYER-2
  0
POLYLINE
  8
LAYER-2
 66
  1
 70
  0
 62
  7
 10
2.727707
 20
26.894571
 30
0.000000
  0
VERTEX
  8
LAYER-2
 10
2.727707
 20
26.894571
 30
0.000000
  0
VERTEX
  8
LAYER-2
 10
2.771495
 20
27.063077
 30
0.000000
  0
SEQEND
  8
LAYER-2
  0
POLYLINE
  8
LAYER-2
 66
  1
 70
  0
 62
  7
 10
2.752336
 20
26.856990
 30
0.000000
  0
VERTEX
  8
LAYER-2
 10
2.752336
 20
26.856990
 30
0.000000
  0
VERTEX
  8
LAYER-2
 10
2.796128
 20
27.100661
 30
0.000000
  0
SEQEND
  8
LAYER-2
  0
POLYLINE
  8
LAYER-2
 66
  1
 70
  0
 62
  7
 10
2.801207
 20
26.856990
 30
0.000000
  0
VERTEX
  8
LAYER-2
 10
2.801207
 20
26.856990
 30
0.000000
  0
VERTEX
  8
LAYER-2
 10
2.776574
 20
26.894571
 30
0.000000
  0
SEQEND
  8
LAYER-2
  0
POLYLINE
  8
LAYER-2
 66
  1
 70
  0
 62
  7
 10
2.801207
 20
26.856990
 30
0.000000
  0
VERTEX
  8
LAYER-2
 10
2.801207
 20
26.856990
 30
0.000000
  0
VERTEX
  8
LAYER-2
 10
2.825836
 20
26.894571
 30
0.000000
  0
SEQEND
  8
LAYER-2
  0
POLYLINE
  8
LAYER-2
 66
  1
 70
  0
 62
  7
 10
2.844994
 20
27.100661
 30
0.000000
  0
VERTEX
  8
LAYER-2
 10
2.844994
 20
27.100661
 30
0.000000
  0
VERTEX
  8
LAYER-2
 10
2.820363
 20
27.063077
 30
0.000000
  0
SEQEND
  8
LAYER-2
  0
POLYLINE
  8
LAYER-2
 66
  1
 70
  0
 62
  7
 10
2.844994
 20
27.100661
 30
0.000000
  0
VERTEX
  8
LAYER-2
 10
2.844994
 20
27.100661
 30
0.000000
  0
VERTEX
  8
LAYER-2
 10
2.869626
 20
27.063077
 30
0.000000
  0
SEQEND
  8
LAYER-2
  0
POLYLINE
  8
LAYER-2
 66
  1
 70
  0
 62
  7
 10
2.776574
 20
26.894571
 30
0.000000
  0
VERTEX
  8
LAYER-2
 10
2.776574
 20
26.894571
 30
0.000000
  0
VERTEX
  8
LAYER-2
 10
2.820363
 20
27.063077
 30
0.000000
  0
SEQEND
  8
LAYER-2
  0
POLYLINE
  8
LAYER-2
 66
  1
 70
  0
 62
  7
 10
2.801207
 20
26.856990
 30
0.000000
  0
VERTEX
  8
LAYER-2
 10
2.801207
 20
26.856990
 30
0.000000
  0
VERTEX
  8
LAYER-2
 10
2.844994
 20
27.100661
 30
0.000000
  0
SEQEND
  8
LAYER-2
  0
POLYLINE
  8
LAYER-2
 66
  1
 70
  0
 62
  7
 10
2.850074
 20
26.856990
 30
0.000000
  0
VERTEX
  8
LAYER-2
 10
2.850074
 20
26.856990
 30
0.000000
  0
VERTEX
  8
LAYER-2
 10
2.825444
 20
26.894571
 30
0.000000
  0
SEQEND
  8
LAYER-2
  0
POLYLINE
  8
LAYER-2
 66
  1
 70
  0
 62
  7
 10
2.850074
 20
26.856990
 30
0.000000
  0
VERTEX
  8
LAYER-2
 10
2.850074
 20
26.856990
 30
0.000000
  0
VERTEX
  8
LAYER-2
 10
2.874707
 20
26.894571
 30
0.000000
  0
SEQEND
  8
LAYER-2
  0
POLYLINE
  8
LAYER-2
 66
  1
 70
  0
 62
  7
 10
2.893863
 20
27.100661
 30
0.000000
  0
VERTEX
  8
LAYER-2
 10
2.893863
 20
27.100661
 30
0.000000
  0
VERTEX
  8
LAYER-2
 10
2.869232
 20
27.063077
 30
0.000000
  0
SEQEND
  8
LAYER-2
  0
POLYLINE
  8
LAYER-2
 66
  1
 70
  0
 62
  7
 10
2.893863
 20
27.100661
 30
0.000000
  0
VERTEX
  8
LAYER-2
 10
2.893863
 20
27.100661
 30
0.000000
  0
VERTEX
  8
LAYER-2
 10
2.918494
 20
27.063077
 30
0.000000
  0
SEQEND
  8
LAYER-2
  0
POLYLINE
  8
LAYER-2
 66
  1
 70
  0
 62
  7
 10
2.825444
 20
26.894571
 30
0.000000
  0
VERTEX
  8
LAYER-2
 10
2.825444
 20
26.894571
 30
0.000000
  0
VERTEX
  8
LAYER-2
 10
2.869232
 20
27.063077
 30
0.000000
  0
SEQEND
  8
LAYER-2
  0
POLYLINE
  8
LAYER-2
 66
  1
 70
  0
 62
  7
 10
2.850074
 20
26.856990
 30
0.000000
  0
VERTEX
  8
LAYER-2
 10
2.850074
 20
26.856990
 30
0.000000
  0
VERTEX
  8
LAYER-2
 10
2.893863
 20
27.100661
 30
0.000000
  0
SEQEND
  8
LAYER-2
  0
POLYLINE
  8
LAYER-2
 66
  1
 70
  0
 62
  7
 10
2.898944
 20
26.856990
 30
0.000000
  0
VERTEX
  8
LAYER-2
 10
2.898944
 20
26.856990
 30
0.000000
  0
VERTEX
  8
LAYER-2
 10
2.874311
 20
26.894571
 30
0.000000
  0
SEQEND
  8
LAYER-2
  0
POLYLINE
  8
LAYER-2
 66
  1
 70
  0
 62
  7
 10
2.898944
 20
26.856990
 30
0.000000
  0
VERTEX
  8
LAYER-2
 10
2.898944
 20
26.856990
 30
0.000000
  0
VERTEX
  8
LAYER-2
 10
2.923573
 20
26.894571
 30
0.000000
  0
SEQEND
  8
LAYER-2
  0
POLYLINE
  8
LAYER-2
 66
  1
 70
  0
 62
  7
 10
2.942732
 20
27.100661
 30
0.000000
  0
VERTEX
  8
LAYER-2
 10
2.942732
 20
27.100661
 30
0.000000
  0
VERTEX
  8
LAYER-2
 10
2.918100
 20
27.063077
 30
0.000000
  0
SEQEND
  8
LAYER-2
  0
POLYLINE
  8
LAYER-2
 66
  1
 70
  0
 62
  7
 10
2.942732
 20
27.100661
 30
0.000000
  0
VERTEX
  8
LAYER-2
 10
2.942732
 20
27.100661
 30
0.000000
  0
VERTEX
  8
LAYER-2
 10
2.967363
 20
27.063077
 30
0.000000
  0
SEQEND
  8
LAYER-2
  0
POLYLINE
  8
LAYER-2
 66
  1
 70
  0
 62
  7
 10
2.874311
 20
26.894571
 30
0.000000
  0
VERTEX
  8
LAYER-2
 10
2.874311
 20
26.894571
 30
0.000000
  0
VERTEX
  8
LAYER-2
 10
2.918100
 20
27.063077
 30
0.000000
  0
SEQEND
  8
LAYER-2
  0
POLYLINE
  8
LAYER-2
 66
  1
 70
  0
 62
  7
 10
2.898944
 20
26.856990
 30
0.000000
  0
VERTEX
  8
LAYER-2
 10
2.898944
 20
26.856990
 30
0.000000
  0
VERTEX
  8
LAYER-2
 10
2.942732
 20
27.100661
 30
0.000000
  0
SEQEND
  8
LAYER-2
  0
POLYLINE
  8
LAYER-2
 66
  1
 70
  0
 62
  7
 10
2.947811
 20
26.856990
 30
0.000000
  0
VERTEX
  8
LAYER-2
 10
2.947811
 20
26.856990
 30
0.000000
  0
VERTEX
  8
LAYER-2
 10
2.923181
 20
26.894571
 30
0.000000
  0
SEQEND
  8
LAYER-2
  0
POLYLINE
  8
LAYER-2
 66
  1
 70
  0
 62
  7
 10
2.947811
 20
26.856990
 30
0.000000
  0
VERTEX
  8
LAYER-2
 10
2.947811
 20
26.856990
 30
0.000000
  0
VERTEX
  8
LAYER-2
 10
2.972444
 20
26.894571
 30
0.000000
  0
SEQEND
  8
LAYER-2
  0
POLYLINE
  8
LAYER-2
 66
  1
 70
  0
 62
  7
 10
2.991600
 20
27.100661
 30
0.000000
  0
VERTEX
  8
LAYER-2
 10
2.991600
 20
27.100661
 30
0.000000
  0
VERTEX
  8
LAYER-2
 10
2.966969
 20
27.063077
 30
0.000000
  0
SEQEND
  8
LAYER-2
  0
POLYLINE
  8
LAYER-2
 66
  1
 70
  0
 62
  7
 10
2.991600
 20
27.100661
 30
0.000000
  0
VERTEX
  8
LAYER-2
 10
2.991600
 20
27.100661
 30
0.000000
  0
VERTEX
  8
LAYER-2
 10
3.016231
 20
27.063077
 30
0.000000
  0
SEQEND
  8
LAYER-2
  0
POLYLINE
  8
LAYER-2
 66
  1
 70
  0
 62
  7
 10
2.923181
 20
26.894571
 30
0.000000
  0
VERTEX
  8
LAYER-2
 10
2.923181
 20
26.894571
 30
0.000000
  0
VERTEX
  8
LAYER-2
 10
2.966969
 20
27.063077
 30
0.000000
  0
SEQEND
  8
LAYER-2
  0
POLYLINE
  8
LAYER-2
 66
  1
 70
  0
 62
  7
 10
2.947811
 20
26.856990
 30
0.000000
  0
VERTEX
  8
LAYER-2
 10
2.947811
 20
26.856990
 30
0.000000
  0
VERTEX
  8
LAYER-2
 10
2.991600
 20
27.100661
 30
0.000000
  0
SEQEND
  8
LAYER-2
  0
POLYLINE
  8
LAYER-2
 66
  1
 70
  0
 62
  7
 10
2.628101
 20
27.063077
 30
0.000000
  0
VERTEX
  8
LAYER-2
 10
2.628101
 20
27.063077
 30
0.000000
  0
VERTEX
  8
LAYER-2
 10
2.628101
 20
26.894571
 30
0.000000
  0
SEQEND
  8
LAYER-2
  0
POLYLINE
  8
LAYER-2
 66
  1
 70
  0
 62
  7
 10
2.628101
 20
27.063077
 30
0.000000
  0
VERTEX
  8
LAYER-2
 10
2.628101
 20
27.063077
 30
0.000000
  0
VERTEX
  8
LAYER-2
 10
2.673757
 20
27.063077
 30
0.000000
  0
SEQEND
  8
LAYER-2
  0
POLYLINE
  8
LAYER-2
 66
  1
 70
  1
 62
255
 10
2.673757
 20
29.481823
 30
0.000000
  0
VERTEX
  8
LAYER-2
 10
2.673757
 20
29.481823
 30
0.000000
  0
VERTEX
  8
LAYER-2
 10
2.698391
 20
29.519404
 30
0.000000
  0
VERTEX
  8
LAYER-2
 10
2.722628
 20
29.481823
 30
0.000000
  0
VERTEX
  8
LAYER-2
 10
2.747258
 20
29.519404
 30
0.000000
  0
VERTEX
  8
LAYER-2
 10
2.771495
 20
29.481823
 30
0.000000
  0
VERTEX
  8
LAYER-2
 10
2.796128
 20
29.519404
 30
0.000000
  0
VERTEX
  8
LAYER-2
 10
2.820363
 20
29.481823
 30
0.000000
  0
VERTEX
  8
LAYER-2
 10
2.844994
 20
29.519404
 30
0.000000
  0
VERTEX
  8
LAYER-2
 10
2.869232
 20
29.481823
 30
0.000000
  0
VERTEX
  8
LAYER-2
 10
2.893863
 20
29.519404
 30
0.000000
  0
VERTEX
  8
LAYER-2
 10
2.918100
 20
29.481823
 30
0.000000
  0
VERTEX
  8
LAYER-2
 10
2.942732
 20
29.519404
 30
0.000000
  0
VERTEX
  8
LAYER-2
 10
2.966969
 20
29.481823
 30
0.000000
  0
VERTEX
  8
LAYER-2
 10
2.991600
 20
29.519404
 30
0.000000
  0
VERTEX
  8
LAYER-2
 10
3.016231
 20
29.481823
 30
0.000000
  0
VERTEX
  8
LAYER-2
 10
3.017509
 20
29.481823
 30
0.000000
  0
VERTEX
  8
LAYER-2
 10
3.042142
 20
29.519404
 30
0.000000
  0
VERTEX
  8
LAYER-2
 10
3.066379
 20
29.481823
 30
0.000000
  0
VERTEX
  8
LAYER-2
 10
3.091009
 20
29.519404
 30
0.000000
  0
VERTEX
  8
LAYER-2
 10
3.115245
 20
29.481823
 30
0.000000
  0
VERTEX
  8
LAYER-2
 10
3.139878
 20
29.519404
 30
0.000000
  0
VERTEX
  8
LAYER-2
 10
3.164113
 20
29.481823
 30
0.000000
  0
VERTEX
  8
LAYER-2
 10
3.188744
 20
29.519404
 30
0.000000
  0
VERTEX
  8
LAYER-2
 10
3.212982
 20
29.481823
 30
0.000000
  0
VERTEX
  8
LAYER-2
 10
3.237613
 20
29.519404
 30
0.000000
  0
VERTEX
  8
LAYER-2
 10
3.261851
 20
29.481823
 30
0.000000
  0
VERTEX
  8
LAYER-2
 10
3.286482
 20
29.519404
 30
0.000000
  0
VERTEX
  8
LAYER-2
 10
3.310719
 20
29.481823
 30
0.000000
  0
VERTEX
  8
LAYER-2
 10
3.335350
 20
29.519404
 30
0.000000
  0
VERTEX
  8
LAYER-2
 10
3.359588
 20
29.481823
 30
0.000000
  0
VERTEX
  8
LAYER-2
 10
3.384220
 20
29.519404
 30
0.000000
  0
VERTEX
  8
LAYER-2
 10
3.408457
 20
29.481823
 30
0.000000
  0
VERTEX
  8
LAYER-2
 10
3.433088
 20
29.519404
 30
0.000000
  0
VERTEX
  8
LAYER-2
 10
3.457324
 20
29.481823
 30
0.000000
  0
VERTEX
  8
LAYER-2
 10
3.481956
 20
29.519404
 30
0.000000
  0
VERTEX
  8
LAYER-2
 10
3.506194
 20
29.481823
 30
0.000000
  0
VERTEX
  8
LAYER-2
 10
3.530825
 20
29.519404
 30
0.000000
  0
VERTEX
  8
LAYER-2
 10
3.555062
 20
29.481823
 30
0.000000
  0
VERTEX
  8
LAYER-2
 10
3.579693
 20
29.519404
 30
0.000000
  0
VERTEX
  8
LAYER-2
 10
3.603931
 20
29.481823
 30
0.000000
  0
VERTEX
  8
LAYER-2
 10
3.628562
 20
29.519404
 30
0.000000
  0
VERTEX
  8
LAYER-2
 10
3.652799
 20
29.481823
 30
0.000000
  0
VERTEX
  8
LAYER-2
 10
3.677431
 20
29.519404
 30
0.000000
  0
VERTEX
  8
LAYER-2
 10
3.702062
 20
29.481823
 30
0.000000
  0
VERTEX
  8
LAYER-2
 10
3.702062
 20
29.291234
 30
0.000000
  0
VERTEX
  8
LAYER-2
 10
3.682248
 20
29.275609
 30
0.000000
  0
VERTEX
  8
LAYER-2
 10
3.658272
 20
29.313317
 30
0.000000
  0
VERTEX
  8
LAYER-2
 10
3.633641
 20
29.275736
 30
0.000000
  0
VERTEX
  8
LAYER-2
 10
3.609010
 20
29.313317
 30
0.000000
  0
VERTEX
  8
LAYER-2
 10
3.584772
 20
29.275736
 30
0.000000
  0
VERTEX
  8
LAYER-2
 10
3.560141
 20
29.313317
 30
0.000000
  0
VERTEX
  8
LAYER-2
 10
3.535904
 20
29.275736
 30
0.000000
  0
VERTEX
  8
LAYER-2
 10
3.511272
 20
29.313317
 30
0.000000
  0
VERTEX
  8
LAYER-2
 10
3.487036
 20
29.275736
 30
0.000000
  0
VERTEX
  8
LAYER-2
 10
3.462403
 20
29.313317
 30
0.000000
  0
VERTEX
  8
LAYER-2
 10
3.438166
 20
29.275736
 30
0.000000
  0
VERTEX
  8
LAYER-2
 10
3.413536
 20
29.313317
 30
0.000000
  0
VERTEX
  8
LAYER-2
 10
3.389298
 20
29.275736
 30
0.000000
  0
VERTEX
  8
LAYER-2
 10
3.364669
 20
29.313317
 30
0.000000
  0
VERTEX
  8
LAYER-2
 10
3.340431
 20
29.275736
 30
0.000000
  0
VERTEX
  8
LAYER-2
 10
3.315798
 20
29.313317
 30
0.000000
  0
VERTEX
  8
LAYER-2
 10
3.291561
 20
29.275736
 30
0.000000
  0
VERTEX
  8
LAYER-2
 10
3.266931
 20
29.313317
 30
0.000000
  0
VERTEX
  8
LAYER-2
 10
3.242694
 20
29.275736
 30
0.000000
  0
VERTEX
  8
LAYER-2
 10
3.218061
 20
29.313317
 30
0.000000
  0
VERTEX
  8
LAYER-2
 10
3.193823
 20
29.275736
 30
0.000000
  0
VERTEX
  8
LAYER-2
 10
3.169194
 20
29.313317
 30
0.000000
  0
VERTEX
  8
LAYER-2
 10
3.144957
 20
29.275736
 30
0.000000
  0
VERTEX
  8
LAYER-2
 10
3.120324
 20
29.313317
 30
0.000000
  0
VERTEX
  8
LAYER-2
 10
3.096088
 20
29.275736
 30
0.000000
  0
VERTEX
  8
LAYER-2
 10
3.071458
 20
29.313317
 30
0.000000
  0
VERTEX
  8
LAYER-2
 10
3.047221
 20
29.275736
 30
0.000000
  0
VERTEX
  8
LAYER-2
 10
3.022588
 20
29.313317
 30
0.000000
  0
VERTEX
  8
LAYER-2
 10
2.998351
 20
29.275736
 30
0.000000
  0
VERTEX
  8
LAYER-2
 10
2.950963
 20
29.280546
 30
0.000000
  0
VERTEX
  8
LAYER-2
 10
2.947811
 20
29.275736
 30
0.000000
  0
VERTEX
  8
LAYER-2
 10
2.944209
 20
29.281231
 30
0.000000
  0
VERTEX
  8
LAYER-2
 10
2.905051
 20
29.285206
 30
0.000000
  0
VERTEX
  8
LAYER-2
 10
2.898944
 20
29.275736
 30
0.000000
  0
VERTEX
  8
LAYER-2
 10
2.891859
 20
29.286546
 30
0.000000
  0
VERTEX
  8
LAYER-2
 10
2.859184
 20
29.289861
 30
0.000000
  0
VERTEX
  8
LAYER-2
 10
2.850074
 20
29.275736
 30
0.000000
  0
VERTEX
  8
LAYER-2
 10
2.839507
 20
29.291858
 30
0.000000
  0
VERTEX
  8
LAYER-2
 10
2.813320
 20
29.294516
 30
0.000000
  0
VERTEX
  8
LAYER-2
 10
2.801207
 20
29.275736
 30
0.000000
  0
VERTEX
  8
LAYER-2
 10
2.787155
 20
29.297171
 30
0.000000
  0
VERTEX
  8
LAYER-2
 10
2.767451
 20
29.299171
 30
0.000000
  0
VERTEX
  8
LAYER-2
 10
2.752336
 20
29.275736
 30
0.000000
  0
VERTEX
  8
LAYER-2
 10
2.734805
 20
29.302486
 30
0.000000
  0
VERTEX
  8
LAYER-2
 10
2.721587
 20
29.303828
 30
0.000000
  0
VERTEX
  8
LAYER-2
 10
2.703470
 20
29.275736
 30
0.000000
  0
VERTEX
  8
LAYER-2
 10
2.682453
 20
29.307800
 30
0.000000
  0
VERTEX
  8
LAYER-2
 10
2.675720
 20
29.308483
 30
0.000000
  0
VERTEX
  8
LAYER-2
 10
2.654599
 20
29.275736
 30
0.000000
  0
VERTEX
  8
LAYER-2
 10
2.628101
 20
29.313317
 30
0.000000
  0
VERTEX
  8
LAYER-2
 10
2.487117
 20
29.205254
 30
0.000000
  0
VERTEX
  8
LAYER-2
 10
2.461102
 20
29.205254
 30
0.000000
  0
VERTEX
  8
LAYER-2
 10
2.461102
 20
29.602473
 30
0.000000
  0
VERTEX
  8
LAYER-2
 10
2.487117
 20
29.602473
 30
0.000000
  0
VERTEX
  8
LAYER-2
 10
2.628101
 20
29.481823
 30
0.000000
  0
SEQEND
  8
LAYER-2
  0
POLYLINE
  8
LAYER-2
 66
  1
 70
  0
 62
  7
 10
3.340431
 20
29.275736
 30
0.000000
  0
VERTEX
  8
LAYER-2
 10
3.340431
 20
29.275736
 30
0.000000
  0
VERTEX
  8
LAYER-2
 10
3.315798
 20
29.313317
 30
0.000000
  0
SEQEND
  8
LAYER-2
  0
POLYLINE
  8
LAYER-2
 66
  1
 70
  0
 62
  7
 10
3.340431
 20
29.275736
 30
0.000000
  0
VERTEX
  8
LAYER-2
 10
3.340431
 20
29.275736
 30
0.000000
  0
VERTEX
  8
LAYER-2
 10
3.365061
 20
29.313317
 30
0.000000
  0
SEQEND
  8
LAYER-2
  0
POLYLINE
  8
LAYER-2
 66
  1
 70
  0
 62
  7
 10
3.384220
 20
29.519404
 30
0.000000
  0
VERTEX
  8
LAYER-2
 10
3.384220
 20
29.519404
 30
0.000000
  0
VERTEX
  8
LAYER-2
 10
3.359588
 20
29.481823
 30
0.000000
  0
SEQEND
  8
LAYER-2
  0
POLYLINE
  8
LAYER-2
 66
  1
 70
  0
 62
  7
 10
3.384220
 20
29.519404
 30
0.000000
  0
VERTEX
  8
LAYER-2
 10
3.384220
 20
29.519404
 30
0.000000
  0
VERTEX
  8
LAYER-2
 10
3.408851
 20
29.481823
 30
0.000000
  0
SEQEND
  8
LAYER-2
  0
POLYLINE
  8
LAYER-2
 66
  1
 70
  0
 62
  7
 10
3.315798
 20
29.313317
 30
0.000000
  0
VERTEX
  8
LAYER-2
 10
3.315798
 20
29.313317
 30
0.000000
  0
VERTEX
  8
LAYER-2
 10
3.359588
 20
29.481823
 30
0.000000
  0
SEQEND
  8
LAYER-2
  0
POLYLINE
  8
LAYER-2
 66
  1
 70
  0
 62
  7
 10
3.340431
 20
29.275736
 30
0.000000
  0
VERTEX
  8
LAYER-2
 10
3.340431
 20
29.275736
 30
0.000000
  0
VERTEX
  8
LAYER-2
 10
3.384220
 20
29.519404
 30
0.000000
  0
SEQEND
  8
LAYER-2
  0
POLYLINE
  8
LAYER-2
 66
  1
 70
  0
 62
  7
 10
3.389298
 20
29.275736
 30
0.000000
  0
VERTEX
  8
LAYER-2
 10
3.389298
 20
29.275736
 30
0.000000
  0
VERTEX
  8
LAYER-2
 10
3.364669
 20
29.313317
 30
0.000000
  0
SEQEND
  8
LAYER-2
  0
POLYLINE
  8
LAYER-2
 66
  1
 70
  0
 62
  7
 10
3.389298
 20
29.275736
 30
0.000000
  0
VERTEX
  8
LAYER-2
 10
3.389298
 20
29.275736
 30
0.000000
  0
VERTEX
  8
LAYER-2
 10
3.413930
 20
29.313317
 30
0.000000
  0
SEQEND
  8
LAYER-2
  0
POLYLINE
  8
LAYER-2
 66
  1
 70
  0
 62
  7
 10
3.433088
 20
29.519404
 30
0.000000
  0
VERTEX
  8
LAYER-2
 10
3.433088
 20
29.519404
 30
0.000000
  0
VERTEX
  8
LAYER-2
 10
3.408457
 20
29.481823
 30
0.000000
  0
SEQEND
  8
LAYER-2
  0
POLYLINE
  8
LAYER-2
 66
  1
 70
  0
 62
  7
 10
3.433088
 20
29.519404
 30
0.000000
  0
VERTEX
  8
LAYER-2
 10
3.433088
 20
29.519404
 30
0.000000
  0
VERTEX
  8
LAYER-2
 10
3.457718
 20
29.481823
 30
0.000000
  0
SEQEND
  8
LAYER-2
  0
POLYLINE
  8
LAYER-2
 66
  1
 70
  0
 62
  7
 10
3.364669
 20
29.313317
 30
0.000000
  0
VERTEX
  8
LAYER-2
 10
3.364669
 20
29.313317
 30
0.000000
  0
VERTEX
  8
LAYER-2
 10
3.408457
 20
29.481823
 30
0.000000
  0
SEQEND
  8
LAYER-2
  0
POLYLINE
  8
LAYER-2
 66
  1
 70
  0
 62
  7
 10
3.389298
 20
29.275736
 30
0.000000
  0
VERTEX
  8
LAYER-2
 10
3.389298
 20
29.275736
 30
0.000000
  0
VERTEX
  8
LAYER-2
 10
3.433088
 20
29.519404
 30
0.000000
  0
SEQEND
  8
LAYER-2
  0
POLYLINE
  8
LAYER-2
 66
  1
 70
  0
 62
  7
 10
3.438166
 20
29.275736
 30
0.000000
  0
VERTEX
  8
LAYER-2
 10
3.438166
 20
29.275736
 30
0.000000
  0
VERTEX
  8
LAYER-2
 10
3.413536
 20
29.313317
 30
0.000000
  0
SEQEND
  8
LAYER-2
  0
POLYLINE
  8
LAYER-2
 66
  1
 70
  0
 62
  7
 10
3.438166
 20
29.275736
 30
0.000000
  0
VERTEX
  8
LAYER-2
 10
3.438166
 20
29.275736
 30
0.000000
  0
VERTEX
  8
LAYER-2
 10
3.462797
 20
29.313317
 30
0.000000
  0
SEQEND
  8
LAYER-2
  0
POLYLINE
  8
LAYER-2
 66
  1
 70
  0
 62
  7
 10
3.481956
 20
29.519404
 30
0.000000
  0
VERTEX
  8
LAYER-2
 10
3.481956
 20
29.519404
 30
0.000000
  0
VERTEX
  8
LAYER-2
 10
3.457324
 20
29.481823
 30
0.000000
  0
SEQEND
  8
LAYER-2
  0
POLYLINE
  8
LAYER-2
 66
  1
 70
  0
 62
  7
 10
3.481956
 20
29.519404
 30
0.000000
  0
VERTEX
  8
LAYER-2
 10
3.481956
 20
29.519404
 30
0.000000
  0
VERTEX
  8
LAYER-2
 10
3.506588
 20
29.481823
 30
0.000000
  0
SEQEND
  8
LAYER-2
  0
POLYLINE
  8
LAYER-2
 66
  1
 70
  0
 62
  7
 10
3.413536
 20
29.313317
 30
0.000000
  0
VERTEX
  8
LAYER-2
 10
3.413536
 20
29.313317
 30
0.000000
  0
VERTEX
  8
LAYER-2
 10
3.457324
 20
29.481823
 30
0.000000
  0
SEQEND
  8
LAYER-2
  0
POLYLINE
  8
LAYER-2
 66
  1
 70
  0
 62
  7
 10
3.438166
 20
29.275736
 30
0.000000
  0
VERTEX
  8
LAYER-2
 10
3.438166
 20
29.275736
 30
0.000000
  0
VERTEX
  8
LAYER-2
 10
3.481956
 20
29.519404
 30
0.000000
  0
SEQEND
  8
LAYER-2
  0
POLYLINE
  8
LAYER-2
 66
  1
 70
  0
 62
  7
 10
3.487036
 20
29.275736
 30
0.000000
  0
VERTEX
  8
LAYER-2
 10
3.487036
 20
29.275736
 30
0.000000
  0
VERTEX
  8
LAYER-2
 10
3.462403
 20
29.313317
 30
0.000000
  0
SEQEND
  8
LAYER-2
  0
POLYLINE
  8
LAYER-2
 66
  1
 70
  0
 62
  7
 10
3.487036
 20
29.275736
 30
0.000000
  0
VERTEX
  8
LAYER-2
 10
3.487036
 20
29.275736
 30
0.000000
  0
VERTEX
  8
LAYER-2
 10
3.511667
 20
29.313317
 30
0.000000
  0
SEQEND
  8
LAYER-2
  0
POLYLINE
  8
LAYER-2
 66
  1
 70
  0
 62
  7
 10
3.530825
 20
29.519404
 30
0.000000
  0
VERTEX
  8
LAYER-2
 10
3.530825
 20
29.519404
 30
0.000000
  0
VERTEX
  8
LAYER-2
 10
3.506194
 20
29.481823
 30
0.000000
  0
SEQEND
  8
LAYER-2
  0
POLYLINE
  8
LAYER-2
 66
  1
 70
  0
 62
  7
 10
3.530825
 20
29.519404
 30
0.000000
  0
VERTEX
  8
LAYER-2
 10
3.530825
 20
29.519404
 30
0.000000
  0
VERTEX
  8
LAYER-2
 10
3.555457
 20
29.481823
 30
0.000000
  0
SEQEND
  8
LAYER-2
  0
POLYLINE
  8
LAYER-2
 66
  1
 70
  0
 62
  7
 10
3.462403
 20
29.313317
 30
0.000000
  0
VERTEX
  8
LAYER-2
 10
3.462403
 20
29.313317
 30
0.000000
  0
VERTEX
  8
LAYER-2
 10
3.506194
 20
29.481823
 30
0.000000
  0
SEQEND
  8
LAYER-2
  0
POLYLINE
  8
LAYER-2
 66
  1
 70
  0
 62
  7
 10
3.487036
 20
29.275736
 30
0.000000
  0
VERTEX
  8
LAYER-2
 10
3.487036
 20
29.275736
 30
0.000000
  0
VERTEX
  8
LAYER-2
 10
3.530825
 20
29.519404
 30
0.000000
  0
SEQEND
  8
LAYER-2
  0
POLYLINE
  8
LAYER-2
 66
  1
 70
  0
 62
  7
 10
3.535904
 20
29.275736
 30
0.000000
  0
VERTEX
  8
LAYER-2
 10
3.535904
 20
29.275736
 30
0.000000
  0
VERTEX
  8
LAYER-2
 10
3.511272
 20
29.313317
 30
0.000000
  0
SEQEND
  8
LAYER-2
  0
POLYLINE
  8
LAYER-2
 66
  1
 70
  0
 62
  7
 10
3.535904
 20
29.275736
 30
0.000000
  0
VERTEX
  8
LAYER-2
 10
3.535904
 20
29.275736
 30
0.000000
  0
VERTEX
  8
LAYER-2
 10
3.560535
 20
29.313317
 30
0.000000
  0
SEQEND
  8
LAYER-2
  0
POLYLINE
  8
LAYER-2
 66
  1
 70
  0
 62
  7
 10
3.579693
 20
29.519404
 30
0.000000
  0
VERTEX
  8
LAYER-2
 10
3.579693
 20
29.519404
 30
0.000000
  0
VERTEX
  8
LAYER-2
 10
3.555062
 20
29.481823
 30
0.000000
  0
SEQEND
  8
LAYER-2
  0
POLYLINE
  8
LAYER-2
 66
  1
 70
  0
 62
  7
 10
3.579693
 20
29.519404
 30
0.000000
  0
VERTEX
  8
LAYER-2
 10
3.579693
 20
29.519404
 30
0.000000
  0
VERTEX
  8
LAYER-2
 10
3.604325
 20
29.481823
 30
0.000000
  0
SEQEND
  8
LAYER-2
  0
POLYLINE
  8
LAYER-2
 66
  1
 70
  0
 62
  7
 10
3.511272
 20
29.313317
 30
0.000000
  0
VERTEX
  8
LAYER-2
 10
3.511272
 20
29.313317
 30
0.000000
  0
VERTEX
  8
LAYER-2
 10
3.555062
 20
29.481823
 30
0.000000
  0
SEQEND
  8
LAYER-2
  0
POLYLINE
  8
LAYER-2
 66
  1
 70
  0
 62
  7
 10
3.535904
 20
29.275736
 30
0.000000
  0
VERTEX
  8
LAYER-2
 10
3.535904
 20
29.275736
 30
0.000000
  0
VERTEX
  8
LAYER-2
 10
3.579693
 20
29.519404
 30
0.000000
  0
SEQEND
  8
LAYER-2
  0
POLYLINE
  8
LAYER-2
 66
  1
 70
  0
 62
  7
 10
3.584772
 20
29.275736
 30
0.000000
  0
VERTEX
  8
LAYER-2
 10
3.584772
 20
29.275736
 30
0.000000
  0
VERTEX
  8
LAYER-2
 10
3.560141
 20
29.313317
 30
0.000000
  0
SEQEND
  8
LAYER-2
  0
POLYLINE
  8
LAYER-2
 66
  1
 70
  0
 62
  7
 10
3.584772
 20
29.275736
 30
0.000000
  0
VERTEX
  8
LAYER-2
 10
3.584772
 20
29.275736
 30
0.000000
  0
VERTEX
  8
LAYER-2
 10
3.609403
 20
29.313317
 30
0.000000
  0
SEQEND
  8
LAYER-2
  0
POLYLINE
  8
LAYER-2
 66
  1
 70
  0
 62
  7
 10
3.628562
 20
29.519404
 30
0.000000
  0
VERTEX
  8
LAYER-2
 10
3.628562
 20
29.519404
 30
0.000000
  0
VERTEX
  8
LAYER-2
 10
3.603931
 20
29.481823
 30
0.000000
  0
SEQEND
  8
LAYER-2
  0
POLYLINE
  8
LAYER-2
 66
  1
 70
  0
 62
  7
 10
3.628562
 20
29.519404
 30
0.000000
  0
VERTEX
  8
LAYER-2
 10
3.628562
 20
29.519404
 30
0.000000
  0
VERTEX
  8
LAYER-2
 10
3.653193
 20
29.481823
 30
0.000000
  0
SEQEND
  8
LAYER-2
  0
POLYLINE
  8
LAYER-2
 66
  1
 70
  0
 62
  7
 10
3.560141
 20
29.313317
 30
0.000000
  0
VERTEX
  8
LAYER-2
 10
3.560141
 20
29.313317
 30
0.000000
  0
VERTEX
  8
LAYER-2
 10
3.603931
 20
29.481823
 30
0.000000
  0
SEQEND
  8
LAYER-2
  0
POLYLINE
  8
LAYER-2
 66
  1
 70
  0
 62
  7
 10
3.584772
 20
29.275736
 30
0.000000
  0
VERTEX
  8
LAYER-2
 10
3.584772
 20
29.275736
 30
0.000000
  0
VERTEX
  8
LAYER-2
 10
3.628562
 20
29.519404
 30
0.000000
  0
SEQEND
  8
LAYER-2
  0
POLYLINE
  8
LAYER-2
 66
  1
 70
  0
 62
  7
 10
3.633641
 20
29.275736
 30
0.000000
  0
VERTEX
  8
LAYER-2
 10
3.633641
 20
29.275736
 30
0.000000
  0
VERTEX
  8
LAYER-2
 10
3.609010
 20
29.313317
 30
0.000000
  0
SEQEND
  8
LAYER-2
  0
POLYLINE
  8
LAYER-2
 66
  1
 70
  0
 62
  7
 10
3.633641
 20
29.275736
 30
0.000000
  0
VERTEX
  8
LAYER-2
 10
3.633641
 20
29.275736
 30
0.000000
  0
VERTEX
  8
LAYER-2
 10
3.677431
 20
29.519404
 30
0.000000
  0
SEQEND
  8
LAYER-2
  0
POLYLINE
  8
LAYER-2
 66
  1
 70
  0
 62
  7
 10
3.633641
 20
29.275736
 30
0.000000
  0
VERTEX
  8
LAYER-2
 10
3.633641
 20
29.275736
 30
0.000000
  0
VERTEX
  8
LAYER-2
 10
3.658272
 20
29.313317
 30
0.000000
  0
SEQEND
  8
LAYER-2
  0
POLYLINE
  8
LAYER-2
 66
  1
 70
  0
 62
  7
 10
3.677431
 20
29.519404
 30
0.000000
  0
VERTEX
  8
LAYER-2
 10
3.677431
 20
29.519404
 30
0.000000
  0
VERTEX
  8
LAYER-2
 10
3.652799
 20
29.481823
 30
0.000000
  0
SEQEND
  8
LAYER-2
  0
POLYLINE
  8
LAYER-2
 66
  1
 70
  0
 62
  7
 10
3.677431
 20
29.519404
 30
0.000000
  0
VERTEX
  8
LAYER-2
 10
3.677431
 20
29.519404
 30
0.000000
  0
VERTEX
  8
LAYER-2
 10
3.702062
 20
29.481823
 30
0.000000
  0
SEQEND
  8
LAYER-2
  0
POLYLINE
  8
LAYER-2
 66
  1
 70
  0
 62
  7
 10
3.609010
 20
29.313317
 30
0.000000
  0
VERTEX
  8
LAYER-2
 10
3.609010
 20
29.313317
 30
0.000000
  0
VERTEX
  8
LAYER-2
 10
3.652799
 20
29.481823
 30
0.000000
  0
SEQEND
  8
LAYER-2
  0
POLYLINE
  8
LAYER-2
 66
  1
 70
  0
 62
  7
 10
3.702062
 20
29.481823
 30
0.000000
  0
VERTEX
  8
LAYER-2
 10
3.702062
 20
29.481823
 30
0.000000
  0
VERTEX
  8
LAYER-2
 10
3.702062
 20
29.291234
 30
0.000000
  0
SEQEND
  8
LAYER-2
  0
POLYLINE
  8
LAYER-2
 66
  1
 70
  0
 62
  7
 10
3.658272
 20
29.313317
 30
0.000000
  0
VERTEX
  8
LAYER-2
 10
3.658272
 20
29.313317
 30
0.000000
  0
VERTEX
  8
LAYER-2
 10
3.702062
 20
29.481823
 30
0.000000
  0
SEQEND
  8
LAYER-2
  0
POLYLINE
  8
LAYER-2
 66
  1
 70
  0
 62
  7
 10
3.682248
 20
29.275609
 30
0.000000
  0
VERTEX
  8
LAYER-2
 10
3.682248
 20
29.275609
 30
0.000000
  0
VERTEX
  8
LAYER-2
 10
3.658272
 20
29.313317
 30
0.000000
  0
SEQEND
  8
LAYER-2
  0
POLYLINE
  8
LAYER-2
 66
  1
 70
  0
 62
  7
 10
3.682248
 20
29.275609
 30
0.000000
  0
VERTEX
  8
LAYER-2
 10
3.682248
 20
29.275609
 30
0.000000
  0
VERTEX
  8
LAYER-2
 10
3.702214
 20
29.387587
 30
0.000000
  0
SEQEND
  8
LAYER-2
  0
POLYLINE
  8
LAYER-2
 66
  1
 70
  0
 62
  7
 10
3.682248
 20
29.275609
 30
0.000000
  0
VERTEX
  8
LAYER-2
 10
3.682248
 20
29.275609
 30
0.000000
  0
VERTEX
  8
LAYER-2
 10
3.702062
 20
29.291234
 30
0.000000
  0
SEQEND
  8
LAYER-2
  0
POLYLINE
  8
LAYER-2
 66
  1
 70
  0
 62
  7
 10
2.461102
 20
29.205254
 30
0.000000
  0
VERTEX
  8
LAYER-2
 10
2.461102
 20
29.205254
 30
0.000000
  0
VERTEX
  8
LAYER-2
 10
2.461102
 20
29.602473
 30
0.000000
  0
SEQEND
  8
LAYER-2
  0
POLYLINE
  8
LAYER-2
 66
  1
 70
  0
 62
  7
 10
2.628116
 20
29.313279
 30
0.000000
  0
VERTEX
  8
LAYER-2
 10
2.628116
 20
29.313279
 30
0.000000
  0
VERTEX
  8
LAYER-2
 10
2.487117
 20
29.205254
 30
0.000000
  0
SEQEND
  8
LAYER-2
  0
POLYLINE
  8
LAYER-2
 66
  1
 70
  0
 62
  7
 10
2.628101
 20
29.481823
 30
0.000000
  0
VERTEX
  8
LAYER-2
 10
2.628101
 20
29.481823
 30
0.000000
  0
VERTEX
  8
LAYER-2
 10
2.487117
 20
29.602473
 30
0.000000
  0
SEQEND
  8
LAYER-2
  0
POLYLINE
  8
LAYER-2
 66
  1
 70
  0
 62
  7
 10
2.461102
 20
29.205254
 30
0.000000
  0
VERTEX
  8
LAYER-2
 10
2.461102
 20
29.205254
 30
0.000000
  0
VERTEX
  8
LAYER-2
 10
2.487117
 20
29.205254
 30
0.000000
  0
SEQEND
  8
LAYER-2
  0
POLYLINE
  8
LAYER-2
 66
  1
 70
  0
 62
  7
 10
2.461102
 20
29.602473
 30
0.000000
  0
VERTEX
  8
LAYER-2
 10
2.461102
 20
29.602473
 30
0.000000
  0
VERTEX
  8
LAYER-2
 10
2.487117
 20
29.602473
 30
0.000000
  0
SEQEND
  8
LAYER-2
  0
POLYLINE
  8
LAYER-2
 66
  1
 70
  0
 62
  7
 10
2.487117
 20
29.205254
 30
0.000000
  0
VERTEX
  8
LAYER-2
 10
2.487117
 20
29.205254
 30
0.000000
  0
VERTEX
  8
LAYER-2
 10
2.487117
 20
29.602473
 30
0.000000
  0
SEQEND
  8
LAYER-2
  0
POLYLINE
  8
LAYER-2
 66
  1
 70
  0
 62
  7
 10
2.998351
 20
29.275736
 30
0.000000
  0
VERTEX
  8
LAYER-2
 10
2.998351
 20
29.275736
 30
0.000000
  0
VERTEX
  8
LAYER-2
 10
2.973721
 20
29.313317
 30
0.000000
  0
SEQEND
  8
LAYER-2
  0
POLYLINE
  8
LAYER-2
 66
  1
 70
  0
 62
  7
 10
2.998351
 20
29.275736
 30
0.000000
  0
VERTEX
  8
LAYER-2
 10
2.998351
 20
29.275736
 30
0.000000
  0
VERTEX
  8
LAYER-2
 10
3.022984
 20
29.313317
 30
0.000000
  0
SEQEND
  8
LAYER-2
  0
POLYLINE
  8
LAYER-2
 66
  1
 70
  0
 62
  7
 10
3.042142
 20
29.519404
 30
0.000000
  0
VERTEX
  8
LAYER-2
 10
3.042142
 20
29.519404
 30
0.000000
  0
VERTEX
  8
LAYER-2
 10
3.017509
 20
29.481823
 30
0.000000
  0
SEQEND
  8
LAYER-2
  0
POLYLINE
  8
LAYER-2
 66
  1
 70
  0
 62
  7
 10
3.042142
 20
29.519404
 30
0.000000
  0
VERTEX
  8
LAYER-2
 10
3.042142
 20
29.519404
 30
0.000000
  0
VERTEX
  8
LAYER-2
 10
3.066771
 20
29.481823
 30
0.000000
  0
SEQEND
  8
LAYER-2
  0
POLYLINE
  8
LAYER-2
 66
  1
 70
  0
 62
  7
 10
2.973721
 20
29.313317
 30
0.000000
  0
VERTEX
  8
LAYER-2
 10
2.973721
 20
29.313317
 30
0.000000
  0
VERTEX
  8
LAYER-2
 10
3.017509
 20
29.481823
 30
0.000000
  0
SEQEND
  8
LAYER-2
  0
POLYLINE
  8
LAYER-2
 66
  1
 70
  0
 62
  7
 10
2.998351
 20
29.275736
 30
0.000000
  0
VERTEX
  8
LAYER-2
 10
2.998351
 20
29.275736
 30
0.000000
  0
VERTEX
  8
LAYER-2
 10
3.042142
 20
29.519404
 30
0.000000
  0
SEQEND
  8
LAYER-2
  0
POLYLINE
  8
LAYER-2
 66
  1
 70
  0
 62
  7
 10
3.047221
 20
29.275736
 30
0.000000
  0
VERTEX
  8
LAYER-2
 10
3.047221
 20
29.275736
 30
0.000000
  0
VERTEX
  8
LAYER-2
 10
3.022588
 20
29.313317
 30
0.000000
  0
SEQEND
  8
LAYER-2
  0
POLYLINE
  8
LAYER-2
 66
  1
 70
  0
 62
  7
 10
3.047221
 20
29.275736
 30
0.000000
  0
VERTEX
  8
LAYER-2
 10
3.047221
 20
29.275736
 30
0.000000
  0
VERTEX
  8
LAYER-2
 10
3.071850
 20
29.313317
 30
0.000000
  0
SEQEND
  8
LAYER-2
  0
POLYLINE
  8
LAYER-2
 66
  1
 70
  0
 62
  7
 10
3.091009
 20
29.519404
 30
0.000000
  0
VERTEX
  8
LAYER-2
 10
3.091009
 20
29.519404
 30
0.000000
  0
VERTEX
  8
LAYER-2
 10
3.066379
 20
29.481823
 30
0.000000
  0
SEQEND
  8
LAYER-2
  0
POLYLINE
  8
LAYER-2
 66
  1
 70
  0
 62
  7
 10
3.091009
 20
29.519404
 30
0.000000
  0
VERTEX
  8
LAYER-2
 10
3.091009
 20
29.519404
 30
0.000000
  0
VERTEX
  8
LAYER-2
 10
3.115641
 20
29.481823
 30
0.000000
  0
SEQEND
  8
LAYER-2
  0
POLYLINE
  8
LAYER-2
 66
  1
 70
  0
 62
  7
 10
3.022588
 20
29.313317
 30
0.000000
  0
VERTEX
  8
LAYER-2
 10
3.022588
 20
29.313317
 30
0.000000
  0
VERTEX
  8
LAYER-2
 10
3.066379
 20
29.481823
 30
0.000000
  0
SEQEND
  8
LAYER-2
  0
POLYLINE
  8
LAYER-2
 66
  1
 70
  0
 62
  7
 10
3.047221
 20
29.275736
 30
0.000000
  0
VERTEX
  8
LAYER-2
 10
3.047221
 20
29.275736
 30
0.000000
  0
VERTEX
  8
LAYER-2
 10
3.091009
 20
29.519404
 30
0.000000
  0
SEQEND
  8
LAYER-2
  0
POLYLINE
  8
LAYER-2
 66
  1
 70
  0
 62
  7
 10
3.096088
 20
29.275736
 30
0.000000
  0
VERTEX
  8
LAYER-2
 10
3.096088
 20
29.275736
 30
0.000000
  0
VERTEX
  8
LAYER-2
 10
3.071458
 20
29.313317
 30
0.000000
  0
SEQEND
  8
LAYER-2
  0
POLYLINE
  8
LAYER-2
 66
  1
 70
  0
 62
  7
 10
3.096088
 20
29.275736
 30
0.000000
  0
VERTEX
  8
LAYER-2
 10
3.096088
 20
29.275736
 30
0.000000
  0
VERTEX
  8
LAYER-2
 10
3.120720
 20
29.313317
 30
0.000000
  0
SEQEND
  8
LAYER-2
  0
POLYLINE
  8
LAYER-2
 66
  1
 70
  0
 62
  7
 10
3.139878
 20
29.519404
 30
0.000000
  0
VERTEX
  8
LAYER-2
 10
3.139878
 20
29.519404
 30
0.000000
  0
VERTEX
  8
LAYER-2
 10
3.115245
 20
29.481823
 30
0.000000
  0
SEQEND
  8
LAYER-2
  0
POLYLINE
  8
LAYER-2
 66
  1
 70
  0
 62
  7
 10
3.139878
 20
29.519404
 30
0.000000
  0
VERTEX
  8
LAYER-2
 10
3.139878
 20
29.519404
 30
0.000000
  0
VERTEX
  8
LAYER-2
 10
3.164507
 20
29.481823
 30
0.000000
  0
SEQEND
  8
LAYER-2
  0
POLYLINE
  8
LAYER-2
 66
  1
 70
  0
 62
  7
 10
3.071458
 20
29.313317
 30
0.000000
  0
VERTEX
  8
LAYER-2
 10
3.071458
 20
29.313317
 30
0.000000
  0
VERTEX
  8
LAYER-2
 10
3.115245
 20
29.481823
 30
0.000000
  0
SEQEND
  8
LAYER-2
  0
POLYLINE
  8
LAYER-2
 66
  1
 70
  0
 62
  7
 10
3.096088
 20
29.275736
 30
0.000000
  0
VERTEX
  8
LAYER-2
 10
3.096088
 20
29.275736
 30
0.000000
  0
VERTEX
  8
LAYER-2
 10
3.139878
 20
29.519404
 30
0.000000
  0
SEQEND
  8
LAYER-2
  0
POLYLINE
  8
LAYER-2
 66
  1
 70
  0
 62
  7
 10
3.144957
 20
29.275736
 30
0.000000
  0
VERTEX
  8
LAYER-2
 10
3.144957
 20
29.275736
 30
0.000000
  0
VERTEX
  8
LAYER-2
 10
3.120324
 20
29.313317
 30
0.000000
  0
SEQEND
  8
LAYER-2
  0
POLYLINE
  8
LAYER-2
 66
  1
 70
  0
 62
  7
 10
3.144957
 20
29.275736
 30
0.000000
  0
VERTEX
  8
LAYER-2
 10
3.144957
 20
29.275736
 30
0.000000
  0
VERTEX
  8
LAYER-2
 10
3.169586
 20
29.313317
 30
0.000000
  0
SEQEND
  8
LAYER-2
  0
POLYLINE
  8
LAYER-2
 66
  1
 70
  0
 62
  7
 10
3.188744
 20
29.519404
 30
0.000000
  0
VERTEX
  8
LAYER-2
 10
3.188744
 20
29.519404
 30
0.000000
  0
VERTEX
  8
LAYER-2
 10
3.164113
 20
29.481823
 30
0.000000
  0
SEQEND
  8
LAYER-2
  0
POLYLINE
  8
LAYER-2
 66
  1
 70
  0
 62
  7
 10
3.188744
 20
29.519404
 30
0.000000
  0
VERTEX
  8
LAYER-2
 10
3.188744
 20
29.519404
 30
0.000000
  0
VERTEX
  8
LAYER-2
 10
3.213376
 20
29.481823
 30
0.000000
  0
SEQEND
  8
LAYER-2
  0
POLYLINE
  8
LAYER-2
 66
  1
 70
  0
 62
  7
 10
3.120324
 20
29.313317
 30
0.000000
  0
VERTEX
  8
LAYER-2
 10
3.120324
 20
29.313317
 30
0.000000
  0
VERTEX
  8
LAYER-2
 10
3.164113
 20
29.481823
 30
0.000000
  0
SEQEND
  8
LAYER-2
  0
POLYLINE
  8
LAYER-2
 66
  1
 70
  0
 62
  7
 10
3.144957
 20
29.275736
 30
0.000000
  0
VERTEX
  8
LAYER-2
 10
3.144957
 20
29.275736
 30
0.000000
  0
VERTEX
  8
LAYER-2
 10
3.188744
 20
29.519404
 30
0.000000
  0
SEQEND
  8
LAYER-2
  0
POLYLINE
  8
LAYER-2
 66
  1
 70
  0
 62
  7
 10
3.193823
 20
29.275736
 30
0.000000
  0
VERTEX
  8
LAYER-2
 10
3.193823
 20
29.275736
 30
0.000000
  0
VERTEX
  8
LAYER-2
 10
3.169194
 20
29.313317
 30
0.000000
  0
SEQEND
  8
LAYER-2
  0
POLYLINE
  8
LAYER-2
 66
  1
 70
  0
 62
  7
 10
3.193823
 20
29.275736
 30
0.000000
  0
VERTEX
  8
LAYER-2
 10
3.193823
 20
29.275736
 30
0.000000
  0
VERTEX
  8
LAYER-2
 10
3.218457
 20
29.313317
 30
0.000000
  0
SEQEND
  8
LAYER-2
  0
POLYLINE
  8
LAYER-2
 66
  1
 70
  0
 62
  7
 10
3.237613
 20
29.519404
 30
0.000000
  0
VERTEX
  8
LAYER-2
 10
3.237613
 20
29.519404
 30
0.000000
  0
VERTEX
  8
LAYER-2
 10
3.212982
 20
29.481823
 30
0.000000
  0
SEQEND
  8
LAYER-2
  0
POLYLINE
  8
LAYER-2
 66
  1
 70
  0
 62
  7
 10
3.237613
 20
29.519404
 30
0.000000
  0
VERTEX
  8
LAYER-2
 10
3.237613
 20
29.519404
 30
0.000000
  0
VERTEX
  8
LAYER-2
 10
3.262244
 20
29.481823
 30
0.000000
  0
SEQEND
  8
LAYER-2
  0
POLYLINE
  8
LAYER-2
 66
  1
 70
  0
 62
  7
 10
3.169194
 20
29.313317
 30
0.000000
  0
VERTEX
  8
LAYER-2
 10
3.169194
 20
29.313317
 30
0.000000
  0
VERTEX
  8
LAYER-2
 10
3.212982
 20
29.481823
 30
0.000000
  0
SEQEND
  8
LAYER-2
  0
POLYLINE
  8
LAYER-2
 66
  1
 70
  0
 62
  7
 10
3.193823
 20
29.275736
 30
0.000000
  0
VERTEX
  8
LAYER-2
 10
3.193823
 20
29.275736
 30
0.000000
  0
VERTEX
  8
LAYER-2
 10
3.237613
 20
29.519404
 30
0.000000
  0
SEQEND
  8
LAYER-2
  0
POLYLINE
  8
LAYER-2
 66
  1
 70
  0
 62
  7
 10
3.242694
 20
29.275736
 30
0.000000
  0
VERTEX
  8
LAYER-2
 10
3.242694
 20
29.275736
 30
0.000000
  0
VERTEX
  8
LAYER-2
 10
3.218061
 20
29.313317
 30
0.000000
  0
SEQEND
  8
LAYER-2
  0
POLYLINE
  8
LAYER-2
 66
  1
 70
  0
 62
  7
 10
3.242694
 20
29.275736
 30
0.000000
  0
VERTEX
  8
LAYER-2
 10
3.242694
 20
29.275736
 30
0.000000
  0
VERTEX
  8
LAYER-2
 10
3.267323
 20
29.313317
 30
0.000000
  0
SEQEND
  8
LAYER-2
  0
POLYLINE
  8
LAYER-2
 66
  1
 70
  0
 62
  7
 10
3.286482
 20
29.519404
 30
0.000000
  0
VERTEX
  8
LAYER-2
 10
3.286482
 20
29.519404
 30
0.000000
  0
VERTEX
  8
LAYER-2
 10
3.261851
 20
29.481823
 30
0.000000
  0
SEQEND
  8
LAYER-2
  0
POLYLINE
  8
LAYER-2
 66
  1
 70
  0
 62
  7
 10
3.286482
 20
29.519404
 30
0.000000
  0
VERTEX
  8
LAYER-2
 10
3.286482
 20
29.519404
 30
0.000000
  0
VERTEX
  8
LAYER-2
 10
3.311113
 20
29.481823
 30
0.000000
  0
SEQEND
  8
LAYER-2
  0
POLYLINE
  8
LAYER-2
 66
  1
 70
  0
 62
  7
 10
3.218061
 20
29.313317
 30
0.000000
  0
VERTEX
  8
LAYER-2
 10
3.218061
 20
29.313317
 30
0.000000
  0
VERTEX
  8
LAYER-2
 10
3.261851
 20
29.481823
 30
0.000000
  0
SEQEND
  8
LAYER-2
  0
POLYLINE
  8
LAYER-2
 66
  1
 70
  0
 62
  7
 10
3.242694
 20
29.275736
 30
0.000000
  0
VERTEX
  8
LAYER-2
 10
3.242694
 20
29.275736
 30
0.000000
  0
VERTEX
  8
LAYER-2
 10
3.286482
 20
29.519404
 30
0.000000
  0
SEQEND
  8
LAYER-2
  0
POLYLINE
  8
LAYER-2
 66
  1
 70
  0
 62
  7
 10
3.291561
 20
29.275736
 30
0.000000
  0
VERTEX
  8
LAYER-2
 10
3.291561
 20
29.275736
 30
0.000000
  0
VERTEX
  8
LAYER-2
 10
3.266931
 20
29.313317
 30
0.000000
  0
SEQEND
  8
LAYER-2
  0
POLYLINE
  8
LAYER-2
 66
  1
 70
  0
 62
  7
 10
3.291561
 20
29.275736
 30
0.000000
  0
VERTEX
  8
LAYER-2
 10
3.291561
 20
29.275736
 30
0.000000
  0
VERTEX
  8
LAYER-2
 10
3.316194
 20
29.313317
 30
0.000000
  0
SEQEND
  8
LAYER-2
  0
POLYLINE
  8
LAYER-2
 66
  1
 70
  0
 62
  7
 10
3.335350
 20
29.519404
 30
0.000000
  0
VERTEX
  8
LAYER-2
 10
3.335350
 20
29.519404
 30
0.000000
  0
VERTEX
  8
LAYER-2
 10
3.310719
 20
29.481823
 30
0.000000
  0
SEQEND
  8
LAYER-2
  0
POLYLINE
  8
LAYER-2
 66
  1
 70
  0
 62
  7
 10
3.335350
 20
29.519404
 30
0.000000
  0
VERTEX
  8
LAYER-2
 10
3.335350
 20
29.519404
 30
0.000000
  0
VERTEX
  8
LAYER-2
 10
3.359982
 20
29.481823
 30
0.000000
  0
SEQEND
  8
LAYER-2
  0
POLYLINE
  8
LAYER-2
 66
  1
 70
  0
 62
  7
 10
3.266931
 20
29.313317
 30
0.000000
  0
VERTEX
  8
LAYER-2
 10
3.266931
 20
29.313317
 30
0.000000
  0
VERTEX
  8
LAYER-2
 10
3.310719
 20
29.481823
 30
0.000000
  0
SEQEND
  8
LAYER-2
  0
POLYLINE
  8
LAYER-2
 66
  1
 70
  0
 62
  7
 10
3.291561
 20
29.275736
 30
0.000000
  0
VERTEX
  8
LAYER-2
 10
3.291561
 20
29.275736
 30
0.000000
  0
VERTEX
  8
LAYER-2
 10
3.335350
 20
29.519404
 30
0.000000
  0
SEQEND
  8
LAYER-2
  0
POLYLINE
  8
LAYER-2
 66
  1
 70
  0
 62
  7
 10
2.654599
 20
29.275736
 30
0.000000
  0
VERTEX
  8
LAYER-2
 10
2.654599
 20
29.275736
 30
0.000000
  0
VERTEX
  8
LAYER-2
 10
2.629969
 20
29.313317
 30
0.000000
  0
SEQEND
  8
LAYER-2
  0
POLYLINE
  8
LAYER-2
 66
  1
 70
  0
 62
  7
 10
2.654599
 20
29.275736
 30
0.000000
  0
VERTEX
  8
LAYER-2
 10
2.654599
 20
29.275736
 30
0.000000
  0
VERTEX
  8
LAYER-2
 10
2.679233
 20
29.313317
 30
0.000000
  0
SEQEND
  8
LAYER-2
  0
POLYLINE
  8
LAYER-2
 66
  1
 70
  0
 62
  7
 10
2.698391
 20
29.519404
 30
0.000000
  0
VERTEX
  8
LAYER-2
 10
2.698391
 20
29.519404
 30
0.000000
  0
VERTEX
  8
LAYER-2
 10
2.673757
 20
29.481823
 30
0.000000
  0
SEQEND
  8
LAYER-2
  0
POLYLINE
  8
LAYER-2
 66
  1
 70
  0
 62
  7
 10
2.698391
 20
29.519404
 30
0.000000
  0
VERTEX
  8
LAYER-2
 10
2.698391
 20
29.519404
 30
0.000000
  0
VERTEX
  8
LAYER-2
 10
2.723020
 20
29.481823
 30
0.000000
  0
SEQEND
  8
LAYER-2
  0
POLYLINE
  8
LAYER-2
 66
  1
 70
  0
 62
  7
 10
2.629969
 20
29.313317
 30
0.000000
  0
VERTEX
  8
LAYER-2
 10
2.629969
 20
29.313317
 30
0.000000
  0
VERTEX
  8
LAYER-2
 10
2.673757
 20
29.481823
 30
0.000000
  0
SEQEND
  8
LAYER-2
  0
POLYLINE
  8
LAYER-2
 66
  1
 70
  0
 62
  7
 10
2.654599
 20
29.275736
 30
0.000000
  0
VERTEX
  8
LAYER-2
 10
2.654599
 20
29.275736
 30
0.000000
  0
VERTEX
  8
LAYER-2
 10
2.698391
 20
29.519404
 30
0.000000
  0
SEQEND
  8
LAYER-2
  0
POLYLINE
  8
LAYER-2
 66
  1
 70
  0
 62
  7
 10
2.703470
 20
29.275736
 30
0.000000
  0
VERTEX
  8
LAYER-2
 10
2.703470
 20
29.275736
 30
0.000000
  0
VERTEX
  8
LAYER-2
 10
2.678837
 20
29.313317
 30
0.000000
  0
SEQEND
  8
LAYER-2
  0
POLYLINE
  8
LAYER-2
 66
  1
 70
  0
 62
  7
 10
2.703470
 20
29.275736
 30
0.000000
  0
VERTEX
  8
LAYER-2
 10
2.703470
 20
29.275736
 30
0.000000
  0
VERTEX
  8
LAYER-2
 10
2.728099
 20
29.313317
 30
0.000000
  0
SEQEND
  8
LAYER-2
  0
POLYLINE
  8
LAYER-2
 66
  1
 70
  0
 62
  7
 10
2.747258
 20
29.519404
 30
0.000000
  0
VERTEX
  8
LAYER-2
 10
2.747258
 20
29.519404
 30
0.000000
  0
VERTEX
  8
LAYER-2
 10
2.722628
 20
29.481823
 30
0.000000
  0
SEQEND
  8
LAYER-2
  0
POLYLINE
  8
LAYER-2
 66
  1
 70
  0
 62
  7
 10
2.747258
 20
29.519404
 30
0.000000
  0
VERTEX
  8
LAYER-2
 10
2.747258
 20
29.519404
 30
0.000000
  0
VERTEX
  8
LAYER-2
 10
2.771891
 20
29.481823
 30
0.000000
  0
SEQEND
  8
LAYER-2
  0
POLYLINE
  8
LAYER-2
 66
  1
 70
  0
 62
  7
 10
2.678837
 20
29.313317
 30
0.000000
  0
VERTEX
  8
LAYER-2
 10
2.678837
 20
29.313317
 30
0.000000
  0
VERTEX
  8
LAYER-2
 10
2.722628
 20
29.481823
 30
0.000000
  0
SEQEND
  8
LAYER-2
  0
POLYLINE
  8
LAYER-2
 66
  1
 70
  0
 62
  7
 10
2.703470
 20
29.275736
 30
0.000000
  0
VERTEX
  8
LAYER-2
 10
2.703470
 20
29.275736
 30
0.000000
  0
VERTEX
  8
LAYER-2
 10
2.747258
 20
29.519404
 30
0.000000
  0
SEQEND
  8
LAYER-2
  0
POLYLINE
  8
LAYER-2
 66
  1
 70
  0
 62
  7
 10
2.752336
 20
29.275736
 30
0.000000
  0
VERTEX
  8
LAYER-2
 10
2.752336
 20
29.275736
 30
0.000000
  0
VERTEX
  8
LAYER-2
 10
2.727707
 20
29.313317
 30
0.000000
  0
SEQEND
  8
LAYER-2
  0
POLYLINE
  8
LAYER-2
 66
  1
 70
  0
 62
  7
 10
2.752336
 20
29.275736
 30
0.000000
  0
VERTEX
  8
LAYER-2
 10
2.752336
 20
29.275736
 30
0.000000
  0
VERTEX
  8
LAYER-2
 10
2.776970
 20
29.313317
 30
0.000000
  0
SEQEND
  8
LAYER-2
  0
POLYLINE
  8
LAYER-2
 66
  1
 70
  0
 62
  7
 10
2.796128
 20
29.519404
 30
0.000000
  0
VERTEX
  8
LAYER-2
 10
2.796128
 20
29.519404
 30
0.000000
  0
VERTEX
  8
LAYER-2
 10
2.771495
 20
29.481823
 30
0.000000
  0
SEQEND
  8
LAYER-2
  0
POLYLINE
  8
LAYER-2
 66
  1
 70
  0
 62
  7
 10
2.796128
 20
29.519404
 30
0.000000
  0
VERTEX
  8
LAYER-2
 10
2.796128
 20
29.519404
 30
0.000000
  0
VERTEX
  8
LAYER-2
 10
2.820757
 20
29.481823
 30
0.000000
  0
SEQEND
  8
LAYER-2
  0
POLYLINE
  8
LAYER-2
 66
  1
 70
  0
 62
  7
 10
2.727707
 20
29.313317
 30
0.000000
  0
VERTEX
  8
LAYER-2
 10
2.727707
 20
29.313317
 30
0.000000
  0
VERTEX
  8
LAYER-2
 10
2.771495
 20
29.481823
 30
0.000000
  0
SEQEND
  8
LAYER-2
  0
POLYLINE
  8
LAYER-2
 66
  1
 70
  0
 62
  7
 10
2.752336
 20
29.275736
 30
0.000000
  0
VERTEX
  8
LAYER-2
 10
2.752336
 20
29.275736
 30
0.000000
  0
VERTEX
  8
LAYER-2
 10
2.796128
 20
29.519404
 30
0.000000
  0
SEQEND
  8
LAYER-2
  0
POLYLINE
  8
LAYER-2
 66
  1
 70
  0
 62
  7
 10
2.801207
 20
29.275736
 30
0.000000
  0
VERTEX
  8
LAYER-2
 10
2.801207
 20
29.275736
 30
0.000000
  0
VERTEX
  8
LAYER-2
 10
2.776574
 20
29.313317
 30
0.000000
  0
SEQEND
  8
LAYER-2
  0
POLYLINE
  8
LAYER-2
 66
  1
 70
  0
 62
  7
 10
2.801207
 20
29.275736
 30
0.000000
  0
VERTEX
  8
LAYER-2
 10
2.801207
 20
29.275736
 30
0.000000
  0
VERTEX
  8
LAYER-2
 10
2.825836
 20
29.313317
 30
0.000000
  0
SEQEND
  8
LAYER-2
  0
POLYLINE
  8
LAYER-2
 66
  1
 70
  0
 62
  7
 10
2.844994
 20
29.519404
 30
0.000000
  0
VERTEX
  8
LAYER-2
 10
2.844994
 20
29.519404
 30
0.000000
  0
VERTEX
  8
LAYER-2
 10
2.820363
 20
29.481823
 30
0.000000
  0
SEQEND
  8
LAYER-2
  0
POLYLINE
  8
LAYER-2
 66
  1
 70
  0
 62
  7
 10
2.844994
 20
29.519404
 30
0.000000
  0
VERTEX
  8
LAYER-2
 10
2.844994
 20
29.519404
 30
0.000000
  0
VERTEX
  8
LAYER-2
 10
2.869626
 20
29.481823
 30
0.000000
  0
SEQEND
  8
LAYER-2
  0
POLYLINE
  8
LAYER-2
 66
  1
 70
  0
 62
  7
 10
2.776574
 20
29.313317
 30
0.000000
  0
VERTEX
  8
LAYER-2
 10
2.776574
 20
29.313317
 30
0.000000
  0
VERTEX
  8
LAYER-2
 10
2.820363
 20
29.481823
 30
0.000000
  0
SEQEND
  8
LAYER-2
  0
POLYLINE
  8
LAYER-2
 66
  1
 70
  0
 62
  7
 10
2.801207
 20
29.275736
 30
0.000000
  0
VERTEX
  8
LAYER-2
 10
2.801207
 20
29.275736
 30
0.000000
  0
VERTEX
  8
LAYER-2
 10
2.844994
 20
29.519404
 30
0.000000
  0
SEQEND
  8
LAYER-2
  0
POLYLINE
  8
LAYER-2
 66
  1
 70
  0
 62
  7
 10
2.850074
 20
29.275736
 30
0.000000
  0
VERTEX
  8
LAYER-2
 10
2.850074
 20
29.275736
 30
0.000000
  0
VERTEX
  8
LAYER-2
 10
2.825444
 20
29.313317
 30
0.000000
  0
SEQEND
  8
LAYER-2
  0
POLYLINE
  8
LAYER-2
 66
  1
 70
  0
 62
  7
 10
2.850074
 20
29.275736
 30
0.000000
  0
VERTEX
  8
LAYER-2
 10
2.850074
 20
29.275736
 30
0.000000
  0
VERTEX
  8
LAYER-2
 10
2.874707
 20
29.313317
 30
0.000000
  0
SEQEND
  8
LAYER-2
  0
POLYLINE
  8
LAYER-2
 66
  1
 70
  0
 62
  7
 10
2.893863
 20
29.519404
 30
0.000000
  0
VERTEX
  8
LAYER-2
 10
2.893863
 20
29.519404
 30
0.000000
  0
VERTEX
  8
LAYER-2
 10
2.869232
 20
29.481823
 30
0.000000
  0
SEQEND
  8
LAYER-2
  0
POLYLINE
  8
LAYER-2
 66
  1
 70
  0
 62
  7
 10
2.893863
 20
29.519404
 30
0.000000
  0
VERTEX
  8
LAYER-2
 10
2.893863
 20
29.519404
 30
0.000000
  0
VERTEX
  8
LAYER-2
 10
2.918494
 20
29.481823
 30
0.000000
  0
SEQEND
  8
LAYER-2
  0
POLYLINE
  8
LAYER-2
 66
  1
 70
  0
 62
  7
 10
2.825444
 20
29.313317
 30
0.000000
  0
VERTEX
  8
LAYER-2
 10
2.825444
 20
29.313317
 30
0.000000
  0
VERTEX
  8
LAYER-2
 10
2.869232
 20
29.481823
 30
0.000000
  0
SEQEND
  8
LAYER-2
  0
POLYLINE
  8
LAYER-2
 66
  1
 70
  0
 62
  7
 10
2.850074
 20
29.275736
 30
0.000000
  0
VERTEX
  8
LAYER-2
 10
2.850074
 20
29.275736
 30
0.000000
  0
VERTEX
  8
LAYER-2
 10
2.893863
 20
29.519404
 30
0.000000
  0
SEQEND
  8
LAYER-2
  0
POLYLINE
  8
LAYER-2
 66
  1
 70
  0
 62
  7
 10
2.898944
 20
29.275736
 30
0.000000
  0
VERTEX
  8
LAYER-2
 10
2.898944
 20
29.275736
 30
0.000000
  0
VERTEX
  8
LAYER-2
 10
2.874311
 20
29.313317
 30
0.000000
  0
SEQEND
  8
LAYER-2
  0
POLYLINE
  8
LAYER-2
 66
  1
 70
  0
 62
  7
 10
2.898944
 20
29.275736
 30
0.000000
  0
VERTEX
  8
LAYER-2
 10
2.898944
 20
29.275736
 30
0.000000
  0
VERTEX
  8
LAYER-2
 10
2.923573
 20
29.313317
 30
0.000000
  0
SEQEND
  8
LAYER-2
  0
POLYLINE
  8
LAYER-2
 66
  1
 70
  0
 62
  7
 10
2.942732
 20
29.519404
 30
0.000000
  0
VERTEX
  8
LAYER-2
 10
2.942732
 20
29.519404
 30
0.000000
  0
VERTEX
  8
LAYER-2
 10
2.918100
 20
29.481823
 30
0.000000
  0
SEQEND
  8
LAYER-2
  0
POLYLINE
  8
LAYER-2
 66
  1
 70
  0
 62
  7
 10
2.942732
 20
29.519404
 30
0.000000
  0
VERTEX
  8
LAYER-2
 10
2.942732
 20
29.519404
 30
0.000000
  0
VERTEX
  8
LAYER-2
 10
2.967363
 20
29.481823
 30
0.000000
  0
SEQEND
  8
LAYER-2
  0
POLYLINE
  8
LAYER-2
 66
  1
 70
  0
 62
  7
 10
2.874311
 20
29.313317
 30
0.000000
  0
VERTEX
  8
LAYER-2
 10
2.874311
 20
29.313317
 30
0.000000
  0
VERTEX
  8
LAYER-2
 10
2.918100
 20
29.481823
 30
0.000000
  0
SEQEND
  8
LAYER-2
  0
POLYLINE
  8
LAYER-2
 66
  1
 70
  0
 62
  7
 10
2.898944
 20
29.275736
 30
0.000000
  0
VERTEX
  8
LAYER-2
 10
2.898944
 20
29.275736
 30
0.000000
  0
VERTEX
  8
LAYER-2
 10
2.942732
 20
29.519404
 30
0.000000
  0
SEQEND
  8
LAYER-2
  0
POLYLINE
  8
LAYER-2
 66
  1
 70
  0
 62
  7
 10
2.947811
 20
29.275736
 30
0.000000
  0
VERTEX
  8
LAYER-2
 10
2.947811
 20
29.275736
 30
0.000000
  0
VERTEX
  8
LAYER-2
 10
2.923181
 20
29.313317
 30
0.000000
  0
SEQEND
  8
LAYER-2
  0
POLYLINE
  8
LAYER-2
 66
  1
 70
  0
 62
  7
 10
2.947811
 20
29.275736
 30
0.000000
  0
VERTEX
  8
LAYER-2
 10
2.947811
 20
29.275736
 30
0.000000
  0
VERTEX
  8
LAYER-2
 10
2.972444
 20
29.313317
 30
0.000000
  0
SEQEND
  8
LAYER-2
  0
POLYLINE
  8
LAYER-2
 66
  1
 70
  0
 62
  7
 10
2.991600
 20
29.519404
 30
0.000000
  0
VERTEX
  8
LAYER-2
 10
2.991600
 20
29.519404
 30
0.000000
  0
VERTEX
  8
LAYER-2
 10
2.966969
 20
29.481823
 30
0.000000
  0
SEQEND
  8
LAYER-2
  0
POLYLINE
  8
LAYER-2
 66
  1
 70
  0
 62
  7
 10
2.991600
 20
29.519404
 30
0.000000
  0
VERTEX
  8
LAYER-2
 10
2.991600
 20
29.519404
 30
0.000000
  0
VERTEX
  8
LAYER-2
 10
3.016231
 20
29.481823
 30
0.000000
  0
SEQEND
  8
LAYER-2
  0
POLYLINE
  8
LAYER-2
 66
  1
 70
  0
 62
  7
 10
2.923181
 20
29.313317
 30
0.000000
  0
VERTEX
  8
LAYER-2
 10
2.923181
 20
29.313317
 30
0.000000
  0
VERTEX
  8
LAYER-2
 10
2.966969
 20
29.481823
 30
0.000000
  0
SEQEND
  8
LAYER-2
  0
POLYLINE
  8
LAYER-2
 66
  1
 70
  0
 62
  7
 10
2.947811
 20
29.275736
 30
0.000000
  0
VERTEX
  8
LAYER-2
 10
2.947811
 20
29.275736
 30
0.000000
  0
VERTEX
  8
LAYER-2
 10
2.991600
 20
29.519404
 30
0.000000
  0
SEQEND
  8
LAYER-2
  0
POLYLINE
  8
LAYER-2
 66
  1
 70
  0
 62
  7
 10
2.628101
 20
29.481823
 30
0.000000
  0
VERTEX
  8
LAYER-2
 10
2.628101
 20
29.481823
 30
0.000000
  0
VERTEX
  8
LAYER-2
 10
2.628101
 20
29.313317
 30
0.000000
  0
SEQEND
  8
LAYER-2
  0
POLYLINE
  8
LAYER-2
 66
  1
 70
  0
 62
  7
 10
2.628101
 20
29.481823
 30
0.000000
  0
VERTEX
  8
LAYER-2
 10
2.628101
 20
29.481823
 30
0.000000
  0
VERTEX
  8
LAYER-2
 10
2.673757
 20
29.481823
 30
0.000000
  0
SEQEND
  8
LAYER-2
  0
POLYLINE
  8
LAYER-2
 66
  1
 70
  1
 62
255
  0
VERTEX
  8
LAYER-2
 10
5.222828
 20
28.580684
 30
0.000000
  0
VERTEX
  8
LAYER-2
 10
25.876472
 20
28.580684
 30
0.000000
  0
VERTEX
  8
LAYER-2
 10
25.876472
 20
26.994155
 30
0.000000
  0
VERTEX
  8
LAYER-2
 10
5.222828
 20
26.994155
 30
0.000000
  0
SEQEND
  8
LAYER-2
  0
POLYLINE
  8
LAYER-2
 66
  1
 70
  1
 62
255
  0
VERTEX
  8
LAYER-2
 10
5.222828
 20
28.904135
 30
0.000000
  0
VERTEX
  8
LAYER-2
 10
25.876472
 20
28.904135
 30
0.000000
  0
VERTEX
  8
LAYER-2
 10
25.876472
 20
28.792218
 30
0.000000
  0
VERTEX
  8
LAYER-2
 10
5.222828
 20
28.792218
 30
0.000000
  0
SEQEND
  8
LAYER-2
  0
POLYLINE
  8
LAYER-2
 66
  1
 70
  1
 62
255
  0
VERTEX
  8
LAYER-2
 10
5.222828
 20
28.792218
 30
0.000000
  0
VERTEX
  8
LAYER-2
 10
25.876472
 20
28.792218
 30
0.000000
  0
VERTEX
  8
LAYER-2
 10
25.876472
 20
28.724919
 30
0.000000
  0
VERTEX
  8
LAYER-2
 10
5.222828
 20
28.724919
 30
0.000000
  0
SEQEND
  8
LAYER-2
  0
POLYLINE
  8
LAYER-2
 66
  1
 70
  1
 62
255
  0
VERTEX
  8
LAYER-2
 10
5.222828
 20
28.982131
 30
0.000000
  0
VERTEX
  8
LAYER-2
 10
25.876472
 20
28.982131
 30
0.000000
  0
VERTEX
  8
LAYER-2
 10
25.876472
 20
28.904135
 30
0.000000
  0
VERTEX
  8
LAYER-2
 10
5.222828
 20
28.904135
 30
0.000000
  0
SEQEND
  8
LAYER-2
  0
POLYLINE
  8
LAYER-2
 66
  1
 70
  1
 62
  7
  0
VERTEX
  8
LAYER-2
 10
3.800215
 20
29.379305
 30
0.000000
  0
VERTEX
  8
LAYER-2
 10
5.216879
 20
29.379305
 30
0.000000
  0
VERTEX
  8
LAYER-2
 10
5.216879
 20
26.948754
 30
0.000000
  0
VERTEX
  8
LAYER-2
 10
3.800215
 20
26.948754
 30
0.000000
  0
SEQEND
  8
LAYER-2
  0
POLYLINE
  8
LAYER-2
 66
  1
 70
  1
 62
  7
  0
VERTEX
  8
LAYER-2
 10
3.800215
 20
27.872366
 30
0.000000
  0
VERTEX
  8
LAYER-2
 10
4.876602
 20
27.872366
 30
0.000000
  0
VERTEX
  8
LAYER-2
 10
4.876602
 20
27.650139
 30
0.000000
  0
VERTEX
  8
LAYER-2
 10
3.800215
 20
27.650139
 30
0.000000
  0
SEQEND
  8
LAYER-2
  0
POLYLINE
  8
LAYER-2
 66
  1
 70
  1
 62
  7
 10
4.876602
 20
27.650139
 30
0.000000
  0
VERTEX
  8
LAYER-2
 10
4.876602
 20
27.650139
 30
0.000000
  0
VERTEX
  8
LAYER-2
 10
5.029380
 20
27.684866
 30
0.000000
  0
VERTEX
  8
LAYER-2
 10
5.029380
 20
27.830700
 30
0.000000
  0
VERTEX
  8
LAYER-2
 10
4.876602
 20
27.872366
 30
0.000000
  0
SEQEND
  8
LAYER-2
  0
POLYLINE
  8
LAYER-2
 66
  1
 70
  0
 62
  7
 10
4.876602
 20
27.809866
 30
0.000000
  0
VERTEX
  8
LAYER-2
 10
4.876602
 20
27.809866
 30
0.000000
  0
VERTEX
  8
LAYER-2
 10
3.800215
 20
27.809866
 30
0.000000
  0
SEQEND
  8
LAYER-2
  0
POLYLINE
  8
LAYER-2
 66
  1
 70
  0
 62
  7
 10
3.930367
 20
30.187864
 30
0.000000
  0
VERTEX
  8
LAYER-2
 10
3.930367
 20
30.187864
 30
0.000000
  0
VERTEX
  8
LAYER-2
 10
3.930367
 20
26.149405
 30
0.000000
  0
SEQEND
  8
LAYER-2
  0
POLYLINE
  8
LAYER-2
 66
  1
 70
  0
 62
  7
 10
25.887174
 20
30.066751
 30
0.000000
  0
VERTEX
  8
LAYER-2
 10
25.887174
 20
30.066751
 30
0.000000
  0
VERTEX
  8
LAYER-2
 10
25.887174
 20
26.271315
 30
0.000000
  0
SEQEND
  8
LAYER-2
  0
POLYLINE
  8
LAYER-2
 66
  1
 70
  1
 62
  7
  0
VERTEX
  8
LAYER-2
 10
3.801480
 20
30.187864
 30
0.000000
  0
VERTEX
  8
LAYER-2
 10
3.930367
 20
30.187864
 30
0.000000
  0
VERTEX
  8
LAYER-2
 10
3.930367
 20
26.151006
 30
0.000000
  0
VERTEX
  8
LAYER-2
 10
3.801480
 20
26.151006
 30
0.000000
  0
SEQEND
  8
LAYER-2
  0
POLYLINE
  8
LAYER-2
 66
  1
 70
  1
 62
  7
  0
VERTEX
  8
LAYER-2
 10
3.930367
 20
30.065068
 30
0.000000
  0
VERTEX
  8
LAYER-2
 10
5.145230
 20
30.065068
 30
0.000000
  0
VERTEX
  8
LAYER-2
 10
5.145230
 20
26.268193
 30
0.000000
  0
VERTEX
  8
LAYER-2
 10
3.930367
 20
26.268193
 30
0.000000
  0
SEQEND
  8
LAYER-2
  0
POLYLINE
  8
LAYER-2
 66
  1
 70
  0
 62
  7
 10
3.423235
 20
26.731002
 30
0.000000
  0
VERTEX
  8
LAYER-2
 10
3.423235
 20
26.731002
 30
0.000000
  0
VERTEX
  8
LAYER-2
 10
3.423235
 20
26.092102
 30
0.000000
  0
SEQEND
  8
LAYER-2
  0
POLYLINE
  8
LAYER-2
 66
  1
 70
  0
 62
  7
 10
3.673235
 20
26.731002
 30
0.000000
  0
VERTEX
  8
LAYER-2
 10
3.673235
 20
26.731002
 30
0.000000
  0
VERTEX
  8
LAYER-2
 10
3.673235
 20
26.092102
 30
0.000000
  0
SEQEND
  8
LAYER-2
  0
ARC
  8
LAYER-2
 62
  7
 10
2.956463
 20
26.125178
 30
0.000000
 40
0.467455
 50
280.179626
 51
356.901917
  0
ARC
  8
LAYER-2
 62
  7
 10
2.994175
 20
26.092691
 30
0.000000
 40
0.679099
 50
273.791351
 51
0.609375
  0
ARC
  8
LAYER-2
 62
  7
 10
2.162821
 20
24.803974
 30
0.000000
 40
0.862203
 50
86.892548
 51
167.421814
  0
ARC
  8
LAYER-2
 62
  7
 10
0.826881
 20
24.084994
 30
0.000000
 40
0.379796
 50
188.441589
 51
351.558411
  0
ARC
  8
LAYER-2
 62
  7
 10
2.162818
 20
24.803979
 30
0.000000
 40
0.614399
 50
86.892273
 51
167.422180
  0
ARC
  8
LAYER-2
 62
  7
 10
0.825018
 20
24.087740
 30
0.000000
 40
0.628813
 50
188.153015
 51
351.446869
  0
POLYLINE
  8
LAYER-2
 66
  1
 70
  0
 62
  7
 10
1.321311
 20
24.991737
 30
0.000000
  0
VERTEX
  8
LAYER-2
 10
1.321311
 20
24.991737
 30
0.000000
  0
VERTEX
  8
LAYER-2
 10
1.202562
 20
24.029241
 30
0.000000
  0
SEQEND
  8
LAYER-2
  0
POLYLINE
  8
LAYER-2
 66
  1
 70
  0
 62
  7
 10
1.569959
 20
24.961060
 30
0.000000
  0
VERTEX
  8
LAYER-2
 10
1.569959
 20
24.961060
 30
0.000000
  0
VERTEX
  8
LAYER-2
 10
1.451211
 20
23.998563
 30
0.000000
  0
SEQEND
  8
LAYER-2
  0
POLYLINE
  8
LAYER-2
 66
  1
 70
  0
 62
  7
 10
0.344199
 20
24.922424
 30
0.000000
  0
VERTEX
  8
LAYER-2
 10
0.344199
 20
24.922424
 30
0.000000
  0
VERTEX
  8
LAYER-2
 10
0.451199
 20
24.029241
 30
0.000000
  0
SEQEND
  8
LAYER-2
  0
POLYLINE
  8
LAYER-2
 66
  1
 70
  0
 62
  7
 10
0.070095
 20
24.922427
 30
0.000000
  0
VERTEX
  8
LAYER-2
 10
0.070095
 20
24.922427
 30
0.000000
  0
VERTEX
  8
LAYER-2
 10
0.202560
 20
23.998563
 30
0.000000
  0
SEQEND
  8
LAYER-2
  0
POLYLINE
  8
LAYER-2
 66
  1
 70
  0
 62
  7
 10
0.160295
 20
24.927556
 30
0.000000
  0
VERTEX
  8
LAYER-2
 10
0.160295
 20
24.927556
 30
0.000000
  0
VERTEX
  8
LAYER-2
 10
0.140229
 20
24.930969
 30
0.000000
  0
VERTEX
  8
LAYER-2
 10
0.122077
 20
24.931176
 30
0.000000
  0
VERTEX
  8
LAYER-2
 10
0.103953
 20
24.930145
 30
0.000000
  0
VERTEX
  8
LAYER-2
 10
0.085941
 20
24.927880
 30
0.000000
  0
VERTEX
  8
LAYER-2
 10
0.068126
 20
24.924396
 30
0.000000
  0
VERTEX
  8
LAYER-2
 10
0.070095
 20
24.922427
 30
0.000000
  0
SEQEND
  8
LAYER-2
  0
POLYLINE
  8
LAYER-2
 66
  1
 70
  0
 62
  7
 10
0.246367
 20
24.909400
 30
0.000000
  0
VERTEX
  8
LAYER-2
 10
0.246367
 20
24.909400
 30
0.000000
  0
VERTEX
  8
LAYER-2
 10
0.227410
 20
24.916004
 30
0.000000
  0
VERTEX
  8
LAYER-2
 10
0.210295
 20
24.920143
 30
0.000000
  0
VERTEX
  8
LAYER-2
 10
0.193067
 20
24.923774
 30
0.000000
  0
VERTEX
  8
LAYER-2
 10
0.175740
 20
24.926903
 30
0.000000
  0
VERTEX
  8
LAYER-2
 10
0.158329
 20
24.929526
 30
0.000000
  0
VERTEX
  8
LAYER-2
 10
0.160299
 20
24.927556
 30
0.000000
  0
SEQEND
  8
LAYER-2
  0
POLYLINE
  8
LAYER-2
 66
  1
 70
  0
 62
  7
 10
0.246363
 20
24.909400
 30
0.000000
  0
VERTEX
  8
LAYER-2
 10
0.246363
 20
24.909400
 30
0.000000
  0
VERTEX
  8
LAYER-2
 10
0.259773
 20
24.907184
 30
0.000000
  0
VERTEX
  8
LAYER-2
 10
0.275405
 20
24.904072
 30
0.000000
  0
VERTEX
  8
LAYER-2
 10
0.291214
 20
24.902043
 30
0.000000
  0
VERTEX
  8
LAYER-2
 10
0.307126
 20
24.901114
 30
0.000000
  0
VERTEX
  8
LAYER-2
 10
0.323064
 20
24.901283
 30
0.000000
  0
VERTEX
  8
LAYER-2
 10
0.325033
 20
24.899315
 30
0.000000
  0
SEQEND
  8
LAYER-2
  0
POLYLINE
  8
LAYER-2
 66
  1
 70
  0
 62
  7
 10
0.325033
 20
24.899315
 30
0.000000
  0
VERTEX
  8
LAYER-2
 10
0.325033
 20
24.899315
 30
0.000000
  0
VERTEX
  8
LAYER-2
 10
0.329424
 20
24.903046
 30
0.000000
  0
VERTEX
  8
LAYER-2
 10
0.334964
 20
24.906630
 30
0.000000
  0
VERTEX
  8
LAYER-2
 10
0.339176
 20
24.911710
 30
0.000000
  0
VERTEX
  8
LAYER-2
 10
0.341674
 20
24.917819
 30
0.000000
  0
VERTEX
  8
LAYER-2
 10
0.344195
 20
24.922427
 30
0.000000
  0
SEQEND
  8
LAYER-2
  0
POLYLINE
  8
LAYER-2
 66
  1
 70
  0
 62
  7
 10
0.344199
 20
24.922424
 30
0.000000
  0
VERTEX
  8
LAYER-2
 10
0.344199
 20
24.922424
 30
0.000000
  0
VERTEX
  8
LAYER-2
 10
0.339766
 20
24.929105
 30
0.000000
  0
VERTEX
  8
LAYER-2
 10
0.336266
 20
24.933115
 30
0.000000
  0
VERTEX
  8
LAYER-2
 10
0.331927
 20
24.936192
 30
0.000000
  0
VERTEX
  8
LAYER-2
 10
0.326988
 20
24.938169
 30
0.000000
  0
VERTEX
  8
LAYER-2
 10
0.323691
 20
24.936969
 30
0.000000
  0
SEQEND
  8
LAYER-2
  0
POLYLINE
  8
LAYER-2
 66
  1
 70
  0
 62
  7
 10
0.323691
 20
24.936967
 30
0.000000
  0
VERTEX
  8
LAYER-2
 10
0.323691
 20
24.936967
 30
0.000000
  0
VERTEX
  8
LAYER-2
 10
0.216085
 20
24.923650
 30
0.000000
  0
VERTEX
  8
LAYER-2
 10
0.212072
 20
24.919485
 30
0.000000
  0
SEQEND
  8
LAYER-2
  0
POLYLINE
  8
LAYER-2
 66
  1
 70
  1
 62
  7
  0
VERTEX
  8
LAYER-2
 10
5.222828
 20
29.327224
 30
0.000000
  0
VERTEX
  8
LAYER-2
 10
25.876472
 20
29.327224
 30
0.000000
  0
VERTEX
  8
LAYER-2
 10
25.876472
 20
26.994155
 30
0.000000
  0
VERTEX
  8
LAYER-2
 10
5.222828
 20
26.994155
 30
0.000000
  0
SEQEND
  8
LAYER-2
  0
POLYLINE
  8
LAYER-2
 66
  1
 70
  1
 62
255
  0
VERTEX
  8
LAYER-2
 10
5.222828
 20
29.327224
 30
0.000000
  0
VERTEX
  8
LAYER-2
 10
25.876472
 20
29.327224
 30
0.000000
  0
VERTEX
  8
LAYER-2
 10
25.876472
 20
29.114077
 30
0.000000
  0
VERTEX
  8
LAYER-2
 10
5.222828
 20
29.114077
 30
0.000000
  0
SEQEND
  8
LAYER-2
  0
CIRCLE
  8
LAYER-2
 62
  7
 10
25.654961
 20
28.128770
 30
0.000000
 40
0.091346
  0
CIRCLE
  8
LAYER-2
 62
  9
 10
25.654961
 20
28.147991
 30
0.000000
 40
0.063435
  0
POLYLINE
  8
LAYER-2
 66
  1
 70
  0
 62
  7
 10
25.532363
 20
27.244159
 30
0.000000
  0
VERTEX
  8
LAYER-2
 10
25.532363
 20
27.244159
 30
0.000000
  0
VERTEX
  8
LAYER-2
 10
25.876472
 20
27.244159
 30
0.000000
  0
SEQEND
  8
LAYER-2
  0
POLYLINE
  8
LAYER-2
 66
  1
 70
  0
 62
  7
 10
25.876472
 20
27.244159
 30
0.000000
  0
VERTEX
  8
LAYER-2
 10
25.876472
 20
27.244159
 30
0.000000
  0
VERTEX
  8
LAYER-2
 10
25.876472
 20
27.373967
 30
0.000000
  0
SEQEND
  8
LAYER-2
  0
POLYLINE
  8
LAYER-2
 66
  1
 70
  0
 62
  7
 10
25.876472
 20
27.373967
 30
0.000000
  0
VERTEX
  8
LAYER-2
 10
25.876472
 20
27.373967
 30
0.000000
  0
VERTEX
  8
LAYER-2
 10
25.532363
 20
27.373967
 30
0.000000
  0
SEQEND
  8
LAYER-2
  0
ARC
  8
LAYER-2
 62
  7
 10
25.532363
 20
27.309063
 30
0.000000
 40
0.064903
 50
90.000000
 51
270.000000
  0
POLYLINE
  8
LAYER-2
 66
  1
 70
  1
 62
  7
  0
VERTEX
  8
LAYER-2
 10
25.878519
 20
28.744150
 30
0.000000
  0
VERTEX
  8
LAYER-2
 10
27.099670
 20
28.744150
 30
0.000000
  0
VERTEX
  8
LAYER-2
 10
27.099670
 20
27.580686
 30
0.000000
  0
VERTEX
  8
LAYER-2
 10
25.878519
 20
27.580686
 30
0.000000
  0
SEQEND
  8
LAYER-2
  0
POLYLINE
  8
LAYER-2
 66
  1
 70
  1
 62
  7
  0
VERTEX
  8
LAYER-2
 10
27.157365
 20
28.744150
 30
0.000000
  0
VERTEX
  8
LAYER-2
 10
27.287170
 20
28.744150
 30
0.000000
  0
VERTEX
  8
LAYER-2
 10
27.287170
 20
27.580686
 30
0.000000
  0
VERTEX
  8
LAYER-2
 10
27.157365
 20
27.580686
 30
0.000000
  0
SEQEND
  8
LAYER-2
  0
POLYLINE
  8
LAYER-2
 66
  1
 70
  1
 62
  7
  0
VERTEX
  8
LAYER-2
 10
27.099670
 20
28.679241
 30
0.000000
  0
VERTEX
  8
LAYER-2
 10
27.157365
 20
28.679241
 30
0.000000
  0
VERTEX
  8
LAYER-2
 10
27.157365
 20
27.647989
 30
0.000000
  0
VERTEX
  8
LAYER-2
 10
27.099670
 20
27.647989
 30
0.000000
  0
SEQEND
  8
LAYER-2
  0
POLYLINE
  8
LAYER-2
 66
  1
 70
  0
 62
  7
 10
26.277555
 20
28.162424
 30
0.000000
  0
VERTEX
  8
LAYER-2
 10
26.277555
 20
28.162424
 30
0.000000
  0
VERTEX
  8
LAYER-2
 10
26.890536
 20
28.162424
 30
0.000000
  0
SEQEND
  8
LAYER-2
  0
POLYLINE
  8
LAYER-2
 66
  1
 70
  0
 62
  7
 10
26.986690
 20
28.066270
 30
0.000000
  0
VERTEX
  8
LAYER-2
 10
26.986690
 20
28.066270
 30
0.000000
  0
VERTEX
  8
LAYER-2
 10
26.986690
 20
28.066270
 30
0.000000
  0
SEQEND
  8
LAYER-2
  0
POLYLINE
  8
LAYER-2
 66
  1
 70
  0
 62
  7
 10
26.890536
 20
27.970116
 30
0.000000
  0
VERTEX
  8
LAYER-2
 10
26.890536
 20
27.970116
 30
0.000000
  0
VERTEX
  8
LAYER-2
 10
26.277555
 20
27.970116
 30
0.000000
  0
SEQEND
  8
LAYER-2
  0
POLYLINE
  8
LAYER-2
 66
  1
 70
  0
 62
  7
 10
26.181404
 20
28.066270
 30
0.000000
  0
VERTEX
  8
LAYER-2
 10
26.181404
 20
28.066270
 30
0.000000
  0
VERTEX
  8
LAYER-2
 10
26.181404
 20
28.066270
 30
0.000000
  0
SEQEND
  8
LAYER-2
  0
ARC
  8
LAYER-2
 62
  7
 10
26.277555
 20
28.066270
 30
0.000000
 40
0.096154
 50
90.000000
 51
180.000000
  0
ARC
  8
LAYER-2
 62
  7
 10
26.277555
 20
28.066270
 30
0.000000
 40
0.096154
 50
180.000000
 51
270.000000
  0
ARC
  8
LAYER-2
 62
  7
 10
26.890536
 20
28.066270
 30
0.000000
 40
0.096154
 50
270.000000
 51
0.000000
  0
ARC
  8
LAYER-2
 62
  7
 10
26.890536
 20
28.066270
 30
0.000000
 40
0.096154
 50
0.000000
 51
90.000000
  0
POLYLINE
  8
LAYER-2
 66
  1
 70
  1
 62
  7
  0
VERTEX
  8
LAYER-2
 10
25.888585
 20
28.915945
 30
0.000000
  0
VERTEX
  8
LAYER-2
 10
27.084799
 20
28.915945
 30
0.000000
  0
VERTEX
  8
LAYER-2
 10
27.084799
 20
28.748958
 30
0.000000
  0
VERTEX
  8
LAYER-2
 10
25.888585
 20
28.748958
 30
0.000000
  0
SEQEND
  8
LAYER-2
  0
POLYLINE
  8
LAYER-2
 66
  1
 70
  1
 62
  7
  0
VERTEX
  8
LAYER-2
 10
25.889803
 20
30.066751
 30
0.000000
  0
VERTEX
  8
LAYER-2
 10
27.084799
 20
30.066751
 30
0.000000
  0
VERTEX
  8
LAYER-2
 10
27.084799
 20
29.920917
 30
0.000000
  0
VERTEX
  8
LAYER-2
 10
25.889803
 20
29.920917
 30
0.000000
  0
SEQEND
  8
LAYER-2
  0
POLYLINE
  8
LAYER-2
 66
  1
 70
  1
 62
  7
  0
VERTEX
  8
LAYER-2
 10
27.084799
 20
27.408907
 30
0.000000
  0
VERTEX
  8
LAYER-2
 10
25.888585
 20
27.408907
 30
0.000000
  0
VERTEX
  8
LAYER-2
 10
25.888585
 20
27.575895
 30
0.000000
  0
VERTEX
  8
LAYER-2
 10
27.084799
 20
27.575895
 30
0.000000
  0
SEQEND
  8
LAYER-2
  0
POLYLINE
  8
LAYER-2
 66
  1
 70
  1
 62
  7
  0
VERTEX
  8
LAYER-2
 10
27.084799
 20
26.271315
 30
0.000000
  0
VERTEX
  8
LAYER-2
 10
25.889803
 20
26.271315
 30
0.000000
  0
VERTEX
  8
LAYER-2
 10
25.889803
 20
26.414142
 30
0.000000
  0
VERTEX
  8
LAYER-2
 10
27.084799
 20
26.414142
 30
0.000000
  0
SEQEND
  8
LAYER-2
  0
POLYLINE
  8
LAYER-2
 66
  1
 70
  1
 62
  7
  0
VERTEX
  8
LAYER-2
 10
25.889803
 20
29.920917
 30
0.000000
  0
VERTEX
  8
LAYER-2
 10
27.084799
 20
29.920917
 30
0.000000
  0
VERTEX
  8
LAYER-2
 10
27.084799
 20
28.915945
 30
0.000000
  0
VERTEX
  8
LAYER-2
 10
25.889803
 20
28.915945
 30
0.000000
  0
SEQEND
  8
LAYER-2
  0
POLYLINE
  8
LAYER-2
 66
  1
 70
  1
 62
  7
  0
VERTEX
  8
LAYER-2
 10
25.888585
 20
27.408907
 30
0.000000
  0
VERTEX
  8
LAYER-2
 10
27.084799
 20
27.408907
 30
0.000000
  0
VERTEX
  8
LAYER-2
 10
27.084799
 20
26.414142
 30
0.000000
  0
VERTEX
  8
LAYER-2
 10
25.888585
 20
26.414142
 30
0.000000
  0
SEQEND
  8
LAYER-2
  0
POLYLINE
  8
LAYER-2
 66
  1
 70
  1
 62
  7
  0
VERTEX
  8
LAYER-2
 10
27.114096
 20
28.816265
 30
0.000000
  0
VERTEX
  8
LAYER-2
 10
27.142940
 20
28.816265
 30
0.000000
  0
VERTEX
  8
LAYER-2
 10
27.142940
 20
27.498958
 30
0.000000
  0
VERTEX
  8
LAYER-2
 10
27.114096
 20
27.498958
 30
0.000000
  0
SEQEND
  8
LAYER-2
  0
POLYLINE
  8
LAYER-2
 66
  1
 70
  0
 62
  7
 10
3.045330
 20
25.665079
 30
0.000000
  0
VERTEX
  8
LAYER-2
 10
3.045330
 20
25.665079
 30
0.000000
  0
VERTEX
  8
LAYER-2
 10
2.190805
 20
25.665079
 30
0.000000
  0
SEQEND
  8
LAYER-2
  0
POLYLINE
  8
LAYER-2
 66
  1
 70
  0
 62
  7
 10
3.045330
 20
25.415079
 30
0.000000
  0
VERTEX
  8
LAYER-2
 10
3.045330
 20
25.415079
 30
0.000000
  0
VERTEX
  8
LAYER-2
 10
2.190805
 20
25.415079
 30
0.000000
  0
SEQEND
  8
LAYER-2
  0
POLYLINE
  8
LAYER-2
 66
  1
 70
  0
 62
  7
 10
2.464346
 20
26.063615
 30
0.000000
  0
VERTEX
  8
LAYER-2
 10
2.464346
 20
26.063615
 30
0.000000
  0
VERTEX
  8
LAYER-2
 10
2.436219
 20
26.063615
 30
0.000000
  0
SEQEND
  8
LAYER-2
  0
ARC
  8
LAYER-2
 62
  7
 10
2.436219
 20
25.969865
 30
0.000000
 40
0.093750
 50
90.000000
 51
180.000000
  0
POLYLINE
  8
LAYER-2
 66
  1
 70
  0
 62
  7
 10
2.342469
 20
25.969865
 30
0.000000
  0
VERTEX
  8
LAYER-2
 10
2.342469
 20
25.969865
 30
0.000000
  0
VERTEX
  8
LAYER-2
 10
2.342469
 20
25.151114
 30
0.000000
  0
SEQEND
  8
LAYER-2
  0
ARC
  8
LAYER-2
 62
  7
 10
2.436219
 20
25.151114
 30
0.000000
 40
0.093750
 50
180.000000
 51
270.000000
  0
POLYLINE
  8
LAYER-2
 66
  1
 70
  0
 62
  7
 10
2.464346
 20
25.057364
 30
0.000000
  0
VERTEX
  8
LAYER-2
 10
2.464346
 20
25.057364
 30
0.000000
  0
VERTEX
  8
LAYER-2
 10
2.436219
 20
25.057364
 30
0.000000
  0
SEQEND
  8
LAYER-2
  0
POLYLINE
  8
LAYER-2
 66
  1
 70
  0
 62
  7
 10
2.464346
 20
25.057364
 30
0.000000
  0
VERTEX
  8
LAYER-2
 10
2.464346
 20
25.057364
 30
0.000000
  0
VERTEX
  8
LAYER-2
 10
2.464346
 20
26.063615
 30
0.000000
  0
SEQEND
  8
LAYER-2
  0
POLYLINE
  8
LAYER-2
 66
  1
 70
  0
 62
  7
 10
2.654973
 20
26.063615
 30
0.000000
  0
VERTEX
  8
LAYER-2
 10
2.654973
 20
26.063615
 30
0.000000
  0
VERTEX
  8
LAYER-2
 10
2.683100
 20
26.063615
 30
0.000000
  0
SEQEND
  8
LAYER-2
  0
ARC
  8
LAYER-2
 62
  7
 10
2.683100
 20
25.969865
 30
0.000000
 40
0.093750
 50
0.000000
 51
90.000000
  0
POLYLINE
  8
LAYER-2
 66
  1
 70
  0
 62
  7
 10
2.776850
 20
25.969865
 30
0.000000
  0
VERTEX
  8
LAYER-2
 10
2.776850
 20
25.969865
 30
0.000000
  0
VERTEX
  8
LAYER-2
 10
2.776850
 20
25.151114
 30
0.000000
  0
SEQEND
  8
LAYER-2
  0
ARC
  8
LAYER-2
 62
  7
 10
2.683100
 20
25.151114
 30
0.000000
 40
0.093750
 50
270.000000
 51
0.000000
  0
POLYLINE
  8
LAYER-2
 66
  1
 70
  0
 62
  7
 10
2.654973
 20
25.057364
 30
0.000000
  0
VERTEX
  8
LAYER-2
 10
2.654973
 20
25.057364
 30
0.000000
  0
VERTEX
  8
LAYER-2
 10
2.683100
 20
25.057364
 30
0.000000
  0
SEQEND
  8
LAYER-2
  0
POLYLINE
  8
LAYER-2
 66
  1
 70
  0
 62
  7
 10
2.654973
 20
25.057364
 30
0.000000
  0
VERTEX
  8
LAYER-2
 10
2.654973
 20
25.057364
 30
0.000000
  0
VERTEX
  8
LAYER-2
 10
2.654973
 20
26.063615
 30
0.000000
  0
SEQEND
  8
LAYER-2
  0
POLYLINE
  8
LAYER-2
 66
  1
 70
  1
 62
  7
  0
VERTEX
  8
LAYER-2
 10
2.464346
 20
25.938615
 30
0.000000
  0
VERTEX
  8
LAYER-2
 10
2.654971
 20
25.938615
 30
0.000000
  0
VERTEX
  8
LAYER-2
 10
2.654971
 20
25.182364
 30
0.000000
  0
VERTEX
  8
LAYER-2
 10
2.464346
 20
25.182364
 30
0.000000
  0
SEQEND
  8
LAYER-2
  0
POLYLINE
  8
LAYER-2
 66
  1
 70
  1
 62
255
  0
VERTEX
  8
LAYER-2
 10
5.222828
 20
29.114077
 30
0.000000
  0
VERTEX
  8
LAYER-2
 10
25.876472
 20
29.114077
 30
0.000000
  0
VERTEX
  8
LAYER-2
 10
25.876472
 20
29.051842
 30
0.000000
  0
VERTEX
  8
LAYER-2
 10
5.222828
 20
29.051842
 30
0.000000
  0
SEQEND
  8
LAYER-2
  0
POLYLINE
  8
LAYER-2
 66
  1
 70
  1
 62
255
  0
VERTEX
  8
LAYER-2
 10
5.222828
 20
28.647996
 30
0.000000
  0
VERTEX
  8
LAYER-2
 10
25.876472
 20
28.647996
 30
0.000000
  0
VERTEX
  8
LAYER-2
 10
25.876472
 20
28.580684
 30
0.000000
  0
VERTEX
  8
LAYER-2
 10
5.222828
 20
28.580684
 30
0.000000
  0
SEQEND
  8
LAYER-2
  0
POLYLINE
  8
LAYER-2
 66
  1
 70
  1
 62
255
  0
VERTEX
  8
LAYER-2
 10
5.222828
 20
29.051842
 30
0.000000
  0
VERTEX
  8
LAYER-2
 10
25.876472
 20
29.051842
 30
0.000000
  0
VERTEX
  8
LAYER-2
 10
25.876472
 20
28.982131
 30
0.000000
  0
VERTEX
  8
LAYER-2
 10
5.222828
 20
28.982131
 30
0.000000
  0
SEQEND
  8
LAYER-2
  0
POLYLINE
  8
LAYER-2
 66
  1
 70
  1
 62
255
  0
VERTEX
  8
LAYER-2
 10
5.222828
 20
28.724919
 30
0.000000
  0
VERTEX
  8
LAYER-2
 10
25.876472
 20
28.724919
 30
0.000000
  0
VERTEX
  8
LAYER-2
 10
25.876472
 20
28.647996
 30
0.000000
  0
VERTEX
  8
LAYER-2
 10
5.222828
 20
28.647996
 30
0.000000
  0
SEQEND
  8
LAYER-2
  0
POLYLINE
  8
LAYER-2
 66
  1
 70
  1
 62
  7
  0
VERTEX
  8
LAYER-2
 10
2.653905
 20
29.944111
 30
0.000000
  0
VERTEX
  8
LAYER-2
 10
3.800059
 20
29.944111
 30
0.000000
  0
VERTEX
  8
LAYER-2
 10
3.800059
 20
26.513306
 30
0.000000
  0
VERTEX
  8
LAYER-2
 10
2.653905
 20
26.513306
 30
0.000000
  0
SEQEND
  8
LAYER-2
  0
POLYLINE
  8
LAYER-2
 66
  1
 70
  0
 62
  7
 10
3.800059
 20
29.717975
 30
0.000000
  0
VERTEX
  8
LAYER-2
 10
3.800059
 20
29.717975
 30
0.000000
  0
VERTEX
  8
LAYER-2
 10
2.651197
 20
29.717975
 30
0.000000
  0
SEQEND
  8
LAYER-2
  0
POLYLINE
  8
LAYER-2
 66
  1
 70
  0
 62
  7
 10
3.800059
 20
26.745981
 30
0.000000
  0
VERTEX
  8
LAYER-2
 10
3.800059
 20
26.745981
 30
0.000000
  0
VERTEX
  8
LAYER-2
 10
2.651197
 20
26.745981
 30
0.000000
  0
SEQEND
  8
LAYER-2
  0
POLYLINE
  8
LAYER-2
 66
  1
 70
  0
 62
  7
 10
3.224205
 20
29.942228
 30
0.000000
  0
VERTEX
  8
LAYER-2
 10
3.224205
 20
29.942228
 30
0.000000
  0
VERTEX
  8
LAYER-2
 10
3.224205
 20
26.513371
 30
0.000000
  0
SEQEND
  8
LAYER-2
  0
POLYLINE
  8
LAYER-2
 66
  1
 70
  1
 62
  7
  0
VERTEX
  8
LAYER-2
 10
3.600800
 20
29.534105
 30
0.000000
  0
VERTEX
  8
LAYER-2
 10
3.801009
 20
29.534105
 30
0.000000
  0
VERTEX
  8
LAYER-2
 10
3.801009
 20
29.301723
 30
0.000000
  0
VERTEX
  8
LAYER-2
 10
3.600800
 20
29.301723
 30
0.000000
  0
SEQEND
  8
LAYER-2
  0
POLYLINE
  8
LAYER-2
 66
  1
 70
  1
 62
  7
  0
VERTEX
  8
LAYER-2
 10
3.600800
 20
27.155198
 30
0.000000
  0
VERTEX
  8
LAYER-2
 10
3.801009
 20
27.155198
 30
0.000000
  0
VERTEX
  8
LAYER-2
 10
3.801009
 20
26.922816
 30
0.000000
  0
VERTEX
  8
LAYER-2
 10
3.600800
 20
26.922816
 30
0.000000
  0
SEQEND
  8
LAYER-2
  0
POLYLINE
  8
LAYER-2
 66
  1
 70
  0
 62
  7
 10
3.801009
 20
27.156705
 30
0.000000
  0
VERTEX
  8
LAYER-2
 10
3.801009
 20
27.156705
 30
0.000000
  0
VERTEX
  8
LAYER-2
 10
2.653807
 20
27.156705
 30
0.000000
  0
SEQEND
  8
LAYER-2
  0
POLYLINE
  8
LAYER-2
 66
  1
 70
  0
 62
  7
 10
3.801009
 20
29.301723
 30
0.000000
  0
VERTEX
  8
LAYER-2
 10
3.801009
 20
29.301723
 30
0.000000
  0
VERTEX
  8
LAYER-2
 10
2.653867
 20
29.301723
 30
0.000000
  0
SEQEND
  8
LAYER-2
  0
TEXT
  8
LAYER-2
 62
  7
 10
0.115385
 20
20.599924
 30
0.000000
 40
0.663462
  1
DÄtails moteur:
 72
  5
 11
6.769231
 21
20.599924
 31
0.000000
  0
TEXT
  8
LAYER-2
 62
  7
 10
0.115385
 20
19.176847
 30
0.000000
 40
0.576923
  1
Couple de 100 Nm
 72
  5
 11
6.692308
 21
19.176847
 31
0.000000
  0
TEXT
  8
LAYER-2
 62
  7
 10
0.115385
 20
17.869155
 30
0.000000
 40
0.576923
  1
120 V Ac, 60 Hz, 2.94 A
 72
  5
 11
8.576923
 21
17.869155
 31
0.000000
  0
TEXT
  8
LAYER-2
 62
  7
 10
0.115385
 20
16.561462
 30
0.000000
 40
0.576923
  1
Protection thermique (IP44):  durÄe d'utilisation 4 minutes
 72
  5
 11
19.961539
 21
16.561462
 31
0.000000
  0
TEXT
  8
LAYER-2
 62
  7
 10
0.115385
 20
15.253770
 30
0.000000
 40
0.576923
  1
Ajustement mÄcanique de fin de course
 72
  5
 11
13.846154
 21
15.253770
 31
0.000000
  0
TEXT
  8
LAYER-2
 62
  7
 10
0.115385
 20
13.946078
 30
0.000000
 40
0.576923
  1
Interrupteur de fin de course:  22 tours maximum
 72
  5
 11
17.153846
 21
13.946078
 31
0.000000
  0
TEXT
  8
LAYER-2
 62
  7
 10
0.115385
 20
12.638385
 30
0.000000
 40
0.576923
  1
Ratio manivelle:  1:30
 72
  5
 11
7.692308
 21
12.638385
 31
0.000000
  0
TEXT
  8
LAYER-2
 62
  7
 10
0.115385
 20
11.330693
 30
0.000000
 40
0.576923
  1
Vitesse:  11 rpm
 72
  5
 11
5.923077
 21
11.330693
 31
0.000000
  0
TEXT
  8
LAYER-2
 62
  7
 10
3.884616
 20
31.484539
 30
0.000000
 40
0.490385
  1
TÉte du
 72
  5
 11
6.153846
 21
31.484539
 31
0.000000
  0
TEXT
  8
LAYER-2
 62
  7
 10
3.884616
 20
30.715309
 30
0.000000
 40
0.490385
  1
moteur
 72
  5
 11
6.000000
 21
30.715309
 31
0.000000
  0
TEXT
  8
LAYER-2
 62
  7
 10
20.423077
 20
25.215309
 30
0.000000
 40
0.490385
  1
Entraönement
 72
  5
 11
24.346154
 21
25.215309
 31
0.000000
  0
TEXT
  8
LAYER-2
 62
  7
 10
6.653846
 20
25.215309
 30
0.000000
 40
0.490385
  1
Couronne
 72
  5
 11
9.615385
 21
25.215309
 31
0.000000
  0
TEXT
  8
LAYER-2
 62
  7
 10
22.653846
 20
31.484539
 30
0.000000
 40
0.490385
  1
Baril 4" (102mm) dia
 72
  5
 11
28.615385
 21
31.484539
 31
0.000000
  0
TEXT
  8
LAYER-2
 62
  7
 10
3.846154
 20
23.984539
 30
0.000000
 40
0.490385
  1
Passe-fil en
 72
  5
 11
7.346154
 21
23.984539
 31
0.000000
  0
TEXT
  8
LAYER-2
 62
  7
 10
3.846154
 20
23.215309
 30
0.000000
 40
0.490385
  1
caoutchouc
 72
  5
 11
7.307693
 21
23.215309
 31
0.000000
  0
TEXT
  8
LAYER-2
 62
  7
 10
3.846154
 20
33.599924
 30
0.000000
 40
0.490385
  1
Plaque d'extrÄmitÄ
 72
  5
 11
9.115385
 21
33.599924
 31
0.000000
  0
TEXT
  8
LAYER-2
 62
  7
 10
3.846154
 20
32.830693
 30
0.000000
 40
0.490385
  1
3/16" (5mm)
 72
  5
 11
7.500000
 21
32.830693
 31
0.000000
  0
POLYLINE
  8
LAYER-2
 66
  1
 70
  0
 62
  7
 10
3.655375
 20
31.123009
 30
0.000000
  0
VERTEX
  8
LAYER-2
 10
3.655375
 20
31.123009
 30
0.000000
  0
VERTEX
  8
LAYER-2
 10
3.139945
 20
29.635357
 30
0.000000
  0
SEQEND
  8
LAYER-2
  0
POLYLINE
  8
LAYER-2
 66
  1
 70
  1
 62
  7
  0
VERTEX
  8
LAYER-2
 10
3.133501
 20
29.616760
 30
0.000000
  0
VERTEX
  8
LAYER-2
 10
3.087431
 20
29.836243
 30
0.000000
  0
VERTEX
  8
LAYER-2
 10
3.196457
 20
29.798471
 30
0.000000
  0
VERTEX
  8
LAYER-2
 10
3.305484
 20
29.760695
 30
0.000000
  0
VERTEX
  8
LAYER-2
 10
3.133501
 20
29.616760
 30
0.000000
  0
SEQEND
  8
LAYER-2
  0
POLYLINE
  8
LAYER-2
 66
  1
 70
  0
 62
  7
 10
27.670753
 20
31.176856
 30
0.000000
  0
VERTEX
  8
LAYER-2
 10
27.670753
 20
31.176856
 30
0.000000
  0
VERTEX
  8
LAYER-2
 10
28.656832
 20
30.190772
 30
0.000000
  0
SEQEND
  8
LAYER-2
  0
POLYLINE
  8
LAYER-2
 66
  1
 70
  1
 62
  7
  0
VERTEX
  8
LAYER-2
 10
28.670753
 20
30.176854
 30
0.000000
  0
VERTEX
  8
LAYER-2
 10
28.453181
 20
30.231246
 30
0.000000
  0
VERTEX
  8
LAYER-2
 10
28.534769
 20
30.312836
 30
0.000000
  0
VERTEX
  8
LAYER-2
 10
28.616356
 20
30.394426
 30
0.000000
  0
VERTEX
  8
LAYER-2
 10
28.670753
 20
30.176854
 30
0.000000
  0
SEQEND
  8
LAYER-2
  0
POLYLINE
  8
LAYER-2
 66
  1
 70
  0
 62
  7
 10
6.405367
 20
25.422999
 30
0.000000
  0
VERTEX
  8
LAYER-2
 10
6.405367
 20
25.422999
 30
0.000000
  0
VERTEX
  8
LAYER-2
 10
5.268139
 20
26.758024
 30
0.000000
  0
SEQEND
  8
LAYER-2
  0
POLYLINE
  8
LAYER-2
 66
  1
 70
  1
 62
  7
  0
VERTEX
  8
LAYER-2
 10
5.255373
 20
26.773008
 30
0.000000
  0
VERTEX
  8
LAYER-2
 10
5.467914
 20
26.701435
 30
0.000000
  0
VERTEX
  8
LAYER-2
 10
5.380078
 20
26.626615
 30
0.000000
  0
VERTEX
  8
LAYER-2
 10
5.292242
 20
26.551791
 30
0.000000
  0
VERTEX
  8
LAYER-2
 10
5.255373
 20
26.773008
 30
0.000000
  0
SEQEND
  8
LAYER-2
  0
POLYLINE
  8
LAYER-2
 66
  1
 70
  0
 62
  7
 10
3.812501
 20
23.863380
 30
0.000000
  0
VERTEX
  8
LAYER-2
 10
3.812501
 20
23.863380
 30
0.000000
  0
VERTEX
  8
LAYER-2
 10
2.848518
 20
25.290818
 30
0.000000
  0
SEQEND
  8
LAYER-2
  0
POLYLINE
  8
LAYER-2
 66
  1
 70
  1
 62
  7
  0
VERTEX
  8
LAYER-2
 10
2.837501
 20
25.307131
 30
0.000000
  0
VERTEX
  8
LAYER-2
 10
3.040749
 20
25.212337
 30
0.000000
  0
VERTEX
  8
LAYER-2
 10
2.945127
 20
25.147761
 30
0.000000
  0
VERTEX
  8
LAYER-2
 10
2.849505
 20
25.083186
 30
0.000000
  0
VERTEX
  8
LAYER-2
 10
2.837501
 20
25.307131
 30
0.000000
  0
SEQEND
  8
LAYER-2
  0
POLYLINE
  8
LAYER-2
 66
  1
 70
  0
 62
  7
 10
3.730770
 20
33.234549
 30
0.000000
  0
VERTEX
  8
LAYER-2
 10
3.730770
 20
33.234549
 30
0.000000
  0
VERTEX
  8
LAYER-2
 10
2.654370
 20
32.228757
 30
0.000000
  0
SEQEND
  8
LAYER-2
  0
POLYLINE
  8
LAYER-2
 66
  1
 70
  1
 62
  7
  0
VERTEX
  8
LAYER-2
 10
2.639986
 20
32.215318
 30
0.000000
  0
VERTEX
  8
LAYER-2
 10
2.701723
 20
32.430922
 30
0.000000
  0
VERTEX
  8
LAYER-2
 10
2.780500
 20
32.346614
 30
0.000000
  0
VERTEX
  8
LAYER-2
 10
2.859276
 20
32.262306
 30
0.000000
  0
VERTEX
  8
LAYER-2
 10
2.639986
 20
32.215318
 30
0.000000
  0
SEQEND
  8
LAYER-2
  0
POLYLINE
  8
LAYER-2
 66
  1
 70
  0
 62
  7
 10
24.709214
 20
25.369155
 30
0.000000
  0
VERTEX
  8
LAYER-2
 10
24.709214
 20
25.369155
 30
0.000000
  0
VERTEX
  8
LAYER-2
 10
25.888043
 20
26.624042
 30
0.000000
  0
SEQEND
  8
LAYER-2
  0
POLYLINE
  8
LAYER-2
 66
  1
 70
  1
 62
  7
  0
VERTEX
  8
LAYER-2
 10
25.901522
 20
26.638390
 30
0.000000
  0
VERTEX
  8
LAYER-2
 10
25.853952
 20
26.419225
 30
0.000000
  0
VERTEX
  8
LAYER-2
 10
25.769855
 20
26.498225
 30
0.000000
  0
VERTEX
  8
LAYER-2
 10
25.685758
 20
26.577226
 30
0.000000
  0
VERTEX
  8
LAYER-2
 10
25.901522
 20
26.638390
 30
0.000000
  0
SEQEND
  8
LAYER-2
  0
ARC
  8
LAYER-2
 62
  7
 10
26.220541
 20
29.329942
 30
0.000000
 40
3.805654
 50
353.482910
 51
13.028381
  0
ARC
  8
LAYER-2
 62
  7
 10
21.458834
 20
30.057235
 30
0.000000
 40
8.621060
 50
343.905182
 51
352.272278
  0
ARC
  8
LAYER-2
 62
  7
 10
32.892118
 20
26.692425
 30
0.000000
 40
3.297724
 50
162.791931
 51
182.596436
  0
ARC
  8
LAYER-2
 62
  7
 10
29.907074
 20
26.578961
 30
0.000000
 40
0.311491
 50
186.771973
 51
273.894714
  0
ARC
  8
LAYER-2
 62
  7
 10
29.813279
 20
26.570101
 30
0.000000
 40
0.323053
 50
290.844269
 51
358.467255
  0
ARC
  8
LAYER-2
 62
  7
 10
26.229823
 20
26.767278
 30
0.000000
 40
3.911811
 50
356.984070
 51
20.819244
  0
POLYLINE
  8
LAYER-2
 66
  1
 70
  1
 62
  7
  0
VERTEX
  8
LAYER-2
 10
3.930367
 20
26.268193
 30
0.000000
  0
VERTEX
  8
LAYER-2
 10
29.942648
 20
26.268193
 30
0.000000
  0
VERTEX
  8
LAYER-2
 10
29.942648
 20
26.151006
 30
0.000000
  0
VERTEX
  8
LAYER-2
 10
3.930367
 20
26.151006
 30
0.000000
  0
SEQEND
  8
LAYER-2
  0
POLYLINE
  8
LAYER-2
 66
  1
 70
  1
 62
  7
  0
VERTEX
  8
LAYER-2
 10
3.930367
 20
30.186465
 30
0.000000
  0
VERTEX
  8
LAYER-2
 10
29.942648
 20
30.186465
 30
0.000000
  0
VERTEX
  8
LAYER-2
 10
29.942648
 20
30.069277
 30
0.000000
  0
VERTEX
  8
LAYER-2
 10
3.930367
 20
30.069277
 30
0.000000
  0
SEQEND
  8
LAYER-2
  0
TEXT
  8
LAYER-2
 62
  7
 10
20.692308
 20
5.253770
 30
0.000000
 40
0.490385
  1
Tourner la poignÄe de
 72
  5
 11
27.038462
 21
5.253770
 31
0.000000
  0
TEXT
  8
LAYER-2
 62
  7
 10
20.692308
 20
4.484539
 30
0.000000
 40
0.490385
  1
la manivelle pour opÄrer
 72
  5
 11
27.576923
 21
4.484539
 31
0.000000
  0
TEXT
  8
LAYER-2
 62
  7
 10
20.692308
 20
3.715309
 30
0.000000
 40
0.490385
  1
la cloison roulante
 72
  5
 11
25.923077
 21
3.715309
 31
0.000000
  0
TEXT
  8
LAYER-2
 62
  7
 10
24.115385
 20
8.099924
 30
0.000000
 40
0.490385
  1
InsÄrer l'oeillet
 72
  5
 11
28.307693
 21
8.099924
 31
0.000000
  0
TEXT
  8
LAYER-2
 62
  7
 10
24.115385
 20
7.330693
 30
0.000000
 40
0.490385
  1
et fixer au moteur
 72
  5
 11
29.192308
 21
7.330693
 31
0.000000
  0
TEXT
  8
LAYER-2
 62
  7
 10
27.730770
 20
20.484539
 30
0.000000
 40
0.490385
  1
TÉte du
 72
  5
 11
30.000000
 21
20.484539
 31
0.000000
  0
TEXT
  8
LAYER-2
 62
  7
 10
27.730770
 20
19.715309
 30
0.000000
 40
0.490385
  1
moteur
 72
  5
 11
29.846154
 21
19.715309
 31
0.000000
  0
POLYLINE
  8
LAYER-2
 66
  1
 70
  0
 62
  7
 10
28.102323
 20
17.007242
 30
0.000000
  0
VERTEX
  8
LAYER-2
 10
28.102323
 20
17.007242
 30
0.000000
  0
VERTEX
  8
LAYER-2
 10
28.067075
 20
16.971992
 30
0.000000
  0
SEQEND
  8
LAYER-2
  0
POLYLINE
  8
LAYER-2
 66
  1
 70
  0
 62
  7
 10
28.272691
 20
17.007242
 30
0.000000
  0
VERTEX
  8
LAYER-2
 10
28.272691
 20
17.007242
 30
0.000000
  0
VERTEX
  8
LAYER-2
 10
28.102323
 20
17.007242
 30
0.000000
  0
SEQEND
  8
LAYER-2
  0
POLYLINE
  8
LAYER-2
 66
  1
 70
  0
 62
  7
 10
28.272691
 20
17.007242
 30
0.000000
  0
VERTEX
  8
LAYER-2
 10
28.272691
 20
17.007242
 30
0.000000
  0
VERTEX
  8
LAYER-2
 10
28.320571
 20
17.029858
 30
0.000000
  0
VERTEX
  8
LAYER-2
 10
28.343187
 20
17.077735
 30
0.000000
  0
SEQEND
  8
LAYER-2
  0
POLYLINE
  8
LAYER-2
 66
  1
 70
  0
 62
  7
 10
28.343189
 20
17.077735
 30
0.000000
  0
VERTEX
  8
LAYER-2
 10
28.343189
 20
17.077735
 30
0.000000
  0
VERTEX
  8
LAYER-2
 10
28.343189
 20
19.174981
 30
0.000000
  0
SEQEND
  8
LAYER-2
  0
POLYLINE
  8
LAYER-2
 66
  1
 70
  0
 62
  7
 10
28.343187
 20
19.174981
 30
0.000000
  0
VERTEX
  8
LAYER-2
 10
28.343187
 20
19.174981
 30
0.000000
  0
VERTEX
  8
LAYER-2
 10
28.320571
 20
19.226797
 30
0.000000
  0
VERTEX
  8
LAYER-2
 10
28.272691
 20
19.245476
 30
0.000000
  0
SEQEND
  8
LAYER-2
  0
POLYLINE
  8
LAYER-2
 66
  1
 70
  0
 62
  7
 10
28.272691
 20
19.245479
 30
0.000000
  0
VERTEX
  8
LAYER-2
 10
28.272691
 20
19.245479
 30
0.000000
  0
VERTEX
  8
LAYER-2
 10
28.102323
 20
19.245479
 30
0.000000
  0
SEQEND
  8
LAYER-2
  0
POLYLINE
  8
LAYER-2
 66
  1
 70
  0
 62
  7
 10
28.067075
 20
19.280727
 30
0.000000
  0
VERTEX
  8
LAYER-2
 10
28.067075
 20
19.280727
 30
0.000000
  0
VERTEX
  8
LAYER-2
 10
28.102323
 20
19.245479
 30
0.000000
  0
SEQEND
  8
LAYER-2
  0
POLYLINE
  8
LAYER-2
 66
  1
 70
  0
 62
  7
 10
28.067075
 20
19.380596
 30
0.000000
  0
VERTEX
  8
LAYER-2
 10
28.067075
 20
19.380596
 30
0.000000
  0
VERTEX
  8
LAYER-2
 10
28.067075
 20
19.280727
 30
0.000000
  0
SEQEND
  8
LAYER-2
  0
POLYLINE
  8
LAYER-2
 66
  1
 70
  0
 62
  7
 10
28.067075
 20
19.380596
 30
0.000000
  0
VERTEX
  8
LAYER-2
 10
28.067075
 20
19.380596
 30
0.000000
  0
VERTEX
  8
LAYER-2
 10
28.031827
 20
19.415844
 30
0.000000
  0
SEQEND
  8
LAYER-2
  0
POLYLINE
  8
LAYER-2
 66
  1
 70
  0
 62
  7
 10
28.031827
 20
19.415842
 30
0.000000
  0
VERTEX
  8
LAYER-2
 10
28.031827
 20
19.415842
 30
0.000000
  0
VERTEX
  8
LAYER-2
 10
26.304676
 20
19.415842
 30
0.000000
  0
SEQEND
  8
LAYER-2
  0
POLYLINE
  8
LAYER-2
 66
  1
 70
  0
 62
  7
 10
26.304676
 20
19.415844
 30
0.000000
  0
VERTEX
  8
LAYER-2
 10
26.304676
 20
19.415844
 30
0.000000
  0
VERTEX
  8
LAYER-2
 10
26.269428
 20
19.380596
 30
0.000000
  0
SEQEND
  8
LAYER-2
  0
POLYLINE
  8
LAYER-2
 66
  1
 70
  0
 62
  7
 10
26.269433
 20
19.380596
 30
0.000000
  0
VERTEX
  8
LAYER-2
 10
26.269433
 20
19.380596
 30
0.000000
  0
VERTEX
  8
LAYER-2
 10
26.269433
 20
19.280727
 30
0.000000
  0
SEQEND
  8
LAYER-2
  0
POLYLINE
  8
LAYER-2
 66
  1
 70
  0
 62
  7
 10
26.234183
 20
19.245479
 30
0.000000
  0
VERTEX
  8
LAYER-2
 10
26.234183
 20
19.245479
 30
0.000000
  0
VERTEX
  8
LAYER-2
 10
26.269433
 20
19.280727
 30
0.000000
  0
SEQEND
  8
LAYER-2
  0
POLYLINE
  8
LAYER-2
 66
  1
 70
  0
 62
  7
 10
26.169560
 20
19.245479
 30
0.000000
  0
VERTEX
  8
LAYER-2
 10
26.169560
 20
19.245479
 30
0.000000
  0
VERTEX
  8
LAYER-2
 10
26.234183
 20
19.245479
 30
0.000000
  0
SEQEND
  8
LAYER-2
  0
POLYLINE
  8
LAYER-2
 66
  1
 70
  0
 62
  7
 10
26.169560
 20
19.245476
 30
0.000000
  0
VERTEX
  8
LAYER-2
 10
26.169560
 20
19.245476
 30
0.000000
  0
VERTEX
  8
LAYER-2
 10
26.117746
 20
19.226797
 30
0.000000
  0
VERTEX
  8
LAYER-2
 10
26.099065
 20
19.174981
 30
0.000000
  0
SEQEND
  8
LAYER-2
  0
POLYLINE
  8
LAYER-2
 66
  1
 70
  0
 62
  7
 10
26.099072
 20
19.004618
 30
0.000000
  0
VERTEX
  8
LAYER-2
 10
26.099072
 20
19.004618
 30
0.000000
  0
VERTEX
  8
LAYER-2
 10
26.099072
 20
19.174981
 30
0.000000
  0
SEQEND
  8
LAYER-2
  0
POLYLINE
  8
LAYER-2
 66
  1
 70
  0
 62
  7
 10
26.028579
 20
18.934122
 30
0.000000
  0
VERTEX
  8
LAYER-2
 10
26.028579
 20
18.934122
 30
0.000000
  0
VERTEX
  8
LAYER-2
 10
26.076456
 20
18.956738
 30
0.000000
  0
VERTEX
  8
LAYER-2
 10
26.099074
 20
19.004618
 30
0.000000
  0
SEQEND
  8
LAYER-2
  0
POLYLINE
  8
LAYER-2
 66
  1
 70
  0
 62
  7
 10
26.028579
 20
18.934122
 30
0.000000
  0
VERTEX
  8
LAYER-2
 10
26.028579
 20
18.934122
 30
0.000000
  0
VERTEX
  8
LAYER-2
 10
25.646731
 20
18.934122
 30
0.000000
  0
SEQEND
  8
LAYER-2
  0
POLYLINE
  8
LAYER-2
 66
  1
 70
  0
 62
  7
 10
25.646731
 20
18.934122
 30
0.000000
  0
VERTEX
  8
LAYER-2
 10
25.646731
 20
18.934122
 30
0.000000
  0
VERTEX
  8
LAYER-2
 10
25.599800
 20
18.927145
 30
0.000000
  0
VERTEX
  8
LAYER-2
 10
25.561683
 20
18.901677
 30
0.000000
  0
VERTEX
  8
LAYER-2
 10
25.536215
 20
18.863561
 30
0.000000
  0
VERTEX
  8
LAYER-2
 10
25.529238
 20
18.816629
 30
0.000000
  0
SEQEND
  8
LAYER-2
  0
POLYLINE
  8
LAYER-2
 66
  1
 70
  0
 62
  7
 10
25.529243
 20
17.436089
 30
0.000000
  0
VERTEX
  8
LAYER-2
 10
25.529243
 20
17.436089
 30
0.000000
  0
VERTEX
  8
LAYER-2
 10
25.529243
 20
18.816629
 30
0.000000
  0
SEQEND
  8
LAYER-2
  0
POLYLINE
  8
LAYER-2
 66
  1
 70
  0
 62
  7
 10
25.529238
 20
17.436089
 30
0.000000
  0
VERTEX
  8
LAYER-2
 10
25.529238
 20
17.436089
 30
0.000000
  0
VERTEX
  8
LAYER-2
 10
25.536215
 20
17.393095
 30
0.000000
  0
VERTEX
  8
LAYER-2
 10
25.561683
 20
17.354978
 30
0.000000
  0
VERTEX
  8
LAYER-2
 10
25.599800
 20
17.329508
 30
0.000000
  0
VERTEX
  8
LAYER-2
 10
25.646731
 20
17.318596
 30
0.000000
  0
SEQEND
  8
LAYER-2
  0
POLYLINE
  8
LAYER-2
 66
  1
 70
  0
 62
  7
 10
26.028579
 20
17.318596
 30
0.000000
  0
VERTEX
  8
LAYER-2
 10
26.028579
 20
17.318596
 30
0.000000
  0
VERTEX
  8
LAYER-2
 10
25.646731
 20
17.318596
 30
0.000000
  0
SEQEND
  8
LAYER-2
  0
POLYLINE
  8
LAYER-2
 66
  1
 70
  0
 62
  7
 10
26.099074
 20
17.248101
 30
0.000000
  0
VERTEX
  8
LAYER-2
 10
26.099074
 20
17.248101
 30
0.000000
  0
VERTEX
  8
LAYER-2
 10
26.076456
 20
17.299915
 30
0.000000
  0
VERTEX
  8
LAYER-2
 10
26.028579
 20
17.318596
 30
0.000000
  0
SEQEND
  8
LAYER-2
  0
POLYLINE
  8
LAYER-2
 66
  1
 70
  0
 62
  7
 10
26.099072
 20
17.248101
 30
0.000000
  0
VERTEX
  8
LAYER-2
 10
26.099072
 20
17.248101
 30
0.000000
  0
VERTEX
  8
LAYER-2
 10
26.099072
 20
17.077735
 30
0.000000
  0
SEQEND
  8
LAYER-2
  0
POLYLINE
  8
LAYER-2
 66
  1
 70
  0
 62
  7
 10
26.099065
 20
17.077735
 30
0.000000
  0
VERTEX
  8
LAYER-2
 10
26.099065
 20
17.077735
 30
0.000000
  0
VERTEX
  8
LAYER-2
 10
26.117746
 20
17.029858
 30
0.000000
  0
VERTEX
  8
LAYER-2
 10
26.169560
 20
17.007242
 30
0.000000
  0
SEQEND
  8
LAYER-2
  0
POLYLINE
  8
LAYER-2
 66
  1
 70
  0
 62
  7
 10
26.169560
 20
17.007242
 30
0.000000
  0
VERTEX
  8
LAYER-2
 10
26.169560
 20
17.007242
 30
0.000000
  0
VERTEX
  8
LAYER-2
 10
26.234183
 20
17.007242
 30
0.000000
  0
SEQEND
  8
LAYER-2
  0
POLYLINE
  8
LAYER-2
 66
  1
 70
  0
 62
  7
 10
26.269433
 20
16.971992
 30
0.000000
  0
VERTEX
  8
LAYER-2
 10
26.269433
 20
16.971992
 30
0.000000
  0
VERTEX
  8
LAYER-2
 10
26.234183
 20
17.007242
 30
0.000000
  0
SEQEND
  8
LAYER-2
  0
POLYLINE
  8
LAYER-2
 66
  1
 70
  0
 62
  7
 10
26.269433
 20
16.971992
 30
0.000000
  0
VERTEX
  8
LAYER-2
 10
26.269433
 20
16.971992
 30
0.000000
  0
VERTEX
  8
LAYER-2
 10
26.269433
 20
16.872124
 30
0.000000
  0
SEQEND
  8
LAYER-2
  0
POLYLINE
  8
LAYER-2
 66
  1
 70
  0
 62
  7
 10
26.269428
 20
16.872124
 30
0.000000
  0
VERTEX
  8
LAYER-2
 10
26.269428
 20
16.872124
 30
0.000000
  0
VERTEX
  8
LAYER-2
 10
26.304676
 20
16.836874
 30
0.000000
  0
SEQEND
  8
LAYER-2
  0
POLYLINE
  8
LAYER-2
 66
  1
 70
  0
 62
  7
 10
28.031827
 20
16.836877
 30
0.000000
  0
VERTEX
  8
LAYER-2
 10
28.031827
 20
16.836877
 30
0.000000
  0
VERTEX
  8
LAYER-2
 10
26.304676
 20
16.836877
 30
0.000000
  0
SEQEND
  8
LAYER-2
  0
POLYLINE
  8
LAYER-2
 66
  1
 70
  0
 62
  7
 10
28.031827
 20
16.836874
 30
0.000000
  0
VERTEX
  8
LAYER-2
 10
28.031827
 20
16.836874
 30
0.000000
  0
VERTEX
  8
LAYER-2
 10
28.067075
 20
16.872124
 30
0.000000
  0
SEQEND
  8
LAYER-2
  0
POLYLINE
  8
LAYER-2
 66
  1
 70
  0
 62
  7
 10
28.067075
 20
16.971992
 30
0.000000
  0
VERTEX
  8
LAYER-2
 10
28.067075
 20
16.971992
 30
0.000000
  0
VERTEX
  8
LAYER-2
 10
28.067075
 20
16.872124
 30
0.000000
  0
SEQEND
  8
LAYER-2
  0
CIRCLE
  8
LAYER-2
 62
  7
 10
27.145409
 20
18.099922
 30
0.000000
 40
0.182767
  0
CIRCLE
  8
LAYER-2
 62
  7
 10
27.145409
 20
18.099922
 30
0.000000
 40
0.300260
  0
CIRCLE
  8
LAYER-2
 62
  7
 10
27.680652
 20
18.099924
 30
0.000000
 40
0.065274
  0
CIRCLE
  8
LAYER-2
 62
  7
 10
26.624817
 20
18.099922
 30
0.000000
 40
0.066881
  0
CIRCLE
  8
LAYER-2
 62
  7
 10
28.080132
 20
19.008533
 30
0.000000
 40
0.096605
  0
CIRCLE
  8
LAYER-2
 62
  7
 10
28.205456
 20
18.739605
 30
0.000000
 40
0.120359
  0
CIRCLE
  8
LAYER-2
 62
  7
 10
28.080132
 20
17.191064
 30
0.000000
 40
0.096605
  0
CIRCLE
  8
LAYER-2
 62
  7
 10
28.205456
 20
17.459989
 30
0.000000
 40
0.120359
  0
CIRCLE
  8
LAYER-2
 62
  7
 10
26.226347
 20
19.008533
 30
0.000000
 40
0.096605
  0
CIRCLE
  8
LAYER-2
 62
  7
 10
25.680671
 20
18.739605
 30
0.000000
 40
0.120359
  0
CIRCLE
  8
LAYER-2
 62
  7
 10
26.226347
 20
17.191064
 30
0.000000
 40
0.096605
  0
CIRCLE
  8
LAYER-2
 62
  7
 10
25.680671
 20
17.459989
 30
0.000000
 40
0.120359
  0
POLYLINE
  8
LAYER-2
 66
  1
 70
  1
 62
  7
 10
26.212710
 20
19.066270
 30
0.000000
  0
VERTEX
  8
LAYER-2
 10
26.212710
 20
19.066270
 30
0.000000
  0
VERTEX
  8
LAYER-2
 10
26.239155
 20
19.066270
 30
0.000000
  0
VERTEX
  8
LAYER-2
 10
26.239155
 20
19.019395
 30
0.000000
  0
VERTEX
  8
LAYER-2
 10
26.286030
 20
19.019395
 30
0.000000
  0
VERTEX
  8
LAYER-2
 10
26.286030
 20
18.992950
 30
0.000000
  0
VERTEX
  8
LAYER-2
 10
26.239155
 20
18.992950
 30
0.000000
  0
VERTEX
  8
LAYER-2
 10
26.239155
 20
18.946078
 30
0.000000
  0
VERTEX
  8
LAYER-2
 10
26.212710
 20
18.946078
 30
0.000000
  0
VERTEX
  8
LAYER-2
 10
26.212710
 20
18.992950
 30
0.000000
  0
VERTEX
  8
LAYER-2
 10
26.165840
 20
18.992950
 30
0.000000
  0
VERTEX
  8
LAYER-2
 10
26.165840
 20
19.019395
 30
0.000000
  0
VERTEX
  8
LAYER-2
 10
26.212710
 20
19.019395
 30
0.000000
  0
SEQEND
  8
LAYER-2
  0
POLYLINE
  8
LAYER-2
 66
  1
 70
  1
 62
  7
 10
28.065054
 20
19.068667
 30
0.000000
  0
VERTEX
  8
LAYER-2
 10
28.065054
 20
19.068667
 30
0.000000
  0
VERTEX
  8
LAYER-2
 10
28.091496
 20
19.068667
 30
0.000000
  0
VERTEX
  8
LAYER-2
 10
28.091496
 20
19.021792
 30
0.000000
  0
VERTEX
  8
LAYER-2
 10
28.138371
 20
19.021792
 30
0.000000
  0
VERTEX
  8
LAYER-2
 10
28.138371
 20
18.995347
 30
0.000000
  0
VERTEX
  8
LAYER-2
 10
28.091496
 20
18.995347
 30
0.000000
  0
VERTEX
  8
LAYER-2
 10
28.091496
 20
18.948475
 30
0.000000
  0
VERTEX
  8
LAYER-2
 10
28.065054
 20
18.948475
 30
0.000000
  0
VERTEX
  8
LAYER-2
 10
28.065054
 20
18.995347
 30
0.000000
  0
VERTEX
  8
LAYER-2
 10
28.018174
 20
18.995347
 30
0.000000
  0
VERTEX
  8
LAYER-2
 10
28.018174
 20
19.021792
 30
0.000000
  0
VERTEX
  8
LAYER-2
 10
28.065054
 20
19.021792
 30
0.000000
  0
SEQEND
  8
LAYER-2
  0
POLYLINE
  8
LAYER-2
 66
  1
 70
  1
 62
  7
 10
28.065054
 20
17.247242
 30
0.000000
  0
VERTEX
  8
LAYER-2
 10
28.065054
 20
17.247242
 30
0.000000
  0
VERTEX
  8
LAYER-2
 10
28.091496
 20
17.247242
 30
0.000000
  0
VERTEX
  8
LAYER-2
 10
28.091496
 20
17.200367
 30
0.000000
  0
VERTEX
  8
LAYER-2
 10
28.138371
 20
17.200367
 30
0.000000
  0
VERTEX
  8
LAYER-2
 10
28.138371
 20
17.173922
 30
0.000000
  0
VERTEX
  8
LAYER-2
 10
28.091496
 20
17.173922
 30
0.000000
  0
VERTEX
  8
LAYER-2
 10
28.091496
 20
17.127049
 30
0.000000
  0
VERTEX
  8
LAYER-2
 10
28.065054
 20
17.127049
 30
0.000000
  0
VERTEX
  8
LAYER-2
 10
28.065054
 20
17.173922
 30
0.000000
  0
VERTEX
  8
LAYER-2
 10
28.018179
 20
17.173922
 30
0.000000
  0
VERTEX
  8
LAYER-2
 10
28.018179
 20
17.200367
 30
0.000000
  0
VERTEX
  8
LAYER-2
 10
28.065054
 20
17.200367
 30
0.000000
  0
SEQEND
  8
LAYER-2
  0
POLYLINE
  8
LAYER-2
 66
  1
 70
  1
 62
  7
 10
26.208491
 20
17.254054
 30
0.000000
  0
VERTEX
  8
LAYER-2
 10
26.208491
 20
17.254054
 30
0.000000
  0
VERTEX
  8
LAYER-2
 10
26.234936
 20
17.254054
 30
0.000000
  0
VERTEX
  8
LAYER-2
 10
26.234936
 20
17.207179
 30
0.000000
  0
VERTEX
  8
LAYER-2
 10
26.281811
 20
17.207179
 30
0.000000
  0
VERTEX
  8
LAYER-2
 10
26.281811
 20
17.180734
 30
0.000000
  0
VERTEX
  8
LAYER-2
 10
26.234936
 20
17.180734
 30
0.000000
  0
VERTEX
  8
LAYER-2
 10
26.234936
 20
17.133862
 30
0.000000
  0
VERTEX
  8
LAYER-2
 10
26.208491
 20
17.133862
 30
0.000000
  0
VERTEX
  8
LAYER-2
 10
26.208491
 20
17.180734
 30
0.000000
  0
VERTEX
  8
LAYER-2
 10
26.161616
 20
17.180734
 30
0.000000
  0
VERTEX
  8
LAYER-2
 10
26.161616
 20
17.207179
 30
0.000000
  0
VERTEX
  8
LAYER-2
 10
26.208491
 20
17.207179
 30
0.000000
  0
SEQEND
  8
LAYER-2
  0
POLYLINE
  8
LAYER-2
 66
  1
 70
  1
 62
  7
 10
24.139996
 20
21.113624
 30
0.000000
  0
VERTEX
  8
LAYER-2
 10
24.139996
 20
21.113624
 30
0.000000
  0
VERTEX
  8
LAYER-2
 10
30.150607
 20
21.113624
 30
0.000000
  0
VERTEX
  8
LAYER-2
 10
30.150607
 20
15.102999
 30
0.000000
  0
VERTEX
  8
LAYER-2
 10
24.139996
 20
15.102999
 30
0.000000
  0
SEQEND
  8
LAYER-2
  0
POLYLINE
  8
LAYER-2
  6
LTYPE01
 66
  1
 70
  0
 62
  7
  6
LTYPE01
 10
29.787987
 20
14.527337
 30
0.000000
  0
VERTEX
  8
LAYER-2
  6
LTYPE01
 10
29.787987
 20
14.527337
 30
0.000000
  0
VERTEX
  8
LAYER-2
  6
LTYPE01
 10
29.786501
 20
8.020991
 30
0.000000
  0
SEQEND
  8
LAYER-2
  0
POLYLINE
  8
LAYER-2
 66
  1
 70
  0
 62
  7
 10
29.786501
 20
8.020991
 30
0.000000
  0
VERTEX
  8
LAYER-2
 10
29.786501
 20
8.020991
 30
0.000000
  0
VERTEX
  8
LAYER-2
 10
30.156158
 20
8.020991
 30
0.000000
  0
SEQEND
  8
LAYER-2
  0
POLYLINE
  8
LAYER-2
 66
  1
 70
  0
 62
  7
 10
30.156158
 20
8.020991
 30
0.000000
  0
VERTEX
  8
LAYER-2
 10
30.156158
 20
8.020991
 30
0.000000
  0
VERTEX
  8
LAYER-2
 10
30.156158
 20
15.102999
 30
0.000000
  0
SEQEND
  8
LAYER-2
  0
POLYLINE
  8
LAYER-2
  6
LTYPE01
 66
  1
 70
  0
 62
  7
  6
LTYPE01
 10
30.156158
 20
15.103002
 30
0.000000
  0
VERTEX
  8
LAYER-2
  6
LTYPE01
 10
30.156158
 20
15.103002
 30
0.000000
  0
VERTEX
  8
LAYER-2
  6
LTYPE01
 10
30.050237
 20
15.048384
 30
0.000000
  0
VERTEX
  8
LAYER-2
  6
LTYPE01
 10
29.959320
 20
14.972605
 30
0.000000
  0
VERTEX
  8
LAYER-2
  6
LTYPE01
 10
29.884932
 20
14.880545
 30
0.000000
  0
VERTEX
  8
LAYER-2
  6
LTYPE01
 10
29.829937
 20
14.775740
 30
0.000000
  0
VERTEX
  8
LAYER-2
  6
LTYPE01
 10
29.796443
 20
14.662220
 30
0.000000
  0
VERTEX
  8
LAYER-2
  6
LTYPE01
 10
29.785738
 20
14.544349
 30
0.000000
  0
VERTEX
  8
LAYER-2
  6
LTYPE01
 10
29.788008
 20
14.527327
 30
0.000000
  0
SEQEND
  8
LAYER-2
  0
POLYLINE
  8
LAYER-2
  6
LTYPE01
 66
  1
 70
  0
 62
  7
  6
LTYPE01
 10
29.224501
 20
14.384580
 30
0.000000
  0
VERTEX
  8
LAYER-2
  6
LTYPE01
 10
29.224501
 20
14.384580
 30
0.000000
  0
VERTEX
  8
LAYER-2
  6
LTYPE01
 10
29.209491
 20
14.504333
 30
0.000000
  0
VERTEX
  8
LAYER-2
  6
LTYPE01
 10
29.173718
 20
14.617307
 30
0.000000
  0
VERTEX
  8
LAYER-2
  6
LTYPE01
 10
29.116591
 20
14.721135
 30
0.000000
  0
VERTEX
  8
LAYER-2
  6
LTYPE01
 10
29.040307
 20
14.811822
 30
0.000000
  0
VERTEX
  8
LAYER-2
  6
LTYPE01
 10
28.947794
 20
14.885883
 30
0.000000
  0
VERTEX
  8
LAYER-2
  6
LTYPE01
 10
28.845335
 20
14.938200
 30
0.000000
  0
SEQEND
  8
LAYER-2
  0
POLYLINE
  8
LAYER-2
  6
LTYPE01
 66
  1
 70
  0
 62
  7
  6
LTYPE01
 10
29.221518
 20
8.020991
 30
0.000000
  0
VERTEX
  8
LAYER-2
  6
LTYPE01
 10
29.221518
 20
8.020991
 30
0.000000
  0
VERTEX
  8
LAYER-2
  6
LTYPE01
 10
29.224471
 20
14.384583
 30
0.000000
  0
SEQEND
  8
LAYER-2
  0
POLYLINE
  8
LAYER-2
 66
  1
 70
  0
 62
  7
 10
28.845858
 20
8.020991
 30
0.000000
  0
VERTEX
  8
LAYER-2
 10
28.845858
 20
8.020991
 30
0.000000
  0
VERTEX
  8
LAYER-2
 10
29.221518
 20
8.020991
 30
0.000000
  0
SEQEND
  8
LAYER-2
  0
POLYLINE
  8
LAYER-2
 66
  1
 70
  0
 62
  7
 10
28.845858
 20
8.020991
 30
0.000000
  0
VERTEX
  8
LAYER-2
 10
28.845858
 20
8.020991
 30
0.000000
  0
VERTEX
  8
LAYER-2
 10
28.845858
 20
14.489772
 30
0.000000
  0
SEQEND
  8
LAYER-2
  0
POLYLINE
  8
LAYER-2
 66
  1
 70
  0
 62
  7
 10
28.845858
 20
14.489772
 30
0.000000
  0
VERTEX
  8
LAYER-2
 10
28.845858
 20
14.489772
 30
0.000000
  0
VERTEX
  8
LAYER-2
 10
28.563308
 20
14.979091
 30
0.000000
  0
SEQEND
  8
LAYER-2
  0
POLYLINE
  8
LAYER-2
 66
  1
 70
  0
 62
  7
 10
28.843273
 20
15.099292
 30
0.000000
  0
VERTEX
  8
LAYER-2
 10
28.843273
 20
15.099292
 30
0.000000
  0
VERTEX
  8
LAYER-2
 10
28.843273
 20
14.933070
 30
0.000000
  0
SEQEND
  8
LAYER-2
  0
POLYLINE
  8
LAYER-2
 66
  1
 70
  0
 62
  7
 10
29.221518
 20
8.020991
 30
0.000000
  0
VERTEX
  8
LAYER-2
 10
29.221518
 20
8.020991
 30
0.000000
  0
VERTEX
  8
LAYER-2
 10
29.786501
 20
8.020991
 30
0.000000
  0
SEQEND
  8
LAYER-2
  0
POLYLINE
  8
LAYER-2
 66
  1
 70
  0
 62
  7
 10
28.845335
 20
14.938200
 30
0.000000
  0
VERTEX
  8
LAYER-2
 10
28.845335
 20
14.938200
 30
0.000000
  0
VERTEX
  8
LAYER-2
 10
28.729600
 20
14.973342
 30
0.000000
  0
VERTEX
  8
LAYER-2
 10
28.611549
 20
14.983685
 30
0.000000
  0
VERTEX
  8
LAYER-2
 10
28.563345
 20
14.979088
 30
0.000000
  0
SEQEND
  8
LAYER-2
  0
POLYLINE
  8
LAYER-2
 66
  1
 70
  1
 62
  7
  0
VERTEX
  8
LAYER-2
 10
25.712438
 20
16.198414
 30
0.000000
  0
VERTEX
  8
LAYER-2
 10
25.914685
 20
16.198414
 30
0.000000
  0
VERTEX
  8
LAYER-2
 10
25.914685
 20
13.167419
 30
0.000000
  0
VERTEX
  8
LAYER-2
 10
25.712438
 20
13.167419
 30
0.000000
  0
SEQEND
  8
LAYER-2
  0
POLYLINE
  8
LAYER-2
 66
  1
 70
  0
 62
  7
 10
25.770207
 20
16.196923
 30
0.000000
  0
VERTEX
  8
LAYER-2
 10
25.770207
 20
16.196923
 30
0.000000
  0
VERTEX
  8
LAYER-2
 10
25.770207
 20
13.167419
 30
0.000000
  0
SEQEND
  8
LAYER-2
  0
POLYLINE
  8
LAYER-2
 66
  1
 70
  0
 62
  7
 10
25.864119
 20
16.196923
 30
0.000000
  0
VERTEX
  8
LAYER-2
 10
25.864119
 20
16.196923
 30
0.000000
  0
VERTEX
  8
LAYER-2
 10
25.864119
 20
13.167419
 30
0.000000
  0
SEQEND
  8
LAYER-2
  0
POLYLINE
  8
LAYER-2
 66
  1
 70
  0
 62
  7
 10
25.808418
 20
8.943390
 30
0.000000
  0
VERTEX
  8
LAYER-2
 10
25.808418
 20
8.943390
 30
0.000000
  0
VERTEX
  8
LAYER-2
 10
25.808418
 20
10.546518
 30
0.000000
  0
SEQEND
  8
LAYER-2
  0
POLYLINE
  8
LAYER-2
 66
  1
 70
  1
 62
  7
  0
VERTEX
  8
LAYER-2
 10
25.808418
 20
10.566204
 30
0.000000
  0
VERTEX
  8
LAYER-2
 10
25.923802
 20
10.373897
 30
0.000000
  0
VERTEX
  8
LAYER-2
 10
25.808418
 20
10.373897
 30
0.000000
  0
VERTEX
  8
LAYER-2
 10
25.693033
 20
10.373897
 30
0.000000
  0
VERTEX
  8
LAYER-2
 10
25.808418
 20
10.566204
 30
0.000000
  0
SEQEND
  8
LAYER-2
  0
POLYLINE
  8
LAYER-2
  6
LTYPE05
 66
  1
 70
  0
 62
  7
  6
LTYPE05
 10
25.811397
 20
21.051509
 30
0.000000
  0
VERTEX
  8
LAYER-2
  6
LTYPE05
 10
25.811397
 20
21.051509
 30
0.000000
  0
VERTEX
  8
LAYER-2
  6
LTYPE05
 10
25.811397
 20
19.733849
 30
0.000000
  0
SEQEND
  8
LAYER-2
  0
POLYLINE
  8
LAYER-2
 66
  1
 70
  1
 62
  7
  0
VERTEX
  8
LAYER-2
 10
25.811397
 20
19.714165
 30
0.000000
  0
VERTEX
  8
LAYER-2
 10
25.696012
 20
19.906473
 30
0.000000
  0
VERTEX
  8
LAYER-2
 10
25.811397
 20
19.906473
 30
0.000000
  0
VERTEX
  8
LAYER-2
 10
25.926781
 20
19.906473
 30
0.000000
  0
VERTEX
  8
LAYER-2
 10
25.811397
 20
19.714165
 30
0.000000
  0
SEQEND
  8
LAYER-2
  0
POLYLINE
  8
LAYER-2
  6
LTYPE05
 66
  1
 70
  0
 62
  7
  6
LTYPE05
 10
25.808394
 20
15.763261
 30
0.000000
  0
VERTEX
  8
LAYER-2
  6
LTYPE05
 10
25.808394
 20
15.763261
 30
0.000000
  0
VERTEX
  8
LAYER-2
  6
LTYPE05
 10
25.808394
 20
20.060798
 30
0.000000
  0
SEQEND
  8
LAYER-2
  0
POLYLINE
  8
LAYER-2
 66
  1
 70
  0
 62
  7
 10
25.537349
 20
12.376622
 30
0.000000
  0
VERTEX
  8
LAYER-2
 10
25.537349
 20
12.376622
 30
0.000000
  0
VERTEX
  8
LAYER-2
 10
25.559068
 20
12.429063
 30
0.000000
  0
SEQEND
  8
LAYER-2
  0
POLYLINE
  8
LAYER-2
 66
  1
 70
  0
 62
  7
 10
25.537363
 20
12.376629
 30
0.000000
  0
VERTEX
  8
LAYER-2
 10
25.537363
 20
12.376629
 30
0.000000
  0
VERTEX
  8
LAYER-2
 10
25.424267
 20
12.263557
 30
0.000000
  0
SEQEND
  8
LAYER-2
  0
POLYLINE
  8
LAYER-2
 66
  1
 70
  0
 62
  7
 10
25.424284
 20
12.263569
 30
0.000000
  0
VERTEX
  8
LAYER-2
 10
25.424284
 20
12.263569
 30
0.000000
  0
VERTEX
  8
LAYER-2
 10
25.358011
 20
12.169295
 30
0.000000
  0
VERTEX
  8
LAYER-2
 10
25.337398
 20
12.053802
 30
0.000000
  0
SEQEND
  8
LAYER-2
  0
POLYLINE
  8
LAYER-2
 66
  1
 70
  0
 62
  7
 10
25.337379
 20
12.053802
 30
0.000000
  0
VERTEX
  8
LAYER-2
 10
25.337379
 20
12.053802
 30
0.000000
  0
VERTEX
  8
LAYER-2
 10
25.337379
 20
11.269604
 30
0.000000
  0
SEQEND
  8
LAYER-2
  0
POLYLINE
  8
LAYER-2
 66
  1
 70
  0
 62
  7
 10
25.337377
 20
11.269604
 30
0.000000
  0
VERTEX
  8
LAYER-2
 10
25.337377
 20
11.269604
 30
0.000000
  0
VERTEX
  8
LAYER-2
 10
25.351473
 20
11.190796
 30
0.000000
  0
VERTEX
  8
LAYER-2
 10
25.397231
 20
11.122317
 30
0.000000
  0
VERTEX
  8
LAYER-2
 10
25.465710
 20
11.076559
 30
0.000000
  0
VERTEX
  8
LAYER-2
 10
25.548455
 20
11.058523
 30
0.000000
  0
SEQEND
  8
LAYER-2
  0
POLYLINE
  8
LAYER-2
 66
  1
 70
  0
 62
  7
 10
26.084768
 20
11.058521
 30
0.000000
  0
VERTEX
  8
LAYER-2
 10
26.084768
 20
11.058521
 30
0.000000
  0
VERTEX
  8
LAYER-2
 10
25.548455
 20
11.058521
 30
0.000000
  0
SEQEND
  8
LAYER-2
  0
POLYLINE
  8
LAYER-2
 66
  1
 70
  0
 62
  7
 10
26.084768
 20
11.058523
 30
0.000000
  0
VERTEX
  8
LAYER-2
 10
26.084768
 20
11.058523
 30
0.000000
  0
VERTEX
  8
LAYER-2
 10
26.163579
 20
11.076559
 30
0.000000
  0
VERTEX
  8
LAYER-2
 10
26.232058
 20
11.122317
 30
0.000000
  0
VERTEX
  8
LAYER-2
 10
26.277813
 20
11.190796
 30
0.000000
  0
VERTEX
  8
LAYER-2
 10
26.295849
 20
11.269604
 30
0.000000
  0
SEQEND
  8
LAYER-2
  0
POLYLINE
  8
LAYER-2
 66
  1
 70
  0
 62
  7
 10
26.295844
 20
12.053802
 30
0.000000
  0
VERTEX
  8
LAYER-2
 10
26.295844
 20
12.053802
 30
0.000000
  0
VERTEX
  8
LAYER-2
 10
26.295844
 20
11.269604
 30
0.000000
  0
SEQEND
  8
LAYER-2
  0
POLYLINE
  8
LAYER-2
 66
  1
 70
  0
 62
  7
 10
26.295823
 20
12.053802
 30
0.000000
  0
VERTEX
  8
LAYER-2
 10
26.295823
 20
12.053802
 30
0.000000
  0
VERTEX
  8
LAYER-2
 10
26.271273
 20
12.169295
 30
0.000000
  0
VERTEX
  8
LAYER-2
 10
26.208935
 20
12.263569
 30
0.000000
  0
SEQEND
  8
LAYER-2
  0
POLYLINE
  8
LAYER-2
 66
  1
 70
  0
 62
  7
 10
26.095858
 20
12.376629
 30
0.000000
  0
VERTEX
  8
LAYER-2
 10
26.095858
 20
12.376629
 30
0.000000
  0
VERTEX
  8
LAYER-2
 10
26.208954
 20
12.263557
 30
0.000000
  0
SEQEND
  8
LAYER-2
  0
POLYLINE
  8
LAYER-2
 66
  1
 70
  0
 62
  7
 10
26.074151
 20
12.429063
 30
0.000000
  0
VERTEX
  8
LAYER-2
 10
26.074151
 20
12.429063
 30
0.000000
  0
VERTEX
  8
LAYER-2
 10
26.073097
 20
12.419431
 30
0.000000
  0
VERTEX
  8
LAYER-2
 10
26.075813
 20
12.408114
 30
0.000000
  0
VERTEX
  8
LAYER-2
 10
26.080266
 20
12.397365
 30
0.000000
  0
VERTEX
  8
LAYER-2
 10
26.086348
 20
12.387442
 30
0.000000
  0
VERTEX
  8
LAYER-2
 10
26.095872
 20
12.376624
 30
0.000000
  0
SEQEND
  8
LAYER-2
  0
POLYLINE
  8
LAYER-2
 66
  1
 70
  0
 62
  7
 10
26.074134
 20
13.119603
 30
0.000000
  0
VERTEX
  8
LAYER-2
 10
26.074134
 20
13.119603
 30
0.000000
  0
VERTEX
  8
LAYER-2
 10
26.074134
 20
12.429063
 30
0.000000
  0
SEQEND
  8
LAYER-2
  0
POLYLINE
  8
LAYER-2
 66
  1
 70
  0
 62
  7
 10
26.074118
 20
13.119603
 30
0.000000
  0
VERTEX
  8
LAYER-2
 10
26.074118
 20
13.119603
 30
0.000000
  0
VERTEX
  8
LAYER-2
 10
26.050427
 20
13.174014
 30
0.000000
  0
VERTEX
  8
LAYER-2
 10
25.999953
 20
13.193765
 30
0.000000
  0
SEQEND
  8
LAYER-2
  0
POLYLINE
  8
LAYER-2
 66
  1
 70
  0
 62
  7
 10
25.999953
 20
13.193765
 30
0.000000
  0
VERTEX
  8
LAYER-2
 10
25.999953
 20
13.193765
 30
0.000000
  0
VERTEX
  8
LAYER-2
 10
25.633221
 20
13.193765
 30
0.000000
  0
SEQEND
  8
LAYER-2
  0
POLYLINE
  8
LAYER-2
 66
  1
 70
  0
 62
  7
 10
25.633221
 20
13.193765
 30
0.000000
  0
VERTEX
  8
LAYER-2
 10
25.633221
 20
13.193765
 30
0.000000
  0
VERTEX
  8
LAYER-2
 10
25.578810
 20
13.174014
 30
0.000000
  0
VERTEX
  8
LAYER-2
 10
25.559056
 20
13.119603
 30
0.000000
  0
SEQEND
  8
LAYER-2
  0
POLYLINE
  8
LAYER-2
 66
  1
 70
  0
 62
  7
 10
25.559056
 20
13.119603
 30
0.000000
  0
VERTEX
  8
LAYER-2
 10
25.559056
 20
13.119603
 30
0.000000
  0
VERTEX
  8
LAYER-2
 10
25.559068
 20
12.429063
 30
0.000000
  0
SEQEND
  8
LAYER-2
  0
POLYLINE
  8
LAYER-2
 66
  1
 70
  0
 62
  7
 10
25.625110
 20
11.795255
 30
0.000000
  0
VERTEX
  8
LAYER-2
 10
25.625110
 20
11.795255
 30
0.000000
  0
VERTEX
  8
LAYER-2
 10
26.001599
 20
11.795255
 30
0.000000
  0
SEQEND
  8
LAYER-2
  0
POLYLINE
  8
LAYER-2
 66
  1
 70
  0
 62
  7
 10
26.227347
 20
11.569507
 30
0.000000
  0
VERTEX
  8
LAYER-2
 10
26.227347
 20
11.569507
 30
0.000000
  0
VERTEX
  8
LAYER-2
 10
26.227347
 20
11.391846
 30
0.000000
  0
SEQEND
  8
LAYER-2
  0
POLYLINE
  8
LAYER-2
 66
  1
 70
  0
 62
  7
 10
26.001599
 20
11.166095
 30
0.000000
  0
VERTEX
  8
LAYER-2
 10
26.001599
 20
11.166095
 30
0.000000
  0
VERTEX
  8
LAYER-2
 10
25.625110
 20
11.166095
 30
0.000000
  0
SEQEND
  8
LAYER-2
  0
POLYLINE
  8
LAYER-2
 66
  1
 70
  0
 62
  7
 10
25.399360
 20
11.391846
 30
0.000000
  0
VERTEX
  8
LAYER-2
 10
25.399360
 20
11.391846
 30
0.000000
  0
VERTEX
  8
LAYER-2
 10
25.399360
 20
11.569507
 30
0.000000
  0
SEQEND
  8
LAYER-2
  0
ARC
  8
LAYER-2
 62
  7
 10
25.625110
 20
11.569507
 30
0.000000
 40
0.225750
 50
90.000000
 51
180.000000
  0
ARC
  8
LAYER-2
 62
  7
 10
25.625110
 20
11.391846
 30
0.000000
 40
0.225750
 50
180.000000
 51
270.000000
  0
ARC
  8
LAYER-2
 62
  7
 10
26.001599
 20
11.391846
 30
0.000000
 40
0.225750
 50
270.000000
 51
0.000000
  0
ARC
  8
LAYER-2
 62
  7
 10
26.001599
 20
11.569507
 30
0.000000
 40
0.225750
 50
0.000000
 51
90.000000
  0
POLYLINE
  8
LAYER-2
 66
  1
 70
  0
 62
  7
 10
25.709015
 20
11.312791
 30
0.000000
  0
VERTEX
  8
LAYER-2
 10
25.709015
 20
11.312791
 30
0.000000
  0
VERTEX
  8
LAYER-2
 10
25.924206
 20
11.312791
 30
0.000000
  0
SEQEND
  8
LAYER-2
  0
POLYLINE
  8
LAYER-2
 66
  1
 70
  0
 62
  7
 10
25.924206
 20
11.312782
 30
0.000000
  0
VERTEX
  8
LAYER-2
 10
25.924206
 20
11.312782
 30
0.000000
  0
VERTEX
  8
LAYER-2
 10
25.998305
 20
11.346259
 30
0.000000
  0
VERTEX
  8
LAYER-2
 10
26.031783
 20
11.420359
 30
0.000000
  0
SEQEND
  8
LAYER-2
  0
POLYLINE
  8
LAYER-2
 66
  1
 70
  0
 62
  7
 10
26.031755
 20
11.420359
 30
0.000000
  0
VERTEX
  8
LAYER-2
 10
26.031755
 20
11.420359
 30
0.000000
  0
VERTEX
  8
LAYER-2
 10
26.031755
 20
12.025891
 30
0.000000
  0
SEQEND
  8
LAYER-2
  0
POLYLINE
  8
LAYER-2
 66
  1
 70
  0
 62
  7
 10
26.031745
 20
12.025891
 30
0.000000
  0
VERTEX
  8
LAYER-2
 10
26.031745
 20
12.025891
 30
0.000000
  0
VERTEX
  8
LAYER-2
 10
26.018052
 20
12.086804
 30
0.000000
  0
VERTEX
  8
LAYER-2
 10
25.984664
 20
12.136775
 30
0.000000
  0
VERTEX
  8
LAYER-2
 10
25.934692
 20
12.170166
 30
0.000000
  0
VERTEX
  8
LAYER-2
 10
25.877714
 20
12.179922
 30
0.000000
  0
SEQEND
  8
LAYER-2
  0
POLYLINE
  8
LAYER-2
 66
  1
 70
  0
 62
  7
 10
25.877714
 20
12.179929
 30
0.000000
  0
VERTEX
  8
LAYER-2
 10
25.877714
 20
12.179929
 30
0.000000
  0
VERTEX
  8
LAYER-2
 10
25.755467
 20
12.179929
 30
0.000000
  0
SEQEND
  8
LAYER-2
  0
POLYLINE
  8
LAYER-2
 66
  1
 70
  0
 62
  7
 10
25.755467
 20
12.179922
 30
0.000000
  0
VERTEX
  8
LAYER-2
 10
25.755467
 20
12.179922
 30
0.000000
  0
VERTEX
  8
LAYER-2
 10
25.694554
 20
12.170166
 30
0.000000
  0
VERTEX
  8
LAYER-2
 10
25.644581
 20
12.136775
 30
0.000000
  0
VERTEX
  8
LAYER-2
 10
25.611192
 20
12.086804
 30
0.000000
  0
VERTEX
  8
LAYER-2
 10
25.601436
 20
12.025891
 30
0.000000
  0
SEQEND
  8
LAYER-2
  0
POLYLINE
  8
LAYER-2
 66
  1
 70
  0
 62
  7
 10
25.601471
 20
11.420359
 30
0.000000
  0
VERTEX
  8
LAYER-2
 10
25.601471
 20
11.420359
 30
0.000000
  0
VERTEX
  8
LAYER-2
 10
25.601471
 20
12.025891
 30
0.000000
  0
SEQEND
  8
LAYER-2
  0
POLYLINE
  8
LAYER-2
 66
  1
 70
  0
 62
  7
 10
25.601438
 20
11.420359
 30
0.000000
  0
VERTEX
  8
LAYER-2
 10
25.601438
 20
11.420359
 30
0.000000
  0
VERTEX
  8
LAYER-2
 10
25.630979
 20
11.346259
 30
0.000000
  0
VERTEX
  8
LAYER-2
 10
25.709015
 20
11.312782
 30
0.000000
  0
SEQEND
  8
LAYER-2
  0
LINE
  8
LAYER-2
 62
  7
 10
26.345088
 20
13.632716
 30
0.000000
 11
25.152778
 21
14.594252
 31
0.000000
  0
LINE
  8
LAYER-2
 62
  7
 10
26.462792
 20
13.778670
 30
0.000000
 11
25.270482
 21
14.740206
 31
0.000000
  0
POLYLINE
  8
LAYER-2
 66
  1
 70
  0
 62
  7
 10
27.615380
 20
20.446078
 30
0.000000
  0
VERTEX
  8
LAYER-2
 10
27.615380
 20
20.446078
 30
0.000000
  0
VERTEX
  8
LAYER-2
 10
26.956186
 20
19.411398
 30
0.000000
  0
SEQEND
  8
LAYER-2
  0
POLYLINE
  8
LAYER-2
 66
  1
 70
  1
 62
  7
  0
VERTEX
  8
LAYER-2
 10
26.945608
 20
19.394797
 30
0.000000
  0
VERTEX
  8
LAYER-2
 10
26.951625
 20
19.618983
 30
0.000000
  0
VERTEX
  8
LAYER-2
 10
27.048938
 20
19.556986
 30
0.000000
  0
VERTEX
  8
LAYER-2
 10
27.146252
 20
19.494988
 30
0.000000
  0
VERTEX
  8
LAYER-2
 10
26.945608
 20
19.394797
 30
0.000000
  0
SEQEND
  8
LAYER-2
  0
POLYLINE
  8
LAYER-2
 66
  1
 70
  0
 62
  7
 10
25.884705
 20
20.795617
 30
0.000000
  0
VERTEX
  8
LAYER-2
 10
25.884705
 20
20.795617
 30
0.000000
  0
VERTEX
  8
LAYER-2
 10
25.862835
 20
20.807413
 30
0.000000
  0
SEQEND
  8
LAYER-2
  0
POLYLINE
  8
LAYER-2
 66
  1
 70
  0
 62
  7
 10
25.884705
 20
20.795617
 30
0.000000
  0
VERTEX
  8
LAYER-2
 10
25.884705
 20
20.795617
 30
0.000000
  0
VERTEX
  8
LAYER-2
 10
25.862835
 20
20.783823
 30
0.000000
  0
SEQEND
  8
LAYER-2
  0
POLYLINE
  8
LAYER-2
 66
  1
 70
  0
 62
  7
 10
25.742948
 20
20.774649
 30
0.000000
  0
VERTEX
  8
LAYER-2
 10
25.742948
 20
20.774649
 30
0.000000
  0
VERTEX
  8
LAYER-2
 10
25.764810
 20
20.786445
 30
0.000000
  0
SEQEND
  8
LAYER-2
  0
POLYLINE
  8
LAYER-2
 66
  1
 70
  0
 62
  7
 10
25.742948
 20
20.774649
 30
0.000000
  0
VERTEX
  8
LAYER-2
 10
25.742948
 20
20.774649
 30
0.000000
  0
VERTEX
  8
LAYER-2
 10
25.764810
 20
20.762850
 30
0.000000
  0
SEQEND
  8
LAYER-2
  0
POLYLINE
  8
LAYER-2
 66
  1
 70
  0
 62
  7
 10
25.862835
 20
20.807413
 30
0.000000
  0
VERTEX
  8
LAYER-2
 10
25.862835
 20
20.807413
 30
0.000000
  0
VERTEX
  8
LAYER-2
 10
25.764810
 20
20.786445
 30
0.000000
  0
SEQEND
  8
LAYER-2
  0
POLYLINE
  8
LAYER-2
 66
  1
 70
  0
 62
  7
 10
25.884705
 20
20.795617
 30
0.000000
  0
VERTEX
  8
LAYER-2
 10
25.884705
 20
20.795617
 30
0.000000
  0
VERTEX
  8
LAYER-2
 10
25.742948
 20
20.774649
 30
0.000000
  0
SEQEND
  8
LAYER-2
  0
POLYLINE
  8
LAYER-2
 66
  1
 70
  0
 62
  7
 10
25.884705
 20
20.772214
 30
0.000000
  0
VERTEX
  8
LAYER-2
 10
25.884705
 20
20.772214
 30
0.000000
  0
VERTEX
  8
LAYER-2
 10
25.862835
 20
20.784011
 30
0.000000
  0
SEQEND
  8
LAYER-2
  0
POLYLINE
  8
LAYER-2
 66
  1
 70
  0
 62
  7
 10
25.884705
 20
20.772214
 30
0.000000
  0
VERTEX
  8
LAYER-2
 10
25.884705
 20
20.772214
 30
0.000000
  0
VERTEX
  8
LAYER-2
 10
25.862835
 20
20.760418
 30
0.000000
  0
SEQEND
  8
LAYER-2
  0
POLYLINE
  8
LAYER-2
 66
  1
 70
  0
 62
  7
 10
25.742948
 20
20.751247
 30
0.000000
  0
VERTEX
  8
LAYER-2
 10
25.742948
 20
20.751247
 30
0.000000
  0
VERTEX
  8
LAYER-2
 10
25.764810
 20
20.763040
 30
0.000000
  0
SEQEND
  8
LAYER-2
  0
POLYLINE
  8
LAYER-2
 66
  1
 70
  0
 62
  7
 10
25.742948
 20
20.751247
 30
0.000000
  0
VERTEX
  8
LAYER-2
 10
25.742948
 20
20.751247
 30
0.000000
  0
VERTEX
  8
LAYER-2
 10
25.764810
 20
20.739448
 30
0.000000
  0
SEQEND
  8
LAYER-2
  0
POLYLINE
  8
LAYER-2
 66
  1
 70
  0
 62
  7
 10
25.862835
 20
20.784011
 30
0.000000
  0
VERTEX
  8
LAYER-2
 10
25.862835
 20
20.784011
 30
0.000000
  0
VERTEX
  8
LAYER-2
 10
25.764810
 20
20.763040
 30
0.000000
  0
SEQEND
  8
LAYER-2
  0
POLYLINE
  8
LAYER-2
 66
  1
 70
  0
 62
  7
 10
25.884705
 20
20.772214
 30
0.000000
  0
VERTEX
  8
LAYER-2
 10
25.884705
 20
20.772214
 30
0.000000
  0
VERTEX
  8
LAYER-2
 10
25.742948
 20
20.751247
 30
0.000000
  0
SEQEND
  8
LAYER-2
  0
POLYLINE
  8
LAYER-2
 66
  1
 70
  0
 62
  7
 10
25.884705
 20
20.748812
 30
0.000000
  0
VERTEX
  8
LAYER-2
 10
25.884705
 20
20.748812
 30
0.000000
  0
VERTEX
  8
LAYER-2
 10
25.862835
 20
20.760608
 30
0.000000
  0
SEQEND
  8
LAYER-2
  0
POLYLINE
  8
LAYER-2
 66
  1
 70
  0
 62
  7
 10
25.884705
 20
20.748812
 30
0.000000
  0
VERTEX
  8
LAYER-2
 10
25.884705
 20
20.748812
 30
0.000000
  0
VERTEX
  8
LAYER-2
 10
25.862835
 20
20.737016
 30
0.000000
  0
SEQEND
  8
LAYER-2
  0
POLYLINE
  8
LAYER-2
 66
  1
 70
  0
 62
  7
 10
25.742948
 20
20.727840
 30
0.000000
  0
VERTEX
  8
LAYER-2
 10
25.742948
 20
20.727840
 30
0.000000
  0
VERTEX
  8
LAYER-2
 10
25.764810
 20
20.739638
 30
0.000000
  0
SEQEND
  8
LAYER-2
  0
POLYLINE
  8
LAYER-2
 66
  1
 70
  0
 62
  7
 10
25.742948
 20
20.727840
 30
0.000000
  0
VERTEX
  8
LAYER-2
 10
25.742948
 20
20.727840
 30
0.000000
  0
VERTEX
  8
LAYER-2
 10
25.764810
 20
20.716046
 30
0.000000
  0
SEQEND
  8
LAYER-2
  0
POLYLINE
  8
LAYER-2
 66
  1
 70
  0
 62
  7
 10
25.862835
 20
20.760608
 30
0.000000
  0
VERTEX
  8
LAYER-2
 10
25.862835
 20
20.760608
 30
0.000000
  0
VERTEX
  8
LAYER-2
 10
25.764810
 20
20.739638
 30
0.000000
  0
SEQEND
  8
LAYER-2
  0
POLYLINE
  8
LAYER-2
 66
  1
 70
  0
 62
  7
 10
25.884705
 20
20.748812
 30
0.000000
  0
VERTEX
  8
LAYER-2
 10
25.884705
 20
20.748812
 30
0.000000
  0
VERTEX
  8
LAYER-2
 10
25.742948
 20
20.727840
 30
0.000000
  0
SEQEND
  8
LAYER-2
  0
POLYLINE
  8
LAYER-2
 66
  1
 70
  0
 62
  7
 10
25.884705
 20
20.725410
 30
0.000000
  0
VERTEX
  8
LAYER-2
 10
25.884705
 20
20.725410
 30
0.000000
  0
VERTEX
  8
LAYER-2
 10
25.862835
 20
20.737204
 30
0.000000
  0
SEQEND
  8
LAYER-2
  0
POLYLINE
  8
LAYER-2
 66
  1
 70
  0
 62
  7
 10
25.884705
 20
20.725410
 30
0.000000
  0
VERTEX
  8
LAYER-2
 10
25.884705
 20
20.725410
 30
0.000000
  0
VERTEX
  8
LAYER-2
 10
25.862835
 20
20.713614
 30
0.000000
  0
SEQEND
  8
LAYER-2
  0
POLYLINE
  8
LAYER-2
 66
  1
 70
  0
 62
  7
 10
25.742948
 20
20.704435
 30
0.000000
  0
VERTEX
  8
LAYER-2
 10
25.742948
 20
20.704435
 30
0.000000
  0
VERTEX
  8
LAYER-2
 10
25.764810
 20
20.716236
 30
0.000000
  0
SEQEND
  8
LAYER-2
  0
POLYLINE
  8
LAYER-2
 66
  1
 70
  0
 62
  7
 10
25.742948
 20
20.704435
 30
0.000000
  0
VERTEX
  8
LAYER-2
 10
25.742948
 20
20.704435
 30
0.000000
  0
VERTEX
  8
LAYER-2
 10
25.764810
 20
20.692641
 30
0.000000
  0
SEQEND
  8
LAYER-2
  0
POLYLINE
  8
LAYER-2
 66
  1
 70
  0
 62
  7
 10
25.862835
 20
20.737204
 30
0.000000
  0
VERTEX
  8
LAYER-2
 10
25.862835
 20
20.737204
 30
0.000000
  0
VERTEX
  8
LAYER-2
 10
25.764810
 20
20.716236
 30
0.000000
  0
SEQEND
  8
LAYER-2
  0
POLYLINE
  8
LAYER-2
 66
  1
 70
  0
 62
  7
 10
25.884705
 20
20.725410
 30
0.000000
  0
VERTEX
  8
LAYER-2
 10
25.884705
 20
20.725410
 30
0.000000
  0
VERTEX
  8
LAYER-2
 10
25.742948
 20
20.704435
 30
0.000000
  0
SEQEND
  8
LAYER-2
  0
POLYLINE
  8
LAYER-2
 66
  1
 70
  0
 62
  7
 10
25.884705
 20
20.702005
 30
0.000000
  0
VERTEX
  8
LAYER-2
 10
25.884705
 20
20.702005
 30
0.000000
  0
VERTEX
  8
LAYER-2
 10
25.862835
 20
20.713801
 30
0.000000
  0
SEQEND
  8
LAYER-2
  0
POLYLINE
  8
LAYER-2
 66
  1
 70
  0
 62
  7
 10
25.884705
 20
20.702005
 30
0.000000
  0
VERTEX
  8
LAYER-2
 10
25.884705
 20
20.702005
 30
0.000000
  0
VERTEX
  8
LAYER-2
 10
25.862835
 20
20.690211
 30
0.000000
  0
SEQEND
  8
LAYER-2
  0
POLYLINE
  8
LAYER-2
 66
  1
 70
  0
 62
  7
 10
25.742948
 20
20.681037
 30
0.000000
  0
VERTEX
  8
LAYER-2
 10
25.742948
 20
20.681037
 30
0.000000
  0
VERTEX
  8
LAYER-2
 10
25.764810
 20
20.692834
 30
0.000000
  0
SEQEND
  8
LAYER-2
  0
POLYLINE
  8
LAYER-2
 66
  1
 70
  0
 62
  7
 10
25.742948
 20
20.681037
 30
0.000000
  0
VERTEX
  8
LAYER-2
 10
25.742948
 20
20.681037
 30
0.000000
  0
VERTEX
  8
LAYER-2
 10
25.764810
 20
20.669241
 30
0.000000
  0
SEQEND
  8
LAYER-2
  0
POLYLINE
  8
LAYER-2
 66
  1
 70
  0
 62
  7
 10
25.862835
 20
20.713801
 30
0.000000
  0
VERTEX
  8
LAYER-2
 10
25.862835
 20
20.713801
 30
0.000000
  0
VERTEX
  8
LAYER-2
 10
25.764810
 20
20.692834
 30
0.000000
  0
SEQEND
  8
LAYER-2
  0
POLYLINE
  8
LAYER-2
 66
  1
 70
  0
 62
  7
 10
25.884705
 20
20.702005
 30
0.000000
  0
VERTEX
  8
LAYER-2
 10
25.884705
 20
20.702005
 30
0.000000
  0
VERTEX
  8
LAYER-2
 10
25.742948
 20
20.681037
 30
0.000000
  0
SEQEND
  8
LAYER-2
  0
POLYLINE
  8
LAYER-2
 66
  1
 70
  0
 62
  7
 10
25.884705
 20
20.678603
 30
0.000000
  0
VERTEX
  8
LAYER-2
 10
25.884705
 20
20.678603
 30
0.000000
  0
VERTEX
  8
LAYER-2
 10
25.862835
 20
20.690397
 30
0.000000
  0
SEQEND
  8
LAYER-2
  0
POLYLINE
  8
LAYER-2
 66
  1
 70
  0
 62
  7
 10
25.884705
 20
20.678603
 30
0.000000
  0
VERTEX
  8
LAYER-2
 10
25.884705
 20
20.678603
 30
0.000000
  0
VERTEX
  8
LAYER-2
 10
25.862835
 20
20.666807
 30
0.000000
  0
SEQEND
  8
LAYER-2
  0
POLYLINE
  8
LAYER-2
 66
  1
 70
  0
 62
  7
 10
25.742948
 20
20.657635
 30
0.000000
  0
VERTEX
  8
LAYER-2
 10
25.742948
 20
20.657635
 30
0.000000
  0
VERTEX
  8
LAYER-2
 10
25.764810
 20
20.669429
 30
0.000000
  0
SEQEND
  8
LAYER-2
  0
POLYLINE
  8
LAYER-2
 66
  1
 70
  0
 62
  7
 10
25.742948
 20
20.657635
 30
0.000000
  0
VERTEX
  8
LAYER-2
 10
25.742948
 20
20.657635
 30
0.000000
  0
VERTEX
  8
LAYER-2
 10
25.770454
 20
20.642254
 30
0.000000
  0
SEQEND
  8
LAYER-2
  0
POLYLINE
  8
LAYER-2
 66
  1
 70
  0
 62
  7
 10
25.862835
 20
20.690397
 30
0.000000
  0
VERTEX
  8
LAYER-2
 10
25.862835
 20
20.690397
 30
0.000000
  0
VERTEX
  8
LAYER-2
 10
25.764810
 20
20.669429
 30
0.000000
  0
SEQEND
  8
LAYER-2
  0
POLYLINE
  8
LAYER-2
 66
  1
 70
  0
 62
  7
 10
25.884705
 20
20.678603
 30
0.000000
  0
VERTEX
  8
LAYER-2
 10
25.884705
 20
20.678603
 30
0.000000
  0
VERTEX
  8
LAYER-2
 10
25.742948
 20
20.657635
 30
0.000000
  0
SEQEND
  8
LAYER-2
  0
POLYLINE
  8
LAYER-2
 66
  1
 70
  0
 62
  7
 10
25.884705
 20
20.655198
 30
0.000000
  0
VERTEX
  8
LAYER-2
 10
25.884705
 20
20.655198
 30
0.000000
  0
VERTEX
  8
LAYER-2
 10
25.862835
 20
20.666995
 30
0.000000
  0
SEQEND
  8
LAYER-2
  0
POLYLINE
  8
LAYER-2
 66
  1
 70
  0
 62
  7
 10
25.884705
 20
20.655198
 30
0.000000
  0
VERTEX
  8
LAYER-2
 10
25.884705
 20
20.655198
 30
0.000000
  0
VERTEX
  8
LAYER-2
 10
25.860014
 20
20.642442
 30
0.000000
  0
SEQEND
  8
LAYER-2
  0
POLYLINE
  8
LAYER-2
 66
  1
 70
  0
 62
  7
 10
25.862835
 20
20.666995
 30
0.000000
  0
VERTEX
  8
LAYER-2
 10
25.862835
 20
20.666995
 30
0.000000
  0
VERTEX
  8
LAYER-2
 10
25.764810
 20
20.646027
 30
0.000000
  0
SEQEND
  8
LAYER-2
  0
POLYLINE
  8
LAYER-2
 66
  1
 70
  0
 62
  7
 10
25.884705
 20
20.655198
 30
0.000000
  0
VERTEX
  8
LAYER-2
 10
25.884705
 20
20.655198
 30
0.000000
  0
VERTEX
  8
LAYER-2
 10
25.764810
 20
20.646027
 30
0.000000
  0
SEQEND
  8
LAYER-2
  0
POLYLINE
  8
LAYER-2
 66
  1
 70
  0
 62
  7
 10
25.860014
 20
20.642442
 30
0.000000
  0
VERTEX
  8
LAYER-2
 10
25.860014
 20
20.642442
 30
0.000000
  0
VERTEX
  8
LAYER-2
 10
25.770454
 20
20.642254
 30
0.000000
  0
SEQEND
  8
LAYER-2
  0
POLYLINE
  8
LAYER-2
 66
  1
 70
  0
 62
  7
 10
25.884705
 20
20.818927
 30
0.000000
  0
VERTEX
  8
LAYER-2
 10
25.884705
 20
20.818927
 30
0.000000
  0
VERTEX
  8
LAYER-2
 10
25.862835
 20
20.830724
 30
0.000000
  0
SEQEND
  8
LAYER-2
  0
POLYLINE
  8
LAYER-2
 66
  1
 70
  0
 62
  7
 10
25.884705
 20
20.818927
 30
0.000000
  0
VERTEX
  8
LAYER-2
 10
25.884705
 20
20.818927
 30
0.000000
  0
VERTEX
  8
LAYER-2
 10
25.862835
 20
20.807134
 30
0.000000
  0
SEQEND
  8
LAYER-2
  0
POLYLINE
  8
LAYER-2
 66
  1
 70
  0
 62
  7
 10
25.742948
 20
20.797960
 30
0.000000
  0
VERTEX
  8
LAYER-2
 10
25.742948
 20
20.797960
 30
0.000000
  0
VERTEX
  8
LAYER-2
 10
25.764810
 20
20.809756
 30
0.000000
  0
SEQEND
  8
LAYER-2
  0
POLYLINE
  8
LAYER-2
 66
  1
 70
  0
 62
  7
 10
25.742948
 20
20.797960
 30
0.000000
  0
VERTEX
  8
LAYER-2
 10
25.742948
 20
20.797960
 30
0.000000
  0
VERTEX
  8
LAYER-2
 10
25.764810
 20
20.786161
 30
0.000000
  0
SEQEND
  8
LAYER-2
  0
POLYLINE
  8
LAYER-2
 66
  1
 70
  0
 62
  7
 10
25.862835
 20
20.830724
 30
0.000000
  0
VERTEX
  8
LAYER-2
 10
25.862835
 20
20.830724
 30
0.000000
  0
VERTEX
  8
LAYER-2
 10
25.764810
 20
20.809756
 30
0.000000
  0
SEQEND
  8
LAYER-2
  0
POLYLINE
  8
LAYER-2
 66
  1
 70
  0
 62
  7
 10
25.884705
 20
20.818927
 30
0.000000
  0
VERTEX
  8
LAYER-2
 10
25.884705
 20
20.818927
 30
0.000000
  0
VERTEX
  8
LAYER-2
 10
25.742948
 20
20.797960
 30
0.000000
  0
SEQEND
  8
LAYER-2
  0
POLYLINE
  8
LAYER-2
 66
  1
 70
  0
 62
  7
 10
25.884705
 20
20.842238
 30
0.000000
  0
VERTEX
  8
LAYER-2
 10
25.884705
 20
20.842238
 30
0.000000
  0
VERTEX
  8
LAYER-2
 10
25.862835
 20
20.854034
 30
0.000000
  0
SEQEND
  8
LAYER-2
  0
POLYLINE
  8
LAYER-2
 66
  1
 70
  0
 62
  7
 10
25.884705
 20
20.842238
 30
0.000000
  0
VERTEX
  8
LAYER-2
 10
25.884705
 20
20.842238
 30
0.000000
  0
VERTEX
  8
LAYER-2
 10
25.862835
 20
20.830442
 30
0.000000
  0
SEQEND
  8
LAYER-2
  0
POLYLINE
  8
LAYER-2
 66
  1
 70
  0
 62
  7
 10
25.742948
 20
20.821270
 30
0.000000
  0
VERTEX
  8
LAYER-2
 10
25.742948
 20
20.821270
 30
0.000000
  0
VERTEX
  8
LAYER-2
 10
25.764810
 20
20.833064
 30
0.000000
  0
SEQEND
  8
LAYER-2
  0
POLYLINE
  8
LAYER-2
 66
  1
 70
  0
 62
  7
 10
25.742948
 20
20.821270
 30
0.000000
  0
VERTEX
  8
LAYER-2
 10
25.742948
 20
20.821270
 30
0.000000
  0
VERTEX
  8
LAYER-2
 10
25.764810
 20
20.809472
 30
0.000000
  0
SEQEND
  8
LAYER-2
  0
POLYLINE
  8
LAYER-2
 66
  1
 70
  0
 62
  7
 10
25.862835
 20
20.854034
 30
0.000000
  0
VERTEX
  8
LAYER-2
 10
25.862835
 20
20.854034
 30
0.000000
  0
VERTEX
  8
LAYER-2
 10
25.764810
 20
20.833064
 30
0.000000
  0
SEQEND
  8
LAYER-2
  0
POLYLINE
  8
LAYER-2
 66
  1
 70
  0
 62
  7
 10
25.884705
 20
20.842238
 30
0.000000
  0
VERTEX
  8
LAYER-2
 10
25.884705
 20
20.842238
 30
0.000000
  0
VERTEX
  8
LAYER-2
 10
25.742948
 20
20.821270
 30
0.000000
  0
SEQEND
  8
LAYER-2
  0
POLYLINE
  8
LAYER-2
 66
  1
 70
  0
 62
  7
 10
25.884705
 20
20.865547
 30
0.000000
  0
VERTEX
  8
LAYER-2
 10
25.884705
 20
20.865547
 30
0.000000
  0
VERTEX
  8
LAYER-2
 10
25.862835
 20
20.877345
 30
0.000000
  0
SEQEND
  8
LAYER-2
  0
POLYLINE
  8
LAYER-2
 66
  1
 70
  0
 62
  7
 10
25.884705
 20
20.865547
 30
0.000000
  0
VERTEX
  8
LAYER-2
 10
25.884705
 20
20.865547
 30
0.000000
  0
VERTEX
  8
LAYER-2
 10
25.862835
 20
20.853753
 30
0.000000
  0
SEQEND
  8
LAYER-2
  0
POLYLINE
  8
LAYER-2
 66
  1
 70
  0
 62
  7
 10
25.742948
 20
20.844581
 30
0.000000
  0
VERTEX
  8
LAYER-2
 10
25.742948
 20
20.844581
 30
0.000000
  0
VERTEX
  8
LAYER-2
 10
25.764810
 20
20.856375
 30
0.000000
  0
SEQEND
  8
LAYER-2
  0
POLYLINE
  8
LAYER-2
 66
  1
 70
  0
 62
  7
 10
25.742948
 20
20.844581
 30
0.000000
  0
VERTEX
  8
LAYER-2
 10
25.742948
 20
20.844581
 30
0.000000
  0
VERTEX
  8
LAYER-2
 10
25.764810
 20
20.832782
 30
0.000000
  0
SEQEND
  8
LAYER-2
  0
POLYLINE
  8
LAYER-2
 66
  1
 70
  0
 62
  7
 10
25.862835
 20
20.877345
 30
0.000000
  0
VERTEX
  8
LAYER-2
 10
25.862835
 20
20.877345
 30
0.000000
  0
VERTEX
  8
LAYER-2
 10
25.764810
 20
20.856375
 30
0.000000
  0
SEQEND
  8
LAYER-2
  0
POLYLINE
  8
LAYER-2
 66
  1
 70
  0
 62
  7
 10
25.884705
 20
20.865547
 30
0.000000
  0
VERTEX
  8
LAYER-2
 10
25.884705
 20
20.865547
 30
0.000000
  0
VERTEX
  8
LAYER-2
 10
25.742948
 20
20.844581
 30
0.000000
  0
SEQEND
  8
LAYER-2
  0
POLYLINE
  8
LAYER-2
 66
  1
 70
  0
 62
  7
 10
25.884705
 20
20.888857
 30
0.000000
  0
VERTEX
  8
LAYER-2
 10
25.884705
 20
20.888857
 30
0.000000
  0
VERTEX
  8
LAYER-2
 10
25.862835
 20
20.900656
 30
0.000000
  0
SEQEND
  8
LAYER-2
  0
POLYLINE
  8
LAYER-2
 66
  1
 70
  0
 62
  7
 10
25.884705
 20
20.888857
 30
0.000000
  0
VERTEX
  8
LAYER-2
 10
25.884705
 20
20.888857
 30
0.000000
  0
VERTEX
  8
LAYER-2
 10
25.862835
 20
20.877063
 30
0.000000
  0
SEQEND
  8
LAYER-2
  0
POLYLINE
  8
LAYER-2
 66
  1
 70
  0
 62
  7
 10
25.742948
 20
20.867892
 30
0.000000
  0
VERTEX
  8
LAYER-2
 10
25.742948
 20
20.867892
 30
0.000000
  0
VERTEX
  8
LAYER-2
 10
25.764810
 20
20.879686
 30
0.000000
  0
SEQEND
  8
LAYER-2
  0
POLYLINE
  8
LAYER-2
 66
  1
 70
  0
 62
  7
 10
25.742948
 20
20.867892
 30
0.000000
  0
VERTEX
  8
LAYER-2
 10
25.742948
 20
20.867892
 30
0.000000
  0
VERTEX
  8
LAYER-2
 10
25.764810
 20
20.856093
 30
0.000000
  0
SEQEND
  8
LAYER-2
  0
POLYLINE
  8
LAYER-2
 66
  1
 70
  0
 62
  7
 10
25.862835
 20
20.900656
 30
0.000000
  0
VERTEX
  8
LAYER-2
 10
25.862835
 20
20.900656
 30
0.000000
  0
VERTEX
  8
LAYER-2
 10
25.764810
 20
20.879686
 30
0.000000
  0
SEQEND
  8
LAYER-2
  0
POLYLINE
  8
LAYER-2
 66
  1
 70
  0
 62
  7
 10
25.884705
 20
20.888857
 30
0.000000
  0
VERTEX
  8
LAYER-2
 10
25.884705
 20
20.888857
 30
0.000000
  0
VERTEX
  8
LAYER-2
 10
25.742948
 20
20.867892
 30
0.000000
  0
SEQEND
  8
LAYER-2
  0
POLYLINE
  8
LAYER-2
 66
  1
 70
  0
 62
  7
 10
25.884705
 20
20.912168
 30
0.000000
  0
VERTEX
  8
LAYER-2
 10
25.884705
 20
20.912168
 30
0.000000
  0
VERTEX
  8
LAYER-2
 10
25.862835
 20
20.923967
 30
0.000000
  0
SEQEND
  8
LAYER-2
  0
POLYLINE
  8
LAYER-2
 66
  1
 70
  0
 62
  7
 10
25.884705
 20
20.912168
 30
0.000000
  0
VERTEX
  8
LAYER-2
 10
25.884705
 20
20.912168
 30
0.000000
  0
VERTEX
  8
LAYER-2
 10
25.862835
 20
20.900374
 30
0.000000
  0
SEQEND
  8
LAYER-2
  0
POLYLINE
  8
LAYER-2
 66
  1
 70
  0
 62
  7
 10
25.742948
 20
20.891202
 30
0.000000
  0
VERTEX
  8
LAYER-2
 10
25.742948
 20
20.891202
 30
0.000000
  0
VERTEX
  8
LAYER-2
 10
25.764810
 20
20.902996
 30
0.000000
  0
SEQEND
  8
LAYER-2
  0
POLYLINE
  8
LAYER-2
 66
  1
 70
  0
 62
  7
 10
25.742948
 20
20.891202
 30
0.000000
  0
VERTEX
  8
LAYER-2
 10
25.742948
 20
20.891202
 30
0.000000
  0
VERTEX
  8
LAYER-2
 10
25.764810
 20
20.879402
 30
0.000000
  0
SEQEND
  8
LAYER-2
  0
POLYLINE
  8
LAYER-2
 66
  1
 70
  0
 62
  7
 10
25.862835
 20
20.923967
 30
0.000000
  0
VERTEX
  8
LAYER-2
 10
25.862835
 20
20.923967
 30
0.000000
  0
VERTEX
  8
LAYER-2
 10
25.764810
 20
20.902996
 30
0.000000
  0
SEQEND
  8
LAYER-2
  0
POLYLINE
  8
LAYER-2
 66
  1
 70
  0
 62
  7
 10
25.884705
 20
20.912168
 30
0.000000
  0
VERTEX
  8
LAYER-2
 10
25.884705
 20
20.912168
 30
0.000000
  0
VERTEX
  8
LAYER-2
 10
25.742948
 20
20.891202
 30
0.000000
  0
SEQEND
  8
LAYER-2
  0
POLYLINE
  8
LAYER-2
 66
  1
 70
  0
 62
  7
 10
25.958123
 20
20.923835
 30
0.000000
  0
VERTEX
  8
LAYER-2
 10
25.958123
 20
20.923835
 30
0.000000
  0
VERTEX
  8
LAYER-2
 10
25.676366
 20
20.923835
 30
0.000000
  0
SEQEND
  8
LAYER-2
  0
POLYLINE
  8
LAYER-2
 66
  1
 70
  0
 62
  7
 10
25.958123
 20
20.939108
 30
0.000000
  0
VERTEX
  8
LAYER-2
 10
25.958123
 20
20.939108
 30
0.000000
  0
VERTEX
  8
LAYER-2
 10
25.676366
 20
20.939108
 30
0.000000
  0
SEQEND
  8
LAYER-2
  0
POLYLINE
  8
LAYER-2
 66
  1
 70
  0
 62
  7
 10
25.864873
 20
20.994328
 30
0.000000
  0
VERTEX
  8
LAYER-2
 10
25.864873
 20
20.994328
 30
0.000000
  0
VERTEX
  8
LAYER-2
 10
25.769707
 20
20.994328
 30
0.000000
  0
SEQEND
  8
LAYER-2
  0
POLYLINE
  8
LAYER-2
 66
  1
 70
  0
 62
  7
 10
25.958123
 20
20.939110
 30
0.000000
  0
VERTEX
  8
LAYER-2
 10
25.958123
 20
20.939110
 30
0.000000
  0
VERTEX
  8
LAYER-2
 10
25.922382
 20
20.975372
 30
0.000000
  0
VERTEX
  8
LAYER-2
 10
25.878059
 20
20.994134
 30
0.000000
  0
VERTEX
  8
LAYER-2
 10
25.864873
 20
20.994333
 30
0.000000
  0
SEQEND
  8
LAYER-2
  0
POLYLINE
  8
LAYER-2
 66
  1
 70
  0
 62
  7
 10
25.769707
 20
20.994335
 30
0.000000
  0
VERTEX
  8
LAYER-2
 10
25.769707
 20
20.994335
 30
0.000000
  0
VERTEX
  8
LAYER-2
 10
25.713693
 20
20.976290
 30
0.000000
  0
VERTEX
  8
LAYER-2
 10
25.676366
 20
20.939113
 30
0.000000
  0
SEQEND
  8
LAYER-2
  0
POLYLINE
  8
LAYER-2
 66
  1
 70
  0
 62
  7
 10
25.958123
 20
20.923833
 30
0.000000
  0
VERTEX
  8
LAYER-2
 10
25.958123
 20
20.923833
 30
0.000000
  0
VERTEX
  8
LAYER-2
 10
25.957381
 20
20.928734
 30
0.000000
  0
VERTEX
  8
LAYER-2
 10
25.958005
 20
20.931850
 30
0.000000
  0
VERTEX
  8
LAYER-2
 10
25.958005
 20
20.935030
 30
0.000000
  0
VERTEX
  8
LAYER-2
 10
25.957381
 20
20.938146
 30
0.000000
  0
VERTEX
  8
LAYER-2
 10
25.956158
 20
20.941078
 30
0.000000
  0
VERTEX
  8
LAYER-2
 10
25.958123
 20
20.939108
 30
0.000000
  0
SEQEND
  8
LAYER-2
  0
POLYLINE
  8
LAYER-2
 66
  1
 70
  0
 62
  7
 10
25.676366
 20
20.939108
 30
0.000000
  0
VERTEX
  8
LAYER-2
 10
25.676366
 20
20.939108
 30
0.000000
  0
VERTEX
  8
LAYER-2
 10
25.671612
 20
20.928587
 30
0.000000
  0
VERTEX
  8
LAYER-2
 10
25.676366
 20
20.923833
 30
0.000000
  0
SEQEND
  8
LAYER-2
  0
POLYLINE
  8
LAYER-2
 66
  1
 70
  0
 62
  7
 10
25.764810
 20
20.902996
 30
0.000000
  0
VERTEX
  8
LAYER-2
 10
25.764810
 20
20.902996
 30
0.000000
  0
VERTEX
  8
LAYER-2
 10
25.764810
 20
20.923835
 30
0.000000
  0
SEQEND
  8
LAYER-2
  0
POLYLINE
  8
LAYER-2
 66
  1
 70
  1
 62
  7
  0
VERTEX
  8
LAYER-2
 10
25.660142
 20
20.924204
 30
0.000000
  0
VERTEX
  8
LAYER-2
 10
25.972173
 20
20.924204
 30
0.000000
  0
VERTEX
  8
LAYER-2
 10
25.972173
 20
20.890449
 30
0.000000
  0
VERTEX
  8
LAYER-2
 10
25.660142
 20
20.890449
 30
0.000000
  0
SEQEND
  8
LAYER-2
  0
POLYLINE
  8
LAYER-2
 66
  1
 70
  0
 62
  7
 10
27.240826
 20
16.833998
 30
0.000000
  0
VERTEX
  8
LAYER-2
 10
27.240826
 20
16.833998
 30
0.000000
  0
VERTEX
  8
LAYER-2
 10
27.240826
 20
15.693958
 30
0.000000
  0
SEQEND
  8
LAYER-2
  0
POLYLINE
  8
LAYER-2
 66
  1
 70
  0
 62
  7
 10
27.052997
 20
15.693958
 30
0.000000
  0
VERTEX
  8
LAYER-2
 10
27.052997
 20
15.693958
 30
0.000000
  0
VERTEX
  8
LAYER-2
 10
27.052997
 20
16.833998
 30
0.000000
  0
SEQEND
  8
LAYER-2
  0
POLYLINE
  8
LAYER-2
 66
  1
 70
  0
 62
  7
 10
27.053788
 20
15.689747
 30
0.000000
  0
VERTEX
  8
LAYER-2
 10
27.053788
 20
15.689747
 30
0.000000
  0
VERTEX
  8
LAYER-2
 10
27.091356
 20
15.365758
 30
0.000000
  0
VERTEX
  8
LAYER-2
 10
27.193721
 20
15.053777
 30
0.000000
  0
VERTEX
  8
LAYER-2
 10
27.354985
 20
14.767764
 30
0.000000
  0
VERTEX
  8
LAYER-2
 10
27.357741
 20
14.764667
 30
0.000000
  0
SEQEND
  8
LAYER-2
  0
POLYLINE
  8
LAYER-2
 66
  1
 70
  0
 62
  7
 10
27.240826
 20
15.693960
 30
0.000000
  0
VERTEX
  8
LAYER-2
 10
27.240826
 20
15.693960
 30
0.000000
  0
VERTEX
  8
LAYER-2
 10
27.273973
 20
15.406381
 30
0.000000
  0
VERTEX
  8
LAYER-2
 10
27.364903
 20
15.129249
 30
0.000000
  0
VERTEX
  8
LAYER-2
 10
27.508153
 20
14.875183
 30
0.000000
  0
VERTEX
  8
LAYER-2
 10
27.510827
 20
14.872209
 30
0.000000
  0
SEQEND
  8
LAYER-2
  0
POLYLINE
  8
LAYER-2
 66
  1
 70
  0
 62
  7
 10
25.207372
 20
11.913980
 30
0.000000
  0
VERTEX
  8
LAYER-2
 10
25.207372
 20
11.913980
 30
0.000000
  0
VERTEX
  8
LAYER-2
 10
23.781968
 20
12.623298
 30
0.000000
  0
SEQEND
  8
LAYER-2
  0
POLYLINE
  8
LAYER-2
 66
  1
 70
  1
 62
  7
  0
VERTEX
  8
LAYER-2
 10
25.224997
 20
11.905212
 30
0.000000
  0
VERTEX
  8
LAYER-2
 10
25.104234
 20
12.094189
 30
0.000000
  0
VERTEX
  8
LAYER-2
 10
25.052828
 20
11.990887
 30
0.000000
  0
VERTEX
  8
LAYER-2
 10
25.001423
 20
11.887585
 30
0.000000
  0
VERTEX
  8
LAYER-2
 10
25.224997
 20
11.905212
 30
0.000000
  0
SEQEND
  8
LAYER-2
  0
POLYLINE
  8
LAYER-2
 66
  1
 70
  0
 62
  7
 10
22.909515
 20
12.301352
 30
0.000000
  0
VERTEX
  8
LAYER-2
 10
22.909515
 20
12.301352
 30
0.000000
  0
VERTEX
  8
LAYER-2
 10
22.529048
 20
12.496880
 30
0.000000
  0
SEQEND
  8
LAYER-2
  0
POLYLINE
  8
LAYER-2
 66
  1
 70
  0
 62
  7
 10
22.529048
 20
12.496880
 30
0.000000
  0
VERTEX
  8
LAYER-2
 10
22.529048
 20
12.496880
 30
0.000000
  0
VERTEX
  8
LAYER-2
 10
18.985368
 20
5.601077
 30
0.000000
  0
SEQEND
  8
LAYER-2
  0
POLYLINE
  8
LAYER-2
 66
  1
 70
  0
 62
  7
 10
18.629263
 20
5.299053
 30
0.000000
  0
VERTEX
  8
LAYER-2
 10
18.629263
 20
5.299053
 30
0.000000
  0
VERTEX
  8
LAYER-2
 10
18.737030
 20
5.348569
 30
0.000000
  0
VERTEX
  8
LAYER-2
 10
18.835381
 20
5.416614
 30
0.000000
  0
VERTEX
  8
LAYER-2
 10
18.918570
 20
5.502538
 30
0.000000
  0
VERTEX
  8
LAYER-2
 10
18.985361
 20
5.601070
 30
0.000000
  0
SEQEND
  8
LAYER-2
  0
POLYLINE
  8
LAYER-2
 66
  1
 70
  0
 62
  7
 10
22.909515
 20
12.301352
 30
0.000000
  0
VERTEX
  8
LAYER-2
 10
22.909515
 20
12.301352
 30
0.000000
  0
VERTEX
  8
LAYER-2
 10
19.311594
 20
5.299988
 30
0.000000
  0
SEQEND
  8
LAYER-2
  0
POLYLINE
  8
LAYER-2
 66
  1
 70
  0
 62
  7
 10
18.873052
 20
4.928061
 30
0.000000
  0
VERTEX
  8
LAYER-2
 10
18.873052
 20
4.928061
 30
0.000000
  0
VERTEX
  8
LAYER-2
 10
19.006226
 20
4.988584
 30
0.000000
  0
VERTEX
  8
LAYER-2
 10
19.127350
 20
5.072381
 30
0.000000
  0
VERTEX
  8
LAYER-2
 10
19.229795
 20
5.178199
 30
0.000000
  0
VERTEX
  8
LAYER-2
 10
19.311599
 20
5.300000
 30
0.000000
  0
SEQEND
  8
LAYER-2
  0
POLYLINE
  8
LAYER-2
 66
  1
 70
  0
 62
  7
 10
14.018774
 20
3.818643
 30
0.000000
  0
VERTEX
  8
LAYER-2
 10
14.018774
 20
3.818643
 30
0.000000
  0
VERTEX
  8
LAYER-2
 10
18.629261
 20
5.299065
 30
0.000000
  0
SEQEND
  8
LAYER-2
  0
POLYLINE
  8
LAYER-2
 66
  1
 70
  0
 62
  7
 10
14.018757
 20
3.818632
 30
0.000000
  0
VERTEX
  8
LAYER-2
 10
14.018757
 20
3.818632
 30
0.000000
  0
VERTEX
  8
LAYER-2
 10
13.881646
 20
3.762045
 30
0.000000
  0
VERTEX
  8
LAYER-2
 10
13.760524
 20
3.678248
 30
0.000000
  0
VERTEX
  8
LAYER-2
 10
13.658078
 20
3.572430
 30
0.000000
  0
VERTEX
  8
LAYER-2
 10
13.580211
 20
3.446693
 30
0.000000
  0
SEQEND
  8
LAYER-2
  0
POLYLINE
  8
LAYER-2
 66
  1
 70
  0
 62
  7
 10
18.873056
 20
4.928049
 30
0.000000
  0
VERTEX
  8
LAYER-2
 10
18.873056
 20
4.928049
 30
0.000000
  0
VERTEX
  8
LAYER-2
 10
14.262550
 20
3.447641
 30
0.000000
  0
SEQEND
  8
LAYER-2
  0
POLYLINE
  8
LAYER-2
 66
  1
 70
  0
 62
  7
 10
14.262526
 20
3.447622
 30
0.000000
  0
VERTEX
  8
LAYER-2
 10
14.262526
 20
3.447622
 30
0.000000
  0
VERTEX
  8
LAYER-2
 10
14.150821
 20
3.402043
 30
0.000000
  0
VERTEX
  8
LAYER-2
 10
14.052470
 20
3.333998
 30
0.000000
  0
VERTEX
  8
LAYER-2
 10
13.969283
 20
3.248077
 30
0.000000
  0
VERTEX
  8
LAYER-2
 10
13.904457
 20
3.147574
 30
0.000000
  0
VERTEX
  8
LAYER-2
 10
13.906425
 20
3.145606
 30
0.000000
  0
SEQEND
  8
LAYER-2
  0
POLYLINE
  8
LAYER-2
 66
  1
 70
  1
 62
  7
  0
VERTEX
  8
LAYER-2
 10
13.215859
 20
2.972933
 30
0.000000
  0
VERTEX
  8
LAYER-2
 10
13.792239
 20
2.676734
 30
0.000000
  0
VERTEX
  8
LAYER-2
 10
12.419064
 20
0.004611
 30
0.000000
  0
VERTEX
  8
LAYER-2
 10
11.842680
 20
0.300809
 30
0.000000
  0
SEQEND
  8
LAYER-2
  0
POLYLINE
  8
LAYER-2
 66
  1
 70
  0
 62
  7
 10
13.311945
 20
2.924664
 30
0.000000
  0
VERTEX
  8
LAYER-2
 10
13.311945
 20
2.924664
 30
0.000000
  0
VERTEX
  8
LAYER-2
 10
13.580239
 20
3.446705
 30
0.000000
  0
SEQEND
  8
LAYER-2
  0
POLYLINE
  8
LAYER-2
 66
  1
 70
  0
 62
  7
 10
13.692409
 20
2.729140
 30
0.000000
  0
VERTEX
  8
LAYER-2
 10
13.692409
 20
2.729140
 30
0.000000
  0
VERTEX
  8
LAYER-2
 10
13.951829
 20
3.233943
 30
0.000000
  0
SEQEND
  8
LAYER-2
  0
POLYLINE
  8
LAYER-2
 66
  1
 70
  1
 62
  7
  0
VERTEX
  8
LAYER-2
 10
20.585456
 20
8.967489
 30
0.000000
  0
VERTEX
  8
LAYER-2
 10
21.161814
 20
8.671305
 30
0.000000
  0
VERTEX
  8
LAYER-2
 10
19.788654
 20
5.999223
 30
0.000000
  0
VERTEX
  8
LAYER-2
 10
19.212297
 20
6.295401
 30
0.000000
  0
SEQEND
  8
LAYER-2
  0
POLYLINE
  8
LAYER-2
 66
  1
 70
  0
 62
  7
 10
16.643084
 20
3.747178
 30
0.000000
  0
VERTEX
  8
LAYER-2
 10
16.643084
 20
3.747178
 30
0.000000
  0
VERTEX
  8
LAYER-2
 10
16.702517
 20
3.558390
 30
0.000000
  0
VERTEX
  8
LAYER-2
 10
16.775948
 20
3.405053
 30
0.000000
  0
VERTEX
  8
LAYER-2
 10
16.858587
 20
3.295020
 30
0.000000
  0
VERTEX
  8
LAYER-2
 10
16.947254
 20
3.232530
 30
0.000000
  0
VERTEX
  8
LAYER-2
 10
17.038547
 20
3.219971
 30
0.000000
  0
VERTEX
  8
LAYER-2
 10
17.128954
 20
3.257834
 30
0.000000
  0
VERTEX
  8
LAYER-2
 10
17.215003
 20
3.344663
 30
0.000000
  0
VERTEX
  8
LAYER-2
 10
17.293385
 20
3.477124
 30
0.000000
  0
VERTEX
  8
LAYER-2
 10
17.361090
 20
3.650121
 30
0.000000
  0
VERTEX
  8
LAYER-2
 10
17.415516
 20
3.857009
 30
0.000000
  0
VERTEX
  8
LAYER-2
 10
17.454569
 20
4.089834
 30
0.000000
  0
VERTEX
  8
LAYER-2
 10
17.476749
 20
4.339654
 30
0.000000
  0
VERTEX
  8
LAYER-2
 10
17.481207
 20
4.596867
 30
0.000000
  0
VERTEX
  8
LAYER-2
 10
17.467768
 20
4.851586
 30
0.000000
  0
VERTEX
  8
LAYER-2
 10
17.436948
 20
5.094022
 30
0.000000
  0
VERTEX
  8
LAYER-2
 10
17.389935
 20
5.314859
 30
0.000000
  0
VERTEX
  8
LAYER-2
 10
17.328532
 20
5.505618
 30
0.000000
  0
VERTEX
  8
LAYER-2
 10
17.255102
 20
5.658952
 30
0.000000
  0
VERTEX
  8
LAYER-2
 10
17.172463
 20
5.768984
 30
0.000000
  0
VERTEX
  8
LAYER-2
 10
17.083797
 20
5.831477
 30
0.000000
  0
VERTEX
  8
LAYER-2
 10
16.992503
 20
5.844034
 30
0.000000
  0
VERTEX
  8
LAYER-2
 10
16.902096
 20
5.806171
 30
0.000000
  0
VERTEX
  8
LAYER-2
 10
16.816047
 20
5.719342
 30
0.000000
  0
VERTEX
  8
LAYER-2
 10
16.737664
 20
5.586884
 30
0.000000
  0
VERTEX
  8
LAYER-2
 10
16.669961
 20
5.413884
 30
0.000000
  0
VERTEX
  8
LAYER-2
 10
16.624214
 20
5.235636
 30
0.000000
  0
SEQEND
  8
LAYER-2
  0
POLYLINE
  8
LAYER-2
 66
  1
 70
  1
 62
  7
 10
16.624228
 20
5.235629
 30
0.000000
  0
VERTEX
  8
LAYER-2
 10
16.624228
 20
5.235629
 30
0.000000
  0
VERTEX
  8
LAYER-2
 10
16.792092
 20
5.356478
 30
0.000000
  0
VERTEX
  8
LAYER-2
 10
16.611795
 20
5.656994
 30
0.000000
  0
SEQEND
  8
LAYER-2
  0
POLYLINE
  8
LAYER-2
 66
  1
 70
  1
 62
  7
 10
16.624228
 20
3.838874
 30
0.000000
  0
VERTEX
  8
LAYER-2
 10
16.624228
 20
3.838874
 30
0.000000
  0
VERTEX
  8
LAYER-2
 10
16.792092
 20
3.718027
 30
0.000000
  0
VERTEX
  8
LAYER-2
 10
16.611795
 20
3.417506
 30
0.000000
  0
SEQEND
  8
LAYER-2
  0
POLYLINE
  8
LAYER-2
 66
  1
 70
  0
 62
  7
 10
22.648684
 20
13.344499
 30
0.000000
  0
VERTEX
  8
LAYER-2
 10
22.648684
 20
13.344499
 30
0.000000
  0
VERTEX
  8
LAYER-2
 10
22.609403
 20
12.663173
 30
0.000000
  0
SEQEND
  8
LAYER-2
  0
POLYLINE
  8
LAYER-2
 66
  1
 70
  0
 62
  7
 10
22.719837
 20
13.738528
 30
0.000000
  0
VERTEX
  8
LAYER-2
 10
22.719837
 20
13.738528
 30
0.000000
  0
VERTEX
  8
LAYER-2
 10
22.662983
 20
13.548091
 30
0.000000
  0
VERTEX
  8
LAYER-2
 10
22.646689
 20
13.348677
 30
0.000000
  0
VERTEX
  8
LAYER-2
 10
22.648696
 20
13.344497
 30
0.000000
  0
SEQEND
  8
LAYER-2
  0
POLYLINE
  8
LAYER-2
 66
  1
 70
  0
 62
  7
 10
23.326207
 20
14.492803
 30
0.000000
  0
VERTEX
  8
LAYER-2
 10
23.326207
 20
14.492803
 30
0.000000
  0
VERTEX
  8
LAYER-2
 10
23.118997
 20
14.354161
 30
0.000000
  0
VERTEX
  8
LAYER-2
 10
22.945132
 20
14.176216
 30
0.000000
  0
VERTEX
  8
LAYER-2
 10
22.809324
 20
13.967766
 30
0.000000
  0
VERTEX
  8
LAYER-2
 10
22.719830
 20
13.738528
 30
0.000000
  0
SEQEND
  8
LAYER-2
  0
POLYLINE
  8
LAYER-2
 66
  1
 70
  0
 62
  7
 10
23.829055
 20
14.374493
 30
0.000000
  0
VERTEX
  8
LAYER-2
 10
23.829055
 20
14.374493
 30
0.000000
  0
VERTEX
  8
LAYER-2
 10
23.689892
 20
14.482072
 30
0.000000
  0
VERTEX
  8
LAYER-2
 10
23.522724
 20
14.527140
 30
0.000000
  0
VERTEX
  8
LAYER-2
 10
23.351037
 20
14.504805
 30
0.000000
  0
VERTEX
  8
LAYER-2
 10
23.326207
 20
14.492812
 30
0.000000
  0
SEQEND
  8
LAYER-2
  0
POLYLINE
  8
LAYER-2
 66
  1
 70
  0
 62
  7
 10
24.006531
 20
13.856851
 30
0.000000
  0
VERTEX
  8
LAYER-2
 10
24.006531
 20
13.856851
 30
0.000000
  0
VERTEX
  8
LAYER-2
 10
24.003589
 20
13.990042
 30
0.000000
  0
VERTEX
  8
LAYER-2
 10
23.977037
 20
14.118554
 30
0.000000
  0
VERTEX
  8
LAYER-2
 10
23.925922
 20
14.239415
 30
0.000000
  0
VERTEX
  8
LAYER-2
 10
23.852210
 20
14.347983
 30
0.000000
  0
VERTEX
  8
LAYER-2
 10
23.829055
 20
14.374488
 30
0.000000
  0
SEQEND
  8
LAYER-2
  0
POLYLINE
  8
LAYER-2
 66
  1
 70
  0
 62
  7
 10
23.927586
 20
13.398858
 30
0.000000
  0
VERTEX
  8
LAYER-2
 10
23.927586
 20
13.398858
 30
0.000000
  0
VERTEX
  8
LAYER-2
 10
24.006526
 20
13.856851
 30
0.000000
  0
SEQEND
  8
LAYER-2
  0
POLYLINE
  8
LAYER-2
 66
  1
 70
  0
 62
  7
 10
23.750723
 20
12.958759
 30
0.000000
  0
VERTEX
  8
LAYER-2
 10
23.750723
 20
12.958759
 30
0.000000
  0
VERTEX
  8
LAYER-2
 10
23.927586
 20
13.398858
 30
0.000000
  0
SEQEND
  8
LAYER-2
  0
POLYLINE
  8
LAYER-2
 66
  1
 70
  0
 62
  7
 10
23.750723
 20
12.958759
 30
0.000000
  0
VERTEX
  8
LAYER-2
 10
23.750723
 20
12.958759
 30
0.000000
  0
VERTEX
  8
LAYER-2
 10
23.628432
 20
12.973008
 30
0.000000
  0
SEQEND
  8
LAYER-2
  0
POLYLINE
  8
LAYER-2
 66
  1
 70
  0
 62
  7
 10
23.628432
 20
12.973008
 30
0.000000
  0
VERTEX
  8
LAYER-2
 10
23.628432
 20
12.973008
 30
0.000000
  0
VERTEX
  8
LAYER-2
 10
23.624390
 20
13.434169
 30
0.000000
  0
SEQEND
  8
LAYER-2
  0
POLYLINE
  8
LAYER-2
 66
  1
 70
  0
 62
  7
 10
23.624390
 20
13.434169
 30
0.000000
  0
VERTEX
  8
LAYER-2
 10
23.624390
 20
13.434169
 30
0.000000
  0
VERTEX
  8
LAYER-2
 10
23.687542
 20
13.780447
 30
0.000000
  0
SEQEND
  8
LAYER-2
  0
POLYLINE
  8
LAYER-2
 66
  1
 70
  0
 62
  7
 10
23.687547
 20
13.780450
 30
0.000000
  0
VERTEX
  8
LAYER-2
 10
23.687547
 20
13.780450
 30
0.000000
  0
VERTEX
  8
LAYER-2
 10
23.691876
 20
13.976283
 30
0.000000
  0
VERTEX
  8
LAYER-2
 10
23.651576
 20
14.108276
 30
0.000000
  0
SEQEND
  8
LAYER-2
  0
POLYLINE
  8
LAYER-2
 66
  1
 70
  0
 62
  7
 10
23.651576
 20
14.108281
 30
0.000000
  0
VERTEX
  8
LAYER-2
 10
23.651576
 20
14.108281
 30
0.000000
  0
VERTEX
  8
LAYER-2
 10
23.621324
 20
14.156912
 30
0.000000
  0
VERTEX
  8
LAYER-2
 10
23.577336
 20
14.189197
 30
0.000000
  0
VERTEX
  8
LAYER-2
 10
23.524344
 20
14.202193
 30
0.000000
  0
VERTEX
  8
LAYER-2
 10
23.470412
 20
14.193918
 30
0.000000
  0
VERTEX
  8
LAYER-2
 10
23.423751
 20
14.165635
 30
0.000000
  0
VERTEX
  8
LAYER-2
 10
23.414940
 20
14.152649
 30
0.000000
  0
SEQEND
  8
LAYER-2
  0
POLYLINE
  8
LAYER-2
 66
  1
 70
  0
 62
  7
 10
23.414933
 20
14.152642
 30
0.000000
  0
VERTEX
  8
LAYER-2
 10
23.414933
 20
14.152642
 30
0.000000
  0
VERTEX
  8
LAYER-2
 10
23.207388
 20
13.913459
 30
0.000000
  0
VERTEX
  8
LAYER-2
 10
23.052809
 20
13.636834
 30
0.000000
  0
VERTEX
  8
LAYER-2
 10
23.030403
 20
13.575846
 30
0.000000
  0
SEQEND
  8
LAYER-2
  0
POLYLINE
  8
LAYER-2
 66
  1
 70
  0
 62
  7
 10
23.030407
 20
13.575846
 30
0.000000
  0
VERTEX
  8
LAYER-2
 10
23.030407
 20
13.575846
 30
0.000000
  0
VERTEX
  8
LAYER-2
 10
22.985997
 20
13.426490
 30
0.000000
  0
VERTEX
  8
LAYER-2
 10
22.975769
 20
13.273067
 30
0.000000
  0
SEQEND
  8
LAYER-2
  0
POLYLINE
  8
LAYER-2
 66
  1
 70
  0
 62
  7
 10
22.975767
 20
13.273064
 30
0.000000
  0
VERTEX
  8
LAYER-2
 10
22.975767
 20
13.273064
 30
0.000000
  0
VERTEX
  8
LAYER-2
 10
22.942909
 20
12.623962
 30
0.000000
  0
SEQEND
  8
LAYER-2
  0
POLYLINE
  8
LAYER-2
 66
  1
 70
  0
 62
  7
 10
22.872343
 20
12.305676
 30
0.000000
  0
VERTEX
  8
LAYER-2
 10
22.872343
 20
12.305676
 30
0.000000
  0
VERTEX
  8
LAYER-2
 10
22.918969
 20
12.443730
 30
0.000000
  0
VERTEX
  8
LAYER-2
 10
22.940078
 20
12.586684
 30
0.000000
  0
VERTEX
  8
LAYER-2
 10
22.942904
 20
12.623962
 30
0.000000
  0
SEQEND
  8
LAYER-2
  0
POLYLINE
  8
LAYER-2
 66
  1
 70
  0
 62
  7
 10
22.872343
 20
12.305673
 30
0.000000
  0
VERTEX
  8
LAYER-2
 10
22.872343
 20
12.305673
 30
0.000000
  0
VERTEX
  8
LAYER-2
 10
22.579867
 20
12.455956
 30
0.000000
  0
SEQEND
  8
LAYER-2
  0
POLYLINE
  8
LAYER-2
 66
  1
 70
  0
 62
  7
 10
22.579874
 20
12.455958
 30
0.000000
  0
VERTEX
  8
LAYER-2
 10
22.579874
 20
12.455958
 30
0.000000
  0
VERTEX
  8
LAYER-2
 10
22.603976
 20
12.585386
 30
0.000000
  0
VERTEX
  8
LAYER-2
 10
22.609408
 20
12.663175
 30
0.000000
  0
SEQEND
  8
LAYER-2
  0
POLYLINE
  8
LAYER-2
 66
  1
 70
  1
 62
  7
 10
23.414940
 20
14.152647
 30
0.000000
  0
VERTEX
  8
LAYER-2
 10
23.414940
 20
14.152647
 30
0.000000
  0
VERTEX
  8
LAYER-2
 10
23.651576
 20
14.108276
 30
0.000000
  0
VERTEX
  8
LAYER-2
 10
23.687542
 20
13.780447
 30
0.000000
  0
SEQEND
  8
LAYER-2
  0
LINE
  8
LAYER-2
 62
  7
 10
22.400405
 20
9.825686
 30
0.000000
 11
20.814317
 21
11.137773
 31
0.000000
  0
LINE
  8
LAYER-2
 62
  7
 10
22.599595
 20
10.066474
 30
0.000000
 11
21.013508
 21
11.378559
 31
0.000000
  0
TEXT
  8
LAYER-2
 62
  7
 10
0.115385
 20
9.061462
 30
0.000000
 40
0.576923
  1
ContrÖles:
 72
  5
 11
4.153846
 21
9.061462
 31
0.000000
  0
POLYLINE
  8
LAYER-2
 66
  1
 70
  1
 62
  7
  0
VERTEX
  8
LAYER-2
 10
1.269231
 20
5.023006
 30
0.000000
  0
VERTEX
  8
LAYER-2
 10
4.019231
 20
5.023006
 30
0.000000
  0
VERTEX
  8
LAYER-2
 10
4.019231
 20
0.523006
 30
0.000000
  0
VERTEX
  8
LAYER-2
 10
1.269231
 20
0.523006
 30
0.000000
  0
SEQEND
  8
LAYER-2
  0
POLYLINE
  8
LAYER-2
 66
  1
 70
  1
 62
253
  0
VERTEX
  8
LAYER-2
 10
1.394231
 20
4.898006
 30
0.000000
  0
VERTEX
  8
LAYER-2
 10
3.894231
 20
4.898006
 30
0.000000
  0
VERTEX
  8
LAYER-2
 10
3.894231
 20
0.648006
 30
0.000000
  0
VERTEX
  8
LAYER-2
 10
1.394231
 20
0.648006
 30
0.000000
  0
SEQEND
  8
LAYER-2
  0
POLYLINE
  8
LAYER-2
 66
  1
 70
  0
 62
  7
 10
2.070572
 20
4.085499
 30
0.000000
  0
VERTEX
  8
LAYER-2
 10
2.070572
 20
4.085499
 30
0.000000
  0
VERTEX
  8
LAYER-2
 10
3.208966
 20
4.085499
 30
0.000000
  0
SEQEND
  8
LAYER-2
  0
POLYLINE
  8
LAYER-2
 66
  1
 70
  0
 62
  7
 10
3.296020
 20
3.998446
 30
0.000000
  0
VERTEX
  8
LAYER-2
 10
3.296020
 20
3.998446
 30
0.000000
  0
VERTEX
  8
LAYER-2
 10
3.296020
 20
1.547551
 30
0.000000
  0
SEQEND
  8
LAYER-2
  0
POLYLINE
  8
LAYER-2
 66
  1
 70
  0
 62
  7
 10
3.208966
 20
1.460496
 30
0.000000
  0
VERTEX
  8
LAYER-2
 10
3.208966
 20
1.460496
 30
0.000000
  0
VERTEX
  8
LAYER-2
 10
2.070572
 20
1.460496
 30
0.000000
  0
SEQEND
  8
LAYER-2
  0
POLYLINE
  8
LAYER-2
 66
  1
 70
  0
 62
  7
 10
1.983519
 20
1.547551
 30
0.000000
  0
VERTEX
  8
LAYER-2
 10
1.983519
 20
1.547551
 30
0.000000
  0
VERTEX
  8
LAYER-2
 10
1.983519
 20
3.998446
 30
0.000000
  0
SEQEND
  8
LAYER-2
  0
ARC
  8
LAYER-2
 62
  7
 10
2.070572
 20
3.998446
 30
0.000000
 40
0.087053
 50
90.000000
 51
180.000000
  0
ARC
  8
LAYER-2
 62
  7
 10
2.070572
 20
1.547551
 30
0.000000
 40
0.087053
 50
180.000000
 51
270.000000
  0
ARC
  8
LAYER-2
 62
  7
 10
3.208966
 20
1.547551
 30
0.000000
 40
0.087053
 50
270.000000
 51
0.000000
  0
ARC
  8
LAYER-2
 62
  7
 10
3.208966
 20
3.998446
 30
0.000000
 40
0.087053
 50
0.000000
 51
90.000000
  0
POLYLINE
  8
LAYER-2
 66
  1
 70
  0
 62
  7
 10
2.097677
 20
4.058716
 30
0.000000
  0
VERTEX
  8
LAYER-2
 10
2.097677
 20
4.058716
 30
0.000000
  0
VERTEX
  8
LAYER-2
 10
3.181862
 20
4.058716
 30
0.000000
  0
SEQEND
  8
LAYER-2
  0
POLYLINE
  8
LAYER-2
 66
  1
 70
  0
 62
  7
 10
3.264770
 20
3.975809
 30
0.000000
  0
VERTEX
  8
LAYER-2
 10
3.264770
 20
3.975809
 30
0.000000
  0
VERTEX
  8
LAYER-2
 10
3.264770
 20
1.570195
 30
0.000000
  0
SEQEND
  8
LAYER-2
  0
POLYLINE
  8
LAYER-2
 66
  1
 70
  0
 62
  7
 10
3.181862
 20
1.487291
 30
0.000000
  0
VERTEX
  8
LAYER-2
 10
3.181862
 20
1.487291
 30
0.000000
  0
VERTEX
  8
LAYER-2
 10
2.097677
 20
1.487291
 30
0.000000
  0
SEQEND
  8
LAYER-2
  0
POLYLINE
  8
LAYER-2
 66
  1
 70
  0
 62
  7
 10
2.014769
 20
1.570195
 30
0.000000
  0
VERTEX
  8
LAYER-2
 10
2.014769
 20
1.570195
 30
0.000000
  0
VERTEX
  8
LAYER-2
 10
2.014769
 20
3.975809
 30
0.000000
  0
SEQEND
  8
LAYER-2
  0
ARC
  8
LAYER-2
 62
  7
 10
2.097677
 20
3.975809
 30
0.000000
 40
0.082908
 50
90.000000
 51
180.000000
  0
ARC
  8
LAYER-2
 62
  7
 10
2.097677
 20
1.570195
 30
0.000000
 40
0.082908
 50
180.000000
 51
270.000000
  0
ARC
  8
LAYER-2
 62
  7
 10
3.181862
 20
1.570195
 30
0.000000
 40
0.082908
 50
270.000000
 51
0.000000
  0
ARC
  8
LAYER-2
 62
  7
 10
3.181862
 20
3.975809
 30
0.000000
 40
0.082908
 50
0.000000
 51
90.000000
  0
POLYLINE
  8
LAYER-2
 66
  1
 70
  0
 62
  7
 10
2.166869
 20
3.978361
 30
0.000000
  0
VERTEX
  8
LAYER-2
 10
2.166869
 20
3.978361
 30
0.000000
  0
VERTEX
  8
LAYER-2
 10
3.103740
 20
3.978361
 30
0.000000
  0
SEQEND
  8
LAYER-2
  0
POLYLINE
  8
LAYER-2
 66
  1
 70
  0
 62
  7
 10
3.166556
 20
3.915546
 30
0.000000
  0
VERTEX
  8
LAYER-2
 10
3.166556
 20
3.915546
 30
0.000000
  0
VERTEX
  8
LAYER-2
 10
3.166556
 20
1.648315
 30
0.000000
  0
SEQEND
  8
LAYER-2
  0
POLYLINE
  8
LAYER-2
 66
  1
 70
  0
 62
  7
 10
3.103740
 20
1.585496
 30
0.000000
  0
VERTEX
  8
LAYER-2
 10
3.103740
 20
1.585496
 30
0.000000
  0
VERTEX
  8
LAYER-2
 10
2.166869
 20
1.585496
 30
0.000000
  0
SEQEND
  8
LAYER-2
  0
POLYLINE
  8
LAYER-2
 66
  1
 70
  0
 62
  7
 10
2.104054
 20
1.648315
 30
0.000000
  0
VERTEX
  8
LAYER-2
 10
2.104054
 20
1.648315
 30
0.000000
  0
VERTEX
  8
LAYER-2
 10
2.104054
 20
3.915546
 30
0.000000
  0
SEQEND
  8
LAYER-2
  0
ARC
  8
LAYER-2
 62
  7
 10
2.166869
 20
3.915546
 30
0.000000
 40
0.062815
 50
90.000000
 51
180.000000
  0
ARC
  8
LAYER-2
 62
  7
 10
2.166869
 20
1.648315
 30
0.000000
 40
0.062815
 50
180.000000
 51
270.000000
  0
ARC
  8
LAYER-2
 62
  7
 10
3.103740
 20
1.648315
 30
0.000000
 40
0.062815
 50
270.000000
 51
0.000000
  0
ARC
  8
LAYER-2
 62
  7
 10
3.103740
 20
3.915546
 30
0.000000
 40
0.062815
 50
0.000000
 51
90.000000
  0
POLYLINE
  8
LAYER-2
 66
  1
 70
  0
 62
  7
 10
2.173563
 20
3.960506
 30
0.000000
  0
VERTEX
  8
LAYER-2
 10
2.173563
 20
3.960506
 30
0.000000
  0
VERTEX
  8
LAYER-2
 10
3.088115
 20
3.960506
 30
0.000000
  0
SEQEND
  8
LAYER-2
  0
POLYLINE
  8
LAYER-2
 66
  1
 70
  0
 62
  7
 10
3.139769
 20
3.908851
 30
0.000000
  0
VERTEX
  8
LAYER-2
 10
3.139769
 20
3.908851
 30
0.000000
  0
VERTEX
  8
LAYER-2
 10
3.139769
 20
1.663936
 30
0.000000
  0
SEQEND
  8
LAYER-2
  0
POLYLINE
  8
LAYER-2
 66
  1
 70
  0
 62
  7
 10
3.088115
 20
1.612281
 30
0.000000
  0
VERTEX
  8
LAYER-2
 10
3.088115
 20
1.612281
 30
0.000000
  0
VERTEX
  8
LAYER-2
 10
2.173563
 20
1.612281
 30
0.000000
  0
SEQEND
  8
LAYER-2
  0
POLYLINE
  8
LAYER-2
 66
  1
 70
  0
 62
  7
 10
2.121909
 20
1.663936
 30
0.000000
  0
VERTEX
  8
LAYER-2
 10
2.121909
 20
1.663936
 30
0.000000
  0
VERTEX
  8
LAYER-2
 10
2.121909
 20
3.908851
 30
0.000000
  0
SEQEND
  8
LAYER-2
  0
ARC
  8
LAYER-2
 62
  7
 10
2.173563
 20
3.908851
 30
0.000000
 40
0.051655
 50
90.000000
 51
180.000000
  0
ARC
  8
LAYER-2
 62
  7
 10
2.173563
 20
1.663936
 30
0.000000
 40
0.051655
 50
180.000000
 51
270.000000
  0
ARC
  8
LAYER-2
 62
  7
 10
3.088115
 20
1.663936
 30
0.000000
 40
0.051655
 50
270.000000
 51
0.000000
  0
ARC
  8
LAYER-2
 62
  7
 10
3.088115
 20
3.908851
 30
0.000000
 40
0.051655
 50
0.000000
 51
90.000000
  0
POLYLINE
  8
LAYER-2
 66
  1
 70
  0
 62
253
 10
2.126372
 20
2.773006
 30
0.000000
  0
VERTEX
  8
LAYER-2
 10
2.126372
 20
2.773006
 30
0.000000
  0
VERTEX
  8
LAYER-2
 10
3.144229
 20
2.773006
 30
0.000000
  0
SEQEND
  8
LAYER-2
  0
POLYLINE
  8
LAYER-2
 66
  1
 70
  0
 62
253
 10
3.894231
 20
4.898006
 30
0.000000
  0
VERTEX
  8
LAYER-2
 10
3.894231
 20
4.898006
 30
0.000000
  0
VERTEX
  8
LAYER-2
 10
4.019231
 20
5.023006
 30
0.000000
  0
SEQEND
  8
LAYER-2
  0
POLYLINE
  8
LAYER-2
 66
  1
 70
  0
 62
253
 10
1.394231
 20
4.898006
 30
0.000000
  0
VERTEX
  8
LAYER-2
 10
1.394231
 20
4.898006
 30
0.000000
  0
VERTEX
  8
LAYER-2
 10
1.269231
 20
5.023006
 30
0.000000
  0
SEQEND
  8
LAYER-2
  0
POLYLINE
  8
LAYER-2
 66
  1
 70
  0
 62
253
 10
1.394231
 20
0.648006
 30
0.000000
  0
VERTEX
  8
LAYER-2
 10
1.394231
 20
0.648006
 30
0.000000
  0
VERTEX
  8
LAYER-2
 10
1.269231
 20
0.523006
 30
0.000000
  0
SEQEND
  8
LAYER-2
  0
POLYLINE
  8
LAYER-2
 66
  1
 70
  0
 62
253
 10
3.894231
 20
0.648006
 30
0.000000
  0
VERTEX
  8
LAYER-2
 10
3.894231
 20
0.648006
 30
0.000000
  0
VERTEX
  8
LAYER-2
 10
4.019231
 20
0.523006
 30
0.000000
  0
SEQEND
  8
LAYER-2
  0
CIRCLE
  8
LAYER-2
 62
  7
 10
2.644229
 20
4.710506
 30
0.000000
 40
0.125000
  0
CIRCLE
  8
LAYER-2
 62
  7
 10
2.644229
 20
0.835496
 30
0.000000
 40
0.125000
  0
POLYLINE
  8
LAYER-2
 66
  1
 70
  0
 62
  7
 10
2.644229
 20
4.835506
 30
0.000000
  0
VERTEX
  8
LAYER-2
 10
2.644229
 20
4.835506
 30
0.000000
  0
VERTEX
  8
LAYER-2
 10
2.644229
 20
4.585506
 30
0.000000
  0
SEQEND
  8
LAYER-2
  0
POLYLINE
  8
LAYER-2
 66
  1
 70
  0
 62
  7
 10
2.644229
 20
0.960496
 30
0.000000
  0
VERTEX
  8
LAYER-2
 10
2.644229
 20
0.960496
 30
0.000000
  0
VERTEX
  8
LAYER-2
 10
2.644229
 20
0.710496
 30
0.000000
  0
SEQEND
  8
LAYER-2
  0
TEXT
  8
LAYER-2
 62
  7
 10
0.153846
 20
7.946078
 30
0.000000
 40
0.490385
  1
Interrupteur ê bascule
 72
  5
 11
6.500000
 21
7.946078
 31
0.000000
  0
TEXT
  8
LAYER-2
 62
  7
 10
0.153846
 20
7.176847
 30
0.000000
 40
0.490385
  1
et pression constante
 72
  5
 11
6.307693
 21
7.176847
 31
0.000000
  0
TEXT
  8
LAYER-2
 62
  7
 10
0.153846
 20
6.407616
 30
0.000000
 40
0.490385
  1
blanc (standard)
 72
  5
 11
4.923077
 21
6.407616
 31
0.000000
  0
TEXT
  8
LAYER-2
 62
  7
 10
0.153846
 20
5.638385
 30
0.000000
 40
0.490385
  1
(optionnel: ê clÄ)
 72
  5
 11
5.153846
 21
5.638385
 31
0.000000
  0
TEXT
  8
LAYER-2
 62
  7
 10
7.500000
 20
6.446078
 30
0.000000
 40
0.490385
  1
TÄlÄcommande
 72
  5
 11
11.923077
 21
6.446078
 31
0.000000
  0
TEXT
  8
LAYER-2
 62
  7
 10
6.115385
 20
2.676847
 30
0.000000
 40
0.490385
  1
OU
 72
  5
 11
7.269231
 21
2.676847
 31
0.000000
  0
POLYLINE
  8
LAYER-2
 66
  1
 70
  0
 62
  7
 10
9.079795
 20
5.628484
 30
0.000000
  0
VERTEX
  8
LAYER-2
 10
9.079795
 20
5.628484
 30
0.000000
  0
VERTEX
  8
LAYER-2
 10
10.221527
 20
5.628484
 30
0.000000
  0
SEQEND
  8
LAYER-2
  0
POLYLINE
  8
LAYER-2
 66
  1
 70
  0
 62
  7
 10
10.536488
 20
5.313521
 30
0.000000
  0
VERTEX
  8
LAYER-2
 10
10.536488
 20
5.313521
 30
0.000000
  0
VERTEX
  8
LAYER-2
 10
10.536488
 20
0.825331
 30
0.000000
  0
SEQEND
  8
LAYER-2
  0
POLYLINE
  8
LAYER-2
 66
  1
 70
  0
 62
  7
 10
10.221527
 20
0.510371
 30
0.000000
  0
VERTEX
  8
LAYER-2
 10
10.221527
 20
0.510371
 30
0.000000
  0
VERTEX
  8
LAYER-2
 10
9.079795
 20
0.510371
 30
0.000000
  0
SEQEND
  8
LAYER-2
  0
POLYLINE
  8
LAYER-2
 66
  1
 70
  0
 62
  7
 10
8.764835
 20
0.825331
 30
0.000000
  0
VERTEX
  8
LAYER-2
 10
8.764835
 20
0.825331
 30
0.000000
  0
VERTEX
  8
LAYER-2
 10
8.764835
 20
5.313521
 30
0.000000
  0
SEQEND
  8
LAYER-2
  0
ARC
  8
LAYER-2
 62
  7
 10
9.079795
 20
5.313521
 30
0.000000
 40
0.314961
 50
90.000000
 51
180.000000
  0
ARC
  8
LAYER-2
 62
  7
 10
9.079795
 20
0.825331
 30
0.000000
 40
0.314961
 50
180.000000
 51
270.000000
  0
ARC
  8
LAYER-2
 62
  7
 10
10.221527
 20
0.825331
 30
0.000000
 40
0.314961
 50
270.000000
 51
0.000000
  0
ARC
  8
LAYER-2
 62
  7
 10
10.221527
 20
5.313521
 30
0.000000
 40
0.314961
 50
0.000000
 51
90.000000
  0
POLYLINE
  8
LAYER-2
 66
  1
 70
  0
 62
  7
 10
9.079795
 20
5.589114
 30
0.000000
  0
VERTEX
  8
LAYER-2
 10
9.079795
 20
5.589114
 30
0.000000
  0
VERTEX
  8
LAYER-2
 10
10.221527
 20
5.589114
 30
0.000000
  0
SEQEND
  8
LAYER-2
  0
POLYLINE
  8
LAYER-2
 66
  1
 70
  0
 62
  7
 10
10.497118
 20
5.313521
 30
0.000000
  0
VERTEX
  8
LAYER-2
 10
10.497118
 20
5.313521
 30
0.000000
  0
VERTEX
  8
LAYER-2
 10
10.497118
 20
0.825331
 30
0.000000
  0
SEQEND
  8
LAYER-2
  0
POLYLINE
  8
LAYER-2
 66
  1
 70
  0
 62
  7
 10
10.221527
 20
0.549744
 30
0.000000
  0
VERTEX
  8
LAYER-2
 10
10.221527
 20
0.549744
 30
0.000000
  0
VERTEX
  8
LAYER-2
 10
9.079795
 20
0.549744
 30
0.000000
  0
SEQEND
  8
LAYER-2
  0
POLYLINE
  8
LAYER-2
 66
  1
 70
  0
 62
  7
 10
8.804205
 20
0.825331
 30
0.000000
  0
VERTEX
  8
LAYER-2
 10
8.804205
 20
0.825331
 30
0.000000
  0
VERTEX
  8
LAYER-2
 10
8.804205
 20
5.313521
 30
0.000000
  0
SEQEND
  8
LAYER-2
  0
ARC
  8
LAYER-2
 62
  7
 10
9.079795
 20
5.313521
 30
0.000000
 40
0.275591
 50
90.000000
 51
180.000000
  0
ARC
  8
LAYER-2
 62
  7
 10
9.079795
 20
0.825331
 30
0.000000
 40
0.275591
 50
180.000000
 51
270.000000
  0
ARC
  8
LAYER-2
 62
  7
 10
10.221527
 20
0.825331
 30
0.000000
 40
0.275591
 50
270.000000
 51
0.000000
  0
ARC
  8
LAYER-2
 62
  7
 10
10.221527
 20
5.313521
 30
0.000000
 40
0.275591
 50
0.000000
 51
90.000000
  0
POLYLINE
  8
LAYER-2
 66
  1
 70
  1
 62
  7
  0
VERTEX
  8
LAYER-2
 10
8.961685
 20
5.313521
 30
0.000000
  0
VERTEX
  8
LAYER-2
 10
10.339638
 20
5.313521
 30
0.000000
  0
VERTEX
  8
LAYER-2
 10
10.339638
 20
4.289901
 30
0.000000
  0
VERTEX
  8
LAYER-2
 10
8.961685
 20
4.289901
 30
0.000000
  0
SEQEND
  8
LAYER-2
  0
POLYLINE
  8
LAYER-2
 66
  1
 70
  1
 62
  7
  0
VERTEX
  8
LAYER-2
 10
8.961685
 20
4.132420
 30
0.000000
  0
VERTEX
  8
LAYER-2
 10
10.339638
 20
4.132420
 30
0.000000
  0
VERTEX
  8
LAYER-2
 10
10.339638
 20
4.112734
 30
0.000000
  0
VERTEX
  8
LAYER-2
 10
8.961685
 20
4.112734
 30
0.000000
  0
SEQEND
  8
LAYER-2
  0
POLYLINE
  8
LAYER-2
 66
  1
 70
  1
 62
  7
  0
VERTEX
  8
LAYER-2
 10
8.961685
 20
3.593050
 30
0.000000
  0
VERTEX
  8
LAYER-2
 10
10.339638
 20
3.593050
 30
0.000000
  0
VERTEX
  8
LAYER-2
 10
10.339638
 20
3.573364
 30
0.000000
  0
VERTEX
  8
LAYER-2
 10
8.961685
 20
3.573364
 30
0.000000
  0
SEQEND
  8
LAYER-2
  0
POLYLINE
  8
LAYER-2
 66
  1
 70
  1
 62
  7
  0
VERTEX
  8
LAYER-2
 10
8.961685
 20
3.053678
 30
0.000000
  0
VERTEX
  8
LAYER-2
 10
10.339638
 20
3.053678
 30
0.000000
  0
VERTEX
  8
LAYER-2
 10
10.339638
 20
3.033997
 30
0.000000
  0
VERTEX
  8
LAYER-2
 10
8.961685
 20
3.033997
 30
0.000000
  0
SEQEND
  8
LAYER-2
  0
POLYLINE
  8
LAYER-2
 66
  1
 70
  1
 62
  7
  0
VERTEX
  8
LAYER-2
 10
8.961685
 20
2.514310
 30
0.000000
  0
VERTEX
  8
LAYER-2
 10
10.339638
 20
2.514310
 30
0.000000
  0
VERTEX
  8
LAYER-2
 10
10.339638
 20
2.494624
 30
0.000000
  0
VERTEX
  8
LAYER-2
 10
8.961685
 20
2.494624
 30
0.000000
  0
SEQEND
  8
LAYER-2
  0
POLYLINE
  8
LAYER-2
 66
  1
 70
  1
 62
  7
  0
VERTEX
  8
LAYER-2
 10
8.961685
 20
1.974938
 30
0.000000
  0
VERTEX
  8
LAYER-2
 10
10.339638
 20
1.974938
 30
0.000000
  0
VERTEX
  8
LAYER-2
 10
10.339638
 20
1.955252
 30
0.000000
  0
VERTEX
  8
LAYER-2
 10
8.961685
 20
1.955252
 30
0.000000
  0
SEQEND
  8
LAYER-2
  0
POLYLINE
  8
LAYER-2
 66
  1
 70
  1
 62
  7
  0
VERTEX
  8
LAYER-2
 10
9.640819
 20
1.955252
 30
0.000000
  0
VERTEX
  8
LAYER-2
 10
9.640819
 20
2.494624
 30
0.000000
  0
VERTEX
  8
LAYER-2
 10
9.660504
 20
2.494624
 30
0.000000
  0
VERTEX
  8
LAYER-2
 10
9.660504
 20
1.955252
 30
0.000000
  0
SEQEND
  8
LAYER-2
  0
POLYLINE
  8
LAYER-2
 66
  1
 70
  1
 62
253
  0
VERTEX
  8
LAYER-2
 10
9.571922
 20
3.320958
 30
0.000000
  0
VERTEX
  8
LAYER-2
 10
9.729402
 20
3.320958
 30
0.000000
  0
VERTEX
  8
LAYER-2
 10
9.729402
 20
3.305209
 30
0.000000
  0
VERTEX
  8
LAYER-2
 10
9.571922
 20
3.305209
 30
0.000000
  0
SEQEND
  8
LAYER-2
  0
POLYLINE
  8
LAYER-2
 66
  1
 70
  1
 62
253
  0
VERTEX
  8
LAYER-2
 10
9.571106
 20
3.832707
 30
0.000000
  0
VERTEX
  8
LAYER-2
 10
9.651042
 20
3.886165
 30
0.000000
  0
VERTEX
  8
LAYER-2
 10
9.659798
 20
3.873077
 30
0.000000
  0
VERTEX
  8
LAYER-2
 10
9.579861
 20
3.819615
 30
0.000000
  0
SEQEND
  8
LAYER-2
  0
POLYLINE
  8
LAYER-2
 66
  1
 70
  1
 62
253
  0
VERTEX
  8
LAYER-2
 10
9.651219
 20
3.886165
 30
0.000000
  0
VERTEX
  8
LAYER-2
 10
9.731155
 20
3.832707
 30
0.000000
  0
VERTEX
  8
LAYER-2
 10
9.722400
 20
3.819615
 30
0.000000
  0
VERTEX
  8
LAYER-2
 10
9.642464
 20
3.873077
 30
0.000000
  0
SEQEND
  8
LAYER-2
  0
POLYLINE
  8
LAYER-2
 66
  1
 70
  1
 62
253
  0
VERTEX
  8
LAYER-2
 10
9.651042
 20
2.740878
 30
0.000000
  0
VERTEX
  8
LAYER-2
 10
9.571106
 20
2.794335
 30
0.000000
  0
VERTEX
  8
LAYER-2
 10
9.579861
 20
2.807429
 30
0.000000
  0
VERTEX
  8
LAYER-2
 10
9.659798
 20
2.753967
 30
0.000000
  0
SEQEND
  8
LAYER-2
  0
POLYLINE
  8
LAYER-2
 66
  1
 70
  1
 62
253
  0
VERTEX
  8
LAYER-2
 10
9.731155
 20
2.794335
 30
0.000000
  0
VERTEX
  8
LAYER-2
 10
9.651219
 20
2.740878
 30
0.000000
  0
VERTEX
  8
LAYER-2
 10
9.642464
 20
2.753967
 30
0.000000
  0
VERTEX
  8
LAYER-2
 10
9.722400
 20
2.807429
 30
0.000000
  0
SEQEND
  8
LAYER-2
  0
POLYLINE
  8
LAYER-2
 66
  1
 70
  1
 62
253
  0
VERTEX
  8
LAYER-2
 10
9.211995
 20
2.154579
 30
0.000000
  0
VERTEX
  8
LAYER-2
 10
9.158535
 20
2.234521
 30
0.000000
  0
VERTEX
  8
LAYER-2
 10
9.171627
 20
2.243277
 30
0.000000
  0
VERTEX
  8
LAYER-2
 10
9.225086
 20
2.163339
 30
0.000000
  0
SEQEND
  8
LAYER-2
  0
POLYLINE
  8
LAYER-2
 66
  1
 70
  1
 62
253
  0
VERTEX
  8
LAYER-2
 10
9.158535
 20
2.234694
 30
0.000000
  0
VERTEX
  8
LAYER-2
 10
9.211995
 20
2.314627
 30
0.000000
  0
VERTEX
  8
LAYER-2
 10
9.225086
 20
2.305880
 30
0.000000
  0
VERTEX
  8
LAYER-2
 10
9.171627
 20
2.225938
 30
0.000000
  0
SEQEND
  8
LAYER-2
  0
POLYLINE
  8
LAYER-2
 66
  1
 70
  1
 62
253
  0
VERTEX
  8
LAYER-2
 10
10.142045
 20
2.234521
 30
0.000000
  0
VERTEX
  8
LAYER-2
 10
10.088588
 20
2.154579
 30
0.000000
  0
VERTEX
  8
LAYER-2
 10
10.075497
 20
2.163339
 30
0.000000
  0
VERTEX
  8
LAYER-2
 10
10.128954
 20
2.243277
 30
0.000000
  0
SEQEND
  8
LAYER-2
  0
POLYLINE
  8
LAYER-2
 66
  1
 70
  1
 62
253
  0
VERTEX
  8
LAYER-2
 10
10.088588
 20
2.314627
 30
0.000000
  0
VERTEX
  8
LAYER-2
 10
10.142045
 20
2.234694
 30
0.000000
  0
VERTEX
  8
LAYER-2
 10
10.128954
 20
2.225938
 30
0.000000
  0
VERTEX
  8
LAYER-2
 10
10.075497
 20
2.305880
 30
0.000000
  0
SEQEND
  8
LAYER-2
  0
ENDSEC
  0
EOF
