  0
SECTION
  2
HEADER
999
MacDraft 5.0\0
  9
$ACADVER
  1
AC1006
  9
$CLAYER
  8
LAYER-2
  9
$EXTMIN
 10
0.000000
 20
0.000000
  9
$EXTMAX
 10
7.312180
 20
9.999317
  9
$FASTZOOM
 70
0
  9
$FILLMODE
 70
1
  0
ENDSEC
  0
SECTION
  2
TABLES
  0
TABLE
  2
LTYPE
 70
16
  0
LTYPE
  2
CONTINUOUS
 70
64
  3
Solid Line
 72
65
 73
0
 40
0.000000
  0
LTYPE
  2
LTYPE01
 70
64
  3
CUSTOM
 72
65
 73
2
 40
0.076923
 49
0.057692
 49
-0.019231
  0
LTYPE
  2
LTYPE02
 70
64
  3
CUSTOM
 72
65
 73
2
 40
0.134615
 49
0.115385
 49
-0.019231
  0
LTYPE
  2
LTYPE03
 70
64
  3
CUSTOM
 72
65
 73
2
 40
0.259615
 49
0.230769
 49
-0.028846
  0
LTYPE
  2
LTYPE04
 70
64
  3
CUSTOM
 72
65
 73
2
 40
0.500000
 49
0.461538
 49
-0.038462
  0
LTYPE
  2
LTYPE05
 70
64
  3
CUSTOM
 72
65
 73
4
 40
0.105769
 49
0.057692
 49
-0.019231
 49
0.009615
 49
-0.019231
  0
LTYPE
  2
LTYPE06
 70
64
  3
CUSTOM
 72
65
 73
4
 40
0.163462
 49
0.115385
 49
-0.019231
 49
0.009615
 49
-0.019231
  0
LTYPE
  2
LTYPE07
 70
64
  3
CUSTOM
 72
65
 73
4
 40
0.307692
 49
0.230769
 49
-0.028846
 49
0.019231
 49
-0.028846
  0
LTYPE
  2
LTYPE08
 70
64
  3
CUSTOM
 72
65
 73
4
 40
0.557692
 49
0.461538
 49
-0.038462
 49
0.019231
 49
-0.038462
  0
LTYPE
  2
LTYPE09
 70
64
  3
CUSTOM
 72
65
 73
6
 40
0.134615
 49
0.057692
 49
-0.019231
 49
0.009615
 49
-0.019231
 49
0.009615
 49
-0.019231
  0
LTYPE
  2
LTYPE10
 70
64
  3
CUSTOM
 72
65
 73
6
 40
0.192308
 49
0.115385
 49
-0.019231
 49
0.009615
 49
-0.019231
 49
0.009615
 49
-0.019231
  0
LTYPE
  2
LTYPE11
 70
64
  3
CUSTOM
 72
65
 73
6
 40
0.346154
 49
0.230769
 49
-0.028846
 49
0.019231
 49
-0.019231
 49
0.019231
 49
-0.028846
  0
LTYPE
  2
LTYPE12
 70
64
  3
CUSTOM
 72
65
 73
6
 40
0.596154
 49
0.461538
 49
-0.038462
 49
0.019231
 49
-0.019231
 49
0.019231
 49
-0.038462
  0
LTYPE
  2
LTYPE13
 70
64
  3
CUSTOM
 72
65
 73
8
 40
0.221154
 49
0.115385
 49
-0.019231
 49
0.009615
 49
-0.019231
 49
0.009615
 49
-0.019231
 49
0.009615
 49
-0.019231
  0
LTYPE
  2
LTYPE14
 70
64
  3
CUSTOM
 72
65
 73
8
 40
0.384615
 49
0.230769
 49
-0.028846
 49
0.019231
 49
-0.019231
 49
0.019231
 49
-0.019231
 49
0.019231
 49
-0.028846
  0
LTYPE
  2
LTYPE15
 70
64
  3
CUSTOM
 72
65
 73
8
 40
0.653846
 49
0.461538
 49
-0.038462
 49
0.019231
 49
-0.028846
 49
0.019231
 49
-0.028846
 49
0.019231
 49
-0.038462
  0
ENDTAB
  0
TABLE
  2
LAYER
 70
1
  0
LAYER
  2
LAYER-2
 70
0
 62
7
  6
CONTINUOUS
  0
ENDTAB
  0
ENDSEC
  0
SECTION
  2
BLOCKS
  0
ENDSEC
  0
SECTION
  2
ENTITIES
  0
ARC
  8
LAYER-2
 62
  7
 10
62.272430
 20
107.403555
 30
0.000000
 40
2.986555
 50
270.000000
 51
90.000000
  0
POLYLINE
  8
LAYER-2
 66
  1
 70
  0
 62
  7
 10
62.272430
 20
110.390153
 30
0.000000
  0
VERTEX
  8
LAYER-2
 10
62.272430
 20
110.390153
 30
0.000000
  0
VERTEX
  8
LAYER-2
 10
19.251970
 20
110.390153
 30
0.000000
  0
SEQEND
  8
LAYER-2
  0
POLYLINE
  8
LAYER-2
 66
  1
 70
  0
 62
  7
 10
19.251970
 20
110.390153
 30
0.000000
  0
VERTEX
  8
LAYER-2
 10
19.251970
 20
110.390153
 30
0.000000
  0
VERTEX
  8
LAYER-2
 10
19.251970
 20
104.417049
 30
0.000000
  0
SEQEND
  8
LAYER-2
  0
POLYLINE
  8
LAYER-2
 66
  1
 70
  0
 62
  7
 10
62.272430
 20
104.417049
 30
0.000000
  0
VERTEX
  8
LAYER-2
 10
62.272430
 20
104.417049
 30
0.000000
  0
VERTEX
  8
LAYER-2
 10
19.251970
 20
104.417049
 30
0.000000
  0
SEQEND
  8
LAYER-2
  0
TEXT
  8
LAYER-2
 62
  7
 10
40.275640
 20
114.109004
 30
0.000000
 40
3.807692
  1
MobilFlex
 72
  5
 11
64.737179
 21
114.109004
 31
0.000000
  0
POLYLINE
  8
LAYER-2
 66
  1
 70
  1
 62
  7
  0
VERTEX
  8
LAYER-2
 10
19.269615
 20
119.977957
 30
0.000000
  0
VERTEX
  8
LAYER-2
 10
22.061607
 20
119.977957
 30
0.000000
  0
VERTEX
  8
LAYER-2
 10
22.061607
 20
113.909898
 30
0.000000
  0
VERTEX
  8
LAYER-2
 10
19.269615
 20
113.909898
 30
0.000000
  0
SEQEND
  8
LAYER-2
  0
POLYLINE
  8
LAYER-2
 66
  1
 70
  1
 62
  7
  0
VERTEX
  8
LAYER-2
 10
22.937876
 20
119.977957
 30
0.000000
  0
VERTEX
  8
LAYER-2
 10
25.729885
 20
119.977957
 30
0.000000
  0
VERTEX
  8
LAYER-2
 10
25.729885
 20
113.909898
 30
0.000000
  0
VERTEX
  8
LAYER-2
 10
22.937876
 20
113.909898
 30
0.000000
  0
SEQEND
  8
LAYER-2
  0
POLYLINE
  8
LAYER-2
 66
  1
 70
  1
 62
  7
  0
VERTEX
  8
LAYER-2
 10
26.463540
 20
119.977957
 30
0.000000
  0
VERTEX
  8
LAYER-2
 10
29.255479
 20
119.977957
 30
0.000000
  0
VERTEX
  8
LAYER-2
 10
29.255479
 20
113.909898
 30
0.000000
  0
VERTEX
  8
LAYER-2
 10
26.463540
 20
113.909898
 30
0.000000
  0
SEQEND
  8
LAYER-2
  0
POLYLINE
  8
LAYER-2
 66
  1
 70
  1
 62
  7
  0
VERTEX
  8
LAYER-2
 10
30.029892
 20
119.977957
 30
0.000000
  0
VERTEX
  8
LAYER-2
 10
32.821856
 20
119.977957
 30
0.000000
  0
VERTEX
  8
LAYER-2
 10
32.821856
 20
113.909898
 30
0.000000
  0
VERTEX
  8
LAYER-2
 10
30.029892
 20
113.909898
 30
0.000000
  0
SEQEND
  8
LAYER-2
  0
POLYLINE
  8
LAYER-2
 66
  1
 70
  1
 62
  7
  0
VERTEX
  8
LAYER-2
 10
33.749102
 20
119.932012
 30
0.000000
  0
VERTEX
  8
LAYER-2
 10
38.156120
 20
119.932012
 30
0.000000
  0
VERTEX
  8
LAYER-2
 10
38.156120
 20
118.311894
 30
0.000000
  0
VERTEX
  8
LAYER-2
 10
33.749102
 20
118.311894
 30
0.000000
  0
SEQEND
  8
LAYER-2
  0
POLYLINE
  8
LAYER-2
 66
  1
 70
  1
 62
  7
  0
VERTEX
  8
LAYER-2
 10
33.744010
 20
117.262327
 30
0.000000
  0
VERTEX
  8
LAYER-2
 10
37.361329
 20
117.262327
 30
0.000000
  0
VERTEX
  8
LAYER-2
 10
37.361329
 20
115.688063
 30
0.000000
  0
VERTEX
  8
LAYER-2
 10
33.744010
 20
115.688063
 30
0.000000
  0
SEQEND
  8
LAYER-2
  0
POLYLINE
  8
LAYER-2
 66
  1
 70
  1
 62
  7
  0
VERTEX
  8
LAYER-2
 10
19.269615
 20
112.916466
 30
0.000000
  0
VERTEX
  8
LAYER-2
 10
65.265543
 20
112.916466
 30
0.000000
  0
VERTEX
  8
LAYER-2
 10
65.265543
 20
112.407025
 30
0.000000
  0
VERTEX
  8
LAYER-2
 10
19.269615
 20
112.407025
 30
0.000000
  0
SEQEND
  8
LAYER-2
  0
POLYLINE
  8
LAYER-2
 66
  1
 70
  1
 62
  7
  0
VERTEX
  8
LAYER-2
 10
0.916667
 20
14.875425
 30
0.000000
  0
VERTEX
  8
LAYER-2
 10
84.149428
 20
14.875425
 30
0.000000
  0
VERTEX
  8
LAYER-2
 10
84.149428
 20
14.125425
 30
0.000000
  0
VERTEX
  8
LAYER-2
 10
0.916667
 20
14.125425
 30
0.000000
  0
SEQEND
  8
LAYER-2
  0
POLYLINE
  8
LAYER-2
 66
  1
 70
  1
 62
  7
  0
VERTEX
  8
LAYER-2
 10
54.958339
 20
15.182718
 30
0.000000
  0
VERTEX
  8
LAYER-2
 10
78.916647
 20
15.182718
 30
0.000000
  0
VERTEX
  8
LAYER-2
 10
78.916647
 20
13.974384
 30
0.000000
  0
VERTEX
  8
LAYER-2
 10
54.958339
 20
13.974384
 30
0.000000
  0
SEQEND
  8
LAYER-2
  0
POLYLINE
  8
LAYER-2
 66
  1
 70
  1
 62
  7
  0
VERTEX
  8
LAYER-2
 10
6.124999
 20
15.141062
 30
0.000000
  0
VERTEX
  8
LAYER-2
 10
30.083331
 20
15.141062
 30
0.000000
  0
VERTEX
  8
LAYER-2
 10
30.083331
 20
13.932720
 30
0.000000
  0
VERTEX
  8
LAYER-2
 10
6.124999
 20
13.932720
 30
0.000000
  0
SEQEND
  8
LAYER-2
  0
LINE
  8
LAYER-2
 62
  7
 10
47.737737
 20
19.377009
 30
0.000000
 11
40.321060
 21
8.543687
 31
0.000000
  0
LINE
  8
LAYER-2
 62
  7
 10
45.262281
 20
21.071756
 30
0.000000
 11
37.845605
 21
10.238413
 31
0.000000
  0
LINE
  8
LAYER-2
 62
  7
 10
47.737737
 20
19.377009
 30
0.000000
 11
45.262281
 21
21.071756
 31
0.000000
  0
LINE
  8
LAYER-2
 62
  7
 10
40.321060
 20
8.543687
 30
0.000000
 11
37.845605
 21
10.238413
 31
0.000000
  0
POLYLINE
  8
LAYER-2
 66
  1
 70
  1
 62
  7
  0
VERTEX
  8
LAYER-2
 10
28.166759
 20
10.599405
 30
0.000000
  0
VERTEX
  8
LAYER-2
 10
56.833360
 20
10.599405
 30
0.000000
  0
VERTEX
  8
LAYER-2
 10
56.833360
 20
0.057692
 30
0.000000
  0
VERTEX
  8
LAYER-2
 10
28.166759
 20
0.057692
 30
0.000000
  0
SEQEND
  8
LAYER-2
  0
TEXT
  8
LAYER-2
 62
  7
 10
28.737179
 20
8.532081
 30
0.000000
 40
1.471154
  1
2x Panneaux d'accÅs 24" x 24"
 72
  5
 11
55.160256
 21
8.532081
 31
0.000000
  0
TEXT
  8
LAYER-2
 62
  7
 10
28.737179
 20
6.224389
 30
0.000000
 40
1.471154
  1
(610 x 610 mm) sont requis
 72
  5
 11
52.275640
 21
6.224389
 31
0.000000
  0
TEXT
  8
LAYER-2
 62
  7
 10
28.737179
 20
3.916696
 30
0.000000
 40
1.471154
  1
sous la roue de chargement
 72
  5
 11
52.737179
 21
3.916696
 31
0.000000
  0
TEXT
  8
LAYER-2
 62
  7
 10
28.737179
 20
1.609004
 30
0.000000
 40
1.471154
  1
et le moteur pour l'entretien
 72
  5
 11
52.044871
 21
1.609004
 31
0.000000
  0
POLYLINE
  8
LAYER-2
 66
  1
 70
  0
 62
  7
 10
6.111215
 20
16.056300
 30
0.000000
  0
VERTEX
  8
LAYER-2
 10
6.111215
 20
16.056300
 30
0.000000
  0
VERTEX
  8
LAYER-2
 10
6.111215
 20
14.132545
 30
0.000000
  0
SEQEND
  8
LAYER-2
  0
POLYLINE
  8
LAYER-2
 66
  1
 70
  0
 62
  7
 10
7.954972
 20
14.132545
 30
0.000000
  0
VERTEX
  8
LAYER-2
 10
7.954972
 20
14.132545
 30
0.000000
  0
VERTEX
  8
LAYER-2
 10
6.111215
 20
14.132545
 30
0.000000
  0
SEQEND
  8
LAYER-2
  0
POLYLINE
  8
LAYER-2
 66
  1
 70
  0
 62
  7
 10
30.118149
 20
16.027060
 30
0.000000
  0
VERTEX
  8
LAYER-2
 10
30.118149
 20
16.027060
 30
0.000000
  0
VERTEX
  8
LAYER-2
 10
30.118149
 20
14.132545
 30
0.000000
  0
SEQEND
  8
LAYER-2
  0
POLYLINE
  8
LAYER-2
 66
  1
 70
  0
 62
  7
 10
28.274386
 20
14.132545
 30
0.000000
  0
VERTEX
  8
LAYER-2
 10
28.274386
 20
14.132545
 30
0.000000
  0
VERTEX
  8
LAYER-2
 10
30.118149
 20
14.132545
 30
0.000000
  0
SEQEND
  8
LAYER-2
  0
POLYLINE
  8
LAYER-2
 66
  1
 70
  1
 62
  7
  0
VERTEX
  8
LAYER-2
 10
6.938548
 20
14.791703
 30
0.000000
  0
VERTEX
  8
LAYER-2
 10
29.212868
 20
14.791703
 30
0.000000
  0
VERTEX
  8
LAYER-2
 10
29.212868
 20
14.424978
 30
0.000000
  0
VERTEX
  8
LAYER-2
 10
6.938548
 20
14.424978
 30
0.000000
  0
SEQEND
  8
LAYER-2
  0
ARC
  8
LAYER-2
 62
  7
 10
68.197935
 20
29.378385
 30
0.000000
 40
0.562146
 50
244.773682
 51
295.226318
  0
POLYLINE
  8
LAYER-2
 66
  1
 70
  0
 62
  7
 10
68.477220
 20
28.812793
 30
0.000000
  0
VERTEX
  8
LAYER-2
 10
68.477220
 20
28.812793
 30
0.000000
  0
VERTEX
  8
LAYER-2
 10
68.394836
 20
28.893818
 30
0.000000
  0
VERTEX
  8
LAYER-2
 10
68.195970
 20
28.927375
 30
0.000000
  0
VERTEX
  8
LAYER-2
 10
67.997096
 20
28.893818
 30
0.000000
  0
VERTEX
  8
LAYER-2
 10
67.914720
 20
28.812793
 30
0.000000
  0
VERTEX
  8
LAYER-2
 10
67.997096
 20
28.731769
 30
0.000000
  0
VERTEX
  8
LAYER-2
 10
68.195970
 20
28.698212
 30
0.000000
  0
VERTEX
  8
LAYER-2
 10
68.394836
 20
28.731769
 30
0.000000
  0
VERTEX
  8
LAYER-2
 10
68.477220
 20
28.812793
 30
0.000000
  0
SEQEND
  8
LAYER-2
  0
POLYLINE
  8
LAYER-2
 66
  1
 70
  0
 62
  7
 10
68.916687
 20
28.503127
 30
0.000000
  0
VERTEX
  8
LAYER-2
 10
68.916687
 20
28.503127
 30
0.000000
  0
VERTEX
  8
LAYER-2
 10
66.916682
 20
28.503127
 30
0.000000
  0
SEQEND
  8
LAYER-2
  0
POLYLINE
  8
LAYER-2
 66
  1
 70
  0
 62
  7
 10
70.666682
 20
32.974379
 30
0.000000
  0
VERTEX
  8
LAYER-2
 10
70.666682
 20
32.974379
 30
0.000000
  0
VERTEX
  8
LAYER-2
 10
68.550842
 20
28.950144
 30
0.000000
  0
SEQEND
  8
LAYER-2
  0
POLYLINE
  8
LAYER-2
 66
  1
 70
  1
 62
  7
  0
VERTEX
  8
LAYER-2
 10
68.541687
 20
28.932720
 30
0.000000
  0
VERTEX
  8
LAYER-2
 10
68.503784
 20
29.604457
 30
0.000000
  0
VERTEX
  8
LAYER-2
 10
68.810169
 20
29.443366
 30
0.000000
  0
VERTEX
  8
LAYER-2
 10
69.116554
 20
29.282276
 30
0.000000
  0
VERTEX
  8
LAYER-2
 10
68.541687
 20
28.932720
 30
0.000000
  0
SEQEND
  8
LAYER-2
  0
POLYLINE
  8
LAYER-2
 66
  1
 70
  1
 62
  7
  0
VERTEX
  8
LAYER-2
 10
67.685817
 20
28.846626
 30
0.000000
  0
VERTEX
  8
LAYER-2
 10
68.735765
 20
28.846626
 30
0.000000
  0
VERTEX
  8
LAYER-2
 10
68.735765
 20
23.848699
 30
0.000000
  0
VERTEX
  8
LAYER-2
 10
67.685817
 20
23.848699
 30
0.000000
  0
SEQEND
  8
LAYER-2
  0
CIRCLE
  8
LAYER-2
 62
  7
 10
68.210794
 20
26.347715
 30
0.000000
 40
0.219241
  0
POLYLINE
  8
LAYER-2
 66
  1
 70
  0
 62
  7
 10
68.418809
 20
27.593825
 30
0.000000
  0
VERTEX
  8
LAYER-2
 10
68.418809
 20
27.593825
 30
0.000000
  0
VERTEX
  8
LAYER-2
 10
68.355765
 20
27.686624
 30
0.000000
  0
VERTEX
  8
LAYER-2
 10
68.203562
 20
27.725062
 30
0.000000
  0
VERTEX
  8
LAYER-2
 10
68.051366
 20
27.686624
 30
0.000000
  0
VERTEX
  8
LAYER-2
 10
67.988321
 20
27.593825
 30
0.000000
  0
VERTEX
  8
LAYER-2
 10
68.051366
 20
27.501019
 30
0.000000
  0
VERTEX
  8
LAYER-2
 10
68.203562
 20
27.462581
 30
0.000000
  0
VERTEX
  8
LAYER-2
 10
68.355765
 20
27.501019
 30
0.000000
  0
VERTEX
  8
LAYER-2
 10
68.418809
 20
27.593825
 30
0.000000
  0
SEQEND
  8
LAYER-2
  0
POLYLINE
  8
LAYER-2
 66
  1
 70
  0
 62
  7
 10
68.397822
 20
28.675352
 30
0.000000
  0
VERTEX
  8
LAYER-2
 10
68.397822
 20
28.675352
 30
0.000000
  0
VERTEX
  8
LAYER-2
 10
68.337855
 20
28.716184
 30
0.000000
  0
VERTEX
  8
LAYER-2
 10
68.193075
 20
28.733100
 30
0.000000
  0
VERTEX
  8
LAYER-2
 10
68.048295
 20
28.716184
 30
0.000000
  0
VERTEX
  8
LAYER-2
 10
67.988328
 20
28.675352
 30
0.000000
  0
VERTEX
  8
LAYER-2
 10
68.048295
 20
28.634519
 30
0.000000
  0
VERTEX
  8
LAYER-2
 10
68.193075
 20
28.617603
 30
0.000000
  0
VERTEX
  8
LAYER-2
 10
68.337855
 20
28.634519
 30
0.000000
  0
VERTEX
  8
LAYER-2
 10
68.397822
 20
28.675352
 30
0.000000
  0
SEQEND
  8
LAYER-2
  0
POLYLINE
  8
LAYER-2
 66
  1
 70
  0
 62
  7
 10
67.983060
 20
25.131697
 30
0.000000
  0
VERTEX
  8
LAYER-2
 10
67.983060
 20
25.131697
 30
0.000000
  0
VERTEX
  8
LAYER-2
 10
68.046105
 20
25.038898
 30
0.000000
  0
VERTEX
  8
LAYER-2
 10
68.198308
 20
25.000453
 30
0.000000
  0
VERTEX
  8
LAYER-2
 10
68.350504
 20
25.038898
 30
0.000000
  0
VERTEX
  8
LAYER-2
 10
68.413548
 20
25.131697
 30
0.000000
  0
VERTEX
  8
LAYER-2
 10
68.350504
 20
25.224504
 30
0.000000
  0
VERTEX
  8
LAYER-2
 10
68.198308
 20
25.262942
 30
0.000000
  0
VERTEX
  8
LAYER-2
 10
68.046105
 20
25.224504
 30
0.000000
  0
VERTEX
  8
LAYER-2
 10
67.983060
 20
25.131697
 30
0.000000
  0
SEQEND
  8
LAYER-2
  0
POLYLINE
  8
LAYER-2
 66
  1
 70
  0
 62
  7
 10
67.983067
 20
24.050192
 30
0.000000
  0
VERTEX
  8
LAYER-2
 10
67.983067
 20
24.050192
 30
0.000000
  0
VERTEX
  8
LAYER-2
 10
68.043042
 20
24.009360
 30
0.000000
  0
VERTEX
  8
LAYER-2
 10
68.187815
 20
23.992443
 30
0.000000
  0
VERTEX
  8
LAYER-2
 10
68.332595
 20
24.009360
 30
0.000000
  0
VERTEX
  8
LAYER-2
 10
68.392562
 20
24.050192
 30
0.000000
  0
VERTEX
  8
LAYER-2
 10
68.332595
 20
24.091025
 30
0.000000
  0
VERTEX
  8
LAYER-2
 10
68.187815
 20
24.107941
 30
0.000000
  0
VERTEX
  8
LAYER-2
 10
68.043042
 20
24.091025
 30
0.000000
  0
VERTEX
  8
LAYER-2
 10
67.983067
 20
24.050192
 30
0.000000
  0
SEQEND
  8
LAYER-2
  0
TEXT
  8
LAYER-2
 62
  7
 10
70.160256
 20
38.416696
 30
0.000000
 40
1.471154
  1
Roue de
 72
  5
 11
77.775640
 21
38.416696
 31
0.000000
  0
TEXT
  8
LAYER-2
 62
  7
 10
70.160256
 20
36.109004
 30
0.000000
 40
1.471154
  1
chargement
 72
  5
 11
80.660256
 21
36.109004
 31
0.000000
  0
TEXT
  8
LAYER-2
 62
  7
 10
70.160256
 20
33.801312
 30
0.000000
 40
1.471154
  1
extÄrieure
 72
  5
 11
79.044871
 21
33.801312
 31
0.000000
  0
POLYLINE
  8
LAYER-2
 66
  1
 70
  0
 62
  7
 10
67.041687
 20
30.480962
 30
0.000000
  0
VERTEX
  8
LAYER-2
 10
67.041687
 20
30.480962
 30
0.000000
  0
VERTEX
  8
LAYER-2
 10
67.041687
 20
29.230964
 30
0.000000
  0
SEQEND
  8
LAYER-2
  0
POLYLINE
  8
LAYER-2
 66
  1
 70
  0
 62
  7
 10
66.916682
 20
29.119868
 30
0.000000
  0
VERTEX
  8
LAYER-2
 10
66.916682
 20
29.119868
 30
0.000000
  0
VERTEX
  8
LAYER-2
 10
68.916687
 20
29.119868
 30
0.000000
  0
SEQEND
  8
LAYER-2
  0
POLYLINE
  8
LAYER-2
 66
  1
 70
  0
 62
  7
 10
68.916687
 20
28.503127
 30
0.000000
  0
VERTEX
  8
LAYER-2
 10
68.916687
 20
28.503127
 30
0.000000
  0
VERTEX
  8
LAYER-2
 10
68.916687
 20
29.230964
 30
0.000000
  0
SEQEND
  8
LAYER-2
  0
POLYLINE
  8
LAYER-2
 66
  1
 70
  0
 62
  7
 10
68.916687
 20
29.230964
 30
0.000000
  0
VERTEX
  8
LAYER-2
 10
68.916687
 20
29.230964
 30
0.000000
  0
VERTEX
  8
LAYER-2
 10
67.041687
 20
29.230964
 30
0.000000
  0
SEQEND
  8
LAYER-2
  0
POLYLINE
  8
LAYER-2
 66
  1
 70
  0
 62
  7
 10
67.041687
 20
30.480962
 30
0.000000
  0
VERTEX
  8
LAYER-2
 10
67.041687
 20
30.480962
 30
0.000000
  0
VERTEX
  8
LAYER-2
 10
66.916682
 20
30.480962
 30
0.000000
  0
SEQEND
  8
LAYER-2
  0
ARC
  8
LAYER-2
 62
  7
 10
66.920189
 20
30.343400
 30
0.000000
 40
0.137619
 50
28.023438
 51
91.463989
  0
ARC
  8
LAYER-2
 62
  7
 10
66.920189
 20
30.280898
 30
0.000000
 40
0.137619
 50
28.023438
 51
91.463989
  0
ARC
  8
LAYER-2
 62
  7
 10
66.920189
 20
30.218396
 30
0.000000
 40
0.137619
 50
28.023438
 51
91.463989
  0
ARC
  8
LAYER-2
 62
  7
 10
66.920189
 20
30.155900
 30
0.000000
 40
0.137619
 50
28.023438
 51
91.463989
  0
ARC
  8
LAYER-2
 62
  7
 10
66.920189
 20
30.093398
 30
0.000000
 40
0.137619
 50
28.023438
 51
91.463989
  0
ARC
  8
LAYER-2
 62
  7
 10
66.920189
 20
30.030896
 30
0.000000
 40
0.137619
 50
28.023438
 51
91.463989
  0
ARC
  8
LAYER-2
 62
  7
 10
66.920189
 20
29.968400
 30
0.000000
 40
0.137619
 50
28.023438
 51
91.463989
  0
ARC
  8
LAYER-2
 62
  7
 10
66.920189
 20
29.905898
 30
0.000000
 40
0.137619
 50
28.023438
 51
91.463989
  0
ARC
  8
LAYER-2
 62
  7
 10
66.920189
 20
29.843396
 30
0.000000
 40
0.137619
 50
28.023438
 51
91.463989
  0
ARC
  8
LAYER-2
 62
  7
 10
66.920189
 20
29.780900
 30
0.000000
 40
0.137619
 50
28.023438
 51
91.463989
  0
ARC
  8
LAYER-2
 62
  7
 10
66.920189
 20
29.718398
 30
0.000000
 40
0.137619
 50
28.023438
 51
91.463989
  0
ARC
  8
LAYER-2
 62
  7
 10
66.920189
 20
29.655896
 30
0.000000
 40
0.137619
 50
28.023438
 51
91.463989
  0
ARC
  8
LAYER-2
 62
  7
 10
66.920189
 20
29.593400
 30
0.000000
 40
0.137619
 50
28.023438
 51
91.463989
  0
ARC
  8
LAYER-2
 62
  7
 10
66.920189
 20
29.530898
 30
0.000000
 40
0.137619
 50
28.023438
 51
91.463989
  0
ARC
  8
LAYER-2
 62
  7
 10
66.920189
 20
29.468396
 30
0.000000
 40
0.137619
 50
28.023438
 51
91.463989
  0
ARC
  8
LAYER-2
 62
  7
 10
66.920189
 20
29.405900
 30
0.000000
 40
0.137619
 50
28.023438
 51
91.463989
  0
ARC
  8
LAYER-2
 62
  7
 10
66.920189
 20
29.343398
 30
0.000000
 40
0.137619
 50
28.023438
 51
91.463989
  0
ARC
  8
LAYER-2
 62
  7
 10
66.920189
 20
29.280896
 30
0.000000
 40
0.137619
 50
28.023438
 51
91.463989
  0
ARC
  8
LAYER-2
 62
  7
 10
66.920189
 20
29.218400
 30
0.000000
 40
0.137619
 50
28.023438
 51
91.463989
  0
ARC
  8
LAYER-2
 62
  7
 10
66.920189
 20
29.155898
 30
0.000000
 40
0.137619
 50
28.023438
 51
91.463989
  0
ARC
  8
LAYER-2
 62
  7
 10
66.920189
 20
29.093396
 30
0.000000
 40
0.137619
 50
28.023438
 51
91.463989
  0
ARC
  8
LAYER-2
 62
  7
 10
66.862856
 20
29.604260
 30
0.000000
 40
0.483938
 50
276.386108
 51
291.686401
  0
ARC
  8
LAYER-2
 62
  7
 10
67.059279
 20
29.882369
 30
0.000000
 40
0.728002
 50
258.704346
 51
268.615112
  0
POLYLINE
  8
LAYER-2
 66
  1
 70
  0
 62
  7
 10
67.041687
 20
29.154574
 30
0.000000
  0
VERTEX
  8
LAYER-2
 10
67.041687
 20
29.154574
 30
0.000000
  0
VERTEX
  8
LAYER-2
 10
67.041687
 20
29.234436
 30
0.000000
  0
SEQEND
  8
LAYER-2
  0
POLYLINE
  8
LAYER-2
 66
  1
 70
  1
 62
  7
  0
VERTEX
  8
LAYER-2
 10
66.708703
 20
33.391057
 30
0.000000
  0
VERTEX
  8
LAYER-2
 10
66.903154
 20
33.391057
 30
0.000000
  0
VERTEX
  8
LAYER-2
 10
66.903154
 20
17.391048
 30
0.000000
  0
VERTEX
  8
LAYER-2
 10
66.708703
 20
17.391048
 30
0.000000
  0
SEQEND
  8
LAYER-2
  0
POLYLINE
  8
LAYER-2
 66
  1
 70
  0
 62
  7
 10
69.905738
 20
26.882686
 30
0.000000
  0
VERTEX
  8
LAYER-2
 10
69.905738
 20
26.882686
 30
0.000000
  0
VERTEX
  8
LAYER-2
 10
69.905738
 20
25.885099
 30
0.000000
  0
SEQEND
  8
LAYER-2
  0
POLYLINE
  8
LAYER-2
 66
  1
 70
  0
 62
  7
 10
64.206545
 20
29.699756
 30
0.000000
  0
VERTEX
  8
LAYER-2
 10
64.206545
 20
29.699756
 30
0.000000
  0
VERTEX
  8
LAYER-2
 10
64.206545
 20
23.071444
 30
0.000000
  0
SEQEND
  8
LAYER-2
  0
POLYLINE
  8
LAYER-2
 66
  1
 70
  0
 62
  7
 10
64.206545
 20
29.699756
 30
0.000000
  0
VERTEX
  8
LAYER-2
 10
64.206545
 20
29.699756
 30
0.000000
  0
VERTEX
  8
LAYER-2
 10
21.772994
 20
29.699756
 30
0.000000
  0
SEQEND
  8
LAYER-2
  0
POLYLINE
  8
LAYER-2
 66
  1
 70
  0
 62
  7
 10
64.206545
 20
23.071444
 30
0.000000
  0
VERTEX
  8
LAYER-2
 10
64.206545
 20
23.071444
 30
0.000000
  0
VERTEX
  8
LAYER-2
 10
21.772994
 20
23.071444
 30
0.000000
  0
SEQEND
  8
LAYER-2
  0
POLYLINE
  8
LAYER-2
 66
  1
 70
  0
 62
  7
 10
64.202947
 20
27.204719
 30
0.000000
  0
VERTEX
  8
LAYER-2
 10
64.202947
 20
27.204719
 30
0.000000
  0
VERTEX
  8
LAYER-2
 10
21.772994
 20
27.204719
 30
0.000000
  0
SEQEND
  8
LAYER-2
  0
POLYLINE
  8
LAYER-2
 66
  1
 70
  0
 62
  7
 10
64.202947
 20
27.968607
 30
0.000000
  0
VERTEX
  8
LAYER-2
 10
64.202947
 20
27.968607
 30
0.000000
  0
VERTEX
  8
LAYER-2
 10
21.772994
 20
27.968529
 30
0.000000
  0
SEQEND
  8
LAYER-2
  0
POLYLINE
  8
LAYER-2
 66
  1
 70
  0
 62
  7
 10
64.202947
 20
28.496387
 30
0.000000
  0
VERTEX
  8
LAYER-2
 10
64.202947
 20
28.496387
 30
0.000000
  0
VERTEX
  8
LAYER-2
 10
21.772994
 20
28.496296
 30
0.000000
  0
SEQEND
  8
LAYER-2
  0
POLYLINE
  8
LAYER-2
 66
  1
 70
  0
 62
  7
 10
64.202947
 20
28.940826
 30
0.000000
  0
VERTEX
  8
LAYER-2
 10
64.202947
 20
28.940826
 30
0.000000
  0
VERTEX
  8
LAYER-2
 10
21.772994
 20
28.940826
 30
0.000000
  0
SEQEND
  8
LAYER-2
  0
POLYLINE
  8
LAYER-2
 66
  1
 70
  0
 62
  7
 10
64.202947
 20
29.232499
 30
0.000000
  0
VERTEX
  8
LAYER-2
 10
64.202947
 20
29.232499
 30
0.000000
  0
VERTEX
  8
LAYER-2
 10
21.772994
 20
29.232499
 30
0.000000
  0
SEQEND
  8
LAYER-2
  0
POLYLINE
  8
LAYER-2
 66
  1
 70
  0
 62
  7
 10
64.202947
 20
29.426936
 30
0.000000
  0
VERTEX
  8
LAYER-2
 10
64.202947
 20
29.426936
 30
0.000000
  0
VERTEX
  8
LAYER-2
 10
21.772994
 20
29.426936
 30
0.000000
  0
SEQEND
  8
LAYER-2
  0
POLYLINE
  8
LAYER-2
 66
  1
 70
  0
 62
  7
 10
64.202947
 20
29.565822
 30
0.000000
  0
VERTEX
  8
LAYER-2
 10
64.202947
 20
29.565822
 30
0.000000
  0
VERTEX
  8
LAYER-2
 10
21.772994
 20
29.565822
 30
0.000000
  0
SEQEND
  8
LAYER-2
  0
POLYLINE
  8
LAYER-2
 66
  1
 70
  0
 62
  7
 10
64.202947
 20
25.524170
 30
0.000000
  0
VERTEX
  8
LAYER-2
 10
64.202947
 20
25.524170
 30
0.000000
  0
VERTEX
  8
LAYER-2
 10
21.772994
 20
25.524092
 30
0.000000
  0
SEQEND
  8
LAYER-2
  0
POLYLINE
  8
LAYER-2
 66
  1
 70
  0
 62
  7
 10
64.202947
 20
24.760268
 30
0.000000
  0
VERTEX
  8
LAYER-2
 10
64.202947
 20
24.760268
 30
0.000000
  0
VERTEX
  8
LAYER-2
 10
21.772994
 20
24.760268
 30
0.000000
  0
SEQEND
  8
LAYER-2
  0
POLYLINE
  8
LAYER-2
 66
  1
 70
  0
 62
  7
 10
64.202947
 20
24.232495
 30
0.000000
  0
VERTEX
  8
LAYER-2
 10
64.202947
 20
24.232495
 30
0.000000
  0
VERTEX
  8
LAYER-2
 10
21.772994
 20
24.232431
 30
0.000000
  0
SEQEND
  8
LAYER-2
  0
POLYLINE
  8
LAYER-2
 66
  1
 70
  0
 62
  7
 10
64.202947
 20
23.788055
 30
0.000000
  0
VERTEX
  8
LAYER-2
 10
64.202947
 20
23.788055
 30
0.000000
  0
VERTEX
  8
LAYER-2
 10
21.772994
 20
23.787978
 30
0.000000
  0
SEQEND
  8
LAYER-2
  0
POLYLINE
  8
LAYER-2
 66
  1
 70
  0
 62
  7
 10
64.202947
 20
23.496382
 30
0.000000
  0
VERTEX
  8
LAYER-2
 10
64.202947
 20
23.496382
 30
0.000000
  0
VERTEX
  8
LAYER-2
 10
21.772994
 20
23.496319
 30
0.000000
  0
SEQEND
  8
LAYER-2
  0
POLYLINE
  8
LAYER-2
 66
  1
 70
  0
 62
  7
 10
64.202947
 20
23.301946
 30
0.000000
  0
VERTEX
  8
LAYER-2
 10
64.202947
 20
23.301946
 30
0.000000
  0
VERTEX
  8
LAYER-2
 10
21.772994
 20
23.301882
 30
0.000000
  0
SEQEND
  8
LAYER-2
  0
POLYLINE
  8
LAYER-2
 66
  1
 70
  0
 62
  7
 10
64.202947
 20
23.163060
 30
0.000000
  0
VERTEX
  8
LAYER-2
 10
64.202947
 20
23.163060
 30
0.000000
  0
VERTEX
  8
LAYER-2
 10
21.772994
 20
23.162997
 30
0.000000
  0
SEQEND
  8
LAYER-2
  0
TEXT
  8
LAYER-2
 62
  7
 10
70.160256
 20
17.993619
 30
0.000000
 40
1.471154
  1
Plaque d'extrÄmitÄ
 72
  5
 11
85.967948
 21
17.993619
 31
0.000000
  0
POLYLINE
  8
LAYER-2
 66
  1
 70
  0
 62
  7
 10
69.750000
 20
18.391057
 30
0.000000
  0
VERTEX
  8
LAYER-2
 10
69.750000
 20
18.391057
 30
0.000000
  0
VERTEX
  8
LAYER-2
 10
66.922105
 20
20.473135
 30
0.000000
  0
SEQEND
  8
LAYER-2
  0
POLYLINE
  8
LAYER-2
 66
  1
 70
  1
 62
  7
  0
VERTEX
  8
LAYER-2
 10
66.906252
 20
20.484812
 30
0.000000
  0
VERTEX
  8
LAYER-2
 10
67.576066
 20
20.421499
 30
0.000000
  0
VERTEX
  8
LAYER-2
 10
67.370833
 20
20.142749
 30
0.000000
  0
VERTEX
  8
LAYER-2
 10
67.165600
 20
19.864000
 30
0.000000
  0
VERTEX
  8
LAYER-2
 10
66.906252
 20
20.484812
 30
0.000000
  0
SEQEND
  8
LAYER-2
  0
POLYLINE
  8
LAYER-2
 66
  1
 70
  1
 62
  7
  0
VERTEX
  8
LAYER-2
 10
19.076389
 20
33.391043
 30
0.000000
  0
VERTEX
  8
LAYER-2
 10
19.270840
 20
33.391043
 30
0.000000
  0
VERTEX
  8
LAYER-2
 10
19.270840
 20
17.391048
 30
0.000000
  0
VERTEX
  8
LAYER-2
 10
19.076389
 20
17.391048
 30
0.000000
  0
SEQEND
  8
LAYER-2
  0
POLYLINE
  8
LAYER-2
 66
  1
 70
  0
 62
  7
 10
16.073804
 20
26.882686
 30
0.000000
  0
VERTEX
  8
LAYER-2
 10
16.073804
 20
26.882686
 30
0.000000
  0
VERTEX
  8
LAYER-2
 10
16.073804
 20
25.885085
 30
0.000000
  0
SEQEND
  8
LAYER-2
  0
POLYLINE
  8
LAYER-2
 66
  1
 70
  0
 62
  7
 10
21.772994
 20
29.699756
 30
0.000000
  0
VERTEX
  8
LAYER-2
 10
21.772994
 20
29.699756
 30
0.000000
  0
VERTEX
  8
LAYER-2
 10
21.772994
 20
23.071444
 30
0.000000
  0
SEQEND
  8
LAYER-2
  0
POLYLINE
  8
LAYER-2
 66
  1
 70
  0
 62
  7
 10
54.944550
 20
16.056300
 30
0.000000
  0
VERTEX
  8
LAYER-2
 10
54.944550
 20
16.056300
 30
0.000000
  0
VERTEX
  8
LAYER-2
 10
54.944550
 20
14.132545
 30
0.000000
  0
SEQEND
  8
LAYER-2
  0
POLYLINE
  8
LAYER-2
 66
  1
 70
  0
 62
  7
 10
56.788316
 20
14.132545
 30
0.000000
  0
VERTEX
  8
LAYER-2
 10
56.788316
 20
14.132545
 30
0.000000
  0
VERTEX
  8
LAYER-2
 10
54.944550
 20
14.132545
 30
0.000000
  0
SEQEND
  8
LAYER-2
  0
POLYLINE
  8
LAYER-2
 66
  1
 70
  0
 62
  7
 10
78.951501
 20
16.027060
 30
0.000000
  0
VERTEX
  8
LAYER-2
 10
78.951501
 20
16.027060
 30
0.000000
  0
VERTEX
  8
LAYER-2
 10
78.951501
 20
14.132545
 30
0.000000
  0
SEQEND
  8
LAYER-2
  0
POLYLINE
  8
LAYER-2
 66
  1
 70
  0
 62
  7
 10
77.107720
 20
14.132545
 30
0.000000
  0
VERTEX
  8
LAYER-2
 10
77.107720
 20
14.132545
 30
0.000000
  0
VERTEX
  8
LAYER-2
 10
78.951501
 20
14.132545
 30
0.000000
  0
SEQEND
  8
LAYER-2
  0
POLYLINE
  8
LAYER-2
 66
  1
 70
  1
 62
  7
  0
VERTEX
  8
LAYER-2
 10
55.771876
 20
14.791703
 30
0.000000
  0
VERTEX
  8
LAYER-2
 10
78.046234
 20
14.791703
 30
0.000000
  0
VERTEX
  8
LAYER-2
 10
78.046234
 20
14.424978
 30
0.000000
  0
VERTEX
  8
LAYER-2
 10
55.771876
 20
14.424978
 30
0.000000
  0
SEQEND
  8
LAYER-2
  0
TEXT
  8
LAYER-2
 62
  7
 10
30.467948
 20
65.416696
 30
0.000000
 40
1.471154
  1
min (152mm) de large
 72
  5
 11
49.506410
 21
65.416696
 31
0.000000
  0
LINE
  8
LAYER-2
 62
  7
 10
47.737737
 20
31.377017
 30
0.000000
 11
40.321060
 21
20.543687
 31
0.000000
  0
LINE
  8
LAYER-2
 62
  7
 10
45.262281
 20
33.071763
 30
0.000000
 11
37.845605
 21
22.238413
 31
0.000000
  0
LINE
  8
LAYER-2
 62
  7
 10
47.737737
 20
31.377017
 30
0.000000
 11
45.262281
 21
33.071763
 31
0.000000
  0
LINE
  8
LAYER-2
 62
  7
 10
40.321060
 20
20.543687
 30
0.000000
 11
37.845605
 21
22.238413
 31
0.000000
  0
TEXT
  8
LAYER-2
 62
  7
 10
27.814102
 20
68.532081
 30
0.000000
 40
1.471154
  1
L'ouverture du plafond centrÄe avec les guides devrait Étre de
 72
  5
 11
79.967948
 21
68.532081
 31
0.000000
  0
POLYLINE
  8
LAYER-2
 66
  1
 70
  1
 62
  7
  0
VERTEX
  8
LAYER-2
 10
17.803722
 20
26.749547
 30
0.000000
  0
VERTEX
  8
LAYER-2
 10
17.803722
 20
26.791872
 30
0.000000
  0
VERTEX
  8
LAYER-2
 10
17.956396
 20
26.791872
 30
0.000000
  0
VERTEX
  8
LAYER-2
 10
17.956396
 20
26.749547
 30
0.000000
  0
SEQEND
  8
LAYER-2
  0
POLYLINE
  8
LAYER-2
 66
  1
 70
  1
 62
  7
  0
VERTEX
  8
LAYER-2
 10
17.803722
 20
27.541196
 30
0.000000
  0
VERTEX
  8
LAYER-2
 10
17.803722
 20
27.580965
 30
0.000000
  0
VERTEX
  8
LAYER-2
 10
17.957678
 20
27.580965
 30
0.000000
  0
VERTEX
  8
LAYER-2
 10
17.957678
 20
27.541196
 30
0.000000
  0
SEQEND
  8
LAYER-2
  0
POLYLINE
  8
LAYER-2
 66
  1
 70
  1
 62
  7
  0
VERTEX
  8
LAYER-2
 10
17.803722
 20
28.203264
 30
0.000000
  0
VERTEX
  8
LAYER-2
 10
17.803722
 20
28.228905
 30
0.000000
  0
VERTEX
  8
LAYER-2
 10
17.957678
 20
28.228905
 30
0.000000
  0
VERTEX
  8
LAYER-2
 10
17.957678
 20
28.203264
 30
0.000000
  0
SEQEND
  8
LAYER-2
  0
POLYLINE
  8
LAYER-2
 66
  1
 70
  1
 62
  7
  0
VERTEX
  8
LAYER-2
 10
17.803722
 20
28.676690
 30
0.000000
  0
VERTEX
  8
LAYER-2
 10
17.803722
 20
28.689535
 30
0.000000
  0
VERTEX
  8
LAYER-2
 10
17.957678
 20
28.689535
 30
0.000000
  0
VERTEX
  8
LAYER-2
 10
17.957678
 20
28.676690
 30
0.000000
  0
SEQEND
  8
LAYER-2
  0
POLYLINE
  8
LAYER-2
 66
  1
 70
  1
 62
  7
  0
VERTEX
  8
LAYER-2
 10
17.803722
 20
28.956404
 30
0.000000
  0
VERTEX
  8
LAYER-2
 10
17.803722
 20
28.971813
 30
0.000000
  0
VERTEX
  8
LAYER-2
 10
17.957678
 20
28.971813
 30
0.000000
  0
VERTEX
  8
LAYER-2
 10
17.957678
 20
28.956404
 30
0.000000
  0
SEQEND
  8
LAYER-2
  0
POLYLINE
  8
LAYER-2
 66
  1
 70
  0
 62
  7
 10
17.957678
 20
29.079592
 30
0.000000
  0
VERTEX
  8
LAYER-2
 10
17.957678
 20
29.079592
 30
0.000000
  0
VERTEX
  8
LAYER-2
 10
17.803722
 20
29.079592
 30
0.000000
  0
SEQEND
  8
LAYER-2
  0
POLYLINE
  8
LAYER-2
 66
  1
 70
  0
 62
  7
 10
17.803722
 20
27.580965
 30
0.000000
  0
VERTEX
  8
LAYER-2
 10
17.803722
 20
27.580965
 30
0.000000
  0
VERTEX
  8
LAYER-2
 10
17.794193
 20
27.585135
 30
0.000000
  0
VERTEX
  8
LAYER-2
 10
17.786622
 20
27.587332
 30
0.000000
  0
VERTEX
  8
LAYER-2
 10
17.779052
 20
27.589508
 30
0.000000
  0
VERTEX
  8
LAYER-2
 10
17.771477
 20
27.591677
 30
0.000000
  0
VERTEX
  8
LAYER-2
 10
17.765871
 20
27.591867
 30
0.000000
  0
SEQEND
  8
LAYER-2
  0
POLYLINE
  8
LAYER-2
 66
  1
 70
  0
 62
  7
 10
17.803729
 20
26.749533
 30
0.000000
  0
VERTEX
  8
LAYER-2
 10
17.803729
 20
26.749533
 30
0.000000
  0
VERTEX
  8
LAYER-2
 10
17.791855
 20
26.738927
 30
0.000000
  0
VERTEX
  8
LAYER-2
 10
17.782943
 20
26.725638
 30
0.000000
  0
VERTEX
  8
LAYER-2
 10
17.775069
 20
26.711693
 30
0.000000
  0
VERTEX
  8
LAYER-2
 10
17.768284
 20
26.697200
 30
0.000000
  0
VERTEX
  8
LAYER-2
 10
17.762625
 20
26.682220
 30
0.000000
  0
VERTEX
  8
LAYER-2
 10
17.764597
 20
26.680249
 30
0.000000
  0
SEQEND
  8
LAYER-2
  0
POLYLINE
  8
LAYER-2
 66
  1
 70
  1
 62
  7
  0
VERTEX
  8
LAYER-2
 10
17.804366
 20
25.898881
 30
0.000000
  0
VERTEX
  8
LAYER-2
 10
17.804366
 20
25.941214
 30
0.000000
  0
VERTEX
  8
LAYER-2
 10
17.957055
 20
25.941214
 30
0.000000
  0
VERTEX
  8
LAYER-2
 10
17.957055
 20
25.898881
 30
0.000000
  0
SEQEND
  8
LAYER-2
  0
POLYLINE
  8
LAYER-2
 66
  1
 70
  1
 62
  7
  0
VERTEX
  8
LAYER-2
 10
17.804366
 20
25.109802
 30
0.000000
  0
VERTEX
  8
LAYER-2
 10
17.804366
 20
25.149571
 30
0.000000
  0
VERTEX
  8
LAYER-2
 10
17.958333
 20
25.149571
 30
0.000000
  0
VERTEX
  8
LAYER-2
 10
17.958333
 20
25.109802
 30
0.000000
  0
SEQEND
  8
LAYER-2
  0
POLYLINE
  8
LAYER-2
 66
  1
 70
  1
 62
  7
  0
VERTEX
  8
LAYER-2
 10
17.804366
 20
24.477898
 30
0.000000
  0
VERTEX
  8
LAYER-2
 10
17.804366
 20
24.503547
 30
0.000000
  0
VERTEX
  8
LAYER-2
 10
17.958333
 20
24.503547
 30
0.000000
  0
VERTEX
  8
LAYER-2
 10
17.958333
 20
24.477898
 30
0.000000
  0
SEQEND
  8
LAYER-2
  0
POLYLINE
  8
LAYER-2
 66
  1
 70
  1
 62
  7
  0
VERTEX
  8
LAYER-2
 10
17.804366
 20
24.029459
 30
0.000000
  0
VERTEX
  8
LAYER-2
 10
17.804366
 20
24.042290
 30
0.000000
  0
VERTEX
  8
LAYER-2
 10
17.958333
 20
24.042290
 30
0.000000
  0
VERTEX
  8
LAYER-2
 10
17.958333
 20
24.029459
 30
0.000000
  0
SEQEND
  8
LAYER-2
  0
POLYLINE
  8
LAYER-2
 66
  1
 70
  1
 62
  7
  0
VERTEX
  8
LAYER-2
 10
17.804366
 20
23.768357
 30
0.000000
  0
VERTEX
  8
LAYER-2
 10
17.804366
 20
23.783752
 30
0.000000
  0
VERTEX
  8
LAYER-2
 10
17.958333
 20
23.783752
 30
0.000000
  0
VERTEX
  8
LAYER-2
 10
17.958333
 20
23.768357
 30
0.000000
  0
SEQEND
  8
LAYER-2
  0
POLYLINE
  8
LAYER-2
 66
  1
 70
  0
 62
  7
 10
17.958333
 20
23.663783
 30
0.000000
  0
VERTEX
  8
LAYER-2
 10
17.958333
 20
23.663783
 30
0.000000
  0
VERTEX
  8
LAYER-2
 10
17.804366
 20
23.663783
 30
0.000000
  0
SEQEND
  8
LAYER-2
  0
POLYLINE
  8
LAYER-2
 66
  1
 70
  0
 62
  7
 10
17.765220
 20
26.010484
 30
0.000000
  0
VERTEX
  8
LAYER-2
 10
17.765220
 20
26.010484
 30
0.000000
  0
VERTEX
  8
LAYER-2
 10
17.768907
 20
25.997469
 30
0.000000
  0
VERTEX
  8
LAYER-2
 10
17.775692
 20
25.982976
 30
0.000000
  0
VERTEX
  8
LAYER-2
 10
17.783566
 20
25.969039
 30
0.000000
  0
VERTEX
  8
LAYER-2
 10
17.792478
 20
25.955742
 30
0.000000
  0
VERTEX
  8
LAYER-2
 10
17.802380
 20
25.943165
 30
0.000000
  0
VERTEX
  8
LAYER-2
 10
17.804352
 20
25.941200
 30
0.000000
  0
SEQEND
  8
LAYER-2
  0
POLYLINE
  8
LAYER-2
 66
  1
 70
  0
 62
  7
 10
17.803729
 20
29.079571
 30
0.000000
  0
VERTEX
  8
LAYER-2
 10
17.803729
 20
29.079571
 30
0.000000
  0
VERTEX
  8
LAYER-2
 10
17.769551
 20
28.993244
 30
0.000000
  0
VERTEX
  8
LAYER-2
 10
17.744085
 20
28.902769
 30
0.000000
  0
VERTEX
  8
LAYER-2
 10
17.725504
 20
28.810638
 30
0.000000
  0
VERTEX
  8
LAYER-2
 10
17.713912
 20
28.717367
 30
0.000000
  0
VERTEX
  8
LAYER-2
 10
17.711348
 20
28.621526
 30
0.000000
  0
SEQEND
  8
LAYER-2
  0
POLYLINE
  8
LAYER-2
 66
  1
 70
  0
 62
  7
 10
17.803714
 20
28.971799
 30
0.000000
  0
VERTEX
  8
LAYER-2
 10
17.803714
 20
28.971799
 30
0.000000
  0
VERTEX
  8
LAYER-2
 10
17.714465
 20
28.706339
 30
0.000000
  0
VERTEX
  8
LAYER-2
 10
17.711331
 20
28.621512
 30
0.000000
  0
SEQEND
  8
LAYER-2
  0
POLYLINE
  8
LAYER-2
 66
  1
 70
  0
 62
  7
 10
17.803729
 20
28.956404
 30
0.000000
  0
VERTEX
  8
LAYER-2
 10
17.803729
 20
28.956404
 30
0.000000
  0
VERTEX
  8
LAYER-2
 10
17.774442
 20
28.886036
 30
0.000000
  0
VERTEX
  8
LAYER-2
 10
17.751470
 20
28.812202
 30
0.000000
  0
VERTEX
  8
LAYER-2
 10
17.732930
 20
28.737136
 30
0.000000
  0
VERTEX
  8
LAYER-2
 10
17.718884
 20
28.661105
 30
0.000000
  0
VERTEX
  8
LAYER-2
 10
17.709380
 20
28.584362
 30
0.000000
  0
VERTEX
  8
LAYER-2
 10
17.711348
 20
28.582390
 30
0.000000
  0
SEQEND
  8
LAYER-2
  0
POLYLINE
  8
LAYER-2
 66
  1
 70
  0
 62
  7
 10
17.803729
 20
28.689535
 30
0.000000
  0
VERTEX
  8
LAYER-2
 10
17.803729
 20
28.689535
 30
0.000000
  0
VERTEX
  8
LAYER-2
 10
17.783323
 20
28.683317
 30
0.000000
  0
VERTEX
  8
LAYER-2
 10
17.767474
 20
28.670851
 30
0.000000
  0
VERTEX
  8
LAYER-2
 10
17.755177
 20
28.654872
 30
0.000000
  0
VERTEX
  8
LAYER-2
 10
17.747198
 20
28.636350
 30
0.000000
  0
VERTEX
  8
LAYER-2
 10
17.745987
 20
28.614469
 30
0.000000
  0
SEQEND
  8
LAYER-2
  0
POLYLINE
  8
LAYER-2
 66
  1
 70
  0
 62
  7
 10
17.711338
 20
28.582405
 30
0.000000
  0
VERTEX
  8
LAYER-2
 10
17.711338
 20
28.582405
 30
0.000000
  0
VERTEX
  8
LAYER-2
 10
17.743983
 20
28.615561
 30
0.000000
  0
VERTEX
  8
LAYER-2
 10
17.745980
 20
28.614483
 30
0.000000
  0
SEQEND
  8
LAYER-2
  0
POLYLINE
  8
LAYER-2
 66
  1
 70
  0
 62
  7
 10
17.803722
 20
28.676704
 30
0.000000
  0
VERTEX
  8
LAYER-2
 10
17.803722
 20
28.676704
 30
0.000000
  0
VERTEX
  8
LAYER-2
 10
17.717299
 20
28.448301
 30
0.000000
  0
VERTEX
  8
LAYER-2
 10
17.711979
 20
28.331557
 30
0.000000
  0
SEQEND
  8
LAYER-2
  0
POLYLINE
  8
LAYER-2
 66
  1
 70
  0
 62
  7
 10
17.803722
 20
28.228919
 30
0.000000
  0
VERTEX
  8
LAYER-2
 10
17.803722
 20
28.228919
 30
0.000000
  0
VERTEX
  8
LAYER-2
 10
17.780516
 20
28.227152
 30
0.000000
  0
VERTEX
  8
LAYER-2
 10
17.761319
 20
28.217327
 30
0.000000
  0
VERTEX
  8
LAYER-2
 10
17.745860
 20
28.202292
 30
0.000000
  0
VERTEX
  8
LAYER-2
 10
17.735508
 20
28.183375
 30
0.000000
  0
VERTEX
  8
LAYER-2
 10
17.733155
 20
28.160269
 30
0.000000
  0
SEQEND
  8
LAYER-2
  0
POLYLINE
  8
LAYER-2
 66
  1
 70
  0
 62
  7
 10
17.711338
 20
28.171171
 30
0.000000
  0
VERTEX
  8
LAYER-2
 10
17.711338
 20
28.171171
 30
0.000000
  0
VERTEX
  8
LAYER-2
 10
17.718577
 20
28.158029
 30
0.000000
  0
VERTEX
  8
LAYER-2
 10
17.733145
 20
28.160248
 30
0.000000
  0
SEQEND
  8
LAYER-2
  0
POLYLINE
  8
LAYER-2
 66
  1
 70
  0
 62
  7
 10
17.803722
 20
28.203235
 30
0.000000
  0
VERTEX
  8
LAYER-2
 10
17.803722
 20
28.203235
 30
0.000000
  0
VERTEX
  8
LAYER-2
 10
17.719292
 20
28.006594
 30
0.000000
  0
VERTEX
  8
LAYER-2
 10
17.711338
 20
27.867723
 30
0.000000
  0
SEQEND
  8
LAYER-2
  0
POLYLINE
  8
LAYER-2
 66
  1
 70
  0
 62
  7
 10
17.726088
 20
27.586099
 30
0.000000
  0
VERTEX
  8
LAYER-2
 10
17.726088
 20
27.586099
 30
0.000000
  0
VERTEX
  8
LAYER-2
 10
17.732236
 20
27.587445
 30
0.000000
  0
VERTEX
  8
LAYER-2
 10
17.740367
 20
27.587733
 30
0.000000
  0
VERTEX
  8
LAYER-2
 10
17.748420
 20
27.588902
 30
0.000000
  0
VERTEX
  8
LAYER-2
 10
17.756294
 20
27.590938
 30
0.000000
  0
VERTEX
  8
LAYER-2
 10
17.763900
 20
27.593839
 30
0.000000
  0
VERTEX
  8
LAYER-2
 10
17.765864
 20
27.591867
 30
0.000000
  0
SEQEND
  8
LAYER-2
  0
POLYLINE
  8
LAYER-2
 66
  1
 70
  0
 62
  7
 10
17.711348
 20
27.636777
 30
0.000000
  0
VERTEX
  8
LAYER-2
 10
17.711348
 20
27.636777
 30
0.000000
  0
VERTEX
  8
LAYER-2
 10
17.710211
 20
27.628108
 30
0.000000
  0
VERTEX
  8
LAYER-2
 10
17.712130
 20
27.617615
 30
0.000000
  0
VERTEX
  8
LAYER-2
 10
17.715116
 20
27.607368
 30
0.000000
  0
VERTEX
  8
LAYER-2
 10
17.719130
 20
27.597487
 30
0.000000
  0
VERTEX
  8
LAYER-2
 10
17.726102
 20
27.586099
 30
0.000000
  0
SEQEND
  8
LAYER-2
  0
POLYLINE
  8
LAYER-2
 66
  1
 70
  0
 62
  7
 10
17.803736
 20
27.541182
 30
0.000000
  0
VERTEX
  8
LAYER-2
 10
17.803736
 20
27.541182
 30
0.000000
  0
VERTEX
  8
LAYER-2
 10
17.709972
 20
27.281158
 30
0.000000
  0
VERTEX
  8
LAYER-2
 10
17.711355
 20
27.274940
 30
0.000000
  0
SEQEND
  8
LAYER-2
  0
POLYLINE
  8
LAYER-2
 66
  1
 70
  0
 62
  7
 10
17.747265
 20
26.849621
 30
0.000000
  0
VERTEX
  8
LAYER-2
 10
17.747265
 20
26.849621
 30
0.000000
  0
VERTEX
  8
LAYER-2
 10
17.754086
 20
26.837839
 30
0.000000
  0
VERTEX
  8
LAYER-2
 10
17.764238
 20
26.825064
 30
0.000000
  0
VERTEX
  8
LAYER-2
 10
17.775650
 20
26.813394
 30
0.000000
  0
VERTEX
  8
LAYER-2
 10
17.788196
 20
26.802950
 30
0.000000
  0
VERTEX
  8
LAYER-2
 10
17.803722
 20
26.791887
 30
0.000000
  0
SEQEND
  8
LAYER-2
  0
POLYLINE
  8
LAYER-2
 66
  1
 70
  0
 62
  7
 10
17.711348
 20
26.882334
 30
0.000000
  0
VERTEX
  8
LAYER-2
 10
17.711348
 20
26.882334
 30
0.000000
  0
VERTEX
  8
LAYER-2
 10
17.712352
 20
26.874263
 30
0.000000
  0
VERTEX
  8
LAYER-2
 10
17.717919
 20
26.865382
 30
0.000000
  0
VERTEX
  8
LAYER-2
 10
17.725666
 20
26.858326
 30
0.000000
  0
VERTEX
  8
LAYER-2
 10
17.735025
 20
26.853607
 30
0.000000
  0
VERTEX
  8
LAYER-2
 10
17.747272
 20
26.849621
 30
0.000000
  0
SEQEND
  8
LAYER-2
  0
POLYLINE
  8
LAYER-2
 66
  1
 70
  0
 62
  7
 10
17.764583
 20
26.680249
 30
0.000000
  0
VERTEX
  8
LAYER-2
 10
17.764583
 20
26.680249
 30
0.000000
  0
VERTEX
  8
LAYER-2
 10
17.745195
 20
26.652114
 30
0.000000
  0
VERTEX
  8
LAYER-2
 10
17.731022
 20
26.620345
 30
0.000000
  0
VERTEX
  8
LAYER-2
 10
17.720254
 20
26.587266
 30
0.000000
  0
VERTEX
  8
LAYER-2
 10
17.713010
 20
26.553237
 30
0.000000
  0
VERTEX
  8
LAYER-2
 10
17.711338
 20
26.516665
 30
0.000000
  0
SEQEND
  8
LAYER-2
  0
POLYLINE
  8
LAYER-2
 66
  1
 70
  0
 62
  7
 10
17.711355
 20
28.621526
 30
0.000000
  0
VERTEX
  8
LAYER-2
 10
17.711355
 20
28.621526
 30
0.000000
  0
VERTEX
  8
LAYER-2
 10
17.711355
 20
24.125040
 30
0.000000
  0
SEQEND
  8
LAYER-2
  0
POLYLINE
  8
LAYER-2
 66
  1
 70
  0
 62
  7
 10
17.711986
 20
24.097468
 30
0.000000
  0
VERTEX
  8
LAYER-2
 10
17.711986
 20
24.097468
 30
0.000000
  0
VERTEX
  8
LAYER-2
 10
17.761931
 20
23.759843
 30
0.000000
  0
VERTEX
  8
LAYER-2
 10
17.804366
 20
23.663797
 30
0.000000
  0
SEQEND
  8
LAYER-2
  0
POLYLINE
  8
LAYER-2
 66
  1
 70
  0
 62
  7
 10
17.711348
 20
24.125040
 30
0.000000
  0
VERTEX
  8
LAYER-2
 10
17.711348
 20
24.125040
 30
0.000000
  0
VERTEX
  8
LAYER-2
 10
17.756174
 20
23.865650
 30
0.000000
  0
VERTEX
  8
LAYER-2
 10
17.804366
 20
23.768343
 30
0.000000
  0
SEQEND
  8
LAYER-2
  0
POLYLINE
  8
LAYER-2
 66
  1
 70
  0
 62
  7
 10
17.711338
 20
24.125040
 30
0.000000
  0
VERTEX
  8
LAYER-2
 10
17.711338
 20
24.125040
 30
0.000000
  0
VERTEX
  8
LAYER-2
 10
17.781119
 20
23.840959
 30
0.000000
  0
VERTEX
  8
LAYER-2
 10
17.804366
 20
23.783105
 30
0.000000
  0
SEQEND
  8
LAYER-2
  0
POLYLINE
  8
LAYER-2
 66
  1
 70
  0
 62
  7
 10
17.746635
 20
24.104525
 30
0.000000
  0
VERTEX
  8
LAYER-2
 10
17.746635
 20
24.104525
 30
0.000000
  0
VERTEX
  8
LAYER-2
 10
17.747843
 20
24.086581
 30
0.000000
  0
VERTEX
  8
LAYER-2
 10
17.755825
 20
24.068059
 30
0.000000
  0
VERTEX
  8
LAYER-2
 10
17.768122
 20
24.052072
 30
0.000000
  0
VERTEX
  8
LAYER-2
 10
17.783971
 20
24.039614
 30
0.000000
  0
VERTEX
  8
LAYER-2
 10
17.804366
 20
24.029459
 30
0.000000
  0
SEQEND
  8
LAYER-2
  0
POLYLINE
  8
LAYER-2
 66
  1
 70
  0
 62
  7
 10
17.746628
 20
24.104511
 30
0.000000
  0
VERTEX
  8
LAYER-2
 10
17.746628
 20
24.104511
 30
0.000000
  0
VERTEX
  8
LAYER-2
 10
17.710887
 20
24.138590
 30
0.000000
  0
VERTEX
  8
LAYER-2
 10
17.711986
 20
24.136590
 30
0.000000
  0
SEQEND
  8
LAYER-2
  0
POLYLINE
  8
LAYER-2
 66
  1
 70
  0
 62
  7
 10
17.712616
 20
24.387423
 30
0.000000
  0
VERTEX
  8
LAYER-2
 10
17.712616
 20
24.387423
 30
0.000000
  0
VERTEX
  8
LAYER-2
 10
17.719345
 20
24.318146
 30
0.000000
  0
VERTEX
  8
LAYER-2
 10
17.732941
 20
24.247678
 30
0.000000
  0
VERTEX
  8
LAYER-2
 10
17.751378
 20
24.178324
 30
0.000000
  0
VERTEX
  8
LAYER-2
 10
17.774565
 20
24.110399
 30
0.000000
  0
VERTEX
  8
LAYER-2
 10
17.804359
 20
24.042290
 30
0.000000
  0
SEQEND
  8
LAYER-2
  0
POLYLINE
  8
LAYER-2
 66
  1
 70
  0
 62
  7
 10
17.733793
 20
24.558084
 30
0.000000
  0
VERTEX
  8
LAYER-2
 10
17.733793
 20
24.558084
 30
0.000000
  0
VERTEX
  8
LAYER-2
 10
17.738807
 20
24.538922
 30
0.000000
  0
VERTEX
  8
LAYER-2
 10
17.749874
 20
24.519611
 30
0.000000
  0
VERTEX
  8
LAYER-2
 10
17.764576
 20
24.502899
 30
0.000000
  0
VERTEX
  8
LAYER-2
 10
17.782319
 20
24.489469
 30
0.000000
  0
VERTEX
  8
LAYER-2
 10
17.802387
 20
24.479856
 30
0.000000
  0
VERTEX
  8
LAYER-2
 10
17.804359
 20
24.477877
 30
0.000000
  0
SEQEND
  8
LAYER-2
  0
POLYLINE
  8
LAYER-2
 66
  1
 70
  0
 62
  7
 10
17.733793
 20
24.558063
 30
0.000000
  0
VERTEX
  8
LAYER-2
 10
17.733793
 20
24.558063
 30
0.000000
  0
VERTEX
  8
LAYER-2
 10
17.714208
 20
24.561732
 30
0.000000
  0
VERTEX
  8
LAYER-2
 10
17.711979
 20
24.547161
 30
0.000000
  0
SEQEND
  8
LAYER-2
  0
POLYLINE
  8
LAYER-2
 66
  1
 70
  0
 62
  7
 10
17.711348
 20
24.864089
 30
0.000000
  0
VERTEX
  8
LAYER-2
 10
17.711348
 20
24.864089
 30
0.000000
  0
VERTEX
  8
LAYER-2
 10
17.718412
 20
24.791818
 30
0.000000
  0
VERTEX
  8
LAYER-2
 10
17.732303
 20
24.718330
 30
0.000000
  0
VERTEX
  8
LAYER-2
 10
17.750991
 20
24.645912
 30
0.000000
  0
VERTEX
  8
LAYER-2
 10
17.774389
 20
24.574874
 30
0.000000
  0
VERTEX
  8
LAYER-2
 10
17.804366
 20
24.503547
 30
0.000000
  0
SEQEND
  8
LAYER-2
  0
POLYLINE
  8
LAYER-2
 66
  1
 70
  0
 62
  7
 10
17.766502
 20
25.098879
 30
0.000000
  0
VERTEX
  8
LAYER-2
 10
17.766502
 20
25.098879
 30
0.000000
  0
VERTEX
  8
LAYER-2
 10
17.756931
 20
25.103746
 30
0.000000
  0
VERTEX
  8
LAYER-2
 10
17.749057
 20
25.105788
 30
0.000000
  0
VERTEX
  8
LAYER-2
 10
17.741004
 20
25.106957
 30
0.000000
  0
VERTEX
  8
LAYER-2
 10
17.732874
 20
25.107239
 30
0.000000
  0
VERTEX
  8
LAYER-2
 10
17.726733
 20
25.104661
 30
0.000000
  0
SEQEND
  8
LAYER-2
  0
POLYLINE
  8
LAYER-2
 66
  1
 70
  0
 62
  7
 10
17.726726
 20
25.104661
 30
0.000000
  0
VERTEX
  8
LAYER-2
 10
17.726726
 20
25.104661
 30
0.000000
  0
VERTEX
  8
LAYER-2
 10
17.719750
 20
25.097196
 30
0.000000
  0
VERTEX
  8
LAYER-2
 10
17.715736
 20
25.087315
 30
0.000000
  0
VERTEX
  8
LAYER-2
 10
17.712753
 20
25.077076
 30
0.000000
  0
VERTEX
  8
LAYER-2
 10
17.710834
 20
25.066575
 30
0.000000
  0
VERTEX
  8
LAYER-2
 10
17.711968
 20
25.053976
 30
0.000000
  0
SEQEND
  8
LAYER-2
  0
POLYLINE
  8
LAYER-2
 66
  1
 70
  0
 62
  7
 10
17.711979
 20
25.415793
 30
0.000000
  0
VERTEX
  8
LAYER-2
 10
17.711979
 20
25.415793
 30
0.000000
  0
VERTEX
  8
LAYER-2
 10
17.800221
 20
25.155226
 30
0.000000
  0
VERTEX
  8
LAYER-2
 10
17.804352
 20
25.149557
 30
0.000000
  0
SEQEND
  8
LAYER-2
  0
POLYLINE
  8
LAYER-2
 66
  1
 70
  0
 62
  7
 10
17.804359
 20
25.898881
 30
0.000000
  0
VERTEX
  8
LAYER-2
 10
17.804359
 20
25.898881
 30
0.000000
  0
VERTEX
  8
LAYER-2
 10
17.788844
 20
25.891747
 30
0.000000
  0
VERTEX
  8
LAYER-2
 10
17.776294
 20
25.881310
 30
0.000000
  0
VERTEX
  8
LAYER-2
 10
17.764886
 20
25.869634
 30
0.000000
  0
VERTEX
  8
LAYER-2
 10
17.754730
 20
25.856866
 30
0.000000
  0
VERTEX
  8
LAYER-2
 10
17.747903
 20
25.841147
 30
0.000000
  0
SEQEND
  8
LAYER-2
  0
POLYLINE
  8
LAYER-2
 66
  1
 70
  0
 62
  7
 10
17.747910
 20
25.841147
 30
0.000000
  0
VERTEX
  8
LAYER-2
 10
17.747910
 20
25.841147
 30
0.000000
  0
VERTEX
  8
LAYER-2
 10
17.735663
 20
25.841090
 30
0.000000
  0
VERTEX
  8
LAYER-2
 10
17.726303
 20
25.836379
 30
0.000000
  0
VERTEX
  8
LAYER-2
 10
17.718556
 20
25.829322
 30
0.000000
  0
VERTEX
  8
LAYER-2
 10
17.712989
 20
25.820442
 30
0.000000
  0
VERTEX
  8
LAYER-2
 10
17.711986
 20
25.808420
 30
0.000000
  0
SEQEND
  8
LAYER-2
  0
POLYLINE
  8
LAYER-2
 66
  1
 70
  0
 62
  7
 10
17.711993
 20
26.174103
 30
0.000000
  0
VERTEX
  8
LAYER-2
 10
17.711993
 20
26.174103
 30
0.000000
  0
VERTEX
  8
LAYER-2
 10
17.713662
 20
26.141468
 30
0.000000
  0
VERTEX
  8
LAYER-2
 10
17.720905
 20
26.107438
 30
0.000000
  0
VERTEX
  8
LAYER-2
 10
17.731677
 20
26.074360
 30
0.000000
  0
VERTEX
  8
LAYER-2
 10
17.745846
 20
26.042584
 30
0.000000
  0
VERTEX
  8
LAYER-2
 10
17.765241
 20
26.010498
 30
0.000000
  0
SEQEND
  8
LAYER-2
  0
POLYLINE
  8
LAYER-2
 66
  1
 70
  0
 62
  7
 10
17.766512
 20
25.098879
 30
0.000000
  0
VERTEX
  8
LAYER-2
 10
17.766512
 20
25.098879
 30
0.000000
  0
VERTEX
  8
LAYER-2
 10
17.772118
 20
25.103020
 30
0.000000
  0
VERTEX
  8
LAYER-2
 10
17.779692
 20
25.105189
 30
0.000000
  0
VERTEX
  8
LAYER-2
 10
17.787260
 20
25.107366
 30
0.000000
  0
VERTEX
  8
LAYER-2
 10
17.794827
 20
25.109563
 30
0.000000
  0
VERTEX
  8
LAYER-2
 10
17.802387
 20
25.111767
 30
0.000000
  0
VERTEX
  8
LAYER-2
 10
17.804359
 20
25.109788
 30
0.000000
  0
SEQEND
  8
LAYER-2
  0
POLYLINE
  8
LAYER-2
 66
  1
 70
  0
 62
  7
 10
18.050382
 20
28.621526
 30
0.000000
  0
VERTEX
  8
LAYER-2
 10
18.050382
 20
28.621526
 30
0.000000
  0
VERTEX
  8
LAYER-2
 10
18.043882
 20
28.717367
 30
0.000000
  0
VERTEX
  8
LAYER-2
 10
18.032290
 20
28.810638
 30
0.000000
  0
VERTEX
  8
LAYER-2
 10
18.013708
 20
28.902769
 30
0.000000
  0
VERTEX
  8
LAYER-2
 10
17.988243
 20
28.993244
 30
0.000000
  0
VERTEX
  8
LAYER-2
 10
17.958002
 20
29.079571
 30
0.000000
  0
SEQEND
  8
LAYER-2
  0
POLYLINE
  8
LAYER-2
 66
  1
 70
  0
 62
  7
 10
18.050400
 20
28.621512
 30
0.000000
  0
VERTEX
  8
LAYER-2
 10
18.050400
 20
28.621512
 30
0.000000
  0
VERTEX
  8
LAYER-2
 10
17.992479
 20
28.899149
 30
0.000000
  0
VERTEX
  8
LAYER-2
 10
17.958016
 20
28.971799
 30
0.000000
  0
SEQEND
  8
LAYER-2
  0
POLYLINE
  8
LAYER-2
 66
  1
 70
  0
 62
  7
 10
18.050382
 20
28.582390
 30
0.000000
  0
VERTEX
  8
LAYER-2
 10
18.050382
 20
28.582390
 30
0.000000
  0
VERTEX
  8
LAYER-2
 10
18.038910
 20
28.661105
 30
0.000000
  0
VERTEX
  8
LAYER-2
 10
18.024864
 20
28.737136
 30
0.000000
  0
VERTEX
  8
LAYER-2
 10
18.006324
 20
28.812202
 30
0.000000
  0
VERTEX
  8
LAYER-2
 10
17.983351
 20
28.886036
 30
0.000000
  0
VERTEX
  8
LAYER-2
 10
17.958002
 20
28.956404
 30
0.000000
  0
SEQEND
  8
LAYER-2
  0
POLYLINE
  8
LAYER-2
 66
  1
 70
  0
 62
  7
 10
18.015758
 20
28.614469
 30
0.000000
  0
VERTEX
  8
LAYER-2
 10
18.015758
 20
28.614469
 30
0.000000
  0
VERTEX
  8
LAYER-2
 10
18.010613
 20
28.636350
 30
0.000000
  0
VERTEX
  8
LAYER-2
 10
18.002630
 20
28.654872
 30
0.000000
  0
VERTEX
  8
LAYER-2
 10
17.990334
 20
28.670851
 30
0.000000
  0
VERTEX
  8
LAYER-2
 10
17.974485
 20
28.683317
 30
0.000000
  0
VERTEX
  8
LAYER-2
 10
17.958027
 20
28.689535
 30
0.000000
  0
SEQEND
  8
LAYER-2
  0
POLYLINE
  8
LAYER-2
 66
  1
 70
  0
 62
  7
 10
18.015751
 20
28.614483
 30
0.000000
  0
VERTEX
  8
LAYER-2
 10
18.015751
 20
28.614483
 30
0.000000
  0
VERTEX
  8
LAYER-2
 10
18.047544
 20
28.584327
 30
0.000000
  0
VERTEX
  8
LAYER-2
 10
18.050389
 20
28.582405
 30
0.000000
  0
SEQEND
  8
LAYER-2
  0
POLYLINE
  8
LAYER-2
 66
  1
 70
  0
 62
  7
 10
18.049752
 20
28.331557
 30
0.000000
  0
VERTEX
  8
LAYER-2
 10
18.049752
 20
28.331557
 30
0.000000
  0
VERTEX
  8
LAYER-2
 10
18.006704
 20
28.575418
 30
0.000000
  0
VERTEX
  8
LAYER-2
 10
17.958009
 20
28.676704
 30
0.000000
  0
SEQEND
  8
LAYER-2
  0
POLYLINE
  8
LAYER-2
 66
  1
 70
  0
 62
  7
 10
18.028575
 20
28.160269
 30
0.000000
  0
VERTEX
  8
LAYER-2
 10
18.028575
 20
28.160269
 30
0.000000
  0
VERTEX
  8
LAYER-2
 10
18.022283
 20
28.183375
 30
0.000000
  0
VERTEX
  8
LAYER-2
 10
18.011934
 20
28.202292
 30
0.000000
  0
VERTEX
  8
LAYER-2
 10
17.996475
 20
28.217327
 30
0.000000
  0
VERTEX
  8
LAYER-2
 10
17.977277
 20
28.227152
 30
0.000000
  0
VERTEX
  8
LAYER-2
 10
17.958009
 20
28.228919
 30
0.000000
  0
SEQEND
  8
LAYER-2
  0
POLYLINE
  8
LAYER-2
 66
  1
 70
  0
 62
  7
 10
18.028582
 20
28.160248
 30
0.000000
  0
VERTEX
  8
LAYER-2
 10
18.028582
 20
28.160248
 30
0.000000
  0
VERTEX
  8
LAYER-2
 10
18.044223
 20
28.160537
 30
0.000000
  0
VERTEX
  8
LAYER-2
 10
18.050389
 20
28.171171
 30
0.000000
  0
SEQEND
  8
LAYER-2
  0
POLYLINE
  8
LAYER-2
 66
  1
 70
  0
 62
  7
 10
18.050389
 20
27.867723
 30
0.000000
  0
VERTEX
  8
LAYER-2
 10
18.050389
 20
27.867723
 30
0.000000
  0
VERTEX
  8
LAYER-2
 10
18.017599
 20
28.082505
 30
0.000000
  0
VERTEX
  8
LAYER-2
 10
17.958009
 20
28.203235
 30
0.000000
  0
SEQEND
  8
LAYER-2
  0
POLYLINE
  8
LAYER-2
 66
  1
 70
  0
 62
  7
 10
17.995866
 20
27.591867
 30
0.000000
  0
VERTEX
  8
LAYER-2
 10
17.995866
 20
27.591867
 30
0.000000
  0
VERTEX
  8
LAYER-2
 10
18.001500
 20
27.590938
 30
0.000000
  0
VERTEX
  8
LAYER-2
 10
18.009374
 20
27.588902
 30
0.000000
  0
VERTEX
  8
LAYER-2
 10
18.017427
 20
27.587733
 30
0.000000
  0
VERTEX
  8
LAYER-2
 10
18.025557
 20
27.587445
 30
0.000000
  0
VERTEX
  8
LAYER-2
 10
18.033670
 20
27.588064
 30
0.000000
  0
VERTEX
  8
LAYER-2
 10
18.035642
 20
27.586099
 30
0.000000
  0
SEQEND
  8
LAYER-2
  0
POLYLINE
  8
LAYER-2
 66
  1
 70
  0
 62
  7
 10
18.035628
 20
27.586099
 30
0.000000
  0
VERTEX
  8
LAYER-2
 10
18.035628
 20
27.586099
 30
0.000000
  0
VERTEX
  8
LAYER-2
 10
18.038663
 20
27.597487
 30
0.000000
  0
VERTEX
  8
LAYER-2
 10
18.042678
 20
27.607368
 30
0.000000
  0
VERTEX
  8
LAYER-2
 10
18.045660
 20
27.617615
 30
0.000000
  0
VERTEX
  8
LAYER-2
 10
18.047579
 20
27.628108
 30
0.000000
  0
VERTEX
  8
LAYER-2
 10
18.048414
 20
27.638742
 30
0.000000
  0
VERTEX
  8
LAYER-2
 10
18.050382
 20
27.636777
 30
0.000000
  0
SEQEND
  8
LAYER-2
  0
POLYLINE
  8
LAYER-2
 66
  1
 70
  0
 62
  7
 10
18.050375
 20
27.274940
 30
0.000000
  0
VERTEX
  8
LAYER-2
 10
18.050375
 20
27.274940
 30
0.000000
  0
VERTEX
  8
LAYER-2
 10
17.958196
 20
27.539457
 30
0.000000
  0
VERTEX
  8
LAYER-2
 10
17.958002
 20
27.541182
 30
0.000000
  0
SEQEND
  8
LAYER-2
  0
POLYLINE
  8
LAYER-2
 66
  1
 70
  0
 62
  7
 10
17.958009
 20
26.791887
 30
0.000000
  0
VERTEX
  8
LAYER-2
 10
17.958009
 20
26.791887
 30
0.000000
  0
VERTEX
  8
LAYER-2
 10
17.969597
 20
26.802950
 30
0.000000
  0
VERTEX
  8
LAYER-2
 10
17.982144
 20
26.813394
 30
0.000000
  0
VERTEX
  8
LAYER-2
 10
17.993553
 20
26.825064
 30
0.000000
  0
VERTEX
  8
LAYER-2
 10
18.003708
 20
26.837839
 30
0.000000
  0
VERTEX
  8
LAYER-2
 10
18.014465
 20
26.849621
 30
0.000000
  0
SEQEND
  8
LAYER-2
  0
POLYLINE
  8
LAYER-2
 66
  1
 70
  0
 62
  7
 10
18.014458
 20
26.849621
 30
0.000000
  0
VERTEX
  8
LAYER-2
 10
18.014458
 20
26.849621
 30
0.000000
  0
VERTEX
  8
LAYER-2
 10
18.022768
 20
26.853607
 30
0.000000
  0
VERTEX
  8
LAYER-2
 10
18.032128
 20
26.858326
 30
0.000000
  0
VERTEX
  8
LAYER-2
 10
18.039875
 20
26.865382
 30
0.000000
  0
VERTEX
  8
LAYER-2
 10
18.045442
 20
26.874263
 30
0.000000
  0
VERTEX
  8
LAYER-2
 10
18.050382
 20
26.882334
 30
0.000000
  0
SEQEND
  8
LAYER-2
  0
POLYLINE
  8
LAYER-2
 66
  1
 70
  0
 62
  7
 10
18.050389
 20
26.516665
 30
0.000000
  0
VERTEX
  8
LAYER-2
 10
18.050389
 20
26.516665
 30
0.000000
  0
VERTEX
  8
LAYER-2
 10
18.044783
 20
26.553237
 30
0.000000
  0
VERTEX
  8
LAYER-2
 10
18.037540
 20
26.587266
 30
0.000000
  0
VERTEX
  8
LAYER-2
 10
18.026772
 20
26.620345
 30
0.000000
  0
VERTEX
  8
LAYER-2
 10
18.012599
 20
26.652114
 30
0.000000
  0
VERTEX
  8
LAYER-2
 10
17.997148
 20
26.680249
 30
0.000000
  0
SEQEND
  8
LAYER-2
  0
POLYLINE
  8
LAYER-2
 66
  1
 70
  0
 62
  7
 10
18.050400
 20
28.621526
 30
0.000000
  0
VERTEX
  8
LAYER-2
 10
18.050400
 20
28.621526
 30
0.000000
  0
VERTEX
  8
LAYER-2
 10
18.050400
 20
24.125040
 30
0.000000
  0
SEQEND
  8
LAYER-2
  0
POLYLINE
  8
LAYER-2
 66
  1
 70
  0
 62
  7
 10
17.957365
 20
23.663797
 30
0.000000
  0
VERTEX
  8
LAYER-2
 10
17.957365
 20
23.663797
 30
0.000000
  0
VERTEX
  8
LAYER-2
 10
18.046386
 20
23.997028
 30
0.000000
  0
VERTEX
  8
LAYER-2
 10
18.049745
 20
24.097468
 30
0.000000
  0
SEQEND
  8
LAYER-2
  0
POLYLINE
  8
LAYER-2
 66
  1
 70
  0
 62
  7
 10
17.957365
 20
23.768343
 30
0.000000
  0
VERTEX
  8
LAYER-2
 10
17.957365
 20
23.768343
 30
0.000000
  0
VERTEX
  8
LAYER-2
 10
18.042195
 20
24.021240
 30
0.000000
  0
VERTEX
  8
LAYER-2
 10
18.050382
 20
24.125040
 30
0.000000
  0
SEQEND
  8
LAYER-2
  0
POLYLINE
  8
LAYER-2
 66
  1
 70
  0
 62
  7
 10
17.957365
 20
23.783105
 30
0.000000
  0
VERTEX
  8
LAYER-2
 10
17.957365
 20
23.783105
 30
0.000000
  0
VERTEX
  8
LAYER-2
 10
18.038452
 20
24.068052
 30
0.000000
  0
VERTEX
  8
LAYER-2
 10
18.050389
 20
24.125040
 30
0.000000
  0
SEQEND
  8
LAYER-2
  0
POLYLINE
  8
LAYER-2
 66
  1
 70
  0
 62
  7
 10
17.957365
 20
24.029459
 30
0.000000
  0
VERTEX
  8
LAYER-2
 10
17.957365
 20
24.029459
 30
0.000000
  0
VERTEX
  8
LAYER-2
 10
17.973823
 20
24.039614
 30
0.000000
  0
VERTEX
  8
LAYER-2
 10
17.989672
 20
24.052072
 30
0.000000
  0
VERTEX
  8
LAYER-2
 10
18.001968
 20
24.068059
 30
0.000000
  0
VERTEX
  8
LAYER-2
 10
18.009951
 20
24.086581
 30
0.000000
  0
VERTEX
  8
LAYER-2
 10
18.015096
 20
24.104525
 30
0.000000
  0
SEQEND
  8
LAYER-2
  0
POLYLINE
  8
LAYER-2
 66
  1
 70
  0
 62
  7
 10
18.049745
 20
24.136590
 30
0.000000
  0
VERTEX
  8
LAYER-2
 10
18.049745
 20
24.136590
 30
0.000000
  0
VERTEX
  8
LAYER-2
 10
18.013173
 20
24.107356
 30
0.000000
  0
VERTEX
  8
LAYER-2
 10
18.015103
 20
24.104511
 30
0.000000
  0
SEQEND
  8
LAYER-2
  0
POLYLINE
  8
LAYER-2
 66
  1
 70
  0
 62
  7
 10
17.957372
 20
24.042290
 30
0.000000
  0
VERTEX
  8
LAYER-2
 10
17.957372
 20
24.042290
 30
0.000000
  0
VERTEX
  8
LAYER-2
 10
17.983228
 20
24.110399
 30
0.000000
  0
VERTEX
  8
LAYER-2
 10
18.006416
 20
24.178324
 30
0.000000
  0
VERTEX
  8
LAYER-2
 10
18.024853
 20
24.247678
 30
0.000000
  0
VERTEX
  8
LAYER-2
 10
18.038449
 20
24.318146
 30
0.000000
  0
VERTEX
  8
LAYER-2
 10
18.047143
 20
24.389388
 30
0.000000
  0
VERTEX
  8
LAYER-2
 10
18.049115
 20
24.387423
 30
0.000000
  0
SEQEND
  8
LAYER-2
  0
POLYLINE
  8
LAYER-2
 66
  1
 70
  0
 62
  7
 10
17.957372
 20
24.477877
 30
0.000000
  0
VERTEX
  8
LAYER-2
 10
17.957372
 20
24.477877
 30
0.000000
  0
VERTEX
  8
LAYER-2
 10
17.975474
 20
24.489469
 30
0.000000
  0
VERTEX
  8
LAYER-2
 10
17.993215
 20
24.502899
 30
0.000000
  0
VERTEX
  8
LAYER-2
 10
18.007919
 20
24.519611
 30
0.000000
  0
VERTEX
  8
LAYER-2
 10
18.018987
 20
24.538922
 30
0.000000
  0
VERTEX
  8
LAYER-2
 10
18.027938
 20
24.558084
 30
0.000000
  0
SEQEND
  8
LAYER-2
  0
POLYLINE
  8
LAYER-2
 66
  1
 70
  0
 62
  7
 10
18.049752
 20
24.547161
 30
0.000000
  0
VERTEX
  8
LAYER-2
 10
18.049752
 20
24.547161
 30
0.000000
  0
VERTEX
  8
LAYER-2
 10
18.038575
 20
24.564240
 30
0.000000
  0
VERTEX
  8
LAYER-2
 10
18.027938
 20
24.558063
 30
0.000000
  0
SEQEND
  8
LAYER-2
  0
POLYLINE
  8
LAYER-2
 66
  1
 70
  0
 62
  7
 10
17.957379
 20
24.503547
 30
0.000000
  0
VERTEX
  8
LAYER-2
 10
17.957379
 20
24.503547
 30
0.000000
  0
VERTEX
  8
LAYER-2
 10
17.983418
 20
24.574874
 30
0.000000
  0
VERTEX
  8
LAYER-2
 10
18.006817
 20
24.645912
 30
0.000000
  0
VERTEX
  8
LAYER-2
 10
18.025504
 20
24.718330
 30
0.000000
  0
VERTEX
  8
LAYER-2
 10
18.039396
 20
24.791826
 30
0.000000
  0
VERTEX
  8
LAYER-2
 10
18.050400
 20
24.864089
 30
0.000000
  0
SEQEND
  8
LAYER-2
  0
POLYLINE
  8
LAYER-2
 66
  1
 70
  0
 62
  7
 10
18.034998
 20
25.104661
 30
0.000000
  0
VERTEX
  8
LAYER-2
 10
18.034998
 20
25.104661
 30
0.000000
  0
VERTEX
  8
LAYER-2
 10
18.024920
 20
25.107239
 30
0.000000
  0
VERTEX
  8
LAYER-2
 10
18.016789
 20
25.106957
 30
0.000000
  0
VERTEX
  8
LAYER-2
 10
18.008736
 20
25.105788
 30
0.000000
  0
VERTEX
  8
LAYER-2
 10
18.000863
 20
25.103746
 30
0.000000
  0
VERTEX
  8
LAYER-2
 10
17.995225
 20
25.098879
 30
0.000000
  0
SEQEND
  8
LAYER-2
  0
POLYLINE
  8
LAYER-2
 66
  1
 70
  0
 62
  7
 10
18.049759
 20
25.053976
 30
0.000000
  0
VERTEX
  8
LAYER-2
 10
18.049759
 20
25.053976
 30
0.000000
  0
VERTEX
  8
LAYER-2
 10
18.046956
 20
25.066575
 30
0.000000
  0
VERTEX
  8
LAYER-2
 10
18.045040
 20
25.077076
 30
0.000000
  0
VERTEX
  8
LAYER-2
 10
18.042054
 20
25.087315
 30
0.000000
  0
VERTEX
  8
LAYER-2
 10
18.038040
 20
25.097196
 30
0.000000
  0
VERTEX
  8
LAYER-2
 10
18.035005
 20
25.104661
 30
0.000000
  0
SEQEND
  8
LAYER-2
  0
POLYLINE
  8
LAYER-2
 66
  1
 70
  0
 62
  7
 10
17.957379
 20
25.149557
 30
0.000000
  0
VERTEX
  8
LAYER-2
 10
17.957379
 20
25.149557
 30
0.000000
  0
VERTEX
  8
LAYER-2
 10
18.047199
 20
25.413525
 30
0.000000
  0
VERTEX
  8
LAYER-2
 10
18.049752
 20
25.415793
 30
0.000000
  0
SEQEND
  8
LAYER-2
  0
POLYLINE
  8
LAYER-2
 66
  1
 70
  0
 62
  7
 10
18.013828
 20
25.841147
 30
0.000000
  0
VERTEX
  8
LAYER-2
 10
18.013828
 20
25.841147
 30
0.000000
  0
VERTEX
  8
LAYER-2
 10
18.003063
 20
25.856866
 30
0.000000
  0
VERTEX
  8
LAYER-2
 10
17.992908
 20
25.869634
 30
0.000000
  0
VERTEX
  8
LAYER-2
 10
17.981496
 20
25.881310
 30
0.000000
  0
VERTEX
  8
LAYER-2
 10
17.968950
 20
25.891747
 30
0.000000
  0
VERTEX
  8
LAYER-2
 10
17.957372
 20
25.898881
 30
0.000000
  0
SEQEND
  8
LAYER-2
  0
POLYLINE
  8
LAYER-2
 66
  1
 70
  0
 62
  7
 10
18.049759
 20
25.808420
 30
0.000000
  0
VERTEX
  8
LAYER-2
 10
18.049759
 20
25.808420
 30
0.000000
  0
VERTEX
  8
LAYER-2
 10
18.044826
 20
25.820442
 30
0.000000
  0
VERTEX
  8
LAYER-2
 10
18.039262
 20
25.829322
 30
0.000000
  0
VERTEX
  8
LAYER-2
 10
18.031512
 20
25.836379
 30
0.000000
  0
VERTEX
  8
LAYER-2
 10
18.022152
 20
25.841090
 30
0.000000
  0
VERTEX
  8
LAYER-2
 10
18.013835
 20
25.841147
 30
0.000000
  0
SEQEND
  8
LAYER-2
  0
POLYLINE
  8
LAYER-2
 66
  1
 70
  0
 62
  7
 10
17.996510
 20
26.010498
 30
0.000000
  0
VERTEX
  8
LAYER-2
 10
17.996510
 20
26.010498
 30
0.000000
  0
VERTEX
  8
LAYER-2
 10
18.011962
 20
26.042584
 30
0.000000
  0
VERTEX
  8
LAYER-2
 10
18.026131
 20
26.074360
 30
0.000000
  0
VERTEX
  8
LAYER-2
 10
18.036903
 20
26.107438
 30
0.000000
  0
VERTEX
  8
LAYER-2
 10
18.044146
 20
26.141468
 30
0.000000
  0
VERTEX
  8
LAYER-2
 10
18.049752
 20
26.174103
 30
0.000000
  0
SEQEND
  8
LAYER-2
  0
POLYLINE
  8
LAYER-2
 66
  1
 70
  0
 62
  7
 10
17.957678
 20
27.580965
 30
0.000000
  0
VERTEX
  8
LAYER-2
 10
17.957678
 20
27.580965
 30
0.000000
  0
VERTEX
  8
LAYER-2
 10
17.995866
 20
27.591867
 30
0.000000
  0
SEQEND
  8
LAYER-2
  0
POLYLINE
  8
LAYER-2
 66
  1
 70
  0
 62
  7
 10
17.997134
 20
26.680270
 30
0.000000
  0
VERTEX
  8
LAYER-2
 10
17.997134
 20
26.680270
 30
0.000000
  0
VERTEX
  8
LAYER-2
 10
17.989042
 20
26.697179
 30
0.000000
  0
VERTEX
  8
LAYER-2
 10
17.981866
 20
26.711658
 30
0.000000
  0
VERTEX
  8
LAYER-2
 10
17.973675
 20
26.725581
 30
0.000000
  0
VERTEX
  8
LAYER-2
 10
17.964516
 20
26.738892
 30
0.000000
  0
VERTEX
  8
LAYER-2
 10
17.954431
 20
26.751519
 30
0.000000
  0
VERTEX
  8
LAYER-2
 10
17.956403
 20
26.749547
 30
0.000000
  0
SEQEND
  8
LAYER-2
  0
POLYLINE
  8
LAYER-2
 66
  1
 70
  0
 62
  7
 10
17.957055
 20
25.941214
 30
0.000000
  0
VERTEX
  8
LAYER-2
 10
17.957055
 20
25.941214
 30
0.000000
  0
VERTEX
  8
LAYER-2
 10
17.964833
 20
25.955904
 30
0.000000
  0
VERTEX
  8
LAYER-2
 10
17.973693
 20
25.969250
 30
0.000000
  0
VERTEX
  8
LAYER-2
 10
17.981619
 20
25.983180
 30
0.000000
  0
VERTEX
  8
LAYER-2
 10
17.988581
 20
25.997603
 30
0.000000
  0
VERTEX
  8
LAYER-2
 10
17.994539
 20
26.012477
 30
0.000000
  0
VERTEX
  8
LAYER-2
 10
17.996510
 20
26.010498
 30
0.000000
  0
SEQEND
  8
LAYER-2
  0
POLYLINE
  8
LAYER-2
 66
  1
 70
  0
 62
  7
 10
17.958333
 20
25.109802
 30
0.000000
  0
VERTEX
  8
LAYER-2
 10
17.958333
 20
25.109802
 30
0.000000
  0
VERTEX
  8
LAYER-2
 10
17.995204
 20
25.098879
 30
0.000000
  0
SEQEND
  8
LAYER-2
  0
POLYLINE
  8
LAYER-2
 66
  1
 70
  1
 62
  7
  0
VERTEX
  8
LAYER-2
 10
16.976465
 20
27.396452
 30
0.000000
  0
VERTEX
  8
LAYER-2
 10
17.709802
 20
27.396452
 30
0.000000
  0
VERTEX
  8
LAYER-2
 10
17.709802
 20
25.378932
 30
0.000000
  0
VERTEX
  8
LAYER-2
 10
16.976465
 20
25.378932
 30
0.000000
  0
SEQEND
  8
LAYER-2
  0
CIRCLE
  8
LAYER-2
 62
  7
 10
17.279998
 20
26.370138
 30
0.000000
 40
0.163157
  0
POLYLINE
  8
LAYER-2
 66
  1
 70
  0
 62
  7
 10
69.905738
 20
26.882686
 30
0.000000
  0
VERTEX
  8
LAYER-2
 10
69.905738
 20
26.882686
 30
0.000000
  0
VERTEX
  8
LAYER-2
 10
68.739582
 20
26.882686
 30
0.000000
  0
SEQEND
  8
LAYER-2
  0
POLYLINE
  8
LAYER-2
  6
LTYPE01
 66
  1
 70
  0
 62
  7
  6
LTYPE01
 10
69.905738
 20
26.635268
 30
0.000000
  0
VERTEX
  8
LAYER-2
  6
LTYPE01
 10
69.905738
 20
26.635268
 30
0.000000
  0
VERTEX
  8
LAYER-2
  6
LTYPE01
 10
68.739582
 20
26.635268
 30
0.000000
  0
SEQEND
  8
LAYER-2
  0
POLYLINE
  8
LAYER-2
 66
  1
 70
  0
 62
  7
 10
69.905738
 20
25.885099
 30
0.000000
  0
VERTEX
  8
LAYER-2
 10
69.905738
 20
25.885099
 30
0.000000
  0
VERTEX
  8
LAYER-2
 10
68.739582
 20
25.885099
 30
0.000000
  0
SEQEND
  8
LAYER-2
  0
POLYLINE
  8
LAYER-2
 66
  1
 70
  0
 62
  7
 10
64.212144
 20
26.882686
 30
0.000000
  0
VERTEX
  8
LAYER-2
 10
64.212144
 20
26.882686
 30
0.000000
  0
VERTEX
  8
LAYER-2
 10
67.687507
 20
26.882686
 30
0.000000
  0
SEQEND
  8
LAYER-2
  0
POLYLINE
  8
LAYER-2
  6
LTYPE01
 66
  1
 70
  0
 62
  7
  6
LTYPE01
 10
64.212144
 20
26.635268
 30
0.000000
  0
VERTEX
  8
LAYER-2
  6
LTYPE01
 10
64.212144
 20
26.635268
 30
0.000000
  0
VERTEX
  8
LAYER-2
  6
LTYPE01
 10
67.687507
 20
26.635268
 30
0.000000
  0
SEQEND
  8
LAYER-2
  0
POLYLINE
  8
LAYER-2
 66
  1
 70
  0
 62
  7
 10
64.212144
 20
25.885099
 30
0.000000
  0
VERTEX
  8
LAYER-2
 10
64.212144
 20
25.885099
 30
0.000000
  0
VERTEX
  8
LAYER-2
 10
67.687507
 20
25.885099
 30
0.000000
  0
SEQEND
  8
LAYER-2
  0
POLYLINE
  8
LAYER-2
 66
  1
 70
  0
 62
  7
 10
16.073804
 20
26.882686
 30
0.000000
  0
VERTEX
  8
LAYER-2
 10
16.073804
 20
26.882686
 30
0.000000
  0
VERTEX
  8
LAYER-2
 10
16.979169
 20
26.882686
 30
0.000000
  0
SEQEND
  8
LAYER-2
  0
POLYLINE
  8
LAYER-2
 66
  1
 70
  0
 62
  7
 10
21.767409
 20
26.882686
 30
0.000000
  0
VERTEX
  8
LAYER-2
 10
21.767409
 20
26.882686
 30
0.000000
  0
VERTEX
  8
LAYER-2
 10
18.052083
 20
26.882686
 30
0.000000
  0
SEQEND
  8
LAYER-2
  0
POLYLINE
  8
LAYER-2
  6
LTYPE01
 66
  1
 70
  0
 62
  7
  6
LTYPE01
 10
21.767409
 20
26.635254
 30
0.000000
  0
VERTEX
  8
LAYER-2
  6
LTYPE01
 10
21.767409
 20
26.635254
 30
0.000000
  0
VERTEX
  8
LAYER-2
  6
LTYPE01
 10
18.052083
 20
26.635254
 30
0.000000
  0
SEQEND
  8
LAYER-2
  0
POLYLINE
  8
LAYER-2
 66
  1
 70
  0
 62
  7
 10
21.767409
 20
25.885085
 30
0.000000
  0
VERTEX
  8
LAYER-2
 10
21.767409
 20
25.885085
 30
0.000000
  0
VERTEX
  8
LAYER-2
 10
18.052083
 20
25.885085
 30
0.000000
  0
SEQEND
  8
LAYER-2
  0
POLYLINE
  8
LAYER-2
  6
LTYPE01
 66
  1
 70
  0
 62
  7
  6
LTYPE01
 10
16.073804
 20
26.635254
 30
0.000000
  0
VERTEX
  8
LAYER-2
  6
LTYPE01
 10
16.073804
 20
26.635254
 30
0.000000
  0
VERTEX
  8
LAYER-2
  6
LTYPE01
 10
16.979169
 20
26.635254
 30
0.000000
  0
SEQEND
  8
LAYER-2
  0
POLYLINE
  8
LAYER-2
 66
  1
 70
  0
 62
  7
 10
16.073804
 20
25.885085
 30
0.000000
  0
VERTEX
  8
LAYER-2
 10
16.073804
 20
25.885085
 30
0.000000
  0
VERTEX
  8
LAYER-2
 10
16.979169
 20
25.885085
 30
0.000000
  0
SEQEND
  8
LAYER-2
  0
TEXT
  8
LAYER-2
 62
  7
 10
8.660256
 20
38.416696
 30
0.000000
 40
1.471154
  1
Roue d'engrenage
 72
  5
 11
24.583333
 21
38.416696
 31
0.000000
  0
TEXT
  8
LAYER-2
 62
  7
 10
8.660256
 20
36.109004
 30
0.000000
 40
1.471154
  1
pour grilles
 72
  5
 11
18.467948
 21
36.109004
 31
0.000000
  0
TEXT
  8
LAYER-2
 62
  7
 10
8.660256
 20
33.801312
 30
0.000000
 40
1.471154
  1
motorisÄes
 72
  5
 11
18.352563
 21
33.801312
 31
0.000000
  0
POLYLINE
  8
LAYER-2
 66
  1
 70
  0
 62
  7
 10
15.666666
 20
32.891059
 30
0.000000
  0
VERTEX
  8
LAYER-2
 10
15.666666
 20
32.891059
 30
0.000000
  0
VERTEX
  8
LAYER-2
 10
17.947861
 20
29.096445
 30
0.000000
  0
SEQEND
  8
LAYER-2
  0
POLYLINE
  8
LAYER-2
 66
  1
 70
  1
 62
  7
  0
VERTEX
  8
LAYER-2
 10
17.958002
 20
29.079571
 30
0.000000
  0
VERTEX
  8
LAYER-2
 10
17.364078
 20
29.395674
 30
0.000000
  0
VERTEX
  8
LAYER-2
 10
17.660751
 20
29.574026
 30
0.000000
  0
VERTEX
  8
LAYER-2
 10
17.957421
 20
29.752378
 30
0.000000
  0
VERTEX
  8
LAYER-2
 10
17.958002
 20
29.079571
 30
0.000000
  0
SEQEND
  8
LAYER-2
  0
TEXT
  8
LAYER-2
 62
  7
 10
27.814102
 20
33.916696
 30
0.000000
 40
1.471154
  1
Baril
 72
  5
 11
32.198717
 21
33.916696
 31
0.000000
  0
POLYLINE
  8
LAYER-2
 66
  1
 70
  0
 62
  7
 10
32.999982
 20
33.057720
 30
0.000000
  0
VERTEX
  8
LAYER-2
 10
32.999982
 20
33.057720
 30
0.000000
  0
VERTEX
  8
LAYER-2
 10
34.533110
 20
29.712053
 30
0.000000
  0
SEQEND
  8
LAYER-2
  0
POLYLINE
  8
LAYER-2
 66
  1
 70
  1
 62
  7
  0
VERTEX
  8
LAYER-2
 10
34.541311
 20
29.694165
 30
0.000000
  0
VERTEX
  8
LAYER-2
 10
33.986284
 20
30.074439
 30
0.000000
  0
VERTEX
  8
LAYER-2
 10
34.300971
 20
30.218642
 30
0.000000
  0
VERTEX
  8
LAYER-2
 10
34.615659
 20
30.362845
 30
0.000000
  0
VERTEX
  8
LAYER-2
 10
34.541311
 20
29.694165
 30
0.000000
  0
SEQEND
  8
LAYER-2
  0
TEXT
  8
LAYER-2
 62
  7
 10
27.121794
 20
59.416696
 30
0.000000
 40
1.730769
  1
 7"
 72
  5
 11
30.467948
 21
59.416696
 31
0.000000
  0
TEXT
  8
LAYER-2
 62
  7
 10
30.467948
 20
59.416696
 30
0.000000
 40
1.471154
  1
 (178mm) pour grilles de plus de 22'0" (6,71m) de largeur
 72
  5
 11
79.160256
 21
59.416696
 31
0.000000
  0
TEXT
  8
LAYER-2
 62
  7
 10
27.121794
 20
56.762850
 30
0.000000
 40
1.471154
  1
( 
 72
  5
 11
28.967948
 21
56.762850
 31
0.000000
  0
TEXT
  8
LAYER-2
 62
  7
 10
28.967948
 20
56.762850
 30
0.000000
 40
1.730769
  1
5"
 72
  5
 11
31.621794
 21
56.762850
 31
0.000000
  0
TEXT
  8
LAYER-2
 62
  7
 10
31.621794
 20
56.762850
 30
0.000000
 40
1.471154
  1
 min (127mm) pour portes roulantes de comptoir ) 
 72
  5
 11
74.544871
 21
56.762850
 31
0.000000
  0
TEXT
  8
LAYER-2
 62
  7
 10
0.352563
 20
98.185927
 30
0.000000
 40
1.471154
  1
DâTAIL PLAFOND
 72
  5
 11
17.314102
 21
98.185927
 31
0.000000
  0
TEXT
  8
LAYER-2
 62
  7
 10
0.467948
 20
43.609004
 30
0.000000
 40
1.471154
  1
PANNEAUX D'ACCÚS
 72
  5
 11
20.544871
 21
43.609004
 31
0.000000
  0
TEXT
  8
LAYER-2
 62
  7
 10
41.775640
 20
85.378235
 30
0.000000
 40
1.730769
  1
6"
 72
  5
 11
44.429486
 21
85.378235
 31
0.000000
  0
TEXT
  8
LAYER-2
 62
  7
 10
44.429486
 20
85.378235
 30
0.000000
 40
1.471154
  1
 min (152mm)
 72
  5
 11
56.660256
 21
85.378235
 31
0.000000
  0
TEXT
  8
LAYER-2
 62
  7
 10
41.775640
 20
83.070543
 30
0.000000
 40
1.471154
  1
     au dessus
 72
  5
 11
53.775640
 21
83.070543
 31
0.000000
  0
TEXT
  8
LAYER-2
 62
  7
 10
41.775640
 20
80.762850
 30
0.000000
 40
1.471154
  1
     du plafond fini
 72
  5
 11
57.121794
 21
80.762850
 31
0.000000
  0
TEXT
  8
LAYER-2
 62
  7
 10
27.929486
 20
62.647466
 30
0.000000
 40
1.471154
  1
ê
 72
  5
 11
29.544871
 21
62.647466
 31
0.000000
  0
TEXT
  8
LAYER-2
 62
  7
 10
8.544871
 20
83.647466
 30
0.000000
 40
1.471154
  1
Plaque
 72
  5
 11
14.891025
 21
83.647466
 31
0.000000
  0
TEXT
  8
LAYER-2
 62
  7
 10
8.544871
 20
81.339773
 30
0.000000
 40
1.471154
  1
d'extrÄmitÄ
 72
  5
 11
18.006410
 21
81.339773
 31
0.000000
  0
TEXT
  8
LAYER-2
 62
  7
 10
8.544871
 20
72.109004
 30
0.000000
 40
1.471154
  1
Plafond
 72
  5
 11
15.467948
 21
72.109004
 31
0.000000
  0
TEXT
  8
LAYER-2
 62
  7
 10
8.544871
 20
69.801312
 30
0.000000
 40
1.471154
  1
fini
 72
  5
 11
11.660256
 21
69.801312
 31
0.000000
  0
POLYLINE
  8
LAYER-2
 66
  1
 70
  0
 62
  7
 10
56.833332
 20
6.057720
 30
0.000000
  0
VERTEX
  8
LAYER-2
 10
56.833332
 20
6.057720
 30
0.000000
  0
VERTEX
  8
LAYER-2
 10
66.151780
 20
14.128171
 30
0.000000
  0
SEQEND
  8
LAYER-2
  0
POLYLINE
  8
LAYER-2
 66
  1
 70
  1
 62
  7
  0
VERTEX
  8
LAYER-2
 10
66.166661
 20
14.141059
 30
0.000000
  0
VERTEX
  8
LAYER-2
 10
65.957181
 20
13.501697
 30
0.000000
  0
VERTEX
  8
LAYER-2
 10
65.730560
 20
13.763362
 30
0.000000
  0
VERTEX
  8
LAYER-2
 10
65.503939
 20
14.025027
 30
0.000000
  0
VERTEX
  8
LAYER-2
 10
66.166661
 20
14.141059
 30
0.000000
  0
SEQEND
  8
LAYER-2
  0
POLYLINE
  8
LAYER-2
 66
  1
 70
  0
 62
  7
 10
28.166667
 20
6.224389
 30
0.000000
  0
VERTEX
  8
LAYER-2
 10
28.166667
 20
6.224389
 30
0.000000
  0
VERTEX
  8
LAYER-2
 10
19.098172
 20
14.128122
 30
0.000000
  0
SEQEND
  8
LAYER-2
  0
POLYLINE
  8
LAYER-2
 66
  1
 70
  1
 62
  7
  0
VERTEX
  8
LAYER-2
 10
19.083333
 20
14.141059
 30
0.000000
  0
VERTEX
  8
LAYER-2
 10
19.745685
 20
14.022956
 30
0.000000
  0
VERTEX
  8
LAYER-2
 10
19.518254
 20
13.762003
 30
0.000000
  0
VERTEX
  8
LAYER-2
 10
19.290820
 20
13.501049
 30
0.000000
  0
VERTEX
  8
LAYER-2
 10
19.083333
 20
14.141059
 30
0.000000
  0
SEQEND
  8
LAYER-2
  0
TEXT
  8
LAYER-2
 62
  7
 10
8.660256
 20
20.416696
 30
0.000000
 40
1.471154
  1
Plafond
 72
  5
 11
15.583333
 21
20.416696
 31
0.000000
  0
TEXT
  8
LAYER-2
 62
  7
 10
8.660256
 20
18.109004
 30
0.000000
 40
1.471154
  1
fini
 72
  5
 11
11.775640
 21
18.109004
 31
0.000000
  0
POLYLINE
  8
LAYER-2
 66
  1
 70
  0
 62
  7
 10
7.833332
 20
19.307718
 30
0.000000
  0
VERTEX
  8
LAYER-2
 10
7.833332
 20
19.307718
 30
0.000000
  0
VERTEX
  8
LAYER-2
 10
3.097748
 20
14.904461
 30
0.000000
  0
SEQEND
  8
LAYER-2
  0
POLYLINE
  8
LAYER-2
 66
  1
 70
  1
 62
  7
  0
VERTEX
  8
LAYER-2
 10
3.083332
 20
14.891059
 30
0.000000
  0
VERTEX
  8
LAYER-2
 10
3.270120
 20
15.537415
 30
0.000000
  0
VERTEX
  8
LAYER-2
 10
3.505832
 20
15.283912
 30
0.000000
  0
VERTEX
  8
LAYER-2
 10
3.741545
 20
15.030410
 30
0.000000
  0
VERTEX
  8
LAYER-2
 10
3.083332
 20
14.891059
 30
0.000000
  0
SEQEND
  8
LAYER-2
  0
TEXT
  8
LAYER-2
 62
  7
 10
21.467948
 20
105.685927
 30
0.000000
 40
2.250000
  1
Plafond & Panneaux d'accÅs
 72
  5
 11
62.198717
 21
105.685927
 31
0.000000
  0
POLYLINE
  8
LAYER-2
 66
  1
 70
  1
 62
  7
  0
VERTEX
  8
LAYER-2
 10
24.408195
 20
75.030142
 30
0.000000
  0
VERTEX
  8
LAYER-2
 10
38.850896
 20
75.030142
 30
0.000000
  0
VERTEX
  8
LAYER-2
 10
38.850896
 20
74.280142
 30
0.000000
  0
VERTEX
  8
LAYER-2
 10
24.408195
 20
74.280142
 30
0.000000
  0
SEQEND
  8
LAYER-2
  0
POLYLINE
  8
LAYER-2
 66
  1
 70
  1
 62
  7
  0
VERTEX
  8
LAYER-2
 10
19.141719
 20
94.290570
 30
0.000000
  0
VERTEX
  8
LAYER-2
 10
33.141695
 20
94.290570
 30
0.000000
  0
VERTEX
  8
LAYER-2
 10
33.141695
 20
78.287095
 30
0.000000
  0
VERTEX
  8
LAYER-2
 10
19.141719
 20
78.287095
 30
0.000000
  0
SEQEND
  8
LAYER-2
  0
CIRCLE
  8
LAYER-2
 62
  7
 10
20.417756
 20
92.792302
 30
0.000000
 40
0.281250
  0
CIRCLE
  8
LAYER-2
 62
  7
 10
26.167761
 20
87.292307
 30
0.000000
 40
0.500000
  0
CIRCLE
  8
LAYER-2
 62
  7
 10
20.167754
 20
86.292304
 30
0.000000
 40
0.195300
  0
CIRCLE
  8
LAYER-2
 62
  7
 10
20.167754
 20
79.667302
 30
0.000000
 40
0.195300
  0
CIRCLE
  8
LAYER-2
 62
  7
 10
26.167761
 20
87.292307
 30
0.000000
 40
3.311633
  0
POLYLINE
  8
LAYER-2
 66
  1
 70
  0
 62
  7
 10
20.598443
 20
78.287800
 30
0.000000
  0
VERTEX
  8
LAYER-2
 10
20.598443
 20
78.287800
 30
0.000000
  0
VERTEX
  8
LAYER-2
 10
20.597059
 20
49.462470
 30
0.000000
  0
SEQEND
  8
LAYER-2
  0
POLYLINE
  8
LAYER-2
 66
  1
 70
  0
 62
  7
 10
22.227219
 20
77.551772
 30
0.000000
  0
VERTEX
  8
LAYER-2
 10
22.227219
 20
77.551772
 30
0.000000
  0
VERTEX
  8
LAYER-2
 10
22.223056
 20
49.462470
 30
0.000000
  0
SEQEND
  8
LAYER-2
  0
POLYLINE
  8
LAYER-2
 66
  1
 70
  0
 62
  7
 10
21.776205
 20
77.543891
 30
0.000000
  0
VERTEX
  8
LAYER-2
 10
21.776205
 20
77.543891
 30
0.000000
  0
VERTEX
  8
LAYER-2
 10
21.780836
 20
49.462470
 30
0.000000
  0
SEQEND
  8
LAYER-2
  0
POLYLINE
  8
LAYER-2
 66
  1
 70
  0
 62
  7
 10
21.028867
 20
78.290208
 30
0.000000
  0
VERTEX
  8
LAYER-2
 10
21.028867
 20
78.290208
 30
0.000000
  0
VERTEX
  8
LAYER-2
 10
21.028867
 20
49.462470
 30
0.000000
  0
SEQEND
  8
LAYER-2
  0
POLYLINE
  8
LAYER-2
 66
  1
 70
  0
 62
  7
 10
22.268210
 20
77.734934
 30
0.000000
  0
VERTEX
  8
LAYER-2
 10
22.268210
 20
77.734934
 30
0.000000
  0
VERTEX
  8
LAYER-2
 10
22.519339
 20
78.257658
 30
0.000000
  0
SEQEND
  8
LAYER-2
  0
ARC
  8
LAYER-2
 62
  7
 10
22.664717
 20
77.551772
 30
0.000000
 40
0.437500
 50
155.000000
 51
180.000000
  0
POLYLINE
  8
LAYER-2
 66
  1
 70
  0
 62
  7
 10
21.817193
 20
77.727046
 30
0.000000
  0
VERTEX
  8
LAYER-2
 10
21.817193
 20
77.727046
 30
0.000000
  0
VERTEX
  8
LAYER-2
 10
21.939546
 20
77.981718
 30
0.000000
  0
SEQEND
  8
LAYER-2
  0
ARC
  8
LAYER-2
 62
  7
 10
22.213708
 20
77.543891
 30
0.000000
 40
0.437500
 50
155.000000
 51
180.000000
  0
POLYLINE
  8
LAYER-2
 66
  1
 70
  0
 62
  7
 10
22.519339
 20
78.257658
 30
0.000000
  0
VERTEX
  8
LAYER-2
 10
22.519339
 20
78.257658
 30
0.000000
  0
VERTEX
  8
LAYER-2
 10
21.939546
 20
77.981718
 30
0.000000
  0
SEQEND
  8
LAYER-2
  0
POLYLINE
  8
LAYER-2
 66
  1
 70
  0
 62
  7
 10
22.227532
 20
78.287800
 30
0.000000
  0
VERTEX
  8
LAYER-2
 10
22.227532
 20
78.287800
 30
0.000000
  0
VERTEX
  8
LAYER-2
 10
22.227532
 20
78.118779
 30
0.000000
  0
SEQEND
  8
LAYER-2
  0
POLYLINE
  8
LAYER-2
 66
  1
 70
  0
 62
  7
 10
21.939070
 20
78.287800
 30
0.000000
  0
VERTEX
  8
LAYER-2
 10
21.939070
 20
78.287800
 30
0.000000
  0
VERTEX
  8
LAYER-2
 10
21.939070
 20
77.969055
 30
0.000000
  0
SEQEND
  8
LAYER-2
  0
POLYLINE
  8
LAYER-2
 66
  1
 70
  1
 62
  7
  0
VERTEX
  8
LAYER-2
 10
8.560979
 20
75.030142
 30
0.000000
  0
VERTEX
  8
LAYER-2
 10
18.408205
 20
75.030142
 30
0.000000
  0
VERTEX
  8
LAYER-2
 10
18.408205
 20
74.280142
 30
0.000000
  0
VERTEX
  8
LAYER-2
 10
8.560979
 20
74.280142
 30
0.000000
  0
SEQEND
  8
LAYER-2
  0
CIRCLE
  8
LAYER-2
 62
  7
 10
21.388712
 20
51.441967
 30
0.000000
 40
0.082054
  0
ARC
  8
LAYER-2
 62
  7
 10
21.405737
 20
51.215790
 30
0.000000
 40
0.087262
 50
312.856262
 51
249.391663
  0
POLYLINE
  8
LAYER-2
 66
  1
 70
  0
 62
  7
 10
21.360031
 20
51.076954
 30
0.000000
  0
VERTEX
  8
LAYER-2
 10
21.360031
 20
51.076954
 30
0.000000
  0
VERTEX
  8
LAYER-2
 10
21.323565
 20
51.076954
 30
0.000000
  0
SEQEND
  8
LAYER-2
  0
POLYLINE
  8
LAYER-2
 66
  1
 70
  0
 62
  7
 10
21.375025
 20
51.134118
 30
0.000000
  0
VERTEX
  8
LAYER-2
 10
21.375025
 20
51.134118
 30
0.000000
  0
VERTEX
  8
LAYER-2
 10
21.374993
 20
51.091898
 30
0.000000
  0
SEQEND
  8
LAYER-2
  0
ARC
  8
LAYER-2
 62
  7
 10
21.360031
 20
51.091912
 30
0.000000
 40
0.014961
 50
270.000000
 51
359.956757
  0
POLYLINE
  8
LAYER-2
 66
  1
 70
  0
 62
  7
 10
21.537548
 20
51.441650
 30
0.000000
  0
VERTEX
  8
LAYER-2
 10
21.537548
 20
51.441650
 30
0.000000
  0
VERTEX
  8
LAYER-2
 10
21.565690
 20
51.161133
 30
0.000000
  0
SEQEND
  8
LAYER-2
  0
ARC
  8
LAYER-2
 62
  7
 10
21.510466
 20
51.155597
 30
0.000000
 40
0.055512
 50
315.000000
 51
5.728333
  0
POLYLINE
  8
LAYER-2
 66
  1
 70
  0
 62
  7
 10
21.465084
 20
51.151830
 30
0.000000
  0
VERTEX
  8
LAYER-2
 10
21.465084
 20
51.151830
 30
0.000000
  0
VERTEX
  8
LAYER-2
 10
21.490152
 20
51.086546
 30
0.000000
  0
SEQEND
  8
LAYER-2
  0
POLYLINE
  8
LAYER-2
 66
  1
 70
  0
 62
  7
 10
21.514695
 20
51.081334
 30
0.000000
  0
VERTEX
  8
LAYER-2
 10
21.514695
 20
51.081334
 30
0.000000
  0
VERTEX
  8
LAYER-2
 10
21.549714
 20
51.116349
 30
0.000000
  0
SEQEND
  8
LAYER-2
  0
ARC
  8
LAYER-2
 62
  7
 10
21.504114
 20
51.091912
 30
0.000000
 40
0.014961
 50
201.000244
 51
315.000000
  0
POLYLINE
  8
LAYER-2
 66
  1
 70
  0
 62
  7
 10
21.266450
 20
51.134068
 30
0.000000
  0
VERTEX
  8
LAYER-2
 10
21.266450
 20
51.134068
 30
0.000000
  0
VERTEX
  8
LAYER-2
 10
21.323565
 20
51.076954
 30
0.000000
  0
SEQEND
  8
LAYER-2
  0
POLYLINE
  8
LAYER-2
 66
  1
 70
  0
 62
  7
 10
21.266450
 20
51.134068
 30
0.000000
  0
VERTEX
  8
LAYER-2
 10
21.266450
 20
51.134068
 30
0.000000
  0
VERTEX
  8
LAYER-2
 10
21.243643
 20
51.297962
 30
0.000000
  0
SEQEND
  8
LAYER-2
  0
POLYLINE
  8
LAYER-2
 66
  1
 70
  0
 62
  7
 10
21.278753
 20
51.333069
 30
0.000000
  0
VERTEX
  8
LAYER-2
 10
21.278753
 20
51.333069
 30
0.000000
  0
VERTEX
  8
LAYER-2
 10
21.238766
 20
51.373056
 30
0.000000
  0
SEQEND
  8
LAYER-2
  0
POLYLINE
  8
LAYER-2
 66
  1
 70
  0
 62
  7
 10
21.278753
 20
51.333069
 30
0.000000
  0
VERTEX
  8
LAYER-2
 10
21.278753
 20
51.333069
 30
0.000000
  0
VERTEX
  8
LAYER-2
 10
21.243643
 20
51.297962
 30
0.000000
  0
SEQEND
  8
LAYER-2
  0
POLYLINE
  8
LAYER-2
 66
  1
 70
  0
 62
  7
 10
21.238766
 20
51.373056
 30
0.000000
  0
VERTEX
  8
LAYER-2
 10
21.238766
 20
51.373056
 30
0.000000
  0
VERTEX
  8
LAYER-2
 10
21.238766
 20
51.510252
 30
0.000000
  0
SEQEND
  8
LAYER-2
  0
ARC
  8
LAYER-2
 62
  7
 10
21.405737
 20
51.667504
 30
0.000000
 40
0.087262
 50
110.608337
 51
47.143738
  0
POLYLINE
  8
LAYER-2
 66
  1
 70
  0
 62
  7
 10
21.360031
 20
51.806340
 30
0.000000
  0
VERTEX
  8
LAYER-2
 10
21.360031
 20
51.806340
 30
0.000000
  0
VERTEX
  8
LAYER-2
 10
21.323565
 20
51.806340
 30
0.000000
  0
SEQEND
  8
LAYER-2
  0
POLYLINE
  8
LAYER-2
 66
  1
 70
  0
 62
  7
 10
21.375025
 20
51.749183
 30
0.000000
  0
VERTEX
  8
LAYER-2
 10
21.375025
 20
51.749183
 30
0.000000
  0
VERTEX
  8
LAYER-2
 10
21.374993
 20
51.791396
 30
0.000000
  0
SEQEND
  8
LAYER-2
  0
ARC
  8
LAYER-2
 62
  7
 10
21.360031
 20
51.791396
 30
0.000000
 40
0.014961
 50
0.043243
 51
90.000000
  0
POLYLINE
  8
LAYER-2
 66
  1
 70
  0
 62
  7
 10
21.537548
 20
51.441650
 30
0.000000
  0
VERTEX
  8
LAYER-2
 10
21.537548
 20
51.441650
 30
0.000000
  0
VERTEX
  8
LAYER-2
 10
21.565690
 20
51.722161
 30
0.000000
  0
SEQEND
  8
LAYER-2
  0
ARC
  8
LAYER-2
 62
  7
 10
21.510466
 20
51.727696
 30
0.000000
 40
0.055512
 50
354.271667
 51
45.000000
  0
POLYLINE
  8
LAYER-2
 66
  1
 70
  0
 62
  7
 10
21.465084
 20
51.731464
 30
0.000000
  0
VERTEX
  8
LAYER-2
 10
21.465084
 20
51.731464
 30
0.000000
  0
VERTEX
  8
LAYER-2
 10
21.490152
 20
51.796748
 30
0.000000
  0
SEQEND
  8
LAYER-2
  0
POLYLINE
  8
LAYER-2
 66
  1
 70
  0
 62
  7
 10
21.514695
 20
51.801974
 30
0.000000
  0
VERTEX
  8
LAYER-2
 10
21.514695
 20
51.801974
 30
0.000000
  0
VERTEX
  8
LAYER-2
 10
21.549714
 20
51.766958
 30
0.000000
  0
SEQEND
  8
LAYER-2
  0
ARC
  8
LAYER-2
 62
  7
 10
21.504114
 20
51.791396
 30
0.000000
 40
0.014961
 50
45.000000
 51
158.999756
  0
POLYLINE
  8
LAYER-2
 66
  1
 70
  0
 62
  7
 10
21.266450
 20
51.749225
 30
0.000000
  0
VERTEX
  8
LAYER-2
 10
21.266450
 20
51.749225
 30
0.000000
  0
VERTEX
  8
LAYER-2
 10
21.323565
 20
51.806340
 30
0.000000
  0
SEQEND
  8
LAYER-2
  0
POLYLINE
  8
LAYER-2
 66
  1
 70
  0
 62
  7
 10
21.266450
 20
51.749225
 30
0.000000
  0
VERTEX
  8
LAYER-2
 10
21.266450
 20
51.749225
 30
0.000000
  0
VERTEX
  8
LAYER-2
 10
21.243643
 20
51.585332
 30
0.000000
  0
SEQEND
  8
LAYER-2
  0
POLYLINE
  8
LAYER-2
 66
  1
 70
  0
 62
  7
 10
21.278753
 20
51.550239
 30
0.000000
  0
VERTEX
  8
LAYER-2
 10
21.278753
 20
51.550239
 30
0.000000
  0
VERTEX
  8
LAYER-2
 10
21.238766
 20
51.510252
 30
0.000000
  0
SEQEND
  8
LAYER-2
  0
POLYLINE
  8
LAYER-2
 66
  1
 70
  0
 62
  7
 10
21.278753
 20
51.550239
 30
0.000000
  0
VERTEX
  8
LAYER-2
 10
21.278753
 20
51.550239
 30
0.000000
  0
VERTEX
  8
LAYER-2
 10
21.243643
 20
51.585332
 30
0.000000
  0
SEQEND
  8
LAYER-2
  0
POLYLINE
  8
LAYER-2
 66
  1
 70
  0
 62
  7
 10
21.438009
 20
51.024107
 30
0.000000
  0
VERTEX
  8
LAYER-2
 10
21.438009
 20
51.024107
 30
0.000000
  0
VERTEX
  8
LAYER-2
 10
21.432273
 20
51.018374
 30
0.000000
  0
SEQEND
  8
LAYER-2
  0
POLYLINE
  8
LAYER-2
 66
  1
 70
  0
 62
  7
 10
21.438009
 20
51.024107
 30
0.000000
  0
VERTEX
  8
LAYER-2
 10
21.438009
 20
51.024107
 30
0.000000
  0
VERTEX
  8
LAYER-2
 10
21.438087
 20
51.148956
 30
0.000000
  0
SEQEND
  8
LAYER-2
  0
ARC
  8
LAYER-2
 62
  7
 10
21.407220
 20
51.217607
 30
0.000000
 40
0.075258
 50
294.206604
 51
245.830200
  0
POLYLINE
  8
LAYER-2
 66
  1
 70
  0
 62
  7
 10
21.376493
 20
51.024107
 30
0.000000
  0
VERTEX
  8
LAYER-2
 10
21.376493
 20
51.024107
 30
0.000000
  0
VERTEX
  8
LAYER-2
 10
21.376416
 20
51.148942
 30
0.000000
  0
SEQEND
  8
LAYER-2
  0
POLYLINE
  8
LAYER-2
 66
  1
 70
  0
 62
  7
 10
21.376493
 20
51.024107
 30
0.000000
  0
VERTEX
  8
LAYER-2
 10
21.376493
 20
51.024107
 30
0.000000
  0
VERTEX
  8
LAYER-2
 10
21.382398
 20
51.018205
 30
0.000000
  0
SEQEND
  8
LAYER-2
  0
POLYLINE
  8
LAYER-2
 66
  1
 70
  0
 62
  7
 10
21.382814
 20
49.460703
 30
0.000000
  0
VERTEX
  8
LAYER-2
 10
21.382814
 20
49.460703
 30
0.000000
  0
VERTEX
  8
LAYER-2
 10
21.382398
 20
51.018205
 30
0.000000
  0
SEQEND
  8
LAYER-2
  0
POLYLINE
  8
LAYER-2
 66
  1
 70
  0
 62
  7
 10
21.429689
 20
49.465900
 30
0.000000
  0
VERTEX
  8
LAYER-2
 10
21.429689
 20
49.465900
 30
0.000000
  0
VERTEX
  8
LAYER-2
 10
21.432273
 20
51.018374
 30
0.000000
  0
SEQEND
  8
LAYER-2
  0
CIRCLE
  8
LAYER-2
 62
  7
 10
21.388712
 20
54.389895
 30
0.000000
 40
0.082054
  0
ARC
  8
LAYER-2
 62
  7
 10
21.405737
 20
54.163717
 30
0.000000
 40
0.087262
 50
312.856262
 51
249.391663
  0
POLYLINE
  8
LAYER-2
 66
  1
 70
  0
 62
  7
 10
21.360031
 20
54.024881
 30
0.000000
  0
VERTEX
  8
LAYER-2
 10
21.360031
 20
54.024881
 30
0.000000
  0
VERTEX
  8
LAYER-2
 10
21.323565
 20
54.024881
 30
0.000000
  0
SEQEND
  8
LAYER-2
  0
POLYLINE
  8
LAYER-2
 66
  1
 70
  0
 62
  7
 10
21.375025
 20
54.082038
 30
0.000000
  0
VERTEX
  8
LAYER-2
 10
21.375025
 20
54.082038
 30
0.000000
  0
VERTEX
  8
LAYER-2
 10
21.374993
 20
54.039825
 30
0.000000
  0
SEQEND
  8
LAYER-2
  0
ARC
  8
LAYER-2
 62
  7
 10
21.360031
 20
54.039840
 30
0.000000
 40
0.014961
 50
270.000000
 51
359.956757
  0
POLYLINE
  8
LAYER-2
 66
  1
 70
  0
 62
  7
 10
21.537548
 20
54.389571
 30
0.000000
  0
VERTEX
  8
LAYER-2
 10
21.537548
 20
54.389571
 30
0.000000
  0
VERTEX
  8
LAYER-2
 10
21.565690
 20
54.109060
 30
0.000000
  0
SEQEND
  8
LAYER-2
  0
ARC
  8
LAYER-2
 62
  7
 10
21.510466
 20
54.103525
 30
0.000000
 40
0.055512
 50
315.000000
 51
5.728333
  0
POLYLINE
  8
LAYER-2
 66
  1
 70
  0
 62
  7
 10
21.465084
 20
54.099757
 30
0.000000
  0
VERTEX
  8
LAYER-2
 10
21.465084
 20
54.099757
 30
0.000000
  0
VERTEX
  8
LAYER-2
 10
21.490152
 20
54.034473
 30
0.000000
  0
SEQEND
  8
LAYER-2
  0
POLYLINE
  8
LAYER-2
 66
  1
 70
  0
 62
  7
 10
21.514695
 20
54.029262
 30
0.000000
  0
VERTEX
  8
LAYER-2
 10
21.514695
 20
54.029262
 30
0.000000
  0
VERTEX
  8
LAYER-2
 10
21.549714
 20
54.064277
 30
0.000000
  0
SEQEND
  8
LAYER-2
  0
ARC
  8
LAYER-2
 62
  7
 10
21.504114
 20
54.039840
 30
0.000000
 40
0.014961
 50
201.000244
 51
315.000000
  0
POLYLINE
  8
LAYER-2
 66
  1
 70
  0
 62
  7
 10
21.266450
 20
54.081996
 30
0.000000
  0
VERTEX
  8
LAYER-2
 10
21.266450
 20
54.081996
 30
0.000000
  0
VERTEX
  8
LAYER-2
 10
21.323565
 20
54.024881
 30
0.000000
  0
SEQEND
  8
LAYER-2
  0
POLYLINE
  8
LAYER-2
 66
  1
 70
  0
 62
  7
 10
21.266450
 20
54.081996
 30
0.000000
  0
VERTEX
  8
LAYER-2
 10
21.266450
 20
54.081996
 30
0.000000
  0
VERTEX
  8
LAYER-2
 10
21.243643
 20
54.245890
 30
0.000000
  0
SEQEND
  8
LAYER-2
  0
POLYLINE
  8
LAYER-2
 66
  1
 70
  0
 62
  7
 10
21.278753
 20
54.280996
 30
0.000000
  0
VERTEX
  8
LAYER-2
 10
21.278753
 20
54.280996
 30
0.000000
  0
VERTEX
  8
LAYER-2
 10
21.238766
 20
54.320984
 30
0.000000
  0
SEQEND
  8
LAYER-2
  0
POLYLINE
  8
LAYER-2
 66
  1
 70
  0
 62
  7
 10
21.278753
 20
54.280996
 30
0.000000
  0
VERTEX
  8
LAYER-2
 10
21.278753
 20
54.280996
 30
0.000000
  0
VERTEX
  8
LAYER-2
 10
21.243643
 20
54.245890
 30
0.000000
  0
SEQEND
  8
LAYER-2
  0
POLYLINE
  8
LAYER-2
 66
  1
 70
  0
 62
  7
 10
21.238766
 20
54.320984
 30
0.000000
  0
VERTEX
  8
LAYER-2
 10
21.238766
 20
54.320984
 30
0.000000
  0
VERTEX
  8
LAYER-2
 10
21.238766
 20
54.458179
 30
0.000000
  0
SEQEND
  8
LAYER-2
  0
ARC
  8
LAYER-2
 62
  7
 10
21.405737
 20
54.615432
 30
0.000000
 40
0.087262
 50
110.608337
 51
47.143738
  0
POLYLINE
  8
LAYER-2
 66
  1
 70
  0
 62
  7
 10
21.360031
 20
54.754268
 30
0.000000
  0
VERTEX
  8
LAYER-2
 10
21.360031
 20
54.754268
 30
0.000000
  0
VERTEX
  8
LAYER-2
 10
21.323565
 20
54.754268
 30
0.000000
  0
SEQEND
  8
LAYER-2
  0
POLYLINE
  8
LAYER-2
 66
  1
 70
  0
 62
  7
 10
21.375025
 20
54.697104
 30
0.000000
  0
VERTEX
  8
LAYER-2
 10
21.375025
 20
54.697104
 30
0.000000
  0
VERTEX
  8
LAYER-2
 10
21.374993
 20
54.739324
 30
0.000000
  0
SEQEND
  8
LAYER-2
  0
ARC
  8
LAYER-2
 62
  7
 10
21.360031
 20
54.739324
 30
0.000000
 40
0.014961
 50
0.043243
 51
90.000000
  0
POLYLINE
  8
LAYER-2
 66
  1
 70
  0
 62
  7
 10
21.537548
 20
54.389571
 30
0.000000
  0
VERTEX
  8
LAYER-2
 10
21.537548
 20
54.389571
 30
0.000000
  0
VERTEX
  8
LAYER-2
 10
21.565690
 20
54.670089
 30
0.000000
  0
SEQEND
  8
LAYER-2
  0
ARC
  8
LAYER-2
 62
  7
 10
21.510466
 20
54.675624
 30
0.000000
 40
0.055512
 50
354.271667
 51
45.000000
  0
POLYLINE
  8
LAYER-2
 66
  1
 70
  0
 62
  7
 10
21.465084
 20
54.679392
 30
0.000000
  0
VERTEX
  8
LAYER-2
 10
21.465084
 20
54.679392
 30
0.000000
  0
VERTEX
  8
LAYER-2
 10
21.490152
 20
54.744676
 30
0.000000
  0
SEQEND
  8
LAYER-2
  0
POLYLINE
  8
LAYER-2
 66
  1
 70
  0
 62
  7
 10
21.514695
 20
54.749901
 30
0.000000
  0
VERTEX
  8
LAYER-2
 10
21.514695
 20
54.749901
 30
0.000000
  0
VERTEX
  8
LAYER-2
 10
21.549714
 20
54.714886
 30
0.000000
  0
SEQEND
  8
LAYER-2
  0
ARC
  8
LAYER-2
 62
  7
 10
21.504114
 20
54.739324
 30
0.000000
 40
0.014961
 50
45.000000
 51
158.999756
  0
POLYLINE
  8
LAYER-2
 66
  1
 70
  0
 62
  7
 10
21.266450
 20
54.697153
 30
0.000000
  0
VERTEX
  8
LAYER-2
 10
21.266450
 20
54.697153
 30
0.000000
  0
VERTEX
  8
LAYER-2
 10
21.323565
 20
54.754268
 30
0.000000
  0
SEQEND
  8
LAYER-2
  0
POLYLINE
  8
LAYER-2
 66
  1
 70
  0
 62
  7
 10
21.266450
 20
54.697153
 30
0.000000
  0
VERTEX
  8
LAYER-2
 10
21.266450
 20
54.697153
 30
0.000000
  0
VERTEX
  8
LAYER-2
 10
21.243643
 20
54.533259
 30
0.000000
  0
SEQEND
  8
LAYER-2
  0
POLYLINE
  8
LAYER-2
 66
  1
 70
  0
 62
  7
 10
21.278753
 20
54.498167
 30
0.000000
  0
VERTEX
  8
LAYER-2
 10
21.278753
 20
54.498167
 30
0.000000
  0
VERTEX
  8
LAYER-2
 10
21.238766
 20
54.458179
 30
0.000000
  0
SEQEND
  8
LAYER-2
  0
POLYLINE
  8
LAYER-2
 66
  1
 70
  0
 62
  7
 10
21.278753
 20
54.498167
 30
0.000000
  0
VERTEX
  8
LAYER-2
 10
21.278753
 20
54.498167
 30
0.000000
  0
VERTEX
  8
LAYER-2
 10
21.243643
 20
54.533259
 30
0.000000
  0
SEQEND
  8
LAYER-2
  0
POLYLINE
  8
LAYER-2
 66
  1
 70
  0
 62
  7
 10
21.438009
 20
53.972034
 30
0.000000
  0
VERTEX
  8
LAYER-2
 10
21.438009
 20
53.972034
 30
0.000000
  0
VERTEX
  8
LAYER-2
 10
21.432273
 20
53.966302
 30
0.000000
  0
SEQEND
  8
LAYER-2
  0
POLYLINE
  8
LAYER-2
 66
  1
 70
  0
 62
  7
 10
21.438009
 20
53.972034
 30
0.000000
  0
VERTEX
  8
LAYER-2
 10
21.438009
 20
53.972034
 30
0.000000
  0
VERTEX
  8
LAYER-2
 10
21.438087
 20
54.096884
 30
0.000000
  0
SEQEND
  8
LAYER-2
  0
ARC
  8
LAYER-2
 62
  7
 10
21.407220
 20
54.165520
 30
0.000000
 40
0.075258
 50
294.206604
 51
245.830200
  0
POLYLINE
  8
LAYER-2
 66
  1
 70
  0
 62
  7
 10
21.376493
 20
53.972034
 30
0.000000
  0
VERTEX
  8
LAYER-2
 10
21.376493
 20
53.972034
 30
0.000000
  0
VERTEX
  8
LAYER-2
 10
21.376416
 20
54.096870
 30
0.000000
  0
SEQEND
  8
LAYER-2
  0
POLYLINE
  8
LAYER-2
 66
  1
 70
  0
 62
  7
 10
21.376493
 20
53.972034
 30
0.000000
  0
VERTEX
  8
LAYER-2
 10
21.376493
 20
53.972034
 30
0.000000
  0
VERTEX
  8
LAYER-2
 10
21.382398
 20
53.966133
 30
0.000000
  0
SEQEND
  8
LAYER-2
  0
POLYLINE
  8
LAYER-2
 66
  1
 70
  0
 62
  7
 10
21.382398
 20
51.865138
 30
0.000000
  0
VERTEX
  8
LAYER-2
 10
21.382398
 20
51.865138
 30
0.000000
  0
VERTEX
  8
LAYER-2
 10
21.382398
 20
53.966133
 30
0.000000
  0
SEQEND
  8
LAYER-2
  0
POLYLINE
  8
LAYER-2
 66
  1
 70
  0
 62
  7
 10
21.376461
 20
51.859201
 30
0.000000
  0
VERTEX
  8
LAYER-2
 10
21.376461
 20
51.859201
 30
0.000000
  0
VERTEX
  8
LAYER-2
 10
21.382398
 20
51.865138
 30
0.000000
  0
SEQEND
  8
LAYER-2
  0
POLYLINE
  8
LAYER-2
 66
  1
 70
  0
 62
  7
 10
21.376461
 20
51.859201
 30
0.000000
  0
VERTEX
  8
LAYER-2
 10
21.376461
 20
51.859201
 30
0.000000
  0
VERTEX
  8
LAYER-2
 10
21.376401
 20
51.734373
 30
0.000000
  0
SEQEND
  8
LAYER-2
  0
ARC
  8
LAYER-2
 62
  7
 10
21.407251
 20
51.665715
 30
0.000000
 40
0.075258
 50
114.206604
 51
65.830200
  0
POLYLINE
  8
LAYER-2
 66
  1
 70
  0
 62
  7
 10
21.437978
 20
51.859201
 30
0.000000
  0
VERTEX
  8
LAYER-2
 10
21.437978
 20
51.859201
 30
0.000000
  0
VERTEX
  8
LAYER-2
 10
21.438069
 20
51.734387
 30
0.000000
  0
SEQEND
  8
LAYER-2
  0
POLYLINE
  8
LAYER-2
 66
  1
 70
  0
 62
  7
 10
21.437978
 20
51.859201
 30
0.000000
  0
VERTEX
  8
LAYER-2
 10
21.437978
 20
51.859201
 30
0.000000
  0
VERTEX
  8
LAYER-2
 10
21.432273
 20
51.864920
 30
0.000000
  0
SEQEND
  8
LAYER-2
  0
POLYLINE
  8
LAYER-2
 66
  1
 70
  0
 62
  7
 10
21.432273
 20
51.864920
 30
0.000000
  0
VERTEX
  8
LAYER-2
 10
21.432273
 20
51.864920
 30
0.000000
  0
VERTEX
  8
LAYER-2
 10
21.432273
 20
53.966302
 30
0.000000
  0
SEQEND
  8
LAYER-2
  0
CIRCLE
  8
LAYER-2
 62
  7
 10
21.388712
 20
57.337808
 30
0.000000
 40
0.082054
  0
ARC
  8
LAYER-2
 62
  7
 10
21.405737
 20
57.111631
 30
0.000000
 40
0.087262
 50
312.856262
 51
249.391663
  0
POLYLINE
  8
LAYER-2
 66
  1
 70
  0
 62
  7
 10
21.360031
 20
56.972788
 30
0.000000
  0
VERTEX
  8
LAYER-2
 10
21.360031
 20
56.972788
 30
0.000000
  0
VERTEX
  8
LAYER-2
 10
21.323565
 20
56.972788
 30
0.000000
  0
SEQEND
  8
LAYER-2
  0
POLYLINE
  8
LAYER-2
 66
  1
 70
  0
 62
  7
 10
21.375025
 20
57.029952
 30
0.000000
  0
VERTEX
  8
LAYER-2
 10
21.375025
 20
57.029952
 30
0.000000
  0
VERTEX
  8
LAYER-2
 10
21.374993
 20
56.987739
 30
0.000000
  0
SEQEND
  8
LAYER-2
  0
ARC
  8
LAYER-2
 62
  7
 10
21.360031
 20
56.987753
 30
0.000000
 40
0.014961
 50
270.000000
 51
359.956757
  0
POLYLINE
  8
LAYER-2
 66
  1
 70
  0
 62
  7
 10
21.537548
 20
57.337485
 30
0.000000
  0
VERTEX
  8
LAYER-2
 10
21.537548
 20
57.337485
 30
0.000000
  0
VERTEX
  8
LAYER-2
 10
21.565690
 20
57.056974
 30
0.000000
  0
SEQEND
  8
LAYER-2
  0
ARC
  8
LAYER-2
 62
  7
 10
21.510466
 20
57.051439
 30
0.000000
 40
0.055512
 50
315.000000
 51
5.728333
  0
POLYLINE
  8
LAYER-2
 66
  1
 70
  0
 62
  7
 10
21.465084
 20
57.047671
 30
0.000000
  0
VERTEX
  8
LAYER-2
 10
21.465084
 20
57.047671
 30
0.000000
  0
VERTEX
  8
LAYER-2
 10
21.490152
 20
56.982387
 30
0.000000
  0
SEQEND
  8
LAYER-2
  0
POLYLINE
  8
LAYER-2
 66
  1
 70
  0
 62
  7
 10
21.514695
 20
56.977175
 30
0.000000
  0
VERTEX
  8
LAYER-2
 10
21.514695
 20
56.977175
 30
0.000000
  0
VERTEX
  8
LAYER-2
 10
21.549714
 20
57.012191
 30
0.000000
  0
SEQEND
  8
LAYER-2
  0
ARC
  8
LAYER-2
 62
  7
 10
21.504114
 20
56.987753
 30
0.000000
 40
0.014961
 50
201.000244
 51
315.000000
  0
POLYLINE
  8
LAYER-2
 66
  1
 70
  0
 62
  7
 10
21.266450
 20
57.029910
 30
0.000000
  0
VERTEX
  8
LAYER-2
 10
21.266450
 20
57.029910
 30
0.000000
  0
VERTEX
  8
LAYER-2
 10
21.323565
 20
56.972788
 30
0.000000
  0
SEQEND
  8
LAYER-2
  0
POLYLINE
  8
LAYER-2
 66
  1
 70
  0
 62
  7
 10
21.266450
 20
57.029910
 30
0.000000
  0
VERTEX
  8
LAYER-2
 10
21.266450
 20
57.029910
 30
0.000000
  0
VERTEX
  8
LAYER-2
 10
21.243643
 20
57.193803
 30
0.000000
  0
SEQEND
  8
LAYER-2
  0
POLYLINE
  8
LAYER-2
 66
  1
 70
  0
 62
  7
 10
21.278753
 20
57.228910
 30
0.000000
  0
VERTEX
  8
LAYER-2
 10
21.278753
 20
57.228910
 30
0.000000
  0
VERTEX
  8
LAYER-2
 10
21.238766
 20
57.268897
 30
0.000000
  0
SEQEND
  8
LAYER-2
  0
POLYLINE
  8
LAYER-2
 66
  1
 70
  0
 62
  7
 10
21.278753
 20
57.228910
 30
0.000000
  0
VERTEX
  8
LAYER-2
 10
21.278753
 20
57.228910
 30
0.000000
  0
VERTEX
  8
LAYER-2
 10
21.243643
 20
57.193803
 30
0.000000
  0
SEQEND
  8
LAYER-2
  0
POLYLINE
  8
LAYER-2
 66
  1
 70
  0
 62
  7
 10
21.238766
 20
57.268897
 30
0.000000
  0
VERTEX
  8
LAYER-2
 10
21.238766
 20
57.268897
 30
0.000000
  0
VERTEX
  8
LAYER-2
 10
21.238766
 20
57.406093
 30
0.000000
  0
SEQEND
  8
LAYER-2
  0
ARC
  8
LAYER-2
 62
  7
 10
21.405737
 20
57.563338
 30
0.000000
 40
0.087262
 50
110.608337
 51
47.143738
  0
POLYLINE
  8
LAYER-2
 66
  1
 70
  0
 62
  7
 10
21.360031
 20
57.702181
 30
0.000000
  0
VERTEX
  8
LAYER-2
 10
21.360031
 20
57.702181
 30
0.000000
  0
VERTEX
  8
LAYER-2
 10
21.323565
 20
57.702181
 30
0.000000
  0
SEQEND
  8
LAYER-2
  0
POLYLINE
  8
LAYER-2
 66
  1
 70
  0
 62
  7
 10
21.375025
 20
57.645017
 30
0.000000
  0
VERTEX
  8
LAYER-2
 10
21.375025
 20
57.645017
 30
0.000000
  0
VERTEX
  8
LAYER-2
 10
21.374993
 20
57.687230
 30
0.000000
  0
SEQEND
  8
LAYER-2
  0
ARC
  8
LAYER-2
 62
  7
 10
21.360031
 20
57.687230
 30
0.000000
 40
0.014961
 50
0.043243
 51
90.000000
  0
POLYLINE
  8
LAYER-2
 66
  1
 70
  0
 62
  7
 10
21.537548
 20
57.337485
 30
0.000000
  0
VERTEX
  8
LAYER-2
 10
21.537548
 20
57.337485
 30
0.000000
  0
VERTEX
  8
LAYER-2
 10
21.565690
 20
57.617995
 30
0.000000
  0
SEQEND
  8
LAYER-2
  0
ARC
  8
LAYER-2
 62
  7
 10
21.510466
 20
57.623530
 30
0.000000
 40
0.055512
 50
354.271667
 51
45.000000
  0
POLYLINE
  8
LAYER-2
 66
  1
 70
  0
 62
  7
 10
21.465084
 20
57.627305
 30
0.000000
  0
VERTEX
  8
LAYER-2
 10
21.465084
 20
57.627305
 30
0.000000
  0
VERTEX
  8
LAYER-2
 10
21.490152
 20
57.692582
 30
0.000000
  0
SEQEND
  8
LAYER-2
  0
POLYLINE
  8
LAYER-2
 66
  1
 70
  0
 62
  7
 10
21.514695
 20
57.697815
 30
0.000000
  0
VERTEX
  8
LAYER-2
 10
21.514695
 20
57.697815
 30
0.000000
  0
VERTEX
  8
LAYER-2
 10
21.549714
 20
57.662800
 30
0.000000
  0
SEQEND
  8
LAYER-2
  0
ARC
  8
LAYER-2
 62
  7
 10
21.504114
 20
57.687230
 30
0.000000
 40
0.014961
 50
45.000000
 51
158.999756
  0
POLYLINE
  8
LAYER-2
 66
  1
 70
  0
 62
  7
 10
21.266450
 20
57.645066
 30
0.000000
  0
VERTEX
  8
LAYER-2
 10
21.266450
 20
57.645066
 30
0.000000
  0
VERTEX
  8
LAYER-2
 10
21.323565
 20
57.702181
 30
0.000000
  0
SEQEND
  8
LAYER-2
  0
POLYLINE
  8
LAYER-2
 66
  1
 70
  0
 62
  7
 10
21.266450
 20
57.645066
 30
0.000000
  0
VERTEX
  8
LAYER-2
 10
21.266450
 20
57.645066
 30
0.000000
  0
VERTEX
  8
LAYER-2
 10
21.243643
 20
57.481173
 30
0.000000
  0
SEQEND
  8
LAYER-2
  0
POLYLINE
  8
LAYER-2
 66
  1
 70
  0
 62
  7
 10
21.278753
 20
57.446073
 30
0.000000
  0
VERTEX
  8
LAYER-2
 10
21.278753
 20
57.446073
 30
0.000000
  0
VERTEX
  8
LAYER-2
 10
21.238766
 20
57.406093
 30
0.000000
  0
SEQEND
  8
LAYER-2
  0
POLYLINE
  8
LAYER-2
 66
  1
 70
  0
 62
  7
 10
21.278753
 20
57.446073
 30
0.000000
  0
VERTEX
  8
LAYER-2
 10
21.278753
 20
57.446073
 30
0.000000
  0
VERTEX
  8
LAYER-2
 10
21.243643
 20
57.481173
 30
0.000000
  0
SEQEND
  8
LAYER-2
  0
POLYLINE
  8
LAYER-2
 66
  1
 70
  0
 62
  7
 10
21.438009
 20
56.919948
 30
0.000000
  0
VERTEX
  8
LAYER-2
 10
21.438009
 20
56.919948
 30
0.000000
  0
VERTEX
  8
LAYER-2
 10
21.432273
 20
56.914208
 30
0.000000
  0
SEQEND
  8
LAYER-2
  0
POLYLINE
  8
LAYER-2
 66
  1
 70
  0
 62
  7
 10
21.438009
 20
56.919948
 30
0.000000
  0
VERTEX
  8
LAYER-2
 10
21.438009
 20
56.919948
 30
0.000000
  0
VERTEX
  8
LAYER-2
 10
21.438087
 20
57.044790
 30
0.000000
  0
SEQEND
  8
LAYER-2
  0
ARC
  8
LAYER-2
 62
  7
 10
21.407220
 20
57.113448
 30
0.000000
 40
0.075258
 50
294.206604
 51
245.830200
  0
POLYLINE
  8
LAYER-2
 66
  1
 70
  0
 62
  7
 10
21.376493
 20
56.919948
 30
0.000000
  0
VERTEX
  8
LAYER-2
 10
21.376493
 20
56.919948
 30
0.000000
  0
VERTEX
  8
LAYER-2
 10
21.376416
 20
57.044776
 30
0.000000
  0
SEQEND
  8
LAYER-2
  0
POLYLINE
  8
LAYER-2
 66
  1
 70
  0
 62
  7
 10
21.376493
 20
56.919948
 30
0.000000
  0
VERTEX
  8
LAYER-2
 10
21.376493
 20
56.919948
 30
0.000000
  0
VERTEX
  8
LAYER-2
 10
21.382398
 20
56.914039
 30
0.000000
  0
SEQEND
  8
LAYER-2
  0
POLYLINE
  8
LAYER-2
 66
  1
 70
  0
 62
  7
 10
21.382398
 20
54.813066
 30
0.000000
  0
VERTEX
  8
LAYER-2
 10
21.382398
 20
54.813066
 30
0.000000
  0
VERTEX
  8
LAYER-2
 10
21.382398
 20
56.914039
 30
0.000000
  0
SEQEND
  8
LAYER-2
  0
POLYLINE
  8
LAYER-2
 66
  1
 70
  0
 62
  7
 10
21.376461
 20
54.807129
 30
0.000000
  0
VERTEX
  8
LAYER-2
 10
21.376461
 20
54.807129
 30
0.000000
  0
VERTEX
  8
LAYER-2
 10
21.382398
 20
54.813066
 30
0.000000
  0
SEQEND
  8
LAYER-2
  0
POLYLINE
  8
LAYER-2
 66
  1
 70
  0
 62
  7
 10
21.376461
 20
54.807129
 30
0.000000
  0
VERTEX
  8
LAYER-2
 10
21.376461
 20
54.807129
 30
0.000000
  0
VERTEX
  8
LAYER-2
 10
21.376401
 20
54.682279
 30
0.000000
  0
SEQEND
  8
LAYER-2
  0
ARC
  8
LAYER-2
 62
  7
 10
21.407251
 20
54.613643
 30
0.000000
 40
0.075258
 50
114.206604
 51
65.830200
  0
POLYLINE
  8
LAYER-2
 66
  1
 70
  0
 62
  7
 10
21.437978
 20
54.807129
 30
0.000000
  0
VERTEX
  8
LAYER-2
 10
21.437978
 20
54.807129
 30
0.000000
  0
VERTEX
  8
LAYER-2
 10
21.438069
 20
54.682300
 30
0.000000
  0
SEQEND
  8
LAYER-2
  0
POLYLINE
  8
LAYER-2
 66
  1
 70
  0
 62
  7
 10
21.437978
 20
54.807129
 30
0.000000
  0
VERTEX
  8
LAYER-2
 10
21.437978
 20
54.807129
 30
0.000000
  0
VERTEX
  8
LAYER-2
 10
21.432273
 20
54.812833
 30
0.000000
  0
SEQEND
  8
LAYER-2
  0
POLYLINE
  8
LAYER-2
 66
  1
 70
  0
 62
  7
 10
21.432273
 20
54.812833
 30
0.000000
  0
VERTEX
  8
LAYER-2
 10
21.432273
 20
54.812833
 30
0.000000
  0
VERTEX
  8
LAYER-2
 10
21.432273
 20
56.914208
 30
0.000000
  0
SEQEND
  8
LAYER-2
  0
CIRCLE
  8
LAYER-2
 62
  7
 10
21.388712
 20
60.285736
 30
0.000000
 40
0.082054
  0
ARC
  8
LAYER-2
 62
  7
 10
21.405737
 20
60.059559
 30
0.000000
 40
0.087262
 50
312.856262
 51
249.391663
  0
POLYLINE
  8
LAYER-2
 66
  1
 70
  0
 62
  7
 10
21.360031
 20
59.920715
 30
0.000000
  0
VERTEX
  8
LAYER-2
 10
21.360031
 20
59.920715
 30
0.000000
  0
VERTEX
  8
LAYER-2
 10
21.323565
 20
59.920715
 30
0.000000
  0
SEQEND
  8
LAYER-2
  0
POLYLINE
  8
LAYER-2
 66
  1
 70
  0
 62
  7
 10
21.375025
 20
59.977879
 30
0.000000
  0
VERTEX
  8
LAYER-2
 10
21.375025
 20
59.977879
 30
0.000000
  0
VERTEX
  8
LAYER-2
 10
21.374993
 20
59.935667
 30
0.000000
  0
SEQEND
  8
LAYER-2
  0
ARC
  8
LAYER-2
 62
  7
 10
21.360031
 20
59.935681
 30
0.000000
 40
0.014961
 50
270.000000
 51
359.956757
  0
POLYLINE
  8
LAYER-2
 66
  1
 70
  0
 62
  7
 10
21.537548
 20
60.285412
 30
0.000000
  0
VERTEX
  8
LAYER-2
 10
21.537548
 20
60.285412
 30
0.000000
  0
VERTEX
  8
LAYER-2
 10
21.565690
 20
60.004902
 30
0.000000
  0
SEQEND
  8
LAYER-2
  0
ARC
  8
LAYER-2
 62
  7
 10
21.510466
 20
59.999366
 30
0.000000
 40
0.055512
 50
315.000000
 51
5.728333
  0
POLYLINE
  8
LAYER-2
 66
  1
 70
  0
 62
  7
 10
21.465084
 20
59.995598
 30
0.000000
  0
VERTEX
  8
LAYER-2
 10
21.465084
 20
59.995598
 30
0.000000
  0
VERTEX
  8
LAYER-2
 10
21.490152
 20
59.930314
 30
0.000000
  0
SEQEND
  8
LAYER-2
  0
POLYLINE
  8
LAYER-2
 66
  1
 70
  0
 62
  7
 10
21.514695
 20
59.925103
 30
0.000000
  0
VERTEX
  8
LAYER-2
 10
21.514695
 20
59.925103
 30
0.000000
  0
VERTEX
  8
LAYER-2
 10
21.549714
 20
59.960118
 30
0.000000
  0
SEQEND
  8
LAYER-2
  0
ARC
  8
LAYER-2
 62
  7
 10
21.504114
 20
59.935681
 30
0.000000
 40
0.014961
 50
201.000244
 51
315.000000
  0
POLYLINE
  8
LAYER-2
 66
  1
 70
  0
 62
  7
 10
21.266450
 20
59.977837
 30
0.000000
  0
VERTEX
  8
LAYER-2
 10
21.266450
 20
59.977837
 30
0.000000
  0
VERTEX
  8
LAYER-2
 10
21.323565
 20
59.920715
 30
0.000000
  0
SEQEND
  8
LAYER-2
  0
POLYLINE
  8
LAYER-2
 66
  1
 70
  0
 62
  7
 10
21.266450
 20
59.977837
 30
0.000000
  0
VERTEX
  8
LAYER-2
 10
21.266450
 20
59.977837
 30
0.000000
  0
VERTEX
  8
LAYER-2
 10
21.243643
 20
60.141731
 30
0.000000
  0
SEQEND
  8
LAYER-2
  0
POLYLINE
  8
LAYER-2
 66
  1
 70
  0
 62
  7
 10
21.278753
 20
60.176838
 30
0.000000
  0
VERTEX
  8
LAYER-2
 10
21.278753
 20
60.176838
 30
0.000000
  0
VERTEX
  8
LAYER-2
 10
21.238766
 20
60.216825
 30
0.000000
  0
SEQEND
  8
LAYER-2
  0
POLYLINE
  8
LAYER-2
 66
  1
 70
  0
 62
  7
 10
21.278753
 20
60.176838
 30
0.000000
  0
VERTEX
  8
LAYER-2
 10
21.278753
 20
60.176838
 30
0.000000
  0
VERTEX
  8
LAYER-2
 10
21.243643
 20
60.141731
 30
0.000000
  0
SEQEND
  8
LAYER-2
  0
POLYLINE
  8
LAYER-2
 66
  1
 70
  0
 62
  7
 10
21.238766
 20
60.216825
 30
0.000000
  0
VERTEX
  8
LAYER-2
 10
21.238766
 20
60.216825
 30
0.000000
  0
VERTEX
  8
LAYER-2
 10
21.238766
 20
60.354020
 30
0.000000
  0
SEQEND
  8
LAYER-2
  0
ARC
  8
LAYER-2
 62
  7
 10
21.405737
 20
60.511266
 30
0.000000
 40
0.087262
 50
110.608337
 51
47.143738
  0
POLYLINE
  8
LAYER-2
 66
  1
 70
  0
 62
  7
 10
21.360031
 20
60.650109
 30
0.000000
  0
VERTEX
  8
LAYER-2
 10
21.360031
 20
60.650109
 30
0.000000
  0
VERTEX
  8
LAYER-2
 10
21.323565
 20
60.650109
 30
0.000000
  0
SEQEND
  8
LAYER-2
  0
POLYLINE
  8
LAYER-2
 66
  1
 70
  0
 62
  7
 10
21.375025
 20
60.592945
 30
0.000000
  0
VERTEX
  8
LAYER-2
 10
21.375025
 20
60.592945
 30
0.000000
  0
VERTEX
  8
LAYER-2
 10
21.374993
 20
60.635158
 30
0.000000
  0
SEQEND
  8
LAYER-2
  0
ARC
  8
LAYER-2
 62
  7
 10
21.360031
 20
60.635158
 30
0.000000
 40
0.014961
 50
0.043243
 51
90.000000
  0
POLYLINE
  8
LAYER-2
 66
  1
 70
  0
 62
  7
 10
21.537548
 20
60.285412
 30
0.000000
  0
VERTEX
  8
LAYER-2
 10
21.537548
 20
60.285412
 30
0.000000
  0
VERTEX
  8
LAYER-2
 10
21.565690
 20
60.565923
 30
0.000000
  0
SEQEND
  8
LAYER-2
  0
ARC
  8
LAYER-2
 62
  7
 10
21.510466
 20
60.571458
 30
0.000000
 40
0.055512
 50
354.271667
 51
45.000000
  0
POLYLINE
  8
LAYER-2
 66
  1
 70
  0
 62
  7
 10
21.465084
 20
60.575226
 30
0.000000
  0
VERTEX
  8
LAYER-2
 10
21.465084
 20
60.575226
 30
0.000000
  0
VERTEX
  8
LAYER-2
 10
21.490152
 20
60.640510
 30
0.000000
  0
SEQEND
  8
LAYER-2
  0
POLYLINE
  8
LAYER-2
 66
  1
 70
  0
 62
  7
 10
21.514695
 20
60.645743
 30
0.000000
  0
VERTEX
  8
LAYER-2
 10
21.514695
 20
60.645743
 30
0.000000
  0
VERTEX
  8
LAYER-2
 10
21.549714
 20
60.610720
 30
0.000000
  0
SEQEND
  8
LAYER-2
  0
ARC
  8
LAYER-2
 62
  7
 10
21.504114
 20
60.635158
 30
0.000000
 40
0.014961
 50
45.000000
 51
158.999756
  0
POLYLINE
  8
LAYER-2
 66
  1
 70
  0
 62
  7
 10
21.266450
 20
60.592994
 30
0.000000
  0
VERTEX
  8
LAYER-2
 10
21.266450
 20
60.592994
 30
0.000000
  0
VERTEX
  8
LAYER-2
 10
21.323565
 20
60.650109
 30
0.000000
  0
SEQEND
  8
LAYER-2
  0
POLYLINE
  8
LAYER-2
 66
  1
 70
  0
 62
  7
 10
21.266450
 20
60.592994
 30
0.000000
  0
VERTEX
  8
LAYER-2
 10
21.266450
 20
60.592994
 30
0.000000
  0
VERTEX
  8
LAYER-2
 10
21.243643
 20
60.429101
 30
0.000000
  0
SEQEND
  8
LAYER-2
  0
POLYLINE
  8
LAYER-2
 66
  1
 70
  0
 62
  7
 10
21.278753
 20
60.394001
 30
0.000000
  0
VERTEX
  8
LAYER-2
 10
21.278753
 20
60.394001
 30
0.000000
  0
VERTEX
  8
LAYER-2
 10
21.238766
 20
60.354020
 30
0.000000
  0
SEQEND
  8
LAYER-2
  0
POLYLINE
  8
LAYER-2
 66
  1
 70
  0
 62
  7
 10
21.278753
 20
60.394001
 30
0.000000
  0
VERTEX
  8
LAYER-2
 10
21.278753
 20
60.394001
 30
0.000000
  0
VERTEX
  8
LAYER-2
 10
21.243643
 20
60.429101
 30
0.000000
  0
SEQEND
  8
LAYER-2
  0
POLYLINE
  8
LAYER-2
 66
  1
 70
  0
 62
  7
 10
21.438009
 20
59.867875
 30
0.000000
  0
VERTEX
  8
LAYER-2
 10
21.438009
 20
59.867875
 30
0.000000
  0
VERTEX
  8
LAYER-2
 10
21.432273
 20
59.862136
 30
0.000000
  0
SEQEND
  8
LAYER-2
  0
POLYLINE
  8
LAYER-2
 66
  1
 70
  0
 62
  7
 10
21.438009
 20
59.867875
 30
0.000000
  0
VERTEX
  8
LAYER-2
 10
21.438009
 20
59.867875
 30
0.000000
  0
VERTEX
  8
LAYER-2
 10
21.438087
 20
59.992718
 30
0.000000
  0
SEQEND
  8
LAYER-2
  0
ARC
  8
LAYER-2
 62
  7
 10
21.407220
 20
60.061354
 30
0.000000
 40
0.075258
 50
294.206604
 51
245.830200
  0
POLYLINE
  8
LAYER-2
 66
  1
 70
  0
 62
  7
 10
21.376493
 20
59.867875
 30
0.000000
  0
VERTEX
  8
LAYER-2
 10
21.376493
 20
59.867875
 30
0.000000
  0
VERTEX
  8
LAYER-2
 10
21.376416
 20
59.992704
 30
0.000000
  0
SEQEND
  8
LAYER-2
  0
POLYLINE
  8
LAYER-2
 66
  1
 70
  0
 62
  7
 10
21.376493
 20
59.867875
 30
0.000000
  0
VERTEX
  8
LAYER-2
 10
21.376493
 20
59.867875
 30
0.000000
  0
VERTEX
  8
LAYER-2
 10
21.382398
 20
59.861967
 30
0.000000
  0
SEQEND
  8
LAYER-2
  0
POLYLINE
  8
LAYER-2
 66
  1
 70
  0
 62
  7
 10
21.382398
 20
57.760972
 30
0.000000
  0
VERTEX
  8
LAYER-2
 10
21.382398
 20
57.760972
 30
0.000000
  0
VERTEX
  8
LAYER-2
 10
21.382398
 20
59.861967
 30
0.000000
  0
SEQEND
  8
LAYER-2
  0
POLYLINE
  8
LAYER-2
 66
  1
 70
  0
 62
  7
 10
21.376461
 20
57.755042
 30
0.000000
  0
VERTEX
  8
LAYER-2
 10
21.376461
 20
57.755042
 30
0.000000
  0
VERTEX
  8
LAYER-2
 10
21.382398
 20
57.760972
 30
0.000000
  0
SEQEND
  8
LAYER-2
  0
POLYLINE
  8
LAYER-2
 66
  1
 70
  0
 62
  7
 10
21.376461
 20
57.755042
 30
0.000000
  0
VERTEX
  8
LAYER-2
 10
21.376461
 20
57.755042
 30
0.000000
  0
VERTEX
  8
LAYER-2
 10
21.376401
 20
57.630207
 30
0.000000
  0
SEQEND
  8
LAYER-2
  0
ARC
  8
LAYER-2
 62
  7
 10
21.407251
 20
57.561556
 30
0.000000
 40
0.075258
 50
114.206604
 51
65.830200
  0
POLYLINE
  8
LAYER-2
 66
  1
 70
  0
 62
  7
 10
21.437978
 20
57.755042
 30
0.000000
  0
VERTEX
  8
LAYER-2
 10
21.437978
 20
57.755042
 30
0.000000
  0
VERTEX
  8
LAYER-2
 10
21.438069
 20
57.630221
 30
0.000000
  0
SEQEND
  8
LAYER-2
  0
POLYLINE
  8
LAYER-2
 66
  1
 70
  0
 62
  7
 10
21.437978
 20
57.755042
 30
0.000000
  0
VERTEX
  8
LAYER-2
 10
21.437978
 20
57.755042
 30
0.000000
  0
VERTEX
  8
LAYER-2
 10
21.432273
 20
57.760761
 30
0.000000
  0
SEQEND
  8
LAYER-2
  0
POLYLINE
  8
LAYER-2
 66
  1
 70
  0
 62
  7
 10
21.432273
 20
57.760761
 30
0.000000
  0
VERTEX
  8
LAYER-2
 10
21.432273
 20
57.760761
 30
0.000000
  0
VERTEX
  8
LAYER-2
 10
21.432273
 20
59.862136
 30
0.000000
  0
SEQEND
  8
LAYER-2
  0
CIRCLE
  8
LAYER-2
 62
  7
 10
21.388712
 20
63.233650
 30
0.000000
 40
0.082054
  0
ARC
  8
LAYER-2
 62
  7
 10
21.405737
 20
63.007479
 30
0.000000
 40
0.087262
 50
312.856262
 51
249.391663
  0
POLYLINE
  8
LAYER-2
 66
  1
 70
  0
 62
  7
 10
21.360031
 20
62.868643
 30
0.000000
  0
VERTEX
  8
LAYER-2
 10
21.360031
 20
62.868643
 30
0.000000
  0
VERTEX
  8
LAYER-2
 10
21.323565
 20
62.868643
 30
0.000000
  0
SEQEND
  8
LAYER-2
  0
POLYLINE
  8
LAYER-2
 66
  1
 70
  0
 62
  7
 10
21.375025
 20
62.925800
 30
0.000000
  0
VERTEX
  8
LAYER-2
 10
21.375025
 20
62.925800
 30
0.000000
  0
VERTEX
  8
LAYER-2
 10
21.374993
 20
62.883587
 30
0.000000
  0
SEQEND
  8
LAYER-2
  0
ARC
  8
LAYER-2
 62
  7
 10
21.360031
 20
62.883601
 30
0.000000
 40
0.014961
 50
270.000000
 51
359.956757
  0
POLYLINE
  8
LAYER-2
 66
  1
 70
  0
 62
  7
 10
21.537548
 20
63.233326
 30
0.000000
  0
VERTEX
  8
LAYER-2
 10
21.537548
 20
63.233326
 30
0.000000
  0
VERTEX
  8
LAYER-2
 10
21.565690
 20
62.952822
 30
0.000000
  0
SEQEND
  8
LAYER-2
  0
ARC
  8
LAYER-2
 62
  7
 10
21.510466
 20
62.947287
 30
0.000000
 40
0.055512
 50
315.000000
 51
5.728333
  0
POLYLINE
  8
LAYER-2
 66
  1
 70
  0
 62
  7
 10
21.465084
 20
62.943519
 30
0.000000
  0
VERTEX
  8
LAYER-2
 10
21.465084
 20
62.943519
 30
0.000000
  0
VERTEX
  8
LAYER-2
 10
21.490152
 20
62.878235
 30
0.000000
  0
SEQEND
  8
LAYER-2
  0
POLYLINE
  8
LAYER-2
 66
  1
 70
  0
 62
  7
 10
21.514695
 20
62.873023
 30
0.000000
  0
VERTEX
  8
LAYER-2
 10
21.514695
 20
62.873023
 30
0.000000
  0
VERTEX
  8
LAYER-2
 10
21.549714
 20
62.908039
 30
0.000000
  0
SEQEND
  8
LAYER-2
  0
ARC
  8
LAYER-2
 62
  7
 10
21.504114
 20
62.883601
 30
0.000000
 40
0.014961
 50
201.000244
 51
315.000000
  0
POLYLINE
  8
LAYER-2
 66
  1
 70
  0
 62
  7
 10
21.266450
 20
62.925758
 30
0.000000
  0
VERTEX
  8
LAYER-2
 10
21.266450
 20
62.925758
 30
0.000000
  0
VERTEX
  8
LAYER-2
 10
21.323565
 20
62.868643
 30
0.000000
  0
SEQEND
  8
LAYER-2
  0
POLYLINE
  8
LAYER-2
 66
  1
 70
  0
 62
  7
 10
21.266450
 20
62.925758
 30
0.000000
  0
VERTEX
  8
LAYER-2
 10
21.266450
 20
62.925758
 30
0.000000
  0
VERTEX
  8
LAYER-2
 10
21.243643
 20
63.089644
 30
0.000000
  0
SEQEND
  8
LAYER-2
  0
POLYLINE
  8
LAYER-2
 66
  1
 70
  0
 62
  7
 10
21.278753
 20
63.124758
 30
0.000000
  0
VERTEX
  8
LAYER-2
 10
21.278753
 20
63.124758
 30
0.000000
  0
VERTEX
  8
LAYER-2
 10
21.238766
 20
63.164739
 30
0.000000
  0
SEQEND
  8
LAYER-2
  0
POLYLINE
  8
LAYER-2
 66
  1
 70
  0
 62
  7
 10
21.278753
 20
63.124758
 30
0.000000
  0
VERTEX
  8
LAYER-2
 10
21.278753
 20
63.124758
 30
0.000000
  0
VERTEX
  8
LAYER-2
 10
21.243643
 20
63.089644
 30
0.000000
  0
SEQEND
  8
LAYER-2
  0
POLYLINE
  8
LAYER-2
 66
  1
 70
  0
 62
  7
 10
21.238766
 20
63.164739
 30
0.000000
  0
VERTEX
  8
LAYER-2
 10
21.238766
 20
63.164739
 30
0.000000
  0
VERTEX
  8
LAYER-2
 10
21.238766
 20
63.301934
 30
0.000000
  0
SEQEND
  8
LAYER-2
  0
ARC
  8
LAYER-2
 62
  7
 10
21.405737
 20
63.459179
 30
0.000000
 40
0.087262
 50
110.608337
 51
47.143738
  0
POLYLINE
  8
LAYER-2
 66
  1
 70
  0
 62
  7
 10
21.360031
 20
63.598015
 30
0.000000
  0
VERTEX
  8
LAYER-2
 10
21.360031
 20
63.598015
 30
0.000000
  0
VERTEX
  8
LAYER-2
 10
21.323565
 20
63.598015
 30
0.000000
  0
SEQEND
  8
LAYER-2
  0
POLYLINE
  8
LAYER-2
 66
  1
 70
  0
 62
  7
 10
21.375025
 20
63.540851
 30
0.000000
  0
VERTEX
  8
LAYER-2
 10
21.375025
 20
63.540851
 30
0.000000
  0
VERTEX
  8
LAYER-2
 10
21.374993
 20
63.583071
 30
0.000000
  0
SEQEND
  8
LAYER-2
  0
ARC
  8
LAYER-2
 62
  7
 10
21.360031
 20
63.583071
 30
0.000000
 40
0.014961
 50
0.043243
 51
90.000000
  0
POLYLINE
  8
LAYER-2
 66
  1
 70
  0
 62
  7
 10
21.537548
 20
63.233326
 30
0.000000
  0
VERTEX
  8
LAYER-2
 10
21.537548
 20
63.233326
 30
0.000000
  0
VERTEX
  8
LAYER-2
 10
21.565690
 20
63.513829
 30
0.000000
  0
SEQEND
  8
LAYER-2
  0
ARC
  8
LAYER-2
 62
  7
 10
21.510466
 20
63.519372
 30
0.000000
 40
0.055512
 50
354.271667
 51
45.000000
  0
POLYLINE
  8
LAYER-2
 66
  1
 70
  0
 62
  7
 10
21.465084
 20
63.523139
 30
0.000000
  0
VERTEX
  8
LAYER-2
 10
21.465084
 20
63.523139
 30
0.000000
  0
VERTEX
  8
LAYER-2
 10
21.490152
 20
63.588416
 30
0.000000
  0
SEQEND
  8
LAYER-2
  0
POLYLINE
  8
LAYER-2
 66
  1
 70
  0
 62
  7
 10
21.514695
 20
63.593649
 30
0.000000
  0
VERTEX
  8
LAYER-2
 10
21.514695
 20
63.593649
 30
0.000000
  0
VERTEX
  8
LAYER-2
 10
21.549714
 20
63.558634
 30
0.000000
  0
SEQEND
  8
LAYER-2
  0
ARC
  8
LAYER-2
 62
  7
 10
21.504114
 20
63.583071
 30
0.000000
 40
0.014961
 50
45.000000
 51
158.999756
  0
POLYLINE
  8
LAYER-2
 66
  1
 70
  0
 62
  7
 10
21.266450
 20
63.540901
 30
0.000000
  0
VERTEX
  8
LAYER-2
 10
21.266450
 20
63.540901
 30
0.000000
  0
VERTEX
  8
LAYER-2
 10
21.323565
 20
63.598015
 30
0.000000
  0
SEQEND
  8
LAYER-2
  0
POLYLINE
  8
LAYER-2
 66
  1
 70
  0
 62
  7
 10
21.266450
 20
63.540901
 30
0.000000
  0
VERTEX
  8
LAYER-2
 10
21.266450
 20
63.540901
 30
0.000000
  0
VERTEX
  8
LAYER-2
 10
21.243643
 20
63.377007
 30
0.000000
  0
SEQEND
  8
LAYER-2
  0
POLYLINE
  8
LAYER-2
 66
  1
 70
  0
 62
  7
 10
21.278753
 20
63.341914
 30
0.000000
  0
VERTEX
  8
LAYER-2
 10
21.278753
 20
63.341914
 30
0.000000
  0
VERTEX
  8
LAYER-2
 10
21.238766
 20
63.301934
 30
0.000000
  0
SEQEND
  8
LAYER-2
  0
POLYLINE
  8
LAYER-2
 66
  1
 70
  0
 62
  7
 10
21.278753
 20
63.341914
 30
0.000000
  0
VERTEX
  8
LAYER-2
 10
21.278753
 20
63.341914
 30
0.000000
  0
VERTEX
  8
LAYER-2
 10
21.243643
 20
63.377007
 30
0.000000
  0
SEQEND
  8
LAYER-2
  0
POLYLINE
  8
LAYER-2
 66
  1
 70
  0
 62
  7
 10
21.438009
 20
62.815796
 30
0.000000
  0
VERTEX
  8
LAYER-2
 10
21.438009
 20
62.815796
 30
0.000000
  0
VERTEX
  8
LAYER-2
 10
21.432273
 20
62.810063
 30
0.000000
  0
SEQEND
  8
LAYER-2
  0
POLYLINE
  8
LAYER-2
 66
  1
 70
  0
 62
  7
 10
21.438009
 20
62.815796
 30
0.000000
  0
VERTEX
  8
LAYER-2
 10
21.438009
 20
62.815796
 30
0.000000
  0
VERTEX
  8
LAYER-2
 10
21.438087
 20
62.940646
 30
0.000000
  0
SEQEND
  8
LAYER-2
  0
ARC
  8
LAYER-2
 62
  7
 10
21.407220
 20
63.009282
 30
0.000000
 40
0.075258
 50
294.206604
 51
245.830200
  0
POLYLINE
  8
LAYER-2
 66
  1
 70
  0
 62
  7
 10
21.376493
 20
62.815796
 30
0.000000
  0
VERTEX
  8
LAYER-2
 10
21.376493
 20
62.815796
 30
0.000000
  0
VERTEX
  8
LAYER-2
 10
21.376416
 20
62.940632
 30
0.000000
  0
SEQEND
  8
LAYER-2
  0
POLYLINE
  8
LAYER-2
 66
  1
 70
  0
 62
  7
 10
21.376493
 20
62.815796
 30
0.000000
  0
VERTEX
  8
LAYER-2
 10
21.376493
 20
62.815796
 30
0.000000
  0
VERTEX
  8
LAYER-2
 10
21.382398
 20
62.809894
 30
0.000000
  0
SEQEND
  8
LAYER-2
  0
POLYLINE
  8
LAYER-2
 66
  1
 70
  0
 62
  7
 10
21.382398
 20
60.708900
 30
0.000000
  0
VERTEX
  8
LAYER-2
 10
21.382398
 20
60.708900
 30
0.000000
  0
VERTEX
  8
LAYER-2
 10
21.382398
 20
62.809894
 30
0.000000
  0
SEQEND
  8
LAYER-2
  0
POLYLINE
  8
LAYER-2
 66
  1
 70
  0
 62
  7
 10
21.376461
 20
60.702963
 30
0.000000
  0
VERTEX
  8
LAYER-2
 10
21.376461
 20
60.702963
 30
0.000000
  0
VERTEX
  8
LAYER-2
 10
21.382398
 20
60.708900
 30
0.000000
  0
SEQEND
  8
LAYER-2
  0
POLYLINE
  8
LAYER-2
 66
  1
 70
  0
 62
  7
 10
21.376461
 20
60.702963
 30
0.000000
  0
VERTEX
  8
LAYER-2
 10
21.376461
 20
60.702963
 30
0.000000
  0
VERTEX
  8
LAYER-2
 10
21.376401
 20
60.578120
 30
0.000000
  0
SEQEND
  8
LAYER-2
  0
ARC
  8
LAYER-2
 62
  7
 10
21.407251
 20
60.509484
 30
0.000000
 40
0.075258
 50
114.206604
 51
65.830200
  0
POLYLINE
  8
LAYER-2
 66
  1
 70
  0
 62
  7
 10
21.437978
 20
60.702963
 30
0.000000
  0
VERTEX
  8
LAYER-2
 10
21.437978
 20
60.702963
 30
0.000000
  0
VERTEX
  8
LAYER-2
 10
21.438069
 20
60.578134
 30
0.000000
  0
SEQEND
  8
LAYER-2
  0
POLYLINE
  8
LAYER-2
 66
  1
 70
  0
 62
  7
 10
21.437978
 20
60.702963
 30
0.000000
  0
VERTEX
  8
LAYER-2
 10
21.437978
 20
60.702963
 30
0.000000
  0
VERTEX
  8
LAYER-2
 10
21.432273
 20
60.708675
 30
0.000000
  0
SEQEND
  8
LAYER-2
  0
POLYLINE
  8
LAYER-2
 66
  1
 70
  0
 62
  7
 10
21.432273
 20
60.708675
 30
0.000000
  0
VERTEX
  8
LAYER-2
 10
21.432273
 20
60.708675
 30
0.000000
  0
VERTEX
  8
LAYER-2
 10
21.432273
 20
62.810063
 30
0.000000
  0
SEQEND
  8
LAYER-2
  0
CIRCLE
  8
LAYER-2
 62
  7
 10
21.388712
 20
66.181535
 30
0.000000
 40
0.082054
  0
ARC
  8
LAYER-2
 62
  7
 10
21.405737
 20
65.955350
 30
0.000000
 40
0.087262
 50
312.856262
 51
249.391663
  0
POLYLINE
  8
LAYER-2
 66
  1
 70
  0
 62
  7
 10
21.360031
 20
65.816514
 30
0.000000
  0
VERTEX
  8
LAYER-2
 10
21.360031
 20
65.816514
 30
0.000000
  0
VERTEX
  8
LAYER-2
 10
21.323565
 20
65.816514
 30
0.000000
  0
SEQEND
  8
LAYER-2
  0
POLYLINE
  8
LAYER-2
 66
  1
 70
  0
 62
  7
 10
21.375025
 20
65.873678
 30
0.000000
  0
VERTEX
  8
LAYER-2
 10
21.375025
 20
65.873678
 30
0.000000
  0
VERTEX
  8
LAYER-2
 10
21.374993
 20
65.831458
 30
0.000000
  0
SEQEND
  8
LAYER-2
  0
ARC
  8
LAYER-2
 62
  7
 10
21.360031
 20
65.831480
 30
0.000000
 40
0.014961
 50
270.000000
 51
359.956757
  0
POLYLINE
  8
LAYER-2
 66
  1
 70
  0
 62
  7
 10
21.537548
 20
66.181211
 30
0.000000
  0
VERTEX
  8
LAYER-2
 10
21.537548
 20
66.181211
 30
0.000000
  0
VERTEX
  8
LAYER-2
 10
21.565690
 20
65.900693
 30
0.000000
  0
SEQEND
  8
LAYER-2
  0
ARC
  8
LAYER-2
 62
  7
 10
21.510466
 20
65.895158
 30
0.000000
 40
0.055512
 50
315.000000
 51
5.728333
  0
POLYLINE
  8
LAYER-2
 66
  1
 70
  0
 62
  7
 10
21.465084
 20
65.891390
 30
0.000000
  0
VERTEX
  8
LAYER-2
 10
21.465084
 20
65.891390
 30
0.000000
  0
VERTEX
  8
LAYER-2
 10
21.490152
 20
65.826106
 30
0.000000
  0
SEQEND
  8
LAYER-2
  0
POLYLINE
  8
LAYER-2
 66
  1
 70
  0
 62
  7
 10
21.514695
 20
65.820895
 30
0.000000
  0
VERTEX
  8
LAYER-2
 10
21.514695
 20
65.820895
 30
0.000000
  0
VERTEX
  8
LAYER-2
 10
21.549714
 20
65.855910
 30
0.000000
  0
SEQEND
  8
LAYER-2
  0
ARC
  8
LAYER-2
 62
  7
 10
21.504114
 20
65.831480
 30
0.000000
 40
0.014961
 50
201.000244
 51
315.000000
  0
POLYLINE
  8
LAYER-2
 66
  1
 70
  0
 62
  7
 10
21.266450
 20
65.873629
 30
0.000000
  0
VERTEX
  8
LAYER-2
 10
21.266450
 20
65.873629
 30
0.000000
  0
VERTEX
  8
LAYER-2
 10
21.323565
 20
65.816514
 30
0.000000
  0
SEQEND
  8
LAYER-2
  0
POLYLINE
  8
LAYER-2
 66
  1
 70
  0
 62
  7
 10
21.266450
 20
65.873629
 30
0.000000
  0
VERTEX
  8
LAYER-2
 10
21.266450
 20
65.873629
 30
0.000000
  0
VERTEX
  8
LAYER-2
 10
21.243643
 20
66.037523
 30
0.000000
  0
SEQEND
  8
LAYER-2
  0
POLYLINE
  8
LAYER-2
 66
  1
 70
  0
 62
  7
 10
21.278753
 20
66.072637
 30
0.000000
  0
VERTEX
  8
LAYER-2
 10
21.278753
 20
66.072637
 30
0.000000
  0
VERTEX
  8
LAYER-2
 10
21.238766
 20
66.112617
 30
0.000000
  0
SEQEND
  8
LAYER-2
  0
POLYLINE
  8
LAYER-2
 66
  1
 70
  0
 62
  7
 10
21.278753
 20
66.072637
 30
0.000000
  0
VERTEX
  8
LAYER-2
 10
21.278753
 20
66.072637
 30
0.000000
  0
VERTEX
  8
LAYER-2
 10
21.243643
 20
66.037523
 30
0.000000
  0
SEQEND
  8
LAYER-2
  0
POLYLINE
  8
LAYER-2
 66
  1
 70
  0
 62
  7
 10
21.238766
 20
66.112617
 30
0.000000
  0
VERTEX
  8
LAYER-2
 10
21.238766
 20
66.112617
 30
0.000000
  0
VERTEX
  8
LAYER-2
 10
21.238766
 20
66.249812
 30
0.000000
  0
SEQEND
  8
LAYER-2
  0
ARC
  8
LAYER-2
 62
  7
 10
21.405737
 20
66.407065
 30
0.000000
 40
0.087262
 50
110.608337
 51
47.143738
  0
POLYLINE
  8
LAYER-2
 66
  1
 70
  0
 62
  7
 10
21.360031
 20
66.545908
 30
0.000000
  0
VERTEX
  8
LAYER-2
 10
21.360031
 20
66.545908
 30
0.000000
  0
VERTEX
  8
LAYER-2
 10
21.323565
 20
66.545908
 30
0.000000
  0
SEQEND
  8
LAYER-2
  0
POLYLINE
  8
LAYER-2
 66
  1
 70
  0
 62
  7
 10
21.375025
 20
66.488744
 30
0.000000
  0
VERTEX
  8
LAYER-2
 10
21.375025
 20
66.488744
 30
0.000000
  0
VERTEX
  8
LAYER-2
 10
21.374993
 20
66.530957
 30
0.000000
  0
SEQEND
  8
LAYER-2
  0
ARC
  8
LAYER-2
 62
  7
 10
21.360031
 20
66.530957
 30
0.000000
 40
0.014961
 50
0.043243
 51
90.000000
  0
POLYLINE
  8
LAYER-2
 66
  1
 70
  0
 62
  7
 10
21.537548
 20
66.181211
 30
0.000000
  0
VERTEX
  8
LAYER-2
 10
21.537548
 20
66.181211
 30
0.000000
  0
VERTEX
  8
LAYER-2
 10
21.565690
 20
66.461722
 30
0.000000
  0
SEQEND
  8
LAYER-2
  0
ARC
  8
LAYER-2
 62
  7
 10
21.510466
 20
66.467257
 30
0.000000
 40
0.055512
 50
354.271667
 51
45.000000
  0
POLYLINE
  8
LAYER-2
 66
  1
 70
  0
 62
  7
 10
21.465084
 20
66.471025
 30
0.000000
  0
VERTEX
  8
LAYER-2
 10
21.465084
 20
66.471025
 30
0.000000
  0
VERTEX
  8
LAYER-2
 10
21.490152
 20
66.536309
 30
0.000000
  0
SEQEND
  8
LAYER-2
  0
POLYLINE
  8
LAYER-2
 66
  1
 70
  0
 62
  7
 10
21.514695
 20
66.541534
 30
0.000000
  0
VERTEX
  8
LAYER-2
 10
21.514695
 20
66.541534
 30
0.000000
  0
VERTEX
  8
LAYER-2
 10
21.549714
 20
66.506519
 30
0.000000
  0
SEQEND
  8
LAYER-2
  0
ARC
  8
LAYER-2
 62
  7
 10
21.504114
 20
66.530957
 30
0.000000
 40
0.014961
 50
45.000000
 51
158.999756
  0
POLYLINE
  8
LAYER-2
 66
  1
 70
  0
 62
  7
 10
21.266450
 20
66.488786
 30
0.000000
  0
VERTEX
  8
LAYER-2
 10
21.266450
 20
66.488786
 30
0.000000
  0
VERTEX
  8
LAYER-2
 10
21.323565
 20
66.545908
 30
0.000000
  0
SEQEND
  8
LAYER-2
  0
POLYLINE
  8
LAYER-2
 66
  1
 70
  0
 62
  7
 10
21.266450
 20
66.488786
 30
0.000000
  0
VERTEX
  8
LAYER-2
 10
21.266450
 20
66.488786
 30
0.000000
  0
VERTEX
  8
LAYER-2
 10
21.243643
 20
66.324892
 30
0.000000
  0
SEQEND
  8
LAYER-2
  0
POLYLINE
  8
LAYER-2
 66
  1
 70
  0
 62
  7
 10
21.278753
 20
66.289800
 30
0.000000
  0
VERTEX
  8
LAYER-2
 10
21.278753
 20
66.289800
 30
0.000000
  0
VERTEX
  8
LAYER-2
 10
21.238766
 20
66.249812
 30
0.000000
  0
SEQEND
  8
LAYER-2
  0
POLYLINE
  8
LAYER-2
 66
  1
 70
  0
 62
  7
 10
21.278753
 20
66.289800
 30
0.000000
  0
VERTEX
  8
LAYER-2
 10
21.278753
 20
66.289800
 30
0.000000
  0
VERTEX
  8
LAYER-2
 10
21.243643
 20
66.324892
 30
0.000000
  0
SEQEND
  8
LAYER-2
  0
POLYLINE
  8
LAYER-2
 66
  1
 70
  0
 62
  7
 10
21.438009
 20
65.763674
 30
0.000000
  0
VERTEX
  8
LAYER-2
 10
21.438009
 20
65.763674
 30
0.000000
  0
VERTEX
  8
LAYER-2
 10
21.432273
 20
65.757935
 30
0.000000
  0
SEQEND
  8
LAYER-2
  0
POLYLINE
  8
LAYER-2
 66
  1
 70
  0
 62
  7
 10
21.438009
 20
65.763674
 30
0.000000
  0
VERTEX
  8
LAYER-2
 10
21.438009
 20
65.763674
 30
0.000000
  0
VERTEX
  8
LAYER-2
 10
21.438087
 20
65.888517
 30
0.000000
  0
SEQEND
  8
LAYER-2
  0
ARC
  8
LAYER-2
 62
  7
 10
21.407220
 20
65.957160
 30
0.000000
 40
0.075258
 50
294.206604
 51
245.830200
  0
POLYLINE
  8
LAYER-2
 66
  1
 70
  0
 62
  7
 10
21.376493
 20
65.763674
 30
0.000000
  0
VERTEX
  8
LAYER-2
 10
21.376493
 20
65.763674
 30
0.000000
  0
VERTEX
  8
LAYER-2
 10
21.376416
 20
65.888503
 30
0.000000
  0
SEQEND
  8
LAYER-2
  0
POLYLINE
  8
LAYER-2
 66
  1
 70
  0
 62
  7
 10
21.376493
 20
65.763674
 30
0.000000
  0
VERTEX
  8
LAYER-2
 10
21.376493
 20
65.763674
 30
0.000000
  0
VERTEX
  8
LAYER-2
 10
21.382398
 20
65.757766
 30
0.000000
  0
SEQEND
  8
LAYER-2
  0
POLYLINE
  8
LAYER-2
 66
  1
 70
  0
 62
  7
 10
21.382398
 20
63.656806
 30
0.000000
  0
VERTEX
  8
LAYER-2
 10
21.382398
 20
63.656806
 30
0.000000
  0
VERTEX
  8
LAYER-2
 10
21.382398
 20
65.757766
 30
0.000000
  0
SEQEND
  8
LAYER-2
  0
POLYLINE
  8
LAYER-2
 66
  1
 70
  0
 62
  7
 10
21.376461
 20
63.650870
 30
0.000000
  0
VERTEX
  8
LAYER-2
 10
21.376461
 20
63.650870
 30
0.000000
  0
VERTEX
  8
LAYER-2
 10
21.382398
 20
63.656806
 30
0.000000
  0
SEQEND
  8
LAYER-2
  0
POLYLINE
  8
LAYER-2
 66
  1
 70
  0
 62
  7
 10
21.376461
 20
63.650870
 30
0.000000
  0
VERTEX
  8
LAYER-2
 10
21.376461
 20
63.650870
 30
0.000000
  0
VERTEX
  8
LAYER-2
 10
21.376401
 20
63.526034
 30
0.000000
  0
SEQEND
  8
LAYER-2
  0
ARC
  8
LAYER-2
 62
  7
 10
21.407251
 20
63.457397
 30
0.000000
 40
0.075258
 50
114.206604
 51
65.830200
  0
POLYLINE
  8
LAYER-2
 66
  1
 70
  0
 62
  7
 10
21.437978
 20
63.650870
 30
0.000000
  0
VERTEX
  8
LAYER-2
 10
21.437978
 20
63.650870
 30
0.000000
  0
VERTEX
  8
LAYER-2
 10
21.438069
 20
63.526048
 30
0.000000
  0
SEQEND
  8
LAYER-2
  0
POLYLINE
  8
LAYER-2
 66
  1
 70
  0
 62
  7
 10
21.437978
 20
63.650870
 30
0.000000
  0
VERTEX
  8
LAYER-2
 10
21.437978
 20
63.650870
 30
0.000000
  0
VERTEX
  8
LAYER-2
 10
21.432273
 20
63.656581
 30
0.000000
  0
SEQEND
  8
LAYER-2
  0
POLYLINE
  8
LAYER-2
 66
  1
 70
  0
 62
  7
 10
21.432273
 20
63.656581
 30
0.000000
  0
VERTEX
  8
LAYER-2
 10
21.432273
 20
63.656581
 30
0.000000
  0
VERTEX
  8
LAYER-2
 10
21.432273
 20
65.757935
 30
0.000000
  0
SEQEND
  8
LAYER-2
  0
CIRCLE
  8
LAYER-2
 62
  7
 10
21.388712
 20
69.129470
 30
0.000000
 40
0.082054
  0
ARC
  8
LAYER-2
 62
  7
 10
21.405737
 20
68.903292
 30
0.000000
 40
0.087262
 50
312.856262
 51
249.391663
  0
POLYLINE
  8
LAYER-2
 66
  1
 70
  0
 62
  7
 10
21.360031
 20
68.764442
 30
0.000000
  0
VERTEX
  8
LAYER-2
 10
21.360031
 20
68.764442
 30
0.000000
  0
VERTEX
  8
LAYER-2
 10
21.323565
 20
68.764442
 30
0.000000
  0
SEQEND
  8
LAYER-2
  0
POLYLINE
  8
LAYER-2
 66
  1
 70
  0
 62
  7
 10
21.375025
 20
68.821613
 30
0.000000
  0
VERTEX
  8
LAYER-2
 10
21.375025
 20
68.821613
 30
0.000000
  0
VERTEX
  8
LAYER-2
 10
21.374993
 20
68.779393
 30
0.000000
  0
SEQEND
  8
LAYER-2
  0
ARC
  8
LAYER-2
 62
  7
 10
21.360031
 20
68.779407
 30
0.000000
 40
0.014961
 50
270.000000
 51
359.956757
  0
POLYLINE
  8
LAYER-2
 66
  1
 70
  0
 62
  7
 10
21.537548
 20
69.129146
 30
0.000000
  0
VERTEX
  8
LAYER-2
 10
21.537548
 20
69.129146
 30
0.000000
  0
VERTEX
  8
LAYER-2
 10
21.565690
 20
68.848628
 30
0.000000
  0
SEQEND
  8
LAYER-2
  0
ARC
  8
LAYER-2
 62
  7
 10
21.510466
 20
68.843093
 30
0.000000
 40
0.055512
 50
315.000000
 51
5.728333
  0
POLYLINE
  8
LAYER-2
 66
  1
 70
  0
 62
  7
 10
21.465084
 20
68.839332
 30
0.000000
  0
VERTEX
  8
LAYER-2
 10
21.465084
 20
68.839332
 30
0.000000
  0
VERTEX
  8
LAYER-2
 10
21.490152
 20
68.774041
 30
0.000000
  0
SEQEND
  8
LAYER-2
  0
POLYLINE
  8
LAYER-2
 66
  1
 70
  0
 62
  7
 10
21.514695
 20
68.768822
 30
0.000000
  0
VERTEX
  8
LAYER-2
 10
21.514695
 20
68.768822
 30
0.000000
  0
VERTEX
  8
LAYER-2
 10
21.549714
 20
68.803845
 30
0.000000
  0
SEQEND
  8
LAYER-2
  0
ARC
  8
LAYER-2
 62
  7
 10
21.504114
 20
68.779407
 30
0.000000
 40
0.014961
 50
201.000244
 51
315.000000
  0
POLYLINE
  8
LAYER-2
 66
  1
 70
  0
 62
  7
 10
21.266450
 20
68.821564
 30
0.000000
  0
VERTEX
  8
LAYER-2
 10
21.266450
 20
68.821564
 30
0.000000
  0
VERTEX
  8
LAYER-2
 10
21.323565
 20
68.764442
 30
0.000000
  0
SEQEND
  8
LAYER-2
  0
POLYLINE
  8
LAYER-2
 66
  1
 70
  0
 62
  7
 10
21.266450
 20
68.821564
 30
0.000000
  0
VERTEX
  8
LAYER-2
 10
21.266450
 20
68.821564
 30
0.000000
  0
VERTEX
  8
LAYER-2
 10
21.243643
 20
68.985457
 30
0.000000
  0
SEQEND
  8
LAYER-2
  0
POLYLINE
  8
LAYER-2
 66
  1
 70
  0
 62
  7
 10
21.278753
 20
69.020564
 30
0.000000
  0
VERTEX
  8
LAYER-2
 10
21.278753
 20
69.020564
 30
0.000000
  0
VERTEX
  8
LAYER-2
 10
21.238766
 20
69.060552
 30
0.000000
  0
SEQEND
  8
LAYER-2
  0
POLYLINE
  8
LAYER-2
 66
  1
 70
  0
 62
  7
 10
21.278753
 20
69.020564
 30
0.000000
  0
VERTEX
  8
LAYER-2
 10
21.278753
 20
69.020564
 30
0.000000
  0
VERTEX
  8
LAYER-2
 10
21.243643
 20
68.985457
 30
0.000000
  0
SEQEND
  8
LAYER-2
  0
POLYLINE
  8
LAYER-2
 66
  1
 70
  0
 62
  7
 10
21.238766
 20
69.060552
 30
0.000000
  0
VERTEX
  8
LAYER-2
 10
21.238766
 20
69.060552
 30
0.000000
  0
VERTEX
  8
LAYER-2
 10
21.238766
 20
69.197754
 30
0.000000
  0
SEQEND
  8
LAYER-2
  0
ARC
  8
LAYER-2
 62
  7
 10
21.405737
 20
69.354999
 30
0.000000
 40
0.087262
 50
110.608337
 51
47.143738
  0
POLYLINE
  8
LAYER-2
 66
  1
 70
  0
 62
  7
 10
21.360031
 20
69.493835
 30
0.000000
  0
VERTEX
  8
LAYER-2
 10
21.360031
 20
69.493835
 30
0.000000
  0
VERTEX
  8
LAYER-2
 10
21.323565
 20
69.493835
 30
0.000000
  0
SEQEND
  8
LAYER-2
  0
POLYLINE
  8
LAYER-2
 66
  1
 70
  0
 62
  7
 10
21.375025
 20
69.436678
 30
0.000000
  0
VERTEX
  8
LAYER-2
 10
21.375025
 20
69.436678
 30
0.000000
  0
VERTEX
  8
LAYER-2
 10
21.374993
 20
69.478891
 30
0.000000
  0
SEQEND
  8
LAYER-2
  0
ARC
  8
LAYER-2
 62
  7
 10
21.360031
 20
69.478891
 30
0.000000
 40
0.014961
 50
0.043243
 51
90.000000
  0
POLYLINE
  8
LAYER-2
 66
  1
 70
  0
 62
  7
 10
21.537548
 20
69.129146
 30
0.000000
  0
VERTEX
  8
LAYER-2
 10
21.537548
 20
69.129146
 30
0.000000
  0
VERTEX
  8
LAYER-2
 10
21.565690
 20
69.409656
 30
0.000000
  0
SEQEND
  8
LAYER-2
  0
ARC
  8
LAYER-2
 62
  7
 10
21.510466
 20
69.415192
 30
0.000000
 40
0.055512
 50
354.271667
 51
45.000000
  0
POLYLINE
  8
LAYER-2
 66
  1
 70
  0
 62
  7
 10
21.465084
 20
69.418959
 30
0.000000
  0
VERTEX
  8
LAYER-2
 10
21.465084
 20
69.418959
 30
0.000000
  0
VERTEX
  8
LAYER-2
 10
21.490152
 20
69.484244
 30
0.000000
  0
SEQEND
  8
LAYER-2
  0
POLYLINE
  8
LAYER-2
 66
  1
 70
  0
 62
  7
 10
21.514695
 20
69.489469
 30
0.000000
  0
VERTEX
  8
LAYER-2
 10
21.514695
 20
69.489469
 30
0.000000
  0
VERTEX
  8
LAYER-2
 10
21.549714
 20
69.454454
 30
0.000000
  0
SEQEND
  8
LAYER-2
  0
ARC
  8
LAYER-2
 62
  7
 10
21.504114
 20
69.478891
 30
0.000000
 40
0.014961
 50
45.000000
 51
158.999756
  0
POLYLINE
  8
LAYER-2
 66
  1
 70
  0
 62
  7
 10
21.266450
 20
69.436721
 30
0.000000
  0
VERTEX
  8
LAYER-2
 10
21.266450
 20
69.436721
 30
0.000000
  0
VERTEX
  8
LAYER-2
 10
21.323565
 20
69.493835
 30
0.000000
  0
SEQEND
  8
LAYER-2
  0
POLYLINE
  8
LAYER-2
 66
  1
 70
  0
 62
  7
 10
21.266450
 20
69.436721
 30
0.000000
  0
VERTEX
  8
LAYER-2
 10
21.266450
 20
69.436721
 30
0.000000
  0
VERTEX
  8
LAYER-2
 10
21.243643
 20
69.272827
 30
0.000000
  0
SEQEND
  8
LAYER-2
  0
POLYLINE
  8
LAYER-2
 66
  1
 70
  0
 62
  7
 10
21.278753
 20
69.237734
 30
0.000000
  0
VERTEX
  8
LAYER-2
 10
21.278753
 20
69.237734
 30
0.000000
  0
VERTEX
  8
LAYER-2
 10
21.238766
 20
69.197754
 30
0.000000
  0
SEQEND
  8
LAYER-2
  0
POLYLINE
  8
LAYER-2
 66
  1
 70
  0
 62
  7
 10
21.278753
 20
69.237734
 30
0.000000
  0
VERTEX
  8
LAYER-2
 10
21.278753
 20
69.237734
 30
0.000000
  0
VERTEX
  8
LAYER-2
 10
21.243643
 20
69.272827
 30
0.000000
  0
SEQEND
  8
LAYER-2
  0
POLYLINE
  8
LAYER-2
 66
  1
 70
  0
 62
  7
 10
21.438009
 20
68.711602
 30
0.000000
  0
VERTEX
  8
LAYER-2
 10
21.438009
 20
68.711602
 30
0.000000
  0
VERTEX
  8
LAYER-2
 10
21.432273
 20
68.705862
 30
0.000000
  0
SEQEND
  8
LAYER-2
  0
POLYLINE
  8
LAYER-2
 66
  1
 70
  0
 62
  7
 10
21.438009
 20
68.711602
 30
0.000000
  0
VERTEX
  8
LAYER-2
 10
21.438009
 20
68.711602
 30
0.000000
  0
VERTEX
  8
LAYER-2
 10
21.438087
 20
68.836452
 30
0.000000
  0
SEQEND
  8
LAYER-2
  0
ARC
  8
LAYER-2
 62
  7
 10
21.407220
 20
68.905095
 30
0.000000
 40
0.075258
 50
294.206604
 51
245.830200
  0
POLYLINE
  8
LAYER-2
 66
  1
 70
  0
 62
  7
 10
21.376493
 20
68.711602
 30
0.000000
  0
VERTEX
  8
LAYER-2
 10
21.376493
 20
68.711602
 30
0.000000
  0
VERTEX
  8
LAYER-2
 10
21.376416
 20
68.836438
 30
0.000000
  0
SEQEND
  8
LAYER-2
  0
POLYLINE
  8
LAYER-2
 66
  1
 70
  0
 62
  7
 10
21.376493
 20
68.711602
 30
0.000000
  0
VERTEX
  8
LAYER-2
 10
21.376493
 20
68.711602
 30
0.000000
  0
VERTEX
  8
LAYER-2
 10
21.382398
 20
68.705693
 30
0.000000
  0
SEQEND
  8
LAYER-2
  0
POLYLINE
  8
LAYER-2
 66
  1
 70
  0
 62
  7
 10
21.382398
 20
66.604699
 30
0.000000
  0
VERTEX
  8
LAYER-2
 10
21.382398
 20
66.604699
 30
0.000000
  0
VERTEX
  8
LAYER-2
 10
21.382398
 20
68.705693
 30
0.000000
  0
SEQEND
  8
LAYER-2
  0
POLYLINE
  8
LAYER-2
 66
  1
 70
  0
 62
  7
 10
21.376461
 20
66.598762
 30
0.000000
  0
VERTEX
  8
LAYER-2
 10
21.376461
 20
66.598762
 30
0.000000
  0
VERTEX
  8
LAYER-2
 10
21.382398
 20
66.604699
 30
0.000000
  0
SEQEND
  8
LAYER-2
  0
POLYLINE
  8
LAYER-2
 66
  1
 70
  0
 62
  7
 10
21.376461
 20
66.598762
 30
0.000000
  0
VERTEX
  8
LAYER-2
 10
21.376461
 20
66.598762
 30
0.000000
  0
VERTEX
  8
LAYER-2
 10
21.376401
 20
66.473926
 30
0.000000
  0
SEQEND
  8
LAYER-2
  0
ARC
  8
LAYER-2
 62
  7
 10
21.407251
 20
66.405283
 30
0.000000
 40
0.075258
 50
114.206604
 51
65.830200
  0
POLYLINE
  8
LAYER-2
 66
  1
 70
  0
 62
  7
 10
21.437978
 20
66.598762
 30
0.000000
  0
VERTEX
  8
LAYER-2
 10
21.437978
 20
66.598762
 30
0.000000
  0
VERTEX
  8
LAYER-2
 10
21.438069
 20
66.473940
 30
0.000000
  0
SEQEND
  8
LAYER-2
  0
POLYLINE
  8
LAYER-2
 66
  1
 70
  0
 62
  7
 10
21.437978
 20
66.598762
 30
0.000000
  0
VERTEX
  8
LAYER-2
 10
21.437978
 20
66.598762
 30
0.000000
  0
VERTEX
  8
LAYER-2
 10
21.432273
 20
66.604473
 30
0.000000
  0
SEQEND
  8
LAYER-2
  0
POLYLINE
  8
LAYER-2
 66
  1
 70
  0
 62
  7
 10
21.432273
 20
66.604473
 30
0.000000
  0
VERTEX
  8
LAYER-2
 10
21.432273
 20
66.604473
 30
0.000000
  0
VERTEX
  8
LAYER-2
 10
21.432273
 20
68.705862
 30
0.000000
  0
SEQEND
  8
LAYER-2
  0
CIRCLE
  8
LAYER-2
 62
  7
 10
21.388712
 20
72.077383
 30
0.000000
 40
0.082054
  0
ARC
  8
LAYER-2
 62
  7
 10
21.405737
 20
71.851206
 30
0.000000
 40
0.087262
 50
312.856262
 51
249.391663
  0
POLYLINE
  8
LAYER-2
 66
  1
 70
  0
 62
  7
 10
21.360031
 20
71.712369
 30
0.000000
  0
VERTEX
  8
LAYER-2
 10
21.360031
 20
71.712369
 30
0.000000
  0
VERTEX
  8
LAYER-2
 10
21.323565
 20
71.712369
 30
0.000000
  0
SEQEND
  8
LAYER-2
  0
POLYLINE
  8
LAYER-2
 66
  1
 70
  0
 62
  7
 10
21.375025
 20
71.769527
 30
0.000000
  0
VERTEX
  8
LAYER-2
 10
21.375025
 20
71.769527
 30
0.000000
  0
VERTEX
  8
LAYER-2
 10
21.374993
 20
71.727314
 30
0.000000
  0
SEQEND
  8
LAYER-2
  0
ARC
  8
LAYER-2
 62
  7
 10
21.360031
 20
71.727328
 30
0.000000
 40
0.014961
 50
270.000000
 51
359.956757
  0
POLYLINE
  8
LAYER-2
 66
  1
 70
  0
 62
  7
 10
21.537548
 20
72.077059
 30
0.000000
  0
VERTEX
  8
LAYER-2
 10
21.537548
 20
72.077059
 30
0.000000
  0
VERTEX
  8
LAYER-2
 10
21.565690
 20
71.796556
 30
0.000000
  0
SEQEND
  8
LAYER-2
  0
ARC
  8
LAYER-2
 62
  7
 10
21.510466
 20
71.791013
 30
0.000000
 40
0.055512
 50
315.000000
 51
5.728333
  0
POLYLINE
  8
LAYER-2
 66
  1
 70
  0
 62
  7
 10
21.465084
 20
71.787246
 30
0.000000
  0
VERTEX
  8
LAYER-2
 10
21.465084
 20
71.787246
 30
0.000000
  0
VERTEX
  8
LAYER-2
 10
21.490152
 20
71.721961
 30
0.000000
  0
SEQEND
  8
LAYER-2
  0
POLYLINE
  8
LAYER-2
 66
  1
 70
  0
 62
  7
 10
21.514695
 20
71.716750
 30
0.000000
  0
VERTEX
  8
LAYER-2
 10
21.514695
 20
71.716750
 30
0.000000
  0
VERTEX
  8
LAYER-2
 10
21.549714
 20
71.751765
 30
0.000000
  0
SEQEND
  8
LAYER-2
  0
ARC
  8
LAYER-2
 62
  7
 10
21.504114
 20
71.727328
 30
0.000000
 40
0.014961
 50
201.000244
 51
315.000000
  0
POLYLINE
  8
LAYER-2
 66
  1
 70
  0
 62
  7
 10
21.266450
 20
71.769484
 30
0.000000
  0
VERTEX
  8
LAYER-2
 10
21.266450
 20
71.769484
 30
0.000000
  0
VERTEX
  8
LAYER-2
 10
21.323565
 20
71.712369
 30
0.000000
  0
SEQEND
  8
LAYER-2
  0
POLYLINE
  8
LAYER-2
 66
  1
 70
  0
 62
  7
 10
21.266450
 20
71.769484
 30
0.000000
  0
VERTEX
  8
LAYER-2
 10
21.266450
 20
71.769484
 30
0.000000
  0
VERTEX
  8
LAYER-2
 10
21.243643
 20
71.933378
 30
0.000000
  0
SEQEND
  8
LAYER-2
  0
POLYLINE
  8
LAYER-2
 66
  1
 70
  0
 62
  7
 10
21.278753
 20
71.968492
 30
0.000000
  0
VERTEX
  8
LAYER-2
 10
21.278753
 20
71.968492
 30
0.000000
  0
VERTEX
  8
LAYER-2
 10
21.238766
 20
72.008472
 30
0.000000
  0
SEQEND
  8
LAYER-2
  0
POLYLINE
  8
LAYER-2
 66
  1
 70
  0
 62
  7
 10
21.278753
 20
71.968492
 30
0.000000
  0
VERTEX
  8
LAYER-2
 10
21.278753
 20
71.968492
 30
0.000000
  0
VERTEX
  8
LAYER-2
 10
21.243643
 20
71.933378
 30
0.000000
  0
SEQEND
  8
LAYER-2
  0
POLYLINE
  8
LAYER-2
 66
  1
 70
  0
 62
  7
 10
21.238766
 20
72.008472
 30
0.000000
  0
VERTEX
  8
LAYER-2
 10
21.238766
 20
72.008472
 30
0.000000
  0
VERTEX
  8
LAYER-2
 10
21.238766
 20
72.145667
 30
0.000000
  0
SEQEND
  8
LAYER-2
  0
ARC
  8
LAYER-2
 62
  7
 10
21.405737
 20
72.302913
 30
0.000000
 40
0.087262
 50
110.608337
 51
47.143738
  0
POLYLINE
  8
LAYER-2
 66
  1
 70
  0
 62
  7
 10
21.360031
 20
72.441763
 30
0.000000
  0
VERTEX
  8
LAYER-2
 10
21.360031
 20
72.441763
 30
0.000000
  0
VERTEX
  8
LAYER-2
 10
21.323565
 20
72.441763
 30
0.000000
  0
SEQEND
  8
LAYER-2
  0
POLYLINE
  8
LAYER-2
 66
  1
 70
  0
 62
  7
 10
21.375025
 20
72.384592
 30
0.000000
  0
VERTEX
  8
LAYER-2
 10
21.375025
 20
72.384592
 30
0.000000
  0
VERTEX
  8
LAYER-2
 10
21.374993
 20
72.426812
 30
0.000000
  0
SEQEND
  8
LAYER-2
  0
ARC
  8
LAYER-2
 62
  7
 10
21.360031
 20
72.426812
 30
0.000000
 40
0.014961
 50
0.043243
 51
90.000000
  0
POLYLINE
  8
LAYER-2
 66
  1
 70
  0
 62
  7
 10
21.537548
 20
72.077059
 30
0.000000
  0
VERTEX
  8
LAYER-2
 10
21.537548
 20
72.077059
 30
0.000000
  0
VERTEX
  8
LAYER-2
 10
21.565690
 20
72.357577
 30
0.000000
  0
SEQEND
  8
LAYER-2
  0
ARC
  8
LAYER-2
 62
  7
 10
21.510466
 20
72.363112
 30
0.000000
 40
0.055512
 50
354.271667
 51
45.000000
  0
POLYLINE
  8
LAYER-2
 66
  1
 70
  0
 62
  7
 10
21.465084
 20
72.366880
 30
0.000000
  0
VERTEX
  8
LAYER-2
 10
21.465084
 20
72.366880
 30
0.000000
  0
VERTEX
  8
LAYER-2
 10
21.490152
 20
72.432157
 30
0.000000
  0
SEQEND
  8
LAYER-2
  0
POLYLINE
  8
LAYER-2
 66
  1
 70
  0
 62
  7
 10
21.514695
 20
72.437390
 30
0.000000
  0
VERTEX
  8
LAYER-2
 10
21.514695
 20
72.437390
 30
0.000000
  0
VERTEX
  8
LAYER-2
 10
21.549714
 20
72.402374
 30
0.000000
  0
SEQEND
  8
LAYER-2
  0
ARC
  8
LAYER-2
 62
  7
 10
21.504114
 20
72.426812
 30
0.000000
 40
0.014961
 50
45.000000
 51
158.999756
  0
POLYLINE
  8
LAYER-2
 66
  1
 70
  0
 62
  7
 10
21.266450
 20
72.384641
 30
0.000000
  0
VERTEX
  8
LAYER-2
 10
21.266450
 20
72.384641
 30
0.000000
  0
VERTEX
  8
LAYER-2
 10
21.323565
 20
72.441763
 30
0.000000
  0
SEQEND
  8
LAYER-2
  0
POLYLINE
  8
LAYER-2
 66
  1
 70
  0
 62
  7
 10
21.266450
 20
72.384641
 30
0.000000
  0
VERTEX
  8
LAYER-2
 10
21.266450
 20
72.384641
 30
0.000000
  0
VERTEX
  8
LAYER-2
 10
21.243643
 20
72.220748
 30
0.000000
  0
SEQEND
  8
LAYER-2
  0
POLYLINE
  8
LAYER-2
 66
  1
 70
  0
 62
  7
 10
21.278753
 20
72.185655
 30
0.000000
  0
VERTEX
  8
LAYER-2
 10
21.278753
 20
72.185655
 30
0.000000
  0
VERTEX
  8
LAYER-2
 10
21.238766
 20
72.145667
 30
0.000000
  0
SEQEND
  8
LAYER-2
  0
POLYLINE
  8
LAYER-2
 66
  1
 70
  0
 62
  7
 10
21.278753
 20
72.185655
 30
0.000000
  0
VERTEX
  8
LAYER-2
 10
21.278753
 20
72.185655
 30
0.000000
  0
VERTEX
  8
LAYER-2
 10
21.243643
 20
72.220748
 30
0.000000
  0
SEQEND
  8
LAYER-2
  0
POLYLINE
  8
LAYER-2
 66
  1
 70
  0
 62
  7
 10
21.438009
 20
71.659522
 30
0.000000
  0
VERTEX
  8
LAYER-2
 10
21.438009
 20
71.659522
 30
0.000000
  0
VERTEX
  8
LAYER-2
 10
21.432273
 20
71.653790
 30
0.000000
  0
SEQEND
  8
LAYER-2
  0
POLYLINE
  8
LAYER-2
 66
  1
 70
  0
 62
  7
 10
21.438009
 20
71.659522
 30
0.000000
  0
VERTEX
  8
LAYER-2
 10
21.438009
 20
71.659522
 30
0.000000
  0
VERTEX
  8
LAYER-2
 10
21.438087
 20
71.784372
 30
0.000000
  0
SEQEND
  8
LAYER-2
  0
ARC
  8
LAYER-2
 62
  7
 10
21.407220
 20
71.853016
 30
0.000000
 40
0.075258
 50
294.206604
 51
245.830200
  0
POLYLINE
  8
LAYER-2
 66
  1
 70
  0
 62
  7
 10
21.376493
 20
71.659522
 30
0.000000
  0
VERTEX
  8
LAYER-2
 10
21.376493
 20
71.659522
 30
0.000000
  0
VERTEX
  8
LAYER-2
 10
21.376416
 20
71.784358
 30
0.000000
  0
SEQEND
  8
LAYER-2
  0
POLYLINE
  8
LAYER-2
 66
  1
 70
  0
 62
  7
 10
21.376493
 20
71.659522
 30
0.000000
  0
VERTEX
  8
LAYER-2
 10
21.376493
 20
71.659522
 30
0.000000
  0
VERTEX
  8
LAYER-2
 10
21.382398
 20
71.653621
 30
0.000000
  0
SEQEND
  8
LAYER-2
  0
POLYLINE
  8
LAYER-2
 66
  1
 70
  0
 62
  7
 10
21.382398
 20
69.552633
 30
0.000000
  0
VERTEX
  8
LAYER-2
 10
21.382398
 20
69.552633
 30
0.000000
  0
VERTEX
  8
LAYER-2
 10
21.382398
 20
71.653621
 30
0.000000
  0
SEQEND
  8
LAYER-2
  0
POLYLINE
  8
LAYER-2
 66
  1
 70
  0
 62
  7
 10
21.376461
 20
69.546697
 30
0.000000
  0
VERTEX
  8
LAYER-2
 10
21.376461
 20
69.546697
 30
0.000000
  0
VERTEX
  8
LAYER-2
 10
21.382398
 20
69.552633
 30
0.000000
  0
SEQEND
  8
LAYER-2
  0
POLYLINE
  8
LAYER-2
 66
  1
 70
  0
 62
  7
 10
21.376461
 20
69.546697
 30
0.000000
  0
VERTEX
  8
LAYER-2
 10
21.376461
 20
69.546697
 30
0.000000
  0
VERTEX
  8
LAYER-2
 10
21.376401
 20
69.421861
 30
0.000000
  0
SEQEND
  8
LAYER-2
  0
ARC
  8
LAYER-2
 62
  7
 10
21.407251
 20
69.353210
 30
0.000000
 40
0.075258
 50
114.206604
 51
65.830200
  0
POLYLINE
  8
LAYER-2
 66
  1
 70
  0
 62
  7
 10
21.437978
 20
69.546697
 30
0.000000
  0
VERTEX
  8
LAYER-2
 10
21.437978
 20
69.546697
 30
0.000000
  0
VERTEX
  8
LAYER-2
 10
21.438069
 20
69.421875
 30
0.000000
  0
SEQEND
  8
LAYER-2
  0
POLYLINE
  8
LAYER-2
 66
  1
 70
  0
 62
  7
 10
21.437978
 20
69.546697
 30
0.000000
  0
VERTEX
  8
LAYER-2
 10
21.437978
 20
69.546697
 30
0.000000
  0
VERTEX
  8
LAYER-2
 10
21.432273
 20
69.552415
 30
0.000000
  0
SEQEND
  8
LAYER-2
  0
POLYLINE
  8
LAYER-2
 66
  1
 70
  0
 62
  7
 10
21.432273
 20
69.552415
 30
0.000000
  0
VERTEX
  8
LAYER-2
 10
21.432273
 20
69.552415
 30
0.000000
  0
VERTEX
  8
LAYER-2
 10
21.432273
 20
71.653790
 30
0.000000
  0
SEQEND
  8
LAYER-2
  0
CIRCLE
  8
LAYER-2
 62
  7
 10
21.388712
 20
75.025304
 30
0.000000
 40
0.082054
  0
ARC
  8
LAYER-2
 62
  7
 10
21.405737
 20
74.799126
 30
0.000000
 40
0.087262
 50
312.856262
 51
249.391663
  0
POLYLINE
  8
LAYER-2
 66
  1
 70
  0
 62
  7
 10
21.360031
 20
74.660283
 30
0.000000
  0
VERTEX
  8
LAYER-2
 10
21.360031
 20
74.660283
 30
0.000000
  0
VERTEX
  8
LAYER-2
 10
21.323565
 20
74.660283
 30
0.000000
  0
SEQEND
  8
LAYER-2
  0
POLYLINE
  8
LAYER-2
 66
  1
 70
  0
 62
  7
 10
21.375025
 20
74.717454
 30
0.000000
  0
VERTEX
  8
LAYER-2
 10
21.375025
 20
74.717454
 30
0.000000
  0
VERTEX
  8
LAYER-2
 10
21.374993
 20
74.675234
 30
0.000000
  0
SEQEND
  8
LAYER-2
  0
ARC
  8
LAYER-2
 62
  7
 10
21.360031
 20
74.675248
 30
0.000000
 40
0.014961
 50
270.000000
 51
359.956757
  0
POLYLINE
  8
LAYER-2
 66
  1
 70
  0
 62
  7
 10
21.537548
 20
75.024987
 30
0.000000
  0
VERTEX
  8
LAYER-2
 10
21.537548
 20
75.024987
 30
0.000000
  0
VERTEX
  8
LAYER-2
 10
21.565690
 20
74.744469
 30
0.000000
  0
SEQEND
  8
LAYER-2
  0
ARC
  8
LAYER-2
 62
  7
 10
21.510466
 20
74.738934
 30
0.000000
 40
0.055512
 50
315.000000
 51
5.728333
  0
POLYLINE
  8
LAYER-2
 66
  1
 70
  0
 62
  7
 10
21.465084
 20
74.735166
 30
0.000000
  0
VERTEX
  8
LAYER-2
 10
21.465084
 20
74.735166
 30
0.000000
  0
VERTEX
  8
LAYER-2
 10
21.490152
 20
74.669882
 30
0.000000
  0
SEQEND
  8
LAYER-2
  0
POLYLINE
  8
LAYER-2
 66
  1
 70
  0
 62
  7
 10
21.514695
 20
74.664663
 30
0.000000
  0
VERTEX
  8
LAYER-2
 10
21.514695
 20
74.664663
 30
0.000000
  0
VERTEX
  8
LAYER-2
 10
21.549714
 20
74.699686
 30
0.000000
  0
SEQEND
  8
LAYER-2
  0
ARC
  8
LAYER-2
 62
  7
 10
21.504114
 20
74.675248
 30
0.000000
 40
0.014961
 50
201.000244
 51
315.000000
  0
POLYLINE
  8
LAYER-2
 66
  1
 70
  0
 62
  7
 10
21.266450
 20
74.717398
 30
0.000000
  0
VERTEX
  8
LAYER-2
 10
21.266450
 20
74.717398
 30
0.000000
  0
VERTEX
  8
LAYER-2
 10
21.323565
 20
74.660283
 30
0.000000
  0
SEQEND
  8
LAYER-2
  0
POLYLINE
  8
LAYER-2
 66
  1
 70
  0
 62
  7
 10
21.266450
 20
74.717398
 30
0.000000
  0
VERTEX
  8
LAYER-2
 10
21.266450
 20
74.717398
 30
0.000000
  0
VERTEX
  8
LAYER-2
 10
21.243643
 20
74.881291
 30
0.000000
  0
SEQEND
  8
LAYER-2
  0
POLYLINE
  8
LAYER-2
 66
  1
 70
  0
 62
  7
 10
21.278753
 20
74.916405
 30
0.000000
  0
VERTEX
  8
LAYER-2
 10
21.278753
 20
74.916405
 30
0.000000
  0
VERTEX
  8
LAYER-2
 10
21.238766
 20
74.956393
 30
0.000000
  0
SEQEND
  8
LAYER-2
  0
POLYLINE
  8
LAYER-2
 66
  1
 70
  0
 62
  7
 10
21.278753
 20
74.916405
 30
0.000000
  0
VERTEX
  8
LAYER-2
 10
21.278753
 20
74.916405
 30
0.000000
  0
VERTEX
  8
LAYER-2
 10
21.243643
 20
74.881291
 30
0.000000
  0
SEQEND
  8
LAYER-2
  0
POLYLINE
  8
LAYER-2
 66
  1
 70
  0
 62
  7
 10
21.238766
 20
74.956393
 30
0.000000
  0
VERTEX
  8
LAYER-2
 10
21.238766
 20
74.956393
 30
0.000000
  0
VERTEX
  8
LAYER-2
 10
21.238766
 20
75.093588
 30
0.000000
  0
SEQEND
  8
LAYER-2
  0
ARC
  8
LAYER-2
 62
  7
 10
21.405737
 20
75.250840
 30
0.000000
 40
0.087262
 50
110.608337
 51
47.143738
  0
POLYLINE
  8
LAYER-2
 66
  1
 70
  0
 62
  7
 10
21.360031
 20
75.389677
 30
0.000000
  0
VERTEX
  8
LAYER-2
 10
21.360031
 20
75.389677
 30
0.000000
  0
VERTEX
  8
LAYER-2
 10
21.323565
 20
75.389677
 30
0.000000
  0
SEQEND
  8
LAYER-2
  0
POLYLINE
  8
LAYER-2
 66
  1
 70
  0
 62
  7
 10
21.375025
 20
75.332520
 30
0.000000
  0
VERTEX
  8
LAYER-2
 10
21.375025
 20
75.332520
 30
0.000000
  0
VERTEX
  8
LAYER-2
 10
21.374993
 20
75.374732
 30
0.000000
  0
SEQEND
  8
LAYER-2
  0
ARC
  8
LAYER-2
 62
  7
 10
21.360031
 20
75.374732
 30
0.000000
 40
0.014961
 50
0.043243
 51
90.000000
  0
POLYLINE
  8
LAYER-2
 66
  1
 70
  0
 62
  7
 10
21.537548
 20
75.024987
 30
0.000000
  0
VERTEX
  8
LAYER-2
 10
21.537548
 20
75.024987
 30
0.000000
  0
VERTEX
  8
LAYER-2
 10
21.565690
 20
75.305490
 30
0.000000
  0
SEQEND
  8
LAYER-2
  0
ARC
  8
LAYER-2
 62
  7
 10
21.510466
 20
75.311026
 30
0.000000
 40
0.055512
 50
354.271667
 51
45.000000
  0
POLYLINE
  8
LAYER-2
 66
  1
 70
  0
 62
  7
 10
21.465084
 20
75.314801
 30
0.000000
  0
VERTEX
  8
LAYER-2
 10
21.465084
 20
75.314801
 30
0.000000
  0
VERTEX
  8
LAYER-2
 10
21.490152
 20
75.380085
 30
0.000000
  0
SEQEND
  8
LAYER-2
  0
POLYLINE
  8
LAYER-2
 66
  1
 70
  0
 62
  7
 10
21.514695
 20
75.385310
 30
0.000000
  0
VERTEX
  8
LAYER-2
 10
21.514695
 20
75.385310
 30
0.000000
  0
VERTEX
  8
LAYER-2
 10
21.549714
 20
75.350295
 30
0.000000
  0
SEQEND
  8
LAYER-2
  0
ARC
  8
LAYER-2
 62
  7
 10
21.504114
 20
75.374732
 30
0.000000
 40
0.014961
 50
45.000000
 51
158.999756
  0
POLYLINE
  8
LAYER-2
 66
  1
 70
  0
 62
  7
 10
21.266450
 20
75.332562
 30
0.000000
  0
VERTEX
  8
LAYER-2
 10
21.266450
 20
75.332562
 30
0.000000
  0
VERTEX
  8
LAYER-2
 10
21.323565
 20
75.389677
 30
0.000000
  0
SEQEND
  8
LAYER-2
  0
POLYLINE
  8
LAYER-2
 66
  1
 70
  0
 62
  7
 10
21.266450
 20
75.332562
 30
0.000000
  0
VERTEX
  8
LAYER-2
 10
21.266450
 20
75.332562
 30
0.000000
  0
VERTEX
  8
LAYER-2
 10
21.243643
 20
75.168668
 30
0.000000
  0
SEQEND
  8
LAYER-2
  0
POLYLINE
  8
LAYER-2
 66
  1
 70
  0
 62
  7
 10
21.278753
 20
75.133568
 30
0.000000
  0
VERTEX
  8
LAYER-2
 10
21.278753
 20
75.133568
 30
0.000000
  0
VERTEX
  8
LAYER-2
 10
21.238766
 20
75.093588
 30
0.000000
  0
SEQEND
  8
LAYER-2
  0
POLYLINE
  8
LAYER-2
 66
  1
 70
  0
 62
  7
 10
21.278753
 20
75.133568
 30
0.000000
  0
VERTEX
  8
LAYER-2
 10
21.278753
 20
75.133568
 30
0.000000
  0
VERTEX
  8
LAYER-2
 10
21.243643
 20
75.168668
 30
0.000000
  0
SEQEND
  8
LAYER-2
  0
POLYLINE
  8
LAYER-2
 66
  1
 70
  0
 62
  7
 10
21.438009
 20
74.607443
 30
0.000000
  0
VERTEX
  8
LAYER-2
 10
21.438009
 20
74.607443
 30
0.000000
  0
VERTEX
  8
LAYER-2
 10
21.432273
 20
74.601703
 30
0.000000
  0
SEQEND
  8
LAYER-2
  0
POLYLINE
  8
LAYER-2
 66
  1
 70
  0
 62
  7
 10
21.438009
 20
74.607443
 30
0.000000
  0
VERTEX
  8
LAYER-2
 10
21.438009
 20
74.607443
 30
0.000000
  0
VERTEX
  8
LAYER-2
 10
21.438087
 20
74.732286
 30
0.000000
  0
SEQEND
  8
LAYER-2
  0
ARC
  8
LAYER-2
 62
  7
 10
21.407220
 20
74.800936
 30
0.000000
 40
0.075258
 50
294.206604
 51
245.830200
  0
POLYLINE
  8
LAYER-2
 66
  1
 70
  0
 62
  7
 10
21.376493
 20
74.607443
 30
0.000000
  0
VERTEX
  8
LAYER-2
 10
21.376493
 20
74.607443
 30
0.000000
  0
VERTEX
  8
LAYER-2
 10
21.376416
 20
74.732272
 30
0.000000
  0
SEQEND
  8
LAYER-2
  0
POLYLINE
  8
LAYER-2
 66
  1
 70
  0
 62
  7
 10
21.376493
 20
74.607443
 30
0.000000
  0
VERTEX
  8
LAYER-2
 10
21.376493
 20
74.607443
 30
0.000000
  0
VERTEX
  8
LAYER-2
 10
21.382398
 20
74.601534
 30
0.000000
  0
SEQEND
  8
LAYER-2
  0
POLYLINE
  8
LAYER-2
 66
  1
 70
  0
 62
  7
 10
21.382398
 20
72.500554
 30
0.000000
  0
VERTEX
  8
LAYER-2
 10
21.382398
 20
72.500554
 30
0.000000
  0
VERTEX
  8
LAYER-2
 10
21.382398
 20
74.601534
 30
0.000000
  0
SEQEND
  8
LAYER-2
  0
POLYLINE
  8
LAYER-2
 66
  1
 70
  0
 62
  7
 10
21.376461
 20
72.494617
 30
0.000000
  0
VERTEX
  8
LAYER-2
 10
21.376461
 20
72.494617
 30
0.000000
  0
VERTEX
  8
LAYER-2
 10
21.382398
 20
72.500554
 30
0.000000
  0
SEQEND
  8
LAYER-2
  0
POLYLINE
  8
LAYER-2
 66
  1
 70
  0
 62
  7
 10
21.376461
 20
72.494617
 30
0.000000
  0
VERTEX
  8
LAYER-2
 10
21.376461
 20
72.494617
 30
0.000000
  0
VERTEX
  8
LAYER-2
 10
21.376401
 20
72.369774
 30
0.000000
  0
SEQEND
  8
LAYER-2
  0
ARC
  8
LAYER-2
 62
  7
 10
21.407251
 20
72.301138
 30
0.000000
 40
0.075258
 50
114.206604
 51
65.830200
  0
POLYLINE
  8
LAYER-2
 66
  1
 70
  0
 62
  7
 10
21.437978
 20
72.494617
 30
0.000000
  0
VERTEX
  8
LAYER-2
 10
21.437978
 20
72.494617
 30
0.000000
  0
VERTEX
  8
LAYER-2
 10
21.438069
 20
72.369789
 30
0.000000
  0
SEQEND
  8
LAYER-2
  0
POLYLINE
  8
LAYER-2
 66
  1
 70
  0
 62
  7
 10
21.437978
 20
72.494617
 30
0.000000
  0
VERTEX
  8
LAYER-2
 10
21.437978
 20
72.494617
 30
0.000000
  0
VERTEX
  8
LAYER-2
 10
21.432273
 20
72.500329
 30
0.000000
  0
SEQEND
  8
LAYER-2
  0
POLYLINE
  8
LAYER-2
 66
  1
 70
  0
 62
  7
 10
21.432273
 20
72.500329
 30
0.000000
  0
VERTEX
  8
LAYER-2
 10
21.432273
 20
72.500329
 30
0.000000
  0
VERTEX
  8
LAYER-2
 10
21.432273
 20
74.601703
 30
0.000000
  0
SEQEND
  8
LAYER-2
  0
CIRCLE
  8
LAYER-2
 62
  7
 10
21.388712
 20
77.973168
 30
0.000000
 40
0.082054
  0
ARC
  8
LAYER-2
 62
  7
 10
21.405737
 20
77.746990
 30
0.000000
 40
0.087262
 50
312.856262
 51
249.391663
  0
POLYLINE
  8
LAYER-2
 66
  1
 70
  0
 62
  7
 10
21.360031
 20
77.608147
 30
0.000000
  0
VERTEX
  8
LAYER-2
 10
21.360031
 20
77.608147
 30
0.000000
  0
VERTEX
  8
LAYER-2
 10
21.323565
 20
77.608147
 30
0.000000
  0
SEQEND
  8
LAYER-2
  0
POLYLINE
  8
LAYER-2
 66
  1
 70
  0
 62
  7
 10
21.375025
 20
77.665311
 30
0.000000
  0
VERTEX
  8
LAYER-2
 10
21.375025
 20
77.665311
 30
0.000000
  0
VERTEX
  8
LAYER-2
 10
21.374993
 20
77.623099
 30
0.000000
  0
SEQEND
  8
LAYER-2
  0
ARC
  8
LAYER-2
 62
  7
 10
21.360031
 20
77.623113
 30
0.000000
 40
0.014961
 50
270.000000
 51
359.956757
  0
POLYLINE
  8
LAYER-2
 66
  1
 70
  0
 62
  7
 10
21.537548
 20
77.972844
 30
0.000000
  0
VERTEX
  8
LAYER-2
 10
21.537548
 20
77.972844
 30
0.000000
  0
VERTEX
  8
LAYER-2
 10
21.565690
 20
77.692326
 30
0.000000
  0
SEQEND
  8
LAYER-2
  0
ARC
  8
LAYER-2
 62
  7
 10
21.510466
 20
77.686791
 30
0.000000
 40
0.055512
 50
315.000000
 51
5.728333
  0
POLYLINE
  8
LAYER-2
 66
  1
 70
  0
 62
  7
 10
21.465084
 20
77.683030
 30
0.000000
  0
VERTEX
  8
LAYER-2
 10
21.465084
 20
77.683030
 30
0.000000
  0
VERTEX
  8
LAYER-2
 10
21.490152
 20
77.617746
 30
0.000000
  0
SEQEND
  8
LAYER-2
  0
POLYLINE
  8
LAYER-2
 66
  1
 70
  0
 62
  7
 10
21.514695
 20
77.612535
 30
0.000000
  0
VERTEX
  8
LAYER-2
 10
21.514695
 20
77.612535
 30
0.000000
  0
VERTEX
  8
LAYER-2
 10
21.549714
 20
77.647550
 30
0.000000
  0
SEQEND
  8
LAYER-2
  0
ARC
  8
LAYER-2
 62
  7
 10
21.504114
 20
77.623113
 30
0.000000
 40
0.014961
 50
201.000244
 51
315.000000
  0
POLYLINE
  8
LAYER-2
 66
  1
 70
  0
 62
  7
 10
21.266450
 20
77.665269
 30
0.000000
  0
VERTEX
  8
LAYER-2
 10
21.266450
 20
77.665269
 30
0.000000
  0
VERTEX
  8
LAYER-2
 10
21.323565
 20
77.608147
 30
0.000000
  0
SEQEND
  8
LAYER-2
  0
POLYLINE
  8
LAYER-2
 66
  1
 70
  0
 62
  7
 10
21.266450
 20
77.665269
 30
0.000000
  0
VERTEX
  8
LAYER-2
 10
21.266450
 20
77.665269
 30
0.000000
  0
VERTEX
  8
LAYER-2
 10
21.243643
 20
77.829163
 30
0.000000
  0
SEQEND
  8
LAYER-2
  0
POLYLINE
  8
LAYER-2
 66
  1
 70
  0
 62
  7
 10
21.278753
 20
77.864270
 30
0.000000
  0
VERTEX
  8
LAYER-2
 10
21.278753
 20
77.864270
 30
0.000000
  0
VERTEX
  8
LAYER-2
 10
21.238766
 20
77.904250
 30
0.000000
  0
SEQEND
  8
LAYER-2
  0
POLYLINE
  8
LAYER-2
 66
  1
 70
  0
 62
  7
 10
21.278753
 20
77.864270
 30
0.000000
  0
VERTEX
  8
LAYER-2
 10
21.278753
 20
77.864270
 30
0.000000
  0
VERTEX
  8
LAYER-2
 10
21.243643
 20
77.829163
 30
0.000000
  0
SEQEND
  8
LAYER-2
  0
POLYLINE
  8
LAYER-2
 66
  1
 70
  0
 62
  7
 10
21.238766
 20
77.904250
 30
0.000000
  0
VERTEX
  8
LAYER-2
 10
21.238766
 20
77.904250
 30
0.000000
  0
VERTEX
  8
LAYER-2
 10
21.238766
 20
78.041452
 30
0.000000
  0
SEQEND
  8
LAYER-2
  0
ARC
  8
LAYER-2
 62
  7
 10
21.405737
 20
78.198698
 30
0.000000
 40
0.087262
 50
110.608337
 51
47.143738
  0
POLYLINE
  8
LAYER-2
 66
  1
 70
  0
 62
  7
 10
21.360031
 20
78.337541
 30
0.000000
  0
VERTEX
  8
LAYER-2
 10
21.360031
 20
78.337541
 30
0.000000
  0
VERTEX
  8
LAYER-2
 10
21.323565
 20
78.337541
 30
0.000000
  0
SEQEND
  8
LAYER-2
  0
POLYLINE
  8
LAYER-2
 66
  1
 70
  0
 62
  7
 10
21.375025
 20
78.280377
 30
0.000000
  0
VERTEX
  8
LAYER-2
 10
21.375025
 20
78.280377
 30
0.000000
  0
VERTEX
  8
LAYER-2
 10
21.374993
 20
78.322590
 30
0.000000
  0
SEQEND
  8
LAYER-2
  0
ARC
  8
LAYER-2
 62
  7
 10
21.360031
 20
78.322590
 30
0.000000
 40
0.014961
 50
0.043243
 51
90.000000
  0
POLYLINE
  8
LAYER-2
 66
  1
 70
  0
 62
  7
 10
21.537548
 20
77.972844
 30
0.000000
  0
VERTEX
  8
LAYER-2
 10
21.537548
 20
77.972844
 30
0.000000
  0
VERTEX
  8
LAYER-2
 10
21.565690
 20
78.253355
 30
0.000000
  0
SEQEND
  8
LAYER-2
  0
ARC
  8
LAYER-2
 62
  7
 10
21.510466
 20
78.258890
 30
0.000000
 40
0.055512
 50
354.271667
 51
45.000000
  0
POLYLINE
  8
LAYER-2
 66
  1
 70
  0
 62
  7
 10
21.465084
 20
78.262658
 30
0.000000
  0
VERTEX
  8
LAYER-2
 10
21.465084
 20
78.262658
 30
0.000000
  0
VERTEX
  8
LAYER-2
 10
21.490152
 20
78.327942
 30
0.000000
  0
SEQEND
  8
LAYER-2
  0
POLYLINE
  8
LAYER-2
 66
  1
 70
  0
 62
  7
 10
21.514695
 20
78.333167
 30
0.000000
  0
VERTEX
  8
LAYER-2
 10
21.514695
 20
78.333167
 30
0.000000
  0
VERTEX
  8
LAYER-2
 10
21.549714
 20
78.298152
 30
0.000000
  0
SEQEND
  8
LAYER-2
  0
ARC
  8
LAYER-2
 62
  7
 10
21.504114
 20
78.322590
 30
0.000000
 40
0.014961
 50
45.000000
 51
158.999756
  0
POLYLINE
  8
LAYER-2
 66
  1
 70
  0
 62
  7
 10
21.266450
 20
78.280419
 30
0.000000
  0
VERTEX
  8
LAYER-2
 10
21.266450
 20
78.280419
 30
0.000000
  0
VERTEX
  8
LAYER-2
 10
21.323565
 20
78.337541
 30
0.000000
  0
SEQEND
  8
LAYER-2
  0
POLYLINE
  8
LAYER-2
 66
  1
 70
  0
 62
  7
 10
21.266450
 20
78.280419
 30
0.000000
  0
VERTEX
  8
LAYER-2
 10
21.266450
 20
78.280419
 30
0.000000
  0
VERTEX
  8
LAYER-2
 10
21.243643
 20
78.116526
 30
0.000000
  0
SEQEND
  8
LAYER-2
  0
POLYLINE
  8
LAYER-2
 66
  1
 70
  0
 62
  7
 10
21.278753
 20
78.081433
 30
0.000000
  0
VERTEX
  8
LAYER-2
 10
21.278753
 20
78.081433
 30
0.000000
  0
VERTEX
  8
LAYER-2
 10
21.238766
 20
78.041452
 30
0.000000
  0
SEQEND
  8
LAYER-2
  0
POLYLINE
  8
LAYER-2
 66
  1
 70
  0
 62
  7
 10
21.278753
 20
78.081433
 30
0.000000
  0
VERTEX
  8
LAYER-2
 10
21.278753
 20
78.081433
 30
0.000000
  0
VERTEX
  8
LAYER-2
 10
21.243643
 20
78.116526
 30
0.000000
  0
SEQEND
  8
LAYER-2
  0
POLYLINE
  8
LAYER-2
 66
  1
 70
  0
 62
  7
 10
21.438009
 20
77.555307
 30
0.000000
  0
VERTEX
  8
LAYER-2
 10
21.438009
 20
77.555307
 30
0.000000
  0
VERTEX
  8
LAYER-2
 10
21.432273
 20
77.549568
 30
0.000000
  0
SEQEND
  8
LAYER-2
  0
POLYLINE
  8
LAYER-2
 66
  1
 70
  0
 62
  7
 10
21.438009
 20
77.555307
 30
0.000000
  0
VERTEX
  8
LAYER-2
 10
21.438009
 20
77.555307
 30
0.000000
  0
VERTEX
  8
LAYER-2
 10
21.438087
 20
77.680150
 30
0.000000
  0
SEQEND
  8
LAYER-2
  0
ARC
  8
LAYER-2
 62
  7
 10
21.407220
 20
77.748793
 30
0.000000
 40
0.075258
 50
294.206604
 51
245.830200
  0
POLYLINE
  8
LAYER-2
 66
  1
 70
  0
 62
  7
 10
21.376493
 20
77.555307
 30
0.000000
  0
VERTEX
  8
LAYER-2
 10
21.376493
 20
77.555307
 30
0.000000
  0
VERTEX
  8
LAYER-2
 10
21.376416
 20
77.680136
 30
0.000000
  0
SEQEND
  8
LAYER-2
  0
POLYLINE
  8
LAYER-2
 66
  1
 70
  0
 62
  7
 10
21.376493
 20
77.555307
 30
0.000000
  0
VERTEX
  8
LAYER-2
 10
21.376493
 20
77.555307
 30
0.000000
  0
VERTEX
  8
LAYER-2
 10
21.382398
 20
77.549399
 30
0.000000
  0
SEQEND
  8
LAYER-2
  0
POLYLINE
  8
LAYER-2
 66
  1
 70
  0
 62
  7
 10
21.382398
 20
75.448468
 30
0.000000
  0
VERTEX
  8
LAYER-2
 10
21.382398
 20
75.448468
 30
0.000000
  0
VERTEX
  8
LAYER-2
 10
21.382398
 20
77.549399
 30
0.000000
  0
SEQEND
  8
LAYER-2
  0
POLYLINE
  8
LAYER-2
 66
  1
 70
  0
 62
  7
 10
21.376461
 20
75.442538
 30
0.000000
  0
VERTEX
  8
LAYER-2
 10
21.376461
 20
75.442538
 30
0.000000
  0
VERTEX
  8
LAYER-2
 10
21.382398
 20
75.448468
 30
0.000000
  0
SEQEND
  8
LAYER-2
  0
POLYLINE
  8
LAYER-2
 66
  1
 70
  0
 62
  7
 10
21.376461
 20
75.442538
 30
0.000000
  0
VERTEX
  8
LAYER-2
 10
21.376461
 20
75.442538
 30
0.000000
  0
VERTEX
  8
LAYER-2
 10
21.376401
 20
75.317695
 30
0.000000
  0
SEQEND
  8
LAYER-2
  0
ARC
  8
LAYER-2
 62
  7
 10
21.407251
 20
75.249052
 30
0.000000
 40
0.075258
 50
114.206604
 51
65.830200
  0
POLYLINE
  8
LAYER-2
 66
  1
 70
  0
 62
  7
 10
21.437978
 20
75.442538
 30
0.000000
  0
VERTEX
  8
LAYER-2
 10
21.437978
 20
75.442538
 30
0.000000
  0
VERTEX
  8
LAYER-2
 10
21.438069
 20
75.317716
 30
0.000000
  0
SEQEND
  8
LAYER-2
  0
POLYLINE
  8
LAYER-2
 66
  1
 70
  0
 62
  7
 10
21.437978
 20
75.442538
 30
0.000000
  0
VERTEX
  8
LAYER-2
 10
21.437978
 20
75.442538
 30
0.000000
  0
VERTEX
  8
LAYER-2
 10
21.432273
 20
75.448249
 30
0.000000
  0
SEQEND
  8
LAYER-2
  0
POLYLINE
  8
LAYER-2
 66
  1
 70
  0
 62
  7
 10
21.432273
 20
75.448249
 30
0.000000
  0
VERTEX
  8
LAYER-2
 10
21.432273
 20
75.448249
 30
0.000000
  0
VERTEX
  8
LAYER-2
 10
21.432273
 20
77.549568
 30
0.000000
  0
SEQEND
  8
LAYER-2
  0
CIRCLE
  8
LAYER-2
 62
  7
 10
21.487730
 20
80.926927
 30
0.000000
 40
0.082054
  0
ARC
  8
LAYER-2
 62
  7
 10
21.490297
 20
80.700123
 30
0.000000
 40
0.087262
 50
309.202393
 51
245.737778
  0
POLYLINE
  8
LAYER-2
 66
  1
 70
  0
 62
  7
 10
21.435840
 20
80.564477
 30
0.000000
  0
VERTEX
  8
LAYER-2
 10
21.435840
 20
80.564477
 30
0.000000
  0
VERTEX
  8
LAYER-2
 10
21.399445
 20
80.566801
 30
0.000000
  0
SEQEND
  8
LAYER-2
  0
POLYLINE
  8
LAYER-2
 66
  1
 70
  0
 62
  7
 10
21.454450
 20
80.620570
 30
0.000000
  0
VERTEX
  8
LAYER-2
 10
21.454450
 20
80.620570
 30
0.000000
  0
VERTEX
  8
LAYER-2
 10
21.451725
 20
80.578435
 30
0.000000
  0
SEQEND
  8
LAYER-2
  0
ARC
  8
LAYER-2
 62
  7
 10
21.436795
 20
80.579407
 30
0.000000
 40
0.014961
 50
266.346130
 51
356.302856
  0
POLYLINE
  8
LAYER-2
 66
  1
 70
  0
 62
  7
 10
21.636235
 20
80.917117
 30
0.000000
  0
VERTEX
  8
LAYER-2
 10
21.636235
 20
80.917117
 30
0.000000
  0
VERTEX
  8
LAYER-2
 10
21.646447
 20
80.635381
 30
0.000000
  0
SEQEND
  8
LAYER-2
  0
ARC
  8
LAYER-2
 62
  7
 10
21.590983
 20
80.633381
 30
0.000000
 40
0.055512
 50
311.346130
 51
2.074440
  0
POLYLINE
  8
LAYER-2
 66
  1
 70
  0
 62
  7
 10
21.545447
 20
80.632507
 30
0.000000
  0
VERTEX
  8
LAYER-2
 10
21.545447
 20
80.632507
 30
0.000000
  0
VERTEX
  8
LAYER-2
 10
21.566306
 20
80.565758
 30
0.000000
  0
SEQEND
  8
LAYER-2
  0
POLYLINE
  8
LAYER-2
 66
  1
 70
  0
 62
  7
 10
21.590466
 20
80.558998
 30
0.000000
  0
VERTEX
  8
LAYER-2
 10
21.590466
 20
80.558998
 30
0.000000
  0
VERTEX
  8
LAYER-2
 10
21.627647
 20
80.591703
 30
0.000000
  0
SEQEND
  8
LAYER-2
  0
ARC
  8
LAYER-2
 62
  7
 10
21.580585
 20
80.570223
 30
0.000000
 40
0.014961
 50
197.346359
 51
311.346130
  0
POLYLINE
  8
LAYER-2
 66
  1
 70
  0
 62
  7
 10
21.346087
 20
80.627437
 30
0.000000
  0
VERTEX
  8
LAYER-2
 10
21.346087
 20
80.627437
 30
0.000000
  0
VERTEX
  8
LAYER-2
 10
21.399445
 20
80.566801
 30
0.000000
  0
SEQEND
  8
LAYER-2
  0
POLYLINE
  8
LAYER-2
 66
  1
 70
  0
 62
  7
 10
21.346087
 20
80.627437
 30
0.000000
  0
VERTEX
  8
LAYER-2
 10
21.346087
 20
80.627437
 30
0.000000
  0
VERTEX
  8
LAYER-2
 10
21.333770
 20
80.792457
 30
0.000000
  0
SEQEND
  8
LAYER-2
  0
POLYLINE
  8
LAYER-2
 66
  1
 70
  0
 62
  7
 10
21.371049
 20
80.825254
 30
0.000000
  0
VERTEX
  8
LAYER-2
 10
21.371049
 20
80.825254
 30
0.000000
  0
VERTEX
  8
LAYER-2
 10
21.333692
 20
80.867713
 30
0.000000
  0
SEQEND
  8
LAYER-2
  0
POLYLINE
  8
LAYER-2
 66
  1
 70
  0
 62
  7
 10
21.371049
 20
80.825254
 30
0.000000
  0
VERTEX
  8
LAYER-2
 10
21.371049
 20
80.825254
 30
0.000000
  0
VERTEX
  8
LAYER-2
 10
21.333770
 20
80.792457
 30
0.000000
  0
SEQEND
  8
LAYER-2
  0
POLYLINE
  8
LAYER-2
 66
  1
 70
  0
 62
  7
 10
21.333692
 20
80.867713
 30
0.000000
  0
VERTEX
  8
LAYER-2
 10
21.333692
 20
80.867713
 30
0.000000
  0
VERTEX
  8
LAYER-2
 10
21.342435
 20
81.004620
 30
0.000000
  0
SEQEND
  8
LAYER-2
  0
ARC
  8
LAYER-2
 62
  7
 10
21.519086
 20
81.150921
 30
0.000000
 40
0.087262
 50
106.954468
 51
43.489849
  0
POLYLINE
  8
LAYER-2
 66
  1
 70
  0
 62
  7
 10
21.482324
 20
81.292384
 30
0.000000
  0
VERTEX
  8
LAYER-2
 10
21.482324
 20
81.292384
 30
0.000000
  0
VERTEX
  8
LAYER-2
 10
21.445929
 20
81.294708
 30
0.000000
  0
SEQEND
  8
LAYER-2
  0
POLYLINE
  8
LAYER-2
 66
  1
 70
  0
 62
  7
 10
21.493642
 20
81.234382
 30
0.000000
  0
VERTEX
  8
LAYER-2
 10
21.493642
 20
81.234382
 30
0.000000
  0
VERTEX
  8
LAYER-2
 10
21.496304
 20
81.276510
 30
0.000000
  0
SEQEND
  8
LAYER-2
  0
ARC
  8
LAYER-2
 62
  7
 10
21.481370
 20
81.277461
 30
0.000000
 40
0.014961
 50
356.389343
 51
86.346107
  0
POLYLINE
  8
LAYER-2
 66
  1
 70
  0
 62
  7
 10
21.636235
 20
80.917117
 30
0.000000
  0
VERTEX
  8
LAYER-2
 10
21.636235
 20
80.917117
 30
0.000000
  0
VERTEX
  8
LAYER-2
 10
21.682202
 20
81.195261
 30
0.000000
  0
SEQEND
  8
LAYER-2
  0
ARC
  8
LAYER-2
 62
  7
 10
21.627439
 20
81.204303
 30
0.000000
 40
0.055512
 50
350.617767
 51
41.346111
  0
POLYLINE
  8
LAYER-2
 66
  1
 70
  0
 62
  7
 10
21.582385
 20
81.210966
 30
0.000000
  0
VERTEX
  8
LAYER-2
 10
21.582385
 20
81.210966
 30
0.000000
  0
VERTEX
  8
LAYER-2
 10
21.611569
 20
81.274517
 30
0.000000
  0
SEQEND
  8
LAYER-2
  0
POLYLINE
  8
LAYER-2
 66
  1
 70
  0
 62
  7
 10
21.636397
 20
81.278165
 30
0.000000
  0
VERTEX
  8
LAYER-2
 10
21.636397
 20
81.278165
 30
0.000000
  0
VERTEX
  8
LAYER-2
 10
21.669106
 20
81.240995
 30
0.000000
  0
SEQEND
  8
LAYER-2
  0
ARC
  8
LAYER-2
 62
  7
 10
21.625161
 20
81.268285
 30
0.000000
 40
0.014961
 50
41.346111
 51
155.345886
  0
POLYLINE
  8
LAYER-2
 66
  1
 70
  0
 62
  7
 10
21.385289
 20
81.241347
 30
0.000000
  0
VERTEX
  8
LAYER-2
 10
21.385289
 20
81.241347
 30
0.000000
  0
VERTEX
  8
LAYER-2
 10
21.445929
 20
81.294708
 30
0.000000
  0
SEQEND
  8
LAYER-2
  0
POLYLINE
  8
LAYER-2
 66
  1
 70
  0
 62
  7
 10
21.385289
 20
81.241347
 30
0.000000
  0
VERTEX
  8
LAYER-2
 10
21.385289
 20
81.241347
 30
0.000000
  0
VERTEX
  8
LAYER-2
 10
21.352087
 20
81.079242
 30
0.000000
  0
SEQEND
  8
LAYER-2
  0
POLYLINE
  8
LAYER-2
 66
  1
 70
  0
 62
  7
 10
21.384891
 20
81.041980
 30
0.000000
  0
VERTEX
  8
LAYER-2
 10
21.384891
 20
81.041980
 30
0.000000
  0
VERTEX
  8
LAYER-2
 10
21.342435
 20
81.004620
 30
0.000000
  0
SEQEND
  8
LAYER-2
  0
POLYLINE
  8
LAYER-2
 66
  1
 70
  0
 62
  7
 10
21.384891
 20
81.041980
 30
0.000000
  0
VERTEX
  8
LAYER-2
 10
21.384891
 20
81.041980
 30
0.000000
  0
VERTEX
  8
LAYER-2
 10
21.352087
 20
81.079242
 30
0.000000
  0
SEQEND
  8
LAYER-2
  0
POLYLINE
  8
LAYER-2
 66
  1
 70
  0
 62
  7
 10
21.514857
 20
80.501608
 30
0.000000
  0
VERTEX
  8
LAYER-2
 10
21.514857
 20
80.501608
 30
0.000000
  0
VERTEX
  8
LAYER-2
 10
21.508921
 20
80.496066
 30
0.000000
  0
SEQEND
  8
LAYER-2
  0
POLYLINE
  8
LAYER-2
 66
  1
 70
  0
 62
  7
 10
21.514857
 20
80.501608
 30
0.000000
  0
VERTEX
  8
LAYER-2
 10
21.514857
 20
80.501608
 30
0.000000
  0
VERTEX
  8
LAYER-2
 10
21.519086
 20
80.626380
 30
0.000000
  0
SEQEND
  8
LAYER-2
  0
ARC
  8
LAYER-2
 62
  7
 10
21.490529
 20
80.696017
 30
0.000000
 40
0.075258
 50
292.297180
 51
243.920761
  0
POLYLINE
  8
LAYER-2
 66
  1
 70
  0
 62
  7
 10
21.453373
 20
80.503657
 30
0.000000
  0
VERTEX
  8
LAYER-2
 10
21.453373
 20
80.503657
 30
0.000000
  0
VERTEX
  8
LAYER-2
 10
21.457447
 20
80.628423
 30
0.000000
  0
SEQEND
  8
LAYER-2
  0
POLYLINE
  8
LAYER-2
 66
  1
 70
  0
 62
  7
 10
21.453373
 20
80.503657
 30
0.000000
  0
VERTEX
  8
LAYER-2
 10
21.453373
 20
80.503657
 30
0.000000
  0
VERTEX
  8
LAYER-2
 10
21.459077
 20
80.497559
 30
0.000000
  0
SEQEND
  8
LAYER-2
  0
POLYLINE
  8
LAYER-2
 66
  1
 70
  0
 62
  7
 10
21.389071
 20
78.397740
 30
0.000000
  0
VERTEX
  8
LAYER-2
 10
21.389071
 20
78.397740
 30
0.000000
  0
VERTEX
  8
LAYER-2
 10
21.459077
 20
80.497559
 30
0.000000
  0
SEQEND
  8
LAYER-2
  0
POLYLINE
  8
LAYER-2
 66
  1
 70
  0
 62
  7
 10
21.382944
 20
78.392001
 30
0.000000
  0
VERTEX
  8
LAYER-2
 10
21.382944
 20
78.392001
 30
0.000000
  0
VERTEX
  8
LAYER-2
 10
21.389071
 20
78.397740
 30
0.000000
  0
SEQEND
  8
LAYER-2
  0
POLYLINE
  8
LAYER-2
 66
  1
 70
  0
 62
  7
 10
21.382944
 20
78.392001
 30
0.000000
  0
VERTEX
  8
LAYER-2
 10
21.382944
 20
78.392001
 30
0.000000
  0
VERTEX
  8
LAYER-2
 10
21.378715
 20
78.267235
 30
0.000000
  0
SEQEND
  8
LAYER-2
  0
ARC
  8
LAYER-2
 62
  7
 10
21.407265
 20
78.197599
 30
0.000000
 40
0.075258
 50
112.297150
 51
63.920753
  0
POLYLINE
  8
LAYER-2
 66
  1
 70
  0
 62
  7
 10
21.444422
 20
78.389958
 30
0.000000
  0
VERTEX
  8
LAYER-2
 10
21.444422
 20
78.389958
 30
0.000000
  0
VERTEX
  8
LAYER-2
 10
21.440355
 20
78.265193
 30
0.000000
  0
SEQEND
  8
LAYER-2
  0
POLYLINE
  8
LAYER-2
 66
  1
 70
  0
 62
  7
 10
21.444422
 20
78.389958
 30
0.000000
  0
VERTEX
  8
LAYER-2
 10
21.444422
 20
78.389958
 30
0.000000
  0
VERTEX
  8
LAYER-2
 10
21.438907
 20
78.395860
 30
0.000000
  0
SEQEND
  8
LAYER-2
  0
POLYLINE
  8
LAYER-2
 66
  1
 70
  0
 62
  7
 10
21.438907
 20
78.395860
 30
0.000000
  0
VERTEX
  8
LAYER-2
 10
21.438907
 20
78.395860
 30
0.000000
  0
VERTEX
  8
LAYER-2
 10
21.508921
 20
80.496066
 30
0.000000
  0
SEQEND
  8
LAYER-2
  0
CIRCLE
  8
LAYER-2
 62
  7
 10
21.817805
 20
83.887968
 30
0.000000
 40
0.082054
  0
ARC
  8
LAYER-2
 62
  7
 10
21.794998
 20
83.662304
 30
0.000000
 40
0.087262
 50
302.779602
 51
239.314987
  0
POLYLINE
  8
LAYER-2
 66
  1
 70
  0
 62
  7
 10
21.725703
 20
83.533602
 30
0.000000
  0
VERTEX
  8
LAYER-2
 10
21.725703
 20
83.533602
 30
0.000000
  0
VERTEX
  8
LAYER-2
 10
21.689801
 20
83.539983
 30
0.000000
  0
SEQEND
  8
LAYER-2
  0
POLYLINE
  8
LAYER-2
 66
  1
 70
  0
 62
  7
 10
21.750461
 20
83.587259
 30
0.000000
  0
VERTEX
  8
LAYER-2
 10
21.750461
 20
83.587259
 30
0.000000
  0
VERTEX
  8
LAYER-2
 10
21.743049
 20
83.545701
 30
0.000000
  0
SEQEND
  8
LAYER-2
  0
ARC
  8
LAYER-2
 62
  7
 10
21.728316
 20
83.548335
 30
0.000000
 40
0.014961
 50
259.923340
 51
349.880096
  0
POLYLINE
  8
LAYER-2
 66
  1
 70
  0
 62
  7
 10
21.964290
 20
83.861615
 30
0.000000
  0
VERTEX
  8
LAYER-2
 10
21.964290
 20
83.861615
 30
0.000000
  0
VERTEX
  8
LAYER-2
 10
21.942923
 20
83.580505
 30
0.000000
  0
SEQEND
  8
LAYER-2
  0
ARC
  8
LAYER-2
 62
  7
 10
21.887579
 20
83.584717
 30
0.000000
 40
0.055512
 50
304.923340
 51
355.651672
  0
POLYLINE
  8
LAYER-2
 66
  1
 70
  0
 62
  7
 10
21.842236
 20
83.588942
 30
0.000000
  0
VERTEX
  8
LAYER-2
 10
21.842236
 20
83.588942
 30
0.000000
  0
VERTEX
  8
LAYER-2
 10
21.855493
 20
83.520285
 30
0.000000
  0
SEQEND
  8
LAYER-2
  0
POLYLINE
  8
LAYER-2
 66
  1
 70
  0
 62
  7
 10
21.878744
 20
83.510855
 30
0.000000
  0
VERTEX
  8
LAYER-2
 10
21.878744
 20
83.510855
 30
0.000000
  0
VERTEX
  8
LAYER-2
 10
21.919355
 20
83.539208
 30
0.000000
  0
SEQEND
  8
LAYER-2
  0
ARC
  8
LAYER-2
 62
  7
 10
21.870188
 20
83.523123
 30
0.000000
 40
0.014961
 50
190.923584
 51
304.923340
  0
POLYLINE
  8
LAYER-2
 66
  1
 70
  0
 62
  7
 10
21.643556
 20
83.606211
 30
0.000000
  0
VERTEX
  8
LAYER-2
 10
21.643556
 20
83.606211
 30
0.000000
  0
VERTEX
  8
LAYER-2
 10
21.689801
 20
83.539983
 30
0.000000
  0
SEQEND
  8
LAYER-2
  0
POLYLINE
  8
LAYER-2
 66
  1
 70
  0
 62
  7
 10
21.643556
 20
83.606211
 30
0.000000
  0
VERTEX
  8
LAYER-2
 10
21.643556
 20
83.606211
 30
0.000000
  0
VERTEX
  8
LAYER-2
 10
21.649778
 20
83.771569
 30
0.000000
  0
SEQEND
  8
LAYER-2
  0
POLYLINE
  8
LAYER-2
 66
  1
 70
  0
 62
  7
 10
21.690491
 20
83.799992
 30
0.000000
  0
VERTEX
  8
LAYER-2
 10
21.690491
 20
83.799992
 30
0.000000
  0
VERTEX
  8
LAYER-2
 10
21.658120
 20
83.846360
 30
0.000000
  0
SEQEND
  8
LAYER-2
  0
POLYLINE
  8
LAYER-2
 66
  1
 70
  0
 62
  7
 10
21.690491
 20
83.799992
 30
0.000000
  0
VERTEX
  8
LAYER-2
 10
21.690491
 20
83.799992
 30
0.000000
  0
VERTEX
  8
LAYER-2
 10
21.649778
 20
83.771569
 30
0.000000
  0
SEQEND
  8
LAYER-2
  0
POLYLINE
  8
LAYER-2
 66
  1
 70
  0
 62
  7
 10
21.658120
 20
83.846360
 30
0.000000
  0
VERTEX
  8
LAYER-2
 10
21.658120
 20
83.846360
 30
0.000000
  0
VERTEX
  8
LAYER-2
 10
21.682117
 20
83.981436
 30
0.000000
  0
SEQEND
  8
LAYER-2
  0
ARC
  8
LAYER-2
 62
  7
 10
21.874033
 20
84.107046
 30
0.000000
 40
0.087262
 50
100.531677
 51
37.067070
  0
POLYLINE
  8
LAYER-2
 66
  1
 70
  0
 62
  7
 10
21.853317
 20
84.251742
 30
0.000000
  0
VERTEX
  8
LAYER-2
 10
21.853317
 20
84.251742
 30
0.000000
  0
VERTEX
  8
LAYER-2
 10
21.817422
 20
84.258122
 30
0.000000
  0
SEQEND
  8
LAYER-2
  0
POLYLINE
  8
LAYER-2
 66
  1
 70
  0
 62
  7
 10
21.858085
 20
84.192838
 30
0.000000
  0
VERTEX
  8
LAYER-2
 10
21.858085
 20
84.192838
 30
0.000000
  0
VERTEX
  8
LAYER-2
 10
21.865434
 20
84.234403
 30
0.000000
  0
SEQEND
  8
LAYER-2
  0
ARC
  8
LAYER-2
 62
  7
 10
21.850701
 20
84.237023
 30
0.000000
 40
0.014961
 50
349.966583
 51
79.923332
  0
POLYLINE
  8
LAYER-2
 66
  1
 70
  0
 62
  7
 10
21.964290
 20
83.861615
 30
0.000000
  0
VERTEX
  8
LAYER-2
 10
21.964290
 20
83.861615
 30
0.000000
  0
VERTEX
  8
LAYER-2
 10
22.041078
 20
84.132871
 30
0.000000
  0
SEQEND
  8
LAYER-2
  0
ARC
  8
LAYER-2
 62
  7
 10
21.987674
 20
84.147991
 30
0.000000
 40
0.055512
 50
344.195007
 51
34.923332
  0
POLYLINE
  8
LAYER-2
 66
  1
 70
  0
 62
  7
 10
21.943652
 20
84.159640
 30
0.000000
  0
VERTEX
  8
LAYER-2
 10
21.943652
 20
84.159640
 30
0.000000
  0
VERTEX
  8
LAYER-2
 10
21.979755
 20
84.219529
 30
0.000000
  0
SEQEND
  8
LAYER-2
  0
POLYLINE
  8
LAYER-2
 66
  1
 70
  0
 62
  7
 10
22.004837
 20
84.220382
 30
0.000000
  0
VERTEX
  8
LAYER-2
 10
22.004837
 20
84.220382
 30
0.000000
  0
VERTEX
  8
LAYER-2
 10
22.033190
 20
84.179781
 30
0.000000
  0
SEQEND
  8
LAYER-2
  0
ARC
  8
LAYER-2
 62
  7
 10
21.992565
 20
84.211818
 30
0.000000
 40
0.014961
 50
34.923332
 51
148.923096
  0
POLYLINE
  8
LAYER-2
 66
  1
 70
  0
 62
  7
 10
21.751187
 20
84.211881
 30
0.000000
  0
VERTEX
  8
LAYER-2
 10
21.751187
 20
84.211881
 30
0.000000
  0
VERTEX
  8
LAYER-2
 10
21.817422
 20
84.258122
 30
0.000000
  0
SEQEND
  8
LAYER-2
  0
POLYLINE
  8
LAYER-2
 66
  1
 70
  0
 62
  7
 10
21.751187
 20
84.211881
 30
0.000000
  0
VERTEX
  8
LAYER-2
 10
21.751187
 20
84.211881
 30
0.000000
  0
VERTEX
  8
LAYER-2
 10
21.700058
 20
84.054502
 30
0.000000
  0
SEQEND
  8
LAYER-2
  0
POLYLINE
  8
LAYER-2
 66
  1
 70
  0
 62
  7
 10
21.728485
 20
84.013810
 30
0.000000
  0
VERTEX
  8
LAYER-2
 10
21.728485
 20
84.013810
 30
0.000000
  0
VERTEX
  8
LAYER-2
 10
21.682117
 20
83.981436
 30
0.000000
  0
SEQEND
  8
LAYER-2
  0
POLYLINE
  8
LAYER-2
 66
  1
 70
  0
 62
  7
 10
21.728485
 20
84.013810
 30
0.000000
  0
VERTEX
  8
LAYER-2
 10
21.728485
 20
84.013810
 30
0.000000
  0
VERTEX
  8
LAYER-2
 10
21.700058
 20
84.054502
 30
0.000000
  0
SEQEND
  8
LAYER-2
  0
POLYLINE
  8
LAYER-2
 66
  1
 70
  0
 62
  7
 10
21.801836
 20
83.452064
 30
0.000000
  0
VERTEX
  8
LAYER-2
 10
21.801836
 20
83.452064
 30
0.000000
  0
VERTEX
  8
LAYER-2
 10
21.795509
 20
83.446979
 30
0.000000
  0
SEQEND
  8
LAYER-2
  0
POLYLINE
  8
LAYER-2
 66
  1
 70
  0
 62
  7
 10
21.801836
 20
83.452064
 30
0.000000
  0
VERTEX
  8
LAYER-2
 10
21.801836
 20
83.452064
 30
0.000000
  0
VERTEX
  8
LAYER-2
 10
21.815376
 20
83.576181
 30
0.000000
  0
SEQEND
  8
LAYER-2
  0
ARC
  8
LAYER-2
 62
  7
 10
21.792107
 20
83.647747
 30
0.000000
 40
0.075258
 50
288.011597
 51
239.635208
  0
POLYLINE
  8
LAYER-2
 66
  1
 70
  0
 62
  7
 10
21.740672
 20
83.458705
 30
0.000000
  0
VERTEX
  8
LAYER-2
 10
21.740672
 20
83.458705
 30
0.000000
  0
VERTEX
  8
LAYER-2
 10
21.754060
 20
83.582822
 30
0.000000
  0
SEQEND
  8
LAYER-2
  0
POLYLINE
  8
LAYER-2
 66
  1
 70
  0
 62
  7
 10
21.740672
 20
83.458705
 30
0.000000
  0
VERTEX
  8
LAYER-2
 10
21.740672
 20
83.458705
 30
0.000000
  0
VERTEX
  8
LAYER-2
 10
21.745912
 20
83.452198
 30
0.000000
  0
SEQEND
  8
LAYER-2
  0
POLYLINE
  8
LAYER-2
 66
  1
 70
  0
 62
  7
 10
21.519185
 20
81.363478
 30
0.000000
  0
VERTEX
  8
LAYER-2
 10
21.519185
 20
81.363478
 30
0.000000
  0
VERTEX
  8
LAYER-2
 10
21.745912
 20
83.452198
 30
0.000000
  0
SEQEND
  8
LAYER-2
  0
POLYLINE
  8
LAYER-2
 66
  1
 70
  0
 62
  7
 10
21.512642
 20
81.358225
 30
0.000000
  0
VERTEX
  8
LAYER-2
 10
21.512642
 20
81.358225
 30
0.000000
  0
VERTEX
  8
LAYER-2
 10
21.519185
 20
81.363478
 30
0.000000
  0
SEQEND
  8
LAYER-2
  0
POLYLINE
  8
LAYER-2
 66
  1
 70
  0
 62
  7
 10
21.512642
 20
81.358225
 30
0.000000
  0
VERTEX
  8
LAYER-2
 10
21.512642
 20
81.358225
 30
0.000000
  0
VERTEX
  8
LAYER-2
 10
21.499100
 20
81.234121
 30
0.000000
  0
SEQEND
  8
LAYER-2
  0
ARC
  8
LAYER-2
 62
  7
 10
21.522379
 20
81.162541
 30
0.000000
 40
0.075258
 50
108.011597
 51
59.635201
  0
POLYLINE
  8
LAYER-2
 66
  1
 70
  0
 62
  7
 10
21.573803
 20
81.351584
 30
0.000000
  0
VERTEX
  8
LAYER-2
 10
21.573803
 20
81.351584
 30
0.000000
  0
VERTEX
  8
LAYER-2
 10
21.560415
 20
81.227473
 30
0.000000
  0
SEQEND
  8
LAYER-2
  0
POLYLINE
  8
LAYER-2
 66
  1
 70
  0
 62
  7
 10
21.573803
 20
81.351584
 30
0.000000
  0
VERTEX
  8
LAYER-2
 10
21.573803
 20
81.351584
 30
0.000000
  0
VERTEX
  8
LAYER-2
 10
21.568736
 20
81.357880
 30
0.000000
  0
SEQEND
  8
LAYER-2
  0
POLYLINE
  8
LAYER-2
 66
  1
 70
  0
 62
  7
 10
21.568736
 20
81.357880
 30
0.000000
  0
VERTEX
  8
LAYER-2
 10
21.568736
 20
81.357880
 30
0.000000
  0
VERTEX
  8
LAYER-2
 10
21.795509
 20
83.446979
 30
0.000000
  0
SEQEND
  8
LAYER-2
  0
CIRCLE
  8
LAYER-2
 62
  7
 10
22.467428
 20
86.799767
 30
0.000000
 40
0.082054
  0
ARC
  8
LAYER-2
 62
  7
 10
22.425075
 20
86.576949
 30
0.000000
 40
0.087262
 50
297.789032
 51
234.324432
  0
POLYLINE
  8
LAYER-2
 66
  1
 70
  0
 62
  7
 10
22.344843
 20
86.454754
 30
0.000000
  0
VERTEX
  8
LAYER-2
 10
22.344843
 20
86.454754
 30
0.000000
  0
VERTEX
  8
LAYER-2
 10
22.309634
 20
86.464240
 30
0.000000
  0
SEQEND
  8
LAYER-2
  0
POLYLINE
  8
LAYER-2
 66
  1
 70
  0
 62
  7
 10
22.374185
 20
86.506066
 30
0.000000
  0
VERTEX
  8
LAYER-2
 10
22.374185
 20
86.506066
 30
0.000000
  0
VERTEX
  8
LAYER-2
 10
22.363174
 20
86.465304
 30
0.000000
  0
SEQEND
  8
LAYER-2
  0
ARC
  8
LAYER-2
 62
  7
 10
22.348734
 20
86.469205
 30
0.000000
 40
0.014961
 50
254.932770
 51
344.889526
  0
POLYLINE
  8
LAYER-2
 66
  1
 70
  0
 62
  7
 10
22.611068
 20
86.760773
 30
0.000000
  0
VERTEX
  8
LAYER-2
 10
22.611068
 20
86.760773
 30
0.000000
  0
VERTEX
  8
LAYER-2
 10
22.565316
 20
86.482586
 30
0.000000
  0
SEQEND
  8
LAYER-2
  0
ARC
  8
LAYER-2
 62
  7
 10
22.510550
 20
86.491601
 30
0.000000
 40
0.055512
 50
299.932770
 51
350.661102
  0
POLYLINE
  8
LAYER-2
 66
  1
 70
  0
 62
  7
 10
22.465752
 20
86.499756
 30
0.000000
  0
VERTEX
  8
LAYER-2
 10
22.465752
 20
86.499756
 30
0.000000
  0
VERTEX
  8
LAYER-2
 10
22.472988
 20
86.430204
 30
0.000000
  0
SEQEND
  8
LAYER-2
  0
POLYLINE
  8
LAYER-2
 66
  1
 70
  0
 62
  7
 10
22.495334
 20
86.418788
 30
0.000000
  0
VERTEX
  8
LAYER-2
 10
22.495334
 20
86.418788
 30
0.000000
  0
VERTEX
  8
LAYER-2
 10
22.538248
 20
86.443493
 30
0.000000
  0
SEQEND
  8
LAYER-2
  0
ARC
  8
LAYER-2
 62
  7
 10
22.487866
 20
86.431753
 30
0.000000
 40
0.014961
 50
185.933014
 51
299.932770
  0
POLYLINE
  8
LAYER-2
 66
  1
 70
  0
 62
  7
 10
22.269333
 20
86.534236
 30
0.000000
  0
VERTEX
  8
LAYER-2
 10
22.269333
 20
86.534236
 30
0.000000
  0
VERTEX
  8
LAYER-2
 10
22.309634
 20
86.464240
 30
0.000000
  0
SEQEND
  8
LAYER-2
  0
POLYLINE
  8
LAYER-2
 66
  1
 70
  0
 62
  7
 10
22.269333
 20
86.534236
 30
0.000000
  0
VERTEX
  8
LAYER-2
 10
22.269333
 20
86.534236
 30
0.000000
  0
VERTEX
  8
LAYER-2
 10
22.289908
 20
86.698425
 30
0.000000
  0
SEQEND
  8
LAYER-2
  0
POLYLINE
  8
LAYER-2
 66
  1
 70
  0
 62
  7
 10
22.332941
 20
86.723201
 30
0.000000
  0
VERTEX
  8
LAYER-2
 10
22.332941
 20
86.723201
 30
0.000000
  0
VERTEX
  8
LAYER-2
 10
22.304729
 20
86.772203
 30
0.000000
  0
SEQEND
  8
LAYER-2
  0
POLYLINE
  8
LAYER-2
 66
  1
 70
  0
 62
  7
 10
22.332941
 20
86.723201
 30
0.000000
  0
VERTEX
  8
LAYER-2
 10
22.332941
 20
86.723201
 30
0.000000
  0
VERTEX
  8
LAYER-2
 10
22.289908
 20
86.698425
 30
0.000000
  0
SEQEND
  8
LAYER-2
  0
POLYLINE
  8
LAYER-2
 66
  1
 70
  0
 62
  7
 10
22.304729
 20
86.772203
 30
0.000000
  0
VERTEX
  8
LAYER-2
 10
22.304729
 20
86.772203
 30
0.000000
  0
VERTEX
  8
LAYER-2
 10
22.340381
 20
86.904687
 30
0.000000
  0
SEQEND
  8
LAYER-2
  0
ARC
  8
LAYER-2
 62
  7
 10
22.542495
 20
87.013127
 30
0.000000
 40
0.087262
 50
95.541107
 51
32.076519
  0
POLYLINE
  8
LAYER-2
 66
  1
 70
  0
 62
  7
 10
22.534448
 20
87.159076
 30
0.000000
  0
VERTEX
  8
LAYER-2
 10
22.534448
 20
87.159076
 30
0.000000
  0
VERTEX
  8
LAYER-2
 10
22.499246
 20
87.168556
 30
0.000000
  0
SEQEND
  8
LAYER-2
  0
POLYLINE
  8
LAYER-2
 66
  1
 70
  0
 62
  7
 10
22.534065
 20
87.099976
 30
0.000000
  0
VERTEX
  8
LAYER-2
 10
22.534065
 20
87.099976
 30
0.000000
  0
VERTEX
  8
LAYER-2
 10
22.545016
 20
87.140752
 30
0.000000
  0
SEQEND
  8
LAYER-2
  0
ARC
  8
LAYER-2
 62
  7
 10
22.530568
 20
87.144639
 30
0.000000
 40
0.014961
 50
344.976013
 51
74.932777
  0
POLYLINE
  8
LAYER-2
 66
  1
 70
  0
 62
  7
 10
22.611068
 20
86.760773
 30
0.000000
  0
VERTEX
  8
LAYER-2
 10
22.611068
 20
86.760773
 30
0.000000
  0
VERTEX
  8
LAYER-2
 10
22.711163
 20
87.024325
 30
0.000000
  0
SEQEND
  8
LAYER-2
  0
ARC
  8
LAYER-2
 62
  7
 10
22.659274
 20
87.044030
 30
0.000000
 40
0.055512
 50
339.204437
 51
29.932781
  0
POLYLINE
  8
LAYER-2
 66
  1
 70
  0
 62
  7
 10
22.616427
 20
87.059460
 30
0.000000
  0
VERTEX
  8
LAYER-2
 10
22.616427
 20
87.059460
 30
0.000000
  0
VERTEX
  8
LAYER-2
 10
22.657605
 20
87.115983
 30
0.000000
  0
SEQEND
  8
LAYER-2
  0
POLYLINE
  8
LAYER-2
 66
  1
 70
  0
 62
  7
 10
22.682665
 20
87.114652
 30
0.000000
  0
VERTEX
  8
LAYER-2
 10
22.682665
 20
87.114652
 30
0.000000
  0
VERTEX
  8
LAYER-2
 10
22.707378
 20
87.071735
 30
0.000000
  0
SEQEND
  8
LAYER-2
  0
ARC
  8
LAYER-2
 62
  7
 10
22.669693
 20
87.107187
 30
0.000000
 40
0.014961
 50
29.932781
 51
143.932526
  0
POLYLINE
  8
LAYER-2
 66
  1
 70
  0
 62
  7
 10
22.429244
 20
87.128244
 30
0.000000
  0
VERTEX
  8
LAYER-2
 10
22.429244
 20
87.128244
 30
0.000000
  0
VERTEX
  8
LAYER-2
 10
22.499246
 20
87.168556
 30
0.000000
  0
SEQEND
  8
LAYER-2
  0
POLYLINE
  8
LAYER-2
 66
  1
 70
  0
 62
  7
 10
22.429244
 20
87.128244
 30
0.000000
  0
VERTEX
  8
LAYER-2
 10
22.429244
 20
87.128244
 30
0.000000
  0
VERTEX
  8
LAYER-2
 10
22.364611
 20
86.975915
 30
0.000000
  0
SEQEND
  8
LAYER-2
  0
POLYLINE
  8
LAYER-2
 66
  1
 70
  0
 62
  7
 10
22.389397
 20
86.932906
 30
0.000000
  0
VERTEX
  8
LAYER-2
 10
22.389397
 20
86.932906
 30
0.000000
  0
VERTEX
  8
LAYER-2
 10
22.340381
 20
86.904687
 30
0.000000
  0
SEQEND
  8
LAYER-2
  0
POLYLINE
  8
LAYER-2
 66
  1
 70
  0
 62
  7
 10
22.389397
 20
86.932906
 30
0.000000
  0
VERTEX
  8
LAYER-2
 10
22.389397
 20
86.932906
 30
0.000000
  0
VERTEX
  8
LAYER-2
 10
22.364611
 20
86.975915
 30
0.000000
  0
SEQEND
  8
LAYER-2
  0
POLYLINE
  8
LAYER-2
 66
  1
 70
  0
 62
  7
 10
22.412895
 20
86.366793
 30
0.000000
  0
VERTEX
  8
LAYER-2
 10
22.412895
 20
86.366793
 30
0.000000
  0
VERTEX
  8
LAYER-2
 10
22.406035
 20
86.362455
 30
0.000000
  0
SEQEND
  8
LAYER-2
  0
POLYLINE
  8
LAYER-2
 66
  1
 70
  0
 62
  7
 10
22.412895
 20
86.366793
 30
0.000000
  0
VERTEX
  8
LAYER-2
 10
22.412895
 20
86.366793
 30
0.000000
  0
VERTEX
  8
LAYER-2
 10
22.440248
 20
86.488615
 30
0.000000
  0
SEQEND
  8
LAYER-2
  0
ARC
  8
LAYER-2
 62
  7
 10
22.425135
 20
86.562336
 30
0.000000
 40
0.075258
 50
281.585205
 51
233.208801
  0
POLYLINE
  8
LAYER-2
 66
  1
 70
  0
 62
  7
 10
22.352871
 20
86.380237
 30
0.000000
  0
VERTEX
  8
LAYER-2
 10
22.352871
 20
86.380237
 30
0.000000
  0
VERTEX
  8
LAYER-2
 10
22.380059
 20
86.502066
 30
0.000000
  0
SEQEND
  8
LAYER-2
  0
POLYLINE
  8
LAYER-2
 66
  1
 70
  0
 62
  7
 10
22.352871
 20
86.380237
 30
0.000000
  0
VERTEX
  8
LAYER-2
 10
22.352871
 20
86.380237
 30
0.000000
  0
VERTEX
  8
LAYER-2
 10
22.357347
 20
86.373188
 30
0.000000
  0
SEQEND
  8
LAYER-2
  0
POLYLINE
  8
LAYER-2
 66
  1
 70
  0
 62
  7
 10
21.898263
 20
84.322970
 30
0.000000
  0
VERTEX
  8
LAYER-2
 10
21.898263
 20
84.322970
 30
0.000000
  0
VERTEX
  8
LAYER-2
 10
22.357347
 20
86.373188
 30
0.000000
  0
SEQEND
  8
LAYER-2
  0
POLYLINE
  8
LAYER-2
 66
  1
 70
  0
 62
  7
 10
21.891171
 20
84.318477
 30
0.000000
  0
VERTEX
  8
LAYER-2
 10
21.891171
 20
84.318477
 30
0.000000
  0
VERTEX
  8
LAYER-2
 10
21.898263
 20
84.322970
 30
0.000000
  0
SEQEND
  8
LAYER-2
  0
POLYLINE
  8
LAYER-2
 66
  1
 70
  0
 62
  7
 10
21.891171
 20
84.318477
 30
0.000000
  0
VERTEX
  8
LAYER-2
 10
21.891171
 20
84.318477
 30
0.000000
  0
VERTEX
  8
LAYER-2
 10
21.863828
 20
84.196669
 30
0.000000
  0
SEQEND
  8
LAYER-2
  0
ARC
  8
LAYER-2
 62
  7
 10
21.878938
 20
84.122941
 30
0.000000
 40
0.075258
 50
101.585205
 51
53.208801
  0
POLYLINE
  8
LAYER-2
 66
  1
 70
  0
 62
  7
 10
21.951205
 20
84.305026
 30
0.000000
  0
VERTEX
  8
LAYER-2
 10
21.951205
 20
84.305026
 30
0.000000
  0
VERTEX
  8
LAYER-2
 10
21.924007
 20
84.183204
 30
0.000000
  0
SEQEND
  8
LAYER-2
  0
POLYLINE
  8
LAYER-2
 66
  1
 70
  0
 62
  7
 10
21.951205
 20
84.305026
 30
0.000000
  0
VERTEX
  8
LAYER-2
 10
21.951205
 20
84.305026
 30
0.000000
  0
VERTEX
  8
LAYER-2
 10
21.946874
 20
84.311857
 30
0.000000
  0
SEQEND
  8
LAYER-2
  0
POLYLINE
  8
LAYER-2
 66
  1
 70
  0
 62
  7
 10
21.946874
 20
84.311857
 30
0.000000
  0
VERTEX
  8
LAYER-2
 10
21.946874
 20
84.311857
 30
0.000000
  0
VERTEX
  8
LAYER-2
 10
22.406035
 20
86.362455
 30
0.000000
  0
SEQEND
  8
LAYER-2
  0
POLYLINE
  8
LAYER-2
 66
  1
 70
  0
 62
  7
 10
22.576105
 20
87.220670
 30
0.000000
  0
VERTEX
  8
LAYER-2
 10
22.576105
 20
87.220670
 30
0.000000
  0
VERTEX
  8
LAYER-2
 10
22.583324
 20
87.224396
 30
0.000000
  0
SEQEND
  8
LAYER-2
  0
POLYLINE
  8
LAYER-2
 66
  1
 70
  0
 62
  7
 10
22.576105
 20
87.220670
 30
0.000000
  0
VERTEX
  8
LAYER-2
 10
22.576105
 20
87.220670
 30
0.000000
  0
VERTEX
  8
LAYER-2
 10
22.538111
 20
87.101750
 30
0.000000
  0
SEQEND
  8
LAYER-2
  0
ARC
  8
LAYER-2
 62
  7
 10
22.546660
 20
87.026973
 30
0.000000
 40
0.075258
 50
96.521606
 51
48.145203
  0
POLYLINE
  8
LAYER-2
 66
  1
 70
  0
 62
  7
 10
22.634713
 20
87.201986
 30
0.000000
  0
VERTEX
  8
LAYER-2
 10
22.634713
 20
87.201986
 30
0.000000
  0
VERTEX
  8
LAYER-2
 10
22.596873
 20
87.083031
 30
0.000000
  0
SEQEND
  8
LAYER-2
  0
POLYLINE
  8
LAYER-2
 66
  1
 70
  0
 62
  7
 10
22.634713
 20
87.201986
 30
0.000000
  0
VERTEX
  8
LAYER-2
 10
22.634713
 20
87.201986
 30
0.000000
  0
VERTEX
  8
LAYER-2
 10
22.630882
 20
87.209402
 30
0.000000
  0
SEQEND
  8
LAYER-2
  0
POLYLINE
  8
LAYER-2
 66
  1
 70
  0
 62
  7
 10
23.269124
 20
89.211097
 30
0.000000
  0
VERTEX
  8
LAYER-2
 10
23.269124
 20
89.211097
 30
0.000000
  0
VERTEX
  8
LAYER-2
 10
22.630882
 20
87.209402
 30
0.000000
  0
SEQEND
  8
LAYER-2
  0
POLYLINE
  8
LAYER-2
 66
  1
 70
  0
 62
  7
 10
23.276582
 20
89.214949
 30
0.000000
  0
VERTEX
  8
LAYER-2
 10
23.276582
 20
89.214949
 30
0.000000
  0
VERTEX
  8
LAYER-2
 10
23.269124
 20
89.211097
 30
0.000000
  0
SEQEND
  8
LAYER-2
  0
POLYLINE
  8
LAYER-2
 66
  1
 70
  0
 62
  7
 10
23.276582
 20
89.214949
 30
0.000000
  0
VERTEX
  8
LAYER-2
 10
23.276582
 20
89.214949
 30
0.000000
  0
VERTEX
  8
LAYER-2
 10
23.314569
 20
89.333876
 30
0.000000
  0
SEQEND
  8
LAYER-2
  0
ARC
  8
LAYER-2
 62
  7
 10
23.306020
 20
89.408640
 30
0.000000
 40
0.075258
 50
276.521606
 51
228.145203
  0
POLYLINE
  8
LAYER-2
 66
  1
 70
  0
 62
  7
 10
23.217974
 20
89.233647
 30
0.000000
  0
VERTEX
  8
LAYER-2
 10
23.217974
 20
89.233647
 30
0.000000
  0
VERTEX
  8
LAYER-2
 10
23.255821
 20
89.352595
 30
0.000000
  0
SEQEND
  8
LAYER-2
  0
POLYLINE
  8
LAYER-2
 66
  1
 70
  0
 62
  7
 10
23.217974
 20
89.233647
 30
0.000000
  0
VERTEX
  8
LAYER-2
 10
23.217974
 20
89.233647
 30
0.000000
  0
VERTEX
  8
LAYER-2
 10
23.221682
 20
89.226464
 30
0.000000
  0
SEQEND
  8
LAYER-2
  0
POLYLINE
  8
LAYER-2
 66
  1
 70
  0
 62
  7
 10
23.221682
 20
89.226464
 30
0.000000
  0
VERTEX
  8
LAYER-2
 10
23.221682
 20
89.226464
 30
0.000000
  0
VERTEX
  8
LAYER-2
 10
22.583324
 20
87.224396
 30
0.000000
  0
SEQEND
  8
LAYER-2
  0
CIRCLE
  8
LAYER-2
 62
  7
 10
23.443599
 20
89.602837
 30
0.000000
 40
0.082054
  0
ARC
  8
LAYER-2
 62
  7
 10
23.312400
 20
89.417816
 30
0.000000
 40
0.087262
 50
273.212097
 51
209.747498
  0
POLYLINE
  8
LAYER-2
 66
  1
 70
  0
 62
  7
 10
23.188617
 20
89.340060
 30
0.000000
  0
VERTEX
  8
LAYER-2
 10
23.188617
 20
89.340060
 30
0.000000
  0
VERTEX
  8
LAYER-2
 10
23.160535
 20
89.363335
 30
0.000000
  0
SEQEND
  8
LAYER-2
  0
POLYLINE
  8
LAYER-2
 66
  1
 70
  0
 62
  7
 10
23.236630
 20
89.374519
 30
0.000000
  0
VERTEX
  8
LAYER-2
 10
23.236630
 20
89.374519
 30
0.000000
  0
VERTEX
  8
LAYER-2
 10
23.209685
 20
89.342032
 30
0.000000
  0
SEQEND
  8
LAYER-2
  0
ARC
  8
LAYER-2
 62
  7
 10
23.198167
 20
89.351588
 30
0.000000
 40
0.014961
 50
230.355835
 51
320.312592
  0
POLYLINE
  8
LAYER-2
 66
  1
 70
  0
 62
  7
 10
23.558001
 20
89.507629
 30
0.000000
  0
VERTEX
  8
LAYER-2
 10
23.558001
 20
89.507629
 30
0.000000
  0
VERTEX
  8
LAYER-2
 10
23.400692
 20
89.273670
 30
0.000000
  0
SEQEND
  8
LAYER-2
  0
ARC
  8
LAYER-2
 62
  7
 10
23.354648
 20
89.304643
 30
0.000000
 40
0.055512
 50
275.355835
 51
326.084167
  0
POLYLINE
  8
LAYER-2
 66
  1
 70
  0
 62
  7
 10
23.317291
 20
89.330693
 30
0.000000
  0
VERTEX
  8
LAYER-2
 10
23.317291
 20
89.330693
 30
0.000000
  0
VERTEX
  8
LAYER-2
 10
23.294945
 20
89.264437
 30
0.000000
  0
SEQEND
  8
LAYER-2
  0
POLYLINE
  8
LAYER-2
 66
  1
 70
  0
 62
  7
 10
23.310509
 20
89.244767
 30
0.000000
  0
VERTEX
  8
LAYER-2
 10
23.310509
 20
89.244767
 30
0.000000
  0
VERTEX
  8
LAYER-2
 10
23.359814
 20
89.249380
 30
0.000000
  0
SEQEND
  8
LAYER-2
  0
ARC
  8
LAYER-2
 62
  7
 10
23.309125
 20
89.259655
 30
0.000000
 40
0.014961
 50
161.356049
 51
275.355835
  0
POLYLINE
  8
LAYER-2
 66
  1
 70
  0
 62
  7
 10
23.153000
 20
89.443754
 30
0.000000
  0
VERTEX
  8
LAYER-2
 10
23.153000
 20
89.443754
 30
0.000000
  0
VERTEX
  8
LAYER-2
 10
23.160535
 20
89.363335
 30
0.000000
  0
SEQEND
  8
LAYER-2
  0
POLYLINE
  8
LAYER-2
 66
  1
 70
  0
 62
  7
 10
23.153000
 20
89.443754
 30
0.000000
  0
VERTEX
  8
LAYER-2
 10
23.153000
 20
89.443754
 30
0.000000
  0
VERTEX
  8
LAYER-2
 10
23.240014
 20
89.584506
 30
0.000000
  0
SEQEND
  8
LAYER-2
  0
POLYLINE
  8
LAYER-2
 66
  1
 70
  0
 62
  7
 10
23.289442
 20
89.589139
 30
0.000000
  0
VERTEX
  8
LAYER-2
 10
23.289442
 20
89.589139
 30
0.000000
  0
VERTEX
  8
LAYER-2
 10
23.284181
 20
89.645437
 30
0.000000
  0
SEQEND
  8
LAYER-2
  0
POLYLINE
  8
LAYER-2
 66
  1
 70
  0
 62
  7
 10
23.289442
 20
89.589139
 30
0.000000
  0
VERTEX
  8
LAYER-2
 10
23.289442
 20
89.589139
 30
0.000000
  0
VERTEX
  8
LAYER-2
 10
23.240014
 20
89.584506
 30
0.000000
  0
SEQEND
  8
LAYER-2
  0
POLYLINE
  8
LAYER-2
 66
  1
 70
  0
 62
  7
 10
23.284181
 20
89.645437
 30
0.000000
  0
VERTEX
  8
LAYER-2
 10
23.284181
 20
89.645437
 30
0.000000
  0
VERTEX
  8
LAYER-2
 10
23.371702
 20
89.751082
 30
0.000000
  0
SEQEND
  8
LAYER-2
  0
ARC
  8
LAYER-2
 62
  7
 10
23.600601
 20
89.765639
 30
0.000000
 40
0.087262
 50
70.964172
 51
7.499573
  0
POLYLINE
  8
LAYER-2
 66
  1
 70
  0
 62
  7
 10
23.653983
 20
89.901715
 30
0.000000
  0
VERTEX
  8
LAYER-2
 10
23.653983
 20
89.901715
 30
0.000000
  0
VERTEX
  8
LAYER-2
 10
23.625901
 20
89.924976
 30
0.000000
  0
SEQEND
  8
LAYER-2
  0
POLYLINE
  8
LAYER-2
 66
  1
 70
  0
 62
  7
 10
23.629067
 20
89.848128
 30
0.000000
  0
VERTEX
  8
LAYER-2
 10
23.629067
 20
89.848128
 30
0.000000
  0
VERTEX
  8
LAYER-2
 10
23.655980
 20
89.880657
 30
0.000000
  0
SEQEND
  8
LAYER-2
  0
ARC
  8
LAYER-2
 62
  7
 10
23.644448
 20
89.890200
 30
0.000000
 40
0.014961
 50
320.399078
 51
50.355835
  0
POLYLINE
  8
LAYER-2
 66
  1
 70
  0
 62
  7
 10
23.558001
 20
89.507629
 30
0.000000
  0
VERTEX
  8
LAYER-2
 10
23.558001
 20
89.507629
 30
0.000000
  0
VERTEX
  8
LAYER-2
 10
23.758649
 20
89.705672
 30
0.000000
  0
SEQEND
  8
LAYER-2
  0
ARC
  8
LAYER-2
 62
  7
 10
23.719648
 20
89.745174
 30
0.000000
 40
0.055512
 50
314.627502
 51
5.355835
  0
POLYLINE
  8
LAYER-2
 66
  1
 70
  0
 62
  7
 10
23.687108
 20
89.777034
 30
0.000000
  0
VERTEX
  8
LAYER-2
 10
23.687108
 20
89.777034
 30
0.000000
  0
VERTEX
  8
LAYER-2
 10
23.748068
 20
89.811303
 30
0.000000
  0
SEQEND
  8
LAYER-2
  0
POLYLINE
  8
LAYER-2
 66
  1
 70
  0
 62
  7
 10
23.770308
 20
89.799669
 30
0.000000
  0
VERTEX
  8
LAYER-2
 10
23.770308
 20
89.799669
 30
0.000000
  0
VERTEX
  8
LAYER-2
 10
23.774921
 20
89.750364
 30
0.000000
  0
SEQEND
  8
LAYER-2
  0
ARC
  8
LAYER-2
 62
  7
 10
23.755389
 20
89.798274
 30
0.000000
 40
0.014961
 50
5.355835
 51
119.355560
  0
POLYLINE
  8
LAYER-2
 66
  1
 70
  0
 62
  7
 10
23.545483
 20
89.917441
 30
0.000000
  0
VERTEX
  8
LAYER-2
 10
23.545483
 20
89.917441
 30
0.000000
  0
VERTEX
  8
LAYER-2
 10
23.625901
 20
89.924976
 30
0.000000
  0
SEQEND
  8
LAYER-2
  0
POLYLINE
  8
LAYER-2
 66
  1
 70
  0
 62
  7
 10
23.545483
 20
89.917441
 30
0.000000
  0
VERTEX
  8
LAYER-2
 10
23.545483
 20
89.917441
 30
0.000000
  0
VERTEX
  8
LAYER-2
 10
23.423359
 20
89.805788
 30
0.000000
  0
SEQEND
  8
LAYER-2
  0
POLYLINE
  8
LAYER-2
 66
  1
 70
  0
 62
  7
 10
23.428003
 20
89.756364
 30
0.000000
  0
VERTEX
  8
LAYER-2
 10
23.428003
 20
89.756364
 30
0.000000
  0
VERTEX
  8
LAYER-2
 10
23.371702
 20
89.751082
 30
0.000000
  0
SEQEND
  8
LAYER-2
  0
POLYLINE
  8
LAYER-2
 66
  1
 70
  0
 62
  7
 10
23.428003
 20
89.756364
 30
0.000000
  0
VERTEX
  8
LAYER-2
 10
23.428003
 20
89.756364
 30
0.000000
  0
VERTEX
  8
LAYER-2
 10
23.423359
 20
89.805788
 30
0.000000
  0
SEQEND
  8
LAYER-2
  0
POLYLINE
  8
LAYER-2
 66
  1
 70
  0
 62
  7
 10
25.670161
 20
90.819228
 30
0.000000
  0
VERTEX
  8
LAYER-2
 10
25.670161
 20
90.819228
 30
0.000000
  0
VERTEX
  8
LAYER-2
 10
25.662411
 20
90.821636
 30
0.000000
  0
SEQEND
  8
LAYER-2
  0
POLYLINE
  8
LAYER-2
 66
  1
 70
  0
 62
  7
 10
25.670161
 20
90.819228
 30
0.000000
  0
VERTEX
  8
LAYER-2
 10
25.670161
 20
90.819228
 30
0.000000
  0
VERTEX
  8
LAYER-2
 10
25.780736
 20
90.877216
 30
0.000000
  0
SEQEND
  8
LAYER-2
  0
ARC
  8
LAYER-2
 62
  7
 10
25.827150
 20
90.936451
 30
0.000000
 40
0.075258
 50
231.909393
 51
183.532959
  0
POLYLINE
  8
LAYER-2
 66
  1
 70
  0
 62
  7
 10
25.641555
 20
90.873695
 30
0.000000
  0
VERTEX
  8
LAYER-2
 10
25.641555
 20
90.873695
 30
0.000000
  0
VERTEX
  8
LAYER-2
 10
25.752038
 20
90.931810
 30
0.000000
  0
SEQEND
  8
LAYER-2
  0
POLYLINE
  8
LAYER-2
 66
  1
 70
  0
 62
  7
 10
25.641555
 20
90.873695
 30
0.000000
  0
VERTEX
  8
LAYER-2
 10
25.641555
 20
90.873695
 30
0.000000
  0
VERTEX
  8
LAYER-2
 10
25.639065
 20
90.865730
 30
0.000000
  0
SEQEND
  8
LAYER-2
  0
POLYLINE
  8
LAYER-2
 66
  1
 70
  0
 62
  7
 10
23.778918
 20
89.889010
 30
0.000000
  0
VERTEX
  8
LAYER-2
 10
23.778918
 20
89.889010
 30
0.000000
  0
VERTEX
  8
LAYER-2
 10
25.639065
 20
90.865730
 30
0.000000
  0
SEQEND
  8
LAYER-2
  0
POLYLINE
  8
LAYER-2
 66
  1
 70
  0
 62
  7
 10
23.770907
 20
89.891510
 30
0.000000
  0
VERTEX
  8
LAYER-2
 10
23.770907
 20
89.891510
 30
0.000000
  0
VERTEX
  8
LAYER-2
 10
23.778918
 20
89.889010
 30
0.000000
  0
SEQEND
  8
LAYER-2
  0
POLYLINE
  8
LAYER-2
 66
  1
 70
  0
 62
  7
 10
23.770907
 20
89.891510
 30
0.000000
  0
VERTEX
  8
LAYER-2
 10
23.770907
 20
89.891510
 30
0.000000
  0
VERTEX
  8
LAYER-2
 10
23.660350
 20
89.833529
 30
0.000000
  0
SEQEND
  8
LAYER-2
  0
ARC
  8
LAYER-2
 62
  7
 10
23.613919
 20
89.774294
 30
0.000000
 40
0.075258
 50
51.909382
 51
3.532990
  0
POLYLINE
  8
LAYER-2
 66
  1
 70
  0
 62
  7
 10
23.799496
 20
89.837036
 30
0.000000
  0
VERTEX
  8
LAYER-2
 10
23.799496
 20
89.837036
 30
0.000000
  0
VERTEX
  8
LAYER-2
 10
23.689013
 20
89.778935
 30
0.000000
  0
SEQEND
  8
LAYER-2
  0
POLYLINE
  8
LAYER-2
 66
  1
 70
  0
 62
  7
 10
23.799496
 20
89.837036
 30
0.000000
  0
VERTEX
  8
LAYER-2
 10
23.799496
 20
89.837036
 30
0.000000
  0
VERTEX
  8
LAYER-2
 10
23.801894
 20
89.844755
 30
0.000000
  0
SEQEND
  8
LAYER-2
  0
POLYLINE
  8
LAYER-2
 66
  1
 70
  0
 62
  7
 10
23.801894
 20
89.844755
 30
0.000000
  0
VERTEX
  8
LAYER-2
 10
23.801894
 20
89.844755
 30
0.000000
  0
VERTEX
  8
LAYER-2
 10
25.662411
 20
90.821636
 30
0.000000
  0
SEQEND
  8
LAYER-2
  0
CIRCLE
  8
LAYER-2
 62
  7
 10
26.060757
 20
90.944866
 30
0.000000
 40
0.082054
  0
ARC
  8
LAYER-2
 62
  7
 10
25.834594
 20
90.927739
 30
0.000000
 40
0.087262
 50
222.880981
 51
159.416382
  0
POLYLINE
  8
LAYER-2
 66
  1
 70
  0
 62
  7
 10
25.695722
 20
90.973389
 30
0.000000
  0
VERTEX
  8
LAYER-2
 10
25.695722
 20
90.973389
 30
0.000000
  0
VERTEX
  8
LAYER-2
 10
25.695690
 20
91.009848
 30
0.000000
  0
SEQEND
  8
LAYER-2
  0
POLYLINE
  8
LAYER-2
 66
  1
 70
  0
 62
  7
 10
25.752900
 20
90.958416
 30
0.000000
  0
VERTEX
  8
LAYER-2
 10
25.752900
 20
90.958416
 30
0.000000
  0
VERTEX
  8
LAYER-2
 10
25.710670
 20
90.958430
 30
0.000000
  0
SEQEND
  8
LAYER-2
  0
ARC
  8
LAYER-2
 62
  7
 10
25.710670
 20
90.973389
 30
0.000000
 40
0.014961
 50
180.024719
 51
269.981476
  0
POLYLINE
  8
LAYER-2
 66
  1
 70
  0
 62
  7
 10
26.060479
 20
90.796030
 30
0.000000
  0
VERTEX
  8
LAYER-2
 10
26.060479
 20
90.796030
 30
0.000000
  0
VERTEX
  8
LAYER-2
 10
25.779996
 20
90.767761
 30
0.000000
  0
SEQEND
  8
LAYER-2
  0
ARC
  8
LAYER-2
 62
  7
 10
25.774429
 20
90.822989
 30
0.000000
 40
0.055512
 50
225.024719
 51
275.753052
  0
POLYLINE
  8
LAYER-2
 66
  1
 70
  0
 62
  7
 10
25.770647
 20
90.868371
 30
0.000000
  0
VERTEX
  8
LAYER-2
 10
25.770647
 20
90.868371
 30
0.000000
  0
VERTEX
  8
LAYER-2
 10
25.705377
 20
90.843271
 30
0.000000
  0
SEQEND
  8
LAYER-2
  0
POLYLINE
  8
LAYER-2
 66
  1
 70
  0
 62
  7
 10
25.700180
 20
90.818728
 30
0.000000
  0
VERTEX
  8
LAYER-2
 10
25.700180
 20
90.818728
 30
0.000000
  0
VERTEX
  8
LAYER-2
 10
25.735185
 20
90.783720
 30
0.000000
  0
SEQEND
  8
LAYER-2
  0
ARC
  8
LAYER-2
 62
  7
 10
25.710730
 20
90.829313
 30
0.000000
 40
0.014961
 50
111.024963
 51
225.024719
  0
POLYLINE
  8
LAYER-2
 66
  1
 70
  0
 62
  7
 10
25.752809
 20
91.066998
 30
0.000000
  0
VERTEX
  8
LAYER-2
 10
25.752809
 20
91.066998
 30
0.000000
  0
VERTEX
  8
LAYER-2
 10
25.695690
 20
91.009848
 30
0.000000
  0
SEQEND
  8
LAYER-2
  0
POLYLINE
  8
LAYER-2
 66
  1
 70
  0
 62
  7
 10
25.752809
 20
91.066998
 30
0.000000
  0
VERTEX
  8
LAYER-2
 10
25.752809
 20
91.066998
 30
0.000000
  0
VERTEX
  8
LAYER-2
 10
25.916685
 20
91.089872
 30
0.000000
  0
SEQEND
  8
LAYER-2
  0
POLYLINE
  8
LAYER-2
 66
  1
 70
  0
 62
  7
 10
25.951809
 20
91.054779
 30
0.000000
  0
VERTEX
  8
LAYER-2
 10
25.951809
 20
91.054779
 30
0.000000
  0
VERTEX
  8
LAYER-2
 10
25.991765
 20
91.094781
 30
0.000000
  0
SEQEND
  8
LAYER-2
  0
POLYLINE
  8
LAYER-2
 66
  1
 70
  0
 62
  7
 10
25.951809
 20
91.054779
 30
0.000000
  0
VERTEX
  8
LAYER-2
 10
25.951809
 20
91.054779
 30
0.000000
  0
VERTEX
  8
LAYER-2
 10
25.916685
 20
91.089872
 30
0.000000
  0
SEQEND
  8
LAYER-2
  0
POLYLINE
  8
LAYER-2
 66
  1
 70
  0
 62
  7
 10
25.991765
 20
91.094781
 30
0.000000
  0
VERTEX
  8
LAYER-2
 10
25.991765
 20
91.094781
 30
0.000000
  0
VERTEX
  8
LAYER-2
 10
26.128978
 20
91.094837
 30
0.000000
  0
SEQEND
  8
LAYER-2
  0
ARC
  8
LAYER-2
 62
  7
 10
26.286287
 20
90.927936
 30
0.000000
 40
0.087262
 50
20.633057
 51
317.168457
  0
POLYLINE
  8
LAYER-2
 66
  1
 70
  0
 62
  7
 10
26.425112
 20
90.973706
 30
0.000000
  0
VERTEX
  8
LAYER-2
 10
26.425112
 20
90.973706
 30
0.000000
  0
VERTEX
  8
LAYER-2
 10
26.425084
 20
91.010165
 30
0.000000
  0
SEQEND
  8
LAYER-2
  0
POLYLINE
  8
LAYER-2
 66
  1
 70
  0
 62
  7
 10
26.367966
 20
90.958684
 30
0.000000
  0
VERTEX
  8
LAYER-2
 10
26.367966
 20
90.958684
 30
0.000000
  0
VERTEX
  8
LAYER-2
 10
26.410164
 20
90.958733
 30
0.000000
  0
SEQEND
  8
LAYER-2
  0
ARC
  8
LAYER-2
 62
  7
 10
26.410164
 20
90.973699
 30
0.000000
 40
0.014961
 50
270.067963
 51
0.024719
  0
POLYLINE
  8
LAYER-2
 66
  1
 70
  0
 62
  7
 10
26.060479
 20
90.796030
 30
0.000000
  0
VERTEX
  8
LAYER-2
 10
26.060479
 20
90.796030
 30
0.000000
  0
VERTEX
  8
LAYER-2
 10
26.341021
 20
90.768008
 30
0.000000
  0
SEQEND
  8
LAYER-2
  0
ARC
  8
LAYER-2
 62
  7
 10
26.346528
 20
90.823228
 30
0.000000
 40
0.055512
 50
264.296387
 51
315.024719
  0
POLYLINE
  8
LAYER-2
 66
  1
 70
  0
 62
  7
 10
26.350278
 20
90.868624
 30
0.000000
  0
VERTEX
  8
LAYER-2
 10
26.350278
 20
90.868624
 30
0.000000
  0
VERTEX
  8
LAYER-2
 10
26.415577
 20
90.843574
 30
0.000000
  0
SEQEND
  8
LAYER-2
  0
POLYLINE
  8
LAYER-2
 66
  1
 70
  0
 62
  7
 10
26.420806
 20
90.819031
 30
0.000000
  0
VERTEX
  8
LAYER-2
 10
26.420806
 20
90.819031
 30
0.000000
  0
VERTEX
  8
LAYER-2
 10
26.385804
 20
90.784001
 30
0.000000
  0
SEQEND
  8
LAYER-2
  0
ARC
  8
LAYER-2
 62
  7
 10
26.410228
 20
90.829609
 30
0.000000
 40
0.014961
 50
315.024719
 51
69.024475
  0
POLYLINE
  8
LAYER-2
 66
  1
 70
  0
 62
  7
 10
26.367934
 20
91.067251
 30
0.000000
  0
VERTEX
  8
LAYER-2
 10
26.367934
 20
91.067251
 30
0.000000
  0
VERTEX
  8
LAYER-2
 10
26.425084
 20
91.010165
 30
0.000000
  0
SEQEND
  8
LAYER-2
  0
POLYLINE
  8
LAYER-2
 66
  1
 70
  0
 62
  7
 10
26.367934
 20
91.067251
 30
0.000000
  0
VERTEX
  8
LAYER-2
 10
26.367934
 20
91.067251
 30
0.000000
  0
VERTEX
  8
LAYER-2
 10
26.204055
 20
91.089999
 30
0.000000
  0
SEQEND
  8
LAYER-2
  0
POLYLINE
  8
LAYER-2
 66
  1
 70
  0
 62
  7
 10
26.168962
 20
91.054871
 30
0.000000
  0
VERTEX
  8
LAYER-2
 10
26.168962
 20
91.054871
 30
0.000000
  0
VERTEX
  8
LAYER-2
 10
26.128978
 20
91.094837
 30
0.000000
  0
SEQEND
  8
LAYER-2
  0
POLYLINE
  8
LAYER-2
 66
  1
 70
  0
 62
  7
 10
26.168962
 20
91.054871
 30
0.000000
  0
VERTEX
  8
LAYER-2
 10
26.168962
 20
91.054871
 30
0.000000
  0
VERTEX
  8
LAYER-2
 10
26.204055
 20
91.089999
 30
0.000000
  0
SEQEND
  8
LAYER-2
  0
POLYLINE
  8
LAYER-2
 66
  1
 70
  0
 62
  7
 10
28.370978
 20
89.918110
 30
0.000000
  0
VERTEX
  8
LAYER-2
 10
28.370978
 20
89.918110
 30
0.000000
  0
VERTEX
  8
LAYER-2
 10
28.368242
 20
89.925758
 30
0.000000
  0
SEQEND
  8
LAYER-2
  0
POLYLINE
  8
LAYER-2
 66
  1
 70
  0
 62
  7
 10
28.370978
 20
89.918110
 30
0.000000
  0
VERTEX
  8
LAYER-2
 10
28.370978
 20
89.918110
 30
0.000000
  0
VERTEX
  8
LAYER-2
 10
28.483862
 20
89.864734
 30
0.000000
  0
SEQEND
  8
LAYER-2
  0
ARC
  8
LAYER-2
 62
  7
 10
28.559094
 20
89.863319
 30
0.000000
 40
0.075258
 50
178.928558
 51
130.552155
  0
POLYLINE
  8
LAYER-2
 66
  1
 70
  0
 62
  7
 10
28.397246
 20
89.973731
 30
0.000000
  0
VERTEX
  8
LAYER-2
 10
28.397246
 20
89.973731
 30
0.000000
  0
VERTEX
  8
LAYER-2
 10
28.510159
 20
89.920504
 30
0.000000
  0
SEQEND
  8
LAYER-2
  0
POLYLINE
  8
LAYER-2
 66
  1
 70
  0
 62
  7
 10
28.397246
 20
89.973731
 30
0.000000
  0
VERTEX
  8
LAYER-2
 10
28.397246
 20
89.973731
 30
0.000000
  0
VERTEX
  8
LAYER-2
 10
28.389404
 20
89.970914
 30
0.000000
  0
SEQEND
  8
LAYER-2
  0
POLYLINE
  8
LAYER-2
 66
  1
 70
  0
 62
  7
 10
26.489583
 20
90.868061
 30
0.000000
  0
VERTEX
  8
LAYER-2
 10
26.489583
 20
90.868061
 30
0.000000
  0
VERTEX
  8
LAYER-2
 10
28.389404
 20
89.970914
 30
0.000000
  0
SEQEND
  8
LAYER-2
  0
POLYLINE
  8
LAYER-2
 66
  1
 70
  0
 62
  7
 10
26.486752
 20
90.875962
 30
0.000000
  0
VERTEX
  8
LAYER-2
 10
26.486752
 20
90.875962
 30
0.000000
  0
VERTEX
  8
LAYER-2
 10
26.489583
 20
90.868061
 30
0.000000
  0
SEQEND
  8
LAYER-2
  0
POLYLINE
  8
LAYER-2
 66
  1
 70
  0
 62
  7
 10
26.486752
 20
90.875962
 30
0.000000
  0
VERTEX
  8
LAYER-2
 10
26.486752
 20
90.875962
 30
0.000000
  0
VERTEX
  8
LAYER-2
 10
26.373903
 20
90.929331
 30
0.000000
  0
SEQEND
  8
LAYER-2
  0
ARC
  8
LAYER-2
 62
  7
 10
26.298667
 20
90.930739
 30
0.000000
 40
0.075258
 50
358.928558
 51
310.552155
  0
POLYLINE
  8
LAYER-2
 66
  1
 70
  0
 62
  7
 10
26.460483
 20
90.820341
 30
0.000000
  0
VERTEX
  8
LAYER-2
 10
26.460483
 20
90.820341
 30
0.000000
  0
VERTEX
  8
LAYER-2
 10
26.347574
 20
90.873568
 30
0.000000
  0
SEQEND
  8
LAYER-2
  0
POLYLINE
  8
LAYER-2
 66
  1
 70
  0
 62
  7
 10
26.460483
 20
90.820341
 30
0.000000
  0
VERTEX
  8
LAYER-2
 10
26.460483
 20
90.820341
 30
0.000000
  0
VERTEX
  8
LAYER-2
 10
26.468082
 20
90.823059
 30
0.000000
  0
SEQEND
  8
LAYER-2
  0
POLYLINE
  8
LAYER-2
 66
  1
 70
  0
 62
  7
 10
26.468082
 20
90.823059
 30
0.000000
  0
VERTEX
  8
LAYER-2
 10
26.468082
 20
90.823059
 30
0.000000
  0
VERTEX
  8
LAYER-2
 10
28.368242
 20
89.925758
 30
0.000000
  0
SEQEND
  8
LAYER-2
  0
POLYLINE
  8
LAYER-2
 66
  1
 70
  1
 62
255
  0
VERTEX
  8
LAYER-2
 10
19.126095
 20
68.328651
 30
0.000000
  0
VERTEX
  8
LAYER-2
 10
23.667762
 20
68.328651
 30
0.000000
  0
VERTEX
  8
LAYER-2
 10
23.667762
 20
60.698583
 30
0.000000
  0
VERTEX
  8
LAYER-2
 10
19.126095
 20
60.698583
 30
0.000000
  0
SEQEND
  8
LAYER-2
  0
LINE
  8
LAYER-2
 62
  7
 10
18.427889
 20
66.045706
 30
0.000000
 11
24.388511
 21
66.045706
 31
0.000000
  0
LINE
  8
LAYER-2
 62
  7
 10
18.408205
 20
74.530158
 30
0.000000
 11
18.408205
 21
64.545706
 31
0.000000
  0
LINE
  8
LAYER-2
 62
  7
 10
24.408195
 20
74.530158
 30
0.000000
 11
24.408195
 21
64.545706
 31
0.000000
  0
LINE
  8
LAYER-2
 62
  7
 10
24.408195
 20
66.045706
 30
0.000000
 11
27.105261
 21
66.045706
 31
0.000000
  0
POLYLINE
  8
LAYER-2
 66
  1
 70
  1
 62
  7
  0
VERTEX
  8
LAYER-2
 10
18.408205
 20
66.045706
 30
0.000000
  0
VERTEX
  8
LAYER-2
 10
18.985129
 20
65.699559
 30
0.000000
  0
VERTEX
  8
LAYER-2
 10
18.985129
 20
66.045713
 30
0.000000
  0
VERTEX
  8
LAYER-2
 10
18.985125
 20
66.391867
 30
0.000000
  0
VERTEX
  8
LAYER-2
 10
18.408205
 20
66.045706
 30
0.000000
  0
SEQEND
  8
LAYER-2
  0
POLYLINE
  8
LAYER-2
 66
  1
 70
  1
 62
  7
  0
VERTEX
  8
LAYER-2
 10
24.408195
 20
66.045706
 30
0.000000
  0
VERTEX
  8
LAYER-2
 10
23.831275
 20
65.699545
 30
0.000000
  0
VERTEX
  8
LAYER-2
 10
23.831272
 20
66.045699
 30
0.000000
  0
VERTEX
  8
LAYER-2
 10
23.831268
 20
66.391853
 30
0.000000
  0
VERTEX
  8
LAYER-2
 10
24.408195
 20
66.045706
 30
0.000000
  0
SEQEND
  8
LAYER-2
  0
TEXT
  8
LAYER-2
 62
  7
 10
28.854986
 20
66.007852
 30
0.000000
 40
1.211538
  1
6"
  0
LINE
  8
LAYER-2
 62
  7
 10
42.167732
 20
74.299826
 30
0.000000
 11
42.167732
 21
78.267411
 31
0.000000
  0
LINE
  8
LAYER-2
 62
  7
 10
39.600896
 20
74.280142
 30
0.000000
 11
43.667732
 21
74.280142
 31
0.000000
  0
LINE
  8
LAYER-2
 62
  7
 10
33.891695
 20
78.287095
 30
0.000000
 11
43.667732
 21
78.287095
 31
0.000000
  0
LINE
  8
LAYER-2
 62
  7
 10
42.167732
 20
77.712440
 30
0.000000
 11
42.167732
 21
74.280142
 31
0.000000
  0
POLYLINE
  8
LAYER-2
 66
  1
 70
  1
 62
  7
  0
VERTEX
  8
LAYER-2
 10
42.167732
 20
74.280142
 30
0.000000
  0
VERTEX
  8
LAYER-2
 10
42.513889
 20
74.857065
 30
0.000000
  0
VERTEX
  8
LAYER-2
 10
42.167735
 20
74.857065
 30
0.000000
  0
VERTEX
  8
LAYER-2
 10
41.821581
 20
74.857065
 30
0.000000
  0
VERTEX
  8
LAYER-2
 10
42.167732
 20
74.280142
 30
0.000000
  0
SEQEND
  8
LAYER-2
  0
POLYLINE
  8
LAYER-2
 66
  1
 70
  1
 62
  7
  0
VERTEX
  8
LAYER-2
 10
42.167732
 20
78.287095
 30
0.000000
  0
VERTEX
  8
LAYER-2
 10
42.513882
 20
77.710172
 30
0.000000
  0
VERTEX
  8
LAYER-2
 10
42.167728
 20
77.710172
 30
0.000000
  0
VERTEX
  8
LAYER-2
 10
41.821574
 20
77.710172
 30
0.000000
  0
VERTEX
  8
LAYER-2
 10
42.167732
 20
78.287095
 30
0.000000
  0
SEQEND
  8
LAYER-2
  0
TEXT
  8
LAYER-2
 62
  7
 10
43.642056
 20
75.534819
 30
0.000000
 40
1.038462
  1
 
 50
90.000000
  0
POLYLINE
  8
LAYER-2
 66
  1
 70
  0
 62
  7
 10
42.209409
 20
83.993619
 30
0.000000
  0
VERTEX
  8
LAYER-2
 10
42.209409
 20
83.993619
 30
0.000000
  0
VERTEX
  8
LAYER-2
 10
42.209409
 20
78.295779
 30
0.000000
  0
SEQEND
  8
LAYER-2
  0
POLYLINE
  8
LAYER-2
 66
  1
 70
  0
 62
  7
 10
16.554689
 20
84.476335
 30
0.000000
  0
VERTEX
  8
LAYER-2
 10
16.554689
 20
84.476335
 30
0.000000
  0
VERTEX
  8
LAYER-2
 10
19.123183
 20
86.713405
 30
0.000000
  0
SEQEND
  8
LAYER-2
  0
POLYLINE
  8
LAYER-2
 66
  1
 70
  1
 62
  7
  0
VERTEX
  8
LAYER-2
 10
19.138029
 20
86.726335
 30
0.000000
  0
VERTEX
  8
LAYER-2
 10
18.930331
 20
86.086395
 30
0.000000
  0
VERTEX
  8
LAYER-2
 10
18.702981
 20
86.347426
 30
0.000000
  0
VERTEX
  8
LAYER-2
 10
18.475634
 20
86.608450
 30
0.000000
  0
VERTEX
  8
LAYER-2
 10
19.138029
 20
86.726335
 30
0.000000
  0
SEQEND
  8
LAYER-2
  0
POLYLINE
  8
LAYER-2
  6
LTYPE06
 66
  1
 70
  0
 62
  7
  6
LTYPE06
 10
21.433330
 20
71.099389
 30
0.000000
  0
VERTEX
  8
LAYER-2
  6
LTYPE06
 10
21.433330
 20
71.099389
 30
0.000000
  0
VERTEX
  8
LAYER-2
  6
LTYPE06
 10
21.433330
 20
64.968137
 30
0.000000
  0
SEQEND
  8
LAYER-2
  0
TEXT
  8
LAYER-2
 62
  7
 10
20.660256
 20
63.570543
 30
0.000000
 40
1.471154
  1
C
 72
  5
 11
22.621794
 21
63.570543
 31
0.000000
  0
TEXT
  8
LAYER-2
 62
  7
 10
21.237179
 20
62.878235
 30
0.000000
 40
1.471154
  1
L
 72
  5
 11
22.852563
 21
62.878235
 31
0.000000
  0
POLYLINE
  8
LAYER-2
 66
  1
 70
  0
 62
  7
 10
21.898527
 20
77.445719
 30
0.000000
  0
VERTEX
  8
LAYER-2
 10
21.898527
 20
77.445719
 30
0.000000
  0
VERTEX
  8
LAYER-2
 10
22.414377
 20
77.445719
 30
0.000000
  0
SEQEND
  8
LAYER-2
  0
POLYLINE
  8
LAYER-2
 66
  1
 70
  0
 62
  7
 10
22.507124
 20
77.352976
 30
0.000000
  0
VERTEX
  8
LAYER-2
 10
22.507124
 20
77.352976
 30
0.000000
  0
VERTEX
  8
LAYER-2
 10
22.507124
 20
76.467717
 30
0.000000
  0
SEQEND
  8
LAYER-2
  0
POLYLINE
  8
LAYER-2
 66
  1
 70
  0
 62
  7
 10
22.414377
 20
76.374974
 30
0.000000
  0
VERTEX
  8
LAYER-2
 10
22.414377
 20
76.374974
 30
0.000000
  0
VERTEX
  8
LAYER-2
 10
21.898527
 20
76.374974
 30
0.000000
  0
SEQEND
  8
LAYER-2
  0
POLYLINE
  8
LAYER-2
 66
  1
 70
  0
 62
  7
 10
21.805780
 20
76.467717
 30
0.000000
  0
VERTEX
  8
LAYER-2
 10
21.805780
 20
76.467717
 30
0.000000
  0
VERTEX
  8
LAYER-2
 10
21.805780
 20
77.352976
 30
0.000000
  0
SEQEND
  8
LAYER-2
  0
ARC
  8
LAYER-2
 62
  7
 10
21.898527
 20
77.352976
 30
0.000000
 40
0.092746
 50
270.000000
 51
0.000000
  0
ARC
  8
LAYER-2
 62
  7
 10
21.898527
 20
76.467717
 30
0.000000
 40
0.092746
 50
0.000000
 51
90.000000
  0
ARC
  8
LAYER-2
 62
  7
 10
22.414377
 20
76.467717
 30
0.000000
 40
0.092746
 50
90.000000
 51
180.000000
  0
ARC
  8
LAYER-2
 62
  7
 10
22.414377
 20
77.352976
 30
0.000000
 40
0.092746
 50
180.000000
 51
270.000000
  0
POLYLINE
  8
LAYER-2
 66
  1
 70
  1
 62
  7
 10
22.463587
 20
76.411454
 30
0.000000
  0
VERTEX
  8
LAYER-2
 10
22.463587
 20
76.411454
 30
0.000000
  0
VERTEX
  8
LAYER-2
 10
21.843930
 20
76.418666
 30
0.000000
  0
VERTEX
  8
LAYER-2
 10
21.843930
 20
77.411724
 30
0.000000
  0
VERTEX
  8
LAYER-2
 10
22.463587
 20
77.404513
 30
0.000000
  0
SEQEND
  8
LAYER-2
  0
ARC
  8
LAYER-2
 62
  7
 10
22.159920
 20
77.884277
 30
0.000000
 40
0.568128
 50
236.281860
 51
302.384247
  0
ARC
  8
LAYER-2
 62
  7
 10
22.148733
 20
75.930260
 30
0.000000
 40
0.575388
 50
56.751129
 51
121.915100
  0
ARC
  8
LAYER-2
 62
  7
 10
20.964858
 20
76.915199
 30
0.000000
 40
1.010146
 50
330.558105
 51
29.441895
  0
ARC
  8
LAYER-2
 62
  7
 10
23.418446
 20
76.907987
 30
0.000000
 40
1.075692
 50
152.510254
 51
207.489716
  0
POLYLINE
  8
LAYER-2
 66
  1
 70
  0
 62
  7
 10
20.390181
 20
77.445719
 30
0.000000
  0
VERTEX
  8
LAYER-2
 10
20.390181
 20
77.445719
 30
0.000000
  0
VERTEX
  8
LAYER-2
 10
20.906032
 20
77.445719
 30
0.000000
  0
SEQEND
  8
LAYER-2
  0
POLYLINE
  8
LAYER-2
 66
  1
 70
  0
 62
  7
 10
20.998778
 20
77.352976
 30
0.000000
  0
VERTEX
  8
LAYER-2
 10
20.998778
 20
77.352976
 30
0.000000
  0
VERTEX
  8
LAYER-2
 10
20.998778
 20
76.467717
 30
0.000000
  0
SEQEND
  8
LAYER-2
  0
POLYLINE
  8
LAYER-2
 66
  1
 70
  0
 62
  7
 10
20.906032
 20
76.374974
 30
0.000000
  0
VERTEX
  8
LAYER-2
 10
20.906032
 20
76.374974
 30
0.000000
  0
VERTEX
  8
LAYER-2
 10
20.390181
 20
76.374974
 30
0.000000
  0
SEQEND
  8
LAYER-2
  0
POLYLINE
  8
LAYER-2
 66
  1
 70
  0
 62
  7
 10
20.297435
 20
76.467717
 30
0.000000
  0
VERTEX
  8
LAYER-2
 10
20.297435
 20
76.467717
 30
0.000000
  0
VERTEX
  8
LAYER-2
 10
20.297435
 20
77.352976
 30
0.000000
  0
SEQEND
  8
LAYER-2
  0
ARC
  8
LAYER-2
 62
  7
 10
20.390181
 20
77.352976
 30
0.000000
 40
0.092746
 50
270.000000
 51
0.000000
  0
ARC
  8
LAYER-2
 62
  7
 10
20.390181
 20
76.467717
 30
0.000000
 40
0.092746
 50
0.000000
 51
90.000000
  0
ARC
  8
LAYER-2
 62
  7
 10
20.906032
 20
76.467717
 30
0.000000
 40
0.092746
 50
90.000000
 51
180.000000
  0
ARC
  8
LAYER-2
 62
  7
 10
20.906032
 20
77.352976
 30
0.000000
 40
0.092746
 50
180.000000
 51
270.000000
  0
POLYLINE
  8
LAYER-2
 66
  1
 70
  1
 62
  7
 10
20.955241
 20
76.411454
 30
0.000000
  0
VERTEX
  8
LAYER-2
 10
20.955241
 20
76.411454
 30
0.000000
  0
VERTEX
  8
LAYER-2
 10
20.335584
 20
76.418666
 30
0.000000
  0
VERTEX
  8
LAYER-2
 10
20.335584
 20
77.411724
 30
0.000000
  0
VERTEX
  8
LAYER-2
 10
20.955241
 20
77.404513
 30
0.000000
  0
SEQEND
  8
LAYER-2
  0
ARC
  8
LAYER-2
 62
  7
 10
20.651575
 20
77.884277
 30
0.000000
 40
0.568128
 50
236.281860
 51
302.384247
  0
ARC
  8
LAYER-2
 62
  7
 10
20.640388
 20
75.930260
 30
0.000000
 40
0.575388
 50
56.751129
 51
121.915100
  0
ARC
  8
LAYER-2
 62
  7
 10
19.456512
 20
76.915199
 30
0.000000
 40
1.010146
 50
330.558105
 51
29.441895
  0
ARC
  8
LAYER-2
 62
  7
 10
21.910101
 20
76.907987
 30
0.000000
 40
1.075692
 50
152.510254
 51
207.489716
  0
ENDSEC
  0
EOF
