  0
SECTION
  2
HEADER
999
MacDraft 5.0\0
  9
$ACADVER
  1
AC1006
  9
$CLAYER
  8
LAYER-1
  9
$EXTMIN
 10
0.000000
 20
0.000000
  9
$EXTMAX
 10
7.518808
 20
10.270376
  9
$FASTZOOM
 70
0
  9
$FILLMODE
 70
1
  0
ENDSEC
  0
SECTION
  2
TABLES
  0
TABLE
  2
LTYPE
 70
16
  0
LTYPE
  2
CONTINUOUS
 70
64
  3
Solid Line
 72
65
 73
0
 40
0.000000
  0
LTYPE
  2
LTYPE01
 70
64
  3
CUSTOM
 72
65
 73
2
 40
0.072727
 49
0.054545
 49
-0.018182
  0
LTYPE
  2
LTYPE02
 70
64
  3
CUSTOM
 72
65
 73
2
 40
0.127273
 49
0.109091
 49
-0.018182
  0
LTYPE
  2
LTYPE03
 70
64
  3
CUSTOM
 72
65
 73
2
 40
0.245455
 49
0.218182
 49
-0.027273
  0
LTYPE
  2
LTYPE04
 70
64
  3
CUSTOM
 72
65
 73
2
 40
0.472727
 49
0.436364
 49
-0.036364
  0
LTYPE
  2
LTYPE05
 70
64
  3
CUSTOM
 72
65
 73
4
 40
0.100000
 49
0.054545
 49
-0.018182
 49
0.009091
 49
-0.018182
  0
LTYPE
  2
LTYPE06
 70
64
  3
CUSTOM
 72
65
 73
4
 40
0.154545
 49
0.109091
 49
-0.018182
 49
0.009091
 49
-0.018182
  0
LTYPE
  2
LTYPE07
 70
64
  3
CUSTOM
 72
65
 73
4
 40
0.290909
 49
0.218182
 49
-0.027273
 49
0.018182
 49
-0.027273
  0
LTYPE
  2
LTYPE08
 70
64
  3
CUSTOM
 72
65
 73
4
 40
0.527273
 49
0.436364
 49
-0.036364
 49
0.018182
 49
-0.036364
  0
LTYPE
  2
LTYPE09
 70
64
  3
CUSTOM
 72
65
 73
6
 40
0.127273
 49
0.054545
 49
-0.018182
 49
0.009091
 49
-0.018182
 49
0.009091
 49
-0.018182
  0
LTYPE
  2
LTYPE10
 70
64
  3
CUSTOM
 72
65
 73
6
 40
0.181818
 49
0.109091
 49
-0.018182
 49
0.009091
 49
-0.018182
 49
0.009091
 49
-0.018182
  0
LTYPE
  2
LTYPE11
 70
64
  3
CUSTOM
 72
65
 73
6
 40
0.327273
 49
0.218182
 49
-0.027273
 49
0.018182
 49
-0.018182
 49
0.018182
 49
-0.027273
  0
LTYPE
  2
LTYPE12
 70
64
  3
CUSTOM
 72
65
 73
6
 40
0.563636
 49
0.436364
 49
-0.036364
 49
0.018182
 49
-0.018182
 49
0.018182
 49
-0.036364
  0
LTYPE
  2
LTYPE13
 70
64
  3
CUSTOM
 72
65
 73
8
 40
0.209091
 49
0.109091
 49
-0.018182
 49
0.009091
 49
-0.018182
 49
0.009091
 49
-0.018182
 49
0.009091
 49
-0.018182
  0
LTYPE
  2
LTYPE14
 70
64
  3
CUSTOM
 72
65
 73
8
 40
0.363636
 49
0.218182
 49
-0.027273
 49
0.018182
 49
-0.018182
 49
0.018182
 49
-0.018182
 49
0.018182
 49
-0.027273
  0
LTYPE
  2
LTYPE15
 70
64
  3
CUSTOM
 72
65
 73
8
 40
0.618182
 49
0.436364
 49
-0.036364
 49
0.018182
 49
-0.027273
 49
0.018182
 49
-0.027273
 49
0.018182
 49
-0.036364
  0
ENDTAB
  0
TABLE
  2
LAYER
 70
1
  0
LAYER
  2
LAYER-1
 70
0
 62
7
  6
CONTINUOUS
  0
ENDTAB
  0
ENDSEC
  0
SECTION
  2
BLOCKS
  0
ENDSEC
  0
SECTION
  2
ENTITIES
  0
ARC
  8
LAYER-1
 62
  7
 10
5.420184
 20
9.208636
 30
0.000000
 40
0.254425
 50
270.000000
 51
90.000000
  0
POLYLINE
  8
LAYER-1
 66
  1
 70
  0
 62
  7
 10
5.420184
 20
9.463062
 30
0.000000
  0
VERTEX
  8
LAYER-1
 10
5.420184
 20
9.463062
 30
0.000000
  0
VERTEX
  8
LAYER-1
 10
1.755262
 20
9.463062
 30
0.000000
  0
SEQEND
  8
LAYER-1
  0
POLYLINE
  8
LAYER-1
 66
  1
 70
  0
 62
  7
 10
1.755262
 20
9.463062
 30
0.000000
  0
VERTEX
  8
LAYER-1
 10
1.755262
 20
9.463062
 30
0.000000
  0
VERTEX
  8
LAYER-1
 10
1.755262
 20
8.954211
 30
0.000000
  0
SEQEND
  8
LAYER-1
  0
POLYLINE
  8
LAYER-1
 66
  1
 70
  0
 62
  7
 10
5.420184
 20
8.954211
 30
0.000000
  0
VERTEX
  8
LAYER-1
 10
5.420184
 20
8.954211
 30
0.000000
  0
VERTEX
  8
LAYER-1
 10
1.755262
 20
8.954211
 30
0.000000
  0
SEQEND
  8
LAYER-1
  0
TEXT
  8
LAYER-1
 62
  7
 10
3.552221
 20
9.758262
 30
0.000000
 40
0.340909
  1
MobilFlex
 72
  5
 11
5.761312
 21
9.758262
 31
0.000000
  0
POLYLINE
  8
LAYER-1
 66
  1
 70
  1
 62
  7
  0
VERTEX
  8
LAYER-1
 10
1.756765
 20
10.269285
 30
0.000000
  0
VERTEX
  8
LAYER-1
 10
1.994612
 20
10.269285
 30
0.000000
  0
VERTEX
  8
LAYER-1
 10
1.994612
 20
9.752340
 30
0.000000
  0
VERTEX
  8
LAYER-1
 10
1.756765
 20
9.752340
 30
0.000000
  0
SEQEND
  8
LAYER-1
  0
POLYLINE
  8
LAYER-1
 66
  1
 70
  1
 62
  7
  0
VERTEX
  8
LAYER-1
 10
2.069265
 20
10.269285
 30
0.000000
  0
VERTEX
  8
LAYER-1
 10
2.307112
 20
10.269285
 30
0.000000
  0
VERTEX
  8
LAYER-1
 10
2.307112
 20
9.752340
 30
0.000000
  0
VERTEX
  8
LAYER-1
 10
2.069265
 20
9.752340
 30
0.000000
  0
SEQEND
  8
LAYER-1
  0
POLYLINE
  8
LAYER-1
 66
  1
 70
  1
 62
  7
  0
VERTEX
  8
LAYER-1
 10
2.369612
 20
10.269285
 30
0.000000
  0
VERTEX
  8
LAYER-1
 10
2.607459
 20
10.269285
 30
0.000000
  0
VERTEX
  8
LAYER-1
 10
2.607459
 20
9.752340
 30
0.000000
  0
VERTEX
  8
LAYER-1
 10
2.369612
 20
9.752340
 30
0.000000
  0
SEQEND
  8
LAYER-1
  0
POLYLINE
  8
LAYER-1
 66
  1
 70
  1
 62
  7
  0
VERTEX
  8
LAYER-1
 10
2.673431
 20
10.269285
 30
0.000000
  0
VERTEX
  8
LAYER-1
 10
2.911278
 20
10.269285
 30
0.000000
  0
VERTEX
  8
LAYER-1
 10
2.911278
 20
9.752340
 30
0.000000
  0
VERTEX
  8
LAYER-1
 10
2.673431
 20
9.752340
 30
0.000000
  0
SEQEND
  8
LAYER-1
  0
POLYLINE
  8
LAYER-1
 66
  1
 70
  1
 62
  7
  0
VERTEX
  8
LAYER-1
 10
2.990272
 20
10.265370
 30
0.000000
  0
VERTEX
  8
LAYER-1
 10
3.365705
 20
10.265370
 30
0.000000
  0
VERTEX
  8
LAYER-1
 10
3.365705
 20
10.127348
 30
0.000000
  0
VERTEX
  8
LAYER-1
 10
2.990272
 20
10.127348
 30
0.000000
  0
SEQEND
  8
LAYER-1
  0
POLYLINE
  8
LAYER-1
 66
  1
 70
  1
 62
  7
  0
VERTEX
  8
LAYER-1
 10
2.989838
 20
10.037939
 30
0.000000
  0
VERTEX
  8
LAYER-1
 10
3.297996
 20
10.037939
 30
0.000000
  0
VERTEX
  8
LAYER-1
 10
3.297996
 20
9.903824
 30
0.000000
  0
VERTEX
  8
LAYER-1
 10
2.989838
 20
9.903824
 30
0.000000
  0
SEQEND
  8
LAYER-1
  0
POLYLINE
  8
LAYER-1
 66
  1
 70
  1
 62
  7
  0
VERTEX
  8
LAYER-1
 10
1.756765
 20
9.667714
 30
0.000000
  0
VERTEX
  8
LAYER-1
 10
5.675168
 20
9.667714
 30
0.000000
  0
VERTEX
  8
LAYER-1
 10
5.675168
 20
9.624311
 30
0.000000
  0
VERTEX
  8
LAYER-1
 10
1.756765
 20
9.624311
 30
0.000000
  0
SEQEND
  8
LAYER-1
  0
TEXT
  8
LAYER-1
 62
  7
 10
1.906766
 20
9.085535
 30
0.000000
 40
0.177273
  1
DÄtails Plaque d'extrÄmitÄ & Recul
 72
  5
 11
5.534039
 21
9.085535
 31
0.000000
  0
TEXT
  8
LAYER-1
 62
  7
 10
3.370403
 20
8.158262
 30
0.000000
 40
0.115909
  1
BARIL  6-5/8"  -  HAUTEUR PLAFOND
 72
  5
 11
6.097675
 21
8.158262
 31
0.000000
  0
TEXT
  8
LAYER-1
 62
  7
 10
6.661312
 20
8.121898
 30
0.000000
 40
0.115909
  1
PLAQUE
 72
  5
 11
7.297675
 21
8.121898
 31
0.000000
  0
TEXT
  8
LAYER-1
 62
  7
 10
6.543130
 20
7.940080
 30
0.000000
 40
0.115909
  1
EXTRâMITâ
 72
  5
 11
7.415857
 21
7.940080
 31
0.000000
  0
TEXT
  8
LAYER-1
 62
  7
 10
6.624948
 20
7.758262
 30
0.000000
 40
0.115909
  1
"X"  x  "Y"
 72
  5
 11
7.334039
 21
7.758262
 31
0.000000
  0
TEXT
  8
LAYER-1
 62
  7
 10
6.661312
 20
6.403716
 30
0.000000
 40
0.115909
  1
16" x 18"
 72
  5
 11
7.297675
 21
6.403716
 31
0.000000
  0
TEXT
  8
LAYER-1
 62
  7
 10
6.661312
 20
6.040080
 30
0.000000
 40
0.115909
  1
18" x 20"
 72
  5
 11
7.297675
 21
6.040080
 31
0.000000
  0
POLYLINE
  8
LAYER-1
 66
  1
 70
  0
 62
  7
 40
0.018182
 41
0.018182
 10
2.073430
 20
8.315733
 30
0.000000
  0
VERTEX
  8
LAYER-1
 10
2.073430
 20
8.315733
 30
0.000000
  0
VERTEX
  8
LAYER-1
 10
7.449265
 20
8.315733
 30
0.000000
  0
SEQEND
  8
LAYER-1
  0
POLYLINE
  8
LAYER-1
 66
  1
 70
  0
 62
  7
 40
0.018182
 41
0.018182
 10
7.449265
 20
8.315733
 30
0.000000
  0
VERTEX
  8
LAYER-1
 10
7.449265
 20
8.315733
 30
0.000000
  0
VERTEX
  8
LAYER-1
 10
7.449265
 20
5.933300
 30
0.000000
  0
SEQEND
  8
LAYER-1
  0
POLYLINE
  8
LAYER-1
 66
  1
 70
  0
 62
  7
 40
0.018182
 41
0.018182
 10
2.073430
 20
7.646977
 30
0.000000
  0
VERTEX
  8
LAYER-1
 10
2.073430
 20
7.646977
 30
0.000000
  0
VERTEX
  8
LAYER-1
 10
7.449265
 20
7.643685
 30
0.000000
  0
SEQEND
  8
LAYER-1
  0
POLYLINE
  8
LAYER-1
 66
  1
 70
  0
 62
  7
 10
2.073430
 20
8.098137
 30
0.000000
  0
VERTEX
  8
LAYER-1
 10
2.073430
 20
8.098137
 30
0.000000
  0
VERTEX
  8
LAYER-1
 10
6.523015
 20
8.097260
 30
0.000000
  0
SEQEND
  8
LAYER-1
  0
POLYLINE
  8
LAYER-1
 66
  1
 70
  0
 62
  7
 10
6.521765
 20
5.933300
 30
0.000000
  0
VERTEX
  8
LAYER-1
 10
6.521765
 20
5.933300
 30
0.000000
  0
VERTEX
  8
LAYER-1
 10
6.521765
 20
8.315733
 30
0.000000
  0
SEQEND
  8
LAYER-1
  0
TEXT
  8
LAYER-1
 62
  7
 10
6.615857
 20
6.658262
 30
0.000000
 40
0.081818
  1
min pour moteur
 72
  5
 11
7.488585
 21
6.658262
 31
0.000000
  0
TEXT
  8
LAYER-1
 62
  7
 10
6.624948
 20
6.294626
 30
0.000000
 40
0.081818
  1
min pour 4" x 4"
 72
  5
 11
7.443130
 21
6.294626
 31
0.000000
  0
TEXT
  8
LAYER-1
 62
  7
 10
6.588585
 20
7.003716
 30
0.000000
 40
0.081818
  1
avec Roue Ch. 5" 
 72
  5
 11
7.515857
 21
7.003716
 31
0.000000
  0
TEXT
  8
LAYER-1
 62
  7
 10
2.043130
 20
5.630989
 30
0.000000
 40
0.122727
  1
Plaque d'extrÄmitÄ (Pour portes plus de 22' de largeur / max. 30'0")
 72
  5
 11
7.270403
 21
5.630989
 31
0.000000
  0
TEXT
  8
LAYER-1
 62
  7
 10
6.661312
 20
7.430989
 30
0.000000
 40
0.115909
  1
10" x 10"
 72
  5
 11
7.297675
 21
7.430989
 31
0.000000
  0
TEXT
  8
LAYER-1
 62
  7
 10
6.634039
 20
7.330989
 30
0.000000
 40
0.081818
  1
avec Support 2" 
 72
  5
 11
7.479494
 21
7.330989
 31
0.000000
  0
TEXT
  8
LAYER-1
 62
  7
 10
2.043130
 20
8.412807
 30
0.000000
 40
0.122727
  1
Plaque d'extrÄmitÄ (Pour portes maximum 22' de largeur)
 72
  5
 11
6.515857
 21
8.412807
 31
0.000000
  0
TEXT
  8
LAYER-1
 62
  7
 10
0.979494
 20
4.294626
 30
0.000000
 40
0.122727
  1
RECUL
 72
  5
 11
1.579494
 21
4.294626
 31
0.000000
  0
TEXT
  8
LAYER-1
 62
  7
 10
0.179494
 20
3.830989
 30
0.000000
 40
0.122727
  1
SOUS PLAQUE
 50
90.000000
 72
  5
 11
0.179494
 21
5.049171
 31
0.000000
  0
TEXT
  8
LAYER-1
 62
  7
 10
0.461312
 20
3.721898
 30
0.000000
 40
0.122727
  1
D'EXTRâMITâ  "H"
 50
90.000000
 72
  5
 11
0.461312
 21
5.167353
 31
0.000000
  0
TEXT
  8
LAYER-1
 62
  7
 10
0.797675
 20
1.585535
 30
0.000000
 40
0.102273
  1
PLAQUE
 72
  5
 11
1.379494
 21
1.585535
 31
0.000000
  0
TEXT
  8
LAYER-1
 62
  7
 10
0.797675
 20
1.430989
 30
0.000000
 40
0.102273
  1
D'EXTRâMITâ
 72
  5
 11
1.715857
 21
1.430989
 31
0.000000
  0
TEXT
  8
LAYER-1
 62
  7
 10
2.306766
 20
7.403716
 30
0.000000
 40
0.102273
  1
jusqu'ê
 72
  5
 11
2.770403
 21
7.403716
 31
0.000000
  0
TEXT
  8
LAYER-1
 62
  7
 10
2.770403
 20
7.403716
 30
0.000000
 40
0.115909
  1
 6'   
 72
  5
 11
3.106766
 21
7.403716
 31
0.000000
  0
TEXT
  8
LAYER-1
 62
  7
 10
3.579494
 20
6.721898
 30
0.000000
 40
0.115909
  1
6' ê 10'
 72
  5
 11
4.097675
 21
6.721898
 31
0.000000
  0
TEXT
  8
LAYER-1
 62
  7
 10
4.343130
 20
6.721898
 30
0.000000
 40
0.115909
  1
6' ê 12'
 72
  5
 11
4.861312
 21
6.721898
 31
0.000000
  0
TEXT
  8
LAYER-1
 62
  7
 10
5.134039
 20
6.721898
 30
0.000000
 40
0.115909
  1
6' ê 13'
 72
  5
 11
5.652221
 21
6.721898
 31
0.000000
  0
TEXT
  8
LAYER-1
 62
  7
 10
5.052221
 20
6.358262
 30
0.000000
 40
0.115909
  1
13' ê 20'
 72
  5
 11
5.652221
 21
6.358262
 31
0.000000
  0
TEXT
  8
LAYER-1
 62
  7
 10
5.906766
 20
6.721898
 30
0.000000
 40
0.115909
  1
6' ê 16'
 72
  5
 11
6.424948
 21
6.721898
 31
0.000000
  0
TEXT
  8
LAYER-1
 62
  7
 10
5.824948
 20
6.358262
 30
0.000000
 40
0.115909
  1
16' ê 20'
 72
  5
 11
6.424948
 21
6.358262
 31
0.000000
  0
POLYLINE
  8
LAYER-1
 66
  1
 70
  0
 62
  7
 40
0.018182
 41
0.018182
 10
2.073430
 20
5.933256
 30
0.000000
  0
VERTEX
  8
LAYER-1
 10
2.073430
 20
5.933256
 30
0.000000
  0
VERTEX
  8
LAYER-1
 10
2.073430
 20
8.315733
 30
0.000000
  0
SEQEND
  8
LAYER-1
  0
POLYLINE
  8
LAYER-1
 66
  1
 70
  0
 62
  7
 10
2.073430
 20
7.303031
 30
0.000000
  0
VERTEX
  8
LAYER-1
 10
2.073430
 20
7.303031
 30
0.000000
  0
VERTEX
  8
LAYER-1
 10
7.449265
 20
7.301685
 30
0.000000
  0
SEQEND
  8
LAYER-1
  0
POLYLINE
  8
LAYER-1
 66
  1
 70
  0
 62
  7
 10
2.073430
 20
6.962946
 30
0.000000
  0
VERTEX
  8
LAYER-1
 10
2.073430
 20
6.962946
 30
0.000000
  0
VERTEX
  8
LAYER-1
 10
7.449265
 20
6.959685
 30
0.000000
  0
SEQEND
  8
LAYER-1
  0
POLYLINE
  8
LAYER-1
 66
  1
 70
  0
 62
  7
 10
2.073430
 20
6.619001
 30
0.000000
  0
VERTEX
  8
LAYER-1
 10
2.073430
 20
6.619001
 30
0.000000
  0
VERTEX
  8
LAYER-1
 10
7.449265
 20
6.617685
 30
0.000000
  0
SEQEND
  8
LAYER-1
  0
POLYLINE
  8
LAYER-1
 66
  1
 70
  0
 62
  7
 10
2.073430
 20
6.275054
 30
0.000000
  0
VERTEX
  8
LAYER-1
 10
2.073430
 20
6.275054
 30
0.000000
  0
VERTEX
  8
LAYER-1
 10
7.449265
 20
6.275684
 30
0.000000
  0
SEQEND
  8
LAYER-1
  0
POLYLINE
  8
LAYER-1
 66
  1
 70
  0
 62
  7
 40
0.018182
 41
0.018182
 10
2.073430
 20
5.933256
 30
0.000000
  0
VERTEX
  8
LAYER-1
 10
2.073430
 20
5.933256
 30
0.000000
  0
VERTEX
  8
LAYER-1
 10
7.449265
 20
5.933684
 30
0.000000
  0
SEQEND
  8
LAYER-1
  0
TEXT
  8
LAYER-1
 62
  7
 10
2.415857
 20
6.721898
 30
0.000000
 40
0.115909
  1
10' ê 18'
 72
  5
 11
3.015857
 21
6.721898
 31
0.000000
  0
TEXT
  8
LAYER-1
 62
  7
 10
2.415857
 20
6.358262
 30
0.000000
 40
0.115909
  1
18' ê 20'
 72
  5
 11
3.015857
 21
6.358262
 31
0.000000
  0
TEXT
  8
LAYER-1
 62
  7
 10
3.497675
 20
6.367353
 30
0.000000
 40
0.115909
  1
10' ê 15'
 72
  5
 11
4.097675
 21
6.367353
 31
0.000000
  0
TEXT
  8
LAYER-1
 62
  7
 10
3.497675
 20
6.003716
 30
0.000000
 40
0.115909
  1
15' ê 20'
 72
  5
 11
4.097675
 21
6.003716
 31
0.000000
  0
TEXT
  8
LAYER-1
 62
  7
 10
4.270403
 20
6.367353
 30
0.000000
 40
0.115909
  1
12' ê 17'
 72
  5
 11
4.870403
 21
6.367353
 31
0.000000
  0
TEXT
  8
LAYER-1
 62
  7
 10
4.270403
 20
6.003716
 30
0.000000
 40
0.115909
  1
17' ê 20'
 72
  5
 11
4.870403
 21
6.003716
 31
0.000000
  0
TEXT
  8
LAYER-1
 62
  7
 10
3.488585
 20
7.049171
 30
0.000000
 40
0.102273
  1
jusqu'ê
 72
  5
 11
3.952221
 21
7.049171
 31
0.000000
  0
TEXT
  8
LAYER-1
 62
  7
 10
3.952221
 20
7.049171
 30
0.000000
 40
0.115909
  1
 6'
 72
  5
 11
4.152221
 21
7.049171
 31
0.000000
  0
TEXT
  8
LAYER-1
 62
  7
 10
6.661312
 20
7.112807
 30
0.000000
 40
0.115909
  1
12" x 12"
 72
  5
 11
7.297675
 21
7.112807
 31
0.000000
  0
TEXT
  8
LAYER-1
 62
  7
 10
6.661312
 20
6.749171
 30
0.000000
 40
0.115909
  1
14" x 16"
 72
  5
 11
7.297675
 21
6.749171
 31
0.000000
  0
TEXT
  8
LAYER-1
 62
  7
 10
3.361312
 20
5.385535
 30
0.000000
 40
0.115909
  1
BARIL  8-5/8"  -  HAUTEUR PLAFOND
 72
  5
 11
6.088585
 21
5.385535
 31
0.000000
  0
TEXT
  8
LAYER-1
 62
  7
 10
6.661312
 20
4.367353
 30
0.000000
 40
0.115909
  1
16" x 18"
 72
  5
 11
7.297675
 21
4.367353
 31
0.000000
  0
POLYLINE
  8
LAYER-1
 66
  1
 70
  0
 62
  7
 40
0.018182
 41
0.018182
 10
2.073783
 20
5.541108
 30
0.000000
  0
VERTEX
  8
LAYER-1
 10
2.073783
 20
5.541108
 30
0.000000
  0
VERTEX
  8
LAYER-1
 10
7.449618
 20
5.541108
 30
0.000000
  0
SEQEND
  8
LAYER-1
  0
POLYLINE
  8
LAYER-1
 66
  1
 70
  0
 62
  7
 40
0.018182
 41
0.018182
 10
7.449618
 20
5.541108
 30
0.000000
  0
VERTEX
  8
LAYER-1
 10
7.449618
 20
5.541108
 30
0.000000
  0
VERTEX
  8
LAYER-1
 10
7.449618
 20
3.501060
 30
0.000000
  0
SEQEND
  8
LAYER-1
  0
POLYLINE
  8
LAYER-1
 66
  1
 70
  0
 62
  7
 40
0.018182
 41
0.018182
 10
2.073783
 20
4.868846
 30
0.000000
  0
VERTEX
  8
LAYER-1
 10
2.073783
 20
4.868846
 30
0.000000
  0
VERTEX
  8
LAYER-1
 10
7.449618
 20
4.869060
 30
0.000000
  0
SEQEND
  8
LAYER-1
  0
POLYLINE
  8
LAYER-1
 66
  1
 70
  0
 62
  7
 10
2.073783
 20
5.323874
 30
0.000000
  0
VERTEX
  8
LAYER-1
 10
2.073783
 20
5.323874
 30
0.000000
  0
VERTEX
  8
LAYER-1
 10
6.523368
 20
5.322636
 30
0.000000
  0
SEQEND
  8
LAYER-1
  0
POLYLINE
  8
LAYER-1
 66
  1
 70
  0
 62
  7
 10
6.523368
 20
5.541108
 30
0.000000
  0
VERTEX
  8
LAYER-1
 10
6.523368
 20
5.541108
 30
0.000000
  0
VERTEX
  8
LAYER-1
 10
6.523368
 20
3.501060
 30
0.000000
  0
SEQEND
  8
LAYER-1
  0
TEXT
  8
LAYER-1
 62
  7
 10
6.706766
 20
4.530989
 30
0.000000
 40
0.061364
  1
min pour moteur
 72
  5
 11
7.352221
 21
4.530989
 31
0.000000
  0
TEXT
  8
LAYER-1
 62
  7
 10
6.715857
 20
4.185535
 30
0.000000
 40
0.061364
  1
min pour 4" x 4"
 72
  5
 11
7.352221
 21
4.185535
 31
0.000000
  0
TEXT
  8
LAYER-1
 62
  7
 10
2.270403
 20
4.630989
 30
0.000000
 40
0.102273
  1
jusqu'ê
 72
  5
 11
2.734039
 21
4.630989
 31
0.000000
  0
TEXT
  8
LAYER-1
 62
  7
 10
2.734039
 20
4.630989
 30
0.000000
 40
0.115909
  1
 15'   
 72
  5
 11
3.152221
 21
4.630989
 31
0.000000
  0
TEXT
  8
LAYER-1
 62
  7
 10
2.506766
 20
4.267353
 30
0.000000
 40
0.115909
  1
15' ê 20'
 72
  5
 11
3.106766
 21
4.267353
 31
0.000000
  0
TEXT
  8
LAYER-1
 62
  7
 10
3.570403
 20
4.267353
 30
0.000000
 40
0.115909
  1
8' ê 13'
 72
  5
 11
4.088585
 21
4.267353
 31
0.000000
  0
TEXT
  8
LAYER-1
 62
  7
 10
4.270403
 20
4.267353
 30
0.000000
 40
0.115909
  1
10' ê 15'
 72
  5
 11
4.870403
 21
4.267353
 31
0.000000
  0
TEXT
  8
LAYER-1
 62
  7
 10
5.034039
 20
4.267353
 30
0.000000
 40
0.115909
  1
11' ê 18'
 72
  5
 11
5.634039
 21
4.267353
 31
0.000000
  0
TEXT
  8
LAYER-1
 62
  7
 10
5.815857
 20
4.267353
 30
0.000000
 40
0.115909
  1
14' ê 20'
 72
  5
 11
6.415857
 21
4.267353
 31
0.000000
  0
POLYLINE
  8
LAYER-1
 66
  1
 70
  0
 62
  7
 40
0.018182
 41
0.018182
 10
2.073783
 20
5.541108
 30
0.000000
  0
VERTEX
  8
LAYER-1
 10
2.073783
 20
5.541108
 30
0.000000
  0
VERTEX
  8
LAYER-1
 10
2.073783
 20
3.501060
 30
0.000000
  0
SEQEND
  8
LAYER-1
  0
POLYLINE
  8
LAYER-1
 66
  1
 70
  0
 62
  7
 10
2.073783
 20
4.528762
 30
0.000000
  0
VERTEX
  8
LAYER-1
 10
2.073783
 20
4.528762
 30
0.000000
  0
VERTEX
  8
LAYER-1
 10
7.449618
 20
4.527061
 30
0.000000
  0
SEQEND
  8
LAYER-1
  0
POLYLINE
  8
LAYER-1
 66
  1
 70
  0
 62
  7
 10
2.073783
 20
4.184813
 30
0.000000
  0
VERTEX
  8
LAYER-1
 10
2.073783
 20
4.184813
 30
0.000000
  0
VERTEX
  8
LAYER-1
 10
7.449618
 20
4.185061
 30
0.000000
  0
SEQEND
  8
LAYER-1
  0
POLYLINE
  8
LAYER-1
 66
  1
 70
  0
 62
  7
 10
2.073783
 20
3.844731
 30
0.000000
  0
VERTEX
  8
LAYER-1
 10
2.073783
 20
3.844731
 30
0.000000
  0
VERTEX
  8
LAYER-1
 10
7.449618
 20
3.843060
 30
0.000000
  0
SEQEND
  8
LAYER-1
  0
POLYLINE
  8
LAYER-1
 66
  1
 70
  0
 62
  7
 40
0.018182
 41
0.018182
 10
2.073783
 20
3.501060
 30
0.000000
  0
VERTEX
  8
LAYER-1
 10
2.073783
 20
3.501060
 30
0.000000
  0
VERTEX
  8
LAYER-1
 10
7.449618
 20
3.501060
 30
0.000000
  0
SEQEND
  8
LAYER-1
  0
TEXT
  8
LAYER-1
 62
  7
 10
3.488585
 20
3.949171
 30
0.000000
 40
0.115909
  1
13' ê 15'
 72
  5
 11
4.088585
 21
3.949171
 31
0.000000
  0
TEXT
  8
LAYER-1
 62
  7
 10
3.488585
 20
3.585535
 30
0.000000
 40
0.115909
  1
15' ê 20'
 72
  5
 11
4.088585
 21
3.585535
 31
0.000000
  0
TEXT
  8
LAYER-1
 62
  7
 10
4.270403
 20
3.949171
 30
0.000000
 40
0.115909
  1
15' ê 17'
 72
  5
 11
4.870403
 21
3.949171
 31
0.000000
  0
TEXT
  8
LAYER-1
 62
  7
 10
4.270403
 20
3.585535
 30
0.000000
 40
0.115909
  1
17' ê 20'
 72
  5
 11
4.870403
 21
3.585535
 31
0.000000
  0
TEXT
  8
LAYER-1
 62
  7
 10
3.488585
 20
4.630989
 30
0.000000
 40
0.102273
  1
jusqu'ê
 72
  5
 11
3.952221
 21
4.630989
 31
0.000000
  0
TEXT
  8
LAYER-1
 62
  7
 10
3.952221
 20
4.630989
 30
0.000000
 40
0.115909
  1
 8'
 72
  5
 11
4.152221
 21
4.630989
 31
0.000000
  0
TEXT
  8
LAYER-1
 62
  7
 10
4.224948
 20
4.630989
 30
0.000000
 40
0.102273
  1
jusqu'ê
 72
  5
 11
4.688585
 21
4.630989
 31
0.000000
  0
TEXT
  8
LAYER-1
 62
  7
 10
4.688585
 20
4.630989
 30
0.000000
 40
0.115909
  1
 10'
 72
  5
 11
4.970403
 21
4.630989
 31
0.000000
  0
TEXT
  8
LAYER-1
 62
  7
 10
4.997675
 20
4.630989
 30
0.000000
 40
0.102273
  1
jusqu'ê
 72
  5
 11
5.461312
 21
4.630989
 31
0.000000
  0
TEXT
  8
LAYER-1
 62
  7
 10
5.461312
 20
4.630989
 30
0.000000
 40
0.115909
  1
 11'
 72
  5
 11
5.743130
 21
4.630989
 31
0.000000
  0
TEXT
  8
LAYER-1
 62
  7
 10
5.761312
 20
4.630989
 30
0.000000
 40
0.102273
  1
jusqu'ê
 72
  5
 11
6.224948
 21
4.630989
 31
0.000000
  0
TEXT
  8
LAYER-1
 62
  7
 10
6.224948
 20
4.630989
 30
0.000000
 40
0.115909
  1
 14'
 72
  5
 11
6.506766
 21
4.630989
 31
0.000000
  0
TEXT
  8
LAYER-1
 62
  7
 10
6.661312
 20
4.712807
 30
0.000000
 40
0.115909
  1
14" x 16"
 72
  5
 11
7.297675
 21
4.712807
 31
0.000000
  0
TEXT
  8
LAYER-1
 62
  7
 10
6.670403
 20
3.640080
 30
0.000000
 40
0.115909
  1
20" x 22"
 72
  5
 11
7.306766
 21
3.640080
 31
0.000000
  0
TEXT
  8
LAYER-1
 62
  7
 10
5.070403
 20
3.994626
 30
0.000000
 40
0.115909
  1
18' ê 20'
 72
  5
 11
5.670403
 21
3.994626
 31
0.000000
  0
TEXT
  8
LAYER-1
 62
  7
 10
1.752221
 20
8.776444
 30
0.000000
 40
0.122727
  1
IMPâRIAL
 72
  5
 11
2.515857
 21
8.776444
 31
0.000000
  0
TEXT
  8
LAYER-1
 62
  7
 10
2.543130
 20
7.085535
 30
0.000000
 40
0.115909
  1
6' ê 10'
 72
  5
 11
3.061312
 21
7.085535
 31
0.000000
  0
TEXT
  8
LAYER-1
 62
  7
 10
4.252221
 20
7.049171
 30
0.000000
 40
0.102273
  1
jusqu'ê
 72
  5
 11
4.715857
 21
7.049171
 31
0.000000
  0
TEXT
  8
LAYER-1
 62
  7
 10
4.715857
 20
7.049171
 30
0.000000
 40
0.115909
  1
 6'
 72
  5
 11
4.915857
 21
7.049171
 31
0.000000
  0
TEXT
  8
LAYER-1
 62
  7
 10
5.052221
 20
7.049171
 30
0.000000
 40
0.102273
  1
jusqu'ê 
 72
  5
 11
5.552221
 21
7.049171
 31
0.000000
  0
TEXT
  8
LAYER-1
 62
  7
 10
5.552221
 20
7.049171
 30
0.000000
 40
0.115909
  1
6'
 72
  5
 11
5.706766
 21
7.049171
 31
0.000000
  0
TEXT
  8
LAYER-1
 62
  7
 10
5.806766
 20
7.049171
 30
0.000000
 40
0.102273
  1
jusqu'ê
 72
  5
 11
6.270403
 21
7.049171
 31
0.000000
  0
TEXT
  8
LAYER-1
 62
  7
 10
6.270403
 20
7.049171
 30
0.000000
 40
0.115909
  1
 6'
 72
  5
 11
6.470403
 21
7.049171
 31
0.000000
  0
TEXT
  8
LAYER-1
 62
  7
 10
6.661312
 20
5.358262
 30
0.000000
 40
0.115909
  1
PLAQUE
 72
  5
 11
7.297675
 21
5.358262
 31
0.000000
  0
TEXT
  8
LAYER-1
 62
  7
 10
6.543130
 20
5.176444
 30
0.000000
 40
0.115909
  1
EXTRâMITâ
 72
  5
 11
7.415857
 21
5.176444
 31
0.000000
  0
TEXT
  8
LAYER-1
 62
  7
 10
6.624948
 20
4.994626
 30
0.000000
 40
0.115909
  1
"X"  x  "Y"
 72
  5
 11
7.334039
 21
4.994626
 31
0.000000
  0
POLYLINE
  8
LAYER-1
 66
  1
 70
  0
 62
  7
 10
5.751764
 20
5.933300
 30
0.000000
  0
VERTEX
  8
LAYER-1
 10
5.751764
 20
5.933300
 30
0.000000
  0
VERTEX
  8
LAYER-1
 10
5.751489
 20
7.799423
 30
0.000000
  0
SEQEND
  8
LAYER-1
  0
POLYLINE
  8
LAYER-1
 66
  1
 70
  0
 62
  7
 10
5.751474
 20
5.022651
 30
0.000000
  0
VERTEX
  8
LAYER-1
 10
5.751474
 20
5.022651
 30
0.000000
  0
VERTEX
  8
LAYER-1
 10
5.752117
 20
3.501060
 30
0.000000
  0
SEQEND
  8
LAYER-1
  0
POLYLINE
  8
LAYER-1
 66
  1
 70
  0
 62
  7
 10
4.981764
 20
5.933300
 30
0.000000
  0
VERTEX
  8
LAYER-1
 10
4.981764
 20
5.933300
 30
0.000000
  0
VERTEX
  8
LAYER-1
 10
4.981489
 20
8.098035
 30
0.000000
  0
SEQEND
  8
LAYER-1
  0
POLYLINE
  8
LAYER-1
 66
  1
 70
  0
 62
  7
 10
4.981489
 20
5.323728
 30
0.000000
  0
VERTEX
  8
LAYER-1
 10
4.981489
 20
5.323728
 30
0.000000
  0
VERTEX
  8
LAYER-1
 10
4.982117
 20
3.501060
 30
0.000000
  0
SEQEND
  8
LAYER-1
  0
POLYLINE
  8
LAYER-1
 66
  1
 70
  0
 62
  7
 10
4.211764
 20
5.933300
 30
0.000000
  0
VERTEX
  8
LAYER-1
 10
4.211764
 20
5.933300
 30
0.000000
  0
VERTEX
  8
LAYER-1
 10
4.211452
 20
7.801756
 30
0.000000
  0
SEQEND
  8
LAYER-1
  0
POLYLINE
  8
LAYER-1
 66
  1
 70
  0
 62
  7
 10
4.211482
 20
5.023977
 30
0.000000
  0
VERTEX
  8
LAYER-1
 10
4.211482
 20
5.023977
 30
0.000000
  0
VERTEX
  8
LAYER-1
 10
4.212116
 20
3.501060
 30
0.000000
  0
SEQEND
  8
LAYER-1
  0
POLYLINE
  8
LAYER-1
 66
  1
 70
  0
 62
  7
 10
3.441764
 20
5.933300
 30
0.000000
  0
VERTEX
  8
LAYER-1
 10
3.441764
 20
5.933300
 30
0.000000
  0
VERTEX
  8
LAYER-1
 10
3.441489
 20
8.098035
 30
0.000000
  0
SEQEND
  8
LAYER-1
  0
POLYLINE
  8
LAYER-1
 66
  1
 70
  0
 62
  7
 10
3.441489
 20
5.323728
 30
0.000000
  0
VERTEX
  8
LAYER-1
 10
3.441489
 20
5.323728
 30
0.000000
  0
VERTEX
  8
LAYER-1
 10
3.442117
 20
3.501060
 30
0.000000
  0
SEQEND
  8
LAYER-1
  0
TEXT
  8
LAYER-1
 62
  7
 10
5.488585
 20
7.921898
 30
0.000000
 40
0.102273
  1
ROLL-99
 72
  5
 11
6.079494
 21
7.921898
 31
0.000000
  0
POLYLINE
  8
LAYER-1
 66
  1
 70
  0
 62
  7
 10
2.073430
 20
7.803695
 30
0.000000
  0
VERTEX
  8
LAYER-1
 10
2.073430
 20
7.803695
 30
0.000000
  0
VERTEX
  8
LAYER-1
 10
6.516765
 20
7.799766
 30
0.000000
  0
SEQEND
  8
LAYER-1
  0
TEXT
  8
LAYER-1
 62
  7
 10
2.206766
 20
7.694626
 30
0.000000
 40
0.075000
  1
AVEC 
 72
  5
 11
2.543130
 21
7.694626
 31
0.000000
  0
TEXT
  8
LAYER-1
 62
  7
 10
2.543130
 20
7.694626
 30
0.000000
 40
0.061364
  1
OR
 72
  5
 11
2.706766
 21
7.694626
 31
0.000000
  0
TEXT
  8
LAYER-1
 62
  7
 10
2.706766
 20
7.694626
 30
0.000000
 40
0.075000
  1
 SANS CAPOT
 72
  5
 11
3.388585
 21
7.694626
 31
0.000000
  0
TEXT
  8
LAYER-1
 62
  7
 10
3.615857
 20
7.458262
 30
0.000000
 40
0.075000
  1
10" x 10"
 72
  5
 11
4.061312
 21
7.458262
 31
0.000000
  0
TEXT
  8
LAYER-1
 62
  7
 10
3.497675
 20
7.349171
 30
0.000000
 40
0.075000
  1
Non disponible
 72
  5
 11
4.179494
 21
7.349171
 31
0.000000
  0
TEXT
  8
LAYER-1
 62
  7
 10
2.497675
 20
6.103716
 30
0.000000
 40
0.075000
  1
Plus de 20'
 72
  5
 11
3.015857
 21
6.103716
 31
0.000000
  0
TEXT
  8
LAYER-1
 62
  7
 10
2.415857
 20
5.994626
 30
0.000000
 40
0.075000
  1
Non disponible
 72
  5
 11
3.097675
 21
5.994626
 31
0.000000
  0
TEXT
  8
LAYER-1
 62
  7
 10
5.106766
 20
6.103716
 30
0.000000
 40
0.075000
  1
Plus de 20'
 72
  5
 11
5.624948
 21
6.103716
 31
0.000000
  0
TEXT
  8
LAYER-1
 62
  7
 10
5.024948
 20
5.994626
 30
0.000000
 40
0.075000
  1
Non disponible
 72
  5
 11
5.706766
 21
5.994626
 31
0.000000
  0
TEXT
  8
LAYER-1
 62
  7
 10
5.879494
 20
6.103716
 30
0.000000
 40
0.075000
  1
Plus de 20'
 72
  5
 11
6.397675
 21
6.103716
 31
0.000000
  0
TEXT
  8
LAYER-1
 62
  7
 10
5.797675
 20
5.994626
 30
0.000000
 40
0.075000
  1
Non disponible
 72
  5
 11
6.479494
 21
5.994626
 31
0.000000
  0
TEXT
  8
LAYER-1
 62
  7
 10
4.379494
 20
7.458262
 30
0.000000
 40
0.075000
  1
10" x 10"
 72
  5
 11
4.824948
 21
7.458262
 31
0.000000
  0
TEXT
  8
LAYER-1
 62
  7
 10
4.261312
 20
7.349171
 30
0.000000
 40
0.075000
  1
Non disponible
 72
  5
 11
4.943130
 21
7.349171
 31
0.000000
  0
TEXT
  8
LAYER-1
 62
  7
 10
5.143130
 20
7.467353
 30
0.000000
 40
0.075000
  1
10" x 10"
 72
  5
 11
5.588585
 21
7.467353
 31
0.000000
  0
TEXT
  8
LAYER-1
 62
  7
 10
5.024948
 20
7.358262
 30
0.000000
 40
0.075000
  1
Non disponible
 72
  5
 11
5.706766
 21
7.358262
 31
0.000000
  0
TEXT
  8
LAYER-1
 62
  7
 10
5.924948
 20
7.467353
 30
0.000000
 40
0.075000
  1
10" x 10"
 72
  5
 11
6.370403
 21
7.467353
 31
0.000000
  0
TEXT
  8
LAYER-1
 62
  7
 10
5.806766
 20
7.358262
 30
0.000000
 40
0.075000
  1
Non disponible
 72
  5
 11
6.488585
 21
7.358262
 31
0.000000
  0
TEXT
  8
LAYER-1
 62
  7
 10
5.797675
 20
7.694626
 30
0.000000
 40
0.075000
  1
SANS CAPOT
 72
  5
 11
6.452221
 21
7.694626
 31
0.000000
  0
TEXT
  8
LAYER-1
 62
  7
 10
5.052221
 20
7.694626
 30
0.000000
 40
0.075000
  1
AVEC CAPOT
 72
  5
 11
5.706766
 21
7.694626
 31
0.000000
  0
TEXT
  8
LAYER-1
 62
  7
 10
4.261312
 20
7.694626
 30
0.000000
 40
0.075000
  1
SANS CAPOT
 72
  5
 11
4.915857
 21
7.694626
 31
0.000000
  0
TEXT
  8
LAYER-1
 62
  7
 10
3.497675
 20
7.694626
 30
0.000000
 40
0.075000
  1
AVEC CAPOT
 72
  5
 11
4.152221
 21
7.694626
 31
0.000000
  0
TEXT
  8
LAYER-1
 62
  7
 10
5.488585
 20
5.140080
 30
0.000000
 40
0.102273
  1
ROLL-99
 72
  5
 11
6.079494
 21
5.140080
 31
0.000000
  0
TEXT
  8
LAYER-1
 62
  7
 10
2.206766
 20
4.921898
 30
0.000000
 40
0.075000
  1
AVEC 
 72
  5
 11
2.543130
 21
4.921898
 31
0.000000
  0
TEXT
  8
LAYER-1
 62
  7
 10
2.543130
 20
4.921898
 30
0.000000
 40
0.061364
  1
OR
 72
  5
 11
2.706766
 21
4.921898
 31
0.000000
  0
TEXT
  8
LAYER-1
 62
  7
 10
2.706766
 20
4.921898
 30
0.000000
 40
0.075000
  1
 SANS CAPOT
 72
  5
 11
3.388585
 21
4.921898
 31
0.000000
  0
TEXT
  8
LAYER-1
 62
  7
 10
2.497675
 20
3.667353
 30
0.000000
 40
0.075000
  1
Plus de 20'
 72
  5
 11
3.015857
 21
3.667353
 31
0.000000
  0
TEXT
  8
LAYER-1
 62
  7
 10
2.415857
 20
3.558262
 30
0.000000
 40
0.075000
  1
Non disponible
 72
  5
 11
3.097675
 21
3.558262
 31
0.000000
  0
TEXT
  8
LAYER-1
 62
  7
 10
5.106766
 20
3.676444
 30
0.000000
 40
0.075000
  1
Plus de 20'
 72
  5
 11
5.624948
 21
3.676444
 31
0.000000
  0
TEXT
  8
LAYER-1
 62
  7
 10
5.024948
 20
3.567353
 30
0.000000
 40
0.075000
  1
Non disponible
 72
  5
 11
5.706766
 21
3.567353
 31
0.000000
  0
TEXT
  8
LAYER-1
 62
  7
 10
5.879494
 20
3.676444
 30
0.000000
 40
0.075000
  1
Plus de 20'
 72
  5
 11
6.397675
 21
3.676444
 31
0.000000
  0
TEXT
  8
LAYER-1
 62
  7
 10
5.797675
 20
3.567353
 30
0.000000
 40
0.075000
  1
Non disponible
 72
  5
 11
6.479494
 21
3.567353
 31
0.000000
  0
TEXT
  8
LAYER-1
 62
  7
 10
5.797675
 20
4.921898
 30
0.000000
 40
0.075000
  1
SANS CAPOT
 72
  5
 11
6.452221
 21
4.921898
 31
0.000000
  0
TEXT
  8
LAYER-1
 62
  7
 10
5.052221
 20
4.912807
 30
0.000000
 40
0.075000
  1
AVEC CAPOT
 72
  5
 11
5.706766
 21
4.912807
 31
0.000000
  0
TEXT
  8
LAYER-1
 62
  7
 10
4.261312
 20
4.921898
 30
0.000000
 40
0.075000
  1
SANS CAPOT
 72
  5
 11
4.915857
 21
4.921898
 31
0.000000
  0
TEXT
  8
LAYER-1
 62
  7
 10
3.497675
 20
4.912807
 30
0.000000
 40
0.075000
  1
AVEC CAPOT
 72
  5
 11
4.152221
 21
4.912807
 31
0.000000
  0
POLYLINE
  8
LAYER-1
 66
  1
 70
  0
 62
  7
 10
2.073783
 20
5.025922
 30
0.000000
  0
VERTEX
  8
LAYER-1
 10
2.073783
 20
5.025922
 30
0.000000
  0
VERTEX
  8
LAYER-1
 10
6.523015
 20
5.021987
 30
0.000000
  0
SEQEND
  8
LAYER-1
  0
TEXT
  8
LAYER-1
 62
  7
 10
2.497675
 20
4.003716
 30
0.000000
 40
0.075000
  1
Plus de 20'
 72
  5
 11
3.015857
 21
4.003716
 31
0.000000
  0
TEXT
  8
LAYER-1
 62
  7
 10
2.415857
 20
3.894626
 30
0.000000
 40
0.075000
  1
Non disponible
 72
  5
 11
3.097675
 21
3.894626
 31
0.000000
  0
TEXT
  8
LAYER-1
 62
  7
 10
5.879494
 20
4.003716
 30
0.000000
 40
0.075000
  1
Plus de 20'
 72
  5
 11
6.397675
 21
4.003716
 31
0.000000
  0
TEXT
  8
LAYER-1
 62
  7
 10
5.797675
 20
3.894626
 30
0.000000
 40
0.075000
  1
Non disponible
 72
  5
 11
6.479494
 21
3.894626
 31
0.000000
  0
TEXT
  8
LAYER-1
 62
  7
 10
0.806766
 20
0.976444
 30
0.000000
 40
0.102273
  1
CENTRE
 72
  5
 11
1.406766
 21
0.976444
 31
0.000000
  0
TEXT
  8
LAYER-1
 62
  7
 10
0.806766
 20
0.821898
 30
0.000000
 40
0.102273
  1
DU GUIDE
 72
  5
 11
1.488585
 21
0.821898
 31
0.000000
  0
TEXT
  8
LAYER-1
 62
  7
 10
0.370403
 20
0.094626
 30
0.000000
 40
0.122727
  1
VUE EN PLAN
 72
  5
 11
1.497675
 21
0.094626
 31
0.000000
  0
TEXT
  8
LAYER-1
 62
  7
 10
0.043130
 20
7.794626
 30
0.000000
 40
0.102273
  1
TUBE
 72
  5
 11
0.443130
 21
7.794626
 31
0.000000
  0
TEXT
  8
LAYER-1
 62
  7
 10
0.043130
 20
7.640080
 30
0.000000
 40
0.102273
  1
SUPPORT
 72
  5
 11
0.743130
 21
7.640080
 31
0.000000
  0
POLYLINE
  8
LAYER-1
  6
LTYPE02
 66
  1
 70
  0
 62
  7
  6
LTYPE02
 10
0.883301
 20
6.667484
 30
0.000000
  0
VERTEX
  8
LAYER-1
  6
LTYPE02
 10
0.883301
 20
6.667484
 30
0.000000
  0
VERTEX
  8
LAYER-1
  6
LTYPE02
 10
0.835240
 20
6.496421
 30
0.000000
  0
VERTEX
  8
LAYER-1
  6
LTYPE02
 10
0.806329
 20
6.319705
 30
0.000000
  0
VERTEX
  8
LAYER-1
  6
LTYPE02
 10
0.798915
 20
6.202818
 30
0.000000
  0
SEQEND
  8
LAYER-1
  0
TEXT
  8
LAYER-1
 62
  7
 10
0.552221
 20
0.367353
 30
0.000000
 40
0.102273
  1
RECUL
 72
  5
 11
1.052221
 21
0.367353
 31
0.000000
  0
POLYLINE
  8
LAYER-1
 66
  1
 70
  0
 62
  7
 40
0.018182
 41
0.018182
 10
7.449618
 20
1.380537
 30
0.000000
  0
VERTEX
  8
LAYER-1
 10
7.449618
 20
1.380537
 30
0.000000
  0
VERTEX
  8
LAYER-1
 10
7.449618
 20
0.242478
 30
0.000000
  0
SEQEND
  8
LAYER-1
  0
POLYLINE
  8
LAYER-1
 66
  1
 70
  0
 62
  7
 40
0.018182
 41
0.018182
 10
2.073786
 20
0.242478
 30
0.000000
  0
VERTEX
  8
LAYER-1
 10
2.073786
 20
0.242478
 30
0.000000
  0
VERTEX
  8
LAYER-1
 10
2.073786
 20
1.380537
 30
0.000000
  0
SEQEND
  8
LAYER-1
  0
TEXT
  8
LAYER-1
 62
  7
 10
2.252221
 20
0.367353
 30
0.000000
 40
0.115909
  1
RECUL  "Z"
 72
  5
 11
3.134039
 21
0.367353
 31
0.000000
  0
TEXT
  8
LAYER-1
 62
  7
 10
3.706766
 20
0.667353
 30
0.000000
 40
0.115909
  1
jusqu'ê 10'
 72
  5
 11
4.443130
 21
0.667353
 31
0.000000
  0
TEXT
  8
LAYER-1
 62
  7
 10
4.497675
 20
0.667353
 30
0.000000
 40
0.115909
  1
10' ê 13'
 72
  5
 11
5.097675
 21
0.667353
 31
0.000000
  0
TEXT
  8
LAYER-1
 62
  7
 10
5.215857
 20
0.667353
 30
0.000000
 40
0.115909
  1
13' ê 16'
 72
  5
 11
5.815857
 21
0.667353
 31
0.000000
  0
TEXT
  8
LAYER-1
 62
  7
 10
5.879494
 20
0.667353
 30
0.000000
 40
0.115909
  1
jusqu'ê 11'
 72
  5
 11
6.615857
 21
0.667353
 31
0.000000
  0
TEXT
  8
LAYER-1
 62
  7
 10
6.624948
 20
0.667353
 30
0.000000
 40
0.115909
  1
11' et plus 
 72
  5
 11
7.379494
 21
0.667353
 31
0.000000
  0
TEXT
  8
LAYER-1
 62
  7
 10
5.988585
 20
1.130989
 30
0.000000
 40
0.122727
  1
Pour 
 72
  5
 11
6.452221
 21
1.130989
 31
0.000000
  0
TEXT
  8
LAYER-1
 62
  7
 10
6.452221
 20
1.130989
 30
0.000000
 40
0.115909
  1
tubes 4" x 4" 
 72
  5
 11
7.470403
 21
1.130989
 31
0.000000
  0
TEXT
  8
LAYER-1
 62
  7
 10
4.006766
 20
1.212807
 30
0.000000
 40
0.122727
  1
Pour
 72
  5
 11
4.424948
 21
1.212807
 31
0.000000
  0
TEXT
  8
LAYER-1
 62
  7
 10
4.424948
 20
1.212807
 30
0.000000
 40
0.115909
  1
 tubes
 72
  5
 11
4.915857
 21
1.212807
 31
0.000000
  0
TEXT
  8
LAYER-1
 62
  7
 10
4.915857
 20
1.212807
 30
0.000000
 40
0.122727
  1
 
 72
  5
 11
5.006766
 21
1.212807
 31
0.000000
  0
TEXT
  8
LAYER-1
 62
  7
 10
5.006766
 20
1.212807
 30
0.000000
 40
0.115909
  1
3" x 3" et
 72
  5
 11
5.715857
 21
1.212807
 31
0.000000
  0
TEXT
  8
LAYER-1
 62
  7
 10
4.006766
 20
1.030989
 30
0.000000
 40
0.115909
  1
tubes Alum 1 3/4" x 4"
 72
  5
 11
5.634039
 21
1.030989
 31
0.000000
  0
TEXT
  8
LAYER-1
 62
  7
 10
4.015857
 20
0.367353
 30
0.000000
 40
0.122727
  1
2"
 72
  5
 11
4.206766
 21
0.367353
 31
0.000000
  0
POLYLINE
  8
LAYER-1
 66
  1
 70
  0
 62
  7
 10
3.684545
 20
0.242478
 30
0.000000
  0
VERTEX
  8
LAYER-1
 10
3.684545
 20
0.242478
 30
0.000000
  0
VERTEX
  8
LAYER-1
 10
3.684545
 20
1.380537
 30
0.000000
  0
SEQEND
  8
LAYER-1
  0
POLYLINE
  8
LAYER-1
 66
  1
 70
  0
 62
  7
 10
4.497990
 20
0.242478
 30
0.000000
  0
VERTEX
  8
LAYER-1
 10
4.497990
 20
0.242478
 30
0.000000
  0
VERTEX
  8
LAYER-1
 10
4.497990
 20
0.919063
 30
0.000000
  0
SEQEND
  8
LAYER-1
  0
POLYLINE
  8
LAYER-1
 66
  1
 70
  0
 62
  7
 10
5.192545
 20
0.242478
 30
0.000000
  0
VERTEX
  8
LAYER-1
 10
5.192545
 20
0.242478
 30
0.000000
  0
VERTEX
  8
LAYER-1
 10
5.192545
 20
0.919063
 30
0.000000
  0
SEQEND
  8
LAYER-1
  0
POLYLINE
  8
LAYER-1
 66
  1
 70
  0
 62
  7
 10
5.883073
 20
0.242478
 30
0.000000
  0
VERTEX
  8
LAYER-1
 10
5.883073
 20
0.242478
 30
0.000000
  0
VERTEX
  8
LAYER-1
 10
5.883073
 20
1.377396
 30
0.000000
  0
SEQEND
  8
LAYER-1
  0
POLYLINE
  8
LAYER-1
 66
  1
 70
  0
 62
  7
 10
6.689296
 20
0.242478
 30
0.000000
  0
VERTEX
  8
LAYER-1
 10
6.689296
 20
0.242478
 30
0.000000
  0
VERTEX
  8
LAYER-1
 10
6.689296
 20
0.919063
 30
0.000000
  0
SEQEND
  8
LAYER-1
  0
TEXT
  8
LAYER-1
 62
  7
 10
4.634039
 20
0.367353
 30
0.000000
 40
0.122727
  1
2 1/4"
 72
  5
 11
5.097675
 21
0.367353
 31
0.000000
  0
TEXT
  8
LAYER-1
 62
  7
 10
5.343130
 20
0.367353
 30
0.000000
 40
0.122727
  1
2 1/2"
 72
  5
 11
5.806766
 21
0.367353
 31
0.000000
  0
TEXT
  8
LAYER-1
 62
  7
 10
6.097675
 20
0.376444
 30
0.000000
 40
0.122727
  1
2 1/4"
 72
  5
 11
6.561312
 21
0.376444
 31
0.000000
  0
TEXT
  8
LAYER-1
 62
  7
 10
6.843130
 20
0.376444
 30
0.000000
 40
0.122727
  1
2 1/2"
 72
  5
 11
7.306766
 21
0.376444
 31
0.000000
  0
TEXT
  8
LAYER-1
 62
  7
 10
2.406766
 20
1.112807
 30
0.000000
 40
0.115909
  1
SUPPORT
 72
  5
 11
3.179494
 21
1.112807
 31
0.000000
  0
TEXT
  8
LAYER-1
 62
  7
 10
2.079494
 20
0.076444
 30
0.000000
 40
0.122727
  1
* Pour support en angles, trous d'installation des guides sont prÄ-percÄs.
 72
  5
 11
7.379494
 21
0.076444
 31
0.000000
  0
POLYLINE
  8
LAYER-1
 66
  1
 70
  0
 62
  7
 40
0.018182
 41
0.018182
 10
4.220936
 20
1.940226
 30
0.000000
  0
VERTEX
  8
LAYER-1
 10
4.220936
 20
1.940226
 30
0.000000
  0
VERTEX
  8
LAYER-1
 10
4.220936
 20
2.960224
 30
0.000000
  0
SEQEND
  8
LAYER-1
  0
POLYLINE
  8
LAYER-1
 66
  1
 70
  0
 62
  7
 10
6.525518
 20
2.963261
 30
0.000000
  0
VERTEX
  8
LAYER-1
 10
6.525518
 20
2.963261
 30
0.000000
  0
VERTEX
  8
LAYER-1
 10
6.525518
 20
1.940691
 30
0.000000
  0
SEQEND
  8
LAYER-1
  0
TEXT
  8
LAYER-1
 62
  7
 10
4.679494
 20
2.812807
 30
0.000000
 40
0.102273
  1
HAUTEUR PLAFOND
 72
  5
 11
6.070403
 21
2.812807
 31
0.000000
  0
TEXT
  8
LAYER-1
 62
  7
 10
6.679494
 20
2.830989
 30
0.000000
 40
0.102273
  1
PLAQUE
 72
  5
 11
7.279494
 21
2.830989
 31
0.000000
  0
TEXT
  8
LAYER-1
 62
  7
 10
6.561312
 20
2.676444
 30
0.000000
 40
0.102273
  1
EXTRâMITâ
 72
  5
 11
7.406766
 21
2.676444
 31
0.000000
  0
TEXT
  8
LAYER-1
 62
  7
 10
6.661312
 20
2.021898
 30
0.000000
 40
0.115909
  1
10" x 10"
 72
  5
 11
7.297675
 21
2.021898
 31
0.000000
  0
TEXT
  8
LAYER-1
 62
  7
 10
6.743130
 20
2.385535
 30
0.000000
 40
0.115909
  1
8" x 8"
 72
  5
 11
7.215857
 21
2.385535
 31
0.000000
  0
POLYLINE
  8
LAYER-1
 66
  1
 70
  0
 62
  7
 40
0.018182
 41
0.018182
 10
7.451213
 20
2.961523
 30
0.000000
  0
VERTEX
  8
LAYER-1
 10
7.451213
 20
2.961523
 30
0.000000
  0
VERTEX
  8
LAYER-1
 10
7.451213
 20
1.940226
 30
0.000000
  0
SEQEND
  8
LAYER-1
  0
TEXT
  8
LAYER-1
 62
  7
 10
4.206766
 20
3.212807
 30
0.000000
 40
0.122727
  1
Plaque d'extrÄmitÄ: Baril 4" & 4 
 72
  5
 11
6.724948
 21
3.212807
 31
0.000000
  0
TEXT
  8
LAYER-1
 62
  7
 10
6.724948
 20
3.212807
 30
0.000000
 40
0.102273
  1
1/2
 72
  5
 11
6.952221
 21
3.212807
 31
0.000000
  0
TEXT
  8
LAYER-1
 62
  7
 10
6.952221
 20
3.212807
 30
0.000000
 40
0.122727
  1
" 
 72
  5
 11
7.124948
 21
3.212807
 31
0.000000
  0
TEXT
  8
LAYER-1
 62
  7
 10
4.206766
 20
3.021898
 30
0.000000
 40
0.122727
  1
(Pour Volet de comptoir & modÅles SLIM)
 72
  5
 11
7.470403
 21
3.021898
 31
0.000000
  0
TEXT
  8
LAYER-1
 62
  7
 10
2.106766
 20
0.703716
 30
0.000000
 40
0.115909
  1
HAUTEUR PLAFOND
 72
  5
 11
3.643130
 21
0.703716
 31
0.000000
  0
TEXT
  8
LAYER-1
 62
  7
 10
2.297675
 20
7.985535
 30
0.000000
 40
0.102273
  1
ROLL-VISION,
 72
  5
 11
3.206766
 21
7.985535
 31
0.000000
  0
TEXT
  8
LAYER-1
 62
  7
 10
2.115857
 20
7.830989
 30
0.000000
 40
0.102273
  1
R-AIR
 72
  5
 11
2.515857
 21
7.830989
 31
0.000000
  0
TEXT
  8
LAYER-1
 62
  7
 10
2.515857
 20
7.830989
 30
0.000000
 40
0.061364
  1
 & 
 72
  5
 11
2.670403
 21
7.830989
 31
0.000000
  0
TEXT
  8
LAYER-1
 62
  7
 10
2.670403
 20
7.830989
 30
0.000000
 40
0.102273
  1
R-SHUTTER
 72
  5
 11
3.488585
 21
7.830989
 31
0.000000
  0
TEXT
  8
LAYER-1
 62
  7
 10
2.088585
 20
1.503716
 30
0.000000
 40
0.122727
  1
Recul  "Z"  selon Hauteur plafond
 72
  5
 11
4.752221
 21
1.503716
 31
0.000000
  0
TEXT
  8
LAYER-1
 62
  7
 10
2.297675
 20
5.212807
 30
0.000000
 40
0.102273
  1
ROLL-VISION,
 72
  5
 11
3.206766
 21
5.212807
 31
0.000000
  0
TEXT
  8
LAYER-1
 62
  7
 10
2.115857
 20
5.058262
 30
0.000000
 40
0.102273
  1
R-AIR
 72
  5
 11
2.515857
 21
5.058262
 31
0.000000
  0
TEXT
  8
LAYER-1
 62
  7
 10
2.515857
 20
5.058262
 30
0.000000
 40
0.061364
  1
 & 
 72
  5
 11
2.670403
 21
5.058262
 31
0.000000
  0
TEXT
  8
LAYER-1
 62
  7
 10
2.670403
 20
5.058262
 30
0.000000
 40
0.102273
  1
R-SHUTTER
 72
  5
 11
3.488585
 21
5.058262
 31
0.000000
  0
POLYLINE
  8
LAYER-1
 66
  1
 70
  1
 62
  7
  0
VERTEX
  8
LAYER-1
 10
0.070492
 20
1.279816
 30
0.000000
  0
VERTEX
  8
LAYER-1
 10
1.731114
 20
1.279816
 30
0.000000
  0
VERTEX
  8
LAYER-1
 10
1.731114
 20
1.243141
 30
0.000000
  0
VERTEX
  8
LAYER-1
 10
0.070492
 20
1.243141
 30
0.000000
  0
SEQEND
  8
LAYER-1
  0
POLYLINE
  8
LAYER-1
 66
  1
 70
  1
 62
  7
  0
VERTEX
  8
LAYER-1
 10
0.070057
 20
2.654442
 30
0.000000
  0
VERTEX
  8
LAYER-1
 10
1.725631
 20
2.654442
 30
0.000000
  0
VERTEX
  8
LAYER-1
 10
1.725631
 20
2.379294
 30
0.000000
  0
VERTEX
  8
LAYER-1
 10
0.070057
 20
2.379294
 30
0.000000
  0
SEQEND
  8
LAYER-1
  0
POLYLINE
  8
LAYER-1
 66
  1
 70
  1
 62
  7
 10
0.120495
 20
2.553475
 30
0.000000
  0
VERTEX
  8
LAYER-1
 10
0.120495
 20
2.553475
 30
0.000000
  0
VERTEX
  8
LAYER-1
 10
0.096607
 20
2.549576
 30
0.000000
  0
VERTEX
  8
LAYER-1
 10
0.125110
 20
2.526195
 30
0.000000
  0
SEQEND
  8
LAYER-1
  0
POLYLINE
  8
LAYER-1
 66
  1
 70
  1
 62
  7
 10
0.154480
 20
2.610458
 30
0.000000
  0
VERTEX
  8
LAYER-1
 10
0.154480
 20
2.610458
 30
0.000000
  0
VERTEX
  8
LAYER-1
 10
0.147212
 20
2.594940
 30
0.000000
  0
VERTEX
  8
LAYER-1
 10
0.159325
 20
2.581815
 30
0.000000
  0
SEQEND
  8
LAYER-1
  0
POLYLINE
  8
LAYER-1
 66
  1
 70
  1
 62
  7
 10
0.304308
 20
2.594051
 30
0.000000
  0
VERTEX
  8
LAYER-1
 10
0.304308
 20
2.594051
 30
0.000000
  0
VERTEX
  8
LAYER-1
 10
0.297043
 20
2.578537
 30
0.000000
  0
VERTEX
  8
LAYER-1
 10
0.309157
 20
2.565409
 30
0.000000
  0
SEQEND
  8
LAYER-1
  0
POLYLINE
  8
LAYER-1
 66
  1
 70
  1
 62
  7
 10
0.349438
 20
2.601302
 30
0.000000
  0
VERTEX
  8
LAYER-1
 10
0.349438
 20
2.601302
 30
0.000000
  0
VERTEX
  8
LAYER-1
 10
0.373507
 20
2.593525
 30
0.000000
  0
VERTEX
  8
LAYER-1
 10
0.378582
 20
2.621940
 30
0.000000
  0
SEQEND
  8
LAYER-1
  0
POLYLINE
  8
LAYER-1
 66
  1
 70
  1
 62
  7
 10
0.451031
 20
2.582159
 30
0.000000
  0
VERTEX
  8
LAYER-1
 10
0.451031
 20
2.582159
 30
0.000000
  0
VERTEX
  8
LAYER-1
 10
0.457032
 20
2.565108
 30
0.000000
  0
VERTEX
  8
LAYER-1
 10
0.462108
 20
2.593525
 30
0.000000
  0
SEQEND
  8
LAYER-1
  0
POLYLINE
  8
LAYER-1
 66
  1
 70
  1
 62
  7
 10
0.375238
 20
2.503121
 30
0.000000
  0
VERTEX
  8
LAYER-1
 10
0.375238
 20
2.503121
 30
0.000000
  0
VERTEX
  8
LAYER-1
 10
0.364307
 20
2.511131
 30
0.000000
  0
VERTEX
  8
LAYER-1
 10
0.346199
 20
2.500894
 30
0.000000
  0
SEQEND
  8
LAYER-1
  0
POLYLINE
  8
LAYER-1
 66
  1
 70
  1
 62
  7
 10
0.472992
 20
2.422061
 30
0.000000
  0
VERTEX
  8
LAYER-1
 10
0.472992
 20
2.422061
 30
0.000000
  0
VERTEX
  8
LAYER-1
 10
0.479910
 20
2.436836
 30
0.000000
  0
VERTEX
  8
LAYER-1
 10
0.468374
 20
2.449341
 30
0.000000
  0
SEQEND
  8
LAYER-1
  0
POLYLINE
  8
LAYER-1
 66
  1
 70
  1
 62
  7
 10
0.356911
 20
2.424162
 30
0.000000
  0
VERTEX
  8
LAYER-1
 10
0.356911
 20
2.424162
 30
0.000000
  0
VERTEX
  8
LAYER-1
 10
0.337570
 20
2.436462
 30
0.000000
  0
VERTEX
  8
LAYER-1
 10
0.294063
 20
2.420496
 30
0.000000
  0
SEQEND
  8
LAYER-1
  0
POLYLINE
  8
LAYER-1
 66
  1
 70
  1
 62
  7
 10
0.178330
 20
2.456347
 30
0.000000
  0
VERTEX
  8
LAYER-1
 10
0.178330
 20
2.456347
 30
0.000000
  0
VERTEX
  8
LAYER-1
 10
0.184631
 20
2.438443
 30
0.000000
  0
VERTEX
  8
LAYER-1
 10
0.189961
 20
2.468280
 30
0.000000
  0
SEQEND
  8
LAYER-1
  0
POLYLINE
  8
LAYER-1
 66
  1
 70
  1
 62
  7
 10
0.239027
 20
2.471030
 30
0.000000
  0
VERTEX
  8
LAYER-1
 10
0.239027
 20
2.471030
 30
0.000000
  0
VERTEX
  8
LAYER-1
 10
0.254437
 20
2.486080
 30
0.000000
  0
VERTEX
  8
LAYER-1
 10
0.230046
 20
2.521062
 30
0.000000
  0
SEQEND
  8
LAYER-1
  0
POLYLINE
  8
LAYER-1
 66
  1
 70
  1
 62
  7
 10
0.260857
 20
2.614855
 30
0.000000
  0
VERTEX
  8
LAYER-1
 10
0.260857
 20
2.614855
 30
0.000000
  0
VERTEX
  8
LAYER-1
 10
0.216689
 20
2.605423
 30
0.000000
  0
VERTEX
  8
LAYER-1
 10
0.239004
 20
2.597115
 30
0.000000
  0
SEQEND
  8
LAYER-1
  0
POLYLINE
  8
LAYER-1
 66
  1
 70
  1
 62
  7
 10
0.508533
 20
2.527142
 30
0.000000
  0
VERTEX
  8
LAYER-1
 10
0.508533
 20
2.527142
 30
0.000000
  0
VERTEX
  8
LAYER-1
 10
0.501263
 20
2.511628
 30
0.000000
  0
VERTEX
  8
LAYER-1
 10
0.513377
 20
2.498500
 30
0.000000
  0
SEQEND
  8
LAYER-1
  0
POLYLINE
  8
LAYER-1
 66
  1
 70
  1
 62
  7
 10
0.608212
 20
2.626408
 30
0.000000
  0
VERTEX
  8
LAYER-1
 10
0.608212
 20
2.626408
 30
0.000000
  0
VERTEX
  8
LAYER-1
 10
0.584326
 20
2.622507
 30
0.000000
  0
VERTEX
  8
LAYER-1
 10
0.612830
 20
2.599127
 30
0.000000
  0
SEQEND
  8
LAYER-1
  0
POLYLINE
  8
LAYER-1
 66
  1
 70
  1
 62
  7
 10
0.687639
 20
2.612842
 30
0.000000
  0
VERTEX
  8
LAYER-1
 10
0.687639
 20
2.612842
 30
0.000000
  0
VERTEX
  8
LAYER-1
 10
0.680370
 20
2.597326
 30
0.000000
  0
VERTEX
  8
LAYER-1
 10
0.692486
 20
2.584200
 30
0.000000
  0
SEQEND
  8
LAYER-1
  0
POLYLINE
  8
LAYER-1
 66
  1
 70
  1
 62
  7
 10
0.790032
 20
2.621213
 30
0.000000
  0
VERTEX
  8
LAYER-1
 10
0.790032
 20
2.621213
 30
0.000000
  0
VERTEX
  8
LAYER-1
 10
0.805548
 20
2.613946
 30
0.000000
  0
VERTEX
  8
LAYER-1
 10
0.818676
 20
2.626061
 30
0.000000
  0
SEQEND
  8
LAYER-1
  0
POLYLINE
  8
LAYER-1
 66
  1
 70
  1
 62
  7
 10
0.762679
 20
2.543418
 30
0.000000
  0
VERTEX
  8
LAYER-1
 10
0.762679
 20
2.543418
 30
0.000000
  0
VERTEX
  8
LAYER-1
 10
0.786744
 20
2.535640
 30
0.000000
  0
VERTEX
  8
LAYER-1
 10
0.791821
 20
2.564056
 30
0.000000
  0
SEQEND
  8
LAYER-1
  0
POLYLINE
  8
LAYER-1
 66
  1
 70
  1
 62
  7
 10
0.901495
 20
2.496099
 30
0.000000
  0
VERTEX
  8
LAYER-1
 10
0.901495
 20
2.496099
 30
0.000000
  0
VERTEX
  8
LAYER-1
 10
0.882156
 20
2.508400
 30
0.000000
  0
VERTEX
  8
LAYER-1
 10
0.838648
 20
2.492432
 30
0.000000
  0
SEQEND
  8
LAYER-1
  0
POLYLINE
  8
LAYER-1
 66
  1
 70
  1
 62
  7
 10
0.801788
 20
2.424447
 30
0.000000
  0
VERTEX
  8
LAYER-1
 10
0.801788
 20
2.424447
 30
0.000000
  0
VERTEX
  8
LAYER-1
 10
0.795488
 20
2.442350
 30
0.000000
  0
VERTEX
  8
LAYER-1
 10
0.790159
 20
2.412515
 30
0.000000
  0
SEQEND
  8
LAYER-1
  0
POLYLINE
  8
LAYER-1
 66
  1
 70
  1
 62
  7
 10
0.617398
 20
2.436656
 30
0.000000
  0
VERTEX
  8
LAYER-1
 10
0.617398
 20
2.436656
 30
0.000000
  0
VERTEX
  8
LAYER-1
 10
0.605918
 20
2.445070
 30
0.000000
  0
VERTEX
  8
LAYER-1
 10
0.586907
 20
2.434317
 30
0.000000
  0
SEQEND
  8
LAYER-1
  0
POLYLINE
  8
LAYER-1
 66
  1
 70
  1
 62
  7
 10
0.666592
 20
2.396914
 30
0.000000
  0
VERTEX
  8
LAYER-1
 10
0.666592
 20
2.396914
 30
0.000000
  0
VERTEX
  8
LAYER-1
 10
0.681999
 20
2.411963
 30
0.000000
  0
VERTEX
  8
LAYER-1
 10
0.657610
 20
2.446947
 30
0.000000
  0
SEQEND
  8
LAYER-1
  0
POLYLINE
  8
LAYER-1
 66
  1
 70
  1
 62
  7
 10
0.651615
 20
2.536516
 30
0.000000
  0
VERTEX
  8
LAYER-1
 10
0.651615
 20
2.536516
 30
0.000000
  0
VERTEX
  8
LAYER-1
 10
0.579829
 20
2.532523
 30
0.000000
  0
VERTEX
  8
LAYER-1
 10
0.601386
 20
2.515572
 30
0.000000
  0
SEQEND
  8
LAYER-1
  0
POLYLINE
  8
LAYER-1
 66
  1
 70
  1
 62
  7
 10
0.949152
 20
2.557675
 30
0.000000
  0
VERTEX
  8
LAYER-1
 10
0.949152
 20
2.557675
 30
0.000000
  0
VERTEX
  8
LAYER-1
 10
0.955452
 20
2.539774
 30
0.000000
  0
VERTEX
  8
LAYER-1
 10
0.960782
 20
2.569610
 30
0.000000
  0
SEQEND
  8
LAYER-1
  0
POLYLINE
  8
LAYER-1
 66
  1
 70
  1
 62
  7
 10
1.014233
 20
2.619439
 30
0.000000
  0
VERTEX
  8
LAYER-1
 10
1.014233
 20
2.619439
 30
0.000000
  0
VERTEX
  8
LAYER-1
 10
0.990344
 20
2.615538
 30
0.000000
  0
VERTEX
  8
LAYER-1
 10
1.018848
 20
2.592160
 30
0.000000
  0
SEQEND
  8
LAYER-1
  0
POLYLINE
  8
LAYER-1
 66
  1
 70
  1
 62
  7
 10
1.218099
 20
2.589355
 30
0.000000
  0
VERTEX
  8
LAYER-1
 10
1.218099
 20
2.589355
 30
0.000000
  0
VERTEX
  8
LAYER-1
 10
1.210832
 20
2.573841
 30
0.000000
  0
VERTEX
  8
LAYER-1
 10
1.222947
 20
2.560712
 30
0.000000
  0
SEQEND
  8
LAYER-1
  0
POLYLINE
  8
LAYER-1
 66
  1
 70
  1
 62
  7
 10
1.263229
 20
2.596605
 30
0.000000
  0
VERTEX
  8
LAYER-1
 10
1.263229
 20
2.596605
 30
0.000000
  0
VERTEX
  8
LAYER-1
 10
1.287296
 20
2.588828
 30
0.000000
  0
VERTEX
  8
LAYER-1
 10
1.292373
 20
2.617245
 30
0.000000
  0
SEQEND
  8
LAYER-1
  0
POLYLINE
  8
LAYER-1
 66
  1
 70
  1
 62
  7
 10
1.364821
 20
2.577463
 30
0.000000
  0
VERTEX
  8
LAYER-1
 10
1.364821
 20
2.577463
 30
0.000000
  0
VERTEX
  8
LAYER-1
 10
1.407975
 20
2.542123
 30
0.000000
  0
VERTEX
  8
LAYER-1
 10
1.416569
 20
2.554536
 30
0.000000
  0
SEQEND
  8
LAYER-1
  0
POLYLINE
  8
LAYER-1
 66
  1
 70
  1
 62
  7
 10
1.341326
 20
2.447485
 30
0.000000
  0
VERTEX
  8
LAYER-1
 10
1.341326
 20
2.447485
 30
0.000000
  0
VERTEX
  8
LAYER-1
 10
1.335327
 20
2.464535
 30
0.000000
  0
VERTEX
  8
LAYER-1
 10
1.330250
 20
2.436119
 30
0.000000
  0
SEQEND
  8
LAYER-1
  0
POLYLINE
  8
LAYER-1
 66
  1
 70
  1
 62
  7
 10
1.226950
 20
2.467249
 30
0.000000
  0
VERTEX
  8
LAYER-1
 10
1.226950
 20
2.467249
 30
0.000000
  0
VERTEX
  8
LAYER-1
 10
1.246289
 20
2.454947
 30
0.000000
  0
VERTEX
  8
LAYER-1
 10
1.289798
 20
2.470915
 30
0.000000
  0
SEQEND
  8
LAYER-1
  0
POLYLINE
  8
LAYER-1
 66
  1
 70
  1
 62
  7
 10
1.182419
 20
2.417367
 30
0.000000
  0
VERTEX
  8
LAYER-1
 10
1.182419
 20
2.417367
 30
0.000000
  0
VERTEX
  8
LAYER-1
 10
1.176121
 20
2.435268
 30
0.000000
  0
VERTEX
  8
LAYER-1
 10
1.170792
 20
2.405434
 30
0.000000
  0
SEQEND
  8
LAYER-1
  0
POLYLINE
  8
LAYER-1
 66
  1
 70
  1
 62
  7
 10
0.930883
 20
2.457025
 30
0.000000
  0
VERTEX
  8
LAYER-1
 10
0.930883
 20
2.457025
 30
0.000000
  0
VERTEX
  8
LAYER-1
 10
0.941873
 20
2.424753
 30
0.000000
  0
VERTEX
  8
LAYER-1
 10
0.954917
 20
2.467629
 30
0.000000
  0
SEQEND
  8
LAYER-1
  0
POLYLINE
  8
LAYER-1
 66
  1
 70
  1
 62
  7
 10
0.998029
 20
2.429574
 30
0.000000
  0
VERTEX
  8
LAYER-1
 10
0.998029
 20
2.429574
 30
0.000000
  0
VERTEX
  8
LAYER-1
 10
0.986548
 20
2.437989
 30
0.000000
  0
VERTEX
  8
LAYER-1
 10
0.967536
 20
2.427236
 30
0.000000
  0
SEQEND
  8
LAYER-1
  0
POLYLINE
  8
LAYER-1
 66
  1
 70
  1
 62
  7
 10
1.117865
 20
2.497276
 30
0.000000
  0
VERTEX
  8
LAYER-1
 10
1.117865
 20
2.497276
 30
0.000000
  0
VERTEX
  8
LAYER-1
 10
1.135770
 20
2.503576
 30
0.000000
  0
VERTEX
  8
LAYER-1
 10
1.105933
 20
2.508906
 30
0.000000
  0
SEQEND
  8
LAYER-1
  0
POLYLINE
  8
LAYER-1
 66
  1
 70
  1
 62
  7
 10
1.072610
 20
2.389946
 30
0.000000
  0
VERTEX
  8
LAYER-1
 10
1.072610
 20
2.389946
 30
0.000000
  0
VERTEX
  8
LAYER-1
 10
1.088018
 20
2.404995
 30
0.000000
  0
VERTEX
  8
LAYER-1
 10
1.063628
 20
2.439978
 30
0.000000
  0
SEQEND
  8
LAYER-1
  0
POLYLINE
  8
LAYER-1
 66
  1
 70
  1
 62
  7
 10
1.174648
 20
2.610159
 30
0.000000
  0
VERTEX
  8
LAYER-1
 10
1.174648
 20
2.610159
 30
0.000000
  0
VERTEX
  8
LAYER-1
 10
1.130481
 20
2.600726
 30
0.000000
  0
VERTEX
  8
LAYER-1
 10
1.152797
 20
2.592419
 30
0.000000
  0
SEQEND
  8
LAYER-1
  0
POLYLINE
  8
LAYER-1
 66
  1
 70
  1
 62
  7
 10
1.477184
 20
2.567672
 30
0.000000
  0
VERTEX
  8
LAYER-1
 10
1.477184
 20
2.567672
 30
0.000000
  0
VERTEX
  8
LAYER-1
 10
1.505420
 20
2.527497
 30
0.000000
  0
VERTEX
  8
LAYER-1
 10
1.482029
 20
2.539030
 30
0.000000
  0
SEQEND
  8
LAYER-1
  0
POLYLINE
  8
LAYER-1
 66
  1
 70
  1
 62
  7
 10
1.522003
 20
2.621710
 30
0.000000
  0
VERTEX
  8
LAYER-1
 10
1.522003
 20
2.621710
 30
0.000000
  0
VERTEX
  8
LAYER-1
 10
1.498116
 20
2.617811
 30
0.000000
  0
VERTEX
  8
LAYER-1
 10
1.526619
 20
2.594430
 30
0.000000
  0
SEQEND
  8
LAYER-1
  0
POLYLINE
  8
LAYER-1
 66
  1
 70
  1
 62
  7
 10
1.585896
 20
2.595037
 30
0.000000
  0
VERTEX
  8
LAYER-1
 10
1.585896
 20
2.595037
 30
0.000000
  0
VERTEX
  8
LAYER-1
 10
1.601414
 20
2.587767
 30
0.000000
  0
VERTEX
  8
LAYER-1
 10
1.614540
 20
2.599883
 30
0.000000
  0
SEQEND
  8
LAYER-1
  0
POLYLINE
  8
LAYER-1
 66
  1
 70
  1
 62
  7
 10
1.512904
 20
2.419752
 30
0.000000
  0
VERTEX
  8
LAYER-1
 10
1.512904
 20
2.419752
 30
0.000000
  0
VERTEX
  8
LAYER-1
 10
1.521318
 20
2.431230
 30
0.000000
  0
VERTEX
  8
LAYER-1
 10
1.510567
 20
2.450244
 30
0.000000
  0
SEQEND
  8
LAYER-1
  0
POLYLINE
  8
LAYER-1
 66
  1
 70
  1
 62
  7
 10
1.603838
 20
2.477038
 30
0.000000
  0
VERTEX
  8
LAYER-1
 10
1.603838
 20
2.477038
 30
0.000000
  0
VERTEX
  8
LAYER-1
 10
1.588787
 20
2.492447
 30
0.000000
  0
VERTEX
  8
LAYER-1
 10
1.553806
 20
2.468058
 30
0.000000
  0
SEQEND
  8
LAYER-1
  0
POLYLINE
  8
LAYER-1
 66
  1
 70
  1
 62
  7
 10
1.715578
 20
2.419752
 30
0.000000
  0
VERTEX
  8
LAYER-1
 10
1.715578
 20
2.419752
 30
0.000000
  0
VERTEX
  8
LAYER-1
 10
1.709279
 20
2.437653
 30
0.000000
  0
VERTEX
  8
LAYER-1
 10
1.703951
 20
2.407819
 30
0.000000
  0
SEQEND
  8
LAYER-1
  0
POLYLINE
  8
LAYER-1
 66
  1
 70
  1
 62
  7
 10
1.414350
 20
2.445410
 30
0.000000
  0
VERTEX
  8
LAYER-1
 10
1.414350
 20
2.445410
 30
0.000000
  0
VERTEX
  8
LAYER-1
 10
1.425338
 20
2.413136
 30
0.000000
  0
VERTEX
  8
LAYER-1
 10
1.438381
 20
2.456013
 30
0.000000
  0
SEQEND
  8
LAYER-1
  0
POLYLINE
  8
LAYER-1
 66
  1
 70
  1
 62
  7
 10
1.681391
 20
2.507416
 30
0.000000
  0
VERTEX
  8
LAYER-1
 10
1.681391
 20
2.507416
 30
0.000000
  0
VERTEX
  8
LAYER-1
 10
1.677398
 20
2.579203
 30
0.000000
  0
VERTEX
  8
LAYER-1
 10
1.660447
 20
2.557646
 30
0.000000
  0
SEQEND
  8
LAYER-1
  0
POLYLINE
  8
LAYER-1
 66
  1
 70
  1
 62
  7
  0
VERTEX
  8
LAYER-1
 10
0.790331
 20
6.216957
 30
0.000000
  0
VERTEX
  8
LAYER-1
 10
0.860065
 20
6.216957
 30
0.000000
  0
VERTEX
  8
LAYER-1
 10
0.860065
 20
2.653790
 30
0.000000
  0
VERTEX
  8
LAYER-1
 10
0.790331
 20
2.653790
 30
0.000000
  0
SEQEND
  8
LAYER-1
  0
POLYLINE
  8
LAYER-1
 66
  1
 70
  1
 62
  7
  0
VERTEX
  8
LAYER-1
 10
0.918374
 20
6.216659
 30
0.000000
  0
VERTEX
  8
LAYER-1
 10
0.934015
 20
6.216659
 30
0.000000
  0
VERTEX
  8
LAYER-1
 10
0.934015
 20
2.655288
 30
0.000000
  0
VERTEX
  8
LAYER-1
 10
0.918374
 20
2.655288
 30
0.000000
  0
SEQEND
  8
LAYER-1
  0
LINE
  8
LAYER-1
 62
  7
 10
0.246439
 20
6.236273
 30
0.000000
 11
0.246439
 21
6.981313
 31
0.000000
  0
LINE
  8
LAYER-1
 62
  7
 10
0.727831
 20
6.216587
 30
0.000000
 11
0.121439
 21
6.216587
 31
0.000000
  0
LINE
  8
LAYER-1
 62
  7
 10
0.727508
 20
7.000998
 30
0.000000
 11
0.121439
 21
7.000998
 31
0.000000
  0
LINE
  8
LAYER-1
 62
  7
 10
0.246439
 20
6.781827
 30
0.000000
 11
0.246439
 21
6.216587
 31
0.000000
  0
POLYLINE
  8
LAYER-1
 66
  1
 70
  1
 62
  7
  0
VERTEX
  8
LAYER-1
 10
0.246439
 20
6.216587
 30
0.000000
  0
VERTEX
  8
LAYER-1
 10
0.273712
 20
6.262042
 30
0.000000
  0
VERTEX
  8
LAYER-1
 10
0.246439
 20
6.262042
 30
0.000000
  0
VERTEX
  8
LAYER-1
 10
0.219166
 20
6.262042
 30
0.000000
  0
VERTEX
  8
LAYER-1
 10
0.246439
 20
6.216587
 30
0.000000
  0
SEQEND
  8
LAYER-1
  0
POLYLINE
  8
LAYER-1
 66
  1
 70
  1
 62
  7
  0
VERTEX
  8
LAYER-1
 10
0.246439
 20
7.000998
 30
0.000000
  0
VERTEX
  8
LAYER-1
 10
0.273711
 20
6.955544
 30
0.000000
  0
VERTEX
  8
LAYER-1
 10
0.246439
 20
6.955544
 30
0.000000
  0
VERTEX
  8
LAYER-1
 10
0.219166
 20
6.955544
 30
0.000000
  0
VERTEX
  8
LAYER-1
 10
0.246439
 20
7.000998
 30
0.000000
  0
SEQEND
  8
LAYER-1
  0
TEXT
  8
LAYER-1
 62
  7
 10
0.145872
 20
6.414909
 30
0.000000
 40
0.095455
  1
"Y"
 50
90.000000
  0
LINE
  8
LAYER-1
 62
  7
 10
0.246367
 20
2.673964
 30
0.000000
 11
0.246367
 21
6.196902
 31
0.000000
  0
LINE
  8
LAYER-1
 62
  7
 10
0.132557
 20
2.654279
 30
0.000000
 11
0.371367
 21
2.654279
 31
0.000000
  0
LINE
  8
LAYER-1
 62
  7
 10
0.727831
 20
6.216587
 30
0.000000
 11
0.121367
 21
6.216587
 31
0.000000
  0
LINE
  8
LAYER-1
 62
  7
 10
0.246367
 20
5.360042
 30
0.000000
 11
0.246367
 21
2.654279
 31
0.000000
  0
POLYLINE
  8
LAYER-1
 66
  1
 70
  1
 62
  7
  0
VERTEX
  8
LAYER-1
 10
0.246367
 20
2.654279
 30
0.000000
  0
VERTEX
  8
LAYER-1
 10
0.273640
 20
2.699733
 30
0.000000
  0
VERTEX
  8
LAYER-1
 10
0.246367
 20
2.699733
 30
0.000000
  0
VERTEX
  8
LAYER-1
 10
0.219094
 20
2.699733
 30
0.000000
  0
VERTEX
  8
LAYER-1
 10
0.246367
 20
2.654279
 30
0.000000
  0
SEQEND
  8
LAYER-1
  0
POLYLINE
  8
LAYER-1
 66
  1
 70
  1
 62
  7
  0
VERTEX
  8
LAYER-1
 10
0.246367
 20
6.216587
 30
0.000000
  0
VERTEX
  8
LAYER-1
 10
0.273639
 20
6.171133
 30
0.000000
  0
VERTEX
  8
LAYER-1
 10
0.246367
 20
6.171133
 30
0.000000
  0
VERTEX
  8
LAYER-1
 10
0.219094
 20
6.171133
 30
0.000000
  0
VERTEX
  8
LAYER-1
 10
0.246367
 20
6.216587
 30
0.000000
  0
SEQEND
  8
LAYER-1
  0
TEXT
  8
LAYER-1
 62
  7
 10
0.150054
 20
5.167553
 30
0.000000
 40
0.081818
  1
 
 50
90.000000
  0
POLYLINE
  8
LAYER-1
 66
  1
 70
  1
 62
  7
  0
VERTEX
  8
LAYER-1
 10
0.790331
 20
7.001109
 30
0.000000
  0
VERTEX
  8
LAYER-1
 10
1.476786
 20
7.001109
 30
0.000000
  0
VERTEX
  8
LAYER-1
 10
1.476786
 20
6.216587
 30
0.000000
  0
VERTEX
  8
LAYER-1
 10
0.790331
 20
6.216587
 30
0.000000
  0
SEQEND
  8
LAYER-1
  0
CIRCLE
  8
LAYER-1
 62
  7
 10
0.863880
 20
6.927560
 30
0.000000
 40
0.013790
  0
CIRCLE
  8
LAYER-1
 62
  7
 10
0.839366
 20
6.608851
 30
0.000000
 40
0.009806
  0
CIRCLE
  8
LAYER-1
 62
  7
 10
0.839366
 20
6.265619
 30
0.000000
 40
0.009806
  0
CIRCLE
  8
LAYER-1
 62
  7
 10
1.134684
 20
6.632717
 30
0.000000
 40
0.159301
  0
POLYLINE
  8
LAYER-1
  6
LTYPE02
 66
  1
 70
  0
 62
  7
  6
LTYPE02
 10
0.890419
 20
6.208208
 30
0.000000
  0
VERTEX
  8
LAYER-1
  6
LTYPE02
 10
0.890419
 20
6.208208
 30
0.000000
  0
VERTEX
  8
LAYER-1
  6
LTYPE02
 10
0.890837
 20
2.822763
 30
0.000000
  0
SEQEND
  8
LAYER-1
  0
POLYLINE
  8
LAYER-1
  6
LTYPE02
 66
  1
 70
  0
 62
  7
  6
LTYPE02
 10
1.251248
 20
6.749280
 30
0.000000
  0
VERTEX
  8
LAYER-1
  6
LTYPE02
 10
1.251248
 20
6.749280
 30
0.000000
  0
VERTEX
  8
LAYER-1
  6
LTYPE02
 10
1.224299
 20
6.771750
 30
0.000000
  0
VERTEX
  8
LAYER-1
  6
LTYPE02
 10
1.195799
 20
6.786984
 30
0.000000
  0
VERTEX
  8
LAYER-1
  6
LTYPE02
 10
1.164875
 20
6.796365
 30
0.000000
  0
VERTEX
  8
LAYER-1
  6
LTYPE02
 10
1.132715
 20
6.799532
 30
0.000000
  0
VERTEX
  8
LAYER-1
  6
LTYPE02
 10
1.100555
 20
6.796365
 30
0.000000
  0
VERTEX
  8
LAYER-1
  6
LTYPE02
 10
1.069631
 20
6.786984
 30
0.000000
  0
VERTEX
  8
LAYER-1
  6
LTYPE02
 10
1.041132
 20
6.771750
 30
0.000000
  0
VERTEX
  8
LAYER-1
  6
LTYPE02
 10
1.016151
 20
6.751250
 30
0.000000
  0
VERTEX
  8
LAYER-1
  6
LTYPE02
 10
0.995651
 20
6.726269
 30
0.000000
  0
VERTEX
  8
LAYER-1
  6
LTYPE02
 10
0.980417
 20
6.697769
 30
0.000000
  0
VERTEX
  8
LAYER-1
  6
LTYPE02
 10
0.974805
 20
6.672874
 30
0.000000
  0
SEQEND
  8
LAYER-1
  0
POLYLINE
  8
LAYER-1
  6
LTYPE02
 66
  1
 70
  0
 62
  7
  6
LTYPE02
 10
0.974805
 20
6.672874
 30
0.000000
  0
VERTEX
  8
LAYER-1
  6
LTYPE02
 10
0.974805
 20
6.672874
 30
0.000000
  0
VERTEX
  8
LAYER-1
  6
LTYPE02
 10
0.926743
 20
6.501811
 30
0.000000
  0
VERTEX
  8
LAYER-1
  6
LTYPE02
 10
0.897833
 20
6.325095
 30
0.000000
  0
VERTEX
  8
LAYER-1
  6
LTYPE02
 10
0.890419
 20
6.208208
 30
0.000000
  0
SEQEND
  8
LAYER-1
  0
POLYLINE
  8
LAYER-1
 66
  1
 70
  1
 62
  7
  0
VERTEX
  8
LAYER-1
 10
0.790008
 20
8.241303
 30
0.000000
  0
VERTEX
  8
LAYER-1
 10
0.934015
 20
8.241303
 30
0.000000
  0
VERTEX
  8
LAYER-1
 10
0.934015
 20
7.000998
 30
0.000000
  0
VERTEX
  8
LAYER-1
 10
0.790008
 20
7.000998
 30
0.000000
  0
SEQEND
  8
LAYER-1
  0
POLYLINE
  8
LAYER-1
 66
  1
 70
  1
 62
  7
  0
VERTEX
  8
LAYER-1
 10
0.059158
 20
8.314624
 30
0.000000
  0
VERTEX
  8
LAYER-1
 10
1.720783
 20
8.314624
 30
0.000000
  0
VERTEX
  8
LAYER-1
 10
1.720783
 20
8.232581
 30
0.000000
  0
VERTEX
  8
LAYER-1
 10
0.059158
 20
8.232581
 30
0.000000
  0
SEQEND
  8
LAYER-1
  0
LINE
  8
LAYER-1
 62
  7
 10
0.790484
 20
4.470664
 30
0.000000
 11
0.890240
 21
4.470664
 31
0.000000
  0
LINE
  8
LAYER-1
 62
  7
 10
0.790484
 20
4.452127
 30
0.000000
 11
0.790484
 21
4.595664
 31
0.000000
  0
LINE
  8
LAYER-1
 62
  7
 10
0.890240
 20
4.445345
 30
0.000000
 11
0.890240
 21
4.595664
 31
0.000000
  0
LINE
  8
LAYER-1
 62
  7
 10
0.890240
 20
4.470664
 30
0.000000
 11
1.584210
 21
4.470664
 31
0.000000
  0
LINE
  8
LAYER-1
 62
  7
 10
0.809769
 20
4.489949
 30
0.000000
 11
0.771200
 21
4.451379
 31
0.000000
  0
LINE
  8
LAYER-1
 62
  7
 10
0.909524
 20
4.489949
 30
0.000000
 11
0.870955
 21
4.451379
 31
0.000000
  0
TEXT
  8
LAYER-1
 62
  7
 10
1.487081
 20
4.550102
 30
0.000000
 40
0.068182
  1
 
  0
POLYLINE
  8
LAYER-1
  6
LTYPE01
 66
  1
 70
  0
 62
  7
  6
LTYPE01
 10
0.934015
 20
7.000998
 30
0.000000
  0
VERTEX
  8
LAYER-1
  6
LTYPE01
 10
0.934015
 20
7.000998
 30
0.000000
  0
VERTEX
  8
LAYER-1
  6
LTYPE01
 10
0.934015
 20
6.215578
 30
0.000000
  0
SEQEND
  8
LAYER-1
  0
TEXT
  8
LAYER-1
 62
  7
 10
1.024948
 20
7.349171
 30
0.000000
 40
0.122727
  1
"X"
 72
  5
 11
1.288585
 21
7.349171
 31
0.000000
  0
CIRCLE
  8
LAYER-1
 62
253
  6
LTYPE01
 10
1.134700
 20
6.630580
 30
0.000000
 40
0.042413
  0
POLYLINE
  8
LAYER-1
 66
  1
 70
  1
 62
  7
 10
0.923347
 20
2.701893
 30
0.000000
  0
VERTEX
  8
LAYER-1
 10
0.923347
 20
2.701893
 30
0.000000
  0
VERTEX
  8
LAYER-1
 10
0.923347
 20
2.822518
 30
0.000000
  0
VERTEX
  8
LAYER-1
 10
0.853033
 20
2.822518
 30
0.000000
  0
VERTEX
  8
LAYER-1
 10
0.853033
 20
2.701893
 30
0.000000
  0
VERTEX
  8
LAYER-1
 10
0.821679
 20
2.683791
 30
0.000000
  0
VERTEX
  8
LAYER-1
 10
0.821679
 20
2.655286
 30
0.000000
  0
VERTEX
  8
LAYER-1
 10
0.954701
 20
2.655286
 30
0.000000
  0
VERTEX
  8
LAYER-1
 10
0.954701
 20
2.683791
 30
0.000000
  0
SEQEND
  8
LAYER-1
  0
LINE
  8
LAYER-1
 62
  7
 10
0.809692
 20
7.315638
 30
0.000000
 11
1.457101
 21
7.315637
 31
0.000000
  0
LINE
  8
LAYER-1
 62
  7
 10
0.790008
 20
7.063498
 30
0.000000
 11
0.790008
 21
7.440637
 31
0.000000
  0
LINE
  8
LAYER-1
 62
  7
 10
1.476786
 20
7.063609
 30
0.000000
 11
1.476786
 21
7.440637
 31
0.000000
  0
POLYLINE
  8
LAYER-1
 66
  1
 70
  1
 62
  7
  0
VERTEX
  8
LAYER-1
 10
0.790008
 20
7.315637
 30
0.000000
  0
VERTEX
  8
LAYER-1
 10
0.835462
 20
7.288365
 30
0.000000
  0
VERTEX
  8
LAYER-1
 10
0.835462
 20
7.315638
 30
0.000000
  0
VERTEX
  8
LAYER-1
 10
0.835462
 20
7.342910
 30
0.000000
  0
VERTEX
  8
LAYER-1
 10
0.790008
 20
7.315637
 30
0.000000
  0
SEQEND
  8
LAYER-1
  0
POLYLINE
  8
LAYER-1
 66
  1
 70
  1
 62
  7
  0
VERTEX
  8
LAYER-1
 10
1.476786
 20
7.315637
 30
0.000000
  0
VERTEX
  8
LAYER-1
 10
1.431331
 20
7.288364
 30
0.000000
  0
VERTEX
  8
LAYER-1
 10
1.431331
 20
7.315637
 30
0.000000
  0
VERTEX
  8
LAYER-1
 10
1.431331
 20
7.342910
 30
0.000000
  0
VERTEX
  8
LAYER-1
 10
1.476786
 20
7.315637
 30
0.000000
  0
SEQEND
  8
LAYER-1
  0
TEXT
  8
LAYER-1
 62
  7
 10
1.140625
 20
7.416243
 30
0.000000
 40
0.095455
  1
 
  0
TEXT
  8
LAYER-1
 62
  7
 10
1.197675
 20
4.540080
 30
0.000000
 40
0.122727
  1
"Z"
 72
  5
 11
1.452221
 21
4.540080
 31
0.000000
  0
POLYLINE
  8
LAYER-1
 66
  1
 70
  0
 62
  7
 40
0.018182
 41
0.018182
 10
1.725631
 20
2.654442
 30
0.000000
  0
VERTEX
  8
LAYER-1
 10
1.725631
 20
2.654442
 30
0.000000
  0
VERTEX
  8
LAYER-1
 10
0.070057
 20
2.654279
 30
0.000000
  0
SEQEND
  8
LAYER-1
  0
POLYLINE
  8
LAYER-1
 66
  1
 70
  0
 62
  7
 10
0.986397
 20
1.383984
 30
0.000000
  0
VERTEX
  8
LAYER-1
 10
0.986397
 20
1.383984
 30
0.000000
  0
VERTEX
  8
LAYER-1
 10
0.899389
 20
1.297995
 30
0.000000
  0
SEQEND
  8
LAYER-1
  0
POLYLINE
  8
LAYER-1
 66
  1
 70
  1
 62
  7
  0
VERTEX
  8
LAYER-1
 10
0.885388
 20
1.284157
 30
0.000000
  0
VERTEX
  8
LAYER-1
 10
0.898547
 20
1.335507
 30
0.000000
  0
VERTEX
  8
LAYER-1
 10
0.917718
 20
1.316109
 30
0.000000
  0
VERTEX
  8
LAYER-1
 10
0.936888
 20
1.296711
 30
0.000000
  0
VERTEX
  8
LAYER-1
 10
0.885388
 20
1.284157
 30
0.000000
  0
SEQEND
  8
LAYER-1
  0
POLYLINE
  8
LAYER-1
  6
LTYPE05
 66
  1
 70
  0
 62
  7
  6
LTYPE05
 10
0.487858
 20
2.023310
 30
0.000000
  0
VERTEX
  8
LAYER-1
  6
LTYPE05
 10
0.487858
 20
2.023310
 30
0.000000
  0
VERTEX
  8
LAYER-1
  6
LTYPE05
 10
0.488058
 20
0.663215
 30
0.000000
  0
SEQEND
  8
LAYER-1
  0
LINE
  8
LAYER-1
 62
  7
 10
0.090177
 20
0.551771
 30
0.000000
 11
0.468373
 21
0.551771
 31
0.000000
  0
LINE
  8
LAYER-1
 62
  7
 10
0.070492
 20
1.180641
 30
0.000000
 11
0.070492
 21
0.426771
 31
0.000000
  0
LINE
  8
LAYER-1
 62
  7
 10
0.488058
 20
0.600715
 30
0.000000
 11
0.488058
 21
0.426771
 31
0.000000
  0
POLYLINE
  8
LAYER-1
 66
  1
 70
  1
 62
  7
  0
VERTEX
  8
LAYER-1
 10
0.070492
 20
0.551771
 30
0.000000
  0
VERTEX
  8
LAYER-1
 10
0.115947
 20
0.524498
 30
0.000000
  0
VERTEX
  8
LAYER-1
 10
0.115947
 20
0.551771
 30
0.000000
  0
VERTEX
  8
LAYER-1
 10
0.115947
 20
0.579044
 30
0.000000
  0
VERTEX
  8
LAYER-1
 10
0.070492
 20
0.551771
 30
0.000000
  0
SEQEND
  8
LAYER-1
  0
POLYLINE
  8
LAYER-1
 66
  1
 70
  1
 62
  7
  0
VERTEX
  8
LAYER-1
 10
0.488058
 20
0.551771
 30
0.000000
  0
VERTEX
  8
LAYER-1
 10
0.442604
 20
0.524498
 30
0.000000
  0
VERTEX
  8
LAYER-1
 10
0.442604
 20
0.551771
 30
0.000000
  0
VERTEX
  8
LAYER-1
 10
0.442604
 20
0.579044
 30
0.000000
  0
VERTEX
  8
LAYER-1
 10
0.488058
 20
0.551771
 30
0.000000
  0
SEQEND
  8
LAYER-1
  0
TEXT
  8
LAYER-1
 62
  7
 10
0.203617
 20
0.400495
 30
0.000000
 40
0.081818
  1
"Z"
  0
TEXT
  8
LAYER-1
 62
  7
 10
0.797675
 20
1.940080
 30
0.000000
 40
0.102273
  1
TUBE
 72
  5
 11
1.197675
 21
1.940080
 31
0.000000
  0
TEXT
  8
LAYER-1
 62
  7
 10
0.797675
 20
1.785535
 30
0.000000
 40
0.102273
  1
SUPPORT
 72
  5
 11
1.497675
 21
1.785535
 31
0.000000
  0
POLYLINE
  8
LAYER-1
 66
  1
 70
  0
 62
  7
 10
0.777600
 20
1.989701
 30
0.000000
  0
VERTEX
  8
LAYER-1
 10
0.777600
 20
1.989701
 30
0.000000
  0
VERTEX
  8
LAYER-1
 10
0.676071
 20
1.924006
 30
0.000000
  0
SEQEND
  8
LAYER-1
  0
POLYLINE
  8
LAYER-1
 66
  1
 70
  1
 62
  7
  0
VERTEX
  8
LAYER-1
 10
0.659544
 20
1.913312
 30
0.000000
  0
VERTEX
  8
LAYER-1
 10
0.682890
 20
1.960903
 30
0.000000
  0
VERTEX
  8
LAYER-1
 10
0.697706
 20
1.938005
 30
0.000000
  0
VERTEX
  8
LAYER-1
 10
0.712522
 20
1.915108
 30
0.000000
  0
VERTEX
  8
LAYER-1
 10
0.659544
 20
1.913312
 30
0.000000
  0
SEQEND
  8
LAYER-1
  0
POLYLINE
  8
LAYER-1
 66
  1
 70
  0
 62
  7
 10
0.784544
 20
0.961923
 30
0.000000
  0
VERTEX
  8
LAYER-1
 10
0.784544
 20
0.961923
 30
0.000000
  0
VERTEX
  8
LAYER-1
 10
0.509225
 20
0.964739
 30
0.000000
  0
SEQEND
  8
LAYER-1
  0
POLYLINE
  8
LAYER-1
 66
  1
 70
  1
 62
  7
  0
VERTEX
  8
LAYER-1
 10
0.489541
 20
0.964941
 30
0.000000
  0
VERTEX
  8
LAYER-1
 10
0.535272
 20
0.991748
 30
0.000000
  0
VERTEX
  8
LAYER-1
 10
0.534993
 20
0.964476
 30
0.000000
  0
VERTEX
  8
LAYER-1
 10
0.534714
 20
0.937205
 30
0.000000
  0
VERTEX
  8
LAYER-1
 10
0.489541
 20
0.964941
 30
0.000000
  0
SEQEND
  8
LAYER-1
  0
POLYLINE
  8
LAYER-1
 66
  1
 70
  1
 62
  7
  0
VERTEX
  8
LAYER-1
 10
0.522029
 20
2.602276
 30
0.000000
  0
VERTEX
  8
LAYER-1
 10
1.201253
 20
2.602276
 30
0.000000
  0
VERTEX
  8
LAYER-1
 10
1.201253
 20
2.410870
 30
0.000000
  0
VERTEX
  8
LAYER-1
 10
0.522029
 20
2.410870
 30
0.000000
  0
SEQEND
  8
LAYER-1
  0
TEXT
  8
LAYER-1
 62
  7
 10
0.552221
 20
2.476444
 30
0.000000
 40
0.122727
  1
COUPE
 72
  5
 11
1.179494
 21
2.476444
 31
0.000000
  0
POLYLINE
  8
LAYER-1
 66
  1
 70
  1
 62
  7
 10
1.447382
 20
1.304399
 30
0.000000
  0
VERTEX
  8
LAYER-1
 10
1.447382
 20
1.304399
 30
0.000000
  0
VERTEX
  8
LAYER-1
 10
1.345820
 20
1.174190
 30
0.000000
  0
VERTEX
  8
LAYER-1
 10
1.478632
 20
1.214121
 30
0.000000
  0
VERTEX
  8
LAYER-1
 10
1.585403
 20
1.364295
 30
0.000000
  0
SEQEND
  8
LAYER-1
  0
POLYLINE
  8
LAYER-1
 66
  1
 70
  0
 62
  7
 10
1.556757
 20
1.366031
 30
0.000000
  0
VERTEX
  8
LAYER-1
 10
1.556757
 20
1.366031
 30
0.000000
  0
VERTEX
  8
LAYER-1
 10
1.479500
 20
1.257524
 30
0.000000
  0
SEQEND
  8
LAYER-1
  0
POLYLINE
  8
LAYER-1
 66
  1
 70
  0
 62
  7
 10
1.479500
 20
1.257524
 30
0.000000
  0
VERTEX
  8
LAYER-1
 10
1.479500
 20
1.257524
 30
0.000000
  0
VERTEX
  8
LAYER-1
 10
1.447382
 20
1.304399
 30
0.000000
  0
SEQEND
  8
LAYER-1
  0
POLYLINE
  8
LAYER-1
 66
  1
 70
  0
 62
  7
 10
1.447382
 20
1.304399
 30
0.000000
  0
VERTEX
  8
LAYER-1
 10
1.447382
 20
1.304399
 30
0.000000
  0
VERTEX
  8
LAYER-1
 10
1.345820
 20
1.174190
 30
0.000000
  0
SEQEND
  8
LAYER-1
  0
POLYLINE
  8
LAYER-1
 66
  1
 70
  0
 62
  7
 10
1.585403
 20
1.364295
 30
0.000000
  0
VERTEX
  8
LAYER-1
 10
1.585403
 20
1.364295
 30
0.000000
  0
VERTEX
  8
LAYER-1
 10
1.478632
 20
1.214121
 30
0.000000
  0
SEQEND
  8
LAYER-1
  0
POLYLINE
  8
LAYER-1
 66
  1
 70
  0
 62
  7
 10
1.478632
 20
1.214121
 30
0.000000
  0
VERTEX
  8
LAYER-1
 10
1.478632
 20
1.214121
 30
0.000000
  0
VERTEX
  8
LAYER-1
 10
1.443910
 20
1.262732
 30
0.000000
  0
SEQEND
  8
LAYER-1
  0
POLYLINE
  8
LAYER-1
 66
  1
 70
  0
 62
  7
 10
1.443910
 20
1.262732
 30
0.000000
  0
VERTEX
  8
LAYER-1
 10
1.443910
 20
1.262732
 30
0.000000
  0
VERTEX
  8
LAYER-1
 10
1.373598
 20
1.170719
 30
0.000000
  0
SEQEND
  8
LAYER-1
  0
POLYLINE
  8
LAYER-1
 66
  1
 70
  0
 62
  7
 10
0.477642
 20
7.835784
 30
0.000000
  0
VERTEX
  8
LAYER-1
 10
0.477642
 20
7.835784
 30
0.000000
  0
VERTEX
  8
LAYER-1
 10
0.770457
 20
7.835783
 30
0.000000
  0
SEQEND
  8
LAYER-1
  0
POLYLINE
  8
LAYER-1
 66
  1
 70
  1
 62
  7
  0
VERTEX
  8
LAYER-1
 10
0.790142
 20
7.835784
 30
0.000000
  0
VERTEX
  8
LAYER-1
 10
0.744688
 20
7.808511
 30
0.000000
  0
VERTEX
  8
LAYER-1
 10
0.744688
 20
7.835783
 30
0.000000
  0
VERTEX
  8
LAYER-1
 10
0.744687
 20
7.863056
 30
0.000000
  0
VERTEX
  8
LAYER-1
 10
0.790142
 20
7.835784
 30
0.000000
  0
SEQEND
  8
LAYER-1
  0
TEXT
  8
LAYER-1
 62
  7
 10
3.943130
 20
7.985535
 30
0.000000
 40
0.102273
  1
ROLL-126 
 72
  5
 11
4.643130
 21
7.985535
 31
0.000000
  0
TEXT
  8
LAYER-1
 62
  7
 10
4.643130
 20
7.985535
 30
0.000000
 40
0.061364
  1
&
 72
  5
 11
4.743130
 21
7.985535
 31
0.000000
  0
TEXT
  8
LAYER-1
 62
  7
 10
3.861312
 20
7.830989
 30
0.000000
 40
0.102273
  1
ROLL-GUARD
 72
  5
 11
4.779494
 21
7.830989
 31
0.000000
  0
TEXT
  8
LAYER-1
 62
  7
 10
3.952221
 20
5.212807
 30
0.000000
 40
0.102273
  1
ROLL-126 
 72
  5
 11
4.652221
 21
5.212807
 31
0.000000
  0
TEXT
  8
LAYER-1
 62
  7
 10
4.652221
 20
5.212807
 30
0.000000
 40
0.061364
  1
&
 72
  5
 11
4.752221
 21
5.212807
 31
0.000000
  0
TEXT
  8
LAYER-1
 62
  7
 10
3.870403
 20
5.058262
 30
0.000000
 40
0.102273
  1
ROLL-GUARD
 72
  5
 11
4.788585
 21
5.058262
 31
0.000000
  0
TEXT
  8
LAYER-1
 62
  7
 10
6.797675
 20
4.667353
 30
0.000000
 40
0.061364
  1
(arbre 1")
 72
  5
 11
7.188585
 21
4.667353
 31
0.000000
  0
TEXT
  8
LAYER-1
 62
  7
 10
6.715857
 20
4.321898
 30
0.000000
 40
0.061364
  1
(arbre 1 1/4")
 72
  5
 11
7.252221
 21
4.321898
 31
0.000000
  0
TEXT
  8
LAYER-1
 62
  7
 10
6.670403
 20
3.976444
 30
0.000000
 40
0.115909
  1
18" x 20"
 72
  5
 11
7.306766
 21
3.976444
 31
0.000000
  0
POLYLINE
  8
LAYER-1
 66
  1
 70
  0
 62
  7
 10
0.920609
 20
6.190857
 30
0.000000
  0
VERTEX
  8
LAYER-1
 10
0.920609
 20
6.190857
 30
0.000000
  0
VERTEX
  8
LAYER-1
 10
0.932328
 20
6.215252
 30
0.000000
  0
SEQEND
  8
LAYER-1
  0
POLYLINE
  8
LAYER-1
 66
  1
 70
  0
 62
  7
 10
0.920609
 20
6.190938
 30
0.000000
  0
VERTEX
  8
LAYER-1
 10
0.920609
 20
6.190938
 30
0.000000
  0
VERTEX
  8
LAYER-1
 10
0.917959
 20
6.191261
 30
0.000000
  0
VERTEX
  8
LAYER-1
 10
0.917423
 20
6.189563
 30
0.000000
  0
VERTEX
  8
LAYER-1
 10
0.917038
 20
6.187824
 30
0.000000
  0
VERTEX
  8
LAYER-1
 10
0.916805
 20
6.186058
 30
0.000000
  0
VERTEX
  8
LAYER-1
 10
0.918696
 20
6.182310
 30
0.000000
  0
SEQEND
  8
LAYER-1
  0
POLYLINE
  8
LAYER-1
 66
  1
 70
  0
 62
  7
 10
0.908312
 20
6.190490
 30
0.000000
  0
VERTEX
  8
LAYER-1
 10
0.908312
 20
6.190490
 30
0.000000
  0
VERTEX
  8
LAYER-1
 10
0.914021
 20
6.202374
 30
0.000000
  0
SEQEND
  8
LAYER-1
  0
POLYLINE
  8
LAYER-1
 66
  1
 70
  0
 62
  7
 10
0.908312
 20
6.190571
 30
0.000000
  0
VERTEX
  8
LAYER-1
 10
0.908312
 20
6.190571
 30
0.000000
  0
VERTEX
  8
LAYER-1
 10
0.905661
 20
6.190895
 30
0.000000
  0
VERTEX
  8
LAYER-1
 10
0.905126
 20
6.189196
 30
0.000000
  0
VERTEX
  8
LAYER-1
 10
0.904740
 20
6.187457
 30
0.000000
  0
VERTEX
  8
LAYER-1
 10
0.904508
 20
6.185691
 30
0.000000
  0
VERTEX
  8
LAYER-1
 10
0.906399
 20
6.181942
 30
0.000000
  0
SEQEND
  8
LAYER-1
  0
POLYLINE
  8
LAYER-1
 66
  1
 70
  0
 62
  7
 10
0.932328
 20
6.215252
 30
0.000000
  0
VERTEX
  8
LAYER-1
 10
0.932328
 20
6.215252
 30
0.000000
  0
VERTEX
  8
LAYER-1
 10
0.914021
 20
6.202374
 30
0.000000
  0
SEQEND
  8
LAYER-1
  0
POLYLINE
  8
LAYER-1
 66
  1
 70
  0
 62
  7
 10
0.918374
 20
6.216659
 30
0.000000
  0
VERTEX
  8
LAYER-1
 10
0.918374
 20
6.216659
 30
0.000000
  0
VERTEX
  8
LAYER-1
 10
0.918374
 20
6.205721
 30
0.000000
  0
SEQEND
  8
LAYER-1
  0
POLYLINE
  8
LAYER-1
 66
  1
 70
  0
 62
  7
 10
0.913999
 20
6.216659
 30
0.000000
  0
VERTEX
  8
LAYER-1
 10
0.913999
 20
6.216659
 30
0.000000
  0
VERTEX
  8
LAYER-1
 10
0.913999
 20
6.201783
 30
0.000000
  0
SEQEND
  8
LAYER-1
  0
POLYLINE
  8
LAYER-1
 66
  1
 70
  0
 62
  7
 10
0.907101
 20
6.178121
 30
0.000000
  0
VERTEX
  8
LAYER-1
 10
0.907101
 20
6.178121
 30
0.000000
  0
VERTEX
  8
LAYER-1
 10
0.925284
 20
6.178121
 30
0.000000
  0
SEQEND
  8
LAYER-1
  0
POLYLINE
  8
LAYER-1
 66
  1
 70
  0
 62
  7
 10
0.926668
 20
6.176738
 30
0.000000
  0
VERTEX
  8
LAYER-1
 10
0.926668
 20
6.176738
 30
0.000000
  0
VERTEX
  8
LAYER-1
 10
0.926668
 20
6.130546
 30
0.000000
  0
SEQEND
  8
LAYER-1
  0
POLYLINE
  8
LAYER-1
 66
  1
 70
  0
 62
  7
 10
0.925284
 20
6.129163
 30
0.000000
  0
VERTEX
  8
LAYER-1
 10
0.925284
 20
6.129163
 30
0.000000
  0
VERTEX
  8
LAYER-1
 10
0.907101
 20
6.129163
 30
0.000000
  0
SEQEND
  8
LAYER-1
  0
POLYLINE
  8
LAYER-1
 66
  1
 70
  0
 62
  7
 10
0.905717
 20
6.130546
 30
0.000000
  0
VERTEX
  8
LAYER-1
 10
0.905717
 20
6.130546
 30
0.000000
  0
VERTEX
  8
LAYER-1
 10
0.905717
 20
6.176738
 30
0.000000
  0
SEQEND
  8
LAYER-1
  0
ARC
  8
LAYER-1
 62
  7
 10
0.907101
 20
6.176738
 30
0.000000
 40
0.001383
 50
270.000000
 51
0.000000
  0
ARC
  8
LAYER-1
 62
  7
 10
0.907101
 20
6.130546
 30
0.000000
 40
0.001383
 50
0.000000
 51
90.000000
  0
ARC
  8
LAYER-1
 62
  7
 10
0.925284
 20
6.130546
 30
0.000000
 40
0.001383
 50
90.000000
 51
180.000000
  0
ARC
  8
LAYER-1
 62
  7
 10
0.925284
 20
6.176738
 30
0.000000
 40
0.001383
 50
180.000000
 51
270.000000
  0
POLYLINE
  8
LAYER-1
 66
  1
 70
  1
 62
  7
 10
0.925128
 20
6.130529
 30
0.000000
  0
VERTEX
  8
LAYER-1
 10
0.925128
 20
6.130529
 30
0.000000
  0
VERTEX
  8
LAYER-1
 10
0.906980
 20
6.130529
 30
0.000000
  0
VERTEX
  8
LAYER-1
 10
0.906980
 20
6.176872
 30
0.000000
  0
VERTEX
  8
LAYER-1
 10
0.925128
 20
6.176872
 30
0.000000
  0
SEQEND
  8
LAYER-1
  0
POLYLINE
  8
LAYER-1
 66
  1
 70
  0
 62
  7
 10
0.918971
 20
6.176872
 30
0.000000
  0
VERTEX
  8
LAYER-1
 10
0.918971
 20
6.176872
 30
0.000000
  0
VERTEX
  8
LAYER-1
 10
0.918971
 20
6.130529
 30
0.000000
  0
SEQEND
  8
LAYER-1
  0
POLYLINE
  8
LAYER-1
 66
  1
 70
  0
 62
  7
 10
0.925129
 20
6.176872
 30
0.000000
  0
VERTEX
  8
LAYER-1
 10
0.925129
 20
6.176872
 30
0.000000
  0
VERTEX
  8
LAYER-1
 10
0.920468
 20
6.146034
 30
0.000000
  0
VERTEX
  8
LAYER-1
 10
0.925129
 20
6.130528
 30
0.000000
  0
SEQEND
  8
LAYER-1
  0
POLYLINE
  8
LAYER-1
 66
  1
 70
  0
 62
  7
 10
0.906980
 20
6.176870
 30
0.000000
  0
VERTEX
  8
LAYER-1
 10
0.906980
 20
6.176870
 30
0.000000
  0
VERTEX
  8
LAYER-1
 10
0.913274
 20
6.174744
 30
0.000000
  0
VERTEX
  8
LAYER-1
 10
0.922011
 20
6.177690
 30
0.000000
  0
VERTEX
  8
LAYER-1
 10
0.925129
 20
6.176870
 30
0.000000
  0
SEQEND
  8
LAYER-1
  0
POLYLINE
  8
LAYER-1
 66
  1
 70
  0
 62
  7
 10
0.925129
 20
6.130529
 30
0.000000
  0
VERTEX
  8
LAYER-1
 10
0.925129
 20
6.130529
 30
0.000000
  0
VERTEX
  8
LAYER-1
 10
0.915433
 20
6.136814
 30
0.000000
  0
VERTEX
  8
LAYER-1
 10
0.906917
 20
6.134403
 30
0.000000
  0
VERTEX
  8
LAYER-1
 10
0.906980
 20
6.130529
 30
0.000000
  0
SEQEND
  8
LAYER-1
  0
POLYLINE
  8
LAYER-1
 66
  1
 70
  0
 62
  7
 10
0.906980
 20
6.130529
 30
0.000000
  0
VERTEX
  8
LAYER-1
 10
0.906980
 20
6.130529
 30
0.000000
  0
VERTEX
  8
LAYER-1
 10
0.908147
 20
6.163077
 30
0.000000
  0
VERTEX
  8
LAYER-1
 10
0.906980
 20
6.176872
 30
0.000000
  0
SEQEND
  8
LAYER-1
  0
POLYLINE
  8
LAYER-1
 66
  1
 70
  0
 62
  7
 10
0.070492
 20
1.311126
 30
0.000000
  0
VERTEX
  8
LAYER-1
 10
0.070492
 20
1.311126
 30
0.000000
  0
VERTEX
  8
LAYER-1
 10
0.070492
 20
1.876851
 30
0.000000
  0
SEQEND
  8
LAYER-1
  0
POLYLINE
  8
LAYER-1
 66
  1
 70
  0
 62
  7
 10
0.101802
 20
1.908161
 30
0.000000
  0
VERTEX
  8
LAYER-1
 10
0.101802
 20
1.908161
 30
0.000000
  0
VERTEX
  8
LAYER-1
 10
0.667099
 20
1.908161
 30
0.000000
  0
SEQEND
  8
LAYER-1
  0
POLYLINE
  8
LAYER-1
 66
  1
 70
  0
 62
  7
 10
0.698409
 20
1.876851
 30
0.000000
  0
VERTEX
  8
LAYER-1
 10
0.698409
 20
1.876851
 30
0.000000
  0
VERTEX
  8
LAYER-1
 10
0.698409
 20
1.311126
 30
0.000000
  0
SEQEND
  8
LAYER-1
  0
POLYLINE
  8
LAYER-1
 66
  1
 70
  0
 62
  7
 10
0.667099
 20
1.279816
 30
0.000000
  0
VERTEX
  8
LAYER-1
 10
0.667099
 20
1.279816
 30
0.000000
  0
VERTEX
  8
LAYER-1
 10
0.101802
 20
1.279816
 30
0.000000
  0
SEQEND
  8
LAYER-1
  0
ARC
  8
LAYER-1
 62
  7
 10
0.101802
 20
1.311126
 30
0.000000
 40
0.031310
 50
180.000000
 51
270.000000
  0
ARC
  8
LAYER-1
 62
  7
 10
0.667099
 20
1.311126
 30
0.000000
 40
0.031310
 50
270.000000
 51
0.000000
  0
ARC
  8
LAYER-1
 62
  7
 10
0.667099
 20
1.876851
 30
0.000000
 40
0.031310
 50
0.000000
 51
90.000000
  0
ARC
  8
LAYER-1
 62
  7
 10
0.101802
 20
1.876851
 30
0.000000
 40
0.031310
 50
90.000000
 51
180.000000
  0
POLYLINE
  8
LAYER-1
 66
  1
 70
  0
 62
  7
 10
0.095829
 20
1.805846
 30
0.000000
  0
VERTEX
  8
LAYER-1
 10
0.095829
 20
1.805846
 30
0.000000
  0
VERTEX
  8
LAYER-1
 10
0.070063
 20
1.782492
 30
0.000000
  0
SEQEND
  8
LAYER-1
  0
POLYLINE
  8
LAYER-1
 66
  1
 70
  0
 62
  7
 10
0.095829
 20
1.585534
 30
0.000000
  0
VERTEX
  8
LAYER-1
 10
0.095829
 20
1.585534
 30
0.000000
  0
VERTEX
  8
LAYER-1
 10
0.070063
 20
1.562571
 30
0.000000
  0
SEQEND
  8
LAYER-1
  0
POLYLINE
  8
LAYER-1
 66
  1
 70
  0
 62
  7
 10
0.095829
 20
1.524596
 30
0.000000
  0
VERTEX
  8
LAYER-1
 10
0.095829
 20
1.524596
 30
0.000000
  0
VERTEX
  8
LAYER-1
 10
0.070063
 20
1.499738
 30
0.000000
  0
SEQEND
  8
LAYER-1
  0
POLYLINE
  8
LAYER-1
 66
  1
 70
  0
 62
  7
 10
0.128641
 20
1.305846
 30
0.000000
  0
VERTEX
  8
LAYER-1
 10
0.128641
 20
1.305846
 30
0.000000
  0
VERTEX
  8
LAYER-1
 10
0.101481
 20
1.279816
 30
0.000000
  0
SEQEND
  8
LAYER-1
  0
POLYLINE
  8
LAYER-1
 66
  1
 70
  0
 62
  7
 10
0.222391
 20
1.305846
 30
0.000000
  0
VERTEX
  8
LAYER-1
 10
0.222391
 20
1.305846
 30
0.000000
  0
VERTEX
  8
LAYER-1
 10
0.195733
 20
1.279816
 30
0.000000
  0
SEQEND
  8
LAYER-1
  0
POLYLINE
  8
LAYER-1
 66
  1
 70
  0
 62
  7
 10
0.567704
 20
1.305846
 30
0.000000
  0
VERTEX
  8
LAYER-1
 10
0.567704
 20
1.305846
 30
0.000000
  0
VERTEX
  8
LAYER-1
 10
0.541321
 20
1.279816
 30
0.000000
  0
SEQEND
  8
LAYER-1
  0
POLYLINE
  8
LAYER-1
 66
  1
 70
  0
 62
  7
 10
0.441141
 20
1.305846
 30
0.000000
  0
VERTEX
  8
LAYER-1
 10
0.441141
 20
1.305846
 30
0.000000
  0
VERTEX
  8
LAYER-1
 10
0.415652
 20
1.279816
 30
0.000000
  0
SEQEND
  8
LAYER-1
  0
POLYLINE
  8
LAYER-1
 66
  1
 70
  0
 62
  7
 10
0.096766
 20
1.324766
 30
0.000000
  0
VERTEX
  8
LAYER-1
 10
0.096766
 20
1.324766
 30
0.000000
  0
VERTEX
  8
LAYER-1
 10
0.096766
 20
1.863220
 30
0.000000
  0
SEQEND
  8
LAYER-1
  0
POLYLINE
  8
LAYER-1
 66
  1
 70
  0
 62
  7
 10
0.114655
 20
1.881108
 30
0.000000
  0
VERTEX
  8
LAYER-1
 10
0.114655
 20
1.881108
 30
0.000000
  0
VERTEX
  8
LAYER-1
 10
0.653106
 20
1.881108
 30
0.000000
  0
SEQEND
  8
LAYER-1
  0
POLYLINE
  8
LAYER-1
 66
  1
 70
  0
 62
  7
 10
0.670995
 20
1.863220
 30
0.000000
  0
VERTEX
  8
LAYER-1
 10
0.670995
 20
1.863220
 30
0.000000
  0
VERTEX
  8
LAYER-1
 10
0.670995
 20
1.324766
 30
0.000000
  0
SEQEND
  8
LAYER-1
  0
POLYLINE
  8
LAYER-1
 66
  1
 70
  0
 62
  7
 10
0.653106
 20
1.306878
 30
0.000000
  0
VERTEX
  8
LAYER-1
 10
0.653106
 20
1.306878
 30
0.000000
  0
VERTEX
  8
LAYER-1
 10
0.114655
 20
1.306878
 30
0.000000
  0
SEQEND
  8
LAYER-1
  0
ARC
  8
LAYER-1
 62
  7
 10
0.114655
 20
1.324766
 30
0.000000
 40
0.017888
 50
180.000000
 51
270.000000
  0
ARC
  8
LAYER-1
 62
  7
 10
0.653106
 20
1.324766
 30
0.000000
 40
0.017888
 50
270.000000
 51
0.000000
  0
ARC
  8
LAYER-1
 62
  7
 10
0.653106
 20
1.863220
 30
0.000000
 40
0.017888
 50
0.000000
 51
90.000000
  0
ARC
  8
LAYER-1
 62
  7
 10
0.114655
 20
1.863220
 30
0.000000
 40
0.017888
 50
90.000000
 51
180.000000
  0
TEXT
  8
LAYER-1
 62
  7
 10
0.424948
 20
1.521898
 30
0.000000
 40
0.102273
  1
C
 72
  5
 11
0.570403
 21
1.521898
 31
0.000000
  0
TEXT
  8
LAYER-1
 62
  7
 10
0.461312
 20
1.467353
 30
0.000000
 40
0.102273
  1
L
 72
  5
 11
0.579494
 21
1.467353
 31
0.000000
  0
POLYLINE
  8
LAYER-1
 66
  1
 70
  0
 62
  7
 10
0.195733
 20
1.908161
 30
0.000000
  0
VERTEX
  8
LAYER-1
 10
0.195733
 20
1.908161
 30
0.000000
  0
VERTEX
  8
LAYER-1
 10
0.167704
 20
1.880131
 30
0.000000
  0
SEQEND
  8
LAYER-1
  0
POLYLINE
  8
LAYER-1
 66
  1
 70
  0
 62
  7
 10
0.415652
 20
1.908161
 30
0.000000
  0
VERTEX
  8
LAYER-1
 10
0.415652
 20
1.908161
 30
0.000000
  0
VERTEX
  8
LAYER-1
 10
0.388338
 20
1.880846
 30
0.000000
  0
SEQEND
  8
LAYER-1
  0
POLYLINE
  8
LAYER-1
 66
  1
 70
  0
 62
  7
 10
0.478489
 20
1.908161
 30
0.000000
  0
VERTEX
  8
LAYER-1
 10
0.478489
 20
1.908161
 30
0.000000
  0
VERTEX
  8
LAYER-1
 10
0.451174
 20
1.880846
 30
0.000000
  0
SEQEND
  8
LAYER-1
  0
POLYLINE
  8
LAYER-1
 66
  1
 70
  0
 62
  7
 10
0.698409
 20
1.876744
 30
0.000000
  0
VERTEX
  8
LAYER-1
 10
0.698409
 20
1.876744
 30
0.000000
  0
VERTEX
  8
LAYER-1
 10
0.669698
 20
1.848034
 30
0.000000
  0
SEQEND
  8
LAYER-1
  0
POLYLINE
  8
LAYER-1
 66
  1
 70
  0
 62
  7
 10
0.698409
 20
1.782492
 30
0.000000
  0
VERTEX
  8
LAYER-1
 10
0.698409
 20
1.782492
 30
0.000000
  0
VERTEX
  8
LAYER-1
 10
0.670201
 20
1.754284
 30
0.000000
  0
SEQEND
  8
LAYER-1
  0
POLYLINE
  8
LAYER-1
 66
  1
 70
  0
 62
  7
 10
0.698409
 20
1.562571
 30
0.000000
  0
VERTEX
  8
LAYER-1
 10
0.698409
 20
1.562571
 30
0.000000
  0
VERTEX
  8
LAYER-1
 10
0.671100
 20
1.535263
 30
0.000000
  0
SEQEND
  8
LAYER-1
  0
POLYLINE
  8
LAYER-1
 66
  1
 70
  0
 62
  7
 10
0.698409
 20
1.436900
 30
0.000000
  0
VERTEX
  8
LAYER-1
 10
0.698409
 20
1.436900
 30
0.000000
  0
VERTEX
  8
LAYER-1
 10
0.670829
 20
1.409321
 30
0.000000
  0
SEQEND
  8
LAYER-1
  0
TEXT
  8
LAYER-1
 62
  7
 10
0.834039
 20
5.012807
 30
0.000000
 40
0.095455
  1
C
 72
  5
 11
0.970403
 21
5.012807
 31
0.000000
  0
TEXT
  8
LAYER-1
 62
  7
 10
0.870403
 20
4.976444
 30
0.000000
 40
0.095455
  1
L
 72
  5
 11
0.988585
 21
4.976444
 31
0.000000
  0
POLYLINE
  8
LAYER-1
 66
  1
 70
  0
 62
  7
 10
4.220520
 20
2.280224
 30
0.000000
  0
VERTEX
  8
LAYER-1
 10
4.220520
 20
2.280224
 30
0.000000
  0
VERTEX
  8
LAYER-1
 10
7.451213
 20
2.280224
 30
0.000000
  0
SEQEND
  8
LAYER-1
  0
POLYLINE
  8
LAYER-1
 66
  1
 70
  0
 62
  7
 10
4.220520
 20
2.620224
 30
0.000000
  0
VERTEX
  8
LAYER-1
 10
4.220520
 20
2.620224
 30
0.000000
  0
VERTEX
  8
LAYER-1
 10
7.451213
 20
2.620224
 30
0.000000
  0
SEQEND
  8
LAYER-1
  0
POLYLINE
  8
LAYER-1
 66
  1
 70
  0
 62
  7
 40
0.018182
 41
0.018182
 10
4.220520
 20
2.960224
 30
0.000000
  0
VERTEX
  8
LAYER-1
 10
4.220520
 20
2.960224
 30
0.000000
  0
VERTEX
  8
LAYER-1
 10
7.451213
 20
2.960224
 30
0.000000
  0
SEQEND
  8
LAYER-1
  0
POLYLINE
  8
LAYER-1
 66
  1
 70
  0
 62
  7
 40
0.018182
 41
0.018182
 10
4.220520
 20
1.940226
 30
0.000000
  0
VERTEX
  8
LAYER-1
 10
4.220520
 20
1.940226
 30
0.000000
  0
VERTEX
  8
LAYER-1
 10
7.451213
 20
1.940226
 30
0.000000
  0
SEQEND
  8
LAYER-1
  0
POLYLINE
  8
LAYER-1
 66
  1
 70
  0
 62
  7
 40
0.018182
 41
0.018182
 10
2.075035
 20
1.380537
 30
0.000000
  0
VERTEX
  8
LAYER-1
 10
2.075035
 20
1.380537
 30
0.000000
  0
VERTEX
  8
LAYER-1
 10
7.449618
 20
1.380537
 30
0.000000
  0
SEQEND
  8
LAYER-1
  0
POLYLINE
  8
LAYER-1
 66
  1
 70
  0
 62
  7
 10
2.075035
 20
0.922480
 30
0.000000
  0
VERTEX
  8
LAYER-1
 10
2.075035
 20
0.922480
 30
0.000000
  0
VERTEX
  8
LAYER-1
 10
7.449618
 20
0.922480
 30
0.000000
  0
SEQEND
  8
LAYER-1
  0
POLYLINE
  8
LAYER-1
 66
  1
 70
  0
 62
  7
 10
2.075035
 20
0.582480
 30
0.000000
  0
VERTEX
  8
LAYER-1
 10
2.075035
 20
0.582480
 30
0.000000
  0
VERTEX
  8
LAYER-1
 10
7.449618
 20
0.582480
 30
0.000000
  0
SEQEND
  8
LAYER-1
  0
POLYLINE
  8
LAYER-1
 66
  1
 70
  0
 62
  7
 40
0.018182
 41
0.018182
 10
2.075035
 20
0.242478
 30
0.000000
  0
VERTEX
  8
LAYER-1
 10
2.075035
 20
0.242478
 30
0.000000
  0
VERTEX
  8
LAYER-1
 10
7.449618
 20
0.242478
 30
0.000000
  0
SEQEND
  8
LAYER-1
  0
POLYLINE
  8
LAYER-1
 66
  1
 70
  0
 62
  7
 10
4.220520
 20
2.757410
 30
0.000000
  0
VERTEX
  8
LAYER-1
 10
4.220520
 20
2.757410
 30
0.000000
  0
VERTEX
  8
LAYER-1
 10
6.524996
 20
2.757410
 30
0.000000
  0
SEQEND
  8
LAYER-1
  0
POLYLINE
  8
LAYER-1
 66
  1
 70
  0
 62
  7
 10
5.379162
 20
2.757410
 30
0.000000
  0
VERTEX
  8
LAYER-1
 10
5.379162
 20
2.757410
 30
0.000000
  0
VERTEX
  8
LAYER-1
 10
5.379162
 20
1.940691
 30
0.000000
  0
SEQEND
  8
LAYER-1
  0
TEXT
  8
LAYER-1
 62
  7
 10
5.597675
 20
2.394626
 30
0.000000
 40
0.115909
  1
jusqu'ê 7'
 72
  5
 11
6.252221
 21
2.394626
 31
0.000000
  0
TEXT
  8
LAYER-1
 62
  7
 10
5.724948
 20
2.076444
 30
0.000000
 40
0.115909
  1
7' ê 12'
 72
  5
 11
6.243130
 21
2.076444
 31
0.000000
  0
TEXT
  8
LAYER-1
 62
  7
 10
4.434039
 20
2.394626
 30
0.000000
 40
0.115909
  1
jusqu'ê 6'
 72
  5
 11
5.088585
 21
2.394626
 31
0.000000
  0
TEXT
  8
LAYER-1
 62
  7
 10
4.552221
 20
2.076444
 30
0.000000
 40
0.115909
  1
6' ê 10'
 72
  5
 11
5.070403
 21
2.076444
 31
0.000000
  0
TEXT
  8
LAYER-1
 62
  7
 10
5.634039
 20
2.658262
 30
0.000000
 40
0.075000
  1
SANS CAPOT
 72
  5
 11
6.288585
 21
2.658262
 31
0.000000
  0
TEXT
  8
LAYER-1
 62
  7
 10
4.470403
 20
2.658262
 30
0.000000
 40
0.075000
  1
AVEC CAPOT
 72
  5
 11
5.124948
 21
2.658262
 31
0.000000
  0
POLYLINE
  8
LAYER-1
 66
  1
 70
  0
 62
  7
 10
0.317399
 20
0.827023
 30
0.000000
  0
VERTEX
  8
LAYER-1
 10
0.317399
 20
0.827023
 30
0.000000
  0
VERTEX
  8
LAYER-1
 10
0.317399
 20
0.728356
 30
0.000000
  0
SEQEND
  8
LAYER-1
  0
POLYLINE
  8
LAYER-1
 66
  1
 70
  0
 62
  7
 10
0.317399
 20
0.827023
 30
0.000000
  0
VERTEX
  8
LAYER-1
 10
0.317399
 20
0.827023
 30
0.000000
  0
VERTEX
  8
LAYER-1
 10
0.317379
 20
0.833323
 30
0.000000
  0
SEQEND
  8
LAYER-1
  0
POLYLINE
  8
LAYER-1
 66
  1
 70
  0
 62
  7
 10
0.317379
 20
0.833323
 30
0.000000
  0
VERTEX
  8
LAYER-1
 10
0.317379
 20
0.833323
 30
0.000000
  0
VERTEX
  8
LAYER-1
 10
0.317379
 20
1.053032
 30
0.000000
  0
SEQEND
  8
LAYER-1
  0
POLYLINE
  8
LAYER-1
 66
  1
 70
  0
 62
  7
 10
0.317379
 20
1.053032
 30
0.000000
  0
VERTEX
  8
LAYER-1
 10
0.317379
 20
1.053032
 30
0.000000
  0
VERTEX
  8
LAYER-1
 10
0.317379
 20
1.059331
 30
0.000000
  0
SEQEND
  8
LAYER-1
  0
POLYLINE
  8
LAYER-1
 66
  1
 70
  0
 62
  7
 10
0.317379
 20
1.059331
 30
0.000000
  0
VERTEX
  8
LAYER-1
 10
0.317379
 20
1.059331
 30
0.000000
  0
VERTEX
  8
LAYER-1
 10
0.317379
 20
1.276665
 30
0.000000
  0
SEQEND
  8
LAYER-1
  0
POLYLINE
  8
LAYER-1
 66
  1
 70
  0
 62
  7
 10
0.320529
 20
1.279815
 30
0.000000
  0
VERTEX
  8
LAYER-1
 10
0.320529
 20
1.279815
 30
0.000000
  0
VERTEX
  8
LAYER-1
 10
0.317379
 20
1.276665
 30
0.000000
  0
SEQEND
  8
LAYER-1
  0
POLYLINE
  8
LAYER-1
 66
  1
 70
  0
 62
  7
 10
0.337359
 20
1.263063
 30
0.000000
  0
VERTEX
  8
LAYER-1
 10
0.337359
 20
1.263063
 30
0.000000
  0
VERTEX
  8
LAYER-1
 10
0.320529
 20
1.279816
 30
0.000000
  0
SEQEND
  8
LAYER-1
  0
POLYLINE
  8
LAYER-1
 66
  1
 70
  0
 62
  7
 10
0.337359
 20
1.263063
 30
0.000000
  0
VERTEX
  8
LAYER-1
 10
0.337359
 20
1.263063
 30
0.000000
  0
VERTEX
  8
LAYER-1
 10
0.334209
 20
1.259912
 30
0.000000
  0
SEQEND
  8
LAYER-1
  0
POLYLINE
  8
LAYER-1
 66
  1
 70
  0
 62
  7
 10
0.334208
 20
1.250523
 30
0.000000
  0
VERTEX
  8
LAYER-1
 10
0.334208
 20
1.250523
 30
0.000000
  0
VERTEX
  8
LAYER-1
 10
0.334208
 20
1.259912
 30
0.000000
  0
SEQEND
  8
LAYER-1
  0
POLYLINE
  8
LAYER-1
 66
  1
 70
  0
 62
  7
 10
0.334209
 20
1.250523
 30
0.000000
  0
VERTEX
  8
LAYER-1
 10
0.334209
 20
1.250523
 30
0.000000
  0
VERTEX
  8
LAYER-1
 10
0.337359
 20
1.247373
 30
0.000000
  0
SEQEND
  8
LAYER-1
  0
POLYLINE
  8
LAYER-1
 66
  1
 70
  0
 62
  7
 10
0.353588
 20
1.247372
 30
0.000000
  0
VERTEX
  8
LAYER-1
 10
0.353588
 20
1.247372
 30
0.000000
  0
VERTEX
  8
LAYER-1
 10
0.337359
 20
1.247372
 30
0.000000
  0
SEQEND
  8
LAYER-1
  0
POLYLINE
  8
LAYER-1
 66
  1
 70
  0
 62
  7
 10
0.356738
 20
1.244222
 30
0.000000
  0
VERTEX
  8
LAYER-1
 10
0.356738
 20
1.244222
 30
0.000000
  0
VERTEX
  8
LAYER-1
 10
0.353588
 20
1.247372
 30
0.000000
  0
SEQEND
  8
LAYER-1
  0
POLYLINE
  8
LAYER-1
 66
  1
 70
  0
 62
  7
 10
0.356738
 20
1.229522
 30
0.000000
  0
VERTEX
  8
LAYER-1
 10
0.356738
 20
1.229522
 30
0.000000
  0
VERTEX
  8
LAYER-1
 10
0.356738
 20
1.244222
 30
0.000000
  0
SEQEND
  8
LAYER-1
  0
POLYLINE
  8
LAYER-1
 66
  1
 70
  0
 62
  7
 10
0.353588
 20
1.226372
 30
0.000000
  0
VERTEX
  8
LAYER-1
 10
0.353588
 20
1.226372
 30
0.000000
  0
VERTEX
  8
LAYER-1
 10
0.356738
 20
1.229522
 30
0.000000
  0
SEQEND
  8
LAYER-1
  0
POLYLINE
  8
LAYER-1
 66
  1
 70
  0
 62
  7
 10
0.337328
 20
1.226372
 30
0.000000
  0
VERTEX
  8
LAYER-1
 10
0.337328
 20
1.226372
 30
0.000000
  0
VERTEX
  8
LAYER-1
 10
0.353588
 20
1.226372
 30
0.000000
  0
SEQEND
  8
LAYER-1
  0
POLYLINE
  8
LAYER-1
 66
  1
 70
  0
 62
  7
 10
0.337328
 20
1.226372
 30
0.000000
  0
VERTEX
  8
LAYER-1
 10
0.337328
 20
1.226372
 30
0.000000
  0
VERTEX
  8
LAYER-1
 10
0.334178
 20
1.223222
 30
0.000000
  0
SEQEND
  8
LAYER-1
  0
POLYLINE
  8
LAYER-1
 66
  1
 70
  0
 62
  7
 10
0.334178
 20
1.213712
 30
0.000000
  0
VERTEX
  8
LAYER-1
 10
0.334178
 20
1.213712
 30
0.000000
  0
VERTEX
  8
LAYER-1
 10
0.334178
 20
1.223222
 30
0.000000
  0
SEQEND
  8
LAYER-1
  0
POLYLINE
  8
LAYER-1
 66
  1
 70
  0
 62
  7
 10
0.334178
 20
1.213712
 30
0.000000
  0
VERTEX
  8
LAYER-1
 10
0.334178
 20
1.213712
 30
0.000000
  0
VERTEX
  8
LAYER-1
 10
0.337328
 20
1.210562
 30
0.000000
  0
SEQEND
  8
LAYER-1
  0
POLYLINE
  8
LAYER-1
 66
  1
 70
  0
 62
  7
 10
0.382995
 20
1.210562
 30
0.000000
  0
VERTEX
  8
LAYER-1
 10
0.382995
 20
1.210562
 30
0.000000
  0
VERTEX
  8
LAYER-1
 10
0.337328
 20
1.210562
 30
0.000000
  0
SEQEND
  8
LAYER-1
  0
POLYLINE
  8
LAYER-1
 66
  1
 70
  0
 62
  7
 10
0.386145
 20
1.207413
 30
0.000000
  0
VERTEX
  8
LAYER-1
 10
0.386145
 20
1.207413
 30
0.000000
  0
VERTEX
  8
LAYER-1
 10
0.382995
 20
1.210562
 30
0.000000
  0
SEQEND
  8
LAYER-1
  0
POLYLINE
  8
LAYER-1
 66
  1
 70
  0
 62
  7
 10
0.386145
 20
1.196913
 30
0.000000
  0
VERTEX
  8
LAYER-1
 10
0.386145
 20
1.196913
 30
0.000000
  0
VERTEX
  8
LAYER-1
 10
0.386145
 20
1.207413
 30
0.000000
  0
SEQEND
  8
LAYER-1
  0
POLYLINE
  8
LAYER-1
 66
  1
 70
  0
 62
  7
 10
0.382995
 20
1.193763
 30
0.000000
  0
VERTEX
  8
LAYER-1
 10
0.382995
 20
1.193763
 30
0.000000
  0
VERTEX
  8
LAYER-1
 10
0.386145
 20
1.196913
 30
0.000000
  0
SEQEND
  8
LAYER-1
  0
POLYLINE
  8
LAYER-1
 66
  1
 70
  0
 62
  7
 10
0.337361
 20
1.193762
 30
0.000000
  0
VERTEX
  8
LAYER-1
 10
0.337361
 20
1.193762
 30
0.000000
  0
VERTEX
  8
LAYER-1
 10
0.382995
 20
1.193762
 30
0.000000
  0
SEQEND
  8
LAYER-1
  0
POLYLINE
  8
LAYER-1
 66
  1
 70
  0
 62
  7
 10
0.337361
 20
1.193762
 30
0.000000
  0
VERTEX
  8
LAYER-1
 10
0.337361
 20
1.193762
 30
0.000000
  0
VERTEX
  8
LAYER-1
 10
0.334211
 20
1.190612
 30
0.000000
  0
SEQEND
  8
LAYER-1
  0
POLYLINE
  8
LAYER-1
 66
  1
 70
  0
 62
  7
 10
0.334211
 20
1.150124
 30
0.000000
  0
VERTEX
  8
LAYER-1
 10
0.334211
 20
1.150124
 30
0.000000
  0
VERTEX
  8
LAYER-1
 10
0.334211
 20
1.190612
 30
0.000000
  0
SEQEND
  8
LAYER-1
  0
POLYLINE
  8
LAYER-1
 66
  1
 70
  0
 62
  7
 10
0.334211
 20
1.150124
 30
0.000000
  0
VERTEX
  8
LAYER-1
 10
0.334211
 20
1.150124
 30
0.000000
  0
VERTEX
  8
LAYER-1
 10
0.337361
 20
1.146975
 30
0.000000
  0
SEQEND
  8
LAYER-1
  0
POLYLINE
  8
LAYER-1
 66
  1
 70
  0
 62
  7
 10
0.337359
 20
1.120657
 30
0.000000
  0
VERTEX
  8
LAYER-1
 10
0.337359
 20
1.120657
 30
0.000000
  0
VERTEX
  8
LAYER-1
 10
0.337361
 20
1.146975
 30
0.000000
  0
SEQEND
  8
LAYER-1
  0
POLYLINE
  8
LAYER-1
 66
  1
 70
  0
 62
  7
 10
0.337359
 20
1.120655
 30
0.000000
  0
VERTEX
  8
LAYER-1
 10
0.337359
 20
1.120655
 30
0.000000
  0
VERTEX
  8
LAYER-1
 10
0.334209
 20
1.117506
 30
0.000000
  0
SEQEND
  8
LAYER-1
  0
POLYLINE
  8
LAYER-1
 66
  1
 70
  0
 62
  7
 10
0.334208
 20
1.117506
 30
0.000000
  0
VERTEX
  8
LAYER-1
 10
0.334208
 20
1.117506
 30
0.000000
  0
VERTEX
  8
LAYER-1
 10
0.334208
 20
1.107066
 30
0.000000
  0
SEQEND
  8
LAYER-1
  0
POLYLINE
  8
LAYER-1
 66
  1
 70
  0
 62
  7
 10
0.334209
 20
1.107066
 30
0.000000
  0
VERTEX
  8
LAYER-1
 10
0.334209
 20
1.107066
 30
0.000000
  0
VERTEX
  8
LAYER-1
 10
0.337359
 20
1.103916
 30
0.000000
  0
SEQEND
  8
LAYER-1
  0
POLYLINE
  8
LAYER-1
 66
  1
 70
  0
 62
  7
 10
0.353588
 20
1.103916
 30
0.000000
  0
VERTEX
  8
LAYER-1
 10
0.353588
 20
1.103916
 30
0.000000
  0
VERTEX
  8
LAYER-1
 10
0.337359
 20
1.103916
 30
0.000000
  0
SEQEND
  8
LAYER-1
  0
POLYLINE
  8
LAYER-1
 66
  1
 70
  0
 62
  7
 10
0.356738
 20
1.100767
 30
0.000000
  0
VERTEX
  8
LAYER-1
 10
0.356738
 20
1.100767
 30
0.000000
  0
VERTEX
  8
LAYER-1
 10
0.353588
 20
1.103916
 30
0.000000
  0
SEQEND
  8
LAYER-1
  0
POLYLINE
  8
LAYER-1
 66
  1
 70
  0
 62
  7
 10
0.356738
 20
1.100767
 30
0.000000
  0
VERTEX
  8
LAYER-1
 10
0.356738
 20
1.100767
 30
0.000000
  0
VERTEX
  8
LAYER-1
 10
0.356738
 20
1.086066
 30
0.000000
  0
SEQEND
  8
LAYER-1
  0
POLYLINE
  8
LAYER-1
 66
  1
 70
  0
 62
  7
 10
0.353588
 20
1.082917
 30
0.000000
  0
VERTEX
  8
LAYER-1
 10
0.353588
 20
1.082917
 30
0.000000
  0
VERTEX
  8
LAYER-1
 10
0.356738
 20
1.086066
 30
0.000000
  0
SEQEND
  8
LAYER-1
  0
POLYLINE
  8
LAYER-1
 66
  1
 70
  0
 62
  7
 10
0.337328
 20
1.082917
 30
0.000000
  0
VERTEX
  8
LAYER-1
 10
0.337328
 20
1.082917
 30
0.000000
  0
VERTEX
  8
LAYER-1
 10
0.353588
 20
1.082917
 30
0.000000
  0
SEQEND
  8
LAYER-1
  0
POLYLINE
  8
LAYER-1
 66
  1
 70
  0
 62
  7
 10
0.337328
 20
1.082916
 30
0.000000
  0
VERTEX
  8
LAYER-1
 10
0.337328
 20
1.082916
 30
0.000000
  0
VERTEX
  8
LAYER-1
 10
0.334178
 20
1.079765
 30
0.000000
  0
SEQEND
  8
LAYER-1
  0
POLYLINE
  8
LAYER-1
 66
  1
 70
  0
 62
  7
 10
0.334178
 20
1.069206
 30
0.000000
  0
VERTEX
  8
LAYER-1
 10
0.334178
 20
1.069206
 30
0.000000
  0
VERTEX
  8
LAYER-1
 10
0.334178
 20
1.079765
 30
0.000000
  0
SEQEND
  8
LAYER-1
  0
POLYLINE
  8
LAYER-1
 66
  1
 70
  0
 62
  7
 10
0.334178
 20
1.069206
 30
0.000000
  0
VERTEX
  8
LAYER-1
 10
0.334178
 20
1.069206
 30
0.000000
  0
VERTEX
  8
LAYER-1
 10
0.337328
 20
1.066057
 30
0.000000
  0
SEQEND
  8
LAYER-1
  0
POLYLINE
  8
LAYER-1
 66
  1
 70
  0
 62
  7
 10
0.382995
 20
1.066057
 30
0.000000
  0
VERTEX
  8
LAYER-1
 10
0.382995
 20
1.066057
 30
0.000000
  0
VERTEX
  8
LAYER-1
 10
0.337328
 20
1.066057
 30
0.000000
  0
SEQEND
  8
LAYER-1
  0
POLYLINE
  8
LAYER-1
 66
  1
 70
  0
 62
  7
 10
0.386145
 20
1.062906
 30
0.000000
  0
VERTEX
  8
LAYER-1
 10
0.386145
 20
1.062906
 30
0.000000
  0
VERTEX
  8
LAYER-1
 10
0.382995
 20
1.066057
 30
0.000000
  0
SEQEND
  8
LAYER-1
  0
POLYLINE
  8
LAYER-1
 66
  1
 70
  0
 62
  7
 10
0.386145
 20
1.062906
 30
0.000000
  0
VERTEX
  8
LAYER-1
 10
0.386145
 20
1.062906
 30
0.000000
  0
VERTEX
  8
LAYER-1
 10
0.386145
 20
1.049255
 30
0.000000
  0
SEQEND
  8
LAYER-1
  0
POLYLINE
  8
LAYER-1
 66
  1
 70
  0
 62
  7
 10
0.382995
 20
1.046106
 30
0.000000
  0
VERTEX
  8
LAYER-1
 10
0.382995
 20
1.046106
 30
0.000000
  0
VERTEX
  8
LAYER-1
 10
0.386145
 20
1.049255
 30
0.000000
  0
SEQEND
  8
LAYER-1
  0
POLYLINE
  8
LAYER-1
 66
  1
 70
  0
 62
  7
 10
0.382995
 20
1.046106
 30
0.000000
  0
VERTEX
  8
LAYER-1
 10
0.382995
 20
1.046106
 30
0.000000
  0
VERTEX
  8
LAYER-1
 10
0.340511
 20
1.046106
 30
0.000000
  0
SEQEND
  8
LAYER-1
  0
POLYLINE
  8
LAYER-1
 66
  1
 70
  0
 62
  7
 10
0.340511
 20
1.046106
 30
0.000000
  0
VERTEX
  8
LAYER-1
 10
0.340511
 20
1.046106
 30
0.000000
  0
VERTEX
  8
LAYER-1
 10
0.337361
 20
1.042957
 30
0.000000
  0
SEQEND
  8
LAYER-1
  0
POLYLINE
  8
LAYER-1
 66
  1
 70
  0
 62
  7
 10
0.337361
 20
1.042957
 30
0.000000
  0
VERTEX
  8
LAYER-1
 10
0.337361
 20
1.042957
 30
0.000000
  0
VERTEX
  8
LAYER-1
 10
0.337361
 20
0.807117
 30
0.000000
  0
SEQEND
  8
LAYER-1
  0
POLYLINE
  8
LAYER-1
 66
  1
 70
  0
 62
  7
 10
0.337361
 20
0.807117
 30
0.000000
  0
VERTEX
  8
LAYER-1
 10
0.337361
 20
0.807117
 30
0.000000
  0
VERTEX
  8
LAYER-1
 10
0.340511
 20
0.803966
 30
0.000000
  0
SEQEND
  8
LAYER-1
  0
POLYLINE
  8
LAYER-1
 66
  1
 70
  0
 62
  7
 10
0.397612
 20
0.803966
 30
0.000000
  0
VERTEX
  8
LAYER-1
 10
0.397612
 20
0.803966
 30
0.000000
  0
VERTEX
  8
LAYER-1
 10
0.340511
 20
0.803966
 30
0.000000
  0
SEQEND
  8
LAYER-1
  0
POLYLINE
  8
LAYER-1
 66
  1
 70
  0
 62
  7
 10
0.409162
 20
0.792417
 30
0.000000
  0
VERTEX
  8
LAYER-1
 10
0.409162
 20
0.792417
 30
0.000000
  0
VERTEX
  8
LAYER-1
 10
0.403810
 20
0.802552
 30
0.000000
  0
VERTEX
  8
LAYER-1
 10
0.397612
 20
0.803966
 30
0.000000
  0
SEQEND
  8
LAYER-1
  0
POLYLINE
  8
LAYER-1
 66
  1
 70
  0
 62
  7
 10
0.409162
 20
0.779042
 30
0.000000
  0
VERTEX
  8
LAYER-1
 10
0.409162
 20
0.779042
 30
0.000000
  0
VERTEX
  8
LAYER-1
 10
0.409162
 20
0.792417
 30
0.000000
  0
SEQEND
  8
LAYER-1
  0
POLYLINE
  8
LAYER-1
 66
  1
 70
  0
 62
  7
 10
0.406011
 20
0.775892
 30
0.000000
  0
VERTEX
  8
LAYER-1
 10
0.406011
 20
0.775892
 30
0.000000
  0
VERTEX
  8
LAYER-1
 10
0.409162
 20
0.779042
 30
0.000000
  0
SEQEND
  8
LAYER-1
  0
POLYLINE
  8
LAYER-1
 66
  1
 70
  0
 62
  7
 10
0.404045
 20
0.775891
 30
0.000000
  0
VERTEX
  8
LAYER-1
 10
0.404045
 20
0.775891
 30
0.000000
  0
VERTEX
  8
LAYER-1
 10
0.406011
 20
0.775891
 30
0.000000
  0
SEQEND
  8
LAYER-1
  0
POLYLINE
  8
LAYER-1
 66
  1
 70
  0
 62
  7
 10
0.400895
 20
0.779042
 30
0.000000
  0
VERTEX
  8
LAYER-1
 10
0.400895
 20
0.779042
 30
0.000000
  0
VERTEX
  8
LAYER-1
 10
0.404045
 20
0.775892
 30
0.000000
  0
SEQEND
  8
LAYER-1
  0
POLYLINE
  8
LAYER-1
 66
  1
 70
  0
 62
  7
 10
0.400895
 20
0.779042
 30
0.000000
  0
VERTEX
  8
LAYER-1
 10
0.400895
 20
0.779042
 30
0.000000
  0
VERTEX
  8
LAYER-1
 10
0.400895
 20
0.789266
 30
0.000000
  0
SEQEND
  8
LAYER-1
  0
POLYLINE
  8
LAYER-1
 66
  1
 70
  0
 62
  7
 10
0.400895
 20
0.789266
 30
0.000000
  0
VERTEX
  8
LAYER-1
 10
0.400895
 20
0.789266
 30
0.000000
  0
VERTEX
  8
LAYER-1
 10
0.397745
 20
0.792415
 30
0.000000
  0
SEQEND
  8
LAYER-1
  0
POLYLINE
  8
LAYER-1
 66
  1
 70
  0
 62
  7
 10
0.397745
 20
0.792416
 30
0.000000
  0
VERTEX
  8
LAYER-1
 10
0.397745
 20
0.792416
 30
0.000000
  0
VERTEX
  8
LAYER-1
 10
0.385869
 20
0.792416
 30
0.000000
  0
SEQEND
  8
LAYER-1
  0
POLYLINE
  8
LAYER-1
 66
  1
 70
  0
 62
  7
 10
0.385869
 20
0.792415
 30
0.000000
  0
VERTEX
  8
LAYER-1
 10
0.385869
 20
0.792415
 30
0.000000
  0
VERTEX
  8
LAYER-1
 10
0.382719
 20
0.789266
 30
0.000000
  0
SEQEND
  8
LAYER-1
  0
POLYLINE
  8
LAYER-1
 66
  1
 70
  0
 62
  7
 10
0.382719
 20
0.789266
 30
0.000000
  0
VERTEX
  8
LAYER-1
 10
0.382719
 20
0.789266
 30
0.000000
  0
VERTEX
  8
LAYER-1
 10
0.382719
 20
0.779022
 30
0.000000
  0
SEQEND
  8
LAYER-1
  0
POLYLINE
  8
LAYER-1
 66
  1
 70
  0
 62
  7
 10
0.379565
 20
0.775872
 30
0.000000
  0
VERTEX
  8
LAYER-1
 10
0.379565
 20
0.775872
 30
0.000000
  0
VERTEX
  8
LAYER-1
 10
0.382719
 20
0.779022
 30
0.000000
  0
SEQEND
  8
LAYER-1
  0
POLYLINE
  8
LAYER-1
 66
  1
 70
  0
 62
  7
 10
0.379565
 20
0.775872
 30
0.000000
  0
VERTEX
  8
LAYER-1
 10
0.379565
 20
0.775872
 30
0.000000
  0
VERTEX
  8
LAYER-1
 10
0.364802
 20
0.775891
 30
0.000000
  0
SEQEND
  8
LAYER-1
  0
POLYLINE
  8
LAYER-1
 66
  1
 70
  0
 62
  7
 10
0.361656
 20
0.779042
 30
0.000000
  0
VERTEX
  8
LAYER-1
 10
0.361656
 20
0.779042
 30
0.000000
  0
VERTEX
  8
LAYER-1
 10
0.364802
 20
0.775892
 30
0.000000
  0
SEQEND
  8
LAYER-1
  0
POLYLINE
  8
LAYER-1
 66
  1
 70
  0
 62
  7
 10
0.361656
 20
0.779042
 30
0.000000
  0
VERTEX
  8
LAYER-1
 10
0.361656
 20
0.779042
 30
0.000000
  0
VERTEX
  8
LAYER-1
 10
0.361656
 20
0.789266
 30
0.000000
  0
SEQEND
  8
LAYER-1
  0
POLYLINE
  8
LAYER-1
 66
  1
 70
  0
 62
  7
 10
0.361656
 20
0.789266
 30
0.000000
  0
VERTEX
  8
LAYER-1
 10
0.361656
 20
0.789266
 30
0.000000
  0
VERTEX
  8
LAYER-1
 10
0.358506
 20
0.792415
 30
0.000000
  0
SEQEND
  8
LAYER-1
  0
POLYLINE
  8
LAYER-1
 66
  1
 70
  0
 62
  7
 10
0.358506
 20
0.792416
 30
0.000000
  0
VERTEX
  8
LAYER-1
 10
0.358506
 20
0.792416
 30
0.000000
  0
VERTEX
  8
LAYER-1
 10
0.332035
 20
0.792416
 30
0.000000
  0
SEQEND
  8
LAYER-1
  0
POLYLINE
  8
LAYER-1
 66
  1
 70
  0
 62
  7
 10
0.332035
 20
0.792415
 30
0.000000
  0
VERTEX
  8
LAYER-1
 10
0.332035
 20
0.792415
 30
0.000000
  0
VERTEX
  8
LAYER-1
 10
0.328885
 20
0.789266
 30
0.000000
  0
SEQEND
  8
LAYER-1
  0
POLYLINE
  8
LAYER-1
 66
  1
 70
  0
 62
  7
 10
0.328885
 20
0.728366
 30
0.000000
  0
VERTEX
  8
LAYER-1
 10
0.328885
 20
0.728366
 30
0.000000
  0
VERTEX
  8
LAYER-1
 10
0.328885
 20
0.789266
 30
0.000000
  0
SEQEND
  8
LAYER-1
  0
POLYLINE
  8
LAYER-1
 66
  1
 70
  0
 62
  7
 10
0.328885
 20
0.728366
 30
0.000000
  0
VERTEX
  8
LAYER-1
 10
0.328885
 20
0.728366
 30
0.000000
  0
VERTEX
  8
LAYER-1
 10
0.331160
 20
0.720088
 30
0.000000
  0
VERTEX
  8
LAYER-1
 10
0.343375
 20
0.713876
 30
0.000000
  0
SEQEND
  8
LAYER-1
  0
POLYLINE
  8
LAYER-1
 66
  1
 70
  0
 62
  7
 10
0.343375
 20
0.713876
 30
0.000000
  0
VERTEX
  8
LAYER-1
 10
0.343375
 20
0.713876
 30
0.000000
  0
VERTEX
  8
LAYER-1
 10
0.358506
 20
0.713876
 30
0.000000
  0
SEQEND
  8
LAYER-1
  0
POLYLINE
  8
LAYER-1
 66
  1
 70
  0
 62
  7
 10
0.358506
 20
0.713876
 30
0.000000
  0
VERTEX
  8
LAYER-1
 10
0.358506
 20
0.713876
 30
0.000000
  0
VERTEX
  8
LAYER-1
 10
0.361656
 20
0.717025
 30
0.000000
  0
SEQEND
  8
LAYER-1
  0
POLYLINE
  8
LAYER-1
 66
  1
 70
  0
 62
  7
 10
0.361656
 20
0.717025
 30
0.000000
  0
VERTEX
  8
LAYER-1
 10
0.361656
 20
0.717025
 30
0.000000
  0
VERTEX
  8
LAYER-1
 10
0.361656
 20
0.727282
 30
0.000000
  0
SEQEND
  8
LAYER-1
  0
POLYLINE
  8
LAYER-1
 66
  1
 70
  0
 62
  7
 10
0.364806
 20
0.730431
 30
0.000000
  0
VERTEX
  8
LAYER-1
 10
0.364806
 20
0.730431
 30
0.000000
  0
VERTEX
  8
LAYER-1
 10
0.361656
 20
0.727282
 30
0.000000
  0
SEQEND
  8
LAYER-1
  0
POLYLINE
  8
LAYER-1
 66
  1
 70
  0
 62
  7
 10
0.364806
 20
0.730431
 30
0.000000
  0
VERTEX
  8
LAYER-1
 10
0.364806
 20
0.730431
 30
0.000000
  0
VERTEX
  8
LAYER-1
 10
0.379569
 20
0.730431
 30
0.000000
  0
SEQEND
  8
LAYER-1
  0
POLYLINE
  8
LAYER-1
 66
  1
 70
  0
 62
  7
 10
0.382719
 20
0.727282
 30
0.000000
  0
VERTEX
  8
LAYER-1
 10
0.382719
 20
0.727282
 30
0.000000
  0
VERTEX
  8
LAYER-1
 10
0.379569
 20
0.730431
 30
0.000000
  0
SEQEND
  8
LAYER-1
  0
POLYLINE
  8
LAYER-1
 66
  1
 70
  0
 62
  7
 10
0.382719
 20
0.727282
 30
0.000000
  0
VERTEX
  8
LAYER-1
 10
0.382719
 20
0.727282
 30
0.000000
  0
VERTEX
  8
LAYER-1
 10
0.382719
 20
0.717025
 30
0.000000
  0
SEQEND
  8
LAYER-1
  0
POLYLINE
  8
LAYER-1
 66
  1
 70
  0
 62
  7
 10
0.382719
 20
0.717025
 30
0.000000
  0
VERTEX
  8
LAYER-1
 10
0.382719
 20
0.717025
 30
0.000000
  0
VERTEX
  8
LAYER-1
 10
0.385869
 20
0.713876
 30
0.000000
  0
SEQEND
  8
LAYER-1
  0
POLYLINE
  8
LAYER-1
 66
  1
 70
  0
 62
  7
 10
0.385869
 20
0.713876
 30
0.000000
  0
VERTEX
  8
LAYER-1
 10
0.385869
 20
0.713876
 30
0.000000
  0
VERTEX
  8
LAYER-1
 10
0.397745
 20
0.713876
 30
0.000000
  0
SEQEND
  8
LAYER-1
  0
POLYLINE
  8
LAYER-1
 66
  1
 70
  0
 62
  7
 10
0.397745
 20
0.713876
 30
0.000000
  0
VERTEX
  8
LAYER-1
 10
0.397745
 20
0.713876
 30
0.000000
  0
VERTEX
  8
LAYER-1
 10
0.400895
 20
0.717025
 30
0.000000
  0
SEQEND
  8
LAYER-1
  0
POLYLINE
  8
LAYER-1
 66
  1
 70
  0
 62
  7
 10
0.400895
 20
0.717025
 30
0.000000
  0
VERTEX
  8
LAYER-1
 10
0.400895
 20
0.717025
 30
0.000000
  0
VERTEX
  8
LAYER-1
 10
0.400895
 20
0.727282
 30
0.000000
  0
SEQEND
  8
LAYER-1
  0
POLYLINE
  8
LAYER-1
 66
  1
 70
  0
 62
  7
 10
0.404045
 20
0.730431
 30
0.000000
  0
VERTEX
  8
LAYER-1
 10
0.404045
 20
0.730431
 30
0.000000
  0
VERTEX
  8
LAYER-1
 10
0.400895
 20
0.727282
 30
0.000000
  0
SEQEND
  8
LAYER-1
  0
POLYLINE
  8
LAYER-1
 66
  1
 70
  0
 62
  7
 10
0.404045
 20
0.730431
 30
0.000000
  0
VERTEX
  8
LAYER-1
 10
0.404045
 20
0.730431
 30
0.000000
  0
VERTEX
  8
LAYER-1
 10
0.406011
 20
0.730431
 30
0.000000
  0
SEQEND
  8
LAYER-1
  0
POLYLINE
  8
LAYER-1
 66
  1
 70
  0
 62
  7
 10
0.409162
 20
0.727282
 30
0.000000
  0
VERTEX
  8
LAYER-1
 10
0.409162
 20
0.727282
 30
0.000000
  0
VERTEX
  8
LAYER-1
 10
0.406011
 20
0.730431
 30
0.000000
  0
SEQEND
  8
LAYER-1
  0
POLYLINE
  8
LAYER-1
 66
  1
 70
  0
 62
  7
 10
0.409162
 20
0.727282
 30
0.000000
  0
VERTEX
  8
LAYER-1
 10
0.409162
 20
0.727282
 30
0.000000
  0
VERTEX
  8
LAYER-1
 10
0.409162
 20
0.713866
 30
0.000000
  0
SEQEND
  8
LAYER-1
  0
POLYLINE
  8
LAYER-1
 66
  1
 70
  0
 62
  7
 10
0.397612
 20
0.702316
 30
0.000000
  0
VERTEX
  8
LAYER-1
 10
0.397612
 20
0.702316
 30
0.000000
  0
VERTEX
  8
LAYER-1
 10
0.403810
 20
0.707667
 30
0.000000
  0
VERTEX
  8
LAYER-1
 10
0.409162
 20
0.713866
 30
0.000000
  0
SEQEND
  8
LAYER-1
  0
POLYLINE
  8
LAYER-1
 66
  1
 70
  0
 62
  7
 10
0.397612
 20
0.702316
 30
0.000000
  0
VERTEX
  8
LAYER-1
 10
0.397612
 20
0.702316
 30
0.000000
  0
VERTEX
  8
LAYER-1
 10
0.343439
 20
0.702316
 30
0.000000
  0
SEQEND
  8
LAYER-1
  0
POLYLINE
  8
LAYER-1
 66
  1
 70
  0
 62
  7
 10
0.317399
 20
0.728356
 30
0.000000
  0
VERTEX
  8
LAYER-1
 10
0.317399
 20
0.728356
 30
0.000000
  0
VERTEX
  8
LAYER-1
 10
0.323057
 20
0.711911
 30
0.000000
  0
VERTEX
  8
LAYER-1
 10
0.343439
 20
0.702316
 30
0.000000
  0
SEQEND
  8
LAYER-1
  0
POLYLINE
  8
LAYER-1
 66
  1
 70
  0
 62
  7
 10
0.638650
 20
1.263063
 30
0.000000
  0
VERTEX
  8
LAYER-1
 10
0.638650
 20
1.263063
 30
0.000000
  0
VERTEX
  8
LAYER-1
 10
0.337359
 20
1.263063
 30
0.000000
  0
SEQEND
  8
LAYER-1
  0
POLYLINE
  8
LAYER-1
 66
  1
 70
  0
 62
  7
 10
0.320529
 20
1.279816
 30
0.000000
  0
VERTEX
  8
LAYER-1
 10
0.320529
 20
1.279816
 30
0.000000
  0
VERTEX
  8
LAYER-1
 10
0.337359
 20
1.263063
 30
0.000000
  0
SEQEND
  8
LAYER-1
  0
POLYLINE
  8
LAYER-1
 66
  1
 70
  0
 62
  7
 10
0.484838
 20
1.279816
 30
0.000000
  0
VERTEX
  8
LAYER-1
 10
0.484838
 20
1.279816
 30
0.000000
  0
VERTEX
  8
LAYER-1
 10
0.320529
 20
1.279816
 30
0.000000
  0
SEQEND
  8
LAYER-1
  0
POLYLINE
  8
LAYER-1
 66
  1
 70
  0
 62
  7
 10
0.484838
 20
1.279816
 30
0.000000
  0
VERTEX
  8
LAYER-1
 10
0.484838
 20
1.279816
 30
0.000000
  0
VERTEX
  8
LAYER-1
 10
0.491138
 20
1.279816
 30
0.000000
  0
SEQEND
  8
LAYER-1
  0
POLYLINE
  8
LAYER-1
 66
  1
 70
  0
 62
  7
 10
0.491138
 20
1.279816
 30
0.000000
  0
VERTEX
  8
LAYER-1
 10
0.491138
 20
1.279816
 30
0.000000
  0
VERTEX
  8
LAYER-1
 10
0.655480
 20
1.279816
 30
0.000000
  0
SEQEND
  8
LAYER-1
  0
POLYLINE
  8
LAYER-1
 66
  1
 70
  0
 62
  7
 10
0.658630
 20
1.276665
 30
0.000000
  0
VERTEX
  8
LAYER-1
 10
0.658630
 20
1.276665
 30
0.000000
  0
VERTEX
  8
LAYER-1
 10
0.658630
 20
1.059331
 30
0.000000
  0
SEQEND
  8
LAYER-1
  0
POLYLINE
  8
LAYER-1
 66
  1
 70
  0
 62
  7
 10
0.658727
 20
0.827023
 30
0.000000
  0
VERTEX
  8
LAYER-1
 10
0.658727
 20
0.827023
 30
0.000000
  0
VERTEX
  8
LAYER-1
 10
0.658727
 20
0.728356
 30
0.000000
  0
SEQEND
  8
LAYER-1
  0
POLYLINE
  8
LAYER-1
 66
  1
 70
  0
 62
  7
 10
0.658747
 20
0.833323
 30
0.000000
  0
VERTEX
  8
LAYER-1
 10
0.658747
 20
0.833323
 30
0.000000
  0
VERTEX
  8
LAYER-1
 10
0.658727
 20
0.827023
 30
0.000000
  0
SEQEND
  8
LAYER-1
  0
POLYLINE
  8
LAYER-1
 66
  1
 70
  0
 62
  7
 10
0.658747
 20
0.833323
 30
0.000000
  0
VERTEX
  8
LAYER-1
 10
0.658747
 20
0.833323
 30
0.000000
  0
VERTEX
  8
LAYER-1
 10
0.658747
 20
1.053032
 30
0.000000
  0
SEQEND
  8
LAYER-1
  0
POLYLINE
  8
LAYER-1
 66
  1
 70
  0
 62
  7
 10
0.658747
 20
1.059331
 30
0.000000
  0
VERTEX
  8
LAYER-1
 10
0.658747
 20
1.059331
 30
0.000000
  0
VERTEX
  8
LAYER-1
 10
0.658747
 20
1.053032
 30
0.000000
  0
SEQEND
  8
LAYER-1
  0
POLYLINE
  8
LAYER-1
 66
  1
 70
  0
 62
  7
 10
0.658747
 20
1.059331
 30
0.000000
  0
VERTEX
  8
LAYER-1
 10
0.658747
 20
1.059331
 30
0.000000
  0
VERTEX
  8
LAYER-1
 10
0.658747
 20
1.276665
 30
0.000000
  0
SEQEND
  8
LAYER-1
  0
POLYLINE
  8
LAYER-1
 66
  1
 70
  0
 62
  7
 10
0.658747
 20
1.276665
 30
0.000000
  0
VERTEX
  8
LAYER-1
 10
0.658747
 20
1.276665
 30
0.000000
  0
VERTEX
  8
LAYER-1
 10
0.655597
 20
1.279815
 30
0.000000
  0
SEQEND
  8
LAYER-1
  0
POLYLINE
  8
LAYER-1
 66
  1
 70
  0
 62
  7
 10
0.638767
 20
1.263063
 30
0.000000
  0
VERTEX
  8
LAYER-1
 10
0.638767
 20
1.263063
 30
0.000000
  0
VERTEX
  8
LAYER-1
 10
0.655597
 20
1.279816
 30
0.000000
  0
SEQEND
  8
LAYER-1
  0
POLYLINE
  8
LAYER-1
 66
  1
 70
  0
 62
  7
 10
0.641917
 20
1.259912
 30
0.000000
  0
VERTEX
  8
LAYER-1
 10
0.641917
 20
1.259912
 30
0.000000
  0
VERTEX
  8
LAYER-1
 10
0.638767
 20
1.263063
 30
0.000000
  0
SEQEND
  8
LAYER-1
  0
POLYLINE
  8
LAYER-1
 66
  1
 70
  0
 62
  7
 10
0.641917
 20
1.250523
 30
0.000000
  0
VERTEX
  8
LAYER-1
 10
0.641917
 20
1.250523
 30
0.000000
  0
VERTEX
  8
LAYER-1
 10
0.641917
 20
1.259912
 30
0.000000
  0
SEQEND
  8
LAYER-1
  0
POLYLINE
  8
LAYER-1
 66
  1
 70
  0
 62
  7
 10
0.638767
 20
1.247373
 30
0.000000
  0
VERTEX
  8
LAYER-1
 10
0.638767
 20
1.247373
 30
0.000000
  0
VERTEX
  8
LAYER-1
 10
0.641917
 20
1.250523
 30
0.000000
  0
SEQEND
  8
LAYER-1
  0
POLYLINE
  8
LAYER-1
 66
  1
 70
  0
 62
  7
 10
0.622538
 20
1.247372
 30
0.000000
  0
VERTEX
  8
LAYER-1
 10
0.622538
 20
1.247372
 30
0.000000
  0
VERTEX
  8
LAYER-1
 10
0.638767
 20
1.247372
 30
0.000000
  0
SEQEND
  8
LAYER-1
  0
POLYLINE
  8
LAYER-1
 66
  1
 70
  0
 62
  7
 10
0.622538
 20
1.247372
 30
0.000000
  0
VERTEX
  8
LAYER-1
 10
0.622538
 20
1.247372
 30
0.000000
  0
VERTEX
  8
LAYER-1
 10
0.619388
 20
1.244222
 30
0.000000
  0
SEQEND
  8
LAYER-1
  0
POLYLINE
  8
LAYER-1
 66
  1
 70
  0
 62
  7
 10
0.619388
 20
1.229522
 30
0.000000
  0
VERTEX
  8
LAYER-1
 10
0.619388
 20
1.229522
 30
0.000000
  0
VERTEX
  8
LAYER-1
 10
0.619388
 20
1.244222
 30
0.000000
  0
SEQEND
  8
LAYER-1
  0
POLYLINE
  8
LAYER-1
 66
  1
 70
  0
 62
  7
 10
0.619388
 20
1.229522
 30
0.000000
  0
VERTEX
  8
LAYER-1
 10
0.619388
 20
1.229522
 30
0.000000
  0
VERTEX
  8
LAYER-1
 10
0.622538
 20
1.226372
 30
0.000000
  0
SEQEND
  8
LAYER-1
  0
POLYLINE
  8
LAYER-1
 66
  1
 70
  0
 62
  7
 10
0.638798
 20
1.226372
 30
0.000000
  0
VERTEX
  8
LAYER-1
 10
0.638798
 20
1.226372
 30
0.000000
  0
VERTEX
  8
LAYER-1
 10
0.622538
 20
1.226372
 30
0.000000
  0
SEQEND
  8
LAYER-1
  0
POLYLINE
  8
LAYER-1
 66
  1
 70
  0
 62
  7
 10
0.641948
 20
1.223222
 30
0.000000
  0
VERTEX
  8
LAYER-1
 10
0.641948
 20
1.223222
 30
0.000000
  0
VERTEX
  8
LAYER-1
 10
0.638798
 20
1.226372
 30
0.000000
  0
SEQEND
  8
LAYER-1
  0
POLYLINE
  8
LAYER-1
 66
  1
 70
  0
 62
  7
 10
0.641948
 20
1.213712
 30
0.000000
  0
VERTEX
  8
LAYER-1
 10
0.641948
 20
1.213712
 30
0.000000
  0
VERTEX
  8
LAYER-1
 10
0.641948
 20
1.223222
 30
0.000000
  0
SEQEND
  8
LAYER-1
  0
POLYLINE
  8
LAYER-1
 66
  1
 70
  0
 62
  7
 10
0.638798
 20
1.210562
 30
0.000000
  0
VERTEX
  8
LAYER-1
 10
0.638798
 20
1.210562
 30
0.000000
  0
VERTEX
  8
LAYER-1
 10
0.641948
 20
1.213712
 30
0.000000
  0
SEQEND
  8
LAYER-1
  0
POLYLINE
  8
LAYER-1
 66
  1
 70
  0
 62
  7
 10
0.593131
 20
1.210562
 30
0.000000
  0
VERTEX
  8
LAYER-1
 10
0.593131
 20
1.210562
 30
0.000000
  0
VERTEX
  8
LAYER-1
 10
0.638798
 20
1.210562
 30
0.000000
  0
SEQEND
  8
LAYER-1
  0
POLYLINE
  8
LAYER-1
 66
  1
 70
  0
 62
  7
 10
0.593131
 20
1.210562
 30
0.000000
  0
VERTEX
  8
LAYER-1
 10
0.593131
 20
1.210562
 30
0.000000
  0
VERTEX
  8
LAYER-1
 10
0.589981
 20
1.207413
 30
0.000000
  0
SEQEND
  8
LAYER-1
  0
POLYLINE
  8
LAYER-1
 66
  1
 70
  0
 62
  7
 10
0.589981
 20
1.196913
 30
0.000000
  0
VERTEX
  8
LAYER-1
 10
0.589981
 20
1.196913
 30
0.000000
  0
VERTEX
  8
LAYER-1
 10
0.589981
 20
1.207413
 30
0.000000
  0
SEQEND
  8
LAYER-1
  0
POLYLINE
  8
LAYER-1
 66
  1
 70
  0
 62
  7
 10
0.589981
 20
1.196913
 30
0.000000
  0
VERTEX
  8
LAYER-1
 10
0.589981
 20
1.196913
 30
0.000000
  0
VERTEX
  8
LAYER-1
 10
0.593131
 20
1.193763
 30
0.000000
  0
SEQEND
  8
LAYER-1
  0
POLYLINE
  8
LAYER-1
 66
  1
 70
  0
 62
  7
 10
0.638765
 20
1.193762
 30
0.000000
  0
VERTEX
  8
LAYER-1
 10
0.638765
 20
1.193762
 30
0.000000
  0
VERTEX
  8
LAYER-1
 10
0.593131
 20
1.193762
 30
0.000000
  0
SEQEND
  8
LAYER-1
  0
POLYLINE
  8
LAYER-1
 66
  1
 70
  0
 62
  7
 10
0.641915
 20
1.190612
 30
0.000000
  0
VERTEX
  8
LAYER-1
 10
0.641915
 20
1.190612
 30
0.000000
  0
VERTEX
  8
LAYER-1
 10
0.638765
 20
1.193762
 30
0.000000
  0
SEQEND
  8
LAYER-1
  0
POLYLINE
  8
LAYER-1
 66
  1
 70
  0
 62
  7
 10
0.641915
 20
1.150124
 30
0.000000
  0
VERTEX
  8
LAYER-1
 10
0.641915
 20
1.150124
 30
0.000000
  0
VERTEX
  8
LAYER-1
 10
0.641915
 20
1.190612
 30
0.000000
  0
SEQEND
  8
LAYER-1
  0
POLYLINE
  8
LAYER-1
 66
  1
 70
  0
 62
  7
 10
0.638765
 20
1.146975
 30
0.000000
  0
VERTEX
  8
LAYER-1
 10
0.638765
 20
1.146975
 30
0.000000
  0
VERTEX
  8
LAYER-1
 10
0.641915
 20
1.150124
 30
0.000000
  0
SEQEND
  8
LAYER-1
  0
POLYLINE
  8
LAYER-1
 66
  1
 70
  0
 62
  7
 10
0.638767
 20
1.120657
 30
0.000000
  0
VERTEX
  8
LAYER-1
 10
0.638767
 20
1.120657
 30
0.000000
  0
VERTEX
  8
LAYER-1
 10
0.638765
 20
1.146975
 30
0.000000
  0
SEQEND
  8
LAYER-1
  0
POLYLINE
  8
LAYER-1
 66
  1
 70
  0
 62
  7
 10
0.641917
 20
1.117506
 30
0.000000
  0
VERTEX
  8
LAYER-1
 10
0.641917
 20
1.117506
 30
0.000000
  0
VERTEX
  8
LAYER-1
 10
0.638767
 20
1.120655
 30
0.000000
  0
SEQEND
  8
LAYER-1
  0
POLYLINE
  8
LAYER-1
 66
  1
 70
  0
 62
  7
 10
0.641917
 20
1.117506
 30
0.000000
  0
VERTEX
  8
LAYER-1
 10
0.641917
 20
1.117506
 30
0.000000
  0
VERTEX
  8
LAYER-1
 10
0.641917
 20
1.107066
 30
0.000000
  0
SEQEND
  8
LAYER-1
  0
POLYLINE
  8
LAYER-1
 66
  1
 70
  0
 62
  7
 10
0.638767
 20
1.103916
 30
0.000000
  0
VERTEX
  8
LAYER-1
 10
0.638767
 20
1.103916
 30
0.000000
  0
VERTEX
  8
LAYER-1
 10
0.641917
 20
1.107066
 30
0.000000
  0
SEQEND
  8
LAYER-1
  0
POLYLINE
  8
LAYER-1
 66
  1
 70
  0
 62
  7
 10
0.622538
 20
1.103916
 30
0.000000
  0
VERTEX
  8
LAYER-1
 10
0.622538
 20
1.103916
 30
0.000000
  0
VERTEX
  8
LAYER-1
 10
0.638767
 20
1.103916
 30
0.000000
  0
SEQEND
  8
LAYER-1
  0
POLYLINE
  8
LAYER-1
 66
  1
 70
  0
 62
  7
 10
0.622538
 20
1.103916
 30
0.000000
  0
VERTEX
  8
LAYER-1
 10
0.622538
 20
1.103916
 30
0.000000
  0
VERTEX
  8
LAYER-1
 10
0.619388
 20
1.100767
 30
0.000000
  0
SEQEND
  8
LAYER-1
  0
POLYLINE
  8
LAYER-1
 66
  1
 70
  0
 62
  7
 10
0.619388
 20
1.100767
 30
0.000000
  0
VERTEX
  8
LAYER-1
 10
0.619388
 20
1.100767
 30
0.000000
  0
VERTEX
  8
LAYER-1
 10
0.619388
 20
1.086066
 30
0.000000
  0
SEQEND
  8
LAYER-1
  0
POLYLINE
  8
LAYER-1
 66
  1
 70
  0
 62
  7
 10
0.619388
 20
1.086066
 30
0.000000
  0
VERTEX
  8
LAYER-1
 10
0.619388
 20
1.086066
 30
0.000000
  0
VERTEX
  8
LAYER-1
 10
0.622538
 20
1.082917
 30
0.000000
  0
SEQEND
  8
LAYER-1
  0
POLYLINE
  8
LAYER-1
 66
  1
 70
  0
 62
  7
 10
0.638798
 20
1.082917
 30
0.000000
  0
VERTEX
  8
LAYER-1
 10
0.638798
 20
1.082917
 30
0.000000
  0
VERTEX
  8
LAYER-1
 10
0.622538
 20
1.082917
 30
0.000000
  0
SEQEND
  8
LAYER-1
  0
POLYLINE
  8
LAYER-1
 66
  1
 70
  0
 62
  7
 10
0.641948
 20
1.079765
 30
0.000000
  0
VERTEX
  8
LAYER-1
 10
0.641948
 20
1.079765
 30
0.000000
  0
VERTEX
  8
LAYER-1
 10
0.638798
 20
1.082916
 30
0.000000
  0
SEQEND
  8
LAYER-1
  0
POLYLINE
  8
LAYER-1
 66
  1
 70
  0
 62
  7
 10
0.641948
 20
1.069206
 30
0.000000
  0
VERTEX
  8
LAYER-1
 10
0.641948
 20
1.069206
 30
0.000000
  0
VERTEX
  8
LAYER-1
 10
0.641948
 20
1.079765
 30
0.000000
  0
SEQEND
  8
LAYER-1
  0
POLYLINE
  8
LAYER-1
 66
  1
 70
  0
 62
  7
 10
0.638798
 20
1.066057
 30
0.000000
  0
VERTEX
  8
LAYER-1
 10
0.638798
 20
1.066057
 30
0.000000
  0
VERTEX
  8
LAYER-1
 10
0.641948
 20
1.069206
 30
0.000000
  0
SEQEND
  8
LAYER-1
  0
POLYLINE
  8
LAYER-1
 66
  1
 70
  0
 62
  7
 10
0.593131
 20
1.066057
 30
0.000000
  0
VERTEX
  8
LAYER-1
 10
0.593131
 20
1.066057
 30
0.000000
  0
VERTEX
  8
LAYER-1
 10
0.638798
 20
1.066057
 30
0.000000
  0
SEQEND
  8
LAYER-1
  0
POLYLINE
  8
LAYER-1
 66
  1
 70
  0
 62
  7
 10
0.593131
 20
1.066057
 30
0.000000
  0
VERTEX
  8
LAYER-1
 10
0.593131
 20
1.066057
 30
0.000000
  0
VERTEX
  8
LAYER-1
 10
0.589981
 20
1.062906
 30
0.000000
  0
SEQEND
  8
LAYER-1
  0
POLYLINE
  8
LAYER-1
 66
  1
 70
  0
 62
  7
 10
0.589981
 20
1.062906
 30
0.000000
  0
VERTEX
  8
LAYER-1
 10
0.589981
 20
1.062906
 30
0.000000
  0
VERTEX
  8
LAYER-1
 10
0.589981
 20
1.049255
 30
0.000000
  0
SEQEND
  8
LAYER-1
  0
POLYLINE
  8
LAYER-1
 66
  1
 70
  0
 62
  7
 10
0.589981
 20
1.049255
 30
0.000000
  0
VERTEX
  8
LAYER-1
 10
0.589981
 20
1.049255
 30
0.000000
  0
VERTEX
  8
LAYER-1
 10
0.593131
 20
1.046106
 30
0.000000
  0
SEQEND
  8
LAYER-1
  0
POLYLINE
  8
LAYER-1
 66
  1
 70
  0
 62
  7
 10
0.593131
 20
1.046106
 30
0.000000
  0
VERTEX
  8
LAYER-1
 10
0.593131
 20
1.046106
 30
0.000000
  0
VERTEX
  8
LAYER-1
 10
0.635615
 20
1.046106
 30
0.000000
  0
SEQEND
  8
LAYER-1
  0
POLYLINE
  8
LAYER-1
 66
  1
 70
  0
 62
  7
 10
0.638765
 20
1.042957
 30
0.000000
  0
VERTEX
  8
LAYER-1
 10
0.638765
 20
1.042957
 30
0.000000
  0
VERTEX
  8
LAYER-1
 10
0.635615
 20
1.046106
 30
0.000000
  0
SEQEND
  8
LAYER-1
  0
POLYLINE
  8
LAYER-1
 66
  1
 70
  0
 62
  7
 10
0.638765
 20
1.042957
 30
0.000000
  0
VERTEX
  8
LAYER-1
 10
0.638765
 20
1.042957
 30
0.000000
  0
VERTEX
  8
LAYER-1
 10
0.638765
 20
0.807117
 30
0.000000
  0
SEQEND
  8
LAYER-1
  0
POLYLINE
  8
LAYER-1
 66
  1
 70
  0
 62
  7
 10
0.635615
 20
0.803966
 30
0.000000
  0
VERTEX
  8
LAYER-1
 10
0.635615
 20
0.803966
 30
0.000000
  0
VERTEX
  8
LAYER-1
 10
0.638765
 20
0.807117
 30
0.000000
  0
SEQEND
  8
LAYER-1
  0
POLYLINE
  8
LAYER-1
 66
  1
 70
  0
 62
  7
 10
0.578514
 20
0.803966
 30
0.000000
  0
VERTEX
  8
LAYER-1
 10
0.578514
 20
0.803966
 30
0.000000
  0
VERTEX
  8
LAYER-1
 10
0.635615
 20
0.803966
 30
0.000000
  0
SEQEND
  8
LAYER-1
  0
POLYLINE
  8
LAYER-1
 66
  1
 70
  0
 62
  7
 10
0.578514
 20
0.803966
 30
0.000000
  0
VERTEX
  8
LAYER-1
 10
0.578514
 20
0.803966
 30
0.000000
  0
VERTEX
  8
LAYER-1
 10
0.568379
 20
0.802552
 30
0.000000
  0
VERTEX
  8
LAYER-1
 10
0.566964
 20
0.792417
 30
0.000000
  0
SEQEND
  8
LAYER-1
  0
POLYLINE
  8
LAYER-1
 66
  1
 70
  0
 62
  7
 10
0.566964
 20
0.779042
 30
0.000000
  0
VERTEX
  8
LAYER-1
 10
0.566964
 20
0.779042
 30
0.000000
  0
VERTEX
  8
LAYER-1
 10
0.566964
 20
0.792417
 30
0.000000
  0
SEQEND
  8
LAYER-1
  0
POLYLINE
  8
LAYER-1
 66
  1
 70
  0
 62
  7
 10
0.566964
 20
0.779042
 30
0.000000
  0
VERTEX
  8
LAYER-1
 10
0.566964
 20
0.779042
 30
0.000000
  0
VERTEX
  8
LAYER-1
 10
0.570114
 20
0.775892
 30
0.000000
  0
SEQEND
  8
LAYER-1
  0
POLYLINE
  8
LAYER-1
 66
  1
 70
  0
 62
  7
 10
0.572081
 20
0.775891
 30
0.000000
  0
VERTEX
  8
LAYER-1
 10
0.572081
 20
0.775891
 30
0.000000
  0
VERTEX
  8
LAYER-1
 10
0.570114
 20
0.775891
 30
0.000000
  0
SEQEND
  8
LAYER-1
  0
POLYLINE
  8
LAYER-1
 66
  1
 70
  0
 62
  7
 10
0.572081
 20
0.775892
 30
0.000000
  0
VERTEX
  8
LAYER-1
 10
0.572081
 20
0.775892
 30
0.000000
  0
VERTEX
  8
LAYER-1
 10
0.575231
 20
0.779042
 30
0.000000
  0
SEQEND
  8
LAYER-1
  0
POLYLINE
  8
LAYER-1
 66
  1
 70
  0
 62
  7
 10
0.575231
 20
0.779042
 30
0.000000
  0
VERTEX
  8
LAYER-1
 10
0.575231
 20
0.779042
 30
0.000000
  0
VERTEX
  8
LAYER-1
 10
0.575231
 20
0.789266
 30
0.000000
  0
SEQEND
  8
LAYER-1
  0
POLYLINE
  8
LAYER-1
 66
  1
 70
  0
 62
  7
 10
0.578381
 20
0.792415
 30
0.000000
  0
VERTEX
  8
LAYER-1
 10
0.578381
 20
0.792415
 30
0.000000
  0
VERTEX
  8
LAYER-1
 10
0.575231
 20
0.789266
 30
0.000000
  0
SEQEND
  8
LAYER-1
  0
POLYLINE
  8
LAYER-1
 66
  1
 70
  0
 62
  7
 10
0.578381
 20
0.792416
 30
0.000000
  0
VERTEX
  8
LAYER-1
 10
0.578381
 20
0.792416
 30
0.000000
  0
VERTEX
  8
LAYER-1
 10
0.590257
 20
0.792416
 30
0.000000
  0
SEQEND
  8
LAYER-1
  0
POLYLINE
  8
LAYER-1
 66
  1
 70
  0
 62
  7
 10
0.593407
 20
0.789266
 30
0.000000
  0
VERTEX
  8
LAYER-1
 10
0.593407
 20
0.789266
 30
0.000000
  0
VERTEX
  8
LAYER-1
 10
0.590257
 20
0.792415
 30
0.000000
  0
SEQEND
  8
LAYER-1
  0
POLYLINE
  8
LAYER-1
 66
  1
 70
  0
 62
  7
 10
0.593407
 20
0.789266
 30
0.000000
  0
VERTEX
  8
LAYER-1
 10
0.593407
 20
0.789266
 30
0.000000
  0
VERTEX
  8
LAYER-1
 10
0.593407
 20
0.779022
 30
0.000000
  0
SEQEND
  8
LAYER-1
  0
POLYLINE
  8
LAYER-1
 66
  1
 70
  0
 62
  7
 10
0.593407
 20
0.779022
 30
0.000000
  0
VERTEX
  8
LAYER-1
 10
0.593407
 20
0.779022
 30
0.000000
  0
VERTEX
  8
LAYER-1
 10
0.596561
 20
0.775872
 30
0.000000
  0
SEQEND
  8
LAYER-1
  0
POLYLINE
  8
LAYER-1
 66
  1
 70
  0
 62
  7
 10
0.596561
 20
0.775872
 30
0.000000
  0
VERTEX
  8
LAYER-1
 10
0.596561
 20
0.775872
 30
0.000000
  0
VERTEX
  8
LAYER-1
 10
0.611324
 20
0.775891
 30
0.000000
  0
SEQEND
  8
LAYER-1
  0
POLYLINE
  8
LAYER-1
 66
  1
 70
  0
 62
  7
 10
0.611324
 20
0.775892
 30
0.000000
  0
VERTEX
  8
LAYER-1
 10
0.611324
 20
0.775892
 30
0.000000
  0
VERTEX
  8
LAYER-1
 10
0.614470
 20
0.779042
 30
0.000000
  0
SEQEND
  8
LAYER-1
  0
POLYLINE
  8
LAYER-1
 66
  1
 70
  0
 62
  7
 10
0.614470
 20
0.779042
 30
0.000000
  0
VERTEX
  8
LAYER-1
 10
0.614470
 20
0.779042
 30
0.000000
  0
VERTEX
  8
LAYER-1
 10
0.614470
 20
0.789266
 30
0.000000
  0
SEQEND
  8
LAYER-1
  0
POLYLINE
  8
LAYER-1
 66
  1
 70
  0
 62
  7
 10
0.617620
 20
0.792415
 30
0.000000
  0
VERTEX
  8
LAYER-1
 10
0.617620
 20
0.792415
 30
0.000000
  0
VERTEX
  8
LAYER-1
 10
0.614470
 20
0.789266
 30
0.000000
  0
SEQEND
  8
LAYER-1
  0
POLYLINE
  8
LAYER-1
 66
  1
 70
  0
 62
  7
 10
0.617620
 20
0.792416
 30
0.000000
  0
VERTEX
  8
LAYER-1
 10
0.617620
 20
0.792416
 30
0.000000
  0
VERTEX
  8
LAYER-1
 10
0.644091
 20
0.792416
 30
0.000000
  0
SEQEND
  8
LAYER-1
  0
POLYLINE
  8
LAYER-1
 66
  1
 70
  0
 62
  7
 10
0.647241
 20
0.789266
 30
0.000000
  0
VERTEX
  8
LAYER-1
 10
0.647241
 20
0.789266
 30
0.000000
  0
VERTEX
  8
LAYER-1
 10
0.644091
 20
0.792415
 30
0.000000
  0
SEQEND
  8
LAYER-1
  0
POLYLINE
  8
LAYER-1
 66
  1
 70
  0
 62
  7
 10
0.647241
 20
0.728366
 30
0.000000
  0
VERTEX
  8
LAYER-1
 10
0.647241
 20
0.728366
 30
0.000000
  0
VERTEX
  8
LAYER-1
 10
0.647241
 20
0.789266
 30
0.000000
  0
SEQEND
  8
LAYER-1
  0
POLYLINE
  8
LAYER-1
 66
  1
 70
  0
 62
  7
 10
0.632751
 20
0.713876
 30
0.000000
  0
VERTEX
  8
LAYER-1
 10
0.632751
 20
0.713876
 30
0.000000
  0
VERTEX
  8
LAYER-1
 10
0.641029
 20
0.720088
 30
0.000000
  0
VERTEX
  8
LAYER-1
 10
0.647241
 20
0.728366
 30
0.000000
  0
SEQEND
  8
LAYER-1
  0
POLYLINE
  8
LAYER-1
 66
  1
 70
  0
 62
  7
 10
0.632751
 20
0.713876
 30
0.000000
  0
VERTEX
  8
LAYER-1
 10
0.632751
 20
0.713876
 30
0.000000
  0
VERTEX
  8
LAYER-1
 10
0.617620
 20
0.713876
 30
0.000000
  0
SEQEND
  8
LAYER-1
  0
POLYLINE
  8
LAYER-1
 66
  1
 70
  0
 62
  7
 10
0.614470
 20
0.717025
 30
0.000000
  0
VERTEX
  8
LAYER-1
 10
0.614470
 20
0.717025
 30
0.000000
  0
VERTEX
  8
LAYER-1
 10
0.617620
 20
0.713876
 30
0.000000
  0
SEQEND
  8
LAYER-1
  0
POLYLINE
  8
LAYER-1
 66
  1
 70
  0
 62
  7
 10
0.614470
 20
0.717025
 30
0.000000
  0
VERTEX
  8
LAYER-1
 10
0.614470
 20
0.717025
 30
0.000000
  0
VERTEX
  8
LAYER-1
 10
0.614470
 20
0.727282
 30
0.000000
  0
SEQEND
  8
LAYER-1
  0
POLYLINE
  8
LAYER-1
 66
  1
 70
  0
 62
  7
 10
0.614470
 20
0.727282
 30
0.000000
  0
VERTEX
  8
LAYER-1
 10
0.614470
 20
0.727282
 30
0.000000
  0
VERTEX
  8
LAYER-1
 10
0.611320
 20
0.730431
 30
0.000000
  0
SEQEND
  8
LAYER-1
  0
POLYLINE
  8
LAYER-1
 66
  1
 70
  0
 62
  7
 10
0.611320
 20
0.730431
 30
0.000000
  0
VERTEX
  8
LAYER-1
 10
0.611320
 20
0.730431
 30
0.000000
  0
VERTEX
  8
LAYER-1
 10
0.596557
 20
0.730431
 30
0.000000
  0
SEQEND
  8
LAYER-1
  0
POLYLINE
  8
LAYER-1
 66
  1
 70
  0
 62
  7
 10
0.596557
 20
0.730431
 30
0.000000
  0
VERTEX
  8
LAYER-1
 10
0.596557
 20
0.730431
 30
0.000000
  0
VERTEX
  8
LAYER-1
 10
0.593407
 20
0.727282
 30
0.000000
  0
SEQEND
  8
LAYER-1
  0
POLYLINE
  8
LAYER-1
 66
  1
 70
  0
 62
  7
 10
0.593407
 20
0.727282
 30
0.000000
  0
VERTEX
  8
LAYER-1
 10
0.593407
 20
0.727282
 30
0.000000
  0
VERTEX
  8
LAYER-1
 10
0.593407
 20
0.717025
 30
0.000000
  0
SEQEND
  8
LAYER-1
  0
POLYLINE
  8
LAYER-1
 66
  1
 70
  0
 62
  7
 10
0.590257
 20
0.713876
 30
0.000000
  0
VERTEX
  8
LAYER-1
 10
0.590257
 20
0.713876
 30
0.000000
  0
VERTEX
  8
LAYER-1
 10
0.593407
 20
0.717025
 30
0.000000
  0
SEQEND
  8
LAYER-1
  0
POLYLINE
  8
LAYER-1
 66
  1
 70
  0
 62
  7
 10
0.590257
 20
0.713876
 30
0.000000
  0
VERTEX
  8
LAYER-1
 10
0.590257
 20
0.713876
 30
0.000000
  0
VERTEX
  8
LAYER-1
 10
0.578381
 20
0.713876
 30
0.000000
  0
SEQEND
  8
LAYER-1
  0
POLYLINE
  8
LAYER-1
 66
  1
 70
  0
 62
  7
 10
0.575231
 20
0.717025
 30
0.000000
  0
VERTEX
  8
LAYER-1
 10
0.575231
 20
0.717025
 30
0.000000
  0
VERTEX
  8
LAYER-1
 10
0.578381
 20
0.713876
 30
0.000000
  0
SEQEND
  8
LAYER-1
  0
POLYLINE
  8
LAYER-1
 66
  1
 70
  0
 62
  7
 10
0.575231
 20
0.717025
 30
0.000000
  0
VERTEX
  8
LAYER-1
 10
0.575231
 20
0.717025
 30
0.000000
  0
VERTEX
  8
LAYER-1
 10
0.575231
 20
0.727282
 30
0.000000
  0
SEQEND
  8
LAYER-1
  0
POLYLINE
  8
LAYER-1
 66
  1
 70
  0
 62
  7
 10
0.575231
 20
0.727282
 30
0.000000
  0
VERTEX
  8
LAYER-1
 10
0.575231
 20
0.727282
 30
0.000000
  0
VERTEX
  8
LAYER-1
 10
0.572081
 20
0.730431
 30
0.000000
  0
SEQEND
  8
LAYER-1
  0
POLYLINE
  8
LAYER-1
 66
  1
 70
  0
 62
  7
 10
0.572081
 20
0.730431
 30
0.000000
  0
VERTEX
  8
LAYER-1
 10
0.572081
 20
0.730431
 30
0.000000
  0
VERTEX
  8
LAYER-1
 10
0.570114
 20
0.730431
 30
0.000000
  0
SEQEND
  8
LAYER-1
  0
POLYLINE
  8
LAYER-1
 66
  1
 70
  0
 62
  7
 10
0.570114
 20
0.730431
 30
0.000000
  0
VERTEX
  8
LAYER-1
 10
0.570114
 20
0.730431
 30
0.000000
  0
VERTEX
  8
LAYER-1
 10
0.566964
 20
0.727282
 30
0.000000
  0
SEQEND
  8
LAYER-1
  0
POLYLINE
  8
LAYER-1
 66
  1
 70
  0
 62
  7
 10
0.566964
 20
0.727282
 30
0.000000
  0
VERTEX
  8
LAYER-1
 10
0.566964
 20
0.727282
 30
0.000000
  0
VERTEX
  8
LAYER-1
 10
0.566964
 20
0.713866
 30
0.000000
  0
SEQEND
  8
LAYER-1
  0
POLYLINE
  8
LAYER-1
 66
  1
 70
  0
 62
  7
 10
0.566964
 20
0.713866
 30
0.000000
  0
VERTEX
  8
LAYER-1
 10
0.566964
 20
0.713866
 30
0.000000
  0
VERTEX
  8
LAYER-1
 10
0.568379
 20
0.707667
 30
0.000000
  0
VERTEX
  8
LAYER-1
 10
0.578514
 20
0.702316
 30
0.000000
  0
SEQEND
  8
LAYER-1
  0
POLYLINE
  8
LAYER-1
 66
  1
 70
  0
 62
  7
 10
0.578514
 20
0.702316
 30
0.000000
  0
VERTEX
  8
LAYER-1
 10
0.578514
 20
0.702316
 30
0.000000
  0
VERTEX
  8
LAYER-1
 10
0.632687
 20
0.702316
 30
0.000000
  0
SEQEND
  8
LAYER-1
  0
POLYLINE
  8
LAYER-1
 66
  1
 70
  0
 62
  7
 10
0.632687
 20
0.702316
 30
0.000000
  0
VERTEX
  8
LAYER-1
 10
0.632687
 20
0.702316
 30
0.000000
  0
VERTEX
  8
LAYER-1
 10
0.649131
 20
0.711911
 30
0.000000
  0
VERTEX
  8
LAYER-1
 10
0.658727
 20
0.728356
 30
0.000000
  0
SEQEND
  8
LAYER-1
  0
POLYLINE
  8
LAYER-1
 66
  1
 70
  1
 62
  7
  0
VERTEX
  8
LAYER-1
 10
0.337359
 20
1.120657
 30
0.000000
  0
VERTEX
  8
LAYER-1
 10
0.337359
 20
1.146975
 30
0.000000
  0
VERTEX
  8
LAYER-1
 10
0.638765
 20
1.146975
 30
0.000000
  0
VERTEX
  8
LAYER-1
 10
0.638765
 20
1.120657
 30
0.000000
  0
SEQEND
  8
LAYER-1
  0
POLYLINE
  8
LAYER-1
 66
  1
 70
  0
 62
  7
 10
0.638767
 20
1.263063
 30
0.000000
  0
VERTEX
  8
LAYER-1
 10
0.638767
 20
1.263063
 30
0.000000
  0
VERTEX
  8
LAYER-1
 10
0.655597
 20
1.279816
 30
0.000000
  0
SEQEND
  8
LAYER-1
  0
POLYLINE
  8
LAYER-1
 66
  1
 70
  1
 62
  7
  0
VERTEX
  8
LAYER-1
 10
0.584265
 20
0.786993
 30
0.000000
  0
VERTEX
  8
LAYER-1
 10
0.587720
 20
0.786993
 30
0.000000
  0
VERTEX
  8
LAYER-1
 10
0.587720
 20
0.716993
 30
0.000000
  0
VERTEX
  8
LAYER-1
 10
0.584265
 20
0.716993
 30
0.000000
  0
SEQEND
  8
LAYER-1
  0
POLYLINE
  8
LAYER-1
 66
  1
 70
  0
 62
  7
 10
0.584265
 20
0.753916
 30
0.000000
  0
VERTEX
  8
LAYER-1
 10
0.584265
 20
0.753916
 30
0.000000
  0
VERTEX
  8
LAYER-1
 10
0.544891
 20
0.753916
 30
0.000000
  0
SEQEND
  8
LAYER-1
  0
POLYLINE
  8
LAYER-1
 66
  1
 70
  0
 62
  7
 10
0.584265
 20
0.753916
 30
0.000000
  0
VERTEX
  8
LAYER-1
 10
0.584265
 20
0.753916
 30
0.000000
  0
VERTEX
  8
LAYER-1
 10
0.545679
 20
0.749980
 30
0.000000
  0
SEQEND
  8
LAYER-1
  0
POLYLINE
  8
LAYER-1
 66
  1
 70
  0
 62
  7
 10
0.584265
 20
0.753916
 30
0.000000
  0
VERTEX
  8
LAYER-1
 10
0.584265
 20
0.753916
 30
0.000000
  0
VERTEX
  8
LAYER-1
 10
0.546465
 20
0.744468
 30
0.000000
  0
SEQEND
  8
LAYER-1
  0
POLYLINE
  8
LAYER-1
 66
  1
 70
  0
 62
  7
 10
0.584265
 20
0.753916
 30
0.000000
  0
VERTEX
  8
LAYER-1
 10
0.584265
 20
0.753916
 30
0.000000
  0
VERTEX
  8
LAYER-1
 10
0.545679
 20
0.758644
 30
0.000000
  0
SEQEND
  8
LAYER-1
  0
POLYLINE
  8
LAYER-1
 66
  1
 70
  0
 62
  7
 10
0.584265
 20
0.753916
 30
0.000000
  0
VERTEX
  8
LAYER-1
 10
0.584265
 20
0.753916
 30
0.000000
  0
VERTEX
  8
LAYER-1
 10
0.545679
 20
0.764156
 30
0.000000
  0
SEQEND
  8
LAYER-1
  0
POLYLINE
  8
LAYER-1
 66
  1
 70
  0
 62
  7
 10
0.584823
 20
0.738976
 30
0.000000
  0
VERTEX
  8
LAYER-1
 10
0.584823
 20
0.738976
 30
0.000000
  0
VERTEX
  8
LAYER-1
 10
0.545450
 20
0.738976
 30
0.000000
  0
SEQEND
  8
LAYER-1
  0
POLYLINE
  8
LAYER-1
 66
  1
 70
  0
 62
  7
 10
0.584823
 20
0.738976
 30
0.000000
  0
VERTEX
  8
LAYER-1
 10
0.584823
 20
0.738976
 30
0.000000
  0
VERTEX
  8
LAYER-1
 10
0.546237
 20
0.735039
 30
0.000000
  0
SEQEND
  8
LAYER-1
  0
POLYLINE
  8
LAYER-1
 66
  1
 70
  0
 62
  7
 10
0.584823
 20
0.738976
 30
0.000000
  0
VERTEX
  8
LAYER-1
 10
0.584823
 20
0.738976
 30
0.000000
  0
VERTEX
  8
LAYER-1
 10
0.547024
 20
0.729525
 30
0.000000
  0
SEQEND
  8
LAYER-1
  0
POLYLINE
  8
LAYER-1
 66
  1
 70
  0
 62
  7
 10
0.584823
 20
0.738976
 30
0.000000
  0
VERTEX
  8
LAYER-1
 10
0.584823
 20
0.738976
 30
0.000000
  0
VERTEX
  8
LAYER-1
 10
0.546237
 20
0.743702
 30
0.000000
  0
SEQEND
  8
LAYER-1
  0
POLYLINE
  8
LAYER-1
 66
  1
 70
  0
 62
  7
 10
0.584823
 20
0.738976
 30
0.000000
  0
VERTEX
  8
LAYER-1
 10
0.584823
 20
0.738976
 30
0.000000
  0
VERTEX
  8
LAYER-1
 10
0.546237
 20
0.749213
 30
0.000000
  0
SEQEND
  8
LAYER-1
  0
POLYLINE
  8
LAYER-1
 66
  1
 70
  0
 62
  7
 10
0.584823
 20
0.768376
 30
0.000000
  0
VERTEX
  8
LAYER-1
 10
0.584823
 20
0.768376
 30
0.000000
  0
VERTEX
  8
LAYER-1
 10
0.545451
 20
0.768376
 30
0.000000
  0
SEQEND
  8
LAYER-1
  0
POLYLINE
  8
LAYER-1
 66
  1
 70
  0
 62
  7
 10
0.584823
 20
0.768376
 30
0.000000
  0
VERTEX
  8
LAYER-1
 10
0.584823
 20
0.768376
 30
0.000000
  0
VERTEX
  8
LAYER-1
 10
0.546237
 20
0.764438
 30
0.000000
  0
SEQEND
  8
LAYER-1
  0
POLYLINE
  8
LAYER-1
 66
  1
 70
  0
 62
  7
 10
0.584823
 20
0.768376
 30
0.000000
  0
VERTEX
  8
LAYER-1
 10
0.584823
 20
0.768376
 30
0.000000
  0
VERTEX
  8
LAYER-1
 10
0.547024
 20
0.758927
 30
0.000000
  0
SEQEND
  8
LAYER-1
  0
POLYLINE
  8
LAYER-1
 66
  1
 70
  0
 62
  7
 10
0.584823
 20
0.768376
 30
0.000000
  0
VERTEX
  8
LAYER-1
 10
0.584823
 20
0.768376
 30
0.000000
  0
VERTEX
  8
LAYER-1
 10
0.546237
 20
0.773101
 30
0.000000
  0
SEQEND
  8
LAYER-1
  0
POLYLINE
  8
LAYER-1
 66
  1
 70
  0
 62
  7
 10
0.584823
 20
0.768376
 30
0.000000
  0
VERTEX
  8
LAYER-1
 10
0.584823
 20
0.768376
 30
0.000000
  0
VERTEX
  8
LAYER-1
 10
0.546237
 20
0.778613
 30
0.000000
  0
SEQEND
  8
LAYER-1
  0
POLYLINE
  8
LAYER-1
 66
  1
 70
  1
 62
  7
  0
VERTEX
  8
LAYER-1
 10
0.388635
 20
0.786993
 30
0.000000
  0
VERTEX
  8
LAYER-1
 10
0.392090
 20
0.786993
 30
0.000000
  0
VERTEX
  8
LAYER-1
 10
0.392090
 20
0.716993
 30
0.000000
  0
VERTEX
  8
LAYER-1
 10
0.388635
 20
0.716993
 30
0.000000
  0
SEQEND
  8
LAYER-1
  0
POLYLINE
  8
LAYER-1
 66
  1
 70
  0
 62
  7
 10
0.392090
 20
0.753916
 30
0.000000
  0
VERTEX
  8
LAYER-1
 10
0.392090
 20
0.753916
 30
0.000000
  0
VERTEX
  8
LAYER-1
 10
0.431465
 20
0.753916
 30
0.000000
  0
SEQEND
  8
LAYER-1
  0
POLYLINE
  8
LAYER-1
 66
  1
 70
  0
 62
  7
 10
0.392090
 20
0.753916
 30
0.000000
  0
VERTEX
  8
LAYER-1
 10
0.392090
 20
0.753916
 30
0.000000
  0
VERTEX
  8
LAYER-1
 10
0.430676
 20
0.749980
 30
0.000000
  0
SEQEND
  8
LAYER-1
  0
POLYLINE
  8
LAYER-1
 66
  1
 70
  0
 62
  7
 10
0.392090
 20
0.753916
 30
0.000000
  0
VERTEX
  8
LAYER-1
 10
0.392090
 20
0.753916
 30
0.000000
  0
VERTEX
  8
LAYER-1
 10
0.429890
 20
0.744468
 30
0.000000
  0
SEQEND
  8
LAYER-1
  0
POLYLINE
  8
LAYER-1
 66
  1
 70
  0
 62
  7
 10
0.392090
 20
0.753916
 30
0.000000
  0
VERTEX
  8
LAYER-1
 10
0.392090
 20
0.753916
 30
0.000000
  0
VERTEX
  8
LAYER-1
 10
0.430676
 20
0.758644
 30
0.000000
  0
SEQEND
  8
LAYER-1
  0
POLYLINE
  8
LAYER-1
 66
  1
 70
  0
 62
  7
 10
0.392090
 20
0.753916
 30
0.000000
  0
VERTEX
  8
LAYER-1
 10
0.392090
 20
0.753916
 30
0.000000
  0
VERTEX
  8
LAYER-1
 10
0.430676
 20
0.764156
 30
0.000000
  0
SEQEND
  8
LAYER-1
  0
POLYLINE
  8
LAYER-1
 66
  1
 70
  0
 62
  7
 10
0.391532
 20
0.738976
 30
0.000000
  0
VERTEX
  8
LAYER-1
 10
0.391532
 20
0.738976
 30
0.000000
  0
VERTEX
  8
LAYER-1
 10
0.430905
 20
0.738976
 30
0.000000
  0
SEQEND
  8
LAYER-1
  0
POLYLINE
  8
LAYER-1
 66
  1
 70
  0
 62
  7
 10
0.391532
 20
0.738976
 30
0.000000
  0
VERTEX
  8
LAYER-1
 10
0.391532
 20
0.738976
 30
0.000000
  0
VERTEX
  8
LAYER-1
 10
0.430118
 20
0.735039
 30
0.000000
  0
SEQEND
  8
LAYER-1
  0
POLYLINE
  8
LAYER-1
 66
  1
 70
  0
 62
  7
 10
0.391532
 20
0.738976
 30
0.000000
  0
VERTEX
  8
LAYER-1
 10
0.391532
 20
0.738976
 30
0.000000
  0
VERTEX
  8
LAYER-1
 10
0.429331
 20
0.729525
 30
0.000000
  0
SEQEND
  8
LAYER-1
  0
POLYLINE
  8
LAYER-1
 66
  1
 70
  0
 62
  7
 10
0.391532
 20
0.738976
 30
0.000000
  0
VERTEX
  8
LAYER-1
 10
0.391532
 20
0.738976
 30
0.000000
  0
VERTEX
  8
LAYER-1
 10
0.430118
 20
0.743702
 30
0.000000
  0
SEQEND
  8
LAYER-1
  0
POLYLINE
  8
LAYER-1
 66
  1
 70
  0
 62
  7
 10
0.391532
 20
0.738976
 30
0.000000
  0
VERTEX
  8
LAYER-1
 10
0.391532
 20
0.738976
 30
0.000000
  0
VERTEX
  8
LAYER-1
 10
0.430118
 20
0.749213
 30
0.000000
  0
SEQEND
  8
LAYER-1
  0
POLYLINE
  8
LAYER-1
 66
  1
 70
  0
 62
  7
 10
0.391532
 20
0.768376
 30
0.000000
  0
VERTEX
  8
LAYER-1
 10
0.391532
 20
0.768376
 30
0.000000
  0
VERTEX
  8
LAYER-1
 10
0.430904
 20
0.768376
 30
0.000000
  0
SEQEND
  8
LAYER-1
  0
POLYLINE
  8
LAYER-1
 66
  1
 70
  0
 62
  7
 10
0.391532
 20
0.768376
 30
0.000000
  0
VERTEX
  8
LAYER-1
 10
0.391532
 20
0.768376
 30
0.000000
  0
VERTEX
  8
LAYER-1
 10
0.430118
 20
0.764438
 30
0.000000
  0
SEQEND
  8
LAYER-1
  0
POLYLINE
  8
LAYER-1
 66
  1
 70
  0
 62
  7
 10
0.391532
 20
0.768376
 30
0.000000
  0
VERTEX
  8
LAYER-1
 10
0.391532
 20
0.768376
 30
0.000000
  0
VERTEX
  8
LAYER-1
 10
0.429331
 20
0.758927
 30
0.000000
  0
SEQEND
  8
LAYER-1
  0
POLYLINE
  8
LAYER-1
 66
  1
 70
  0
 62
  7
 10
0.391532
 20
0.768376
 30
0.000000
  0
VERTEX
  8
LAYER-1
 10
0.391532
 20
0.768376
 30
0.000000
  0
VERTEX
  8
LAYER-1
 10
0.430118
 20
0.773101
 30
0.000000
  0
SEQEND
  8
LAYER-1
  0
POLYLINE
  8
LAYER-1
 66
  1
 70
  0
 62
  7
 10
0.391532
 20
0.768376
 30
0.000000
  0
VERTEX
  8
LAYER-1
 10
0.391532
 20
0.768376
 30
0.000000
  0
VERTEX
  8
LAYER-1
 10
0.430118
 20
0.778613
 30
0.000000
  0
SEQEND
  8
LAYER-1
  0
ENDSEC
  0
EOF
