  0
SECTION
  2
HEADER
999
MacDraft 5.0\0
  9
$ACADVER
  1
AC1006
  9
$CLAYER
  8
LAYER-1
  9
$EXTMIN
 10
0.000000
 20
0.000000
  9
$EXTMAX
 10
7.673588
 20
10.247439
  9
$FASTZOOM
 70
0
  9
$FILLMODE
 70
1
  0
ENDSEC
  0
SECTION
  2
TABLES
  0
TABLE
  2
LTYPE
 70
16
  0
LTYPE
  2
CONTINUOUS
 70
64
  3
Solid Line
 72
65
 73
0
 40
0.000000
  0
LTYPE
  2
LTYPE01
 70
64
  3
CUSTOM
 72
65
 73
2
 40
0.072727
 49
0.054545
 49
-0.018182
  0
LTYPE
  2
LTYPE02
 70
64
  3
CUSTOM
 72
65
 73
2
 40
0.127273
 49
0.109091
 49
-0.018182
  0
LTYPE
  2
LTYPE03
 70
64
  3
CUSTOM
 72
65
 73
2
 40
0.245455
 49
0.218182
 49
-0.027273
  0
LTYPE
  2
LTYPE04
 70
64
  3
CUSTOM
 72
65
 73
2
 40
0.472727
 49
0.436364
 49
-0.036364
  0
LTYPE
  2
LTYPE05
 70
64
  3
CUSTOM
 72
65
 73
4
 40
0.100000
 49
0.054545
 49
-0.018182
 49
0.009091
 49
-0.018182
  0
LTYPE
  2
LTYPE06
 70
64
  3
CUSTOM
 72
65
 73
4
 40
0.154545
 49
0.109091
 49
-0.018182
 49
0.009091
 49
-0.018182
  0
LTYPE
  2
LTYPE07
 70
64
  3
CUSTOM
 72
65
 73
4
 40
0.290909
 49
0.218182
 49
-0.027273
 49
0.018182
 49
-0.027273
  0
LTYPE
  2
LTYPE08
 70
64
  3
CUSTOM
 72
65
 73
4
 40
0.527273
 49
0.436364
 49
-0.036364
 49
0.018182
 49
-0.036364
  0
LTYPE
  2
LTYPE09
 70
64
  3
CUSTOM
 72
65
 73
6
 40
0.127273
 49
0.054545
 49
-0.018182
 49
0.009091
 49
-0.018182
 49
0.009091
 49
-0.018182
  0
LTYPE
  2
LTYPE10
 70
64
  3
CUSTOM
 72
65
 73
6
 40
0.181818
 49
0.109091
 49
-0.018182
 49
0.009091
 49
-0.018182
 49
0.009091
 49
-0.018182
  0
LTYPE
  2
LTYPE11
 70
64
  3
CUSTOM
 72
65
 73
6
 40
0.327273
 49
0.218182
 49
-0.027273
 49
0.018182
 49
-0.018182
 49
0.018182
 49
-0.027273
  0
LTYPE
  2
LTYPE12
 70
64
  3
CUSTOM
 72
65
 73
6
 40
0.563636
 49
0.436364
 49
-0.036364
 49
0.018182
 49
-0.018182
 49
0.018182
 49
-0.036364
  0
LTYPE
  2
LTYPE13
 70
64
  3
CUSTOM
 72
65
 73
8
 40
0.209091
 49
0.109091
 49
-0.018182
 49
0.009091
 49
-0.018182
 49
0.009091
 49
-0.018182
 49
0.009091
 49
-0.018182
  0
LTYPE
  2
LTYPE14
 70
64
  3
CUSTOM
 72
65
 73
8
 40
0.363636
 49
0.218182
 49
-0.027273
 49
0.018182
 49
-0.018182
 49
0.018182
 49
-0.018182
 49
0.018182
 49
-0.027273
  0
LTYPE
  2
LTYPE15
 70
64
  3
CUSTOM
 72
65
 73
8
 40
0.618182
 49
0.436364
 49
-0.036364
 49
0.018182
 49
-0.027273
 49
0.018182
 49
-0.027273
 49
0.018182
 49
-0.036364
  0
ENDTAB
  0
TABLE
  2
LAYER
 70
1
  0
LAYER
  2
LAYER-1
 70
0
 62
7
  6
CONTINUOUS
  0
ENDTAB
  0
ENDSEC
  0
SECTION
  2
BLOCKS
  0
ENDSEC
  0
SECTION
  2
ENTITIES
  0
TEXT
  8
LAYER-1
 62
  7
 10
2.170403
 20
0.075739
 30
0.000000
 40
0.122727
  1
* Pour support en angles, trous d'installation des guides sont prÄ-percÄs.
 72
  5
 11
7.470403
 21
0.075739
 31
0.000000
  0
ARC
  8
LAYER-1
 62
  7
 10
5.416713
 20
9.181233
 30
0.000000
 40
0.254425
 50
270.000000
 51
90.000000
  0
POLYLINE
  8
LAYER-1
 66
  1
 70
  0
 62
  7
 10
5.416713
 20
9.435658
 30
0.000000
  0
VERTEX
  8
LAYER-1
 10
5.416713
 20
9.435658
 30
0.000000
  0
VERTEX
  8
LAYER-1
 10
1.751790
 20
9.435658
 30
0.000000
  0
SEQEND
  8
LAYER-1
  0
POLYLINE
  8
LAYER-1
 66
  1
 70
  0
 62
  7
 10
1.751790
 20
9.435658
 30
0.000000
  0
VERTEX
  8
LAYER-1
 10
1.751790
 20
9.435658
 30
0.000000
  0
VERTEX
  8
LAYER-1
 10
1.751790
 20
8.926808
 30
0.000000
  0
SEQEND
  8
LAYER-1
  0
POLYLINE
  8
LAYER-1
 66
  1
 70
  0
 62
  7
 10
5.416713
 20
8.926808
 30
0.000000
  0
VERTEX
  8
LAYER-1
 10
5.416713
 20
8.926808
 30
0.000000
  0
VERTEX
  8
LAYER-1
 10
1.751790
 20
8.926808
 30
0.000000
  0
SEQEND
  8
LAYER-1
  0
TEXT
  8
LAYER-1
 62
  7
 10
3.543130
 20
9.730285
 30
0.000000
 40
0.340909
  1
MobilFlex
 72
  5
 11
5.752221
 21
9.730285
 31
0.000000
  0
POLYLINE
  8
LAYER-1
 66
  1
 70
  1
 62
  7
  0
VERTEX
  8
LAYER-1
 10
1.753294
 20
10.246348
 30
0.000000
  0
VERTEX
  8
LAYER-1
 10
1.991141
 20
10.246348
 30
0.000000
  0
VERTEX
  8
LAYER-1
 10
1.991141
 20
9.729403
 30
0.000000
  0
VERTEX
  8
LAYER-1
 10
1.753294
 20
9.729403
 30
0.000000
  0
SEQEND
  8
LAYER-1
  0
POLYLINE
  8
LAYER-1
 66
  1
 70
  1
 62
  7
  0
VERTEX
  8
LAYER-1
 10
2.065794
 20
10.246348
 30
0.000000
  0
VERTEX
  8
LAYER-1
 10
2.303641
 20
10.246348
 30
0.000000
  0
VERTEX
  8
LAYER-1
 10
2.303641
 20
9.729403
 30
0.000000
  0
VERTEX
  8
LAYER-1
 10
2.065794
 20
9.729403
 30
0.000000
  0
SEQEND
  8
LAYER-1
  0
POLYLINE
  8
LAYER-1
 66
  1
 70
  1
 62
  7
  0
VERTEX
  8
LAYER-1
 10
2.366141
 20
10.246348
 30
0.000000
  0
VERTEX
  8
LAYER-1
 10
2.603988
 20
10.246348
 30
0.000000
  0
VERTEX
  8
LAYER-1
 10
2.603988
 20
9.729403
 30
0.000000
  0
VERTEX
  8
LAYER-1
 10
2.366141
 20
9.729403
 30
0.000000
  0
SEQEND
  8
LAYER-1
  0
POLYLINE
  8
LAYER-1
 66
  1
 70
  1
 62
  7
  0
VERTEX
  8
LAYER-1
 10
2.669960
 20
10.246348
 30
0.000000
  0
VERTEX
  8
LAYER-1
 10
2.907808
 20
10.246348
 30
0.000000
  0
VERTEX
  8
LAYER-1
 10
2.907808
 20
9.729403
 30
0.000000
  0
VERTEX
  8
LAYER-1
 10
2.669960
 20
9.729403
 30
0.000000
  0
SEQEND
  8
LAYER-1
  0
POLYLINE
  8
LAYER-1
 66
  1
 70
  1
 62
  7
  0
VERTEX
  8
LAYER-1
 10
2.986801
 20
10.242433
 30
0.000000
  0
VERTEX
  8
LAYER-1
 10
3.362234
 20
10.242433
 30
0.000000
  0
VERTEX
  8
LAYER-1
 10
3.362234
 20
10.104412
 30
0.000000
  0
VERTEX
  8
LAYER-1
 10
2.986801
 20
10.104412
 30
0.000000
  0
SEQEND
  8
LAYER-1
  0
POLYLINE
  8
LAYER-1
 66
  1
 70
  1
 62
  7
  0
VERTEX
  8
LAYER-1
 10
2.986367
 20
10.015002
 30
0.000000
  0
VERTEX
  8
LAYER-1
 10
3.294526
 20
10.015002
 30
0.000000
  0
VERTEX
  8
LAYER-1
 10
3.294526
 20
9.880888
 30
0.000000
  0
VERTEX
  8
LAYER-1
 10
2.986367
 20
9.880888
 30
0.000000
  0
SEQEND
  8
LAYER-1
  0
POLYLINE
  8
LAYER-1
 66
  1
 70
  1
 62
  7
  0
VERTEX
  8
LAYER-1
 10
1.753294
 20
9.644777
 30
0.000000
  0
VERTEX
  8
LAYER-1
 10
5.671697
 20
9.644777
 30
0.000000
  0
VERTEX
  8
LAYER-1
 10
5.671697
 20
9.601374
 30
0.000000
  0
VERTEX
  8
LAYER-1
 10
1.753294
 20
9.601374
 30
0.000000
  0
SEQEND
  8
LAYER-1
  0
TEXT
  8
LAYER-1
 62
  7
 10
1.743130
 20
8.757557
 30
0.000000
 40
0.122727
  1
MâTRIQUE
 72
  5
 11
2.597675
 21
8.757557
 31
0.000000
  0
TEXT
  8
LAYER-1
 62
  7
 10
1.897675
 20
9.066648
 30
0.000000
 40
0.177273
  1
DÄtails Plaque d'extrÄmitÄ & Recul
 72
  5
 11
5.524948
 21
9.066648
 31
0.000000
  0
POLYLINE
  8
LAYER-1
 66
  1
 70
  0
 62
  7
 40
0.018182
 41
0.018182
 10
7.589618
 20
1.422200
 30
0.000000
  0
VERTEX
  8
LAYER-1
 10
7.589618
 20
1.422200
 30
0.000000
  0
VERTEX
  8
LAYER-1
 10
7.589618
 20
0.242477
 30
0.000000
  0
SEQEND
  8
LAYER-1
  0
POLYLINE
  8
LAYER-1
 66
  1
 70
  0
 62
  7
 40
0.018182
 41
0.018182
 10
2.193785
 20
0.242477
 30
0.000000
  0
VERTEX
  8
LAYER-1
 10
2.193785
 20
0.242477
 30
0.000000
  0
VERTEX
  8
LAYER-1
 10
2.193785
 20
1.422200
 30
0.000000
  0
SEQEND
  8
LAYER-1
  0
TEXT
  8
LAYER-1
 62
  7
 10
2.288585
 20
0.375739
 30
0.000000
 40
0.115909
  1
RECUL  "Z"
 72
  5
 11
3.170403
 21
0.375739
 31
0.000000
  0
POLYLINE
  8
LAYER-1
 66
  1
 70
  0
 62
  7
 40
0.018182
 41
0.018182
 10
2.193785
 20
1.422200
 30
0.000000
  0
VERTEX
  8
LAYER-1
 10
2.193785
 20
1.422200
 30
0.000000
  0
VERTEX
  8
LAYER-1
 10
7.589618
 20
1.422200
 30
0.000000
  0
SEQEND
  8
LAYER-1
  0
POLYLINE
  8
LAYER-1
 66
  1
 70
  0
 62
  7
 10
2.193785
 20
0.964141
 30
0.000000
  0
VERTEX
  8
LAYER-1
 10
2.193785
 20
0.964141
 30
0.000000
  0
VERTEX
  8
LAYER-1
 10
7.589618
 20
0.964141
 30
0.000000
  0
SEQEND
  8
LAYER-1
  0
POLYLINE
  8
LAYER-1
 66
  1
 70
  0
 62
  7
 10
2.193785
 20
0.603309
 30
0.000000
  0
VERTEX
  8
LAYER-1
 10
2.193785
 20
0.603309
 30
0.000000
  0
VERTEX
  8
LAYER-1
 10
7.589618
 20
0.603309
 30
0.000000
  0
SEQEND
  8
LAYER-1
  0
POLYLINE
  8
LAYER-1
 66
  1
 70
  0
 62
  7
 40
0.018182
 41
0.018182
 10
2.193785
 20
0.242477
 30
0.000000
  0
VERTEX
  8
LAYER-1
 10
2.193785
 20
0.242477
 30
0.000000
  0
VERTEX
  8
LAYER-1
 10
7.589618
 20
0.242477
 30
0.000000
  0
SEQEND
  8
LAYER-1
  0
TEXT
  8
LAYER-1
 62
  7
 10
4.061312
 20
0.803012
 30
0.000000
 40
0.115909
  1
jusqu'ê
 72
  5
 11
4.561312
 21
0.803012
 31
0.000000
  0
TEXT
  8
LAYER-1
 62
  7
 10
4.188585
 20
0.621194
 30
0.000000
 40
0.115909
  1
3,0m
 72
  5
 11
4.561312
 21
0.621194
 31
0.000000
  0
TEXT
  8
LAYER-1
 62
  7
 10
4.824948
 20
0.793921
 30
0.000000
 40
0.115909
  1
3,0 ê
 72
  5
 11
5.206766
 21
0.793921
 31
0.000000
  0
TEXT
  8
LAYER-1
 62
  7
 10
4.834039
 20
0.612103
 30
0.000000
 40
0.115909
  1
4,0m
 72
  5
 11
5.206766
 21
0.612103
 31
0.000000
  0
TEXT
  8
LAYER-1
 62
  7
 10
5.479494
 20
0.793921
 30
0.000000
 40
0.115909
  1
4,0 ê
 72
  5
 11
5.861312
 21
0.793921
 31
0.000000
  0
TEXT
  8
LAYER-1
 62
  7
 10
5.488585
 20
0.612103
 30
0.000000
 40
0.115909
  1
5,0m
 72
  5
 11
5.861312
 21
0.612103
 31
0.000000
  0
TEXT
  8
LAYER-1
 62
  7
 10
6.143130
 20
0.793921
 30
0.000000
 40
0.115909
  1
jusqu'ê
 72
  5
 11
6.643130
 21
0.793921
 31
0.000000
  0
TEXT
  8
LAYER-1
 62
  7
 10
6.270403
 20
0.612103
 30
0.000000
 40
0.115909
  1
3,4m
 72
  5
 11
6.643130
 21
0.612103
 31
0.000000
  0
TEXT
  8
LAYER-1
 62
  7
 10
7.024948
 20
0.803012
 30
0.000000
 40
0.115909
  1
3,4m
 72
  5
 11
7.397675
 21
0.803012
 31
0.000000
  0
TEXT
  8
LAYER-1
 62
  7
 10
6.879494
 20
0.621194
 30
0.000000
 40
0.115909
  1
et plus 
 72
  5
 11
7.397675
 21
0.621194
 31
0.000000
  0
TEXT
  8
LAYER-1
 62
  7
 10
6.379494
 20
1.257557
 30
0.000000
 40
0.122727
  1
Pour 
 72
  5
 11
6.843130
 21
1.257557
 31
0.000000
  0
TEXT
  8
LAYER-1
 62
  7
 10
6.843130
 20
1.257557
 30
0.000000
 40
0.115909
  1
tubes
 72
  5
 11
7.288585
 21
1.257557
 31
0.000000
  0
TEXT
  8
LAYER-1
 62
  7
 10
6.379494
 20
1.075739
 30
0.000000
 40
0.115909
  1
102x102mm
 72
  5
 11
7.252221
 21
1.075739
 31
0.000000
  0
TEXT
  8
LAYER-1
 62
  7
 10
4.161312
 20
1.257557
 30
0.000000
 40
0.122727
  1
Pour
 72
  5
 11
4.579494
 21
1.257557
 31
0.000000
  0
TEXT
  8
LAYER-1
 62
  7
 10
4.579494
 20
1.257557
 30
0.000000
 40
0.115909
  1
 tubes
 72
  5
 11
5.070403
 21
1.257557
 31
0.000000
  0
TEXT
  8
LAYER-1
 62
  7
 10
5.070403
 20
1.257557
 30
0.000000
 40
0.122727
  1
 
 72
  5
 11
5.161312
 21
1.257557
 31
0.000000
  0
TEXT
  8
LAYER-1
 62
  7
 10
5.161312
 20
1.257557
 30
0.000000
 40
0.115909
  1
76x76mm et
 72
  5
 11
6.052221
 21
1.257557
 31
0.000000
  0
TEXT
  8
LAYER-1
 62
  7
 10
4.161312
 20
1.075739
 30
0.000000
 40
0.115909
  1
tubes Alum 44x102mm
 72
  5
 11
5.797675
 21
1.075739
 31
0.000000
  0
POLYLINE
  8
LAYER-1
 66
  1
 70
  0
 62
  7
 10
3.924545
 20
0.242477
 30
0.000000
  0
VERTEX
  8
LAYER-1
 10
3.924545
 20
0.242477
 30
0.000000
  0
VERTEX
  8
LAYER-1
 10
3.924545
 20
1.422200
 30
0.000000
  0
SEQEND
  8
LAYER-1
  0
POLYLINE
  8
LAYER-1
 66
  1
 70
  0
 62
  7
 10
4.727991
 20
0.242477
 30
0.000000
  0
VERTEX
  8
LAYER-1
 10
4.727991
 20
0.242477
 30
0.000000
  0
VERTEX
  8
LAYER-1
 10
4.727991
 20
0.964141
 30
0.000000
  0
SEQEND
  8
LAYER-1
  0
POLYLINE
  8
LAYER-1
 66
  1
 70
  0
 62
  7
 10
5.392546
 20
0.242477
 30
0.000000
  0
VERTEX
  8
LAYER-1
 10
5.392546
 20
0.242477
 30
0.000000
  0
VERTEX
  8
LAYER-1
 10
5.392546
 20
0.964141
 30
0.000000
  0
SEQEND
  8
LAYER-1
  0
POLYLINE
  8
LAYER-1
 66
  1
 70
  0
 62
  7
 10
6.029322
 20
0.242477
 30
0.000000
  0
VERTEX
  8
LAYER-1
 10
6.029322
 20
0.242477
 30
0.000000
  0
VERTEX
  8
LAYER-1
 10
6.029322
 20
1.422200
 30
0.000000
  0
SEQEND
  8
LAYER-1
  0
POLYLINE
  8
LAYER-1
 66
  1
 70
  0
 62
  7
 10
6.829295
 20
0.242477
 30
0.000000
  0
VERTEX
  8
LAYER-1
 10
6.829295
 20
0.242477
 30
0.000000
  0
VERTEX
  8
LAYER-1
 10
6.829295
 20
0.964141
 30
0.000000
  0
SEQEND
  8
LAYER-1
  0
TEXT
  8
LAYER-1
 62
  7
 10
2.297675
 20
1.157557
 30
0.000000
 40
0.115909
  1
SUPPORT
 72
  5
 11
3.070403
 21
1.157557
 31
0.000000
  0
TEXT
  8
LAYER-1
 62
  7
 10
2.297675
 20
0.739375
 30
0.000000
 40
0.115909
  1
HAUTEUR PLAFOND
 72
  5
 11
3.834039
 21
0.739375
 31
0.000000
  0
TEXT
  8
LAYER-1
 62
  7
 10
4.088585
 20
0.375739
 30
0.000000
 40
0.122727
  1
51mm
 72
  5
 11
4.588585
 21
0.375739
 31
0.000000
  0
TEXT
  8
LAYER-1
 62
  7
 10
4.834039
 20
0.375739
 30
0.000000
 40
0.122727
  1
57mm
 72
  5
 11
5.334039
 21
0.375739
 31
0.000000
  0
TEXT
  8
LAYER-1
 62
  7
 10
5.470403
 20
0.375739
 30
0.000000
 40
0.122727
  1
64mm
 72
  5
 11
5.970403
 21
0.375739
 31
0.000000
  0
TEXT
  8
LAYER-1
 62
  7
 10
6.188585
 20
0.375739
 30
0.000000
 40
0.122727
  1
57mm
 72
  5
 11
6.688585
 21
0.375739
 31
0.000000
  0
TEXT
  8
LAYER-1
 62
  7
 10
6.961312
 20
0.375739
 30
0.000000
 40
0.122727
  1
64mm
 72
  5
 11
7.461312
 21
0.375739
 31
0.000000
  0
TEXT
  8
LAYER-1
 62
  7
 10
2.215857
 20
1.503012
 30
0.000000
 40
0.122727
  1
Recul  "Z"  selon Hauteur plafond
 72
  5
 11
4.879494
 21
1.503012
 31
0.000000
  0
TEXT
  8
LAYER-1
 62
  7
 10
0.797675
 20
1.566648
 30
0.000000
 40
0.102273
  1
PLAQUE
 72
  5
 11
1.379494
 21
1.566648
 31
0.000000
  0
TEXT
  8
LAYER-1
 62
  7
 10
0.797675
 20
1.412103
 30
0.000000
 40
0.102273
  1
D'EXTRâMITâ
 72
  5
 11
1.715857
 21
1.412103
 31
0.000000
  0
TEXT
  8
LAYER-1
 62
  7
 10
0.806766
 20
0.957557
 30
0.000000
 40
0.102273
  1
CENTRE
 72
  5
 11
1.406766
 21
0.957557
 31
0.000000
  0
TEXT
  8
LAYER-1
 62
  7
 10
0.806766
 20
0.803012
 30
0.000000
 40
0.102273
  1
DU GUIDE
 72
  5
 11
1.488585
 21
0.803012
 31
0.000000
  0
TEXT
  8
LAYER-1
 62
  7
 10
0.370403
 20
0.084830
 30
0.000000
 40
0.122727
  1
VUE EN PLAN
 72
  5
 11
1.497675
 21
0.084830
 31
0.000000
  0
TEXT
  8
LAYER-1
 62
  7
 10
0.552221
 20
0.357557
 30
0.000000
 40
0.102273
  1
RECUL
 72
  5
 11
1.052221
 21
0.357557
 31
0.000000
  0
POLYLINE
  8
LAYER-1
 66
  1
 70
  1
 62
  7
  0
VERTEX
  8
LAYER-1
 10
0.070492
 20
1.265929
 30
0.000000
  0
VERTEX
  8
LAYER-1
 10
1.731114
 20
1.265929
 30
0.000000
  0
VERTEX
  8
LAYER-1
 10
1.731114
 20
1.229254
 30
0.000000
  0
VERTEX
  8
LAYER-1
 10
0.070492
 20
1.229254
 30
0.000000
  0
SEQEND
  8
LAYER-1
  0
POLYLINE
  8
LAYER-1
 66
  1
 70
  0
 62
  7
 10
0.986397
 20
1.370098
 30
0.000000
  0
VERTEX
  8
LAYER-1
 10
0.986397
 20
1.370098
 30
0.000000
  0
VERTEX
  8
LAYER-1
 10
0.899389
 20
1.284108
 30
0.000000
  0
SEQEND
  8
LAYER-1
  0
POLYLINE
  8
LAYER-1
 66
  1
 70
  1
 62
  7
  0
VERTEX
  8
LAYER-1
 10
0.885388
 20
1.270271
 30
0.000000
  0
VERTEX
  8
LAYER-1
 10
0.898547
 20
1.321620
 30
0.000000
  0
VERTEX
  8
LAYER-1
 10
0.917718
 20
1.302222
 30
0.000000
  0
VERTEX
  8
LAYER-1
 10
0.936888
 20
1.282824
 30
0.000000
  0
VERTEX
  8
LAYER-1
 10
0.885388
 20
1.270271
 30
0.000000
  0
SEQEND
  8
LAYER-1
  0
POLYLINE
  8
LAYER-1
  6
LTYPE05
 66
  1
 70
  0
 62
  7
  6
LTYPE05
 10
0.487858
 20
2.009423
 30
0.000000
  0
VERTEX
  8
LAYER-1
  6
LTYPE05
 10
0.487858
 20
2.009423
 30
0.000000
  0
VERTEX
  8
LAYER-1
  6
LTYPE05
 10
0.488058
 20
0.649329
 30
0.000000
  0
SEQEND
  8
LAYER-1
  0
LINE
  8
LAYER-1
 62
  7
 10
0.090177
 20
0.537886
 30
0.000000
 11
0.468373
 21
0.537886
 31
0.000000
  0
LINE
  8
LAYER-1
 62
  7
 10
0.070492
 20
1.166754
 30
0.000000
 11
0.070492
 21
0.412886
 31
0.000000
  0
LINE
  8
LAYER-1
 62
  7
 10
0.488058
 20
0.586829
 30
0.000000
 11
0.488058
 21
0.412886
 31
0.000000
  0
POLYLINE
  8
LAYER-1
 66
  1
 70
  1
 62
  7
  0
VERTEX
  8
LAYER-1
 10
0.070492
 20
0.537886
 30
0.000000
  0
VERTEX
  8
LAYER-1
 10
0.115947
 20
0.510613
 30
0.000000
  0
VERTEX
  8
LAYER-1
 10
0.115947
 20
0.537886
 30
0.000000
  0
VERTEX
  8
LAYER-1
 10
0.115947
 20
0.565159
 30
0.000000
  0
VERTEX
  8
LAYER-1
 10
0.070492
 20
0.537886
 30
0.000000
  0
SEQEND
  8
LAYER-1
  0
POLYLINE
  8
LAYER-1
 66
  1
 70
  1
 62
  7
  0
VERTEX
  8
LAYER-1
 10
0.488058
 20
0.537886
 30
0.000000
  0
VERTEX
  8
LAYER-1
 10
0.442604
 20
0.510613
 30
0.000000
  0
VERTEX
  8
LAYER-1
 10
0.442604
 20
0.537886
 30
0.000000
  0
VERTEX
  8
LAYER-1
 10
0.442604
 20
0.565159
 30
0.000000
  0
VERTEX
  8
LAYER-1
 10
0.488058
 20
0.537886
 30
0.000000
  0
SEQEND
  8
LAYER-1
  0
TEXT
  8
LAYER-1
 62
  7
 10
0.203617
 20
0.385546
 30
0.000000
 40
0.081818
  1
"Z"
  0
TEXT
  8
LAYER-1
 62
  7
 10
0.797675
 20
1.921194
 30
0.000000
 40
0.102273
  1
TUBE
 72
  5
 11
1.197675
 21
1.921194
 31
0.000000
  0
TEXT
  8
LAYER-1
 62
  7
 10
0.797675
 20
1.766648
 30
0.000000
 40
0.102273
  1
SUPPORT
 72
  5
 11
1.497675
 21
1.766648
 31
0.000000
  0
POLYLINE
  8
LAYER-1
 66
  1
 70
  0
 62
  7
 10
0.777600
 20
1.975815
 30
0.000000
  0
VERTEX
  8
LAYER-1
 10
0.777600
 20
1.975815
 30
0.000000
  0
VERTEX
  8
LAYER-1
 10
0.676071
 20
1.910120
 30
0.000000
  0
SEQEND
  8
LAYER-1
  0
POLYLINE
  8
LAYER-1
 66
  1
 70
  1
 62
  7
  0
VERTEX
  8
LAYER-1
 10
0.659544
 20
1.899425
 30
0.000000
  0
VERTEX
  8
LAYER-1
 10
0.682890
 20
1.947016
 30
0.000000
  0
VERTEX
  8
LAYER-1
 10
0.697706
 20
1.924119
 30
0.000000
  0
VERTEX
  8
LAYER-1
 10
0.712522
 20
1.901222
 30
0.000000
  0
VERTEX
  8
LAYER-1
 10
0.659544
 20
1.899425
 30
0.000000
  0
SEQEND
  8
LAYER-1
  0
POLYLINE
  8
LAYER-1
 66
  1
 70
  0
 62
  7
 10
0.784544
 20
0.948036
 30
0.000000
  0
VERTEX
  8
LAYER-1
 10
0.784544
 20
0.948036
 30
0.000000
  0
VERTEX
  8
LAYER-1
 10
0.509225
 20
0.950854
 30
0.000000
  0
SEQEND
  8
LAYER-1
  0
POLYLINE
  8
LAYER-1
 66
  1
 70
  1
 62
  7
  0
VERTEX
  8
LAYER-1
 10
0.489541
 20
0.951056
 30
0.000000
  0
VERTEX
  8
LAYER-1
 10
0.535272
 20
0.977863
 30
0.000000
  0
VERTEX
  8
LAYER-1
 10
0.534993
 20
0.950591
 30
0.000000
  0
VERTEX
  8
LAYER-1
 10
0.534714
 20
0.923320
 30
0.000000
  0
VERTEX
  8
LAYER-1
 10
0.489541
 20
0.951056
 30
0.000000
  0
SEQEND
  8
LAYER-1
  0
POLYLINE
  8
LAYER-1
 66
  1
 70
  1
 62
  7
 10
1.447382
 20
1.290512
 30
0.000000
  0
VERTEX
  8
LAYER-1
 10
1.447382
 20
1.290512
 30
0.000000
  0
VERTEX
  8
LAYER-1
 10
1.345820
 20
1.160304
 30
0.000000
  0
VERTEX
  8
LAYER-1
 10
1.478632
 20
1.200233
 30
0.000000
  0
VERTEX
  8
LAYER-1
 10
1.585403
 20
1.350409
 30
0.000000
  0
SEQEND
  8
LAYER-1
  0
POLYLINE
  8
LAYER-1
 66
  1
 70
  0
 62
  7
 10
1.556757
 20
1.352145
 30
0.000000
  0
VERTEX
  8
LAYER-1
 10
1.556757
 20
1.352145
 30
0.000000
  0
VERTEX
  8
LAYER-1
 10
1.479500
 20
1.243637
 30
0.000000
  0
SEQEND
  8
LAYER-1
  0
POLYLINE
  8
LAYER-1
 66
  1
 70
  0
 62
  7
 10
1.479500
 20
1.243637
 30
0.000000
  0
VERTEX
  8
LAYER-1
 10
1.479500
 20
1.243637
 30
0.000000
  0
VERTEX
  8
LAYER-1
 10
1.447382
 20
1.290512
 30
0.000000
  0
SEQEND
  8
LAYER-1
  0
POLYLINE
  8
LAYER-1
 66
  1
 70
  0
 62
  7
 10
1.447382
 20
1.290512
 30
0.000000
  0
VERTEX
  8
LAYER-1
 10
1.447382
 20
1.290512
 30
0.000000
  0
VERTEX
  8
LAYER-1
 10
1.345820
 20
1.160304
 30
0.000000
  0
SEQEND
  8
LAYER-1
  0
POLYLINE
  8
LAYER-1
 66
  1
 70
  0
 62
  7
 10
1.585403
 20
1.350409
 30
0.000000
  0
VERTEX
  8
LAYER-1
 10
1.585403
 20
1.350409
 30
0.000000
  0
VERTEX
  8
LAYER-1
 10
1.478632
 20
1.200233
 30
0.000000
  0
SEQEND
  8
LAYER-1
  0
POLYLINE
  8
LAYER-1
 66
  1
 70
  0
 62
  7
 10
1.478632
 20
1.200233
 30
0.000000
  0
VERTEX
  8
LAYER-1
 10
1.478632
 20
1.200233
 30
0.000000
  0
VERTEX
  8
LAYER-1
 10
1.443910
 20
1.248846
 30
0.000000
  0
SEQEND
  8
LAYER-1
  0
POLYLINE
  8
LAYER-1
 66
  1
 70
  0
 62
  7
 10
1.443910
 20
1.248846
 30
0.000000
  0
VERTEX
  8
LAYER-1
 10
1.443910
 20
1.248846
 30
0.000000
  0
VERTEX
  8
LAYER-1
 10
1.373598
 20
1.156833
 30
0.000000
  0
SEQEND
  8
LAYER-1
  0
POLYLINE
  8
LAYER-1
 66
  1
 70
  0
 62
  7
 10
0.070829
 20
1.296707
 30
0.000000
  0
VERTEX
  8
LAYER-1
 10
0.070829
 20
1.296707
 30
0.000000
  0
VERTEX
  8
LAYER-1
 10
0.070829
 20
1.862433
 30
0.000000
  0
SEQEND
  8
LAYER-1
  0
POLYLINE
  8
LAYER-1
 66
  1
 70
  0
 62
  7
 10
0.102139
 20
1.893743
 30
0.000000
  0
VERTEX
  8
LAYER-1
 10
0.102139
 20
1.893743
 30
0.000000
  0
VERTEX
  8
LAYER-1
 10
0.667436
 20
1.893743
 30
0.000000
  0
SEQEND
  8
LAYER-1
  0
POLYLINE
  8
LAYER-1
 66
  1
 70
  0
 62
  7
 10
0.698745
 20
1.862433
 30
0.000000
  0
VERTEX
  8
LAYER-1
 10
0.698745
 20
1.862433
 30
0.000000
  0
VERTEX
  8
LAYER-1
 10
0.698745
 20
1.296707
 30
0.000000
  0
SEQEND
  8
LAYER-1
  0
POLYLINE
  8
LAYER-1
 66
  1
 70
  0
 62
  7
 10
0.667436
 20
1.265398
 30
0.000000
  0
VERTEX
  8
LAYER-1
 10
0.667436
 20
1.265398
 30
0.000000
  0
VERTEX
  8
LAYER-1
 10
0.102139
 20
1.265398
 30
0.000000
  0
SEQEND
  8
LAYER-1
  0
ARC
  8
LAYER-1
 62
  7
 10
0.102139
 20
1.296707
 30
0.000000
 40
0.031310
 50
180.000000
 51
270.000000
  0
ARC
  8
LAYER-1
 62
  7
 10
0.667436
 20
1.296707
 30
0.000000
 40
0.031310
 50
270.000000
 51
0.000000
  0
ARC
  8
LAYER-1
 62
  7
 10
0.667436
 20
1.862433
 30
0.000000
 40
0.031310
 50
0.000000
 51
90.000000
  0
ARC
  8
LAYER-1
 62
  7
 10
0.102139
 20
1.862433
 30
0.000000
 40
0.031310
 50
90.000000
 51
180.000000
  0
POLYLINE
  8
LAYER-1
 66
  1
 70
  0
 62
  7
 10
0.096166
 20
1.791427
 30
0.000000
  0
VERTEX
  8
LAYER-1
 10
0.096166
 20
1.791427
 30
0.000000
  0
VERTEX
  8
LAYER-1
 10
0.070399
 20
1.768074
 30
0.000000
  0
SEQEND
  8
LAYER-1
  0
POLYLINE
  8
LAYER-1
 66
  1
 70
  0
 62
  7
 10
0.096166
 20
1.571116
 30
0.000000
  0
VERTEX
  8
LAYER-1
 10
0.096166
 20
1.571116
 30
0.000000
  0
VERTEX
  8
LAYER-1
 10
0.070399
 20
1.548153
 30
0.000000
  0
SEQEND
  8
LAYER-1
  0
POLYLINE
  8
LAYER-1
 66
  1
 70
  0
 62
  7
 10
0.096166
 20
1.510177
 30
0.000000
  0
VERTEX
  8
LAYER-1
 10
0.096166
 20
1.510177
 30
0.000000
  0
VERTEX
  8
LAYER-1
 10
0.070399
 20
1.485320
 30
0.000000
  0
SEQEND
  8
LAYER-1
  0
POLYLINE
  8
LAYER-1
 66
  1
 70
  0
 62
  7
 10
0.128978
 20
1.291427
 30
0.000000
  0
VERTEX
  8
LAYER-1
 10
0.128978
 20
1.291427
 30
0.000000
  0
VERTEX
  8
LAYER-1
 10
0.101818
 20
1.265398
 30
0.000000
  0
SEQEND
  8
LAYER-1
  0
POLYLINE
  8
LAYER-1
 66
  1
 70
  0
 62
  7
 10
0.222728
 20
1.291427
 30
0.000000
  0
VERTEX
  8
LAYER-1
 10
0.222728
 20
1.291427
 30
0.000000
  0
VERTEX
  8
LAYER-1
 10
0.196069
 20
1.265398
 30
0.000000
  0
SEQEND
  8
LAYER-1
  0
POLYLINE
  8
LAYER-1
 66
  1
 70
  0
 62
  7
 10
0.568041
 20
1.291427
 30
0.000000
  0
VERTEX
  8
LAYER-1
 10
0.568041
 20
1.291427
 30
0.000000
  0
VERTEX
  8
LAYER-1
 10
0.541658
 20
1.265398
 30
0.000000
  0
SEQEND
  8
LAYER-1
  0
POLYLINE
  8
LAYER-1
 66
  1
 70
  0
 62
  7
 10
0.441478
 20
1.291427
 30
0.000000
  0
VERTEX
  8
LAYER-1
 10
0.441478
 20
1.291427
 30
0.000000
  0
VERTEX
  8
LAYER-1
 10
0.415989
 20
1.265398
 30
0.000000
  0
SEQEND
  8
LAYER-1
  0
POLYLINE
  8
LAYER-1
 66
  1
 70
  0
 62
  7
 10
0.097103
 20
1.310349
 30
0.000000
  0
VERTEX
  8
LAYER-1
 10
0.097103
 20
1.310349
 30
0.000000
  0
VERTEX
  8
LAYER-1
 10
0.097103
 20
1.848803
 30
0.000000
  0
SEQEND
  8
LAYER-1
  0
POLYLINE
  8
LAYER-1
 66
  1
 70
  0
 62
  7
 10
0.114992
 20
1.866691
 30
0.000000
  0
VERTEX
  8
LAYER-1
 10
0.114992
 20
1.866691
 30
0.000000
  0
VERTEX
  8
LAYER-1
 10
0.653443
 20
1.866691
 30
0.000000
  0
SEQEND
  8
LAYER-1
  0
POLYLINE
  8
LAYER-1
 66
  1
 70
  0
 62
  7
 10
0.671331
 20
1.848803
 30
0.000000
  0
VERTEX
  8
LAYER-1
 10
0.671331
 20
1.848803
 30
0.000000
  0
VERTEX
  8
LAYER-1
 10
0.671331
 20
1.310349
 30
0.000000
  0
SEQEND
  8
LAYER-1
  0
POLYLINE
  8
LAYER-1
 66
  1
 70
  0
 62
  7
 10
0.653443
 20
1.292461
 30
0.000000
  0
VERTEX
  8
LAYER-1
 10
0.653443
 20
1.292461
 30
0.000000
  0
VERTEX
  8
LAYER-1
 10
0.114992
 20
1.292461
 30
0.000000
  0
SEQEND
  8
LAYER-1
  0
ARC
  8
LAYER-1
 62
  7
 10
0.114992
 20
1.310349
 30
0.000000
 40
0.017888
 50
180.000000
 51
270.000000
  0
ARC
  8
LAYER-1
 62
  7
 10
0.653443
 20
1.310349
 30
0.000000
 40
0.017888
 50
270.000000
 51
0.000000
  0
ARC
  8
LAYER-1
 62
  7
 10
0.653443
 20
1.848803
 30
0.000000
 40
0.017888
 50
0.000000
 51
90.000000
  0
ARC
  8
LAYER-1
 62
  7
 10
0.114992
 20
1.848803
 30
0.000000
 40
0.017888
 50
90.000000
 51
180.000000
  0
TEXT
  8
LAYER-1
 62
  7
 10
0.424948
 20
1.503012
 30
0.000000
 40
0.102273
  1
C
 72
  5
 11
0.570403
 21
1.503012
 31
0.000000
  0
TEXT
  8
LAYER-1
 62
  7
 10
0.461312
 20
1.457557
 30
0.000000
 40
0.102273
  1
L
 72
  5
 11
0.579494
 21
1.457557
 31
0.000000
  0
POLYLINE
  8
LAYER-1
 66
  1
 70
  0
 62
  7
 10
0.196069
 20
1.893743
 30
0.000000
  0
VERTEX
  8
LAYER-1
 10
0.196069
 20
1.893743
 30
0.000000
  0
VERTEX
  8
LAYER-1
 10
0.168041
 20
1.865715
 30
0.000000
  0
SEQEND
  8
LAYER-1
  0
POLYLINE
  8
LAYER-1
 66
  1
 70
  0
 62
  7
 10
0.415989
 20
1.893743
 30
0.000000
  0
VERTEX
  8
LAYER-1
 10
0.415989
 20
1.893743
 30
0.000000
  0
VERTEX
  8
LAYER-1
 10
0.388674
 20
1.866428
 30
0.000000
  0
SEQEND
  8
LAYER-1
  0
POLYLINE
  8
LAYER-1
 66
  1
 70
  0
 62
  7
 10
0.478826
 20
1.893743
 30
0.000000
  0
VERTEX
  8
LAYER-1
 10
0.478826
 20
1.893743
 30
0.000000
  0
VERTEX
  8
LAYER-1
 10
0.451511
 20
1.866428
 30
0.000000
  0
SEQEND
  8
LAYER-1
  0
POLYLINE
  8
LAYER-1
 66
  1
 70
  0
 62
  7
 10
0.698745
 20
1.862327
 30
0.000000
  0
VERTEX
  8
LAYER-1
 10
0.698745
 20
1.862327
 30
0.000000
  0
VERTEX
  8
LAYER-1
 10
0.670035
 20
1.833615
 30
0.000000
  0
SEQEND
  8
LAYER-1
  0
POLYLINE
  8
LAYER-1
 66
  1
 70
  0
 62
  7
 10
0.698745
 20
1.768074
 30
0.000000
  0
VERTEX
  8
LAYER-1
 10
0.698745
 20
1.768074
 30
0.000000
  0
VERTEX
  8
LAYER-1
 10
0.670537
 20
1.739865
 30
0.000000
  0
SEQEND
  8
LAYER-1
  0
POLYLINE
  8
LAYER-1
 66
  1
 70
  0
 62
  7
 10
0.698745
 20
1.548153
 30
0.000000
  0
VERTEX
  8
LAYER-1
 10
0.698745
 20
1.548153
 30
0.000000
  0
VERTEX
  8
LAYER-1
 10
0.671437
 20
1.520846
 30
0.000000
  0
SEQEND
  8
LAYER-1
  0
POLYLINE
  8
LAYER-1
 66
  1
 70
  0
 62
  7
 10
0.698745
 20
1.422482
 30
0.000000
  0
VERTEX
  8
LAYER-1
 10
0.698745
 20
1.422482
 30
0.000000
  0
VERTEX
  8
LAYER-1
 10
0.671166
 20
1.394904
 30
0.000000
  0
SEQEND
  8
LAYER-1
  0
TEXT
  8
LAYER-1
 62
  7
 10
2.579494
 20
8.184830
 30
0.000000
 40
0.115909
  1
BARIL  168mm  -  HAUTEUR PLAFOND (mÅtres) 
 72
  5
 11
6.079494
 21
8.184830
 31
0.000000
  0
TEXT
  8
LAYER-1
 62
  7
 10
6.706766
 20
7.121194
 30
0.000000
 40
0.102273
  1
305 x 305
 72
  5
 11
7.324948
 21
7.121194
 31
0.000000
  0
TEXT
  8
LAYER-1
 62
  7
 10
6.706766
 20
6.784830
 30
0.000000
 40
0.102273
  1
356 x 406
 72
  5
 11
7.324948
 21
6.784830
 31
0.000000
  0
POLYLINE
  8
LAYER-1
 66
  1
 70
  0
 62
  7
 40
0.018182
 41
0.018182
 10
1.905555
 20
8.342846
 30
0.000000
  0
VERTEX
  8
LAYER-1
 10
1.905555
 20
8.342846
 30
0.000000
  0
VERTEX
  8
LAYER-1
 10
7.586981
 20
8.342846
 30
0.000000
  0
SEQEND
  8
LAYER-1
  0
POLYLINE
  8
LAYER-1
 66
  1
 70
  0
 62
  7
 40
0.018182
 41
0.018182
 10
7.586981
 20
8.342846
 30
0.000000
  0
VERTEX
  8
LAYER-1
 10
7.586981
 20
8.342846
 30
0.000000
  0
VERTEX
  8
LAYER-1
 10
7.586981
 20
5.960414
 30
0.000000
  0
SEQEND
  8
LAYER-1
  0
POLYLINE
  8
LAYER-1
 66
  1
 70
  0
 62
  7
 40
0.018182
 41
0.018182
 10
1.905555
 20
5.960401
 30
0.000000
  0
VERTEX
  8
LAYER-1
 10
1.905555
 20
5.960401
 30
0.000000
  0
VERTEX
  8
LAYER-1
 10
1.905555
 20
8.342846
 30
0.000000
  0
SEQEND
  8
LAYER-1
  0
POLYLINE
  8
LAYER-1
 66
  1
 70
  0
 62
  7
 40
0.018182
 41
0.018182
 10
1.905555
 20
7.669809
 30
0.000000
  0
VERTEX
  8
LAYER-1
 10
1.905555
 20
7.669809
 30
0.000000
  0
VERTEX
  8
LAYER-1
 10
7.588929
 20
7.670800
 30
0.000000
  0
SEQEND
  8
LAYER-1
  0
POLYLINE
  8
LAYER-1
 66
  1
 70
  0
 62
  7
 40
0.018182
 41
0.018182
 10
1.905555
 20
5.960401
 30
0.000000
  0
VERTEX
  8
LAYER-1
 10
1.905555
 20
5.960401
 30
0.000000
  0
VERTEX
  8
LAYER-1
 10
7.588929
 20
5.960798
 30
0.000000
  0
SEQEND
  8
LAYER-1
  0
POLYLINE
  8
LAYER-1
 66
  1
 70
  0
 62
  7
 10
1.905555
 20
8.124719
 30
0.000000
  0
VERTEX
  8
LAYER-1
 10
1.905555
 20
8.124719
 30
0.000000
  0
VERTEX
  8
LAYER-1
 10
6.491983
 20
8.124375
 30
0.000000
  0
SEQEND
  8
LAYER-1
  0
POLYLINE
  8
LAYER-1
 66
  1
 70
  0
 62
  7
 10
6.491983
 20
5.960414
 30
0.000000
  0
VERTEX
  8
LAYER-1
 10
6.491983
 20
5.960414
 30
0.000000
  0
VERTEX
  8
LAYER-1
 10
6.491983
 20
8.342846
 30
0.000000
  0
SEQEND
  8
LAYER-1
  0
POLYLINE
  8
LAYER-1
 66
  1
 70
  0
 62
  7
 10
3.264393
 20
5.960414
 30
0.000000
  0
VERTEX
  8
LAYER-1
 10
3.264393
 20
5.960414
 30
0.000000
  0
VERTEX
  8
LAYER-1
 10
3.264286
 20
8.124375
 30
0.000000
  0
SEQEND
  8
LAYER-1
  0
POLYLINE
  8
LAYER-1
 66
  1
 70
  0
 62
  7
 10
4.072500
 20
5.960414
 30
0.000000
  0
VERTEX
  8
LAYER-1
 10
4.072500
 20
5.960414
 30
0.000000
  0
VERTEX
  8
LAYER-1
 10
4.072738
 20
7.819150
 30
0.000000
  0
SEQEND
  8
LAYER-1
  0
POLYLINE
  8
LAYER-1
 66
  1
 70
  0
 62
  7
 10
4.887543
 20
5.960414
 30
0.000000
  0
VERTEX
  8
LAYER-1
 10
4.887543
 20
5.960414
 30
0.000000
  0
VERTEX
  8
LAYER-1
 10
4.887325
 20
8.124375
 30
0.000000
  0
SEQEND
  8
LAYER-1
  0
POLYLINE
  8
LAYER-1
 66
  1
 70
  0
 62
  7
 10
5.695654
 20
5.960414
 30
0.000000
  0
VERTEX
  8
LAYER-1
 10
5.695654
 20
5.960414
 30
0.000000
  0
VERTEX
  8
LAYER-1
 10
5.694247
 20
7.816619
 30
0.000000
  0
SEQEND
  8
LAYER-1
  0
TEXT
  8
LAYER-1
 62
  7
 10
6.643130
 20
6.666648
 30
0.000000
 40
0.081818
  1
min pour moteur
 72
  5
 11
7.515857
 21
6.666648
 31
0.000000
  0
TEXT
  8
LAYER-1
 62
  7
 10
6.570403
 20
6.321194
 30
0.000000
 40
0.075000
  1
min pour tubes 102mm
 72
  5
 11
7.597675
 21
6.321194
 31
0.000000
  0
TEXT
  8
LAYER-1
 62
  7
 10
6.606766
 20
7.021194
 30
0.000000
 40
0.081818
  1
avec roue 127mm
 72
  5
 11
7.552221
 21
7.021194
 31
0.000000
  0
TEXT
  8
LAYER-1
 62
  7
 10
2.597675
 20
5.412103
 30
0.000000
 40
0.115909
  1
BARIL  203mm  -  HAUTEUR PLAFOND (mÅtres)
 72
  5
 11
6.052221
 21
5.412103
 31
0.000000
  0
TEXT
  8
LAYER-1
 62
  7
 10
6.715857
 20
4.748466
 30
0.000000
 40
0.102273
  1
356 x 406
 72
  5
 11
7.334039
 21
4.748466
 31
0.000000
  0
POLYLINE
  8
LAYER-1
 66
  1
 70
  0
 62
  7
 40
0.018182
 41
0.018182
 10
1.904080
 20
5.565303
 30
0.000000
  0
VERTEX
  8
LAYER-1
 10
1.904080
 20
5.565303
 30
0.000000
  0
VERTEX
  8
LAYER-1
 10
7.585509
 20
5.565303
 30
0.000000
  0
SEQEND
  8
LAYER-1
  0
POLYLINE
  8
LAYER-1
 66
  1
 70
  0
 62
  7
 40
0.018182
 41
0.018182
 10
7.588980
 20
5.565303
 30
0.000000
  0
VERTEX
  8
LAYER-1
 10
7.588980
 20
5.565303
 30
0.000000
  0
VERTEX
  8
LAYER-1
 10
7.588980
 20
3.595366
 30
0.000000
  0
SEQEND
  8
LAYER-1
  0
POLYLINE
  8
LAYER-1
 66
  1
 70
  0
 62
  7
 40
0.018182
 41
0.018182
 10
1.904080
 20
3.595366
 30
0.000000
  0
VERTEX
  8
LAYER-1
 10
1.904080
 20
3.595366
 30
0.000000
  0
VERTEX
  8
LAYER-1
 10
7.588980
 20
3.595366
 30
0.000000
  0
SEQEND
  8
LAYER-1
  0
POLYLINE
  8
LAYER-1
 66
  1
 70
  0
 62
  7
 40
0.018182
 41
0.018182
 10
1.904080
 20
3.595366
 30
0.000000
  0
VERTEX
  8
LAYER-1
 10
1.904080
 20
3.595366
 30
0.000000
  0
VERTEX
  8
LAYER-1
 10
1.904080
 20
5.565303
 30
0.000000
  0
SEQEND
  8
LAYER-1
  0
POLYLINE
  8
LAYER-1
 66
  1
 70
  0
 62
  7
 40
0.018182
 41
0.018182
 10
1.904080
 20
4.898968
 30
0.000000
  0
VERTEX
  8
LAYER-1
 10
1.904080
 20
4.898968
 30
0.000000
  0
VERTEX
  8
LAYER-1
 10
7.588929
 20
4.900196
 30
0.000000
  0
SEQEND
  8
LAYER-1
  0
POLYLINE
  8
LAYER-1
 66
  1
 70
  0
 62
  7
 10
1.904080
 20
4.569657
 30
0.000000
  0
VERTEX
  8
LAYER-1
 10
1.904080
 20
4.569657
 30
0.000000
  0
VERTEX
  8
LAYER-1
 10
7.588929
 20
4.569303
 30
0.000000
  0
SEQEND
  8
LAYER-1
  0
POLYLINE
  8
LAYER-1
 66
  1
 70
  0
 62
  7
 10
1.904080
 20
4.235828
 30
0.000000
  0
VERTEX
  8
LAYER-1
 10
1.904080
 20
4.235828
 30
0.000000
  0
VERTEX
  8
LAYER-1
 10
7.588929
 20
4.235436
 30
0.000000
  0
SEQEND
  8
LAYER-1
  0
POLYLINE
  8
LAYER-1
 66
  1
 70
  0
 62
  7
 10
1.904080
 20
3.919858
 30
0.000000
  0
VERTEX
  8
LAYER-1
 10
1.904080
 20
3.919858
 30
0.000000
  0
VERTEX
  8
LAYER-1
 10
7.588929
 20
3.919427
 30
0.000000
  0
SEQEND
  8
LAYER-1
  0
POLYLINE
  8
LAYER-1
 66
  1
 70
  0
 62
  7
 10
1.904080
 20
5.346929
 30
0.000000
  0
VERTEX
  8
LAYER-1
 10
1.904080
 20
5.346929
 30
0.000000
  0
VERTEX
  8
LAYER-1
 10
6.490512
 20
5.346830
 30
0.000000
  0
SEQEND
  8
LAYER-1
  0
POLYLINE
  8
LAYER-1
 66
  1
 70
  0
 62
  7
 10
6.490512
 20
3.595366
 30
0.000000
  0
VERTEX
  8
LAYER-1
 10
6.490512
 20
3.595366
 30
0.000000
  0
VERTEX
  8
LAYER-1
 10
6.490512
 20
5.565303
 30
0.000000
  0
SEQEND
  8
LAYER-1
  0
POLYLINE
  8
LAYER-1
 66
  1
 70
  0
 62
  7
 10
3.266373
 20
3.595366
 30
0.000000
  0
VERTEX
  8
LAYER-1
 10
3.266373
 20
3.595366
 30
0.000000
  0
VERTEX
  8
LAYER-1
 10
3.266285
 20
5.346830
 30
0.000000
  0
SEQEND
  8
LAYER-1
  0
POLYLINE
  8
LAYER-1
 66
  1
 70
  0
 62
  7
 10
4.071351
 20
3.595366
 30
0.000000
  0
VERTEX
  8
LAYER-1
 10
4.071351
 20
3.595366
 30
0.000000
  0
VERTEX
  8
LAYER-1
 10
4.072768
 20
5.054164
 30
0.000000
  0
SEQEND
  8
LAYER-1
  0
POLYLINE
  8
LAYER-1
 66
  1
 70
  0
 62
  7
 10
4.886030
 20
3.595366
 30
0.000000
  0
VERTEX
  8
LAYER-1
 10
4.886030
 20
3.595366
 30
0.000000
  0
VERTEX
  8
LAYER-1
 10
4.885854
 20
5.346830
 30
0.000000
  0
SEQEND
  8
LAYER-1
  0
POLYLINE
  8
LAYER-1
 66
  1
 70
  0
 62
  7
 10
5.694125
 20
3.595366
 30
0.000000
  0
VERTEX
  8
LAYER-1
 10
5.694125
 20
3.595366
 30
0.000000
  0
VERTEX
  8
LAYER-1
 10
5.697802
 20
5.052728
 30
0.000000
  0
SEQEND
  8
LAYER-1
  0
TEXT
  8
LAYER-1
 62
  7
 10
6.706766
 20
7.457557
 30
0.000000
 40
0.102273
  1
254 x 254
 72
  5
 11
7.324948
 21
7.457557
 31
0.000000
  0
TEXT
  8
LAYER-1
 62
  7
 10
6.588585
 20
7.366648
 30
0.000000
 40
0.081818
  1
avec support 51mm
 72
  5
 11
7.624948
 21
7.366648
 31
0.000000
  0
TEXT
  8
LAYER-1
 62
  7
 10
2.224948
 20
7.084830
 30
0.000000
 40
0.102273
  1
1,8
 72
  5
 11
2.452221
 21
7.084830
 31
0.000000
  0
TEXT
  8
LAYER-1
 62
  7
 10
2.452221
 20
7.084830
 30
0.000000
 40
0.081818
  1
m ê 
 72
  5
 11
2.715857
 21
7.084830
 31
0.000000
  0
TEXT
  8
LAYER-1
 62
  7
 10
2.715857
 20
7.084830
 30
0.000000
 40
0.102273
  1
3,0
 72
  5
 11
2.943130
 21
7.084830
 31
0.000000
  0
TEXT
  8
LAYER-1
 62
  7
 10
2.943130
 20
7.084830
 30
0.000000
 40
0.081818
  1
m
 72
  5
 11
3.088585
 21
7.084830
 31
0.000000
  0
TEXT
  8
LAYER-1
 62
  7
 10
3.288585
 20
6.103012
 30
0.000000
 40
0.102273
  1
4,6
 72
  5
 11
3.515857
 21
6.103012
 31
0.000000
  0
TEXT
  8
LAYER-1
 62
  7
 10
3.515857
 20
6.103012
 30
0.000000
 40
0.081818
  1
m ê 
 72
  5
 11
3.779494
 21
6.103012
 31
0.000000
  0
TEXT
  8
LAYER-1
 62
  7
 10
3.779494
 20
6.103012
 30
0.000000
 40
0.102273
  1
6,1
 72
  5
 11
4.006766
 21
6.103012
 31
0.000000
  0
TEXT
  8
LAYER-1
 62
  7
 10
4.006766
 20
6.103012
 30
0.000000
 40
0.081818
  1
m
 72
  5
 11
4.152221
 21
6.103012
 31
0.000000
  0
TEXT
  8
LAYER-1
 62
  7
 10
2.234039
 20
7.421194
 30
0.000000
 40
0.081818
  1
jusqu'ê
 72
  5
 11
2.643130
 21
7.421194
 31
0.000000
  0
TEXT
  8
LAYER-1
 62
  7
 10
2.643130
 20
7.421194
 30
0.000000
 40
0.102273
  1
 1,8
 72
  5
 11
2.906766
 21
7.421194
 31
0.000000
  0
TEXT
  8
LAYER-1
 62
  7
 10
2.906766
 20
7.421194
 30
0.000000
 40
0.081818
  1
m
 72
  5
 11
3.052221
 21
7.421194
 31
0.000000
  0
TEXT
  8
LAYER-1
 62
  7
 10
4.106766
 20
6.103012
 30
0.000000
 40
0.102273
  1
5,2
 72
  5
 11
4.334039
 21
6.103012
 31
0.000000
  0
TEXT
  8
LAYER-1
 62
  7
 10
4.334039
 20
6.103012
 30
0.000000
 40
0.081818
  1
m ê 
 72
  5
 11
4.597675
 21
6.103012
 31
0.000000
  0
TEXT
  8
LAYER-1
 62
  7
 10
4.597675
 20
6.103012
 30
0.000000
 40
0.102273
  1
6,1
 72
  5
 11
4.824948
 21
6.103012
 31
0.000000
  0
TEXT
  8
LAYER-1
 62
  7
 10
4.824948
 20
6.103012
 30
0.000000
 40
0.081818
  1
m
 72
  5
 11
4.970403
 21
6.103012
 31
0.000000
  0
TEXT
  8
LAYER-1
 62
  7
 10
2.179494
 20
6.784830
 30
0.000000
 40
0.102273
  1
3,0
 72
  5
 11
2.406766
 21
6.784830
 31
0.000000
  0
TEXT
  8
LAYER-1
 62
  7
 10
2.406766
 20
6.784830
 30
0.000000
 40
0.081818
  1
m ê 
 72
  5
 11
2.670403
 21
6.784830
 31
0.000000
  0
TEXT
  8
LAYER-1
 62
  7
 10
2.670403
 20
6.784830
 30
0.000000
 40
0.102273
  1
5,5
 72
  5
 11
2.897675
 21
6.784830
 31
0.000000
  0
TEXT
  8
LAYER-1
 62
  7
 10
2.897675
 20
6.784830
 30
0.000000
 40
0.081818
  1
m
 72
  5
 11
3.043130
 21
6.784830
 31
0.000000
  0
TEXT
  8
LAYER-1
 62
  7
 10
2.179494
 20
6.439375
 30
0.000000
 40
0.102273
  1
5,5
 72
  5
 11
2.406766
 21
6.439375
 31
0.000000
  0
TEXT
  8
LAYER-1
 62
  7
 10
2.406766
 20
6.439375
 30
0.000000
 40
0.081818
  1
m ê 
 72
  5
 11
2.670403
 21
6.439375
 31
0.000000
  0
TEXT
  8
LAYER-1
 62
  7
 10
2.670403
 20
6.439375
 30
0.000000
 40
0.102273
  1
6,1
 72
  5
 11
2.897675
 21
6.439375
 31
0.000000
  0
TEXT
  8
LAYER-1
 62
  7
 10
2.897675
 20
6.439375
 30
0.000000
 40
0.081818
  1
m
 72
  5
 11
3.043130
 21
6.439375
 31
0.000000
  0
TEXT
  8
LAYER-1
 62
  7
 10
3.315857
 20
7.121194
 30
0.000000
 40
0.081818
  1
jusqu'ê
 72
  5
 11
3.724948
 21
7.121194
 31
0.000000
  0
TEXT
  8
LAYER-1
 62
  7
 10
3.724948
 20
7.121194
 30
0.000000
 40
0.102273
  1
 1,8
 72
  5
 11
3.988585
 21
7.121194
 31
0.000000
  0
TEXT
  8
LAYER-1
 62
  7
 10
3.988585
 20
7.121194
 30
0.000000
 40
0.081818
  1
m
 72
  5
 11
4.134039
 21
7.121194
 31
0.000000
  0
TEXT
  8
LAYER-1
 62
  7
 10
3.297675
 20
6.784830
 30
0.000000
 40
0.102273
  1
1,8
 72
  5
 11
3.524948
 21
6.784830
 31
0.000000
  0
TEXT
  8
LAYER-1
 62
  7
 10
3.524948
 20
6.784830
 30
0.000000
 40
0.081818
  1
m ê 
 72
  5
 11
3.788585
 21
6.784830
 31
0.000000
  0
TEXT
  8
LAYER-1
 62
  7
 10
3.788585
 20
6.784830
 30
0.000000
 40
0.102273
  1
3,0
 72
  5
 11
4.015857
 21
6.784830
 31
0.000000
  0
TEXT
  8
LAYER-1
 62
  7
 10
4.015857
 20
6.784830
 30
0.000000
 40
0.081818
  1
m
 72
  5
 11
4.161312
 21
6.784830
 31
0.000000
  0
TEXT
  8
LAYER-1
 62
  7
 10
3.288585
 20
6.439375
 30
0.000000
 40
0.102273
  1
3,0
 72
  5
 11
3.515857
 21
6.439375
 31
0.000000
  0
TEXT
  8
LAYER-1
 62
  7
 10
3.515857
 20
6.439375
 30
0.000000
 40
0.081818
  1
m ê 
 72
  5
 11
3.779494
 21
6.439375
 31
0.000000
  0
TEXT
  8
LAYER-1
 62
  7
 10
3.779494
 20
6.439375
 30
0.000000
 40
0.102273
  1
4,6
 72
  5
 11
4.006766
 21
6.439375
 31
0.000000
  0
TEXT
  8
LAYER-1
 62
  7
 10
4.006766
 20
6.439375
 30
0.000000
 40
0.081818
  1
m
 72
  5
 11
4.152221
 21
6.439375
 31
0.000000
  0
TEXT
  8
LAYER-1
 62
  7
 10
4.124948
 20
7.121194
 30
0.000000
 40
0.081818
  1
jusqu'ê
 72
  5
 11
4.534039
 21
7.121194
 31
0.000000
  0
TEXT
  8
LAYER-1
 62
  7
 10
4.534039
 20
7.121194
 30
0.000000
 40
0.102273
  1
 1,8
 72
  5
 11
4.797675
 21
7.121194
 31
0.000000
  0
TEXT
  8
LAYER-1
 62
  7
 10
4.797675
 20
7.121194
 30
0.000000
 40
0.081818
  1
m
 72
  5
 11
4.943130
 21
7.121194
 31
0.000000
  0
TEXT
  8
LAYER-1
 62
  7
 10
4.106766
 20
6.784830
 30
0.000000
 40
0.102273
  1
1,8
 72
  5
 11
4.334039
 21
6.784830
 31
0.000000
  0
TEXT
  8
LAYER-1
 62
  7
 10
4.334039
 20
6.784830
 30
0.000000
 40
0.081818
  1
m ê 
 72
  5
 11
4.597675
 21
6.784830
 31
0.000000
  0
TEXT
  8
LAYER-1
 62
  7
 10
4.597675
 20
6.784830
 30
0.000000
 40
0.102273
  1
3,7
 72
  5
 11
4.824948
 21
6.784830
 31
0.000000
  0
TEXT
  8
LAYER-1
 62
  7
 10
4.824948
 20
6.784830
 30
0.000000
 40
0.081818
  1
m
 72
  5
 11
4.970403
 21
6.784830
 31
0.000000
  0
TEXT
  8
LAYER-1
 62
  7
 10
4.106766
 20
6.439375
 30
0.000000
 40
0.102273
  1
3,7
 72
  5
 11
4.334039
 21
6.439375
 31
0.000000
  0
TEXT
  8
LAYER-1
 62
  7
 10
4.334039
 20
6.439375
 30
0.000000
 40
0.081818
  1
m ê 
 72
  5
 11
4.597675
 21
6.439375
 31
0.000000
  0
TEXT
  8
LAYER-1
 62
  7
 10
4.597675
 20
6.439375
 30
0.000000
 40
0.102273
  1
5,2
 72
  5
 11
4.824948
 21
6.439375
 31
0.000000
  0
TEXT
  8
LAYER-1
 62
  7
 10
4.824948
 20
6.439375
 30
0.000000
 40
0.081818
  1
m
 72
  5
 11
4.970403
 21
6.439375
 31
0.000000
  0
TEXT
  8
LAYER-1
 62
  7
 10
4.934039
 20
7.121194
 30
0.000000
 40
0.081818
  1
jusqu'ê
 72
  5
 11
5.343130
 21
7.121194
 31
0.000000
  0
TEXT
  8
LAYER-1
 62
  7
 10
5.343130
 20
7.121194
 30
0.000000
 40
0.102273
  1
 1,8
 72
  5
 11
5.606766
 21
7.121194
 31
0.000000
  0
TEXT
  8
LAYER-1
 62
  7
 10
5.606766
 20
7.121194
 30
0.000000
 40
0.081818
  1
m
 72
  5
 11
5.752221
 21
7.121194
 31
0.000000
  0
TEXT
  8
LAYER-1
 62
  7
 10
4.924948
 20
6.793921
 30
0.000000
 40
0.102273
  1
1,8
 72
  5
 11
5.152221
 21
6.793921
 31
0.000000
  0
TEXT
  8
LAYER-1
 62
  7
 10
5.152221
 20
6.793921
 30
0.000000
 40
0.081818
  1
m ê 
 72
  5
 11
5.415857
 21
6.793921
 31
0.000000
  0
TEXT
  8
LAYER-1
 62
  7
 10
5.415857
 20
6.793921
 30
0.000000
 40
0.102273
  1
4,0
 72
  5
 11
5.643130
 21
6.793921
 31
0.000000
  0
TEXT
  8
LAYER-1
 62
  7
 10
5.643130
 20
6.793921
 30
0.000000
 40
0.081818
  1
m
 72
  5
 11
5.788585
 21
6.793921
 31
0.000000
  0
TEXT
  8
LAYER-1
 62
  7
 10
4.924948
 20
6.439375
 30
0.000000
 40
0.102273
  1
4,0
 72
  5
 11
5.152221
 21
6.439375
 31
0.000000
  0
TEXT
  8
LAYER-1
 62
  7
 10
5.152221
 20
6.439375
 30
0.000000
 40
0.081818
  1
m ê 
 72
  5
 11
5.415857
 21
6.439375
 31
0.000000
  0
TEXT
  8
LAYER-1
 62
  7
 10
5.415857
 20
6.439375
 30
0.000000
 40
0.102273
  1
6,1
 72
  5
 11
5.643130
 21
6.439375
 31
0.000000
  0
TEXT
  8
LAYER-1
 62
  7
 10
5.643130
 20
6.439375
 30
0.000000
 40
0.081818
  1
m
 72
  5
 11
5.788585
 21
6.439375
 31
0.000000
  0
TEXT
  8
LAYER-1
 62
  7
 10
5.734039
 20
7.130285
 30
0.000000
 40
0.081818
  1
jusqu'ê
 72
  5
 11
6.143130
 21
7.130285
 31
0.000000
  0
TEXT
  8
LAYER-1
 62
  7
 10
6.143130
 20
7.130285
 30
0.000000
 40
0.102273
  1
 1,8
 72
  5
 11
6.406766
 21
7.130285
 31
0.000000
  0
TEXT
  8
LAYER-1
 62
  7
 10
6.406766
 20
7.130285
 30
0.000000
 40
0.081818
  1
m
 72
  5
 11
6.552221
 21
7.130285
 31
0.000000
  0
TEXT
  8
LAYER-1
 62
  7
 10
5.715857
 20
6.793921
 30
0.000000
 40
0.102273
  1
1,8
 72
  5
 11
5.943130
 21
6.793921
 31
0.000000
  0
TEXT
  8
LAYER-1
 62
  7
 10
5.943130
 20
6.793921
 30
0.000000
 40
0.081818
  1
m ê 
 72
  5
 11
6.206766
 21
6.793921
 31
0.000000
  0
TEXT
  8
LAYER-1
 62
  7
 10
6.206766
 20
6.793921
 30
0.000000
 40
0.102273
  1
4,9
 72
  5
 11
6.434039
 21
6.793921
 31
0.000000
  0
TEXT
  8
LAYER-1
 62
  7
 10
6.434039
 20
6.793921
 30
0.000000
 40
0.081818
  1
m
 72
  5
 11
6.579494
 21
6.793921
 31
0.000000
  0
TEXT
  8
LAYER-1
 62
  7
 10
5.724948
 20
6.439375
 30
0.000000
 40
0.102273
  1
4,9
 72
  5
 11
5.952221
 21
6.439375
 31
0.000000
  0
TEXT
  8
LAYER-1
 62
  7
 10
5.952221
 20
6.439375
 30
0.000000
 40
0.081818
  1
m ê 
 72
  5
 11
6.215857
 21
6.439375
 31
0.000000
  0
TEXT
  8
LAYER-1
 62
  7
 10
6.215857
 20
6.439375
 30
0.000000
 40
0.102273
  1
6,1
 72
  5
 11
6.443130
 21
6.439375
 31
0.000000
  0
TEXT
  8
LAYER-1
 62
  7
 10
6.443130
 20
6.439375
 30
0.000000
 40
0.081818
  1
m
 72
  5
 11
6.588585
 21
6.439375
 31
0.000000
  0
POLYLINE
  8
LAYER-1
 66
  1
 70
  0
 62
  7
 10
1.905555
 20
7.329592
 30
0.000000
  0
VERTEX
  8
LAYER-1
 10
1.905555
 20
7.329592
 30
0.000000
  0
VERTEX
  8
LAYER-1
 10
7.588929
 20
7.328800
 30
0.000000
  0
SEQEND
  8
LAYER-1
  0
POLYLINE
  8
LAYER-1
 66
  1
 70
  0
 62
  7
 10
1.905555
 20
6.987578
 30
0.000000
  0
VERTEX
  8
LAYER-1
 10
1.905555
 20
6.987578
 30
0.000000
  0
VERTEX
  8
LAYER-1
 10
7.588929
 20
6.986799
 30
0.000000
  0
SEQEND
  8
LAYER-1
  0
POLYLINE
  8
LAYER-1
 66
  1
 70
  0
 62
  7
 10
1.905555
 20
6.645563
 30
0.000000
  0
VERTEX
  8
LAYER-1
 10
1.905555
 20
6.645563
 30
0.000000
  0
VERTEX
  8
LAYER-1
 10
7.588929
 20
6.644798
 30
0.000000
  0
SEQEND
  8
LAYER-1
  0
POLYLINE
  8
LAYER-1
 66
  1
 70
  0
 62
  7
 10
1.905555
 20
6.303550
 30
0.000000
  0
VERTEX
  8
LAYER-1
 10
1.905555
 20
6.303550
 30
0.000000
  0
VERTEX
  8
LAYER-1
 10
7.588929
 20
6.302798
 30
0.000000
  0
SEQEND
  8
LAYER-1
  0
TEXT
  8
LAYER-1
 62
  7
 10
6.715857
 20
6.466648
 30
0.000000
 40
0.102273
  1
406 x 457
 72
  5
 11
7.334039
 21
6.466648
 31
0.000000
  0
TEXT
  8
LAYER-1
 62
  7
 10
6.715857
 20
6.130285
 30
0.000000
 40
0.102273
  1
457 x 508
 72
  5
 11
7.334039
 21
6.130285
 31
0.000000
  0
TEXT
  8
LAYER-1
 62
  7
 10
3.288585
 20
3.730285
 30
0.000000
 40
0.102273
  1
4,6
 72
  5
 11
3.515857
 21
3.730285
 31
0.000000
  0
TEXT
  8
LAYER-1
 62
  7
 10
3.515857
 20
3.730285
 30
0.000000
 40
0.081818
  1
m ê 
 72
  5
 11
3.779494
 21
3.730285
 31
0.000000
  0
TEXT
  8
LAYER-1
 62
  7
 10
3.779494
 20
3.730285
 30
0.000000
 40
0.102273
  1
6,1
 72
  5
 11
4.006766
 21
3.730285
 31
0.000000
  0
TEXT
  8
LAYER-1
 62
  7
 10
4.006766
 20
3.730285
 30
0.000000
 40
0.081818
  1
m
 72
  5
 11
4.152221
 21
3.730285
 31
0.000000
  0
TEXT
  8
LAYER-1
 62
  7
 10
4.106766
 20
3.730285
 30
0.000000
 40
0.102273
  1
5,2
 72
  5
 11
4.334039
 21
3.730285
 31
0.000000
  0
TEXT
  8
LAYER-1
 62
  7
 10
4.334039
 20
3.730285
 30
0.000000
 40
0.081818
  1
m ê 
 72
  5
 11
4.597675
 21
3.730285
 31
0.000000
  0
TEXT
  8
LAYER-1
 62
  7
 10
4.597675
 20
3.730285
 30
0.000000
 40
0.102273
  1
6,1
 72
  5
 11
4.824948
 21
3.730285
 31
0.000000
  0
TEXT
  8
LAYER-1
 62
  7
 10
4.824948
 20
3.730285
 30
0.000000
 40
0.081818
  1
m
 72
  5
 11
4.970403
 21
3.730285
 31
0.000000
  0
TEXT
  8
LAYER-1
 62
  7
 10
2.215857
 20
4.375739
 30
0.000000
 40
0.102273
  1
4,6
 72
  5
 11
2.443130
 21
4.375739
 31
0.000000
  0
TEXT
  8
LAYER-1
 62
  7
 10
2.443130
 20
4.375739
 30
0.000000
 40
0.081818
  1
m ê 
 72
  5
 11
2.706766
 21
4.375739
 31
0.000000
  0
TEXT
  8
LAYER-1
 62
  7
 10
2.706766
 20
4.375739
 30
0.000000
 40
0.102273
  1
6,1
 72
  5
 11
2.934039
 21
4.375739
 31
0.000000
  0
TEXT
  8
LAYER-1
 62
  7
 10
2.934039
 20
4.375739
 30
0.000000
 40
0.081818
  1
m
 72
  5
 11
3.079494
 21
4.375739
 31
0.000000
  0
TEXT
  8
LAYER-1
 62
  7
 10
3.306766
 20
4.703012
 30
0.000000
 40
0.081818
  1
jusqu'ê
 72
  5
 11
3.715857
 21
4.703012
 31
0.000000
  0
TEXT
  8
LAYER-1
 62
  7
 10
3.715857
 20
4.703012
 30
0.000000
 40
0.102273
  1
 2,4
 72
  5
 11
3.979494
 21
4.703012
 31
0.000000
  0
TEXT
  8
LAYER-1
 62
  7
 10
3.979494
 20
4.703012
 30
0.000000
 40
0.081818
  1
m
 72
  5
 11
4.124948
 21
4.703012
 31
0.000000
  0
TEXT
  8
LAYER-1
 62
  7
 10
4.124948
 20
4.712103
 30
0.000000
 40
0.081818
  1
jusqu'ê
 72
  5
 11
4.534039
 21
4.712103
 31
0.000000
  0
TEXT
  8
LAYER-1
 62
  7
 10
4.534039
 20
4.712103
 30
0.000000
 40
0.102273
  1
 3,0
 72
  5
 11
4.797675
 21
4.712103
 31
0.000000
  0
TEXT
  8
LAYER-1
 62
  7
 10
4.797675
 20
4.712103
 30
0.000000
 40
0.081818
  1
m
 72
  5
 11
4.943130
 21
4.712103
 31
0.000000
  0
TEXT
  8
LAYER-1
 62
  7
 10
2.270403
 20
4.666648
 30
0.000000
 40
0.081818
  1
jusqu'ê
 72
  5
 11
2.679494
 21
4.666648
 31
0.000000
  0
TEXT
  8
LAYER-1
 62
  7
 10
2.679494
 20
4.666648
 30
0.000000
 40
0.102273
  1
 4,6
 72
  5
 11
2.943130
 21
4.666648
 31
0.000000
  0
TEXT
  8
LAYER-1
 62
  7
 10
2.943130
 20
4.666648
 30
0.000000
 40
0.081818
  1
m
 72
  5
 11
3.088585
 21
4.666648
 31
0.000000
  0
TEXT
  8
LAYER-1
 62
  7
 10
4.924948
 20
4.703012
 30
0.000000
 40
0.081818
  1
jusqu'ê
 72
  5
 11
5.334039
 21
4.703012
 31
0.000000
  0
TEXT
  8
LAYER-1
 62
  7
 10
5.334039
 20
4.703012
 30
0.000000
 40
0.102273
  1
 3,4
 72
  5
 11
5.597675
 21
4.703012
 31
0.000000
  0
TEXT
  8
LAYER-1
 62
  7
 10
5.597675
 20
4.703012
 30
0.000000
 40
0.081818
  1
m
 72
  5
 11
5.743130
 21
4.703012
 31
0.000000
  0
TEXT
  8
LAYER-1
 62
  7
 10
5.779494
 20
4.666648
 30
0.000000
 40
0.081818
  1
jusqu'ê
 72
  5
 11
6.188585
 21
4.666648
 31
0.000000
  0
TEXT
  8
LAYER-1
 62
  7
 10
6.188585
 20
4.666648
 30
0.000000
 40
0.102273
  1
 4,3
 72
  5
 11
6.452221
 21
4.666648
 31
0.000000
  0
TEXT
  8
LAYER-1
 62
  7
 10
6.452221
 20
4.666648
 30
0.000000
 40
0.081818
  1
m
 72
  5
 11
6.597675
 21
4.666648
 31
0.000000
  0
TEXT
  8
LAYER-1
 62
  7
 10
3.334039
 20
4.330285
 30
0.000000
 40
0.102273
  1
2,4
 72
  5
 11
3.561312
 21
4.330285
 31
0.000000
  0
TEXT
  8
LAYER-1
 62
  7
 10
3.561312
 20
4.330285
 30
0.000000
 40
0.081818
  1
m ê 
 72
  5
 11
3.824948
 21
4.330285
 31
0.000000
  0
TEXT
  8
LAYER-1
 62
  7
 10
3.824948
 20
4.330285
 30
0.000000
 40
0.102273
  1
4,0
 72
  5
 11
4.052221
 21
4.330285
 31
0.000000
  0
TEXT
  8
LAYER-1
 62
  7
 10
4.052221
 20
4.330285
 30
0.000000
 40
0.081818
  1
m
 72
  5
 11
4.197675
 21
4.330285
 31
0.000000
  0
TEXT
  8
LAYER-1
 62
  7
 10
4.106766
 20
4.375739
 30
0.000000
 40
0.102273
  1
3,0
 72
  5
 11
4.334039
 21
4.375739
 31
0.000000
  0
TEXT
  8
LAYER-1
 62
  7
 10
4.334039
 20
4.375739
 30
0.000000
 40
0.081818
  1
m ê 
 72
  5
 11
4.597675
 21
4.375739
 31
0.000000
  0
TEXT
  8
LAYER-1
 62
  7
 10
4.597675
 20
4.375739
 30
0.000000
 40
0.102273
  1
4,6
 72
  5
 11
4.824948
 21
4.375739
 31
0.000000
  0
TEXT
  8
LAYER-1
 62
  7
 10
4.824948
 20
4.375739
 30
0.000000
 40
0.081818
  1
m
 72
  5
 11
4.970403
 21
4.375739
 31
0.000000
  0
TEXT
  8
LAYER-1
 62
  7
 10
4.915857
 20
4.375739
 30
0.000000
 40
0.102273
  1
3,4
 72
  5
 11
5.143130
 21
4.375739
 31
0.000000
  0
TEXT
  8
LAYER-1
 62
  7
 10
5.143130
 20
4.375739
 30
0.000000
 40
0.081818
  1
m ê 
 72
  5
 11
5.406766
 21
4.375739
 31
0.000000
  0
TEXT
  8
LAYER-1
 62
  7
 10
5.406766
 20
4.375739
 30
0.000000
 40
0.102273
  1
5,5
 72
  5
 11
5.634039
 21
4.375739
 31
0.000000
  0
TEXT
  8
LAYER-1
 62
  7
 10
5.634039
 20
4.375739
 30
0.000000
 40
0.081818
  1
m
 72
  5
 11
5.779494
 21
4.375739
 31
0.000000
  0
TEXT
  8
LAYER-1
 62
  7
 10
5.715857
 20
4.375739
 30
0.000000
 40
0.102273
  1
4,3
 72
  5
 11
5.943130
 21
4.375739
 31
0.000000
  0
TEXT
  8
LAYER-1
 62
  7
 10
5.943130
 20
4.375739
 30
0.000000
 40
0.081818
  1
m ê 
 72
  5
 11
6.206766
 21
4.375739
 31
0.000000
  0
TEXT
  8
LAYER-1
 62
  7
 10
6.206766
 20
4.375739
 30
0.000000
 40
0.102273
  1
6,1
 72
  5
 11
6.434039
 21
4.375739
 31
0.000000
  0
TEXT
  8
LAYER-1
 62
  7
 10
6.434039
 20
4.375739
 30
0.000000
 40
0.081818
  1
m
 72
  5
 11
6.579494
 21
4.375739
 31
0.000000
  0
TEXT
  8
LAYER-1
 62
  7
 10
3.288585
 20
4.057557
 30
0.000000
 40
0.102273
  1
4,0
 72
  5
 11
3.515857
 21
4.057557
 31
0.000000
  0
TEXT
  8
LAYER-1
 62
  7
 10
3.515857
 20
4.057557
 30
0.000000
 40
0.081818
  1
m ê 
 72
  5
 11
3.779494
 21
4.057557
 31
0.000000
  0
TEXT
  8
LAYER-1
 62
  7
 10
3.779494
 20
4.057557
 30
0.000000
 40
0.102273
  1
4,6
 72
  5
 11
4.006766
 21
4.057557
 31
0.000000
  0
TEXT
  8
LAYER-1
 62
  7
 10
4.006766
 20
4.057557
 30
0.000000
 40
0.081818
  1
m
 72
  5
 11
4.152221
 21
4.057557
 31
0.000000
  0
TEXT
  8
LAYER-1
 62
  7
 10
4.106766
 20
4.057557
 30
0.000000
 40
0.102273
  1
4,6
 72
  5
 11
4.334039
 21
4.057557
 31
0.000000
  0
TEXT
  8
LAYER-1
 62
  7
 10
4.334039
 20
4.057557
 30
0.000000
 40
0.081818
  1
m ê 
 72
  5
 11
4.597675
 21
4.057557
 31
0.000000
  0
TEXT
  8
LAYER-1
 62
  7
 10
4.597675
 20
4.057557
 30
0.000000
 40
0.102273
  1
5,2
 72
  5
 11
4.824948
 21
4.057557
 31
0.000000
  0
TEXT
  8
LAYER-1
 62
  7
 10
4.824948
 20
4.057557
 30
0.000000
 40
0.081818
  1
m
 72
  5
 11
4.970403
 21
4.057557
 31
0.000000
  0
TEXT
  8
LAYER-1
 62
  7
 10
4.915857
 20
4.057557
 30
0.000000
 40
0.102273
  1
5,5
 72
  5
 11
5.143130
 21
4.057557
 31
0.000000
  0
TEXT
  8
LAYER-1
 62
  7
 10
5.143130
 20
4.057557
 30
0.000000
 40
0.081818
  1
m ê 
 72
  5
 11
5.406766
 21
4.057557
 31
0.000000
  0
TEXT
  8
LAYER-1
 62
  7
 10
5.406766
 20
4.057557
 30
0.000000
 40
0.102273
  1
6,1
 72
  5
 11
5.634039
 21
4.057557
 31
0.000000
  0
TEXT
  8
LAYER-1
 62
  7
 10
5.634039
 20
4.057557
 30
0.000000
 40
0.081818
  1
m
 72
  5
 11
5.779494
 21
4.057557
 31
0.000000
  0
TEXT
  8
LAYER-1
 62
  7
 10
6.715857
 20
3.730285
 30
0.000000
 40
0.102273
  1
508 x 559
 72
  5
 11
7.334039
 21
3.730285
 31
0.000000
  0
TEXT
  8
LAYER-1
 62
  7
 10
6.706766
 20
4.403012
 30
0.000000
 40
0.102273
  1
406 x 457
 72
  5
 11
7.324948
 21
4.403012
 31
0.000000
  0
TEXT
  8
LAYER-1
 62
  7
 10
6.706766
 20
3.984830
 30
0.000000
 40
0.102273
  1
457 x 508
 72
  5
 11
7.324948
 21
3.984830
 31
0.000000
  0
TEXT
  8
LAYER-1
 62
  7
 10
6.697675
 20
8.139375
 30
0.000000
 40
0.115909
  1
PLAQUE
 72
  5
 11
7.334039
 21
8.139375
 31
0.000000
  0
TEXT
  8
LAYER-1
 62
  7
 10
6.579494
 20
7.957557
 30
0.000000
 40
0.115909
  1
EXTRâMITâ
 72
  5
 11
7.452221
 21
7.957557
 31
0.000000
  0
TEXT
  8
LAYER-1
 62
  7
 10
6.661312
 20
7.775739
 30
0.000000
 40
0.115909
  1
"X"  x  "Y"
 72
  5
 11
7.370403
 21
7.775739
 31
0.000000
  0
TEXT
  8
LAYER-1
 62
  7
 10
6.697675
 20
5.366648
 30
0.000000
 40
0.115909
  1
PLAQUE
 72
  5
 11
7.334039
 21
5.366648
 31
0.000000
  0
TEXT
  8
LAYER-1
 62
  7
 10
6.579494
 20
5.184830
 30
0.000000
 40
0.115909
  1
EXTRâMITâ
 72
  5
 11
7.452221
 21
5.184830
 31
0.000000
  0
TEXT
  8
LAYER-1
 62
  7
 10
6.661312
 20
5.003012
 30
0.000000
 40
0.115909
  1
"X"  x  "Y"
 72
  5
 11
7.370403
 21
5.003012
 31
0.000000
  0
TEXT
  8
LAYER-1
 62
  7
 10
6.734039
 20
4.566648
 30
0.000000
 40
0.061364
  1
min pour moteur
 72
  5
 11
7.379494
 21
4.566648
 31
0.000000
  0
TEXT
  8
LAYER-1
 62
  7
 10
6.624948
 20
4.239375
 30
0.000000
 40
0.061364
  1
min pour tubes 102mm
 72
  5
 11
7.515857
 21
4.239375
 31
0.000000
  0
TEXT
  8
LAYER-1
 62
  7
 10
5.388585
 20
7.939375
 30
0.000000
 40
0.102273
  1
ROLL-99
 72
  5
 11
5.979494
 21
7.939375
 31
0.000000
  0
POLYLINE
  8
LAYER-1
 66
  1
 70
  0
 62
  7
 10
1.905555
 20
7.819970
 30
0.000000
  0
VERTEX
  8
LAYER-1
 10
1.905555
 20
7.819970
 30
0.000000
  0
VERTEX
  8
LAYER-1
 10
6.491983
 20
7.815914
 30
0.000000
  0
SEQEND
  8
LAYER-1
  0
TEXT
  8
LAYER-1
 62
  7
 10
2.034039
 20
7.712103
 30
0.000000
 40
0.075000
  1
AVEC 
 72
  5
 11
2.370403
 21
7.712103
 31
0.000000
  0
TEXT
  8
LAYER-1
 62
  7
 10
2.370403
 20
7.712103
 30
0.000000
 40
0.061364
  1
OR
 72
  5
 11
2.534039
 21
7.712103
 31
0.000000
  0
TEXT
  8
LAYER-1
 62
  7
 10
2.534039
 20
7.712103
 30
0.000000
 40
0.075000
  1
 SANS CAPOT
 72
  5
 11
3.215857
 21
7.712103
 31
0.000000
  0
TEXT
  8
LAYER-1
 62
  7
 10
3.434039
 20
7.466648
 30
0.000000
 40
0.075000
  1
254 x 254
 72
  5
 11
3.915857
 21
7.466648
 31
0.000000
  0
TEXT
  8
LAYER-1
 62
  7
 10
3.334039
 20
7.357557
 30
0.000000
 40
0.075000
  1
Non disponible
 72
  5
 11
4.015857
 21
7.357557
 31
0.000000
  0
TEXT
  8
LAYER-1
 62
  7
 10
2.261312
 20
6.112103
 30
0.000000
 40
0.075000
  1
Plus de 6,1m
 72
  5
 11
2.861312
 21
6.112103
 31
0.000000
  0
TEXT
  8
LAYER-1
 62
  7
 10
2.224948
 20
6.003012
 30
0.000000
 40
0.075000
  1
Non disponible
 72
  5
 11
2.906766
 21
6.003012
 31
0.000000
  0
TEXT
  8
LAYER-1
 62
  7
 10
4.997675
 20
6.112103
 30
0.000000
 40
0.075000
  1
Plus de 6,1m
 72
  5
 11
5.597675
 21
6.112103
 31
0.000000
  0
TEXT
  8
LAYER-1
 62
  7
 10
4.961312
 20
6.003012
 30
0.000000
 40
0.075000
  1
Non disponible
 72
  5
 11
5.643130
 21
6.003012
 31
0.000000
  0
TEXT
  8
LAYER-1
 62
  7
 10
5.797675
 20
6.112103
 30
0.000000
 40
0.075000
  1
Plus de 6,1m
 72
  5
 11
6.397675
 21
6.112103
 31
0.000000
  0
TEXT
  8
LAYER-1
 62
  7
 10
5.761312
 20
6.003012
 30
0.000000
 40
0.075000
  1
Non disponible
 72
  5
 11
6.443130
 21
6.003012
 31
0.000000
  0
TEXT
  8
LAYER-1
 62
  7
 10
4.243130
 20
7.466648
 30
0.000000
 40
0.075000
  1
254 x 254
 72
  5
 11
4.724948
 21
7.466648
 31
0.000000
  0
TEXT
  8
LAYER-1
 62
  7
 10
4.143130
 20
7.357557
 30
0.000000
 40
0.075000
  1
Non disponible
 72
  5
 11
4.824948
 21
7.357557
 31
0.000000
  0
TEXT
  8
LAYER-1
 62
  7
 10
5.052221
 20
7.466648
 30
0.000000
 40
0.075000
  1
254 x 254
 72
  5
 11
5.534039
 21
7.466648
 31
0.000000
  0
TEXT
  8
LAYER-1
 62
  7
 10
4.952221
 20
7.357557
 30
0.000000
 40
0.075000
  1
Non disponible
 72
  5
 11
5.634039
 21
7.357557
 31
0.000000
  0
TEXT
  8
LAYER-1
 62
  7
 10
5.861312
 20
7.466648
 30
0.000000
 40
0.075000
  1
254 x 254
 72
  5
 11
6.343130
 21
7.466648
 31
0.000000
  0
TEXT
  8
LAYER-1
 62
  7
 10
5.761312
 20
7.357557
 30
0.000000
 40
0.075000
  1
Non disponible
 72
  5
 11
6.443130
 21
7.357557
 31
0.000000
  0
TEXT
  8
LAYER-1
 62
  7
 10
5.761312
 20
7.712103
 30
0.000000
 40
0.075000
  1
SANS CAPOT
 72
  5
 11
6.415857
 21
7.712103
 31
0.000000
  0
TEXT
  8
LAYER-1
 62
  7
 10
4.961312
 20
7.712103
 30
0.000000
 40
0.075000
  1
AVEC CAPOT
 72
  5
 11
5.615857
 21
7.712103
 31
0.000000
  0
TEXT
  8
LAYER-1
 62
  7
 10
4.143130
 20
7.712103
 30
0.000000
 40
0.075000
  1
SANS CAPOT
 72
  5
 11
4.797675
 21
7.712103
 31
0.000000
  0
TEXT
  8
LAYER-1
 62
  7
 10
3.343130
 20
7.712103
 30
0.000000
 40
0.075000
  1
AVEC CAPOT
 72
  5
 11
3.997675
 21
7.712103
 31
0.000000
  0
TEXT
  8
LAYER-1
 62
  7
 10
5.379494
 20
5.175739
 30
0.000000
 40
0.102273
  1
ROLL-99
 72
  5
 11
5.970403
 21
5.175739
 31
0.000000
  0
TEXT
  8
LAYER-1
 62
  7
 10
2.043130
 20
4.948466
 30
0.000000
 40
0.075000
  1
AVEC 
 72
  5
 11
2.379494
 21
4.948466
 31
0.000000
  0
TEXT
  8
LAYER-1
 62
  7
 10
2.379494
 20
4.948466
 30
0.000000
 40
0.061364
  1
OR
 72
  5
 11
2.543130
 21
4.948466
 31
0.000000
  0
TEXT
  8
LAYER-1
 62
  7
 10
2.543130
 20
4.948466
 30
0.000000
 40
0.075000
  1
 SANS CAPOT
 72
  5
 11
3.224948
 21
4.948466
 31
0.000000
  0
TEXT
  8
LAYER-1
 62
  7
 10
2.261312
 20
3.748466
 30
0.000000
 40
0.075000
  1
Plus de 6,1m
 72
  5
 11
2.861312
 21
3.748466
 31
0.000000
  0
TEXT
  8
LAYER-1
 62
  7
 10
2.224948
 20
3.639375
 30
0.000000
 40
0.075000
  1
Non disponible
 72
  5
 11
2.906766
 21
3.639375
 31
0.000000
  0
TEXT
  8
LAYER-1
 62
  7
 10
4.979494
 20
3.748466
 30
0.000000
 40
0.075000
  1
Plus de 6,1m
 72
  5
 11
5.579494
 21
3.748466
 31
0.000000
  0
TEXT
  8
LAYER-1
 62
  7
 10
4.943130
 20
3.639375
 30
0.000000
 40
0.075000
  1
Non disponible
 72
  5
 11
5.624948
 21
3.639375
 31
0.000000
  0
TEXT
  8
LAYER-1
 62
  7
 10
5.788585
 20
3.748466
 30
0.000000
 40
0.075000
  1
Plus de 6,1m
 72
  5
 11
6.388585
 21
3.748466
 31
0.000000
  0
TEXT
  8
LAYER-1
 62
  7
 10
5.752221
 20
3.639375
 30
0.000000
 40
0.075000
  1
Non disponible
 72
  5
 11
6.434039
 21
3.639375
 31
0.000000
  0
TEXT
  8
LAYER-1
 62
  7
 10
5.752221
 20
4.948466
 30
0.000000
 40
0.075000
  1
SANS CAPOT
 72
  5
 11
6.406766
 21
4.948466
 31
0.000000
  0
TEXT
  8
LAYER-1
 62
  7
 10
4.961312
 20
4.948466
 30
0.000000
 40
0.075000
  1
AVEC CAPOT
 72
  5
 11
5.615857
 21
4.948466
 31
0.000000
  0
TEXT
  8
LAYER-1
 62
  7
 10
4.161312
 20
4.948466
 30
0.000000
 40
0.075000
  1
SANS CAPOT
 72
  5
 11
4.815857
 21
4.948466
 31
0.000000
  0
TEXT
  8
LAYER-1
 62
  7
 10
3.352221
 20
4.948466
 30
0.000000
 40
0.075000
  1
AVEC CAPOT
 72
  5
 11
4.006766
 21
4.948466
 31
0.000000
  0
POLYLINE
  8
LAYER-1
 66
  1
 70
  0
 62
  7
 10
1.904080
 20
5.056081
 30
0.000000
  0
VERTEX
  8
LAYER-1
 10
1.904080
 20
5.056081
 30
0.000000
  0
VERTEX
  8
LAYER-1
 10
6.490512
 20
5.052026
 30
0.000000
  0
SEQEND
  8
LAYER-1
  0
TEXT
  8
LAYER-1
 62
  7
 10
2.261312
 20
4.075739
 30
0.000000
 40
0.075000
  1
Plus de 6,1m
 72
  5
 11
2.861312
 21
4.075739
 31
0.000000
  0
TEXT
  8
LAYER-1
 62
  7
 10
2.224948
 20
3.966648
 30
0.000000
 40
0.075000
  1
Non disponible
 72
  5
 11
2.906766
 21
3.966648
 31
0.000000
  0
TEXT
  8
LAYER-1
 62
  7
 10
5.788585
 20
4.084830
 30
0.000000
 40
0.075000
  1
Plus de 6,1m
 72
  5
 11
6.388585
 21
4.084830
 31
0.000000
  0
TEXT
  8
LAYER-1
 62
  7
 10
5.752221
 20
3.975739
 30
0.000000
 40
0.075000
  1
Non disponible
 72
  5
 11
6.434039
 21
3.975739
 31
0.000000
  0
TEXT
  8
LAYER-1
 62
  7
 10
0.979494
 20
4.330285
 30
0.000000
 40
0.122727
  1
RECUL
 72
  5
 11
1.579494
 21
4.330285
 31
0.000000
  0
TEXT
  8
LAYER-1
 62
  7
 10
0.179494
 20
3.866648
 30
0.000000
 40
0.122727
  1
SOUS PLAQUE
 50
90.000000
 72
  5
 11
0.179494
 21
5.084830
 31
0.000000
  0
TEXT
  8
LAYER-1
 62
  7
 10
0.461312
 20
3.757557
 30
0.000000
 40
0.122727
  1
D'EXTRâMITâ  "H"
 50
90.000000
 72
  5
 11
0.461312
 21
5.203012
 31
0.000000
  0
TEXT
  8
LAYER-1
 62
  7
 10
0.043130
 20
7.830285
 30
0.000000
 40
0.102273
  1
TUBE
 72
  5
 11
0.443130
 21
7.830285
 31
0.000000
  0
TEXT
  8
LAYER-1
 62
  7
 10
0.043130
 20
7.675739
 30
0.000000
 40
0.102273
  1
SUPPORT
 72
  5
 11
0.743130
 21
7.675739
 31
0.000000
  0
POLYLINE
  8
LAYER-1
 66
  1
 70
  1
 62
  7
  0
VERTEX
  8
LAYER-1
 10
0.070057
 20
2.688057
 30
0.000000
  0
VERTEX
  8
LAYER-1
 10
1.725631
 20
2.688057
 30
0.000000
  0
VERTEX
  8
LAYER-1
 10
1.725631
 20
2.412909
 30
0.000000
  0
VERTEX
  8
LAYER-1
 10
0.070057
 20
2.412909
 30
0.000000
  0
SEQEND
  8
LAYER-1
  0
POLYLINE
  8
LAYER-1
 66
  1
 70
  1
 62
  7
 10
0.120495
 20
2.587091
 30
0.000000
  0
VERTEX
  8
LAYER-1
 10
0.120495
 20
2.587091
 30
0.000000
  0
VERTEX
  8
LAYER-1
 10
0.096607
 20
2.583190
 30
0.000000
  0
VERTEX
  8
LAYER-1
 10
0.125110
 20
2.559808
 30
0.000000
  0
SEQEND
  8
LAYER-1
  0
POLYLINE
  8
LAYER-1
 66
  1
 70
  1
 62
  7
 10
0.154480
 20
2.644073
 30
0.000000
  0
VERTEX
  8
LAYER-1
 10
0.154480
 20
2.644073
 30
0.000000
  0
VERTEX
  8
LAYER-1
 10
0.147212
 20
2.628554
 30
0.000000
  0
VERTEX
  8
LAYER-1
 10
0.159325
 20
2.615430
 30
0.000000
  0
SEQEND
  8
LAYER-1
  0
POLYLINE
  8
LAYER-1
 66
  1
 70
  1
 62
  7
 10
0.304308
 20
2.627666
 30
0.000000
  0
VERTEX
  8
LAYER-1
 10
0.304308
 20
2.627666
 30
0.000000
  0
VERTEX
  8
LAYER-1
 10
0.297043
 20
2.612150
 30
0.000000
  0
VERTEX
  8
LAYER-1
 10
0.309157
 20
2.599023
 30
0.000000
  0
SEQEND
  8
LAYER-1
  0
POLYLINE
  8
LAYER-1
 66
  1
 70
  1
 62
  7
 10
0.349438
 20
2.634915
 30
0.000000
  0
VERTEX
  8
LAYER-1
 10
0.349438
 20
2.634915
 30
0.000000
  0
VERTEX
  8
LAYER-1
 10
0.373507
 20
2.627139
 30
0.000000
  0
VERTEX
  8
LAYER-1
 10
0.378582
 20
2.655554
 30
0.000000
  0
SEQEND
  8
LAYER-1
  0
POLYLINE
  8
LAYER-1
 66
  1
 70
  1
 62
  7
 10
0.451031
 20
2.615774
 30
0.000000
  0
VERTEX
  8
LAYER-1
 10
0.451031
 20
2.615774
 30
0.000000
  0
VERTEX
  8
LAYER-1
 10
0.457032
 20
2.598723
 30
0.000000
  0
VERTEX
  8
LAYER-1
 10
0.462108
 20
2.627139
 30
0.000000
  0
SEQEND
  8
LAYER-1
  0
POLYLINE
  8
LAYER-1
 66
  1
 70
  1
 62
  7
 10
0.375238
 20
2.536734
 30
0.000000
  0
VERTEX
  8
LAYER-1
 10
0.375238
 20
2.536734
 30
0.000000
  0
VERTEX
  8
LAYER-1
 10
0.364307
 20
2.544745
 30
0.000000
  0
VERTEX
  8
LAYER-1
 10
0.346199
 20
2.534508
 30
0.000000
  0
SEQEND
  8
LAYER-1
  0
POLYLINE
  8
LAYER-1
 66
  1
 70
  1
 62
  7
 10
0.472992
 20
2.455676
 30
0.000000
  0
VERTEX
  8
LAYER-1
 10
0.472992
 20
2.455676
 30
0.000000
  0
VERTEX
  8
LAYER-1
 10
0.479910
 20
2.470449
 30
0.000000
  0
VERTEX
  8
LAYER-1
 10
0.468374
 20
2.482956
 30
0.000000
  0
SEQEND
  8
LAYER-1
  0
POLYLINE
  8
LAYER-1
 66
  1
 70
  1
 62
  7
 10
0.356911
 20
2.457777
 30
0.000000
  0
VERTEX
  8
LAYER-1
 10
0.356911
 20
2.457777
 30
0.000000
  0
VERTEX
  8
LAYER-1
 10
0.337570
 20
2.470076
 30
0.000000
  0
VERTEX
  8
LAYER-1
 10
0.294063
 20
2.454109
 30
0.000000
  0
SEQEND
  8
LAYER-1
  0
POLYLINE
  8
LAYER-1
 66
  1
 70
  1
 62
  7
 10
0.178330
 20
2.489961
 30
0.000000
  0
VERTEX
  8
LAYER-1
 10
0.178330
 20
2.489961
 30
0.000000
  0
VERTEX
  8
LAYER-1
 10
0.184631
 20
2.472056
 30
0.000000
  0
VERTEX
  8
LAYER-1
 10
0.189961
 20
2.501895
 30
0.000000
  0
SEQEND
  8
LAYER-1
  0
POLYLINE
  8
LAYER-1
 66
  1
 70
  1
 62
  7
 10
0.239027
 20
2.504644
 30
0.000000
  0
VERTEX
  8
LAYER-1
 10
0.239027
 20
2.504644
 30
0.000000
  0
VERTEX
  8
LAYER-1
 10
0.254437
 20
2.519694
 30
0.000000
  0
VERTEX
  8
LAYER-1
 10
0.230046
 20
2.554676
 30
0.000000
  0
SEQEND
  8
LAYER-1
  0
POLYLINE
  8
LAYER-1
 66
  1
 70
  1
 62
  7
 10
0.260857
 20
2.648468
 30
0.000000
  0
VERTEX
  8
LAYER-1
 10
0.260857
 20
2.648468
 30
0.000000
  0
VERTEX
  8
LAYER-1
 10
0.216689
 20
2.639037
 30
0.000000
  0
VERTEX
  8
LAYER-1
 10
0.239004
 20
2.630728
 30
0.000000
  0
SEQEND
  8
LAYER-1
  0
POLYLINE
  8
LAYER-1
 66
  1
 70
  1
 62
  7
 10
0.508533
 20
2.560756
 30
0.000000
  0
VERTEX
  8
LAYER-1
 10
0.508533
 20
2.560756
 30
0.000000
  0
VERTEX
  8
LAYER-1
 10
0.501263
 20
2.545243
 30
0.000000
  0
VERTEX
  8
LAYER-1
 10
0.513377
 20
2.532113
 30
0.000000
  0
SEQEND
  8
LAYER-1
  0
POLYLINE
  8
LAYER-1
 66
  1
 70
  1
 62
  7
 10
0.608212
 20
2.660021
 30
0.000000
  0
VERTEX
  8
LAYER-1
 10
0.608212
 20
2.660021
 30
0.000000
  0
VERTEX
  8
LAYER-1
 10
0.584326
 20
2.656121
 30
0.000000
  0
VERTEX
  8
LAYER-1
 10
0.612830
 20
2.632741
 30
0.000000
  0
SEQEND
  8
LAYER-1
  0
POLYLINE
  8
LAYER-1
 66
  1
 70
  1
 62
  7
 10
0.687639
 20
2.646457
 30
0.000000
  0
VERTEX
  8
LAYER-1
 10
0.687639
 20
2.646457
 30
0.000000
  0
VERTEX
  8
LAYER-1
 10
0.680370
 20
2.630940
 30
0.000000
  0
VERTEX
  8
LAYER-1
 10
0.692486
 20
2.617814
 30
0.000000
  0
SEQEND
  8
LAYER-1
  0
POLYLINE
  8
LAYER-1
 66
  1
 70
  1
 62
  7
 10
0.790032
 20
2.654827
 30
0.000000
  0
VERTEX
  8
LAYER-1
 10
0.790032
 20
2.654827
 30
0.000000
  0
VERTEX
  8
LAYER-1
 10
0.805548
 20
2.647561
 30
0.000000
  0
VERTEX
  8
LAYER-1
 10
0.818676
 20
2.659675
 30
0.000000
  0
SEQEND
  8
LAYER-1
  0
POLYLINE
  8
LAYER-1
 66
  1
 70
  1
 62
  7
 10
0.762679
 20
2.577033
 30
0.000000
  0
VERTEX
  8
LAYER-1
 10
0.762679
 20
2.577033
 30
0.000000
  0
VERTEX
  8
LAYER-1
 10
0.786744
 20
2.569255
 30
0.000000
  0
VERTEX
  8
LAYER-1
 10
0.791821
 20
2.597671
 30
0.000000
  0
SEQEND
  8
LAYER-1
  0
POLYLINE
  8
LAYER-1
 66
  1
 70
  1
 62
  7
 10
0.901495
 20
2.529714
 30
0.000000
  0
VERTEX
  8
LAYER-1
 10
0.901495
 20
2.529714
 30
0.000000
  0
VERTEX
  8
LAYER-1
 10
0.882156
 20
2.542015
 30
0.000000
  0
VERTEX
  8
LAYER-1
 10
0.838648
 20
2.526048
 30
0.000000
  0
SEQEND
  8
LAYER-1
  0
POLYLINE
  8
LAYER-1
 66
  1
 70
  1
 62
  7
 10
0.801788
 20
2.458061
 30
0.000000
  0
VERTEX
  8
LAYER-1
 10
0.801788
 20
2.458061
 30
0.000000
  0
VERTEX
  8
LAYER-1
 10
0.795488
 20
2.475964
 30
0.000000
  0
VERTEX
  8
LAYER-1
 10
0.790159
 20
2.446129
 30
0.000000
  0
SEQEND
  8
LAYER-1
  0
POLYLINE
  8
LAYER-1
 66
  1
 70
  1
 62
  7
 10
0.617398
 20
2.470270
 30
0.000000
  0
VERTEX
  8
LAYER-1
 10
0.617398
 20
2.470270
 30
0.000000
  0
VERTEX
  8
LAYER-1
 10
0.605918
 20
2.478684
 30
0.000000
  0
VERTEX
  8
LAYER-1
 10
0.586907
 20
2.467930
 30
0.000000
  0
SEQEND
  8
LAYER-1
  0
POLYLINE
  8
LAYER-1
 66
  1
 70
  1
 62
  7
 10
0.666592
 20
2.430529
 30
0.000000
  0
VERTEX
  8
LAYER-1
 10
0.666592
 20
2.430529
 30
0.000000
  0
VERTEX
  8
LAYER-1
 10
0.681999
 20
2.445578
 30
0.000000
  0
VERTEX
  8
LAYER-1
 10
0.657610
 20
2.480561
 30
0.000000
  0
SEQEND
  8
LAYER-1
  0
POLYLINE
  8
LAYER-1
 66
  1
 70
  1
 62
  7
 10
0.651615
 20
2.570129
 30
0.000000
  0
VERTEX
  8
LAYER-1
 10
0.651615
 20
2.570129
 30
0.000000
  0
VERTEX
  8
LAYER-1
 10
0.579829
 20
2.566137
 30
0.000000
  0
VERTEX
  8
LAYER-1
 10
0.601386
 20
2.549185
 30
0.000000
  0
SEQEND
  8
LAYER-1
  0
POLYLINE
  8
LAYER-1
 66
  1
 70
  1
 62
  7
 10
0.949152
 20
2.591289
 30
0.000000
  0
VERTEX
  8
LAYER-1
 10
0.949152
 20
2.591289
 30
0.000000
  0
VERTEX
  8
LAYER-1
 10
0.955452
 20
2.573388
 30
0.000000
  0
VERTEX
  8
LAYER-1
 10
0.960782
 20
2.603225
 30
0.000000
  0
SEQEND
  8
LAYER-1
  0
POLYLINE
  8
LAYER-1
 66
  1
 70
  1
 62
  7
 10
1.014233
 20
2.653053
 30
0.000000
  0
VERTEX
  8
LAYER-1
 10
1.014233
 20
2.653053
 30
0.000000
  0
VERTEX
  8
LAYER-1
 10
0.990344
 20
2.649152
 30
0.000000
  0
VERTEX
  8
LAYER-1
 10
1.018848
 20
2.625775
 30
0.000000
  0
SEQEND
  8
LAYER-1
  0
POLYLINE
  8
LAYER-1
 66
  1
 70
  1
 62
  7
 10
1.218099
 20
2.622970
 30
0.000000
  0
VERTEX
  8
LAYER-1
 10
1.218099
 20
2.622970
 30
0.000000
  0
VERTEX
  8
LAYER-1
 10
1.210832
 20
2.607456
 30
0.000000
  0
VERTEX
  8
LAYER-1
 10
1.222947
 20
2.594327
 30
0.000000
  0
SEQEND
  8
LAYER-1
  0
POLYLINE
  8
LAYER-1
 66
  1
 70
  1
 62
  7
 10
1.263229
 20
2.630221
 30
0.000000
  0
VERTEX
  8
LAYER-1
 10
1.263229
 20
2.630221
 30
0.000000
  0
VERTEX
  8
LAYER-1
 10
1.287296
 20
2.622443
 30
0.000000
  0
VERTEX
  8
LAYER-1
 10
1.292373
 20
2.650859
 30
0.000000
  0
SEQEND
  8
LAYER-1
  0
POLYLINE
  8
LAYER-1
 66
  1
 70
  1
 62
  7
 10
1.364821
 20
2.611078
 30
0.000000
  0
VERTEX
  8
LAYER-1
 10
1.364821
 20
2.611078
 30
0.000000
  0
VERTEX
  8
LAYER-1
 10
1.407975
 20
2.575737
 30
0.000000
  0
VERTEX
  8
LAYER-1
 10
1.416569
 20
2.588150
 30
0.000000
  0
SEQEND
  8
LAYER-1
  0
POLYLINE
  8
LAYER-1
 66
  1
 70
  1
 62
  7
 10
1.341326
 20
2.481099
 30
0.000000
  0
VERTEX
  8
LAYER-1
 10
1.341326
 20
2.481099
 30
0.000000
  0
VERTEX
  8
LAYER-1
 10
1.335327
 20
2.498150
 30
0.000000
  0
VERTEX
  8
LAYER-1
 10
1.330250
 20
2.469734
 30
0.000000
  0
SEQEND
  8
LAYER-1
  0
POLYLINE
  8
LAYER-1
 66
  1
 70
  1
 62
  7
 10
1.226950
 20
2.500863
 30
0.000000
  0
VERTEX
  8
LAYER-1
 10
1.226950
 20
2.500863
 30
0.000000
  0
VERTEX
  8
LAYER-1
 10
1.246289
 20
2.488561
 30
0.000000
  0
VERTEX
  8
LAYER-1
 10
1.289798
 20
2.504529
 30
0.000000
  0
SEQEND
  8
LAYER-1
  0
POLYLINE
  8
LAYER-1
 66
  1
 70
  1
 62
  7
 10
1.182419
 20
2.450981
 30
0.000000
  0
VERTEX
  8
LAYER-1
 10
1.182419
 20
2.450981
 30
0.000000
  0
VERTEX
  8
LAYER-1
 10
1.176121
 20
2.468882
 30
0.000000
  0
VERTEX
  8
LAYER-1
 10
1.170792
 20
2.439049
 30
0.000000
  0
SEQEND
  8
LAYER-1
  0
POLYLINE
  8
LAYER-1
 66
  1
 70
  1
 62
  7
 10
0.930883
 20
2.490639
 30
0.000000
  0
VERTEX
  8
LAYER-1
 10
0.930883
 20
2.490639
 30
0.000000
  0
VERTEX
  8
LAYER-1
 10
0.941873
 20
2.458367
 30
0.000000
  0
VERTEX
  8
LAYER-1
 10
0.954917
 20
2.501243
 30
0.000000
  0
SEQEND
  8
LAYER-1
  0
POLYLINE
  8
LAYER-1
 66
  1
 70
  1
 62
  7
 10
0.998029
 20
2.463188
 30
0.000000
  0
VERTEX
  8
LAYER-1
 10
0.998029
 20
2.463188
 30
0.000000
  0
VERTEX
  8
LAYER-1
 10
0.986548
 20
2.471603
 30
0.000000
  0
VERTEX
  8
LAYER-1
 10
0.967536
 20
2.460850
 30
0.000000
  0
SEQEND
  8
LAYER-1
  0
POLYLINE
  8
LAYER-1
 66
  1
 70
  1
 62
  7
 10
1.117865
 20
2.530890
 30
0.000000
  0
VERTEX
  8
LAYER-1
 10
1.117865
 20
2.530890
 30
0.000000
  0
VERTEX
  8
LAYER-1
 10
1.135770
 20
2.537190
 30
0.000000
  0
VERTEX
  8
LAYER-1
 10
1.105933
 20
2.542520
 30
0.000000
  0
SEQEND
  8
LAYER-1
  0
POLYLINE
  8
LAYER-1
 66
  1
 70
  1
 62
  7
 10
1.072610
 20
2.423561
 30
0.000000
  0
VERTEX
  8
LAYER-1
 10
1.072610
 20
2.423561
 30
0.000000
  0
VERTEX
  8
LAYER-1
 10
1.088018
 20
2.438611
 30
0.000000
  0
VERTEX
  8
LAYER-1
 10
1.063628
 20
2.473592
 30
0.000000
  0
SEQEND
  8
LAYER-1
  0
POLYLINE
  8
LAYER-1
 66
  1
 70
  1
 62
  7
 10
1.174648
 20
2.643773
 30
0.000000
  0
VERTEX
  8
LAYER-1
 10
1.174648
 20
2.643773
 30
0.000000
  0
VERTEX
  8
LAYER-1
 10
1.130481
 20
2.634341
 30
0.000000
  0
VERTEX
  8
LAYER-1
 10
1.152797
 20
2.626034
 30
0.000000
  0
SEQEND
  8
LAYER-1
  0
POLYLINE
  8
LAYER-1
 66
  1
 70
  1
 62
  7
 10
1.477184
 20
2.601285
 30
0.000000
  0
VERTEX
  8
LAYER-1
 10
1.477184
 20
2.601285
 30
0.000000
  0
VERTEX
  8
LAYER-1
 10
1.505420
 20
2.561112
 30
0.000000
  0
VERTEX
  8
LAYER-1
 10
1.482029
 20
2.572644
 30
0.000000
  0
SEQEND
  8
LAYER-1
  0
POLYLINE
  8
LAYER-1
 66
  1
 70
  1
 62
  7
 10
1.522003
 20
2.655323
 30
0.000000
  0
VERTEX
  8
LAYER-1
 10
1.522003
 20
2.655323
 30
0.000000
  0
VERTEX
  8
LAYER-1
 10
1.498116
 20
2.651424
 30
0.000000
  0
VERTEX
  8
LAYER-1
 10
1.526619
 20
2.628045
 30
0.000000
  0
SEQEND
  8
LAYER-1
  0
POLYLINE
  8
LAYER-1
 66
  1
 70
  1
 62
  7
 10
1.585896
 20
2.628652
 30
0.000000
  0
VERTEX
  8
LAYER-1
 10
1.585896
 20
2.628652
 30
0.000000
  0
VERTEX
  8
LAYER-1
 10
1.601414
 20
2.621382
 30
0.000000
  0
VERTEX
  8
LAYER-1
 10
1.614540
 20
2.633497
 30
0.000000
  0
SEQEND
  8
LAYER-1
  0
POLYLINE
  8
LAYER-1
 66
  1
 70
  1
 62
  7
 10
1.512904
 20
2.453367
 30
0.000000
  0
VERTEX
  8
LAYER-1
 10
1.512904
 20
2.453367
 30
0.000000
  0
VERTEX
  8
LAYER-1
 10
1.521318
 20
2.464843
 30
0.000000
  0
VERTEX
  8
LAYER-1
 10
1.510567
 20
2.483860
 30
0.000000
  0
SEQEND
  8
LAYER-1
  0
POLYLINE
  8
LAYER-1
 66
  1
 70
  1
 62
  7
 10
1.603838
 20
2.510653
 30
0.000000
  0
VERTEX
  8
LAYER-1
 10
1.603838
 20
2.510653
 30
0.000000
  0
VERTEX
  8
LAYER-1
 10
1.588787
 20
2.526061
 30
0.000000
  0
VERTEX
  8
LAYER-1
 10
1.553806
 20
2.501672
 30
0.000000
  0
SEQEND
  8
LAYER-1
  0
POLYLINE
  8
LAYER-1
 66
  1
 70
  1
 62
  7
 10
1.715578
 20
2.453367
 30
0.000000
  0
VERTEX
  8
LAYER-1
 10
1.715578
 20
2.453367
 30
0.000000
  0
VERTEX
  8
LAYER-1
 10
1.709279
 20
2.471268
 30
0.000000
  0
VERTEX
  8
LAYER-1
 10
1.703951
 20
2.441433
 30
0.000000
  0
SEQEND
  8
LAYER-1
  0
POLYLINE
  8
LAYER-1
 66
  1
 70
  1
 62
  7
 10
1.414350
 20
2.479025
 30
0.000000
  0
VERTEX
  8
LAYER-1
 10
1.414350
 20
2.479025
 30
0.000000
  0
VERTEX
  8
LAYER-1
 10
1.425338
 20
2.446750
 30
0.000000
  0
VERTEX
  8
LAYER-1
 10
1.438381
 20
2.489627
 30
0.000000
  0
SEQEND
  8
LAYER-1
  0
POLYLINE
  8
LAYER-1
 66
  1
 70
  1
 62
  7
 10
1.681391
 20
2.541031
 30
0.000000
  0
VERTEX
  8
LAYER-1
 10
1.681391
 20
2.541031
 30
0.000000
  0
VERTEX
  8
LAYER-1
 10
1.677398
 20
2.612816
 30
0.000000
  0
VERTEX
  8
LAYER-1
 10
1.660447
 20
2.591260
 30
0.000000
  0
SEQEND
  8
LAYER-1
  0
POLYLINE
  8
LAYER-1
 66
  1
 70
  1
 62
  7
  0
VERTEX
  8
LAYER-1
 10
0.790331
 20
6.250572
 30
0.000000
  0
VERTEX
  8
LAYER-1
 10
0.860065
 20
6.250572
 30
0.000000
  0
VERTEX
  8
LAYER-1
 10
0.860065
 20
2.687403
 30
0.000000
  0
VERTEX
  8
LAYER-1
 10
0.790331
 20
2.687403
 30
0.000000
  0
SEQEND
  8
LAYER-1
  0
POLYLINE
  8
LAYER-1
 66
  1
 70
  1
 62
  7
  0
VERTEX
  8
LAYER-1
 10
0.918594
 20
6.250332
 30
0.000000
  0
VERTEX
  8
LAYER-1
 10
0.934015
 20
6.250332
 30
0.000000
  0
VERTEX
  8
LAYER-1
 10
0.934015
 20
2.688903
 30
0.000000
  0
VERTEX
  8
LAYER-1
 10
0.918594
 20
2.688903
 30
0.000000
  0
SEQEND
  8
LAYER-1
  0
LINE
  8
LAYER-1
 62
  7
 10
0.246439
 20
6.269886
 30
0.000000
 11
0.246439
 21
7.014925
 31
0.000000
  0
LINE
  8
LAYER-1
 62
  7
 10
0.727831
 20
6.250201
 30
0.000000
 11
0.121439
 21
6.250201
 31
0.000000
  0
LINE
  8
LAYER-1
 62
  7
 10
0.727508
 20
7.034610
 30
0.000000
 11
0.121439
 21
7.034610
 31
0.000000
  0
LINE
  8
LAYER-1
 62
  7
 10
0.246439
 20
6.815440
 30
0.000000
 11
0.246439
 21
6.250201
 31
0.000000
  0
POLYLINE
  8
LAYER-1
 66
  1
 70
  1
 62
  7
  0
VERTEX
  8
LAYER-1
 10
0.246439
 20
6.250201
 30
0.000000
  0
VERTEX
  8
LAYER-1
 10
0.273712
 20
6.295656
 30
0.000000
  0
VERTEX
  8
LAYER-1
 10
0.246439
 20
6.295656
 30
0.000000
  0
VERTEX
  8
LAYER-1
 10
0.219166
 20
6.295656
 30
0.000000
  0
VERTEX
  8
LAYER-1
 10
0.246439
 20
6.250201
 30
0.000000
  0
SEQEND
  8
LAYER-1
  0
POLYLINE
  8
LAYER-1
 66
  1
 70
  1
 62
  7
  0
VERTEX
  8
LAYER-1
 10
0.246439
 20
7.034610
 30
0.000000
  0
VERTEX
  8
LAYER-1
 10
0.273711
 20
6.989156
 30
0.000000
  0
VERTEX
  8
LAYER-1
 10
0.246439
 20
6.989156
 30
0.000000
  0
VERTEX
  8
LAYER-1
 10
0.219166
 20
6.989156
 30
0.000000
  0
VERTEX
  8
LAYER-1
 10
0.246439
 20
7.034610
 30
0.000000
  0
SEQEND
  8
LAYER-1
  0
TEXT
  8
LAYER-1
 62
  7
 10
0.147191
 20
6.448523
 30
0.000000
 40
0.095455
  1
"Y"
 50
90.000000
  0
LINE
  8
LAYER-1
 62
  7
 10
0.246367
 20
2.707577
 30
0.000000
 11
0.246367
 21
6.230516
 31
0.000000
  0
LINE
  8
LAYER-1
 62
  7
 10
0.132557
 20
2.687892
 30
0.000000
 11
0.371367
 21
2.687892
 31
0.000000
  0
LINE
  8
LAYER-1
 62
  7
 10
0.727831
 20
6.250201
 30
0.000000
 11
0.121367
 21
6.250201
 31
0.000000
  0
LINE
  8
LAYER-1
 62
  7
 10
0.246367
 20
5.393658
 30
0.000000
 11
0.246367
 21
2.687892
 31
0.000000
  0
POLYLINE
  8
LAYER-1
 66
  1
 70
  1
 62
  7
  0
VERTEX
  8
LAYER-1
 10
0.246367
 20
2.687892
 30
0.000000
  0
VERTEX
  8
LAYER-1
 10
0.273640
 20
2.733346
 30
0.000000
  0
VERTEX
  8
LAYER-1
 10
0.246367
 20
2.733346
 30
0.000000
  0
VERTEX
  8
LAYER-1
 10
0.219094
 20
2.733346
 30
0.000000
  0
VERTEX
  8
LAYER-1
 10
0.246367
 20
2.687892
 30
0.000000
  0
SEQEND
  8
LAYER-1
  0
POLYLINE
  8
LAYER-1
 66
  1
 70
  1
 62
  7
  0
VERTEX
  8
LAYER-1
 10
0.246367
 20
6.250201
 30
0.000000
  0
VERTEX
  8
LAYER-1
 10
0.273639
 20
6.204747
 30
0.000000
  0
VERTEX
  8
LAYER-1
 10
0.246367
 20
6.204747
 30
0.000000
  0
VERTEX
  8
LAYER-1
 10
0.219094
 20
6.204747
 30
0.000000
  0
VERTEX
  8
LAYER-1
 10
0.246367
 20
6.250201
 30
0.000000
  0
SEQEND
  8
LAYER-1
  0
TEXT
  8
LAYER-1
 62
  7
 10
0.151375
 20
5.201167
 30
0.000000
 40
0.081818
  1
 
 50
90.000000
  0
POLYLINE
  8
LAYER-1
 66
  1
 70
  1
 62
  7
  0
VERTEX
  8
LAYER-1
 10
0.790331
 20
7.034720
 30
0.000000
  0
VERTEX
  8
LAYER-1
 10
1.476786
 20
7.034720
 30
0.000000
  0
VERTEX
  8
LAYER-1
 10
1.476786
 20
6.250201
 30
0.000000
  0
VERTEX
  8
LAYER-1
 10
0.790331
 20
6.250201
 30
0.000000
  0
SEQEND
  8
LAYER-1
  0
CIRCLE
  8
LAYER-1
 62
  7
 10
0.863880
 20
6.961172
 30
0.000000
 40
0.013790
  0
CIRCLE
  8
LAYER-1
 62
  7
 10
0.839366
 20
6.642463
 30
0.000000
 40
0.009806
  0
CIRCLE
  8
LAYER-1
 62
  7
 10
0.839366
 20
6.299233
 30
0.000000
 40
0.009806
  0
CIRCLE
  8
LAYER-1
 62
  7
 10
1.134684
 20
6.666329
 30
0.000000
 40
0.159301
  0
POLYLINE
  8
LAYER-1
  6
LTYPE02
 66
  1
 70
  0
 62
  7
  6
LTYPE02
 10
0.890419
 20
6.241822
 30
0.000000
  0
VERTEX
  8
LAYER-1
  6
LTYPE02
 10
0.890419
 20
6.241822
 30
0.000000
  0
VERTEX
  8
LAYER-1
  6
LTYPE02
 10
0.890837
 20
2.856374
 30
0.000000
  0
SEQEND
  8
LAYER-1
  0
POLYLINE
  8
LAYER-1
  6
LTYPE02
 66
  1
 70
  0
 62
  7
  6
LTYPE02
 10
1.251248
 20
6.782892
 30
0.000000
  0
VERTEX
  8
LAYER-1
  6
LTYPE02
 10
1.251248
 20
6.782892
 30
0.000000
  0
VERTEX
  8
LAYER-1
  6
LTYPE02
 10
1.224299
 20
6.805362
 30
0.000000
  0
VERTEX
  8
LAYER-1
  6
LTYPE02
 10
1.195799
 20
6.820595
 30
0.000000
  0
VERTEX
  8
LAYER-1
  6
LTYPE02
 10
1.164875
 20
6.829976
 30
0.000000
  0
VERTEX
  8
LAYER-1
  6
LTYPE02
 10
1.132715
 20
6.833143
 30
0.000000
  0
VERTEX
  8
LAYER-1
  6
LTYPE02
 10
1.100555
 20
6.829976
 30
0.000000
  0
VERTEX
  8
LAYER-1
  6
LTYPE02
 10
1.069631
 20
6.820595
 30
0.000000
  0
VERTEX
  8
LAYER-1
  6
LTYPE02
 10
1.041132
 20
6.805362
 30
0.000000
  0
VERTEX
  8
LAYER-1
  6
LTYPE02
 10
1.016151
 20
6.784861
 30
0.000000
  0
VERTEX
  8
LAYER-1
  6
LTYPE02
 10
0.995651
 20
6.759881
 30
0.000000
  0
VERTEX
  8
LAYER-1
  6
LTYPE02
 10
0.980417
 20
6.731381
 30
0.000000
  0
VERTEX
  8
LAYER-1
  6
LTYPE02
 10
0.974805
 20
6.706487
 30
0.000000
  0
SEQEND
  8
LAYER-1
  0
POLYLINE
  8
LAYER-1
  6
LTYPE02
 66
  1
 70
  0
 62
  7
  6
LTYPE02
 10
0.974805
 20
6.706486
 30
0.000000
  0
VERTEX
  8
LAYER-1
  6
LTYPE02
 10
0.974805
 20
6.706486
 30
0.000000
  0
VERTEX
  8
LAYER-1
  6
LTYPE02
 10
0.926743
 20
6.535426
 30
0.000000
  0
VERTEX
  8
LAYER-1
  6
LTYPE02
 10
0.897833
 20
6.358710
 30
0.000000
  0
VERTEX
  8
LAYER-1
  6
LTYPE02
 10
0.890419
 20
6.241822
 30
0.000000
  0
SEQEND
  8
LAYER-1
  0
POLYLINE
  8
LAYER-1
 66
  1
 70
  1
 62
  7
  0
VERTEX
  8
LAYER-1
 10
0.790008
 20
8.274916
 30
0.000000
  0
VERTEX
  8
LAYER-1
 10
0.934015
 20
8.274916
 30
0.000000
  0
VERTEX
  8
LAYER-1
 10
0.934015
 20
7.034610
 30
0.000000
  0
VERTEX
  8
LAYER-1
 10
0.790008
 20
7.034610
 30
0.000000
  0
SEQEND
  8
LAYER-1
  0
POLYLINE
  8
LAYER-1
 66
  1
 70
  1
 62
  7
  0
VERTEX
  8
LAYER-1
 10
0.059158
 20
8.348237
 30
0.000000
  0
VERTEX
  8
LAYER-1
 10
1.720783
 20
8.348237
 30
0.000000
  0
VERTEX
  8
LAYER-1
 10
1.720783
 20
8.266193
 30
0.000000
  0
VERTEX
  8
LAYER-1
 10
0.059158
 20
8.266193
 30
0.000000
  0
SEQEND
  8
LAYER-1
  0
LINE
  8
LAYER-1
 62
  7
 10
0.790484
 20
4.504279
 30
0.000000
 11
0.890240
 21
4.504279
 31
0.000000
  0
LINE
  8
LAYER-1
 62
  7
 10
0.790484
 20
4.485742
 30
0.000000
 11
0.790484
 21
4.629279
 31
0.000000
  0
LINE
  8
LAYER-1
 62
  7
 10
0.890240
 20
4.478960
 30
0.000000
 11
0.890240
 21
4.629279
 31
0.000000
  0
LINE
  8
LAYER-1
 62
  7
 10
0.890240
 20
4.504279
 30
0.000000
 11
1.584210
 21
4.504279
 31
0.000000
  0
LINE
  8
LAYER-1
 62
  7
 10
0.809769
 20
4.523564
 30
0.000000
 11
0.771200
 21
4.484994
 31
0.000000
  0
LINE
  8
LAYER-1
 62
  7
 10
0.909524
 20
4.523564
 30
0.000000
 11
0.870955
 21
4.484994
 31
0.000000
  0
TEXT
  8
LAYER-1
 62
  7
 10
1.487081
 20
4.582396
 30
0.000000
 40
0.068182
  1
 
  0
POLYLINE
  8
LAYER-1
  6
LTYPE01
 66
  1
 70
  0
 62
  7
  6
LTYPE01
 10
0.934015
 20
7.034610
 30
0.000000
  0
VERTEX
  8
LAYER-1
  6
LTYPE01
 10
0.934015
 20
7.034610
 30
0.000000
  0
VERTEX
  8
LAYER-1
  6
LTYPE01
 10
0.934015
 20
6.249192
 30
0.000000
  0
SEQEND
  8
LAYER-1
  0
TEXT
  8
LAYER-1
 62
  7
 10
1.024948
 20
7.384830
 30
0.000000
 40
0.122727
  1
"X"
 72
  5
 11
1.288585
 21
7.384830
 31
0.000000
  0
CIRCLE
  8
LAYER-1
 62
253
  6
LTYPE01
 10
1.134700
 20
6.664192
 30
0.000000
 40
0.042413
  0
TEXT
  8
LAYER-1
 62
  7
 10
0.834039
 20
5.048466
 30
0.000000
 40
0.095455
  1
C
 72
  5
 11
0.970403
 21
5.048466
 31
0.000000
  0
TEXT
  8
LAYER-1
 62
  7
 10
0.870403
 20
5.012103
 30
0.000000
 40
0.095455
  1
L
 72
  5
 11
0.988585
 21
5.012103
 31
0.000000
  0
POLYLINE
  8
LAYER-1
 66
  1
 70
  1
 62
  7
 10
0.923347
 20
2.735507
 30
0.000000
  0
VERTEX
  8
LAYER-1
 10
0.923347
 20
2.735507
 30
0.000000
  0
VERTEX
  8
LAYER-1
 10
0.923347
 20
2.856132
 30
0.000000
  0
VERTEX
  8
LAYER-1
 10
0.853033
 20
2.856132
 30
0.000000
  0
VERTEX
  8
LAYER-1
 10
0.853033
 20
2.735507
 30
0.000000
  0
VERTEX
  8
LAYER-1
 10
0.821679
 20
2.717404
 30
0.000000
  0
VERTEX
  8
LAYER-1
 10
0.821679
 20
2.688899
 30
0.000000
  0
VERTEX
  8
LAYER-1
 10
0.954701
 20
2.688899
 30
0.000000
  0
VERTEX
  8
LAYER-1
 10
0.954701
 20
2.717404
 30
0.000000
  0
SEQEND
  8
LAYER-1
  0
LINE
  8
LAYER-1
 62
  7
 10
0.809692
 20
7.349250
 30
0.000000
 11
1.457101
 21
7.349249
 31
0.000000
  0
LINE
  8
LAYER-1
 62
  7
 10
0.790008
 20
7.097110
 30
0.000000
 11
0.790008
 21
7.474250
 31
0.000000
  0
LINE
  8
LAYER-1
 62
  7
 10
1.476786
 20
7.097220
 30
0.000000
 11
1.476786
 21
7.474250
 31
0.000000
  0
POLYLINE
  8
LAYER-1
 66
  1
 70
  1
 62
  7
  0
VERTEX
  8
LAYER-1
 10
0.790008
 20
7.349250
 30
0.000000
  0
VERTEX
  8
LAYER-1
 10
0.835462
 20
7.321977
 30
0.000000
  0
VERTEX
  8
LAYER-1
 10
0.835462
 20
7.349250
 30
0.000000
  0
VERTEX
  8
LAYER-1
 10
0.835462
 20
7.376523
 30
0.000000
  0
VERTEX
  8
LAYER-1
 10
0.790008
 20
7.349250
 30
0.000000
  0
SEQEND
  8
LAYER-1
  0
POLYLINE
  8
LAYER-1
 66
  1
 70
  1
 62
  7
  0
VERTEX
  8
LAYER-1
 10
1.476786
 20
7.349250
 30
0.000000
  0
VERTEX
  8
LAYER-1
 10
1.431331
 20
7.321977
 30
0.000000
  0
VERTEX
  8
LAYER-1
 10
1.431331
 20
7.349249
 30
0.000000
  0
VERTEX
  8
LAYER-1
 10
1.431331
 20
7.376522
 30
0.000000
  0
VERTEX
  8
LAYER-1
 10
1.476786
 20
7.349250
 30
0.000000
  0
SEQEND
  8
LAYER-1
  0
TEXT
  8
LAYER-1
 62
  7
 10
1.140625
 20
7.448538
 30
0.000000
 40
0.095455
  1
 
  0
TEXT
  8
LAYER-1
 62
  7
 10
1.197675
 20
4.575739
 30
0.000000
 40
0.122727
  1
"Z"
 72
  5
 11
1.452221
 21
4.575739
 31
0.000000
  0
POLYLINE
  8
LAYER-1
 66
  1
 70
  0
 62
  7
 40
0.018182
 41
0.018182
 10
1.725631
 20
2.688057
 30
0.000000
  0
VERTEX
  8
LAYER-1
 10
1.725631
 20
2.688057
 30
0.000000
  0
VERTEX
  8
LAYER-1
 10
0.070057
 20
2.687892
 30
0.000000
  0
SEQEND
  8
LAYER-1
  0
POLYLINE
  8
LAYER-1
 66
  1
 70
  1
 62
  7
  0
VERTEX
  8
LAYER-1
 10
0.522029
 20
2.635890
 30
0.000000
  0
VERTEX
  8
LAYER-1
 10
1.201253
 20
2.635890
 30
0.000000
  0
VERTEX
  8
LAYER-1
 10
1.201253
 20
2.444486
 30
0.000000
  0
VERTEX
  8
LAYER-1
 10
0.522029
 20
2.444486
 30
0.000000
  0
SEQEND
  8
LAYER-1
  0
TEXT
  8
LAYER-1
 62
  7
 10
0.552221
 20
2.503012
 30
0.000000
 40
0.122727
  1
COUPE
 72
  5
 11
1.179494
 21
2.503012
 31
0.000000
  0
POLYLINE
  8
LAYER-1
 66
  1
 70
  0
 62
  7
 10
0.477642
 20
7.869396
 30
0.000000
  0
VERTEX
  8
LAYER-1
 10
0.477642
 20
7.869396
 30
0.000000
  0
VERTEX
  8
LAYER-1
 10
0.770457
 20
7.869396
 30
0.000000
  0
SEQEND
  8
LAYER-1
  0
POLYLINE
  8
LAYER-1
 66
  1
 70
  1
 62
  7
  0
VERTEX
  8
LAYER-1
 10
0.790142
 20
7.869396
 30
0.000000
  0
VERTEX
  8
LAYER-1
 10
0.744688
 20
7.842123
 30
0.000000
  0
VERTEX
  8
LAYER-1
 10
0.744688
 20
7.869396
 30
0.000000
  0
VERTEX
  8
LAYER-1
 10
0.744687
 20
7.896669
 30
0.000000
  0
VERTEX
  8
LAYER-1
 10
0.790142
 20
7.869396
 30
0.000000
  0
SEQEND
  8
LAYER-1
  0
TEXT
  8
LAYER-1
 62
  7
 10
1.888585
 20
5.666648
 30
0.000000
 40
0.122727
  1
Plaque d'extrÄmitÄ (Pour portes plus de 6,7m de largeur / max. 9,1m)
 72
  5
 11
7.252221
 21
5.666648
 31
0.000000
  0
TEXT
  8
LAYER-1
 62
  7
 10
1.879494
 20
8.448466
 30
0.000000
 40
0.122727
  1
Plaque d'extrÄmitÄ (Pour portes maximum 6,7m de largeur)
 72
  5
 11
6.506766
 21
8.448466
 31
0.000000
  0
TEXT
  8
LAYER-1
 62
  7
 10
2.124948
 20
8.003012
 30
0.000000
 40
0.102273
  1
ROLL-VISION,
 72
  5
 11
3.034039
 21
8.003012
 31
0.000000
  0
TEXT
  8
LAYER-1
 62
  7
 10
1.943130
 20
7.848466
 30
0.000000
 40
0.102273
  1
R-AIR
 72
  5
 11
2.343130
 21
7.848466
 31
0.000000
  0
TEXT
  8
LAYER-1
 62
  7
 10
2.343130
 20
7.848466
 30
0.000000
 40
0.061364
  1
 & 
 72
  5
 11
2.497675
 21
7.848466
 31
0.000000
  0
TEXT
  8
LAYER-1
 62
  7
 10
2.497675
 20
7.848466
 30
0.000000
 40
0.102273
  1
R-SHUTTER
 72
  5
 11
3.315857
 21
7.848466
 31
0.000000
  0
TEXT
  8
LAYER-1
 62
  7
 10
2.134039
 20
5.239375
 30
0.000000
 40
0.102273
  1
ROLL-VISION,
 72
  5
 11
3.043130
 21
5.239375
 31
0.000000
  0
TEXT
  8
LAYER-1
 62
  7
 10
1.952221
 20
5.084830
 30
0.000000
 40
0.102273
  1
R-AIR
 72
  5
 11
2.352221
 21
5.084830
 31
0.000000
  0
TEXT
  8
LAYER-1
 62
  7
 10
2.352221
 20
5.084830
 30
0.000000
 40
0.061364
  1
 & 
 72
  5
 11
2.506766
 21
5.084830
 31
0.000000
  0
TEXT
  8
LAYER-1
 62
  7
 10
2.506766
 20
5.084830
 30
0.000000
 40
0.102273
  1
R-SHUTTER
 72
  5
 11
3.324948
 21
5.084830
 31
0.000000
  0
TEXT
  8
LAYER-1
 62
  7
 10
3.706766
 20
8.021194
 30
0.000000
 40
0.102273
  1
ROLL-126 
 72
  5
 11
4.406766
 21
8.021194
 31
0.000000
  0
TEXT
  8
LAYER-1
 62
  7
 10
4.406766
 20
8.021194
 30
0.000000
 40
0.061364
  1
&
 72
  5
 11
4.506766
 21
8.021194
 31
0.000000
  0
TEXT
  8
LAYER-1
 62
  7
 10
3.624948
 20
7.866648
 30
0.000000
 40
0.102273
  1
ROLL-GUARD
 72
  5
 11
4.543130
 21
7.866648
 31
0.000000
  0
TEXT
  8
LAYER-1
 62
  7
 10
3.715857
 20
5.248466
 30
0.000000
 40
0.102273
  1
ROLL-126 
 72
  5
 11
4.415857
 21
5.248466
 31
0.000000
  0
TEXT
  8
LAYER-1
 62
  7
 10
4.415857
 20
5.248466
 30
0.000000
 40
0.061364
  1
&
 72
  5
 11
4.515857
 21
5.248466
 31
0.000000
  0
TEXT
  8
LAYER-1
 62
  7
 10
3.634039
 20
5.093921
 30
0.000000
 40
0.102273
  1
ROLL-GUARD
 72
  5
 11
4.552221
 21
5.093921
 31
0.000000
  0
TEXT
  8
LAYER-1
 62
  7
 10
6.752221
 20
4.693921
 30
0.000000
 40
0.061364
  1
(arbre 25mm)
 72
  5
 11
7.288585
 21
4.693921
 31
0.000000
  0
TEXT
  8
LAYER-1
 62
  7
 10
6.752221
 20
4.357557
 30
0.000000
 40
0.061364
  1
(arbre 32mm)
 72
  5
 11
7.288585
 21
4.357557
 31
0.000000
  0
POLYLINE
  8
LAYER-1
 66
  1
 70
  0
 62
  7
 10
0.920829
 20
6.224531
 30
0.000000
  0
VERTEX
  8
LAYER-1
 10
0.920829
 20
6.224531
 30
0.000000
  0
VERTEX
  8
LAYER-1
 10
0.932548
 20
6.248925
 30
0.000000
  0
SEQEND
  8
LAYER-1
  0
POLYLINE
  8
LAYER-1
 66
  1
 70
  0
 62
  7
 10
0.920829
 20
6.224611
 30
0.000000
  0
VERTEX
  8
LAYER-1
 10
0.920829
 20
6.224611
 30
0.000000
  0
VERTEX
  8
LAYER-1
 10
0.918179
 20
6.224935
 30
0.000000
  0
VERTEX
  8
LAYER-1
 10
0.917643
 20
6.223236
 30
0.000000
  0
VERTEX
  8
LAYER-1
 10
0.917258
 20
6.221497
 30
0.000000
  0
VERTEX
  8
LAYER-1
 10
0.917025
 20
6.219732
 30
0.000000
  0
VERTEX
  8
LAYER-1
 10
0.918916
 20
6.215983
 30
0.000000
  0
SEQEND
  8
LAYER-1
  0
POLYLINE
  8
LAYER-1
 66
  1
 70
  0
 62
  7
 10
0.908532
 20
6.224163
 30
0.000000
  0
VERTEX
  8
LAYER-1
 10
0.908532
 20
6.224163
 30
0.000000
  0
VERTEX
  8
LAYER-1
 10
0.914241
 20
6.236047
 30
0.000000
  0
SEQEND
  8
LAYER-1
  0
POLYLINE
  8
LAYER-1
 66
  1
 70
  0
 62
  7
 10
0.908532
 20
6.224244
 30
0.000000
  0
VERTEX
  8
LAYER-1
 10
0.908532
 20
6.224244
 30
0.000000
  0
VERTEX
  8
LAYER-1
 10
0.905881
 20
6.224568
 30
0.000000
  0
VERTEX
  8
LAYER-1
 10
0.905346
 20
6.222869
 30
0.000000
  0
VERTEX
  8
LAYER-1
 10
0.904960
 20
6.221130
 30
0.000000
  0
VERTEX
  8
LAYER-1
 10
0.904728
 20
6.219364
 30
0.000000
  0
VERTEX
  8
LAYER-1
 10
0.906618
 20
6.215616
 30
0.000000
  0
SEQEND
  8
LAYER-1
  0
POLYLINE
  8
LAYER-1
 66
  1
 70
  0
 62
  7
 10
0.932548
 20
6.248925
 30
0.000000
  0
VERTEX
  8
LAYER-1
 10
0.932548
 20
6.248925
 30
0.000000
  0
VERTEX
  8
LAYER-1
 10
0.914241
 20
6.236047
 30
0.000000
  0
SEQEND
  8
LAYER-1
  0
POLYLINE
  8
LAYER-1
 66
  1
 70
  0
 62
  7
 10
0.918594
 20
6.250332
 30
0.000000
  0
VERTEX
  8
LAYER-1
 10
0.918594
 20
6.250332
 30
0.000000
  0
VERTEX
  8
LAYER-1
 10
0.918594
 20
6.239394
 30
0.000000
  0
SEQEND
  8
LAYER-1
  0
POLYLINE
  8
LAYER-1
 66
  1
 70
  0
 62
  7
 10
0.914219
 20
6.250332
 30
0.000000
  0
VERTEX
  8
LAYER-1
 10
0.914219
 20
6.250332
 30
0.000000
  0
VERTEX
  8
LAYER-1
 10
0.914219
 20
6.235457
 30
0.000000
  0
SEQEND
  8
LAYER-1
  0
POLYLINE
  8
LAYER-1
 66
  1
 70
  0
 62
  7
 10
0.907321
 20
6.211794
 30
0.000000
  0
VERTEX
  8
LAYER-1
 10
0.907321
 20
6.211794
 30
0.000000
  0
VERTEX
  8
LAYER-1
 10
0.925504
 20
6.211794
 30
0.000000
  0
SEQEND
  8
LAYER-1
  0
POLYLINE
  8
LAYER-1
 66
  1
 70
  0
 62
  7
 10
0.926888
 20
6.210411
 30
0.000000
  0
VERTEX
  8
LAYER-1
 10
0.926888
 20
6.210411
 30
0.000000
  0
VERTEX
  8
LAYER-1
 10
0.926888
 20
6.164219
 30
0.000000
  0
SEQEND
  8
LAYER-1
  0
POLYLINE
  8
LAYER-1
 66
  1
 70
  0
 62
  7
 10
0.925504
 20
6.162836
 30
0.000000
  0
VERTEX
  8
LAYER-1
 10
0.925504
 20
6.162836
 30
0.000000
  0
VERTEX
  8
LAYER-1
 10
0.907321
 20
6.162836
 30
0.000000
  0
SEQEND
  8
LAYER-1
  0
POLYLINE
  8
LAYER-1
 66
  1
 70
  0
 62
  7
 10
0.905937
 20
6.164219
 30
0.000000
  0
VERTEX
  8
LAYER-1
 10
0.905937
 20
6.164219
 30
0.000000
  0
VERTEX
  8
LAYER-1
 10
0.905937
 20
6.210411
 30
0.000000
  0
SEQEND
  8
LAYER-1
  0
ARC
  8
LAYER-1
 62
  7
 10
0.907321
 20
6.210411
 30
0.000000
 40
0.001383
 50
270.000000
 51
0.000000
  0
ARC
  8
LAYER-1
 62
  7
 10
0.907321
 20
6.164219
 30
0.000000
 40
0.001383
 50
0.000000
 51
90.000000
  0
ARC
  8
LAYER-1
 62
  7
 10
0.925504
 20
6.164219
 30
0.000000
 40
0.001383
 50
90.000000
 51
180.000000
  0
ARC
  8
LAYER-1
 62
  7
 10
0.925504
 20
6.210411
 30
0.000000
 40
0.001383
 50
180.000000
 51
270.000000
  0
POLYLINE
  8
LAYER-1
 66
  1
 70
  1
 62
  7
 10
0.925348
 20
6.164202
 30
0.000000
  0
VERTEX
  8
LAYER-1
 10
0.925348
 20
6.164202
 30
0.000000
  0
VERTEX
  8
LAYER-1
 10
0.907200
 20
6.164202
 30
0.000000
  0
VERTEX
  8
LAYER-1
 10
0.907200
 20
6.210545
 30
0.000000
  0
VERTEX
  8
LAYER-1
 10
0.925348
 20
6.210545
 30
0.000000
  0
SEQEND
  8
LAYER-1
  0
POLYLINE
  8
LAYER-1
 66
  1
 70
  0
 62
  7
 10
0.919191
 20
6.210545
 30
0.000000
  0
VERTEX
  8
LAYER-1
 10
0.919191
 20
6.210545
 30
0.000000
  0
VERTEX
  8
LAYER-1
 10
0.919191
 20
6.164202
 30
0.000000
  0
SEQEND
  8
LAYER-1
  0
POLYLINE
  8
LAYER-1
 66
  1
 70
  0
 62
  7
 10
0.925348
 20
6.210545
 30
0.000000
  0
VERTEX
  8
LAYER-1
 10
0.925348
 20
6.210545
 30
0.000000
  0
VERTEX
  8
LAYER-1
 10
0.920687
 20
6.179707
 30
0.000000
  0
VERTEX
  8
LAYER-1
 10
0.925348
 20
6.164201
 30
0.000000
  0
SEQEND
  8
LAYER-1
  0
POLYLINE
  8
LAYER-1
 66
  1
 70
  0
 62
  7
 10
0.907200
 20
6.210543
 30
0.000000
  0
VERTEX
  8
LAYER-1
 10
0.907200
 20
6.210543
 30
0.000000
  0
VERTEX
  8
LAYER-1
 10
0.913493
 20
6.208417
 30
0.000000
  0
VERTEX
  8
LAYER-1
 10
0.922231
 20
6.211364
 30
0.000000
  0
VERTEX
  8
LAYER-1
 10
0.925348
 20
6.210543
 30
0.000000
  0
SEQEND
  8
LAYER-1
  0
POLYLINE
  8
LAYER-1
 66
  1
 70
  0
 62
  7
 10
0.925348
 20
6.164202
 30
0.000000
  0
VERTEX
  8
LAYER-1
 10
0.925348
 20
6.164202
 30
0.000000
  0
VERTEX
  8
LAYER-1
 10
0.915653
 20
6.170488
 30
0.000000
  0
VERTEX
  8
LAYER-1
 10
0.907137
 20
6.168076
 30
0.000000
  0
VERTEX
  8
LAYER-1
 10
0.907200
 20
6.164202
 30
0.000000
  0
SEQEND
  8
LAYER-1
  0
POLYLINE
  8
LAYER-1
 66
  1
 70
  0
 62
  7
 10
0.907200
 20
6.164202
 30
0.000000
  0
VERTEX
  8
LAYER-1
 10
0.907200
 20
6.164202
 30
0.000000
  0
VERTEX
  8
LAYER-1
 10
0.908367
 20
6.196750
 30
0.000000
  0
VERTEX
  8
LAYER-1
 10
0.907200
 20
6.210545
 30
0.000000
  0
SEQEND
  8
LAYER-1
  0
POLYLINE
  8
LAYER-1
 66
  1
 70
  0
 62
  7
 40
0.018182
 41
0.018182
 10
4.260320
 20
1.983569
 30
0.000000
  0
VERTEX
  8
LAYER-1
 10
4.260320
 20
1.983569
 30
0.000000
  0
VERTEX
  8
LAYER-1
 10
4.260320
 20
3.003568
 30
0.000000
  0
SEQEND
  8
LAYER-1
  0
POLYLINE
  8
LAYER-1
 66
  1
 70
  0
 62
  7
 10
6.491143
 20
3.006605
 30
0.000000
  0
VERTEX
  8
LAYER-1
 10
6.491143
 20
3.006605
 30
0.000000
  0
VERTEX
  8
LAYER-1
 10
6.491143
 20
1.984034
 30
0.000000
  0
SEQEND
  8
LAYER-1
  0
TEXT
  8
LAYER-1
 62
  7
 10
4.679494
 20
2.848466
 30
0.000000
 40
0.102273
  1
HAUTEUR PLAFOND
 72
  5
 11
6.070403
 21
2.848466
 31
0.000000
  0
TEXT
  8
LAYER-1
 62
  7
 10
6.724948
 20
2.875739
 30
0.000000
 40
0.102273
  1
PLAQUE
 72
  5
 11
7.324948
 21
2.875739
 31
0.000000
  0
TEXT
  8
LAYER-1
 62
  7
 10
6.606766
 20
2.721194
 30
0.000000
 40
0.102273
  1
EXTRâMITâ
 72
  5
 11
7.452221
 21
2.721194
 31
0.000000
  0
TEXT
  8
LAYER-1
 62
  7
 10
5.470403
 20
2.421194
 30
0.000000
 40
0.115909
  1
jusqu'ê 2,1m
 72
  5
 11
6.343130
 21
2.421194
 31
0.000000
  0
TEXT
  8
LAYER-1
 62
  7
 10
5.470403
 20
2.057557
 30
0.000000
 40
0.115909
  1
2,1m ê 3,7m
 72
  5
 11
6.343130
 21
2.057557
 31
0.000000
  0
POLYLINE
  8
LAYER-1
 66
  1
 70
  0
 62
  7
 40
0.018182
 41
0.018182
 10
7.587933
 20
3.004867
 30
0.000000
  0
VERTEX
  8
LAYER-1
 10
7.587933
 20
3.004867
 30
0.000000
  0
VERTEX
  8
LAYER-1
 10
7.587933
 20
1.983569
 30
0.000000
  0
SEQEND
  8
LAYER-1
  0
TEXT
  8
LAYER-1
 62
  7
 10
6.679494
 20
2.066648
 30
0.000000
 40
0.115909
  1
254 x 254
 72
  5
 11
7.370403
 21
2.066648
 31
0.000000
  0
TEXT
  8
LAYER-1
 62
  7
 10
6.679494
 20
2.430285
 30
0.000000
 40
0.115909
  1
203 x 203
 72
  5
 11
7.370403
 21
2.430285
 31
0.000000
  0
TEXT
  8
LAYER-1
 62
  7
 10
4.234039
 20
3.284830
 30
0.000000
 40
0.122727
  1
Plaque d'extrÄmitÄ: Baril 102mm & 114mm
 72
  5
 11
7.570403
 21
3.284830
 31
0.000000
  0
TEXT
  8
LAYER-1
 62
  7
 10
4.234039
 20
3.093921
 30
0.000000
 40
0.122727
  1
(Pour Volet de comptoir & modÅles SLIM)
 72
  5
 11
7.497675
 21
3.093921
 31
0.000000
  0
POLYLINE
  8
LAYER-1
 66
  1
 70
  0
 62
  7
 10
4.260578
 20
2.323567
 30
0.000000
  0
VERTEX
  8
LAYER-1
 10
4.260578
 20
2.323567
 30
0.000000
  0
VERTEX
  8
LAYER-1
 10
7.585590
 20
2.323567
 30
0.000000
  0
SEQEND
  8
LAYER-1
  0
POLYLINE
  8
LAYER-1
 66
  1
 70
  0
 62
  7
 10
4.260578
 20
2.663568
 30
0.000000
  0
VERTEX
  8
LAYER-1
 10
4.260578
 20
2.663568
 30
0.000000
  0
VERTEX
  8
LAYER-1
 10
7.585590
 20
2.663568
 30
0.000000
  0
SEQEND
  8
LAYER-1
  0
POLYLINE
  8
LAYER-1
 66
  1
 70
  0
 62
  7
 40
0.018182
 41
0.018182
 10
4.260578
 20
3.003568
 30
0.000000
  0
VERTEX
  8
LAYER-1
 10
4.260578
 20
3.003568
 30
0.000000
  0
VERTEX
  8
LAYER-1
 10
7.585590
 20
3.003568
 30
0.000000
  0
SEQEND
  8
LAYER-1
  0
POLYLINE
  8
LAYER-1
 66
  1
 70
  0
 62
  7
 40
0.018182
 41
0.018182
 10
4.260578
 20
1.983569
 30
0.000000
  0
VERTEX
  8
LAYER-1
 10
4.260578
 20
1.983569
 30
0.000000
  0
VERTEX
  8
LAYER-1
 10
7.585590
 20
1.983569
 30
0.000000
  0
SEQEND
  8
LAYER-1
  0
POLYLINE
  8
LAYER-1
 66
  1
 70
  0
 62
  7
 10
4.260578
 20
2.801023
 30
0.000000
  0
VERTEX
  8
LAYER-1
 10
4.260578
 20
2.801023
 30
0.000000
  0
VERTEX
  8
LAYER-1
 10
6.491142
 20
2.801023
 30
0.000000
  0
SEQEND
  8
LAYER-1
  0
POLYLINE
  8
LAYER-1
 66
  1
 70
  0
 62
  7
 10
5.376559
 20
2.801023
 30
0.000000
  0
VERTEX
  8
LAYER-1
 10
5.376559
 20
2.801023
 30
0.000000
  0
VERTEX
  8
LAYER-1
 10
5.376559
 20
1.984034
 30
0.000000
  0
SEQEND
  8
LAYER-1
  0
TEXT
  8
LAYER-1
 62
  7
 10
5.634039
 20
2.684830
 30
0.000000
 40
0.075000
  1
SANS CAPOT
 72
  5
 11
6.288585
 21
2.684830
 31
0.000000
  0
TEXT
  8
LAYER-1
 62
  7
 10
4.461312
 20
2.684830
 30
0.000000
 40
0.075000
  1
AVEC CAPOT
 72
  5
 11
5.115857
 21
2.684830
 31
0.000000
  0
TEXT
  8
LAYER-1
 62
  7
 10
4.361312
 20
2.421194
 30
0.000000
 40
0.115909
  1
jusqu'ê 1,8m
 72
  5
 11
5.234039
 21
2.421194
 31
0.000000
  0
TEXT
  8
LAYER-1
 62
  7
 10
4.361312
 20
2.057557
 30
0.000000
 40
0.115909
  1
1,8m ê 3,0m
 72
  5
 11
5.234039
 21
2.057557
 31
0.000000
  0
POLYLINE
  8
LAYER-1
 66
  1
 70
  0
 62
  7
 10
0.317575
 20
0.813136
 30
0.000000
  0
VERTEX
  8
LAYER-1
 10
0.317575
 20
0.813136
 30
0.000000
  0
VERTEX
  8
LAYER-1
 10
0.317574
 20
0.714469
 30
0.000000
  0
SEQEND
  8
LAYER-1
  0
POLYLINE
  8
LAYER-1
 66
  1
 70
  0
 62
  7
 10
0.317574
 20
0.813137
 30
0.000000
  0
VERTEX
  8
LAYER-1
 10
0.317574
 20
0.813137
 30
0.000000
  0
VERTEX
  8
LAYER-1
 10
0.317555
 20
0.819437
 30
0.000000
  0
SEQEND
  8
LAYER-1
  0
POLYLINE
  8
LAYER-1
 66
  1
 70
  0
 62
  7
 10
0.317555
 20
0.819436
 30
0.000000
  0
VERTEX
  8
LAYER-1
 10
0.317555
 20
0.819436
 30
0.000000
  0
VERTEX
  8
LAYER-1
 10
0.317555
 20
1.039142
 30
0.000000
  0
SEQEND
  8
LAYER-1
  0
POLYLINE
  8
LAYER-1
 66
  1
 70
  0
 62
  7
 10
0.317555
 20
1.039144
 30
0.000000
  0
VERTEX
  8
LAYER-1
 10
0.317555
 20
1.039144
 30
0.000000
  0
VERTEX
  8
LAYER-1
 10
0.317555
 20
1.045443
 30
0.000000
  0
SEQEND
  8
LAYER-1
  0
POLYLINE
  8
LAYER-1
 66
  1
 70
  0
 62
  7
 10
0.317555
 20
1.045445
 30
0.000000
  0
VERTEX
  8
LAYER-1
 10
0.317555
 20
1.045445
 30
0.000000
  0
VERTEX
  8
LAYER-1
 10
0.317555
 20
1.262777
 30
0.000000
  0
SEQEND
  8
LAYER-1
  0
POLYLINE
  8
LAYER-1
 66
  1
 70
  0
 62
  7
 10
0.320705
 20
1.265927
 30
0.000000
  0
VERTEX
  8
LAYER-1
 10
0.320705
 20
1.265927
 30
0.000000
  0
VERTEX
  8
LAYER-1
 10
0.317555
 20
1.262777
 30
0.000000
  0
SEQEND
  8
LAYER-1
  0
POLYLINE
  8
LAYER-1
 66
  1
 70
  0
 62
  7
 10
0.337534
 20
1.249175
 30
0.000000
  0
VERTEX
  8
LAYER-1
 10
0.337534
 20
1.249175
 30
0.000000
  0
VERTEX
  8
LAYER-1
 10
0.320705
 20
1.265929
 30
0.000000
  0
SEQEND
  8
LAYER-1
  0
POLYLINE
  8
LAYER-1
 66
  1
 70
  0
 62
  7
 10
0.337534
 20
1.249174
 30
0.000000
  0
VERTEX
  8
LAYER-1
 10
0.337534
 20
1.249174
 30
0.000000
  0
VERTEX
  8
LAYER-1
 10
0.334384
 20
1.246024
 30
0.000000
  0
SEQEND
  8
LAYER-1
  0
POLYLINE
  8
LAYER-1
 66
  1
 70
  0
 62
  7
 10
0.334384
 20
1.236636
 30
0.000000
  0
VERTEX
  8
LAYER-1
 10
0.334384
 20
1.236636
 30
0.000000
  0
VERTEX
  8
LAYER-1
 10
0.334384
 20
1.246024
 30
0.000000
  0
SEQEND
  8
LAYER-1
  0
POLYLINE
  8
LAYER-1
 66
  1
 70
  0
 62
  7
 10
0.334384
 20
1.236636
 30
0.000000
  0
VERTEX
  8
LAYER-1
 10
0.334384
 20
1.236636
 30
0.000000
  0
VERTEX
  8
LAYER-1
 10
0.337534
 20
1.233486
 30
0.000000
  0
SEQEND
  8
LAYER-1
  0
POLYLINE
  8
LAYER-1
 66
  1
 70
  0
 62
  7
 10
0.353763
 20
1.233485
 30
0.000000
  0
VERTEX
  8
LAYER-1
 10
0.353763
 20
1.233485
 30
0.000000
  0
VERTEX
  8
LAYER-1
 10
0.337534
 20
1.233485
 30
0.000000
  0
SEQEND
  8
LAYER-1
  0
POLYLINE
  8
LAYER-1
 66
  1
 70
  0
 62
  7
 10
0.356913
 20
1.230333
 30
0.000000
  0
VERTEX
  8
LAYER-1
 10
0.356913
 20
1.230333
 30
0.000000
  0
VERTEX
  8
LAYER-1
 10
0.353763
 20
1.233484
 30
0.000000
  0
SEQEND
  8
LAYER-1
  0
POLYLINE
  8
LAYER-1
 66
  1
 70
  0
 62
  7
 10
0.356913
 20
1.215635
 30
0.000000
  0
VERTEX
  8
LAYER-1
 10
0.356913
 20
1.215635
 30
0.000000
  0
VERTEX
  8
LAYER-1
 10
0.356913
 20
1.230333
 30
0.000000
  0
SEQEND
  8
LAYER-1
  0
POLYLINE
  8
LAYER-1
 66
  1
 70
  0
 62
  7
 10
0.353763
 20
1.212486
 30
0.000000
  0
VERTEX
  8
LAYER-1
 10
0.353763
 20
1.212486
 30
0.000000
  0
VERTEX
  8
LAYER-1
 10
0.356913
 20
1.215635
 30
0.000000
  0
SEQEND
  8
LAYER-1
  0
POLYLINE
  8
LAYER-1
 66
  1
 70
  0
 62
  7
 10
0.337504
 20
1.212484
 30
0.000000
  0
VERTEX
  8
LAYER-1
 10
0.337504
 20
1.212484
 30
0.000000
  0
VERTEX
  8
LAYER-1
 10
0.353763
 20
1.212484
 30
0.000000
  0
SEQEND
  8
LAYER-1
  0
POLYLINE
  8
LAYER-1
 66
  1
 70
  0
 62
  7
 10
0.337504
 20
1.212483
 30
0.000000
  0
VERTEX
  8
LAYER-1
 10
0.337504
 20
1.212483
 30
0.000000
  0
VERTEX
  8
LAYER-1
 10
0.334354
 20
1.209334
 30
0.000000
  0
SEQEND
  8
LAYER-1
  0
POLYLINE
  8
LAYER-1
 66
  1
 70
  0
 62
  7
 10
0.334354
 20
1.199826
 30
0.000000
  0
VERTEX
  8
LAYER-1
 10
0.334354
 20
1.199826
 30
0.000000
  0
VERTEX
  8
LAYER-1
 10
0.334354
 20
1.209334
 30
0.000000
  0
SEQEND
  8
LAYER-1
  0
POLYLINE
  8
LAYER-1
 66
  1
 70
  0
 62
  7
 10
0.334354
 20
1.199826
 30
0.000000
  0
VERTEX
  8
LAYER-1
 10
0.334354
 20
1.199826
 30
0.000000
  0
VERTEX
  8
LAYER-1
 10
0.337504
 20
1.196676
 30
0.000000
  0
SEQEND
  8
LAYER-1
  0
POLYLINE
  8
LAYER-1
 66
  1
 70
  0
 62
  7
 10
0.383171
 20
1.196675
 30
0.000000
  0
VERTEX
  8
LAYER-1
 10
0.383171
 20
1.196675
 30
0.000000
  0
VERTEX
  8
LAYER-1
 10
0.337504
 20
1.196675
 30
0.000000
  0
SEQEND
  8
LAYER-1
  0
POLYLINE
  8
LAYER-1
 66
  1
 70
  0
 62
  7
 10
0.386321
 20
1.193525
 30
0.000000
  0
VERTEX
  8
LAYER-1
 10
0.386321
 20
1.193525
 30
0.000000
  0
VERTEX
  8
LAYER-1
 10
0.383171
 20
1.196674
 30
0.000000
  0
SEQEND
  8
LAYER-1
  0
POLYLINE
  8
LAYER-1
 66
  1
 70
  0
 62
  7
 10
0.386321
 20
1.183024
 30
0.000000
  0
VERTEX
  8
LAYER-1
 10
0.386321
 20
1.183024
 30
0.000000
  0
VERTEX
  8
LAYER-1
 10
0.386321
 20
1.193525
 30
0.000000
  0
SEQEND
  8
LAYER-1
  0
POLYLINE
  8
LAYER-1
 66
  1
 70
  0
 62
  7
 10
0.383171
 20
1.179875
 30
0.000000
  0
VERTEX
  8
LAYER-1
 10
0.383171
 20
1.179875
 30
0.000000
  0
VERTEX
  8
LAYER-1
 10
0.386321
 20
1.183024
 30
0.000000
  0
SEQEND
  8
LAYER-1
  0
POLYLINE
  8
LAYER-1
 66
  1
 70
  0
 62
  7
 10
0.337537
 20
1.179875
 30
0.000000
  0
VERTEX
  8
LAYER-1
 10
0.337537
 20
1.179875
 30
0.000000
  0
VERTEX
  8
LAYER-1
 10
0.383171
 20
1.179875
 30
0.000000
  0
SEQEND
  8
LAYER-1
  0
POLYLINE
  8
LAYER-1
 66
  1
 70
  0
 62
  7
 10
0.337537
 20
1.179875
 30
0.000000
  0
VERTEX
  8
LAYER-1
 10
0.337537
 20
1.179875
 30
0.000000
  0
VERTEX
  8
LAYER-1
 10
0.334387
 20
1.176725
 30
0.000000
  0
SEQEND
  8
LAYER-1
  0
POLYLINE
  8
LAYER-1
 66
  1
 70
  0
 62
  7
 10
0.334387
 20
1.136238
 30
0.000000
  0
VERTEX
  8
LAYER-1
 10
0.334387
 20
1.136238
 30
0.000000
  0
VERTEX
  8
LAYER-1
 10
0.334387
 20
1.176725
 30
0.000000
  0
SEQEND
  8
LAYER-1
  0
POLYLINE
  8
LAYER-1
 66
  1
 70
  0
 62
  7
 10
0.334387
 20
1.136238
 30
0.000000
  0
VERTEX
  8
LAYER-1
 10
0.334387
 20
1.136238
 30
0.000000
  0
VERTEX
  8
LAYER-1
 10
0.337537
 20
1.133088
 30
0.000000
  0
SEQEND
  8
LAYER-1
  0
POLYLINE
  8
LAYER-1
 66
  1
 70
  0
 62
  7
 10
0.337534
 20
1.106768
 30
0.000000
  0
VERTEX
  8
LAYER-1
 10
0.337534
 20
1.106768
 30
0.000000
  0
VERTEX
  8
LAYER-1
 10
0.337537
 20
1.133087
 30
0.000000
  0
SEQEND
  8
LAYER-1
  0
POLYLINE
  8
LAYER-1
 66
  1
 70
  0
 62
  7
 10
0.337534
 20
1.106769
 30
0.000000
  0
VERTEX
  8
LAYER-1
 10
0.337534
 20
1.106769
 30
0.000000
  0
VERTEX
  8
LAYER-1
 10
0.334384
 20
1.103619
 30
0.000000
  0
SEQEND
  8
LAYER-1
  0
POLYLINE
  8
LAYER-1
 66
  1
 70
  0
 62
  7
 10
0.334384
 20
1.103619
 30
0.000000
  0
VERTEX
  8
LAYER-1
 10
0.334384
 20
1.103619
 30
0.000000
  0
VERTEX
  8
LAYER-1
 10
0.334384
 20
1.093178
 30
0.000000
  0
SEQEND
  8
LAYER-1
  0
POLYLINE
  8
LAYER-1
 66
  1
 70
  0
 62
  7
 10
0.334384
 20
1.093178
 30
0.000000
  0
VERTEX
  8
LAYER-1
 10
0.334384
 20
1.093178
 30
0.000000
  0
VERTEX
  8
LAYER-1
 10
0.337534
 20
1.090029
 30
0.000000
  0
SEQEND
  8
LAYER-1
  0
POLYLINE
  8
LAYER-1
 66
  1
 70
  0
 62
  7
 10
0.353763
 20
1.090028
 30
0.000000
  0
VERTEX
  8
LAYER-1
 10
0.353763
 20
1.090028
 30
0.000000
  0
VERTEX
  8
LAYER-1
 10
0.337534
 20
1.090028
 30
0.000000
  0
SEQEND
  8
LAYER-1
  0
POLYLINE
  8
LAYER-1
 66
  1
 70
  0
 62
  7
 10
0.356913
 20
1.086880
 30
0.000000
  0
VERTEX
  8
LAYER-1
 10
0.356913
 20
1.086880
 30
0.000000
  0
VERTEX
  8
LAYER-1
 10
0.353763
 20
1.090029
 30
0.000000
  0
SEQEND
  8
LAYER-1
  0
POLYLINE
  8
LAYER-1
 66
  1
 70
  0
 62
  7
 10
0.356913
 20
1.086880
 30
0.000000
  0
VERTEX
  8
LAYER-1
 10
0.356913
 20
1.086880
 30
0.000000
  0
VERTEX
  8
LAYER-1
 10
0.356913
 20
1.072179
 30
0.000000
  0
SEQEND
  8
LAYER-1
  0
POLYLINE
  8
LAYER-1
 66
  1
 70
  0
 62
  7
 10
0.353763
 20
1.069029
 30
0.000000
  0
VERTEX
  8
LAYER-1
 10
0.353763
 20
1.069029
 30
0.000000
  0
VERTEX
  8
LAYER-1
 10
0.356913
 20
1.072179
 30
0.000000
  0
SEQEND
  8
LAYER-1
  0
POLYLINE
  8
LAYER-1
 66
  1
 70
  0
 62
  7
 10
0.337504
 20
1.069029
 30
0.000000
  0
VERTEX
  8
LAYER-1
 10
0.337504
 20
1.069029
 30
0.000000
  0
VERTEX
  8
LAYER-1
 10
0.353763
 20
1.069029
 30
0.000000
  0
SEQEND
  8
LAYER-1
  0
POLYLINE
  8
LAYER-1
 66
  1
 70
  0
 62
  7
 10
0.337504
 20
1.069029
 30
0.000000
  0
VERTEX
  8
LAYER-1
 10
0.337504
 20
1.069029
 30
0.000000
  0
VERTEX
  8
LAYER-1
 10
0.334354
 20
1.065879
 30
0.000000
  0
SEQEND
  8
LAYER-1
  0
POLYLINE
  8
LAYER-1
 66
  1
 70
  0
 62
  7
 10
0.334354
 20
1.055318
 30
0.000000
  0
VERTEX
  8
LAYER-1
 10
0.334354
 20
1.055318
 30
0.000000
  0
VERTEX
  8
LAYER-1
 10
0.334354
 20
1.065879
 30
0.000000
  0
SEQEND
  8
LAYER-1
  0
POLYLINE
  8
LAYER-1
 66
  1
 70
  0
 62
  7
 10
0.334354
 20
1.055318
 30
0.000000
  0
VERTEX
  8
LAYER-1
 10
0.334354
 20
1.055318
 30
0.000000
  0
VERTEX
  8
LAYER-1
 10
0.337504
 20
1.052168
 30
0.000000
  0
SEQEND
  8
LAYER-1
  0
POLYLINE
  8
LAYER-1
 66
  1
 70
  0
 62
  7
 10
0.383171
 20
1.052168
 30
0.000000
  0
VERTEX
  8
LAYER-1
 10
0.383171
 20
1.052168
 30
0.000000
  0
VERTEX
  8
LAYER-1
 10
0.337504
 20
1.052168
 30
0.000000
  0
SEQEND
  8
LAYER-1
  0
POLYLINE
  8
LAYER-1
 66
  1
 70
  0
 62
  7
 10
0.386321
 20
1.049020
 30
0.000000
  0
VERTEX
  8
LAYER-1
 10
0.386321
 20
1.049020
 30
0.000000
  0
VERTEX
  8
LAYER-1
 10
0.383171
 20
1.052170
 30
0.000000
  0
SEQEND
  8
LAYER-1
  0
POLYLINE
  8
LAYER-1
 66
  1
 70
  0
 62
  7
 10
0.386321
 20
1.049020
 30
0.000000
  0
VERTEX
  8
LAYER-1
 10
0.386321
 20
1.049020
 30
0.000000
  0
VERTEX
  8
LAYER-1
 10
0.386321
 20
1.035367
 30
0.000000
  0
SEQEND
  8
LAYER-1
  0
POLYLINE
  8
LAYER-1
 66
  1
 70
  0
 62
  7
 10
0.383171
 20
1.032218
 30
0.000000
  0
VERTEX
  8
LAYER-1
 10
0.383171
 20
1.032218
 30
0.000000
  0
VERTEX
  8
LAYER-1
 10
0.386321
 20
1.035367
 30
0.000000
  0
SEQEND
  8
LAYER-1
  0
POLYLINE
  8
LAYER-1
 66
  1
 70
  0
 62
  7
 10
0.383171
 20
1.032219
 30
0.000000
  0
VERTEX
  8
LAYER-1
 10
0.383171
 20
1.032219
 30
0.000000
  0
VERTEX
  8
LAYER-1
 10
0.340687
 20
1.032219
 30
0.000000
  0
SEQEND
  8
LAYER-1
  0
POLYLINE
  8
LAYER-1
 66
  1
 70
  0
 62
  7
 10
0.340687
 20
1.032220
 30
0.000000
  0
VERTEX
  8
LAYER-1
 10
0.340687
 20
1.032220
 30
0.000000
  0
VERTEX
  8
LAYER-1
 10
0.337537
 20
1.029069
 30
0.000000
  0
SEQEND
  8
LAYER-1
  0
POLYLINE
  8
LAYER-1
 66
  1
 70
  0
 62
  7
 10
0.337537
 20
1.029069
 30
0.000000
  0
VERTEX
  8
LAYER-1
 10
0.337537
 20
1.029069
 30
0.000000
  0
VERTEX
  8
LAYER-1
 10
0.337537
 20
0.793230
 30
0.000000
  0
SEQEND
  8
LAYER-1
  0
POLYLINE
  8
LAYER-1
 66
  1
 70
  0
 62
  7
 10
0.337537
 20
0.793230
 30
0.000000
  0
VERTEX
  8
LAYER-1
 10
0.337537
 20
0.793230
 30
0.000000
  0
VERTEX
  8
LAYER-1
 10
0.340687
 20
0.790080
 30
0.000000
  0
SEQEND
  8
LAYER-1
  0
POLYLINE
  8
LAYER-1
 66
  1
 70
  0
 62
  7
 10
0.397787
 20
0.790079
 30
0.000000
  0
VERTEX
  8
LAYER-1
 10
0.397787
 20
0.790079
 30
0.000000
  0
VERTEX
  8
LAYER-1
 10
0.340687
 20
0.790079
 30
0.000000
  0
SEQEND
  8
LAYER-1
  0
POLYLINE
  8
LAYER-1
 66
  1
 70
  0
 62
  7
 10
0.409337
 20
0.778530
 30
0.000000
  0
VERTEX
  8
LAYER-1
 10
0.409337
 20
0.778530
 30
0.000000
  0
VERTEX
  8
LAYER-1
 10
0.403986
 20
0.788665
 30
0.000000
  0
VERTEX
  8
LAYER-1
 10
0.397787
 20
0.790079
 30
0.000000
  0
SEQEND
  8
LAYER-1
  0
POLYLINE
  8
LAYER-1
 66
  1
 70
  0
 62
  7
 10
0.409337
 20
0.765156
 30
0.000000
  0
VERTEX
  8
LAYER-1
 10
0.409337
 20
0.765156
 30
0.000000
  0
VERTEX
  8
LAYER-1
 10
0.409337
 20
0.778530
 30
0.000000
  0
SEQEND
  8
LAYER-1
  0
POLYLINE
  8
LAYER-1
 66
  1
 70
  0
 62
  7
 10
0.406187
 20
0.762006
 30
0.000000
  0
VERTEX
  8
LAYER-1
 10
0.406187
 20
0.762006
 30
0.000000
  0
VERTEX
  8
LAYER-1
 10
0.409337
 20
0.765156
 30
0.000000
  0
SEQEND
  8
LAYER-1
  0
POLYLINE
  8
LAYER-1
 66
  1
 70
  0
 62
  7
 10
0.404221
 20
0.762003
 30
0.000000
  0
VERTEX
  8
LAYER-1
 10
0.404221
 20
0.762003
 30
0.000000
  0
VERTEX
  8
LAYER-1
 10
0.406187
 20
0.762003
 30
0.000000
  0
SEQEND
  8
LAYER-1
  0
POLYLINE
  8
LAYER-1
 66
  1
 70
  0
 62
  7
 10
0.401071
 20
0.765156
 30
0.000000
  0
VERTEX
  8
LAYER-1
 10
0.401071
 20
0.765156
 30
0.000000
  0
VERTEX
  8
LAYER-1
 10
0.404221
 20
0.762006
 30
0.000000
  0
SEQEND
  8
LAYER-1
  0
POLYLINE
  8
LAYER-1
 66
  1
 70
  0
 62
  7
 10
0.401070
 20
0.765156
 30
0.000000
  0
VERTEX
  8
LAYER-1
 10
0.401070
 20
0.765156
 30
0.000000
  0
VERTEX
  8
LAYER-1
 10
0.401070
 20
0.775378
 30
0.000000
  0
SEQEND
  8
LAYER-1
  0
POLYLINE
  8
LAYER-1
 66
  1
 70
  0
 62
  7
 10
0.401071
 20
0.775378
 30
0.000000
  0
VERTEX
  8
LAYER-1
 10
0.401071
 20
0.775378
 30
0.000000
  0
VERTEX
  8
LAYER-1
 10
0.397921
 20
0.778529
 30
0.000000
  0
SEQEND
  8
LAYER-1
  0
POLYLINE
  8
LAYER-1
 66
  1
 70
  0
 62
  7
 10
0.397921
 20
0.778528
 30
0.000000
  0
VERTEX
  8
LAYER-1
 10
0.397921
 20
0.778528
 30
0.000000
  0
VERTEX
  8
LAYER-1
 10
0.386045
 20
0.778528
 30
0.000000
  0
SEQEND
  8
LAYER-1
  0
POLYLINE
  8
LAYER-1
 66
  1
 70
  0
 62
  7
 10
0.386045
 20
0.778529
 30
0.000000
  0
VERTEX
  8
LAYER-1
 10
0.386045
 20
0.778529
 30
0.000000
  0
VERTEX
  8
LAYER-1
 10
0.382895
 20
0.775378
 30
0.000000
  0
SEQEND
  8
LAYER-1
  0
POLYLINE
  8
LAYER-1
 66
  1
 70
  0
 62
  7
 10
0.382894
 20
0.775378
 30
0.000000
  0
VERTEX
  8
LAYER-1
 10
0.382894
 20
0.775378
 30
0.000000
  0
VERTEX
  8
LAYER-1
 10
0.382894
 20
0.765134
 30
0.000000
  0
SEQEND
  8
LAYER-1
  0
POLYLINE
  8
LAYER-1
 66
  1
 70
  0
 62
  7
 10
0.379740
 20
0.761985
 30
0.000000
  0
VERTEX
  8
LAYER-1
 10
0.379740
 20
0.761985
 30
0.000000
  0
VERTEX
  8
LAYER-1
 10
0.382895
 20
0.765134
 30
0.000000
  0
SEQEND
  8
LAYER-1
  0
POLYLINE
  8
LAYER-1
 66
  1
 70
  0
 62
  7
 10
0.379740
 20
0.761984
 30
0.000000
  0
VERTEX
  8
LAYER-1
 10
0.379740
 20
0.761984
 30
0.000000
  0
VERTEX
  8
LAYER-1
 10
0.364977
 20
0.762003
 30
0.000000
  0
SEQEND
  8
LAYER-1
  0
POLYLINE
  8
LAYER-1
 66
  1
 70
  0
 62
  7
 10
0.361831
 20
0.765156
 30
0.000000
  0
VERTEX
  8
LAYER-1
 10
0.361831
 20
0.765156
 30
0.000000
  0
VERTEX
  8
LAYER-1
 10
0.364977
 20
0.762006
 30
0.000000
  0
SEQEND
  8
LAYER-1
  0
POLYLINE
  8
LAYER-1
 66
  1
 70
  0
 62
  7
 10
0.361831
 20
0.765156
 30
0.000000
  0
VERTEX
  8
LAYER-1
 10
0.361831
 20
0.765156
 30
0.000000
  0
VERTEX
  8
LAYER-1
 10
0.361831
 20
0.775378
 30
0.000000
  0
SEQEND
  8
LAYER-1
  0
POLYLINE
  8
LAYER-1
 66
  1
 70
  0
 62
  7
 10
0.361832
 20
0.775378
 30
0.000000
  0
VERTEX
  8
LAYER-1
 10
0.361832
 20
0.775378
 30
0.000000
  0
VERTEX
  8
LAYER-1
 10
0.358682
 20
0.778529
 30
0.000000
  0
SEQEND
  8
LAYER-1
  0
POLYLINE
  8
LAYER-1
 66
  1
 70
  0
 62
  7
 10
0.358682
 20
0.778528
 30
0.000000
  0
VERTEX
  8
LAYER-1
 10
0.358682
 20
0.778528
 30
0.000000
  0
VERTEX
  8
LAYER-1
 10
0.332210
 20
0.778528
 30
0.000000
  0
SEQEND
  8
LAYER-1
  0
POLYLINE
  8
LAYER-1
 66
  1
 70
  0
 62
  7
 10
0.332210
 20
0.778529
 30
0.000000
  0
VERTEX
  8
LAYER-1
 10
0.332210
 20
0.778529
 30
0.000000
  0
VERTEX
  8
LAYER-1
 10
0.329060
 20
0.775378
 30
0.000000
  0
SEQEND
  8
LAYER-1
  0
POLYLINE
  8
LAYER-1
 66
  1
 70
  0
 62
  7
 10
0.329060
 20
0.714479
 30
0.000000
  0
VERTEX
  8
LAYER-1
 10
0.329060
 20
0.714479
 30
0.000000
  0
VERTEX
  8
LAYER-1
 10
0.329060
 20
0.775378
 30
0.000000
  0
SEQEND
  8
LAYER-1
  0
POLYLINE
  8
LAYER-1
 66
  1
 70
  0
 62
  7
 10
0.329060
 20
0.714479
 30
0.000000
  0
VERTEX
  8
LAYER-1
 10
0.329060
 20
0.714479
 30
0.000000
  0
VERTEX
  8
LAYER-1
 10
0.331336
 20
0.706200
 30
0.000000
  0
VERTEX
  8
LAYER-1
 10
0.343550
 20
0.699988
 30
0.000000
  0
SEQEND
  8
LAYER-1
  0
POLYLINE
  8
LAYER-1
 66
  1
 70
  0
 62
  7
 10
0.343550
 20
0.699988
 30
0.000000
  0
VERTEX
  8
LAYER-1
 10
0.343550
 20
0.699988
 30
0.000000
  0
VERTEX
  8
LAYER-1
 10
0.358682
 20
0.699988
 30
0.000000
  0
SEQEND
  8
LAYER-1
  0
POLYLINE
  8
LAYER-1
 66
  1
 70
  0
 62
  7
 10
0.358682
 20
0.699988
 30
0.000000
  0
VERTEX
  8
LAYER-1
 10
0.358682
 20
0.699988
 30
0.000000
  0
VERTEX
  8
LAYER-1
 10
0.361832
 20
0.703138
 30
0.000000
  0
SEQEND
  8
LAYER-1
  0
POLYLINE
  8
LAYER-1
 66
  1
 70
  0
 62
  7
 10
0.361831
 20
0.703138
 30
0.000000
  0
VERTEX
  8
LAYER-1
 10
0.361831
 20
0.703138
 30
0.000000
  0
VERTEX
  8
LAYER-1
 10
0.361831
 20
0.713394
 30
0.000000
  0
SEQEND
  8
LAYER-1
  0
POLYLINE
  8
LAYER-1
 66
  1
 70
  0
 62
  7
 10
0.364981
 20
0.716544
 30
0.000000
  0
VERTEX
  8
LAYER-1
 10
0.364981
 20
0.716544
 30
0.000000
  0
VERTEX
  8
LAYER-1
 10
0.361831
 20
0.713394
 30
0.000000
  0
SEQEND
  8
LAYER-1
  0
POLYLINE
  8
LAYER-1
 66
  1
 70
  0
 62
  7
 10
0.364981
 20
0.716543
 30
0.000000
  0
VERTEX
  8
LAYER-1
 10
0.364981
 20
0.716543
 30
0.000000
  0
VERTEX
  8
LAYER-1
 10
0.379745
 20
0.716543
 30
0.000000
  0
SEQEND
  8
LAYER-1
  0
POLYLINE
  8
LAYER-1
 66
  1
 70
  0
 62
  7
 10
0.382895
 20
0.713394
 30
0.000000
  0
VERTEX
  8
LAYER-1
 10
0.382895
 20
0.713394
 30
0.000000
  0
VERTEX
  8
LAYER-1
 10
0.379745
 20
0.716544
 30
0.000000
  0
SEQEND
  8
LAYER-1
  0
POLYLINE
  8
LAYER-1
 66
  1
 70
  0
 62
  7
 10
0.382894
 20
0.713394
 30
0.000000
  0
VERTEX
  8
LAYER-1
 10
0.382894
 20
0.713394
 30
0.000000
  0
VERTEX
  8
LAYER-1
 10
0.382894
 20
0.703138
 30
0.000000
  0
SEQEND
  8
LAYER-1
  0
POLYLINE
  8
LAYER-1
 66
  1
 70
  0
 62
  7
 10
0.382895
 20
0.703138
 30
0.000000
  0
VERTEX
  8
LAYER-1
 10
0.382895
 20
0.703138
 30
0.000000
  0
VERTEX
  8
LAYER-1
 10
0.386045
 20
0.699988
 30
0.000000
  0
SEQEND
  8
LAYER-1
  0
POLYLINE
  8
LAYER-1
 66
  1
 70
  0
 62
  7
 10
0.386045
 20
0.699988
 30
0.000000
  0
VERTEX
  8
LAYER-1
 10
0.386045
 20
0.699988
 30
0.000000
  0
VERTEX
  8
LAYER-1
 10
0.397921
 20
0.699988
 30
0.000000
  0
SEQEND
  8
LAYER-1
  0
POLYLINE
  8
LAYER-1
 66
  1
 70
  0
 62
  7
 10
0.397921
 20
0.699988
 30
0.000000
  0
VERTEX
  8
LAYER-1
 10
0.397921
 20
0.699988
 30
0.000000
  0
VERTEX
  8
LAYER-1
 10
0.401071
 20
0.703138
 30
0.000000
  0
SEQEND
  8
LAYER-1
  0
POLYLINE
  8
LAYER-1
 66
  1
 70
  0
 62
  7
 10
0.401070
 20
0.703138
 30
0.000000
  0
VERTEX
  8
LAYER-1
 10
0.401070
 20
0.703138
 30
0.000000
  0
VERTEX
  8
LAYER-1
 10
0.401070
 20
0.713394
 30
0.000000
  0
SEQEND
  8
LAYER-1
  0
POLYLINE
  8
LAYER-1
 66
  1
 70
  0
 62
  7
 10
0.404221
 20
0.716544
 30
0.000000
  0
VERTEX
  8
LAYER-1
 10
0.404221
 20
0.716544
 30
0.000000
  0
VERTEX
  8
LAYER-1
 10
0.401071
 20
0.713394
 30
0.000000
  0
SEQEND
  8
LAYER-1
  0
POLYLINE
  8
LAYER-1
 66
  1
 70
  0
 62
  7
 10
0.404221
 20
0.716543
 30
0.000000
  0
VERTEX
  8
LAYER-1
 10
0.404221
 20
0.716543
 30
0.000000
  0
VERTEX
  8
LAYER-1
 10
0.406187
 20
0.716543
 30
0.000000
  0
SEQEND
  8
LAYER-1
  0
POLYLINE
  8
LAYER-1
 66
  1
 70
  0
 62
  7
 10
0.409337
 20
0.713394
 30
0.000000
  0
VERTEX
  8
LAYER-1
 10
0.409337
 20
0.713394
 30
0.000000
  0
VERTEX
  8
LAYER-1
 10
0.406187
 20
0.716544
 30
0.000000
  0
SEQEND
  8
LAYER-1
  0
POLYLINE
  8
LAYER-1
 66
  1
 70
  0
 62
  7
 10
0.409337
 20
0.713394
 30
0.000000
  0
VERTEX
  8
LAYER-1
 10
0.409337
 20
0.713394
 30
0.000000
  0
VERTEX
  8
LAYER-1
 10
0.409337
 20
0.699980
 30
0.000000
  0
SEQEND
  8
LAYER-1
  0
POLYLINE
  8
LAYER-1
 66
  1
 70
  0
 62
  7
 10
0.397787
 20
0.688430
 30
0.000000
  0
VERTEX
  8
LAYER-1
 10
0.397787
 20
0.688430
 30
0.000000
  0
VERTEX
  8
LAYER-1
 10
0.403986
 20
0.693781
 30
0.000000
  0
VERTEX
  8
LAYER-1
 10
0.409337
 20
0.699980
 30
0.000000
  0
SEQEND
  8
LAYER-1
  0
POLYLINE
  8
LAYER-1
 66
  1
 70
  0
 62
  7
 10
0.397787
 20
0.688428
 30
0.000000
  0
VERTEX
  8
LAYER-1
 10
0.397787
 20
0.688428
 30
0.000000
  0
VERTEX
  8
LAYER-1
 10
0.343615
 20
0.688428
 30
0.000000
  0
SEQEND
  8
LAYER-1
  0
POLYLINE
  8
LAYER-1
 66
  1
 70
  0
 62
  7
 10
0.317575
 20
0.714469
 30
0.000000
  0
VERTEX
  8
LAYER-1
 10
0.317575
 20
0.714469
 30
0.000000
  0
VERTEX
  8
LAYER-1
 10
0.323233
 20
0.698024
 30
0.000000
  0
VERTEX
  8
LAYER-1
 10
0.343615
 20
0.688428
 30
0.000000
  0
SEQEND
  8
LAYER-1
  0
POLYLINE
  8
LAYER-1
 66
  1
 70
  0
 62
  7
 10
0.638826
 20
1.249175
 30
0.000000
  0
VERTEX
  8
LAYER-1
 10
0.638826
 20
1.249175
 30
0.000000
  0
VERTEX
  8
LAYER-1
 10
0.337534
 20
1.249175
 30
0.000000
  0
SEQEND
  8
LAYER-1
  0
POLYLINE
  8
LAYER-1
 66
  1
 70
  0
 62
  7
 10
0.320705
 20
1.265929
 30
0.000000
  0
VERTEX
  8
LAYER-1
 10
0.320705
 20
1.265929
 30
0.000000
  0
VERTEX
  8
LAYER-1
 10
0.337534
 20
1.249175
 30
0.000000
  0
SEQEND
  8
LAYER-1
  0
POLYLINE
  8
LAYER-1
 66
  1
 70
  0
 62
  7
 10
0.485014
 20
1.265929
 30
0.000000
  0
VERTEX
  8
LAYER-1
 10
0.485014
 20
1.265929
 30
0.000000
  0
VERTEX
  8
LAYER-1
 10
0.320705
 20
1.265929
 30
0.000000
  0
SEQEND
  8
LAYER-1
  0
POLYLINE
  8
LAYER-1
 66
  1
 70
  0
 62
  7
 10
0.485014
 20
1.265929
 30
0.000000
  0
VERTEX
  8
LAYER-1
 10
0.485014
 20
1.265929
 30
0.000000
  0
VERTEX
  8
LAYER-1
 10
0.491314
 20
1.265929
 30
0.000000
  0
SEQEND
  8
LAYER-1
  0
POLYLINE
  8
LAYER-1
 66
  1
 70
  0
 62
  7
 10
0.491314
 20
1.265929
 30
0.000000
  0
VERTEX
  8
LAYER-1
 10
0.491314
 20
1.265929
 30
0.000000
  0
VERTEX
  8
LAYER-1
 10
0.655655
 20
1.265929
 30
0.000000
  0
SEQEND
  8
LAYER-1
  0
POLYLINE
  8
LAYER-1
 66
  1
 70
  0
 62
  7
 10
0.658805
 20
1.262777
 30
0.000000
  0
VERTEX
  8
LAYER-1
 10
0.658805
 20
1.262777
 30
0.000000
  0
VERTEX
  8
LAYER-1
 10
0.658805
 20
1.045445
 30
0.000000
  0
SEQEND
  8
LAYER-1
  0
POLYLINE
  8
LAYER-1
 66
  1
 70
  0
 62
  7
 10
0.658903
 20
0.813136
 30
0.000000
  0
VERTEX
  8
LAYER-1
 10
0.658903
 20
0.813136
 30
0.000000
  0
VERTEX
  8
LAYER-1
 10
0.658903
 20
0.714469
 30
0.000000
  0
SEQEND
  8
LAYER-1
  0
POLYLINE
  8
LAYER-1
 66
  1
 70
  0
 62
  7
 10
0.658922
 20
0.819437
 30
0.000000
  0
VERTEX
  8
LAYER-1
 10
0.658922
 20
0.819437
 30
0.000000
  0
VERTEX
  8
LAYER-1
 10
0.658902
 20
0.813137
 30
0.000000
  0
SEQEND
  8
LAYER-1
  0
POLYLINE
  8
LAYER-1
 66
  1
 70
  0
 62
  7
 10
0.658922
 20
0.819436
 30
0.000000
  0
VERTEX
  8
LAYER-1
 10
0.658922
 20
0.819436
 30
0.000000
  0
VERTEX
  8
LAYER-1
 10
0.658922
 20
1.039142
 30
0.000000
  0
SEQEND
  8
LAYER-1
  0
POLYLINE
  8
LAYER-1
 66
  1
 70
  0
 62
  7
 10
0.658922
 20
1.045443
 30
0.000000
  0
VERTEX
  8
LAYER-1
 10
0.658922
 20
1.045443
 30
0.000000
  0
VERTEX
  8
LAYER-1
 10
0.658922
 20
1.039144
 30
0.000000
  0
SEQEND
  8
LAYER-1
  0
POLYLINE
  8
LAYER-1
 66
  1
 70
  0
 62
  7
 10
0.658922
 20
1.045445
 30
0.000000
  0
VERTEX
  8
LAYER-1
 10
0.658922
 20
1.045445
 30
0.000000
  0
VERTEX
  8
LAYER-1
 10
0.658922
 20
1.262777
 30
0.000000
  0
SEQEND
  8
LAYER-1
  0
POLYLINE
  8
LAYER-1
 66
  1
 70
  0
 62
  7
 10
0.658922
 20
1.262777
 30
0.000000
  0
VERTEX
  8
LAYER-1
 10
0.658922
 20
1.262777
 30
0.000000
  0
VERTEX
  8
LAYER-1
 10
0.655772
 20
1.265927
 30
0.000000
  0
SEQEND
  8
LAYER-1
  0
POLYLINE
  8
LAYER-1
 66
  1
 70
  0
 62
  7
 10
0.638943
 20
1.249175
 30
0.000000
  0
VERTEX
  8
LAYER-1
 10
0.638943
 20
1.249175
 30
0.000000
  0
VERTEX
  8
LAYER-1
 10
0.655772
 20
1.265929
 30
0.000000
  0
SEQEND
  8
LAYER-1
  0
POLYLINE
  8
LAYER-1
 66
  1
 70
  0
 62
  7
 10
0.642093
 20
1.246024
 30
0.000000
  0
VERTEX
  8
LAYER-1
 10
0.642093
 20
1.246024
 30
0.000000
  0
VERTEX
  8
LAYER-1
 10
0.638943
 20
1.249174
 30
0.000000
  0
SEQEND
  8
LAYER-1
  0
POLYLINE
  8
LAYER-1
 66
  1
 70
  0
 62
  7
 10
0.642093
 20
1.236636
 30
0.000000
  0
VERTEX
  8
LAYER-1
 10
0.642093
 20
1.236636
 30
0.000000
  0
VERTEX
  8
LAYER-1
 10
0.642093
 20
1.246024
 30
0.000000
  0
SEQEND
  8
LAYER-1
  0
POLYLINE
  8
LAYER-1
 66
  1
 70
  0
 62
  7
 10
0.638943
 20
1.233486
 30
0.000000
  0
VERTEX
  8
LAYER-1
 10
0.638943
 20
1.233486
 30
0.000000
  0
VERTEX
  8
LAYER-1
 10
0.642093
 20
1.236636
 30
0.000000
  0
SEQEND
  8
LAYER-1
  0
POLYLINE
  8
LAYER-1
 66
  1
 70
  0
 62
  7
 10
0.622714
 20
1.233485
 30
0.000000
  0
VERTEX
  8
LAYER-1
 10
0.622714
 20
1.233485
 30
0.000000
  0
VERTEX
  8
LAYER-1
 10
0.638943
 20
1.233485
 30
0.000000
  0
SEQEND
  8
LAYER-1
  0
POLYLINE
  8
LAYER-1
 66
  1
 70
  0
 62
  7
 10
0.622714
 20
1.233484
 30
0.000000
  0
VERTEX
  8
LAYER-1
 10
0.622714
 20
1.233484
 30
0.000000
  0
VERTEX
  8
LAYER-1
 10
0.619564
 20
1.230333
 30
0.000000
  0
SEQEND
  8
LAYER-1
  0
POLYLINE
  8
LAYER-1
 66
  1
 70
  0
 62
  7
 10
0.619564
 20
1.215635
 30
0.000000
  0
VERTEX
  8
LAYER-1
 10
0.619564
 20
1.215635
 30
0.000000
  0
VERTEX
  8
LAYER-1
 10
0.619564
 20
1.230333
 30
0.000000
  0
SEQEND
  8
LAYER-1
  0
POLYLINE
  8
LAYER-1
 66
  1
 70
  0
 62
  7
 10
0.619564
 20
1.215635
 30
0.000000
  0
VERTEX
  8
LAYER-1
 10
0.619564
 20
1.215635
 30
0.000000
  0
VERTEX
  8
LAYER-1
 10
0.622714
 20
1.212486
 30
0.000000
  0
SEQEND
  8
LAYER-1
  0
POLYLINE
  8
LAYER-1
 66
  1
 70
  0
 62
  7
 10
0.638973
 20
1.212484
 30
0.000000
  0
VERTEX
  8
LAYER-1
 10
0.638973
 20
1.212484
 30
0.000000
  0
VERTEX
  8
LAYER-1
 10
0.622714
 20
1.212484
 30
0.000000
  0
SEQEND
  8
LAYER-1
  0
POLYLINE
  8
LAYER-1
 66
  1
 70
  0
 62
  7
 10
0.642123
 20
1.209334
 30
0.000000
  0
VERTEX
  8
LAYER-1
 10
0.642123
 20
1.209334
 30
0.000000
  0
VERTEX
  8
LAYER-1
 10
0.638973
 20
1.212483
 30
0.000000
  0
SEQEND
  8
LAYER-1
  0
POLYLINE
  8
LAYER-1
 66
  1
 70
  0
 62
  7
 10
0.642123
 20
1.199826
 30
0.000000
  0
VERTEX
  8
LAYER-1
 10
0.642123
 20
1.199826
 30
0.000000
  0
VERTEX
  8
LAYER-1
 10
0.642123
 20
1.209334
 30
0.000000
  0
SEQEND
  8
LAYER-1
  0
POLYLINE
  8
LAYER-1
 66
  1
 70
  0
 62
  7
 10
0.638973
 20
1.196676
 30
0.000000
  0
VERTEX
  8
LAYER-1
 10
0.638973
 20
1.196676
 30
0.000000
  0
VERTEX
  8
LAYER-1
 10
0.642123
 20
1.199826
 30
0.000000
  0
SEQEND
  8
LAYER-1
  0
POLYLINE
  8
LAYER-1
 66
  1
 70
  0
 62
  7
 10
0.593306
 20
1.196675
 30
0.000000
  0
VERTEX
  8
LAYER-1
 10
0.593306
 20
1.196675
 30
0.000000
  0
VERTEX
  8
LAYER-1
 10
0.638973
 20
1.196675
 30
0.000000
  0
SEQEND
  8
LAYER-1
  0
POLYLINE
  8
LAYER-1
 66
  1
 70
  0
 62
  7
 10
0.593306
 20
1.196674
 30
0.000000
  0
VERTEX
  8
LAYER-1
 10
0.593306
 20
1.196674
 30
0.000000
  0
VERTEX
  8
LAYER-1
 10
0.590156
 20
1.193525
 30
0.000000
  0
SEQEND
  8
LAYER-1
  0
POLYLINE
  8
LAYER-1
 66
  1
 70
  0
 62
  7
 10
0.590156
 20
1.183024
 30
0.000000
  0
VERTEX
  8
LAYER-1
 10
0.590156
 20
1.183024
 30
0.000000
  0
VERTEX
  8
LAYER-1
 10
0.590156
 20
1.193525
 30
0.000000
  0
SEQEND
  8
LAYER-1
  0
POLYLINE
  8
LAYER-1
 66
  1
 70
  0
 62
  7
 10
0.590156
 20
1.183024
 30
0.000000
  0
VERTEX
  8
LAYER-1
 10
0.590156
 20
1.183024
 30
0.000000
  0
VERTEX
  8
LAYER-1
 10
0.593306
 20
1.179875
 30
0.000000
  0
SEQEND
  8
LAYER-1
  0
POLYLINE
  8
LAYER-1
 66
  1
 70
  0
 62
  7
 10
0.638940
 20
1.179875
 30
0.000000
  0
VERTEX
  8
LAYER-1
 10
0.638940
 20
1.179875
 30
0.000000
  0
VERTEX
  8
LAYER-1
 10
0.593306
 20
1.179875
 30
0.000000
  0
SEQEND
  8
LAYER-1
  0
POLYLINE
  8
LAYER-1
 66
  1
 70
  0
 62
  7
 10
0.642090
 20
1.176725
 30
0.000000
  0
VERTEX
  8
LAYER-1
 10
0.642090
 20
1.176725
 30
0.000000
  0
VERTEX
  8
LAYER-1
 10
0.638940
 20
1.179875
 30
0.000000
  0
SEQEND
  8
LAYER-1
  0
POLYLINE
  8
LAYER-1
 66
  1
 70
  0
 62
  7
 10
0.642090
 20
1.136238
 30
0.000000
  0
VERTEX
  8
LAYER-1
 10
0.642090
 20
1.136238
 30
0.000000
  0
VERTEX
  8
LAYER-1
 10
0.642090
 20
1.176725
 30
0.000000
  0
SEQEND
  8
LAYER-1
  0
POLYLINE
  8
LAYER-1
 66
  1
 70
  0
 62
  7
 10
0.638940
 20
1.133088
 30
0.000000
  0
VERTEX
  8
LAYER-1
 10
0.638940
 20
1.133088
 30
0.000000
  0
VERTEX
  8
LAYER-1
 10
0.642090
 20
1.136238
 30
0.000000
  0
SEQEND
  8
LAYER-1
  0
POLYLINE
  8
LAYER-1
 66
  1
 70
  0
 62
  7
 10
0.638943
 20
1.106768
 30
0.000000
  0
VERTEX
  8
LAYER-1
 10
0.638943
 20
1.106768
 30
0.000000
  0
VERTEX
  8
LAYER-1
 10
0.638940
 20
1.133087
 30
0.000000
  0
SEQEND
  8
LAYER-1
  0
POLYLINE
  8
LAYER-1
 66
  1
 70
  0
 62
  7
 10
0.642093
 20
1.103619
 30
0.000000
  0
VERTEX
  8
LAYER-1
 10
0.642093
 20
1.103619
 30
0.000000
  0
VERTEX
  8
LAYER-1
 10
0.638943
 20
1.106769
 30
0.000000
  0
SEQEND
  8
LAYER-1
  0
POLYLINE
  8
LAYER-1
 66
  1
 70
  0
 62
  7
 10
0.642093
 20
1.103619
 30
0.000000
  0
VERTEX
  8
LAYER-1
 10
0.642093
 20
1.103619
 30
0.000000
  0
VERTEX
  8
LAYER-1
 10
0.642093
 20
1.093178
 30
0.000000
  0
SEQEND
  8
LAYER-1
  0
POLYLINE
  8
LAYER-1
 66
  1
 70
  0
 62
  7
 10
0.638943
 20
1.090029
 30
0.000000
  0
VERTEX
  8
LAYER-1
 10
0.638943
 20
1.090029
 30
0.000000
  0
VERTEX
  8
LAYER-1
 10
0.642093
 20
1.093178
 30
0.000000
  0
SEQEND
  8
LAYER-1
  0
POLYLINE
  8
LAYER-1
 66
  1
 70
  0
 62
  7
 10
0.622714
 20
1.090028
 30
0.000000
  0
VERTEX
  8
LAYER-1
 10
0.622714
 20
1.090028
 30
0.000000
  0
VERTEX
  8
LAYER-1
 10
0.638943
 20
1.090028
 30
0.000000
  0
SEQEND
  8
LAYER-1
  0
POLYLINE
  8
LAYER-1
 66
  1
 70
  0
 62
  7
 10
0.622714
 20
1.090029
 30
0.000000
  0
VERTEX
  8
LAYER-1
 10
0.622714
 20
1.090029
 30
0.000000
  0
VERTEX
  8
LAYER-1
 10
0.619564
 20
1.086880
 30
0.000000
  0
SEQEND
  8
LAYER-1
  0
POLYLINE
  8
LAYER-1
 66
  1
 70
  0
 62
  7
 10
0.619564
 20
1.086880
 30
0.000000
  0
VERTEX
  8
LAYER-1
 10
0.619564
 20
1.086880
 30
0.000000
  0
VERTEX
  8
LAYER-1
 10
0.619564
 20
1.072179
 30
0.000000
  0
SEQEND
  8
LAYER-1
  0
POLYLINE
  8
LAYER-1
 66
  1
 70
  0
 62
  7
 10
0.619564
 20
1.072179
 30
0.000000
  0
VERTEX
  8
LAYER-1
 10
0.619564
 20
1.072179
 30
0.000000
  0
VERTEX
  8
LAYER-1
 10
0.622714
 20
1.069029
 30
0.000000
  0
SEQEND
  8
LAYER-1
  0
POLYLINE
  8
LAYER-1
 66
  1
 70
  0
 62
  7
 10
0.638973
 20
1.069029
 30
0.000000
  0
VERTEX
  8
LAYER-1
 10
0.638973
 20
1.069029
 30
0.000000
  0
VERTEX
  8
LAYER-1
 10
0.622714
 20
1.069029
 30
0.000000
  0
SEQEND
  8
LAYER-1
  0
POLYLINE
  8
LAYER-1
 66
  1
 70
  0
 62
  7
 10
0.642123
 20
1.065879
 30
0.000000
  0
VERTEX
  8
LAYER-1
 10
0.642123
 20
1.065879
 30
0.000000
  0
VERTEX
  8
LAYER-1
 10
0.638973
 20
1.069029
 30
0.000000
  0
SEQEND
  8
LAYER-1
  0
POLYLINE
  8
LAYER-1
 66
  1
 70
  0
 62
  7
 10
0.642123
 20
1.055318
 30
0.000000
  0
VERTEX
  8
LAYER-1
 10
0.642123
 20
1.055318
 30
0.000000
  0
VERTEX
  8
LAYER-1
 10
0.642123
 20
1.065879
 30
0.000000
  0
SEQEND
  8
LAYER-1
  0
POLYLINE
  8
LAYER-1
 66
  1
 70
  0
 62
  7
 10
0.638973
 20
1.052168
 30
0.000000
  0
VERTEX
  8
LAYER-1
 10
0.638973
 20
1.052168
 30
0.000000
  0
VERTEX
  8
LAYER-1
 10
0.642123
 20
1.055318
 30
0.000000
  0
SEQEND
  8
LAYER-1
  0
POLYLINE
  8
LAYER-1
 66
  1
 70
  0
 62
  7
 10
0.593306
 20
1.052168
 30
0.000000
  0
VERTEX
  8
LAYER-1
 10
0.593306
 20
1.052168
 30
0.000000
  0
VERTEX
  8
LAYER-1
 10
0.638973
 20
1.052168
 30
0.000000
  0
SEQEND
  8
LAYER-1
  0
POLYLINE
  8
LAYER-1
 66
  1
 70
  0
 62
  7
 10
0.593306
 20
1.052170
 30
0.000000
  0
VERTEX
  8
LAYER-1
 10
0.593306
 20
1.052170
 30
0.000000
  0
VERTEX
  8
LAYER-1
 10
0.590156
 20
1.049020
 30
0.000000
  0
SEQEND
  8
LAYER-1
  0
POLYLINE
  8
LAYER-1
 66
  1
 70
  0
 62
  7
 10
0.590156
 20
1.049020
 30
0.000000
  0
VERTEX
  8
LAYER-1
 10
0.590156
 20
1.049020
 30
0.000000
  0
VERTEX
  8
LAYER-1
 10
0.590156
 20
1.035367
 30
0.000000
  0
SEQEND
  8
LAYER-1
  0
POLYLINE
  8
LAYER-1
 66
  1
 70
  0
 62
  7
 10
0.590156
 20
1.035367
 30
0.000000
  0
VERTEX
  8
LAYER-1
 10
0.590156
 20
1.035367
 30
0.000000
  0
VERTEX
  8
LAYER-1
 10
0.593306
 20
1.032218
 30
0.000000
  0
SEQEND
  8
LAYER-1
  0
POLYLINE
  8
LAYER-1
 66
  1
 70
  0
 62
  7
 10
0.593306
 20
1.032219
 30
0.000000
  0
VERTEX
  8
LAYER-1
 10
0.593306
 20
1.032219
 30
0.000000
  0
VERTEX
  8
LAYER-1
 10
0.635790
 20
1.032219
 30
0.000000
  0
SEQEND
  8
LAYER-1
  0
POLYLINE
  8
LAYER-1
 66
  1
 70
  0
 62
  7
 10
0.638940
 20
1.029069
 30
0.000000
  0
VERTEX
  8
LAYER-1
 10
0.638940
 20
1.029069
 30
0.000000
  0
VERTEX
  8
LAYER-1
 10
0.635790
 20
1.032220
 30
0.000000
  0
SEQEND
  8
LAYER-1
  0
POLYLINE
  8
LAYER-1
 66
  1
 70
  0
 62
  7
 10
0.638940
 20
1.029069
 30
0.000000
  0
VERTEX
  8
LAYER-1
 10
0.638940
 20
1.029069
 30
0.000000
  0
VERTEX
  8
LAYER-1
 10
0.638940
 20
0.793230
 30
0.000000
  0
SEQEND
  8
LAYER-1
  0
POLYLINE
  8
LAYER-1
 66
  1
 70
  0
 62
  7
 10
0.635790
 20
0.790080
 30
0.000000
  0
VERTEX
  8
LAYER-1
 10
0.635790
 20
0.790080
 30
0.000000
  0
VERTEX
  8
LAYER-1
 10
0.638940
 20
0.793230
 30
0.000000
  0
SEQEND
  8
LAYER-1
  0
POLYLINE
  8
LAYER-1
 66
  1
 70
  0
 62
  7
 10
0.578690
 20
0.790079
 30
0.000000
  0
VERTEX
  8
LAYER-1
 10
0.578690
 20
0.790079
 30
0.000000
  0
VERTEX
  8
LAYER-1
 10
0.635790
 20
0.790079
 30
0.000000
  0
SEQEND
  8
LAYER-1
  0
POLYLINE
  8
LAYER-1
 66
  1
 70
  0
 62
  7
 10
0.578690
 20
0.790079
 30
0.000000
  0
VERTEX
  8
LAYER-1
 10
0.578690
 20
0.790079
 30
0.000000
  0
VERTEX
  8
LAYER-1
 10
0.568554
 20
0.788665
 30
0.000000
  0
VERTEX
  8
LAYER-1
 10
0.567140
 20
0.778530
 30
0.000000
  0
SEQEND
  8
LAYER-1
  0
POLYLINE
  8
LAYER-1
 66
  1
 70
  0
 62
  7
 10
0.567140
 20
0.765156
 30
0.000000
  0
VERTEX
  8
LAYER-1
 10
0.567140
 20
0.765156
 30
0.000000
  0
VERTEX
  8
LAYER-1
 10
0.567140
 20
0.778530
 30
0.000000
  0
SEQEND
  8
LAYER-1
  0
POLYLINE
  8
LAYER-1
 66
  1
 70
  0
 62
  7
 10
0.567140
 20
0.765156
 30
0.000000
  0
VERTEX
  8
LAYER-1
 10
0.567140
 20
0.765156
 30
0.000000
  0
VERTEX
  8
LAYER-1
 10
0.570290
 20
0.762006
 30
0.000000
  0
SEQEND
  8
LAYER-1
  0
POLYLINE
  8
LAYER-1
 66
  1
 70
  0
 62
  7
 10
0.572256
 20
0.762003
 30
0.000000
  0
VERTEX
  8
LAYER-1
 10
0.572256
 20
0.762003
 30
0.000000
  0
VERTEX
  8
LAYER-1
 10
0.570290
 20
0.762003
 30
0.000000
  0
SEQEND
  8
LAYER-1
  0
POLYLINE
  8
LAYER-1
 66
  1
 70
  0
 62
  7
 10
0.572256
 20
0.762006
 30
0.000000
  0
VERTEX
  8
LAYER-1
 10
0.572256
 20
0.762006
 30
0.000000
  0
VERTEX
  8
LAYER-1
 10
0.575406
 20
0.765156
 30
0.000000
  0
SEQEND
  8
LAYER-1
  0
POLYLINE
  8
LAYER-1
 66
  1
 70
  0
 62
  7
 10
0.575406
 20
0.765156
 30
0.000000
  0
VERTEX
  8
LAYER-1
 10
0.575406
 20
0.765156
 30
0.000000
  0
VERTEX
  8
LAYER-1
 10
0.575406
 20
0.775378
 30
0.000000
  0
SEQEND
  8
LAYER-1
  0
POLYLINE
  8
LAYER-1
 66
  1
 70
  0
 62
  7
 10
0.578556
 20
0.778529
 30
0.000000
  0
VERTEX
  8
LAYER-1
 10
0.578556
 20
0.778529
 30
0.000000
  0
VERTEX
  8
LAYER-1
 10
0.575406
 20
0.775378
 30
0.000000
  0
SEQEND
  8
LAYER-1
  0
POLYLINE
  8
LAYER-1
 66
  1
 70
  0
 62
  7
 10
0.578556
 20
0.778528
 30
0.000000
  0
VERTEX
  8
LAYER-1
 10
0.578556
 20
0.778528
 30
0.000000
  0
VERTEX
  8
LAYER-1
 10
0.590433
 20
0.778528
 30
0.000000
  0
SEQEND
  8
LAYER-1
  0
POLYLINE
  8
LAYER-1
 66
  1
 70
  0
 62
  7
 10
0.593583
 20
0.775378
 30
0.000000
  0
VERTEX
  8
LAYER-1
 10
0.593583
 20
0.775378
 30
0.000000
  0
VERTEX
  8
LAYER-1
 10
0.590433
 20
0.778529
 30
0.000000
  0
SEQEND
  8
LAYER-1
  0
POLYLINE
  8
LAYER-1
 66
  1
 70
  0
 62
  7
 10
0.593583
 20
0.775378
 30
0.000000
  0
VERTEX
  8
LAYER-1
 10
0.593583
 20
0.775378
 30
0.000000
  0
VERTEX
  8
LAYER-1
 10
0.593583
 20
0.765134
 30
0.000000
  0
SEQEND
  8
LAYER-1
  0
POLYLINE
  8
LAYER-1
 66
  1
 70
  0
 62
  7
 10
0.593582
 20
0.765134
 30
0.000000
  0
VERTEX
  8
LAYER-1
 10
0.593582
 20
0.765134
 30
0.000000
  0
VERTEX
  8
LAYER-1
 10
0.596737
 20
0.761985
 30
0.000000
  0
SEQEND
  8
LAYER-1
  0
POLYLINE
  8
LAYER-1
 66
  1
 70
  0
 62
  7
 10
0.596736
 20
0.761984
 30
0.000000
  0
VERTEX
  8
LAYER-1
 10
0.596736
 20
0.761984
 30
0.000000
  0
VERTEX
  8
LAYER-1
 10
0.611500
 20
0.762003
 30
0.000000
  0
SEQEND
  8
LAYER-1
  0
POLYLINE
  8
LAYER-1
 66
  1
 70
  0
 62
  7
 10
0.611500
 20
0.762006
 30
0.000000
  0
VERTEX
  8
LAYER-1
 10
0.611500
 20
0.762006
 30
0.000000
  0
VERTEX
  8
LAYER-1
 10
0.614646
 20
0.765156
 30
0.000000
  0
SEQEND
  8
LAYER-1
  0
POLYLINE
  8
LAYER-1
 66
  1
 70
  0
 62
  7
 10
0.614646
 20
0.765156
 30
0.000000
  0
VERTEX
  8
LAYER-1
 10
0.614646
 20
0.765156
 30
0.000000
  0
VERTEX
  8
LAYER-1
 10
0.614646
 20
0.775378
 30
0.000000
  0
SEQEND
  8
LAYER-1
  0
POLYLINE
  8
LAYER-1
 66
  1
 70
  0
 62
  7
 10
0.617796
 20
0.778529
 30
0.000000
  0
VERTEX
  8
LAYER-1
 10
0.617796
 20
0.778529
 30
0.000000
  0
VERTEX
  8
LAYER-1
 10
0.614646
 20
0.775378
 30
0.000000
  0
SEQEND
  8
LAYER-1
  0
POLYLINE
  8
LAYER-1
 66
  1
 70
  0
 62
  7
 10
0.617796
 20
0.778528
 30
0.000000
  0
VERTEX
  8
LAYER-1
 10
0.617796
 20
0.778528
 30
0.000000
  0
VERTEX
  8
LAYER-1
 10
0.644267
 20
0.778528
 30
0.000000
  0
SEQEND
  8
LAYER-1
  0
POLYLINE
  8
LAYER-1
 66
  1
 70
  0
 62
  7
 10
0.647417
 20
0.775378
 30
0.000000
  0
VERTEX
  8
LAYER-1
 10
0.647417
 20
0.775378
 30
0.000000
  0
VERTEX
  8
LAYER-1
 10
0.644267
 20
0.778529
 30
0.000000
  0
SEQEND
  8
LAYER-1
  0
POLYLINE
  8
LAYER-1
 66
  1
 70
  0
 62
  7
 10
0.647417
 20
0.714479
 30
0.000000
  0
VERTEX
  8
LAYER-1
 10
0.647417
 20
0.714479
 30
0.000000
  0
VERTEX
  8
LAYER-1
 10
0.647417
 20
0.775378
 30
0.000000
  0
SEQEND
  8
LAYER-1
  0
POLYLINE
  8
LAYER-1
 66
  1
 70
  0
 62
  7
 10
0.632927
 20
0.699988
 30
0.000000
  0
VERTEX
  8
LAYER-1
 10
0.632927
 20
0.699988
 30
0.000000
  0
VERTEX
  8
LAYER-1
 10
0.641204
 20
0.706200
 30
0.000000
  0
VERTEX
  8
LAYER-1
 10
0.647417
 20
0.714479
 30
0.000000
  0
SEQEND
  8
LAYER-1
  0
POLYLINE
  8
LAYER-1
 66
  1
 70
  0
 62
  7
 10
0.632927
 20
0.699988
 30
0.000000
  0
VERTEX
  8
LAYER-1
 10
0.632927
 20
0.699988
 30
0.000000
  0
VERTEX
  8
LAYER-1
 10
0.617796
 20
0.699988
 30
0.000000
  0
SEQEND
  8
LAYER-1
  0
POLYLINE
  8
LAYER-1
 66
  1
 70
  0
 62
  7
 10
0.614646
 20
0.703138
 30
0.000000
  0
VERTEX
  8
LAYER-1
 10
0.614646
 20
0.703138
 30
0.000000
  0
VERTEX
  8
LAYER-1
 10
0.617796
 20
0.699988
 30
0.000000
  0
SEQEND
  8
LAYER-1
  0
POLYLINE
  8
LAYER-1
 66
  1
 70
  0
 62
  7
 10
0.614646
 20
0.703138
 30
0.000000
  0
VERTEX
  8
LAYER-1
 10
0.614646
 20
0.703138
 30
0.000000
  0
VERTEX
  8
LAYER-1
 10
0.614646
 20
0.713394
 30
0.000000
  0
SEQEND
  8
LAYER-1
  0
POLYLINE
  8
LAYER-1
 66
  1
 70
  0
 62
  7
 10
0.614646
 20
0.713394
 30
0.000000
  0
VERTEX
  8
LAYER-1
 10
0.614646
 20
0.713394
 30
0.000000
  0
VERTEX
  8
LAYER-1
 10
0.611495
 20
0.716544
 30
0.000000
  0
SEQEND
  8
LAYER-1
  0
POLYLINE
  8
LAYER-1
 66
  1
 70
  0
 62
  7
 10
0.611495
 20
0.716543
 30
0.000000
  0
VERTEX
  8
LAYER-1
 10
0.611495
 20
0.716543
 30
0.000000
  0
VERTEX
  8
LAYER-1
 10
0.596732
 20
0.716543
 30
0.000000
  0
SEQEND
  8
LAYER-1
  0
POLYLINE
  8
LAYER-1
 66
  1
 70
  0
 62
  7
 10
0.596732
 20
0.716544
 30
0.000000
  0
VERTEX
  8
LAYER-1
 10
0.596732
 20
0.716544
 30
0.000000
  0
VERTEX
  8
LAYER-1
 10
0.593582
 20
0.713394
 30
0.000000
  0
SEQEND
  8
LAYER-1
  0
POLYLINE
  8
LAYER-1
 66
  1
 70
  0
 62
  7
 10
0.593583
 20
0.713394
 30
0.000000
  0
VERTEX
  8
LAYER-1
 10
0.593583
 20
0.713394
 30
0.000000
  0
VERTEX
  8
LAYER-1
 10
0.593583
 20
0.703138
 30
0.000000
  0
SEQEND
  8
LAYER-1
  0
POLYLINE
  8
LAYER-1
 66
  1
 70
  0
 62
  7
 10
0.590433
 20
0.699988
 30
0.000000
  0
VERTEX
  8
LAYER-1
 10
0.590433
 20
0.699988
 30
0.000000
  0
VERTEX
  8
LAYER-1
 10
0.593583
 20
0.703138
 30
0.000000
  0
SEQEND
  8
LAYER-1
  0
POLYLINE
  8
LAYER-1
 66
  1
 70
  0
 62
  7
 10
0.590433
 20
0.699988
 30
0.000000
  0
VERTEX
  8
LAYER-1
 10
0.590433
 20
0.699988
 30
0.000000
  0
VERTEX
  8
LAYER-1
 10
0.578556
 20
0.699988
 30
0.000000
  0
SEQEND
  8
LAYER-1
  0
POLYLINE
  8
LAYER-1
 66
  1
 70
  0
 62
  7
 10
0.575406
 20
0.703138
 30
0.000000
  0
VERTEX
  8
LAYER-1
 10
0.575406
 20
0.703138
 30
0.000000
  0
VERTEX
  8
LAYER-1
 10
0.578556
 20
0.699988
 30
0.000000
  0
SEQEND
  8
LAYER-1
  0
POLYLINE
  8
LAYER-1
 66
  1
 70
  0
 62
  7
 10
0.575406
 20
0.703138
 30
0.000000
  0
VERTEX
  8
LAYER-1
 10
0.575406
 20
0.703138
 30
0.000000
  0
VERTEX
  8
LAYER-1
 10
0.575406
 20
0.713394
 30
0.000000
  0
SEQEND
  8
LAYER-1
  0
POLYLINE
  8
LAYER-1
 66
  1
 70
  0
 62
  7
 10
0.575406
 20
0.713394
 30
0.000000
  0
VERTEX
  8
LAYER-1
 10
0.575406
 20
0.713394
 30
0.000000
  0
VERTEX
  8
LAYER-1
 10
0.572256
 20
0.716544
 30
0.000000
  0
SEQEND
  8
LAYER-1
  0
POLYLINE
  8
LAYER-1
 66
  1
 70
  0
 62
  7
 10
0.572256
 20
0.716543
 30
0.000000
  0
VERTEX
  8
LAYER-1
 10
0.572256
 20
0.716543
 30
0.000000
  0
VERTEX
  8
LAYER-1
 10
0.570290
 20
0.716543
 30
0.000000
  0
SEQEND
  8
LAYER-1
  0
POLYLINE
  8
LAYER-1
 66
  1
 70
  0
 62
  7
 10
0.570290
 20
0.716544
 30
0.000000
  0
VERTEX
  8
LAYER-1
 10
0.570290
 20
0.716544
 30
0.000000
  0
VERTEX
  8
LAYER-1
 10
0.567140
 20
0.713394
 30
0.000000
  0
SEQEND
  8
LAYER-1
  0
POLYLINE
  8
LAYER-1
 66
  1
 70
  0
 62
  7
 10
0.567140
 20
0.713394
 30
0.000000
  0
VERTEX
  8
LAYER-1
 10
0.567140
 20
0.713394
 30
0.000000
  0
VERTEX
  8
LAYER-1
 10
0.567140
 20
0.699980
 30
0.000000
  0
SEQEND
  8
LAYER-1
  0
POLYLINE
  8
LAYER-1
 66
  1
 70
  0
 62
  7
 10
0.567140
 20
0.699980
 30
0.000000
  0
VERTEX
  8
LAYER-1
 10
0.567140
 20
0.699980
 30
0.000000
  0
VERTEX
  8
LAYER-1
 10
0.568554
 20
0.693781
 30
0.000000
  0
VERTEX
  8
LAYER-1
 10
0.578690
 20
0.688430
 30
0.000000
  0
SEQEND
  8
LAYER-1
  0
POLYLINE
  8
LAYER-1
 66
  1
 70
  0
 62
  7
 10
0.578690
 20
0.688428
 30
0.000000
  0
VERTEX
  8
LAYER-1
 10
0.578690
 20
0.688428
 30
0.000000
  0
VERTEX
  8
LAYER-1
 10
0.632862
 20
0.688428
 30
0.000000
  0
SEQEND
  8
LAYER-1
  0
POLYLINE
  8
LAYER-1
 66
  1
 70
  0
 62
  7
 10
0.632862
 20
0.688428
 30
0.000000
  0
VERTEX
  8
LAYER-1
 10
0.632862
 20
0.688428
 30
0.000000
  0
VERTEX
  8
LAYER-1
 10
0.649307
 20
0.698024
 30
0.000000
  0
VERTEX
  8
LAYER-1
 10
0.658902
 20
0.714469
 30
0.000000
  0
SEQEND
  8
LAYER-1
  0
POLYLINE
  8
LAYER-1
 66
  1
 70
  1
 62
  7
  0
VERTEX
  8
LAYER-1
 10
0.337534
 20
1.106768
 30
0.000000
  0
VERTEX
  8
LAYER-1
 10
0.337534
 20
1.133087
 30
0.000000
  0
VERTEX
  8
LAYER-1
 10
0.638940
 20
1.133087
 30
0.000000
  0
VERTEX
  8
LAYER-1
 10
0.638940
 20
1.106768
 30
0.000000
  0
SEQEND
  8
LAYER-1
  0
POLYLINE
  8
LAYER-1
 66
  1
 70
  0
 62
  7
 10
0.638943
 20
1.249175
 30
0.000000
  0
VERTEX
  8
LAYER-1
 10
0.638943
 20
1.249175
 30
0.000000
  0
VERTEX
  8
LAYER-1
 10
0.655772
 20
1.265929
 30
0.000000
  0
SEQEND
  8
LAYER-1
  0
POLYLINE
  8
LAYER-1
 66
  1
 70
  1
 62
  7
  0
VERTEX
  8
LAYER-1
 10
0.584441
 20
0.773107
 30
0.000000
  0
VERTEX
  8
LAYER-1
 10
0.587895
 20
0.773107
 30
0.000000
  0
VERTEX
  8
LAYER-1
 10
0.587895
 20
0.703105
 30
0.000000
  0
VERTEX
  8
LAYER-1
 10
0.584441
 20
0.703105
 30
0.000000
  0
SEQEND
  8
LAYER-1
  0
POLYLINE
  8
LAYER-1
 66
  1
 70
  0
 62
  7
 10
0.584441
 20
0.740030
 30
0.000000
  0
VERTEX
  8
LAYER-1
 10
0.584441
 20
0.740030
 30
0.000000
  0
VERTEX
  8
LAYER-1
 10
0.545066
 20
0.740030
 30
0.000000
  0
SEQEND
  8
LAYER-1
  0
POLYLINE
  8
LAYER-1
 66
  1
 70
  0
 62
  7
 10
0.584441
 20
0.740030
 30
0.000000
  0
VERTEX
  8
LAYER-1
 10
0.584441
 20
0.740030
 30
0.000000
  0
VERTEX
  8
LAYER-1
 10
0.545855
 20
0.736093
 30
0.000000
  0
SEQEND
  8
LAYER-1
  0
POLYLINE
  8
LAYER-1
 66
  1
 70
  0
 62
  7
 10
0.584441
 20
0.740030
 30
0.000000
  0
VERTEX
  8
LAYER-1
 10
0.584441
 20
0.740030
 30
0.000000
  0
VERTEX
  8
LAYER-1
 10
0.546641
 20
0.730580
 30
0.000000
  0
SEQEND
  8
LAYER-1
  0
POLYLINE
  8
LAYER-1
 66
  1
 70
  0
 62
  7
 10
0.584441
 20
0.740030
 30
0.000000
  0
VERTEX
  8
LAYER-1
 10
0.584441
 20
0.740030
 30
0.000000
  0
VERTEX
  8
LAYER-1
 10
0.545855
 20
0.744755
 30
0.000000
  0
SEQEND
  8
LAYER-1
  0
POLYLINE
  8
LAYER-1
 66
  1
 70
  0
 62
  7
 10
0.584441
 20
0.740030
 30
0.000000
  0
VERTEX
  8
LAYER-1
 10
0.584441
 20
0.740030
 30
0.000000
  0
VERTEX
  8
LAYER-1
 10
0.545855
 20
0.750269
 30
0.000000
  0
SEQEND
  8
LAYER-1
  0
POLYLINE
  8
LAYER-1
 66
  1
 70
  0
 62
  7
 10
0.584999
 20
0.725090
 30
0.000000
  0
VERTEX
  8
LAYER-1
 10
0.584999
 20
0.725090
 30
0.000000
  0
VERTEX
  8
LAYER-1
 10
0.545626
 20
0.725090
 30
0.000000
  0
SEQEND
  8
LAYER-1
  0
POLYLINE
  8
LAYER-1
 66
  1
 70
  0
 62
  7
 10
0.584999
 20
0.725090
 30
0.000000
  0
VERTEX
  8
LAYER-1
 10
0.584999
 20
0.725090
 30
0.000000
  0
VERTEX
  8
LAYER-1
 10
0.546413
 20
0.721153
 30
0.000000
  0
SEQEND
  8
LAYER-1
  0
POLYLINE
  8
LAYER-1
 66
  1
 70
  0
 62
  7
 10
0.584999
 20
0.725090
 30
0.000000
  0
VERTEX
  8
LAYER-1
 10
0.584999
 20
0.725090
 30
0.000000
  0
VERTEX
  8
LAYER-1
 10
0.547200
 20
0.715639
 30
0.000000
  0
SEQEND
  8
LAYER-1
  0
POLYLINE
  8
LAYER-1
 66
  1
 70
  0
 62
  7
 10
0.584999
 20
0.725090
 30
0.000000
  0
VERTEX
  8
LAYER-1
 10
0.584999
 20
0.725090
 30
0.000000
  0
VERTEX
  8
LAYER-1
 10
0.546413
 20
0.729815
 30
0.000000
  0
SEQEND
  8
LAYER-1
  0
POLYLINE
  8
LAYER-1
 66
  1
 70
  0
 62
  7
 10
0.584999
 20
0.725090
 30
0.000000
  0
VERTEX
  8
LAYER-1
 10
0.584999
 20
0.725090
 30
0.000000
  0
VERTEX
  8
LAYER-1
 10
0.546413
 20
0.735326
 30
0.000000
  0
SEQEND
  8
LAYER-1
  0
POLYLINE
  8
LAYER-1
 66
  1
 70
  0
 62
  7
 10
0.584999
 20
0.754489
 30
0.000000
  0
VERTEX
  8
LAYER-1
 10
0.584999
 20
0.754489
 30
0.000000
  0
VERTEX
  8
LAYER-1
 10
0.545626
 20
0.754489
 30
0.000000
  0
SEQEND
  8
LAYER-1
  0
POLYLINE
  8
LAYER-1
 66
  1
 70
  0
 62
  7
 10
0.584999
 20
0.754489
 30
0.000000
  0
VERTEX
  8
LAYER-1
 10
0.584999
 20
0.754489
 30
0.000000
  0
VERTEX
  8
LAYER-1
 10
0.546413
 20
0.750549
 30
0.000000
  0
SEQEND
  8
LAYER-1
  0
POLYLINE
  8
LAYER-1
 66
  1
 70
  0
 62
  7
 10
0.584999
 20
0.754489
 30
0.000000
  0
VERTEX
  8
LAYER-1
 10
0.584999
 20
0.754489
 30
0.000000
  0
VERTEX
  8
LAYER-1
 10
0.547200
 20
0.745040
 30
0.000000
  0
SEQEND
  8
LAYER-1
  0
POLYLINE
  8
LAYER-1
 66
  1
 70
  0
 62
  7
 10
0.584999
 20
0.754489
 30
0.000000
  0
VERTEX
  8
LAYER-1
 10
0.584999
 20
0.754489
 30
0.000000
  0
VERTEX
  8
LAYER-1
 10
0.546413
 20
0.759214
 30
0.000000
  0
SEQEND
  8
LAYER-1
  0
POLYLINE
  8
LAYER-1
 66
  1
 70
  0
 62
  7
 10
0.584999
 20
0.754489
 30
0.000000
  0
VERTEX
  8
LAYER-1
 10
0.584999
 20
0.754489
 30
0.000000
  0
VERTEX
  8
LAYER-1
 10
0.546413
 20
0.764725
 30
0.000000
  0
SEQEND
  8
LAYER-1
  0
POLYLINE
  8
LAYER-1
 66
  1
 70
  1
 62
  7
  0
VERTEX
  8
LAYER-1
 10
0.388811
 20
0.773107
 30
0.000000
  0
VERTEX
  8
LAYER-1
 10
0.392266
 20
0.773107
 30
0.000000
  0
VERTEX
  8
LAYER-1
 10
0.392266
 20
0.703105
 30
0.000000
  0
VERTEX
  8
LAYER-1
 10
0.388811
 20
0.703105
 30
0.000000
  0
SEQEND
  8
LAYER-1
  0
POLYLINE
  8
LAYER-1
 66
  1
 70
  0
 62
  7
 10
0.392266
 20
0.740030
 30
0.000000
  0
VERTEX
  8
LAYER-1
 10
0.392266
 20
0.740030
 30
0.000000
  0
VERTEX
  8
LAYER-1
 10
0.431640
 20
0.740030
 30
0.000000
  0
SEQEND
  8
LAYER-1
  0
POLYLINE
  8
LAYER-1
 66
  1
 70
  0
 62
  7
 10
0.392266
 20
0.740030
 30
0.000000
  0
VERTEX
  8
LAYER-1
 10
0.392266
 20
0.740030
 30
0.000000
  0
VERTEX
  8
LAYER-1
 10
0.430851
 20
0.736093
 30
0.000000
  0
SEQEND
  8
LAYER-1
  0
POLYLINE
  8
LAYER-1
 66
  1
 70
  0
 62
  7
 10
0.392266
 20
0.740030
 30
0.000000
  0
VERTEX
  8
LAYER-1
 10
0.392266
 20
0.740030
 30
0.000000
  0
VERTEX
  8
LAYER-1
 10
0.430066
 20
0.730580
 30
0.000000
  0
SEQEND
  8
LAYER-1
  0
POLYLINE
  8
LAYER-1
 66
  1
 70
  0
 62
  7
 10
0.392266
 20
0.740030
 30
0.000000
  0
VERTEX
  8
LAYER-1
 10
0.392266
 20
0.740030
 30
0.000000
  0
VERTEX
  8
LAYER-1
 10
0.430851
 20
0.744755
 30
0.000000
  0
SEQEND
  8
LAYER-1
  0
POLYLINE
  8
LAYER-1
 66
  1
 70
  0
 62
  7
 10
0.392266
 20
0.740030
 30
0.000000
  0
VERTEX
  8
LAYER-1
 10
0.392266
 20
0.740030
 30
0.000000
  0
VERTEX
  8
LAYER-1
 10
0.430851
 20
0.750269
 30
0.000000
  0
SEQEND
  8
LAYER-1
  0
POLYLINE
  8
LAYER-1
 66
  1
 70
  0
 62
  7
 10
0.391708
 20
0.725090
 30
0.000000
  0
VERTEX
  8
LAYER-1
 10
0.391708
 20
0.725090
 30
0.000000
  0
VERTEX
  8
LAYER-1
 10
0.431081
 20
0.725090
 30
0.000000
  0
SEQEND
  8
LAYER-1
  0
POLYLINE
  8
LAYER-1
 66
  1
 70
  0
 62
  7
 10
0.391708
 20
0.725090
 30
0.000000
  0
VERTEX
  8
LAYER-1
 10
0.391708
 20
0.725090
 30
0.000000
  0
VERTEX
  8
LAYER-1
 10
0.430294
 20
0.721153
 30
0.000000
  0
SEQEND
  8
LAYER-1
  0
POLYLINE
  8
LAYER-1
 66
  1
 70
  0
 62
  7
 10
0.391708
 20
0.725090
 30
0.000000
  0
VERTEX
  8
LAYER-1
 10
0.391708
 20
0.725090
 30
0.000000
  0
VERTEX
  8
LAYER-1
 10
0.429507
 20
0.715639
 30
0.000000
  0
SEQEND
  8
LAYER-1
  0
POLYLINE
  8
LAYER-1
 66
  1
 70
  0
 62
  7
 10
0.391708
 20
0.725090
 30
0.000000
  0
VERTEX
  8
LAYER-1
 10
0.391708
 20
0.725090
 30
0.000000
  0
VERTEX
  8
LAYER-1
 10
0.430294
 20
0.729815
 30
0.000000
  0
SEQEND
  8
LAYER-1
  0
POLYLINE
  8
LAYER-1
 66
  1
 70
  0
 62
  7
 10
0.391708
 20
0.725090
 30
0.000000
  0
VERTEX
  8
LAYER-1
 10
0.391708
 20
0.725090
 30
0.000000
  0
VERTEX
  8
LAYER-1
 10
0.430294
 20
0.735326
 30
0.000000
  0
SEQEND
  8
LAYER-1
  0
POLYLINE
  8
LAYER-1
 66
  1
 70
  0
 62
  7
 10
0.391708
 20
0.754489
 30
0.000000
  0
VERTEX
  8
LAYER-1
 10
0.391708
 20
0.754489
 30
0.000000
  0
VERTEX
  8
LAYER-1
 10
0.431080
 20
0.754489
 30
0.000000
  0
SEQEND
  8
LAYER-1
  0
POLYLINE
  8
LAYER-1
 66
  1
 70
  0
 62
  7
 10
0.391708
 20
0.754489
 30
0.000000
  0
VERTEX
  8
LAYER-1
 10
0.391708
 20
0.754489
 30
0.000000
  0
VERTEX
  8
LAYER-1
 10
0.430294
 20
0.750549
 30
0.000000
  0
SEQEND
  8
LAYER-1
  0
POLYLINE
  8
LAYER-1
 66
  1
 70
  0
 62
  7
 10
0.391708
 20
0.754489
 30
0.000000
  0
VERTEX
  8
LAYER-1
 10
0.391708
 20
0.754489
 30
0.000000
  0
VERTEX
  8
LAYER-1
 10
0.429507
 20
0.745040
 30
0.000000
  0
SEQEND
  8
LAYER-1
  0
POLYLINE
  8
LAYER-1
 66
  1
 70
  0
 62
  7
 10
0.391708
 20
0.754489
 30
0.000000
  0
VERTEX
  8
LAYER-1
 10
0.391708
 20
0.754489
 30
0.000000
  0
VERTEX
  8
LAYER-1
 10
0.430294
 20
0.759214
 30
0.000000
  0
SEQEND
  8
LAYER-1
  0
POLYLINE
  8
LAYER-1
 66
  1
 70
  0
 62
  7
 10
0.391708
 20
0.754489
 30
0.000000
  0
VERTEX
  8
LAYER-1
 10
0.391708
 20
0.754489
 30
0.000000
  0
VERTEX
  8
LAYER-1
 10
0.430294
 20
0.764725
 30
0.000000
  0
SEQEND
  8
LAYER-1
  0
ENDSEC
  0
EOF
