  0
SECTION
  2
HEADER
999
MacDraft 5.0\0
  9
$ACADVER
  1
AC1006
  9
$CLAYER
  8
LAYER-2
  9
$EXTMIN
 10
0.000000
 20
0.000000
  9
$EXTMAX
 10
7.548716
 20
13.796660
  9
$FASTZOOM
 70
0
  9
$FILLMODE
 70
1
  0
ENDSEC
  0
SECTION
  2
TABLES
  0
TABLE
  2
LTYPE
 70
16
  0
LTYPE
  2
CONTINUOUS
 70
64
  3
Solid Line
 72
65
 73
0
 40
0.000000
  0
LTYPE
  2
LTYPE01
 70
64
  3
CUSTOM
 72
65
 73
2
 40
0.111111
 49
0.083333
 49
-0.027778
  0
LTYPE
  2
LTYPE02
 70
64
  3
CUSTOM
 72
65
 73
2
 40
0.194444
 49
0.166667
 49
-0.027778
  0
LTYPE
  2
LTYPE03
 70
64
  3
CUSTOM
 72
65
 73
2
 40
0.375000
 49
0.333333
 49
-0.041667
  0
LTYPE
  2
LTYPE04
 70
64
  3
CUSTOM
 72
65
 73
2
 40
0.722222
 49
0.666667
 49
-0.055556
  0
LTYPE
  2
LTYPE05
 70
64
  3
CUSTOM
 72
65
 73
4
 40
0.152778
 49
0.083333
 49
-0.027778
 49
0.013889
 49
-0.027778
  0
LTYPE
  2
LTYPE06
 70
64
  3
CUSTOM
 72
65
 73
4
 40
0.236111
 49
0.166667
 49
-0.027778
 49
0.013889
 49
-0.027778
  0
LTYPE
  2
LTYPE07
 70
64
  3
CUSTOM
 72
65
 73
4
 40
0.444444
 49
0.333333
 49
-0.041667
 49
0.027778
 49
-0.041667
  0
LTYPE
  2
LTYPE08
 70
64
  3
CUSTOM
 72
65
 73
4
 40
0.805556
 49
0.666667
 49
-0.055556
 49
0.027778
 49
-0.055556
  0
LTYPE
  2
LTYPE09
 70
64
  3
CUSTOM
 72
65
 73
6
 40
0.194444
 49
0.083333
 49
-0.027778
 49
0.013889
 49
-0.027778
 49
0.013889
 49
-0.027778
  0
LTYPE
  2
LTYPE10
 70
64
  3
CUSTOM
 72
65
 73
6
 40
0.277778
 49
0.166667
 49
-0.027778
 49
0.013889
 49
-0.027778
 49
0.013889
 49
-0.027778
  0
LTYPE
  2
LTYPE11
 70
64
  3
CUSTOM
 72
65
 73
6
 40
0.500000
 49
0.333333
 49
-0.041667
 49
0.027778
 49
-0.027778
 49
0.027778
 49
-0.041667
  0
LTYPE
  2
LTYPE12
 70
64
  3
CUSTOM
 72
65
 73
6
 40
0.861111
 49
0.666667
 49
-0.055556
 49
0.027778
 49
-0.027778
 49
0.027778
 49
-0.055556
  0
LTYPE
  2
LTYPE13
 70
64
  3
CUSTOM
 72
65
 73
8
 40
0.319444
 49
0.166667
 49
-0.027778
 49
0.013889
 49
-0.027778
 49
0.013889
 49
-0.027778
 49
0.013889
 49
-0.027778
  0
LTYPE
  2
LTYPE14
 70
64
  3
CUSTOM
 72
65
 73
8
 40
0.555556
 49
0.333333
 49
-0.041667
 49
0.027778
 49
-0.027778
 49
0.027778
 49
-0.027778
 49
0.027778
 49
-0.041667
  0
LTYPE
  2
LTYPE15
 70
64
  3
CUSTOM
 72
65
 73
8
 40
0.944444
 49
0.666667
 49
-0.055556
 49
0.027778
 49
-0.041667
 49
0.027778
 49
-0.041667
 49
0.027778
 49
-0.055556
  0
ENDTAB
  0
TABLE
  2
LAYER
 70
1
  0
LAYER
  2
LAYER-2
 70
0
 62
7
  6
CONTINUOUS
  0
ENDTAB
  0
ENDSEC
  0
SECTION
  2
BLOCKS
  0
ENDSEC
  0
SECTION
  2
ENTITIES
  0
POLYLINE
  8
LAYER-2
 66
  1
 70
  0
 62
  0
 10
10.209055
 20
21.635568
 30
0.000000
  0
VERTEX
  8
LAYER-2
 10
10.209055
 20
21.635568
 30
0.000000
  0
VERTEX
  8
LAYER-2
 10
11.169045
 20
21.893126
 30
0.000000
  0
SEQEND
  8
LAYER-2
  0
ARC
  8
LAYER-2
 62
  0
 10
10.228657
 20
21.603639
 30
0.000000
 40
0.037466
 50
121.547974
 51
283.694336
  0
POLYLINE
  8
LAYER-2
 66
  1
 70
  0
 62
  0
 10
11.194726
 20
21.823719
 30
0.000000
  0
VERTEX
  8
LAYER-2
 10
11.194726
 20
21.823719
 30
0.000000
  0
VERTEX
  8
LAYER-2
 10
10.237527
 20
21.567239
 30
0.000000
  0
SEQEND
  8
LAYER-2
  0
POLYLINE
  8
LAYER-2
 66
  1
 70
  0
 62
  0
 10
11.194624
 20
21.823775
 30
0.000000
  0
VERTEX
  8
LAYER-2
 10
11.194624
 20
21.823775
 30
0.000000
  0
VERTEX
  8
LAYER-2
 10
11.198091
 20
21.861706
 30
0.000000
  0
VERTEX
  8
LAYER-2
 10
11.176506
 20
21.890979
 30
0.000000
  0
VERTEX
  8
LAYER-2
 10
11.169120
 20
21.893346
 30
0.000000
  0
SEQEND
  8
LAYER-2
  0
POLYLINE
  8
LAYER-2
 66
  1
 70
  1
 62
  7
 10
7.783775
 20
12.900438
 30
0.000000
  0
VERTEX
  8
LAYER-2
 10
7.783775
 20
12.900438
 30
0.000000
  0
VERTEX
  8
LAYER-2
 10
7.928331
 20
12.551451
 30
0.000000
  0
VERTEX
  8
LAYER-2
 10
10.507100
 20
13.555946
 30
0.000000
  0
VERTEX
  8
LAYER-2
 10
10.367198
 20
13.915126
 30
0.000000
  0
SEQEND
  8
LAYER-2
  0
POLYLINE
  8
LAYER-2
  6
LTYPE01
 66
  1
 70
  0
 62
  0
  6
LTYPE01
 10
10.367198
 20
13.915126
 30
0.000000
  0
VERTEX
  8
LAYER-2
  6
LTYPE01
 10
10.367198
 20
13.915126
 30
0.000000
  0
VERTEX
  8
LAYER-2
  6
LTYPE01
 10
7.788115
 20
12.902174
 30
0.000000
  0
SEQEND
  8
LAYER-2
  0
POLYLINE
  8
LAYER-2
  6
LTYPE01
 66
  1
 70
  0
 62
  0
  6
LTYPE01
 10
7.788115
 20
12.902174
 30
0.000000
  0
VERTEX
  8
LAYER-2
  6
LTYPE01
 10
7.788115
 20
12.902174
 30
0.000000
  0
VERTEX
  8
LAYER-2
  6
LTYPE01
 10
7.932671
 20
12.553187
 30
0.000000
  0
SEQEND
  8
LAYER-2
  0
POLYLINE
  8
LAYER-2
  6
LTYPE01
 66
  1
 70
  0
 62
  0
  6
LTYPE01
 10
7.932671
 20
12.553187
 30
0.000000
  0
VERTEX
  8
LAYER-2
  6
LTYPE01
 10
7.932671
 20
12.553187
 30
0.000000
  0
VERTEX
  8
LAYER-2
  6
LTYPE01
 10
10.507100
 20
13.555946
 30
0.000000
  0
SEQEND
  8
LAYER-2
  0
TEXT
  8
LAYER-2
 62
  0
 10
11.111112
 20
13.868376
 30
0.000000
 40
0.250000
  1
45  or 90  curve
 72
  5
 11
13.555556
 21
13.868376
 31
0.000000
  0
TEXT
  8
LAYER-2
 62
  0
 10
2.916667
 20
13.896154
 30
0.000000
 40
0.250000
  1
Angolo desiderato
 72
  5
 11
5.833334
 21
13.896154
 31
0.000000
  0
TEXT
  8
LAYER-2
 62
  0
 10
11.083334
 20
13.118376
 30
0.000000
 40
0.250000
  1
Guida diritto
 72
  5
 11
13.055556
 21
13.118376
 31
0.000000
  0
CIRCLE
  8
LAYER-2
 62
  0
 10
7.784050
 20
12.906226
 30
0.000000
 40
0.107314
  0
CIRCLE
  8
LAYER-2
 62
  0
 10
7.938374
 20
12.554882
 30
0.000000
 40
0.107314
  0
TEXT
  8
LAYER-2
 62
  0
 10
8.638890
 20
11.757265
 30
0.000000
 40
0.250000
  1
Macare il taglio qui
 72
  5
 11
11.611112
 21
11.757265
 31
0.000000
  0
POLYLINE
  8
LAYER-2
  6
LTYPE05
 66
  1
 70
  0
 62
  0
  6
LTYPE05
 10
4.020832
 20
12.267554
 30
0.000000
  0
VERTEX
  8
LAYER-2
  6
LTYPE05
 10
4.020832
 20
12.267554
 30
0.000000
  0
VERTEX
  8
LAYER-2
  6
LTYPE05
 10
11.055561
 20
12.267554
 30
0.000000
  0
SEQEND
  8
LAYER-2
  0
POLYLINE
  8
LAYER-2
  6
LTYPE05
 66
  1
 70
  0
 62
  0
  6
LTYPE05
 10
4.013888
 20
11.024501
 30
0.000000
  0
VERTEX
  8
LAYER-2
  6
LTYPE05
 10
4.013888
 20
11.024501
 30
0.000000
  0
VERTEX
  8
LAYER-2
  6
LTYPE05
 10
7.928331
 20
12.551451
 30
0.000000
  0
SEQEND
  8
LAYER-2
  0
TEXT
  8
LAYER-2
 62
  0
 10
2.305556
 20
12.812820
 30
0.000000
 40
0.250000
  1
asse #1
 72
  5
 11
3.722223
 21
12.812820
 31
0.000000
  0
TEXT
  8
LAYER-2
 62
  0
 10
2.305556
 20
11.590598
 30
0.000000
 40
0.250000
  1
asse #2
 72
  5
 11
3.722223
 21
11.590598
 31
0.000000
  0
ARC
  8
LAYER-2
 62
  0
  6
LTYPE05
 10
7.215282
 20
12.639084
 30
0.000000
 40
1.616180
 50
22.713783
 51
179.687988
  0
POLYLINE
  8
LAYER-2
 66
  1
 70
  0
 62
  0
 10
10.944447
 20
14.090600
 30
0.000000
  0
VERTEX
  8
LAYER-2
 10
10.944447
 20
14.090600
 30
0.000000
  0
VERTEX
  8
LAYER-2
 10
10.207470
 20
14.407332
 30
0.000000
  0
SEQEND
  8
LAYER-2
  0
POLYLINE
  8
LAYER-2
 66
  1
 70
  1
 62
  0
  0
VERTEX
  8
LAYER-2
 10
10.189384
 20
14.415105
 30
0.000000
  0
VERTEX
  8
LAYER-2
 10
10.349893
 20
14.436829
 30
0.000000
  0
VERTEX
  8
LAYER-2
 10
10.316989
 20
14.360267
 30
0.000000
  0
VERTEX
  8
LAYER-2
 10
10.284085
 20
14.283703
 30
0.000000
  0
VERTEX
  8
LAYER-2
 10
10.189384
 20
14.415105
 30
0.000000
  0
SEQEND
  8
LAYER-2
  0
POLYLINE
  8
LAYER-2
 66
  1
 70
  0
 62
  0
 10
5.618055
 20
14.045334
 30
0.000000
  0
VERTEX
  8
LAYER-2
 10
5.618055
 20
14.045334
 30
0.000000
  0
VERTEX
  8
LAYER-2
 10
6.018469
 20
13.771717
 30
0.000000
  0
SEQEND
  8
LAYER-2
  0
POLYLINE
  8
LAYER-2
 66
  1
 70
  1
 62
  0
  0
VERTEX
  8
LAYER-2
 10
6.034722
 20
13.760610
 30
0.000000
  0
VERTEX
  8
LAYER-2
 10
5.873033
 20
13.770165
 30
0.000000
  0
VERTEX
  8
LAYER-2
 10
5.920049
 20
13.838969
 30
0.000000
  0
VERTEX
  8
LAYER-2
 10
5.967065
 20
13.907772
 30
0.000000
  0
VERTEX
  8
LAYER-2
 10
6.034722
 20
13.760610
 30
0.000000
  0
SEQEND
  8
LAYER-2
  0
POLYLINE
  8
LAYER-2
 66
  1
 70
  0
 62
  0
 10
10.958340
 20
13.305873
 30
0.000000
  0
VERTEX
  8
LAYER-2
 10
10.958340
 20
13.305873
 30
0.000000
  0
VERTEX
  8
LAYER-2
 10
10.393682
 20
13.494095
 30
0.000000
  0
SEQEND
  8
LAYER-2
  0
POLYLINE
  8
LAYER-2
 66
  1
 70
  1
 62
  0
  0
VERTEX
  8
LAYER-2
 10
10.375007
 20
13.500320
 30
0.000000
  0
VERTEX
  8
LAYER-2
 10
10.533122
 20
13.535456
 30
0.000000
  0
VERTEX
  8
LAYER-2
 10
10.506768
 20
13.456399
 30
0.000000
  0
VERTEX
  8
LAYER-2
 10
10.480414
 20
13.377341
 30
0.000000
  0
VERTEX
  8
LAYER-2
 10
10.375007
 20
13.500320
 30
0.000000
  0
SEQEND
  8
LAYER-2
  0
POLYLINE
  8
LAYER-2
 66
  1
 70
  0
 62
  0
 10
8.520839
 20
11.927277
 30
0.000000
  0
VERTEX
  8
LAYER-2
 10
8.520839
 20
11.927277
 30
0.000000
  0
VERTEX
  8
LAYER-2
 10
8.013742
 20
12.447898
 30
0.000000
  0
SEQEND
  8
LAYER-2
  0
POLYLINE
  8
LAYER-2
 66
  1
 70
  1
 62
  0
  0
VERTEX
  8
LAYER-2
 10
8.000007
 20
12.462001
 30
0.000000
  0
VERTEX
  8
LAYER-2
 10
8.156611
 20
12.420653
 30
0.000000
  0
VERTEX
  8
LAYER-2
 10
8.096915
 20
12.362508
 30
0.000000
  0
VERTEX
  8
LAYER-2
 10
8.037220
 20
12.304364
 30
0.000000
  0
VERTEX
  8
LAYER-2
 10
8.000007
 20
12.462001
 30
0.000000
  0
SEQEND
  8
LAYER-2
  0
POLYLINE
  8
LAYER-2
 66
  1
 70
  0
 62
  0
 10
3.555554
 20
12.889206
 30
0.000000
  0
VERTEX
  8
LAYER-2
 10
3.555554
 20
12.889206
 30
0.000000
  0
VERTEX
  8
LAYER-2
 10
4.015870
 20
12.283230
 30
0.000000
  0
SEQEND
  8
LAYER-2
  0
POLYLINE
  8
LAYER-2
 66
  1
 70
  1
 62
  0
  0
VERTEX
  8
LAYER-2
 10
4.027777
 20
12.267554
 30
0.000000
  0
VERTEX
  8
LAYER-2
 10
3.877406
 20
12.327744
 30
0.000000
  0
VERTEX
  8
LAYER-2
 10
3.943765
 20
12.378152
 30
0.000000
  0
VERTEX
  8
LAYER-2
 10
4.010123
 20
12.428560
 30
0.000000
  0
VERTEX
  8
LAYER-2
 10
4.027777
 20
12.267554
 30
0.000000
  0
SEQEND
  8
LAYER-2
  0
POLYLINE
  8
LAYER-2
 66
  1
 70
  0
 62
  0
 10
3.506943
 20
11.653093
 30
0.000000
  0
VERTEX
  8
LAYER-2
 10
3.506943
 20
11.653093
 30
0.000000
  0
VERTEX
  8
LAYER-2
 10
4.076482
 20
11.073264
 30
0.000000
  0
SEQEND
  8
LAYER-2
  0
POLYLINE
  8
LAYER-2
 66
  1
 70
  1
 62
  0
  0
VERTEX
  8
LAYER-2
 10
4.090276
 20
11.059221
 30
0.000000
  0
VERTEX
  8
LAYER-2
 10
3.933499
 20
11.099909
 30
0.000000
  0
VERTEX
  8
LAYER-2
 10
3.992950
 20
11.158305
 30
0.000000
  0
VERTEX
  8
LAYER-2
 10
4.052400
 20
11.216700
 30
0.000000
  0
VERTEX
  8
LAYER-2
 10
4.090276
 20
11.059221
 30
0.000000
  0
SEQEND
  8
LAYER-2
  0
ARC
  8
LAYER-2
 62
  0
 10
6.515629
 20
15.962001
 30
0.000000
 40
3.691552
 50
270.000000
 51
315.000000
  0
ARC
  8
LAYER-2
 62
  0
 10
6.515629
 20
15.962001
 30
0.000000
 40
3.313810
 50
270.000000
 51
315.000000
  0
POLYLINE
  8
LAYER-2
 66
  1
 70
  0
 62
  0
 10
6.515629
 20
12.270448
 30
0.000000
  0
VERTEX
  8
LAYER-2
 10
6.515629
 20
12.270448
 30
0.000000
  0
VERTEX
  8
LAYER-2
 10
4.515629
 20
12.270448
 30
0.000000
  0
SEQEND
  8
LAYER-2
  0
POLYLINE
  8
LAYER-2
 66
  1
 70
  0
 62
  0
 10
6.515629
 20
12.648190
 30
0.000000
  0
VERTEX
  8
LAYER-2
 10
6.515629
 20
12.648190
 30
0.000000
  0
VERTEX
  8
LAYER-2
 10
4.515629
 20
12.648190
 30
0.000000
  0
SEQEND
  8
LAYER-2
  0
POLYLINE
  8
LAYER-2
 66
  1
 70
  0
 62
  0
 10
9.125956
 20
13.351679
 30
0.000000
  0
VERTEX
  8
LAYER-2
 10
9.125956
 20
13.351679
 30
0.000000
  0
VERTEX
  8
LAYER-2
 10
10.189384
 20
14.415105
 30
0.000000
  0
SEQEND
  8
LAYER-2
  0
POLYLINE
  8
LAYER-2
 66
  1
 70
  0
 62
  0
 10
8.858854
 20
13.618783
 30
0.000000
  0
VERTEX
  8
LAYER-2
 10
8.858854
 20
13.618783
 30
0.000000
  0
VERTEX
  8
LAYER-2
 10
9.922280
 20
14.682210
 30
0.000000
  0
SEQEND
  8
LAYER-2
  0
POLYLINE
  8
LAYER-2
  6
LTYPE05
 66
  1
 70
  0
 62
  0
  6
LTYPE05
 10
10.507100
 20
13.555946
 30
0.000000
  0
VERTEX
  8
LAYER-2
  6
LTYPE05
 10
10.507100
 20
13.555946
 30
0.000000
  0
VERTEX
  8
LAYER-2
  6
LTYPE05
 10
11.129721
 20
13.798102
 30
0.000000
  0
SEQEND
  8
LAYER-2
  0
TEXT
  8
LAYER-2
 62
  0
 10
11.416667
 20
14.118376
 30
0.000000
 40
0.125000
  1
o
 72
  5
 11
11.638890
 21
14.118376
 31
0.000000
  0
TEXT
  8
LAYER-2
 62
  0
 10
12.361112
 20
14.090598
 30
0.000000
 40
0.125000
  1
o
 72
  5
 11
12.583334
 21
14.090598
 31
0.000000
  0
ARC
  8
LAYER-2
 62
  0
 10
7.191606
 20
0.001968
 30
0.000000
 40
10.005340
 50
58.144440
 51
126.727356
  0
POLYLINE
  8
LAYER-2
 66
  1
 70
  0
 62
  0
 10
1.145613
 20
7.995095
 30
0.000000
  0
VERTEX
  8
LAYER-2
 10
1.145613
 20
7.995095
 30
0.000000
  0
VERTEX
  8
LAYER-2
 10
1.155986
 20
8.075636
 30
0.000000
  0
SEQEND
  8
LAYER-2
  0
POLYLINE
  8
LAYER-2
 66
  1
 70
  0
 62
  0
 10
1.232272
 20
7.880371
 30
0.000000
  0
VERTEX
  8
LAYER-2
 10
1.232272
 20
7.880371
 30
0.000000
  0
VERTEX
  8
LAYER-2
 10
1.312815
 20
7.869999
 30
0.000000
  0
SEQEND
  8
LAYER-2
  0
POLYLINE
  8
LAYER-2
 66
  1
 70
  0
 62
  0
 10
1.053812
 20
7.937066
 30
0.000000
  0
VERTEX
  8
LAYER-2
 10
1.053812
 20
7.937066
 30
0.000000
  0
VERTEX
  8
LAYER-2
 10
1.118300
 20
7.986842
 30
0.000000
  0
SEQEND
  8
LAYER-2
  0
POLYLINE
  8
LAYER-2
 66
  1
 70
  0
 62
  0
 10
1.175434
 20
7.979484
 30
0.000000
  0
VERTEX
  8
LAYER-2
 10
1.175434
 20
7.979484
 30
0.000000
  0
VERTEX
  8
LAYER-2
 10
1.225211
 20
7.914993
 30
0.000000
  0
SEQEND
  8
LAYER-2
  0
POLYLINE
  8
LAYER-2
 66
  1
 70
  0
 62
  0
 10
1.217853
 20
7.857859
 30
0.000000
  0
VERTEX
  8
LAYER-2
 10
1.217853
 20
7.857859
 30
0.000000
  0
VERTEX
  8
LAYER-2
 10
1.153365
 20
7.808083
 30
0.000000
  0
SEQEND
  8
LAYER-2
  0
POLYLINE
  8
LAYER-2
 66
  1
 70
  0
 62
  0
 10
1.096231
 20
7.815442
 30
0.000000
  0
VERTEX
  8
LAYER-2
 10
1.096231
 20
7.815442
 30
0.000000
  0
VERTEX
  8
LAYER-2
 10
1.046455
 20
7.879932
 30
0.000000
  0
SEQEND
  8
LAYER-2
  0
ARC
  8
LAYER-2
 62
  0
 10
1.078700
 20
7.904819
 30
0.000000
 40
0.040734
 50
127.662506
 51
217.662506
  0
ARC
  8
LAYER-2
 62
  0
 10
1.128477
 20
7.840330
 30
0.000000
 40
0.040734
 50
217.662506
 51
307.662506
  0
ARC
  8
LAYER-2
 62
  0
 10
1.192965
 20
7.890106
 30
0.000000
 40
0.040734
 50
307.662506
 51
37.662498
  0
ARC
  8
LAYER-2
 62
  0
 10
1.143188
 20
7.954595
 30
0.000000
 40
0.040734
 50
37.662498
 51
127.662506
  0
POLYLINE
  8
LAYER-2
 66
  1
 70
  0
 62
  0
 10
1.303775
 20
7.936196
 30
0.000000
  0
VERTEX
  8
LAYER-2
 10
1.303775
 20
7.936196
 30
0.000000
  0
VERTEX
  8
LAYER-2
 10
1.410541
 20
8.018604
 30
0.000000
  0
SEQEND
  8
LAYER-2
  0
POLYLINE
  8
LAYER-2
 66
  1
 70
  0
 62
  0
 10
1.440398
 20
8.014760
 30
0.000000
  0
VERTEX
  8
LAYER-2
 10
1.440398
 20
8.014760
 30
0.000000
  0
VERTEX
  8
LAYER-2
 10
1.466413
 20
7.981055
 30
0.000000
  0
SEQEND
  8
LAYER-2
  0
POLYLINE
  8
LAYER-2
 66
  1
 70
  0
 62
  0
 10
1.462568
 20
7.951199
 30
0.000000
  0
VERTEX
  8
LAYER-2
 10
1.462568
 20
7.951199
 30
0.000000
  0
VERTEX
  8
LAYER-2
 10
1.355801
 20
7.868791
 30
0.000000
  0
SEQEND
  8
LAYER-2
  0
POLYLINE
  8
LAYER-2
 66
  1
 70
  0
 62
  0
 10
1.325944
 20
7.872635
 30
0.000000
  0
VERTEX
  8
LAYER-2
 10
1.325944
 20
7.872635
 30
0.000000
  0
VERTEX
  8
LAYER-2
 10
1.299929
 20
7.906340
 30
0.000000
  0
SEQEND
  8
LAYER-2
  0
ARC
  8
LAYER-2
 62
  0
 10
1.316781
 20
7.919347
 30
0.000000
 40
0.021287
 50
127.662506
 51
217.662506
  0
ARC
  8
LAYER-2
 62
  0
 10
1.342795
 20
7.885642
 30
0.000000
 40
0.021287
 50
217.662506
 51
307.662506
  0
ARC
  8
LAYER-2
 62
  0
 10
1.449561
 20
7.968048
 30
0.000000
 40
0.021287
 50
307.662506
 51
37.662498
  0
ARC
  8
LAYER-2
 62
  0
 10
1.423547
 20
8.001753
 30
0.000000
 40
0.021287
 50
37.662498
 51
127.662506
  0
POLYLINE
  8
LAYER-2
 66
  1
 70
  0
 62
  0
 10
1.166127
 20
8.115963
 30
0.000000
  0
VERTEX
  8
LAYER-2
 10
1.166127
 20
8.115963
 30
0.000000
  0
VERTEX
  8
LAYER-2
 10
1.272892
 20
8.198369
 30
0.000000
  0
SEQEND
  8
LAYER-2
  0
POLYLINE
  8
LAYER-2
 66
  1
 70
  0
 62
  0
 10
1.302750
 20
8.194524
 30
0.000000
  0
VERTEX
  8
LAYER-2
 10
1.302750
 20
8.194524
 30
0.000000
  0
VERTEX
  8
LAYER-2
 10
1.328765
 20
8.160819
 30
0.000000
  0
SEQEND
  8
LAYER-2
  0
POLYLINE
  8
LAYER-2
 66
  1
 70
  0
 62
  0
 10
1.324919
 20
8.130961
 30
0.000000
  0
VERTEX
  8
LAYER-2
 10
1.324919
 20
8.130961
 30
0.000000
  0
VERTEX
  8
LAYER-2
 10
1.218154
 20
8.048555
 30
0.000000
  0
SEQEND
  8
LAYER-2
  0
POLYLINE
  8
LAYER-2
 66
  1
 70
  0
 62
  0
 10
1.188296
 20
8.052400
 30
0.000000
  0
VERTEX
  8
LAYER-2
 10
1.188296
 20
8.052400
 30
0.000000
  0
VERTEX
  8
LAYER-2
 10
1.162282
 20
8.086105
 30
0.000000
  0
SEQEND
  8
LAYER-2
  0
ARC
  8
LAYER-2
 62
  0
 10
1.179133
 20
8.099111
 30
0.000000
 40
0.021287
 50
127.662506
 51
217.662506
  0
ARC
  8
LAYER-2
 62
  0
 10
1.205148
 20
8.065406
 30
0.000000
 40
0.021287
 50
217.662506
 51
307.662506
  0
ARC
  8
LAYER-2
 62
  0
 10
1.311913
 20
8.147812
 30
0.000000
 40
0.021287
 50
307.662506
 51
37.662498
  0
ARC
  8
LAYER-2
 62
  0
 10
1.285899
 20
8.181517
 30
0.000000
 40
0.021287
 50
37.662498
 51
127.662506
  0
POLYLINE
  8
LAYER-2
 66
  1
 70
  0
 62
  0
 10
1.192666
 20
8.047390
 30
0.000000
  0
VERTEX
  8
LAYER-2
 10
1.192666
 20
8.047390
 30
0.000000
  0
VERTEX
  8
LAYER-2
 10
1.331824
 20
8.154799
 30
0.000000
  0
SEQEND
  8
LAYER-2
  0
POLYLINE
  8
LAYER-2
 66
  1
 70
  0
 62
  0
 10
1.389554
 20
8.147364
 30
0.000000
  0
VERTEX
  8
LAYER-2
 10
1.389554
 20
8.147364
 30
0.000000
  0
VERTEX
  8
LAYER-2
 10
1.439852
 20
8.082199
 30
0.000000
  0
SEQEND
  8
LAYER-2
  0
POLYLINE
  8
LAYER-2
 66
  1
 70
  0
 62
  0
 10
1.432418
 20
8.024468
 30
0.000000
  0
VERTEX
  8
LAYER-2
 10
1.432418
 20
8.024468
 30
0.000000
  0
VERTEX
  8
LAYER-2
 10
1.293260
 20
7.917060
 30
0.000000
  0
SEQEND
  8
LAYER-2
  0
POLYLINE
  8
LAYER-2
 66
  1
 70
  0
 62
  0
 10
1.235530
 20
7.924493
 30
0.000000
  0
VERTEX
  8
LAYER-2
 10
1.235530
 20
7.924493
 30
0.000000
  0
VERTEX
  8
LAYER-2
 10
1.185232
 20
7.989660
 30
0.000000
  0
SEQEND
  8
LAYER-2
  0
ARC
  8
LAYER-2
 62
  0
 10
1.217814
 20
8.014808
 30
0.000000
 40
0.041159
 50
127.662506
 51
217.662506
  0
ARC
  8
LAYER-2
 62
  0
 10
1.268112
 20
7.949641
 30
0.000000
 40
0.041159
 50
217.662506
 51
307.662506
  0
ARC
  8
LAYER-2
 62
  0
 10
1.407270
 20
8.057049
 30
0.000000
 40
0.041159
 50
307.662506
 51
37.662498
  0
ARC
  8
LAYER-2
 62
  0
 10
1.356972
 20
8.122216
 30
0.000000
 40
0.041159
 50
37.662498
 51
127.662506
  0
POLYLINE
  8
LAYER-2
 66
  1
 70
  0
 62
  0
 10
9.350532
 20
9.710676
 30
0.000000
  0
VERTEX
  8
LAYER-2
 10
9.350532
 20
9.710676
 30
0.000000
  0
VERTEX
  8
LAYER-2
 10
9.482004
 20
9.680595
 30
0.000000
  0
SEQEND
  8
LAYER-2
  0
POLYLINE
  8
LAYER-2
 66
  1
 70
  0
 62
  0
 10
9.498007
 20
9.655097
 30
0.000000
  0
VERTEX
  8
LAYER-2
 10
9.498007
 20
9.655097
 30
0.000000
  0
VERTEX
  8
LAYER-2
 10
9.488511
 20
9.613597
 30
0.000000
  0
SEQEND
  8
LAYER-2
  0
POLYLINE
  8
LAYER-2
 66
  1
 70
  0
 62
  0
 10
9.463013
 20
9.597595
 30
0.000000
  0
VERTEX
  8
LAYER-2
 10
9.463013
 20
9.597595
 30
0.000000
  0
VERTEX
  8
LAYER-2
 10
9.331540
 20
9.627675
 30
0.000000
  0
SEQEND
  8
LAYER-2
  0
POLYLINE
  8
LAYER-2
 66
  1
 70
  0
 62
  0
 10
9.315537
 20
9.653175
 30
0.000000
  0
VERTEX
  8
LAYER-2
 10
9.315537
 20
9.653175
 30
0.000000
  0
VERTEX
  8
LAYER-2
 10
9.325033
 20
9.694675
 30
0.000000
  0
SEQEND
  8
LAYER-2
  0
ARC
  8
LAYER-2
 62
  0
 10
9.345784
 20
9.689926
 30
0.000000
 40
0.021287
 50
77.112213
 51
167.112183
  0
ARC
  8
LAYER-2
 62
  0
 10
9.336288
 20
9.648426
 30
0.000000
 40
0.021287
 50
167.112183
 51
257.112183
  0
ARC
  8
LAYER-2
 62
  0
 10
9.467760
 20
9.618345
 30
0.000000
 40
0.021287
 50
257.112183
 51
347.112213
  0
ARC
  8
LAYER-2
 62
  0
 10
9.477256
 20
9.659844
 30
0.000000
 40
0.021287
 50
347.112213
 51
77.112213
  0
POLYLINE
  8
LAYER-2
 66
  1
 70
  0
 62
  0
 10
9.364848
 20
9.863042
 30
0.000000
  0
VERTEX
  8
LAYER-2
 10
9.364848
 20
9.863042
 30
0.000000
  0
VERTEX
  8
LAYER-2
 10
9.536209
 20
9.823834
 30
0.000000
  0
SEQEND
  8
LAYER-2
  0
POLYLINE
  8
LAYER-2
 66
  1
 70
  0
 62
  0
 10
9.567151
 20
9.774533
 30
0.000000
  0
VERTEX
  8
LAYER-2
 10
9.567151
 20
9.774533
 30
0.000000
  0
VERTEX
  8
LAYER-2
 10
9.548791
 20
9.694292
 30
0.000000
  0
SEQEND
  8
LAYER-2
  0
POLYLINE
  8
LAYER-2
 66
  1
 70
  0
 62
  0
 10
9.499489
 20
9.663350
 30
0.000000
  0
VERTEX
  8
LAYER-2
 10
9.499489
 20
9.663350
 30
0.000000
  0
VERTEX
  8
LAYER-2
 10
9.328128
 20
9.702560
 30
0.000000
  0
SEQEND
  8
LAYER-2
  0
POLYLINE
  8
LAYER-2
 66
  1
 70
  0
 62
  0
 10
9.297187
 20
9.751862
 30
0.000000
  0
VERTEX
  8
LAYER-2
 10
9.297187
 20
9.751862
 30
0.000000
  0
VERTEX
  8
LAYER-2
 10
9.315546
 20
9.832102
 30
0.000000
  0
SEQEND
  8
LAYER-2
  0
ARC
  8
LAYER-2
 62
  0
 10
9.355668
 20
9.822923
 30
0.000000
 40
0.041159
 50
77.112213
 51
167.112183
  0
ARC
  8
LAYER-2
 62
  0
 10
9.337308
 20
9.742679
 30
0.000000
 40
0.041159
 50
167.112183
 51
257.112183
  0
ARC
  8
LAYER-2
 62
  0
 10
9.508670
 20
9.703471
 30
0.000000
 40
0.041159
 50
257.112183
 51
347.112213
  0
ARC
  8
LAYER-2
 62
  0
 10
9.527028
 20
9.783715
 30
0.000000
 40
0.041159
 50
347.112213
 51
77.112213
  0
POLYLINE
  8
LAYER-2
 66
  1
 70
  1
 62
  0
  0
VERTEX
  8
LAYER-2
 10
0.611371
 20
8.192900
 30
0.000000
  0
VERTEX
  8
LAYER-2
 10
0.734457
 20
8.286926
 30
0.000000
  0
VERTEX
  8
LAYER-2
 10
1.379450
 20
7.442598
 30
0.000000
  0
VERTEX
  8
LAYER-2
 10
1.256364
 20
7.348572
 30
0.000000
  0
SEQEND
  8
LAYER-2
  0
LINE
  8
LAYER-2
 62
  0
 10
12.684400
 20
8.878993
 30
0.000000
 11
14.024279
 21
8.001122
 31
0.000000
  0
LINE
  8
LAYER-2
 62
  0
 10
12.593063
 20
8.739583
 30
0.000000
 11
13.793531
 21
7.953055
 31
0.000000
  0
LINE
  8
LAYER-2
 62
  0
 10
12.684400
 20
8.878993
 30
0.000000
 11
12.593063
 21
8.739583
 31
0.000000
  0
LINE
  8
LAYER-2
 62
  0
 10
14.024279
 20
8.001122
 30
0.000000
 11
13.618329
 21
7.381531
 31
0.000000
  0
LINE
  8
LAYER-2
 62
  0
 10
13.793531
 20
7.953055
 30
0.000000
 11
13.570257
 21
7.612278
 31
0.000000
  0
LINE
  8
LAYER-2
 62
  0
 10
13.618329
 20
7.381531
 30
0.000000
 11
12.278449
 21
8.259401
 31
0.000000
  0
LINE
  8
LAYER-2
 62
  0
 10
13.570257
 20
7.612278
 30
0.000000
 11
12.369787
 21
8.398809
 31
0.000000
  0
LINE
  8
LAYER-2
 62
  0
 10
12.278449
 20
8.259401
 30
0.000000
 11
12.369787
 21
8.398809
 31
0.000000
  0
POLYLINE
  8
LAYER-2
 66
  1
 70
  0
 62
  0
 10
12.613336
 20
8.560259
 30
0.000000
  0
VERTEX
  8
LAYER-2
 10
12.613336
 20
8.560259
 30
0.000000
  0
VERTEX
  8
LAYER-2
 10
12.760373
 20
8.463921
 30
0.000000
  0
SEQEND
  8
LAYER-2
  0
POLYLINE
  8
LAYER-2
 66
  1
 70
  0
 62
  0
 10
12.772245
 20
8.406938
 30
0.000000
  0
VERTEX
  8
LAYER-2
 10
12.772245
 20
8.406938
 30
0.000000
  0
VERTEX
  8
LAYER-2
 10
12.727131
 20
8.338081
 30
0.000000
  0
SEQEND
  8
LAYER-2
  0
POLYLINE
  8
LAYER-2
 66
  1
 70
  0
 62
  0
 10
12.670147
 20
8.326211
 30
0.000000
  0
VERTEX
  8
LAYER-2
 10
12.670147
 20
8.326211
 30
0.000000
  0
VERTEX
  8
LAYER-2
 10
12.523109
 20
8.422548
 30
0.000000
  0
SEQEND
  8
LAYER-2
  0
POLYLINE
  8
LAYER-2
 66
  1
 70
  0
 62
  0
 10
12.511237
 20
8.479531
 30
0.000000
  0
VERTEX
  8
LAYER-2
 10
12.511237
 20
8.479531
 30
0.000000
  0
VERTEX
  8
LAYER-2
 10
12.556352
 20
8.548387
 30
0.000000
  0
SEQEND
  8
LAYER-2
  0
ARC
  8
LAYER-2
 62
  0
 10
12.590780
 20
8.525831
 30
0.000000
 40
0.041159
 50
56.767792
 51
146.767792
  0
ARC
  8
LAYER-2
 62
  0
 10
12.545665
 20
8.456975
 30
0.000000
 40
0.041159
 50
146.767792
 51
236.767822
  0
ARC
  8
LAYER-2
 62
  0
 10
12.692703
 20
8.360638
 30
0.000000
 40
0.041159
 50
236.767822
 51
326.767792
  0
ARC
  8
LAYER-2
 62
  0
 10
12.737818
 20
8.429493
 30
0.000000
 40
0.041159
 50
326.767792
 51
56.767792
  0
POLYLINE
  8
LAYER-2
 66
  1
 70
  0
 62
  0
 10
12.753487
 20
8.369926
 30
0.000000
  0
VERTEX
  8
LAYER-2
 10
12.753487
 20
8.369926
 30
0.000000
  0
VERTEX
  8
LAYER-2
 10
13.319272
 20
8.109926
 30
0.000000
  0
SEQEND
  8
LAYER-2
  0
POLYLINE
  8
LAYER-2
 66
  1
 70
  0
 62
  0
 10
12.750950
 20
8.366050
 30
0.000000
  0
VERTEX
  8
LAYER-2
 10
12.750950
 20
8.366050
 30
0.000000
  0
VERTEX
  8
LAYER-2
 10
13.222857
 20
7.962775
 30
0.000000
  0
SEQEND
  8
LAYER-2
  0
POLYLINE
  8
LAYER-2
 66
  1
 70
  0
 62
  0
 10
12.803377
 20
8.452348
 30
0.000000
  0
VERTEX
  8
LAYER-2
 10
12.803377
 20
8.452348
 30
0.000000
  0
VERTEX
  8
LAYER-2
 10
12.651147
 20
8.219998
 30
0.000000
  0
SEQEND
  8
LAYER-2
  0
POLYLINE
  8
LAYER-2
  6
LTYPE06
 66
  1
 70
  0
 62
  0
  6
LTYPE06
 10
12.753969
 20
8.368491
 30
0.000000
  0
VERTEX
  8
LAYER-2
  6
LTYPE06
 10
12.753969
 20
8.368491
 30
0.000000
  0
VERTEX
  8
LAYER-2
  6
LTYPE06
 10
13.667873
 20
7.769714
 30
0.000000
  0
SEQEND
  8
LAYER-2
  0
TEXT
  8
LAYER-2
 62
  0
 10
0.138890
 20
10.035043
 30
0.000000
 40
0.291667
  1
CURVE SPECIALI 
 72
  5
 11
3.611112
 21
10.035043
 31
0.000000
  0
TEXT
  8
LAYER-2
 62
  0
 10
2.388890
 20
7.757265
 30
0.000000
 40
0.250000
  1
Mobilflex pu˜ piegare qualsiasi raggio per completare il progetto
 72
  5
 11
12.277778
 21
7.757265
 31
0.000000
  0
TEXT
  8
LAYER-2
 62
  0
 10
2.388890
 20
7.368376
 30
0.000000
 40
0.250000
  1
( Definire il raggio e la lunghezza della curva nei disegni )
 72
  5
 11
11.166667
 21
7.368376
 31
0.000000
  0
POLYLINE
  8
LAYER-2
 66
  1
 70
  0
 62
  0
 10
4.857731
 20
9.638089
 30
0.000000
  0
VERTEX
  8
LAYER-2
 10
4.857731
 20
9.638089
 30
0.000000
  0
VERTEX
  8
LAYER-2
 10
4.988691
 20
9.670332
 30
0.000000
  0
SEQEND
  8
LAYER-2
  0
POLYLINE
  8
LAYER-2
 66
  1
 70
  0
 62
  0
 10
5.014448
 20
9.654751
 30
0.000000
  0
VERTEX
  8
LAYER-2
 10
5.014448
 20
9.654751
 30
0.000000
  0
VERTEX
  8
LAYER-2
 10
5.024627
 20
9.613408
 30
0.000000
  0
SEQEND
  8
LAYER-2
  0
POLYLINE
  8
LAYER-2
 66
  1
 70
  0
 62
  0
 10
5.009046
 20
9.587650
 30
0.000000
  0
VERTEX
  8
LAYER-2
 10
5.009046
 20
9.587650
 30
0.000000
  0
VERTEX
  8
LAYER-2
 10
4.878087
 20
9.555408
 30
0.000000
  0
SEQEND
  8
LAYER-2
  0
POLYLINE
  8
LAYER-2
 66
  1
 70
  0
 62
  0
 10
4.852329
 20
9.570989
 30
0.000000
  0
VERTEX
  8
LAYER-2
 10
4.852329
 20
9.570989
 30
0.000000
  0
VERTEX
  8
LAYER-2
 10
4.842150
 20
9.612332
 30
0.000000
  0
SEQEND
  8
LAYER-2
  0
ARC
  8
LAYER-2
 62
  0
 10
4.862820
 20
9.617420
 30
0.000000
 40
0.021287
 50
103.831116
 51
193.831116
  0
ARC
  8
LAYER-2
 62
  0
 10
4.872999
 20
9.576077
 30
0.000000
 40
0.021287
 50
193.831116
 51
283.831116
  0
ARC
  8
LAYER-2
 62
  0
 10
5.003957
 20
9.608319
 30
0.000000
 40
0.021287
 50
283.831116
 51
13.831116
  0
ARC
  8
LAYER-2
 62
  0
 10
4.993779
 20
9.649662
 30
0.000000
 40
0.021287
 50
13.831116
 51
103.831116
  0
POLYLINE
  8
LAYER-2
 66
  1
 70
  0
 62
  0
 10
4.802013
 20
9.780623
 30
0.000000
  0
VERTEX
  8
LAYER-2
 10
4.802013
 20
9.780623
 30
0.000000
  0
VERTEX
  8
LAYER-2
 10
4.972704
 20
9.822649
 30
0.000000
  0
SEQEND
  8
LAYER-2
  0
POLYLINE
  8
LAYER-2
 66
  1
 70
  0
 62
  0
 10
5.022508
 20
9.792523
 30
0.000000
  0
VERTEX
  8
LAYER-2
 10
5.022508
 20
9.792523
 30
0.000000
  0
VERTEX
  8
LAYER-2
 10
5.042187
 20
9.712592
 30
0.000000
  0
SEQEND
  8
LAYER-2
  0
POLYLINE
  8
LAYER-2
 66
  1
 70
  0
 62
  0
 10
5.012060
 20
9.662789
 30
0.000000
  0
VERTEX
  8
LAYER-2
 10
5.012060
 20
9.662789
 30
0.000000
  0
VERTEX
  8
LAYER-2
 10
4.841370
 20
9.620765
 30
0.000000
  0
SEQEND
  8
LAYER-2
  0
POLYLINE
  8
LAYER-2
 66
  1
 70
  0
 62
  0
 10
4.791565
 20
9.650891
 30
0.000000
  0
VERTEX
  8
LAYER-2
 10
4.791565
 20
9.650891
 30
0.000000
  0
VERTEX
  8
LAYER-2
 10
4.771887
 20
9.730820
 30
0.000000
  0
SEQEND
  8
LAYER-2
  0
ARC
  8
LAYER-2
 62
  0
 10
4.811852
 20
9.740660
 30
0.000000
 40
0.041159
 50
103.831116
 51
193.831116
  0
ARC
  8
LAYER-2
 62
  0
 10
4.831531
 20
9.660731
 30
0.000000
 40
0.041159
 50
193.831116
 51
283.831116
  0
ARC
  8
LAYER-2
 62
  0
 10
5.002222
 20
9.702754
 30
0.000000
 40
0.041159
 50
283.831116
 51
13.831116
  0
ARC
  8
LAYER-2
 62
  0
 10
4.982543
 20
9.782683
 30
0.000000
 40
0.041159
 50
13.831116
 51
103.831116
  0
POLYLINE
  8
LAYER-2
 66
  1
 70
  0
 62
  0
 10
8.821656
 20
19.285570
 30
0.000000
  0
VERTEX
  8
LAYER-2
 10
8.821656
 20
19.285570
 30
0.000000
  0
VERTEX
  8
LAYER-2
 10
8.584702
 20
19.275992
 30
0.000000
  0
VERTEX
  8
LAYER-2
 10
8.351979
 20
19.241472
 30
0.000000
  0
VERTEX
  8
LAYER-2
 10
8.123759
 20
19.184306
 30
0.000000
  0
VERTEX
  8
LAYER-2
 10
7.902243
 20
19.105047
 30
0.000000
  0
VERTEX
  8
LAYER-2
 10
7.689562
 20
19.004456
 30
0.000000
  0
VERTEX
  8
LAYER-2
 10
7.487764
 20
18.883504
 30
0.000000
  0
VERTEX
  8
LAYER-2
 10
7.298794
 20
18.743354
 30
0.000000
  0
VERTEX
  8
LAYER-2
 10
7.124470
 20
18.585354
 30
0.000000
  0
VERTEX
  8
LAYER-2
 10
6.966473
 20
18.411031
 30
0.000000
  0
VERTEX
  8
LAYER-2
 10
6.826324
 20
18.222063
 30
0.000000
  0
VERTEX
  8
LAYER-2
 10
6.705371
 20
18.020265
 30
0.000000
  0
VERTEX
  8
LAYER-2
 10
6.604780
 20
17.807583
 30
0.000000
  0
VERTEX
  8
LAYER-2
 10
6.525520
 20
17.586066
 30
0.000000
  0
VERTEX
  8
LAYER-2
 10
6.468354
 20
17.357849
 30
0.000000
  0
VERTEX
  8
LAYER-2
 10
6.433833
 20
17.125125
 30
0.000000
  0
VERTEX
  8
LAYER-2
 10
6.424256
 20
16.888170
 30
0.000000
  0
SEQEND
  8
LAYER-2
  0
POLYLINE
  8
LAYER-2
 66
  1
 70
  0
 62
  0
 10
8.821656
 20
19.041765
 30
0.000000
  0
VERTEX
  8
LAYER-2
 10
8.821656
 20
19.041765
 30
0.000000
  0
VERTEX
  8
LAYER-2
 10
8.608598
 20
19.033364
 30
0.000000
  0
VERTEX
  8
LAYER-2
 10
8.399542
 20
19.002353
 30
0.000000
  0
VERTEX
  8
LAYER-2
 10
8.194532
 20
18.951002
 30
0.000000
  0
VERTEX
  8
LAYER-2
 10
7.995542
 20
18.879801
 30
0.000000
  0
VERTEX
  8
LAYER-2
 10
7.804490
 20
18.789441
 30
0.000000
  0
VERTEX
  8
LAYER-2
 10
7.623214
 20
18.680788
 30
0.000000
  0
VERTEX
  8
LAYER-2
 10
7.453462
 20
18.554891
 30
0.000000
  0
VERTEX
  8
LAYER-2
 10
7.296867
 20
18.412960
 30
0.000000
  0
VERTEX
  8
LAYER-2
 10
7.154936
 20
18.256365
 30
0.000000
  0
VERTEX
  8
LAYER-2
 10
7.029038
 20
18.086612
 30
0.000000
  0
VERTEX
  8
LAYER-2
 10
6.920386
 20
17.905336
 30
0.000000
  0
VERTEX
  8
LAYER-2
 10
6.830026
 20
17.714284
 30
0.000000
  0
VERTEX
  8
LAYER-2
 10
6.758826
 20
17.515294
 30
0.000000
  0
VERTEX
  8
LAYER-2
 10
6.707474
 20
17.310286
 30
0.000000
  0
VERTEX
  8
LAYER-2
 10
6.676463
 20
17.101229
 30
0.000000
  0
VERTEX
  8
LAYER-2
 10
6.668059
 20
16.888170
 30
0.000000
  0
SEQEND
  8
LAYER-2
  0
POLYLINE
  8
LAYER-2
 66
  1
 70
  0
 62
  0
 10
6.424256
 20
16.888170
 30
0.000000
  0
VERTEX
  8
LAYER-2
 10
6.424256
 20
16.888170
 30
0.000000
  0
VERTEX
  8
LAYER-2
 10
6.424256
 20
15.750420
 30
0.000000
  0
SEQEND
  8
LAYER-2
  0
POLYLINE
  8
LAYER-2
 66
  1
 70
  0
 62
  0
 10
6.668060
 20
16.888170
 30
0.000000
  0
VERTEX
  8
LAYER-2
 10
6.668060
 20
16.888170
 30
0.000000
  0
VERTEX
  8
LAYER-2
 10
6.668060
 20
15.750420
 30
0.000000
  0
SEQEND
  8
LAYER-2
  0
POLYLINE
  8
LAYER-2
 66
  1
 70
  0
 62
  0
 10
8.821655
 20
19.285568
 30
0.000000
  0
VERTEX
  8
LAYER-2
 10
8.821655
 20
19.285568
 30
0.000000
  0
VERTEX
  8
LAYER-2
 10
9.959406
 20
19.285568
 30
0.000000
  0
SEQEND
  8
LAYER-2
  0
POLYLINE
  8
LAYER-2
 66
  1
 70
  0
 62
  0
 10
8.821655
 20
19.041765
 30
0.000000
  0
VERTEX
  8
LAYER-2
 10
8.821655
 20
19.041765
 30
0.000000
  0
VERTEX
  8
LAYER-2
 10
9.959406
 20
19.041765
 30
0.000000
  0
SEQEND
  8
LAYER-2
  0
POLYLINE
  8
LAYER-2
 66
  1
 70
  0
 62
  0
 10
9.959406
 20
19.041765
 30
0.000000
  0
VERTEX
  8
LAYER-2
 10
9.959406
 20
19.041765
 30
0.000000
  0
VERTEX
  8
LAYER-2
 10
9.959406
 20
19.285568
 30
0.000000
  0
SEQEND
  8
LAYER-2
  0
POLYLINE
  8
LAYER-2
 66
  1
 70
  0
 62
  0
 10
6.668060
 20
16.888170
 30
0.000000
  0
VERTEX
  8
LAYER-2
 10
6.668060
 20
16.888170
 30
0.000000
  0
VERTEX
  8
LAYER-2
 10
8.821655
 20
16.888170
 30
0.000000
  0
SEQEND
  8
LAYER-2
  0
POLYLINE
  8
LAYER-2
 66
  1
 70
  0
 62
  0
 10
8.821655
 20
19.041765
 30
0.000000
  0
VERTEX
  8
LAYER-2
 10
8.821655
 20
19.041765
 30
0.000000
  0
VERTEX
  8
LAYER-2
 10
8.821655
 20
16.888170
 30
0.000000
  0
SEQEND
  8
LAYER-2
  0
POLYLINE
  8
LAYER-2
 66
  1
 70
  0
 62
  0
 10
7.606149
 20
16.888170
 30
0.000000
  0
VERTEX
  8
LAYER-2
 10
7.606149
 20
16.888170
 30
0.000000
  0
VERTEX
  8
LAYER-2
 10
7.606149
 20
16.888170
 30
0.000000
  0
SEQEND
  8
LAYER-2
  0
POLYLINE
  8
LAYER-2
 66
  1
 70
  0
 62
  0
 10
8.821655
 20
18.103678
 30
0.000000
  0
VERTEX
  8
LAYER-2
 10
8.821655
 20
18.103678
 30
0.000000
  0
VERTEX
  8
LAYER-2
 10
8.821655
 20
18.103678
 30
0.000000
  0
SEQEND
  8
LAYER-2
  0
ARC
  8
LAYER-2
 62
  0
 10
8.821655
 20
16.888170
 30
0.000000
 40
1.251797
 50
90.000000
 51
180.000000
  0
POLYLINE
  8
LAYER-2
 66
  1
 70
  1
 62
  0
  0
VERTEX
  8
LAYER-2
 10
7.569858
 20
16.888170
 30
0.000000
  0
VERTEX
  8
LAYER-2
 10
7.653192
 20
17.027059
 30
0.000000
  0
VERTEX
  8
LAYER-2
 10
7.569859
 20
17.027059
 30
0.000000
  0
VERTEX
  8
LAYER-2
 10
7.486526
 20
17.027059
 30
0.000000
  0
VERTEX
  8
LAYER-2
 10
7.569858
 20
16.888170
 30
0.000000
  0
SEQEND
  8
LAYER-2
  0
POLYLINE
  8
LAYER-2
 66
  1
 70
  1
 62
  0
  0
VERTEX
  8
LAYER-2
 10
8.821655
 20
18.139967
 30
0.000000
  0
VERTEX
  8
LAYER-2
 10
8.682766
 20
18.223301
 30
0.000000
  0
VERTEX
  8
LAYER-2
 10
8.682766
 20
18.139967
 30
0.000000
  0
VERTEX
  8
LAYER-2
 10
8.682766
 20
18.056634
 30
0.000000
  0
VERTEX
  8
LAYER-2
 10
8.821655
 20
18.139967
 30
0.000000
  0
SEQEND
  8
LAYER-2
  0
TEXT
  8
LAYER-2
 62
  0
 10
7.835741
 20
17.722488
 30
0.000000
 40
0.250000
  1
90.0°
  0
POLYLINE
  8
LAYER-2
 66
  1
 70
  0
 62
  0
 10
6.424256
 20
15.750420
 30
0.000000
  0
VERTEX
  8
LAYER-2
 10
6.424256
 20
15.750420
 30
0.000000
  0
VERTEX
  8
LAYER-2
 10
6.668060
 20
15.750420
 30
0.000000
  0
SEQEND
  8
LAYER-2
  0
POLYLINE
  8
LAYER-2
 66
  1
 70
  0
 62
  0
 10
3.251827
 20
18.057229
 30
0.000000
  0
VERTEX
  8
LAYER-2
 10
3.251827
 20
18.057229
 30
0.000000
  0
VERTEX
  8
LAYER-2
 10
3.014872
 20
18.047655
 30
0.000000
  0
VERTEX
  8
LAYER-2
 10
2.782148
 20
18.013133
 30
0.000000
  0
VERTEX
  8
LAYER-2
 10
2.553930
 20
17.955967
 30
0.000000
  0
VERTEX
  8
LAYER-2
 10
2.332413
 20
17.876707
 30
0.000000
  0
VERTEX
  8
LAYER-2
 10
2.119732
 20
17.776116
 30
0.000000
  0
VERTEX
  8
LAYER-2
 10
1.917934
 20
17.655165
 30
0.000000
  0
VERTEX
  8
LAYER-2
 10
1.728964
 20
17.515015
 30
0.000000
  0
VERTEX
  8
LAYER-2
 10
1.556609
 20
17.355048
 30
0.000000
  0
SEQEND
  8
LAYER-2
  0
POLYLINE
  8
LAYER-2
 66
  1
 70
  0
 62
  0
 10
3.251827
 20
17.813426
 30
0.000000
  0
VERTEX
  8
LAYER-2
 10
3.251827
 20
17.813426
 30
0.000000
  0
VERTEX
  8
LAYER-2
 10
3.038769
 20
17.805023
 30
0.000000
  0
VERTEX
  8
LAYER-2
 10
2.829712
 20
17.774014
 30
0.000000
  0
VERTEX
  8
LAYER-2
 10
2.624702
 20
17.722663
 30
0.000000
  0
VERTEX
  8
LAYER-2
 10
2.425712
 20
17.651462
 30
0.000000
  0
VERTEX
  8
LAYER-2
 10
2.234660
 20
17.561101
 30
0.000000
  0
VERTEX
  8
LAYER-2
 10
2.053384
 20
17.452449
 30
0.000000
  0
VERTEX
  8
LAYER-2
 10
1.883631
 20
17.326552
 30
0.000000
  0
VERTEX
  8
LAYER-2
 10
1.729004
 20
17.182653
 30
0.000000
  0
SEQEND
  8
LAYER-2
  0
POLYLINE
  8
LAYER-2
 66
  1
 70
  0
 62
  0
 10
3.251827
 20
18.057229
 30
0.000000
  0
VERTEX
  8
LAYER-2
 10
3.251827
 20
18.057229
 30
0.000000
  0
VERTEX
  8
LAYER-2
 10
5.283520
 20
18.057229
 30
0.000000
  0
SEQEND
  8
LAYER-2
  0
POLYLINE
  8
LAYER-2
 66
  1
 70
  0
 62
  0
 10
3.251827
 20
17.813422
 30
0.000000
  0
VERTEX
  8
LAYER-2
 10
3.251827
 20
17.813422
 30
0.000000
  0
VERTEX
  8
LAYER-2
 10
5.283520
 20
17.813422
 30
0.000000
  0
SEQEND
  8
LAYER-2
  0
POLYLINE
  8
LAYER-2
 66
  1
 70
  0
 62
  0
 10
5.283520
 20
17.813422
 30
0.000000
  0
VERTEX
  8
LAYER-2
 10
5.283520
 20
17.813422
 30
0.000000
  0
VERTEX
  8
LAYER-2
 10
5.283520
 20
18.057229
 30
0.000000
  0
SEQEND
  8
LAYER-2
  0
POLYLINE
  8
LAYER-2
 66
  1
 70
  0
 62
  0
 10
1.728919
 20
17.182502
 30
0.000000
  0
VERTEX
  8
LAYER-2
 10
1.728919
 20
17.182502
 30
0.000000
  0
VERTEX
  8
LAYER-2
 10
0.292294
 20
15.745878
 30
0.000000
  0
SEQEND
  8
LAYER-2
  0
POLYLINE
  8
LAYER-2
 66
  1
 70
  0
 62
  0
 10
1.556523
 20
17.354899
 30
0.000000
  0
VERTEX
  8
LAYER-2
 10
1.556523
 20
17.354899
 30
0.000000
  0
VERTEX
  8
LAYER-2
 10
0.119898
 20
15.918276
 30
0.000000
  0
SEQEND
  8
LAYER-2
  0
POLYLINE
  8
LAYER-2
 66
  1
 70
  0
 62
  0
 10
0.119898
 20
15.918276
 30
0.000000
  0
VERTEX
  8
LAYER-2
 10
0.119898
 20
15.918276
 30
0.000000
  0
VERTEX
  8
LAYER-2
 10
0.292294
 20
15.745878
 30
0.000000
  0
SEQEND
  8
LAYER-2
  0
POLYLINE
  8
LAYER-2
 66
  1
 70
  0
 62
  0
 10
11.069984
 20
17.540441
 30
0.000000
  0
VERTEX
  8
LAYER-2
 10
11.069984
 20
17.540441
 30
0.000000
  0
VERTEX
  8
LAYER-2
 10
11.070484
 20
15.750858
 30
0.000000
  0
SEQEND
  8
LAYER-2
  0
POLYLINE
  8
LAYER-2
 66
  1
 70
  0
 62
  0
 10
11.313697
 20
17.540441
 30
0.000000
  0
VERTEX
  8
LAYER-2
 10
11.313697
 20
17.540441
 30
0.000000
  0
VERTEX
  8
LAYER-2
 10
11.314288
 20
15.750858
 30
0.000000
  0
SEQEND
  8
LAYER-2
  0
POLYLINE
  8
LAYER-2
 66
  1
 70
  0
 62
  0
 10
12.816049
 20
19.286508
 30
0.000000
  0
VERTEX
  8
LAYER-2
 10
12.816049
 20
19.286508
 30
0.000000
  0
VERTEX
  8
LAYER-2
 10
14.605632
 20
19.286007
 30
0.000000
  0
SEQEND
  8
LAYER-2
  0
POLYLINE
  8
LAYER-2
 66
  1
 70
  0
 62
  0
 10
12.816049
 20
19.042792
 30
0.000000
  0
VERTEX
  8
LAYER-2
 10
12.816049
 20
19.042792
 30
0.000000
  0
VERTEX
  8
LAYER-2
 10
14.605632
 20
19.042202
 30
0.000000
  0
SEQEND
  8
LAYER-2
  0
POLYLINE
  8
LAYER-2
 66
  1
 70
  0
 62
  0
 10
14.605632
 20
19.042202
 30
0.000000
  0
VERTEX
  8
LAYER-2
 10
14.605632
 20
19.042202
 30
0.000000
  0
VERTEX
  8
LAYER-2
 10
14.605632
 20
19.286007
 30
0.000000
  0
SEQEND
  8
LAYER-2
  0
POLYLINE
  8
LAYER-2
 66
  1
 70
  0
 62
  0
 10
12.816049
 20
19.042792
 30
0.000000
  0
VERTEX
  8
LAYER-2
 10
12.816049
 20
19.042792
 30
0.000000
  0
VERTEX
  8
LAYER-2
 10
12.666824
 20
19.037526
 30
0.000000
  0
VERTEX
  8
LAYER-2
 10
12.520986
 20
19.015895
 30
0.000000
  0
VERTEX
  8
LAYER-2
 10
12.377971
 20
18.980072
 30
0.000000
  0
VERTEX
  8
LAYER-2
 10
12.239155
 20
18.930403
 30
0.000000
  0
VERTEX
  8
LAYER-2
 10
12.105876
 20
18.867366
 30
0.000000
  0
VERTEX
  8
LAYER-2
 10
11.979418
 20
18.791570
 30
0.000000
  0
VERTEX
  8
LAYER-2
 10
11.860998
 20
18.703744
 30
0.000000
  0
VERTEX
  8
LAYER-2
 10
11.751757
 20
18.604733
 30
0.000000
  0
VERTEX
  8
LAYER-2
 10
11.652746
 20
18.495492
 30
0.000000
  0
VERTEX
  8
LAYER-2
 10
11.564920
 20
18.377072
 30
0.000000
  0
VERTEX
  8
LAYER-2
 10
11.489125
 20
18.250614
 30
0.000000
  0
VERTEX
  8
LAYER-2
 10
11.426088
 20
18.117335
 30
0.000000
  0
VERTEX
  8
LAYER-2
 10
11.376420
 20
17.978519
 30
0.000000
  0
VERTEX
  8
LAYER-2
 10
11.340597
 20
17.835503
 30
0.000000
  0
VERTEX
  8
LAYER-2
 10
11.318963
 20
17.689667
 30
0.000000
  0
VERTEX
  8
LAYER-2
 10
11.313697
 20
17.540441
 30
0.000000
  0
SEQEND
  8
LAYER-2
  0
POLYLINE
  8
LAYER-2
 66
  1
 70
  0
 62
  0
 10
12.816049
 20
19.286504
 30
0.000000
  0
VERTEX
  8
LAYER-2
 10
12.816049
 20
19.286504
 30
0.000000
  0
VERTEX
  8
LAYER-2
 10
12.642936
 20
19.280065
 30
0.000000
  0
VERTEX
  8
LAYER-2
 10
12.473441
 20
19.254924
 30
0.000000
  0
VERTEX
  8
LAYER-2
 10
12.307226
 20
19.213287
 30
0.000000
  0
VERTEX
  8
LAYER-2
 10
12.145891
 20
19.155562
 30
0.000000
  0
VERTEX
  8
LAYER-2
 10
11.990992
 20
19.082301
 30
0.000000
  0
VERTEX
  8
LAYER-2
 10
11.844020
 20
18.994208
 30
0.000000
  0
VERTEX
  8
LAYER-2
 10
11.706390
 20
18.892136
 30
0.000000
  0
VERTEX
  8
LAYER-2
 10
11.579428
 20
18.777062
 30
0.000000
  0
VERTEX
  8
LAYER-2
 10
11.464355
 20
18.650101
 30
0.000000
  0
VERTEX
  8
LAYER-2
 10
11.362282
 20
18.512472
 30
0.000000
  0
VERTEX
  8
LAYER-2
 10
11.274190
 20
18.365499
 30
0.000000
  0
VERTEX
  8
LAYER-2
 10
11.200928
 20
18.210598
 30
0.000000
  0
VERTEX
  8
LAYER-2
 10
11.143202
 20
18.049266
 30
0.000000
  0
VERTEX
  8
LAYER-2
 10
11.101568
 20
17.883050
 30
0.000000
  0
VERTEX
  8
LAYER-2
 10
11.076425
 20
17.713555
 30
0.000000
  0
VERTEX
  8
LAYER-2
 10
11.069986
 20
17.540441
 30
0.000000
  0
SEQEND
  8
LAYER-2
  0
POLYLINE
  8
LAYER-2
 66
  1
 70
  0
 62
  0
 10
11.313697
 20
17.540441
 30
0.000000
  0
VERTEX
  8
LAYER-2
 10
11.313697
 20
17.540441
 30
0.000000
  0
VERTEX
  8
LAYER-2
 10
12.816049
 20
17.540441
 30
0.000000
  0
SEQEND
  8
LAYER-2
  0
POLYLINE
  8
LAYER-2
 66
  1
 70
  0
 62
  0
 10
12.816049
 20
19.042794
 30
0.000000
  0
VERTEX
  8
LAYER-2
 10
12.816049
 20
19.042794
 30
0.000000
  0
VERTEX
  8
LAYER-2
 10
12.816049
 20
17.540441
 30
0.000000
  0
SEQEND
  8
LAYER-2
  0
POLYLINE
  8
LAYER-2
 66
  1
 70
  0
 62
  0
 10
11.897658
 20
17.540441
 30
0.000000
  0
VERTEX
  8
LAYER-2
 10
11.897658
 20
17.540441
 30
0.000000
  0
VERTEX
  8
LAYER-2
 10
11.897658
 20
17.540441
 30
0.000000
  0
SEQEND
  8
LAYER-2
  0
POLYLINE
  8
LAYER-2
 66
  1
 70
  0
 62
  0
 10
12.816049
 20
18.458832
 30
0.000000
  0
VERTEX
  8
LAYER-2
 10
12.816049
 20
18.458832
 30
0.000000
  0
VERTEX
  8
LAYER-2
 10
12.816049
 20
18.458832
 30
0.000000
  0
SEQEND
  8
LAYER-2
  0
ARC
  8
LAYER-2
 62
  0
 10
12.816049
 20
17.540441
 30
0.000000
 40
0.973707
 50
90.000000
 51
180.000000
  0
POLYLINE
  8
LAYER-2
 66
  1
 70
  1
 62
  0
  0
VERTEX
  8
LAYER-2
 10
11.842342
 20
17.540441
 30
0.000000
  0
VERTEX
  8
LAYER-2
 10
11.925676
 20
17.679330
 30
0.000000
  0
VERTEX
  8
LAYER-2
 10
11.842343
 20
17.679330
 30
0.000000
  0
VERTEX
  8
LAYER-2
 10
11.759009
 20
17.679330
 30
0.000000
  0
VERTEX
  8
LAYER-2
 10
11.842342
 20
17.540441
 30
0.000000
  0
SEQEND
  8
LAYER-2
  0
POLYLINE
  8
LAYER-2
 66
  1
 70
  1
 62
  0
  0
VERTEX
  8
LAYER-2
 10
12.816049
 20
18.514148
 30
0.000000
  0
VERTEX
  8
LAYER-2
 10
12.677160
 20
18.597482
 30
0.000000
  0
VERTEX
  8
LAYER-2
 10
12.677160
 20
18.514148
 30
0.000000
  0
VERTEX
  8
LAYER-2
 10
12.677160
 20
18.430815
 30
0.000000
  0
VERTEX
  8
LAYER-2
 10
12.816049
 20
18.514148
 30
0.000000
  0
SEQEND
  8
LAYER-2
  0
TEXT
  8
LAYER-2
 62
  0
 10
12.024717
 20
18.171306
 30
0.000000
 40
0.250000
  1
90.0°
  0
POLYLINE
  8
LAYER-2
 66
  1
 70
  0
 62
  0
 10
11.070484
 20
15.750858
 30
0.000000
  0
VERTEX
  8
LAYER-2
 10
11.070484
 20
15.750858
 30
0.000000
  0
VERTEX
  8
LAYER-2
 10
11.314288
 20
15.750858
 30
0.000000
  0
SEQEND
  8
LAYER-2
  0
TEXT
  8
LAYER-2
 62
  0
 10
0.083334
 20
24.173932
 30
0.000000
 40
0.291667
  1
GUIDA
 72
  5
 11
1.472223
 21
24.173932
 31
0.000000
  0
TEXT
  8
LAYER-2
 62
  0
 10
0.083334
 20
19.312820
 30
0.000000
 40
0.291667
  1
CURVE STANDARD
 72
  5
 11
3.833334
 21
19.312820
 31
0.000000
  0
TEXT
  8
LAYER-2
 62
  0
 10
1.750001
 20
16.423932
 30
0.000000
 40
0.250000
  1
45  -  14" (356mm)
 72
  5
 11
4.722223
 21
16.423932
 31
0.000000
  0
TEXT
  8
LAYER-2
 62
  0
 10
1.750001
 20
16.035043
 30
0.000000
 40
0.250000
  1
Raggio
 72
  5
 11
3.000001
 21
16.035043
 31
0.000000
  0
TEXT
  8
LAYER-2
 62
  0
 10
2.138890
 20
16.590598
 30
0.000000
 40
0.125000
  1
o
 72
  5
 11
2.361112
 21
16.590598
 31
0.000000
  0
TEXT
  8
LAYER-2
 62
  0
 10
6.972223
 20
16.423932
 30
0.000000
 40
0.250000
  1
90  -  14" (356mm)
 72
  5
 11
9.944445
 21
16.423932
 31
0.000000
  0
TEXT
  8
LAYER-2
 62
  0
 10
6.972223
 20
16.035043
 30
0.000000
 40
0.250000
  1
Raggio
 72
  5
 11
8.222223
 21
16.035043
 31
0.000000
  0
TEXT
  8
LAYER-2
 62
  0
 10
7.361112
 20
16.590598
 30
0.000000
 40
0.125000
  1
o
 72
  5
 11
7.583334
 21
16.590598
 31
0.000000
  0
TEXT
  8
LAYER-2
 62
  0
 10
11.611112
 20
16.423932
 30
0.000000
 40
0.250000
  1
90  -  10" (254mm)
 72
  5
 11
14.583334
 21
16.423932
 31
0.000000
  0
TEXT
  8
LAYER-2
 62
  0
 10
11.611112
 20
16.035043
 30
0.000000
 40
0.250000
  1
Raggio
 72
  5
 11
12.861112
 21
16.035043
 31
0.000000
  0
TEXT
  8
LAYER-2
 62
  0
 10
12.000001
 20
16.590598
 30
0.000000
 40
0.125000
  1
o
 72
  5
 11
12.222223
 21
16.590598
 31
0.000000
  0
TEXT
  8
LAYER-2
 62
  0
 10
0.083334
 20
14.729487
 30
0.000000
 40
0.291667
  1
ANGOLO DI TAGLIO A MISURA
 72
  5
 11
6.083334
 21
14.729487
 31
0.000000
  0
POLYLINE
  8
LAYER-2
 66
  1
 70
  0
 62
  0
 10
6.642238
 20
21.838526
 30
0.000000
  0
VERTEX
  8
LAYER-2
 10
6.642238
 20
21.838526
 30
0.000000
  0
VERTEX
  8
LAYER-2
 10
6.100044
 20
21.983807
 30
0.000000
  0
SEQEND
  8
LAYER-2
  0
ARC
  8
LAYER-2
 62
  0
 10
6.638429
 20
21.824310
 30
0.000000
 40
0.014718
 50
0.000000
 51
74.998535
  0
POLYLINE
  8
LAYER-2
 66
  1
 70
  0
 62
  0
 10
6.820695
 20
21.779416
 30
0.000000
  0
VERTEX
  8
LAYER-2
 10
6.820695
 20
21.779416
 30
0.000000
  0
VERTEX
  8
LAYER-2
 10
6.820695
 20
20.357824
 30
0.000000
  0
SEQEND
  8
LAYER-2
  0
POLYLINE
  8
LAYER-2
 66
  1
 70
  0
 62
  0
 10
5.917257
 20
22.013604
 30
0.000000
  0
VERTEX
  8
LAYER-2
 10
5.917257
 20
22.013604
 30
0.000000
  0
VERTEX
  8
LAYER-2
 10
5.917257
 20
20.592012
 30
0.000000
  0
SEQEND
  8
LAYER-2
  0
ARC
  8
LAYER-2
 62
  0
 10
5.931975
 20
22.013604
 30
0.000000
 40
0.014718
 50
75.001892
 51
180.000000
  0
POLYLINE
  8
LAYER-2
 66
  1
 70
  0
 62
  0
 10
5.976391
 20
21.849421
 30
0.000000
  0
VERTEX
  8
LAYER-2
 10
5.976391
 20
21.849421
 30
0.000000
  0
VERTEX
  8
LAYER-2
 10
5.976391
 20
20.924581
 30
0.000000
  0
SEQEND
  8
LAYER-2
  0
ARC
  8
LAYER-2
 62
  0
 10
5.991109
 20
20.924581
 30
0.000000
 40
0.014718
 50
180.000000
 51
225.000000
  0
POLYLINE
  8
LAYER-2
 66
  1
 70
  0
 62
  0
 10
6.139009
 20
21.883491
 30
0.000000
  0
VERTEX
  8
LAYER-2
 10
6.139009
 20
21.883491
 30
0.000000
  0
VERTEX
  8
LAYER-2
 10
6.139009
 20
21.817732
 30
0.000000
  0
SEQEND
  8
LAYER-2
  0
ARC
  8
LAYER-2
 62
  0
 10
6.153727
 20
21.883491
 30
0.000000
 40
0.014718
 50
75.001892
 51
180.000000
  0
POLYLINE
  8
LAYER-2
 66
  1
 70
  0
 62
  0
 10
6.162006
 20
21.764089
 30
0.000000
  0
VERTEX
  8
LAYER-2
 10
6.162006
 20
21.764089
 30
0.000000
  0
VERTEX
  8
LAYER-2
 10
6.162006
 20
21.794630
 30
0.000000
  0
SEQEND
  8
LAYER-2
  0
ARC
  8
LAYER-2
 62
  0
 10
6.150967
 20
21.794630
 30
0.000000
 40
0.011038
 50
0.000000
 51
75.001312
  0
ARC
  8
LAYER-2
 62
  0
 10
6.147288
 20
21.764089
 30
0.000000
 40
0.014718
 50
255.001907
 51
0.000000
  0
POLYLINE
  8
LAYER-2
 66
  1
 70
  0
 62
  0
 10
6.567730
 20
21.680001
 30
0.000000
  0
VERTEX
  8
LAYER-2
 10
6.567730
 20
21.680001
 30
0.000000
  0
VERTEX
  8
LAYER-2
 10
6.567730
 20
21.647488
 30
0.000000
  0
SEQEND
  8
LAYER-2
  0
ARC
  8
LAYER-2
 62
  0
 10
6.578768
 20
21.680001
 30
0.000000
 40
0.011038
 50
75.001312
 51
180.000000
  0
POLYLINE
  8
LAYER-2
 66
  1
 70
  0
 62
  0
 10
6.598940
 20
21.768141
 30
0.000000
  0
VERTEX
  8
LAYER-2
 10
6.598940
 20
21.768141
 30
0.000000
  0
VERTEX
  8
LAYER-2
 10
6.598940
 20
21.700409
 30
0.000000
  0
SEQEND
  8
LAYER-2
  0
ARC
  8
LAYER-2
 62
  0
 10
6.587902
 20
21.700409
 30
0.000000
 40
0.011038
 50
255.001312
 51
0.000000
  0
ARC
  8
LAYER-2
 62
  0
 10
6.584223
 20
21.768141
 30
0.000000
 40
0.014718
 50
0.000000
 51
74.998535
  0
POLYLINE
  8
LAYER-2
 66
  1
 70
  0
 62
  0
 10
6.766487
 20
21.645603
 30
0.000000
  0
VERTEX
  8
LAYER-2
 10
6.766487
 20
21.645603
 30
0.000000
  0
VERTEX
  8
LAYER-2
 10
6.766487
 20
20.721168
 30
0.000000
  0
SEQEND
  8
LAYER-2
  0
ARC
  8
LAYER-2
 62
  0
 10
6.751768
 20
21.645603
 30
0.000000
 40
0.014718
 50
0.000000
 51
75.001892
  0
POLYLINE
  8
LAYER-2
 66
  1
 70
  0
 62
  0
 10
6.001030
 20
20.749295
 30
0.000000
  0
VERTEX
  8
LAYER-2
 10
6.001030
 20
20.749295
 30
0.000000
  0
VERTEX
  8
LAYER-2
 10
6.001030
 20
20.887750
 30
0.000000
  0
SEQEND
  8
LAYER-2
  0
POLYLINE
  8
LAYER-2
 66
  1
 70
  0
 62
  0
 10
6.733635
 20
20.565325
 30
0.000000
  0
VERTEX
  8
LAYER-2
 10
6.733635
 20
20.565325
 30
0.000000
  0
VERTEX
  8
LAYER-2
 10
6.733635
 20
20.689777
 30
0.000000
  0
SEQEND
  8
LAYER-2
  0
ARC
  8
LAYER-2
 62
  0
 10
6.748353
 20
20.689777
 30
0.000000
 40
0.014718
 50
104.998108
 51
180.000000
  0
POLYLINE
  8
LAYER-2
 66
  1
 70
  0
 62
  0
 10
6.217855
 20
20.600293
 30
0.000000
  0
VERTEX
  8
LAYER-2
 10
6.217855
 20
20.600293
 30
0.000000
  0
VERTEX
  8
LAYER-2
 10
6.217855
 20
20.519355
 30
0.000000
  0
SEQEND
  8
LAYER-2
  0
POLYLINE
  8
LAYER-2
 66
  1
 70
  0
 62
  0
 10
6.525022
 20
20.524323
 30
0.000000
  0
VERTEX
  8
LAYER-2
 10
6.525022
 20
20.524323
 30
0.000000
  0
VERTEX
  8
LAYER-2
 10
6.525022
 20
20.429162
 30
0.000000
  0
SEQEND
  8
LAYER-2
  0
POLYLINE
  8
LAYER-2
 66
  1
 70
  0
 62
  0
 10
6.157536
 20
21.897708
 30
0.000000
  0
VERTEX
  8
LAYER-2
 10
6.157536
 20
21.897708
 30
0.000000
  0
VERTEX
  8
LAYER-2
 10
6.588032
 20
21.782355
 30
0.000000
  0
SEQEND
  8
LAYER-2
  0
POLYLINE
  8
LAYER-2
 66
  1
 70
  0
 62
  0
 10
6.001030
 20
20.749296
 30
0.000000
  0
VERTEX
  8
LAYER-2
 10
6.001030
 20
20.749296
 30
0.000000
  0
VERTEX
  8
LAYER-2
 10
6.020718
 20
20.685438
 30
0.000000
  0
VERTEX
  8
LAYER-2
 10
6.065917
 20
20.632907
 30
0.000000
  0
VERTEX
  8
LAYER-2
 10
6.114370
 20
20.604747
 30
0.000000
  0
SEQEND
  8
LAYER-2
  0
POLYLINE
  8
LAYER-2
 66
  1
 70
  0
 62
  0
 10
6.114371
 20
20.604747
 30
0.000000
  0
VERTEX
  8
LAYER-2
 10
6.114371
 20
20.604747
 30
0.000000
  0
VERTEX
  8
LAYER-2
 10
6.161981
 20
20.607612
 30
0.000000
  0
VERTEX
  8
LAYER-2
 10
6.193216
 20
20.631027
 30
0.000000
  0
SEQEND
  8
LAYER-2
  0
POLYLINE
  8
LAYER-2
 66
  1
 70
  0
 62
  0
 10
6.638363
 20
20.473338
 30
0.000000
  0
VERTEX
  8
LAYER-2
 10
6.638363
 20
20.473338
 30
0.000000
  0
VERTEX
  8
LAYER-2
 10
6.677006
 20
20.488515
 30
0.000000
  0
VERTEX
  8
LAYER-2
 10
6.709472
 20
20.516262
 30
0.000000
  0
VERTEX
  8
LAYER-2
 10
6.728848
 20
20.554320
 30
0.000000
  0
VERTEX
  8
LAYER-2
 10
6.733635
 20
20.565325
 30
0.000000
  0
SEQEND
  8
LAYER-2
  0
POLYLINE
  8
LAYER-2
 66
  1
 70
  0
 62
  0
 10
6.549661
 20
20.539042
 30
0.000000
  0
VERTEX
  8
LAYER-2
 10
6.549661
 20
20.539042
 30
0.000000
  0
VERTEX
  8
LAYER-2
 10
6.569427
 20
20.506931
 30
0.000000
  0
VERTEX
  8
LAYER-2
 10
6.602548
 20
20.483763
 30
0.000000
  0
VERTEX
  8
LAYER-2
 10
6.638362
 20
20.473338
 30
0.000000
  0
SEQEND
  8
LAYER-2
  0
POLYLINE
  8
LAYER-2
 66
  1
 70
  0
 62
  0
 10
6.182128
 20
20.409278
 30
0.000000
  0
VERTEX
  8
LAYER-2
 10
6.182128
 20
20.409278
 30
0.000000
  0
VERTEX
  8
LAYER-2
 10
6.198162
 20
20.438588
 30
0.000000
  0
VERTEX
  8
LAYER-2
 10
6.204329
 20
20.470740
 30
0.000000
  0
VERTEX
  8
LAYER-2
 10
6.197722
 20
20.502806
 30
0.000000
  0
VERTEX
  8
LAYER-2
 10
6.197859
 20
20.504873
 30
0.000000
  0
SEQEND
  8
LAYER-2
  0
POLYLINE
  8
LAYER-2
 66
  1
 70
  0
 62
  0
 10
6.150096
 20
20.448697
 30
0.000000
  0
VERTEX
  8
LAYER-2
 10
6.150096
 20
20.448697
 30
0.000000
  0
VERTEX
  8
LAYER-2
 10
6.159052
 20
20.485358
 30
0.000000
  0
VERTEX
  8
LAYER-2
 10
6.142245
 20
20.517612
 30
0.000000
  0
VERTEX
  8
LAYER-2
 10
6.131290
 20
20.523366
 30
0.000000
  0
SEQEND
  8
LAYER-2
  0
POLYLINE
  8
LAYER-2
 66
  1
 70
  0
 62
  0
 10
6.059067
 20
20.542718
 30
0.000000
  0
VERTEX
  8
LAYER-2
 10
6.059067
 20
20.542718
 30
0.000000
  0
VERTEX
  8
LAYER-2
 10
6.048156
 20
20.503425
 30
0.000000
  0
VERTEX
  8
LAYER-2
 10
6.055685
 20
20.461880
 30
0.000000
  0
VERTEX
  8
LAYER-2
 10
6.074948
 20
20.430628
 30
0.000000
  0
SEQEND
  8
LAYER-2
  0
POLYLINE
  8
LAYER-2
 66
  1
 70
  0
 62
  0
 10
6.193215
 20
20.631029
 30
0.000000
  0
VERTEX
  8
LAYER-2
 10
6.193215
 20
20.631029
 30
0.000000
  0
VERTEX
  8
LAYER-2
 10
6.213544
 20
20.610699
 30
0.000000
  0
SEQEND
  8
LAYER-2
  0
ARC
  8
LAYER-2
 62
  0
 10
6.203137
 20
20.600293
 30
0.000000
 40
0.014718
 50
0.000000
 51
45.000000
  0
POLYLINE
  8
LAYER-2
 66
  1
 70
  0
 62
  0
 10
6.549661
 20
20.539042
 30
0.000000
  0
VERTEX
  8
LAYER-2
 10
6.549661
 20
20.539042
 30
0.000000
  0
VERTEX
  8
LAYER-2
 10
6.539740
 20
20.539042
 30
0.000000
  0
SEQEND
  8
LAYER-2
  0
ARC
  8
LAYER-2
 62
  0
 10
6.539740
 20
20.524323
 30
0.000000
 40
0.014718
 50
90.000000
 51
180.000000
  0
POLYLINE
  8
LAYER-2
 66
  1
 70
  0
 62
  0
 10
5.996719
 20
20.898156
 30
0.000000
  0
VERTEX
  8
LAYER-2
 10
5.996719
 20
20.898156
 30
0.000000
  0
VERTEX
  8
LAYER-2
 10
5.980703
 20
20.914174
 30
0.000000
  0
SEQEND
  8
LAYER-2
  0
ARC
  8
LAYER-2
 62
  0
 10
5.986312
 20
20.887750
 30
0.000000
 40
0.014718
 50
0.000000
 51
45.000000
  0
POLYLINE
  8
LAYER-2
 66
  1
 70
  0
 62
  0
 10
6.074948
 20
20.430630
 30
0.000000
  0
VERTEX
  8
LAYER-2
 10
6.074948
 20
20.430630
 30
0.000000
  0
VERTEX
  8
LAYER-2
 10
6.103123
 20
20.431942
 30
0.000000
  0
VERTEX
  8
LAYER-2
 10
6.109442
 20
20.454858
 30
0.000000
  0
SEQEND
  8
LAYER-2
  0
POLYLINE
  8
LAYER-2
 66
  1
 70
  0
 62
  0
 10
5.965483
 20
22.019864
 30
0.000000
  0
VERTEX
  8
LAYER-2
 10
5.965483
 20
22.019864
 30
0.000000
  0
VERTEX
  8
LAYER-2
 10
5.935783
 20
22.027822
 30
0.000000
  0
SEQEND
  8
LAYER-2
  0
ARC
  8
LAYER-2
 62
  0
 10
5.961673
 20
22.005646
 30
0.000000
 40
0.014718
 50
0.000000
 51
74.998535
  0
POLYLINE
  8
LAYER-2
 66
  1
 70
  0
 62
  0
 10
5.976391
 20
21.957538
 30
0.000000
  0
VERTEX
  8
LAYER-2
 10
5.976391
 20
21.957538
 30
0.000000
  0
VERTEX
  8
LAYER-2
 10
5.976391
 20
22.005646
 30
0.000000
  0
SEQEND
  8
LAYER-2
  0
ARC
  8
LAYER-2
 62
  0
 10
5.991109
 20
21.957538
 30
0.000000
 40
0.014718
 50
180.000000
 51
254.998535
  0
POLYLINE
  8
LAYER-2
 66
  1
 70
  0
 62
  0
 10
6.809786
 20
21.793633
 30
0.000000
  0
VERTEX
  8
LAYER-2
 10
6.809786
 20
21.793633
 30
0.000000
  0
VERTEX
  8
LAYER-2
 10
6.785014
 20
21.800271
 30
0.000000
  0
SEQEND
  8
LAYER-2
  0
ARC
  8
LAYER-2
 62
  0
 10
6.781205
 20
21.786055
 30
0.000000
 40
0.014718
 50
75.001892
 51
180.000000
  0
ARC
  8
LAYER-2
 62
  0
 10
6.805978
 20
21.779416
 30
0.000000
 40
0.014718
 50
0.000000
 51
75.001892
  0
POLYLINE
  8
LAYER-2
 66
  1
 70
  0
 62
  0
 10
6.766487
 20
21.786055
 30
0.000000
  0
VERTEX
  8
LAYER-2
 10
6.766487
 20
21.786055
 30
0.000000
  0
VERTEX
  8
LAYER-2
 10
6.766487
 20
21.753720
 30
0.000000
  0
SEQEND
  8
LAYER-2
  0
POLYLINE
  8
LAYER-2
 66
  1
 70
  0
 62
  0
 10
6.062990
 20
21.923040
 30
0.000000
  0
VERTEX
  8
LAYER-2
 10
6.062990
 20
21.923040
 30
0.000000
  0
VERTEX
  8
LAYER-2
 10
5.987300
 20
21.943322
 30
0.000000
  0
SEQEND
  8
LAYER-2
  0
ARC
  8
LAYER-2
 62
  0
 10
6.066800
 20
21.937256
 30
0.000000
 40
0.014718
 50
254.998535
 51
0.000000
  0
POLYLINE
  8
LAYER-2
 66
  1
 70
  0
 62
  0
 10
6.081518
 20
21.969591
 30
0.000000
  0
VERTEX
  8
LAYER-2
 10
6.081518
 20
21.969591
 30
0.000000
  0
VERTEX
  8
LAYER-2
 10
6.081518
 20
21.937256
 30
0.000000
  0
SEQEND
  8
LAYER-2
  0
ARC
  8
LAYER-2
 62
  0
 10
6.096235
 20
21.969591
 30
0.000000
 40
0.014718
 50
75.001892
 51
180.000000
  0
POLYLINE
  8
LAYER-2
 66
  1
 70
  0
 62
  0
 10
5.994919
 20
21.863637
 30
0.000000
  0
VERTEX
  8
LAYER-2
 10
5.994919
 20
21.863637
 30
0.000000
  0
VERTEX
  8
LAYER-2
 10
6.070609
 20
21.843357
 30
0.000000
  0
SEQEND
  8
LAYER-2
  0
ARC
  8
LAYER-2
 62
  0
 10
5.991109
 20
21.849421
 30
0.000000
 40
0.014718
 50
74.998535
 51
180.000000
  0
POLYLINE
  8
LAYER-2
 66
  1
 70
  0
 62
  0
 10
6.081518
 20
21.829139
 30
0.000000
  0
VERTEX
  8
LAYER-2
 10
6.081518
 20
21.829139
 30
0.000000
  0
VERTEX
  8
LAYER-2
 10
6.081518
 20
21.777769
 30
0.000000
  0
SEQEND
  8
LAYER-2
  0
ARC
  8
LAYER-2
 62
  0
 10
6.066800
 20
21.829139
 30
0.000000
 40
0.014718
 50
0.000000
 51
74.998535
  0
POLYLINE
  8
LAYER-2
 66
  1
 70
  0
 62
  0
 10
6.092427
 20
21.763553
 30
0.000000
  0
VERTEX
  8
LAYER-2
 10
6.092427
 20
21.763553
 30
0.000000
  0
VERTEX
  8
LAYER-2
 10
6.143479
 20
21.749873
 30
0.000000
  0
SEQEND
  8
LAYER-2
  0
ARC
  8
LAYER-2
 62
  0
 10
6.096235
 20
21.777769
 30
0.000000
 40
0.014718
 50
180.000000
 51
255.001907
  0
POLYLINE
  8
LAYER-2
 66
  1
 70
  0
 62
  0
 10
6.578640
 20
21.633272
 30
0.000000
  0
VERTEX
  8
LAYER-2
 10
6.578640
 20
21.633272
 30
0.000000
  0
VERTEX
  8
LAYER-2
 10
6.634620
 20
21.618273
 30
0.000000
  0
SEQEND
  8
LAYER-2
  0
ARC
  8
LAYER-2
 62
  0
 10
6.582448
 20
21.647488
 30
0.000000
 40
0.014718
 50
180.000000
 51
255.001907
  0
POLYLINE
  8
LAYER-2
 66
  1
 70
  0
 62
  0
 10
6.653147
 20
21.776201
 30
0.000000
  0
VERTEX
  8
LAYER-2
 10
6.653147
 20
21.776201
 30
0.000000
  0
VERTEX
  8
LAYER-2
 10
6.653147
 20
21.824310
 30
0.000000
  0
SEQEND
  8
LAYER-2
  0
ARC
  8
LAYER-2
 62
  0
 10
6.667864
 20
21.776201
 30
0.000000
 40
0.014718
 50
180.000000
 51
254.998535
  0
POLYLINE
  8
LAYER-2
 66
  1
 70
  0
 62
  0
 10
6.747960
 20
21.739502
 30
0.000000
  0
VERTEX
  8
LAYER-2
 10
6.747960
 20
21.739502
 30
0.000000
  0
VERTEX
  8
LAYER-2
 10
6.664054
 20
21.761987
 30
0.000000
  0
SEQEND
  8
LAYER-2
  0
ARC
  8
LAYER-2
 62
  0
 10
6.751768
 20
21.753720
 30
0.000000
 40
0.014718
 50
254.998535
 51
0.000000
  0
POLYLINE
  8
LAYER-2
 66
  1
 70
  0
 62
  0
 10
6.671672
 20
21.682302
 30
0.000000
  0
VERTEX
  8
LAYER-2
 10
6.671672
 20
21.682302
 30
0.000000
  0
VERTEX
  8
LAYER-2
 10
6.755578
 20
21.659821
 30
0.000000
  0
SEQEND
  8
LAYER-2
  0
ARC
  8
LAYER-2
 62
  0
 10
6.667864
 20
21.668086
 30
0.000000
 40
0.014718
 50
75.001892
 51
180.000000
  0
POLYLINE
  8
LAYER-2
 66
  1
 70
  0
 62
  0
 10
6.653147
 20
21.632489
 30
0.000000
  0
VERTEX
  8
LAYER-2
 10
6.653147
 20
21.632489
 30
0.000000
  0
VERTEX
  8
LAYER-2
 10
6.653147
 20
21.668086
 30
0.000000
  0
SEQEND
  8
LAYER-2
  0
ARC
  8
LAYER-2
 62
  0
 10
6.638429
 20
21.632489
 30
0.000000
 40
0.014718
 50
255.001907
 51
0.000000
  0
POLYLINE
  8
LAYER-2
 66
  1
 70
  0
 62
  0
 10
6.585045
 20
21.689746
 30
0.000000
  0
VERTEX
  8
LAYER-2
 10
6.585045
 20
21.689746
 30
0.000000
  0
VERTEX
  8
LAYER-2
 10
6.581625
 20
21.690664
 30
0.000000
  0
SEQEND
  8
LAYER-2
  0
POLYLINE
  8
LAYER-2
 66
  1
 70
  0
 62
  0
 10
6.682318
 20
20.375722
 30
0.000000
  0
VERTEX
  8
LAYER-2
 10
6.682318
 20
20.375722
 30
0.000000
  0
VERTEX
  8
LAYER-2
 10
6.802168
 20
20.343608
 30
0.000000
  0
SEQEND
  8
LAYER-2
  0
ARC
  8
LAYER-2
 62
  0
 10
6.805978
 20
20.357824
 30
0.000000
 40
0.014718
 50
255.001907
 51
0.000000
  0
POLYLINE
  8
LAYER-2
 66
  1
 70
  0
 62
  0
 10
6.059068
 20
20.542721
 30
0.000000
  0
VERTEX
  8
LAYER-2
 10
6.059068
 20
20.542721
 30
0.000000
  0
VERTEX
  8
LAYER-2
 10
5.928165
 20
20.577796
 30
0.000000
  0
SEQEND
  8
LAYER-2
  0
ARC
  8
LAYER-2
 62
  0
 10
5.931975
 20
20.592012
 30
0.000000
 40
0.014718
 50
180.000000
 51
254.998535
  0
POLYLINE
  8
LAYER-2
 66
  1
 70
  0
 62
  0
 10
6.755578
 20
20.706950
 30
0.000000
  0
VERTEX
  8
LAYER-2
 10
6.755578
 20
20.706950
 30
0.000000
  0
VERTEX
  8
LAYER-2
 10
6.744543
 20
20.703993
 30
0.000000
  0
SEQEND
  8
LAYER-2
  0
ARC
  8
LAYER-2
 62
  0
 10
6.751768
 20
20.721168
 30
0.000000
 40
0.014718
 50
284.998108
 51
0.000000
  0
POLYLINE
  8
LAYER-2
 66
  1
 70
  0
 62
  0
 10
6.198025
 20
20.505488
 30
0.000000
  0
VERTEX
  8
LAYER-2
 10
6.198025
 20
20.505488
 30
0.000000
  0
VERTEX
  8
LAYER-2
 10
6.199327
 20
20.505137
 30
0.000000
  0
SEQEND
  8
LAYER-2
  0
ARC
  8
LAYER-2
 62
  0
 10
6.203137
 20
20.519355
 30
0.000000
 40
0.014718
 50
254.998535
 51
0.000000
  0
POLYLINE
  8
LAYER-2
 66
  1
 70
  0
 62
  0
 10
6.131290
 20
20.523368
 30
0.000000
  0
VERTEX
  8
LAYER-2
 10
6.131290
 20
20.523368
 30
0.000000
  0
VERTEX
  8
LAYER-2
 10
6.125805
 20
20.524838
 30
0.000000
  0
SEQEND
  8
LAYER-2
  0
ARC
  8
LAYER-2
 62
  0
 10
6.147475
 20
20.491981
 30
0.000000
 40
0.053796
 50
167.036560
 51
225.834183
  0
ARC
  8
LAYER-2
 62
  0
 10
6.121975
 20
20.497362
 30
0.000000
 40
0.027742
 50
82.065369
 51
166.055542
  0
POLYLINE
  8
LAYER-2
 66
  1
 70
  0
 62
  0
 10
6.666478
 20
20.279722
 30
0.000000
  0
VERTEX
  8
LAYER-2
 10
6.666478
 20
20.279722
 30
0.000000
  0
VERTEX
  8
LAYER-2
 10
6.682510
 20
20.309035
 30
0.000000
  0
VERTEX
  8
LAYER-2
 10
6.688677
 20
20.341187
 30
0.000000
  0
VERTEX
  8
LAYER-2
 10
6.682070
 20
20.373250
 30
0.000000
  0
VERTEX
  8
LAYER-2
 10
6.682209
 20
20.375317
 30
0.000000
  0
SEQEND
  8
LAYER-2
  0
POLYLINE
  8
LAYER-2
 66
  1
 70
  0
 62
  0
 10
6.634446
 20
20.319144
 30
0.000000
  0
VERTEX
  8
LAYER-2
 10
6.634446
 20
20.319144
 30
0.000000
  0
VERTEX
  8
LAYER-2
 10
6.643401
 20
20.355804
 30
0.000000
  0
VERTEX
  8
LAYER-2
 10
6.626595
 20
20.388060
 30
0.000000
  0
VERTEX
  8
LAYER-2
 10
6.615639
 20
20.393814
 30
0.000000
  0
SEQEND
  8
LAYER-2
  0
POLYLINE
  8
LAYER-2
 66
  1
 70
  0
 62
  0
 10
6.543416
 20
20.413166
 30
0.000000
  0
VERTEX
  8
LAYER-2
 10
6.543416
 20
20.413166
 30
0.000000
  0
VERTEX
  8
LAYER-2
 10
6.532505
 20
20.373871
 30
0.000000
  0
VERTEX
  8
LAYER-2
 10
6.540034
 20
20.332328
 30
0.000000
  0
VERTEX
  8
LAYER-2
 10
6.559297
 20
20.301076
 30
0.000000
  0
SEQEND
  8
LAYER-2
  0
POLYLINE
  8
LAYER-2
 66
  1
 70
  0
 62
  0
 10
6.559297
 20
20.301076
 30
0.000000
  0
VERTEX
  8
LAYER-2
 10
6.559297
 20
20.301076
 30
0.000000
  0
VERTEX
  8
LAYER-2
 10
6.587473
 20
20.302390
 30
0.000000
  0
VERTEX
  8
LAYER-2
 10
6.593792
 20
20.325304
 30
0.000000
  0
SEQEND
  8
LAYER-2
  0
POLYLINE
  8
LAYER-2
 66
  1
 70
  0
 62
  0
 10
6.543416
 20
20.412937
 30
0.000000
  0
VERTEX
  8
LAYER-2
 10
6.543416
 20
20.412937
 30
0.000000
  0
VERTEX
  8
LAYER-2
 10
6.535930
 20
20.414944
 30
0.000000
  0
SEQEND
  8
LAYER-2
  0
ARC
  8
LAYER-2
 62
  0
 10
6.539740
 20
20.429162
 30
0.000000
 40
0.014718
 50
180.000000
 51
254.998535
  0
POLYLINE
  8
LAYER-2
 66
  1
 70
  0
 62
  0
 10
6.147191
 20
21.807070
 30
0.000000
  0
VERTEX
  8
LAYER-2
 10
6.147191
 20
21.807070
 30
0.000000
  0
VERTEX
  8
LAYER-2
 10
6.153824
 20
21.805293
 30
0.000000
  0
SEQEND
  8
LAYER-2
  0
ARC
  8
LAYER-2
 62
  0
 10
6.150047
 20
21.817732
 30
0.000000
 40
0.011038
 50
180.000000
 51
255.001312
  0
ARC
  8
LAYER-2
 62
  0
 10
6.171834
 20
20.433638
 30
0.000000
 40
0.026446
 50
145.282684
 51
292.906250
  0
ARC
  8
LAYER-2
 62
  0
 10
6.656158
 20
20.304060
 30
0.000000
 40
0.026437
 50
145.212708
 51
292.976898
  0
POLYLINE
  8
LAYER-2
 66
  1
 70
  0
 62
  0
 10
6.817410
 20
21.788450
 30
0.000000
  0
VERTEX
  8
LAYER-2
 10
6.817410
 20
21.788450
 30
0.000000
  0
VERTEX
  8
LAYER-2
 10
9.562212
 20
22.523917
 30
0.000000
  0
SEQEND
  8
LAYER-2
  0
POLYLINE
  8
LAYER-2
 66
  1
 70
  0
 62
  0
 10
6.809558
 20
20.342787
 30
0.000000
  0
VERTEX
  8
LAYER-2
 10
6.809558
 20
20.342787
 30
0.000000
  0
VERTEX
  8
LAYER-2
 10
9.565498
 20
21.081238
 30
0.000000
  0
SEQEND
  8
LAYER-2
  0
POLYLINE
  8
LAYER-2
 66
  1
 70
  0
 62
  0
 10
6.776352
 20
21.800195
 30
0.000000
  0
VERTEX
  8
LAYER-2
 10
6.776352
 20
21.800195
 30
0.000000
  0
VERTEX
  8
LAYER-2
 10
9.520360
 20
22.535450
 30
0.000000
  0
SEQEND
  8
LAYER-2
  0
POLYLINE
  8
LAYER-2
 66
  1
 70
  0
 62
  0
 10
6.648809
 20
21.834420
 30
0.000000
  0
VERTEX
  8
LAYER-2
 10
6.648809
 20
21.834420
 30
0.000000
  0
VERTEX
  8
LAYER-2
 10
9.392917
 20
22.569700
 30
0.000000
  0
SEQEND
  8
LAYER-2
  0
POLYLINE
  8
LAYER-2
 66
  1
 70
  0
 62
  0
 10
6.089367
 20
21.983807
 30
0.000000
  0
VERTEX
  8
LAYER-2
 10
6.089367
 20
21.983807
 30
0.000000
  0
VERTEX
  8
LAYER-2
 10
8.834242
 20
22.719293
 30
0.000000
  0
SEQEND
  8
LAYER-2
  0
POLYLINE
  8
LAYER-2
 66
  1
 70
  0
 62
  0
 10
5.974518
 20
22.014114
 30
0.000000
  0
VERTEX
  8
LAYER-2
 10
5.974518
 20
22.014114
 30
0.000000
  0
VERTEX
  8
LAYER-2
 10
8.720651
 20
22.749937
 30
0.000000
  0
SEQEND
  8
LAYER-2
  0
POLYLINE
  8
LAYER-2
 66
  1
 70
  0
 62
  0
 10
5.925927
 20
22.027000
 30
0.000000
  0
VERTEX
  8
LAYER-2
 10
5.925927
 20
22.027000
 30
0.000000
  0
VERTEX
  8
LAYER-2
 10
8.671922
 20
22.762787
 30
0.000000
  0
SEQEND
  8
LAYER-2
  0
POLYLINE
  8
LAYER-2
 66
  1
 70
  0
 62
  0
 10
6.154605
 20
21.751592
 30
0.000000
  0
VERTEX
  8
LAYER-2
 10
6.154605
 20
21.751592
 30
0.000000
  0
VERTEX
  8
LAYER-2
 10
6.427069
 20
21.824599
 30
0.000000
  0
SEQEND
  8
LAYER-2
  0
POLYLINE
  8
LAYER-2
 66
  1
 70
  0
 62
  0
 10
6.159573
 20
21.802828
 30
0.000000
  0
VERTEX
  8
LAYER-2
 10
6.159573
 20
21.802828
 30
0.000000
  0
VERTEX
  8
LAYER-2
 10
6.335134
 20
21.849869
 30
0.000000
  0
SEQEND
  8
LAYER-2
  0
POLYLINE
  8
LAYER-2
 66
  1
 70
  0
 62
  0
 10
6.139009
 20
21.815267
 30
0.000000
  0
VERTEX
  8
LAYER-2
 10
6.139009
 20
21.815267
 30
0.000000
  0
VERTEX
  8
LAYER-2
 10
6.301076
 20
21.858695
 30
0.000000
  0
SEQEND
  8
LAYER-2
  0
POLYLINE
  8
LAYER-2
 66
  1
 70
  0
 62
  0
 10
6.640827
 20
21.617706
 30
0.000000
  0
VERTEX
  8
LAYER-2
 10
6.640827
 20
21.617706
 30
0.000000
  0
VERTEX
  8
LAYER-2
 10
6.765239
 20
21.651042
 30
0.000000
  0
SEQEND
  8
LAYER-2
  0
POLYLINE
  8
LAYER-2
 66
  1
 70
  0
 62
  0
 10
5.999388
 20
20.895138
 30
0.000000
  0
VERTEX
  8
LAYER-2
 10
5.999388
 20
20.895138
 30
0.000000
  0
VERTEX
  8
LAYER-2
 10
6.767342
 20
21.100911
 30
0.000000
  0
SEQEND
  8
LAYER-2
  0
POLYLINE
  8
LAYER-2
 66
  1
 70
  0
 62
  0
 10
5.978033
 20
20.918833
 30
0.000000
  0
VERTEX
  8
LAYER-2
 10
5.978033
 20
20.918833
 30
0.000000
  0
VERTEX
  8
LAYER-2
 10
6.767586
 20
21.130391
 30
0.000000
  0
SEQEND
  8
LAYER-2
  0
POLYLINE
  8
LAYER-2
 66
  1
 70
  0
 62
  0
 10
6.193215
 20
20.631029
 30
0.000000
  0
VERTEX
  8
LAYER-2
 10
6.193215
 20
20.631029
 30
0.000000
  0
VERTEX
  8
LAYER-2
 10
6.766482
 20
20.784634
 30
0.000000
  0
SEQEND
  8
LAYER-2
  0
POLYLINE
  8
LAYER-2
 66
  1
 70
  0
 62
  0
 10
6.216213
 20
20.606861
 30
0.000000
  0
VERTEX
  8
LAYER-2
 10
6.216213
 20
20.606861
 30
0.000000
  0
VERTEX
  8
LAYER-2
 10
6.765440
 20
20.754027
 30
0.000000
  0
SEQEND
  8
LAYER-2
  0
POLYLINE
  8
LAYER-2
 66
  1
 70
  0
 62
  0
 10
6.209634
 20
20.506036
 30
0.000000
  0
VERTEX
  8
LAYER-2
 10
6.209634
 20
20.506036
 30
0.000000
  0
VERTEX
  8
LAYER-2
 10
6.734094
 20
20.646566
 30
0.000000
  0
SEQEND
  8
LAYER-2
  0
POLYLINE
  8
LAYER-2
 66
  1
 70
  0
 62
  0
 10
6.179665
 20
20.408456
 30
0.000000
  0
VERTEX
  8
LAYER-2
 10
6.179665
 20
20.408456
 30
0.000000
  0
VERTEX
  8
LAYER-2
 10
6.524885
 20
20.500956
 30
0.000000
  0
SEQEND
  8
LAYER-2
  0
POLYLINE
  8
LAYER-2
 66
  1
 70
  0
 62
  0
 10
6.109994
 20
20.453389
 30
0.000000
  0
VERTEX
  8
LAYER-2
 10
6.109994
 20
20.453389
 30
0.000000
  0
VERTEX
  8
LAYER-2
 10
6.159568
 20
20.466675
 30
0.000000
  0
SEQEND
  8
LAYER-2
  0
POLYLINE
  8
LAYER-2
 66
  1
 70
  0
 62
  0
 10
6.666478
 20
20.279722
 30
0.000000
  0
VERTEX
  8
LAYER-2
 10
6.666478
 20
20.279722
 30
0.000000
  0
VERTEX
  8
LAYER-2
 10
9.425060
 20
21.018880
 30
0.000000
  0
SEQEND
  8
LAYER-2
  0
POLYLINE
  8
LAYER-2
 66
  1
 70
  0
 62
  0
 10
6.095482
 20
20.424059
 30
0.000000
  0
VERTEX
  8
LAYER-2
 10
6.095482
 20
20.424059
 30
0.000000
  0
VERTEX
  8
LAYER-2
 10
6.144744
 20
20.437259
 30
0.000000
  0
SEQEND
  8
LAYER-2
  0
POLYLINE
  8
LAYER-2
 66
  1
 70
  0
 62
  0
 10
6.593791
 20
20.325304
 30
0.000000
  0
VERTEX
  8
LAYER-2
 10
6.593791
 20
20.325304
 30
0.000000
  0
VERTEX
  8
LAYER-2
 10
6.644112
 20
20.338786
 30
0.000000
  0
SEQEND
  8
LAYER-2
  0
POLYLINE
  8
LAYER-2
 66
  1
 70
  0
 62
  0
 10
6.579230
 20
20.294295
 30
0.000000
  0
VERTEX
  8
LAYER-2
 10
6.579230
 20
20.294295
 30
0.000000
  0
VERTEX
  8
LAYER-2
 10
6.630151
 20
20.307938
 30
0.000000
  0
SEQEND
  8
LAYER-2
  0
POLYLINE
  8
LAYER-2
 66
  1
 70
  0
 62
  0
 10
6.571837
 20
21.689690
 30
0.000000
  0
VERTEX
  8
LAYER-2
 10
6.571837
 20
21.689690
 30
0.000000
  0
VERTEX
  8
LAYER-2
 10
6.598768
 20
21.696906
 30
0.000000
  0
SEQEND
  8
LAYER-2
  0
POLYLINE
  8
LAYER-2
 66
  1
 70
  0
 62
  0
 10
9.565498
 20
21.081238
 30
0.000000
  0
VERTEX
  8
LAYER-2
 10
9.565498
 20
21.081238
 30
0.000000
  0
VERTEX
  8
LAYER-2
 10
9.565498
 20
22.514103
 30
0.000000
  0
SEQEND
  8
LAYER-2
  0
POLYLINE
  8
LAYER-2
 66
  1
 70
  0
 62
  0
 10
9.424527
 20
21.019409
 30
0.000000
  0
VERTEX
  8
LAYER-2
 10
9.424527
 20
21.019409
 30
0.000000
  0
VERTEX
  8
LAYER-2
 10
9.440702
 20
21.048628
 30
0.000000
  0
VERTEX
  8
LAYER-2
 10
9.443453
 20
21.048631
 30
0.000000
  0
SEQEND
  8
LAYER-2
  0
POLYLINE
  8
LAYER-2
 66
  1
 70
  0
 62
  0
 10
9.385401
 20
22.573652
 30
0.000000
  0
VERTEX
  8
LAYER-2
 10
9.385401
 20
22.573652
 30
0.000000
  0
VERTEX
  8
LAYER-2
 10
8.841860
 20
22.719293
 30
0.000000
  0
SEQEND
  8
LAYER-2
  0
ARC
  8
LAYER-2
 62
  0
 10
8.838052
 20
22.705076
 30
0.000000
 40
0.014718
 50
75.001892
 51
104.998108
  0
ARC
  8
LAYER-2
 62
  0
 10
9.381592
 20
22.559436
 30
0.000000
 40
0.014718
 50
0.000000
 51
75.001892
  0
ARC
  8
LAYER-2
 62
  0
 10
9.550780
 20
22.514103
 30
0.000000
 40
0.014718
 50
0.000000
 51
74.998535
  0
POLYLINE
  8
LAYER-2
 66
  1
 70
  0
 62
  0
 10
9.396310
 20
22.559436
 30
0.000000
  0
VERTEX
  8
LAYER-2
 10
9.396310
 20
22.559436
 30
0.000000
  0
VERTEX
  8
LAYER-2
 10
9.396310
 20
22.513431
 30
0.000000
  0
SEQEND
  8
LAYER-2
  0
POLYLINE
  8
LAYER-2
 66
  1
 70
  0
 62
  0
 10
9.554591
 20
22.528319
 30
0.000000
  0
VERTEX
  8
LAYER-2
 10
9.554591
 20
22.528319
 30
0.000000
  0
VERTEX
  8
LAYER-2
 10
9.527980
 20
22.535450
 30
0.000000
  0
SEQEND
  8
LAYER-2
  0
ARC
  8
LAYER-2
 62
  0
 10
9.524171
 20
22.521233
 30
0.000000
 40
0.014718
 50
74.998535
 51
105.001465
  0
POLYLINE
  8
LAYER-2
 66
  1
 70
  0
 62
  0
 10
8.679543
 20
22.762787
 30
0.000000
  0
VERTEX
  8
LAYER-2
 10
8.679543
 20
22.762787
 30
0.000000
  0
VERTEX
  8
LAYER-2
 10
8.713164
 20
22.753777
 30
0.000000
  0
SEQEND
  8
LAYER-2
  0
ARC
  8
LAYER-2
 62
  0
 10
8.675733
 20
22.748569
 30
0.000000
 40
0.014718
 50
74.998535
 51
105.001465
  0
POLYLINE
  8
LAYER-2
 66
  1
 70
  0
 62
  0
 10
8.724070
 20
22.739561
 30
0.000000
  0
VERTEX
  8
LAYER-2
 10
8.724070
 20
22.739561
 30
0.000000
  0
VERTEX
  8
LAYER-2
 10
8.724070
 20
22.696845
 30
0.000000
  0
SEQEND
  8
LAYER-2
  0
ARC
  8
LAYER-2
 62
  0
 10
8.709352
 20
22.739561
 30
0.000000
 40
0.014718
 50
0.000000
 51
74.998535
  0
ARC
  8
LAYER-2
 62
  0
 10
9.411029
 20
22.513431
 30
0.000000
 40
0.014718
 50
180.000000
 51
217.500793
  0
POLYLINE
  8
LAYER-2
 66
  1
 70
  0
 62
  0
 10
6.656188
 20
21.767242
 30
0.000000
  0
VERTEX
  8
LAYER-2
 10
6.656188
 20
21.767242
 30
0.000000
  0
VERTEX
  8
LAYER-2
 10
6.776541
 20
21.799491
 30
0.000000
  0
SEQEND
  8
LAYER-2
  0
ARC
  8
LAYER-2
 62
  0
 10
8.738788
 20
22.696845
 30
0.000000
 40
0.014718
 50
180.000000
 51
201.578766
  0
POLYLINE
  8
LAYER-2
 66
  1
 70
  0
 62
  0
 10
5.979433
 20
21.948578
 30
0.000000
  0
VERTEX
  8
LAYER-2
 10
5.979433
 20
21.948578
 30
0.000000
  0
VERTEX
  8
LAYER-2
 10
6.083983
 20
21.976593
 30
0.000000
  0
SEQEND
  8
LAYER-2
  0
POLYLINE
  8
LAYER-2
 66
  1
 70
  0
 62
  0
 10
11.682492
 20
23.207618
 30
0.000000
  0
VERTEX
  8
LAYER-2
 10
11.682492
 20
23.207618
 30
0.000000
  0
VERTEX
  8
LAYER-2
 10
11.140295
 20
23.352897
 30
0.000000
  0
SEQEND
  8
LAYER-2
  0
ARC
  8
LAYER-2
 62
  0
 10
11.678682
 20
23.193400
 30
0.000000
 40
0.014718
 50
0.000000
 51
74.998535
  0
POLYLINE
  8
LAYER-2
 66
  1
 70
  0
 62
  0
 10
11.860948
 20
23.148507
 30
0.000000
  0
VERTEX
  8
LAYER-2
 10
11.860948
 20
23.148507
 30
0.000000
  0
VERTEX
  8
LAYER-2
 10
11.860948
 20
21.726915
 30
0.000000
  0
SEQEND
  8
LAYER-2
  0
POLYLINE
  8
LAYER-2
 66
  1
 70
  0
 62
  0
 10
10.957509
 20
22.879242
 30
0.000000
  0
VERTEX
  8
LAYER-2
 10
10.957509
 20
22.879242
 30
0.000000
  0
VERTEX
  8
LAYER-2
 10
10.957509
 20
21.961102
 30
0.000000
  0
SEQEND
  8
LAYER-2
  0
ARC
  8
LAYER-2
 62
  0
 10
10.972226
 20
23.382696
 30
0.000000
 40
0.014718
 50
75.001892
 51
180.000000
  0
POLYLINE
  8
LAYER-2
 66
  1
 70
  0
 62
  0
 10
11.016643
 20
22.895087
 30
0.000000
  0
VERTEX
  8
LAYER-2
 10
11.016643
 20
22.895087
 30
0.000000
  0
VERTEX
  8
LAYER-2
 10
11.016643
 20
22.293671
 30
0.000000
  0
SEQEND
  8
LAYER-2
  0
ARC
  8
LAYER-2
 62
  0
 10
11.031361
 20
22.293671
 30
0.000000
 40
0.014718
 50
180.000000
 51
225.000000
  0
ARC
  8
LAYER-2
 62
  0
 10
11.193977
 20
23.252580
 30
0.000000
 40
0.014718
 50
75.001907
 51
127.495239
  0
POLYLINE
  8
LAYER-2
 66
  1
 70
  0
 62
  0
 10
11.607982
 20
23.049091
 30
0.000000
  0
VERTEX
  8
LAYER-2
 10
11.607982
 20
23.049091
 30
0.000000
  0
VERTEX
  8
LAYER-2
 10
11.607982
 20
23.016580
 30
0.000000
  0
SEQEND
  8
LAYER-2
  0
ARC
  8
LAYER-2
 62
  0
 10
11.619021
 20
23.049091
 30
0.000000
 40
0.011038
 50
155.840973
 51
180.000000
  0
POLYLINE
  8
LAYER-2
 66
  1
 70
  0
 62
  0
 10
11.196143
 20
23.267239
 30
0.000000
  0
VERTEX
  8
LAYER-2
 10
11.196143
 20
23.267239
 30
0.000000
  0
VERTEX
  8
LAYER-2
 10
10.233305
 20
23.009247
 30
0.000000
  0
SEQEND
  8
LAYER-2
  0
POLYLINE
  8
LAYER-2
 66
  1
 70
  0
 62
  0
 10
11.196143
 20
23.267239
 30
0.000000
  0
VERTEX
  8
LAYER-2
 10
11.196143
 20
23.267239
 30
0.000000
  0
VERTEX
  8
LAYER-2
 10
11.628285
 20
23.151447
 30
0.000000
  0
SEQEND
  8
LAYER-2
  0
ARC
  8
LAYER-2
 62
  0
 10
11.624475
 20
23.137231
 30
0.000000
 40
0.014718
 50
0.000000
 51
74.998535
  0
POLYLINE
  8
LAYER-2
 66
  1
 70
  0
 62
  0
 10
11.639193
 20
23.137231
 30
0.000000
  0
VERTEX
  8
LAYER-2
 10
11.639193
 20
23.137231
 30
0.000000
  0
VERTEX
  8
LAYER-2
 10
11.639193
 20
23.069499
 30
0.000000
  0
SEQEND
  8
LAYER-2
  0
ARC
  8
LAYER-2
 62
  0
 10
11.628155
 20
23.069499
 30
0.000000
 40
0.011038
 50
307.497528
 51
0.000000
  0
POLYLINE
  8
LAYER-2
 66
  1
 70
  0
 62
  0
 10
11.634874
 20
23.060740
 30
0.000000
  0
VERTEX
  8
LAYER-2
 10
11.634874
 20
23.060740
 30
0.000000
  0
VERTEX
  8
LAYER-2
 10
10.679188
 20
22.804667
 30
0.000000
  0
SEQEND
  8
LAYER-2
  0
POLYLINE
  8
LAYER-2
 66
  1
 70
  0
 62
  0
 10
10.679188
 20
22.804667
 30
0.000000
  0
VERTEX
  8
LAYER-2
 10
10.679188
 20
22.804667
 30
0.000000
  0
VERTEX
  8
LAYER-2
 10
10.233305
 20
22.924140
 30
0.000000
  0
SEQEND
  8
LAYER-2
  0
POLYLINE
  8
LAYER-2
 66
  1
 70
  0
 62
  0
 10
10.233305
 20
23.009247
 30
0.000000
  0
VERTEX
  8
LAYER-2
 10
10.233305
 20
23.009247
 30
0.000000
  0
VERTEX
  8
LAYER-2
 10
10.233305
 20
22.924140
 30
0.000000
  0
SEQEND
  8
LAYER-2
  0
POLYLINE
  8
LAYER-2
 66
  1
 70
  0
 62
  0
 10
11.806741
 20
23.014694
 30
0.000000
  0
VERTEX
  8
LAYER-2
 10
11.806741
 20
23.014694
 30
0.000000
  0
VERTEX
  8
LAYER-2
 10
11.806741
 20
22.090256
 30
0.000000
  0
SEQEND
  8
LAYER-2
  0
ARC
  8
LAYER-2
 62
  0
 10
11.792024
 20
23.014694
 30
0.000000
 40
0.014718
 50
0.000000
 51
75.001892
  0
POLYLINE
  8
LAYER-2
 66
  1
 70
  0
 62
  0
 10
11.041281
 20
22.118384
 30
0.000000
  0
VERTEX
  8
LAYER-2
 10
11.041281
 20
22.118384
 30
0.000000
  0
VERTEX
  8
LAYER-2
 10
11.041281
 20
22.256839
 30
0.000000
  0
SEQEND
  8
LAYER-2
  0
POLYLINE
  8
LAYER-2
 66
  1
 70
  0
 62
  0
 10
11.773888
 20
21.934413
 30
0.000000
  0
VERTEX
  8
LAYER-2
 10
11.773888
 20
21.934413
 30
0.000000
  0
VERTEX
  8
LAYER-2
 10
11.773888
 20
22.058865
 30
0.000000
  0
SEQEND
  8
LAYER-2
  0
ARC
  8
LAYER-2
 62
  0
 10
11.788606
 20
22.058865
 30
0.000000
 40
0.014718
 50
104.998108
 51
180.000000
  0
POLYLINE
  8
LAYER-2
 66
  1
 70
  0
 62
  0
 10
11.258106
 20
21.969382
 30
0.000000
  0
VERTEX
  8
LAYER-2
 10
11.258106
 20
21.969382
 30
0.000000
  0
VERTEX
  8
LAYER-2
 10
11.258106
 20
21.888443
 30
0.000000
  0
SEQEND
  8
LAYER-2
  0
POLYLINE
  8
LAYER-2
 66
  1
 70
  0
 62
  0
 10
11.565277
 20
21.893412
 30
0.000000
  0
VERTEX
  8
LAYER-2
 10
11.565277
 20
21.893412
 30
0.000000
  0
VERTEX
  8
LAYER-2
 10
11.565277
 20
21.798250
 30
0.000000
  0
SEQEND
  8
LAYER-2
  0
POLYLINE
  8
LAYER-2
 66
  1
 70
  0
 62
  0
 10
11.041281
 20
22.118386
 30
0.000000
  0
VERTEX
  8
LAYER-2
 10
11.041281
 20
22.118386
 30
0.000000
  0
VERTEX
  8
LAYER-2
 10
11.060969
 20
22.054528
 30
0.000000
  0
VERTEX
  8
LAYER-2
 10
11.106169
 20
22.001999
 30
0.000000
  0
VERTEX
  8
LAYER-2
 10
11.154621
 20
21.973836
 30
0.000000
  0
SEQEND
  8
LAYER-2
  0
POLYLINE
  8
LAYER-2
 66
  1
 70
  0
 62
  0
 10
11.154621
 20
21.973835
 30
0.000000
  0
VERTEX
  8
LAYER-2
 10
11.154621
 20
21.973835
 30
0.000000
  0
VERTEX
  8
LAYER-2
 10
11.202231
 20
21.976702
 30
0.000000
  0
VERTEX
  8
LAYER-2
 10
11.233466
 20
22.000117
 30
0.000000
  0
SEQEND
  8
LAYER-2
  0
POLYLINE
  8
LAYER-2
 66
  1
 70
  0
 62
  0
 10
11.678618
 20
21.842426
 30
0.000000
  0
VERTEX
  8
LAYER-2
 10
11.678618
 20
21.842426
 30
0.000000
  0
VERTEX
  8
LAYER-2
 10
11.717261
 20
21.857605
 30
0.000000
  0
VERTEX
  8
LAYER-2
 10
11.749726
 20
21.885351
 30
0.000000
  0
VERTEX
  8
LAYER-2
 10
11.769103
 20
21.923408
 30
0.000000
  0
VERTEX
  8
LAYER-2
 10
11.773888
 20
21.934413
 30
0.000000
  0
SEQEND
  8
LAYER-2
  0
POLYLINE
  8
LAYER-2
 66
  1
 70
  0
 62
  0
 10
11.589918
 20
21.908132
 30
0.000000
  0
VERTEX
  8
LAYER-2
 10
11.589918
 20
21.908132
 30
0.000000
  0
VERTEX
  8
LAYER-2
 10
11.609682
 20
21.876021
 30
0.000000
  0
VERTEX
  8
LAYER-2
 10
11.642803
 20
21.852853
 30
0.000000
  0
VERTEX
  8
LAYER-2
 10
11.678618
 20
21.842428
 30
0.000000
  0
SEQEND
  8
LAYER-2
  0
POLYLINE
  8
LAYER-2
 66
  1
 70
  0
 62
  0
 10
11.222380
 20
21.778366
 30
0.000000
  0
VERTEX
  8
LAYER-2
 10
11.222380
 20
21.778366
 30
0.000000
  0
VERTEX
  8
LAYER-2
 10
11.238413
 20
21.807678
 30
0.000000
  0
VERTEX
  8
LAYER-2
 10
11.244579
 20
21.839830
 30
0.000000
  0
VERTEX
  8
LAYER-2
 10
11.237972
 20
21.871894
 30
0.000000
  0
VERTEX
  8
LAYER-2
 10
11.238111
 20
21.873961
 30
0.000000
  0
SEQEND
  8
LAYER-2
  0
POLYLINE
  8
LAYER-2
 66
  1
 70
  0
 62
  0
 10
11.099319
 20
21.911811
 30
0.000000
  0
VERTEX
  8
LAYER-2
 10
11.099319
 20
21.911811
 30
0.000000
  0
VERTEX
  8
LAYER-2
 10
11.094424
 20
21.906294
 30
0.000000
  0
VERTEX
  8
LAYER-2
 10
11.092061
 20
21.898614
 30
0.000000
  0
VERTEX
  8
LAYER-2
 10
11.090275
 20
21.890779
 30
0.000000
  0
VERTEX
  8
LAYER-2
 10
11.089077
 20
21.882833
 30
0.000000
  0
VERTEX
  8
LAYER-2
 10
11.088470
 20
21.874820
 30
0.000000
  0
VERTEX
  8
LAYER-2
 10
11.090439
 20
21.872854
 30
0.000000
  0
SEQEND
  8
LAYER-2
  0
POLYLINE
  8
LAYER-2
 66
  1
 70
  0
 62
  0
 10
11.233467
 20
22.000117
 30
0.000000
  0
VERTEX
  8
LAYER-2
 10
11.233467
 20
22.000117
 30
0.000000
  0
VERTEX
  8
LAYER-2
 10
11.253794
 20
21.979791
 30
0.000000
  0
SEQEND
  8
LAYER-2
  0
ARC
  8
LAYER-2
 62
  0
 10
11.243389
 20
21.969382
 30
0.000000
 40
0.014718
 50
0.000000
 51
45.000000
  0
POLYLINE
  8
LAYER-2
 66
  1
 70
  0
 62
  0
 10
11.589916
 20
21.908130
 30
0.000000
  0
VERTEX
  8
LAYER-2
 10
11.589916
 20
21.908130
 30
0.000000
  0
VERTEX
  8
LAYER-2
 10
11.579995
 20
21.908130
 30
0.000000
  0
SEQEND
  8
LAYER-2
  0
ARC
  8
LAYER-2
 62
  0
 10
11.579995
 20
21.893412
 30
0.000000
 40
0.014718
 50
90.000000
 51
180.000000
  0
POLYLINE
  8
LAYER-2
 66
  1
 70
  0
 62
  0
 10
11.036970
 20
22.267246
 30
0.000000
  0
VERTEX
  8
LAYER-2
 10
11.036970
 20
22.267246
 30
0.000000
  0
VERTEX
  8
LAYER-2
 10
11.020955
 20
22.283264
 30
0.000000
  0
SEQEND
  8
LAYER-2
  0
ARC
  8
LAYER-2
 62
  0
 10
11.026564
 20
22.256839
 30
0.000000
 40
0.014718
 50
0.000000
 51
45.000000
  0
POLYLINE
  8
LAYER-2
 66
  1
 70
  0
 62
  0
 10
11.113264
 20
21.802048
 30
0.000000
  0
VERTEX
  8
LAYER-2
 10
11.113264
 20
21.802048
 30
0.000000
  0
VERTEX
  8
LAYER-2
 10
11.141044
 20
21.799098
 30
0.000000
  0
VERTEX
  8
LAYER-2
 10
11.151777
 20
21.812025
 30
0.000000
  0
SEQEND
  8
LAYER-2
  0
POLYLINE
  8
LAYER-2
 66
  1
 70
  0
 62
  0
 10
11.005734
 20
23.388953
 30
0.000000
  0
VERTEX
  8
LAYER-2
 10
11.005734
 20
23.388953
 30
0.000000
  0
VERTEX
  8
LAYER-2
 10
10.976035
 20
23.396912
 30
0.000000
  0
SEQEND
  8
LAYER-2
  0
ARC
  8
LAYER-2
 62
  0
 10
11.001925
 20
23.374737
 30
0.000000
 40
0.014718
 50
0.000000
 51
74.998535
  0
POLYLINE
  8
LAYER-2
 66
  1
 70
  0
 62
  0
 10
11.016643
 20
23.326628
 30
0.000000
  0
VERTEX
  8
LAYER-2
 10
11.016643
 20
23.326628
 30
0.000000
  0
VERTEX
  8
LAYER-2
 10
11.016643
 20
23.374737
 30
0.000000
  0
SEQEND
  8
LAYER-2
  0
ARC
  8
LAYER-2
 62
  0
 10
11.031361
 20
23.326628
 30
0.000000
 40
0.014718
 50
180.000000
 51
254.998535
  0
POLYLINE
  8
LAYER-2
 66
  1
 70
  0
 62
  0
 10
11.850039
 20
23.162723
 30
0.000000
  0
VERTEX
  8
LAYER-2
 10
11.850039
 20
23.162723
 30
0.000000
  0
VERTEX
  8
LAYER-2
 10
11.825267
 20
23.169361
 30
0.000000
  0
SEQEND
  8
LAYER-2
  0
ARC
  8
LAYER-2
 62
  0
 10
11.821459
 20
23.155145
 30
0.000000
 40
0.014718
 50
75.001892
 51
180.000000
  0
ARC
  8
LAYER-2
 62
  0
 10
11.846230
 20
23.148507
 30
0.000000
 40
0.014718
 50
0.000000
 51
75.001892
  0
POLYLINE
  8
LAYER-2
 66
  1
 70
  0
 62
  0
 10
11.806741
 20
23.155145
 30
0.000000
  0
VERTEX
  8
LAYER-2
 10
11.806741
 20
23.155145
 30
0.000000
  0
VERTEX
  8
LAYER-2
 10
11.806741
 20
23.122810
 30
0.000000
  0
SEQEND
  8
LAYER-2
  0
POLYLINE
  8
LAYER-2
 66
  1
 70
  0
 62
  0
 10
11.103242
 20
23.292130
 30
0.000000
  0
VERTEX
  8
LAYER-2
 10
11.103242
 20
23.292130
 30
0.000000
  0
VERTEX
  8
LAYER-2
 10
11.027551
 20
23.312412
 30
0.000000
  0
SEQEND
  8
LAYER-2
  0
ARC
  8
LAYER-2
 62
  0
 10
11.107051
 20
23.306346
 30
0.000000
 40
0.014718
 50
254.998535
 51
0.000000
  0
POLYLINE
  8
LAYER-2
 66
  1
 70
  0
 62
  0
 10
11.121769
 20
23.338681
 30
0.000000
  0
VERTEX
  8
LAYER-2
 10
11.121769
 20
23.338681
 30
0.000000
  0
VERTEX
  8
LAYER-2
 10
11.121769
 20
23.306346
 30
0.000000
  0
SEQEND
  8
LAYER-2
  0
ARC
  8
LAYER-2
 62
  0
 10
11.136487
 20
23.338681
 30
0.000000
 40
0.014718
 50
75.001892
 51
180.000000
  0
POLYLINE
  8
LAYER-2
 66
  1
 70
  0
 62
  0
 10
11.035169
 20
23.232727
 30
0.000000
  0
VERTEX
  8
LAYER-2
 10
11.035169
 20
23.232727
 30
0.000000
  0
VERTEX
  8
LAYER-2
 10
11.051259
 20
23.228417
 30
0.000000
  0
SEQEND
  8
LAYER-2
  0
ARC
  8
LAYER-2
 62
  0
 10
11.031361
 20
23.218511
 30
0.000000
 40
0.014718
 50
74.998535
 51
180.000000
  0
POLYLINE
  8
LAYER-2
 66
  1
 70
  0
 62
  0
 10
11.618892
 20
23.002363
 30
0.000000
  0
VERTEX
  8
LAYER-2
 10
11.618892
 20
23.002363
 30
0.000000
  0
VERTEX
  8
LAYER-2
 10
11.674873
 20
22.987362
 30
0.000000
  0
SEQEND
  8
LAYER-2
  0
ARC
  8
LAYER-2
 62
  0
 10
11.622700
 20
23.016580
 30
0.000000
 40
0.014718
 50
180.000000
 51
255.001907
  0
POLYLINE
  8
LAYER-2
 66
  1
 70
  0
 62
  0
 10
11.693400
 20
23.145292
 30
0.000000
  0
VERTEX
  8
LAYER-2
 10
11.693400
 20
23.145292
 30
0.000000
  0
VERTEX
  8
LAYER-2
 10
11.693400
 20
23.193400
 30
0.000000
  0
SEQEND
  8
LAYER-2
  0
ARC
  8
LAYER-2
 62
  0
 10
11.708119
 20
23.145292
 30
0.000000
 40
0.014718
 50
180.000000
 51
254.998535
  0
POLYLINE
  8
LAYER-2
 66
  1
 70
  0
 62
  0
 10
11.788211
 20
23.108593
 30
0.000000
  0
VERTEX
  8
LAYER-2
 10
11.788211
 20
23.108593
 30
0.000000
  0
VERTEX
  8
LAYER-2
 10
11.704308
 20
23.131076
 30
0.000000
  0
SEQEND
  8
LAYER-2
  0
ARC
  8
LAYER-2
 62
  0
 10
11.792024
 20
23.122810
 30
0.000000
 40
0.014718
 50
254.998535
 51
0.000000
  0
POLYLINE
  8
LAYER-2
 66
  1
 70
  0
 62
  0
 10
11.711927
 20
23.051392
 30
0.000000
  0
VERTEX
  8
LAYER-2
 10
11.711927
 20
23.051392
 30
0.000000
  0
VERTEX
  8
LAYER-2
 10
11.795832
 20
23.028910
 30
0.000000
  0
SEQEND
  8
LAYER-2
  0
ARC
  8
LAYER-2
 62
  0
 10
11.708119
 20
23.037175
 30
0.000000
 40
0.014718
 50
75.001892
 51
180.000000
  0
POLYLINE
  8
LAYER-2
 66
  1
 70
  0
 62
  0
 10
11.693400
 20
23.001580
 30
0.000000
  0
VERTEX
  8
LAYER-2
 10
11.693400
 20
23.001580
 30
0.000000
  0
VERTEX
  8
LAYER-2
 10
11.693400
 20
23.037175
 30
0.000000
  0
SEQEND
  8
LAYER-2
  0
ARC
  8
LAYER-2
 62
  0
 10
11.678682
 20
23.001580
 30
0.000000
 40
0.014718
 50
255.001907
 51
0.000000
  0
POLYLINE
  8
LAYER-2
 66
  1
 70
  0
 62
  0
 10
11.722570
 20
21.744812
 30
0.000000
  0
VERTEX
  8
LAYER-2
 10
11.722570
 20
21.744812
 30
0.000000
  0
VERTEX
  8
LAYER-2
 10
11.842421
 20
21.712696
 30
0.000000
  0
SEQEND
  8
LAYER-2
  0
ARC
  8
LAYER-2
 62
  0
 10
11.846230
 20
21.726915
 30
0.000000
 40
0.014718
 50
255.001907
 51
0.000000
  0
POLYLINE
  8
LAYER-2
 66
  1
 70
  0
 62
  0
 10
11.099319
 20
21.911811
 30
0.000000
  0
VERTEX
  8
LAYER-2
 10
11.099319
 20
21.911811
 30
0.000000
  0
VERTEX
  8
LAYER-2
 10
10.968419
 20
21.946886
 30
0.000000
  0
SEQEND
  8
LAYER-2
  0
ARC
  8
LAYER-2
 62
  0
 10
10.972226
 20
21.961102
 30
0.000000
 40
0.014718
 50
180.000000
 51
254.998535
  0
POLYLINE
  8
LAYER-2
 66
  1
 70
  0
 62
  0
 10
11.795832
 20
22.076040
 30
0.000000
  0
VERTEX
  8
LAYER-2
 10
11.795832
 20
22.076040
 30
0.000000
  0
VERTEX
  8
LAYER-2
 10
11.784797
 20
22.073083
 30
0.000000
  0
SEQEND
  8
LAYER-2
  0
ARC
  8
LAYER-2
 62
  0
 10
11.792024
 20
22.090256
 30
0.000000
 40
0.014718
 50
284.998108
 51
0.000000
  0
POLYLINE
  8
LAYER-2
 66
  1
 70
  0
 62
  0
 10
11.238274
 20
21.874576
 30
0.000000
  0
VERTEX
  8
LAYER-2
 10
11.238274
 20
21.874576
 30
0.000000
  0
VERTEX
  8
LAYER-2
 10
11.239580
 20
21.874229
 30
0.000000
  0
SEQEND
  8
LAYER-2
  0
ARC
  8
LAYER-2
 62
  0
 10
11.243389
 20
21.888443
 30
0.000000
 40
0.014718
 50
254.998535
 51
0.000000
  0
POLYLINE
  8
LAYER-2
 66
  1
 70
  0
 62
  0
 10
11.163639
 20
21.894575
 30
0.000000
  0
VERTEX
  8
LAYER-2
 10
11.163639
 20
21.894575
 30
0.000000
  0
VERTEX
  8
LAYER-2
 10
11.169045
 20
21.893126
 30
0.000000
  0
SEQEND
  8
LAYER-2
  0
POLYLINE
  8
LAYER-2
 66
  1
 70
  0
 62
  0
 10
11.706732
 20
21.648812
 30
0.000000
  0
VERTEX
  8
LAYER-2
 10
11.706732
 20
21.648812
 30
0.000000
  0
VERTEX
  8
LAYER-2
 10
11.722764
 20
21.678124
 30
0.000000
  0
VERTEX
  8
LAYER-2
 10
11.728931
 20
21.710276
 30
0.000000
  0
VERTEX
  8
LAYER-2
 10
11.722324
 20
21.742342
 30
0.000000
  0
VERTEX
  8
LAYER-2
 10
11.722462
 20
21.744409
 30
0.000000
  0
SEQEND
  8
LAYER-2
  0
POLYLINE
  8
LAYER-2
 66
  1
 70
  0
 62
  0
 10
11.674700
 20
21.688232
 30
0.000000
  0
VERTEX
  8
LAYER-2
 10
11.674700
 20
21.688232
 30
0.000000
  0
VERTEX
  8
LAYER-2
 10
11.683654
 20
21.724893
 30
0.000000
  0
VERTEX
  8
LAYER-2
 10
11.666847
 20
21.757148
 30
0.000000
  0
VERTEX
  8
LAYER-2
 10
11.655893
 20
21.762902
 30
0.000000
  0
SEQEND
  8
LAYER-2
  0
POLYLINE
  8
LAYER-2
 66
  1
 70
  0
 62
  0
 10
11.583671
 20
21.782257
 30
0.000000
  0
VERTEX
  8
LAYER-2
 10
11.583671
 20
21.782257
 30
0.000000
  0
VERTEX
  8
LAYER-2
 10
11.578760
 20
21.776696
 30
0.000000
  0
VERTEX
  8
LAYER-2
 10
11.576388
 20
21.768968
 30
0.000000
  0
VERTEX
  8
LAYER-2
 10
11.574601
 20
21.761085
 30
0.000000
  0
VERTEX
  8
LAYER-2
 10
11.573407
 20
21.753089
 30
0.000000
  0
VERTEX
  8
LAYER-2
 10
11.574782
 20
21.743059
 30
0.000000
  0
SEQEND
  8
LAYER-2
  0
POLYLINE
  8
LAYER-2
 66
  1
 70
  0
 62
  0
 10
11.596855
 20
21.673633
 30
0.000000
  0
VERTEX
  8
LAYER-2
 10
11.596855
 20
21.673633
 30
0.000000
  0
VERTEX
  8
LAYER-2
 10
11.624257
 20
21.668784
 30
0.000000
  0
VERTEX
  8
LAYER-2
 10
11.636245
 20
21.683890
 30
0.000000
  0
SEQEND
  8
LAYER-2
  0
POLYLINE
  8
LAYER-2
 66
  1
 70
  0
 62
  0
 10
11.583671
 20
21.782027
 30
0.000000
  0
VERTEX
  8
LAYER-2
 10
11.583671
 20
21.782027
 30
0.000000
  0
VERTEX
  8
LAYER-2
 10
11.576183
 20
21.784036
 30
0.000000
  0
SEQEND
  8
LAYER-2
  0
ARC
  8
LAYER-2
 62
  0
 10
11.579995
 20
21.798250
 30
0.000000
 40
0.014718
 50
180.000000
 51
254.998535
  0
ARC
  8
LAYER-2
 62
  0
 10
11.212089
 20
21.802728
 30
0.000000
 40
0.026446
 50
145.282684
 51
292.906250
  0
ARC
  8
LAYER-2
 62
  0
 10
11.696411
 20
21.673153
 30
0.000000
 40
0.026437
 50
145.214844
 51
292.973877
  0
POLYLINE
  8
LAYER-2
 66
  1
 70
  0
 62
  0
 10
11.857659
 20
23.157540
 30
0.000000
  0
VERTEX
  8
LAYER-2
 10
11.857659
 20
23.157540
 30
0.000000
  0
VERTEX
  8
LAYER-2
 10
14.602459
 20
23.893009
 30
0.000000
  0
SEQEND
  8
LAYER-2
  0
POLYLINE
  8
LAYER-2
 66
  1
 70
  0
 62
  0
 10
11.849809
 20
21.711877
 30
0.000000
  0
VERTEX
  8
LAYER-2
 10
11.849809
 20
21.711877
 30
0.000000
  0
VERTEX
  8
LAYER-2
 10
14.605747
 20
22.450328
 30
0.000000
  0
SEQEND
  8
LAYER-2
  0
POLYLINE
  8
LAYER-2
 66
  1
 70
  0
 62
  0
 10
11.816604
 20
23.169284
 30
0.000000
  0
VERTEX
  8
LAYER-2
 10
11.816604
 20
23.169284
 30
0.000000
  0
VERTEX
  8
LAYER-2
 10
14.560610
 20
23.904539
 30
0.000000
  0
SEQEND
  8
LAYER-2
  0
POLYLINE
  8
LAYER-2
 66
  1
 70
  0
 62
  0
 10
11.689063
 20
23.203512
 30
0.000000
  0
VERTEX
  8
LAYER-2
 10
11.689063
 20
23.203512
 30
0.000000
  0
VERTEX
  8
LAYER-2
 10
14.433163
 20
23.938790
 30
0.000000
  0
SEQEND
  8
LAYER-2
  0
POLYLINE
  8
LAYER-2
 66
  1
 70
  0
 62
  0
 10
11.129621
 20
23.352897
 30
0.000000
  0
VERTEX
  8
LAYER-2
 10
11.129621
 20
23.352897
 30
0.000000
  0
VERTEX
  8
LAYER-2
 10
13.874489
 20
24.088386
 30
0.000000
  0
SEQEND
  8
LAYER-2
  0
POLYLINE
  8
LAYER-2
 66
  1
 70
  0
 62
  0
 10
11.014771
 20
23.383204
 30
0.000000
  0
VERTEX
  8
LAYER-2
 10
11.014771
 20
23.383204
 30
0.000000
  0
VERTEX
  8
LAYER-2
 10
13.760897
 20
24.119030
 30
0.000000
  0
SEQEND
  8
LAYER-2
  0
POLYLINE
  8
LAYER-2
 66
  1
 70
  0
 62
  0
 10
10.966179
 20
23.396089
 30
0.000000
  0
VERTEX
  8
LAYER-2
 10
10.966179
 20
23.396089
 30
0.000000
  0
VERTEX
  8
LAYER-2
 10
13.712169
 20
24.131878
 30
0.000000
  0
SEQEND
  8
LAYER-2
  0
POLYLINE
  8
LAYER-2
 66
  1
 70
  0
 62
  0
 10
11.681079
 20
22.986796
 30
0.000000
  0
VERTEX
  8
LAYER-2
 10
11.681079
 20
22.986796
 30
0.000000
  0
VERTEX
  8
LAYER-2
 10
11.805490
 20
23.020133
 30
0.000000
  0
SEQEND
  8
LAYER-2
  0
POLYLINE
  8
LAYER-2
 66
  1
 70
  0
 62
  0
 10
11.039639
 20
22.264228
 30
0.000000
  0
VERTEX
  8
LAYER-2
 10
11.039639
 20
22.264228
 30
0.000000
  0
VERTEX
  8
LAYER-2
 10
11.807595
 20
22.470001
 30
0.000000
  0
SEQEND
  8
LAYER-2
  0
POLYLINE
  8
LAYER-2
 66
  1
 70
  0
 62
  0
 10
11.018285
 20
22.287923
 30
0.000000
  0
VERTEX
  8
LAYER-2
 10
11.018285
 20
22.287923
 30
0.000000
  0
VERTEX
  8
LAYER-2
 10
11.807837
 20
22.499481
 30
0.000000
  0
SEQEND
  8
LAYER-2
  0
POLYLINE
  8
LAYER-2
 66
  1
 70
  0
 62
  0
 10
11.233467
 20
22.000117
 30
0.000000
  0
VERTEX
  8
LAYER-2
 10
11.233467
 20
22.000117
 30
0.000000
  0
VERTEX
  8
LAYER-2
 10
11.806734
 20
22.153722
 30
0.000000
  0
SEQEND
  8
LAYER-2
  0
POLYLINE
  8
LAYER-2
 66
  1
 70
  0
 62
  0
 10
11.256465
 20
21.975950
 30
0.000000
  0
VERTEX
  8
LAYER-2
 10
11.256465
 20
21.975950
 30
0.000000
  0
VERTEX
  8
LAYER-2
 10
11.805692
 20
22.123116
 30
0.000000
  0
SEQEND
  8
LAYER-2
  0
POLYLINE
  8
LAYER-2
 66
  1
 70
  0
 62
  0
 10
11.249885
 20
21.875127
 30
0.000000
  0
VERTEX
  8
LAYER-2
 10
11.249885
 20
21.875127
 30
0.000000
  0
VERTEX
  8
LAYER-2
 10
11.774348
 20
22.015654
 30
0.000000
  0
SEQEND
  8
LAYER-2
  0
POLYLINE
  8
LAYER-2
 66
  1
 70
  0
 62
  0
 10
11.219918
 20
21.777547
 30
0.000000
  0
VERTEX
  8
LAYER-2
 10
11.219918
 20
21.777547
 30
0.000000
  0
VERTEX
  8
LAYER-2
 10
11.565137
 20
21.870046
 30
0.000000
  0
SEQEND
  8
LAYER-2
  0
POLYLINE
  8
LAYER-2
 66
  1
 70
  0
 62
  0
 10
11.706730
 20
21.648812
 30
0.000000
  0
VERTEX
  8
LAYER-2
 10
11.706730
 20
21.648812
 30
0.000000
  0
VERTEX
  8
LAYER-2
 10
14.465305
 20
22.387970
 30
0.000000
  0
SEQEND
  8
LAYER-2
  0
POLYLINE
  8
LAYER-2
 66
  1
 70
  0
 62
  0
 10
11.135732
 20
21.793148
 30
0.000000
  0
VERTEX
  8
LAYER-2
 10
11.135732
 20
21.793148
 30
0.000000
  0
VERTEX
  8
LAYER-2
 10
11.184996
 20
21.806349
 30
0.000000
  0
SEQEND
  8
LAYER-2
  0
POLYLINE
  8
LAYER-2
 66
  1
 70
  0
 62
  0
 10
11.619484
 20
21.663383
 30
0.000000
  0
VERTEX
  8
LAYER-2
 10
11.619484
 20
21.663383
 30
0.000000
  0
VERTEX
  8
LAYER-2
 10
11.670403
 20
21.677026
 30
0.000000
  0
SEQEND
  8
LAYER-2
  0
POLYLINE
  8
LAYER-2
 66
  1
 70
  0
 62
  0
 10
14.605747
 20
22.450328
 30
0.000000
  0
VERTEX
  8
LAYER-2
 10
14.605747
 20
22.450328
 30
0.000000
  0
VERTEX
  8
LAYER-2
 10
14.605747
 20
23.883192
 30
0.000000
  0
SEQEND
  8
LAYER-2
  0
POLYLINE
  8
LAYER-2
 66
  1
 70
  0
 62
  0
 10
14.464773
 20
22.388499
 30
0.000000
  0
VERTEX
  8
LAYER-2
 10
14.464773
 20
22.388499
 30
0.000000
  0
VERTEX
  8
LAYER-2
 10
14.480949
 20
22.417718
 30
0.000000
  0
VERTEX
  8
LAYER-2
 10
14.483700
 20
22.417721
 30
0.000000
  0
SEQEND
  8
LAYER-2
  0
POLYLINE
  8
LAYER-2
 66
  1
 70
  0
 62
  0
 10
14.425647
 20
23.942742
 30
0.000000
  0
VERTEX
  8
LAYER-2
 10
14.425647
 20
23.942742
 30
0.000000
  0
VERTEX
  8
LAYER-2
 10
13.882106
 20
24.088386
 30
0.000000
  0
SEQEND
  8
LAYER-2
  0
ARC
  8
LAYER-2
 62
  0
 10
13.878298
 20
24.074168
 30
0.000000
 40
0.014718
 50
75.001892
 51
104.998108
  0
ARC
  8
LAYER-2
 62
  0
 10
14.421839
 20
23.928526
 30
0.000000
 40
0.014718
 50
0.000000
 51
75.001892
  0
ARC
  8
LAYER-2
 62
  0
 10
14.591029
 20
23.883192
 30
0.000000
 40
0.014718
 50
0.000000
 51
74.998535
  0
POLYLINE
  8
LAYER-2
 66
  1
 70
  0
 62
  0
 10
14.436557
 20
23.928526
 30
0.000000
  0
VERTEX
  8
LAYER-2
 10
14.436557
 20
23.928526
 30
0.000000
  0
VERTEX
  8
LAYER-2
 10
14.436557
 20
23.882521
 30
0.000000
  0
SEQEND
  8
LAYER-2
  0
POLYLINE
  8
LAYER-2
 66
  1
 70
  0
 62
  0
 10
14.594837
 20
23.897408
 30
0.000000
  0
VERTEX
  8
LAYER-2
 10
14.594837
 20
23.897408
 30
0.000000
  0
VERTEX
  8
LAYER-2
 10
14.568225
 20
23.904539
 30
0.000000
  0
SEQEND
  8
LAYER-2
  0
ARC
  8
LAYER-2
 62
  0
 10
14.564418
 20
23.890323
 30
0.000000
 40
0.014718
 50
74.998535
 51
105.001465
  0
POLYLINE
  8
LAYER-2
 66
  1
 70
  0
 62
  0
 10
13.719790
 20
24.131878
 30
0.000000
  0
VERTEX
  8
LAYER-2
 10
13.719790
 20
24.131878
 30
0.000000
  0
VERTEX
  8
LAYER-2
 10
13.753412
 20
24.122869
 30
0.000000
  0
SEQEND
  8
LAYER-2
  0
ARC
  8
LAYER-2
 62
  0
 10
13.715981
 20
24.117662
 30
0.000000
 40
0.014718
 50
74.998535
 51
105.001465
  0
POLYLINE
  8
LAYER-2
 66
  1
 70
  0
 62
  0
 10
13.764317
 20
24.108653
 30
0.000000
  0
VERTEX
  8
LAYER-2
 10
13.764317
 20
24.108653
 30
0.000000
  0
VERTEX
  8
LAYER-2
 10
13.764317
 20
24.065937
 30
0.000000
  0
SEQEND
  8
LAYER-2
  0
ARC
  8
LAYER-2
 62
  0
 10
13.749599
 20
24.108653
 30
0.000000
 40
0.014718
 50
0.000000
 51
74.998535
  0
ARC
  8
LAYER-2
 62
  0
 10
14.451274
 20
23.882521
 30
0.000000
 40
0.014718
 50
180.000000
 51
217.500793
  0
POLYLINE
  8
LAYER-2
 66
  1
 70
  0
 62
  0
 10
11.696440
 20
23.136332
 30
0.000000
  0
VERTEX
  8
LAYER-2
 10
11.696440
 20
23.136332
 30
0.000000
  0
VERTEX
  8
LAYER-2
 10
11.816795
 20
23.168581
 30
0.000000
  0
SEQEND
  8
LAYER-2
  0
ARC
  8
LAYER-2
 62
  0
 10
13.779035
 20
24.065937
 30
0.000000
 40
0.014718
 50
180.000000
 51
201.578766
  0
POLYLINE
  8
LAYER-2
 66
  1
 70
  0
 62
  0
 10
11.019686
 20
23.317668
 30
0.000000
  0
VERTEX
  8
LAYER-2
 10
11.019686
 20
23.317668
 30
0.000000
  0
VERTEX
  8
LAYER-2
 10
11.124235
 20
23.345683
 30
0.000000
  0
SEQEND
  8
LAYER-2
  0
POLYLINE
  8
LAYER-2
 66
  1
 70
  0
 62
  0
 10
10.248427
 20
21.613385
 30
0.000000
  0
VERTEX
  8
LAYER-2
 10
10.248427
 20
21.613385
 30
0.000000
  0
VERTEX
  8
LAYER-2
 10
10.230978
 20
21.634839
 30
0.000000
  0
VERTEX
  8
LAYER-2
 10
10.207086
 20
21.637536
 30
0.000000
  0
VERTEX
  8
LAYER-2
 10
10.190749
 20
21.619897
 30
0.000000
  0
VERTEX
  8
LAYER-2
 10
10.191535
 20
21.592253
 30
0.000000
  0
VERTEX
  8
LAYER-2
 10
10.208984
 20
21.570799
 30
0.000000
  0
VERTEX
  8
LAYER-2
 10
10.232877
 20
21.568102
 30
0.000000
  0
VERTEX
  8
LAYER-2
 10
10.249214
 20
21.585741
 30
0.000000
  0
VERTEX
  8
LAYER-2
 10
10.248427
 20
21.613385
 30
0.000000
  0
SEQEND
  8
LAYER-2
  0
POLYLINE
  8
LAYER-2
 66
  1
 70
  0
 62
  0
 10
11.636153
 20
23.146189
 30
0.000000
  0
VERTEX
  8
LAYER-2
 10
11.636153
 20
23.146189
 30
0.000000
  0
VERTEX
  8
LAYER-2
 10
10.679188
 20
22.889772
 30
0.000000
  0
SEQEND
  8
LAYER-2
  0
POLYLINE
  8
LAYER-2
 66
  1
 70
  0
 62
  0
 10
10.679188
 20
22.889772
 30
0.000000
  0
VERTEX
  8
LAYER-2
 10
10.679188
 20
22.889772
 30
0.000000
  0
VERTEX
  8
LAYER-2
 10
10.679188
 20
22.804667
 30
0.000000
  0
SEQEND
  8
LAYER-2
  0
POLYLINE
  8
LAYER-2
 66
  1
 70
  0
 62
  0
 10
10.679188
 20
22.889772
 30
0.000000
  0
VERTEX
  8
LAYER-2
 10
10.679188
 20
22.889772
 30
0.000000
  0
VERTEX
  8
LAYER-2
 10
10.233305
 20
23.009247
 30
0.000000
  0
SEQEND
  8
LAYER-2
  0
POLYLINE
  8
LAYER-2
 66
  1
 70
  0
 62
  0
 10
10.957509
 20
23.382696
 30
0.000000
  0
VERTEX
  8
LAYER-2
 10
10.957509
 20
23.382696
 30
0.000000
  0
VERTEX
  8
LAYER-2
 10
10.957509
 20
23.203296
 30
0.000000
  0
SEQEND
  8
LAYER-2
  0
ARC
  8
LAYER-2
 62
  0
 10
11.161669
 20
21.863034
 30
0.000000
 40
0.031603
 50
86.422852
 51
133.433594
  0
POLYLINE
  8
LAYER-2
 66
  1
 70
  0
 62
  0
 10
11.656113
 20
21.763513
 30
0.000000
  0
VERTEX
  8
LAYER-2
 10
11.656113
 20
21.763513
 30
0.000000
  0
VERTEX
  8
LAYER-2
 10
11.648212
 20
21.765628
 30
0.000000
  0
SEQEND
  8
LAYER-2
  0
ARC
  8
LAYER-2
 62
  0
 10
11.646211
 20
21.734199
 30
0.000000
 40
0.031493
 50
86.356384
 51
135.645996
  0
POLYLINE
  8
LAYER-2
 66
  1
 70
  0
 62
  0
 10
6.615367
 20
20.393670
 30
0.000000
  0
VERTEX
  8
LAYER-2
 10
6.615367
 20
20.393670
 30
0.000000
  0
VERTEX
  8
LAYER-2
 10
6.609882
 20
20.395142
 30
0.000000
  0
SEQEND
  8
LAYER-2
  0
ARC
  8
LAYER-2
 62
  0
 10
6.631553
 20
20.362283
 30
0.000000
 40
0.053796
 50
167.036560
 51
225.834183
  0
ARC
  8
LAYER-2
 62
  0
 10
6.606053
 20
20.367666
 30
0.000000
 40
0.027742
 50
82.065369
 51
166.055542
  0
TEXT
  8
LAYER-2
 62
  0
 10
11.861112
 20
20.923932
 30
0.000000
 40
0.250000
  1
Perni di allineamento
 72
  5
 11
15.250001
 21
20.923932
 31
0.000000
  0
TEXT
  8
LAYER-2
 62
  0
 10
7.861112
 20
23.396154
 30
0.000000
 40
0.250000
  1
Bar di
 72
  5
 11
8.888890
 21
23.396154
 31
0.000000
  0
TEXT
  8
LAYER-2
 62
  0
 10
7.861112
 20
23.007265
 30
0.000000
 40
0.250000
  1
allineamento
 72
  5
 11
10.000001
 21
23.007265
 31
0.000000
  0
POLYLINE
  8
LAYER-2
 66
  1
 70
  0
 62
  0
 10
9.819449
 20
23.312820
 30
0.000000
  0
VERTEX
  8
LAYER-2
 10
9.819449
 20
23.312820
 30
0.000000
  0
VERTEX
  8
LAYER-2
 10
10.217433
 20
23.020889
 30
0.000000
  0
SEQEND
  8
LAYER-2
  0
POLYLINE
  8
LAYER-2
 66
  1
 70
  1
 62
  0
  0
VERTEX
  8
LAYER-2
 10
10.233305
 20
23.009247
 30
0.000000
  0
VERTEX
  8
LAYER-2
 10
10.072026
 20
23.024200
 30
0.000000
  0
VERTEX
  8
LAYER-2
 10
10.121315
 20
23.091395
 30
0.000000
  0
VERTEX
  8
LAYER-2
 10
10.170604
 20
23.158590
 30
0.000000
  0
VERTEX
  8
LAYER-2
 10
10.233305
 20
23.009247
 30
0.000000
  0
SEQEND
  8
LAYER-2
  0
POLYLINE
  8
LAYER-2
 66
  1
 70
  0
 62
  0
 10
11.795602
 20
21.079468
 30
0.000000
  0
VERTEX
  8
LAYER-2
 10
11.795602
 20
21.079468
 30
0.000000
  0
VERTEX
  8
LAYER-2
 10
11.249249
 20
21.554401
 30
0.000000
  0
SEQEND
  8
LAYER-2
  0
POLYLINE
  8
LAYER-2
 66
  1
 70
  1
 62
  0
  0
VERTEX
  8
LAYER-2
 10
11.234392
 20
21.567315
 30
0.000000
  0
VERTEX
  8
LAYER-2
 10
11.393885
 20
21.539090
 30
0.000000
  0
VERTEX
  8
LAYER-2
 10
11.339214
 20
21.476196
 30
0.000000
  0
VERTEX
  8
LAYER-2
 10
11.284543
 20
21.413305
 30
0.000000
  0
VERTEX
  8
LAYER-2
 10
11.234392
 20
21.567315
 30
0.000000
  0
SEQEND
  8
LAYER-2
  0
POLYLINE
  8
LAYER-2
 66
  1
 70
  0
 62
  0
 10
6.549661
 20
20.539042
 30
0.000000
  0
VERTEX
  8
LAYER-2
 10
6.549661
 20
20.539042
 30
0.000000
  0
VERTEX
  8
LAYER-2
 10
6.733101
 20
20.588192
 30
0.000000
  0
SEQEND
  8
LAYER-2
  0
POLYLINE
  8
LAYER-2
 66
  1
 70
  0
 62
  0
 10
10.462763
 20
24.990214
 30
0.000000
  0
VERTEX
  8
LAYER-2
 10
10.462763
 20
24.990214
 30
0.000000
  0
VERTEX
  8
LAYER-2
 10
10.557693
 20
25.001726
 30
0.000000
  0
VERTEX
  8
LAYER-2
 10
10.650869
 20
25.029990
 30
0.000000
  0
VERTEX
  8
LAYER-2
 10
10.736738
 20
25.075889
 30
0.000000
  0
VERTEX
  8
LAYER-2
 10
10.812005
 20
25.137658
 30
0.000000
  0
VERTEX
  8
LAYER-2
 10
10.873775
 20
25.212925
 30
0.000000
  0
VERTEX
  8
LAYER-2
 10
10.919673
 20
25.298796
 30
0.000000
  0
VERTEX
  8
LAYER-2
 10
10.947938
 20
25.391971
 30
0.000000
  0
VERTEX
  8
LAYER-2
 10
10.957481
 20
25.488870
 30
0.000000
  0
VERTEX
  8
LAYER-2
 10
10.947938
 20
25.585768
 30
0.000000
  0
VERTEX
  8
LAYER-2
 10
10.919673
 20
25.678943
 30
0.000000
  0
VERTEX
  8
LAYER-2
 10
10.873775
 20
25.764815
 30
0.000000
  0
VERTEX
  8
LAYER-2
 10
10.812005
 20
25.840079
 30
0.000000
  0
VERTEX
  8
LAYER-2
 10
10.736738
 20
25.901849
 30
0.000000
  0
VERTEX
  8
LAYER-2
 10
10.650869
 20
25.947749
 30
0.000000
  0
VERTEX
  8
LAYER-2
 10
10.557693
 20
25.976013
 30
0.000000
  0
VERTEX
  8
LAYER-2
 10
10.462763
 20
25.983588
 30
0.000000
  0
SEQEND
  8
LAYER-2
  0
POLYLINE
  8
LAYER-2
 66
  1
 70
  0
 62
  0
 10
10.462763
 20
25.983588
 30
0.000000
  0
VERTEX
  8
LAYER-2
 10
10.462763
 20
25.983588
 30
0.000000
  0
VERTEX
  8
LAYER-2
 10
3.308135
 20
25.983588
 30
0.000000
  0
SEQEND
  8
LAYER-2
  0
POLYLINE
  8
LAYER-2
 66
  1
 70
  0
 62
  0
 10
3.308135
 20
25.983588
 30
0.000000
  0
VERTEX
  8
LAYER-2
 10
3.308135
 20
25.983588
 30
0.000000
  0
VERTEX
  8
LAYER-2
 10
3.308135
 20
24.990216
 30
0.000000
  0
SEQEND
  8
LAYER-2
  0
POLYLINE
  8
LAYER-2
 66
  1
 70
  0
 62
  0
 10
10.462763
 20
24.990216
 30
0.000000
  0
VERTEX
  8
LAYER-2
 10
10.462763
 20
24.990216
 30
0.000000
  0
VERTEX
  8
LAYER-2
 10
3.308135
 20
24.990216
 30
0.000000
  0
SEQEND
  8
LAYER-2
  0
TEXT
  8
LAYER-2
 62
  0
 10
6.833334
 20
26.590598
 30
0.000000
 40
0.645833
  1
MobilFlex
 72
  5
 11
11.055556
 21
26.590598
 31
0.000000
  0
POLYLINE
  8
LAYER-2
 66
  1
 70
  1
 62
  0
  0
VERTEX
  8
LAYER-2
 10
3.311070
 20
27.589984
 30
0.000000
  0
VERTEX
  8
LAYER-2
 10
3.775393
 20
27.589984
 30
0.000000
  0
VERTEX
  8
LAYER-2
 10
3.775393
 20
26.580809
 30
0.000000
  0
VERTEX
  8
LAYER-2
 10
3.311070
 20
26.580809
 30
0.000000
  0
SEQEND
  8
LAYER-2
  0
POLYLINE
  8
LAYER-2
 66
  1
 70
  1
 62
  0
  0
VERTEX
  8
LAYER-2
 10
3.921130
 20
27.589984
 30
0.000000
  0
VERTEX
  8
LAYER-2
 10
4.385453
 20
27.589984
 30
0.000000
  0
VERTEX
  8
LAYER-2
 10
4.385453
 20
26.580809
 30
0.000000
  0
VERTEX
  8
LAYER-2
 10
3.921130
 20
26.580809
 30
0.000000
  0
SEQEND
  8
LAYER-2
  0
POLYLINE
  8
LAYER-2
 66
  1
 70
  1
 62
  0
  0
VERTEX
  8
LAYER-2
 10
4.507465
 20
27.589984
 30
0.000000
  0
VERTEX
  8
LAYER-2
 10
4.971788
 20
27.589984
 30
0.000000
  0
VERTEX
  8
LAYER-2
 10
4.971788
 20
26.580809
 30
0.000000
  0
VERTEX
  8
LAYER-2
 10
4.507465
 20
26.580809
 30
0.000000
  0
SEQEND
  8
LAYER-2
  0
POLYLINE
  8
LAYER-2
 66
  1
 70
  1
 62
  0
  0
VERTEX
  8
LAYER-2
 10
5.100579
 20
27.589984
 30
0.000000
  0
VERTEX
  8
LAYER-2
 10
5.564902
 20
27.589984
 30
0.000000
  0
VERTEX
  8
LAYER-2
 10
5.564902
 20
26.580809
 30
0.000000
  0
VERTEX
  8
LAYER-2
 10
5.100579
 20
26.580809
 30
0.000000
  0
SEQEND
  8
LAYER-2
  0
POLYLINE
  8
LAYER-2
 66
  1
 70
  1
 62
  0
  0
VERTEX
  8
LAYER-2
 10
5.719112
 20
27.582342
 30
0.000000
  0
VERTEX
  8
LAYER-2
 10
6.452031
 20
27.582342
 30
0.000000
  0
VERTEX
  8
LAYER-2
 10
6.452031
 20
27.312898
 30
0.000000
  0
VERTEX
  8
LAYER-2
 10
5.719112
 20
27.312898
 30
0.000000
  0
SEQEND
  8
LAYER-2
  0
POLYLINE
  8
LAYER-2
 66
  1
 70
  1
 62
  0
  0
VERTEX
  8
LAYER-2
 10
5.718264
 20
27.138353
 30
0.000000
  0
VERTEX
  8
LAYER-2
 10
6.319852
 20
27.138353
 30
0.000000
  0
VERTEX
  8
LAYER-2
 10
6.319852
 20
26.876536
 30
0.000000
  0
VERTEX
  8
LAYER-2
 10
5.718264
 20
26.876536
 30
0.000000
  0
SEQEND
  8
LAYER-2
  0
POLYLINE
  8
LAYER-2
 66
  1
 70
  1
 62
  0
  0
VERTEX
  8
LAYER-2
 10
3.311070
 20
26.415602
 30
0.000000
  0
VERTEX
  8
LAYER-2
 10
10.960542
 20
26.415602
 30
0.000000
  0
VERTEX
  8
LAYER-2
 10
10.960542
 20
26.330872
 30
0.000000
  0
VERTEX
  8
LAYER-2
 10
3.311070
 20
26.330872
 30
0.000000
  0
SEQEND
  8
LAYER-2
  0
TEXT
  8
LAYER-2
 62
  7
 10
3.750001
 20
25.229487
 30
0.000000
 40
0.375000
  1
Guida e le curve
 72
  5
 11
7.750001
 21
25.229487
 31
0.000000
  0
POLYLINE
  8
LAYER-2
 66
  1
 70
  0
 62
  0
 10
1.369517
 20
17.167894
 30
0.000000
  0
VERTEX
  8
LAYER-2
 10
1.369517
 20
17.167894
 30
0.000000
  0
VERTEX
  8
LAYER-2
 10
1.369517
 20
17.167894
 30
0.000000
  0
SEQEND
  8
LAYER-2
  0
POLYLINE
  8
LAYER-2
 66
  1
 70
  0
 62
  0
 10
0.844344
 20
18.057229
 30
0.000000
  0
VERTEX
  8
LAYER-2
 10
0.844344
 20
18.057229
 30
0.000000
  0
VERTEX
  8
LAYER-2
 10
0.844344
 20
18.057229
 30
0.000000
  0
SEQEND
  8
LAYER-2
  0
ARC
  8
LAYER-2
 62
  0
 10
2.258852
 20
18.057229
 30
0.000000
 40
1.375210
 50
180.000000
 51
225.000000
  0
ARC
  8
LAYER-2
 62
  0
 10
2.258852
 20
18.057229
 30
0.000000
 40
1.375210
 50
161.620728
 51
180.000000
  0
POLYLINE
  8
LAYER-2
 66
  1
 70
  1
 62
  0
  0
VERTEX
  8
LAYER-2
 10
1.286431
 20
17.084808
 30
0.000000
  0
VERTEX
  8
LAYER-2
 10
1.247148
 20
17.241943
 30
0.000000
  0
VERTEX
  8
LAYER-2
 10
1.188222
 20
17.183017
 30
0.000000
  0
VERTEX
  8
LAYER-2
 10
1.129297
 20
17.124093
 30
0.000000
  0
VERTEX
  8
LAYER-2
 10
1.286431
 20
17.084808
 30
0.000000
  0
SEQEND
  8
LAYER-2
  0
POLYLINE
  8
LAYER-2
 66
  1
 70
  1
 62
  0
  0
VERTEX
  8
LAYER-2
 10
0.883642
 20
18.057229
 30
0.000000
  0
VERTEX
  8
LAYER-2
 10
0.800309
 20
17.918340
 30
0.000000
  0
VERTEX
  8
LAYER-2
 10
0.883642
 20
17.918340
 30
0.000000
  0
VERTEX
  8
LAYER-2
 10
0.966976
 20
17.918340
 30
0.000000
  0
VERTEX
  8
LAYER-2
 10
0.883642
 20
18.057229
 30
0.000000
  0
SEQEND
  8
LAYER-2
  0
TEXT
  8
LAYER-2
 62
  0
 10
0.886921
 20
18.470519
 30
0.000000
 40
0.250000
  1
45.0°
  0
POLYLINE
  8
LAYER-2
 66
  1
 70
  0
 62
  0
 10
2.492342
 20
18.057229
 30
0.000000
  0
VERTEX
  8
LAYER-2
 10
2.492342
 20
18.057229
 30
0.000000
  0
VERTEX
  8
LAYER-2
 10
0.527778
 20
18.057229
 30
0.000000
  0
SEQEND
  8
LAYER-2
  0
POLYLINE
  8
LAYER-2
 66
  1
 70
  0
 62
  0
 10
11.194726
 20
21.823719
 30
0.000000
  0
VERTEX
  8
LAYER-2
 10
11.194726
 20
21.823719
 30
0.000000
  0
VERTEX
  8
LAYER-2
 10
11.190350
 20
21.817790
 30
0.000000
  0
SEQEND
  8
LAYER-2
  0
POLYLINE
  8
LAYER-2
 66
  1
 70
  0
 62
  0
 10
10.913199
 20
21.890945
 30
0.000000
  0
VERTEX
  8
LAYER-2
 10
10.913199
 20
21.890945
 30
0.000000
  0
VERTEX
  8
LAYER-2
 10
10.913199
 20
21.890077
 30
0.000000
  0
SEQEND
  8
LAYER-2
  0
POLYLINE
  8
LAYER-2
 66
  1
 70
  0
 62
  0
 10
10.692208
 20
21.506207
 30
0.000000
  0
VERTEX
  8
LAYER-2
 10
10.692208
 20
21.506207
 30
0.000000
  0
VERTEX
  8
LAYER-2
 10
11.652199
 20
21.763765
 30
0.000000
  0
SEQEND
  8
LAYER-2
  0
ARC
  8
LAYER-2
 62
  0
 10
10.711811
 20
21.474279
 30
0.000000
 40
0.037466
 50
121.547974
 51
283.694336
  0
POLYLINE
  8
LAYER-2
 66
  1
 70
  0
 62
  0
 10
11.677878
 20
21.694360
 30
0.000000
  0
VERTEX
  8
LAYER-2
 10
11.677878
 20
21.694360
 30
0.000000
  0
VERTEX
  8
LAYER-2
 10
10.720680
 20
21.437878
 30
0.000000
  0
SEQEND
  8
LAYER-2
  0
POLYLINE
  8
LAYER-2
 66
  1
 70
  0
 62
  0
 10
11.677778
 20
21.694414
 30
0.000000
  0
VERTEX
  8
LAYER-2
 10
11.677778
 20
21.694414
 30
0.000000
  0
VERTEX
  8
LAYER-2
 10
11.681245
 20
21.732346
 30
0.000000
  0
VERTEX
  8
LAYER-2
 10
11.659659
 20
21.761619
 30
0.000000
  0
VERTEX
  8
LAYER-2
 10
11.652273
 20
21.763986
 30
0.000000
  0
SEQEND
  8
LAYER-2
  0
POLYLINE
  8
LAYER-2
 66
  1
 70
  0
 62
  0
 10
10.731581
 20
21.484024
 30
0.000000
  0
VERTEX
  8
LAYER-2
 10
10.731581
 20
21.484024
 30
0.000000
  0
VERTEX
  8
LAYER-2
 10
10.714132
 20
21.505478
 30
0.000000
  0
VERTEX
  8
LAYER-2
 10
10.690240
 20
21.508175
 30
0.000000
  0
VERTEX
  8
LAYER-2
 10
10.673903
 20
21.490536
 30
0.000000
  0
VERTEX
  8
LAYER-2
 10
10.674689
 20
21.462892
 30
0.000000
  0
VERTEX
  8
LAYER-2
 10
10.692138
 20
21.441438
 30
0.000000
  0
VERTEX
  8
LAYER-2
 10
10.716030
 20
21.438741
 30
0.000000
  0
VERTEX
  8
LAYER-2
 10
10.732368
 20
21.456380
 30
0.000000
  0
VERTEX
  8
LAYER-2
 10
10.731581
 20
21.484024
 30
0.000000
  0
SEQEND
  8
LAYER-2
  0
ARC
  8
LAYER-2
 62
  0
 10
2.920357
 20
21.533434
 30
0.000000
 40
0.107387
 50
326.825317
 51
24.856018
  0
POLYLINE
  8
LAYER-2
 66
  1
 70
  0
 62
  0
 10
3.186124
 20
21.578562
 30
0.000000
  0
VERTEX
  8
LAYER-2
 10
3.186124
 20
21.578562
 30
0.000000
  0
VERTEX
  8
LAYER-2
 10
3.017797
 20
21.578573
 30
0.000000
  0
SEQEND
  8
LAYER-2
  0
ARC
  8
LAYER-2
 62
  0
 10
3.186124
 20
21.613563
 30
0.000000
 40
0.035000
 50
270.000000
 51
0.000000
  0
POLYLINE
  8
LAYER-2
 66
  1
 70
  0
 62
  0
 10
3.221124
 20
23.105403
 30
0.000000
  0
VERTEX
  8
LAYER-2
 10
3.221124
 20
23.105403
 30
0.000000
  0
VERTEX
  8
LAYER-2
 10
3.221124
 20
21.613563
 30
0.000000
  0
SEQEND
  8
LAYER-2
  0
ARC
  8
LAYER-2
 62
  0
 10
3.186124
 20
23.105403
 30
0.000000
 40
0.035000
 50
0.000000
 51
90.000000
  0
POLYLINE
  8
LAYER-2
 66
  1
 70
  0
 62
  0
 10
3.178754
 20
23.140403
 30
0.000000
  0
VERTEX
  8
LAYER-2
 10
3.178754
 20
23.140403
 30
0.000000
  0
VERTEX
  8
LAYER-2
 10
3.186124
 20
23.140403
 30
0.000000
  0
SEQEND
  8
LAYER-2
  0
ARC
  8
LAYER-2
 62
  0
 10
3.178754
 20
23.105403
 30
0.000000
 40
0.035000
 50
90.000000
 51
180.000000
  0
POLYLINE
  8
LAYER-2
 66
  1
 70
  0
 62
  0
 10
3.143754
 20
23.098707
 30
0.000000
  0
VERTEX
  8
LAYER-2
 10
3.143754
 20
23.098707
 30
0.000000
  0
VERTEX
  8
LAYER-2
 10
3.143754
 20
23.105403
 30
0.000000
  0
SEQEND
  8
LAYER-2
  0
ARC
  8
LAYER-2
 62
  0
 10
3.108753
 20
23.098707
 30
0.000000
 40
0.035000
 50
270.000000
 51
0.000000
  0
POLYLINE
  8
LAYER-2
 66
  1
 70
  0
 62
  0
 10
3.016997
 20
23.063707
 30
0.000000
  0
VERTEX
  8
LAYER-2
 10
3.016997
 20
23.063707
 30
0.000000
  0
VERTEX
  8
LAYER-2
 10
3.108753
 20
23.063707
 30
0.000000
  0
SEQEND
  8
LAYER-2
  0
ARC
  8
LAYER-2
 62
  0
 10
3.016997
 20
23.098707
 30
0.000000
 40
0.035000
 50
180.000000
 51
270.000000
  0
POLYLINE
  8
LAYER-2
 66
  1
 70
  0
 62
  0
 10
2.981997
 20
23.105403
 30
0.000000
  0
VERTEX
  8
LAYER-2
 10
2.981997
 20
23.105403
 30
0.000000
  0
VERTEX
  8
LAYER-2
 10
2.981997
 20
23.098707
 30
0.000000
  0
SEQEND
  8
LAYER-2
  0
ARC
  8
LAYER-2
 62
  0
 10
2.946997
 20
23.105403
 30
0.000000
 40
0.035000
 50
0.000000
 51
90.000000
  0
POLYLINE
  8
LAYER-2
 66
  1
 70
  0
 62
  0
 10
2.173030
 20
23.140403
 30
0.000000
  0
VERTEX
  8
LAYER-2
 10
2.173030
 20
23.140403
 30
0.000000
  0
VERTEX
  8
LAYER-2
 10
2.946997
 20
23.140403
 30
0.000000
  0
SEQEND
  8
LAYER-2
  0
ARC
  8
LAYER-2
 62
  0
 10
2.173030
 20
23.105403
 30
0.000000
 40
0.035000
 50
90.000000
 51
180.000000
  0
POLYLINE
  8
LAYER-2
 66
  1
 70
  0
 62
  0
 10
2.138030
 20
23.098707
 30
0.000000
  0
VERTEX
  8
LAYER-2
 10
2.138030
 20
23.098707
 30
0.000000
  0
VERTEX
  8
LAYER-2
 10
2.138030
 20
23.105403
 30
0.000000
  0
SEQEND
  8
LAYER-2
  0
ARC
  8
LAYER-2
 62
  0
 10
2.103030
 20
23.098707
 30
0.000000
 40
0.035000
 50
270.000000
 51
0.000000
  0
POLYLINE
  8
LAYER-2
 66
  1
 70
  0
 62
  0
 10
2.011265
 20
23.063707
 30
0.000000
  0
VERTEX
  8
LAYER-2
 10
2.011265
 20
23.063707
 30
0.000000
  0
VERTEX
  8
LAYER-2
 10
2.103030
 20
23.063707
 30
0.000000
  0
SEQEND
  8
LAYER-2
  0
ARC
  8
LAYER-2
 62
  0
 10
2.011265
 20
23.098707
 30
0.000000
 40
0.035000
 50
180.000000
 51
270.000000
  0
POLYLINE
  8
LAYER-2
 66
  1
 70
  0
 62
  0
 10
1.976266
 20
23.105403
 30
0.000000
  0
VERTEX
  8
LAYER-2
 10
1.976266
 20
23.105403
 30
0.000000
  0
VERTEX
  8
LAYER-2
 10
1.976266
 20
23.098707
 30
0.000000
  0
SEQEND
  8
LAYER-2
  0
ARC
  8
LAYER-2
 62
  0
 10
1.941265
 20
23.105403
 30
0.000000
 40
0.035000
 50
0.000000
 51
90.000000
  0
POLYLINE
  8
LAYER-2
 66
  1
 70
  0
 62
  0
 10
1.940934
 20
23.140403
 30
0.000000
  0
VERTEX
  8
LAYER-2
 10
1.940934
 20
23.140403
 30
0.000000
  0
VERTEX
  8
LAYER-2
 10
1.941265
 20
23.140403
 30
0.000000
  0
SEQEND
  8
LAYER-2
  0
ARC
  8
LAYER-2
 62
  0
 10
1.940934
 20
23.105403
 30
0.000000
 40
0.035000
 50
90.000000
 51
180.000000
  0
POLYLINE
  8
LAYER-2
 66
  1
 70
  0
 62
  0
 10
1.905935
 20
23.105403
 30
0.000000
  0
VERTEX
  8
LAYER-2
 10
1.905935
 20
23.105403
 30
0.000000
  0
VERTEX
  8
LAYER-2
 10
1.905935
 20
21.613563
 30
0.000000
  0
SEQEND
  8
LAYER-2
  0
ARC
  8
LAYER-2
 62
  0
 10
1.940934
 20
21.613563
 30
0.000000
 40
0.035000
 50
180.000000
 51
270.000000
  0
POLYLINE
  8
LAYER-2
 66
  1
 70
  0
 62
  0
 10
1.940934
 20
21.578562
 30
0.000000
  0
VERTEX
  8
LAYER-2
 10
1.940934
 20
21.578562
 30
0.000000
  0
VERTEX
  8
LAYER-2
 10
2.109162
 20
21.578573
 30
0.000000
  0
SEQEND
  8
LAYER-2
  0
ARC
  8
LAYER-2
 62
  0
 10
2.206601
 20
21.533434
 30
0.000000
 40
0.107387
 50
155.143982
 51
213.174698
  0
ARC
  8
LAYER-2
 62
  0
 10
2.141635
 20
21.490963
 30
0.000000
 40
0.029771
 50
213.178543
 51
33.178799
  0
ARC
  8
LAYER-2
 62
  0
 10
2.206601
 20
21.533434
 30
0.000000
 40
0.047844
 50
327.054993
 51
213.169800
  0
ARC
  8
LAYER-2
 62
  0
 10
2.271880
 20
21.491085
 30
0.000000
 40
0.029968
 50
146.983093
 51
326.983093
  0
ARC
  8
LAYER-2
 62
  0
 10
2.206601
 20
21.533434
 30
0.000000
 40
0.107781
 50
327.014923
 51
24.759079
  0
POLYLINE
  8
LAYER-2
 66
  1
 70
  0
 62
  0
 10
2.334956
 20
21.578562
 30
0.000000
  0
VERTEX
  8
LAYER-2
 10
2.334956
 20
21.578562
 30
0.000000
  0
VERTEX
  8
LAYER-2
 10
2.304474
 20
21.578573
 30
0.000000
  0
SEQEND
  8
LAYER-2
  0
POLYLINE
  8
LAYER-2
 66
  1
 70
  0
 62
  0
 10
2.334956
 20
21.697093
 30
0.000000
  0
VERTEX
  8
LAYER-2
 10
2.334956
 20
21.697093
 30
0.000000
  0
VERTEX
  8
LAYER-2
 10
2.334956
 20
21.578562
 30
0.000000
  0
SEQEND
  8
LAYER-2
  0
POLYLINE
  8
LAYER-2
 66
  1
 70
  0
 62
  0
 10
2.014949
 20
21.798197
 30
0.000000
  0
VERTEX
  8
LAYER-2
 10
2.014949
 20
21.798197
 30
0.000000
  0
VERTEX
  8
LAYER-2
 10
2.334956
 20
21.697093
 30
0.000000
  0
SEQEND
  8
LAYER-2
  0
POLYLINE
  8
LAYER-2
 66
  1
 70
  0
 62
  0
 10
2.014949
 20
21.798197
 30
0.000000
  0
VERTEX
  8
LAYER-2
 10
2.014949
 20
21.798197
 30
0.000000
  0
VERTEX
  8
LAYER-2
 10
2.014949
 20
21.919605
 30
0.000000
  0
SEQEND
  8
LAYER-2
  0
ARC
  8
LAYER-2
 62
  0
 10
1.979950
 20
21.919605
 30
0.000000
 40
0.035000
 50
0.000000
 51
84.851196
  0
POLYLINE
  8
LAYER-2
 66
  1
 70
  0
 62
  0
 10
1.976266
 20
21.955078
 30
0.000000
  0
VERTEX
  8
LAYER-2
 10
1.976266
 20
21.955078
 30
0.000000
  0
VERTEX
  8
LAYER-2
 10
1.983091
 20
21.954464
 30
0.000000
  0
SEQEND
  8
LAYER-2
  0
POLYLINE
  8
LAYER-2
 66
  1
 70
  0
 62
  0
 10
1.976266
 20
21.955078
 30
0.000000
  0
VERTEX
  8
LAYER-2
 10
1.976266
 20
21.955078
 30
0.000000
  0
VERTEX
  8
LAYER-2
 10
1.976266
 20
22.952011
 30
0.000000
  0
SEQEND
  8
LAYER-2
  0
ARC
  8
LAYER-2
 62
  0
 10
2.011265
 20
22.952011
 30
0.000000
 40
0.035000
 50
90.000000
 51
180.000000
  0
POLYLINE
  8
LAYER-2
 66
  1
 70
  0
 62
  0
 10
2.011265
 20
22.987011
 30
0.000000
  0
VERTEX
  8
LAYER-2
 10
2.011265
 20
22.987011
 30
0.000000
  0
VERTEX
  8
LAYER-2
 10
2.103030
 20
22.987011
 30
0.000000
  0
SEQEND
  8
LAYER-2
  0
ARC
  8
LAYER-2
 62
  0
 10
2.103030
 20
22.952011
 30
0.000000
 40
0.035000
 50
0.000000
 51
90.000000
  0
POLYLINE
  8
LAYER-2
 66
  1
 70
  0
 62
  0
 10
2.138030
 20
22.952011
 30
0.000000
  0
VERTEX
  8
LAYER-2
 10
2.138030
 20
22.952011
 30
0.000000
  0
VERTEX
  8
LAYER-2
 10
2.138030
 20
22.945311
 30
0.000000
  0
SEQEND
  8
LAYER-2
  0
ARC
  8
LAYER-2
 62
  0
 10
2.173030
 20
22.945311
 30
0.000000
 40
0.035000
 50
180.000000
 51
270.000000
  0
POLYLINE
  8
LAYER-2
 66
  1
 70
  0
 62
  0
 10
2.173030
 20
22.910312
 30
0.000000
  0
VERTEX
  8
LAYER-2
 10
2.173030
 20
22.910312
 30
0.000000
  0
VERTEX
  8
LAYER-2
 10
2.237585
 20
22.910312
 30
0.000000
  0
SEQEND
  8
LAYER-2
  0
ARC
  8
LAYER-2
 62
  0
 10
2.237585
 20
22.930311
 30
0.000000
 40
0.020000
 50
270.000000
 51
0.000000
  0
POLYLINE
  8
LAYER-2
 66
  1
 70
  0
 62
  0
 10
2.257585
 20
22.946092
 30
0.000000
  0
VERTEX
  8
LAYER-2
 10
2.257585
 20
22.946092
 30
0.000000
  0
VERTEX
  8
LAYER-2
 10
2.257585
 20
22.930311
 30
0.000000
  0
SEQEND
  8
LAYER-2
  0
ARC
  8
LAYER-2
 62
  0
 10
2.237585
 20
22.946092
 30
0.000000
 40
0.020000
 50
0.000000
 51
90.000000
  0
POLYLINE
  8
LAYER-2
 66
  1
 70
  0
 62
  0
 10
2.235392
 20
22.966092
 30
0.000000
  0
VERTEX
  8
LAYER-2
 10
2.235392
 20
22.966092
 30
0.000000
  0
VERTEX
  8
LAYER-2
 10
2.237585
 20
22.966092
 30
0.000000
  0
SEQEND
  8
LAYER-2
  0
ARC
  8
LAYER-2
 62
  0
 10
2.235392
 20
22.986092
 30
0.000000
 40
0.020000
 50
180.000000
 51
270.000000
  0
POLYLINE
  8
LAYER-2
 66
  1
 70
  0
 62
  0
 10
2.215393
 20
23.028707
 30
0.000000
  0
VERTEX
  8
LAYER-2
 10
2.215393
 20
23.028707
 30
0.000000
  0
VERTEX
  8
LAYER-2
 10
2.215393
 20
22.986092
 30
0.000000
  0
SEQEND
  8
LAYER-2
  0
ARC
  8
LAYER-2
 62
  0
 10
2.250392
 20
23.028707
 30
0.000000
 40
0.035000
 50
90.000000
 51
180.000000
  0
POLYLINE
  8
LAYER-2
 66
  1
 70
  0
 62
  0
 10
2.250392
 20
23.063707
 30
0.000000
  0
VERTEX
  8
LAYER-2
 10
2.250392
 20
23.063707
 30
0.000000
  0
VERTEX
  8
LAYER-2
 10
2.869636
 20
23.063707
 30
0.000000
  0
SEQEND
  8
LAYER-2
  0
ARC
  8
LAYER-2
 62
  0
 10
2.869636
 20
23.028707
 30
0.000000
 40
0.035000
 50
0.000000
 51
90.000000
  0
POLYLINE
  8
LAYER-2
 66
  1
 70
  0
 62
  0
 10
2.904634
 20
23.028707
 30
0.000000
  0
VERTEX
  8
LAYER-2
 10
2.904634
 20
23.028707
 30
0.000000
  0
VERTEX
  8
LAYER-2
 10
2.904634
 20
22.986092
 30
0.000000
  0
SEQEND
  8
LAYER-2
  0
ARC
  8
LAYER-2
 62
  0
 10
2.884636
 20
22.986092
 30
0.000000
 40
0.020000
 50
270.000000
 51
0.000000
  0
POLYLINE
  8
LAYER-2
 66
  1
 70
  0
 62
  0
 10
2.884636
 20
22.966092
 30
0.000000
  0
VERTEX
  8
LAYER-2
 10
2.884636
 20
22.966092
 30
0.000000
  0
VERTEX
  8
LAYER-2
 10
2.882434
 20
22.966092
 30
0.000000
  0
SEQEND
  8
LAYER-2
  0
ARC
  8
LAYER-2
 62
  0
 10
2.882434
 20
22.946092
 30
0.000000
 40
0.020000
 50
90.000000
 51
180.000000
  0
POLYLINE
  8
LAYER-2
 66
  1
 70
  0
 62
  0
 10
2.862435
 20
22.946092
 30
0.000000
  0
VERTEX
  8
LAYER-2
 10
2.862435
 20
22.946092
 30
0.000000
  0
VERTEX
  8
LAYER-2
 10
2.862435
 20
22.930311
 30
0.000000
  0
SEQEND
  8
LAYER-2
  0
ARC
  8
LAYER-2
 62
  0
 10
2.882434
 20
22.930311
 30
0.000000
 40
0.020000
 50
180.000000
 51
270.000000
  0
POLYLINE
  8
LAYER-2
 66
  1
 70
  0
 62
  0
 10
2.946997
 20
22.910312
 30
0.000000
  0
VERTEX
  8
LAYER-2
 10
2.946997
 20
22.910312
 30
0.000000
  0
VERTEX
  8
LAYER-2
 10
2.882434
 20
22.910312
 30
0.000000
  0
SEQEND
  8
LAYER-2
  0
ARC
  8
LAYER-2
 62
  0
 10
2.946997
 20
22.945311
 30
0.000000
 40
0.035000
 50
270.000000
 51
0.000000
  0
POLYLINE
  8
LAYER-2
 66
  1
 70
  0
 62
  0
 10
2.981997
 20
22.952011
 30
0.000000
  0
VERTEX
  8
LAYER-2
 10
2.981997
 20
22.952011
 30
0.000000
  0
VERTEX
  8
LAYER-2
 10
2.981997
 20
22.945311
 30
0.000000
  0
SEQEND
  8
LAYER-2
  0
ARC
  8
LAYER-2
 62
  0
 10
3.016997
 20
22.952011
 30
0.000000
 40
0.035000
 50
90.000000
 51
180.000000
  0
POLYLINE
  8
LAYER-2
 66
  1
 70
  0
 62
  0
 10
3.016997
 20
22.987011
 30
0.000000
  0
VERTEX
  8
LAYER-2
 10
3.016997
 20
22.987011
 30
0.000000
  0
VERTEX
  8
LAYER-2
 10
3.108753
 20
22.987011
 30
0.000000
  0
SEQEND
  8
LAYER-2
  0
ARC
  8
LAYER-2
 62
  0
 10
3.108753
 20
22.952011
 30
0.000000
 40
0.035000
 50
0.000000
 51
90.000000
  0
POLYLINE
  8
LAYER-2
 66
  1
 70
  0
 62
  0
 10
3.143754
 20
21.955078
 30
0.000000
  0
VERTEX
  8
LAYER-2
 10
3.143754
 20
21.955078
 30
0.000000
  0
VERTEX
  8
LAYER-2
 10
3.143754
 20
22.952011
 30
0.000000
  0
SEQEND
  8
LAYER-2
  0
POLYLINE
  8
LAYER-2
 66
  1
 70
  0
 62
  0
 10
3.143754
 20
21.955078
 30
0.000000
  0
VERTEX
  8
LAYER-2
 10
3.143754
 20
21.955078
 30
0.000000
  0
VERTEX
  8
LAYER-2
 10
3.133679
 20
21.954247
 30
0.000000
  0
SEQEND
  8
LAYER-2
  0
ARC
  8
LAYER-2
 62
  0
 10
3.136560
 20
21.919366
 30
0.000000
 40
0.035000
 50
94.722626
 51
180.000000
  0
POLYLINE
  8
LAYER-2
 66
  1
 70
  0
 62
  0
 10
3.101561
 20
21.798197
 30
0.000000
  0
VERTEX
  8
LAYER-2
 10
3.101561
 20
21.798197
 30
0.000000
  0
VERTEX
  8
LAYER-2
 10
3.101561
 20
21.919366
 30
0.000000
  0
SEQEND
  8
LAYER-2
  0
POLYLINE
  8
LAYER-2
 66
  1
 70
  0
 62
  0
 10
2.792105
 20
21.697093
 30
0.000000
  0
VERTEX
  8
LAYER-2
 10
2.792105
 20
21.697093
 30
0.000000
  0
VERTEX
  8
LAYER-2
 10
3.101561
 20
21.798197
 30
0.000000
  0
SEQEND
  8
LAYER-2
  0
POLYLINE
  8
LAYER-2
 66
  1
 70
  0
 62
  0
 10
2.792105
 20
21.697093
 30
0.000000
  0
VERTEX
  8
LAYER-2
 10
2.792105
 20
21.697093
 30
0.000000
  0
VERTEX
  8
LAYER-2
 10
2.792105
 20
21.578564
 30
0.000000
  0
SEQEND
  8
LAYER-2
  0
POLYLINE
  8
LAYER-2
 66
  1
 70
  0
 62
  0
 10
2.822485
 20
21.578573
 30
0.000000
  0
VERTEX
  8
LAYER-2
 10
2.822485
 20
21.578573
 30
0.000000
  0
VERTEX
  8
LAYER-2
 10
2.792105
 20
21.578564
 30
0.000000
  0
SEQEND
  8
LAYER-2
  0
ARC
  8
LAYER-2
 62
  0
 10
2.920357
 20
21.533434
 30
0.000000
 40
0.107781
 50
155.240906
 51
212.985077
  0
ARC
  8
LAYER-2
 62
  0
 10
2.855079
 20
21.491085
 30
0.000000
 40
0.029968
 50
213.016891
 51
33.016964
  0
ARC
  8
LAYER-2
 62
  0
 10
2.920357
 20
21.533434
 30
0.000000
 40
0.047844
 50
326.830200
 51
212.945007
  0
ARC
  8
LAYER-2
 62
  0
 10
2.985323
 20
21.490965
 30
0.000000
 40
0.029771
 50
146.821594
 51
326.821320
  0
POLYLINE
  8
LAYER-2
 66
  1
 70
  0
 62
  7
 10
2.364226
 20
21.829780
 30
0.000000
  0
VERTEX
  8
LAYER-2
 10
2.364226
 20
21.829780
 30
0.000000
  0
VERTEX
  8
LAYER-2
 10
2.350874
 20
21.896330
 30
0.000000
  0
VERTEX
  8
LAYER-2
 10
2.312848
 20
21.952749
 30
0.000000
  0
VERTEX
  8
LAYER-2
 10
2.255939
 20
21.990446
 30
0.000000
  0
VERTEX
  8
LAYER-2
 10
2.188810
 20
22.003686
 30
0.000000
  0
VERTEX
  8
LAYER-2
 10
2.121681
 20
21.990446
 30
0.000000
  0
VERTEX
  8
LAYER-2
 10
2.064772
 20
21.952749
 30
0.000000
  0
VERTEX
  8
LAYER-2
 10
2.026747
 20
21.896330
 30
0.000000
  0
VERTEX
  8
LAYER-2
 10
2.013394
 20
21.829780
 30
0.000000
  0
VERTEX
  8
LAYER-2
 10
2.026747
 20
21.763229
 30
0.000000
  0
VERTEX
  8
LAYER-2
 10
2.064772
 20
21.706811
 30
0.000000
  0
VERTEX
  8
LAYER-2
 10
2.121681
 20
21.669113
 30
0.000000
  0
VERTEX
  8
LAYER-2
 10
2.188810
 20
21.655875
 30
0.000000
  0
VERTEX
  8
LAYER-2
 10
2.255939
 20
21.669113
 30
0.000000
  0
VERTEX
  8
LAYER-2
 10
2.312848
 20
21.706811
 30
0.000000
  0
VERTEX
  8
LAYER-2
 10
2.350874
 20
21.763229
 30
0.000000
  0
VERTEX
  8
LAYER-2
 10
2.364226
 20
21.829780
 30
0.000000
  0
SEQEND
  8
LAYER-2
  0
POLYLINE
  8
LAYER-2
 66
  1
 70
  0
 62
  7
 10
3.095410
 20
21.837457
 30
0.000000
  0
VERTEX
  8
LAYER-2
 10
3.095410
 20
21.837457
 30
0.000000
  0
VERTEX
  8
LAYER-2
 10
3.082057
 20
21.904007
 30
0.000000
  0
VERTEX
  8
LAYER-2
 10
3.044032
 20
21.960425
 30
0.000000
  0
VERTEX
  8
LAYER-2
 10
2.987123
 20
21.998125
 30
0.000000
  0
VERTEX
  8
LAYER-2
 10
2.919994
 20
22.011363
 30
0.000000
  0
VERTEX
  8
LAYER-2
 10
2.852865
 20
21.998125
 30
0.000000
  0
VERTEX
  8
LAYER-2
 10
2.795956
 20
21.960425
 30
0.000000
  0
VERTEX
  8
LAYER-2
 10
2.757931
 20
21.904007
 30
0.000000
  0
VERTEX
  8
LAYER-2
 10
2.744578
 20
21.837457
 30
0.000000
  0
VERTEX
  8
LAYER-2
 10
2.757931
 20
21.770906
 30
0.000000
  0
VERTEX
  8
LAYER-2
 10
2.795956
 20
21.714488
 30
0.000000
  0
VERTEX
  8
LAYER-2
 10
2.852865
 20
21.676790
 30
0.000000
  0
VERTEX
  8
LAYER-2
 10
2.919994
 20
21.663552
 30
0.000000
  0
VERTEX
  8
LAYER-2
 10
2.987123
 20
21.676790
 30
0.000000
  0
VERTEX
  8
LAYER-2
 10
3.044032
 20
21.714488
 30
0.000000
  0
VERTEX
  8
LAYER-2
 10
3.082057
 20
21.770906
 30
0.000000
  0
VERTEX
  8
LAYER-2
 10
3.095410
 20
21.837457
 30
0.000000
  0
SEQEND
  8
LAYER-2
  0
LINE
  8
LAYER-2
 62
  0
 10
0.910159
 20
21.598248
 30
0.000000
 11
0.910159
 21
23.120717
 31
0.000000
  0
LINE
  8
LAYER-2
 62
  0
 10
1.815934
 20
21.578562
 30
0.000000
 11
0.660159
 21
21.578562
 31
0.000000
  0
LINE
  8
LAYER-2
 62
  0
 10
1.815934
 20
23.140403
 30
0.000000
 11
0.660159
 21
23.140403
 31
0.000000
  0
LINE
  8
LAYER-2
 62
  0
 10
0.910159
 20
22.370361
 30
0.000000
 11
0.910159
 21
21.578562
 31
0.000000
  0
POLYLINE
  8
LAYER-2
 66
  1
 70
  1
 62
  0
  0
VERTEX
  8
LAYER-2
 10
0.910159
 20
21.578562
 30
0.000000
  0
VERTEX
  8
LAYER-2
 10
0.993493
 20
21.717451
 30
0.000000
  0
VERTEX
  8
LAYER-2
 10
0.910160
 20
21.717451
 30
0.000000
  0
VERTEX
  8
LAYER-2
 10
0.826827
 20
21.717451
 30
0.000000
  0
VERTEX
  8
LAYER-2
 10
0.910159
 20
21.578562
 30
0.000000
  0
SEQEND
  8
LAYER-2
  0
POLYLINE
  8
LAYER-2
 66
  1
 70
  1
 62
  0
  0
VERTEX
  8
LAYER-2
 10
0.910159
 20
23.140403
 30
0.000000
  0
VERTEX
  8
LAYER-2
 10
0.993492
 20
23.001512
 30
0.000000
  0
VERTEX
  8
LAYER-2
 10
0.910159
 20
23.001514
 30
0.000000
  0
VERTEX
  8
LAYER-2
 10
0.826825
 20
23.001514
 30
0.000000
  0
VERTEX
  8
LAYER-2
 10
0.910159
 20
23.140403
 30
0.000000
  0
SEQEND
  8
LAYER-2
  0
TEXT
  8
LAYER-2
 62
  0
 10
0.827866
 20
22.545322
 30
0.000000
 40
0.250000
  1
1-9/16"
  0
TEXT
  8
LAYER-2
 62
  0
 10
2.083334
 20
23.173932
 30
0.000000
 40
0.250000
  1
(33mm)
 72
  5
 11
3.444445
 21
23.173932
 31
0.000000
  0
TEXT
  8
LAYER-2
 62
  0
 10
0.500001
 20
21.979487
 30
0.000000
 40
0.250000
  1
(40mm)
 72
  5
 11
1.861112
 21
21.979487
 31
0.000000
  0
POLYLINE
  8
LAYER-2
 66
  1
 70
  0
 62
  0
 10
3.058468
 20
22.670297
 30
0.000000
  0
VERTEX
  8
LAYER-2
 10
3.058468
 20
22.670297
 30
0.000000
  0
VERTEX
  8
LAYER-2
 10
3.046197
 20
22.714645
 30
0.000000
  0
VERTEX
  8
LAYER-2
 10
3.016858
 20
22.750575
 30
0.000000
  0
VERTEX
  8
LAYER-2
 10
2.972949
 20
22.774582
 30
0.000000
  0
VERTEX
  8
LAYER-2
 10
2.921155
 20
22.783012
 30
0.000000
  0
VERTEX
  8
LAYER-2
 10
2.869361
 20
22.774582
 30
0.000000
  0
VERTEX
  8
LAYER-2
 10
2.825452
 20
22.750575
 30
0.000000
  0
VERTEX
  8
LAYER-2
 10
2.796114
 20
22.714645
 30
0.000000
  0
VERTEX
  8
LAYER-2
 10
2.787779
 20
22.670297
 30
0.000000
  0
SEQEND
  8
LAYER-2
  0
POLYLINE
  8
LAYER-2
 66
  1
 70
  0
 62
  0
 10
2.787775
 20
22.670297
 30
0.000000
  0
VERTEX
  8
LAYER-2
 10
2.787775
 20
22.670297
 30
0.000000
  0
VERTEX
  8
LAYER-2
 10
2.787775
 20
21.779288
 30
0.000000
  0
SEQEND
  8
LAYER-2
  0
POLYLINE
  8
LAYER-2
 66
  1
 70
  0
 62
  0
 10
3.058467
 20
22.670297
 30
0.000000
  0
VERTEX
  8
LAYER-2
 10
3.058467
 20
22.670297
 30
0.000000
  0
VERTEX
  8
LAYER-2
 10
3.058467
 20
21.779288
 30
0.000000
  0
SEQEND
  8
LAYER-2
  0
POLYLINE
  8
LAYER-2
 66
  1
 70
  0
 62
  0
 10
2.787779
 20
21.779288
 30
0.000000
  0
VERTEX
  8
LAYER-2
 10
2.787779
 20
21.779288
 30
0.000000
  0
VERTEX
  8
LAYER-2
 10
2.796114
 20
21.738876
 30
0.000000
  0
VERTEX
  8
LAYER-2
 10
2.825452
 20
21.702947
 30
0.000000
  0
VERTEX
  8
LAYER-2
 10
2.869361
 20
21.678940
 30
0.000000
  0
VERTEX
  8
LAYER-2
 10
2.921155
 20
21.670510
 30
0.000000
  0
VERTEX
  8
LAYER-2
 10
2.972949
 20
21.678940
 30
0.000000
  0
VERTEX
  8
LAYER-2
 10
3.016858
 20
21.702947
 30
0.000000
  0
VERTEX
  8
LAYER-2
 10
3.046197
 20
21.738876
 30
0.000000
  0
VERTEX
  8
LAYER-2
 10
3.058468
 20
21.779288
 30
0.000000
  0
SEQEND
  8
LAYER-2
  0
POLYLINE
  8
LAYER-2
 66
  1
 70
  0
 62
  0
 10
2.319958
 20
22.669644
 30
0.000000
  0
VERTEX
  8
LAYER-2
 10
2.319958
 20
22.669644
 30
0.000000
  0
VERTEX
  8
LAYER-2
 10
2.307685
 20
22.714228
 30
0.000000
  0
VERTEX
  8
LAYER-2
 10
2.278342
 20
22.750356
 30
0.000000
  0
VERTEX
  8
LAYER-2
 10
2.234426
 20
22.774495
 30
0.000000
  0
VERTEX
  8
LAYER-2
 10
2.182625
 20
22.782973
 30
0.000000
  0
VERTEX
  8
LAYER-2
 10
2.130823
 20
22.774495
 30
0.000000
  0
VERTEX
  8
LAYER-2
 10
2.086908
 20
22.750356
 30
0.000000
  0
VERTEX
  8
LAYER-2
 10
2.057565
 20
22.714228
 30
0.000000
  0
VERTEX
  8
LAYER-2
 10
2.049230
 20
22.669644
 30
0.000000
  0
SEQEND
  8
LAYER-2
  0
POLYLINE
  8
LAYER-2
 66
  1
 70
  0
 62
  0
 10
2.049231
 20
22.669644
 30
0.000000
  0
VERTEX
  8
LAYER-2
 10
2.049231
 20
22.669644
 30
0.000000
  0
VERTEX
  8
LAYER-2
 10
2.049231
 20
21.773692
 30
0.000000
  0
SEQEND
  8
LAYER-2
  0
POLYLINE
  8
LAYER-2
 66
  1
 70
  0
 62
  0
 10
2.319969
 20
22.669644
 30
0.000000
  0
VERTEX
  8
LAYER-2
 10
2.319969
 20
22.669644
 30
0.000000
  0
VERTEX
  8
LAYER-2
 10
2.319969
 20
21.773692
 30
0.000000
  0
SEQEND
  8
LAYER-2
  0
POLYLINE
  8
LAYER-2
 66
  1
 70
  0
 62
  0
 10
2.049230
 20
21.773692
 30
0.000000
  0
VERTEX
  8
LAYER-2
 10
2.049230
 20
21.773692
 30
0.000000
  0
VERTEX
  8
LAYER-2
 10
2.057565
 20
21.733044
 30
0.000000
  0
VERTEX
  8
LAYER-2
 10
2.086908
 20
21.696916
 30
0.000000
  0
VERTEX
  8
LAYER-2
 10
2.130823
 20
21.672777
 30
0.000000
  0
VERTEX
  8
LAYER-2
 10
2.182625
 20
21.664300
 30
0.000000
  0
VERTEX
  8
LAYER-2
 10
2.234426
 20
21.672777
 30
0.000000
  0
VERTEX
  8
LAYER-2
 10
2.278342
 20
21.696916
 30
0.000000
  0
VERTEX
  8
LAYER-2
 10
2.307685
 20
21.733044
 30
0.000000
  0
VERTEX
  8
LAYER-2
 10
2.319958
 20
21.773692
 30
0.000000
  0
SEQEND
  8
LAYER-2
  0
POLYLINE
  8
LAYER-2
 66
  1
 70
  1
 62
  0
  0
VERTEX
  8
LAYER-2
 10
2.320269
 20
22.426673
 30
0.000000
  0
VERTEX
  8
LAYER-2
 10
2.787454
 20
22.426673
 30
0.000000
  0
VERTEX
  8
LAYER-2
 10
2.787454
 20
21.978699
 30
0.000000
  0
VERTEX
  8
LAYER-2
 10
2.320269
 20
21.978699
 30
0.000000
  0
SEQEND
  8
LAYER-2
  0
LINE
  8
LAYER-2
 62
  0
 10
3.385853
 20
21.688226
 30
0.000000
 11
3.385853
 21
22.761359
 31
0.000000
  0
LINE
  8
LAYER-2
 62
  0
 10
3.048124
 20
21.668542
 30
0.000000
 11
3.635852
 21
21.668542
 31
0.000000
  0
LINE
  8
LAYER-2
 62
  0
 10
3.048124
 20
22.781043
 30
0.000000
 11
3.635852
 21
22.781043
 31
0.000000
  0
LINE
  8
LAYER-2
 62
  0
 10
3.385853
 20
22.484948
 30
0.000000
 11
3.385853
 21
21.668542
 31
0.000000
  0
POLYLINE
  8
LAYER-2
 66
  1
 70
  1
 62
  0
  0
VERTEX
  8
LAYER-2
 10
3.385853
 20
21.668542
 30
0.000000
  0
VERTEX
  8
LAYER-2
 10
3.469186
 20
21.807431
 30
0.000000
  0
VERTEX
  8
LAYER-2
 10
3.385853
 20
21.807431
 30
0.000000
  0
VERTEX
  8
LAYER-2
 10
3.302520
 20
21.807431
 30
0.000000
  0
VERTEX
  8
LAYER-2
 10
3.385853
 20
21.668542
 30
0.000000
  0
SEQEND
  8
LAYER-2
  0
POLYLINE
  8
LAYER-2
 66
  1
 70
  1
 62
  0
  0
VERTEX
  8
LAYER-2
 10
3.385853
 20
22.781043
 30
0.000000
  0
VERTEX
  8
LAYER-2
 10
3.469186
 20
22.642154
 30
0.000000
  0
VERTEX
  8
LAYER-2
 10
3.385852
 20
22.642154
 30
0.000000
  0
VERTEX
  8
LAYER-2
 10
3.302519
 20
22.642154
 30
0.000000
  0
VERTEX
  8
LAYER-2
 10
3.385853
 20
22.781043
 30
0.000000
  0
SEQEND
  8
LAYER-2
  0
TEXT
  8
LAYER-2
 62
  0
 10
3.657828
 20
22.308524
 30
0.000000
 40
0.250000
  1
 
 50
90.000000
  0
TEXT
  8
LAYER-2
 62
  0
 10
3.694445
 20
22.423932
 30
0.000000
 40
0.208333
  1
Rotella
 72
  5
 11
4.722223
 21
22.423932
 31
0.000000
  0
TEXT
  8
LAYER-2
 62
  0
 10
3.694445
 20
22.118376
 30
0.000000
 40
0.208333
  1
1-1/8" ¯
 72
  5
 11
4.916667
 21
22.118376
 31
0.000000
  0
TEXT
  8
LAYER-2
 62
  0
 10
3.694445
 20
21.812820
 30
0.000000
 40
0.208333
  1
(29mm)
 72
  5
 11
4.777778
 21
21.812820
 31
0.000000
  0
TEXT
  8
LAYER-2
 62
  0
 10
2.388890
 20
21.118376
 30
0.000000
 40
0.208333
  1
1"
 72
  5
 11
2.805556
 21
21.118376
 31
0.000000
  0
TEXT
  8
LAYER-2
 62
  0
 10
2.055556
 20
20.673932
 30
0.000000
 40
0.208333
  1
(25mm)
 72
  5
 11
3.138890
 21
20.673932
 31
0.000000
  0
POLYLINE
  8
LAYER-2
 66
  1
 70
  0
 62
  0
 10
2.072205
 20
20.998837
 30
0.000000
  0
VERTEX
  8
LAYER-2
 10
2.072205
 20
20.998837
 30
0.000000
  0
VERTEX
  8
LAYER-2
 10
3.046724
 20
20.998837
 30
0.000000
  0
SEQEND
  8
LAYER-2
  0
POLYLINE
  8
LAYER-2
 66
  1
 70
  1
 62
  0
  0
VERTEX
  8
LAYER-2
 10
2.052520
 20
20.998837
 30
0.000000
  0
VERTEX
  8
LAYER-2
 10
2.191409
 20
20.915505
 30
0.000000
  0
VERTEX
  8
LAYER-2
 10
2.191409
 20
20.998839
 30
0.000000
  0
VERTEX
  8
LAYER-2
 10
2.191409
 20
21.082172
 30
0.000000
  0
VERTEX
  8
LAYER-2
 10
2.052520
 20
20.998837
 30
0.000000
  0
SEQEND
  8
LAYER-2
  0
POLYLINE
  8
LAYER-2
 66
  1
 70
  1
 62
  0
  0
VERTEX
  8
LAYER-2
 10
3.066409
 20
20.998837
 30
0.000000
  0
VERTEX
  8
LAYER-2
 10
2.927521
 20
20.915504
 30
0.000000
  0
VERTEX
  8
LAYER-2
 10
2.927521
 20
20.998837
 30
0.000000
  0
VERTEX
  8
LAYER-2
 10
2.927520
 20
21.082170
 30
0.000000
  0
VERTEX
  8
LAYER-2
 10
3.066409
 20
20.998837
 30
0.000000
  0
SEQEND
  8
LAYER-2
  0
POLYLINE
  8
LAYER-2
 66
  1
 70
  0
 62
  0
 10
3.066409
 20
20.936337
 30
0.000000
  0
VERTEX
  8
LAYER-2
 10
3.066409
 20
20.936337
 30
0.000000
  0
VERTEX
  8
LAYER-2
 10
3.066409
 20
21.540504
 30
0.000000
  0
SEQEND
  8
LAYER-2
  0
POLYLINE
  8
LAYER-2
 66
  1
 70
  0
 62
  0
 10
2.052520
 20
20.929392
 30
0.000000
  0
VERTEX
  8
LAYER-2
 10
2.052520
 20
20.929392
 30
0.000000
  0
VERTEX
  8
LAYER-2
 10
2.052520
 20
21.547448
 30
0.000000
  0
SEQEND
  8
LAYER-2
  0
LINE
  8
LAYER-2
 62
  0
 10
1.925620
 20
23.623837
 30
0.000000
 11
3.201439
 21
23.623837
 31
0.000000
  0
LINE
  8
LAYER-2
 62
  0
 10
1.905935
 20
23.230403
 30
0.000000
 11
1.905935
 21
23.873837
 31
0.000000
  0
LINE
  8
LAYER-2
 62
  0
 10
3.221124
 20
23.230403
 30
0.000000
 11
3.221124
 21
23.873837
 31
0.000000
  0
POLYLINE
  8
LAYER-2
 66
  1
 70
  1
 62
  0
  0
VERTEX
  8
LAYER-2
 10
1.905935
 20
23.623837
 30
0.000000
  0
VERTEX
  8
LAYER-2
 10
2.044824
 20
23.540505
 30
0.000000
  0
VERTEX
  8
LAYER-2
 10
2.044824
 20
23.623839
 30
0.000000
  0
VERTEX
  8
LAYER-2
 10
2.044823
 20
23.707172
 30
0.000000
  0
VERTEX
  8
LAYER-2
 10
1.905935
 20
23.623837
 30
0.000000
  0
SEQEND
  8
LAYER-2
  0
POLYLINE
  8
LAYER-2
 66
  1
 70
  1
 62
  0
  0
VERTEX
  8
LAYER-2
 10
3.221124
 20
23.623837
 30
0.000000
  0
VERTEX
  8
LAYER-2
 10
3.082236
 20
23.540504
 30
0.000000
  0
VERTEX
  8
LAYER-2
 10
3.082235
 20
23.623837
 30
0.000000
  0
VERTEX
  8
LAYER-2
 10
3.082235
 20
23.707170
 30
0.000000
  0
VERTEX
  8
LAYER-2
 10
3.221124
 20
23.623837
 30
0.000000
  0
SEQEND
  8
LAYER-2
  0
TEXT
  8
LAYER-2
 62
  0
 10
2.402669
 20
23.883905
 30
0.000000
 40
0.250000
  1
1-5/16"
  0
POLYLINE
  8
LAYER-2
  6
LTYPE01
 66
  1
 70
  0
 62
  0
  6
LTYPE01
 10
11.196404
 20
23.267812
 30
0.000000
  0
VERTEX
  8
LAYER-2
  6
LTYPE01
 10
11.196404
 20
23.267812
 30
0.000000
  0
VERTEX
  8
LAYER-2
  6
LTYPE01
 10
12.151602
 20
23.523756
 30
0.000000
  0
SEQEND
  8
LAYER-2
  0
POLYLINE
  8
LAYER-2
  6
LTYPE01
 66
  1
 70
  0
 62
  0
  6
LTYPE01
 10
11.636414
 20
23.146762
 30
0.000000
  0
VERTEX
  8
LAYER-2
  6
LTYPE01
 10
11.636414
 20
23.146762
 30
0.000000
  0
VERTEX
  8
LAYER-2
  6
LTYPE01
 10
12.597488
 20
23.404282
 30
0.000000
  0
SEQEND
  8
LAYER-2
  0
POLYLINE
  8
LAYER-2
  6
LTYPE01
 66
  1
 70
  0
 62
  0
  6
LTYPE01
 10
11.635135
 20
23.061315
 30
0.000000
  0
VERTEX
  8
LAYER-2
  6
LTYPE01
 10
11.635135
 20
23.061315
 30
0.000000
  0
VERTEX
  8
LAYER-2
  6
LTYPE01
 10
12.597488
 20
23.319177
 30
0.000000
  0
SEQEND
  8
LAYER-2
  0
POLYLINE
  8
LAYER-2
  6
LTYPE01
 66
  1
 70
  0
 62
  0
  6
LTYPE01
 10
12.597488
 20
23.319177
 30
0.000000
  0
VERTEX
  8
LAYER-2
  6
LTYPE01
 10
12.597488
 20
23.319177
 30
0.000000
  0
VERTEX
  8
LAYER-2
  6
LTYPE01
 10
12.597488
 20
23.404282
 30
0.000000
  0
SEQEND
  8
LAYER-2
  0
POLYLINE
  8
LAYER-2
  6
LTYPE01
 66
  1
 70
  0
 62
  0
  6
LTYPE01
 10
12.597488
 20
23.404282
 30
0.000000
  0
VERTEX
  8
LAYER-2
  6
LTYPE01
 10
12.597488
 20
23.404282
 30
0.000000
  0
VERTEX
  8
LAYER-2
  6
LTYPE01
 10
12.151602
 20
23.523756
 30
0.000000
  0
SEQEND
  8
LAYER-2
  0
POLYLINE
  8
LAYER-2
  6
LTYPE01
 66
  1
 70
  0
 62
  0
  6
LTYPE01
 10
11.652534
 20
21.764559
 30
0.000000
  0
VERTEX
  8
LAYER-2
  6
LTYPE01
 10
11.652534
 20
21.764559
 30
0.000000
  0
VERTEX
  8
LAYER-2
  6
LTYPE01
 10
12.611376
 20
22.021481
 30
0.000000
  0
SEQEND
  8
LAYER-2
  0
POLYLINE
  8
LAYER-2
  6
LTYPE01
 66
  1
 70
  0
 62
  0
  6
LTYPE01
 10
11.678039
 20
21.694989
 30
0.000000
  0
VERTEX
  8
LAYER-2
  6
LTYPE01
 10
11.678039
 20
21.694989
 30
0.000000
  0
VERTEX
  8
LAYER-2
  6
LTYPE01
 10
12.637418
 20
21.952053
 30
0.000000
  0
SEQEND
  8
LAYER-2
  0
ARC
  8
LAYER-2
 62
  0
  6
LTYPE01
 10
12.612950
 20
21.982473
 30
0.000000
 40
0.039039
 50
308.811371
 51
92.311340
  0
TEXT
  8
LAYER-2
 62
  0
 10
2.166667
 20
20.340598
 30
0.000000
 40
0.208333
  1
Rotella
 72
  5
 11
3.194445
 21
20.340598
 31
0.000000
  0
ENDSEC
  0
EOF
