  0
SECTION
  2
HEADER
999
MacDraft 5.0\0
  9
$ACADVER
  1
AC1006
  9
$CLAYER
  8
LAYER-1
  9
$EXTMIN
 10
0.000000
 20
0.000000
  9
$EXTMAX
 10
7.437506
 20
10.004098
  9
$FASTZOOM
 70
0
  9
$FILLMODE
 70
1
  0
ENDSEC
  0
SECTION
  2
TABLES
  0
TABLE
  2
LTYPE
 70
16
  0
LTYPE
  2
CONTINUOUS
 70
64
  3
Solid Line
 72
65
 73
0
 40
0.000000
  0
LTYPE
  2
LTYPE01
 70
64
  3
CUSTOM
 72
65
 73
2
 40
0.111111
 49
0.083333
 49
-0.027778
  0
LTYPE
  2
LTYPE02
 70
64
  3
CUSTOM
 72
65
 73
2
 40
0.194444
 49
0.166667
 49
-0.027778
  0
LTYPE
  2
LTYPE03
 70
64
  3
CUSTOM
 72
65
 73
2
 40
0.375000
 49
0.333333
 49
-0.041667
  0
LTYPE
  2
LTYPE04
 70
64
  3
CUSTOM
 72
65
 73
2
 40
0.722222
 49
0.666667
 49
-0.055556
  0
LTYPE
  2
LTYPE05
 70
64
  3
CUSTOM
 72
65
 73
4
 40
0.152778
 49
0.083333
 49
-0.027778
 49
0.013889
 49
-0.027778
  0
LTYPE
  2
LTYPE06
 70
64
  3
CUSTOM
 72
65
 73
4
 40
0.236111
 49
0.166667
 49
-0.027778
 49
0.013889
 49
-0.027778
  0
LTYPE
  2
LTYPE07
 70
64
  3
CUSTOM
 72
65
 73
4
 40
0.444444
 49
0.333333
 49
-0.041667
 49
0.027778
 49
-0.041667
  0
LTYPE
  2
LTYPE08
 70
64
  3
CUSTOM
 72
65
 73
4
 40
0.805556
 49
0.666667
 49
-0.055556
 49
0.027778
 49
-0.055556
  0
LTYPE
  2
LTYPE09
 70
64
  3
CUSTOM
 72
65
 73
6
 40
0.194444
 49
0.083333
 49
-0.027778
 49
0.013889
 49
-0.027778
 49
0.013889
 49
-0.027778
  0
LTYPE
  2
LTYPE10
 70
64
  3
CUSTOM
 72
65
 73
6
 40
0.277778
 49
0.166667
 49
-0.027778
 49
0.013889
 49
-0.027778
 49
0.013889
 49
-0.027778
  0
LTYPE
  2
LTYPE11
 70
64
  3
CUSTOM
 72
65
 73
6
 40
0.500000
 49
0.333333
 49
-0.041667
 49
0.027778
 49
-0.027778
 49
0.027778
 49
-0.041667
  0
LTYPE
  2
LTYPE12
 70
64
  3
CUSTOM
 72
65
 73
6
 40
0.861111
 49
0.666667
 49
-0.055556
 49
0.027778
 49
-0.027778
 49
0.027778
 49
-0.055556
  0
LTYPE
  2
LTYPE13
 70
64
  3
CUSTOM
 72
65
 73
8
 40
0.319444
 49
0.166667
 49
-0.027778
 49
0.013889
 49
-0.027778
 49
0.013889
 49
-0.027778
 49
0.013889
 49
-0.027778
  0
LTYPE
  2
LTYPE14
 70
64
  3
CUSTOM
 72
65
 73
8
 40
0.555556
 49
0.333333
 49
-0.041667
 49
0.027778
 49
-0.027778
 49
0.027778
 49
-0.027778
 49
0.027778
 49
-0.041667
  0
LTYPE
  2
LTYPE15
 70
64
  3
CUSTOM
 72
65
 73
8
 40
0.944444
 49
0.666667
 49
-0.055556
 49
0.027778
 49
-0.041667
 49
0.027778
 49
-0.041667
 49
0.027778
 49
-0.055556
  0
ENDTAB
  0
TABLE
  2
LAYER
 70
1
  0
LAYER
  2
LAYER-1
 70
0
 62
7
  6
CONTINUOUS
  0
ENDTAB
  0
ENDSEC
  0
SECTION
  2
BLOCKS
  0
ENDSEC
  0
SECTION
  2
ENTITIES
  0
POLYLINE
  8
LAYER-1
 66
  1
 70
  1
 62
  0
  0
VERTEX
  8
LAYER-1
 10
1.491818
 20
4.207123
 30
0.000000
  0
VERTEX
  8
LAYER-1
 10
1.539760
 20
4.207123
 30
0.000000
  0
VERTEX
  8
LAYER-1
 10
1.539760
 20
3.917733
 30
0.000000
  0
VERTEX
  8
LAYER-1
 10
1.491818
 20
3.917733
 30
0.000000
  0
SEQEND
  8
LAYER-1
  0
POLYLINE
  8
LAYER-1
 66
  1
 70
  1
 62
  0
 10
1.780744
 20
5.400335
 30
0.000000
  0
VERTEX
  8
LAYER-1
 10
1.780744
 20
5.400335
 30
0.000000
  0
VERTEX
  8
LAYER-1
 10
1.731390
 20
5.400236
 30
0.000000
  0
VERTEX
  8
LAYER-1
 10
1.731390
 20
7.425844
 30
0.000000
  0
VERTEX
  8
LAYER-1
 10
2.773192
 20
7.425844
 30
0.000000
  0
VERTEX
  8
LAYER-1
 10
2.773192
 20
4.156614
 30
0.000000
  0
VERTEX
  8
LAYER-1
 10
1.540343
 20
4.156614
 30
0.000000
  0
VERTEX
  8
LAYER-1
 10
1.539760
 20
4.207123
 30
0.000000
  0
VERTEX
  8
LAYER-1
 10
2.726120
 20
4.206748
 30
0.000000
  0
VERTEX
  8
LAYER-1
 10
2.726120
 20
7.376907
 30
0.000000
  0
VERTEX
  8
LAYER-1
 10
1.780744
 20
7.376907
 30
0.000000
  0
SEQEND
  8
LAYER-1
  0
POLYLINE
  8
LAYER-1
 66
  1
 70
  1
 62
  0
 10
1.538537
 20
5.400236
 30
0.000000
  0
VERTEX
  8
LAYER-1
 10
1.538537
 20
5.400236
 30
0.000000
  0
VERTEX
  8
LAYER-1
 10
1.491253
 20
5.400335
 30
0.000000
  0
VERTEX
  8
LAYER-1
 10
1.491465
 20
7.666186
 30
0.000000
  0
VERTEX
  8
LAYER-1
 10
3.015400
 20
7.666186
 30
0.000000
  0
VERTEX
  8
LAYER-1
 10
3.015400
 20
3.917733
 30
0.000000
  0
VERTEX
  8
LAYER-1
 10
1.539760
 20
3.917733
 30
0.000000
  0
VERTEX
  8
LAYER-1
 10
1.540343
 20
3.965290
 30
0.000000
  0
VERTEX
  8
LAYER-1
 10
2.966045
 20
3.965290
 30
0.000000
  0
VERTEX
  8
LAYER-1
 10
2.966045
 20
7.618698
 30
0.000000
  0
VERTEX
  8
LAYER-1
 10
1.538537
 20
7.618698
 30
0.000000
  0
SEQEND
  8
LAYER-1
  0
POLYLINE
  8
LAYER-1
 66
  1
 70
  1
 62
  0
 10
5.240768
 20
4.944417
 30
0.000000
  0
VERTEX
  8
LAYER-1
 10
5.240768
 20
4.944417
 30
0.000000
  0
VERTEX
  8
LAYER-1
 10
5.240768
 20
7.050271
 30
0.000000
  0
VERTEX
  8
LAYER-1
 10
6.099777
 20
7.050271
 30
0.000000
  0
VERTEX
  8
LAYER-1
 10
6.099777
 20
4.944336
 30
0.000000
  0
VERTEX
  8
LAYER-1
 10
6.052323
 20
4.944319
 30
0.000000
  0
VERTEX
  8
LAYER-1
 10
6.052704
 20
7.001333
 30
0.000000
  0
VERTEX
  8
LAYER-1
 10
5.290122
 20
7.001333
 30
0.000000
  0
VERTEX
  8
LAYER-1
 10
5.290313
 20
4.944417
 30
0.000000
  0
SEQEND
  8
LAYER-1
  0
ARC
  8
LAYER-1
 62
  0
 10
5.434288
 20
8.932854
 30
0.000000
 40
0.254425
 50
270.000000
 51
90.000000
  0
POLYLINE
  8
LAYER-1
 66
  1
 70
  0
 62
  0
 10
5.434288
 20
9.187279
 30
0.000000
  0
VERTEX
  8
LAYER-1
 10
5.434288
 20
9.187279
 30
0.000000
  0
VERTEX
  8
LAYER-1
 10
1.769366
 20
9.187279
 30
0.000000
  0
SEQEND
  8
LAYER-1
  0
POLYLINE
  8
LAYER-1
 66
  1
 70
  0
 62
  0
 10
1.769366
 20
9.187279
 30
0.000000
  0
VERTEX
  8
LAYER-1
 10
1.769366
 20
9.187279
 30
0.000000
  0
VERTEX
  8
LAYER-1
 10
1.769366
 20
8.678429
 30
0.000000
  0
SEQEND
  8
LAYER-1
  0
POLYLINE
  8
LAYER-1
 66
  1
 70
  0
 62
  0
 10
5.434288
 20
8.678429
 30
0.000000
  0
VERTEX
  8
LAYER-1
 10
5.434288
 20
8.678429
 30
0.000000
  0
VERTEX
  8
LAYER-1
 10
1.769366
 20
8.678429
 30
0.000000
  0
SEQEND
  8
LAYER-1
  0
TEXT
  8
LAYER-1
 62
  0
 10
3.576389
 20
9.472221
 30
0.000000
 40
0.333333
  1
MobilFlex
 72
  5
 11
5.729167
 21
9.472221
 31
0.000000
  0
POLYLINE
  8
LAYER-1
 66
  1
 70
  1
 62
  0
  0
VERTEX
  8
LAYER-1
 10
1.770869
 20
10.002431
 30
0.000000
  0
VERTEX
  8
LAYER-1
 10
2.008716
 20
10.002431
 30
0.000000
  0
VERTEX
  8
LAYER-1
 10
2.008716
 20
9.485486
 30
0.000000
  0
VERTEX
  8
LAYER-1
 10
1.770869
 20
9.485486
 30
0.000000
  0
SEQEND
  8
LAYER-1
  0
POLYLINE
  8
LAYER-1
 66
  1
 70
  1
 62
  0
  0
VERTEX
  8
LAYER-1
 10
2.083369
 20
10.002431
 30
0.000000
  0
VERTEX
  8
LAYER-1
 10
2.321216
 20
10.002431
 30
0.000000
  0
VERTEX
  8
LAYER-1
 10
2.321216
 20
9.485486
 30
0.000000
  0
VERTEX
  8
LAYER-1
 10
2.083369
 20
9.485486
 30
0.000000
  0
SEQEND
  8
LAYER-1
  0
POLYLINE
  8
LAYER-1
 66
  1
 70
  1
 62
  0
  0
VERTEX
  8
LAYER-1
 10
2.383716
 20
10.002431
 30
0.000000
  0
VERTEX
  8
LAYER-1
 10
2.621564
 20
10.002431
 30
0.000000
  0
VERTEX
  8
LAYER-1
 10
2.621564
 20
9.485486
 30
0.000000
  0
VERTEX
  8
LAYER-1
 10
2.383716
 20
9.485486
 30
0.000000
  0
SEQEND
  8
LAYER-1
  0
POLYLINE
  8
LAYER-1
 66
  1
 70
  1
 62
  0
  0
VERTEX
  8
LAYER-1
 10
2.687536
 20
10.002431
 30
0.000000
  0
VERTEX
  8
LAYER-1
 10
2.925383
 20
10.002431
 30
0.000000
  0
VERTEX
  8
LAYER-1
 10
2.925383
 20
9.485486
 30
0.000000
  0
VERTEX
  8
LAYER-1
 10
2.687536
 20
9.485486
 30
0.000000
  0
SEQEND
  8
LAYER-1
  0
POLYLINE
  8
LAYER-1
 66
  1
 70
  1
 62
  0
  0
VERTEX
  8
LAYER-1
 10
3.004376
 20
9.998516
 30
0.000000
  0
VERTEX
  8
LAYER-1
 10
3.379810
 20
9.998516
 30
0.000000
  0
VERTEX
  8
LAYER-1
 10
3.379810
 20
9.860495
 30
0.000000
  0
VERTEX
  8
LAYER-1
 10
3.004376
 20
9.860495
 30
0.000000
  0
SEQEND
  8
LAYER-1
  0
POLYLINE
  8
LAYER-1
 66
  1
 70
  1
 62
  0
  0
VERTEX
  8
LAYER-1
 10
3.003942
 20
9.771085
 30
0.000000
  0
VERTEX
  8
LAYER-1
 10
3.312102
 20
9.771085
 30
0.000000
  0
VERTEX
  8
LAYER-1
 10
3.312102
 20
9.636971
 30
0.000000
  0
VERTEX
  8
LAYER-1
 10
3.003942
 20
9.636971
 30
0.000000
  0
SEQEND
  8
LAYER-1
  0
POLYLINE
  8
LAYER-1
 66
  1
 70
  1
 62
  0
  0
VERTEX
  8
LAYER-1
 10
1.770869
 20
9.400859
 30
0.000000
  0
VERTEX
  8
LAYER-1
 10
5.689273
 20
9.400859
 30
0.000000
  0
VERTEX
  8
LAYER-1
 10
5.689273
 20
9.357457
 30
0.000000
  0
VERTEX
  8
LAYER-1
 10
1.770869
 20
9.357457
 30
0.000000
  0
SEQEND
  8
LAYER-1
  0
TEXT
  8
LAYER-1
 62
  7
 10
1.979167
 20
8.819444
 30
0.000000
 40
0.187500
  1
Requisiti degli alloggiamenti
 72
  5
 11
5.437501
 21
8.819444
 31
0.000000
  0
POLYLINE
  8
LAYER-1
 66
  1
 70
  0
 62
  0
 10
4.208337
 20
3.437494
 30
0.000000
  0
VERTEX
  8
LAYER-1
 10
4.208337
 20
3.437494
 30
0.000000
  0
VERTEX
  8
LAYER-1
 10
7.423617
 20
3.437494
 30
0.000000
  0
SEQEND
  8
LAYER-1
  0
POLYLINE
  8
LAYER-1
 66
  1
 70
  0
 62
  0
 10
7.423617
 20
3.437494
 30
0.000000
  0
VERTEX
  8
LAYER-1
 10
7.423617
 20
3.437494
 30
0.000000
  0
VERTEX
  8
LAYER-1
 10
7.423617
 20
1.180546
 30
0.000000
  0
SEQEND
  8
LAYER-1
  0
POLYLINE
  8
LAYER-1
 66
  1
 70
  0
 62
  0
 10
4.208337
 20
1.180546
 30
0.000000
  0
VERTEX
  8
LAYER-1
 10
4.208337
 20
1.180546
 30
0.000000
  0
VERTEX
  8
LAYER-1
 10
4.208337
 20
3.437494
 30
0.000000
  0
SEQEND
  8
LAYER-1
  0
POLYLINE
  8
LAYER-1
 66
  1
 70
  0
 62
  0
 10
0.076389
 20
3.437493
 30
0.000000
  0
VERTEX
  8
LAYER-1
 10
0.076389
 20
3.437493
 30
0.000000
  0
VERTEX
  8
LAYER-1
 10
3.854172
 20
3.437493
 30
0.000000
  0
SEQEND
  8
LAYER-1
  0
POLYLINE
  8
LAYER-1
 66
  1
 70
  0
 62
  0
 10
3.854172
 20
3.437493
 30
0.000000
  0
VERTEX
  8
LAYER-1
 10
3.854172
 20
3.437493
 30
0.000000
  0
VERTEX
  8
LAYER-1
 10
3.854172
 20
1.180549
 30
0.000000
  0
SEQEND
  8
LAYER-1
  0
POLYLINE
  8
LAYER-1
 66
  1
 70
  0
 62
  0
 10
3.854172
 20
1.180549
 30
0.000000
  0
VERTEX
  8
LAYER-1
 10
3.854172
 20
1.180549
 30
0.000000
  0
VERTEX
  8
LAYER-1
 10
0.076389
 20
1.180549
 30
0.000000
  0
SEQEND
  8
LAYER-1
  0
POLYLINE
  8
LAYER-1
 66
  1
 70
  0
 62
  0
 10
0.076389
 20
1.180549
 30
0.000000
  0
VERTEX
  8
LAYER-1
 10
0.076389
 20
1.180549
 30
0.000000
  0
VERTEX
  8
LAYER-1
 10
0.076389
 20
3.437493
 30
0.000000
  0
SEQEND
  8
LAYER-1
  0
POLYLINE
  8
LAYER-1
 66
  1
 70
  0
 62
  0
 10
6.053645
 20
7.332744
 30
0.000000
  0
VERTEX
  8
LAYER-1
 10
6.053645
 20
7.332744
 30
0.000000
  0
VERTEX
  8
LAYER-1
 10
6.052084
 20
7.600694
 30
0.000000
  0
SEQEND
  8
LAYER-1
  0
POLYLINE
  8
LAYER-1
 66
  1
 70
  0
 62
  0
 10
5.289181
 20
7.328039
 30
0.000000
  0
VERTEX
  8
LAYER-1
 10
5.289181
 20
7.328039
 30
0.000000
  0
VERTEX
  8
LAYER-1
 10
5.288195
 20
7.600694
 30
0.000000
  0
SEQEND
  8
LAYER-1
  0
POLYLINE
  8
LAYER-1
  6
LTYPE06
 66
  1
 70
  0
 62
  0
  6
LTYPE06
 10
5.677417
 20
4.386870
 30
0.000000
  0
VERTEX
  8
LAYER-1
  6
LTYPE06
 10
5.677417
 20
4.386870
 30
0.000000
  0
VERTEX
  8
LAYER-1
  6
LTYPE06
 10
5.675395
 20
7.000824
 30
0.000000
  0
SEQEND
  8
LAYER-1
  0
POLYLINE
  8
LAYER-1
 66
  1
 70
  0
 62
  0
 10
6.053645
 20
7.536167
 30
0.000000
  0
VERTEX
  8
LAYER-1
 10
6.053645
 20
7.536167
 30
0.000000
  0
VERTEX
  8
LAYER-1
 10
5.289182
 20
7.536167
 30
0.000000
  0
SEQEND
  8
LAYER-1
  0
LINE
  8
LAYER-1
 62
  0
 10
6.024183
 20
7.506704
 30
0.000000
 11
6.083108
 21
7.565630
 31
0.000000
  0
LINE
  8
LAYER-1
 62
  0
 10
5.259719
 20
7.506704
 30
0.000000
 11
5.318645
 21
7.565630
 31
0.000000
  0
POLYLINE
  8
LAYER-1
 66
  1
 70
  0
 62
  0
 10
6.099777
 20
4.944336
 30
0.000000
  0
VERTEX
  8
LAYER-1
 10
6.099777
 20
4.944336
 30
0.000000
  0
VERTEX
  8
LAYER-1
 10
6.292630
 20
4.944336
 30
0.000000
  0
SEQEND
  8
LAYER-1
  0
POLYLINE
  8
LAYER-1
 66
  1
 70
  1
 62
  0
 10
6.269243
 20
4.945950
 30
0.000000
  0
VERTEX
  8
LAYER-1
 10
6.269243
 20
4.945950
 30
0.000000
  0
VERTEX
  8
LAYER-1
 10
6.262665
 20
4.952528
 30
0.000000
  0
VERTEX
  8
LAYER-1
 10
6.129637
 20
4.952528
 30
0.000000
  0
VERTEX
  8
LAYER-1
 10
6.123059
 20
4.945950
 30
0.000000
  0
VERTEX
  8
LAYER-1
 10
6.100638
 20
4.945950
 30
0.000000
  0
VERTEX
  8
LAYER-1
 10
6.100638
 20
5.041612
 30
0.000000
  0
VERTEX
  8
LAYER-1
 10
6.123059
 20
5.041612
 30
0.000000
  0
VERTEX
  8
LAYER-1
 10
6.123059
 20
5.035035
 30
0.000000
  0
VERTEX
  8
LAYER-1
 10
6.107215
 20
5.035035
 30
0.000000
  0
VERTEX
  8
LAYER-1
 10
6.107215
 20
4.952528
 30
0.000000
  0
VERTEX
  8
LAYER-1
 10
6.120069
 20
4.952527
 30
0.000000
  0
VERTEX
  8
LAYER-1
 10
6.126945
 20
4.959402
 30
0.000000
  0
VERTEX
  8
LAYER-1
 10
6.265057
 20
4.959402
 30
0.000000
  0
VERTEX
  8
LAYER-1
 10
6.271933
 20
4.952527
 30
0.000000
  0
VERTEX
  8
LAYER-1
 10
6.285386
 20
4.952528
 30
0.000000
  0
VERTEX
  8
LAYER-1
 10
6.285386
 20
5.035035
 30
0.000000
  0
VERTEX
  8
LAYER-1
 10
6.269243
 20
5.035035
 30
0.000000
  0
VERTEX
  8
LAYER-1
 10
6.269243
 20
5.041612
 30
0.000000
  0
VERTEX
  8
LAYER-1
 10
6.291962
 20
5.041612
 30
0.000000
  0
VERTEX
  8
LAYER-1
 10
6.291962
 20
4.945950
 30
0.000000
  0
SEQEND
  8
LAYER-1
  0
POLYLINE
  8
LAYER-1
 66
  1
 70
  1
 62
  0
 10
6.123260
 20
7.045399
 30
0.000000
  0
VERTEX
  8
LAYER-1
 10
6.123260
 20
7.045399
 30
0.000000
  0
VERTEX
  8
LAYER-1
 10
6.129837
 20
7.038822
 30
0.000000
  0
VERTEX
  8
LAYER-1
 10
6.262866
 20
7.038822
 30
0.000000
  0
VERTEX
  8
LAYER-1
 10
6.269444
 20
7.045399
 30
0.000000
  0
VERTEX
  8
LAYER-1
 10
6.291865
 20
7.045399
 30
0.000000
  0
VERTEX
  8
LAYER-1
 10
6.291865
 20
6.949737
 30
0.000000
  0
VERTEX
  8
LAYER-1
 10
6.269444
 20
6.949737
 30
0.000000
  0
VERTEX
  8
LAYER-1
 10
6.269444
 20
6.956314
 30
0.000000
  0
VERTEX
  8
LAYER-1
 10
6.285288
 20
6.956314
 30
0.000000
  0
VERTEX
  8
LAYER-1
 10
6.285288
 20
7.038822
 30
0.000000
  0
VERTEX
  8
LAYER-1
 10
6.272433
 20
7.038823
 30
0.000000
  0
VERTEX
  8
LAYER-1
 10
6.265558
 20
7.031947
 30
0.000000
  0
VERTEX
  8
LAYER-1
 10
6.127445
 20
7.031947
 30
0.000000
  0
VERTEX
  8
LAYER-1
 10
6.120569
 20
7.038823
 30
0.000000
  0
VERTEX
  8
LAYER-1
 10
6.107117
 20
7.038822
 30
0.000000
  0
VERTEX
  8
LAYER-1
 10
6.107117
 20
6.956314
 30
0.000000
  0
VERTEX
  8
LAYER-1
 10
6.123260
 20
6.956314
 30
0.000000
  0
VERTEX
  8
LAYER-1
 10
6.123260
 20
6.949737
 30
0.000000
  0
VERTEX
  8
LAYER-1
 10
6.100541
 20
6.949737
 30
0.000000
  0
VERTEX
  8
LAYER-1
 10
6.100541
 20
7.045399
 30
0.000000
  0
SEQEND
  8
LAYER-1
  0
POLYLINE
  8
LAYER-1
 66
  1
 70
  1
 62
  0
 10
6.123358
 20
6.041081
 30
0.000000
  0
VERTEX
  8
LAYER-1
 10
6.123358
 20
6.041081
 30
0.000000
  0
VERTEX
  8
LAYER-1
 10
6.129935
 20
6.034504
 30
0.000000
  0
VERTEX
  8
LAYER-1
 10
6.262964
 20
6.034504
 30
0.000000
  0
VERTEX
  8
LAYER-1
 10
6.269541
 20
6.041081
 30
0.000000
  0
VERTEX
  8
LAYER-1
 10
6.291963
 20
6.041081
 30
0.000000
  0
VERTEX
  8
LAYER-1
 10
6.291963
 20
5.945419
 30
0.000000
  0
VERTEX
  8
LAYER-1
 10
6.269541
 20
5.945419
 30
0.000000
  0
VERTEX
  8
LAYER-1
 10
6.269541
 20
5.951996
 30
0.000000
  0
VERTEX
  8
LAYER-1
 10
6.285386
 20
5.951996
 30
0.000000
  0
VERTEX
  8
LAYER-1
 10
6.285386
 20
6.034504
 30
0.000000
  0
VERTEX
  8
LAYER-1
 10
6.272531
 20
6.034504
 30
0.000000
  0
VERTEX
  8
LAYER-1
 10
6.265656
 20
6.027629
 30
0.000000
  0
VERTEX
  8
LAYER-1
 10
6.127544
 20
6.027629
 30
0.000000
  0
VERTEX
  8
LAYER-1
 10
6.120668
 20
6.034504
 30
0.000000
  0
VERTEX
  8
LAYER-1
 10
6.107215
 20
6.034504
 30
0.000000
  0
VERTEX
  8
LAYER-1
 10
6.107215
 20
5.951996
 30
0.000000
  0
VERTEX
  8
LAYER-1
 10
6.123358
 20
5.951996
 30
0.000000
  0
VERTEX
  8
LAYER-1
 10
6.123358
 20
5.945419
 30
0.000000
  0
VERTEX
  8
LAYER-1
 10
6.100638
 20
5.945419
 30
0.000000
  0
VERTEX
  8
LAYER-1
 10
6.100638
 20
6.041081
 30
0.000000
  0
SEQEND
  8
LAYER-1
  0
POLYLINE
  8
LAYER-1
 66
  1
 70
  1
 62
  0
 10
5.217548
 20
4.945241
 30
0.000000
  0
VERTEX
  8
LAYER-1
 10
5.217548
 20
4.945241
 30
0.000000
  0
VERTEX
  8
LAYER-1
 10
5.210971
 20
4.951819
 30
0.000000
  0
VERTEX
  8
LAYER-1
 10
5.077942
 20
4.951819
 30
0.000000
  0
VERTEX
  8
LAYER-1
 10
5.071364
 20
4.945242
 30
0.000000
  0
VERTEX
  8
LAYER-1
 10
5.048943
 20
4.945242
 30
0.000000
  0
VERTEX
  8
LAYER-1
 10
5.048943
 20
5.040903
 30
0.000000
  0
VERTEX
  8
LAYER-1
 10
5.071364
 20
5.040903
 30
0.000000
  0
VERTEX
  8
LAYER-1
 10
5.071364
 20
5.034327
 30
0.000000
  0
VERTEX
  8
LAYER-1
 10
5.055520
 20
5.034327
 30
0.000000
  0
VERTEX
  8
LAYER-1
 10
5.055520
 20
4.951819
 30
0.000000
  0
VERTEX
  8
LAYER-1
 10
5.068375
 20
4.951818
 30
0.000000
  0
VERTEX
  8
LAYER-1
 10
5.075251
 20
4.958694
 30
0.000000
  0
VERTEX
  8
LAYER-1
 10
5.213363
 20
4.958694
 30
0.000000
  0
VERTEX
  8
LAYER-1
 10
5.220239
 20
4.951818
 30
0.000000
  0
VERTEX
  8
LAYER-1
 10
5.233691
 20
4.951819
 30
0.000000
  0
VERTEX
  8
LAYER-1
 10
5.233691
 20
5.034327
 30
0.000000
  0
VERTEX
  8
LAYER-1
 10
5.217548
 20
5.034327
 30
0.000000
  0
VERTEX
  8
LAYER-1
 10
5.217548
 20
5.040903
 30
0.000000
  0
VERTEX
  8
LAYER-1
 10
5.240268
 20
5.040903
 30
0.000000
  0
VERTEX
  8
LAYER-1
 10
5.240268
 20
4.945241
 30
0.000000
  0
SEQEND
  8
LAYER-1
  0
POLYLINE
  8
LAYER-1
 66
  1
 70
  1
 62
  0
 10
5.071565
 20
7.050571
 30
0.000000
  0
VERTEX
  8
LAYER-1
 10
5.071565
 20
7.050571
 30
0.000000
  0
VERTEX
  8
LAYER-1
 10
5.078143
 20
7.043994
 30
0.000000
  0
VERTEX
  8
LAYER-1
 10
5.211171
 20
7.043994
 30
0.000000
  0
VERTEX
  8
LAYER-1
 10
5.217749
 20
7.050570
 30
0.000000
  0
VERTEX
  8
LAYER-1
 10
5.240170
 20
7.050570
 30
0.000000
  0
VERTEX
  8
LAYER-1
 10
5.240170
 20
6.954909
 30
0.000000
  0
VERTEX
  8
LAYER-1
 10
5.217749
 20
6.954909
 30
0.000000
  0
VERTEX
  8
LAYER-1
 10
5.217749
 20
6.961486
 30
0.000000
  0
VERTEX
  8
LAYER-1
 10
5.233593
 20
6.961486
 30
0.000000
  0
VERTEX
  8
LAYER-1
 10
5.233593
 20
7.043994
 30
0.000000
  0
VERTEX
  8
LAYER-1
 10
5.220738
 20
7.043994
 30
0.000000
  0
VERTEX
  8
LAYER-1
 10
5.213863
 20
7.037119
 30
0.000000
  0
VERTEX
  8
LAYER-1
 10
5.075751
 20
7.037119
 30
0.000000
  0
VERTEX
  8
LAYER-1
 10
5.068875
 20
7.043994
 30
0.000000
  0
VERTEX
  8
LAYER-1
 10
5.055422
 20
7.043994
 30
0.000000
  0
VERTEX
  8
LAYER-1
 10
5.055422
 20
6.961486
 30
0.000000
  0
VERTEX
  8
LAYER-1
 10
5.071565
 20
6.961486
 30
0.000000
  0
VERTEX
  8
LAYER-1
 10
5.071565
 20
6.954909
 30
0.000000
  0
VERTEX
  8
LAYER-1
 10
5.048846
 20
6.954909
 30
0.000000
  0
VERTEX
  8
LAYER-1
 10
5.048846
 20
7.050571
 30
0.000000
  0
SEQEND
  8
LAYER-1
  0
POLYLINE
  8
LAYER-1
 66
  1
 70
  1
 62
  0
 10
5.071664
 20
6.040824
 30
0.000000
  0
VERTEX
  8
LAYER-1
 10
5.071664
 20
6.040824
 30
0.000000
  0
VERTEX
  8
LAYER-1
 10
5.078241
 20
6.034246
 30
0.000000
  0
VERTEX
  8
LAYER-1
 10
5.211270
 20
6.034246
 30
0.000000
  0
VERTEX
  8
LAYER-1
 10
5.217847
 20
6.040823
 30
0.000000
  0
VERTEX
  8
LAYER-1
 10
5.240268
 20
6.040823
 30
0.000000
  0
VERTEX
  8
LAYER-1
 10
5.240268
 20
5.945162
 30
0.000000
  0
VERTEX
  8
LAYER-1
 10
5.217847
 20
5.945162
 30
0.000000
  0
VERTEX
  8
LAYER-1
 10
5.217847
 20
5.951739
 30
0.000000
  0
VERTEX
  8
LAYER-1
 10
5.233691
 20
5.951739
 30
0.000000
  0
VERTEX
  8
LAYER-1
 10
5.233691
 20
6.034246
 30
0.000000
  0
VERTEX
  8
LAYER-1
 10
5.220836
 20
6.034247
 30
0.000000
  0
VERTEX
  8
LAYER-1
 10
5.213961
 20
6.027372
 30
0.000000
  0
VERTEX
  8
LAYER-1
 10
5.075848
 20
6.027372
 30
0.000000
  0
VERTEX
  8
LAYER-1
 10
5.068973
 20
6.034247
 30
0.000000
  0
VERTEX
  8
LAYER-1
 10
5.055520
 20
6.034246
 30
0.000000
  0
VERTEX
  8
LAYER-1
 10
5.055520
 20
5.951739
 30
0.000000
  0
VERTEX
  8
LAYER-1
 10
5.071664
 20
5.951739
 30
0.000000
  0
VERTEX
  8
LAYER-1
 10
5.071664
 20
5.945162
 30
0.000000
  0
VERTEX
  8
LAYER-1
 10
5.048944
 20
5.945162
 30
0.000000
  0
VERTEX
  8
LAYER-1
 10
5.048944
 20
6.040824
 30
0.000000
  0
SEQEND
  8
LAYER-1
  0
POLYLINE
  8
LAYER-1
 66
  1
 70
  1
 62
  0
 10
5.049011
 20
7.074063
 30
0.000000
  0
VERTEX
  8
LAYER-1
 10
5.049011
 20
7.074063
 30
0.000000
  0
VERTEX
  8
LAYER-1
 10
5.055589
 20
7.080641
 30
0.000000
  0
VERTEX
  8
LAYER-1
 10
5.055589
 20
7.213670
 30
0.000000
  0
VERTEX
  8
LAYER-1
 10
5.049013
 20
7.220247
 30
0.000000
  0
VERTEX
  8
LAYER-1
 10
5.049013
 20
7.242667
 30
0.000000
  0
VERTEX
  8
LAYER-1
 10
5.144674
 20
7.242667
 30
0.000000
  0
VERTEX
  8
LAYER-1
 10
5.144674
 20
7.220247
 30
0.000000
  0
VERTEX
  8
LAYER-1
 10
5.138097
 20
7.220247
 30
0.000000
  0
VERTEX
  8
LAYER-1
 10
5.138097
 20
7.236091
 30
0.000000
  0
VERTEX
  8
LAYER-1
 10
5.055589
 20
7.236091
 30
0.000000
  0
VERTEX
  8
LAYER-1
 10
5.055589
 20
7.223236
 30
0.000000
  0
VERTEX
  8
LAYER-1
 10
5.062464
 20
7.216361
 30
0.000000
  0
VERTEX
  8
LAYER-1
 10
5.062464
 20
7.078249
 30
0.000000
  0
VERTEX
  8
LAYER-1
 10
5.055589
 20
7.071373
 30
0.000000
  0
VERTEX
  8
LAYER-1
 10
5.055589
 20
7.057920
 30
0.000000
  0
VERTEX
  8
LAYER-1
 10
5.138097
 20
7.057920
 30
0.000000
  0
VERTEX
  8
LAYER-1
 10
5.138097
 20
7.074063
 30
0.000000
  0
VERTEX
  8
LAYER-1
 10
5.144674
 20
7.074063
 30
0.000000
  0
VERTEX
  8
LAYER-1
 10
5.144674
 20
7.051344
 30
0.000000
  0
VERTEX
  8
LAYER-1
 10
5.049011
 20
7.051344
 30
0.000000
  0
SEQEND
  8
LAYER-1
  0
POLYLINE
  8
LAYER-1
 66
  1
 70
  1
 62
  0
 10
6.291865
 20
7.219465
 30
0.000000
  0
VERTEX
  8
LAYER-1
 10
6.291865
 20
7.219465
 30
0.000000
  0
VERTEX
  8
LAYER-1
 10
6.285288
 20
7.212887
 30
0.000000
  0
VERTEX
  8
LAYER-1
 10
6.285288
 20
7.079859
 30
0.000000
  0
VERTEX
  8
LAYER-1
 10
6.291864
 20
7.073281
 30
0.000000
  0
VERTEX
  8
LAYER-1
 10
6.291864
 20
7.050860
 30
0.000000
  0
VERTEX
  8
LAYER-1
 10
6.196202
 20
7.050860
 30
0.000000
  0
VERTEX
  8
LAYER-1
 10
6.196202
 20
7.073281
 30
0.000000
  0
VERTEX
  8
LAYER-1
 10
6.202780
 20
7.073281
 30
0.000000
  0
VERTEX
  8
LAYER-1
 10
6.202780
 20
7.057437
 30
0.000000
  0
VERTEX
  8
LAYER-1
 10
6.285288
 20
7.057437
 30
0.000000
  0
VERTEX
  8
LAYER-1
 10
6.285288
 20
7.070292
 30
0.000000
  0
VERTEX
  8
LAYER-1
 10
6.278412
 20
7.077167
 30
0.000000
  0
VERTEX
  8
LAYER-1
 10
6.278412
 20
7.215279
 30
0.000000
  0
VERTEX
  8
LAYER-1
 10
6.285288
 20
7.222155
 30
0.000000
  0
VERTEX
  8
LAYER-1
 10
6.285288
 20
7.235608
 30
0.000000
  0
VERTEX
  8
LAYER-1
 10
6.202780
 20
7.235608
 30
0.000000
  0
VERTEX
  8
LAYER-1
 10
6.202780
 20
7.219465
 30
0.000000
  0
VERTEX
  8
LAYER-1
 10
6.196202
 20
7.219465
 30
0.000000
  0
VERTEX
  8
LAYER-1
 10
6.196202
 20
7.242184
 30
0.000000
  0
VERTEX
  8
LAYER-1
 10
6.291865
 20
7.242184
 30
0.000000
  0
SEQEND
  8
LAYER-1
  0
POLYLINE
  8
LAYER-1
 66
  1
 70
  1
 62
  0
  0
VERTEX
  8
LAYER-1
 10
5.000923
 20
4.896475
 30
0.000000
  0
VERTEX
  8
LAYER-1
 10
5.000923
 20
4.944417
 30
0.000000
  0
VERTEX
  8
LAYER-1
 10
5.290313
 20
4.944417
 30
0.000000
  0
VERTEX
  8
LAYER-1
 10
5.290313
 20
4.896475
 30
0.000000
  0
SEQEND
  8
LAYER-1
  0
POLYLINE
  8
LAYER-1
 66
  1
 70
  1
 62
  0
  0
VERTEX
  8
LAYER-1
 10
6.052323
 20
4.896376
 30
0.000000
  0
VERTEX
  8
LAYER-1
 10
6.052323
 20
4.944319
 30
0.000000
  0
VERTEX
  8
LAYER-1
 10
6.341713
 20
4.944319
 30
0.000000
  0
VERTEX
  8
LAYER-1
 10
6.341713
 20
4.896376
 30
0.000000
  0
SEQEND
  8
LAYER-1
  0
POLYLINE
  8
LAYER-1
  6
LTYPE01
 66
  1
 70
  0
 62
  0
  6
LTYPE01
 10
5.991698
 20
6.101709
 30
0.000000
  0
VERTEX
  8
LAYER-1
  6
LTYPE01
 10
5.991698
 20
6.101709
 30
0.000000
  0
VERTEX
  8
LAYER-1
  6
LTYPE01
 10
5.346507
 20
6.164992
 30
0.000000
  0
SEQEND
  8
LAYER-1
  0
POLYLINE
  8
LAYER-1
  6
LTYPE01
 66
  1
 70
  0
 62
  0
  6
LTYPE01
 10
5.346507
 20
6.164992
 30
0.000000
  0
VERTEX
  8
LAYER-1
  6
LTYPE01
 10
5.346507
 20
6.164992
 30
0.000000
  0
VERTEX
  8
LAYER-1
  6
LTYPE01
 10
5.991698
 20
6.228275
 30
0.000000
  0
SEQEND
  8
LAYER-1
  0
POLYLINE
  8
LAYER-1
  6
LTYPE01
 66
  1
 70
  0
 62
  0
  6
LTYPE01
 10
5.991698
 20
6.228275
 30
0.000000
  0
VERTEX
  8
LAYER-1
  6
LTYPE01
 10
5.991698
 20
6.228275
 30
0.000000
  0
VERTEX
  8
LAYER-1
  6
LTYPE01
 10
5.346503
 20
6.291558
 30
0.000000
  0
SEQEND
  8
LAYER-1
  0
POLYLINE
  8
LAYER-1
  6
LTYPE01
 66
  1
 70
  0
 62
  0
  6
LTYPE01
 10
5.346503
 20
6.291558
 30
0.000000
  0
VERTEX
  8
LAYER-1
  6
LTYPE01
 10
5.346503
 20
6.291558
 30
0.000000
  0
VERTEX
  8
LAYER-1
  6
LTYPE01
 10
5.991695
 20
6.354841
 30
0.000000
  0
SEQEND
  8
LAYER-1
  0
POLYLINE
  8
LAYER-1
  6
LTYPE01
 66
  1
 70
  0
 62
  0
  6
LTYPE01
 10
5.991695
 20
6.354841
 30
0.000000
  0
VERTEX
  8
LAYER-1
  6
LTYPE01
 10
5.991695
 20
6.354841
 30
0.000000
  0
VERTEX
  8
LAYER-1
  6
LTYPE01
 10
5.346503
 20
6.418126
 30
0.000000
  0
SEQEND
  8
LAYER-1
  0
POLYLINE
  8
LAYER-1
  6
LTYPE01
 66
  1
 70
  0
 62
  0
  6
LTYPE01
 10
5.346503
 20
6.418126
 30
0.000000
  0
VERTEX
  8
LAYER-1
  6
LTYPE01
 10
5.346503
 20
6.418126
 30
0.000000
  0
VERTEX
  8
LAYER-1
  6
LTYPE01
 10
5.991695
 20
6.481409
 30
0.000000
  0
SEQEND
  8
LAYER-1
  0
POLYLINE
  8
LAYER-1
  6
LTYPE01
 66
  1
 70
  0
 62
  0
  6
LTYPE01
 10
5.991695
 20
6.481409
 30
0.000000
  0
VERTEX
  8
LAYER-1
  6
LTYPE01
 10
5.991695
 20
6.481409
 30
0.000000
  0
VERTEX
  8
LAYER-1
  6
LTYPE01
 10
5.346503
 20
6.544692
 30
0.000000
  0
SEQEND
  8
LAYER-1
  0
POLYLINE
  8
LAYER-1
  6
LTYPE01
 66
  1
 70
  0
 62
  0
  6
LTYPE01
 10
5.346503
 20
6.544692
 30
0.000000
  0
VERTEX
  8
LAYER-1
  6
LTYPE01
 10
5.346503
 20
6.544692
 30
0.000000
  0
VERTEX
  8
LAYER-1
  6
LTYPE01
 10
5.991695
 20
6.607977
 30
0.000000
  0
SEQEND
  8
LAYER-1
  0
POLYLINE
  8
LAYER-1
  6
LTYPE01
 66
  1
 70
  0
 62
  0
  6
LTYPE01
 10
5.991695
 20
6.607977
 30
0.000000
  0
VERTEX
  8
LAYER-1
  6
LTYPE01
 10
5.991695
 20
6.607977
 30
0.000000
  0
VERTEX
  8
LAYER-1
  6
LTYPE01
 10
5.346503
 20
6.671260
 30
0.000000
  0
SEQEND
  8
LAYER-1
  0
POLYLINE
  8
LAYER-1
  6
LTYPE01
 66
  1
 70
  0
 62
  0
  6
LTYPE01
 10
5.346503
 20
6.671260
 30
0.000000
  0
VERTEX
  8
LAYER-1
  6
LTYPE01
 10
5.346503
 20
6.671260
 30
0.000000
  0
VERTEX
  8
LAYER-1
  6
LTYPE01
 10
5.991695
 20
6.734542
 30
0.000000
  0
SEQEND
  8
LAYER-1
  0
POLYLINE
  8
LAYER-1
  6
LTYPE01
 66
  1
 70
  0
 62
  0
  6
LTYPE01
 10
5.991695
 20
6.734542
 30
0.000000
  0
VERTEX
  8
LAYER-1
  6
LTYPE01
 10
5.991695
 20
6.734542
 30
0.000000
  0
VERTEX
  8
LAYER-1
  6
LTYPE01
 10
5.346498
 20
6.798489
 30
0.000000
  0
SEQEND
  8
LAYER-1
  0
POLYLINE
  8
LAYER-1
  6
LTYPE01
 66
  1
 70
  0
 62
  0
  6
LTYPE01
 10
5.346923
 20
6.799185
 30
0.000000
  0
VERTEX
  8
LAYER-1
  6
LTYPE01
 10
5.346923
 20
6.799185
 30
0.000000
  0
VERTEX
  8
LAYER-1
  6
LTYPE01
 10
5.670454
 20
6.831970
 30
0.000000
  0
SEQEND
  8
LAYER-1
  0
POLYLINE
  8
LAYER-1
  6
LTYPE01
 66
  1
 70
  0
 62
  0
  6
LTYPE01
 10
5.670453
 20
6.069133
 30
0.000000
  0
VERTEX
  8
LAYER-1
  6
LTYPE01
 10
5.670453
 20
6.069133
 30
0.000000
  0
VERTEX
  8
LAYER-1
  6
LTYPE01
 10
5.993048
 20
6.100774
 30
0.000000
  0
SEQEND
  8
LAYER-1
  0
POLYLINE
  8
LAYER-1
 66
  1
 70
  0
 62
  0
 10
5.625208
 20
6.858721
 30
0.000000
  0
VERTEX
  8
LAYER-1
 10
5.625208
 20
6.858721
 30
0.000000
  0
VERTEX
  8
LAYER-1
 10
5.625208
 20
6.974440
 30
0.000000
  0
SEQEND
  8
LAYER-1
  0
POLYLINE
  8
LAYER-1
 66
  1
 70
  0
 62
  0
 10
5.648338
 20
6.997570
 30
0.000000
  0
VERTEX
  8
LAYER-1
 10
5.648338
 20
6.997570
 30
0.000000
  0
VERTEX
  8
LAYER-1
 10
5.694600
 20
6.997570
 30
0.000000
  0
SEQEND
  8
LAYER-1
  0
POLYLINE
  8
LAYER-1
 66
  1
 70
  0
 62
  0
 10
5.717730
 20
6.974440
 30
0.000000
  0
VERTEX
  8
LAYER-1
 10
5.717730
 20
6.974440
 30
0.000000
  0
VERTEX
  8
LAYER-1
 10
5.717730
 20
6.858721
 30
0.000000
  0
SEQEND
  8
LAYER-1
  0
POLYLINE
  8
LAYER-1
 66
  1
 70
  0
 62
  0
 10
5.694600
 20
6.835590
 30
0.000000
  0
VERTEX
  8
LAYER-1
 10
5.694600
 20
6.835590
 30
0.000000
  0
VERTEX
  8
LAYER-1
 10
5.648338
 20
6.835590
 30
0.000000
  0
SEQEND
  8
LAYER-1
  0
ARC
  8
LAYER-1
 62
  0
 10
5.648338
 20
6.858721
 30
0.000000
 40
0.023130
 50
180.000000
 51
270.000000
  0
ARC
  8
LAYER-1
 62
  0
 10
5.694600
 20
6.858721
 30
0.000000
 40
0.023130
 50
270.000000
 51
0.000000
  0
ARC
  8
LAYER-1
 62
  0
 10
5.694600
 20
6.974440
 30
0.000000
 40
0.023130
 50
0.000000
 51
90.000000
  0
ARC
  8
LAYER-1
 62
  0
 10
5.648338
 20
6.974440
 30
0.000000
 40
0.023130
 50
90.000000
 51
180.000000
  0
POLYLINE
  8
LAYER-1
 66
  1
 70
  0
 62
  0
 10
5.626844
 20
5.928498
 30
0.000000
  0
VERTEX
  8
LAYER-1
 10
5.626844
 20
5.928498
 30
0.000000
  0
VERTEX
  8
LAYER-1
 10
5.626844
 20
6.044219
 30
0.000000
  0
SEQEND
  8
LAYER-1
  0
POLYLINE
  8
LAYER-1
 66
  1
 70
  0
 62
  0
 10
5.649974
 20
6.067349
 30
0.000000
  0
VERTEX
  8
LAYER-1
 10
5.649974
 20
6.067349
 30
0.000000
  0
VERTEX
  8
LAYER-1
 10
5.696236
 20
6.067349
 30
0.000000
  0
SEQEND
  8
LAYER-1
  0
POLYLINE
  8
LAYER-1
 66
  1
 70
  0
 62
  0
 10
5.719366
 20
6.044219
 30
0.000000
  0
VERTEX
  8
LAYER-1
 10
5.719366
 20
6.044219
 30
0.000000
  0
VERTEX
  8
LAYER-1
 10
5.719366
 20
5.928498
 30
0.000000
  0
SEQEND
  8
LAYER-1
  0
POLYLINE
  8
LAYER-1
 66
  1
 70
  0
 62
  0
 10
5.696236
 20
5.905368
 30
0.000000
  0
VERTEX
  8
LAYER-1
 10
5.696236
 20
5.905368
 30
0.000000
  0
VERTEX
  8
LAYER-1
 10
5.649974
 20
5.905368
 30
0.000000
  0
SEQEND
  8
LAYER-1
  0
ARC
  8
LAYER-1
 62
  0
 10
5.649974
 20
5.928498
 30
0.000000
 40
0.023130
 50
180.000000
 51
270.000000
  0
ARC
  8
LAYER-1
 62
  0
 10
5.696236
 20
5.928498
 30
0.000000
 40
0.023130
 50
270.000000
 51
0.000000
  0
ARC
  8
LAYER-1
 62
  0
 10
5.696236
 20
6.044219
 30
0.000000
 40
0.023130
 50
0.000000
 51
90.000000
  0
ARC
  8
LAYER-1
 62
  0
 10
5.649974
 20
6.044219
 30
0.000000
 40
0.023130
 50
90.000000
 51
180.000000
  0
POLYLINE
  8
LAYER-1
 66
  1
 70
  0
 62
  0
 10
5.628654
 20
5.000067
 30
0.000000
  0
VERTEX
  8
LAYER-1
 10
5.628654
 20
5.000067
 30
0.000000
  0
VERTEX
  8
LAYER-1
 10
5.628654
 20
5.115786
 30
0.000000
  0
SEQEND
  8
LAYER-1
  0
POLYLINE
  8
LAYER-1
 66
  1
 70
  0
 62
  0
 10
5.651785
 20
5.138917
 30
0.000000
  0
VERTEX
  8
LAYER-1
 10
5.651785
 20
5.138917
 30
0.000000
  0
VERTEX
  8
LAYER-1
 10
5.698045
 20
5.138917
 30
0.000000
  0
SEQEND
  8
LAYER-1
  0
POLYLINE
  8
LAYER-1
 66
  1
 70
  0
 62
  0
 10
5.721176
 20
5.115786
 30
0.000000
  0
VERTEX
  8
LAYER-1
 10
5.721176
 20
5.115786
 30
0.000000
  0
VERTEX
  8
LAYER-1
 10
5.721176
 20
5.000067
 30
0.000000
  0
SEQEND
  8
LAYER-1
  0
POLYLINE
  8
LAYER-1
 66
  1
 70
  0
 62
  0
 10
5.698045
 20
4.976936
 30
0.000000
  0
VERTEX
  8
LAYER-1
 10
5.698045
 20
4.976936
 30
0.000000
  0
VERTEX
  8
LAYER-1
 10
5.651785
 20
4.976936
 30
0.000000
  0
SEQEND
  8
LAYER-1
  0
ARC
  8
LAYER-1
 62
  0
 10
5.651785
 20
5.000067
 30
0.000000
 40
0.023130
 50
180.000000
 51
270.000000
  0
ARC
  8
LAYER-1
 62
  0
 10
5.698045
 20
5.000067
 30
0.000000
 40
0.023130
 50
270.000000
 51
0.000000
  0
ARC
  8
LAYER-1
 62
  0
 10
5.698045
 20
5.115786
 30
0.000000
 40
0.023130
 50
0.000000
 51
90.000000
  0
ARC
  8
LAYER-1
 62
  0
 10
5.651785
 20
5.115786
 30
0.000000
 40
0.023130
 50
90.000000
 51
180.000000
  0
POLYLINE
  8
LAYER-1
  6
LTYPE01
 66
  1
 70
  0
 62
  0
  6
LTYPE01
 10
5.995313
 20
5.171468
 30
0.000000
  0
VERTEX
  8
LAYER-1
  6
LTYPE01
 10
5.995313
 20
5.171468
 30
0.000000
  0
VERTEX
  8
LAYER-1
  6
LTYPE01
 10
5.350121
 20
5.234751
 30
0.000000
  0
SEQEND
  8
LAYER-1
  0
POLYLINE
  8
LAYER-1
  6
LTYPE01
 66
  1
 70
  0
 62
  0
  6
LTYPE01
 10
5.350121
 20
5.234751
 30
0.000000
  0
VERTEX
  8
LAYER-1
  6
LTYPE01
 10
5.350121
 20
5.234751
 30
0.000000
  0
VERTEX
  8
LAYER-1
  6
LTYPE01
 10
5.995313
 20
5.298034
 30
0.000000
  0
SEQEND
  8
LAYER-1
  0
POLYLINE
  8
LAYER-1
  6
LTYPE01
 66
  1
 70
  0
 62
  0
  6
LTYPE01
 10
5.995313
 20
5.298034
 30
0.000000
  0
VERTEX
  8
LAYER-1
  6
LTYPE01
 10
5.995313
 20
5.298034
 30
0.000000
  0
VERTEX
  8
LAYER-1
  6
LTYPE01
 10
5.350118
 20
5.361316
 30
0.000000
  0
SEQEND
  8
LAYER-1
  0
POLYLINE
  8
LAYER-1
  6
LTYPE01
 66
  1
 70
  0
 62
  0
  6
LTYPE01
 10
5.350118
 20
5.361316
 30
0.000000
  0
VERTEX
  8
LAYER-1
  6
LTYPE01
 10
5.350118
 20
5.361316
 30
0.000000
  0
VERTEX
  8
LAYER-1
  6
LTYPE01
 10
5.995309
 20
5.424600
 30
0.000000
  0
SEQEND
  8
LAYER-1
  0
POLYLINE
  8
LAYER-1
  6
LTYPE01
 66
  1
 70
  0
 62
  0
  6
LTYPE01
 10
5.995309
 20
5.424600
 30
0.000000
  0
VERTEX
  8
LAYER-1
  6
LTYPE01
 10
5.995309
 20
5.424600
 30
0.000000
  0
VERTEX
  8
LAYER-1
  6
LTYPE01
 10
5.350118
 20
5.487882
 30
0.000000
  0
SEQEND
  8
LAYER-1
  0
POLYLINE
  8
LAYER-1
  6
LTYPE01
 66
  1
 70
  0
 62
  0
  6
LTYPE01
 10
5.350118
 20
5.487882
 30
0.000000
  0
VERTEX
  8
LAYER-1
  6
LTYPE01
 10
5.350118
 20
5.487882
 30
0.000000
  0
VERTEX
  8
LAYER-1
  6
LTYPE01
 10
5.995309
 20
5.551165
 30
0.000000
  0
SEQEND
  8
LAYER-1
  0
POLYLINE
  8
LAYER-1
  6
LTYPE01
 66
  1
 70
  0
 62
  0
  6
LTYPE01
 10
5.995309
 20
5.551165
 30
0.000000
  0
VERTEX
  8
LAYER-1
  6
LTYPE01
 10
5.995309
 20
5.551165
 30
0.000000
  0
VERTEX
  8
LAYER-1
  6
LTYPE01
 10
5.350118
 20
5.614448
 30
0.000000
  0
SEQEND
  8
LAYER-1
  0
POLYLINE
  8
LAYER-1
  6
LTYPE01
 66
  1
 70
  0
 62
  0
  6
LTYPE01
 10
5.350118
 20
5.614448
 30
0.000000
  0
VERTEX
  8
LAYER-1
  6
LTYPE01
 10
5.350118
 20
5.614448
 30
0.000000
  0
VERTEX
  8
LAYER-1
  6
LTYPE01
 10
5.995309
 20
5.677732
 30
0.000000
  0
SEQEND
  8
LAYER-1
  0
POLYLINE
  8
LAYER-1
  6
LTYPE01
 66
  1
 70
  0
 62
  0
  6
LTYPE01
 10
5.995309
 20
5.677732
 30
0.000000
  0
VERTEX
  8
LAYER-1
  6
LTYPE01
 10
5.995309
 20
5.677732
 30
0.000000
  0
VERTEX
  8
LAYER-1
  6
LTYPE01
 10
5.350118
 20
5.741016
 30
0.000000
  0
SEQEND
  8
LAYER-1
  0
POLYLINE
  8
LAYER-1
  6
LTYPE01
 66
  1
 70
  0
 62
  0
  6
LTYPE01
 10
5.350118
 20
5.741016
 30
0.000000
  0
VERTEX
  8
LAYER-1
  6
LTYPE01
 10
5.350118
 20
5.741016
 30
0.000000
  0
VERTEX
  8
LAYER-1
  6
LTYPE01
 10
5.995309
 20
5.804298
 30
0.000000
  0
SEQEND
  8
LAYER-1
  0
POLYLINE
  8
LAYER-1
  6
LTYPE01
 66
  1
 70
  0
 62
  0
  6
LTYPE01
 10
5.995309
 20
5.804298
 30
0.000000
  0
VERTEX
  8
LAYER-1
  6
LTYPE01
 10
5.995309
 20
5.804298
 30
0.000000
  0
VERTEX
  8
LAYER-1
  6
LTYPE01
 10
5.350112
 20
5.868244
 30
0.000000
  0
SEQEND
  8
LAYER-1
  0
POLYLINE
  8
LAYER-1
  6
LTYPE01
 66
  1
 70
  0
 62
  0
  6
LTYPE01
 10
5.350538
 20
5.868941
 30
0.000000
  0
VERTEX
  8
LAYER-1
  6
LTYPE01
 10
5.350538
 20
5.868941
 30
0.000000
  0
VERTEX
  8
LAYER-1
  6
LTYPE01
 10
5.674068
 20
5.901727
 30
0.000000
  0
SEQEND
  8
LAYER-1
  0
POLYLINE
  8
LAYER-1
  6
LTYPE01
 66
  1
 70
  0
 62
  0
  6
LTYPE01
 10
5.674068
 20
5.138892
 30
0.000000
  0
VERTEX
  8
LAYER-1
  6
LTYPE01
 10
5.674068
 20
5.138892
 30
0.000000
  0
VERTEX
  8
LAYER-1
  6
LTYPE01
 10
5.996661
 20
5.170533
 30
0.000000
  0
SEQEND
  8
LAYER-1
  0
POLYLINE
  8
LAYER-1
  6
LTYPE01
 66
  1
 70
  0
 62
  0
  6
LTYPE01
 10
5.290770
 20
4.896812
 30
0.000000
  0
VERTEX
  8
LAYER-1
  6
LTYPE01
 10
5.290770
 20
4.896812
 30
0.000000
  0
VERTEX
  8
LAYER-1
  6
LTYPE01
 10
5.292462
 20
4.824267
 30
0.000000
  0
VERTEX
  8
LAYER-1
  6
LTYPE01
 10
5.303407
 20
4.750472
 30
0.000000
  0
VERTEX
  8
LAYER-1
  6
LTYPE01
 10
5.321532
 20
4.678105
 30
0.000000
  0
VERTEX
  8
LAYER-1
  6
LTYPE01
 10
5.346661
 20
4.607864
 30
0.000000
  0
VERTEX
  8
LAYER-1
  6
LTYPE01
 10
5.378554
 20
4.540424
 30
0.000000
  0
VERTEX
  8
LAYER-1
  6
LTYPE01
 10
5.416903
 20
4.476435
 30
0.000000
  0
VERTEX
  8
LAYER-1
  6
LTYPE01
 10
5.461338
 20
4.416513
 30
0.000000
  0
VERTEX
  8
LAYER-1
  6
LTYPE01
 10
5.511432
 20
4.361236
 30
0.000000
  0
VERTEX
  8
LAYER-1
  6
LTYPE01
 10
5.566702
 20
4.311136
 30
0.000000
  0
VERTEX
  8
LAYER-1
  6
LTYPE01
 10
5.626615
 20
4.266696
 30
0.000000
  0
VERTEX
  8
LAYER-1
  6
LTYPE01
 10
5.690596
 20
4.228342
 30
0.000000
  0
VERTEX
  8
LAYER-1
  6
LTYPE01
 10
5.758028
 20
4.196445
 30
0.000000
  0
VERTEX
  8
LAYER-1
  6
LTYPE01
 10
5.828261
 20
4.171313
 30
0.000000
  0
VERTEX
  8
LAYER-1
  6
LTYPE01
 10
5.900618
 20
4.153186
 30
0.000000
  0
VERTEX
  8
LAYER-1
  6
LTYPE01
 10
5.974404
 20
4.142239
 30
0.000000
  0
VERTEX
  8
LAYER-1
  6
LTYPE01
 10
6.048907
 20
4.138579
 30
0.000000
  0
VERTEX
  8
LAYER-1
  6
LTYPE01
 10
6.123411
 20
4.142239
 30
0.000000
  0
VERTEX
  8
LAYER-1
  6
LTYPE01
 10
6.197197
 20
4.153186
 30
0.000000
  0
VERTEX
  8
LAYER-1
  6
LTYPE01
 10
6.269555
 20
4.171313
 30
0.000000
  0
VERTEX
  8
LAYER-1
  6
LTYPE01
 10
6.339787
 20
4.196445
 30
0.000000
  0
VERTEX
  8
LAYER-1
  6
LTYPE01
 10
6.407219
 20
4.228342
 30
0.000000
  0
VERTEX
  8
LAYER-1
  6
LTYPE01
 10
6.471200
 20
4.266696
 30
0.000000
  0
VERTEX
  8
LAYER-1
  6
LTYPE01
 10
6.531114
 20
4.311136
 30
0.000000
  0
VERTEX
  8
LAYER-1
  6
LTYPE01
 10
6.586383
 20
4.361236
 30
0.000000
  0
VERTEX
  8
LAYER-1
  6
LTYPE01
 10
6.589407
 20
4.360325
 30
0.000000
  0
SEQEND
  8
LAYER-1
  0
POLYLINE
  8
LAYER-1
  6
LTYPE01
 66
  1
 70
  1
 62
  0
  6
LTYPE01
 10
6.589414
 20
4.360332
 30
0.000000
  0
VERTEX
  8
LAYER-1
  6
LTYPE01
 10
6.589414
 20
4.360332
 30
0.000000
  0
VERTEX
  8
LAYER-1
  6
LTYPE01
 10
6.052455
 20
4.897291
 30
0.000000
  0
VERTEX
  8
LAYER-1
  6
LTYPE01
 10
5.986421
 20
4.831257
 30
0.000000
  0
VERTEX
  8
LAYER-1
  6
LTYPE01
 10
6.519355
 20
4.298324
 30
0.000000
  0
SEQEND
  8
LAYER-1
  0
TEXT
  8
LAYER-1
 62
  0
 10
6.687501
 20
5.902777
 30
0.000000
 40
0.197917
  1
P
 72
  5
 11
6.937501
 21
5.902777
 31
0.000000
  0
TEXT
  8
LAYER-1
 62
  0
 10
5.506945
 20
7.861110
 30
0.000000
 40
0.197917
  1
A
 72
  5
 11
5.756945
 21
7.861110
 31
0.000000
  0
TEXT
  8
LAYER-1
 62
  0
 10
4.868056
 20
7.611110
 30
0.000000
 40
0.093750
  1
ideale  10" (254mm)
 72
  5
 11
6.062501
 21
7.611110
 31
0.000000
  0
POLYLINE
  8
LAYER-1
 66
  1
 70
  0
 62
  0
 10
1.343948
 20
4.587713
 30
0.000000
  0
VERTEX
  8
LAYER-1
 10
1.343948
 20
4.587713
 30
0.000000
  0
VERTEX
  8
LAYER-1
 10
1.658855
 20
4.587713
 30
0.000000
  0
SEQEND
  8
LAYER-1
  0
POLYLINE
  8
LAYER-1
 66
  1
 70
  0
 62
  0
 10
0.777476
 20
5.352099
 30
0.000000
  0
VERTEX
  8
LAYER-1
 10
0.777476
 20
5.352099
 30
0.000000
  0
VERTEX
  8
LAYER-1
 10
0.777476
 20
4.205845
 30
0.000000
  0
SEQEND
  8
LAYER-1
  0
LINE
  8
LAYER-1
 62
  0
 10
0.806939
 20
5.322636
 30
0.000000
 11
0.748013
 21
5.381561
 31
0.000000
  0
LINE
  8
LAYER-1
 62
  0
 10
0.806939
 20
4.176382
 30
0.000000
 11
0.748013
 21
4.235307
 31
0.000000
  0
POLYLINE
  8
LAYER-1
 66
  1
 70
  0
 62
  0
 10
2.727059
 20
7.708318
 30
0.000000
  0
VERTEX
  8
LAYER-1
 10
2.727059
 20
7.708318
 30
0.000000
  0
VERTEX
  8
LAYER-1
 10
2.725695
 20
7.979166
 30
0.000000
  0
SEQEND
  8
LAYER-1
  0
POLYLINE
  8
LAYER-1
 66
  1
 70
  0
 62
  0
 10
1.779804
 20
7.703612
 30
0.000000
  0
VERTEX
  8
LAYER-1
 10
1.779804
 20
7.703612
 30
0.000000
  0
VERTEX
  8
LAYER-1
 10
1.781251
 20
7.982638
 30
0.000000
  0
SEQEND
  8
LAYER-1
  0
POLYLINE
  8
LAYER-1
  6
LTYPE06
 66
  1
 70
  0
 62
  0
  6
LTYPE06
 10
2.346619
 20
5.926542
 30
0.000000
  0
VERTEX
  8
LAYER-1
  6
LTYPE06
 10
2.346619
 20
5.926542
 30
0.000000
  0
VERTEX
  8
LAYER-1
  6
LTYPE06
 10
2.345189
 20
7.317291
 30
0.000000
  0
SEQEND
  8
LAYER-1
  0
POLYLINE
  8
LAYER-1
 66
  1
 70
  0
 62
  0
 10
2.726642
 20
7.912468
 30
0.000000
  0
VERTEX
  8
LAYER-1
 10
2.726642
 20
7.912468
 30
0.000000
  0
VERTEX
  8
LAYER-1
 10
1.779804
 20
7.912468
 30
0.000000
  0
SEQEND
  8
LAYER-1
  0
LINE
  8
LAYER-1
 62
  0
 10
2.697179
 20
7.883005
 30
0.000000
 11
2.756105
 21
7.941930
 31
0.000000
  0
LINE
  8
LAYER-1
 62
  0
 10
1.750342
 20
7.883005
 30
0.000000
 11
1.809267
 21
7.941930
 31
0.000000
  0
POLYLINE
  8
LAYER-1
 66
  1
 70
  0
 62
  0
 10
0.687501
 20
5.350694
 30
0.000000
  0
VERTEX
  8
LAYER-1
 10
0.687501
 20
5.350694
 30
0.000000
  0
VERTEX
  8
LAYER-1
 10
1.065973
 20
5.350694
 30
0.000000
  0
SEQEND
  8
LAYER-1
  0
POLYLINE
  8
LAYER-1
 66
  1
 70
  0
 62
  0
 10
1.135417
 20
7.378471
 30
0.000000
  0
VERTEX
  8
LAYER-1
 10
1.135417
 20
7.378471
 30
0.000000
  0
VERTEX
  8
LAYER-1
 10
1.381953
 20
7.379656
 30
0.000000
  0
SEQEND
  8
LAYER-1
  0
POLYLINE
  8
LAYER-1
 66
  1
 70
  0
 62
  0
 10
1.228241
 20
5.351864
 30
0.000000
  0
VERTEX
  8
LAYER-1
 10
1.228241
 20
5.351864
 30
0.000000
  0
VERTEX
  8
LAYER-1
 10
1.227053
 20
7.379656
 30
0.000000
  0
SEQEND
  8
LAYER-1
  0
LINE
  8
LAYER-1
 62
  0
 10
1.198761
 20
5.381310
 30
0.000000
 11
1.257721
 21
5.322418
 31
0.000000
  0
LINE
  8
LAYER-1
 62
  0
 10
1.197573
 20
7.409102
 30
0.000000
 11
1.256533
 21
7.350211
 31
0.000000
  0
POLYLINE
  8
LAYER-1
 66
  1
 70
  1
 62
  0
 10
2.942658
 20
5.261965
 30
0.000000
  0
VERTEX
  8
LAYER-1
 10
2.942658
 20
5.261965
 30
0.000000
  0
VERTEX
  8
LAYER-1
 10
2.936081
 20
5.268542
 30
0.000000
  0
VERTEX
  8
LAYER-1
 10
2.803052
 20
5.268542
 30
0.000000
  0
VERTEX
  8
LAYER-1
 10
2.796474
 20
5.261965
 30
0.000000
  0
VERTEX
  8
LAYER-1
 10
2.774054
 20
5.261965
 30
0.000000
  0
VERTEX
  8
LAYER-1
 10
2.774054
 20
5.357627
 30
0.000000
  0
VERTEX
  8
LAYER-1
 10
2.796474
 20
5.357627
 30
0.000000
  0
VERTEX
  8
LAYER-1
 10
2.796474
 20
5.351050
 30
0.000000
  0
VERTEX
  8
LAYER-1
 10
2.780631
 20
5.351050
 30
0.000000
  0
VERTEX
  8
LAYER-1
 10
2.780631
 20
5.268542
 30
0.000000
  0
VERTEX
  8
LAYER-1
 10
2.793485
 20
5.268541
 30
0.000000
  0
VERTEX
  8
LAYER-1
 10
2.800361
 20
5.275416
 30
0.000000
  0
VERTEX
  8
LAYER-1
 10
2.938473
 20
5.275416
 30
0.000000
  0
VERTEX
  8
LAYER-1
 10
2.945348
 20
5.268541
 30
0.000000
  0
VERTEX
  8
LAYER-1
 10
2.958801
 20
5.268542
 30
0.000000
  0
VERTEX
  8
LAYER-1
 10
2.958801
 20
5.351050
 30
0.000000
  0
VERTEX
  8
LAYER-1
 10
2.942658
 20
5.351050
 30
0.000000
  0
VERTEX
  8
LAYER-1
 10
2.942658
 20
5.357627
 30
0.000000
  0
VERTEX
  8
LAYER-1
 10
2.965378
 20
5.357627
 30
0.000000
  0
VERTEX
  8
LAYER-1
 10
2.965378
 20
5.261965
 30
0.000000
  0
SEQEND
  8
LAYER-1
  0
POLYLINE
  8
LAYER-1
 66
  1
 70
  1
 62
  0
 10
2.796675
 20
7.425496
 30
0.000000
  0
VERTEX
  8
LAYER-1
 10
2.796675
 20
7.425496
 30
0.000000
  0
VERTEX
  8
LAYER-1
 10
2.803253
 20
7.418920
 30
0.000000
  0
VERTEX
  8
LAYER-1
 10
2.936281
 20
7.418920
 30
0.000000
  0
VERTEX
  8
LAYER-1
 10
2.942859
 20
7.425496
 30
0.000000
  0
VERTEX
  8
LAYER-1
 10
2.965280
 20
7.425496
 30
0.000000
  0
VERTEX
  8
LAYER-1
 10
2.965280
 20
7.329835
 30
0.000000
  0
VERTEX
  8
LAYER-1
 10
2.942859
 20
7.329835
 30
0.000000
  0
VERTEX
  8
LAYER-1
 10
2.942859
 20
7.336412
 30
0.000000
  0
VERTEX
  8
LAYER-1
 10
2.958703
 20
7.336412
 30
0.000000
  0
VERTEX
  8
LAYER-1
 10
2.958703
 20
7.418920
 30
0.000000
  0
VERTEX
  8
LAYER-1
 10
2.945849
 20
7.418920
 30
0.000000
  0
VERTEX
  8
LAYER-1
 10
2.938973
 20
7.412045
 30
0.000000
  0
VERTEX
  8
LAYER-1
 10
2.800860
 20
7.412045
 30
0.000000
  0
VERTEX
  8
LAYER-1
 10
2.793985
 20
7.418920
 30
0.000000
  0
VERTEX
  8
LAYER-1
 10
2.780532
 20
7.418920
 30
0.000000
  0
VERTEX
  8
LAYER-1
 10
2.780532
 20
7.336412
 30
0.000000
  0
VERTEX
  8
LAYER-1
 10
2.796675
 20
7.336412
 30
0.000000
  0
VERTEX
  8
LAYER-1
 10
2.796675
 20
7.329835
 30
0.000000
  0
VERTEX
  8
LAYER-1
 10
2.773956
 20
7.329835
 30
0.000000
  0
VERTEX
  8
LAYER-1
 10
2.773956
 20
7.425496
 30
0.000000
  0
SEQEND
  8
LAYER-1
  0
POLYLINE
  8
LAYER-1
 66
  1
 70
  1
 62
  0
 10
2.797226
 20
6.416656
 30
0.000000
  0
VERTEX
  8
LAYER-1
 10
2.797226
 20
6.416656
 30
0.000000
  0
VERTEX
  8
LAYER-1
 10
2.803803
 20
6.410078
 30
0.000000
  0
VERTEX
  8
LAYER-1
 10
2.936832
 20
6.410078
 30
0.000000
  0
VERTEX
  8
LAYER-1
 10
2.943410
 20
6.416655
 30
0.000000
  0
VERTEX
  8
LAYER-1
 10
2.965830
 20
6.416655
 30
0.000000
  0
VERTEX
  8
LAYER-1
 10
2.965830
 20
6.320992
 30
0.000000
  0
VERTEX
  8
LAYER-1
 10
2.943410
 20
6.320992
 30
0.000000
  0
VERTEX
  8
LAYER-1
 10
2.943410
 20
6.327569
 30
0.000000
  0
VERTEX
  8
LAYER-1
 10
2.959253
 20
6.327569
 30
0.000000
  0
VERTEX
  8
LAYER-1
 10
2.959253
 20
6.410078
 30
0.000000
  0
VERTEX
  8
LAYER-1
 10
2.946399
 20
6.410078
 30
0.000000
  0
VERTEX
  8
LAYER-1
 10
2.939523
 20
6.403203
 30
0.000000
  0
VERTEX
  8
LAYER-1
 10
2.801411
 20
6.403203
 30
0.000000
  0
VERTEX
  8
LAYER-1
 10
2.794536
 20
6.410078
 30
0.000000
  0
VERTEX
  8
LAYER-1
 10
2.781083
 20
6.410078
 30
0.000000
  0
VERTEX
  8
LAYER-1
 10
2.781083
 20
6.327569
 30
0.000000
  0
VERTEX
  8
LAYER-1
 10
2.797226
 20
6.327569
 30
0.000000
  0
VERTEX
  8
LAYER-1
 10
2.797226
 20
6.320992
 30
0.000000
  0
VERTEX
  8
LAYER-1
 10
2.774506
 20
6.320992
 30
0.000000
  0
VERTEX
  8
LAYER-1
 10
2.774506
 20
6.416656
 30
0.000000
  0
SEQEND
  8
LAYER-1
  0
POLYLINE
  8
LAYER-1
 66
  1
 70
  1
 62
  0
 10
1.708586
 20
5.401059
 30
0.000000
  0
VERTEX
  8
LAYER-1
 10
1.708586
 20
5.401059
 30
0.000000
  0
VERTEX
  8
LAYER-1
 10
1.702008
 20
5.407637
 30
0.000000
  0
VERTEX
  8
LAYER-1
 10
1.568980
 20
5.407637
 30
0.000000
  0
VERTEX
  8
LAYER-1
 10
1.562403
 20
5.401060
 30
0.000000
  0
VERTEX
  8
LAYER-1
 10
1.539982
 20
5.401060
 30
0.000000
  0
VERTEX
  8
LAYER-1
 10
1.539982
 20
5.496722
 30
0.000000
  0
VERTEX
  8
LAYER-1
 10
1.562403
 20
5.496722
 30
0.000000
  0
VERTEX
  8
LAYER-1
 10
1.562403
 20
5.490145
 30
0.000000
  0
VERTEX
  8
LAYER-1
 10
1.546558
 20
5.490145
 30
0.000000
  0
VERTEX
  8
LAYER-1
 10
1.546558
 20
5.407637
 30
0.000000
  0
VERTEX
  8
LAYER-1
 10
1.559413
 20
5.407636
 30
0.000000
  0
VERTEX
  8
LAYER-1
 10
1.566289
 20
5.414512
 30
0.000000
  0
VERTEX
  8
LAYER-1
 10
1.704400
 20
5.414512
 30
0.000000
  0
VERTEX
  8
LAYER-1
 10
1.711276
 20
5.407636
 30
0.000000
  0
VERTEX
  8
LAYER-1
 10
1.724729
 20
5.407637
 30
0.000000
  0
VERTEX
  8
LAYER-1
 10
1.724729
 20
5.490145
 30
0.000000
  0
VERTEX
  8
LAYER-1
 10
1.708586
 20
5.490145
 30
0.000000
  0
VERTEX
  8
LAYER-1
 10
1.708586
 20
5.496722
 30
0.000000
  0
VERTEX
  8
LAYER-1
 10
1.731305
 20
5.496722
 30
0.000000
  0
VERTEX
  8
LAYER-1
 10
1.731305
 20
5.401059
 30
0.000000
  0
SEQEND
  8
LAYER-1
  0
POLYLINE
  8
LAYER-1
 66
  1
 70
  1
 62
  0
 10
1.562188
 20
7.426108
 30
0.000000
  0
VERTEX
  8
LAYER-1
 10
1.562188
 20
7.426108
 30
0.000000
  0
VERTEX
  8
LAYER-1
 10
1.568765
 20
7.419530
 30
0.000000
  0
VERTEX
  8
LAYER-1
 10
1.701793
 20
7.419530
 30
0.000000
  0
VERTEX
  8
LAYER-1
 10
1.708371
 20
7.426107
 30
0.000000
  0
VERTEX
  8
LAYER-1
 10
1.730792
 20
7.426107
 30
0.000000
  0
VERTEX
  8
LAYER-1
 10
1.730792
 20
7.330446
 30
0.000000
  0
VERTEX
  8
LAYER-1
 10
1.708371
 20
7.330446
 30
0.000000
  0
VERTEX
  8
LAYER-1
 10
1.708371
 20
7.337023
 30
0.000000
  0
VERTEX
  8
LAYER-1
 10
1.724215
 20
7.337023
 30
0.000000
  0
VERTEX
  8
LAYER-1
 10
1.724215
 20
7.419530
 30
0.000000
  0
VERTEX
  8
LAYER-1
 10
1.711360
 20
7.419531
 30
0.000000
  0
VERTEX
  8
LAYER-1
 10
1.704485
 20
7.412655
 30
0.000000
  0
VERTEX
  8
LAYER-1
 10
1.566373
 20
7.412655
 30
0.000000
  0
VERTEX
  8
LAYER-1
 10
1.559497
 20
7.419531
 30
0.000000
  0
VERTEX
  8
LAYER-1
 10
1.546045
 20
7.419530
 30
0.000000
  0
VERTEX
  8
LAYER-1
 10
1.546045
 20
7.337023
 30
0.000000
  0
VERTEX
  8
LAYER-1
 10
1.562188
 20
7.337023
 30
0.000000
  0
VERTEX
  8
LAYER-1
 10
1.562188
 20
7.330446
 30
0.000000
  0
VERTEX
  8
LAYER-1
 10
1.539468
 20
7.330446
 30
0.000000
  0
VERTEX
  8
LAYER-1
 10
1.539468
 20
7.426108
 30
0.000000
  0
SEQEND
  8
LAYER-1
  0
POLYLINE
  8
LAYER-1
 66
  1
 70
  1
 62
  0
 10
1.562286
 20
6.416398
 30
0.000000
  0
VERTEX
  8
LAYER-1
 10
1.562286
 20
6.416398
 30
0.000000
  0
VERTEX
  8
LAYER-1
 10
1.568864
 20
6.409821
 30
0.000000
  0
VERTEX
  8
LAYER-1
 10
1.701892
 20
6.409821
 30
0.000000
  0
VERTEX
  8
LAYER-1
 10
1.708469
 20
6.416398
 30
0.000000
  0
VERTEX
  8
LAYER-1
 10
1.730890
 20
6.416398
 30
0.000000
  0
VERTEX
  8
LAYER-1
 10
1.730890
 20
6.320736
 30
0.000000
  0
VERTEX
  8
LAYER-1
 10
1.708469
 20
6.320736
 30
0.000000
  0
VERTEX
  8
LAYER-1
 10
1.708469
 20
6.327313
 30
0.000000
  0
VERTEX
  8
LAYER-1
 10
1.724313
 20
6.327313
 30
0.000000
  0
VERTEX
  8
LAYER-1
 10
1.724313
 20
6.409821
 30
0.000000
  0
VERTEX
  8
LAYER-1
 10
1.711459
 20
6.409822
 30
0.000000
  0
VERTEX
  8
LAYER-1
 10
1.704583
 20
6.402946
 30
0.000000
  0
VERTEX
  8
LAYER-1
 10
1.566471
 20
6.402946
 30
0.000000
  0
VERTEX
  8
LAYER-1
 10
1.559596
 20
6.409822
 30
0.000000
  0
VERTEX
  8
LAYER-1
 10
1.546143
 20
6.409821
 30
0.000000
  0
VERTEX
  8
LAYER-1
 10
1.546143
 20
6.327313
 30
0.000000
  0
VERTEX
  8
LAYER-1
 10
1.562286
 20
6.327313
 30
0.000000
  0
VERTEX
  8
LAYER-1
 10
1.562286
 20
6.320736
 30
0.000000
  0
VERTEX
  8
LAYER-1
 10
1.539566
 20
6.320736
 30
0.000000
  0
VERTEX
  8
LAYER-1
 10
1.539566
 20
6.416398
 30
0.000000
  0
SEQEND
  8
LAYER-1
  0
POLYLINE
  8
LAYER-1
 66
  1
 70
  1
 62
  0
 10
1.538764
 20
7.449600
 30
0.000000
  0
VERTEX
  8
LAYER-1
 10
1.538764
 20
7.449600
 30
0.000000
  0
VERTEX
  8
LAYER-1
 10
1.545341
 20
7.456178
 30
0.000000
  0
VERTEX
  8
LAYER-1
 10
1.545341
 20
7.589206
 30
0.000000
  0
VERTEX
  8
LAYER-1
 10
1.538765
 20
7.595785
 30
0.000000
  0
VERTEX
  8
LAYER-1
 10
1.538765
 20
7.618205
 30
0.000000
  0
VERTEX
  8
LAYER-1
 10
1.634427
 20
7.618205
 30
0.000000
  0
VERTEX
  8
LAYER-1
 10
1.634427
 20
7.595785
 30
0.000000
  0
VERTEX
  8
LAYER-1
 10
1.627850
 20
7.595785
 30
0.000000
  0
VERTEX
  8
LAYER-1
 10
1.627850
 20
7.611628
 30
0.000000
  0
VERTEX
  8
LAYER-1
 10
1.545341
 20
7.611628
 30
0.000000
  0
VERTEX
  8
LAYER-1
 10
1.545341
 20
7.598774
 30
0.000000
  0
VERTEX
  8
LAYER-1
 10
1.552216
 20
7.591898
 30
0.000000
  0
VERTEX
  8
LAYER-1
 10
1.552216
 20
7.453785
 30
0.000000
  0
VERTEX
  8
LAYER-1
 10
1.545341
 20
7.446910
 30
0.000000
  0
VERTEX
  8
LAYER-1
 10
1.545341
 20
7.433457
 30
0.000000
  0
VERTEX
  8
LAYER-1
 10
1.627850
 20
7.433457
 30
0.000000
  0
VERTEX
  8
LAYER-1
 10
1.627850
 20
7.449600
 30
0.000000
  0
VERTEX
  8
LAYER-1
 10
1.634427
 20
7.449600
 30
0.000000
  0
VERTEX
  8
LAYER-1
 10
1.634427
 20
7.426881
 30
0.000000
  0
VERTEX
  8
LAYER-1
 10
1.538764
 20
7.426881
 30
0.000000
  0
SEQEND
  8
LAYER-1
  0
POLYLINE
  8
LAYER-1
 66
  1
 70
  1
 62
  0
 10
2.965281
 20
7.595039
 30
0.000000
  0
VERTEX
  8
LAYER-1
 10
2.965281
 20
7.595039
 30
0.000000
  0
VERTEX
  8
LAYER-1
 10
2.958703
 20
7.588461
 30
0.000000
  0
VERTEX
  8
LAYER-1
 10
2.958703
 20
7.455432
 30
0.000000
  0
VERTEX
  8
LAYER-1
 10
2.965280
 20
7.448855
 30
0.000000
  0
VERTEX
  8
LAYER-1
 10
2.965280
 20
7.426434
 30
0.000000
  0
VERTEX
  8
LAYER-1
 10
2.869618
 20
7.426434
 30
0.000000
  0
VERTEX
  8
LAYER-1
 10
2.869618
 20
7.448855
 30
0.000000
  0
VERTEX
  8
LAYER-1
 10
2.876195
 20
7.448855
 30
0.000000
  0
VERTEX
  8
LAYER-1
 10
2.876195
 20
7.433011
 30
0.000000
  0
VERTEX
  8
LAYER-1
 10
2.958703
 20
7.433011
 30
0.000000
  0
VERTEX
  8
LAYER-1
 10
2.958704
 20
7.445865
 30
0.000000
  0
VERTEX
  8
LAYER-1
 10
2.951828
 20
7.452741
 30
0.000000
  0
VERTEX
  8
LAYER-1
 10
2.951828
 20
7.590853
 30
0.000000
  0
VERTEX
  8
LAYER-1
 10
2.958704
 20
7.597729
 30
0.000000
  0
VERTEX
  8
LAYER-1
 10
2.958703
 20
7.611181
 30
0.000000
  0
VERTEX
  8
LAYER-1
 10
2.876195
 20
7.611181
 30
0.000000
  0
VERTEX
  8
LAYER-1
 10
2.876195
 20
7.595039
 30
0.000000
  0
VERTEX
  8
LAYER-1
 10
2.869618
 20
7.595039
 30
0.000000
  0
VERTEX
  8
LAYER-1
 10
2.869618
 20
7.617758
 30
0.000000
  0
VERTEX
  8
LAYER-1
 10
2.965281
 20
7.617758
 30
0.000000
  0
SEQEND
  8
LAYER-1
  0
POLYLINE
  8
LAYER-1
 66
  1
 70
  0
 62
  0
 10
1.491465
 20
5.352294
 30
0.000000
  0
VERTEX
  8
LAYER-1
 10
1.491465
 20
5.352294
 30
0.000000
  0
VERTEX
  8
LAYER-1
 10
1.780744
 20
5.352294
 30
0.000000
  0
SEQEND
  8
LAYER-1
  0
TEXT
  8
LAYER-1
 62
  0
 10
2.118056
 20
7.986110
 30
0.000000
 40
0.197917
  1
A
 72
  5
 11
2.368056
 21
7.986110
 31
0.000000
  0
POLYLINE
  8
LAYER-1
  6
LTYPE01
 66
  1
 70
  0
 62
  0
  6
LTYPE01
 10
2.650671
 20
6.480000
 30
0.000000
  0
VERTEX
  8
LAYER-1
  6
LTYPE01
 10
2.650671
 20
6.480000
 30
0.000000
  0
VERTEX
  8
LAYER-1
  6
LTYPE01
 10
2.023540
 20
6.543284
 30
0.000000
  0
SEQEND
  8
LAYER-1
  0
POLYLINE
  8
LAYER-1
  6
LTYPE01
 66
  1
 70
  0
 62
  0
  6
LTYPE01
 10
2.023540
 20
6.543284
 30
0.000000
  0
VERTEX
  8
LAYER-1
  6
LTYPE01
 10
2.023540
 20
6.543284
 30
0.000000
  0
VERTEX
  8
LAYER-1
  6
LTYPE01
 10
2.650671
 20
6.606566
 30
0.000000
  0
SEQEND
  8
LAYER-1
  0
POLYLINE
  8
LAYER-1
  6
LTYPE01
 66
  1
 70
  0
 62
  0
  6
LTYPE01
 10
2.650671
 20
6.606566
 30
0.000000
  0
VERTEX
  8
LAYER-1
  6
LTYPE01
 10
2.650671
 20
6.606566
 30
0.000000
  0
VERTEX
  8
LAYER-1
  6
LTYPE01
 10
2.023537
 20
6.669849
 30
0.000000
  0
SEQEND
  8
LAYER-1
  0
POLYLINE
  8
LAYER-1
  6
LTYPE01
 66
  1
 70
  0
 62
  0
  6
LTYPE01
 10
2.023537
 20
6.669849
 30
0.000000
  0
VERTEX
  8
LAYER-1
  6
LTYPE01
 10
2.023537
 20
6.669849
 30
0.000000
  0
VERTEX
  8
LAYER-1
  6
LTYPE01
 10
2.650668
 20
6.733132
 30
0.000000
  0
SEQEND
  8
LAYER-1
  0
POLYLINE
  8
LAYER-1
  6
LTYPE01
 66
  1
 70
  0
 62
  0
  6
LTYPE01
 10
2.650668
 20
6.733132
 30
0.000000
  0
VERTEX
  8
LAYER-1
  6
LTYPE01
 10
2.650668
 20
6.733132
 30
0.000000
  0
VERTEX
  8
LAYER-1
  6
LTYPE01
 10
2.023537
 20
6.796415
 30
0.000000
  0
SEQEND
  8
LAYER-1
  0
POLYLINE
  8
LAYER-1
  6
LTYPE01
 66
  1
 70
  0
 62
  0
  6
LTYPE01
 10
2.023537
 20
6.796415
 30
0.000000
  0
VERTEX
  8
LAYER-1
  6
LTYPE01
 10
2.023537
 20
6.796415
 30
0.000000
  0
VERTEX
  8
LAYER-1
  6
LTYPE01
 10
2.650668
 20
6.859698
 30
0.000000
  0
SEQEND
  8
LAYER-1
  0
POLYLINE
  8
LAYER-1
  6
LTYPE01
 66
  1
 70
  0
 62
  0
  6
LTYPE01
 10
2.650668
 20
6.859698
 30
0.000000
  0
VERTEX
  8
LAYER-1
  6
LTYPE01
 10
2.650668
 20
6.859698
 30
0.000000
  0
VERTEX
  8
LAYER-1
  6
LTYPE01
 10
2.023537
 20
6.922981
 30
0.000000
  0
SEQEND
  8
LAYER-1
  0
POLYLINE
  8
LAYER-1
  6
LTYPE01
 66
  1
 70
  0
 62
  0
  6
LTYPE01
 10
2.023537
 20
6.922981
 30
0.000000
  0
VERTEX
  8
LAYER-1
  6
LTYPE01
 10
2.023537
 20
6.922981
 30
0.000000
  0
VERTEX
  8
LAYER-1
  6
LTYPE01
 10
2.650668
 20
6.986265
 30
0.000000
  0
SEQEND
  8
LAYER-1
  0
POLYLINE
  8
LAYER-1
  6
LTYPE01
 66
  1
 70
  0
 62
  0
  6
LTYPE01
 10
2.650668
 20
6.986265
 30
0.000000
  0
VERTEX
  8
LAYER-1
  6
LTYPE01
 10
2.650668
 20
6.986265
 30
0.000000
  0
VERTEX
  8
LAYER-1
  6
LTYPE01
 10
2.023537
 20
7.049548
 30
0.000000
  0
SEQEND
  8
LAYER-1
  0
POLYLINE
  8
LAYER-1
  6
LTYPE01
 66
  1
 70
  0
 62
  0
  6
LTYPE01
 10
2.023537
 20
7.049548
 30
0.000000
  0
VERTEX
  8
LAYER-1
  6
LTYPE01
 10
2.023537
 20
7.049548
 30
0.000000
  0
VERTEX
  8
LAYER-1
  6
LTYPE01
 10
2.650668
 20
7.112831
 30
0.000000
  0
SEQEND
  8
LAYER-1
  0
POLYLINE
  8
LAYER-1
  6
LTYPE01
 66
  1
 70
  0
 62
  0
  6
LTYPE01
 10
2.650668
 20
7.112831
 30
0.000000
  0
VERTEX
  8
LAYER-1
  6
LTYPE01
 10
2.650668
 20
7.112831
 30
0.000000
  0
VERTEX
  8
LAYER-1
  6
LTYPE01
 10
2.023531
 20
7.176776
 30
0.000000
  0
SEQEND
  8
LAYER-1
  0
POLYLINE
  8
LAYER-1
  6
LTYPE01
 66
  1
 70
  0
 62
  0
  6
LTYPE01
 10
2.023945
 20
7.177473
 30
0.000000
  0
VERTEX
  8
LAYER-1
  6
LTYPE01
 10
2.023945
 20
7.177473
 30
0.000000
  0
VERTEX
  8
LAYER-1
  6
LTYPE01
 10
2.344773
 20
7.209974
 30
0.000000
  0
SEQEND
  8
LAYER-1
  0
POLYLINE
  8
LAYER-1
  6
LTYPE01
 66
  1
 70
  0
 62
  0
  6
LTYPE01
 10
2.345678
 20
6.448044
 30
0.000000
  0
VERTEX
  8
LAYER-1
  6
LTYPE01
 10
2.345678
 20
6.448044
 30
0.000000
  0
VERTEX
  8
LAYER-1
  6
LTYPE01
 10
2.651983
 20
6.479065
 30
0.000000
  0
SEQEND
  8
LAYER-1
  0
POLYLINE
  8
LAYER-1
 66
  1
 70
  0
 62
  0
 10
2.297716
 20
7.234294
 30
0.000000
  0
VERTEX
  8
LAYER-1
 10
2.297716
 20
7.234294
 30
0.000000
  0
VERTEX
  8
LAYER-1
 10
2.297716
 20
7.350015
 30
0.000000
  0
SEQEND
  8
LAYER-1
  0
POLYLINE
  8
LAYER-1
 66
  1
 70
  0
 62
  0
 10
2.320847
 20
7.373144
 30
0.000000
  0
VERTEX
  8
LAYER-1
 10
2.320847
 20
7.373144
 30
0.000000
  0
VERTEX
  8
LAYER-1
 10
2.367108
 20
7.373144
 30
0.000000
  0
SEQEND
  8
LAYER-1
  0
POLYLINE
  8
LAYER-1
 66
  1
 70
  0
 62
  0
 10
2.390239
 20
7.350015
 30
0.000000
  0
VERTEX
  8
LAYER-1
 10
2.390239
 20
7.350015
 30
0.000000
  0
VERTEX
  8
LAYER-1
 10
2.390239
 20
7.234294
 30
0.000000
  0
SEQEND
  8
LAYER-1
  0
POLYLINE
  8
LAYER-1
 66
  1
 70
  0
 62
  0
 10
2.367108
 20
7.211164
 30
0.000000
  0
VERTEX
  8
LAYER-1
 10
2.367108
 20
7.211164
 30
0.000000
  0
VERTEX
  8
LAYER-1
 10
2.320847
 20
7.211164
 30
0.000000
  0
SEQEND
  8
LAYER-1
  0
ARC
  8
LAYER-1
 62
  0
 10
2.320847
 20
7.234294
 30
0.000000
 40
0.023130
 50
180.000000
 51
270.000000
  0
ARC
  8
LAYER-1
 62
  0
 10
2.367108
 20
7.234294
 30
0.000000
 40
0.023130
 50
270.000000
 51
0.000000
  0
ARC
  8
LAYER-1
 62
  0
 10
2.367108
 20
7.350015
 30
0.000000
 40
0.023130
 50
0.000000
 51
90.000000
  0
ARC
  8
LAYER-1
 62
  0
 10
2.320847
 20
7.350015
 30
0.000000
 40
0.023130
 50
90.000000
 51
180.000000
  0
POLYLINE
  8
LAYER-1
 66
  1
 70
  0
 62
  0
 10
2.299353
 20
6.308595
 30
0.000000
  0
VERTEX
  8
LAYER-1
 10
2.299353
 20
6.308595
 30
0.000000
  0
VERTEX
  8
LAYER-1
 10
2.299353
 20
6.424318
 30
0.000000
  0
SEQEND
  8
LAYER-1
  0
POLYLINE
  8
LAYER-1
 66
  1
 70
  0
 62
  0
 10
2.322483
 20
6.447448
 30
0.000000
  0
VERTEX
  8
LAYER-1
 10
2.322483
 20
6.447448
 30
0.000000
  0
VERTEX
  8
LAYER-1
 10
2.368745
 20
6.447448
 30
0.000000
  0
SEQEND
  8
LAYER-1
  0
POLYLINE
  8
LAYER-1
 66
  1
 70
  0
 62
  0
 10
2.391875
 20
6.424318
 30
0.000000
  0
VERTEX
  8
LAYER-1
 10
2.391875
 20
6.424318
 30
0.000000
  0
VERTEX
  8
LAYER-1
 10
2.391875
 20
6.308595
 30
0.000000
  0
SEQEND
  8
LAYER-1
  0
POLYLINE
  8
LAYER-1
 66
  1
 70
  0
 62
  0
 10
2.368745
 20
6.285466
 30
0.000000
  0
VERTEX
  8
LAYER-1
 10
2.368745
 20
6.285466
 30
0.000000
  0
VERTEX
  8
LAYER-1
 10
2.322483
 20
6.285466
 30
0.000000
  0
SEQEND
  8
LAYER-1
  0
ARC
  8
LAYER-1
 62
  0
 10
2.322483
 20
6.308595
 30
0.000000
 40
0.023130
 50
180.000000
 51
270.000000
  0
ARC
  8
LAYER-1
 62
  0
 10
2.368745
 20
6.308595
 30
0.000000
 40
0.023130
 50
270.000000
 51
0.000000
  0
ARC
  8
LAYER-1
 62
  0
 10
2.368745
 20
6.424318
 30
0.000000
 40
0.023130
 50
0.000000
 51
90.000000
  0
ARC
  8
LAYER-1
 62
  0
 10
2.322483
 20
6.424318
 30
0.000000
 40
0.023130
 50
90.000000
 51
180.000000
  0
POLYLINE
  8
LAYER-1
  6
LTYPE01
 66
  1
 70
  0
 62
  0
  6
LTYPE01
 10
2.575291
 20
5.437626
 30
0.000000
  0
VERTEX
  8
LAYER-1
  6
LTYPE01
 10
2.575291
 20
5.437626
 30
0.000000
  0
VERTEX
  8
LAYER-1
  6
LTYPE01
 10
1.997385
 20
5.670689
 30
0.000000
  0
SEQEND
  8
LAYER-1
  0
POLYLINE
  8
LAYER-1
  6
LTYPE01
 66
  1
 70
  0
 62
  0
  6
LTYPE01
 10
2.616353
 20
5.600371
 30
0.000000
  0
VERTEX
  8
LAYER-1
  6
LTYPE01
 10
2.616353
 20
5.600371
 30
0.000000
  0
VERTEX
  8
LAYER-1
  6
LTYPE01
 10
2.017717
 20
5.773358
 30
0.000000
  0
SEQEND
  8
LAYER-1
  0
POLYLINE
  8
LAYER-1
  6
LTYPE01
 66
  1
 70
  0
 62
  0
  6
LTYPE01
 10
2.641228
 20
5.766574
 30
0.000000
  0
VERTEX
  8
LAYER-1
  6
LTYPE01
 10
2.641228
 20
5.766574
 30
0.000000
  0
VERTEX
  8
LAYER-1
  6
LTYPE01
 10
2.027604
 20
5.877500
 30
0.000000
  0
SEQEND
  8
LAYER-1
  0
POLYLINE
  8
LAYER-1
  6
LTYPE01
 66
  1
 70
  0
 62
  0
  6
LTYPE01
 10
2.027759
 20
5.877877
 30
0.000000
  0
VERTEX
  8
LAYER-1
  6
LTYPE01
 10
2.027759
 20
5.877877
 30
0.000000
  0
VERTEX
  8
LAYER-1
  6
LTYPE01
 10
2.646106
 20
5.934510
 30
0.000000
  0
SEQEND
  8
LAYER-1
  0
POLYLINE
  8
LAYER-1
  6
LTYPE01
 66
  1
 70
  0
 62
  0
  6
LTYPE01
 10
2.027152
 20
5.999117
 30
0.000000
  0
VERTEX
  8
LAYER-1
  6
LTYPE01
 10
2.027152
 20
5.999117
 30
0.000000
  0
VERTEX
  8
LAYER-1
  6
LTYPE01
 10
2.647058
 20
6.062399
 30
0.000000
  0
SEQEND
  8
LAYER-1
  0
POLYLINE
  8
LAYER-1
  6
LTYPE01
 66
  1
 70
  0
 62
  0
  6
LTYPE01
 10
2.647058
 20
6.062399
 30
0.000000
  0
VERTEX
  8
LAYER-1
  6
LTYPE01
 10
2.647058
 20
6.062399
 30
0.000000
  0
VERTEX
  8
LAYER-1
  6
LTYPE01
 10
2.027146
 20
6.126344
 30
0.000000
  0
SEQEND
  8
LAYER-1
  0
POLYLINE
  8
LAYER-1
  6
LTYPE01
 66
  1
 70
  0
 62
  0
  6
LTYPE01
 10
2.028007
 20
6.254468
 30
0.000000
  0
VERTEX
  8
LAYER-1
  6
LTYPE01
 10
2.028007
 20
6.254468
 30
0.000000
  0
VERTEX
  8
LAYER-1
  6
LTYPE01
 10
2.346583
 20
6.285160
 30
0.000000
  0
SEQEND
  8
LAYER-1
  0
POLYLINE
  8
LAYER-1
  6
LTYPE01
 66
  1
 70
  0
 62
  0
  6
LTYPE01
 10
2.278929
 20
5.502474
 30
0.000000
  0
VERTEX
  8
LAYER-1
  6
LTYPE01
 10
2.278929
 20
5.502474
 30
0.000000
  0
VERTEX
  8
LAYER-1
  6
LTYPE01
 10
2.575000
 20
5.437225
 30
0.000000
  0
SEQEND
  8
LAYER-1
  0
POLYLINE
  8
LAYER-1
  6
LTYPE01
 66
  1
 70
  1
 62
  0
  6
LTYPE01
 10
0.838984
 20
4.414113
 30
0.000000
  0
VERTEX
  8
LAYER-1
  6
LTYPE01
 10
0.838984
 20
4.414113
 30
0.000000
  0
VERTEX
  8
LAYER-1
  6
LTYPE01
 10
1.491253
 20
5.351809
 30
0.000000
  0
VERTEX
  8
LAYER-1
  6
LTYPE01
 10
1.567899
 20
5.298458
 30
0.000000
  0
VERTEX
  8
LAYER-1
  6
LTYPE01
 10
0.918880
 20
4.365436
 30
0.000000
  0
SEQEND
  8
LAYER-1
  0
TEXT
  8
LAYER-1
 62
  0
 10
0.798612
 20
6.263888
 30
0.000000
 40
0.197917
  1
P
 72
  5
 11
1.048612
 21
6.263888
 31
0.000000
  0
POLYLINE
  8
LAYER-1
 66
  1
 70
  1
 62
  0
 10
1.540343
 20
3.988009
 30
0.000000
  0
VERTEX
  8
LAYER-1
 10
1.540343
 20
3.988009
 30
0.000000
  0
VERTEX
  8
LAYER-1
 10
1.546920
 20
3.994587
 30
0.000000
  0
VERTEX
  8
LAYER-1
 10
1.546920
 20
4.127615
 30
0.000000
  0
VERTEX
  8
LAYER-1
 10
1.540343
 20
4.134193
 30
0.000000
  0
VERTEX
  8
LAYER-1
 10
1.540343
 20
4.156614
 30
0.000000
  0
VERTEX
  8
LAYER-1
 10
1.636004
 20
4.156614
 30
0.000000
  0
VERTEX
  8
LAYER-1
 10
1.636004
 20
4.134193
 30
0.000000
  0
VERTEX
  8
LAYER-1
 10
1.629427
 20
4.134193
 30
0.000000
  0
VERTEX
  8
LAYER-1
 10
1.629427
 20
4.150037
 30
0.000000
  0
VERTEX
  8
LAYER-1
 10
1.546920
 20
4.150037
 30
0.000000
  0
VERTEX
  8
LAYER-1
 10
1.546919
 20
4.137182
 30
0.000000
  0
VERTEX
  8
LAYER-1
 10
1.553794
 20
4.130307
 30
0.000000
  0
VERTEX
  8
LAYER-1
 10
1.553794
 20
3.992195
 30
0.000000
  0
VERTEX
  8
LAYER-1
 10
1.546919
 20
3.985319
 30
0.000000
  0
VERTEX
  8
LAYER-1
 10
1.546920
 20
3.971867
 30
0.000000
  0
VERTEX
  8
LAYER-1
 10
1.629427
 20
3.971867
 30
0.000000
  0
VERTEX
  8
LAYER-1
 10
1.629427
 20
3.988009
 30
0.000000
  0
VERTEX
  8
LAYER-1
 10
1.636004
 20
3.988009
 30
0.000000
  0
VERTEX
  8
LAYER-1
 10
1.636004
 20
3.965290
 30
0.000000
  0
VERTEX
  8
LAYER-1
 10
1.540343
 20
3.965290
 30
0.000000
  0
SEQEND
  8
LAYER-1
  0
POLYLINE
  8
LAYER-1
 66
  1
 70
  1
 62
  0
 10
2.965278
 20
4.133667
 30
0.000000
  0
VERTEX
  8
LAYER-1
 10
2.965278
 20
4.133667
 30
0.000000
  0
VERTEX
  8
LAYER-1
 10
2.958701
 20
4.127090
 30
0.000000
  0
VERTEX
  8
LAYER-1
 10
2.958701
 20
3.994061
 30
0.000000
  0
VERTEX
  8
LAYER-1
 10
2.965278
 20
3.987483
 30
0.000000
  0
VERTEX
  8
LAYER-1
 10
2.965278
 20
3.965063
 30
0.000000
  0
VERTEX
  8
LAYER-1
 10
2.869616
 20
3.965063
 30
0.000000
  0
VERTEX
  8
LAYER-1
 10
2.869616
 20
3.987483
 30
0.000000
  0
VERTEX
  8
LAYER-1
 10
2.876193
 20
3.987483
 30
0.000000
  0
VERTEX
  8
LAYER-1
 10
2.876193
 20
3.971639
 30
0.000000
  0
VERTEX
  8
LAYER-1
 10
2.958701
 20
3.971639
 30
0.000000
  0
VERTEX
  8
LAYER-1
 10
2.958702
 20
3.984494
 30
0.000000
  0
VERTEX
  8
LAYER-1
 10
2.951826
 20
3.991369
 30
0.000000
  0
VERTEX
  8
LAYER-1
 10
2.951826
 20
4.129482
 30
0.000000
  0
VERTEX
  8
LAYER-1
 10
2.958702
 20
4.136357
 30
0.000000
  0
VERTEX
  8
LAYER-1
 10
2.958701
 20
4.149810
 30
0.000000
  0
VERTEX
  8
LAYER-1
 10
2.876193
 20
4.149810
 30
0.000000
  0
VERTEX
  8
LAYER-1
 10
2.876193
 20
4.133667
 30
0.000000
  0
VERTEX
  8
LAYER-1
 10
2.869616
 20
4.133667
 30
0.000000
  0
VERTEX
  8
LAYER-1
 10
2.869616
 20
4.156386
 30
0.000000
  0
VERTEX
  8
LAYER-1
 10
2.965278
 20
4.156386
 30
0.000000
  0
SEQEND
  8
LAYER-1
  0
POLYLINE
  8
LAYER-1
 66
  1
 70
  1
 62
  0
 10
2.943330
 20
4.157452
 30
0.000000
  0
VERTEX
  8
LAYER-1
 10
2.943330
 20
4.157452
 30
0.000000
  0
VERTEX
  8
LAYER-1
 10
2.936753
 20
4.164029
 30
0.000000
  0
VERTEX
  8
LAYER-1
 10
2.803724
 20
4.164029
 30
0.000000
  0
VERTEX
  8
LAYER-1
 10
2.797146
 20
4.157452
 30
0.000000
  0
VERTEX
  8
LAYER-1
 10
2.774726
 20
4.157452
 30
0.000000
  0
VERTEX
  8
LAYER-1
 10
2.774726
 20
4.253114
 30
0.000000
  0
VERTEX
  8
LAYER-1
 10
2.797146
 20
4.253114
 30
0.000000
  0
VERTEX
  8
LAYER-1
 10
2.797146
 20
4.246537
 30
0.000000
  0
VERTEX
  8
LAYER-1
 10
2.781303
 20
4.246537
 30
0.000000
  0
VERTEX
  8
LAYER-1
 10
2.781303
 20
4.164029
 30
0.000000
  0
VERTEX
  8
LAYER-1
 10
2.794157
 20
4.164029
 30
0.000000
  0
VERTEX
  8
LAYER-1
 10
2.801033
 20
4.170904
 30
0.000000
  0
VERTEX
  8
LAYER-1
 10
2.939145
 20
4.170904
 30
0.000000
  0
VERTEX
  8
LAYER-1
 10
2.946020
 20
4.164029
 30
0.000000
  0
VERTEX
  8
LAYER-1
 10
2.959473
 20
4.164029
 30
0.000000
  0
VERTEX
  8
LAYER-1
 10
2.959473
 20
4.246537
 30
0.000000
  0
VERTEX
  8
LAYER-1
 10
2.943330
 20
4.246537
 30
0.000000
  0
VERTEX
  8
LAYER-1
 10
2.943330
 20
4.253114
 30
0.000000
  0
VERTEX
  8
LAYER-1
 10
2.966050
 20
4.253114
 30
0.000000
  0
VERTEX
  8
LAYER-1
 10
2.966050
 20
4.157452
 30
0.000000
  0
SEQEND
  8
LAYER-1
  0
POLYLINE
  8
LAYER-1
  6
LTYPE06
 66
  1
 70
  0
 62
  0
  6
LTYPE06
 10
1.012753
 20
4.588420
 30
0.000000
  0
VERTEX
  8
LAYER-1
  6
LTYPE06
 10
1.012753
 20
4.588420
 30
0.000000
  0
VERTEX
  8
LAYER-1
  6
LTYPE06
 10
0.652601
 20
4.588464
 30
0.000000
  0
SEQEND
  8
LAYER-1
  0
TEXT
  8
LAYER-1
 62
  0
 10
0.340278
 20
4.763888
 30
0.000000
 40
0.197917
  1
B
 72
  5
 11
0.590278
 21
4.763888
 31
0.000000
  0
TEXT
  8
LAYER-1
 62
  0
 10
1.784723
 20
4.472221
 30
0.000000
 40
0.125000
  1
4" - 102mm
 72
  5
 11
2.743056
 21
4.472221
 31
0.000000
  0
TEXT
  8
LAYER-1
 62
  0
 10
1.784723
 20
4.277777
 30
0.000000
 40
0.125000
  1
minimo
 72
  5
 11
2.437501
 21
4.277777
 31
0.000000
  0
POLYLINE
  8
LAYER-1
 66
  1
 70
  0
 62
  0
 10
2.346601
 20
4.841127
 30
0.000000
  0
VERTEX
  8
LAYER-1
 10
2.346601
 20
4.841127
 30
0.000000
  0
VERTEX
  8
LAYER-1
 10
2.346582
 20
5.410117
 30
0.000000
  0
SEQEND
  8
LAYER-1
  0
POLYLINE
  8
LAYER-1
 66
  1
 70
  0
 62
  0
 10
2.346581
 20
4.982292
 30
0.000000
  0
VERTEX
  8
LAYER-1
 10
2.346581
 20
4.982292
 30
0.000000
  0
VERTEX
  8
LAYER-1
 10
2.726642
 20
4.983002
 30
0.000000
  0
SEQEND
  8
LAYER-1
  0
LINE
  8
LAYER-1
 62
  0
 10
2.375989
 20
5.011809
 30
0.000000
 11
2.317174
 21
4.952774
 31
0.000000
  0
LINE
  8
LAYER-1
 62
  0
 10
2.756050
 20
5.012520
 30
0.000000
 11
2.697234
 21
4.953484
 31
0.000000
  0
POLYLINE
  8
LAYER-1
 66
  1
 70
  0
 62
  0
 10
0.690973
 20
4.204860
 30
0.000000
  0
VERTEX
  8
LAYER-1
 10
0.690973
 20
4.204860
 30
0.000000
  0
VERTEX
  8
LAYER-1
 10
1.070665
 20
4.205845
 30
0.000000
  0
SEQEND
  8
LAYER-1
  0
POLYLINE
  8
LAYER-1
 66
  1
 70
  0
 62
  0
 10
1.516235
 20
4.206949
 30
0.000000
  0
VERTEX
  8
LAYER-1
 10
1.516235
 20
4.206949
 30
0.000000
  0
VERTEX
  8
LAYER-1
 10
1.515525
 20
4.587010
 30
0.000000
  0
SEQEND
  8
LAYER-1
  0
LINE
  8
LAYER-1
 62
  0
 10
1.486717
 20
4.236356
 30
0.000000
 11
1.545753
 21
4.177541
 31
0.000000
  0
LINE
  8
LAYER-1
 62
  0
 10
1.486007
 20
4.616417
 30
0.000000
 11
1.545043
 21
4.557602
 31
0.000000
  0
ARC
  8
LAYER-1
 62
  0
  6
LTYPE06
 10
1.012753
 20
5.922293
 30
0.000000
 40
1.333873
 50
270.000000
 51
0.182533
  0
POLYLINE
  8
LAYER-1
 66
  1
 70
  0
 62
  0
 10
2.184523
 20
5.390030
 30
0.000000
  0
VERTEX
  8
LAYER-1
 10
2.184523
 20
5.390030
 30
0.000000
  0
VERTEX
  8
LAYER-1
 10
2.226986
 20
5.497677
 30
0.000000
  0
SEQEND
  8
LAYER-1
  0
POLYLINE
  8
LAYER-1
 66
  1
 70
  0
 62
  0
 10
2.256990
 20
5.510707
 30
0.000000
  0
VERTEX
  8
LAYER-1
 10
2.256990
 20
5.510707
 30
0.000000
  0
VERTEX
  8
LAYER-1
 10
2.300025
 20
5.493731
 30
0.000000
  0
SEQEND
  8
LAYER-1
  0
POLYLINE
  8
LAYER-1
 66
  1
 70
  0
 62
  0
 10
2.313054
 20
5.463727
 30
0.000000
  0
VERTEX
  8
LAYER-1
 10
2.313054
 20
5.463727
 30
0.000000
  0
VERTEX
  8
LAYER-1
 10
2.270592
 20
5.356080
 30
0.000000
  0
SEQEND
  8
LAYER-1
  0
POLYLINE
  8
LAYER-1
 66
  1
 70
  0
 62
  0
 10
2.240587
 20
5.343050
 30
0.000000
  0
VERTEX
  8
LAYER-1
 10
2.240587
 20
5.343050
 30
0.000000
  0
VERTEX
  8
LAYER-1
 10
2.197553
 20
5.360026
 30
0.000000
  0
SEQEND
  8
LAYER-1
  0
ARC
  8
LAYER-1
 62
  0
 10
2.206040
 20
5.381542
 30
0.000000
 40
0.023130
 50
158.472778
 51
248.472778
  0
ARC
  8
LAYER-1
 62
  0
 10
2.249075
 20
5.364567
 30
0.000000
 40
0.023130
 50
248.472778
 51
338.472778
  0
ARC
  8
LAYER-1
 62
  0
 10
2.291537
 20
5.472215
 30
0.000000
 40
0.023130
 50
338.472778
 51
68.472778
  0
ARC
  8
LAYER-1
 62
  0
 10
2.248503
 20
5.489190
 30
0.000000
 40
0.023130
 50
68.472778
 51
158.472778
  0
ARC
  8
LAYER-1
 62
  0
  6
LTYPE01
 10
1.491253
 20
5.351809
 30
0.000000
 40
1.142248
 50
235.177231
 51
270.028290
  0
POLYLINE
  8
LAYER-1
 66
  1
 70
  0
 62
  0
 10
2.523944
 20
4.646378
 30
0.000000
  0
VERTEX
  8
LAYER-1
 10
2.523944
 20
4.646378
 30
0.000000
  0
VERTEX
  8
LAYER-1
 10
2.523944
 20
4.963317
 30
0.000000
  0
SEQEND
  8
LAYER-1
  0
POLYLINE
  8
LAYER-1
 66
  1
 70
  1
 62
  0
  0
VERTEX
  8
LAYER-1
 10
2.523944
 20
4.983002
 30
0.000000
  0
VERTEX
  8
LAYER-1
 10
2.565610
 20
4.913558
 30
0.000000
  0
VERTEX
  8
LAYER-1
 10
2.523943
 20
4.913558
 30
0.000000
  0
VERTEX
  8
LAYER-1
 10
2.482277
 20
4.913558
 30
0.000000
  0
VERTEX
  8
LAYER-1
 10
2.523944
 20
4.983002
 30
0.000000
  0
SEQEND
  8
LAYER-1
  0
POLYLINE
  8
LAYER-1
 66
  1
 70
  0
 62
  0
 10
1.749345
 20
4.403863
 30
0.000000
  0
VERTEX
  8
LAYER-1
 10
1.749345
 20
4.403863
 30
0.000000
  0
VERTEX
  8
LAYER-1
 10
1.533755
 20
4.403863
 30
0.000000
  0
SEQEND
  8
LAYER-1
  0
POLYLINE
  8
LAYER-1
 66
  1
 70
  1
 62
  0
  0
VERTEX
  8
LAYER-1
 10
1.514070
 20
4.403863
 30
0.000000
  0
VERTEX
  8
LAYER-1
 10
1.583514
 20
4.445530
 30
0.000000
  0
VERTEX
  8
LAYER-1
 10
1.583514
 20
4.403863
 30
0.000000
  0
VERTEX
  8
LAYER-1
 10
1.583514
 20
4.362197
 30
0.000000
  0
VERTEX
  8
LAYER-1
 10
1.514070
 20
4.403863
 30
0.000000
  0
SEQEND
  8
LAYER-1
  0
POLYLINE
  8
LAYER-1
 66
  1
 70
  0
 62
  0
 10
1.915848
 20
4.657237
 30
0.000000
  0
VERTEX
  8
LAYER-1
 10
1.915848
 20
4.657237
 30
0.000000
  0
VERTEX
  8
LAYER-1
 10
1.915848
 20
5.227550
 30
0.000000
  0
SEQEND
  8
LAYER-1
  0
POLYLINE
  8
LAYER-1
 66
  1
 70
  1
 62
  0
  0
VERTEX
  8
LAYER-1
 10
1.915848
 20
5.247234
 30
0.000000
  0
VERTEX
  8
LAYER-1
 10
1.957514
 20
5.177790
 30
0.000000
  0
VERTEX
  8
LAYER-1
 10
1.915848
 20
5.177790
 30
0.000000
  0
VERTEX
  8
LAYER-1
 10
1.874181
 20
5.177790
 30
0.000000
  0
VERTEX
  8
LAYER-1
 10
1.915848
 20
5.247234
 30
0.000000
  0
SEQEND
  8
LAYER-1
  0
TEXT
  8
LAYER-1
 62
  0
 10
0.118056
 20
2.305555
 30
0.000000
 40
0.145833
  1
8" - 203mm 
 72
  5
 11
1.270834
 21
2.305555
 31
0.000000
  0
TEXT
  8
LAYER-1
 62
  0
 10
0.173612
 20
1.972221
 30
0.000000
 40
0.145833
  1
9" - 229mm
 72
  5
 11
1.270834
 21
1.972221
 31
0.000000
  0
TEXT
  8
LAYER-1
 62
  0
 10
0.034723
 20
1.638888
 30
0.000000
 40
0.145833
  1
10" - 254mm
 72
  5
 11
1.270834
 21
1.638888
 31
0.000000
  0
TEXT
  8
LAYER-1
 62
  0
 10
0.062501
 20
1.305555
 30
0.000000
 40
0.145833
  1
12" - 305mm
 72
  5
 11
1.270834
 21
1.305555
 31
0.000000
  0
TEXT
  8
LAYER-1
 62
  0
 10
2.576389
 20
2.305555
 30
0.000000
 40
0.145833
  1
14" - 356mm
 72
  5
 11
3.784723
 21
2.305555
 31
0.000000
  0
TEXT
  8
LAYER-1
 62
  0
 10
2.576389
 20
1.972221
 30
0.000000
 40
0.145833
  1
11" - 279mm
 72
  5
 11
3.784723
 21
1.972221
 31
0.000000
  0
TEXT
  8
LAYER-1
 62
  0
 10
2.576389
 20
1.638888
 30
0.000000
 40
0.145833
  1
10" - 254mm
 72
  5
 11
3.784723
 21
1.638888
 31
0.000000
  0
TEXT
  8
LAYER-1
 62
  0
 10
2.687501
 20
1.305555
 30
0.000000
 40
0.145833
  1
9" - 229mm
 72
  5
 11
3.784723
 21
1.305555
 31
0.000000
  0
TEXT
  8
LAYER-1
 62
  0
 10
4.409723
 20
3.152777
 30
0.000000
 40
0.187500
  1
P 
 72
  5
 11
4.715278
 21
3.152777
 31
0.000000
  0
TEXT
  8
LAYER-1
 62
  0
 10
4.715278
 20
3.152777
 30
0.000000
 40
0.145833
  1
minimo (avvolgimento) =
 72
  5
 11
6.951389
 21
3.152777
 31
0.000000
  0
TEXT
  8
LAYER-1
 62
  0
 10
6.951389
 20
3.152777
 30
0.000000
 40
0.187500
  1
 
 72
  5
 11
7.090278
 21
3.152777
 31
0.000000
  0
TEXT
  8
LAYER-1
 62
  0
 10
4.409723
 20
2.680555
 30
0.000000
 40
0.145833
  1
95mm per metro lineare
 72
  5
 11
6.604167
 21
2.680555
 31
0.000000
  0
TEXT
  8
LAYER-1
 62
  0
 10
4.409723
 20
2.458332
 30
0.000000
 40
0.145833
  1
+ 76 millimetri per montante
 72
  5
 11
6.937501
 21
2.458332
 31
0.000000
  0
TEXT
  8
LAYER-1
 62
  0
 10
4.409723
 20
2.013888
 30
0.000000
 40
0.145833
  1
o
 72
  5
 11
4.590278
 21
2.013888
 31
0.000000
  0
TEXT
  8
LAYER-1
 62
  0
 10
4.409723
 20
1.569444
 30
0.000000
 40
0.145833
  1
1,15" per piede lineare
 72
  5
 11
6.479167
 21
1.569444
 31
0.000000
  0
TEXT
  8
LAYER-1
 62
  0
 10
4.409723
 20
1.347221
 30
0.000000
 40
0.145833
  1
+ 3" per montante
 72
  5
 11
6.062501
 21
1.347221
 31
0.000000
  0
TEXT
  8
LAYER-1
 62
  0
 10
2.923612
 20
3.208332
 30
0.000000
 40
0.125000
  1
Raggio
 72
  5
 11
3.534723
 21
3.208332
 31
0.000000
  0
TEXT
  8
LAYER-1
 62
  0
 10
2.631945
 20
2.999999
 30
0.000000
 40
0.145833
  1
10" - 254mm
 72
  5
 11
3.840278
 21
2.999999
 31
0.000000
  0
TEXT
  8
LAYER-1
 62
  0
 10
1.368056
 20
2.305555
 30
0.000000
 40
0.145833
  1
18" - 457mm
 72
  5
 11
2.576389
 21
2.305555
 31
0.000000
  0
TEXT
  8
LAYER-1
 62
  0
 10
1.368056
 20
1.972221
 30
0.000000
 40
0.145833
  1
14" - 356mm
 72
  5
 11
2.576389
 21
1.972221
 31
0.000000
  0
TEXT
  8
LAYER-1
 62
  0
 10
1.354167
 20
1.638888
 30
0.000000
 40
0.145833
  1
12" - 305mm
 72
  5
 11
2.590278
 21
1.638888
 31
0.000000
  0
TEXT
  8
LAYER-1
 62
  0
 10
1.340278
 20
1.305555
 30
0.000000
 40
0.145833
  1
11" - 279mm 
 72
  5
 11
2.604167
 21
1.305555
 31
0.000000
  0
POLYLINE
  8
LAYER-1
 66
  1
 70
  0
 62
  0
 10
0.076389
 20
2.923604
 30
0.000000
  0
VERTEX
  8
LAYER-1
 10
0.076389
 20
2.923604
 30
0.000000
  0
VERTEX
  8
LAYER-1
 10
3.854172
 20
2.923604
 30
0.000000
  0
SEQEND
  8
LAYER-1
  0
POLYLINE
  8
LAYER-1
 66
  1
 70
  0
 62
  0
 10
3.854172
 20
2.562493
 30
0.000000
  0
VERTEX
  8
LAYER-1
 10
3.854172
 20
2.562493
 30
0.000000
  0
VERTEX
  8
LAYER-1
 10
0.076389
 20
2.562493
 30
0.000000
  0
SEQEND
  8
LAYER-1
  0
TEXT
  8
LAYER-1
 62
  0
 10
1.645834
 20
3.208332
 30
0.000000
 40
0.125000
  1
Raggio
 72
  5
 11
2.312501
 21
3.208332
 31
0.000000
  0
TEXT
  8
LAYER-1
 62
  0
 10
1.368056
 20
2.999999
 30
0.000000
 40
0.145833
  1
14" - 356mm
 72
  5
 11
2.604167
 21
2.999999
 31
0.000000
  0
POLYLINE
  8
LAYER-1
 66
  1
 70
  0
 62
  0
 10
1.361111
 20
3.437493
 30
0.000000
  0
VERTEX
  8
LAYER-1
 10
1.361111
 20
3.437493
 30
0.000000
  0
VERTEX
  8
LAYER-1
 10
1.361111
 20
1.180549
 30
0.000000
  0
SEQEND
  8
LAYER-1
  0
POLYLINE
  8
LAYER-1
 66
  1
 70
  0
 62
  0
 10
2.611111
 20
3.437493
 30
0.000000
  0
VERTEX
  8
LAYER-1
 10
2.611111
 20
3.437493
 30
0.000000
  0
VERTEX
  8
LAYER-1
 10
2.611111
 20
1.180549
 30
0.000000
  0
SEQEND
  8
LAYER-1
  0
TEXT
  8
LAYER-1
 62
  0
 10
1.840278
 20
2.666666
 30
0.000000
 40
0.187500
  1
B
 72
  5
 11
2.076389
 21
2.666666
 31
0.000000
  0
TEXT
  8
LAYER-1
 62
  0
 10
3.104167
 20
2.666666
 30
0.000000
 40
0.187500
  1
B
 72
  5
 11
3.340278
 21
2.666666
 31
0.000000
  0
TEXT
  8
LAYER-1
 62
  0
 10
0.618056
 20
2.666666
 30
0.000000
 40
0.187500
  1
A
 72
  5
 11
0.854167
 21
2.666666
 31
0.000000
  0
TEXT
  8
LAYER-1
 62
  0
 10
0.090278
 20
0.861110
 30
0.000000
 40
0.125000
  1
A:
 72
  5
 11
0.312501
 21
0.861110
 31
0.000000
  0
TEXT
  8
LAYER-1
 62
  0
 10
0.312501
 20
0.861110
 30
0.000000
 40
0.125000
  1
 Dimensione interna, larghezza 10" - 254mm
 72
  5
 11
3.770834
 21
0.861110
 31
0.000000
  0
TEXT
  8
LAYER-1
 62
  0
 10
0.090278
 20
0.666666
 30
0.000000
 40
0.125000
  1
Å raccomandato con un raggio standard di
 72
  5
 11
3.381945
 21
0.666666
 31
0.000000
  0
TEXT
  8
LAYER-1
 62
  0
 10
0.090278
 20
0.472221
 30
0.000000
 40
0.125000
  1
14" - 356mm e la B a 12" - 305mm
 72
  5
 11
2.784723
 21
0.472221
 31
0.000000
  0
TEXT
  8
LAYER-1
 62
  0
 10
0.090278
 20
0.083332
 30
0.000000
 40
0.125000
  1
B:
 72
  5
 11
0.312501
 21
0.083332
 31
0.000000
  0
TEXT
  8
LAYER-1
 62
  0
 10
0.312501
 20
0.083332
 30
0.000000
 40
0.125000
  1
 Larghezza dell'apertura
 72
  5
 11
2.187501
 21
0.083332
 31
0.000000
  0
TEXT
  8
LAYER-1
 62
  0
 10
4.201389
 20
0.847221
 30
0.000000
 40
0.125000
  1
Spazio minimo di 4" - 102 millimetri
 72
  5
 11
6.965278
 21
0.847221
 31
0.000000
  0
TEXT
  8
LAYER-1
 62
  0
 10
4.201389
 20
0.652777
 30
0.000000
 40
0.125000
  1
su ciascun lato della guida.
 72
  5
 11
6.354167
 21
0.652777
 31
0.000000
  0
TEXT
  8
LAYER-1
 62
  0
 10
4.201389
 20
0.458332
 30
0.000000
 40
0.125000
  1
La porta non deve ostacolare l'ingresso.
 72
  5
 11
7.312501
 21
0.458332
 31
0.000000
  0
POLYLINE
  8
LAYER-1
 66
  1
 70
  0
 62
  0
 10
7.423617
 20
1.180546
 30
0.000000
  0
VERTEX
  8
LAYER-1
 10
7.423617
 20
1.180546
 30
0.000000
  0
VERTEX
  8
LAYER-1
 10
4.208337
 20
1.180546
 30
0.000000
  0
SEQEND
  8
LAYER-1
  0
POLYLINE
  8
LAYER-1
  6
LTYPE01
 66
  1
 70
  0
 62
  0
  6
LTYPE01
 10
1.996898
 20
5.671110
 30
0.000000
  0
VERTEX
  8
LAYER-1
  6
LTYPE01
 10
1.996898
 20
5.671110
 30
0.000000
  0
VERTEX
  8
LAYER-1
  6
LTYPE01
 10
2.616438
 20
5.599601
 30
0.000000
  0
SEQEND
  8
LAYER-1
  0
POLYLINE
  8
LAYER-1
  6
LTYPE01
 66
  1
 70
  0
 62
  0
  6
LTYPE01
 10
2.017872
 20
5.774085
 30
0.000000
  0
VERTEX
  8
LAYER-1
  6
LTYPE01
 10
2.017872
 20
5.774085
 30
0.000000
  0
VERTEX
  8
LAYER-1
  6
LTYPE01
 10
2.640954
 20
5.766391
 30
0.000000
  0
SEQEND
  8
LAYER-1
  0
POLYLINE
  8
LAYER-1
  6
LTYPE01
 66
  1
 70
  0
 62
  0
  6
LTYPE01
 10
2.647011
 20
5.934962
 30
0.000000
  0
VERTEX
  8
LAYER-1
  6
LTYPE01
 10
2.647011
 20
5.934962
 30
0.000000
  0
VERTEX
  8
LAYER-1
  6
LTYPE01
 10
2.027098
 20
5.998908
 30
0.000000
  0
SEQEND
  8
LAYER-1
  0
POLYLINE
  8
LAYER-1
  6
LTYPE01
 66
  1
 70
  0
 62
  0
  6
LTYPE01
 10
2.027152
 20
6.126504
 30
0.000000
  0
VERTEX
  8
LAYER-1
  6
LTYPE01
 10
2.027152
 20
6.126504
 30
0.000000
  0
VERTEX
  8
LAYER-1
  6
LTYPE01
 10
2.647058
 20
6.189787
 30
0.000000
  0
SEQEND
  8
LAYER-1
  0
POLYLINE
  8
LAYER-1
  6
LTYPE01
 66
  1
 70
  0
 62
  0
  6
LTYPE01
 10
2.647058
 20
6.189787
 30
0.000000
  0
VERTEX
  8
LAYER-1
  6
LTYPE01
 10
2.647058
 20
6.189787
 30
0.000000
  0
VERTEX
  8
LAYER-1
  6
LTYPE01
 10
2.027146
 20
6.253732
 30
0.000000
  0
SEQEND
  8
LAYER-1
  0
POLYLINE
  8
LAYER-1
 66
  1
 70
  0
 62
  0
 10
6.564373
 20
7.001911
 30
0.000000
  0
VERTEX
  8
LAYER-1
 10
6.564373
 20
7.001911
 30
0.000000
  0
VERTEX
  8
LAYER-1
 10
6.564373
 20
4.978182
 30
0.000000
  0
SEQEND
  8
LAYER-1
  0
LINE
  8
LAYER-1
 62
  0
 10
6.593837
 20
6.972448
 30
0.000000
 11
6.534910
 21
7.031373
 31
0.000000
  0
LINE
  8
LAYER-1
 62
  0
 10
6.593837
 20
4.948719
 30
0.000000
 11
6.534910
 21
5.007645
 31
0.000000
  0
POLYLINE
  8
LAYER-1
 66
  1
 70
  0
 62
  0
 10
6.415968
 20
7.001911
 30
0.000000
  0
VERTEX
  8
LAYER-1
 10
6.415968
 20
7.001911
 30
0.000000
  0
VERTEX
  8
LAYER-1
 10
6.627032
 20
7.001911
 30
0.000000
  0
SEQEND
  8
LAYER-1
  0
POLYLINE
  8
LAYER-1
 66
  1
 70
  0
 62
  0
 10
6.424333
 20
4.978182
 30
0.000000
  0
VERTEX
  8
LAYER-1
 10
6.424333
 20
4.978182
 30
0.000000
  0
VERTEX
  8
LAYER-1
 10
6.627032
 20
4.978182
 30
0.000000
  0
SEQEND
  8
LAYER-1
  0
POLYLINE
  8
LAYER-1
 66
  1
 70
  1
 62
  0
 10
5.047914
 20
4.944417
 30
0.000000
  0
VERTEX
  8
LAYER-1
 10
5.047914
 20
4.944417
 30
0.000000
  0
VERTEX
  8
LAYER-1
 10
5.000923
 20
4.944417
 30
0.000000
  0
VERTEX
  8
LAYER-1
 10
5.000842
 20
7.290612
 30
0.000000
  0
VERTEX
  8
LAYER-1
 10
6.341985
 20
7.290612
 30
0.000000
  0
VERTEX
  8
LAYER-1
 10
6.341713
 20
4.944319
 30
0.000000
  0
VERTEX
  8
LAYER-1
 10
6.292630
 20
4.944336
 30
0.000000
  0
VERTEX
  8
LAYER-1
 10
6.292630
 20
7.243123
 30
0.000000
  0
VERTEX
  8
LAYER-1
 10
5.047914
 20
7.243123
 30
0.000000
  0
SEQEND
  8
LAYER-1
  0
TEXT
  8
LAYER-1
 62
  0
 10
4.923612
 20
7.388888
 30
0.000000
 40
0.093750
  1
min.    8" (203mm)
 72
  5
 11
6.034723
 21
7.388888
 31
0.000000
  0
POLYLINE
  8
LAYER-1
 66
  1
 70
  1
 62
  0
  0
VERTEX
  8
LAYER-1
 10
1.491253
 20
5.400335
 30
0.000000
  0
VERTEX
  8
LAYER-1
 10
1.780744
 20
5.400335
 30
0.000000
  0
VERTEX
  8
LAYER-1
 10
1.780744
 20
5.351809
 30
0.000000
  0
VERTEX
  8
LAYER-1
 10
1.491253
 20
5.351809
 30
0.000000
  0
SEQEND
  8
LAYER-1
  0
POLYLINE
  8
LAYER-1
 66
  1
 70
  0
 62
  0
 10
2.083850
 20
5.127330
 30
0.000000
  0
VERTEX
  8
LAYER-1
 10
2.083850
 20
5.127330
 30
0.000000
  0
VERTEX
  8
LAYER-1
 10
1.780744
 20
5.352294
 30
0.000000
  0
SEQEND
  8
LAYER-1
  0
LINE
  8
LAYER-1
 62
  0
 10
2.042632
 20
5.121231
 30
0.000000
 11
2.125068
 21
5.133429
 31
0.000000
  0
LINE
  8
LAYER-1
 62
  0
 10
1.739526
 20
5.346194
 30
0.000000
 11
1.821962
 21
5.358393
 31
0.000000
  0
POLYLINE
  8
LAYER-1
 66
  1
 70
  0
 62
  0
 10
1.381953
 20
5.351784
 30
0.000000
  0
VERTEX
  8
LAYER-1
 10
1.381953
 20
5.351784
 30
0.000000
  0
VERTEX
  8
LAYER-1
 10
1.138889
 20
5.351784
 30
0.000000
  0
SEQEND
  8
LAYER-1
  0
ENDSEC
  0
EOF
