  0
SECTION
  2
HEADER
999
MacDraft 5.0\0
  9
$ACADVER
  1
AC1006
  9
$CLAYER
  8
LAYER-1
  9
$EXTMIN
 10
0.000000
 20
0.000000
  9
$EXTMAX
 10
6.370602
 20
9.874266
  9
$FASTZOOM
 70
0
  9
$FILLMODE
 70
1
  0
ENDSEC
  0
SECTION
  2
TABLES
  0
TABLE
  2
LTYPE
 70
16
  0
LTYPE
  2
CONTINUOUS
 70
64
  3
Solid Line
 72
65
 73
0
 40
0.000000
  0
LTYPE
  2
LTYPE01
 70
64
  3
CUSTOM
 72
65
 73
2
 40
0.111111
 49
0.083333
 49
-0.027778
  0
LTYPE
  2
LTYPE02
 70
64
  3
CUSTOM
 72
65
 73
2
 40
0.194444
 49
0.166667
 49
-0.027778
  0
LTYPE
  2
LTYPE03
 70
64
  3
CUSTOM
 72
65
 73
2
 40
0.375000
 49
0.333333
 49
-0.041667
  0
LTYPE
  2
LTYPE04
 70
64
  3
CUSTOM
 72
65
 73
2
 40
0.722222
 49
0.666667
 49
-0.055556
  0
LTYPE
  2
LTYPE05
 70
64
  3
CUSTOM
 72
65
 73
4
 40
0.152778
 49
0.083333
 49
-0.027778
 49
0.013889
 49
-0.027778
  0
LTYPE
  2
LTYPE06
 70
64
  3
CUSTOM
 72
65
 73
4
 40
0.236111
 49
0.166667
 49
-0.027778
 49
0.013889
 49
-0.027778
  0
LTYPE
  2
LTYPE07
 70
64
  3
CUSTOM
 72
65
 73
4
 40
0.444444
 49
0.333333
 49
-0.041667
 49
0.027778
 49
-0.041667
  0
LTYPE
  2
LTYPE08
 70
64
  3
CUSTOM
 72
65
 73
4
 40
0.805556
 49
0.666667
 49
-0.055556
 49
0.027778
 49
-0.055556
  0
LTYPE
  2
LTYPE09
 70
64
  3
CUSTOM
 72
65
 73
6
 40
0.194444
 49
0.083333
 49
-0.027778
 49
0.013889
 49
-0.027778
 49
0.013889
 49
-0.027778
  0
LTYPE
  2
LTYPE10
 70
64
  3
CUSTOM
 72
65
 73
6
 40
0.277778
 49
0.166667
 49
-0.027778
 49
0.013889
 49
-0.027778
 49
0.013889
 49
-0.027778
  0
LTYPE
  2
LTYPE11
 70
64
  3
CUSTOM
 72
65
 73
6
 40
0.500000
 49
0.333333
 49
-0.041667
 49
0.027778
 49
-0.027778
 49
0.027778
 49
-0.041667
  0
LTYPE
  2
LTYPE12
 70
64
  3
CUSTOM
 72
65
 73
6
 40
0.861111
 49
0.666667
 49
-0.055556
 49
0.027778
 49
-0.027778
 49
0.027778
 49
-0.055556
  0
LTYPE
  2
LTYPE13
 70
64
  3
CUSTOM
 72
65
 73
8
 40
0.319444
 49
0.166667
 49
-0.027778
 49
0.013889
 49
-0.027778
 49
0.013889
 49
-0.027778
 49
0.013889
 49
-0.027778
  0
LTYPE
  2
LTYPE14
 70
64
  3
CUSTOM
 72
65
 73
8
 40
0.555556
 49
0.333333
 49
-0.041667
 49
0.027778
 49
-0.027778
 49
0.027778
 49
-0.027778
 49
0.027778
 49
-0.041667
  0
LTYPE
  2
LTYPE15
 70
64
  3
CUSTOM
 72
65
 73
8
 40
0.944444
 49
0.666667
 49
-0.055556
 49
0.027778
 49
-0.041667
 49
0.027778
 49
-0.041667
 49
0.027778
 49
-0.055556
  0
ENDTAB
  0
TABLE
  2
LAYER
 70
1
  0
LAYER
  2
LAYER-1
 70
0
 62
7
  6
CONTINUOUS
  0
ENDTAB
  0
ENDSEC
  0
SECTION
  2
BLOCKS
  0
ENDSEC
  0
SECTION
  2
ENTITIES
  0
LINE
  8
LAYER-1
 62
  0
 10
3.974733
 20
3.950535
 30
0.000000
 11
3.406950
 21
3.950535
 31
0.000000
  0
LINE
  8
LAYER-1
 62
  0
 10
3.974733
 20
4.040535
 30
0.000000
 11
3.406950
 21
4.040535
 31
0.000000
  0
LINE
  8
LAYER-1
 62
  0
 10
2.492319
 20
4.039618
 30
0.000000
 11
3.060118
 21
4.039618
 31
0.000000
  0
LINE
  8
LAYER-1
 62
  0
 10
2.492319
 20
3.949618
 30
0.000000
 11
3.060118
 21
3.949618
 31
0.000000
  0
TEXT
  8
LAYER-1
 62
  0
 10
3.509487
 20
2.685958
 30
0.000000
 40
0.104167
  1
4"
 72
  5
 11
3.717820
 21
2.685958
 31
0.000000
  0
TEXT
  8
LAYER-1
 62
  0
 10
3.342820
 20
2.463736
 30
0.000000
 40
0.104167
  1
102mm
 72
  5
 11
3.884487
 21
2.463736
 31
0.000000
  0
ARC
  8
LAYER-1
 62
  0
 10
4.940267
 20
8.810959
 30
0.000000
 40
0.254425
 50
270.000000
 51
90.000000
  0
POLYLINE
  8
LAYER-1
 66
  1
 70
  0
 62
  0
 10
4.940267
 20
9.065384
 30
0.000000
  0
VERTEX
  8
LAYER-1
 10
4.940267
 20
9.065384
 30
0.000000
  0
VERTEX
  8
LAYER-1
 10
1.275344
 20
9.065384
 30
0.000000
  0
SEQEND
  8
LAYER-1
  0
POLYLINE
  8
LAYER-1
 66
  1
 70
  0
 62
  0
 10
1.275344
 20
9.065384
 30
0.000000
  0
VERTEX
  8
LAYER-1
 10
1.275344
 20
9.065384
 30
0.000000
  0
VERTEX
  8
LAYER-1
 10
1.275344
 20
8.556534
 30
0.000000
  0
SEQEND
  8
LAYER-1
  0
POLYLINE
  8
LAYER-1
 66
  1
 70
  0
 62
  0
 10
4.940267
 20
8.556534
 30
0.000000
  0
VERTEX
  8
LAYER-1
 10
4.940267
 20
8.556534
 30
0.000000
  0
VERTEX
  8
LAYER-1
 10
1.275344
 20
8.556534
 30
0.000000
  0
SEQEND
  8
LAYER-1
  0
TEXT
  8
LAYER-1
 62
  0
 10
3.078931
 20
9.352625
 30
0.000000
 40
0.333333
  1
MobilFlex
 72
  5
 11
5.231709
 21
9.352625
 31
0.000000
  0
POLYLINE
  8
LAYER-1
 66
  1
 70
  1
 62
  0
  0
VERTEX
  8
LAYER-1
 10
1.276847
 20
9.872599
 30
0.000000
  0
VERTEX
  8
LAYER-1
 10
1.514694
 20
9.872599
 30
0.000000
  0
VERTEX
  8
LAYER-1
 10
1.514694
 20
9.355654
 30
0.000000
  0
VERTEX
  8
LAYER-1
 10
1.276847
 20
9.355654
 30
0.000000
  0
SEQEND
  8
LAYER-1
  0
POLYLINE
  8
LAYER-1
 66
  1
 70
  1
 62
  0
  0
VERTEX
  8
LAYER-1
 10
1.589347
 20
9.872599
 30
0.000000
  0
VERTEX
  8
LAYER-1
 10
1.827194
 20
9.872599
 30
0.000000
  0
VERTEX
  8
LAYER-1
 10
1.827194
 20
9.355654
 30
0.000000
  0
VERTEX
  8
LAYER-1
 10
1.589347
 20
9.355654
 30
0.000000
  0
SEQEND
  8
LAYER-1
  0
POLYLINE
  8
LAYER-1
 66
  1
 70
  1
 62
  0
  0
VERTEX
  8
LAYER-1
 10
1.889694
 20
9.872599
 30
0.000000
  0
VERTEX
  8
LAYER-1
 10
2.127542
 20
9.872599
 30
0.000000
  0
VERTEX
  8
LAYER-1
 10
2.127542
 20
9.355654
 30
0.000000
  0
VERTEX
  8
LAYER-1
 10
1.889694
 20
9.355654
 30
0.000000
  0
SEQEND
  8
LAYER-1
  0
POLYLINE
  8
LAYER-1
 66
  1
 70
  1
 62
  0
  0
VERTEX
  8
LAYER-1
 10
2.193514
 20
9.872599
 30
0.000000
  0
VERTEX
  8
LAYER-1
 10
2.431362
 20
9.872599
 30
0.000000
  0
VERTEX
  8
LAYER-1
 10
2.431362
 20
9.355654
 30
0.000000
  0
VERTEX
  8
LAYER-1
 10
2.193514
 20
9.355654
 30
0.000000
  0
SEQEND
  8
LAYER-1
  0
POLYLINE
  8
LAYER-1
 66
  1
 70
  1
 62
  0
  0
VERTEX
  8
LAYER-1
 10
2.510355
 20
9.868684
 30
0.000000
  0
VERTEX
  8
LAYER-1
 10
2.885789
 20
9.868684
 30
0.000000
  0
VERTEX
  8
LAYER-1
 10
2.885789
 20
9.730663
 30
0.000000
  0
VERTEX
  8
LAYER-1
 10
2.510355
 20
9.730663
 30
0.000000
  0
SEQEND
  8
LAYER-1
  0
POLYLINE
  8
LAYER-1
 66
  1
 70
  1
 62
  0
  0
VERTEX
  8
LAYER-1
 10
2.509921
 20
9.641253
 30
0.000000
  0
VERTEX
  8
LAYER-1
 10
2.818080
 20
9.641253
 30
0.000000
  0
VERTEX
  8
LAYER-1
 10
2.818080
 20
9.507139
 30
0.000000
  0
VERTEX
  8
LAYER-1
 10
2.509921
 20
9.507139
 30
0.000000
  0
SEQEND
  8
LAYER-1
  0
POLYLINE
  8
LAYER-1
 66
  1
 70
  1
 62
  0
  0
VERTEX
  8
LAYER-1
 10
1.276847
 20
9.271027
 30
0.000000
  0
VERTEX
  8
LAYER-1
 10
5.195251
 20
9.271027
 30
0.000000
  0
VERTEX
  8
LAYER-1
 10
5.195251
 20
9.227625
 30
0.000000
  0
VERTEX
  8
LAYER-1
 10
1.276847
 20
9.227625
 30
0.000000
  0
SEQEND
  8
LAYER-1
  0
POLYLINE
  8
LAYER-1
 66
  1
 70
  1
 62
  0
  0
VERTEX
  8
LAYER-1
 10
2.595693
 20
4.454861
 30
0.000000
  0
VERTEX
  8
LAYER-1
 10
3.871290
 20
4.454861
 30
0.000000
  0
VERTEX
  8
LAYER-1
 10
3.871290
 20
4.289508
 30
0.000000
  0
VERTEX
  8
LAYER-1
 10
2.595693
 20
4.289508
 30
0.000000
  0
SEQEND
  8
LAYER-1
  0
POLYLINE
  8
LAYER-1
 66
  1
 70
  1
 62
  0
  0
VERTEX
  8
LAYER-1
 10
2.595693
 20
4.629765
 30
0.000000
  0
VERTEX
  8
LAYER-1
 10
3.871290
 20
4.629765
 30
0.000000
  0
VERTEX
  8
LAYER-1
 10
3.871290
 20
4.464411
 30
0.000000
  0
VERTEX
  8
LAYER-1
 10
2.595693
 20
4.464411
 30
0.000000
  0
SEQEND
  8
LAYER-1
  0
POLYLINE
  8
LAYER-1
 66
  1
 70
  1
 62
  0
  0
VERTEX
  8
LAYER-1
 10
2.595791
 20
4.569915
 30
0.000000
  0
VERTEX
  8
LAYER-1
 10
3.870973
 20
4.569915
 30
0.000000
  0
VERTEX
  8
LAYER-1
 10
3.870973
 20
4.516095
 30
0.000000
  0
VERTEX
  8
LAYER-1
 10
2.595791
 20
4.516095
 30
0.000000
  0
SEQEND
  8
LAYER-1
  0
POLYLINE
  8
LAYER-1
 66
  1
 70
  0
 62
  0
 10
2.595791
 20
4.599429
 30
0.000000
  0
VERTEX
  8
LAYER-1
 10
2.595791
 20
4.599429
 30
0.000000
  0
VERTEX
  8
LAYER-1
 10
3.869238
 20
4.599429
 30
0.000000
  0
SEQEND
  8
LAYER-1
  0
POLYLINE
  8
LAYER-1
 66
  1
 70
  0
 62
  0
 10
2.595791
 20
4.486582
 30
0.000000
  0
VERTEX
  8
LAYER-1
 10
2.595791
 20
4.486582
 30
0.000000
  0
VERTEX
  8
LAYER-1
 10
3.870973
 20
4.486582
 30
0.000000
  0
SEQEND
  8
LAYER-1
  0
POLYLINE
  8
LAYER-1
 66
  1
 70
  1
 62
  0
  0
VERTEX
  8
LAYER-1
 10
2.595792
 20
4.398909
 30
0.000000
  0
VERTEX
  8
LAYER-1
 10
3.870973
 20
4.398909
 30
0.000000
  0
VERTEX
  8
LAYER-1
 10
3.870973
 20
4.345089
 30
0.000000
  0
VERTEX
  8
LAYER-1
 10
2.595792
 20
4.345089
 30
0.000000
  0
SEQEND
  8
LAYER-1
  0
POLYLINE
  8
LAYER-1
 66
  1
 70
  0
 62
  0
 10
2.595791
 20
4.428422
 30
0.000000
  0
VERTEX
  8
LAYER-1
 10
2.595791
 20
4.428422
 30
0.000000
  0
VERTEX
  8
LAYER-1
 10
3.869238
 20
4.428422
 30
0.000000
  0
SEQEND
  8
LAYER-1
  0
POLYLINE
  8
LAYER-1
 66
  1
 70
  0
 62
  0
 10
2.595791
 20
4.315575
 30
0.000000
  0
VERTEX
  8
LAYER-1
 10
2.595791
 20
4.315575
 30
0.000000
  0
VERTEX
  8
LAYER-1
 10
3.870973
 20
4.315575
 30
0.000000
  0
SEQEND
  8
LAYER-1
  0
POLYLINE
  8
LAYER-1
 66
  1
 70
  0
 62
  0
 10
3.332823
 20
3.925645
 30
0.000000
  0
VERTEX
  8
LAYER-1
 10
3.332823
 20
3.925645
 30
0.000000
  0
VERTEX
  8
LAYER-1
 10
3.334172
 20
3.945216
 30
0.000000
  0
VERTEX
  8
LAYER-1
 10
3.334470
 20
3.948290
 30
0.000000
  0
SEQEND
  8
LAYER-1
  0
POLYLINE
  8
LAYER-1
 66
  1
 70
  0
 62
  0
 10
3.371157
 20
3.948287
 30
0.000000
  0
VERTEX
  8
LAYER-1
 10
3.371157
 20
3.948287
 30
0.000000
  0
VERTEX
  8
LAYER-1
 10
3.334470
 20
3.948289
 30
0.000000
  0
SEQEND
  8
LAYER-1
  0
POLYLINE
  8
LAYER-1
 66
  1
 70
  0
 62
  0
 10
3.371157
 20
3.948287
 30
0.000000
  0
VERTEX
  8
LAYER-1
 10
3.371157
 20
3.948287
 30
0.000000
  0
VERTEX
  8
LAYER-1
 10
3.378785
 20
3.955916
 30
0.000000
  0
SEQEND
  8
LAYER-1
  0
POLYLINE
  8
LAYER-1
 66
  1
 70
  0
 62
  0
 10
3.378786
 20
4.281061
 30
0.000000
  0
VERTEX
  8
LAYER-1
 10
3.378786
 20
4.281061
 30
0.000000
  0
VERTEX
  8
LAYER-1
 10
3.378786
 20
3.955916
 30
0.000000
  0
SEQEND
  8
LAYER-1
  0
POLYLINE
  8
LAYER-1
 66
  1
 70
  0
 62
  0
 10
3.378785
 20
4.281061
 30
0.000000
  0
VERTEX
  8
LAYER-1
 10
3.378785
 20
4.281061
 30
0.000000
  0
VERTEX
  8
LAYER-1
 10
3.371157
 20
4.288689
 30
0.000000
  0
SEQEND
  8
LAYER-1
  0
POLYLINE
  8
LAYER-1
 66
  1
 70
  0
 62
  0
 10
3.369551
 20
4.288688
 30
0.000000
  0
VERTEX
  8
LAYER-1
 10
3.369551
 20
4.288688
 30
0.000000
  0
VERTEX
  8
LAYER-1
 10
3.371157
 20
4.288688
 30
0.000000
  0
SEQEND
  8
LAYER-1
  0
POLYLINE
  8
LAYER-1
 66
  1
 70
  0
 62
  0
 10
3.369551
 20
4.288689
 30
0.000000
  0
VERTEX
  8
LAYER-1
 10
3.369551
 20
4.288689
 30
0.000000
  0
VERTEX
  8
LAYER-1
 10
3.361922
 20
4.281061
 30
0.000000
  0
SEQEND
  8
LAYER-1
  0
POLYLINE
  8
LAYER-1
 66
  1
 70
  0
 62
  0
 10
3.361923
 20
4.279600
 30
0.000000
  0
VERTEX
  8
LAYER-1
 10
3.361923
 20
4.279600
 30
0.000000
  0
VERTEX
  8
LAYER-1
 10
3.361923
 20
4.281061
 30
0.000000
  0
SEQEND
  8
LAYER-1
  0
POLYLINE
  8
LAYER-1
 66
  1
 70
  0
 62
  0
 10
3.354295
 20
4.271972
 30
0.000000
  0
VERTEX
  8
LAYER-1
 10
3.354295
 20
4.271972
 30
0.000000
  0
VERTEX
  8
LAYER-1
 10
3.361923
 20
4.279600
 30
0.000000
  0
SEQEND
  8
LAYER-1
  0
POLYLINE
  8
LAYER-1
 66
  1
 70
  0
 62
  0
 10
3.334296
 20
4.271973
 30
0.000000
  0
VERTEX
  8
LAYER-1
 10
3.334296
 20
4.271973
 30
0.000000
  0
VERTEX
  8
LAYER-1
 10
3.354295
 20
4.271973
 30
0.000000
  0
SEQEND
  8
LAYER-1
  0
POLYLINE
  8
LAYER-1
 66
  1
 70
  0
 62
  0
 10
3.326668
 20
4.279600
 30
0.000000
  0
VERTEX
  8
LAYER-1
 10
3.326668
 20
4.279600
 30
0.000000
  0
VERTEX
  8
LAYER-1
 10
3.334296
 20
4.271972
 30
0.000000
  0
SEQEND
  8
LAYER-1
  0
POLYLINE
  8
LAYER-1
 66
  1
 70
  0
 62
  0
 10
3.326668
 20
4.281061
 30
0.000000
  0
VERTEX
  8
LAYER-1
 10
3.326668
 20
4.281061
 30
0.000000
  0
VERTEX
  8
LAYER-1
 10
3.326668
 20
4.279600
 30
0.000000
  0
SEQEND
  8
LAYER-1
  0
POLYLINE
  8
LAYER-1
 66
  1
 70
  0
 62
  0
 10
3.326668
 20
4.281061
 30
0.000000
  0
VERTEX
  8
LAYER-1
 10
3.326668
 20
4.281061
 30
0.000000
  0
VERTEX
  8
LAYER-1
 10
3.319039
 20
4.288689
 30
0.000000
  0
SEQEND
  8
LAYER-1
  0
POLYLINE
  8
LAYER-1
 66
  1
 70
  0
 62
  0
 10
3.150351
 20
4.288688
 30
0.000000
  0
VERTEX
  8
LAYER-1
 10
3.150351
 20
4.288688
 30
0.000000
  0
VERTEX
  8
LAYER-1
 10
3.319039
 20
4.288688
 30
0.000000
  0
SEQEND
  8
LAYER-1
  0
POLYLINE
  8
LAYER-1
 66
  1
 70
  0
 62
  0
 10
3.150351
 20
4.288689
 30
0.000000
  0
VERTEX
  8
LAYER-1
 10
3.150351
 20
4.288689
 30
0.000000
  0
VERTEX
  8
LAYER-1
 10
3.142723
 20
4.281061
 30
0.000000
  0
SEQEND
  8
LAYER-1
  0
POLYLINE
  8
LAYER-1
 66
  1
 70
  0
 62
  0
 10
3.142723
 20
4.279600
 30
0.000000
  0
VERTEX
  8
LAYER-1
 10
3.142723
 20
4.279600
 30
0.000000
  0
VERTEX
  8
LAYER-1
 10
3.142723
 20
4.281061
 30
0.000000
  0
SEQEND
  8
LAYER-1
  0
POLYLINE
  8
LAYER-1
 66
  1
 70
  0
 62
  0
 10
3.135094
 20
4.271972
 30
0.000000
  0
VERTEX
  8
LAYER-1
 10
3.135094
 20
4.271972
 30
0.000000
  0
VERTEX
  8
LAYER-1
 10
3.142723
 20
4.279600
 30
0.000000
  0
SEQEND
  8
LAYER-1
  0
POLYLINE
  8
LAYER-1
 66
  1
 70
  0
 62
  0
 10
3.115094
 20
4.271973
 30
0.000000
  0
VERTEX
  8
LAYER-1
 10
3.115094
 20
4.271973
 30
0.000000
  0
VERTEX
  8
LAYER-1
 10
3.135094
 20
4.271973
 30
0.000000
  0
SEQEND
  8
LAYER-1
  0
POLYLINE
  8
LAYER-1
 66
  1
 70
  0
 62
  0
 10
3.107466
 20
4.279600
 30
0.000000
  0
VERTEX
  8
LAYER-1
 10
3.107466
 20
4.279600
 30
0.000000
  0
VERTEX
  8
LAYER-1
 10
3.115094
 20
4.271972
 30
0.000000
  0
SEQEND
  8
LAYER-1
  0
POLYLINE
  8
LAYER-1
 66
  1
 70
  0
 62
  0
 10
3.107466
 20
4.281061
 30
0.000000
  0
VERTEX
  8
LAYER-1
 10
3.107466
 20
4.281061
 30
0.000000
  0
VERTEX
  8
LAYER-1
 10
3.107466
 20
4.279600
 30
0.000000
  0
SEQEND
  8
LAYER-1
  0
POLYLINE
  8
LAYER-1
 66
  1
 70
  0
 62
  0
 10
3.107466
 20
4.281061
 30
0.000000
  0
VERTEX
  8
LAYER-1
 10
3.107466
 20
4.281061
 30
0.000000
  0
VERTEX
  8
LAYER-1
 10
3.099838
 20
4.288689
 30
0.000000
  0
SEQEND
  8
LAYER-1
  0
POLYLINE
  8
LAYER-1
 66
  1
 70
  0
 62
  0
 10
3.099766
 20
4.288688
 30
0.000000
  0
VERTEX
  8
LAYER-1
 10
3.099766
 20
4.288688
 30
0.000000
  0
VERTEX
  8
LAYER-1
 10
3.099838
 20
4.288688
 30
0.000000
  0
SEQEND
  8
LAYER-1
  0
POLYLINE
  8
LAYER-1
 66
  1
 70
  0
 62
  0
 10
3.099766
 20
4.288689
 30
0.000000
  0
VERTEX
  8
LAYER-1
 10
3.099766
 20
4.288689
 30
0.000000
  0
VERTEX
  8
LAYER-1
 10
3.092137
 20
4.281061
 30
0.000000
  0
SEQEND
  8
LAYER-1
  0
POLYLINE
  8
LAYER-1
 66
  1
 70
  0
 62
  0
 10
3.092137
 20
4.281061
 30
0.000000
  0
VERTEX
  8
LAYER-1
 10
3.092137
 20
4.281061
 30
0.000000
  0
VERTEX
  8
LAYER-1
 10
3.092137
 20
3.955916
 30
0.000000
  0
SEQEND
  8
LAYER-1
  0
POLYLINE
  8
LAYER-1
 66
  1
 70
  0
 62
  0
 10
3.092137
 20
3.955916
 30
0.000000
  0
VERTEX
  8
LAYER-1
 10
3.092137
 20
3.955916
 30
0.000000
  0
VERTEX
  8
LAYER-1
 10
3.099766
 20
3.948287
 30
0.000000
  0
SEQEND
  8
LAYER-1
  0
POLYLINE
  8
LAYER-1
 66
  1
 70
  0
 62
  0
 10
3.099766
 20
3.948287
 30
0.000000
  0
VERTEX
  8
LAYER-1
 10
3.099766
 20
3.948287
 30
0.000000
  0
VERTEX
  8
LAYER-1
 10
3.136431
 20
3.948289
 30
0.000000
  0
SEQEND
  8
LAYER-1
  0
POLYLINE
  8
LAYER-1
 66
  1
 70
  0
 62
  0
 10
3.136431
 20
3.948290
 30
0.000000
  0
VERTEX
  8
LAYER-1
 10
3.136431
 20
3.948290
 30
0.000000
  0
VERTEX
  8
LAYER-1
 10
3.133727
 20
3.932360
 30
0.000000
  0
VERTEX
  8
LAYER-1
 10
3.138078
 20
3.925645
 30
0.000000
  0
SEQEND
  8
LAYER-1
  0
POLYLINE
  8
LAYER-1
 66
  1
 70
  0
 62
  0
 10
3.138078
 20
3.925644
 30
0.000000
  0
VERTEX
  8
LAYER-1
 10
3.138078
 20
3.925644
 30
0.000000
  0
VERTEX
  8
LAYER-1
 10
3.148939
 20
3.932746
 30
0.000000
  0
SEQEND
  8
LAYER-1
  0
POLYLINE
  8
LAYER-1
 66
  1
 70
  0
 62
  0
 10
3.166419
 20
3.932780
 30
0.000000
  0
VERTEX
  8
LAYER-1
 10
3.166419
 20
3.932780
 30
0.000000
  0
VERTEX
  8
LAYER-1
 10
3.161371
 20
3.949170
 30
0.000000
  0
VERTEX
  8
LAYER-1
 10
3.146949
 20
3.946091
 30
0.000000
  0
VERTEX
  8
LAYER-1
 10
3.148940
 20
3.932746
 30
0.000000
  0
SEQEND
  8
LAYER-1
  0
POLYLINE
  8
LAYER-1
 66
  1
 70
  0
 62
  0
 10
3.166419
 20
3.932780
 30
0.000000
  0
VERTEX
  8
LAYER-1
 10
3.166419
 20
3.932780
 30
0.000000
  0
VERTEX
  8
LAYER-1
 10
3.177373
 20
3.925662
 30
0.000000
  0
SEQEND
  8
LAYER-1
  0
POLYLINE
  8
LAYER-1
 66
  1
 70
  0
 62
  0
 10
3.177373
 20
3.925662
 30
0.000000
  0
VERTEX
  8
LAYER-1
 10
3.177373
 20
3.925662
 30
0.000000
  0
VERTEX
  8
LAYER-1
 10
3.178676
 20
3.945310
 30
0.000000
  0
VERTEX
  8
LAYER-1
 10
3.179000
 20
3.948290
 30
0.000000
  0
SEQEND
  8
LAYER-1
  0
POLYLINE
  8
LAYER-1
 66
  1
 70
  0
 62
  0
 10
3.185643
 20
3.948287
 30
0.000000
  0
VERTEX
  8
LAYER-1
 10
3.185643
 20
3.948287
 30
0.000000
  0
VERTEX
  8
LAYER-1
 10
3.178999
 20
3.948289
 30
0.000000
  0
SEQEND
  8
LAYER-1
  0
POLYLINE
  8
LAYER-1
 66
  1
 70
  0
 62
  0
 10
3.185643
 20
3.974121
 30
0.000000
  0
VERTEX
  8
LAYER-1
 10
3.185643
 20
3.974121
 30
0.000000
  0
VERTEX
  8
LAYER-1
 10
3.185643
 20
3.948287
 30
0.000000
  0
SEQEND
  8
LAYER-1
  0
POLYLINE
  8
LAYER-1
 66
  1
 70
  0
 62
  0
 10
3.115897
 20
3.996156
 30
0.000000
  0
VERTEX
  8
LAYER-1
 10
3.115897
 20
3.996156
 30
0.000000
  0
VERTEX
  8
LAYER-1
 10
3.185643
 20
3.974121
 30
0.000000
  0
SEQEND
  8
LAYER-1
  0
POLYLINE
  8
LAYER-1
 66
  1
 70
  0
 62
  0
 10
3.115897
 20
3.996156
 30
0.000000
  0
VERTEX
  8
LAYER-1
 10
3.115897
 20
3.996156
 30
0.000000
  0
VERTEX
  8
LAYER-1
 10
3.115897
 20
4.022617
 30
0.000000
  0
SEQEND
  8
LAYER-1
  0
POLYLINE
  8
LAYER-1
 66
  1
 70
  0
 62
  0
 10
3.115897
 20
4.022617
 30
0.000000
  0
VERTEX
  8
LAYER-1
 10
3.115897
 20
4.022617
 30
0.000000
  0
VERTEX
  8
LAYER-1
 10
3.108953
 20
4.030214
 30
0.000000
  0
SEQEND
  8
LAYER-1
  0
POLYLINE
  8
LAYER-1
 66
  1
 70
  0
 62
  0
 10
3.107466
 20
4.030348
 30
0.000000
  0
VERTEX
  8
LAYER-1
 10
3.107466
 20
4.030348
 30
0.000000
  0
VERTEX
  8
LAYER-1
 10
3.108953
 20
4.030215
 30
0.000000
  0
SEQEND
  8
LAYER-1
  0
POLYLINE
  8
LAYER-1
 66
  1
 70
  0
 62
  0
 10
3.107466
 20
4.030348
 30
0.000000
  0
VERTEX
  8
LAYER-1
 10
3.107466
 20
4.030348
 30
0.000000
  0
VERTEX
  8
LAYER-1
 10
3.107466
 20
4.247629
 30
0.000000
  0
SEQEND
  8
LAYER-1
  0
POLYLINE
  8
LAYER-1
 66
  1
 70
  0
 62
  0
 10
3.115094
 20
4.255257
 30
0.000000
  0
VERTEX
  8
LAYER-1
 10
3.115094
 20
4.255257
 30
0.000000
  0
VERTEX
  8
LAYER-1
 10
3.107466
 20
4.247629
 30
0.000000
  0
SEQEND
  8
LAYER-1
  0
POLYLINE
  8
LAYER-1
 66
  1
 70
  0
 62
  0
 10
3.115094
 20
4.255257
 30
0.000000
  0
VERTEX
  8
LAYER-1
 10
3.115094
 20
4.255257
 30
0.000000
  0
VERTEX
  8
LAYER-1
 10
3.135094
 20
4.255257
 30
0.000000
  0
SEQEND
  8
LAYER-1
  0
POLYLINE
  8
LAYER-1
 66
  1
 70
  0
 62
  0
 10
3.142723
 20
4.247629
 30
0.000000
  0
VERTEX
  8
LAYER-1
 10
3.142723
 20
4.247629
 30
0.000000
  0
VERTEX
  8
LAYER-1
 10
3.135094
 20
4.255257
 30
0.000000
  0
SEQEND
  8
LAYER-1
  0
POLYLINE
  8
LAYER-1
 66
  1
 70
  0
 62
  0
 10
3.142723
 20
4.247629
 30
0.000000
  0
VERTEX
  8
LAYER-1
 10
3.142723
 20
4.247629
 30
0.000000
  0
VERTEX
  8
LAYER-1
 10
3.142723
 20
4.246168
 30
0.000000
  0
SEQEND
  8
LAYER-1
  0
POLYLINE
  8
LAYER-1
 66
  1
 70
  0
 62
  0
 10
3.142723
 20
4.246168
 30
0.000000
  0
VERTEX
  8
LAYER-1
 10
3.142723
 20
4.246168
 30
0.000000
  0
VERTEX
  8
LAYER-1
 10
3.150351
 20
4.238540
 30
0.000000
  0
SEQEND
  8
LAYER-1
  0
POLYLINE
  8
LAYER-1
 66
  1
 70
  0
 62
  0
 10
3.150351
 20
4.238540
 30
0.000000
  0
VERTEX
  8
LAYER-1
 10
3.150351
 20
4.238540
 30
0.000000
  0
VERTEX
  8
LAYER-1
 10
3.164421
 20
4.238540
 30
0.000000
  0
SEQEND
  8
LAYER-1
  0
POLYLINE
  8
LAYER-1
 66
  1
 70
  0
 62
  0
 10
3.164421
 20
4.238540
 30
0.000000
  0
VERTEX
  8
LAYER-1
 10
3.164421
 20
4.238540
 30
0.000000
  0
VERTEX
  8
LAYER-1
 10
3.168781
 20
4.242899
 30
0.000000
  0
SEQEND
  8
LAYER-1
  0
POLYLINE
  8
LAYER-1
 66
  1
 70
  0
 62
  0
 10
3.168781
 20
4.246339
 30
0.000000
  0
VERTEX
  8
LAYER-1
 10
3.168781
 20
4.246339
 30
0.000000
  0
VERTEX
  8
LAYER-1
 10
3.168781
 20
4.242899
 30
0.000000
  0
SEQEND
  8
LAYER-1
  0
POLYLINE
  8
LAYER-1
 66
  1
 70
  0
 62
  0
 10
3.168781
 20
4.246339
 30
0.000000
  0
VERTEX
  8
LAYER-1
 10
3.168781
 20
4.246339
 30
0.000000
  0
VERTEX
  8
LAYER-1
 10
3.164421
 20
4.250698
 30
0.000000
  0
SEQEND
  8
LAYER-1
  0
POLYLINE
  8
LAYER-1
 66
  1
 70
  0
 62
  0
 10
3.163943
 20
4.250698
 30
0.000000
  0
VERTEX
  8
LAYER-1
 10
3.163943
 20
4.250698
 30
0.000000
  0
VERTEX
  8
LAYER-1
 10
3.164421
 20
4.250698
 30
0.000000
  0
SEQEND
  8
LAYER-1
  0
POLYLINE
  8
LAYER-1
 66
  1
 70
  0
 62
  0
 10
3.159584
 20
4.255057
 30
0.000000
  0
VERTEX
  8
LAYER-1
 10
3.159584
 20
4.255057
 30
0.000000
  0
VERTEX
  8
LAYER-1
 10
3.163943
 20
4.250698
 30
0.000000
  0
SEQEND
  8
LAYER-1
  0
POLYLINE
  8
LAYER-1
 66
  1
 70
  0
 62
  0
 10
3.159584
 20
4.264345
 30
0.000000
  0
VERTEX
  8
LAYER-1
 10
3.159584
 20
4.264345
 30
0.000000
  0
VERTEX
  8
LAYER-1
 10
3.159584
 20
4.255057
 30
0.000000
  0
SEQEND
  8
LAYER-1
  0
POLYLINE
  8
LAYER-1
 66
  1
 70
  0
 62
  0
 10
3.167213
 20
4.271973
 30
0.000000
  0
VERTEX
  8
LAYER-1
 10
3.167213
 20
4.271973
 30
0.000000
  0
VERTEX
  8
LAYER-1
 10
3.159584
 20
4.264345
 30
0.000000
  0
SEQEND
  8
LAYER-1
  0
POLYLINE
  8
LAYER-1
 66
  1
 70
  0
 62
  0
 10
3.167213
 20
4.271973
 30
0.000000
  0
VERTEX
  8
LAYER-1
 10
3.167213
 20
4.271973
 30
0.000000
  0
VERTEX
  8
LAYER-1
 10
3.302178
 20
4.271973
 30
0.000000
  0
SEQEND
  8
LAYER-1
  0
POLYLINE
  8
LAYER-1
 66
  1
 70
  0
 62
  0
 10
3.309807
 20
4.264345
 30
0.000000
  0
VERTEX
  8
LAYER-1
 10
3.309807
 20
4.264345
 30
0.000000
  0
VERTEX
  8
LAYER-1
 10
3.302178
 20
4.271973
 30
0.000000
  0
SEQEND
  8
LAYER-1
  0
POLYLINE
  8
LAYER-1
 66
  1
 70
  0
 62
  0
 10
3.309807
 20
4.264345
 30
0.000000
  0
VERTEX
  8
LAYER-1
 10
3.309807
 20
4.264345
 30
0.000000
  0
VERTEX
  8
LAYER-1
 10
3.309807
 20
4.255057
 30
0.000000
  0
SEQEND
  8
LAYER-1
  0
POLYLINE
  8
LAYER-1
 66
  1
 70
  0
 62
  0
 10
3.305448
 20
4.250698
 30
0.000000
  0
VERTEX
  8
LAYER-1
 10
3.305448
 20
4.250698
 30
0.000000
  0
VERTEX
  8
LAYER-1
 10
3.309807
 20
4.255057
 30
0.000000
  0
SEQEND
  8
LAYER-1
  0
POLYLINE
  8
LAYER-1
 66
  1
 70
  0
 62
  0
 10
3.305448
 20
4.250698
 30
0.000000
  0
VERTEX
  8
LAYER-1
 10
3.305448
 20
4.250698
 30
0.000000
  0
VERTEX
  8
LAYER-1
 10
3.304968
 20
4.250698
 30
0.000000
  0
SEQEND
  8
LAYER-1
  0
POLYLINE
  8
LAYER-1
 66
  1
 70
  0
 62
  0
 10
3.304968
 20
4.250698
 30
0.000000
  0
VERTEX
  8
LAYER-1
 10
3.304968
 20
4.250698
 30
0.000000
  0
VERTEX
  8
LAYER-1
 10
3.300609
 20
4.246339
 30
0.000000
  0
SEQEND
  8
LAYER-1
  0
POLYLINE
  8
LAYER-1
 66
  1
 70
  0
 62
  0
 10
3.300609
 20
4.246339
 30
0.000000
  0
VERTEX
  8
LAYER-1
 10
3.300609
 20
4.246339
 30
0.000000
  0
VERTEX
  8
LAYER-1
 10
3.300609
 20
4.242899
 30
0.000000
  0
SEQEND
  8
LAYER-1
  0
POLYLINE
  8
LAYER-1
 66
  1
 70
  0
 62
  0
 10
3.300609
 20
4.242899
 30
0.000000
  0
VERTEX
  8
LAYER-1
 10
3.300609
 20
4.242899
 30
0.000000
  0
VERTEX
  8
LAYER-1
 10
3.304968
 20
4.238540
 30
0.000000
  0
SEQEND
  8
LAYER-1
  0
POLYLINE
  8
LAYER-1
 66
  1
 70
  0
 62
  0
 10
3.319039
 20
4.238540
 30
0.000000
  0
VERTEX
  8
LAYER-1
 10
3.319039
 20
4.238540
 30
0.000000
  0
VERTEX
  8
LAYER-1
 10
3.304968
 20
4.238540
 30
0.000000
  0
SEQEND
  8
LAYER-1
  0
POLYLINE
  8
LAYER-1
 66
  1
 70
  0
 62
  0
 10
3.319039
 20
4.238540
 30
0.000000
  0
VERTEX
  8
LAYER-1
 10
3.319039
 20
4.238540
 30
0.000000
  0
VERTEX
  8
LAYER-1
 10
3.326668
 20
4.246168
 30
0.000000
  0
SEQEND
  8
LAYER-1
  0
POLYLINE
  8
LAYER-1
 66
  1
 70
  0
 62
  0
 10
3.326668
 20
4.247629
 30
0.000000
  0
VERTEX
  8
LAYER-1
 10
3.326668
 20
4.247629
 30
0.000000
  0
VERTEX
  8
LAYER-1
 10
3.326668
 20
4.246168
 30
0.000000
  0
SEQEND
  8
LAYER-1
  0
POLYLINE
  8
LAYER-1
 66
  1
 70
  0
 62
  0
 10
3.334296
 20
4.255257
 30
0.000000
  0
VERTEX
  8
LAYER-1
 10
3.334296
 20
4.255257
 30
0.000000
  0
VERTEX
  8
LAYER-1
 10
3.326668
 20
4.247629
 30
0.000000
  0
SEQEND
  8
LAYER-1
  0
POLYLINE
  8
LAYER-1
 66
  1
 70
  0
 62
  0
 10
3.334296
 20
4.255257
 30
0.000000
  0
VERTEX
  8
LAYER-1
 10
3.334296
 20
4.255257
 30
0.000000
  0
VERTEX
  8
LAYER-1
 10
3.354295
 20
4.255257
 30
0.000000
  0
SEQEND
  8
LAYER-1
  0
POLYLINE
  8
LAYER-1
 66
  1
 70
  0
 62
  0
 10
3.361923
 20
4.247629
 30
0.000000
  0
VERTEX
  8
LAYER-1
 10
3.361923
 20
4.247629
 30
0.000000
  0
VERTEX
  8
LAYER-1
 10
3.354295
 20
4.255257
 30
0.000000
  0
SEQEND
  8
LAYER-1
  0
POLYLINE
  8
LAYER-1
 66
  1
 70
  0
 62
  0
 10
3.361923
 20
4.030348
 30
0.000000
  0
VERTEX
  8
LAYER-1
 10
3.361923
 20
4.030348
 30
0.000000
  0
VERTEX
  8
LAYER-1
 10
3.361923
 20
4.247629
 30
0.000000
  0
SEQEND
  8
LAYER-1
  0
POLYLINE
  8
LAYER-1
 66
  1
 70
  0
 62
  0
 10
3.361923
 20
4.030348
 30
0.000000
  0
VERTEX
  8
LAYER-1
 10
3.361923
 20
4.030348
 30
0.000000
  0
VERTEX
  8
LAYER-1
 10
3.359727
 20
4.030167
 30
0.000000
  0
SEQEND
  8
LAYER-1
  0
POLYLINE
  8
LAYER-1
 66
  1
 70
  0
 62
  0
 10
3.359727
 20
4.030167
 30
0.000000
  0
VERTEX
  8
LAYER-1
 10
3.359727
 20
4.030167
 30
0.000000
  0
VERTEX
  8
LAYER-1
 10
3.352727
 20
4.022564
 30
0.000000
  0
SEQEND
  8
LAYER-1
  0
POLYLINE
  8
LAYER-1
 66
  1
 70
  0
 62
  0
 10
3.352727
 20
3.996156
 30
0.000000
  0
VERTEX
  8
LAYER-1
 10
3.352727
 20
3.996156
 30
0.000000
  0
VERTEX
  8
LAYER-1
 10
3.352727
 20
4.022564
 30
0.000000
  0
SEQEND
  8
LAYER-1
  0
POLYLINE
  8
LAYER-1
 66
  1
 70
  0
 62
  0
 10
3.285280
 20
3.974121
 30
0.000000
  0
VERTEX
  8
LAYER-1
 10
3.285280
 20
3.974121
 30
0.000000
  0
VERTEX
  8
LAYER-1
 10
3.352727
 20
3.996156
 30
0.000000
  0
SEQEND
  8
LAYER-1
  0
POLYLINE
  8
LAYER-1
 66
  1
 70
  0
 62
  0
 10
3.285280
 20
3.974121
 30
0.000000
  0
VERTEX
  8
LAYER-1
 10
3.285280
 20
3.974121
 30
0.000000
  0
VERTEX
  8
LAYER-1
 10
3.285280
 20
3.948287
 30
0.000000
  0
SEQEND
  8
LAYER-1
  0
POLYLINE
  8
LAYER-1
 66
  1
 70
  0
 62
  0
 10
3.291902
 20
3.948289
 30
0.000000
  0
VERTEX
  8
LAYER-1
 10
3.291902
 20
3.948289
 30
0.000000
  0
VERTEX
  8
LAYER-1
 10
3.285280
 20
3.948287
 30
0.000000
  0
SEQEND
  8
LAYER-1
  0
POLYLINE
  8
LAYER-1
 66
  1
 70
  0
 62
  0
 10
3.291901
 20
3.948290
 30
0.000000
  0
VERTEX
  8
LAYER-1
 10
3.291901
 20
3.948290
 30
0.000000
  0
VERTEX
  8
LAYER-1
 10
3.289225
 20
3.932293
 30
0.000000
  0
VERTEX
  8
LAYER-1
 10
3.293528
 20
3.925662
 30
0.000000
  0
SEQEND
  8
LAYER-1
  0
POLYLINE
  8
LAYER-1
 66
  1
 70
  0
 62
  0
 10
3.293529
 20
3.925663
 30
0.000000
  0
VERTEX
  8
LAYER-1
 10
3.293529
 20
3.925663
 30
0.000000
  0
VERTEX
  8
LAYER-1
 10
3.304483
 20
3.932780
 30
0.000000
  0
SEQEND
  8
LAYER-1
  0
POLYLINE
  8
LAYER-1
 66
  1
 70
  0
 62
  0
 10
3.321962
 20
3.932746
 30
0.000000
  0
VERTEX
  8
LAYER-1
 10
3.321962
 20
3.932746
 30
0.000000
  0
VERTEX
  8
LAYER-1
 10
3.316969
 20
3.949148
 30
0.000000
  0
VERTEX
  8
LAYER-1
 10
3.302536
 20
3.946125
 30
0.000000
  0
VERTEX
  8
LAYER-1
 10
3.304482
 20
3.932780
 30
0.000000
  0
SEQEND
  8
LAYER-1
  0
POLYLINE
  8
LAYER-1
 66
  1
 70
  0
 62
  0
 10
3.321962
 20
3.932746
 30
0.000000
  0
VERTEX
  8
LAYER-1
 10
3.321962
 20
3.932746
 30
0.000000
  0
VERTEX
  8
LAYER-1
 10
3.332824
 20
3.925644
 30
0.000000
  0
SEQEND
  8
LAYER-1
  0
POLYLINE
  8
LAYER-1
 66
  1
 70
  0
 62
  7
 10
3.190483
 20
4.004579
 30
0.000000
  0
VERTEX
  8
LAYER-1
 10
3.190483
 20
4.004579
 30
0.000000
  0
VERTEX
  8
LAYER-1
 10
3.179285
 20
4.031380
 30
0.000000
  0
VERTEX
  8
LAYER-1
 10
3.152252
 20
4.042481
 30
0.000000
  0
VERTEX
  8
LAYER-1
 10
3.125218
 20
4.031380
 30
0.000000
  0
VERTEX
  8
LAYER-1
 10
3.114020
 20
4.004579
 30
0.000000
  0
VERTEX
  8
LAYER-1
 10
3.125218
 20
3.977778
 30
0.000000
  0
VERTEX
  8
LAYER-1
 10
3.152252
 20
3.966677
 30
0.000000
  0
VERTEX
  8
LAYER-1
 10
3.179285
 20
3.977778
 30
0.000000
  0
VERTEX
  8
LAYER-1
 10
3.190483
 20
4.004579
 30
0.000000
  0
SEQEND
  8
LAYER-1
  0
POLYLINE
  8
LAYER-1
 66
  1
 70
  0
 62
  7
 10
3.349847
 20
4.006252
 30
0.000000
  0
VERTEX
  8
LAYER-1
 10
3.349847
 20
4.006252
 30
0.000000
  0
VERTEX
  8
LAYER-1
 10
3.338649
 20
4.033054
 30
0.000000
  0
VERTEX
  8
LAYER-1
 10
3.311615
 20
4.044155
 30
0.000000
  0
VERTEX
  8
LAYER-1
 10
3.284581
 20
4.033054
 30
0.000000
  0
VERTEX
  8
LAYER-1
 10
3.273383
 20
4.006252
 30
0.000000
  0
VERTEX
  8
LAYER-1
 10
3.284581
 20
3.979451
 30
0.000000
  0
VERTEX
  8
LAYER-1
 10
3.311615
 20
3.968350
 30
0.000000
  0
VERTEX
  8
LAYER-1
 10
3.338649
 20
3.979451
 30
0.000000
  0
VERTEX
  8
LAYER-1
 10
3.349847
 20
4.006252
 30
0.000000
  0
SEQEND
  8
LAYER-1
  0
POLYLINE
  8
LAYER-1
 66
  1
 70
  1
 62
  7
  0
VERTEX
  8
LAYER-1
 10
2.422809
 20
0.526198
 30
0.000000
  0
VERTEX
  8
LAYER-1
 10
4.028036
 20
0.526198
 30
0.000000
  0
VERTEX
  8
LAYER-1
 10
4.028036
 20
0.001667
 30
0.000000
  0
VERTEX
  8
LAYER-1
 10
2.422809
 20
0.001667
 30
0.000000
  0
SEQEND
  8
LAYER-1
  0
POLYLINE
  8
LAYER-1
 66
  1
 70
  1
 62
  0
 10
2.473584
 20
0.500009
 30
0.000000
  0
VERTEX
  8
LAYER-1
 10
2.473584
 20
0.500009
 30
0.000000
  0
VERTEX
  8
LAYER-1
 10
2.460942
 20
0.487628
 30
0.000000
  0
VERTEX
  8
LAYER-1
 10
2.482014
 20
0.477151
 30
0.000000
  0
SEQEND
  8
LAYER-1
  0
POLYLINE
  8
LAYER-1
 66
  1
 70
  1
 62
  0
 10
2.505926
 20
0.441585
 30
0.000000
  0
VERTEX
  8
LAYER-1
 10
2.505926
 20
0.441585
 30
0.000000
  0
VERTEX
  8
LAYER-1
 10
2.516885
 20
0.427298
 30
0.000000
  0
VERTEX
  8
LAYER-1
 10
2.526156
 20
0.451111
 30
0.000000
  0
SEQEND
  8
LAYER-1
  0
POLYLINE
  8
LAYER-1
 66
  1
 70
  1
 62
  0
 10
2.619140
 20
0.490877
 30
0.000000
  0
VERTEX
  8
LAYER-1
 10
2.619140
 20
0.490877
 30
0.000000
  0
VERTEX
  8
LAYER-1
 10
2.577584
 20
0.487764
 30
0.000000
  0
VERTEX
  8
LAYER-1
 10
2.627168
 20
0.469106
 30
0.000000
  0
SEQEND
  8
LAYER-1
  0
POLYLINE
  8
LAYER-1
 66
  1
 70
  1
 62
  0
 10
2.713143
 20
0.479961
 30
0.000000
  0
VERTEX
  8
LAYER-1
 10
2.713143
 20
0.479961
 30
0.000000
  0
VERTEX
  8
LAYER-1
 10
2.700499
 20
0.467578
 30
0.000000
  0
VERTEX
  8
LAYER-1
 10
2.721572
 20
0.457102
 30
0.000000
  0
SEQEND
  8
LAYER-1
  0
POLYLINE
  8
LAYER-1
 66
  1
 70
  1
 62
  0
 10
2.973784
 20
0.466868
 30
0.000000
  0
VERTEX
  8
LAYER-1
 10
2.973784
 20
0.466868
 30
0.000000
  0
VERTEX
  8
LAYER-1
 10
2.961143
 20
0.454486
 30
0.000000
  0
VERTEX
  8
LAYER-1
 10
2.982216
 20
0.444010
 30
0.000000
  0
SEQEND
  8
LAYER-1
  0
POLYLINE
  8
LAYER-1
 66
  1
 70
  1
 62
  0
 10
3.052291
 20
0.472655
 30
0.000000
  0
VERTEX
  8
LAYER-1
 10
3.052291
 20
0.472655
 30
0.000000
  0
VERTEX
  8
LAYER-1
 10
3.094160
 20
0.466447
 30
0.000000
  0
VERTEX
  8
LAYER-1
 10
3.102990
 20
0.489126
 30
0.000000
  0
SEQEND
  8
LAYER-1
  0
POLYLINE
  8
LAYER-1
 66
  1
 70
  1
 62
  0
 10
3.229024
 20
0.457377
 30
0.000000
  0
VERTEX
  8
LAYER-1
 10
3.229024
 20
0.457377
 30
0.000000
  0
VERTEX
  8
LAYER-1
 10
3.239461
 20
0.443769
 30
0.000000
  0
VERTEX
  8
LAYER-1
 10
3.248291
 20
0.466447
 30
0.000000
  0
SEQEND
  8
LAYER-1
  0
POLYLINE
  8
LAYER-1
 66
  1
 70
  1
 62
  0
 10
3.188142
 20
0.408643
 30
0.000000
  0
VERTEX
  8
LAYER-1
 10
3.188142
 20
0.408643
 30
0.000000
  0
VERTEX
  8
LAYER-1
 10
3.202080
 20
0.417367
 30
0.000000
  0
VERTEX
  8
LAYER-1
 10
3.184269
 20
0.431818
 30
0.000000
  0
SEQEND
  8
LAYER-1
  0
POLYLINE
  8
LAYER-1
 66
  1
 70
  1
 62
  0
 10
3.267224
 20
0.329608
 30
0.000000
  0
VERTEX
  8
LAYER-1
 10
3.267224
 20
0.329608
 30
0.000000
  0
VERTEX
  8
LAYER-1
 10
3.279265
 20
0.341399
 30
0.000000
  0
VERTEX
  8
LAYER-1
 10
3.259194
 20
0.351378
 30
0.000000
  0
SEQEND
  8
LAYER-1
  0
POLYLINE
  8
LAYER-1
 66
  1
 70
  1
 62
  0
 10
3.188150
 20
0.353644
 30
0.000000
  0
VERTEX
  8
LAYER-1
 10
3.188150
 20
0.353644
 30
0.000000
  0
VERTEX
  8
LAYER-1
 10
3.177714
 20
0.367253
 30
0.000000
  0
VERTEX
  8
LAYER-1
 10
3.168884
 20
0.344575
 30
0.000000
  0
SEQEND
  8
LAYER-1
  0
POLYLINE
  8
LAYER-1
 66
  1
 70
  1
 62
  0
 10
3.003112
 20
0.309651
 30
0.000000
  0
VERTEX
  8
LAYER-1
 10
3.003112
 20
0.309651
 30
0.000000
  0
VERTEX
  8
LAYER-1
 10
3.024513
 20
0.325086
 30
0.000000
  0
VERTEX
  8
LAYER-1
 10
2.996734
 20
0.359807
 30
0.000000
  0
SEQEND
  8
LAYER-1
  0
POLYLINE
  8
LAYER-1
 66
  1
 70
  1
 62
  0
 10
2.911715
 20
0.329609
 30
0.000000
  0
VERTEX
  8
LAYER-1
 10
2.911715
 20
0.329609
 30
0.000000
  0
VERTEX
  8
LAYER-1
 10
2.900757
 20
0.343896
 30
0.000000
  0
VERTEX
  8
LAYER-1
 10
2.891486
 20
0.320086
 30
0.000000
  0
SEQEND
  8
LAYER-1
  0
POLYLINE
  8
LAYER-1
 66
  1
 70
  1
 62
  0
 10
2.474146
 20
0.361261
 30
0.000000
  0
VERTEX
  8
LAYER-1
 10
2.474146
 20
0.361261
 30
0.000000
  0
VERTEX
  8
LAYER-1
 10
2.493262
 20
0.335503
 30
0.000000
  0
VERTEX
  8
LAYER-1
 10
2.515952
 20
0.369723
 30
0.000000
  0
SEQEND
  8
LAYER-1
  0
POLYLINE
  8
LAYER-1
 66
  1
 70
  1
 62
  0
 10
2.559145
 20
0.329609
 30
0.000000
  0
VERTEX
  8
LAYER-1
 10
2.559145
 20
0.329609
 30
0.000000
  0
VERTEX
  8
LAYER-1
 10
2.573781
 20
0.338771
 30
0.000000
  0
VERTEX
  8
LAYER-1
 10
2.555078
 20
0.353945
 30
0.000000
  0
SEQEND
  8
LAYER-1
  0
POLYLINE
  8
LAYER-1
 66
  1
 70
  1
 62
  0
 10
2.754633
 20
0.356970
 30
0.000000
  0
VERTEX
  8
LAYER-1
 10
2.754633
 20
0.356970
 30
0.000000
  0
VERTEX
  8
LAYER-1
 10
2.765591
 20
0.342681
 30
0.000000
  0
VERTEX
  8
LAYER-1
 10
2.774862
 20
0.366493
 30
0.000000
  0
SEQEND
  8
LAYER-1
  0
POLYLINE
  8
LAYER-1
 66
  1
 70
  1
 62
  0
 10
2.720693
 20
0.307725
 30
0.000000
  0
VERTEX
  8
LAYER-1
 10
2.720693
 20
0.307725
 30
0.000000
  0
VERTEX
  8
LAYER-1
 10
2.747497
 20
0.319736
 30
0.000000
  0
VERTEX
  8
LAYER-1
 10
2.705068
 20
0.347655
 30
0.000000
  0
SEQEND
  8
LAYER-1
  0
POLYLINE
  8
LAYER-1
 66
  1
 70
  1
 62
  0
 10
2.875207
 20
0.458767
 30
0.000000
  0
VERTEX
  8
LAYER-1
 10
2.875207
 20
0.458767
 30
0.000000
  0
VERTEX
  8
LAYER-1
 10
2.858798
 20
0.494016
 30
0.000000
  0
VERTEX
  8
LAYER-1
 10
2.844348
 20
0.476207
 30
0.000000
  0
SEQEND
  8
LAYER-1
  0
POLYLINE
  8
LAYER-1
 66
  1
 70
  1
 62
  0
 10
3.348986
 20
0.482816
 30
0.000000
  0
VERTEX
  8
LAYER-1
 10
3.348986
 20
0.482816
 30
0.000000
  0
VERTEX
  8
LAYER-1
 10
3.336342
 20
0.470434
 30
0.000000
  0
VERTEX
  8
LAYER-1
 10
3.357416
 20
0.459958
 30
0.000000
  0
SEQEND
  8
LAYER-1
  0
POLYLINE
  8
LAYER-1
 66
  1
 70
  1
 62
  0
 10
3.433411
 20
0.443490
 30
0.000000
  0
VERTEX
  8
LAYER-1
 10
3.433411
 20
0.443490
 30
0.000000
  0
VERTEX
  8
LAYER-1
 10
3.444370
 20
0.429203
 30
0.000000
  0
VERTEX
  8
LAYER-1
 10
3.453641
 20
0.453014
 30
0.000000
  0
SEQEND
  8
LAYER-1
  0
POLYLINE
  8
LAYER-1
 66
  1
 70
  1
 62
  0
 10
3.502458
 20
0.492689
 30
0.000000
  0
VERTEX
  8
LAYER-1
 10
3.502458
 20
0.492689
 30
0.000000
  0
VERTEX
  8
LAYER-1
 10
3.460903
 20
0.489577
 30
0.000000
  0
VERTEX
  8
LAYER-1
 10
3.510487
 20
0.470918
 30
0.000000
  0
SEQEND
  8
LAYER-1
  0
POLYLINE
  8
LAYER-1
 66
  1
 70
  1
 62
  0
 10
3.640628
 20
0.481865
 30
0.000000
  0
VERTEX
  8
LAYER-1
 10
3.640628
 20
0.481865
 30
0.000000
  0
VERTEX
  8
LAYER-1
 10
3.627984
 20
0.469481
 30
0.000000
  0
VERTEX
  8
LAYER-1
 10
3.649056
 20
0.459006
 30
0.000000
  0
SEQEND
  8
LAYER-1
  0
POLYLINE
  8
LAYER-1
 66
  1
 70
  1
 62
  0
 10
3.923839
 20
0.510439
 30
0.000000
  0
VERTEX
  8
LAYER-1
 10
3.923839
 20
0.510439
 30
0.000000
  0
VERTEX
  8
LAYER-1
 10
3.911196
 20
0.498056
 30
0.000000
  0
VERTEX
  8
LAYER-1
 10
3.932270
 20
0.487579
 30
0.000000
  0
SEQEND
  8
LAYER-1
  0
POLYLINE
  8
LAYER-1
 66
  1
 70
  1
 62
  0
 10
3.935609
 20
0.474467
 30
0.000000
  0
VERTEX
  8
LAYER-1
 10
3.935609
 20
0.474467
 30
0.000000
  0
VERTEX
  8
LAYER-1
 10
3.977477
 20
0.468260
 30
0.000000
  0
VERTEX
  8
LAYER-1
 10
3.986308
 20
0.490938
 30
0.000000
  0
SEQEND
  8
LAYER-1
  0
POLYLINE
  8
LAYER-1
 66
  1
 70
  1
 62
  0
 10
3.886430
 20
0.311464
 30
0.000000
  0
VERTEX
  8
LAYER-1
 10
3.886430
 20
0.311464
 30
0.000000
  0
VERTEX
  8
LAYER-1
 10
3.907832
 20
0.326898
 30
0.000000
  0
VERTEX
  8
LAYER-1
 10
3.880053
 20
0.361621
 30
0.000000
  0
SEQEND
  8
LAYER-1
  0
POLYLINE
  8
LAYER-1
 66
  1
 70
  1
 62
  0
 10
3.839199
 20
0.331512
 30
0.000000
  0
VERTEX
  8
LAYER-1
 10
3.839199
 20
0.331512
 30
0.000000
  0
VERTEX
  8
LAYER-1
 10
3.828241
 20
0.345800
 30
0.000000
  0
VERTEX
  8
LAYER-1
 10
3.818971
 20
0.321989
 30
0.000000
  0
SEQEND
  8
LAYER-1
  0
POLYLINE
  8
LAYER-1
 66
  1
 70
  1
 62
  0
 10
3.357464
 20
0.363074
 30
0.000000
  0
VERTEX
  8
LAYER-1
 10
3.357464
 20
0.363074
 30
0.000000
  0
VERTEX
  8
LAYER-1
 10
3.376582
 20
0.337316
 30
0.000000
  0
VERTEX
  8
LAYER-1
 10
3.399271
 20
0.371536
 30
0.000000
  0
SEQEND
  8
LAYER-1
  0
POLYLINE
  8
LAYER-1
 66
  1
 70
  1
 62
  0
 10
3.486629
 20
0.331512
 30
0.000000
  0
VERTEX
  8
LAYER-1
 10
3.486629
 20
0.331512
 30
0.000000
  0
VERTEX
  8
LAYER-1
 10
3.501265
 20
0.340675
 30
0.000000
  0
VERTEX
  8
LAYER-1
 10
3.482562
 20
0.355848
 30
0.000000
  0
SEQEND
  8
LAYER-1
  0
POLYLINE
  8
LAYER-1
 66
  1
 70
  1
 62
  0
 10
3.682118
 20
0.358873
 30
0.000000
  0
VERTEX
  8
LAYER-1
 10
3.682118
 20
0.358873
 30
0.000000
  0
VERTEX
  8
LAYER-1
 10
3.693076
 20
0.344584
 30
0.000000
  0
VERTEX
  8
LAYER-1
 10
3.702347
 20
0.368397
 30
0.000000
  0
SEQEND
  8
LAYER-1
  0
POLYLINE
  8
LAYER-1
 66
  1
 70
  1
 62
  0
 10
3.604012
 20
0.309538
 30
0.000000
  0
VERTEX
  8
LAYER-1
 10
3.604012
 20
0.309538
 30
0.000000
  0
VERTEX
  8
LAYER-1
 10
3.630815
 20
0.321548
 30
0.000000
  0
VERTEX
  8
LAYER-1
 10
3.588387
 20
0.349467
 30
0.000000
  0
SEQEND
  8
LAYER-1
  0
POLYLINE
  8
LAYER-1
 66
  1
 70
  1
 62
  0
 10
3.779726
 20
0.401475
 30
0.000000
  0
VERTEX
  8
LAYER-1
 10
3.779726
 20
0.401475
 30
0.000000
  0
VERTEX
  8
LAYER-1
 10
3.772781
 20
0.458766
 30
0.000000
  0
VERTEX
  8
LAYER-1
 10
3.743291
 20
0.441562
 30
0.000000
  0
SEQEND
  8
LAYER-1
  0
POLYLINE
  8
LAYER-1
 66
  1
 70
  1
 62
  0
  0
VERTEX
  8
LAYER-1
 10
2.422809
 20
0.584756
 30
0.000000
  0
VERTEX
  8
LAYER-1
 10
4.028036
 20
0.584756
 30
0.000000
  0
VERTEX
  8
LAYER-1
 10
4.028036
 20
0.526198
 30
0.000000
  0
VERTEX
  8
LAYER-1
 10
2.422809
 20
0.526198
 30
0.000000
  0
SEQEND
  8
LAYER-1
  0
POLYLINE
  8
LAYER-1
 66
  1
 70
  0
 62
  0
 10
2.594317
 20
0.894756
 30
0.000000
  0
VERTEX
  8
LAYER-1
 10
2.594317
 20
0.894756
 30
0.000000
  0
VERTEX
  8
LAYER-1
 10
3.876662
 20
0.894756
 30
0.000000
  0
SEQEND
  8
LAYER-1
  0
TEXT
  8
LAYER-1
 62
  0
 10
1.259487
 20
0.463736
 30
0.000000
 40
0.083333
  1
VANO
 72
  5
 11
1.634487
 21
0.463736
 31
0.000000
  0
TEXT
  8
LAYER-1
 62
  0
 10
1.259487
 20
0.338736
 30
0.000000
 40
0.083333
  1
ANTIPOLVERE
 72
  5
 11
2.078931
 21
0.338736
 31
0.000000
  0
TEXT
  8
LAYER-1
 62
  0
 10
1.259487
 20
0.213736
 30
0.000000
 40
0.083333
  1
( per il gancio
 72
  5
 11
1.967820
 21
0.213736
 31
0.000000
  0
TEXT
  8
LAYER-1
 62
  0
 10
1.259487
 20
0.088736
 30
0.000000
 40
0.083333
  1
  del montante )
 72
  5
 11
2.051153
 21
0.088736
 31
0.000000
  0
POLYLINE
  8
LAYER-1
 66
  1
 70
  0
 62
  0
 10
4.225588
 20
0.893565
 30
0.000000
  0
VERTEX
  8
LAYER-1
 10
4.225588
 20
0.893565
 30
0.000000
  0
VERTEX
  8
LAYER-1
 10
4.056858
 20
0.893565
 30
0.000000
  0
SEQEND
  8
LAYER-1
  0
POLYLINE
  8
LAYER-1
 66
  1
 70
  0
 62
  0
 10
4.225588
 20
0.600052
 30
0.000000
  0
VERTEX
  8
LAYER-1
 10
4.225588
 20
0.600052
 30
0.000000
  0
VERTEX
  8
LAYER-1
 10
4.061076
 20
0.600052
 30
0.000000
  0
SEQEND
  8
LAYER-1
  0
POLYLINE
  8
LAYER-1
 66
  1
 70
  0
 62
  0
 10
4.100361
 20
0.893565
 30
0.000000
  0
VERTEX
  8
LAYER-1
 10
4.100361
 20
0.893565
 30
0.000000
  0
VERTEX
  8
LAYER-1
 10
4.103258
 20
0.600052
 30
0.000000
  0
SEQEND
  8
LAYER-1
  0
LINE
  8
LAYER-1
 62
  0
 10
4.130113
 20
0.864394
 30
0.000000
 11
4.070610
 21
0.922735
 31
0.000000
  0
LINE
  8
LAYER-1
 62
  0
 10
4.133009
 20
0.570880
 30
0.000000
 11
4.073506
 21
0.629222
 31
0.000000
  0
TEXT
  8
LAYER-1
 62
  0
 10
4.315042
 20
0.783180
 30
0.000000
 40
0.104167
  1
STANDARD  1-1/2"  -  38mm
 72
  5
 11
6.217820
 21
0.783180
 31
0.000000
  0
TEXT
  8
LAYER-1
 62
  0
 10
4.315042
 20
0.630402
 30
0.000000
 40
0.104167
  1
BANCONE  1"  -  25mm
 72
  5
 11
5.898375
 21
0.630402
 31
0.000000
  0
POLYLINE
  8
LAYER-1
 66
  1
 70
  1
 62
  0
 10
3.967899
 20
0.042284
 30
0.000000
  0
VERTEX
  8
LAYER-1
 10
3.967899
 20
0.042284
 30
0.000000
  0
VERTEX
  8
LAYER-1
 10
3.980543
 20
0.054665
 30
0.000000
  0
VERTEX
  8
LAYER-1
 10
3.959469
 20
0.065142
 30
0.000000
  0
SEQEND
  8
LAYER-1
  0
POLYLINE
  8
LAYER-1
 66
  1
 70
  1
 62
  0
 10
3.935557
 20
0.100708
 30
0.000000
  0
VERTEX
  8
LAYER-1
 10
3.935557
 20
0.100708
 30
0.000000
  0
VERTEX
  8
LAYER-1
 10
3.924599
 20
0.114995
 30
0.000000
  0
VERTEX
  8
LAYER-1
 10
3.915328
 20
0.091183
 30
0.000000
  0
SEQEND
  8
LAYER-1
  0
POLYLINE
  8
LAYER-1
 66
  1
 70
  1
 62
  0
 10
3.822344
 20
0.051417
 30
0.000000
  0
VERTEX
  8
LAYER-1
 10
3.822344
 20
0.051417
 30
0.000000
  0
VERTEX
  8
LAYER-1
 10
3.863899
 20
0.054529
 30
0.000000
  0
VERTEX
  8
LAYER-1
 10
3.814315
 20
0.073187
 30
0.000000
  0
SEQEND
  8
LAYER-1
  0
POLYLINE
  8
LAYER-1
 66
  1
 70
  1
 62
  0
 10
3.728341
 20
0.062332
 30
0.000000
  0
VERTEX
  8
LAYER-1
 10
3.728341
 20
0.062332
 30
0.000000
  0
VERTEX
  8
LAYER-1
 10
3.740985
 20
0.074716
 30
0.000000
  0
VERTEX
  8
LAYER-1
 10
3.719911
 20
0.085191
 30
0.000000
  0
SEQEND
  8
LAYER-1
  0
POLYLINE
  8
LAYER-1
 66
  1
 70
  1
 62
  0
 10
3.467699
 20
0.075425
 30
0.000000
  0
VERTEX
  8
LAYER-1
 10
3.467699
 20
0.075425
 30
0.000000
  0
VERTEX
  8
LAYER-1
 10
3.480341
 20
0.087807
 30
0.000000
  0
VERTEX
  8
LAYER-1
 10
3.459267
 20
0.098284
 30
0.000000
  0
SEQEND
  8
LAYER-1
  0
POLYLINE
  8
LAYER-1
 66
  1
 70
  1
 62
  0
 10
3.389193
 20
0.069639
 30
0.000000
  0
VERTEX
  8
LAYER-1
 10
3.389193
 20
0.069639
 30
0.000000
  0
VERTEX
  8
LAYER-1
 10
3.347325
 20
0.075846
 30
0.000000
  0
VERTEX
  8
LAYER-1
 10
3.338495
 20
0.053168
 30
0.000000
  0
SEQEND
  8
LAYER-1
  0
POLYLINE
  8
LAYER-1
 66
  1
 70
  1
 62
  0
 10
3.212461
 20
0.084916
 30
0.000000
  0
VERTEX
  8
LAYER-1
 10
3.212461
 20
0.084916
 30
0.000000
  0
VERTEX
  8
LAYER-1
 10
3.202024
 20
0.098524
 30
0.000000
  0
VERTEX
  8
LAYER-1
 10
3.193194
 20
0.075846
 30
0.000000
  0
SEQEND
  8
LAYER-1
  0
POLYLINE
  8
LAYER-1
 66
  1
 70
  1
 62
  0
 10
3.253342
 20
0.133650
 30
0.000000
  0
VERTEX
  8
LAYER-1
 10
3.253342
 20
0.133650
 30
0.000000
  0
VERTEX
  8
LAYER-1
 10
3.239405
 20
0.124926
 30
0.000000
  0
VERTEX
  8
LAYER-1
 10
3.257216
 20
0.110475
 30
0.000000
  0
SEQEND
  8
LAYER-1
  0
POLYLINE
  8
LAYER-1
 66
  1
 70
  1
 62
  0
 10
3.174261
 20
0.212686
 30
0.000000
  0
VERTEX
  8
LAYER-1
 10
3.174261
 20
0.212686
 30
0.000000
  0
VERTEX
  8
LAYER-1
 10
3.162220
 20
0.200894
 30
0.000000
  0
VERTEX
  8
LAYER-1
 10
3.182290
 20
0.190915
 30
0.000000
  0
SEQEND
  8
LAYER-1
  0
POLYLINE
  8
LAYER-1
 66
  1
 70
  1
 62
  0
 10
3.253335
 20
0.188649
 30
0.000000
  0
VERTEX
  8
LAYER-1
 10
3.253335
 20
0.188649
 30
0.000000
  0
VERTEX
  8
LAYER-1
 10
3.263771
 20
0.175040
 30
0.000000
  0
VERTEX
  8
LAYER-1
 10
3.272601
 20
0.197718
 30
0.000000
  0
SEQEND
  8
LAYER-1
  0
POLYLINE
  8
LAYER-1
 66
  1
 70
  1
 62
  0
 10
3.438371
 20
0.232642
 30
0.000000
  0
VERTEX
  8
LAYER-1
 10
3.438371
 20
0.232642
 30
0.000000
  0
VERTEX
  8
LAYER-1
 10
3.416972
 20
0.217207
 30
0.000000
  0
VERTEX
  8
LAYER-1
 10
3.444749
 20
0.182486
 30
0.000000
  0
SEQEND
  8
LAYER-1
  0
POLYLINE
  8
LAYER-1
 66
  1
 70
  1
 62
  0
 10
3.529768
 20
0.212684
 30
0.000000
  0
VERTEX
  8
LAYER-1
 10
3.529768
 20
0.212684
 30
0.000000
  0
VERTEX
  8
LAYER-1
 10
3.540727
 20
0.198397
 30
0.000000
  0
VERTEX
  8
LAYER-1
 10
3.549997
 20
0.222208
 30
0.000000
  0
SEQEND
  8
LAYER-1
  0
POLYLINE
  8
LAYER-1
 66
  1
 70
  1
 62
  0
 10
3.967338
 20
0.181032
 30
0.000000
  0
VERTEX
  8
LAYER-1
 10
3.967338
 20
0.181032
 30
0.000000
  0
VERTEX
  8
LAYER-1
 10
3.948222
 20
0.206791
 30
0.000000
  0
VERTEX
  8
LAYER-1
 10
3.925531
 20
0.172570
 30
0.000000
  0
SEQEND
  8
LAYER-1
  0
POLYLINE
  8
LAYER-1
 66
  1
 70
  1
 62
  0
 10
3.882338
 20
0.212684
 30
0.000000
  0
VERTEX
  8
LAYER-1
 10
3.882338
 20
0.212684
 30
0.000000
  0
VERTEX
  8
LAYER-1
 10
3.867703
 20
0.203522
 30
0.000000
  0
VERTEX
  8
LAYER-1
 10
3.886406
 20
0.188349
 30
0.000000
  0
SEQEND
  8
LAYER-1
  0
POLYLINE
  8
LAYER-1
 66
  1
 70
  1
 62
  0
 10
3.686851
 20
0.185323
 30
0.000000
  0
VERTEX
  8
LAYER-1
 10
3.686851
 20
0.185323
 30
0.000000
  0
VERTEX
  8
LAYER-1
 10
3.675892
 20
0.199612
 30
0.000000
  0
VERTEX
  8
LAYER-1
 10
3.666622
 20
0.175800
 30
0.000000
  0
SEQEND
  8
LAYER-1
  0
POLYLINE
  8
LAYER-1
 66
  1
 70
  1
 62
  0
 10
3.720790
 20
0.234568
 30
0.000000
  0
VERTEX
  8
LAYER-1
 10
3.720790
 20
0.234568
 30
0.000000
  0
VERTEX
  8
LAYER-1
 10
3.693987
 20
0.222557
 30
0.000000
  0
VERTEX
  8
LAYER-1
 10
3.736415
 20
0.194639
 30
0.000000
  0
SEQEND
  8
LAYER-1
  0
POLYLINE
  8
LAYER-1
 66
  1
 70
  1
 62
  0
 10
3.566276
 20
0.083526
 30
0.000000
  0
VERTEX
  8
LAYER-1
 10
3.566276
 20
0.083526
 30
0.000000
  0
VERTEX
  8
LAYER-1
 10
3.582686
 20
0.048277
 30
0.000000
  0
VERTEX
  8
LAYER-1
 10
3.597136
 20
0.066087
 30
0.000000
  0
SEQEND
  8
LAYER-1
  0
POLYLINE
  8
LAYER-1
 66
  1
 70
  1
 62
  0
 10
3.092499
 20
0.059477
 30
0.000000
  0
VERTEX
  8
LAYER-1
 10
3.092499
 20
0.059477
 30
0.000000
  0
VERTEX
  8
LAYER-1
 10
3.105143
 20
0.071860
 30
0.000000
  0
VERTEX
  8
LAYER-1
 10
3.084069
 20
0.082336
 30
0.000000
  0
SEQEND
  8
LAYER-1
  0
POLYLINE
  8
LAYER-1
 66
  1
 70
  1
 62
  0
 10
3.008073
 20
0.098803
 30
0.000000
  0
VERTEX
  8
LAYER-1
 10
3.008073
 20
0.098803
 30
0.000000
  0
VERTEX
  8
LAYER-1
 10
2.997113
 20
0.113090
 30
0.000000
  0
VERTEX
  8
LAYER-1
 10
2.987843
 20
0.089280
 30
0.000000
  0
SEQEND
  8
LAYER-1
  0
POLYLINE
  8
LAYER-1
 66
  1
 70
  1
 62
  0
 10
2.939025
 20
0.049604
 30
0.000000
  0
VERTEX
  8
LAYER-1
 10
2.939025
 20
0.049604
 30
0.000000
  0
VERTEX
  8
LAYER-1
 10
2.980581
 20
0.052717
 30
0.000000
  0
VERTEX
  8
LAYER-1
 10
2.930997
 20
0.071375
 30
0.000000
  0
SEQEND
  8
LAYER-1
  0
POLYLINE
  8
LAYER-1
 66
  1
 70
  1
 62
  0
 10
2.800856
 20
0.060429
 30
0.000000
  0
VERTEX
  8
LAYER-1
 10
2.800856
 20
0.060429
 30
0.000000
  0
VERTEX
  8
LAYER-1
 10
2.813499
 20
0.072812
 30
0.000000
  0
VERTEX
  8
LAYER-1
 10
2.792427
 20
0.083288
 30
0.000000
  0
SEQEND
  8
LAYER-1
  0
POLYLINE
  8
LAYER-1
 66
  1
 70
  1
 62
  0
 10
2.517644
 20
0.031854
 30
0.000000
  0
VERTEX
  8
LAYER-1
 10
2.517644
 20
0.031854
 30
0.000000
  0
VERTEX
  8
LAYER-1
 10
2.530287
 20
0.044237
 30
0.000000
  0
VERTEX
  8
LAYER-1
 10
2.509214
 20
0.054714
 30
0.000000
  0
SEQEND
  8
LAYER-1
  0
POLYLINE
  8
LAYER-1
 66
  1
 70
  1
 62
  0
 10
2.505874
 20
0.067826
 30
0.000000
  0
VERTEX
  8
LAYER-1
 10
2.505874
 20
0.067826
 30
0.000000
  0
VERTEX
  8
LAYER-1
 10
2.464006
 20
0.074033
 30
0.000000
  0
VERTEX
  8
LAYER-1
 10
2.455176
 20
0.051355
 30
0.000000
  0
SEQEND
  8
LAYER-1
  0
POLYLINE
  8
LAYER-1
 66
  1
 70
  1
 62
  0
 10
2.555053
 20
0.230829
 30
0.000000
  0
VERTEX
  8
LAYER-1
 10
2.555053
 20
0.230829
 30
0.000000
  0
VERTEX
  8
LAYER-1
 10
2.533652
 20
0.215395
 30
0.000000
  0
VERTEX
  8
LAYER-1
 10
2.561430
 20
0.180673
 30
0.000000
  0
SEQEND
  8
LAYER-1
  0
POLYLINE
  8
LAYER-1
 66
  1
 70
  1
 62
  0
 10
2.602284
 20
0.210781
 30
0.000000
  0
VERTEX
  8
LAYER-1
 10
2.602284
 20
0.210781
 30
0.000000
  0
VERTEX
  8
LAYER-1
 10
2.613242
 20
0.196494
 30
0.000000
  0
VERTEX
  8
LAYER-1
 10
2.622513
 20
0.220305
 30
0.000000
  0
SEQEND
  8
LAYER-1
  0
POLYLINE
  8
LAYER-1
 66
  1
 70
  1
 62
  0
 10
3.084021
 20
0.179220
 30
0.000000
  0
VERTEX
  8
LAYER-1
 10
3.084021
 20
0.179220
 30
0.000000
  0
VERTEX
  8
LAYER-1
 10
3.064903
 20
0.204977
 30
0.000000
  0
VERTEX
  8
LAYER-1
 10
3.042213
 20
0.170757
 30
0.000000
  0
SEQEND
  8
LAYER-1
  0
POLYLINE
  8
LAYER-1
 66
  1
 70
  1
 62
  0
 10
2.954854
 20
0.210781
 30
0.000000
  0
VERTEX
  8
LAYER-1
 10
2.954854
 20
0.210781
 30
0.000000
  0
VERTEX
  8
LAYER-1
 10
2.940218
 20
0.201619
 30
0.000000
  0
VERTEX
  8
LAYER-1
 10
2.958922
 20
0.186445
 30
0.000000
  0
SEQEND
  8
LAYER-1
  0
POLYLINE
  8
LAYER-1
 66
  1
 70
  1
 62
  0
 10
2.759366
 20
0.183420
 30
0.000000
  0
VERTEX
  8
LAYER-1
 10
2.759366
 20
0.183420
 30
0.000000
  0
VERTEX
  8
LAYER-1
 10
2.748407
 20
0.197709
 30
0.000000
  0
VERTEX
  8
LAYER-1
 10
2.739136
 20
0.173897
 30
0.000000
  0
SEQEND
  8
LAYER-1
  0
POLYLINE
  8
LAYER-1
 66
  1
 70
  1
 62
  0
 10
2.837471
 20
0.232756
 30
0.000000
  0
VERTEX
  8
LAYER-1
 10
2.837471
 20
0.232756
 30
0.000000
  0
VERTEX
  8
LAYER-1
 10
2.810668
 20
0.220745
 30
0.000000
  0
VERTEX
  8
LAYER-1
 10
2.853096
 20
0.192826
 30
0.000000
  0
SEQEND
  8
LAYER-1
  0
POLYLINE
  8
LAYER-1
 66
  1
 70
  1
 62
  0
 10
2.661757
 20
0.140818
 30
0.000000
  0
VERTEX
  8
LAYER-1
 10
2.661757
 20
0.140818
 30
0.000000
  0
VERTEX
  8
LAYER-1
 10
2.668702
 20
0.083528
 30
0.000000
  0
VERTEX
  8
LAYER-1
 10
2.698192
 20
0.100731
 30
0.000000
  0
SEQEND
  8
LAYER-1
  0
POLYLINE
  8
LAYER-1
 66
  1
 70
  0
 62
  0
 10
3.112535
 20
0.590552
 30
0.000000
  0
VERTEX
  8
LAYER-1
 10
3.112535
 20
0.590552
 30
0.000000
  0
VERTEX
  8
LAYER-1
 10
3.146182
 20
0.610468
 30
0.000000
  0
SEQEND
  8
LAYER-1
  0
POLYLINE
  8
LAYER-1
 66
  1
 70
  0
 62
  0
 10
3.112535
 20
0.590552
 30
0.000000
  0
VERTEX
  8
LAYER-1
 10
3.112535
 20
0.590552
 30
0.000000
  0
VERTEX
  8
LAYER-1
 10
3.112535
 20
0.586431
 30
0.000000
  0
SEQEND
  8
LAYER-1
  0
POLYLINE
  8
LAYER-1
 66
  1
 70
  1
 62
  0
  0
VERTEX
  8
LAYER-1
 10
3.161101
 20
0.586390
 30
0.000000
  0
VERTEX
  8
LAYER-1
 10
3.310107
 20
0.586390
 30
0.000000
  0
VERTEX
  8
LAYER-1
 10
3.310107
 20
0.092234
 30
0.000000
  0
VERTEX
  8
LAYER-1
 10
3.161101
 20
0.092234
 30
0.000000
  0
SEQEND
  8
LAYER-1
  0
POLYLINE
  8
LAYER-1
  6
LTYPE01
 66
  1
 70
  1
 62
  0
  0
VERTEX
  8
LAYER-1
  6
LTYPE01
 10
3.173460
 20
0.610424
 30
0.000000
  0
VERTEX
  8
LAYER-1
  6
LTYPE01
 10
3.297061
 20
0.610424
 30
0.000000
  0
VERTEX
  8
LAYER-1
  6
LTYPE01
 10
3.297061
 20
0.117408
 30
0.000000
  0
VERTEX
  8
LAYER-1
  6
LTYPE01
 10
3.173460
 20
0.117408
 30
0.000000
  0
SEQEND
  8
LAYER-1
  0
POLYLINE
  8
LAYER-1
 66
  1
 70
  0
 62
  0
 10
3.112535
 20
0.586431
 30
0.000000
  0
VERTEX
  8
LAYER-1
 10
3.112535
 20
0.586431
 30
0.000000
  0
VERTEX
  8
LAYER-1
 10
3.359048
 20
0.586431
 30
0.000000
  0
SEQEND
  8
LAYER-1
  0
POLYLINE
  8
LAYER-1
 66
  1
 70
  0
 62
  0
 10
3.359048
 20
0.586431
 30
0.000000
  0
VERTEX
  8
LAYER-1
 10
3.359048
 20
0.586431
 30
0.000000
  0
VERTEX
  8
LAYER-1
 10
3.359048
 20
0.590552
 30
0.000000
  0
SEQEND
  8
LAYER-1
  0
POLYLINE
  8
LAYER-1
 66
  1
 70
  0
 62
  0
 10
3.359048
 20
0.590552
 30
0.000000
  0
VERTEX
  8
LAYER-1
 10
3.359048
 20
0.590552
 30
0.000000
  0
VERTEX
  8
LAYER-1
 10
3.324716
 20
0.610468
 30
0.000000
  0
SEQEND
  8
LAYER-1
  0
POLYLINE
  8
LAYER-1
  6
LTYPE02
 66
  1
 70
  0
 62
  0
  6
LTYPE02
 10
3.176738
 20
0.345072
 30
0.000000
  0
VERTEX
  8
LAYER-1
  6
LTYPE02
 10
3.176738
 20
0.345072
 30
0.000000
  0
VERTEX
  8
LAYER-1
  6
LTYPE02
 10
3.176738
 20
0.255808
 30
0.000000
  0
SEQEND
  8
LAYER-1
  0
POLYLINE
  8
LAYER-1
  6
LTYPE02
 66
  1
 70
  0
 62
  0
  6
LTYPE02
 10
3.187028
 20
0.345072
 30
0.000000
  0
VERTEX
  8
LAYER-1
  6
LTYPE02
 10
3.187028
 20
0.345072
 30
0.000000
  0
VERTEX
  8
LAYER-1
  6
LTYPE02
 10
3.176738
 20
0.345072
 30
0.000000
  0
SEQEND
  8
LAYER-1
  0
POLYLINE
  8
LAYER-1
  6
LTYPE02
 66
  1
 70
  0
 62
  0
  6
LTYPE02
 10
3.187028
 20
0.345072
 30
0.000000
  0
VERTEX
  8
LAYER-1
  6
LTYPE02
 10
3.187028
 20
0.345072
 30
0.000000
  0
VERTEX
  8
LAYER-1
  6
LTYPE02
 10
3.187028
 20
0.356745
 30
0.000000
  0
SEQEND
  8
LAYER-1
  0
POLYLINE
  8
LAYER-1
  6
LTYPE02
 66
  1
 70
  0
 62
  0
  6
LTYPE02
 10
3.187028
 20
0.356745
 30
0.000000
  0
VERTEX
  8
LAYER-1
  6
LTYPE02
 10
3.187028
 20
0.356745
 30
0.000000
  0
VERTEX
  8
LAYER-1
  6
LTYPE02
 10
3.285143
 20
0.356745
 30
0.000000
  0
SEQEND
  8
LAYER-1
  0
POLYLINE
  8
LAYER-1
  6
LTYPE02
 66
  1
 70
  0
 62
  0
  6
LTYPE02
 10
3.176738
 20
0.255808
 30
0.000000
  0
VERTEX
  8
LAYER-1
  6
LTYPE02
 10
3.176738
 20
0.255808
 30
0.000000
  0
VERTEX
  8
LAYER-1
  6
LTYPE02
 10
3.293472
 20
0.255808
 30
0.000000
  0
SEQEND
  8
LAYER-1
  0
POLYLINE
  8
LAYER-1
  6
LTYPE02
 66
  1
 70
  0
 62
  0
  6
LTYPE02
 10
3.293472
 20
0.255808
 30
0.000000
  0
VERTEX
  8
LAYER-1
  6
LTYPE02
 10
3.293472
 20
0.255808
 30
0.000000
  0
VERTEX
  8
LAYER-1
  6
LTYPE02
 10
3.293472
 20
0.345072
 30
0.000000
  0
SEQEND
  8
LAYER-1
  0
POLYLINE
  8
LAYER-1
  6
LTYPE02
 66
  1
 70
  0
 62
  0
  6
LTYPE02
 10
3.285143
 20
0.345072
 30
0.000000
  0
VERTEX
  8
LAYER-1
  6
LTYPE02
 10
3.285143
 20
0.345072
 30
0.000000
  0
VERTEX
  8
LAYER-1
  6
LTYPE02
 10
3.293472
 20
0.345072
 30
0.000000
  0
SEQEND
  8
LAYER-1
  0
POLYLINE
  8
LAYER-1
  6
LTYPE02
 66
  1
 70
  0
 62
  0
  6
LTYPE02
 10
3.285143
 20
0.356745
 30
0.000000
  0
VERTEX
  8
LAYER-1
  6
LTYPE02
 10
3.285143
 20
0.356745
 30
0.000000
  0
VERTEX
  8
LAYER-1
  6
LTYPE02
 10
3.285143
 20
0.345072
 30
0.000000
  0
SEQEND
  8
LAYER-1
  0
POLYLINE
  8
LAYER-1
  6
LTYPE01
 66
  1
 70
  1
 62
  0
  0
VERTEX
  8
LAYER-1
  6
LTYPE01
 10
3.190267
 20
0.255426
 30
0.000000
  0
VERTEX
  8
LAYER-1
  6
LTYPE01
 10
3.280907
 20
0.255426
 30
0.000000
  0
VERTEX
  8
LAYER-1
  6
LTYPE01
 10
3.280907
 20
0.118094
 30
0.000000
  0
VERTEX
  8
LAYER-1
  6
LTYPE01
 10
3.190267
 20
0.118094
 30
0.000000
  0
SEQEND
  8
LAYER-1
  0
POLYLINE
  8
LAYER-1
  6
LTYPE02
 66
  1
 70
  0
 62
  0
  6
LTYPE02
 10
3.280907
 20
0.255426
 30
0.000000
  0
VERTEX
  8
LAYER-1
  6
LTYPE02
 10
3.280907
 20
0.255426
 30
0.000000
  0
VERTEX
  8
LAYER-1
  6
LTYPE02
 10
3.190267
 20
0.247871
 30
0.000000
  0
SEQEND
  8
LAYER-1
  0
POLYLINE
  8
LAYER-1
  6
LTYPE02
 66
  1
 70
  0
 62
  0
  6
LTYPE02
 10
3.280907
 20
0.251305
 30
0.000000
  0
VERTEX
  8
LAYER-1
  6
LTYPE02
 10
3.280907
 20
0.251305
 30
0.000000
  0
VERTEX
  8
LAYER-1
  6
LTYPE02
 10
3.190267
 20
0.243064
 30
0.000000
  0
SEQEND
  8
LAYER-1
  0
POLYLINE
  8
LAYER-1
  6
LTYPE02
 66
  1
 70
  0
 62
  0
  6
LTYPE02
 10
3.280907
 20
0.242380
 30
0.000000
  0
VERTEX
  8
LAYER-1
  6
LTYPE02
 10
3.280907
 20
0.242380
 30
0.000000
  0
VERTEX
  8
LAYER-1
  6
LTYPE02
 10
3.190267
 20
0.234824
 30
0.000000
  0
SEQEND
  8
LAYER-1
  0
POLYLINE
  8
LAYER-1
  6
LTYPE02
 66
  1
 70
  0
 62
  0
  6
LTYPE02
 10
3.280907
 20
0.238258
 30
0.000000
  0
VERTEX
  8
LAYER-1
  6
LTYPE02
 10
3.280907
 20
0.238258
 30
0.000000
  0
VERTEX
  8
LAYER-1
  6
LTYPE02
 10
3.190267
 20
0.230019
 30
0.000000
  0
SEQEND
  8
LAYER-1
  0
POLYLINE
  8
LAYER-1
  6
LTYPE02
 66
  1
 70
  0
 62
  0
  6
LTYPE02
 10
3.280907
 20
0.228818
 30
0.000000
  0
VERTEX
  8
LAYER-1
  6
LTYPE02
 10
3.280907
 20
0.228818
 30
0.000000
  0
VERTEX
  8
LAYER-1
  6
LTYPE02
 10
3.190267
 20
0.221262
 30
0.000000
  0
SEQEND
  8
LAYER-1
  0
POLYLINE
  8
LAYER-1
  6
LTYPE02
 66
  1
 70
  0
 62
  0
  6
LTYPE02
 10
3.280907
 20
0.224700
 30
0.000000
  0
VERTEX
  8
LAYER-1
  6
LTYPE02
 10
3.280907
 20
0.224700
 30
0.000000
  0
VERTEX
  8
LAYER-1
  6
LTYPE02
 10
3.190267
 20
0.216457
 30
0.000000
  0
SEQEND
  8
LAYER-1
  0
POLYLINE
  8
LAYER-1
  6
LTYPE02
 66
  1
 70
  0
 62
  0
  6
LTYPE02
 10
3.280735
 20
0.216971
 30
0.000000
  0
VERTEX
  8
LAYER-1
  6
LTYPE02
 10
3.280735
 20
0.216971
 30
0.000000
  0
VERTEX
  8
LAYER-1
  6
LTYPE02
 10
3.190095
 20
0.209419
 30
0.000000
  0
SEQEND
  8
LAYER-1
  0
POLYLINE
  8
LAYER-1
  6
LTYPE02
 66
  1
 70
  0
 62
  0
  6
LTYPE02
 10
3.280735
 20
0.212853
 30
0.000000
  0
VERTEX
  8
LAYER-1
  6
LTYPE02
 10
3.280735
 20
0.212853
 30
0.000000
  0
VERTEX
  8
LAYER-1
  6
LTYPE02
 10
3.190095
 20
0.204615
 30
0.000000
  0
SEQEND
  8
LAYER-1
  0
POLYLINE
  8
LAYER-1
  6
LTYPE02
 66
  1
 70
  0
 62
  0
  6
LTYPE02
 10
3.280735
 20
0.204271
 30
0.000000
  0
VERTEX
  8
LAYER-1
  6
LTYPE02
 10
3.280735
 20
0.204271
 30
0.000000
  0
VERTEX
  8
LAYER-1
  6
LTYPE02
 10
3.190095
 20
0.196716
 30
0.000000
  0
SEQEND
  8
LAYER-1
  0
POLYLINE
  8
LAYER-1
  6
LTYPE02
 66
  1
 70
  0
 62
  0
  6
LTYPE02
 10
3.280735
 20
0.200149
 30
0.000000
  0
VERTEX
  8
LAYER-1
  6
LTYPE02
 10
3.280735
 20
0.200149
 30
0.000000
  0
VERTEX
  8
LAYER-1
  6
LTYPE02
 10
3.190095
 20
0.191908
 30
0.000000
  0
SEQEND
  8
LAYER-1
  0
POLYLINE
  8
LAYER-1
  6
LTYPE02
 66
  1
 70
  0
 62
  0
  6
LTYPE02
 10
3.280735
 20
0.191224
 30
0.000000
  0
VERTEX
  8
LAYER-1
  6
LTYPE02
 10
3.280735
 20
0.191224
 30
0.000000
  0
VERTEX
  8
LAYER-1
  6
LTYPE02
 10
3.190095
 20
0.183668
 30
0.000000
  0
SEQEND
  8
LAYER-1
  0
POLYLINE
  8
LAYER-1
  6
LTYPE02
 66
  1
 70
  0
 62
  0
  6
LTYPE02
 10
3.280735
 20
0.187103
 30
0.000000
  0
VERTEX
  8
LAYER-1
  6
LTYPE02
 10
3.280735
 20
0.187103
 30
0.000000
  0
VERTEX
  8
LAYER-1
  6
LTYPE02
 10
3.190095
 20
0.178861
 30
0.000000
  0
SEQEND
  8
LAYER-1
  0
POLYLINE
  8
LAYER-1
  6
LTYPE02
 66
  1
 70
  0
 62
  0
  6
LTYPE02
 10
3.280735
 20
0.177661
 30
0.000000
  0
VERTEX
  8
LAYER-1
  6
LTYPE02
 10
3.280735
 20
0.177661
 30
0.000000
  0
VERTEX
  8
LAYER-1
  6
LTYPE02
 10
3.190095
 20
0.170108
 30
0.000000
  0
SEQEND
  8
LAYER-1
  0
POLYLINE
  8
LAYER-1
  6
LTYPE02
 66
  1
 70
  0
 62
  0
  6
LTYPE02
 10
3.280735
 20
0.173542
 30
0.000000
  0
VERTEX
  8
LAYER-1
  6
LTYPE02
 10
3.280735
 20
0.173542
 30
0.000000
  0
VERTEX
  8
LAYER-1
  6
LTYPE02
 10
3.190095
 20
0.165303
 30
0.000000
  0
SEQEND
  8
LAYER-1
  0
POLYLINE
  8
LAYER-1
  6
LTYPE02
 66
  1
 70
  0
 62
  0
  6
LTYPE02
 10
3.280563
 20
0.165816
 30
0.000000
  0
VERTEX
  8
LAYER-1
  6
LTYPE02
 10
3.280563
 20
0.165816
 30
0.000000
  0
VERTEX
  8
LAYER-1
  6
LTYPE02
 10
3.189924
 20
0.158264
 30
0.000000
  0
SEQEND
  8
LAYER-1
  0
POLYLINE
  8
LAYER-1
  6
LTYPE02
 66
  1
 70
  0
 62
  0
  6
LTYPE02
 10
3.280563
 20
0.161698
 30
0.000000
  0
VERTEX
  8
LAYER-1
  6
LTYPE02
 10
3.280563
 20
0.161698
 30
0.000000
  0
VERTEX
  8
LAYER-1
  6
LTYPE02
 10
3.189924
 20
0.153456
 30
0.000000
  0
SEQEND
  8
LAYER-1
  0
POLYLINE
  8
LAYER-1
  6
LTYPE02
 66
  1
 70
  0
 62
  0
  6
LTYPE02
 10
3.280907
 20
0.154316
 30
0.000000
  0
VERTEX
  8
LAYER-1
  6
LTYPE02
 10
3.280907
 20
0.154316
 30
0.000000
  0
VERTEX
  8
LAYER-1
  6
LTYPE02
 10
3.190267
 20
0.146762
 30
0.000000
  0
SEQEND
  8
LAYER-1
  0
POLYLINE
  8
LAYER-1
  6
LTYPE02
 66
  1
 70
  0
 62
  0
  6
LTYPE02
 10
3.280907
 20
0.150196
 30
0.000000
  0
VERTEX
  8
LAYER-1
  6
LTYPE02
 10
3.280907
 20
0.150196
 30
0.000000
  0
VERTEX
  8
LAYER-1
  6
LTYPE02
 10
3.190267
 20
0.141954
 30
0.000000
  0
SEQEND
  8
LAYER-1
  0
POLYLINE
  8
LAYER-1
  6
LTYPE02
 66
  1
 70
  0
 62
  0
  6
LTYPE02
 10
3.280907
 20
0.141268
 30
0.000000
  0
VERTEX
  8
LAYER-1
  6
LTYPE02
 10
3.280907
 20
0.141268
 30
0.000000
  0
VERTEX
  8
LAYER-1
  6
LTYPE02
 10
3.190267
 20
0.133715
 30
0.000000
  0
SEQEND
  8
LAYER-1
  0
POLYLINE
  8
LAYER-1
  6
LTYPE02
 66
  1
 70
  0
 62
  0
  6
LTYPE02
 10
3.280907
 20
0.137149
 30
0.000000
  0
VERTEX
  8
LAYER-1
  6
LTYPE02
 10
3.280907
 20
0.137149
 30
0.000000
  0
VERTEX
  8
LAYER-1
  6
LTYPE02
 10
3.190267
 20
0.128910
 30
0.000000
  0
SEQEND
  8
LAYER-1
  0
POLYLINE
  8
LAYER-1
  6
LTYPE02
 66
  1
 70
  0
 62
  0
  6
LTYPE02
 10
3.280907
 20
0.127707
 30
0.000000
  0
VERTEX
  8
LAYER-1
  6
LTYPE02
 10
3.280907
 20
0.127707
 30
0.000000
  0
VERTEX
  8
LAYER-1
  6
LTYPE02
 10
3.190267
 20
0.120154
 30
0.000000
  0
SEQEND
  8
LAYER-1
  0
POLYLINE
  8
LAYER-1
  6
LTYPE02
 66
  1
 70
  0
 62
  0
  6
LTYPE02
 10
3.280907
 20
0.123587
 30
0.000000
  0
VERTEX
  8
LAYER-1
  6
LTYPE02
 10
3.280907
 20
0.123587
 30
0.000000
  0
VERTEX
  8
LAYER-1
  6
LTYPE02
 10
3.220309
 20
0.118094
 30
0.000000
  0
SEQEND
  8
LAYER-1
  0
POLYLINE
  8
LAYER-1
 66
  1
 70
  0
 62
  0
 10
3.146182
 20
0.610468
 30
0.000000
  0
VERTEX
  8
LAYER-1
 10
3.146182
 20
0.610468
 30
0.000000
  0
VERTEX
  8
LAYER-1
 10
3.324716
 20
0.610468
 30
0.000000
  0
SEQEND
  8
LAYER-1
  0
POLYLINE
  8
LAYER-1
 66
  1
 70
  0
 62
  0
 10
3.339553
 20
4.175788
 30
0.000000
  0
VERTEX
  8
LAYER-1
 10
3.339553
 20
4.175788
 30
0.000000
  0
VERTEX
  8
LAYER-1
 10
3.330790
 20
4.194162
 30
0.000000
  0
VERTEX
  8
LAYER-1
 10
3.314384
 20
4.200957
 30
0.000000
  0
VERTEX
  8
LAYER-1
 10
3.297979
 20
4.194162
 30
0.000000
  0
VERTEX
  8
LAYER-1
 10
3.293152
 20
4.175788
 30
0.000000
  0
SEQEND
  8
LAYER-1
  0
POLYLINE
  8
LAYER-1
 66
  1
 70
  0
 62
  0
 10
3.293152
 20
4.175788
 30
0.000000
  0
VERTEX
  8
LAYER-1
 10
3.293152
 20
4.175788
 30
0.000000
  0
VERTEX
  8
LAYER-1
 10
3.293152
 20
3.989131
 30
0.000000
  0
SEQEND
  8
LAYER-1
  0
POLYLINE
  8
LAYER-1
 66
  1
 70
  0
 62
  0
 10
3.339553
 20
4.175788
 30
0.000000
  0
VERTEX
  8
LAYER-1
 10
3.339553
 20
4.175788
 30
0.000000
  0
VERTEX
  8
LAYER-1
 10
3.339553
 20
3.989131
 30
0.000000
  0
SEQEND
  8
LAYER-1
  0
POLYLINE
  8
LAYER-1
 66
  1
 70
  0
 62
  0
 10
3.293152
 20
3.989131
 30
0.000000
  0
VERTEX
  8
LAYER-1
 10
3.293152
 20
3.989131
 30
0.000000
  0
VERTEX
  8
LAYER-1
 10
3.297979
 20
3.974695
 30
0.000000
  0
VERTEX
  8
LAYER-1
 10
3.314384
 20
3.967900
 30
0.000000
  0
VERTEX
  8
LAYER-1
 10
3.330790
 20
3.974695
 30
0.000000
  0
VERTEX
  8
LAYER-1
 10
3.339553
 20
3.989131
 30
0.000000
  0
SEQEND
  8
LAYER-1
  0
POLYLINE
  8
LAYER-1
 66
  1
 70
  0
 62
  0
 10
3.175567
 20
4.175788
 30
0.000000
  0
VERTEX
  8
LAYER-1
 10
3.175567
 20
4.175788
 30
0.000000
  0
VERTEX
  8
LAYER-1
 10
3.166803
 20
4.194162
 30
0.000000
  0
VERTEX
  8
LAYER-1
 10
3.150397
 20
4.200957
 30
0.000000
  0
VERTEX
  8
LAYER-1
 10
3.133992
 20
4.194162
 30
0.000000
  0
VERTEX
  8
LAYER-1
 10
3.129165
 20
4.175788
 30
0.000000
  0
SEQEND
  8
LAYER-1
  0
POLYLINE
  8
LAYER-1
 66
  1
 70
  0
 62
  0
 10
3.129166
 20
4.175788
 30
0.000000
  0
VERTEX
  8
LAYER-1
 10
3.129166
 20
4.175788
 30
0.000000
  0
VERTEX
  8
LAYER-1
 10
3.129166
 20
3.989131
 30
0.000000
  0
SEQEND
  8
LAYER-1
  0
POLYLINE
  8
LAYER-1
 66
  1
 70
  0
 62
  0
 10
3.175568
 20
4.175788
 30
0.000000
  0
VERTEX
  8
LAYER-1
 10
3.175568
 20
4.175788
 30
0.000000
  0
VERTEX
  8
LAYER-1
 10
3.175568
 20
3.989131
 30
0.000000
  0
SEQEND
  8
LAYER-1
  0
POLYLINE
  8
LAYER-1
 66
  1
 70
  0
 62
  0
 10
3.129165
 20
3.989131
 30
0.000000
  0
VERTEX
  8
LAYER-1
 10
3.129165
 20
3.989131
 30
0.000000
  0
VERTEX
  8
LAYER-1
 10
3.133992
 20
3.974695
 30
0.000000
  0
VERTEX
  8
LAYER-1
 10
3.150397
 20
3.967900
 30
0.000000
  0
VERTEX
  8
LAYER-1
 10
3.166803
 20
3.974695
 30
0.000000
  0
VERTEX
  8
LAYER-1
 10
3.175567
 20
3.989131
 30
0.000000
  0
SEQEND
  8
LAYER-1
  0
POLYLINE
  8
LAYER-1
 66
  1
 70
  1
 62
  0
  0
VERTEX
  8
LAYER-1
 10
3.205841
 20
4.031841
 30
0.000000
  0
VERTEX
  8
LAYER-1
 10
3.261296
 20
4.031841
 30
0.000000
  0
VERTEX
  8
LAYER-1
 10
3.261296
 20
3.748352
 30
0.000000
  0
VERTEX
  8
LAYER-1
 10
3.205841
 20
3.748352
 30
0.000000
  0
SEQEND
  8
LAYER-1
  0
POLYLINE
  8
LAYER-1
 66
  1
 70
  0
 62
  0
 10
2.594317
 20
3.748444
 30
0.000000
  0
VERTEX
  8
LAYER-1
 10
2.594317
 20
3.748444
 30
0.000000
  0
VERTEX
  8
LAYER-1
 10
3.876662
 20
3.748444
 30
0.000000
  0
SEQEND
  8
LAYER-1
  0
POLYLINE
  8
LAYER-1
 66
  1
 70
  0
 62
  0
 10
3.298766
 20
2.259261
 30
0.000000
  0
VERTEX
  8
LAYER-1
 10
3.298766
 20
2.259261
 30
0.000000
  0
VERTEX
  8
LAYER-1
 10
3.876662
 20
2.259261
 30
0.000000
  0
SEQEND
  8
LAYER-1
  0
POLYLINE
  8
LAYER-1
 66
  1
 70
  0
 62
  0
 10
3.138470
 20
2.259261
 30
0.000000
  0
VERTEX
  8
LAYER-1
 10
3.138470
 20
2.259261
 30
0.000000
  0
VERTEX
  8
LAYER-1
 10
2.594317
 20
2.259261
 30
0.000000
  0
SEQEND
  8
LAYER-1
  0
POLYLINE
  8
LAYER-1
 66
  1
 70
  0
 62
  0
 10
3.311420
 20
2.174896
 30
0.000000
  0
VERTEX
  8
LAYER-1
 10
3.311420
 20
2.174896
 30
0.000000
  0
VERTEX
  8
LAYER-1
 10
3.876662
 20
2.174896
 30
0.000000
  0
SEQEND
  8
LAYER-1
  0
POLYLINE
  8
LAYER-1
 66
  1
 70
  0
 62
  0
 10
3.151125
 20
2.174896
 30
0.000000
  0
VERTEX
  8
LAYER-1
 10
3.151125
 20
2.174896
 30
0.000000
  0
VERTEX
  8
LAYER-1
 10
2.594317
 20
2.174896
 30
0.000000
  0
SEQEND
  8
LAYER-1
  0
POLYLINE
  8
LAYER-1
 66
  1
 70
  0
 62
  0
 10
3.298766
 20
2.259261
 30
0.000000
  0
VERTEX
  8
LAYER-1
 10
3.298766
 20
2.259261
 30
0.000000
  0
VERTEX
  8
LAYER-1
 10
3.298766
 20
2.185443
 30
0.000000
  0
SEQEND
  8
LAYER-1
  0
POLYLINE
  8
LAYER-1
 66
  1
 70
  0
 62
  0
 10
3.138470
 20
2.259261
 30
0.000000
  0
VERTEX
  8
LAYER-1
 10
3.138470
 20
2.259261
 30
0.000000
  0
VERTEX
  8
LAYER-1
 10
3.138470
 20
2.293006
 30
0.000000
  0
SEQEND
  8
LAYER-1
  0
POLYLINE
  8
LAYER-1
 66
  1
 70
  0
 62
  0
 10
3.138470
 20
2.293006
 30
0.000000
  0
VERTEX
  8
LAYER-1
 10
3.138470
 20
2.293006
 30
0.000000
  0
VERTEX
  8
LAYER-1
 10
3.298766
 20
2.185443
 30
0.000000
  0
SEQEND
  8
LAYER-1
  0
POLYLINE
  8
LAYER-1
 66
  1
 70
  0
 62
  0
 10
3.311420
 20
2.103187
 30
0.000000
  0
VERTEX
  8
LAYER-1
 10
3.311420
 20
2.103187
 30
0.000000
  0
VERTEX
  8
LAYER-1
 10
3.311420
 20
2.174896
 30
0.000000
  0
SEQEND
  8
LAYER-1
  0
POLYLINE
  8
LAYER-1
 66
  1
 70
  0
 62
  0
 10
3.151125
 20
2.174896
 30
0.000000
  0
VERTEX
  8
LAYER-1
 10
3.151125
 20
2.174896
 30
0.000000
  0
VERTEX
  8
LAYER-1
 10
3.151125
 20
2.210752
 30
0.000000
  0
SEQEND
  8
LAYER-1
  0
POLYLINE
  8
LAYER-1
 66
  1
 70
  0
 62
  0
 10
3.151125
 20
2.210752
 30
0.000000
  0
VERTEX
  8
LAYER-1
 10
3.151125
 20
2.210752
 30
0.000000
  0
VERTEX
  8
LAYER-1
 10
3.311420
 20
2.103187
 30
0.000000
  0
SEQEND
  8
LAYER-1
  0
POLYLINE
  8
LAYER-1
 66
  1
 70
  0
 62
  0
 10
3.241279
 20
2.560727
 30
0.000000
  0
VERTEX
  8
LAYER-1
 10
3.241279
 20
2.560727
 30
0.000000
  0
VERTEX
  8
LAYER-1
 10
3.241279
 20
2.696552
 30
0.000000
  0
SEQEND
  8
LAYER-1
  0
POLYLINE
  8
LAYER-1
 66
  1
 70
  0
 62
  0
 10
2.435593
 20
2.697395
 30
0.000000
  0
VERTEX
  8
LAYER-1
 10
2.435593
 20
2.697395
 30
0.000000
  0
VERTEX
  8
LAYER-1
 10
2.435593
 20
2.555664
 30
0.000000
  0
SEQEND
  8
LAYER-1
  0
POLYLINE
  8
LAYER-1
 66
  1
 70
  0
 62
  0
 10
4.041897
 20
2.697395
 30
0.000000
  0
VERTEX
  8
LAYER-1
 10
4.041897
 20
2.697395
 30
0.000000
  0
VERTEX
  8
LAYER-1
 10
4.041897
 20
2.555664
 30
0.000000
  0
SEQEND
  8
LAYER-1
  0
POLYLINE
  8
LAYER-1
 66
  1
 70
  0
 62
  0
 10
2.455490
 20
2.626530
 30
0.000000
  0
VERTEX
  8
LAYER-1
 10
2.455490
 20
2.626530
 30
0.000000
  0
VERTEX
  8
LAYER-1
 10
3.222436
 20
2.626530
 30
0.000000
  0
SEQEND
  8
LAYER-1
  0
POLYLINE
  8
LAYER-1
 66
  1
 70
  1
 62
  0
  0
VERTEX
  8
LAYER-1
 10
2.435805
 20
2.626530
 30
0.000000
  0
VERTEX
  8
LAYER-1
 10
2.505249
 20
2.584864
 30
0.000000
  0
VERTEX
  8
LAYER-1
 10
2.505249
 20
2.626531
 30
0.000000
  0
VERTEX
  8
LAYER-1
 10
2.505249
 20
2.668198
 30
0.000000
  0
VERTEX
  8
LAYER-1
 10
2.435805
 20
2.626530
 30
0.000000
  0
SEQEND
  8
LAYER-1
  0
POLYLINE
  8
LAYER-1
 66
  1
 70
  1
 62
  0
  0
VERTEX
  8
LAYER-1
 10
3.242122
 20
2.626530
 30
0.000000
  0
VERTEX
  8
LAYER-1
 10
3.172678
 20
2.584863
 30
0.000000
  0
VERTEX
  8
LAYER-1
 10
3.172677
 20
2.626529
 30
0.000000
  0
VERTEX
  8
LAYER-1
 10
3.172677
 20
2.668196
 30
0.000000
  0
VERTEX
  8
LAYER-1
 10
3.242122
 20
2.626530
 30
0.000000
  0
SEQEND
  8
LAYER-1
  0
POLYLINE
  8
LAYER-1
 66
  1
 70
  0
 62
  0
 10
3.260753
 20
2.626530
 30
0.000000
  0
VERTEX
  8
LAYER-1
 10
3.260753
 20
2.626530
 30
0.000000
  0
VERTEX
  8
LAYER-1
 10
4.022424
 20
2.626530
 30
0.000000
  0
SEQEND
  8
LAYER-1
  0
POLYLINE
  8
LAYER-1
 66
  1
 70
  1
 62
  0
  0
VERTEX
  8
LAYER-1
 10
3.241068
 20
2.626530
 30
0.000000
  0
VERTEX
  8
LAYER-1
 10
3.310513
 20
2.584864
 30
0.000000
  0
VERTEX
  8
LAYER-1
 10
3.310513
 20
2.626531
 30
0.000000
  0
VERTEX
  8
LAYER-1
 10
3.310512
 20
2.668198
 30
0.000000
  0
VERTEX
  8
LAYER-1
 10
3.241068
 20
2.626530
 30
0.000000
  0
SEQEND
  8
LAYER-1
  0
POLYLINE
  8
LAYER-1
 66
  1
 70
  1
 62
  0
  0
VERTEX
  8
LAYER-1
 10
4.042109
 20
2.626530
 30
0.000000
  0
VERTEX
  8
LAYER-1
 10
3.972665
 20
2.584863
 30
0.000000
  0
VERTEX
  8
LAYER-1
 10
3.972665
 20
2.626529
 30
0.000000
  0
VERTEX
  8
LAYER-1
 10
3.972664
 20
2.668196
 30
0.000000
  0
VERTEX
  8
LAYER-1
 10
4.042109
 20
2.626530
 30
0.000000
  0
SEQEND
  8
LAYER-1
  0
TEXT
  8
LAYER-1
 62
  0
 10
2.759487
 20
2.685958
 30
0.000000
 40
0.104167
  1
4"
 72
  5
 11
2.967820
 21
2.685958
 31
0.000000
  0
TEXT
  8
LAYER-1
 62
  0
 10
2.592820
 20
2.463736
 30
0.000000
 40
0.104167
  1
102mm
 72
  5
 11
3.134487
 21
2.463736
 31
0.000000
  0
POLYLINE
  8
LAYER-1
 66
  1
 70
  0
 62
  0
 10
4.209902
 20
4.290487
 30
0.000000
  0
VERTEX
  8
LAYER-1
 10
4.209902
 20
4.290487
 30
0.000000
  0
VERTEX
  8
LAYER-1
 10
4.041172
 20
4.290487
 30
0.000000
  0
SEQEND
  8
LAYER-1
  0
POLYLINE
  8
LAYER-1
 66
  1
 70
  0
 62
  0
 10
4.209902
 20
3.946702
 30
0.000000
  0
VERTEX
  8
LAYER-1
 10
4.209902
 20
3.946702
 30
0.000000
  0
VERTEX
  8
LAYER-1
 10
4.045392
 20
3.946702
 30
0.000000
  0
SEQEND
  8
LAYER-1
  0
POLYLINE
  8
LAYER-1
 66
  1
 70
  0
 62
  0
 10
4.087573
 20
4.290487
 30
0.000000
  0
VERTEX
  8
LAYER-1
 10
4.087573
 20
4.290487
 30
0.000000
  0
VERTEX
  8
LAYER-1
 10
4.087573
 20
3.946702
 30
0.000000
  0
SEQEND
  8
LAYER-1
  0
LINE
  8
LAYER-1
 62
  0
 10
4.117036
 20
4.261024
 30
0.000000
 11
4.058110
 21
4.319949
 31
0.000000
  0
LINE
  8
LAYER-1
 62
  0
 10
4.117036
 20
3.917239
 30
0.000000
 11
4.058110
 21
3.976165
 31
0.000000
  0
TEXT
  8
LAYER-1
 62
  0
 10
4.217820
 20
4.116514
 30
0.000000
 40
0.104167
  1
1-1/2"  -  40mm
 72
  5
 11
5.273375
 21
4.116514
 31
0.000000
  0
POLYLINE
  8
LAYER-1
 66
  1
 70
  0
 62
  0
 10
3.064973
 20
4.856784
 30
0.000000
  0
VERTEX
  8
LAYER-1
 10
3.064973
 20
4.856784
 30
0.000000
  0
VERTEX
  8
LAYER-1
 10
3.064973
 20
4.646104
 30
0.000000
  0
SEQEND
  8
LAYER-1
  0
POLYLINE
  8
LAYER-1
 66
  1
 70
  0
 62
  0
 10
3.407579
 20
4.851225
 30
0.000000
  0
VERTEX
  8
LAYER-1
 10
3.407579
 20
4.851225
 30
0.000000
  0
VERTEX
  8
LAYER-1
 10
3.407579
 20
4.645813
 30
0.000000
  0
SEQEND
  8
LAYER-1
  0
POLYLINE
  8
LAYER-1
 66
  1
 70
  0
 62
  0
 10
3.064478
 20
4.824857
 30
0.000000
  0
VERTEX
  8
LAYER-1
 10
3.064478
 20
4.824857
 30
0.000000
  0
VERTEX
  8
LAYER-1
 10
3.408811
 20
4.824857
 30
0.000000
  0
SEQEND
  8
LAYER-1
  0
LINE
  8
LAYER-1
 62
  0
 10
3.093941
 20
4.854320
 30
0.000000
 11
3.035015
 21
4.795394
 31
0.000000
  0
LINE
  8
LAYER-1
 62
  0
 10
3.438274
 20
4.854320
 30
0.000000
 11
3.379349
 21
4.795394
 31
0.000000
  0
TEXT
  8
LAYER-1
 62
  0
 10
2.731709
 20
4.935958
 30
0.000000
 40
0.104167
  1
1-1/2"  -  38mm
 72
  5
 11
3.787264
 21
4.935958
 31
0.000000
  0
POLYLINE
  8
LAYER-1
 66
  1
 70
  1
 62
  0
  0
VERTEX
  8
LAYER-1
 10
3.407829
 20
4.289469
 30
0.000000
  0
VERTEX
  8
LAYER-1
 10
3.745288
 20
4.289469
 30
0.000000
  0
VERTEX
  8
LAYER-1
 10
3.745288
 20
4.044811
 30
0.000000
  0
VERTEX
  8
LAYER-1
 10
3.407829
 20
4.044811
 30
0.000000
  0
SEQEND
  8
LAYER-1
  0
POLYLINE
  8
LAYER-1
 66
  1
 70
  0
 62
  0
 10
3.407829
 20
4.289469
 30
0.000000
  0
VERTEX
  8
LAYER-1
 10
3.407829
 20
4.289469
 30
0.000000
  0
VERTEX
  8
LAYER-1
 10
3.745288
 20
4.044811
 30
0.000000
  0
SEQEND
  8
LAYER-1
  0
POLYLINE
  8
LAYER-1
 66
  1
 70
  0
 62
  0
 10
3.745288
 20
4.289469
 30
0.000000
  0
VERTEX
  8
LAYER-1
 10
3.745288
 20
4.289469
 30
0.000000
  0
VERTEX
  8
LAYER-1
 10
3.407829
 20
4.044811
 30
0.000000
  0
SEQEND
  8
LAYER-1
  0
POLYLINE
  8
LAYER-1
 66
  1
 70
  0
 62
  0
 40
0.027778
 41
0.027778
 10
3.467839
 20
3.946228
 30
0.000000
  0
VERTEX
  8
LAYER-1
 10
3.467839
 20
3.946228
 30
0.000000
  0
VERTEX
  8
LAYER-1
 10
3.406950
 20
3.946228
 30
0.000000
  0
SEQEND
  8
LAYER-1
  0
POLYLINE
  8
LAYER-1
 66
  1
 70
  0
 62
  0
 40
0.027778
 41
0.027778
 10
3.406950
 20
3.946228
 30
0.000000
  0
VERTEX
  8
LAYER-1
 10
3.406950
 20
3.946228
 30
0.000000
  0
VERTEX
  8
LAYER-1
 10
3.406950
 20
4.099585
 30
0.000000
  0
SEQEND
  8
LAYER-1
  0
POLYLINE
  8
LAYER-1
 66
  1
 70
  1
 62
  0
  0
VERTEX
  8
LAYER-1
 10
2.721766
 20
4.289421
 30
0.000000
  0
VERTEX
  8
LAYER-1
 10
3.059225
 20
4.289421
 30
0.000000
  0
VERTEX
  8
LAYER-1
 10
3.059225
 20
4.044763
 30
0.000000
  0
VERTEX
  8
LAYER-1
 10
2.721766
 20
4.044763
 30
0.000000
  0
SEQEND
  8
LAYER-1
  0
POLYLINE
  8
LAYER-1
 66
  1
 70
  0
 62
  0
 10
3.059225
 20
4.289421
 30
0.000000
  0
VERTEX
  8
LAYER-1
 10
3.059225
 20
4.289421
 30
0.000000
  0
VERTEX
  8
LAYER-1
 10
2.721766
 20
4.044763
 30
0.000000
  0
SEQEND
  8
LAYER-1
  0
POLYLINE
  8
LAYER-1
 66
  1
 70
  0
 62
  0
 10
2.721766
 20
4.289421
 30
0.000000
  0
VERTEX
  8
LAYER-1
 10
2.721766
 20
4.289421
 30
0.000000
  0
VERTEX
  8
LAYER-1
 10
3.059225
 20
4.044763
 30
0.000000
  0
SEQEND
  8
LAYER-1
  0
POLYLINE
  8
LAYER-1
 66
  1
 70
  0
 62
  0
 10
4.209482
 20
4.628859
 30
0.000000
  0
VERTEX
  8
LAYER-1
 10
4.209482
 20
4.628859
 30
0.000000
  0
VERTEX
  8
LAYER-1
 10
4.040753
 20
4.628859
 30
0.000000
  0
SEQEND
  8
LAYER-1
  0
POLYLINE
  8
LAYER-1
 66
  1
 70
  0
 62
  0
 10
4.209482
 20
4.290784
 30
0.000000
  0
VERTEX
  8
LAYER-1
 10
4.209482
 20
4.290784
 30
0.000000
  0
VERTEX
  8
LAYER-1
 10
4.044970
 20
4.290784
 30
0.000000
  0
SEQEND
  8
LAYER-1
  0
POLYLINE
  8
LAYER-1
 66
  1
 70
  0
 62
  0
 10
4.087152
 20
4.628859
 30
0.000000
  0
VERTEX
  8
LAYER-1
 10
4.087152
 20
4.628859
 30
0.000000
  0
VERTEX
  8
LAYER-1
 10
4.087152
 20
4.290784
 30
0.000000
  0
SEQEND
  8
LAYER-1
  0
LINE
  8
LAYER-1
 62
  0
 10
4.116615
 20
4.599396
 30
0.000000
 11
4.057689
 21
4.658322
 31
0.000000
  0
LINE
  8
LAYER-1
 62
  0
 10
4.116615
 20
4.261321
 30
0.000000
 11
4.057689
 21
4.320246
 31
0.000000
  0
TEXT
  8
LAYER-1
 62
  0
 10
4.217820
 20
4.477625
 30
0.000000
 40
0.104167
  1
1-1/2"  -  38mm
 72
  5
 11
5.273375
 21
4.477625
 31
0.000000
  0
TEXT
  8
LAYER-1
 62
  0
 10
3.009487
 20
5.102625
 30
0.000000
 40
0.083333
  1
MINIMO
 72
  5
 11
3.495598
 21
5.102625
 31
0.000000
  0
POLYLINE
  8
LAYER-1
 66
  1
 70
  0
 62
  0
 40
0.027778
 41
0.027778
 10
2.999228
 20
3.947242
 30
0.000000
  0
VERTEX
  8
LAYER-1
 10
2.999228
 20
3.947242
 30
0.000000
  0
VERTEX
  8
LAYER-1
 10
3.060118
 20
3.947242
 30
0.000000
  0
SEQEND
  8
LAYER-1
  0
POLYLINE
  8
LAYER-1
 66
  1
 70
  0
 62
  0
 40
0.027778
 41
0.027778
 10
3.060118
 20
3.947242
 30
0.000000
  0
VERTEX
  8
LAYER-1
 10
3.060118
 20
3.947242
 30
0.000000
  0
VERTEX
  8
LAYER-1
 10
3.060118
 20
4.100599
 30
0.000000
  0
SEQEND
  8
LAYER-1
  0
TEXT
  8
LAYER-1
 62
  0
 10
0.051153
 20
5.005402
 30
0.000000
 40
0.145833
  1
GUIDA NASCOSTA
 72
  5
 11
1.884487
 21
5.005402
 31
0.000000
  0
TEXT
  8
LAYER-1
 62
  0
 10
1.259487
 20
2.672069
 30
0.000000
 40
0.083333
  1
SPAZIO LIBERO
 72
  5
 11
2.134487
 21
2.672069
 31
0.000000
  0
TEXT
  8
LAYER-1
 62
  0
 10
1.259487
 20
2.547069
 30
0.000000
 40
0.083333
  1
MINIMO SU
 72
  5
 11
1.926153
 21
2.547069
 31
0.000000
  0
TEXT
  8
LAYER-1
 62
  0
 10
1.259487
 20
2.422069
 30
0.000000
 40
0.083333
  1
CIANSCUN LATO
 72
  5
 11
2.217820
 21
2.422069
 31
0.000000
  0
TEXT
  8
LAYER-1
 62
  0
 10
4.315042
 20
3.727625
 30
0.000000
 40
0.083333
  1
"J" MODANATURA
 72
  5
 11
5.342820
 21
3.727625
 31
0.000000
  0
TEXT
  8
LAYER-1
 62
  0
 10
4.315042
 20
3.602625
 30
0.000000
 40
0.083333
  1
SU CIASCUN LATO
 72
  5
 11
5.370598
 21
3.602625
 31
0.000000
  0
TEXT
  8
LAYER-1
 62
  0
 10
4.315042
 20
3.477625
 30
0.000000
 40
0.083333
  1
DI RECESSO
 72
  5
 11
5.051153
 21
3.477625
 31
0.000000
  0
POLYLINE
  8
LAYER-1
 66
  1
 70
  0
 62
  0
 10
1.471292
 20
4.168598
 30
0.000000
  0
VERTEX
  8
LAYER-1
 10
1.471292
 20
4.168598
 30
0.000000
  0
VERTEX
  8
LAYER-1
 10
3.038413
 20
4.168598
 30
0.000000
  0
SEQEND
  8
LAYER-1
  0
POLYLINE
  8
LAYER-1
 66
  1
 70
  1
 62
  0
  0
VERTEX
  8
LAYER-1
 10
3.058098
 20
4.168598
 30
0.000000
  0
VERTEX
  8
LAYER-1
 10
2.988654
 20
4.126931
 30
0.000000
  0
VERTEX
  8
LAYER-1
 10
2.988653
 20
4.168597
 30
0.000000
  0
VERTEX
  8
LAYER-1
 10
2.988653
 20
4.210264
 30
0.000000
  0
VERTEX
  8
LAYER-1
 10
3.058098
 20
4.168598
 30
0.000000
  0
SEQEND
  8
LAYER-1
  0
TEXT
  8
LAYER-1
 62
  0
 10
4.287264
 20
4.338736
 30
0.000000
 40
0.072917
  1
MINIMO  (ESEMPIO: SUPPORTO IN LEGNO)
 72
  5
 11
6.370598
 21
4.338736
 31
0.000000
  0
POLYLINE
  8
LAYER-1
 66
  1
 70
  0
 62
  0
 10
3.329380
 20
6.485665
 30
0.000000
  0
VERTEX
  8
LAYER-1
 10
3.329380
 20
6.485665
 30
0.000000
  0
VERTEX
  8
LAYER-1
 10
3.330730
 20
6.505237
 30
0.000000
  0
VERTEX
  8
LAYER-1
 10
3.331027
 20
6.508311
 30
0.000000
  0
SEQEND
  8
LAYER-1
  0
POLYLINE
  8
LAYER-1
 66
  1
 70
  0
 62
  0
 10
3.367714
 20
6.508308
 30
0.000000
  0
VERTEX
  8
LAYER-1
 10
3.367714
 20
6.508308
 30
0.000000
  0
VERTEX
  8
LAYER-1
 10
3.331027
 20
6.508311
 30
0.000000
  0
SEQEND
  8
LAYER-1
  0
POLYLINE
  8
LAYER-1
 66
  1
 70
  0
 62
  0
 10
3.367714
 20
6.508308
 30
0.000000
  0
VERTEX
  8
LAYER-1
 10
3.367714
 20
6.508308
 30
0.000000
  0
VERTEX
  8
LAYER-1
 10
3.375342
 20
6.515937
 30
0.000000
  0
SEQEND
  8
LAYER-1
  0
POLYLINE
  8
LAYER-1
 66
  1
 70
  0
 62
  0
 10
3.375343
 20
6.841081
 30
0.000000
  0
VERTEX
  8
LAYER-1
 10
3.375343
 20
6.841081
 30
0.000000
  0
VERTEX
  8
LAYER-1
 10
3.375343
 20
6.515937
 30
0.000000
  0
SEQEND
  8
LAYER-1
  0
POLYLINE
  8
LAYER-1
 66
  1
 70
  0
 62
  0
 10
3.375342
 20
6.841081
 30
0.000000
  0
VERTEX
  8
LAYER-1
 10
3.375342
 20
6.841081
 30
0.000000
  0
VERTEX
  8
LAYER-1
 10
3.367714
 20
6.848710
 30
0.000000
  0
SEQEND
  8
LAYER-1
  0
POLYLINE
  8
LAYER-1
 66
  1
 70
  0
 62
  0
 10
3.366108
 20
6.848709
 30
0.000000
  0
VERTEX
  8
LAYER-1
 10
3.366108
 20
6.848709
 30
0.000000
  0
VERTEX
  8
LAYER-1
 10
3.367714
 20
6.848709
 30
0.000000
  0
SEQEND
  8
LAYER-1
  0
POLYLINE
  8
LAYER-1
 66
  1
 70
  0
 62
  0
 10
3.366108
 20
6.848710
 30
0.000000
  0
VERTEX
  8
LAYER-1
 10
3.366108
 20
6.848710
 30
0.000000
  0
VERTEX
  8
LAYER-1
 10
3.358479
 20
6.841081
 30
0.000000
  0
SEQEND
  8
LAYER-1
  0
POLYLINE
  8
LAYER-1
 66
  1
 70
  0
 62
  0
 10
3.358480
 20
6.839622
 30
0.000000
  0
VERTEX
  8
LAYER-1
 10
3.358480
 20
6.839622
 30
0.000000
  0
VERTEX
  8
LAYER-1
 10
3.358480
 20
6.841081
 30
0.000000
  0
SEQEND
  8
LAYER-1
  0
POLYLINE
  8
LAYER-1
 66
  1
 70
  0
 62
  0
 10
3.350852
 20
6.831994
 30
0.000000
  0
VERTEX
  8
LAYER-1
 10
3.350852
 20
6.831994
 30
0.000000
  0
VERTEX
  8
LAYER-1
 10
3.358480
 20
6.839622
 30
0.000000
  0
SEQEND
  8
LAYER-1
  0
POLYLINE
  8
LAYER-1
 66
  1
 70
  0
 62
  0
 10
3.330853
 20
6.831994
 30
0.000000
  0
VERTEX
  8
LAYER-1
 10
3.330853
 20
6.831994
 30
0.000000
  0
VERTEX
  8
LAYER-1
 10
3.350852
 20
6.831994
 30
0.000000
  0
SEQEND
  8
LAYER-1
  0
POLYLINE
  8
LAYER-1
 66
  1
 70
  0
 62
  0
 10
3.323225
 20
6.839622
 30
0.000000
  0
VERTEX
  8
LAYER-1
 10
3.323225
 20
6.839622
 30
0.000000
  0
VERTEX
  8
LAYER-1
 10
3.330853
 20
6.831994
 30
0.000000
  0
SEQEND
  8
LAYER-1
  0
POLYLINE
  8
LAYER-1
 66
  1
 70
  0
 62
  0
 10
3.323225
 20
6.841081
 30
0.000000
  0
VERTEX
  8
LAYER-1
 10
3.323225
 20
6.841081
 30
0.000000
  0
VERTEX
  8
LAYER-1
 10
3.323225
 20
6.839622
 30
0.000000
  0
SEQEND
  8
LAYER-1
  0
POLYLINE
  8
LAYER-1
 66
  1
 70
  0
 62
  0
 10
3.323225
 20
6.841081
 30
0.000000
  0
VERTEX
  8
LAYER-1
 10
3.323225
 20
6.841081
 30
0.000000
  0
VERTEX
  8
LAYER-1
 10
3.315597
 20
6.848710
 30
0.000000
  0
SEQEND
  8
LAYER-1
  0
POLYLINE
  8
LAYER-1
 66
  1
 70
  0
 62
  0
 10
3.146908
 20
6.848710
 30
0.000000
  0
VERTEX
  8
LAYER-1
 10
3.146908
 20
6.848710
 30
0.000000
  0
VERTEX
  8
LAYER-1
 10
3.315597
 20
6.848709
 30
0.000000
  0
SEQEND
  8
LAYER-1
  0
POLYLINE
  8
LAYER-1
 66
  1
 70
  0
 62
  0
 10
3.146908
 20
6.848710
 30
0.000000
  0
VERTEX
  8
LAYER-1
 10
3.146908
 20
6.848710
 30
0.000000
  0
VERTEX
  8
LAYER-1
 10
3.139280
 20
6.841081
 30
0.000000
  0
SEQEND
  8
LAYER-1
  0
POLYLINE
  8
LAYER-1
 66
  1
 70
  0
 62
  0
 10
3.139280
 20
6.839622
 30
0.000000
  0
VERTEX
  8
LAYER-1
 10
3.139280
 20
6.839622
 30
0.000000
  0
VERTEX
  8
LAYER-1
 10
3.139280
 20
6.841081
 30
0.000000
  0
SEQEND
  8
LAYER-1
  0
POLYLINE
  8
LAYER-1
 66
  1
 70
  0
 62
  0
 10
3.131652
 20
6.831994
 30
0.000000
  0
VERTEX
  8
LAYER-1
 10
3.131652
 20
6.831994
 30
0.000000
  0
VERTEX
  8
LAYER-1
 10
3.139280
 20
6.839622
 30
0.000000
  0
SEQEND
  8
LAYER-1
  0
POLYLINE
  8
LAYER-1
 66
  1
 70
  0
 62
  0
 10
3.111652
 20
6.831994
 30
0.000000
  0
VERTEX
  8
LAYER-1
 10
3.111652
 20
6.831994
 30
0.000000
  0
VERTEX
  8
LAYER-1
 10
3.131652
 20
6.831994
 30
0.000000
  0
SEQEND
  8
LAYER-1
  0
POLYLINE
  8
LAYER-1
 66
  1
 70
  0
 62
  0
 10
3.104023
 20
6.839622
 30
0.000000
  0
VERTEX
  8
LAYER-1
 10
3.104023
 20
6.839622
 30
0.000000
  0
VERTEX
  8
LAYER-1
 10
3.111652
 20
6.831994
 30
0.000000
  0
SEQEND
  8
LAYER-1
  0
POLYLINE
  8
LAYER-1
 66
  1
 70
  0
 62
  0
 10
3.104023
 20
6.841081
 30
0.000000
  0
VERTEX
  8
LAYER-1
 10
3.104023
 20
6.841081
 30
0.000000
  0
VERTEX
  8
LAYER-1
 10
3.104023
 20
6.839622
 30
0.000000
  0
SEQEND
  8
LAYER-1
  0
POLYLINE
  8
LAYER-1
 66
  1
 70
  0
 62
  0
 10
3.104023
 20
6.841081
 30
0.000000
  0
VERTEX
  8
LAYER-1
 10
3.104023
 20
6.841081
 30
0.000000
  0
VERTEX
  8
LAYER-1
 10
3.096395
 20
6.848710
 30
0.000000
  0
SEQEND
  8
LAYER-1
  0
POLYLINE
  8
LAYER-1
 66
  1
 70
  0
 62
  0
 10
3.096323
 20
6.848709
 30
0.000000
  0
VERTEX
  8
LAYER-1
 10
3.096323
 20
6.848709
 30
0.000000
  0
VERTEX
  8
LAYER-1
 10
3.096395
 20
6.848709
 30
0.000000
  0
SEQEND
  8
LAYER-1
  0
POLYLINE
  8
LAYER-1
 66
  1
 70
  0
 62
  0
 10
3.096323
 20
6.848710
 30
0.000000
  0
VERTEX
  8
LAYER-1
 10
3.096323
 20
6.848710
 30
0.000000
  0
VERTEX
  8
LAYER-1
 10
3.088694
 20
6.841081
 30
0.000000
  0
SEQEND
  8
LAYER-1
  0
POLYLINE
  8
LAYER-1
 66
  1
 70
  0
 62
  0
 10
3.088694
 20
6.841081
 30
0.000000
  0
VERTEX
  8
LAYER-1
 10
3.088694
 20
6.841081
 30
0.000000
  0
VERTEX
  8
LAYER-1
 10
3.088694
 20
6.515937
 30
0.000000
  0
SEQEND
  8
LAYER-1
  0
POLYLINE
  8
LAYER-1
 66
  1
 70
  0
 62
  0
 10
3.088694
 20
6.515937
 30
0.000000
  0
VERTEX
  8
LAYER-1
 10
3.088694
 20
6.515937
 30
0.000000
  0
VERTEX
  8
LAYER-1
 10
3.096323
 20
6.508308
 30
0.000000
  0
SEQEND
  8
LAYER-1
  0
POLYLINE
  8
LAYER-1
 66
  1
 70
  0
 62
  0
 10
3.096323
 20
6.508308
 30
0.000000
  0
VERTEX
  8
LAYER-1
 10
3.096323
 20
6.508308
 30
0.000000
  0
VERTEX
  8
LAYER-1
 10
3.132988
 20
6.508311
 30
0.000000
  0
SEQEND
  8
LAYER-1
  0
POLYLINE
  8
LAYER-1
 66
  1
 70
  0
 62
  0
 10
3.132988
 20
6.508311
 30
0.000000
  0
VERTEX
  8
LAYER-1
 10
3.132988
 20
6.508311
 30
0.000000
  0
VERTEX
  8
LAYER-1
 10
3.130284
 20
6.492381
 30
0.000000
  0
VERTEX
  8
LAYER-1
 10
3.134635
 20
6.485665
 30
0.000000
  0
SEQEND
  8
LAYER-1
  0
POLYLINE
  8
LAYER-1
 66
  1
 70
  0
 62
  0
 10
3.134635
 20
6.485665
 30
0.000000
  0
VERTEX
  8
LAYER-1
 10
3.134635
 20
6.485665
 30
0.000000
  0
VERTEX
  8
LAYER-1
 10
3.145497
 20
6.492767
 30
0.000000
  0
SEQEND
  8
LAYER-1
  0
POLYLINE
  8
LAYER-1
 66
  1
 70
  0
 62
  0
 10
3.162976
 20
6.492802
 30
0.000000
  0
VERTEX
  8
LAYER-1
 10
3.162976
 20
6.492802
 30
0.000000
  0
VERTEX
  8
LAYER-1
 10
3.157928
 20
6.509191
 30
0.000000
  0
VERTEX
  8
LAYER-1
 10
3.143506
 20
6.506112
 30
0.000000
  0
VERTEX
  8
LAYER-1
 10
3.145497
 20
6.492767
 30
0.000000
  0
SEQEND
  8
LAYER-1
  0
POLYLINE
  8
LAYER-1
 66
  1
 70
  0
 62
  0
 10
3.162976
 20
6.492801
 30
0.000000
  0
VERTEX
  8
LAYER-1
 10
3.162976
 20
6.492801
 30
0.000000
  0
VERTEX
  8
LAYER-1
 10
3.173930
 20
6.485683
 30
0.000000
  0
SEQEND
  8
LAYER-1
  0
POLYLINE
  8
LAYER-1
 66
  1
 70
  0
 62
  0
 10
3.173930
 20
6.485683
 30
0.000000
  0
VERTEX
  8
LAYER-1
 10
3.173930
 20
6.485683
 30
0.000000
  0
VERTEX
  8
LAYER-1
 10
3.175233
 20
6.505331
 30
0.000000
  0
VERTEX
  8
LAYER-1
 10
3.175557
 20
6.508311
 30
0.000000
  0
SEQEND
  8
LAYER-1
  0
POLYLINE
  8
LAYER-1
 66
  1
 70
  0
 62
  0
 10
3.182200
 20
6.508308
 30
0.000000
  0
VERTEX
  8
LAYER-1
 10
3.182200
 20
6.508308
 30
0.000000
  0
VERTEX
  8
LAYER-1
 10
3.175557
 20
6.508311
 30
0.000000
  0
SEQEND
  8
LAYER-1
  0
POLYLINE
  8
LAYER-1
 66
  1
 70
  0
 62
  0
 10
3.182200
 20
6.534142
 30
0.000000
  0
VERTEX
  8
LAYER-1
 10
3.182200
 20
6.534142
 30
0.000000
  0
VERTEX
  8
LAYER-1
 10
3.182200
 20
6.508308
 30
0.000000
  0
SEQEND
  8
LAYER-1
  0
POLYLINE
  8
LAYER-1
 66
  1
 70
  0
 62
  0
 10
3.112455
 20
6.556177
 30
0.000000
  0
VERTEX
  8
LAYER-1
 10
3.112455
 20
6.556177
 30
0.000000
  0
VERTEX
  8
LAYER-1
 10
3.182200
 20
6.534142
 30
0.000000
  0
SEQEND
  8
LAYER-1
  0
POLYLINE
  8
LAYER-1
 66
  1
 70
  0
 62
  0
 10
3.112455
 20
6.556177
 30
0.000000
  0
VERTEX
  8
LAYER-1
 10
3.112455
 20
6.556177
 30
0.000000
  0
VERTEX
  8
LAYER-1
 10
3.112455
 20
6.582638
 30
0.000000
  0
SEQEND
  8
LAYER-1
  0
POLYLINE
  8
LAYER-1
 66
  1
 70
  0
 62
  0
 10
3.112455
 20
6.582638
 30
0.000000
  0
VERTEX
  8
LAYER-1
 10
3.112455
 20
6.582638
 30
0.000000
  0
VERTEX
  8
LAYER-1
 10
3.105510
 20
6.590236
 30
0.000000
  0
SEQEND
  8
LAYER-1
  0
POLYLINE
  8
LAYER-1
 66
  1
 70
  0
 62
  0
 10
3.104023
 20
6.590370
 30
0.000000
  0
VERTEX
  8
LAYER-1
 10
3.104023
 20
6.590370
 30
0.000000
  0
VERTEX
  8
LAYER-1
 10
3.105511
 20
6.590236
 30
0.000000
  0
SEQEND
  8
LAYER-1
  0
POLYLINE
  8
LAYER-1
 66
  1
 70
  0
 62
  0
 10
3.104023
 20
6.590370
 30
0.000000
  0
VERTEX
  8
LAYER-1
 10
3.104023
 20
6.590370
 30
0.000000
  0
VERTEX
  8
LAYER-1
 10
3.104023
 20
6.807650
 30
0.000000
  0
SEQEND
  8
LAYER-1
  0
POLYLINE
  8
LAYER-1
 66
  1
 70
  0
 62
  0
 10
3.111652
 20
6.815278
 30
0.000000
  0
VERTEX
  8
LAYER-1
 10
3.111652
 20
6.815278
 30
0.000000
  0
VERTEX
  8
LAYER-1
 10
3.104023
 20
6.807650
 30
0.000000
  0
SEQEND
  8
LAYER-1
  0
POLYLINE
  8
LAYER-1
 66
  1
 70
  0
 62
  0
 10
3.111652
 20
6.815278
 30
0.000000
  0
VERTEX
  8
LAYER-1
 10
3.111652
 20
6.815278
 30
0.000000
  0
VERTEX
  8
LAYER-1
 10
3.131652
 20
6.815278
 30
0.000000
  0
SEQEND
  8
LAYER-1
  0
POLYLINE
  8
LAYER-1
 66
  1
 70
  0
 62
  0
 10
3.139280
 20
6.807650
 30
0.000000
  0
VERTEX
  8
LAYER-1
 10
3.139280
 20
6.807650
 30
0.000000
  0
VERTEX
  8
LAYER-1
 10
3.131652
 20
6.815278
 30
0.000000
  0
SEQEND
  8
LAYER-1
  0
POLYLINE
  8
LAYER-1
 66
  1
 70
  0
 62
  0
 10
3.139280
 20
6.807650
 30
0.000000
  0
VERTEX
  8
LAYER-1
 10
3.139280
 20
6.807650
 30
0.000000
  0
VERTEX
  8
LAYER-1
 10
3.139280
 20
6.806190
 30
0.000000
  0
SEQEND
  8
LAYER-1
  0
POLYLINE
  8
LAYER-1
 66
  1
 70
  0
 62
  0
 10
3.139280
 20
6.806190
 30
0.000000
  0
VERTEX
  8
LAYER-1
 10
3.139280
 20
6.806190
 30
0.000000
  0
VERTEX
  8
LAYER-1
 10
3.146908
 20
6.798562
 30
0.000000
  0
SEQEND
  8
LAYER-1
  0
POLYLINE
  8
LAYER-1
 66
  1
 70
  0
 62
  0
 10
3.146908
 20
6.798562
 30
0.000000
  0
VERTEX
  8
LAYER-1
 10
3.146908
 20
6.798562
 30
0.000000
  0
VERTEX
  8
LAYER-1
 10
3.160979
 20
6.798562
 30
0.000000
  0
SEQEND
  8
LAYER-1
  0
POLYLINE
  8
LAYER-1
 66
  1
 70
  0
 62
  0
 10
3.160979
 20
6.798562
 30
0.000000
  0
VERTEX
  8
LAYER-1
 10
3.160979
 20
6.798562
 30
0.000000
  0
VERTEX
  8
LAYER-1
 10
3.165338
 20
6.802920
 30
0.000000
  0
SEQEND
  8
LAYER-1
  0
POLYLINE
  8
LAYER-1
 66
  1
 70
  0
 62
  0
 10
3.165338
 20
6.806360
 30
0.000000
  0
VERTEX
  8
LAYER-1
 10
3.165338
 20
6.806360
 30
0.000000
  0
VERTEX
  8
LAYER-1
 10
3.165338
 20
6.802920
 30
0.000000
  0
SEQEND
  8
LAYER-1
  0
POLYLINE
  8
LAYER-1
 66
  1
 70
  0
 62
  0
 10
3.165338
 20
6.806360
 30
0.000000
  0
VERTEX
  8
LAYER-1
 10
3.165338
 20
6.806360
 30
0.000000
  0
VERTEX
  8
LAYER-1
 10
3.160979
 20
6.810719
 30
0.000000
  0
SEQEND
  8
LAYER-1
  0
POLYLINE
  8
LAYER-1
 66
  1
 70
  0
 62
  0
 10
3.160500
 20
6.810719
 30
0.000000
  0
VERTEX
  8
LAYER-1
 10
3.160500
 20
6.810719
 30
0.000000
  0
VERTEX
  8
LAYER-1
 10
3.160979
 20
6.810719
 30
0.000000
  0
SEQEND
  8
LAYER-1
  0
POLYLINE
  8
LAYER-1
 66
  1
 70
  0
 62
  0
 10
3.156141
 20
6.815077
 30
0.000000
  0
VERTEX
  8
LAYER-1
 10
3.156141
 20
6.815077
 30
0.000000
  0
VERTEX
  8
LAYER-1
 10
3.160500
 20
6.810719
 30
0.000000
  0
SEQEND
  8
LAYER-1
  0
POLYLINE
  8
LAYER-1
 66
  1
 70
  0
 62
  0
 10
3.156141
 20
6.824365
 30
0.000000
  0
VERTEX
  8
LAYER-1
 10
3.156141
 20
6.824365
 30
0.000000
  0
VERTEX
  8
LAYER-1
 10
3.156141
 20
6.815077
 30
0.000000
  0
SEQEND
  8
LAYER-1
  0
POLYLINE
  8
LAYER-1
 66
  1
 70
  0
 62
  0
 10
3.163770
 20
6.831994
 30
0.000000
  0
VERTEX
  8
LAYER-1
 10
3.163770
 20
6.831994
 30
0.000000
  0
VERTEX
  8
LAYER-1
 10
3.156141
 20
6.824365
 30
0.000000
  0
SEQEND
  8
LAYER-1
  0
POLYLINE
  8
LAYER-1
 66
  1
 70
  0
 62
  0
 10
3.163770
 20
6.831994
 30
0.000000
  0
VERTEX
  8
LAYER-1
 10
3.163770
 20
6.831994
 30
0.000000
  0
VERTEX
  8
LAYER-1
 10
3.298736
 20
6.831994
 30
0.000000
  0
SEQEND
  8
LAYER-1
  0
POLYLINE
  8
LAYER-1
 66
  1
 70
  0
 62
  0
 10
3.306364
 20
6.824365
 30
0.000000
  0
VERTEX
  8
LAYER-1
 10
3.306364
 20
6.824365
 30
0.000000
  0
VERTEX
  8
LAYER-1
 10
3.298736
 20
6.831994
 30
0.000000
  0
SEQEND
  8
LAYER-1
  0
POLYLINE
  8
LAYER-1
 66
  1
 70
  0
 62
  0
 10
3.306364
 20
6.824365
 30
0.000000
  0
VERTEX
  8
LAYER-1
 10
3.306364
 20
6.824365
 30
0.000000
  0
VERTEX
  8
LAYER-1
 10
3.306364
 20
6.815077
 30
0.000000
  0
SEQEND
  8
LAYER-1
  0
POLYLINE
  8
LAYER-1
 66
  1
 70
  0
 62
  0
 10
3.302005
 20
6.810719
 30
0.000000
  0
VERTEX
  8
LAYER-1
 10
3.302005
 20
6.810719
 30
0.000000
  0
VERTEX
  8
LAYER-1
 10
3.306364
 20
6.815077
 30
0.000000
  0
SEQEND
  8
LAYER-1
  0
POLYLINE
  8
LAYER-1
 66
  1
 70
  0
 62
  0
 10
3.302005
 20
6.810719
 30
0.000000
  0
VERTEX
  8
LAYER-1
 10
3.302005
 20
6.810719
 30
0.000000
  0
VERTEX
  8
LAYER-1
 10
3.301525
 20
6.810719
 30
0.000000
  0
SEQEND
  8
LAYER-1
  0
POLYLINE
  8
LAYER-1
 66
  1
 70
  0
 62
  0
 10
3.301525
 20
6.810719
 30
0.000000
  0
VERTEX
  8
LAYER-1
 10
3.301525
 20
6.810719
 30
0.000000
  0
VERTEX
  8
LAYER-1
 10
3.297166
 20
6.806360
 30
0.000000
  0
SEQEND
  8
LAYER-1
  0
POLYLINE
  8
LAYER-1
 66
  1
 70
  0
 62
  0
 10
3.297166
 20
6.806360
 30
0.000000
  0
VERTEX
  8
LAYER-1
 10
3.297166
 20
6.806360
 30
0.000000
  0
VERTEX
  8
LAYER-1
 10
3.297166
 20
6.802920
 30
0.000000
  0
SEQEND
  8
LAYER-1
  0
POLYLINE
  8
LAYER-1
 66
  1
 70
  0
 62
  0
 10
3.297166
 20
6.802920
 30
0.000000
  0
VERTEX
  8
LAYER-1
 10
3.297166
 20
6.802920
 30
0.000000
  0
VERTEX
  8
LAYER-1
 10
3.301525
 20
6.798562
 30
0.000000
  0
SEQEND
  8
LAYER-1
  0
POLYLINE
  8
LAYER-1
 66
  1
 70
  0
 62
  0
 10
3.315597
 20
6.798562
 30
0.000000
  0
VERTEX
  8
LAYER-1
 10
3.315597
 20
6.798562
 30
0.000000
  0
VERTEX
  8
LAYER-1
 10
3.301525
 20
6.798562
 30
0.000000
  0
SEQEND
  8
LAYER-1
  0
POLYLINE
  8
LAYER-1
 66
  1
 70
  0
 62
  0
 10
3.315597
 20
6.798562
 30
0.000000
  0
VERTEX
  8
LAYER-1
 10
3.315597
 20
6.798562
 30
0.000000
  0
VERTEX
  8
LAYER-1
 10
3.323225
 20
6.806190
 30
0.000000
  0
SEQEND
  8
LAYER-1
  0
POLYLINE
  8
LAYER-1
 66
  1
 70
  0
 62
  0
 10
3.323225
 20
6.807650
 30
0.000000
  0
VERTEX
  8
LAYER-1
 10
3.323225
 20
6.807650
 30
0.000000
  0
VERTEX
  8
LAYER-1
 10
3.323225
 20
6.806190
 30
0.000000
  0
SEQEND
  8
LAYER-1
  0
POLYLINE
  8
LAYER-1
 66
  1
 70
  0
 62
  0
 10
3.330853
 20
6.815278
 30
0.000000
  0
VERTEX
  8
LAYER-1
 10
3.330853
 20
6.815278
 30
0.000000
  0
VERTEX
  8
LAYER-1
 10
3.323225
 20
6.807650
 30
0.000000
  0
SEQEND
  8
LAYER-1
  0
POLYLINE
  8
LAYER-1
 66
  1
 70
  0
 62
  0
 10
3.330853
 20
6.815278
 30
0.000000
  0
VERTEX
  8
LAYER-1
 10
3.330853
 20
6.815278
 30
0.000000
  0
VERTEX
  8
LAYER-1
 10
3.350852
 20
6.815278
 30
0.000000
  0
SEQEND
  8
LAYER-1
  0
POLYLINE
  8
LAYER-1
 66
  1
 70
  0
 62
  0
 10
3.358480
 20
6.807650
 30
0.000000
  0
VERTEX
  8
LAYER-1
 10
3.358480
 20
6.807650
 30
0.000000
  0
VERTEX
  8
LAYER-1
 10
3.350852
 20
6.815278
 30
0.000000
  0
SEQEND
  8
LAYER-1
  0
POLYLINE
  8
LAYER-1
 66
  1
 70
  0
 62
  0
 10
3.358480
 20
6.590370
 30
0.000000
  0
VERTEX
  8
LAYER-1
 10
3.358480
 20
6.590370
 30
0.000000
  0
VERTEX
  8
LAYER-1
 10
3.358480
 20
6.807650
 30
0.000000
  0
SEQEND
  8
LAYER-1
  0
POLYLINE
  8
LAYER-1
 66
  1
 70
  0
 62
  0
 10
3.358480
 20
6.590370
 30
0.000000
  0
VERTEX
  8
LAYER-1
 10
3.358480
 20
6.590370
 30
0.000000
  0
VERTEX
  8
LAYER-1
 10
3.356284
 20
6.590188
 30
0.000000
  0
SEQEND
  8
LAYER-1
  0
POLYLINE
  8
LAYER-1
 66
  1
 70
  0
 62
  0
 10
3.356284
 20
6.590188
 30
0.000000
  0
VERTEX
  8
LAYER-1
 10
3.356284
 20
6.590188
 30
0.000000
  0
VERTEX
  8
LAYER-1
 10
3.349284
 20
6.582586
 30
0.000000
  0
SEQEND
  8
LAYER-1
  0
POLYLINE
  8
LAYER-1
 66
  1
 70
  0
 62
  0
 10
3.349284
 20
6.556177
 30
0.000000
  0
VERTEX
  8
LAYER-1
 10
3.349284
 20
6.556177
 30
0.000000
  0
VERTEX
  8
LAYER-1
 10
3.349284
 20
6.582586
 30
0.000000
  0
SEQEND
  8
LAYER-1
  0
POLYLINE
  8
LAYER-1
 66
  1
 70
  0
 62
  0
 10
3.281837
 20
6.534142
 30
0.000000
  0
VERTEX
  8
LAYER-1
 10
3.281837
 20
6.534142
 30
0.000000
  0
VERTEX
  8
LAYER-1
 10
3.349284
 20
6.556177
 30
0.000000
  0
SEQEND
  8
LAYER-1
  0
POLYLINE
  8
LAYER-1
 66
  1
 70
  0
 62
  0
 10
3.281837
 20
6.534142
 30
0.000000
  0
VERTEX
  8
LAYER-1
 10
3.281837
 20
6.534142
 30
0.000000
  0
VERTEX
  8
LAYER-1
 10
3.281837
 20
6.508308
 30
0.000000
  0
SEQEND
  8
LAYER-1
  0
POLYLINE
  8
LAYER-1
 66
  1
 70
  0
 62
  0
 10
3.288459
 20
6.508311
 30
0.000000
  0
VERTEX
  8
LAYER-1
 10
3.288459
 20
6.508311
 30
0.000000
  0
VERTEX
  8
LAYER-1
 10
3.281837
 20
6.508308
 30
0.000000
  0
SEQEND
  8
LAYER-1
  0
POLYLINE
  8
LAYER-1
 66
  1
 70
  0
 62
  0
 10
3.288459
 20
6.508311
 30
0.000000
  0
VERTEX
  8
LAYER-1
 10
3.288459
 20
6.508311
 30
0.000000
  0
VERTEX
  8
LAYER-1
 10
3.285782
 20
6.492314
 30
0.000000
  0
VERTEX
  8
LAYER-1
 10
3.290086
 20
6.485683
 30
0.000000
  0
SEQEND
  8
LAYER-1
  0
POLYLINE
  8
LAYER-1
 66
  1
 70
  0
 62
  0
 10
3.290086
 20
6.485683
 30
0.000000
  0
VERTEX
  8
LAYER-1
 10
3.290086
 20
6.485683
 30
0.000000
  0
VERTEX
  8
LAYER-1
 10
3.301040
 20
6.492802
 30
0.000000
  0
SEQEND
  8
LAYER-1
  0
POLYLINE
  8
LAYER-1
 66
  1
 70
  0
 62
  0
 10
3.318519
 20
6.492767
 30
0.000000
  0
VERTEX
  8
LAYER-1
 10
3.318519
 20
6.492767
 30
0.000000
  0
VERTEX
  8
LAYER-1
 10
3.313527
 20
6.509169
 30
0.000000
  0
VERTEX
  8
LAYER-1
 10
3.299093
 20
6.506146
 30
0.000000
  0
VERTEX
  8
LAYER-1
 10
3.301040
 20
6.492802
 30
0.000000
  0
SEQEND
  8
LAYER-1
  0
POLYLINE
  8
LAYER-1
 66
  1
 70
  0
 62
  0
 10
3.318519
 20
6.492767
 30
0.000000
  0
VERTEX
  8
LAYER-1
 10
3.318519
 20
6.492767
 30
0.000000
  0
VERTEX
  8
LAYER-1
 10
3.329381
 20
6.485665
 30
0.000000
  0
SEQEND
  8
LAYER-1
  0
POLYLINE
  8
LAYER-1
 66
  1
 70
  0
 62
  7
 10
3.187040
 20
6.564600
 30
0.000000
  0
VERTEX
  8
LAYER-1
 10
3.187040
 20
6.564600
 30
0.000000
  0
VERTEX
  8
LAYER-1
 10
3.175842
 20
6.591401
 30
0.000000
  0
VERTEX
  8
LAYER-1
 10
3.148809
 20
6.602503
 30
0.000000
  0
VERTEX
  8
LAYER-1
 10
3.121775
 20
6.591401
 30
0.000000
  0
VERTEX
  8
LAYER-1
 10
3.110577
 20
6.564600
 30
0.000000
  0
VERTEX
  8
LAYER-1
 10
3.121775
 20
6.537799
 30
0.000000
  0
VERTEX
  8
LAYER-1
 10
3.148809
 20
6.526698
 30
0.000000
  0
VERTEX
  8
LAYER-1
 10
3.175842
 20
6.537799
 30
0.000000
  0
VERTEX
  8
LAYER-1
 10
3.187040
 20
6.564600
 30
0.000000
  0
SEQEND
  8
LAYER-1
  0
POLYLINE
  8
LAYER-1
 66
  1
 70
  0
 62
  7
 10
3.346404
 20
6.566274
 30
0.000000
  0
VERTEX
  8
LAYER-1
 10
3.346404
 20
6.566274
 30
0.000000
  0
VERTEX
  8
LAYER-1
 10
3.335206
 20
6.593075
 30
0.000000
  0
VERTEX
  8
LAYER-1
 10
3.308172
 20
6.604176
 30
0.000000
  0
VERTEX
  8
LAYER-1
 10
3.281138
 20
6.593075
 30
0.000000
  0
VERTEX
  8
LAYER-1
 10
3.269940
 20
6.566274
 30
0.000000
  0
VERTEX
  8
LAYER-1
 10
3.281138
 20
6.539473
 30
0.000000
  0
VERTEX
  8
LAYER-1
 10
3.308172
 20
6.528372
 30
0.000000
  0
VERTEX
  8
LAYER-1
 10
3.335206
 20
6.539473
 30
0.000000
  0
VERTEX
  8
LAYER-1
 10
3.346404
 20
6.566274
 30
0.000000
  0
SEQEND
  8
LAYER-1
  0
POLYLINE
  8
LAYER-1
 66
  1
 70
  1
 62
  0
  0
VERTEX
  8
LAYER-1
 10
2.594726
 20
7.132785
 30
0.000000
  0
VERTEX
  8
LAYER-1
 10
3.870322
 20
7.132785
 30
0.000000
  0
VERTEX
  8
LAYER-1
 10
3.870322
 20
6.967432
 30
0.000000
  0
VERTEX
  8
LAYER-1
 10
2.594726
 20
6.967432
 30
0.000000
  0
SEQEND
  8
LAYER-1
  0
POLYLINE
  8
LAYER-1
 66
  1
 70
  1
 62
  0
  0
VERTEX
  8
LAYER-1
 10
2.594726
 20
7.307689
 30
0.000000
  0
VERTEX
  8
LAYER-1
 10
3.870322
 20
7.307689
 30
0.000000
  0
VERTEX
  8
LAYER-1
 10
3.870322
 20
7.142336
 30
0.000000
  0
VERTEX
  8
LAYER-1
 10
2.594726
 20
7.142336
 30
0.000000
  0
SEQEND
  8
LAYER-1
  0
POLYLINE
  8
LAYER-1
 66
  1
 70
  0
 62
  0
 10
2.594823
 20
7.277354
 30
0.000000
  0
VERTEX
  8
LAYER-1
 10
2.594823
 20
7.277354
 30
0.000000
  0
VERTEX
  8
LAYER-1
 10
3.868270
 20
7.277354
 30
0.000000
  0
SEQEND
  8
LAYER-1
  0
POLYLINE
  8
LAYER-1
 66
  1
 70
  0
 62
  0
 10
2.594823
 20
7.164507
 30
0.000000
  0
VERTEX
  8
LAYER-1
 10
2.594823
 20
7.164507
 30
0.000000
  0
VERTEX
  8
LAYER-1
 10
3.870005
 20
7.164507
 30
0.000000
  0
SEQEND
  8
LAYER-1
  0
POLYLINE
  8
LAYER-1
 66
  1
 70
  1
 62
  0
  0
VERTEX
  8
LAYER-1
 10
2.594823
 20
7.076833
 30
0.000000
  0
VERTEX
  8
LAYER-1
 10
3.869572
 20
7.076833
 30
0.000000
  0
VERTEX
  8
LAYER-1
 10
3.869572
 20
7.023014
 30
0.000000
  0
VERTEX
  8
LAYER-1
 10
2.594823
 20
7.023014
 30
0.000000
  0
SEQEND
  8
LAYER-1
  0
POLYLINE
  8
LAYER-1
 66
  1
 70
  0
 62
  0
 10
2.594824
 20
7.106347
 30
0.000000
  0
VERTEX
  8
LAYER-1
 10
2.594824
 20
7.106347
 30
0.000000
  0
VERTEX
  8
LAYER-1
 10
3.868270
 20
7.106347
 30
0.000000
  0
SEQEND
  8
LAYER-1
  0
POLYLINE
  8
LAYER-1
 66
  1
 70
  0
 62
  0
 10
2.594824
 20
6.993500
 30
0.000000
  0
VERTEX
  8
LAYER-1
 10
2.594824
 20
6.993500
 30
0.000000
  0
VERTEX
  8
LAYER-1
 10
3.870005
 20
6.993500
 30
0.000000
  0
SEQEND
  8
LAYER-1
  0
POLYLINE
  8
LAYER-1
 66
  1
 70
  1
 62
  0
  0
VERTEX
  8
LAYER-1
 10
2.594823
 20
7.247839
 30
0.000000
  0
VERTEX
  8
LAYER-1
 10
3.869572
 20
7.247839
 30
0.000000
  0
VERTEX
  8
LAYER-1
 10
3.869572
 20
7.194020
 30
0.000000
  0
VERTEX
  8
LAYER-1
 10
2.594823
 20
7.194020
 30
0.000000
  0
SEQEND
  8
LAYER-1
  0
POLYLINE
  8
LAYER-1
 66
  1
 70
  0
 62
  0
 10
4.210309
 20
7.307665
 30
0.000000
  0
VERTEX
  8
LAYER-1
 10
4.210309
 20
7.307665
 30
0.000000
  0
VERTEX
  8
LAYER-1
 10
4.041582
 20
7.307665
 30
0.000000
  0
SEQEND
  8
LAYER-1
  0
POLYLINE
  8
LAYER-1
 66
  1
 70
  0
 62
  0
 10
4.210309
 20
6.967854
 30
0.000000
  0
VERTEX
  8
LAYER-1
 10
4.210309
 20
6.967854
 30
0.000000
  0
VERTEX
  8
LAYER-1
 10
4.045799
 20
6.967854
 30
0.000000
  0
SEQEND
  8
LAYER-1
  0
POLYLINE
  8
LAYER-1
 66
  1
 70
  0
 62
  0
 10
4.087982
 20
7.307665
 30
0.000000
  0
VERTEX
  8
LAYER-1
 10
4.087982
 20
7.307665
 30
0.000000
  0
VERTEX
  8
LAYER-1
 10
4.087982
 20
6.967854
 30
0.000000
  0
SEQEND
  8
LAYER-1
  0
LINE
  8
LAYER-1
 62
  0
 10
4.117445
 20
7.278202
 30
0.000000
 11
4.058519
 21
7.337128
 31
0.000000
  0
LINE
  8
LAYER-1
 62
  0
 10
4.117445
 20
6.938391
 30
0.000000
 11
4.058519
 21
6.997317
 31
0.000000
  0
TEXT
  8
LAYER-1
 62
  0
 10
4.217820
 20
7.158180
 30
0.000000
 40
0.104167
  1
1-1/2"  -  38mm
 72
  5
 11
5.273375
 21
7.158180
 31
0.000000
  0
TEXT
  8
LAYER-1
 62
  0
 10
0.037264
 20
7.810958
 30
0.000000
 40
0.145833
  1
GUIDA IN VISTA
 72
  5
 11
1.606709
 21
7.810958
 31
0.000000
  0
POLYLINE
  8
LAYER-1
 66
  1
 70
  0
 62
  0
 10
3.335479
 20
6.736322
 30
0.000000
  0
VERTEX
  8
LAYER-1
 10
3.335479
 20
6.736322
 30
0.000000
  0
VERTEX
  8
LAYER-1
 10
3.326715
 20
6.754606
 30
0.000000
  0
VERTEX
  8
LAYER-1
 10
3.310309
 20
6.761363
 30
0.000000
  0
VERTEX
  8
LAYER-1
 10
3.293904
 20
6.754606
 30
0.000000
  0
VERTEX
  8
LAYER-1
 10
3.289078
 20
6.736322
 30
0.000000
  0
SEQEND
  8
LAYER-1
  0
POLYLINE
  8
LAYER-1
 66
  1
 70
  0
 62
  0
 10
3.289077
 20
6.736322
 30
0.000000
  0
VERTEX
  8
LAYER-1
 10
3.289077
 20
6.736322
 30
0.000000
  0
VERTEX
  8
LAYER-1
 10
3.289077
 20
6.550695
 30
0.000000
  0
SEQEND
  8
LAYER-1
  0
POLYLINE
  8
LAYER-1
 66
  1
 70
  0
 62
  0
 10
3.335478
 20
6.736322
 30
0.000000
  0
VERTEX
  8
LAYER-1
 10
3.335478
 20
6.736322
 30
0.000000
  0
VERTEX
  8
LAYER-1
 10
3.335478
 20
6.550695
 30
0.000000
  0
SEQEND
  8
LAYER-1
  0
POLYLINE
  8
LAYER-1
 66
  1
 70
  0
 62
  0
 10
3.289078
 20
6.550695
 30
0.000000
  0
VERTEX
  8
LAYER-1
 10
3.289078
 20
6.550695
 30
0.000000
  0
VERTEX
  8
LAYER-1
 10
3.293904
 20
6.536349
 30
0.000000
  0
VERTEX
  8
LAYER-1
 10
3.310309
 20
6.529591
 30
0.000000
  0
VERTEX
  8
LAYER-1
 10
3.326715
 20
6.536349
 30
0.000000
  0
VERTEX
  8
LAYER-1
 10
3.335479
 20
6.550695
 30
0.000000
  0
SEQEND
  8
LAYER-1
  0
POLYLINE
  8
LAYER-1
 66
  1
 70
  0
 62
  0
 10
3.171491
 20
6.736186
 30
0.000000
  0
VERTEX
  8
LAYER-1
 10
3.171491
 20
6.736186
 30
0.000000
  0
VERTEX
  8
LAYER-1
 10
3.162726
 20
6.754559
 30
0.000000
  0
VERTEX
  8
LAYER-1
 10
3.146321
 20
6.761355
 30
0.000000
  0
VERTEX
  8
LAYER-1
 10
3.129917
 20
6.754559
 30
0.000000
  0
VERTEX
  8
LAYER-1
 10
3.125089
 20
6.736186
 30
0.000000
  0
SEQEND
  8
LAYER-1
  0
POLYLINE
  8
LAYER-1
 66
  1
 70
  0
 62
  0
 10
3.125090
 20
6.736186
 30
0.000000
  0
VERTEX
  8
LAYER-1
 10
3.125090
 20
6.736186
 30
0.000000
  0
VERTEX
  8
LAYER-1
 10
3.125090
 20
6.549530
 30
0.000000
  0
SEQEND
  8
LAYER-1
  0
POLYLINE
  8
LAYER-1
 66
  1
 70
  0
 62
  0
 10
3.171492
 20
6.736186
 30
0.000000
  0
VERTEX
  8
LAYER-1
 10
3.171492
 20
6.736186
 30
0.000000
  0
VERTEX
  8
LAYER-1
 10
3.171492
 20
6.549530
 30
0.000000
  0
SEQEND
  8
LAYER-1
  0
POLYLINE
  8
LAYER-1
 66
  1
 70
  0
 62
  0
 10
3.125089
 20
6.549530
 30
0.000000
  0
VERTEX
  8
LAYER-1
 10
3.125089
 20
6.549530
 30
0.000000
  0
VERTEX
  8
LAYER-1
 10
3.129917
 20
6.535094
 30
0.000000
  0
VERTEX
  8
LAYER-1
 10
3.146321
 20
6.528298
 30
0.000000
  0
VERTEX
  8
LAYER-1
 10
3.162726
 20
6.535094
 30
0.000000
  0
VERTEX
  8
LAYER-1
 10
3.171491
 20
6.549530
 30
0.000000
  0
SEQEND
  8
LAYER-1
  0
POLYLINE
  8
LAYER-1
 66
  1
 70
  1
 62
  0
  0
VERTEX
  8
LAYER-1
 10
3.202634
 20
6.592239
 30
0.000000
  0
VERTEX
  8
LAYER-1
 10
3.256353
 20
6.592239
 30
0.000000
  0
VERTEX
  8
LAYER-1
 10
3.256353
 20
6.309618
 30
0.000000
  0
VERTEX
  8
LAYER-1
 10
3.202634
 20
6.309618
 30
0.000000
  0
SEQEND
  8
LAYER-1
  0
POLYLINE
  8
LAYER-1
 66
  1
 70
  0
 62
  0
 10
4.209051
 20
6.853714
 30
0.000000
  0
VERTEX
  8
LAYER-1
 10
4.209051
 20
6.853714
 30
0.000000
  0
VERTEX
  8
LAYER-1
 10
4.040322
 20
6.853714
 30
0.000000
  0
SEQEND
  8
LAYER-1
  0
POLYLINE
  8
LAYER-1
 66
  1
 70
  0
 62
  0
 10
4.209051
 20
6.509929
 30
0.000000
  0
VERTEX
  8
LAYER-1
 10
4.209051
 20
6.509929
 30
0.000000
  0
VERTEX
  8
LAYER-1
 10
4.044540
 20
6.509929
 30
0.000000
  0
SEQEND
  8
LAYER-1
  0
POLYLINE
  8
LAYER-1
 66
  1
 70
  0
 62
  0
 10
4.086722
 20
6.853714
 30
0.000000
  0
VERTEX
  8
LAYER-1
 10
4.086722
 20
6.853714
 30
0.000000
  0
VERTEX
  8
LAYER-1
 10
4.086722
 20
6.509929
 30
0.000000
  0
SEQEND
  8
LAYER-1
  0
LINE
  8
LAYER-1
 62
  0
 10
4.116185
 20
6.824251
 30
0.000000
 11
4.057259
 21
6.883177
 31
0.000000
  0
LINE
  8
LAYER-1
 62
  0
 10
4.116185
 20
6.480466
 30
0.000000
 11
4.057259
 21
6.539391
 31
0.000000
  0
TEXT
  8
LAYER-1
 62
  0
 10
4.217820
 20
6.616514
 30
0.000000
 40
0.104167
  1
1-9/16"  -  40mm
 72
  5
 11
5.356709
 21
6.616514
 31
0.000000
  0
POLYLINE
  8
LAYER-1
 66
  1
 70
  0
 62
  0
 10
3.088911
 20
6.323533
 30
0.000000
  0
VERTEX
  8
LAYER-1
 10
3.088911
 20
6.323533
 30
0.000000
  0
VERTEX
  8
LAYER-1
 10
3.088911
 20
6.104180
 30
0.000000
  0
SEQEND
  8
LAYER-1
  0
POLYLINE
  8
LAYER-1
 66
  1
 70
  0
 62
  0
 10
3.376541
 20
6.314852
 30
0.000000
  0
VERTEX
  8
LAYER-1
 10
3.376541
 20
6.314852
 30
0.000000
  0
VERTEX
  8
LAYER-1
 10
3.376541
 20
6.100984
 30
0.000000
  0
SEQEND
  8
LAYER-1
  0
POLYLINE
  8
LAYER-1
 66
  1
 70
  0
 62
  0
 10
3.090278
 20
6.167947
 30
0.000000
  0
VERTEX
  8
LAYER-1
 10
3.090278
 20
6.167947
 30
0.000000
  0
VERTEX
  8
LAYER-1
 10
3.376740
 20
6.167947
 30
0.000000
  0
SEQEND
  8
LAYER-1
  0
LINE
  8
LAYER-1
 62
  0
 10
3.119741
 20
6.197410
 30
0.000000
 11
3.060815
 21
6.138484
 31
0.000000
  0
LINE
  8
LAYER-1
 62
  0
 10
3.406203
 20
6.197410
 30
0.000000
 11
3.347278
 21
6.138484
 31
0.000000
  0
TEXT
  8
LAYER-1
 62
  0
 10
2.648375
 20
5.908180
 30
0.000000
 40
0.104167
  1
1-5/16"  -  33mm
 72
  5
 11
3.787264
 21
5.908180
 31
0.000000
  0
TEXT
  8
LAYER-1
 62
  7
 10
1.565042
 20
8.685958
 30
0.000000
 40
0.187500
  1
Sezione verticale
 72
  5
 11
3.662264
 21
8.685958
 31
0.000000
  0
POLYLINE
  8
LAYER-1
 66
  1
 70
  1
 62
  0
  0
VERTEX
  8
LAYER-1
 10
2.446244
 20
6.967432
 30
0.000000
  0
VERTEX
  8
LAYER-1
 10
4.028927
 20
6.967432
 30
0.000000
  0
VERTEX
  8
LAYER-1
 10
4.028927
 20
6.849322
 30
0.000000
  0
VERTEX
  8
LAYER-1
 10
2.446244
 20
6.849322
 30
0.000000
  0
SEQEND
  8
LAYER-1
  0
POLYLINE
  8
LAYER-1
 66
  1
 70
  0
 62
  0
 10
2.594317
 20
3.748444
 30
0.000000
  0
VERTEX
  8
LAYER-1
 10
2.594317
 20
3.748444
 30
0.000000
  0
VERTEX
  8
LAYER-1
 10
2.594317
 20
2.259261
 30
0.000000
  0
SEQEND
  8
LAYER-1
  0
POLYLINE
  8
LAYER-1
 66
  1
 70
  0
 62
  0
 10
3.876662
 20
3.748444
 30
0.000000
  0
VERTEX
  8
LAYER-1
 10
3.876662
 20
3.748444
 30
0.000000
  0
VERTEX
  8
LAYER-1
 10
3.876662
 20
2.259261
 30
0.000000
  0
SEQEND
  8
LAYER-1
  0
POLYLINE
  8
LAYER-1
 66
  1
 70
  0
 62
  0
 10
2.594317
 20
0.894756
 30
0.000000
  0
VERTEX
  8
LAYER-1
 10
2.594317
 20
0.894756
 30
0.000000
  0
VERTEX
  8
LAYER-1
 10
2.594317
 20
2.174896
 30
0.000000
  0
SEQEND
  8
LAYER-1
  0
POLYLINE
  8
LAYER-1
 66
  1
 70
  0
 62
  0
 10
3.876662
 20
0.894756
 30
0.000000
  0
VERTEX
  8
LAYER-1
 10
3.876662
 20
0.894756
 30
0.000000
  0
VERTEX
  8
LAYER-1
 10
3.876662
 20
2.174896
 30
0.000000
  0
SEQEND
  8
LAYER-1
  0
TEXT
  8
LAYER-1
 62
  0
 10
2.926153
 20
7.630402
 30
0.000000
 40
0.062500
  1
2
 72
  5
 11
3.037264
 21
7.630402
 31
0.000000
  0
TEXT
  8
LAYER-1
 62
  0
 10
3.412264
 20
7.630402
 30
0.000000
 40
0.062500
  1
2
 72
  5
 11
3.523375
 21
7.630402
 31
0.000000
  0
TEXT
  8
LAYER-1
 62
  0
 10
2.287264
 20
7.838736
 30
0.000000
 40
0.104167
  1
SUPPORTI DI LEGNO INSTALLATI
 72
  5
 11
4.648375
 21
7.838736
 31
0.000000
  0
TEXT
  8
LAYER-1
 62
  0
 10
2.287264
 20
7.685958
 30
0.000000
 40
0.104167
  1
DALL'IMPRESA EDILE PER UN PESO
 72
  5
 11
4.856709
 21
7.685958
 31
0.000000
  0
TEXT
  8
LAYER-1
 62
  0
 10
2.287264
 20
7.533180
 30
0.000000
 40
0.104167
  1
DI 15 kg/m  (3 lb/pi
 72
  5
 11
3.565042
 21
7.533180
 31
0.000000
  0
TEXT
  8
LAYER-1
 62
  0
 10
3.565042
 20
7.533180
 30
0.000000
 40
0.062500
  1
  
 72
  5
 11
3.690042
 21
7.533180
 31
0.000000
  0
TEXT
  8
LAYER-1
 62
  0
 10
3.690042
 20
7.533180
 30
0.000000
 40
0.104167
  1
)
 72
  5
 11
3.801153
 21
7.533180
 31
0.000000
  0
POLYLINE
  8
LAYER-1
 66
  1
 70
  0
 62
  0
 10
2.176153
 20
0.404260
 30
0.000000
  0
VERTEX
  8
LAYER-1
 10
2.176153
 20
0.404260
 30
0.000000
  0
VERTEX
  8
LAYER-1
 10
3.141280
 20
0.404260
 30
0.000000
  0
SEQEND
  8
LAYER-1
  0
POLYLINE
  8
LAYER-1
 66
  1
 70
  1
 62
  0
  0
VERTEX
  8
LAYER-1
 10
3.160965
 20
0.404260
 30
0.000000
  0
VERTEX
  8
LAYER-1
 10
3.091521
 20
0.362593
 30
0.000000
  0
VERTEX
  8
LAYER-1
 10
3.091520
 20
0.404260
 30
0.000000
  0
VERTEX
  8
LAYER-1
 10
3.091520
 20
0.445926
 30
0.000000
  0
VERTEX
  8
LAYER-1
 10
3.160965
 20
0.404260
 30
0.000000
  0
SEQEND
  8
LAYER-1
  0
POLYLINE
  8
LAYER-1
 66
  1
 70
  1
 62
  0
  0
VERTEX
  8
LAYER-1
 10
3.171492
 20
6.685568
 30
0.000000
  0
VERTEX
  8
LAYER-1
 10
3.289077
 20
6.685568
 30
0.000000
  0
VERTEX
  8
LAYER-1
 10
3.289077
 20
6.592239
 30
0.000000
  0
VERTEX
  8
LAYER-1
 10
3.171492
 20
6.592239
 30
0.000000
  0
SEQEND
  8
LAYER-1
  0
POLYLINE
  8
LAYER-1
 66
  1
 70
  1
 62
  0
  0
VERTEX
  8
LAYER-1
 10
3.175568
 20
4.125170
 30
0.000000
  0
VERTEX
  8
LAYER-1
 10
3.293152
 20
4.125170
 30
0.000000
  0
VERTEX
  8
LAYER-1
 10
3.293152
 20
4.031841
 30
0.000000
  0
VERTEX
  8
LAYER-1
 10
3.175568
 20
4.031841
 30
0.000000
  0
SEQEND
  8
LAYER-1
  0
TEXT
  8
LAYER-1
 62
  0
 10
4.287264
 20
7.005402
 30
0.000000
 40
0.072917
  1
MINIMO
 72
  5
 11
4.717820
 21
7.005402
 31
0.000000
  0
TEXT
  8
LAYER-1
 62
  0
 10
4.287264
 20
3.991514
 30
0.000000
 40
0.072917
  1
MASSIMO
 72
  5
 11
4.828931
 21
3.991514
 31
0.000000
  0
POLYLINE
  8
LAYER-1
 66
  1
 70
  0
 62
  0
 10
3.192876
 20
0.411335
 30
0.000000
  0
VERTEX
  8
LAYER-1
 10
3.192876
 20
0.411335
 30
0.000000
  0
VERTEX
  8
LAYER-1
 10
3.194148
 20
0.397011
 30
0.000000
  0
VERTEX
  8
LAYER-1
 10
3.203377
 20
0.383200
 30
0.000000
  0
VERTEX
  8
LAYER-1
 10
3.217189
 20
0.373972
 30
0.000000
  0
VERTEX
  8
LAYER-1
 10
3.233480
 20
0.370731
 30
0.000000
  0
VERTEX
  8
LAYER-1
 10
3.249773
 20
0.373972
 30
0.000000
  0
VERTEX
  8
LAYER-1
 10
3.263584
 20
0.383200
 30
0.000000
  0
VERTEX
  8
LAYER-1
 10
3.272813
 20
0.397011
 30
0.000000
  0
VERTEX
  8
LAYER-1
 10
3.278022
 20
0.411335
 30
0.000000
  0
SEQEND
  8
LAYER-1
  0
POLYLINE
  8
LAYER-1
 66
  1
 70
  0
 62
  0
 10
3.192876
 20
0.411335
 30
0.000000
  0
VERTEX
  8
LAYER-1
 10
3.192876
 20
0.411335
 30
0.000000
  0
VERTEX
  8
LAYER-1
 10
3.192972
 20
0.894768
 30
0.000000
  0
SEQEND
  8
LAYER-1
  0
POLYLINE
  8
LAYER-1
 66
  1
 70
  0
 62
  0
 10
3.192972
 20
0.894768
 30
0.000000
  0
VERTEX
  8
LAYER-1
 10
3.192972
 20
0.894768
 30
0.000000
  0
VERTEX
  8
LAYER-1
 10
3.278011
 20
0.894768
 30
0.000000
  0
SEQEND
  8
LAYER-1
  0
POLYLINE
  8
LAYER-1
 66
  1
 70
  0
 62
  0
 10
3.278011
 20
0.894768
 30
0.000000
  0
VERTEX
  8
LAYER-1
 10
3.278011
 20
0.894768
 30
0.000000
  0
VERTEX
  8
LAYER-1
 10
3.278023
 20
0.411335
 30
0.000000
  0
SEQEND
  8
LAYER-1
  0
POLYLINE
  8
LAYER-1
 66
  1
 70
  1
 62
  0
  0
VERTEX
  8
LAYER-1
 10
0.273376
 20
4.633876
 30
0.000000
  0
VERTEX
  8
LAYER-1
 10
1.471292
 20
4.633876
 30
0.000000
  0
VERTEX
  8
LAYER-1
 10
1.471292
 20
3.460264
 30
0.000000
  0
VERTEX
  8
LAYER-1
 10
0.273376
 20
3.460264
 30
0.000000
  0
SEQEND
  8
LAYER-1
  0
POLYLINE
  8
LAYER-1
 66
  1
 70
  1
 62
  0
  0
VERTEX
  8
LAYER-1
 10
0.321987
 20
4.585264
 30
0.000000
  0
VERTEX
  8
LAYER-1
 10
1.419209
 20
4.585264
 30
0.000000
  0
VERTEX
  8
LAYER-1
 10
1.419209
 20
3.515818
 30
0.000000
  0
VERTEX
  8
LAYER-1
 10
0.321987
 20
3.515818
 30
0.000000
  0
SEQEND
  8
LAYER-1
  0
TEXT
  8
LAYER-1
 62
  0
 10
0.426153
 20
4.408180
 30
0.000000
 40
0.083333
  1
LASCIARE SPAZIO
 72
  5
 11
1.440042
 21
4.408180
 31
0.000000
  0
TEXT
  8
LAYER-1
 62
  0
 10
0.426153
 20
4.283180
 30
0.000000
 40
0.062500
  1
+/-
 72
  5
 11
0.606709
 21
4.283180
 31
0.000000
  0
TEXT
  8
LAYER-1
 62
  0
 10
0.606709
 20
4.283180
 30
0.000000
 40
0.083333
  1
1/8" (3mm)
 72
  5
 11
1.217820
 21
4.283180
 31
0.000000
  0
TEXT
  8
LAYER-1
 62
  0
 10
0.426153
 20
4.158180
 30
0.000000
 40
0.083333
  1
SU CIASCUN LATO
 72
  5
 11
1.481709
 21
4.158180
 31
0.000000
  0
TEXT
  8
LAYER-1
 62
  0
 10
0.426153
 20
4.033180
 30
0.000000
 40
0.083333
  1
DELLA GUIDA
 72
  5
 11
1.203931
 21
4.033180
 31
0.000000
  0
TEXT
  8
LAYER-1
 62
  0
 10
0.384487
 20
3.838736
 30
0.000000
 40
0.083333
  1
NON SIGILLARE
 72
  5
 11
1.273375
 21
3.838736
 31
0.000000
  0
TEXT
  8
LAYER-1
 62
  0
 10
0.384487
 20
3.713736
 30
0.000000
 40
0.083333
  1
IL GUIDA
 72
  5
 11
0.912264
 21
3.713736
 31
0.000000
  0
TEXT
  8
LAYER-1
 62
  0
 10
0.384487
 20
3.588736
 30
0.000000
 40
0.083333
  1
CON IL SOFFITTO 
 72
  5
 11
1.412264
 21
3.588736
 31
0.000000
  0
POLYLINE
  8
LAYER-1
 66
  1
 70
  0
 62
  0
 10
4.217819
 20
3.748459
 30
0.000000
  0
VERTEX
  8
LAYER-1
 10
4.217819
 20
3.748459
 30
0.000000
  0
VERTEX
  8
LAYER-1
 10
3.486873
 20
3.941209
 30
0.000000
  0
SEQEND
  8
LAYER-1
  0
POLYLINE
  8
LAYER-1
 66
  1
 70
  1
 62
  0
  0
VERTEX
  8
LAYER-1
 10
3.467839
 20
3.946228
 30
0.000000
  0
VERTEX
  8
LAYER-1
 10
3.545613
 20
3.968811
 30
0.000000
  0
VERTEX
  8
LAYER-1
 10
3.534988
 20
3.928521
 30
0.000000
  0
VERTEX
  8
LAYER-1
 10
3.524364
 20
3.888232
 30
0.000000
  0
VERTEX
  8
LAYER-1
 10
3.467839
 20
3.946228
 30
0.000000
  0
SEQEND
  8
LAYER-1
  0
ENDSEC
  0
EOF
