  0
SECTION
  2
HEADER
999
MacDraft 5.0\0
  9
$ACADVER
  1
AC1006
  9
$CLAYER
  8
LAYER-1
  9
$EXTMIN
 10
0.000000
 20
0.000000
  9
$EXTMAX
 10
5.938406
 20
8.594680
  9
$FASTZOOM
 70
0
  9
$FILLMODE
 70
1
  0
ENDSEC
  0
SECTION
  2
TABLES
  0
TABLE
  2
LTYPE
 70
16
  0
LTYPE
  2
CONTINUOUS
 70
64
  3
Solid Line
 72
65
 73
0
 40
0.000000
  0
LTYPE
  2
LTYPE01
 70
64
  3
CUSTOM
 72
65
 73
2
 40
0.111111
 49
0.083333
 49
-0.027778
  0
LTYPE
  2
LTYPE02
 70
64
  3
CUSTOM
 72
65
 73
2
 40
0.194444
 49
0.166667
 49
-0.027778
  0
LTYPE
  2
LTYPE03
 70
64
  3
CUSTOM
 72
65
 73
2
 40
0.375000
 49
0.333333
 49
-0.041667
  0
LTYPE
  2
LTYPE04
 70
64
  3
CUSTOM
 72
65
 73
2
 40
0.722222
 49
0.666667
 49
-0.055556
  0
LTYPE
  2
LTYPE05
 70
64
  3
CUSTOM
 72
65
 73
4
 40
0.152778
 49
0.083333
 49
-0.027778
 49
0.013889
 49
-0.027778
  0
LTYPE
  2
LTYPE06
 70
64
  3
CUSTOM
 72
65
 73
4
 40
0.236111
 49
0.166667
 49
-0.027778
 49
0.013889
 49
-0.027778
  0
LTYPE
  2
LTYPE07
 70
64
  3
CUSTOM
 72
65
 73
4
 40
0.444444
 49
0.333333
 49
-0.041667
 49
0.027778
 49
-0.041667
  0
LTYPE
  2
LTYPE08
 70
64
  3
CUSTOM
 72
65
 73
4
 40
0.805556
 49
0.666667
 49
-0.055556
 49
0.027778
 49
-0.055556
  0
LTYPE
  2
LTYPE09
 70
64
  3
CUSTOM
 72
65
 73
6
 40
0.194444
 49
0.083333
 49
-0.027778
 49
0.013889
 49
-0.027778
 49
0.013889
 49
-0.027778
  0
LTYPE
  2
LTYPE10
 70
64
  3
CUSTOM
 72
65
 73
6
 40
0.277778
 49
0.166667
 49
-0.027778
 49
0.013889
 49
-0.027778
 49
0.013889
 49
-0.027778
  0
LTYPE
  2
LTYPE11
 70
64
  3
CUSTOM
 72
65
 73
6
 40
0.500000
 49
0.333333
 49
-0.041667
 49
0.027778
 49
-0.027778
 49
0.027778
 49
-0.041667
  0
LTYPE
  2
LTYPE12
 70
64
  3
CUSTOM
 72
65
 73
6
 40
0.861111
 49
0.666667
 49
-0.055556
 49
0.027778
 49
-0.027778
 49
0.027778
 49
-0.055556
  0
LTYPE
  2
LTYPE13
 70
64
  3
CUSTOM
 72
65
 73
8
 40
0.319444
 49
0.166667
 49
-0.027778
 49
0.013889
 49
-0.027778
 49
0.013889
 49
-0.027778
 49
0.013889
 49
-0.027778
  0
LTYPE
  2
LTYPE14
 70
64
  3
CUSTOM
 72
65
 73
8
 40
0.555556
 49
0.333333
 49
-0.041667
 49
0.027778
 49
-0.027778
 49
0.027778
 49
-0.027778
 49
0.027778
 49
-0.041667
  0
LTYPE
  2
LTYPE15
 70
64
  3
CUSTOM
 72
65
 73
8
 40
0.944444
 49
0.666667
 49
-0.055556
 49
0.027778
 49
-0.041667
 49
0.027778
 49
-0.041667
 49
0.027778
 49
-0.055556
  0
ENDTAB
  0
TABLE
  2
LAYER
 70
1
  0
LAYER
  2
LAYER-1
 70
0
 62
7
  6
CONTINUOUS
  0
ENDTAB
  0
ENDSEC
  0
SECTION
  2
BLOCKS
  0
ENDSEC
  0
SECTION
  2
ENTITIES
  0
ARC
  8
LAYER-1
 62
  0
 10
4.347448
 20
7.539619
 30
0.000000
 40
0.254425
 50
270.000000
 51
90.000000
  0
POLYLINE
  8
LAYER-1
 66
  1
 70
  0
 62
  0
 10
4.347448
 20
7.794044
 30
0.000000
  0
VERTEX
  8
LAYER-1
 10
4.347448
 20
7.794044
 30
0.000000
  0
VERTEX
  8
LAYER-1
 10
0.682525
 20
7.794044
 30
0.000000
  0
SEQEND
  8
LAYER-1
  0
POLYLINE
  8
LAYER-1
 66
  1
 70
  0
 62
  0
 10
0.682525
 20
7.794044
 30
0.000000
  0
VERTEX
  8
LAYER-1
 10
0.682525
 20
7.794044
 30
0.000000
  0
VERTEX
  8
LAYER-1
 10
0.682525
 20
7.285195
 30
0.000000
  0
SEQEND
  8
LAYER-1
  0
POLYLINE
  8
LAYER-1
 66
  1
 70
  0
 62
  0
 10
4.347448
 20
7.285195
 30
0.000000
  0
VERTEX
  8
LAYER-1
 10
4.347448
 20
7.285195
 30
0.000000
  0
VERTEX
  8
LAYER-1
 10
0.682525
 20
7.285195
 30
0.000000
  0
SEQEND
  8
LAYER-1
  0
TEXT
  8
LAYER-1
 62
  0
 10
2.486111
 20
8.066095
 30
0.000000
 40
0.333333
  1
MobilFlex
 72
  5
 11
4.638889
 21
8.066095
 31
0.000000
  0
POLYLINE
  8
LAYER-1
 66
  1
 70
  1
 62
  0
  0
VERTEX
  8
LAYER-1
 10
0.684028
 20
8.593013
 30
0.000000
  0
VERTEX
  8
LAYER-1
 10
0.921875
 20
8.593013
 30
0.000000
  0
VERTEX
  8
LAYER-1
 10
0.921875
 20
8.076068
 30
0.000000
  0
VERTEX
  8
LAYER-1
 10
0.684028
 20
8.076068
 30
0.000000
  0
SEQEND
  8
LAYER-1
  0
POLYLINE
  8
LAYER-1
 66
  1
 70
  1
 62
  0
  0
VERTEX
  8
LAYER-1
 10
0.996527
 20
8.593013
 30
0.000000
  0
VERTEX
  8
LAYER-1
 10
1.234375
 20
8.593013
 30
0.000000
  0
VERTEX
  8
LAYER-1
 10
1.234375
 20
8.076068
 30
0.000000
  0
VERTEX
  8
LAYER-1
 10
0.996527
 20
8.076068
 30
0.000000
  0
SEQEND
  8
LAYER-1
  0
POLYLINE
  8
LAYER-1
 66
  1
 70
  1
 62
  0
  0
VERTEX
  8
LAYER-1
 10
1.296875
 20
8.593013
 30
0.000000
  0
VERTEX
  8
LAYER-1
 10
1.534722
 20
8.593013
 30
0.000000
  0
VERTEX
  8
LAYER-1
 10
1.534722
 20
8.076068
 30
0.000000
  0
VERTEX
  8
LAYER-1
 10
1.296875
 20
8.076068
 30
0.000000
  0
SEQEND
  8
LAYER-1
  0
POLYLINE
  8
LAYER-1
 66
  1
 70
  1
 62
  0
  0
VERTEX
  8
LAYER-1
 10
1.600695
 20
8.593013
 30
0.000000
  0
VERTEX
  8
LAYER-1
 10
1.838543
 20
8.593013
 30
0.000000
  0
VERTEX
  8
LAYER-1
 10
1.838543
 20
8.076068
 30
0.000000
  0
VERTEX
  8
LAYER-1
 10
1.600695
 20
8.076068
 30
0.000000
  0
SEQEND
  8
LAYER-1
  0
POLYLINE
  8
LAYER-1
 66
  1
 70
  1
 62
  0
  0
VERTEX
  8
LAYER-1
 10
1.917536
 20
8.589099
 30
0.000000
  0
VERTEX
  8
LAYER-1
 10
2.292970
 20
8.589099
 30
0.000000
  0
VERTEX
  8
LAYER-1
 10
2.292970
 20
8.451078
 30
0.000000
  0
VERTEX
  8
LAYER-1
 10
1.917536
 20
8.451078
 30
0.000000
  0
SEQEND
  8
LAYER-1
  0
POLYLINE
  8
LAYER-1
 66
  1
 70
  1
 62
  0
  0
VERTEX
  8
LAYER-1
 10
1.917102
 20
8.361668
 30
0.000000
  0
VERTEX
  8
LAYER-1
 10
2.225261
 20
8.361668
 30
0.000000
  0
VERTEX
  8
LAYER-1
 10
2.225261
 20
8.227553
 30
0.000000
  0
VERTEX
  8
LAYER-1
 10
1.917102
 20
8.227553
 30
0.000000
  0
SEQEND
  8
LAYER-1
  0
POLYLINE
  8
LAYER-1
 66
  1
 70
  1
 62
  0
  0
VERTEX
  8
LAYER-1
 10
0.684028
 20
7.991442
 30
0.000000
  0
VERTEX
  8
LAYER-1
 10
4.602432
 20
7.991442
 30
0.000000
  0
VERTEX
  8
LAYER-1
 10
4.602432
 20
7.948040
 30
0.000000
  0
VERTEX
  8
LAYER-1
 10
0.684028
 20
7.948040
 30
0.000000
  0
SEQEND
  8
LAYER-1
  0
TEXT
  8
LAYER-1
 62
  0
 10
4.430555
 20
0.468873
 30
0.000000
 40
0.125000
  1
MOLLA
 72
  5
 11
5.041667
 21
0.468873
 31
0.000000
  0
TEXT
  8
LAYER-1
 62
  0
 10
0.083333
 20
0.468873
 30
0.000000
 40
0.125000
  1
CAPSULA
 72
  5
 11
0.916667
 21
0.468873
 31
0.000000
  0
TEXT
  8
LAYER-1
 62
  0
 10
0.083333
 20
0.274428
 30
0.000000
 40
0.125000
  1
ANTIPOLVERE
 72
  5
 11
1.291667
 21
0.274428
 31
0.000000
  0
TEXT
  8
LAYER-1
 62
  0
 10
0.083333
 20
4.468873
 30
0.000000
 40
0.125000
  1
PAVIMENTO FINITO
 72
  5
 11
1.652778
 21
4.468873
 31
0.000000
  0
TEXT
  8
LAYER-1
 62
  0
 10
0.083333
 20
4.274428
 30
0.000000
 40
0.125000
  1
O BANCONE
 72
  5
 11
1.138889
 21
4.274428
 31
0.000000
  0
TEXT
  8
LAYER-1
 62
  0
 10
0.083333
 20
5.510540
 30
0.000000
 40
0.125000
  1
GANCIO
 72
  5
 11
0.791667
 21
5.510540
 31
0.000000
  0
TEXT
  8
LAYER-1
 62
  0
 10
4.430555
 20
4.829984
 30
0.000000
 40
0.125000
  1
COPERTURA
 72
  5
 11
5.541667
 21
4.829984
 31
0.000000
  0
TEXT
  8
LAYER-1
 62
  0
 10
4.430555
 20
4.635540
 30
0.000000
 40
0.125000
  1
DI ACCIAIO
 72
  5
 11
5.361111
 21
4.635540
 31
0.000000
  0
TEXT
  8
LAYER-1
 62
  0
 10
4.430555
 20
4.441095
 30
0.000000
 40
0.125000
  1
INOSSIDABILE
 72
  5
 11
5.638889
 21
4.441095
 31
0.000000
  0
TEXT
  8
LAYER-1
 62
  7
 10
0.902778
 20
7.399428
 30
0.000000
 40
0.187500
  1
Zoccolo antipolvere
 72
  5
 11
3.333333
 21
7.399428
 31
0.000000
  0
TEXT
  8
LAYER-1
 62
  7
 10
3.555555
 20
7.579984
 30
0.000000
 40
0.093750
  1
PAVIMENTO
 72
  5
 11
4.347222
 21
7.579984
 31
0.000000
  0
TEXT
  8
LAYER-1
 62
  7
 10
3.625000
 20
7.441095
 30
0.000000
 40
0.093750
  1
O BANCO
 72
  5
 11
4.263889
 21
7.441095
 31
0.000000
  0
POLYLINE
  8
LAYER-1
 66
  1
 70
  1
 62
  7
  0
VERTEX
  8
LAYER-1
 10
0.006944
 20
3.934151
 30
0.000000
  0
VERTEX
  8
LAYER-1
 10
5.253883
 20
3.934151
 30
0.000000
  0
VERTEX
  8
LAYER-1
 10
5.253883
 20
3.574050
 30
0.000000
  0
VERTEX
  8
LAYER-1
 10
0.006944
 20
3.574050
 30
0.000000
  0
SEQEND
  8
LAYER-1
  0
POLYLINE
  8
LAYER-1
 66
  1
 70
  1
 62
  7
  0
VERTEX
  8
LAYER-1
 10
0.006944
 20
3.574050
 30
0.000000
  0
VERTEX
  8
LAYER-1
 10
5.244398
 20
3.574050
 30
0.000000
  0
VERTEX
  8
LAYER-1
 10
5.244398
 20
0.917741
 30
0.000000
  0
VERTEX
  8
LAYER-1
 10
0.006944
 20
0.917741
 30
0.000000
  0
SEQEND
  8
LAYER-1
  0
POLYLINE
  8
LAYER-1
 66
  1
 70
  1
 62
  0
  0
VERTEX
  8
LAYER-1
 10
2.181817
 20
3.932844
 30
0.000000
  0
VERTEX
  8
LAYER-1
 10
3.052080
 20
3.932844
 30
0.000000
  0
VERTEX
  8
LAYER-1
 10
3.052080
 20
1.046702
 30
0.000000
  0
VERTEX
  8
LAYER-1
 10
2.181817
 20
1.046702
 30
0.000000
  0
SEQEND
  8
LAYER-1
  0
POLYLINE
  8
LAYER-1
  6
LTYPE01
 66
  1
 70
  1
 62
  0
  0
VERTEX
  8
LAYER-1
  6
LTYPE01
 10
2.254006
 20
4.073208
 30
0.000000
  0
VERTEX
  8
LAYER-1
  6
LTYPE01
 10
2.975883
 20
4.073208
 30
0.000000
  0
VERTEX
  8
LAYER-1
  6
LTYPE01
 10
2.975883
 20
1.193728
 30
0.000000
  0
VERTEX
  8
LAYER-1
  6
LTYPE01
 10
2.254006
 20
1.193728
 30
0.000000
  0
SEQEND
  8
LAYER-1
  0
LINE
  8
LAYER-1
 62
  0
 10
2.201503
 20
0.223206
 30
0.000000
 11
3.033495
 21
0.223206
 31
0.000000
  0
LINE
  8
LAYER-1
 62
  0
 10
2.181818
 20
0.810395
 30
0.000000
 11
2.181818
 21
0.098206
 31
0.000000
  0
LINE
  8
LAYER-1
 62
  0
 10
3.053180
 20
0.818646
 30
0.000000
 11
3.053180
 21
0.098206
 31
0.000000
  0
POLYLINE
  8
LAYER-1
 66
  1
 70
  1
 62
  0
  0
VERTEX
  8
LAYER-1
 10
2.181818
 20
0.223206
 30
0.000000
  0
VERTEX
  8
LAYER-1
 10
2.251263
 20
0.181541
 30
0.000000
  0
VERTEX
  8
LAYER-1
 10
2.251262
 20
0.223207
 30
0.000000
  0
VERTEX
  8
LAYER-1
 10
2.251262
 20
0.264874
 30
0.000000
  0
VERTEX
  8
LAYER-1
 10
2.181818
 20
0.223206
 30
0.000000
  0
SEQEND
  8
LAYER-1
  0
POLYLINE
  8
LAYER-1
 66
  1
 70
  1
 62
  0
  0
VERTEX
  8
LAYER-1
 10
3.053180
 20
0.223206
 30
0.000000
  0
VERTEX
  8
LAYER-1
 10
2.983736
 20
0.181539
 30
0.000000
  0
VERTEX
  8
LAYER-1
 10
2.983735
 20
0.223206
 30
0.000000
  0
VERTEX
  8
LAYER-1
 10
2.983735
 20
0.264872
 30
0.000000
  0
VERTEX
  8
LAYER-1
 10
3.053180
 20
0.223206
 30
0.000000
  0
SEQEND
  8
LAYER-1
  0
TEXT
  8
LAYER-1
 62
  0
 10
2.546369
 20
0.078124
 30
0.000000
 40
0.125000
  1
19mm
  0
LINE
  8
LAYER-1
 62
  0
 10
1.917863
 20
5.931203
 30
0.000000
 11
3.318235
 21
5.931203
 31
0.000000
  0
LINE
  8
LAYER-1
 62
  0
 10
1.898179
 20
4.019636
 30
0.000000
 11
1.898179
 21
6.056203
 31
0.000000
  0
LINE
  8
LAYER-1
 62
  0
 10
3.337920
 20
4.019636
 30
0.000000
 11
3.337920
 21
6.056203
 31
0.000000
  0
POLYLINE
  8
LAYER-1
 66
  1
 70
  1
 62
  0
  0
VERTEX
  8
LAYER-1
 10
1.898179
 20
5.931203
 30
0.000000
  0
VERTEX
  8
LAYER-1
 10
1.967623
 20
5.889537
 30
0.000000
  0
VERTEX
  8
LAYER-1
 10
1.967623
 20
5.931203
 30
0.000000
  0
VERTEX
  8
LAYER-1
 10
1.967623
 20
5.972870
 30
0.000000
  0
VERTEX
  8
LAYER-1
 10
1.898179
 20
5.931203
 30
0.000000
  0
SEQEND
  8
LAYER-1
  0
POLYLINE
  8
LAYER-1
 66
  1
 70
  1
 62
  0
  0
VERTEX
  8
LAYER-1
 10
3.337920
 20
5.931203
 30
0.000000
  0
VERTEX
  8
LAYER-1
 10
3.268476
 20
5.889536
 30
0.000000
  0
VERTEX
  8
LAYER-1
 10
3.268475
 20
5.931202
 30
0.000000
  0
VERTEX
  8
LAYER-1
 10
3.268475
 20
5.972869
 30
0.000000
  0
VERTEX
  8
LAYER-1
 10
3.337920
 20
5.931203
 30
0.000000
  0
SEQEND
  8
LAYER-1
  0
TEXT
  8
LAYER-1
 62
  0
 10
2.436133
 20
6.050566
 30
0.000000
 40
0.125000
  1
1-1/4"   -   30mm
  0
POLYLINE
  8
LAYER-1
 66
  1
 70
  0
 62
  0
 10
1.291667
 20
5.392484
 30
0.000000
  0
VERTEX
  8
LAYER-1
 10
1.291667
 20
5.392484
 30
0.000000
  0
VERTEX
  8
LAYER-1
 10
2.350544
 20
4.753349
 30
0.000000
  0
SEQEND
  8
LAYER-1
  0
POLYLINE
  8
LAYER-1
 66
  1
 70
  1
 62
  0
  0
VERTEX
  8
LAYER-1
 10
2.367396
 20
4.743176
 30
0.000000
  0
VERTEX
  8
LAYER-1
 10
2.286411
 20
4.743391
 30
0.000000
  0
VERTEX
  8
LAYER-1
 10
2.307943
 20
4.779063
 30
0.000000
  0
VERTEX
  8
LAYER-1
 10
2.329475
 20
4.814735
 30
0.000000
  0
VERTEX
  8
LAYER-1
 10
2.367396
 20
4.743176
 30
0.000000
  0
SEQEND
  8
LAYER-1
  0
POLYLINE
  8
LAYER-1
 66
  1
 70
  0
 62
  0
 10
0.914525
 20
4.273081
 30
0.000000
  0
VERTEX
  8
LAYER-1
 10
0.914525
 20
4.273081
 30
0.000000
  0
VERTEX
  8
LAYER-1
 10
1.227621
 20
3.944345
 30
0.000000
  0
SEQEND
  8
LAYER-1
  0
POLYLINE
  8
LAYER-1
 66
  1
 70
  1
 62
  0
  0
VERTEX
  8
LAYER-1
 10
1.241197
 20
3.930091
 30
0.000000
  0
VERTEX
  8
LAYER-1
 10
1.163131
 20
3.951641
 30
0.000000
  0
VERTEX
  8
LAYER-1
 10
1.193303
 20
3.980377
 30
0.000000
  0
VERTEX
  8
LAYER-1
 10
1.223475
 20
4.009114
 30
0.000000
  0
VERTEX
  8
LAYER-1
 10
1.241197
 20
3.930091
 30
0.000000
  0
SEQEND
  8
LAYER-1
  0
POLYLINE
  8
LAYER-1
 66
  1
 70
  0
 62
  0
 10
4.318709
 20
4.758339
 30
0.000000
  0
VERTEX
  8
LAYER-1
 10
4.318709
 20
4.758339
 30
0.000000
  0
VERTEX
  8
LAYER-1
 10
3.253896
 20
4.028421
 30
0.000000
  0
SEQEND
  8
LAYER-1
  0
POLYLINE
  8
LAYER-1
 66
  1
 70
  1
 62
  0
  0
VERTEX
  8
LAYER-1
 10
3.237660
 20
4.017291
 30
0.000000
  0
VERTEX
  8
LAYER-1
 10
3.271381
 20
4.090923
 30
0.000000
  0
VERTEX
  8
LAYER-1
 10
3.294939
 20
4.056555
 30
0.000000
  0
VERTEX
  8
LAYER-1
 10
3.318497
 20
4.022188
 30
0.000000
  0
VERTEX
  8
LAYER-1
 10
3.237660
 20
4.017291
 30
0.000000
  0
SEQEND
  8
LAYER-1
  0
POLYLINE
  8
LAYER-1
 66
  1
 70
  1
 62
  0
 10
1.679630
 20
2.237196
 30
0.000000
  0
VERTEX
  8
LAYER-1
 10
1.679630
 20
2.237196
 30
0.000000
  0
VERTEX
  8
LAYER-1
 10
1.757365
 20
2.305038
 30
0.000000
  0
VERTEX
  8
LAYER-1
 10
1.581534
 20
2.365462
 30
0.000000
  0
SEQEND
  8
LAYER-1
  0
POLYLINE
  8
LAYER-1
 66
  1
 70
  1
 62
  0
 10
0.712953
 20
2.770801
 30
0.000000
  0
VERTEX
  8
LAYER-1
 10
0.712953
 20
2.770801
 30
0.000000
  0
VERTEX
  8
LAYER-1
 10
0.790688
 20
2.838644
 30
0.000000
  0
VERTEX
  8
LAYER-1
 10
0.614858
 20
2.899068
 30
0.000000
  0
SEQEND
  8
LAYER-1
  0
POLYLINE
  8
LAYER-1
 66
  1
 70
  1
 62
  0
 10
0.801073
 20
1.944489
 30
0.000000
  0
VERTEX
  8
LAYER-1
 10
0.801073
 20
1.944489
 30
0.000000
  0
VERTEX
  8
LAYER-1
 10
0.826340
 20
1.844454
 30
0.000000
  0
VERTEX
  8
LAYER-1
 10
0.959861
 20
1.973836
 30
0.000000
  0
SEQEND
  8
LAYER-1
  0
POLYLINE
  8
LAYER-1
 66
  1
 70
  1
 62
  0
 10
1.357878
 20
2.787432
 30
0.000000
  0
VERTEX
  8
LAYER-1
 10
1.357878
 20
2.787432
 30
0.000000
  0
VERTEX
  8
LAYER-1
 10
1.383145
 20
2.687397
 30
0.000000
  0
VERTEX
  8
LAYER-1
 10
1.516667
 20
2.816778
 30
0.000000
  0
SEQEND
  8
LAYER-1
  0
POLYLINE
  8
LAYER-1
 66
  1
 70
  1
 62
  0
 10
1.443179
 20
1.601117
 30
0.000000
  0
VERTEX
  8
LAYER-1
 10
1.443179
 20
1.601117
 30
0.000000
  0
VERTEX
  8
LAYER-1
 10
1.342645
 20
1.624316
 30
0.000000
  0
VERTEX
  8
LAYER-1
 10
1.396779
 20
1.446447
 30
0.000000
  0
SEQEND
  8
LAYER-1
  0
POLYLINE
  8
LAYER-1
 66
  1
 70
  1
 62
  0
 10
3.568191
 20
2.932447
 30
0.000000
  0
VERTEX
  8
LAYER-1
 10
3.568191
 20
2.932447
 30
0.000000
  0
VERTEX
  8
LAYER-1
 10
3.645927
 20
3.000290
 30
0.000000
  0
VERTEX
  8
LAYER-1
 10
3.470095
 20
3.060714
 30
0.000000
  0
SEQEND
  8
LAYER-1
  0
POLYLINE
  8
LAYER-1
 66
  1
 70
  1
 62
  0
 10
4.171397
 20
2.213239
 30
0.000000
  0
VERTEX
  8
LAYER-1
 10
4.171397
 20
2.213239
 30
0.000000
  0
VERTEX
  8
LAYER-1
 10
4.249131
 20
2.281083
 30
0.000000
  0
VERTEX
  8
LAYER-1
 10
4.073300
 20
2.341507
 30
0.000000
  0
SEQEND
  8
LAYER-1
  0
POLYLINE
  8
LAYER-1
 66
  1
 70
  1
 62
  0
 10
4.720467
 20
2.986581
 30
0.000000
  0
VERTEX
  8
LAYER-1
 10
4.720467
 20
2.986581
 30
0.000000
  0
VERTEX
  8
LAYER-1
 10
4.798203
 20
3.054423
 30
0.000000
  0
VERTEX
  8
LAYER-1
 10
4.622373
 20
3.114848
 30
0.000000
  0
SEQEND
  8
LAYER-1
  0
POLYLINE
  8
LAYER-1
 66
  1
 70
  1
 62
  0
 10
4.159215
 20
3.131574
 30
0.000000
  0
VERTEX
  8
LAYER-1
 10
4.159215
 20
3.131574
 30
0.000000
  0
VERTEX
  8
LAYER-1
 10
4.058681
 20
3.154775
 30
0.000000
  0
VERTEX
  8
LAYER-1
 10
4.112815
 20
2.976907
 30
0.000000
  0
SEQEND
  8
LAYER-1
  0
POLYLINE
  8
LAYER-1
 66
  1
 70
  1
 62
  0
 10
4.391217
 20
1.685427
 30
0.000000
  0
VERTEX
  8
LAYER-1
 10
4.391217
 20
1.685427
 30
0.000000
  0
VERTEX
  8
LAYER-1
 10
4.290682
 20
1.708627
 30
0.000000
  0
VERTEX
  8
LAYER-1
 10
4.344816
 20
1.530759
 30
0.000000
  0
SEQEND
  8
LAYER-1
  0
POLYLINE
  8
LAYER-1
 66
  1
 70
  1
 62
  0
 10
3.470707
 20
1.634397
 30
0.000000
  0
VERTEX
  8
LAYER-1
 10
3.470707
 20
1.634397
 30
0.000000
  0
VERTEX
  8
LAYER-1
 10
3.495974
 20
1.534362
 30
0.000000
  0
VERTEX
  8
LAYER-1
 10
3.629497
 20
1.663744
 30
0.000000
  0
SEQEND
  8
LAYER-1
  0
POLYLINE
  8
LAYER-1
 66
  1
 70
  1
 62
  0
 10
4.692819
 20
1.383825
 30
0.000000
  0
VERTEX
  8
LAYER-1
 10
4.692819
 20
1.383825
 30
0.000000
  0
VERTEX
  8
LAYER-1
 10
4.770554
 20
1.451668
 30
0.000000
  0
VERTEX
  8
LAYER-1
 10
4.594723
 20
1.512091
 30
0.000000
  0
SEQEND
  8
LAYER-1
  0
POLYLINE
  8
LAYER-1
 66
  1
 70
  1
 62
  0
 10
4.437617
 20
3.371310
 30
0.000000
  0
VERTEX
  8
LAYER-1
 10
4.437617
 20
3.371310
 30
0.000000
  0
VERTEX
  8
LAYER-1
 10
4.462884
 20
3.271276
 30
0.000000
  0
VERTEX
  8
LAYER-1
 10
4.596406
 20
3.400657
 30
0.000000
  0
SEQEND
  8
LAYER-1
  0
POLYLINE
  8
LAYER-1
 66
  1
 70
  1
 62
  0
 10
4.638686
 20
2.335034
 30
0.000000
  0
VERTEX
  8
LAYER-1
 10
4.638686
 20
2.335034
 30
0.000000
  0
VERTEX
  8
LAYER-1
 10
4.663954
 20
2.234999
 30
0.000000
  0
VERTEX
  8
LAYER-1
 10
4.797474
 20
2.364381
 30
0.000000
  0
SEQEND
  8
LAYER-1
  0
POLYLINE
  8
LAYER-1
 66
  1
 70
  1
 62
  0
 10
3.478674
 20
2.211299
 30
0.000000
  0
VERTEX
  8
LAYER-1
 10
3.478674
 20
2.211299
 30
0.000000
  0
VERTEX
  8
LAYER-1
 10
3.378141
 20
2.234499
 30
0.000000
  0
VERTEX
  8
LAYER-1
 10
3.432275
 20
2.056631
 30
0.000000
  0
SEQEND
  8
LAYER-1
  0
POLYLINE
  8
LAYER-1
 66
  1
 70
  1
 62
  0
 10
0.419084
 20
1.332388
 30
0.000000
  0
VERTEX
  8
LAYER-1
 10
0.419084
 20
1.332388
 30
0.000000
  0
VERTEX
  8
LAYER-1
 10
0.496819
 20
1.400230
 30
0.000000
  0
VERTEX
  8
LAYER-1
 10
0.320987
 20
1.460654
 30
0.000000
  0
SEQEND
  8
LAYER-1
  0
POLYLINE
  8
LAYER-1
 66
  1
 70
  1
 62
  0
 10
1.899450
 20
3.147797
 30
0.000000
  0
VERTEX
  8
LAYER-1
 10
1.899450
 20
3.147797
 30
0.000000
  0
VERTEX
  8
LAYER-1
 10
1.977184
 20
3.215641
 30
0.000000
  0
VERTEX
  8
LAYER-1
 10
1.801353
 20
3.276065
 30
0.000000
  0
SEQEND
  8
LAYER-1
  0
POLYLINE
  8
LAYER-1
 66
  1
 70
  1
 62
  0
 10
0.414635
 20
3.240599
 30
0.000000
  0
VERTEX
  8
LAYER-1
 10
0.414635
 20
3.240599
 30
0.000000
  0
VERTEX
  8
LAYER-1
 10
0.439903
 20
3.140564
 30
0.000000
  0
VERTEX
  8
LAYER-1
 10
0.573424
 20
3.269946
 30
0.000000
  0
SEQEND
  8
LAYER-1
  0
POLYLINE
  8
LAYER-1
 66
  1
 70
  1
 62
  0
 10
1.149310
 20
3.140065
 30
0.000000
  0
VERTEX
  8
LAYER-1
 10
1.149310
 20
3.140065
 30
0.000000
  0
VERTEX
  8
LAYER-1
 10
1.048775
 20
3.163265
 30
0.000000
  0
VERTEX
  8
LAYER-1
 10
1.102909
 20
2.985396
 30
0.000000
  0
SEQEND
  8
LAYER-1
  0
POLYLINE
  8
LAYER-1
 66
  1
 70
  1
 62
  0
 10
0.548314
 20
2.118621
 30
0.000000
  0
VERTEX
  8
LAYER-1
 10
0.548314
 20
2.118621
 30
0.000000
  0
VERTEX
  8
LAYER-1
 10
0.447780
 20
2.141822
 30
0.000000
  0
VERTEX
  8
LAYER-1
 10
0.501914
 20
1.963953
 30
0.000000
  0
SEQEND
  8
LAYER-1
  0
POLYLINE
  8
LAYER-1
 66
  1
 70
  1
 62
  0
 10
1.025574
 20
1.314980
 30
0.000000
  0
VERTEX
  8
LAYER-1
 10
1.025574
 20
1.314980
 30
0.000000
  0
VERTEX
  8
LAYER-1
 10
0.925040
 20
1.338180
 30
0.000000
  0
VERTEX
  8
LAYER-1
 10
0.979174
 20
1.160312
 30
0.000000
  0
SEQEND
  8
LAYER-1
  0
POLYLINE
  8
LAYER-1
  6
LTYPE01
 66
  1
 70
  1
 62
  0
  0
VERTEX
  8
LAYER-1
  6
LTYPE01
 10
2.352164
 20
1.999824
 30
0.000000
  0
VERTEX
  8
LAYER-1
  6
LTYPE01
 10
2.881541
 20
1.999824
 30
0.000000
  0
VERTEX
  8
LAYER-1
  6
LTYPE01
 10
2.881541
 20
1.197740
 30
0.000000
  0
VERTEX
  8
LAYER-1
  6
LTYPE01
 10
2.352164
 20
1.197740
 30
0.000000
  0
SEQEND
  8
LAYER-1
  0
TEXT
  8
LAYER-1
 62
  0
 10
2.527778
 20
0.288317
 30
0.000000
 40
0.125000
  1
3/4"
 72
  5
 11
2.888889
 21
0.288317
 31
0.000000
  0
POLYLINE
  8
LAYER-1
  6
LTYPE02
 66
  1
 70
  1
 62
  0
  6
LTYPE02
 10
2.906282
 20
2.591588
 30
0.000000
  0
VERTEX
  8
LAYER-1
  6
LTYPE02
 10
2.906282
 20
2.591588
 30
0.000000
  0
VERTEX
  8
LAYER-1
  6
LTYPE02
 10
2.333246
 20
2.591588
 30
0.000000
  0
VERTEX
  8
LAYER-1
  6
LTYPE02
 10
2.333246
 20
2.523411
 30
0.000000
  0
VERTEX
  8
LAYER-1
  6
LTYPE02
 10
2.273153
 20
2.523411
 30
0.000000
  0
VERTEX
  8
LAYER-1
  6
LTYPE02
 10
2.273153
 20
2.002057
 30
0.000000
  0
VERTEX
  8
LAYER-1
  6
LTYPE02
 10
2.954925
 20
2.002057
 30
0.000000
  0
VERTEX
  8
LAYER-1
  6
LTYPE02
 10
2.954925
 20
2.523411
 30
0.000000
  0
VERTEX
  8
LAYER-1
  6
LTYPE02
 10
2.906282
 20
2.523411
 30
0.000000
  0
SEQEND
  8
LAYER-1
  0
POLYLINE
  8
LAYER-1
 66
  1
 70
  1
 62
  7
 10
2.352164
 20
1.197740
 30
0.000000
  0
VERTEX
  8
LAYER-1
 10
2.352164
 20
1.197740
 30
0.000000
  0
VERTEX
  8
LAYER-1
 10
2.352164
 20
1.209770
 30
0.000000
  0
VERTEX
  8
LAYER-1
 10
2.881541
 20
1.253886
 30
0.000000
  0
VERTEX
  8
LAYER-1
 10
2.881541
 20
1.229824
 30
0.000000
  0
VERTEX
  8
LAYER-1
 10
2.527621
 20
1.197740
 30
0.000000
  0
SEQEND
  8
LAYER-1
  0
POLYLINE
  8
LAYER-1
  6
LTYPE02
 66
  1
 70
  0
 62
  0
  6
LTYPE02
 10
2.881541
 20
1.229824
 30
0.000000
  0
VERTEX
  8
LAYER-1
  6
LTYPE02
 10
2.881541
 20
1.229824
 30
0.000000
  0
VERTEX
  8
LAYER-1
  6
LTYPE02
 10
2.527621
 20
1.197740
 30
0.000000
  0
SEQEND
  8
LAYER-1
  0
POLYLINE
  8
LAYER-1
  6
LTYPE02
 66
  1
 70
  0
 62
  0
  6
LTYPE02
 10
2.881541
 20
1.253886
 30
0.000000
  0
VERTEX
  8
LAYER-1
  6
LTYPE02
 10
2.881541
 20
1.253886
 30
0.000000
  0
VERTEX
  8
LAYER-1
  6
LTYPE02
 10
2.352164
 20
1.209770
 30
0.000000
  0
SEQEND
  8
LAYER-1
  0
POLYLINE
  8
LAYER-1
 66
  1
 70
  1
 62
  7
 10
2.352164
 20
1.260903
 30
0.000000
  0
VERTEX
  8
LAYER-1
 10
2.352164
 20
1.260903
 30
0.000000
  0
VERTEX
  8
LAYER-1
 10
2.352164
 20
1.288977
 30
0.000000
  0
VERTEX
  8
LAYER-1
 10
2.881541
 20
1.333092
 30
0.000000
  0
VERTEX
  8
LAYER-1
 10
2.881541
 20
1.309028
 30
0.000000
  0
SEQEND
  8
LAYER-1
  0
POLYLINE
  8
LAYER-1
  6
LTYPE02
 66
  1
 70
  0
 62
  0
  6
LTYPE02
 10
2.881541
 20
1.309028
 30
0.000000
  0
VERTEX
  8
LAYER-1
  6
LTYPE02
 10
2.881541
 20
1.309028
 30
0.000000
  0
VERTEX
  8
LAYER-1
  6
LTYPE02
 10
2.352164
 20
1.260903
 30
0.000000
  0
SEQEND
  8
LAYER-1
  0
POLYLINE
  8
LAYER-1
  6
LTYPE02
 66
  1
 70
  0
 62
  0
  6
LTYPE02
 10
2.881541
 20
1.333092
 30
0.000000
  0
VERTEX
  8
LAYER-1
  6
LTYPE02
 10
2.881541
 20
1.333092
 30
0.000000
  0
VERTEX
  8
LAYER-1
  6
LTYPE02
 10
2.352164
 20
1.288977
 30
0.000000
  0
SEQEND
  8
LAYER-1
  0
POLYLINE
  8
LAYER-1
 66
  1
 70
  1
 62
  7
 10
2.352164
 20
1.337102
 30
0.000000
  0
VERTEX
  8
LAYER-1
 10
2.352164
 20
1.337102
 30
0.000000
  0
VERTEX
  8
LAYER-1
 10
2.352164
 20
1.365175
 30
0.000000
  0
VERTEX
  8
LAYER-1
 10
2.881541
 20
1.409289
 30
0.000000
  0
VERTEX
  8
LAYER-1
 10
2.881541
 20
1.385227
 30
0.000000
  0
SEQEND
  8
LAYER-1
  0
POLYLINE
  8
LAYER-1
 66
  1
 70
  1
 62
  7
 10
2.351160
 20
1.473456
 30
0.000000
  0
VERTEX
  8
LAYER-1
 10
2.351160
 20
1.473456
 30
0.000000
  0
VERTEX
  8
LAYER-1
 10
2.351160
 20
1.501529
 30
0.000000
  0
VERTEX
  8
LAYER-1
 10
2.880538
 20
1.545644
 30
0.000000
  0
VERTEX
  8
LAYER-1
 10
2.880538
 20
1.521583
 30
0.000000
  0
SEQEND
  8
LAYER-1
  0
POLYLINE
  8
LAYER-1
 66
  1
 70
  1
 62
  7
 10
2.351160
 20
1.552661
 30
0.000000
  0
VERTEX
  8
LAYER-1
 10
2.351160
 20
1.552661
 30
0.000000
  0
VERTEX
  8
LAYER-1
 10
2.351160
 20
1.580734
 30
0.000000
  0
VERTEX
  8
LAYER-1
 10
2.880538
 20
1.624850
 30
0.000000
  0
VERTEX
  8
LAYER-1
 10
2.880538
 20
1.600788
 30
0.000000
  0
SEQEND
  8
LAYER-1
  0
POLYLINE
  8
LAYER-1
 66
  1
 70
  1
 62
  7
 10
2.351160
 20
1.628859
 30
0.000000
  0
VERTEX
  8
LAYER-1
 10
2.351160
 20
1.628859
 30
0.000000
  0
VERTEX
  8
LAYER-1
 10
2.351160
 20
1.656933
 30
0.000000
  0
VERTEX
  8
LAYER-1
 10
2.880538
 20
1.701047
 30
0.000000
  0
VERTEX
  8
LAYER-1
 10
2.880538
 20
1.676986
 30
0.000000
  0
SEQEND
  8
LAYER-1
  0
POLYLINE
  8
LAYER-1
 66
  1
 70
  1
 62
  7
 10
2.351160
 20
1.703052
 30
0.000000
  0
VERTEX
  8
LAYER-1
 10
2.351160
 20
1.703052
 30
0.000000
  0
VERTEX
  8
LAYER-1
 10
2.351160
 20
1.731127
 30
0.000000
  0
VERTEX
  8
LAYER-1
 10
2.880538
 20
1.775239
 30
0.000000
  0
VERTEX
  8
LAYER-1
 10
2.880538
 20
1.751177
 30
0.000000
  0
SEQEND
  8
LAYER-1
  0
POLYLINE
  8
LAYER-1
 66
  1
 70
  1
 62
  7
 10
2.352164
 20
1.772232
 30
0.000000
  0
VERTEX
  8
LAYER-1
 10
2.352164
 20
1.772232
 30
0.000000
  0
VERTEX
  8
LAYER-1
 10
2.352164
 20
1.800305
 30
0.000000
  0
VERTEX
  8
LAYER-1
 10
2.881541
 20
1.844421
 30
0.000000
  0
VERTEX
  8
LAYER-1
 10
2.881541
 20
1.820357
 30
0.000000
  0
SEQEND
  8
LAYER-1
  0
POLYLINE
  8
LAYER-1
 66
  1
 70
  1
 62
  7
 10
2.352164
 20
1.851438
 30
0.000000
  0
VERTEX
  8
LAYER-1
 10
2.352164
 20
1.851438
 30
0.000000
  0
VERTEX
  8
LAYER-1
 10
2.352164
 20
1.879510
 30
0.000000
  0
VERTEX
  8
LAYER-1
 10
2.881541
 20
1.923626
 30
0.000000
  0
VERTEX
  8
LAYER-1
 10
2.881541
 20
1.899562
 30
0.000000
  0
SEQEND
  8
LAYER-1
  0
POLYLINE
  8
LAYER-1
 66
  1
 70
  1
 62
  7
 10
2.352164
 20
1.927636
 30
0.000000
  0
VERTEX
  8
LAYER-1
 10
2.352164
 20
1.927636
 30
0.000000
  0
VERTEX
  8
LAYER-1
 10
2.352164
 20
1.955708
 30
0.000000
  0
VERTEX
  8
LAYER-1
 10
2.881541
 20
1.999824
 30
0.000000
  0
VERTEX
  8
LAYER-1
 10
2.881541
 20
1.975761
 30
0.000000
  0
SEQEND
  8
LAYER-1
  0
POLYLINE
  8
LAYER-1
  6
LTYPE02
 66
  1
 70
  0
 62
  0
  6
LTYPE02
 10
2.881541
 20
1.385227
 30
0.000000
  0
VERTEX
  8
LAYER-1
  6
LTYPE02
 10
2.881541
 20
1.385227
 30
0.000000
  0
VERTEX
  8
LAYER-1
  6
LTYPE02
 10
2.352164
 20
1.337102
 30
0.000000
  0
SEQEND
  8
LAYER-1
  0
POLYLINE
  8
LAYER-1
  6
LTYPE02
 66
  1
 70
  0
 62
  0
  6
LTYPE02
 10
2.881541
 20
1.409289
 30
0.000000
  0
VERTEX
  8
LAYER-1
  6
LTYPE02
 10
2.881541
 20
1.409289
 30
0.000000
  0
VERTEX
  8
LAYER-1
  6
LTYPE02
 10
2.352164
 20
1.365175
 30
0.000000
  0
SEQEND
  8
LAYER-1
  0
POLYLINE
  8
LAYER-1
 66
  1
 70
  1
 62
  7
 10
2.350159
 20
1.404277
 30
0.000000
  0
VERTEX
  8
LAYER-1
 10
2.350159
 20
1.404277
 30
0.000000
  0
VERTEX
  8
LAYER-1
 10
2.350159
 20
1.432348
 30
0.000000
  0
VERTEX
  8
LAYER-1
 10
2.879537
 20
1.476464
 30
0.000000
  0
VERTEX
  8
LAYER-1
 10
2.879537
 20
1.452401
 30
0.000000
  0
SEQEND
  8
LAYER-1
  0
POLYLINE
  8
LAYER-1
  6
LTYPE02
 66
  1
 70
  0
 62
  0
  6
LTYPE02
 10
2.879537
 20
1.452401
 30
0.000000
  0
VERTEX
  8
LAYER-1
  6
LTYPE02
 10
2.879537
 20
1.452401
 30
0.000000
  0
VERTEX
  8
LAYER-1
  6
LTYPE02
 10
2.350159
 20
1.404277
 30
0.000000
  0
SEQEND
  8
LAYER-1
  0
POLYLINE
  8
LAYER-1
  6
LTYPE02
 66
  1
 70
  0
 62
  0
  6
LTYPE02
 10
2.879537
 20
1.476464
 30
0.000000
  0
VERTEX
  8
LAYER-1
  6
LTYPE02
 10
2.879537
 20
1.476464
 30
0.000000
  0
VERTEX
  8
LAYER-1
  6
LTYPE02
 10
2.350159
 20
1.432348
 30
0.000000
  0
SEQEND
  8
LAYER-1
  0
POLYLINE
  8
LAYER-1
  6
LTYPE02
 66
  1
 70
  0
 62
  0
  6
LTYPE02
 10
2.880538
 20
1.521583
 30
0.000000
  0
VERTEX
  8
LAYER-1
  6
LTYPE02
 10
2.880538
 20
1.521583
 30
0.000000
  0
VERTEX
  8
LAYER-1
  6
LTYPE02
 10
2.351160
 20
1.473456
 30
0.000000
  0
SEQEND
  8
LAYER-1
  0
POLYLINE
  8
LAYER-1
  6
LTYPE02
 66
  1
 70
  0
 62
  0
  6
LTYPE02
 10
2.880538
 20
1.545644
 30
0.000000
  0
VERTEX
  8
LAYER-1
  6
LTYPE02
 10
2.880538
 20
1.545644
 30
0.000000
  0
VERTEX
  8
LAYER-1
  6
LTYPE02
 10
2.351160
 20
1.501529
 30
0.000000
  0
SEQEND
  8
LAYER-1
  0
POLYLINE
  8
LAYER-1
  6
LTYPE02
 66
  1
 70
  0
 62
  0
  6
LTYPE02
 10
2.880538
 20
1.600788
 30
0.000000
  0
VERTEX
  8
LAYER-1
  6
LTYPE02
 10
2.880538
 20
1.600788
 30
0.000000
  0
VERTEX
  8
LAYER-1
  6
LTYPE02
 10
2.351160
 20
1.552661
 30
0.000000
  0
SEQEND
  8
LAYER-1
  0
POLYLINE
  8
LAYER-1
  6
LTYPE02
 66
  1
 70
  0
 62
  0
  6
LTYPE02
 10
2.880538
 20
1.624850
 30
0.000000
  0
VERTEX
  8
LAYER-1
  6
LTYPE02
 10
2.880538
 20
1.624850
 30
0.000000
  0
VERTEX
  8
LAYER-1
  6
LTYPE02
 10
2.351160
 20
1.580734
 30
0.000000
  0
SEQEND
  8
LAYER-1
  0
POLYLINE
  8
LAYER-1
  6
LTYPE02
 66
  1
 70
  0
 62
  0
  6
LTYPE02
 10
2.880538
 20
1.676986
 30
0.000000
  0
VERTEX
  8
LAYER-1
  6
LTYPE02
 10
2.880538
 20
1.676986
 30
0.000000
  0
VERTEX
  8
LAYER-1
  6
LTYPE02
 10
2.351160
 20
1.628859
 30
0.000000
  0
SEQEND
  8
LAYER-1
  0
POLYLINE
  8
LAYER-1
  6
LTYPE02
 66
  1
 70
  0
 62
  0
  6
LTYPE02
 10
2.880538
 20
1.701047
 30
0.000000
  0
VERTEX
  8
LAYER-1
  6
LTYPE02
 10
2.880538
 20
1.701047
 30
0.000000
  0
VERTEX
  8
LAYER-1
  6
LTYPE02
 10
2.351160
 20
1.656933
 30
0.000000
  0
SEQEND
  8
LAYER-1
  0
POLYLINE
  8
LAYER-1
  6
LTYPE02
 66
  1
 70
  0
 62
  0
  6
LTYPE02
 10
2.880538
 20
1.775239
 30
0.000000
  0
VERTEX
  8
LAYER-1
  6
LTYPE02
 10
2.880538
 20
1.775239
 30
0.000000
  0
VERTEX
  8
LAYER-1
  6
LTYPE02
 10
2.351160
 20
1.731127
 30
0.000000
  0
SEQEND
  8
LAYER-1
  0
POLYLINE
  8
LAYER-1
  6
LTYPE02
 66
  1
 70
  0
 62
  0
  6
LTYPE02
 10
2.880538
 20
1.751177
 30
0.000000
  0
VERTEX
  8
LAYER-1
  6
LTYPE02
 10
2.880538
 20
1.751177
 30
0.000000
  0
VERTEX
  8
LAYER-1
  6
LTYPE02
 10
2.351160
 20
1.703052
 30
0.000000
  0
SEQEND
  8
LAYER-1
  0
POLYLINE
  8
LAYER-1
  6
LTYPE02
 66
  1
 70
  0
 62
  0
  6
LTYPE02
 10
2.881541
 20
1.820357
 30
0.000000
  0
VERTEX
  8
LAYER-1
  6
LTYPE02
 10
2.881541
 20
1.820357
 30
0.000000
  0
VERTEX
  8
LAYER-1
  6
LTYPE02
 10
2.352164
 20
1.772232
 30
0.000000
  0
SEQEND
  8
LAYER-1
  0
POLYLINE
  8
LAYER-1
  6
LTYPE02
 66
  1
 70
  0
 62
  0
  6
LTYPE02
 10
2.881541
 20
1.844421
 30
0.000000
  0
VERTEX
  8
LAYER-1
  6
LTYPE02
 10
2.881541
 20
1.844421
 30
0.000000
  0
VERTEX
  8
LAYER-1
  6
LTYPE02
 10
2.352164
 20
1.800305
 30
0.000000
  0
SEQEND
  8
LAYER-1
  0
POLYLINE
  8
LAYER-1
  6
LTYPE02
 66
  1
 70
  0
 62
  0
  6
LTYPE02
 10
2.881541
 20
1.899562
 30
0.000000
  0
VERTEX
  8
LAYER-1
  6
LTYPE02
 10
2.881541
 20
1.899562
 30
0.000000
  0
VERTEX
  8
LAYER-1
  6
LTYPE02
 10
2.352164
 20
1.851438
 30
0.000000
  0
SEQEND
  8
LAYER-1
  0
POLYLINE
  8
LAYER-1
  6
LTYPE02
 66
  1
 70
  0
 62
  0
  6
LTYPE02
 10
2.881541
 20
1.923626
 30
0.000000
  0
VERTEX
  8
LAYER-1
  6
LTYPE02
 10
2.881541
 20
1.923626
 30
0.000000
  0
VERTEX
  8
LAYER-1
  6
LTYPE02
 10
2.352164
 20
1.879510
 30
0.000000
  0
SEQEND
  8
LAYER-1
  0
POLYLINE
  8
LAYER-1
  6
LTYPE02
 66
  1
 70
  0
 62
  0
  6
LTYPE02
 10
2.881541
 20
1.975761
 30
0.000000
  0
VERTEX
  8
LAYER-1
  6
LTYPE02
 10
2.881541
 20
1.975761
 30
0.000000
  0
VERTEX
  8
LAYER-1
  6
LTYPE02
 10
2.352164
 20
1.927636
 30
0.000000
  0
SEQEND
  8
LAYER-1
  0
POLYLINE
  8
LAYER-1
  6
LTYPE02
 66
  1
 70
  0
 62
  0
  6
LTYPE02
 10
2.881541
 20
1.999824
 30
0.000000
  0
VERTEX
  8
LAYER-1
  6
LTYPE02
 10
2.881541
 20
1.999824
 30
0.000000
  0
VERTEX
  8
LAYER-1
  6
LTYPE02
 10
2.352164
 20
1.955708
 30
0.000000
  0
SEQEND
  8
LAYER-1
  0
POLYLINE
  8
LAYER-1
 66
  1
 70
  0
 62
  0
 10
2.181886
 20
3.696691
 30
0.000000
  0
VERTEX
  8
LAYER-1
 10
2.181886
 20
3.696691
 30
0.000000
  0
VERTEX
  8
LAYER-1
 10
2.254804
 20
3.769609
 30
0.000000
  0
SEQEND
  8
LAYER-1
  0
POLYLINE
  8
LAYER-1
 66
  1
 70
  0
 62
  0
 10
2.181886
 20
3.071692
 30
0.000000
  0
VERTEX
  8
LAYER-1
 10
2.181886
 20
3.071692
 30
0.000000
  0
VERTEX
  8
LAYER-1
 10
2.254804
 20
3.144608
 30
0.000000
  0
SEQEND
  8
LAYER-1
  0
POLYLINE
  8
LAYER-1
 66
  1
 70
  0
 62
  0
 10
2.181886
 20
2.446692
 30
0.000000
  0
VERTEX
  8
LAYER-1
 10
2.181886
 20
2.446692
 30
0.000000
  0
VERTEX
  8
LAYER-1
 10
2.254804
 20
2.519608
 30
0.000000
  0
SEQEND
  8
LAYER-1
  0
POLYLINE
  8
LAYER-1
 66
  1
 70
  0
 62
  0
 10
2.181886
 20
1.821692
 30
0.000000
  0
VERTEX
  8
LAYER-1
 10
2.181886
 20
1.821692
 30
0.000000
  0
VERTEX
  8
LAYER-1
 10
2.254804
 20
1.894608
 30
0.000000
  0
SEQEND
  8
LAYER-1
  0
POLYLINE
  8
LAYER-1
 66
  1
 70
  0
 62
  0
 10
2.181886
 20
1.196692
 30
0.000000
  0
VERTEX
  8
LAYER-1
 10
2.181886
 20
1.196692
 30
0.000000
  0
VERTEX
  8
LAYER-1
 10
2.254804
 20
1.269608
 30
0.000000
  0
SEQEND
  8
LAYER-1
  0
POLYLINE
  8
LAYER-1
 66
  1
 70
  0
 62
  0
 10
2.181886
 20
3.665441
 30
0.000000
  0
VERTEX
  8
LAYER-1
 10
2.181886
 20
3.665441
 30
0.000000
  0
VERTEX
  8
LAYER-1
 10
2.254804
 20
3.738359
 30
0.000000
  0
SEQEND
  8
LAYER-1
  0
POLYLINE
  8
LAYER-1
 66
  1
 70
  0
 62
  0
 10
2.181886
 20
3.040442
 30
0.000000
  0
VERTEX
  8
LAYER-1
 10
2.181886
 20
3.040442
 30
0.000000
  0
VERTEX
  8
LAYER-1
 10
2.254804
 20
3.113358
 30
0.000000
  0
SEQEND
  8
LAYER-1
  0
POLYLINE
  8
LAYER-1
 66
  1
 70
  0
 62
  0
 10
2.181886
 20
2.415442
 30
0.000000
  0
VERTEX
  8
LAYER-1
 10
2.181886
 20
2.415442
 30
0.000000
  0
VERTEX
  8
LAYER-1
 10
2.254804
 20
2.488358
 30
0.000000
  0
SEQEND
  8
LAYER-1
  0
POLYLINE
  8
LAYER-1
 66
  1
 70
  0
 62
  0
 10
2.181886
 20
1.790442
 30
0.000000
  0
VERTEX
  8
LAYER-1
 10
2.181886
 20
1.790442
 30
0.000000
  0
VERTEX
  8
LAYER-1
 10
2.254804
 20
1.863358
 30
0.000000
  0
SEQEND
  8
LAYER-1
  0
POLYLINE
  8
LAYER-1
 66
  1
 70
  0
 62
  0
 10
2.181886
 20
1.165442
 30
0.000000
  0
VERTEX
  8
LAYER-1
 10
2.181886
 20
1.165442
 30
0.000000
  0
VERTEX
  8
LAYER-1
 10
2.254804
 20
1.238358
 30
0.000000
  0
SEQEND
  8
LAYER-1
  0
POLYLINE
  8
LAYER-1
 66
  1
 70
  0
 62
  0
 10
2.977026
 20
3.832111
 30
0.000000
  0
VERTEX
  8
LAYER-1
 10
2.977026
 20
3.832111
 30
0.000000
  0
VERTEX
  8
LAYER-1
 10
3.049942
 20
3.905027
 30
0.000000
  0
SEQEND
  8
LAYER-1
  0
POLYLINE
  8
LAYER-1
 66
  1
 70
  0
 62
  0
 10
2.977026
 20
3.207110
 30
0.000000
  0
VERTEX
  8
LAYER-1
 10
2.977026
 20
3.207110
 30
0.000000
  0
VERTEX
  8
LAYER-1
 10
3.049942
 20
3.280028
 30
0.000000
  0
SEQEND
  8
LAYER-1
  0
POLYLINE
  8
LAYER-1
 66
  1
 70
  0
 62
  0
 10
2.977026
 20
2.582110
 30
0.000000
  0
VERTEX
  8
LAYER-1
 10
2.977026
 20
2.582110
 30
0.000000
  0
VERTEX
  8
LAYER-1
 10
3.049942
 20
2.655028
 30
0.000000
  0
SEQEND
  8
LAYER-1
  0
POLYLINE
  8
LAYER-1
 66
  1
 70
  0
 62
  0
 10
2.977026
 20
1.957110
 30
0.000000
  0
VERTEX
  8
LAYER-1
 10
2.977026
 20
1.957110
 30
0.000000
  0
VERTEX
  8
LAYER-1
 10
3.049942
 20
2.030028
 30
0.000000
  0
SEQEND
  8
LAYER-1
  0
POLYLINE
  8
LAYER-1
 66
  1
 70
  0
 62
  0
 10
2.977026
 20
1.332110
 30
0.000000
  0
VERTEX
  8
LAYER-1
 10
2.977026
 20
1.332110
 30
0.000000
  0
VERTEX
  8
LAYER-1
 10
3.049942
 20
1.405028
 30
0.000000
  0
SEQEND
  8
LAYER-1
  0
POLYLINE
  8
LAYER-1
 66
  1
 70
  0
 62
  0
 10
2.977026
 20
3.800861
 30
0.000000
  0
VERTEX
  8
LAYER-1
 10
2.977026
 20
3.800861
 30
0.000000
  0
VERTEX
  8
LAYER-1
 10
3.049942
 20
3.873777
 30
0.000000
  0
SEQEND
  8
LAYER-1
  0
POLYLINE
  8
LAYER-1
 66
  1
 70
  0
 62
  0
 10
2.977026
 20
3.175860
 30
0.000000
  0
VERTEX
  8
LAYER-1
 10
2.977026
 20
3.175860
 30
0.000000
  0
VERTEX
  8
LAYER-1
 10
3.049942
 20
3.248778
 30
0.000000
  0
SEQEND
  8
LAYER-1
  0
POLYLINE
  8
LAYER-1
 66
  1
 70
  0
 62
  0
 10
2.977026
 20
2.550860
 30
0.000000
  0
VERTEX
  8
LAYER-1
 10
2.977026
 20
2.550860
 30
0.000000
  0
VERTEX
  8
LAYER-1
 10
3.049942
 20
2.623778
 30
0.000000
  0
SEQEND
  8
LAYER-1
  0
POLYLINE
  8
LAYER-1
 66
  1
 70
  0
 62
  0
 10
2.977026
 20
1.925860
 30
0.000000
  0
VERTEX
  8
LAYER-1
 10
2.977026
 20
1.925860
 30
0.000000
  0
VERTEX
  8
LAYER-1
 10
3.049942
 20
1.998778
 30
0.000000
  0
SEQEND
  8
LAYER-1
  0
POLYLINE
  8
LAYER-1
 66
  1
 70
  0
 62
  0
 10
2.977026
 20
1.300860
 30
0.000000
  0
VERTEX
  8
LAYER-1
 10
2.977026
 20
1.300860
 30
0.000000
  0
VERTEX
  8
LAYER-1
 10
3.049942
 20
1.373778
 30
0.000000
  0
SEQEND
  8
LAYER-1
  0
POLYLINE
  8
LAYER-1
 66
  1
 70
  0
 62
  0
 10
2.681888
 20
1.047387
 30
0.000000
  0
VERTEX
  8
LAYER-1
 10
2.681888
 20
1.047387
 30
0.000000
  0
VERTEX
  8
LAYER-1
 10
2.827723
 20
1.193221
 30
0.000000
  0
SEQEND
  8
LAYER-1
  0
POLYLINE
  8
LAYER-1
 66
  1
 70
  0
 62
  0
 10
2.723555
 20
1.050859
 30
0.000000
  0
VERTEX
  8
LAYER-1
 10
2.723555
 20
1.050859
 30
0.000000
  0
VERTEX
  8
LAYER-1
 10
2.865916
 20
1.193221
 30
0.000000
  0
SEQEND
  8
LAYER-1
  0
POLYLINE
  8
LAYER-1
 66
  1
 70
  0
 62
  0
 10
1.294820
 20
2.320087
 30
0.000000
  0
VERTEX
  8
LAYER-1
 10
1.294820
 20
2.320087
 30
0.000000
  0
VERTEX
  8
LAYER-1
 10
1.295776
 20
2.324861
 30
0.000000
  0
VERTEX
  8
LAYER-1
 10
1.302460
 20
2.327725
 30
0.000000
  0
VERTEX
  8
LAYER-1
 10
1.304370
 20
2.333455
 30
0.000000
  0
VERTEX
  8
LAYER-1
 10
1.305324
 20
2.339183
 30
0.000000
  0
VERTEX
  8
LAYER-1
 10
1.299595
 20
2.343958
 30
0.000000
  0
VERTEX
  8
LAYER-1
 10
1.293866
 20
2.345868
 30
0.000000
  0
VERTEX
  8
LAYER-1
 10
1.288136
 20
2.346823
 30
0.000000
  0
VERTEX
  8
LAYER-1
 10
1.282408
 20
2.350643
 30
0.000000
  0
VERTEX
  8
LAYER-1
 10
1.276678
 20
2.350643
 30
0.000000
  0
VERTEX
  8
LAYER-1
 10
1.270949
 20
2.346823
 30
0.000000
  0
VERTEX
  8
LAYER-1
 10
1.268084
 20
2.341093
 30
0.000000
  0
VERTEX
  8
LAYER-1
 10
1.266175
 20
2.335365
 30
0.000000
  0
VERTEX
  8
LAYER-1
 10
1.266175
 20
2.329635
 30
0.000000
  0
VERTEX
  8
LAYER-1
 10
1.270949
 20
2.323906
 30
0.000000
  0
VERTEX
  8
LAYER-1
 10
1.275723
 20
2.317222
 30
0.000000
  0
VERTEX
  8
LAYER-1
 10
1.280498
 20
2.314357
 30
0.000000
  0
VERTEX
  8
LAYER-1
 10
1.286226
 20
2.313402
 30
0.000000
  0
VERTEX
  8
LAYER-1
 10
1.291956
 20
2.315312
 30
0.000000
  0
VERTEX
  8
LAYER-1
 10
1.294820
 20
2.321042
 30
0.000000
  0
SEQEND
  8
LAYER-1
  0
POLYLINE
  8
LAYER-1
 66
  1
 70
  0
 62
  0
 10
0.975897
 20
2.679114
 30
0.000000
  0
VERTEX
  8
LAYER-1
 10
0.975897
 20
2.679114
 30
0.000000
  0
VERTEX
  8
LAYER-1
 10
0.981625
 20
2.683888
 30
0.000000
  0
VERTEX
  8
LAYER-1
 10
0.986400
 20
2.683888
 30
0.000000
  0
VERTEX
  8
LAYER-1
 10
0.992129
 20
2.683888
 30
0.000000
  0
VERTEX
  8
LAYER-1
 10
0.996903
 20
2.687708
 30
0.000000
  0
VERTEX
  8
LAYER-1
 10
1.000723
 20
2.693437
 30
0.000000
  0
VERTEX
  8
LAYER-1
 10
0.999769
 20
2.699166
 30
0.000000
  0
VERTEX
  8
LAYER-1
 10
0.997859
 20
2.704895
 30
0.000000
  0
VERTEX
  8
LAYER-1
 10
0.992129
 20
2.705850
 30
0.000000
  0
VERTEX
  8
LAYER-1
 10
0.986400
 20
2.702986
 30
0.000000
  0
VERTEX
  8
LAYER-1
 10
0.981625
 20
2.700122
 30
0.000000
  0
VERTEX
  8
LAYER-1
 10
0.975897
 20
2.700122
 30
0.000000
  0
VERTEX
  8
LAYER-1
 10
0.970167
 20
2.700122
 30
0.000000
  0
VERTEX
  8
LAYER-1
 10
0.964438
 20
2.700122
 30
0.000000
  0
VERTEX
  8
LAYER-1
 10
0.961574
 20
2.694392
 30
0.000000
  0
VERTEX
  8
LAYER-1
 10
0.959664
 20
2.689618
 30
0.000000
  0
VERTEX
  8
LAYER-1
 10
0.957754
 20
2.683888
 30
0.000000
  0
VERTEX
  8
LAYER-1
 10
0.959664
 20
2.678159
 30
0.000000
  0
VERTEX
  8
LAYER-1
 10
0.964438
 20
2.672430
 30
0.000000
  0
VERTEX
  8
LAYER-1
 10
0.970167
 20
2.673385
 30
0.000000
  0
VERTEX
  8
LAYER-1
 10
0.975897
 20
2.677205
 30
0.000000
  0
SEQEND
  8
LAYER-1
  0
POLYLINE
  8
LAYER-1
 66
  1
 70
  0
 62
  0
 10
1.563831
 20
3.130720
 30
0.000000
  0
VERTEX
  8
LAYER-1
 10
1.563831
 20
3.130720
 30
0.000000
  0
VERTEX
  8
LAYER-1
 10
1.562876
 20
3.125946
 30
0.000000
  0
VERTEX
  8
LAYER-1
 10
1.556192
 20
3.123082
 30
0.000000
  0
VERTEX
  8
LAYER-1
 10
1.554282
 20
3.117352
 30
0.000000
  0
VERTEX
  8
LAYER-1
 10
1.553328
 20
3.111623
 30
0.000000
  0
VERTEX
  8
LAYER-1
 10
1.559056
 20
3.106849
 30
0.000000
  0
VERTEX
  8
LAYER-1
 10
1.564786
 20
3.104939
 30
0.000000
  0
VERTEX
  8
LAYER-1
 10
1.570515
 20
3.103984
 30
0.000000
  0
VERTEX
  8
LAYER-1
 10
1.576244
 20
3.100164
 30
0.000000
  0
VERTEX
  8
LAYER-1
 10
1.581973
 20
3.100164
 30
0.000000
  0
VERTEX
  8
LAYER-1
 10
1.587703
 20
3.103984
 30
0.000000
  0
VERTEX
  8
LAYER-1
 10
1.590567
 20
3.109713
 30
0.000000
  0
VERTEX
  8
LAYER-1
 10
1.592477
 20
3.115442
 30
0.000000
  0
VERTEX
  8
LAYER-1
 10
1.592477
 20
3.121172
 30
0.000000
  0
VERTEX
  8
LAYER-1
 10
1.587703
 20
3.126901
 30
0.000000
  0
VERTEX
  8
LAYER-1
 10
1.582928
 20
3.133584
 30
0.000000
  0
VERTEX
  8
LAYER-1
 10
1.578154
 20
3.136450
 30
0.000000
  0
VERTEX
  8
LAYER-1
 10
1.572424
 20
3.137404
 30
0.000000
  0
VERTEX
  8
LAYER-1
 10
1.566696
 20
3.135494
 30
0.000000
  0
VERTEX
  8
LAYER-1
 10
1.563831
 20
3.129765
 30
0.000000
  0
SEQEND
  8
LAYER-1
  0
POLYLINE
  8
LAYER-1
 66
  1
 70
  0
 62
  0
 10
1.882754
 20
2.771693
 30
0.000000
  0
VERTEX
  8
LAYER-1
 10
1.882754
 20
2.771693
 30
0.000000
  0
VERTEX
  8
LAYER-1
 10
1.877026
 20
2.766919
 30
0.000000
  0
VERTEX
  8
LAYER-1
 10
1.872251
 20
2.766919
 30
0.000000
  0
VERTEX
  8
LAYER-1
 10
1.866522
 20
2.766919
 30
0.000000
  0
VERTEX
  8
LAYER-1
 10
1.861748
 20
2.763099
 30
0.000000
  0
VERTEX
  8
LAYER-1
 10
1.857929
 20
2.757370
 30
0.000000
  0
VERTEX
  8
LAYER-1
 10
1.858883
 20
2.751641
 30
0.000000
  0
VERTEX
  8
LAYER-1
 10
1.860793
 20
2.745911
 30
0.000000
  0
VERTEX
  8
LAYER-1
 10
1.866522
 20
2.744957
 30
0.000000
  0
VERTEX
  8
LAYER-1
 10
1.872251
 20
2.747821
 30
0.000000
  0
VERTEX
  8
LAYER-1
 10
1.877026
 20
2.750685
 30
0.000000
  0
VERTEX
  8
LAYER-1
 10
1.882754
 20
2.750685
 30
0.000000
  0
VERTEX
  8
LAYER-1
 10
1.888484
 20
2.750685
 30
0.000000
  0
VERTEX
  8
LAYER-1
 10
1.894213
 20
2.750685
 30
0.000000
  0
VERTEX
  8
LAYER-1
 10
1.897078
 20
2.756415
 30
0.000000
  0
VERTEX
  8
LAYER-1
 10
1.898988
 20
2.761189
 30
0.000000
  0
VERTEX
  8
LAYER-1
 10
1.900898
 20
2.766919
 30
0.000000
  0
VERTEX
  8
LAYER-1
 10
1.898988
 20
2.772647
 30
0.000000
  0
VERTEX
  8
LAYER-1
 10
1.894213
 20
2.778377
 30
0.000000
  0
VERTEX
  8
LAYER-1
 10
1.888484
 20
2.777422
 30
0.000000
  0
VERTEX
  8
LAYER-1
 10
1.882754
 20
2.773602
 30
0.000000
  0
SEQEND
  8
LAYER-1
  0
POLYLINE
  8
LAYER-1
 66
  1
 70
  0
 62
  0
 10
0.247858
 20
2.641137
 30
0.000000
  0
VERTEX
  8
LAYER-1
 10
0.247858
 20
2.641137
 30
0.000000
  0
VERTEX
  8
LAYER-1
 10
0.246904
 20
2.636362
 30
0.000000
  0
VERTEX
  8
LAYER-1
 10
0.240220
 20
2.633498
 30
0.000000
  0
VERTEX
  8
LAYER-1
 10
0.238309
 20
2.627768
 30
0.000000
  0
VERTEX
  8
LAYER-1
 10
0.237355
 20
2.622040
 30
0.000000
  0
VERTEX
  8
LAYER-1
 10
0.243084
 20
2.617265
 30
0.000000
  0
VERTEX
  8
LAYER-1
 10
0.248813
 20
2.615356
 30
0.000000
  0
VERTEX
  8
LAYER-1
 10
0.254542
 20
2.614401
 30
0.000000
  0
VERTEX
  8
LAYER-1
 10
0.260272
 20
2.610581
 30
0.000000
  0
VERTEX
  8
LAYER-1
 10
0.266001
 20
2.610581
 30
0.000000
  0
VERTEX
  8
LAYER-1
 10
0.271729
 20
2.614401
 30
0.000000
  0
VERTEX
  8
LAYER-1
 10
0.274595
 20
2.620130
 30
0.000000
  0
VERTEX
  8
LAYER-1
 10
0.276505
 20
2.625859
 30
0.000000
  0
VERTEX
  8
LAYER-1
 10
0.276505
 20
2.631588
 30
0.000000
  0
VERTEX
  8
LAYER-1
 10
0.271729
 20
2.637318
 30
0.000000
  0
VERTEX
  8
LAYER-1
 10
0.266956
 20
2.644002
 30
0.000000
  0
VERTEX
  8
LAYER-1
 10
0.262181
 20
2.646866
 30
0.000000
  0
VERTEX
  8
LAYER-1
 10
0.256452
 20
2.647820
 30
0.000000
  0
VERTEX
  8
LAYER-1
 10
0.250723
 20
2.645912
 30
0.000000
  0
VERTEX
  8
LAYER-1
 10
0.247858
 20
2.640182
 30
0.000000
  0
SEQEND
  8
LAYER-1
  0
POLYLINE
  8
LAYER-1
 66
  1
 70
  0
 62
  0
 10
0.566782
 20
2.282109
 30
0.000000
  0
VERTEX
  8
LAYER-1
 10
0.566782
 20
2.282109
 30
0.000000
  0
VERTEX
  8
LAYER-1
 10
0.561054
 20
2.277335
 30
0.000000
  0
VERTEX
  8
LAYER-1
 10
0.556279
 20
2.277335
 30
0.000000
  0
VERTEX
  8
LAYER-1
 10
0.550550
 20
2.277335
 30
0.000000
  0
VERTEX
  8
LAYER-1
 10
0.545776
 20
2.273515
 30
0.000000
  0
VERTEX
  8
LAYER-1
 10
0.541956
 20
2.267787
 30
0.000000
  0
VERTEX
  8
LAYER-1
 10
0.542910
 20
2.262057
 30
0.000000
  0
VERTEX
  8
LAYER-1
 10
0.544820
 20
2.256329
 30
0.000000
  0
VERTEX
  8
LAYER-1
 10
0.550550
 20
2.255374
 30
0.000000
  0
VERTEX
  8
LAYER-1
 10
0.556279
 20
2.258237
 30
0.000000
  0
VERTEX
  8
LAYER-1
 10
0.561054
 20
2.261102
 30
0.000000
  0
VERTEX
  8
LAYER-1
 10
0.566782
 20
2.261102
 30
0.000000
  0
VERTEX
  8
LAYER-1
 10
0.572512
 20
2.261102
 30
0.000000
  0
VERTEX
  8
LAYER-1
 10
0.578241
 20
2.261102
 30
0.000000
  0
VERTEX
  8
LAYER-1
 10
0.581105
 20
2.266831
 30
0.000000
  0
VERTEX
  8
LAYER-1
 10
0.583015
 20
2.271606
 30
0.000000
  0
VERTEX
  8
LAYER-1
 10
0.584925
 20
2.277335
 30
0.000000
  0
VERTEX
  8
LAYER-1
 10
0.583015
 20
2.283064
 30
0.000000
  0
VERTEX
  8
LAYER-1
 10
0.578241
 20
2.288793
 30
0.000000
  0
VERTEX
  8
LAYER-1
 10
0.572512
 20
2.287839
 30
0.000000
  0
VERTEX
  8
LAYER-1
 10
0.566782
 20
2.284019
 30
0.000000
  0
SEQEND
  8
LAYER-1
  0
POLYLINE
  8
LAYER-1
 66
  1
 70
  0
 62
  0
 10
0.244907
 20
1.600859
 30
0.000000
  0
VERTEX
  8
LAYER-1
 10
0.244907
 20
1.600859
 30
0.000000
  0
VERTEX
  8
LAYER-1
 10
0.243952
 20
1.596085
 30
0.000000
  0
VERTEX
  8
LAYER-1
 10
0.237268
 20
1.593220
 30
0.000000
  0
VERTEX
  8
LAYER-1
 10
0.235358
 20
1.587491
 30
0.000000
  0
VERTEX
  8
LAYER-1
 10
0.234404
 20
1.581763
 30
0.000000
  0
VERTEX
  8
LAYER-1
 10
0.240132
 20
1.576988
 30
0.000000
  0
VERTEX
  8
LAYER-1
 10
0.245862
 20
1.575078
 30
0.000000
  0
VERTEX
  8
LAYER-1
 10
0.251591
 20
1.574123
 30
0.000000
  0
VERTEX
  8
LAYER-1
 10
0.257320
 20
1.570303
 30
0.000000
  0
VERTEX
  8
LAYER-1
 10
0.263049
 20
1.570303
 30
0.000000
  0
VERTEX
  8
LAYER-1
 10
0.268779
 20
1.574123
 30
0.000000
  0
VERTEX
  8
LAYER-1
 10
0.271643
 20
1.579853
 30
0.000000
  0
VERTEX
  8
LAYER-1
 10
0.273553
 20
1.585581
 30
0.000000
  0
VERTEX
  8
LAYER-1
 10
0.273553
 20
1.591310
 30
0.000000
  0
VERTEX
  8
LAYER-1
 10
0.268779
 20
1.597040
 30
0.000000
  0
VERTEX
  8
LAYER-1
 10
0.264004
 20
1.603723
 30
0.000000
  0
VERTEX
  8
LAYER-1
 10
0.259230
 20
1.606589
 30
0.000000
  0
VERTEX
  8
LAYER-1
 10
0.253501
 20
1.607543
 30
0.000000
  0
VERTEX
  8
LAYER-1
 10
0.247772
 20
1.605633
 30
0.000000
  0
VERTEX
  8
LAYER-1
 10
0.244907
 20
1.599904
 30
0.000000
  0
SEQEND
  8
LAYER-1
  0
POLYLINE
  8
LAYER-1
 66
  1
 70
  0
 62
  0
 10
0.563831
 20
1.241831
 30
0.000000
  0
VERTEX
  8
LAYER-1
 10
0.563831
 20
1.241831
 30
0.000000
  0
VERTEX
  8
LAYER-1
 10
0.558102
 20
1.237058
 30
0.000000
  0
VERTEX
  8
LAYER-1
 10
0.553328
 20
1.237058
 30
0.000000
  0
VERTEX
  8
LAYER-1
 10
0.547598
 20
1.237058
 30
0.000000
  0
VERTEX
  8
LAYER-1
 10
0.542824
 20
1.233238
 30
0.000000
  0
VERTEX
  8
LAYER-1
 10
0.539005
 20
1.227509
 30
0.000000
  0
VERTEX
  8
LAYER-1
 10
0.539959
 20
1.221780
 30
0.000000
  0
VERTEX
  8
LAYER-1
 10
0.541869
 20
1.216050
 30
0.000000
  0
VERTEX
  8
LAYER-1
 10
0.547598
 20
1.215096
 30
0.000000
  0
VERTEX
  8
LAYER-1
 10
0.553328
 20
1.217960
 30
0.000000
  0
VERTEX
  8
LAYER-1
 10
0.558102
 20
1.220824
 30
0.000000
  0
VERTEX
  8
LAYER-1
 10
0.563831
 20
1.220824
 30
0.000000
  0
VERTEX
  8
LAYER-1
 10
0.569560
 20
1.220824
 30
0.000000
  0
VERTEX
  8
LAYER-1
 10
0.575290
 20
1.220824
 30
0.000000
  0
VERTEX
  8
LAYER-1
 10
0.578154
 20
1.226554
 30
0.000000
  0
VERTEX
  8
LAYER-1
 10
0.580064
 20
1.231328
 30
0.000000
  0
VERTEX
  8
LAYER-1
 10
0.581974
 20
1.237058
 30
0.000000
  0
VERTEX
  8
LAYER-1
 10
0.580064
 20
1.242786
 30
0.000000
  0
VERTEX
  8
LAYER-1
 10
0.575290
 20
1.248516
 30
0.000000
  0
VERTEX
  8
LAYER-1
 10
0.569560
 20
1.247560
 30
0.000000
  0
VERTEX
  8
LAYER-1
 10
0.563831
 20
1.243741
 30
0.000000
  0
SEQEND
  8
LAYER-1
  0
POLYLINE
  8
LAYER-1
 66
  1
 70
  0
 62
  0
 10
1.442824
 20
2.041832
 30
0.000000
  0
VERTEX
  8
LAYER-1
 10
1.442824
 20
2.041832
 30
0.000000
  0
VERTEX
  8
LAYER-1
 10
1.441869
 20
2.037056
 30
0.000000
  0
VERTEX
  8
LAYER-1
 10
1.435185
 20
2.034192
 30
0.000000
  0
VERTEX
  8
LAYER-1
 10
1.433275
 20
2.028463
 30
0.000000
  0
VERTEX
  8
LAYER-1
 10
1.432321
 20
2.022734
 30
0.000000
  0
VERTEX
  8
LAYER-1
 10
1.438050
 20
2.017960
 30
0.000000
  0
VERTEX
  8
LAYER-1
 10
1.443779
 20
2.016050
 30
0.000000
  0
VERTEX
  8
LAYER-1
 10
1.449508
 20
2.015096
 30
0.000000
  0
VERTEX
  8
LAYER-1
 10
1.455237
 20
2.011276
 30
0.000000
  0
VERTEX
  8
LAYER-1
 10
1.460967
 20
2.011276
 30
0.000000
  0
VERTEX
  8
LAYER-1
 10
1.466695
 20
2.015096
 30
0.000000
  0
VERTEX
  8
LAYER-1
 10
1.469560
 20
2.020824
 30
0.000000
  0
VERTEX
  8
LAYER-1
 10
1.471470
 20
2.026554
 30
0.000000
  0
VERTEX
  8
LAYER-1
 10
1.471470
 20
2.032283
 30
0.000000
  0
VERTEX
  8
LAYER-1
 10
1.466695
 20
2.038012
 30
0.000000
  0
VERTEX
  8
LAYER-1
 10
1.461921
 20
2.044696
 30
0.000000
  0
VERTEX
  8
LAYER-1
 10
1.457147
 20
2.047560
 30
0.000000
  0
VERTEX
  8
LAYER-1
 10
1.451417
 20
2.048515
 30
0.000000
  0
VERTEX
  8
LAYER-1
 10
1.445689
 20
2.046606
 30
0.000000
  0
VERTEX
  8
LAYER-1
 10
1.442824
 20
2.040876
 30
0.000000
  0
SEQEND
  8
LAYER-1
  0
POLYLINE
  8
LAYER-1
 66
  1
 70
  0
 62
  0
 10
1.761748
 20
1.682804
 30
0.000000
  0
VERTEX
  8
LAYER-1
 10
1.761748
 20
1.682804
 30
0.000000
  0
VERTEX
  8
LAYER-1
 10
1.756018
 20
1.678029
 30
0.000000
  0
VERTEX
  8
LAYER-1
 10
1.751244
 20
1.678029
 30
0.000000
  0
VERTEX
  8
LAYER-1
 10
1.745516
 20
1.678029
 30
0.000000
  0
VERTEX
  8
LAYER-1
 10
1.740740
 20
1.674210
 30
0.000000
  0
VERTEX
  8
LAYER-1
 10
1.736921
 20
1.668481
 30
0.000000
  0
VERTEX
  8
LAYER-1
 10
1.737876
 20
1.662751
 30
0.000000
  0
VERTEX
  8
LAYER-1
 10
1.739786
 20
1.657023
 30
0.000000
  0
VERTEX
  8
LAYER-1
 10
1.745516
 20
1.656069
 30
0.000000
  0
VERTEX
  8
LAYER-1
 10
1.751244
 20
1.658931
 30
0.000000
  0
VERTEX
  8
LAYER-1
 10
1.756018
 20
1.661797
 30
0.000000
  0
VERTEX
  8
LAYER-1
 10
1.761748
 20
1.661797
 30
0.000000
  0
VERTEX
  8
LAYER-1
 10
1.767477
 20
1.661797
 30
0.000000
  0
VERTEX
  8
LAYER-1
 10
1.773206
 20
1.661797
 30
0.000000
  0
VERTEX
  8
LAYER-1
 10
1.776071
 20
1.667525
 30
0.000000
  0
VERTEX
  8
LAYER-1
 10
1.777980
 20
1.672301
 30
0.000000
  0
VERTEX
  8
LAYER-1
 10
1.779890
 20
1.678029
 30
0.000000
  0
VERTEX
  8
LAYER-1
 10
1.777980
 20
1.683758
 30
0.000000
  0
VERTEX
  8
LAYER-1
 10
1.773206
 20
1.689488
 30
0.000000
  0
VERTEX
  8
LAYER-1
 10
1.767477
 20
1.688533
 30
0.000000
  0
VERTEX
  8
LAYER-1
 10
1.761748
 20
1.684714
 30
0.000000
  0
SEQEND
  8
LAYER-1
  0
POLYLINE
  8
LAYER-1
 66
  1
 70
  0
 62
  0
 10
1.893084
 20
1.039487
 30
0.000000
  0
VERTEX
  8
LAYER-1
 10
1.893084
 20
1.039487
 30
0.000000
  0
VERTEX
  8
LAYER-1
 10
1.894040
 20
1.044262
 30
0.000000
  0
VERTEX
  8
LAYER-1
 10
1.900723
 20
1.047127
 30
0.000000
  0
VERTEX
  8
LAYER-1
 10
1.902635
 20
1.052856
 30
0.000000
  0
VERTEX
  8
LAYER-1
 10
1.903588
 20
1.058585
 30
0.000000
  0
VERTEX
  8
LAYER-1
 10
1.897859
 20
1.063360
 30
0.000000
  0
VERTEX
  8
LAYER-1
 10
1.892131
 20
1.065269
 30
0.000000
  0
VERTEX
  8
LAYER-1
 10
1.886400
 20
1.066224
 30
0.000000
  0
VERTEX
  8
LAYER-1
 10
1.880671
 20
1.070043
 30
0.000000
  0
VERTEX
  8
LAYER-1
 10
1.874942
 20
1.070043
 30
0.000000
  0
VERTEX
  8
LAYER-1
 10
1.869213
 20
1.066224
 30
0.000000
  0
VERTEX
  8
LAYER-1
 10
1.866349
 20
1.060495
 30
0.000000
  0
VERTEX
  8
LAYER-1
 10
1.864439
 20
1.054765
 30
0.000000
  0
VERTEX
  8
LAYER-1
 10
1.864439
 20
1.049037
 30
0.000000
  0
VERTEX
  8
LAYER-1
 10
1.869213
 20
1.043307
 30
0.000000
  0
VERTEX
  8
LAYER-1
 10
1.873987
 20
1.036623
 30
0.000000
  0
VERTEX
  8
LAYER-1
 10
1.878761
 20
1.033758
 30
0.000000
  0
VERTEX
  8
LAYER-1
 10
1.884490
 20
1.032804
 30
0.000000
  0
VERTEX
  8
LAYER-1
 10
1.890220
 20
1.034713
 30
0.000000
  0
VERTEX
  8
LAYER-1
 10
1.893084
 20
1.040443
 30
0.000000
  0
SEQEND
  8
LAYER-1
  0
POLYLINE
  8
LAYER-1
 66
  1
 70
  0
 62
  0
 10
1.574160
 20
1.398515
 30
0.000000
  0
VERTEX
  8
LAYER-1
 10
1.574160
 20
1.398515
 30
0.000000
  0
VERTEX
  8
LAYER-1
 10
1.579890
 20
1.403290
 30
0.000000
  0
VERTEX
  8
LAYER-1
 10
1.584664
 20
1.403290
 30
0.000000
  0
VERTEX
  8
LAYER-1
 10
1.590393
 20
1.403290
 30
0.000000
  0
VERTEX
  8
LAYER-1
 10
1.595168
 20
1.407110
 30
0.000000
  0
VERTEX
  8
LAYER-1
 10
1.598987
 20
1.412838
 30
0.000000
  0
VERTEX
  8
LAYER-1
 10
1.598032
 20
1.418567
 30
0.000000
  0
VERTEX
  8
LAYER-1
 10
1.596122
 20
1.424296
 30
0.000000
  0
VERTEX
  8
LAYER-1
 10
1.590393
 20
1.425251
 30
0.000000
  0
VERTEX
  8
LAYER-1
 10
1.584664
 20
1.422387
 30
0.000000
  0
VERTEX
  8
LAYER-1
 10
1.579890
 20
1.419523
 30
0.000000
  0
VERTEX
  8
LAYER-1
 10
1.574160
 20
1.419523
 30
0.000000
  0
VERTEX
  8
LAYER-1
 10
1.568432
 20
1.419523
 30
0.000000
  0
VERTEX
  8
LAYER-1
 10
1.562702
 20
1.419523
 30
0.000000
  0
VERTEX
  8
LAYER-1
 10
1.559838
 20
1.413794
 30
0.000000
  0
VERTEX
  8
LAYER-1
 10
1.557928
 20
1.409019
 30
0.000000
  0
VERTEX
  8
LAYER-1
 10
1.556018
 20
1.403290
 30
0.000000
  0
VERTEX
  8
LAYER-1
 10
1.557928
 20
1.397561
 30
0.000000
  0
VERTEX
  8
LAYER-1
 10
1.562702
 20
1.391831
 30
0.000000
  0
VERTEX
  8
LAYER-1
 10
1.568432
 20
1.392787
 30
0.000000
  0
VERTEX
  8
LAYER-1
 10
1.574160
 20
1.396606
 30
0.000000
  0
SEQEND
  8
LAYER-1
  0
POLYLINE
  8
LAYER-1
 66
  1
 70
  0
 62
  0
 10
1.727025
 20
2.484887
 30
0.000000
  0
VERTEX
  8
LAYER-1
 10
1.727025
 20
2.484887
 30
0.000000
  0
VERTEX
  8
LAYER-1
 10
1.726071
 20
2.480112
 30
0.000000
  0
VERTEX
  8
LAYER-1
 10
1.719387
 20
2.477248
 30
0.000000
  0
VERTEX
  8
LAYER-1
 10
1.717477
 20
2.471518
 30
0.000000
  0
VERTEX
  8
LAYER-1
 10
1.716522
 20
2.465790
 30
0.000000
  0
VERTEX
  8
LAYER-1
 10
1.722251
 20
2.461015
 30
0.000000
  0
VERTEX
  8
LAYER-1
 10
1.727981
 20
2.459106
 30
0.000000
  0
VERTEX
  8
LAYER-1
 10
1.733709
 20
2.458151
 30
0.000000
  0
VERTEX
  8
LAYER-1
 10
1.739439
 20
2.454331
 30
0.000000
  0
VERTEX
  8
LAYER-1
 10
1.745168
 20
2.454331
 30
0.000000
  0
VERTEX
  8
LAYER-1
 10
1.750897
 20
2.458151
 30
0.000000
  0
VERTEX
  8
LAYER-1
 10
1.753761
 20
2.463880
 30
0.000000
  0
VERTEX
  8
LAYER-1
 10
1.755671
 20
2.469609
 30
0.000000
  0
VERTEX
  8
LAYER-1
 10
1.755671
 20
2.475338
 30
0.000000
  0
VERTEX
  8
LAYER-1
 10
1.750897
 20
2.481068
 30
0.000000
  0
VERTEX
  8
LAYER-1
 10
1.746123
 20
2.487752
 30
0.000000
  0
VERTEX
  8
LAYER-1
 10
1.741349
 20
2.490616
 30
0.000000
  0
VERTEX
  8
LAYER-1
 10
1.735619
 20
2.491570
 30
0.000000
  0
VERTEX
  8
LAYER-1
 10
1.729891
 20
2.489662
 30
0.000000
  0
VERTEX
  8
LAYER-1
 10
1.727025
 20
2.483932
 30
0.000000
  0
SEQEND
  8
LAYER-1
  0
POLYLINE
  8
LAYER-1
 66
  1
 70
  0
 62
  0
 10
2.045950
 20
2.125859
 30
0.000000
  0
VERTEX
  8
LAYER-1
 10
2.045950
 20
2.125859
 30
0.000000
  0
VERTEX
  8
LAYER-1
 10
2.040220
 20
2.121085
 30
0.000000
  0
VERTEX
  8
LAYER-1
 10
2.035446
 20
2.121085
 30
0.000000
  0
VERTEX
  8
LAYER-1
 10
2.029717
 20
2.121085
 30
0.000000
  0
VERTEX
  8
LAYER-1
 10
2.024942
 20
2.117265
 30
0.000000
  0
VERTEX
  8
LAYER-1
 10
2.021122
 20
2.111537
 30
0.000000
  0
VERTEX
  8
LAYER-1
 10
2.022078
 20
2.105807
 30
0.000000
  0
VERTEX
  8
LAYER-1
 10
2.023988
 20
2.100079
 30
0.000000
  0
VERTEX
  8
LAYER-1
 10
2.029717
 20
2.099124
 30
0.000000
  0
VERTEX
  8
LAYER-1
 10
2.035446
 20
2.101987
 30
0.000000
  0
VERTEX
  8
LAYER-1
 10
2.040220
 20
2.104852
 30
0.000000
  0
VERTEX
  8
LAYER-1
 10
2.045950
 20
2.104852
 30
0.000000
  0
VERTEX
  8
LAYER-1
 10
2.051679
 20
2.104852
 30
0.000000
  0
VERTEX
  8
LAYER-1
 10
2.057407
 20
2.104852
 30
0.000000
  0
VERTEX
  8
LAYER-1
 10
2.060272
 20
2.110581
 30
0.000000
  0
VERTEX
  8
LAYER-1
 10
2.062182
 20
2.115356
 30
0.000000
  0
VERTEX
  8
LAYER-1
 10
2.064091
 20
2.121085
 30
0.000000
  0
VERTEX
  8
LAYER-1
 10
2.062182
 20
2.126814
 30
0.000000
  0
VERTEX
  8
LAYER-1
 10
2.057407
 20
2.132543
 30
0.000000
  0
VERTEX
  8
LAYER-1
 10
2.051679
 20
2.131589
 30
0.000000
  0
VERTEX
  8
LAYER-1
 10
2.045950
 20
2.127769
 30
0.000000
  0
SEQEND
  8
LAYER-1
  0
POLYLINE
  8
LAYER-1
 66
  1
 70
  0
 62
  0
 10
0.213136
 20
3.345998
 30
0.000000
  0
VERTEX
  8
LAYER-1
 10
0.213136
 20
3.345998
 30
0.000000
  0
VERTEX
  8
LAYER-1
 10
0.212181
 20
3.341223
 30
0.000000
  0
VERTEX
  8
LAYER-1
 10
0.205497
 20
3.338359
 30
0.000000
  0
VERTEX
  8
LAYER-1
 10
0.203587
 20
3.332629
 30
0.000000
  0
VERTEX
  8
LAYER-1
 10
0.202633
 20
3.326900
 30
0.000000
  0
VERTEX
  8
LAYER-1
 10
0.208362
 20
3.322126
 30
0.000000
  0
VERTEX
  8
LAYER-1
 10
0.214091
 20
3.320216
 30
0.000000
  0
VERTEX
  8
LAYER-1
 10
0.219820
 20
3.319262
 30
0.000000
  0
VERTEX
  8
LAYER-1
 10
0.225549
 20
3.315442
 30
0.000000
  0
VERTEX
  8
LAYER-1
 10
0.231279
 20
3.315442
 30
0.000000
  0
VERTEX
  8
LAYER-1
 10
0.237008
 20
3.319262
 30
0.000000
  0
VERTEX
  8
LAYER-1
 10
0.239872
 20
3.324991
 30
0.000000
  0
VERTEX
  8
LAYER-1
 10
0.241782
 20
3.330720
 30
0.000000
  0
VERTEX
  8
LAYER-1
 10
0.241782
 20
3.336449
 30
0.000000
  0
VERTEX
  8
LAYER-1
 10
0.237008
 20
3.342178
 30
0.000000
  0
VERTEX
  8
LAYER-1
 10
0.232233
 20
3.348863
 30
0.000000
  0
VERTEX
  8
LAYER-1
 10
0.227459
 20
3.351727
 30
0.000000
  0
VERTEX
  8
LAYER-1
 10
0.221730
 20
3.352681
 30
0.000000
  0
VERTEX
  8
LAYER-1
 10
0.216001
 20
3.350772
 30
0.000000
  0
VERTEX
  8
LAYER-1
 10
0.213136
 20
3.345043
 30
0.000000
  0
SEQEND
  8
LAYER-1
  0
POLYLINE
  8
LAYER-1
 66
  1
 70
  0
 62
  0
 10
0.532060
 20
2.986970
 30
0.000000
  0
VERTEX
  8
LAYER-1
 10
0.532060
 20
2.986970
 30
0.000000
  0
VERTEX
  8
LAYER-1
 10
0.526331
 20
2.982196
 30
0.000000
  0
VERTEX
  8
LAYER-1
 10
0.521557
 20
2.982196
 30
0.000000
  0
VERTEX
  8
LAYER-1
 10
0.515827
 20
2.982196
 30
0.000000
  0
VERTEX
  8
LAYER-1
 10
0.511053
 20
2.978376
 30
0.000000
  0
VERTEX
  8
LAYER-1
 10
0.507234
 20
2.972648
 30
0.000000
  0
VERTEX
  8
LAYER-1
 10
0.508189
 20
2.966918
 30
0.000000
  0
VERTEX
  8
LAYER-1
 10
0.510098
 20
2.961189
 30
0.000000
  0
VERTEX
  8
LAYER-1
 10
0.515827
 20
2.960235
 30
0.000000
  0
VERTEX
  8
LAYER-1
 10
0.521557
 20
2.963098
 30
0.000000
  0
VERTEX
  8
LAYER-1
 10
0.526331
 20
2.965964
 30
0.000000
  0
VERTEX
  8
LAYER-1
 10
0.532060
 20
2.965964
 30
0.000000
  0
VERTEX
  8
LAYER-1
 10
0.537789
 20
2.965964
 30
0.000000
  0
VERTEX
  8
LAYER-1
 10
0.543519
 20
2.965964
 30
0.000000
  0
VERTEX
  8
LAYER-1
 10
0.546383
 20
2.971692
 30
0.000000
  0
VERTEX
  8
LAYER-1
 10
0.548293
 20
2.976468
 30
0.000000
  0
VERTEX
  8
LAYER-1
 10
0.550203
 20
2.982196
 30
0.000000
  0
VERTEX
  8
LAYER-1
 10
0.548293
 20
2.987925
 30
0.000000
  0
VERTEX
  8
LAYER-1
 10
0.543519
 20
2.993654
 30
0.000000
  0
VERTEX
  8
LAYER-1
 10
0.537789
 20
2.992700
 30
0.000000
  0
VERTEX
  8
LAYER-1
 10
0.532060
 20
2.988880
 30
0.000000
  0
SEQEND
  8
LAYER-1
  0
POLYLINE
  8
LAYER-1
 66
  1
 70
  0
 62
  0
 10
0.899247
 20
3.046519
 30
0.000000
  0
VERTEX
  8
LAYER-1
 10
0.899247
 20
3.046519
 30
0.000000
  0
VERTEX
  8
LAYER-1
 10
0.904022
 20
3.045564
 30
0.000000
  0
VERTEX
  8
LAYER-1
 10
0.906887
 20
3.038880
 30
0.000000
  0
VERTEX
  8
LAYER-1
 10
0.912616
 20
3.036970
 30
0.000000
  0
VERTEX
  8
LAYER-1
 10
0.918345
 20
3.036016
 30
0.000000
  0
VERTEX
  8
LAYER-1
 10
0.923119
 20
3.041745
 30
0.000000
  0
VERTEX
  8
LAYER-1
 10
0.925029
 20
3.047474
 30
0.000000
  0
VERTEX
  8
LAYER-1
 10
0.925983
 20
3.053204
 30
0.000000
  0
VERTEX
  8
LAYER-1
 10
0.929803
 20
3.058932
 30
0.000000
  0
VERTEX
  8
LAYER-1
 10
0.929803
 20
3.064662
 30
0.000000
  0
VERTEX
  8
LAYER-1
 10
0.925983
 20
3.070390
 30
0.000000
  0
VERTEX
  8
LAYER-1
 10
0.920255
 20
3.073256
 30
0.000000
  0
VERTEX
  8
LAYER-1
 10
0.914525
 20
3.075165
 30
0.000000
  0
VERTEX
  8
LAYER-1
 10
0.908796
 20
3.075165
 30
0.000000
  0
VERTEX
  8
LAYER-1
 10
0.903067
 20
3.070390
 30
0.000000
  0
VERTEX
  8
LAYER-1
 10
0.896383
 20
3.065616
 30
0.000000
  0
VERTEX
  8
LAYER-1
 10
0.893518
 20
3.060842
 30
0.000000
  0
VERTEX
  8
LAYER-1
 10
0.892564
 20
3.055113
 30
0.000000
  0
VERTEX
  8
LAYER-1
 10
0.894473
 20
3.049384
 30
0.000000
  0
VERTEX
  8
LAYER-1
 10
0.900203
 20
3.046519
 30
0.000000
  0
SEQEND
  8
LAYER-1
  0
POLYLINE
  8
LAYER-1
 66
  1
 70
  0
 62
  0
 10
1.258275
 20
3.365443
 30
0.000000
  0
VERTEX
  8
LAYER-1
 10
1.258275
 20
3.365443
 30
0.000000
  0
VERTEX
  8
LAYER-1
 10
1.263049
 20
3.359715
 30
0.000000
  0
VERTEX
  8
LAYER-1
 10
1.263049
 20
3.354939
 30
0.000000
  0
VERTEX
  8
LAYER-1
 10
1.263049
 20
3.349211
 30
0.000000
  0
VERTEX
  8
LAYER-1
 10
1.266869
 20
3.344436
 30
0.000000
  0
VERTEX
  8
LAYER-1
 10
1.272598
 20
3.340616
 30
0.000000
  0
VERTEX
  8
LAYER-1
 10
1.278327
 20
3.341571
 30
0.000000
  0
VERTEX
  8
LAYER-1
 10
1.284056
 20
3.343481
 30
0.000000
  0
VERTEX
  8
LAYER-1
 10
1.285011
 20
3.349211
 30
0.000000
  0
VERTEX
  8
LAYER-1
 10
1.282147
 20
3.354939
 30
0.000000
  0
VERTEX
  8
LAYER-1
 10
1.279282
 20
3.359715
 30
0.000000
  0
VERTEX
  8
LAYER-1
 10
1.279282
 20
3.365443
 30
0.000000
  0
VERTEX
  8
LAYER-1
 10
1.279282
 20
3.371173
 30
0.000000
  0
VERTEX
  8
LAYER-1
 10
1.279282
 20
3.376901
 30
0.000000
  0
VERTEX
  8
LAYER-1
 10
1.273553
 20
3.379766
 30
0.000000
  0
VERTEX
  8
LAYER-1
 10
1.268778
 20
3.381675
 30
0.000000
  0
VERTEX
  8
LAYER-1
 10
1.263049
 20
3.383585
 30
0.000000
  0
VERTEX
  8
LAYER-1
 10
1.257321
 20
3.381675
 30
0.000000
  0
VERTEX
  8
LAYER-1
 10
1.251591
 20
3.376901
 30
0.000000
  0
VERTEX
  8
LAYER-1
 10
1.252546
 20
3.371173
 30
0.000000
  0
VERTEX
  8
LAYER-1
 10
1.256365
 20
3.365443
 30
0.000000
  0
SEQEND
  8
LAYER-1
  0
POLYLINE
  8
LAYER-1
 66
  1
 70
  0
 62
  0
 10
4.263918
 20
2.399427
 30
0.000000
  0
VERTEX
  8
LAYER-1
 10
4.263918
 20
2.399427
 30
0.000000
  0
VERTEX
  8
LAYER-1
 10
4.264873
 20
2.404201
 30
0.000000
  0
VERTEX
  8
LAYER-1
 10
4.271557
 20
2.407065
 30
0.000000
  0
VERTEX
  8
LAYER-1
 10
4.273467
 20
2.412795
 30
0.000000
  0
VERTEX
  8
LAYER-1
 10
4.274421
 20
2.418524
 30
0.000000
  0
VERTEX
  8
LAYER-1
 10
4.268692
 20
2.423297
 30
0.000000
  0
VERTEX
  8
LAYER-1
 10
4.262963
 20
2.425207
 30
0.000000
  0
VERTEX
  8
LAYER-1
 10
4.257234
 20
2.426163
 30
0.000000
  0
VERTEX
  8
LAYER-1
 10
4.251505
 20
2.429983
 30
0.000000
  0
VERTEX
  8
LAYER-1
 10
4.245775
 20
2.429983
 30
0.000000
  0
VERTEX
  8
LAYER-1
 10
4.240047
 20
2.426163
 30
0.000000
  0
VERTEX
  8
LAYER-1
 10
4.237181
 20
2.420433
 30
0.000000
  0
VERTEX
  8
LAYER-1
 10
4.235272
 20
2.414705
 30
0.000000
  0
VERTEX
  8
LAYER-1
 10
4.235272
 20
2.408975
 30
0.000000
  0
VERTEX
  8
LAYER-1
 10
4.240047
 20
2.403245
 30
0.000000
  0
VERTEX
  8
LAYER-1
 10
4.244821
 20
2.396562
 30
0.000000
  0
VERTEX
  8
LAYER-1
 10
4.249595
 20
2.393697
 30
0.000000
  0
VERTEX
  8
LAYER-1
 10
4.255324
 20
2.392743
 30
0.000000
  0
VERTEX
  8
LAYER-1
 10
4.261053
 20
2.394652
 30
0.000000
  0
VERTEX
  8
LAYER-1
 10
4.263918
 20
2.400382
 30
0.000000
  0
SEQEND
  8
LAYER-1
  0
POLYLINE
  8
LAYER-1
 66
  1
 70
  0
 62
  0
 10
3.944994
 20
2.758454
 30
0.000000
  0
VERTEX
  8
LAYER-1
 10
3.944994
 20
2.758454
 30
0.000000
  0
VERTEX
  8
LAYER-1
 10
3.950723
 20
2.763228
 30
0.000000
  0
VERTEX
  8
LAYER-1
 10
3.955498
 20
2.763228
 30
0.000000
  0
VERTEX
  8
LAYER-1
 10
3.961227
 20
2.763228
 30
0.000000
  0
VERTEX
  8
LAYER-1
 10
3.966000
 20
2.767047
 30
0.000000
  0
VERTEX
  8
LAYER-1
 10
3.969820
 20
2.772776
 30
0.000000
  0
VERTEX
  8
LAYER-1
 10
3.968866
 20
2.778506
 30
0.000000
  0
VERTEX
  8
LAYER-1
 10
3.966956
 20
2.784236
 30
0.000000
  0
VERTEX
  8
LAYER-1
 10
3.961227
 20
2.785190
 30
0.000000
  0
VERTEX
  8
LAYER-1
 10
3.955498
 20
2.782326
 30
0.000000
  0
VERTEX
  8
LAYER-1
 10
3.950723
 20
2.779461
 30
0.000000
  0
VERTEX
  8
LAYER-1
 10
3.944994
 20
2.779461
 30
0.000000
  0
VERTEX
  8
LAYER-1
 10
3.939265
 20
2.779461
 30
0.000000
  0
VERTEX
  8
LAYER-1
 10
3.933536
 20
2.779461
 30
0.000000
  0
VERTEX
  8
LAYER-1
 10
3.930671
 20
2.773732
 30
0.000000
  0
VERTEX
  8
LAYER-1
 10
3.928761
 20
2.768957
 30
0.000000
  0
VERTEX
  8
LAYER-1
 10
3.926851
 20
2.763228
 30
0.000000
  0
VERTEX
  8
LAYER-1
 10
3.928761
 20
2.757499
 30
0.000000
  0
VERTEX
  8
LAYER-1
 10
3.933536
 20
2.751770
 30
0.000000
  0
VERTEX
  8
LAYER-1
 10
3.939265
 20
2.752725
 30
0.000000
  0
VERTEX
  8
LAYER-1
 10
3.944994
 20
2.756545
 30
0.000000
  0
SEQEND
  8
LAYER-1
  0
POLYLINE
  8
LAYER-1
 66
  1
 70
  0
 62
  0
 10
4.532928
 20
3.210060
 30
0.000000
  0
VERTEX
  8
LAYER-1
 10
4.532928
 20
3.210060
 30
0.000000
  0
VERTEX
  8
LAYER-1
 10
4.531974
 20
3.205286
 30
0.000000
  0
VERTEX
  8
LAYER-1
 10
4.525289
 20
3.202421
 30
0.000000
  0
VERTEX
  8
LAYER-1
 10
4.523379
 20
3.196692
 30
0.000000
  0
VERTEX
  8
LAYER-1
 10
4.522425
 20
3.190963
 30
0.000000
  0
VERTEX
  8
LAYER-1
 10
4.528155
 20
3.186189
 30
0.000000
  0
VERTEX
  8
LAYER-1
 10
4.533883
 20
3.184279
 30
0.000000
  0
VERTEX
  8
LAYER-1
 10
4.539612
 20
3.183324
 30
0.000000
  0
VERTEX
  8
LAYER-1
 10
4.545341
 20
3.179504
 30
0.000000
  0
VERTEX
  8
LAYER-1
 10
4.551071
 20
3.179504
 30
0.000000
  0
VERTEX
  8
LAYER-1
 10
4.556800
 20
3.183324
 30
0.000000
  0
VERTEX
  8
LAYER-1
 10
4.559664
 20
3.189053
 30
0.000000
  0
VERTEX
  8
LAYER-1
 10
4.561574
 20
3.194782
 30
0.000000
  0
VERTEX
  8
LAYER-1
 10
4.561574
 20
3.200512
 30
0.000000
  0
VERTEX
  8
LAYER-1
 10
4.556800
 20
3.206241
 30
0.000000
  0
VERTEX
  8
LAYER-1
 10
4.552026
 20
3.212925
 30
0.000000
  0
VERTEX
  8
LAYER-1
 10
4.547251
 20
3.215790
 30
0.000000
  0
VERTEX
  8
LAYER-1
 10
4.541523
 20
3.216744
 30
0.000000
  0
VERTEX
  8
LAYER-1
 10
4.535793
 20
3.214834
 30
0.000000
  0
VERTEX
  8
LAYER-1
 10
4.532928
 20
3.209105
 30
0.000000
  0
SEQEND
  8
LAYER-1
  0
POLYLINE
  8
LAYER-1
 66
  1
 70
  0
 62
  0
 10
4.851852
 20
2.851033
 30
0.000000
  0
VERTEX
  8
LAYER-1
 10
4.851852
 20
2.851033
 30
0.000000
  0
VERTEX
  8
LAYER-1
 10
4.846124
 20
2.846259
 30
0.000000
  0
VERTEX
  8
LAYER-1
 10
4.841348
 20
2.846259
 30
0.000000
  0
VERTEX
  8
LAYER-1
 10
4.835620
 20
2.846259
 30
0.000000
  0
VERTEX
  8
LAYER-1
 10
4.830845
 20
2.842439
 30
0.000000
  0
VERTEX
  8
LAYER-1
 10
4.827026
 20
2.836710
 30
0.000000
  0
VERTEX
  8
LAYER-1
 10
4.827980
 20
2.830981
 30
0.000000
  0
VERTEX
  8
LAYER-1
 10
4.829890
 20
2.825251
 30
0.000000
  0
VERTEX
  8
LAYER-1
 10
4.835620
 20
2.824297
 30
0.000000
  0
VERTEX
  8
LAYER-1
 10
4.841348
 20
2.827161
 30
0.000000
  0
VERTEX
  8
LAYER-1
 10
4.846124
 20
2.830025
 30
0.000000
  0
VERTEX
  8
LAYER-1
 10
4.851852
 20
2.830025
 30
0.000000
  0
VERTEX
  8
LAYER-1
 10
4.857581
 20
2.830025
 30
0.000000
  0
VERTEX
  8
LAYER-1
 10
4.863310
 20
2.830025
 30
0.000000
  0
VERTEX
  8
LAYER-1
 10
4.866175
 20
2.835755
 30
0.000000
  0
VERTEX
  8
LAYER-1
 10
4.868085
 20
2.840529
 30
0.000000
  0
VERTEX
  8
LAYER-1
 10
4.869995
 20
2.846259
 30
0.000000
  0
VERTEX
  8
LAYER-1
 10
4.868085
 20
2.851987
 30
0.000000
  0
VERTEX
  8
LAYER-1
 10
4.863310
 20
2.857717
 30
0.000000
  0
VERTEX
  8
LAYER-1
 10
4.857581
 20
2.856762
 30
0.000000
  0
VERTEX
  8
LAYER-1
 10
4.851852
 20
2.852942
 30
0.000000
  0
SEQEND
  8
LAYER-1
  0
POLYLINE
  8
LAYER-1
 66
  1
 70
  0
 62
  0
 10
3.592131
 20
2.406414
 30
0.000000
  0
VERTEX
  8
LAYER-1
 10
3.592131
 20
2.406414
 30
0.000000
  0
VERTEX
  8
LAYER-1
 10
3.591176
 20
2.401640
 30
0.000000
  0
VERTEX
  8
LAYER-1
 10
3.584491
 20
2.398776
 30
0.000000
  0
VERTEX
  8
LAYER-1
 10
3.582581
 20
2.393046
 30
0.000000
  0
VERTEX
  8
LAYER-1
 10
3.581627
 20
2.387318
 30
0.000000
  0
VERTEX
  8
LAYER-1
 10
3.587356
 20
2.382543
 30
0.000000
  0
VERTEX
  8
LAYER-1
 10
3.593085
 20
2.380633
 30
0.000000
  0
VERTEX
  8
LAYER-1
 10
3.598815
 20
2.379678
 30
0.000000
  0
VERTEX
  8
LAYER-1
 10
3.604543
 20
2.375858
 30
0.000000
  0
VERTEX
  8
LAYER-1
 10
3.610272
 20
2.375858
 30
0.000000
  0
VERTEX
  8
LAYER-1
 10
3.616001
 20
2.379678
 30
0.000000
  0
VERTEX
  8
LAYER-1
 10
3.618866
 20
2.385408
 30
0.000000
  0
VERTEX
  8
LAYER-1
 10
3.620776
 20
2.391137
 30
0.000000
  0
VERTEX
  8
LAYER-1
 10
3.620776
 20
2.396866
 30
0.000000
  0
VERTEX
  8
LAYER-1
 10
3.616001
 20
2.402596
 30
0.000000
  0
VERTEX
  8
LAYER-1
 10
3.611228
 20
2.409279
 30
0.000000
  0
VERTEX
  8
LAYER-1
 10
3.606453
 20
2.412144
 30
0.000000
  0
VERTEX
  8
LAYER-1
 10
3.600724
 20
2.413099
 30
0.000000
  0
VERTEX
  8
LAYER-1
 10
3.594995
 20
2.411189
 30
0.000000
  0
VERTEX
  8
LAYER-1
 10
3.592131
 20
2.405459
 30
0.000000
  0
SEQEND
  8
LAYER-1
  0
POLYLINE
  8
LAYER-1
 66
  1
 70
  0
 62
  0
 10
3.911054
 20
2.047387
 30
0.000000
  0
VERTEX
  8
LAYER-1
 10
3.911054
 20
2.047387
 30
0.000000
  0
VERTEX
  8
LAYER-1
 10
3.905325
 20
2.042613
 30
0.000000
  0
VERTEX
  8
LAYER-1
 10
3.900550
 20
2.042613
 30
0.000000
  0
VERTEX
  8
LAYER-1
 10
3.894821
 20
2.042613
 30
0.000000
  0
VERTEX
  8
LAYER-1
 10
3.890047
 20
2.038793
 30
0.000000
  0
VERTEX
  8
LAYER-1
 10
3.886228
 20
2.033065
 30
0.000000
  0
VERTEX
  8
LAYER-1
 10
3.887182
 20
2.027335
 30
0.000000
  0
VERTEX
  8
LAYER-1
 10
3.889092
 20
2.021606
 30
0.000000
  0
VERTEX
  8
LAYER-1
 10
3.894821
 20
2.020651
 30
0.000000
  0
VERTEX
  8
LAYER-1
 10
3.900550
 20
2.023515
 30
0.000000
  0
VERTEX
  8
LAYER-1
 10
3.905325
 20
2.026380
 30
0.000000
  0
VERTEX
  8
LAYER-1
 10
3.911054
 20
2.026380
 30
0.000000
  0
VERTEX
  8
LAYER-1
 10
3.916783
 20
2.026380
 30
0.000000
  0
VERTEX
  8
LAYER-1
 10
3.922513
 20
2.026380
 30
0.000000
  0
VERTEX
  8
LAYER-1
 10
3.925377
 20
2.032109
 30
0.000000
  0
VERTEX
  8
LAYER-1
 10
3.927286
 20
2.036883
 30
0.000000
  0
VERTEX
  8
LAYER-1
 10
3.929197
 20
2.042613
 30
0.000000
  0
VERTEX
  8
LAYER-1
 10
3.927286
 20
2.048342
 30
0.000000
  0
VERTEX
  8
LAYER-1
 10
3.922513
 20
2.054071
 30
0.000000
  0
VERTEX
  8
LAYER-1
 10
3.916783
 20
2.053116
 30
0.000000
  0
VERTEX
  8
LAYER-1
 10
3.911054
 20
2.049296
 30
0.000000
  0
SEQEND
  8
LAYER-1
  0
POLYLINE
  8
LAYER-1
 66
  1
 70
  0
 62
  0
 10
3.214005
 20
1.680199
 30
0.000000
  0
VERTEX
  8
LAYER-1
 10
3.214005
 20
1.680199
 30
0.000000
  0
VERTEX
  8
LAYER-1
 10
3.213050
 20
1.675424
 30
0.000000
  0
VERTEX
  8
LAYER-1
 10
3.206366
 20
1.672560
 30
0.000000
  0
VERTEX
  8
LAYER-1
 10
3.204456
 20
1.666831
 30
0.000000
  0
VERTEX
  8
LAYER-1
 10
3.203501
 20
1.661102
 30
0.000000
  0
VERTEX
  8
LAYER-1
 10
3.209230
 20
1.656328
 30
0.000000
  0
VERTEX
  8
LAYER-1
 10
3.214959
 20
1.654418
 30
0.000000
  0
VERTEX
  8
LAYER-1
 10
3.220689
 20
1.653463
 30
0.000000
  0
VERTEX
  8
LAYER-1
 10
3.226418
 20
1.649643
 30
0.000000
  0
VERTEX
  8
LAYER-1
 10
3.232146
 20
1.649643
 30
0.000000
  0
VERTEX
  8
LAYER-1
 10
3.237876
 20
1.653463
 30
0.000000
  0
VERTEX
  8
LAYER-1
 10
3.240741
 20
1.659192
 30
0.000000
  0
VERTEX
  8
LAYER-1
 10
3.242650
 20
1.664921
 30
0.000000
  0
VERTEX
  8
LAYER-1
 10
3.242650
 20
1.670650
 30
0.000000
  0
VERTEX
  8
LAYER-1
 10
3.237876
 20
1.676380
 30
0.000000
  0
VERTEX
  8
LAYER-1
 10
3.233102
 20
1.683063
 30
0.000000
  0
VERTEX
  8
LAYER-1
 10
3.228328
 20
1.685928
 30
0.000000
  0
VERTEX
  8
LAYER-1
 10
3.222598
 20
1.686883
 30
0.000000
  0
VERTEX
  8
LAYER-1
 10
3.216869
 20
1.684973
 30
0.000000
  0
VERTEX
  8
LAYER-1
 10
3.214005
 20
1.679243
 30
0.000000
  0
SEQEND
  8
LAYER-1
  0
POLYLINE
  8
LAYER-1
 66
  1
 70
  0
 62
  0
 10
3.532928
 20
1.321172
 30
0.000000
  0
VERTEX
  8
LAYER-1
 10
3.532928
 20
1.321172
 30
0.000000
  0
VERTEX
  8
LAYER-1
 10
3.527199
 20
1.316398
 30
0.000000
  0
VERTEX
  8
LAYER-1
 10
3.522425
 20
1.316398
 30
0.000000
  0
VERTEX
  8
LAYER-1
 10
3.516695
 20
1.316398
 30
0.000000
  0
VERTEX
  8
LAYER-1
 10
3.511922
 20
1.312578
 30
0.000000
  0
VERTEX
  8
LAYER-1
 10
3.508102
 20
1.306849
 30
0.000000
  0
VERTEX
  8
LAYER-1
 10
3.509057
 20
1.301119
 30
0.000000
  0
VERTEX
  8
LAYER-1
 10
3.510967
 20
1.295390
 30
0.000000
  0
VERTEX
  8
LAYER-1
 10
3.516695
 20
1.294435
 30
0.000000
  0
VERTEX
  8
LAYER-1
 10
3.522425
 20
1.297300
 30
0.000000
  0
VERTEX
  8
LAYER-1
 10
3.527199
 20
1.300164
 30
0.000000
  0
VERTEX
  8
LAYER-1
 10
3.532928
 20
1.300164
 30
0.000000
  0
VERTEX
  8
LAYER-1
 10
3.538659
 20
1.300164
 30
0.000000
  0
VERTEX
  8
LAYER-1
 10
3.544387
 20
1.300164
 30
0.000000
  0
VERTEX
  8
LAYER-1
 10
3.547251
 20
1.305894
 30
0.000000
  0
VERTEX
  8
LAYER-1
 10
3.549161
 20
1.310668
 30
0.000000
  0
VERTEX
  8
LAYER-1
 10
3.551071
 20
1.316398
 30
0.000000
  0
VERTEX
  8
LAYER-1
 10
3.549161
 20
1.322127
 30
0.000000
  0
VERTEX
  8
LAYER-1
 10
3.544387
 20
1.327856
 30
0.000000
  0
VERTEX
  8
LAYER-1
 10
3.538659
 20
1.326900
 30
0.000000
  0
VERTEX
  8
LAYER-1
 10
3.532928
 20
1.323080
 30
0.000000
  0
SEQEND
  8
LAYER-1
  0
POLYLINE
  8
LAYER-1
 66
  1
 70
  0
 62
  0
 10
4.411922
 20
2.121172
 30
0.000000
  0
VERTEX
  8
LAYER-1
 10
4.411922
 20
2.121172
 30
0.000000
  0
VERTEX
  8
LAYER-1
 10
4.410967
 20
2.116397
 30
0.000000
  0
VERTEX
  8
LAYER-1
 10
4.404283
 20
2.113532
 30
0.000000
  0
VERTEX
  8
LAYER-1
 10
4.402372
 20
2.107802
 30
0.000000
  0
VERTEX
  8
LAYER-1
 10
4.401418
 20
2.102074
 30
0.000000
  0
VERTEX
  8
LAYER-1
 10
4.407147
 20
2.097300
 30
0.000000
  0
VERTEX
  8
LAYER-1
 10
4.412876
 20
2.095390
 30
0.000000
  0
VERTEX
  8
LAYER-1
 10
4.418606
 20
2.094435
 30
0.000000
  0
VERTEX
  8
LAYER-1
 10
4.424335
 20
2.090616
 30
0.000000
  0
VERTEX
  8
LAYER-1
 10
4.430064
 20
2.090616
 30
0.000000
  0
VERTEX
  8
LAYER-1
 10
4.435793
 20
2.094435
 30
0.000000
  0
VERTEX
  8
LAYER-1
 10
4.438657
 20
2.100164
 30
0.000000
  0
VERTEX
  8
LAYER-1
 10
4.440568
 20
2.105893
 30
0.000000
  0
VERTEX
  8
LAYER-1
 10
4.440568
 20
2.111622
 30
0.000000
  0
VERTEX
  8
LAYER-1
 10
4.435793
 20
2.117352
 30
0.000000
  0
VERTEX
  8
LAYER-1
 10
4.431019
 20
2.124036
 30
0.000000
  0
VERTEX
  8
LAYER-1
 10
4.426244
 20
2.126900
 30
0.000000
  0
VERTEX
  8
LAYER-1
 10
4.420516
 20
2.127855
 30
0.000000
  0
VERTEX
  8
LAYER-1
 10
4.414786
 20
2.125946
 30
0.000000
  0
VERTEX
  8
LAYER-1
 10
4.411922
 20
2.120216
 30
0.000000
  0
SEQEND
  8
LAYER-1
  0
POLYLINE
  8
LAYER-1
 66
  1
 70
  0
 62
  0
 10
4.730845
 20
1.762143
 30
0.000000
  0
VERTEX
  8
LAYER-1
 10
4.730845
 20
1.762143
 30
0.000000
  0
VERTEX
  8
LAYER-1
 10
4.725116
 20
1.757369
 30
0.000000
  0
VERTEX
  8
LAYER-1
 10
4.720341
 20
1.757369
 30
0.000000
  0
VERTEX
  8
LAYER-1
 10
4.714613
 20
1.757369
 30
0.000000
  0
VERTEX
  8
LAYER-1
 10
4.709838
 20
1.753549
 30
0.000000
  0
VERTEX
  8
LAYER-1
 10
4.706019
 20
1.747821
 30
0.000000
  0
VERTEX
  8
LAYER-1
 10
4.706973
 20
1.742092
 30
0.000000
  0
VERTEX
  8
LAYER-1
 10
4.708884
 20
1.736363
 30
0.000000
  0
VERTEX
  8
LAYER-1
 10
4.714613
 20
1.735408
 30
0.000000
  0
VERTEX
  8
LAYER-1
 10
4.720341
 20
1.738272
 30
0.000000
  0
VERTEX
  8
LAYER-1
 10
4.725116
 20
1.741137
 30
0.000000
  0
VERTEX
  8
LAYER-1
 10
4.730845
 20
1.741137
 30
0.000000
  0
VERTEX
  8
LAYER-1
 10
4.736574
 20
1.741137
 30
0.000000
  0
VERTEX
  8
LAYER-1
 10
4.742303
 20
1.741137
 30
0.000000
  0
VERTEX
  8
LAYER-1
 10
4.745169
 20
1.746865
 30
0.000000
  0
VERTEX
  8
LAYER-1
 10
4.747078
 20
1.751641
 30
0.000000
  0
VERTEX
  8
LAYER-1
 10
4.748987
 20
1.757369
 30
0.000000
  0
VERTEX
  8
LAYER-1
 10
4.747078
 20
1.763098
 30
0.000000
  0
VERTEX
  8
LAYER-1
 10
4.742303
 20
1.768828
 30
0.000000
  0
VERTEX
  8
LAYER-1
 10
4.736574
 20
1.767873
 30
0.000000
  0
VERTEX
  8
LAYER-1
 10
4.730845
 20
1.764053
 30
0.000000
  0
SEQEND
  8
LAYER-1
  0
POLYLINE
  8
LAYER-1
 66
  1
 70
  0
 62
  0
 10
4.344560
 20
1.118915
 30
0.000000
  0
VERTEX
  8
LAYER-1
 10
4.344560
 20
1.118915
 30
0.000000
  0
VERTEX
  8
LAYER-1
 10
4.345515
 20
1.123690
 30
0.000000
  0
VERTEX
  8
LAYER-1
 10
4.352200
 20
1.126554
 30
0.000000
  0
VERTEX
  8
LAYER-1
 10
4.354110
 20
1.132284
 30
0.000000
  0
VERTEX
  8
LAYER-1
 10
4.355064
 20
1.138012
 30
0.000000
  0
VERTEX
  8
LAYER-1
 10
4.349335
 20
1.142787
 30
0.000000
  0
VERTEX
  8
LAYER-1
 10
4.343606
 20
1.144697
 30
0.000000
  0
VERTEX
  8
LAYER-1
 10
4.337877
 20
1.145651
 30
0.000000
  0
VERTEX
  8
LAYER-1
 10
4.332148
 20
1.149471
 30
0.000000
  0
VERTEX
  8
LAYER-1
 10
4.326418
 20
1.149471
 30
0.000000
  0
VERTEX
  8
LAYER-1
 10
4.320689
 20
1.145651
 30
0.000000
  0
VERTEX
  8
LAYER-1
 10
4.317824
 20
1.139922
 30
0.000000
  0
VERTEX
  8
LAYER-1
 10
4.315916
 20
1.134193
 30
0.000000
  0
VERTEX
  8
LAYER-1
 10
4.315916
 20
1.128464
 30
0.000000
  0
VERTEX
  8
LAYER-1
 10
4.320689
 20
1.122734
 30
0.000000
  0
VERTEX
  8
LAYER-1
 10
4.325464
 20
1.116051
 30
0.000000
  0
VERTEX
  8
LAYER-1
 10
4.330237
 20
1.113186
 30
0.000000
  0
VERTEX
  8
LAYER-1
 10
4.335966
 20
1.112232
 30
0.000000
  0
VERTEX
  8
LAYER-1
 10
4.341696
 20
1.114141
 30
0.000000
  0
VERTEX
  8
LAYER-1
 10
4.344560
 20
1.119871
 30
0.000000
  0
SEQEND
  8
LAYER-1
  0
POLYLINE
  8
LAYER-1
 66
  1
 70
  0
 62
  0
 10
4.025636
 20
1.477943
 30
0.000000
  0
VERTEX
  8
LAYER-1
 10
4.025636
 20
1.477943
 30
0.000000
  0
VERTEX
  8
LAYER-1
 10
4.031366
 20
1.482717
 30
0.000000
  0
VERTEX
  8
LAYER-1
 10
4.036140
 20
1.482717
 30
0.000000
  0
VERTEX
  8
LAYER-1
 10
4.041869
 20
1.482717
 30
0.000000
  0
VERTEX
  8
LAYER-1
 10
4.046644
 20
1.486537
 30
0.000000
  0
VERTEX
  8
LAYER-1
 10
4.050464
 20
1.492265
 30
0.000000
  0
VERTEX
  8
LAYER-1
 10
4.049508
 20
1.497995
 30
0.000000
  0
VERTEX
  8
LAYER-1
 10
4.047599
 20
1.503724
 30
0.000000
  0
VERTEX
  8
LAYER-1
 10
4.041869
 20
1.504679
 30
0.000000
  0
VERTEX
  8
LAYER-1
 10
4.036140
 20
1.501815
 30
0.000000
  0
VERTEX
  8
LAYER-1
 10
4.031366
 20
1.498951
 30
0.000000
  0
VERTEX
  8
LAYER-1
 10
4.025636
 20
1.498951
 30
0.000000
  0
VERTEX
  8
LAYER-1
 10
4.019908
 20
1.498951
 30
0.000000
  0
VERTEX
  8
LAYER-1
 10
4.014179
 20
1.498951
 30
0.000000
  0
VERTEX
  8
LAYER-1
 10
4.011315
 20
1.493221
 30
0.000000
  0
VERTEX
  8
LAYER-1
 10
4.009404
 20
1.488447
 30
0.000000
  0
VERTEX
  8
LAYER-1
 10
4.007495
 20
1.482717
 30
0.000000
  0
VERTEX
  8
LAYER-1
 10
4.009404
 20
1.476988
 30
0.000000
  0
VERTEX
  8
LAYER-1
 10
4.014179
 20
1.471258
 30
0.000000
  0
VERTEX
  8
LAYER-1
 10
4.019908
 20
1.472214
 30
0.000000
  0
VERTEX
  8
LAYER-1
 10
4.025636
 20
1.476034
 30
0.000000
  0
SEQEND
  8
LAYER-1
  0
POLYLINE
  8
LAYER-1
 66
  1
 70
  0
 62
  0
 10
4.696123
 20
2.564227
 30
0.000000
  0
VERTEX
  8
LAYER-1
 10
4.696123
 20
2.564227
 30
0.000000
  0
VERTEX
  8
LAYER-1
 10
4.695168
 20
2.559452
 30
0.000000
  0
VERTEX
  8
LAYER-1
 10
4.688484
 20
2.556588
 30
0.000000
  0
VERTEX
  8
LAYER-1
 10
4.686574
 20
2.550858
 30
0.000000
  0
VERTEX
  8
LAYER-1
 10
4.685619
 20
2.545130
 30
0.000000
  0
VERTEX
  8
LAYER-1
 10
4.691348
 20
2.540355
 30
0.000000
  0
VERTEX
  8
LAYER-1
 10
4.697078
 20
2.538445
 30
0.000000
  0
VERTEX
  8
LAYER-1
 10
4.702808
 20
2.537491
 30
0.000000
  0
VERTEX
  8
LAYER-1
 10
4.708536
 20
2.533671
 30
0.000000
  0
VERTEX
  8
LAYER-1
 10
4.714265
 20
2.533671
 30
0.000000
  0
VERTEX
  8
LAYER-1
 10
4.719994
 20
2.537491
 30
0.000000
  0
VERTEX
  8
LAYER-1
 10
4.722860
 20
2.543220
 30
0.000000
  0
VERTEX
  8
LAYER-1
 10
4.724769
 20
2.548949
 30
0.000000
  0
VERTEX
  8
LAYER-1
 10
4.724769
 20
2.554678
 30
0.000000
  0
VERTEX
  8
LAYER-1
 10
4.719994
 20
2.560407
 30
0.000000
  0
VERTEX
  8
LAYER-1
 10
4.715220
 20
2.567092
 30
0.000000
  0
VERTEX
  8
LAYER-1
 10
4.710446
 20
2.569956
 30
0.000000
  0
VERTEX
  8
LAYER-1
 10
4.704716
 20
2.570911
 30
0.000000
  0
VERTEX
  8
LAYER-1
 10
4.698988
 20
2.569002
 30
0.000000
  0
VERTEX
  8
LAYER-1
 10
4.696123
 20
2.563272
 30
0.000000
  0
SEQEND
  8
LAYER-1
  0
POLYLINE
  8
LAYER-1
 66
  1
 70
  0
 62
  0
 10
5.015046
 20
2.205199
 30
0.000000
  0
VERTEX
  8
LAYER-1
 10
5.015046
 20
2.205199
 30
0.000000
  0
VERTEX
  8
LAYER-1
 10
5.009317
 20
2.200425
 30
0.000000
  0
VERTEX
  8
LAYER-1
 10
5.004543
 20
2.200425
 30
0.000000
  0
VERTEX
  8
LAYER-1
 10
4.998814
 20
2.200425
 30
0.000000
  0
VERTEX
  8
LAYER-1
 10
4.994040
 20
2.196605
 30
0.000000
  0
VERTEX
  8
LAYER-1
 10
4.990220
 20
2.190877
 30
0.000000
  0
VERTEX
  8
LAYER-1
 10
4.991175
 20
2.185147
 30
0.000000
  0
VERTEX
  8
LAYER-1
 10
4.993085
 20
2.179418
 30
0.000000
  0
VERTEX
  8
LAYER-1
 10
4.998814
 20
2.178464
 30
0.000000
  0
VERTEX
  8
LAYER-1
 10
5.004543
 20
2.181327
 30
0.000000
  0
VERTEX
  8
LAYER-1
 10
5.009317
 20
2.184193
 30
0.000000
  0
VERTEX
  8
LAYER-1
 10
5.015046
 20
2.184193
 30
0.000000
  0
VERTEX
  8
LAYER-1
 10
5.020777
 20
2.184193
 30
0.000000
  0
VERTEX
  8
LAYER-1
 10
5.026505
 20
2.184193
 30
0.000000
  0
VERTEX
  8
LAYER-1
 10
5.029369
 20
2.189921
 30
0.000000
  0
VERTEX
  8
LAYER-1
 10
5.031279
 20
2.194696
 30
0.000000
  0
VERTEX
  8
LAYER-1
 10
5.033189
 20
2.200425
 30
0.000000
  0
VERTEX
  8
LAYER-1
 10
5.031279
 20
2.206154
 30
0.000000
  0
VERTEX
  8
LAYER-1
 10
5.026505
 20
2.211884
 30
0.000000
  0
VERTEX
  8
LAYER-1
 10
5.020777
 20
2.210929
 30
0.000000
  0
VERTEX
  8
LAYER-1
 10
5.015046
 20
2.207109
 30
0.000000
  0
SEQEND
  8
LAYER-1
  0
POLYLINE
  8
LAYER-1
 66
  1
 70
  0
 62
  0
 10
3.171470
 20
2.828637
 30
0.000000
  0
VERTEX
  8
LAYER-1
 10
3.171470
 20
2.828637
 30
0.000000
  0
VERTEX
  8
LAYER-1
 10
3.176244
 20
2.827683
 30
0.000000
  0
VERTEX
  8
LAYER-1
 10
3.179109
 20
2.820999
 30
0.000000
  0
VERTEX
  8
LAYER-1
 10
3.184839
 20
2.819089
 30
0.000000
  0
VERTEX
  8
LAYER-1
 10
3.190567
 20
2.818133
 30
0.000000
  0
VERTEX
  8
LAYER-1
 10
3.195341
 20
2.823863
 30
0.000000
  0
VERTEX
  8
LAYER-1
 10
3.197252
 20
2.829592
 30
0.000000
  0
VERTEX
  8
LAYER-1
 10
3.198206
 20
2.835322
 30
0.000000
  0
VERTEX
  8
LAYER-1
 10
3.202026
 20
2.841051
 30
0.000000
  0
VERTEX
  8
LAYER-1
 10
3.202026
 20
2.846780
 30
0.000000
  0
VERTEX
  8
LAYER-1
 10
3.198206
 20
2.852509
 30
0.000000
  0
VERTEX
  8
LAYER-1
 10
3.192476
 20
2.855374
 30
0.000000
  0
VERTEX
  8
LAYER-1
 10
3.186748
 20
2.857284
 30
0.000000
  0
VERTEX
  8
LAYER-1
 10
3.181019
 20
2.857284
 30
0.000000
  0
VERTEX
  8
LAYER-1
 10
3.175289
 20
2.852509
 30
0.000000
  0
VERTEX
  8
LAYER-1
 10
3.168605
 20
2.847735
 30
0.000000
  0
VERTEX
  8
LAYER-1
 10
3.165740
 20
2.842960
 30
0.000000
  0
VERTEX
  8
LAYER-1
 10
3.164787
 20
2.837231
 30
0.000000
  0
VERTEX
  8
LAYER-1
 10
3.166695
 20
2.831502
 30
0.000000
  0
VERTEX
  8
LAYER-1
 10
3.172425
 20
2.828637
 30
0.000000
  0
SEQEND
  8
LAYER-1
  0
POLYLINE
  8
LAYER-1
 66
  1
 70
  0
 62
  0
 10
3.530498
 20
3.147561
 30
0.000000
  0
VERTEX
  8
LAYER-1
 10
3.530498
 20
3.147561
 30
0.000000
  0
VERTEX
  8
LAYER-1
 10
3.535271
 20
3.141832
 30
0.000000
  0
VERTEX
  8
LAYER-1
 10
3.535271
 20
3.137057
 30
0.000000
  0
VERTEX
  8
LAYER-1
 10
3.535271
 20
3.131329
 30
0.000000
  0
VERTEX
  8
LAYER-1
 10
3.539091
 20
3.126554
 30
0.000000
  0
VERTEX
  8
LAYER-1
 10
3.544820
 20
3.122734
 30
0.000000
  0
VERTEX
  8
LAYER-1
 10
3.550550
 20
3.123689
 30
0.000000
  0
VERTEX
  8
LAYER-1
 10
3.556279
 20
3.125599
 30
0.000000
  0
VERTEX
  8
LAYER-1
 10
3.557233
 20
3.131329
 30
0.000000
  0
VERTEX
  8
LAYER-1
 10
3.554370
 20
3.137057
 30
0.000000
  0
VERTEX
  8
LAYER-1
 10
3.551505
 20
3.141832
 30
0.000000
  0
VERTEX
  8
LAYER-1
 10
3.551505
 20
3.147561
 30
0.000000
  0
VERTEX
  8
LAYER-1
 10
3.551505
 20
3.153291
 30
0.000000
  0
VERTEX
  8
LAYER-1
 10
3.551505
 20
3.159019
 30
0.000000
  0
VERTEX
  8
LAYER-1
 10
3.545775
 20
3.161883
 30
0.000000
  0
VERTEX
  8
LAYER-1
 10
3.541001
 20
3.163793
 30
0.000000
  0
VERTEX
  8
LAYER-1
 10
3.535271
 20
3.165703
 30
0.000000
  0
VERTEX
  8
LAYER-1
 10
3.529542
 20
3.163793
 30
0.000000
  0
VERTEX
  8
LAYER-1
 10
3.523814
 20
3.159019
 30
0.000000
  0
VERTEX
  8
LAYER-1
 10
3.524768
 20
3.153291
 30
0.000000
  0
VERTEX
  8
LAYER-1
 10
3.528588
 20
3.147561
 30
0.000000
  0
SEQEND
  8
LAYER-1
  0
POLYLINE
  8
LAYER-1
 66
  1
 70
  0
 62
  0
 10
3.868344
 20
3.125860
 30
0.000000
  0
VERTEX
  8
LAYER-1
 10
3.868344
 20
3.125860
 30
0.000000
  0
VERTEX
  8
LAYER-1
 10
3.873119
 20
3.124904
 30
0.000000
  0
VERTEX
  8
LAYER-1
 10
3.875984
 20
3.118220
 30
0.000000
  0
VERTEX
  8
LAYER-1
 10
3.881713
 20
3.116310
 30
0.000000
  0
VERTEX
  8
LAYER-1
 10
3.887442
 20
3.115356
 30
0.000000
  0
VERTEX
  8
LAYER-1
 10
3.892216
 20
3.121085
 30
0.000000
  0
VERTEX
  8
LAYER-1
 10
3.894126
 20
3.126814
 30
0.000000
  0
VERTEX
  8
LAYER-1
 10
3.895081
 20
3.132543
 30
0.000000
  0
VERTEX
  8
LAYER-1
 10
3.898900
 20
3.138272
 30
0.000000
  0
VERTEX
  8
LAYER-1
 10
3.898900
 20
3.144002
 30
0.000000
  0
VERTEX
  8
LAYER-1
 10
3.895081
 20
3.149730
 30
0.000000
  0
VERTEX
  8
LAYER-1
 10
3.889352
 20
3.152596
 30
0.000000
  0
VERTEX
  8
LAYER-1
 10
3.883623
 20
3.154505
 30
0.000000
  0
VERTEX
  8
LAYER-1
 10
3.877894
 20
3.154505
 30
0.000000
  0
VERTEX
  8
LAYER-1
 10
3.872164
 20
3.149730
 30
0.000000
  0
VERTEX
  8
LAYER-1
 10
3.865480
 20
3.144956
 30
0.000000
  0
VERTEX
  8
LAYER-1
 10
3.862616
 20
3.140182
 30
0.000000
  0
VERTEX
  8
LAYER-1
 10
3.861661
 20
3.134453
 30
0.000000
  0
VERTEX
  8
LAYER-1
 10
3.863571
 20
3.128724
 30
0.000000
  0
VERTEX
  8
LAYER-1
 10
3.869300
 20
3.125860
 30
0.000000
  0
SEQEND
  8
LAYER-1
  0
POLYLINE
  8
LAYER-1
 66
  1
 70
  0
 62
  0
 10
4.227372
 20
3.444784
 30
0.000000
  0
VERTEX
  8
LAYER-1
 10
4.227372
 20
3.444784
 30
0.000000
  0
VERTEX
  8
LAYER-1
 10
4.232146
 20
3.439054
 30
0.000000
  0
VERTEX
  8
LAYER-1
 10
4.232146
 20
3.434280
 30
0.000000
  0
VERTEX
  8
LAYER-1
 10
4.232146
 20
3.428551
 30
0.000000
  0
VERTEX
  8
LAYER-1
 10
4.235966
 20
3.423776
 30
0.000000
  0
VERTEX
  8
LAYER-1
 10
4.241695
 20
3.419957
 30
0.000000
  0
VERTEX
  8
LAYER-1
 10
4.247425
 20
3.420912
 30
0.000000
  0
VERTEX
  8
LAYER-1
 10
4.253154
 20
3.422821
 30
0.000000
  0
VERTEX
  8
LAYER-1
 10
4.254108
 20
3.428551
 30
0.000000
  0
VERTEX
  8
LAYER-1
 10
4.251244
 20
3.434280
 30
0.000000
  0
VERTEX
  8
LAYER-1
 10
4.248379
 20
3.439054
 30
0.000000
  0
VERTEX
  8
LAYER-1
 10
4.248379
 20
3.444784
 30
0.000000
  0
VERTEX
  8
LAYER-1
 10
4.248379
 20
3.450512
 30
0.000000
  0
VERTEX
  8
LAYER-1
 10
4.248379
 20
3.456242
 30
0.000000
  0
VERTEX
  8
LAYER-1
 10
4.242650
 20
3.459106
 30
0.000000
  0
VERTEX
  8
LAYER-1
 10
4.237875
 20
3.461016
 30
0.000000
  0
VERTEX
  8
LAYER-1
 10
4.232146
 20
3.462926
 30
0.000000
  0
VERTEX
  8
LAYER-1
 10
4.226418
 20
3.461016
 30
0.000000
  0
VERTEX
  8
LAYER-1
 10
4.220688
 20
3.456242
 30
0.000000
  0
VERTEX
  8
LAYER-1
 10
4.221643
 20
3.450512
 30
0.000000
  0
VERTEX
  8
LAYER-1
 10
4.225463
 20
3.444784
 30
0.000000
  0
SEQEND
  8
LAYER-1
  0
POLYLINE
  8
LAYER-1
 66
  1
 70
  0
 62
  0
 10
2.578851
 20
5.340503
 30
0.000000
  0
VERTEX
  8
LAYER-1
 10
2.578851
 20
5.340503
 30
0.000000
  0
VERTEX
  8
LAYER-1
 10
2.578851
 20
5.220191
 30
0.000000
  0
SEQEND
  8
LAYER-1
  0
POLYLINE
  8
LAYER-1
 66
  1
 70
  1
 62
  0
 10
2.367396
 20
4.073438
 30
0.000000
  0
VERTEX
  8
LAYER-1
 10
2.367396
 20
4.073438
 30
0.000000
  0
VERTEX
  8
LAYER-1
 10
2.365740
 20
5.433300
 30
0.000000
  0
VERTEX
  8
LAYER-1
 10
2.578851
 20
5.220191
 30
0.000000
  0
VERTEX
  8
LAYER-1
 10
2.578851
 20
5.340503
 30
0.000000
  0
VERTEX
  8
LAYER-1
 10
2.866075
 20
5.053278
 30
0.000000
  0
VERTEX
  8
LAYER-1
 10
2.864692
 20
4.073438
 30
0.000000
  0
SEQEND
  8
LAYER-1
  0
POLYLINE
  8
LAYER-1
 66
  1
 70
  0
 62
  0
 10
2.193849
 20
5.605190
 30
0.000000
  0
VERTEX
  8
LAYER-1
 10
2.193849
 20
5.605190
 30
0.000000
  0
VERTEX
  8
LAYER-1
 10
2.578851
 20
5.220191
 30
0.000000
  0
SEQEND
  8
LAYER-1
  0
POLYLINE
  8
LAYER-1
 66
  1
 70
  0
 62
  0
 10
2.578851
 20
5.340503
 30
0.000000
  0
VERTEX
  8
LAYER-1
 10
2.578851
 20
5.340503
 30
0.000000
  0
VERTEX
  8
LAYER-1
 10
3.036038
 20
4.883313
 30
0.000000
  0
SEQEND
  8
LAYER-1
  0
POLYLINE
  8
LAYER-1
 66
  1
 70
  1
 62
  0
 10
1.755038
 20
1.922996
 30
0.000000
  0
VERTEX
  8
LAYER-1
 10
1.755038
 20
1.922996
 30
0.000000
  0
VERTEX
  8
LAYER-1
 10
1.806861
 20
1.968224
 30
0.000000
  0
VERTEX
  8
LAYER-1
 10
1.689641
 20
2.008506
 30
0.000000
  0
SEQEND
  8
LAYER-1
  0
POLYLINE
  8
LAYER-1
 66
  1
 70
  1
 62
  0
 10
0.391837
 20
2.257899
 30
0.000000
  0
VERTEX
  8
LAYER-1
 10
0.391837
 20
2.257899
 30
0.000000
  0
VERTEX
  8
LAYER-1
 10
0.443660
 20
2.303128
 30
0.000000
  0
VERTEX
  8
LAYER-1
 10
0.326440
 20
2.343411
 30
0.000000
  0
SEQEND
  8
LAYER-1
  0
POLYLINE
  8
LAYER-1
 66
  1
 70
  1
 62
  0
 10
3.928415
 20
2.155026
 30
0.000000
  0
VERTEX
  8
LAYER-1
 10
3.928415
 20
2.155026
 30
0.000000
  0
VERTEX
  8
LAYER-1
 10
3.911570
 20
2.221716
 30
0.000000
  0
VERTEX
  8
LAYER-1
 10
3.822556
 20
2.135462
 30
0.000000
  0
SEQEND
  8
LAYER-1
  0
POLYLINE
  8
LAYER-1
 66
  1
 70
  1
 62
  0
 10
0.929425
 20
2.293291
 30
0.000000
  0
VERTEX
  8
LAYER-1
 10
0.929425
 20
2.293291
 30
0.000000
  0
VERTEX
  8
LAYER-1
 10
0.946271
 20
2.226602
 30
0.000000
  0
VERTEX
  8
LAYER-1
 10
1.035285
 20
2.312856
 30
0.000000
  0
SEQEND
  8
LAYER-1
  0
POLYLINE
  8
LAYER-1
 66
  1
 70
  1
 62
  0
 10
2.041849
 20
1.332275
 30
0.000000
  0
VERTEX
  8
LAYER-1
 10
2.041849
 20
1.332275
 30
0.000000
  0
VERTEX
  8
LAYER-1
 10
1.974826
 20
1.347742
 30
0.000000
  0
VERTEX
  8
LAYER-1
 10
2.010916
 20
1.229162
 30
0.000000
  0
SEQEND
  8
LAYER-1
  0
POLYLINE
  8
LAYER-1
 66
  1
 70
  1
 62
  0
 10
0.623008
 20
1.444789
 30
0.000000
  0
VERTEX
  8
LAYER-1
 10
0.623008
 20
1.444789
 30
0.000000
  0
VERTEX
  8
LAYER-1
 10
0.674831
 20
1.490018
 30
0.000000
  0
VERTEX
  8
LAYER-1
 10
0.557610
 20
1.530301
 30
0.000000
  0
SEQEND
  8
LAYER-1
  0
POLYLINE
  8
LAYER-1
 66
  1
 70
  1
 62
  0
 10
1.609918
 20
2.655063
 30
0.000000
  0
VERTEX
  8
LAYER-1
 10
1.609918
 20
2.655063
 30
0.000000
  0
VERTEX
  8
LAYER-1
 10
1.661741
 20
2.700292
 30
0.000000
  0
VERTEX
  8
LAYER-1
 10
1.544520
 20
2.740575
 30
0.000000
  0
SEQEND
  8
LAYER-1
  0
POLYLINE
  8
LAYER-1
 66
  1
 70
  1
 62
  0
 10
0.269348
 20
2.890542
 30
0.000000
  0
VERTEX
  8
LAYER-1
 10
0.269348
 20
2.890542
 30
0.000000
  0
VERTEX
  8
LAYER-1
 10
0.286192
 20
2.823852
 30
0.000000
  0
VERTEX
  8
LAYER-1
 10
0.375207
 20
2.910106
 30
0.000000
  0
SEQEND
  8
LAYER-1
  0
POLYLINE
  8
LAYER-1
 66
  1
 70
  1
 62
  0
 10
1.192213
 20
3.094457
 30
0.000000
  0
VERTEX
  8
LAYER-1
 10
1.192213
 20
3.094457
 30
0.000000
  0
VERTEX
  8
LAYER-1
 10
1.176746
 20
3.027435
 30
0.000000
  0
VERTEX
  8
LAYER-1
 10
1.295325
 20
3.063525
 30
0.000000
  0
SEQEND
  8
LAYER-1
  0
POLYLINE
  8
LAYER-1
 66
  1
 70
  1
 62
  0
 10
0.353837
 20
2.121723
 30
0.000000
  0
VERTEX
  8
LAYER-1
 10
0.353837
 20
2.121723
 30
0.000000
  0
VERTEX
  8
LAYER-1
 10
0.286814
 20
2.137190
 30
0.000000
  0
VERTEX
  8
LAYER-1
 10
0.322903
 20
2.018611
 30
0.000000
  0
SEQEND
  8
LAYER-1
  0
POLYLINE
  8
LAYER-1
 66
  1
 70
  1
 62
  0
 10
0.391918
 20
1.138046
 30
0.000000
  0
VERTEX
  8
LAYER-1
 10
0.391918
 20
1.138046
 30
0.000000
  0
VERTEX
  8
LAYER-1
 10
0.324895
 20
1.153513
 30
0.000000
  0
VERTEX
  8
LAYER-1
 10
0.360984
 20
1.034933
 30
0.000000
  0
SEQEND
  8
LAYER-1
  0
POLYLINE
  8
LAYER-1
 66
  1
 70
  0
 62
  0
 10
0.929109
 20
1.669610
 30
0.000000
  0
VERTEX
  8
LAYER-1
 10
0.929109
 20
1.669610
 30
0.000000
  0
VERTEX
  8
LAYER-1
 10
0.928154
 20
1.664836
 30
0.000000
  0
VERTEX
  8
LAYER-1
 10
0.921470
 20
1.661971
 30
0.000000
  0
VERTEX
  8
LAYER-1
 10
0.919560
 20
1.656242
 30
0.000000
  0
VERTEX
  8
LAYER-1
 10
0.918605
 20
1.650513
 30
0.000000
  0
VERTEX
  8
LAYER-1
 10
0.924335
 20
1.645738
 30
0.000000
  0
VERTEX
  8
LAYER-1
 10
0.930064
 20
1.643828
 30
0.000000
  0
VERTEX
  8
LAYER-1
 10
0.935793
 20
1.642873
 30
0.000000
  0
VERTEX
  8
LAYER-1
 10
0.941522
 20
1.639053
 30
0.000000
  0
VERTEX
  8
LAYER-1
 10
0.947252
 20
1.639053
 30
0.000000
  0
VERTEX
  8
LAYER-1
 10
0.952980
 20
1.642873
 30
0.000000
  0
VERTEX
  8
LAYER-1
 10
0.955845
 20
1.648603
 30
0.000000
  0
VERTEX
  8
LAYER-1
 10
0.957754
 20
1.654332
 30
0.000000
  0
VERTEX
  8
LAYER-1
 10
0.957754
 20
1.660061
 30
0.000000
  0
VERTEX
  8
LAYER-1
 10
0.952980
 20
1.665791
 30
0.000000
  0
VERTEX
  8
LAYER-1
 10
0.948206
 20
1.672473
 30
0.000000
  0
VERTEX
  8
LAYER-1
 10
0.943432
 20
1.675339
 30
0.000000
  0
VERTEX
  8
LAYER-1
 10
0.937702
 20
1.676293
 30
0.000000
  0
VERTEX
  8
LAYER-1
 10
0.931973
 20
1.674383
 30
0.000000
  0
VERTEX
  8
LAYER-1
 10
0.929109
 20
1.668654
 30
0.000000
  0
SEQEND
  8
LAYER-1
  0
POLYLINE
  8
LAYER-1
 66
  1
 70
  0
 62
  0
 10
1.248033
 20
1.310582
 30
0.000000
  0
VERTEX
  8
LAYER-1
 10
1.248033
 20
1.310582
 30
0.000000
  0
VERTEX
  8
LAYER-1
 10
1.242303
 20
1.305808
 30
0.000000
  0
VERTEX
  8
LAYER-1
 10
1.237529
 20
1.305808
 30
0.000000
  0
VERTEX
  8
LAYER-1
 10
1.231800
 20
1.305808
 30
0.000000
  0
VERTEX
  8
LAYER-1
 10
1.227025
 20
1.301988
 30
0.000000
  0
VERTEX
  8
LAYER-1
 10
1.223206
 20
1.296260
 30
0.000000
  0
VERTEX
  8
LAYER-1
 10
1.224161
 20
1.290530
 30
0.000000
  0
VERTEX
  8
LAYER-1
 10
1.226071
 20
1.284800
 30
0.000000
  0
VERTEX
  8
LAYER-1
 10
1.231800
 20
1.283847
 30
0.000000
  0
VERTEX
  8
LAYER-1
 10
1.237529
 20
1.286710
 30
0.000000
  0
VERTEX
  8
LAYER-1
 10
1.242303
 20
1.289575
 30
0.000000
  0
VERTEX
  8
LAYER-1
 10
1.248033
 20
1.289575
 30
0.000000
  0
VERTEX
  8
LAYER-1
 10
1.253761
 20
1.289575
 30
0.000000
  0
VERTEX
  8
LAYER-1
 10
1.259491
 20
1.289575
 30
0.000000
  0
VERTEX
  8
LAYER-1
 10
1.262355
 20
1.295304
 30
0.000000
  0
VERTEX
  8
LAYER-1
 10
1.264265
 20
1.300078
 30
0.000000
  0
VERTEX
  8
LAYER-1
 10
1.266175
 20
1.305808
 30
0.000000
  0
VERTEX
  8
LAYER-1
 10
1.264265
 20
1.311537
 30
0.000000
  0
VERTEX
  8
LAYER-1
 10
1.259491
 20
1.317267
 30
0.000000
  0
VERTEX
  8
LAYER-1
 10
1.253761
 20
1.316311
 30
0.000000
  0
VERTEX
  8
LAYER-1
 10
1.248033
 20
1.312492
 30
0.000000
  0
SEQEND
  8
LAYER-1
  0
POLYLINE
  8
LAYER-1
 66
  1
 70
  1
 62
  0
 10
3.781494
 20
1.376645
 30
0.000000
  0
VERTEX
  8
LAYER-1
 10
3.781494
 20
1.376645
 30
0.000000
  0
VERTEX
  8
LAYER-1
 10
3.736266
 20
1.428468
 30
0.000000
  0
VERTEX
  8
LAYER-1
 10
3.695983
 20
1.311246
 30
0.000000
  0
SEQEND
  8
LAYER-1
  0
POLYLINE
  8
LAYER-1
 66
  1
 70
  1
 62
  0
 10
4.188049
 20
2.594754
 30
0.000000
  0
VERTEX
  8
LAYER-1
 10
4.188049
 20
2.594754
 30
0.000000
  0
VERTEX
  8
LAYER-1
 10
4.142821
 20
2.646576
 30
0.000000
  0
VERTEX
  8
LAYER-1
 10
4.102539
 20
2.529355
 30
0.000000
  0
SEQEND
  8
LAYER-1
  0
POLYLINE
  8
LAYER-1
 66
  1
 70
  1
 62
  0
 10
3.613461
 20
3.318440
 30
0.000000
  0
VERTEX
  8
LAYER-1
 10
3.613461
 20
3.318440
 30
0.000000
  0
VERTEX
  8
LAYER-1
 10
3.568232
 20
3.370263
 30
0.000000
  0
VERTEX
  8
LAYER-1
 10
3.527949
 20
3.253043
 30
0.000000
  0
SEQEND
  8
LAYER-1
  0
POLYLINE
  8
LAYER-1
 66
  1
 70
  1
 62
  0
 10
3.235548
 20
2.360939
 30
0.000000
  0
VERTEX
  8
LAYER-1
 10
3.235548
 20
2.360939
 30
0.000000
  0
VERTEX
  8
LAYER-1
 10
3.220082
 20
2.293916
 30
0.000000
  0
VERTEX
  8
LAYER-1
 10
3.338661
 20
2.330005
 30
0.000000
  0
SEQEND
  8
LAYER-1
  0
POLYLINE
  8
LAYER-1
 66
  1
 70
  1
 62
  0
 10
4.925341
 20
3.279495
 30
0.000000
  0
VERTEX
  8
LAYER-1
 10
4.925341
 20
3.279495
 30
0.000000
  0
VERTEX
  8
LAYER-1
 10
4.909875
 20
3.212471
 30
0.000000
  0
VERTEX
  8
LAYER-1
 10
5.028453
 20
3.248560
 30
0.000000
  0
SEQEND
  8
LAYER-1
  0
POLYLINE
  8
LAYER-1
 66
  1
 70
  1
 62
  0
 10
4.737140
 20
1.860266
 30
0.000000
  0
VERTEX
  8
LAYER-1
 10
4.737140
 20
1.860266
 30
0.000000
  0
VERTEX
  8
LAYER-1
 10
4.803829
 20
1.877111
 30
0.000000
  0
VERTEX
  8
LAYER-1
 10
4.717575
 20
1.966126
 30
0.000000
  0
SEQEND
  8
LAYER-1
  0
POLYLINE
  8
LAYER-1
 66
  1
 70
  1
 62
  0
 10
5.102104
 20
2.598618
 30
0.000000
  0
VERTEX
  8
LAYER-1
 10
5.102104
 20
2.598618
 30
0.000000
  0
VERTEX
  8
LAYER-1
 10
5.056875
 20
2.650443
 30
0.000000
  0
VERTEX
  8
LAYER-1
 10
5.016593
 20
2.533221
 30
0.000000
  0
SEQEND
  8
LAYER-1
  0
POLYLINE
  8
LAYER-1
 66
  1
 70
  1
 62
  0
 10
3.356974
 20
3.129873
 30
0.000000
  0
VERTEX
  8
LAYER-1
 10
3.356974
 20
3.129873
 30
0.000000
  0
VERTEX
  8
LAYER-1
 10
3.423664
 20
3.146718
 30
0.000000
  0
VERTEX
  8
LAYER-1
 10
3.337410
 20
3.235732
 30
0.000000
  0
SEQEND
  8
LAYER-1
  0
POLYLINE
  8
LAYER-1
 66
  1
 70
  1
 62
  0
 10
3.697130
 20
2.649335
 30
0.000000
  0
VERTEX
  8
LAYER-1
 10
3.697130
 20
2.649335
 30
0.000000
  0
VERTEX
  8
LAYER-1
 10
3.763821
 20
2.666181
 30
0.000000
  0
VERTEX
  8
LAYER-1
 10
3.677567
 20
2.755195
 30
0.000000
  0
SEQEND
  8
LAYER-1
  0
POLYLINE
  8
LAYER-1
 66
  1
 70
  1
 62
  0
 10
4.099065
 20
1.886411
 30
0.000000
  0
VERTEX
  8
LAYER-1
 10
4.099065
 20
1.886411
 30
0.000000
  0
VERTEX
  8
LAYER-1
 10
4.083597
 20
1.819388
 30
0.000000
  0
VERTEX
  8
LAYER-1
 10
4.202177
 20
1.855478
 30
0.000000
  0
SEQEND
  8
LAYER-1
  0
POLYLINE
  8
LAYER-1
 66
  1
 70
  1
 62
  0
 10
4.885934
 20
1.278188
 30
0.000000
  0
VERTEX
  8
LAYER-1
 10
4.885934
 20
1.278188
 30
0.000000
  0
VERTEX
  8
LAYER-1
 10
4.952623
 20
1.295032
 30
0.000000
  0
VERTEX
  8
LAYER-1
 10
4.866368
 20
1.384048
 30
0.000000
  0
SEQEND
  8
LAYER-1
  0
POLYLINE
  8
LAYER-1
 66
  1
 70
  1
 62
  0
 10
4.247859
 20
1.304331
 30
0.000000
  0
VERTEX
  8
LAYER-1
 10
4.247859
 20
1.304331
 30
0.000000
  0
VERTEX
  8
LAYER-1
 10
4.232392
 20
1.237310
 30
0.000000
  0
VERTEX
  8
LAYER-1
 10
4.350971
 20
1.273399
 30
0.000000
  0
SEQEND
  8
LAYER-1
  0
POLYLINE
  8
LAYER-1
  6
LTYPE01
 66
  1
 70
  0
 62
  0
  6
LTYPE01
 10
2.367399
 20
2.910418
 30
0.000000
  0
VERTEX
  8
LAYER-1
  6
LTYPE01
 10
2.367399
 20
2.910418
 30
0.000000
  0
VERTEX
  8
LAYER-1
  6
LTYPE01
 10
2.367396
 20
4.073438
 30
0.000000
  0
SEQEND
  8
LAYER-1
  0
POLYLINE
  8
LAYER-1
  6
LTYPE01
 66
  1
 70
  0
 62
  0
  6
LTYPE01
 10
2.367399
 20
2.910418
 30
0.000000
  0
VERTEX
  8
LAYER-1
  6
LTYPE01
 10
2.367399
 20
2.910418
 30
0.000000
  0
VERTEX
  8
LAYER-1
  6
LTYPE01
 10
2.370207
 20
2.863878
 30
0.000000
  0
VERTEX
  8
LAYER-1
  6
LTYPE01
 10
2.384357
 20
2.817234
 30
0.000000
  0
VERTEX
  8
LAYER-1
  6
LTYPE01
 10
2.407334
 20
2.774246
 30
0.000000
  0
VERTEX
  8
LAYER-1
  6
LTYPE01
 10
2.438257
 20
2.736567
 30
0.000000
  0
VERTEX
  8
LAYER-1
  6
LTYPE01
 10
2.475935
 20
2.705645
 30
0.000000
  0
VERTEX
  8
LAYER-1
  6
LTYPE01
 10
2.518923
 20
2.682668
 30
0.000000
  0
VERTEX
  8
LAYER-1
  6
LTYPE01
 10
2.565567
 20
2.668518
 30
0.000000
  0
VERTEX
  8
LAYER-1
  6
LTYPE01
 10
2.614076
 20
2.663740
 30
0.000000
  0
VERTEX
  8
LAYER-1
  6
LTYPE01
 10
2.662584
 20
2.668518
 30
0.000000
  0
VERTEX
  8
LAYER-1
  6
LTYPE01
 10
2.709229
 20
2.682668
 30
0.000000
  0
VERTEX
  8
LAYER-1
  6
LTYPE01
 10
2.752216
 20
2.705645
 30
0.000000
  0
VERTEX
  8
LAYER-1
  6
LTYPE01
 10
2.789895
 20
2.736567
 30
0.000000
  0
VERTEX
  8
LAYER-1
  6
LTYPE01
 10
2.820817
 20
2.774246
 30
0.000000
  0
VERTEX
  8
LAYER-1
  6
LTYPE01
 10
2.843794
 20
2.817234
 30
0.000000
  0
VERTEX
  8
LAYER-1
  6
LTYPE01
 10
2.857944
 20
2.863878
 30
0.000000
  0
VERTEX
  8
LAYER-1
  6
LTYPE01
 10
2.864690
 20
2.910418
 30
0.000000
  0
SEQEND
  8
LAYER-1
  0
POLYLINE
  8
LAYER-1
  6
LTYPE01
 66
  1
 70
  0
 62
  0
  6
LTYPE01
 10
2.864690
 20
2.910418
 30
0.000000
  0
VERTEX
  8
LAYER-1
  6
LTYPE01
 10
2.864690
 20
2.910418
 30
0.000000
  0
VERTEX
  8
LAYER-1
  6
LTYPE01
 10
2.864692
 20
4.073438
 30
0.000000
  0
SEQEND
  8
LAYER-1
  0
POLYLINE
  8
LAYER-1
  6
LTYPE01
 66
  1
 70
  0
 62
  0
  6
LTYPE01
 10
2.367396
 20
4.073438
 30
0.000000
  0
VERTEX
  8
LAYER-1
  6
LTYPE01
 10
2.367396
 20
4.073438
 30
0.000000
  0
VERTEX
  8
LAYER-1
  6
LTYPE01
 10
2.864692
 20
4.073438
 30
0.000000
  0
SEQEND
  8
LAYER-1
  0
POLYLINE
  8
LAYER-1
 66
  1
 70
  0
 62
  0
 10
1.898179
 20
3.957136
 30
0.000000
  0
VERTEX
  8
LAYER-1
 10
1.898179
 20
3.957136
 30
0.000000
  0
VERTEX
  8
LAYER-1
 10
2.094688
 20
4.073438
 30
0.000000
  0
SEQEND
  8
LAYER-1
  0
POLYLINE
  8
LAYER-1
 66
  1
 70
  0
 62
  0
 10
1.898179
 20
3.957136
 30
0.000000
  0
VERTEX
  8
LAYER-1
 10
1.898179
 20
3.957136
 30
0.000000
  0
VERTEX
  8
LAYER-1
 10
1.898179
 20
3.933073
 30
0.000000
  0
SEQEND
  8
LAYER-1
  0
POLYLINE
  8
LAYER-1
 66
  1
 70
  0
 62
  0
 10
1.898179
 20
3.933073
 30
0.000000
  0
VERTEX
  8
LAYER-1
 10
1.898179
 20
3.933073
 30
0.000000
  0
VERTEX
  8
LAYER-1
 10
3.337920
 20
3.933073
 30
0.000000
  0
SEQEND
  8
LAYER-1
  0
POLYLINE
  8
LAYER-1
 66
  1
 70
  0
 62
  0
 10
3.337920
 20
3.933073
 30
0.000000
  0
VERTEX
  8
LAYER-1
 10
3.337920
 20
3.933073
 30
0.000000
  0
VERTEX
  8
LAYER-1
 10
3.337920
 20
3.957136
 30
0.000000
  0
SEQEND
  8
LAYER-1
  0
POLYLINE
  8
LAYER-1
 66
  1
 70
  0
 62
  0
 10
3.337920
 20
3.957136
 30
0.000000
  0
VERTEX
  8
LAYER-1
 10
3.337920
 20
3.957136
 30
0.000000
  0
VERTEX
  8
LAYER-1
 10
3.137399
 20
4.073438
 30
0.000000
  0
SEQEND
  8
LAYER-1
  0
POLYLINE
  8
LAYER-1
 66
  1
 70
  0
 62
  0
 10
2.094688
 20
4.073438
 30
0.000000
  0
VERTEX
  8
LAYER-1
 10
2.094688
 20
4.073438
 30
0.000000
  0
VERTEX
  8
LAYER-1
 10
3.137399
 20
4.073438
 30
0.000000
  0
SEQEND
  8
LAYER-1
  0
POLYLINE
  8
LAYER-1
 66
  1
 70
  0
 62
  0
 10
1.164525
 20
0.571693
 30
0.000000
  0
VERTEX
  8
LAYER-1
 10
1.164525
 20
0.571693
 30
0.000000
  0
VERTEX
  8
LAYER-1
 10
2.261093
 20
1.986498
 30
0.000000
  0
SEQEND
  8
LAYER-1
  0
POLYLINE
  8
LAYER-1
 66
  1
 70
  1
 62
  0
  0
VERTEX
  8
LAYER-1
 10
2.273153
 20
2.002057
 30
0.000000
  0
VERTEX
  8
LAYER-1
 10
2.263543
 20
1.921644
 30
0.000000
  0
VERTEX
  8
LAYER-1
 10
2.230611
 20
1.947169
 30
0.000000
  0
VERTEX
  8
LAYER-1
 10
2.197678
 20
1.972694
 30
0.000000
  0
VERTEX
  8
LAYER-1
 10
2.273153
 20
2.002057
 30
0.000000
  0
SEQEND
  8
LAYER-1
  0
POLYLINE
  8
LAYER-1
 66
  1
 70
  0
 62
  0
 10
4.331193
 20
0.571693
 30
0.000000
  0
VERTEX
  8
LAYER-1
 10
4.331193
 20
0.571693
 30
0.000000
  0
VERTEX
  8
LAYER-1
 10
2.896963
 20
1.555790
 30
0.000000
  0
SEQEND
  8
LAYER-1
  0
POLYLINE
  8
LAYER-1
 66
  1
 70
  1
 62
  0
  0
VERTEX
  8
LAYER-1
 10
2.880732
 20
1.566928
 30
0.000000
  0
VERTEX
  8
LAYER-1
 10
2.961567
 20
1.561995
 30
0.000000
  0
VERTEX
  8
LAYER-1
 10
2.937994
 20
1.527638
 30
0.000000
  0
VERTEX
  8
LAYER-1
 10
2.914420
 20
1.493281
 30
0.000000
  0
VERTEX
  8
LAYER-1
 10
2.880732
 20
1.566928
 30
0.000000
  0
SEQEND
  8
LAYER-1
  0
LINE
  8
LAYER-1
 62
  0
 10
5.793721
 20
1.065258
 30
0.000000
 11
5.793721
 21
3.914466
 31
0.000000
  0
LINE
  8
LAYER-1
 62
  0
 10
3.404430
 20
1.045573
 30
0.000000
 11
5.918721
 21
1.045573
 31
0.000000
  0
LINE
  8
LAYER-1
 62
  0
 10
5.316383
 20
3.934151
 30
0.000000
 11
5.918721
 21
3.934151
 31
0.000000
  0
LINE
  8
LAYER-1
 62
  0
 10
5.793721
 20
3.144125
 30
0.000000
 11
5.793721
 21
1.045573
 31
0.000000
  0
POLYLINE
  8
LAYER-1
 66
  1
 70
  1
 62
  0
  0
VERTEX
  8
LAYER-1
 10
5.793721
 20
1.045573
 30
0.000000
  0
VERTEX
  8
LAYER-1
 10
5.835387
 20
1.115017
 30
0.000000
  0
VERTEX
  8
LAYER-1
 10
5.793721
 20
1.115017
 30
0.000000
  0
VERTEX
  8
LAYER-1
 10
5.752054
 20
1.115017
 30
0.000000
  0
VERTEX
  8
LAYER-1
 10
5.793721
 20
1.045573
 30
0.000000
  0
SEQEND
  8
LAYER-1
  0
POLYLINE
  8
LAYER-1
 66
  1
 70
  1
 62
  0
  0
VERTEX
  8
LAYER-1
 10
5.793721
 20
3.934151
 30
0.000000
  0
VERTEX
  8
LAYER-1
 10
5.835387
 20
3.864706
 30
0.000000
  0
VERTEX
  8
LAYER-1
 10
5.793721
 20
3.864706
 30
0.000000
  0
VERTEX
  8
LAYER-1
 10
5.752054
 20
3.864706
 30
0.000000
  0
VERTEX
  8
LAYER-1
 10
5.793721
 20
3.934151
 30
0.000000
  0
SEQEND
  8
LAYER-1
  0
TEXT
  8
LAYER-1
 62
  0
 10
5.674081
 20
2.278281
 30
0.000000
 40
0.125000
  1
2-1/2"   -   65mm
 50
90.000000
  0
ENDSEC
  0
EOF
