  0
SECTION
  2
HEADER
999
MacDraft 5.0\0
  9
$ACADVER
  1
AC1006
  9
$CLAYER
  8
LAYER-1
  9
$EXTMIN
 10
0.000000
 20
0.000000
  9
$EXTMAX
 10
6.799136
 20
9.972381
  9
$FASTZOOM
 70
0
  9
$FILLMODE
 70
1
  0
ENDSEC
  0
SECTION
  2
TABLES
  0
TABLE
  2
LTYPE
 70
16
  0
LTYPE
  2
CONTINUOUS
 70
64
  3
Solid Line
 72
65
 73
0
 40
0.000000
  0
LTYPE
  2
LTYPE01
 70
64
  3
CUSTOM
 72
65
 73
2
 40
0.111111
 49
0.083333
 49
-0.027778
  0
LTYPE
  2
LTYPE02
 70
64
  3
CUSTOM
 72
65
 73
2
 40
0.194444
 49
0.166667
 49
-0.027778
  0
LTYPE
  2
LTYPE03
 70
64
  3
CUSTOM
 72
65
 73
2
 40
0.375000
 49
0.333333
 49
-0.041667
  0
LTYPE
  2
LTYPE04
 70
64
  3
CUSTOM
 72
65
 73
2
 40
0.722222
 49
0.666667
 49
-0.055556
  0
LTYPE
  2
LTYPE05
 70
64
  3
CUSTOM
 72
65
 73
4
 40
0.152778
 49
0.083333
 49
-0.027778
 49
0.013889
 49
-0.027778
  0
LTYPE
  2
LTYPE06
 70
64
  3
CUSTOM
 72
65
 73
4
 40
0.236111
 49
0.166667
 49
-0.027778
 49
0.013889
 49
-0.027778
  0
LTYPE
  2
LTYPE07
 70
64
  3
CUSTOM
 72
65
 73
4
 40
0.444444
 49
0.333333
 49
-0.041667
 49
0.027778
 49
-0.041667
  0
LTYPE
  2
LTYPE08
 70
64
  3
CUSTOM
 72
65
 73
4
 40
0.805556
 49
0.666667
 49
-0.055556
 49
0.027778
 49
-0.055556
  0
LTYPE
  2
LTYPE09
 70
64
  3
CUSTOM
 72
65
 73
6
 40
0.194444
 49
0.083333
 49
-0.027778
 49
0.013889
 49
-0.027778
 49
0.013889
 49
-0.027778
  0
LTYPE
  2
LTYPE10
 70
64
  3
CUSTOM
 72
65
 73
6
 40
0.277778
 49
0.166667
 49
-0.027778
 49
0.013889
 49
-0.027778
 49
0.013889
 49
-0.027778
  0
LTYPE
  2
LTYPE11
 70
64
  3
CUSTOM
 72
65
 73
6
 40
0.500000
 49
0.333333
 49
-0.041667
 49
0.027778
 49
-0.027778
 49
0.027778
 49
-0.041667
  0
LTYPE
  2
LTYPE12
 70
64
  3
CUSTOM
 72
65
 73
6
 40
0.861111
 49
0.666667
 49
-0.055556
 49
0.027778
 49
-0.027778
 49
0.027778
 49
-0.055556
  0
LTYPE
  2
LTYPE13
 70
64
  3
CUSTOM
 72
65
 73
8
 40
0.319444
 49
0.166667
 49
-0.027778
 49
0.013889
 49
-0.027778
 49
0.013889
 49
-0.027778
 49
0.013889
 49
-0.027778
  0
LTYPE
  2
LTYPE14
 70
64
  3
CUSTOM
 72
65
 73
8
 40
0.555556
 49
0.333333
 49
-0.041667
 49
0.027778
 49
-0.027778
 49
0.027778
 49
-0.027778
 49
0.027778
 49
-0.041667
  0
LTYPE
  2
LTYPE15
 70
64
  3
CUSTOM
 72
65
 73
8
 40
0.944444
 49
0.666667
 49
-0.055556
 49
0.027778
 49
-0.041667
 49
0.027778
 49
-0.041667
 49
0.027778
 49
-0.055556
  0
ENDTAB
  0
TABLE
  2
LAYER
 70
1
  0
LAYER
  2
LAYER-1
 70
0
 62
7
  6
CONTINUOUS
  0
ENDTAB
  0
ENDSEC
  0
SECTION
  2
BLOCKS
  0
ENDSEC
  0
SECTION
  2
ENTITIES
  0
POLYLINE
  8
LAYER-1
 66
  1
 70
  1
 62
  0
  0
VERTEX
  8
LAYER-1
 10
3.699721
 20
0.241714
 30
0.000000
  0
VERTEX
  8
LAYER-1
 10
3.756307
 20
0.241714
 30
0.000000
  0
VERTEX
  8
LAYER-1
 10
3.756307
 20
0.054051
 30
0.000000
  0
VERTEX
  8
LAYER-1
 10
3.699721
 20
0.054051
 30
0.000000
  0
SEQEND
  8
LAYER-1
  0
POLYLINE
  8
LAYER-1
  6
LTYPE01
 66
  1
 70
  1
 62
  0
  0
VERTEX
  8
LAYER-1
  6
LTYPE01
 10
3.704415
 20
0.250839
 30
0.000000
  0
VERTEX
  8
LAYER-1
  6
LTYPE01
 10
3.751355
 20
0.250839
 30
0.000000
  0
VERTEX
  8
LAYER-1
  6
LTYPE01
 10
3.751355
 20
0.063611
 30
0.000000
  0
VERTEX
  8
LAYER-1
  6
LTYPE01
 10
3.704415
 20
0.063611
 30
0.000000
  0
SEQEND
  8
LAYER-1
  0
POLYLINE
  8
LAYER-1
 66
  1
 70
  0
 62
  0
 10
3.744122
 20
0.175234
 30
0.000000
  0
VERTEX
  8
LAYER-1
 10
3.744122
 20
0.175234
 30
0.000000
  0
VERTEX
  8
LAYER-1
 10
3.744122
 20
0.250857
 30
0.000000
  0
SEQEND
  8
LAYER-1
  0
POLYLINE
  8
LAYER-1
 66
  1
 70
  0
 62
  0
 10
3.711788
 20
0.175234
 30
0.000000
  0
VERTEX
  8
LAYER-1
 10
3.711788
 20
0.175234
 30
0.000000
  0
VERTEX
  8
LAYER-1
 10
3.714555
 20
0.165771
 30
0.000000
  0
VERTEX
  8
LAYER-1
 10
3.725987
 20
0.161036
 30
0.000000
  0
VERTEX
  8
LAYER-1
 10
3.737419
 20
0.165771
 30
0.000000
  0
VERTEX
  8
LAYER-1
 10
3.744123
 20
0.175234
 30
0.000000
  0
SEQEND
  8
LAYER-1
  0
POLYLINE
  8
LAYER-1
 66
  1
 70
  0
 62
  0
 10
3.711788
 20
0.175234
 30
0.000000
  0
VERTEX
  8
LAYER-1
 10
3.711788
 20
0.175234
 30
0.000000
  0
VERTEX
  8
LAYER-1
 10
3.711788
 20
0.250857
 30
0.000000
  0
SEQEND
  8
LAYER-1
  0
POLYLINE
  8
LAYER-1
 66
  1
 70
  0
 62
  0
 10
3.711788
 20
0.250857
 30
0.000000
  0
VERTEX
  8
LAYER-1
 10
3.711788
 20
0.250857
 30
0.000000
  0
VERTEX
  8
LAYER-1
 10
3.744122
 20
0.250857
 30
0.000000
  0
SEQEND
  8
LAYER-1
  0
POLYLINE
  8
LAYER-1
 66
  1
 70
  1
 62
  0
  0
VERTEX
  8
LAYER-1
 10
1.979692
 20
7.479819
 30
0.000000
  0
VERTEX
  8
LAYER-1
 10
2.004787
 20
7.479819
 30
0.000000
  0
VERTEX
  8
LAYER-1
 10
2.004787
 20
7.413501
 30
0.000000
  0
VERTEX
  8
LAYER-1
 10
1.979692
 20
7.413501
 30
0.000000
  0
SEQEND
  8
LAYER-1
  0
POLYLINE
  8
LAYER-1
 66
  1
 70
  1
 62
  0
  0
VERTEX
  8
LAYER-1
 10
2.800872
 20
7.479819
 30
0.000000
  0
VERTEX
  8
LAYER-1
 10
2.825967
 20
7.479819
 30
0.000000
  0
VERTEX
  8
LAYER-1
 10
2.825967
 20
7.413501
 30
0.000000
  0
VERTEX
  8
LAYER-1
 10
2.800872
 20
7.413501
 30
0.000000
  0
SEQEND
  8
LAYER-1
  0
POLYLINE
  8
LAYER-1
 66
  1
 70
  1
 62
  0
  0
VERTEX
  8
LAYER-1
 10
3.789743
 20
7.479853
 30
0.000000
  0
VERTEX
  8
LAYER-1
 10
3.814838
 20
7.479853
 30
0.000000
  0
VERTEX
  8
LAYER-1
 10
3.814838
 20
7.413535
 30
0.000000
  0
VERTEX
  8
LAYER-1
 10
3.789743
 20
7.413535
 30
0.000000
  0
SEQEND
  8
LAYER-1
  0
POLYLINE
  8
LAYER-1
 66
  1
 70
  1
 62
  0
  0
VERTEX
  8
LAYER-1
 10
4.702781
 20
7.479819
 30
0.000000
  0
VERTEX
  8
LAYER-1
 10
4.727876
 20
7.479819
 30
0.000000
  0
VERTEX
  8
LAYER-1
 10
4.727876
 20
7.413501
 30
0.000000
  0
VERTEX
  8
LAYER-1
 10
4.702781
 20
7.413501
 30
0.000000
  0
SEQEND
  8
LAYER-1
  0
POLYLINE
  8
LAYER-1
 66
  1
 70
  1
 62
  0
  0
VERTEX
  8
LAYER-1
 10
5.523962
 20
7.479819
 30
0.000000
  0
VERTEX
  8
LAYER-1
 10
5.549057
 20
7.479819
 30
0.000000
  0
VERTEX
  8
LAYER-1
 10
5.549057
 20
7.413501
 30
0.000000
  0
VERTEX
  8
LAYER-1
 10
5.523962
 20
7.413501
 30
0.000000
  0
SEQEND
  8
LAYER-1
  0
ARC
  8
LAYER-1
 62
  0
 10
5.466025
 20
8.914975
 30
0.000000
 40
0.254425
 50
270.000000
 51
90.000000
  0
POLYLINE
  8
LAYER-1
 66
  1
 70
  0
 62
  0
 10
5.466025
 20
9.169401
 30
0.000000
  0
VERTEX
  8
LAYER-1
 10
5.466025
 20
9.169401
 30
0.000000
  0
VERTEX
  8
LAYER-1
 10
1.801104
 20
9.169401
 30
0.000000
  0
SEQEND
  8
LAYER-1
  0
POLYLINE
  8
LAYER-1
 66
  1
 70
  0
 62
  0
 10
1.801104
 20
9.169401
 30
0.000000
  0
VERTEX
  8
LAYER-1
 10
1.801104
 20
9.169401
 30
0.000000
  0
VERTEX
  8
LAYER-1
 10
1.801104
 20
8.660551
 30
0.000000
  0
SEQEND
  8
LAYER-1
  0
POLYLINE
  8
LAYER-1
 66
  1
 70
  0
 62
  0
 10
5.466025
 20
8.660551
 30
0.000000
  0
VERTEX
  8
LAYER-1
 10
5.466025
 20
8.660551
 30
0.000000
  0
VERTEX
  8
LAYER-1
 10
1.801104
 20
8.660551
 30
0.000000
  0
SEQEND
  8
LAYER-1
  0
TEXT
  8
LAYER-1
 62
  0
 10
3.611636
 20
9.450740
 30
0.000000
 40
0.333333
  1
MobilFlex
 72
  5
 11
5.764414
 21
9.450740
 31
0.000000
  0
POLYLINE
  8
LAYER-1
 66
  1
 70
  1
 62
  0
  0
VERTEX
  8
LAYER-1
 10
1.802607
 20
9.970713
 30
0.000000
  0
VERTEX
  8
LAYER-1
 10
2.040455
 20
9.970713
 30
0.000000
  0
VERTEX
  8
LAYER-1
 10
2.040455
 20
9.453769
 30
0.000000
  0
VERTEX
  8
LAYER-1
 10
1.802607
 20
9.453769
 30
0.000000
  0
SEQEND
  8
LAYER-1
  0
POLYLINE
  8
LAYER-1
 66
  1
 70
  1
 62
  0
  0
VERTEX
  8
LAYER-1
 10
2.115107
 20
9.970713
 30
0.000000
  0
VERTEX
  8
LAYER-1
 10
2.352955
 20
9.970713
 30
0.000000
  0
VERTEX
  8
LAYER-1
 10
2.352955
 20
9.453769
 30
0.000000
  0
VERTEX
  8
LAYER-1
 10
2.115107
 20
9.453769
 30
0.000000
  0
SEQEND
  8
LAYER-1
  0
POLYLINE
  8
LAYER-1
 66
  1
 70
  1
 62
  0
  0
VERTEX
  8
LAYER-1
 10
2.415455
 20
9.970713
 30
0.000000
  0
VERTEX
  8
LAYER-1
 10
2.653302
 20
9.970713
 30
0.000000
  0
VERTEX
  8
LAYER-1
 10
2.653302
 20
9.453769
 30
0.000000
  0
VERTEX
  8
LAYER-1
 10
2.415455
 20
9.453769
 30
0.000000
  0
SEQEND
  8
LAYER-1
  0
POLYLINE
  8
LAYER-1
 66
  1
 70
  1
 62
  0
  0
VERTEX
  8
LAYER-1
 10
2.719274
 20
9.970713
 30
0.000000
  0
VERTEX
  8
LAYER-1
 10
2.957121
 20
9.970713
 30
0.000000
  0
VERTEX
  8
LAYER-1
 10
2.957121
 20
9.453769
 30
0.000000
  0
VERTEX
  8
LAYER-1
 10
2.719274
 20
9.453769
 30
0.000000
  0
SEQEND
  8
LAYER-1
  0
POLYLINE
  8
LAYER-1
 66
  1
 70
  1
 62
  0
  0
VERTEX
  8
LAYER-1
 10
3.036115
 20
9.966799
 30
0.000000
  0
VERTEX
  8
LAYER-1
 10
3.411549
 20
9.966799
 30
0.000000
  0
VERTEX
  8
LAYER-1
 10
3.411549
 20
9.828778
 30
0.000000
  0
VERTEX
  8
LAYER-1
 10
3.036115
 20
9.828778
 30
0.000000
  0
SEQEND
  8
LAYER-1
  0
POLYLINE
  8
LAYER-1
 66
  1
 70
  1
 62
  0
  0
VERTEX
  8
LAYER-1
 10
3.035681
 20
9.739368
 30
0.000000
  0
VERTEX
  8
LAYER-1
 10
3.343840
 20
9.739368
 30
0.000000
  0
VERTEX
  8
LAYER-1
 10
3.343840
 20
9.605253
 30
0.000000
  0
VERTEX
  8
LAYER-1
 10
3.035681
 20
9.605253
 30
0.000000
  0
SEQEND
  8
LAYER-1
  0
POLYLINE
  8
LAYER-1
 66
  1
 70
  1
 62
  0
  0
VERTEX
  8
LAYER-1
 10
1.802607
 20
9.369142
 30
0.000000
  0
VERTEX
  8
LAYER-1
 10
5.721010
 20
9.369142
 30
0.000000
  0
VERTEX
  8
LAYER-1
 10
5.721010
 20
9.325740
 30
0.000000
  0
VERTEX
  8
LAYER-1
 10
1.802607
 20
9.325740
 30
0.000000
  0
SEQEND
  8
LAYER-1
  0
POLYLINE
  8
LAYER-1
 66
  1
 70
  0
 62
  0
 10
5.773594
 20
7.413294
 30
0.000000
  0
VERTEX
  8
LAYER-1
 10
5.773594
 20
7.413294
 30
0.000000
  0
VERTEX
  8
LAYER-1
 10
1.754731
 20
7.413430
 30
0.000000
  0
VERTEX
  8
LAYER-1
 10
1.754731
 20
0.346217
 30
0.000000
  0
VERTEX
  8
LAYER-1
 10
5.773594
 20
0.346217
 30
0.000000
  0
VERTEX
  8
LAYER-1
 10
5.773594
 20
7.413430
 30
0.000000
  0
SEQEND
  8
LAYER-1
  0
POLYLINE
  8
LAYER-1
 66
  1
 70
  1
 62
  0
  0
VERTEX
  8
LAYER-1
 10
1.827407
 20
7.413441
 30
0.000000
  0
VERTEX
  8
LAYER-1
 10
2.152040
 20
7.413441
 30
0.000000
  0
VERTEX
  8
LAYER-1
 10
2.152040
 20
7.143442
 30
0.000000
  0
VERTEX
  8
LAYER-1
 10
1.827407
 20
7.143442
 30
0.000000
  0
SEQEND
  8
LAYER-1
  0
POLYLINE
  8
LAYER-1
 66
  1
 70
  1
 62
  0
  0
VERTEX
  8
LAYER-1
 10
2.647531
 20
7.413441
 30
0.000000
  0
VERTEX
  8
LAYER-1
 10
2.972161
 20
7.413441
 30
0.000000
  0
VERTEX
  8
LAYER-1
 10
2.972161
 20
7.143442
 30
0.000000
  0
VERTEX
  8
LAYER-1
 10
2.647531
 20
7.143442
 30
0.000000
  0
SEQEND
  8
LAYER-1
  0
POLYLINE
  8
LAYER-1
 66
  1
 70
  0
 62
  0
 10
2.794423
 20
7.413516
 30
0.000000
  0
VERTEX
  8
LAYER-1
 10
2.794423
 20
7.413516
 30
0.000000
  0
VERTEX
  8
LAYER-1
 10
2.794423
 20
7.143985
 30
0.000000
  0
SEQEND
  8
LAYER-1
  0
POLYLINE
  8
LAYER-1
 66
  1
 70
  0
 62
  0
 10
2.831502
 20
7.413516
 30
0.000000
  0
VERTEX
  8
LAYER-1
 10
2.831502
 20
7.413516
 30
0.000000
  0
VERTEX
  8
LAYER-1
 10
2.831502
 20
7.143985
 30
0.000000
  0
SEQEND
  8
LAYER-1
  0
POLYLINE
  8
LAYER-1
 66
  1
 70
  0
 62
  0
 10
1.972756
 20
7.413516
 30
0.000000
  0
VERTEX
  8
LAYER-1
 10
1.972756
 20
7.413516
 30
0.000000
  0
VERTEX
  8
LAYER-1
 10
1.972756
 20
7.143985
 30
0.000000
  0
SEQEND
  8
LAYER-1
  0
POLYLINE
  8
LAYER-1
 66
  1
 70
  0
 62
  0
 10
2.011318
 20
7.413516
 30
0.000000
  0
VERTEX
  8
LAYER-1
 10
2.011318
 20
7.413516
 30
0.000000
  0
VERTEX
  8
LAYER-1
 10
2.011318
 20
7.143985
 30
0.000000
  0
SEQEND
  8
LAYER-1
  0
POLYLINE
  8
LAYER-1
 66
  1
 70
  1
 62
  0
  0
VERTEX
  8
LAYER-1
 10
2.168533
 20
7.419376
 30
0.000000
  0
VERTEX
  8
LAYER-1
 10
2.223409
 20
7.419376
 30
0.000000
  0
VERTEX
  8
LAYER-1
 10
2.223409
 20
7.413516
 30
0.000000
  0
VERTEX
  8
LAYER-1
 10
2.168533
 20
7.413516
 30
0.000000
  0
SEQEND
  8
LAYER-1
  0
POLYLINE
  8
LAYER-1
 66
  1
 70
  0
 62
  0
 10
2.177431
 20
7.346133
 30
0.000000
  0
VERTEX
  8
LAYER-1
 10
2.177431
 20
7.346133
 30
0.000000
  0
VERTEX
  8
LAYER-1
 10
2.213027
 20
7.346133
 30
0.000000
  0
SEQEND
  8
LAYER-1
  0
POLYLINE
  8
LAYER-1
 66
  1
 70
  0
 62
  0
 10
2.177431
 20
7.217228
 30
0.000000
  0
VERTEX
  8
LAYER-1
 10
2.177431
 20
7.217228
 30
0.000000
  0
VERTEX
  8
LAYER-1
 10
2.213027
 20
7.217228
 30
0.000000
  0
SEQEND
  8
LAYER-1
  0
POLYLINE
  8
LAYER-1
 66
  1
 70
  1
 62
  0
  0
VERTEX
  8
LAYER-1
 10
2.985747
 20
7.419376
 30
0.000000
  0
VERTEX
  8
LAYER-1
 10
3.040623
 20
7.419376
 30
0.000000
  0
VERTEX
  8
LAYER-1
 10
3.040623
 20
7.413516
 30
0.000000
  0
VERTEX
  8
LAYER-1
 10
2.985747
 20
7.413516
 30
0.000000
  0
SEQEND
  8
LAYER-1
  0
POLYLINE
  8
LAYER-1
 66
  1
 70
  0
 62
  0
 10
2.996130
 20
7.346133
 30
0.000000
  0
VERTEX
  8
LAYER-1
 10
2.996130
 20
7.346133
 30
0.000000
  0
VERTEX
  8
LAYER-1
 10
3.031725
 20
7.346133
 30
0.000000
  0
SEQEND
  8
LAYER-1
  0
POLYLINE
  8
LAYER-1
 66
  1
 70
  0
 62
  0
 10
2.996130
 20
7.217227
 30
0.000000
  0
VERTEX
  8
LAYER-1
 10
2.996130
 20
7.217227
 30
0.000000
  0
VERTEX
  8
LAYER-1
 10
3.031725
 20
7.217227
 30
0.000000
  0
SEQEND
  8
LAYER-1
  0
POLYLINE
  8
LAYER-1
 66
  1
 70
  0
 62
  0
 10
1.827407
 20
7.413441
 30
0.000000
  0
VERTEX
  8
LAYER-1
 10
1.827407
 20
7.413441
 30
0.000000
  0
VERTEX
  8
LAYER-1
 10
1.827407
 20
0.346650
 30
0.000000
  0
SEQEND
  8
LAYER-1
  0
POLYLINE
  8
LAYER-1
 66
  1
 70
  0
 62
  0
 10
2.152040
 20
7.413441
 30
0.000000
  0
VERTEX
  8
LAYER-1
 10
2.152040
 20
7.413441
 30
0.000000
  0
VERTEX
  8
LAYER-1
 10
2.152040
 20
0.346650
 30
0.000000
  0
SEQEND
  8
LAYER-1
  0
POLYLINE
  8
LAYER-1
 66
  1
 70
  0
 62
  0
 10
2.237469
 20
7.413441
 30
0.000000
  0
VERTEX
  8
LAYER-1
 10
2.237469
 20
7.413441
 30
0.000000
  0
VERTEX
  8
LAYER-1
 10
2.237469
 20
0.346650
 30
0.000000
  0
SEQEND
  8
LAYER-1
  0
POLYLINE
  8
LAYER-1
 66
  1
 70
  0
 62
  0
 10
2.177431
 20
7.413441
 30
0.000000
  0
VERTEX
  8
LAYER-1
 10
2.177431
 20
7.413441
 30
0.000000
  0
VERTEX
  8
LAYER-1
 10
2.177431
 20
0.346650
 30
0.000000
  0
SEQEND
  8
LAYER-1
  0
POLYLINE
  8
LAYER-1
 66
  1
 70
  0
 62
  0
 10
2.213027
 20
7.413441
 30
0.000000
  0
VERTEX
  8
LAYER-1
 10
2.213027
 20
7.413441
 30
0.000000
  0
VERTEX
  8
LAYER-1
 10
2.213027
 20
0.346650
 30
0.000000
  0
SEQEND
  8
LAYER-1
  0
POLYLINE
  8
LAYER-1
 66
  1
 70
  1
 62
  0
  0
VERTEX
  8
LAYER-1
 10
2.167049
 20
0.346725
 30
0.000000
  0
VERTEX
  8
LAYER-1
 10
2.221925
 20
0.346725
 30
0.000000
  0
VERTEX
  8
LAYER-1
 10
2.221925
 20
0.340866
 30
0.000000
  0
VERTEX
  8
LAYER-1
 10
2.167049
 20
0.340866
 30
0.000000
  0
SEQEND
  8
LAYER-1
  0
POLYLINE
  8
LAYER-1
 66
  1
 70
  0
 62
  0
 10
2.213027
 20
0.419968
 30
0.000000
  0
VERTEX
  8
LAYER-1
 10
2.213027
 20
0.419968
 30
0.000000
  0
VERTEX
  8
LAYER-1
 10
2.177431
 20
0.419968
 30
0.000000
  0
SEQEND
  8
LAYER-1
  0
POLYLINE
  8
LAYER-1
 66
  1
 70
  0
 62
  0
 10
2.213027
 20
0.548874
 30
0.000000
  0
VERTEX
  8
LAYER-1
 10
2.213027
 20
0.548874
 30
0.000000
  0
VERTEX
  8
LAYER-1
 10
2.177431
 20
0.548874
 30
0.000000
  0
SEQEND
  8
LAYER-1
  0
POLYLINE
  8
LAYER-1
 66
  1
 70
  0
 62
  0
 10
2.177431
 20
0.623858
 30
0.000000
  0
VERTEX
  8
LAYER-1
 10
2.177431
 20
0.623858
 30
0.000000
  0
VERTEX
  8
LAYER-1
 10
2.213027
 20
0.623858
 30
0.000000
  0
SEQEND
  8
LAYER-1
  0
POLYLINE
  8
LAYER-1
 66
  1
 70
  0
 62
  0
 10
2.177431
 20
1.470538
 30
0.000000
  0
VERTEX
  8
LAYER-1
 10
2.177431
 20
1.470538
 30
0.000000
  0
VERTEX
  8
LAYER-1
 10
2.213027
 20
1.470538
 30
0.000000
  0
SEQEND
  8
LAYER-1
  0
POLYLINE
  8
LAYER-1
 66
  1
 70
  0
 62
  0
 10
2.177431
 20
2.308427
 30
0.000000
  0
VERTEX
  8
LAYER-1
 10
2.177431
 20
2.308427
 30
0.000000
  0
VERTEX
  8
LAYER-1
 10
2.213027
 20
2.308427
 30
0.000000
  0
SEQEND
  8
LAYER-1
  0
POLYLINE
  8
LAYER-1
 66
  1
 70
  0
 62
  0
 10
2.177431
 20
3.158029
 30
0.000000
  0
VERTEX
  8
LAYER-1
 10
2.177431
 20
3.158029
 30
0.000000
  0
VERTEX
  8
LAYER-1
 10
2.213027
 20
3.158029
 30
0.000000
  0
SEQEND
  8
LAYER-1
  0
POLYLINE
  8
LAYER-1
 66
  1
 70
  0
 62
  0
 10
2.213027
 20
4.000315
 30
0.000000
  0
VERTEX
  8
LAYER-1
 10
2.213027
 20
4.000315
 30
0.000000
  0
VERTEX
  8
LAYER-1
 10
2.177431
 20
4.000315
 30
0.000000
  0
SEQEND
  8
LAYER-1
  0
POLYLINE
  8
LAYER-1
 66
  1
 70
  0
 62
  0
 10
2.562102
 20
7.413441
 30
0.000000
  0
VERTEX
  8
LAYER-1
 10
2.562102
 20
7.413441
 30
0.000000
  0
VERTEX
  8
LAYER-1
 10
2.562102
 20
0.346650
 30
0.000000
  0
SEQEND
  8
LAYER-1
  0
POLYLINE
  8
LAYER-1
 66
  1
 70
  0
 62
  0
 10
2.647531
 20
7.413441
 30
0.000000
  0
VERTEX
  8
LAYER-1
 10
2.647531
 20
7.413441
 30
0.000000
  0
VERTEX
  8
LAYER-1
 10
2.647531
 20
0.346650
 30
0.000000
  0
SEQEND
  8
LAYER-1
  0
POLYLINE
  8
LAYER-1
 66
  1
 70
  0
 62
  0
 10
2.972161
 20
7.413441
 30
0.000000
  0
VERTEX
  8
LAYER-1
 10
2.972161
 20
7.413441
 30
0.000000
  0
VERTEX
  8
LAYER-1
 10
2.972161
 20
0.346650
 30
0.000000
  0
SEQEND
  8
LAYER-1
  0
POLYLINE
  8
LAYER-1
 66
  1
 70
  0
 62
  0
 10
3.057591
 20
7.413441
 30
0.000000
  0
VERTEX
  8
LAYER-1
 10
3.057591
 20
7.413441
 30
0.000000
  0
VERTEX
  8
LAYER-1
 10
3.057591
 20
0.346650
 30
0.000000
  0
SEQEND
  8
LAYER-1
  0
POLYLINE
  8
LAYER-1
 66
  1
 70
  0
 62
  0
 10
3.382222
 20
7.413441
 30
0.000000
  0
VERTEX
  8
LAYER-1
 10
3.382222
 20
7.413441
 30
0.000000
  0
VERTEX
  8
LAYER-1
 10
3.382222
 20
0.346650
 30
0.000000
  0
SEQEND
  8
LAYER-1
  0
POLYLINE
  8
LAYER-1
 66
  1
 70
  0
 62
  0
 10
3.464803
 20
7.413441
 30
0.000000
  0
VERTEX
  8
LAYER-1
 10
3.464803
 20
7.413441
 30
0.000000
  0
VERTEX
  8
LAYER-1
 10
3.464803
 20
0.346650
 30
0.000000
  0
SEQEND
  8
LAYER-1
  0
POLYLINE
  8
LAYER-1
 66
  1
 70
  0
 62
  0
 10
1.791812
 20
7.413441
 30
0.000000
  0
VERTEX
  8
LAYER-1
 10
1.791812
 20
7.413441
 30
0.000000
  0
VERTEX
  8
LAYER-1
 10
1.791812
 20
0.346650
 30
0.000000
  0
SEQEND
  8
LAYER-1
  0
POLYLINE
  8
LAYER-1
 66
  1
 70
  0
 62
  0
 10
2.604579
 20
7.413441
 30
0.000000
  0
VERTEX
  8
LAYER-1
 10
2.604579
 20
7.413441
 30
0.000000
  0
VERTEX
  8
LAYER-1
 10
2.604579
 20
0.346650
 30
0.000000
  0
SEQEND
  8
LAYER-1
  0
POLYLINE
  8
LAYER-1
 66
  1
 70
  0
 62
  0
 10
2.996130
 20
7.413441
 30
0.000000
  0
VERTEX
  8
LAYER-1
 10
2.996130
 20
7.413441
 30
0.000000
  0
VERTEX
  8
LAYER-1
 10
2.996130
 20
0.346650
 30
0.000000
  0
SEQEND
  8
LAYER-1
  0
POLYLINE
  8
LAYER-1
 66
  1
 70
  0
 62
  0
 10
3.031725
 20
7.413441
 30
0.000000
  0
VERTEX
  8
LAYER-1
 10
3.031725
 20
7.413441
 30
0.000000
  0
VERTEX
  8
LAYER-1
 10
3.031725
 20
0.346650
 30
0.000000
  0
SEQEND
  8
LAYER-1
  0
POLYLINE
  8
LAYER-1
 66
  1
 70
  0
 62
  0
 10
3.423277
 20
7.413441
 30
0.000000
  0
VERTEX
  8
LAYER-1
 10
3.423277
 20
7.413441
 30
0.000000
  0
VERTEX
  8
LAYER-1
 10
3.423277
 20
0.346650
 30
0.000000
  0
SEQEND
  8
LAYER-1
  0
POLYLINE
  8
LAYER-1
 66
  1
 70
  1
 62
  0
  0
VERTEX
  8
LAYER-1
 10
2.984262
 20
0.346725
 30
0.000000
  0
VERTEX
  8
LAYER-1
 10
3.039140
 20
0.346725
 30
0.000000
  0
VERTEX
  8
LAYER-1
 10
3.039140
 20
0.340866
 30
0.000000
  0
VERTEX
  8
LAYER-1
 10
2.984262
 20
0.340866
 30
0.000000
  0
SEQEND
  8
LAYER-1
  0
POLYLINE
  8
LAYER-1
 66
  1
 70
  0
 62
  0
 10
3.031725
 20
0.419968
 30
0.000000
  0
VERTEX
  8
LAYER-1
 10
3.031725
 20
0.419968
 30
0.000000
  0
VERTEX
  8
LAYER-1
 10
2.996130
 20
0.419968
 30
0.000000
  0
SEQEND
  8
LAYER-1
  0
POLYLINE
  8
LAYER-1
 66
  1
 70
  0
 62
  0
 10
3.031725
 20
0.548874
 30
0.000000
  0
VERTEX
  8
LAYER-1
 10
3.031725
 20
0.548874
 30
0.000000
  0
VERTEX
  8
LAYER-1
 10
2.996130
 20
0.548874
 30
0.000000
  0
SEQEND
  8
LAYER-1
  0
POLYLINE
  8
LAYER-1
 66
  1
 70
  0
 62
  0
 10
2.996130
 20
0.623858
 30
0.000000
  0
VERTEX
  8
LAYER-1
 10
2.996130
 20
0.623858
 30
0.000000
  0
VERTEX
  8
LAYER-1
 10
3.031725
 20
0.623858
 30
0.000000
  0
SEQEND
  8
LAYER-1
  0
POLYLINE
  8
LAYER-1
 66
  1
 70
  0
 62
  0
 10
2.996130
 20
1.470538
 30
0.000000
  0
VERTEX
  8
LAYER-1
 10
2.996130
 20
1.470538
 30
0.000000
  0
VERTEX
  8
LAYER-1
 10
3.031725
 20
1.470538
 30
0.000000
  0
SEQEND
  8
LAYER-1
  0
POLYLINE
  8
LAYER-1
 66
  1
 70
  0
 62
  0
 10
2.996130
 20
2.308427
 30
0.000000
  0
VERTEX
  8
LAYER-1
 10
2.996130
 20
2.308427
 30
0.000000
  0
VERTEX
  8
LAYER-1
 10
3.031725
 20
2.308427
 30
0.000000
  0
SEQEND
  8
LAYER-1
  0
POLYLINE
  8
LAYER-1
 66
  1
 70
  0
 62
  0
 10
2.996130
 20
3.158029
 30
0.000000
  0
VERTEX
  8
LAYER-1
 10
2.996130
 20
3.158029
 30
0.000000
  0
VERTEX
  8
LAYER-1
 10
3.031725
 20
3.158029
 30
0.000000
  0
SEQEND
  8
LAYER-1
  0
POLYLINE
  8
LAYER-1
 66
  1
 70
  0
 62
  0
 10
3.031725
 20
4.000315
 30
0.000000
  0
VERTEX
  8
LAYER-1
 10
3.031725
 20
4.000315
 30
0.000000
  0
VERTEX
  8
LAYER-1
 10
2.996130
 20
4.000315
 30
0.000000
  0
SEQEND
  8
LAYER-1
  0
POLYLINE
  8
LAYER-1
 66
  1
 70
  0
 62
  0
 10
2.178083
 20
4.851316
 30
0.000000
  0
VERTEX
  8
LAYER-1
 10
2.178083
 20
4.851316
 30
0.000000
  0
VERTEX
  8
LAYER-1
 10
2.213679
 20
4.851316
 30
0.000000
  0
SEQEND
  8
LAYER-1
  0
POLYLINE
  8
LAYER-1
 66
  1
 70
  0
 62
  0
 10
2.178083
 20
5.695065
 30
0.000000
  0
VERTEX
  8
LAYER-1
 10
2.178083
 20
5.695065
 30
0.000000
  0
VERTEX
  8
LAYER-1
 10
2.213679
 20
5.695065
 30
0.000000
  0
SEQEND
  8
LAYER-1
  0
POLYLINE
  8
LAYER-1
 66
  1
 70
  0
 62
  0
 10
2.178083
 20
6.540284
 30
0.000000
  0
VERTEX
  8
LAYER-1
 10
2.178083
 20
6.540284
 30
0.000000
  0
VERTEX
  8
LAYER-1
 10
2.213679
 20
6.540284
 30
0.000000
  0
SEQEND
  8
LAYER-1
  0
POLYLINE
  8
LAYER-1
 66
  1
 70
  0
 62
  0
 10
2.995953
 20
6.540284
 30
0.000000
  0
VERTEX
  8
LAYER-1
 10
2.995953
 20
6.540284
 30
0.000000
  0
VERTEX
  8
LAYER-1
 10
3.031548
 20
6.540284
 30
0.000000
  0
SEQEND
  8
LAYER-1
  0
POLYLINE
  8
LAYER-1
 66
  1
 70
  0
 62
  0
 10
3.644087
 20
6.540208
 30
0.000000
  0
VERTEX
  8
LAYER-1
 10
3.644087
 20
6.540208
 30
0.000000
  0
VERTEX
  8
LAYER-1
 10
3.679681
 20
6.540208
 30
0.000000
  0
SEQEND
  8
LAYER-1
  0
POLYLINE
  8
LAYER-1
 66
  1
 70
  0
 62
  0
 10
5.350243
 20
6.540284
 30
0.000000
  0
VERTEX
  8
LAYER-1
 10
5.350243
 20
6.540284
 30
0.000000
  0
VERTEX
  8
LAYER-1
 10
5.314648
 20
6.540284
 30
0.000000
  0
SEQEND
  8
LAYER-1
  0
POLYLINE
  8
LAYER-1
 66
  1
 70
  0
 62
  0
 10
4.532368
 20
6.540284
 30
0.000000
  0
VERTEX
  8
LAYER-1
 10
4.532368
 20
6.540284
 30
0.000000
  0
VERTEX
  8
LAYER-1
 10
4.496777
 20
6.540284
 30
0.000000
  0
SEQEND
  8
LAYER-1
  0
POLYLINE
  8
LAYER-1
 66
  1
 70
  0
 62
  0
 10
3.884230
 20
6.540208
 30
0.000000
  0
VERTEX
  8
LAYER-1
 10
3.884230
 20
6.540208
 30
0.000000
  0
VERTEX
  8
LAYER-1
 10
3.848638
 20
6.540208
 30
0.000000
  0
SEQEND
  8
LAYER-1
  0
POLYLINE
  8
LAYER-1
 66
  1
 70
  0
 62
  0
 10
2.995953
 20
4.851316
 30
0.000000
  0
VERTEX
  8
LAYER-1
 10
2.995953
 20
4.851316
 30
0.000000
  0
VERTEX
  8
LAYER-1
 10
3.031548
 20
4.851316
 30
0.000000
  0
SEQEND
  8
LAYER-1
  0
POLYLINE
  8
LAYER-1
 66
  1
 70
  0
 62
  0
 10
2.995953
 20
5.695065
 30
0.000000
  0
VERTEX
  8
LAYER-1
 10
2.995953
 20
5.695065
 30
0.000000
  0
VERTEX
  8
LAYER-1
 10
3.031548
 20
5.695065
 30
0.000000
  0
SEQEND
  8
LAYER-1
  0
POLYLINE
  8
LAYER-1
 66
  1
 70
  1
 62
  0
  0
VERTEX
  8
LAYER-1
 10
3.633881
 20
7.419300
 30
0.000000
  0
VERTEX
  8
LAYER-1
 10
3.688758
 20
7.419300
 30
0.000000
  0
VERTEX
  8
LAYER-1
 10
3.688758
 20
7.413439
 30
0.000000
  0
VERTEX
  8
LAYER-1
 10
3.633881
 20
7.413439
 30
0.000000
  0
SEQEND
  8
LAYER-1
  0
POLYLINE
  8
LAYER-1
 66
  1
 70
  0
 62
  0
 10
3.644264
 20
7.346057
 30
0.000000
  0
VERTEX
  8
LAYER-1
 10
3.644264
 20
7.346057
 30
0.000000
  0
VERTEX
  8
LAYER-1
 10
3.679858
 20
7.346057
 30
0.000000
  0
SEQEND
  8
LAYER-1
  0
POLYLINE
  8
LAYER-1
 66
  1
 70
  0
 62
  0
 10
3.644264
 20
7.217150
 30
0.000000
  0
VERTEX
  8
LAYER-1
 10
3.644264
 20
7.217150
 30
0.000000
  0
VERTEX
  8
LAYER-1
 10
3.679858
 20
7.217150
 30
0.000000
  0
SEQEND
  8
LAYER-1
  0
POLYLINE
  8
LAYER-1
 66
  1
 70
  0
 62
  0
 10
3.644264
 20
7.413365
 30
0.000000
  0
VERTEX
  8
LAYER-1
 10
3.644264
 20
7.413365
 30
0.000000
  0
VERTEX
  8
LAYER-1
 10
3.644264
 20
0.346650
 30
0.000000
  0
SEQEND
  8
LAYER-1
  0
POLYLINE
  8
LAYER-1
 66
  1
 70
  0
 62
  0
 10
3.679858
 20
0.419891
 30
0.000000
  0
VERTEX
  8
LAYER-1
 10
3.679858
 20
0.419891
 30
0.000000
  0
VERTEX
  8
LAYER-1
 10
3.644264
 20
0.419891
 30
0.000000
  0
SEQEND
  8
LAYER-1
  0
POLYLINE
  8
LAYER-1
 66
  1
 70
  0
 62
  0
 10
3.679858
 20
0.548797
 30
0.000000
  0
VERTEX
  8
LAYER-1
 10
3.679858
 20
0.548797
 30
0.000000
  0
VERTEX
  8
LAYER-1
 10
3.644264
 20
0.548797
 30
0.000000
  0
SEQEND
  8
LAYER-1
  0
POLYLINE
  8
LAYER-1
 66
  1
 70
  0
 62
  0
 10
3.644264
 20
0.623779
 30
0.000000
  0
VERTEX
  8
LAYER-1
 10
3.644264
 20
0.623779
 30
0.000000
  0
VERTEX
  8
LAYER-1
 10
3.679860
 20
0.623779
 30
0.000000
  0
SEQEND
  8
LAYER-1
  0
POLYLINE
  8
LAYER-1
 66
  1
 70
  0
 62
  0
 10
3.644264
 20
1.470462
 30
0.000000
  0
VERTEX
  8
LAYER-1
 10
3.644264
 20
1.470462
 30
0.000000
  0
VERTEX
  8
LAYER-1
 10
3.679860
 20
1.470462
 30
0.000000
  0
SEQEND
  8
LAYER-1
  0
POLYLINE
  8
LAYER-1
 66
  1
 70
  0
 62
  0
 10
3.644264
 20
2.308350
 30
0.000000
  0
VERTEX
  8
LAYER-1
 10
3.644264
 20
2.308350
 30
0.000000
  0
VERTEX
  8
LAYER-1
 10
3.679860
 20
2.308350
 30
0.000000
  0
SEQEND
  8
LAYER-1
  0
POLYLINE
  8
LAYER-1
 66
  1
 70
  0
 62
  0
 10
3.644264
 20
3.157954
 30
0.000000
  0
VERTEX
  8
LAYER-1
 10
3.644264
 20
3.157954
 30
0.000000
  0
VERTEX
  8
LAYER-1
 10
3.679860
 20
3.157954
 30
0.000000
  0
SEQEND
  8
LAYER-1
  0
POLYLINE
  8
LAYER-1
 66
  1
 70
  0
 62
  0
 10
3.679860
 20
4.000239
 30
0.000000
  0
VERTEX
  8
LAYER-1
 10
3.679860
 20
4.000239
 30
0.000000
  0
VERTEX
  8
LAYER-1
 10
3.644264
 20
4.000239
 30
0.000000
  0
SEQEND
  8
LAYER-1
  0
POLYLINE
  8
LAYER-1
 66
  1
 70
  0
 62
  0
 10
3.644087
 20
4.851240
 30
0.000000
  0
VERTEX
  8
LAYER-1
 10
3.644087
 20
4.851240
 30
0.000000
  0
VERTEX
  8
LAYER-1
 10
3.679681
 20
4.851240
 30
0.000000
  0
SEQEND
  8
LAYER-1
  0
POLYLINE
  8
LAYER-1
 66
  1
 70
  0
 62
  0
 10
3.644087
 20
5.694989
 30
0.000000
  0
VERTEX
  8
LAYER-1
 10
3.644087
 20
5.694989
 30
0.000000
  0
VERTEX
  8
LAYER-1
 10
3.679681
 20
5.694989
 30
0.000000
  0
SEQEND
  8
LAYER-1
  0
POLYLINE
  8
LAYER-1
 66
  1
 70
  1
 62
  0
  0
VERTEX
  8
LAYER-1
 10
3.632401
 20
0.346650
 30
0.000000
  0
VERTEX
  8
LAYER-1
 10
3.687275
 20
0.346650
 30
0.000000
  0
VERTEX
  8
LAYER-1
 10
3.687275
 20
0.340791
 30
0.000000
  0
VERTEX
  8
LAYER-1
 10
3.632401
 20
0.340791
 30
0.000000
  0
SEQEND
  8
LAYER-1
  0
POLYLINE
  8
LAYER-1
 66
  1
 70
  1
 62
  0
  0
VERTEX
  8
LAYER-1
 10
3.678791
 20
7.413441
 30
0.000000
  0
VERTEX
  8
LAYER-1
 10
3.848465
 20
7.413441
 30
0.000000
  0
VERTEX
  8
LAYER-1
 10
3.848465
 20
0.346458
 30
0.000000
  0
VERTEX
  8
LAYER-1
 10
3.678791
 20
0.346458
 30
0.000000
  0
SEQEND
  8
LAYER-1
  0
POLYLINE
  8
LAYER-1
 66
  1
 70
  1
 62
  0
  0
VERTEX
  8
LAYER-1
 10
5.376286
 20
7.413440
 30
0.000000
  0
VERTEX
  8
LAYER-1
 10
5.700918
 20
7.413440
 30
0.000000
  0
VERTEX
  8
LAYER-1
 10
5.700918
 20
7.143441
 30
0.000000
  0
VERTEX
  8
LAYER-1
 10
5.376286
 20
7.143441
 30
0.000000
  0
SEQEND
  8
LAYER-1
  0
POLYLINE
  8
LAYER-1
 66
  1
 70
  1
 62
  0
  0
VERTEX
  8
LAYER-1
 10
4.556162
 20
7.413440
 30
0.000000
  0
VERTEX
  8
LAYER-1
 10
4.880793
 20
7.413440
 30
0.000000
  0
VERTEX
  8
LAYER-1
 10
4.880793
 20
7.143441
 30
0.000000
  0
VERTEX
  8
LAYER-1
 10
4.556162
 20
7.143441
 30
0.000000
  0
SEQEND
  8
LAYER-1
  0
POLYLINE
  8
LAYER-1
 66
  1
 70
  0
 62
  0
 10
4.733902
 20
7.413515
 30
0.000000
  0
VERTEX
  8
LAYER-1
 10
4.733902
 20
7.413515
 30
0.000000
  0
VERTEX
  8
LAYER-1
 10
4.733902
 20
7.143984
 30
0.000000
  0
SEQEND
  8
LAYER-1
  0
POLYLINE
  8
LAYER-1
 66
  1
 70
  0
 62
  0
 10
4.696826
 20
7.413515
 30
0.000000
  0
VERTEX
  8
LAYER-1
 10
4.696826
 20
7.413515
 30
0.000000
  0
VERTEX
  8
LAYER-1
 10
4.696826
 20
7.143984
 30
0.000000
  0
SEQEND
  8
LAYER-1
  0
POLYLINE
  8
LAYER-1
 66
  1
 70
  0
 62
  0
 10
5.555570
 20
7.413515
 30
0.000000
  0
VERTEX
  8
LAYER-1
 10
5.555570
 20
7.413515
 30
0.000000
  0
VERTEX
  8
LAYER-1
 10
5.555570
 20
7.143984
 30
0.000000
  0
SEQEND
  8
LAYER-1
  0
POLYLINE
  8
LAYER-1
 66
  1
 70
  0
 62
  0
 10
5.517009
 20
7.413515
 30
0.000000
  0
VERTEX
  8
LAYER-1
 10
5.517009
 20
7.413515
 30
0.000000
  0
VERTEX
  8
LAYER-1
 10
5.517009
 20
7.143984
 30
0.000000
  0
SEQEND
  8
LAYER-1
  0
POLYLINE
  8
LAYER-1
 66
  1
 70
  1
 62
  0
  0
VERTEX
  8
LAYER-1
 10
5.304916
 20
7.419376
 30
0.000000
  0
VERTEX
  8
LAYER-1
 10
5.359791
 20
7.419376
 30
0.000000
  0
VERTEX
  8
LAYER-1
 10
5.359791
 20
7.413515
 30
0.000000
  0
VERTEX
  8
LAYER-1
 10
5.304916
 20
7.413515
 30
0.000000
  0
SEQEND
  8
LAYER-1
  0
POLYLINE
  8
LAYER-1
 66
  1
 70
  0
 62
  0
 10
5.350897
 20
7.346133
 30
0.000000
  0
VERTEX
  8
LAYER-1
 10
5.350897
 20
7.346133
 30
0.000000
  0
VERTEX
  8
LAYER-1
 10
5.315299
 20
7.346133
 30
0.000000
  0
SEQEND
  8
LAYER-1
  0
POLYLINE
  8
LAYER-1
 66
  1
 70
  0
 62
  0
 10
5.350897
 20
7.217228
 30
0.000000
  0
VERTEX
  8
LAYER-1
 10
5.350897
 20
7.217228
 30
0.000000
  0
VERTEX
  8
LAYER-1
 10
5.315299
 20
7.217228
 30
0.000000
  0
SEQEND
  8
LAYER-1
  0
POLYLINE
  8
LAYER-1
 66
  1
 70
  1
 62
  0
  0
VERTEX
  8
LAYER-1
 10
4.487698
 20
7.419376
 30
0.000000
  0
VERTEX
  8
LAYER-1
 10
4.542577
 20
7.419376
 30
0.000000
  0
VERTEX
  8
LAYER-1
 10
4.542577
 20
7.413515
 30
0.000000
  0
VERTEX
  8
LAYER-1
 10
4.487698
 20
7.413515
 30
0.000000
  0
SEQEND
  8
LAYER-1
  0
POLYLINE
  8
LAYER-1
 66
  1
 70
  0
 62
  0
 10
4.532191
 20
7.346133
 30
0.000000
  0
VERTEX
  8
LAYER-1
 10
4.532191
 20
7.346133
 30
0.000000
  0
VERTEX
  8
LAYER-1
 10
4.496600
 20
7.346133
 30
0.000000
  0
SEQEND
  8
LAYER-1
  0
POLYLINE
  8
LAYER-1
 66
  1
 70
  0
 62
  0
 10
4.532191
 20
7.217226
 30
0.000000
  0
VERTEX
  8
LAYER-1
 10
4.532191
 20
7.217226
 30
0.000000
  0
VERTEX
  8
LAYER-1
 10
4.496600
 20
7.217226
 30
0.000000
  0
SEQEND
  8
LAYER-1
  0
POLYLINE
  8
LAYER-1
 66
  1
 70
  0
 62
  0
 10
5.700918
 20
7.413440
 30
0.000000
  0
VERTEX
  8
LAYER-1
 10
5.700918
 20
7.413440
 30
0.000000
  0
VERTEX
  8
LAYER-1
 10
5.700918
 20
0.346650
 30
0.000000
  0
SEQEND
  8
LAYER-1
  0
POLYLINE
  8
LAYER-1
 66
  1
 70
  0
 62
  0
 10
5.376286
 20
7.413440
 30
0.000000
  0
VERTEX
  8
LAYER-1
 10
5.376286
 20
7.413440
 30
0.000000
  0
VERTEX
  8
LAYER-1
 10
5.376286
 20
0.346650
 30
0.000000
  0
SEQEND
  8
LAYER-1
  0
POLYLINE
  8
LAYER-1
 66
  1
 70
  0
 62
  0
 10
5.290855
 20
7.413440
 30
0.000000
  0
VERTEX
  8
LAYER-1
 10
5.290855
 20
7.413440
 30
0.000000
  0
VERTEX
  8
LAYER-1
 10
5.290855
 20
0.346650
 30
0.000000
  0
SEQEND
  8
LAYER-1
  0
POLYLINE
  8
LAYER-1
 66
  1
 70
  0
 62
  0
 10
5.350897
 20
7.413440
 30
0.000000
  0
VERTEX
  8
LAYER-1
 10
5.350897
 20
7.413440
 30
0.000000
  0
VERTEX
  8
LAYER-1
 10
5.350897
 20
0.346650
 30
0.000000
  0
SEQEND
  8
LAYER-1
  0
POLYLINE
  8
LAYER-1
 66
  1
 70
  0
 62
  0
 10
5.315299
 20
7.413440
 30
0.000000
  0
VERTEX
  8
LAYER-1
 10
5.315299
 20
7.413440
 30
0.000000
  0
VERTEX
  8
LAYER-1
 10
5.315299
 20
0.346650
 30
0.000000
  0
SEQEND
  8
LAYER-1
  0
POLYLINE
  8
LAYER-1
 66
  1
 70
  1
 62
  0
  0
VERTEX
  8
LAYER-1
 10
5.306401
 20
0.346725
 30
0.000000
  0
VERTEX
  8
LAYER-1
 10
5.361276
 20
0.346725
 30
0.000000
  0
VERTEX
  8
LAYER-1
 10
5.361276
 20
0.340866
 30
0.000000
  0
VERTEX
  8
LAYER-1
 10
5.306401
 20
0.340866
 30
0.000000
  0
SEQEND
  8
LAYER-1
  0
POLYLINE
  8
LAYER-1
 66
  1
 70
  0
 62
  0
 10
5.315299
 20
0.419968
 30
0.000000
  0
VERTEX
  8
LAYER-1
 10
5.315299
 20
0.419968
 30
0.000000
  0
VERTEX
  8
LAYER-1
 10
5.350897
 20
0.419968
 30
0.000000
  0
SEQEND
  8
LAYER-1
  0
POLYLINE
  8
LAYER-1
 66
  1
 70
  0
 62
  0
 10
5.315299
 20
0.548874
 30
0.000000
  0
VERTEX
  8
LAYER-1
 10
5.315299
 20
0.548874
 30
0.000000
  0
VERTEX
  8
LAYER-1
 10
5.350897
 20
0.548874
 30
0.000000
  0
SEQEND
  8
LAYER-1
  0
POLYLINE
  8
LAYER-1
 66
  1
 70
  0
 62
  0
 10
5.350897
 20
0.623858
 30
0.000000
  0
VERTEX
  8
LAYER-1
 10
5.350897
 20
0.623858
 30
0.000000
  0
VERTEX
  8
LAYER-1
 10
5.315299
 20
0.623858
 30
0.000000
  0
SEQEND
  8
LAYER-1
  0
POLYLINE
  8
LAYER-1
 66
  1
 70
  0
 62
  0
 10
5.350897
 20
1.470538
 30
0.000000
  0
VERTEX
  8
LAYER-1
 10
5.350897
 20
1.470538
 30
0.000000
  0
VERTEX
  8
LAYER-1
 10
5.315299
 20
1.470538
 30
0.000000
  0
SEQEND
  8
LAYER-1
  0
POLYLINE
  8
LAYER-1
 66
  1
 70
  0
 62
  0
 10
5.350897
 20
2.308427
 30
0.000000
  0
VERTEX
  8
LAYER-1
 10
5.350897
 20
2.308427
 30
0.000000
  0
VERTEX
  8
LAYER-1
 10
5.315299
 20
2.308427
 30
0.000000
  0
SEQEND
  8
LAYER-1
  0
POLYLINE
  8
LAYER-1
 66
  1
 70
  0
 62
  0
 10
5.350897
 20
3.158029
 30
0.000000
  0
VERTEX
  8
LAYER-1
 10
5.350897
 20
3.158029
 30
0.000000
  0
VERTEX
  8
LAYER-1
 10
5.315299
 20
3.158029
 30
0.000000
  0
SEQEND
  8
LAYER-1
  0
POLYLINE
  8
LAYER-1
 66
  1
 70
  0
 62
  0
 10
5.315299
 20
4.000315
 30
0.000000
  0
VERTEX
  8
LAYER-1
 10
5.315299
 20
4.000315
 30
0.000000
  0
VERTEX
  8
LAYER-1
 10
5.350897
 20
4.000315
 30
0.000000
  0
SEQEND
  8
LAYER-1
  0
POLYLINE
  8
LAYER-1
 66
  1
 70
  0
 62
  0
 10
4.966223
 20
7.413440
 30
0.000000
  0
VERTEX
  8
LAYER-1
 10
4.966223
 20
7.413440
 30
0.000000
  0
VERTEX
  8
LAYER-1
 10
4.966223
 20
0.346650
 30
0.000000
  0
SEQEND
  8
LAYER-1
  0
POLYLINE
  8
LAYER-1
 66
  1
 70
  0
 62
  0
 10
4.880793
 20
7.413440
 30
0.000000
  0
VERTEX
  8
LAYER-1
 10
4.880793
 20
7.413440
 30
0.000000
  0
VERTEX
  8
LAYER-1
 10
4.880793
 20
0.346650
 30
0.000000
  0
SEQEND
  8
LAYER-1
  0
POLYLINE
  8
LAYER-1
 66
  1
 70
  0
 62
  0
 10
4.556162
 20
7.413440
 30
0.000000
  0
VERTEX
  8
LAYER-1
 10
4.556162
 20
7.413440
 30
0.000000
  0
VERTEX
  8
LAYER-1
 10
4.556162
 20
0.346650
 30
0.000000
  0
SEQEND
  8
LAYER-1
  0
POLYLINE
  8
LAYER-1
 66
  1
 70
  0
 62
  0
 10
4.470730
 20
7.413440
 30
0.000000
  0
VERTEX
  8
LAYER-1
 10
4.470730
 20
7.413440
 30
0.000000
  0
VERTEX
  8
LAYER-1
 10
4.470730
 20
0.346650
 30
0.000000
  0
SEQEND
  8
LAYER-1
  0
POLYLINE
  8
LAYER-1
 66
  1
 70
  0
 62
  0
 10
4.146100
 20
7.413440
 30
0.000000
  0
VERTEX
  8
LAYER-1
 10
4.146100
 20
7.413440
 30
0.000000
  0
VERTEX
  8
LAYER-1
 10
4.146100
 20
0.346650
 30
0.000000
  0
SEQEND
  8
LAYER-1
  0
POLYLINE
  8
LAYER-1
 66
  1
 70
  0
 62
  0
 10
4.063516
 20
7.413440
 30
0.000000
  0
VERTEX
  8
LAYER-1
 10
4.063516
 20
7.413440
 30
0.000000
  0
VERTEX
  8
LAYER-1
 10
4.063516
 20
0.346650
 30
0.000000
  0
SEQEND
  8
LAYER-1
  0
POLYLINE
  8
LAYER-1
 66
  1
 70
  0
 62
  0
 10
5.736515
 20
7.413440
 30
0.000000
  0
VERTEX
  8
LAYER-1
 10
5.736515
 20
7.413440
 30
0.000000
  0
VERTEX
  8
LAYER-1
 10
5.736515
 20
0.346650
 30
0.000000
  0
SEQEND
  8
LAYER-1
  0
POLYLINE
  8
LAYER-1
 66
  1
 70
  0
 62
  0
 10
4.923748
 20
7.413440
 30
0.000000
  0
VERTEX
  8
LAYER-1
 10
4.923748
 20
7.413440
 30
0.000000
  0
VERTEX
  8
LAYER-1
 10
4.923748
 20
0.346650
 30
0.000000
  0
SEQEND
  8
LAYER-1
  0
POLYLINE
  8
LAYER-1
 66
  1
 70
  0
 62
  0
 10
4.532191
 20
7.413440
 30
0.000000
  0
VERTEX
  8
LAYER-1
 10
4.532191
 20
7.413440
 30
0.000000
  0
VERTEX
  8
LAYER-1
 10
4.532191
 20
0.346650
 30
0.000000
  0
SEQEND
  8
LAYER-1
  0
POLYLINE
  8
LAYER-1
 66
  1
 70
  0
 62
  0
 10
4.496600
 20
7.413440
 30
0.000000
  0
VERTEX
  8
LAYER-1
 10
4.496600
 20
7.413440
 30
0.000000
  0
VERTEX
  8
LAYER-1
 10
4.496600
 20
0.346650
 30
0.000000
  0
SEQEND
  8
LAYER-1
  0
POLYLINE
  8
LAYER-1
 66
  1
 70
  0
 62
  0
 10
4.105042
 20
7.413440
 30
0.000000
  0
VERTEX
  8
LAYER-1
 10
4.105042
 20
7.413440
 30
0.000000
  0
VERTEX
  8
LAYER-1
 10
4.105042
 20
0.346650
 30
0.000000
  0
SEQEND
  8
LAYER-1
  0
POLYLINE
  8
LAYER-1
 66
  1
 70
  1
 62
  0
  0
VERTEX
  8
LAYER-1
 10
4.489183
 20
0.346725
 30
0.000000
  0
VERTEX
  8
LAYER-1
 10
4.544061
 20
0.346725
 30
0.000000
  0
VERTEX
  8
LAYER-1
 10
4.544061
 20
0.340866
 30
0.000000
  0
VERTEX
  8
LAYER-1
 10
4.489183
 20
0.340866
 30
0.000000
  0
SEQEND
  8
LAYER-1
  0
POLYLINE
  8
LAYER-1
 66
  1
 70
  0
 62
  0
 10
4.496600
 20
0.419968
 30
0.000000
  0
VERTEX
  8
LAYER-1
 10
4.496600
 20
0.419968
 30
0.000000
  0
VERTEX
  8
LAYER-1
 10
4.532191
 20
0.419968
 30
0.000000
  0
SEQEND
  8
LAYER-1
  0
POLYLINE
  8
LAYER-1
 66
  1
 70
  0
 62
  0
 10
4.496600
 20
0.548874
 30
0.000000
  0
VERTEX
  8
LAYER-1
 10
4.496600
 20
0.548874
 30
0.000000
  0
VERTEX
  8
LAYER-1
 10
4.532191
 20
0.548874
 30
0.000000
  0
SEQEND
  8
LAYER-1
  0
POLYLINE
  8
LAYER-1
 66
  1
 70
  0
 62
  0
 10
4.532191
 20
0.623858
 30
0.000000
  0
VERTEX
  8
LAYER-1
 10
4.532191
 20
0.623858
 30
0.000000
  0
VERTEX
  8
LAYER-1
 10
4.496600
 20
0.623858
 30
0.000000
  0
SEQEND
  8
LAYER-1
  0
POLYLINE
  8
LAYER-1
 66
  1
 70
  0
 62
  0
 10
4.532191
 20
1.470538
 30
0.000000
  0
VERTEX
  8
LAYER-1
 10
4.532191
 20
1.470538
 30
0.000000
  0
VERTEX
  8
LAYER-1
 10
4.496600
 20
1.470538
 30
0.000000
  0
SEQEND
  8
LAYER-1
  0
POLYLINE
  8
LAYER-1
 66
  1
 70
  0
 62
  0
 10
4.532191
 20
2.308427
 30
0.000000
  0
VERTEX
  8
LAYER-1
 10
4.532191
 20
2.308427
 30
0.000000
  0
VERTEX
  8
LAYER-1
 10
4.496600
 20
2.308427
 30
0.000000
  0
SEQEND
  8
LAYER-1
  0
POLYLINE
  8
LAYER-1
 66
  1
 70
  0
 62
  0
 10
4.532191
 20
3.158029
 30
0.000000
  0
VERTEX
  8
LAYER-1
 10
4.532191
 20
3.158029
 30
0.000000
  0
VERTEX
  8
LAYER-1
 10
4.496600
 20
3.158029
 30
0.000000
  0
SEQEND
  8
LAYER-1
  0
POLYLINE
  8
LAYER-1
 66
  1
 70
  0
 62
  0
 10
4.496600
 20
4.000315
 30
0.000000
  0
VERTEX
  8
LAYER-1
 10
4.496600
 20
4.000315
 30
0.000000
  0
VERTEX
  8
LAYER-1
 10
4.532191
 20
4.000315
 30
0.000000
  0
SEQEND
  8
LAYER-1
  0
POLYLINE
  8
LAYER-1
 66
  1
 70
  0
 62
  0
 10
5.350243
 20
4.851316
 30
0.000000
  0
VERTEX
  8
LAYER-1
 10
5.350243
 20
4.851316
 30
0.000000
  0
VERTEX
  8
LAYER-1
 10
5.314648
 20
4.851316
 30
0.000000
  0
SEQEND
  8
LAYER-1
  0
POLYLINE
  8
LAYER-1
 66
  1
 70
  0
 62
  0
 10
5.350243
 20
5.695065
 30
0.000000
  0
VERTEX
  8
LAYER-1
 10
5.350243
 20
5.695065
 30
0.000000
  0
VERTEX
  8
LAYER-1
 10
5.314648
 20
5.695065
 30
0.000000
  0
SEQEND
  8
LAYER-1
  0
POLYLINE
  8
LAYER-1
 66
  1
 70
  0
 62
  0
 10
4.532368
 20
4.851316
 30
0.000000
  0
VERTEX
  8
LAYER-1
 10
4.532368
 20
4.851316
 30
0.000000
  0
VERTEX
  8
LAYER-1
 10
4.496777
 20
4.851316
 30
0.000000
  0
SEQEND
  8
LAYER-1
  0
POLYLINE
  8
LAYER-1
 66
  1
 70
  0
 62
  0
 10
4.532368
 20
5.695065
 30
0.000000
  0
VERTEX
  8
LAYER-1
 10
4.532368
 20
5.695065
 30
0.000000
  0
VERTEX
  8
LAYER-1
 10
4.496777
 20
5.695065
 30
0.000000
  0
SEQEND
  8
LAYER-1
  0
POLYLINE
  8
LAYER-1
 66
  1
 70
  1
 62
  0
  0
VERTEX
  8
LAYER-1
 10
3.839560
 20
7.419300
 30
0.000000
  0
VERTEX
  8
LAYER-1
 10
3.894437
 20
7.419300
 30
0.000000
  0
VERTEX
  8
LAYER-1
 10
3.894437
 20
7.413439
 30
0.000000
  0
VERTEX
  8
LAYER-1
 10
3.839560
 20
7.413439
 30
0.000000
  0
SEQEND
  8
LAYER-1
  0
POLYLINE
  8
LAYER-1
 66
  1
 70
  0
 62
  0
 10
3.884052
 20
7.346056
 30
0.000000
  0
VERTEX
  8
LAYER-1
 10
3.884052
 20
7.346056
 30
0.000000
  0
VERTEX
  8
LAYER-1
 10
3.848461
 20
7.346056
 30
0.000000
  0
SEQEND
  8
LAYER-1
  0
POLYLINE
  8
LAYER-1
 66
  1
 70
  0
 62
  0
 10
3.884052
 20
7.217150
 30
0.000000
  0
VERTEX
  8
LAYER-1
 10
3.884052
 20
7.217150
 30
0.000000
  0
VERTEX
  8
LAYER-1
 10
3.848461
 20
7.217150
 30
0.000000
  0
SEQEND
  8
LAYER-1
  0
POLYLINE
  8
LAYER-1
 66
  1
 70
  0
 62
  0
 10
3.884052
 20
7.413364
 30
0.000000
  0
VERTEX
  8
LAYER-1
 10
3.884052
 20
7.413364
 30
0.000000
  0
VERTEX
  8
LAYER-1
 10
3.884052
 20
0.346650
 30
0.000000
  0
SEQEND
  8
LAYER-1
  0
POLYLINE
  8
LAYER-1
 66
  1
 70
  0
 62
  0
 10
3.848461
 20
0.419891
 30
0.000000
  0
VERTEX
  8
LAYER-1
 10
3.848461
 20
0.419891
 30
0.000000
  0
VERTEX
  8
LAYER-1
 10
3.884052
 20
0.419891
 30
0.000000
  0
SEQEND
  8
LAYER-1
  0
POLYLINE
  8
LAYER-1
 66
  1
 70
  0
 62
  0
 10
3.848461
 20
0.548797
 30
0.000000
  0
VERTEX
  8
LAYER-1
 10
3.848461
 20
0.548797
 30
0.000000
  0
VERTEX
  8
LAYER-1
 10
3.884052
 20
0.548797
 30
0.000000
  0
SEQEND
  8
LAYER-1
  0
POLYLINE
  8
LAYER-1
 66
  1
 70
  0
 62
  0
 10
3.884052
 20
0.623779
 30
0.000000
  0
VERTEX
  8
LAYER-1
 10
3.884052
 20
0.623779
 30
0.000000
  0
VERTEX
  8
LAYER-1
 10
3.848458
 20
0.623779
 30
0.000000
  0
SEQEND
  8
LAYER-1
  0
POLYLINE
  8
LAYER-1
 66
  1
 70
  0
 62
  0
 10
3.884052
 20
1.470462
 30
0.000000
  0
VERTEX
  8
LAYER-1
 10
3.884052
 20
1.470462
 30
0.000000
  0
VERTEX
  8
LAYER-1
 10
3.848458
 20
1.470462
 30
0.000000
  0
SEQEND
  8
LAYER-1
  0
POLYLINE
  8
LAYER-1
 66
  1
 70
  0
 62
  0
 10
3.884052
 20
2.308350
 30
0.000000
  0
VERTEX
  8
LAYER-1
 10
3.884052
 20
2.308350
 30
0.000000
  0
VERTEX
  8
LAYER-1
 10
3.848458
 20
2.308350
 30
0.000000
  0
SEQEND
  8
LAYER-1
  0
POLYLINE
  8
LAYER-1
 66
  1
 70
  0
 62
  0
 10
3.884052
 20
3.157954
 30
0.000000
  0
VERTEX
  8
LAYER-1
 10
3.884052
 20
3.157954
 30
0.000000
  0
VERTEX
  8
LAYER-1
 10
3.848458
 20
3.157954
 30
0.000000
  0
SEQEND
  8
LAYER-1
  0
POLYLINE
  8
LAYER-1
 66
  1
 70
  0
 62
  0
 10
3.848458
 20
4.000239
 30
0.000000
  0
VERTEX
  8
LAYER-1
 10
3.848458
 20
4.000239
 30
0.000000
  0
VERTEX
  8
LAYER-1
 10
3.884052
 20
4.000239
 30
0.000000
  0
SEQEND
  8
LAYER-1
  0
POLYLINE
  8
LAYER-1
 66
  1
 70
  0
 62
  0
 10
3.884230
 20
4.851240
 30
0.000000
  0
VERTEX
  8
LAYER-1
 10
3.884230
 20
4.851240
 30
0.000000
  0
VERTEX
  8
LAYER-1
 10
3.848638
 20
4.851240
 30
0.000000
  0
SEQEND
  8
LAYER-1
  0
POLYLINE
  8
LAYER-1
 66
  1
 70
  0
 62
  0
 10
3.884230
 20
5.694989
 30
0.000000
  0
VERTEX
  8
LAYER-1
 10
3.884230
 20
5.694989
 30
0.000000
  0
VERTEX
  8
LAYER-1
 10
3.848638
 20
5.694989
 30
0.000000
  0
SEQEND
  8
LAYER-1
  0
POLYLINE
  8
LAYER-1
 66
  1
 70
  1
 62
  0
  0
VERTEX
  8
LAYER-1
 10
3.841044
 20
0.346650
 30
0.000000
  0
VERTEX
  8
LAYER-1
 10
3.895916
 20
0.346650
 30
0.000000
  0
VERTEX
  8
LAYER-1
 10
3.895916
 20
0.340791
 30
0.000000
  0
VERTEX
  8
LAYER-1
 10
3.841044
 20
0.340791
 30
0.000000
  0
SEQEND
  8
LAYER-1
  0
TEXT
  8
LAYER-1
 62
  7
 10
1.944969
 20
8.784073
 30
0.000000
 40
0.187500
  1
Elevation model Global
 72
  5
 11
4.778303
 21
8.784073
 31
0.000000
  0
LINE
  8
LAYER-1
 62
  0
 10
6.764414
 20
7.479073
 30
0.000000
 11
0.764414
 21
7.479073
 31
0.000000
  0
LINE
  8
LAYER-1
 62
  0
 10
6.764414
 20
7.589072
 30
0.000000
 11
0.764414
 21
7.589072
 31
0.000000
  0
LINE
  8
LAYER-1
 62
  0
 10
1.327783
 20
7.480579
 30
0.000000
 11
1.327783
 21
7.590558
 31
0.000000
  0
LINE
  8
LAYER-1
 62
  0
 10
1.268415
 20
7.480579
 30
0.000000
 11
1.452783
 21
7.480579
 31
0.000000
  0
LINE
  8
LAYER-1
 62
  0
 10
1.268755
 20
7.590558
 30
0.000000
 11
1.452783
 21
7.590558
 31
0.000000
  0
LINE
  8
LAYER-1
 62
  0
 10
1.327783
 20
7.590558
 30
0.000000
 11
1.327783
 21
7.225043
 31
0.000000
  0
LINE
  8
LAYER-1
 62
  0
 10
1.298320
 20
7.510042
 30
0.000000
 11
1.357246
 21
7.451116
 31
0.000000
  0
LINE
  8
LAYER-1
 62
  0
 10
1.298320
 20
7.620021
 30
0.000000
 11
1.357246
 21
7.561094
 31
0.000000
  0
TEXT
  8
LAYER-1
 62
  0
 10
1.315923
 20
7.096627
 30
0.000000
 40
0.125000
  1
 
  0
TEXT
  8
LAYER-1
 62
  0
 10
1.069969
 20
6.853517
 30
0.000000
 40
0.125000
  1
1-
 72
  5
 11
1.292191
 21
6.853517
 31
0.000000
  0
TEXT
  8
LAYER-1
 62
  0
 10
1.292191
 20
6.853517
 30
0.000000
 40
0.104167
  1
9/16
 72
  5
 11
1.653303
 21
6.853517
 31
0.000000
  0
TEXT
  8
LAYER-1
 62
  0
 10
1.653303
 20
6.853517
 30
0.000000
 40
0.125000
  1
"
 72
  5
 11
1.778303
 21
6.853517
 31
0.000000
  0
TEXT
  8
LAYER-1
 62
  0
 10
1.069969
 20
6.659073
 30
0.000000
 40
0.125000
  1
40mm
 72
  5
 11
1.639414
 21
6.659073
 31
0.000000
  0
TEXT
  8
LAYER-1
 62
  0
 10
2.819969
 20
7.881295
 30
0.000000
 40
0.125000
  1
Intermediate
 72
  5
 11
3.847747
 21
7.881295
 31
0.000000
  0
TEXT
  8
LAYER-1
 62
  0
 10
2.819969
 20
7.686851
 30
0.000000
 40
0.125000
  1
post #4
 72
  5
 11
3.458858
 21
7.686851
 31
0.000000
  0
POLYLINE
  8
LAYER-1
 66
  1
 70
  0
 62
  0
 10
3.515282
 20
7.745877
 30
0.000000
  0
VERTEX
  8
LAYER-1
 10
3.515282
 20
7.745877
 30
0.000000
  0
VERTEX
  8
LAYER-1
 10
3.756357
 20
7.430782
 30
0.000000
  0
SEQEND
  8
LAYER-1
  0
POLYLINE
  8
LAYER-1
 66
  1
 70
  1
 62
  0
  0
VERTEX
  8
LAYER-1
 10
3.768319
 20
7.415148
 30
0.000000
  0
VERTEX
  8
LAYER-1
 10
3.693029
 20
7.444983
 30
0.000000
  0
VERTEX
  8
LAYER-1
 10
3.726121
 20
7.470301
 30
0.000000
  0
VERTEX
  8
LAYER-1
 10
3.759213
 20
7.495620
 30
0.000000
  0
VERTEX
  8
LAYER-1
 10
3.768319
 20
7.415148
 30
0.000000
  0
SEQEND
  8
LAYER-1
  0
POLYLINE
  8
LAYER-1
 66
  1
 70
  0
 62
  0
 40
0.027778
 41
0.027778
 10
3.680799
 20
0.240680
 30
0.000000
  0
VERTEX
  8
LAYER-1
 10
3.680799
 20
0.240680
 30
0.000000
  0
VERTEX
  8
LAYER-1
 10
0.764414
 20
0.240680
 30
0.000000
  0
SEQEND
  8
LAYER-1
  0
POLYLINE
  8
LAYER-1
 66
  1
 70
  0
 62
  0
 40
0.027778
 41
0.027778
 10
3.774417
 20
0.240680
 30
0.000000
  0
VERTEX
  8
LAYER-1
 10
3.774417
 20
0.240680
 30
0.000000
  0
VERTEX
  8
LAYER-1
 10
6.771358
 20
0.240680
 30
0.000000
  0
SEQEND
  8
LAYER-1
  0
POLYLINE
  8
LAYER-1
 66
  1
 70
  1
 62
  0
  0
VERTEX
  8
LAYER-1
 10
3.711181
 20
0.346458
 30
0.000000
  0
VERTEX
  8
LAYER-1
 10
3.744738
 20
0.346458
 30
0.000000
  0
VERTEX
  8
LAYER-1
 10
3.744738
 20
0.250953
 30
0.000000
  0
VERTEX
  8
LAYER-1
 10
3.711181
 20
0.250953
 30
0.000000
  0
SEQEND
  8
LAYER-1
  0
POLYLINE
  8
LAYER-1
 66
  1
 70
  0
 62
  0
 10
3.731222
 20
2.457414
 30
0.000000
  0
VERTEX
  8
LAYER-1
 10
3.731222
 20
2.457414
 30
0.000000
  0
VERTEX
  8
LAYER-1
 10
3.731222
 20
2.457414
 30
0.000000
  0
SEQEND
  8
LAYER-1
  0
POLYLINE
  8
LAYER-1
 66
  1
 70
  0
 62
  0
 10
3.739187
 20
2.449449
 30
0.000000
  0
VERTEX
  8
LAYER-1
 10
3.739187
 20
2.449449
 30
0.000000
  0
VERTEX
  8
LAYER-1
 10
3.739187
 20
2.199906
 30
0.000000
  0
SEQEND
  8
LAYER-1
  0
POLYLINE
  8
LAYER-1
 66
  1
 70
  0
 62
  0
 10
3.731222
 20
2.191942
 30
0.000000
  0
VERTEX
  8
LAYER-1
 10
3.731222
 20
2.191942
 30
0.000000
  0
VERTEX
  8
LAYER-1
 10
3.731222
 20
2.191942
 30
0.000000
  0
SEQEND
  8
LAYER-1
  0
POLYLINE
  8
LAYER-1
 66
  1
 70
  0
 62
  0
 10
3.723257
 20
2.199906
 30
0.000000
  0
VERTEX
  8
LAYER-1
 10
3.723257
 20
2.199906
 30
0.000000
  0
VERTEX
  8
LAYER-1
 10
3.723257
 20
2.449449
 30
0.000000
  0
SEQEND
  8
LAYER-1
  0
ARC
  8
LAYER-1
 62
  0
 10
3.731222
 20
2.449449
 30
0.000000
 40
0.007964
 50
270.000000
 51
0.000000
  0
ARC
  8
LAYER-1
 62
  0
 10
3.731222
 20
2.199906
 30
0.000000
 40
0.007964
 50
0.000000
 51
90.000000
  0
ARC
  8
LAYER-1
 62
  0
 10
3.731222
 20
2.199906
 30
0.000000
 40
0.007964
 50
90.000000
 51
180.000000
  0
ARC
  8
LAYER-1
 62
  0
 10
3.731222
 20
2.449449
 30
0.000000
 40
0.007964
 50
180.000000
 51
270.000000
  0
CIRCLE
  8
LAYER-1
 62
  0
 10
3.731555
 20
2.194594
 30
0.000000
 40
0.022565
  0
CIRCLE
  8
LAYER-1
 62
  0
 10
3.731555
 20
2.194594
 30
0.000000
 40
0.016522
  0
CIRCLE
  8
LAYER-1
 62
  0
 10
3.731555
 20
2.194594
 30
0.000000
 40
0.013746
  0
CIRCLE
  8
LAYER-1
 62
  0
 10
3.731555
 20
2.194594
 30
0.000000
 40
0.008860
  0
POLYLINE
  8
LAYER-1
 66
  1
 70
  0
 62
  0
 10
3.681277
 20
0.243292
 30
0.000000
  0
VERTEX
  8
LAYER-1
 10
3.681277
 20
0.243292
 30
0.000000
  0
VERTEX
  8
LAYER-1
 10
3.694055
 20
0.250857
 30
0.000000
  0
SEQEND
  8
LAYER-1
  0
POLYLINE
  8
LAYER-1
 66
  1
 70
  0
 62
  0
 10
3.681277
 20
0.243292
 30
0.000000
  0
VERTEX
  8
LAYER-1
 10
3.681277
 20
0.243292
 30
0.000000
  0
VERTEX
  8
LAYER-1
 10
3.681277
 20
0.241727
 30
0.000000
  0
SEQEND
  8
LAYER-1
  0
POLYLINE
  8
LAYER-1
 66
  1
 70
  0
 62
  0
 10
3.681277
 20
0.241727
 30
0.000000
  0
VERTEX
  8
LAYER-1
 10
3.681277
 20
0.241727
 30
0.000000
  0
VERTEX
  8
LAYER-1
 10
3.774894
 20
0.241727
 30
0.000000
  0
SEQEND
  8
LAYER-1
  0
POLYLINE
  8
LAYER-1
 66
  1
 70
  0
 62
  0
 10
3.774894
 20
0.241727
 30
0.000000
  0
VERTEX
  8
LAYER-1
 10
3.774894
 20
0.241727
 30
0.000000
  0
VERTEX
  8
LAYER-1
 10
3.774894
 20
0.243292
 30
0.000000
  0
SEQEND
  8
LAYER-1
  0
POLYLINE
  8
LAYER-1
 66
  1
 70
  0
 62
  0
 10
3.774894
 20
0.243292
 30
0.000000
  0
VERTEX
  8
LAYER-1
 10
3.774894
 20
0.243292
 30
0.000000
  0
VERTEX
  8
LAYER-1
 10
3.761855
 20
0.250857
 30
0.000000
  0
SEQEND
  8
LAYER-1
  0
POLYLINE
  8
LAYER-1
  6
LTYPE02
 66
  1
 70
  0
 62
  0
  6
LTYPE02
 10
3.705659
 20
0.150068
 30
0.000000
  0
VERTEX
  8
LAYER-1
  6
LTYPE02
 10
3.705659
 20
0.150068
 30
0.000000
  0
VERTEX
  8
LAYER-1
  6
LTYPE02
 10
3.705659
 20
0.116170
 30
0.000000
  0
SEQEND
  8
LAYER-1
  0
POLYLINE
  8
LAYER-1
  6
LTYPE02
 66
  1
 70
  0
 62
  0
  6
LTYPE02
 10
3.709568
 20
0.150068
 30
0.000000
  0
VERTEX
  8
LAYER-1
  6
LTYPE02
 10
3.709568
 20
0.150068
 30
0.000000
  0
VERTEX
  8
LAYER-1
  6
LTYPE02
 10
3.705659
 20
0.150068
 30
0.000000
  0
SEQEND
  8
LAYER-1
  0
POLYLINE
  8
LAYER-1
  6
LTYPE02
 66
  1
 70
  0
 62
  0
  6
LTYPE02
 10
3.709568
 20
0.150068
 30
0.000000
  0
VERTEX
  8
LAYER-1
  6
LTYPE02
 10
3.709568
 20
0.150068
 30
0.000000
  0
VERTEX
  8
LAYER-1
  6
LTYPE02
 10
3.709568
 20
0.154502
 30
0.000000
  0
SEQEND
  8
LAYER-1
  0
POLYLINE
  8
LAYER-1
  6
LTYPE02
 66
  1
 70
  0
 62
  0
  6
LTYPE02
 10
3.709568
 20
0.154502
 30
0.000000
  0
VERTEX
  8
LAYER-1
  6
LTYPE02
 10
3.709568
 20
0.154502
 30
0.000000
  0
VERTEX
  8
LAYER-1
  6
LTYPE02
 10
3.746827
 20
0.154502
 30
0.000000
  0
SEQEND
  8
LAYER-1
  0
POLYLINE
  8
LAYER-1
  6
LTYPE02
 66
  1
 70
  0
 62
  0
  6
LTYPE02
 10
3.705659
 20
0.116170
 30
0.000000
  0
VERTEX
  8
LAYER-1
  6
LTYPE02
 10
3.705659
 20
0.116170
 30
0.000000
  0
VERTEX
  8
LAYER-1
  6
LTYPE02
 10
3.749991
 20
0.116170
 30
0.000000
  0
SEQEND
  8
LAYER-1
  0
POLYLINE
  8
LAYER-1
  6
LTYPE02
 66
  1
 70
  0
 62
  0
  6
LTYPE02
 10
3.749991
 20
0.116170
 30
0.000000
  0
VERTEX
  8
LAYER-1
  6
LTYPE02
 10
3.749991
 20
0.116170
 30
0.000000
  0
VERTEX
  8
LAYER-1
  6
LTYPE02
 10
3.749991
 20
0.150068
 30
0.000000
  0
SEQEND
  8
LAYER-1
  0
POLYLINE
  8
LAYER-1
  6
LTYPE02
 66
  1
 70
  0
 62
  0
  6
LTYPE02
 10
3.746827
 20
0.150068
 30
0.000000
  0
VERTEX
  8
LAYER-1
  6
LTYPE02
 10
3.746827
 20
0.150068
 30
0.000000
  0
VERTEX
  8
LAYER-1
  6
LTYPE02
 10
3.749991
 20
0.150068
 30
0.000000
  0
SEQEND
  8
LAYER-1
  0
POLYLINE
  8
LAYER-1
  6
LTYPE02
 66
  1
 70
  0
 62
  0
  6
LTYPE02
 10
3.746827
 20
0.154502
 30
0.000000
  0
VERTEX
  8
LAYER-1
  6
LTYPE02
 10
3.746827
 20
0.154502
 30
0.000000
  0
VERTEX
  8
LAYER-1
  6
LTYPE02
 10
3.746827
 20
0.150068
 30
0.000000
  0
SEQEND
  8
LAYER-1
  0
POLYLINE
  8
LAYER-1
  6
LTYPE01
 66
  1
 70
  1
 62
  0
  0
VERTEX
  8
LAYER-1
  6
LTYPE01
 10
3.710797
 20
0.116024
 30
0.000000
  0
VERTEX
  8
LAYER-1
  6
LTYPE01
 10
3.745218
 20
0.116024
 30
0.000000
  0
VERTEX
  8
LAYER-1
  6
LTYPE01
 10
3.745218
 20
0.063870
 30
0.000000
  0
VERTEX
  8
LAYER-1
  6
LTYPE01
 10
3.710797
 20
0.063870
 30
0.000000
  0
SEQEND
  8
LAYER-1
  0
POLYLINE
  8
LAYER-1
  6
LTYPE02
 66
  1
 70
  0
 62
  0
  6
LTYPE02
 10
3.745218
 20
0.116024
 30
0.000000
  0
VERTEX
  8
LAYER-1
  6
LTYPE02
 10
3.745218
 20
0.116024
 30
0.000000
  0
VERTEX
  8
LAYER-1
  6
LTYPE02
 10
3.710797
 20
0.113156
 30
0.000000
  0
SEQEND
  8
LAYER-1
  0
POLYLINE
  8
LAYER-1
  6
LTYPE02
 66
  1
 70
  0
 62
  0
  6
LTYPE02
 10
3.745218
 20
0.114459
 30
0.000000
  0
VERTEX
  8
LAYER-1
  6
LTYPE02
 10
3.745218
 20
0.114459
 30
0.000000
  0
VERTEX
  8
LAYER-1
  6
LTYPE02
 10
3.710797
 20
0.111332
 30
0.000000
  0
SEQEND
  8
LAYER-1
  0
POLYLINE
  8
LAYER-1
  6
LTYPE02
 66
  1
 70
  0
 62
  0
  6
LTYPE02
 10
3.745218
 20
0.111070
 30
0.000000
  0
VERTEX
  8
LAYER-1
  6
LTYPE02
 10
3.745218
 20
0.111070
 30
0.000000
  0
VERTEX
  8
LAYER-1
  6
LTYPE02
 10
3.710797
 20
0.108200
 30
0.000000
  0
SEQEND
  8
LAYER-1
  0
POLYLINE
  8
LAYER-1
  6
LTYPE02
 66
  1
 70
  0
 62
  0
  6
LTYPE02
 10
3.745218
 20
0.109505
 30
0.000000
  0
VERTEX
  8
LAYER-1
  6
LTYPE02
 10
3.745218
 20
0.109505
 30
0.000000
  0
VERTEX
  8
LAYER-1
  6
LTYPE02
 10
3.710797
 20
0.106375
 30
0.000000
  0
SEQEND
  8
LAYER-1
  0
POLYLINE
  8
LAYER-1
  6
LTYPE02
 66
  1
 70
  0
 62
  0
  6
LTYPE02
 10
3.745218
 20
0.105921
 30
0.000000
  0
VERTEX
  8
LAYER-1
  6
LTYPE02
 10
3.745218
 20
0.105921
 30
0.000000
  0
VERTEX
  8
LAYER-1
  6
LTYPE02
 10
3.710797
 20
0.103052
 30
0.000000
  0
SEQEND
  8
LAYER-1
  0
POLYLINE
  8
LAYER-1
  6
LTYPE02
 66
  1
 70
  0
 62
  0
  6
LTYPE02
 10
3.745218
 20
0.104357
 30
0.000000
  0
VERTEX
  8
LAYER-1
  6
LTYPE02
 10
3.745218
 20
0.104357
 30
0.000000
  0
VERTEX
  8
LAYER-1
  6
LTYPE02
 10
3.710797
 20
0.101228
 30
0.000000
  0
SEQEND
  8
LAYER-1
  0
POLYLINE
  8
LAYER-1
  6
LTYPE02
 66
  1
 70
  0
 62
  0
  6
LTYPE02
 10
3.745154
 20
0.101422
 30
0.000000
  0
VERTEX
  8
LAYER-1
  6
LTYPE02
 10
3.745154
 20
0.101422
 30
0.000000
  0
VERTEX
  8
LAYER-1
  6
LTYPE02
 10
3.710732
 20
0.098553
 30
0.000000
  0
SEQEND
  8
LAYER-1
  0
POLYLINE
  8
LAYER-1
  6
LTYPE02
 66
  1
 70
  0
 62
  0
  6
LTYPE02
 10
3.745154
 20
0.099859
 30
0.000000
  0
VERTEX
  8
LAYER-1
  6
LTYPE02
 10
3.745154
 20
0.099859
 30
0.000000
  0
VERTEX
  8
LAYER-1
  6
LTYPE02
 10
3.710732
 20
0.096729
 30
0.000000
  0
SEQEND
  8
LAYER-1
  0
POLYLINE
  8
LAYER-1
  6
LTYPE02
 66
  1
 70
  0
 62
  0
  6
LTYPE02
 10
3.745154
 20
0.096598
 30
0.000000
  0
VERTEX
  8
LAYER-1
  6
LTYPE02
 10
3.745154
 20
0.096598
 30
0.000000
  0
VERTEX
  8
LAYER-1
  6
LTYPE02
 10
3.710732
 20
0.093730
 30
0.000000
  0
SEQEND
  8
LAYER-1
  0
POLYLINE
  8
LAYER-1
  6
LTYPE02
 66
  1
 70
  0
 62
  0
  6
LTYPE02
 10
3.745154
 20
0.095033
 30
0.000000
  0
VERTEX
  8
LAYER-1
  6
LTYPE02
 10
3.745154
 20
0.095033
 30
0.000000
  0
VERTEX
  8
LAYER-1
  6
LTYPE02
 10
3.710732
 20
0.091904
 30
0.000000
  0
SEQEND
  8
LAYER-1
  0
POLYLINE
  8
LAYER-1
  6
LTYPE02
 66
  1
 70
  0
 62
  0
  6
LTYPE02
 10
3.745154
 20
0.091643
 30
0.000000
  0
VERTEX
  8
LAYER-1
  6
LTYPE02
 10
3.745154
 20
0.091643
 30
0.000000
  0
VERTEX
  8
LAYER-1
  6
LTYPE02
 10
3.710732
 20
0.088774
 30
0.000000
  0
SEQEND
  8
LAYER-1
  0
POLYLINE
  8
LAYER-1
  6
LTYPE02
 66
  1
 70
  0
 62
  0
  6
LTYPE02
 10
3.745154
 20
0.090079
 30
0.000000
  0
VERTEX
  8
LAYER-1
  6
LTYPE02
 10
3.745154
 20
0.090079
 30
0.000000
  0
VERTEX
  8
LAYER-1
  6
LTYPE02
 10
3.710732
 20
0.086948
 30
0.000000
  0
SEQEND
  8
LAYER-1
  0
POLYLINE
  8
LAYER-1
  6
LTYPE02
 66
  1
 70
  0
 62
  0
  6
LTYPE02
 10
3.745154
 20
0.086493
 30
0.000000
  0
VERTEX
  8
LAYER-1
  6
LTYPE02
 10
3.745154
 20
0.086493
 30
0.000000
  0
VERTEX
  8
LAYER-1
  6
LTYPE02
 10
3.710732
 20
0.083624
 30
0.000000
  0
SEQEND
  8
LAYER-1
  0
POLYLINE
  8
LAYER-1
  6
LTYPE02
 66
  1
 70
  0
 62
  0
  6
LTYPE02
 10
3.745154
 20
0.084928
 30
0.000000
  0
VERTEX
  8
LAYER-1
  6
LTYPE02
 10
3.745154
 20
0.084928
 30
0.000000
  0
VERTEX
  8
LAYER-1
  6
LTYPE02
 10
3.710732
 20
0.081800
 30
0.000000
  0
SEQEND
  8
LAYER-1
  0
POLYLINE
  8
LAYER-1
  6
LTYPE02
 66
  1
 70
  0
 62
  0
  6
LTYPE02
 10
3.745089
 20
0.081994
 30
0.000000
  0
VERTEX
  8
LAYER-1
  6
LTYPE02
 10
3.745089
 20
0.081994
 30
0.000000
  0
VERTEX
  8
LAYER-1
  6
LTYPE02
 10
3.710667
 20
0.079126
 30
0.000000
  0
SEQEND
  8
LAYER-1
  0
POLYLINE
  8
LAYER-1
  6
LTYPE02
 66
  1
 70
  0
 62
  0
  6
LTYPE02
 10
3.745089
 20
0.080431
 30
0.000000
  0
VERTEX
  8
LAYER-1
  6
LTYPE02
 10
3.745089
 20
0.080431
 30
0.000000
  0
VERTEX
  8
LAYER-1
  6
LTYPE02
 10
3.710667
 20
0.077302
 30
0.000000
  0
SEQEND
  8
LAYER-1
  0
POLYLINE
  8
LAYER-1
  6
LTYPE02
 66
  1
 70
  0
 62
  0
  6
LTYPE02
 10
3.745218
 20
0.077627
 30
0.000000
  0
VERTEX
  8
LAYER-1
  6
LTYPE02
 10
3.745218
 20
0.077627
 30
0.000000
  0
VERTEX
  8
LAYER-1
  6
LTYPE02
 10
3.710797
 20
0.074758
 30
0.000000
  0
SEQEND
  8
LAYER-1
  0
POLYLINE
  8
LAYER-1
  6
LTYPE02
 66
  1
 70
  0
 62
  0
  6
LTYPE02
 10
3.745218
 20
0.076062
 30
0.000000
  0
VERTEX
  8
LAYER-1
  6
LTYPE02
 10
3.745218
 20
0.076062
 30
0.000000
  0
VERTEX
  8
LAYER-1
  6
LTYPE02
 10
3.710797
 20
0.072934
 30
0.000000
  0
SEQEND
  8
LAYER-1
  0
POLYLINE
  8
LAYER-1
  6
LTYPE02
 66
  1
 70
  0
 62
  0
  6
LTYPE02
 10
3.745218
 20
0.072673
 30
0.000000
  0
VERTEX
  8
LAYER-1
  6
LTYPE02
 10
3.745218
 20
0.072673
 30
0.000000
  0
VERTEX
  8
LAYER-1
  6
LTYPE02
 10
3.710797
 20
0.069804
 30
0.000000
  0
SEQEND
  8
LAYER-1
  0
POLYLINE
  8
LAYER-1
  6
LTYPE02
 66
  1
 70
  0
 62
  0
  6
LTYPE02
 10
3.745218
 20
0.071108
 30
0.000000
  0
VERTEX
  8
LAYER-1
  6
LTYPE02
 10
3.745218
 20
0.071108
 30
0.000000
  0
VERTEX
  8
LAYER-1
  6
LTYPE02
 10
3.710797
 20
0.067978
 30
0.000000
  0
SEQEND
  8
LAYER-1
  0
POLYLINE
  8
LAYER-1
  6
LTYPE02
 66
  1
 70
  0
 62
  0
  6
LTYPE02
 10
3.745218
 20
0.067523
 30
0.000000
  0
VERTEX
  8
LAYER-1
  6
LTYPE02
 10
3.745218
 20
0.067523
 30
0.000000
  0
VERTEX
  8
LAYER-1
  6
LTYPE02
 10
3.710797
 20
0.064652
 30
0.000000
  0
SEQEND
  8
LAYER-1
  0
POLYLINE
  8
LAYER-1
  6
LTYPE02
 66
  1
 70
  0
 62
  0
  6
LTYPE02
 10
3.745218
 20
0.065958
 30
0.000000
  0
VERTEX
  8
LAYER-1
  6
LTYPE02
 10
3.745218
 20
0.065958
 30
0.000000
  0
VERTEX
  8
LAYER-1
  6
LTYPE02
 10
3.722206
 20
0.063870
 30
0.000000
  0
SEQEND
  8
LAYER-1
  0
POLYLINE
  8
LAYER-1
 66
  1
 70
  0
 62
  0
 10
3.694055
 20
0.250857
 30
0.000000
  0
VERTEX
  8
LAYER-1
 10
3.694055
 20
0.250857
 30
0.000000
  0
VERTEX
  8
LAYER-1
 10
3.761855
 20
0.250857
 30
0.000000
  0
SEQEND
  8
LAYER-1
  0
POLYLINE
  8
LAYER-1
 66
  1
 70
  0
 62
  0
 10
2.178083
 20
7.143496
 30
0.000000
  0
VERTEX
  8
LAYER-1
 10
2.178083
 20
7.143496
 30
0.000000
  0
VERTEX
  8
LAYER-1
 10
2.213679
 20
7.143496
 30
0.000000
  0
SEQEND
  8
LAYER-1
  0
POLYLINE
  8
LAYER-1
 66
  1
 70
  0
 62
  0
 10
2.995953
 20
7.143496
 30
0.000000
  0
VERTEX
  8
LAYER-1
 10
2.995953
 20
7.143496
 30
0.000000
  0
VERTEX
  8
LAYER-1
 10
3.031548
 20
7.143496
 30
0.000000
  0
SEQEND
  8
LAYER-1
  0
POLYLINE
  8
LAYER-1
 66
  1
 70
  0
 62
  0
 10
3.644087
 20
7.143420
 30
0.000000
  0
VERTEX
  8
LAYER-1
 10
3.644087
 20
7.143420
 30
0.000000
  0
VERTEX
  8
LAYER-1
 10
3.679681
 20
7.143420
 30
0.000000
  0
SEQEND
  8
LAYER-1
  0
POLYLINE
  8
LAYER-1
 66
  1
 70
  0
 62
  0
 10
5.350243
 20
7.143495
 30
0.000000
  0
VERTEX
  8
LAYER-1
 10
5.350243
 20
7.143495
 30
0.000000
  0
VERTEX
  8
LAYER-1
 10
5.314648
 20
7.143495
 30
0.000000
  0
SEQEND
  8
LAYER-1
  0
POLYLINE
  8
LAYER-1
 66
  1
 70
  0
 62
  0
 10
4.532368
 20
7.143495
 30
0.000000
  0
VERTEX
  8
LAYER-1
 10
4.532368
 20
7.143495
 30
0.000000
  0
VERTEX
  8
LAYER-1
 10
4.496777
 20
7.143495
 30
0.000000
  0
SEQEND
  8
LAYER-1
  0
POLYLINE
  8
LAYER-1
 66
  1
 70
  0
 62
  0
 10
3.884230
 20
7.143419
 30
0.000000
  0
VERTEX
  8
LAYER-1
 10
3.884230
 20
7.143419
 30
0.000000
  0
VERTEX
  8
LAYER-1
 10
3.848638
 20
7.143419
 30
0.000000
  0
SEQEND
  8
LAYER-1
  0
TEXT
  8
LAYER-1
 62
  0
 10
1.083858
 20
7.075740
 30
0.000000
 40
0.125000
  1
Track
 72
  5
 11
1.569969
 21
7.075740
 31
0.000000
  0
TEXT
  8
LAYER-1
 62
  0
 10
5.889414
 20
5.561851
 30
0.000000
 40
0.125000
  1
Aluminum
 72
  5
 11
6.736636
 21
5.561851
 31
0.000000
  0
TEXT
  8
LAYER-1
 62
  0
 10
5.889414
 20
5.367406
 30
0.000000
 40
0.125000
  1
panels
 72
  5
 11
6.486636
 21
5.367406
 31
0.000000
  0
POLYLINE
  8
LAYER-1
 66
  1
 70
  0
 62
  0
 10
5.823007
 20
5.474177
 30
0.000000
  0
VERTEX
  8
LAYER-1
 10
5.823007
 20
5.474177
 30
0.000000
  0
VERTEX
  8
LAYER-1
 10
5.581931
 20
5.789271
 30
0.000000
  0
SEQEND
  8
LAYER-1
  0
POLYLINE
  8
LAYER-1
 66
  1
 70
  1
 62
  0
  0
VERTEX
  8
LAYER-1
 10
5.569970
 20
5.804906
 30
0.000000
  0
VERTEX
  8
LAYER-1
 10
5.645259
 20
5.775071
 30
0.000000
  0
VERTEX
  8
LAYER-1
 10
5.612167
 20
5.749752
 30
0.000000
  0
VERTEX
  8
LAYER-1
 10
5.579075
 20
5.724433
 30
0.000000
  0
VERTEX
  8
LAYER-1
 10
5.569970
 20
5.804906
 30
0.000000
  0
SEQEND
  8
LAYER-1
  0
POLYLINE
  8
LAYER-1
 66
  1
 70
  0
 62
  0
 10
0.013889
 20
4.481108
 30
0.000000
  0
VERTEX
  8
LAYER-1
 10
0.013889
 20
4.481108
 30
0.000000
  0
VERTEX
  8
LAYER-1
 10
0.013889
 20
2.782630
 30
0.000000
  0
SEQEND
  8
LAYER-1
  0
POLYLINE
  8
LAYER-1
 66
  1
 70
  0
 62
  0
 10
0.031292
 20
4.481108
 30
0.000000
  0
VERTEX
  8
LAYER-1
 10
0.031292
 20
4.481108
 30
0.000000
  0
VERTEX
  8
LAYER-1
 10
0.031292
 20
2.782630
 30
0.000000
  0
SEQEND
  8
LAYER-1
  0
POLYLINE
  8
LAYER-1
 66
  1
 70
  0
 62
  0
 10
0.145694
 20
4.481108
 30
0.000000
  0
VERTEX
  8
LAYER-1
 10
0.145694
 20
4.481108
 30
0.000000
  0
VERTEX
  8
LAYER-1
 10
0.145694
 20
2.782630
 30
0.000000
  0
SEQEND
  8
LAYER-1
  0
POLYLINE
  8
LAYER-1
 66
  1
 70
  0
 62
  0
 10
0.163098
 20
4.481108
 30
0.000000
  0
VERTEX
  8
LAYER-1
 10
0.163098
 20
4.481108
 30
0.000000
  0
VERTEX
  8
LAYER-1
 10
0.163098
 20
2.782630
 30
0.000000
  0
SEQEND
  8
LAYER-1
  0
POLYLINE
  8
LAYER-1
 66
  1
 70
  0
 62
  0
 10
0.162271
 20
4.481108
 30
0.000000
  0
VERTEX
  8
LAYER-1
 10
0.162271
 20
4.481108
 30
0.000000
  0
VERTEX
  8
LAYER-1
 10
0.162271
 20
2.782630
 30
0.000000
  0
SEQEND
  8
LAYER-1
  0
POLYLINE
  8
LAYER-1
 66
  1
 70
  0
 62
  0
 10
0.179675
 20
4.481108
 30
0.000000
  0
VERTEX
  8
LAYER-1
 10
0.179675
 20
4.481108
 30
0.000000
  0
VERTEX
  8
LAYER-1
 10
0.179675
 20
2.782630
 30
0.000000
  0
SEQEND
  8
LAYER-1
  0
POLYLINE
  8
LAYER-1
 66
  1
 70
  0
 62
  0
 10
0.294077
 20
4.481108
 30
0.000000
  0
VERTEX
  8
LAYER-1
 10
0.294077
 20
4.481108
 30
0.000000
  0
VERTEX
  8
LAYER-1
 10
0.294077
 20
2.782630
 30
0.000000
  0
SEQEND
  8
LAYER-1
  0
POLYLINE
  8
LAYER-1
 66
  1
 70
  0
 62
  0
 10
0.311480
 20
4.481108
 30
0.000000
  0
VERTEX
  8
LAYER-1
 10
0.311480
 20
4.481108
 30
0.000000
  0
VERTEX
  8
LAYER-1
 10
0.311480
 20
2.782630
 30
0.000000
  0
SEQEND
  8
LAYER-1
  0
POLYLINE
  8
LAYER-1
 66
  1
 70
  0
 62
  0
 10
0.310653
 20
4.481108
 30
0.000000
  0
VERTEX
  8
LAYER-1
 10
0.310653
 20
4.481108
 30
0.000000
  0
VERTEX
  8
LAYER-1
 10
0.310653
 20
2.782630
 30
0.000000
  0
SEQEND
  8
LAYER-1
  0
POLYLINE
  8
LAYER-1
 66
  1
 70
  0
 62
  0
 10
0.328057
 20
4.481108
 30
0.000000
  0
VERTEX
  8
LAYER-1
 10
0.328057
 20
4.481108
 30
0.000000
  0
VERTEX
  8
LAYER-1
 10
0.328057
 20
2.782630
 30
0.000000
  0
SEQEND
  8
LAYER-1
  0
POLYLINE
  8
LAYER-1
 66
  1
 70
  0
 62
  0
 10
0.442459
 20
4.481108
 30
0.000000
  0
VERTEX
  8
LAYER-1
 10
0.442459
 20
4.481108
 30
0.000000
  0
VERTEX
  8
LAYER-1
 10
0.442459
 20
2.782630
 30
0.000000
  0
SEQEND
  8
LAYER-1
  0
POLYLINE
  8
LAYER-1
 66
  1
 70
  0
 62
  0
 10
0.459861
 20
4.481108
 30
0.000000
  0
VERTEX
  8
LAYER-1
 10
0.459861
 20
4.481108
 30
0.000000
  0
VERTEX
  8
LAYER-1
 10
0.459861
 20
2.782630
 30
0.000000
  0
SEQEND
  8
LAYER-1
  0
POLYLINE
  8
LAYER-1
 66
  1
 70
  0
 62
  0
 10
0.459034
 20
4.481108
 30
0.000000
  0
VERTEX
  8
LAYER-1
 10
0.459034
 20
4.481108
 30
0.000000
  0
VERTEX
  8
LAYER-1
 10
0.459034
 20
2.782630
 30
0.000000
  0
SEQEND
  8
LAYER-1
  0
POLYLINE
  8
LAYER-1
 66
  1
 70
  0
 62
  0
 10
0.476437
 20
4.481108
 30
0.000000
  0
VERTEX
  8
LAYER-1
 10
0.476437
 20
4.481108
 30
0.000000
  0
VERTEX
  8
LAYER-1
 10
0.476437
 20
2.782630
 30
0.000000
  0
SEQEND
  8
LAYER-1
  0
POLYLINE
  8
LAYER-1
 66
  1
 70
  0
 62
  0
 10
0.590839
 20
4.481108
 30
0.000000
  0
VERTEX
  8
LAYER-1
 10
0.590839
 20
4.481108
 30
0.000000
  0
VERTEX
  8
LAYER-1
 10
0.590839
 20
2.782630
 30
0.000000
  0
SEQEND
  8
LAYER-1
  0
POLYLINE
  8
LAYER-1
 66
  1
 70
  0
 62
  0
 10
0.608244
 20
4.481108
 30
0.000000
  0
VERTEX
  8
LAYER-1
 10
0.608244
 20
4.481108
 30
0.000000
  0
VERTEX
  8
LAYER-1
 10
0.608244
 20
2.782630
 30
0.000000
  0
SEQEND
  8
LAYER-1
  0
POLYLINE
  8
LAYER-1
 66
  1
 70
  0
 62
  0
 10
0.607415
 20
4.481108
 30
0.000000
  0
VERTEX
  8
LAYER-1
 10
0.607415
 20
4.481108
 30
0.000000
  0
VERTEX
  8
LAYER-1
 10
0.607415
 20
2.782630
 30
0.000000
  0
SEQEND
  8
LAYER-1
  0
POLYLINE
  8
LAYER-1
 66
  1
 70
  0
 62
  0
 10
0.624820
 20
4.481108
 30
0.000000
  0
VERTEX
  8
LAYER-1
 10
0.624820
 20
4.481108
 30
0.000000
  0
VERTEX
  8
LAYER-1
 10
0.624820
 20
2.782630
 30
0.000000
  0
SEQEND
  8
LAYER-1
  0
POLYLINE
  8
LAYER-1
 66
  1
 70
  0
 62
  0
 10
0.739220
 20
4.481108
 30
0.000000
  0
VERTEX
  8
LAYER-1
 10
0.739220
 20
4.481108
 30
0.000000
  0
VERTEX
  8
LAYER-1
 10
0.739220
 20
2.782630
 30
0.000000
  0
SEQEND
  8
LAYER-1
  0
POLYLINE
  8
LAYER-1
 66
  1
 70
  0
 62
  0
 10
0.756625
 20
4.481108
 30
0.000000
  0
VERTEX
  8
LAYER-1
 10
0.756625
 20
4.481108
 30
0.000000
  0
VERTEX
  8
LAYER-1
 10
0.756625
 20
2.782630
 30
0.000000
  0
SEQEND
  8
LAYER-1
  0
POLYLINE
  8
LAYER-1
 66
  1
 70
  0
 62
  0
 10
0.755797
 20
4.481108
 30
0.000000
  0
VERTEX
  8
LAYER-1
 10
0.755797
 20
4.481108
 30
0.000000
  0
VERTEX
  8
LAYER-1
 10
0.755797
 20
2.782630
 30
0.000000
  0
SEQEND
  8
LAYER-1
  0
POLYLINE
  8
LAYER-1
 66
  1
 70
  0
 62
  0
 10
0.773200
 20
4.481108
 30
0.000000
  0
VERTEX
  8
LAYER-1
 10
0.773200
 20
4.481108
 30
0.000000
  0
VERTEX
  8
LAYER-1
 10
0.773200
 20
2.782630
 30
0.000000
  0
SEQEND
  8
LAYER-1
  0
POLYLINE
  8
LAYER-1
 66
  1
 70
  0
 62
  0
 10
0.887603
 20
4.481108
 30
0.000000
  0
VERTEX
  8
LAYER-1
 10
0.887603
 20
4.481108
 30
0.000000
  0
VERTEX
  8
LAYER-1
 10
0.887603
 20
2.782630
 30
0.000000
  0
SEQEND
  8
LAYER-1
  0
POLYLINE
  8
LAYER-1
 66
  1
 70
  0
 62
  0
 10
0.905008
 20
4.481108
 30
0.000000
  0
VERTEX
  8
LAYER-1
 10
0.905008
 20
4.481108
 30
0.000000
  0
VERTEX
  8
LAYER-1
 10
0.905008
 20
2.782630
 30
0.000000
  0
SEQEND
  8
LAYER-1
  0
POLYLINE
  8
LAYER-1
 66
  1
 70
  0
 62
  0
 10
0.904180
 20
4.481108
 30
0.000000
  0
VERTEX
  8
LAYER-1
 10
0.904180
 20
4.481108
 30
0.000000
  0
VERTEX
  8
LAYER-1
 10
0.904180
 20
2.782630
 30
0.000000
  0
SEQEND
  8
LAYER-1
  0
POLYLINE
  8
LAYER-1
 66
  1
 70
  0
 62
  0
 10
0.921583
 20
4.481108
 30
0.000000
  0
VERTEX
  8
LAYER-1
 10
0.921583
 20
4.481108
 30
0.000000
  0
VERTEX
  8
LAYER-1
 10
0.921583
 20
2.782630
 30
0.000000
  0
SEQEND
  8
LAYER-1
  0
POLYLINE
  8
LAYER-1
 66
  1
 70
  0
 62
  0
 10
1.035985
 20
4.481108
 30
0.000000
  0
VERTEX
  8
LAYER-1
 10
1.035985
 20
4.481108
 30
0.000000
  0
VERTEX
  8
LAYER-1
 10
1.035985
 20
2.782630
 30
0.000000
  0
SEQEND
  8
LAYER-1
  0
POLYLINE
  8
LAYER-1
 66
  1
 70
  0
 62
  0
 10
1.053388
 20
4.481108
 30
0.000000
  0
VERTEX
  8
LAYER-1
 10
1.053388
 20
4.481108
 30
0.000000
  0
VERTEX
  8
LAYER-1
 10
1.053388
 20
2.782630
 30
0.000000
  0
SEQEND
  8
LAYER-1
  0
POLYLINE
  8
LAYER-1
 66
  1
 70
  1
 62
  0
  0
VERTEX
  8
LAYER-1
 10
0.031292
 20
4.480448
 30
0.000000
  0
VERTEX
  8
LAYER-1
 10
0.145759
 20
4.480448
 30
0.000000
  0
VERTEX
  8
LAYER-1
 10
0.145759
 20
2.784052
 30
0.000000
  0
VERTEX
  8
LAYER-1
 10
0.031292
 20
2.784052
 30
0.000000
  0
SEQEND
  8
LAYER-1
  0
POLYLINE
  8
LAYER-1
 66
  1
 70
  1
 62
  0
  0
VERTEX
  8
LAYER-1
 10
0.179593
 20
4.376416
 30
0.000000
  0
VERTEX
  8
LAYER-1
 10
0.294205
 20
4.376416
 30
0.000000
  0
VERTEX
  8
LAYER-1
 10
0.294205
 20
2.783984
 30
0.000000
  0
VERTEX
  8
LAYER-1
 10
0.179593
 20
2.783984
 30
0.000000
  0
SEQEND
  8
LAYER-1
  0
POLYLINE
  8
LAYER-1
 66
  1
 70
  1
 62
  0
  0
VERTEX
  8
LAYER-1
 10
0.476338
 20
4.376416
 30
0.000000
  0
VERTEX
  8
LAYER-1
 10
0.590803
 20
4.376416
 30
0.000000
  0
VERTEX
  8
LAYER-1
 10
0.590803
 20
2.783984
 30
0.000000
  0
VERTEX
  8
LAYER-1
 10
0.476338
 20
2.783984
 30
0.000000
  0
SEQEND
  8
LAYER-1
  0
POLYLINE
  8
LAYER-1
 66
  1
 70
  1
 62
  0
  0
VERTEX
  8
LAYER-1
 10
0.773228
 20
4.376416
 30
0.000000
  0
VERTEX
  8
LAYER-1
 10
0.887695
 20
4.376416
 30
0.000000
  0
VERTEX
  8
LAYER-1
 10
0.887695
 20
2.783984
 30
0.000000
  0
VERTEX
  8
LAYER-1
 10
0.773228
 20
2.783984
 30
0.000000
  0
SEQEND
  8
LAYER-1
  0
POLYLINE
  8
LAYER-1
 66
  1
 70
  1
 62
  0
  0
VERTEX
  8
LAYER-1
 10
0.328038
 20
4.480448
 30
0.000000
  0
VERTEX
  8
LAYER-1
 10
0.442504
 20
4.480448
 30
0.000000
  0
VERTEX
  8
LAYER-1
 10
0.442504
 20
2.784052
 30
0.000000
  0
VERTEX
  8
LAYER-1
 10
0.328038
 20
2.784052
 30
0.000000
  0
SEQEND
  8
LAYER-1
  0
POLYLINE
  8
LAYER-1
 66
  1
 70
  1
 62
  0
  0
VERTEX
  8
LAYER-1
 10
0.624929
 20
4.480448
 30
0.000000
  0
VERTEX
  8
LAYER-1
 10
0.739247
 20
4.480448
 30
0.000000
  0
VERTEX
  8
LAYER-1
 10
0.739247
 20
2.784052
 30
0.000000
  0
VERTEX
  8
LAYER-1
 10
0.624929
 20
2.784052
 30
0.000000
  0
SEQEND
  8
LAYER-1
  0
POLYLINE
  8
LAYER-1
 66
  1
 70
  1
 62
  0
  0
VERTEX
  8
LAYER-1
 10
0.921676
 20
4.480448
 30
0.000000
  0
VERTEX
  8
LAYER-1
 10
1.035995
 20
4.480448
 30
0.000000
  0
VERTEX
  8
LAYER-1
 10
1.035995
 20
2.784052
 30
0.000000
  0
VERTEX
  8
LAYER-1
 10
0.921676
 20
2.784052
 30
0.000000
  0
SEQEND
  8
LAYER-1
  0
POLYLINE
  8
LAYER-1
 66
  1
 70
  0
 62
  0
 10
0.013889
 20
4.481108
 30
0.000000
  0
VERTEX
  8
LAYER-1
 10
0.013889
 20
4.481108
 30
0.000000
  0
VERTEX
  8
LAYER-1
 10
1.053388
 20
4.481108
 30
0.000000
  0
SEQEND
  8
LAYER-1
  0
POLYLINE
  8
LAYER-1
 66
  1
 70
  0
 62
  0
 10
0.013889
 20
2.782630
 30
0.000000
  0
VERTEX
  8
LAYER-1
 10
0.013889
 20
2.782630
 30
0.000000
  0
VERTEX
  8
LAYER-1
 10
1.053388
 20
2.782630
 30
0.000000
  0
SEQEND
  8
LAYER-1
  0
TEXT
  8
LAYER-1
 62
  0
 10
0.208858
 20
2.575740
 30
0.000000
 40
0.104167
  1
GLOBAL
 72
  5
 11
0.861636
 21
2.575740
 31
0.000000
  0
TEXT
  8
LAYER-1
 62
  0
 10
0.264414
 20
2.478517
 30
0.000000
 40
0.083333
  1
(Opaque)
 72
  5
 11
0.778303
 21
2.478517
 31
0.000000
  0
POLYLINE
  8
LAYER-1
 66
  1
 70
  1
 62
  0
  0
VERTEX
  8
LAYER-1
 10
0.179894
 20
4.481037
 30
0.000000
  0
VERTEX
  8
LAYER-1
 10
0.294505
 20
4.481037
 30
0.000000
  0
VERTEX
  8
LAYER-1
 10
0.294505
 20
4.377402
 30
0.000000
  0
VERTEX
  8
LAYER-1
 10
0.179894
 20
4.377402
 30
0.000000
  0
SEQEND
  8
LAYER-1
  0
POLYLINE
  8
LAYER-1
 66
  1
 70
  1
 62
  0
  0
VERTEX
  8
LAYER-1
 10
0.476639
 20
4.481037
 30
0.000000
  0
VERTEX
  8
LAYER-1
 10
0.591104
 20
4.481037
 30
0.000000
  0
VERTEX
  8
LAYER-1
 10
0.591104
 20
4.377402
 30
0.000000
  0
VERTEX
  8
LAYER-1
 10
0.476639
 20
4.377402
 30
0.000000
  0
SEQEND
  8
LAYER-1
  0
POLYLINE
  8
LAYER-1
 66
  1
 70
  1
 62
  0
  0
VERTEX
  8
LAYER-1
 10
0.773529
 20
4.481037
 30
0.000000
  0
VERTEX
  8
LAYER-1
 10
0.887995
 20
4.481037
 30
0.000000
  0
VERTEX
  8
LAYER-1
 10
0.887995
 20
4.377402
 30
0.000000
  0
VERTEX
  8
LAYER-1
 10
0.773529
 20
4.377402
 30
0.000000
  0
SEQEND
  8
LAYER-1
  0
POLYLINE
  8
LAYER-1
 66
  1
 70
  0
 62
  7
 10
0.179894
 20
4.377402
 30
0.000000
  0
VERTEX
  8
LAYER-1
 10
0.179894
 20
4.377402
 30
0.000000
  0
VERTEX
  8
LAYER-1
 10
0.294505
 20
4.377402
 30
0.000000
  0
SEQEND
  8
LAYER-1
  0
POLYLINE
  8
LAYER-1
 66
  1
 70
  0
 62
  7
 10
0.476639
 20
4.377402
 30
0.000000
  0
VERTEX
  8
LAYER-1
 10
0.476639
 20
4.377402
 30
0.000000
  0
VERTEX
  8
LAYER-1
 10
0.591104
 20
4.377402
 30
0.000000
  0
SEQEND
  8
LAYER-1
  0
POLYLINE
  8
LAYER-1
 66
  1
 70
  0
 62
  7
 10
0.773529
 20
4.377402
 30
0.000000
  0
VERTEX
  8
LAYER-1
 10
0.773529
 20
4.377402
 30
0.000000
  0
VERTEX
  8
LAYER-1
 10
0.887995
 20
4.377402
 30
0.000000
  0
SEQEND
  8
LAYER-1
  0
POLYLINE
  8
LAYER-1
 66
  1
 70
  0
 62
  7
 10
0.229958
 20
4.481042
 30
0.000000
  0
VERTEX
  8
LAYER-1
 10
0.229958
 20
4.481042
 30
0.000000
  0
VERTEX
  8
LAYER-1
 10
0.229958
 20
4.377737
 30
0.000000
  0
SEQEND
  8
LAYER-1
  0
POLYLINE
  8
LAYER-1
 66
  1
 70
  0
 62
  7
 10
0.241878
 20
4.481042
 30
0.000000
  0
VERTEX
  8
LAYER-1
 10
0.241878
 20
4.481042
 30
0.000000
  0
VERTEX
  8
LAYER-1
 10
0.241878
 20
4.377737
 30
0.000000
  0
SEQEND
  8
LAYER-1
  0
POLYLINE
  8
LAYER-1
 66
  1
 70
  0
 62
  7
 10
0.527954
 20
4.482630
 30
0.000000
  0
VERTEX
  8
LAYER-1
 10
0.527954
 20
4.482630
 30
0.000000
  0
VERTEX
  8
LAYER-1
 10
0.527954
 20
4.379325
 30
0.000000
  0
SEQEND
  8
LAYER-1
  0
POLYLINE
  8
LAYER-1
 66
  1
 70
  0
 62
  7
 10
0.539873
 20
4.482630
 30
0.000000
  0
VERTEX
  8
LAYER-1
 10
0.539873
 20
4.482630
 30
0.000000
  0
VERTEX
  8
LAYER-1
 10
0.539873
 20
4.379325
 30
0.000000
  0
SEQEND
  8
LAYER-1
  0
POLYLINE
  8
LAYER-1
 66
  1
 70
  0
 62
  7
 10
0.825155
 20
4.480247
 30
0.000000
  0
VERTEX
  8
LAYER-1
 10
0.825155
 20
4.480247
 30
0.000000
  0
VERTEX
  8
LAYER-1
 10
0.825155
 20
4.376943
 30
0.000000
  0
SEQEND
  8
LAYER-1
  0
POLYLINE
  8
LAYER-1
 66
  1
 70
  0
 62
  7
 10
0.837075
 20
4.480247
 30
0.000000
  0
VERTEX
  8
LAYER-1
 10
0.837075
 20
4.480247
 30
0.000000
  0
VERTEX
  8
LAYER-1
 10
0.837075
 20
4.376943
 30
0.000000
  0
SEQEND
  8
LAYER-1
  0
POLYLINE
  8
LAYER-1
 66
  1
 70
  0
 62
  0
 10
0.771443
 20
0.037543
 30
0.000000
  0
VERTEX
  8
LAYER-1
 10
0.771443
 20
0.037543
 30
0.000000
  0
VERTEX
  8
LAYER-1
 10
0.797983
 20
0.034087
 30
0.000000
  0
VERTEX
  8
LAYER-1
 10
0.817362
 20
0.034087
 30
0.000000
  0
VERTEX
  8
LAYER-1
 10
0.836740
 20
0.037560
 30
0.000000
  0
VERTEX
  8
LAYER-1
 10
0.856118
 20
0.037560
 30
0.000000
  0
VERTEX
  8
LAYER-1
 10
0.902626
 20
0.044504
 30
0.000000
  0
VERTEX
  8
LAYER-1
 10
0.937507
 20
0.054921
 30
0.000000
  0
VERTEX
  8
LAYER-1
 10
0.959792
 20
0.059261
 30
0.000000
  0
VERTEX
  8
LAYER-1
 10
0.981593
 20
0.060998
 30
0.000000
  0
VERTEX
  8
LAYER-1
 10
1.011145
 20
0.058393
 30
0.000000
  0
VERTEX
  8
LAYER-1
 10
1.042150
 20
0.054921
 30
0.000000
  0
VERTEX
  8
LAYER-1
 10
1.069280
 20
0.047977
 30
0.000000
  0
VERTEX
  8
LAYER-1
 10
1.088658
 20
0.044504
 30
0.000000
  0
VERTEX
  8
LAYER-1
 10
1.119663
 20
0.041033
 30
0.000000
  0
VERTEX
  8
LAYER-1
 10
1.139042
 20
0.037560
 30
0.000000
  0
VERTEX
  8
LAYER-1
 10
1.162296
 20
0.034087
 30
0.000000
  0
VERTEX
  8
LAYER-1
 10
1.189425
 20
0.034087
 30
0.000000
  0
VERTEX
  8
LAYER-1
 10
1.216555
 20
0.034087
 30
0.000000
  0
VERTEX
  8
LAYER-1
 10
1.239809
 20
0.034087
 30
0.000000
  0
VERTEX
  8
LAYER-1
 10
1.263063
 20
0.030616
 30
0.000000
  0
VERTEX
  8
LAYER-1
 10
1.301821
 20
0.030616
 30
0.000000
  0
VERTEX
  8
LAYER-1
 10
1.332827
 20
0.030616
 30
0.000000
  0
VERTEX
  8
LAYER-1
 10
1.352204
 20
0.027143
 30
0.000000
  0
VERTEX
  8
LAYER-1
 10
1.383210
 20
0.023671
 30
0.000000
  0
VERTEX
  8
LAYER-1
 10
1.414216
 20
0.020198
 30
0.000000
  0
VERTEX
  8
LAYER-1
 10
1.452972
 20
0.020198
 30
0.000000
  0
VERTEX
  8
LAYER-1
 10
1.483978
 20
0.020198
 30
0.000000
  0
VERTEX
  8
LAYER-1
 10
1.522734
 20
0.020198
 30
0.000000
  0
VERTEX
  8
LAYER-1
 10
1.553739
 20
0.027143
 30
0.000000
  0
VERTEX
  8
LAYER-1
 10
1.576993
 20
0.027143
 30
0.000000
  0
VERTEX
  8
LAYER-1
 10
1.596371
 20
0.030616
 30
0.000000
  0
VERTEX
  8
LAYER-1
 10
1.619626
 20
0.030616
 30
0.000000
  0
VERTEX
  8
LAYER-1
 10
1.639004
 20
0.030616
 30
0.000000
  0
VERTEX
  8
LAYER-1
 10
1.681636
 20
0.030616
 30
0.000000
  0
VERTEX
  8
LAYER-1
 10
1.728145
 20
0.023671
 30
0.000000
  0
VERTEX
  8
LAYER-1
 10
1.770776
 20
0.020198
 30
0.000000
  0
VERTEX
  8
LAYER-1
 10
1.832787
 20
0.013254
 30
0.000000
  0
VERTEX
  8
LAYER-1
 10
1.890922
 20
0.006310
 30
0.000000
  0
VERTEX
  8
LAYER-1
 10
1.941305
 20
0.006310
 30
0.000000
  0
VERTEX
  8
LAYER-1
 10
1.968435
 20
0.006310
 30
0.000000
  0
VERTEX
  8
LAYER-1
 10
2.003316
 20
0.006310
 30
0.000000
  0
VERTEX
  8
LAYER-1
 10
2.023663
 20
0.007178
 30
0.000000
  0
VERTEX
  8
LAYER-1
 10
2.060966
 20
0.009348
 30
0.000000
  0
VERTEX
  8
LAYER-1
 10
2.107959
 20
0.020198
 30
0.000000
  0
VERTEX
  8
LAYER-1
 10
2.150591
 20
0.034087
 30
0.000000
  0
VERTEX
  8
LAYER-1
 10
2.185472
 20
0.044504
 30
0.000000
  0
VERTEX
  8
LAYER-1
 10
2.212602
 20
0.054921
 30
0.000000
  0
VERTEX
  8
LAYER-1
 10
2.235856
 20
0.061866
 30
0.000000
  0
VERTEX
  8
LAYER-1
 10
2.259110
 20
0.061866
 30
0.000000
  0
VERTEX
  8
LAYER-1
 10
2.282364
 20
0.061866
 30
0.000000
  0
VERTEX
  8
LAYER-1
 10
2.305618
 20
0.061866
 30
0.000000
  0
VERTEX
  8
LAYER-1
 10
2.340499
 20
0.054921
 30
0.000000
  0
VERTEX
  8
LAYER-1
 10
2.371504
 20
0.047977
 30
0.000000
  0
VERTEX
  8
LAYER-1
 10
2.394758
 20
0.041033
 30
0.000000
  0
VERTEX
  8
LAYER-1
 10
2.414136
 20
0.037560
 30
0.000000
  0
VERTEX
  8
LAYER-1
 10
2.437390
 20
0.030616
 30
0.000000
  0
VERTEX
  8
LAYER-1
 10
2.456768
 20
0.023671
 30
0.000000
  0
VERTEX
  8
LAYER-1
 10
2.480022
 20
0.020198
 30
0.000000
  0
VERTEX
  8
LAYER-1
 10
2.499401
 20
0.020198
 30
0.000000
  0
VERTEX
  8
LAYER-1
 10
2.530406
 20
0.016727
 30
0.000000
  0
VERTEX
  8
LAYER-1
 10
2.557536
 20
0.016727
 30
0.000000
  0
VERTEX
  8
LAYER-1
 10
2.592417
 20
0.016727
 30
0.000000
  0
VERTEX
  8
LAYER-1
 10
2.619546
 20
0.020198
 30
0.000000
  0
VERTEX
  8
LAYER-1
 10
2.654428
 20
0.030616
 30
0.000000
  0
VERTEX
  8
LAYER-1
 10
2.673805
 20
0.030616
 30
0.000000
  0
VERTEX
  8
LAYER-1
 10
2.697060
 20
0.030616
 30
0.000000
  0
VERTEX
  8
LAYER-1
 10
2.716438
 20
0.030616
 30
0.000000
  0
VERTEX
  8
LAYER-1
 10
2.739692
 20
0.034087
 30
0.000000
  0
VERTEX
  8
LAYER-1
 10
2.762946
 20
0.037560
 30
0.000000
  0
VERTEX
  8
LAYER-1
 10
2.793951
 20
0.037560
 30
0.000000
  0
VERTEX
  8
LAYER-1
 10
2.824957
 20
0.037560
 30
0.000000
  0
VERTEX
  8
LAYER-1
 10
2.848210
 20
0.037560
 30
0.000000
  0
VERTEX
  8
LAYER-1
 10
2.871464
 20
0.037560
 30
0.000000
  0
VERTEX
  8
LAYER-1
 10
2.890843
 20
0.034087
 30
0.000000
  0
VERTEX
  8
LAYER-1
 10
2.910222
 20
0.030616
 30
0.000000
  0
VERTEX
  8
LAYER-1
 10
2.929600
 20
0.027143
 30
0.000000
  0
VERTEX
  8
LAYER-1
 10
2.948978
 20
0.023671
 30
0.000000
  0
VERTEX
  8
LAYER-1
 10
2.979984
 20
0.016727
 30
0.000000
  0
VERTEX
  8
LAYER-1
 10
3.003237
 20
0.013254
 30
0.000000
  0
VERTEX
  8
LAYER-1
 10
3.026491
 20
0.013254
 30
0.000000
  0
VERTEX
  8
LAYER-1
 10
3.045869
 20
0.013254
 30
0.000000
  0
VERTEX
  8
LAYER-1
 10
3.072999
 20
0.013254
 30
0.000000
  0
VERTEX
  8
LAYER-1
 10
3.104004
 20
0.016727
 30
0.000000
  0
VERTEX
  8
LAYER-1
 10
3.158263
 20
0.027143
 30
0.000000
  0
VERTEX
  8
LAYER-1
 10
3.204771
 20
0.037560
 30
0.000000
  0
VERTEX
  8
LAYER-1
 10
3.247403
 20
0.044504
 30
0.000000
  0
VERTEX
  8
LAYER-1
 10
3.278409
 20
0.047977
 30
0.000000
  0
VERTEX
  8
LAYER-1
 10
3.317165
 20
0.051448
 30
0.000000
  0
VERTEX
  8
LAYER-1
 10
3.348171
 20
0.054921
 30
0.000000
  0
VERTEX
  8
LAYER-1
 10
3.373847
 20
0.055790
 30
0.000000
  0
VERTEX
  8
LAYER-1
 10
3.391287
 20
0.053619
 30
0.000000
  0
VERTEX
  8
LAYER-1
 10
3.412604
 20
0.048845
 30
0.000000
  0
VERTEX
  8
LAYER-1
 10
3.433435
 20
0.037560
 30
0.000000
  0
VERTEX
  8
LAYER-1
 10
3.456689
 20
0.034087
 30
0.000000
  0
VERTEX
  8
LAYER-1
 10
3.476068
 20
0.034087
 30
0.000000
  0
VERTEX
  8
LAYER-1
 10
3.495446
 20
0.034087
 30
0.000000
  0
VERTEX
  8
LAYER-1
 10
3.514826
 20
0.034087
 30
0.000000
  0
VERTEX
  8
LAYER-1
 10
3.545831
 20
0.034087
 30
0.000000
  0
VERTEX
  8
LAYER-1
 10
3.569085
 20
0.034087
 30
0.000000
  0
VERTEX
  8
LAYER-1
 10
3.592339
 20
0.034087
 30
0.000000
  0
VERTEX
  8
LAYER-1
 10
3.611718
 20
0.034087
 30
0.000000
  0
VERTEX
  8
LAYER-1
 10
3.634972
 20
0.034087
 30
0.000000
  0
VERTEX
  8
LAYER-1
 10
3.658226
 20
0.034087
 30
0.000000
  0
VERTEX
  8
LAYER-1
 10
3.677604
 20
0.034087
 30
0.000000
  0
VERTEX
  8
LAYER-1
 10
3.704734
 20
0.034087
 30
0.000000
  0
VERTEX
  8
LAYER-1
 10
3.727987
 20
0.030616
 30
0.000000
  0
VERTEX
  8
LAYER-1
 10
3.750273
 20
0.022803
 30
0.000000
  0
VERTEX
  8
LAYER-1
 10
3.790967
 20
0.020198
 30
0.000000
  0
VERTEX
  8
LAYER-1
 10
3.828755
 20
0.023671
 30
0.000000
  0
VERTEX
  8
LAYER-1
 10
3.848133
 20
0.030616
 30
0.000000
  0
VERTEX
  8
LAYER-1
 10
3.871387
 20
0.037560
 30
0.000000
  0
VERTEX
  8
LAYER-1
 10
3.891251
 20
0.041467
 30
0.000000
  0
VERTEX
  8
LAYER-1
 10
3.914020
 20
0.047977
 30
0.000000
  0
VERTEX
  8
LAYER-1
 10
3.937272
 20
0.047977
 30
0.000000
  0
VERTEX
  8
LAYER-1
 10
3.960527
 20
0.044504
 30
0.000000
  0
VERTEX
  8
LAYER-1
 10
3.983782
 20
0.044504
 30
0.000000
  0
VERTEX
  8
LAYER-1
 10
4.007035
 20
0.044504
 30
0.000000
  0
VERTEX
  8
LAYER-1
 10
4.026415
 20
0.041033
 30
0.000000
  0
VERTEX
  8
LAYER-1
 10
4.053544
 20
0.041033
 30
0.000000
  0
VERTEX
  8
LAYER-1
 10
4.084549
 20
0.041033
 30
0.000000
  0
VERTEX
  8
LAYER-1
 10
4.115554
 20
0.047977
 30
0.000000
  0
VERTEX
  8
LAYER-1
 10
4.134933
 20
0.051448
 30
0.000000
  0
VERTEX
  8
LAYER-1
 10
4.162062
 20
0.051448
 30
0.000000
  0
VERTEX
  8
LAYER-1
 10
4.185316
 20
0.054921
 30
0.000000
  0
VERTEX
  8
LAYER-1
 10
4.216321
 20
0.058393
 30
0.000000
  0
VERTEX
  8
LAYER-1
 10
4.239575
 20
0.058393
 30
0.000000
  0
VERTEX
  8
LAYER-1
 10
4.270581
 20
0.054921
 30
0.000000
  0
VERTEX
  8
LAYER-1
 10
4.313213
 20
0.044504
 30
0.000000
  0
VERTEX
  8
LAYER-1
 10
4.344218
 20
0.034087
 30
0.000000
  0
VERTEX
  8
LAYER-1
 10
4.379100
 20
0.023671
 30
0.000000
  0
VERTEX
  8
LAYER-1
 10
4.422217
 20
0.016726
 30
0.000000
  0
VERTEX
  8
LAYER-1
 10
4.469693
 20
0.017593
 30
0.000000
  0
VERTEX
  8
LAYER-1
 10
4.524921
 20
0.020198
 30
0.000000
  0
VERTEX
  8
LAYER-1
 10
4.592261
 20
0.020198
 30
0.000000
  0
VERTEX
  8
LAYER-1
 10
4.637800
 20
0.008914
 30
0.000000
  0
VERTEX
  8
LAYER-1
 10
4.667836
 20
0.002836
 30
0.000000
  0
VERTEX
  8
LAYER-1
 10
4.691090
 20
0.001968
 30
0.000000
  0
VERTEX
  8
LAYER-1
 10
4.725972
 20
0.001970
 30
0.000000
  0
VERTEX
  8
LAYER-1
 10
4.751163
 20
0.006310
 30
0.000000
  0
VERTEX
  8
LAYER-1
 10
4.778293
 20
0.016727
 30
0.000000
  0
VERTEX
  8
LAYER-1
 10
4.813174
 20
0.023671
 30
0.000000
  0
VERTEX
  8
LAYER-1
 10
4.840303
 20
0.030616
 30
0.000000
  0
VERTEX
  8
LAYER-1
 10
4.863558
 20
0.034087
 30
0.000000
  0
VERTEX
  8
LAYER-1
 10
4.886811
 20
0.037560
 30
0.000000
  0
VERTEX
  8
LAYER-1
 10
4.913940
 20
0.041033
 30
0.000000
  0
VERTEX
  8
LAYER-1
 10
4.941070
 20
0.047977
 30
0.000000
  0
VERTEX
  8
LAYER-1
 10
4.960448
 20
0.051448
 30
0.000000
  0
VERTEX
  8
LAYER-1
 10
4.991454
 20
0.054921
 30
0.000000
  0
VERTEX
  8
LAYER-1
 10
5.014708
 20
0.061866
 30
0.000000
  0
VERTEX
  8
LAYER-1
 10
5.038446
 20
0.072717
 30
0.000000
  0
VERTEX
  8
LAYER-1
 10
5.061215
 20
0.079227
 30
0.000000
  0
VERTEX
  8
LAYER-1
 10
5.084470
 20
0.079227
 30
0.000000
  0
VERTEX
  8
LAYER-1
 10
5.111599
 20
0.079227
 30
0.000000
  0
VERTEX
  8
LAYER-1
 10
5.138728
 20
0.079227
 30
0.000000
  0
VERTEX
  8
LAYER-1
 10
5.177486
 20
0.075754
 30
0.000000
  0
VERTEX
  8
LAYER-1
 10
5.231745
 20
0.072283
 30
0.000000
  0
VERTEX
  8
LAYER-1
 10
5.274377
 20
0.072283
 30
0.000000
  0
VERTEX
  8
LAYER-1
 10
5.305381
 20
0.072283
 30
0.000000
  0
VERTEX
  8
LAYER-1
 10
5.328636
 20
0.072283
 30
0.000000
  0
VERTEX
  8
LAYER-1
 10
5.351891
 20
0.072283
 30
0.000000
  0
VERTEX
  8
LAYER-1
 10
5.382895
 20
0.075754
 30
0.000000
  0
VERTEX
  8
LAYER-1
 10
5.421652
 20
0.075754
 30
0.000000
  0
VERTEX
  8
LAYER-1
 10
5.452657
 20
0.075754
 30
0.000000
  0
VERTEX
  8
LAYER-1
 10
5.475911
 20
0.079227
 30
0.000000
  0
VERTEX
  8
LAYER-1
 10
5.506916
 20
0.079227
 30
0.000000
  0
VERTEX
  8
LAYER-1
 10
5.526295
 20
0.079227
 30
0.000000
  0
VERTEX
  8
LAYER-1
 10
5.557300
 20
0.070546
 30
0.000000
  0
VERTEX
  8
LAYER-1
 10
5.584429
 20
0.058393
 30
0.000000
  0
VERTEX
  8
LAYER-1
 10
5.619310
 20
0.044504
 30
0.000000
  0
VERTEX
  8
LAYER-1
 10
5.646439
 20
0.037560
 30
0.000000
  0
VERTEX
  8
LAYER-1
 10
5.677446
 20
0.030616
 30
0.000000
  0
VERTEX
  8
LAYER-1
 10
5.705060
 20
0.028446
 30
0.000000
  0
VERTEX
  8
LAYER-1
 10
5.731705
 20
0.027143
 30
0.000000
  0
VERTEX
  8
LAYER-1
 10
5.754959
 20
0.030616
 30
0.000000
  0
VERTEX
  8
LAYER-1
 10
5.778213
 20
0.037560
 30
0.000000
  0
VERTEX
  8
LAYER-1
 10
5.805343
 20
0.041033
 30
0.000000
  0
VERTEX
  8
LAYER-1
 10
5.828596
 20
0.044504
 30
0.000000
  0
VERTEX
  8
LAYER-1
 10
5.851851
 20
0.047977
 30
0.000000
  0
VERTEX
  8
LAYER-1
 10
5.871229
 20
0.051448
 30
0.000000
  0
VERTEX
  8
LAYER-1
 10
5.894483
 20
0.051448
 30
0.000000
  0
VERTEX
  8
LAYER-1
 10
5.921612
 20
0.051448
 30
0.000000
  0
VERTEX
  8
LAYER-1
 10
5.941475
 20
0.054053
 30
0.000000
  0
VERTEX
  8
LAYER-1
 10
5.968120
 20
0.058393
 30
0.000000
  0
VERTEX
  8
LAYER-1
 10
5.991374
 20
0.065337
 30
0.000000
  0
VERTEX
  8
LAYER-1
 10
6.022379
 20
0.065337
 30
0.000000
  0
VERTEX
  8
LAYER-1
 10
6.053385
 20
0.065337
 30
0.000000
  0
VERTEX
  8
LAYER-1
 10
6.072762
 20
0.065337
 30
0.000000
  0
VERTEX
  8
LAYER-1
 10
6.127022
 20
0.058393
 30
0.000000
  0
VERTEX
  8
LAYER-1
 10
6.158028
 20
0.051448
 30
0.000000
  0
VERTEX
  8
LAYER-1
 10
6.177405
 20
0.047977
 30
0.000000
  0
VERTEX
  8
LAYER-1
 10
6.212286
 20
0.047977
 30
0.000000
  0
VERTEX
  8
LAYER-1
 10
6.236025
 20
0.055355
 30
0.000000
  0
VERTEX
  8
LAYER-1
 10
6.257825
 20
0.056223
 30
0.000000
  0
VERTEX
  8
LAYER-1
 10
6.309663
 20
0.063167
 30
0.000000
  0
VERTEX
  8
LAYER-1
 10
6.358108
 20
0.073150
 30
0.000000
  0
VERTEX
  8
LAYER-1
 10
6.394443
 20
0.076623
 30
0.000000
  0
VERTEX
  8
LAYER-1
 10
6.427386
 20
0.077056
 30
0.000000
  0
VERTEX
  8
LAYER-1
 10
6.444341
 20
0.072283
 30
0.000000
  0
VERTEX
  8
LAYER-1
 10
6.462751
 20
0.068810
 30
0.000000
  0
VERTEX
  8
LAYER-1
 10
6.493757
 20
0.063602
 30
0.000000
  0
VERTEX
  8
LAYER-1
 10
6.533966
 20
0.071848
 30
0.000000
  0
VERTEX
  8
LAYER-1
 10
6.549469
 20
0.079227
 30
0.000000
  0
VERTEX
  8
LAYER-1
 10
6.572723
 20
0.079227
 30
0.000000
  0
VERTEX
  8
LAYER-1
 10
6.595977
 20
0.079227
 30
0.000000
  0
VERTEX
  8
LAYER-1
 10
6.623107
 20
0.072283
 30
0.000000
  0
VERTEX
  8
LAYER-1
 10
6.646361
 20
0.058393
 30
0.000000
  0
VERTEX
  8
LAYER-1
 10
6.673490
 20
0.047977
 30
0.000000
  0
VERTEX
  8
LAYER-1
 10
6.700620
 20
0.037560
 30
0.000000
  0
VERTEX
  8
LAYER-1
 10
6.723874
 20
0.037560
 30
0.000000
  0
VERTEX
  8
LAYER-1
 10
6.753966
 20
0.037543
 30
0.000000
  0
VERTEX
  8
LAYER-1
 10
6.778134
 20
0.047977
 30
0.000000
  0
SEQEND
  8
LAYER-1
  0
TEXT
  8
LAYER-1
 62
  0
 10
5.847747
 20
0.547962
 30
0.000000
 40
0.125000
  1
Dustproof
 72
  5
 11
6.667191
 21
0.547962
 31
0.000000
  0
TEXT
  8
LAYER-1
 62
  0
 10
5.847747
 20
0.353517
 30
0.000000
 40
0.125000
  1
floor socket
 72
  5
 11
6.792191
 21
0.353517
 31
0.000000
  0
POLYLINE
  8
LAYER-1
 66
  1
 70
  0
 62
  0
 10
5.840277
 20
0.468115
 30
0.000000
  0
VERTEX
  8
LAYER-1
 10
5.840277
 20
0.468115
 30
0.000000
  0
VERTEX
  8
LAYER-1
 10
3.776411
 20
0.158535
 30
0.000000
  0
SEQEND
  8
LAYER-1
  0
POLYLINE
  8
LAYER-1
 66
  1
 70
  1
 62
  0
  0
VERTEX
  8
LAYER-1
 10
3.756943
 20
0.155615
 30
0.000000
  0
VERTEX
  8
LAYER-1
 10
3.819438
 20
0.207122
 30
0.000000
  0
VERTEX
  8
LAYER-1
 10
3.825619
 20
0.165916
 30
0.000000
  0
VERTEX
  8
LAYER-1
 10
3.831800
 20
0.124711
 30
0.000000
  0
VERTEX
  8
LAYER-1
 10
3.756943
 20
0.155615
 30
0.000000
  0
SEQEND
  8
LAYER-1
  0
TEXT
  8
LAYER-1
 62
  0
 10
1.806080
 20
8.450740
 30
0.000000
 40
0.125000
  1
SOLID OPAQUE SIDE FOLDING PARTITION
 72
  5
 11
5.222747
 21
8.450740
 31
0.000000
  0
LINE
  8
LAYER-1
 62
  0
 10
5.906775
 20
7.409073
 30
0.000000
 11
5.906775
 21
7.141034
 31
0.000000
  0
LINE
  8
LAYER-1
 62
  0
 10
5.823653
 20
7.409073
 30
0.000000
 11
6.031775
 21
7.409073
 31
0.000000
  0
LINE
  8
LAYER-1
 62
  0
 10
5.829517
 20
7.141034
 30
0.000000
 11
6.031775
 21
7.141034
 31
0.000000
  0
LINE
  8
LAYER-1
 62
  0
 10
5.936238
 20
7.379610
 30
0.000000
 11
5.877312
 21
7.438536
 31
0.000000
  0
LINE
  8
LAYER-1
 62
  0
 10
5.936238
 20
7.111571
 30
0.000000
 11
5.877312
 21
7.170497
 31
0.000000
  0
TEXT
  8
LAYER-1
 62
  0
 10
5.783283
 20
7.266470
 30
0.000000
 40
0.125000
  1
 
 50
90.000000
  0
TEXT
  8
LAYER-1
 62
  0
 10
6.236636
 20
7.284073
 30
0.000000
 40
0.125000
  1
4"
 72
  5
 11
6.458858
 21
7.284073
 31
0.000000
  0
TEXT
  8
LAYER-1
 62
  0
 10
6.014414
 20
7.089628
 30
0.000000
 40
0.125000
  1
102mm
 72
  5
 11
6.681080
 21
7.089628
 31
0.000000
  0
LINE
  8
LAYER-1
 62
  0
 10
4.513545
 20
7.672283
 30
0.000000
 11
4.923267
 21
7.672283
 31
0.000000
  0
LINE
  8
LAYER-1
 62
  0
 10
4.513545
 20
7.302493
 30
0.000000
 11
4.513545
 21
7.797283
 31
0.000000
  0
LINE
  8
LAYER-1
 62
  0
 10
4.923267
 20
7.300757
 30
0.000000
 11
4.923267
 21
7.797283
 31
0.000000
  0
LINE
  8
LAYER-1
 62
  0
 10
4.543007
 20
7.701746
 30
0.000000
 11
4.484082
 21
7.642820
 31
0.000000
  0
LINE
  8
LAYER-1
 62
  0
 10
4.952730
 20
7.701746
 30
0.000000
 11
4.893804
 21
7.642820
 31
0.000000
  0
TEXT
  8
LAYER-1
 62
  0
 10
4.713561
 20
7.797415
 30
0.000000
 40
0.125000
  1
 
  0
TEXT
  8
LAYER-1
 62
  0
 10
4.597747
 20
8.034073
 30
0.000000
 40
0.125000
  1
6"
 72
  5
 11
4.819969
 21
8.034073
 31
0.000000
  0
TEXT
  8
LAYER-1
 62
  0
 10
4.375525
 20
7.839628
 30
0.000000
 40
0.125000
  1
152mm
 72
  5
 11
5.042191
 21
7.839628
 31
0.000000
  0
POLYLINE
  8
LAYER-1
 66
  1
 70
  0
 62
  0
 10
3.470214
 20
0.208816
 30
0.000000
  0
VERTEX
  8
LAYER-1
 10
3.470214
 20
0.208816
 30
0.000000
  0
VERTEX
  8
LAYER-1
 10
3.470214
 20
0.207625
 30
0.000000
  0
SEQEND
  8
LAYER-1
  0
POLYLINE
  8
LAYER-1
 66
  1
 70
  1
 62
  0
 10
1.298356
 20
0.113647
 30
0.000000
  0
VERTEX
  8
LAYER-1
 10
1.298356
 20
0.113647
 30
0.000000
  0
VERTEX
  8
LAYER-1
 10
1.305301
 20
0.087607
 30
0.000000
  0
VERTEX
  8
LAYER-1
 10
1.330475
 20
0.101495
 30
0.000000
  0
SEQEND
  8
LAYER-1
  0
POLYLINE
  8
LAYER-1
 66
  1
 70
  1
 62
  0
 10
1.488461
 20
0.218680
 30
0.000000
  0
VERTEX
  8
LAYER-1
 10
1.488461
 20
0.218680
 30
0.000000
  0
VERTEX
  8
LAYER-1
 10
1.475441
 20
0.196110
 30
0.000000
  0
VERTEX
  8
LAYER-1
 10
1.505823
 20
0.216944
 30
0.000000
  0
SEQEND
  8
LAYER-1
  0
POLYLINE
  8
LAYER-1
 66
  1
 70
  1
 62
  0
 10
1.134295
 20
0.154446
 30
0.000000
  0
VERTEX
  8
LAYER-1
 10
1.134295
 20
0.154446
 30
0.000000
  0
VERTEX
  8
LAYER-1
 10
1.117802
 20
0.129272
 30
0.000000
  0
VERTEX
  8
LAYER-1
 10
1.132558
 20
0.121459
 30
0.000000
  0
SEQEND
  8
LAYER-1
  0
POLYLINE
  8
LAYER-1
 66
  1
 70
  0
 62
  0
 10
1.300961
 20
0.155315
 30
0.000000
  0
VERTEX
  8
LAYER-1
 10
1.300961
 20
0.155315
 30
0.000000
  0
VERTEX
  8
LAYER-1
 10
1.296621
 20
0.155315
 30
0.000000
  0
VERTEX
  8
LAYER-1
 10
1.293148
 20
0.150975
 30
0.000000
  0
VERTEX
  8
LAYER-1
 10
1.292281
 20
0.145766
 30
0.000000
  0
VERTEX
  8
LAYER-1
 10
1.294017
 20
0.141426
 30
0.000000
  0
VERTEX
  8
LAYER-1
 10
1.298357
 20
0.139690
 30
0.000000
  0
VERTEX
  8
LAYER-1
 10
1.302697
 20
0.139690
 30
0.000000
  0
VERTEX
  8
LAYER-1
 10
1.307038
 20
0.143162
 30
0.000000
  0
VERTEX
  8
LAYER-1
 10
1.307038
 20
0.147502
 30
0.000000
  0
VERTEX
  8
LAYER-1
 10
1.306170
 20
0.151844
 30
0.000000
  0
VERTEX
  8
LAYER-1
 10
1.301829
 20
0.154447
 30
0.000000
  0
SEQEND
  8
LAYER-1
  0
POLYLINE
  8
LAYER-1
 66
  1
 70
  1
 62
  0
 10
0.938982
 20
0.193508
 30
0.000000
  0
VERTEX
  8
LAYER-1
 10
0.938982
 20
0.193508
 30
0.000000
  0
VERTEX
  8
LAYER-1
 10
0.925961
 20
0.170938
 30
0.000000
  0
VERTEX
  8
LAYER-1
 10
0.956343
 20
0.191771
 30
0.000000
  0
SEQEND
  8
LAYER-1
  0
POLYLINE
  8
LAYER-1
 66
  1
 70
  1
 62
  0
 10
1.070759
 20
0.193174
 30
0.000000
  0
VERTEX
  8
LAYER-1
 10
1.070759
 20
0.193174
 30
0.000000
  0
VERTEX
  8
LAYER-1
 10
1.058073
 20
0.173809
 30
0.000000
  0
VERTEX
  8
LAYER-1
 10
1.069424
 20
0.167799
 30
0.000000
  0
SEQEND
  8
LAYER-1
  0
POLYLINE
  8
LAYER-1
 66
  1
 70
  0
 62
  0
 10
1.428566
 20
0.174411
 30
0.000000
  0
VERTEX
  8
LAYER-1
 10
1.428566
 20
0.174411
 30
0.000000
  0
VERTEX
  8
LAYER-1
 10
1.424225
 20
0.174411
 30
0.000000
  0
VERTEX
  8
LAYER-1
 10
1.420753
 20
0.170070
 30
0.000000
  0
VERTEX
  8
LAYER-1
 10
1.419885
 20
0.164863
 30
0.000000
  0
VERTEX
  8
LAYER-1
 10
1.421621
 20
0.160522
 30
0.000000
  0
VERTEX
  8
LAYER-1
 10
1.425961
 20
0.158786
 30
0.000000
  0
VERTEX
  8
LAYER-1
 10
1.430301
 20
0.158786
 30
0.000000
  0
VERTEX
  8
LAYER-1
 10
1.434641
 20
0.162258
 30
0.000000
  0
VERTEX
  8
LAYER-1
 10
1.434641
 20
0.166598
 30
0.000000
  0
VERTEX
  8
LAYER-1
 10
1.433773
 20
0.170939
 30
0.000000
  0
VERTEX
  8
LAYER-1
 10
1.429434
 20
0.173543
 30
0.000000
  0
SEQEND
  8
LAYER-1
  0
POLYLINE
  8
LAYER-1
 66
  1
 70
  0
 62
  0
 10
1.186377
 20
0.148370
 30
0.000000
  0
VERTEX
  8
LAYER-1
 10
1.186377
 20
0.148370
 30
0.000000
  0
VERTEX
  8
LAYER-1
 10
1.182038
 20
0.148370
 30
0.000000
  0
VERTEX
  8
LAYER-1
 10
1.178565
 20
0.144029
 30
0.000000
  0
VERTEX
  8
LAYER-1
 10
1.177697
 20
0.138821
 30
0.000000
  0
VERTEX
  8
LAYER-1
 10
1.179433
 20
0.134481
 30
0.000000
  0
VERTEX
  8
LAYER-1
 10
1.183773
 20
0.132745
 30
0.000000
  0
VERTEX
  8
LAYER-1
 10
1.188114
 20
0.132745
 30
0.000000
  0
VERTEX
  8
LAYER-1
 10
1.192454
 20
0.136216
 30
0.000000
  0
VERTEX
  8
LAYER-1
 10
1.192454
 20
0.140557
 30
0.000000
  0
VERTEX
  8
LAYER-1
 10
1.191586
 20
0.144897
 30
0.000000
  0
VERTEX
  8
LAYER-1
 10
1.187245
 20
0.147502
 30
0.000000
  0
SEQEND
  8
LAYER-1
  0
POLYLINE
  8
LAYER-1
 66
  1
 70
  0
 62
  0
 10
1.022315
 20
0.140557
 30
0.000000
  0
VERTEX
  8
LAYER-1
 10
1.022315
 20
0.140557
 30
0.000000
  0
VERTEX
  8
LAYER-1
 10
1.017975
 20
0.140557
 30
0.000000
  0
VERTEX
  8
LAYER-1
 10
1.014502
 20
0.136216
 30
0.000000
  0
VERTEX
  8
LAYER-1
 10
1.013634
 20
0.131009
 30
0.000000
  0
VERTEX
  8
LAYER-1
 10
1.015370
 20
0.126668
 30
0.000000
  0
VERTEX
  8
LAYER-1
 10
1.019711
 20
0.124932
 30
0.000000
  0
VERTEX
  8
LAYER-1
 10
1.024051
 20
0.124932
 30
0.000000
  0
VERTEX
  8
LAYER-1
 10
1.028392
 20
0.128404
 30
0.000000
  0
VERTEX
  8
LAYER-1
 10
1.028392
 20
0.132745
 30
0.000000
  0
VERTEX
  8
LAYER-1
 10
1.027523
 20
0.137085
 30
0.000000
  0
VERTEX
  8
LAYER-1
 10
1.023183
 20
0.139689
 30
0.000000
  0
SEQEND
  8
LAYER-1
  0
POLYLINE
  8
LAYER-1
 66
  1
 70
  1
 62
  0
 10
1.650354
 20
0.165296
 30
0.000000
  0
VERTEX
  8
LAYER-1
 10
1.650354
 20
0.165296
 30
0.000000
  0
VERTEX
  8
LAYER-1
 10
1.624314
 20
0.158351
 30
0.000000
  0
VERTEX
  8
LAYER-1
 10
1.638201
 20
0.133178
 30
0.000000
  0
SEQEND
  8
LAYER-1
  0
POLYLINE
  8
LAYER-1
 66
  1
 70
  1
 62
  0
 10
1.711898
 20
0.105698
 30
0.000000
  0
VERTEX
  8
LAYER-1
 10
1.711898
 20
0.105698
 30
0.000000
  0
VERTEX
  8
LAYER-1
 10
1.734468
 20
0.092678
 30
0.000000
  0
VERTEX
  8
LAYER-1
 10
1.713636
 20
0.123060
 30
0.000000
  0
SEQEND
  8
LAYER-1
  0
POLYLINE
  8
LAYER-1
 66
  1
 70
  1
 62
  0
 10
1.243236
 20
0.173108
 30
0.000000
  0
VERTEX
  8
LAYER-1
 10
1.243236
 20
0.173108
 30
0.000000
  0
VERTEX
  8
LAYER-1
 10
1.218063
 20
0.189601
 30
0.000000
  0
VERTEX
  8
LAYER-1
 10
1.210250
 20
0.174845
 30
0.000000
  0
SEQEND
  8
LAYER-1
  0
POLYLINE
  8
LAYER-1
 66
  1
 70
  0
 62
  0
 10
1.661640
 20
0.201756
 30
0.000000
  0
VERTEX
  8
LAYER-1
 10
1.661640
 20
0.201756
 30
0.000000
  0
VERTEX
  8
LAYER-1
 10
1.661640
 20
0.206096
 30
0.000000
  0
VERTEX
  8
LAYER-1
 10
1.657299
 20
0.209568
 30
0.000000
  0
VERTEX
  8
LAYER-1
 10
1.652091
 20
0.210436
 30
0.000000
  0
VERTEX
  8
LAYER-1
 10
1.647750
 20
0.208700
 30
0.000000
  0
VERTEX
  8
LAYER-1
 10
1.646015
 20
0.204359
 30
0.000000
  0
VERTEX
  8
LAYER-1
 10
1.646015
 20
0.200020
 30
0.000000
  0
VERTEX
  8
LAYER-1
 10
1.649486
 20
0.195679
 30
0.000000
  0
VERTEX
  8
LAYER-1
 10
1.653827
 20
0.195679
 30
0.000000
  0
VERTEX
  8
LAYER-1
 10
1.658168
 20
0.196547
 30
0.000000
  0
VERTEX
  8
LAYER-1
 10
1.660773
 20
0.200888
 30
0.000000
  0
SEQEND
  8
LAYER-1
  0
POLYLINE
  8
LAYER-1
 66
  1
 70
  1
 62
  0
 10
1.613896
 20
0.177448
 30
0.000000
  0
VERTEX
  8
LAYER-1
 10
1.613896
 20
0.177448
 30
0.000000
  0
VERTEX
  8
LAYER-1
 10
1.591326
 20
0.190470
 30
0.000000
  0
VERTEX
  8
LAYER-1
 10
1.612159
 20
0.160088
 30
0.000000
  0
SEQEND
  8
LAYER-1
  0
POLYLINE
  8
LAYER-1
 66
  1
 70
  1
 62
  0
 10
1.261998
 20
0.189768
 30
0.000000
  0
VERTEX
  8
LAYER-1
 10
1.261998
 20
0.189768
 30
0.000000
  0
VERTEX
  8
LAYER-1
 10
1.242634
 20
0.202454
 30
0.000000
  0
VERTEX
  8
LAYER-1
 10
1.236623
 20
0.191104
 30
0.000000
  0
SEQEND
  8
LAYER-1
  0
POLYLINE
  8
LAYER-1
 66
  1
 70
  0
 62
  0
 10
1.727872
 20
0.066115
 30
0.000000
  0
VERTEX
  8
LAYER-1
 10
1.727872
 20
0.066115
 30
0.000000
  0
VERTEX
  8
LAYER-1
 10
1.727872
 20
0.061775
 30
0.000000
  0
VERTEX
  8
LAYER-1
 10
1.732212
 20
0.058303
 30
0.000000
  0
VERTEX
  8
LAYER-1
 10
1.737420
 20
0.057435
 30
0.000000
  0
VERTEX
  8
LAYER-1
 10
1.741761
 20
0.059171
 30
0.000000
  0
VERTEX
  8
LAYER-1
 10
1.743497
 20
0.063511
 30
0.000000
  0
VERTEX
  8
LAYER-1
 10
1.743497
 20
0.067852
 30
0.000000
  0
VERTEX
  8
LAYER-1
 10
1.740025
 20
0.072192
 30
0.000000
  0
VERTEX
  8
LAYER-1
 10
1.735684
 20
0.072192
 30
0.000000
  0
VERTEX
  8
LAYER-1
 10
1.731344
 20
0.071324
 30
0.000000
  0
VERTEX
  8
LAYER-1
 10
1.728739
 20
0.066984
 30
0.000000
  0
SEQEND
  8
LAYER-1
  0
POLYLINE
  8
LAYER-1
 66
  1
 70
  0
 62
  0
 10
1.237160
 20
0.121025
 30
0.000000
  0
VERTEX
  8
LAYER-1
 10
1.237160
 20
0.121025
 30
0.000000
  0
VERTEX
  8
LAYER-1
 10
1.237160
 20
0.125365
 30
0.000000
  0
VERTEX
  8
LAYER-1
 10
1.232819
 20
0.128838
 30
0.000000
  0
VERTEX
  8
LAYER-1
 10
1.227611
 20
0.129706
 30
0.000000
  0
VERTEX
  8
LAYER-1
 10
1.223270
 20
0.127970
 30
0.000000
  0
VERTEX
  8
LAYER-1
 10
1.221535
 20
0.123628
 30
0.000000
  0
VERTEX
  8
LAYER-1
 10
1.221535
 20
0.119289
 30
0.000000
  0
VERTEX
  8
LAYER-1
 10
1.225006
 20
0.114948
 30
0.000000
  0
VERTEX
  8
LAYER-1
 10
1.229347
 20
0.114948
 30
0.000000
  0
VERTEX
  8
LAYER-1
 10
1.233688
 20
0.115816
 30
0.000000
  0
VERTEX
  8
LAYER-1
 10
1.236293
 20
0.120157
 30
0.000000
  0
SEQEND
  8
LAYER-1
  0
POLYLINE
  8
LAYER-1
 66
  1
 70
  0
 62
  0
 10
1.539243
 20
0.155748
 30
0.000000
  0
VERTEX
  8
LAYER-1
 10
1.539243
 20
0.155748
 30
0.000000
  0
VERTEX
  8
LAYER-1
 10
1.539243
 20
0.160089
 30
0.000000
  0
VERTEX
  8
LAYER-1
 10
1.534903
 20
0.163561
 30
0.000000
  0
VERTEX
  8
LAYER-1
 10
1.529695
 20
0.164429
 30
0.000000
  0
VERTEX
  8
LAYER-1
 10
1.525354
 20
0.162693
 30
0.000000
  0
VERTEX
  8
LAYER-1
 10
1.523618
 20
0.158352
 30
0.000000
  0
VERTEX
  8
LAYER-1
 10
1.523618
 20
0.154013
 30
0.000000
  0
VERTEX
  8
LAYER-1
 10
1.527090
 20
0.149672
 30
0.000000
  0
VERTEX
  8
LAYER-1
 10
1.531431
 20
0.149672
 30
0.000000
  0
VERTEX
  8
LAYER-1
 10
1.535772
 20
0.150540
 30
0.000000
  0
VERTEX
  8
LAYER-1
 10
1.538376
 20
0.154881
 30
0.000000
  0
SEQEND
  8
LAYER-1
  0
POLYLINE
  8
LAYER-1
 66
  1
 70
  1
 62
  0
 10
1.758428
 20
0.147936
 30
0.000000
  0
VERTEX
  8
LAYER-1
 10
1.758428
 20
0.147936
 30
0.000000
  0
VERTEX
  8
LAYER-1
 10
1.765371
 20
0.121895
 30
0.000000
  0
VERTEX
  8
LAYER-1
 10
1.784469
 20
0.137519
 30
0.000000
  0
SEQEND
  8
LAYER-1
  0
POLYLINE
  8
LAYER-1
 66
  1
 70
  1
 62
  0
 10
1.942455
 20
0.169638
 30
0.000000
  0
VERTEX
  8
LAYER-1
 10
1.942455
 20
0.169638
 30
0.000000
  0
VERTEX
  8
LAYER-1
 10
1.929434
 20
0.147068
 30
0.000000
  0
VERTEX
  8
LAYER-1
 10
1.959816
 20
0.167901
 30
0.000000
  0
SEQEND
  8
LAYER-1
  0
POLYLINE
  8
LAYER-1
 66
  1
 70
  1
 62
  0
 10
1.992359
 20
0.068177
 30
0.000000
  0
VERTEX
  8
LAYER-1
 10
1.992359
 20
0.068177
 30
0.000000
  0
VERTEX
  8
LAYER-1
 10
1.975867
 20
0.043004
 30
0.000000
  0
VERTEX
  8
LAYER-1
 10
1.990623
 20
0.035191
 30
0.000000
  0
SEQEND
  8
LAYER-1
  0
POLYLINE
  8
LAYER-1
 66
  1
 70
  0
 62
  0
 10
1.730650
 20
0.172241
 30
0.000000
  0
VERTEX
  8
LAYER-1
 10
1.730650
 20
0.172241
 30
0.000000
  0
VERTEX
  8
LAYER-1
 10
1.726309
 20
0.172241
 30
0.000000
  0
VERTEX
  8
LAYER-1
 10
1.722837
 20
0.167901
 30
0.000000
  0
VERTEX
  8
LAYER-1
 10
1.721969
 20
0.162693
 30
0.000000
  0
VERTEX
  8
LAYER-1
 10
1.723705
 20
0.158352
 30
0.000000
  0
VERTEX
  8
LAYER-1
 10
1.728045
 20
0.156616
 30
0.000000
  0
VERTEX
  8
LAYER-1
 10
1.732385
 20
0.156616
 30
0.000000
  0
VERTEX
  8
LAYER-1
 10
1.736725
 20
0.160088
 30
0.000000
  0
VERTEX
  8
LAYER-1
 10
1.736725
 20
0.164429
 30
0.000000
  0
VERTEX
  8
LAYER-1
 10
1.735857
 20
0.168770
 30
0.000000
  0
VERTEX
  8
LAYER-1
 10
1.731518
 20
0.171373
 30
0.000000
  0
SEQEND
  8
LAYER-1
  0
POLYLINE
  8
LAYER-1
 66
  1
 70
  1
 62
  0
 10
1.767976
 20
0.104533
 30
0.000000
  0
VERTEX
  8
LAYER-1
 10
1.767976
 20
0.104533
 30
0.000000
  0
VERTEX
  8
LAYER-1
 10
1.754955
 20
0.081963
 30
0.000000
  0
VERTEX
  8
LAYER-1
 10
1.785337
 20
0.102796
 30
0.000000
  0
SEQEND
  8
LAYER-1
  0
POLYLINE
  8
LAYER-1
 66
  1
 70
  1
 62
  0
 10
2.023776
 20
0.050285
 30
0.000000
  0
VERTEX
  8
LAYER-1
 10
2.023776
 20
0.050285
 30
0.000000
  0
VERTEX
  8
LAYER-1
 10
2.036464
 20
0.069650
 30
0.000000
  0
VERTEX
  8
LAYER-1
 10
2.025112
 20
0.075661
 30
0.000000
  0
SEQEND
  8
LAYER-1
  0
POLYLINE
  8
LAYER-1
 66
  1
 70
  0
 62
  0
 10
1.923002
 20
0.050732
 30
0.000000
  0
VERTEX
  8
LAYER-1
 10
1.923002
 20
0.050732
 30
0.000000
  0
VERTEX
  8
LAYER-1
 10
1.927342
 20
0.050732
 30
0.000000
  0
VERTEX
  8
LAYER-1
 10
1.930814
 20
0.055073
 30
0.000000
  0
VERTEX
  8
LAYER-1
 10
1.931682
 20
0.060281
 30
0.000000
  0
VERTEX
  8
LAYER-1
 10
1.929946
 20
0.064622
 30
0.000000
  0
VERTEX
  8
LAYER-1
 10
1.925606
 20
0.066357
 30
0.000000
  0
VERTEX
  8
LAYER-1
 10
1.921266
 20
0.066357
 30
0.000000
  0
VERTEX
  8
LAYER-1
 10
1.916925
 20
0.062886
 30
0.000000
  0
VERTEX
  8
LAYER-1
 10
1.916925
 20
0.058545
 30
0.000000
  0
VERTEX
  8
LAYER-1
 10
1.917793
 20
0.054204
 30
0.000000
  0
VERTEX
  8
LAYER-1
 10
1.922134
 20
0.051599
 30
0.000000
  0
SEQEND
  8
LAYER-1
  0
POLYLINE
  8
LAYER-1
 66
  1
 70
  0
 62
  0
 10
1.612506
 20
0.086600
 30
0.000000
  0
VERTEX
  8
LAYER-1
 10
1.612506
 20
0.086600
 30
0.000000
  0
VERTEX
  8
LAYER-1
 10
1.616847
 20
0.086600
 30
0.000000
  0
VERTEX
  8
LAYER-1
 10
1.620318
 20
0.090941
 30
0.000000
  0
VERTEX
  8
LAYER-1
 10
1.621187
 20
0.096148
 30
0.000000
  0
VERTEX
  8
LAYER-1
 10
1.619451
 20
0.100489
 30
0.000000
  0
VERTEX
  8
LAYER-1
 10
1.615111
 20
0.102225
 30
0.000000
  0
VERTEX
  8
LAYER-1
 10
1.610770
 20
0.102225
 30
0.000000
  0
VERTEX
  8
LAYER-1
 10
1.606429
 20
0.098753
 30
0.000000
  0
VERTEX
  8
LAYER-1
 10
1.606429
 20
0.094412
 30
0.000000
  0
VERTEX
  8
LAYER-1
 10
1.607298
 20
0.090072
 30
0.000000
  0
VERTEX
  8
LAYER-1
 10
1.611639
 20
0.087468
 30
0.000000
  0
SEQEND
  8
LAYER-1
  0
POLYLINE
  8
LAYER-1
 66
  1
 70
  1
 62
  0
 10
2.107820
 20
0.152710
 30
0.000000
  0
VERTEX
  8
LAYER-1
 10
2.107820
 20
0.152710
 30
0.000000
  0
VERTEX
  8
LAYER-1
 10
2.081779
 20
0.145766
 30
0.000000
  0
VERTEX
  8
LAYER-1
 10
2.095667
 20
0.120592
 30
0.000000
  0
SEQEND
  8
LAYER-1
  0
POLYLINE
  8
LAYER-1
 66
  1
 70
  1
 62
  0
 10
1.846703
 20
0.113115
 30
0.000000
  0
VERTEX
  8
LAYER-1
 10
1.846703
 20
0.113115
 30
0.000000
  0
VERTEX
  8
LAYER-1
 10
1.824132
 20
0.126136
 30
0.000000
  0
VERTEX
  8
LAYER-1
 10
1.844965
 20
0.095754
 30
0.000000
  0
SEQEND
  8
LAYER-1
  0
POLYLINE
  8
LAYER-1
 66
  1
 70
  1
 62
  0
 10
1.876560
 20
0.035542
 30
0.000000
  0
VERTEX
  8
LAYER-1
 10
1.876560
 20
0.035542
 30
0.000000
  0
VERTEX
  8
LAYER-1
 10
1.901734
 20
0.019048
 30
0.000000
  0
VERTEX
  8
LAYER-1
 10
1.909546
 20
0.033806
 30
0.000000
  0
SEQEND
  8
LAYER-1
  0
POLYLINE
  8
LAYER-1
 66
  1
 70
  0
 62
  0
 10
2.139070
 20
0.202188
 30
0.000000
  0
VERTEX
  8
LAYER-1
 10
2.139070
 20
0.202188
 30
0.000000
  0
VERTEX
  8
LAYER-1
 10
2.139070
 20
0.206529
 30
0.000000
  0
VERTEX
  8
LAYER-1
 10
2.134729
 20
0.210001
 30
0.000000
  0
VERTEX
  8
LAYER-1
 10
2.129521
 20
0.210869
 30
0.000000
  0
VERTEX
  8
LAYER-1
 10
2.125181
 20
0.209133
 30
0.000000
  0
VERTEX
  8
LAYER-1
 10
2.123445
 20
0.204792
 30
0.000000
  0
VERTEX
  8
LAYER-1
 10
2.123445
 20
0.200452
 30
0.000000
  0
VERTEX
  8
LAYER-1
 10
2.126917
 20
0.196112
 30
0.000000
  0
VERTEX
  8
LAYER-1
 10
2.131257
 20
0.196112
 30
0.000000
  0
VERTEX
  8
LAYER-1
 10
2.135598
 20
0.196979
 30
0.000000
  0
VERTEX
  8
LAYER-1
 10
2.138203
 20
0.201320
 30
0.000000
  0
SEQEND
  8
LAYER-1
  0
POLYLINE
  8
LAYER-1
 66
  1
 70
  1
 62
  0
 10
2.071362
 20
0.164863
 30
0.000000
  0
VERTEX
  8
LAYER-1
 10
2.071362
 20
0.164863
 30
0.000000
  0
VERTEX
  8
LAYER-1
 10
2.048792
 20
0.177884
 30
0.000000
  0
VERTEX
  8
LAYER-1
 10
2.069624
 20
0.147502
 30
0.000000
  0
SEQEND
  8
LAYER-1
  0
POLYLINE
  8
LAYER-1
 66
  1
 70
  1
 62
  0
 10
0.840124
 20
0.201486
 30
0.000000
  0
VERTEX
  8
LAYER-1
 10
0.840124
 20
0.201486
 30
0.000000
  0
VERTEX
  8
LAYER-1
 10
0.820760
 20
0.214173
 30
0.000000
  0
VERTEX
  8
LAYER-1
 10
0.814749
 20
0.202822
 30
0.000000
  0
SEQEND
  8
LAYER-1
  0
POLYLINE
  8
LAYER-1
 66
  1
 70
  0
 62
  0
 10
1.851042
 20
0.173011
 30
0.000000
  0
VERTEX
  8
LAYER-1
 10
1.851042
 20
0.173011
 30
0.000000
  0
VERTEX
  8
LAYER-1
 10
1.851042
 20
0.177351
 30
0.000000
  0
VERTEX
  8
LAYER-1
 10
1.846701
 20
0.180823
 30
0.000000
  0
VERTEX
  8
LAYER-1
 10
1.841493
 20
0.181691
 30
0.000000
  0
VERTEX
  8
LAYER-1
 10
1.837152
 20
0.179956
 30
0.000000
  0
VERTEX
  8
LAYER-1
 10
1.835417
 20
0.175615
 30
0.000000
  0
VERTEX
  8
LAYER-1
 10
1.835417
 20
0.171275
 30
0.000000
  0
VERTEX
  8
LAYER-1
 10
1.838888
 20
0.166935
 30
0.000000
  0
VERTEX
  8
LAYER-1
 10
1.843229
 20
0.166935
 30
0.000000
  0
VERTEX
  8
LAYER-1
 10
1.847570
 20
0.167803
 30
0.000000
  0
VERTEX
  8
LAYER-1
 10
1.850175
 20
0.172144
 30
0.000000
  0
SEQEND
  8
LAYER-1
  0
POLYLINE
  8
LAYER-1
 66
  1
 70
  0
 62
  0
 10
0.817021
 20
0.134479
 30
0.000000
  0
VERTEX
  8
LAYER-1
 10
0.817021
 20
0.134479
 30
0.000000
  0
VERTEX
  8
LAYER-1
 10
0.817021
 20
0.138820
 30
0.000000
  0
VERTEX
  8
LAYER-1
 10
0.812681
 20
0.142292
 30
0.000000
  0
VERTEX
  8
LAYER-1
 10
0.807473
 20
0.143160
 30
0.000000
  0
VERTEX
  8
LAYER-1
 10
0.803132
 20
0.141424
 30
0.000000
  0
VERTEX
  8
LAYER-1
 10
0.801396
 20
0.137083
 30
0.000000
  0
VERTEX
  8
LAYER-1
 10
0.801396
 20
0.132744
 30
0.000000
  0
VERTEX
  8
LAYER-1
 10
0.804868
 20
0.128403
 30
0.000000
  0
VERTEX
  8
LAYER-1
 10
0.809209
 20
0.128403
 30
0.000000
  0
VERTEX
  8
LAYER-1
 10
0.813550
 20
0.129271
 30
0.000000
  0
VERTEX
  8
LAYER-1
 10
0.816154
 20
0.133612
 30
0.000000
  0
SEQEND
  8
LAYER-1
  0
POLYLINE
  8
LAYER-1
 66
  1
 70
  0
 62
  0
 10
1.939417
 20
0.202185
 30
0.000000
  0
VERTEX
  8
LAYER-1
 10
1.939417
 20
0.202185
 30
0.000000
  0
VERTEX
  8
LAYER-1
 10
1.939417
 20
0.206526
 30
0.000000
  0
VERTEX
  8
LAYER-1
 10
1.935076
 20
0.209997
 30
0.000000
  0
VERTEX
  8
LAYER-1
 10
1.929868
 20
0.210865
 30
0.000000
  0
VERTEX
  8
LAYER-1
 10
1.925528
 20
0.209129
 30
0.000000
  0
VERTEX
  8
LAYER-1
 10
1.923792
 20
0.204789
 30
0.000000
  0
VERTEX
  8
LAYER-1
 10
1.923792
 20
0.200450
 30
0.000000
  0
VERTEX
  8
LAYER-1
 10
1.927263
 20
0.196109
 30
0.000000
  0
VERTEX
  8
LAYER-1
 10
1.931604
 20
0.196109
 30
0.000000
  0
VERTEX
  8
LAYER-1
 10
1.935945
 20
0.196977
 30
0.000000
  0
VERTEX
  8
LAYER-1
 10
1.938550
 20
0.201317
 30
0.000000
  0
SEQEND
  8
LAYER-1
  0
POLYLINE
  8
LAYER-1
 66
  1
 70
  1
 62
  0
 10
1.498704
 20
0.066720
 30
0.000000
  0
VERTEX
  8
LAYER-1
 10
1.498704
 20
0.066720
 30
0.000000
  0
VERTEX
  8
LAYER-1
 10
1.472663
 20
0.059775
 30
0.000000
  0
VERTEX
  8
LAYER-1
 10
1.486551
 20
0.034602
 30
0.000000
  0
SEQEND
  8
LAYER-1
  0
POLYLINE
  8
LAYER-1
 66
  1
 70
  1
 62
  0
 10
2.345232
 20
0.130141
 30
0.000000
  0
VERTEX
  8
LAYER-1
 10
2.345232
 20
0.130141
 30
0.000000
  0
VERTEX
  8
LAYER-1
 10
2.367802
 20
0.117120
 30
0.000000
  0
VERTEX
  8
LAYER-1
 10
2.346969
 20
0.147502
 30
0.000000
  0
SEQEND
  8
LAYER-1
  0
POLYLINE
  8
LAYER-1
 66
  1
 70
  1
 62
  0
 10
0.954607
 20
0.147067
 30
0.000000
  0
VERTEX
  8
LAYER-1
 10
0.954607
 20
0.147067
 30
0.000000
  0
VERTEX
  8
LAYER-1
 10
0.979781
 20
0.130575
 30
0.000000
  0
VERTEX
  8
LAYER-1
 10
0.987594
 20
0.145331
 30
0.000000
  0
SEQEND
  8
LAYER-1
  0
POLYLINE
  8
LAYER-1
 66
  1
 70
  0
 62
  0
 10
2.273184
 20
0.177013
 30
0.000000
  0
VERTEX
  8
LAYER-1
 10
2.273184
 20
0.177013
 30
0.000000
  0
VERTEX
  8
LAYER-1
 10
2.273184
 20
0.172672
 30
0.000000
  0
VERTEX
  8
LAYER-1
 10
2.277525
 20
0.169200
 30
0.000000
  0
VERTEX
  8
LAYER-1
 10
2.282732
 20
0.168332
 30
0.000000
  0
VERTEX
  8
LAYER-1
 10
2.287073
 20
0.170069
 30
0.000000
  0
VERTEX
  8
LAYER-1
 10
2.288809
 20
0.174409
 30
0.000000
  0
VERTEX
  8
LAYER-1
 10
2.288809
 20
0.178748
 30
0.000000
  0
VERTEX
  8
LAYER-1
 10
2.285337
 20
0.183089
 30
0.000000
  0
VERTEX
  8
LAYER-1
 10
2.280996
 20
0.183089
 30
0.000000
  0
VERTEX
  8
LAYER-1
 10
2.276656
 20
0.182221
 30
0.000000
  0
VERTEX
  8
LAYER-1
 10
2.274052
 20
0.177881
 30
0.000000
  0
SEQEND
  8
LAYER-1
  0
POLYLINE
  8
LAYER-1
 66
  1
 70
  1
 62
  0
 10
2.222836
 20
0.188299
 30
0.000000
  0
VERTEX
  8
LAYER-1
 10
2.222836
 20
0.188299
 30
0.000000
  0
VERTEX
  8
LAYER-1
 10
2.245406
 20
0.175278
 30
0.000000
  0
VERTEX
  8
LAYER-1
 10
2.224573
 20
0.205660
 30
0.000000
  0
SEQEND
  8
LAYER-1
  0
POLYLINE
  8
LAYER-1
 66
  1
 70
  1
 62
  0
 10
0.953205
 20
0.094817
 30
0.000000
  0
VERTEX
  8
LAYER-1
 10
0.953205
 20
0.094817
 30
0.000000
  0
VERTEX
  8
LAYER-1
 10
0.972570
 20
0.082130
 30
0.000000
  0
VERTEX
  8
LAYER-1
 10
0.978581
 20
0.093481
 30
0.000000
  0
SEQEND
  8
LAYER-1
  0
POLYLINE
  8
LAYER-1
 66
  1
 70
  0
 62
  0
 10
1.679347
 20
0.047102
 30
0.000000
  0
VERTEX
  8
LAYER-1
 10
1.679347
 20
0.047102
 30
0.000000
  0
VERTEX
  8
LAYER-1
 10
1.679347
 20
0.051442
 30
0.000000
  0
VERTEX
  8
LAYER-1
 10
1.675006
 20
0.054915
 30
0.000000
  0
VERTEX
  8
LAYER-1
 10
1.669798
 20
0.055783
 30
0.000000
  0
VERTEX
  8
LAYER-1
 10
1.665457
 20
0.054047
 30
0.000000
  0
VERTEX
  8
LAYER-1
 10
1.663722
 20
0.049706
 30
0.000000
  0
VERTEX
  8
LAYER-1
 10
1.663722
 20
0.045365
 30
0.000000
  0
VERTEX
  8
LAYER-1
 10
1.667193
 20
0.041026
 30
0.000000
  0
VERTEX
  8
LAYER-1
 10
1.671534
 20
0.041026
 30
0.000000
  0
VERTEX
  8
LAYER-1
 10
1.675875
 20
0.041893
 30
0.000000
  0
VERTEX
  8
LAYER-1
 10
1.678478
 20
0.046234
 30
0.000000
  0
SEQEND
  8
LAYER-1
  0
POLYLINE
  8
LAYER-1
 66
  1
 70
  0
 62
  0
 10
2.484989
 20
0.130141
 30
0.000000
  0
VERTEX
  8
LAYER-1
 10
2.484989
 20
0.130141
 30
0.000000
  0
VERTEX
  8
LAYER-1
 10
2.484989
 20
0.125800
 30
0.000000
  0
VERTEX
  8
LAYER-1
 10
2.489330
 20
0.122328
 30
0.000000
  0
VERTEX
  8
LAYER-1
 10
2.494538
 20
0.121460
 30
0.000000
  0
VERTEX
  8
LAYER-1
 10
2.498878
 20
0.123196
 30
0.000000
  0
VERTEX
  8
LAYER-1
 10
2.500614
 20
0.127536
 30
0.000000
  0
VERTEX
  8
LAYER-1
 10
2.500614
 20
0.131877
 30
0.000000
  0
VERTEX
  8
LAYER-1
 10
2.497143
 20
0.136217
 30
0.000000
  0
VERTEX
  8
LAYER-1
 10
2.492802
 20
0.136217
 30
0.000000
  0
VERTEX
  8
LAYER-1
 10
2.488461
 20
0.135348
 30
0.000000
  0
VERTEX
  8
LAYER-1
 10
2.485857
 20
0.131009
 30
0.000000
  0
SEQEND
  8
LAYER-1
  0
POLYLINE
  8
LAYER-1
 66
  1
 70
  0
 62
  0
 10
2.319191
 20
0.184828
 30
0.000000
  0
VERTEX
  8
LAYER-1
 10
2.319191
 20
0.184828
 30
0.000000
  0
VERTEX
  8
LAYER-1
 10
2.319191
 20
0.180488
 30
0.000000
  0
VERTEX
  8
LAYER-1
 10
2.323532
 20
0.177016
 30
0.000000
  0
VERTEX
  8
LAYER-1
 10
2.328739
 20
0.176147
 30
0.000000
  0
VERTEX
  8
LAYER-1
 10
2.333080
 20
0.177884
 30
0.000000
  0
VERTEX
  8
LAYER-1
 10
2.334816
 20
0.182223
 30
0.000000
  0
VERTEX
  8
LAYER-1
 10
2.334816
 20
0.186564
 30
0.000000
  0
VERTEX
  8
LAYER-1
 10
2.331344
 20
0.190904
 30
0.000000
  0
VERTEX
  8
LAYER-1
 10
2.327003
 20
0.190904
 30
0.000000
  0
VERTEX
  8
LAYER-1
 10
2.322663
 20
0.190036
 30
0.000000
  0
VERTEX
  8
LAYER-1
 10
2.320058
 20
0.185696
 30
0.000000
  0
SEQEND
  8
LAYER-1
  0
POLYLINE
  8
LAYER-1
 66
  1
 70
  1
 62
  0
 10
2.081344
 20
0.101929
 30
0.000000
  0
VERTEX
  8
LAYER-1
 10
2.081344
 20
0.101929
 30
0.000000
  0
VERTEX
  8
LAYER-1
 10
2.088289
 20
0.075889
 30
0.000000
  0
VERTEX
  8
LAYER-1
 10
2.113462
 20
0.089776
 30
0.000000
  0
SEQEND
  8
LAYER-1
  0
POLYLINE
  8
LAYER-1
 66
  1
 70
  1
 62
  0
 10
2.185858
 20
0.089172
 30
0.000000
  0
VERTEX
  8
LAYER-1
 10
2.185858
 20
0.089172
 30
0.000000
  0
VERTEX
  8
LAYER-1
 10
2.172837
 20
0.066600
 30
0.000000
  0
VERTEX
  8
LAYER-1
 10
2.203219
 20
0.087434
 30
0.000000
  0
SEQEND
  8
LAYER-1
  0
POLYLINE
  8
LAYER-1
 66
  1
 70
  1
 62
  0
 10
1.901823
 20
0.119626
 30
0.000000
  0
VERTEX
  8
LAYER-1
 10
1.901823
 20
0.119626
 30
0.000000
  0
VERTEX
  8
LAYER-1
 10
1.885330
 20
0.094453
 30
0.000000
  0
VERTEX
  8
LAYER-1
 10
1.900087
 20
0.086640
 30
0.000000
  0
SEQEND
  8
LAYER-1
  0
POLYLINE
  8
LAYER-1
 66
  1
 70
  0
 62
  0
 10
2.031865
 20
0.133179
 30
0.000000
  0
VERTEX
  8
LAYER-1
 10
2.031865
 20
0.133179
 30
0.000000
  0
VERTEX
  8
LAYER-1
 10
2.027525
 20
0.133179
 30
0.000000
  0
VERTEX
  8
LAYER-1
 10
2.024053
 20
0.128838
 30
0.000000
  0
VERTEX
  8
LAYER-1
 10
2.023185
 20
0.123631
 30
0.000000
  0
VERTEX
  8
LAYER-1
 10
2.024921
 20
0.119290
 30
0.000000
  0
VERTEX
  8
LAYER-1
 10
2.029261
 20
0.117554
 30
0.000000
  0
VERTEX
  8
LAYER-1
 10
2.033601
 20
0.117554
 30
0.000000
  0
VERTEX
  8
LAYER-1
 10
2.037942
 20
0.121026
 30
0.000000
  0
VERTEX
  8
LAYER-1
 10
2.037942
 20
0.125366
 30
0.000000
  0
VERTEX
  8
LAYER-1
 10
2.037074
 20
0.129707
 30
0.000000
  0
VERTEX
  8
LAYER-1
 10
2.032733
 20
0.132312
 30
0.000000
  0
SEQEND
  8
LAYER-1
  0
POLYLINE
  8
LAYER-1
 66
  1
 70
  1
 62
  0
 10
0.889504
 20
0.209567
 30
0.000000
  0
VERTEX
  8
LAYER-1
 10
0.889504
 20
0.209567
 30
0.000000
  0
VERTEX
  8
LAYER-1
 10
0.876483
 20
0.186996
 30
0.000000
  0
VERTEX
  8
LAYER-1
 10
0.906865
 20
0.207829
 30
0.000000
  0
SEQEND
  8
LAYER-1
  0
POLYLINE
  8
LAYER-1
 66
  1
 70
  1
 62
  0
 10
1.886900
 20
0.152276
 30
0.000000
  0
VERTEX
  8
LAYER-1
 10
1.886900
 20
0.152276
 30
0.000000
  0
VERTEX
  8
LAYER-1
 10
1.874213
 20
0.132912
 30
0.000000
  0
VERTEX
  8
LAYER-1
 10
1.885564
 20
0.126901
 30
0.000000
  0
SEQEND
  8
LAYER-1
  0
POLYLINE
  8
LAYER-1
 66
  1
 70
  0
 62
  0
 10
2.183775
 20
0.134915
 30
0.000000
  0
VERTEX
  8
LAYER-1
 10
2.183775
 20
0.134915
 30
0.000000
  0
VERTEX
  8
LAYER-1
 10
2.179435
 20
0.134915
 30
0.000000
  0
VERTEX
  8
LAYER-1
 10
2.175962
 20
0.130575
 30
0.000000
  0
VERTEX
  8
LAYER-1
 10
2.175094
 20
0.125366
 30
0.000000
  0
VERTEX
  8
LAYER-1
 10
2.176830
 20
0.121026
 30
0.000000
  0
VERTEX
  8
LAYER-1
 10
2.181171
 20
0.119290
 30
0.000000
  0
VERTEX
  8
LAYER-1
 10
2.185511
 20
0.119290
 30
0.000000
  0
VERTEX
  8
LAYER-1
 10
2.189851
 20
0.122762
 30
0.000000
  0
VERTEX
  8
LAYER-1
 10
2.189851
 20
0.127102
 30
0.000000
  0
VERTEX
  8
LAYER-1
 10
2.188983
 20
0.131443
 30
0.000000
  0
VERTEX
  8
LAYER-1
 10
2.184643
 20
0.134048
 30
0.000000
  0
SEQEND
  8
LAYER-1
  0
POLYLINE
  8
LAYER-1
 66
  1
 70
  0
 62
  0
 10
2.243671
 20
0.140122
 30
0.000000
  0
VERTEX
  8
LAYER-1
 10
2.243671
 20
0.140122
 30
0.000000
  0
VERTEX
  8
LAYER-1
 10
2.239330
 20
0.140122
 30
0.000000
  0
VERTEX
  8
LAYER-1
 10
2.235858
 20
0.135782
 30
0.000000
  0
VERTEX
  8
LAYER-1
 10
2.234990
 20
0.130575
 30
0.000000
  0
VERTEX
  8
LAYER-1
 10
2.236726
 20
0.126233
 30
0.000000
  0
VERTEX
  8
LAYER-1
 10
2.241067
 20
0.124497
 30
0.000000
  0
VERTEX
  8
LAYER-1
 10
2.245407
 20
0.124497
 30
0.000000
  0
VERTEX
  8
LAYER-1
 10
2.249747
 20
0.127970
 30
0.000000
  0
VERTEX
  8
LAYER-1
 10
2.249747
 20
0.132310
 30
0.000000
  0
VERTEX
  8
LAYER-1
 10
2.248879
 20
0.136651
 30
0.000000
  0
VERTEX
  8
LAYER-1
 10
2.244539
 20
0.139256
 30
0.000000
  0
SEQEND
  8
LAYER-1
  0
POLYLINE
  8
LAYER-1
 66
  1
 70
  0
 62
  0
 10
0.899921
 20
0.127101
 30
0.000000
  0
VERTEX
  8
LAYER-1
 10
0.899921
 20
0.127101
 30
0.000000
  0
VERTEX
  8
LAYER-1
 10
0.895580
 20
0.127101
 30
0.000000
  0
VERTEX
  8
LAYER-1
 10
0.892108
 20
0.122760
 30
0.000000
  0
VERTEX
  8
LAYER-1
 10
0.891240
 20
0.117553
 30
0.000000
  0
VERTEX
  8
LAYER-1
 10
0.892976
 20
0.113213
 30
0.000000
  0
VERTEX
  8
LAYER-1
 10
0.897317
 20
0.111476
 30
0.000000
  0
VERTEX
  8
LAYER-1
 10
0.901656
 20
0.111476
 30
0.000000
  0
VERTEX
  8
LAYER-1
 10
0.905997
 20
0.114948
 30
0.000000
  0
VERTEX
  8
LAYER-1
 10
0.905997
 20
0.119289
 30
0.000000
  0
VERTEX
  8
LAYER-1
 10
0.905129
 20
0.123629
 30
0.000000
  0
VERTEX
  8
LAYER-1
 10
0.900788
 20
0.126234
 30
0.000000
  0
SEQEND
  8
LAYER-1
  0
POLYLINE
  8
LAYER-1
 66
  1
 70
  1
 62
  0
 10
2.550962
 20
0.167032
 30
0.000000
  0
VERTEX
  8
LAYER-1
 10
2.550962
 20
0.167032
 30
0.000000
  0
VERTEX
  8
LAYER-1
 10
2.557907
 20
0.140990
 30
0.000000
  0
VERTEX
  8
LAYER-1
 10
2.583080
 20
0.154878
 30
0.000000
  0
SEQEND
  8
LAYER-1
  0
POLYLINE
  8
LAYER-1
 66
  1
 70
  1
 62
  0
 10
2.713289
 20
0.195678
 30
0.000000
  0
VERTEX
  8
LAYER-1
 10
2.713289
 20
0.195678
 30
0.000000
  0
VERTEX
  8
LAYER-1
 10
2.700268
 20
0.173108
 30
0.000000
  0
VERTEX
  8
LAYER-1
 10
2.730650
 20
0.193941
 30
0.000000
  0
SEQEND
  8
LAYER-1
  0
POLYLINE
  8
LAYER-1
 66
  1
 70
  1
 62
  0
 10
1.389504
 20
0.146633
 30
0.000000
  0
VERTEX
  8
LAYER-1
 10
1.389504
 20
0.146633
 30
0.000000
  0
VERTEX
  8
LAYER-1
 10
1.373011
 20
0.121458
 30
0.000000
  0
VERTEX
  8
LAYER-1
 10
1.387768
 20
0.113646
 30
0.000000
  0
SEQEND
  8
LAYER-1
  0
POLYLINE
  8
LAYER-1
 66
  1
 70
  0
 62
  0
 10
2.501483
 20
0.198282
 30
0.000000
  0
VERTEX
  8
LAYER-1
 10
2.501483
 20
0.198282
 30
0.000000
  0
VERTEX
  8
LAYER-1
 10
2.497143
 20
0.198282
 30
0.000000
  0
VERTEX
  8
LAYER-1
 10
2.493671
 20
0.193941
 30
0.000000
  0
VERTEX
  8
LAYER-1
 10
2.492802
 20
0.188733
 30
0.000000
  0
VERTEX
  8
LAYER-1
 10
2.494539
 20
0.184393
 30
0.000000
  0
VERTEX
  8
LAYER-1
 10
2.498878
 20
0.182657
 30
0.000000
  0
VERTEX
  8
LAYER-1
 10
2.503219
 20
0.182657
 30
0.000000
  0
VERTEX
  8
LAYER-1
 10
2.507560
 20
0.186128
 30
0.000000
  0
VERTEX
  8
LAYER-1
 10
2.507560
 20
0.190470
 30
0.000000
  0
VERTEX
  8
LAYER-1
 10
2.506691
 20
0.194810
 30
0.000000
  0
VERTEX
  8
LAYER-1
 10
2.502351
 20
0.197414
 30
0.000000
  0
SEQEND
  8
LAYER-1
  0
POLYLINE
  8
LAYER-1
 66
  1
 70
  1
 62
  0
 10
2.538810
 20
0.130573
 30
0.000000
  0
VERTEX
  8
LAYER-1
 10
2.538810
 20
0.130573
 30
0.000000
  0
VERTEX
  8
LAYER-1
 10
2.525789
 20
0.108003
 30
0.000000
  0
VERTEX
  8
LAYER-1
 10
2.556171
 20
0.128836
 30
0.000000
  0
SEQEND
  8
LAYER-1
  0
POLYLINE
  8
LAYER-1
 66
  1
 70
  1
 62
  0
 10
1.097736
 20
0.220945
 30
0.000000
  0
VERTEX
  8
LAYER-1
 10
1.097736
 20
0.220945
 30
0.000000
  0
VERTEX
  8
LAYER-1
 10
1.117101
 20
0.208259
 30
0.000000
  0
VERTEX
  8
LAYER-1
 10
1.123112
 20
0.219609
 30
0.000000
  0
SEQEND
  8
LAYER-1
  0
POLYLINE
  8
LAYER-1
 66
  1
 70
  0
 62
  0
 10
2.653393
 20
0.200018
 30
0.000000
  0
VERTEX
  8
LAYER-1
 10
2.653393
 20
0.200018
 30
0.000000
  0
VERTEX
  8
LAYER-1
 10
2.649052
 20
0.200018
 30
0.000000
  0
VERTEX
  8
LAYER-1
 10
2.645580
 20
0.195677
 30
0.000000
  0
VERTEX
  8
LAYER-1
 10
2.644712
 20
0.190470
 30
0.000000
  0
VERTEX
  8
LAYER-1
 10
2.646448
 20
0.186128
 30
0.000000
  0
VERTEX
  8
LAYER-1
 10
2.650789
 20
0.184393
 30
0.000000
  0
VERTEX
  8
LAYER-1
 10
2.655128
 20
0.184393
 30
0.000000
  0
VERTEX
  8
LAYER-1
 10
2.659469
 20
0.187865
 30
0.000000
  0
VERTEX
  8
LAYER-1
 10
2.659469
 20
0.192206
 30
0.000000
  0
VERTEX
  8
LAYER-1
 10
2.658601
 20
0.196546
 30
0.000000
  0
VERTEX
  8
LAYER-1
 10
2.654261
 20
0.199150
 30
0.000000
  0
SEQEND
  8
LAYER-1
  0
POLYLINE
  8
LAYER-1
 66
  1
 70
  0
 62
  0
 10
1.441587
 20
0.140556
 30
0.000000
  0
VERTEX
  8
LAYER-1
 10
1.441587
 20
0.140556
 30
0.000000
  0
VERTEX
  8
LAYER-1
 10
1.437247
 20
0.140556
 30
0.000000
  0
VERTEX
  8
LAYER-1
 10
1.433775
 20
0.136215
 30
0.000000
  0
VERTEX
  8
LAYER-1
 10
1.432907
 20
0.131008
 30
0.000000
  0
VERTEX
  8
LAYER-1
 10
1.434643
 20
0.126667
 30
0.000000
  0
VERTEX
  8
LAYER-1
 10
1.438983
 20
0.124931
 30
0.000000
  0
VERTEX
  8
LAYER-1
 10
1.443323
 20
0.124931
 30
0.000000
  0
VERTEX
  8
LAYER-1
 10
1.447663
 20
0.128403
 30
0.000000
  0
VERTEX
  8
LAYER-1
 10
1.447663
 20
0.132744
 30
0.000000
  0
VERTEX
  8
LAYER-1
 10
1.446795
 20
0.137084
 30
0.000000
  0
VERTEX
  8
LAYER-1
 10
1.442455
 20
0.139688
 30
0.000000
  0
SEQEND
  8
LAYER-1
  0
POLYLINE
  8
LAYER-1
 66
  1
 70
  0
 62
  0
 10
1.024920
 20
0.117119
 30
0.000000
  0
VERTEX
  8
LAYER-1
 10
1.024920
 20
0.117119
 30
0.000000
  0
VERTEX
  8
LAYER-1
 10
1.020580
 20
0.117119
 30
0.000000
  0
VERTEX
  8
LAYER-1
 10
1.017108
 20
0.112778
 30
0.000000
  0
VERTEX
  8
LAYER-1
 10
1.016240
 20
0.107570
 30
0.000000
  0
VERTEX
  8
LAYER-1
 10
1.017976
 20
0.103229
 30
0.000000
  0
VERTEX
  8
LAYER-1
 10
1.022316
 20
0.101494
 30
0.000000
  0
VERTEX
  8
LAYER-1
 10
1.026656
 20
0.101494
 30
0.000000
  0
VERTEX
  8
LAYER-1
 10
1.030996
 20
0.104965
 30
0.000000
  0
VERTEX
  8
LAYER-1
 10
1.030996
 20
0.109306
 30
0.000000
  0
VERTEX
  8
LAYER-1
 10
1.030128
 20
0.113647
 30
0.000000
  0
VERTEX
  8
LAYER-1
 10
1.025788
 20
0.116251
 30
0.000000
  0
SEQEND
  8
LAYER-1
  0
POLYLINE
  8
LAYER-1
 66
  1
 70
  1
 62
  0
 10
2.992802
 20
0.191338
 30
0.000000
  0
VERTEX
  8
LAYER-1
 10
2.992802
 20
0.191338
 30
0.000000
  0
VERTEX
  8
LAYER-1
 10
2.999747
 20
0.165297
 30
0.000000
  0
VERTEX
  8
LAYER-1
 10
3.024920
 20
0.179184
 30
0.000000
  0
SEQEND
  8
LAYER-1
  0
POLYLINE
  8
LAYER-1
 66
  1
 70
  1
 62
  0
 10
3.155128
 20
0.219984
 30
0.000000
  0
VERTEX
  8
LAYER-1
 10
3.155128
 20
0.219984
 30
0.000000
  0
VERTEX
  8
LAYER-1
 10
3.142107
 20
0.197414
 30
0.000000
  0
VERTEX
  8
LAYER-1
 10
3.172490
 20
0.218246
 30
0.000000
  0
SEQEND
  8
LAYER-1
  0
POLYLINE
  8
LAYER-1
 66
  1
 70
  1
 62
  0
 10
2.383427
 20
0.155747
 30
0.000000
  0
VERTEX
  8
LAYER-1
 10
2.383427
 20
0.155747
 30
0.000000
  0
VERTEX
  8
LAYER-1
 10
2.408601
 20
0.139253
 30
0.000000
  0
VERTEX
  8
LAYER-1
 10
2.416413
 20
0.154012
 30
0.000000
  0
SEQEND
  8
LAYER-1
  0
POLYLINE
  8
LAYER-1
 66
  1
 70
  0
 62
  0
 10
2.953739
 20
0.212172
 30
0.000000
  0
VERTEX
  8
LAYER-1
 10
2.953739
 20
0.212172
 30
0.000000
  0
VERTEX
  8
LAYER-1
 10
2.949399
 20
0.212172
 30
0.000000
  0
VERTEX
  8
LAYER-1
 10
2.945927
 20
0.207831
 30
0.000000
  0
VERTEX
  8
LAYER-1
 10
2.945059
 20
0.202623
 30
0.000000
  0
VERTEX
  8
LAYER-1
 10
2.946795
 20
0.198283
 30
0.000000
  0
VERTEX
  8
LAYER-1
 10
2.951136
 20
0.196547
 30
0.000000
  0
VERTEX
  8
LAYER-1
 10
2.955475
 20
0.196547
 30
0.000000
  0
VERTEX
  8
LAYER-1
 10
2.959816
 20
0.200019
 30
0.000000
  0
VERTEX
  8
LAYER-1
 10
2.959816
 20
0.204359
 30
0.000000
  0
VERTEX
  8
LAYER-1
 10
2.958948
 20
0.208700
 30
0.000000
  0
VERTEX
  8
LAYER-1
 10
2.954607
 20
0.211305
 30
0.000000
  0
SEQEND
  8
LAYER-1
  0
POLYLINE
  8
LAYER-1
 66
  1
 70
  1
 62
  0
 10
2.969365
 20
0.123629
 30
0.000000
  0
VERTEX
  8
LAYER-1
 10
2.969365
 20
0.123629
 30
0.000000
  0
VERTEX
  8
LAYER-1
 10
2.956344
 20
0.101059
 30
0.000000
  0
VERTEX
  8
LAYER-1
 10
2.986726
 20
0.121891
 30
0.000000
  0
SEQEND
  8
LAYER-1
  0
POLYLINE
  8
LAYER-1
 66
  1
 70
  1
 62
  0
 10
3.063816
 20
0.117216
 30
0.000000
  0
VERTEX
  8
LAYER-1
 10
3.063816
 20
0.117216
 30
0.000000
  0
VERTEX
  8
LAYER-1
 10
3.051129
 20
0.097853
 30
0.000000
  0
VERTEX
  8
LAYER-1
 10
3.062479
 20
0.091841
 30
0.000000
  0
SEQEND
  8
LAYER-1
  0
POLYLINE
  8
LAYER-1
 66
  1
 70
  0
 62
  0
 10
3.095232
 20
0.216512
 30
0.000000
  0
VERTEX
  8
LAYER-1
 10
3.095232
 20
0.216512
 30
0.000000
  0
VERTEX
  8
LAYER-1
 10
3.090893
 20
0.216512
 30
0.000000
  0
VERTEX
  8
LAYER-1
 10
3.087420
 20
0.212171
 30
0.000000
  0
VERTEX
  8
LAYER-1
 10
3.086552
 20
0.206963
 30
0.000000
  0
VERTEX
  8
LAYER-1
 10
3.088288
 20
0.202622
 30
0.000000
  0
VERTEX
  8
LAYER-1
 10
3.092628
 20
0.200887
 30
0.000000
  0
VERTEX
  8
LAYER-1
 10
3.096969
 20
0.200887
 30
0.000000
  0
VERTEX
  8
LAYER-1
 10
3.101309
 20
0.204358
 30
0.000000
  0
VERTEX
  8
LAYER-1
 10
3.101309
 20
0.208700
 30
0.000000
  0
VERTEX
  8
LAYER-1
 10
3.100441
 20
0.213040
 30
0.000000
  0
VERTEX
  8
LAYER-1
 10
3.096100
 20
0.215645
 30
0.000000
  0
SEQEND
  8
LAYER-1
  0
POLYLINE
  8
LAYER-1
 66
  1
 70
  0
 62
  0
 10
2.372143
 20
0.208700
 30
0.000000
  0
VERTEX
  8
LAYER-1
 10
2.372143
 20
0.208700
 30
0.000000
  0
VERTEX
  8
LAYER-1
 10
2.372143
 20
0.204358
 30
0.000000
  0
VERTEX
  8
LAYER-1
 10
2.376484
 20
0.200887
 30
0.000000
  0
VERTEX
  8
LAYER-1
 10
2.381691
 20
0.200018
 30
0.000000
  0
VERTEX
  8
LAYER-1
 10
2.386032
 20
0.201753
 30
0.000000
  0
VERTEX
  8
LAYER-1
 10
2.387768
 20
0.206095
 30
0.000000
  0
VERTEX
  8
LAYER-1
 10
2.387768
 20
0.210435
 30
0.000000
  0
VERTEX
  8
LAYER-1
 10
2.384296
 20
0.214776
 30
0.000000
  0
VERTEX
  8
LAYER-1
 10
2.379956
 20
0.214776
 30
0.000000
  0
VERTEX
  8
LAYER-1
 10
2.375615
 20
0.213907
 30
0.000000
  0
VERTEX
  8
LAYER-1
 10
2.373010
 20
0.209566
 30
0.000000
  0
SEQEND
  8
LAYER-1
  0
POLYLINE
  8
LAYER-1
 66
  1
 70
  0
 62
  0
 10
2.935510
 20
0.124496
 30
0.000000
  0
VERTEX
  8
LAYER-1
 10
2.935510
 20
0.124496
 30
0.000000
  0
VERTEX
  8
LAYER-1
 10
2.931169
 20
0.124496
 30
0.000000
  0
VERTEX
  8
LAYER-1
 10
2.927697
 20
0.120154
 30
0.000000
  0
VERTEX
  8
LAYER-1
 10
2.926829
 20
0.114947
 30
0.000000
  0
VERTEX
  8
LAYER-1
 10
2.928565
 20
0.110607
 30
0.000000
  0
VERTEX
  8
LAYER-1
 10
2.932906
 20
0.108871
 30
0.000000
  0
VERTEX
  8
LAYER-1
 10
2.937245
 20
0.108871
 30
0.000000
  0
VERTEX
  8
LAYER-1
 10
2.941586
 20
0.112342
 30
0.000000
  0
VERTEX
  8
LAYER-1
 10
2.941586
 20
0.116683
 30
0.000000
  0
VERTEX
  8
LAYER-1
 10
2.940718
 20
0.121023
 30
0.000000
  0
VERTEX
  8
LAYER-1
 10
2.936378
 20
0.123628
 30
0.000000
  0
SEQEND
  8
LAYER-1
  0
POLYLINE
  8
LAYER-1
 66
  1
 70
  1
 62
  0
 10
2.802699
 20
0.112779
 30
0.000000
  0
VERTEX
  8
LAYER-1
 10
2.802699
 20
0.112779
 30
0.000000
  0
VERTEX
  8
LAYER-1
 10
2.776657
 20
0.105834
 30
0.000000
  0
VERTEX
  8
LAYER-1
 10
2.790546
 20
0.080661
 30
0.000000
  0
SEQEND
  8
LAYER-1
  0
POLYLINE
  8
LAYER-1
 66
  1
 70
  1
 62
  0
 10
1.425963
 20
0.087171
 30
0.000000
  0
VERTEX
  8
LAYER-1
 10
1.425963
 20
0.087171
 30
0.000000
  0
VERTEX
  8
LAYER-1
 10
1.400788
 20
0.103664
 30
0.000000
  0
VERTEX
  8
LAYER-1
 10
1.392975
 20
0.088907
 30
0.000000
  0
SEQEND
  8
LAYER-1
  0
POLYLINE
  8
LAYER-1
 66
  1
 70
  0
 62
  0
 10
2.833949
 20
0.162258
 30
0.000000
  0
VERTEX
  8
LAYER-1
 10
2.833949
 20
0.162258
 30
0.000000
  0
VERTEX
  8
LAYER-1
 10
2.833949
 20
0.166598
 30
0.000000
  0
VERTEX
  8
LAYER-1
 10
2.829608
 20
0.170070
 30
0.000000
  0
VERTEX
  8
LAYER-1
 10
2.824401
 20
0.170938
 30
0.000000
  0
VERTEX
  8
LAYER-1
 10
2.820060
 20
0.169202
 30
0.000000
  0
VERTEX
  8
LAYER-1
 10
2.818324
 20
0.164862
 30
0.000000
  0
VERTEX
  8
LAYER-1
 10
2.818324
 20
0.160522
 30
0.000000
  0
VERTEX
  8
LAYER-1
 10
2.821796
 20
0.156182
 30
0.000000
  0
VERTEX
  8
LAYER-1
 10
2.826136
 20
0.156182
 30
0.000000
  0
VERTEX
  8
LAYER-1
 10
2.830477
 20
0.157049
 30
0.000000
  0
VERTEX
  8
LAYER-1
 10
2.833080
 20
0.161390
 30
0.000000
  0
SEQEND
  8
LAYER-1
  0
POLYLINE
  8
LAYER-1
 66
  1
 70
  1
 62
  0
 10
2.766239
 20
0.124932
 30
0.000000
  0
VERTEX
  8
LAYER-1
 10
2.766239
 20
0.124932
 30
0.000000
  0
VERTEX
  8
LAYER-1
 10
2.743671
 20
0.137952
 30
0.000000
  0
VERTEX
  8
LAYER-1
 10
2.764503
 20
0.107570
 30
0.000000
  0
SEQEND
  8
LAYER-1
  0
POLYLINE
  8
LAYER-1
 66
  1
 70
  1
 62
  0
 10
1.503754
 20
0.106434
 30
0.000000
  0
VERTEX
  8
LAYER-1
 10
1.503754
 20
0.106434
 30
0.000000
  0
VERTEX
  8
LAYER-1
 10
1.484388
 20
0.119120
 30
0.000000
  0
VERTEX
  8
LAYER-1
 10
1.478379
 20
0.107769
 30
0.000000
  0
SEQEND
  8
LAYER-1
  0
POLYLINE
  8
LAYER-1
 66
  1
 70
  0
 62
  0
 10
1.563984
 20
0.094983
 30
0.000000
  0
VERTEX
  8
LAYER-1
 10
1.563984
 20
0.094983
 30
0.000000
  0
VERTEX
  8
LAYER-1
 10
1.563984
 20
0.099323
 30
0.000000
  0
VERTEX
  8
LAYER-1
 10
1.559643
 20
0.102796
 30
0.000000
  0
VERTEX
  8
LAYER-1
 10
1.554436
 20
0.103664
 30
0.000000
  0
VERTEX
  8
LAYER-1
 10
1.550095
 20
0.101928
 30
0.000000
  0
VERTEX
  8
LAYER-1
 10
1.548359
 20
0.097588
 30
0.000000
  0
VERTEX
  8
LAYER-1
 10
1.548359
 20
0.093246
 30
0.000000
  0
VERTEX
  8
LAYER-1
 10
1.551831
 20
0.088907
 30
0.000000
  0
VERTEX
  8
LAYER-1
 10
1.556171
 20
0.088907
 30
0.000000
  0
VERTEX
  8
LAYER-1
 10
1.560512
 20
0.089775
 30
0.000000
  0
VERTEX
  8
LAYER-1
 10
1.563115
 20
0.094115
 30
0.000000
  0
SEQEND
  8
LAYER-1
  0
POLYLINE
  8
LAYER-1
 66
  1
 70
  0
 62
  0
 10
2.683776
 20
0.114515
 30
0.000000
  0
VERTEX
  8
LAYER-1
 10
2.683776
 20
0.114515
 30
0.000000
  0
VERTEX
  8
LAYER-1
 10
2.683776
 20
0.118856
 30
0.000000
  0
VERTEX
  8
LAYER-1
 10
2.679435
 20
0.122327
 30
0.000000
  0
VERTEX
  8
LAYER-1
 10
2.674227
 20
0.123195
 30
0.000000
  0
VERTEX
  8
LAYER-1
 10
2.669886
 20
0.121459
 30
0.000000
  0
VERTEX
  8
LAYER-1
 10
2.668151
 20
0.117120
 30
0.000000
  0
VERTEX
  8
LAYER-1
 10
2.668151
 20
0.112779
 30
0.000000
  0
VERTEX
  8
LAYER-1
 10
2.671622
 20
0.108438
 30
0.000000
  0
VERTEX
  8
LAYER-1
 10
2.675963
 20
0.108438
 30
0.000000
  0
VERTEX
  8
LAYER-1
 10
2.680304
 20
0.109307
 30
0.000000
  0
VERTEX
  8
LAYER-1
 10
2.682907
 20
0.113647
 30
0.000000
  0
SEQEND
  8
LAYER-1
  0
POLYLINE
  8
LAYER-1
 66
  1
 70
  1
 62
  0
 10
2.876483
 20
0.115818
 30
0.000000
  0
VERTEX
  8
LAYER-1
 10
2.876483
 20
0.115818
 30
0.000000
  0
VERTEX
  8
LAYER-1
 10
2.869538
 20
0.141858
 30
0.000000
  0
VERTEX
  8
LAYER-1
 10
2.844365
 20
0.127971
 30
0.000000
  0
SEQEND
  8
LAYER-1
  0
POLYLINE
  8
LAYER-1
 66
  1
 70
  1
 62
  0
 10
2.323532
 20
0.102796
 30
0.000000
  0
VERTEX
  8
LAYER-1
 10
2.323532
 20
0.102796
 30
0.000000
  0
VERTEX
  8
LAYER-1
 10
2.300961
 20
0.115818
 30
0.000000
  0
VERTEX
  8
LAYER-1
 10
2.321794
 20
0.085435
 30
0.000000
  0
SEQEND
  8
LAYER-1
  0
POLYLINE
  8
LAYER-1
 66
  1
 70
  1
 62
  0
 10
3.101310
 20
0.127102
 30
0.000000
  0
VERTEX
  8
LAYER-1
 10
3.101310
 20
0.127102
 30
0.000000
  0
VERTEX
  8
LAYER-1
 10
3.117803
 20
0.152276
 30
0.000000
  0
VERTEX
  8
LAYER-1
 10
3.103046
 20
0.160088
 30
0.000000
  0
SEQEND
  8
LAYER-1
  0
POLYLINE
  8
LAYER-1
 66
  1
 70
  0
 62
  0
 10
3.236726
 20
0.094982
 30
0.000000
  0
VERTEX
  8
LAYER-1
 10
3.236726
 20
0.094982
 30
0.000000
  0
VERTEX
  8
LAYER-1
 10
3.241066
 20
0.094982
 30
0.000000
  0
VERTEX
  8
LAYER-1
 10
3.244538
 20
0.099322
 30
0.000000
  0
VERTEX
  8
LAYER-1
 10
3.245406
 20
0.104529
 30
0.000000
  0
VERTEX
  8
LAYER-1
 10
3.243670
 20
0.108871
 30
0.000000
  0
VERTEX
  8
LAYER-1
 10
3.239329
 20
0.110607
 30
0.000000
  0
VERTEX
  8
LAYER-1
 10
3.234990
 20
0.110607
 30
0.000000
  0
VERTEX
  8
LAYER-1
 10
3.230649
 20
0.107135
 30
0.000000
  0
VERTEX
  8
LAYER-1
 10
3.230649
 20
0.102794
 30
0.000000
  0
VERTEX
  8
LAYER-1
 10
3.231517
 20
0.098453
 30
0.000000
  0
VERTEX
  8
LAYER-1
 10
3.235858
 20
0.095848
 30
0.000000
  0
SEQEND
  8
LAYER-1
  0
POLYLINE
  8
LAYER-1
 66
  1
 70
  1
 62
  0
 10
2.888635
 20
0.152276
 30
0.000000
  0
VERTEX
  8
LAYER-1
 10
2.888635
 20
0.152276
 30
0.000000
  0
VERTEX
  8
LAYER-1
 10
2.901656
 20
0.174846
 30
0.000000
  0
VERTEX
  8
LAYER-1
 10
2.871274
 20
0.154014
 30
0.000000
  0
SEQEND
  8
LAYER-1
  0
POLYLINE
  8
LAYER-1
 66
  1
 70
  1
 62
  0
 10
3.142275
 20
0.103132
 30
0.000000
  0
VERTEX
  8
LAYER-1
 10
3.142275
 20
0.103132
 30
0.000000
  0
VERTEX
  8
LAYER-1
 10
3.154961
 20
0.122495
 30
0.000000
  0
VERTEX
  8
LAYER-1
 10
3.143611
 20
0.128507
 30
0.000000
  0
SEQEND
  8
LAYER-1
  0
POLYLINE
  8
LAYER-1
 66
  1
 70
  0
 62
  0
 10
2.463287
 20
0.162693
 30
0.000000
  0
VERTEX
  8
LAYER-1
 10
2.463287
 20
0.162693
 30
0.000000
  0
VERTEX
  8
LAYER-1
 10
2.463287
 20
0.167032
 30
0.000000
  0
VERTEX
  8
LAYER-1
 10
2.458947
 20
0.170506
 30
0.000000
  0
VERTEX
  8
LAYER-1
 10
2.453739
 20
0.171372
 30
0.000000
  0
VERTEX
  8
LAYER-1
 10
2.449398
 20
0.169637
 30
0.000000
  0
VERTEX
  8
LAYER-1
 10
2.447662
 20
0.165296
 30
0.000000
  0
VERTEX
  8
LAYER-1
 10
2.447662
 20
0.160956
 30
0.000000
  0
VERTEX
  8
LAYER-1
 10
2.451134
 20
0.156616
 30
0.000000
  0
VERTEX
  8
LAYER-1
 10
2.455475
 20
0.156616
 30
0.000000
  0
VERTEX
  8
LAYER-1
 10
2.459816
 20
0.157483
 30
0.000000
  0
VERTEX
  8
LAYER-1
 10
2.462420
 20
0.161825
 30
0.000000
  0
SEQEND
  8
LAYER-1
  0
POLYLINE
  8
LAYER-1
 66
  1
 70
  0
 62
  0
 10
3.049226
 20
0.133179
 30
0.000000
  0
VERTEX
  8
LAYER-1
 10
3.049226
 20
0.133179
 30
0.000000
  0
VERTEX
  8
LAYER-1
 10
3.053567
 20
0.133179
 30
0.000000
  0
VERTEX
  8
LAYER-1
 10
3.057039
 20
0.137520
 30
0.000000
  0
VERTEX
  8
LAYER-1
 10
3.057907
 20
0.142727
 30
0.000000
  0
VERTEX
  8
LAYER-1
 10
3.056171
 20
0.147068
 30
0.000000
  0
VERTEX
  8
LAYER-1
 10
3.051830
 20
0.148804
 30
0.000000
  0
VERTEX
  8
LAYER-1
 10
3.047490
 20
0.148804
 30
0.000000
  0
VERTEX
  8
LAYER-1
 10
3.043150
 20
0.145332
 30
0.000000
  0
VERTEX
  8
LAYER-1
 10
3.043150
 20
0.140991
 30
0.000000
  0
VERTEX
  8
LAYER-1
 10
3.044018
 20
0.136651
 30
0.000000
  0
VERTEX
  8
LAYER-1
 10
3.048358
 20
0.134046
 30
0.000000
  0
SEQEND
  8
LAYER-1
  0
POLYLINE
  8
LAYER-1
 66
  1
 70
  0
 62
  0
 10
3.213289
 20
0.140991
 30
0.000000
  0
VERTEX
  8
LAYER-1
 10
3.213289
 20
0.140991
 30
0.000000
  0
VERTEX
  8
LAYER-1
 10
3.217629
 20
0.140991
 30
0.000000
  0
VERTEX
  8
LAYER-1
 10
3.221101
 20
0.145332
 30
0.000000
  0
VERTEX
  8
LAYER-1
 10
3.221969
 20
0.150540
 30
0.000000
  0
VERTEX
  8
LAYER-1
 10
3.220233
 20
0.154881
 30
0.000000
  0
VERTEX
  8
LAYER-1
 10
3.215893
 20
0.156616
 30
0.000000
  0
VERTEX
  8
LAYER-1
 10
3.211553
 20
0.156616
 30
0.000000
  0
VERTEX
  8
LAYER-1
 10
3.207212
 20
0.153145
 30
0.000000
  0
VERTEX
  8
LAYER-1
 10
3.207212
 20
0.148804
 30
0.000000
  0
VERTEX
  8
LAYER-1
 10
3.208080
 20
0.144463
 30
0.000000
  0
VERTEX
  8
LAYER-1
 10
3.212421
 20
0.141858
 30
0.000000
  0
SEQEND
  8
LAYER-1
  0
POLYLINE
  8
LAYER-1
 66
  1
 70
  1
 62
  0
 10
3.620407
 20
0.139256
 30
0.000000
  0
VERTEX
  8
LAYER-1
 10
3.620407
 20
0.139256
 30
0.000000
  0
VERTEX
  8
LAYER-1
 10
3.627351
 20
0.113214
 30
0.000000
  0
VERTEX
  8
LAYER-1
 10
3.652524
 20
0.127102
 30
0.000000
  0
SEQEND
  8
LAYER-1
  0
POLYLINE
  8
LAYER-1
 66
  1
 70
  1
 62
  0
 10
3.786639
 20
0.093248
 30
0.000000
  0
VERTEX
  8
LAYER-1
 10
3.786639
 20
0.093248
 30
0.000000
  0
VERTEX
  8
LAYER-1
 10
3.773618
 20
0.070679
 30
0.000000
  0
VERTEX
  8
LAYER-1
 10
3.804001
 20
0.091512
 30
0.000000
  0
SEQEND
  8
LAYER-1
  0
POLYLINE
  8
LAYER-1
 66
  1
 70
  1
 62
  0
 10
3.671621
 20
0.183523
 30
0.000000
  0
VERTEX
  8
LAYER-1
 10
3.671621
 20
0.183523
 30
0.000000
  0
VERTEX
  8
LAYER-1
 10
3.655129
 20
0.158348
 30
0.000000
  0
VERTEX
  8
LAYER-1
 10
3.669885
 20
0.150536
 30
0.000000
  0
SEQEND
  8
LAYER-1
  0
POLYLINE
  8
LAYER-1
 66
  1
 70
  0
 62
  0
 10
3.586553
 20
0.170506
 30
0.000000
  0
VERTEX
  8
LAYER-1
 10
3.586553
 20
0.170506
 30
0.000000
  0
VERTEX
  8
LAYER-1
 10
3.582212
 20
0.170506
 30
0.000000
  0
VERTEX
  8
LAYER-1
 10
3.578740
 20
0.166165
 30
0.000000
  0
VERTEX
  8
LAYER-1
 10
3.577871
 20
0.160957
 30
0.000000
  0
VERTEX
  8
LAYER-1
 10
3.579608
 20
0.156616
 30
0.000000
  0
VERTEX
  8
LAYER-1
 10
3.583947
 20
0.154881
 30
0.000000
  0
VERTEX
  8
LAYER-1
 10
3.588288
 20
0.154881
 30
0.000000
  0
VERTEX
  8
LAYER-1
 10
3.592628
 20
0.158352
 30
0.000000
  0
VERTEX
  8
LAYER-1
 10
3.592628
 20
0.162693
 30
0.000000
  0
VERTEX
  8
LAYER-1
 10
3.591760
 20
0.167034
 30
0.000000
  0
VERTEX
  8
LAYER-1
 10
3.587420
 20
0.169638
 30
0.000000
  0
SEQEND
  8
LAYER-1
  0
POLYLINE
  8
LAYER-1
 66
  1
 70
  1
 62
  0
 10
3.570059
 20
0.110608
 30
0.000000
  0
VERTEX
  8
LAYER-1
 10
3.570059
 20
0.110608
 30
0.000000
  0
VERTEX
  8
LAYER-1
 10
3.557038
 20
0.088038
 30
0.000000
  0
VERTEX
  8
LAYER-1
 10
3.587420
 20
0.108871
 30
0.000000
  0
SEQEND
  8
LAYER-1
  0
POLYLINE
  8
LAYER-1
 66
  1
 70
  1
 62
  0
 10
3.625514
 20
0.208961
 30
0.000000
  0
VERTEX
  8
LAYER-1
 10
3.625514
 20
0.208961
 30
0.000000
  0
VERTEX
  8
LAYER-1
 10
3.644879
 20
0.196274
 30
0.000000
  0
VERTEX
  8
LAYER-1
 10
3.650889
 20
0.207625
 30
0.000000
  0
SEQEND
  8
LAYER-1
  0
POLYLINE
  8
LAYER-1
 66
  1
 70
  0
 62
  0
 10
3.510162
 20
0.160211
 30
0.000000
  0
VERTEX
  8
LAYER-1
 10
3.510162
 20
0.160211
 30
0.000000
  0
VERTEX
  8
LAYER-1
 10
3.505822
 20
0.160211
 30
0.000000
  0
VERTEX
  8
LAYER-1
 10
3.502349
 20
0.155869
 30
0.000000
  0
VERTEX
  8
LAYER-1
 10
3.501482
 20
0.150662
 30
0.000000
  0
VERTEX
  8
LAYER-1
 10
3.503218
 20
0.146322
 30
0.000000
  0
VERTEX
  8
LAYER-1
 10
3.507558
 20
0.144586
 30
0.000000
  0
VERTEX
  8
LAYER-1
 10
3.511899
 20
0.144586
 30
0.000000
  0
VERTEX
  8
LAYER-1
 10
3.516238
 20
0.148057
 30
0.000000
  0
VERTEX
  8
LAYER-1
 10
3.516238
 20
0.152398
 30
0.000000
  0
VERTEX
  8
LAYER-1
 10
3.515371
 20
0.156738
 30
0.000000
  0
VERTEX
  8
LAYER-1
 10
3.511031
 20
0.159342
 30
0.000000
  0
SEQEND
  8
LAYER-1
  0
POLYLINE
  8
LAYER-1
 66
  1
 70
  0
 62
  0
 10
3.886901
 20
0.132306
 30
0.000000
  0
VERTEX
  8
LAYER-1
 10
3.886901
 20
0.132306
 30
0.000000
  0
VERTEX
  8
LAYER-1
 10
3.882562
 20
0.132306
 30
0.000000
  0
VERTEX
  8
LAYER-1
 10
3.879089
 20
0.127965
 30
0.000000
  0
VERTEX
  8
LAYER-1
 10
3.878221
 20
0.122758
 30
0.000000
  0
VERTEX
  8
LAYER-1
 10
3.879957
 20
0.118417
 30
0.000000
  0
VERTEX
  8
LAYER-1
 10
3.884297
 20
0.116681
 30
0.000000
  0
VERTEX
  8
LAYER-1
 10
3.888637
 20
0.116681
 30
0.000000
  0
VERTEX
  8
LAYER-1
 10
3.892978
 20
0.120153
 30
0.000000
  0
VERTEX
  8
LAYER-1
 10
3.892978
 20
0.124494
 30
0.000000
  0
VERTEX
  8
LAYER-1
 10
3.892110
 20
0.128834
 30
0.000000
  0
VERTEX
  8
LAYER-1
 10
3.887769
 20
0.131438
 30
0.000000
  0
SEQEND
  8
LAYER-1
  0
POLYLINE
  8
LAYER-1
 66
  1
 70
  0
 62
  0
 10
3.618670
 20
0.103663
 30
0.000000
  0
VERTEX
  8
LAYER-1
 10
3.618670
 20
0.103663
 30
0.000000
  0
VERTEX
  8
LAYER-1
 10
3.614331
 20
0.103663
 30
0.000000
  0
VERTEX
  8
LAYER-1
 10
3.610858
 20
0.099322
 30
0.000000
  0
VERTEX
  8
LAYER-1
 10
3.609990
 20
0.094115
 30
0.000000
  0
VERTEX
  8
LAYER-1
 10
3.611726
 20
0.089773
 30
0.000000
  0
VERTEX
  8
LAYER-1
 10
3.616066
 20
0.088038
 30
0.000000
  0
VERTEX
  8
LAYER-1
 10
3.620406
 20
0.088038
 30
0.000000
  0
VERTEX
  8
LAYER-1
 10
3.624747
 20
0.091510
 30
0.000000
  0
VERTEX
  8
LAYER-1
 10
3.624747
 20
0.095851
 30
0.000000
  0
VERTEX
  8
LAYER-1
 10
3.623879
 20
0.100191
 30
0.000000
  0
VERTEX
  8
LAYER-1
 10
3.619538
 20
0.102795
 30
0.000000
  0
SEQEND
  8
LAYER-1
  0
POLYLINE
  8
LAYER-1
 66
  1
 70
  1
 62
  0
 10
3.416847
 20
0.163127
 30
0.000000
  0
VERTEX
  8
LAYER-1
 10
3.416847
 20
0.163127
 30
0.000000
  0
VERTEX
  8
LAYER-1
 10
3.390807
 20
0.156182
 30
0.000000
  0
VERTEX
  8
LAYER-1
 10
3.404694
 20
0.131009
 30
0.000000
  0
SEQEND
  8
LAYER-1
  0
POLYLINE
  8
LAYER-1
 66
  1
 70
  1
 62
  0
 10
3.323966
 20
0.111911
 30
0.000000
  0
VERTEX
  8
LAYER-1
 10
3.323966
 20
0.111911
 30
0.000000
  0
VERTEX
  8
LAYER-1
 10
3.301396
 20
0.124932
 30
0.000000
  0
VERTEX
  8
LAYER-1
 10
3.322228
 20
0.094550
 30
0.000000
  0
SEQEND
  8
LAYER-1
  0
POLYLINE
  8
LAYER-1
 66
  1
 70
  1
 62
  0
 10
3.287507
 20
0.157047
 30
0.000000
  0
VERTEX
  8
LAYER-1
 10
3.287507
 20
0.157047
 30
0.000000
  0
VERTEX
  8
LAYER-1
 10
3.262334
 20
0.173540
 30
0.000000
  0
VERTEX
  8
LAYER-1
 10
3.254521
 20
0.158783
 30
0.000000
  0
SEQEND
  8
LAYER-1
  0
POLYLINE
  8
LAYER-1
 66
  1
 70
  0
 62
  0
 10
3.448097
 20
0.212606
 30
0.000000
  0
VERTEX
  8
LAYER-1
 10
3.448097
 20
0.212606
 30
0.000000
  0
VERTEX
  8
LAYER-1
 10
3.448097
 20
0.216946
 30
0.000000
  0
VERTEX
  8
LAYER-1
 10
3.443757
 20
0.220418
 30
0.000000
  0
VERTEX
  8
LAYER-1
 10
3.438549
 20
0.221286
 30
0.000000
  0
VERTEX
  8
LAYER-1
 10
3.434208
 20
0.219550
 30
0.000000
  0
VERTEX
  8
LAYER-1
 10
3.432472
 20
0.215209
 30
0.000000
  0
VERTEX
  8
LAYER-1
 10
3.432472
 20
0.210870
 30
0.000000
  0
VERTEX
  8
LAYER-1
 10
3.435944
 20
0.206529
 30
0.000000
  0
VERTEX
  8
LAYER-1
 10
3.440285
 20
0.206529
 30
0.000000
  0
VERTEX
  8
LAYER-1
 10
3.444625
 20
0.207397
 30
0.000000
  0
VERTEX
  8
LAYER-1
 10
3.447230
 20
0.211738
 30
0.000000
  0
SEQEND
  8
LAYER-1
  0
POLYLINE
  8
LAYER-1
 66
  1
 70
  1
 62
  0
 10
3.380390
 20
0.175279
 30
0.000000
  0
VERTEX
  8
LAYER-1
 10
3.380390
 20
0.175279
 30
0.000000
  0
VERTEX
  8
LAYER-1
 10
3.357819
 20
0.188300
 30
0.000000
  0
VERTEX
  8
LAYER-1
 10
3.378652
 20
0.157918
 30
0.000000
  0
SEQEND
  8
LAYER-1
  0
POLYLINE
  8
LAYER-1
 66
  1
 70
  1
 62
  0
 10
3.332044
 20
0.182320
 30
0.000000
  0
VERTEX
  8
LAYER-1
 10
3.332044
 20
0.182320
 30
0.000000
  0
VERTEX
  8
LAYER-1
 10
3.319357
 20
0.162956
 30
0.000000
  0
VERTEX
  8
LAYER-1
 10
3.330708
 20
0.156945
 30
0.000000
  0
SEQEND
  8
LAYER-1
  0
POLYLINE
  8
LAYER-1
 66
  1
 70
  0
 62
  0
 10
3.449833
 20
0.085001
 30
0.000000
  0
VERTEX
  8
LAYER-1
 10
3.449833
 20
0.085001
 30
0.000000
  0
VERTEX
  8
LAYER-1
 10
3.449833
 20
0.089340
 30
0.000000
  0
VERTEX
  8
LAYER-1
 10
3.445493
 20
0.092813
 30
0.000000
  0
VERTEX
  8
LAYER-1
 10
3.440285
 20
0.093681
 30
0.000000
  0
VERTEX
  8
LAYER-1
 10
3.435944
 20
0.091945
 30
0.000000
  0
VERTEX
  8
LAYER-1
 10
3.434208
 20
0.087604
 30
0.000000
  0
VERTEX
  8
LAYER-1
 10
3.434208
 20
0.083264
 30
0.000000
  0
VERTEX
  8
LAYER-1
 10
3.437680
 20
0.078924
 30
0.000000
  0
VERTEX
  8
LAYER-1
 10
3.442021
 20
0.078924
 30
0.000000
  0
VERTEX
  8
LAYER-1
 10
3.446362
 20
0.079792
 30
0.000000
  0
VERTEX
  8
LAYER-1
 10
3.448966
 20
0.084133
 30
0.000000
  0
SEQEND
  8
LAYER-1
  0
POLYLINE
  8
LAYER-1
 66
  1
 70
  0
 62
  0
 10
3.368236
 20
0.085869
 30
0.000000
  0
VERTEX
  8
LAYER-1
 10
3.368236
 20
0.085869
 30
0.000000
  0
VERTEX
  8
LAYER-1
 10
3.368236
 20
0.090209
 30
0.000000
  0
VERTEX
  8
LAYER-1
 10
3.363895
 20
0.093681
 30
0.000000
  0
VERTEX
  8
LAYER-1
 10
3.358688
 20
0.094549
 30
0.000000
  0
VERTEX
  8
LAYER-1
 10
3.354347
 20
0.092813
 30
0.000000
  0
VERTEX
  8
LAYER-1
 10
3.352611
 20
0.088472
 30
0.000000
  0
VERTEX
  8
LAYER-1
 10
3.352611
 20
0.084133
 30
0.000000
  0
VERTEX
  8
LAYER-1
 10
3.356082
 20
0.079792
 30
0.000000
  0
VERTEX
  8
LAYER-1
 10
3.360423
 20
0.079792
 30
0.000000
  0
VERTEX
  8
LAYER-1
 10
3.364764
 20
0.080660
 30
0.000000
  0
VERTEX
  8
LAYER-1
 10
3.367369
 20
0.085001
 30
0.000000
  0
SEQEND
  8
LAYER-1
  0
POLYLINE
  8
LAYER-1
 66
  1
 70
  0
 62
  0
 10
3.297924
 20
0.196112
 30
0.000000
  0
VERTEX
  8
LAYER-1
 10
3.297924
 20
0.196112
 30
0.000000
  0
VERTEX
  8
LAYER-1
 10
3.297924
 20
0.200452
 30
0.000000
  0
VERTEX
  8
LAYER-1
 10
3.293583
 20
0.203924
 30
0.000000
  0
VERTEX
  8
LAYER-1
 10
3.288375
 20
0.204792
 30
0.000000
  0
VERTEX
  8
LAYER-1
 10
3.284035
 20
0.203056
 30
0.000000
  0
VERTEX
  8
LAYER-1
 10
3.282299
 20
0.198715
 30
0.000000
  0
VERTEX
  8
LAYER-1
 10
3.282299
 20
0.194376
 30
0.000000
  0
VERTEX
  8
LAYER-1
 10
3.285771
 20
0.190035
 30
0.000000
  0
VERTEX
  8
LAYER-1
 10
3.290112
 20
0.190035
 30
0.000000
  0
VERTEX
  8
LAYER-1
 10
3.294452
 20
0.190903
 30
0.000000
  0
VERTEX
  8
LAYER-1
 10
3.297057
 20
0.195244
 30
0.000000
  0
SEQEND
  8
LAYER-1
  0
POLYLINE
  8
LAYER-1
 66
  1
 70
  1
 62
  0
 10
4.080476
 20
0.185696
 30
0.000000
  0
VERTEX
  8
LAYER-1
 10
4.080476
 20
0.185696
 30
0.000000
  0
VERTEX
  8
LAYER-1
 10
4.087421
 20
0.159654
 30
0.000000
  0
VERTEX
  8
LAYER-1
 10
4.112594
 20
0.173543
 30
0.000000
  0
SEQEND
  8
LAYER-1
  0
POLYLINE
  8
LAYER-1
 66
  1
 70
  1
 62
  0
 10
4.242803
 20
0.214342
 30
0.000000
  0
VERTEX
  8
LAYER-1
 10
4.242803
 20
0.214342
 30
0.000000
  0
VERTEX
  8
LAYER-1
 10
4.229781
 20
0.191772
 30
0.000000
  0
VERTEX
  8
LAYER-1
 10
4.260163
 20
0.212606
 30
0.000000
  0
SEQEND
  8
LAYER-1
  0
POLYLINE
  8
LAYER-1
 66
  1
 70
  1
 62
  0
 10
4.221969
 20
0.129271
 30
0.000000
  0
VERTEX
  8
LAYER-1
 10
4.221969
 20
0.129271
 30
0.000000
  0
VERTEX
  8
LAYER-1
 10
4.205476
 20
0.104096
 30
0.000000
  0
VERTEX
  8
LAYER-1
 10
4.220233
 20
0.096284
 30
0.000000
  0
SEQEND
  8
LAYER-1
  0
POLYLINE
  8
LAYER-1
 66
  1
 70
  0
 62
  0
 10
4.030997
 20
0.216946
 30
0.000000
  0
VERTEX
  8
LAYER-1
 10
4.030997
 20
0.216946
 30
0.000000
  0
VERTEX
  8
LAYER-1
 10
4.026656
 20
0.216946
 30
0.000000
  0
VERTEX
  8
LAYER-1
 10
4.023184
 20
0.212606
 30
0.000000
  0
VERTEX
  8
LAYER-1
 10
4.022316
 20
0.207397
 30
0.000000
  0
VERTEX
  8
LAYER-1
 10
4.024053
 20
0.203057
 30
0.000000
  0
VERTEX
  8
LAYER-1
 10
4.028393
 20
0.201321
 30
0.000000
  0
VERTEX
  8
LAYER-1
 10
4.032733
 20
0.201321
 30
0.000000
  0
VERTEX
  8
LAYER-1
 10
4.037074
 20
0.204793
 30
0.000000
  0
VERTEX
  8
LAYER-1
 10
4.037074
 20
0.209134
 30
0.000000
  0
VERTEX
  8
LAYER-1
 10
4.036206
 20
0.213475
 30
0.000000
  0
VERTEX
  8
LAYER-1
 10
4.031865
 20
0.216078
 30
0.000000
  0
SEQEND
  8
LAYER-1
  0
POLYLINE
  8
LAYER-1
 66
  1
 70
  1
 62
  0
 10
4.052263
 20
0.148802
 30
0.000000
  0
VERTEX
  8
LAYER-1
 10
4.052263
 20
0.148802
 30
0.000000
  0
VERTEX
  8
LAYER-1
 10
4.074833
 20
0.135782
 30
0.000000
  0
VERTEX
  8
LAYER-1
 10
4.054000
 20
0.166163
 30
0.000000
  0
SEQEND
  8
LAYER-1
  0
POLYLINE
  8
LAYER-1
 66
  1
 70
  1
 62
  0
 10
4.168917
 20
0.140823
 30
0.000000
  0
VERTEX
  8
LAYER-1
 10
4.168917
 20
0.140823
 30
0.000000
  0
VERTEX
  8
LAYER-1
 10
4.188282
 20
0.128135
 30
0.000000
  0
VERTEX
  8
LAYER-1
 10
4.194292
 20
0.139487
 30
0.000000
  0
SEQEND
  8
LAYER-1
  0
POLYLINE
  8
LAYER-1
 66
  1
 70
  0
 62
  0
 10
4.182906
 20
0.218682
 30
0.000000
  0
VERTEX
  8
LAYER-1
 10
4.182906
 20
0.218682
 30
0.000000
  0
VERTEX
  8
LAYER-1
 10
4.178566
 20
0.218682
 30
0.000000
  0
VERTEX
  8
LAYER-1
 10
4.175094
 20
0.214341
 30
0.000000
  0
VERTEX
  8
LAYER-1
 10
4.174226
 20
0.209134
 30
0.000000
  0
VERTEX
  8
LAYER-1
 10
4.175962
 20
0.204793
 30
0.000000
  0
VERTEX
  8
LAYER-1
 10
4.180303
 20
0.203057
 30
0.000000
  0
VERTEX
  8
LAYER-1
 10
4.184643
 20
0.203057
 30
0.000000
  0
VERTEX
  8
LAYER-1
 10
4.188983
 20
0.206529
 30
0.000000
  0
VERTEX
  8
LAYER-1
 10
4.188983
 20
0.210870
 30
0.000000
  0
VERTEX
  8
LAYER-1
 10
4.188115
 20
0.215210
 30
0.000000
  0
VERTEX
  8
LAYER-1
 10
4.183774
 20
0.217814
 30
0.000000
  0
SEQEND
  8
LAYER-1
  0
POLYLINE
  8
LAYER-1
 66
  1
 70
  0
 62
  0
 10
4.267108
 20
0.091944
 30
0.000000
  0
VERTEX
  8
LAYER-1
 10
4.267108
 20
0.091944
 30
0.000000
  0
VERTEX
  8
LAYER-1
 10
4.262768
 20
0.091944
 30
0.000000
  0
VERTEX
  8
LAYER-1
 10
4.259296
 20
0.087603
 30
0.000000
  0
VERTEX
  8
LAYER-1
 10
4.258428
 20
0.082396
 30
0.000000
  0
VERTEX
  8
LAYER-1
 10
4.260164
 20
0.078055
 30
0.000000
  0
VERTEX
  8
LAYER-1
 10
4.264503
 20
0.076319
 30
0.000000
  0
VERTEX
  8
LAYER-1
 10
4.268844
 20
0.076319
 30
0.000000
  0
VERTEX
  8
LAYER-1
 10
4.273185
 20
0.079791
 30
0.000000
  0
VERTEX
  8
LAYER-1
 10
4.273185
 20
0.084132
 30
0.000000
  0
VERTEX
  8
LAYER-1
 10
4.272316
 20
0.088472
 30
0.000000
  0
VERTEX
  8
LAYER-1
 10
4.267976
 20
0.091076
 30
0.000000
  0
SEQEND
  8
LAYER-1
  0
POLYLINE
  8
LAYER-1
 66
  1
 70
  0
 62
  0
 10
4.113463
 20
0.146629
 30
0.000000
  0
VERTEX
  8
LAYER-1
 10
4.113463
 20
0.146629
 30
0.000000
  0
VERTEX
  8
LAYER-1
 10
4.109122
 20
0.146629
 30
0.000000
  0
VERTEX
  8
LAYER-1
 10
4.105650
 20
0.142289
 30
0.000000
  0
VERTEX
  8
LAYER-1
 10
4.104782
 20
0.137082
 30
0.000000
  0
VERTEX
  8
LAYER-1
 10
4.106518
 20
0.132740
 30
0.000000
  0
VERTEX
  8
LAYER-1
 10
4.110858
 20
0.131004
 30
0.000000
  0
VERTEX
  8
LAYER-1
 10
4.115199
 20
0.131004
 30
0.000000
  0
VERTEX
  8
LAYER-1
 10
4.119539
 20
0.134477
 30
0.000000
  0
VERTEX
  8
LAYER-1
 10
4.119539
 20
0.138817
 30
0.000000
  0
VERTEX
  8
LAYER-1
 10
4.118671
 20
0.143158
 30
0.000000
  0
VERTEX
  8
LAYER-1
 10
4.114331
 20
0.145762
 30
0.000000
  0
SEQEND
  8
LAYER-1
  0
POLYLINE
  8
LAYER-1
 66
  1
 70
  1
 62
  0
 10
3.948533
 20
0.155311
 30
0.000000
  0
VERTEX
  8
LAYER-1
 10
3.948533
 20
0.155311
 30
0.000000
  0
VERTEX
  8
LAYER-1
 10
3.941588
 20
0.181352
 30
0.000000
  0
VERTEX
  8
LAYER-1
 10
3.916414
 20
0.167464
 30
0.000000
  0
SEQEND
  8
LAYER-1
  0
POLYLINE
  8
LAYER-1
 66
  1
 70
  1
 62
  0
 10
3.537508
 20
0.186995
 30
0.000000
  0
VERTEX
  8
LAYER-1
 10
3.537508
 20
0.186995
 30
0.000000
  0
VERTEX
  8
LAYER-1
 10
3.550528
 20
0.209565
 30
0.000000
  0
VERTEX
  8
LAYER-1
 10
3.520147
 20
0.188733
 30
0.000000
  0
SEQEND
  8
LAYER-1
  0
POLYLINE
  8
LAYER-1
 66
  1
 70
  1
 62
  0
 10
3.834816
 20
0.180487
 30
0.000000
  0
VERTEX
  8
LAYER-1
 10
3.834816
 20
0.180487
 30
0.000000
  0
VERTEX
  8
LAYER-1
 10
3.851310
 20
0.205660
 30
0.000000
  0
VERTEX
  8
LAYER-1
 10
3.836553
 20
0.213472
 30
0.000000
  0
SEQEND
  8
LAYER-1
  0
POLYLINE
  8
LAYER-1
 66
  1
 70
  0
 62
  0
 10
3.998011
 20
0.124061
 30
0.000000
  0
VERTEX
  8
LAYER-1
 10
3.998011
 20
0.124061
 30
0.000000
  0
VERTEX
  8
LAYER-1
 10
4.002352
 20
0.124061
 30
0.000000
  0
VERTEX
  8
LAYER-1
 10
4.005824
 20
0.128402
 30
0.000000
  0
VERTEX
  8
LAYER-1
 10
4.006693
 20
0.133609
 30
0.000000
  0
VERTEX
  8
LAYER-1
 10
4.004957
 20
0.137950
 30
0.000000
  0
VERTEX
  8
LAYER-1
 10
4.000616
 20
0.139686
 30
0.000000
  0
VERTEX
  8
LAYER-1
 10
3.996275
 20
0.139686
 30
0.000000
  0
VERTEX
  8
LAYER-1
 10
3.991934
 20
0.136214
 30
0.000000
  0
VERTEX
  8
LAYER-1
 10
3.991934
 20
0.131873
 30
0.000000
  0
VERTEX
  8
LAYER-1
 10
3.992803
 20
0.127533
 30
0.000000
  0
VERTEX
  8
LAYER-1
 10
3.997144
 20
0.124928
 30
0.000000
  0
SEQEND
  8
LAYER-1
  0
POLYLINE
  8
LAYER-1
 66
  1
 70
  1
 62
  0
 10
3.952004
 20
0.120590
 30
0.000000
  0
VERTEX
  8
LAYER-1
 10
3.952004
 20
0.120590
 30
0.000000
  0
VERTEX
  8
LAYER-1
 10
3.965025
 20
0.143161
 30
0.000000
  0
VERTEX
  8
LAYER-1
 10
3.934643
 20
0.122328
 30
0.000000
  0
SEQEND
  8
LAYER-1
  0
POLYLINE
  8
LAYER-1
 66
  1
 70
  1
 62
  0
 10
3.897417
 20
0.161992
 30
0.000000
  0
VERTEX
  8
LAYER-1
 10
3.897417
 20
0.161992
 30
0.000000
  0
VERTEX
  8
LAYER-1
 10
3.878053
 20
0.174679
 30
0.000000
  0
VERTEX
  8
LAYER-1
 10
3.872042
 20
0.163328
 30
0.000000
  0
SEQEND
  8
LAYER-1
  0
POLYLINE
  8
LAYER-1
 66
  1
 70
  0
 62
  0
 10
3.874311
 20
0.058647
 30
0.000000
  0
VERTEX
  8
LAYER-1
 10
3.874311
 20
0.058647
 30
0.000000
  0
VERTEX
  8
LAYER-1
 10
3.878652
 20
0.058647
 30
0.000000
  0
VERTEX
  8
LAYER-1
 10
3.882124
 20
0.062987
 30
0.000000
  0
VERTEX
  8
LAYER-1
 10
3.882993
 20
0.068195
 30
0.000000
  0
VERTEX
  8
LAYER-1
 10
3.881257
 20
0.072536
 30
0.000000
  0
VERTEX
  8
LAYER-1
 10
3.876916
 20
0.074272
 30
0.000000
  0
VERTEX
  8
LAYER-1
 10
3.872575
 20
0.074272
 30
0.000000
  0
VERTEX
  8
LAYER-1
 10
3.868234
 20
0.070800
 30
0.000000
  0
VERTEX
  8
LAYER-1
 10
3.868234
 20
0.066460
 30
0.000000
  0
VERTEX
  8
LAYER-1
 10
3.869103
 20
0.062119
 30
0.000000
  0
VERTEX
  8
LAYER-1
 10
3.873444
 20
0.059514
 30
0.000000
  0
SEQEND
  8
LAYER-1
  0
POLYLINE
  8
LAYER-1
 66
  1
 70
  0
 62
  0
 10
3.784469
 20
0.201442
 30
0.000000
  0
VERTEX
  8
LAYER-1
 10
3.784469
 20
0.201442
 30
0.000000
  0
VERTEX
  8
LAYER-1
 10
3.788809
 20
0.201442
 30
0.000000
  0
VERTEX
  8
LAYER-1
 10
3.792281
 20
0.205783
 30
0.000000
  0
VERTEX
  8
LAYER-1
 10
3.793148
 20
0.210991
 30
0.000000
  0
VERTEX
  8
LAYER-1
 10
3.791412
 20
0.215331
 30
0.000000
  0
VERTEX
  8
LAYER-1
 10
3.787072
 20
0.217067
 30
0.000000
  0
VERTEX
  8
LAYER-1
 10
3.782733
 20
0.217067
 30
0.000000
  0
VERTEX
  8
LAYER-1
 10
3.778392
 20
0.213595
 30
0.000000
  0
VERTEX
  8
LAYER-1
 10
3.778392
 20
0.209255
 30
0.000000
  0
VERTEX
  8
LAYER-1
 10
3.779259
 20
0.204914
 30
0.000000
  0
VERTEX
  8
LAYER-1
 10
3.783600
 20
0.202310
 30
0.000000
  0
SEQEND
  8
LAYER-1
  0
POLYLINE
  8
LAYER-1
 66
  1
 70
  0
 62
  0
 10
3.946796
 20
0.194376
 30
0.000000
  0
VERTEX
  8
LAYER-1
 10
3.946796
 20
0.194376
 30
0.000000
  0
VERTEX
  8
LAYER-1
 10
3.951137
 20
0.194376
 30
0.000000
  0
VERTEX
  8
LAYER-1
 10
3.954609
 20
0.198716
 30
0.000000
  0
VERTEX
  8
LAYER-1
 10
3.955476
 20
0.203924
 30
0.000000
  0
VERTEX
  8
LAYER-1
 10
3.953740
 20
0.208265
 30
0.000000
  0
VERTEX
  8
LAYER-1
 10
3.949399
 20
0.210001
 30
0.000000
  0
VERTEX
  8
LAYER-1
 10
3.945060
 20
0.210001
 30
0.000000
  0
VERTEX
  8
LAYER-1
 10
3.940720
 20
0.206529
 30
0.000000
  0
VERTEX
  8
LAYER-1
 10
3.940720
 20
0.202188
 30
0.000000
  0
VERTEX
  8
LAYER-1
 10
3.941587
 20
0.197847
 30
0.000000
  0
VERTEX
  8
LAYER-1
 10
3.945928
 20
0.195243
 30
0.000000
  0
SEQEND
  8
LAYER-1
  0
POLYLINE
  8
LAYER-1
 66
  1
 70
  1
 62
  0
 10
4.702871
 20
0.163561
 30
0.000000
  0
VERTEX
  8
LAYER-1
 10
4.702871
 20
0.163561
 30
0.000000
  0
VERTEX
  8
LAYER-1
 10
4.709816
 20
0.137520
 30
0.000000
  0
VERTEX
  8
LAYER-1
 10
4.734989
 20
0.151408
 30
0.000000
  0
SEQEND
  8
LAYER-1
  0
POLYLINE
  8
LAYER-1
 66
  1
 70
  1
 62
  0
 10
4.829606
 20
0.199152
 30
0.000000
  0
VERTEX
  8
LAYER-1
 10
4.829606
 20
0.199152
 30
0.000000
  0
VERTEX
  8
LAYER-1
 10
4.816585
 20
0.176582
 30
0.000000
  0
VERTEX
  8
LAYER-1
 10
4.846967
 20
0.197415
 30
0.000000
  0
SEQEND
  8
LAYER-1
  0
POLYLINE
  8
LAYER-1
 66
  1
 70
  1
 62
  0
 10
4.504956
 20
0.187867
 30
0.000000
  0
VERTEX
  8
LAYER-1
 10
4.504956
 20
0.187867
 30
0.000000
  0
VERTEX
  8
LAYER-1
 10
4.488463
 20
0.162693
 30
0.000000
  0
VERTEX
  8
LAYER-1
 10
4.503220
 20
0.154881
 30
0.000000
  0
SEQEND
  8
LAYER-1
  0
POLYLINE
  8
LAYER-1
 66
  1
 70
  0
 62
  0
 10
4.615197
 20
0.180057
 30
0.000000
  0
VERTEX
  8
LAYER-1
 10
4.615197
 20
0.180057
 30
0.000000
  0
VERTEX
  8
LAYER-1
 10
4.610857
 20
0.180057
 30
0.000000
  0
VERTEX
  8
LAYER-1
 10
4.607385
 20
0.175716
 30
0.000000
  0
VERTEX
  8
LAYER-1
 10
4.606516
 20
0.170508
 30
0.000000
  0
VERTEX
  8
LAYER-1
 10
4.608252
 20
0.166167
 30
0.000000
  0
VERTEX
  8
LAYER-1
 10
4.612593
 20
0.164432
 30
0.000000
  0
VERTEX
  8
LAYER-1
 10
4.616934
 20
0.164432
 30
0.000000
  0
VERTEX
  8
LAYER-1
 10
4.621273
 20
0.167903
 30
0.000000
  0
VERTEX
  8
LAYER-1
 10
4.621273
 20
0.172245
 30
0.000000
  0
VERTEX
  8
LAYER-1
 10
4.620405
 20
0.176585
 30
0.000000
  0
VERTEX
  8
LAYER-1
 10
4.616065
 20
0.179189
 30
0.000000
  0
SEQEND
  8
LAYER-1
  0
POLYLINE
  8
LAYER-1
 66
  1
 70
  1
 62
  0
 10
4.644712
 20
0.134047
 30
0.000000
  0
VERTEX
  8
LAYER-1
 10
4.644712
 20
0.134047
 30
0.000000
  0
VERTEX
  8
LAYER-1
 10
4.631691
 20
0.111477
 30
0.000000
  0
VERTEX
  8
LAYER-1
 10
4.662072
 20
0.132310
 30
0.000000
  0
SEQEND
  8
LAYER-1
  0
POLYLINE
  8
LAYER-1
 66
  1
 70
  1
 62
  0
 10
4.852009
 20
0.134578
 30
0.000000
  0
VERTEX
  8
LAYER-1
 10
4.852009
 20
0.134578
 30
0.000000
  0
VERTEX
  8
LAYER-1
 10
4.839322
 20
0.115213
 30
0.000000
  0
VERTEX
  8
LAYER-1
 10
4.850674
 20
0.109203
 30
0.000000
  0
SEQEND
  8
LAYER-1
  0
POLYLINE
  8
LAYER-1
 66
  1
 70
  0
 62
  0
 10
4.759293
 20
0.203491
 30
0.000000
  0
VERTEX
  8
LAYER-1
 10
4.759293
 20
0.203491
 30
0.000000
  0
VERTEX
  8
LAYER-1
 10
4.754953
 20
0.203491
 30
0.000000
  0
VERTEX
  8
LAYER-1
 10
4.751481
 20
0.199151
 30
0.000000
  0
VERTEX
  8
LAYER-1
 10
4.750613
 20
0.193943
 30
0.000000
  0
VERTEX
  8
LAYER-1
 10
4.752349
 20
0.189602
 30
0.000000
  0
VERTEX
  8
LAYER-1
 10
4.756689
 20
0.187866
 30
0.000000
  0
VERTEX
  8
LAYER-1
 10
4.761030
 20
0.187866
 30
0.000000
  0
VERTEX
  8
LAYER-1
 10
4.765370
 20
0.191338
 30
0.000000
  0
VERTEX
  8
LAYER-1
 10
4.765370
 20
0.195679
 30
0.000000
  0
VERTEX
  8
LAYER-1
 10
4.764501
 20
0.200020
 30
0.000000
  0
VERTEX
  8
LAYER-1
 10
4.760162
 20
0.202623
 30
0.000000
  0
SEQEND
  8
LAYER-1
  0
POLYLINE
  8
LAYER-1
 66
  1
 70
  0
 62
  0
 10
4.546622
 20
0.193942
 30
0.000000
  0
VERTEX
  8
LAYER-1
 10
4.546622
 20
0.193942
 30
0.000000
  0
VERTEX
  8
LAYER-1
 10
4.542282
 20
0.193942
 30
0.000000
  0
VERTEX
  8
LAYER-1
 10
4.538809
 20
0.189601
 30
0.000000
  0
VERTEX
  8
LAYER-1
 10
4.537941
 20
0.184394
 30
0.000000
  0
VERTEX
  8
LAYER-1
 10
4.539678
 20
0.180053
 30
0.000000
  0
VERTEX
  8
LAYER-1
 10
4.544018
 20
0.178317
 30
0.000000
  0
VERTEX
  8
LAYER-1
 10
4.548359
 20
0.178317
 30
0.000000
  0
VERTEX
  8
LAYER-1
 10
4.552699
 20
0.181789
 30
0.000000
  0
VERTEX
  8
LAYER-1
 10
4.552699
 20
0.186129
 30
0.000000
  0
VERTEX
  8
LAYER-1
 10
4.551831
 20
0.190470
 30
0.000000
  0
VERTEX
  8
LAYER-1
 10
4.547491
 20
0.193075
 30
0.000000
  0
SEQEND
  8
LAYER-1
  0
POLYLINE
  8
LAYER-1
 66
  1
 70
  0
 62
  0
 10
4.794018
 20
0.166162
 30
0.000000
  0
VERTEX
  8
LAYER-1
 10
4.794018
 20
0.166162
 30
0.000000
  0
VERTEX
  8
LAYER-1
 10
4.789678
 20
0.166162
 30
0.000000
  0
VERTEX
  8
LAYER-1
 10
4.786205
 20
0.161821
 30
0.000000
  0
VERTEX
  8
LAYER-1
 10
4.785338
 20
0.156614
 30
0.000000
  0
VERTEX
  8
LAYER-1
 10
4.787074
 20
0.152273
 30
0.000000
  0
VERTEX
  8
LAYER-1
 10
4.791415
 20
0.150537
 30
0.000000
  0
VERTEX
  8
LAYER-1
 10
4.795755
 20
0.150537
 30
0.000000
  0
VERTEX
  8
LAYER-1
 10
4.800094
 20
0.154009
 30
0.000000
  0
VERTEX
  8
LAYER-1
 10
4.800094
 20
0.158350
 30
0.000000
  0
VERTEX
  8
LAYER-1
 10
4.799227
 20
0.162690
 30
0.000000
  0
VERTEX
  8
LAYER-1
 10
4.794887
 20
0.165294
 30
0.000000
  0
SEQEND
  8
LAYER-1
  0
POLYLINE
  8
LAYER-1
 66
  1
 70
  1
 62
  0
 10
4.408601
 20
0.112778
 30
0.000000
  0
VERTEX
  8
LAYER-1
 10
4.408601
 20
0.112778
 30
0.000000
  0
VERTEX
  8
LAYER-1
 10
4.401656
 20
0.138819
 30
0.000000
  0
VERTEX
  8
LAYER-1
 10
4.376483
 20
0.124931
 30
0.000000
  0
SEQEND
  8
LAYER-1
  0
POLYLINE
  8
LAYER-1
 66
  1
 70
  1
 62
  0
 10
4.256691
 20
0.153575
 30
0.000000
  0
VERTEX
  8
LAYER-1
 10
4.256691
 20
0.153575
 30
0.000000
  0
VERTEX
  8
LAYER-1
 10
4.269712
 20
0.176145
 30
0.000000
  0
VERTEX
  8
LAYER-1
 10
4.239330
 20
0.155312
 30
0.000000
  0
SEQEND
  8
LAYER-1
  0
POLYLINE
  8
LAYER-1
 66
  1
 70
  1
 62
  0
 10
4.340025
 20
0.113648
 30
0.000000
  0
VERTEX
  8
LAYER-1
 10
4.340025
 20
0.113648
 30
0.000000
  0
VERTEX
  8
LAYER-1
 10
4.356518
 20
0.138822
 30
0.000000
  0
VERTEX
  8
LAYER-1
 10
4.341761
 20
0.146634
 30
0.000000
  0
SEQEND
  8
LAYER-1
  0
POLYLINE
  8
LAYER-1
 66
  1
 70
  0
 62
  0
 10
4.514505
 20
0.115385
 30
0.000000
  0
VERTEX
  8
LAYER-1
 10
4.514505
 20
0.115385
 30
0.000000
  0
VERTEX
  8
LAYER-1
 10
4.518846
 20
0.115385
 30
0.000000
  0
VERTEX
  8
LAYER-1
 10
4.522318
 20
0.119726
 30
0.000000
  0
VERTEX
  8
LAYER-1
 10
4.523185
 20
0.124934
 30
0.000000
  0
VERTEX
  8
LAYER-1
 10
4.521450
 20
0.129275
 30
0.000000
  0
VERTEX
  8
LAYER-1
 10
4.517109
 20
0.131010
 30
0.000000
  0
VERTEX
  8
LAYER-1
 10
4.512769
 20
0.131010
 30
0.000000
  0
VERTEX
  8
LAYER-1
 10
4.508428
 20
0.127539
 30
0.000000
  0
VERTEX
  8
LAYER-1
 10
4.508428
 20
0.123198
 30
0.000000
  0
VERTEX
  8
LAYER-1
 10
4.509296
 20
0.118857
 30
0.000000
  0
VERTEX
  8
LAYER-1
 10
4.513637
 20
0.116252
 30
0.000000
  0
SEQEND
  8
LAYER-1
  0
POLYLINE
  8
LAYER-1
 66
  1
 70
  1
 62
  0
 10
4.465892
 20
0.130141
 30
0.000000
  0
VERTEX
  8
LAYER-1
 10
4.465892
 20
0.130141
 30
0.000000
  0
VERTEX
  8
LAYER-1
 10
4.478913
 20
0.152711
 30
0.000000
  0
VERTEX
  8
LAYER-1
 10
4.448531
 20
0.131878
 30
0.000000
  0
SEQEND
  8
LAYER-1
  0
POLYLINE
  8
LAYER-1
 66
  1
 70
  1
 62
  0
 10
4.354949
 20
0.166066
 30
0.000000
  0
VERTEX
  8
LAYER-1
 10
4.354949
 20
0.166066
 30
0.000000
  0
VERTEX
  8
LAYER-1
 10
4.367635
 20
0.185430
 30
0.000000
  0
VERTEX
  8
LAYER-1
 10
4.356285
 20
0.191441
 30
0.000000
  0
SEQEND
  8
LAYER-1
  0
POLYLINE
  8
LAYER-1
 66
  1
 70
  0
 62
  0
 10
4.310596
 20
0.197537
 30
0.000000
  0
VERTEX
  8
LAYER-1
 10
4.310596
 20
0.197537
 30
0.000000
  0
VERTEX
  8
LAYER-1
 10
4.314936
 20
0.197537
 30
0.000000
  0
VERTEX
  8
LAYER-1
 10
4.318409
 20
0.201878
 30
0.000000
  0
VERTEX
  8
LAYER-1
 10
4.319277
 20
0.207086
 30
0.000000
  0
VERTEX
  8
LAYER-1
 10
4.317541
 20
0.211426
 30
0.000000
  0
VERTEX
  8
LAYER-1
 10
4.313200
 20
0.213162
 30
0.000000
  0
VERTEX
  8
LAYER-1
 10
4.308860
 20
0.213162
 30
0.000000
  0
VERTEX
  8
LAYER-1
 10
4.304520
 20
0.209691
 30
0.000000
  0
VERTEX
  8
LAYER-1
 10
4.304520
 20
0.205349
 30
0.000000
  0
VERTEX
  8
LAYER-1
 10
4.305388
 20
0.201009
 30
0.000000
  0
VERTEX
  8
LAYER-1
 10
4.309728
 20
0.198404
 30
0.000000
  0
SEQEND
  8
LAYER-1
  0
POLYLINE
  8
LAYER-1
 66
  1
 70
  0
 62
  0
 10
4.287941
 20
0.119726
 30
0.000000
  0
VERTEX
  8
LAYER-1
 10
4.287941
 20
0.119726
 30
0.000000
  0
VERTEX
  8
LAYER-1
 10
4.292282
 20
0.119726
 30
0.000000
  0
VERTEX
  8
LAYER-1
 10
4.295754
 20
0.124066
 30
0.000000
  0
VERTEX
  8
LAYER-1
 10
4.296622
 20
0.129273
 30
0.000000
  0
VERTEX
  8
LAYER-1
 10
4.294886
 20
0.133614
 30
0.000000
  0
VERTEX
  8
LAYER-1
 10
4.290546
 20
0.135351
 30
0.000000
  0
VERTEX
  8
LAYER-1
 10
4.286206
 20
0.135351
 30
0.000000
  0
VERTEX
  8
LAYER-1
 10
4.281865
 20
0.131878
 30
0.000000
  0
VERTEX
  8
LAYER-1
 10
4.281865
 20
0.127538
 30
0.000000
  0
VERTEX
  8
LAYER-1
 10
4.282733
 20
0.123197
 30
0.000000
  0
VERTEX
  8
LAYER-1
 10
4.287074
 20
0.120592
 30
0.000000
  0
SEQEND
  8
LAYER-1
  0
POLYLINE
  8
LAYER-1
 66
  1
 70
  0
 62
  0
 10
4.452004
 20
0.196982
 30
0.000000
  0
VERTEX
  8
LAYER-1
 10
4.452004
 20
0.196982
 30
0.000000
  0
VERTEX
  8
LAYER-1
 10
4.456345
 20
0.196982
 30
0.000000
  0
VERTEX
  8
LAYER-1
 10
4.459816
 20
0.201322
 30
0.000000
  0
VERTEX
  8
LAYER-1
 10
4.460684
 20
0.206529
 30
0.000000
  0
VERTEX
  8
LAYER-1
 10
4.458949
 20
0.210871
 30
0.000000
  0
VERTEX
  8
LAYER-1
 10
4.454608
 20
0.212607
 30
0.000000
  0
VERTEX
  8
LAYER-1
 10
4.450268
 20
0.212607
 30
0.000000
  0
VERTEX
  8
LAYER-1
 10
4.445928
 20
0.209134
 30
0.000000
  0
VERTEX
  8
LAYER-1
 10
4.445928
 20
0.204794
 30
0.000000
  0
VERTEX
  8
LAYER-1
 10
4.446796
 20
0.200453
 30
0.000000
  0
VERTEX
  8
LAYER-1
 10
4.451136
 20
0.197848
 30
0.000000
  0
SEQEND
  8
LAYER-1
  0
POLYLINE
  8
LAYER-1
 66
  1
 70
  1
 62
  0
 10
4.903821
 20
0.153577
 30
0.000000
  0
VERTEX
  8
LAYER-1
 10
4.903821
 20
0.153577
 30
0.000000
  0
VERTEX
  8
LAYER-1
 10
4.929863
 20
0.160522
 30
0.000000
  0
VERTEX
  8
LAYER-1
 10
4.915975
 20
0.185695
 30
0.000000
  0
SEQEND
  8
LAYER-1
  0
POLYLINE
  8
LAYER-1
 66
  1
 70
  1
 62
  0
 10
4.586117
 20
0.206529
 30
0.000000
  0
VERTEX
  8
LAYER-1
 10
4.586117
 20
0.206529
 30
0.000000
  0
VERTEX
  8
LAYER-1
 10
4.608687
 20
0.193509
 30
0.000000
  0
VERTEX
  8
LAYER-1
 10
4.587854
 20
0.223891
 30
0.000000
  0
SEQEND
  8
LAYER-1
  0
POLYLINE
  8
LAYER-1
 66
  1
 70
  1
 62
  0
 10
5.522746
 20
0.111907
 30
0.000000
  0
VERTEX
  8
LAYER-1
 10
5.522746
 20
0.111907
 30
0.000000
  0
VERTEX
  8
LAYER-1
 10
5.547921
 20
0.095414
 30
0.000000
  0
VERTEX
  8
LAYER-1
 10
5.555733
 20
0.110171
 30
0.000000
  0
SEQEND
  8
LAYER-1
  0
POLYLINE
  8
LAYER-1
 66
  1
 70
  0
 62
  0
 10
5.343926
 20
0.120589
 30
0.000000
  0
VERTEX
  8
LAYER-1
 10
5.343926
 20
0.120589
 30
0.000000
  0
VERTEX
  8
LAYER-1
 10
5.343926
 20
0.116250
 30
0.000000
  0
VERTEX
  8
LAYER-1
 10
5.348267
 20
0.112777
 30
0.000000
  0
VERTEX
  8
LAYER-1
 10
5.353475
 20
0.111910
 30
0.000000
  0
VERTEX
  8
LAYER-1
 10
5.357815
 20
0.113646
 30
0.000000
  0
VERTEX
  8
LAYER-1
 10
5.359551
 20
0.117985
 30
0.000000
  0
VERTEX
  8
LAYER-1
 10
5.359551
 20
0.122326
 30
0.000000
  0
VERTEX
  8
LAYER-1
 10
5.356080
 20
0.126666
 30
0.000000
  0
VERTEX
  8
LAYER-1
 10
5.351739
 20
0.126666
 30
0.000000
  0
VERTEX
  8
LAYER-1
 10
5.347398
 20
0.125798
 30
0.000000
  0
VERTEX
  8
LAYER-1
 10
5.344794
 20
0.121458
 30
0.000000
  0
SEQEND
  8
LAYER-1
  0
POLYLINE
  8
LAYER-1
 66
  1
 70
  1
 62
  0
 10
4.974135
 20
0.140555
 30
0.000000
  0
VERTEX
  8
LAYER-1
 10
4.974135
 20
0.140555
 30
0.000000
  0
VERTEX
  8
LAYER-1
 10
4.996705
 20
0.127535
 30
0.000000
  0
VERTEX
  8
LAYER-1
 10
4.975872
 20
0.157916
 30
0.000000
  0
SEQEND
  8
LAYER-1
  0
POLYLINE
  8
LAYER-1
 66
  1
 70
  1
 62
  0
 10
4.937143
 20
0.211570
 30
0.000000
  0
VERTEX
  8
LAYER-1
 10
4.937143
 20
0.211570
 30
0.000000
  0
VERTEX
  8
LAYER-1
 10
4.956508
 20
0.198884
 30
0.000000
  0
VERTEX
  8
LAYER-1
 10
4.962518
 20
0.210235
 30
0.000000
  0
SEQEND
  8
LAYER-1
  0
POLYLINE
  8
LAYER-1
 66
  1
 70
  0
 62
  0
 10
4.581778
 20
0.146634
 30
0.000000
  0
VERTEX
  8
LAYER-1
 10
4.581778
 20
0.146634
 30
0.000000
  0
VERTEX
  8
LAYER-1
 10
4.581778
 20
0.142294
 30
0.000000
  0
VERTEX
  8
LAYER-1
 10
4.586118
 20
0.138821
 30
0.000000
  0
VERTEX
  8
LAYER-1
 10
4.591326
 20
0.137953
 30
0.000000
  0
VERTEX
  8
LAYER-1
 10
4.595666
 20
0.139689
 30
0.000000
  0
VERTEX
  8
LAYER-1
 10
4.597402
 20
0.144029
 30
0.000000
  0
VERTEX
  8
LAYER-1
 10
4.597402
 20
0.148370
 30
0.000000
  0
VERTEX
  8
LAYER-1
 10
4.593931
 20
0.152710
 30
0.000000
  0
VERTEX
  8
LAYER-1
 10
4.589590
 20
0.152710
 30
0.000000
  0
VERTEX
  8
LAYER-1
 10
4.585249
 20
0.151842
 30
0.000000
  0
VERTEX
  8
LAYER-1
 10
4.582645
 20
0.147502
 30
0.000000
  0
SEQEND
  8
LAYER-1
  0
POLYLINE
  8
LAYER-1
 66
  1
 70
  0
 62
  0
 10
4.988023
 20
0.108438
 30
0.000000
  0
VERTEX
  8
LAYER-1
 10
4.988023
 20
0.108438
 30
0.000000
  0
VERTEX
  8
LAYER-1
 10
4.988023
 20
0.104097
 30
0.000000
  0
VERTEX
  8
LAYER-1
 10
4.992364
 20
0.100626
 30
0.000000
  0
VERTEX
  8
LAYER-1
 10
4.997571
 20
0.099757
 30
0.000000
  0
VERTEX
  8
LAYER-1
 10
5.001912
 20
0.101494
 30
0.000000
  0
VERTEX
  8
LAYER-1
 10
5.003648
 20
0.105833
 30
0.000000
  0
VERTEX
  8
LAYER-1
 10
5.003648
 20
0.110174
 30
0.000000
  0
VERTEX
  8
LAYER-1
 10
5.000176
 20
0.114515
 30
0.000000
  0
VERTEX
  8
LAYER-1
 10
4.995836
 20
0.114515
 30
0.000000
  0
VERTEX
  8
LAYER-1
 10
4.991495
 20
0.113646
 30
0.000000
  0
VERTEX
  8
LAYER-1
 10
4.988891
 20
0.109306
 30
0.000000
  0
SEQEND
  8
LAYER-1
  0
POLYLINE
  8
LAYER-1
 66
  1
 70
  0
 62
  0
 10
5.056600
 20
0.144029
 30
0.000000
  0
VERTEX
  8
LAYER-1
 10
5.056600
 20
0.144029
 30
0.000000
  0
VERTEX
  8
LAYER-1
 10
5.056600
 20
0.139688
 30
0.000000
  0
VERTEX
  8
LAYER-1
 10
5.060940
 20
0.136216
 30
0.000000
  0
VERTEX
  8
LAYER-1
 10
5.066148
 20
0.135347
 30
0.000000
  0
VERTEX
  8
LAYER-1
 10
5.070489
 20
0.137084
 30
0.000000
  0
VERTEX
  8
LAYER-1
 10
5.072225
 20
0.141424
 30
0.000000
  0
VERTEX
  8
LAYER-1
 10
5.072225
 20
0.145765
 30
0.000000
  0
VERTEX
  8
LAYER-1
 10
5.068753
 20
0.150106
 30
0.000000
  0
VERTEX
  8
LAYER-1
 10
5.064412
 20
0.150106
 30
0.000000
  0
VERTEX
  8
LAYER-1
 10
5.060071
 20
0.149237
 30
0.000000
  0
VERTEX
  8
LAYER-1
 10
5.057468
 20
0.144897
 30
0.000000
  0
SEQEND
  8
LAYER-1
  0
POLYLINE
  8
LAYER-1
 66
  1
 70
  1
 62
  0
 10
5.096010
 20
0.165296
 30
0.000000
  0
VERTEX
  8
LAYER-1
 10
5.096010
 20
0.165296
 30
0.000000
  0
VERTEX
  8
LAYER-1
 10
5.102954
 20
0.139256
 30
0.000000
  0
VERTEX
  8
LAYER-1
 10
5.128128
 20
0.153143
 30
0.000000
  0
SEQEND
  8
LAYER-1
  0
POLYLINE
  8
LAYER-1
 66
  1
 70
  1
 62
  0
 10
5.257555
 20
0.193943
 30
0.000000
  0
VERTEX
  8
LAYER-1
 10
5.257555
 20
0.193943
 30
0.000000
  0
VERTEX
  8
LAYER-1
 10
5.244534
 20
0.171372
 30
0.000000
  0
VERTEX
  8
LAYER-1
 10
5.274916
 20
0.192206
 30
0.000000
  0
SEQEND
  8
LAYER-1
  0
POLYLINE
  8
LAYER-1
 66
  1
 70
  1
 62
  0
 10
5.649917
 20
0.164424
 30
0.000000
  0
VERTEX
  8
LAYER-1
 10
5.649917
 20
0.164424
 30
0.000000
  0
VERTEX
  8
LAYER-1
 10
5.633424
 20
0.139251
 30
0.000000
  0
VERTEX
  8
LAYER-1
 10
5.648181
 20
0.131438
 30
0.000000
  0
SEQEND
  8
LAYER-1
  0
POLYLINE
  8
LAYER-1
 66
  1
 70
  0
 62
  0
 10
5.045750
 20
0.196546
 30
0.000000
  0
VERTEX
  8
LAYER-1
 10
5.045750
 20
0.196546
 30
0.000000
  0
VERTEX
  8
LAYER-1
 10
5.041409
 20
0.196546
 30
0.000000
  0
VERTEX
  8
LAYER-1
 10
5.037937
 20
0.192206
 30
0.000000
  0
VERTEX
  8
LAYER-1
 10
5.037069
 20
0.186997
 30
0.000000
  0
VERTEX
  8
LAYER-1
 10
5.038805
 20
0.182657
 30
0.000000
  0
VERTEX
  8
LAYER-1
 10
5.043146
 20
0.180921
 30
0.000000
  0
VERTEX
  8
LAYER-1
 10
5.047486
 20
0.180921
 30
0.000000
  0
VERTEX
  8
LAYER-1
 10
5.051826
 20
0.184393
 30
0.000000
  0
VERTEX
  8
LAYER-1
 10
5.051826
 20
0.188733
 30
0.000000
  0
VERTEX
  8
LAYER-1
 10
5.050958
 20
0.193075
 30
0.000000
  0
VERTEX
  8
LAYER-1
 10
5.046618
 20
0.195679
 30
0.000000
  0
SEQEND
  8
LAYER-1
  0
POLYLINE
  8
LAYER-1
 66
  1
 70
  1
 62
  0
 10
5.109119
 20
0.120157
 30
0.000000
  0
VERTEX
  8
LAYER-1
 10
5.109119
 20
0.120157
 30
0.000000
  0
VERTEX
  8
LAYER-1
 10
5.096097
 20
0.097586
 30
0.000000
  0
VERTEX
  8
LAYER-1
 10
5.126480
 20
0.118419
 30
0.000000
  0
SEQEND
  8
LAYER-1
  0
POLYLINE
  8
LAYER-1
 66
  1
 70
  1
 62
  0
 10
5.177862
 20
0.097919
 30
0.000000
  0
VERTEX
  8
LAYER-1
 10
5.177862
 20
0.097919
 30
0.000000
  0
VERTEX
  8
LAYER-1
 10
5.190549
 20
0.117283
 30
0.000000
  0
VERTEX
  8
LAYER-1
 10
5.179198
 20
0.123294
 30
0.000000
  0
SEQEND
  8
LAYER-1
  0
POLYLINE
  8
LAYER-1
 66
  1
 70
  0
 62
  0
 10
5.197659
 20
0.198282
 30
0.000000
  0
VERTEX
  8
LAYER-1
 10
5.197659
 20
0.198282
 30
0.000000
  0
VERTEX
  8
LAYER-1
 10
5.193319
 20
0.198282
 30
0.000000
  0
VERTEX
  8
LAYER-1
 10
5.189846
 20
0.193941
 30
0.000000
  0
VERTEX
  8
LAYER-1
 10
5.188978
 20
0.188733
 30
0.000000
  0
VERTEX
  8
LAYER-1
 10
5.190715
 20
0.184393
 30
0.000000
  0
VERTEX
  8
LAYER-1
 10
5.195055
 20
0.182657
 30
0.000000
  0
VERTEX
  8
LAYER-1
 10
5.199396
 20
0.182657
 30
0.000000
  0
VERTEX
  8
LAYER-1
 10
5.203736
 20
0.186128
 30
0.000000
  0
VERTEX
  8
LAYER-1
 10
5.203736
 20
0.190470
 30
0.000000
  0
VERTEX
  8
LAYER-1
 10
5.202868
 20
0.194810
 30
0.000000
  0
VERTEX
  8
LAYER-1
 10
5.198527
 20
0.197415
 30
0.000000
  0
SEQEND
  8
LAYER-1
  0
POLYLINE
  8
LAYER-1
 66
  1
 70
  0
 62
  0
 10
5.702000
 20
0.158347
 30
0.000000
  0
VERTEX
  8
LAYER-1
 10
5.702000
 20
0.158347
 30
0.000000
  0
VERTEX
  8
LAYER-1
 10
5.697659
 20
0.158347
 30
0.000000
  0
VERTEX
  8
LAYER-1
 10
5.694188
 20
0.154007
 30
0.000000
  0
VERTEX
  8
LAYER-1
 10
5.693320
 20
0.148799
 30
0.000000
  0
VERTEX
  8
LAYER-1
 10
5.695056
 20
0.144458
 30
0.000000
  0
VERTEX
  8
LAYER-1
 10
5.699396
 20
0.142722
 30
0.000000
  0
VERTEX
  8
LAYER-1
 10
5.703736
 20
0.142722
 30
0.000000
  0
VERTEX
  8
LAYER-1
 10
5.708077
 20
0.146194
 30
0.000000
  0
VERTEX
  8
LAYER-1
 10
5.708077
 20
0.150535
 30
0.000000
  0
VERTEX
  8
LAYER-1
 10
5.707209
 20
0.154876
 30
0.000000
  0
VERTEX
  8
LAYER-1
 10
5.702868
 20
0.157481
 30
0.000000
  0
SEQEND
  8
LAYER-1
  0
POLYLINE
  8
LAYER-1
 66
  1
 70
  0
 62
  0
 10
5.610855
 20
0.126229
 30
0.000000
  0
VERTEX
  8
LAYER-1
 10
5.610855
 20
0.126229
 30
0.000000
  0
VERTEX
  8
LAYER-1
 10
5.606514
 20
0.126229
 30
0.000000
  0
VERTEX
  8
LAYER-1
 10
5.603043
 20
0.121889
 30
0.000000
  0
VERTEX
  8
LAYER-1
 10
5.602175
 20
0.116681
 30
0.000000
  0
VERTEX
  8
LAYER-1
 10
5.603911
 20
0.112340
 30
0.000000
  0
VERTEX
  8
LAYER-1
 10
5.608251
 20
0.110604
 30
0.000000
  0
VERTEX
  8
LAYER-1
 10
5.612591
 20
0.110604
 30
0.000000
  0
VERTEX
  8
LAYER-1
 10
5.616931
 20
0.114076
 30
0.000000
  0
VERTEX
  8
LAYER-1
 10
5.616931
 20
0.118417
 30
0.000000
  0
VERTEX
  8
LAYER-1
 10
5.616064
 20
0.122758
 30
0.000000
  0
VERTEX
  8
LAYER-1
 10
5.611723
 20
0.125363
 30
0.000000
  0
SEQEND
  8
LAYER-1
  0
POLYLINE
  8
LAYER-1
 66
  1
 70
  1
 62
  0
 10
5.295750
 20
0.180489
 30
0.000000
  0
VERTEX
  8
LAYER-1
 10
5.295750
 20
0.180489
 30
0.000000
  0
VERTEX
  8
LAYER-1
 10
5.321790
 20
0.187433
 30
0.000000
  0
VERTEX
  8
LAYER-1
 10
5.307903
 20
0.212607
 30
0.000000
  0
SEQEND
  8
LAYER-1
  0
POLYLINE
  8
LAYER-1
 66
  1
 70
  0
 62
  0
 10
5.264500
 20
0.131009
 30
0.000000
  0
VERTEX
  8
LAYER-1
 10
5.264500
 20
0.131009
 30
0.000000
  0
VERTEX
  8
LAYER-1
 10
5.264500
 20
0.126669
 30
0.000000
  0
VERTEX
  8
LAYER-1
 10
5.268840
 20
0.123196
 30
0.000000
  0
VERTEX
  8
LAYER-1
 10
5.274048
 20
0.122329
 30
0.000000
  0
VERTEX
  8
LAYER-1
 10
5.278389
 20
0.124065
 30
0.000000
  0
VERTEX
  8
LAYER-1
 10
5.280125
 20
0.128404
 30
0.000000
  0
VERTEX
  8
LAYER-1
 10
5.280125
 20
0.132746
 30
0.000000
  0
VERTEX
  8
LAYER-1
 10
5.276653
 20
0.137085
 30
0.000000
  0
VERTEX
  8
LAYER-1
 10
5.272312
 20
0.137085
 30
0.000000
  0
VERTEX
  8
LAYER-1
 10
5.267971
 20
0.136217
 30
0.000000
  0
VERTEX
  8
LAYER-1
 10
5.265367
 20
0.131877
 30
0.000000
  0
SEQEND
  8
LAYER-1
  0
POLYLINE
  8
LAYER-1
 66
  1
 70
  1
 62
  0
 10
5.359552
 20
0.144463
 30
0.000000
  0
VERTEX
  8
LAYER-1
 10
5.359552
 20
0.144463
 30
0.000000
  0
VERTEX
  8
LAYER-1
 10
5.372572
 20
0.167034
 30
0.000000
  0
VERTEX
  8
LAYER-1
 10
5.342191
 20
0.146201
 30
0.000000
  0
SEQEND
  8
LAYER-1
  0
POLYLINE
  8
LAYER-1
 66
  1
 70
  0
 62
  0
 10
5.414673
 20
0.178752
 30
0.000000
  0
VERTEX
  8
LAYER-1
 10
5.414673
 20
0.178752
 30
0.000000
  0
VERTEX
  8
LAYER-1
 10
5.414673
 20
0.174412
 30
0.000000
  0
VERTEX
  8
LAYER-1
 10
5.419014
 20
0.170940
 30
0.000000
  0
VERTEX
  8
LAYER-1
 10
5.424221
 20
0.170071
 30
0.000000
  0
VERTEX
  8
LAYER-1
 10
5.428562
 20
0.171808
 30
0.000000
  0
VERTEX
  8
LAYER-1
 10
5.430298
 20
0.176147
 30
0.000000
  0
VERTEX
  8
LAYER-1
 10
5.430298
 20
0.180489
 30
0.000000
  0
VERTEX
  8
LAYER-1
 10
5.426826
 20
0.184829
 30
0.000000
  0
VERTEX
  8
LAYER-1
 10
5.422486
 20
0.184829
 30
0.000000
  0
VERTEX
  8
LAYER-1
 10
5.418145
 20
0.183960
 30
0.000000
  0
VERTEX
  8
LAYER-1
 10
5.415540
 20
0.179621
 30
0.000000
  0
SEQEND
  8
LAYER-1
  0
POLYLINE
  8
LAYER-1
 66
  1
 70
  1
 62
  0
 10
6.160598
 20
0.195157
 30
0.000000
  0
VERTEX
  8
LAYER-1
 10
6.160598
 20
0.195157
 30
0.000000
  0
VERTEX
  8
LAYER-1
 10
6.153653
 20
0.221198
 30
0.000000
  0
VERTEX
  8
LAYER-1
 10
6.128479
 20
0.207310
 30
0.000000
  0
SEQEND
  8
LAYER-1
  0
POLYLINE
  8
LAYER-1
 66
  1
 70
  0
 62
  0
 10
6.201137
 20
0.068941
 30
0.000000
  0
VERTEX
  8
LAYER-1
 10
6.201137
 20
0.068941
 30
0.000000
  0
VERTEX
  8
LAYER-1
 10
6.205477
 20
0.068941
 30
0.000000
  0
VERTEX
  8
LAYER-1
 10
6.208949
 20
0.073282
 30
0.000000
  0
VERTEX
  8
LAYER-1
 10
6.209816
 20
0.078490
 30
0.000000
  0
VERTEX
  8
LAYER-1
 10
6.208080
 20
0.082831
 30
0.000000
  0
VERTEX
  8
LAYER-1
 10
6.203740
 20
0.084566
 30
0.000000
  0
VERTEX
  8
LAYER-1
 10
6.199400
 20
0.084566
 30
0.000000
  0
VERTEX
  8
LAYER-1
 10
6.195060
 20
0.081095
 30
0.000000
  0
VERTEX
  8
LAYER-1
 10
6.195060
 20
0.076753
 30
0.000000
  0
VERTEX
  8
LAYER-1
 10
6.195928
 20
0.072413
 30
0.000000
  0
VERTEX
  8
LAYER-1
 10
6.200268
 20
0.069809
 30
0.000000
  0
SEQEND
  8
LAYER-1
  0
POLYLINE
  8
LAYER-1
 66
  1
 70
  1
 62
  0
 10
5.497573
 20
0.101928
 30
0.000000
  0
VERTEX
  8
LAYER-1
 10
5.497573
 20
0.101928
 30
0.000000
  0
VERTEX
  8
LAYER-1
 10
5.510593
 20
0.124497
 30
0.000000
  0
VERTEX
  8
LAYER-1
 10
5.480211
 20
0.103665
 30
0.000000
  0
SEQEND
  8
LAYER-1
  0
POLYLINE
  8
LAYER-1
 66
  1
 70
  0
 62
  0
 10
5.541325
 20
0.180261
 30
0.000000
  0
VERTEX
  8
LAYER-1
 10
5.541325
 20
0.180261
 30
0.000000
  0
VERTEX
  8
LAYER-1
 10
5.545665
 20
0.180261
 30
0.000000
  0
VERTEX
  8
LAYER-1
 10
5.549137
 20
0.184603
 30
0.000000
  0
VERTEX
  8
LAYER-1
 10
5.550006
 20
0.189810
 30
0.000000
  0
VERTEX
  8
LAYER-1
 10
5.548269
 20
0.194150
 30
0.000000
  0
VERTEX
  8
LAYER-1
 10
5.543929
 20
0.195886
 30
0.000000
  0
VERTEX
  8
LAYER-1
 10
5.539589
 20
0.195886
 30
0.000000
  0
VERTEX
  8
LAYER-1
 10
5.535248
 20
0.192415
 30
0.000000
  0
VERTEX
  8
LAYER-1
 10
5.535248
 20
0.188074
 30
0.000000
  0
VERTEX
  8
LAYER-1
 10
5.536117
 20
0.183734
 30
0.000000
  0
VERTEX
  8
LAYER-1
 10
5.540457
 20
0.181129
 30
0.000000
  0
SEQEND
  8
LAYER-1
  0
POLYLINE
  8
LAYER-1
 66
  1
 70
  1
 62
  0
 10
6.080911
 20
0.111044
 30
0.000000
  0
VERTEX
  8
LAYER-1
 10
6.080911
 20
0.111044
 30
0.000000
  0
VERTEX
  8
LAYER-1
 10
6.054869
 20
0.104098
 30
0.000000
  0
VERTEX
  8
LAYER-1
 10
6.068758
 20
0.078925
 30
0.000000
  0
SEQEND
  8
LAYER-1
  0
POLYLINE
  8
LAYER-1
 66
  1
 70
  0
 62
  0
 10
5.445923
 20
0.125802
 30
0.000000
  0
VERTEX
  8
LAYER-1
 10
5.445923
 20
0.125802
 30
0.000000
  0
VERTEX
  8
LAYER-1
 10
5.445923
 20
0.130141
 30
0.000000
  0
VERTEX
  8
LAYER-1
 10
5.441583
 20
0.133614
 30
0.000000
  0
VERTEX
  8
LAYER-1
 10
5.436375
 20
0.134482
 30
0.000000
  0
VERTEX
  8
LAYER-1
 10
5.432034
 20
0.132746
 30
0.000000
  0
VERTEX
  8
LAYER-1
 10
5.430298
 20
0.128404
 30
0.000000
  0
VERTEX
  8
LAYER-1
 10
5.430298
 20
0.124064
 30
0.000000
  0
VERTEX
  8
LAYER-1
 10
5.433770
 20
0.119726
 30
0.000000
  0
VERTEX
  8
LAYER-1
 10
5.438111
 20
0.119726
 30
0.000000
  0
VERTEX
  8
LAYER-1
 10
5.442451
 20
0.120592
 30
0.000000
  0
VERTEX
  8
LAYER-1
 10
5.445055
 20
0.124933
 30
0.000000
  0
SEQEND
  8
LAYER-1
  0
POLYLINE
  8
LAYER-1
 66
  1
 70
  1
 62
  0
 10
6.029695
 20
0.100627
 30
0.000000
  0
VERTEX
  8
LAYER-1
 10
6.029695
 20
0.100627
 30
0.000000
  0
VERTEX
  8
LAYER-1
 10
6.001917
 20
0.117120
 30
0.000000
  0
VERTEX
  8
LAYER-1
 10
6.022750
 20
0.086739
 30
0.000000
  0
SEQEND
  8
LAYER-1
  0
POLYLINE
  8
LAYER-1
 66
  1
 70
  0
 62
  0
 10
5.740195
 20
0.182220
 30
0.000000
  0
VERTEX
  8
LAYER-1
 10
5.740195
 20
0.182220
 30
0.000000
  0
VERTEX
  8
LAYER-1
 10
5.740195
 20
0.186561
 30
0.000000
  0
VERTEX
  8
LAYER-1
 10
5.735854
 20
0.190033
 30
0.000000
  0
VERTEX
  8
LAYER-1
 10
5.730646
 20
0.190902
 30
0.000000
  0
VERTEX
  8
LAYER-1
 10
5.726306
 20
0.189164
 30
0.000000
  0
VERTEX
  8
LAYER-1
 10
5.724570
 20
0.184825
 30
0.000000
  0
VERTEX
  8
LAYER-1
 10
5.724570
 20
0.180484
 30
0.000000
  0
VERTEX
  8
LAYER-1
 10
5.728042
 20
0.176144
 30
0.000000
  0
VERTEX
  8
LAYER-1
 10
5.732382
 20
0.176144
 30
0.000000
  0
VERTEX
  8
LAYER-1
 10
5.736723
 20
0.177013
 30
0.000000
  0
VERTEX
  8
LAYER-1
 10
5.739327
 20
0.181352
 30
0.000000
  0
SEQEND
  8
LAYER-1
  0
POLYLINE
  8
LAYER-1
 66
  1
 70
  1
 62
  0
 10
6.310859
 20
0.088735
 30
0.000000
  0
VERTEX
  8
LAYER-1
 10
6.310859
 20
0.088735
 30
0.000000
  0
VERTEX
  8
LAYER-1
 10
6.303914
 20
0.114776
 30
0.000000
  0
VERTEX
  8
LAYER-1
 10
6.278740
 20
0.100888
 30
0.000000
  0
SEQEND
  8
LAYER-1
  0
POLYLINE
  8
LAYER-1
 66
  1
 70
  0
 62
  0
 10
6.400703
 20
0.188995
 30
0.000000
  0
VERTEX
  8
LAYER-1
 10
6.400703
 20
0.188995
 30
0.000000
  0
VERTEX
  8
LAYER-1
 10
6.405044
 20
0.188995
 30
0.000000
  0
VERTEX
  8
LAYER-1
 10
6.408516
 20
0.193336
 30
0.000000
  0
VERTEX
  8
LAYER-1
 10
6.409383
 20
0.198543
 30
0.000000
  0
VERTEX
  8
LAYER-1
 10
6.407647
 20
0.202884
 30
0.000000
  0
VERTEX
  8
LAYER-1
 10
6.403308
 20
0.204620
 30
0.000000
  0
VERTEX
  8
LAYER-1
 10
6.398967
 20
0.204620
 30
0.000000
  0
VERTEX
  8
LAYER-1
 10
6.394627
 20
0.201148
 30
0.000000
  0
VERTEX
  8
LAYER-1
 10
6.394627
 20
0.196807
 30
0.000000
  0
VERTEX
  8
LAYER-1
 10
6.395496
 20
0.192467
 30
0.000000
  0
VERTEX
  8
LAYER-1
 10
6.399835
 20
0.189863
 30
0.000000
  0
SEQEND
  8
LAYER-1
  0
POLYLINE
  8
LAYER-1
 66
  1
 70
  1
 62
  0
 10
6.385945
 20
0.224151
 30
0.000000
  0
VERTEX
  8
LAYER-1
 10
6.385945
 20
0.224151
 30
0.000000
  0
VERTEX
  8
LAYER-1
 10
6.359903
 20
0.217206
 30
0.000000
  0
VERTEX
  8
LAYER-1
 10
6.373792
 20
0.192034
 30
0.000000
  0
SEQEND
  8
LAYER-1
  0
POLYLINE
  8
LAYER-1
 66
  1
 70
  1
 62
  0
 10
5.634726
 20
0.082834
 30
0.000000
  0
VERTEX
  8
LAYER-1
 10
5.634726
 20
0.082834
 30
0.000000
  0
VERTEX
  8
LAYER-1
 10
5.647746
 20
0.105403
 30
0.000000
  0
VERTEX
  8
LAYER-1
 10
5.617365
 20
0.084571
 30
0.000000
  0
SEQEND
  8
LAYER-1
  0
POLYLINE
  8
LAYER-1
 66
  1
 70
  0
 62
  0
 10
5.631253
 20
0.189603
 30
0.000000
  0
VERTEX
  8
LAYER-1
 10
5.631253
 20
0.189603
 30
0.000000
  0
VERTEX
  8
LAYER-1
 10
5.635593
 20
0.189603
 30
0.000000
  0
VERTEX
  8
LAYER-1
 10
5.639065
 20
0.193944
 30
0.000000
  0
VERTEX
  8
LAYER-1
 10
5.639934
 20
0.199152
 30
0.000000
  0
VERTEX
  8
LAYER-1
 10
5.638198
 20
0.203492
 30
0.000000
  0
VERTEX
  8
LAYER-1
 10
5.633858
 20
0.205228
 30
0.000000
  0
VERTEX
  8
LAYER-1
 10
5.629517
 20
0.205228
 30
0.000000
  0
VERTEX
  8
LAYER-1
 10
5.625176
 20
0.201757
 30
0.000000
  0
VERTEX
  8
LAYER-1
 10
5.625176
 20
0.197416
 30
0.000000
  0
VERTEX
  8
LAYER-1
 10
5.626045
 20
0.193075
 30
0.000000
  0
VERTEX
  8
LAYER-1
 10
5.630386
 20
0.190471
 30
0.000000
  0
SEQEND
  8
LAYER-1
  0
POLYLINE
  8
LAYER-1
 66
  1
 70
  1
 62
  0
 10
5.583943
 20
0.168334
 30
0.000000
  0
VERTEX
  8
LAYER-1
 10
5.583943
 20
0.168334
 30
0.000000
  0
VERTEX
  8
LAYER-1
 10
5.609119
 20
0.151841
 30
0.000000
  0
VERTEX
  8
LAYER-1
 10
5.616931
 20
0.166598
 30
0.000000
  0
SEQEND
  8
LAYER-1
  0
POLYLINE
  8
LAYER-1
 66
  1
 70
  1
 62
  0
 10
5.570591
 20
0.140722
 30
0.000000
  0
VERTEX
  8
LAYER-1
 10
5.570591
 20
0.140722
 30
0.000000
  0
VERTEX
  8
LAYER-1
 10
5.551227
 20
0.153410
 30
0.000000
  0
VERTEX
  8
LAYER-1
 10
5.545215
 20
0.142058
 30
0.000000
  0
SEQEND
  8
LAYER-1
  0
POLYLINE
  8
LAYER-1
 66
  1
 70
  1
 62
  0
 10
1.347836
 20
0.199584
 30
0.000000
  0
VERTEX
  8
LAYER-1
 10
1.347836
 20
0.199584
 30
0.000000
  0
VERTEX
  8
LAYER-1
 10
1.334814
 20
0.177015
 30
0.000000
  0
VERTEX
  8
LAYER-1
 10
1.365197
 20
0.197847
 30
0.000000
  0
SEQEND
  8
LAYER-1
  0
POLYLINE
  8
LAYER-1
 66
  1
 70
  1
 62
  0
 10
5.897316
 20
0.126670
 30
0.000000
  0
VERTEX
  8
LAYER-1
 10
5.897316
 20
0.126670
 30
0.000000
  0
VERTEX
  8
LAYER-1
 10
5.919885
 20
0.113648
 30
0.000000
  0
VERTEX
  8
LAYER-1
 10
5.899053
 20
0.144031
 30
0.000000
  0
SEQEND
  8
LAYER-1
  0
POLYLINE
  8
LAYER-1
 66
  1
 70
  0
 62
  0
 10
5.825267
 20
0.173542
 30
0.000000
  0
VERTEX
  8
LAYER-1
 10
5.825267
 20
0.173542
 30
0.000000
  0
VERTEX
  8
LAYER-1
 10
5.825267
 20
0.169201
 30
0.000000
  0
VERTEX
  8
LAYER-1
 10
5.829608
 20
0.165729
 30
0.000000
  0
VERTEX
  8
LAYER-1
 10
5.834816
 20
0.164862
 30
0.000000
  0
VERTEX
  8
LAYER-1
 10
5.839156
 20
0.166597
 30
0.000000
  0
VERTEX
  8
LAYER-1
 10
5.840892
 20
0.170938
 30
0.000000
  0
VERTEX
  8
LAYER-1
 10
5.840892
 20
0.175278
 30
0.000000
  0
VERTEX
  8
LAYER-1
 10
5.837421
 20
0.179619
 30
0.000000
  0
VERTEX
  8
LAYER-1
 10
5.833080
 20
0.179619
 30
0.000000
  0
VERTEX
  8
LAYER-1
 10
5.828739
 20
0.178751
 30
0.000000
  0
VERTEX
  8
LAYER-1
 10
5.826135
 20
0.174410
 30
0.000000
  0
SEQEND
  8
LAYER-1
  0
POLYLINE
  8
LAYER-1
 66
  1
 70
  1
 62
  0
 10
5.774919
 20
0.184828
 30
0.000000
  0
VERTEX
  8
LAYER-1
 10
5.774919
 20
0.184828
 30
0.000000
  0
VERTEX
  8
LAYER-1
 10
5.797489
 20
0.171807
 30
0.000000
  0
VERTEX
  8
LAYER-1
 10
5.776656
 20
0.202189
 30
0.000000
  0
SEQEND
  8
LAYER-1
  0
POLYLINE
  8
LAYER-1
 66
  1
 70
  0
 62
  0
 10
6.037073
 20
0.126670
 30
0.000000
  0
VERTEX
  8
LAYER-1
 10
6.037073
 20
0.126670
 30
0.000000
  0
VERTEX
  8
LAYER-1
 10
6.037073
 20
0.122329
 30
0.000000
  0
VERTEX
  8
LAYER-1
 10
6.041414
 20
0.118857
 30
0.000000
  0
VERTEX
  8
LAYER-1
 10
6.046621
 20
0.117989
 30
0.000000
  0
VERTEX
  8
LAYER-1
 10
6.050962
 20
0.119726
 30
0.000000
  0
VERTEX
  8
LAYER-1
 10
6.052698
 20
0.124065
 30
0.000000
  0
VERTEX
  8
LAYER-1
 10
6.052698
 20
0.128406
 30
0.000000
  0
VERTEX
  8
LAYER-1
 10
6.049226
 20
0.132746
 30
0.000000
  0
VERTEX
  8
LAYER-1
 10
6.044885
 20
0.132746
 30
0.000000
  0
VERTEX
  8
LAYER-1
 10
6.040545
 20
0.131877
 30
0.000000
  0
VERTEX
  8
LAYER-1
 10
6.037941
 20
0.127538
 30
0.000000
  0
SEQEND
  8
LAYER-1
  0
POLYLINE
  8
LAYER-1
 66
  1
 70
  0
 62
  0
 10
5.871274
 20
0.181357
 30
0.000000
  0
VERTEX
  8
LAYER-1
 10
5.871274
 20
0.181357
 30
0.000000
  0
VERTEX
  8
LAYER-1
 10
5.871274
 20
0.177016
 30
0.000000
  0
VERTEX
  8
LAYER-1
 10
5.875615
 20
0.173545
 30
0.000000
  0
VERTEX
  8
LAYER-1
 10
5.880823
 20
0.172677
 30
0.000000
  0
VERTEX
  8
LAYER-1
 10
5.885164
 20
0.174413
 30
0.000000
  0
VERTEX
  8
LAYER-1
 10
5.886899
 20
0.178752
 30
0.000000
  0
VERTEX
  8
LAYER-1
 10
5.886899
 20
0.183094
 30
0.000000
  0
VERTEX
  8
LAYER-1
 10
5.883428
 20
0.187434
 30
0.000000
  0
VERTEX
  8
LAYER-1
 10
5.879087
 20
0.187434
 30
0.000000
  0
VERTEX
  8
LAYER-1
 10
5.874746
 20
0.186565
 30
0.000000
  0
VERTEX
  8
LAYER-1
 10
5.872141
 20
0.182226
 30
0.000000
  0
SEQEND
  8
LAYER-1
  0
POLYLINE
  8
LAYER-1
 66
  1
 70
  1
 62
  0
 10
5.795754
 20
0.116687
 30
0.000000
  0
VERTEX
  8
LAYER-1
 10
5.795754
 20
0.116687
 30
0.000000
  0
VERTEX
  8
LAYER-1
 10
5.782733
 20
0.094116
 30
0.000000
  0
VERTEX
  8
LAYER-1
 10
5.813115
 20
0.114950
 30
0.000000
  0
SEQEND
  8
LAYER-1
  0
POLYLINE
  8
LAYER-1
 66
  1
 70
  0
 62
  0
 10
5.722054
 20
0.108821
 30
0.000000
  0
VERTEX
  8
LAYER-1
 10
5.722054
 20
0.108821
 30
0.000000
  0
VERTEX
  8
LAYER-1
 10
5.717714
 20
0.108821
 30
0.000000
  0
VERTEX
  8
LAYER-1
 10
5.714241
 20
0.104481
 30
0.000000
  0
VERTEX
  8
LAYER-1
 10
5.713373
 20
0.099273
 30
0.000000
  0
VERTEX
  8
LAYER-1
 10
5.715109
 20
0.094933
 30
0.000000
  0
VERTEX
  8
LAYER-1
 10
5.719450
 20
0.093196
 30
0.000000
  0
VERTEX
  8
LAYER-1
 10
5.723790
 20
0.093196
 30
0.000000
  0
VERTEX
  8
LAYER-1
 10
5.728130
 20
0.096669
 30
0.000000
  0
VERTEX
  8
LAYER-1
 10
5.728130
 20
0.101009
 30
0.000000
  0
VERTEX
  8
LAYER-1
 10
5.727262
 20
0.105350
 30
0.000000
  0
VERTEX
  8
LAYER-1
 10
5.722922
 20
0.107954
 30
0.000000
  0
SEQEND
  8
LAYER-1
  0
POLYLINE
  8
LAYER-1
 66
  1
 70
  0
 62
  0
 10
5.795754
 20
0.147067
 30
0.000000
  0
VERTEX
  8
LAYER-1
 10
5.795754
 20
0.147067
 30
0.000000
  0
VERTEX
  8
LAYER-1
 10
5.791413
 20
0.147067
 30
0.000000
  0
VERTEX
  8
LAYER-1
 10
5.787942
 20
0.142726
 30
0.000000
  0
VERTEX
  8
LAYER-1
 10
5.787074
 20
0.137519
 30
0.000000
  0
VERTEX
  8
LAYER-1
 10
5.788809
 20
0.133178
 30
0.000000
  0
VERTEX
  8
LAYER-1
 10
5.793150
 20
0.131442
 30
0.000000
  0
VERTEX
  8
LAYER-1
 10
5.797490
 20
0.131442
 30
0.000000
  0
VERTEX
  8
LAYER-1
 10
5.801831
 20
0.134914
 30
0.000000
  0
VERTEX
  8
LAYER-1
 10
5.801831
 20
0.139254
 30
0.000000
  0
VERTEX
  8
LAYER-1
 10
5.800963
 20
0.143595
 30
0.000000
  0
VERTEX
  8
LAYER-1
 10
5.796622
 20
0.146200
 30
0.000000
  0
SEQEND
  8
LAYER-1
  0
POLYLINE
  8
LAYER-1
 66
  1
 70
  1
 62
  0
 10
6.103046
 20
0.163561
 30
0.000000
  0
VERTEX
  8
LAYER-1
 10
6.103046
 20
0.163561
 30
0.000000
  0
VERTEX
  8
LAYER-1
 10
6.109990
 20
0.137520
 30
0.000000
  0
VERTEX
  8
LAYER-1
 10
6.135164
 20
0.151408
 30
0.000000
  0
SEQEND
  8
LAYER-1
  0
POLYLINE
  8
LAYER-1
 66
  1
 70
  1
 62
  0
 10
6.265372
 20
0.192207
 30
0.000000
  0
VERTEX
  8
LAYER-1
 10
6.265372
 20
0.192207
 30
0.000000
  0
VERTEX
  8
LAYER-1
 10
6.252351
 20
0.169638
 30
0.000000
  0
VERTEX
  8
LAYER-1
 10
6.282733
 20
0.190470
 30
0.000000
  0
SEQEND
  8
LAYER-1
  0
POLYLINE
  8
LAYER-1
 66
  1
 70
  0
 62
  0
 10
6.053567
 20
0.194811
 30
0.000000
  0
VERTEX
  8
LAYER-1
 10
6.053567
 20
0.194811
 30
0.000000
  0
VERTEX
  8
LAYER-1
 10
6.049226
 20
0.194811
 30
0.000000
  0
VERTEX
  8
LAYER-1
 10
6.045754
 20
0.190470
 30
0.000000
  0
VERTEX
  8
LAYER-1
 10
6.044885
 20
0.185263
 30
0.000000
  0
VERTEX
  8
LAYER-1
 10
6.046622
 20
0.180922
 30
0.000000
  0
VERTEX
  8
LAYER-1
 10
6.050962
 20
0.179186
 30
0.000000
  0
VERTEX
  8
LAYER-1
 10
6.055303
 20
0.179186
 30
0.000000
  0
VERTEX
  8
LAYER-1
 10
6.059643
 20
0.182658
 30
0.000000
  0
VERTEX
  8
LAYER-1
 10
6.059643
 20
0.186998
 30
0.000000
  0
VERTEX
  8
LAYER-1
 10
6.058774
 20
0.191339
 30
0.000000
  0
VERTEX
  8
LAYER-1
 10
6.054434
 20
0.193943
 30
0.000000
  0
SEQEND
  8
LAYER-1
  0
POLYLINE
  8
LAYER-1
 66
  1
 70
  1
 62
  0
 10
6.163811
 20
0.127102
 30
0.000000
  0
VERTEX
  8
LAYER-1
 10
6.163811
 20
0.127102
 30
0.000000
  0
VERTEX
  8
LAYER-1
 10
6.150790
 20
0.104533
 30
0.000000
  0
VERTEX
  8
LAYER-1
 10
6.181172
 20
0.125365
 30
0.000000
  0
SEQEND
  8
LAYER-1
  0
POLYLINE
  8
LAYER-1
 66
  1
 70
  0
 62
  0
 10
6.205476
 20
0.196547
 30
0.000000
  0
VERTEX
  8
LAYER-1
 10
6.205476
 20
0.196547
 30
0.000000
  0
VERTEX
  8
LAYER-1
 10
6.201135
 20
0.196547
 30
0.000000
  0
VERTEX
  8
LAYER-1
 10
6.197664
 20
0.192206
 30
0.000000
  0
VERTEX
  8
LAYER-1
 10
6.196796
 20
0.186998
 30
0.000000
  0
VERTEX
  8
LAYER-1
 10
6.198531
 20
0.182658
 30
0.000000
  0
VERTEX
  8
LAYER-1
 10
6.202872
 20
0.180922
 30
0.000000
  0
VERTEX
  8
LAYER-1
 10
6.207212
 20
0.180922
 30
0.000000
  0
VERTEX
  8
LAYER-1
 10
6.211553
 20
0.184394
 30
0.000000
  0
VERTEX
  8
LAYER-1
 10
6.211553
 20
0.188734
 30
0.000000
  0
VERTEX
  8
LAYER-1
 10
6.210684
 20
0.193075
 30
0.000000
  0
VERTEX
  8
LAYER-1
 10
6.206344
 20
0.195679
 30
0.000000
  0
SEQEND
  8
LAYER-1
  0
POLYLINE
  8
LAYER-1
 66
  1
 70
  1
 62
  0
 10
6.544885
 20
0.187866
 30
0.000000
  0
VERTEX
  8
LAYER-1
 10
6.544885
 20
0.187866
 30
0.000000
  0
VERTEX
  8
LAYER-1
 10
6.551830
 20
0.161826
 30
0.000000
  0
VERTEX
  8
LAYER-1
 10
6.577003
 20
0.175713
 30
0.000000
  0
SEQEND
  8
LAYER-1
  0
POLYLINE
  8
LAYER-1
 66
  1
 70
  1
 62
  0
 10
6.707212
 20
0.216514
 30
0.000000
  0
VERTEX
  8
LAYER-1
 10
6.707212
 20
0.216514
 30
0.000000
  0
VERTEX
  8
LAYER-1
 10
6.694191
 20
0.193943
 30
0.000000
  0
VERTEX
  8
LAYER-1
 10
6.724573
 20
0.214776
 30
0.000000
  0
SEQEND
  8
LAYER-1
  0
POLYLINE
  8
LAYER-1
 66
  1
 70
  1
 62
  0
 10
5.935511
 20
0.152277
 30
0.000000
  0
VERTEX
  8
LAYER-1
 10
5.935511
 20
0.152277
 30
0.000000
  0
VERTEX
  8
LAYER-1
 10
5.960684
 20
0.135783
 30
0.000000
  0
VERTEX
  8
LAYER-1
 10
5.968497
 20
0.150541
 30
0.000000
  0
SEQEND
  8
LAYER-1
  0
POLYLINE
  8
LAYER-1
 66
  1
 70
  0
 62
  0
 10
6.505823
 20
0.208701
 30
0.000000
  0
VERTEX
  8
LAYER-1
 10
6.505823
 20
0.208701
 30
0.000000
  0
VERTEX
  8
LAYER-1
 10
6.501482
 20
0.208701
 30
0.000000
  0
VERTEX
  8
LAYER-1
 10
6.498010
 20
0.204360
 30
0.000000
  0
VERTEX
  8
LAYER-1
 10
6.497142
 20
0.199153
 30
0.000000
  0
VERTEX
  8
LAYER-1
 10
6.498878
 20
0.194812
 30
0.000000
  0
VERTEX
  8
LAYER-1
 10
6.503219
 20
0.193076
 30
0.000000
  0
VERTEX
  8
LAYER-1
 10
6.507559
 20
0.193076
 30
0.000000
  0
VERTEX
  8
LAYER-1
 10
6.511899
 20
0.196548
 30
0.000000
  0
VERTEX
  8
LAYER-1
 10
6.511899
 20
0.200889
 30
0.000000
  0
VERTEX
  8
LAYER-1
 10
6.511031
 20
0.205229
 30
0.000000
  0
VERTEX
  8
LAYER-1
 10
6.506691
 20
0.207834
 30
0.000000
  0
SEQEND
  8
LAYER-1
  0
POLYLINE
  8
LAYER-1
 66
  1
 70
  1
 62
  0
 10
6.521449
 20
0.120159
 30
0.000000
  0
VERTEX
  8
LAYER-1
 10
6.521449
 20
0.120159
 30
0.000000
  0
VERTEX
  8
LAYER-1
 10
6.508428
 20
0.097588
 30
0.000000
  0
VERTEX
  8
LAYER-1
 10
6.538809
 20
0.118421
 30
0.000000
  0
SEQEND
  8
LAYER-1
  0
POLYLINE
  8
LAYER-1
 66
  1
 70
  1
 62
  0
 10
6.615899
 20
0.134577
 30
0.000000
  0
VERTEX
  8
LAYER-1
 10
6.615899
 20
0.134577
 30
0.000000
  0
VERTEX
  8
LAYER-1
 10
6.603212
 20
0.115212
 30
0.000000
  0
VERTEX
  8
LAYER-1
 10
6.614563
 20
0.109201
 30
0.000000
  0
SEQEND
  8
LAYER-1
  0
POLYLINE
  8
LAYER-1
 66
  1
 70
  0
 62
  0
 10
6.647316
 20
0.213041
 30
0.000000
  0
VERTEX
  8
LAYER-1
 10
6.647316
 20
0.213041
 30
0.000000
  0
VERTEX
  8
LAYER-1
 10
6.642976
 20
0.213041
 30
0.000000
  0
VERTEX
  8
LAYER-1
 10
6.639503
 20
0.208700
 30
0.000000
  0
VERTEX
  8
LAYER-1
 10
6.638635
 20
0.203492
 30
0.000000
  0
VERTEX
  8
LAYER-1
 10
6.640371
 20
0.199152
 30
0.000000
  0
VERTEX
  8
LAYER-1
 10
6.644712
 20
0.197416
 30
0.000000
  0
VERTEX
  8
LAYER-1
 10
6.649053
 20
0.197416
 30
0.000000
  0
VERTEX
  8
LAYER-1
 10
6.653392
 20
0.200888
 30
0.000000
  0
VERTEX
  8
LAYER-1
 10
6.653392
 20
0.205228
 30
0.000000
  0
VERTEX
  8
LAYER-1
 10
6.652524
 20
0.209569
 30
0.000000
  0
VERTEX
  8
LAYER-1
 10
6.648184
 20
0.212173
 30
0.000000
  0
SEQEND
  8
LAYER-1
  0
POLYLINE
  8
LAYER-1
 66
  1
 70
  0
 62
  0
 10
5.924227
 20
0.205228
 30
0.000000
  0
VERTEX
  8
LAYER-1
 10
5.924227
 20
0.205228
 30
0.000000
  0
VERTEX
  8
LAYER-1
 10
5.924227
 20
0.200888
 30
0.000000
  0
VERTEX
  8
LAYER-1
 10
5.928567
 20
0.197416
 30
0.000000
  0
VERTEX
  8
LAYER-1
 10
5.933775
 20
0.196547
 30
0.000000
  0
VERTEX
  8
LAYER-1
 10
5.938115
 20
0.198283
 30
0.000000
  0
VERTEX
  8
LAYER-1
 10
5.939852
 20
0.202623
 30
0.000000
  0
VERTEX
  8
LAYER-1
 10
5.939852
 20
0.206964
 30
0.000000
  0
VERTEX
  8
LAYER-1
 10
5.936380
 20
0.211305
 30
0.000000
  0
VERTEX
  8
LAYER-1
 10
5.932039
 20
0.211305
 30
0.000000
  0
VERTEX
  8
LAYER-1
 10
5.927698
 20
0.210436
 30
0.000000
  0
VERTEX
  8
LAYER-1
 10
5.925093
 20
0.206095
 30
0.000000
  0
SEQEND
  8
LAYER-1
  0
POLYLINE
  8
LAYER-1
 66
  1
 70
  0
 62
  0
 10
6.487593
 20
0.121025
 30
0.000000
  0
VERTEX
  8
LAYER-1
 10
6.487593
 20
0.121025
 30
0.000000
  0
VERTEX
  8
LAYER-1
 10
6.483252
 20
0.121025
 30
0.000000
  0
VERTEX
  8
LAYER-1
 10
6.479780
 20
0.116684
 30
0.000000
  0
VERTEX
  8
LAYER-1
 10
6.478912
 20
0.111476
 30
0.000000
  0
VERTEX
  8
LAYER-1
 10
6.480648
 20
0.107135
 30
0.000000
  0
VERTEX
  8
LAYER-1
 10
6.484989
 20
0.105400
 30
0.000000
  0
VERTEX
  8
LAYER-1
 10
6.489329
 20
0.105400
 30
0.000000
  0
VERTEX
  8
LAYER-1
 10
6.493670
 20
0.108871
 30
0.000000
  0
VERTEX
  8
LAYER-1
 10
6.493670
 20
0.113213
 30
0.000000
  0
VERTEX
  8
LAYER-1
 10
6.492802
 20
0.117553
 30
0.000000
  0
VERTEX
  8
LAYER-1
 10
6.488461
 20
0.120158
 30
0.000000
  0
SEQEND
  8
LAYER-1
  0
POLYLINE
  8
LAYER-1
 66
  1
 70
  0
 62
  0
 10
6.386033
 20
0.158787
 30
0.000000
  0
VERTEX
  8
LAYER-1
 10
6.386033
 20
0.158787
 30
0.000000
  0
VERTEX
  8
LAYER-1
 10
6.386033
 20
0.163127
 30
0.000000
  0
VERTEX
  8
LAYER-1
 10
6.381692
 20
0.166600
 30
0.000000
  0
VERTEX
  8
LAYER-1
 10
6.376484
 20
0.167467
 30
0.000000
  0
VERTEX
  8
LAYER-1
 10
6.372143
 20
0.165732
 30
0.000000
  0
VERTEX
  8
LAYER-1
 10
6.370408
 20
0.161391
 30
0.000000
  0
VERTEX
  8
LAYER-1
 10
6.370408
 20
0.157051
 30
0.000000
  0
VERTEX
  8
LAYER-1
 10
6.373879
 20
0.152711
 30
0.000000
  0
VERTEX
  8
LAYER-1
 10
6.378220
 20
0.152711
 30
0.000000
  0
VERTEX
  8
LAYER-1
 10
6.382561
 20
0.153578
 30
0.000000
  0
VERTEX
  8
LAYER-1
 10
6.385164
 20
0.157919
 30
0.000000
  0
SEQEND
  8
LAYER-1
  0
POLYLINE
  8
LAYER-1
 66
  1
 70
  1
 62
  0
 10
6.318323
 20
0.145766
 30
0.000000
  0
VERTEX
  8
LAYER-1
 10
6.318323
 20
0.145766
 30
0.000000
  0
VERTEX
  8
LAYER-1
 10
6.295754
 20
0.158786
 30
0.000000
  0
VERTEX
  8
LAYER-1
 10
6.316587
 20
0.128404
 30
0.000000
  0
SEQEND
  8
LAYER-1
  0
POLYLINE
  8
LAYER-1
 66
  1
 70
  0
 62
  0
 10
6.235859
 20
0.111044
 30
0.000000
  0
VERTEX
  8
LAYER-1
 10
6.235859
 20
0.111044
 30
0.000000
  0
VERTEX
  8
LAYER-1
 10
6.235859
 20
0.115384
 30
0.000000
  0
VERTEX
  8
LAYER-1
 10
6.231518
 20
0.118857
 30
0.000000
  0
VERTEX
  8
LAYER-1
 10
6.226311
 20
0.119725
 30
0.000000
  0
VERTEX
  8
LAYER-1
 10
6.221970
 20
0.117989
 30
0.000000
  0
VERTEX
  8
LAYER-1
 10
6.220234
 20
0.113648
 30
0.000000
  0
VERTEX
  8
LAYER-1
 10
6.220234
 20
0.109308
 30
0.000000
  0
VERTEX
  8
LAYER-1
 10
6.223706
 20
0.104967
 30
0.000000
  0
VERTEX
  8
LAYER-1
 10
6.228046
 20
0.104967
 30
0.000000
  0
VERTEX
  8
LAYER-1
 10
6.232387
 20
0.105836
 30
0.000000
  0
VERTEX
  8
LAYER-1
 10
6.234990
 20
0.110176
 30
0.000000
  0
SEQEND
  8
LAYER-1
  0
POLYLINE
  8
LAYER-1
 66
  1
 70
  1
 62
  0
 10
6.426136
 20
0.101323
 30
0.000000
  0
VERTEX
  8
LAYER-1
 10
6.426136
 20
0.101323
 30
0.000000
  0
VERTEX
  8
LAYER-1
 10
6.419192
 20
0.127363
 30
0.000000
  0
VERTEX
  8
LAYER-1
 10
6.394018
 20
0.113475
 30
0.000000
  0
SEQEND
  8
LAYER-1
  0
POLYLINE
  8
LAYER-1
 66
  1
 70
  1
 62
  0
 10
6.447664
 20
0.155748
 30
0.000000
  0
VERTEX
  8
LAYER-1
 10
6.447664
 20
0.155748
 30
0.000000
  0
VERTEX
  8
LAYER-1
 10
6.460684
 20
0.178319
 30
0.000000
  0
VERTEX
  8
LAYER-1
 10
6.430303
 20
0.157486
 30
0.000000
  0
SEQEND
  8
LAYER-1
  0
POLYLINE
  8
LAYER-1
 66
  1
 70
  1
 62
  0
 10
5.875615
 20
0.099325
 30
0.000000
  0
VERTEX
  8
LAYER-1
 10
5.875615
 20
0.099325
 30
0.000000
  0
VERTEX
  8
LAYER-1
 10
5.853044
 20
0.112347
 30
0.000000
  0
VERTEX
  8
LAYER-1
 10
5.873877
 20
0.081964
 30
0.000000
  0
SEQEND
  8
LAYER-1
  0
POLYLINE
  8
LAYER-1
 66
  1
 70
  1
 62
  0
 10
6.653393
 20
0.123632
 30
0.000000
  0
VERTEX
  8
LAYER-1
 10
6.653393
 20
0.123632
 30
0.000000
  0
VERTEX
  8
LAYER-1
 10
6.669886
 20
0.148805
 30
0.000000
  0
VERTEX
  8
LAYER-1
 10
6.655129
 20
0.156617
 30
0.000000
  0
SEQEND
  8
LAYER-1
  0
POLYLINE
  8
LAYER-1
 66
  1
 70
  0
 62
  0
 10
6.684293
 20
0.050228
 30
0.000000
  0
VERTEX
  8
LAYER-1
 10
6.684293
 20
0.050228
 30
0.000000
  0
VERTEX
  8
LAYER-1
 10
6.688634
 20
0.050228
 30
0.000000
  0
VERTEX
  8
LAYER-1
 10
6.692106
 20
0.054569
 30
0.000000
  0
VERTEX
  8
LAYER-1
 10
6.692974
 20
0.059776
 30
0.000000
  0
VERTEX
  8
LAYER-1
 10
6.691238
 20
0.064117
 30
0.000000
  0
VERTEX
  8
LAYER-1
 10
6.686897
 20
0.065853
 30
0.000000
  0
VERTEX
  8
LAYER-1
 10
6.682558
 20
0.065853
 30
0.000000
  0
VERTEX
  8
LAYER-1
 10
6.678217
 20
0.062381
 30
0.000000
  0
VERTEX
  8
LAYER-1
 10
6.678217
 20
0.058040
 30
0.000000
  0
VERTEX
  8
LAYER-1
 10
6.679085
 20
0.053700
 30
0.000000
  0
VERTEX
  8
LAYER-1
 10
6.683425
 20
0.051095
 30
0.000000
  0
SEQEND
  8
LAYER-1
  0
POLYLINE
  8
LAYER-1
 66
  1
 70
  0
 62
  0
 10
6.660856
 20
0.075407
 30
0.000000
  0
VERTEX
  8
LAYER-1
 10
6.660856
 20
0.075407
 30
0.000000
  0
VERTEX
  8
LAYER-1
 10
6.665197
 20
0.075407
 30
0.000000
  0
VERTEX
  8
LAYER-1
 10
6.668669
 20
0.079748
 30
0.000000
  0
VERTEX
  8
LAYER-1
 10
6.669537
 20
0.084955
 30
0.000000
  0
VERTEX
  8
LAYER-1
 10
6.667801
 20
0.089296
 30
0.000000
  0
VERTEX
  8
LAYER-1
 10
6.663460
 20
0.091032
 30
0.000000
  0
VERTEX
  8
LAYER-1
 10
6.659120
 20
0.091032
 30
0.000000
  0
VERTEX
  8
LAYER-1
 10
6.654780
 20
0.087560
 30
0.000000
  0
VERTEX
  8
LAYER-1
 10
6.654780
 20
0.083220
 30
0.000000
  0
VERTEX
  8
LAYER-1
 10
6.655648
 20
0.078879
 30
0.000000
  0
VERTEX
  8
LAYER-1
 10
6.659988
 20
0.076274
 30
0.000000
  0
SEQEND
  8
LAYER-1
  0
POLYLINE
  8
LAYER-1
 66
  1
 70
  1
 62
  0
 10
6.735074
 20
0.091463
 30
0.000000
  0
VERTEX
  8
LAYER-1
 10
6.735074
 20
0.091463
 30
0.000000
  0
VERTEX
  8
LAYER-1
 10
6.709902
 20
0.107956
 30
0.000000
  0
VERTEX
  8
LAYER-1
 10
6.702089
 20
0.093198
 30
0.000000
  0
SEQEND
  8
LAYER-1
  0
POLYLINE
  8
LAYER-1
 66
  1
 70
  0
 62
  0
 10
6.745492
 20
0.130527
 30
0.000000
  0
VERTEX
  8
LAYER-1
 10
6.745492
 20
0.130527
 30
0.000000
  0
VERTEX
  8
LAYER-1
 10
6.745492
 20
0.134867
 30
0.000000
  0
VERTEX
  8
LAYER-1
 10
6.741151
 20
0.138340
 30
0.000000
  0
VERTEX
  8
LAYER-1
 10
6.735943
 20
0.139208
 30
0.000000
  0
VERTEX
  8
LAYER-1
 10
6.731602
 20
0.137472
 30
0.000000
  0
VERTEX
  8
LAYER-1
 10
6.729867
 20
0.133131
 30
0.000000
  0
VERTEX
  8
LAYER-1
 10
6.729867
 20
0.128791
 30
0.000000
  0
VERTEX
  8
LAYER-1
 10
6.733338
 20
0.124451
 30
0.000000
  0
VERTEX
  8
LAYER-1
 10
6.737679
 20
0.124451
 30
0.000000
  0
VERTEX
  8
LAYER-1
 10
6.742020
 20
0.125319
 30
0.000000
  0
VERTEX
  8
LAYER-1
 10
6.744625
 20
0.129659
 30
0.000000
  0
SEQEND
  8
LAYER-1
  0
POLYLINE
  8
LAYER-1
 66
  1
 70
  1
 62
  0
 10
6.692014
 20
0.136379
 30
0.000000
  0
VERTEX
  8
LAYER-1
 10
6.692014
 20
0.136379
 30
0.000000
  0
VERTEX
  8
LAYER-1
 10
6.704701
 20
0.155743
 30
0.000000
  0
VERTEX
  8
LAYER-1
 10
6.693350
 20
0.161754
 30
0.000000
  0
SEQEND
  8
LAYER-1
  0
POLYLINE
  8
LAYER-1
 66
  1
 70
  0
 62
  0
 10
6.015371
 20
0.166166
 30
0.000000
  0
VERTEX
  8
LAYER-1
 10
6.015371
 20
0.166166
 30
0.000000
  0
VERTEX
  8
LAYER-1
 10
6.015371
 20
0.170504
 30
0.000000
  0
VERTEX
  8
LAYER-1
 10
6.011030
 20
0.173978
 30
0.000000
  0
VERTEX
  8
LAYER-1
 10
6.005822
 20
0.174845
 30
0.000000
  0
VERTEX
  8
LAYER-1
 10
6.001481
 20
0.173109
 30
0.000000
  0
VERTEX
  8
LAYER-1
 10
5.999746
 20
0.168769
 30
0.000000
  0
VERTEX
  8
LAYER-1
 10
5.999746
 20
0.164428
 30
0.000000
  0
VERTEX
  8
LAYER-1
 10
6.003217
 20
0.160089
 30
0.000000
  0
VERTEX
  8
LAYER-1
 10
6.007558
 20
0.160089
 30
0.000000
  0
VERTEX
  8
LAYER-1
 10
6.011899
 20
0.160956
 30
0.000000
  0
VERTEX
  8
LAYER-1
 10
6.014503
 20
0.165297
 30
0.000000
  0
SEQEND
  8
LAYER-1
  0
POLYLINE
  8
LAYER-1
 66
  1
 70
  0
 62
  0
 10
6.601309
 20
0.129708
 30
0.000000
  0
VERTEX
  8
LAYER-1
 10
6.601309
 20
0.129708
 30
0.000000
  0
VERTEX
  8
LAYER-1
 10
6.605650
 20
0.129708
 30
0.000000
  0
VERTEX
  8
LAYER-1
 10
6.609122
 20
0.134048
 30
0.000000
  0
VERTEX
  8
LAYER-1
 10
6.609990
 20
0.139257
 30
0.000000
  0
VERTEX
  8
LAYER-1
 10
6.608254
 20
0.143597
 30
0.000000
  0
VERTEX
  8
LAYER-1
 10
6.603914
 20
0.145333
 30
0.000000
  0
VERTEX
  8
LAYER-1
 10
6.599574
 20
0.145333
 30
0.000000
  0
VERTEX
  8
LAYER-1
 10
6.595233
 20
0.141861
 30
0.000000
  0
VERTEX
  8
LAYER-1
 10
6.595233
 20
0.137521
 30
0.000000
  0
VERTEX
  8
LAYER-1
 10
6.596101
 20
0.133180
 30
0.000000
  0
VERTEX
  8
LAYER-1
 10
6.600442
 20
0.130575
 30
0.000000
  0
SEQEND
  8
LAYER-1
  0
POLYLINE
  8
LAYER-1
 66
  1
 70
  1
 62
  0
 10
0.858945
 20
0.133390
 30
0.000000
  0
VERTEX
  8
LAYER-1
 10
0.858945
 20
0.133390
 30
0.000000
  0
VERTEX
  8
LAYER-1
 10
0.836375
 20
0.146410
 30
0.000000
  0
VERTEX
  8
LAYER-1
 10
0.857207
 20
0.116029
 30
0.000000
  0
SEQEND
  8
LAYER-1
  0
POLYLINE
  8
LAYER-1
 66
  1
 70
  0
 62
  0
 10
0.847661
 20
0.066549
 30
0.000000
  0
VERTEX
  8
LAYER-1
 10
0.847661
 20
0.066549
 30
0.000000
  0
VERTEX
  8
LAYER-1
 10
0.847661
 20
0.070887
 30
0.000000
  0
VERTEX
  8
LAYER-1
 10
0.843320
 20
0.074361
 30
0.000000
  0
VERTEX
  8
LAYER-1
 10
0.838113
 20
0.075228
 30
0.000000
  0
VERTEX
  8
LAYER-1
 10
0.833772
 20
0.073492
 30
0.000000
  0
VERTEX
  8
LAYER-1
 10
0.832036
 20
0.069152
 30
0.000000
  0
VERTEX
  8
LAYER-1
 10
0.832036
 20
0.064811
 30
0.000000
  0
VERTEX
  8
LAYER-1
 10
0.835508
 20
0.060472
 30
0.000000
  0
VERTEX
  8
LAYER-1
 10
0.839848
 20
0.060472
 30
0.000000
  0
VERTEX
  8
LAYER-1
 10
0.844189
 20
0.061339
 30
0.000000
  0
VERTEX
  8
LAYER-1
 10
0.846794
 20
0.065680
 30
0.000000
  0
SEQEND
  8
LAYER-1
  0
POLYLINE
  8
LAYER-1
 66
  1
 70
  1
 62
  0
 10
1.125700
 20
0.055348
 30
0.000000
  0
VERTEX
  8
LAYER-1
 10
1.125700
 20
0.055348
 30
0.000000
  0
VERTEX
  8
LAYER-1
 10
1.142193
 20
0.080522
 30
0.000000
  0
VERTEX
  8
LAYER-1
 10
1.127436
 20
0.088335
 30
0.000000
  0
SEQEND
  8
LAYER-1
  0
POLYLINE
  8
LAYER-1
 66
  1
 70
  1
 62
  0
 10
1.173610
 20
0.070442
 30
0.000000
  0
VERTEX
  8
LAYER-1
 10
1.173610
 20
0.070442
 30
0.000000
  0
VERTEX
  8
LAYER-1
 10
1.186297
 20
0.089807
 30
0.000000
  0
VERTEX
  8
LAYER-1
 10
1.174946
 20
0.095818
 30
0.000000
  0
SEQEND
  8
LAYER-1
  0
POLYLINE
  8
LAYER-1
 66
  1
 70
  0
 62
  0
 10
1.237679
 20
0.046671
 30
0.000000
  0
VERTEX
  8
LAYER-1
 10
1.237679
 20
0.046671
 30
0.000000
  0
VERTEX
  8
LAYER-1
 10
1.242020
 20
0.046671
 30
0.000000
  0
VERTEX
  8
LAYER-1
 10
1.245492
 20
0.051011
 30
0.000000
  0
VERTEX
  8
LAYER-1
 10
1.246360
 20
0.056219
 30
0.000000
  0
VERTEX
  8
LAYER-1
 10
1.244624
 20
0.060560
 30
0.000000
  0
VERTEX
  8
LAYER-1
 10
1.240283
 20
0.062296
 30
0.000000
  0
VERTEX
  8
LAYER-1
 10
1.235943
 20
0.062296
 30
0.000000
  0
VERTEX
  8
LAYER-1
 10
1.231603
 20
0.058823
 30
0.000000
  0
VERTEX
  8
LAYER-1
 10
1.231603
 20
0.054483
 30
0.000000
  0
VERTEX
  8
LAYER-1
 10
1.232471
 20
0.050142
 30
0.000000
  0
VERTEX
  8
LAYER-1
 10
1.236811
 20
0.047539
 30
0.000000
  0
SEQEND
  8
LAYER-1
  0
POLYLINE
  8
LAYER-1
 66
  1
 70
  1
 62
  0
 10
1.271533
 20
0.109603
 30
0.000000
  0
VERTEX
  8
LAYER-1
 10
1.271533
 20
0.109603
 30
0.000000
  0
VERTEX
  8
LAYER-1
 10
1.245492
 20
0.102659
 30
0.000000
  0
VERTEX
  8
LAYER-1
 10
1.259380
 20
0.077485
 30
0.000000
  0
SEQEND
  8
LAYER-1
  0
POLYLINE
  8
LAYER-1
 66
  1
 70
  0
 62
  0
 10
2.639416
 20
0.077310
 30
0.000000
  0
VERTEX
  8
LAYER-1
 10
2.639416
 20
0.077310
 30
0.000000
  0
VERTEX
  8
LAYER-1
 10
2.639416
 20
0.081651
 30
0.000000
  0
VERTEX
  8
LAYER-1
 10
2.635075
 20
0.085123
 30
0.000000
  0
VERTEX
  8
LAYER-1
 10
2.629867
 20
0.085991
 30
0.000000
  0
VERTEX
  8
LAYER-1
 10
2.625526
 20
0.084255
 30
0.000000
  0
VERTEX
  8
LAYER-1
 10
2.623791
 20
0.079915
 30
0.000000
  0
VERTEX
  8
LAYER-1
 10
2.623791
 20
0.075574
 30
0.000000
  0
VERTEX
  8
LAYER-1
 10
2.627262
 20
0.071234
 30
0.000000
  0
VERTEX
  8
LAYER-1
 10
2.631603
 20
0.071234
 30
0.000000
  0
VERTEX
  8
LAYER-1
 10
2.635944
 20
0.072103
 30
0.000000
  0
VERTEX
  8
LAYER-1
 10
2.638548
 20
0.076442
 30
0.000000
  0
SEQEND
  8
LAYER-1
  0
POLYLINE
  8
LAYER-1
 66
  1
 70
  1
 62
  0
 10
2.573443
 20
0.040419
 30
0.000000
  0
VERTEX
  8
LAYER-1
 10
2.573443
 20
0.040419
 30
0.000000
  0
VERTEX
  8
LAYER-1
 10
2.566498
 20
0.066461
 30
0.000000
  0
VERTEX
  8
LAYER-1
 10
2.541325
 20
0.052572
 30
0.000000
  0
SEQEND
  8
LAYER-1
  0
POLYLINE
  8
LAYER-1
 66
  1
 70
  1
 62
  0
 10
2.585595
 20
0.076878
 30
0.000000
  0
VERTEX
  8
LAYER-1
 10
2.585595
 20
0.076878
 30
0.000000
  0
VERTEX
  8
LAYER-1
 10
2.598616
 20
0.099447
 30
0.000000
  0
VERTEX
  8
LAYER-1
 10
2.568234
 20
0.078614
 30
0.000000
  0
SEQEND
  8
LAYER-1
  0
POLYLINE
  8
LAYER-1
 66
  1
 70
  0
 62
  0
 10
2.421794
 20
0.087728
 30
0.000000
  0
VERTEX
  8
LAYER-1
 10
2.421794
 20
0.087728
 30
0.000000
  0
VERTEX
  8
LAYER-1
 10
2.417453
 20
0.087728
 30
0.000000
  0
VERTEX
  8
LAYER-1
 10
2.413982
 20
0.083387
 30
0.000000
  0
VERTEX
  8
LAYER-1
 10
2.413113
 20
0.078179
 30
0.000000
  0
VERTEX
  8
LAYER-1
 10
2.414849
 20
0.073838
 30
0.000000
  0
VERTEX
  8
LAYER-1
 10
2.419190
 20
0.072103
 30
0.000000
  0
VERTEX
  8
LAYER-1
 10
2.423530
 20
0.072103
 30
0.000000
  0
VERTEX
  8
LAYER-1
 10
2.427871
 20
0.075574
 30
0.000000
  0
VERTEX
  8
LAYER-1
 10
2.427871
 20
0.079915
 30
0.000000
  0
VERTEX
  8
LAYER-1
 10
2.427003
 20
0.084256
 30
0.000000
  0
VERTEX
  8
LAYER-1
 10
2.422662
 20
0.086861
 30
0.000000
  0
SEQEND
  8
LAYER-1
  0
POLYLINE
  8
LAYER-1
 66
  1
 70
  1
 62
  0
 10
2.501655
 20
0.050401
 30
0.000000
  0
VERTEX
  8
LAYER-1
 10
2.501655
 20
0.050401
 30
0.000000
  0
VERTEX
  8
LAYER-1
 10
2.479084
 20
0.063423
 30
0.000000
  0
VERTEX
  8
LAYER-1
 10
2.499917
 20
0.033040
 30
0.000000
  0
SEQEND
  8
LAYER-1
  0
POLYLINE
  8
LAYER-1
 66
  1
 70
  1
 62
  0
 10
3.096626
 20
0.051252
 30
0.000000
  0
VERTEX
  8
LAYER-1
 10
3.096626
 20
0.051252
 30
0.000000
  0
VERTEX
  8
LAYER-1
 10
3.109647
 20
0.073822
 30
0.000000
  0
VERTEX
  8
LAYER-1
 10
3.079265
 20
0.052990
 30
0.000000
  0
SEQEND
  8
LAYER-1
  0
POLYLINE
  8
LAYER-1
 66
  1
 70
  1
 62
  0
 10
3.002176
 20
0.057665
 30
0.000000
  0
VERTEX
  8
LAYER-1
 10
3.002176
 20
0.057665
 30
0.000000
  0
VERTEX
  8
LAYER-1
 10
3.014862
 20
0.077029
 30
0.000000
  0
VERTEX
  8
LAYER-1
 10
3.003512
 20
0.083040
 30
0.000000
  0
SEQEND
  8
LAYER-1
  0
POLYLINE
  8
LAYER-1
 66
  1
 70
  0
 62
  0
 10
3.130481
 20
0.050385
 30
0.000000
  0
VERTEX
  8
LAYER-1
 10
3.130481
 20
0.050385
 30
0.000000
  0
VERTEX
  8
LAYER-1
 10
3.134822
 20
0.050385
 30
0.000000
  0
VERTEX
  8
LAYER-1
 10
3.138294
 20
0.054725
 30
0.000000
  0
VERTEX
  8
LAYER-1
 10
3.139162
 20
0.059933
 30
0.000000
  0
VERTEX
  8
LAYER-1
 10
3.137426
 20
0.064273
 30
0.000000
  0
VERTEX
  8
LAYER-1
 10
3.133085
 20
0.066010
 30
0.000000
  0
VERTEX
  8
LAYER-1
 10
3.128746
 20
0.066010
 30
0.000000
  0
VERTEX
  8
LAYER-1
 10
3.124405
 20
0.062537
 30
0.000000
  0
VERTEX
  8
LAYER-1
 10
3.124405
 20
0.058197
 30
0.000000
  0
VERTEX
  8
LAYER-1
 10
3.125273
 20
0.053856
 30
0.000000
  0
VERTEX
  8
LAYER-1
 10
3.129613
 20
0.051252
 30
0.000000
  0
SEQEND
  8
LAYER-1
  0
POLYLINE
  8
LAYER-1
 66
  1
 70
  0
 62
  0
 10
3.016765
 20
0.041701
 30
0.000000
  0
VERTEX
  8
LAYER-1
 10
3.016765
 20
0.041701
 30
0.000000
  0
VERTEX
  8
LAYER-1
 10
3.012424
 20
0.041701
 30
0.000000
  0
VERTEX
  8
LAYER-1
 10
3.008952
 20
0.037360
 30
0.000000
  0
VERTEX
  8
LAYER-1
 10
3.008084
 20
0.032153
 30
0.000000
  0
VERTEX
  8
LAYER-1
 10
3.009820
 20
0.027812
 30
0.000000
  0
VERTEX
  8
LAYER-1
 10
3.014161
 20
0.026076
 30
0.000000
  0
VERTEX
  8
LAYER-1
 10
3.018501
 20
0.026076
 30
0.000000
  0
VERTEX
  8
LAYER-1
 10
3.022841
 20
0.029548
 30
0.000000
  0
VERTEX
  8
LAYER-1
 10
3.022841
 20
0.033889
 30
0.000000
  0
VERTEX
  8
LAYER-1
 10
3.021973
 20
0.038229
 30
0.000000
  0
VERTEX
  8
LAYER-1
 10
3.017633
 20
0.040834
 30
0.000000
  0
SEQEND
  8
LAYER-1
  0
POLYLINE
  8
LAYER-1
 66
  1
 70
  1
 62
  0
 10
2.857818
 20
0.055002
 30
0.000000
  0
VERTEX
  8
LAYER-1
 10
2.857818
 20
0.055002
 30
0.000000
  0
VERTEX
  8
LAYER-1
 10
2.870839
 20
0.077572
 30
0.000000
  0
VERTEX
  8
LAYER-1
 10
2.840457
 20
0.056740
 30
0.000000
  0
SEQEND
  8
LAYER-1
  0
POLYLINE
  8
LAYER-1
 66
  1
 70
  0
 62
  0
 10
2.891674
 20
0.054135
 30
0.000000
  0
VERTEX
  8
LAYER-1
 10
2.891674
 20
0.054135
 30
0.000000
  0
VERTEX
  8
LAYER-1
 10
2.896015
 20
0.054135
 30
0.000000
  0
VERTEX
  8
LAYER-1
 10
2.899486
 20
0.058476
 30
0.000000
  0
VERTEX
  8
LAYER-1
 10
2.900354
 20
0.063683
 30
0.000000
  0
VERTEX
  8
LAYER-1
 10
2.898618
 20
0.068025
 30
0.000000
  0
VERTEX
  8
LAYER-1
 10
2.894278
 20
0.069760
 30
0.000000
  0
VERTEX
  8
LAYER-1
 10
2.889938
 20
0.069760
 30
0.000000
  0
VERTEX
  8
LAYER-1
 10
2.885597
 20
0.066288
 30
0.000000
  0
VERTEX
  8
LAYER-1
 10
2.885597
 20
0.061947
 30
0.000000
  0
VERTEX
  8
LAYER-1
 10
2.886465
 20
0.057607
 30
0.000000
  0
VERTEX
  8
LAYER-1
 10
2.890806
 20
0.055002
 30
0.000000
  0
SEQEND
  8
LAYER-1
  0
POLYLINE
  8
LAYER-1
 66
  1
 70
  1
 62
  0
 10
3.489936
 20
0.090073
 30
0.000000
  0
VERTEX
  8
LAYER-1
 10
3.489936
 20
0.090073
 30
0.000000
  0
VERTEX
  8
LAYER-1
 10
3.512506
 20
0.077052
 30
0.000000
  0
VERTEX
  8
LAYER-1
 10
3.491673
 20
0.107434
 30
0.000000
  0
SEQEND
  8
LAYER-1
  0
POLYLINE
  8
LAYER-1
 66
  1
 70
  0
 62
  0
 10
3.489069
 20
0.056217
 30
0.000000
  0
VERTEX
  8
LAYER-1
 10
3.489069
 20
0.056217
 30
0.000000
  0
VERTEX
  8
LAYER-1
 10
3.489069
 20
0.051876
 30
0.000000
  0
VERTEX
  8
LAYER-1
 10
3.493409
 20
0.048404
 30
0.000000
  0
VERTEX
  8
LAYER-1
 10
3.498617
 20
0.047536
 30
0.000000
  0
VERTEX
  8
LAYER-1
 10
3.502958
 20
0.049272
 30
0.000000
  0
VERTEX
  8
LAYER-1
 10
3.504694
 20
0.053613
 30
0.000000
  0
VERTEX
  8
LAYER-1
 10
3.504694
 20
0.057953
 30
0.000000
  0
VERTEX
  8
LAYER-1
 10
3.501222
 20
0.062293
 30
0.000000
  0
VERTEX
  8
LAYER-1
 10
3.496881
 20
0.062293
 30
0.000000
  0
VERTEX
  8
LAYER-1
 10
3.492541
 20
0.061426
 30
0.000000
  0
VERTEX
  8
LAYER-1
 10
3.489936
 20
0.057085
 30
0.000000
  0
SEQEND
  8
LAYER-1
  0
POLYLINE
  8
LAYER-1
 66
  1
 70
  1
 62
  0
 10
4.039415
 20
0.122103
 30
0.000000
  0
VERTEX
  8
LAYER-1
 10
4.039415
 20
0.122103
 30
0.000000
  0
VERTEX
  8
LAYER-1
 10
4.046359
 20
0.096061
 30
0.000000
  0
VERTEX
  8
LAYER-1
 10
4.071532
 20
0.109949
 30
0.000000
  0
SEQEND
  8
LAYER-1
  0
POLYLINE
  8
LAYER-1
 66
  1
 70
  1
 62
  0
 10
4.011202
 20
0.085208
 30
0.000000
  0
VERTEX
  8
LAYER-1
 10
4.011202
 20
0.085208
 30
0.000000
  0
VERTEX
  8
LAYER-1
 10
4.033772
 20
0.072188
 30
0.000000
  0
VERTEX
  8
LAYER-1
 10
4.012939
 20
0.102569
 30
0.000000
  0
SEQEND
  8
LAYER-1
  0
POLYLINE
  8
LAYER-1
 66
  1
 70
  1
 62
  0
 10
4.127856
 20
0.077228
 30
0.000000
  0
VERTEX
  8
LAYER-1
 10
4.127856
 20
0.077228
 30
0.000000
  0
VERTEX
  8
LAYER-1
 10
4.147221
 20
0.064540
 30
0.000000
  0
VERTEX
  8
LAYER-1
 10
4.153231
 20
0.075892
 30
0.000000
  0
SEQEND
  8
LAYER-1
  0
POLYLINE
  8
LAYER-1
 66
  1
 70
  0
 62
  0
 10
4.072401
 20
0.083036
 30
0.000000
  0
VERTEX
  8
LAYER-1
 10
4.072401
 20
0.083036
 30
0.000000
  0
VERTEX
  8
LAYER-1
 10
4.068061
 20
0.083036
 30
0.000000
  0
VERTEX
  8
LAYER-1
 10
4.064589
 20
0.078696
 30
0.000000
  0
VERTEX
  8
LAYER-1
 10
4.063721
 20
0.073487
 30
0.000000
  0
VERTEX
  8
LAYER-1
 10
4.065457
 20
0.069147
 30
0.000000
  0
VERTEX
  8
LAYER-1
 10
4.069797
 20
0.067411
 30
0.000000
  0
VERTEX
  8
LAYER-1
 10
4.074137
 20
0.067411
 30
0.000000
  0
VERTEX
  8
LAYER-1
 10
4.078478
 20
0.070883
 30
0.000000
  0
VERTEX
  8
LAYER-1
 10
4.078478
 20
0.075223
 30
0.000000
  0
VERTEX
  8
LAYER-1
 10
4.077609
 20
0.079564
 30
0.000000
  0
VERTEX
  8
LAYER-1
 10
4.073269
 20
0.082168
 30
0.000000
  0
SEQEND
  8
LAYER-1
  0
POLYLINE
  8
LAYER-1
 66
  1
 70
  0
 62
  0
 10
3.956950
 20
0.060467
 30
0.000000
  0
VERTEX
  8
LAYER-1
 10
3.956950
 20
0.060467
 30
0.000000
  0
VERTEX
  8
LAYER-1
 10
3.961291
 20
0.060467
 30
0.000000
  0
VERTEX
  8
LAYER-1
 10
3.964762
 20
0.064808
 30
0.000000
  0
VERTEX
  8
LAYER-1
 10
3.965631
 20
0.070016
 30
0.000000
  0
VERTEX
  8
LAYER-1
 10
3.963895
 20
0.074356
 30
0.000000
  0
VERTEX
  8
LAYER-1
 10
3.959554
 20
0.076092
 30
0.000000
  0
VERTEX
  8
LAYER-1
 10
3.955214
 20
0.076092
 30
0.000000
  0
VERTEX
  8
LAYER-1
 10
3.950873
 20
0.072621
 30
0.000000
  0
VERTEX
  8
LAYER-1
 10
3.950873
 20
0.068280
 30
0.000000
  0
VERTEX
  8
LAYER-1
 10
3.951742
 20
0.063939
 30
0.000000
  0
VERTEX
  8
LAYER-1
 10
3.956083
 20
0.061334
 30
0.000000
  0
SEQEND
  8
LAYER-1
  0
POLYLINE
  8
LAYER-1
 66
  1
 70
  1
 62
  0
 10
4.443596
 20
0.030780
 30
0.000000
  0
VERTEX
  8
LAYER-1
 10
4.443596
 20
0.030780
 30
0.000000
  0
VERTEX
  8
LAYER-1
 10
4.436651
 20
0.056821
 30
0.000000
  0
VERTEX
  8
LAYER-1
 10
4.411478
 20
0.042933
 30
0.000000
  0
SEQEND
  8
LAYER-1
  0
POLYLINE
  8
LAYER-1
 66
  1
 70
  1
 62
  0
 10
4.471809
 20
0.067674
 30
0.000000
  0
VERTEX
  8
LAYER-1
 10
4.471809
 20
0.067674
 30
0.000000
  0
VERTEX
  8
LAYER-1
 10
4.449239
 20
0.080694
 30
0.000000
  0
VERTEX
  8
LAYER-1
 10
4.470072
 20
0.050313
 30
0.000000
  0
SEQEND
  8
LAYER-1
  0
POLYLINE
  8
LAYER-1
 66
  1
 70
  1
 62
  0
 10
4.355155
 20
0.075654
 30
0.000000
  0
VERTEX
  8
LAYER-1
 10
4.355155
 20
0.075654
 30
0.000000
  0
VERTEX
  8
LAYER-1
 10
4.335790
 20
0.088342
 30
0.000000
  0
VERTEX
  8
LAYER-1
 10
4.329779
 20
0.076990
 30
0.000000
  0
SEQEND
  8
LAYER-1
  0
POLYLINE
  8
LAYER-1
 66
  1
 70
  0
 62
  0
 10
4.410609
 20
0.069846
 30
0.000000
  0
VERTEX
  8
LAYER-1
 10
4.410609
 20
0.069846
 30
0.000000
  0
VERTEX
  8
LAYER-1
 10
4.414950
 20
0.069846
 30
0.000000
  0
VERTEX
  8
LAYER-1
 10
4.418422
 20
0.074187
 30
0.000000
  0
VERTEX
  8
LAYER-1
 10
4.419289
 20
0.079395
 30
0.000000
  0
VERTEX
  8
LAYER-1
 10
4.417554
 20
0.083736
 30
0.000000
  0
VERTEX
  8
LAYER-1
 10
4.413214
 20
0.085471
 30
0.000000
  0
VERTEX
  8
LAYER-1
 10
4.408873
 20
0.085471
 30
0.000000
  0
VERTEX
  8
LAYER-1
 10
4.404533
 20
0.082000
 30
0.000000
  0
VERTEX
  8
LAYER-1
 10
4.404533
 20
0.077659
 30
0.000000
  0
VERTEX
  8
LAYER-1
 10
4.405401
 20
0.073318
 30
0.000000
  0
VERTEX
  8
LAYER-1
 10
4.409741
 20
0.070714
 30
0.000000
  0
SEQEND
  8
LAYER-1
  0
POLYLINE
  8
LAYER-1
 66
  1
 70
  0
 62
  0
 10
4.526061
 20
0.092415
 30
0.000000
  0
VERTEX
  8
LAYER-1
 10
4.526061
 20
0.092415
 30
0.000000
  0
VERTEX
  8
LAYER-1
 10
4.521720
 20
0.092415
 30
0.000000
  0
VERTEX
  8
LAYER-1
 10
4.518248
 20
0.088075
 30
0.000000
  0
VERTEX
  8
LAYER-1
 10
4.517379
 20
0.082867
 30
0.000000
  0
VERTEX
  8
LAYER-1
 10
4.519115
 20
0.078526
 30
0.000000
  0
VERTEX
  8
LAYER-1
 10
4.523456
 20
0.076790
 30
0.000000
  0
VERTEX
  8
LAYER-1
 10
4.527797
 20
0.076790
 30
0.000000
  0
VERTEX
  8
LAYER-1
 10
4.532138
 20
0.080262
 30
0.000000
  0
VERTEX
  8
LAYER-1
 10
4.532138
 20
0.084602
 30
0.000000
  0
VERTEX
  8
LAYER-1
 10
4.531269
 20
0.088943
 30
0.000000
  0
VERTEX
  8
LAYER-1
 10
4.526928
 20
0.091548
 30
0.000000
  0
SEQEND
  8
LAYER-1
  0
POLYLINE
  8
LAYER-1
 66
  1
 70
  1
 62
  0
 10
4.695940
 20
0.014374
 30
0.000000
  0
VERTEX
  8
LAYER-1
 10
4.695940
 20
0.014374
 30
0.000000
  0
VERTEX
  8
LAYER-1
 10
4.688995
 20
0.040415
 30
0.000000
  0
VERTEX
  8
LAYER-1
 10
4.663822
 20
0.026527
 30
0.000000
  0
SEQEND
  8
LAYER-1
  0
POLYLINE
  8
LAYER-1
 66
  1
 70
  1
 62
  0
 10
4.724152
 20
0.051268
 30
0.000000
  0
VERTEX
  8
LAYER-1
 10
4.724152
 20
0.051268
 30
0.000000
  0
VERTEX
  8
LAYER-1
 10
4.701583
 20
0.064288
 30
0.000000
  0
VERTEX
  8
LAYER-1
 10
4.722416
 20
0.033907
 30
0.000000
  0
SEQEND
  8
LAYER-1
  0
POLYLINE
  8
LAYER-1
 66
  1
 70
  1
 62
  0
 10
4.607499
 20
0.059247
 30
0.000000
  0
VERTEX
  8
LAYER-1
 10
4.607499
 20
0.059247
 30
0.000000
  0
VERTEX
  8
LAYER-1
 10
4.588133
 20
0.071935
 30
0.000000
  0
VERTEX
  8
LAYER-1
 10
4.582123
 20
0.060583
 30
0.000000
  0
SEQEND
  8
LAYER-1
  0
POLYLINE
  8
LAYER-1
 66
  1
 70
  0
 62
  0
 10
4.662953
 20
0.053441
 30
0.000000
  0
VERTEX
  8
LAYER-1
 10
4.662953
 20
0.053441
 30
0.000000
  0
VERTEX
  8
LAYER-1
 10
4.667294
 20
0.053441
 30
0.000000
  0
VERTEX
  8
LAYER-1
 10
4.670766
 20
0.057781
 30
0.000000
  0
VERTEX
  8
LAYER-1
 10
4.671633
 20
0.062988
 30
0.000000
  0
VERTEX
  8
LAYER-1
 10
4.669898
 20
0.067329
 30
0.000000
  0
VERTEX
  8
LAYER-1
 10
4.665558
 20
0.069066
 30
0.000000
  0
VERTEX
  8
LAYER-1
 10
4.661217
 20
0.069066
 30
0.000000
  0
VERTEX
  8
LAYER-1
 10
4.656876
 20
0.065593
 30
0.000000
  0
VERTEX
  8
LAYER-1
 10
4.656876
 20
0.061253
 30
0.000000
  0
VERTEX
  8
LAYER-1
 10
4.657745
 20
0.056912
 30
0.000000
  0
VERTEX
  8
LAYER-1
 10
4.662085
 20
0.054308
 30
0.000000
  0
SEQEND
  8
LAYER-1
  0
POLYLINE
  8
LAYER-1
 66
  1
 70
  0
 62
  0
 10
4.778405
 20
0.076009
 30
0.000000
  0
VERTEX
  8
LAYER-1
 10
4.778405
 20
0.076009
 30
0.000000
  0
VERTEX
  8
LAYER-1
 10
4.774064
 20
0.076009
 30
0.000000
  0
VERTEX
  8
LAYER-1
 10
4.770592
 20
0.071668
 30
0.000000
  0
VERTEX
  8
LAYER-1
 10
4.769723
 20
0.066461
 30
0.000000
  0
VERTEX
  8
LAYER-1
 10
4.771459
 20
0.062119
 30
0.000000
  0
VERTEX
  8
LAYER-1
 10
4.775800
 20
0.060384
 30
0.000000
  0
VERTEX
  8
LAYER-1
 10
4.780141
 20
0.060384
 30
0.000000
  0
VERTEX
  8
LAYER-1
 10
4.784481
 20
0.063855
 30
0.000000
  0
VERTEX
  8
LAYER-1
 10
4.784481
 20
0.068197
 30
0.000000
  0
VERTEX
  8
LAYER-1
 10
4.783613
 20
0.072537
 30
0.000000
  0
VERTEX
  8
LAYER-1
 10
4.779272
 20
0.075142
 30
0.000000
  0
SEQEND
  8
LAYER-1
  0
POLYLINE
  8
LAYER-1
 66
  1
 70
  1
 62
  0
 10
4.916499
 20
0.113423
 30
0.000000
  0
VERTEX
  8
LAYER-1
 10
4.916499
 20
0.113423
 30
0.000000
  0
VERTEX
  8
LAYER-1
 10
4.923443
 20
0.087381
 30
0.000000
  0
VERTEX
  8
LAYER-1
 10
4.948617
 20
0.101269
 30
0.000000
  0
SEQEND
  8
LAYER-1
  0
POLYLINE
  8
LAYER-1
 66
  1
 70
  1
 62
  0
 10
4.888286
 20
0.076529
 30
0.000000
  0
VERTEX
  8
LAYER-1
 10
4.888286
 20
0.076529
 30
0.000000
  0
VERTEX
  8
LAYER-1
 10
4.910856
 20
0.063509
 30
0.000000
  0
VERTEX
  8
LAYER-1
 10
4.890023
 20
0.093890
 30
0.000000
  0
SEQEND
  8
LAYER-1
  0
POLYLINE
  8
LAYER-1
 66
  1
 70
  0
 62
  0
 10
4.834034
 20
0.051787
 30
0.000000
  0
VERTEX
  8
LAYER-1
 10
4.834034
 20
0.051787
 30
0.000000
  0
VERTEX
  8
LAYER-1
 10
4.838375
 20
0.051787
 30
0.000000
  0
VERTEX
  8
LAYER-1
 10
4.841846
 20
0.056129
 30
0.000000
  0
VERTEX
  8
LAYER-1
 10
4.842715
 20
0.061336
 30
0.000000
  0
VERTEX
  8
LAYER-1
 10
4.840980
 20
0.065677
 30
0.000000
  0
VERTEX
  8
LAYER-1
 10
4.836639
 20
0.067412
 30
0.000000
  0
VERTEX
  8
LAYER-1
 10
4.832298
 20
0.067412
 30
0.000000
  0
VERTEX
  8
LAYER-1
 10
4.827958
 20
0.063941
 30
0.000000
  0
VERTEX
  8
LAYER-1
 10
4.827958
 20
0.059600
 30
0.000000
  0
VERTEX
  8
LAYER-1
 10
4.828826
 20
0.055260
 30
0.000000
  0
VERTEX
  8
LAYER-1
 10
4.833167
 20
0.052655
 30
0.000000
  0
SEQEND
  8
LAYER-1
  0
POLYLINE
  8
LAYER-1
 66
  1
 70
  1
 62
  0
 10
5.469621
 20
0.225540
 30
0.000000
  0
VERTEX
  8
LAYER-1
 10
5.469621
 20
0.225540
 30
0.000000
  0
VERTEX
  8
LAYER-1
 10
5.476566
 20
0.199499
 30
0.000000
  0
VERTEX
  8
LAYER-1
 10
5.501740
 20
0.213387
 30
0.000000
  0
SEQEND
  8
LAYER-1
  0
POLYLINE
  8
LAYER-1
 66
  1
 70
  1
 62
  0
 10
5.482730
 20
0.180401
 30
0.000000
  0
VERTEX
  8
LAYER-1
 10
5.482730
 20
0.180401
 30
0.000000
  0
VERTEX
  8
LAYER-1
 10
5.469709
 20
0.157830
 30
0.000000
  0
VERTEX
  8
LAYER-1
 10
5.500091
 20
0.178663
 30
0.000000
  0
SEQEND
  8
LAYER-1
  0
POLYLINE
  8
LAYER-1
 66
  1
 70
  1
 62
  0
 10
5.174224
 20
0.148924
 30
0.000000
  0
VERTEX
  8
LAYER-1
 10
5.174224
 20
0.148924
 30
0.000000
  0
VERTEX
  8
LAYER-1
 10
5.167280
 20
0.174964
 30
0.000000
  0
VERTEX
  8
LAYER-1
 10
5.142106
 20
0.161078
 30
0.000000
  0
SEQEND
  8
LAYER-1
  0
POLYLINE
  8
LAYER-1
 66
  1
 70
  1
 62
  0
 10
5.161115
 20
0.194063
 30
0.000000
  0
VERTEX
  8
LAYER-1
 10
5.161115
 20
0.194063
 30
0.000000
  0
VERTEX
  8
LAYER-1
 10
5.174137
 20
0.216634
 30
0.000000
  0
VERTEX
  8
LAYER-1
 10
5.143754
 20
0.195801
 30
0.000000
  0
SEQEND
  8
LAYER-1
  0
POLYLINE
  8
LAYER-1
 66
  1
 70
  1
 62
  0
 10
5.678997
 20
0.051095
 30
0.000000
  0
VERTEX
  8
LAYER-1
 10
5.678997
 20
0.051095
 30
0.000000
  0
VERTEX
  8
LAYER-1
 10
5.705037
 20
0.058040
 30
0.000000
  0
VERTEX
  8
LAYER-1
 10
5.691150
 20
0.083214
 30
0.000000
  0
SEQEND
  8
LAYER-1
  0
POLYLINE
  8
LAYER-1
 66
  1
 70
  1
 62
  0
 10
5.724136
 20
0.064203
 30
0.000000
  0
VERTEX
  8
LAYER-1
 10
5.724136
 20
0.064203
 30
0.000000
  0
VERTEX
  8
LAYER-1
 10
5.746707
 20
0.051183
 30
0.000000
  0
VERTEX
  8
LAYER-1
 10
5.725874
 20
0.081564
 30
0.000000
  0
SEQEND
  8
LAYER-1
  0
ENDSEC
  0
EOF
