  0
SECTION
  2
HEADER
999
MacDraft 5.0\0
  9
$ACADVER
  1
AC1006
  9
$CLAYER
  8
LAYER-1
  9
$EXTMIN
 10
0.000000
 20
0.000000
  9
$EXTMAX
 10
7.004300
 20
9.982811
  9
$FASTZOOM
 70
0
  9
$FILLMODE
 70
1
  0
ENDSEC
  0
SECTION
  2
TABLES
  0
TABLE
  2
LTYPE
 70
16
  0
LTYPE
  2
CONTINUOUS
 70
64
  3
Solid Line
 72
65
 73
0
 40
0.000000
  0
LTYPE
  2
LTYPE01
 70
64
  3
CUSTOM
 72
65
 73
2
 40
0.111111
 49
0.083333
 49
-0.027778
  0
LTYPE
  2
LTYPE02
 70
64
  3
CUSTOM
 72
65
 73
2
 40
0.194444
 49
0.166667
 49
-0.027778
  0
LTYPE
  2
LTYPE03
 70
64
  3
CUSTOM
 72
65
 73
2
 40
0.375000
 49
0.333333
 49
-0.041667
  0
LTYPE
  2
LTYPE04
 70
64
  3
CUSTOM
 72
65
 73
2
 40
0.722222
 49
0.666667
 49
-0.055556
  0
LTYPE
  2
LTYPE05
 70
64
  3
CUSTOM
 72
65
 73
4
 40
0.152778
 49
0.083333
 49
-0.027778
 49
0.013889
 49
-0.027778
  0
LTYPE
  2
LTYPE06
 70
64
  3
CUSTOM
 72
65
 73
4
 40
0.236111
 49
0.166667
 49
-0.027778
 49
0.013889
 49
-0.027778
  0
LTYPE
  2
LTYPE07
 70
64
  3
CUSTOM
 72
65
 73
4
 40
0.444444
 49
0.333333
 49
-0.041667
 49
0.027778
 49
-0.041667
  0
LTYPE
  2
LTYPE08
 70
64
  3
CUSTOM
 72
65
 73
4
 40
0.805556
 49
0.666667
 49
-0.055556
 49
0.027778
 49
-0.055556
  0
LTYPE
  2
LTYPE09
 70
64
  3
CUSTOM
 72
65
 73
6
 40
0.194444
 49
0.083333
 49
-0.027778
 49
0.013889
 49
-0.027778
 49
0.013889
 49
-0.027778
  0
LTYPE
  2
LTYPE10
 70
64
  3
CUSTOM
 72
65
 73
6
 40
0.277778
 49
0.166667
 49
-0.027778
 49
0.013889
 49
-0.027778
 49
0.013889
 49
-0.027778
  0
LTYPE
  2
LTYPE11
 70
64
  3
CUSTOM
 72
65
 73
6
 40
0.500000
 49
0.333333
 49
-0.041667
 49
0.027778
 49
-0.027778
 49
0.027778
 49
-0.041667
  0
LTYPE
  2
LTYPE12
 70
64
  3
CUSTOM
 72
65
 73
6
 40
0.861111
 49
0.666667
 49
-0.055556
 49
0.027778
 49
-0.027778
 49
0.027778
 49
-0.055556
  0
LTYPE
  2
LTYPE13
 70
64
  3
CUSTOM
 72
65
 73
8
 40
0.319444
 49
0.166667
 49
-0.027778
 49
0.013889
 49
-0.027778
 49
0.013889
 49
-0.027778
 49
0.013889
 49
-0.027778
  0
LTYPE
  2
LTYPE14
 70
64
  3
CUSTOM
 72
65
 73
8
 40
0.555556
 49
0.333333
 49
-0.041667
 49
0.027778
 49
-0.027778
 49
0.027778
 49
-0.027778
 49
0.027778
 49
-0.041667
  0
LTYPE
  2
LTYPE15
 70
64
  3
CUSTOM
 72
65
 73
8
 40
0.944444
 49
0.666667
 49
-0.055556
 49
0.027778
 49
-0.041667
 49
0.027778
 49
-0.041667
 49
0.027778
 49
-0.055556
  0
ENDTAB
  0
TABLE
  2
LAYER
 70
1
  0
LAYER
  2
LAYER-1
 70
0
 62
7
  6
CONTINUOUS
  0
ENDTAB
  0
ENDSEC
  0
SECTION
  2
BLOCKS
  0
ENDSEC
  0
SECTION
  2
ENTITIES
  0
ARC
  8
LAYER-1
 62
  0
 10
5.469801
 20
8.916032
 30
0.000000
 40
0.254425
 50
270.000000
 51
90.000000
  0
POLYLINE
  8
LAYER-1
 66
  1
 70
  0
 62
  0
 10
5.469801
 20
9.170457
 30
0.000000
  0
VERTEX
  8
LAYER-1
 10
5.469801
 20
9.170457
 30
0.000000
  0
VERTEX
  8
LAYER-1
 10
1.804880
 20
9.170457
 30
0.000000
  0
SEQEND
  8
LAYER-1
  0
POLYLINE
  8
LAYER-1
 66
  1
 70
  0
 62
  0
 10
1.804880
 20
9.170457
 30
0.000000
  0
VERTEX
  8
LAYER-1
 10
1.804880
 20
9.170457
 30
0.000000
  0
VERTEX
  8
LAYER-1
 10
1.804880
 20
8.661608
 30
0.000000
  0
SEQEND
  8
LAYER-1
  0
POLYLINE
  8
LAYER-1
 66
  1
 70
  0
 62
  0
 10
5.469801
 20
8.661608
 30
0.000000
  0
VERTEX
  8
LAYER-1
 10
5.469801
 20
8.661608
 30
0.000000
  0
VERTEX
  8
LAYER-1
 10
1.804880
 20
8.661608
 30
0.000000
  0
SEQEND
  8
LAYER-1
  0
TEXT
  8
LAYER-1
 62
  0
 10
3.615411
 20
9.461170
 30
0.000000
 40
0.333333
  1
MobilFlex
 72
  5
 11
5.768189
 21
9.461170
 31
0.000000
  0
POLYLINE
  8
LAYER-1
 66
  1
 70
  1
 62
  0
  0
VERTEX
  8
LAYER-1
 10
1.806383
 20
9.981144
 30
0.000000
  0
VERTEX
  8
LAYER-1
 10
2.044230
 20
9.981144
 30
0.000000
  0
VERTEX
  8
LAYER-1
 10
2.044230
 20
9.464199
 30
0.000000
  0
VERTEX
  8
LAYER-1
 10
1.806383
 20
9.464199
 30
0.000000
  0
SEQEND
  8
LAYER-1
  0
POLYLINE
  8
LAYER-1
 66
  1
 70
  1
 62
  0
  0
VERTEX
  8
LAYER-1
 10
2.118883
 20
9.981144
 30
0.000000
  0
VERTEX
  8
LAYER-1
 10
2.356730
 20
9.981144
 30
0.000000
  0
VERTEX
  8
LAYER-1
 10
2.356730
 20
9.464199
 30
0.000000
  0
VERTEX
  8
LAYER-1
 10
2.118883
 20
9.464199
 30
0.000000
  0
SEQEND
  8
LAYER-1
  0
POLYLINE
  8
LAYER-1
 66
  1
 70
  1
 62
  0
  0
VERTEX
  8
LAYER-1
 10
2.419230
 20
9.981144
 30
0.000000
  0
VERTEX
  8
LAYER-1
 10
2.657078
 20
9.981144
 30
0.000000
  0
VERTEX
  8
LAYER-1
 10
2.657078
 20
9.464199
 30
0.000000
  0
VERTEX
  8
LAYER-1
 10
2.419230
 20
9.464199
 30
0.000000
  0
SEQEND
  8
LAYER-1
  0
POLYLINE
  8
LAYER-1
 66
  1
 70
  1
 62
  0
  0
VERTEX
  8
LAYER-1
 10
2.723050
 20
9.981144
 30
0.000000
  0
VERTEX
  8
LAYER-1
 10
2.960897
 20
9.981144
 30
0.000000
  0
VERTEX
  8
LAYER-1
 10
2.960897
 20
9.464199
 30
0.000000
  0
VERTEX
  8
LAYER-1
 10
2.723050
 20
9.464199
 30
0.000000
  0
SEQEND
  8
LAYER-1
  0
POLYLINE
  8
LAYER-1
 66
  1
 70
  1
 62
  0
  0
VERTEX
  8
LAYER-1
 10
3.039890
 20
9.977229
 30
0.000000
  0
VERTEX
  8
LAYER-1
 10
3.415324
 20
9.977229
 30
0.000000
  0
VERTEX
  8
LAYER-1
 10
3.415324
 20
9.839208
 30
0.000000
  0
VERTEX
  8
LAYER-1
 10
3.039890
 20
9.839208
 30
0.000000
  0
SEQEND
  8
LAYER-1
  0
POLYLINE
  8
LAYER-1
 66
  1
 70
  1
 62
  0
  0
VERTEX
  8
LAYER-1
 10
3.039456
 20
9.749798
 30
0.000000
  0
VERTEX
  8
LAYER-1
 10
3.347616
 20
9.749798
 30
0.000000
  0
VERTEX
  8
LAYER-1
 10
3.347616
 20
9.615684
 30
0.000000
  0
VERTEX
  8
LAYER-1
 10
3.039456
 20
9.615684
 30
0.000000
  0
SEQEND
  8
LAYER-1
  0
POLYLINE
  8
LAYER-1
 66
  1
 70
  1
 62
  0
  0
VERTEX
  8
LAYER-1
 10
1.806383
 20
9.379573
 30
0.000000
  0
VERTEX
  8
LAYER-1
 10
5.724786
 20
9.379573
 30
0.000000
  0
VERTEX
  8
LAYER-1
 10
5.724786
 20
9.336170
 30
0.000000
  0
VERTEX
  8
LAYER-1
 10
1.806383
 20
9.336170
 30
0.000000
  0
SEQEND
  8
LAYER-1
  0
POLYLINE
  8
LAYER-1
 66
  1
 70
  0
 62
  0
 10
5.777370
 20
7.423724
 30
0.000000
  0
VERTEX
  8
LAYER-1
 10
5.777370
 20
7.423724
 30
0.000000
  0
VERTEX
  8
LAYER-1
 10
1.758507
 20
7.423860
 30
0.000000
  0
VERTEX
  8
LAYER-1
 10
1.758507
 20
0.356647
 30
0.000000
  0
VERTEX
  8
LAYER-1
 10
5.777370
 20
0.356647
 30
0.000000
  0
VERTEX
  8
LAYER-1
 10
5.777370
 20
7.423860
 30
0.000000
  0
SEQEND
  8
LAYER-1
  0
POLYLINE
  8
LAYER-1
 66
  1
 70
  1
 62
  0
  0
VERTEX
  8
LAYER-1
 10
3.793519
 20
7.490284
 30
0.000000
  0
VERTEX
  8
LAYER-1
 10
3.818614
 20
7.490284
 30
0.000000
  0
VERTEX
  8
LAYER-1
 10
3.818614
 20
7.423965
 30
0.000000
  0
VERTEX
  8
LAYER-1
 10
3.793519
 20
7.423965
 30
0.000000
  0
SEQEND
  8
LAYER-1
  0
POLYLINE
  8
LAYER-1
 66
  1
 70
  1
 62
  0
  0
VERTEX
  8
LAYER-1
 10
1.831183
 20
0.670400
 30
0.000000
  0
VERTEX
  8
LAYER-1
 10
2.155815
 20
0.670400
 30
0.000000
  0
VERTEX
  8
LAYER-1
 10
2.155815
 20
0.356974
 30
0.000000
  0
VERTEX
  8
LAYER-1
 10
1.831183
 20
0.356974
 30
0.000000
  0
SEQEND
  8
LAYER-1
  0
POLYLINE
  8
LAYER-1
 66
  1
 70
  1
 62
  0
  0
VERTEX
  8
LAYER-1
 10
2.241245
 20
0.670400
 30
0.000000
  0
VERTEX
  8
LAYER-1
 10
2.565877
 20
0.670400
 30
0.000000
  0
VERTEX
  8
LAYER-1
 10
2.565877
 20
0.356974
 30
0.000000
  0
VERTEX
  8
LAYER-1
 10
2.241245
 20
0.356974
 30
0.000000
  0
SEQEND
  8
LAYER-1
  0
POLYLINE
  8
LAYER-1
 66
  1
 70
  1
 62
  0
  0
VERTEX
  8
LAYER-1
 10
2.651307
 20
0.670400
 30
0.000000
  0
VERTEX
  8
LAYER-1
 10
2.975936
 20
0.670400
 30
0.000000
  0
VERTEX
  8
LAYER-1
 10
2.975936
 20
0.356974
 30
0.000000
  0
VERTEX
  8
LAYER-1
 10
2.651307
 20
0.356974
 30
0.000000
  0
SEQEND
  8
LAYER-1
  0
POLYLINE
  8
LAYER-1
 66
  1
 70
  1
 62
  0
  0
VERTEX
  8
LAYER-1
 10
3.061367
 20
0.670400
 30
0.000000
  0
VERTEX
  8
LAYER-1
 10
3.385998
 20
0.670400
 30
0.000000
  0
VERTEX
  8
LAYER-1
 10
3.385998
 20
0.356974
 30
0.000000
  0
VERTEX
  8
LAYER-1
 10
3.061367
 20
0.356974
 30
0.000000
  0
SEQEND
  8
LAYER-1
  0
POLYLINE
  8
LAYER-1
 66
  1
 70
  1
 62
  0
  0
VERTEX
  8
LAYER-1
 10
5.380062
 20
0.670400
 30
0.000000
  0
VERTEX
  8
LAYER-1
 10
5.704693
 20
0.670400
 30
0.000000
  0
VERTEX
  8
LAYER-1
 10
5.704693
 20
0.356974
 30
0.000000
  0
VERTEX
  8
LAYER-1
 10
5.380062
 20
0.356974
 30
0.000000
  0
SEQEND
  8
LAYER-1
  0
POLYLINE
  8
LAYER-1
 66
  1
 70
  1
 62
  0
  0
VERTEX
  8
LAYER-1
 10
4.969999
 20
0.670400
 30
0.000000
  0
VERTEX
  8
LAYER-1
 10
5.294631
 20
0.670400
 30
0.000000
  0
VERTEX
  8
LAYER-1
 10
5.294631
 20
0.356974
 30
0.000000
  0
VERTEX
  8
LAYER-1
 10
4.969999
 20
0.356974
 30
0.000000
  0
SEQEND
  8
LAYER-1
  0
POLYLINE
  8
LAYER-1
 66
  1
 70
  1
 62
  0
  0
VERTEX
  8
LAYER-1
 10
4.559937
 20
0.670400
 30
0.000000
  0
VERTEX
  8
LAYER-1
 10
4.884569
 20
0.670400
 30
0.000000
  0
VERTEX
  8
LAYER-1
 10
4.884569
 20
0.356974
 30
0.000000
  0
VERTEX
  8
LAYER-1
 10
4.559937
 20
0.356974
 30
0.000000
  0
SEQEND
  8
LAYER-1
  0
POLYLINE
  8
LAYER-1
 66
  1
 70
  1
 62
  0
  0
VERTEX
  8
LAYER-1
 10
4.149875
 20
0.670400
 30
0.000000
  0
VERTEX
  8
LAYER-1
 10
4.474506
 20
0.670400
 30
0.000000
  0
VERTEX
  8
LAYER-1
 10
4.474506
 20
0.356974
 30
0.000000
  0
VERTEX
  8
LAYER-1
 10
4.149875
 20
0.356974
 30
0.000000
  0
SEQEND
  8
LAYER-1
  0
POLYLINE
  8
LAYER-1
 66
  1
 70
  1
 62
  0
  0
VERTEX
  8
LAYER-1
 10
1.831183
 20
7.423871
 30
0.000000
  0
VERTEX
  8
LAYER-1
 10
2.155815
 20
7.423871
 30
0.000000
  0
VERTEX
  8
LAYER-1
 10
2.155815
 20
7.153872
 30
0.000000
  0
VERTEX
  8
LAYER-1
 10
1.831183
 20
7.153872
 30
0.000000
  0
SEQEND
  8
LAYER-1
  0
POLYLINE
  8
LAYER-1
 66
  1
 70
  1
 62
  0
  0
VERTEX
  8
LAYER-1
 10
2.241245
 20
7.423871
 30
0.000000
  0
VERTEX
  8
LAYER-1
 10
2.565877
 20
7.423871
 30
0.000000
  0
VERTEX
  8
LAYER-1
 10
2.565877
 20
7.153872
 30
0.000000
  0
VERTEX
  8
LAYER-1
 10
2.241245
 20
7.153872
 30
0.000000
  0
SEQEND
  8
LAYER-1
  0
POLYLINE
  8
LAYER-1
 66
  1
 70
  1
 62
  0
  0
VERTEX
  8
LAYER-1
 10
2.651307
 20
7.423871
 30
0.000000
  0
VERTEX
  8
LAYER-1
 10
2.975936
 20
7.423871
 30
0.000000
  0
VERTEX
  8
LAYER-1
 10
2.975936
 20
7.153872
 30
0.000000
  0
VERTEX
  8
LAYER-1
 10
2.651307
 20
7.153872
 30
0.000000
  0
SEQEND
  8
LAYER-1
  0
POLYLINE
  8
LAYER-1
 66
  1
 70
  1
 62
  0
  0
VERTEX
  8
LAYER-1
 10
3.061367
 20
7.423871
 30
0.000000
  0
VERTEX
  8
LAYER-1
 10
3.385998
 20
7.423871
 30
0.000000
  0
VERTEX
  8
LAYER-1
 10
3.385998
 20
7.153872
 30
0.000000
  0
VERTEX
  8
LAYER-1
 10
3.061367
 20
7.153872
 30
0.000000
  0
SEQEND
  8
LAYER-1
  0
POLYLINE
  8
LAYER-1
 66
  1
 70
  0
 62
  0
 10
2.798198
 20
7.423946
 30
0.000000
  0
VERTEX
  8
LAYER-1
 10
2.798198
 20
7.423946
 30
0.000000
  0
VERTEX
  8
LAYER-1
 10
2.798198
 20
7.154416
 30
0.000000
  0
SEQEND
  8
LAYER-1
  0
POLYLINE
  8
LAYER-1
 66
  1
 70
  0
 62
  0
 10
2.835278
 20
7.423946
 30
0.000000
  0
VERTEX
  8
LAYER-1
 10
2.835278
 20
7.423946
 30
0.000000
  0
VERTEX
  8
LAYER-1
 10
2.835278
 20
7.154416
 30
0.000000
  0
SEQEND
  8
LAYER-1
  0
POLYLINE
  8
LAYER-1
 66
  1
 70
  0
 62
  0
 10
1.976532
 20
7.423946
 30
0.000000
  0
VERTEX
  8
LAYER-1
 10
1.976532
 20
7.423946
 30
0.000000
  0
VERTEX
  8
LAYER-1
 10
1.976532
 20
7.154416
 30
0.000000
  0
SEQEND
  8
LAYER-1
  0
POLYLINE
  8
LAYER-1
 66
  1
 70
  0
 62
  0
 10
2.015094
 20
7.423946
 30
0.000000
  0
VERTEX
  8
LAYER-1
 10
2.015094
 20
7.423946
 30
0.000000
  0
VERTEX
  8
LAYER-1
 10
2.015094
 20
7.154416
 30
0.000000
  0
SEQEND
  8
LAYER-1
  0
POLYLINE
  8
LAYER-1
 66
  1
 70
  1
 62
  0
  0
VERTEX
  8
LAYER-1
 10
2.172309
 20
7.429806
 30
0.000000
  0
VERTEX
  8
LAYER-1
 10
2.227185
 20
7.429806
 30
0.000000
  0
VERTEX
  8
LAYER-1
 10
2.227185
 20
7.423946
 30
0.000000
  0
VERTEX
  8
LAYER-1
 10
2.172309
 20
7.423946
 30
0.000000
  0
SEQEND
  8
LAYER-1
  0
POLYLINE
  8
LAYER-1
 66
  1
 70
  0
 62
  0
 10
2.181207
 20
7.356563
 30
0.000000
  0
VERTEX
  8
LAYER-1
 10
2.181207
 20
7.356563
 30
0.000000
  0
VERTEX
  8
LAYER-1
 10
2.216803
 20
7.356563
 30
0.000000
  0
SEQEND
  8
LAYER-1
  0
POLYLINE
  8
LAYER-1
 66
  1
 70
  0
 62
  0
 10
2.181207
 20
7.227658
 30
0.000000
  0
VERTEX
  8
LAYER-1
 10
2.181207
 20
7.227658
 30
0.000000
  0
VERTEX
  8
LAYER-1
 10
2.216803
 20
7.227658
 30
0.000000
  0
SEQEND
  8
LAYER-1
  0
POLYLINE
  8
LAYER-1
 66
  1
 70
  1
 62
  0
  0
VERTEX
  8
LAYER-1
 10
2.989523
 20
7.429806
 30
0.000000
  0
VERTEX
  8
LAYER-1
 10
3.044398
 20
7.429806
 30
0.000000
  0
VERTEX
  8
LAYER-1
 10
3.044398
 20
7.423946
 30
0.000000
  0
VERTEX
  8
LAYER-1
 10
2.989523
 20
7.423946
 30
0.000000
  0
SEQEND
  8
LAYER-1
  0
POLYLINE
  8
LAYER-1
 66
  1
 70
  0
 62
  0
 10
2.999906
 20
7.356563
 30
0.000000
  0
VERTEX
  8
LAYER-1
 10
2.999906
 20
7.356563
 30
0.000000
  0
VERTEX
  8
LAYER-1
 10
3.035500
 20
7.356563
 30
0.000000
  0
SEQEND
  8
LAYER-1
  0
POLYLINE
  8
LAYER-1
 66
  1
 70
  0
 62
  0
 10
2.999906
 20
7.227657
 30
0.000000
  0
VERTEX
  8
LAYER-1
 10
2.999906
 20
7.227657
 30
0.000000
  0
VERTEX
  8
LAYER-1
 10
3.035500
 20
7.227657
 30
0.000000
  0
SEQEND
  8
LAYER-1
  0
POLYLINE
  8
LAYER-1
 66
  1
 70
  0
 62
  0
 10
1.831183
 20
7.423871
 30
0.000000
  0
VERTEX
  8
LAYER-1
 10
1.831183
 20
7.423871
 30
0.000000
  0
VERTEX
  8
LAYER-1
 10
1.831183
 20
0.357080
 30
0.000000
  0
SEQEND
  8
LAYER-1
  0
POLYLINE
  8
LAYER-1
 66
  1
 70
  0
 62
  0
 10
2.155815
 20
7.423871
 30
0.000000
  0
VERTEX
  8
LAYER-1
 10
2.155815
 20
7.423871
 30
0.000000
  0
VERTEX
  8
LAYER-1
 10
2.155815
 20
0.357080
 30
0.000000
  0
SEQEND
  8
LAYER-1
  0
POLYLINE
  8
LAYER-1
 66
  1
 70
  0
 62
  0
 10
2.241245
 20
7.423871
 30
0.000000
  0
VERTEX
  8
LAYER-1
 10
2.241245
 20
7.423871
 30
0.000000
  0
VERTEX
  8
LAYER-1
 10
2.241245
 20
0.357080
 30
0.000000
  0
SEQEND
  8
LAYER-1
  0
POLYLINE
  8
LAYER-1
 66
  1
 70
  0
 62
  0
 10
2.181207
 20
7.423871
 30
0.000000
  0
VERTEX
  8
LAYER-1
 10
2.181207
 20
7.423871
 30
0.000000
  0
VERTEX
  8
LAYER-1
 10
2.181207
 20
0.357080
 30
0.000000
  0
SEQEND
  8
LAYER-1
  0
POLYLINE
  8
LAYER-1
 66
  1
 70
  0
 62
  0
 10
2.216803
 20
7.423871
 30
0.000000
  0
VERTEX
  8
LAYER-1
 10
2.216803
 20
7.423871
 30
0.000000
  0
VERTEX
  8
LAYER-1
 10
2.216803
 20
0.357080
 30
0.000000
  0
SEQEND
  8
LAYER-1
  0
POLYLINE
  8
LAYER-1
 66
  1
 70
  1
 62
  0
  0
VERTEX
  8
LAYER-1
 10
2.170824
 20
0.357156
 30
0.000000
  0
VERTEX
  8
LAYER-1
 10
2.225700
 20
0.357156
 30
0.000000
  0
VERTEX
  8
LAYER-1
 10
2.225700
 20
0.351296
 30
0.000000
  0
VERTEX
  8
LAYER-1
 10
2.170824
 20
0.351296
 30
0.000000
  0
SEQEND
  8
LAYER-1
  0
POLYLINE
  8
LAYER-1
 66
  1
 70
  0
 62
  0
 10
2.216803
 20
0.430398
 30
0.000000
  0
VERTEX
  8
LAYER-1
 10
2.216803
 20
0.430398
 30
0.000000
  0
VERTEX
  8
LAYER-1
 10
2.181207
 20
0.430398
 30
0.000000
  0
SEQEND
  8
LAYER-1
  0
POLYLINE
  8
LAYER-1
 66
  1
 70
  0
 62
  0
 10
2.216803
 20
0.559304
 30
0.000000
  0
VERTEX
  8
LAYER-1
 10
2.216803
 20
0.559304
 30
0.000000
  0
VERTEX
  8
LAYER-1
 10
2.181207
 20
0.559304
 30
0.000000
  0
SEQEND
  8
LAYER-1
  0
POLYLINE
  8
LAYER-1
 66
  1
 70
  0
 62
  0
 10
2.181207
 20
0.634288
 30
0.000000
  0
VERTEX
  8
LAYER-1
 10
2.181207
 20
0.634288
 30
0.000000
  0
VERTEX
  8
LAYER-1
 10
2.216803
 20
0.634288
 30
0.000000
  0
SEQEND
  8
LAYER-1
  0
POLYLINE
  8
LAYER-1
 66
  1
 70
  0
 62
  0
 10
2.181207
 20
1.480968
 30
0.000000
  0
VERTEX
  8
LAYER-1
 10
2.181207
 20
1.480968
 30
0.000000
  0
VERTEX
  8
LAYER-1
 10
2.216803
 20
1.480968
 30
0.000000
  0
SEQEND
  8
LAYER-1
  0
POLYLINE
  8
LAYER-1
 66
  1
 70
  0
 62
  0
 10
2.181207
 20
2.318857
 30
0.000000
  0
VERTEX
  8
LAYER-1
 10
2.181207
 20
2.318857
 30
0.000000
  0
VERTEX
  8
LAYER-1
 10
2.216803
 20
2.318857
 30
0.000000
  0
SEQEND
  8
LAYER-1
  0
POLYLINE
  8
LAYER-1
 66
  1
 70
  0
 62
  0
 10
2.181207
 20
3.168460
 30
0.000000
  0
VERTEX
  8
LAYER-1
 10
2.181207
 20
3.168460
 30
0.000000
  0
VERTEX
  8
LAYER-1
 10
2.216803
 20
3.168460
 30
0.000000
  0
SEQEND
  8
LAYER-1
  0
POLYLINE
  8
LAYER-1
 66
  1
 70
  0
 62
  0
 10
2.216803
 20
4.010746
 30
0.000000
  0
VERTEX
  8
LAYER-1
 10
2.216803
 20
4.010746
 30
0.000000
  0
VERTEX
  8
LAYER-1
 10
2.181207
 20
4.010746
 30
0.000000
  0
SEQEND
  8
LAYER-1
  0
POLYLINE
  8
LAYER-1
 66
  1
 70
  1
 62
  0
  0
VERTEX
  8
LAYER-1
 10
1.831183
 20
3.949100
 30
0.000000
  0
VERTEX
  8
LAYER-1
 10
2.155993
 20
3.949100
 30
0.000000
  0
VERTEX
  8
LAYER-1
 10
2.155993
 20
3.872929
 30
0.000000
  0
VERTEX
  8
LAYER-1
 10
1.831183
 20
3.872929
 30
0.000000
  0
SEQEND
  8
LAYER-1
  0
POLYLINE
  8
LAYER-1
 66
  1
 70
  1
 62
  0
  0
VERTEX
  8
LAYER-1
 10
2.241245
 20
3.949100
 30
0.000000
  0
VERTEX
  8
LAYER-1
 10
2.566055
 20
3.949100
 30
0.000000
  0
VERTEX
  8
LAYER-1
 10
2.566055
 20
3.872929
 30
0.000000
  0
VERTEX
  8
LAYER-1
 10
2.241245
 20
3.872929
 30
0.000000
  0
SEQEND
  8
LAYER-1
  0
POLYLINE
  8
LAYER-1
 66
  1
 70
  1
 62
  0
  0
VERTEX
  8
LAYER-1
 10
2.651307
 20
3.949100
 30
0.000000
  0
VERTEX
  8
LAYER-1
 10
2.976113
 20
3.949100
 30
0.000000
  0
VERTEX
  8
LAYER-1
 10
2.976113
 20
3.872929
 30
0.000000
  0
VERTEX
  8
LAYER-1
 10
2.651307
 20
3.872929
 30
0.000000
  0
SEQEND
  8
LAYER-1
  0
POLYLINE
  8
LAYER-1
 66
  1
 70
  1
 62
  0
  0
VERTEX
  8
LAYER-1
 10
3.061367
 20
3.949100
 30
0.000000
  0
VERTEX
  8
LAYER-1
 10
3.386175
 20
3.949100
 30
0.000000
  0
VERTEX
  8
LAYER-1
 10
3.386175
 20
3.872929
 30
0.000000
  0
VERTEX
  8
LAYER-1
 10
3.061367
 20
3.872929
 30
0.000000
  0
SEQEND
  8
LAYER-1
  0
POLYLINE
  8
LAYER-1
 66
  1
 70
  1
 62
  0
  0
VERTEX
  8
LAYER-1
 10
5.379884
 20
3.949100
 30
0.000000
  0
VERTEX
  8
LAYER-1
 10
5.704693
 20
3.949100
 30
0.000000
  0
VERTEX
  8
LAYER-1
 10
5.704693
 20
3.872929
 30
0.000000
  0
VERTEX
  8
LAYER-1
 10
5.379884
 20
3.872929
 30
0.000000
  0
SEQEND
  8
LAYER-1
  0
POLYLINE
  8
LAYER-1
 66
  1
 70
  1
 62
  0
  0
VERTEX
  8
LAYER-1
 10
4.969822
 20
3.949100
 30
0.000000
  0
VERTEX
  8
LAYER-1
 10
5.294631
 20
3.949100
 30
0.000000
  0
VERTEX
  8
LAYER-1
 10
5.294631
 20
3.872929
 30
0.000000
  0
VERTEX
  8
LAYER-1
 10
4.969822
 20
3.872929
 30
0.000000
  0
SEQEND
  8
LAYER-1
  0
POLYLINE
  8
LAYER-1
 66
  1
 70
  1
 62
  0
  0
VERTEX
  8
LAYER-1
 10
4.559760
 20
3.949100
 30
0.000000
  0
VERTEX
  8
LAYER-1
 10
4.884569
 20
3.949100
 30
0.000000
  0
VERTEX
  8
LAYER-1
 10
4.884569
 20
3.872929
 30
0.000000
  0
VERTEX
  8
LAYER-1
 10
4.559760
 20
3.872929
 30
0.000000
  0
SEQEND
  8
LAYER-1
  0
POLYLINE
  8
LAYER-1
 66
  1
 70
  1
 62
  0
  0
VERTEX
  8
LAYER-1
 10
4.149698
 20
3.949100
 30
0.000000
  0
VERTEX
  8
LAYER-1
 10
4.474506
 20
3.949100
 30
0.000000
  0
VERTEX
  8
LAYER-1
 10
4.474506
 20
3.872929
 30
0.000000
  0
VERTEX
  8
LAYER-1
 10
4.149698
 20
3.872929
 30
0.000000
  0
SEQEND
  8
LAYER-1
  0
POLYLINE
  8
LAYER-1
 66
  1
 70
  1
 62
  0
  0
VERTEX
  8
LAYER-1
 10
1.831123
 20
7.136246
 30
0.000000
  0
VERTEX
  8
LAYER-1
 10
2.155809
 20
7.136246
 30
0.000000
  0
VERTEX
  8
LAYER-1
 10
2.155809
 20
3.968114
 30
0.000000
  0
VERTEX
  8
LAYER-1
 10
1.831123
 20
3.968114
 30
0.000000
  0
SEQEND
  8
LAYER-1
  0
POLYLINE
  8
LAYER-1
 66
  1
 70
  1
 62
  0
  0
VERTEX
  8
LAYER-1
 10
2.241280
 20
7.136246
 30
0.000000
  0
VERTEX
  8
LAYER-1
 10
2.565872
 20
7.136246
 30
0.000000
  0
VERTEX
  8
LAYER-1
 10
2.565872
 20
3.967680
 30
0.000000
  0
VERTEX
  8
LAYER-1
 10
2.241280
 20
3.967680
 30
0.000000
  0
SEQEND
  8
LAYER-1
  0
POLYLINE
  8
LAYER-1
 66
  1
 70
  1
 62
  0
  0
VERTEX
  8
LAYER-1
 10
2.651436
 20
7.136246
 30
0.000000
  0
VERTEX
  8
LAYER-1
 10
2.975930
 20
7.136246
 30
0.000000
  0
VERTEX
  8
LAYER-1
 10
2.975930
 20
3.968114
 30
0.000000
  0
VERTEX
  8
LAYER-1
 10
2.651436
 20
3.968114
 30
0.000000
  0
SEQEND
  8
LAYER-1
  0
POLYLINE
  8
LAYER-1
 66
  1
 70
  1
 62
  0
  0
VERTEX
  8
LAYER-1
 10
3.061158
 20
7.136246
 30
0.000000
  0
VERTEX
  8
LAYER-1
 10
3.385992
 20
7.136246
 30
0.000000
  0
VERTEX
  8
LAYER-1
 10
3.385992
 20
3.968114
 30
0.000000
  0
VERTEX
  8
LAYER-1
 10
3.061158
 20
3.968114
 30
0.000000
  0
SEQEND
  8
LAYER-1
  0
POLYLINE
  8
LAYER-1
 66
  1
 70
  1
 62
  0
  0
VERTEX
  8
LAYER-1
 10
5.380067
 20
7.136245
 30
0.000000
  0
VERTEX
  8
LAYER-1
 10
5.704259
 20
7.136245
 30
0.000000
  0
VERTEX
  8
LAYER-1
 10
5.704259
 20
3.967936
 30
0.000000
  0
VERTEX
  8
LAYER-1
 10
5.380067
 20
3.967936
 30
0.000000
  0
SEQEND
  8
LAYER-1
  0
POLYLINE
  8
LAYER-1
 66
  1
 70
  1
 62
  0
  0
VERTEX
  8
LAYER-1
 10
4.970005
 20
7.136245
 30
0.000000
  0
VERTEX
  8
LAYER-1
 10
5.294196
 20
7.136245
 30
0.000000
  0
VERTEX
  8
LAYER-1
 10
5.294196
 20
3.967936
 30
0.000000
  0
VERTEX
  8
LAYER-1
 10
4.970005
 20
3.967936
 30
0.000000
  0
SEQEND
  8
LAYER-1
  0
POLYLINE
  8
LAYER-1
 66
  1
 70
  1
 62
  0
  0
VERTEX
  8
LAYER-1
 10
4.559942
 20
7.136245
 30
0.000000
  0
VERTEX
  8
LAYER-1
 10
4.884134
 20
7.136245
 30
0.000000
  0
VERTEX
  8
LAYER-1
 10
4.884134
 20
3.967936
 30
0.000000
  0
VERTEX
  8
LAYER-1
 10
4.559942
 20
3.967936
 30
0.000000
  0
SEQEND
  8
LAYER-1
  0
POLYLINE
  8
LAYER-1
 66
  1
 70
  1
 62
  0
  0
VERTEX
  8
LAYER-1
 10
4.149881
 20
7.136245
 30
0.000000
  0
VERTEX
  8
LAYER-1
 10
4.474072
 20
7.136245
 30
0.000000
  0
VERTEX
  8
LAYER-1
 10
4.474072
 20
3.967936
 30
0.000000
  0
VERTEX
  8
LAYER-1
 10
4.149881
 20
3.967936
 30
0.000000
  0
SEQEND
  8
LAYER-1
  0
POLYLINE
  8
LAYER-1
 66
  1
 70
  1
 62
  0
  0
VERTEX
  8
LAYER-1
 10
1.831183
 20
3.854994
 30
0.000000
  0
VERTEX
  8
LAYER-1
 10
2.155809
 20
3.854994
 30
0.000000
  0
VERTEX
  8
LAYER-1
 10
2.155809
 20
0.687970
 30
0.000000
  0
VERTEX
  8
LAYER-1
 10
1.831183
 20
0.687970
 30
0.000000
  0
SEQEND
  8
LAYER-1
  0
POLYLINE
  8
LAYER-1
 66
  1
 70
  1
 62
  0
  0
VERTEX
  8
LAYER-1
 10
2.241183
 20
3.854994
 30
0.000000
  0
VERTEX
  8
LAYER-1
 10
2.565809
 20
3.854994
 30
0.000000
  0
VERTEX
  8
LAYER-1
 10
2.565809
 20
0.687970
 30
0.000000
  0
VERTEX
  8
LAYER-1
 10
2.241183
 20
0.687970
 30
0.000000
  0
SEQEND
  8
LAYER-1
  0
POLYLINE
  8
LAYER-1
 66
  1
 70
  1
 62
  0
  0
VERTEX
  8
LAYER-1
 10
2.651183
 20
3.854994
 30
0.000000
  0
VERTEX
  8
LAYER-1
 10
2.975810
 20
3.854994
 30
0.000000
  0
VERTEX
  8
LAYER-1
 10
2.975810
 20
0.688405
 30
0.000000
  0
VERTEX
  8
LAYER-1
 10
2.651183
 20
0.688405
 30
0.000000
  0
SEQEND
  8
LAYER-1
  0
POLYLINE
  8
LAYER-1
 66
  1
 70
  1
 62
  0
  0
VERTEX
  8
LAYER-1
 10
3.061183
 20
3.854994
 30
0.000000
  0
VERTEX
  8
LAYER-1
 10
3.385810
 20
3.854994
 30
0.000000
  0
VERTEX
  8
LAYER-1
 10
3.385810
 20
0.687970
 30
0.000000
  0
VERTEX
  8
LAYER-1
 10
3.061183
 20
0.687970
 30
0.000000
  0
SEQEND
  8
LAYER-1
  0
LINE
  8
LAYER-1
 62
  0
 10
1.904080
 20
4.307436
 30
0.000000
 11
2.040170
 21
4.545171
 31
0.000000
  0
LINE
  8
LAYER-1
 62
  0
 10
1.960715
 20
4.275016
 30
0.000000
 11
2.096805
 21
4.512750
 31
0.000000
  0
LINE
  8
LAYER-1
 62
  0
 10
2.314142
 20
4.307436
 30
0.000000
 11
2.450232
 21
4.545171
 31
0.000000
  0
LINE
  8
LAYER-1
 62
  0
 10
2.370777
 20
4.275016
 30
0.000000
 11
2.506868
 21
4.512750
 31
0.000000
  0
LINE
  8
LAYER-1
 62
  0
 10
2.724206
 20
4.307436
 30
0.000000
 11
2.860291
 21
4.545171
 31
0.000000
  0
LINE
  8
LAYER-1
 62
  0
 10
2.780841
 20
4.275016
 30
0.000000
 11
2.916927
 21
4.512751
 31
0.000000
  0
LINE
  8
LAYER-1
 62
  0
 10
3.134265
 20
4.307436
 30
0.000000
 11
3.270352
 21
4.545171
 31
0.000000
  0
LINE
  8
LAYER-1
 62
  0
 10
3.190901
 20
4.275016
 30
0.000000
 11
3.326988
 21
4.512751
 31
0.000000
  0
LINE
  8
LAYER-1
 62
  0
 10
1.902235
 20
3.277610
 30
0.000000
 11
2.038326
 21
3.515347
 31
0.000000
  0
LINE
  8
LAYER-1
 62
  0
 10
1.958871
 20
3.245189
 30
0.000000
 11
2.094961
 21
3.482926
 31
0.000000
  0
LINE
  8
LAYER-1
 62
  0
 10
2.312298
 20
3.277610
 30
0.000000
 11
2.448387
 21
3.515347
 31
0.000000
  0
LINE
  8
LAYER-1
 62
  0
 10
2.368933
 20
3.245189
 30
0.000000
 11
2.505023
 21
3.482926
 31
0.000000
  0
LINE
  8
LAYER-1
 62
  0
 10
2.722360
 20
3.277610
 30
0.000000
 11
2.858447
 21
3.515346
 31
0.000000
  0
LINE
  8
LAYER-1
 62
  0
 10
2.778996
 20
3.245190
 30
0.000000
 11
2.915083
 21
3.482926
 31
0.000000
  0
LINE
  8
LAYER-1
 62
  0
 10
3.132419
 20
3.277610
 30
0.000000
 11
3.268508
 21
3.515347
 31
0.000000
  0
LINE
  8
LAYER-1
 62
  0
 10
3.189055
 20
3.245189
 30
0.000000
 11
3.325144
 21
3.482926
 31
0.000000
  0
LINE
  8
LAYER-1
 62
  0
 10
1.903720
 20
6.694551
 30
0.000000
 11
2.039808
 21
6.932286
 31
0.000000
  0
LINE
  8
LAYER-1
 62
  0
 10
1.960356
 20
6.662131
 30
0.000000
 11
2.096444
 21
6.899865
 31
0.000000
  0
LINE
  8
LAYER-1
 62
  0
 10
2.313782
 20
6.694551
 30
0.000000
 11
2.449871
 21
6.932286
 31
0.000000
  0
LINE
  8
LAYER-1
 62
  0
 10
2.370418
 20
6.662131
 30
0.000000
 11
2.506506
 21
6.899865
 31
0.000000
  0
LINE
  8
LAYER-1
 62
  0
 10
2.723844
 20
6.694551
 30
0.000000
 11
2.859930
 21
6.932286
 31
0.000000
  0
LINE
  8
LAYER-1
 62
  0
 10
2.780480
 20
6.662131
 30
0.000000
 11
2.916566
 21
6.899866
 31
0.000000
  0
LINE
  8
LAYER-1
 62
  0
 10
3.133904
 20
6.694551
 30
0.000000
 11
3.269991
 21
6.932286
 31
0.000000
  0
LINE
  8
LAYER-1
 62
  0
 10
3.190539
 20
6.662131
 30
0.000000
 11
3.326626
 21
6.899865
 31
0.000000
  0
LINE
  8
LAYER-1
 62
  0
 10
1.901876
 20
1.053762
 30
0.000000
 11
2.037964
 21
1.291496
 31
0.000000
  0
LINE
  8
LAYER-1
 62
  0
 10
1.958511
 20
1.021341
 30
0.000000
 11
2.094599
 21
1.259076
 31
0.000000
  0
LINE
  8
LAYER-1
 62
  0
 10
2.311938
 20
1.053762
 30
0.000000
 11
2.448026
 21
1.291496
 31
0.000000
  0
LINE
  8
LAYER-1
 62
  0
 10
2.368573
 20
1.021341
 30
0.000000
 11
2.504662
 21
1.259076
 31
0.000000
  0
LINE
  8
LAYER-1
 62
  0
 10
2.722000
 20
1.053762
 30
0.000000
 11
2.858087
 21
1.291496
 31
0.000000
  0
LINE
  8
LAYER-1
 62
  0
 10
2.778636
 20
1.021341
 30
0.000000
 11
2.914723
 21
1.259076
 31
0.000000
  0
LINE
  8
LAYER-1
 62
  0
 10
3.132060
 20
1.053762
 30
0.000000
 11
3.268149
 21
1.291496
 31
0.000000
  0
LINE
  8
LAYER-1
 62
  0
 10
3.188695
 20
1.021341
 30
0.000000
 11
3.324784
 21
1.259076
 31
0.000000
  0
POLYLINE
  8
LAYER-1
 66
  1
 70
  0
 62
  0
 10
2.565877
 20
7.423871
 30
0.000000
  0
VERTEX
  8
LAYER-1
 10
2.565877
 20
7.423871
 30
0.000000
  0
VERTEX
  8
LAYER-1
 10
2.565877
 20
0.357080
 30
0.000000
  0
SEQEND
  8
LAYER-1
  0
POLYLINE
  8
LAYER-1
 66
  1
 70
  0
 62
  0
 10
2.651307
 20
7.423871
 30
0.000000
  0
VERTEX
  8
LAYER-1
 10
2.651307
 20
7.423871
 30
0.000000
  0
VERTEX
  8
LAYER-1
 10
2.651307
 20
0.357080
 30
0.000000
  0
SEQEND
  8
LAYER-1
  0
POLYLINE
  8
LAYER-1
 66
  1
 70
  0
 62
  0
 10
2.975936
 20
7.423871
 30
0.000000
  0
VERTEX
  8
LAYER-1
 10
2.975936
 20
7.423871
 30
0.000000
  0
VERTEX
  8
LAYER-1
 10
2.975936
 20
0.357080
 30
0.000000
  0
SEQEND
  8
LAYER-1
  0
POLYLINE
  8
LAYER-1
 66
  1
 70
  0
 62
  0
 10
3.061367
 20
7.423871
 30
0.000000
  0
VERTEX
  8
LAYER-1
 10
3.061367
 20
7.423871
 30
0.000000
  0
VERTEX
  8
LAYER-1
 10
3.061367
 20
0.357080
 30
0.000000
  0
SEQEND
  8
LAYER-1
  0
POLYLINE
  8
LAYER-1
 66
  1
 70
  0
 62
  0
 10
3.385998
 20
7.423871
 30
0.000000
  0
VERTEX
  8
LAYER-1
 10
3.385998
 20
7.423871
 30
0.000000
  0
VERTEX
  8
LAYER-1
 10
3.385998
 20
0.357080
 30
0.000000
  0
SEQEND
  8
LAYER-1
  0
POLYLINE
  8
LAYER-1
 66
  1
 70
  0
 62
  0
 10
3.468579
 20
7.423871
 30
0.000000
  0
VERTEX
  8
LAYER-1
 10
3.468579
 20
7.423871
 30
0.000000
  0
VERTEX
  8
LAYER-1
 10
3.468579
 20
0.357080
 30
0.000000
  0
SEQEND
  8
LAYER-1
  0
POLYLINE
  8
LAYER-1
 66
  1
 70
  0
 62
  0
 10
1.795588
 20
7.423871
 30
0.000000
  0
VERTEX
  8
LAYER-1
 10
1.795588
 20
7.423871
 30
0.000000
  0
VERTEX
  8
LAYER-1
 10
1.795588
 20
0.357080
 30
0.000000
  0
SEQEND
  8
LAYER-1
  0
POLYLINE
  8
LAYER-1
 66
  1
 70
  0
 62
  0
 10
2.608355
 20
7.423871
 30
0.000000
  0
VERTEX
  8
LAYER-1
 10
2.608355
 20
7.423871
 30
0.000000
  0
VERTEX
  8
LAYER-1
 10
2.608355
 20
0.357080
 30
0.000000
  0
SEQEND
  8
LAYER-1
  0
POLYLINE
  8
LAYER-1
 66
  1
 70
  0
 62
  0
 10
2.999906
 20
7.423871
 30
0.000000
  0
VERTEX
  8
LAYER-1
 10
2.999906
 20
7.423871
 30
0.000000
  0
VERTEX
  8
LAYER-1
 10
2.999906
 20
0.357080
 30
0.000000
  0
SEQEND
  8
LAYER-1
  0
POLYLINE
  8
LAYER-1
 66
  1
 70
  0
 62
  0
 10
3.035500
 20
7.423871
 30
0.000000
  0
VERTEX
  8
LAYER-1
 10
3.035500
 20
7.423871
 30
0.000000
  0
VERTEX
  8
LAYER-1
 10
3.035500
 20
0.357080
 30
0.000000
  0
SEQEND
  8
LAYER-1
  0
POLYLINE
  8
LAYER-1
 66
  1
 70
  0
 62
  0
 10
3.427052
 20
7.423871
 30
0.000000
  0
VERTEX
  8
LAYER-1
 10
3.427052
 20
7.423871
 30
0.000000
  0
VERTEX
  8
LAYER-1
 10
3.427052
 20
0.357080
 30
0.000000
  0
SEQEND
  8
LAYER-1
  0
POLYLINE
  8
LAYER-1
 66
  1
 70
  1
 62
  0
  0
VERTEX
  8
LAYER-1
 10
2.988038
 20
0.357156
 30
0.000000
  0
VERTEX
  8
LAYER-1
 10
3.042915
 20
0.357156
 30
0.000000
  0
VERTEX
  8
LAYER-1
 10
3.042915
 20
0.351296
 30
0.000000
  0
VERTEX
  8
LAYER-1
 10
2.988038
 20
0.351296
 30
0.000000
  0
SEQEND
  8
LAYER-1
  0
POLYLINE
  8
LAYER-1
 66
  1
 70
  0
 62
  0
 10
3.035500
 20
0.430398
 30
0.000000
  0
VERTEX
  8
LAYER-1
 10
3.035500
 20
0.430398
 30
0.000000
  0
VERTEX
  8
LAYER-1
 10
2.999906
 20
0.430398
 30
0.000000
  0
SEQEND
  8
LAYER-1
  0
POLYLINE
  8
LAYER-1
 66
  1
 70
  0
 62
  0
 10
3.035500
 20
0.559304
 30
0.000000
  0
VERTEX
  8
LAYER-1
 10
3.035500
 20
0.559304
 30
0.000000
  0
VERTEX
  8
LAYER-1
 10
2.999906
 20
0.559304
 30
0.000000
  0
SEQEND
  8
LAYER-1
  0
POLYLINE
  8
LAYER-1
 66
  1
 70
  0
 62
  0
 10
2.999906
 20
0.634288
 30
0.000000
  0
VERTEX
  8
LAYER-1
 10
2.999906
 20
0.634288
 30
0.000000
  0
VERTEX
  8
LAYER-1
 10
3.035500
 20
0.634288
 30
0.000000
  0
SEQEND
  8
LAYER-1
  0
POLYLINE
  8
LAYER-1
 66
  1
 70
  0
 62
  0
 10
2.999906
 20
1.480968
 30
0.000000
  0
VERTEX
  8
LAYER-1
 10
2.999906
 20
1.480968
 30
0.000000
  0
VERTEX
  8
LAYER-1
 10
3.035500
 20
1.480968
 30
0.000000
  0
SEQEND
  8
LAYER-1
  0
POLYLINE
  8
LAYER-1
 66
  1
 70
  0
 62
  0
 10
2.999906
 20
2.318857
 30
0.000000
  0
VERTEX
  8
LAYER-1
 10
2.999906
 20
2.318857
 30
0.000000
  0
VERTEX
  8
LAYER-1
 10
3.035500
 20
2.318857
 30
0.000000
  0
SEQEND
  8
LAYER-1
  0
POLYLINE
  8
LAYER-1
 66
  1
 70
  0
 62
  0
 10
2.999906
 20
3.168460
 30
0.000000
  0
VERTEX
  8
LAYER-1
 10
2.999906
 20
3.168460
 30
0.000000
  0
VERTEX
  8
LAYER-1
 10
3.035500
 20
3.168460
 30
0.000000
  0
SEQEND
  8
LAYER-1
  0
POLYLINE
  8
LAYER-1
 66
  1
 70
  0
 62
  0
 10
3.035500
 20
4.010746
 30
0.000000
  0
VERTEX
  8
LAYER-1
 10
3.035500
 20
4.010746
 30
0.000000
  0
VERTEX
  8
LAYER-1
 10
2.999906
 20
4.010746
 30
0.000000
  0
SEQEND
  8
LAYER-1
  0
POLYLINE
  8
LAYER-1
 66
  1
 70
  0
 62
  0
 10
2.181858
 20
4.861746
 30
0.000000
  0
VERTEX
  8
LAYER-1
 10
2.181858
 20
4.861746
 30
0.000000
  0
VERTEX
  8
LAYER-1
 10
2.217455
 20
4.861746
 30
0.000000
  0
SEQEND
  8
LAYER-1
  0
POLYLINE
  8
LAYER-1
 66
  1
 70
  0
 62
  0
 10
2.181858
 20
5.705495
 30
0.000000
  0
VERTEX
  8
LAYER-1
 10
2.181858
 20
5.705495
 30
0.000000
  0
VERTEX
  8
LAYER-1
 10
2.217455
 20
5.705495
 30
0.000000
  0
SEQEND
  8
LAYER-1
  0
POLYLINE
  8
LAYER-1
 66
  1
 70
  0
 62
  0
 10
2.181858
 20
6.550714
 30
0.000000
  0
VERTEX
  8
LAYER-1
 10
2.181858
 20
6.550714
 30
0.000000
  0
VERTEX
  8
LAYER-1
 10
2.217455
 20
6.550714
 30
0.000000
  0
SEQEND
  8
LAYER-1
  0
POLYLINE
  8
LAYER-1
 66
  1
 70
  0
 62
  0
 10
2.999729
 20
6.550714
 30
0.000000
  0
VERTEX
  8
LAYER-1
 10
2.999729
 20
6.550714
 30
0.000000
  0
VERTEX
  8
LAYER-1
 10
3.035323
 20
6.550714
 30
0.000000
  0
SEQEND
  8
LAYER-1
  0
POLYLINE
  8
LAYER-1
 66
  1
 70
  0
 62
  0
 10
3.647862
 20
6.550638
 30
0.000000
  0
VERTEX
  8
LAYER-1
 10
3.647862
 20
6.550638
 30
0.000000
  0
VERTEX
  8
LAYER-1
 10
3.683457
 20
6.550638
 30
0.000000
  0
SEQEND
  8
LAYER-1
  0
POLYLINE
  8
LAYER-1
 66
  1
 70
  0
 62
  0
 10
5.354019
 20
6.550714
 30
0.000000
  0
VERTEX
  8
LAYER-1
 10
5.354019
 20
6.550714
 30
0.000000
  0
VERTEX
  8
LAYER-1
 10
5.318424
 20
6.550714
 30
0.000000
  0
SEQEND
  8
LAYER-1
  0
POLYLINE
  8
LAYER-1
 66
  1
 70
  0
 62
  0
 10
4.536144
 20
6.550714
 30
0.000000
  0
VERTEX
  8
LAYER-1
 10
4.536144
 20
6.550714
 30
0.000000
  0
VERTEX
  8
LAYER-1
 10
4.500553
 20
6.550714
 30
0.000000
  0
SEQEND
  8
LAYER-1
  0
POLYLINE
  8
LAYER-1
 66
  1
 70
  0
 62
  0
 10
3.888006
 20
6.550638
 30
0.000000
  0
VERTEX
  8
LAYER-1
 10
3.888006
 20
6.550638
 30
0.000000
  0
VERTEX
  8
LAYER-1
 10
3.852414
 20
6.550638
 30
0.000000
  0
SEQEND
  8
LAYER-1
  0
POLYLINE
  8
LAYER-1
 66
  1
 70
  0
 62
  0
 10
2.999729
 20
4.861746
 30
0.000000
  0
VERTEX
  8
LAYER-1
 10
2.999729
 20
4.861746
 30
0.000000
  0
VERTEX
  8
LAYER-1
 10
3.035323
 20
4.861746
 30
0.000000
  0
SEQEND
  8
LAYER-1
  0
POLYLINE
  8
LAYER-1
 66
  1
 70
  0
 62
  0
 10
2.999729
 20
5.705495
 30
0.000000
  0
VERTEX
  8
LAYER-1
 10
2.999729
 20
5.705495
 30
0.000000
  0
VERTEX
  8
LAYER-1
 10
3.035323
 20
5.705495
 30
0.000000
  0
SEQEND
  8
LAYER-1
  0
POLYLINE
  8
LAYER-1
 66
  1
 70
  1
 62
  0
  0
VERTEX
  8
LAYER-1
 10
3.637657
 20
7.429730
 30
0.000000
  0
VERTEX
  8
LAYER-1
 10
3.692534
 20
7.429730
 30
0.000000
  0
VERTEX
  8
LAYER-1
 10
3.692534
 20
7.423870
 30
0.000000
  0
VERTEX
  8
LAYER-1
 10
3.637657
 20
7.423870
 30
0.000000
  0
SEQEND
  8
LAYER-1
  0
POLYLINE
  8
LAYER-1
 66
  1
 70
  0
 62
  0
 10
3.648040
 20
7.356487
 30
0.000000
  0
VERTEX
  8
LAYER-1
 10
3.648040
 20
7.356487
 30
0.000000
  0
VERTEX
  8
LAYER-1
 10
3.683634
 20
7.356487
 30
0.000000
  0
SEQEND
  8
LAYER-1
  0
POLYLINE
  8
LAYER-1
 66
  1
 70
  0
 62
  0
 10
3.648040
 20
7.227580
 30
0.000000
  0
VERTEX
  8
LAYER-1
 10
3.648040
 20
7.227580
 30
0.000000
  0
VERTEX
  8
LAYER-1
 10
3.683634
 20
7.227580
 30
0.000000
  0
SEQEND
  8
LAYER-1
  0
POLYLINE
  8
LAYER-1
 66
  1
 70
  0
 62
  0
 10
3.648040
 20
7.423795
 30
0.000000
  0
VERTEX
  8
LAYER-1
 10
3.648040
 20
7.423795
 30
0.000000
  0
VERTEX
  8
LAYER-1
 10
3.648040
 20
0.357080
 30
0.000000
  0
SEQEND
  8
LAYER-1
  0
POLYLINE
  8
LAYER-1
 66
  1
 70
  0
 62
  0
 10
3.683634
 20
0.430321
 30
0.000000
  0
VERTEX
  8
LAYER-1
 10
3.683634
 20
0.430321
 30
0.000000
  0
VERTEX
  8
LAYER-1
 10
3.648040
 20
0.430321
 30
0.000000
  0
SEQEND
  8
LAYER-1
  0
POLYLINE
  8
LAYER-1
 66
  1
 70
  0
 62
  0
 10
3.683634
 20
0.559227
 30
0.000000
  0
VERTEX
  8
LAYER-1
 10
3.683634
 20
0.559227
 30
0.000000
  0
VERTEX
  8
LAYER-1
 10
3.648040
 20
0.559227
 30
0.000000
  0
SEQEND
  8
LAYER-1
  0
POLYLINE
  8
LAYER-1
 66
  1
 70
  0
 62
  0
 10
3.648040
 20
0.634210
 30
0.000000
  0
VERTEX
  8
LAYER-1
 10
3.648040
 20
0.634210
 30
0.000000
  0
VERTEX
  8
LAYER-1
 10
3.683636
 20
0.634210
 30
0.000000
  0
SEQEND
  8
LAYER-1
  0
POLYLINE
  8
LAYER-1
 66
  1
 70
  0
 62
  0
 10
3.648040
 20
1.480892
 30
0.000000
  0
VERTEX
  8
LAYER-1
 10
3.648040
 20
1.480892
 30
0.000000
  0
VERTEX
  8
LAYER-1
 10
3.683636
 20
1.480892
 30
0.000000
  0
SEQEND
  8
LAYER-1
  0
POLYLINE
  8
LAYER-1
 66
  1
 70
  0
 62
  0
 10
3.648040
 20
2.318780
 30
0.000000
  0
VERTEX
  8
LAYER-1
 10
3.648040
 20
2.318780
 30
0.000000
  0
VERTEX
  8
LAYER-1
 10
3.683636
 20
2.318780
 30
0.000000
  0
SEQEND
  8
LAYER-1
  0
POLYLINE
  8
LAYER-1
 66
  1
 70
  0
 62
  0
 10
3.648040
 20
3.168384
 30
0.000000
  0
VERTEX
  8
LAYER-1
 10
3.648040
 20
3.168384
 30
0.000000
  0
VERTEX
  8
LAYER-1
 10
3.683636
 20
3.168384
 30
0.000000
  0
SEQEND
  8
LAYER-1
  0
POLYLINE
  8
LAYER-1
 66
  1
 70
  0
 62
  0
 10
3.683636
 20
4.010669
 30
0.000000
  0
VERTEX
  8
LAYER-1
 10
3.683636
 20
4.010669
 30
0.000000
  0
VERTEX
  8
LAYER-1
 10
3.648040
 20
4.010669
 30
0.000000
  0
SEQEND
  8
LAYER-1
  0
POLYLINE
  8
LAYER-1
 66
  1
 70
  0
 62
  0
 10
3.647862
 20
4.861670
 30
0.000000
  0
VERTEX
  8
LAYER-1
 10
3.647862
 20
4.861670
 30
0.000000
  0
VERTEX
  8
LAYER-1
 10
3.683457
 20
4.861670
 30
0.000000
  0
SEQEND
  8
LAYER-1
  0
POLYLINE
  8
LAYER-1
 66
  1
 70
  0
 62
  0
 10
3.647862
 20
5.705419
 30
0.000000
  0
VERTEX
  8
LAYER-1
 10
3.647862
 20
5.705419
 30
0.000000
  0
VERTEX
  8
LAYER-1
 10
3.683457
 20
5.705419
 30
0.000000
  0
SEQEND
  8
LAYER-1
  0
POLYLINE
  8
LAYER-1
 66
  1
 70
  1
 62
  0
  0
VERTEX
  8
LAYER-1
 10
3.636176
 20
0.357080
 30
0.000000
  0
VERTEX
  8
LAYER-1
 10
3.691051
 20
0.357080
 30
0.000000
  0
VERTEX
  8
LAYER-1
 10
3.691051
 20
0.351221
 30
0.000000
  0
VERTEX
  8
LAYER-1
 10
3.636176
 20
0.351221
 30
0.000000
  0
SEQEND
  8
LAYER-1
  0
POLYLINE
  8
LAYER-1
 66
  1
 70
  1
 62
  0
  0
VERTEX
  8
LAYER-1
 10
3.682567
 20
7.423871
 30
0.000000
  0
VERTEX
  8
LAYER-1
 10
3.852240
 20
7.423871
 30
0.000000
  0
VERTEX
  8
LAYER-1
 10
3.852240
 20
0.356888
 30
0.000000
  0
VERTEX
  8
LAYER-1
 10
3.682567
 20
0.356888
 30
0.000000
  0
SEQEND
  8
LAYER-1
  0
POLYLINE
  8
LAYER-1
 66
  1
 70
  1
 62
  0
  0
VERTEX
  8
LAYER-1
 10
5.380062
 20
7.423871
 30
0.000000
  0
VERTEX
  8
LAYER-1
 10
5.704693
 20
7.423871
 30
0.000000
  0
VERTEX
  8
LAYER-1
 10
5.704693
 20
7.153871
 30
0.000000
  0
VERTEX
  8
LAYER-1
 10
5.380062
 20
7.153871
 30
0.000000
  0
SEQEND
  8
LAYER-1
  0
POLYLINE
  8
LAYER-1
 66
  1
 70
  1
 62
  0
  0
VERTEX
  8
LAYER-1
 10
4.969999
 20
7.423871
 30
0.000000
  0
VERTEX
  8
LAYER-1
 10
5.294631
 20
7.423871
 30
0.000000
  0
VERTEX
  8
LAYER-1
 10
5.294631
 20
7.153871
 30
0.000000
  0
VERTEX
  8
LAYER-1
 10
4.969999
 20
7.153871
 30
0.000000
  0
SEQEND
  8
LAYER-1
  0
POLYLINE
  8
LAYER-1
 66
  1
 70
  1
 62
  0
  0
VERTEX
  8
LAYER-1
 10
4.559937
 20
7.423871
 30
0.000000
  0
VERTEX
  8
LAYER-1
 10
4.884569
 20
7.423871
 30
0.000000
  0
VERTEX
  8
LAYER-1
 10
4.884569
 20
7.153871
 30
0.000000
  0
VERTEX
  8
LAYER-1
 10
4.559937
 20
7.153871
 30
0.000000
  0
SEQEND
  8
LAYER-1
  0
POLYLINE
  8
LAYER-1
 66
  1
 70
  1
 62
  0
  0
VERTEX
  8
LAYER-1
 10
4.149875
 20
7.423871
 30
0.000000
  0
VERTEX
  8
LAYER-1
 10
4.474506
 20
7.423871
 30
0.000000
  0
VERTEX
  8
LAYER-1
 10
4.474506
 20
7.153871
 30
0.000000
  0
VERTEX
  8
LAYER-1
 10
4.149875
 20
7.153871
 30
0.000000
  0
SEQEND
  8
LAYER-1
  0
POLYLINE
  8
LAYER-1
 66
  1
 70
  0
 62
  0
 10
4.737678
 20
7.423945
 30
0.000000
  0
VERTEX
  8
LAYER-1
 10
4.737678
 20
7.423945
 30
0.000000
  0
VERTEX
  8
LAYER-1
 10
4.737678
 20
7.154415
 30
0.000000
  0
SEQEND
  8
LAYER-1
  0
POLYLINE
  8
LAYER-1
 66
  1
 70
  0
 62
  0
 10
4.700601
 20
7.423945
 30
0.000000
  0
VERTEX
  8
LAYER-1
 10
4.700601
 20
7.423945
 30
0.000000
  0
VERTEX
  8
LAYER-1
 10
4.700601
 20
7.154415
 30
0.000000
  0
SEQEND
  8
LAYER-1
  0
POLYLINE
  8
LAYER-1
 66
  1
 70
  0
 62
  0
 10
5.559345
 20
7.423945
 30
0.000000
  0
VERTEX
  8
LAYER-1
 10
5.559345
 20
7.423945
 30
0.000000
  0
VERTEX
  8
LAYER-1
 10
5.559345
 20
7.154415
 30
0.000000
  0
SEQEND
  8
LAYER-1
  0
POLYLINE
  8
LAYER-1
 66
  1
 70
  0
 62
  0
 10
5.520785
 20
7.423945
 30
0.000000
  0
VERTEX
  8
LAYER-1
 10
5.520785
 20
7.423945
 30
0.000000
  0
VERTEX
  8
LAYER-1
 10
5.520785
 20
7.154415
 30
0.000000
  0
SEQEND
  8
LAYER-1
  0
POLYLINE
  8
LAYER-1
 66
  1
 70
  1
 62
  0
  0
VERTEX
  8
LAYER-1
 10
5.308692
 20
7.429806
 30
0.000000
  0
VERTEX
  8
LAYER-1
 10
5.363567
 20
7.429806
 30
0.000000
  0
VERTEX
  8
LAYER-1
 10
5.363567
 20
7.423945
 30
0.000000
  0
VERTEX
  8
LAYER-1
 10
5.308692
 20
7.423945
 30
0.000000
  0
SEQEND
  8
LAYER-1
  0
POLYLINE
  8
LAYER-1
 66
  1
 70
  0
 62
  0
 10
5.354672
 20
7.356563
 30
0.000000
  0
VERTEX
  8
LAYER-1
 10
5.354672
 20
7.356563
 30
0.000000
  0
VERTEX
  8
LAYER-1
 10
5.319074
 20
7.356563
 30
0.000000
  0
SEQEND
  8
LAYER-1
  0
POLYLINE
  8
LAYER-1
 66
  1
 70
  0
 62
  0
 10
5.354672
 20
7.227658
 30
0.000000
  0
VERTEX
  8
LAYER-1
 10
5.354672
 20
7.227658
 30
0.000000
  0
VERTEX
  8
LAYER-1
 10
5.319074
 20
7.227658
 30
0.000000
  0
SEQEND
  8
LAYER-1
  0
POLYLINE
  8
LAYER-1
 66
  1
 70
  1
 62
  0
  0
VERTEX
  8
LAYER-1
 10
4.491474
 20
7.429806
 30
0.000000
  0
VERTEX
  8
LAYER-1
 10
4.546352
 20
7.429806
 30
0.000000
  0
VERTEX
  8
LAYER-1
 10
4.546352
 20
7.423945
 30
0.000000
  0
VERTEX
  8
LAYER-1
 10
4.491474
 20
7.423945
 30
0.000000
  0
SEQEND
  8
LAYER-1
  0
POLYLINE
  8
LAYER-1
 66
  1
 70
  0
 62
  0
 10
4.535967
 20
7.356563
 30
0.000000
  0
VERTEX
  8
LAYER-1
 10
4.535967
 20
7.356563
 30
0.000000
  0
VERTEX
  8
LAYER-1
 10
4.500376
 20
7.356563
 30
0.000000
  0
SEQEND
  8
LAYER-1
  0
POLYLINE
  8
LAYER-1
 66
  1
 70
  0
 62
  0
 10
4.535967
 20
7.227656
 30
0.000000
  0
VERTEX
  8
LAYER-1
 10
4.535967
 20
7.227656
 30
0.000000
  0
VERTEX
  8
LAYER-1
 10
4.500376
 20
7.227656
 30
0.000000
  0
SEQEND
  8
LAYER-1
  0
POLYLINE
  8
LAYER-1
 66
  1
 70
  0
 62
  0
 10
5.704693
 20
7.423871
 30
0.000000
  0
VERTEX
  8
LAYER-1
 10
5.704693
 20
7.423871
 30
0.000000
  0
VERTEX
  8
LAYER-1
 10
5.704693
 20
0.357080
 30
0.000000
  0
SEQEND
  8
LAYER-1
  0
POLYLINE
  8
LAYER-1
 66
  1
 70
  0
 62
  0
 10
5.380062
 20
7.423871
 30
0.000000
  0
VERTEX
  8
LAYER-1
 10
5.380062
 20
7.423871
 30
0.000000
  0
VERTEX
  8
LAYER-1
 10
5.380062
 20
0.357080
 30
0.000000
  0
SEQEND
  8
LAYER-1
  0
POLYLINE
  8
LAYER-1
 66
  1
 70
  0
 62
  0
 10
5.294631
 20
7.423871
 30
0.000000
  0
VERTEX
  8
LAYER-1
 10
5.294631
 20
7.423871
 30
0.000000
  0
VERTEX
  8
LAYER-1
 10
5.294631
 20
0.357080
 30
0.000000
  0
SEQEND
  8
LAYER-1
  0
POLYLINE
  8
LAYER-1
 66
  1
 70
  0
 62
  0
 10
5.354672
 20
7.423871
 30
0.000000
  0
VERTEX
  8
LAYER-1
 10
5.354672
 20
7.423871
 30
0.000000
  0
VERTEX
  8
LAYER-1
 10
5.354672
 20
0.357080
 30
0.000000
  0
SEQEND
  8
LAYER-1
  0
POLYLINE
  8
LAYER-1
 66
  1
 70
  0
 62
  0
 10
5.319074
 20
7.423871
 30
0.000000
  0
VERTEX
  8
LAYER-1
 10
5.319074
 20
7.423871
 30
0.000000
  0
VERTEX
  8
LAYER-1
 10
5.319074
 20
0.357080
 30
0.000000
  0
SEQEND
  8
LAYER-1
  0
POLYLINE
  8
LAYER-1
 66
  1
 70
  1
 62
  0
  0
VERTEX
  8
LAYER-1
 10
5.310176
 20
0.357156
 30
0.000000
  0
VERTEX
  8
LAYER-1
 10
5.365052
 20
0.357156
 30
0.000000
  0
VERTEX
  8
LAYER-1
 10
5.365052
 20
0.351296
 30
0.000000
  0
VERTEX
  8
LAYER-1
 10
5.310176
 20
0.351296
 30
0.000000
  0
SEQEND
  8
LAYER-1
  0
POLYLINE
  8
LAYER-1
 66
  1
 70
  0
 62
  0
 10
5.319074
 20
0.430398
 30
0.000000
  0
VERTEX
  8
LAYER-1
 10
5.319074
 20
0.430398
 30
0.000000
  0
VERTEX
  8
LAYER-1
 10
5.354672
 20
0.430398
 30
0.000000
  0
SEQEND
  8
LAYER-1
  0
POLYLINE
  8
LAYER-1
 66
  1
 70
  0
 62
  0
 10
5.319074
 20
0.559304
 30
0.000000
  0
VERTEX
  8
LAYER-1
 10
5.319074
 20
0.559304
 30
0.000000
  0
VERTEX
  8
LAYER-1
 10
5.354672
 20
0.559304
 30
0.000000
  0
SEQEND
  8
LAYER-1
  0
POLYLINE
  8
LAYER-1
 66
  1
 70
  0
 62
  0
 10
5.354672
 20
0.634288
 30
0.000000
  0
VERTEX
  8
LAYER-1
 10
5.354672
 20
0.634288
 30
0.000000
  0
VERTEX
  8
LAYER-1
 10
5.319074
 20
0.634288
 30
0.000000
  0
SEQEND
  8
LAYER-1
  0
POLYLINE
  8
LAYER-1
 66
  1
 70
  0
 62
  0
 10
5.354672
 20
1.480968
 30
0.000000
  0
VERTEX
  8
LAYER-1
 10
5.354672
 20
1.480968
 30
0.000000
  0
VERTEX
  8
LAYER-1
 10
5.319074
 20
1.480968
 30
0.000000
  0
SEQEND
  8
LAYER-1
  0
POLYLINE
  8
LAYER-1
 66
  1
 70
  0
 62
  0
 10
5.354672
 20
2.318857
 30
0.000000
  0
VERTEX
  8
LAYER-1
 10
5.354672
 20
2.318857
 30
0.000000
  0
VERTEX
  8
LAYER-1
 10
5.319074
 20
2.318857
 30
0.000000
  0
SEQEND
  8
LAYER-1
  0
POLYLINE
  8
LAYER-1
 66
  1
 70
  0
 62
  0
 10
5.354672
 20
3.168460
 30
0.000000
  0
VERTEX
  8
LAYER-1
 10
5.354672
 20
3.168460
 30
0.000000
  0
VERTEX
  8
LAYER-1
 10
5.319074
 20
3.168460
 30
0.000000
  0
SEQEND
  8
LAYER-1
  0
POLYLINE
  8
LAYER-1
 66
  1
 70
  0
 62
  0
 10
5.319074
 20
4.010746
 30
0.000000
  0
VERTEX
  8
LAYER-1
 10
5.319074
 20
4.010746
 30
0.000000
  0
VERTEX
  8
LAYER-1
 10
5.354672
 20
4.010746
 30
0.000000
  0
SEQEND
  8
LAYER-1
  0
POLYLINE
  8
LAYER-1
 66
  1
 70
  1
 62
  0
  0
VERTEX
  8
LAYER-1
 10
5.380002
 20
3.854994
 30
0.000000
  0
VERTEX
  8
LAYER-1
 10
5.704629
 20
3.854994
 30
0.000000
  0
VERTEX
  8
LAYER-1
 10
5.704629
 20
0.688405
 30
0.000000
  0
VERTEX
  8
LAYER-1
 10
5.380002
 20
0.688405
 30
0.000000
  0
SEQEND
  8
LAYER-1
  0
POLYLINE
  8
LAYER-1
 66
  1
 70
  1
 62
  0
  0
VERTEX
  8
LAYER-1
 10
4.970002
 20
3.854994
 30
0.000000
  0
VERTEX
  8
LAYER-1
 10
5.294629
 20
3.854994
 30
0.000000
  0
VERTEX
  8
LAYER-1
 10
5.294629
 20
0.688405
 30
0.000000
  0
VERTEX
  8
LAYER-1
 10
4.970002
 20
0.688405
 30
0.000000
  0
SEQEND
  8
LAYER-1
  0
POLYLINE
  8
LAYER-1
 66
  1
 70
  1
 62
  0
  0
VERTEX
  8
LAYER-1
 10
4.560002
 20
3.854994
 30
0.000000
  0
VERTEX
  8
LAYER-1
 10
4.884629
 20
3.854994
 30
0.000000
  0
VERTEX
  8
LAYER-1
 10
4.884629
 20
0.688405
 30
0.000000
  0
VERTEX
  8
LAYER-1
 10
4.560002
 20
0.688405
 30
0.000000
  0
SEQEND
  8
LAYER-1
  0
POLYLINE
  8
LAYER-1
 66
  1
 70
  1
 62
  0
  0
VERTEX
  8
LAYER-1
 10
4.150003
 20
3.854994
 30
0.000000
  0
VERTEX
  8
LAYER-1
 10
4.474628
 20
3.854994
 30
0.000000
  0
VERTEX
  8
LAYER-1
 10
4.474628
 20
0.688405
 30
0.000000
  0
VERTEX
  8
LAYER-1
 10
4.150003
 20
0.688405
 30
0.000000
  0
SEQEND
  8
LAYER-1
  0
LINE
  8
LAYER-1
 62
  0
 10
4.622463
 20
4.307436
 30
0.000000
 11
4.758552
 21
4.545171
 31
0.000000
  0
LINE
  8
LAYER-1
 62
  0
 10
4.679099
 20
4.275016
 30
0.000000
 11
4.815188
 21
4.512750
 31
0.000000
  0
LINE
  8
LAYER-1
 62
  0
 10
5.032525
 20
4.307436
 30
0.000000
 11
5.168614
 21
4.545171
 31
0.000000
  0
LINE
  8
LAYER-1
 62
  0
 10
5.089161
 20
4.275016
 30
0.000000
 11
5.225250
 21
4.512750
 31
0.000000
  0
LINE
  8
LAYER-1
 62
  0
 10
5.442591
 20
4.307436
 30
0.000000
 11
5.578677
 21
4.545171
 31
0.000000
  0
LINE
  8
LAYER-1
 62
  0
 10
5.499227
 20
4.275016
 30
0.000000
 11
5.635312
 21
4.512751
 31
0.000000
  0
LINE
  8
LAYER-1
 62
  0
 10
4.217562
 20
4.307436
 30
0.000000
 11
4.353653
 21
4.545171
 31
0.000000
  0
LINE
  8
LAYER-1
 62
  0
 10
4.274196
 20
4.275016
 30
0.000000
 11
4.410288
 21
4.512750
 31
0.000000
  0
LINE
  8
LAYER-1
 62
  0
 10
4.620621
 20
3.277610
 30
0.000000
 11
4.756710
 21
3.515346
 31
0.000000
  0
LINE
  8
LAYER-1
 62
  0
 10
4.677257
 20
3.245190
 30
0.000000
 11
4.813345
 21
3.482926
 31
0.000000
  0
LINE
  8
LAYER-1
 62
  0
 10
5.030683
 20
3.277610
 30
0.000000
 11
5.166772
 21
3.515346
 31
0.000000
  0
LINE
  8
LAYER-1
 62
  0
 10
5.087319
 20
3.245190
 30
0.000000
 11
5.223407
 21
3.482926
 31
0.000000
  0
LINE
  8
LAYER-1
 62
  0
 10
5.440745
 20
3.277610
 30
0.000000
 11
5.576834
 21
3.515347
 31
0.000000
  0
LINE
  8
LAYER-1
 62
  0
 10
5.497381
 20
3.245189
 30
0.000000
 11
5.633470
 21
3.482926
 31
0.000000
  0
LINE
  8
LAYER-1
 62
  0
 10
4.215719
 20
3.277612
 30
0.000000
 11
4.351807
 21
3.515347
 31
0.000000
  0
LINE
  8
LAYER-1
 62
  0
 10
4.272354
 20
3.245192
 30
0.000000
 11
4.408443
 21
3.482927
 31
0.000000
  0
LINE
  8
LAYER-1
 62
  0
 10
4.622105
 20
6.694551
 30
0.000000
 11
4.758190
 21
6.932285
 31
0.000000
  0
LINE
  8
LAYER-1
 62
  0
 10
4.678741
 20
6.662131
 30
0.000000
 11
4.814826
 21
6.899865
 31
0.000000
  0
LINE
  8
LAYER-1
 62
  0
 10
5.032168
 20
6.694551
 30
0.000000
 11
5.168253
 21
6.932285
 31
0.000000
  0
LINE
  8
LAYER-1
 62
  0
 10
5.088804
 20
6.662131
 30
0.000000
 11
5.224889
 21
6.899865
 31
0.000000
  0
LINE
  8
LAYER-1
 62
  0
 10
5.442229
 20
6.694551
 30
0.000000
 11
5.578315
 21
6.932285
 31
0.000000
  0
LINE
  8
LAYER-1
 62
  0
 10
5.498865
 20
6.662131
 30
0.000000
 11
5.634951
 21
6.899865
 31
0.000000
  0
LINE
  8
LAYER-1
 62
  0
 10
4.217203
 20
6.694551
 30
0.000000
 11
4.353292
 21
6.932285
 31
0.000000
  0
LINE
  8
LAYER-1
 62
  0
 10
4.273839
 20
6.662131
 30
0.000000
 11
4.409928
 21
6.899865
 31
0.000000
  0
LINE
  8
LAYER-1
 62
  0
 10
4.620260
 20
1.053762
 30
0.000000
 11
4.756348
 21
1.291496
 31
0.000000
  0
LINE
  8
LAYER-1
 62
  0
 10
4.676896
 20
1.021341
 30
0.000000
 11
4.812984
 21
1.259076
 31
0.000000
  0
LINE
  8
LAYER-1
 62
  0
 10
5.030321
 20
1.053762
 30
0.000000
 11
5.166410
 21
1.291496
 31
0.000000
  0
LINE
  8
LAYER-1
 62
  0
 10
5.086957
 20
1.021341
 30
0.000000
 11
5.223046
 21
1.259076
 31
0.000000
  0
LINE
  8
LAYER-1
 62
  0
 10
5.440385
 20
1.053762
 30
0.000000
 11
5.576476
 21
1.291496
 31
0.000000
  0
LINE
  8
LAYER-1
 62
  0
 10
5.497020
 20
1.021341
 30
0.000000
 11
5.633111
 21
1.259076
 31
0.000000
  0
LINE
  8
LAYER-1
 62
  0
 10
4.215360
 20
1.053762
 30
0.000000
 11
4.351446
 21
1.291496
 31
0.000000
  0
LINE
  8
LAYER-1
 62
  0
 10
4.271996
 20
1.021341
 30
0.000000
 11
4.408081
 21
1.259076
 31
0.000000
  0
POLYLINE
  8
LAYER-1
 66
  1
 70
  0
 62
  0
 10
4.969999
 20
7.423871
 30
0.000000
  0
VERTEX
  8
LAYER-1
 10
4.969999
 20
7.423871
 30
0.000000
  0
VERTEX
  8
LAYER-1
 10
4.969999
 20
0.357080
 30
0.000000
  0
SEQEND
  8
LAYER-1
  0
POLYLINE
  8
LAYER-1
 66
  1
 70
  0
 62
  0
 10
4.884569
 20
7.423871
 30
0.000000
  0
VERTEX
  8
LAYER-1
 10
4.884569
 20
7.423871
 30
0.000000
  0
VERTEX
  8
LAYER-1
 10
4.884569
 20
0.357080
 30
0.000000
  0
SEQEND
  8
LAYER-1
  0
POLYLINE
  8
LAYER-1
 66
  1
 70
  0
 62
  0
 10
4.559937
 20
7.423871
 30
0.000000
  0
VERTEX
  8
LAYER-1
 10
4.559937
 20
7.423871
 30
0.000000
  0
VERTEX
  8
LAYER-1
 10
4.559937
 20
0.357080
 30
0.000000
  0
SEQEND
  8
LAYER-1
  0
POLYLINE
  8
LAYER-1
 66
  1
 70
  0
 62
  0
 10
4.474506
 20
7.423871
 30
0.000000
  0
VERTEX
  8
LAYER-1
 10
4.474506
 20
7.423871
 30
0.000000
  0
VERTEX
  8
LAYER-1
 10
4.474506
 20
0.357080
 30
0.000000
  0
SEQEND
  8
LAYER-1
  0
POLYLINE
  8
LAYER-1
 66
  1
 70
  0
 62
  0
 10
4.149875
 20
7.423871
 30
0.000000
  0
VERTEX
  8
LAYER-1
 10
4.149875
 20
7.423871
 30
0.000000
  0
VERTEX
  8
LAYER-1
 10
4.149875
 20
0.357080
 30
0.000000
  0
SEQEND
  8
LAYER-1
  0
POLYLINE
  8
LAYER-1
 66
  1
 70
  0
 62
  0
 10
4.067292
 20
7.423871
 30
0.000000
  0
VERTEX
  8
LAYER-1
 10
4.067292
 20
7.423871
 30
0.000000
  0
VERTEX
  8
LAYER-1
 10
4.067292
 20
0.357080
 30
0.000000
  0
SEQEND
  8
LAYER-1
  0
POLYLINE
  8
LAYER-1
 66
  1
 70
  0
 62
  0
 10
5.740291
 20
7.423871
 30
0.000000
  0
VERTEX
  8
LAYER-1
 10
5.740291
 20
7.423871
 30
0.000000
  0
VERTEX
  8
LAYER-1
 10
5.740291
 20
0.357080
 30
0.000000
  0
SEQEND
  8
LAYER-1
  0
POLYLINE
  8
LAYER-1
 66
  1
 70
  0
 62
  0
 10
4.927524
 20
7.423871
 30
0.000000
  0
VERTEX
  8
LAYER-1
 10
4.927524
 20
7.423871
 30
0.000000
  0
VERTEX
  8
LAYER-1
 10
4.927524
 20
0.357080
 30
0.000000
  0
SEQEND
  8
LAYER-1
  0
POLYLINE
  8
LAYER-1
 66
  1
 70
  0
 62
  0
 10
4.535967
 20
7.423871
 30
0.000000
  0
VERTEX
  8
LAYER-1
 10
4.535967
 20
7.423871
 30
0.000000
  0
VERTEX
  8
LAYER-1
 10
4.535967
 20
0.357080
 30
0.000000
  0
SEQEND
  8
LAYER-1
  0
POLYLINE
  8
LAYER-1
 66
  1
 70
  0
 62
  0
 10
4.500376
 20
7.423871
 30
0.000000
  0
VERTEX
  8
LAYER-1
 10
4.500376
 20
7.423871
 30
0.000000
  0
VERTEX
  8
LAYER-1
 10
4.500376
 20
0.357080
 30
0.000000
  0
SEQEND
  8
LAYER-1
  0
POLYLINE
  8
LAYER-1
 66
  1
 70
  0
 62
  0
 10
4.108818
 20
7.423871
 30
0.000000
  0
VERTEX
  8
LAYER-1
 10
4.108818
 20
7.423871
 30
0.000000
  0
VERTEX
  8
LAYER-1
 10
4.108818
 20
0.357080
 30
0.000000
  0
SEQEND
  8
LAYER-1
  0
POLYLINE
  8
LAYER-1
 66
  1
 70
  1
 62
  0
  0
VERTEX
  8
LAYER-1
 10
4.492959
 20
0.357156
 30
0.000000
  0
VERTEX
  8
LAYER-1
 10
4.547837
 20
0.357156
 30
0.000000
  0
VERTEX
  8
LAYER-1
 10
4.547837
 20
0.351296
 30
0.000000
  0
VERTEX
  8
LAYER-1
 10
4.492959
 20
0.351296
 30
0.000000
  0
SEQEND
  8
LAYER-1
  0
POLYLINE
  8
LAYER-1
 66
  1
 70
  0
 62
  0
 10
4.500376
 20
0.430398
 30
0.000000
  0
VERTEX
  8
LAYER-1
 10
4.500376
 20
0.430398
 30
0.000000
  0
VERTEX
  8
LAYER-1
 10
4.535967
 20
0.430398
 30
0.000000
  0
SEQEND
  8
LAYER-1
  0
POLYLINE
  8
LAYER-1
 66
  1
 70
  0
 62
  0
 10
4.500376
 20
0.559304
 30
0.000000
  0
VERTEX
  8
LAYER-1
 10
4.500376
 20
0.559304
 30
0.000000
  0
VERTEX
  8
LAYER-1
 10
4.535967
 20
0.559304
 30
0.000000
  0
SEQEND
  8
LAYER-1
  0
POLYLINE
  8
LAYER-1
 66
  1
 70
  0
 62
  0
 10
4.535967
 20
0.634288
 30
0.000000
  0
VERTEX
  8
LAYER-1
 10
4.535967
 20
0.634288
 30
0.000000
  0
VERTEX
  8
LAYER-1
 10
4.500376
 20
0.634288
 30
0.000000
  0
SEQEND
  8
LAYER-1
  0
POLYLINE
  8
LAYER-1
 66
  1
 70
  0
 62
  0
 10
4.535967
 20
1.480968
 30
0.000000
  0
VERTEX
  8
LAYER-1
 10
4.535967
 20
1.480968
 30
0.000000
  0
VERTEX
  8
LAYER-1
 10
4.500376
 20
1.480968
 30
0.000000
  0
SEQEND
  8
LAYER-1
  0
POLYLINE
  8
LAYER-1
 66
  1
 70
  0
 62
  0
 10
4.535967
 20
2.318857
 30
0.000000
  0
VERTEX
  8
LAYER-1
 10
4.535967
 20
2.318857
 30
0.000000
  0
VERTEX
  8
LAYER-1
 10
4.500376
 20
2.318857
 30
0.000000
  0
SEQEND
  8
LAYER-1
  0
POLYLINE
  8
LAYER-1
 66
  1
 70
  0
 62
  0
 10
4.535967
 20
3.168460
 30
0.000000
  0
VERTEX
  8
LAYER-1
 10
4.535967
 20
3.168460
 30
0.000000
  0
VERTEX
  8
LAYER-1
 10
4.500376
 20
3.168460
 30
0.000000
  0
SEQEND
  8
LAYER-1
  0
POLYLINE
  8
LAYER-1
 66
  1
 70
  0
 62
  0
 10
4.500376
 20
4.010746
 30
0.000000
  0
VERTEX
  8
LAYER-1
 10
4.500376
 20
4.010746
 30
0.000000
  0
VERTEX
  8
LAYER-1
 10
4.535967
 20
4.010746
 30
0.000000
  0
SEQEND
  8
LAYER-1
  0
POLYLINE
  8
LAYER-1
 66
  1
 70
  0
 62
  0
 10
5.354019
 20
4.861746
 30
0.000000
  0
VERTEX
  8
LAYER-1
 10
5.354019
 20
4.861746
 30
0.000000
  0
VERTEX
  8
LAYER-1
 10
5.318424
 20
4.861746
 30
0.000000
  0
SEQEND
  8
LAYER-1
  0
POLYLINE
  8
LAYER-1
 66
  1
 70
  0
 62
  0
 10
5.354019
 20
5.705495
 30
0.000000
  0
VERTEX
  8
LAYER-1
 10
5.354019
 20
5.705495
 30
0.000000
  0
VERTEX
  8
LAYER-1
 10
5.318424
 20
5.705495
 30
0.000000
  0
SEQEND
  8
LAYER-1
  0
POLYLINE
  8
LAYER-1
 66
  1
 70
  0
 62
  0
 10
4.536144
 20
4.861746
 30
0.000000
  0
VERTEX
  8
LAYER-1
 10
4.536144
 20
4.861746
 30
0.000000
  0
VERTEX
  8
LAYER-1
 10
4.500553
 20
4.861746
 30
0.000000
  0
SEQEND
  8
LAYER-1
  0
POLYLINE
  8
LAYER-1
 66
  1
 70
  0
 62
  0
 10
4.536144
 20
5.705495
 30
0.000000
  0
VERTEX
  8
LAYER-1
 10
4.536144
 20
5.705495
 30
0.000000
  0
VERTEX
  8
LAYER-1
 10
4.500553
 20
5.705495
 30
0.000000
  0
SEQEND
  8
LAYER-1
  0
POLYLINE
  8
LAYER-1
 66
  1
 70
  1
 62
  0
  0
VERTEX
  8
LAYER-1
 10
3.843335
 20
7.429730
 30
0.000000
  0
VERTEX
  8
LAYER-1
 10
3.898213
 20
7.429730
 30
0.000000
  0
VERTEX
  8
LAYER-1
 10
3.898213
 20
7.423869
 30
0.000000
  0
VERTEX
  8
LAYER-1
 10
3.843335
 20
7.423869
 30
0.000000
  0
SEQEND
  8
LAYER-1
  0
POLYLINE
  8
LAYER-1
 66
  1
 70
  0
 62
  0
 10
3.887828
 20
7.356486
 30
0.000000
  0
VERTEX
  8
LAYER-1
 10
3.887828
 20
7.356486
 30
0.000000
  0
VERTEX
  8
LAYER-1
 10
3.852236
 20
7.356486
 30
0.000000
  0
SEQEND
  8
LAYER-1
  0
POLYLINE
  8
LAYER-1
 66
  1
 70
  0
 62
  0
 10
3.887828
 20
7.227580
 30
0.000000
  0
VERTEX
  8
LAYER-1
 10
3.887828
 20
7.227580
 30
0.000000
  0
VERTEX
  8
LAYER-1
 10
3.852236
 20
7.227580
 30
0.000000
  0
SEQEND
  8
LAYER-1
  0
POLYLINE
  8
LAYER-1
 66
  1
 70
  0
 62
  0
 10
3.887828
 20
7.423794
 30
0.000000
  0
VERTEX
  8
LAYER-1
 10
3.887828
 20
7.423794
 30
0.000000
  0
VERTEX
  8
LAYER-1
 10
3.887828
 20
0.357080
 30
0.000000
  0
SEQEND
  8
LAYER-1
  0
POLYLINE
  8
LAYER-1
 66
  1
 70
  0
 62
  0
 10
3.852236
 20
0.430321
 30
0.000000
  0
VERTEX
  8
LAYER-1
 10
3.852236
 20
0.430321
 30
0.000000
  0
VERTEX
  8
LAYER-1
 10
3.887828
 20
0.430321
 30
0.000000
  0
SEQEND
  8
LAYER-1
  0
POLYLINE
  8
LAYER-1
 66
  1
 70
  0
 62
  0
 10
3.852236
 20
0.559227
 30
0.000000
  0
VERTEX
  8
LAYER-1
 10
3.852236
 20
0.559227
 30
0.000000
  0
VERTEX
  8
LAYER-1
 10
3.887828
 20
0.559227
 30
0.000000
  0
SEQEND
  8
LAYER-1
  0
POLYLINE
  8
LAYER-1
 66
  1
 70
  0
 62
  0
 10
3.887828
 20
0.634210
 30
0.000000
  0
VERTEX
  8
LAYER-1
 10
3.887828
 20
0.634210
 30
0.000000
  0
VERTEX
  8
LAYER-1
 10
3.852233
 20
0.634210
 30
0.000000
  0
SEQEND
  8
LAYER-1
  0
POLYLINE
  8
LAYER-1
 66
  1
 70
  0
 62
  0
 10
3.887828
 20
1.480892
 30
0.000000
  0
VERTEX
  8
LAYER-1
 10
3.887828
 20
1.480892
 30
0.000000
  0
VERTEX
  8
LAYER-1
 10
3.852233
 20
1.480892
 30
0.000000
  0
SEQEND
  8
LAYER-1
  0
POLYLINE
  8
LAYER-1
 66
  1
 70
  0
 62
  0
 10
3.887828
 20
2.318780
 30
0.000000
  0
VERTEX
  8
LAYER-1
 10
3.887828
 20
2.318780
 30
0.000000
  0
VERTEX
  8
LAYER-1
 10
3.852233
 20
2.318780
 30
0.000000
  0
SEQEND
  8
LAYER-1
  0
POLYLINE
  8
LAYER-1
 66
  1
 70
  0
 62
  0
 10
3.887828
 20
3.168384
 30
0.000000
  0
VERTEX
  8
LAYER-1
 10
3.887828
 20
3.168384
 30
0.000000
  0
VERTEX
  8
LAYER-1
 10
3.852233
 20
3.168384
 30
0.000000
  0
SEQEND
  8
LAYER-1
  0
POLYLINE
  8
LAYER-1
 66
  1
 70
  0
 62
  0
 10
3.852233
 20
4.010669
 30
0.000000
  0
VERTEX
  8
LAYER-1
 10
3.852233
 20
4.010669
 30
0.000000
  0
VERTEX
  8
LAYER-1
 10
3.887828
 20
4.010669
 30
0.000000
  0
SEQEND
  8
LAYER-1
  0
POLYLINE
  8
LAYER-1
 66
  1
 70
  0
 62
  0
 10
3.888006
 20
4.861670
 30
0.000000
  0
VERTEX
  8
LAYER-1
 10
3.888006
 20
4.861670
 30
0.000000
  0
VERTEX
  8
LAYER-1
 10
3.852414
 20
4.861670
 30
0.000000
  0
SEQEND
  8
LAYER-1
  0
POLYLINE
  8
LAYER-1
 66
  1
 70
  0
 62
  0
 10
3.888006
 20
5.705419
 30
0.000000
  0
VERTEX
  8
LAYER-1
 10
3.888006
 20
5.705419
 30
0.000000
  0
VERTEX
  8
LAYER-1
 10
3.852414
 20
5.705419
 30
0.000000
  0
SEQEND
  8
LAYER-1
  0
POLYLINE
  8
LAYER-1
 66
  1
 70
  1
 62
  0
  0
VERTEX
  8
LAYER-1
 10
3.844819
 20
0.357080
 30
0.000000
  0
VERTEX
  8
LAYER-1
 10
3.899691
 20
0.357080
 30
0.000000
  0
VERTEX
  8
LAYER-1
 10
3.899691
 20
0.351221
 30
0.000000
  0
VERTEX
  8
LAYER-1
 10
3.844819
 20
0.351221
 30
0.000000
  0
SEQEND
  8
LAYER-1
  0
TEXT
  8
LAYER-1
 62
  7
 10
1.976523
 20
8.794503
 30
0.000000
 40
0.187500
  1
Elevation model Impact 1/16
 72
  5
 11
5.393189
 21
8.794503
 31
0.000000
  0
LINE
  8
LAYER-1
 62
  0
 10
6.768189
 20
7.489504
 30
0.000000
 11
0.771661
 21
7.489504
 31
0.000000
  0
LINE
  8
LAYER-1
 62
  0
 10
6.768189
 20
7.599503
 30
0.000000
 11
0.771661
 21
7.599503
 31
0.000000
  0
LINE
  8
LAYER-1
 62
  0
 10
1.331559
 20
7.491009
 30
0.000000
 11
1.331559
 21
7.600988
 31
0.000000
  0
LINE
  8
LAYER-1
 62
  0
 10
1.272190
 20
7.491009
 30
0.000000
 11
1.456559
 21
7.491009
 31
0.000000
  0
LINE
  8
LAYER-1
 62
  0
 10
1.272530
 20
7.600988
 30
0.000000
 11
1.456559
 21
7.600988
 31
0.000000
  0
LINE
  8
LAYER-1
 62
  0
 10
1.331559
 20
7.600988
 30
0.000000
 11
1.331559
 21
7.235474
 31
0.000000
  0
LINE
  8
LAYER-1
 62
  0
 10
1.302096
 20
7.520472
 30
0.000000
 11
1.361021
 21
7.461546
 31
0.000000
  0
LINE
  8
LAYER-1
 62
  0
 10
1.302096
 20
7.630451
 30
0.000000
 11
1.361021
 21
7.571525
 31
0.000000
  0
TEXT
  8
LAYER-1
 62
  0
 10
1.319698
 20
7.107058
 30
0.000000
 40
0.125000
  1
 
  0
TEXT
  8
LAYER-1
 62
  0
 10
1.073745
 20
6.863948
 30
0.000000
 40
0.125000
  1
1-
 72
  5
 11
1.295967
 21
6.863948
 31
0.000000
  0
TEXT
  8
LAYER-1
 62
  0
 10
1.295967
 20
6.863948
 30
0.000000
 40
0.104167
  1
9/16
 72
  5
 11
1.657078
 21
6.863948
 31
0.000000
  0
TEXT
  8
LAYER-1
 62
  0
 10
1.657078
 20
6.863948
 30
0.000000
 40
0.125000
  1
"
 72
  5
 11
1.782078
 21
6.863948
 31
0.000000
  0
TEXT
  8
LAYER-1
 62
  0
 10
1.073745
 20
6.669503
 30
0.000000
 40
0.125000
  1
40mm
 72
  5
 11
1.643189
 21
6.669503
 31
0.000000
  0
TEXT
  8
LAYER-1
 62
  0
 10
2.823745
 20
7.891725
 30
0.000000
 40
0.125000
  1
Intermediate
 72
  5
 11
3.851523
 21
7.891725
 31
0.000000
  0
TEXT
  8
LAYER-1
 62
  0
 10
2.823745
 20
7.697281
 30
0.000000
 40
0.125000
  1
post #4
 72
  5
 11
3.462634
 21
7.697281
 31
0.000000
  0
POLYLINE
  8
LAYER-1
 66
  1
 70
  0
 62
  0
 10
3.519057
 20
7.756307
 30
0.000000
  0
VERTEX
  8
LAYER-1
 10
3.519057
 20
7.756307
 30
0.000000
  0
VERTEX
  8
LAYER-1
 10
3.760133
 20
7.441212
 30
0.000000
  0
SEQEND
  8
LAYER-1
  0
POLYLINE
  8
LAYER-1
 66
  1
 70
  1
 62
  0
  0
VERTEX
  8
LAYER-1
 10
3.772095
 20
7.425578
 30
0.000000
  0
VERTEX
  8
LAYER-1
 10
3.696805
 20
7.455413
 30
0.000000
  0
VERTEX
  8
LAYER-1
 10
3.729897
 20
7.480732
 30
0.000000
  0
VERTEX
  8
LAYER-1
 10
3.762989
 20
7.506050
 30
0.000000
  0
VERTEX
  8
LAYER-1
 10
3.772095
 20
7.425578
 30
0.000000
  0
SEQEND
  8
LAYER-1
  0
POLYLINE
  8
LAYER-1
 66
  1
 70
  0
 62
  0
 40
0.027778
 41
0.027778
 10
3.684575
 20
0.251111
 30
0.000000
  0
VERTEX
  8
LAYER-1
 10
3.684575
 20
0.251111
 30
0.000000
  0
VERTEX
  8
LAYER-1
 10
0.775134
 20
0.251111
 30
0.000000
  0
SEQEND
  8
LAYER-1
  0
POLYLINE
  8
LAYER-1
 66
  1
 70
  0
 62
  0
 40
0.027778
 41
0.027778
 10
3.778192
 20
0.251111
 30
0.000000
  0
VERTEX
  8
LAYER-1
 10
3.778192
 20
0.251111
 30
0.000000
  0
VERTEX
  8
LAYER-1
 10
6.740412
 20
0.251111
 30
0.000000
  0
SEQEND
  8
LAYER-1
  0
POLYLINE
  8
LAYER-1
 66
  1
 70
  1
 62
  0
  0
VERTEX
  8
LAYER-1
 10
0.031375
 20
2.898355
 30
0.000000
  0
VERTEX
  8
LAYER-1
 10
0.145716
 20
2.898355
 30
0.000000
  0
VERTEX
  8
LAYER-1
 10
0.145716
 20
2.794701
 30
0.000000
  0
VERTEX
  8
LAYER-1
 10
0.031375
 20
2.794701
 30
0.000000
  0
SEQEND
  8
LAYER-1
  0
POLYLINE
  8
LAYER-1
 66
  1
 70
  1
 62
  0
  0
VERTEX
  8
LAYER-1
 10
0.179704
 20
2.898355
 30
0.000000
  0
VERTEX
  8
LAYER-1
 10
0.294334
 20
2.898355
 30
0.000000
  0
VERTEX
  8
LAYER-1
 10
0.294334
 20
2.794701
 30
0.000000
  0
VERTEX
  8
LAYER-1
 10
0.179704
 20
2.794701
 30
0.000000
  0
SEQEND
  8
LAYER-1
  0
POLYLINE
  8
LAYER-1
 66
  1
 70
  1
 62
  0
  0
VERTEX
  8
LAYER-1
 10
0.328176
 20
2.898355
 30
0.000000
  0
VERTEX
  8
LAYER-1
 10
0.442515
 20
2.898355
 30
0.000000
  0
VERTEX
  8
LAYER-1
 10
0.442515
 20
2.794701
 30
0.000000
  0
VERTEX
  8
LAYER-1
 10
0.328176
 20
2.794701
 30
0.000000
  0
SEQEND
  8
LAYER-1
  0
POLYLINE
  8
LAYER-1
 66
  1
 70
  1
 62
  0
  0
VERTEX
  8
LAYER-1
 10
0.476503
 20
2.898355
 30
0.000000
  0
VERTEX
  8
LAYER-1
 10
0.590987
 20
2.898355
 30
0.000000
  0
VERTEX
  8
LAYER-1
 10
0.590987
 20
2.794701
 30
0.000000
  0
VERTEX
  8
LAYER-1
 10
0.476503
 20
2.794701
 30
0.000000
  0
SEQEND
  8
LAYER-1
  0
POLYLINE
  8
LAYER-1
 66
  1
 70
  1
 62
  0
  0
VERTEX
  8
LAYER-1
 10
0.624975
 20
2.898355
 30
0.000000
  0
VERTEX
  8
LAYER-1
 10
0.739314
 20
2.898355
 30
0.000000
  0
VERTEX
  8
LAYER-1
 10
0.739314
 20
2.794701
 30
0.000000
  0
VERTEX
  8
LAYER-1
 10
0.624975
 20
2.794701
 30
0.000000
  0
SEQEND
  8
LAYER-1
  0
POLYLINE
  8
LAYER-1
 66
  1
 70
  1
 62
  0
  0
VERTEX
  8
LAYER-1
 10
0.773447
 20
2.898355
 30
0.000000
  0
VERTEX
  8
LAYER-1
 10
0.887788
 20
2.898355
 30
0.000000
  0
VERTEX
  8
LAYER-1
 10
0.887788
 20
2.794701
 30
0.000000
  0
VERTEX
  8
LAYER-1
 10
0.773447
 20
2.794701
 30
0.000000
  0
SEQEND
  8
LAYER-1
  0
POLYLINE
  8
LAYER-1
 66
  1
 70
  1
 62
  0
  0
VERTEX
  8
LAYER-1
 10
0.921774
 20
2.898355
 30
0.000000
  0
VERTEX
  8
LAYER-1
 10
1.036261
 20
2.898355
 30
0.000000
  0
VERTEX
  8
LAYER-1
 10
1.036261
 20
2.794701
 30
0.000000
  0
VERTEX
  8
LAYER-1
 10
0.921774
 20
2.794701
 30
0.000000
  0
SEQEND
  8
LAYER-1
  0
POLYLINE
  8
LAYER-1
 66
  1
 70
  1
 62
  0
  0
VERTEX
  8
LAYER-1
 10
0.031297
 20
4.493538
 30
0.000000
  0
VERTEX
  8
LAYER-1
 10
0.145784
 20
4.493538
 30
0.000000
  0
VERTEX
  8
LAYER-1
 10
0.145784
 20
4.389883
 30
0.000000
  0
VERTEX
  8
LAYER-1
 10
0.031297
 20
4.389883
 30
0.000000
  0
SEQEND
  8
LAYER-1
  0
POLYLINE
  8
LAYER-1
 66
  1
 70
  1
 62
  0
  0
VERTEX
  8
LAYER-1
 10
0.179623
 20
4.493538
 30
0.000000
  0
VERTEX
  8
LAYER-1
 10
0.294257
 20
4.493538
 30
0.000000
  0
VERTEX
  8
LAYER-1
 10
0.294257
 20
4.389883
 30
0.000000
  0
VERTEX
  8
LAYER-1
 10
0.179623
 20
4.389883
 30
0.000000
  0
SEQEND
  8
LAYER-1
  0
POLYLINE
  8
LAYER-1
 66
  1
 70
  1
 62
  0
  0
VERTEX
  8
LAYER-1
 10
0.328096
 20
4.493538
 30
0.000000
  0
VERTEX
  8
LAYER-1
 10
0.442583
 20
4.493538
 30
0.000000
  0
VERTEX
  8
LAYER-1
 10
0.442583
 20
4.389883
 30
0.000000
  0
VERTEX
  8
LAYER-1
 10
0.328096
 20
4.389883
 30
0.000000
  0
SEQEND
  8
LAYER-1
  0
POLYLINE
  8
LAYER-1
 66
  1
 70
  1
 62
  0
  0
VERTEX
  8
LAYER-1
 10
0.476422
 20
4.493538
 30
0.000000
  0
VERTEX
  8
LAYER-1
 10
0.590910
 20
4.493538
 30
0.000000
  0
VERTEX
  8
LAYER-1
 10
0.590910
 20
4.389883
 30
0.000000
  0
VERTEX
  8
LAYER-1
 10
0.476422
 20
4.389883
 30
0.000000
  0
SEQEND
  8
LAYER-1
  0
POLYLINE
  8
LAYER-1
 66
  1
 70
  1
 62
  0
  0
VERTEX
  8
LAYER-1
 10
0.623452
 20
4.493538
 30
0.000000
  0
VERTEX
  8
LAYER-1
 10
0.739382
 20
4.493538
 30
0.000000
  0
VERTEX
  8
LAYER-1
 10
0.739382
 20
4.389883
 30
0.000000
  0
VERTEX
  8
LAYER-1
 10
0.623452
 20
4.389883
 30
0.000000
  0
SEQEND
  8
LAYER-1
  0
POLYLINE
  8
LAYER-1
 66
  1
 70
  1
 62
  0
  0
VERTEX
  8
LAYER-1
 10
0.773369
 20
4.493538
 30
0.000000
  0
VERTEX
  8
LAYER-1
 10
0.887854
 20
4.493538
 30
0.000000
  0
VERTEX
  8
LAYER-1
 10
0.887854
 20
4.389883
 30
0.000000
  0
VERTEX
  8
LAYER-1
 10
0.773369
 20
4.389883
 30
0.000000
  0
SEQEND
  8
LAYER-1
  0
POLYLINE
  8
LAYER-1
 66
  1
 70
  1
 62
  0
  0
VERTEX
  8
LAYER-1
 10
0.921047
 20
4.493538
 30
0.000000
  0
VERTEX
  8
LAYER-1
 10
1.036183
 20
4.493538
 30
0.000000
  0
VERTEX
  8
LAYER-1
 10
1.036183
 20
4.389883
 30
0.000000
  0
VERTEX
  8
LAYER-1
 10
0.921047
 20
4.389883
 30
0.000000
  0
SEQEND
  8
LAYER-1
  0
POLYLINE
  8
LAYER-1
 66
  1
 70
  1
 62
  0
  0
VERTEX
  8
LAYER-1
 10
0.294257
 20
4.493538
 30
0.000000
  0
VERTEX
  8
LAYER-1
 10
0.310707
 20
4.493538
 30
0.000000
  0
VERTEX
  8
LAYER-1
 10
0.310707
 20
2.794746
 30
0.000000
  0
VERTEX
  8
LAYER-1
 10
0.294257
 20
2.794746
 30
0.000000
  0
SEQEND
  8
LAYER-1
  0
POLYLINE
  8
LAYER-1
 66
  1
 70
  1
 62
  0
  0
VERTEX
  8
LAYER-1
 10
0.310707
 20
4.493538
 30
0.000000
  0
VERTEX
  8
LAYER-1
 10
0.328176
 20
4.493538
 30
0.000000
  0
VERTEX
  8
LAYER-1
 10
0.328176
 20
2.794701
 30
0.000000
  0
VERTEX
  8
LAYER-1
 10
0.310707
 20
2.794701
 30
0.000000
  0
SEQEND
  8
LAYER-1
  0
POLYLINE
  8
LAYER-1
 66
  1
 70
  1
 62
  0
  0
VERTEX
  8
LAYER-1
 10
0.442583
 20
4.493538
 30
0.000000
  0
VERTEX
  8
LAYER-1
 10
0.459116
 20
4.493538
 30
0.000000
  0
VERTEX
  8
LAYER-1
 10
0.459116
 20
2.794746
 30
0.000000
  0
VERTEX
  8
LAYER-1
 10
0.442583
 20
2.794746
 30
0.000000
  0
SEQEND
  8
LAYER-1
  0
POLYLINE
  8
LAYER-1
 66
  1
 70
  1
 62
  0
  0
VERTEX
  8
LAYER-1
 10
0.459116
 20
4.493538
 30
0.000000
  0
VERTEX
  8
LAYER-1
 10
0.476503
 20
4.493538
 30
0.000000
  0
VERTEX
  8
LAYER-1
 10
0.476503
 20
2.794701
 30
0.000000
  0
VERTEX
  8
LAYER-1
 10
0.459116
 20
2.794701
 30
0.000000
  0
SEQEND
  8
LAYER-1
  0
POLYLINE
  8
LAYER-1
 66
  1
 70
  1
 62
  0
  0
VERTEX
  8
LAYER-1
 10
0.590910
 20
4.493538
 30
0.000000
  0
VERTEX
  8
LAYER-1
 10
0.607526
 20
4.493538
 30
0.000000
  0
VERTEX
  8
LAYER-1
 10
0.607526
 20
2.794746
 30
0.000000
  0
VERTEX
  8
LAYER-1
 10
0.590910
 20
2.794746
 30
0.000000
  0
SEQEND
  8
LAYER-1
  0
POLYLINE
  8
LAYER-1
 66
  1
 70
  1
 62
  0
  0
VERTEX
  8
LAYER-1
 10
0.607526
 20
4.493538
 30
0.000000
  0
VERTEX
  8
LAYER-1
 10
0.624975
 20
4.493538
 30
0.000000
  0
VERTEX
  8
LAYER-1
 10
0.624975
 20
2.794701
 30
0.000000
  0
VERTEX
  8
LAYER-1
 10
0.607526
 20
2.794701
 30
0.000000
  0
SEQEND
  8
LAYER-1
  0
POLYLINE
  8
LAYER-1
 66
  1
 70
  1
 62
  0
  0
VERTEX
  8
LAYER-1
 10
0.739382
 20
4.493538
 30
0.000000
  0
VERTEX
  8
LAYER-1
 10
0.755934
 20
4.493538
 30
0.000000
  0
VERTEX
  8
LAYER-1
 10
0.755934
 20
2.794746
 30
0.000000
  0
VERTEX
  8
LAYER-1
 10
0.739382
 20
2.794746
 30
0.000000
  0
SEQEND
  8
LAYER-1
  0
POLYLINE
  8
LAYER-1
 66
  1
 70
  1
 62
  0
  0
VERTEX
  8
LAYER-1
 10
0.755934
 20
4.493538
 30
0.000000
  0
VERTEX
  8
LAYER-1
 10
0.773447
 20
4.493538
 30
0.000000
  0
VERTEX
  8
LAYER-1
 10
0.773447
 20
2.794701
 30
0.000000
  0
VERTEX
  8
LAYER-1
 10
0.755934
 20
2.794701
 30
0.000000
  0
SEQEND
  8
LAYER-1
  0
POLYLINE
  8
LAYER-1
 66
  1
 70
  1
 62
  0
  0
VERTEX
  8
LAYER-1
 10
0.887854
 20
4.493538
 30
0.000000
  0
VERTEX
  8
LAYER-1
 10
0.904344
 20
4.493538
 30
0.000000
  0
VERTEX
  8
LAYER-1
 10
0.904344
 20
2.794746
 30
0.000000
  0
VERTEX
  8
LAYER-1
 10
0.887854
 20
2.794746
 30
0.000000
  0
SEQEND
  8
LAYER-1
  0
POLYLINE
  8
LAYER-1
 66
  1
 70
  1
 62
  0
  0
VERTEX
  8
LAYER-1
 10
0.904344
 20
4.493538
 30
0.000000
  0
VERTEX
  8
LAYER-1
 10
0.921774
 20
4.493538
 30
0.000000
  0
VERTEX
  8
LAYER-1
 10
0.921774
 20
2.794701
 30
0.000000
  0
VERTEX
  8
LAYER-1
 10
0.904344
 20
2.794701
 30
0.000000
  0
SEQEND
  8
LAYER-1
  0
POLYLINE
  8
LAYER-1
 66
  1
 70
  1
 62
  0
  0
VERTEX
  8
LAYER-1
 10
0.145784
 20
4.493538
 30
0.000000
  0
VERTEX
  8
LAYER-1
 10
0.162300
 20
4.493538
 30
0.000000
  0
VERTEX
  8
LAYER-1
 10
0.162300
 20
2.794746
 30
0.000000
  0
VERTEX
  8
LAYER-1
 10
0.145784
 20
2.794746
 30
0.000000
  0
SEQEND
  8
LAYER-1
  0
POLYLINE
  8
LAYER-1
 66
  1
 70
  1
 62
  0
  0
VERTEX
  8
LAYER-1
 10
0.162300
 20
4.493538
 30
0.000000
  0
VERTEX
  8
LAYER-1
 10
0.179704
 20
4.493538
 30
0.000000
  0
VERTEX
  8
LAYER-1
 10
0.179704
 20
2.794701
 30
0.000000
  0
VERTEX
  8
LAYER-1
 10
0.162300
 20
2.794701
 30
0.000000
  0
SEQEND
  8
LAYER-1
  0
LINE
  8
LAYER-1
 62
  0
 10
0.049162
 20
3.739215
 30
0.000000
 11
0.111328
 21
3.871965
 31
0.000000
  0
LINE
  8
LAYER-1
 62
  0
 10
0.070970
 20
3.729003
 30
0.000000
 11
0.133135
 21
3.861752
 31
0.000000
  0
LINE
  8
LAYER-1
 62
  0
 10
0.049162
 20
4.188563
 30
0.000000
 11
0.111328
 21
4.321310
 31
0.000000
  0
LINE
  8
LAYER-1
 62
  0
 10
0.070970
 20
4.178350
 30
0.000000
 11
0.133135
 21
4.311097
 31
0.000000
  0
LINE
  8
LAYER-1
 62
  0
 10
0.197572
 20
3.739215
 30
0.000000
 11
0.259738
 21
3.871965
 31
0.000000
  0
LINE
  8
LAYER-1
 62
  0
 10
0.219380
 20
3.729003
 30
0.000000
 11
0.281545
 21
3.861752
 31
0.000000
  0
LINE
  8
LAYER-1
 62
  0
 10
0.197572
 20
4.188563
 30
0.000000
 11
0.259738
 21
4.321310
 31
0.000000
  0
LINE
  8
LAYER-1
 62
  0
 10
0.219380
 20
4.178350
 30
0.000000
 11
0.281545
 21
4.311097
 31
0.000000
  0
LINE
  8
LAYER-1
 62
  0
 10
0.345979
 20
3.739215
 30
0.000000
 11
0.408145
 21
3.871965
 31
0.000000
  0
LINE
  8
LAYER-1
 62
  0
 10
0.367786
 20
3.729003
 30
0.000000
 11
0.429953
 21
3.861752
 31
0.000000
  0
LINE
  8
LAYER-1
 62
  0
 10
0.345979
 20
4.188563
 30
0.000000
 11
0.408145
 21
4.321310
 31
0.000000
  0
LINE
  8
LAYER-1
 62
  0
 10
0.367786
 20
4.178350
 30
0.000000
 11
0.429953
 21
4.311097
 31
0.000000
  0
LINE
  8
LAYER-1
 62
  0
 10
0.494388
 20
3.739215
 30
0.000000
 11
0.556554
 21
3.871965
 31
0.000000
  0
LINE
  8
LAYER-1
 62
  0
 10
0.516196
 20
3.729003
 30
0.000000
 11
0.578361
 21
3.861752
 31
0.000000
  0
LINE
  8
LAYER-1
 62
  0
 10
0.494388
 20
4.188563
 30
0.000000
 11
0.556554
 21
4.321310
 31
0.000000
  0
LINE
  8
LAYER-1
 62
  0
 10
0.516196
 20
4.178350
 30
0.000000
 11
0.578361
 21
4.311097
 31
0.000000
  0
LINE
  8
LAYER-1
 62
  0
 10
0.642797
 20
3.739215
 30
0.000000
 11
0.704964
 21
3.871965
 31
0.000000
  0
LINE
  8
LAYER-1
 62
  0
 10
0.664605
 20
3.729003
 30
0.000000
 11
0.726771
 21
3.861752
 31
0.000000
  0
LINE
  8
LAYER-1
 62
  0
 10
0.642797
 20
4.188563
 30
0.000000
 11
0.704964
 21
4.321310
 31
0.000000
  0
LINE
  8
LAYER-1
 62
  0
 10
0.664605
 20
4.178350
 30
0.000000
 11
0.726771
 21
4.311097
 31
0.000000
  0
LINE
  8
LAYER-1
 62
  0
 10
0.791207
 20
3.739215
 30
0.000000
 11
0.853372
 21
3.871965
 31
0.000000
  0
LINE
  8
LAYER-1
 62
  0
 10
0.813014
 20
3.729003
 30
0.000000
 11
0.875180
 21
3.861752
 31
0.000000
  0
LINE
  8
LAYER-1
 62
  0
 10
0.791207
 20
4.188563
 30
0.000000
 11
0.853372
 21
4.321310
 31
0.000000
  0
LINE
  8
LAYER-1
 62
  0
 10
0.813014
 20
4.178350
 30
0.000000
 11
0.875180
 21
4.311097
 31
0.000000
  0
LINE
  8
LAYER-1
 62
  0
 10
0.939615
 20
3.739215
 30
0.000000
 11
1.001780
 21
3.871965
 31
0.000000
  0
LINE
  8
LAYER-1
 62
  0
 10
0.961422
 20
3.729003
 30
0.000000
 11
1.023587
 21
3.861752
 31
0.000000
  0
LINE
  8
LAYER-1
 62
  0
 10
0.939615
 20
4.188563
 30
0.000000
 11
1.001780
 21
4.321310
 31
0.000000
  0
LINE
  8
LAYER-1
 62
  0
 10
0.961422
 20
4.178350
 30
0.000000
 11
1.023587
 21
4.311097
 31
0.000000
  0
LINE
  8
LAYER-1
 62
  0
 10
0.049162
 20
3.413334
 30
0.000000
 11
0.111328
 21
3.546082
 31
0.000000
  0
LINE
  8
LAYER-1
 62
  0
 10
0.070970
 20
3.403122
 30
0.000000
 11
0.133135
 21
3.535869
 31
0.000000
  0
LINE
  8
LAYER-1
 62
  0
 10
0.046770
 20
2.978297
 30
0.000000
 11
0.108938
 21
3.111047
 31
0.000000
  0
LINE
  8
LAYER-1
 62
  0
 10
0.068577
 20
2.968085
 30
0.000000
 11
0.130745
 21
3.100834
 31
0.000000
  0
LINE
  8
LAYER-1
 62
  0
 10
0.197572
 20
3.413334
 30
0.000000
 11
0.259738
 21
3.546082
 31
0.000000
  0
LINE
  8
LAYER-1
 62
  0
 10
0.219380
 20
3.403122
 30
0.000000
 11
0.281545
 21
3.535869
 31
0.000000
  0
LINE
  8
LAYER-1
 62
  0
 10
0.195181
 20
2.978297
 30
0.000000
 11
0.257345
 21
3.111047
 31
0.000000
  0
LINE
  8
LAYER-1
 62
  0
 10
0.216988
 20
2.968085
 30
0.000000
 11
0.279153
 21
3.100834
 31
0.000000
  0
LINE
  8
LAYER-1
 62
  0
 10
0.345979
 20
3.413334
 30
0.000000
 11
0.408145
 21
3.546082
 31
0.000000
  0
LINE
  8
LAYER-1
 62
  0
 10
0.367786
 20
3.403122
 30
0.000000
 11
0.429953
 21
3.535869
 31
0.000000
  0
LINE
  8
LAYER-1
 62
  0
 10
0.343588
 20
2.978297
 30
0.000000
 11
0.405756
 21
3.111047
 31
0.000000
  0
LINE
  8
LAYER-1
 62
  0
 10
0.365396
 20
2.968085
 30
0.000000
 11
0.427563
 21
3.100834
 31
0.000000
  0
LINE
  8
LAYER-1
 62
  0
 10
0.494388
 20
3.413334
 30
0.000000
 11
0.556554
 21
3.546082
 31
0.000000
  0
LINE
  8
LAYER-1
 62
  0
 10
0.516196
 20
3.403122
 30
0.000000
 11
0.578361
 21
3.535869
 31
0.000000
  0
LINE
  8
LAYER-1
 62
  0
 10
0.491998
 20
2.978297
 30
0.000000
 11
0.554164
 21
3.111047
 31
0.000000
  0
LINE
  8
LAYER-1
 62
  0
 10
0.513805
 20
2.968085
 30
0.000000
 11
0.575971
 21
3.100834
 31
0.000000
  0
LINE
  8
LAYER-1
 62
  0
 10
0.642797
 20
3.413334
 30
0.000000
 11
0.704964
 21
3.546082
 31
0.000000
  0
LINE
  8
LAYER-1
 62
  0
 10
0.664605
 20
3.403122
 30
0.000000
 11
0.726771
 21
3.535869
 31
0.000000
  0
LINE
  8
LAYER-1
 62
  0
 10
0.640407
 20
2.978297
 30
0.000000
 11
0.702572
 21
3.111047
 31
0.000000
  0
LINE
  8
LAYER-1
 62
  0
 10
0.662214
 20
2.968085
 30
0.000000
 11
0.724380
 21
3.100834
 31
0.000000
  0
LINE
  8
LAYER-1
 62
  0
 10
0.791207
 20
3.413334
 30
0.000000
 11
0.853372
 21
3.546082
 31
0.000000
  0
LINE
  8
LAYER-1
 62
  0
 10
0.813014
 20
3.403122
 30
0.000000
 11
0.875180
 21
3.535869
 31
0.000000
  0
LINE
  8
LAYER-1
 62
  0
 10
0.788814
 20
2.978297
 30
0.000000
 11
0.850980
 21
3.111047
 31
0.000000
  0
LINE
  8
LAYER-1
 62
  0
 10
0.810622
 20
2.968085
 30
0.000000
 11
0.872787
 21
3.100834
 31
0.000000
  0
LINE
  8
LAYER-1
 62
  0
 10
0.939615
 20
3.413334
 30
0.000000
 11
1.001780
 21
3.546082
 31
0.000000
  0
LINE
  8
LAYER-1
 62
  0
 10
0.961422
 20
3.403122
 30
0.000000
 11
1.023587
 21
3.535869
 31
0.000000
  0
LINE
  8
LAYER-1
 62
  0
 10
0.937225
 20
2.978297
 30
0.000000
 11
0.999390
 21
3.111047
 31
0.000000
  0
LINE
  8
LAYER-1
 62
  0
 10
0.959032
 20
2.968085
 30
0.000000
 11
1.021198
 21
3.100834
 31
0.000000
  0
TEXT
  8
LAYER-1
 62
  0
 10
0.212634
 20
2.586170
 30
0.000000
 40
0.104167
  1
IMPACT
 72
  5
 11
0.809856
 21
2.586170
 31
0.000000
  0
TEXT
  8
LAYER-1
 62
  0
 10
0.809856
 20
2.586170
 30
0.000000
 40
0.104167
  1
 
 72
  5
 11
0.920967
 21
2.586170
 31
0.000000
  0
TEXT
  8
LAYER-1
 62
  0
 10
0.143189
 20
2.502836
 30
0.000000
 40
0.083333
  1
(Polycarbonate)
 72
  5
 11
0.962634
 21
2.502836
 31
0.000000
  0
POLYLINE
  8
LAYER-1
 66
  1
 70
  1
 62
  0
  0
VERTEX
  8
LAYER-1
 10
0.013889
 20
4.493538
 30
0.000000
  0
VERTEX
  8
LAYER-1
 10
0.031375
 20
4.493538
 30
0.000000
  0
VERTEX
  8
LAYER-1
 10
0.031375
 20
2.794701
 30
0.000000
  0
VERTEX
  8
LAYER-1
 10
0.013889
 20
2.794701
 30
0.000000
  0
SEQEND
  8
LAYER-1
  0
POLYLINE
  8
LAYER-1
 66
  1
 70
  1
 62
  0
  0
VERTEX
  8
LAYER-1
 10
1.036183
 20
4.493538
 30
0.000000
  0
VERTEX
  8
LAYER-1
 10
1.053577
 20
4.493538
 30
0.000000
  0
VERTEX
  8
LAYER-1
 10
1.053577
 20
2.794746
 30
0.000000
  0
VERTEX
  8
LAYER-1
 10
1.036183
 20
2.794746
 30
0.000000
  0
SEQEND
  8
LAYER-1
  0
POLYLINE
  8
LAYER-1
 66
  1
 70
  1
 62
  0
  0
VERTEX
  8
LAYER-1
 10
0.031297
 20
3.655612
 30
0.000000
  0
VERTEX
  8
LAYER-1
 10
0.145564
 20
3.655612
 30
0.000000
  0
VERTEX
  8
LAYER-1
 10
0.145564
 20
3.630831
 30
0.000000
  0
VERTEX
  8
LAYER-1
 10
0.031297
 20
3.630831
 30
0.000000
  0
SEQEND
  8
LAYER-1
  0
POLYLINE
  8
LAYER-1
 66
  1
 70
  1
 62
  0
  0
VERTEX
  8
LAYER-1
 10
0.179705
 20
3.655612
 30
0.000000
  0
VERTEX
  8
LAYER-1
 10
0.294769
 20
3.655612
 30
0.000000
  0
VERTEX
  8
LAYER-1
 10
0.294769
 20
3.630831
 30
0.000000
  0
VERTEX
  8
LAYER-1
 10
0.179705
 20
3.630831
 30
0.000000
  0
SEQEND
  8
LAYER-1
  0
POLYLINE
  8
LAYER-1
 66
  1
 70
  1
 62
  0
  0
VERTEX
  8
LAYER-1
 10
0.328115
 20
3.655612
 30
0.000000
  0
VERTEX
  8
LAYER-1
 10
0.442383
 20
3.655612
 30
0.000000
  0
VERTEX
  8
LAYER-1
 10
0.442383
 20
3.630831
 30
0.000000
  0
VERTEX
  8
LAYER-1
 10
0.328115
 20
3.630831
 30
0.000000
  0
SEQEND
  8
LAYER-1
  0
POLYLINE
  8
LAYER-1
 66
  1
 70
  1
 62
  0
  0
VERTEX
  8
LAYER-1
 10
0.476523
 20
3.655612
 30
0.000000
  0
VERTEX
  8
LAYER-1
 10
0.590791
 20
3.655612
 30
0.000000
  0
VERTEX
  8
LAYER-1
 10
0.590791
 20
3.630831
 30
0.000000
  0
VERTEX
  8
LAYER-1
 10
0.476523
 20
3.630831
 30
0.000000
  0
SEQEND
  8
LAYER-1
  0
POLYLINE
  8
LAYER-1
 66
  1
 70
  1
 62
  0
  0
VERTEX
  8
LAYER-1
 10
0.624934
 20
3.655612
 30
0.000000
  0
VERTEX
  8
LAYER-1
 10
0.739201
 20
3.655612
 30
0.000000
  0
VERTEX
  8
LAYER-1
 10
0.739201
 20
3.630831
 30
0.000000
  0
VERTEX
  8
LAYER-1
 10
0.624934
 20
3.630831
 30
0.000000
  0
SEQEND
  8
LAYER-1
  0
POLYLINE
  8
LAYER-1
 66
  1
 70
  1
 62
  0
  0
VERTEX
  8
LAYER-1
 10
0.773341
 20
3.655612
 30
0.000000
  0
VERTEX
  8
LAYER-1
 10
0.888406
 20
3.655612
 30
0.000000
  0
VERTEX
  8
LAYER-1
 10
0.888406
 20
3.630831
 30
0.000000
  0
VERTEX
  8
LAYER-1
 10
0.773341
 20
3.630831
 30
0.000000
  0
SEQEND
  8
LAYER-1
  0
POLYLINE
  8
LAYER-1
 66
  1
 70
  1
 62
  0
  0
VERTEX
  8
LAYER-1
 10
0.921750
 20
3.655612
 30
0.000000
  0
VERTEX
  8
LAYER-1
 10
1.036017
 20
3.655612
 30
0.000000
  0
VERTEX
  8
LAYER-1
 10
1.036017
 20
3.630831
 30
0.000000
  0
VERTEX
  8
LAYER-1
 10
0.921750
 20
3.630831
 30
0.000000
  0
SEQEND
  8
LAYER-1
  0
POLYLINE
  8
LAYER-1
 66
  1
 70
  0
 62
  7
 10
0.031375
 20
4.493538
 30
0.000000
  0
VERTEX
  8
LAYER-1
 10
0.031375
 20
4.493538
 30
0.000000
  0
VERTEX
  8
LAYER-1
 10
0.031375
 20
4.389883
 30
0.000000
  0
SEQEND
  8
LAYER-1
  0
POLYLINE
  8
LAYER-1
 66
  1
 70
  0
 62
  7
 10
0.145784
 20
4.493538
 30
0.000000
  0
VERTEX
  8
LAYER-1
 10
0.145784
 20
4.493538
 30
0.000000
  0
VERTEX
  8
LAYER-1
 10
0.145784
 20
4.389883
 30
0.000000
  0
SEQEND
  8
LAYER-1
  0
POLYLINE
  8
LAYER-1
 66
  1
 70
  0
 62
  7
 10
0.179704
 20
4.493538
 30
0.000000
  0
VERTEX
  8
LAYER-1
 10
0.179704
 20
4.493538
 30
0.000000
  0
VERTEX
  8
LAYER-1
 10
0.179704
 20
4.389883
 30
0.000000
  0
SEQEND
  8
LAYER-1
  0
POLYLINE
  8
LAYER-1
 66
  1
 70
  0
 62
  7
 10
0.294257
 20
4.493538
 30
0.000000
  0
VERTEX
  8
LAYER-1
 10
0.294257
 20
4.493538
 30
0.000000
  0
VERTEX
  8
LAYER-1
 10
0.294257
 20
4.389883
 30
0.000000
  0
SEQEND
  8
LAYER-1
  0
POLYLINE
  8
LAYER-1
 66
  1
 70
  0
 62
  7
 10
0.328176
 20
4.493538
 30
0.000000
  0
VERTEX
  8
LAYER-1
 10
0.328176
 20
4.493538
 30
0.000000
  0
VERTEX
  8
LAYER-1
 10
0.328176
 20
4.389883
 30
0.000000
  0
SEQEND
  8
LAYER-1
  0
POLYLINE
  8
LAYER-1
 66
  1
 70
  0
 62
  7
 10
0.442583
 20
4.493538
 30
0.000000
  0
VERTEX
  8
LAYER-1
 10
0.442583
 20
4.493538
 30
0.000000
  0
VERTEX
  8
LAYER-1
 10
0.442583
 20
4.389883
 30
0.000000
  0
SEQEND
  8
LAYER-1
  0
POLYLINE
  8
LAYER-1
 66
  1
 70
  0
 62
  7
 10
0.476503
 20
4.493538
 30
0.000000
  0
VERTEX
  8
LAYER-1
 10
0.476503
 20
4.493538
 30
0.000000
  0
VERTEX
  8
LAYER-1
 10
0.476503
 20
4.389883
 30
0.000000
  0
SEQEND
  8
LAYER-1
  0
POLYLINE
  8
LAYER-1
 66
  1
 70
  0
 62
  7
 10
0.590910
 20
4.493538
 30
0.000000
  0
VERTEX
  8
LAYER-1
 10
0.590910
 20
4.493538
 30
0.000000
  0
VERTEX
  8
LAYER-1
 10
0.590910
 20
4.389883
 30
0.000000
  0
SEQEND
  8
LAYER-1
  0
POLYLINE
  8
LAYER-1
 66
  1
 70
  0
 62
  7
 10
0.624975
 20
4.493538
 30
0.000000
  0
VERTEX
  8
LAYER-1
 10
0.624975
 20
4.493538
 30
0.000000
  0
VERTEX
  8
LAYER-1
 10
0.624975
 20
4.389883
 30
0.000000
  0
SEQEND
  8
LAYER-1
  0
POLYLINE
  8
LAYER-1
 66
  1
 70
  0
 62
  7
 10
0.739382
 20
4.493538
 30
0.000000
  0
VERTEX
  8
LAYER-1
 10
0.739382
 20
4.493538
 30
0.000000
  0
VERTEX
  8
LAYER-1
 10
0.739382
 20
4.389883
 30
0.000000
  0
SEQEND
  8
LAYER-1
  0
POLYLINE
  8
LAYER-1
 66
  1
 70
  0
 62
  7
 10
0.773447
 20
4.493538
 30
0.000000
  0
VERTEX
  8
LAYER-1
 10
0.773447
 20
4.493538
 30
0.000000
  0
VERTEX
  8
LAYER-1
 10
0.773447
 20
4.389883
 30
0.000000
  0
SEQEND
  8
LAYER-1
  0
POLYLINE
  8
LAYER-1
 66
  1
 70
  0
 62
  7
 10
0.887854
 20
4.493538
 30
0.000000
  0
VERTEX
  8
LAYER-1
 10
0.887854
 20
4.493538
 30
0.000000
  0
VERTEX
  8
LAYER-1
 10
0.887854
 20
4.389883
 30
0.000000
  0
SEQEND
  8
LAYER-1
  0
POLYLINE
  8
LAYER-1
 66
  1
 70
  0
 62
  7
 10
0.921047
 20
4.493538
 30
0.000000
  0
VERTEX
  8
LAYER-1
 10
0.921047
 20
4.493538
 30
0.000000
  0
VERTEX
  8
LAYER-1
 10
0.921047
 20
4.389883
 30
0.000000
  0
SEQEND
  8
LAYER-1
  0
POLYLINE
  8
LAYER-1
 66
  1
 70
  0
 62
  7
 10
1.036183
 20
4.493538
 30
0.000000
  0
VERTEX
  8
LAYER-1
 10
1.036183
 20
4.493538
 30
0.000000
  0
VERTEX
  8
LAYER-1
 10
1.036183
 20
4.389883
 30
0.000000
  0
SEQEND
  8
LAYER-1
  0
POLYLINE
  8
LAYER-1
 66
  1
 70
  0
 62
  7
 10
0.031297
 20
3.655612
 30
0.000000
  0
VERTEX
  8
LAYER-1
 10
0.031297
 20
3.655612
 30
0.000000
  0
VERTEX
  8
LAYER-1
 10
0.031297
 20
3.630831
 30
0.000000
  0
SEQEND
  8
LAYER-1
  0
POLYLINE
  8
LAYER-1
 66
  1
 70
  0
 62
  7
 10
0.145564
 20
3.655612
 30
0.000000
  0
VERTEX
  8
LAYER-1
 10
0.145564
 20
3.655612
 30
0.000000
  0
VERTEX
  8
LAYER-1
 10
0.145564
 20
3.630831
 30
0.000000
  0
SEQEND
  8
LAYER-1
  0
POLYLINE
  8
LAYER-1
 66
  1
 70
  0
 62
  7
 10
0.179705
 20
3.655612
 30
0.000000
  0
VERTEX
  8
LAYER-1
 10
0.179705
 20
3.655612
 30
0.000000
  0
VERTEX
  8
LAYER-1
 10
0.179705
 20
3.630831
 30
0.000000
  0
SEQEND
  8
LAYER-1
  0
POLYLINE
  8
LAYER-1
 66
  1
 70
  0
 62
  7
 10
0.294769
 20
3.655612
 30
0.000000
  0
VERTEX
  8
LAYER-1
 10
0.294769
 20
3.655612
 30
0.000000
  0
VERTEX
  8
LAYER-1
 10
0.294769
 20
3.630831
 30
0.000000
  0
SEQEND
  8
LAYER-1
  0
POLYLINE
  8
LAYER-1
 66
  1
 70
  0
 62
  7
 10
0.328115
 20
3.655612
 30
0.000000
  0
VERTEX
  8
LAYER-1
 10
0.328115
 20
3.655612
 30
0.000000
  0
VERTEX
  8
LAYER-1
 10
0.328115
 20
3.630831
 30
0.000000
  0
SEQEND
  8
LAYER-1
  0
POLYLINE
  8
LAYER-1
 66
  1
 70
  0
 62
  7
 10
0.442383
 20
3.655612
 30
0.000000
  0
VERTEX
  8
LAYER-1
 10
0.442383
 20
3.655612
 30
0.000000
  0
VERTEX
  8
LAYER-1
 10
0.442383
 20
3.630831
 30
0.000000
  0
SEQEND
  8
LAYER-1
  0
POLYLINE
  8
LAYER-1
 66
  1
 70
  0
 62
  7
 10
0.476523
 20
3.655612
 30
0.000000
  0
VERTEX
  8
LAYER-1
 10
0.476523
 20
3.655612
 30
0.000000
  0
VERTEX
  8
LAYER-1
 10
0.476523
 20
3.630831
 30
0.000000
  0
SEQEND
  8
LAYER-1
  0
POLYLINE
  8
LAYER-1
 66
  1
 70
  0
 62
  7
 10
0.590791
 20
3.655612
 30
0.000000
  0
VERTEX
  8
LAYER-1
 10
0.590791
 20
3.655612
 30
0.000000
  0
VERTEX
  8
LAYER-1
 10
0.590791
 20
3.630831
 30
0.000000
  0
SEQEND
  8
LAYER-1
  0
POLYLINE
  8
LAYER-1
 66
  1
 70
  0
 62
  7
 10
0.624934
 20
3.655612
 30
0.000000
  0
VERTEX
  8
LAYER-1
 10
0.624934
 20
3.655612
 30
0.000000
  0
VERTEX
  8
LAYER-1
 10
0.624934
 20
3.630831
 30
0.000000
  0
SEQEND
  8
LAYER-1
  0
POLYLINE
  8
LAYER-1
 66
  1
 70
  0
 62
  7
 10
0.739201
 20
3.655612
 30
0.000000
  0
VERTEX
  8
LAYER-1
 10
0.739201
 20
3.655612
 30
0.000000
  0
VERTEX
  8
LAYER-1
 10
0.739201
 20
3.630831
 30
0.000000
  0
SEQEND
  8
LAYER-1
  0
POLYLINE
  8
LAYER-1
 66
  1
 70
  0
 62
  7
 10
0.773341
 20
3.655612
 30
0.000000
  0
VERTEX
  8
LAYER-1
 10
0.773341
 20
3.655612
 30
0.000000
  0
VERTEX
  8
LAYER-1
 10
0.773341
 20
3.630831
 30
0.000000
  0
SEQEND
  8
LAYER-1
  0
POLYLINE
  8
LAYER-1
 66
  1
 70
  0
 62
  7
 10
0.888406
 20
3.655612
 30
0.000000
  0
VERTEX
  8
LAYER-1
 10
0.888406
 20
3.655612
 30
0.000000
  0
VERTEX
  8
LAYER-1
 10
0.888406
 20
3.630831
 30
0.000000
  0
SEQEND
  8
LAYER-1
  0
POLYLINE
  8
LAYER-1
 66
  1
 70
  0
 62
  7
 10
0.921750
 20
3.655612
 30
0.000000
  0
VERTEX
  8
LAYER-1
 10
0.921750
 20
3.655612
 30
0.000000
  0
VERTEX
  8
LAYER-1
 10
0.921750
 20
3.630831
 30
0.000000
  0
SEQEND
  8
LAYER-1
  0
POLYLINE
  8
LAYER-1
 66
  1
 70
  0
 62
  7
 10
1.036017
 20
3.655612
 30
0.000000
  0
VERTEX
  8
LAYER-1
 10
1.036017
 20
3.655612
 30
0.000000
  0
VERTEX
  8
LAYER-1
 10
1.036017
 20
3.630831
 30
0.000000
  0
SEQEND
  8
LAYER-1
  0
POLYLINE
  8
LAYER-1
 66
  1
 70
  0
 62
  7
 10
0.031375
 20
2.898355
 30
0.000000
  0
VERTEX
  8
LAYER-1
 10
0.031375
 20
2.898355
 30
0.000000
  0
VERTEX
  8
LAYER-1
 10
0.031375
 20
2.794701
 30
0.000000
  0
SEQEND
  8
LAYER-1
  0
POLYLINE
  8
LAYER-1
 66
  1
 70
  0
 62
  7
 10
0.145716
 20
2.898355
 30
0.000000
  0
VERTEX
  8
LAYER-1
 10
0.145716
 20
2.898355
 30
0.000000
  0
VERTEX
  8
LAYER-1
 10
0.145716
 20
2.794746
 30
0.000000
  0
SEQEND
  8
LAYER-1
  0
POLYLINE
  8
LAYER-1
 66
  1
 70
  0
 62
  7
 10
0.179704
 20
2.898355
 30
0.000000
  0
VERTEX
  8
LAYER-1
 10
0.179704
 20
2.898355
 30
0.000000
  0
VERTEX
  8
LAYER-1
 10
0.179704
 20
2.794701
 30
0.000000
  0
SEQEND
  8
LAYER-1
  0
POLYLINE
  8
LAYER-1
 66
  1
 70
  0
 62
  7
 10
0.294334
 20
2.898355
 30
0.000000
  0
VERTEX
  8
LAYER-1
 10
0.294334
 20
2.898355
 30
0.000000
  0
VERTEX
  8
LAYER-1
 10
0.294334
 20
2.794746
 30
0.000000
  0
SEQEND
  8
LAYER-1
  0
POLYLINE
  8
LAYER-1
 66
  1
 70
  0
 62
  7
 10
0.328176
 20
2.898355
 30
0.000000
  0
VERTEX
  8
LAYER-1
 10
0.328176
 20
2.898355
 30
0.000000
  0
VERTEX
  8
LAYER-1
 10
0.328176
 20
2.795024
 30
0.000000
  0
SEQEND
  8
LAYER-1
  0
POLYLINE
  8
LAYER-1
 66
  1
 70
  0
 62
  7
 10
0.442515
 20
2.898355
 30
0.000000
  0
VERTEX
  8
LAYER-1
 10
0.442515
 20
2.898355
 30
0.000000
  0
VERTEX
  8
LAYER-1
 10
0.442515
 20
2.794746
 30
0.000000
  0
SEQEND
  8
LAYER-1
  0
POLYLINE
  8
LAYER-1
 66
  1
 70
  0
 62
  7
 10
0.476503
 20
2.898355
 30
0.000000
  0
VERTEX
  8
LAYER-1
 10
0.476503
 20
2.898355
 30
0.000000
  0
VERTEX
  8
LAYER-1
 10
0.476503
 20
2.794701
 30
0.000000
  0
SEQEND
  8
LAYER-1
  0
POLYLINE
  8
LAYER-1
 66
  1
 70
  0
 62
  7
 10
0.590987
 20
2.898355
 30
0.000000
  0
VERTEX
  8
LAYER-1
 10
0.590987
 20
2.898355
 30
0.000000
  0
VERTEX
  8
LAYER-1
 10
0.590987
 20
2.794746
 30
0.000000
  0
SEQEND
  8
LAYER-1
  0
POLYLINE
  8
LAYER-1
 66
  1
 70
  0
 62
  7
 10
0.624975
 20
2.898355
 30
0.000000
  0
VERTEX
  8
LAYER-1
 10
0.624975
 20
2.898355
 30
0.000000
  0
VERTEX
  8
LAYER-1
 10
0.624975
 20
2.794701
 30
0.000000
  0
SEQEND
  8
LAYER-1
  0
POLYLINE
  8
LAYER-1
 66
  1
 70
  0
 62
  7
 10
0.739314
 20
2.898355
 30
0.000000
  0
VERTEX
  8
LAYER-1
 10
0.739314
 20
2.898355
 30
0.000000
  0
VERTEX
  8
LAYER-1
 10
0.739314
 20
2.795024
 30
0.000000
  0
SEQEND
  8
LAYER-1
  0
POLYLINE
  8
LAYER-1
 66
  1
 70
  0
 62
  7
 10
0.773447
 20
2.898355
 30
0.000000
  0
VERTEX
  8
LAYER-1
 10
0.773447
 20
2.898355
 30
0.000000
  0
VERTEX
  8
LAYER-1
 10
0.773447
 20
2.794701
 30
0.000000
  0
SEQEND
  8
LAYER-1
  0
POLYLINE
  8
LAYER-1
 66
  1
 70
  0
 62
  7
 10
0.887788
 20
2.898355
 30
0.000000
  0
VERTEX
  8
LAYER-1
 10
0.887788
 20
2.898355
 30
0.000000
  0
VERTEX
  8
LAYER-1
 10
0.887788
 20
2.794746
 30
0.000000
  0
SEQEND
  8
LAYER-1
  0
POLYLINE
  8
LAYER-1
 66
  1
 70
  0
 62
  7
 10
0.921774
 20
2.898355
 30
0.000000
  0
VERTEX
  8
LAYER-1
 10
0.921774
 20
2.898355
 30
0.000000
  0
VERTEX
  8
LAYER-1
 10
0.921774
 20
2.794701
 30
0.000000
  0
SEQEND
  8
LAYER-1
  0
POLYLINE
  8
LAYER-1
 66
  1
 70
  0
 62
  7
 10
1.036261
 20
2.898355
 30
0.000000
  0
VERTEX
  8
LAYER-1
 10
1.036261
 20
2.898355
 30
0.000000
  0
VERTEX
  8
LAYER-1
 10
1.036261
 20
2.794746
 30
0.000000
  0
SEQEND
  8
LAYER-1
  0
POLYLINE
  8
LAYER-1
 66
  1
 70
  0
 62
  7
 10
0.162300
 20
4.493538
 30
0.000000
  0
VERTEX
  8
LAYER-1
 10
0.162300
 20
4.493538
 30
0.000000
  0
VERTEX
  8
LAYER-1
 10
0.162300
 20
2.794701
 30
0.000000
  0
SEQEND
  8
LAYER-1
  0
POLYLINE
  8
LAYER-1
 66
  1
 70
  0
 62
  7
 10
0.310707
 20
4.493538
 30
0.000000
  0
VERTEX
  8
LAYER-1
 10
0.310707
 20
4.493538
 30
0.000000
  0
VERTEX
  8
LAYER-1
 10
0.310707
 20
2.794701
 30
0.000000
  0
SEQEND
  8
LAYER-1
  0
POLYLINE
  8
LAYER-1
 66
  1
 70
  0
 62
  7
 10
0.459116
 20
4.493538
 30
0.000000
  0
VERTEX
  8
LAYER-1
 10
0.459116
 20
4.493538
 30
0.000000
  0
VERTEX
  8
LAYER-1
 10
0.459116
 20
2.794701
 30
0.000000
  0
SEQEND
  8
LAYER-1
  0
POLYLINE
  8
LAYER-1
 66
  1
 70
  0
 62
  7
 10
0.607526
 20
4.493538
 30
0.000000
  0
VERTEX
  8
LAYER-1
 10
0.607526
 20
4.493538
 30
0.000000
  0
VERTEX
  8
LAYER-1
 10
0.607526
 20
2.794701
 30
0.000000
  0
SEQEND
  8
LAYER-1
  0
POLYLINE
  8
LAYER-1
 66
  1
 70
  0
 62
  7
 10
0.755934
 20
4.493538
 30
0.000000
  0
VERTEX
  8
LAYER-1
 10
0.755934
 20
4.493538
 30
0.000000
  0
VERTEX
  8
LAYER-1
 10
0.755934
 20
2.794701
 30
0.000000
  0
SEQEND
  8
LAYER-1
  0
POLYLINE
  8
LAYER-1
 66
  1
 70
  0
 62
  7
 10
0.904344
 20
4.493538
 30
0.000000
  0
VERTEX
  8
LAYER-1
 10
0.904344
 20
4.493538
 30
0.000000
  0
VERTEX
  8
LAYER-1
 10
0.904344
 20
2.794701
 30
0.000000
  0
SEQEND
  8
LAYER-1
  0
POLYLINE
  8
LAYER-1
 66
  1
 70
  0
 62
  0
 10
0.031375
 20
4.389883
 30
0.000000
  0
VERTEX
  8
LAYER-1
 10
0.031375
 20
4.389883
 30
0.000000
  0
VERTEX
  8
LAYER-1
 10
0.145784
 20
4.389883
 30
0.000000
  0
SEQEND
  8
LAYER-1
  0
POLYLINE
  8
LAYER-1
 66
  1
 70
  0
 62
  0
 10
0.179704
 20
4.389883
 30
0.000000
  0
VERTEX
  8
LAYER-1
 10
0.179704
 20
4.389883
 30
0.000000
  0
VERTEX
  8
LAYER-1
 10
0.294257
 20
4.389883
 30
0.000000
  0
SEQEND
  8
LAYER-1
  0
POLYLINE
  8
LAYER-1
 66
  1
 70
  0
 62
  0
 10
0.328176
 20
4.389883
 30
0.000000
  0
VERTEX
  8
LAYER-1
 10
0.328176
 20
4.389883
 30
0.000000
  0
VERTEX
  8
LAYER-1
 10
0.442583
 20
4.389883
 30
0.000000
  0
SEQEND
  8
LAYER-1
  0
POLYLINE
  8
LAYER-1
 66
  1
 70
  0
 62
  0
 10
0.476503
 20
4.389883
 30
0.000000
  0
VERTEX
  8
LAYER-1
 10
0.476503
 20
4.389883
 30
0.000000
  0
VERTEX
  8
LAYER-1
 10
0.590910
 20
4.389883
 30
0.000000
  0
SEQEND
  8
LAYER-1
  0
POLYLINE
  8
LAYER-1
 66
  1
 70
  0
 62
  0
 10
0.624975
 20
4.389883
 30
0.000000
  0
VERTEX
  8
LAYER-1
 10
0.624975
 20
4.389883
 30
0.000000
  0
VERTEX
  8
LAYER-1
 10
0.739382
 20
4.389883
 30
0.000000
  0
SEQEND
  8
LAYER-1
  0
POLYLINE
  8
LAYER-1
 66
  1
 70
  0
 62
  0
 10
0.773447
 20
4.389883
 30
0.000000
  0
VERTEX
  8
LAYER-1
 10
0.773447
 20
4.389883
 30
0.000000
  0
VERTEX
  8
LAYER-1
 10
0.887854
 20
4.389883
 30
0.000000
  0
SEQEND
  8
LAYER-1
  0
POLYLINE
  8
LAYER-1
 66
  1
 70
  0
 62
  0
 10
0.921047
 20
4.389883
 30
0.000000
  0
VERTEX
  8
LAYER-1
 10
0.921047
 20
4.389883
 30
0.000000
  0
VERTEX
  8
LAYER-1
 10
1.036183
 20
4.389883
 30
0.000000
  0
SEQEND
  8
LAYER-1
  0
POLYLINE
  8
LAYER-1
 66
  1
 70
  0
 62
  0
 10
0.031375
 20
2.898355
 30
0.000000
  0
VERTEX
  8
LAYER-1
 10
0.031375
 20
2.898355
 30
0.000000
  0
VERTEX
  8
LAYER-1
 10
0.145716
 20
2.898355
 30
0.000000
  0
SEQEND
  8
LAYER-1
  0
POLYLINE
  8
LAYER-1
 66
  1
 70
  0
 62
  0
 10
0.179704
 20
2.898355
 30
0.000000
  0
VERTEX
  8
LAYER-1
 10
0.179704
 20
2.898355
 30
0.000000
  0
VERTEX
  8
LAYER-1
 10
0.294334
 20
2.898355
 30
0.000000
  0
SEQEND
  8
LAYER-1
  0
POLYLINE
  8
LAYER-1
 66
  1
 70
  0
 62
  0
 10
0.328176
 20
2.898355
 30
0.000000
  0
VERTEX
  8
LAYER-1
 10
0.328176
 20
2.898355
 30
0.000000
  0
VERTEX
  8
LAYER-1
 10
0.442515
 20
2.898355
 30
0.000000
  0
SEQEND
  8
LAYER-1
  0
POLYLINE
  8
LAYER-1
 66
  1
 70
  0
 62
  0
 10
0.476503
 20
2.898355
 30
0.000000
  0
VERTEX
  8
LAYER-1
 10
0.476503
 20
2.898355
 30
0.000000
  0
VERTEX
  8
LAYER-1
 10
0.590987
 20
2.898355
 30
0.000000
  0
SEQEND
  8
LAYER-1
  0
POLYLINE
  8
LAYER-1
 66
  1
 70
  0
 62
  0
 10
0.624975
 20
2.898355
 30
0.000000
  0
VERTEX
  8
LAYER-1
 10
0.624975
 20
2.898355
 30
0.000000
  0
VERTEX
  8
LAYER-1
 10
0.739314
 20
2.898355
 30
0.000000
  0
SEQEND
  8
LAYER-1
  0
POLYLINE
  8
LAYER-1
 66
  1
 70
  0
 62
  0
 10
0.773447
 20
2.898355
 30
0.000000
  0
VERTEX
  8
LAYER-1
 10
0.773447
 20
2.898355
 30
0.000000
  0
VERTEX
  8
LAYER-1
 10
0.887788
 20
2.898355
 30
0.000000
  0
SEQEND
  8
LAYER-1
  0
POLYLINE
  8
LAYER-1
 66
  1
 70
  0
 62
  0
 10
0.921774
 20
2.898355
 30
0.000000
  0
VERTEX
  8
LAYER-1
 10
0.921774
 20
2.898355
 30
0.000000
  0
VERTEX
  8
LAYER-1
 10
1.036261
 20
2.898355
 30
0.000000
  0
SEQEND
  8
LAYER-1
  0
POLYLINE
  8
LAYER-1
 66
  1
 70
  0
 62
  0
 10
0.013889
 20
2.794701
 30
0.000000
  0
VERTEX
  8
LAYER-1
 10
0.013889
 20
2.794701
 30
0.000000
  0
VERTEX
  8
LAYER-1
 10
1.053577
 20
2.794746
 30
0.000000
  0
SEQEND
  8
LAYER-1
  0
POLYLINE
  8
LAYER-1
 66
  1
 70
  0
 62
  0
 10
0.013889
 20
4.493538
 30
0.000000
  0
VERTEX
  8
LAYER-1
 10
0.013889
 20
4.493538
 30
0.000000
  0
VERTEX
  8
LAYER-1
 10
1.053577
 20
4.493538
 30
0.000000
  0
SEQEND
  8
LAYER-1
  0
POLYLINE
  8
LAYER-1
 66
  1
 70
  0
 62
  7
 10
0.230864
 20
4.491616
 30
0.000000
  0
VERTEX
  8
LAYER-1
 10
0.230864
 20
4.491616
 30
0.000000
  0
VERTEX
  8
LAYER-1
 10
0.230864
 20
4.388310
 30
0.000000
  0
SEQEND
  8
LAYER-1
  0
POLYLINE
  8
LAYER-1
 66
  1
 70
  0
 62
  7
 10
0.242783
 20
4.491616
 30
0.000000
  0
VERTEX
  8
LAYER-1
 10
0.242783
 20
4.491616
 30
0.000000
  0
VERTEX
  8
LAYER-1
 10
0.242783
 20
4.388310
 30
0.000000
  0
SEQEND
  8
LAYER-1
  0
POLYLINE
  8
LAYER-1
 66
  1
 70
  0
 62
  7
 10
0.528859
 20
4.493204
 30
0.000000
  0
VERTEX
  8
LAYER-1
 10
0.528859
 20
4.493204
 30
0.000000
  0
VERTEX
  8
LAYER-1
 10
0.528859
 20
4.389899
 30
0.000000
  0
SEQEND
  8
LAYER-1
  0
POLYLINE
  8
LAYER-1
 66
  1
 70
  0
 62
  7
 10
0.540778
 20
4.493204
 30
0.000000
  0
VERTEX
  8
LAYER-1
 10
0.540778
 20
4.493204
 30
0.000000
  0
VERTEX
  8
LAYER-1
 10
0.540778
 20
4.389899
 30
0.000000
  0
SEQEND
  8
LAYER-1
  0
POLYLINE
  8
LAYER-1
 66
  1
 70
  0
 62
  7
 10
0.826061
 20
4.490821
 30
0.000000
  0
VERTEX
  8
LAYER-1
 10
0.826061
 20
4.490821
 30
0.000000
  0
VERTEX
  8
LAYER-1
 10
0.826061
 20
4.387516
 30
0.000000
  0
SEQEND
  8
LAYER-1
  0
POLYLINE
  8
LAYER-1
 66
  1
 70
  0
 62
  7
 10
0.837980
 20
4.490821
 30
0.000000
  0
VERTEX
  8
LAYER-1
 10
0.837980
 20
4.490821
 30
0.000000
  0
VERTEX
  8
LAYER-1
 10
0.837980
 20
4.387516
 30
0.000000
  0
SEQEND
  8
LAYER-1
  0
POLYLINE
  8
LAYER-1
 66
  1
 70
  1
 62
  0
  0
VERTEX
  8
LAYER-1
 10
3.714956
 20
0.356888
 30
0.000000
  0
VERTEX
  8
LAYER-1
 10
3.748514
 20
0.356888
 30
0.000000
  0
VERTEX
  8
LAYER-1
 10
3.748514
 20
0.261383
 30
0.000000
  0
VERTEX
  8
LAYER-1
 10
3.714956
 20
0.261383
 30
0.000000
  0
SEQEND
  8
LAYER-1
  0
POLYLINE
  8
LAYER-1
 66
  1
 70
  0
 62
  0
 10
3.734997
 20
2.467844
 30
0.000000
  0
VERTEX
  8
LAYER-1
 10
3.734997
 20
2.467844
 30
0.000000
  0
VERTEX
  8
LAYER-1
 10
3.734998
 20
2.467844
 30
0.000000
  0
SEQEND
  8
LAYER-1
  0
POLYLINE
  8
LAYER-1
 66
  1
 70
  0
 62
  0
 10
3.742963
 20
2.459880
 30
0.000000
  0
VERTEX
  8
LAYER-1
 10
3.742963
 20
2.459880
 30
0.000000
  0
VERTEX
  8
LAYER-1
 10
3.742963
 20
2.210336
 30
0.000000
  0
SEQEND
  8
LAYER-1
  0
POLYLINE
  8
LAYER-1
 66
  1
 70
  0
 62
  0
 10
3.734998
 20
2.202372
 30
0.000000
  0
VERTEX
  8
LAYER-1
 10
3.734998
 20
2.202372
 30
0.000000
  0
VERTEX
  8
LAYER-1
 10
3.734997
 20
2.202372
 30
0.000000
  0
SEQEND
  8
LAYER-1
  0
POLYLINE
  8
LAYER-1
 66
  1
 70
  0
 62
  0
 10
3.727033
 20
2.210336
 30
0.000000
  0
VERTEX
  8
LAYER-1
 10
3.727033
 20
2.210336
 30
0.000000
  0
VERTEX
  8
LAYER-1
 10
3.727033
 20
2.459880
 30
0.000000
  0
SEQEND
  8
LAYER-1
  0
ARC
  8
LAYER-1
 62
  0
 10
3.734997
 20
2.459880
 30
0.000000
 40
0.007964
 50
270.000000
 51
0.000000
  0
ARC
  8
LAYER-1
 62
  0
 10
3.734997
 20
2.210336
 30
0.000000
 40
0.007964
 50
0.000000
 51
90.000000
  0
ARC
  8
LAYER-1
 62
  0
 10
3.734998
 20
2.210336
 30
0.000000
 40
0.007964
 50
90.000000
 51
180.000000
  0
ARC
  8
LAYER-1
 62
  0
 10
3.734998
 20
2.459880
 30
0.000000
 40
0.007964
 50
180.000000
 51
270.000000
  0
CIRCLE
  8
LAYER-1
 62
  0
 10
3.735330
 20
2.205025
 30
0.000000
 40
0.022565
  0
CIRCLE
  8
LAYER-1
 62
  0
 10
3.735330
 20
2.205025
 30
0.000000
 40
0.016522
  0
CIRCLE
  8
LAYER-1
 62
  0
 10
3.735330
 20
2.205025
 30
0.000000
 40
0.013746
  0
CIRCLE
  8
LAYER-1
 62
  0
 10
3.735330
 20
2.205025
 30
0.000000
 40
0.008860
  0
POLYLINE
  8
LAYER-1
 66
  1
 70
  0
 62
  0
 10
3.685053
 20
0.253722
 30
0.000000
  0
VERTEX
  8
LAYER-1
 10
3.685053
 20
0.253722
 30
0.000000
  0
VERTEX
  8
LAYER-1
 10
3.697831
 20
0.261287
 30
0.000000
  0
SEQEND
  8
LAYER-1
  0
POLYLINE
  8
LAYER-1
 66
  1
 70
  0
 62
  0
 10
3.685053
 20
0.253722
 30
0.000000
  0
VERTEX
  8
LAYER-1
 10
3.685053
 20
0.253722
 30
0.000000
  0
VERTEX
  8
LAYER-1
 10
3.685053
 20
0.252157
 30
0.000000
  0
SEQEND
  8
LAYER-1
  0
POLYLINE
  8
LAYER-1
 66
  1
 70
  1
 62
  0
  0
VERTEX
  8
LAYER-1
 10
3.703496
 20
0.252144
 30
0.000000
  0
VERTEX
  8
LAYER-1
 10
3.760083
 20
0.252144
 30
0.000000
  0
VERTEX
  8
LAYER-1
 10
3.760083
 20
0.064481
 30
0.000000
  0
VERTEX
  8
LAYER-1
 10
3.703496
 20
0.064481
 30
0.000000
  0
SEQEND
  8
LAYER-1
  0
POLYLINE
  8
LAYER-1
  6
LTYPE01
 66
  1
 70
  1
 62
  0
  0
VERTEX
  8
LAYER-1
  6
LTYPE01
 10
3.708190
 20
0.261269
 30
0.000000
  0
VERTEX
  8
LAYER-1
  6
LTYPE01
 10
3.755130
 20
0.261269
 30
0.000000
  0
VERTEX
  8
LAYER-1
  6
LTYPE01
 10
3.755130
 20
0.074041
 30
0.000000
  0
VERTEX
  8
LAYER-1
  6
LTYPE01
 10
3.708190
 20
0.074041
 30
0.000000
  0
SEQEND
  8
LAYER-1
  0
POLYLINE
  8
LAYER-1
 66
  1
 70
  0
 62
  0
 10
3.685053
 20
0.252157
 30
0.000000
  0
VERTEX
  8
LAYER-1
 10
3.685053
 20
0.252157
 30
0.000000
  0
VERTEX
  8
LAYER-1
 10
3.778670
 20
0.252157
 30
0.000000
  0
SEQEND
  8
LAYER-1
  0
POLYLINE
  8
LAYER-1
 66
  1
 70
  0
 62
  0
 10
3.778670
 20
0.252157
 30
0.000000
  0
VERTEX
  8
LAYER-1
 10
3.778670
 20
0.252157
 30
0.000000
  0
VERTEX
  8
LAYER-1
 10
3.778670
 20
0.253722
 30
0.000000
  0
SEQEND
  8
LAYER-1
  0
POLYLINE
  8
LAYER-1
 66
  1
 70
  0
 62
  0
 10
3.778670
 20
0.253722
 30
0.000000
  0
VERTEX
  8
LAYER-1
 10
3.778670
 20
0.253722
 30
0.000000
  0
VERTEX
  8
LAYER-1
 10
3.765631
 20
0.261287
 30
0.000000
  0
SEQEND
  8
LAYER-1
  0
POLYLINE
  8
LAYER-1
  6
LTYPE02
 66
  1
 70
  0
 62
  0
  6
LTYPE02
 10
3.709435
 20
0.160499
 30
0.000000
  0
VERTEX
  8
LAYER-1
  6
LTYPE02
 10
3.709435
 20
0.160499
 30
0.000000
  0
VERTEX
  8
LAYER-1
  6
LTYPE02
 10
3.709435
 20
0.126600
 30
0.000000
  0
SEQEND
  8
LAYER-1
  0
POLYLINE
  8
LAYER-1
  6
LTYPE02
 66
  1
 70
  0
 62
  0
  6
LTYPE02
 10
3.713343
 20
0.160499
 30
0.000000
  0
VERTEX
  8
LAYER-1
  6
LTYPE02
 10
3.713343
 20
0.160499
 30
0.000000
  0
VERTEX
  8
LAYER-1
  6
LTYPE02
 10
3.709435
 20
0.160499
 30
0.000000
  0
SEQEND
  8
LAYER-1
  0
POLYLINE
  8
LAYER-1
  6
LTYPE02
 66
  1
 70
  0
 62
  0
  6
LTYPE02
 10
3.713343
 20
0.160499
 30
0.000000
  0
VERTEX
  8
LAYER-1
  6
LTYPE02
 10
3.713343
 20
0.160499
 30
0.000000
  0
VERTEX
  8
LAYER-1
  6
LTYPE02
 10
3.713343
 20
0.164932
 30
0.000000
  0
SEQEND
  8
LAYER-1
  0
POLYLINE
  8
LAYER-1
  6
LTYPE02
 66
  1
 70
  0
 62
  0
  6
LTYPE02
 10
3.713343
 20
0.164932
 30
0.000000
  0
VERTEX
  8
LAYER-1
  6
LTYPE02
 10
3.713343
 20
0.164932
 30
0.000000
  0
VERTEX
  8
LAYER-1
  6
LTYPE02
 10
3.750603
 20
0.164932
 30
0.000000
  0
SEQEND
  8
LAYER-1
  0
POLYLINE
  8
LAYER-1
  6
LTYPE02
 66
  1
 70
  0
 62
  0
  6
LTYPE02
 10
3.709435
 20
0.126600
 30
0.000000
  0
VERTEX
  8
LAYER-1
  6
LTYPE02
 10
3.709435
 20
0.126600
 30
0.000000
  0
VERTEX
  8
LAYER-1
  6
LTYPE02
 10
3.753767
 20
0.126600
 30
0.000000
  0
SEQEND
  8
LAYER-1
  0
POLYLINE
  8
LAYER-1
  6
LTYPE02
 66
  1
 70
  0
 62
  0
  6
LTYPE02
 10
3.753767
 20
0.126600
 30
0.000000
  0
VERTEX
  8
LAYER-1
  6
LTYPE02
 10
3.753767
 20
0.126600
 30
0.000000
  0
VERTEX
  8
LAYER-1
  6
LTYPE02
 10
3.753767
 20
0.160499
 30
0.000000
  0
SEQEND
  8
LAYER-1
  0
POLYLINE
  8
LAYER-1
  6
LTYPE02
 66
  1
 70
  0
 62
  0
  6
LTYPE02
 10
3.750603
 20
0.160499
 30
0.000000
  0
VERTEX
  8
LAYER-1
  6
LTYPE02
 10
3.750603
 20
0.160499
 30
0.000000
  0
VERTEX
  8
LAYER-1
  6
LTYPE02
 10
3.753767
 20
0.160499
 30
0.000000
  0
SEQEND
  8
LAYER-1
  0
POLYLINE
  8
LAYER-1
  6
LTYPE02
 66
  1
 70
  0
 62
  0
  6
LTYPE02
 10
3.750603
 20
0.164932
 30
0.000000
  0
VERTEX
  8
LAYER-1
  6
LTYPE02
 10
3.750603
 20
0.164932
 30
0.000000
  0
VERTEX
  8
LAYER-1
  6
LTYPE02
 10
3.750603
 20
0.160499
 30
0.000000
  0
SEQEND
  8
LAYER-1
  0
POLYLINE
  8
LAYER-1
  6
LTYPE01
 66
  1
 70
  1
 62
  0
  0
VERTEX
  8
LAYER-1
  6
LTYPE01
 10
3.714572
 20
0.126454
 30
0.000000
  0
VERTEX
  8
LAYER-1
  6
LTYPE01
 10
3.748994
 20
0.126454
 30
0.000000
  0
VERTEX
  8
LAYER-1
  6
LTYPE01
 10
3.748994
 20
0.074300
 30
0.000000
  0
VERTEX
  8
LAYER-1
  6
LTYPE01
 10
3.714572
 20
0.074300
 30
0.000000
  0
SEQEND
  8
LAYER-1
  0
POLYLINE
  8
LAYER-1
  6
LTYPE02
 66
  1
 70
  0
 62
  0
  6
LTYPE02
 10
3.748994
 20
0.126454
 30
0.000000
  0
VERTEX
  8
LAYER-1
  6
LTYPE02
 10
3.748994
 20
0.126454
 30
0.000000
  0
VERTEX
  8
LAYER-1
  6
LTYPE02
 10
3.714572
 20
0.123586
 30
0.000000
  0
SEQEND
  8
LAYER-1
  0
POLYLINE
  8
LAYER-1
  6
LTYPE02
 66
  1
 70
  0
 62
  0
  6
LTYPE02
 10
3.748994
 20
0.124889
 30
0.000000
  0
VERTEX
  8
LAYER-1
  6
LTYPE02
 10
3.748994
 20
0.124889
 30
0.000000
  0
VERTEX
  8
LAYER-1
  6
LTYPE02
 10
3.714572
 20
0.121762
 30
0.000000
  0
SEQEND
  8
LAYER-1
  0
POLYLINE
  8
LAYER-1
  6
LTYPE02
 66
  1
 70
  0
 62
  0
  6
LTYPE02
 10
3.748994
 20
0.121500
 30
0.000000
  0
VERTEX
  8
LAYER-1
  6
LTYPE02
 10
3.748994
 20
0.121500
 30
0.000000
  0
VERTEX
  8
LAYER-1
  6
LTYPE02
 10
3.714572
 20
0.118630
 30
0.000000
  0
SEQEND
  8
LAYER-1
  0
POLYLINE
  8
LAYER-1
  6
LTYPE02
 66
  1
 70
  0
 62
  0
  6
LTYPE02
 10
3.748994
 20
0.119935
 30
0.000000
  0
VERTEX
  8
LAYER-1
  6
LTYPE02
 10
3.748994
 20
0.119935
 30
0.000000
  0
VERTEX
  8
LAYER-1
  6
LTYPE02
 10
3.714572
 20
0.116805
 30
0.000000
  0
SEQEND
  8
LAYER-1
  0
POLYLINE
  8
LAYER-1
  6
LTYPE02
 66
  1
 70
  0
 62
  0
  6
LTYPE02
 10
3.748994
 20
0.116352
 30
0.000000
  0
VERTEX
  8
LAYER-1
  6
LTYPE02
 10
3.748994
 20
0.116352
 30
0.000000
  0
VERTEX
  8
LAYER-1
  6
LTYPE02
 10
3.714572
 20
0.113482
 30
0.000000
  0
SEQEND
  8
LAYER-1
  0
POLYLINE
  8
LAYER-1
  6
LTYPE02
 66
  1
 70
  0
 62
  0
  6
LTYPE02
 10
3.748994
 20
0.114787
 30
0.000000
  0
VERTEX
  8
LAYER-1
  6
LTYPE02
 10
3.748994
 20
0.114787
 30
0.000000
  0
VERTEX
  8
LAYER-1
  6
LTYPE02
 10
3.714572
 20
0.111658
 30
0.000000
  0
SEQEND
  8
LAYER-1
  0
POLYLINE
  8
LAYER-1
  6
LTYPE02
 66
  1
 70
  0
 62
  0
  6
LTYPE02
 10
3.748930
 20
0.111852
 30
0.000000
  0
VERTEX
  8
LAYER-1
  6
LTYPE02
 10
3.748930
 20
0.111852
 30
0.000000
  0
VERTEX
  8
LAYER-1
  6
LTYPE02
 10
3.714507
 20
0.108983
 30
0.000000
  0
SEQEND
  8
LAYER-1
  0
POLYLINE
  8
LAYER-1
  6
LTYPE02
 66
  1
 70
  0
 62
  0
  6
LTYPE02
 10
3.748930
 20
0.110289
 30
0.000000
  0
VERTEX
  8
LAYER-1
  6
LTYPE02
 10
3.748930
 20
0.110289
 30
0.000000
  0
VERTEX
  8
LAYER-1
  6
LTYPE02
 10
3.714507
 20
0.107159
 30
0.000000
  0
SEQEND
  8
LAYER-1
  0
POLYLINE
  8
LAYER-1
  6
LTYPE02
 66
  1
 70
  0
 62
  0
  6
LTYPE02
 10
3.748930
 20
0.107029
 30
0.000000
  0
VERTEX
  8
LAYER-1
  6
LTYPE02
 10
3.748930
 20
0.107029
 30
0.000000
  0
VERTEX
  8
LAYER-1
  6
LTYPE02
 10
3.714507
 20
0.104160
 30
0.000000
  0
SEQEND
  8
LAYER-1
  0
POLYLINE
  8
LAYER-1
  6
LTYPE02
 66
  1
 70
  0
 62
  0
  6
LTYPE02
 10
3.748930
 20
0.105464
 30
0.000000
  0
VERTEX
  8
LAYER-1
  6
LTYPE02
 10
3.748930
 20
0.105464
 30
0.000000
  0
VERTEX
  8
LAYER-1
  6
LTYPE02
 10
3.714507
 20
0.102334
 30
0.000000
  0
SEQEND
  8
LAYER-1
  0
POLYLINE
  8
LAYER-1
  6
LTYPE02
 66
  1
 70
  0
 62
  0
  6
LTYPE02
 10
3.748930
 20
0.102073
 30
0.000000
  0
VERTEX
  8
LAYER-1
  6
LTYPE02
 10
3.748930
 20
0.102073
 30
0.000000
  0
VERTEX
  8
LAYER-1
  6
LTYPE02
 10
3.714507
 20
0.099204
 30
0.000000
  0
SEQEND
  8
LAYER-1
  0
POLYLINE
  8
LAYER-1
  6
LTYPE02
 66
  1
 70
  0
 62
  0
  6
LTYPE02
 10
3.748930
 20
0.100510
 30
0.000000
  0
VERTEX
  8
LAYER-1
  6
LTYPE02
 10
3.748930
 20
0.100510
 30
0.000000
  0
VERTEX
  8
LAYER-1
  6
LTYPE02
 10
3.714507
 20
0.097378
 30
0.000000
  0
SEQEND
  8
LAYER-1
  0
POLYLINE
  8
LAYER-1
  6
LTYPE02
 66
  1
 70
  0
 62
  0
  6
LTYPE02
 10
3.748930
 20
0.096923
 30
0.000000
  0
VERTEX
  8
LAYER-1
  6
LTYPE02
 10
3.748930
 20
0.096923
 30
0.000000
  0
VERTEX
  8
LAYER-1
  6
LTYPE02
 10
3.714507
 20
0.094054
 30
0.000000
  0
SEQEND
  8
LAYER-1
  0
POLYLINE
  8
LAYER-1
  6
LTYPE02
 66
  1
 70
  0
 62
  0
  6
LTYPE02
 10
3.748930
 20
0.095358
 30
0.000000
  0
VERTEX
  8
LAYER-1
  6
LTYPE02
 10
3.748930
 20
0.095358
 30
0.000000
  0
VERTEX
  8
LAYER-1
  6
LTYPE02
 10
3.714507
 20
0.092230
 30
0.000000
  0
SEQEND
  8
LAYER-1
  0
POLYLINE
  8
LAYER-1
  6
LTYPE02
 66
  1
 70
  0
 62
  0
  6
LTYPE02
 10
3.748864
 20
0.092424
 30
0.000000
  0
VERTEX
  8
LAYER-1
  6
LTYPE02
 10
3.748864
 20
0.092424
 30
0.000000
  0
VERTEX
  8
LAYER-1
  6
LTYPE02
 10
3.714443
 20
0.089556
 30
0.000000
  0
SEQEND
  8
LAYER-1
  0
POLYLINE
  8
LAYER-1
  6
LTYPE02
 66
  1
 70
  0
 62
  0
  6
LTYPE02
 10
3.748864
 20
0.090861
 30
0.000000
  0
VERTEX
  8
LAYER-1
  6
LTYPE02
 10
3.748864
 20
0.090861
 30
0.000000
  0
VERTEX
  8
LAYER-1
  6
LTYPE02
 10
3.714443
 20
0.087732
 30
0.000000
  0
SEQEND
  8
LAYER-1
  0
POLYLINE
  8
LAYER-1
  6
LTYPE02
 66
  1
 70
  0
 62
  0
  6
LTYPE02
 10
3.748994
 20
0.088057
 30
0.000000
  0
VERTEX
  8
LAYER-1
  6
LTYPE02
 10
3.748994
 20
0.088057
 30
0.000000
  0
VERTEX
  8
LAYER-1
  6
LTYPE02
 10
3.714572
 20
0.085188
 30
0.000000
  0
SEQEND
  8
LAYER-1
  0
POLYLINE
  8
LAYER-1
  6
LTYPE02
 66
  1
 70
  0
 62
  0
  6
LTYPE02
 10
3.748994
 20
0.086492
 30
0.000000
  0
VERTEX
  8
LAYER-1
  6
LTYPE02
 10
3.748994
 20
0.086492
 30
0.000000
  0
VERTEX
  8
LAYER-1
  6
LTYPE02
 10
3.714572
 20
0.083364
 30
0.000000
  0
SEQEND
  8
LAYER-1
  0
POLYLINE
  8
LAYER-1
  6
LTYPE02
 66
  1
 70
  0
 62
  0
  6
LTYPE02
 10
3.748994
 20
0.083103
 30
0.000000
  0
VERTEX
  8
LAYER-1
  6
LTYPE02
 10
3.748994
 20
0.083103
 30
0.000000
  0
VERTEX
  8
LAYER-1
  6
LTYPE02
 10
3.714572
 20
0.080234
 30
0.000000
  0
SEQEND
  8
LAYER-1
  0
POLYLINE
  8
LAYER-1
  6
LTYPE02
 66
  1
 70
  0
 62
  0
  6
LTYPE02
 10
3.748994
 20
0.081538
 30
0.000000
  0
VERTEX
  8
LAYER-1
  6
LTYPE02
 10
3.748994
 20
0.081538
 30
0.000000
  0
VERTEX
  8
LAYER-1
  6
LTYPE02
 10
3.714572
 20
0.078408
 30
0.000000
  0
SEQEND
  8
LAYER-1
  0
POLYLINE
  8
LAYER-1
  6
LTYPE02
 66
  1
 70
  0
 62
  0
  6
LTYPE02
 10
3.748994
 20
0.077953
 30
0.000000
  0
VERTEX
  8
LAYER-1
  6
LTYPE02
 10
3.748994
 20
0.077953
 30
0.000000
  0
VERTEX
  8
LAYER-1
  6
LTYPE02
 10
3.714572
 20
0.075083
 30
0.000000
  0
SEQEND
  8
LAYER-1
  0
POLYLINE
  8
LAYER-1
  6
LTYPE02
 66
  1
 70
  0
 62
  0
  6
LTYPE02
 10
3.748994
 20
0.076388
 30
0.000000
  0
VERTEX
  8
LAYER-1
  6
LTYPE02
 10
3.748994
 20
0.076388
 30
0.000000
  0
VERTEX
  8
LAYER-1
  6
LTYPE02
 10
3.725981
 20
0.074300
 30
0.000000
  0
SEQEND
  8
LAYER-1
  0
POLYLINE
  8
LAYER-1
  6
LTYPE02
 66
  1
 70
  0
 62
  0
  6
LTYPE02
 10
3.715564
 20
0.185665
 30
0.000000
  0
VERTEX
  8
LAYER-1
  6
LTYPE02
 10
3.715564
 20
0.185665
 30
0.000000
  0
VERTEX
  8
LAYER-1
  6
LTYPE02
 10
3.715564
 20
0.261287
 30
0.000000
  0
SEQEND
  8
LAYER-1
  0
POLYLINE
  8
LAYER-1
  6
LTYPE02
 66
  1
 70
  0
 62
  0
  6
LTYPE02
 10
3.747898
 20
0.185665
 30
0.000000
  0
VERTEX
  8
LAYER-1
  6
LTYPE02
 10
3.747898
 20
0.185665
 30
0.000000
  0
VERTEX
  8
LAYER-1
  6
LTYPE02
 10
3.747898
 20
0.261287
 30
0.000000
  0
SEQEND
  8
LAYER-1
  0
POLYLINE
  8
LAYER-1
  6
LTYPE01
 66
  1
 70
  0
 62
  0
  6
LTYPE01
 10
3.715563
 20
0.185665
 30
0.000000
  0
VERTEX
  8
LAYER-1
  6
LTYPE01
 10
3.715563
 20
0.185665
 30
0.000000
  0
VERTEX
  8
LAYER-1
  6
LTYPE01
 10
3.718330
 20
0.176201
 30
0.000000
  0
VERTEX
  8
LAYER-1
  6
LTYPE01
 10
3.729763
 20
0.171466
 30
0.000000
  0
VERTEX
  8
LAYER-1
  6
LTYPE01
 10
3.741195
 20
0.176201
 30
0.000000
  0
VERTEX
  8
LAYER-1
  6
LTYPE01
 10
3.747899
 20
0.185665
 30
0.000000
  0
SEQEND
  8
LAYER-1
  0
POLYLINE
  8
LAYER-1
 66
  1
 70
  0
 62
  0
 10
3.697831
 20
0.261287
 30
0.000000
  0
VERTEX
  8
LAYER-1
 10
3.697831
 20
0.261287
 30
0.000000
  0
VERTEX
  8
LAYER-1
 10
3.765631
 20
0.261287
 30
0.000000
  0
SEQEND
  8
LAYER-1
  0
POLYLINE
  8
LAYER-1
 66
  1
 70
  1
 62
  0
  0
VERTEX
  8
LAYER-1
 10
2.804647
 20
7.490250
 30
0.000000
  0
VERTEX
  8
LAYER-1
 10
2.829743
 20
7.490250
 30
0.000000
  0
VERTEX
  8
LAYER-1
 10
2.829743
 20
7.423932
 30
0.000000
  0
VERTEX
  8
LAYER-1
 10
2.804647
 20
7.423932
 30
0.000000
  0
SEQEND
  8
LAYER-1
  0
POLYLINE
  8
LAYER-1
 66
  1
 70
  1
 62
  0
  0
VERTEX
  8
LAYER-1
 10
1.983467
 20
7.490250
 30
0.000000
  0
VERTEX
  8
LAYER-1
 10
2.008562
 20
7.490250
 30
0.000000
  0
VERTEX
  8
LAYER-1
 10
2.008562
 20
7.423932
 30
0.000000
  0
VERTEX
  8
LAYER-1
 10
1.983467
 20
7.423932
 30
0.000000
  0
SEQEND
  8
LAYER-1
  0
POLYLINE
  8
LAYER-1
 66
  1
 70
  1
 62
  0
  0
VERTEX
  8
LAYER-1
 10
4.706557
 20
7.490250
 30
0.000000
  0
VERTEX
  8
LAYER-1
 10
4.731652
 20
7.490250
 30
0.000000
  0
VERTEX
  8
LAYER-1
 10
4.731652
 20
7.423932
 30
0.000000
  0
VERTEX
  8
LAYER-1
 10
4.706557
 20
7.423932
 30
0.000000
  0
SEQEND
  8
LAYER-1
  0
POLYLINE
  8
LAYER-1
 66
  1
 70
  1
 62
  0
  0
VERTEX
  8
LAYER-1
 10
5.527738
 20
7.490250
 30
0.000000
  0
VERTEX
  8
LAYER-1
 10
5.552833
 20
7.490250
 30
0.000000
  0
VERTEX
  8
LAYER-1
 10
5.552833
 20
7.423932
 30
0.000000
  0
VERTEX
  8
LAYER-1
 10
5.527738
 20
7.423932
 30
0.000000
  0
SEQEND
  8
LAYER-1
  0
POLYLINE
  8
LAYER-1
 66
  1
 70
  0
 62
  0
 10
2.181858
 20
7.153926
 30
0.000000
  0
VERTEX
  8
LAYER-1
 10
2.181858
 20
7.153926
 30
0.000000
  0
VERTEX
  8
LAYER-1
 10
2.217455
 20
7.153926
 30
0.000000
  0
SEQEND
  8
LAYER-1
  0
POLYLINE
  8
LAYER-1
 66
  1
 70
  0
 62
  0
 10
2.999729
 20
7.153926
 30
0.000000
  0
VERTEX
  8
LAYER-1
 10
2.999729
 20
7.153926
 30
0.000000
  0
VERTEX
  8
LAYER-1
 10
3.035323
 20
7.153926
 30
0.000000
  0
SEQEND
  8
LAYER-1
  0
POLYLINE
  8
LAYER-1
 66
  1
 70
  0
 62
  0
 10
3.647862
 20
7.153850
 30
0.000000
  0
VERTEX
  8
LAYER-1
 10
3.647862
 20
7.153850
 30
0.000000
  0
VERTEX
  8
LAYER-1
 10
3.683457
 20
7.153850
 30
0.000000
  0
SEQEND
  8
LAYER-1
  0
POLYLINE
  8
LAYER-1
 66
  1
 70
  0
 62
  0
 10
5.354019
 20
7.153926
 30
0.000000
  0
VERTEX
  8
LAYER-1
 10
5.354019
 20
7.153926
 30
0.000000
  0
VERTEX
  8
LAYER-1
 10
5.318424
 20
7.153926
 30
0.000000
  0
SEQEND
  8
LAYER-1
  0
POLYLINE
  8
LAYER-1
 66
  1
 70
  0
 62
  0
 10
4.536144
 20
7.153926
 30
0.000000
  0
VERTEX
  8
LAYER-1
 10
4.536144
 20
7.153926
 30
0.000000
  0
VERTEX
  8
LAYER-1
 10
4.500553
 20
7.153926
 30
0.000000
  0
SEQEND
  8
LAYER-1
  0
POLYLINE
  8
LAYER-1
 66
  1
 70
  0
 62
  0
 10
3.888006
 20
7.153849
 30
0.000000
  0
VERTEX
  8
LAYER-1
 10
3.888006
 20
7.153849
 30
0.000000
  0
VERTEX
  8
LAYER-1
 10
3.852414
 20
7.153849
 30
0.000000
  0
SEQEND
  8
LAYER-1
  0
TEXT
  8
LAYER-1
 62
  0
 10
1.087634
 20
7.086170
 30
0.000000
 40
0.125000
  1
Track
 72
  5
 11
1.573745
 21
7.086170
 31
0.000000
  0
TEXT
  8
LAYER-1
 62
  0
 10
5.865411
 20
5.558392
 30
0.000000
 40
0.104167
  1
1/16
 72
  5
 11
6.226523
 21
5.558392
 31
0.000000
  0
TEXT
  8
LAYER-1
 62
  0
 10
6.226523
 20
5.558392
 30
0.000000
 40
0.125000
  1
" (1,6mm)
 72
  5
 11
7.045967
 21
5.558392
 31
0.000000
  0
TEXT
  8
LAYER-1
 62
  0
 10
5.865411
 20
5.363948
 30
0.000000
 40
0.125000
  1
Polycarbonate
 72
  5
 11
7.018189
 21
5.363948
 31
0.000000
  0
POLYLINE
  8
LAYER-1
 66
  1
 70
  0
 62
  0
 10
5.826783
 20
5.484607
 30
0.000000
  0
VERTEX
  8
LAYER-1
 10
5.826783
 20
5.484607
 30
0.000000
  0
VERTEX
  8
LAYER-1
 10
5.585707
 20
5.799702
 30
0.000000
  0
SEQEND
  8
LAYER-1
  0
POLYLINE
  8
LAYER-1
 66
  1
 70
  1
 62
  0
  0
VERTEX
  8
LAYER-1
 10
5.573745
 20
5.815336
 30
0.000000
  0
VERTEX
  8
LAYER-1
 10
5.649035
 20
5.785501
 30
0.000000
  0
VERTEX
  8
LAYER-1
 10
5.615943
 20
5.760182
 30
0.000000
  0
VERTEX
  8
LAYER-1
 10
5.582851
 20
5.734864
 30
0.000000
  0
VERTEX
  8
LAYER-1
 10
5.573745
 20
5.815336
 30
0.000000
  0
SEQEND
  8
LAYER-1
  0
POLYLINE
  8
LAYER-1
 66
  1
 70
  0
 62
  0
 10
0.768283
 20
0.037543
 30
0.000000
  0
VERTEX
  8
LAYER-1
 10
0.768283
 20
0.037543
 30
0.000000
  0
VERTEX
  8
LAYER-1
 10
0.794766
 20
0.034087
 30
0.000000
  0
VERTEX
  8
LAYER-1
 10
0.814102
 20
0.034087
 30
0.000000
  0
VERTEX
  8
LAYER-1
 10
0.833438
 20
0.037560
 30
0.000000
  0
VERTEX
  8
LAYER-1
 10
0.852774
 20
0.037560
 30
0.000000
  0
VERTEX
  8
LAYER-1
 10
0.899181
 20
0.044503
 30
0.000000
  0
VERTEX
  8
LAYER-1
 10
0.933986
 20
0.054921
 30
0.000000
  0
VERTEX
  8
LAYER-1
 10
0.956223
 20
0.059261
 30
0.000000
  0
VERTEX
  8
LAYER-1
 10
0.977976
 20
0.060997
 30
0.000000
  0
VERTEX
  8
LAYER-1
 10
1.007463
 20
0.058393
 30
0.000000
  0
VERTEX
  8
LAYER-1
 10
1.038401
 20
0.054921
 30
0.000000
  0
VERTEX
  8
LAYER-1
 10
1.065472
 20
0.047976
 30
0.000000
  0
VERTEX
  8
LAYER-1
 10
1.084808
 20
0.044503
 30
0.000000
  0
VERTEX
  8
LAYER-1
 10
1.115746
 20
0.041032
 30
0.000000
  0
VERTEX
  8
LAYER-1
 10
1.135082
 20
0.037560
 30
0.000000
  0
VERTEX
  8
LAYER-1
 10
1.158285
 20
0.034087
 30
0.000000
  0
VERTEX
  8
LAYER-1
 10
1.185356
 20
0.034087
 30
0.000000
  0
VERTEX
  8
LAYER-1
 10
1.212426
 20
0.034087
 30
0.000000
  0
VERTEX
  8
LAYER-1
 10
1.235630
 20
0.034087
 30
0.000000
  0
VERTEX
  8
LAYER-1
 10
1.258833
 20
0.030615
 30
0.000000
  0
VERTEX
  8
LAYER-1
 10
1.297505
 20
0.030615
 30
0.000000
  0
VERTEX
  8
LAYER-1
 10
1.328443
 20
0.030615
 30
0.000000
  0
VERTEX
  8
LAYER-1
 10
1.347779
 20
0.027143
 30
0.000000
  0
VERTEX
  8
LAYER-1
 10
1.378718
 20
0.023671
 30
0.000000
  0
VERTEX
  8
LAYER-1
 10
1.409655
 20
0.020198
 30
0.000000
  0
VERTEX
  8
LAYER-1
 10
1.448327
 20
0.020198
 30
0.000000
  0
VERTEX
  8
LAYER-1
 10
1.479265
 20
0.020198
 30
0.000000
  0
VERTEX
  8
LAYER-1
 10
1.517937
 20
0.020198
 30
0.000000
  0
VERTEX
  8
LAYER-1
 10
1.548875
 20
0.027143
 30
0.000000
  0
VERTEX
  8
LAYER-1
 10
1.572079
 20
0.027143
 30
0.000000
  0
VERTEX
  8
LAYER-1
 10
1.591414
 20
0.030615
 30
0.000000
  0
VERTEX
  8
LAYER-1
 10
1.614618
 20
0.030615
 30
0.000000
  0
VERTEX
  8
LAYER-1
 10
1.633954
 20
0.030615
 30
0.000000
  0
VERTEX
  8
LAYER-1
 10
1.676494
 20
0.030615
 30
0.000000
  0
VERTEX
  8
LAYER-1
 10
1.722900
 20
0.023671
 30
0.000000
  0
VERTEX
  8
LAYER-1
 10
1.765440
 20
0.020198
 30
0.000000
  0
VERTEX
  8
LAYER-1
 10
1.827316
 20
0.013253
 30
0.000000
  0
VERTEX
  8
LAYER-1
 10
1.885324
 20
0.006310
 30
0.000000
  0
VERTEX
  8
LAYER-1
 10
1.935598
 20
0.006310
 30
0.000000
  0
VERTEX
  8
LAYER-1
 10
1.962669
 20
0.006310
 30
0.000000
  0
VERTEX
  8
LAYER-1
 10
1.997474
 20
0.006310
 30
0.000000
  0
VERTEX
  8
LAYER-1
 10
2.017777
 20
0.007178
 30
0.000000
  0
VERTEX
  8
LAYER-1
 10
2.054999
 20
0.009347
 30
0.000000
  0
VERTEX
  8
LAYER-1
 10
2.101889
 20
0.020198
 30
0.000000
  0
VERTEX
  8
LAYER-1
 10
2.144428
 20
0.034087
 30
0.000000
  0
VERTEX
  8
LAYER-1
 10
2.179233
 20
0.044503
 30
0.000000
  0
VERTEX
  8
LAYER-1
 10
2.206304
 20
0.054921
 30
0.000000
  0
VERTEX
  8
LAYER-1
 10
2.229507
 20
0.061865
 30
0.000000
  0
VERTEX
  8
LAYER-1
 10
2.252710
 20
0.061865
 30
0.000000
  0
VERTEX
  8
LAYER-1
 10
2.275914
 20
0.061865
 30
0.000000
  0
VERTEX
  8
LAYER-1
 10
2.299117
 20
0.061865
 30
0.000000
  0
VERTEX
  8
LAYER-1
 10
2.333923
 20
0.054921
 30
0.000000
  0
VERTEX
  8
LAYER-1
 10
2.364860
 20
0.047976
 30
0.000000
  0
VERTEX
  8
LAYER-1
 10
2.388064
 20
0.041032
 30
0.000000
  0
VERTEX
  8
LAYER-1
 10
2.407400
 20
0.037560
 30
0.000000
  0
VERTEX
  8
LAYER-1
 10
2.430603
 20
0.030615
 30
0.000000
  0
VERTEX
  8
LAYER-1
 10
2.449940
 20
0.023671
 30
0.000000
  0
VERTEX
  8
LAYER-1
 10
2.473142
 20
0.020198
 30
0.000000
  0
VERTEX
  8
LAYER-1
 10
2.492479
 20
0.020198
 30
0.000000
  0
VERTEX
  8
LAYER-1
 10
2.523417
 20
0.016726
 30
0.000000
  0
VERTEX
  8
LAYER-1
 10
2.550487
 20
0.016726
 30
0.000000
  0
VERTEX
  8
LAYER-1
 10
2.585292
 20
0.016726
 30
0.000000
  0
VERTEX
  8
LAYER-1
 10
2.612363
 20
0.020198
 30
0.000000
  0
VERTEX
  8
LAYER-1
 10
2.647168
 20
0.030615
 30
0.000000
  0
VERTEX
  8
LAYER-1
 10
2.666504
 20
0.030615
 30
0.000000
  0
VERTEX
  8
LAYER-1
 10
2.689707
 20
0.030615
 30
0.000000
  0
VERTEX
  8
LAYER-1
 10
2.709044
 20
0.030615
 30
0.000000
  0
VERTEX
  8
LAYER-1
 10
2.732247
 20
0.034087
 30
0.000000
  0
VERTEX
  8
LAYER-1
 10
2.755450
 20
0.037560
 30
0.000000
  0
VERTEX
  8
LAYER-1
 10
2.786388
 20
0.037560
 30
0.000000
  0
VERTEX
  8
LAYER-1
 10
2.817326
 20
0.037560
 30
0.000000
  0
VERTEX
  8
LAYER-1
 10
2.840529
 20
0.037560
 30
0.000000
  0
VERTEX
  8
LAYER-1
 10
2.863733
 20
0.037560
 30
0.000000
  0
VERTEX
  8
LAYER-1
 10
2.883069
 20
0.034087
 30
0.000000
  0
VERTEX
  8
LAYER-1
 10
2.902405
 20
0.030615
 30
0.000000
  0
VERTEX
  8
LAYER-1
 10
2.921741
 20
0.027143
 30
0.000000
  0
VERTEX
  8
LAYER-1
 10
2.941077
 20
0.023671
 30
0.000000
  0
VERTEX
  8
LAYER-1
 10
2.972015
 20
0.016726
 30
0.000000
  0
VERTEX
  8
LAYER-1
 10
2.995218
 20
0.013253
 30
0.000000
  0
VERTEX
  8
LAYER-1
 10
3.018421
 20
0.013253
 30
0.000000
  0
VERTEX
  8
LAYER-1
 10
3.037758
 20
0.013253
 30
0.000000
  0
VERTEX
  8
LAYER-1
 10
3.064828
 20
0.013253
 30
0.000000
  0
VERTEX
  8
LAYER-1
 10
3.095766
 20
0.016726
 30
0.000000
  0
VERTEX
  8
LAYER-1
 10
3.149907
 20
0.027143
 30
0.000000
  0
VERTEX
  8
LAYER-1
 10
3.196314
 20
0.037560
 30
0.000000
  0
VERTEX
  8
LAYER-1
 10
3.238854
 20
0.044503
 30
0.000000
  0
VERTEX
  8
LAYER-1
 10
3.269791
 20
0.047976
 30
0.000000
  0
VERTEX
  8
LAYER-1
 10
3.308464
 20
0.051448
 30
0.000000
  0
VERTEX
  8
LAYER-1
 10
3.339402
 20
0.054921
 30
0.000000
  0
VERTEX
  8
LAYER-1
 10
3.365022
 20
0.055789
 30
0.000000
  0
VERTEX
  8
LAYER-1
 10
3.382424
 20
0.053619
 30
0.000000
  0
VERTEX
  8
LAYER-1
 10
3.403694
 20
0.048844
 30
0.000000
  0
VERTEX
  8
LAYER-1
 10
3.424481
 20
0.037560
 30
0.000000
  0
VERTEX
  8
LAYER-1
 10
3.447684
 20
0.034087
 30
0.000000
  0
VERTEX
  8
LAYER-1
 10
3.467020
 20
0.034087
 30
0.000000
  0
VERTEX
  8
LAYER-1
 10
3.486357
 20
0.034087
 30
0.000000
  0
VERTEX
  8
LAYER-1
 10
3.505693
 20
0.034087
 30
0.000000
  0
VERTEX
  8
LAYER-1
 10
3.536630
 20
0.034087
 30
0.000000
  0
VERTEX
  8
LAYER-1
 10
3.559834
 20
0.034087
 30
0.000000
  0
VERTEX
  8
LAYER-1
 10
3.583037
 20
0.034087
 30
0.000000
  0
VERTEX
  8
LAYER-1
 10
3.602373
 20
0.034087
 30
0.000000
  0
VERTEX
  8
LAYER-1
 10
3.625577
 20
0.034087
 30
0.000000
  0
VERTEX
  8
LAYER-1
 10
3.648780
 20
0.034087
 30
0.000000
  0
VERTEX
  8
LAYER-1
 10
3.668117
 20
0.034087
 30
0.000000
  0
VERTEX
  8
LAYER-1
 10
3.695187
 20
0.034087
 30
0.000000
  0
VERTEX
  8
LAYER-1
 10
3.718389
 20
0.030615
 30
0.000000
  0
VERTEX
  8
LAYER-1
 10
3.740626
 20
0.022803
 30
0.000000
  0
VERTEX
  8
LAYER-1
 10
3.781233
 20
0.020198
 30
0.000000
  0
VERTEX
  8
LAYER-1
 10
3.818938
 20
0.023671
 30
0.000000
  0
VERTEX
  8
LAYER-1
 10
3.838274
 20
0.030615
 30
0.000000
  0
VERTEX
  8
LAYER-1
 10
3.861477
 20
0.037560
 30
0.000000
  0
VERTEX
  8
LAYER-1
 10
3.881297
 20
0.041466
 30
0.000000
  0
VERTEX
  8
LAYER-1
 10
3.904017
 20
0.047976
 30
0.000000
  0
VERTEX
  8
LAYER-1
 10
3.927220
 20
0.047976
 30
0.000000
  0
VERTEX
  8
LAYER-1
 10
3.950423
 20
0.044503
 30
0.000000
  0
VERTEX
  8
LAYER-1
 10
3.973627
 20
0.044503
 30
0.000000
  0
VERTEX
  8
LAYER-1
 10
3.996830
 20
0.044503
 30
0.000000
  0
VERTEX
  8
LAYER-1
 10
4.016167
 20
0.041032
 30
0.000000
  0
VERTEX
  8
LAYER-1
 10
4.043237
 20
0.041032
 30
0.000000
  0
VERTEX
  8
LAYER-1
 10
4.074175
 20
0.041032
 30
0.000000
  0
VERTEX
  8
LAYER-1
 10
4.105113
 20
0.047976
 30
0.000000
  0
VERTEX
  8
LAYER-1
 10
4.124449
 20
0.051448
 30
0.000000
  0
VERTEX
  8
LAYER-1
 10
4.151519
 20
0.051448
 30
0.000000
  0
VERTEX
  8
LAYER-1
 10
4.174723
 20
0.054921
 30
0.000000
  0
VERTEX
  8
LAYER-1
 10
4.205661
 20
0.058393
 30
0.000000
  0
VERTEX
  8
LAYER-1
 10
4.228864
 20
0.058393
 30
0.000000
  0
VERTEX
  8
LAYER-1
 10
4.259803
 20
0.054921
 30
0.000000
  0
VERTEX
  8
LAYER-1
 10
4.302342
 20
0.044503
 30
0.000000
  0
VERTEX
  8
LAYER-1
 10
4.333280
 20
0.034087
 30
0.000000
  0
VERTEX
  8
LAYER-1
 10
4.368084
 20
0.023671
 30
0.000000
  0
VERTEX
  8
LAYER-1
 10
4.411108
 20
0.016725
 30
0.000000
  0
VERTEX
  8
LAYER-1
 10
4.458481
 20
0.017593
 30
0.000000
  0
VERTEX
  8
LAYER-1
 10
4.513589
 20
0.020197
 30
0.000000
  0
VERTEX
  8
LAYER-1
 10
4.580781
 20
0.020197
 30
0.000000
  0
VERTEX
  8
LAYER-1
 10
4.626222
 20
0.008913
 30
0.000000
  0
VERTEX
  8
LAYER-1
 10
4.656193
 20
0.002836
 30
0.000000
  0
VERTEX
  8
LAYER-1
 10
4.679397
 20
0.001968
 30
0.000000
  0
VERTEX
  8
LAYER-1
 10
4.714202
 20
0.001969
 30
0.000000
  0
VERTEX
  8
LAYER-1
 10
4.739338
 20
0.006310
 30
0.000000
  0
VERTEX
  8
LAYER-1
 10
4.766409
 20
0.016726
 30
0.000000
  0
VERTEX
  8
LAYER-1
 10
4.801214
 20
0.023671
 30
0.000000
  0
VERTEX
  8
LAYER-1
 10
4.828284
 20
0.030615
 30
0.000000
  0
VERTEX
  8
LAYER-1
 10
4.851488
 20
0.034087
 30
0.000000
  0
VERTEX
  8
LAYER-1
 10
4.874691
 20
0.037560
 30
0.000000
  0
VERTEX
  8
LAYER-1
 10
4.901761
 20
0.041032
 30
0.000000
  0
VERTEX
  8
LAYER-1
 10
4.928832
 20
0.047976
 30
0.000000
  0
VERTEX
  8
LAYER-1
 10
4.948168
 20
0.051448
 30
0.000000
  0
VERTEX
  8
LAYER-1
 10
4.979106
 20
0.054921
 30
0.000000
  0
VERTEX
  8
LAYER-1
 10
5.002310
 20
0.061865
 30
0.000000
  0
VERTEX
  8
LAYER-1
 10
5.025996
 20
0.072716
 30
0.000000
  0
VERTEX
  8
LAYER-1
 10
5.048716
 20
0.079226
 30
0.000000
  0
VERTEX
  8
LAYER-1
 10
5.071919
 20
0.079226
 30
0.000000
  0
VERTEX
  8
LAYER-1
 10
5.098989
 20
0.079226
 30
0.000000
  0
VERTEX
  8
LAYER-1
 10
5.126060
 20
0.079226
 30
0.000000
  0
VERTEX
  8
LAYER-1
 10
5.164733
 20
0.075753
 30
0.000000
  0
VERTEX
  8
LAYER-1
 10
5.218874
 20
0.072282
 30
0.000000
  0
VERTEX
  8
LAYER-1
 10
5.261414
 20
0.072282
 30
0.000000
  0
VERTEX
  8
LAYER-1
 10
5.292351
 20
0.072282
 30
0.000000
  0
VERTEX
  8
LAYER-1
 10
5.315555
 20
0.072282
 30
0.000000
  0
VERTEX
  8
LAYER-1
 10
5.338758
 20
0.072282
 30
0.000000
  0
VERTEX
  8
LAYER-1
 10
5.369696
 20
0.075753
 30
0.000000
  0
VERTEX
  8
LAYER-1
 10
5.408369
 20
0.075753
 30
0.000000
  0
VERTEX
  8
LAYER-1
 10
5.439306
 20
0.075753
 30
0.000000
  0
VERTEX
  8
LAYER-1
 10
5.462510
 20
0.079226
 30
0.000000
  0
VERTEX
  8
LAYER-1
 10
5.493447
 20
0.079226
 30
0.000000
  0
VERTEX
  8
LAYER-1
 10
5.512783
 20
0.079226
 30
0.000000
  0
VERTEX
  8
LAYER-1
 10
5.543722
 20
0.070546
 30
0.000000
  0
VERTEX
  8
LAYER-1
 10
5.570792
 20
0.058393
 30
0.000000
  0
VERTEX
  8
LAYER-1
 10
5.605596
 20
0.044503
 30
0.000000
  0
VERTEX
  8
LAYER-1
 10
5.632667
 20
0.037560
 30
0.000000
  0
VERTEX
  8
LAYER-1
 10
5.663606
 20
0.030615
 30
0.000000
  0
VERTEX
  8
LAYER-1
 10
5.691159
 20
0.028445
 30
0.000000
  0
VERTEX
  8
LAYER-1
 10
5.717747
 20
0.027143
 30
0.000000
  0
VERTEX
  8
LAYER-1
 10
5.740951
 20
0.030615
 30
0.000000
  0
VERTEX
  8
LAYER-1
 10
5.764153
 20
0.037560
 30
0.000000
  0
VERTEX
  8
LAYER-1
 10
5.791224
 20
0.041032
 30
0.000000
  0
VERTEX
  8
LAYER-1
 10
5.814427
 20
0.044503
 30
0.000000
  0
VERTEX
  8
LAYER-1
 10
5.837631
 20
0.047976
 30
0.000000
  0
VERTEX
  8
LAYER-1
 10
5.856966
 20
0.051448
 30
0.000000
  0
VERTEX
  8
LAYER-1
 10
5.880170
 20
0.051448
 30
0.000000
  0
VERTEX
  8
LAYER-1
 10
5.907241
 20
0.051448
 30
0.000000
  0
VERTEX
  8
LAYER-1
 10
5.927060
 20
0.054053
 30
0.000000
  0
VERTEX
  8
LAYER-1
 10
5.953646
 20
0.058393
 30
0.000000
  0
VERTEX
  8
LAYER-1
 10
5.976850
 20
0.065337
 30
0.000000
  0
VERTEX
  8
LAYER-1
 10
6.007788
 20
0.065337
 30
0.000000
  0
VERTEX
  8
LAYER-1
 10
6.038727
 20
0.065337
 30
0.000000
  0
VERTEX
  8
LAYER-1
 10
6.058062
 20
0.065337
 30
0.000000
  0
VERTEX
  8
LAYER-1
 10
6.112203
 20
0.058393
 30
0.000000
  0
VERTEX
  8
LAYER-1
 10
6.143142
 20
0.051448
 30
0.000000
  0
VERTEX
  8
LAYER-1
 10
6.162477
 20
0.047976
 30
0.000000
  0
VERTEX
  8
LAYER-1
 10
6.197283
 20
0.047976
 30
0.000000
  0
VERTEX
  8
LAYER-1
 10
6.220969
 20
0.055355
 30
0.000000
  0
VERTEX
  8
LAYER-1
 10
6.242722
 20
0.056222
 30
0.000000
  0
VERTEX
  8
LAYER-1
 10
6.294447
 20
0.063167
 30
0.000000
  0
VERTEX
  8
LAYER-1
 10
6.342787
 20
0.073150
 30
0.000000
  0
VERTEX
  8
LAYER-1
 10
6.379042
 20
0.076622
 30
0.000000
  0
VERTEX
  8
LAYER-1
 10
6.411914
 20
0.077056
 30
0.000000
  0
VERTEX
  8
LAYER-1
 10
6.428832
 20
0.072282
 30
0.000000
  0
VERTEX
  8
LAYER-1
 10
6.447202
 20
0.068810
 30
0.000000
  0
VERTEX
  8
LAYER-1
 10
6.478141
 20
0.063601
 30
0.000000
  0
VERTEX
  8
LAYER-1
 10
6.518263
 20
0.071847
 30
0.000000
  0
VERTEX
  8
LAYER-1
 10
6.533732
 20
0.079226
 30
0.000000
  0
VERTEX
  8
LAYER-1
 10
6.556936
 20
0.079226
 30
0.000000
  0
VERTEX
  8
LAYER-1
 10
6.580137
 20
0.079226
 30
0.000000
  0
VERTEX
  8
LAYER-1
 10
6.607208
 20
0.072282
 30
0.000000
  0
VERTEX
  8
LAYER-1
 10
6.630412
 20
0.058393
 30
0.000000
  0
VERTEX
  8
LAYER-1
 10
6.657482
 20
0.047976
 30
0.000000
  0
VERTEX
  8
LAYER-1
 10
6.684553
 20
0.037560
 30
0.000000
  0
VERTEX
  8
LAYER-1
 10
6.707757
 20
0.037560
 30
0.000000
  0
VERTEX
  8
LAYER-1
 10
6.737781
 20
0.037543
 30
0.000000
  0
VERTEX
  8
LAYER-1
 10
6.761898
 20
0.047976
 30
0.000000
  0
SEQEND
  8
LAYER-1
  0
TEXT
  8
LAYER-1
 62
  0
 10
1.809856
 20
8.461170
 30
0.000000
 40
0.125000
  1
POLYCARBONATE SIDE FOLDING CLOSURE
 72
  5
 11
5.393189
 21
8.461170
 31
0.000000
  0
TEXT
  8
LAYER-1
 62
  0
 10
5.879300
 20
0.544503
 30
0.000000
 40
0.125000
  1
Dustproof
 72
  5
 11
6.698745
 21
0.544503
 31
0.000000
  0
TEXT
  8
LAYER-1
 62
  0
 10
5.879300
 20
0.350059
 30
0.000000
 40
0.125000
  1
floor socket
 72
  5
 11
6.823745
 21
0.350059
 31
0.000000
  0
POLYLINE
  8
LAYER-1
 66
  1
 70
  1
 62
  0
  0
VERTEX
  8
LAYER-1
 10
1.831183
 20
7.153872
 30
0.000000
  0
VERTEX
  8
LAYER-1
 10
2.155809
 20
7.153872
 30
0.000000
  0
VERTEX
  8
LAYER-1
 10
2.155809
 20
7.136246
 30
0.000000
  0
VERTEX
  8
LAYER-1
 10
1.831183
 20
7.136246
 30
0.000000
  0
SEQEND
  8
LAYER-1
  0
POLYLINE
  8
LAYER-1
 66
  1
 70
  1
 62
  0
  0
VERTEX
  8
LAYER-1
 10
2.241183
 20
7.153872
 30
0.000000
  0
VERTEX
  8
LAYER-1
 10
2.565809
 20
7.153872
 30
0.000000
  0
VERTEX
  8
LAYER-1
 10
2.565809
 20
7.136246
 30
0.000000
  0
VERTEX
  8
LAYER-1
 10
2.241183
 20
7.136246
 30
0.000000
  0
SEQEND
  8
LAYER-1
  0
POLYLINE
  8
LAYER-1
 66
  1
 70
  1
 62
  0
  0
VERTEX
  8
LAYER-1
 10
2.651183
 20
7.153872
 30
0.000000
  0
VERTEX
  8
LAYER-1
 10
2.975810
 20
7.153872
 30
0.000000
  0
VERTEX
  8
LAYER-1
 10
2.975810
 20
7.136246
 30
0.000000
  0
VERTEX
  8
LAYER-1
 10
2.651183
 20
7.136246
 30
0.000000
  0
SEQEND
  8
LAYER-1
  0
POLYLINE
  8
LAYER-1
 66
  1
 70
  1
 62
  0
  0
VERTEX
  8
LAYER-1
 10
3.061183
 20
7.153872
 30
0.000000
  0
VERTEX
  8
LAYER-1
 10
3.385810
 20
7.153872
 30
0.000000
  0
VERTEX
  8
LAYER-1
 10
3.385810
 20
7.136246
 30
0.000000
  0
VERTEX
  8
LAYER-1
 10
3.061183
 20
7.136246
 30
0.000000
  0
SEQEND
  8
LAYER-1
  0
POLYLINE
  8
LAYER-1
 66
  1
 70
  1
 62
  0
  0
VERTEX
  8
LAYER-1
 10
4.150003
 20
7.153872
 30
0.000000
  0
VERTEX
  8
LAYER-1
 10
4.474628
 20
7.153872
 30
0.000000
  0
VERTEX
  8
LAYER-1
 10
4.474628
 20
7.136246
 30
0.000000
  0
VERTEX
  8
LAYER-1
 10
4.150003
 20
7.136246
 30
0.000000
  0
SEQEND
  8
LAYER-1
  0
POLYLINE
  8
LAYER-1
 66
  1
 70
  1
 62
  0
  0
VERTEX
  8
LAYER-1
 10
4.560002
 20
7.153872
 30
0.000000
  0
VERTEX
  8
LAYER-1
 10
4.884629
 20
7.153872
 30
0.000000
  0
VERTEX
  8
LAYER-1
 10
4.884629
 20
7.136246
 30
0.000000
  0
VERTEX
  8
LAYER-1
 10
4.560002
 20
7.136246
 30
0.000000
  0
SEQEND
  8
LAYER-1
  0
POLYLINE
  8
LAYER-1
 66
  1
 70
  1
 62
  0
  0
VERTEX
  8
LAYER-1
 10
4.970002
 20
7.153872
 30
0.000000
  0
VERTEX
  8
LAYER-1
 10
5.294629
 20
7.153872
 30
0.000000
  0
VERTEX
  8
LAYER-1
 10
5.294629
 20
7.136246
 30
0.000000
  0
VERTEX
  8
LAYER-1
 10
4.970002
 20
7.136246
 30
0.000000
  0
SEQEND
  8
LAYER-1
  0
POLYLINE
  8
LAYER-1
 66
  1
 70
  1
 62
  0
  0
VERTEX
  8
LAYER-1
 10
5.380002
 20
7.153872
 30
0.000000
  0
VERTEX
  8
LAYER-1
 10
5.704629
 20
7.153872
 30
0.000000
  0
VERTEX
  8
LAYER-1
 10
5.704629
 20
7.136246
 30
0.000000
  0
VERTEX
  8
LAYER-1
 10
5.380002
 20
7.136246
 30
0.000000
  0
SEQEND
  8
LAYER-1
  0
POLYLINE
  8
LAYER-1
 66
  1
 70
  1
 62
  0
  0
VERTEX
  8
LAYER-1
 10
1.831183
 20
3.967672
 30
0.000000
  0
VERTEX
  8
LAYER-1
 10
2.155809
 20
3.967672
 30
0.000000
  0
VERTEX
  8
LAYER-1
 10
2.155809
 20
3.950045
 30
0.000000
  0
VERTEX
  8
LAYER-1
 10
1.831183
 20
3.950045
 30
0.000000
  0
SEQEND
  8
LAYER-1
  0
POLYLINE
  8
LAYER-1
 66
  1
 70
  1
 62
  0
  0
VERTEX
  8
LAYER-1
 10
2.241183
 20
3.967672
 30
0.000000
  0
VERTEX
  8
LAYER-1
 10
2.565809
 20
3.967672
 30
0.000000
  0
VERTEX
  8
LAYER-1
 10
2.565809
 20
3.950045
 30
0.000000
  0
VERTEX
  8
LAYER-1
 10
2.241183
 20
3.950045
 30
0.000000
  0
SEQEND
  8
LAYER-1
  0
POLYLINE
  8
LAYER-1
 66
  1
 70
  1
 62
  0
  0
VERTEX
  8
LAYER-1
 10
2.651183
 20
3.967672
 30
0.000000
  0
VERTEX
  8
LAYER-1
 10
2.975810
 20
3.967672
 30
0.000000
  0
VERTEX
  8
LAYER-1
 10
2.975810
 20
3.950045
 30
0.000000
  0
VERTEX
  8
LAYER-1
 10
2.651183
 20
3.950045
 30
0.000000
  0
SEQEND
  8
LAYER-1
  0
POLYLINE
  8
LAYER-1
 66
  1
 70
  1
 62
  0
  0
VERTEX
  8
LAYER-1
 10
3.061183
 20
3.967672
 30
0.000000
  0
VERTEX
  8
LAYER-1
 10
3.385810
 20
3.967672
 30
0.000000
  0
VERTEX
  8
LAYER-1
 10
3.385810
 20
3.950045
 30
0.000000
  0
VERTEX
  8
LAYER-1
 10
3.061183
 20
3.950045
 30
0.000000
  0
SEQEND
  8
LAYER-1
  0
POLYLINE
  8
LAYER-1
 66
  1
 70
  1
 62
  0
  0
VERTEX
  8
LAYER-1
 10
4.150003
 20
3.967672
 30
0.000000
  0
VERTEX
  8
LAYER-1
 10
4.474628
 20
3.967672
 30
0.000000
  0
VERTEX
  8
LAYER-1
 10
4.474628
 20
3.950045
 30
0.000000
  0
VERTEX
  8
LAYER-1
 10
4.150003
 20
3.950045
 30
0.000000
  0
SEQEND
  8
LAYER-1
  0
POLYLINE
  8
LAYER-1
 66
  1
 70
  1
 62
  0
  0
VERTEX
  8
LAYER-1
 10
4.560002
 20
3.967672
 30
0.000000
  0
VERTEX
  8
LAYER-1
 10
4.884629
 20
3.967672
 30
0.000000
  0
VERTEX
  8
LAYER-1
 10
4.884629
 20
3.950045
 30
0.000000
  0
VERTEX
  8
LAYER-1
 10
4.560002
 20
3.950045
 30
0.000000
  0
SEQEND
  8
LAYER-1
  0
POLYLINE
  8
LAYER-1
 66
  1
 70
  1
 62
  0
  0
VERTEX
  8
LAYER-1
 10
4.970002
 20
3.967672
 30
0.000000
  0
VERTEX
  8
LAYER-1
 10
5.294629
 20
3.967672
 30
0.000000
  0
VERTEX
  8
LAYER-1
 10
5.294629
 20
3.950045
 30
0.000000
  0
VERTEX
  8
LAYER-1
 10
4.970002
 20
3.950045
 30
0.000000
  0
SEQEND
  8
LAYER-1
  0
POLYLINE
  8
LAYER-1
 66
  1
 70
  1
 62
  0
  0
VERTEX
  8
LAYER-1
 10
5.380002
 20
3.967672
 30
0.000000
  0
VERTEX
  8
LAYER-1
 10
5.704629
 20
3.967672
 30
0.000000
  0
VERTEX
  8
LAYER-1
 10
5.704629
 20
3.950045
 30
0.000000
  0
VERTEX
  8
LAYER-1
 10
5.380002
 20
3.950045
 30
0.000000
  0
SEQEND
  8
LAYER-1
  0
POLYLINE
  8
LAYER-1
 66
  1
 70
  1
 62
  0
  0
VERTEX
  8
LAYER-1
 10
1.831183
 20
3.872620
 30
0.000000
  0
VERTEX
  8
LAYER-1
 10
2.155809
 20
3.872620
 30
0.000000
  0
VERTEX
  8
LAYER-1
 10
2.155809
 20
3.854994
 30
0.000000
  0
VERTEX
  8
LAYER-1
 10
1.831183
 20
3.854994
 30
0.000000
  0
SEQEND
  8
LAYER-1
  0
POLYLINE
  8
LAYER-1
 66
  1
 70
  1
 62
  0
  0
VERTEX
  8
LAYER-1
 10
2.241183
 20
3.872620
 30
0.000000
  0
VERTEX
  8
LAYER-1
 10
2.565809
 20
3.872620
 30
0.000000
  0
VERTEX
  8
LAYER-1
 10
2.565809
 20
3.854994
 30
0.000000
  0
VERTEX
  8
LAYER-1
 10
2.241183
 20
3.854994
 30
0.000000
  0
SEQEND
  8
LAYER-1
  0
POLYLINE
  8
LAYER-1
 66
  1
 70
  1
 62
  0
  0
VERTEX
  8
LAYER-1
 10
2.651183
 20
3.872620
 30
0.000000
  0
VERTEX
  8
LAYER-1
 10
2.975810
 20
3.872620
 30
0.000000
  0
VERTEX
  8
LAYER-1
 10
2.975810
 20
3.854994
 30
0.000000
  0
VERTEX
  8
LAYER-1
 10
2.651183
 20
3.854994
 30
0.000000
  0
SEQEND
  8
LAYER-1
  0
POLYLINE
  8
LAYER-1
 66
  1
 70
  1
 62
  0
  0
VERTEX
  8
LAYER-1
 10
3.061183
 20
3.872620
 30
0.000000
  0
VERTEX
  8
LAYER-1
 10
3.385810
 20
3.872620
 30
0.000000
  0
VERTEX
  8
LAYER-1
 10
3.385810
 20
3.854994
 30
0.000000
  0
VERTEX
  8
LAYER-1
 10
3.061183
 20
3.854994
 30
0.000000
  0
SEQEND
  8
LAYER-1
  0
POLYLINE
  8
LAYER-1
 66
  1
 70
  1
 62
  0
  0
VERTEX
  8
LAYER-1
 10
4.150003
 20
3.872620
 30
0.000000
  0
VERTEX
  8
LAYER-1
 10
4.474628
 20
3.872620
 30
0.000000
  0
VERTEX
  8
LAYER-1
 10
4.474628
 20
3.854994
 30
0.000000
  0
VERTEX
  8
LAYER-1
 10
4.150003
 20
3.854994
 30
0.000000
  0
SEQEND
  8
LAYER-1
  0
POLYLINE
  8
LAYER-1
 66
  1
 70
  1
 62
  0
  0
VERTEX
  8
LAYER-1
 10
4.560002
 20
3.872620
 30
0.000000
  0
VERTEX
  8
LAYER-1
 10
4.884629
 20
3.872620
 30
0.000000
  0
VERTEX
  8
LAYER-1
 10
4.884629
 20
3.854994
 30
0.000000
  0
VERTEX
  8
LAYER-1
 10
4.560002
 20
3.854994
 30
0.000000
  0
SEQEND
  8
LAYER-1
  0
POLYLINE
  8
LAYER-1
 66
  1
 70
  1
 62
  0
  0
VERTEX
  8
LAYER-1
 10
4.970002
 20
3.872620
 30
0.000000
  0
VERTEX
  8
LAYER-1
 10
5.294629
 20
3.872620
 30
0.000000
  0
VERTEX
  8
LAYER-1
 10
5.294629
 20
3.854994
 30
0.000000
  0
VERTEX
  8
LAYER-1
 10
4.970002
 20
3.854994
 30
0.000000
  0
SEQEND
  8
LAYER-1
  0
POLYLINE
  8
LAYER-1
 66
  1
 70
  1
 62
  0
  0
VERTEX
  8
LAYER-1
 10
5.380002
 20
3.872620
 30
0.000000
  0
VERTEX
  8
LAYER-1
 10
5.704629
 20
3.872620
 30
0.000000
  0
VERTEX
  8
LAYER-1
 10
5.704629
 20
3.854994
 30
0.000000
  0
VERTEX
  8
LAYER-1
 10
5.380002
 20
3.854994
 30
0.000000
  0
SEQEND
  8
LAYER-1
  0
POLYLINE
  8
LAYER-1
 66
  1
 70
  1
 62
  0
  0
VERTEX
  8
LAYER-1
 10
1.831183
 20
0.688598
 30
0.000000
  0
VERTEX
  8
LAYER-1
 10
2.155809
 20
0.688598
 30
0.000000
  0
VERTEX
  8
LAYER-1
 10
2.155809
 20
0.670970
 30
0.000000
  0
VERTEX
  8
LAYER-1
 10
1.831183
 20
0.670970
 30
0.000000
  0
SEQEND
  8
LAYER-1
  0
POLYLINE
  8
LAYER-1
 66
  1
 70
  1
 62
  0
  0
VERTEX
  8
LAYER-1
 10
2.241183
 20
0.688598
 30
0.000000
  0
VERTEX
  8
LAYER-1
 10
2.565809
 20
0.688598
 30
0.000000
  0
VERTEX
  8
LAYER-1
 10
2.565809
 20
0.670970
 30
0.000000
  0
VERTEX
  8
LAYER-1
 10
2.241183
 20
0.670970
 30
0.000000
  0
SEQEND
  8
LAYER-1
  0
POLYLINE
  8
LAYER-1
 66
  1
 70
  1
 62
  0
  0
VERTEX
  8
LAYER-1
 10
2.651183
 20
0.688598
 30
0.000000
  0
VERTEX
  8
LAYER-1
 10
2.975810
 20
0.688598
 30
0.000000
  0
VERTEX
  8
LAYER-1
 10
2.975810
 20
0.670970
 30
0.000000
  0
VERTEX
  8
LAYER-1
 10
2.651183
 20
0.670970
 30
0.000000
  0
SEQEND
  8
LAYER-1
  0
POLYLINE
  8
LAYER-1
 66
  1
 70
  1
 62
  0
  0
VERTEX
  8
LAYER-1
 10
3.061183
 20
0.688598
 30
0.000000
  0
VERTEX
  8
LAYER-1
 10
3.385810
 20
0.688598
 30
0.000000
  0
VERTEX
  8
LAYER-1
 10
3.385810
 20
0.670970
 30
0.000000
  0
VERTEX
  8
LAYER-1
 10
3.061183
 20
0.670970
 30
0.000000
  0
SEQEND
  8
LAYER-1
  0
POLYLINE
  8
LAYER-1
 66
  1
 70
  1
 62
  0
  0
VERTEX
  8
LAYER-1
 10
4.150003
 20
0.688598
 30
0.000000
  0
VERTEX
  8
LAYER-1
 10
4.474628
 20
0.688598
 30
0.000000
  0
VERTEX
  8
LAYER-1
 10
4.474628
 20
0.670970
 30
0.000000
  0
VERTEX
  8
LAYER-1
 10
4.150003
 20
0.670970
 30
0.000000
  0
SEQEND
  8
LAYER-1
  0
POLYLINE
  8
LAYER-1
 66
  1
 70
  1
 62
  0
  0
VERTEX
  8
LAYER-1
 10
4.560002
 20
0.688598
 30
0.000000
  0
VERTEX
  8
LAYER-1
 10
4.884629
 20
0.688598
 30
0.000000
  0
VERTEX
  8
LAYER-1
 10
4.884629
 20
0.670970
 30
0.000000
  0
VERTEX
  8
LAYER-1
 10
4.560002
 20
0.670970
 30
0.000000
  0
SEQEND
  8
LAYER-1
  0
POLYLINE
  8
LAYER-1
 66
  1
 70
  1
 62
  0
  0
VERTEX
  8
LAYER-1
 10
4.970002
 20
0.688598
 30
0.000000
  0
VERTEX
  8
LAYER-1
 10
5.294629
 20
0.688598
 30
0.000000
  0
VERTEX
  8
LAYER-1
 10
5.294629
 20
0.670970
 30
0.000000
  0
VERTEX
  8
LAYER-1
 10
4.970002
 20
0.670970
 30
0.000000
  0
SEQEND
  8
LAYER-1
  0
POLYLINE
  8
LAYER-1
 66
  1
 70
  1
 62
  0
  0
VERTEX
  8
LAYER-1
 10
5.380002
 20
0.688598
 30
0.000000
  0
VERTEX
  8
LAYER-1
 10
5.704629
 20
0.688598
 30
0.000000
  0
VERTEX
  8
LAYER-1
 10
5.704629
 20
0.670970
 30
0.000000
  0
VERTEX
  8
LAYER-1
 10
5.380002
 20
0.670970
 30
0.000000
  0
SEQEND
  8
LAYER-1
  0
LINE
  8
LAYER-1
 62
  0
 10
5.912287
 20
7.422975
 30
0.000000
 11
5.912287
 21
7.154937
 31
0.000000
  0
LINE
  8
LAYER-1
 62
  0
 10
5.829165
 20
7.422975
 30
0.000000
 11
6.037287
 21
7.422975
 31
0.000000
  0
LINE
  8
LAYER-1
 62
  0
 10
5.835029
 20
7.154937
 30
0.000000
 11
6.037287
 21
7.154937
 31
0.000000
  0
LINE
  8
LAYER-1
 62
  0
 10
5.941750
 20
7.393512
 30
0.000000
 11
5.882824
 21
7.452438
 31
0.000000
  0
LINE
  8
LAYER-1
 62
  0
 10
5.941750
 20
7.125474
 30
0.000000
 11
5.882824
 21
7.184399
 31
0.000000
  0
TEXT
  8
LAYER-1
 62
  0
 10
5.788330
 20
7.282573
 30
0.000000
 40
0.125000
  1
 
 50
90.000000
  0
TEXT
  8
LAYER-1
 62
  0
 10
6.226523
 20
7.308392
 30
0.000000
 40
0.125000
  1
4"
 72
  5
 11
6.448745
 21
7.308392
 31
0.000000
  0
TEXT
  8
LAYER-1
 62
  0
 10
6.004300
 20
7.113948
 30
0.000000
 40
0.125000
  1
102mm
 72
  5
 11
6.670967
 21
7.113948
 31
0.000000
  0
LINE
  8
LAYER-1
 62
  0
 10
4.519057
 20
7.686185
 30
0.000000
 11
4.928779
 21
7.686185
 31
0.000000
  0
LINE
  8
LAYER-1
 62
  0
 10
4.519057
 20
7.316394
 30
0.000000
 11
4.519057
 21
7.811185
 31
0.000000
  0
LINE
  8
LAYER-1
 62
  0
 10
4.928779
 20
7.314659
 30
0.000000
 11
4.928779
 21
7.811185
 31
0.000000
  0
LINE
  8
LAYER-1
 62
  0
 10
4.548520
 20
7.715647
 30
0.000000
 11
4.489595
 21
7.656722
 31
0.000000
  0
LINE
  8
LAYER-1
 62
  0
 10
4.958242
 20
7.715647
 30
0.000000
 11
4.899317
 21
7.656722
 31
0.000000
  0
TEXT
  8
LAYER-1
 62
  0
 10
4.717336
 20
7.807845
 30
0.000000
 40
0.125000
  1
 
  0
TEXT
  8
LAYER-1
 62
  0
 10
4.615411
 20
8.058392
 30
0.000000
 40
0.125000
  1
6"
 72
  5
 11
4.837634
 21
8.058392
 31
0.000000
  0
TEXT
  8
LAYER-1
 62
  0
 10
4.393189
 20
7.863948
 30
0.000000
 40
0.125000
  1
152mm
 72
  5
 11
5.059856
 21
7.863948
 31
0.000000
  0
POLYLINE
  8
LAYER-1
 66
  1
 70
  0
 62
  0
 10
3.473310
 20
0.219204
 30
0.000000
  0
VERTEX
  8
LAYER-1
 10
3.473310
 20
0.219204
 30
0.000000
  0
VERTEX
  8
LAYER-1
 10
3.473310
 20
0.218013
 30
0.000000
  0
SEQEND
  8
LAYER-1
  0
POLYLINE
  8
LAYER-1
 66
  1
 70
  1
 62
  0
 10
1.301452
 20
0.124035
 30
0.000000
  0
VERTEX
  8
LAYER-1
 10
1.301452
 20
0.124035
 30
0.000000
  0
VERTEX
  8
LAYER-1
 10
1.308397
 20
0.097994
 30
0.000000
  0
VERTEX
  8
LAYER-1
 10
1.333571
 20
0.111883
 30
0.000000
  0
SEQEND
  8
LAYER-1
  0
POLYLINE
  8
LAYER-1
 66
  1
 70
  1
 62
  0
 10
1.491557
 20
0.229068
 30
0.000000
  0
VERTEX
  8
LAYER-1
 10
1.491557
 20
0.229068
 30
0.000000
  0
VERTEX
  8
LAYER-1
 10
1.478536
 20
0.206498
 30
0.000000
  0
VERTEX
  8
LAYER-1
 10
1.508919
 20
0.227331
 30
0.000000
  0
SEQEND
  8
LAYER-1
  0
POLYLINE
  8
LAYER-1
 66
  1
 70
  1
 62
  0
 10
1.137391
 20
0.164834
 30
0.000000
  0
VERTEX
  8
LAYER-1
 10
1.137391
 20
0.164834
 30
0.000000
  0
VERTEX
  8
LAYER-1
 10
1.120898
 20
0.139659
 30
0.000000
  0
VERTEX
  8
LAYER-1
 10
1.135654
 20
0.131847
 30
0.000000
  0
SEQEND
  8
LAYER-1
  0
POLYLINE
  8
LAYER-1
 66
  1
 70
  0
 62
  0
 10
1.304057
 20
0.165703
 30
0.000000
  0
VERTEX
  8
LAYER-1
 10
1.304057
 20
0.165703
 30
0.000000
  0
VERTEX
  8
LAYER-1
 10
1.299717
 20
0.165703
 30
0.000000
  0
VERTEX
  8
LAYER-1
 10
1.296244
 20
0.161363
 30
0.000000
  0
VERTEX
  8
LAYER-1
 10
1.295376
 20
0.156154
 30
0.000000
  0
VERTEX
  8
LAYER-1
 10
1.297112
 20
0.151814
 30
0.000000
  0
VERTEX
  8
LAYER-1
 10
1.301453
 20
0.150078
 30
0.000000
  0
VERTEX
  8
LAYER-1
 10
1.305793
 20
0.150078
 30
0.000000
  0
VERTEX
  8
LAYER-1
 10
1.310134
 20
0.153550
 30
0.000000
  0
VERTEX
  8
LAYER-1
 10
1.310134
 20
0.157890
 30
0.000000
  0
VERTEX
  8
LAYER-1
 10
1.309266
 20
0.162231
 30
0.000000
  0
VERTEX
  8
LAYER-1
 10
1.304925
 20
0.164835
 30
0.000000
  0
SEQEND
  8
LAYER-1
  0
POLYLINE
  8
LAYER-1
 66
  1
 70
  1
 62
  0
 10
0.942078
 20
0.203896
 30
0.000000
  0
VERTEX
  8
LAYER-1
 10
0.942078
 20
0.203896
 30
0.000000
  0
VERTEX
  8
LAYER-1
 10
0.929057
 20
0.181326
 30
0.000000
  0
VERTEX
  8
LAYER-1
 10
0.959439
 20
0.202159
 30
0.000000
  0
SEQEND
  8
LAYER-1
  0
POLYLINE
  8
LAYER-1
 66
  1
 70
  1
 62
  0
 10
1.073855
 20
0.203562
 30
0.000000
  0
VERTEX
  8
LAYER-1
 10
1.073855
 20
0.203562
 30
0.000000
  0
VERTEX
  8
LAYER-1
 10
1.061169
 20
0.184197
 30
0.000000
  0
VERTEX
  8
LAYER-1
 10
1.072520
 20
0.178187
 30
0.000000
  0
SEQEND
  8
LAYER-1
  0
POLYLINE
  8
LAYER-1
 66
  1
 70
  0
 62
  0
 10
1.431661
 20
0.184799
 30
0.000000
  0
VERTEX
  8
LAYER-1
 10
1.431661
 20
0.184799
 30
0.000000
  0
VERTEX
  8
LAYER-1
 10
1.427321
 20
0.184799
 30
0.000000
  0
VERTEX
  8
LAYER-1
 10
1.423849
 20
0.180458
 30
0.000000
  0
VERTEX
  8
LAYER-1
 10
1.422981
 20
0.175251
 30
0.000000
  0
VERTEX
  8
LAYER-1
 10
1.424717
 20
0.170909
 30
0.000000
  0
VERTEX
  8
LAYER-1
 10
1.429057
 20
0.169173
 30
0.000000
  0
VERTEX
  8
LAYER-1
 10
1.433397
 20
0.169173
 30
0.000000
  0
VERTEX
  8
LAYER-1
 10
1.437737
 20
0.172646
 30
0.000000
  0
VERTEX
  8
LAYER-1
 10
1.437737
 20
0.176987
 30
0.000000
  0
VERTEX
  8
LAYER-1
 10
1.436869
 20
0.181327
 30
0.000000
  0
VERTEX
  8
LAYER-1
 10
1.432529
 20
0.183931
 30
0.000000
  0
SEQEND
  8
LAYER-1
  0
POLYLINE
  8
LAYER-1
 66
  1
 70
  0
 62
  0
 10
1.189473
 20
0.158758
 30
0.000000
  0
VERTEX
  8
LAYER-1
 10
1.189473
 20
0.158758
 30
0.000000
  0
VERTEX
  8
LAYER-1
 10
1.185134
 20
0.158758
 30
0.000000
  0
VERTEX
  8
LAYER-1
 10
1.181661
 20
0.154416
 30
0.000000
  0
VERTEX
  8
LAYER-1
 10
1.180793
 20
0.149209
 30
0.000000
  0
VERTEX
  8
LAYER-1
 10
1.182529
 20
0.144869
 30
0.000000
  0
VERTEX
  8
LAYER-1
 10
1.186869
 20
0.143133
 30
0.000000
  0
VERTEX
  8
LAYER-1
 10
1.191210
 20
0.143133
 30
0.000000
  0
VERTEX
  8
LAYER-1
 10
1.195550
 20
0.146604
 30
0.000000
  0
VERTEX
  8
LAYER-1
 10
1.195550
 20
0.150945
 30
0.000000
  0
VERTEX
  8
LAYER-1
 10
1.194682
 20
0.155285
 30
0.000000
  0
VERTEX
  8
LAYER-1
 10
1.190341
 20
0.157889
 30
0.000000
  0
SEQEND
  8
LAYER-1
  0
POLYLINE
  8
LAYER-1
 66
  1
 70
  0
 62
  0
 10
1.025411
 20
0.150945
 30
0.000000
  0
VERTEX
  8
LAYER-1
 10
1.025411
 20
0.150945
 30
0.000000
  0
VERTEX
  8
LAYER-1
 10
1.021071
 20
0.150945
 30
0.000000
  0
VERTEX
  8
LAYER-1
 10
1.017598
 20
0.146604
 30
0.000000
  0
VERTEX
  8
LAYER-1
 10
1.016730
 20
0.141396
 30
0.000000
  0
VERTEX
  8
LAYER-1
 10
1.018466
 20
0.137056
 30
0.000000
  0
VERTEX
  8
LAYER-1
 10
1.022807
 20
0.135320
 30
0.000000
  0
VERTEX
  8
LAYER-1
 10
1.027147
 20
0.135320
 30
0.000000
  0
VERTEX
  8
LAYER-1
 10
1.031487
 20
0.138791
 30
0.000000
  0
VERTEX
  8
LAYER-1
 10
1.031487
 20
0.143133
 30
0.000000
  0
VERTEX
  8
LAYER-1
 10
1.030619
 20
0.147473
 30
0.000000
  0
VERTEX
  8
LAYER-1
 10
1.026279
 20
0.150077
 30
0.000000
  0
SEQEND
  8
LAYER-1
  0
POLYLINE
  8
LAYER-1
 66
  1
 70
  1
 62
  0
 10
1.653450
 20
0.175684
 30
0.000000
  0
VERTEX
  8
LAYER-1
 10
1.653450
 20
0.175684
 30
0.000000
  0
VERTEX
  8
LAYER-1
 10
1.627410
 20
0.168739
 30
0.000000
  0
VERTEX
  8
LAYER-1
 10
1.641297
 20
0.143566
 30
0.000000
  0
SEQEND
  8
LAYER-1
  0
POLYLINE
  8
LAYER-1
 66
  1
 70
  1
 62
  0
 10
1.714994
 20
0.116086
 30
0.000000
  0
VERTEX
  8
LAYER-1
 10
1.714994
 20
0.116086
 30
0.000000
  0
VERTEX
  8
LAYER-1
 10
1.737565
 20
0.103065
 30
0.000000
  0
VERTEX
  8
LAYER-1
 10
1.716732
 20
0.133447
 30
0.000000
  0
SEQEND
  8
LAYER-1
  0
POLYLINE
  8
LAYER-1
 66
  1
 70
  1
 62
  0
 10
1.246332
 20
0.183496
 30
0.000000
  0
VERTEX
  8
LAYER-1
 10
1.246332
 20
0.183496
 30
0.000000
  0
VERTEX
  8
LAYER-1
 10
1.221159
 20
0.199989
 30
0.000000
  0
VERTEX
  8
LAYER-1
 10
1.213346
 20
0.185232
 30
0.000000
  0
SEQEND
  8
LAYER-1
  0
POLYLINE
  8
LAYER-1
 66
  1
 70
  0
 62
  0
 10
1.664735
 20
0.212144
 30
0.000000
  0
VERTEX
  8
LAYER-1
 10
1.664735
 20
0.212144
 30
0.000000
  0
VERTEX
  8
LAYER-1
 10
1.664735
 20
0.216484
 30
0.000000
  0
VERTEX
  8
LAYER-1
 10
1.660395
 20
0.219956
 30
0.000000
  0
VERTEX
  8
LAYER-1
 10
1.655187
 20
0.220824
 30
0.000000
  0
VERTEX
  8
LAYER-1
 10
1.650846
 20
0.219088
 30
0.000000
  0
VERTEX
  8
LAYER-1
 10
1.649110
 20
0.214747
 30
0.000000
  0
VERTEX
  8
LAYER-1
 10
1.649110
 20
0.210408
 30
0.000000
  0
VERTEX
  8
LAYER-1
 10
1.652582
 20
0.206067
 30
0.000000
  0
VERTEX
  8
LAYER-1
 10
1.656923
 20
0.206067
 30
0.000000
  0
VERTEX
  8
LAYER-1
 10
1.661264
 20
0.206935
 30
0.000000
  0
VERTEX
  8
LAYER-1
 10
1.663868
 20
0.211276
 30
0.000000
  0
SEQEND
  8
LAYER-1
  0
POLYLINE
  8
LAYER-1
 66
  1
 70
  1
 62
  0
 10
1.616993
 20
0.187836
 30
0.000000
  0
VERTEX
  8
LAYER-1
 10
1.616993
 20
0.187836
 30
0.000000
  0
VERTEX
  8
LAYER-1
 10
1.594422
 20
0.200857
 30
0.000000
  0
VERTEX
  8
LAYER-1
 10
1.615255
 20
0.170475
 30
0.000000
  0
SEQEND
  8
LAYER-1
  0
POLYLINE
  8
LAYER-1
 66
  1
 70
  1
 62
  0
 10
1.265094
 20
0.200155
 30
0.000000
  0
VERTEX
  8
LAYER-1
 10
1.265094
 20
0.200155
 30
0.000000
  0
VERTEX
  8
LAYER-1
 10
1.245730
 20
0.212842
 30
0.000000
  0
VERTEX
  8
LAYER-1
 10
1.239719
 20
0.201491
 30
0.000000
  0
SEQEND
  8
LAYER-1
  0
POLYLINE
  8
LAYER-1
 66
  1
 70
  0
 62
  0
 10
1.730968
 20
0.076503
 30
0.000000
  0
VERTEX
  8
LAYER-1
 10
1.730968
 20
0.076503
 30
0.000000
  0
VERTEX
  8
LAYER-1
 10
1.730968
 20
0.072163
 30
0.000000
  0
VERTEX
  8
LAYER-1
 10
1.735308
 20
0.068691
 30
0.000000
  0
VERTEX
  8
LAYER-1
 10
1.740516
 20
0.067823
 30
0.000000
  0
VERTEX
  8
LAYER-1
 10
1.744857
 20
0.069559
 30
0.000000
  0
VERTEX
  8
LAYER-1
 10
1.746593
 20
0.073899
 30
0.000000
  0
VERTEX
  8
LAYER-1
 10
1.746593
 20
0.078240
 30
0.000000
  0
VERTEX
  8
LAYER-1
 10
1.743121
 20
0.082580
 30
0.000000
  0
VERTEX
  8
LAYER-1
 10
1.738780
 20
0.082580
 30
0.000000
  0
VERTEX
  8
LAYER-1
 10
1.734440
 20
0.081712
 30
0.000000
  0
VERTEX
  8
LAYER-1
 10
1.731835
 20
0.077371
 30
0.000000
  0
SEQEND
  8
LAYER-1
  0
POLYLINE
  8
LAYER-1
 66
  1
 70
  0
 62
  0
 10
1.240255
 20
0.131413
 30
0.000000
  0
VERTEX
  8
LAYER-1
 10
1.240255
 20
0.131413
 30
0.000000
  0
VERTEX
  8
LAYER-1
 10
1.240255
 20
0.135753
 30
0.000000
  0
VERTEX
  8
LAYER-1
 10
1.235915
 20
0.139225
 30
0.000000
  0
VERTEX
  8
LAYER-1
 10
1.230707
 20
0.140093
 30
0.000000
  0
VERTEX
  8
LAYER-1
 10
1.226366
 20
0.138357
 30
0.000000
  0
VERTEX
  8
LAYER-1
 10
1.224630
 20
0.134016
 30
0.000000
  0
VERTEX
  8
LAYER-1
 10
1.224630
 20
0.129677
 30
0.000000
  0
VERTEX
  8
LAYER-1
 10
1.228102
 20
0.125336
 30
0.000000
  0
VERTEX
  8
LAYER-1
 10
1.232443
 20
0.125336
 30
0.000000
  0
VERTEX
  8
LAYER-1
 10
1.236784
 20
0.126204
 30
0.000000
  0
VERTEX
  8
LAYER-1
 10
1.239388
 20
0.130545
 30
0.000000
  0
SEQEND
  8
LAYER-1
  0
POLYLINE
  8
LAYER-1
 66
  1
 70
  0
 62
  0
 10
1.542339
 20
0.166137
 30
0.000000
  0
VERTEX
  8
LAYER-1
 10
1.542339
 20
0.166137
 30
0.000000
  0
VERTEX
  8
LAYER-1
 10
1.542339
 20
0.170477
 30
0.000000
  0
VERTEX
  8
LAYER-1
 10
1.537999
 20
0.173949
 30
0.000000
  0
VERTEX
  8
LAYER-1
 10
1.532791
 20
0.174817
 30
0.000000
  0
VERTEX
  8
LAYER-1
 10
1.528450
 20
0.173081
 30
0.000000
  0
VERTEX
  8
LAYER-1
 10
1.526714
 20
0.168740
 30
0.000000
  0
VERTEX
  8
LAYER-1
 10
1.526714
 20
0.164401
 30
0.000000
  0
VERTEX
  8
LAYER-1
 10
1.530186
 20
0.160060
 30
0.000000
  0
VERTEX
  8
LAYER-1
 10
1.534527
 20
0.160060
 30
0.000000
  0
VERTEX
  8
LAYER-1
 10
1.538868
 20
0.160928
 30
0.000000
  0
VERTEX
  8
LAYER-1
 10
1.541472
 20
0.165269
 30
0.000000
  0
SEQEND
  8
LAYER-1
  0
POLYLINE
  8
LAYER-1
 66
  1
 70
  1
 62
  0
 10
1.761524
 20
0.158324
 30
0.000000
  0
VERTEX
  8
LAYER-1
 10
1.761524
 20
0.158324
 30
0.000000
  0
VERTEX
  8
LAYER-1
 10
1.768467
 20
0.132283
 30
0.000000
  0
VERTEX
  8
LAYER-1
 10
1.787565
 20
0.147907
 30
0.000000
  0
SEQEND
  8
LAYER-1
  0
POLYLINE
  8
LAYER-1
 66
  1
 70
  1
 62
  0
 10
1.945551
 20
0.180026
 30
0.000000
  0
VERTEX
  8
LAYER-1
 10
1.945551
 20
0.180026
 30
0.000000
  0
VERTEX
  8
LAYER-1
 10
1.932530
 20
0.157456
 30
0.000000
  0
VERTEX
  8
LAYER-1
 10
1.962912
 20
0.178289
 30
0.000000
  0
SEQEND
  8
LAYER-1
  0
POLYLINE
  8
LAYER-1
 66
  1
 70
  1
 62
  0
 10
1.995455
 20
0.078565
 30
0.000000
  0
VERTEX
  8
LAYER-1
 10
1.995455
 20
0.078565
 30
0.000000
  0
VERTEX
  8
LAYER-1
 10
1.978963
 20
0.053391
 30
0.000000
  0
VERTEX
  8
LAYER-1
 10
1.993720
 20
0.045579
 30
0.000000
  0
SEQEND
  8
LAYER-1
  0
POLYLINE
  8
LAYER-1
 66
  1
 70
  0
 62
  0
 10
1.733746
 20
0.182629
 30
0.000000
  0
VERTEX
  8
LAYER-1
 10
1.733746
 20
0.182629
 30
0.000000
  0
VERTEX
  8
LAYER-1
 10
1.729405
 20
0.182629
 30
0.000000
  0
VERTEX
  8
LAYER-1
 10
1.725933
 20
0.178289
 30
0.000000
  0
VERTEX
  8
LAYER-1
 10
1.725065
 20
0.173081
 30
0.000000
  0
VERTEX
  8
LAYER-1
 10
1.726801
 20
0.168740
 30
0.000000
  0
VERTEX
  8
LAYER-1
 10
1.731141
 20
0.167004
 30
0.000000
  0
VERTEX
  8
LAYER-1
 10
1.735482
 20
0.167004
 30
0.000000
  0
VERTEX
  8
LAYER-1
 10
1.739821
 20
0.170476
 30
0.000000
  0
VERTEX
  8
LAYER-1
 10
1.739821
 20
0.174817
 30
0.000000
  0
VERTEX
  8
LAYER-1
 10
1.738953
 20
0.179158
 30
0.000000
  0
VERTEX
  8
LAYER-1
 10
1.734614
 20
0.181762
 30
0.000000
  0
SEQEND
  8
LAYER-1
  0
POLYLINE
  8
LAYER-1
 66
  1
 70
  1
 62
  0
 10
1.771072
 20
0.114921
 30
0.000000
  0
VERTEX
  8
LAYER-1
 10
1.771072
 20
0.114921
 30
0.000000
  0
VERTEX
  8
LAYER-1
 10
1.758051
 20
0.092351
 30
0.000000
  0
VERTEX
  8
LAYER-1
 10
1.788433
 20
0.113184
 30
0.000000
  0
SEQEND
  8
LAYER-1
  0
POLYLINE
  8
LAYER-1
 66
  1
 70
  1
 62
  0
 10
2.026872
 20
0.060673
 30
0.000000
  0
VERTEX
  8
LAYER-1
 10
2.026872
 20
0.060673
 30
0.000000
  0
VERTEX
  8
LAYER-1
 10
2.039560
 20
0.080037
 30
0.000000
  0
VERTEX
  8
LAYER-1
 10
2.028208
 20
0.086049
 30
0.000000
  0
SEQEND
  8
LAYER-1
  0
POLYLINE
  8
LAYER-1
 66
  1
 70
  0
 62
  0
 10
1.926098
 20
0.061121
 30
0.000000
  0
VERTEX
  8
LAYER-1
 10
1.926098
 20
0.061121
 30
0.000000
  0
VERTEX
  8
LAYER-1
 10
1.930439
 20
0.061121
 30
0.000000
  0
VERTEX
  8
LAYER-1
 10
1.933911
 20
0.065461
 30
0.000000
  0
VERTEX
  8
LAYER-1
 10
1.934778
 20
0.070669
 30
0.000000
  0
VERTEX
  8
LAYER-1
 10
1.933043
 20
0.075010
 30
0.000000
  0
VERTEX
  8
LAYER-1
 10
1.928702
 20
0.076746
 30
0.000000
  0
VERTEX
  8
LAYER-1
 10
1.924362
 20
0.076746
 30
0.000000
  0
VERTEX
  8
LAYER-1
 10
1.920021
 20
0.073274
 30
0.000000
  0
VERTEX
  8
LAYER-1
 10
1.920021
 20
0.068933
 30
0.000000
  0
VERTEX
  8
LAYER-1
 10
1.920889
 20
0.064592
 30
0.000000
  0
VERTEX
  8
LAYER-1
 10
1.925230
 20
0.061987
 30
0.000000
  0
SEQEND
  8
LAYER-1
  0
POLYLINE
  8
LAYER-1
 66
  1
 70
  0
 62
  0
 10
1.615602
 20
0.096988
 30
0.000000
  0
VERTEX
  8
LAYER-1
 10
1.615602
 20
0.096988
 30
0.000000
  0
VERTEX
  8
LAYER-1
 10
1.619943
 20
0.096988
 30
0.000000
  0
VERTEX
  8
LAYER-1
 10
1.623414
 20
0.101329
 30
0.000000
  0
VERTEX
  8
LAYER-1
 10
1.624283
 20
0.106536
 30
0.000000
  0
VERTEX
  8
LAYER-1
 10
1.622547
 20
0.110877
 30
0.000000
  0
VERTEX
  8
LAYER-1
 10
1.618207
 20
0.112613
 30
0.000000
  0
VERTEX
  8
LAYER-1
 10
1.613866
 20
0.112613
 30
0.000000
  0
VERTEX
  8
LAYER-1
 10
1.609525
 20
0.109141
 30
0.000000
  0
VERTEX
  8
LAYER-1
 10
1.609525
 20
0.104801
 30
0.000000
  0
VERTEX
  8
LAYER-1
 10
1.610394
 20
0.100460
 30
0.000000
  0
VERTEX
  8
LAYER-1
 10
1.614735
 20
0.097855
 30
0.000000
  0
SEQEND
  8
LAYER-1
  0
POLYLINE
  8
LAYER-1
 66
  1
 70
  1
 62
  0
 10
2.110916
 20
0.163098
 30
0.000000
  0
VERTEX
  8
LAYER-1
 10
2.110916
 20
0.163098
 30
0.000000
  0
VERTEX
  8
LAYER-1
 10
2.084876
 20
0.156153
 30
0.000000
  0
VERTEX
  8
LAYER-1
 10
2.098763
 20
0.130981
 30
0.000000
  0
SEQEND
  8
LAYER-1
  0
POLYLINE
  8
LAYER-1
 66
  1
 70
  1
 62
  0
 10
1.849799
 20
0.123503
 30
0.000000
  0
VERTEX
  8
LAYER-1
 10
1.849799
 20
0.123503
 30
0.000000
  0
VERTEX
  8
LAYER-1
 10
1.827229
 20
0.136525
 30
0.000000
  0
VERTEX
  8
LAYER-1
 10
1.848061
 20
0.106142
 30
0.000000
  0
SEQEND
  8
LAYER-1
  0
POLYLINE
  8
LAYER-1
 66
  1
 70
  1
 62
  0
 10
1.879656
 20
0.045930
 30
0.000000
  0
VERTEX
  8
LAYER-1
 10
1.879656
 20
0.045930
 30
0.000000
  0
VERTEX
  8
LAYER-1
 10
1.904830
 20
0.029436
 30
0.000000
  0
VERTEX
  8
LAYER-1
 10
1.912642
 20
0.044194
 30
0.000000
  0
SEQEND
  8
LAYER-1
  0
POLYLINE
  8
LAYER-1
 66
  1
 70
  0
 62
  0
 10
2.142166
 20
0.212576
 30
0.000000
  0
VERTEX
  8
LAYER-1
 10
2.142166
 20
0.212576
 30
0.000000
  0
VERTEX
  8
LAYER-1
 10
2.142166
 20
0.216916
 30
0.000000
  0
VERTEX
  8
LAYER-1
 10
2.137825
 20
0.220389
 30
0.000000
  0
VERTEX
  8
LAYER-1
 10
2.132618
 20
0.221257
 30
0.000000
  0
VERTEX
  8
LAYER-1
 10
2.128277
 20
0.219521
 30
0.000000
  0
VERTEX
  8
LAYER-1
 10
2.126541
 20
0.215179
 30
0.000000
  0
VERTEX
  8
LAYER-1
 10
2.126541
 20
0.210840
 30
0.000000
  0
VERTEX
  8
LAYER-1
 10
2.130013
 20
0.206500
 30
0.000000
  0
VERTEX
  8
LAYER-1
 10
2.134354
 20
0.206500
 30
0.000000
  0
VERTEX
  8
LAYER-1
 10
2.138694
 20
0.207367
 30
0.000000
  0
VERTEX
  8
LAYER-1
 10
2.141299
 20
0.211708
 30
0.000000
  0
SEQEND
  8
LAYER-1
  0
POLYLINE
  8
LAYER-1
 66
  1
 70
  1
 62
  0
 10
2.074458
 20
0.175251
 30
0.000000
  0
VERTEX
  8
LAYER-1
 10
2.074458
 20
0.175251
 30
0.000000
  0
VERTEX
  8
LAYER-1
 10
2.051888
 20
0.188271
 30
0.000000
  0
VERTEX
  8
LAYER-1
 10
2.072721
 20
0.157889
 30
0.000000
  0
SEQEND
  8
LAYER-1
  0
POLYLINE
  8
LAYER-1
 66
  1
 70
  1
 62
  0
 10
0.843220
 20
0.211874
 30
0.000000
  0
VERTEX
  8
LAYER-1
 10
0.843220
 20
0.211874
 30
0.000000
  0
VERTEX
  8
LAYER-1
 10
0.823856
 20
0.224561
 30
0.000000
  0
VERTEX
  8
LAYER-1
 10
0.817845
 20
0.213210
 30
0.000000
  0
SEQEND
  8
LAYER-1
  0
POLYLINE
  8
LAYER-1
 66
  1
 70
  0
 62
  0
 10
1.854138
 20
0.183400
 30
0.000000
  0
VERTEX
  8
LAYER-1
 10
1.854138
 20
0.183400
 30
0.000000
  0
VERTEX
  8
LAYER-1
 10
1.854138
 20
0.187739
 30
0.000000
  0
VERTEX
  8
LAYER-1
 10
1.849797
 20
0.191212
 30
0.000000
  0
VERTEX
  8
LAYER-1
 10
1.844589
 20
0.192079
 30
0.000000
  0
VERTEX
  8
LAYER-1
 10
1.840249
 20
0.190344
 30
0.000000
  0
VERTEX
  8
LAYER-1
 10
1.838513
 20
0.186003
 30
0.000000
  0
VERTEX
  8
LAYER-1
 10
1.838513
 20
0.181663
 30
0.000000
  0
VERTEX
  8
LAYER-1
 10
1.841985
 20
0.177322
 30
0.000000
  0
VERTEX
  8
LAYER-1
 10
1.846325
 20
0.177322
 30
0.000000
  0
VERTEX
  8
LAYER-1
 10
1.850666
 20
0.178190
 30
0.000000
  0
VERTEX
  8
LAYER-1
 10
1.853271
 20
0.182532
 30
0.000000
  0
SEQEND
  8
LAYER-1
  0
POLYLINE
  8
LAYER-1
 66
  1
 70
  0
 62
  0
 10
0.820117
 20
0.144867
 30
0.000000
  0
VERTEX
  8
LAYER-1
 10
0.820117
 20
0.144867
 30
0.000000
  0
VERTEX
  8
LAYER-1
 10
0.820117
 20
0.149208
 30
0.000000
  0
VERTEX
  8
LAYER-1
 10
0.815777
 20
0.152679
 30
0.000000
  0
VERTEX
  8
LAYER-1
 10
0.810569
 20
0.153547
 30
0.000000
  0
VERTEX
  8
LAYER-1
 10
0.806228
 20
0.151812
 30
0.000000
  0
VERTEX
  8
LAYER-1
 10
0.804492
 20
0.147471
 30
0.000000
  0
VERTEX
  8
LAYER-1
 10
0.804492
 20
0.143132
 30
0.000000
  0
VERTEX
  8
LAYER-1
 10
0.807964
 20
0.138791
 30
0.000000
  0
VERTEX
  8
LAYER-1
 10
0.812305
 20
0.138791
 30
0.000000
  0
VERTEX
  8
LAYER-1
 10
0.816645
 20
0.139659
 30
0.000000
  0
VERTEX
  8
LAYER-1
 10
0.819250
 20
0.144000
 30
0.000000
  0
SEQEND
  8
LAYER-1
  0
POLYLINE
  8
LAYER-1
 66
  1
 70
  0
 62
  0
 10
1.942513
 20
0.212573
 30
0.000000
  0
VERTEX
  8
LAYER-1
 10
1.942513
 20
0.212573
 30
0.000000
  0
VERTEX
  8
LAYER-1
 10
1.942513
 20
0.216914
 30
0.000000
  0
VERTEX
  8
LAYER-1
 10
1.938172
 20
0.220385
 30
0.000000
  0
VERTEX
  8
LAYER-1
 10
1.932965
 20
0.221253
 30
0.000000
  0
VERTEX
  8
LAYER-1
 10
1.928624
 20
0.219518
 30
0.000000
  0
VERTEX
  8
LAYER-1
 10
1.926888
 20
0.215177
 30
0.000000
  0
VERTEX
  8
LAYER-1
 10
1.926888
 20
0.210837
 30
0.000000
  0
VERTEX
  8
LAYER-1
 10
1.930360
 20
0.206496
 30
0.000000
  0
VERTEX
  8
LAYER-1
 10
1.934700
 20
0.206496
 30
0.000000
  0
VERTEX
  8
LAYER-1
 10
1.939041
 20
0.207364
 30
0.000000
  0
VERTEX
  8
LAYER-1
 10
1.941646
 20
0.211706
 30
0.000000
  0
SEQEND
  8
LAYER-1
  0
POLYLINE
  8
LAYER-1
 66
  1
 70
  1
 62
  0
 10
1.501800
 20
0.077108
 30
0.000000
  0
VERTEX
  8
LAYER-1
 10
1.501800
 20
0.077108
 30
0.000000
  0
VERTEX
  8
LAYER-1
 10
1.475759
 20
0.070163
 30
0.000000
  0
VERTEX
  8
LAYER-1
 10
1.489647
 20
0.044990
 30
0.000000
  0
SEQEND
  8
LAYER-1
  0
POLYLINE
  8
LAYER-1
 66
  1
 70
  1
 62
  0
 10
2.348328
 20
0.140528
 30
0.000000
  0
VERTEX
  8
LAYER-1
 10
2.348328
 20
0.140528
 30
0.000000
  0
VERTEX
  8
LAYER-1
 10
2.370898
 20
0.127508
 30
0.000000
  0
VERTEX
  8
LAYER-1
 10
2.350065
 20
0.157889
 30
0.000000
  0
SEQEND
  8
LAYER-1
  0
POLYLINE
  8
LAYER-1
 66
  1
 70
  1
 62
  0
 10
0.957703
 20
0.157455
 30
0.000000
  0
VERTEX
  8
LAYER-1
 10
0.957703
 20
0.157455
 30
0.000000
  0
VERTEX
  8
LAYER-1
 10
0.982877
 20
0.140962
 30
0.000000
  0
VERTEX
  8
LAYER-1
 10
0.990690
 20
0.155719
 30
0.000000
  0
SEQEND
  8
LAYER-1
  0
POLYLINE
  8
LAYER-1
 66
  1
 70
  0
 62
  0
 10
2.276280
 20
0.187401
 30
0.000000
  0
VERTEX
  8
LAYER-1
 10
2.276280
 20
0.187401
 30
0.000000
  0
VERTEX
  8
LAYER-1
 10
2.276280
 20
0.183060
 30
0.000000
  0
VERTEX
  8
LAYER-1
 10
2.280621
 20
0.179588
 30
0.000000
  0
VERTEX
  8
LAYER-1
 10
2.285828
 20
0.178720
 30
0.000000
  0
VERTEX
  8
LAYER-1
 10
2.290169
 20
0.180456
 30
0.000000
  0
VERTEX
  8
LAYER-1
 10
2.291905
 20
0.184797
 30
0.000000
  0
VERTEX
  8
LAYER-1
 10
2.291905
 20
0.189137
 30
0.000000
  0
VERTEX
  8
LAYER-1
 10
2.288433
 20
0.193477
 30
0.000000
  0
VERTEX
  8
LAYER-1
 10
2.284093
 20
0.193477
 30
0.000000
  0
VERTEX
  8
LAYER-1
 10
2.279752
 20
0.192609
 30
0.000000
  0
VERTEX
  8
LAYER-1
 10
2.277148
 20
0.188269
 30
0.000000
  0
SEQEND
  8
LAYER-1
  0
POLYLINE
  8
LAYER-1
 66
  1
 70
  1
 62
  0
 10
2.225932
 20
0.198687
 30
0.000000
  0
VERTEX
  8
LAYER-1
 10
2.225932
 20
0.198687
 30
0.000000
  0
VERTEX
  8
LAYER-1
 10
2.248502
 20
0.185666
 30
0.000000
  0
VERTEX
  8
LAYER-1
 10
2.227669
 20
0.216047
 30
0.000000
  0
SEQEND
  8
LAYER-1
  0
POLYLINE
  8
LAYER-1
 66
  1
 70
  1
 62
  0
 10
0.956301
 20
0.105205
 30
0.000000
  0
VERTEX
  8
LAYER-1
 10
0.956301
 20
0.105205
 30
0.000000
  0
VERTEX
  8
LAYER-1
 10
0.975666
 20
0.092518
 30
0.000000
  0
VERTEX
  8
LAYER-1
 10
0.981677
 20
0.103869
 30
0.000000
  0
SEQEND
  8
LAYER-1
  0
POLYLINE
  8
LAYER-1
 66
  1
 70
  0
 62
  0
 10
1.682443
 20
0.057490
 30
0.000000
  0
VERTEX
  8
LAYER-1
 10
1.682443
 20
0.057490
 30
0.000000
  0
VERTEX
  8
LAYER-1
 10
1.682443
 20
0.061829
 30
0.000000
  0
VERTEX
  8
LAYER-1
 10
1.678102
 20
0.065303
 30
0.000000
  0
VERTEX
  8
LAYER-1
 10
1.672894
 20
0.066171
 30
0.000000
  0
VERTEX
  8
LAYER-1
 10
1.668554
 20
0.064434
 30
0.000000
  0
VERTEX
  8
LAYER-1
 10
1.666818
 20
0.060094
 30
0.000000
  0
VERTEX
  8
LAYER-1
 10
1.666818
 20
0.055753
 30
0.000000
  0
VERTEX
  8
LAYER-1
 10
1.670289
 20
0.051414
 30
0.000000
  0
VERTEX
  8
LAYER-1
 10
1.674630
 20
0.051414
 30
0.000000
  0
VERTEX
  8
LAYER-1
 10
1.678971
 20
0.052282
 30
0.000000
  0
VERTEX
  8
LAYER-1
 10
1.681575
 20
0.056622
 30
0.000000
  0
SEQEND
  8
LAYER-1
  0
POLYLINE
  8
LAYER-1
 66
  1
 70
  0
 62
  0
 10
2.488085
 20
0.140528
 30
0.000000
  0
VERTEX
  8
LAYER-1
 10
2.488085
 20
0.140528
 30
0.000000
  0
VERTEX
  8
LAYER-1
 10
2.488085
 20
0.136188
 30
0.000000
  0
VERTEX
  8
LAYER-1
 10
2.492426
 20
0.132716
 30
0.000000
  0
VERTEX
  8
LAYER-1
 10
2.497634
 20
0.131848
 30
0.000000
  0
VERTEX
  8
LAYER-1
 10
2.501975
 20
0.133584
 30
0.000000
  0
VERTEX
  8
LAYER-1
 10
2.503711
 20
0.137923
 30
0.000000
  0
VERTEX
  8
LAYER-1
 10
2.503711
 20
0.142264
 30
0.000000
  0
VERTEX
  8
LAYER-1
 10
2.500239
 20
0.146606
 30
0.000000
  0
VERTEX
  8
LAYER-1
 10
2.495898
 20
0.146606
 30
0.000000
  0
VERTEX
  8
LAYER-1
 10
2.491557
 20
0.145736
 30
0.000000
  0
VERTEX
  8
LAYER-1
 10
2.488953
 20
0.141396
 30
0.000000
  0
SEQEND
  8
LAYER-1
  0
POLYLINE
  8
LAYER-1
 66
  1
 70
  0
 62
  0
 10
2.322287
 20
0.195216
 30
0.000000
  0
VERTEX
  8
LAYER-1
 10
2.322287
 20
0.195216
 30
0.000000
  0
VERTEX
  8
LAYER-1
 10
2.322287
 20
0.190876
 30
0.000000
  0
VERTEX
  8
LAYER-1
 10
2.326628
 20
0.187403
 30
0.000000
  0
VERTEX
  8
LAYER-1
 10
2.331835
 20
0.186535
 30
0.000000
  0
VERTEX
  8
LAYER-1
 10
2.336176
 20
0.188271
 30
0.000000
  0
VERTEX
  8
LAYER-1
 10
2.337912
 20
0.192612
 30
0.000000
  0
VERTEX
  8
LAYER-1
 10
2.337912
 20
0.196952
 30
0.000000
  0
VERTEX
  8
LAYER-1
 10
2.334440
 20
0.201293
 30
0.000000
  0
VERTEX
  8
LAYER-1
 10
2.330100
 20
0.201293
 30
0.000000
  0
VERTEX
  8
LAYER-1
 10
2.325759
 20
0.200424
 30
0.000000
  0
VERTEX
  8
LAYER-1
 10
2.323154
 20
0.196084
 30
0.000000
  0
SEQEND
  8
LAYER-1
  0
POLYLINE
  8
LAYER-1
 66
  1
 70
  1
 62
  0
 10
2.084440
 20
0.112317
 30
0.000000
  0
VERTEX
  8
LAYER-1
 10
2.084440
 20
0.112317
 30
0.000000
  0
VERTEX
  8
LAYER-1
 10
2.091385
 20
0.086277
 30
0.000000
  0
VERTEX
  8
LAYER-1
 10
2.116558
 20
0.100164
 30
0.000000
  0
SEQEND
  8
LAYER-1
  0
POLYLINE
  8
LAYER-1
 66
  1
 70
  1
 62
  0
 10
2.188955
 20
0.099559
 30
0.000000
  0
VERTEX
  8
LAYER-1
 10
2.188955
 20
0.099559
 30
0.000000
  0
VERTEX
  8
LAYER-1
 10
2.175933
 20
0.076988
 30
0.000000
  0
VERTEX
  8
LAYER-1
 10
2.206316
 20
0.097822
 30
0.000000
  0
SEQEND
  8
LAYER-1
  0
POLYLINE
  8
LAYER-1
 66
  1
 70
  1
 62
  0
 10
1.904919
 20
0.130014
 30
0.000000
  0
VERTEX
  8
LAYER-1
 10
1.904919
 20
0.130014
 30
0.000000
  0
VERTEX
  8
LAYER-1
 10
1.888426
 20
0.104841
 30
0.000000
  0
VERTEX
  8
LAYER-1
 10
1.903183
 20
0.097028
 30
0.000000
  0
SEQEND
  8
LAYER-1
  0
POLYLINE
  8
LAYER-1
 66
  1
 70
  0
 62
  0
 10
2.034961
 20
0.143567
 30
0.000000
  0
VERTEX
  8
LAYER-1
 10
2.034961
 20
0.143567
 30
0.000000
  0
VERTEX
  8
LAYER-1
 10
2.030621
 20
0.143567
 30
0.000000
  0
VERTEX
  8
LAYER-1
 10
2.027149
 20
0.139226
 30
0.000000
  0
VERTEX
  8
LAYER-1
 10
2.026281
 20
0.134019
 30
0.000000
  0
VERTEX
  8
LAYER-1
 10
2.028017
 20
0.129678
 30
0.000000
  0
VERTEX
  8
LAYER-1
 10
2.032358
 20
0.127942
 30
0.000000
  0
VERTEX
  8
LAYER-1
 10
2.036697
 20
0.127942
 30
0.000000
  0
VERTEX
  8
LAYER-1
 10
2.041038
 20
0.131414
 30
0.000000
  0
VERTEX
  8
LAYER-1
 10
2.041038
 20
0.135754
 30
0.000000
  0
VERTEX
  8
LAYER-1
 10
2.040170
 20
0.140095
 30
0.000000
  0
VERTEX
  8
LAYER-1
 10
2.035829
 20
0.142700
 30
0.000000
  0
SEQEND
  8
LAYER-1
  0
POLYLINE
  8
LAYER-1
 66
  1
 70
  1
 62
  0
 10
0.892600
 20
0.219955
 30
0.000000
  0
VERTEX
  8
LAYER-1
 10
0.892600
 20
0.219955
 30
0.000000
  0
VERTEX
  8
LAYER-1
 10
0.879579
 20
0.197384
 30
0.000000
  0
VERTEX
  8
LAYER-1
 10
0.909961
 20
0.218217
 30
0.000000
  0
SEQEND
  8
LAYER-1
  0
POLYLINE
  8
LAYER-1
 66
  1
 70
  1
 62
  0
 10
1.889996
 20
0.162664
 30
0.000000
  0
VERTEX
  8
LAYER-1
 10
1.889996
 20
0.162664
 30
0.000000
  0
VERTEX
  8
LAYER-1
 10
1.877309
 20
0.143300
 30
0.000000
  0
VERTEX
  8
LAYER-1
 10
1.888660
 20
0.137288
 30
0.000000
  0
SEQEND
  8
LAYER-1
  0
POLYLINE
  8
LAYER-1
 66
  1
 70
  0
 62
  0
 10
2.186871
 20
0.145303
 30
0.000000
  0
VERTEX
  8
LAYER-1
 10
2.186871
 20
0.145303
 30
0.000000
  0
VERTEX
  8
LAYER-1
 10
2.182531
 20
0.145303
 30
0.000000
  0
VERTEX
  8
LAYER-1
 10
2.179058
 20
0.140962
 30
0.000000
  0
VERTEX
  8
LAYER-1
 10
2.178190
 20
0.135754
 30
0.000000
  0
VERTEX
  8
LAYER-1
 10
2.179926
 20
0.131414
 30
0.000000
  0
VERTEX
  8
LAYER-1
 10
2.184267
 20
0.129678
 30
0.000000
  0
VERTEX
  8
LAYER-1
 10
2.188608
 20
0.129678
 30
0.000000
  0
VERTEX
  8
LAYER-1
 10
2.192947
 20
0.133150
 30
0.000000
  0
VERTEX
  8
LAYER-1
 10
2.192947
 20
0.137490
 30
0.000000
  0
VERTEX
  8
LAYER-1
 10
2.192079
 20
0.141831
 30
0.000000
  0
VERTEX
  8
LAYER-1
 10
2.187739
 20
0.144435
 30
0.000000
  0
SEQEND
  8
LAYER-1
  0
POLYLINE
  8
LAYER-1
 66
  1
 70
  0
 62
  0
 10
2.246767
 20
0.150510
 30
0.000000
  0
VERTEX
  8
LAYER-1
 10
2.246767
 20
0.150510
 30
0.000000
  0
VERTEX
  8
LAYER-1
 10
2.242426
 20
0.150510
 30
0.000000
  0
VERTEX
  8
LAYER-1
 10
2.238954
 20
0.146170
 30
0.000000
  0
VERTEX
  8
LAYER-1
 10
2.238086
 20
0.140962
 30
0.000000
  0
VERTEX
  8
LAYER-1
 10
2.239822
 20
0.136621
 30
0.000000
  0
VERTEX
  8
LAYER-1
 10
2.244163
 20
0.134885
 30
0.000000
  0
VERTEX
  8
LAYER-1
 10
2.248503
 20
0.134885
 30
0.000000
  0
VERTEX
  8
LAYER-1
 10
2.252843
 20
0.138357
 30
0.000000
  0
VERTEX
  8
LAYER-1
 10
2.252843
 20
0.142698
 30
0.000000
  0
VERTEX
  8
LAYER-1
 10
2.251976
 20
0.147039
 30
0.000000
  0
VERTEX
  8
LAYER-1
 10
2.247635
 20
0.149644
 30
0.000000
  0
SEQEND
  8
LAYER-1
  0
POLYLINE
  8
LAYER-1
 66
  1
 70
  0
 62
  0
 10
0.903016
 20
0.137489
 30
0.000000
  0
VERTEX
  8
LAYER-1
 10
0.903016
 20
0.137489
 30
0.000000
  0
VERTEX
  8
LAYER-1
 10
0.898676
 20
0.137489
 30
0.000000
  0
VERTEX
  8
LAYER-1
 10
0.895204
 20
0.133148
 30
0.000000
  0
VERTEX
  8
LAYER-1
 10
0.894336
 20
0.127941
 30
0.000000
  0
VERTEX
  8
LAYER-1
 10
0.896072
 20
0.123600
 30
0.000000
  0
VERTEX
  8
LAYER-1
 10
0.900413
 20
0.121864
 30
0.000000
  0
VERTEX
  8
LAYER-1
 10
0.904752
 20
0.121864
 30
0.000000
  0
VERTEX
  8
LAYER-1
 10
0.909093
 20
0.125336
 30
0.000000
  0
VERTEX
  8
LAYER-1
 10
0.909093
 20
0.129677
 30
0.000000
  0
VERTEX
  8
LAYER-1
 10
0.908225
 20
0.134017
 30
0.000000
  0
VERTEX
  8
LAYER-1
 10
0.903884
 20
0.136622
 30
0.000000
  0
SEQEND
  8
LAYER-1
  0
POLYLINE
  8
LAYER-1
 66
  1
 70
  1
 62
  0
 10
2.554058
 20
0.177420
 30
0.000000
  0
VERTEX
  8
LAYER-1
 10
2.554058
 20
0.177420
 30
0.000000
  0
VERTEX
  8
LAYER-1
 10
2.561003
 20
0.151378
 30
0.000000
  0
VERTEX
  8
LAYER-1
 10
2.586177
 20
0.165266
 30
0.000000
  0
SEQEND
  8
LAYER-1
  0
POLYLINE
  8
LAYER-1
 66
  1
 70
  1
 62
  0
 10
2.716385
 20
0.206066
 30
0.000000
  0
VERTEX
  8
LAYER-1
 10
2.716385
 20
0.206066
 30
0.000000
  0
VERTEX
  8
LAYER-1
 10
2.703364
 20
0.183496
 30
0.000000
  0
VERTEX
  8
LAYER-1
 10
2.733746
 20
0.204329
 30
0.000000
  0
SEQEND
  8
LAYER-1
  0
POLYLINE
  8
LAYER-1
 66
  1
 70
  1
 62
  0
 10
1.392600
 20
0.157021
 30
0.000000
  0
VERTEX
  8
LAYER-1
 10
1.392600
 20
0.157021
 30
0.000000
  0
VERTEX
  8
LAYER-1
 10
1.376107
 20
0.131846
 30
0.000000
  0
VERTEX
  8
LAYER-1
 10
1.390864
 20
0.124034
 30
0.000000
  0
SEQEND
  8
LAYER-1
  0
POLYLINE
  8
LAYER-1
 66
  1
 70
  0
 62
  0
 10
2.504580
 20
0.208670
 30
0.000000
  0
VERTEX
  8
LAYER-1
 10
2.504580
 20
0.208670
 30
0.000000
  0
VERTEX
  8
LAYER-1
 10
2.500239
 20
0.208670
 30
0.000000
  0
VERTEX
  8
LAYER-1
 10
2.496767
 20
0.204329
 30
0.000000
  0
VERTEX
  8
LAYER-1
 10
2.495898
 20
0.199121
 30
0.000000
  0
VERTEX
  8
LAYER-1
 10
2.497635
 20
0.194781
 30
0.000000
  0
VERTEX
  8
LAYER-1
 10
2.501975
 20
0.193045
 30
0.000000
  0
VERTEX
  8
LAYER-1
 10
2.506316
 20
0.193045
 30
0.000000
  0
VERTEX
  8
LAYER-1
 10
2.510656
 20
0.196516
 30
0.000000
  0
VERTEX
  8
LAYER-1
 10
2.510656
 20
0.200857
 30
0.000000
  0
VERTEX
  8
LAYER-1
 10
2.509787
 20
0.205198
 30
0.000000
  0
VERTEX
  8
LAYER-1
 10
2.505448
 20
0.207802
 30
0.000000
  0
SEQEND
  8
LAYER-1
  0
POLYLINE
  8
LAYER-1
 66
  1
 70
  1
 62
  0
 10
2.541906
 20
0.140961
 30
0.000000
  0
VERTEX
  8
LAYER-1
 10
2.541906
 20
0.140961
 30
0.000000
  0
VERTEX
  8
LAYER-1
 10
2.528885
 20
0.118391
 30
0.000000
  0
VERTEX
  8
LAYER-1
 10
2.559267
 20
0.139225
 30
0.000000
  0
SEQEND
  8
LAYER-1
  0
POLYLINE
  8
LAYER-1
 66
  1
 70
  1
 62
  0
 10
1.100832
 20
0.231333
 30
0.000000
  0
VERTEX
  8
LAYER-1
 10
1.100832
 20
0.231333
 30
0.000000
  0
VERTEX
  8
LAYER-1
 10
1.120197
 20
0.218647
 30
0.000000
  0
VERTEX
  8
LAYER-1
 10
1.126207
 20
0.229997
 30
0.000000
  0
SEQEND
  8
LAYER-1
  0
POLYLINE
  8
LAYER-1
 66
  1
 70
  0
 62
  0
 10
2.656489
 20
0.210406
 30
0.000000
  0
VERTEX
  8
LAYER-1
 10
2.656489
 20
0.210406
 30
0.000000
  0
VERTEX
  8
LAYER-1
 10
2.652148
 20
0.210406
 30
0.000000
  0
VERTEX
  8
LAYER-1
 10
2.648677
 20
0.206065
 30
0.000000
  0
VERTEX
  8
LAYER-1
 10
2.647808
 20
0.200857
 30
0.000000
  0
VERTEX
  8
LAYER-1
 10
2.649544
 20
0.196516
 30
0.000000
  0
VERTEX
  8
LAYER-1
 10
2.653885
 20
0.194781
 30
0.000000
  0
VERTEX
  8
LAYER-1
 10
2.658225
 20
0.194781
 30
0.000000
  0
VERTEX
  8
LAYER-1
 10
2.662566
 20
0.198252
 30
0.000000
  0
VERTEX
  8
LAYER-1
 10
2.662566
 20
0.202593
 30
0.000000
  0
VERTEX
  8
LAYER-1
 10
2.661698
 20
0.206934
 30
0.000000
  0
VERTEX
  8
LAYER-1
 10
2.657357
 20
0.209538
 30
0.000000
  0
SEQEND
  8
LAYER-1
  0
POLYLINE
  8
LAYER-1
 66
  1
 70
  0
 62
  0
 10
1.444683
 20
0.150944
 30
0.000000
  0
VERTEX
  8
LAYER-1
 10
1.444683
 20
0.150944
 30
0.000000
  0
VERTEX
  8
LAYER-1
 10
1.440343
 20
0.150944
 30
0.000000
  0
VERTEX
  8
LAYER-1
 10
1.436871
 20
0.146603
 30
0.000000
  0
VERTEX
  8
LAYER-1
 10
1.436003
 20
0.141396
 30
0.000000
  0
VERTEX
  8
LAYER-1
 10
1.437739
 20
0.137054
 30
0.000000
  0
VERTEX
  8
LAYER-1
 10
1.442079
 20
0.135319
 30
0.000000
  0
VERTEX
  8
LAYER-1
 10
1.446419
 20
0.135319
 30
0.000000
  0
VERTEX
  8
LAYER-1
 10
1.450759
 20
0.138791
 30
0.000000
  0
VERTEX
  8
LAYER-1
 10
1.450759
 20
0.143132
 30
0.000000
  0
VERTEX
  8
LAYER-1
 10
1.449891
 20
0.147472
 30
0.000000
  0
VERTEX
  8
LAYER-1
 10
1.445551
 20
0.150076
 30
0.000000
  0
SEQEND
  8
LAYER-1
  0
POLYLINE
  8
LAYER-1
 66
  1
 70
  0
 62
  0
 10
1.028016
 20
0.127507
 30
0.000000
  0
VERTEX
  8
LAYER-1
 10
1.028016
 20
0.127507
 30
0.000000
  0
VERTEX
  8
LAYER-1
 10
1.023675
 20
0.127507
 30
0.000000
  0
VERTEX
  8
LAYER-1
 10
1.020204
 20
0.123166
 30
0.000000
  0
VERTEX
  8
LAYER-1
 10
1.019336
 20
0.117958
 30
0.000000
  0
VERTEX
  8
LAYER-1
 10
1.021072
 20
0.113617
 30
0.000000
  0
VERTEX
  8
LAYER-1
 10
1.025411
 20
0.111882
 30
0.000000
  0
VERTEX
  8
LAYER-1
 10
1.029752
 20
0.111882
 30
0.000000
  0
VERTEX
  8
LAYER-1
 10
1.034092
 20
0.115353
 30
0.000000
  0
VERTEX
  8
LAYER-1
 10
1.034092
 20
0.119694
 30
0.000000
  0
VERTEX
  8
LAYER-1
 10
1.033224
 20
0.124034
 30
0.000000
  0
VERTEX
  8
LAYER-1
 10
1.028884
 20
0.126639
 30
0.000000
  0
SEQEND
  8
LAYER-1
  0
POLYLINE
  8
LAYER-1
 66
  1
 70
  1
 62
  0
 10
2.995898
 20
0.201725
 30
0.000000
  0
VERTEX
  8
LAYER-1
 10
2.995898
 20
0.201725
 30
0.000000
  0
VERTEX
  8
LAYER-1
 10
3.002843
 20
0.175685
 30
0.000000
  0
VERTEX
  8
LAYER-1
 10
3.028016
 20
0.189572
 30
0.000000
  0
SEQEND
  8
LAYER-1
  0
POLYLINE
  8
LAYER-1
 66
  1
 70
  1
 62
  0
 10
3.158225
 20
0.230372
 30
0.000000
  0
VERTEX
  8
LAYER-1
 10
3.158225
 20
0.230372
 30
0.000000
  0
VERTEX
  8
LAYER-1
 10
3.145204
 20
0.207802
 30
0.000000
  0
VERTEX
  8
LAYER-1
 10
3.175586
 20
0.228634
 30
0.000000
  0
SEQEND
  8
LAYER-1
  0
POLYLINE
  8
LAYER-1
 66
  1
 70
  1
 62
  0
 10
2.386524
 20
0.166135
 30
0.000000
  0
VERTEX
  8
LAYER-1
 10
2.386524
 20
0.166135
 30
0.000000
  0
VERTEX
  8
LAYER-1
 10
2.411697
 20
0.149641
 30
0.000000
  0
VERTEX
  8
LAYER-1
 10
2.419509
 20
0.164400
 30
0.000000
  0
SEQEND
  8
LAYER-1
  0
POLYLINE
  8
LAYER-1
 66
  1
 70
  0
 62
  0
 10
2.956836
 20
0.222560
 30
0.000000
  0
VERTEX
  8
LAYER-1
 10
2.956836
 20
0.222560
 30
0.000000
  0
VERTEX
  8
LAYER-1
 10
2.952495
 20
0.222560
 30
0.000000
  0
VERTEX
  8
LAYER-1
 10
2.949023
 20
0.218219
 30
0.000000
  0
VERTEX
  8
LAYER-1
 10
2.948155
 20
0.213012
 30
0.000000
  0
VERTEX
  8
LAYER-1
 10
2.949891
 20
0.208671
 30
0.000000
  0
VERTEX
  8
LAYER-1
 10
2.954232
 20
0.206935
 30
0.000000
  0
VERTEX
  8
LAYER-1
 10
2.958572
 20
0.206935
 30
0.000000
  0
VERTEX
  8
LAYER-1
 10
2.962912
 20
0.210407
 30
0.000000
  0
VERTEX
  8
LAYER-1
 10
2.962912
 20
0.214747
 30
0.000000
  0
VERTEX
  8
LAYER-1
 10
2.962044
 20
0.219088
 30
0.000000
  0
VERTEX
  8
LAYER-1
 10
2.957704
 20
0.221693
 30
0.000000
  0
SEQEND
  8
LAYER-1
  0
POLYLINE
  8
LAYER-1
 66
  1
 70
  1
 62
  0
 10
2.972462
 20
0.134017
 30
0.000000
  0
VERTEX
  8
LAYER-1
 10
2.972462
 20
0.134017
 30
0.000000
  0
VERTEX
  8
LAYER-1
 10
2.959441
 20
0.111447
 30
0.000000
  0
VERTEX
  8
LAYER-1
 10
2.989823
 20
0.132279
 30
0.000000
  0
SEQEND
  8
LAYER-1
  0
POLYLINE
  8
LAYER-1
 66
  1
 70
  1
 62
  0
 10
3.066912
 20
0.127604
 30
0.000000
  0
VERTEX
  8
LAYER-1
 10
3.066912
 20
0.127604
 30
0.000000
  0
VERTEX
  8
LAYER-1
 10
3.054225
 20
0.108241
 30
0.000000
  0
VERTEX
  8
LAYER-1
 10
3.065576
 20
0.102230
 30
0.000000
  0
SEQEND
  8
LAYER-1
  0
POLYLINE
  8
LAYER-1
 66
  1
 70
  0
 62
  0
 10
3.098329
 20
0.226900
 30
0.000000
  0
VERTEX
  8
LAYER-1
 10
3.098329
 20
0.226900
 30
0.000000
  0
VERTEX
  8
LAYER-1
 10
3.093989
 20
0.226900
 30
0.000000
  0
VERTEX
  8
LAYER-1
 10
3.090516
 20
0.222559
 30
0.000000
  0
VERTEX
  8
LAYER-1
 10
3.089648
 20
0.217351
 30
0.000000
  0
VERTEX
  8
LAYER-1
 10
3.091384
 20
0.213010
 30
0.000000
  0
VERTEX
  8
LAYER-1
 10
3.095725
 20
0.211275
 30
0.000000
  0
VERTEX
  8
LAYER-1
 10
3.100066
 20
0.211275
 30
0.000000
  0
VERTEX
  8
LAYER-1
 10
3.104405
 20
0.214746
 30
0.000000
  0
VERTEX
  8
LAYER-1
 10
3.104405
 20
0.219087
 30
0.000000
  0
VERTEX
  8
LAYER-1
 10
3.103537
 20
0.223428
 30
0.000000
  0
VERTEX
  8
LAYER-1
 10
3.099197
 20
0.226033
 30
0.000000
  0
SEQEND
  8
LAYER-1
  0
POLYLINE
  8
LAYER-1
 66
  1
 70
  0
 62
  0
 10
2.375239
 20
0.219087
 30
0.000000
  0
VERTEX
  8
LAYER-1
 10
2.375239
 20
0.219087
 30
0.000000
  0
VERTEX
  8
LAYER-1
 10
2.375239
 20
0.214746
 30
0.000000
  0
VERTEX
  8
LAYER-1
 10
2.379580
 20
0.211275
 30
0.000000
  0
VERTEX
  8
LAYER-1
 10
2.384788
 20
0.210406
 30
0.000000
  0
VERTEX
  8
LAYER-1
 10
2.389128
 20
0.212141
 30
0.000000
  0
VERTEX
  8
LAYER-1
 10
2.390864
 20
0.216482
 30
0.000000
  0
VERTEX
  8
LAYER-1
 10
2.390864
 20
0.220823
 30
0.000000
  0
VERTEX
  8
LAYER-1
 10
2.387392
 20
0.225164
 30
0.000000
  0
VERTEX
  8
LAYER-1
 10
2.383052
 20
0.225164
 30
0.000000
  0
VERTEX
  8
LAYER-1
 10
2.378711
 20
0.224295
 30
0.000000
  0
VERTEX
  8
LAYER-1
 10
2.376106
 20
0.219954
 30
0.000000
  0
SEQEND
  8
LAYER-1
  0
POLYLINE
  8
LAYER-1
 66
  1
 70
  0
 62
  0
 10
2.938606
 20
0.134883
 30
0.000000
  0
VERTEX
  8
LAYER-1
 10
2.938606
 20
0.134883
 30
0.000000
  0
VERTEX
  8
LAYER-1
 10
2.934265
 20
0.134883
 30
0.000000
  0
VERTEX
  8
LAYER-1
 10
2.930794
 20
0.130543
 30
0.000000
  0
VERTEX
  8
LAYER-1
 10
2.929925
 20
0.125335
 30
0.000000
  0
VERTEX
  8
LAYER-1
 10
2.931661
 20
0.120995
 30
0.000000
  0
VERTEX
  8
LAYER-1
 10
2.936002
 20
0.119258
 30
0.000000
  0
VERTEX
  8
LAYER-1
 10
2.940342
 20
0.119258
 30
0.000000
  0
VERTEX
  8
LAYER-1
 10
2.944683
 20
0.122731
 30
0.000000
  0
VERTEX
  8
LAYER-1
 10
2.944683
 20
0.127071
 30
0.000000
  0
VERTEX
  8
LAYER-1
 10
2.943815
 20
0.131412
 30
0.000000
  0
VERTEX
  8
LAYER-1
 10
2.939474
 20
0.134016
 30
0.000000
  0
SEQEND
  8
LAYER-1
  0
POLYLINE
  8
LAYER-1
 66
  1
 70
  1
 62
  0
 10
2.805795
 20
0.123166
 30
0.000000
  0
VERTEX
  8
LAYER-1
 10
2.805795
 20
0.123166
 30
0.000000
  0
VERTEX
  8
LAYER-1
 10
2.779753
 20
0.116222
 30
0.000000
  0
VERTEX
  8
LAYER-1
 10
2.793642
 20
0.091048
 30
0.000000
  0
SEQEND
  8
LAYER-1
  0
POLYLINE
  8
LAYER-1
 66
  1
 70
  1
 62
  0
 10
1.429059
 20
0.097559
 30
0.000000
  0
VERTEX
  8
LAYER-1
 10
1.429059
 20
0.097559
 30
0.000000
  0
VERTEX
  8
LAYER-1
 10
1.403884
 20
0.114052
 30
0.000000
  0
VERTEX
  8
LAYER-1
 10
1.396071
 20
0.099295
 30
0.000000
  0
SEQEND
  8
LAYER-1
  0
POLYLINE
  8
LAYER-1
 66
  1
 70
  0
 62
  0
 10
2.837045
 20
0.172646
 30
0.000000
  0
VERTEX
  8
LAYER-1
 10
2.837045
 20
0.172646
 30
0.000000
  0
VERTEX
  8
LAYER-1
 10
2.837045
 20
0.176987
 30
0.000000
  0
VERTEX
  8
LAYER-1
 10
2.832705
 20
0.180458
 30
0.000000
  0
VERTEX
  8
LAYER-1
 10
2.827497
 20
0.181326
 30
0.000000
  0
VERTEX
  8
LAYER-1
 10
2.823156
 20
0.179590
 30
0.000000
  0
VERTEX
  8
LAYER-1
 10
2.821420
 20
0.175250
 30
0.000000
  0
VERTEX
  8
LAYER-1
 10
2.821420
 20
0.170909
 30
0.000000
  0
VERTEX
  8
LAYER-1
 10
2.824892
 20
0.166570
 30
0.000000
  0
VERTEX
  8
LAYER-1
 10
2.829233
 20
0.166570
 30
0.000000
  0
VERTEX
  8
LAYER-1
 10
2.833574
 20
0.167437
 30
0.000000
  0
VERTEX
  8
LAYER-1
 10
2.836177
 20
0.171778
 30
0.000000
  0
SEQEND
  8
LAYER-1
  0
POLYLINE
  8
LAYER-1
 66
  1
 70
  1
 62
  0
 10
2.769336
 20
0.135320
 30
0.000000
  0
VERTEX
  8
LAYER-1
 10
2.769336
 20
0.135320
 30
0.000000
  0
VERTEX
  8
LAYER-1
 10
2.746767
 20
0.148340
 30
0.000000
  0
VERTEX
  8
LAYER-1
 10
2.767600
 20
0.117958
 30
0.000000
  0
SEQEND
  8
LAYER-1
  0
POLYLINE
  8
LAYER-1
 66
  1
 70
  1
 62
  0
 10
1.506850
 20
0.116822
 30
0.000000
  0
VERTEX
  8
LAYER-1
 10
1.506850
 20
0.116822
 30
0.000000
  0
VERTEX
  8
LAYER-1
 10
1.487484
 20
0.129509
 30
0.000000
  0
VERTEX
  8
LAYER-1
 10
1.481475
 20
0.118157
 30
0.000000
  0
SEQEND
  8
LAYER-1
  0
POLYLINE
  8
LAYER-1
 66
  1
 70
  0
 62
  0
 10
1.567080
 20
0.105371
 30
0.000000
  0
VERTEX
  8
LAYER-1
 10
1.567080
 20
0.105371
 30
0.000000
  0
VERTEX
  8
LAYER-1
 10
1.567080
 20
0.109711
 30
0.000000
  0
VERTEX
  8
LAYER-1
 10
1.562739
 20
0.113184
 30
0.000000
  0
VERTEX
  8
LAYER-1
 10
1.557532
 20
0.114052
 30
0.000000
  0
VERTEX
  8
LAYER-1
 10
1.553191
 20
0.112316
 30
0.000000
  0
VERTEX
  8
LAYER-1
 10
1.551455
 20
0.107975
 30
0.000000
  0
VERTEX
  8
LAYER-1
 10
1.551455
 20
0.103634
 30
0.000000
  0
VERTEX
  8
LAYER-1
 10
1.554927
 20
0.099295
 30
0.000000
  0
VERTEX
  8
LAYER-1
 10
1.559268
 20
0.099295
 30
0.000000
  0
VERTEX
  8
LAYER-1
 10
1.563608
 20
0.100163
 30
0.000000
  0
VERTEX
  8
LAYER-1
 10
1.566211
 20
0.104503
 30
0.000000
  0
SEQEND
  8
LAYER-1
  0
POLYLINE
  8
LAYER-1
 66
  1
 70
  0
 62
  0
 10
2.686872
 20
0.124903
 30
0.000000
  0
VERTEX
  8
LAYER-1
 10
2.686872
 20
0.124903
 30
0.000000
  0
VERTEX
  8
LAYER-1
 10
2.686872
 20
0.129244
 30
0.000000
  0
VERTEX
  8
LAYER-1
 10
2.682531
 20
0.132715
 30
0.000000
  0
VERTEX
  8
LAYER-1
 10
2.677324
 20
0.133583
 30
0.000000
  0
VERTEX
  8
LAYER-1
 10
2.672983
 20
0.131847
 30
0.000000
  0
VERTEX
  8
LAYER-1
 10
2.671247
 20
0.127508
 30
0.000000
  0
VERTEX
  8
LAYER-1
 10
2.671247
 20
0.123166
 30
0.000000
  0
VERTEX
  8
LAYER-1
 10
2.674719
 20
0.118826
 30
0.000000
  0
VERTEX
  8
LAYER-1
 10
2.679060
 20
0.118826
 30
0.000000
  0
VERTEX
  8
LAYER-1
 10
2.683400
 20
0.119695
 30
0.000000
  0
VERTEX
  8
LAYER-1
 10
2.686003
 20
0.124034
 30
0.000000
  0
SEQEND
  8
LAYER-1
  0
POLYLINE
  8
LAYER-1
 66
  1
 70
  1
 62
  0
 10
2.879579
 20
0.126206
 30
0.000000
  0
VERTEX
  8
LAYER-1
 10
2.879579
 20
0.126206
 30
0.000000
  0
VERTEX
  8
LAYER-1
 10
2.872635
 20
0.152246
 30
0.000000
  0
VERTEX
  8
LAYER-1
 10
2.847461
 20
0.138359
 30
0.000000
  0
SEQEND
  8
LAYER-1
  0
POLYLINE
  8
LAYER-1
 66
  1
 70
  1
 62
  0
 10
2.326628
 20
0.113184
 30
0.000000
  0
VERTEX
  8
LAYER-1
 10
2.326628
 20
0.113184
 30
0.000000
  0
VERTEX
  8
LAYER-1
 10
2.304057
 20
0.126206
 30
0.000000
  0
VERTEX
  8
LAYER-1
 10
2.324890
 20
0.095823
 30
0.000000
  0
SEQEND
  8
LAYER-1
  0
POLYLINE
  8
LAYER-1
 66
  1
 70
  1
 62
  0
 10
3.104406
 20
0.137490
 30
0.000000
  0
VERTEX
  8
LAYER-1
 10
3.104406
 20
0.137490
 30
0.000000
  0
VERTEX
  8
LAYER-1
 10
3.120899
 20
0.162664
 30
0.000000
  0
VERTEX
  8
LAYER-1
 10
3.106142
 20
0.170476
 30
0.000000
  0
SEQEND
  8
LAYER-1
  0
POLYLINE
  8
LAYER-1
 66
  1
 70
  0
 62
  0
 10
3.239822
 20
0.105370
 30
0.000000
  0
VERTEX
  8
LAYER-1
 10
3.239822
 20
0.105370
 30
0.000000
  0
VERTEX
  8
LAYER-1
 10
3.244163
 20
0.105370
 30
0.000000
  0
VERTEX
  8
LAYER-1
 10
3.247634
 20
0.109710
 30
0.000000
  0
VERTEX
  8
LAYER-1
 10
3.248503
 20
0.114918
 30
0.000000
  0
VERTEX
  8
LAYER-1
 10
3.246767
 20
0.119258
 30
0.000000
  0
VERTEX
  8
LAYER-1
 10
3.242426
 20
0.120995
 30
0.000000
  0
VERTEX
  8
LAYER-1
 10
3.238086
 20
0.120995
 30
0.000000
  0
VERTEX
  8
LAYER-1
 10
3.233746
 20
0.117522
 30
0.000000
  0
VERTEX
  8
LAYER-1
 10
3.233746
 20
0.113182
 30
0.000000
  0
VERTEX
  8
LAYER-1
 10
3.234614
 20
0.108841
 30
0.000000
  0
VERTEX
  8
LAYER-1
 10
3.238954
 20
0.106237
 30
0.000000
  0
SEQEND
  8
LAYER-1
  0
POLYLINE
  8
LAYER-1
 66
  1
 70
  1
 62
  0
 10
2.891731
 20
0.162664
 30
0.000000
  0
VERTEX
  8
LAYER-1
 10
2.891731
 20
0.162664
 30
0.000000
  0
VERTEX
  8
LAYER-1
 10
2.904753
 20
0.185234
 30
0.000000
  0
VERTEX
  8
LAYER-1
 10
2.874371
 20
0.164402
 30
0.000000
  0
SEQEND
  8
LAYER-1
  0
POLYLINE
  8
LAYER-1
 66
  1
 70
  1
 62
  0
 10
3.145371
 20
0.113519
 30
0.000000
  0
VERTEX
  8
LAYER-1
 10
3.145371
 20
0.113519
 30
0.000000
  0
VERTEX
  8
LAYER-1
 10
3.158058
 20
0.132884
 30
0.000000
  0
VERTEX
  8
LAYER-1
 10
3.146707
 20
0.138895
 30
0.000000
  0
SEQEND
  8
LAYER-1
  0
POLYLINE
  8
LAYER-1
 66
  1
 70
  0
 62
  0
 10
2.466383
 20
0.173081
 30
0.000000
  0
VERTEX
  8
LAYER-1
 10
2.466383
 20
0.173081
 30
0.000000
  0
VERTEX
  8
LAYER-1
 10
2.466383
 20
0.177420
 30
0.000000
  0
VERTEX
  8
LAYER-1
 10
2.462043
 20
0.180894
 30
0.000000
  0
VERTEX
  8
LAYER-1
 10
2.456835
 20
0.181760
 30
0.000000
  0
VERTEX
  8
LAYER-1
 10
2.452494
 20
0.180025
 30
0.000000
  0
VERTEX
  8
LAYER-1
 10
2.450758
 20
0.175684
 30
0.000000
  0
VERTEX
  8
LAYER-1
 10
2.450758
 20
0.171343
 30
0.000000
  0
VERTEX
  8
LAYER-1
 10
2.454230
 20
0.167004
 30
0.000000
  0
VERTEX
  8
LAYER-1
 10
2.458571
 20
0.167004
 30
0.000000
  0
VERTEX
  8
LAYER-1
 10
2.462912
 20
0.167871
 30
0.000000
  0
VERTEX
  8
LAYER-1
 10
2.465516
 20
0.172212
 30
0.000000
  0
SEQEND
  8
LAYER-1
  0
POLYLINE
  8
LAYER-1
 66
  1
 70
  0
 62
  0
 10
3.052323
 20
0.143567
 30
0.000000
  0
VERTEX
  8
LAYER-1
 10
3.052323
 20
0.143567
 30
0.000000
  0
VERTEX
  8
LAYER-1
 10
3.056663
 20
0.143567
 30
0.000000
  0
VERTEX
  8
LAYER-1
 10
3.060135
 20
0.147908
 30
0.000000
  0
VERTEX
  8
LAYER-1
 10
3.061003
 20
0.153115
 30
0.000000
  0
VERTEX
  8
LAYER-1
 10
3.059267
 20
0.157456
 30
0.000000
  0
VERTEX
  8
LAYER-1
 10
3.054927
 20
0.159192
 30
0.000000
  0
VERTEX
  8
LAYER-1
 10
3.050587
 20
0.159192
 30
0.000000
  0
VERTEX
  8
LAYER-1
 10
3.046246
 20
0.155720
 30
0.000000
  0
VERTEX
  8
LAYER-1
 10
3.046246
 20
0.151379
 30
0.000000
  0
VERTEX
  8
LAYER-1
 10
3.047114
 20
0.147039
 30
0.000000
  0
VERTEX
  8
LAYER-1
 10
3.051455
 20
0.144434
 30
0.000000
  0
SEQEND
  8
LAYER-1
  0
POLYLINE
  8
LAYER-1
 66
  1
 70
  0
 62
  0
 10
3.216385
 20
0.151379
 30
0.000000
  0
VERTEX
  8
LAYER-1
 10
3.216385
 20
0.151379
 30
0.000000
  0
VERTEX
  8
LAYER-1
 10
3.220726
 20
0.151379
 30
0.000000
  0
VERTEX
  8
LAYER-1
 10
3.224198
 20
0.155720
 30
0.000000
  0
VERTEX
  8
LAYER-1
 10
3.225065
 20
0.160928
 30
0.000000
  0
VERTEX
  8
LAYER-1
 10
3.223330
 20
0.165269
 30
0.000000
  0
VERTEX
  8
LAYER-1
 10
3.218989
 20
0.167004
 30
0.000000
  0
VERTEX
  8
LAYER-1
 10
3.214649
 20
0.167004
 30
0.000000
  0
VERTEX
  8
LAYER-1
 10
3.210308
 20
0.163533
 30
0.000000
  0
VERTEX
  8
LAYER-1
 10
3.210308
 20
0.159192
 30
0.000000
  0
VERTEX
  8
LAYER-1
 10
3.211177
 20
0.154851
 30
0.000000
  0
VERTEX
  8
LAYER-1
 10
3.215517
 20
0.152246
 30
0.000000
  0
SEQEND
  8
LAYER-1
  0
POLYLINE
  8
LAYER-1
 66
  1
 70
  1
 62
  0
 10
3.623504
 20
0.149644
 30
0.000000
  0
VERTEX
  8
LAYER-1
 10
3.623504
 20
0.149644
 30
0.000000
  0
VERTEX
  8
LAYER-1
 10
3.630447
 20
0.123602
 30
0.000000
  0
VERTEX
  8
LAYER-1
 10
3.655621
 20
0.137490
 30
0.000000
  0
SEQEND
  8
LAYER-1
  0
POLYLINE
  8
LAYER-1
 66
  1
 70
  1
 62
  0
 10
3.789736
 20
0.103637
 30
0.000000
  0
VERTEX
  8
LAYER-1
 10
3.789736
 20
0.103637
 30
0.000000
  0
VERTEX
  8
LAYER-1
 10
3.776715
 20
0.081067
 30
0.000000
  0
VERTEX
  8
LAYER-1
 10
3.807098
 20
0.101900
 30
0.000000
  0
SEQEND
  8
LAYER-1
  0
POLYLINE
  8
LAYER-1
 66
  1
 70
  1
 62
  0
 10
3.674718
 20
0.193910
 30
0.000000
  0
VERTEX
  8
LAYER-1
 10
3.674718
 20
0.193910
 30
0.000000
  0
VERTEX
  8
LAYER-1
 10
3.658226
 20
0.168737
 30
0.000000
  0
VERTEX
  8
LAYER-1
 10
3.672982
 20
0.160924
 30
0.000000
  0
SEQEND
  8
LAYER-1
  0
POLYLINE
  8
LAYER-1
 66
  1
 70
  0
 62
  0
 10
3.589649
 20
0.180894
 30
0.000000
  0
VERTEX
  8
LAYER-1
 10
3.589649
 20
0.180894
 30
0.000000
  0
VERTEX
  8
LAYER-1
 10
3.585308
 20
0.180894
 30
0.000000
  0
VERTEX
  8
LAYER-1
 10
3.581836
 20
0.176553
 30
0.000000
  0
VERTEX
  8
LAYER-1
 10
3.580967
 20
0.171345
 30
0.000000
  0
VERTEX
  8
LAYER-1
 10
3.582704
 20
0.167004
 30
0.000000
  0
VERTEX
  8
LAYER-1
 10
3.587044
 20
0.165269
 30
0.000000
  0
VERTEX
  8
LAYER-1
 10
3.591385
 20
0.165269
 30
0.000000
  0
VERTEX
  8
LAYER-1
 10
3.595725
 20
0.168740
 30
0.000000
  0
VERTEX
  8
LAYER-1
 10
3.595725
 20
0.173081
 30
0.000000
  0
VERTEX
  8
LAYER-1
 10
3.594857
 20
0.177422
 30
0.000000
  0
VERTEX
  8
LAYER-1
 10
3.590517
 20
0.180026
 30
0.000000
  0
SEQEND
  8
LAYER-1
  0
POLYLINE
  8
LAYER-1
 66
  1
 70
  1
 62
  0
 10
3.573155
 20
0.120995
 30
0.000000
  0
VERTEX
  8
LAYER-1
 10
3.573155
 20
0.120995
 30
0.000000
  0
VERTEX
  8
LAYER-1
 10
3.560135
 20
0.098426
 30
0.000000
  0
VERTEX
  8
LAYER-1
 10
3.590517
 20
0.119258
 30
0.000000
  0
SEQEND
  8
LAYER-1
  0
POLYLINE
  8
LAYER-1
 66
  1
 70
  1
 62
  0
 10
3.628611
 20
0.219349
 30
0.000000
  0
VERTEX
  8
LAYER-1
 10
3.628611
 20
0.219349
 30
0.000000
  0
VERTEX
  8
LAYER-1
 10
3.647975
 20
0.206662
 30
0.000000
  0
VERTEX
  8
LAYER-1
 10
3.653986
 20
0.218013
 30
0.000000
  0
SEQEND
  8
LAYER-1
  0
POLYLINE
  8
LAYER-1
 66
  1
 70
  0
 62
  0
 10
3.513258
 20
0.170598
 30
0.000000
  0
VERTEX
  8
LAYER-1
 10
3.513258
 20
0.170598
 30
0.000000
  0
VERTEX
  8
LAYER-1
 10
3.508918
 20
0.170598
 30
0.000000
  0
VERTEX
  8
LAYER-1
 10
3.505446
 20
0.166257
 30
0.000000
  0
VERTEX
  8
LAYER-1
 10
3.504579
 20
0.161050
 30
0.000000
  0
VERTEX
  8
LAYER-1
 10
3.506315
 20
0.156709
 30
0.000000
  0
VERTEX
  8
LAYER-1
 10
3.510654
 20
0.154973
 30
0.000000
  0
VERTEX
  8
LAYER-1
 10
3.514995
 20
0.154973
 30
0.000000
  0
VERTEX
  8
LAYER-1
 10
3.519335
 20
0.158445
 30
0.000000
  0
VERTEX
  8
LAYER-1
 10
3.519335
 20
0.162786
 30
0.000000
  0
VERTEX
  8
LAYER-1
 10
3.518467
 20
0.167126
 30
0.000000
  0
VERTEX
  8
LAYER-1
 10
3.514127
 20
0.169730
 30
0.000000
  0
SEQEND
  8
LAYER-1
  0
POLYLINE
  8
LAYER-1
 66
  1
 70
  0
 62
  0
 10
3.889998
 20
0.142694
 30
0.000000
  0
VERTEX
  8
LAYER-1
 10
3.889998
 20
0.142694
 30
0.000000
  0
VERTEX
  8
LAYER-1
 10
3.885658
 20
0.142694
 30
0.000000
  0
VERTEX
  8
LAYER-1
 10
3.882185
 20
0.138353
 30
0.000000
  0
VERTEX
  8
LAYER-1
 10
3.881317
 20
0.133146
 30
0.000000
  0
VERTEX
  8
LAYER-1
 10
3.883053
 20
0.128805
 30
0.000000
  0
VERTEX
  8
LAYER-1
 10
3.887394
 20
0.127069
 30
0.000000
  0
VERTEX
  8
LAYER-1
 10
3.891734
 20
0.127069
 30
0.000000
  0
VERTEX
  8
LAYER-1
 10
3.896075
 20
0.130541
 30
0.000000
  0
VERTEX
  8
LAYER-1
 10
3.896075
 20
0.134882
 30
0.000000
  0
VERTEX
  8
LAYER-1
 10
3.895206
 20
0.139222
 30
0.000000
  0
VERTEX
  8
LAYER-1
 10
3.890866
 20
0.141826
 30
0.000000
  0
SEQEND
  8
LAYER-1
  0
POLYLINE
  8
LAYER-1
 66
  1
 70
  0
 62
  0
 10
3.621767
 20
0.114051
 30
0.000000
  0
VERTEX
  8
LAYER-1
 10
3.621767
 20
0.114051
 30
0.000000
  0
VERTEX
  8
LAYER-1
 10
3.617427
 20
0.114051
 30
0.000000
  0
VERTEX
  8
LAYER-1
 10
3.613954
 20
0.109710
 30
0.000000
  0
VERTEX
  8
LAYER-1
 10
3.613087
 20
0.104502
 30
0.000000
  0
VERTEX
  8
LAYER-1
 10
3.614822
 20
0.100162
 30
0.000000
  0
VERTEX
  8
LAYER-1
 10
3.619163
 20
0.098426
 30
0.000000
  0
VERTEX
  8
LAYER-1
 10
3.623503
 20
0.098426
 30
0.000000
  0
VERTEX
  8
LAYER-1
 10
3.627844
 20
0.101897
 30
0.000000
  0
VERTEX
  8
LAYER-1
 10
3.627844
 20
0.106238
 30
0.000000
  0
VERTEX
  8
LAYER-1
 10
3.626976
 20
0.110579
 30
0.000000
  0
VERTEX
  8
LAYER-1
 10
3.622635
 20
0.113183
 30
0.000000
  0
SEQEND
  8
LAYER-1
  0
POLYLINE
  8
LAYER-1
 66
  1
 70
  1
 62
  0
 10
3.419943
 20
0.173514
 30
0.000000
  0
VERTEX
  8
LAYER-1
 10
3.419943
 20
0.173514
 30
0.000000
  0
VERTEX
  8
LAYER-1
 10
3.393903
 20
0.166570
 30
0.000000
  0
VERTEX
  8
LAYER-1
 10
3.407790
 20
0.141396
 30
0.000000
  0
SEQEND
  8
LAYER-1
  0
POLYLINE
  8
LAYER-1
 66
  1
 70
  1
 62
  0
 10
3.327062
 20
0.122298
 30
0.000000
  0
VERTEX
  8
LAYER-1
 10
3.327062
 20
0.122298
 30
0.000000
  0
VERTEX
  8
LAYER-1
 10
3.304492
 20
0.135320
 30
0.000000
  0
VERTEX
  8
LAYER-1
 10
3.325325
 20
0.104938
 30
0.000000
  0
SEQEND
  8
LAYER-1
  0
POLYLINE
  8
LAYER-1
 66
  1
 70
  1
 62
  0
 10
3.290604
 20
0.167435
 30
0.000000
  0
VERTEX
  8
LAYER-1
 10
3.290604
 20
0.167435
 30
0.000000
  0
VERTEX
  8
LAYER-1
 10
3.265430
 20
0.183928
 30
0.000000
  0
VERTEX
  8
LAYER-1
 10
3.257618
 20
0.169171
 30
0.000000
  0
SEQEND
  8
LAYER-1
  0
POLYLINE
  8
LAYER-1
 66
  1
 70
  0
 62
  0
 10
3.451193
 20
0.222994
 30
0.000000
  0
VERTEX
  8
LAYER-1
 10
3.451193
 20
0.222994
 30
0.000000
  0
VERTEX
  8
LAYER-1
 10
3.451193
 20
0.227334
 30
0.000000
  0
VERTEX
  8
LAYER-1
 10
3.446853
 20
0.230806
 30
0.000000
  0
VERTEX
  8
LAYER-1
 10
3.441645
 20
0.231674
 30
0.000000
  0
VERTEX
  8
LAYER-1
 10
3.437305
 20
0.229938
 30
0.000000
  0
VERTEX
  8
LAYER-1
 10
3.435568
 20
0.225597
 30
0.000000
  0
VERTEX
  8
LAYER-1
 10
3.435568
 20
0.221258
 30
0.000000
  0
VERTEX
  8
LAYER-1
 10
3.439040
 20
0.216916
 30
0.000000
  0
VERTEX
  8
LAYER-1
 10
3.443381
 20
0.216916
 30
0.000000
  0
VERTEX
  8
LAYER-1
 10
3.447722
 20
0.217784
 30
0.000000
  0
VERTEX
  8
LAYER-1
 10
3.450327
 20
0.222126
 30
0.000000
  0
SEQEND
  8
LAYER-1
  0
POLYLINE
  8
LAYER-1
 66
  1
 70
  1
 62
  0
 10
3.383486
 20
0.185666
 30
0.000000
  0
VERTEX
  8
LAYER-1
 10
3.383486
 20
0.185666
 30
0.000000
  0
VERTEX
  8
LAYER-1
 10
3.360915
 20
0.198688
 30
0.000000
  0
VERTEX
  8
LAYER-1
 10
3.381748
 20
0.168306
 30
0.000000
  0
SEQEND
  8
LAYER-1
  0
POLYLINE
  8
LAYER-1
 66
  1
 70
  1
 62
  0
 10
3.335140
 20
0.192708
 30
0.000000
  0
VERTEX
  8
LAYER-1
 10
3.335140
 20
0.192708
 30
0.000000
  0
VERTEX
  8
LAYER-1
 10
3.322453
 20
0.173344
 30
0.000000
  0
VERTEX
  8
LAYER-1
 10
3.333804
 20
0.167333
 30
0.000000
  0
SEQEND
  8
LAYER-1
  0
POLYLINE
  8
LAYER-1
 66
  1
 70
  0
 62
  0
 10
3.452930
 20
0.095389
 30
0.000000
  0
VERTEX
  8
LAYER-1
 10
3.452930
 20
0.095389
 30
0.000000
  0
VERTEX
  8
LAYER-1
 10
3.452930
 20
0.099728
 30
0.000000
  0
VERTEX
  8
LAYER-1
 10
3.448589
 20
0.103201
 30
0.000000
  0
VERTEX
  8
LAYER-1
 10
3.443381
 20
0.104069
 30
0.000000
  0
VERTEX
  8
LAYER-1
 10
3.439040
 20
0.102333
 30
0.000000
  0
VERTEX
  8
LAYER-1
 10
3.437305
 20
0.097992
 30
0.000000
  0
VERTEX
  8
LAYER-1
 10
3.437305
 20
0.093652
 30
0.000000
  0
VERTEX
  8
LAYER-1
 10
3.440776
 20
0.089312
 30
0.000000
  0
VERTEX
  8
LAYER-1
 10
3.445117
 20
0.089312
 30
0.000000
  0
VERTEX
  8
LAYER-1
 10
3.449458
 20
0.090179
 30
0.000000
  0
VERTEX
  8
LAYER-1
 10
3.452062
 20
0.094521
 30
0.000000
  0
SEQEND
  8
LAYER-1
  0
POLYLINE
  8
LAYER-1
 66
  1
 70
  0
 62
  0
 10
3.371332
 20
0.096257
 30
0.000000
  0
VERTEX
  8
LAYER-1
 10
3.371332
 20
0.096257
 30
0.000000
  0
VERTEX
  8
LAYER-1
 10
3.371332
 20
0.100597
 30
0.000000
  0
VERTEX
  8
LAYER-1
 10
3.366992
 20
0.104069
 30
0.000000
  0
VERTEX
  8
LAYER-1
 10
3.361784
 20
0.104937
 30
0.000000
  0
VERTEX
  8
LAYER-1
 10
3.357443
 20
0.103201
 30
0.000000
  0
VERTEX
  8
LAYER-1
 10
3.355707
 20
0.098860
 30
0.000000
  0
VERTEX
  8
LAYER-1
 10
3.355707
 20
0.094521
 30
0.000000
  0
VERTEX
  8
LAYER-1
 10
3.359179
 20
0.090179
 30
0.000000
  0
VERTEX
  8
LAYER-1
 10
3.363520
 20
0.090179
 30
0.000000
  0
VERTEX
  8
LAYER-1
 10
3.367861
 20
0.091047
 30
0.000000
  0
VERTEX
  8
LAYER-1
 10
3.370465
 20
0.095389
 30
0.000000
  0
SEQEND
  8
LAYER-1
  0
POLYLINE
  8
LAYER-1
 66
  1
 70
  0
 62
  0
 10
3.301020
 20
0.206500
 30
0.000000
  0
VERTEX
  8
LAYER-1
 10
3.301020
 20
0.206500
 30
0.000000
  0
VERTEX
  8
LAYER-1
 10
3.301020
 20
0.210840
 30
0.000000
  0
VERTEX
  8
LAYER-1
 10
3.296680
 20
0.214312
 30
0.000000
  0
VERTEX
  8
LAYER-1
 10
3.291472
 20
0.215179
 30
0.000000
  0
VERTEX
  8
LAYER-1
 10
3.287131
 20
0.213444
 30
0.000000
  0
VERTEX
  8
LAYER-1
 10
3.285395
 20
0.209103
 30
0.000000
  0
VERTEX
  8
LAYER-1
 10
3.285395
 20
0.204764
 30
0.000000
  0
VERTEX
  8
LAYER-1
 10
3.288867
 20
0.200422
 30
0.000000
  0
VERTEX
  8
LAYER-1
 10
3.293208
 20
0.200422
 30
0.000000
  0
VERTEX
  8
LAYER-1
 10
3.297549
 20
0.201291
 30
0.000000
  0
VERTEX
  8
LAYER-1
 10
3.300153
 20
0.205632
 30
0.000000
  0
SEQEND
  8
LAYER-1
  0
POLYLINE
  8
LAYER-1
 66
  1
 70
  1
 62
  0
 10
4.083572
 20
0.196084
 30
0.000000
  0
VERTEX
  8
LAYER-1
 10
4.083572
 20
0.196084
 30
0.000000
  0
VERTEX
  8
LAYER-1
 10
4.090517
 20
0.170043
 30
0.000000
  0
VERTEX
  8
LAYER-1
 10
4.115690
 20
0.183931
 30
0.000000
  0
SEQEND
  8
LAYER-1
  0
POLYLINE
  8
LAYER-1
 66
  1
 70
  1
 62
  0
 10
4.245899
 20
0.224731
 30
0.000000
  0
VERTEX
  8
LAYER-1
 10
4.245899
 20
0.224731
 30
0.000000
  0
VERTEX
  8
LAYER-1
 10
4.232878
 20
0.202160
 30
0.000000
  0
VERTEX
  8
LAYER-1
 10
4.263260
 20
0.222994
 30
0.000000
  0
SEQEND
  8
LAYER-1
  0
POLYLINE
  8
LAYER-1
 66
  1
 70
  1
 62
  0
 10
4.225066
 20
0.139659
 30
0.000000
  0
VERTEX
  8
LAYER-1
 10
4.225066
 20
0.139659
 30
0.000000
  0
VERTEX
  8
LAYER-1
 10
4.208573
 20
0.114484
 30
0.000000
  0
VERTEX
  8
LAYER-1
 10
4.223330
 20
0.106672
 30
0.000000
  0
SEQEND
  8
LAYER-1
  0
POLYLINE
  8
LAYER-1
 66
  1
 70
  0
 62
  0
 10
4.034094
 20
0.227334
 30
0.000000
  0
VERTEX
  8
LAYER-1
 10
4.034094
 20
0.227334
 30
0.000000
  0
VERTEX
  8
LAYER-1
 10
4.029753
 20
0.227334
 30
0.000000
  0
VERTEX
  8
LAYER-1
 10
4.026281
 20
0.222994
 30
0.000000
  0
VERTEX
  8
LAYER-1
 10
4.025413
 20
0.217785
 30
0.000000
  0
VERTEX
  8
LAYER-1
 10
4.027149
 20
0.213445
 30
0.000000
  0
VERTEX
  8
LAYER-1
 10
4.031490
 20
0.211709
 30
0.000000
  0
VERTEX
  8
LAYER-1
 10
4.035829
 20
0.211709
 30
0.000000
  0
VERTEX
  8
LAYER-1
 10
4.040170
 20
0.215181
 30
0.000000
  0
VERTEX
  8
LAYER-1
 10
4.040170
 20
0.219521
 30
0.000000
  0
VERTEX
  8
LAYER-1
 10
4.039302
 20
0.223863
 30
0.000000
  0
VERTEX
  8
LAYER-1
 10
4.034962
 20
0.226466
 30
0.000000
  0
SEQEND
  8
LAYER-1
  0
POLYLINE
  8
LAYER-1
 66
  1
 70
  1
 62
  0
 10
4.055360
 20
0.159190
 30
0.000000
  0
VERTEX
  8
LAYER-1
 10
4.055360
 20
0.159190
 30
0.000000
  0
VERTEX
  8
LAYER-1
 10
4.077929
 20
0.146170
 30
0.000000
  0
VERTEX
  8
LAYER-1
 10
4.057097
 20
0.176551
 30
0.000000
  0
SEQEND
  8
LAYER-1
  0
POLYLINE
  8
LAYER-1
 66
  1
 70
  1
 62
  0
 10
4.172014
 20
0.151210
 30
0.000000
  0
VERTEX
  8
LAYER-1
 10
4.172014
 20
0.151210
 30
0.000000
  0
VERTEX
  8
LAYER-1
 10
4.191379
 20
0.138523
 30
0.000000
  0
VERTEX
  8
LAYER-1
 10
4.197389
 20
0.149874
 30
0.000000
  0
SEQEND
  8
LAYER-1
  0
POLYLINE
  8
LAYER-1
 66
  1
 70
  0
 62
  0
 10
4.186003
 20
0.229070
 30
0.000000
  0
VERTEX
  8
LAYER-1
 10
4.186003
 20
0.229070
 30
0.000000
  0
VERTEX
  8
LAYER-1
 10
4.181663
 20
0.229070
 30
0.000000
  0
VERTEX
  8
LAYER-1
 10
4.178190
 20
0.224729
 30
0.000000
  0
VERTEX
  8
LAYER-1
 10
4.177322
 20
0.219521
 30
0.000000
  0
VERTEX
  8
LAYER-1
 10
4.179058
 20
0.215181
 30
0.000000
  0
VERTEX
  8
LAYER-1
 10
4.183399
 20
0.213445
 30
0.000000
  0
VERTEX
  8
LAYER-1
 10
4.187740
 20
0.213445
 30
0.000000
  0
VERTEX
  8
LAYER-1
 10
4.192079
 20
0.216916
 30
0.000000
  0
VERTEX
  8
LAYER-1
 10
4.192079
 20
0.221258
 30
0.000000
  0
VERTEX
  8
LAYER-1
 10
4.191212
 20
0.225598
 30
0.000000
  0
VERTEX
  8
LAYER-1
 10
4.186871
 20
0.228202
 30
0.000000
  0
SEQEND
  8
LAYER-1
  0
POLYLINE
  8
LAYER-1
 66
  1
 70
  0
 62
  0
 10
4.270205
 20
0.102332
 30
0.000000
  0
VERTEX
  8
LAYER-1
 10
4.270205
 20
0.102332
 30
0.000000
  0
VERTEX
  8
LAYER-1
 10
4.265864
 20
0.102332
 30
0.000000
  0
VERTEX
  8
LAYER-1
 10
4.262393
 20
0.097991
 30
0.000000
  0
VERTEX
  8
LAYER-1
 10
4.261525
 20
0.092784
 30
0.000000
  0
VERTEX
  8
LAYER-1
 10
4.263260
 20
0.088443
 30
0.000000
  0
VERTEX
  8
LAYER-1
 10
4.267600
 20
0.086707
 30
0.000000
  0
VERTEX
  8
LAYER-1
 10
4.271941
 20
0.086707
 30
0.000000
  0
VERTEX
  8
LAYER-1
 10
4.276282
 20
0.090179
 30
0.000000
  0
VERTEX
  8
LAYER-1
 10
4.276282
 20
0.094520
 30
0.000000
  0
VERTEX
  8
LAYER-1
 10
4.275413
 20
0.098860
 30
0.000000
  0
VERTEX
  8
LAYER-1
 10
4.271073
 20
0.101464
 30
0.000000
  0
SEQEND
  8
LAYER-1
  0
POLYLINE
  8
LAYER-1
 66
  1
 70
  0
 62
  0
 10
4.116559
 20
0.157018
 30
0.000000
  0
VERTEX
  8
LAYER-1
 10
4.116559
 20
0.157018
 30
0.000000
  0
VERTEX
  8
LAYER-1
 10
4.112219
 20
0.157018
 30
0.000000
  0
VERTEX
  8
LAYER-1
 10
4.108747
 20
0.152677
 30
0.000000
  0
VERTEX
  8
LAYER-1
 10
4.107879
 20
0.147469
 30
0.000000
  0
VERTEX
  8
LAYER-1
 10
4.109615
 20
0.143128
 30
0.000000
  0
VERTEX
  8
LAYER-1
 10
4.113954
 20
0.141393
 30
0.000000
  0
VERTEX
  8
LAYER-1
 10
4.118295
 20
0.141393
 30
0.000000
  0
VERTEX
  8
LAYER-1
 10
4.122636
 20
0.144864
 30
0.000000
  0
VERTEX
  8
LAYER-1
 10
4.122636
 20
0.149206
 30
0.000000
  0
VERTEX
  8
LAYER-1
 10
4.121767
 20
0.153546
 30
0.000000
  0
VERTEX
  8
LAYER-1
 10
4.117427
 20
0.156150
 30
0.000000
  0
SEQEND
  8
LAYER-1
  0
POLYLINE
  8
LAYER-1
 66
  1
 70
  1
 62
  0
 10
3.951630
 20
0.165699
 30
0.000000
  0
VERTEX
  8
LAYER-1
 10
3.951630
 20
0.165699
 30
0.000000
  0
VERTEX
  8
LAYER-1
 10
3.944684
 20
0.191739
 30
0.000000
  0
VERTEX
  8
LAYER-1
 10
3.919511
 20
0.177852
 30
0.000000
  0
SEQEND
  8
LAYER-1
  0
POLYLINE
  8
LAYER-1
 66
  1
 70
  1
 62
  0
 10
3.540604
 20
0.197383
 30
0.000000
  0
VERTEX
  8
LAYER-1
 10
3.540604
 20
0.197383
 30
0.000000
  0
VERTEX
  8
LAYER-1
 10
3.553624
 20
0.219953
 30
0.000000
  0
VERTEX
  8
LAYER-1
 10
3.523243
 20
0.199120
 30
0.000000
  0
SEQEND
  8
LAYER-1
  0
POLYLINE
  8
LAYER-1
 66
  1
 70
  1
 62
  0
 10
3.853538
 20
0.197906
 30
0.000000
  0
VERTEX
  8
LAYER-1
 10
3.853538
 20
0.197906
 30
0.000000
  0
VERTEX
  8
LAYER-1
 10
3.870032
 20
0.223079
 30
0.000000
  0
VERTEX
  8
LAYER-1
 10
3.855274
 20
0.230892
 30
0.000000
  0
SEQEND
  8
LAYER-1
  0
POLYLINE
  8
LAYER-1
 66
  1
 70
  0
 62
  0
 10
4.001108
 20
0.134449
 30
0.000000
  0
VERTEX
  8
LAYER-1
 10
4.001108
 20
0.134449
 30
0.000000
  0
VERTEX
  8
LAYER-1
 10
4.005448
 20
0.134449
 30
0.000000
  0
VERTEX
  8
LAYER-1
 10
4.008920
 20
0.138790
 30
0.000000
  0
VERTEX
  8
LAYER-1
 10
4.009789
 20
0.143997
 30
0.000000
  0
VERTEX
  8
LAYER-1
 10
4.008053
 20
0.148338
 30
0.000000
  0
VERTEX
  8
LAYER-1
 10
4.003713
 20
0.150074
 30
0.000000
  0
VERTEX
  8
LAYER-1
 10
3.999372
 20
0.150074
 30
0.000000
  0
VERTEX
  8
LAYER-1
 10
3.995031
 20
0.146602
 30
0.000000
  0
VERTEX
  8
LAYER-1
 10
3.995031
 20
0.142262
 30
0.000000
  0
VERTEX
  8
LAYER-1
 10
3.995900
 20
0.137921
 30
0.000000
  0
VERTEX
  8
LAYER-1
 10
4.000241
 20
0.135316
 30
0.000000
  0
SEQEND
  8
LAYER-1
  0
POLYLINE
  8
LAYER-1
 66
  1
 70
  1
 62
  0
 10
3.955101
 20
0.130978
 30
0.000000
  0
VERTEX
  8
LAYER-1
 10
3.955101
 20
0.130978
 30
0.000000
  0
VERTEX
  8
LAYER-1
 10
3.968122
 20
0.153548
 30
0.000000
  0
VERTEX
  8
LAYER-1
 10
3.937740
 20
0.132716
 30
0.000000
  0
SEQEND
  8
LAYER-1
  0
POLYLINE
  8
LAYER-1
 66
  1
 70
  1
 62
  0
 10
3.900514
 20
0.172379
 30
0.000000
  0
VERTEX
  8
LAYER-1
 10
3.900514
 20
0.172379
 30
0.000000
  0
VERTEX
  8
LAYER-1
 10
3.881150
 20
0.185067
 30
0.000000
  0
VERTEX
  8
LAYER-1
 10
3.875139
 20
0.173715
 30
0.000000
  0
SEQEND
  8
LAYER-1
  0
POLYLINE
  8
LAYER-1
 66
  1
 70
  0
 62
  0
 10
3.877407
 20
0.069035
 30
0.000000
  0
VERTEX
  8
LAYER-1
 10
3.877407
 20
0.069035
 30
0.000000
  0
VERTEX
  8
LAYER-1
 10
3.881748
 20
0.069035
 30
0.000000
  0
VERTEX
  8
LAYER-1
 10
3.885220
 20
0.073375
 30
0.000000
  0
VERTEX
  8
LAYER-1
 10
3.886089
 20
0.078583
 30
0.000000
  0
VERTEX
  8
LAYER-1
 10
3.884353
 20
0.082924
 30
0.000000
  0
VERTEX
  8
LAYER-1
 10
3.880013
 20
0.084660
 30
0.000000
  0
VERTEX
  8
LAYER-1
 10
3.875672
 20
0.084660
 30
0.000000
  0
VERTEX
  8
LAYER-1
 10
3.871331
 20
0.081188
 30
0.000000
  0
VERTEX
  8
LAYER-1
 10
3.871331
 20
0.076848
 30
0.000000
  0
VERTEX
  8
LAYER-1
 10
3.872200
 20
0.072506
 30
0.000000
  0
VERTEX
  8
LAYER-1
 10
3.876541
 20
0.069901
 30
0.000000
  0
SEQEND
  8
LAYER-1
  0
POLYLINE
  8
LAYER-1
 66
  1
 70
  0
 62
  0
 10
3.787565
 20
0.211830
 30
0.000000
  0
VERTEX
  8
LAYER-1
 10
3.787565
 20
0.211830
 30
0.000000
  0
VERTEX
  8
LAYER-1
 10
3.791906
 20
0.211830
 30
0.000000
  0
VERTEX
  8
LAYER-1
 10
3.795378
 20
0.216171
 30
0.000000
  0
VERTEX
  8
LAYER-1
 10
3.796245
 20
0.221379
 30
0.000000
  0
VERTEX
  8
LAYER-1
 10
3.794509
 20
0.225719
 30
0.000000
  0
VERTEX
  8
LAYER-1
 10
3.790168
 20
0.227455
 30
0.000000
  0
VERTEX
  8
LAYER-1
 10
3.785829
 20
0.227455
 30
0.000000
  0
VERTEX
  8
LAYER-1
 10
3.781489
 20
0.223984
 30
0.000000
  0
VERTEX
  8
LAYER-1
 10
3.781489
 20
0.219643
 30
0.000000
  0
VERTEX
  8
LAYER-1
 10
3.782356
 20
0.215302
 30
0.000000
  0
VERTEX
  8
LAYER-1
 10
3.786697
 20
0.212697
 30
0.000000
  0
SEQEND
  8
LAYER-1
  0
POLYLINE
  8
LAYER-1
 66
  1
 70
  0
 62
  0
 10
3.949893
 20
0.204764
 30
0.000000
  0
VERTEX
  8
LAYER-1
 10
3.949893
 20
0.204764
 30
0.000000
  0
VERTEX
  8
LAYER-1
 10
3.954234
 20
0.204764
 30
0.000000
  0
VERTEX
  8
LAYER-1
 10
3.957706
 20
0.209104
 30
0.000000
  0
VERTEX
  8
LAYER-1
 10
3.958572
 20
0.214312
 30
0.000000
  0
VERTEX
  8
LAYER-1
 10
3.956837
 20
0.218653
 30
0.000000
  0
VERTEX
  8
LAYER-1
 10
3.952496
 20
0.220389
 30
0.000000
  0
VERTEX
  8
LAYER-1
 10
3.948157
 20
0.220389
 30
0.000000
  0
VERTEX
  8
LAYER-1
 10
3.943816
 20
0.216916
 30
0.000000
  0
VERTEX
  8
LAYER-1
 10
3.943816
 20
0.212576
 30
0.000000
  0
VERTEX
  8
LAYER-1
 10
3.944683
 20
0.208235
 30
0.000000
  0
VERTEX
  8
LAYER-1
 10
3.949024
 20
0.205631
 30
0.000000
  0
SEQEND
  8
LAYER-1
  0
POLYLINE
  8
LAYER-1
 66
  1
 70
  1
 62
  0
 10
4.705968
 20
0.173949
 30
0.000000
  0
VERTEX
  8
LAYER-1
 10
4.705968
 20
0.173949
 30
0.000000
  0
VERTEX
  8
LAYER-1
 10
4.712912
 20
0.147908
 30
0.000000
  0
VERTEX
  8
LAYER-1
 10
4.738085
 20
0.161796
 30
0.000000
  0
SEQEND
  8
LAYER-1
  0
POLYLINE
  8
LAYER-1
 66
  1
 70
  1
 62
  0
 10
4.832702
 20
0.209540
 30
0.000000
  0
VERTEX
  8
LAYER-1
 10
4.832702
 20
0.209540
 30
0.000000
  0
VERTEX
  8
LAYER-1
 10
4.819682
 20
0.186970
 30
0.000000
  0
VERTEX
  8
LAYER-1
 10
4.850063
 20
0.207803
 30
0.000000
  0
SEQEND
  8
LAYER-1
  0
POLYLINE
  8
LAYER-1
 66
  1
 70
  1
 62
  0
 10
4.508052
 20
0.198256
 30
0.000000
  0
VERTEX
  8
LAYER-1
 10
4.508052
 20
0.198256
 30
0.000000
  0
VERTEX
  8
LAYER-1
 10
4.491559
 20
0.173081
 30
0.000000
  0
VERTEX
  8
LAYER-1
 10
4.506316
 20
0.165269
 30
0.000000
  0
SEQEND
  8
LAYER-1
  0
POLYLINE
  8
LAYER-1
 66
  1
 70
  0
 62
  0
 10
4.618294
 20
0.190445
 30
0.000000
  0
VERTEX
  8
LAYER-1
 10
4.618294
 20
0.190445
 30
0.000000
  0
VERTEX
  8
LAYER-1
 10
4.613953
 20
0.190445
 30
0.000000
  0
VERTEX
  8
LAYER-1
 10
4.610482
 20
0.186104
 30
0.000000
  0
VERTEX
  8
LAYER-1
 10
4.609613
 20
0.180896
 30
0.000000
  0
VERTEX
  8
LAYER-1
 10
4.611349
 20
0.176556
 30
0.000000
  0
VERTEX
  8
LAYER-1
 10
4.615690
 20
0.174820
 30
0.000000
  0
VERTEX
  8
LAYER-1
 10
4.620030
 20
0.174820
 30
0.000000
  0
VERTEX
  8
LAYER-1
 10
4.624370
 20
0.178291
 30
0.000000
  0
VERTEX
  8
LAYER-1
 10
4.624370
 20
0.182632
 30
0.000000
  0
VERTEX
  8
LAYER-1
 10
4.623502
 20
0.186973
 30
0.000000
  0
VERTEX
  8
LAYER-1
 10
4.619161
 20
0.189577
 30
0.000000
  0
SEQEND
  8
LAYER-1
  0
POLYLINE
  8
LAYER-1
 66
  1
 70
  1
 62
  0
 10
4.647808
 20
0.144435
 30
0.000000
  0
VERTEX
  8
LAYER-1
 10
4.647808
 20
0.144435
 30
0.000000
  0
VERTEX
  8
LAYER-1
 10
4.634787
 20
0.121865
 30
0.000000
  0
VERTEX
  8
LAYER-1
 10
4.665169
 20
0.142698
 30
0.000000
  0
SEQEND
  8
LAYER-1
  0
POLYLINE
  8
LAYER-1
 66
  1
 70
  1
 62
  0
 10
4.855106
 20
0.144966
 30
0.000000
  0
VERTEX
  8
LAYER-1
 10
4.855106
 20
0.144966
 30
0.000000
  0
VERTEX
  8
LAYER-1
 10
4.842419
 20
0.125601
 30
0.000000
  0
VERTEX
  8
LAYER-1
 10
4.853771
 20
0.119591
 30
0.000000
  0
SEQEND
  8
LAYER-1
  0
POLYLINE
  8
LAYER-1
 66
  1
 70
  0
 62
  0
 10
4.762390
 20
0.213879
 30
0.000000
  0
VERTEX
  8
LAYER-1
 10
4.762390
 20
0.213879
 30
0.000000
  0
VERTEX
  8
LAYER-1
 10
4.758049
 20
0.213879
 30
0.000000
  0
VERTEX
  8
LAYER-1
 10
4.754578
 20
0.209539
 30
0.000000
  0
VERTEX
  8
LAYER-1
 10
4.753710
 20
0.204331
 30
0.000000
  0
VERTEX
  8
LAYER-1
 10
4.755446
 20
0.199990
 30
0.000000
  0
VERTEX
  8
LAYER-1
 10
4.759785
 20
0.198254
 30
0.000000
  0
VERTEX
  8
LAYER-1
 10
4.764126
 20
0.198254
 30
0.000000
  0
VERTEX
  8
LAYER-1
 10
4.768467
 20
0.201726
 30
0.000000
  0
VERTEX
  8
LAYER-1
 10
4.768467
 20
0.206067
 30
0.000000
  0
VERTEX
  8
LAYER-1
 10
4.767598
 20
0.210408
 30
0.000000
  0
VERTEX
  8
LAYER-1
 10
4.763258
 20
0.213012
 30
0.000000
  0
SEQEND
  8
LAYER-1
  0
POLYLINE
  8
LAYER-1
 66
  1
 70
  0
 62
  0
 10
4.549719
 20
0.204330
 30
0.000000
  0
VERTEX
  8
LAYER-1
 10
4.549719
 20
0.204330
 30
0.000000
  0
VERTEX
  8
LAYER-1
 10
4.545379
 20
0.204330
 30
0.000000
  0
VERTEX
  8
LAYER-1
 10
4.541906
 20
0.199989
 30
0.000000
  0
VERTEX
  8
LAYER-1
 10
4.541038
 20
0.194782
 30
0.000000
  0
VERTEX
  8
LAYER-1
 10
4.542775
 20
0.190441
 30
0.000000
  0
VERTEX
  8
LAYER-1
 10
4.547115
 20
0.188705
 30
0.000000
  0
VERTEX
  8
LAYER-1
 10
4.551456
 20
0.188705
 30
0.000000
  0
VERTEX
  8
LAYER-1
 10
4.555795
 20
0.192177
 30
0.000000
  0
VERTEX
  8
LAYER-1
 10
4.555795
 20
0.196518
 30
0.000000
  0
VERTEX
  8
LAYER-1
 10
4.554927
 20
0.200858
 30
0.000000
  0
VERTEX
  8
LAYER-1
 10
4.550588
 20
0.203462
 30
0.000000
  0
SEQEND
  8
LAYER-1
  0
POLYLINE
  8
LAYER-1
 66
  1
 70
  0
 62
  0
 10
4.797114
 20
0.176550
 30
0.000000
  0
VERTEX
  8
LAYER-1
 10
4.797114
 20
0.176550
 30
0.000000
  0
VERTEX
  8
LAYER-1
 10
4.792775
 20
0.176550
 30
0.000000
  0
VERTEX
  8
LAYER-1
 10
4.789302
 20
0.172209
 30
0.000000
  0
VERTEX
  8
LAYER-1
 10
4.788435
 20
0.167002
 30
0.000000
  0
VERTEX
  8
LAYER-1
 10
4.790171
 20
0.162660
 30
0.000000
  0
VERTEX
  8
LAYER-1
 10
4.794512
 20
0.160925
 30
0.000000
  0
VERTEX
  8
LAYER-1
 10
4.798851
 20
0.160925
 30
0.000000
  0
VERTEX
  8
LAYER-1
 10
4.803191
 20
0.164396
 30
0.000000
  0
VERTEX
  8
LAYER-1
 10
4.803191
 20
0.168738
 30
0.000000
  0
VERTEX
  8
LAYER-1
 10
4.802324
 20
0.173078
 30
0.000000
  0
VERTEX
  8
LAYER-1
 10
4.797983
 20
0.175682
 30
0.000000
  0
SEQEND
  8
LAYER-1
  0
POLYLINE
  8
LAYER-1
 66
  1
 70
  1
 62
  0
 10
4.411697
 20
0.123166
 30
0.000000
  0
VERTEX
  8
LAYER-1
 10
4.411697
 20
0.123166
 30
0.000000
  0
VERTEX
  8
LAYER-1
 10
4.404753
 20
0.149206
 30
0.000000
  0
VERTEX
  8
LAYER-1
 10
4.379579
 20
0.135319
 30
0.000000
  0
SEQEND
  8
LAYER-1
  0
POLYLINE
  8
LAYER-1
 66
  1
 70
  1
 62
  0
 10
4.259788
 20
0.163962
 30
0.000000
  0
VERTEX
  8
LAYER-1
 10
4.259788
 20
0.163962
 30
0.000000
  0
VERTEX
  8
LAYER-1
 10
4.272809
 20
0.186533
 30
0.000000
  0
VERTEX
  8
LAYER-1
 10
4.242427
 20
0.165700
 30
0.000000
  0
SEQEND
  8
LAYER-1
  0
POLYLINE
  8
LAYER-1
 66
  1
 70
  1
 62
  0
 10
4.343122
 20
0.124037
 30
0.000000
  0
VERTEX
  8
LAYER-1
 10
4.343122
 20
0.124037
 30
0.000000
  0
VERTEX
  8
LAYER-1
 10
4.359615
 20
0.149210
 30
0.000000
  0
VERTEX
  8
LAYER-1
 10
4.344858
 20
0.157022
 30
0.000000
  0
SEQEND
  8
LAYER-1
  0
POLYLINE
  8
LAYER-1
 66
  1
 70
  0
 62
  0
 10
4.517601
 20
0.125773
 30
0.000000
  0
VERTEX
  8
LAYER-1
 10
4.517601
 20
0.125773
 30
0.000000
  0
VERTEX
  8
LAYER-1
 10
4.521942
 20
0.125773
 30
0.000000
  0
VERTEX
  8
LAYER-1
 10
4.525414
 20
0.130114
 30
0.000000
  0
VERTEX
  8
LAYER-1
 10
4.526282
 20
0.135322
 30
0.000000
  0
VERTEX
  8
LAYER-1
 10
4.524546
 20
0.139663
 30
0.000000
  0
VERTEX
  8
LAYER-1
 10
4.520206
 20
0.141398
 30
0.000000
  0
VERTEX
  8
LAYER-1
 10
4.515866
 20
0.141398
 30
0.000000
  0
VERTEX
  8
LAYER-1
 10
4.511525
 20
0.137927
 30
0.000000
  0
VERTEX
  8
LAYER-1
 10
4.511525
 20
0.133586
 30
0.000000
  0
VERTEX
  8
LAYER-1
 10
4.512393
 20
0.129245
 30
0.000000
  0
VERTEX
  8
LAYER-1
 10
4.516734
 20
0.126640
 30
0.000000
  0
SEQEND
  8
LAYER-1
  0
POLYLINE
  8
LAYER-1
 66
  1
 70
  1
 62
  0
 10
4.468989
 20
0.140528
 30
0.000000
  0
VERTEX
  8
LAYER-1
 10
4.468989
 20
0.140528
 30
0.000000
  0
VERTEX
  8
LAYER-1
 10
4.482010
 20
0.163100
 30
0.000000
  0
VERTEX
  8
LAYER-1
 10
4.451628
 20
0.142266
 30
0.000000
  0
SEQEND
  8
LAYER-1
  0
POLYLINE
  8
LAYER-1
 66
  1
 70
  1
 62
  0
 10
4.358045
 20
0.176453
 30
0.000000
  0
VERTEX
  8
LAYER-1
 10
4.358045
 20
0.176453
 30
0.000000
  0
VERTEX
  8
LAYER-1
 10
4.370732
 20
0.195818
 30
0.000000
  0
VERTEX
  8
LAYER-1
 10
4.359381
 20
0.201829
 30
0.000000
  0
SEQEND
  8
LAYER-1
  0
POLYLINE
  8
LAYER-1
 66
  1
 70
  0
 62
  0
 10
4.313693
 20
0.207925
 30
0.000000
  0
VERTEX
  8
LAYER-1
 10
4.313693
 20
0.207925
 30
0.000000
  0
VERTEX
  8
LAYER-1
 10
4.318033
 20
0.207925
 30
0.000000
  0
VERTEX
  8
LAYER-1
 10
4.321505
 20
0.212266
 30
0.000000
  0
VERTEX
  8
LAYER-1
 10
4.322373
 20
0.217473
 30
0.000000
  0
VERTEX
  8
LAYER-1
 10
4.320637
 20
0.221814
 30
0.000000
  0
VERTEX
  8
LAYER-1
 10
4.316296
 20
0.223550
 30
0.000000
  0
VERTEX
  8
LAYER-1
 10
4.311956
 20
0.223550
 30
0.000000
  0
VERTEX
  8
LAYER-1
 10
4.307616
 20
0.220078
 30
0.000000
  0
VERTEX
  8
LAYER-1
 10
4.307616
 20
0.215737
 30
0.000000
  0
VERTEX
  8
LAYER-1
 10
4.308484
 20
0.211397
 30
0.000000
  0
VERTEX
  8
LAYER-1
 10
4.312825
 20
0.208792
 30
0.000000
  0
SEQEND
  8
LAYER-1
  0
POLYLINE
  8
LAYER-1
 66
  1
 70
  0
 62
  0
 10
4.291038
 20
0.130113
 30
0.000000
  0
VERTEX
  8
LAYER-1
 10
4.291038
 20
0.130113
 30
0.000000
  0
VERTEX
  8
LAYER-1
 10
4.295379
 20
0.130113
 30
0.000000
  0
VERTEX
  8
LAYER-1
 10
4.298851
 20
0.134454
 30
0.000000
  0
VERTEX
  8
LAYER-1
 10
4.299719
 20
0.139662
 30
0.000000
  0
VERTEX
  8
LAYER-1
 10
4.297983
 20
0.144002
 30
0.000000
  0
VERTEX
  8
LAYER-1
 10
4.293642
 20
0.145738
 30
0.000000
  0
VERTEX
  8
LAYER-1
 10
4.289302
 20
0.145738
 30
0.000000
  0
VERTEX
  8
LAYER-1
 10
4.284962
 20
0.142266
 30
0.000000
  0
VERTEX
  8
LAYER-1
 10
4.284962
 20
0.137926
 30
0.000000
  0
VERTEX
  8
LAYER-1
 10
4.285829
 20
0.133585
 30
0.000000
  0
VERTEX
  8
LAYER-1
 10
4.290170
 20
0.130981
 30
0.000000
  0
SEQEND
  8
LAYER-1
  0
POLYLINE
  8
LAYER-1
 66
  1
 70
  0
 62
  0
 10
4.455101
 20
0.207369
 30
0.000000
  0
VERTEX
  8
LAYER-1
 10
4.455101
 20
0.207369
 30
0.000000
  0
VERTEX
  8
LAYER-1
 10
4.459441
 20
0.207369
 30
0.000000
  0
VERTEX
  8
LAYER-1
 10
4.462913
 20
0.211710
 30
0.000000
  0
VERTEX
  8
LAYER-1
 10
4.463781
 20
0.216918
 30
0.000000
  0
VERTEX
  8
LAYER-1
 10
4.462045
 20
0.221258
 30
0.000000
  0
VERTEX
  8
LAYER-1
 10
4.457704
 20
0.222994
 30
0.000000
  0
VERTEX
  8
LAYER-1
 10
4.453365
 20
0.222994
 30
0.000000
  0
VERTEX
  8
LAYER-1
 10
4.449024
 20
0.219522
 30
0.000000
  0
VERTEX
  8
LAYER-1
 10
4.449024
 20
0.215182
 30
0.000000
  0
VERTEX
  8
LAYER-1
 10
4.449892
 20
0.210841
 30
0.000000
  0
VERTEX
  8
LAYER-1
 10
4.454233
 20
0.208237
 30
0.000000
  0
SEQEND
  8
LAYER-1
  0
POLYLINE
  8
LAYER-1
 66
  1
 70
  1
 62
  0
 10
4.906918
 20
0.163965
 30
0.000000
  0
VERTEX
  8
LAYER-1
 10
4.906918
 20
0.163965
 30
0.000000
  0
VERTEX
  8
LAYER-1
 10
4.932959
 20
0.170909
 30
0.000000
  0
VERTEX
  8
LAYER-1
 10
4.919071
 20
0.196083
 30
0.000000
  0
SEQEND
  8
LAYER-1
  0
POLYLINE
  8
LAYER-1
 66
  1
 70
  1
 62
  0
 10
4.589213
 20
0.216918
 30
0.000000
  0
VERTEX
  8
LAYER-1
 10
4.589213
 20
0.216918
 30
0.000000
  0
VERTEX
  8
LAYER-1
 10
4.611783
 20
0.203896
 30
0.000000
  0
VERTEX
  8
LAYER-1
 10
4.590950
 20
0.234278
 30
0.000000
  0
SEQEND
  8
LAYER-1
  0
POLYLINE
  8
LAYER-1
 66
  1
 70
  1
 62
  0
 10
5.525843
 20
0.122295
 30
0.000000
  0
VERTEX
  8
LAYER-1
 10
5.525843
 20
0.122295
 30
0.000000
  0
VERTEX
  8
LAYER-1
 10
5.551017
 20
0.105802
 30
0.000000
  0
VERTEX
  8
LAYER-1
 10
5.558830
 20
0.120559
 30
0.000000
  0
SEQEND
  8
LAYER-1
  0
POLYLINE
  8
LAYER-1
 66
  1
 70
  0
 62
  0
 10
5.347023
 20
0.130977
 30
0.000000
  0
VERTEX
  8
LAYER-1
 10
5.347023
 20
0.130977
 30
0.000000
  0
VERTEX
  8
LAYER-1
 10
5.347023
 20
0.126638
 30
0.000000
  0
VERTEX
  8
LAYER-1
 10
5.351364
 20
0.123165
 30
0.000000
  0
VERTEX
  8
LAYER-1
 10
5.356571
 20
0.122297
 30
0.000000
  0
VERTEX
  8
LAYER-1
 10
5.360912
 20
0.124034
 30
0.000000
  0
VERTEX
  8
LAYER-1
 10
5.362648
 20
0.128373
 30
0.000000
  0
VERTEX
  8
LAYER-1
 10
5.362648
 20
0.132714
 30
0.000000
  0
VERTEX
  8
LAYER-1
 10
5.359176
 20
0.137054
 30
0.000000
  0
VERTEX
  8
LAYER-1
 10
5.354836
 20
0.137054
 30
0.000000
  0
VERTEX
  8
LAYER-1
 10
5.350495
 20
0.136186
 30
0.000000
  0
VERTEX
  8
LAYER-1
 10
5.347891
 20
0.131846
 30
0.000000
  0
SEQEND
  8
LAYER-1
  0
POLYLINE
  8
LAYER-1
 66
  1
 70
  1
 62
  0
 10
4.977231
 20
0.150943
 30
0.000000
  0
VERTEX
  8
LAYER-1
 10
4.977231
 20
0.150943
 30
0.000000
  0
VERTEX
  8
LAYER-1
 10
4.999801
 20
0.137922
 30
0.000000
  0
VERTEX
  8
LAYER-1
 10
4.978968
 20
0.168304
 30
0.000000
  0
SEQEND
  8
LAYER-1
  0
POLYLINE
  8
LAYER-1
 66
  1
 70
  1
 62
  0
 10
4.940239
 20
0.221958
 30
0.000000
  0
VERTEX
  8
LAYER-1
 10
4.940239
 20
0.221958
 30
0.000000
  0
VERTEX
  8
LAYER-1
 10
4.959604
 20
0.209272
 30
0.000000
  0
VERTEX
  8
LAYER-1
 10
4.965615
 20
0.220623
 30
0.000000
  0
SEQEND
  8
LAYER-1
  0
POLYLINE
  8
LAYER-1
 66
  1
 70
  0
 62
  0
 10
4.584875
 20
0.157021
 30
0.000000
  0
VERTEX
  8
LAYER-1
 10
4.584875
 20
0.157021
 30
0.000000
  0
VERTEX
  8
LAYER-1
 10
4.584875
 20
0.152682
 30
0.000000
  0
VERTEX
  8
LAYER-1
 10
4.589215
 20
0.149209
 30
0.000000
  0
VERTEX
  8
LAYER-1
 10
4.594422
 20
0.148341
 30
0.000000
  0
VERTEX
  8
LAYER-1
 10
4.598763
 20
0.150077
 30
0.000000
  0
VERTEX
  8
LAYER-1
 10
4.600499
 20
0.154418
 30
0.000000
  0
VERTEX
  8
LAYER-1
 10
4.600499
 20
0.158758
 30
0.000000
  0
VERTEX
  8
LAYER-1
 10
4.597027
 20
0.163098
 30
0.000000
  0
VERTEX
  8
LAYER-1
 10
4.592687
 20
0.163098
 30
0.000000
  0
VERTEX
  8
LAYER-1
 10
4.588346
 20
0.162231
 30
0.000000
  0
VERTEX
  8
LAYER-1
 10
4.585742
 20
0.157889
 30
0.000000
  0
SEQEND
  8
LAYER-1
  0
POLYLINE
  8
LAYER-1
 66
  1
 70
  0
 62
  0
 10
4.991120
 20
0.118826
 30
0.000000
  0
VERTEX
  8
LAYER-1
 10
4.991120
 20
0.118826
 30
0.000000
  0
VERTEX
  8
LAYER-1
 10
4.991120
 20
0.114485
 30
0.000000
  0
VERTEX
  8
LAYER-1
 10
4.995461
 20
0.111014
 30
0.000000
  0
VERTEX
  8
LAYER-1
 10
5.000668
 20
0.110145
 30
0.000000
  0
VERTEX
  8
LAYER-1
 10
5.005009
 20
0.111882
 30
0.000000
  0
VERTEX
  8
LAYER-1
 10
5.006745
 20
0.116221
 30
0.000000
  0
VERTEX
  8
LAYER-1
 10
5.006745
 20
0.120562
 30
0.000000
  0
VERTEX
  8
LAYER-1
 10
5.003273
 20
0.124903
 30
0.000000
  0
VERTEX
  8
LAYER-1
 10
4.998932
 20
0.124903
 30
0.000000
  0
VERTEX
  8
LAYER-1
 10
4.994592
 20
0.124034
 30
0.000000
  0
VERTEX
  8
LAYER-1
 10
4.991987
 20
0.119694
 30
0.000000
  0
SEQEND
  8
LAYER-1
  0
POLYLINE
  8
LAYER-1
 66
  1
 70
  0
 62
  0
 10
5.059696
 20
0.154416
 30
0.000000
  0
VERTEX
  8
LAYER-1
 10
5.059696
 20
0.154416
 30
0.000000
  0
VERTEX
  8
LAYER-1
 10
5.059696
 20
0.150076
 30
0.000000
  0
VERTEX
  8
LAYER-1
 10
5.064037
 20
0.146604
 30
0.000000
  0
VERTEX
  8
LAYER-1
 10
5.069245
 20
0.145735
 30
0.000000
  0
VERTEX
  8
LAYER-1
 10
5.073586
 20
0.147472
 30
0.000000
  0
VERTEX
  8
LAYER-1
 10
5.075321
 20
0.151812
 30
0.000000
  0
VERTEX
  8
LAYER-1
 10
5.075321
 20
0.156153
 30
0.000000
  0
VERTEX
  8
LAYER-1
 10
5.071849
 20
0.160494
 30
0.000000
  0
VERTEX
  8
LAYER-1
 10
5.067509
 20
0.160494
 30
0.000000
  0
VERTEX
  8
LAYER-1
 10
5.063168
 20
0.159625
 30
0.000000
  0
VERTEX
  8
LAYER-1
 10
5.060564
 20
0.155284
 30
0.000000
  0
SEQEND
  8
LAYER-1
  0
POLYLINE
  8
LAYER-1
 66
  1
 70
  1
 62
  0
 10
5.099107
 20
0.175684
 30
0.000000
  0
VERTEX
  8
LAYER-1
 10
5.099107
 20
0.175684
 30
0.000000
  0
VERTEX
  8
LAYER-1
 10
5.106051
 20
0.149644
 30
0.000000
  0
VERTEX
  8
LAYER-1
 10
5.131225
 20
0.163531
 30
0.000000
  0
SEQEND
  8
LAYER-1
  0
POLYLINE
  8
LAYER-1
 66
  1
 70
  1
 62
  0
 10
5.260652
 20
0.204331
 30
0.000000
  0
VERTEX
  8
LAYER-1
 10
5.260652
 20
0.204331
 30
0.000000
  0
VERTEX
  8
LAYER-1
 10
5.247631
 20
0.181760
 30
0.000000
  0
VERTEX
  8
LAYER-1
 10
5.278013
 20
0.202593
 30
0.000000
  0
SEQEND
  8
LAYER-1
  0
POLYLINE
  8
LAYER-1
 66
  1
 70
  1
 62
  0
 10
5.653013
 20
0.174812
 30
0.000000
  0
VERTEX
  8
LAYER-1
 10
5.653013
 20
0.174812
 30
0.000000
  0
VERTEX
  8
LAYER-1
 10
5.636520
 20
0.149639
 30
0.000000
  0
VERTEX
  8
LAYER-1
 10
5.651277
 20
0.141826
 30
0.000000
  0
SEQEND
  8
LAYER-1
  0
POLYLINE
  8
LAYER-1
 66
  1
 70
  0
 62
  0
 10
5.048846
 20
0.206934
 30
0.000000
  0
VERTEX
  8
LAYER-1
 10
5.048846
 20
0.206934
 30
0.000000
  0
VERTEX
  8
LAYER-1
 10
5.044506
 20
0.206934
 30
0.000000
  0
VERTEX
  8
LAYER-1
 10
5.041034
 20
0.202593
 30
0.000000
  0
VERTEX
  8
LAYER-1
 10
5.040166
 20
0.197385
 30
0.000000
  0
VERTEX
  8
LAYER-1
 10
5.041902
 20
0.193045
 30
0.000000
  0
VERTEX
  8
LAYER-1
 10
5.046243
 20
0.191309
 30
0.000000
  0
VERTEX
  8
LAYER-1
 10
5.050582
 20
0.191309
 30
0.000000
  0
VERTEX
  8
LAYER-1
 10
5.054923
 20
0.194781
 30
0.000000
  0
VERTEX
  8
LAYER-1
 10
5.054923
 20
0.199121
 30
0.000000
  0
VERTEX
  8
LAYER-1
 10
5.054055
 20
0.203462
 30
0.000000
  0
VERTEX
  8
LAYER-1
 10
5.049714
 20
0.206067
 30
0.000000
  0
SEQEND
  8
LAYER-1
  0
POLYLINE
  8
LAYER-1
 66
  1
 70
  1
 62
  0
 10
5.112215
 20
0.130545
 30
0.000000
  0
VERTEX
  8
LAYER-1
 10
5.112215
 20
0.130545
 30
0.000000
  0
VERTEX
  8
LAYER-1
 10
5.099194
 20
0.107975
 30
0.000000
  0
VERTEX
  8
LAYER-1
 10
5.129576
 20
0.128807
 30
0.000000
  0
SEQEND
  8
LAYER-1
  0
POLYLINE
  8
LAYER-1
 66
  1
 70
  1
 62
  0
 10
5.180958
 20
0.108307
 30
0.000000
  0
VERTEX
  8
LAYER-1
 10
5.180958
 20
0.108307
 30
0.000000
  0
VERTEX
  8
LAYER-1
 10
5.193646
 20
0.127671
 30
0.000000
  0
VERTEX
  8
LAYER-1
 10
5.182294
 20
0.133682
 30
0.000000
  0
SEQEND
  8
LAYER-1
  0
POLYLINE
  8
LAYER-1
 66
  1
 70
  0
 62
  0
 10
5.200756
 20
0.208670
 30
0.000000
  0
VERTEX
  8
LAYER-1
 10
5.200756
 20
0.208670
 30
0.000000
  0
VERTEX
  8
LAYER-1
 10
5.196416
 20
0.208670
 30
0.000000
  0
VERTEX
  8
LAYER-1
 10
5.192943
 20
0.204329
 30
0.000000
  0
VERTEX
  8
LAYER-1
 10
5.192075
 20
0.199121
 30
0.000000
  0
VERTEX
  8
LAYER-1
 10
5.193811
 20
0.194781
 30
0.000000
  0
VERTEX
  8
LAYER-1
 10
5.198152
 20
0.193045
 30
0.000000
  0
VERTEX
  8
LAYER-1
 10
5.202493
 20
0.193045
 30
0.000000
  0
VERTEX
  8
LAYER-1
 10
5.206832
 20
0.196516
 30
0.000000
  0
VERTEX
  8
LAYER-1
 10
5.206832
 20
0.200857
 30
0.000000
  0
VERTEX
  8
LAYER-1
 10
5.205964
 20
0.205198
 30
0.000000
  0
VERTEX
  8
LAYER-1
 10
5.201624
 20
0.207803
 30
0.000000
  0
SEQEND
  8
LAYER-1
  0
POLYLINE
  8
LAYER-1
 66
  1
 70
  0
 62
  0
 10
5.705097
 20
0.168735
 30
0.000000
  0
VERTEX
  8
LAYER-1
 10
5.705097
 20
0.168735
 30
0.000000
  0
VERTEX
  8
LAYER-1
 10
5.700756
 20
0.168735
 30
0.000000
  0
VERTEX
  8
LAYER-1
 10
5.697284
 20
0.164395
 30
0.000000
  0
VERTEX
  8
LAYER-1
 10
5.696417
 20
0.159187
 30
0.000000
  0
VERTEX
  8
LAYER-1
 10
5.698152
 20
0.154846
 30
0.000000
  0
VERTEX
  8
LAYER-1
 10
5.702493
 20
0.153110
 30
0.000000
  0
VERTEX
  8
LAYER-1
 10
5.706833
 20
0.153110
 30
0.000000
  0
VERTEX
  8
LAYER-1
 10
5.711174
 20
0.156582
 30
0.000000
  0
VERTEX
  8
LAYER-1
 10
5.711174
 20
0.160923
 30
0.000000
  0
VERTEX
  8
LAYER-1
 10
5.710306
 20
0.165264
 30
0.000000
  0
VERTEX
  8
LAYER-1
 10
5.705965
 20
0.167869
 30
0.000000
  0
SEQEND
  8
LAYER-1
  0
POLYLINE
  8
LAYER-1
 66
  1
 70
  0
 62
  0
 10
5.613952
 20
0.136618
 30
0.000000
  0
VERTEX
  8
LAYER-1
 10
5.613952
 20
0.136618
 30
0.000000
  0
VERTEX
  8
LAYER-1
 10
5.609611
 20
0.136618
 30
0.000000
  0
VERTEX
  8
LAYER-1
 10
5.606139
 20
0.132277
 30
0.000000
  0
VERTEX
  8
LAYER-1
 10
5.605271
 20
0.127069
 30
0.000000
  0
VERTEX
  8
LAYER-1
 10
5.607007
 20
0.122728
 30
0.000000
  0
VERTEX
  8
LAYER-1
 10
5.611348
 20
0.120993
 30
0.000000
  0
VERTEX
  8
LAYER-1
 10
5.615687
 20
0.120993
 30
0.000000
  0
VERTEX
  8
LAYER-1
 10
5.620028
 20
0.124464
 30
0.000000
  0
VERTEX
  8
LAYER-1
 10
5.620028
 20
0.128805
 30
0.000000
  0
VERTEX
  8
LAYER-1
 10
5.619161
 20
0.133146
 30
0.000000
  0
VERTEX
  8
LAYER-1
 10
5.614820
 20
0.135751
 30
0.000000
  0
SEQEND
  8
LAYER-1
  0
POLYLINE
  8
LAYER-1
 66
  1
 70
  1
 62
  0
 10
5.298846
 20
0.190876
 30
0.000000
  0
VERTEX
  8
LAYER-1
 10
5.298846
 20
0.190876
 30
0.000000
  0
VERTEX
  8
LAYER-1
 10
5.324887
 20
0.197821
 30
0.000000
  0
VERTEX
  8
LAYER-1
 10
5.311000
 20
0.222994
 30
0.000000
  0
SEQEND
  8
LAYER-1
  0
POLYLINE
  8
LAYER-1
 66
  1
 70
  0
 62
  0
 10
5.267596
 20
0.141396
 30
0.000000
  0
VERTEX
  8
LAYER-1
 10
5.267596
 20
0.141396
 30
0.000000
  0
VERTEX
  8
LAYER-1
 10
5.267596
 20
0.137057
 30
0.000000
  0
VERTEX
  8
LAYER-1
 10
5.271937
 20
0.133584
 30
0.000000
  0
VERTEX
  8
LAYER-1
 10
5.277145
 20
0.132717
 30
0.000000
  0
VERTEX
  8
LAYER-1
 10
5.281486
 20
0.134453
 30
0.000000
  0
VERTEX
  8
LAYER-1
 10
5.283221
 20
0.138793
 30
0.000000
  0
VERTEX
  8
LAYER-1
 10
5.283221
 20
0.143133
 30
0.000000
  0
VERTEX
  8
LAYER-1
 10
5.279750
 20
0.147473
 30
0.000000
  0
VERTEX
  8
LAYER-1
 10
5.275409
 20
0.147473
 30
0.000000
  0
VERTEX
  8
LAYER-1
 10
5.271068
 20
0.146606
 30
0.000000
  0
VERTEX
  8
LAYER-1
 10
5.268464
 20
0.142265
 30
0.000000
  0
SEQEND
  8
LAYER-1
  0
POLYLINE
  8
LAYER-1
 66
  1
 70
  1
 62
  0
 10
5.362649
 20
0.154851
 30
0.000000
  0
VERTEX
  8
LAYER-1
 10
5.362649
 20
0.154851
 30
0.000000
  0
VERTEX
  8
LAYER-1
 10
5.375669
 20
0.177422
 30
0.000000
  0
VERTEX
  8
LAYER-1
 10
5.345288
 20
0.156589
 30
0.000000
  0
SEQEND
  8
LAYER-1
  0
POLYLINE
  8
LAYER-1
 66
  1
 70
  0
 62
  0
 10
5.417770
 20
0.189140
 30
0.000000
  0
VERTEX
  8
LAYER-1
 10
5.417770
 20
0.189140
 30
0.000000
  0
VERTEX
  8
LAYER-1
 10
5.417770
 20
0.184800
 30
0.000000
  0
VERTEX
  8
LAYER-1
 10
5.422111
 20
0.181328
 30
0.000000
  0
VERTEX
  8
LAYER-1
 10
5.427318
 20
0.180459
 30
0.000000
  0
VERTEX
  8
LAYER-1
 10
5.431659
 20
0.182196
 30
0.000000
  0
VERTEX
  8
LAYER-1
 10
5.433395
 20
0.186535
 30
0.000000
  0
VERTEX
  8
LAYER-1
 10
5.433395
 20
0.190876
 30
0.000000
  0
VERTEX
  8
LAYER-1
 10
5.429923
 20
0.195217
 30
0.000000
  0
VERTEX
  8
LAYER-1
 10
5.425582
 20
0.195217
 30
0.000000
  0
VERTEX
  8
LAYER-1
 10
5.421242
 20
0.194348
 30
0.000000
  0
VERTEX
  8
LAYER-1
 10
5.418637
 20
0.190008
 30
0.000000
  0
SEQEND
  8
LAYER-1
  0
POLYLINE
  8
LAYER-1
 66
  1
 70
  1
 62
  0
 10
6.163695
 20
0.205545
 30
0.000000
  0
VERTEX
  8
LAYER-1
 10
6.163695
 20
0.205545
 30
0.000000
  0
VERTEX
  8
LAYER-1
 10
6.156749
 20
0.231586
 30
0.000000
  0
VERTEX
  8
LAYER-1
 10
6.131576
 20
0.217698
 30
0.000000
  0
SEQEND
  8
LAYER-1
  0
POLYLINE
  8
LAYER-1
 66
  1
 70
  0
 62
  0
 10
6.204233
 20
0.079329
 30
0.000000
  0
VERTEX
  8
LAYER-1
 10
6.204233
 20
0.079329
 30
0.000000
  0
VERTEX
  8
LAYER-1
 10
6.208573
 20
0.079329
 30
0.000000
  0
VERTEX
  8
LAYER-1
 10
6.212046
 20
0.083670
 30
0.000000
  0
VERTEX
  8
LAYER-1
 10
6.212913
 20
0.088877
 30
0.000000
  0
VERTEX
  8
LAYER-1
 10
6.211177
 20
0.093218
 30
0.000000
  0
VERTEX
  8
LAYER-1
 10
6.206837
 20
0.094954
 30
0.000000
  0
VERTEX
  8
LAYER-1
 10
6.202496
 20
0.094954
 30
0.000000
  0
VERTEX
  8
LAYER-1
 10
6.198157
 20
0.091482
 30
0.000000
  0
VERTEX
  8
LAYER-1
 10
6.198157
 20
0.087141
 30
0.000000
  0
VERTEX
  8
LAYER-1
 10
6.199025
 20
0.082801
 30
0.000000
  0
VERTEX
  8
LAYER-1
 10
6.203364
 20
0.080197
 30
0.000000
  0
SEQEND
  8
LAYER-1
  0
POLYLINE
  8
LAYER-1
 66
  1
 70
  1
 62
  0
 10
5.500669
 20
0.112316
 30
0.000000
  0
VERTEX
  8
LAYER-1
 10
5.500669
 20
0.112316
 30
0.000000
  0
VERTEX
  8
LAYER-1
 10
5.513689
 20
0.134885
 30
0.000000
  0
VERTEX
  8
LAYER-1
 10
5.483308
 20
0.114053
 30
0.000000
  0
SEQEND
  8
LAYER-1
  0
POLYLINE
  8
LAYER-1
 66
  1
 70
  0
 62
  0
 10
5.544421
 20
0.190649
 30
0.000000
  0
VERTEX
  8
LAYER-1
 10
5.544421
 20
0.190649
 30
0.000000
  0
VERTEX
  8
LAYER-1
 10
5.548762
 20
0.190649
 30
0.000000
  0
VERTEX
  8
LAYER-1
 10
5.552234
 20
0.194990
 30
0.000000
  0
VERTEX
  8
LAYER-1
 10
5.553103
 20
0.200198
 30
0.000000
  0
VERTEX
  8
LAYER-1
 10
5.551366
 20
0.204539
 30
0.000000
  0
VERTEX
  8
LAYER-1
 10
5.547026
 20
0.206274
 30
0.000000
  0
VERTEX
  8
LAYER-1
 10
5.542685
 20
0.206274
 30
0.000000
  0
VERTEX
  8
LAYER-1
 10
5.538344
 20
0.202803
 30
0.000000
  0
VERTEX
  8
LAYER-1
 10
5.538344
 20
0.198462
 30
0.000000
  0
VERTEX
  8
LAYER-1
 10
5.539213
 20
0.194121
 30
0.000000
  0
VERTEX
  8
LAYER-1
 10
5.543553
 20
0.191517
 30
0.000000
  0
SEQEND
  8
LAYER-1
  0
POLYLINE
  8
LAYER-1
 66
  1
 70
  1
 62
  0
 10
6.084008
 20
0.121432
 30
0.000000
  0
VERTEX
  8
LAYER-1
 10
6.084008
 20
0.121432
 30
0.000000
  0
VERTEX
  8
LAYER-1
 10
6.057966
 20
0.114486
 30
0.000000
  0
VERTEX
  8
LAYER-1
 10
6.071854
 20
0.089313
 30
0.000000
  0
SEQEND
  8
LAYER-1
  0
POLYLINE
  8
LAYER-1
 66
  1
 70
  0
 62
  0
 10
5.449020
 20
0.136190
 30
0.000000
  0
VERTEX
  8
LAYER-1
 10
5.449020
 20
0.136190
 30
0.000000
  0
VERTEX
  8
LAYER-1
 10
5.449020
 20
0.140528
 30
0.000000
  0
VERTEX
  8
LAYER-1
 10
5.444679
 20
0.144002
 30
0.000000
  0
VERTEX
  8
LAYER-1
 10
5.439471
 20
0.144869
 30
0.000000
  0
VERTEX
  8
LAYER-1
 10
5.435131
 20
0.143133
 30
0.000000
  0
VERTEX
  8
LAYER-1
 10
5.433395
 20
0.138793
 30
0.000000
  0
VERTEX
  8
LAYER-1
 10
5.433395
 20
0.134452
 30
0.000000
  0
VERTEX
  8
LAYER-1
 10
5.436867
 20
0.130113
 30
0.000000
  0
VERTEX
  8
LAYER-1
 10
5.441207
 20
0.130113
 30
0.000000
  0
VERTEX
  8
LAYER-1
 10
5.445548
 20
0.130981
 30
0.000000
  0
VERTEX
  8
LAYER-1
 10
5.448152
 20
0.135321
 30
0.000000
  0
SEQEND
  8
LAYER-1
  0
POLYLINE
  8
LAYER-1
 66
  1
 70
  1
 62
  0
 10
6.032792
 20
0.111015
 30
0.000000
  0
VERTEX
  8
LAYER-1
 10
6.032792
 20
0.111015
 30
0.000000
  0
VERTEX
  8
LAYER-1
 10
6.005014
 20
0.127508
 30
0.000000
  0
VERTEX
  8
LAYER-1
 10
6.025846
 20
0.097126
 30
0.000000
  0
SEQEND
  8
LAYER-1
  0
POLYLINE
  8
LAYER-1
 66
  1
 70
  0
 62
  0
 10
5.743292
 20
0.192608
 30
0.000000
  0
VERTEX
  8
LAYER-1
 10
5.743292
 20
0.192608
 30
0.000000
  0
VERTEX
  8
LAYER-1
 10
5.743292
 20
0.196949
 30
0.000000
  0
VERTEX
  8
LAYER-1
 10
5.738951
 20
0.200421
 30
0.000000
  0
VERTEX
  8
LAYER-1
 10
5.733743
 20
0.201290
 30
0.000000
  0
VERTEX
  8
LAYER-1
 10
5.729402
 20
0.199552
 30
0.000000
  0
VERTEX
  8
LAYER-1
 10
5.727667
 20
0.195213
 30
0.000000
  0
VERTEX
  8
LAYER-1
 10
5.727667
 20
0.190872
 30
0.000000
  0
VERTEX
  8
LAYER-1
 10
5.731138
 20
0.186532
 30
0.000000
  0
VERTEX
  8
LAYER-1
 10
5.735479
 20
0.186532
 30
0.000000
  0
VERTEX
  8
LAYER-1
 10
5.739820
 20
0.187401
 30
0.000000
  0
VERTEX
  8
LAYER-1
 10
5.742424
 20
0.191739
 30
0.000000
  0
SEQEND
  8
LAYER-1
  0
POLYLINE
  8
LAYER-1
 66
  1
 70
  1
 62
  0
 10
6.313956
 20
0.099123
 30
0.000000
  0
VERTEX
  8
LAYER-1
 10
6.313956
 20
0.099123
 30
0.000000
  0
VERTEX
  8
LAYER-1
 10
6.307010
 20
0.125164
 30
0.000000
  0
VERTEX
  8
LAYER-1
 10
6.281837
 20
0.111276
 30
0.000000
  0
SEQEND
  8
LAYER-1
  0
POLYLINE
  8
LAYER-1
 66
  1
 70
  0
 62
  0
 10
6.403800
 20
0.199383
 30
0.000000
  0
VERTEX
  8
LAYER-1
 10
6.403800
 20
0.199383
 30
0.000000
  0
VERTEX
  8
LAYER-1
 10
6.408141
 20
0.199383
 30
0.000000
  0
VERTEX
  8
LAYER-1
 10
6.411613
 20
0.203723
 30
0.000000
  0
VERTEX
  8
LAYER-1
 10
6.412479
 20
0.208931
 30
0.000000
  0
VERTEX
  8
LAYER-1
 10
6.410744
 20
0.213272
 30
0.000000
  0
VERTEX
  8
LAYER-1
 10
6.406405
 20
0.215008
 30
0.000000
  0
VERTEX
  8
LAYER-1
 10
6.402064
 20
0.215008
 30
0.000000
  0
VERTEX
  8
LAYER-1
 10
6.397723
 20
0.211536
 30
0.000000
  0
VERTEX
  8
LAYER-1
 10
6.397723
 20
0.207196
 30
0.000000
  0
VERTEX
  8
LAYER-1
 10
6.398592
 20
0.202855
 30
0.000000
  0
VERTEX
  8
LAYER-1
 10
6.402931
 20
0.200250
 30
0.000000
  0
SEQEND
  8
LAYER-1
  0
POLYLINE
  8
LAYER-1
 66
  1
 70
  1
 62
  0
 10
6.389042
 20
0.234539
 30
0.000000
  0
VERTEX
  8
LAYER-1
 10
6.389042
 20
0.234539
 30
0.000000
  0
VERTEX
  8
LAYER-1
 10
6.363000
 20
0.227594
 30
0.000000
  0
VERTEX
  8
LAYER-1
 10
6.376889
 20
0.202421
 30
0.000000
  0
SEQEND
  8
LAYER-1
  0
POLYLINE
  8
LAYER-1
 66
  1
 70
  1
 62
  0
 10
5.637822
 20
0.093222
 30
0.000000
  0
VERTEX
  8
LAYER-1
 10
5.637822
 20
0.093222
 30
0.000000
  0
VERTEX
  8
LAYER-1
 10
5.650842
 20
0.115791
 30
0.000000
  0
VERTEX
  8
LAYER-1
 10
5.620461
 20
0.094959
 30
0.000000
  0
SEQEND
  8
LAYER-1
  0
POLYLINE
  8
LAYER-1
 66
  1
 70
  0
 62
  0
 10
5.634349
 20
0.199991
 30
0.000000
  0
VERTEX
  8
LAYER-1
 10
5.634349
 20
0.199991
 30
0.000000
  0
VERTEX
  8
LAYER-1
 10
5.638690
 20
0.199991
 30
0.000000
  0
VERTEX
  8
LAYER-1
 10
5.642162
 20
0.204332
 30
0.000000
  0
VERTEX
  8
LAYER-1
 10
5.643031
 20
0.209540
 30
0.000000
  0
VERTEX
  8
LAYER-1
 10
5.641295
 20
0.213881
 30
0.000000
  0
VERTEX
  8
LAYER-1
 10
5.636954
 20
0.215616
 30
0.000000
  0
VERTEX
  8
LAYER-1
 10
5.632614
 20
0.215616
 30
0.000000
  0
VERTEX
  8
LAYER-1
 10
5.628273
 20
0.212145
 30
0.000000
  0
VERTEX
  8
LAYER-1
 10
5.628273
 20
0.207804
 30
0.000000
  0
VERTEX
  8
LAYER-1
 10
5.629142
 20
0.203463
 30
0.000000
  0
VERTEX
  8
LAYER-1
 10
5.633483
 20
0.200859
 30
0.000000
  0
SEQEND
  8
LAYER-1
  0
POLYLINE
  8
LAYER-1
 66
  1
 70
  1
 62
  0
 10
5.587040
 20
0.178722
 30
0.000000
  0
VERTEX
  8
LAYER-1
 10
5.587040
 20
0.178722
 30
0.000000
  0
VERTEX
  8
LAYER-1
 10
5.612215
 20
0.162229
 30
0.000000
  0
VERTEX
  8
LAYER-1
 10
5.620028
 20
0.176987
 30
0.000000
  0
SEQEND
  8
LAYER-1
  0
POLYLINE
  8
LAYER-1
 66
  1
 70
  1
 62
  0
 10
5.573687
 20
0.151110
 30
0.000000
  0
VERTEX
  8
LAYER-1
 10
5.573687
 20
0.151110
 30
0.000000
  0
VERTEX
  8
LAYER-1
 10
5.554323
 20
0.163798
 30
0.000000
  0
VERTEX
  8
LAYER-1
 10
5.548312
 20
0.152446
 30
0.000000
  0
SEQEND
  8
LAYER-1
  0
POLYLINE
  8
LAYER-1
 66
  1
 70
  1
 62
  0
 10
1.350932
 20
0.209972
 30
0.000000
  0
VERTEX
  8
LAYER-1
 10
1.350932
 20
0.209972
 30
0.000000
  0
VERTEX
  8
LAYER-1
 10
1.337910
 20
0.187403
 30
0.000000
  0
VERTEX
  8
LAYER-1
 10
1.368293
 20
0.208235
 30
0.000000
  0
SEQEND
  8
LAYER-1
  0
POLYLINE
  8
LAYER-1
 66
  1
 70
  1
 62
  0
 10
5.900412
 20
0.137058
 30
0.000000
  0
VERTEX
  8
LAYER-1
 10
5.900412
 20
0.137058
 30
0.000000
  0
VERTEX
  8
LAYER-1
 10
5.922982
 20
0.124037
 30
0.000000
  0
VERTEX
  8
LAYER-1
 10
5.902149
 20
0.154419
 30
0.000000
  0
SEQEND
  8
LAYER-1
  0
POLYLINE
  8
LAYER-1
 66
  1
 70
  0
 62
  0
 10
5.828364
 20
0.183929
 30
0.000000
  0
VERTEX
  8
LAYER-1
 10
5.828364
 20
0.183929
 30
0.000000
  0
VERTEX
  8
LAYER-1
 10
5.828364
 20
0.179589
 30
0.000000
  0
VERTEX
  8
LAYER-1
 10
5.832705
 20
0.176117
 30
0.000000
  0
VERTEX
  8
LAYER-1
 10
5.837912
 20
0.175250
 30
0.000000
  0
VERTEX
  8
LAYER-1
 10
5.842253
 20
0.176985
 30
0.000000
  0
VERTEX
  8
LAYER-1
 10
5.843989
 20
0.181326
 30
0.000000
  0
VERTEX
  8
LAYER-1
 10
5.843989
 20
0.185666
 30
0.000000
  0
VERTEX
  8
LAYER-1
 10
5.840517
 20
0.190007
 30
0.000000
  0
VERTEX
  8
LAYER-1
 10
5.836177
 20
0.190007
 30
0.000000
  0
VERTEX
  8
LAYER-1
 10
5.831836
 20
0.189139
 30
0.000000
  0
VERTEX
  8
LAYER-1
 10
5.829232
 20
0.184797
 30
0.000000
  0
SEQEND
  8
LAYER-1
  0
POLYLINE
  8
LAYER-1
 66
  1
 70
  1
 62
  0
 10
5.778016
 20
0.195216
 30
0.000000
  0
VERTEX
  8
LAYER-1
 10
5.778016
 20
0.195216
 30
0.000000
  0
VERTEX
  8
LAYER-1
 10
5.800586
 20
0.182195
 30
0.000000
  0
VERTEX
  8
LAYER-1
 10
5.779753
 20
0.212577
 30
0.000000
  0
SEQEND
  8
LAYER-1
  0
POLYLINE
  8
LAYER-1
 66
  1
 70
  0
 62
  0
 10
6.040169
 20
0.137058
 30
0.000000
  0
VERTEX
  8
LAYER-1
 10
6.040169
 20
0.137058
 30
0.000000
  0
VERTEX
  8
LAYER-1
 10
6.040169
 20
0.132717
 30
0.000000
  0
VERTEX
  8
LAYER-1
 10
6.044510
 20
0.129245
 30
0.000000
  0
VERTEX
  8
LAYER-1
 10
6.049718
 20
0.128377
 30
0.000000
  0
VERTEX
  8
LAYER-1
 10
6.054058
 20
0.130113
 30
0.000000
  0
VERTEX
  8
LAYER-1
 10
6.055794
 20
0.134453
 30
0.000000
  0
VERTEX
  8
LAYER-1
 10
6.055794
 20
0.138794
 30
0.000000
  0
VERTEX
  8
LAYER-1
 10
6.052322
 20
0.143134
 30
0.000000
  0
VERTEX
  8
LAYER-1
 10
6.047982
 20
0.143134
 30
0.000000
  0
VERTEX
  8
LAYER-1
 10
6.043641
 20
0.142265
 30
0.000000
  0
VERTEX
  8
LAYER-1
 10
6.041037
 20
0.137926
 30
0.000000
  0
SEQEND
  8
LAYER-1
  0
POLYLINE
  8
LAYER-1
 66
  1
 70
  0
 62
  0
 10
5.874371
 20
0.191745
 30
0.000000
  0
VERTEX
  8
LAYER-1
 10
5.874371
 20
0.191745
 30
0.000000
  0
VERTEX
  8
LAYER-1
 10
5.874371
 20
0.187404
 30
0.000000
  0
VERTEX
  8
LAYER-1
 10
5.878712
 20
0.183933
 30
0.000000
  0
VERTEX
  8
LAYER-1
 10
5.883919
 20
0.183065
 30
0.000000
  0
VERTEX
  8
LAYER-1
 10
5.888260
 20
0.184801
 30
0.000000
  0
VERTEX
  8
LAYER-1
 10
5.889996
 20
0.189140
 30
0.000000
  0
VERTEX
  8
LAYER-1
 10
5.889996
 20
0.193481
 30
0.000000
  0
VERTEX
  8
LAYER-1
 10
5.886524
 20
0.197822
 30
0.000000
  0
VERTEX
  8
LAYER-1
 10
5.882183
 20
0.197822
 30
0.000000
  0
VERTEX
  8
LAYER-1
 10
5.877843
 20
0.196953
 30
0.000000
  0
VERTEX
  8
LAYER-1
 10
5.875238
 20
0.192613
 30
0.000000
  0
SEQEND
  8
LAYER-1
  0
POLYLINE
  8
LAYER-1
 66
  1
 70
  1
 62
  0
 10
5.798851
 20
0.127075
 30
0.000000
  0
VERTEX
  8
LAYER-1
 10
5.798851
 20
0.127075
 30
0.000000
  0
VERTEX
  8
LAYER-1
 10
5.785830
 20
0.104504
 30
0.000000
  0
VERTEX
  8
LAYER-1
 10
5.816212
 20
0.125337
 30
0.000000
  0
SEQEND
  8
LAYER-1
  0
POLYLINE
  8
LAYER-1
 66
  1
 70
  0
 62
  0
 10
5.725150
 20
0.119209
 30
0.000000
  0
VERTEX
  8
LAYER-1
 10
5.725150
 20
0.119209
 30
0.000000
  0
VERTEX
  8
LAYER-1
 10
5.720810
 20
0.119209
 30
0.000000
  0
VERTEX
  8
LAYER-1
 10
5.717338
 20
0.114869
 30
0.000000
  0
VERTEX
  8
LAYER-1
 10
5.716470
 20
0.109662
 30
0.000000
  0
VERTEX
  8
LAYER-1
 10
5.718205
 20
0.105320
 30
0.000000
  0
VERTEX
  8
LAYER-1
 10
5.722546
 20
0.103584
 30
0.000000
  0
VERTEX
  8
LAYER-1
 10
5.726887
 20
0.103584
 30
0.000000
  0
VERTEX
  8
LAYER-1
 10
5.731227
 20
0.107057
 30
0.000000
  0
VERTEX
  8
LAYER-1
 10
5.731227
 20
0.111397
 30
0.000000
  0
VERTEX
  8
LAYER-1
 10
5.730359
 20
0.115738
 30
0.000000
  0
VERTEX
  8
LAYER-1
 10
5.726018
 20
0.118343
 30
0.000000
  0
SEQEND
  8
LAYER-1
  0
POLYLINE
  8
LAYER-1
 66
  1
 70
  0
 62
  0
 10
5.798851
 20
0.157455
 30
0.000000
  0
VERTEX
  8
LAYER-1
 10
5.798851
 20
0.157455
 30
0.000000
  0
VERTEX
  8
LAYER-1
 10
5.794510
 20
0.157455
 30
0.000000
  0
VERTEX
  8
LAYER-1
 10
5.791038
 20
0.153114
 30
0.000000
  0
VERTEX
  8
LAYER-1
 10
5.790170
 20
0.147907
 30
0.000000
  0
VERTEX
  8
LAYER-1
 10
5.791906
 20
0.143566
 30
0.000000
  0
VERTEX
  8
LAYER-1
 10
5.796247
 20
0.141830
 30
0.000000
  0
VERTEX
  8
LAYER-1
 10
5.800587
 20
0.141830
 30
0.000000
  0
VERTEX
  8
LAYER-1
 10
5.804927
 20
0.145302
 30
0.000000
  0
VERTEX
  8
LAYER-1
 10
5.804927
 20
0.149642
 30
0.000000
  0
VERTEX
  8
LAYER-1
 10
5.804059
 20
0.153983
 30
0.000000
  0
VERTEX
  8
LAYER-1
 10
5.799719
 20
0.156588
 30
0.000000
  0
SEQEND
  8
LAYER-1
  0
POLYLINE
  8
LAYER-1
 66
  1
 70
  1
 62
  0
 10
6.106142
 20
0.173949
 30
0.000000
  0
VERTEX
  8
LAYER-1
 10
6.106142
 20
0.173949
 30
0.000000
  0
VERTEX
  8
LAYER-1
 10
6.113087
 20
0.147908
 30
0.000000
  0
VERTEX
  8
LAYER-1
 10
6.138260
 20
0.161796
 30
0.000000
  0
SEQEND
  8
LAYER-1
  0
POLYLINE
  8
LAYER-1
 66
  1
 70
  1
 62
  0
 10
6.268469
 20
0.202595
 30
0.000000
  0
VERTEX
  8
LAYER-1
 10
6.268469
 20
0.202595
 30
0.000000
  0
VERTEX
  8
LAYER-1
 10
6.255447
 20
0.180026
 30
0.000000
  0
VERTEX
  8
LAYER-1
 10
6.285830
 20
0.200858
 30
0.000000
  0
SEQEND
  8
LAYER-1
  0
POLYLINE
  8
LAYER-1
 66
  1
 70
  0
 62
  0
 10
6.056663
 20
0.205199
 30
0.000000
  0
VERTEX
  8
LAYER-1
 10
6.056663
 20
0.205199
 30
0.000000
  0
VERTEX
  8
LAYER-1
 10
6.052322
 20
0.205199
 30
0.000000
  0
VERTEX
  8
LAYER-1
 10
6.048851
 20
0.200858
 30
0.000000
  0
VERTEX
  8
LAYER-1
 10
6.047982
 20
0.195651
 30
0.000000
  0
VERTEX
  8
LAYER-1
 10
6.049719
 20
0.191310
 30
0.000000
  0
VERTEX
  8
LAYER-1
 10
6.054058
 20
0.189574
 30
0.000000
  0
VERTEX
  8
LAYER-1
 10
6.058399
 20
0.189574
 30
0.000000
  0
VERTEX
  8
LAYER-1
 10
6.062740
 20
0.193046
 30
0.000000
  0
VERTEX
  8
LAYER-1
 10
6.062740
 20
0.197387
 30
0.000000
  0
VERTEX
  8
LAYER-1
 10
6.061871
 20
0.201727
 30
0.000000
  0
VERTEX
  8
LAYER-1
 10
6.057531
 20
0.204331
 30
0.000000
  0
SEQEND
  8
LAYER-1
  0
POLYLINE
  8
LAYER-1
 66
  1
 70
  1
 62
  0
 10
6.166908
 20
0.137490
 30
0.000000
  0
VERTEX
  8
LAYER-1
 10
6.166908
 20
0.137490
 30
0.000000
  0
VERTEX
  8
LAYER-1
 10
6.153887
 20
0.114921
 30
0.000000
  0
VERTEX
  8
LAYER-1
 10
6.184269
 20
0.135753
 30
0.000000
  0
SEQEND
  8
LAYER-1
  0
POLYLINE
  8
LAYER-1
 66
  1
 70
  0
 62
  0
 10
6.208572
 20
0.206935
 30
0.000000
  0
VERTEX
  8
LAYER-1
 10
6.208572
 20
0.206935
 30
0.000000
  0
VERTEX
  8
LAYER-1
 10
6.204232
 20
0.206935
 30
0.000000
  0
VERTEX
  8
LAYER-1
 10
6.200760
 20
0.202594
 30
0.000000
  0
VERTEX
  8
LAYER-1
 10
6.199892
 20
0.197387
 30
0.000000
  0
VERTEX
  8
LAYER-1
 10
6.201628
 20
0.193046
 30
0.000000
  0
VERTEX
  8
LAYER-1
 10
6.205969
 20
0.191310
 30
0.000000
  0
VERTEX
  8
LAYER-1
 10
6.210308
 20
0.191310
 30
0.000000
  0
VERTEX
  8
LAYER-1
 10
6.214649
 20
0.194782
 30
0.000000
  0
VERTEX
  8
LAYER-1
 10
6.214649
 20
0.199122
 30
0.000000
  0
VERTEX
  8
LAYER-1
 10
6.213781
 20
0.203463
 30
0.000000
  0
VERTEX
  8
LAYER-1
 10
6.209440
 20
0.206067
 30
0.000000
  0
SEQEND
  8
LAYER-1
  0
POLYLINE
  8
LAYER-1
 66
  1
 70
  1
 62
  0
 10
6.547982
 20
0.198254
 30
0.000000
  0
VERTEX
  8
LAYER-1
 10
6.547982
 20
0.198254
 30
0.000000
  0
VERTEX
  8
LAYER-1
 10
6.554927
 20
0.172214
 30
0.000000
  0
VERTEX
  8
LAYER-1
 10
6.580100
 20
0.186101
 30
0.000000
  0
SEQEND
  8
LAYER-1
  0
POLYLINE
  8
LAYER-1
 66
  1
 70
  1
 62
  0
 10
6.710308
 20
0.226902
 30
0.000000
  0
VERTEX
  8
LAYER-1
 10
6.710308
 20
0.226902
 30
0.000000
  0
VERTEX
  8
LAYER-1
 10
6.697288
 20
0.204331
 30
0.000000
  0
VERTEX
  8
LAYER-1
 10
6.727670
 20
0.225164
 30
0.000000
  0
SEQEND
  8
LAYER-1
  0
POLYLINE
  8
LAYER-1
 66
  1
 70
  1
 62
  0
 10
5.938607
 20
0.162665
 30
0.000000
  0
VERTEX
  8
LAYER-1
 10
5.938607
 20
0.162665
 30
0.000000
  0
VERTEX
  8
LAYER-1
 10
5.963781
 20
0.146171
 30
0.000000
  0
VERTEX
  8
LAYER-1
 10
5.971593
 20
0.160929
 30
0.000000
  0
SEQEND
  8
LAYER-1
  0
POLYLINE
  8
LAYER-1
 66
  1
 70
  0
 62
  0
 10
6.508919
 20
0.219089
 30
0.000000
  0
VERTEX
  8
LAYER-1
 10
6.508919
 20
0.219089
 30
0.000000
  0
VERTEX
  8
LAYER-1
 10
6.504578
 20
0.219089
 30
0.000000
  0
VERTEX
  8
LAYER-1
 10
6.501107
 20
0.214748
 30
0.000000
  0
VERTEX
  8
LAYER-1
 10
6.500239
 20
0.209540
 30
0.000000
  0
VERTEX
  8
LAYER-1
 10
6.501975
 20
0.205200
 30
0.000000
  0
VERTEX
  8
LAYER-1
 10
6.506315
 20
0.203464
 30
0.000000
  0
VERTEX
  8
LAYER-1
 10
6.510655
 20
0.203464
 30
0.000000
  0
VERTEX
  8
LAYER-1
 10
6.514996
 20
0.206935
 30
0.000000
  0
VERTEX
  8
LAYER-1
 10
6.514996
 20
0.211277
 30
0.000000
  0
VERTEX
  8
LAYER-1
 10
6.514128
 20
0.215617
 30
0.000000
  0
VERTEX
  8
LAYER-1
 10
6.509787
 20
0.218222
 30
0.000000
  0
SEQEND
  8
LAYER-1
  0
POLYLINE
  8
LAYER-1
 66
  1
 70
  1
 62
  0
 10
6.524545
 20
0.130547
 30
0.000000
  0
VERTEX
  8
LAYER-1
 10
6.524545
 20
0.130547
 30
0.000000
  0
VERTEX
  8
LAYER-1
 10
6.511524
 20
0.107976
 30
0.000000
  0
VERTEX
  8
LAYER-1
 10
6.541906
 20
0.128809
 30
0.000000
  0
SEQEND
  8
LAYER-1
  0
POLYLINE
  8
LAYER-1
 66
  1
 70
  1
 62
  0
 10
6.618996
 20
0.144964
 30
0.000000
  0
VERTEX
  8
LAYER-1
 10
6.618996
 20
0.144964
 30
0.000000
  0
VERTEX
  8
LAYER-1
 10
6.606309
 20
0.125600
 30
0.000000
  0
VERTEX
  8
LAYER-1
 10
6.617660
 20
0.119589
 30
0.000000
  0
SEQEND
  8
LAYER-1
  0
POLYLINE
  8
LAYER-1
 66
  1
 70
  0
 62
  0
 10
6.650412
 20
0.223429
 30
0.000000
  0
VERTEX
  8
LAYER-1
 10
6.650412
 20
0.223429
 30
0.000000
  0
VERTEX
  8
LAYER-1
 10
6.646072
 20
0.223429
 30
0.000000
  0
VERTEX
  8
LAYER-1
 10
6.642600
 20
0.219088
 30
0.000000
  0
VERTEX
  8
LAYER-1
 10
6.641732
 20
0.213881
 30
0.000000
  0
VERTEX
  8
LAYER-1
 10
6.643468
 20
0.209540
 30
0.000000
  0
VERTEX
  8
LAYER-1
 10
6.647808
 20
0.207804
 30
0.000000
  0
VERTEX
  8
LAYER-1
 10
6.652149
 20
0.207804
 30
0.000000
  0
VERTEX
  8
LAYER-1
 10
6.656489
 20
0.211276
 30
0.000000
  0
VERTEX
  8
LAYER-1
 10
6.656489
 20
0.215616
 30
0.000000
  0
VERTEX
  8
LAYER-1
 10
6.655621
 20
0.219957
 30
0.000000
  0
VERTEX
  8
LAYER-1
 10
6.651280
 20
0.222562
 30
0.000000
  0
SEQEND
  8
LAYER-1
  0
POLYLINE
  8
LAYER-1
 66
  1
 70
  0
 62
  0
 10
5.927323
 20
0.215616
 30
0.000000
  0
VERTEX
  8
LAYER-1
 10
5.927323
 20
0.215616
 30
0.000000
  0
VERTEX
  8
LAYER-1
 10
5.927323
 20
0.211276
 30
0.000000
  0
VERTEX
  8
LAYER-1
 10
5.931664
 20
0.207804
 30
0.000000
  0
VERTEX
  8
LAYER-1
 10
5.936871
 20
0.206935
 30
0.000000
  0
VERTEX
  8
LAYER-1
 10
5.941212
 20
0.208671
 30
0.000000
  0
VERTEX
  8
LAYER-1
 10
5.942948
 20
0.213012
 30
0.000000
  0
VERTEX
  8
LAYER-1
 10
5.942948
 20
0.217352
 30
0.000000
  0
VERTEX
  8
LAYER-1
 10
5.939476
 20
0.221693
 30
0.000000
  0
VERTEX
  8
LAYER-1
 10
5.935136
 20
0.221693
 30
0.000000
  0
VERTEX
  8
LAYER-1
 10
5.930795
 20
0.220824
 30
0.000000
  0
VERTEX
  8
LAYER-1
 10
5.928190
 20
0.216483
 30
0.000000
  0
SEQEND
  8
LAYER-1
  0
POLYLINE
  8
LAYER-1
 66
  1
 70
  0
 62
  0
 10
6.490690
 20
0.131413
 30
0.000000
  0
VERTEX
  8
LAYER-1
 10
6.490690
 20
0.131413
 30
0.000000
  0
VERTEX
  8
LAYER-1
 10
6.486349
 20
0.131413
 30
0.000000
  0
VERTEX
  8
LAYER-1
 10
6.482877
 20
0.127072
 30
0.000000
  0
VERTEX
  8
LAYER-1
 10
6.482009
 20
0.121864
 30
0.000000
  0
VERTEX
  8
LAYER-1
 10
6.483745
 20
0.117523
 30
0.000000
  0
VERTEX
  8
LAYER-1
 10
6.488086
 20
0.115788
 30
0.000000
  0
VERTEX
  8
LAYER-1
 10
6.492425
 20
0.115788
 30
0.000000
  0
VERTEX
  8
LAYER-1
 10
6.496766
 20
0.119259
 30
0.000000
  0
VERTEX
  8
LAYER-1
 10
6.496766
 20
0.123600
 30
0.000000
  0
VERTEX
  8
LAYER-1
 10
6.495898
 20
0.127941
 30
0.000000
  0
VERTEX
  8
LAYER-1
 10
6.491558
 20
0.130546
 30
0.000000
  0
SEQEND
  8
LAYER-1
  0
POLYLINE
  8
LAYER-1
 66
  1
 70
  0
 62
  0
 10
6.389129
 20
0.169175
 30
0.000000
  0
VERTEX
  8
LAYER-1
 10
6.389129
 20
0.169175
 30
0.000000
  0
VERTEX
  8
LAYER-1
 10
6.389129
 20
0.173515
 30
0.000000
  0
VERTEX
  8
LAYER-1
 10
6.384788
 20
0.176988
 30
0.000000
  0
VERTEX
  8
LAYER-1
 10
6.379581
 20
0.177856
 30
0.000000
  0
VERTEX
  8
LAYER-1
 10
6.375240
 20
0.176119
 30
0.000000
  0
VERTEX
  8
LAYER-1
 10
6.373504
 20
0.171778
 30
0.000000
  0
VERTEX
  8
LAYER-1
 10
6.373504
 20
0.167439
 30
0.000000
  0
VERTEX
  8
LAYER-1
 10
6.376976
 20
0.163100
 30
0.000000
  0
VERTEX
  8
LAYER-1
 10
6.381316
 20
0.163100
 30
0.000000
  0
VERTEX
  8
LAYER-1
 10
6.385657
 20
0.163966
 30
0.000000
  0
VERTEX
  8
LAYER-1
 10
6.388260
 20
0.168307
 30
0.000000
  0
SEQEND
  8
LAYER-1
  0
POLYLINE
  8
LAYER-1
 66
  1
 70
  1
 62
  0
 10
6.321419
 20
0.156153
 30
0.000000
  0
VERTEX
  8
LAYER-1
 10
6.321419
 20
0.156153
 30
0.000000
  0
VERTEX
  8
LAYER-1
 10
6.298851
 20
0.169173
 30
0.000000
  0
VERTEX
  8
LAYER-1
 10
6.319683
 20
0.138791
 30
0.000000
  0
SEQEND
  8
LAYER-1
  0
POLYLINE
  8
LAYER-1
 66
  1
 70
  0
 62
  0
 10
6.238956
 20
0.121432
 30
0.000000
  0
VERTEX
  8
LAYER-1
 10
6.238956
 20
0.121432
 30
0.000000
  0
VERTEX
  8
LAYER-1
 10
6.238956
 20
0.125772
 30
0.000000
  0
VERTEX
  8
LAYER-1
 10
6.234615
 20
0.129244
 30
0.000000
  0
VERTEX
  8
LAYER-1
 10
6.229407
 20
0.130113
 30
0.000000
  0
VERTEX
  8
LAYER-1
 10
6.225066
 20
0.128376
 30
0.000000
  0
VERTEX
  8
LAYER-1
 10
6.223331
 20
0.124037
 30
0.000000
  0
VERTEX
  8
LAYER-1
 10
6.223331
 20
0.119696
 30
0.000000
  0
VERTEX
  8
LAYER-1
 10
6.226802
 20
0.115356
 30
0.000000
  0
VERTEX
  8
LAYER-1
 10
6.231143
 20
0.115356
 30
0.000000
  0
VERTEX
  8
LAYER-1
 10
6.235484
 20
0.116225
 30
0.000000
  0
VERTEX
  8
LAYER-1
 10
6.238087
 20
0.120564
 30
0.000000
  0
SEQEND
  8
LAYER-1
  0
POLYLINE
  8
LAYER-1
 66
  1
 70
  1
 62
  0
 10
6.429233
 20
0.111710
 30
0.000000
  0
VERTEX
  8
LAYER-1
 10
6.429233
 20
0.111710
 30
0.000000
  0
VERTEX
  8
LAYER-1
 10
6.422288
 20
0.137750
 30
0.000000
  0
VERTEX
  8
LAYER-1
 10
6.397115
 20
0.123863
 30
0.000000
  0
SEQEND
  8
LAYER-1
  0
POLYLINE
  8
LAYER-1
 66
  1
 70
  1
 62
  0
 10
6.450760
 20
0.166137
 30
0.000000
  0
VERTEX
  8
LAYER-1
 10
6.450760
 20
0.166137
 30
0.000000
  0
VERTEX
  8
LAYER-1
 10
6.463781
 20
0.188707
 30
0.000000
  0
VERTEX
  8
LAYER-1
 10
6.433399
 20
0.167875
 30
0.000000
  0
SEQEND
  8
LAYER-1
  0
POLYLINE
  8
LAYER-1
 66
  1
 70
  1
 62
  0
 10
5.878712
 20
0.109713
 30
0.000000
  0
VERTEX
  8
LAYER-1
 10
5.878712
 20
0.109713
 30
0.000000
  0
VERTEX
  8
LAYER-1
 10
5.856141
 20
0.122735
 30
0.000000
  0
VERTEX
  8
LAYER-1
 10
5.876974
 20
0.092352
 30
0.000000
  0
SEQEND
  8
LAYER-1
  0
POLYLINE
  8
LAYER-1
 66
  1
 70
  1
 62
  0
 10
6.656490
 20
0.134020
 30
0.000000
  0
VERTEX
  8
LAYER-1
 10
6.656490
 20
0.134020
 30
0.000000
  0
VERTEX
  8
LAYER-1
 10
6.672983
 20
0.159193
 30
0.000000
  0
VERTEX
  8
LAYER-1
 10
6.658226
 20
0.167006
 30
0.000000
  0
SEQEND
  8
LAYER-1
  0
POLYLINE
  8
LAYER-1
 66
  1
 70
  0
 62
  0
 10
6.687390
 20
0.060616
 30
0.000000
  0
VERTEX
  8
LAYER-1
 10
6.687390
 20
0.060616
 30
0.000000
  0
VERTEX
  8
LAYER-1
 10
6.691731
 20
0.060616
 30
0.000000
  0
VERTEX
  8
LAYER-1
 10
6.695202
 20
0.064957
 30
0.000000
  0
VERTEX
  8
LAYER-1
 10
6.696070
 20
0.070164
 30
0.000000
  0
VERTEX
  8
LAYER-1
 10
6.694334
 20
0.074505
 30
0.000000
  0
VERTEX
  8
LAYER-1
 10
6.689994
 20
0.076241
 30
0.000000
  0
VERTEX
  8
LAYER-1
 10
6.685655
 20
0.076241
 30
0.000000
  0
VERTEX
  8
LAYER-1
 10
6.681313
 20
0.072769
 30
0.000000
  0
VERTEX
  8
LAYER-1
 10
6.681313
 20
0.068428
 30
0.000000
  0
VERTEX
  8
LAYER-1
 10
6.682181
 20
0.064088
 30
0.000000
  0
VERTEX
  8
LAYER-1
 10
6.686522
 20
0.061483
 30
0.000000
  0
SEQEND
  8
LAYER-1
  0
POLYLINE
  8
LAYER-1
 66
  1
 70
  0
 62
  0
 10
6.663953
 20
0.085795
 30
0.000000
  0
VERTEX
  8
LAYER-1
 10
6.663953
 20
0.085795
 30
0.000000
  0
VERTEX
  8
LAYER-1
 10
6.668294
 20
0.085795
 30
0.000000
  0
VERTEX
  8
LAYER-1
 10
6.671766
 20
0.090135
 30
0.000000
  0
VERTEX
  8
LAYER-1
 10
6.672634
 20
0.095344
 30
0.000000
  0
VERTEX
  8
LAYER-1
 10
6.670898
 20
0.099684
 30
0.000000
  0
VERTEX
  8
LAYER-1
 10
6.666557
 20
0.101420
 30
0.000000
  0
VERTEX
  8
LAYER-1
 10
6.662217
 20
0.101420
 30
0.000000
  0
VERTEX
  8
LAYER-1
 10
6.657876
 20
0.097948
 30
0.000000
  0
VERTEX
  8
LAYER-1
 10
6.657876
 20
0.093608
 30
0.000000
  0
VERTEX
  8
LAYER-1
 10
6.658744
 20
0.089266
 30
0.000000
  0
VERTEX
  8
LAYER-1
 10
6.663085
 20
0.086662
 30
0.000000
  0
SEQEND
  8
LAYER-1
  0
POLYLINE
  8
LAYER-1
 66
  1
 70
  1
 62
  0
 10
6.738171
 20
0.101851
 30
0.000000
  0
VERTEX
  8
LAYER-1
 10
6.738171
 20
0.101851
 30
0.000000
  0
VERTEX
  8
LAYER-1
 10
6.712998
 20
0.118344
 30
0.000000
  0
VERTEX
  8
LAYER-1
 10
6.705186
 20
0.103587
 30
0.000000
  0
SEQEND
  8
LAYER-1
  0
POLYLINE
  8
LAYER-1
 66
  1
 70
  0
 62
  0
 10
6.748588
 20
0.140915
 30
0.000000
  0
VERTEX
  8
LAYER-1
 10
6.748588
 20
0.140915
 30
0.000000
  0
VERTEX
  8
LAYER-1
 10
6.748588
 20
0.145256
 30
0.000000
  0
VERTEX
  8
LAYER-1
 10
6.744247
 20
0.148727
 30
0.000000
  0
VERTEX
  8
LAYER-1
 10
6.739040
 20
0.149595
 30
0.000000
  0
VERTEX
  8
LAYER-1
 10
6.734699
 20
0.147859
 30
0.000000
  0
VERTEX
  8
LAYER-1
 10
6.732963
 20
0.143519
 30
0.000000
  0
VERTEX
  8
LAYER-1
 10
6.732963
 20
0.139179
 30
0.000000
  0
VERTEX
  8
LAYER-1
 10
6.736435
 20
0.134839
 30
0.000000
  0
VERTEX
  8
LAYER-1
 10
6.740775
 20
0.134839
 30
0.000000
  0
VERTEX
  8
LAYER-1
 10
6.745116
 20
0.135707
 30
0.000000
  0
VERTEX
  8
LAYER-1
 10
6.747721
 20
0.140047
 30
0.000000
  0
SEQEND
  8
LAYER-1
  0
POLYLINE
  8
LAYER-1
 66
  1
 70
  1
 62
  0
 10
6.695111
 20
0.146767
 30
0.000000
  0
VERTEX
  8
LAYER-1
 10
6.695111
 20
0.146767
 30
0.000000
  0
VERTEX
  8
LAYER-1
 10
6.707798
 20
0.166131
 30
0.000000
  0
VERTEX
  8
LAYER-1
 10
6.696447
 20
0.172142
 30
0.000000
  0
SEQEND
  8
LAYER-1
  0
POLYLINE
  8
LAYER-1
 66
  1
 70
  0
 62
  0
 10
6.018467
 20
0.176554
 30
0.000000
  0
VERTEX
  8
LAYER-1
 10
6.018467
 20
0.176554
 30
0.000000
  0
VERTEX
  8
LAYER-1
 10
6.018467
 20
0.180893
 30
0.000000
  0
VERTEX
  8
LAYER-1
 10
6.014127
 20
0.184366
 30
0.000000
  0
VERTEX
  8
LAYER-1
 10
6.008919
 20
0.185233
 30
0.000000
  0
VERTEX
  8
LAYER-1
 10
6.004578
 20
0.183497
 30
0.000000
  0
VERTEX
  8
LAYER-1
 10
6.002842
 20
0.179157
 30
0.000000
  0
VERTEX
  8
LAYER-1
 10
6.002842
 20
0.174816
 30
0.000000
  0
VERTEX
  8
LAYER-1
 10
6.006314
 20
0.170477
 30
0.000000
  0
VERTEX
  8
LAYER-1
 10
6.010655
 20
0.170477
 30
0.000000
  0
VERTEX
  8
LAYER-1
 10
6.014996
 20
0.171344
 30
0.000000
  0
VERTEX
  8
LAYER-1
 10
6.017600
 20
0.175685
 30
0.000000
  0
SEQEND
  8
LAYER-1
  0
POLYLINE
  8
LAYER-1
 66
  1
 70
  0
 62
  0
 10
6.604406
 20
0.140096
 30
0.000000
  0
VERTEX
  8
LAYER-1
 10
6.604406
 20
0.140096
 30
0.000000
  0
VERTEX
  8
LAYER-1
 10
6.608747
 20
0.140096
 30
0.000000
  0
VERTEX
  8
LAYER-1
 10
6.612219
 20
0.144437
 30
0.000000
  0
VERTEX
  8
LAYER-1
 10
6.613087
 20
0.149645
 30
0.000000
  0
VERTEX
  8
LAYER-1
 10
6.611351
 20
0.153985
 30
0.000000
  0
VERTEX
  8
LAYER-1
 10
6.607010
 20
0.155721
 30
0.000000
  0
VERTEX
  8
LAYER-1
 10
6.602670
 20
0.155721
 30
0.000000
  0
VERTEX
  8
LAYER-1
 10
6.598330
 20
0.152250
 30
0.000000
  0
VERTEX
  8
LAYER-1
 10
6.598330
 20
0.147909
 30
0.000000
  0
VERTEX
  8
LAYER-1
 10
6.599197
 20
0.143568
 30
0.000000
  0
VERTEX
  8
LAYER-1
 10
6.603538
 20
0.140963
 30
0.000000
  0
SEQEND
  8
LAYER-1
  0
POLYLINE
  8
LAYER-1
 66
  1
 70
  1
 62
  0
 10
0.862041
 20
0.143778
 30
0.000000
  0
VERTEX
  8
LAYER-1
 10
0.862041
 20
0.143778
 30
0.000000
  0
VERTEX
  8
LAYER-1
 10
0.839471
 20
0.156798
 30
0.000000
  0
VERTEX
  8
LAYER-1
 10
0.860303
 20
0.126417
 30
0.000000
  0
SEQEND
  8
LAYER-1
  0
POLYLINE
  8
LAYER-1
 66
  1
 70
  0
 62
  0
 10
0.850757
 20
0.076937
 30
0.000000
  0
VERTEX
  8
LAYER-1
 10
0.850757
 20
0.076937
 30
0.000000
  0
VERTEX
  8
LAYER-1
 10
0.850757
 20
0.081275
 30
0.000000
  0
VERTEX
  8
LAYER-1
 10
0.846416
 20
0.084749
 30
0.000000
  0
VERTEX
  8
LAYER-1
 10
0.841208
 20
0.085616
 30
0.000000
  0
VERTEX
  8
LAYER-1
 10
0.836868
 20
0.083880
 30
0.000000
  0
VERTEX
  8
LAYER-1
 10
0.835132
 20
0.079540
 30
0.000000
  0
VERTEX
  8
LAYER-1
 10
0.835132
 20
0.075199
 30
0.000000
  0
VERTEX
  8
LAYER-1
 10
0.838604
 20
0.070860
 30
0.000000
  0
VERTEX
  8
LAYER-1
 10
0.842944
 20
0.070860
 30
0.000000
  0
VERTEX
  8
LAYER-1
 10
0.847285
 20
0.071727
 30
0.000000
  0
VERTEX
  8
LAYER-1
 10
0.849890
 20
0.076068
 30
0.000000
  0
SEQEND
  8
LAYER-1
  0
POLYLINE
  8
LAYER-1
 66
  1
 70
  1
 62
  0
 10
1.128796
 20
0.065736
 30
0.000000
  0
VERTEX
  8
LAYER-1
 10
1.128796
 20
0.065736
 30
0.000000
  0
VERTEX
  8
LAYER-1
 10
1.145289
 20
0.090910
 30
0.000000
  0
VERTEX
  8
LAYER-1
 10
1.130532
 20
0.098723
 30
0.000000
  0
SEQEND
  8
LAYER-1
  0
POLYLINE
  8
LAYER-1
 66
  1
 70
  1
 62
  0
 10
1.176706
 20
0.080830
 30
0.000000
  0
VERTEX
  8
LAYER-1
 10
1.176706
 20
0.080830
 30
0.000000
  0
VERTEX
  8
LAYER-1
 10
1.189393
 20
0.100195
 30
0.000000
  0
VERTEX
  8
LAYER-1
 10
1.178042
 20
0.106205
 30
0.000000
  0
SEQEND
  8
LAYER-1
  0
POLYLINE
  8
LAYER-1
 66
  1
 70
  0
 62
  0
 10
1.240775
 20
0.057059
 30
0.000000
  0
VERTEX
  8
LAYER-1
 10
1.240775
 20
0.057059
 30
0.000000
  0
VERTEX
  8
LAYER-1
 10
1.245116
 20
0.057059
 30
0.000000
  0
VERTEX
  8
LAYER-1
 10
1.248588
 20
0.061399
 30
0.000000
  0
VERTEX
  8
LAYER-1
 10
1.249456
 20
0.066607
 30
0.000000
  0
VERTEX
  8
LAYER-1
 10
1.247720
 20
0.070947
 30
0.000000
  0
VERTEX
  8
LAYER-1
 10
1.243379
 20
0.072684
 30
0.000000
  0
VERTEX
  8
LAYER-1
 10
1.239039
 20
0.072684
 30
0.000000
  0
VERTEX
  8
LAYER-1
 10
1.234699
 20
0.069211
 30
0.000000
  0
VERTEX
  8
LAYER-1
 10
1.234699
 20
0.064871
 30
0.000000
  0
VERTEX
  8
LAYER-1
 10
1.235567
 20
0.060530
 30
0.000000
  0
VERTEX
  8
LAYER-1
 10
1.239907
 20
0.057927
 30
0.000000
  0
SEQEND
  8
LAYER-1
  0
POLYLINE
  8
LAYER-1
 66
  1
 70
  1
 62
  0
 10
1.274629
 20
0.119991
 30
0.000000
  0
VERTEX
  8
LAYER-1
 10
1.274629
 20
0.119991
 30
0.000000
  0
VERTEX
  8
LAYER-1
 10
1.248588
 20
0.113046
 30
0.000000
  0
VERTEX
  8
LAYER-1
 10
1.262476
 20
0.087873
 30
0.000000
  0
SEQEND
  8
LAYER-1
  0
POLYLINE
  8
LAYER-1
 66
  1
 70
  0
 62
  0
 10
2.642512
 20
0.087698
 30
0.000000
  0
VERTEX
  8
LAYER-1
 10
2.642512
 20
0.087698
 30
0.000000
  0
VERTEX
  8
LAYER-1
 10
2.642512
 20
0.092038
 30
0.000000
  0
VERTEX
  8
LAYER-1
 10
2.638171
 20
0.095511
 30
0.000000
  0
VERTEX
  8
LAYER-1
 10
2.632964
 20
0.096379
 30
0.000000
  0
VERTEX
  8
LAYER-1
 10
2.628623
 20
0.094643
 30
0.000000
  0
VERTEX
  8
LAYER-1
 10
2.626887
 20
0.090303
 30
0.000000
  0
VERTEX
  8
LAYER-1
 10
2.626887
 20
0.085962
 30
0.000000
  0
VERTEX
  8
LAYER-1
 10
2.630359
 20
0.081622
 30
0.000000
  0
VERTEX
  8
LAYER-1
 10
2.634700
 20
0.081622
 30
0.000000
  0
VERTEX
  8
LAYER-1
 10
2.639040
 20
0.082491
 30
0.000000
  0
VERTEX
  8
LAYER-1
 10
2.641644
 20
0.086830
 30
0.000000
  0
SEQEND
  8
LAYER-1
  0
POLYLINE
  8
LAYER-1
 66
  1
 70
  1
 62
  0
 10
2.576539
 20
0.050807
 30
0.000000
  0
VERTEX
  8
LAYER-1
 10
2.576539
 20
0.050807
 30
0.000000
  0
VERTEX
  8
LAYER-1
 10
2.569595
 20
0.076848
 30
0.000000
  0
VERTEX
  8
LAYER-1
 10
2.544421
 20
0.062960
 30
0.000000
  0
SEQEND
  8
LAYER-1
  0
POLYLINE
  8
LAYER-1
 66
  1
 70
  1
 62
  0
 10
2.588691
 20
0.087266
 30
0.000000
  0
VERTEX
  8
LAYER-1
 10
2.588691
 20
0.087266
 30
0.000000
  0
VERTEX
  8
LAYER-1
 10
2.601713
 20
0.109835
 30
0.000000
  0
VERTEX
  8
LAYER-1
 10
2.571331
 20
0.089003
 30
0.000000
  0
SEQEND
  8
LAYER-1
  0
POLYLINE
  8
LAYER-1
 66
  1
 70
  0
 62
  0
 10
2.424890
 20
0.098116
 30
0.000000
  0
VERTEX
  8
LAYER-1
 10
2.424890
 20
0.098116
 30
0.000000
  0
VERTEX
  8
LAYER-1
 10
2.420549
 20
0.098116
 30
0.000000
  0
VERTEX
  8
LAYER-1
 10
2.417078
 20
0.093775
 30
0.000000
  0
VERTEX
  8
LAYER-1
 10
2.416210
 20
0.088567
 30
0.000000
  0
VERTEX
  8
LAYER-1
 10
2.417946
 20
0.084226
 30
0.000000
  0
VERTEX
  8
LAYER-1
 10
2.422286
 20
0.082491
 30
0.000000
  0
VERTEX
  8
LAYER-1
 10
2.426626
 20
0.082491
 30
0.000000
  0
VERTEX
  8
LAYER-1
 10
2.430967
 20
0.085962
 30
0.000000
  0
VERTEX
  8
LAYER-1
 10
2.430967
 20
0.090303
 30
0.000000
  0
VERTEX
  8
LAYER-1
 10
2.430099
 20
0.094643
 30
0.000000
  0
VERTEX
  8
LAYER-1
 10
2.425758
 20
0.097249
 30
0.000000
  0
SEQEND
  8
LAYER-1
  0
POLYLINE
  8
LAYER-1
 66
  1
 70
  1
 62
  0
 10
2.504751
 20
0.060788
 30
0.000000
  0
VERTEX
  8
LAYER-1
 10
2.504751
 20
0.060788
 30
0.000000
  0
VERTEX
  8
LAYER-1
 10
2.482180
 20
0.073811
 30
0.000000
  0
VERTEX
  8
LAYER-1
 10
2.503013
 20
0.043428
 30
0.000000
  0
SEQEND
  8
LAYER-1
  0
POLYLINE
  8
LAYER-1
 66
  1
 70
  1
 62
  0
 10
3.099722
 20
0.061640
 30
0.000000
  0
VERTEX
  8
LAYER-1
 10
3.099722
 20
0.061640
 30
0.000000
  0
VERTEX
  8
LAYER-1
 10
3.112743
 20
0.084210
 30
0.000000
  0
VERTEX
  8
LAYER-1
 10
3.082361
 20
0.063377
 30
0.000000
  0
SEQEND
  8
LAYER-1
  0
POLYLINE
  8
LAYER-1
 66
  1
 70
  1
 62
  0
 10
3.005272
 20
0.068053
 30
0.000000
  0
VERTEX
  8
LAYER-1
 10
3.005272
 20
0.068053
 30
0.000000
  0
VERTEX
  8
LAYER-1
 10
3.017959
 20
0.087417
 30
0.000000
  0
VERTEX
  8
LAYER-1
 10
3.006608
 20
0.093428
 30
0.000000
  0
SEQEND
  8
LAYER-1
  0
POLYLINE
  8
LAYER-1
 66
  1
 70
  0
 62
  0
 10
3.133578
 20
0.060772
 30
0.000000
  0
VERTEX
  8
LAYER-1
 10
3.133578
 20
0.060772
 30
0.000000
  0
VERTEX
  8
LAYER-1
 10
3.137918
 20
0.060772
 30
0.000000
  0
VERTEX
  8
LAYER-1
 10
3.141390
 20
0.065113
 30
0.000000
  0
VERTEX
  8
LAYER-1
 10
3.142258
 20
0.070321
 30
0.000000
  0
VERTEX
  8
LAYER-1
 10
3.140522
 20
0.074661
 30
0.000000
  0
VERTEX
  8
LAYER-1
 10
3.136182
 20
0.076397
 30
0.000000
  0
VERTEX
  8
LAYER-1
 10
3.131842
 20
0.076397
 30
0.000000
  0
VERTEX
  8
LAYER-1
 10
3.127501
 20
0.072926
 30
0.000000
  0
VERTEX
  8
LAYER-1
 10
3.127501
 20
0.068585
 30
0.000000
  0
VERTEX
  8
LAYER-1
 10
3.128369
 20
0.064245
 30
0.000000
  0
VERTEX
  8
LAYER-1
 10
3.132710
 20
0.061640
 30
0.000000
  0
SEQEND
  8
LAYER-1
  0
POLYLINE
  8
LAYER-1
 66
  1
 70
  0
 62
  0
 10
3.019861
 20
0.052089
 30
0.000000
  0
VERTEX
  8
LAYER-1
 10
3.019861
 20
0.052089
 30
0.000000
  0
VERTEX
  8
LAYER-1
 10
3.015520
 20
0.052089
 30
0.000000
  0
VERTEX
  8
LAYER-1
 10
3.012049
 20
0.047748
 30
0.000000
  0
VERTEX
  8
LAYER-1
 10
3.011181
 20
0.042541
 30
0.000000
  0
VERTEX
  8
LAYER-1
 10
3.012917
 20
0.038200
 30
0.000000
  0
VERTEX
  8
LAYER-1
 10
3.017257
 20
0.036464
 30
0.000000
  0
VERTEX
  8
LAYER-1
 10
3.021597
 20
0.036464
 30
0.000000
  0
VERTEX
  8
LAYER-1
 10
3.025938
 20
0.039936
 30
0.000000
  0
VERTEX
  8
LAYER-1
 10
3.025938
 20
0.044277
 30
0.000000
  0
VERTEX
  8
LAYER-1
 10
3.025070
 20
0.048617
 30
0.000000
  0
VERTEX
  8
LAYER-1
 10
3.020729
 20
0.051222
 30
0.000000
  0
SEQEND
  8
LAYER-1
  0
POLYLINE
  8
LAYER-1
 66
  1
 70
  1
 62
  0
 10
2.860914
 20
0.065390
 30
0.000000
  0
VERTEX
  8
LAYER-1
 10
2.860914
 20
0.065390
 30
0.000000
  0
VERTEX
  8
LAYER-1
 10
2.873936
 20
0.087960
 30
0.000000
  0
VERTEX
  8
LAYER-1
 10
2.843554
 20
0.067128
 30
0.000000
  0
SEQEND
  8
LAYER-1
  0
POLYLINE
  8
LAYER-1
 66
  1
 70
  0
 62
  0
 10
2.894770
 20
0.064523
 30
0.000000
  0
VERTEX
  8
LAYER-1
 10
2.894770
 20
0.064523
 30
0.000000
  0
VERTEX
  8
LAYER-1
 10
2.899111
 20
0.064523
 30
0.000000
  0
VERTEX
  8
LAYER-1
 10
2.902583
 20
0.068864
 30
0.000000
  0
VERTEX
  8
LAYER-1
 10
2.903451
 20
0.074071
 30
0.000000
  0
VERTEX
  8
LAYER-1
 10
2.901715
 20
0.078412
 30
0.000000
  0
VERTEX
  8
LAYER-1
 10
2.897374
 20
0.080148
 30
0.000000
  0
VERTEX
  8
LAYER-1
 10
2.893034
 20
0.080148
 30
0.000000
  0
VERTEX
  8
LAYER-1
 10
2.888694
 20
0.076676
 30
0.000000
  0
VERTEX
  8
LAYER-1
 10
2.888694
 20
0.072335
 30
0.000000
  0
VERTEX
  8
LAYER-1
 10
2.889562
 20
0.067995
 30
0.000000
  0
VERTEX
  8
LAYER-1
 10
2.893902
 20
0.065390
 30
0.000000
  0
SEQEND
  8
LAYER-1
  0
POLYLINE
  8
LAYER-1
 66
  1
 70
  1
 62
  0
 10
3.493032
 20
0.100460
 30
0.000000
  0
VERTEX
  8
LAYER-1
 10
3.493032
 20
0.100460
 30
0.000000
  0
VERTEX
  8
LAYER-1
 10
3.515603
 20
0.087440
 30
0.000000
  0
VERTEX
  8
LAYER-1
 10
3.494770
 20
0.117822
 30
0.000000
  0
SEQEND
  8
LAYER-1
  0
POLYLINE
  8
LAYER-1
 66
  1
 70
  0
 62
  0
 10
3.492165
 20
0.066605
 30
0.000000
  0
VERTEX
  8
LAYER-1
 10
3.492165
 20
0.066605
 30
0.000000
  0
VERTEX
  8
LAYER-1
 10
3.492165
 20
0.062264
 30
0.000000
  0
VERTEX
  8
LAYER-1
 10
3.496506
 20
0.058792
 30
0.000000
  0
VERTEX
  8
LAYER-1
 10
3.501714
 20
0.057924
 30
0.000000
  0
VERTEX
  8
LAYER-1
 10
3.506054
 20
0.059660
 30
0.000000
  0
VERTEX
  8
LAYER-1
 10
3.507790
 20
0.064001
 30
0.000000
  0
VERTEX
  8
LAYER-1
 10
3.507790
 20
0.068341
 30
0.000000
  0
VERTEX
  8
LAYER-1
 10
3.504318
 20
0.072682
 30
0.000000
  0
VERTEX
  8
LAYER-1
 10
3.499978
 20
0.072682
 30
0.000000
  0
VERTEX
  8
LAYER-1
 10
3.495637
 20
0.071814
 30
0.000000
  0
VERTEX
  8
LAYER-1
 10
3.493032
 20
0.067473
 30
0.000000
  0
SEQEND
  8
LAYER-1
  0
POLYLINE
  8
LAYER-1
 66
  1
 70
  1
 62
  0
 10
4.042511
 20
0.132490
 30
0.000000
  0
VERTEX
  8
LAYER-1
 10
4.042511
 20
0.132490
 30
0.000000
  0
VERTEX
  8
LAYER-1
 10
4.049456
 20
0.106449
 30
0.000000
  0
VERTEX
  8
LAYER-1
 10
4.074629
 20
0.120337
 30
0.000000
  0
SEQEND
  8
LAYER-1
  0
POLYLINE
  8
LAYER-1
 66
  1
 70
  1
 62
  0
 10
4.014298
 20
0.095596
 30
0.000000
  0
VERTEX
  8
LAYER-1
 10
4.014298
 20
0.095596
 30
0.000000
  0
VERTEX
  8
LAYER-1
 10
4.036868
 20
0.082576
 30
0.000000
  0
VERTEX
  8
LAYER-1
 10
4.016035
 20
0.112957
 30
0.000000
  0
SEQEND
  8
LAYER-1
  0
POLYLINE
  8
LAYER-1
 66
  1
 70
  1
 62
  0
 10
4.130953
 20
0.087616
 30
0.000000
  0
VERTEX
  8
LAYER-1
 10
4.130953
 20
0.087616
 30
0.000000
  0
VERTEX
  8
LAYER-1
 10
4.150318
 20
0.074929
 30
0.000000
  0
VERTEX
  8
LAYER-1
 10
4.156328
 20
0.086280
 30
0.000000
  0
SEQEND
  8
LAYER-1
  0
POLYLINE
  8
LAYER-1
 66
  1
 70
  0
 62
  0
 10
4.075498
 20
0.093424
 30
0.000000
  0
VERTEX
  8
LAYER-1
 10
4.075498
 20
0.093424
 30
0.000000
  0
VERTEX
  8
LAYER-1
 10
4.071157
 20
0.093424
 30
0.000000
  0
VERTEX
  8
LAYER-1
 10
4.067685
 20
0.089083
 30
0.000000
  0
VERTEX
  8
LAYER-1
 10
4.066817
 20
0.083876
 30
0.000000
  0
VERTEX
  8
LAYER-1
 10
4.068554
 20
0.079535
 30
0.000000
  0
VERTEX
  8
LAYER-1
 10
4.072893
 20
0.077799
 30
0.000000
  0
VERTEX
  8
LAYER-1
 10
4.077234
 20
0.077799
 30
0.000000
  0
VERTEX
  8
LAYER-1
 10
4.081575
 20
0.081271
 30
0.000000
  0
VERTEX
  8
LAYER-1
 10
4.081575
 20
0.085611
 30
0.000000
  0
VERTEX
  8
LAYER-1
 10
4.080706
 20
0.089952
 30
0.000000
  0
VERTEX
  8
LAYER-1
 10
4.076366
 20
0.092556
 30
0.000000
  0
SEQEND
  8
LAYER-1
  0
POLYLINE
  8
LAYER-1
 66
  1
 70
  0
 62
  0
 10
3.960047
 20
0.070855
 30
0.000000
  0
VERTEX
  8
LAYER-1
 10
3.960047
 20
0.070855
 30
0.000000
  0
VERTEX
  8
LAYER-1
 10
3.964387
 20
0.070855
 30
0.000000
  0
VERTEX
  8
LAYER-1
 10
3.967859
 20
0.075196
 30
0.000000
  0
VERTEX
  8
LAYER-1
 10
3.968728
 20
0.080404
 30
0.000000
  0
VERTEX
  8
LAYER-1
 10
3.966992
 20
0.084745
 30
0.000000
  0
VERTEX
  8
LAYER-1
 10
3.962651
 20
0.086480
 30
0.000000
  0
VERTEX
  8
LAYER-1
 10
3.958310
 20
0.086480
 30
0.000000
  0
VERTEX
  8
LAYER-1
 10
3.953970
 20
0.083009
 30
0.000000
  0
VERTEX
  8
LAYER-1
 10
3.953970
 20
0.078668
 30
0.000000
  0
VERTEX
  8
LAYER-1
 10
3.954839
 20
0.074327
 30
0.000000
  0
VERTEX
  8
LAYER-1
 10
3.959179
 20
0.071722
 30
0.000000
  0
SEQEND
  8
LAYER-1
  0
POLYLINE
  8
LAYER-1
 66
  1
 70
  1
 62
  0
 10
4.446693
 20
0.041168
 30
0.000000
  0
VERTEX
  8
LAYER-1
 10
4.446693
 20
0.041168
 30
0.000000
  0
VERTEX
  8
LAYER-1
 10
4.439748
 20
0.067210
 30
0.000000
  0
VERTEX
  8
LAYER-1
 10
4.414575
 20
0.053321
 30
0.000000
  0
SEQEND
  8
LAYER-1
  0
POLYLINE
  8
LAYER-1
 66
  1
 70
  1
 62
  0
 10
4.474905
 20
0.078062
 30
0.000000
  0
VERTEX
  8
LAYER-1
 10
4.474905
 20
0.078062
 30
0.000000
  0
VERTEX
  8
LAYER-1
 10
4.452336
 20
0.091082
 30
0.000000
  0
VERTEX
  8
LAYER-1
 10
4.473169
 20
0.060701
 30
0.000000
  0
SEQEND
  8
LAYER-1
  0
POLYLINE
  8
LAYER-1
 66
  1
 70
  1
 62
  0
 10
4.358251
 20
0.086042
 30
0.000000
  0
VERTEX
  8
LAYER-1
 10
4.358251
 20
0.086042
 30
0.000000
  0
VERTEX
  8
LAYER-1
 10
4.338886
 20
0.098729
 30
0.000000
  0
VERTEX
  8
LAYER-1
 10
4.332876
 20
0.087378
 30
0.000000
  0
SEQEND
  8
LAYER-1
  0
POLYLINE
  8
LAYER-1
 66
  1
 70
  0
 62
  0
 10
4.413706
 20
0.080234
 30
0.000000
  0
VERTEX
  8
LAYER-1
 10
4.413706
 20
0.080234
 30
0.000000
  0
VERTEX
  8
LAYER-1
 10
4.418047
 20
0.080234
 30
0.000000
  0
VERTEX
  8
LAYER-1
 10
4.421519
 20
0.084575
 30
0.000000
  0
VERTEX
  8
LAYER-1
 10
4.422386
 20
0.089783
 30
0.000000
  0
VERTEX
  8
LAYER-1
 10
4.420650
 20
0.094124
 30
0.000000
  0
VERTEX
  8
LAYER-1
 10
4.416311
 20
0.095859
 30
0.000000
  0
VERTEX
  8
LAYER-1
 10
4.411970
 20
0.095859
 30
0.000000
  0
VERTEX
  8
LAYER-1
 10
4.407629
 20
0.092388
 30
0.000000
  0
VERTEX
  8
LAYER-1
 10
4.407629
 20
0.088047
 30
0.000000
  0
VERTEX
  8
LAYER-1
 10
4.408498
 20
0.083706
 30
0.000000
  0
VERTEX
  8
LAYER-1
 10
4.412838
 20
0.081102
 30
0.000000
  0
SEQEND
  8
LAYER-1
  0
POLYLINE
  8
LAYER-1
 66
  1
 70
  0
 62
  0
 10
4.529157
 20
0.102803
 30
0.000000
  0
VERTEX
  8
LAYER-1
 10
4.529157
 20
0.102803
 30
0.000000
  0
VERTEX
  8
LAYER-1
 10
4.524817
 20
0.102803
 30
0.000000
  0
VERTEX
  8
LAYER-1
 10
4.521345
 20
0.098462
 30
0.000000
  0
VERTEX
  8
LAYER-1
 10
4.520476
 20
0.093255
 30
0.000000
  0
VERTEX
  8
LAYER-1
 10
4.522212
 20
0.088914
 30
0.000000
  0
VERTEX
  8
LAYER-1
 10
4.526553
 20
0.087178
 30
0.000000
  0
VERTEX
  8
LAYER-1
 10
4.530894
 20
0.087178
 30
0.000000
  0
VERTEX
  8
LAYER-1
 10
4.535234
 20
0.090650
 30
0.000000
  0
VERTEX
  8
LAYER-1
 10
4.535234
 20
0.094990
 30
0.000000
  0
VERTEX
  8
LAYER-1
 10
4.534365
 20
0.099331
 30
0.000000
  0
VERTEX
  8
LAYER-1
 10
4.530025
 20
0.101936
 30
0.000000
  0
SEQEND
  8
LAYER-1
  0
POLYLINE
  8
LAYER-1
 66
  1
 70
  1
 62
  0
 10
4.699036
 20
0.024762
 30
0.000000
  0
VERTEX
  8
LAYER-1
 10
4.699036
 20
0.024762
 30
0.000000
  0
VERTEX
  8
LAYER-1
 10
4.692092
 20
0.050803
 30
0.000000
  0
VERTEX
  8
LAYER-1
 10
4.666918
 20
0.036915
 30
0.000000
  0
SEQEND
  8
LAYER-1
  0
POLYLINE
  8
LAYER-1
 66
  1
 70
  1
 62
  0
 10
4.727249
 20
0.061656
 30
0.000000
  0
VERTEX
  8
LAYER-1
 10
4.727249
 20
0.061656
 30
0.000000
  0
VERTEX
  8
LAYER-1
 10
4.704680
 20
0.074676
 30
0.000000
  0
VERTEX
  8
LAYER-1
 10
4.725512
 20
0.044295
 30
0.000000
  0
SEQEND
  8
LAYER-1
  0
POLYLINE
  8
LAYER-1
 66
  1
 70
  1
 62
  0
 10
4.610595
 20
0.069635
 30
0.000000
  0
VERTEX
  8
LAYER-1
 10
4.610595
 20
0.069635
 30
0.000000
  0
VERTEX
  8
LAYER-1
 10
4.591230
 20
0.082323
 30
0.000000
  0
VERTEX
  8
LAYER-1
 10
4.585220
 20
0.070971
 30
0.000000
  0
SEQEND
  8
LAYER-1
  0
POLYLINE
  8
LAYER-1
 66
  1
 70
  0
 62
  0
 10
4.666050
 20
0.063828
 30
0.000000
  0
VERTEX
  8
LAYER-1
 10
4.666050
 20
0.063828
 30
0.000000
  0
VERTEX
  8
LAYER-1
 10
4.670390
 20
0.063828
 30
0.000000
  0
VERTEX
  8
LAYER-1
 10
4.673862
 20
0.068169
 30
0.000000
  0
VERTEX
  8
LAYER-1
 10
4.674730
 20
0.073376
 30
0.000000
  0
VERTEX
  8
LAYER-1
 10
4.672994
 20
0.077717
 30
0.000000
  0
VERTEX
  8
LAYER-1
 10
4.668655
 20
0.079453
 30
0.000000
  0
VERTEX
  8
LAYER-1
 10
4.664314
 20
0.079453
 30
0.000000
  0
VERTEX
  8
LAYER-1
 10
4.659973
 20
0.075981
 30
0.000000
  0
VERTEX
  8
LAYER-1
 10
4.659973
 20
0.071641
 30
0.000000
  0
VERTEX
  8
LAYER-1
 10
4.660842
 20
0.067300
 30
0.000000
  0
VERTEX
  8
LAYER-1
 10
4.665182
 20
0.064696
 30
0.000000
  0
SEQEND
  8
LAYER-1
  0
POLYLINE
  8
LAYER-1
 66
  1
 70
  0
 62
  0
 10
4.781501
 20
0.086397
 30
0.000000
  0
VERTEX
  8
LAYER-1
 10
4.781501
 20
0.086397
 30
0.000000
  0
VERTEX
  8
LAYER-1
 10
4.777161
 20
0.086397
 30
0.000000
  0
VERTEX
  8
LAYER-1
 10
4.773689
 20
0.082056
 30
0.000000
  0
VERTEX
  8
LAYER-1
 10
4.772820
 20
0.076848
 30
0.000000
  0
VERTEX
  8
LAYER-1
 10
4.774556
 20
0.072507
 30
0.000000
  0
VERTEX
  8
LAYER-1
 10
4.778896
 20
0.070772
 30
0.000000
  0
VERTEX
  8
LAYER-1
 10
4.783237
 20
0.070772
 30
0.000000
  0
VERTEX
  8
LAYER-1
 10
4.787578
 20
0.074243
 30
0.000000
  0
VERTEX
  8
LAYER-1
 10
4.787578
 20
0.078584
 30
0.000000
  0
VERTEX
  8
LAYER-1
 10
4.786709
 20
0.082925
 30
0.000000
  0
VERTEX
  8
LAYER-1
 10
4.782368
 20
0.085530
 30
0.000000
  0
SEQEND
  8
LAYER-1
  0
POLYLINE
  8
LAYER-1
 66
  1
 70
  1
 62
  0
 10
4.919596
 20
0.123811
 30
0.000000
  0
VERTEX
  8
LAYER-1
 10
4.919596
 20
0.123811
 30
0.000000
  0
VERTEX
  8
LAYER-1
 10
4.926540
 20
0.097769
 30
0.000000
  0
VERTEX
  8
LAYER-1
 10
4.951714
 20
0.111658
 30
0.000000
  0
SEQEND
  8
LAYER-1
  0
POLYLINE
  8
LAYER-1
 66
  1
 70
  1
 62
  0
 10
4.891383
 20
0.086917
 30
0.000000
  0
VERTEX
  8
LAYER-1
 10
4.891383
 20
0.086917
 30
0.000000
  0
VERTEX
  8
LAYER-1
 10
4.913952
 20
0.073897
 30
0.000000
  0
VERTEX
  8
LAYER-1
 10
4.893120
 20
0.104278
 30
0.000000
  0
SEQEND
  8
LAYER-1
  0
POLYLINE
  8
LAYER-1
 66
  1
 70
  0
 62
  0
 10
4.837131
 20
0.062176
 30
0.000000
  0
VERTEX
  8
LAYER-1
 10
4.837131
 20
0.062176
 30
0.000000
  0
VERTEX
  8
LAYER-1
 10
4.841471
 20
0.062176
 30
0.000000
  0
VERTEX
  8
LAYER-1
 10
4.844943
 20
0.066516
 30
0.000000
  0
VERTEX
  8
LAYER-1
 10
4.845812
 20
0.071724
 30
0.000000
  0
VERTEX
  8
LAYER-1
 10
4.844076
 20
0.076065
 30
0.000000
  0
VERTEX
  8
LAYER-1
 10
4.839736
 20
0.077801
 30
0.000000
  0
VERTEX
  8
LAYER-1
 10
4.835395
 20
0.077801
 30
0.000000
  0
VERTEX
  8
LAYER-1
 10
4.831054
 20
0.074329
 30
0.000000
  0
VERTEX
  8
LAYER-1
 10
4.831054
 20
0.069989
 30
0.000000
  0
VERTEX
  8
LAYER-1
 10
4.831923
 20
0.065648
 30
0.000000
  0
VERTEX
  8
LAYER-1
 10
4.836264
 20
0.063043
 30
0.000000
  0
SEQEND
  8
LAYER-1
  0
POLYLINE
  8
LAYER-1
 66
  1
 70
  1
 62
  0
 10
5.472718
 20
0.235928
 30
0.000000
  0
VERTEX
  8
LAYER-1
 10
5.472718
 20
0.235928
 30
0.000000
  0
VERTEX
  8
LAYER-1
 10
5.479663
 20
0.209887
 30
0.000000
  0
VERTEX
  8
LAYER-1
 10
5.504836
 20
0.223774
 30
0.000000
  0
SEQEND
  8
LAYER-1
  0
POLYLINE
  8
LAYER-1
 66
  1
 70
  1
 62
  0
 10
5.485827
 20
0.190789
 30
0.000000
  0
VERTEX
  8
LAYER-1
 10
5.485827
 20
0.190789
 30
0.000000
  0
VERTEX
  8
LAYER-1
 10
5.472806
 20
0.168218
 30
0.000000
  0
VERTEX
  8
LAYER-1
 10
5.503188
 20
0.189051
 30
0.000000
  0
SEQEND
  8
LAYER-1
  0
POLYLINE
  8
LAYER-1
 66
  1
 70
  1
 62
  0
 10
5.177320
 20
0.159312
 30
0.000000
  0
VERTEX
  8
LAYER-1
 10
5.177320
 20
0.159312
 30
0.000000
  0
VERTEX
  8
LAYER-1
 10
5.170377
 20
0.185353
 30
0.000000
  0
VERTEX
  8
LAYER-1
 10
5.145203
 20
0.171466
 30
0.000000
  0
SEQEND
  8
LAYER-1
  0
POLYLINE
  8
LAYER-1
 66
  1
 70
  1
 62
  0
 10
5.164211
 20
0.204451
 30
0.000000
  0
VERTEX
  8
LAYER-1
 10
5.164211
 20
0.204451
 30
0.000000
  0
VERTEX
  8
LAYER-1
 10
5.177234
 20
0.227022
 30
0.000000
  0
VERTEX
  8
LAYER-1
 10
5.146851
 20
0.206189
 30
0.000000
  0
SEQEND
  8
LAYER-1
  0
POLYLINE
  8
LAYER-1
 66
  1
 70
  1
 62
  0
 10
5.682094
 20
0.061483
 30
0.000000
  0
VERTEX
  8
LAYER-1
 10
5.682094
 20
0.061483
 30
0.000000
  0
VERTEX
  8
LAYER-1
 10
5.708134
 20
0.068428
 30
0.000000
  0
VERTEX
  8
LAYER-1
 10
5.694247
 20
0.093602
 30
0.000000
  0
SEQEND
  8
LAYER-1
  0
POLYLINE
  8
LAYER-1
 66
  1
 70
  1
 62
  0
 10
5.727233
 20
0.074592
 30
0.000000
  0
VERTEX
  8
LAYER-1
 10
5.727233
 20
0.074592
 30
0.000000
  0
VERTEX
  8
LAYER-1
 10
5.749803
 20
0.061571
 30
0.000000
  0
VERTEX
  8
LAYER-1
 10
5.728971
 20
0.091952
 30
0.000000
  0
SEQEND
  8
LAYER-1
  0
POLYLINE
  8
LAYER-1
 66
  1
 70
  0
 62
  0
 10
5.868356
 20
0.468114
 30
0.000000
  0
VERTEX
  8
LAYER-1
 10
5.868356
 20
0.468114
 30
0.000000
  0
VERTEX
  8
LAYER-1
 10
3.804490
 20
0.158535
 30
0.000000
  0
SEQEND
  8
LAYER-1
  0
POLYLINE
  8
LAYER-1
 66
  1
 70
  1
 62
  0
  0
VERTEX
  8
LAYER-1
 10
3.785022
 20
0.155614
 30
0.000000
  0
VERTEX
  8
LAYER-1
 10
3.847517
 20
0.207121
 30
0.000000
  0
VERTEX
  8
LAYER-1
 10
3.853698
 20
0.165916
 30
0.000000
  0
VERTEX
  8
LAYER-1
 10
3.859879
 20
0.124710
 30
0.000000
  0
VERTEX
  8
LAYER-1
 10
3.785022
 20
0.155614
 30
0.000000
  0
SEQEND
  8
LAYER-1
  0
TEXT
  8
LAYER-1
 62
  0
 10
5.893189
 20
3.738948
 30
0.000000
 40
0.125000
  1
PVC
 72
  5
 11
6.295967
 21
3.738948
 31
0.000000
  0
TEXT
  8
LAYER-1
 62
  0
 10
5.893189
 20
3.544503
 30
0.000000
 40
0.125000
  1
protector
 72
  5
 11
6.629300
 21
3.544503
 31
0.000000
  0
POLYLINE
  8
LAYER-1
 66
  1
 70
  0
 62
  0
 10
5.861940
 20
3.641472
 30
0.000000
  0
VERTEX
  8
LAYER-1
 10
5.861940
 20
3.641472
 30
0.000000
  0
VERTEX
  8
LAYER-1
 10
5.602227
 20
3.841877
 30
0.000000
  0
SEQEND
  8
LAYER-1
  0
POLYLINE
  8
LAYER-1
 66
  1
 70
  1
 62
  0
  0
VERTEX
  8
LAYER-1
 10
5.586642
 20
3.853902
 30
0.000000
  0
VERTEX
  8
LAYER-1
 10
5.667076
 20
3.844465
 30
0.000000
  0
VERTEX
  8
LAYER-1
 10
5.641621
 20
3.811478
 30
0.000000
  0
VERTEX
  8
LAYER-1
 10
5.616166
 20
3.778490
 30
0.000000
  0
VERTEX
  8
LAYER-1
 10
5.586642
 20
3.853902
 30
0.000000
  0
SEQEND
  8
LAYER-1
  0
ENDSEC
  0
EOF
