  0
SECTION
  2
HEADER
999
MacDraft 5.0\0
  9
$ACADVER
  1
AC1006
  9
$CLAYER
  8
LAYER-1
  9
$EXTMIN
 10
0.000000
 20
0.000000
  9
$EXTMAX
 10
6.771594
 20
9.982813
  9
$FASTZOOM
 70
0
  9
$FILLMODE
 70
1
  0
ENDSEC
  0
SECTION
  2
TABLES
  0
TABLE
  2
LTYPE
 70
16
  0
LTYPE
  2
CONTINUOUS
 70
64
  3
Solid Line
 72
65
 73
0
 40
0.000000
  0
LTYPE
  2
LTYPE01
 70
64
  3
CUSTOM
 72
65
 73
2
 40
0.111111
 49
0.083333
 49
-0.027778
  0
LTYPE
  2
LTYPE02
 70
64
  3
CUSTOM
 72
65
 73
2
 40
0.194444
 49
0.166667
 49
-0.027778
  0
LTYPE
  2
LTYPE03
 70
64
  3
CUSTOM
 72
65
 73
2
 40
0.375000
 49
0.333333
 49
-0.041667
  0
LTYPE
  2
LTYPE04
 70
64
  3
CUSTOM
 72
65
 73
2
 40
0.722222
 49
0.666667
 49
-0.055556
  0
LTYPE
  2
LTYPE05
 70
64
  3
CUSTOM
 72
65
 73
4
 40
0.152778
 49
0.083333
 49
-0.027778
 49
0.013889
 49
-0.027778
  0
LTYPE
  2
LTYPE06
 70
64
  3
CUSTOM
 72
65
 73
4
 40
0.236111
 49
0.166667
 49
-0.027778
 49
0.013889
 49
-0.027778
  0
LTYPE
  2
LTYPE07
 70
64
  3
CUSTOM
 72
65
 73
4
 40
0.444444
 49
0.333333
 49
-0.041667
 49
0.027778
 49
-0.041667
  0
LTYPE
  2
LTYPE08
 70
64
  3
CUSTOM
 72
65
 73
4
 40
0.805556
 49
0.666667
 49
-0.055556
 49
0.027778
 49
-0.055556
  0
LTYPE
  2
LTYPE09
 70
64
  3
CUSTOM
 72
65
 73
6
 40
0.194444
 49
0.083333
 49
-0.027778
 49
0.013889
 49
-0.027778
 49
0.013889
 49
-0.027778
  0
LTYPE
  2
LTYPE10
 70
64
  3
CUSTOM
 72
65
 73
6
 40
0.277778
 49
0.166667
 49
-0.027778
 49
0.013889
 49
-0.027778
 49
0.013889
 49
-0.027778
  0
LTYPE
  2
LTYPE11
 70
64
  3
CUSTOM
 72
65
 73
6
 40
0.500000
 49
0.333333
 49
-0.041667
 49
0.027778
 49
-0.027778
 49
0.027778
 49
-0.041667
  0
LTYPE
  2
LTYPE12
 70
64
  3
CUSTOM
 72
65
 73
6
 40
0.861111
 49
0.666667
 49
-0.055556
 49
0.027778
 49
-0.027778
 49
0.027778
 49
-0.055556
  0
LTYPE
  2
LTYPE13
 70
64
  3
CUSTOM
 72
65
 73
8
 40
0.319444
 49
0.166667
 49
-0.027778
 49
0.013889
 49
-0.027778
 49
0.013889
 49
-0.027778
 49
0.013889
 49
-0.027778
  0
LTYPE
  2
LTYPE14
 70
64
  3
CUSTOM
 72
65
 73
8
 40
0.555556
 49
0.333333
 49
-0.041667
 49
0.027778
 49
-0.027778
 49
0.027778
 49
-0.027778
 49
0.027778
 49
-0.041667
  0
LTYPE
  2
LTYPE15
 70
64
  3
CUSTOM
 72
65
 73
8
 40
0.944444
 49
0.666667
 49
-0.055556
 49
0.027778
 49
-0.041667
 49
0.027778
 49
-0.041667
 49
0.027778
 49
-0.055556
  0
ENDTAB
  0
TABLE
  2
LAYER
 70
1
  0
LAYER
  2
LAYER-1
 70
0
 62
7
  6
CONTINUOUS
  0
ENDTAB
  0
ENDSEC
  0
SECTION
  2
BLOCKS
  0
ENDSEC
  0
SECTION
  2
ENTITIES
  0
POLYLINE
  8
LAYER-1
 66
  1
 70
  1
 62
  0
  0
VERTEX
  8
LAYER-1
 10
3.689237
 20
0.345431
 30
0.000000
  0
VERTEX
  8
LAYER-1
 10
3.722794
 20
0.345431
 30
0.000000
  0
VERTEX
  8
LAYER-1
 10
3.722794
 20
0.249925
 30
0.000000
  0
VERTEX
  8
LAYER-1
 10
3.689237
 20
0.249925
 30
0.000000
  0
SEQEND
  8
LAYER-1
  0
ARC
  8
LAYER-1
 62
  0
 10
5.455844
 20
8.919158
 30
0.000000
 40
0.254425
 50
270.000000
 51
90.000000
  0
POLYLINE
  8
LAYER-1
 66
  1
 70
  0
 62
  0
 10
5.455844
 20
9.173583
 30
0.000000
  0
VERTEX
  8
LAYER-1
 10
5.455844
 20
9.173583
 30
0.000000
  0
VERTEX
  8
LAYER-1
 10
1.790923
 20
9.173583
 30
0.000000
  0
SEQEND
  8
LAYER-1
  0
POLYLINE
  8
LAYER-1
 66
  1
 70
  0
 62
  0
 10
1.790923
 20
9.173583
 30
0.000000
  0
VERTEX
  8
LAYER-1
 10
1.790923
 20
9.173583
 30
0.000000
  0
VERTEX
  8
LAYER-1
 10
1.790923
 20
8.664734
 30
0.000000
  0
SEQEND
  8
LAYER-1
  0
POLYLINE
  8
LAYER-1
 66
  1
 70
  0
 62
  0
 10
5.455844
 20
8.664734
 30
0.000000
  0
VERTEX
  8
LAYER-1
 10
5.455844
 20
8.664734
 30
0.000000
  0
VERTEX
  8
LAYER-1
 10
1.790923
 20
8.664734
 30
0.000000
  0
SEQEND
  8
LAYER-1
  0
POLYLINE
  8
LAYER-1
 66
  1
 70
  1
 62
  0
  0
VERTEX
  8
LAYER-1
 10
3.422013
 20
7.144101
 30
0.000000
  0
VERTEX
  8
LAYER-1
 10
3.448922
 20
7.144101
 30
0.000000
  0
VERTEX
  8
LAYER-1
 10
3.448922
 20
0.616549
 30
0.000000
  0
VERTEX
  8
LAYER-1
 10
3.422013
 20
0.616549
 30
0.000000
  0
SEQEND
  8
LAYER-1
  0
POLYLINE
  8
LAYER-1
 66
  1
 70
  1
 62
  0
  0
VERTEX
  8
LAYER-1
 10
3.621738
 20
7.144026
 30
0.000000
  0
VERTEX
  8
LAYER-1
 10
3.657689
 20
7.144026
 30
0.000000
  0
VERTEX
  8
LAYER-1
 10
3.657689
 20
0.616747
 30
0.000000
  0
VERTEX
  8
LAYER-1
 10
3.621738
 20
0.616747
 30
0.000000
  0
SEQEND
  8
LAYER-1
  0
POLYLINE
  8
LAYER-1
 66
  1
 70
  1
 62
  0
  0
VERTEX
  8
LAYER-1
 10
3.014617
 20
7.144101
 30
0.000000
  0
VERTEX
  8
LAYER-1
 10
3.041526
 20
7.144101
 30
0.000000
  0
VERTEX
  8
LAYER-1
 10
3.041526
 20
0.616549
 30
0.000000
  0
VERTEX
  8
LAYER-1
 10
3.014617
 20
0.616549
 30
0.000000
  0
SEQEND
  8
LAYER-1
  0
POLYLINE
  8
LAYER-1
 66
  1
 70
  1
 62
  0
  0
VERTEX
  8
LAYER-1
 10
3.213474
 20
7.144026
 30
0.000000
  0
VERTEX
  8
LAYER-1
 10
3.249424
 20
7.144026
 30
0.000000
  0
VERTEX
  8
LAYER-1
 10
3.249424
 20
0.616747
 30
0.000000
  0
VERTEX
  8
LAYER-1
 10
3.213474
 20
0.616747
 30
0.000000
  0
SEQEND
  8
LAYER-1
  0
POLYLINE
  8
LAYER-1
 66
  1
 70
  1
 62
  0
  0
VERTEX
  8
LAYER-1
 10
2.607653
 20
7.144101
 30
0.000000
  0
VERTEX
  8
LAYER-1
 10
2.634562
 20
7.144101
 30
0.000000
  0
VERTEX
  8
LAYER-1
 10
2.634562
 20
0.616549
 30
0.000000
  0
VERTEX
  8
LAYER-1
 10
2.607653
 20
0.616549
 30
0.000000
  0
SEQEND
  8
LAYER-1
  0
POLYLINE
  8
LAYER-1
 66
  1
 70
  1
 62
  0
  0
VERTEX
  8
LAYER-1
 10
2.806945
 20
7.144026
 30
0.000000
  0
VERTEX
  8
LAYER-1
 10
2.842896
 20
7.144026
 30
0.000000
  0
VERTEX
  8
LAYER-1
 10
2.842896
 20
0.616747
 30
0.000000
  0
VERTEX
  8
LAYER-1
 10
2.806945
 20
0.616747
 30
0.000000
  0
SEQEND
  8
LAYER-1
  0
POLYLINE
  8
LAYER-1
 66
  1
 70
  1
 62
  0
  0
VERTEX
  8
LAYER-1
 10
2.198087
 20
7.144101
 30
0.000000
  0
VERTEX
  8
LAYER-1
 10
2.224996
 20
7.144101
 30
0.000000
  0
VERTEX
  8
LAYER-1
 10
2.224996
 20
0.616549
 30
0.000000
  0
VERTEX
  8
LAYER-1
 10
2.198087
 20
0.616549
 30
0.000000
  0
SEQEND
  8
LAYER-1
  0
POLYLINE
  8
LAYER-1
 66
  1
 70
  1
 62
  0
  0
VERTEX
  8
LAYER-1
 10
2.398681
 20
7.144026
 30
0.000000
  0
VERTEX
  8
LAYER-1
 10
2.434632
 20
7.144026
 30
0.000000
  0
VERTEX
  8
LAYER-1
 10
2.434632
 20
0.616747
 30
0.000000
  0
VERTEX
  8
LAYER-1
 10
2.398681
 20
0.616747
 30
0.000000
  0
SEQEND
  8
LAYER-1
  0
POLYLINE
  8
LAYER-1
 66
  1
 70
  1
 62
  0
  0
VERTEX
  8
LAYER-1
 10
1.787220
 20
7.144101
 30
0.000000
  0
VERTEX
  8
LAYER-1
 10
1.814130
 20
7.144101
 30
0.000000
  0
VERTEX
  8
LAYER-1
 10
1.814130
 20
0.616549
 30
0.000000
  0
VERTEX
  8
LAYER-1
 10
1.787220
 20
0.616549
 30
0.000000
  0
SEQEND
  8
LAYER-1
  0
POLYLINE
  8
LAYER-1
 66
  1
 70
  1
 62
  0
  0
VERTEX
  8
LAYER-1
 10
1.989115
 20
7.144026
 30
0.000000
  0
VERTEX
  8
LAYER-1
 10
2.025066
 20
7.144026
 30
0.000000
  0
VERTEX
  8
LAYER-1
 10
2.025066
 20
0.616747
 30
0.000000
  0
VERTEX
  8
LAYER-1
 10
1.989115
 20
0.616747
 30
0.000000
  0
SEQEND
  8
LAYER-1
  0
POLYLINE
  8
LAYER-1
 66
  1
 70
  1
 62
  0
 10
3.660255
 20
0.345082
 30
0.000000
  0
VERTEX
  8
LAYER-1
 10
3.660255
 20
0.345082
 30
0.000000
  0
VERTEX
  8
LAYER-1
 10
1.764337
 20
0.345183
 30
0.000000
  0
VERTEX
  8
LAYER-1
 10
1.764337
 20
0.616716
 30
0.000000
  0
VERTEX
  8
LAYER-1
 10
3.660255
 20
0.616832
 30
0.000000
  0
SEQEND
  8
LAYER-1
  0
POLYLINE
  8
LAYER-1
 66
  1
 70
  0
 62
  0
 10
3.660473
 20
0.412989
 30
0.000000
  0
VERTEX
  8
LAYER-1
 10
3.660473
 20
0.412989
 30
0.000000
  0
VERTEX
  8
LAYER-1
 10
3.620747
 20
0.412989
 30
0.000000
  0
SEQEND
  8
LAYER-1
  0
POLYLINE
  8
LAYER-1
 66
  1
 70
  0
 62
  0
 10
3.660473
 20
0.542899
 30
0.000000
  0
VERTEX
  8
LAYER-1
 10
3.660473
 20
0.542899
 30
0.000000
  0
VERTEX
  8
LAYER-1
 10
3.620747
 20
0.542899
 30
0.000000
  0
SEQEND
  8
LAYER-1
  0
POLYLINE
  8
LAYER-1
 66
  1
 70
  0
 62
  0
 10
3.622118
 20
0.339938
 30
0.000000
  0
VERTEX
  8
LAYER-1
 10
3.622118
 20
0.339938
 30
0.000000
  0
VERTEX
  8
LAYER-1
 10
3.635290
 20
0.332890
 30
0.000000
  0
VERTEX
  8
LAYER-1
 10
3.652370
 20
0.337221
 30
0.000000
  0
VERTEX
  8
LAYER-1
 10
3.659022
 20
0.339935
 30
0.000000
  0
SEQEND
  8
LAYER-1
  0
POLYLINE
  8
LAYER-1
 66
  1
 70
  1
 62
  0
  0
VERTEX
  8
LAYER-1
 10
3.666225
 20
0.339314
 30
0.000000
  0
VERTEX
  8
LAYER-1
 10
3.611610
 20
0.339314
 30
0.000000
  0
VERTEX
  8
LAYER-1
 10
3.611610
 20
0.345219
 30
0.000000
  0
VERTEX
  8
LAYER-1
 10
3.666225
 20
0.345219
 30
0.000000
  0
SEQEND
  8
LAYER-1
  0
POLYLINE
  8
LAYER-1
 66
  1
 70
  1
 62
  0
 10
3.660049
 20
7.415648
 30
0.000000
  0
VERTEX
  8
LAYER-1
 10
3.660049
 20
7.415648
 30
0.000000
  0
VERTEX
  8
LAYER-1
 10
1.763696
 20
7.415547
 30
0.000000
  0
VERTEX
  8
LAYER-1
 10
1.763696
 20
7.144014
 30
0.000000
  0
VERTEX
  8
LAYER-1
 10
3.660049
 20
7.143897
 30
0.000000
  0
SEQEND
  8
LAYER-1
  0
POLYLINE
  8
LAYER-1
 66
  1
 70
  0
 62
  0
 10
3.398759
 20
7.415648
 30
0.000000
  0
VERTEX
  8
LAYER-1
 10
3.398759
 20
7.415648
 30
0.000000
  0
VERTEX
  8
LAYER-1
 10
3.398759
 20
7.144016
 30
0.000000
  0
SEQEND
  8
LAYER-1
  0
POLYLINE
  8
LAYER-1
 66
  1
 70
  0
 62
  0
 10
3.068262
 20
7.144016
 30
0.000000
  0
VERTEX
  8
LAYER-1
 10
3.068262
 20
7.144016
 30
0.000000
  0
VERTEX
  8
LAYER-1
 10
3.068262
 20
7.415648
 30
0.000000
  0
SEQEND
  8
LAYER-1
  0
POLYLINE
  8
LAYER-1
 66
  1
 70
  0
 62
  0
 10
2.255431
 20
7.144016
 30
0.000000
  0
VERTEX
  8
LAYER-1
 10
2.255431
 20
7.144016
 30
0.000000
  0
VERTEX
  8
LAYER-1
 10
2.255431
 20
7.415648
 30
0.000000
  0
SEQEND
  8
LAYER-1
  0
POLYLINE
  8
LAYER-1
 66
  1
 70
  0
 62
  0
 10
2.436598
 20
7.415687
 30
0.000000
  0
VERTEX
  8
LAYER-1
 10
2.436598
 20
7.415687
 30
0.000000
  0
VERTEX
  8
LAYER-1
 10
2.436598
 20
7.144058
 30
0.000000
  0
SEQEND
  8
LAYER-1
  0
POLYLINE
  8
LAYER-1
 66
  1
 70
  0
 62
  0
 10
2.396739
 20
7.415687
 30
0.000000
  0
VERTEX
  8
LAYER-1
 10
2.396739
 20
7.415687
 30
0.000000
  0
VERTEX
  8
LAYER-1
 10
2.396739
 20
7.144058
 30
0.000000
  0
SEQEND
  8
LAYER-1
  0
POLYLINE
  8
LAYER-1
 66
  1
 70
  0
 62
  0
 10
3.250616
 20
7.415687
 30
0.000000
  0
VERTEX
  8
LAYER-1
 10
3.250616
 20
7.415687
 30
0.000000
  0
VERTEX
  8
LAYER-1
 10
3.250616
 20
7.144058
 30
0.000000
  0
SEQEND
  8
LAYER-1
  0
POLYLINE
  8
LAYER-1
 66
  1
 70
  0
 62
  0
 10
3.211799
 20
7.415687
 30
0.000000
  0
VERTEX
  8
LAYER-1
 10
3.211799
 20
7.415687
 30
0.000000
  0
VERTEX
  8
LAYER-1
 10
3.211799
 20
7.144058
 30
0.000000
  0
SEQEND
  8
LAYER-1
  0
POLYLINE
  8
LAYER-1
 66
  1
 70
  0
 62
  0
 10
2.983940
 20
7.415648
 30
0.000000
  0
VERTEX
  8
LAYER-1
 10
2.983940
 20
7.415648
 30
0.000000
  0
VERTEX
  8
LAYER-1
 10
2.983940
 20
7.144016
 30
0.000000
  0
SEQEND
  8
LAYER-1
  0
POLYLINE
  8
LAYER-1
 66
  1
 70
  0
 62
  0
 10
2.171109
 20
7.415648
 30
0.000000
  0
VERTEX
  8
LAYER-1
 10
2.171109
 20
7.415648
 30
0.000000
  0
VERTEX
  8
LAYER-1
 10
2.171109
 20
7.144016
 30
0.000000
  0
SEQEND
  8
LAYER-1
  0
POLYLINE
  8
LAYER-1
 66
  1
 70
  0
 62
  0
 10
2.026204
 20
7.415253
 30
0.000000
  0
VERTEX
  8
LAYER-1
 10
2.026204
 20
7.415253
 30
0.000000
  0
VERTEX
  8
LAYER-1
 10
2.026204
 20
7.143624
 30
0.000000
  0
SEQEND
  8
LAYER-1
  0
POLYLINE
  8
LAYER-1
 66
  1
 70
  0
 62
  0
 10
1.987821
 20
7.415253
 30
0.000000
  0
VERTEX
  8
LAYER-1
 10
1.987821
 20
7.415253
 30
0.000000
  0
VERTEX
  8
LAYER-1
 10
1.987821
 20
7.143624
 30
0.000000
  0
SEQEND
  8
LAYER-1
  0
POLYLINE
  8
LAYER-1
 66
  1
 70
  0
 62
  0
 10
2.844042
 20
7.415722
 30
0.000000
  0
VERTEX
  8
LAYER-1
 10
2.844042
 20
7.415722
 30
0.000000
  0
VERTEX
  8
LAYER-1
 10
2.844042
 20
7.144094
 30
0.000000
  0
SEQEND
  8
LAYER-1
  0
POLYLINE
  8
LAYER-1
 66
  1
 70
  0
 62
  0
 10
2.805660
 20
7.415722
 30
0.000000
  0
VERTEX
  8
LAYER-1
 10
2.805660
 20
7.415722
 30
0.000000
  0
VERTEX
  8
LAYER-1
 10
2.805660
 20
7.144094
 30
0.000000
  0
SEQEND
  8
LAYER-1
  0
POLYLINE
  8
LAYER-1
 66
  1
 70
  0
 62
  0
 10
3.471093
 20
7.144019
 30
0.000000
  0
VERTEX
  8
LAYER-1
 10
3.471093
 20
7.144019
 30
0.000000
  0
VERTEX
  8
LAYER-1
 10
3.471093
 20
7.415648
 30
0.000000
  0
SEQEND
  8
LAYER-1
  0
POLYLINE
  8
LAYER-1
 66
  1
 70
  0
 62
  0
 10
3.435664
 20
7.415648
 30
0.000000
  0
VERTEX
  8
LAYER-1
 10
3.435664
 20
7.415648
 30
0.000000
  0
VERTEX
  8
LAYER-1
 10
3.435664
 20
7.144018
 30
0.000000
  0
SEQEND
  8
LAYER-1
  0
POLYLINE
  8
LAYER-1
 66
  1
 70
  0
 62
  0
 10
3.470190
 20
7.415649
 30
0.000000
  0
VERTEX
  8
LAYER-1
 10
3.470190
 20
7.415649
 30
0.000000
  0
VERTEX
  8
LAYER-1
 10
3.456313
 20
7.426587
 30
0.000000
  0
VERTEX
  8
LAYER-1
 10
3.441550
 20
7.424508
 30
0.000000
  0
VERTEX
  8
LAYER-1
 10
3.436634
 20
7.415660
 30
0.000000
  0
SEQEND
  8
LAYER-1
  0
POLYLINE
  8
LAYER-1
 66
  1
 70
  0
 62
  0
 10
3.435664
 20
7.415649
 30
0.000000
  0
VERTEX
  8
LAYER-1
 10
3.435664
 20
7.415649
 30
0.000000
  0
VERTEX
  8
LAYER-1
 10
3.418556
 20
7.426632
 30
0.000000
  0
VERTEX
  8
LAYER-1
 10
3.401475
 20
7.422300
 30
0.000000
  0
VERTEX
  8
LAYER-1
 10
3.398761
 20
7.415648
 30
0.000000
  0
SEQEND
  8
LAYER-1
  0
POLYLINE
  8
LAYER-1
 66
  1
 70
  0
 62
  0
 10
3.020108
 20
7.415154
 30
0.000000
  0
VERTEX
  8
LAYER-1
 10
3.020108
 20
7.415154
 30
0.000000
  0
VERTEX
  8
LAYER-1
 10
3.000604
 20
7.425146
 30
0.000000
  0
VERTEX
  8
LAYER-1
 10
2.982530
 20
7.418421
 30
0.000000
  0
VERTEX
  8
LAYER-1
 10
2.983200
 20
7.415154
 30
0.000000
  0
SEQEND
  8
LAYER-1
  0
POLYLINE
  8
LAYER-1
 66
  1
 70
  0
 62
  0
 10
2.207150
 20
7.415624
 30
0.000000
  0
VERTEX
  8
LAYER-1
 10
2.207150
 20
7.415624
 30
0.000000
  0
VERTEX
  8
LAYER-1
 10
2.187645
 20
7.425617
 30
0.000000
  0
VERTEX
  8
LAYER-1
 10
2.169572
 20
7.418891
 30
0.000000
  0
VERTEX
  8
LAYER-1
 10
2.170242
 20
7.415624
 30
0.000000
  0
SEQEND
  8
LAYER-1
  0
POLYLINE
  8
LAYER-1
 66
  1
 70
  0
 62
  0
 10
3.067817
 20
7.415154
 30
0.000000
  0
VERTEX
  8
LAYER-1
 10
3.067817
 20
7.415154
 30
0.000000
  0
VERTEX
  8
LAYER-1
 10
3.048313
 20
7.425147
 30
0.000000
  0
VERTEX
  8
LAYER-1
 10
3.030240
 20
7.418421
 30
0.000000
  0
VERTEX
  8
LAYER-1
 10
3.030910
 20
7.415154
 30
0.000000
  0
SEQEND
  8
LAYER-1
  0
POLYLINE
  8
LAYER-1
 66
  1
 70
  0
 62
  0
 10
3.045875
 20
7.415714
 30
0.000000
  0
VERTEX
  8
LAYER-1
 10
3.045875
 20
7.415714
 30
0.000000
  0
VERTEX
  8
LAYER-1
 10
3.035123
 20
7.428719
 30
0.000000
  0
VERTEX
  8
LAYER-1
 10
3.021108
 20
7.430312
 30
0.000000
  0
VERTEX
  8
LAYER-1
 10
3.010071
 20
7.421529
 30
0.000000
  0
VERTEX
  8
LAYER-1
 10
3.010446
 20
7.415714
 30
0.000000
  0
SEQEND
  8
LAYER-1
  0
POLYLINE
  8
LAYER-1
 66
  1
 70
  0
 62
  0
 10
3.045875
 20
7.415714
 30
0.000000
  0
VERTEX
  8
LAYER-1
 10
3.045875
 20
7.415714
 30
0.000000
  0
VERTEX
  8
LAYER-1
 10
3.010446
 20
7.415714
 30
0.000000
  0
SEQEND
  8
LAYER-1
  0
POLYLINE
  8
LAYER-1
 66
  1
 70
  0
 62
  0
 10
2.255800
 20
7.415624
 30
0.000000
  0
VERTEX
  8
LAYER-1
 10
2.255800
 20
7.415624
 30
0.000000
  0
VERTEX
  8
LAYER-1
 10
2.236296
 20
7.425617
 30
0.000000
  0
VERTEX
  8
LAYER-1
 10
2.218222
 20
7.418891
 30
0.000000
  0
VERTEX
  8
LAYER-1
 10
2.218893
 20
7.415624
 30
0.000000
  0
SEQEND
  8
LAYER-1
  0
POLYLINE
  8
LAYER-1
 66
  1
 70
  0
 62
  0
 10
2.229628
 20
7.415714
 30
0.000000
  0
VERTEX
  8
LAYER-1
 10
2.229628
 20
7.415714
 30
0.000000
  0
VERTEX
  8
LAYER-1
 10
2.218876
 20
7.428719
 30
0.000000
  0
VERTEX
  8
LAYER-1
 10
2.204861
 20
7.430312
 30
0.000000
  0
VERTEX
  8
LAYER-1
 10
2.193824
 20
7.421529
 30
0.000000
  0
VERTEX
  8
LAYER-1
 10
2.194199
 20
7.415714
 30
0.000000
  0
SEQEND
  8
LAYER-1
  0
POLYLINE
  8
LAYER-1
 66
  1
 70
  0
 62
  0
 10
2.229628
 20
7.415714
 30
0.000000
  0
VERTEX
  8
LAYER-1
 10
2.229628
 20
7.415714
 30
0.000000
  0
VERTEX
  8
LAYER-1
 10
2.194199
 20
7.415714
 30
0.000000
  0
SEQEND
  8
LAYER-1
  0
POLYLINE
  8
LAYER-1
 66
  1
 70
  0
 62
  0
 10
3.436940
 20
7.143432
 30
0.000000
  0
VERTEX
  8
LAYER-1
 10
3.436940
 20
7.143432
 30
0.000000
  0
VERTEX
  8
LAYER-1
 10
3.447176
 20
7.136837
 30
0.000000
  0
VERTEX
  8
LAYER-1
 10
3.461860
 20
7.139413
 30
0.000000
  0
VERTEX
  8
LAYER-1
 10
3.470160
 20
7.143992
 30
0.000000
  0
SEQEND
  8
LAYER-1
  0
POLYLINE
  8
LAYER-1
 66
  1
 70
  0
 62
  0
 10
3.436940
 20
7.143432
 30
0.000000
  0
VERTEX
  8
LAYER-1
 10
3.436940
 20
7.143432
 30
0.000000
  0
VERTEX
  8
LAYER-1
 10
3.470160
 20
7.143992
 30
0.000000
  0
SEQEND
  8
LAYER-1
  0
POLYLINE
  8
LAYER-1
 66
  1
 70
  0
 62
  0
 10
3.397827
 20
7.143993
 30
0.000000
  0
VERTEX
  8
LAYER-1
 10
3.397827
 20
7.143993
 30
0.000000
  0
VERTEX
  8
LAYER-1
 10
3.410999
 20
7.136946
 30
0.000000
  0
VERTEX
  8
LAYER-1
 10
3.428079
 20
7.141276
 30
0.000000
  0
VERTEX
  8
LAYER-1
 10
3.434732
 20
7.143992
 30
0.000000
  0
SEQEND
  8
LAYER-1
  0
POLYLINE
  8
LAYER-1
 66
  1
 70
  0
 62
  0
 10
3.397828
 20
7.143993
 30
0.000000
  0
VERTEX
  8
LAYER-1
 10
3.397828
 20
7.143993
 30
0.000000
  0
VERTEX
  8
LAYER-1
 10
3.434731
 20
7.143992
 30
0.000000
  0
SEQEND
  8
LAYER-1
  0
POLYLINE
  8
LAYER-1
 66
  1
 70
  0
 62
  0
 10
3.030984
 20
7.143546
 30
0.000000
  0
VERTEX
  8
LAYER-1
 10
3.030984
 20
7.143546
 30
0.000000
  0
VERTEX
  8
LAYER-1
 10
3.046551
 20
7.137490
 30
0.000000
  0
VERTEX
  8
LAYER-1
 10
3.064625
 20
7.144216
 30
0.000000
  0
VERTEX
  8
LAYER-1
 10
3.067891
 20
7.143546
 30
0.000000
  0
SEQEND
  8
LAYER-1
  0
POLYLINE
  8
LAYER-1
 66
  1
 70
  0
 62
  0
 10
2.983743
 20
7.143546
 30
0.000000
  0
VERTEX
  8
LAYER-1
 10
2.983743
 20
7.143546
 30
0.000000
  0
VERTEX
  8
LAYER-1
 10
2.999310
 20
7.137490
 30
0.000000
  0
VERTEX
  8
LAYER-1
 10
3.017384
 20
7.144216
 30
0.000000
  0
VERTEX
  8
LAYER-1
 10
3.020651
 20
7.143546
 30
0.000000
  0
SEQEND
  8
LAYER-1
  0
POLYLINE
  8
LAYER-1
 66
  1
 70
  0
 62
  0
 10
3.010989
 20
7.143456
 30
0.000000
  0
VERTEX
  8
LAYER-1
 10
3.010989
 20
7.143456
 30
0.000000
  0
VERTEX
  8
LAYER-1
 10
3.017804
 20
7.134388
 30
0.000000
  0
VERTEX
  8
LAYER-1
 10
3.031819
 20
7.132795
 30
0.000000
  0
VERTEX
  8
LAYER-1
 10
3.042856
 20
7.141578
 30
0.000000
  0
VERTEX
  8
LAYER-1
 10
3.046418
 20
7.143456
 30
0.000000
  0
SEQEND
  8
LAYER-1
  0
POLYLINE
  8
LAYER-1
 66
  1
 70
  0
 62
  0
 10
3.046417
 20
7.143456
 30
0.000000
  0
VERTEX
  8
LAYER-1
 10
3.046417
 20
7.143456
 30
0.000000
  0
VERTEX
  8
LAYER-1
 10
3.010989
 20
7.143456
 30
0.000000
  0
SEQEND
  8
LAYER-1
  0
POLYLINE
  8
LAYER-1
 66
  1
 70
  0
 62
  0
 10
2.218429
 20
7.143546
 30
0.000000
  0
VERTEX
  8
LAYER-1
 10
2.218429
 20
7.143546
 30
0.000000
  0
VERTEX
  8
LAYER-1
 10
2.233996
 20
7.137490
 30
0.000000
  0
VERTEX
  8
LAYER-1
 10
2.252070
 20
7.144216
 30
0.000000
  0
VERTEX
  8
LAYER-1
 10
2.255337
 20
7.143546
 30
0.000000
  0
SEQEND
  8
LAYER-1
  0
POLYLINE
  8
LAYER-1
 66
  1
 70
  0
 62
  0
 10
2.170249
 20
7.143546
 30
0.000000
  0
VERTEX
  8
LAYER-1
 10
2.170249
 20
7.143546
 30
0.000000
  0
VERTEX
  8
LAYER-1
 10
2.185816
 20
7.137490
 30
0.000000
  0
VERTEX
  8
LAYER-1
 10
2.203890
 20
7.144216
 30
0.000000
  0
VERTEX
  8
LAYER-1
 10
2.207157
 20
7.143546
 30
0.000000
  0
SEQEND
  8
LAYER-1
  0
POLYLINE
  8
LAYER-1
 66
  1
 70
  0
 62
  0
 10
2.194205
 20
7.143456
 30
0.000000
  0
VERTEX
  8
LAYER-1
 10
2.194205
 20
7.143456
 30
0.000000
  0
VERTEX
  8
LAYER-1
 10
2.201020
 20
7.134388
 30
0.000000
  0
VERTEX
  8
LAYER-1
 10
2.215035
 20
7.132795
 30
0.000000
  0
VERTEX
  8
LAYER-1
 10
2.226072
 20
7.141578
 30
0.000000
  0
VERTEX
  8
LAYER-1
 10
2.229634
 20
7.143456
 30
0.000000
  0
SEQEND
  8
LAYER-1
  0
POLYLINE
  8
LAYER-1
 66
  1
 70
  0
 62
  0
 10
2.229634
 20
7.143456
 30
0.000000
  0
VERTEX
  8
LAYER-1
 10
2.229634
 20
7.143456
 30
0.000000
  0
VERTEX
  8
LAYER-1
 10
2.194206
 20
7.143456
 30
0.000000
  0
SEQEND
  8
LAYER-1
  0
POLYLINE
  8
LAYER-1
 66
  1
 70
  1
 62
  0
  0
VERTEX
  8
LAYER-1
 10
3.010445
 20
7.415648
 30
0.000000
  0
VERTEX
  8
LAYER-1
 10
3.045875
 20
7.415648
 30
0.000000
  0
VERTEX
  8
LAYER-1
 10
3.045875
 20
7.144018
 30
0.000000
  0
VERTEX
  8
LAYER-1
 10
3.010445
 20
7.144018
 30
0.000000
  0
SEQEND
  8
LAYER-1
  0
POLYLINE
  8
LAYER-1
 66
  1
 70
  1
 62
  0
  0
VERTEX
  8
LAYER-1
 10
2.194131
 20
7.415648
 30
0.000000
  0
VERTEX
  8
LAYER-1
 10
2.229561
 20
7.415648
 30
0.000000
  0
VERTEX
  8
LAYER-1
 10
2.229561
 20
7.144018
 30
0.000000
  0
VERTEX
  8
LAYER-1
 10
2.194131
 20
7.144018
 30
0.000000
  0
SEQEND
  8
LAYER-1
  0
POLYLINE
  8
LAYER-1
 66
  1
 70
  0
 62
  0
 10
3.045875
 20
7.347740
 30
0.000000
  0
VERTEX
  8
LAYER-1
 10
3.045875
 20
7.347740
 30
0.000000
  0
VERTEX
  8
LAYER-1
 10
3.010445
 20
7.347740
 30
0.000000
  0
SEQEND
  8
LAYER-1
  0
POLYLINE
  8
LAYER-1
 66
  1
 70
  0
 62
  0
 10
3.045875
 20
7.217831
 30
0.000000
  0
VERTEX
  8
LAYER-1
 10
3.045875
 20
7.217831
 30
0.000000
  0
VERTEX
  8
LAYER-1
 10
3.010445
 20
7.217831
 30
0.000000
  0
SEQEND
  8
LAYER-1
  0
POLYLINE
  8
LAYER-1
 66
  1
 70
  0
 62
  0
 10
2.229561
 20
7.347740
 30
0.000000
  0
VERTEX
  8
LAYER-1
 10
2.229561
 20
7.347740
 30
0.000000
  0
VERTEX
  8
LAYER-1
 10
2.194132
 20
7.347740
 30
0.000000
  0
SEQEND
  8
LAYER-1
  0
POLYLINE
  8
LAYER-1
 66
  1
 70
  0
 62
  0
 10
2.229561
 20
7.217830
 30
0.000000
  0
VERTEX
  8
LAYER-1
 10
2.229561
 20
7.217830
 30
0.000000
  0
VERTEX
  8
LAYER-1
 10
2.194132
 20
7.217830
 30
0.000000
  0
SEQEND
  8
LAYER-1
  0
POLYLINE
  8
LAYER-1
 66
  1
 70
  0
 62
  0
 10
3.248207
 20
7.415204
 30
0.000000
  0
VERTEX
  8
LAYER-1
 10
3.248207
 20
7.415204
 30
0.000000
  0
VERTEX
  8
LAYER-1
 10
3.234329
 20
7.426142
 30
0.000000
  0
VERTEX
  8
LAYER-1
 10
3.219567
 20
7.424064
 30
0.000000
  0
VERTEX
  8
LAYER-1
 10
3.214987
 20
7.415764
 30
0.000000
  0
SEQEND
  8
LAYER-1
  0
POLYLINE
  8
LAYER-1
 66
  1
 70
  0
 62
  0
 10
3.660267
 20
7.347740
 30
0.000000
  0
VERTEX
  8
LAYER-1
 10
3.660267
 20
7.347740
 30
0.000000
  0
VERTEX
  8
LAYER-1
 10
3.620541
 20
7.347740
 30
0.000000
  0
SEQEND
  8
LAYER-1
  0
POLYLINE
  8
LAYER-1
 66
  1
 70
  0
 62
  0
 10
3.660267
 20
7.217830
 30
0.000000
  0
VERTEX
  8
LAYER-1
 10
3.660267
 20
7.217830
 30
0.000000
  0
VERTEX
  8
LAYER-1
 10
3.620541
 20
7.217830
 30
0.000000
  0
SEQEND
  8
LAYER-1
  0
POLYLINE
  8
LAYER-1
 66
  1
 70
  0
 62
  0
 10
2.434713
 20
7.415587
 30
0.000000
  0
VERTEX
  8
LAYER-1
 10
2.434713
 20
7.415587
 30
0.000000
  0
VERTEX
  8
LAYER-1
 10
2.417604
 20
7.426570
 30
0.000000
  0
VERTEX
  8
LAYER-1
 10
2.400524
 20
7.422238
 30
0.000000
  0
VERTEX
  8
LAYER-1
 10
2.397809
 20
7.415585
 30
0.000000
  0
SEQEND
  8
LAYER-1
  0
POLYLINE
  8
LAYER-1
 66
  1
 70
  0
 62
  0
 10
3.658816
 20
7.420793
 30
0.000000
  0
VERTEX
  8
LAYER-1
 10
3.658816
 20
7.420793
 30
0.000000
  0
VERTEX
  8
LAYER-1
 10
3.641707
 20
7.431776
 30
0.000000
  0
VERTEX
  8
LAYER-1
 10
3.624627
 20
7.427445
 30
0.000000
  0
VERTEX
  8
LAYER-1
 10
3.621912
 20
7.420792
 30
0.000000
  0
SEQEND
  8
LAYER-1
  0
POLYLINE
  8
LAYER-1
 66
  1
 70
  1
 62
  0
  0
VERTEX
  8
LAYER-1
 10
3.611403
 20
7.421416
 30
0.000000
  0
VERTEX
  8
LAYER-1
 10
3.666019
 20
7.421416
 30
0.000000
  0
VERTEX
  8
LAYER-1
 10
3.666019
 20
7.415510
 30
0.000000
  0
VERTEX
  8
LAYER-1
 10
3.611403
 20
7.415510
 30
0.000000
  0
SEQEND
  8
LAYER-1
  0
POLYLINE
  8
LAYER-1
 66
  1
 70
  1
 62
  0
  0
VERTEX
  8
LAYER-1
 10
3.006268
 20
1.438064
 30
0.000000
  0
VERTEX
  8
LAYER-1
 10
3.457997
 20
1.438064
 30
0.000000
  0
VERTEX
  8
LAYER-1
 10
3.457997
 20
1.429207
 30
0.000000
  0
VERTEX
  8
LAYER-1
 10
3.006268
 20
1.429207
 30
0.000000
  0
SEQEND
  8
LAYER-1
  0
POLYLINE
  8
LAYER-1
 66
  1
 70
  1
 62
  0
  0
VERTEX
  8
LAYER-1
 10
3.005834
 20
2.254367
 30
0.000000
  0
VERTEX
  8
LAYER-1
 10
3.457563
 20
2.254367
 30
0.000000
  0
VERTEX
  8
LAYER-1
 10
3.457563
 20
2.245510
 30
0.000000
  0
VERTEX
  8
LAYER-1
 10
3.005834
 20
2.245510
 30
0.000000
  0
SEQEND
  8
LAYER-1
  0
POLYLINE
  8
LAYER-1
 66
  1
 70
  1
 62
  0
  0
VERTEX
  8
LAYER-1
 10
3.006703
 20
3.070670
 30
0.000000
  0
VERTEX
  8
LAYER-1
 10
3.458431
 20
3.070670
 30
0.000000
  0
VERTEX
  8
LAYER-1
 10
3.458431
 20
3.061813
 30
0.000000
  0
VERTEX
  8
LAYER-1
 10
3.006703
 20
3.061813
 30
0.000000
  0
SEQEND
  8
LAYER-1
  0
POLYLINE
  8
LAYER-1
 66
  1
 70
  1
 62
  0
  0
VERTEX
  8
LAYER-1
 10
3.006703
 20
3.886973
 30
0.000000
  0
VERTEX
  8
LAYER-1
 10
3.458431
 20
3.886973
 30
0.000000
  0
VERTEX
  8
LAYER-1
 10
3.458431
 20
3.878117
 30
0.000000
  0
VERTEX
  8
LAYER-1
 10
3.006703
 20
3.878117
 30
0.000000
  0
SEQEND
  8
LAYER-1
  0
POLYLINE
  8
LAYER-1
 66
  1
 70
  1
 62
  0
  0
VERTEX
  8
LAYER-1
 10
3.006269
 20
4.703277
 30
0.000000
  0
VERTEX
  8
LAYER-1
 10
3.457997
 20
4.703277
 30
0.000000
  0
VERTEX
  8
LAYER-1
 10
3.457997
 20
4.694421
 30
0.000000
  0
VERTEX
  8
LAYER-1
 10
3.006269
 20
4.694421
 30
0.000000
  0
SEQEND
  8
LAYER-1
  0
POLYLINE
  8
LAYER-1
 66
  1
 70
  1
 62
  0
  0
VERTEX
  8
LAYER-1
 10
3.006703
 20
5.519581
 30
0.000000
  0
VERTEX
  8
LAYER-1
 10
3.458431
 20
5.519581
 30
0.000000
  0
VERTEX
  8
LAYER-1
 10
3.458431
 20
5.510724
 30
0.000000
  0
VERTEX
  8
LAYER-1
 10
3.006703
 20
5.510724
 30
0.000000
  0
SEQEND
  8
LAYER-1
  0
POLYLINE
  8
LAYER-1
 66
  1
 70
  1
 62
  0
  0
VERTEX
  8
LAYER-1
 10
3.006269
 20
6.335884
 30
0.000000
  0
VERTEX
  8
LAYER-1
 10
3.457997
 20
6.335884
 30
0.000000
  0
VERTEX
  8
LAYER-1
 10
3.457997
 20
6.327028
 30
0.000000
  0
VERTEX
  8
LAYER-1
 10
3.006269
 20
6.327028
 30
0.000000
  0
SEQEND
  8
LAYER-1
  0
POLYLINE
  8
LAYER-1
 66
  1
 70
  1
 62
  0
  0
VERTEX
  8
LAYER-1
 10
2.195204
 20
1.438064
 30
0.000000
  0
VERTEX
  8
LAYER-1
 10
2.646934
 20
1.438064
 30
0.000000
  0
VERTEX
  8
LAYER-1
 10
2.646934
 20
1.429207
 30
0.000000
  0
VERTEX
  8
LAYER-1
 10
2.195204
 20
1.429207
 30
0.000000
  0
SEQEND
  8
LAYER-1
  0
POLYLINE
  8
LAYER-1
 66
  1
 70
  1
 62
  0
  0
VERTEX
  8
LAYER-1
 10
2.195204
 20
2.254367
 30
0.000000
  0
VERTEX
  8
LAYER-1
 10
2.646934
 20
2.254367
 30
0.000000
  0
VERTEX
  8
LAYER-1
 10
2.646934
 20
2.245510
 30
0.000000
  0
VERTEX
  8
LAYER-1
 10
2.195204
 20
2.245510
 30
0.000000
  0
SEQEND
  8
LAYER-1
  0
POLYLINE
  8
LAYER-1
 66
  1
 70
  1
 62
  0
  0
VERTEX
  8
LAYER-1
 10
2.189995
 20
3.070670
 30
0.000000
  0
VERTEX
  8
LAYER-1
 10
2.641725
 20
3.070670
 30
0.000000
  0
VERTEX
  8
LAYER-1
 10
2.641725
 20
3.061813
 30
0.000000
  0
VERTEX
  8
LAYER-1
 10
2.189995
 20
3.061813
 30
0.000000
  0
SEQEND
  8
LAYER-1
  0
POLYLINE
  8
LAYER-1
 66
  1
 70
  1
 62
  0
  0
VERTEX
  8
LAYER-1
 10
2.189995
 20
3.886973
 30
0.000000
  0
VERTEX
  8
LAYER-1
 10
2.641725
 20
3.886973
 30
0.000000
  0
VERTEX
  8
LAYER-1
 10
2.641725
 20
3.878117
 30
0.000000
  0
VERTEX
  8
LAYER-1
 10
2.189995
 20
3.878117
 30
0.000000
  0
SEQEND
  8
LAYER-1
  0
POLYLINE
  8
LAYER-1
 66
  1
 70
  1
 62
  0
  0
VERTEX
  8
LAYER-1
 10
2.189995
 20
4.703279
 30
0.000000
  0
VERTEX
  8
LAYER-1
 10
2.641725
 20
4.703279
 30
0.000000
  0
VERTEX
  8
LAYER-1
 10
2.641725
 20
4.694421
 30
0.000000
  0
VERTEX
  8
LAYER-1
 10
2.189995
 20
4.694421
 30
0.000000
  0
SEQEND
  8
LAYER-1
  0
POLYLINE
  8
LAYER-1
 66
  1
 70
  1
 62
  0
  0
VERTEX
  8
LAYER-1
 10
2.189995
 20
5.519581
 30
0.000000
  0
VERTEX
  8
LAYER-1
 10
2.641725
 20
5.519581
 30
0.000000
  0
VERTEX
  8
LAYER-1
 10
2.641725
 20
5.510725
 30
0.000000
  0
VERTEX
  8
LAYER-1
 10
2.189995
 20
5.510725
 30
0.000000
  0
SEQEND
  8
LAYER-1
  0
POLYLINE
  8
LAYER-1
 66
  1
 70
  1
 62
  0
  0
VERTEX
  8
LAYER-1
 10
2.189995
 20
6.335884
 30
0.000000
  0
VERTEX
  8
LAYER-1
 10
2.641725
 20
6.335884
 30
0.000000
  0
VERTEX
  8
LAYER-1
 10
2.641725
 20
6.327028
 30
0.000000
  0
VERTEX
  8
LAYER-1
 10
2.189995
 20
6.327028
 30
0.000000
  0
SEQEND
  8
LAYER-1
  0
POLYLINE
  8
LAYER-1
 66
  1
 70
  1
 62
  0
  0
VERTEX
  8
LAYER-1
 10
2.599173
 20
1.036527
 30
0.000000
  0
VERTEX
  8
LAYER-1
 10
3.050903
 20
1.036527
 30
0.000000
  0
VERTEX
  8
LAYER-1
 10
3.050903
 20
1.027669
 30
0.000000
  0
VERTEX
  8
LAYER-1
 10
2.599173
 20
1.027669
 30
0.000000
  0
SEQEND
  8
LAYER-1
  0
POLYLINE
  8
LAYER-1
 66
  1
 70
  1
 62
  0
  0
VERTEX
  8
LAYER-1
 10
2.599607
 20
1.852829
 30
0.000000
  0
VERTEX
  8
LAYER-1
 10
3.051337
 20
1.852829
 30
0.000000
  0
VERTEX
  8
LAYER-1
 10
3.051337
 20
1.843974
 30
0.000000
  0
VERTEX
  8
LAYER-1
 10
2.599607
 20
1.843974
 30
0.000000
  0
SEQEND
  8
LAYER-1
  0
POLYLINE
  8
LAYER-1
 66
  1
 70
  1
 62
  0
  0
VERTEX
  8
LAYER-1
 10
2.599607
 20
2.669133
 30
0.000000
  0
VERTEX
  8
LAYER-1
 10
3.051337
 20
2.669133
 30
0.000000
  0
VERTEX
  8
LAYER-1
 10
3.051337
 20
2.660275
 30
0.000000
  0
VERTEX
  8
LAYER-1
 10
2.599607
 20
2.660275
 30
0.000000
  0
SEQEND
  8
LAYER-1
  0
POLYLINE
  8
LAYER-1
 66
  1
 70
  1
 62
  0
  0
VERTEX
  8
LAYER-1
 10
2.598739
 20
3.485435
 30
0.000000
  0
VERTEX
  8
LAYER-1
 10
3.050469
 20
3.485435
 30
0.000000
  0
VERTEX
  8
LAYER-1
 10
3.050469
 20
3.476579
 30
0.000000
  0
VERTEX
  8
LAYER-1
 10
2.598739
 20
3.476579
 30
0.000000
  0
SEQEND
  8
LAYER-1
  0
POLYLINE
  8
LAYER-1
 66
  1
 70
  1
 62
  0
  0
VERTEX
  8
LAYER-1
 10
2.598739
 20
4.301739
 30
0.000000
  0
VERTEX
  8
LAYER-1
 10
3.050469
 20
4.301739
 30
0.000000
  0
VERTEX
  8
LAYER-1
 10
3.050469
 20
4.292881
 30
0.000000
  0
VERTEX
  8
LAYER-1
 10
2.598739
 20
4.292881
 30
0.000000
  0
SEQEND
  8
LAYER-1
  0
POLYLINE
  8
LAYER-1
 66
  1
 70
  1
 62
  0
  0
VERTEX
  8
LAYER-1
 10
2.598739
 20
5.118044
 30
0.000000
  0
VERTEX
  8
LAYER-1
 10
3.050469
 20
5.118044
 30
0.000000
  0
VERTEX
  8
LAYER-1
 10
3.050469
 20
5.109187
 30
0.000000
  0
VERTEX
  8
LAYER-1
 10
2.598739
 20
5.109187
 30
0.000000
  0
SEQEND
  8
LAYER-1
  0
POLYLINE
  8
LAYER-1
 66
  1
 70
  1
 62
  0
  0
VERTEX
  8
LAYER-1
 10
2.599173
 20
5.934348
 30
0.000000
  0
VERTEX
  8
LAYER-1
 10
3.050903
 20
5.934348
 30
0.000000
  0
VERTEX
  8
LAYER-1
 10
3.050903
 20
5.925490
 30
0.000000
  0
VERTEX
  8
LAYER-1
 10
2.599173
 20
5.925490
 30
0.000000
  0
SEQEND
  8
LAYER-1
  0
POLYLINE
  8
LAYER-1
 66
  1
 70
  1
 62
  0
  0
VERTEX
  8
LAYER-1
 10
2.599173
 20
6.750642
 30
0.000000
  0
VERTEX
  8
LAYER-1
 10
3.050903
 20
6.750642
 30
0.000000
  0
VERTEX
  8
LAYER-1
 10
3.050903
 20
6.741785
 30
0.000000
  0
VERTEX
  8
LAYER-1
 10
2.599173
 20
6.741785
 30
0.000000
  0
SEQEND
  8
LAYER-1
  0
POLYLINE
  8
LAYER-1
 66
  1
 70
  1
 62
  0
  0
VERTEX
  8
LAYER-1
 10
1.780729
 20
1.036527
 30
0.000000
  0
VERTEX
  8
LAYER-1
 10
2.232460
 20
1.036527
 30
0.000000
  0
VERTEX
  8
LAYER-1
 10
2.232460
 20
1.027669
 30
0.000000
  0
VERTEX
  8
LAYER-1
 10
1.780729
 20
1.027669
 30
0.000000
  0
SEQEND
  8
LAYER-1
  0
POLYLINE
  8
LAYER-1
 66
  1
 70
  1
 62
  0
  0
VERTEX
  8
LAYER-1
 10
1.781164
 20
1.852829
 30
0.000000
  0
VERTEX
  8
LAYER-1
 10
2.232894
 20
1.852829
 30
0.000000
  0
VERTEX
  8
LAYER-1
 10
2.232894
 20
1.843974
 30
0.000000
  0
VERTEX
  8
LAYER-1
 10
1.781164
 20
1.843974
 30
0.000000
  0
SEQEND
  8
LAYER-1
  0
POLYLINE
  8
LAYER-1
 66
  1
 70
  1
 62
  0
  0
VERTEX
  8
LAYER-1
 10
1.780730
 20
2.669133
 30
0.000000
  0
VERTEX
  8
LAYER-1
 10
2.232460
 20
2.669133
 30
0.000000
  0
VERTEX
  8
LAYER-1
 10
2.232460
 20
2.660275
 30
0.000000
  0
VERTEX
  8
LAYER-1
 10
1.780730
 20
2.660275
 30
0.000000
  0
SEQEND
  8
LAYER-1
  0
POLYLINE
  8
LAYER-1
 66
  1
 70
  1
 62
  0
  0
VERTEX
  8
LAYER-1
 10
1.780295
 20
3.485435
 30
0.000000
  0
VERTEX
  8
LAYER-1
 10
2.232026
 20
3.485435
 30
0.000000
  0
VERTEX
  8
LAYER-1
 10
2.232026
 20
3.476579
 30
0.000000
  0
VERTEX
  8
LAYER-1
 10
1.780295
 20
3.476579
 30
0.000000
  0
SEQEND
  8
LAYER-1
  0
POLYLINE
  8
LAYER-1
 66
  1
 70
  1
 62
  0
  0
VERTEX
  8
LAYER-1
 10
1.780730
 20
4.301739
 30
0.000000
  0
VERTEX
  8
LAYER-1
 10
2.232460
 20
4.301739
 30
0.000000
  0
VERTEX
  8
LAYER-1
 10
2.232460
 20
4.292881
 30
0.000000
  0
VERTEX
  8
LAYER-1
 10
1.780730
 20
4.292881
 30
0.000000
  0
SEQEND
  8
LAYER-1
  0
POLYLINE
  8
LAYER-1
 66
  1
 70
  1
 62
  0
  0
VERTEX
  8
LAYER-1
 10
1.780730
 20
5.118044
 30
0.000000
  0
VERTEX
  8
LAYER-1
 10
2.232460
 20
5.118044
 30
0.000000
  0
VERTEX
  8
LAYER-1
 10
2.232460
 20
5.109187
 30
0.000000
  0
VERTEX
  8
LAYER-1
 10
1.780730
 20
5.109187
 30
0.000000
  0
SEQEND
  8
LAYER-1
  0
POLYLINE
  8
LAYER-1
 66
  1
 70
  1
 62
  0
  0
VERTEX
  8
LAYER-1
 10
1.780296
 20
5.934346
 30
0.000000
  0
VERTEX
  8
LAYER-1
 10
2.232026
 20
5.934346
 30
0.000000
  0
VERTEX
  8
LAYER-1
 10
2.232026
 20
5.925490
 30
0.000000
  0
VERTEX
  8
LAYER-1
 10
1.780296
 20
5.925490
 30
0.000000
  0
SEQEND
  8
LAYER-1
  0
POLYLINE
  8
LAYER-1
 66
  1
 70
  1
 62
  0
  0
VERTEX
  8
LAYER-1
 10
1.781164
 20
6.750642
 30
0.000000
  0
VERTEX
  8
LAYER-1
 10
2.232894
 20
6.750642
 30
0.000000
  0
VERTEX
  8
LAYER-1
 10
2.232894
 20
6.741785
 30
0.000000
  0
VERTEX
  8
LAYER-1
 10
1.781164
 20
6.741785
 30
0.000000
  0
SEQEND
  8
LAYER-1
  0
POLYLINE
  8
LAYER-1
 66
  1
 70
  1
 62
  0
  0
VERTEX
  8
LAYER-1
 10
3.409970
 20
1.034934
 30
0.000000
  0
VERTEX
  8
LAYER-1
 10
3.660135
 20
1.034934
 30
0.000000
  0
VERTEX
  8
LAYER-1
 10
3.660135
 20
1.026076
 30
0.000000
  0
VERTEX
  8
LAYER-1
 10
3.409970
 20
1.026076
 30
0.000000
  0
SEQEND
  8
LAYER-1
  0
POLYLINE
  8
LAYER-1
 66
  1
 70
  1
 62
  0
  0
VERTEX
  8
LAYER-1
 10
3.409970
 20
1.851236
 30
0.000000
  0
VERTEX
  8
LAYER-1
 10
3.660135
 20
1.851236
 30
0.000000
  0
VERTEX
  8
LAYER-1
 10
3.660135
 20
1.842379
 30
0.000000
  0
VERTEX
  8
LAYER-1
 10
3.409970
 20
1.842379
 30
0.000000
  0
SEQEND
  8
LAYER-1
  0
POLYLINE
  8
LAYER-1
 66
  1
 70
  1
 62
  0
  0
VERTEX
  8
LAYER-1
 10
3.409970
 20
2.667540
 30
0.000000
  0
VERTEX
  8
LAYER-1
 10
3.660135
 20
2.667540
 30
0.000000
  0
VERTEX
  8
LAYER-1
 10
3.660135
 20
2.658681
 30
0.000000
  0
VERTEX
  8
LAYER-1
 10
3.409970
 20
2.658681
 30
0.000000
  0
SEQEND
  8
LAYER-1
  0
POLYLINE
  8
LAYER-1
 66
  1
 70
  1
 62
  0
  0
VERTEX
  8
LAYER-1
 10
3.409970
 20
3.483842
 30
0.000000
  0
VERTEX
  8
LAYER-1
 10
3.660135
 20
3.483842
 30
0.000000
  0
VERTEX
  8
LAYER-1
 10
3.660135
 20
3.474985
 30
0.000000
  0
VERTEX
  8
LAYER-1
 10
3.409970
 20
3.474985
 30
0.000000
  0
SEQEND
  8
LAYER-1
  0
POLYLINE
  8
LAYER-1
 66
  1
 70
  1
 62
  0
  0
VERTEX
  8
LAYER-1
 10
3.409970
 20
4.300145
 30
0.000000
  0
VERTEX
  8
LAYER-1
 10
3.660135
 20
4.300145
 30
0.000000
  0
VERTEX
  8
LAYER-1
 10
3.660135
 20
4.291287
 30
0.000000
  0
VERTEX
  8
LAYER-1
 10
3.409970
 20
4.291287
 30
0.000000
  0
SEQEND
  8
LAYER-1
  0
POLYLINE
  8
LAYER-1
 66
  1
 70
  1
 62
  0
  0
VERTEX
  8
LAYER-1
 10
3.409970
 20
5.116450
 30
0.000000
  0
VERTEX
  8
LAYER-1
 10
3.660135
 20
5.116450
 30
0.000000
  0
VERTEX
  8
LAYER-1
 10
3.660135
 20
5.107594
 30
0.000000
  0
VERTEX
  8
LAYER-1
 10
3.409970
 20
5.107594
 30
0.000000
  0
SEQEND
  8
LAYER-1
  0
POLYLINE
  8
LAYER-1
 66
  1
 70
  1
 62
  0
  0
VERTEX
  8
LAYER-1
 10
3.409970
 20
5.932755
 30
0.000000
  0
VERTEX
  8
LAYER-1
 10
3.660135
 20
5.932755
 30
0.000000
  0
VERTEX
  8
LAYER-1
 10
3.660135
 20
5.923897
 30
0.000000
  0
VERTEX
  8
LAYER-1
 10
3.409970
 20
5.923897
 30
0.000000
  0
SEQEND
  8
LAYER-1
  0
POLYLINE
  8
LAYER-1
 66
  1
 70
  1
 62
  0
  0
VERTEX
  8
LAYER-1
 10
3.409970
 20
6.749050
 30
0.000000
  0
VERTEX
  8
LAYER-1
 10
3.660135
 20
6.749050
 30
0.000000
  0
VERTEX
  8
LAYER-1
 10
3.660135
 20
6.740192
 30
0.000000
  0
VERTEX
  8
LAYER-1
 10
3.409970
 20
6.740192
 30
0.000000
  0
SEQEND
  8
LAYER-1
  0
POLYLINE
  8
LAYER-1
 66
  1
 70
  0
 62
  0
 10
3.620107
 20
7.415645
 30
0.000000
  0
VERTEX
  8
LAYER-1
 10
3.620107
 20
7.415645
 30
0.000000
  0
VERTEX
  8
LAYER-1
 10
3.620107
 20
7.143897
 30
0.000000
  0
SEQEND
  8
LAYER-1
  0
POLYLINE
  8
LAYER-1
 66
  1
 70
  0
 62
  0
 10
3.620118
 20
0.616987
 30
0.000000
  0
VERTEX
  8
LAYER-1
 10
3.620118
 20
0.616987
 30
0.000000
  0
VERTEX
  8
LAYER-1
 10
3.620118
 20
0.345286
 30
0.000000
  0
SEQEND
  8
LAYER-1
  0
POLYLINE
  8
LAYER-1
 66
  1
 70
  0
 62
  0
 10
2.621908
 20
7.143429
 30
0.000000
  0
VERTEX
  8
LAYER-1
 10
2.621908
 20
7.143429
 30
0.000000
  0
VERTEX
  8
LAYER-1
 10
2.632144
 20
7.136835
 30
0.000000
  0
VERTEX
  8
LAYER-1
 10
2.646829
 20
7.139409
 30
0.000000
  0
VERTEX
  8
LAYER-1
 10
2.655128
 20
7.143990
 30
0.000000
  0
SEQEND
  8
LAYER-1
  0
POLYLINE
  8
LAYER-1
 66
  1
 70
  0
 62
  0
 10
2.621909
 20
7.143429
 30
0.000000
  0
VERTEX
  8
LAYER-1
 10
2.621909
 20
7.143429
 30
0.000000
  0
VERTEX
  8
LAYER-1
 10
2.655128
 20
7.143990
 30
0.000000
  0
SEQEND
  8
LAYER-1
  0
POLYLINE
  8
LAYER-1
 66
  1
 70
  0
 62
  0
 10
2.582796
 20
7.143990
 30
0.000000
  0
VERTEX
  8
LAYER-1
 10
2.582796
 20
7.143990
 30
0.000000
  0
VERTEX
  8
LAYER-1
 10
2.595967
 20
7.136944
 30
0.000000
  0
VERTEX
  8
LAYER-1
 10
2.613047
 20
7.141274
 30
0.000000
  0
VERTEX
  8
LAYER-1
 10
2.619700
 20
7.143990
 30
0.000000
  0
SEQEND
  8
LAYER-1
  0
POLYLINE
  8
LAYER-1
 66
  1
 70
  0
 62
  0
 10
2.582796
 20
7.143990
 30
0.000000
  0
VERTEX
  8
LAYER-1
 10
2.582796
 20
7.143990
 30
0.000000
  0
VERTEX
  8
LAYER-1
 10
2.619699
 20
7.143990
 30
0.000000
  0
SEQEND
  8
LAYER-1
  0
POLYLINE
  8
LAYER-1
 66
  1
 70
  0
 62
  0
 10
2.583967
 20
7.415648
 30
0.000000
  0
VERTEX
  8
LAYER-1
 10
2.583967
 20
7.415648
 30
0.000000
  0
VERTEX
  8
LAYER-1
 10
2.583967
 20
7.144016
 30
0.000000
  0
SEQEND
  8
LAYER-1
  0
POLYLINE
  8
LAYER-1
 66
  1
 70
  0
 62
  0
 10
2.656301
 20
7.144019
 30
0.000000
  0
VERTEX
  8
LAYER-1
 10
2.656301
 20
7.144019
 30
0.000000
  0
VERTEX
  8
LAYER-1
 10
2.656301
 20
7.415648
 30
0.000000
  0
SEQEND
  8
LAYER-1
  0
POLYLINE
  8
LAYER-1
 66
  1
 70
  0
 62
  0
 10
2.620871
 20
7.415648
 30
0.000000
  0
VERTEX
  8
LAYER-1
 10
2.620871
 20
7.415648
 30
0.000000
  0
VERTEX
  8
LAYER-1
 10
2.620871
 20
7.144018
 30
0.000000
  0
SEQEND
  8
LAYER-1
  0
POLYLINE
  8
LAYER-1
 66
  1
 70
  0
 62
  0
 10
2.655997
 20
7.415507
 30
0.000000
  0
VERTEX
  8
LAYER-1
 10
2.655997
 20
7.415507
 30
0.000000
  0
VERTEX
  8
LAYER-1
 10
2.642119
 20
7.426444
 30
0.000000
  0
VERTEX
  8
LAYER-1
 10
2.627356
 20
7.424366
 30
0.000000
  0
VERTEX
  8
LAYER-1
 10
2.622777
 20
7.416066
 30
0.000000
  0
SEQEND
  8
LAYER-1
  0
POLYLINE
  8
LAYER-1
 66
  1
 70
  0
 62
  0
 10
2.622777
 20
7.416066
 30
0.000000
  0
VERTEX
  8
LAYER-1
 10
2.622777
 20
7.416066
 30
0.000000
  0
VERTEX
  8
LAYER-1
 10
2.655996
 20
7.415507
 30
0.000000
  0
SEQEND
  8
LAYER-1
  0
POLYLINE
  8
LAYER-1
 66
  1
 70
  0
 62
  0
 10
2.620568
 20
7.415507
 30
0.000000
  0
VERTEX
  8
LAYER-1
 10
2.620568
 20
7.415507
 30
0.000000
  0
VERTEX
  8
LAYER-1
 10
2.603460
 20
7.426490
 30
0.000000
  0
VERTEX
  8
LAYER-1
 10
2.586380
 20
7.422158
 30
0.000000
  0
VERTEX
  8
LAYER-1
 10
2.583664
 20
7.415505
 30
0.000000
  0
SEQEND
  8
LAYER-1
  0
POLYLINE
  8
LAYER-1
 66
  1
 70
  0
 62
  0
 10
2.583665
 20
7.415505
 30
0.000000
  0
VERTEX
  8
LAYER-1
 10
2.583665
 20
7.415505
 30
0.000000
  0
VERTEX
  8
LAYER-1
 10
2.620568
 20
7.415507
 30
0.000000
  0
SEQEND
  8
LAYER-1
  0
POLYLINE
  8
LAYER-1
 66
  1
 70
  0
 62
  0
 10
1.801908
 20
7.143429
 30
0.000000
  0
VERTEX
  8
LAYER-1
 10
1.801908
 20
7.143429
 30
0.000000
  0
VERTEX
  8
LAYER-1
 10
1.812144
 20
7.136835
 30
0.000000
  0
VERTEX
  8
LAYER-1
 10
1.826829
 20
7.139409
 30
0.000000
  0
VERTEX
  8
LAYER-1
 10
1.835128
 20
7.143990
 30
0.000000
  0
SEQEND
  8
LAYER-1
  0
POLYLINE
  8
LAYER-1
 66
  1
 70
  0
 62
  0
 10
1.801909
 20
7.143429
 30
0.000000
  0
VERTEX
  8
LAYER-1
 10
1.801909
 20
7.143429
 30
0.000000
  0
VERTEX
  8
LAYER-1
 10
1.835128
 20
7.143990
 30
0.000000
  0
SEQEND
  8
LAYER-1
  0
POLYLINE
  8
LAYER-1
 66
  1
 70
  0
 62
  0
 10
1.762796
 20
7.143990
 30
0.000000
  0
VERTEX
  8
LAYER-1
 10
1.762796
 20
7.143990
 30
0.000000
  0
VERTEX
  8
LAYER-1
 10
1.775967
 20
7.136944
 30
0.000000
  0
VERTEX
  8
LAYER-1
 10
1.793047
 20
7.141274
 30
0.000000
  0
VERTEX
  8
LAYER-1
 10
1.799700
 20
7.143990
 30
0.000000
  0
SEQEND
  8
LAYER-1
  0
POLYLINE
  8
LAYER-1
 66
  1
 70
  0
 62
  0
 10
1.762796
 20
7.143990
 30
0.000000
  0
VERTEX
  8
LAYER-1
 10
1.762796
 20
7.143990
 30
0.000000
  0
VERTEX
  8
LAYER-1
 10
1.799699
 20
7.143990
 30
0.000000
  0
SEQEND
  8
LAYER-1
  0
POLYLINE
  8
LAYER-1
 66
  1
 70
  0
 62
  0
 10
1.763967
 20
7.415648
 30
0.000000
  0
VERTEX
  8
LAYER-1
 10
1.763967
 20
7.415648
 30
0.000000
  0
VERTEX
  8
LAYER-1
 10
1.763967
 20
7.144016
 30
0.000000
  0
SEQEND
  8
LAYER-1
  0
POLYLINE
  8
LAYER-1
 66
  1
 70
  0
 62
  0
 10
1.836301
 20
7.144019
 30
0.000000
  0
VERTEX
  8
LAYER-1
 10
1.836301
 20
7.144019
 30
0.000000
  0
VERTEX
  8
LAYER-1
 10
1.836301
 20
7.415648
 30
0.000000
  0
SEQEND
  8
LAYER-1
  0
POLYLINE
  8
LAYER-1
 66
  1
 70
  0
 62
  0
 10
1.800871
 20
7.415648
 30
0.000000
  0
VERTEX
  8
LAYER-1
 10
1.800871
 20
7.415648
 30
0.000000
  0
VERTEX
  8
LAYER-1
 10
1.800871
 20
7.144018
 30
0.000000
  0
SEQEND
  8
LAYER-1
  0
POLYLINE
  8
LAYER-1
 66
  1
 70
  0
 62
  0
 10
1.835997
 20
7.415507
 30
0.000000
  0
VERTEX
  8
LAYER-1
 10
1.835997
 20
7.415507
 30
0.000000
  0
VERTEX
  8
LAYER-1
 10
1.822119
 20
7.426444
 30
0.000000
  0
VERTEX
  8
LAYER-1
 10
1.807357
 20
7.424366
 30
0.000000
  0
VERTEX
  8
LAYER-1
 10
1.802777
 20
7.416066
 30
0.000000
  0
SEQEND
  8
LAYER-1
  0
POLYLINE
  8
LAYER-1
 66
  1
 70
  0
 62
  0
 10
1.802777
 20
7.416066
 30
0.000000
  0
VERTEX
  8
LAYER-1
 10
1.802777
 20
7.416066
 30
0.000000
  0
VERTEX
  8
LAYER-1
 10
1.835996
 20
7.415507
 30
0.000000
  0
SEQEND
  8
LAYER-1
  0
POLYLINE
  8
LAYER-1
 66
  1
 70
  0
 62
  0
 10
1.800568
 20
7.415507
 30
0.000000
  0
VERTEX
  8
LAYER-1
 10
1.800568
 20
7.415507
 30
0.000000
  0
VERTEX
  8
LAYER-1
 10
1.783460
 20
7.426490
 30
0.000000
  0
VERTEX
  8
LAYER-1
 10
1.766380
 20
7.422158
 30
0.000000
  0
VERTEX
  8
LAYER-1
 10
1.763664
 20
7.415505
 30
0.000000
  0
SEQEND
  8
LAYER-1
  0
POLYLINE
  8
LAYER-1
 66
  1
 70
  0
 62
  0
 10
1.763665
 20
7.415505
 30
0.000000
  0
VERTEX
  8
LAYER-1
 10
1.763665
 20
7.415505
 30
0.000000
  0
VERTEX
  8
LAYER-1
 10
1.800567
 20
7.415507
 30
0.000000
  0
SEQEND
  8
LAYER-1
  0
POLYLINE
  8
LAYER-1
 66
  1
 70
  0
 62
  0
 10
3.399199
 20
0.344848
 30
0.000000
  0
VERTEX
  8
LAYER-1
 10
3.399199
 20
0.344848
 30
0.000000
  0
VERTEX
  8
LAYER-1
 10
3.399199
 20
0.616480
 30
0.000000
  0
SEQEND
  8
LAYER-1
  0
POLYLINE
  8
LAYER-1
 66
  1
 70
  0
 62
  0
 10
3.068701
 20
0.616480
 30
0.000000
  0
VERTEX
  8
LAYER-1
 10
3.068701
 20
0.616480
 30
0.000000
  0
VERTEX
  8
LAYER-1
 10
3.068701
 20
0.344848
 30
0.000000
  0
SEQEND
  8
LAYER-1
  0
POLYLINE
  8
LAYER-1
 66
  1
 70
  0
 62
  0
 10
2.255870
 20
0.616480
 30
0.000000
  0
VERTEX
  8
LAYER-1
 10
2.255870
 20
0.616480
 30
0.000000
  0
VERTEX
  8
LAYER-1
 10
2.255870
 20
0.344848
 30
0.000000
  0
SEQEND
  8
LAYER-1
  0
POLYLINE
  8
LAYER-1
 66
  1
 70
  0
 62
  0
 10
2.437037
 20
0.344809
 30
0.000000
  0
VERTEX
  8
LAYER-1
 10
2.437037
 20
0.344809
 30
0.000000
  0
VERTEX
  8
LAYER-1
 10
2.437037
 20
0.616437
 30
0.000000
  0
SEQEND
  8
LAYER-1
  0
POLYLINE
  8
LAYER-1
 66
  1
 70
  0
 62
  0
 10
2.397178
 20
0.344809
 30
0.000000
  0
VERTEX
  8
LAYER-1
 10
2.397178
 20
0.344809
 30
0.000000
  0
VERTEX
  8
LAYER-1
 10
2.397178
 20
0.616437
 30
0.000000
  0
SEQEND
  8
LAYER-1
  0
POLYLINE
  8
LAYER-1
 66
  1
 70
  0
 62
  0
 10
3.251054
 20
0.344809
 30
0.000000
  0
VERTEX
  8
LAYER-1
 10
3.251054
 20
0.344809
 30
0.000000
  0
VERTEX
  8
LAYER-1
 10
3.251054
 20
0.616437
 30
0.000000
  0
SEQEND
  8
LAYER-1
  0
POLYLINE
  8
LAYER-1
 66
  1
 70
  0
 62
  0
 10
3.212238
 20
0.344809
 30
0.000000
  0
VERTEX
  8
LAYER-1
 10
3.212238
 20
0.344809
 30
0.000000
  0
VERTEX
  8
LAYER-1
 10
3.212238
 20
0.616437
 30
0.000000
  0
SEQEND
  8
LAYER-1
  0
POLYLINE
  8
LAYER-1
 66
  1
 70
  0
 62
  0
 10
2.984378
 20
0.344848
 30
0.000000
  0
VERTEX
  8
LAYER-1
 10
2.984378
 20
0.344848
 30
0.000000
  0
VERTEX
  8
LAYER-1
 10
2.984378
 20
0.616480
 30
0.000000
  0
SEQEND
  8
LAYER-1
  0
POLYLINE
  8
LAYER-1
 66
  1
 70
  0
 62
  0
 10
2.171548
 20
0.344848
 30
0.000000
  0
VERTEX
  8
LAYER-1
 10
2.171548
 20
0.344848
 30
0.000000
  0
VERTEX
  8
LAYER-1
 10
2.171548
 20
0.616480
 30
0.000000
  0
SEQEND
  8
LAYER-1
  0
POLYLINE
  8
LAYER-1
 66
  1
 70
  0
 62
  0
 10
2.026643
 20
0.345242
 30
0.000000
  0
VERTEX
  8
LAYER-1
 10
2.026643
 20
0.345242
 30
0.000000
  0
VERTEX
  8
LAYER-1
 10
2.026643
 20
0.616870
 30
0.000000
  0
SEQEND
  8
LAYER-1
  0
POLYLINE
  8
LAYER-1
 66
  1
 70
  0
 62
  0
 10
1.988260
 20
0.345242
 30
0.000000
  0
VERTEX
  8
LAYER-1
 10
1.988260
 20
0.345242
 30
0.000000
  0
VERTEX
  8
LAYER-1
 10
1.988260
 20
0.616870
 30
0.000000
  0
SEQEND
  8
LAYER-1
  0
POLYLINE
  8
LAYER-1
 66
  1
 70
  0
 62
  0
 10
2.844481
 20
0.344773
 30
0.000000
  0
VERTEX
  8
LAYER-1
 10
2.844481
 20
0.344773
 30
0.000000
  0
VERTEX
  8
LAYER-1
 10
2.844481
 20
0.616401
 30
0.000000
  0
SEQEND
  8
LAYER-1
  0
POLYLINE
  8
LAYER-1
 66
  1
 70
  0
 62
  0
 10
2.806098
 20
0.344773
 30
0.000000
  0
VERTEX
  8
LAYER-1
 10
2.806098
 20
0.344773
 30
0.000000
  0
VERTEX
  8
LAYER-1
 10
2.806098
 20
0.616401
 30
0.000000
  0
SEQEND
  8
LAYER-1
  0
POLYLINE
  8
LAYER-1
 66
  1
 70
  0
 62
  0
 10
3.471532
 20
0.616475
 30
0.000000
  0
VERTEX
  8
LAYER-1
 10
3.471532
 20
0.616475
 30
0.000000
  0
VERTEX
  8
LAYER-1
 10
3.471532
 20
0.344847
 30
0.000000
  0
SEQEND
  8
LAYER-1
  0
POLYLINE
  8
LAYER-1
 66
  1
 70
  0
 62
  0
 10
3.436102
 20
0.344847
 30
0.000000
  0
VERTEX
  8
LAYER-1
 10
3.436102
 20
0.344847
 30
0.000000
  0
VERTEX
  8
LAYER-1
 10
3.436102
 20
0.616478
 30
0.000000
  0
SEQEND
  8
LAYER-1
  0
POLYLINE
  8
LAYER-1
 66
  1
 70
  0
 62
  0
 10
3.437073
 20
0.344836
 30
0.000000
  0
VERTEX
  8
LAYER-1
 10
3.437073
 20
0.344836
 30
0.000000
  0
VERTEX
  8
LAYER-1
 10
3.447019
 20
0.337843
 30
0.000000
  0
VERTEX
  8
LAYER-1
 10
3.461781
 20
0.339932
 30
0.000000
  0
VERTEX
  8
LAYER-1
 10
3.470628
 20
0.344847
 30
0.000000
  0
SEQEND
  8
LAYER-1
  0
POLYLINE
  8
LAYER-1
 66
  1
 70
  0
 62
  0
 10
3.399199
 20
0.344848
 30
0.000000
  0
VERTEX
  8
LAYER-1
 10
3.399199
 20
0.344848
 30
0.000000
  0
VERTEX
  8
LAYER-1
 10
3.412370
 20
0.337801
 30
0.000000
  0
VERTEX
  8
LAYER-1
 10
3.429450
 20
0.342132
 30
0.000000
  0
VERTEX
  8
LAYER-1
 10
3.436102
 20
0.344847
 30
0.000000
  0
SEQEND
  8
LAYER-1
  0
POLYLINE
  8
LAYER-1
 66
  1
 70
  0
 62
  0
 10
2.983639
 20
0.345341
 30
0.000000
  0
VERTEX
  8
LAYER-1
 10
2.983639
 20
0.345341
 30
0.000000
  0
VERTEX
  8
LAYER-1
 10
2.999206
 20
0.339286
 30
0.000000
  0
VERTEX
  8
LAYER-1
 10
3.017280
 20
0.346011
 30
0.000000
  0
VERTEX
  8
LAYER-1
 10
3.020547
 20
0.345341
 30
0.000000
  0
SEQEND
  8
LAYER-1
  0
POLYLINE
  8
LAYER-1
 66
  1
 70
  0
 62
  0
 10
2.170681
 20
0.344872
 30
0.000000
  0
VERTEX
  8
LAYER-1
 10
2.170681
 20
0.344872
 30
0.000000
  0
VERTEX
  8
LAYER-1
 10
2.186248
 20
0.338815
 30
0.000000
  0
VERTEX
  8
LAYER-1
 10
2.204322
 20
0.345541
 30
0.000000
  0
VERTEX
  8
LAYER-1
 10
2.207588
 20
0.344872
 30
0.000000
  0
SEQEND
  8
LAYER-1
  0
POLYLINE
  8
LAYER-1
 66
  1
 70
  0
 62
  0
 10
3.031349
 20
0.345341
 30
0.000000
  0
VERTEX
  8
LAYER-1
 10
3.031349
 20
0.345341
 30
0.000000
  0
VERTEX
  8
LAYER-1
 10
3.046915
 20
0.339286
 30
0.000000
  0
VERTEX
  8
LAYER-1
 10
3.064989
 20
0.346011
 30
0.000000
  0
VERTEX
  8
LAYER-1
 10
3.068256
 20
0.345340
 30
0.000000
  0
SEQEND
  8
LAYER-1
  0
POLYLINE
  8
LAYER-1
 66
  1
 70
  0
 62
  0
 10
3.010885
 20
0.344782
 30
0.000000
  0
VERTEX
  8
LAYER-1
 10
3.010885
 20
0.344782
 30
0.000000
  0
VERTEX
  8
LAYER-1
 10
3.017700
 20
0.335713
 30
0.000000
  0
VERTEX
  8
LAYER-1
 10
3.031715
 20
0.334119
 30
0.000000
  0
VERTEX
  8
LAYER-1
 10
3.042752
 20
0.342902
 30
0.000000
  0
VERTEX
  8
LAYER-1
 10
3.046314
 20
0.344782
 30
0.000000
  0
SEQEND
  8
LAYER-1
  0
POLYLINE
  8
LAYER-1
 66
  1
 70
  0
 62
  0
 10
3.046313
 20
0.344782
 30
0.000000
  0
VERTEX
  8
LAYER-1
 10
3.046313
 20
0.344782
 30
0.000000
  0
VERTEX
  8
LAYER-1
 10
3.010885
 20
0.344782
 30
0.000000
  0
SEQEND
  8
LAYER-1
  0
POLYLINE
  8
LAYER-1
 66
  1
 70
  0
 62
  0
 10
2.219331
 20
0.344872
 30
0.000000
  0
VERTEX
  8
LAYER-1
 10
2.219331
 20
0.344872
 30
0.000000
  0
VERTEX
  8
LAYER-1
 10
2.234898
 20
0.338815
 30
0.000000
  0
VERTEX
  8
LAYER-1
 10
2.252972
 20
0.345541
 30
0.000000
  0
VERTEX
  8
LAYER-1
 10
2.256239
 20
0.344870
 30
0.000000
  0
SEQEND
  8
LAYER-1
  0
POLYLINE
  8
LAYER-1
 66
  1
 70
  0
 62
  0
 10
2.194638
 20
0.344782
 30
0.000000
  0
VERTEX
  8
LAYER-1
 10
2.194638
 20
0.344782
 30
0.000000
  0
VERTEX
  8
LAYER-1
 10
2.201452
 20
0.335713
 30
0.000000
  0
VERTEX
  8
LAYER-1
 10
2.215468
 20
0.334119
 30
0.000000
  0
VERTEX
  8
LAYER-1
 10
2.226504
 20
0.342902
 30
0.000000
  0
VERTEX
  8
LAYER-1
 10
2.230066
 20
0.344782
 30
0.000000
  0
SEQEND
  8
LAYER-1
  0
POLYLINE
  8
LAYER-1
 66
  1
 70
  0
 62
  0
 10
2.230066
 20
0.344782
 30
0.000000
  0
VERTEX
  8
LAYER-1
 10
2.230066
 20
0.344782
 30
0.000000
  0
VERTEX
  8
LAYER-1
 10
2.194638
 20
0.344782
 30
0.000000
  0
SEQEND
  8
LAYER-1
  0
POLYLINE
  8
LAYER-1
 66
  1
 70
  0
 62
  0
 10
3.470599
 20
0.616503
 30
0.000000
  0
VERTEX
  8
LAYER-1
 10
3.470599
 20
0.616503
 30
0.000000
  0
VERTEX
  8
LAYER-1
 10
3.456721
 20
0.627441
 30
0.000000
  0
VERTEX
  8
LAYER-1
 10
3.441958
 20
0.625363
 30
0.000000
  0
VERTEX
  8
LAYER-1
 10
3.437379
 20
0.617063
 30
0.000000
  0
SEQEND
  8
LAYER-1
  0
POLYLINE
  8
LAYER-1
 66
  1
 70
  0
 62
  0
 10
3.437379
 20
0.617064
 30
0.000000
  0
VERTEX
  8
LAYER-1
 10
3.437379
 20
0.617064
 30
0.000000
  0
VERTEX
  8
LAYER-1
 10
3.470598
 20
0.616503
 30
0.000000
  0
SEQEND
  8
LAYER-1
  0
POLYLINE
  8
LAYER-1
 66
  1
 70
  0
 62
  0
 10
3.435170
 20
0.616503
 30
0.000000
  0
VERTEX
  8
LAYER-1
 10
3.435170
 20
0.616503
 30
0.000000
  0
VERTEX
  8
LAYER-1
 10
3.418061
 20
0.627486
 30
0.000000
  0
VERTEX
  8
LAYER-1
 10
3.400981
 20
0.623155
 30
0.000000
  0
VERTEX
  8
LAYER-1
 10
3.398266
 20
0.616502
 30
0.000000
  0
SEQEND
  8
LAYER-1
  0
POLYLINE
  8
LAYER-1
 66
  1
 70
  0
 62
  0
 10
3.398266
 20
0.616503
 30
0.000000
  0
VERTEX
  8
LAYER-1
 10
3.398266
 20
0.616503
 30
0.000000
  0
VERTEX
  8
LAYER-1
 10
3.435169
 20
0.616503
 30
0.000000
  0
SEQEND
  8
LAYER-1
  0
POLYLINE
  8
LAYER-1
 66
  1
 70
  0
 62
  0
 10
3.068330
 20
0.616949
 30
0.000000
  0
VERTEX
  8
LAYER-1
 10
3.068330
 20
0.616949
 30
0.000000
  0
VERTEX
  8
LAYER-1
 10
3.048826
 20
0.626941
 30
0.000000
  0
VERTEX
  8
LAYER-1
 10
3.030752
 20
0.620216
 30
0.000000
  0
VERTEX
  8
LAYER-1
 10
3.031423
 20
0.616948
 30
0.000000
  0
SEQEND
  8
LAYER-1
  0
POLYLINE
  8
LAYER-1
 66
  1
 70
  0
 62
  0
 10
3.021089
 20
0.616949
 30
0.000000
  0
VERTEX
  8
LAYER-1
 10
3.021089
 20
0.616949
 30
0.000000
  0
VERTEX
  8
LAYER-1
 10
3.001585
 20
0.626941
 30
0.000000
  0
VERTEX
  8
LAYER-1
 10
2.983511
 20
0.620216
 30
0.000000
  0
VERTEX
  8
LAYER-1
 10
2.984182
 20
0.616948
 30
0.000000
  0
SEQEND
  8
LAYER-1
  0
POLYLINE
  8
LAYER-1
 66
  1
 70
  0
 62
  0
 10
3.046856
 20
0.617038
 30
0.000000
  0
VERTEX
  8
LAYER-1
 10
3.046856
 20
0.617038
 30
0.000000
  0
VERTEX
  8
LAYER-1
 10
3.036104
 20
0.630044
 30
0.000000
  0
VERTEX
  8
LAYER-1
 10
3.022089
 20
0.631638
 30
0.000000
  0
VERTEX
  8
LAYER-1
 10
3.011052
 20
0.622854
 30
0.000000
  0
VERTEX
  8
LAYER-1
 10
3.011427
 20
0.617038
 30
0.000000
  0
SEQEND
  8
LAYER-1
  0
POLYLINE
  8
LAYER-1
 66
  1
 70
  0
 62
  0
 10
3.046856
 20
0.617039
 30
0.000000
  0
VERTEX
  8
LAYER-1
 10
3.046856
 20
0.617039
 30
0.000000
  0
VERTEX
  8
LAYER-1
 10
3.011427
 20
0.617039
 30
0.000000
  0
SEQEND
  8
LAYER-1
  0
POLYLINE
  8
LAYER-1
 66
  1
 70
  0
 62
  0
 10
2.255775
 20
0.616949
 30
0.000000
  0
VERTEX
  8
LAYER-1
 10
2.255775
 20
0.616949
 30
0.000000
  0
VERTEX
  8
LAYER-1
 10
2.236271
 20
0.626941
 30
0.000000
  0
VERTEX
  8
LAYER-1
 10
2.218197
 20
0.620216
 30
0.000000
  0
VERTEX
  8
LAYER-1
 10
2.218868
 20
0.616948
 30
0.000000
  0
SEQEND
  8
LAYER-1
  0
POLYLINE
  8
LAYER-1
 66
  1
 70
  0
 62
  0
 10
2.207596
 20
0.616949
 30
0.000000
  0
VERTEX
  8
LAYER-1
 10
2.207596
 20
0.616949
 30
0.000000
  0
VERTEX
  8
LAYER-1
 10
2.188091
 20
0.626941
 30
0.000000
  0
VERTEX
  8
LAYER-1
 10
2.170018
 20
0.620216
 30
0.000000
  0
VERTEX
  8
LAYER-1
 10
2.170688
 20
0.616948
 30
0.000000
  0
SEQEND
  8
LAYER-1
  0
POLYLINE
  8
LAYER-1
 66
  1
 70
  0
 62
  0
 10
2.230073
 20
0.617038
 30
0.000000
  0
VERTEX
  8
LAYER-1
 10
2.230073
 20
0.617038
 30
0.000000
  0
VERTEX
  8
LAYER-1
 10
2.219321
 20
0.630044
 30
0.000000
  0
VERTEX
  8
LAYER-1
 10
2.205306
 20
0.631638
 30
0.000000
  0
VERTEX
  8
LAYER-1
 10
2.194269
 20
0.622854
 30
0.000000
  0
VERTEX
  8
LAYER-1
 10
2.194644
 20
0.617038
 30
0.000000
  0
SEQEND
  8
LAYER-1
  0
POLYLINE
  8
LAYER-1
 66
  1
 70
  0
 62
  0
 10
2.230072
 20
0.617039
 30
0.000000
  0
VERTEX
  8
LAYER-1
 10
2.230072
 20
0.617039
 30
0.000000
  0
VERTEX
  8
LAYER-1
 10
2.194644
 20
0.617039
 30
0.000000
  0
SEQEND
  8
LAYER-1
  0
POLYLINE
  8
LAYER-1
 66
  1
 70
  1
 62
  0
  0
VERTEX
  8
LAYER-1
 10
3.046313
 20
0.344848
 30
0.000000
  0
VERTEX
  8
LAYER-1
 10
3.010883
 20
0.344848
 30
0.000000
  0
VERTEX
  8
LAYER-1
 10
3.010883
 20
0.616476
 30
0.000000
  0
VERTEX
  8
LAYER-1
 10
3.046313
 20
0.616476
 30
0.000000
  0
SEQEND
  8
LAYER-1
  0
POLYLINE
  8
LAYER-1
 66
  1
 70
  1
 62
  0
  0
VERTEX
  8
LAYER-1
 10
2.230000
 20
0.344848
 30
0.000000
  0
VERTEX
  8
LAYER-1
 10
2.194569
 20
0.344848
 30
0.000000
  0
VERTEX
  8
LAYER-1
 10
2.194569
 20
0.616476
 30
0.000000
  0
VERTEX
  8
LAYER-1
 10
2.230000
 20
0.616476
 30
0.000000
  0
SEQEND
  8
LAYER-1
  0
POLYLINE
  8
LAYER-1
 66
  1
 70
  0
 62
  0
 10
3.046313
 20
0.412754
 30
0.000000
  0
VERTEX
  8
LAYER-1
 10
3.046313
 20
0.412754
 30
0.000000
  0
VERTEX
  8
LAYER-1
 10
3.010883
 20
0.412754
 30
0.000000
  0
SEQEND
  8
LAYER-1
  0
POLYLINE
  8
LAYER-1
 66
  1
 70
  0
 62
  0
 10
3.046313
 20
0.542664
 30
0.000000
  0
VERTEX
  8
LAYER-1
 10
3.046313
 20
0.542664
 30
0.000000
  0
VERTEX
  8
LAYER-1
 10
3.010883
 20
0.542664
 30
0.000000
  0
SEQEND
  8
LAYER-1
  0
POLYLINE
  8
LAYER-1
 66
  1
 70
  0
 62
  0
 10
2.230000
 20
0.412754
 30
0.000000
  0
VERTEX
  8
LAYER-1
 10
2.230000
 20
0.412754
 30
0.000000
  0
VERTEX
  8
LAYER-1
 10
2.194571
 20
0.412754
 30
0.000000
  0
SEQEND
  8
LAYER-1
  0
POLYLINE
  8
LAYER-1
 66
  1
 70
  0
 62
  0
 10
2.230000
 20
0.542664
 30
0.000000
  0
VERTEX
  8
LAYER-1
 10
2.230000
 20
0.542664
 30
0.000000
  0
VERTEX
  8
LAYER-1
 10
2.194571
 20
0.542664
 30
0.000000
  0
SEQEND
  8
LAYER-1
  0
POLYLINE
  8
LAYER-1
 66
  1
 70
  0
 62
  0
 10
3.215426
 20
0.344731
 30
0.000000
  0
VERTEX
  8
LAYER-1
 10
3.215426
 20
0.344731
 30
0.000000
  0
VERTEX
  8
LAYER-1
 10
3.225662
 20
0.338137
 30
0.000000
  0
VERTEX
  8
LAYER-1
 10
3.240346
 20
0.340712
 30
0.000000
  0
VERTEX
  8
LAYER-1
 10
3.248645
 20
0.345291
 30
0.000000
  0
SEQEND
  8
LAYER-1
  0
POLYLINE
  8
LAYER-1
 66
  1
 70
  0
 62
  0
 10
2.398247
 20
0.344910
 30
0.000000
  0
VERTEX
  8
LAYER-1
 10
2.398247
 20
0.344910
 30
0.000000
  0
VERTEX
  8
LAYER-1
 10
2.411418
 20
0.337863
 30
0.000000
  0
VERTEX
  8
LAYER-1
 10
2.428499
 20
0.342194
 30
0.000000
  0
VERTEX
  8
LAYER-1
 10
2.435151
 20
0.344909
 30
0.000000
  0
SEQEND
  8
LAYER-1
  0
POLYLINE
  8
LAYER-1
 66
  1
 70
  0
 62
  0
 10
2.655567
 20
0.616507
 30
0.000000
  0
VERTEX
  8
LAYER-1
 10
2.655567
 20
0.616507
 30
0.000000
  0
VERTEX
  8
LAYER-1
 10
2.641689
 20
0.627444
 30
0.000000
  0
VERTEX
  8
LAYER-1
 10
2.626927
 20
0.625365
 30
0.000000
  0
VERTEX
  8
LAYER-1
 10
2.622347
 20
0.617066
 30
0.000000
  0
SEQEND
  8
LAYER-1
  0
POLYLINE
  8
LAYER-1
 66
  1
 70
  0
 62
  0
 10
2.622348
 20
0.617066
 30
0.000000
  0
VERTEX
  8
LAYER-1
 10
2.622348
 20
0.617066
 30
0.000000
  0
VERTEX
  8
LAYER-1
 10
2.655567
 20
0.616505
 30
0.000000
  0
SEQEND
  8
LAYER-1
  0
POLYLINE
  8
LAYER-1
 66
  1
 70
  0
 62
  0
 10
2.620139
 20
0.616505
 30
0.000000
  0
VERTEX
  8
LAYER-1
 10
2.620139
 20
0.616505
 30
0.000000
  0
VERTEX
  8
LAYER-1
 10
2.603030
 20
0.627489
 30
0.000000
  0
VERTEX
  8
LAYER-1
 10
2.585950
 20
0.623158
 30
0.000000
  0
VERTEX
  8
LAYER-1
 10
2.583235
 20
0.616504
 30
0.000000
  0
SEQEND
  8
LAYER-1
  0
POLYLINE
  8
LAYER-1
 66
  1
 70
  0
 62
  0
 10
2.583235
 20
0.616504
 30
0.000000
  0
VERTEX
  8
LAYER-1
 10
2.583235
 20
0.616504
 30
0.000000
  0
VERTEX
  8
LAYER-1
 10
2.620138
 20
0.616505
 30
0.000000
  0
SEQEND
  8
LAYER-1
  0
POLYLINE
  8
LAYER-1
 66
  1
 70
  0
 62
  0
 10
2.584406
 20
0.344848
 30
0.000000
  0
VERTEX
  8
LAYER-1
 10
2.584406
 20
0.344848
 30
0.000000
  0
VERTEX
  8
LAYER-1
 10
2.584406
 20
0.616480
 30
0.000000
  0
SEQEND
  8
LAYER-1
  0
POLYLINE
  8
LAYER-1
 66
  1
 70
  0
 62
  0
 10
2.656740
 20
0.616475
 30
0.000000
  0
VERTEX
  8
LAYER-1
 10
2.656740
 20
0.616475
 30
0.000000
  0
VERTEX
  8
LAYER-1
 10
2.656740
 20
0.344847
 30
0.000000
  0
SEQEND
  8
LAYER-1
  0
POLYLINE
  8
LAYER-1
 66
  1
 70
  0
 62
  0
 10
2.621310
 20
0.344847
 30
0.000000
  0
VERTEX
  8
LAYER-1
 10
2.621310
 20
0.344847
 30
0.000000
  0
VERTEX
  8
LAYER-1
 10
2.621310
 20
0.616478
 30
0.000000
  0
SEQEND
  8
LAYER-1
  0
POLYLINE
  8
LAYER-1
 66
  1
 70
  0
 62
  0
 10
2.623215
 20
0.344429
 30
0.000000
  0
VERTEX
  8
LAYER-1
 10
2.623215
 20
0.344429
 30
0.000000
  0
VERTEX
  8
LAYER-1
 10
2.633451
 20
0.337835
 30
0.000000
  0
VERTEX
  8
LAYER-1
 10
2.648136
 20
0.340409
 30
0.000000
  0
VERTEX
  8
LAYER-1
 10
2.656435
 20
0.344989
 30
0.000000
  0
SEQEND
  8
LAYER-1
  0
POLYLINE
  8
LAYER-1
 66
  1
 70
  0
 62
  0
 10
2.623216
 20
0.344428
 30
0.000000
  0
VERTEX
  8
LAYER-1
 10
2.623216
 20
0.344428
 30
0.000000
  0
VERTEX
  8
LAYER-1
 10
2.656435
 20
0.344989
 30
0.000000
  0
SEQEND
  8
LAYER-1
  0
POLYLINE
  8
LAYER-1
 66
  1
 70
  0
 62
  0
 10
2.584103
 20
0.344990
 30
0.000000
  0
VERTEX
  8
LAYER-1
 10
2.584103
 20
0.344990
 30
0.000000
  0
VERTEX
  8
LAYER-1
 10
2.597274
 20
0.337943
 30
0.000000
  0
VERTEX
  8
LAYER-1
 10
2.614354
 20
0.342274
 30
0.000000
  0
VERTEX
  8
LAYER-1
 10
2.621007
 20
0.344989
 30
0.000000
  0
SEQEND
  8
LAYER-1
  0
POLYLINE
  8
LAYER-1
 66
  1
 70
  0
 62
  0
 10
2.584103
 20
0.344989
 30
0.000000
  0
VERTEX
  8
LAYER-1
 10
2.584103
 20
0.344989
 30
0.000000
  0
VERTEX
  8
LAYER-1
 10
2.621006
 20
0.344989
 30
0.000000
  0
SEQEND
  8
LAYER-1
  0
POLYLINE
  8
LAYER-1
 66
  1
 70
  0
 62
  0
 10
1.835567
 20
0.616507
 30
0.000000
  0
VERTEX
  8
LAYER-1
 10
1.835567
 20
0.616507
 30
0.000000
  0
VERTEX
  8
LAYER-1
 10
1.821690
 20
0.627444
 30
0.000000
  0
VERTEX
  8
LAYER-1
 10
1.806927
 20
0.625365
 30
0.000000
  0
VERTEX
  8
LAYER-1
 10
1.802347
 20
0.617066
 30
0.000000
  0
SEQEND
  8
LAYER-1
  0
POLYLINE
  8
LAYER-1
 66
  1
 70
  0
 62
  0
 10
1.802348
 20
0.617066
 30
0.000000
  0
VERTEX
  8
LAYER-1
 10
1.802348
 20
0.617066
 30
0.000000
  0
VERTEX
  8
LAYER-1
 10
1.835567
 20
0.616505
 30
0.000000
  0
SEQEND
  8
LAYER-1
  0
POLYLINE
  8
LAYER-1
 66
  1
 70
  0
 62
  0
 10
1.800138
 20
0.616505
 30
0.000000
  0
VERTEX
  8
LAYER-1
 10
1.800138
 20
0.616505
 30
0.000000
  0
VERTEX
  8
LAYER-1
 10
1.783030
 20
0.627489
 30
0.000000
  0
VERTEX
  8
LAYER-1
 10
1.765950
 20
0.623158
 30
0.000000
  0
VERTEX
  8
LAYER-1
 10
1.763235
 20
0.616504
 30
0.000000
  0
SEQEND
  8
LAYER-1
  0
POLYLINE
  8
LAYER-1
 66
  1
 70
  0
 62
  0
 10
1.763235
 20
0.616504
 30
0.000000
  0
VERTEX
  8
LAYER-1
 10
1.763235
 20
0.616504
 30
0.000000
  0
VERTEX
  8
LAYER-1
 10
1.800138
 20
0.616505
 30
0.000000
  0
SEQEND
  8
LAYER-1
  0
POLYLINE
  8
LAYER-1
 66
  1
 70
  0
 62
  0
 10
1.764406
 20
0.344848
 30
0.000000
  0
VERTEX
  8
LAYER-1
 10
1.764406
 20
0.344848
 30
0.000000
  0
VERTEX
  8
LAYER-1
 10
1.764406
 20
0.616480
 30
0.000000
  0
SEQEND
  8
LAYER-1
  0
POLYLINE
  8
LAYER-1
 66
  1
 70
  0
 62
  0
 10
1.836740
 20
0.616475
 30
0.000000
  0
VERTEX
  8
LAYER-1
 10
1.836740
 20
0.616475
 30
0.000000
  0
VERTEX
  8
LAYER-1
 10
1.836740
 20
0.344847
 30
0.000000
  0
SEQEND
  8
LAYER-1
  0
POLYLINE
  8
LAYER-1
 66
  1
 70
  0
 62
  0
 10
1.801310
 20
0.344847
 30
0.000000
  0
VERTEX
  8
LAYER-1
 10
1.801310
 20
0.344847
 30
0.000000
  0
VERTEX
  8
LAYER-1
 10
1.801310
 20
0.616478
 30
0.000000
  0
SEQEND
  8
LAYER-1
  0
POLYLINE
  8
LAYER-1
 66
  1
 70
  0
 62
  0
 10
1.803216
 20
0.344429
 30
0.000000
  0
VERTEX
  8
LAYER-1
 10
1.803216
 20
0.344429
 30
0.000000
  0
VERTEX
  8
LAYER-1
 10
1.813452
 20
0.337835
 30
0.000000
  0
VERTEX
  8
LAYER-1
 10
1.828136
 20
0.340409
 30
0.000000
  0
VERTEX
  8
LAYER-1
 10
1.836436
 20
0.344989
 30
0.000000
  0
SEQEND
  8
LAYER-1
  0
POLYLINE
  8
LAYER-1
 66
  1
 70
  0
 62
  0
 10
1.803216
 20
0.344428
 30
0.000000
  0
VERTEX
  8
LAYER-1
 10
1.803216
 20
0.344428
 30
0.000000
  0
VERTEX
  8
LAYER-1
 10
1.836435
 20
0.344989
 30
0.000000
  0
SEQEND
  8
LAYER-1
  0
POLYLINE
  8
LAYER-1
 66
  1
 70
  0
 62
  0
 10
1.764103
 20
0.344990
 30
0.000000
  0
VERTEX
  8
LAYER-1
 10
1.764103
 20
0.344990
 30
0.000000
  0
VERTEX
  8
LAYER-1
 10
1.777274
 20
0.337943
 30
0.000000
  0
VERTEX
  8
LAYER-1
 10
1.794354
 20
0.342274
 30
0.000000
  0
VERTEX
  8
LAYER-1
 10
1.801007
 20
0.344989
 30
0.000000
  0
SEQEND
  8
LAYER-1
  0
POLYLINE
  8
LAYER-1
 66
  1
 70
  0
 62
  0
 10
1.764104
 20
0.344989
 30
0.000000
  0
VERTEX
  8
LAYER-1
 10
1.764104
 20
0.344989
 30
0.000000
  0
VERTEX
  8
LAYER-1
 10
1.801006
 20
0.344989
 30
0.000000
  0
SEQEND
  8
LAYER-1
  0
POLYLINE
  8
LAYER-1
 66
  1
 70
  1
 62
  0
  0
VERTEX
  8
LAYER-1
 10
3.660033
 20
7.415132
 30
0.000000
  0
VERTEX
  8
LAYER-1
 10
3.828915
 20
7.415132
 30
0.000000
  0
VERTEX
  8
LAYER-1
 10
3.828915
 20
0.345306
 30
0.000000
  0
VERTEX
  8
LAYER-1
 10
3.660033
 20
0.345306
 30
0.000000
  0
SEQEND
  8
LAYER-1
  0
CIRCLE
  8
LAYER-1
 62
  0
 10
3.744680
 20
3.180689
 30
0.000000
 40
0.064283
  0
LINE
  8
LAYER-1
 62
  0
 10
6.750760
 20
7.482560
 30
0.000000
 11
0.747288
 21
7.482560
 31
0.000000
  0
LINE
  8
LAYER-1
 62
  0
 10
6.750760
 20
7.592560
 30
0.000000
 11
0.747288
 21
7.592560
 31
0.000000
  0
LINE
  8
LAYER-1
 62
  0
 10
1.306316
 20
7.480596
 30
0.000000
 11
1.306316
 21
7.590574
 31
0.000000
  0
LINE
  8
LAYER-1
 62
  0
 10
1.246947
 20
7.480596
 30
0.000000
 11
1.431316
 21
7.480596
 31
0.000000
  0
LINE
  8
LAYER-1
 62
  0
 10
1.247288
 20
7.590574
 30
0.000000
 11
1.431316
 21
7.590574
 31
0.000000
  0
LINE
  8
LAYER-1
 62
  0
 10
1.306316
 20
7.590574
 30
0.000000
 11
1.306316
 21
7.225060
 31
0.000000
  0
LINE
  8
LAYER-1
 62
  0
 10
1.276853
 20
7.510059
 30
0.000000
 11
1.335778
 21
7.451133
 31
0.000000
  0
LINE
  8
LAYER-1
 62
  0
 10
1.276853
 20
7.620038
 30
0.000000
 11
1.335778
 21
7.561111
 31
0.000000
  0
TEXT
  8
LAYER-1
 62
  0
 10
1.296255
 20
7.099185
 30
0.000000
 40
0.125000
  1
 
  0
POLYLINE
  8
LAYER-1
 66
  1
 70
  1
 62
  0
  0
VERTEX
  8
LAYER-1
 10
3.767799
 20
7.480557
 30
0.000000
  0
VERTEX
  8
LAYER-1
 10
3.792895
 20
7.480557
 30
0.000000
  0
VERTEX
  8
LAYER-1
 10
3.792895
 20
7.415106
 30
0.000000
  0
VERTEX
  8
LAYER-1
 10
3.767799
 20
7.415106
 30
0.000000
  0
SEQEND
  8
LAYER-1
  0
POLYLINE
  8
LAYER-1
 66
  1
 70
  1
 62
  0
  0
VERTEX
  8
LAYER-1
 10
4.651105
 20
7.480899
 30
0.000000
  0
VERTEX
  8
LAYER-1
 10
4.676200
 20
7.480899
 30
0.000000
  0
VERTEX
  8
LAYER-1
 10
4.676200
 20
7.414979
 30
0.000000
  0
VERTEX
  8
LAYER-1
 10
4.651105
 20
7.414979
 30
0.000000
  0
SEQEND
  8
LAYER-1
  0
POLYLINE
  8
LAYER-1
 66
  1
 70
  1
 62
  0
  0
VERTEX
  8
LAYER-1
 10
5.468076
 20
7.480899
 30
0.000000
  0
VERTEX
  8
LAYER-1
 10
5.493172
 20
7.480899
 30
0.000000
  0
VERTEX
  8
LAYER-1
 10
5.493172
 20
7.414979
 30
0.000000
  0
VERTEX
  8
LAYER-1
 10
5.468076
 20
7.414979
 30
0.000000
  0
SEQEND
  8
LAYER-1
  0
POLYLINE
  8
LAYER-1
 66
  1
 70
  0
 62
  0
 10
3.702333
 20
2.123049
 30
0.000000
  0
VERTEX
  8
LAYER-1
 10
3.702333
 20
2.123049
 30
0.000000
  0
VERTEX
  8
LAYER-1
 10
3.702335
 20
2.123049
 30
0.000000
  0
SEQEND
  8
LAYER-1
  0
POLYLINE
  8
LAYER-1
 66
  1
 70
  0
 62
  0
 10
3.710299
 20
2.115085
 30
0.000000
  0
VERTEX
  8
LAYER-1
 10
3.710299
 20
2.115085
 30
0.000000
  0
VERTEX
  8
LAYER-1
 10
3.710299
 20
1.865542
 30
0.000000
  0
SEQEND
  8
LAYER-1
  0
POLYLINE
  8
LAYER-1
 66
  1
 70
  0
 62
  0
 10
3.702335
 20
1.857578
 30
0.000000
  0
VERTEX
  8
LAYER-1
 10
3.702335
 20
1.857578
 30
0.000000
  0
VERTEX
  8
LAYER-1
 10
3.702333
 20
1.857578
 30
0.000000
  0
SEQEND
  8
LAYER-1
  0
POLYLINE
  8
LAYER-1
 66
  1
 70
  0
 62
  0
 10
3.694369
 20
1.865542
 30
0.000000
  0
VERTEX
  8
LAYER-1
 10
3.694369
 20
1.865542
 30
0.000000
  0
VERTEX
  8
LAYER-1
 10
3.694369
 20
2.115085
 30
0.000000
  0
SEQEND
  8
LAYER-1
  0
ARC
  8
LAYER-1
 62
  0
 10
3.702333
 20
2.115085
 30
0.000000
 40
0.007964
 50
270.000000
 51
0.000000
  0
ARC
  8
LAYER-1
 62
  0
 10
3.702333
 20
1.865542
 30
0.000000
 40
0.007964
 50
0.000000
 51
90.000000
  0
ARC
  8
LAYER-1
 62
  0
 10
3.702335
 20
1.865542
 30
0.000000
 40
0.007964
 50
90.000000
 51
180.000000
  0
ARC
  8
LAYER-1
 62
  0
 10
3.702335
 20
2.115085
 30
0.000000
 40
0.007964
 50
180.000000
 51
270.000000
  0
POLYLINE
  8
LAYER-1
 66
  1
 70
  1
 62
  0
  0
VERTEX
  8
LAYER-1
 10
2.812570
 20
7.480603
 30
0.000000
  0
VERTEX
  8
LAYER-1
 10
2.837666
 20
7.480603
 30
0.000000
  0
VERTEX
  8
LAYER-1
 10
2.837666
 20
7.415622
 30
0.000000
  0
VERTEX
  8
LAYER-1
 10
2.812570
 20
7.415622
 30
0.000000
  0
SEQEND
  8
LAYER-1
  0
POLYLINE
  8
LAYER-1
 66
  1
 70
  1
 62
  0
  0
VERTEX
  8
LAYER-1
 10
1.994731
 20
7.480603
 30
0.000000
  0
VERTEX
  8
LAYER-1
 10
2.019827
 20
7.480603
 30
0.000000
  0
VERTEX
  8
LAYER-1
 10
2.019827
 20
7.415622
 30
0.000000
  0
VERTEX
  8
LAYER-1
 10
1.994731
 20
7.415622
 30
0.000000
  0
SEQEND
  8
LAYER-1
  0
POLYLINE
  8
LAYER-1
 66
  1
 70
  0
 62
  0
 10
3.659334
 20
0.242265
 30
0.000000
  0
VERTEX
  8
LAYER-1
 10
3.659334
 20
0.242265
 30
0.000000
  0
VERTEX
  8
LAYER-1
 10
3.672112
 20
0.249830
 30
0.000000
  0
SEQEND
  8
LAYER-1
  0
POLYLINE
  8
LAYER-1
 66
  1
 70
  0
 62
  0
 10
3.659334
 20
0.242265
 30
0.000000
  0
VERTEX
  8
LAYER-1
 10
3.659334
 20
0.242265
 30
0.000000
  0
VERTEX
  8
LAYER-1
 10
3.659334
 20
0.240700
 30
0.000000
  0
SEQEND
  8
LAYER-1
  0
POLYLINE
  8
LAYER-1
 66
  1
 70
  1
 62
  0
  0
VERTEX
  8
LAYER-1
 10
3.677777
 20
0.240686
 30
0.000000
  0
VERTEX
  8
LAYER-1
 10
3.734364
 20
0.240686
 30
0.000000
  0
VERTEX
  8
LAYER-1
 10
3.734364
 20
0.053023
 30
0.000000
  0
VERTEX
  8
LAYER-1
 10
3.677777
 20
0.053023
 30
0.000000
  0
SEQEND
  8
LAYER-1
  0
POLYLINE
  8
LAYER-1
  6
LTYPE01
 66
  1
 70
  1
 62
  0
  0
VERTEX
  8
LAYER-1
  6
LTYPE01
 10
3.682471
 20
0.249812
 30
0.000000
  0
VERTEX
  8
LAYER-1
  6
LTYPE01
 10
3.729411
 20
0.249812
 30
0.000000
  0
VERTEX
  8
LAYER-1
  6
LTYPE01
 10
3.729411
 20
0.062584
 30
0.000000
  0
VERTEX
  8
LAYER-1
  6
LTYPE01
 10
3.682471
 20
0.062584
 30
0.000000
  0
SEQEND
  8
LAYER-1
  0
POLYLINE
  8
LAYER-1
 66
  1
 70
  0
 62
  0
 10
3.659334
 20
0.240700
 30
0.000000
  0
VERTEX
  8
LAYER-1
 10
3.659334
 20
0.240700
 30
0.000000
  0
VERTEX
  8
LAYER-1
 10
3.752951
 20
0.240700
 30
0.000000
  0
SEQEND
  8
LAYER-1
  0
POLYLINE
  8
LAYER-1
 66
  1
 70
  0
 62
  0
 10
3.752951
 20
0.240700
 30
0.000000
  0
VERTEX
  8
LAYER-1
 10
3.752951
 20
0.240700
 30
0.000000
  0
VERTEX
  8
LAYER-1
 10
3.752951
 20
0.242265
 30
0.000000
  0
SEQEND
  8
LAYER-1
  0
POLYLINE
  8
LAYER-1
 66
  1
 70
  0
 62
  0
 10
3.752951
 20
0.242265
 30
0.000000
  0
VERTEX
  8
LAYER-1
 10
3.752951
 20
0.242265
 30
0.000000
  0
VERTEX
  8
LAYER-1
 10
3.739911
 20
0.249830
 30
0.000000
  0
SEQEND
  8
LAYER-1
  0
POLYLINE
  8
LAYER-1
  6
LTYPE02
 66
  1
 70
  0
 62
  0
  6
LTYPE02
 10
3.683716
 20
0.149043
 30
0.000000
  0
VERTEX
  8
LAYER-1
  6
LTYPE02
 10
3.683716
 20
0.149043
 30
0.000000
  0
VERTEX
  8
LAYER-1
  6
LTYPE02
 10
3.683716
 20
0.115144
 30
0.000000
  0
SEQEND
  8
LAYER-1
  0
POLYLINE
  8
LAYER-1
  6
LTYPE02
 66
  1
 70
  0
 62
  0
  6
LTYPE02
 10
3.687624
 20
0.149043
 30
0.000000
  0
VERTEX
  8
LAYER-1
  6
LTYPE02
 10
3.687624
 20
0.149043
 30
0.000000
  0
VERTEX
  8
LAYER-1
  6
LTYPE02
 10
3.683716
 20
0.149043
 30
0.000000
  0
SEQEND
  8
LAYER-1
  0
POLYLINE
  8
LAYER-1
  6
LTYPE02
 66
  1
 70
  0
 62
  0
  6
LTYPE02
 10
3.687624
 20
0.149043
 30
0.000000
  0
VERTEX
  8
LAYER-1
  6
LTYPE02
 10
3.687624
 20
0.149043
 30
0.000000
  0
VERTEX
  8
LAYER-1
  6
LTYPE02
 10
3.687624
 20
0.153475
 30
0.000000
  0
SEQEND
  8
LAYER-1
  0
POLYLINE
  8
LAYER-1
  6
LTYPE02
 66
  1
 70
  0
 62
  0
  6
LTYPE02
 10
3.687624
 20
0.153475
 30
0.000000
  0
VERTEX
  8
LAYER-1
  6
LTYPE02
 10
3.687624
 20
0.153475
 30
0.000000
  0
VERTEX
  8
LAYER-1
  6
LTYPE02
 10
3.724884
 20
0.153475
 30
0.000000
  0
SEQEND
  8
LAYER-1
  0
POLYLINE
  8
LAYER-1
  6
LTYPE02
 66
  1
 70
  0
 62
  0
  6
LTYPE02
 10
3.683716
 20
0.115144
 30
0.000000
  0
VERTEX
  8
LAYER-1
  6
LTYPE02
 10
3.683716
 20
0.115144
 30
0.000000
  0
VERTEX
  8
LAYER-1
  6
LTYPE02
 10
3.728047
 20
0.115144
 30
0.000000
  0
SEQEND
  8
LAYER-1
  0
POLYLINE
  8
LAYER-1
  6
LTYPE02
 66
  1
 70
  0
 62
  0
  6
LTYPE02
 10
3.728047
 20
0.115144
 30
0.000000
  0
VERTEX
  8
LAYER-1
  6
LTYPE02
 10
3.728047
 20
0.115144
 30
0.000000
  0
VERTEX
  8
LAYER-1
  6
LTYPE02
 10
3.728047
 20
0.149043
 30
0.000000
  0
SEQEND
  8
LAYER-1
  0
POLYLINE
  8
LAYER-1
  6
LTYPE02
 66
  1
 70
  0
 62
  0
  6
LTYPE02
 10
3.724884
 20
0.149043
 30
0.000000
  0
VERTEX
  8
LAYER-1
  6
LTYPE02
 10
3.724884
 20
0.149043
 30
0.000000
  0
VERTEX
  8
LAYER-1
  6
LTYPE02
 10
3.728047
 20
0.149043
 30
0.000000
  0
SEQEND
  8
LAYER-1
  0
POLYLINE
  8
LAYER-1
  6
LTYPE02
 66
  1
 70
  0
 62
  0
  6
LTYPE02
 10
3.724884
 20
0.153475
 30
0.000000
  0
VERTEX
  8
LAYER-1
  6
LTYPE02
 10
3.724884
 20
0.153475
 30
0.000000
  0
VERTEX
  8
LAYER-1
  6
LTYPE02
 10
3.724884
 20
0.149043
 30
0.000000
  0
SEQEND
  8
LAYER-1
  0
POLYLINE
  8
LAYER-1
  6
LTYPE01
 66
  1
 70
  1
 62
  0
  0
VERTEX
  8
LAYER-1
  6
LTYPE01
 10
3.688853
 20
0.114997
 30
0.000000
  0
VERTEX
  8
LAYER-1
  6
LTYPE01
 10
3.723275
 20
0.114997
 30
0.000000
  0
VERTEX
  8
LAYER-1
  6
LTYPE01
 10
3.723275
 20
0.062843
 30
0.000000
  0
VERTEX
  8
LAYER-1
  6
LTYPE01
 10
3.688853
 20
0.062843
 30
0.000000
  0
SEQEND
  8
LAYER-1
  0
POLYLINE
  8
LAYER-1
  6
LTYPE02
 66
  1
 70
  0
 62
  0
  6
LTYPE02
 10
3.723275
 20
0.114997
 30
0.000000
  0
VERTEX
  8
LAYER-1
  6
LTYPE02
 10
3.723275
 20
0.114997
 30
0.000000
  0
VERTEX
  8
LAYER-1
  6
LTYPE02
 10
3.688853
 20
0.112129
 30
0.000000
  0
SEQEND
  8
LAYER-1
  0
POLYLINE
  8
LAYER-1
  6
LTYPE02
 66
  1
 70
  0
 62
  0
  6
LTYPE02
 10
3.723275
 20
0.113433
 30
0.000000
  0
VERTEX
  8
LAYER-1
  6
LTYPE02
 10
3.723275
 20
0.113433
 30
0.000000
  0
VERTEX
  8
LAYER-1
  6
LTYPE02
 10
3.688853
 20
0.110304
 30
0.000000
  0
SEQEND
  8
LAYER-1
  0
POLYLINE
  8
LAYER-1
  6
LTYPE02
 66
  1
 70
  0
 62
  0
  6
LTYPE02
 10
3.723275
 20
0.110044
 30
0.000000
  0
VERTEX
  8
LAYER-1
  6
LTYPE02
 10
3.723275
 20
0.110044
 30
0.000000
  0
VERTEX
  8
LAYER-1
  6
LTYPE02
 10
3.688853
 20
0.107173
 30
0.000000
  0
SEQEND
  8
LAYER-1
  0
POLYLINE
  8
LAYER-1
  6
LTYPE02
 66
  1
 70
  0
 62
  0
  6
LTYPE02
 10
3.723275
 20
0.108477
 30
0.000000
  0
VERTEX
  8
LAYER-1
  6
LTYPE02
 10
3.723275
 20
0.108477
 30
0.000000
  0
VERTEX
  8
LAYER-1
  6
LTYPE02
 10
3.688853
 20
0.105349
 30
0.000000
  0
SEQEND
  8
LAYER-1
  0
POLYLINE
  8
LAYER-1
  6
LTYPE02
 66
  1
 70
  0
 62
  0
  6
LTYPE02
 10
3.723275
 20
0.104894
 30
0.000000
  0
VERTEX
  8
LAYER-1
  6
LTYPE02
 10
3.723275
 20
0.104894
 30
0.000000
  0
VERTEX
  8
LAYER-1
  6
LTYPE02
 10
3.688853
 20
0.102025
 30
0.000000
  0
SEQEND
  8
LAYER-1
  0
POLYLINE
  8
LAYER-1
  6
LTYPE02
 66
  1
 70
  0
 62
  0
  6
LTYPE02
 10
3.723275
 20
0.103330
 30
0.000000
  0
VERTEX
  8
LAYER-1
  6
LTYPE02
 10
3.723275
 20
0.103330
 30
0.000000
  0
VERTEX
  8
LAYER-1
  6
LTYPE02
 10
3.688853
 20
0.100200
 30
0.000000
  0
SEQEND
  8
LAYER-1
  0
POLYLINE
  8
LAYER-1
  6
LTYPE02
 66
  1
 70
  0
 62
  0
  6
LTYPE02
 10
3.723210
 20
0.100394
 30
0.000000
  0
VERTEX
  8
LAYER-1
  6
LTYPE02
 10
3.723210
 20
0.100394
 30
0.000000
  0
VERTEX
  8
LAYER-1
  6
LTYPE02
 10
3.688788
 20
0.097527
 30
0.000000
  0
SEQEND
  8
LAYER-1
  0
POLYLINE
  8
LAYER-1
  6
LTYPE02
 66
  1
 70
  0
 62
  0
  6
LTYPE02
 10
3.723210
 20
0.098831
 30
0.000000
  0
VERTEX
  8
LAYER-1
  6
LTYPE02
 10
3.723210
 20
0.098831
 30
0.000000
  0
VERTEX
  8
LAYER-1
  6
LTYPE02
 10
3.688788
 20
0.095702
 30
0.000000
  0
SEQEND
  8
LAYER-1
  0
POLYLINE
  8
LAYER-1
  6
LTYPE02
 66
  1
 70
  0
 62
  0
  6
LTYPE02
 10
3.723210
 20
0.095572
 30
0.000000
  0
VERTEX
  8
LAYER-1
  6
LTYPE02
 10
3.723210
 20
0.095572
 30
0.000000
  0
VERTEX
  8
LAYER-1
  6
LTYPE02
 10
3.688788
 20
0.092704
 30
0.000000
  0
SEQEND
  8
LAYER-1
  0
POLYLINE
  8
LAYER-1
  6
LTYPE02
 66
  1
 70
  0
 62
  0
  6
LTYPE02
 10
3.723210
 20
0.094006
 30
0.000000
  0
VERTEX
  8
LAYER-1
  6
LTYPE02
 10
3.723210
 20
0.094006
 30
0.000000
  0
VERTEX
  8
LAYER-1
  6
LTYPE02
 10
3.688788
 20
0.090876
 30
0.000000
  0
SEQEND
  8
LAYER-1
  0
POLYLINE
  8
LAYER-1
  6
LTYPE02
 66
  1
 70
  0
 62
  0
  6
LTYPE02
 10
3.723210
 20
0.090615
 30
0.000000
  0
VERTEX
  8
LAYER-1
  6
LTYPE02
 10
3.723210
 20
0.090615
 30
0.000000
  0
VERTEX
  8
LAYER-1
  6
LTYPE02
 10
3.688788
 20
0.087747
 30
0.000000
  0
SEQEND
  8
LAYER-1
  0
POLYLINE
  8
LAYER-1
  6
LTYPE02
 66
  1
 70
  0
 62
  0
  6
LTYPE02
 10
3.723210
 20
0.089052
 30
0.000000
  0
VERTEX
  8
LAYER-1
  6
LTYPE02
 10
3.723210
 20
0.089052
 30
0.000000
  0
VERTEX
  8
LAYER-1
  6
LTYPE02
 10
3.688788
 20
0.085921
 30
0.000000
  0
SEQEND
  8
LAYER-1
  0
POLYLINE
  8
LAYER-1
  6
LTYPE02
 66
  1
 70
  0
 62
  0
  6
LTYPE02
 10
3.723210
 20
0.085466
 30
0.000000
  0
VERTEX
  8
LAYER-1
  6
LTYPE02
 10
3.723210
 20
0.085466
 30
0.000000
  0
VERTEX
  8
LAYER-1
  6
LTYPE02
 10
3.688788
 20
0.082597
 30
0.000000
  0
SEQEND
  8
LAYER-1
  0
POLYLINE
  8
LAYER-1
  6
LTYPE02
 66
  1
 70
  0
 62
  0
  6
LTYPE02
 10
3.723210
 20
0.083901
 30
0.000000
  0
VERTEX
  8
LAYER-1
  6
LTYPE02
 10
3.723210
 20
0.083901
 30
0.000000
  0
VERTEX
  8
LAYER-1
  6
LTYPE02
 10
3.688788
 20
0.080772
 30
0.000000
  0
SEQEND
  8
LAYER-1
  0
POLYLINE
  8
LAYER-1
  6
LTYPE02
 66
  1
 70
  0
 62
  0
  6
LTYPE02
 10
3.723145
 20
0.080967
 30
0.000000
  0
VERTEX
  8
LAYER-1
  6
LTYPE02
 10
3.723145
 20
0.080967
 30
0.000000
  0
VERTEX
  8
LAYER-1
  6
LTYPE02
 10
3.688724
 20
0.078100
 30
0.000000
  0
SEQEND
  8
LAYER-1
  0
POLYLINE
  8
LAYER-1
  6
LTYPE02
 66
  1
 70
  0
 62
  0
  6
LTYPE02
 10
3.723145
 20
0.079404
 30
0.000000
  0
VERTEX
  8
LAYER-1
  6
LTYPE02
 10
3.723145
 20
0.079404
 30
0.000000
  0
VERTEX
  8
LAYER-1
  6
LTYPE02
 10
3.688724
 20
0.076274
 30
0.000000
  0
SEQEND
  8
LAYER-1
  0
POLYLINE
  8
LAYER-1
  6
LTYPE02
 66
  1
 70
  0
 62
  0
  6
LTYPE02
 10
3.723275
 20
0.076600
 30
0.000000
  0
VERTEX
  8
LAYER-1
  6
LTYPE02
 10
3.723275
 20
0.076600
 30
0.000000
  0
VERTEX
  8
LAYER-1
  6
LTYPE02
 10
3.688853
 20
0.073732
 30
0.000000
  0
SEQEND
  8
LAYER-1
  0
POLYLINE
  8
LAYER-1
  6
LTYPE02
 66
  1
 70
  0
 62
  0
  6
LTYPE02
 10
3.723275
 20
0.075035
 30
0.000000
  0
VERTEX
  8
LAYER-1
  6
LTYPE02
 10
3.723275
 20
0.075035
 30
0.000000
  0
VERTEX
  8
LAYER-1
  6
LTYPE02
 10
3.688853
 20
0.071906
 30
0.000000
  0
SEQEND
  8
LAYER-1
  0
POLYLINE
  8
LAYER-1
  6
LTYPE02
 66
  1
 70
  0
 62
  0
  6
LTYPE02
 10
3.723275
 20
0.071646
 30
0.000000
  0
VERTEX
  8
LAYER-1
  6
LTYPE02
 10
3.723275
 20
0.071646
 30
0.000000
  0
VERTEX
  8
LAYER-1
  6
LTYPE02
 10
3.688853
 20
0.068778
 30
0.000000
  0
SEQEND
  8
LAYER-1
  0
POLYLINE
  8
LAYER-1
  6
LTYPE02
 66
  1
 70
  0
 62
  0
  6
LTYPE02
 10
3.723275
 20
0.070081
 30
0.000000
  0
VERTEX
  8
LAYER-1
  6
LTYPE02
 10
3.723275
 20
0.070081
 30
0.000000
  0
VERTEX
  8
LAYER-1
  6
LTYPE02
 10
3.688853
 20
0.066951
 30
0.000000
  0
SEQEND
  8
LAYER-1
  0
POLYLINE
  8
LAYER-1
  6
LTYPE02
 66
  1
 70
  0
 62
  0
  6
LTYPE02
 10
3.723275
 20
0.066495
 30
0.000000
  0
VERTEX
  8
LAYER-1
  6
LTYPE02
 10
3.723275
 20
0.066495
 30
0.000000
  0
VERTEX
  8
LAYER-1
  6
LTYPE02
 10
3.688853
 20
0.063626
 30
0.000000
  0
SEQEND
  8
LAYER-1
  0
POLYLINE
  8
LAYER-1
  6
LTYPE02
 66
  1
 70
  0
 62
  0
  6
LTYPE02
 10
3.723275
 20
0.064931
 30
0.000000
  0
VERTEX
  8
LAYER-1
  6
LTYPE02
 10
3.723275
 20
0.064931
 30
0.000000
  0
VERTEX
  8
LAYER-1
  6
LTYPE02
 10
3.700262
 20
0.062843
 30
0.000000
  0
SEQEND
  8
LAYER-1
  0
POLYLINE
  8
LAYER-1
  6
LTYPE02
 66
  1
 70
  0
 62
  0
  6
LTYPE02
 10
3.689845
 20
0.174207
 30
0.000000
  0
VERTEX
  8
LAYER-1
  6
LTYPE02
 10
3.689845
 20
0.174207
 30
0.000000
  0
VERTEX
  8
LAYER-1
  6
LTYPE02
 10
3.689845
 20
0.249830
 30
0.000000
  0
SEQEND
  8
LAYER-1
  0
POLYLINE
  8
LAYER-1
  6
LTYPE02
 66
  1
 70
  0
 62
  0
  6
LTYPE02
 10
3.722179
 20
0.174207
 30
0.000000
  0
VERTEX
  8
LAYER-1
  6
LTYPE02
 10
3.722179
 20
0.174207
 30
0.000000
  0
VERTEX
  8
LAYER-1
  6
LTYPE02
 10
3.722179
 20
0.249830
 30
0.000000
  0
SEQEND
  8
LAYER-1
  0
POLYLINE
  8
LAYER-1
  6
LTYPE01
 66
  1
 70
  0
 62
  0
  6
LTYPE01
 10
3.689844
 20
0.174207
 30
0.000000
  0
VERTEX
  8
LAYER-1
  6
LTYPE01
 10
3.689844
 20
0.174207
 30
0.000000
  0
VERTEX
  8
LAYER-1
  6
LTYPE01
 10
3.692611
 20
0.164743
 30
0.000000
  0
VERTEX
  8
LAYER-1
  6
LTYPE01
 10
3.704043
 20
0.160009
 30
0.000000
  0
VERTEX
  8
LAYER-1
  6
LTYPE01
 10
3.715476
 20
0.164743
 30
0.000000
  0
VERTEX
  8
LAYER-1
  6
LTYPE01
 10
3.722179
 20
0.174207
 30
0.000000
  0
SEQEND
  8
LAYER-1
  0
POLYLINE
  8
LAYER-1
 66
  1
 70
  0
 62
  0
 10
3.672112
 20
0.249830
 30
0.000000
  0
VERTEX
  8
LAYER-1
 10
3.672112
 20
0.249830
 30
0.000000
  0
VERTEX
  8
LAYER-1
 10
3.739911
 20
0.249830
 30
0.000000
  0
SEQEND
  8
LAYER-1
  0
TEXT
  8
LAYER-1
 62
  7
 10
1.931316
 20
8.808394
 30
0.000000
 40
0.187500
  1
Elevation model System S-126
 72
  5
 11
5.611871
 21
8.808394
 31
0.000000
  0
TEXT
  8
LAYER-1
 62
  0
 10
1.056316
 20
6.850060
 30
0.000000
 40
0.125000
  1
1-
 72
  5
 11
1.278538
 21
6.850060
 31
0.000000
  0
TEXT
  8
LAYER-1
 62
  0
 10
1.278538
 20
6.850060
 30
0.000000
 40
0.104167
  1
9/16
 72
  5
 11
1.639649
 21
6.850060
 31
0.000000
  0
TEXT
  8
LAYER-1
 62
  0
 10
1.639649
 20
6.850060
 30
0.000000
 40
0.125000
  1
"
 72
  5
 11
1.764649
 21
6.850060
 31
0.000000
  0
TEXT
  8
LAYER-1
 62
  0
 10
1.056316
 20
6.655616
 30
0.000000
 40
0.125000
  1
40mm
 72
  5
 11
1.625760
 21
6.655616
 31
0.000000
  0
TEXT
  8
LAYER-1
 62
  0
 10
5.959094
 20
4.572283
 30
0.000000
 40
0.125000
  1
links
 72
  5
 11
6.389649
 21
4.572283
 31
0.000000
  0
TEXT
  8
LAYER-1
 62
  0
 10
6.000760
 20
4.377838
 30
0.000000
 40
0.104167
  1
1/8
 72
  5
 11
6.278538
 21
4.377838
 31
0.000000
  0
TEXT
  8
LAYER-1
 62
  0
 10
6.278538
 20
4.377838
 30
0.000000
 40
0.125000
  1
"
 72
  5
 11
6.403538
 21
4.377838
 31
0.000000
  0
TEXT
  8
LAYER-1
 62
  0
 10
5.931316
 20
4.183394
 30
0.000000
 40
0.125000
  1
3mm
 72
  5
 11
6.403538
 21
4.183394
 31
0.000000
  0
POLYLINE
  8
LAYER-1
 66
  1
 70
  1
 62
  7
  0
VERTEX
  8
LAYER-1
 10
0.078052
 20
4.497627
 30
0.000000
  0
VERTEX
  8
LAYER-1
 10
0.088782
 20
4.497627
 30
0.000000
  0
VERTEX
  8
LAYER-1
 10
0.088782
 20
2.800130
 30
0.000000
  0
VERTEX
  8
LAYER-1
 10
0.078052
 20
2.800130
 30
0.000000
  0
SEQEND
  8
LAYER-1
  0
POLYLINE
  8
LAYER-1
 66
  1
 70
  0
 62
 15
 10
0.078052
 20
4.497627
 30
0.000000
  0
VERTEX
  8
LAYER-1
 10
0.078052
 20
4.497627
 30
0.000000
  0
VERTEX
  8
LAYER-1
 10
0.078052
 20
2.800130
 30
0.000000
  0
SEQEND
  8
LAYER-1
  0
POLYLINE
  8
LAYER-1
 66
  1
 70
  0
 62
 15
 10
0.088782
 20
4.497627
 30
0.000000
  0
VERTEX
  8
LAYER-1
 10
0.088782
 20
4.497627
 30
0.000000
  0
VERTEX
  8
LAYER-1
 10
0.088782
 20
2.800130
 30
0.000000
  0
SEQEND
  8
LAYER-1
  0
POLYLINE
  8
LAYER-1
 66
  1
 70
  1
 62
  7
  0
VERTEX
  8
LAYER-1
 10
0.004726
 20
4.398540
 30
0.000000
  0
VERTEX
  8
LAYER-1
 10
0.011880
 20
4.398540
 30
0.000000
  0
VERTEX
  8
LAYER-1
 10
0.011880
 20
2.899525
 30
0.000000
  0
VERTEX
  8
LAYER-1
 10
0.004726
 20
2.899525
 30
0.000000
  0
SEQEND
  8
LAYER-1
  0
POLYLINE
  8
LAYER-1
 66
  1
 70
  1
 62
  7
  0
VERTEX
  8
LAYER-1
 10
1.056325
 20
4.398540
 30
0.000000
  0
VERTEX
  8
LAYER-1
 10
1.063477
 20
4.398540
 30
0.000000
  0
VERTEX
  8
LAYER-1
 10
1.063477
 20
2.899525
 30
0.000000
  0
VERTEX
  8
LAYER-1
 10
1.056325
 20
2.899525
 30
0.000000
  0
SEQEND
  8
LAYER-1
  0
POLYLINE
  8
LAYER-1
 66
  1
 70
  1
 62
  7
  0
VERTEX
  8
LAYER-1
 10
0.906095
 20
4.398540
 30
0.000000
  0
VERTEX
  8
LAYER-1
 10
0.913250
 20
4.398540
 30
0.000000
  0
VERTEX
  8
LAYER-1
 10
0.913250
 20
2.899525
 30
0.000000
  0
VERTEX
  8
LAYER-1
 10
0.906095
 20
2.899525
 30
0.000000
  0
SEQEND
  8
LAYER-1
  0
POLYLINE
  8
LAYER-1
 66
  1
 70
  1
 62
  7
  0
VERTEX
  8
LAYER-1
 10
0.755867
 20
4.398540
 30
0.000000
  0
VERTEX
  8
LAYER-1
 10
0.763021
 20
4.398540
 30
0.000000
  0
VERTEX
  8
LAYER-1
 10
0.763021
 20
2.899525
 30
0.000000
  0
VERTEX
  8
LAYER-1
 10
0.755867
 20
2.899525
 30
0.000000
  0
SEQEND
  8
LAYER-1
  0
POLYLINE
  8
LAYER-1
 66
  1
 70
  1
 62
  7
  0
VERTEX
  8
LAYER-1
 10
0.605639
 20
4.398540
 30
0.000000
  0
VERTEX
  8
LAYER-1
 10
0.612793
 20
4.398540
 30
0.000000
  0
VERTEX
  8
LAYER-1
 10
0.612793
 20
2.899525
 30
0.000000
  0
VERTEX
  8
LAYER-1
 10
0.605639
 20
2.899525
 30
0.000000
  0
SEQEND
  8
LAYER-1
  0
POLYLINE
  8
LAYER-1
 66
  1
 70
  1
 62
  7
  0
VERTEX
  8
LAYER-1
 10
0.455410
 20
4.398540
 30
0.000000
  0
VERTEX
  8
LAYER-1
 10
0.462565
 20
4.398540
 30
0.000000
  0
VERTEX
  8
LAYER-1
 10
0.462565
 20
2.899525
 30
0.000000
  0
VERTEX
  8
LAYER-1
 10
0.455410
 20
2.899525
 30
0.000000
  0
SEQEND
  8
LAYER-1
  0
POLYLINE
  8
LAYER-1
 66
  1
 70
  1
 62
  7
  0
VERTEX
  8
LAYER-1
 10
0.305182
 20
4.398540
 30
0.000000
  0
VERTEX
  8
LAYER-1
 10
0.312336
 20
4.398540
 30
0.000000
  0
VERTEX
  8
LAYER-1
 10
0.312336
 20
2.899525
 30
0.000000
  0
VERTEX
  8
LAYER-1
 10
0.305182
 20
2.899525
 30
0.000000
  0
SEQEND
  8
LAYER-1
  0
POLYLINE
  8
LAYER-1
 66
  1
 70
  1
 62
  7
  0
VERTEX
  8
LAYER-1
 10
0.154954
 20
4.398540
 30
0.000000
  0
VERTEX
  8
LAYER-1
 10
0.162108
 20
4.398540
 30
0.000000
  0
VERTEX
  8
LAYER-1
 10
0.162108
 20
2.899525
 30
0.000000
  0
VERTEX
  8
LAYER-1
 10
0.154954
 20
2.899525
 30
0.000000
  0
SEQEND
  8
LAYER-1
  0
POLYLINE
  8
LAYER-1
 66
  1
 70
  1
 62
  7
  0
VERTEX
  8
LAYER-1
 10
0.979419
 20
4.497627
 30
0.000000
  0
VERTEX
  8
LAYER-1
 10
0.990152
 20
4.497627
 30
0.000000
  0
VERTEX
  8
LAYER-1
 10
0.990152
 20
2.800130
 30
0.000000
  0
VERTEX
  8
LAYER-1
 10
0.979419
 20
2.800130
 30
0.000000
  0
SEQEND
  8
LAYER-1
  0
POLYLINE
  8
LAYER-1
 66
  1
 70
  0
 62
 15
 10
0.979419
 20
4.497627
 30
0.000000
  0
VERTEX
  8
LAYER-1
 10
0.979419
 20
4.497627
 30
0.000000
  0
VERTEX
  8
LAYER-1
 10
0.979419
 20
2.800130
 30
0.000000
  0
SEQEND
  8
LAYER-1
  0
POLYLINE
  8
LAYER-1
 66
  1
 70
  0
 62
 15
 10
0.990152
 20
4.497627
 30
0.000000
  0
VERTEX
  8
LAYER-1
 10
0.990152
 20
4.497627
 30
0.000000
  0
VERTEX
  8
LAYER-1
 10
0.990152
 20
2.800130
 30
0.000000
  0
SEQEND
  8
LAYER-1
  0
POLYLINE
  8
LAYER-1
 66
  1
 70
  1
 62
  7
  0
VERTEX
  8
LAYER-1
 10
0.829193
 20
4.497627
 30
0.000000
  0
VERTEX
  8
LAYER-1
 10
0.839923
 20
4.497627
 30
0.000000
  0
VERTEX
  8
LAYER-1
 10
0.839923
 20
2.800130
 30
0.000000
  0
VERTEX
  8
LAYER-1
 10
0.829193
 20
2.800130
 30
0.000000
  0
SEQEND
  8
LAYER-1
  0
POLYLINE
  8
LAYER-1
 66
  1
 70
  0
 62
 15
 10
0.829193
 20
4.497627
 30
0.000000
  0
VERTEX
  8
LAYER-1
 10
0.829193
 20
4.497627
 30
0.000000
  0
VERTEX
  8
LAYER-1
 10
0.829193
 20
2.800130
 30
0.000000
  0
SEQEND
  8
LAYER-1
  0
POLYLINE
  8
LAYER-1
 66
  1
 70
  0
 62
 15
 10
0.839923
 20
4.497627
 30
0.000000
  0
VERTEX
  8
LAYER-1
 10
0.839923
 20
4.497627
 30
0.000000
  0
VERTEX
  8
LAYER-1
 10
0.839923
 20
2.800130
 30
0.000000
  0
SEQEND
  8
LAYER-1
  0
POLYLINE
  8
LAYER-1
 66
  1
 70
  1
 62
  7
  0
VERTEX
  8
LAYER-1
 10
0.678965
 20
4.497627
 30
0.000000
  0
VERTEX
  8
LAYER-1
 10
0.689696
 20
4.497627
 30
0.000000
  0
VERTEX
  8
LAYER-1
 10
0.689696
 20
2.800130
 30
0.000000
  0
VERTEX
  8
LAYER-1
 10
0.678965
 20
2.800130
 30
0.000000
  0
SEQEND
  8
LAYER-1
  0
POLYLINE
  8
LAYER-1
 66
  1
 70
  0
 62
 15
 10
0.678965
 20
4.497627
 30
0.000000
  0
VERTEX
  8
LAYER-1
 10
0.678965
 20
4.497627
 30
0.000000
  0
VERTEX
  8
LAYER-1
 10
0.678965
 20
2.800130
 30
0.000000
  0
SEQEND
  8
LAYER-1
  0
POLYLINE
  8
LAYER-1
 66
  1
 70
  0
 62
 15
 10
0.689696
 20
4.497627
 30
0.000000
  0
VERTEX
  8
LAYER-1
 10
0.689696
 20
4.497627
 30
0.000000
  0
VERTEX
  8
LAYER-1
 10
0.689696
 20
2.800130
 30
0.000000
  0
SEQEND
  8
LAYER-1
  0
POLYLINE
  8
LAYER-1
 66
  1
 70
  1
 62
  7
  0
VERTEX
  8
LAYER-1
 10
0.528736
 20
4.497627
 30
0.000000
  0
VERTEX
  8
LAYER-1
 10
0.539468
 20
4.497627
 30
0.000000
  0
VERTEX
  8
LAYER-1
 10
0.539468
 20
2.800130
 30
0.000000
  0
VERTEX
  8
LAYER-1
 10
0.528736
 20
2.800130
 30
0.000000
  0
SEQEND
  8
LAYER-1
  0
POLYLINE
  8
LAYER-1
 66
  1
 70
  0
 62
 15
 10
0.528736
 20
4.497627
 30
0.000000
  0
VERTEX
  8
LAYER-1
 10
0.528736
 20
4.497627
 30
0.000000
  0
VERTEX
  8
LAYER-1
 10
0.528736
 20
2.800130
 30
0.000000
  0
SEQEND
  8
LAYER-1
  0
POLYLINE
  8
LAYER-1
 66
  1
 70
  0
 62
 15
 10
0.539468
 20
4.497627
 30
0.000000
  0
VERTEX
  8
LAYER-1
 10
0.539468
 20
4.497627
 30
0.000000
  0
VERTEX
  8
LAYER-1
 10
0.539468
 20
2.800130
 30
0.000000
  0
SEQEND
  8
LAYER-1
  0
POLYLINE
  8
LAYER-1
 66
  1
 70
  1
 62
  7
  0
VERTEX
  8
LAYER-1
 10
0.378507
 20
4.497627
 30
0.000000
  0
VERTEX
  8
LAYER-1
 10
0.389239
 20
4.497627
 30
0.000000
  0
VERTEX
  8
LAYER-1
 10
0.389239
 20
2.800130
 30
0.000000
  0
VERTEX
  8
LAYER-1
 10
0.378507
 20
2.800130
 30
0.000000
  0
SEQEND
  8
LAYER-1
  0
POLYLINE
  8
LAYER-1
 66
  1
 70
  0
 62
 15
 10
0.378507
 20
4.497627
 30
0.000000
  0
VERTEX
  8
LAYER-1
 10
0.378507
 20
4.497627
 30
0.000000
  0
VERTEX
  8
LAYER-1
 10
0.378507
 20
2.800130
 30
0.000000
  0
SEQEND
  8
LAYER-1
  0
POLYLINE
  8
LAYER-1
 66
  1
 70
  0
 62
 15
 10
0.389239
 20
4.497627
 30
0.000000
  0
VERTEX
  8
LAYER-1
 10
0.389239
 20
4.497627
 30
0.000000
  0
VERTEX
  8
LAYER-1
 10
0.389239
 20
2.800130
 30
0.000000
  0
SEQEND
  8
LAYER-1
  0
POLYLINE
  8
LAYER-1
 66
  1
 70
  1
 62
  7
  0
VERTEX
  8
LAYER-1
 10
0.228279
 20
4.497627
 30
0.000000
  0
VERTEX
  8
LAYER-1
 10
0.239010
 20
4.497627
 30
0.000000
  0
VERTEX
  8
LAYER-1
 10
0.239010
 20
2.800130
 30
0.000000
  0
VERTEX
  8
LAYER-1
 10
0.228279
 20
2.800130
 30
0.000000
  0
SEQEND
  8
LAYER-1
  0
POLYLINE
  8
LAYER-1
 66
  1
 70
  0
 62
 15
 10
0.228279
 20
4.497627
 30
0.000000
  0
VERTEX
  8
LAYER-1
 10
0.228279
 20
4.497627
 30
0.000000
  0
VERTEX
  8
LAYER-1
 10
0.228279
 20
2.800130
 30
0.000000
  0
SEQEND
  8
LAYER-1
  0
POLYLINE
  8
LAYER-1
 66
  1
 70
  0
 62
 15
 10
0.239010
 20
4.497627
 30
0.000000
  0
VERTEX
  8
LAYER-1
 10
0.239010
 20
4.497627
 30
0.000000
  0
VERTEX
  8
LAYER-1
 10
0.239010
 20
2.800130
 30
0.000000
  0
SEQEND
  8
LAYER-1
  0
POLYLINE
  8
LAYER-1
 66
  1
 70
  1
 62
  7
  0
VERTEX
  8
LAYER-1
 10
0.002572
 20
4.498212
 30
0.000000
  0
VERTEX
  8
LAYER-1
 10
0.152945
 20
4.498212
 30
0.000000
  0
VERTEX
  8
LAYER-1
 10
0.152945
 20
4.398469
 30
0.000000
  0
VERTEX
  8
LAYER-1
 10
0.002572
 20
4.398469
 30
0.000000
  0
SEQEND
  8
LAYER-1
  0
POLYLINE
  8
LAYER-1
 66
  1
 70
  1
 62
  7
  0
VERTEX
  8
LAYER-1
 10
0.152880
 20
4.498212
 30
0.000000
  0
VERTEX
  8
LAYER-1
 10
0.303254
 20
4.498212
 30
0.000000
  0
VERTEX
  8
LAYER-1
 10
0.303254
 20
4.398469
 30
0.000000
  0
VERTEX
  8
LAYER-1
 10
0.152880
 20
4.398469
 30
0.000000
  0
SEQEND
  8
LAYER-1
  0
POLYLINE
  8
LAYER-1
 66
  1
 70
  1
 62
  7
  0
VERTEX
  8
LAYER-1
 10
0.303042
 20
4.498212
 30
0.000000
  0
VERTEX
  8
LAYER-1
 10
0.453268
 20
4.498212
 30
0.000000
  0
VERTEX
  8
LAYER-1
 10
0.453268
 20
4.398469
 30
0.000000
  0
VERTEX
  8
LAYER-1
 10
0.303042
 20
4.398469
 30
0.000000
  0
SEQEND
  8
LAYER-1
  0
POLYLINE
  8
LAYER-1
 66
  1
 70
  1
 62
  7
  0
VERTEX
  8
LAYER-1
 10
0.453057
 20
4.498212
 30
0.000000
  0
VERTEX
  8
LAYER-1
 10
0.603576
 20
4.498212
 30
0.000000
  0
VERTEX
  8
LAYER-1
 10
0.603576
 20
4.398469
 30
0.000000
  0
VERTEX
  8
LAYER-1
 10
0.453057
 20
4.398469
 30
0.000000
  0
SEQEND
  8
LAYER-1
  0
POLYLINE
  8
LAYER-1
 66
  1
 70
  1
 62
  7
  0
VERTEX
  8
LAYER-1
 10
0.603657
 20
4.498212
 30
0.000000
  0
VERTEX
  8
LAYER-1
 10
0.753736
 20
4.498212
 30
0.000000
  0
VERTEX
  8
LAYER-1
 10
0.753736
 20
4.398469
 30
0.000000
  0
VERTEX
  8
LAYER-1
 10
0.603657
 20
4.398469
 30
0.000000
  0
SEQEND
  8
LAYER-1
  0
POLYLINE
  8
LAYER-1
 66
  1
 70
  1
 62
  7
  0
VERTEX
  8
LAYER-1
 10
0.753673
 20
4.498212
 30
0.000000
  0
VERTEX
  8
LAYER-1
 10
0.904045
 20
4.498212
 30
0.000000
  0
VERTEX
  8
LAYER-1
 10
0.904045
 20
4.398469
 30
0.000000
  0
VERTEX
  8
LAYER-1
 10
0.753673
 20
4.398469
 30
0.000000
  0
SEQEND
  8
LAYER-1
  0
POLYLINE
  8
LAYER-1
 66
  1
 70
  1
 62
  7
  0
VERTEX
  8
LAYER-1
 10
0.903981
 20
4.498212
 30
0.000000
  0
VERTEX
  8
LAYER-1
 10
1.065668
 20
4.498212
 30
0.000000
  0
VERTEX
  8
LAYER-1
 10
1.065668
 20
4.398469
 30
0.000000
  0
VERTEX
  8
LAYER-1
 10
0.903981
 20
4.398469
 30
0.000000
  0
SEQEND
  8
LAYER-1
  0
POLYLINE
  8
LAYER-1
 66
  1
 70
  1
 62
  7
  0
VERTEX
  8
LAYER-1
 10
0.002572
 20
2.899662
 30
0.000000
  0
VERTEX
  8
LAYER-1
 10
0.152945
 20
2.899662
 30
0.000000
  0
VERTEX
  8
LAYER-1
 10
0.152945
 20
2.799918
 30
0.000000
  0
VERTEX
  8
LAYER-1
 10
0.002572
 20
2.799918
 30
0.000000
  0
SEQEND
  8
LAYER-1
  0
POLYLINE
  8
LAYER-1
 66
  1
 70
  1
 62
  7
  0
VERTEX
  8
LAYER-1
 10
0.152880
 20
2.899662
 30
0.000000
  0
VERTEX
  8
LAYER-1
 10
0.303254
 20
2.899662
 30
0.000000
  0
VERTEX
  8
LAYER-1
 10
0.303254
 20
2.799918
 30
0.000000
  0
VERTEX
  8
LAYER-1
 10
0.152880
 20
2.799918
 30
0.000000
  0
SEQEND
  8
LAYER-1
  0
POLYLINE
  8
LAYER-1
 66
  1
 70
  1
 62
  7
  0
VERTEX
  8
LAYER-1
 10
0.303042
 20
2.899662
 30
0.000000
  0
VERTEX
  8
LAYER-1
 10
0.453268
 20
2.899662
 30
0.000000
  0
VERTEX
  8
LAYER-1
 10
0.453268
 20
2.799918
 30
0.000000
  0
VERTEX
  8
LAYER-1
 10
0.303042
 20
2.799918
 30
0.000000
  0
SEQEND
  8
LAYER-1
  0
POLYLINE
  8
LAYER-1
 66
  1
 70
  1
 62
  7
  0
VERTEX
  8
LAYER-1
 10
0.453351
 20
2.899662
 30
0.000000
  0
VERTEX
  8
LAYER-1
 10
0.603576
 20
2.899662
 30
0.000000
  0
VERTEX
  8
LAYER-1
 10
0.603576
 20
2.799918
 30
0.000000
  0
VERTEX
  8
LAYER-1
 10
0.453351
 20
2.799918
 30
0.000000
  0
SEQEND
  8
LAYER-1
  0
POLYLINE
  8
LAYER-1
 66
  1
 70
  1
 62
  7
  0
VERTEX
  8
LAYER-1
 10
0.603657
 20
2.899662
 30
0.000000
  0
VERTEX
  8
LAYER-1
 10
0.753736
 20
2.899662
 30
0.000000
  0
VERTEX
  8
LAYER-1
 10
0.753736
 20
2.799918
 30
0.000000
  0
VERTEX
  8
LAYER-1
 10
0.603657
 20
2.799918
 30
0.000000
  0
SEQEND
  8
LAYER-1
  0
POLYLINE
  8
LAYER-1
 66
  1
 70
  1
 62
  7
  0
VERTEX
  8
LAYER-1
 10
0.753673
 20
2.899662
 30
0.000000
  0
VERTEX
  8
LAYER-1
 10
0.904045
 20
2.899662
 30
0.000000
  0
VERTEX
  8
LAYER-1
 10
0.904045
 20
2.799918
 30
0.000000
  0
VERTEX
  8
LAYER-1
 10
0.753673
 20
2.799918
 30
0.000000
  0
SEQEND
  8
LAYER-1
  0
POLYLINE
  8
LAYER-1
 66
  1
 70
  1
 62
  7
  0
VERTEX
  8
LAYER-1
 10
0.903981
 20
2.899662
 30
0.000000
  0
VERTEX
  8
LAYER-1
 10
1.065668
 20
2.899662
 30
0.000000
  0
VERTEX
  8
LAYER-1
 10
1.065668
 20
2.799918
 30
0.000000
  0
VERTEX
  8
LAYER-1
 10
0.903981
 20
2.799918
 30
0.000000
  0
SEQEND
  8
LAYER-1
  0
POLYLINE
  8
LAYER-1
 66
  1
 70
  0
 62
  7
 10
0.164166
 20
2.899688
 30
0.000000
  0
VERTEX
  8
LAYER-1
 10
0.164166
 20
2.899688
 30
0.000000
  0
VERTEX
  8
LAYER-1
 10
0.164166
 20
2.799917
 30
0.000000
  0
SEQEND
  8
LAYER-1
  0
POLYLINE
  8
LAYER-1
 66
  1
 70
  0
 62
  7
 10
0.464624
 20
2.899688
 30
0.000000
  0
VERTEX
  8
LAYER-1
 10
0.464624
 20
2.899688
 30
0.000000
  0
VERTEX
  8
LAYER-1
 10
0.464624
 20
2.799917
 30
0.000000
  0
SEQEND
  8
LAYER-1
  0
POLYLINE
  8
LAYER-1
 66
  1
 70
  0
 62
  7
 10
0.614851
 20
2.899688
 30
0.000000
  0
VERTEX
  8
LAYER-1
 10
0.614851
 20
2.899688
 30
0.000000
  0
VERTEX
  8
LAYER-1
 10
0.614851
 20
2.799917
 30
0.000000
  0
SEQEND
  8
LAYER-1
  0
POLYLINE
  8
LAYER-1
 66
  1
 70
  0
 62
  7
 10
0.915308
 20
2.899688
 30
0.000000
  0
VERTEX
  8
LAYER-1
 10
0.915308
 20
2.899688
 30
0.000000
  0
VERTEX
  8
LAYER-1
 10
0.915308
 20
2.799917
 30
0.000000
  0
SEQEND
  8
LAYER-1
  0
POLYLINE
  8
LAYER-1
 66
  1
 70
  0
 62
  7
 10
0.314395
 20
2.899688
 30
0.000000
  0
VERTEX
  8
LAYER-1
 10
0.314395
 20
2.899688
 30
0.000000
  0
VERTEX
  8
LAYER-1
 10
0.314395
 20
2.799906
 30
0.000000
  0
SEQEND
  8
LAYER-1
  0
POLYLINE
  8
LAYER-1
 66
  1
 70
  0
 62
  7
 10
0.765079
 20
2.899674
 30
0.000000
  0
VERTEX
  8
LAYER-1
 10
0.765079
 20
2.899674
 30
0.000000
  0
VERTEX
  8
LAYER-1
 10
0.765079
 20
2.799906
 30
0.000000
  0
SEQEND
  8
LAYER-1
  0
POLYLINE
  8
LAYER-1
 66
  1
 70
  0
 62
  7
 10
0.013938
 20
2.899688
 30
0.000000
  0
VERTEX
  8
LAYER-1
 10
0.013938
 20
2.899688
 30
0.000000
  0
VERTEX
  8
LAYER-1
 10
0.013938
 20
2.799917
 30
0.000000
  0
SEQEND
  8
LAYER-1
  0
POLYLINE
  8
LAYER-1
 66
  1
 70
  0
 62
  7
 10
1.065536
 20
2.899688
 30
0.000000
  0
VERTEX
  8
LAYER-1
 10
1.065536
 20
2.899688
 30
0.000000
  0
VERTEX
  8
LAYER-1
 10
1.065536
 20
2.799917
 30
0.000000
  0
SEQEND
  8
LAYER-1
  0
POLYLINE
  8
LAYER-1
 66
  1
 70
  0
 62
  7
 10
0.164117
 20
4.498221
 30
0.000000
  0
VERTEX
  8
LAYER-1
 10
0.164117
 20
4.498221
 30
0.000000
  0
VERTEX
  8
LAYER-1
 10
0.164117
 20
4.398450
 30
0.000000
  0
SEQEND
  8
LAYER-1
  0
POLYLINE
  8
LAYER-1
 66
  1
 70
  0
 62
  7
 10
0.464573
 20
4.498221
 30
0.000000
  0
VERTEX
  8
LAYER-1
 10
0.464573
 20
4.498221
 30
0.000000
  0
VERTEX
  8
LAYER-1
 10
0.464573
 20
4.398450
 30
0.000000
  0
SEQEND
  8
LAYER-1
  0
POLYLINE
  8
LAYER-1
 66
  1
 70
  0
 62
  7
 10
0.614802
 20
4.498221
 30
0.000000
  0
VERTEX
  8
LAYER-1
 10
0.614802
 20
4.498221
 30
0.000000
  0
VERTEX
  8
LAYER-1
 10
0.614802
 20
4.398450
 30
0.000000
  0
SEQEND
  8
LAYER-1
  0
POLYLINE
  8
LAYER-1
 66
  1
 70
  0
 62
  7
 10
0.915258
 20
4.498221
 30
0.000000
  0
VERTEX
  8
LAYER-1
 10
0.915258
 20
4.498221
 30
0.000000
  0
VERTEX
  8
LAYER-1
 10
0.915258
 20
4.398450
 30
0.000000
  0
SEQEND
  8
LAYER-1
  0
POLYLINE
  8
LAYER-1
 66
  1
 70
  0
 62
  7
 10
0.314345
 20
4.498221
 30
0.000000
  0
VERTEX
  8
LAYER-1
 10
0.314345
 20
4.498221
 30
0.000000
  0
VERTEX
  8
LAYER-1
 10
0.314345
 20
4.398436
 30
0.000000
  0
SEQEND
  8
LAYER-1
  0
POLYLINE
  8
LAYER-1
 66
  1
 70
  0
 62
  7
 10
0.765031
 20
4.498207
 30
0.000000
  0
VERTEX
  8
LAYER-1
 10
0.765031
 20
4.498207
 30
0.000000
  0
VERTEX
  8
LAYER-1
 10
0.765031
 20
4.398436
 30
0.000000
  0
SEQEND
  8
LAYER-1
  0
POLYLINE
  8
LAYER-1
 66
  1
 70
  0
 62
  7
 10
0.013889
 20
4.498221
 30
0.000000
  0
VERTEX
  8
LAYER-1
 10
0.013889
 20
4.498221
 30
0.000000
  0
VERTEX
  8
LAYER-1
 10
0.013889
 20
4.398450
 30
0.000000
  0
SEQEND
  8
LAYER-1
  0
POLYLINE
  8
LAYER-1
 66
  1
 70
  0
 62
  7
 10
1.065486
 20
4.498221
 30
0.000000
  0
VERTEX
  8
LAYER-1
 10
1.065486
 20
4.498221
 30
0.000000
  0
VERTEX
  8
LAYER-1
 10
1.065486
 20
4.398450
 30
0.000000
  0
SEQEND
  8
LAYER-1
  0
POLYLINE
  8
LAYER-1
 66
  1
 70
  1
 62
  0
  0
VERTEX
  8
LAYER-1
 10
0.003561
 20
3.051507
 30
0.000000
  0
VERTEX
  8
LAYER-1
 10
0.163078
 20
3.051507
 30
0.000000
  0
VERTEX
  8
LAYER-1
 10
0.163078
 20
3.048436
 30
0.000000
  0
VERTEX
  8
LAYER-1
 10
0.003561
 20
3.048436
 30
0.000000
  0
SEQEND
  8
LAYER-1
  0
POLYLINE
  8
LAYER-1
 66
  1
 70
  1
 62
  0
  0
VERTEX
  8
LAYER-1
 10
0.304017
 20
3.051507
 30
0.000000
  0
VERTEX
  8
LAYER-1
 10
0.463534
 20
3.051507
 30
0.000000
  0
VERTEX
  8
LAYER-1
 10
0.463534
 20
3.048436
 30
0.000000
  0
VERTEX
  8
LAYER-1
 10
0.304017
 20
3.048436
 30
0.000000
  0
SEQEND
  8
LAYER-1
  0
POLYLINE
  8
LAYER-1
 66
  1
 70
  1
 62
  0
  0
VERTEX
  8
LAYER-1
 10
0.604473
 20
3.051507
 30
0.000000
  0
VERTEX
  8
LAYER-1
 10
0.763990
 20
3.051507
 30
0.000000
  0
VERTEX
  8
LAYER-1
 10
0.763990
 20
3.048436
 30
0.000000
  0
VERTEX
  8
LAYER-1
 10
0.604473
 20
3.048436
 30
0.000000
  0
SEQEND
  8
LAYER-1
  0
POLYLINE
  8
LAYER-1
 66
  1
 70
  1
 62
  0
  0
VERTEX
  8
LAYER-1
 10
0.904930
 20
3.051507
 30
0.000000
  0
VERTEX
  8
LAYER-1
 10
1.064446
 20
3.051507
 30
0.000000
  0
VERTEX
  8
LAYER-1
 10
1.064446
 20
3.048436
 30
0.000000
  0
VERTEX
  8
LAYER-1
 10
0.904930
 20
3.048436
 30
0.000000
  0
SEQEND
  8
LAYER-1
  0
POLYLINE
  8
LAYER-1
 66
  1
 70
  1
 62
  0
  0
VERTEX
  8
LAYER-1
 10
0.003561
 20
3.351305
 30
0.000000
  0
VERTEX
  8
LAYER-1
 10
0.163078
 20
3.351305
 30
0.000000
  0
VERTEX
  8
LAYER-1
 10
0.163078
 20
3.348234
 30
0.000000
  0
VERTEX
  8
LAYER-1
 10
0.003561
 20
3.348234
 30
0.000000
  0
SEQEND
  8
LAYER-1
  0
POLYLINE
  8
LAYER-1
 66
  1
 70
  1
 62
  0
  0
VERTEX
  8
LAYER-1
 10
0.304017
 20
3.351305
 30
0.000000
  0
VERTEX
  8
LAYER-1
 10
0.463534
 20
3.351305
 30
0.000000
  0
VERTEX
  8
LAYER-1
 10
0.463534
 20
3.348234
 30
0.000000
  0
VERTEX
  8
LAYER-1
 10
0.304017
 20
3.348234
 30
0.000000
  0
SEQEND
  8
LAYER-1
  0
POLYLINE
  8
LAYER-1
 66
  1
 70
  1
 62
  0
  0
VERTEX
  8
LAYER-1
 10
0.604473
 20
3.351305
 30
0.000000
  0
VERTEX
  8
LAYER-1
 10
0.763990
 20
3.351305
 30
0.000000
  0
VERTEX
  8
LAYER-1
 10
0.763990
 20
3.348234
 30
0.000000
  0
VERTEX
  8
LAYER-1
 10
0.604473
 20
3.348234
 30
0.000000
  0
SEQEND
  8
LAYER-1
  0
POLYLINE
  8
LAYER-1
 66
  1
 70
  1
 62
  0
  0
VERTEX
  8
LAYER-1
 10
0.904930
 20
3.351305
 30
0.000000
  0
VERTEX
  8
LAYER-1
 10
1.064446
 20
3.351305
 30
0.000000
  0
VERTEX
  8
LAYER-1
 10
1.064446
 20
3.348234
 30
0.000000
  0
VERTEX
  8
LAYER-1
 10
0.904930
 20
3.348234
 30
0.000000
  0
SEQEND
  8
LAYER-1
  0
POLYLINE
  8
LAYER-1
 66
  1
 70
  1
 62
  0
  0
VERTEX
  8
LAYER-1
 10
0.003561
 20
3.651103
 30
0.000000
  0
VERTEX
  8
LAYER-1
 10
0.163078
 20
3.651103
 30
0.000000
  0
VERTEX
  8
LAYER-1
 10
0.163078
 20
3.648031
 30
0.000000
  0
VERTEX
  8
LAYER-1
 10
0.003561
 20
3.648031
 30
0.000000
  0
SEQEND
  8
LAYER-1
  0
POLYLINE
  8
LAYER-1
 66
  1
 70
  1
 62
  0
  0
VERTEX
  8
LAYER-1
 10
0.304017
 20
3.651103
 30
0.000000
  0
VERTEX
  8
LAYER-1
 10
0.463534
 20
3.651103
 30
0.000000
  0
VERTEX
  8
LAYER-1
 10
0.463534
 20
3.648031
 30
0.000000
  0
VERTEX
  8
LAYER-1
 10
0.304017
 20
3.648031
 30
0.000000
  0
SEQEND
  8
LAYER-1
  0
POLYLINE
  8
LAYER-1
 66
  1
 70
  1
 62
  0
  0
VERTEX
  8
LAYER-1
 10
0.604473
 20
3.651103
 30
0.000000
  0
VERTEX
  8
LAYER-1
 10
0.763990
 20
3.651103
 30
0.000000
  0
VERTEX
  8
LAYER-1
 10
0.763990
 20
3.648031
 30
0.000000
  0
VERTEX
  8
LAYER-1
 10
0.604473
 20
3.648031
 30
0.000000
  0
SEQEND
  8
LAYER-1
  0
POLYLINE
  8
LAYER-1
 66
  1
 70
  1
 62
  0
  0
VERTEX
  8
LAYER-1
 10
0.904930
 20
3.651103
 30
0.000000
  0
VERTEX
  8
LAYER-1
 10
1.064446
 20
3.651103
 30
0.000000
  0
VERTEX
  8
LAYER-1
 10
1.064446
 20
3.648031
 30
0.000000
  0
VERTEX
  8
LAYER-1
 10
0.904930
 20
3.648031
 30
0.000000
  0
SEQEND
  8
LAYER-1
  0
POLYLINE
  8
LAYER-1
 66
  1
 70
  1
 62
  0
  0
VERTEX
  8
LAYER-1
 10
0.003561
 20
3.950901
 30
0.000000
  0
VERTEX
  8
LAYER-1
 10
0.163078
 20
3.950901
 30
0.000000
  0
VERTEX
  8
LAYER-1
 10
0.163078
 20
3.947830
 30
0.000000
  0
VERTEX
  8
LAYER-1
 10
0.003561
 20
3.947830
 30
0.000000
  0
SEQEND
  8
LAYER-1
  0
POLYLINE
  8
LAYER-1
 66
  1
 70
  1
 62
  0
  0
VERTEX
  8
LAYER-1
 10
0.304017
 20
3.950901
 30
0.000000
  0
VERTEX
  8
LAYER-1
 10
0.463534
 20
3.950901
 30
0.000000
  0
VERTEX
  8
LAYER-1
 10
0.463534
 20
3.947830
 30
0.000000
  0
VERTEX
  8
LAYER-1
 10
0.304017
 20
3.947830
 30
0.000000
  0
SEQEND
  8
LAYER-1
  0
POLYLINE
  8
LAYER-1
 66
  1
 70
  1
 62
  0
  0
VERTEX
  8
LAYER-1
 10
0.604473
 20
3.950901
 30
0.000000
  0
VERTEX
  8
LAYER-1
 10
0.763990
 20
3.950901
 30
0.000000
  0
VERTEX
  8
LAYER-1
 10
0.763990
 20
3.947830
 30
0.000000
  0
VERTEX
  8
LAYER-1
 10
0.604473
 20
3.947830
 30
0.000000
  0
SEQEND
  8
LAYER-1
  0
POLYLINE
  8
LAYER-1
 66
  1
 70
  1
 62
  0
  0
VERTEX
  8
LAYER-1
 10
0.904930
 20
3.950901
 30
0.000000
  0
VERTEX
  8
LAYER-1
 10
1.064446
 20
3.950901
 30
0.000000
  0
VERTEX
  8
LAYER-1
 10
1.064446
 20
3.947830
 30
0.000000
  0
VERTEX
  8
LAYER-1
 10
0.904930
 20
3.947830
 30
0.000000
  0
SEQEND
  8
LAYER-1
  0
POLYLINE
  8
LAYER-1
 66
  1
 70
  1
 62
  0
  0
VERTEX
  8
LAYER-1
 10
0.003561
 20
4.250698
 30
0.000000
  0
VERTEX
  8
LAYER-1
 10
0.163078
 20
4.250698
 30
0.000000
  0
VERTEX
  8
LAYER-1
 10
0.163078
 20
4.247627
 30
0.000000
  0
VERTEX
  8
LAYER-1
 10
0.003561
 20
4.247627
 30
0.000000
  0
SEQEND
  8
LAYER-1
  0
POLYLINE
  8
LAYER-1
 66
  1
 70
  1
 62
  0
  0
VERTEX
  8
LAYER-1
 10
0.304017
 20
4.250698
 30
0.000000
  0
VERTEX
  8
LAYER-1
 10
0.463534
 20
4.250698
 30
0.000000
  0
VERTEX
  8
LAYER-1
 10
0.463534
 20
4.247627
 30
0.000000
  0
VERTEX
  8
LAYER-1
 10
0.304017
 20
4.247627
 30
0.000000
  0
SEQEND
  8
LAYER-1
  0
POLYLINE
  8
LAYER-1
 66
  1
 70
  1
 62
  0
  0
VERTEX
  8
LAYER-1
 10
0.604473
 20
4.250698
 30
0.000000
  0
VERTEX
  8
LAYER-1
 10
0.763990
 20
4.250698
 30
0.000000
  0
VERTEX
  8
LAYER-1
 10
0.763990
 20
4.247627
 30
0.000000
  0
VERTEX
  8
LAYER-1
 10
0.604473
 20
4.247627
 30
0.000000
  0
SEQEND
  8
LAYER-1
  0
POLYLINE
  8
LAYER-1
 66
  1
 70
  1
 62
  0
  0
VERTEX
  8
LAYER-1
 10
0.904930
 20
4.250698
 30
0.000000
  0
VERTEX
  8
LAYER-1
 10
1.064446
 20
4.250698
 30
0.000000
  0
VERTEX
  8
LAYER-1
 10
1.064446
 20
4.247627
 30
0.000000
  0
VERTEX
  8
LAYER-1
 10
0.904930
 20
4.247627
 30
0.000000
  0
SEQEND
  8
LAYER-1
  0
POLYLINE
  8
LAYER-1
 66
  1
 70
  1
 62
  0
  0
VERTEX
  8
LAYER-1
 10
0.153789
 20
3.201406
 30
0.000000
  0
VERTEX
  8
LAYER-1
 10
0.313305
 20
3.201406
 30
0.000000
  0
VERTEX
  8
LAYER-1
 10
0.313305
 20
3.198334
 30
0.000000
  0
VERTEX
  8
LAYER-1
 10
0.153789
 20
3.198334
 30
0.000000
  0
SEQEND
  8
LAYER-1
  0
POLYLINE
  8
LAYER-1
 66
  1
 70
  1
 62
  0
  0
VERTEX
  8
LAYER-1
 10
0.454245
 20
3.201406
 30
0.000000
  0
VERTEX
  8
LAYER-1
 10
0.613762
 20
3.201406
 30
0.000000
  0
VERTEX
  8
LAYER-1
 10
0.613762
 20
3.198334
 30
0.000000
  0
VERTEX
  8
LAYER-1
 10
0.454245
 20
3.198334
 30
0.000000
  0
SEQEND
  8
LAYER-1
  0
POLYLINE
  8
LAYER-1
 66
  1
 70
  1
 62
  0
  0
VERTEX
  8
LAYER-1
 10
0.754702
 20
3.201406
 30
0.000000
  0
VERTEX
  8
LAYER-1
 10
0.914218
 20
3.201406
 30
0.000000
  0
VERTEX
  8
LAYER-1
 10
0.914218
 20
3.198334
 30
0.000000
  0
VERTEX
  8
LAYER-1
 10
0.754702
 20
3.198334
 30
0.000000
  0
SEQEND
  8
LAYER-1
  0
POLYLINE
  8
LAYER-1
 66
  1
 70
  1
 62
  0
  0
VERTEX
  8
LAYER-1
 10
0.153789
 20
3.501203
 30
0.000000
  0
VERTEX
  8
LAYER-1
 10
0.313305
 20
3.501203
 30
0.000000
  0
VERTEX
  8
LAYER-1
 10
0.313305
 20
3.498133
 30
0.000000
  0
VERTEX
  8
LAYER-1
 10
0.153789
 20
3.498133
 30
0.000000
  0
SEQEND
  8
LAYER-1
  0
POLYLINE
  8
LAYER-1
 66
  1
 70
  1
 62
  0
  0
VERTEX
  8
LAYER-1
 10
0.454245
 20
3.501203
 30
0.000000
  0
VERTEX
  8
LAYER-1
 10
0.613762
 20
3.501203
 30
0.000000
  0
VERTEX
  8
LAYER-1
 10
0.613762
 20
3.498133
 30
0.000000
  0
VERTEX
  8
LAYER-1
 10
0.454245
 20
3.498133
 30
0.000000
  0
SEQEND
  8
LAYER-1
  0
POLYLINE
  8
LAYER-1
 66
  1
 70
  1
 62
  0
  0
VERTEX
  8
LAYER-1
 10
0.754702
 20
3.501203
 30
0.000000
  0
VERTEX
  8
LAYER-1
 10
0.914218
 20
3.501203
 30
0.000000
  0
VERTEX
  8
LAYER-1
 10
0.914218
 20
3.498133
 30
0.000000
  0
VERTEX
  8
LAYER-1
 10
0.754702
 20
3.498133
 30
0.000000
  0
SEQEND
  8
LAYER-1
  0
POLYLINE
  8
LAYER-1
 66
  1
 70
  1
 62
  0
  0
VERTEX
  8
LAYER-1
 10
0.153789
 20
3.801001
 30
0.000000
  0
VERTEX
  8
LAYER-1
 10
0.313305
 20
3.801001
 30
0.000000
  0
VERTEX
  8
LAYER-1
 10
0.313305
 20
3.797930
 30
0.000000
  0
VERTEX
  8
LAYER-1
 10
0.153789
 20
3.797930
 30
0.000000
  0
SEQEND
  8
LAYER-1
  0
POLYLINE
  8
LAYER-1
 66
  1
 70
  1
 62
  0
  0
VERTEX
  8
LAYER-1
 10
0.454245
 20
3.801001
 30
0.000000
  0
VERTEX
  8
LAYER-1
 10
0.613762
 20
3.801001
 30
0.000000
  0
VERTEX
  8
LAYER-1
 10
0.613762
 20
3.797930
 30
0.000000
  0
VERTEX
  8
LAYER-1
 10
0.454245
 20
3.797930
 30
0.000000
  0
SEQEND
  8
LAYER-1
  0
POLYLINE
  8
LAYER-1
 66
  1
 70
  1
 62
  0
  0
VERTEX
  8
LAYER-1
 10
0.754702
 20
3.801001
 30
0.000000
  0
VERTEX
  8
LAYER-1
 10
0.914218
 20
3.801001
 30
0.000000
  0
VERTEX
  8
LAYER-1
 10
0.914218
 20
3.797930
 30
0.000000
  0
VERTEX
  8
LAYER-1
 10
0.754702
 20
3.797930
 30
0.000000
  0
SEQEND
  8
LAYER-1
  0
POLYLINE
  8
LAYER-1
 66
  1
 70
  1
 62
  0
  0
VERTEX
  8
LAYER-1
 10
0.153789
 20
4.100799
 30
0.000000
  0
VERTEX
  8
LAYER-1
 10
0.313305
 20
4.100799
 30
0.000000
  0
VERTEX
  8
LAYER-1
 10
0.313305
 20
4.097729
 30
0.000000
  0
VERTEX
  8
LAYER-1
 10
0.153789
 20
4.097729
 30
0.000000
  0
SEQEND
  8
LAYER-1
  0
POLYLINE
  8
LAYER-1
 66
  1
 70
  1
 62
  0
  0
VERTEX
  8
LAYER-1
 10
0.454245
 20
4.100799
 30
0.000000
  0
VERTEX
  8
LAYER-1
 10
0.613762
 20
4.100799
 30
0.000000
  0
VERTEX
  8
LAYER-1
 10
0.613762
 20
4.097729
 30
0.000000
  0
VERTEX
  8
LAYER-1
 10
0.454245
 20
4.097729
 30
0.000000
  0
SEQEND
  8
LAYER-1
  0
POLYLINE
  8
LAYER-1
 66
  1
 70
  1
 62
  0
  0
VERTEX
  8
LAYER-1
 10
0.754702
 20
4.100799
 30
0.000000
  0
VERTEX
  8
LAYER-1
 10
0.914218
 20
4.100799
 30
0.000000
  0
VERTEX
  8
LAYER-1
 10
0.914218
 20
4.097729
 30
0.000000
  0
VERTEX
  8
LAYER-1
 10
0.754702
 20
4.097729
 30
0.000000
  0
SEQEND
  8
LAYER-1
  0
POLYLINE
  8
LAYER-1
 66
  1
 70
  0
 62
  7
 10
1.054319
 20
2.899688
 30
0.000000
  0
VERTEX
  8
LAYER-1
 10
1.054319
 20
2.899688
 30
0.000000
  0
VERTEX
  8
LAYER-1
 10
1.054319
 20
2.799917
 30
0.000000
  0
SEQEND
  8
LAYER-1
  0
POLYLINE
  8
LAYER-1
 66
  1
 70
  0
 62
  7
 10
1.054563
 20
4.498221
 30
0.000000
  0
VERTEX
  8
LAYER-1
 10
1.054563
 20
4.498221
 30
0.000000
  0
VERTEX
  8
LAYER-1
 10
1.054563
 20
4.398450
 30
0.000000
  0
SEQEND
  8
LAYER-1
  0
TEXT
  8
LAYER-1
 62
  0
 10
-0.013129
 20
2.572283
 30
0.000000
 40
0.104167
  1
SYSTEM S-126
 72
  5
 11
1.070205
 21
2.572283
 31
0.000000
  0
TEXT
  8
LAYER-1
 62
  0
 10
0.028538
 20
2.461171
 30
0.000000
 40
0.083333
  1
(Open brick pattern)
 72
  5
 11
1.042427
 21
2.461171
 31
0.000000
  0
POLYLINE
  8
LAYER-1
 66
  1
 70
  0
 62
  7
 10
0.076152
 20
4.497770
 30
0.000000
  0
VERTEX
  8
LAYER-1
 10
0.076152
 20
4.497770
 30
0.000000
  0
VERTEX
  8
LAYER-1
 10
0.076152
 20
4.398015
 30
0.000000
  0
SEQEND
  8
LAYER-1
  0
POLYLINE
  8
LAYER-1
 66
  1
 70
  0
 62
  7
 10
0.088027
 20
4.497770
 30
0.000000
  0
VERTEX
  8
LAYER-1
 10
0.088027
 20
4.497770
 30
0.000000
  0
VERTEX
  8
LAYER-1
 10
0.088027
 20
4.398015
 30
0.000000
  0
SEQEND
  8
LAYER-1
  0
POLYLINE
  8
LAYER-1
 66
  1
 70
  0
 62
  7
 10
0.227494
 20
4.497770
 30
0.000000
  0
VERTEX
  8
LAYER-1
 10
0.227494
 20
4.497770
 30
0.000000
  0
VERTEX
  8
LAYER-1
 10
0.227494
 20
4.398015
 30
0.000000
  0
SEQEND
  8
LAYER-1
  0
POLYLINE
  8
LAYER-1
 66
  1
 70
  0
 62
  7
 10
0.239370
 20
4.497770
 30
0.000000
  0
VERTEX
  8
LAYER-1
 10
0.239370
 20
4.497770
 30
0.000000
  0
VERTEX
  8
LAYER-1
 10
0.239370
 20
4.398015
 30
0.000000
  0
SEQEND
  8
LAYER-1
  0
POLYLINE
  8
LAYER-1
 66
  1
 70
  0
 62
  7
 10
0.377254
 20
4.497770
 30
0.000000
  0
VERTEX
  8
LAYER-1
 10
0.377254
 20
4.497770
 30
0.000000
  0
VERTEX
  8
LAYER-1
 10
0.377254
 20
4.398015
 30
0.000000
  0
SEQEND
  8
LAYER-1
  0
POLYLINE
  8
LAYER-1
 66
  1
 70
  0
 62
  7
 10
0.389129
 20
4.497770
 30
0.000000
  0
VERTEX
  8
LAYER-1
 10
0.389129
 20
4.497770
 30
0.000000
  0
VERTEX
  8
LAYER-1
 10
0.389129
 20
4.398015
 30
0.000000
  0
SEQEND
  8
LAYER-1
  0
POLYLINE
  8
LAYER-1
 66
  1
 70
  0
 62
  7
 10
0.527804
 20
4.497770
 30
0.000000
  0
VERTEX
  8
LAYER-1
 10
0.527804
 20
4.497770
 30
0.000000
  0
VERTEX
  8
LAYER-1
 10
0.527804
 20
4.398015
 30
0.000000
  0
SEQEND
  8
LAYER-1
  0
POLYLINE
  8
LAYER-1
 66
  1
 70
  0
 62
  7
 10
0.539680
 20
4.497770
 30
0.000000
  0
VERTEX
  8
LAYER-1
 10
0.539680
 20
4.497770
 30
0.000000
  0
VERTEX
  8
LAYER-1
 10
0.539680
 20
4.398015
 30
0.000000
  0
SEQEND
  8
LAYER-1
  0
POLYLINE
  8
LAYER-1
 66
  1
 70
  0
 62
  7
 10
0.677564
 20
4.497770
 30
0.000000
  0
VERTEX
  8
LAYER-1
 10
0.677564
 20
4.497770
 30
0.000000
  0
VERTEX
  8
LAYER-1
 10
0.677564
 20
4.398015
 30
0.000000
  0
SEQEND
  8
LAYER-1
  0
POLYLINE
  8
LAYER-1
 66
  1
 70
  0
 62
  7
 10
0.689439
 20
4.497770
 30
0.000000
  0
VERTEX
  8
LAYER-1
 10
0.689439
 20
4.497770
 30
0.000000
  0
VERTEX
  8
LAYER-1
 10
0.689439
 20
4.398015
 30
0.000000
  0
SEQEND
  8
LAYER-1
  0
POLYLINE
  8
LAYER-1
 66
  1
 70
  0
 62
  7
 10
0.828115
 20
4.497770
 30
0.000000
  0
VERTEX
  8
LAYER-1
 10
0.828115
 20
4.497770
 30
0.000000
  0
VERTEX
  8
LAYER-1
 10
0.828115
 20
4.398015
 30
0.000000
  0
SEQEND
  8
LAYER-1
  0
POLYLINE
  8
LAYER-1
 66
  1
 70
  0
 62
  7
 10
0.839990
 20
4.497770
 30
0.000000
  0
VERTEX
  8
LAYER-1
 10
0.839990
 20
4.497770
 30
0.000000
  0
VERTEX
  8
LAYER-1
 10
0.839990
 20
4.398015
 30
0.000000
  0
SEQEND
  8
LAYER-1
  0
POLYLINE
  8
LAYER-1
 66
  1
 70
  0
 62
  7
 10
0.977874
 20
4.497770
 30
0.000000
  0
VERTEX
  8
LAYER-1
 10
0.977874
 20
4.497770
 30
0.000000
  0
VERTEX
  8
LAYER-1
 10
0.977874
 20
4.398015
 30
0.000000
  0
SEQEND
  8
LAYER-1
  0
POLYLINE
  8
LAYER-1
 66
  1
 70
  0
 62
  7
 10
0.989749
 20
4.497770
 30
0.000000
  0
VERTEX
  8
LAYER-1
 10
0.989749
 20
4.497770
 30
0.000000
  0
VERTEX
  8
LAYER-1
 10
0.989749
 20
4.398015
 30
0.000000
  0
SEQEND
  8
LAYER-1
  0
POLYLINE
  8
LAYER-1
 66
  1
 70
  0
 62
  7
 10
0.076943
 20
2.900103
 30
0.000000
  0
VERTEX
  8
LAYER-1
 10
0.076943
 20
2.900103
 30
0.000000
  0
VERTEX
  8
LAYER-1
 10
0.076943
 20
2.800346
 30
0.000000
  0
SEQEND
  8
LAYER-1
  0
POLYLINE
  8
LAYER-1
 66
  1
 70
  0
 62
  7
 10
0.088819
 20
2.900103
 30
0.000000
  0
VERTEX
  8
LAYER-1
 10
0.088819
 20
2.900103
 30
0.000000
  0
VERTEX
  8
LAYER-1
 10
0.088819
 20
2.800346
 30
0.000000
  0
SEQEND
  8
LAYER-1
  0
POLYLINE
  8
LAYER-1
 66
  1
 70
  0
 62
  7
 10
0.228286
 20
2.900103
 30
0.000000
  0
VERTEX
  8
LAYER-1
 10
0.228286
 20
2.900103
 30
0.000000
  0
VERTEX
  8
LAYER-1
 10
0.228286
 20
2.800346
 30
0.000000
  0
SEQEND
  8
LAYER-1
  0
POLYLINE
  8
LAYER-1
 66
  1
 70
  0
 62
  7
 10
0.240161
 20
2.900103
 30
0.000000
  0
VERTEX
  8
LAYER-1
 10
0.240161
 20
2.900103
 30
0.000000
  0
VERTEX
  8
LAYER-1
 10
0.240161
 20
2.800346
 30
0.000000
  0
SEQEND
  8
LAYER-1
  0
POLYLINE
  8
LAYER-1
 66
  1
 70
  0
 62
  7
 10
0.378045
 20
2.900103
 30
0.000000
  0
VERTEX
  8
LAYER-1
 10
0.378045
 20
2.900103
 30
0.000000
  0
VERTEX
  8
LAYER-1
 10
0.378045
 20
2.800346
 30
0.000000
  0
SEQEND
  8
LAYER-1
  0
POLYLINE
  8
LAYER-1
 66
  1
 70
  0
 62
  7
 10
0.389920
 20
2.900103
 30
0.000000
  0
VERTEX
  8
LAYER-1
 10
0.389920
 20
2.900103
 30
0.000000
  0
VERTEX
  8
LAYER-1
 10
0.389920
 20
2.800346
 30
0.000000
  0
SEQEND
  8
LAYER-1
  0
POLYLINE
  8
LAYER-1
 66
  1
 70
  0
 62
  7
 10
0.528596
 20
2.900103
 30
0.000000
  0
VERTEX
  8
LAYER-1
 10
0.528596
 20
2.900103
 30
0.000000
  0
VERTEX
  8
LAYER-1
 10
0.528596
 20
2.800346
 30
0.000000
  0
SEQEND
  8
LAYER-1
  0
POLYLINE
  8
LAYER-1
 66
  1
 70
  0
 62
  7
 10
0.540471
 20
2.900103
 30
0.000000
  0
VERTEX
  8
LAYER-1
 10
0.540471
 20
2.900103
 30
0.000000
  0
VERTEX
  8
LAYER-1
 10
0.540471
 20
2.800346
 30
0.000000
  0
SEQEND
  8
LAYER-1
  0
POLYLINE
  8
LAYER-1
 66
  1
 70
  0
 62
  7
 10
0.678355
 20
2.900103
 30
0.000000
  0
VERTEX
  8
LAYER-1
 10
0.678355
 20
2.900103
 30
0.000000
  0
VERTEX
  8
LAYER-1
 10
0.678355
 20
2.800346
 30
0.000000
  0
SEQEND
  8
LAYER-1
  0
POLYLINE
  8
LAYER-1
 66
  1
 70
  0
 62
  7
 10
0.690231
 20
2.900103
 30
0.000000
  0
VERTEX
  8
LAYER-1
 10
0.690231
 20
2.900103
 30
0.000000
  0
VERTEX
  8
LAYER-1
 10
0.690231
 20
2.800346
 30
0.000000
  0
SEQEND
  8
LAYER-1
  0
POLYLINE
  8
LAYER-1
 66
  1
 70
  0
 62
  7
 10
0.828906
 20
2.900103
 30
0.000000
  0
VERTEX
  8
LAYER-1
 10
0.828906
 20
2.900103
 30
0.000000
  0
VERTEX
  8
LAYER-1
 10
0.828906
 20
2.800346
 30
0.000000
  0
SEQEND
  8
LAYER-1
  0
POLYLINE
  8
LAYER-1
 66
  1
 70
  0
 62
  7
 10
0.840781
 20
2.900103
 30
0.000000
  0
VERTEX
  8
LAYER-1
 10
0.840781
 20
2.900103
 30
0.000000
  0
VERTEX
  8
LAYER-1
 10
0.840781
 20
2.800346
 30
0.000000
  0
SEQEND
  8
LAYER-1
  0
POLYLINE
  8
LAYER-1
 66
  1
 70
  0
 62
  7
 10
0.978665
 20
2.900103
 30
0.000000
  0
VERTEX
  8
LAYER-1
 10
0.978665
 20
2.900103
 30
0.000000
  0
VERTEX
  8
LAYER-1
 10
0.978665
 20
2.800346
 30
0.000000
  0
SEQEND
  8
LAYER-1
  0
POLYLINE
  8
LAYER-1
 66
  1
 70
  0
 62
  7
 10
0.990541
 20
2.900103
 30
0.000000
  0
VERTEX
  8
LAYER-1
 10
0.990541
 20
2.900103
 30
0.000000
  0
VERTEX
  8
LAYER-1
 10
0.990541
 20
2.800346
 30
0.000000
  0
SEQEND
  8
LAYER-1
  0
TEXT
  8
LAYER-1
 62
  0
 10
2.792427
 20
7.877838
 30
0.000000
 40
0.125000
  1
Intermediate
 72
  5
 11
3.820205
 21
7.877838
 31
0.000000
  0
TEXT
  8
LAYER-1
 62
  0
 10
2.792427
 20
7.683394
 30
0.000000
 40
0.125000
  1
post #3
 72
  5
 11
3.431316
 21
7.683394
 31
0.000000
  0
POLYLINE
  8
LAYER-1
 66
  1
 70
  0
 62
  0
 10
3.493816
 20
7.745894
 30
0.000000
  0
VERTEX
  8
LAYER-1
 10
3.493816
 20
7.745894
 30
0.000000
  0
VERTEX
  8
LAYER-1
 10
3.734893
 20
7.430798
 30
0.000000
  0
SEQEND
  8
LAYER-1
  0
POLYLINE
  8
LAYER-1
 66
  1
 70
  1
 62
  0
  0
VERTEX
  8
LAYER-1
 10
3.746854
 20
7.415165
 30
0.000000
  0
VERTEX
  8
LAYER-1
 10
3.671564
 20
7.444999
 30
0.000000
  0
VERTEX
  8
LAYER-1
 10
3.704656
 20
7.470318
 30
0.000000
  0
VERTEX
  8
LAYER-1
 10
3.737748
 20
7.495636
 30
0.000000
  0
VERTEX
  8
LAYER-1
 10
3.746854
 20
7.415165
 30
0.000000
  0
SEQEND
  8
LAYER-1
  0
TEXT
  8
LAYER-1
 62
  0
 10
1.070205
 20
7.072283
 30
0.000000
 40
0.125000
  1
Track
 72
  5
 11
1.556316
 21
7.072283
 31
0.000000
  0
CIRCLE
  8
LAYER-1
 62
  7
 10
3.744680
 20
3.180449
 30
0.000000
 40
0.047124
  0
CIRCLE
  8
LAYER-1
 62
  0
 10
3.744680
 20
3.180449
 30
0.000000
 40
0.042287
  0
CIRCLE
  8
LAYER-1
 62
  0
 10
3.744680
 20
3.163653
 30
0.000000
 40
0.018794
  0
CIRCLE
  8
LAYER-1
 62
  0
 10
3.744680
 20
3.155617
 30
0.000000
 40
0.008035
  0
TEXT
  8
LAYER-1
 62
  0
 10
3.709094
 20
3.183394
 30
0.000000
 40
0.010417
  1
MobilFlex
 72
  5
 11
3.861871
 21
3.183394
 31
0.000000
  0
POLYLINE
  8
LAYER-1
 66
  1
 70
  1
 62
  0
 10
3.741055
 20
3.145406
 30
0.000000
  0
VERTEX
  8
LAYER-1
 10
3.741055
 20
3.145406
 30
0.000000
  0
VERTEX
  8
LAYER-1
 10
3.741055
 20
3.154107
 30
0.000000
  0
VERTEX
  8
LAYER-1
 10
3.744438
 20
3.154107
 30
0.000000
  0
VERTEX
  8
LAYER-1
 10
3.744438
 20
3.157490
 30
0.000000
  0
VERTEX
  8
LAYER-1
 10
3.740814
 20
3.161115
 30
0.000000
  0
VERTEX
  8
LAYER-1
 10
3.740814
 20
3.163532
 30
0.000000
  0
VERTEX
  8
LAYER-1
 10
3.743231
 20
3.170781
 30
0.000000
  0
VERTEX
  8
LAYER-1
 10
3.746372
 20
3.170781
 30
0.000000
  0
VERTEX
  8
LAYER-1
 10
3.745647
 20
3.165465
 30
0.000000
  0
VERTEX
  8
LAYER-1
 10
3.745889
 20
3.163532
 30
0.000000
  0
VERTEX
  8
LAYER-1
 10
3.747339
 20
3.163532
 30
0.000000
  0
VERTEX
  8
LAYER-1
 10
3.747339
 20
3.151207
 30
0.000000
  0
VERTEX
  8
LAYER-1
 10
3.744680
 20
3.149998
 30
0.000000
  0
VERTEX
  8
LAYER-1
 10
3.744680
 20
3.147581
 30
0.000000
  0
VERTEX
  8
LAYER-1
 10
3.747339
 20
3.147098
 30
0.000000
  0
VERTEX
  8
LAYER-1
 10
3.747339
 20
3.145406
 30
0.000000
  0
SEQEND
  8
LAYER-1
  0
POLYLINE
  8
LAYER-1
 66
  1
 70
  1
 62
  0
  0
VERTEX
  8
LAYER-1
 10
4.040263
 20
7.143897
 30
0.000000
  0
VERTEX
  8
LAYER-1
 10
4.067173
 20
7.143897
 30
0.000000
  0
VERTEX
  8
LAYER-1
 10
4.067173
 20
0.616343
 30
0.000000
  0
VERTEX
  8
LAYER-1
 10
4.040263
 20
0.616343
 30
0.000000
  0
SEQEND
  8
LAYER-1
  0
POLYLINE
  8
LAYER-1
 66
  1
 70
  1
 62
  0
  0
VERTEX
  8
LAYER-1
 10
3.831496
 20
7.143823
 30
0.000000
  0
VERTEX
  8
LAYER-1
 10
3.867446
 20
7.143823
 30
0.000000
  0
VERTEX
  8
LAYER-1
 10
3.867446
 20
0.616541
 30
0.000000
  0
VERTEX
  8
LAYER-1
 10
3.831496
 20
0.616541
 30
0.000000
  0
SEQEND
  8
LAYER-1
  0
POLYLINE
  8
LAYER-1
 66
  1
 70
  1
 62
  0
  0
VERTEX
  8
LAYER-1
 10
4.447658
 20
7.143897
 30
0.000000
  0
VERTEX
  8
LAYER-1
 10
4.474567
 20
7.143897
 30
0.000000
  0
VERTEX
  8
LAYER-1
 10
4.474567
 20
0.616343
 30
0.000000
  0
VERTEX
  8
LAYER-1
 10
4.447658
 20
0.616343
 30
0.000000
  0
SEQEND
  8
LAYER-1
  0
POLYLINE
  8
LAYER-1
 66
  1
 70
  1
 62
  0
  0
VERTEX
  8
LAYER-1
 10
4.239760
 20
7.143823
 30
0.000000
  0
VERTEX
  8
LAYER-1
 10
4.275711
 20
7.143823
 30
0.000000
  0
VERTEX
  8
LAYER-1
 10
4.275711
 20
0.616541
 30
0.000000
  0
VERTEX
  8
LAYER-1
 10
4.239760
 20
0.616541
 30
0.000000
  0
SEQEND
  8
LAYER-1
  0
POLYLINE
  8
LAYER-1
 66
  1
 70
  1
 62
  0
  0
VERTEX
  8
LAYER-1
 10
4.854621
 20
7.143897
 30
0.000000
  0
VERTEX
  8
LAYER-1
 10
4.881531
 20
7.143897
 30
0.000000
  0
VERTEX
  8
LAYER-1
 10
4.881531
 20
0.616343
 30
0.000000
  0
VERTEX
  8
LAYER-1
 10
4.854621
 20
0.616343
 30
0.000000
  0
SEQEND
  8
LAYER-1
  0
POLYLINE
  8
LAYER-1
 66
  1
 70
  1
 62
  0
  0
VERTEX
  8
LAYER-1
 10
4.646288
 20
7.143823
 30
0.000000
  0
VERTEX
  8
LAYER-1
 10
4.682239
 20
7.143823
 30
0.000000
  0
VERTEX
  8
LAYER-1
 10
4.682239
 20
0.616541
 30
0.000000
  0
VERTEX
  8
LAYER-1
 10
4.646288
 20
0.616541
 30
0.000000
  0
SEQEND
  8
LAYER-1
  0
POLYLINE
  8
LAYER-1
 66
  1
 70
  1
 62
  0
  0
VERTEX
  8
LAYER-1
 10
5.264188
 20
7.143897
 30
0.000000
  0
VERTEX
  8
LAYER-1
 10
5.291097
 20
7.143897
 30
0.000000
  0
VERTEX
  8
LAYER-1
 10
5.291097
 20
0.616343
 30
0.000000
  0
VERTEX
  8
LAYER-1
 10
5.264188
 20
0.616343
 30
0.000000
  0
SEQEND
  8
LAYER-1
  0
POLYLINE
  8
LAYER-1
 66
  1
 70
  1
 62
  0
  0
VERTEX
  8
LAYER-1
 10
5.054552
 20
7.143823
 30
0.000000
  0
VERTEX
  8
LAYER-1
 10
5.090503
 20
7.143823
 30
0.000000
  0
VERTEX
  8
LAYER-1
 10
5.090503
 20
0.616541
 30
0.000000
  0
VERTEX
  8
LAYER-1
 10
5.054552
 20
0.616541
 30
0.000000
  0
SEQEND
  8
LAYER-1
  0
POLYLINE
  8
LAYER-1
 66
  1
 70
  1
 62
  0
  0
VERTEX
  8
LAYER-1
 10
5.675054
 20
7.143897
 30
0.000000
  0
VERTEX
  8
LAYER-1
 10
5.701964
 20
7.143897
 30
0.000000
  0
VERTEX
  8
LAYER-1
 10
5.701964
 20
0.616343
 30
0.000000
  0
VERTEX
  8
LAYER-1
 10
5.675054
 20
0.616343
 30
0.000000
  0
SEQEND
  8
LAYER-1
  0
POLYLINE
  8
LAYER-1
 66
  1
 70
  1
 62
  0
  0
VERTEX
  8
LAYER-1
 10
5.464119
 20
7.143823
 30
0.000000
  0
VERTEX
  8
LAYER-1
 10
5.500069
 20
7.143823
 30
0.000000
  0
VERTEX
  8
LAYER-1
 10
5.500069
 20
0.616541
 30
0.000000
  0
VERTEX
  8
LAYER-1
 10
5.464119
 20
0.616541
 30
0.000000
  0
SEQEND
  8
LAYER-1
  0
POLYLINE
  8
LAYER-1
 66
  1
 70
  1
 62
  0
 10
3.828929
 20
0.344876
 30
0.000000
  0
VERTEX
  8
LAYER-1
 10
3.828929
 20
0.344876
 30
0.000000
  0
VERTEX
  8
LAYER-1
 10
5.724847
 20
0.344977
 30
0.000000
  0
VERTEX
  8
LAYER-1
 10
5.724847
 20
0.616510
 30
0.000000
  0
VERTEX
  8
LAYER-1
 10
3.828929
 20
0.616627
 30
0.000000
  0
SEQEND
  8
LAYER-1
  0
POLYLINE
  8
LAYER-1
 66
  1
 70
  0
 62
  0
 10
3.828711
 20
0.412783
 30
0.000000
  0
VERTEX
  8
LAYER-1
 10
3.828711
 20
0.412783
 30
0.000000
  0
VERTEX
  8
LAYER-1
 10
3.868437
 20
0.412783
 30
0.000000
  0
SEQEND
  8
LAYER-1
  0
POLYLINE
  8
LAYER-1
 66
  1
 70
  0
 62
  0
 10
3.828711
 20
0.542693
 30
0.000000
  0
VERTEX
  8
LAYER-1
 10
3.828711
 20
0.542693
 30
0.000000
  0
VERTEX
  8
LAYER-1
 10
3.868437
 20
0.542693
 30
0.000000
  0
SEQEND
  8
LAYER-1
  0
POLYLINE
  8
LAYER-1
 66
  1
 70
  0
 62
  0
 10
3.830162
 20
0.339730
 30
0.000000
  0
VERTEX
  8
LAYER-1
 10
3.830162
 20
0.339730
 30
0.000000
  0
VERTEX
  8
LAYER-1
 10
3.843333
 20
0.332686
 30
0.000000
  0
VERTEX
  8
LAYER-1
 10
3.860413
 20
0.337017
 30
0.000000
  0
VERTEX
  8
LAYER-1
 10
3.867066
 20
0.339732
 30
0.000000
  0
SEQEND
  8
LAYER-1
  0
POLYLINE
  8
LAYER-1
 66
  1
 70
  1
 62
  0
  0
VERTEX
  8
LAYER-1
 10
3.877574
 20
0.339109
 30
0.000000
  0
VERTEX
  8
LAYER-1
 10
3.822959
 20
0.339109
 30
0.000000
  0
VERTEX
  8
LAYER-1
 10
3.822959
 20
0.345015
 30
0.000000
  0
VERTEX
  8
LAYER-1
 10
3.877574
 20
0.345015
 30
0.000000
  0
SEQEND
  8
LAYER-1
  0
POLYLINE
  8
LAYER-1
 66
  1
 70
  1
 62
  0
 10
3.829136
 20
7.415443
 30
0.000000
  0
VERTEX
  8
LAYER-1
 10
3.829136
 20
7.415443
 30
0.000000
  0
VERTEX
  8
LAYER-1
 10
5.725488
 20
7.415343
 30
0.000000
  0
VERTEX
  8
LAYER-1
 10
5.725488
 20
7.143810
 30
0.000000
  0
VERTEX
  8
LAYER-1
 10
3.829136
 20
7.143693
 30
0.000000
  0
SEQEND
  8
LAYER-1
  0
POLYLINE
  8
LAYER-1
 66
  1
 70
  0
 62
  0
 10
4.090425
 20
7.415443
 30
0.000000
  0
VERTEX
  8
LAYER-1
 10
4.090425
 20
7.415443
 30
0.000000
  0
VERTEX
  8
LAYER-1
 10
4.090425
 20
7.143812
 30
0.000000
  0
SEQEND
  8
LAYER-1
  0
POLYLINE
  8
LAYER-1
 66
  1
 70
  0
 62
  0
 10
4.420922
 20
7.143812
 30
0.000000
  0
VERTEX
  8
LAYER-1
 10
4.420922
 20
7.143812
 30
0.000000
  0
VERTEX
  8
LAYER-1
 10
4.420922
 20
7.415443
 30
0.000000
  0
SEQEND
  8
LAYER-1
  0
POLYLINE
  8
LAYER-1
 66
  1
 70
  0
 62
  0
 10
5.233754
 20
7.143812
 30
0.000000
  0
VERTEX
  8
LAYER-1
 10
5.233754
 20
7.143812
 30
0.000000
  0
VERTEX
  8
LAYER-1
 10
5.233754
 20
7.415443
 30
0.000000
  0
SEQEND
  8
LAYER-1
  0
POLYLINE
  8
LAYER-1
 66
  1
 70
  0
 62
  0
 10
5.052586
 20
7.415482
 30
0.000000
  0
VERTEX
  8
LAYER-1
 10
5.052586
 20
7.415482
 30
0.000000
  0
VERTEX
  8
LAYER-1
 10
5.052586
 20
7.143854
 30
0.000000
  0
SEQEND
  8
LAYER-1
  0
POLYLINE
  8
LAYER-1
 66
  1
 70
  0
 62
  0
 10
5.092445
 20
7.415482
 30
0.000000
  0
VERTEX
  8
LAYER-1
 10
5.092445
 20
7.415482
 30
0.000000
  0
VERTEX
  8
LAYER-1
 10
5.092445
 20
7.143854
 30
0.000000
  0
SEQEND
  8
LAYER-1
  0
POLYLINE
  8
LAYER-1
 66
  1
 70
  0
 62
  0
 10
4.238568
 20
7.415482
 30
0.000000
  0
VERTEX
  8
LAYER-1
 10
4.238568
 20
7.415482
 30
0.000000
  0
VERTEX
  8
LAYER-1
 10
4.238568
 20
7.143854
 30
0.000000
  0
SEQEND
  8
LAYER-1
  0
POLYLINE
  8
LAYER-1
 66
  1
 70
  0
 62
  0
 10
4.277384
 20
7.415482
 30
0.000000
  0
VERTEX
  8
LAYER-1
 10
4.277384
 20
7.415482
 30
0.000000
  0
VERTEX
  8
LAYER-1
 10
4.277384
 20
7.143854
 30
0.000000
  0
SEQEND
  8
LAYER-1
  0
POLYLINE
  8
LAYER-1
 66
  1
 70
  0
 62
  0
 10
4.505244
 20
7.415443
 30
0.000000
  0
VERTEX
  8
LAYER-1
 10
4.505244
 20
7.415443
 30
0.000000
  0
VERTEX
  8
LAYER-1
 10
4.505244
 20
7.143812
 30
0.000000
  0
SEQEND
  8
LAYER-1
  0
POLYLINE
  8
LAYER-1
 66
  1
 70
  0
 62
  0
 10
5.318075
 20
7.415443
 30
0.000000
  0
VERTEX
  8
LAYER-1
 10
5.318075
 20
7.415443
 30
0.000000
  0
VERTEX
  8
LAYER-1
 10
5.318075
 20
7.143812
 30
0.000000
  0
SEQEND
  8
LAYER-1
  0
POLYLINE
  8
LAYER-1
 66
  1
 70
  0
 62
  0
 10
5.462980
 20
7.415049
 30
0.000000
  0
VERTEX
  8
LAYER-1
 10
5.462980
 20
7.415049
 30
0.000000
  0
VERTEX
  8
LAYER-1
 10
5.462980
 20
7.143420
 30
0.000000
  0
SEQEND
  8
LAYER-1
  0
POLYLINE
  8
LAYER-1
 66
  1
 70
  0
 62
  0
 10
5.501362
 20
7.415049
 30
0.000000
  0
VERTEX
  8
LAYER-1
 10
5.501362
 20
7.415049
 30
0.000000
  0
VERTEX
  8
LAYER-1
 10
5.501362
 20
7.143420
 30
0.000000
  0
SEQEND
  8
LAYER-1
  0
POLYLINE
  8
LAYER-1
 66
  1
 70
  0
 62
  0
 10
4.645142
 20
7.415518
 30
0.000000
  0
VERTEX
  8
LAYER-1
 10
4.645142
 20
7.415518
 30
0.000000
  0
VERTEX
  8
LAYER-1
 10
4.645142
 20
7.143890
 30
0.000000
  0
SEQEND
  8
LAYER-1
  0
POLYLINE
  8
LAYER-1
 66
  1
 70
  0
 62
  0
 10
4.683525
 20
7.415518
 30
0.000000
  0
VERTEX
  8
LAYER-1
 10
4.683525
 20
7.415518
 30
0.000000
  0
VERTEX
  8
LAYER-1
 10
4.683525
 20
7.143890
 30
0.000000
  0
SEQEND
  8
LAYER-1
  0
POLYLINE
  8
LAYER-1
 66
  1
 70
  0
 62
  0
 10
4.018092
 20
7.143815
 30
0.000000
  0
VERTEX
  8
LAYER-1
 10
4.018092
 20
7.143815
 30
0.000000
  0
VERTEX
  8
LAYER-1
 10
4.018092
 20
7.415444
 30
0.000000
  0
SEQEND
  8
LAYER-1
  0
POLYLINE
  8
LAYER-1
 66
  1
 70
  0
 62
  0
 10
4.053522
 20
7.415444
 30
0.000000
  0
VERTEX
  8
LAYER-1
 10
4.053522
 20
7.415444
 30
0.000000
  0
VERTEX
  8
LAYER-1
 10
4.053522
 20
7.143813
 30
0.000000
  0
SEQEND
  8
LAYER-1
  0
POLYLINE
  8
LAYER-1
 66
  1
 70
  0
 62
  0
 10
4.052551
 20
7.415455
 30
0.000000
  0
VERTEX
  8
LAYER-1
 10
4.052551
 20
7.415455
 30
0.000000
  0
VERTEX
  8
LAYER-1
 10
4.038669
 20
7.426386
 30
0.000000
  0
VERTEX
  8
LAYER-1
 10
4.023907
 20
7.424297
 30
0.000000
  0
VERTEX
  8
LAYER-1
 10
4.018996
 20
7.415444
 30
0.000000
  0
SEQEND
  8
LAYER-1
  0
POLYLINE
  8
LAYER-1
 66
  1
 70
  0
 62
  0
 10
4.090424
 20
7.415443
 30
0.000000
  0
VERTEX
  8
LAYER-1
 10
4.090424
 20
7.415443
 30
0.000000
  0
VERTEX
  8
LAYER-1
 10
4.073318
 20
7.426427
 30
0.000000
  0
VERTEX
  8
LAYER-1
 10
4.056237
 20
7.422097
 30
0.000000
  0
VERTEX
  8
LAYER-1
 10
4.053522
 20
7.415444
 30
0.000000
  0
SEQEND
  8
LAYER-1
  0
POLYLINE
  8
LAYER-1
 66
  1
 70
  0
 62
  0
 10
4.505984
 20
7.414950
 30
0.000000
  0
VERTEX
  8
LAYER-1
 10
4.505984
 20
7.414950
 30
0.000000
  0
VERTEX
  8
LAYER-1
 10
4.486479
 20
7.424942
 30
0.000000
  0
VERTEX
  8
LAYER-1
 10
4.468406
 20
7.418217
 30
0.000000
  0
VERTEX
  8
LAYER-1
 10
4.469076
 20
7.414950
 30
0.000000
  0
SEQEND
  8
LAYER-1
  0
POLYLINE
  8
LAYER-1
 66
  1
 70
  0
 62
  0
 10
5.318942
 20
7.415420
 30
0.000000
  0
VERTEX
  8
LAYER-1
 10
5.318942
 20
7.415420
 30
0.000000
  0
VERTEX
  8
LAYER-1
 10
5.299438
 20
7.425412
 30
0.000000
  0
VERTEX
  8
LAYER-1
 10
5.281364
 20
7.418687
 30
0.000000
  0
VERTEX
  8
LAYER-1
 10
5.282034
 20
7.415421
 30
0.000000
  0
SEQEND
  8
LAYER-1
  0
POLYLINE
  8
LAYER-1
 66
  1
 70
  0
 62
  0
 10
4.458274
 20
7.414950
 30
0.000000
  0
VERTEX
  8
LAYER-1
 10
4.458274
 20
7.414950
 30
0.000000
  0
VERTEX
  8
LAYER-1
 10
4.438770
 20
7.424943
 30
0.000000
  0
VERTEX
  8
LAYER-1
 10
4.420697
 20
7.418218
 30
0.000000
  0
VERTEX
  8
LAYER-1
 10
4.421367
 20
7.414951
 30
0.000000
  0
SEQEND
  8
LAYER-1
  0
POLYLINE
  8
LAYER-1
 66
  1
 70
  0
 62
  0
 10
4.478738
 20
7.415510
 30
0.000000
  0
VERTEX
  8
LAYER-1
 10
4.478738
 20
7.415510
 30
0.000000
  0
VERTEX
  8
LAYER-1
 10
4.467986
 20
7.428515
 30
0.000000
  0
VERTEX
  8
LAYER-1
 10
4.453971
 20
7.430108
 30
0.000000
  0
VERTEX
  8
LAYER-1
 10
4.442934
 20
7.421325
 30
0.000000
  0
VERTEX
  8
LAYER-1
 10
4.443309
 20
7.415510
 30
0.000000
  0
SEQEND
  8
LAYER-1
  0
POLYLINE
  8
LAYER-1
 66
  1
 70
  0
 62
  0
 10
4.443309
 20
7.415510
 30
0.000000
  0
VERTEX
  8
LAYER-1
 10
4.443309
 20
7.415510
 30
0.000000
  0
VERTEX
  8
LAYER-1
 10
4.478738
 20
7.415510
 30
0.000000
  0
SEQEND
  8
LAYER-1
  0
POLYLINE
  8
LAYER-1
 66
  1
 70
  0
 62
  0
 10
5.270292
 20
7.415420
 30
0.000000
  0
VERTEX
  8
LAYER-1
 10
5.270292
 20
7.415420
 30
0.000000
  0
VERTEX
  8
LAYER-1
 10
5.250787
 20
7.425412
 30
0.000000
  0
VERTEX
  8
LAYER-1
 10
5.232713
 20
7.418687
 30
0.000000
  0
VERTEX
  8
LAYER-1
 10
5.233384
 20
7.415421
 30
0.000000
  0
SEQEND
  8
LAYER-1
  0
POLYLINE
  8
LAYER-1
 66
  1
 70
  0
 62
  0
 10
5.294985
 20
7.415510
 30
0.000000
  0
VERTEX
  8
LAYER-1
 10
5.294985
 20
7.415510
 30
0.000000
  0
VERTEX
  8
LAYER-1
 10
5.284233
 20
7.428515
 30
0.000000
  0
VERTEX
  8
LAYER-1
 10
5.270218
 20
7.430108
 30
0.000000
  0
VERTEX
  8
LAYER-1
 10
5.259181
 20
7.421325
 30
0.000000
  0
VERTEX
  8
LAYER-1
 10
5.259556
 20
7.415510
 30
0.000000
  0
SEQEND
  8
LAYER-1
  0
POLYLINE
  8
LAYER-1
 66
  1
 70
  0
 62
  0
 10
5.259557
 20
7.415510
 30
0.000000
  0
VERTEX
  8
LAYER-1
 10
5.259557
 20
7.415510
 30
0.000000
  0
VERTEX
  8
LAYER-1
 10
5.294985
 20
7.415510
 30
0.000000
  0
SEQEND
  8
LAYER-1
  0
POLYLINE
  8
LAYER-1
 66
  1
 70
  0
 62
  0
 10
4.019026
 20
7.143788
 30
0.000000
  0
VERTEX
  8
LAYER-1
 10
4.019026
 20
7.143788
 30
0.000000
  0
VERTEX
  8
LAYER-1
 10
4.028966
 20
7.136787
 30
0.000000
  0
VERTEX
  8
LAYER-1
 10
4.043729
 20
7.138865
 30
0.000000
  0
VERTEX
  8
LAYER-1
 10
4.052245
 20
7.143227
 30
0.000000
  0
SEQEND
  8
LAYER-1
  0
POLYLINE
  8
LAYER-1
 66
  1
 70
  0
 62
  0
 10
4.052245
 20
7.143227
 30
0.000000
  0
VERTEX
  8
LAYER-1
 10
4.052245
 20
7.143227
 30
0.000000
  0
VERTEX
  8
LAYER-1
 10
4.019026
 20
7.143788
 30
0.000000
  0
SEQEND
  8
LAYER-1
  0
POLYLINE
  8
LAYER-1
 66
  1
 70
  0
 62
  0
 10
4.054454
 20
7.143788
 30
0.000000
  0
VERTEX
  8
LAYER-1
 10
4.054454
 20
7.143788
 30
0.000000
  0
VERTEX
  8
LAYER-1
 10
4.067625
 20
7.136742
 30
0.000000
  0
VERTEX
  8
LAYER-1
 10
4.084705
 20
7.141073
 30
0.000000
  0
VERTEX
  8
LAYER-1
 10
4.091357
 20
7.143789
 30
0.000000
  0
SEQEND
  8
LAYER-1
  0
POLYLINE
  8
LAYER-1
 66
  1
 70
  0
 62
  0
 10
4.091356
 20
7.143789
 30
0.000000
  0
VERTEX
  8
LAYER-1
 10
4.091356
 20
7.143789
 30
0.000000
  0
VERTEX
  8
LAYER-1
 10
4.054455
 20
7.143788
 30
0.000000
  0
SEQEND
  8
LAYER-1
  0
POLYLINE
  8
LAYER-1
 66
  1
 70
  0
 62
  0
 10
4.421293
 20
7.143342
 30
0.000000
  0
VERTEX
  8
LAYER-1
 10
4.421293
 20
7.143342
 30
0.000000
  0
VERTEX
  8
LAYER-1
 10
4.436860
 20
7.137287
 30
0.000000
  0
VERTEX
  8
LAYER-1
 10
4.454934
 20
7.144012
 30
0.000000
  0
VERTEX
  8
LAYER-1
 10
4.458200
 20
7.143343
 30
0.000000
  0
SEQEND
  8
LAYER-1
  0
POLYLINE
  8
LAYER-1
 66
  1
 70
  0
 62
  0
 10
4.468533
 20
7.143342
 30
0.000000
  0
VERTEX
  8
LAYER-1
 10
4.468533
 20
7.143342
 30
0.000000
  0
VERTEX
  8
LAYER-1
 10
4.484100
 20
7.137287
 30
0.000000
  0
VERTEX
  8
LAYER-1
 10
4.502174
 20
7.144012
 30
0.000000
  0
VERTEX
  8
LAYER-1
 10
4.505441
 20
7.143343
 30
0.000000
  0
SEQEND
  8
LAYER-1
  0
POLYLINE
  8
LAYER-1
 66
  1
 70
  0
 62
  0
 10
4.442766
 20
7.143253
 30
0.000000
  0
VERTEX
  8
LAYER-1
 10
4.442766
 20
7.143253
 30
0.000000
  0
VERTEX
  8
LAYER-1
 10
4.449582
 20
7.134184
 30
0.000000
  0
VERTEX
  8
LAYER-1
 10
4.463596
 20
7.132590
 30
0.000000
  0
VERTEX
  8
LAYER-1
 10
4.474633
 20
7.141374
 30
0.000000
  0
VERTEX
  8
LAYER-1
 10
4.478196
 20
7.143253
 30
0.000000
  0
SEQEND
  8
LAYER-1
  0
POLYLINE
  8
LAYER-1
 66
  1
 70
  0
 62
  0
 10
4.442767
 20
7.143253
 30
0.000000
  0
VERTEX
  8
LAYER-1
 10
4.442767
 20
7.143253
 30
0.000000
  0
VERTEX
  8
LAYER-1
 10
4.478196
 20
7.143253
 30
0.000000
  0
SEQEND
  8
LAYER-1
  0
POLYLINE
  8
LAYER-1
 66
  1
 70
  0
 62
  0
 10
5.233848
 20
7.143342
 30
0.000000
  0
VERTEX
  8
LAYER-1
 10
5.233848
 20
7.143342
 30
0.000000
  0
VERTEX
  8
LAYER-1
 10
5.249415
 20
7.137287
 30
0.000000
  0
VERTEX
  8
LAYER-1
 10
5.267488
 20
7.144012
 30
0.000000
  0
VERTEX
  8
LAYER-1
 10
5.270755
 20
7.143343
 30
0.000000
  0
SEQEND
  8
LAYER-1
  0
POLYLINE
  8
LAYER-1
 66
  1
 70
  0
 62
  0
 10
5.282027
 20
7.143342
 30
0.000000
  0
VERTEX
  8
LAYER-1
 10
5.282027
 20
7.143342
 30
0.000000
  0
VERTEX
  8
LAYER-1
 10
5.297594
 20
7.137287
 30
0.000000
  0
VERTEX
  8
LAYER-1
 10
5.315668
 20
7.144012
 30
0.000000
  0
VERTEX
  8
LAYER-1
 10
5.318935
 20
7.143343
 30
0.000000
  0
SEQEND
  8
LAYER-1
  0
POLYLINE
  8
LAYER-1
 66
  1
 70
  0
 62
  0
 10
5.259550
 20
7.143253
 30
0.000000
  0
VERTEX
  8
LAYER-1
 10
5.259550
 20
7.143253
 30
0.000000
  0
VERTEX
  8
LAYER-1
 10
5.266365
 20
7.134184
 30
0.000000
  0
VERTEX
  8
LAYER-1
 10
5.280380
 20
7.132590
 30
0.000000
  0
VERTEX
  8
LAYER-1
 10
5.291417
 20
7.141374
 30
0.000000
  0
VERTEX
  8
LAYER-1
 10
5.294979
 20
7.143253
 30
0.000000
  0
SEQEND
  8
LAYER-1
  0
POLYLINE
  8
LAYER-1
 66
  1
 70
  0
 62
  0
 10
5.259550
 20
7.143253
 30
0.000000
  0
VERTEX
  8
LAYER-1
 10
5.259550
 20
7.143253
 30
0.000000
  0
VERTEX
  8
LAYER-1
 10
5.294979
 20
7.143253
 30
0.000000
  0
SEQEND
  8
LAYER-1
  0
POLYLINE
  8
LAYER-1
 66
  1
 70
  1
 62
  0
  0
VERTEX
  8
LAYER-1
 10
4.443309
 20
7.415443
 30
0.000000
  0
VERTEX
  8
LAYER-1
 10
4.478739
 20
7.415443
 30
0.000000
  0
VERTEX
  8
LAYER-1
 10
4.478739
 20
7.143814
 30
0.000000
  0
VERTEX
  8
LAYER-1
 10
4.443309
 20
7.143814
 30
0.000000
  0
SEQEND
  8
LAYER-1
  0
POLYLINE
  8
LAYER-1
 66
  1
 70
  1
 62
  0
  0
VERTEX
  8
LAYER-1
 10
5.259623
 20
7.415443
 30
0.000000
  0
VERTEX
  8
LAYER-1
 10
5.295053
 20
7.415443
 30
0.000000
  0
VERTEX
  8
LAYER-1
 10
5.295053
 20
7.143814
 30
0.000000
  0
VERTEX
  8
LAYER-1
 10
5.259623
 20
7.143814
 30
0.000000
  0
SEQEND
  8
LAYER-1
  0
POLYLINE
  8
LAYER-1
 66
  1
 70
  0
 62
  0
 10
4.443309
 20
7.347536
 30
0.000000
  0
VERTEX
  8
LAYER-1
 10
4.443309
 20
7.347536
 30
0.000000
  0
VERTEX
  8
LAYER-1
 10
4.478739
 20
7.347536
 30
0.000000
  0
SEQEND
  8
LAYER-1
  0
POLYLINE
  8
LAYER-1
 66
  1
 70
  0
 62
  0
 10
4.443309
 20
7.217627
 30
0.000000
  0
VERTEX
  8
LAYER-1
 10
4.443309
 20
7.217627
 30
0.000000
  0
VERTEX
  8
LAYER-1
 10
4.478739
 20
7.217627
 30
0.000000
  0
SEQEND
  8
LAYER-1
  0
POLYLINE
  8
LAYER-1
 66
  1
 70
  0
 62
  0
 10
5.259623
 20
7.347536
 30
0.000000
  0
VERTEX
  8
LAYER-1
 10
5.259623
 20
7.347536
 30
0.000000
  0
VERTEX
  8
LAYER-1
 10
5.295052
 20
7.347536
 30
0.000000
  0
SEQEND
  8
LAYER-1
  0
POLYLINE
  8
LAYER-1
 66
  1
 70
  0
 62
  0
 10
5.259623
 20
7.217626
 30
0.000000
  0
VERTEX
  8
LAYER-1
 10
5.259623
 20
7.217626
 30
0.000000
  0
VERTEX
  8
LAYER-1
 10
5.295052
 20
7.217626
 30
0.000000
  0
SEQEND
  8
LAYER-1
  0
POLYLINE
  8
LAYER-1
 66
  1
 70
  0
 62
  0
 10
4.274197
 20
7.415560
 30
0.000000
  0
VERTEX
  8
LAYER-1
 10
4.274197
 20
7.415560
 30
0.000000
  0
VERTEX
  8
LAYER-1
 10
4.260024
 20
7.426092
 30
0.000000
  0
VERTEX
  8
LAYER-1
 10
4.245340
 20
7.423516
 30
0.000000
  0
VERTEX
  8
LAYER-1
 10
4.240977
 20
7.415000
 30
0.000000
  0
SEQEND
  8
LAYER-1
  0
POLYLINE
  8
LAYER-1
 66
  1
 70
  0
 62
  0
 10
5.091375
 20
7.415382
 30
0.000000
  0
VERTEX
  8
LAYER-1
 10
5.091375
 20
7.415382
 30
0.000000
  0
VERTEX
  8
LAYER-1
 10
5.074267
 20
7.426364
 30
0.000000
  0
VERTEX
  8
LAYER-1
 10
5.057187
 20
7.422034
 30
0.000000
  0
VERTEX
  8
LAYER-1
 10
5.054472
 20
7.415382
 30
0.000000
  0
SEQEND
  8
LAYER-1
  0
POLYLINE
  8
LAYER-1
 66
  1
 70
  0
 62
  0
 10
4.834056
 20
7.143785
 30
0.000000
  0
VERTEX
  8
LAYER-1
 10
4.834056
 20
7.143785
 30
0.000000
  0
VERTEX
  8
LAYER-1
 10
4.843996
 20
7.136785
 30
0.000000
  0
VERTEX
  8
LAYER-1
 10
4.858759
 20
7.138863
 30
0.000000
  0
VERTEX
  8
LAYER-1
 10
4.867275
 20
7.143226
 30
0.000000
  0
SEQEND
  8
LAYER-1
  0
POLYLINE
  8
LAYER-1
 66
  1
 70
  0
 62
  0
 10
4.867275
 20
7.143226
 30
0.000000
  0
VERTEX
  8
LAYER-1
 10
4.867275
 20
7.143226
 30
0.000000
  0
VERTEX
  8
LAYER-1
 10
4.834056
 20
7.143785
 30
0.000000
  0
SEQEND
  8
LAYER-1
  0
POLYLINE
  8
LAYER-1
 66
  1
 70
  0
 62
  0
 10
4.869485
 20
7.143785
 30
0.000000
  0
VERTEX
  8
LAYER-1
 10
4.869485
 20
7.143785
 30
0.000000
  0
VERTEX
  8
LAYER-1
 10
4.882656
 20
7.136739
 30
0.000000
  0
VERTEX
  8
LAYER-1
 10
4.899736
 20
7.141071
 30
0.000000
  0
VERTEX
  8
LAYER-1
 10
4.906388
 20
7.143786
 30
0.000000
  0
SEQEND
  8
LAYER-1
  0
POLYLINE
  8
LAYER-1
 66
  1
 70
  0
 62
  0
 10
4.906388
 20
7.143786
 30
0.000000
  0
VERTEX
  8
LAYER-1
 10
4.906388
 20
7.143786
 30
0.000000
  0
VERTEX
  8
LAYER-1
 10
4.869485
 20
7.143785
 30
0.000000
  0
SEQEND
  8
LAYER-1
  0
POLYLINE
  8
LAYER-1
 66
  1
 70
  0
 62
  0
 10
4.905217
 20
7.415443
 30
0.000000
  0
VERTEX
  8
LAYER-1
 10
4.905217
 20
7.415443
 30
0.000000
  0
VERTEX
  8
LAYER-1
 10
4.905217
 20
7.143812
 30
0.000000
  0
SEQEND
  8
LAYER-1
  0
POLYLINE
  8
LAYER-1
 66
  1
 70
  0
 62
  0
 10
4.832883
 20
7.143815
 30
0.000000
  0
VERTEX
  8
LAYER-1
 10
4.832883
 20
7.143815
 30
0.000000
  0
VERTEX
  8
LAYER-1
 10
4.832883
 20
7.415444
 30
0.000000
  0
SEQEND
  8
LAYER-1
  0
POLYLINE
  8
LAYER-1
 66
  1
 70
  0
 62
  0
 10
4.868312
 20
7.415444
 30
0.000000
  0
VERTEX
  8
LAYER-1
 10
4.868312
 20
7.415444
 30
0.000000
  0
VERTEX
  8
LAYER-1
 10
4.868312
 20
7.143813
 30
0.000000
  0
SEQEND
  8
LAYER-1
  0
POLYLINE
  8
LAYER-1
 66
  1
 70
  0
 62
  0
 10
4.866407
 20
7.415863
 30
0.000000
  0
VERTEX
  8
LAYER-1
 10
4.866407
 20
7.415863
 30
0.000000
  0
VERTEX
  8
LAYER-1
 10
4.852234
 20
7.426394
 30
0.000000
  0
VERTEX
  8
LAYER-1
 10
4.837550
 20
7.423819
 30
0.000000
  0
VERTEX
  8
LAYER-1
 10
4.833188
 20
7.415303
 30
0.000000
  0
SEQEND
  8
LAYER-1
  0
POLYLINE
  8
LAYER-1
 66
  1
 70
  0
 62
  0
 10
4.866406
 20
7.415863
 30
0.000000
  0
VERTEX
  8
LAYER-1
 10
4.866406
 20
7.415863
 30
0.000000
  0
VERTEX
  8
LAYER-1
 10
4.833188
 20
7.415303
 30
0.000000
  0
SEQEND
  8
LAYER-1
  0
POLYLINE
  8
LAYER-1
 66
  1
 70
  0
 62
  0
 10
4.905519
 20
7.415302
 30
0.000000
  0
VERTEX
  8
LAYER-1
 10
4.905519
 20
7.415302
 30
0.000000
  0
VERTEX
  8
LAYER-1
 10
4.888411
 20
7.426285
 30
0.000000
  0
VERTEX
  8
LAYER-1
 10
4.871331
 20
7.421955
 30
0.000000
  0
VERTEX
  8
LAYER-1
 10
4.868616
 20
7.415303
 30
0.000000
  0
SEQEND
  8
LAYER-1
  0
POLYLINE
  8
LAYER-1
 66
  1
 70
  0
 62
  0
 10
4.905519
 20
7.415302
 30
0.000000
  0
VERTEX
  8
LAYER-1
 10
4.905519
 20
7.415302
 30
0.000000
  0
VERTEX
  8
LAYER-1
 10
4.868616
 20
7.415303
 30
0.000000
  0
SEQEND
  8
LAYER-1
  0
POLYLINE
  8
LAYER-1
 66
  1
 70
  0
 62
  0
 10
5.654056
 20
7.143785
 30
0.000000
  0
VERTEX
  8
LAYER-1
 10
5.654056
 20
7.143785
 30
0.000000
  0
VERTEX
  8
LAYER-1
 10
5.663996
 20
7.136785
 30
0.000000
  0
VERTEX
  8
LAYER-1
 10
5.678759
 20
7.138863
 30
0.000000
  0
VERTEX
  8
LAYER-1
 10
5.687275
 20
7.143226
 30
0.000000
  0
SEQEND
  8
LAYER-1
  0
POLYLINE
  8
LAYER-1
 66
  1
 70
  0
 62
  0
 10
5.687275
 20
7.143226
 30
0.000000
  0
VERTEX
  8
LAYER-1
 10
5.687275
 20
7.143226
 30
0.000000
  0
VERTEX
  8
LAYER-1
 10
5.654056
 20
7.143785
 30
0.000000
  0
SEQEND
  8
LAYER-1
  0
POLYLINE
  8
LAYER-1
 66
  1
 70
  0
 62
  0
 10
5.689485
 20
7.143785
 30
0.000000
  0
VERTEX
  8
LAYER-1
 10
5.689485
 20
7.143785
 30
0.000000
  0
VERTEX
  8
LAYER-1
 10
5.702656
 20
7.136739
 30
0.000000
  0
VERTEX
  8
LAYER-1
 10
5.719736
 20
7.141071
 30
0.000000
  0
VERTEX
  8
LAYER-1
 10
5.726388
 20
7.143786
 30
0.000000
  0
SEQEND
  8
LAYER-1
  0
POLYLINE
  8
LAYER-1
 66
  1
 70
  0
 62
  0
 10
5.726388
 20
7.143786
 30
0.000000
  0
VERTEX
  8
LAYER-1
 10
5.726388
 20
7.143786
 30
0.000000
  0
VERTEX
  8
LAYER-1
 10
5.689485
 20
7.143785
 30
0.000000
  0
SEQEND
  8
LAYER-1
  0
POLYLINE
  8
LAYER-1
 66
  1
 70
  0
 62
  0
 10
5.725217
 20
7.415443
 30
0.000000
  0
VERTEX
  8
LAYER-1
 10
5.725217
 20
7.415443
 30
0.000000
  0
VERTEX
  8
LAYER-1
 10
5.725217
 20
7.143812
 30
0.000000
  0
SEQEND
  8
LAYER-1
  0
POLYLINE
  8
LAYER-1
 66
  1
 70
  0
 62
  0
 10
5.652883
 20
7.143815
 30
0.000000
  0
VERTEX
  8
LAYER-1
 10
5.652883
 20
7.143815
 30
0.000000
  0
VERTEX
  8
LAYER-1
 10
5.652883
 20
7.415444
 30
0.000000
  0
SEQEND
  8
LAYER-1
  0
POLYLINE
  8
LAYER-1
 66
  1
 70
  0
 62
  0
 10
5.688313
 20
7.415444
 30
0.000000
  0
VERTEX
  8
LAYER-1
 10
5.688313
 20
7.415444
 30
0.000000
  0
VERTEX
  8
LAYER-1
 10
5.688313
 20
7.143813
 30
0.000000
  0
SEQEND
  8
LAYER-1
  0
POLYLINE
  8
LAYER-1
 66
  1
 70
  0
 62
  0
 10
5.686406
 20
7.415863
 30
0.000000
  0
VERTEX
  8
LAYER-1
 10
5.686406
 20
7.415863
 30
0.000000
  0
VERTEX
  8
LAYER-1
 10
5.672234
 20
7.426394
 30
0.000000
  0
VERTEX
  8
LAYER-1
 10
5.657550
 20
7.423819
 30
0.000000
  0
VERTEX
  8
LAYER-1
 10
5.653187
 20
7.415303
 30
0.000000
  0
SEQEND
  8
LAYER-1
  0
POLYLINE
  8
LAYER-1
 66
  1
 70
  0
 62
  0
 10
5.686406
 20
7.415863
 30
0.000000
  0
VERTEX
  8
LAYER-1
 10
5.686406
 20
7.415863
 30
0.000000
  0
VERTEX
  8
LAYER-1
 10
5.653188
 20
7.415303
 30
0.000000
  0
SEQEND
  8
LAYER-1
  0
POLYLINE
  8
LAYER-1
 66
  1
 70
  0
 62
  0
 10
5.725519
 20
7.415302
 30
0.000000
  0
VERTEX
  8
LAYER-1
 10
5.725519
 20
7.415302
 30
0.000000
  0
VERTEX
  8
LAYER-1
 10
5.708411
 20
7.426285
 30
0.000000
  0
VERTEX
  8
LAYER-1
 10
5.691331
 20
7.421955
 30
0.000000
  0
VERTEX
  8
LAYER-1
 10
5.688616
 20
7.415303
 30
0.000000
  0
SEQEND
  8
LAYER-1
  0
POLYLINE
  8
LAYER-1
 66
  1
 70
  0
 62
  0
 10
5.725519
 20
7.415302
 30
0.000000
  0
VERTEX
  8
LAYER-1
 10
5.725519
 20
7.415302
 30
0.000000
  0
VERTEX
  8
LAYER-1
 10
5.688616
 20
7.415303
 30
0.000000
  0
SEQEND
  8
LAYER-1
  0
POLYLINE
  8
LAYER-1
 66
  1
 70
  0
 62
  0
 10
3.828918
 20
7.347536
 30
0.000000
  0
VERTEX
  8
LAYER-1
 10
3.828918
 20
7.347536
 30
0.000000
  0
VERTEX
  8
LAYER-1
 10
3.868643
 20
7.347536
 30
0.000000
  0
SEQEND
  8
LAYER-1
  0
POLYLINE
  8
LAYER-1
 66
  1
 70
  0
 62
  0
 10
3.828918
 20
7.217626
 30
0.000000
  0
VERTEX
  8
LAYER-1
 10
3.828918
 20
7.217626
 30
0.000000
  0
VERTEX
  8
LAYER-1
 10
3.868643
 20
7.217626
 30
0.000000
  0
SEQEND
  8
LAYER-1
  0
POLYLINE
  8
LAYER-1
 66
  1
 70
  0
 62
  0
 10
3.867272
 20
7.420589
 30
0.000000
  0
VERTEX
  8
LAYER-1
 10
3.867272
 20
7.420589
 30
0.000000
  0
VERTEX
  8
LAYER-1
 10
3.850164
 20
7.431573
 30
0.000000
  0
VERTEX
  8
LAYER-1
 10
3.833084
 20
7.427242
 30
0.000000
  0
VERTEX
  8
LAYER-1
 10
3.830369
 20
7.420590
 30
0.000000
  0
SEQEND
  8
LAYER-1
  0
POLYLINE
  8
LAYER-1
 66
  1
 70
  1
 62
  0
  0
VERTEX
  8
LAYER-1
 10
3.823166
 20
7.421212
 30
0.000000
  0
VERTEX
  8
LAYER-1
 10
3.877781
 20
7.421212
 30
0.000000
  0
VERTEX
  8
LAYER-1
 10
3.877781
 20
7.415306
 30
0.000000
  0
VERTEX
  8
LAYER-1
 10
3.823166
 20
7.415306
 30
0.000000
  0
SEQEND
  8
LAYER-1
  0
POLYLINE
  8
LAYER-1
 66
  1
 70
  1
 62
  0
  0
VERTEX
  8
LAYER-1
 10
4.031189
 20
1.437859
 30
0.000000
  0
VERTEX
  8
LAYER-1
 10
4.482916
 20
1.437859
 30
0.000000
  0
VERTEX
  8
LAYER-1
 10
4.482916
 20
1.429001
 30
0.000000
  0
VERTEX
  8
LAYER-1
 10
4.031189
 20
1.429001
 30
0.000000
  0
SEQEND
  8
LAYER-1
  0
POLYLINE
  8
LAYER-1
 66
  1
 70
  1
 62
  0
  0
VERTEX
  8
LAYER-1
 10
4.031623
 20
2.254161
 30
0.000000
  0
VERTEX
  8
LAYER-1
 10
4.483350
 20
2.254161
 30
0.000000
  0
VERTEX
  8
LAYER-1
 10
4.483350
 20
2.245305
 30
0.000000
  0
VERTEX
  8
LAYER-1
 10
4.031623
 20
2.245305
 30
0.000000
  0
SEQEND
  8
LAYER-1
  0
POLYLINE
  8
LAYER-1
 66
  1
 70
  1
 62
  0
  0
VERTEX
  8
LAYER-1
 10
4.030754
 20
3.070467
 30
0.000000
  0
VERTEX
  8
LAYER-1
 10
4.482481
 20
3.070467
 30
0.000000
  0
VERTEX
  8
LAYER-1
 10
4.482481
 20
3.061608
 30
0.000000
  0
VERTEX
  8
LAYER-1
 10
4.030754
 20
3.061608
 30
0.000000
  0
SEQEND
  8
LAYER-1
  0
POLYLINE
  8
LAYER-1
 66
  1
 70
  1
 62
  0
  0
VERTEX
  8
LAYER-1
 10
4.030754
 20
3.886769
 30
0.000000
  0
VERTEX
  8
LAYER-1
 10
4.482481
 20
3.886769
 30
0.000000
  0
VERTEX
  8
LAYER-1
 10
4.482481
 20
3.877912
 30
0.000000
  0
VERTEX
  8
LAYER-1
 10
4.030754
 20
3.877912
 30
0.000000
  0
SEQEND
  8
LAYER-1
  0
POLYLINE
  8
LAYER-1
 66
  1
 70
  1
 62
  0
  0
VERTEX
  8
LAYER-1
 10
4.031189
 20
4.703072
 30
0.000000
  0
VERTEX
  8
LAYER-1
 10
4.482915
 20
4.703072
 30
0.000000
  0
VERTEX
  8
LAYER-1
 10
4.482915
 20
4.694217
 30
0.000000
  0
VERTEX
  8
LAYER-1
 10
4.031189
 20
4.694217
 30
0.000000
  0
SEQEND
  8
LAYER-1
  0
POLYLINE
  8
LAYER-1
 66
  1
 70
  1
 62
  0
  0
VERTEX
  8
LAYER-1
 10
4.030754
 20
5.519377
 30
0.000000
  0
VERTEX
  8
LAYER-1
 10
4.482481
 20
5.519377
 30
0.000000
  0
VERTEX
  8
LAYER-1
 10
4.482481
 20
5.510519
 30
0.000000
  0
VERTEX
  8
LAYER-1
 10
4.030754
 20
5.510519
 30
0.000000
  0
SEQEND
  8
LAYER-1
  0
POLYLINE
  8
LAYER-1
 66
  1
 70
  1
 62
  0
  0
VERTEX
  8
LAYER-1
 10
4.031189
 20
6.335680
 30
0.000000
  0
VERTEX
  8
LAYER-1
 10
4.482915
 20
6.335680
 30
0.000000
  0
VERTEX
  8
LAYER-1
 10
4.482915
 20
6.326824
 30
0.000000
  0
VERTEX
  8
LAYER-1
 10
4.031189
 20
6.326824
 30
0.000000
  0
SEQEND
  8
LAYER-1
  0
POLYLINE
  8
LAYER-1
 66
  1
 70
  1
 62
  0
  0
VERTEX
  8
LAYER-1
 10
4.842250
 20
1.437859
 30
0.000000
  0
VERTEX
  8
LAYER-1
 10
5.293980
 20
1.437859
 30
0.000000
  0
VERTEX
  8
LAYER-1
 10
5.293980
 20
1.429001
 30
0.000000
  0
VERTEX
  8
LAYER-1
 10
4.842250
 20
1.429001
 30
0.000000
  0
SEQEND
  8
LAYER-1
  0
POLYLINE
  8
LAYER-1
 66
  1
 70
  1
 62
  0
  0
VERTEX
  8
LAYER-1
 10
4.842250
 20
2.254161
 30
0.000000
  0
VERTEX
  8
LAYER-1
 10
5.293980
 20
2.254161
 30
0.000000
  0
VERTEX
  8
LAYER-1
 10
5.293980
 20
2.245305
 30
0.000000
  0
VERTEX
  8
LAYER-1
 10
4.842250
 20
2.245305
 30
0.000000
  0
SEQEND
  8
LAYER-1
  0
POLYLINE
  8
LAYER-1
 66
  1
 70
  1
 62
  0
  0
VERTEX
  8
LAYER-1
 10
4.847459
 20
3.070467
 30
0.000000
  0
VERTEX
  8
LAYER-1
 10
5.299189
 20
3.070467
 30
0.000000
  0
VERTEX
  8
LAYER-1
 10
5.299189
 20
3.061608
 30
0.000000
  0
VERTEX
  8
LAYER-1
 10
4.847459
 20
3.061608
 30
0.000000
  0
SEQEND
  8
LAYER-1
  0
POLYLINE
  8
LAYER-1
 66
  1
 70
  1
 62
  0
  0
VERTEX
  8
LAYER-1
 10
4.847459
 20
3.886769
 30
0.000000
  0
VERTEX
  8
LAYER-1
 10
5.299189
 20
3.886769
 30
0.000000
  0
VERTEX
  8
LAYER-1
 10
5.299189
 20
3.877912
 30
0.000000
  0
VERTEX
  8
LAYER-1
 10
4.847459
 20
3.877912
 30
0.000000
  0
SEQEND
  8
LAYER-1
  0
POLYLINE
  8
LAYER-1
 66
  1
 70
  1
 62
  0
  0
VERTEX
  8
LAYER-1
 10
4.847459
 20
4.703074
 30
0.000000
  0
VERTEX
  8
LAYER-1
 10
5.299189
 20
4.703074
 30
0.000000
  0
VERTEX
  8
LAYER-1
 10
5.299189
 20
4.694217
 30
0.000000
  0
VERTEX
  8
LAYER-1
 10
4.847459
 20
4.694217
 30
0.000000
  0
SEQEND
  8
LAYER-1
  0
POLYLINE
  8
LAYER-1
 66
  1
 70
  1
 62
  0
  0
VERTEX
  8
LAYER-1
 10
4.847459
 20
5.519377
 30
0.000000
  0
VERTEX
  8
LAYER-1
 10
5.299189
 20
5.519377
 30
0.000000
  0
VERTEX
  8
LAYER-1
 10
5.299189
 20
5.510521
 30
0.000000
  0
VERTEX
  8
LAYER-1
 10
4.847459
 20
5.510521
 30
0.000000
  0
SEQEND
  8
LAYER-1
  0
POLYLINE
  8
LAYER-1
 66
  1
 70
  1
 62
  0
  0
VERTEX
  8
LAYER-1
 10
4.847459
 20
6.335680
 30
0.000000
  0
VERTEX
  8
LAYER-1
 10
5.299189
 20
6.335680
 30
0.000000
  0
VERTEX
  8
LAYER-1
 10
5.299189
 20
6.326824
 30
0.000000
  0
VERTEX
  8
LAYER-1
 10
4.847459
 20
6.326824
 30
0.000000
  0
SEQEND
  8
LAYER-1
  0
POLYLINE
  8
LAYER-1
 66
  1
 70
  1
 62
  0
  0
VERTEX
  8
LAYER-1
 10
4.438281
 20
1.036323
 30
0.000000
  0
VERTEX
  8
LAYER-1
 10
4.890011
 20
1.036323
 30
0.000000
  0
VERTEX
  8
LAYER-1
 10
4.890011
 20
1.027464
 30
0.000000
  0
VERTEX
  8
LAYER-1
 10
4.438281
 20
1.027464
 30
0.000000
  0
SEQEND
  8
LAYER-1
  0
POLYLINE
  8
LAYER-1
 66
  1
 70
  1
 62
  0
  0
VERTEX
  8
LAYER-1
 10
4.437847
 20
1.852623
 30
0.000000
  0
VERTEX
  8
LAYER-1
 10
4.889577
 20
1.852623
 30
0.000000
  0
VERTEX
  8
LAYER-1
 10
4.889577
 20
1.843769
 30
0.000000
  0
VERTEX
  8
LAYER-1
 10
4.437847
 20
1.843769
 30
0.000000
  0
SEQEND
  8
LAYER-1
  0
POLYLINE
  8
LAYER-1
 66
  1
 70
  1
 62
  0
  0
VERTEX
  8
LAYER-1
 10
4.437847
 20
2.668928
 30
0.000000
  0
VERTEX
  8
LAYER-1
 10
4.889577
 20
2.668928
 30
0.000000
  0
VERTEX
  8
LAYER-1
 10
4.889577
 20
2.660071
 30
0.000000
  0
VERTEX
  8
LAYER-1
 10
4.437847
 20
2.660071
 30
0.000000
  0
SEQEND
  8
LAYER-1
  0
POLYLINE
  8
LAYER-1
 66
  1
 70
  1
 62
  0
  0
VERTEX
  8
LAYER-1
 10
4.438715
 20
3.485231
 30
0.000000
  0
VERTEX
  8
LAYER-1
 10
4.890446
 20
3.485231
 30
0.000000
  0
VERTEX
  8
LAYER-1
 10
4.890446
 20
3.476374
 30
0.000000
  0
VERTEX
  8
LAYER-1
 10
4.438715
 20
3.476374
 30
0.000000
  0
SEQEND
  8
LAYER-1
  0
POLYLINE
  8
LAYER-1
 66
  1
 70
  1
 62
  0
  0
VERTEX
  8
LAYER-1
 10
4.438715
 20
4.301535
 30
0.000000
  0
VERTEX
  8
LAYER-1
 10
4.890446
 20
4.301535
 30
0.000000
  0
VERTEX
  8
LAYER-1
 10
4.890446
 20
4.292677
 30
0.000000
  0
VERTEX
  8
LAYER-1
 10
4.438715
 20
4.292677
 30
0.000000
  0
SEQEND
  8
LAYER-1
  0
POLYLINE
  8
LAYER-1
 66
  1
 70
  1
 62
  0
  0
VERTEX
  8
LAYER-1
 10
4.438715
 20
5.117839
 30
0.000000
  0
VERTEX
  8
LAYER-1
 10
4.890446
 20
5.117839
 30
0.000000
  0
VERTEX
  8
LAYER-1
 10
4.890446
 20
5.108983
 30
0.000000
  0
VERTEX
  8
LAYER-1
 10
4.438715
 20
5.108983
 30
0.000000
  0
SEQEND
  8
LAYER-1
  0
POLYLINE
  8
LAYER-1
 66
  1
 70
  1
 62
  0
  0
VERTEX
  8
LAYER-1
 10
4.438281
 20
5.934144
 30
0.000000
  0
VERTEX
  8
LAYER-1
 10
4.890011
 20
5.934144
 30
0.000000
  0
VERTEX
  8
LAYER-1
 10
4.890011
 20
5.925285
 30
0.000000
  0
VERTEX
  8
LAYER-1
 10
4.438281
 20
5.925285
 30
0.000000
  0
SEQEND
  8
LAYER-1
  0
POLYLINE
  8
LAYER-1
 66
  1
 70
  1
 62
  0
  0
VERTEX
  8
LAYER-1
 10
4.438281
 20
6.750438
 30
0.000000
  0
VERTEX
  8
LAYER-1
 10
4.890011
 20
6.750438
 30
0.000000
  0
VERTEX
  8
LAYER-1
 10
4.890011
 20
6.741581
 30
0.000000
  0
VERTEX
  8
LAYER-1
 10
4.438281
 20
6.741581
 30
0.000000
  0
SEQEND
  8
LAYER-1
  0
POLYLINE
  8
LAYER-1
 66
  1
 70
  1
 62
  0
  0
VERTEX
  8
LAYER-1
 10
5.256724
 20
1.036323
 30
0.000000
  0
VERTEX
  8
LAYER-1
 10
5.708455
 20
1.036323
 30
0.000000
  0
VERTEX
  8
LAYER-1
 10
5.708455
 20
1.027464
 30
0.000000
  0
VERTEX
  8
LAYER-1
 10
5.256724
 20
1.027464
 30
0.000000
  0
SEQEND
  8
LAYER-1
  0
POLYLINE
  8
LAYER-1
 66
  1
 70
  1
 62
  0
  0
VERTEX
  8
LAYER-1
 10
5.256290
 20
1.852623
 30
0.000000
  0
VERTEX
  8
LAYER-1
 10
5.708020
 20
1.852623
 30
0.000000
  0
VERTEX
  8
LAYER-1
 10
5.708020
 20
1.843769
 30
0.000000
  0
VERTEX
  8
LAYER-1
 10
5.256290
 20
1.843769
 30
0.000000
  0
SEQEND
  8
LAYER-1
  0
POLYLINE
  8
LAYER-1
 66
  1
 70
  1
 62
  0
  0
VERTEX
  8
LAYER-1
 10
5.256724
 20
2.668928
 30
0.000000
  0
VERTEX
  8
LAYER-1
 10
5.708454
 20
2.668928
 30
0.000000
  0
VERTEX
  8
LAYER-1
 10
5.708454
 20
2.660071
 30
0.000000
  0
VERTEX
  8
LAYER-1
 10
5.256724
 20
2.660071
 30
0.000000
  0
SEQEND
  8
LAYER-1
  0
POLYLINE
  8
LAYER-1
 66
  1
 70
  1
 62
  0
  0
VERTEX
  8
LAYER-1
 10
5.257158
 20
3.485231
 30
0.000000
  0
VERTEX
  8
LAYER-1
 10
5.708889
 20
3.485231
 30
0.000000
  0
VERTEX
  8
LAYER-1
 10
5.708889
 20
3.476374
 30
0.000000
  0
VERTEX
  8
LAYER-1
 10
5.257158
 20
3.476374
 30
0.000000
  0
SEQEND
  8
LAYER-1
  0
POLYLINE
  8
LAYER-1
 66
  1
 70
  1
 62
  0
  0
VERTEX
  8
LAYER-1
 10
5.256724
 20
4.301535
 30
0.000000
  0
VERTEX
  8
LAYER-1
 10
5.708454
 20
4.301535
 30
0.000000
  0
VERTEX
  8
LAYER-1
 10
5.708454
 20
4.292677
 30
0.000000
  0
VERTEX
  8
LAYER-1
 10
5.256724
 20
4.292677
 30
0.000000
  0
SEQEND
  8
LAYER-1
  0
POLYLINE
  8
LAYER-1
 66
  1
 70
  1
 62
  0
  0
VERTEX
  8
LAYER-1
 10
5.256724
 20
5.117839
 30
0.000000
  0
VERTEX
  8
LAYER-1
 10
5.708454
 20
5.117839
 30
0.000000
  0
VERTEX
  8
LAYER-1
 10
5.708454
 20
5.108983
 30
0.000000
  0
VERTEX
  8
LAYER-1
 10
5.256724
 20
5.108983
 30
0.000000
  0
SEQEND
  8
LAYER-1
  0
POLYLINE
  8
LAYER-1
 66
  1
 70
  1
 62
  0
  0
VERTEX
  8
LAYER-1
 10
5.257158
 20
5.934142
 30
0.000000
  0
VERTEX
  8
LAYER-1
 10
5.708889
 20
5.934142
 30
0.000000
  0
VERTEX
  8
LAYER-1
 10
5.708889
 20
5.925285
 30
0.000000
  0
VERTEX
  8
LAYER-1
 10
5.257158
 20
5.925285
 30
0.000000
  0
SEQEND
  8
LAYER-1
  0
POLYLINE
  8
LAYER-1
 66
  1
 70
  1
 62
  0
  0
VERTEX
  8
LAYER-1
 10
5.256290
 20
6.750438
 30
0.000000
  0
VERTEX
  8
LAYER-1
 10
5.708020
 20
6.750438
 30
0.000000
  0
VERTEX
  8
LAYER-1
 10
5.708020
 20
6.741581
 30
0.000000
  0
VERTEX
  8
LAYER-1
 10
5.256290
 20
6.741581
 30
0.000000
  0
SEQEND
  8
LAYER-1
  0
POLYLINE
  8
LAYER-1
 66
  1
 70
  1
 62
  0
  0
VERTEX
  8
LAYER-1
 10
3.829049
 20
1.034729
 30
0.000000
  0
VERTEX
  8
LAYER-1
 10
4.079215
 20
1.034729
 30
0.000000
  0
VERTEX
  8
LAYER-1
 10
4.079215
 20
1.025870
 30
0.000000
  0
VERTEX
  8
LAYER-1
 10
3.829049
 20
1.025870
 30
0.000000
  0
SEQEND
  8
LAYER-1
  0
POLYLINE
  8
LAYER-1
 66
  1
 70
  1
 62
  0
  0
VERTEX
  8
LAYER-1
 10
3.829049
 20
1.851032
 30
0.000000
  0
VERTEX
  8
LAYER-1
 10
4.079215
 20
1.851032
 30
0.000000
  0
VERTEX
  8
LAYER-1
 10
4.079215
 20
1.842173
 30
0.000000
  0
VERTEX
  8
LAYER-1
 10
3.829049
 20
1.842173
 30
0.000000
  0
SEQEND
  8
LAYER-1
  0
POLYLINE
  8
LAYER-1
 66
  1
 70
  1
 62
  0
  0
VERTEX
  8
LAYER-1
 10
3.829049
 20
2.667336
 30
0.000000
  0
VERTEX
  8
LAYER-1
 10
4.079215
 20
2.667336
 30
0.000000
  0
VERTEX
  8
LAYER-1
 10
4.079215
 20
2.658477
 30
0.000000
  0
VERTEX
  8
LAYER-1
 10
3.829049
 20
2.658477
 30
0.000000
  0
SEQEND
  8
LAYER-1
  0
POLYLINE
  8
LAYER-1
 66
  1
 70
  1
 62
  0
  0
VERTEX
  8
LAYER-1
 10
3.829049
 20
3.483638
 30
0.000000
  0
VERTEX
  8
LAYER-1
 10
4.079215
 20
3.483638
 30
0.000000
  0
VERTEX
  8
LAYER-1
 10
4.079215
 20
3.474781
 30
0.000000
  0
VERTEX
  8
LAYER-1
 10
3.829049
 20
3.474781
 30
0.000000
  0
SEQEND
  8
LAYER-1
  0
POLYLINE
  8
LAYER-1
 66
  1
 70
  1
 62
  0
  0
VERTEX
  8
LAYER-1
 10
3.829049
 20
4.299941
 30
0.000000
  0
VERTEX
  8
LAYER-1
 10
4.079215
 20
4.299941
 30
0.000000
  0
VERTEX
  8
LAYER-1
 10
4.079215
 20
4.291083
 30
0.000000
  0
VERTEX
  8
LAYER-1
 10
3.829049
 20
4.291083
 30
0.000000
  0
SEQEND
  8
LAYER-1
  0
POLYLINE
  8
LAYER-1
 66
  1
 70
  1
 62
  0
  0
VERTEX
  8
LAYER-1
 10
3.829049
 20
5.116246
 30
0.000000
  0
VERTEX
  8
LAYER-1
 10
4.079215
 20
5.116246
 30
0.000000
  0
VERTEX
  8
LAYER-1
 10
4.079215
 20
5.107389
 30
0.000000
  0
VERTEX
  8
LAYER-1
 10
3.829049
 20
5.107389
 30
0.000000
  0
SEQEND
  8
LAYER-1
  0
POLYLINE
  8
LAYER-1
 66
  1
 70
  1
 62
  0
  0
VERTEX
  8
LAYER-1
 10
3.829049
 20
5.932550
 30
0.000000
  0
VERTEX
  8
LAYER-1
 10
4.079215
 20
5.932550
 30
0.000000
  0
VERTEX
  8
LAYER-1
 10
4.079215
 20
5.923692
 30
0.000000
  0
VERTEX
  8
LAYER-1
 10
3.829049
 20
5.923692
 30
0.000000
  0
SEQEND
  8
LAYER-1
  0
POLYLINE
  8
LAYER-1
 66
  1
 70
  1
 62
  0
  0
VERTEX
  8
LAYER-1
 10
3.829049
 20
6.748846
 30
0.000000
  0
VERTEX
  8
LAYER-1
 10
4.079215
 20
6.748846
 30
0.000000
  0
VERTEX
  8
LAYER-1
 10
4.079215
 20
6.739988
 30
0.000000
  0
VERTEX
  8
LAYER-1
 10
3.829049
 20
6.739988
 30
0.000000
  0
SEQEND
  8
LAYER-1
  0
POLYLINE
  8
LAYER-1
 66
  1
 70
  0
 62
  0
 10
3.869077
 20
7.415441
 30
0.000000
  0
VERTEX
  8
LAYER-1
 10
3.869077
 20
7.415441
 30
0.000000
  0
VERTEX
  8
LAYER-1
 10
3.869077
 20
7.143693
 30
0.000000
  0
SEQEND
  8
LAYER-1
  0
POLYLINE
  8
LAYER-1
 66
  1
 70
  0
 62
  0
 10
3.869066
 20
0.616781
 30
0.000000
  0
VERTEX
  8
LAYER-1
 10
3.869066
 20
0.616781
 30
0.000000
  0
VERTEX
  8
LAYER-1
 10
3.869066
 20
0.345082
 30
0.000000
  0
SEQEND
  8
LAYER-1
  0
POLYLINE
  8
LAYER-1
 66
  1
 70
  0
 62
  0
 10
4.089986
 20
0.344643
 30
0.000000
  0
VERTEX
  8
LAYER-1
 10
4.089986
 20
0.344643
 30
0.000000
  0
VERTEX
  8
LAYER-1
 10
4.089986
 20
0.616274
 30
0.000000
  0
SEQEND
  8
LAYER-1
  0
POLYLINE
  8
LAYER-1
 66
  1
 70
  0
 62
  0
 10
4.420483
 20
0.616274
 30
0.000000
  0
VERTEX
  8
LAYER-1
 10
4.420483
 20
0.616274
 30
0.000000
  0
VERTEX
  8
LAYER-1
 10
4.420483
 20
0.344643
 30
0.000000
  0
SEQEND
  8
LAYER-1
  0
POLYLINE
  8
LAYER-1
 66
  1
 70
  0
 62
  0
 10
5.233314
 20
0.616274
 30
0.000000
  0
VERTEX
  8
LAYER-1
 10
5.233314
 20
0.616274
 30
0.000000
  0
VERTEX
  8
LAYER-1
 10
5.233314
 20
0.344643
 30
0.000000
  0
SEQEND
  8
LAYER-1
  0
POLYLINE
  8
LAYER-1
 66
  1
 70
  0
 62
  0
 10
5.052147
 20
0.344603
 30
0.000000
  0
VERTEX
  8
LAYER-1
 10
5.052147
 20
0.344603
 30
0.000000
  0
VERTEX
  8
LAYER-1
 10
5.052147
 20
0.616231
 30
0.000000
  0
SEQEND
  8
LAYER-1
  0
POLYLINE
  8
LAYER-1
 66
  1
 70
  0
 62
  0
 10
5.092006
 20
0.344603
 30
0.000000
  0
VERTEX
  8
LAYER-1
 10
5.092006
 20
0.344603
 30
0.000000
  0
VERTEX
  8
LAYER-1
 10
5.092006
 20
0.616231
 30
0.000000
  0
SEQEND
  8
LAYER-1
  0
POLYLINE
  8
LAYER-1
 66
  1
 70
  0
 62
  0
 10
4.238130
 20
0.344603
 30
0.000000
  0
VERTEX
  8
LAYER-1
 10
4.238130
 20
0.344603
 30
0.000000
  0
VERTEX
  8
LAYER-1
 10
4.238130
 20
0.616231
 30
0.000000
  0
SEQEND
  8
LAYER-1
  0
POLYLINE
  8
LAYER-1
 66
  1
 70
  0
 62
  0
 10
4.276946
 20
0.344603
 30
0.000000
  0
VERTEX
  8
LAYER-1
 10
4.276946
 20
0.344603
 30
0.000000
  0
VERTEX
  8
LAYER-1
 10
4.276946
 20
0.616231
 30
0.000000
  0
SEQEND
  8
LAYER-1
  0
POLYLINE
  8
LAYER-1
 66
  1
 70
  0
 62
  0
 10
4.504805
 20
0.344643
 30
0.000000
  0
VERTEX
  8
LAYER-1
 10
4.504805
 20
0.344643
 30
0.000000
  0
VERTEX
  8
LAYER-1
 10
4.504805
 20
0.616274
 30
0.000000
  0
SEQEND
  8
LAYER-1
  0
POLYLINE
  8
LAYER-1
 66
  1
 70
  0
 62
  0
 10
5.317636
 20
0.344643
 30
0.000000
  0
VERTEX
  8
LAYER-1
 10
5.317636
 20
0.344643
 30
0.000000
  0
VERTEX
  8
LAYER-1
 10
5.317636
 20
0.616274
 30
0.000000
  0
SEQEND
  8
LAYER-1
  0
POLYLINE
  8
LAYER-1
 66
  1
 70
  0
 62
  0
 10
5.462541
 20
0.345038
 30
0.000000
  0
VERTEX
  8
LAYER-1
 10
5.462541
 20
0.345038
 30
0.000000
  0
VERTEX
  8
LAYER-1
 10
5.462541
 20
0.616666
 30
0.000000
  0
SEQEND
  8
LAYER-1
  0
POLYLINE
  8
LAYER-1
 66
  1
 70
  0
 62
  0
 10
5.500924
 20
0.345038
 30
0.000000
  0
VERTEX
  8
LAYER-1
 10
5.500924
 20
0.345038
 30
0.000000
  0
VERTEX
  8
LAYER-1
 10
5.500924
 20
0.616666
 30
0.000000
  0
SEQEND
  8
LAYER-1
  0
POLYLINE
  8
LAYER-1
 66
  1
 70
  0
 62
  0
 10
4.644703
 20
0.344568
 30
0.000000
  0
VERTEX
  8
LAYER-1
 10
4.644703
 20
0.344568
 30
0.000000
  0
VERTEX
  8
LAYER-1
 10
4.644703
 20
0.616195
 30
0.000000
  0
SEQEND
  8
LAYER-1
  0
POLYLINE
  8
LAYER-1
 66
  1
 70
  0
 62
  0
 10
4.683086
 20
0.344568
 30
0.000000
  0
VERTEX
  8
LAYER-1
 10
4.683086
 20
0.344568
 30
0.000000
  0
VERTEX
  8
LAYER-1
 10
4.683086
 20
0.616195
 30
0.000000
  0
SEQEND
  8
LAYER-1
  0
POLYLINE
  8
LAYER-1
 66
  1
 70
  0
 62
  0
 10
4.017654
 20
0.616270
 30
0.000000
  0
VERTEX
  8
LAYER-1
 10
4.017654
 20
0.616270
 30
0.000000
  0
VERTEX
  8
LAYER-1
 10
4.017654
 20
0.344642
 30
0.000000
  0
SEQEND
  8
LAYER-1
  0
POLYLINE
  8
LAYER-1
 66
  1
 70
  0
 62
  0
 10
4.053083
 20
0.344642
 30
0.000000
  0
VERTEX
  8
LAYER-1
 10
4.053083
 20
0.344642
 30
0.000000
  0
VERTEX
  8
LAYER-1
 10
4.053083
 20
0.616272
 30
0.000000
  0
SEQEND
  8
LAYER-1
  0
POLYLINE
  8
LAYER-1
 66
  1
 70
  0
 62
  0
 10
4.018558
 20
0.344642
 30
0.000000
  0
VERTEX
  8
LAYER-1
 10
4.018558
 20
0.344642
 30
0.000000
  0
VERTEX
  8
LAYER-1
 10
4.028497
 20
0.337641
 30
0.000000
  0
VERTEX
  8
LAYER-1
 10
4.043260
 20
0.339719
 30
0.000000
  0
VERTEX
  8
LAYER-1
 10
4.052113
 20
0.344630
 30
0.000000
  0
SEQEND
  8
LAYER-1
  0
POLYLINE
  8
LAYER-1
 66
  1
 70
  0
 62
  0
 10
4.053083
 20
0.344642
 30
0.000000
  0
VERTEX
  8
LAYER-1
 10
4.053083
 20
0.344642
 30
0.000000
  0
VERTEX
  8
LAYER-1
 10
4.066254
 20
0.337595
 30
0.000000
  0
VERTEX
  8
LAYER-1
 10
4.083334
 20
0.341926
 30
0.000000
  0
VERTEX
  8
LAYER-1
 10
4.089985
 20
0.344643
 30
0.000000
  0
SEQEND
  8
LAYER-1
  0
POLYLINE
  8
LAYER-1
 66
  1
 70
  0
 62
  0
 10
4.468637
 20
0.345135
 30
0.000000
  0
VERTEX
  8
LAYER-1
 10
4.468637
 20
0.345135
 30
0.000000
  0
VERTEX
  8
LAYER-1
 10
4.484204
 20
0.339080
 30
0.000000
  0
VERTEX
  8
LAYER-1
 10
4.502278
 20
0.345806
 30
0.000000
  0
VERTEX
  8
LAYER-1
 10
4.505544
 20
0.345135
 30
0.000000
  0
SEQEND
  8
LAYER-1
  0
POLYLINE
  8
LAYER-1
 66
  1
 70
  0
 62
  0
 10
5.281595
 20
0.344666
 30
0.000000
  0
VERTEX
  8
LAYER-1
 10
5.281595
 20
0.344666
 30
0.000000
  0
VERTEX
  8
LAYER-1
 10
5.297163
 20
0.338611
 30
0.000000
  0
VERTEX
  8
LAYER-1
 10
5.315236
 20
0.345336
 30
0.000000
  0
VERTEX
  8
LAYER-1
 10
5.318503
 20
0.344666
 30
0.000000
  0
SEQEND
  8
LAYER-1
  0
POLYLINE
  8
LAYER-1
 66
  1
 70
  0
 62
  0
 10
4.420928
 20
0.345135
 30
0.000000
  0
VERTEX
  8
LAYER-1
 10
4.420928
 20
0.345135
 30
0.000000
  0
VERTEX
  8
LAYER-1
 10
4.436495
 20
0.339080
 30
0.000000
  0
VERTEX
  8
LAYER-1
 10
4.454569
 20
0.345806
 30
0.000000
  0
VERTEX
  8
LAYER-1
 10
4.457835
 20
0.345135
 30
0.000000
  0
SEQEND
  8
LAYER-1
  0
POLYLINE
  8
LAYER-1
 66
  1
 70
  0
 62
  0
 10
4.442871
 20
0.344577
 30
0.000000
  0
VERTEX
  8
LAYER-1
 10
4.442871
 20
0.344577
 30
0.000000
  0
VERTEX
  8
LAYER-1
 10
4.449686
 20
0.335509
 30
0.000000
  0
VERTEX
  8
LAYER-1
 10
4.463701
 20
0.333915
 30
0.000000
  0
VERTEX
  8
LAYER-1
 10
4.474738
 20
0.342698
 30
0.000000
  0
VERTEX
  8
LAYER-1
 10
4.478300
 20
0.344577
 30
0.000000
  0
SEQEND
  8
LAYER-1
  0
POLYLINE
  8
LAYER-1
 66
  1
 70
  0
 62
  0
 10
4.442871
 20
0.344577
 30
0.000000
  0
VERTEX
  8
LAYER-1
 10
4.442871
 20
0.344577
 30
0.000000
  0
VERTEX
  8
LAYER-1
 10
4.478300
 20
0.344577
 30
0.000000
  0
SEQEND
  8
LAYER-1
  0
POLYLINE
  8
LAYER-1
 66
  1
 70
  0
 62
  0
 10
5.232945
 20
0.344665
 30
0.000000
  0
VERTEX
  8
LAYER-1
 10
5.232945
 20
0.344665
 30
0.000000
  0
VERTEX
  8
LAYER-1
 10
5.248513
 20
0.338611
 30
0.000000
  0
VERTEX
  8
LAYER-1
 10
5.266586
 20
0.345336
 30
0.000000
  0
VERTEX
  8
LAYER-1
 10
5.269853
 20
0.344666
 30
0.000000
  0
SEQEND
  8
LAYER-1
  0
POLYLINE
  8
LAYER-1
 66
  1
 70
  0
 62
  0
 10
5.259117
 20
0.344577
 30
0.000000
  0
VERTEX
  8
LAYER-1
 10
5.259117
 20
0.344577
 30
0.000000
  0
VERTEX
  8
LAYER-1
 10
5.265933
 20
0.335509
 30
0.000000
  0
VERTEX
  8
LAYER-1
 10
5.279947
 20
0.333915
 30
0.000000
  0
VERTEX
  8
LAYER-1
 10
5.290984
 20
0.342698
 30
0.000000
  0
VERTEX
  8
LAYER-1
 10
5.294546
 20
0.344577
 30
0.000000
  0
SEQEND
  8
LAYER-1
  0
POLYLINE
  8
LAYER-1
 66
  1
 70
  0
 62
  0
 10
5.259118
 20
0.344577
 30
0.000000
  0
VERTEX
  8
LAYER-1
 10
5.259118
 20
0.344577
 30
0.000000
  0
VERTEX
  8
LAYER-1
 10
5.294546
 20
0.344577
 30
0.000000
  0
SEQEND
  8
LAYER-1
  0
POLYLINE
  8
LAYER-1
 66
  1
 70
  0
 62
  0
 10
4.051807
 20
0.616859
 30
0.000000
  0
VERTEX
  8
LAYER-1
 10
4.051807
 20
0.616859
 30
0.000000
  0
VERTEX
  8
LAYER-1
 10
4.037634
 20
0.627390
 30
0.000000
  0
VERTEX
  8
LAYER-1
 10
4.022950
 20
0.624815
 30
0.000000
  0
VERTEX
  8
LAYER-1
 10
4.018587
 20
0.616299
 30
0.000000
  0
SEQEND
  8
LAYER-1
  0
POLYLINE
  8
LAYER-1
 66
  1
 70
  0
 62
  0
 10
4.051807
 20
0.616859
 30
0.000000
  0
VERTEX
  8
LAYER-1
 10
4.051807
 20
0.616859
 30
0.000000
  0
VERTEX
  8
LAYER-1
 10
4.018587
 20
0.616299
 30
0.000000
  0
SEQEND
  8
LAYER-1
  0
POLYLINE
  8
LAYER-1
 66
  1
 70
  0
 62
  0
 10
4.090919
 20
0.616296
 30
0.000000
  0
VERTEX
  8
LAYER-1
 10
4.090919
 20
0.616296
 30
0.000000
  0
VERTEX
  8
LAYER-1
 10
4.073811
 20
0.627280
 30
0.000000
  0
VERTEX
  8
LAYER-1
 10
4.056731
 20
0.622949
 30
0.000000
  0
VERTEX
  8
LAYER-1
 10
4.054016
 20
0.616297
 30
0.000000
  0
SEQEND
  8
LAYER-1
  0
POLYLINE
  8
LAYER-1
 66
  1
 70
  0
 62
  0
 10
4.090918
 20
0.616297
 30
0.000000
  0
VERTEX
  8
LAYER-1
 10
4.090918
 20
0.616297
 30
0.000000
  0
VERTEX
  8
LAYER-1
 10
4.054017
 20
0.616299
 30
0.000000
  0
SEQEND
  8
LAYER-1
  0
POLYLINE
  8
LAYER-1
 66
  1
 70
  0
 62
  0
 10
4.457761
 20
0.616743
 30
0.000000
  0
VERTEX
  8
LAYER-1
 10
4.457761
 20
0.616743
 30
0.000000
  0
VERTEX
  8
LAYER-1
 10
4.438257
 20
0.626735
 30
0.000000
  0
VERTEX
  8
LAYER-1
 10
4.420184
 20
0.620010
 30
0.000000
  0
VERTEX
  8
LAYER-1
 10
4.420854
 20
0.616745
 30
0.000000
  0
SEQEND
  8
LAYER-1
  0
POLYLINE
  8
LAYER-1
 66
  1
 70
  0
 62
  0
 10
4.505002
 20
0.616743
 30
0.000000
  0
VERTEX
  8
LAYER-1
 10
4.505002
 20
0.616743
 30
0.000000
  0
VERTEX
  8
LAYER-1
 10
4.485499
 20
0.626735
 30
0.000000
  0
VERTEX
  8
LAYER-1
 10
4.467425
 20
0.620010
 30
0.000000
  0
VERTEX
  8
LAYER-1
 10
4.468095
 20
0.616745
 30
0.000000
  0
SEQEND
  8
LAYER-1
  0
POLYLINE
  8
LAYER-1
 66
  1
 70
  0
 62
  0
 10
4.477757
 20
0.616832
 30
0.000000
  0
VERTEX
  8
LAYER-1
 10
4.477757
 20
0.616832
 30
0.000000
  0
VERTEX
  8
LAYER-1
 10
4.467005
 20
0.629838
 30
0.000000
  0
VERTEX
  8
LAYER-1
 10
4.452989
 20
0.631432
 30
0.000000
  0
VERTEX
  8
LAYER-1
 10
4.441953
 20
0.622648
 30
0.000000
  0
VERTEX
  8
LAYER-1
 10
4.442327
 20
0.616832
 30
0.000000
  0
SEQEND
  8
LAYER-1
  0
POLYLINE
  8
LAYER-1
 66
  1
 70
  0
 62
  0
 10
4.442329
 20
0.616833
 30
0.000000
  0
VERTEX
  8
LAYER-1
 10
4.442329
 20
0.616833
 30
0.000000
  0
VERTEX
  8
LAYER-1
 10
4.477757
 20
0.616833
 30
0.000000
  0
SEQEND
  8
LAYER-1
  0
POLYLINE
  8
LAYER-1
 66
  1
 70
  0
 62
  0
 10
5.270316
 20
0.616743
 30
0.000000
  0
VERTEX
  8
LAYER-1
 10
5.270316
 20
0.616743
 30
0.000000
  0
VERTEX
  8
LAYER-1
 10
5.250812
 20
0.626735
 30
0.000000
  0
VERTEX
  8
LAYER-1
 10
5.232738
 20
0.620010
 30
0.000000
  0
VERTEX
  8
LAYER-1
 10
5.233409
 20
0.616745
 30
0.000000
  0
SEQEND
  8
LAYER-1
  0
POLYLINE
  8
LAYER-1
 66
  1
 70
  0
 62
  0
 10
5.318496
 20
0.616743
 30
0.000000
  0
VERTEX
  8
LAYER-1
 10
5.318496
 20
0.616743
 30
0.000000
  0
VERTEX
  8
LAYER-1
 10
5.298993
 20
0.626735
 30
0.000000
  0
VERTEX
  8
LAYER-1
 10
5.280919
 20
0.620010
 30
0.000000
  0
VERTEX
  8
LAYER-1
 10
5.281589
 20
0.616745
 30
0.000000
  0
SEQEND
  8
LAYER-1
  0
POLYLINE
  8
LAYER-1
 66
  1
 70
  0
 62
  0
 10
5.294541
 20
0.616832
 30
0.000000
  0
VERTEX
  8
LAYER-1
 10
5.294541
 20
0.616832
 30
0.000000
  0
VERTEX
  8
LAYER-1
 10
5.283788
 20
0.629838
 30
0.000000
  0
VERTEX
  8
LAYER-1
 10
5.269773
 20
0.631432
 30
0.000000
  0
VERTEX
  8
LAYER-1
 10
5.258737
 20
0.622648
 30
0.000000
  0
VERTEX
  8
LAYER-1
 10
5.259112
 20
0.616832
 30
0.000000
  0
SEQEND
  8
LAYER-1
  0
POLYLINE
  8
LAYER-1
 66
  1
 70
  0
 62
  0
 10
5.259112
 20
0.616833
 30
0.000000
  0
VERTEX
  8
LAYER-1
 10
5.259112
 20
0.616833
 30
0.000000
  0
VERTEX
  8
LAYER-1
 10
5.294540
 20
0.616833
 30
0.000000
  0
SEQEND
  8
LAYER-1
  0
POLYLINE
  8
LAYER-1
 66
  1
 70
  1
 62
  0
  0
VERTEX
  8
LAYER-1
 10
4.478301
 20
0.344643
 30
0.000000
  0
VERTEX
  8
LAYER-1
 10
4.442871
 20
0.344643
 30
0.000000
  0
VERTEX
  8
LAYER-1
 10
4.442871
 20
0.616272
 30
0.000000
  0
VERTEX
  8
LAYER-1
 10
4.478301
 20
0.616272
 30
0.000000
  0
SEQEND
  8
LAYER-1
  0
POLYLINE
  8
LAYER-1
 66
  1
 70
  1
 62
  0
  0
VERTEX
  8
LAYER-1
 10
5.294615
 20
0.344643
 30
0.000000
  0
VERTEX
  8
LAYER-1
 10
5.259185
 20
0.344643
 30
0.000000
  0
VERTEX
  8
LAYER-1
 10
5.259185
 20
0.616272
 30
0.000000
  0
VERTEX
  8
LAYER-1
 10
5.294615
 20
0.616272
 30
0.000000
  0
SEQEND
  8
LAYER-1
  0
POLYLINE
  8
LAYER-1
 66
  1
 70
  0
 62
  0
 10
4.442871
 20
0.412549
 30
0.000000
  0
VERTEX
  8
LAYER-1
 10
4.442871
 20
0.412549
 30
0.000000
  0
VERTEX
  8
LAYER-1
 10
4.478301
 20
0.412549
 30
0.000000
  0
SEQEND
  8
LAYER-1
  0
POLYLINE
  8
LAYER-1
 66
  1
 70
  0
 62
  0
 10
4.442871
 20
0.542458
 30
0.000000
  0
VERTEX
  8
LAYER-1
 10
4.442871
 20
0.542458
 30
0.000000
  0
VERTEX
  8
LAYER-1
 10
4.478301
 20
0.542458
 30
0.000000
  0
SEQEND
  8
LAYER-1
  0
POLYLINE
  8
LAYER-1
 66
  1
 70
  0
 62
  0
 10
5.259185
 20
0.412549
 30
0.000000
  0
VERTEX
  8
LAYER-1
 10
5.259185
 20
0.412549
 30
0.000000
  0
VERTEX
  8
LAYER-1
 10
5.294613
 20
0.412549
 30
0.000000
  0
SEQEND
  8
LAYER-1
  0
POLYLINE
  8
LAYER-1
 66
  1
 70
  0
 62
  0
 10
5.259185
 20
0.542458
 30
0.000000
  0
VERTEX
  8
LAYER-1
 10
5.259185
 20
0.542458
 30
0.000000
  0
VERTEX
  8
LAYER-1
 10
5.294613
 20
0.542458
 30
0.000000
  0
SEQEND
  8
LAYER-1
  0
POLYLINE
  8
LAYER-1
 66
  1
 70
  0
 62
  0
 10
4.240539
 20
0.345085
 30
0.000000
  0
VERTEX
  8
LAYER-1
 10
4.240539
 20
0.345085
 30
0.000000
  0
VERTEX
  8
LAYER-1
 10
4.250479
 20
0.338086
 30
0.000000
  0
VERTEX
  8
LAYER-1
 10
4.265242
 20
0.340163
 30
0.000000
  0
VERTEX
  8
LAYER-1
 10
4.273758
 20
0.344527
 30
0.000000
  0
SEQEND
  8
LAYER-1
  0
POLYLINE
  8
LAYER-1
 66
  1
 70
  0
 62
  0
 10
5.054032
 20
0.344703
 30
0.000000
  0
VERTEX
  8
LAYER-1
 10
5.054032
 20
0.344703
 30
0.000000
  0
VERTEX
  8
LAYER-1
 10
5.067204
 20
0.337658
 30
0.000000
  0
VERTEX
  8
LAYER-1
 10
5.084284
 20
0.341989
 30
0.000000
  0
VERTEX
  8
LAYER-1
 10
5.090937
 20
0.344705
 30
0.000000
  0
SEQEND
  8
LAYER-1
  0
POLYLINE
  8
LAYER-1
 66
  1
 70
  0
 62
  0
 10
4.866837
 20
0.616860
 30
0.000000
  0
VERTEX
  8
LAYER-1
 10
4.866837
 20
0.616860
 30
0.000000
  0
VERTEX
  8
LAYER-1
 10
4.852665
 20
0.627392
 30
0.000000
  0
VERTEX
  8
LAYER-1
 10
4.837980
 20
0.624817
 30
0.000000
  0
VERTEX
  8
LAYER-1
 10
4.833618
 20
0.616301
 30
0.000000
  0
SEQEND
  8
LAYER-1
  0
POLYLINE
  8
LAYER-1
 66
  1
 70
  0
 62
  0
 10
4.866836
 20
0.616860
 30
0.000000
  0
VERTEX
  8
LAYER-1
 10
4.866836
 20
0.616860
 30
0.000000
  0
VERTEX
  8
LAYER-1
 10
4.833618
 20
0.616301
 30
0.000000
  0
SEQEND
  8
LAYER-1
  0
POLYLINE
  8
LAYER-1
 66
  1
 70
  0
 62
  0
 10
4.905949
 20
0.616300
 30
0.000000
  0
VERTEX
  8
LAYER-1
 10
4.905949
 20
0.616300
 30
0.000000
  0
VERTEX
  8
LAYER-1
 10
4.888841
 20
0.627285
 30
0.000000
  0
VERTEX
  8
LAYER-1
 10
4.871761
 20
0.622953
 30
0.000000
  0
VERTEX
  8
LAYER-1
 10
4.869045
 20
0.616301
 30
0.000000
  0
SEQEND
  8
LAYER-1
  0
POLYLINE
  8
LAYER-1
 66
  1
 70
  0
 62
  0
 10
4.905949
 20
0.616299
 30
0.000000
  0
VERTEX
  8
LAYER-1
 10
4.905949
 20
0.616299
 30
0.000000
  0
VERTEX
  8
LAYER-1
 10
4.869046
 20
0.616301
 30
0.000000
  0
SEQEND
  8
LAYER-1
  0
POLYLINE
  8
LAYER-1
 66
  1
 70
  0
 62
  0
 10
4.904778
 20
0.344643
 30
0.000000
  0
VERTEX
  8
LAYER-1
 10
4.904778
 20
0.344643
 30
0.000000
  0
VERTEX
  8
LAYER-1
 10
4.904778
 20
0.616274
 30
0.000000
  0
SEQEND
  8
LAYER-1
  0
POLYLINE
  8
LAYER-1
 66
  1
 70
  0
 62
  0
 10
4.832444
 20
0.616270
 30
0.000000
  0
VERTEX
  8
LAYER-1
 10
4.832444
 20
0.616270
 30
0.000000
  0
VERTEX
  8
LAYER-1
 10
4.832444
 20
0.344642
 30
0.000000
  0
SEQEND
  8
LAYER-1
  0
POLYLINE
  8
LAYER-1
 66
  1
 70
  0
 62
  0
 10
4.867874
 20
0.344642
 30
0.000000
  0
VERTEX
  8
LAYER-1
 10
4.867874
 20
0.344642
 30
0.000000
  0
VERTEX
  8
LAYER-1
 10
4.867874
 20
0.616272
 30
0.000000
  0
SEQEND
  8
LAYER-1
  0
POLYLINE
  8
LAYER-1
 66
  1
 70
  0
 62
  0
 10
4.832749
 20
0.344783
 30
0.000000
  0
VERTEX
  8
LAYER-1
 10
4.832749
 20
0.344783
 30
0.000000
  0
VERTEX
  8
LAYER-1
 10
4.842689
 20
0.337784
 30
0.000000
  0
VERTEX
  8
LAYER-1
 10
4.857452
 20
0.339862
 30
0.000000
  0
VERTEX
  8
LAYER-1
 10
4.865968
 20
0.344225
 30
0.000000
  0
SEQEND
  8
LAYER-1
  0
POLYLINE
  8
LAYER-1
 66
  1
 70
  0
 62
  0
 10
4.865968
 20
0.344222
 30
0.000000
  0
VERTEX
  8
LAYER-1
 10
4.865968
 20
0.344222
 30
0.000000
  0
VERTEX
  8
LAYER-1
 10
4.832749
 20
0.344783
 30
0.000000
  0
SEQEND
  8
LAYER-1
  0
POLYLINE
  8
LAYER-1
 66
  1
 70
  0
 62
  0
 10
4.868178
 20
0.344783
 30
0.000000
  0
VERTEX
  8
LAYER-1
 10
4.868178
 20
0.344783
 30
0.000000
  0
VERTEX
  8
LAYER-1
 10
4.881349
 20
0.337737
 30
0.000000
  0
VERTEX
  8
LAYER-1
 10
4.898429
 20
0.342068
 30
0.000000
  0
VERTEX
  8
LAYER-1
 10
4.905081
 20
0.344785
 30
0.000000
  0
SEQEND
  8
LAYER-1
  0
POLYLINE
  8
LAYER-1
 66
  1
 70
  0
 62
  0
 10
4.905081
 20
0.344783
 30
0.000000
  0
VERTEX
  8
LAYER-1
 10
4.905081
 20
0.344783
 30
0.000000
  0
VERTEX
  8
LAYER-1
 10
4.868178
 20
0.344783
 30
0.000000
  0
SEQEND
  8
LAYER-1
  0
POLYLINE
  8
LAYER-1
 66
  1
 70
  0
 62
  0
 10
5.686836
 20
0.616860
 30
0.000000
  0
VERTEX
  8
LAYER-1
 10
5.686836
 20
0.616860
 30
0.000000
  0
VERTEX
  8
LAYER-1
 10
5.672664
 20
0.627392
 30
0.000000
  0
VERTEX
  8
LAYER-1
 10
5.657979
 20
0.624817
 30
0.000000
  0
VERTEX
  8
LAYER-1
 10
5.653617
 20
0.616301
 30
0.000000
  0
SEQEND
  8
LAYER-1
  0
POLYLINE
  8
LAYER-1
 66
  1
 70
  0
 62
  0
 10
5.686836
 20
0.616860
 30
0.000000
  0
VERTEX
  8
LAYER-1
 10
5.686836
 20
0.616860
 30
0.000000
  0
VERTEX
  8
LAYER-1
 10
5.653618
 20
0.616301
 30
0.000000
  0
SEQEND
  8
LAYER-1
  0
POLYLINE
  8
LAYER-1
 66
  1
 70
  0
 62
  0
 10
5.725949
 20
0.616300
 30
0.000000
  0
VERTEX
  8
LAYER-1
 10
5.725949
 20
0.616300
 30
0.000000
  0
VERTEX
  8
LAYER-1
 10
5.708841
 20
0.627285
 30
0.000000
  0
VERTEX
  8
LAYER-1
 10
5.691761
 20
0.622953
 30
0.000000
  0
VERTEX
  8
LAYER-1
 10
5.689045
 20
0.616301
 30
0.000000
  0
SEQEND
  8
LAYER-1
  0
POLYLINE
  8
LAYER-1
 66
  1
 70
  0
 62
  0
 10
5.725949
 20
0.616299
 30
0.000000
  0
VERTEX
  8
LAYER-1
 10
5.725949
 20
0.616299
 30
0.000000
  0
VERTEX
  8
LAYER-1
 10
5.689046
 20
0.616301
 30
0.000000
  0
SEQEND
  8
LAYER-1
  0
POLYLINE
  8
LAYER-1
 66
  1
 70
  0
 62
  0
 10
5.724778
 20
0.344643
 30
0.000000
  0
VERTEX
  8
LAYER-1
 10
5.724778
 20
0.344643
 30
0.000000
  0
VERTEX
  8
LAYER-1
 10
5.724778
 20
0.616274
 30
0.000000
  0
SEQEND
  8
LAYER-1
  0
POLYLINE
  8
LAYER-1
 66
  1
 70
  0
 62
  0
 10
5.652444
 20
0.616270
 30
0.000000
  0
VERTEX
  8
LAYER-1
 10
5.652444
 20
0.616270
 30
0.000000
  0
VERTEX
  8
LAYER-1
 10
5.652444
 20
0.344642
 30
0.000000
  0
SEQEND
  8
LAYER-1
  0
POLYLINE
  8
LAYER-1
 66
  1
 70
  0
 62
  0
 10
5.687874
 20
0.344642
 30
0.000000
  0
VERTEX
  8
LAYER-1
 10
5.687874
 20
0.344642
 30
0.000000
  0
VERTEX
  8
LAYER-1
 10
5.687874
 20
0.616272
 30
0.000000
  0
SEQEND
  8
LAYER-1
  0
POLYLINE
  8
LAYER-1
 66
  1
 70
  0
 62
  0
 10
5.652749
 20
0.344783
 30
0.000000
  0
VERTEX
  8
LAYER-1
 10
5.652749
 20
0.344783
 30
0.000000
  0
VERTEX
  8
LAYER-1
 10
5.662689
 20
0.337784
 30
0.000000
  0
VERTEX
  8
LAYER-1
 10
5.677452
 20
0.339862
 30
0.000000
  0
VERTEX
  8
LAYER-1
 10
5.685968
 20
0.344225
 30
0.000000
  0
SEQEND
  8
LAYER-1
  0
POLYLINE
  8
LAYER-1
 66
  1
 70
  0
 62
  0
 10
5.685968
 20
0.344222
 30
0.000000
  0
VERTEX
  8
LAYER-1
 10
5.685968
 20
0.344222
 30
0.000000
  0
VERTEX
  8
LAYER-1
 10
5.652749
 20
0.344783
 30
0.000000
  0
SEQEND
  8
LAYER-1
  0
POLYLINE
  8
LAYER-1
 66
  1
 70
  0
 62
  0
 10
5.688178
 20
0.344783
 30
0.000000
  0
VERTEX
  8
LAYER-1
 10
5.688178
 20
0.344783
 30
0.000000
  0
VERTEX
  8
LAYER-1
 10
5.701349
 20
0.337737
 30
0.000000
  0
VERTEX
  8
LAYER-1
 10
5.718429
 20
0.342068
 30
0.000000
  0
VERTEX
  8
LAYER-1
 10
5.725081
 20
0.344785
 30
0.000000
  0
SEQEND
  8
LAYER-1
  0
POLYLINE
  8
LAYER-1
 66
  1
 70
  0
 62
  0
 10
5.725081
 20
0.344783
 30
0.000000
  0
VERTEX
  8
LAYER-1
 10
5.725081
 20
0.344783
 30
0.000000
  0
VERTEX
  8
LAYER-1
 10
5.688178
 20
0.344783
 30
0.000000
  0
SEQEND
  8
LAYER-1
  0
POLYLINE
  8
LAYER-1
 66
  1
 70
  0
 62
  0
 10
6.000760
 20
4.464644
 30
0.000000
  0
VERTEX
  8
LAYER-1
 10
6.000760
 20
4.464644
 30
0.000000
  0
VERTEX
  8
LAYER-1
 10
5.724342
 20
4.302719
 30
0.000000
  0
SEQEND
  8
LAYER-1
  0
POLYLINE
  8
LAYER-1
 66
  1
 70
  1
 62
  0
  0
VERTEX
  8
LAYER-1
 10
5.707357
 20
4.292769
 30
0.000000
  0
VERTEX
  8
LAYER-1
 10
5.746217
 20
4.363822
 30
0.000000
  0
VERTEX
  8
LAYER-1
 10
5.767278
 20
4.327870
 30
0.000000
  0
VERTEX
  8
LAYER-1
 10
5.788338
 20
4.291918
 30
0.000000
  0
VERTEX
  8
LAYER-1
 10
5.707357
 20
4.292769
 30
0.000000
  0
SEQEND
  8
LAYER-1
  0
CIRCLE
  8
LAYER-1
 62
  0
 10
3.702666
 20
1.860231
 30
0.000000
 40
0.022565
  0
CIRCLE
  8
LAYER-1
 62
  0
 10
3.702666
 20
1.860231
 30
0.000000
 40
0.016522
  0
CIRCLE
  8
LAYER-1
 62
  0
 10
3.702666
 20
1.860231
 30
0.000000
 40
0.013746
  0
CIRCLE
  8
LAYER-1
 62
  0
 10
3.702666
 20
1.860231
 30
0.000000
 40
0.008860
  0
POLYLINE
  8
LAYER-1
 66
  1
 70
  0
 62
  0
 40
0.027778
 41
0.027778
 10
3.659334
 20
0.240700
 30
0.000000
  0
VERTEX
  8
LAYER-1
 10
3.659334
 20
0.240700
 30
0.000000
  0
VERTEX
  8
LAYER-1
 10
0.750760
 20
0.240700
 30
0.000000
  0
SEQEND
  8
LAYER-1
  0
POLYLINE
  8
LAYER-1
 66
  1
 70
  0
 62
  0
 40
0.027778
 41
0.027778
 10
3.752951
 20
0.240700
 30
0.000000
  0
VERTEX
  8
LAYER-1
 10
3.752951
 20
0.240700
 30
0.000000
  0
VERTEX
  8
LAYER-1
 10
6.743816
 20
0.240700
 30
0.000000
  0
SEQEND
  8
LAYER-1
  0
POLYLINE
  8
LAYER-1
 66
  1
 70
  0
 62
  0
 10
0.750845
 20
0.037543
 30
0.000000
  0
VERTEX
  8
LAYER-1
 10
0.750845
 20
0.037543
 30
0.000000
  0
VERTEX
  8
LAYER-1
 10
0.777358
 20
0.034088
 30
0.000000
  0
VERTEX
  8
LAYER-1
 10
0.796717
 20
0.034088
 30
0.000000
  0
VERTEX
  8
LAYER-1
 10
0.816075
 20
0.037560
 30
0.000000
  0
VERTEX
  8
LAYER-1
 10
0.835434
 20
0.037560
 30
0.000000
  0
VERTEX
  8
LAYER-1
 10
0.881894
 20
0.044504
 30
0.000000
  0
VERTEX
  8
LAYER-1
 10
0.916740
 20
0.054921
 30
0.000000
  0
VERTEX
  8
LAYER-1
 10
0.939002
 20
0.059261
 30
0.000000
  0
VERTEX
  8
LAYER-1
 10
0.960780
 20
0.060998
 30
0.000000
  0
VERTEX
  8
LAYER-1
 10
0.990302
 20
0.058394
 30
0.000000
  0
VERTEX
  8
LAYER-1
 10
1.021276
 20
0.054921
 30
0.000000
  0
VERTEX
  8
LAYER-1
 10
1.048378
 20
0.047977
 30
0.000000
  0
VERTEX
  8
LAYER-1
 10
1.067736
 20
0.044504
 30
0.000000
  0
VERTEX
  8
LAYER-1
 10
1.098710
 20
0.041033
 30
0.000000
  0
VERTEX
  8
LAYER-1
 10
1.118068
 20
0.037560
 30
0.000000
  0
VERTEX
  8
LAYER-1
 10
1.141299
 20
0.034088
 30
0.000000
  0
VERTEX
  8
LAYER-1
 10
1.168401
 20
0.034088
 30
0.000000
  0
VERTEX
  8
LAYER-1
 10
1.195503
 20
0.034088
 30
0.000000
  0
VERTEX
  8
LAYER-1
 10
1.218733
 20
0.034088
 30
0.000000
  0
VERTEX
  8
LAYER-1
 10
1.241963
 20
0.030616
 30
0.000000
  0
VERTEX
  8
LAYER-1
 10
1.280681
 20
0.030616
 30
0.000000
  0
VERTEX
  8
LAYER-1
 10
1.311654
 20
0.030616
 30
0.000000
  0
VERTEX
  8
LAYER-1
 10
1.331013
 20
0.027144
 30
0.000000
  0
VERTEX
  8
LAYER-1
 10
1.361987
 20
0.023671
 30
0.000000
  0
VERTEX
  8
LAYER-1
 10
1.392961
 20
0.020198
 30
0.000000
  0
VERTEX
  8
LAYER-1
 10
1.431678
 20
0.020198
 30
0.000000
  0
VERTEX
  8
LAYER-1
 10
1.462651
 20
0.020198
 30
0.000000
  0
VERTEX
  8
LAYER-1
 10
1.501369
 20
0.020198
 30
0.000000
  0
VERTEX
  8
LAYER-1
 10
1.532342
 20
0.027144
 30
0.000000
  0
VERTEX
  8
LAYER-1
 10
1.555572
 20
0.027144
 30
0.000000
  0
VERTEX
  8
LAYER-1
 10
1.574931
 20
0.030616
 30
0.000000
  0
VERTEX
  8
LAYER-1
 10
1.598161
 20
0.030616
 30
0.000000
  0
VERTEX
  8
LAYER-1
 10
1.617520
 20
0.030616
 30
0.000000
  0
VERTEX
  8
LAYER-1
 10
1.660109
 20
0.030616
 30
0.000000
  0
VERTEX
  8
LAYER-1
 10
1.706569
 20
0.023671
 30
0.000000
  0
VERTEX
  8
LAYER-1
 10
1.749158
 20
0.020198
 30
0.000000
  0
VERTEX
  8
LAYER-1
 10
1.811106
 20
0.013254
 30
0.000000
  0
VERTEX
  8
LAYER-1
 10
1.869181
 20
0.006310
 30
0.000000
  0
VERTEX
  8
LAYER-1
 10
1.919513
 20
0.006310
 30
0.000000
  0
VERTEX
  8
LAYER-1
 10
1.946615
 20
0.006310
 30
0.000000
  0
VERTEX
  8
LAYER-1
 10
1.981461
 20
0.006310
 30
0.000000
  0
VERTEX
  8
LAYER-1
 10
2.001787
 20
0.007178
 30
0.000000
  0
VERTEX
  8
LAYER-1
 10
2.039053
 20
0.009348
 30
0.000000
  0
VERTEX
  8
LAYER-1
 10
2.085997
 20
0.020198
 30
0.000000
  0
VERTEX
  8
LAYER-1
 10
2.128586
 20
0.034088
 30
0.000000
  0
VERTEX
  8
LAYER-1
 10
2.163431
 20
0.044504
 30
0.000000
  0
VERTEX
  8
LAYER-1
 10
2.190534
 20
0.054921
 30
0.000000
  0
VERTEX
  8
LAYER-1
 10
2.213763
 20
0.061866
 30
0.000000
  0
VERTEX
  8
LAYER-1
 10
2.236993
 20
0.061866
 30
0.000000
  0
VERTEX
  8
LAYER-1
 10
2.260224
 20
0.061866
 30
0.000000
  0
VERTEX
  8
LAYER-1
 10
2.283454
 20
0.061866
 30
0.000000
  0
VERTEX
  8
LAYER-1
 10
2.318300
 20
0.054921
 30
0.000000
  0
VERTEX
  8
LAYER-1
 10
2.349273
 20
0.047977
 30
0.000000
  0
VERTEX
  8
LAYER-1
 10
2.372503
 20
0.041033
 30
0.000000
  0
VERTEX
  8
LAYER-1
 10
2.391862
 20
0.037560
 30
0.000000
  0
VERTEX
  8
LAYER-1
 10
2.415092
 20
0.030616
 30
0.000000
  0
VERTEX
  8
LAYER-1
 10
2.434451
 20
0.023671
 30
0.000000
  0
VERTEX
  8
LAYER-1
 10
2.457681
 20
0.020198
 30
0.000000
  0
VERTEX
  8
LAYER-1
 10
2.477039
 20
0.020198
 30
0.000000
  0
VERTEX
  8
LAYER-1
 10
2.508014
 20
0.016727
 30
0.000000
  0
VERTEX
  8
LAYER-1
 10
2.535116
 20
0.016727
 30
0.000000
  0
VERTEX
  8
LAYER-1
 10
2.569961
 20
0.016727
 30
0.000000
  0
VERTEX
  8
LAYER-1
 10
2.597063
 20
0.020198
 30
0.000000
  0
VERTEX
  8
LAYER-1
 10
2.631908
 20
0.030616
 30
0.000000
  0
VERTEX
  8
LAYER-1
 10
2.651267
 20
0.030616
 30
0.000000
  0
VERTEX
  8
LAYER-1
 10
2.674497
 20
0.030616
 30
0.000000
  0
VERTEX
  8
LAYER-1
 10
2.693856
 20
0.030616
 30
0.000000
  0
VERTEX
  8
LAYER-1
 10
2.717086
 20
0.034088
 30
0.000000
  0
VERTEX
  8
LAYER-1
 10
2.740316
 20
0.037560
 30
0.000000
  0
VERTEX
  8
LAYER-1
 10
2.771290
 20
0.037560
 30
0.000000
  0
VERTEX
  8
LAYER-1
 10
2.802263
 20
0.037560
 30
0.000000
  0
VERTEX
  8
LAYER-1
 10
2.825494
 20
0.037560
 30
0.000000
  0
VERTEX
  8
LAYER-1
 10
2.848724
 20
0.037560
 30
0.000000
  0
VERTEX
  8
LAYER-1
 10
2.868083
 20
0.034088
 30
0.000000
  0
VERTEX
  8
LAYER-1
 10
2.887442
 20
0.030616
 30
0.000000
  0
VERTEX
  8
LAYER-1
 10
2.906800
 20
0.027144
 30
0.000000
  0
VERTEX
  8
LAYER-1
 10
2.926159
 20
0.023671
 30
0.000000
  0
VERTEX
  8
LAYER-1
 10
2.957132
 20
0.016727
 30
0.000000
  0
VERTEX
  8
LAYER-1
 10
2.980362
 20
0.013254
 30
0.000000
  0
VERTEX
  8
LAYER-1
 10
3.003593
 20
0.013254
 30
0.000000
  0
VERTEX
  8
LAYER-1
 10
3.022951
 20
0.013254
 30
0.000000
  0
VERTEX
  8
LAYER-1
 10
3.050053
 20
0.013254
 30
0.000000
  0
VERTEX
  8
LAYER-1
 10
3.081027
 20
0.016727
 30
0.000000
  0
VERTEX
  8
LAYER-1
 10
3.135231
 20
0.027144
 30
0.000000
  0
VERTEX
  8
LAYER-1
 10
3.181692
 20
0.037560
 30
0.000000
  0
VERTEX
  8
LAYER-1
 10
3.224280
 20
0.044504
 30
0.000000
  0
VERTEX
  8
LAYER-1
 10
3.255254
 20
0.047977
 30
0.000000
  0
VERTEX
  8
LAYER-1
 10
3.293971
 20
0.051448
 30
0.000000
  0
VERTEX
  8
LAYER-1
 10
3.324945
 20
0.054921
 30
0.000000
  0
VERTEX
  8
LAYER-1
 10
3.350595
 20
0.055790
 30
0.000000
  0
VERTEX
  8
LAYER-1
 10
3.368018
 20
0.053619
 30
0.000000
  0
VERTEX
  8
LAYER-1
 10
3.389312
 20
0.048845
 30
0.000000
  0
VERTEX
  8
LAYER-1
 10
3.410122
 20
0.037560
 30
0.000000
  0
VERTEX
  8
LAYER-1
 10
3.433353
 20
0.034088
 30
0.000000
  0
VERTEX
  8
LAYER-1
 10
3.452712
 20
0.034088
 30
0.000000
  0
VERTEX
  8
LAYER-1
 10
3.472069
 20
0.034088
 30
0.000000
  0
VERTEX
  8
LAYER-1
 10
3.491429
 20
0.034088
 30
0.000000
  0
VERTEX
  8
LAYER-1
 10
3.522404
 20
0.034088
 30
0.000000
  0
VERTEX
  8
LAYER-1
 10
3.545634
 20
0.034088
 30
0.000000
  0
VERTEX
  8
LAYER-1
 10
3.568864
 20
0.034088
 30
0.000000
  0
VERTEX
  8
LAYER-1
 10
3.588223
 20
0.034088
 30
0.000000
  0
VERTEX
  8
LAYER-1
 10
3.611453
 20
0.034088
 30
0.000000
  0
VERTEX
  8
LAYER-1
 10
3.634683
 20
0.034088
 30
0.000000
  0
VERTEX
  8
LAYER-1
 10
3.654043
 20
0.034088
 30
0.000000
  0
VERTEX
  8
LAYER-1
 10
3.681145
 20
0.034088
 30
0.000000
  0
VERTEX
  8
LAYER-1
 10
3.704374
 20
0.030616
 30
0.000000
  0
VERTEX
  8
LAYER-1
 10
3.726637
 20
0.022803
 30
0.000000
  0
VERTEX
  8
LAYER-1
 10
3.767290
 20
0.020198
 30
0.000000
  0
VERTEX
  8
LAYER-1
 10
3.805039
 20
0.023671
 30
0.000000
  0
VERTEX
  8
LAYER-1
 10
3.824397
 20
0.030616
 30
0.000000
  0
VERTEX
  8
LAYER-1
 10
3.847628
 20
0.037560
 30
0.000000
  0
VERTEX
  8
LAYER-1
 10
3.867471
 20
0.041467
 30
0.000000
  0
VERTEX
  8
LAYER-1
 10
3.890217
 20
0.047977
 30
0.000000
  0
VERTEX
  8
LAYER-1
 10
3.913446
 20
0.047977
 30
0.000000
  0
VERTEX
  8
LAYER-1
 10
3.936676
 20
0.044504
 30
0.000000
  0
VERTEX
  8
LAYER-1
 10
3.959908
 20
0.044504
 30
0.000000
  0
VERTEX
  8
LAYER-1
 10
3.983138
 20
0.044504
 30
0.000000
  0
VERTEX
  8
LAYER-1
 10
4.002497
 20
0.041033
 30
0.000000
  0
VERTEX
  8
LAYER-1
 10
4.029599
 20
0.041033
 30
0.000000
  0
VERTEX
  8
LAYER-1
 10
4.060572
 20
0.041033
 30
0.000000
  0
VERTEX
  8
LAYER-1
 10
4.091546
 20
0.047977
 30
0.000000
  0
VERTEX
  8
LAYER-1
 10
4.110905
 20
0.051448
 30
0.000000
  0
VERTEX
  8
LAYER-1
 10
4.138006
 20
0.051448
 30
0.000000
  0
VERTEX
  8
LAYER-1
 10
4.161237
 20
0.054921
 30
0.000000
  0
VERTEX
  8
LAYER-1
 10
4.192210
 20
0.058394
 30
0.000000
  0
VERTEX
  8
LAYER-1
 10
4.215441
 20
0.058394
 30
0.000000
  0
VERTEX
  8
LAYER-1
 10
4.246415
 20
0.054921
 30
0.000000
  0
VERTEX
  8
LAYER-1
 10
4.289004
 20
0.044504
 30
0.000000
  0
VERTEX
  8
LAYER-1
 10
4.319977
 20
0.034088
 30
0.000000
  0
VERTEX
  8
LAYER-1
 10
4.354822
 20
0.023671
 30
0.000000
  0
VERTEX
  8
LAYER-1
 10
4.397896
 20
0.016726
 30
0.000000
  0
VERTEX
  8
LAYER-1
 10
4.445324
 20
0.017594
 30
0.000000
  0
VERTEX
  8
LAYER-1
 10
4.500495
 20
0.020198
 30
0.000000
  0
VERTEX
  8
LAYER-1
 10
4.567766
 20
0.020198
 30
0.000000
  0
VERTEX
  8
LAYER-1
 10
4.613260
 20
0.008914
 30
0.000000
  0
VERTEX
  8
LAYER-1
 10
4.643265
 20
0.002837
 30
0.000000
  0
VERTEX
  8
LAYER-1
 10
4.666496
 20
0.001969
 30
0.000000
  0
VERTEX
  8
LAYER-1
 10
4.701341
 20
0.001970
 30
0.000000
  0
VERTEX
  8
LAYER-1
 10
4.726507
 20
0.006310
 30
0.000000
  0
VERTEX
  8
LAYER-1
 10
4.753609
 20
0.016727
 30
0.000000
  0
VERTEX
  8
LAYER-1
 10
4.788455
 20
0.023671
 30
0.000000
  0
VERTEX
  8
LAYER-1
 10
4.815556
 20
0.030616
 30
0.000000
  0
VERTEX
  8
LAYER-1
 10
4.838788
 20
0.034088
 30
0.000000
  0
VERTEX
  8
LAYER-1
 10
4.862016
 20
0.037560
 30
0.000000
  0
VERTEX
  8
LAYER-1
 10
4.889119
 20
0.041033
 30
0.000000
  0
VERTEX
  8
LAYER-1
 10
4.916220
 20
0.047977
 30
0.000000
  0
VERTEX
  8
LAYER-1
 10
4.935580
 20
0.051448
 30
0.000000
  0
VERTEX
  8
LAYER-1
 10
4.966553
 20
0.054921
 30
0.000000
  0
VERTEX
  8
LAYER-1
 10
4.989783
 20
0.061866
 30
0.000000
  0
VERTEX
  8
LAYER-1
 10
5.013497
 20
0.072717
 30
0.000000
  0
VERTEX
  8
LAYER-1
 10
5.036244
 20
0.079227
 30
0.000000
  0
VERTEX
  8
LAYER-1
 10
5.059475
 20
0.079227
 30
0.000000
  0
VERTEX
  8
LAYER-1
 10
5.086576
 20
0.079227
 30
0.000000
  0
VERTEX
  8
LAYER-1
 10
5.113678
 20
0.079227
 30
0.000000
  0
VERTEX
  8
LAYER-1
 10
5.152395
 20
0.075754
 30
0.000000
  0
VERTEX
  8
LAYER-1
 10
5.206600
 20
0.072283
 30
0.000000
  0
VERTEX
  8
LAYER-1
 10
5.249187
 20
0.072283
 30
0.000000
  0
VERTEX
  8
LAYER-1
 10
5.280161
 20
0.072283
 30
0.000000
  0
VERTEX
  8
LAYER-1
 10
5.303392
 20
0.072283
 30
0.000000
  0
VERTEX
  8
LAYER-1
 10
5.326622
 20
0.072283
 30
0.000000
  0
VERTEX
  8
LAYER-1
 10
5.357595
 20
0.075754
 30
0.000000
  0
VERTEX
  8
LAYER-1
 10
5.396313
 20
0.075754
 30
0.000000
  0
VERTEX
  8
LAYER-1
 10
5.427286
 20
0.075754
 30
0.000000
  0
VERTEX
  8
LAYER-1
 10
5.450516
 20
0.079227
 30
0.000000
  0
VERTEX
  8
LAYER-1
 10
5.481490
 20
0.079227
 30
0.000000
  0
VERTEX
  8
LAYER-1
 10
5.500849
 20
0.079227
 30
0.000000
  0
VERTEX
  8
LAYER-1
 10
5.531822
 20
0.070546
 30
0.000000
  0
VERTEX
  8
LAYER-1
 10
5.558924
 20
0.058394
 30
0.000000
  0
VERTEX
  8
LAYER-1
 10
5.593769
 20
0.044504
 30
0.000000
  0
VERTEX
  8
LAYER-1
 10
5.620872
 20
0.037560
 30
0.000000
  0
VERTEX
  8
LAYER-1
 10
5.651845
 20
0.030616
 30
0.000000
  0
VERTEX
  8
LAYER-1
 10
5.679431
 20
0.028446
 30
0.000000
  0
VERTEX
  8
LAYER-1
 10
5.706050
 20
0.027144
 30
0.000000
  0
VERTEX
  8
LAYER-1
 10
5.729279
 20
0.030616
 30
0.000000
  0
VERTEX
  8
LAYER-1
 10
5.752509
 20
0.037560
 30
0.000000
  0
VERTEX
  8
LAYER-1
 10
5.779612
 20
0.041033
 30
0.000000
  0
VERTEX
  8
LAYER-1
 10
5.802842
 20
0.044504
 30
0.000000
  0
VERTEX
  8
LAYER-1
 10
5.826072
 20
0.047977
 30
0.000000
  0
VERTEX
  8
LAYER-1
 10
5.845431
 20
0.051448
 30
0.000000
  0
VERTEX
  8
LAYER-1
 10
5.868662
 20
0.051448
 30
0.000000
  0
VERTEX
  8
LAYER-1
 10
5.895764
 20
0.051448
 30
0.000000
  0
VERTEX
  8
LAYER-1
 10
5.915606
 20
0.054053
 30
0.000000
  0
VERTEX
  8
LAYER-1
 10
5.942223
 20
0.058394
 30
0.000000
  0
VERTEX
  8
LAYER-1
 10
5.965454
 20
0.065338
 30
0.000000
  0
VERTEX
  8
LAYER-1
 10
5.996428
 20
0.065338
 30
0.000000
  0
VERTEX
  8
LAYER-1
 10
6.027401
 20
0.065338
 30
0.000000
  0
VERTEX
  8
LAYER-1
 10
6.046760
 20
0.065338
 30
0.000000
  0
VERTEX
  8
LAYER-1
 10
6.100964
 20
0.058394
 30
0.000000
  0
VERTEX
  8
LAYER-1
 10
6.131937
 20
0.051448
 30
0.000000
  0
VERTEX
  8
LAYER-1
 10
6.151296
 20
0.047977
 30
0.000000
  0
VERTEX
  8
LAYER-1
 10
6.186142
 20
0.047977
 30
0.000000
  0
VERTEX
  8
LAYER-1
 10
6.209856
 20
0.055355
 30
0.000000
  0
VERTEX
  8
LAYER-1
 10
6.231634
 20
0.056223
 30
0.000000
  0
VERTEX
  8
LAYER-1
 10
6.283418
 20
0.063167
 30
0.000000
  0
VERTEX
  8
LAYER-1
 10
6.331814
 20
0.073151
 30
0.000000
  0
VERTEX
  8
LAYER-1
 10
6.368112
 20
0.076623
 30
0.000000
  0
VERTEX
  8
LAYER-1
 10
6.401022
 20
0.077057
 30
0.000000
  0
VERTEX
  8
LAYER-1
 10
6.417960
 20
0.072283
 30
0.000000
  0
VERTEX
  8
LAYER-1
 10
6.436351
 20
0.068810
 30
0.000000
  0
VERTEX
  8
LAYER-1
 10
6.467325
 20
0.063602
 30
0.000000
  0
VERTEX
  8
LAYER-1
 10
6.507493
 20
0.071848
 30
0.000000
  0
VERTEX
  8
LAYER-1
 10
6.522981
 20
0.079227
 30
0.000000
  0
VERTEX
  8
LAYER-1
 10
6.546211
 20
0.079227
 30
0.000000
  0
VERTEX
  8
LAYER-1
 10
6.569441
 20
0.079227
 30
0.000000
  0
VERTEX
  8
LAYER-1
 10
6.596543
 20
0.072283
 30
0.000000
  0
VERTEX
  8
LAYER-1
 10
6.619773
 20
0.058394
 30
0.000000
  0
VERTEX
  8
LAYER-1
 10
6.646875
 20
0.047977
 30
0.000000
  0
VERTEX
  8
LAYER-1
 10
6.673977
 20
0.037560
 30
0.000000
  0
VERTEX
  8
LAYER-1
 10
6.697207
 20
0.037560
 30
0.000000
  0
VERTEX
  8
LAYER-1
 10
6.727269
 20
0.037543
 30
0.000000
  0
VERTEX
  8
LAYER-1
 10
6.751412
 20
0.047977
 30
0.000000
  0
SEQEND
  8
LAYER-1
  0
TEXT
  8
LAYER-1
 62
  0
 10
5.834094
 20
0.544505
 30
0.000000
 40
0.125000
  1
Dustproof
 72
  5
 11
6.653538
 21
0.544505
 31
0.000000
  0
TEXT
  8
LAYER-1
 62
  0
 10
5.834094
 20
0.350060
 30
0.000000
 40
0.125000
  1
floor socket
 72
  5
 11
6.778538
 21
0.350060
 31
0.000000
  0
POLYLINE
  8
LAYER-1
 66
  1
 70
  0
 62
  0
 10
5.817601
 20
0.468115
 30
0.000000
  0
VERTEX
  8
LAYER-1
 10
5.817601
 20
0.468115
 30
0.000000
  0
VERTEX
  8
LAYER-1
 10
3.753735
 20
0.158535
 30
0.000000
  0
SEQEND
  8
LAYER-1
  0
POLYLINE
  8
LAYER-1
 66
  1
 70
  1
 62
  0
  0
VERTEX
  8
LAYER-1
 10
3.734267
 20
0.155615
 30
0.000000
  0
VERTEX
  8
LAYER-1
 10
3.796762
 20
0.207122
 30
0.000000
  0
VERTEX
  8
LAYER-1
 10
3.802943
 20
0.165916
 30
0.000000
  0
VERTEX
  8
LAYER-1
 10
3.809124
 20
0.124711
 30
0.000000
  0
VERTEX
  8
LAYER-1
 10
3.734267
 20
0.155615
 30
0.000000
  0
SEQEND
  8
LAYER-1
  0
TEXT
  8
LAYER-1
 62
  0
 10
1.792427
 20
8.461171
 30
0.000000
 40
0.125000
  1
OPEN STYLE SLIDING GRILLE
 72
  5
 11
4.236871
 21
8.461171
 31
0.000000
  0
LINE
  8
LAYER-1
 62
  0
 10
5.851452
 20
5.117839
 30
0.000000
 11
5.851452
 21
5.925285
 31
0.000000
  0
LINE
  8
LAYER-1
 62
  0
 10
5.770954
 20
5.117839
 30
0.000000
 11
5.976452
 21
5.117839
 31
0.000000
  0
LINE
  8
LAYER-1
 62
  0
 10
5.771389
 20
5.925285
 30
0.000000
 11
5.976452
 21
5.925285
 31
0.000000
  0
LINE
  8
LAYER-1
 62
  0
 10
5.851452
 20
5.732682
 30
0.000000
 11
5.851452
 21
5.117839
 31
0.000000
  0
LINE
  8
LAYER-1
 62
  0
 10
5.821989
 20
5.147302
 30
0.000000
 11
5.880914
 21
5.088376
 31
0.000000
  0
LINE
  8
LAYER-1
 62
  0
 10
5.821989
 20
5.954748
 30
0.000000
 11
5.880914
 21
5.895822
 31
0.000000
  0
TEXT
  8
LAYER-1
 62
  0
 10
6.006821
 20
5.453185
 30
0.000000
 40
0.125000
  1
      
 50
90.000000
  0
TEXT
  8
LAYER-1
 62
  0
 10
6.125760
 20
5.572283
 30
0.000000
 40
0.125000
  1
12"
 72
  5
 11
6.445205
 21
5.572283
 31
0.000000
  0
TEXT
  8
LAYER-1
 62
  0
 10
5.945205
 20
5.377838
 30
0.000000
 40
0.125000
  1
305mm
 72
  5
 11
6.611871
 21
5.377838
 31
0.000000
  0
LINE
  8
LAYER-1
 62
  0
 10
5.851454
 20
7.413239
 30
0.000000
 11
5.851454
 21
7.145199
 31
0.000000
  0
LINE
  8
LAYER-1
 62
  0
 10
5.768333
 20
7.413239
 30
0.000000
 11
5.976454
 21
7.413239
 31
0.000000
  0
LINE
  8
LAYER-1
 62
  0
 10
5.774196
 20
7.145199
 30
0.000000
 11
5.976454
 21
7.145199
 31
0.000000
  0
LINE
  8
LAYER-1
 62
  0
 10
5.880917
 20
7.383775
 30
0.000000
 11
5.821992
 21
7.442702
 31
0.000000
  0
LINE
  8
LAYER-1
 62
  0
 10
5.880917
 20
7.115736
 30
0.000000
 11
5.821992
 21
7.174662
 31
0.000000
  0
TEXT
  8
LAYER-1
 62
  0
 10
5.729570
 20
7.270855
 30
0.000000
 40
0.125000
  1
 
 50
90.000000
  0
TEXT
  8
LAYER-1
 62
  0
 10
6.167427
 20
7.294505
 30
0.000000
 40
0.125000
  1
4"
 72
  5
 11
6.389649
 21
7.294505
 31
0.000000
  0
TEXT
  8
LAYER-1
 62
  0
 10
5.945205
 20
7.100060
 30
0.000000
 40
0.125000
  1
102mm
 72
  5
 11
6.611871
 21
7.100060
 31
0.000000
  0
LINE
  8
LAYER-1
 62
  0
 10
4.458224
 20
7.676448
 30
0.000000
 11
4.867947
 21
7.676448
 31
0.000000
  0
LINE
  8
LAYER-1
 62
  0
 10
4.458224
 20
7.306658
 30
0.000000
 11
4.458224
 21
7.801448
 31
0.000000
  0
LINE
  8
LAYER-1
 62
  0
 10
4.867947
 20
7.304921
 30
0.000000
 11
4.867947
 21
7.801448
 31
0.000000
  0
LINE
  8
LAYER-1
 62
  0
 10
4.487687
 20
7.705911
 30
0.000000
 11
4.428762
 21
7.646986
 31
0.000000
  0
LINE
  8
LAYER-1
 62
  0
 10
4.897410
 20
7.705911
 30
0.000000
 11
4.838484
 21
7.646986
 31
0.000000
  0
TEXT
  8
LAYER-1
 62
  0
 10
4.654523
 20
7.799973
 30
0.000000
 40
0.125000
  1
 
  0
TEXT
  8
LAYER-1
 62
  0
 10
4.542427
 20
8.044505
 30
0.000000
 40
0.125000
  1
6"
 72
  5
 11
4.764649
 21
8.044505
 31
0.000000
  0
TEXT
  8
LAYER-1
 62
  0
 10
4.320205
 20
7.850060
 30
0.000000
 40
0.125000
  1
152mm
 72
  5
 11
4.986871
 21
7.850060
 31
0.000000
  0
TEXT
  8
LAYER-1
 62
  0
 10
3.597982
 20
9.461171
 30
0.000000
 40
0.333333
  1
MobilFlex
 72
  5
 11
5.750760
 21
9.461171
 31
0.000000
  0
POLYLINE
  8
LAYER-1
 66
  1
 70
  1
 62
  0
  0
VERTEX
  8
LAYER-1
 10
1.792426
 20
9.981145
 30
0.000000
  0
VERTEX
  8
LAYER-1
 10
2.030273
 20
9.981145
 30
0.000000
  0
VERTEX
  8
LAYER-1
 10
2.030273
 20
9.464201
 30
0.000000
  0
VERTEX
  8
LAYER-1
 10
1.792426
 20
9.464201
 30
0.000000
  0
SEQEND
  8
LAYER-1
  0
POLYLINE
  8
LAYER-1
 66
  1
 70
  1
 62
  0
  0
VERTEX
  8
LAYER-1
 10
2.104926
 20
9.981145
 30
0.000000
  0
VERTEX
  8
LAYER-1
 10
2.342773
 20
9.981145
 30
0.000000
  0
VERTEX
  8
LAYER-1
 10
2.342773
 20
9.464201
 30
0.000000
  0
VERTEX
  8
LAYER-1
 10
2.104926
 20
9.464201
 30
0.000000
  0
SEQEND
  8
LAYER-1
  0
POLYLINE
  8
LAYER-1
 66
  1
 70
  1
 62
  0
  0
VERTEX
  8
LAYER-1
 10
2.405273
 20
9.981145
 30
0.000000
  0
VERTEX
  8
LAYER-1
 10
2.643121
 20
9.981145
 30
0.000000
  0
VERTEX
  8
LAYER-1
 10
2.643121
 20
9.464201
 30
0.000000
  0
VERTEX
  8
LAYER-1
 10
2.405273
 20
9.464201
 30
0.000000
  0
SEQEND
  8
LAYER-1
  0
POLYLINE
  8
LAYER-1
 66
  1
 70
  1
 62
  0
  0
VERTEX
  8
LAYER-1
 10
2.709093
 20
9.981145
 30
0.000000
  0
VERTEX
  8
LAYER-1
 10
2.946940
 20
9.981145
 30
0.000000
  0
VERTEX
  8
LAYER-1
 10
2.946940
 20
9.464201
 30
0.000000
  0
VERTEX
  8
LAYER-1
 10
2.709093
 20
9.464201
 30
0.000000
  0
SEQEND
  8
LAYER-1
  0
POLYLINE
  8
LAYER-1
 66
  1
 70
  1
 62
  0
  0
VERTEX
  8
LAYER-1
 10
3.025933
 20
9.977230
 30
0.000000
  0
VERTEX
  8
LAYER-1
 10
3.401367
 20
9.977230
 30
0.000000
  0
VERTEX
  8
LAYER-1
 10
3.401367
 20
9.839210
 30
0.000000
  0
VERTEX
  8
LAYER-1
 10
3.025933
 20
9.839210
 30
0.000000
  0
SEQEND
  8
LAYER-1
  0
POLYLINE
  8
LAYER-1
 66
  1
 70
  1
 62
  0
  0
VERTEX
  8
LAYER-1
 10
3.025499
 20
9.749800
 30
0.000000
  0
VERTEX
  8
LAYER-1
 10
3.333659
 20
9.749800
 30
0.000000
  0
VERTEX
  8
LAYER-1
 10
3.333659
 20
9.615685
 30
0.000000
  0
VERTEX
  8
LAYER-1
 10
3.025499
 20
9.615685
 30
0.000000
  0
SEQEND
  8
LAYER-1
  0
POLYLINE
  8
LAYER-1
 66
  1
 70
  1
 62
  0
  0
VERTEX
  8
LAYER-1
 10
1.792426
 20
9.379574
 30
0.000000
  0
VERTEX
  8
LAYER-1
 10
5.710829
 20
9.379574
 30
0.000000
  0
VERTEX
  8
LAYER-1
 10
5.710829
 20
9.336171
 30
0.000000
  0
VERTEX
  8
LAYER-1
 10
1.792426
 20
9.336171
 30
0.000000
  0
SEQEND
  8
LAYER-1
  0
POLYLINE
  8
LAYER-1
 66
  1
 70
  0
 62
  0
 10
3.448149
 20
0.207644
 30
0.000000
  0
VERTEX
  8
LAYER-1
 10
3.448149
 20
0.207644
 30
0.000000
  0
VERTEX
  8
LAYER-1
 10
3.448149
 20
0.206454
 30
0.000000
  0
SEQEND
  8
LAYER-1
  0
POLYLINE
  8
LAYER-1
 66
  1
 70
  1
 62
  0
 10
1.276292
 20
0.112476
 30
0.000000
  0
VERTEX
  8
LAYER-1
 10
1.276292
 20
0.112476
 30
0.000000
  0
VERTEX
  8
LAYER-1
 10
1.283236
 20
0.086435
 30
0.000000
  0
VERTEX
  8
LAYER-1
 10
1.308410
 20
0.100323
 30
0.000000
  0
SEQEND
  8
LAYER-1
  0
POLYLINE
  8
LAYER-1
 66
  1
 70
  1
 62
  0
 10
1.466396
 20
0.217509
 30
0.000000
  0
VERTEX
  8
LAYER-1
 10
1.466396
 20
0.217509
 30
0.000000
  0
VERTEX
  8
LAYER-1
 10
1.453376
 20
0.194939
 30
0.000000
  0
VERTEX
  8
LAYER-1
 10
1.483758
 20
0.215772
 30
0.000000
  0
SEQEND
  8
LAYER-1
  0
POLYLINE
  8
LAYER-1
 66
  1
 70
  1
 62
  0
 10
1.112230
 20
0.153275
 30
0.000000
  0
VERTEX
  8
LAYER-1
 10
1.112230
 20
0.153275
 30
0.000000
  0
VERTEX
  8
LAYER-1
 10
1.095737
 20
0.128100
 30
0.000000
  0
VERTEX
  8
LAYER-1
 10
1.110493
 20
0.120288
 30
0.000000
  0
SEQEND
  8
LAYER-1
  0
POLYLINE
  8
LAYER-1
 66
  1
 70
  0
 62
  0
 10
1.278896
 20
0.154143
 30
0.000000
  0
VERTEX
  8
LAYER-1
 10
1.278896
 20
0.154143
 30
0.000000
  0
VERTEX
  8
LAYER-1
 10
1.274556
 20
0.154143
 30
0.000000
  0
VERTEX
  8
LAYER-1
 10
1.271084
 20
0.149803
 30
0.000000
  0
VERTEX
  8
LAYER-1
 10
1.270216
 20
0.144595
 30
0.000000
  0
VERTEX
  8
LAYER-1
 10
1.271952
 20
0.140255
 30
0.000000
  0
VERTEX
  8
LAYER-1
 10
1.276292
 20
0.138518
 30
0.000000
  0
VERTEX
  8
LAYER-1
 10
1.280632
 20
0.138518
 30
0.000000
  0
VERTEX
  8
LAYER-1
 10
1.284973
 20
0.141991
 30
0.000000
  0
VERTEX
  8
LAYER-1
 10
1.284973
 20
0.146331
 30
0.000000
  0
VERTEX
  8
LAYER-1
 10
1.284105
 20
0.150672
 30
0.000000
  0
VERTEX
  8
LAYER-1
 10
1.279764
 20
0.153275
 30
0.000000
  0
SEQEND
  8
LAYER-1
  0
POLYLINE
  8
LAYER-1
 66
  1
 70
  1
 62
  0
 10
0.916917
 20
0.192336
 30
0.000000
  0
VERTEX
  8
LAYER-1
 10
0.916917
 20
0.192336
 30
0.000000
  0
VERTEX
  8
LAYER-1
 10
0.903896
 20
0.169767
 30
0.000000
  0
VERTEX
  8
LAYER-1
 10
0.934278
 20
0.190599
 30
0.000000
  0
SEQEND
  8
LAYER-1
  0
POLYLINE
  8
LAYER-1
 66
  1
 70
  1
 62
  0
 10
1.048695
 20
0.192003
 30
0.000000
  0
VERTEX
  8
LAYER-1
 10
1.048695
 20
0.192003
 30
0.000000
  0
VERTEX
  8
LAYER-1
 10
1.036008
 20
0.172638
 30
0.000000
  0
VERTEX
  8
LAYER-1
 10
1.047359
 20
0.166628
 30
0.000000
  0
SEQEND
  8
LAYER-1
  0
POLYLINE
  8
LAYER-1
 66
  1
 70
  0
 62
  0
 10
1.406501
 20
0.173239
 30
0.000000
  0
VERTEX
  8
LAYER-1
 10
1.406501
 20
0.173239
 30
0.000000
  0
VERTEX
  8
LAYER-1
 10
1.402160
 20
0.173239
 30
0.000000
  0
VERTEX
  8
LAYER-1
 10
1.398688
 20
0.168899
 30
0.000000
  0
VERTEX
  8
LAYER-1
 10
1.397820
 20
0.163691
 30
0.000000
  0
VERTEX
  8
LAYER-1
 10
1.399556
 20
0.159350
 30
0.000000
  0
VERTEX
  8
LAYER-1
 10
1.403896
 20
0.157614
 30
0.000000
  0
VERTEX
  8
LAYER-1
 10
1.408237
 20
0.157614
 30
0.000000
  0
VERTEX
  8
LAYER-1
 10
1.412576
 20
0.161086
 30
0.000000
  0
VERTEX
  8
LAYER-1
 10
1.412576
 20
0.165426
 30
0.000000
  0
VERTEX
  8
LAYER-1
 10
1.411708
 20
0.169768
 30
0.000000
  0
VERTEX
  8
LAYER-1
 10
1.407369
 20
0.172372
 30
0.000000
  0
SEQEND
  8
LAYER-1
  0
POLYLINE
  8
LAYER-1
 66
  1
 70
  0
 62
  0
 10
1.164313
 20
0.147198
 30
0.000000
  0
VERTEX
  8
LAYER-1
 10
1.164313
 20
0.147198
 30
0.000000
  0
VERTEX
  8
LAYER-1
 10
1.159973
 20
0.147198
 30
0.000000
  0
VERTEX
  8
LAYER-1
 10
1.156500
 20
0.142857
 30
0.000000
  0
VERTEX
  8
LAYER-1
 10
1.155632
 20
0.137650
 30
0.000000
  0
VERTEX
  8
LAYER-1
 10
1.157368
 20
0.133309
 30
0.000000
  0
VERTEX
  8
LAYER-1
 10
1.161709
 20
0.131573
 30
0.000000
  0
VERTEX
  8
LAYER-1
 10
1.166049
 20
0.131573
 30
0.000000
  0
VERTEX
  8
LAYER-1
 10
1.170389
 20
0.135045
 30
0.000000
  0
VERTEX
  8
LAYER-1
 10
1.170389
 20
0.139386
 30
0.000000
  0
VERTEX
  8
LAYER-1
 10
1.169521
 20
0.143726
 30
0.000000
  0
VERTEX
  8
LAYER-1
 10
1.165180
 20
0.146330
 30
0.000000
  0
SEQEND
  8
LAYER-1
  0
POLYLINE
  8
LAYER-1
 66
  1
 70
  0
 62
  0
 10
1.000250
 20
0.139386
 30
0.000000
  0
VERTEX
  8
LAYER-1
 10
1.000250
 20
0.139386
 30
0.000000
  0
VERTEX
  8
LAYER-1
 10
0.995910
 20
0.139386
 30
0.000000
  0
VERTEX
  8
LAYER-1
 10
0.992438
 20
0.135045
 30
0.000000
  0
VERTEX
  8
LAYER-1
 10
0.991570
 20
0.129837
 30
0.000000
  0
VERTEX
  8
LAYER-1
 10
0.993305
 20
0.125497
 30
0.000000
  0
VERTEX
  8
LAYER-1
 10
0.997646
 20
0.123761
 30
0.000000
  0
VERTEX
  8
LAYER-1
 10
1.001986
 20
0.123761
 30
0.000000
  0
VERTEX
  8
LAYER-1
 10
1.006327
 20
0.127232
 30
0.000000
  0
VERTEX
  8
LAYER-1
 10
1.006327
 20
0.131573
 30
0.000000
  0
VERTEX
  8
LAYER-1
 10
1.005459
 20
0.135913
 30
0.000000
  0
VERTEX
  8
LAYER-1
 10
1.001118
 20
0.138518
 30
0.000000
  0
SEQEND
  8
LAYER-1
  0
POLYLINE
  8
LAYER-1
 66
  1
 70
  1
 62
  0
 10
1.628290
 20
0.164124
 30
0.000000
  0
VERTEX
  8
LAYER-1
 10
1.628290
 20
0.164124
 30
0.000000
  0
VERTEX
  8
LAYER-1
 10
1.602249
 20
0.157180
 30
0.000000
  0
VERTEX
  8
LAYER-1
 10
1.616137
 20
0.132006
 30
0.000000
  0
SEQEND
  8
LAYER-1
  0
POLYLINE
  8
LAYER-1
 66
  1
 70
  1
 62
  0
 10
1.689834
 20
0.104527
 30
0.000000
  0
VERTEX
  8
LAYER-1
 10
1.689834
 20
0.104527
 30
0.000000
  0
VERTEX
  8
LAYER-1
 10
1.712404
 20
0.091506
 30
0.000000
  0
VERTEX
  8
LAYER-1
 10
1.691571
 20
0.121888
 30
0.000000
  0
SEQEND
  8
LAYER-1
  0
POLYLINE
  8
LAYER-1
 66
  1
 70
  1
 62
  0
 10
1.221171
 20
0.171937
 30
0.000000
  0
VERTEX
  8
LAYER-1
 10
1.221171
 20
0.171937
 30
0.000000
  0
VERTEX
  8
LAYER-1
 10
1.195998
 20
0.188430
 30
0.000000
  0
VERTEX
  8
LAYER-1
 10
1.188185
 20
0.173673
 30
0.000000
  0
SEQEND
  8
LAYER-1
  0
POLYLINE
  8
LAYER-1
 66
  1
 70
  0
 62
  0
 10
1.639575
 20
0.200584
 30
0.000000
  0
VERTEX
  8
LAYER-1
 10
1.639575
 20
0.200584
 30
0.000000
  0
VERTEX
  8
LAYER-1
 10
1.639575
 20
0.204925
 30
0.000000
  0
VERTEX
  8
LAYER-1
 10
1.635234
 20
0.208397
 30
0.000000
  0
VERTEX
  8
LAYER-1
 10
1.630026
 20
0.209264
 30
0.000000
  0
VERTEX
  8
LAYER-1
 10
1.625686
 20
0.207529
 30
0.000000
  0
VERTEX
  8
LAYER-1
 10
1.623950
 20
0.203188
 30
0.000000
  0
VERTEX
  8
LAYER-1
 10
1.623950
 20
0.198848
 30
0.000000
  0
VERTEX
  8
LAYER-1
 10
1.627422
 20
0.194507
 30
0.000000
  0
VERTEX
  8
LAYER-1
 10
1.631762
 20
0.194507
 30
0.000000
  0
VERTEX
  8
LAYER-1
 10
1.636103
 20
0.195375
 30
0.000000
  0
VERTEX
  8
LAYER-1
 10
1.638708
 20
0.199716
 30
0.000000
  0
SEQEND
  8
LAYER-1
  0
POLYLINE
  8
LAYER-1
 66
  1
 70
  1
 62
  0
 10
1.591832
 20
0.176276
 30
0.000000
  0
VERTEX
  8
LAYER-1
 10
1.591832
 20
0.176276
 30
0.000000
  0
VERTEX
  8
LAYER-1
 10
1.569262
 20
0.189298
 30
0.000000
  0
VERTEX
  8
LAYER-1
 10
1.590094
 20
0.158916
 30
0.000000
  0
SEQEND
  8
LAYER-1
  0
POLYLINE
  8
LAYER-1
 66
  1
 70
  1
 62
  0
 10
1.239934
 20
0.188596
 30
0.000000
  0
VERTEX
  8
LAYER-1
 10
1.239934
 20
0.188596
 30
0.000000
  0
VERTEX
  8
LAYER-1
 10
1.220570
 20
0.201283
 30
0.000000
  0
VERTEX
  8
LAYER-1
 10
1.214558
 20
0.189932
 30
0.000000
  0
SEQEND
  8
LAYER-1
  0
POLYLINE
  8
LAYER-1
 66
  1
 70
  0
 62
  0
 10
1.705807
 20
0.064944
 30
0.000000
  0
VERTEX
  8
LAYER-1
 10
1.705807
 20
0.064944
 30
0.000000
  0
VERTEX
  8
LAYER-1
 10
1.705807
 20
0.060604
 30
0.000000
  0
VERTEX
  8
LAYER-1
 10
1.710148
 20
0.057131
 30
0.000000
  0
VERTEX
  8
LAYER-1
 10
1.715356
 20
0.056263
 30
0.000000
  0
VERTEX
  8
LAYER-1
 10
1.719696
 20
0.058000
 30
0.000000
  0
VERTEX
  8
LAYER-1
 10
1.721432
 20
0.062340
 30
0.000000
  0
VERTEX
  8
LAYER-1
 10
1.721432
 20
0.066681
 30
0.000000
  0
VERTEX
  8
LAYER-1
 10
1.717960
 20
0.071020
 30
0.000000
  0
VERTEX
  8
LAYER-1
 10
1.713620
 20
0.071020
 30
0.000000
  0
VERTEX
  8
LAYER-1
 10
1.709279
 20
0.070152
 30
0.000000
  0
VERTEX
  8
LAYER-1
 10
1.706674
 20
0.065812
 30
0.000000
  0
SEQEND
  8
LAYER-1
  0
POLYLINE
  8
LAYER-1
 66
  1
 70
  0
 62
  0
 10
1.215095
 20
0.119854
 30
0.000000
  0
VERTEX
  8
LAYER-1
 10
1.215095
 20
0.119854
 30
0.000000
  0
VERTEX
  8
LAYER-1
 10
1.215095
 20
0.124194
 30
0.000000
  0
VERTEX
  8
LAYER-1
 10
1.210754
 20
0.127666
 30
0.000000
  0
VERTEX
  8
LAYER-1
 10
1.205546
 20
0.128534
 30
0.000000
  0
VERTEX
  8
LAYER-1
 10
1.201206
 20
0.126798
 30
0.000000
  0
VERTEX
  8
LAYER-1
 10
1.199470
 20
0.122457
 30
0.000000
  0
VERTEX
  8
LAYER-1
 10
1.199470
 20
0.118117
 30
0.000000
  0
VERTEX
  8
LAYER-1
 10
1.202941
 20
0.113776
 30
0.000000
  0
VERTEX
  8
LAYER-1
 10
1.207282
 20
0.113776
 30
0.000000
  0
VERTEX
  8
LAYER-1
 10
1.211623
 20
0.114644
 30
0.000000
  0
VERTEX
  8
LAYER-1
 10
1.214228
 20
0.118985
 30
0.000000
  0
SEQEND
  8
LAYER-1
  0
POLYLINE
  8
LAYER-1
 66
  1
 70
  0
 62
  0
 10
1.517179
 20
0.154577
 30
0.000000
  0
VERTEX
  8
LAYER-1
 10
1.517179
 20
0.154577
 30
0.000000
  0
VERTEX
  8
LAYER-1
 10
1.517179
 20
0.158918
 30
0.000000
  0
VERTEX
  8
LAYER-1
 10
1.512838
 20
0.162389
 30
0.000000
  0
VERTEX
  8
LAYER-1
 10
1.507630
 20
0.163257
 30
0.000000
  0
VERTEX
  8
LAYER-1
 10
1.503290
 20
0.161522
 30
0.000000
  0
VERTEX
  8
LAYER-1
 10
1.501554
 20
0.157181
 30
0.000000
  0
VERTEX
  8
LAYER-1
 10
1.501554
 20
0.152841
 30
0.000000
  0
VERTEX
  8
LAYER-1
 10
1.505025
 20
0.148500
 30
0.000000
  0
VERTEX
  8
LAYER-1
 10
1.509366
 20
0.148500
 30
0.000000
  0
VERTEX
  8
LAYER-1
 10
1.513707
 20
0.149368
 30
0.000000
  0
VERTEX
  8
LAYER-1
 10
1.516312
 20
0.153709
 30
0.000000
  0
SEQEND
  8
LAYER-1
  0
POLYLINE
  8
LAYER-1
 66
  1
 70
  1
 62
  0
 10
1.736363
 20
0.146764
 30
0.000000
  0
VERTEX
  8
LAYER-1
 10
1.736363
 20
0.146764
 30
0.000000
  0
VERTEX
  8
LAYER-1
 10
1.743307
 20
0.120723
 30
0.000000
  0
VERTEX
  8
LAYER-1
 10
1.762405
 20
0.136347
 30
0.000000
  0
SEQEND
  8
LAYER-1
  0
POLYLINE
  8
LAYER-1
 66
  1
 70
  1
 62
  0
 10
1.920390
 20
0.168466
 30
0.000000
  0
VERTEX
  8
LAYER-1
 10
1.920390
 20
0.168466
 30
0.000000
  0
VERTEX
  8
LAYER-1
 10
1.907369
 20
0.145897
 30
0.000000
  0
VERTEX
  8
LAYER-1
 10
1.937751
 20
0.166729
 30
0.000000
  0
SEQEND
  8
LAYER-1
  0
POLYLINE
  8
LAYER-1
 66
  1
 70
  1
 62
  0
 10
1.970295
 20
0.067006
 30
0.000000
  0
VERTEX
  8
LAYER-1
 10
1.970295
 20
0.067006
 30
0.000000
  0
VERTEX
  8
LAYER-1
 10
1.953803
 20
0.041832
 30
0.000000
  0
VERTEX
  8
LAYER-1
 10
1.968559
 20
0.034019
 30
0.000000
  0
SEQEND
  8
LAYER-1
  0
POLYLINE
  8
LAYER-1
 66
  1
 70
  0
 62
  0
 10
1.708585
 20
0.171070
 30
0.000000
  0
VERTEX
  8
LAYER-1
 10
1.708585
 20
0.171070
 30
0.000000
  0
VERTEX
  8
LAYER-1
 10
1.704244
 20
0.171070
 30
0.000000
  0
VERTEX
  8
LAYER-1
 10
1.700773
 20
0.166729
 30
0.000000
  0
VERTEX
  8
LAYER-1
 10
1.699905
 20
0.161522
 30
0.000000
  0
VERTEX
  8
LAYER-1
 10
1.701640
 20
0.157181
 30
0.000000
  0
VERTEX
  8
LAYER-1
 10
1.705980
 20
0.155445
 30
0.000000
  0
VERTEX
  8
LAYER-1
 10
1.710321
 20
0.155445
 30
0.000000
  0
VERTEX
  8
LAYER-1
 10
1.714661
 20
0.158917
 30
0.000000
  0
VERTEX
  8
LAYER-1
 10
1.714661
 20
0.163257
 30
0.000000
  0
VERTEX
  8
LAYER-1
 10
1.713793
 20
0.167598
 30
0.000000
  0
VERTEX
  8
LAYER-1
 10
1.709453
 20
0.170202
 30
0.000000
  0
SEQEND
  8
LAYER-1
  0
POLYLINE
  8
LAYER-1
 66
  1
 70
  1
 62
  0
 10
1.745912
 20
0.103361
 30
0.000000
  0
VERTEX
  8
LAYER-1
 10
1.745912
 20
0.103361
 30
0.000000
  0
VERTEX
  8
LAYER-1
 10
1.732890
 20
0.080792
 30
0.000000
  0
VERTEX
  8
LAYER-1
 10
1.763273
 20
0.101624
 30
0.000000
  0
SEQEND
  8
LAYER-1
  0
POLYLINE
  8
LAYER-1
 66
  1
 70
  1
 62
  0
 10
2.001712
 20
0.049114
 30
0.000000
  0
VERTEX
  8
LAYER-1
 10
2.001712
 20
0.049114
 30
0.000000
  0
VERTEX
  8
LAYER-1
 10
2.014399
 20
0.068478
 30
0.000000
  0
VERTEX
  8
LAYER-1
 10
2.003048
 20
0.074489
 30
0.000000
  0
SEQEND
  8
LAYER-1
  0
POLYLINE
  8
LAYER-1
 66
  1
 70
  0
 62
  0
 10
1.900937
 20
0.049561
 30
0.000000
  0
VERTEX
  8
LAYER-1
 10
1.900937
 20
0.049561
 30
0.000000
  0
VERTEX
  8
LAYER-1
 10
1.905278
 20
0.049561
 30
0.000000
  0
VERTEX
  8
LAYER-1
 10
1.908750
 20
0.053902
 30
0.000000
  0
VERTEX
  8
LAYER-1
 10
1.909618
 20
0.059109
 30
0.000000
  0
VERTEX
  8
LAYER-1
 10
1.907882
 20
0.063450
 30
0.000000
  0
VERTEX
  8
LAYER-1
 10
1.903541
 20
0.065186
 30
0.000000
  0
VERTEX
  8
LAYER-1
 10
1.899201
 20
0.065186
 30
0.000000
  0
VERTEX
  8
LAYER-1
 10
1.894861
 20
0.061714
 30
0.000000
  0
VERTEX
  8
LAYER-1
 10
1.894861
 20
0.057374
 30
0.000000
  0
VERTEX
  8
LAYER-1
 10
1.895729
 20
0.053033
 30
0.000000
  0
VERTEX
  8
LAYER-1
 10
1.900069
 20
0.050428
 30
0.000000
  0
SEQEND
  8
LAYER-1
  0
POLYLINE
  8
LAYER-1
 66
  1
 70
  0
 62
  0
 10
1.590441
 20
0.085429
 30
0.000000
  0
VERTEX
  8
LAYER-1
 10
1.590441
 20
0.085429
 30
0.000000
  0
VERTEX
  8
LAYER-1
 10
1.594782
 20
0.085429
 30
0.000000
  0
VERTEX
  8
LAYER-1
 10
1.598254
 20
0.089769
 30
0.000000
  0
VERTEX
  8
LAYER-1
 10
1.599123
 20
0.094977
 30
0.000000
  0
VERTEX
  8
LAYER-1
 10
1.597387
 20
0.099318
 30
0.000000
  0
VERTEX
  8
LAYER-1
 10
1.593046
 20
0.101054
 30
0.000000
  0
VERTEX
  8
LAYER-1
 10
1.588705
 20
0.101054
 30
0.000000
  0
VERTEX
  8
LAYER-1
 10
1.584365
 20
0.097582
 30
0.000000
  0
VERTEX
  8
LAYER-1
 10
1.584365
 20
0.093241
 30
0.000000
  0
VERTEX
  8
LAYER-1
 10
1.585234
 20
0.088900
 30
0.000000
  0
VERTEX
  8
LAYER-1
 10
1.589574
 20
0.086296
 30
0.000000
  0
SEQEND
  8
LAYER-1
  0
POLYLINE
  8
LAYER-1
 66
  1
 70
  1
 62
  0
 10
2.085755
 20
0.151538
 30
0.000000
  0
VERTEX
  8
LAYER-1
 10
2.085755
 20
0.151538
 30
0.000000
  0
VERTEX
  8
LAYER-1
 10
2.059715
 20
0.144594
 30
0.000000
  0
VERTEX
  8
LAYER-1
 10
2.073602
 20
0.119420
 30
0.000000
  0
SEQEND
  8
LAYER-1
  0
POLYLINE
  8
LAYER-1
 66
  1
 70
  1
 62
  0
 10
1.824638
 20
0.111944
 30
0.000000
  0
VERTEX
  8
LAYER-1
 10
1.824638
 20
0.111944
 30
0.000000
  0
VERTEX
  8
LAYER-1
 10
1.802068
 20
0.124965
 30
0.000000
  0
VERTEX
  8
LAYER-1
 10
1.822901
 20
0.094582
 30
0.000000
  0
SEQEND
  8
LAYER-1
  0
POLYLINE
  8
LAYER-1
 66
  1
 70
  1
 62
  0
 10
1.854496
 20
0.034370
 30
0.000000
  0
VERTEX
  8
LAYER-1
 10
1.854496
 20
0.034370
 30
0.000000
  0
VERTEX
  8
LAYER-1
 10
1.879669
 20
0.017877
 30
0.000000
  0
VERTEX
  8
LAYER-1
 10
1.887482
 20
0.032634
 30
0.000000
  0
SEQEND
  8
LAYER-1
  0
POLYLINE
  8
LAYER-1
 66
  1
 70
  0
 62
  0
 10
2.117005
 20
0.201017
 30
0.000000
  0
VERTEX
  8
LAYER-1
 10
2.117005
 20
0.201017
 30
0.000000
  0
VERTEX
  8
LAYER-1
 10
2.117005
 20
0.205357
 30
0.000000
  0
VERTEX
  8
LAYER-1
 10
2.112665
 20
0.208829
 30
0.000000
  0
VERTEX
  8
LAYER-1
 10
2.107457
 20
0.209697
 30
0.000000
  0
VERTEX
  8
LAYER-1
 10
2.103116
 20
0.207961
 30
0.000000
  0
VERTEX
  8
LAYER-1
 10
2.101380
 20
0.203620
 30
0.000000
  0
VERTEX
  8
LAYER-1
 10
2.101380
 20
0.199281
 30
0.000000
  0
VERTEX
  8
LAYER-1
 10
2.104852
 20
0.194940
 30
0.000000
  0
VERTEX
  8
LAYER-1
 10
2.109193
 20
0.194940
 30
0.000000
  0
VERTEX
  8
LAYER-1
 10
2.113534
 20
0.195808
 30
0.000000
  0
VERTEX
  8
LAYER-1
 10
2.116138
 20
0.200149
 30
0.000000
  0
SEQEND
  8
LAYER-1
  0
POLYLINE
  8
LAYER-1
 66
  1
 70
  1
 62
  0
 10
2.049298
 20
0.163691
 30
0.000000
  0
VERTEX
  8
LAYER-1
 10
2.049298
 20
0.163691
 30
0.000000
  0
VERTEX
  8
LAYER-1
 10
2.026727
 20
0.176712
 30
0.000000
  0
VERTEX
  8
LAYER-1
 10
2.047560
 20
0.146330
 30
0.000000
  0
SEQEND
  8
LAYER-1
  0
POLYLINE
  8
LAYER-1
 66
  1
 70
  1
 62
  0
 10
0.818059
 20
0.200315
 30
0.000000
  0
VERTEX
  8
LAYER-1
 10
0.818059
 20
0.200315
 30
0.000000
  0
VERTEX
  8
LAYER-1
 10
0.798695
 20
0.213002
 30
0.000000
  0
VERTEX
  8
LAYER-1
 10
0.792684
 20
0.201651
 30
0.000000
  0
SEQEND
  8
LAYER-1
  0
POLYLINE
  8
LAYER-1
 66
  1
 70
  0
 62
  0
 10
1.828977
 20
0.171840
 30
0.000000
  0
VERTEX
  8
LAYER-1
 10
1.828977
 20
0.171840
 30
0.000000
  0
VERTEX
  8
LAYER-1
 10
1.828977
 20
0.176180
 30
0.000000
  0
VERTEX
  8
LAYER-1
 10
1.824636
 20
0.179653
 30
0.000000
  0
VERTEX
  8
LAYER-1
 10
1.819429
 20
0.180520
 30
0.000000
  0
VERTEX
  8
LAYER-1
 10
1.815088
 20
0.178785
 30
0.000000
  0
VERTEX
  8
LAYER-1
 10
1.813352
 20
0.174444
 30
0.000000
  0
VERTEX
  8
LAYER-1
 10
1.813352
 20
0.170103
 30
0.000000
  0
VERTEX
  8
LAYER-1
 10
1.816824
 20
0.165763
 30
0.000000
  0
VERTEX
  8
LAYER-1
 10
1.821165
 20
0.165763
 30
0.000000
  0
VERTEX
  8
LAYER-1
 10
1.825505
 20
0.166631
 30
0.000000
  0
VERTEX
  8
LAYER-1
 10
1.828110
 20
0.170972
 30
0.000000
  0
SEQEND
  8
LAYER-1
  0
POLYLINE
  8
LAYER-1
 66
  1
 70
  0
 62
  0
 10
0.794956
 20
0.133308
 30
0.000000
  0
VERTEX
  8
LAYER-1
 10
0.794956
 20
0.133308
 30
0.000000
  0
VERTEX
  8
LAYER-1
 10
0.794956
 20
0.137649
 30
0.000000
  0
VERTEX
  8
LAYER-1
 10
0.790616
 20
0.141120
 30
0.000000
  0
VERTEX
  8
LAYER-1
 10
0.785408
 20
0.141988
 30
0.000000
  0
VERTEX
  8
LAYER-1
 10
0.781067
 20
0.140253
 30
0.000000
  0
VERTEX
  8
LAYER-1
 10
0.779331
 20
0.135912
 30
0.000000
  0
VERTEX
  8
LAYER-1
 10
0.779331
 20
0.131572
 30
0.000000
  0
VERTEX
  8
LAYER-1
 10
0.782803
 20
0.127231
 30
0.000000
  0
VERTEX
  8
LAYER-1
 10
0.787144
 20
0.127231
 30
0.000000
  0
VERTEX
  8
LAYER-1
 10
0.791485
 20
0.128099
 30
0.000000
  0
VERTEX
  8
LAYER-1
 10
0.794089
 20
0.132440
 30
0.000000
  0
SEQEND
  8
LAYER-1
  0
POLYLINE
  8
LAYER-1
 66
  1
 70
  0
 62
  0
 10
1.917352
 20
0.201013
 30
0.000000
  0
VERTEX
  8
LAYER-1
 10
1.917352
 20
0.201013
 30
0.000000
  0
VERTEX
  8
LAYER-1
 10
1.917352
 20
0.205354
 30
0.000000
  0
VERTEX
  8
LAYER-1
 10
1.913012
 20
0.208826
 30
0.000000
  0
VERTEX
  8
LAYER-1
 10
1.907804
 20
0.209694
 30
0.000000
  0
VERTEX
  8
LAYER-1
 10
1.903463
 20
0.207959
 30
0.000000
  0
VERTEX
  8
LAYER-1
 10
1.901727
 20
0.203618
 30
0.000000
  0
VERTEX
  8
LAYER-1
 10
1.901727
 20
0.199278
 30
0.000000
  0
VERTEX
  8
LAYER-1
 10
1.905199
 20
0.194937
 30
0.000000
  0
VERTEX
  8
LAYER-1
 10
1.909540
 20
0.194937
 30
0.000000
  0
VERTEX
  8
LAYER-1
 10
1.913880
 20
0.195805
 30
0.000000
  0
VERTEX
  8
LAYER-1
 10
1.916485
 20
0.200146
 30
0.000000
  0
SEQEND
  8
LAYER-1
  0
POLYLINE
  8
LAYER-1
 66
  1
 70
  1
 62
  0
 10
1.476640
 20
0.065548
 30
0.000000
  0
VERTEX
  8
LAYER-1
 10
1.476640
 20
0.065548
 30
0.000000
  0
VERTEX
  8
LAYER-1
 10
1.450598
 20
0.058604
 30
0.000000
  0
VERTEX
  8
LAYER-1
 10
1.464486
 20
0.033430
 30
0.000000
  0
SEQEND
  8
LAYER-1
  0
POLYLINE
  8
LAYER-1
 66
  1
 70
  1
 62
  0
 10
2.323168
 20
0.128969
 30
0.000000
  0
VERTEX
  8
LAYER-1
 10
2.323168
 20
0.128969
 30
0.000000
  0
VERTEX
  8
LAYER-1
 10
2.345737
 20
0.115948
 30
0.000000
  0
VERTEX
  8
LAYER-1
 10
2.324905
 20
0.146330
 30
0.000000
  0
SEQEND
  8
LAYER-1
  0
POLYLINE
  8
LAYER-1
 66
  1
 70
  1
 62
  0
 10
0.932542
 20
0.145895
 30
0.000000
  0
VERTEX
  8
LAYER-1
 10
0.932542
 20
0.145895
 30
0.000000
  0
VERTEX
  8
LAYER-1
 10
0.957716
 20
0.129403
 30
0.000000
  0
VERTEX
  8
LAYER-1
 10
0.965529
 20
0.144160
 30
0.000000
  0
SEQEND
  8
LAYER-1
  0
POLYLINE
  8
LAYER-1
 66
  1
 70
  0
 62
  0
 10
2.251119
 20
0.175841
 30
0.000000
  0
VERTEX
  8
LAYER-1
 10
2.251119
 20
0.175841
 30
0.000000
  0
VERTEX
  8
LAYER-1
 10
2.251119
 20
0.171500
 30
0.000000
  0
VERTEX
  8
LAYER-1
 10
2.255460
 20
0.168029
 30
0.000000
  0
VERTEX
  8
LAYER-1
 10
2.260668
 20
0.167161
 30
0.000000
  0
VERTEX
  8
LAYER-1
 10
2.265009
 20
0.168897
 30
0.000000
  0
VERTEX
  8
LAYER-1
 10
2.266744
 20
0.173237
 30
0.000000
  0
VERTEX
  8
LAYER-1
 10
2.266744
 20
0.177578
 30
0.000000
  0
VERTEX
  8
LAYER-1
 10
2.263273
 20
0.181918
 30
0.000000
  0
VERTEX
  8
LAYER-1
 10
2.258932
 20
0.181918
 30
0.000000
  0
VERTEX
  8
LAYER-1
 10
2.254591
 20
0.181050
 30
0.000000
  0
VERTEX
  8
LAYER-1
 10
2.251987
 20
0.176709
 30
0.000000
  0
SEQEND
  8
LAYER-1
  0
POLYLINE
  8
LAYER-1
 66
  1
 70
  1
 62
  0
 10
2.200772
 20
0.187128
 30
0.000000
  0
VERTEX
  8
LAYER-1
 10
2.200772
 20
0.187128
 30
0.000000
  0
VERTEX
  8
LAYER-1
 10
2.223341
 20
0.174106
 30
0.000000
  0
VERTEX
  8
LAYER-1
 10
2.202509
 20
0.204488
 30
0.000000
  0
SEQEND
  8
LAYER-1
  0
POLYLINE
  8
LAYER-1
 66
  1
 70
  1
 62
  0
 10
0.931140
 20
0.093646
 30
0.000000
  0
VERTEX
  8
LAYER-1
 10
0.931140
 20
0.093646
 30
0.000000
  0
VERTEX
  8
LAYER-1
 10
0.950506
 20
0.080959
 30
0.000000
  0
VERTEX
  8
LAYER-1
 10
0.956516
 20
0.092310
 30
0.000000
  0
SEQEND
  8
LAYER-1
  0
POLYLINE
  8
LAYER-1
 66
  1
 70
  0
 62
  0
 10
1.657282
 20
0.045931
 30
0.000000
  0
VERTEX
  8
LAYER-1
 10
1.657282
 20
0.045931
 30
0.000000
  0
VERTEX
  8
LAYER-1
 10
1.657282
 20
0.050270
 30
0.000000
  0
VERTEX
  8
LAYER-1
 10
1.652941
 20
0.053743
 30
0.000000
  0
VERTEX
  8
LAYER-1
 10
1.647734
 20
0.054611
 30
0.000000
  0
VERTEX
  8
LAYER-1
 10
1.643393
 20
0.052875
 30
0.000000
  0
VERTEX
  8
LAYER-1
 10
1.641657
 20
0.048535
 30
0.000000
  0
VERTEX
  8
LAYER-1
 10
1.641657
 20
0.044194
 30
0.000000
  0
VERTEX
  8
LAYER-1
 10
1.645129
 20
0.039854
 30
0.000000
  0
VERTEX
  8
LAYER-1
 10
1.649470
 20
0.039854
 30
0.000000
  0
VERTEX
  8
LAYER-1
 10
1.653810
 20
0.040722
 30
0.000000
  0
VERTEX
  8
LAYER-1
 10
1.656414
 20
0.045063
 30
0.000000
  0
SEQEND
  8
LAYER-1
  0
POLYLINE
  8
LAYER-1
 66
  1
 70
  0
 62
  0
 10
2.462925
 20
0.128969
 30
0.000000
  0
VERTEX
  8
LAYER-1
 10
2.462925
 20
0.128969
 30
0.000000
  0
VERTEX
  8
LAYER-1
 10
2.462925
 20
0.124629
 30
0.000000
  0
VERTEX
  8
LAYER-1
 10
2.467265
 20
0.121156
 30
0.000000
  0
VERTEX
  8
LAYER-1
 10
2.472474
 20
0.120288
 30
0.000000
  0
VERTEX
  8
LAYER-1
 10
2.476814
 20
0.122025
 30
0.000000
  0
VERTEX
  8
LAYER-1
 10
2.478550
 20
0.126364
 30
0.000000
  0
VERTEX
  8
LAYER-1
 10
2.478550
 20
0.130705
 30
0.000000
  0
VERTEX
  8
LAYER-1
 10
2.475078
 20
0.135045
 30
0.000000
  0
VERTEX
  8
LAYER-1
 10
2.470738
 20
0.135045
 30
0.000000
  0
VERTEX
  8
LAYER-1
 10
2.466397
 20
0.134176
 30
0.000000
  0
VERTEX
  8
LAYER-1
 10
2.463793
 20
0.129837
 30
0.000000
  0
SEQEND
  8
LAYER-1
  0
POLYLINE
  8
LAYER-1
 66
  1
 70
  0
 62
  0
 10
2.297126
 20
0.183656
 30
0.000000
  0
VERTEX
  8
LAYER-1
 10
2.297126
 20
0.183656
 30
0.000000
  0
VERTEX
  8
LAYER-1
 10
2.297126
 20
0.179316
 30
0.000000
  0
VERTEX
  8
LAYER-1
 10
2.301467
 20
0.175844
 30
0.000000
  0
VERTEX
  8
LAYER-1
 10
2.306675
 20
0.174976
 30
0.000000
  0
VERTEX
  8
LAYER-1
 10
2.311015
 20
0.176712
 30
0.000000
  0
VERTEX
  8
LAYER-1
 10
2.312751
 20
0.181051
 30
0.000000
  0
VERTEX
  8
LAYER-1
 10
2.312751
 20
0.185393
 30
0.000000
  0
VERTEX
  8
LAYER-1
 10
2.309280
 20
0.189733
 30
0.000000
  0
VERTEX
  8
LAYER-1
 10
2.304939
 20
0.189733
 30
0.000000
  0
VERTEX
  8
LAYER-1
 10
2.300598
 20
0.188864
 30
0.000000
  0
VERTEX
  8
LAYER-1
 10
2.297993
 20
0.184525
 30
0.000000
  0
SEQEND
  8
LAYER-1
  0
POLYLINE
  8
LAYER-1
 66
  1
 70
  1
 62
  0
 10
2.059280
 20
0.100757
 30
0.000000
  0
VERTEX
  8
LAYER-1
 10
2.059280
 20
0.100757
 30
0.000000
  0
VERTEX
  8
LAYER-1
 10
2.066224
 20
0.074717
 30
0.000000
  0
VERTEX
  8
LAYER-1
 10
2.091398
 20
0.088604
 30
0.000000
  0
SEQEND
  8
LAYER-1
  0
POLYLINE
  8
LAYER-1
 66
  1
 70
  1
 62
  0
 10
2.163794
 20
0.088000
 30
0.000000
  0
VERTEX
  8
LAYER-1
 10
2.163794
 20
0.088000
 30
0.000000
  0
VERTEX
  8
LAYER-1
 10
2.150773
 20
0.065429
 30
0.000000
  0
VERTEX
  8
LAYER-1
 10
2.181155
 20
0.086262
 30
0.000000
  0
SEQEND
  8
LAYER-1
  0
POLYLINE
  8
LAYER-1
 66
  1
 70
  1
 62
  0
 10
1.879758
 20
0.118455
 30
0.000000
  0
VERTEX
  8
LAYER-1
 10
1.879758
 20
0.118455
 30
0.000000
  0
VERTEX
  8
LAYER-1
 10
1.863265
 20
0.093281
 30
0.000000
  0
VERTEX
  8
LAYER-1
 10
1.878023
 20
0.085469
 30
0.000000
  0
SEQEND
  8
LAYER-1
  0
POLYLINE
  8
LAYER-1
 66
  1
 70
  0
 62
  0
 10
2.009801
 20
0.132007
 30
0.000000
  0
VERTEX
  8
LAYER-1
 10
2.009801
 20
0.132007
 30
0.000000
  0
VERTEX
  8
LAYER-1
 10
2.005460
 20
0.132007
 30
0.000000
  0
VERTEX
  8
LAYER-1
 10
2.001988
 20
0.127667
 30
0.000000
  0
VERTEX
  8
LAYER-1
 10
2.001120
 20
0.122459
 30
0.000000
  0
VERTEX
  8
LAYER-1
 10
2.002856
 20
0.118118
 30
0.000000
  0
VERTEX
  8
LAYER-1
 10
2.007197
 20
0.116382
 30
0.000000
  0
VERTEX
  8
LAYER-1
 10
2.011537
 20
0.116382
 30
0.000000
  0
VERTEX
  8
LAYER-1
 10
2.015877
 20
0.119854
 30
0.000000
  0
VERTEX
  8
LAYER-1
 10
2.015877
 20
0.124195
 30
0.000000
  0
VERTEX
  8
LAYER-1
 10
2.015009
 20
0.128536
 30
0.000000
  0
VERTEX
  8
LAYER-1
 10
2.010669
 20
0.131141
 30
0.000000
  0
SEQEND
  8
LAYER-1
  0
POLYLINE
  8
LAYER-1
 66
  1
 70
  1
 62
  0
 10
0.867439
 20
0.208395
 30
0.000000
  0
VERTEX
  8
LAYER-1
 10
0.867439
 20
0.208395
 30
0.000000
  0
VERTEX
  8
LAYER-1
 10
0.854418
 20
0.185825
 30
0.000000
  0
VERTEX
  8
LAYER-1
 10
0.884800
 20
0.206657
 30
0.000000
  0
SEQEND
  8
LAYER-1
  0
POLYLINE
  8
LAYER-1
 66
  1
 70
  1
 62
  0
 10
1.864835
 20
0.151104
 30
0.000000
  0
VERTEX
  8
LAYER-1
 10
1.864835
 20
0.151104
 30
0.000000
  0
VERTEX
  8
LAYER-1
 10
1.852148
 20
0.131740
 30
0.000000
  0
VERTEX
  8
LAYER-1
 10
1.863499
 20
0.125729
 30
0.000000
  0
SEQEND
  8
LAYER-1
  0
POLYLINE
  8
LAYER-1
 66
  1
 70
  0
 62
  0
 10
2.161710
 20
0.133743
 30
0.000000
  0
VERTEX
  8
LAYER-1
 10
2.161710
 20
0.133743
 30
0.000000
  0
VERTEX
  8
LAYER-1
 10
2.157370
 20
0.133743
 30
0.000000
  0
VERTEX
  8
LAYER-1
 10
2.153898
 20
0.129403
 30
0.000000
  0
VERTEX
  8
LAYER-1
 10
2.153030
 20
0.124195
 30
0.000000
  0
VERTEX
  8
LAYER-1
 10
2.154765
 20
0.119854
 30
0.000000
  0
VERTEX
  8
LAYER-1
 10
2.159106
 20
0.118118
 30
0.000000
  0
VERTEX
  8
LAYER-1
 10
2.163447
 20
0.118118
 30
0.000000
  0
VERTEX
  8
LAYER-1
 10
2.167787
 20
0.121591
 30
0.000000
  0
VERTEX
  8
LAYER-1
 10
2.167787
 20
0.125931
 30
0.000000
  0
VERTEX
  8
LAYER-1
 10
2.166919
 20
0.130272
 30
0.000000
  0
VERTEX
  8
LAYER-1
 10
2.162578
 20
0.132876
 30
0.000000
  0
SEQEND
  8
LAYER-1
  0
POLYLINE
  8
LAYER-1
 66
  1
 70
  0
 62
  0
 10
2.221606
 20
0.138951
 30
0.000000
  0
VERTEX
  8
LAYER-1
 10
2.221606
 20
0.138951
 30
0.000000
  0
VERTEX
  8
LAYER-1
 10
2.217265
 20
0.138951
 30
0.000000
  0
VERTEX
  8
LAYER-1
 10
2.213794
 20
0.134610
 30
0.000000
  0
VERTEX
  8
LAYER-1
 10
2.212926
 20
0.129403
 30
0.000000
  0
VERTEX
  8
LAYER-1
 10
2.214662
 20
0.125062
 30
0.000000
  0
VERTEX
  8
LAYER-1
 10
2.219002
 20
0.123326
 30
0.000000
  0
VERTEX
  8
LAYER-1
 10
2.223342
 20
0.123326
 30
0.000000
  0
VERTEX
  8
LAYER-1
 10
2.227683
 20
0.126798
 30
0.000000
  0
VERTEX
  8
LAYER-1
 10
2.227683
 20
0.131138
 30
0.000000
  0
VERTEX
  8
LAYER-1
 10
2.226815
 20
0.135479
 30
0.000000
  0
VERTEX
  8
LAYER-1
 10
2.222474
 20
0.138084
 30
0.000000
  0
SEQEND
  8
LAYER-1
  0
POLYLINE
  8
LAYER-1
 66
  1
 70
  0
 62
  0
 10
0.877856
 20
0.125930
 30
0.000000
  0
VERTEX
  8
LAYER-1
 10
0.877856
 20
0.125930
 30
0.000000
  0
VERTEX
  8
LAYER-1
 10
0.873515
 20
0.125930
 30
0.000000
  0
VERTEX
  8
LAYER-1
 10
0.870043
 20
0.121589
 30
0.000000
  0
VERTEX
  8
LAYER-1
 10
0.869175
 20
0.116381
 30
0.000000
  0
VERTEX
  8
LAYER-1
 10
0.870911
 20
0.112041
 30
0.000000
  0
VERTEX
  8
LAYER-1
 10
0.875252
 20
0.110305
 30
0.000000
  0
VERTEX
  8
LAYER-1
 10
0.879591
 20
0.110305
 30
0.000000
  0
VERTEX
  8
LAYER-1
 10
0.883932
 20
0.113776
 30
0.000000
  0
VERTEX
  8
LAYER-1
 10
0.883932
 20
0.118117
 30
0.000000
  0
VERTEX
  8
LAYER-1
 10
0.883064
 20
0.122458
 30
0.000000
  0
VERTEX
  8
LAYER-1
 10
0.878724
 20
0.125063
 30
0.000000
  0
SEQEND
  8
LAYER-1
  0
POLYLINE
  8
LAYER-1
 66
  1
 70
  1
 62
  0
 10
2.528898
 20
0.165860
 30
0.000000
  0
VERTEX
  8
LAYER-1
 10
2.528898
 20
0.165860
 30
0.000000
  0
VERTEX
  8
LAYER-1
 10
2.535842
 20
0.139819
 30
0.000000
  0
VERTEX
  8
LAYER-1
 10
2.561016
 20
0.153707
 30
0.000000
  0
SEQEND
  8
LAYER-1
  0
POLYLINE
  8
LAYER-1
 66
  1
 70
  1
 62
  0
 10
2.691224
 20
0.194506
 30
0.000000
  0
VERTEX
  8
LAYER-1
 10
2.691224
 20
0.194506
 30
0.000000
  0
VERTEX
  8
LAYER-1
 10
2.678203
 20
0.171937
 30
0.000000
  0
VERTEX
  8
LAYER-1
 10
2.708585
 20
0.192769
 30
0.000000
  0
SEQEND
  8
LAYER-1
  0
POLYLINE
  8
LAYER-1
 66
  1
 70
  1
 62
  0
 10
1.367439
 20
0.145461
 30
0.000000
  0
VERTEX
  8
LAYER-1
 10
1.367439
 20
0.145461
 30
0.000000
  0
VERTEX
  8
LAYER-1
 10
1.350946
 20
0.120287
 30
0.000000
  0
VERTEX
  8
LAYER-1
 10
1.365703
 20
0.112474
 30
0.000000
  0
SEQEND
  8
LAYER-1
  0
POLYLINE
  8
LAYER-1
 66
  1
 70
  0
 62
  0
 10
2.479419
 20
0.197110
 30
0.000000
  0
VERTEX
  8
LAYER-1
 10
2.479419
 20
0.197110
 30
0.000000
  0
VERTEX
  8
LAYER-1
 10
2.475078
 20
0.197110
 30
0.000000
  0
VERTEX
  8
LAYER-1
 10
2.471607
 20
0.192769
 30
0.000000
  0
VERTEX
  8
LAYER-1
 10
2.470738
 20
0.187562
 30
0.000000
  0
VERTEX
  8
LAYER-1
 10
2.472474
 20
0.183222
 30
0.000000
  0
VERTEX
  8
LAYER-1
 10
2.476814
 20
0.181485
 30
0.000000
  0
VERTEX
  8
LAYER-1
 10
2.481155
 20
0.181485
 30
0.000000
  0
VERTEX
  8
LAYER-1
 10
2.485496
 20
0.184957
 30
0.000000
  0
VERTEX
  8
LAYER-1
 10
2.485496
 20
0.189298
 30
0.000000
  0
VERTEX
  8
LAYER-1
 10
2.484627
 20
0.193638
 30
0.000000
  0
VERTEX
  8
LAYER-1
 10
2.480287
 20
0.196242
 30
0.000000
  0
SEQEND
  8
LAYER-1
  0
POLYLINE
  8
LAYER-1
 66
  1
 70
  1
 62
  0
 10
2.516746
 20
0.129401
 30
0.000000
  0
VERTEX
  8
LAYER-1
 10
2.516746
 20
0.129401
 30
0.000000
  0
VERTEX
  8
LAYER-1
 10
2.503724
 20
0.106832
 30
0.000000
  0
VERTEX
  8
LAYER-1
 10
2.534107
 20
0.127665
 30
0.000000
  0
SEQEND
  8
LAYER-1
  0
POLYLINE
  8
LAYER-1
 66
  1
 70
  1
 62
  0
 10
1.075671
 20
0.219773
 30
0.000000
  0
VERTEX
  8
LAYER-1
 10
1.075671
 20
0.219773
 30
0.000000
  0
VERTEX
  8
LAYER-1
 10
1.095036
 20
0.207087
 30
0.000000
  0
VERTEX
  8
LAYER-1
 10
1.101046
 20
0.218437
 30
0.000000
  0
SEQEND
  8
LAYER-1
  0
POLYLINE
  8
LAYER-1
 66
  1
 70
  0
 62
  0
 10
2.631328
 20
0.198847
 30
0.000000
  0
VERTEX
  8
LAYER-1
 10
2.631328
 20
0.198847
 30
0.000000
  0
VERTEX
  8
LAYER-1
 10
2.626988
 20
0.198847
 30
0.000000
  0
VERTEX
  8
LAYER-1
 10
2.623516
 20
0.194505
 30
0.000000
  0
VERTEX
  8
LAYER-1
 10
2.622648
 20
0.189298
 30
0.000000
  0
VERTEX
  8
LAYER-1
 10
2.624384
 20
0.184957
 30
0.000000
  0
VERTEX
  8
LAYER-1
 10
2.628724
 20
0.183222
 30
0.000000
  0
VERTEX
  8
LAYER-1
 10
2.633064
 20
0.183222
 30
0.000000
  0
VERTEX
  8
LAYER-1
 10
2.637405
 20
0.186693
 30
0.000000
  0
VERTEX
  8
LAYER-1
 10
2.637405
 20
0.191034
 30
0.000000
  0
VERTEX
  8
LAYER-1
 10
2.636537
 20
0.195374
 30
0.000000
  0
VERTEX
  8
LAYER-1
 10
2.632196
 20
0.197979
 30
0.000000
  0
SEQEND
  8
LAYER-1
  0
POLYLINE
  8
LAYER-1
 66
  1
 70
  0
 62
  0
 10
1.419523
 20
0.139385
 30
0.000000
  0
VERTEX
  8
LAYER-1
 10
1.419523
 20
0.139385
 30
0.000000
  0
VERTEX
  8
LAYER-1
 10
1.415182
 20
0.139385
 30
0.000000
  0
VERTEX
  8
LAYER-1
 10
1.411710
 20
0.135044
 30
0.000000
  0
VERTEX
  8
LAYER-1
 10
1.410842
 20
0.129836
 30
0.000000
  0
VERTEX
  8
LAYER-1
 10
1.412578
 20
0.125495
 30
0.000000
  0
VERTEX
  8
LAYER-1
 10
1.416918
 20
0.123760
 30
0.000000
  0
VERTEX
  8
LAYER-1
 10
1.421259
 20
0.123760
 30
0.000000
  0
VERTEX
  8
LAYER-1
 10
1.425598
 20
0.127231
 30
0.000000
  0
VERTEX
  8
LAYER-1
 10
1.425598
 20
0.131572
 30
0.000000
  0
VERTEX
  8
LAYER-1
 10
1.424730
 20
0.135913
 30
0.000000
  0
VERTEX
  8
LAYER-1
 10
1.420390
 20
0.138517
 30
0.000000
  0
SEQEND
  8
LAYER-1
  0
POLYLINE
  8
LAYER-1
 66
  1
 70
  0
 62
  0
 10
1.002855
 20
0.115947
 30
0.000000
  0
VERTEX
  8
LAYER-1
 10
1.002855
 20
0.115947
 30
0.000000
  0
VERTEX
  8
LAYER-1
 10
0.998515
 20
0.115947
 30
0.000000
  0
VERTEX
  8
LAYER-1
 10
0.995043
 20
0.111606
 30
0.000000
  0
VERTEX
  8
LAYER-1
 10
0.994175
 20
0.106399
 30
0.000000
  0
VERTEX
  8
LAYER-1
 10
0.995911
 20
0.102058
 30
0.000000
  0
VERTEX
  8
LAYER-1
 10
1.000250
 20
0.100322
 30
0.000000
  0
VERTEX
  8
LAYER-1
 10
1.004591
 20
0.100322
 30
0.000000
  0
VERTEX
  8
LAYER-1
 10
1.008931
 20
0.103794
 30
0.000000
  0
VERTEX
  8
LAYER-1
 10
1.008931
 20
0.108135
 30
0.000000
  0
VERTEX
  8
LAYER-1
 10
1.008063
 20
0.112475
 30
0.000000
  0
VERTEX
  8
LAYER-1
 10
1.003723
 20
0.115079
 30
0.000000
  0
SEQEND
  8
LAYER-1
  0
POLYLINE
  8
LAYER-1
 66
  1
 70
  1
 62
  0
 10
2.970737
 20
0.190166
 30
0.000000
  0
VERTEX
  8
LAYER-1
 10
2.970737
 20
0.190166
 30
0.000000
  0
VERTEX
  8
LAYER-1
 10
2.977682
 20
0.164125
 30
0.000000
  0
VERTEX
  8
LAYER-1
 10
3.002855
 20
0.178012
 30
0.000000
  0
SEQEND
  8
LAYER-1
  0
POLYLINE
  8
LAYER-1
 66
  1
 70
  1
 62
  0
 10
3.133064
 20
0.218813
 30
0.000000
  0
VERTEX
  8
LAYER-1
 10
3.133064
 20
0.218813
 30
0.000000
  0
VERTEX
  8
LAYER-1
 10
3.120043
 20
0.196242
 30
0.000000
  0
VERTEX
  8
LAYER-1
 10
3.150425
 20
0.217075
 30
0.000000
  0
SEQEND
  8
LAYER-1
  0
POLYLINE
  8
LAYER-1
 66
  1
 70
  1
 62
  0
 10
2.361363
 20
0.154576
 30
0.000000
  0
VERTEX
  8
LAYER-1
 10
2.361363
 20
0.154576
 30
0.000000
  0
VERTEX
  8
LAYER-1
 10
2.386536
 20
0.138082
 30
0.000000
  0
VERTEX
  8
LAYER-1
 10
2.394349
 20
0.152841
 30
0.000000
  0
SEQEND
  8
LAYER-1
  0
POLYLINE
  8
LAYER-1
 66
  1
 70
  0
 62
  0
 10
2.931675
 20
0.211000
 30
0.000000
  0
VERTEX
  8
LAYER-1
 10
2.931675
 20
0.211000
 30
0.000000
  0
VERTEX
  8
LAYER-1
 10
2.927334
 20
0.211000
 30
0.000000
  0
VERTEX
  8
LAYER-1
 10
2.923862
 20
0.206660
 30
0.000000
  0
VERTEX
  8
LAYER-1
 10
2.922994
 20
0.201452
 30
0.000000
  0
VERTEX
  8
LAYER-1
 10
2.924730
 20
0.197111
 30
0.000000
  0
VERTEX
  8
LAYER-1
 10
2.929071
 20
0.195375
 30
0.000000
  0
VERTEX
  8
LAYER-1
 10
2.933411
 20
0.195375
 30
0.000000
  0
VERTEX
  8
LAYER-1
 10
2.937752
 20
0.198847
 30
0.000000
  0
VERTEX
  8
LAYER-1
 10
2.937752
 20
0.203188
 30
0.000000
  0
VERTEX
  8
LAYER-1
 10
2.936884
 20
0.207529
 30
0.000000
  0
VERTEX
  8
LAYER-1
 10
2.932543
 20
0.210133
 30
0.000000
  0
SEQEND
  8
LAYER-1
  0
POLYLINE
  8
LAYER-1
 66
  1
 70
  1
 62
  0
 10
2.947301
 20
0.122458
 30
0.000000
  0
VERTEX
  8
LAYER-1
 10
2.947301
 20
0.122458
 30
0.000000
  0
VERTEX
  8
LAYER-1
 10
2.934280
 20
0.099887
 30
0.000000
  0
VERTEX
  8
LAYER-1
 10
2.964662
 20
0.120720
 30
0.000000
  0
SEQEND
  8
LAYER-1
  0
POLYLINE
  8
LAYER-1
 66
  1
 70
  1
 62
  0
 10
3.041751
 20
0.116045
 30
0.000000
  0
VERTEX
  8
LAYER-1
 10
3.041751
 20
0.116045
 30
0.000000
  0
VERTEX
  8
LAYER-1
 10
3.029064
 20
0.096681
 30
0.000000
  0
VERTEX
  8
LAYER-1
 10
3.040415
 20
0.090669
 30
0.000000
  0
SEQEND
  8
LAYER-1
  0
POLYLINE
  8
LAYER-1
 66
  1
 70
  0
 62
  0
 10
3.073168
 20
0.215341
 30
0.000000
  0
VERTEX
  8
LAYER-1
 10
3.073168
 20
0.215341
 30
0.000000
  0
VERTEX
  8
LAYER-1
 10
3.068828
 20
0.215341
 30
0.000000
  0
VERTEX
  8
LAYER-1
 10
3.065355
 20
0.210999
 30
0.000000
  0
VERTEX
  8
LAYER-1
 10
3.064487
 20
0.205792
 30
0.000000
  0
VERTEX
  8
LAYER-1
 10
3.066223
 20
0.201451
 30
0.000000
  0
VERTEX
  8
LAYER-1
 10
3.070564
 20
0.199716
 30
0.000000
  0
VERTEX
  8
LAYER-1
 10
3.074905
 20
0.199716
 30
0.000000
  0
VERTEX
  8
LAYER-1
 10
3.079244
 20
0.203187
 30
0.000000
  0
VERTEX
  8
LAYER-1
 10
3.079244
 20
0.207528
 30
0.000000
  0
VERTEX
  8
LAYER-1
 10
3.078377
 20
0.211868
 30
0.000000
  0
VERTEX
  8
LAYER-1
 10
3.074036
 20
0.214473
 30
0.000000
  0
SEQEND
  8
LAYER-1
  0
POLYLINE
  8
LAYER-1
 66
  1
 70
  0
 62
  0
 10
2.350079
 20
0.207528
 30
0.000000
  0
VERTEX
  8
LAYER-1
 10
2.350079
 20
0.207528
 30
0.000000
  0
VERTEX
  8
LAYER-1
 10
2.350079
 20
0.203187
 30
0.000000
  0
VERTEX
  8
LAYER-1
 10
2.354419
 20
0.199716
 30
0.000000
  0
VERTEX
  8
LAYER-1
 10
2.359627
 20
0.198847
 30
0.000000
  0
VERTEX
  8
LAYER-1
 10
2.363968
 20
0.200582
 30
0.000000
  0
VERTEX
  8
LAYER-1
 10
2.365704
 20
0.204923
 30
0.000000
  0
VERTEX
  8
LAYER-1
 10
2.365704
 20
0.209263
 30
0.000000
  0
VERTEX
  8
LAYER-1
 10
2.362232
 20
0.213604
 30
0.000000
  0
VERTEX
  8
LAYER-1
 10
2.357891
 20
0.213604
 30
0.000000
  0
VERTEX
  8
LAYER-1
 10
2.353550
 20
0.212735
 30
0.000000
  0
VERTEX
  8
LAYER-1
 10
2.350946
 20
0.208394
 30
0.000000
  0
SEQEND
  8
LAYER-1
  0
POLYLINE
  8
LAYER-1
 66
  1
 70
  0
 62
  0
 10
2.913445
 20
0.123324
 30
0.000000
  0
VERTEX
  8
LAYER-1
 10
2.913445
 20
0.123324
 30
0.000000
  0
VERTEX
  8
LAYER-1
 10
2.909104
 20
0.123324
 30
0.000000
  0
VERTEX
  8
LAYER-1
 10
2.905632
 20
0.118984
 30
0.000000
  0
VERTEX
  8
LAYER-1
 10
2.904765
 20
0.113775
 30
0.000000
  0
VERTEX
  8
LAYER-1
 10
2.906500
 20
0.109435
 30
0.000000
  0
VERTEX
  8
LAYER-1
 10
2.910841
 20
0.107699
 30
0.000000
  0
VERTEX
  8
LAYER-1
 10
2.915181
 20
0.107699
 30
0.000000
  0
VERTEX
  8
LAYER-1
 10
2.919522
 20
0.111171
 30
0.000000
  0
VERTEX
  8
LAYER-1
 10
2.919522
 20
0.115512
 30
0.000000
  0
VERTEX
  8
LAYER-1
 10
2.918654
 20
0.119853
 30
0.000000
  0
VERTEX
  8
LAYER-1
 10
2.914313
 20
0.122457
 30
0.000000
  0
SEQEND
  8
LAYER-1
  0
POLYLINE
  8
LAYER-1
 66
  1
 70
  1
 62
  0
 10
2.780635
 20
0.111607
 30
0.000000
  0
VERTEX
  8
LAYER-1
 10
2.780635
 20
0.111607
 30
0.000000
  0
VERTEX
  8
LAYER-1
 10
2.754592
 20
0.104663
 30
0.000000
  0
VERTEX
  8
LAYER-1
 10
2.768482
 20
0.079489
 30
0.000000
  0
SEQEND
  8
LAYER-1
  0
POLYLINE
  8
LAYER-1
 66
  1
 70
  1
 62
  0
 10
1.403898
 20
0.085999
 30
0.000000
  0
VERTEX
  8
LAYER-1
 10
1.403898
 20
0.085999
 30
0.000000
  0
VERTEX
  8
LAYER-1
 10
1.378723
 20
0.102492
 30
0.000000
  0
VERTEX
  8
LAYER-1
 10
1.370911
 20
0.087735
 30
0.000000
  0
SEQEND
  8
LAYER-1
  0
POLYLINE
  8
LAYER-1
 66
  1
 70
  0
 62
  0
 10
2.811885
 20
0.161086
 30
0.000000
  0
VERTEX
  8
LAYER-1
 10
2.811885
 20
0.161086
 30
0.000000
  0
VERTEX
  8
LAYER-1
 10
2.811885
 20
0.165426
 30
0.000000
  0
VERTEX
  8
LAYER-1
 10
2.807544
 20
0.168899
 30
0.000000
  0
VERTEX
  8
LAYER-1
 10
2.802336
 20
0.169767
 30
0.000000
  0
VERTEX
  8
LAYER-1
 10
2.797995
 20
0.168031
 30
0.000000
  0
VERTEX
  8
LAYER-1
 10
2.796260
 20
0.163690
 30
0.000000
  0
VERTEX
  8
LAYER-1
 10
2.796260
 20
0.159350
 30
0.000000
  0
VERTEX
  8
LAYER-1
 10
2.799731
 20
0.155011
 30
0.000000
  0
VERTEX
  8
LAYER-1
 10
2.804072
 20
0.155011
 30
0.000000
  0
VERTEX
  8
LAYER-1
 10
2.808413
 20
0.155878
 30
0.000000
  0
VERTEX
  8
LAYER-1
 10
2.811016
 20
0.160218
 30
0.000000
  0
SEQEND
  8
LAYER-1
  0
POLYLINE
  8
LAYER-1
 66
  1
 70
  1
 62
  0
 10
2.744175
 20
0.123761
 30
0.000000
  0
VERTEX
  8
LAYER-1
 10
2.744175
 20
0.123761
 30
0.000000
  0
VERTEX
  8
LAYER-1
 10
2.721607
 20
0.136781
 30
0.000000
  0
VERTEX
  8
LAYER-1
 10
2.742439
 20
0.106399
 30
0.000000
  0
SEQEND
  8
LAYER-1
  0
POLYLINE
  8
LAYER-1
 66
  1
 70
  1
 62
  0
 10
1.481689
 20
0.105263
 30
0.000000
  0
VERTEX
  8
LAYER-1
 10
1.481689
 20
0.105263
 30
0.000000
  0
VERTEX
  8
LAYER-1
 10
1.462323
 20
0.117950
 30
0.000000
  0
VERTEX
  8
LAYER-1
 10
1.456314
 20
0.106598
 30
0.000000
  0
SEQEND
  8
LAYER-1
  0
POLYLINE
  8
LAYER-1
 66
  1
 70
  0
 62
  0
 10
1.541919
 20
0.093812
 30
0.000000
  0
VERTEX
  8
LAYER-1
 10
1.541919
 20
0.093812
 30
0.000000
  0
VERTEX
  8
LAYER-1
 10
1.541919
 20
0.098151
 30
0.000000
  0
VERTEX
  8
LAYER-1
 10
1.537578
 20
0.101624
 30
0.000000
  0
VERTEX
  8
LAYER-1
 10
1.532371
 20
0.102492
 30
0.000000
  0
VERTEX
  8
LAYER-1
 10
1.528030
 20
0.100756
 30
0.000000
  0
VERTEX
  8
LAYER-1
 10
1.526294
 20
0.096416
 30
0.000000
  0
VERTEX
  8
LAYER-1
 10
1.526294
 20
0.092075
 30
0.000000
  0
VERTEX
  8
LAYER-1
 10
1.529766
 20
0.087735
 30
0.000000
  0
VERTEX
  8
LAYER-1
 10
1.534107
 20
0.087735
 30
0.000000
  0
VERTEX
  8
LAYER-1
 10
1.538447
 20
0.088604
 30
0.000000
  0
VERTEX
  8
LAYER-1
 10
1.541050
 20
0.092944
 30
0.000000
  0
SEQEND
  8
LAYER-1
  0
POLYLINE
  8
LAYER-1
 66
  1
 70
  0
 62
  0
 10
2.661711
 20
0.113343
 30
0.000000
  0
VERTEX
  8
LAYER-1
 10
2.661711
 20
0.113343
 30
0.000000
  0
VERTEX
  8
LAYER-1
 10
2.661711
 20
0.117684
 30
0.000000
  0
VERTEX
  8
LAYER-1
 10
2.657371
 20
0.121156
 30
0.000000
  0
VERTEX
  8
LAYER-1
 10
2.652163
 20
0.122024
 30
0.000000
  0
VERTEX
  8
LAYER-1
 10
2.647822
 20
0.120288
 30
0.000000
  0
VERTEX
  8
LAYER-1
 10
2.646086
 20
0.115948
 30
0.000000
  0
VERTEX
  8
LAYER-1
 10
2.646086
 20
0.111607
 30
0.000000
  0
VERTEX
  8
LAYER-1
 10
2.649558
 20
0.107267
 30
0.000000
  0
VERTEX
  8
LAYER-1
 10
2.653899
 20
0.107267
 30
0.000000
  0
VERTEX
  8
LAYER-1
 10
2.658240
 20
0.108136
 30
0.000000
  0
VERTEX
  8
LAYER-1
 10
2.660842
 20
0.112475
 30
0.000000
  0
SEQEND
  8
LAYER-1
  0
POLYLINE
  8
LAYER-1
 66
  1
 70
  1
 62
  0
 10
2.854418
 20
0.114647
 30
0.000000
  0
VERTEX
  8
LAYER-1
 10
2.854418
 20
0.114647
 30
0.000000
  0
VERTEX
  8
LAYER-1
 10
2.847474
 20
0.140687
 30
0.000000
  0
VERTEX
  8
LAYER-1
 10
2.822300
 20
0.126800
 30
0.000000
  0
SEQEND
  8
LAYER-1
  0
POLYLINE
  8
LAYER-1
 66
  1
 70
  1
 62
  0
 10
2.301467
 20
0.101624
 30
0.000000
  0
VERTEX
  8
LAYER-1
 10
2.301467
 20
0.101624
 30
0.000000
  0
VERTEX
  8
LAYER-1
 10
2.278897
 20
0.114647
 30
0.000000
  0
VERTEX
  8
LAYER-1
 10
2.299729
 20
0.084263
 30
0.000000
  0
SEQEND
  8
LAYER-1
  0
POLYLINE
  8
LAYER-1
 66
  1
 70
  1
 62
  0
 10
3.079245
 20
0.125931
 30
0.000000
  0
VERTEX
  8
LAYER-1
 10
3.079245
 20
0.125931
 30
0.000000
  0
VERTEX
  8
LAYER-1
 10
3.095739
 20
0.151104
 30
0.000000
  0
VERTEX
  8
LAYER-1
 10
3.080981
 20
0.158917
 30
0.000000
  0
SEQEND
  8
LAYER-1
  0
POLYLINE
  8
LAYER-1
 66
  1
 70
  0
 62
  0
 10
3.214661
 20
0.093810
 30
0.000000
  0
VERTEX
  8
LAYER-1
 10
3.214661
 20
0.093810
 30
0.000000
  0
VERTEX
  8
LAYER-1
 10
3.219002
 20
0.093810
 30
0.000000
  0
VERTEX
  8
LAYER-1
 10
3.222474
 20
0.098150
 30
0.000000
  0
VERTEX
  8
LAYER-1
 10
3.223342
 20
0.103359
 30
0.000000
  0
VERTEX
  8
LAYER-1
 10
3.221606
 20
0.107699
 30
0.000000
  0
VERTEX
  8
LAYER-1
 10
3.217265
 20
0.109435
 30
0.000000
  0
VERTEX
  8
LAYER-1
 10
3.212925
 20
0.109435
 30
0.000000
  0
VERTEX
  8
LAYER-1
 10
3.208584
 20
0.105963
 30
0.000000
  0
VERTEX
  8
LAYER-1
 10
3.208584
 20
0.101623
 30
0.000000
  0
VERTEX
  8
LAYER-1
 10
3.209453
 20
0.097282
 30
0.000000
  0
VERTEX
  8
LAYER-1
 10
3.213793
 20
0.094677
 30
0.000000
  0
SEQEND
  8
LAYER-1
  0
POLYLINE
  8
LAYER-1
 66
  1
 70
  1
 62
  0
 10
2.866571
 20
0.151104
 30
0.000000
  0
VERTEX
  8
LAYER-1
 10
2.866571
 20
0.151104
 30
0.000000
  0
VERTEX
  8
LAYER-1
 10
2.879592
 20
0.173675
 30
0.000000
  0
VERTEX
  8
LAYER-1
 10
2.849210
 20
0.152842
 30
0.000000
  0
SEQEND
  8
LAYER-1
  0
POLYLINE
  8
LAYER-1
 66
  1
 70
  1
 62
  0
 10
3.120210
 20
0.101960
 30
0.000000
  0
VERTEX
  8
LAYER-1
 10
3.120210
 20
0.101960
 30
0.000000
  0
VERTEX
  8
LAYER-1
 10
3.132897
 20
0.121323
 30
0.000000
  0
VERTEX
  8
LAYER-1
 10
3.121546
 20
0.127335
 30
0.000000
  0
SEQEND
  8
LAYER-1
  0
POLYLINE
  8
LAYER-1
 66
  1
 70
  0
 62
  0
 10
2.441223
 20
0.161522
 30
0.000000
  0
VERTEX
  8
LAYER-1
 10
2.441223
 20
0.161522
 30
0.000000
  0
VERTEX
  8
LAYER-1
 10
2.441223
 20
0.165860
 30
0.000000
  0
VERTEX
  8
LAYER-1
 10
2.436882
 20
0.169334
 30
0.000000
  0
VERTEX
  8
LAYER-1
 10
2.431674
 20
0.170201
 30
0.000000
  0
VERTEX
  8
LAYER-1
 10
2.427334
 20
0.168466
 30
0.000000
  0
VERTEX
  8
LAYER-1
 10
2.425598
 20
0.164124
 30
0.000000
  0
VERTEX
  8
LAYER-1
 10
2.425598
 20
0.159784
 30
0.000000
  0
VERTEX
  8
LAYER-1
 10
2.429070
 20
0.155445
 30
0.000000
  0
VERTEX
  8
LAYER-1
 10
2.433410
 20
0.155445
 30
0.000000
  0
VERTEX
  8
LAYER-1
 10
2.437751
 20
0.156312
 30
0.000000
  0
VERTEX
  8
LAYER-1
 10
2.440356
 20
0.160653
 30
0.000000
  0
SEQEND
  8
LAYER-1
  0
POLYLINE
  8
LAYER-1
 66
  1
 70
  0
 62
  0
 10
3.027162
 20
0.132007
 30
0.000000
  0
VERTEX
  8
LAYER-1
 10
3.027162
 20
0.132007
 30
0.000000
  0
VERTEX
  8
LAYER-1
 10
3.031502
 20
0.132007
 30
0.000000
  0
VERTEX
  8
LAYER-1
 10
3.034974
 20
0.136348
 30
0.000000
  0
VERTEX
  8
LAYER-1
 10
3.035842
 20
0.141556
 30
0.000000
  0
VERTEX
  8
LAYER-1
 10
3.034106
 20
0.145897
 30
0.000000
  0
VERTEX
  8
LAYER-1
 10
3.029766
 20
0.147632
 30
0.000000
  0
VERTEX
  8
LAYER-1
 10
3.025426
 20
0.147632
 30
0.000000
  0
VERTEX
  8
LAYER-1
 10
3.021085
 20
0.144161
 30
0.000000
  0
VERTEX
  8
LAYER-1
 10
3.021085
 20
0.139820
 30
0.000000
  0
VERTEX
  8
LAYER-1
 10
3.021953
 20
0.135479
 30
0.000000
  0
VERTEX
  8
LAYER-1
 10
3.026294
 20
0.132874
 30
0.000000
  0
SEQEND
  8
LAYER-1
  0
POLYLINE
  8
LAYER-1
 66
  1
 70
  0
 62
  0
 10
3.191224
 20
0.139820
 30
0.000000
  0
VERTEX
  8
LAYER-1
 10
3.191224
 20
0.139820
 30
0.000000
  0
VERTEX
  8
LAYER-1
 10
3.195565
 20
0.139820
 30
0.000000
  0
VERTEX
  8
LAYER-1
 10
3.199037
 20
0.144161
 30
0.000000
  0
VERTEX
  8
LAYER-1
 10
3.199905
 20
0.149368
 30
0.000000
  0
VERTEX
  8
LAYER-1
 10
3.198169
 20
0.153709
 30
0.000000
  0
VERTEX
  8
LAYER-1
 10
3.193828
 20
0.155445
 30
0.000000
  0
VERTEX
  8
LAYER-1
 10
3.189489
 20
0.155445
 30
0.000000
  0
VERTEX
  8
LAYER-1
 10
3.185148
 20
0.151973
 30
0.000000
  0
VERTEX
  8
LAYER-1
 10
3.185148
 20
0.147632
 30
0.000000
  0
VERTEX
  8
LAYER-1
 10
3.186015
 20
0.143292
 30
0.000000
  0
VERTEX
  8
LAYER-1
 10
3.190356
 20
0.140687
 30
0.000000
  0
SEQEND
  8
LAYER-1
  0
POLYLINE
  8
LAYER-1
 66
  1
 70
  1
 62
  0
 10
3.598342
 20
0.138084
 30
0.000000
  0
VERTEX
  8
LAYER-1
 10
3.598342
 20
0.138084
 30
0.000000
  0
VERTEX
  8
LAYER-1
 10
3.605286
 20
0.112043
 30
0.000000
  0
VERTEX
  8
LAYER-1
 10
3.630459
 20
0.125931
 30
0.000000
  0
SEQEND
  8
LAYER-1
  0
POLYLINE
  8
LAYER-1
 66
  1
 70
  1
 62
  0
 10
3.764574
 20
0.092077
 30
0.000000
  0
VERTEX
  8
LAYER-1
 10
3.764574
 20
0.092077
 30
0.000000
  0
VERTEX
  8
LAYER-1
 10
3.751553
 20
0.069507
 30
0.000000
  0
VERTEX
  8
LAYER-1
 10
3.781936
 20
0.090341
 30
0.000000
  0
SEQEND
  8
LAYER-1
  0
POLYLINE
  8
LAYER-1
 66
  1
 70
  1
 62
  0
 10
3.649556
 20
0.182351
 30
0.000000
  0
VERTEX
  8
LAYER-1
 10
3.649556
 20
0.182351
 30
0.000000
  0
VERTEX
  8
LAYER-1
 10
3.633064
 20
0.157177
 30
0.000000
  0
VERTEX
  8
LAYER-1
 10
3.647820
 20
0.149365
 30
0.000000
  0
SEQEND
  8
LAYER-1
  0
POLYLINE
  8
LAYER-1
 66
  1
 70
  0
 62
  0
 10
3.564487
 20
0.169334
 30
0.000000
  0
VERTEX
  8
LAYER-1
 10
3.564487
 20
0.169334
 30
0.000000
  0
VERTEX
  8
LAYER-1
 10
3.560147
 20
0.169334
 30
0.000000
  0
VERTEX
  8
LAYER-1
 10
3.556675
 20
0.164993
 30
0.000000
  0
VERTEX
  8
LAYER-1
 10
3.555806
 20
0.159786
 30
0.000000
  0
VERTEX
  8
LAYER-1
 10
3.557543
 20
0.155445
 30
0.000000
  0
VERTEX
  8
LAYER-1
 10
3.561883
 20
0.153709
 30
0.000000
  0
VERTEX
  8
LAYER-1
 10
3.566224
 20
0.153709
 30
0.000000
  0
VERTEX
  8
LAYER-1
 10
3.570563
 20
0.157181
 30
0.000000
  0
VERTEX
  8
LAYER-1
 10
3.570563
 20
0.161522
 30
0.000000
  0
VERTEX
  8
LAYER-1
 10
3.569695
 20
0.165862
 30
0.000000
  0
VERTEX
  8
LAYER-1
 10
3.565356
 20
0.168466
 30
0.000000
  0
SEQEND
  8
LAYER-1
  0
POLYLINE
  8
LAYER-1
 66
  1
 70
  1
 62
  0
 10
3.547994
 20
0.109436
 30
0.000000
  0
VERTEX
  8
LAYER-1
 10
3.547994
 20
0.109436
 30
0.000000
  0
VERTEX
  8
LAYER-1
 10
3.534974
 20
0.086867
 30
0.000000
  0
VERTEX
  8
LAYER-1
 10
3.565356
 20
0.107699
 30
0.000000
  0
SEQEND
  8
LAYER-1
  0
POLYLINE
  8
LAYER-1
 66
  1
 70
  1
 62
  0
 10
3.603449
 20
0.207790
 30
0.000000
  0
VERTEX
  8
LAYER-1
 10
3.603449
 20
0.207790
 30
0.000000
  0
VERTEX
  8
LAYER-1
 10
3.622814
 20
0.195102
 30
0.000000
  0
VERTEX
  8
LAYER-1
 10
3.628824
 20
0.206454
 30
0.000000
  0
SEQEND
  8
LAYER-1
  0
POLYLINE
  8
LAYER-1
 66
  1
 70
  0
 62
  0
 10
3.488098
 20
0.159039
 30
0.000000
  0
VERTEX
  8
LAYER-1
 10
3.488098
 20
0.159039
 30
0.000000
  0
VERTEX
  8
LAYER-1
 10
3.483758
 20
0.159039
 30
0.000000
  0
VERTEX
  8
LAYER-1
 10
3.480285
 20
0.154698
 30
0.000000
  0
VERTEX
  8
LAYER-1
 10
3.479418
 20
0.149490
 30
0.000000
  0
VERTEX
  8
LAYER-1
 10
3.481154
 20
0.145150
 30
0.000000
  0
VERTEX
  8
LAYER-1
 10
3.485493
 20
0.143414
 30
0.000000
  0
VERTEX
  8
LAYER-1
 10
3.489834
 20
0.143414
 30
0.000000
  0
VERTEX
  8
LAYER-1
 10
3.494174
 20
0.146885
 30
0.000000
  0
VERTEX
  8
LAYER-1
 10
3.494174
 20
0.151226
 30
0.000000
  0
VERTEX
  8
LAYER-1
 10
3.493306
 20
0.155567
 30
0.000000
  0
VERTEX
  8
LAYER-1
 10
3.488966
 20
0.158171
 30
0.000000
  0
SEQEND
  8
LAYER-1
  0
POLYLINE
  8
LAYER-1
 66
  1
 70
  0
 62
  0
 10
3.864836
 20
0.131135
 30
0.000000
  0
VERTEX
  8
LAYER-1
 10
3.864836
 20
0.131135
 30
0.000000
  0
VERTEX
  8
LAYER-1
 10
3.860497
 20
0.131135
 30
0.000000
  0
VERTEX
  8
LAYER-1
 10
3.857024
 20
0.126794
 30
0.000000
  0
VERTEX
  8
LAYER-1
 10
3.856156
 20
0.121586
 30
0.000000
  0
VERTEX
  8
LAYER-1
 10
3.857892
 20
0.117246
 30
0.000000
  0
VERTEX
  8
LAYER-1
 10
3.862233
 20
0.115510
 30
0.000000
  0
VERTEX
  8
LAYER-1
 10
3.866572
 20
0.115510
 30
0.000000
  0
VERTEX
  8
LAYER-1
 10
3.870913
 20
0.118981
 30
0.000000
  0
VERTEX
  8
LAYER-1
 10
3.870913
 20
0.123322
 30
0.000000
  0
VERTEX
  8
LAYER-1
 10
3.870045
 20
0.127663
 30
0.000000
  0
VERTEX
  8
LAYER-1
 10
3.865704
 20
0.130267
 30
0.000000
  0
SEQEND
  8
LAYER-1
  0
POLYLINE
  8
LAYER-1
 66
  1
 70
  0
 62
  0
 10
3.596606
 20
0.102492
 30
0.000000
  0
VERTEX
  8
LAYER-1
 10
3.596606
 20
0.102492
 30
0.000000
  0
VERTEX
  8
LAYER-1
 10
3.592266
 20
0.102492
 30
0.000000
  0
VERTEX
  8
LAYER-1
 10
3.588793
 20
0.098150
 30
0.000000
  0
VERTEX
  8
LAYER-1
 10
3.587925
 20
0.092943
 30
0.000000
  0
VERTEX
  8
LAYER-1
 10
3.589661
 20
0.088603
 30
0.000000
  0
VERTEX
  8
LAYER-1
 10
3.594002
 20
0.086867
 30
0.000000
  0
VERTEX
  8
LAYER-1
 10
3.598342
 20
0.086867
 30
0.000000
  0
VERTEX
  8
LAYER-1
 10
3.602682
 20
0.090338
 30
0.000000
  0
VERTEX
  8
LAYER-1
 10
3.602682
 20
0.094679
 30
0.000000
  0
VERTEX
  8
LAYER-1
 10
3.601814
 20
0.099019
 30
0.000000
  0
VERTEX
  8
LAYER-1
 10
3.597474
 20
0.101624
 30
0.000000
  0
SEQEND
  8
LAYER-1
  0
POLYLINE
  8
LAYER-1
 66
  1
 70
  1
 62
  0
 10
3.394783
 20
0.161955
 30
0.000000
  0
VERTEX
  8
LAYER-1
 10
3.394783
 20
0.161955
 30
0.000000
  0
VERTEX
  8
LAYER-1
 10
3.368742
 20
0.155011
 30
0.000000
  0
VERTEX
  8
LAYER-1
 10
3.382630
 20
0.129837
 30
0.000000
  0
SEQEND
  8
LAYER-1
  0
POLYLINE
  8
LAYER-1
 66
  1
 70
  1
 62
  0
 10
3.301902
 20
0.110739
 30
0.000000
  0
VERTEX
  8
LAYER-1
 10
3.301902
 20
0.110739
 30
0.000000
  0
VERTEX
  8
LAYER-1
 10
3.279331
 20
0.123761
 30
0.000000
  0
VERTEX
  8
LAYER-1
 10
3.300164
 20
0.093379
 30
0.000000
  0
SEQEND
  8
LAYER-1
  0
POLYLINE
  8
LAYER-1
 66
  1
 70
  1
 62
  0
 10
3.265443
 20
0.155875
 30
0.000000
  0
VERTEX
  8
LAYER-1
 10
3.265443
 20
0.155875
 30
0.000000
  0
VERTEX
  8
LAYER-1
 10
3.240269
 20
0.172368
 30
0.000000
  0
VERTEX
  8
LAYER-1
 10
3.232456
 20
0.157611
 30
0.000000
  0
SEQEND
  8
LAYER-1
  0
POLYLINE
  8
LAYER-1
 66
  1
 70
  0
 62
  0
 10
3.426033
 20
0.211434
 30
0.000000
  0
VERTEX
  8
LAYER-1
 10
3.426033
 20
0.211434
 30
0.000000
  0
VERTEX
  8
LAYER-1
 10
3.426033
 20
0.215775
 30
0.000000
  0
VERTEX
  8
LAYER-1
 10
3.421692
 20
0.219247
 30
0.000000
  0
VERTEX
  8
LAYER-1
 10
3.416484
 20
0.220114
 30
0.000000
  0
VERTEX
  8
LAYER-1
 10
3.412143
 20
0.218379
 30
0.000000
  0
VERTEX
  8
LAYER-1
 10
3.410408
 20
0.214038
 30
0.000000
  0
VERTEX
  8
LAYER-1
 10
3.410408
 20
0.209698
 30
0.000000
  0
VERTEX
  8
LAYER-1
 10
3.413880
 20
0.205357
 30
0.000000
  0
VERTEX
  8
LAYER-1
 10
3.418220
 20
0.205357
 30
0.000000
  0
VERTEX
  8
LAYER-1
 10
3.422561
 20
0.206225
 30
0.000000
  0
VERTEX
  8
LAYER-1
 10
3.425166
 20
0.210566
 30
0.000000
  0
SEQEND
  8
LAYER-1
  0
POLYLINE
  8
LAYER-1
 66
  1
 70
  1
 62
  0
 10
3.358325
 20
0.174107
 30
0.000000
  0
VERTEX
  8
LAYER-1
 10
3.358325
 20
0.174107
 30
0.000000
  0
VERTEX
  8
LAYER-1
 10
3.335755
 20
0.187129
 30
0.000000
  0
VERTEX
  8
LAYER-1
 10
3.356587
 20
0.156747
 30
0.000000
  0
SEQEND
  8
LAYER-1
  0
POLYLINE
  8
LAYER-1
 66
  1
 70
  1
 62
  0
 10
3.309979
 20
0.181149
 30
0.000000
  0
VERTEX
  8
LAYER-1
 10
3.309979
 20
0.181149
 30
0.000000
  0
VERTEX
  8
LAYER-1
 10
3.297292
 20
0.161785
 30
0.000000
  0
VERTEX
  8
LAYER-1
 10
3.308643
 20
0.155774
 30
0.000000
  0
SEQEND
  8
LAYER-1
  0
POLYLINE
  8
LAYER-1
 66
  1
 70
  0
 62
  0
 10
3.427768
 20
0.083829
 30
0.000000
  0
VERTEX
  8
LAYER-1
 10
3.427768
 20
0.083829
 30
0.000000
  0
VERTEX
  8
LAYER-1
 10
3.427768
 20
0.088169
 30
0.000000
  0
VERTEX
  8
LAYER-1
 10
3.423428
 20
0.091642
 30
0.000000
  0
VERTEX
  8
LAYER-1
 10
3.418220
 20
0.092510
 30
0.000000
  0
VERTEX
  8
LAYER-1
 10
3.413880
 20
0.090774
 30
0.000000
  0
VERTEX
  8
LAYER-1
 10
3.412143
 20
0.086433
 30
0.000000
  0
VERTEX
  8
LAYER-1
 10
3.412143
 20
0.082092
 30
0.000000
  0
VERTEX
  8
LAYER-1
 10
3.415615
 20
0.077753
 30
0.000000
  0
VERTEX
  8
LAYER-1
 10
3.419956
 20
0.077753
 30
0.000000
  0
VERTEX
  8
LAYER-1
 10
3.424297
 20
0.078620
 30
0.000000
  0
VERTEX
  8
LAYER-1
 10
3.426902
 20
0.082961
 30
0.000000
  0
SEQEND
  8
LAYER-1
  0
POLYLINE
  8
LAYER-1
 66
  1
 70
  0
 62
  0
 10
3.346171
 20
0.084697
 30
0.000000
  0
VERTEX
  8
LAYER-1
 10
3.346171
 20
0.084697
 30
0.000000
  0
VERTEX
  8
LAYER-1
 10
3.346171
 20
0.089038
 30
0.000000
  0
VERTEX
  8
LAYER-1
 10
3.341831
 20
0.092510
 30
0.000000
  0
VERTEX
  8
LAYER-1
 10
3.336623
 20
0.093378
 30
0.000000
  0
VERTEX
  8
LAYER-1
 10
3.332282
 20
0.091642
 30
0.000000
  0
VERTEX
  8
LAYER-1
 10
3.330546
 20
0.087301
 30
0.000000
  0
VERTEX
  8
LAYER-1
 10
3.330546
 20
0.082961
 30
0.000000
  0
VERTEX
  8
LAYER-1
 10
3.334018
 20
0.078620
 30
0.000000
  0
VERTEX
  8
LAYER-1
 10
3.338359
 20
0.078620
 30
0.000000
  0
VERTEX
  8
LAYER-1
 10
3.342699
 20
0.079488
 30
0.000000
  0
VERTEX
  8
LAYER-1
 10
3.345304
 20
0.083829
 30
0.000000
  0
SEQEND
  8
LAYER-1
  0
POLYLINE
  8
LAYER-1
 66
  1
 70
  0
 62
  0
 10
3.275859
 20
0.194940
 30
0.000000
  0
VERTEX
  8
LAYER-1
 10
3.275859
 20
0.194940
 30
0.000000
  0
VERTEX
  8
LAYER-1
 10
3.275859
 20
0.199281
 30
0.000000
  0
VERTEX
  8
LAYER-1
 10
3.271518
 20
0.202753
 30
0.000000
  0
VERTEX
  8
LAYER-1
 10
3.266311
 20
0.203620
 30
0.000000
  0
VERTEX
  8
LAYER-1
 10
3.261970
 20
0.201885
 30
0.000000
  0
VERTEX
  8
LAYER-1
 10
3.260234
 20
0.197544
 30
0.000000
  0
VERTEX
  8
LAYER-1
 10
3.260234
 20
0.193204
 30
0.000000
  0
VERTEX
  8
LAYER-1
 10
3.263706
 20
0.188863
 30
0.000000
  0
VERTEX
  8
LAYER-1
 10
3.268047
 20
0.188863
 30
0.000000
  0
VERTEX
  8
LAYER-1
 10
3.272387
 20
0.189731
 30
0.000000
  0
VERTEX
  8
LAYER-1
 10
3.274992
 20
0.194072
 30
0.000000
  0
SEQEND
  8
LAYER-1
  0
POLYLINE
  8
LAYER-1
 66
  1
 70
  1
 62
  0
 10
4.058411
 20
0.184525
 30
0.000000
  0
VERTEX
  8
LAYER-1
 10
4.058411
 20
0.184525
 30
0.000000
  0
VERTEX
  8
LAYER-1
 10
4.065356
 20
0.158483
 30
0.000000
  0
VERTEX
  8
LAYER-1
 10
4.090529
 20
0.172372
 30
0.000000
  0
SEQEND
  8
LAYER-1
  0
POLYLINE
  8
LAYER-1
 66
  1
 70
  1
 62
  0
 10
4.220737
 20
0.213170
 30
0.000000
  0
VERTEX
  8
LAYER-1
 10
4.220737
 20
0.213170
 30
0.000000
  0
VERTEX
  8
LAYER-1
 10
4.207717
 20
0.190601
 30
0.000000
  0
VERTEX
  8
LAYER-1
 10
4.238099
 20
0.211434
 30
0.000000
  0
SEQEND
  8
LAYER-1
  0
POLYLINE
  8
LAYER-1
 66
  1
 70
  1
 62
  0
 10
4.199905
 20
0.128099
 30
0.000000
  0
VERTEX
  8
LAYER-1
 10
4.199905
 20
0.128099
 30
0.000000
  0
VERTEX
  8
LAYER-1
 10
4.183411
 20
0.102925
 30
0.000000
  0
VERTEX
  8
LAYER-1
 10
4.198168
 20
0.095112
 30
0.000000
  0
SEQEND
  8
LAYER-1
  0
POLYLINE
  8
LAYER-1
 66
  1
 70
  0
 62
  0
 10
4.008932
 20
0.215775
 30
0.000000
  0
VERTEX
  8
LAYER-1
 10
4.008932
 20
0.215775
 30
0.000000
  0
VERTEX
  8
LAYER-1
 10
4.004592
 20
0.215775
 30
0.000000
  0
VERTEX
  8
LAYER-1
 10
4.001120
 20
0.211434
 30
0.000000
  0
VERTEX
  8
LAYER-1
 10
4.000252
 20
0.206226
 30
0.000000
  0
VERTEX
  8
LAYER-1
 10
4.001987
 20
0.201886
 30
0.000000
  0
VERTEX
  8
LAYER-1
 10
4.006328
 20
0.200150
 30
0.000000
  0
VERTEX
  8
LAYER-1
 10
4.010668
 20
0.200150
 30
0.000000
  0
VERTEX
  8
LAYER-1
 10
4.015009
 20
0.203622
 30
0.000000
  0
VERTEX
  8
LAYER-1
 10
4.015009
 20
0.207962
 30
0.000000
  0
VERTEX
  8
LAYER-1
 10
4.014141
 20
0.212303
 30
0.000000
  0
VERTEX
  8
LAYER-1
 10
4.009800
 20
0.214906
 30
0.000000
  0
SEQEND
  8
LAYER-1
  0
POLYLINE
  8
LAYER-1
 66
  1
 70
  1
 62
  0
 10
4.030198
 20
0.147630
 30
0.000000
  0
VERTEX
  8
LAYER-1
 10
4.030198
 20
0.147630
 30
0.000000
  0
VERTEX
  8
LAYER-1
 10
4.052768
 20
0.134610
 30
0.000000
  0
VERTEX
  8
LAYER-1
 10
4.031935
 20
0.164992
 30
0.000000
  0
SEQEND
  8
LAYER-1
  0
POLYLINE
  8
LAYER-1
 66
  1
 70
  1
 62
  0
 10
4.146852
 20
0.139651
 30
0.000000
  0
VERTEX
  8
LAYER-1
 10
4.146852
 20
0.139651
 30
0.000000
  0
VERTEX
  8
LAYER-1
 10
4.166217
 20
0.126963
 30
0.000000
  0
VERTEX
  8
LAYER-1
 10
4.172228
 20
0.138315
 30
0.000000
  0
SEQEND
  8
LAYER-1
  0
POLYLINE
  8
LAYER-1
 66
  1
 70
  0
 62
  0
 10
4.160842
 20
0.217511
 30
0.000000
  0
VERTEX
  8
LAYER-1
 10
4.160842
 20
0.217511
 30
0.000000
  0
VERTEX
  8
LAYER-1
 10
4.156502
 20
0.217511
 30
0.000000
  0
VERTEX
  8
LAYER-1
 10
4.153029
 20
0.213170
 30
0.000000
  0
VERTEX
  8
LAYER-1
 10
4.152161
 20
0.207962
 30
0.000000
  0
VERTEX
  8
LAYER-1
 10
4.153897
 20
0.203622
 30
0.000000
  0
VERTEX
  8
LAYER-1
 10
4.158237
 20
0.201886
 30
0.000000
  0
VERTEX
  8
LAYER-1
 10
4.162578
 20
0.201886
 30
0.000000
  0
VERTEX
  8
LAYER-1
 10
4.166918
 20
0.205357
 30
0.000000
  0
VERTEX
  8
LAYER-1
 10
4.166918
 20
0.209698
 30
0.000000
  0
VERTEX
  8
LAYER-1
 10
4.166050
 20
0.214038
 30
0.000000
  0
VERTEX
  8
LAYER-1
 10
4.161709
 20
0.216643
 30
0.000000
  0
SEQEND
  8
LAYER-1
  0
POLYLINE
  8
LAYER-1
 66
  1
 70
  0
 62
  0
 10
4.245043
 20
0.090773
 30
0.000000
  0
VERTEX
  8
LAYER-1
 10
4.245043
 20
0.090773
 30
0.000000
  0
VERTEX
  8
LAYER-1
 10
4.240703
 20
0.090773
 30
0.000000
  0
VERTEX
  8
LAYER-1
 10
4.237231
 20
0.086432
 30
0.000000
  0
VERTEX
  8
LAYER-1
 10
4.236363
 20
0.081224
 30
0.000000
  0
VERTEX
  8
LAYER-1
 10
4.238099
 20
0.076884
 30
0.000000
  0
VERTEX
  8
LAYER-1
 10
4.242439
 20
0.075148
 30
0.000000
  0
VERTEX
  8
LAYER-1
 10
4.246780
 20
0.075148
 30
0.000000
  0
VERTEX
  8
LAYER-1
 10
4.251120
 20
0.078619
 30
0.000000
  0
VERTEX
  8
LAYER-1
 10
4.251120
 20
0.082960
 30
0.000000
  0
VERTEX
  8
LAYER-1
 10
4.250251
 20
0.087301
 30
0.000000
  0
VERTEX
  8
LAYER-1
 10
4.245911
 20
0.089905
 30
0.000000
  0
SEQEND
  8
LAYER-1
  0
POLYLINE
  8
LAYER-1
 66
  1
 70
  0
 62
  0
 10
4.091398
 20
0.145459
 30
0.000000
  0
VERTEX
  8
LAYER-1
 10
4.091398
 20
0.145459
 30
0.000000
  0
VERTEX
  8
LAYER-1
 10
4.087057
 20
0.145459
 30
0.000000
  0
VERTEX
  8
LAYER-1
 10
4.083586
 20
0.141118
 30
0.000000
  0
VERTEX
  8
LAYER-1
 10
4.082717
 20
0.135910
 30
0.000000
  0
VERTEX
  8
LAYER-1
 10
4.084453
 20
0.131569
 30
0.000000
  0
VERTEX
  8
LAYER-1
 10
4.088793
 20
0.129834
 30
0.000000
  0
VERTEX
  8
LAYER-1
 10
4.093134
 20
0.129834
 30
0.000000
  0
VERTEX
  8
LAYER-1
 10
4.097474
 20
0.133305
 30
0.000000
  0
VERTEX
  8
LAYER-1
 10
4.097474
 20
0.137646
 30
0.000000
  0
VERTEX
  8
LAYER-1
 10
4.096606
 20
0.141986
 30
0.000000
  0
VERTEX
  8
LAYER-1
 10
4.092266
 20
0.144591
 30
0.000000
  0
SEQEND
  8
LAYER-1
  0
POLYLINE
  8
LAYER-1
 66
  1
 70
  1
 62
  0
 10
3.926468
 20
0.154140
 30
0.000000
  0
VERTEX
  8
LAYER-1
 10
3.926468
 20
0.154140
 30
0.000000
  0
VERTEX
  8
LAYER-1
 10
3.919523
 20
0.180180
 30
0.000000
  0
VERTEX
  8
LAYER-1
 10
3.894349
 20
0.166293
 30
0.000000
  0
SEQEND
  8
LAYER-1
  0
POLYLINE
  8
LAYER-1
 66
  1
 70
  1
 62
  0
 10
3.515443
 20
0.185823
 30
0.000000
  0
VERTEX
  8
LAYER-1
 10
3.515443
 20
0.185823
 30
0.000000
  0
VERTEX
  8
LAYER-1
 10
3.528464
 20
0.208394
 30
0.000000
  0
VERTEX
  8
LAYER-1
 10
3.498083
 20
0.187561
 30
0.000000
  0
SEQEND
  8
LAYER-1
  0
POLYLINE
  8
LAYER-1
 66
  1
 70
  1
 62
  0
 10
3.812752
 20
0.179315
 30
0.000000
  0
VERTEX
  8
LAYER-1
 10
3.812752
 20
0.179315
 30
0.000000
  0
VERTEX
  8
LAYER-1
 10
3.829246
 20
0.204488
 30
0.000000
  0
VERTEX
  8
LAYER-1
 10
3.814487
 20
0.212301
 30
0.000000
  0
SEQEND
  8
LAYER-1
  0
POLYLINE
  8
LAYER-1
 66
  1
 70
  0
 62
  0
 10
3.975946
 20
0.122890
 30
0.000000
  0
VERTEX
  8
LAYER-1
 10
3.975946
 20
0.122890
 30
0.000000
  0
VERTEX
  8
LAYER-1
 10
3.980287
 20
0.122890
 30
0.000000
  0
VERTEX
  8
LAYER-1
 10
3.983759
 20
0.127230
 30
0.000000
  0
VERTEX
  8
LAYER-1
 10
3.984628
 20
0.132438
 30
0.000000
  0
VERTEX
  8
LAYER-1
 10
3.982892
 20
0.136779
 30
0.000000
  0
VERTEX
  8
LAYER-1
 10
3.978551
 20
0.138515
 30
0.000000
  0
VERTEX
  8
LAYER-1
 10
3.974211
 20
0.138515
 30
0.000000
  0
VERTEX
  8
LAYER-1
 10
3.969870
 20
0.135043
 30
0.000000
  0
VERTEX
  8
LAYER-1
 10
3.969870
 20
0.130703
 30
0.000000
  0
VERTEX
  8
LAYER-1
 10
3.970739
 20
0.126361
 30
0.000000
  0
VERTEX
  8
LAYER-1
 10
3.975079
 20
0.123756
 30
0.000000
  0
SEQEND
  8
LAYER-1
  0
POLYLINE
  8
LAYER-1
 66
  1
 70
  1
 62
  0
 10
3.929939
 20
0.119419
 30
0.000000
  0
VERTEX
  8
LAYER-1
 10
3.929939
 20
0.119419
 30
0.000000
  0
VERTEX
  8
LAYER-1
 10
3.942961
 20
0.141989
 30
0.000000
  0
VERTEX
  8
LAYER-1
 10
3.912578
 20
0.121156
 30
0.000000
  0
SEQEND
  8
LAYER-1
  0
POLYLINE
  8
LAYER-1
 66
  1
 70
  1
 62
  0
 10
3.875353
 20
0.160820
 30
0.000000
  0
VERTEX
  8
LAYER-1
 10
3.875353
 20
0.160820
 30
0.000000
  0
VERTEX
  8
LAYER-1
 10
3.855989
 20
0.173508
 30
0.000000
  0
VERTEX
  8
LAYER-1
 10
3.849977
 20
0.162156
 30
0.000000
  0
SEQEND
  8
LAYER-1
  0
POLYLINE
  8
LAYER-1
 66
  1
 70
  0
 62
  0
 10
3.852246
 20
0.057476
 30
0.000000
  0
VERTEX
  8
LAYER-1
 10
3.852246
 20
0.057476
 30
0.000000
  0
VERTEX
  8
LAYER-1
 10
3.856587
 20
0.057476
 30
0.000000
  0
VERTEX
  8
LAYER-1
 10
3.860059
 20
0.061816
 30
0.000000
  0
VERTEX
  8
LAYER-1
 10
3.860928
 20
0.067023
 30
0.000000
  0
VERTEX
  8
LAYER-1
 10
3.859192
 20
0.071365
 30
0.000000
  0
VERTEX
  8
LAYER-1
 10
3.854851
 20
0.073101
 30
0.000000
  0
VERTEX
  8
LAYER-1
 10
3.850510
 20
0.073101
 30
0.000000
  0
VERTEX
  8
LAYER-1
 10
3.846170
 20
0.069628
 30
0.000000
  0
VERTEX
  8
LAYER-1
 10
3.846170
 20
0.065288
 30
0.000000
  0
VERTEX
  8
LAYER-1
 10
3.847039
 20
0.060947
 30
0.000000
  0
VERTEX
  8
LAYER-1
 10
3.851379
 20
0.058342
 30
0.000000
  0
SEQEND
  8
LAYER-1
  0
POLYLINE
  8
LAYER-1
 66
  1
 70
  0
 62
  0
 10
3.762404
 20
0.200271
 30
0.000000
  0
VERTEX
  8
LAYER-1
 10
3.762404
 20
0.200271
 30
0.000000
  0
VERTEX
  8
LAYER-1
 10
3.766745
 20
0.200271
 30
0.000000
  0
VERTEX
  8
LAYER-1
 10
3.770217
 20
0.204611
 30
0.000000
  0
VERTEX
  8
LAYER-1
 10
3.771083
 20
0.209819
 30
0.000000
  0
VERTEX
  8
LAYER-1
 10
3.769348
 20
0.214160
 30
0.000000
  0
VERTEX
  8
LAYER-1
 10
3.765007
 20
0.215896
 30
0.000000
  0
VERTEX
  8
LAYER-1
 10
3.760668
 20
0.215896
 30
0.000000
  0
VERTEX
  8
LAYER-1
 10
3.756327
 20
0.212424
 30
0.000000
  0
VERTEX
  8
LAYER-1
 10
3.756327
 20
0.208083
 30
0.000000
  0
VERTEX
  8
LAYER-1
 10
3.757195
 20
0.203742
 30
0.000000
  0
VERTEX
  8
LAYER-1
 10
3.761535
 20
0.201138
 30
0.000000
  0
SEQEND
  8
LAYER-1
  0
POLYLINE
  8
LAYER-1
 66
  1
 70
  0
 62
  0
 10
3.924731
 20
0.193204
 30
0.000000
  0
VERTEX
  8
LAYER-1
 10
3.924731
 20
0.193204
 30
0.000000
  0
VERTEX
  8
LAYER-1
 10
3.929072
 20
0.193204
 30
0.000000
  0
VERTEX
  8
LAYER-1
 10
3.932544
 20
0.197545
 30
0.000000
  0
VERTEX
  8
LAYER-1
 10
3.933411
 20
0.202753
 30
0.000000
  0
VERTEX
  8
LAYER-1
 10
3.931675
 20
0.207093
 30
0.000000
  0
VERTEX
  8
LAYER-1
 10
3.927334
 20
0.208829
 30
0.000000
  0
VERTEX
  8
LAYER-1
 10
3.922996
 20
0.208829
 30
0.000000
  0
VERTEX
  8
LAYER-1
 10
3.918655
 20
0.205357
 30
0.000000
  0
VERTEX
  8
LAYER-1
 10
3.918655
 20
0.201017
 30
0.000000
  0
VERTEX
  8
LAYER-1
 10
3.919522
 20
0.196676
 30
0.000000
  0
VERTEX
  8
LAYER-1
 10
3.923862
 20
0.194071
 30
0.000000
  0
SEQEND
  8
LAYER-1
  0
POLYLINE
  8
LAYER-1
 66
  1
 70
  1
 62
  0
 10
4.680806
 20
0.162389
 30
0.000000
  0
VERTEX
  8
LAYER-1
 10
4.680806
 20
0.162389
 30
0.000000
  0
VERTEX
  8
LAYER-1
 10
4.687751
 20
0.136348
 30
0.000000
  0
VERTEX
  8
LAYER-1
 10
4.712924
 20
0.150236
 30
0.000000
  0
SEQEND
  8
LAYER-1
  0
POLYLINE
  8
LAYER-1
 66
  1
 70
  1
 62
  0
 10
4.807541
 20
0.197980
 30
0.000000
  0
VERTEX
  8
LAYER-1
 10
4.807541
 20
0.197980
 30
0.000000
  0
VERTEX
  8
LAYER-1
 10
4.794520
 20
0.175411
 30
0.000000
  0
VERTEX
  8
LAYER-1
 10
4.824902
 20
0.196243
 30
0.000000
  0
SEQEND
  8
LAYER-1
  0
POLYLINE
  8
LAYER-1
 66
  1
 70
  1
 62
  0
 10
4.482891
 20
0.186696
 30
0.000000
  0
VERTEX
  8
LAYER-1
 10
4.482891
 20
0.186696
 30
0.000000
  0
VERTEX
  8
LAYER-1
 10
4.466398
 20
0.161522
 30
0.000000
  0
VERTEX
  8
LAYER-1
 10
4.481155
 20
0.153709
 30
0.000000
  0
SEQEND
  8
LAYER-1
  0
POLYLINE
  8
LAYER-1
 66
  1
 70
  0
 62
  0
 10
4.593133
 20
0.178886
 30
0.000000
  0
VERTEX
  8
LAYER-1
 10
4.593133
 20
0.178886
 30
0.000000
  0
VERTEX
  8
LAYER-1
 10
4.588792
 20
0.178886
 30
0.000000
  0
VERTEX
  8
LAYER-1
 10
4.585320
 20
0.174544
 30
0.000000
  0
VERTEX
  8
LAYER-1
 10
4.584451
 20
0.169337
 30
0.000000
  0
VERTEX
  8
LAYER-1
 10
4.586187
 20
0.164996
 30
0.000000
  0
VERTEX
  8
LAYER-1
 10
4.590528
 20
0.163261
 30
0.000000
  0
VERTEX
  8
LAYER-1
 10
4.594869
 20
0.163261
 30
0.000000
  0
VERTEX
  8
LAYER-1
 10
4.599208
 20
0.166732
 30
0.000000
  0
VERTEX
  8
LAYER-1
 10
4.599208
 20
0.171073
 30
0.000000
  0
VERTEX
  8
LAYER-1
 10
4.598340
 20
0.175413
 30
0.000000
  0
VERTEX
  8
LAYER-1
 10
4.594000
 20
0.178018
 30
0.000000
  0
SEQEND
  8
LAYER-1
  0
POLYLINE
  8
LAYER-1
 66
  1
 70
  1
 62
  0
 10
4.622647
 20
0.132875
 30
0.000000
  0
VERTEX
  8
LAYER-1
 10
4.622647
 20
0.132875
 30
0.000000
  0
VERTEX
  8
LAYER-1
 10
4.609626
 20
0.110306
 30
0.000000
  0
VERTEX
  8
LAYER-1
 10
4.640008
 20
0.131138
 30
0.000000
  0
SEQEND
  8
LAYER-1
  0
POLYLINE
  8
LAYER-1
 66
  1
 70
  1
 62
  0
 10
4.829945
 20
0.133407
 30
0.000000
  0
VERTEX
  8
LAYER-1
 10
4.829945
 20
0.133407
 30
0.000000
  0
VERTEX
  8
LAYER-1
 10
4.817258
 20
0.114042
 30
0.000000
  0
VERTEX
  8
LAYER-1
 10
4.828609
 20
0.108031
 30
0.000000
  0
SEQEND
  8
LAYER-1
  0
POLYLINE
  8
LAYER-1
 66
  1
 70
  0
 62
  0
 10
4.737229
 20
0.202320
 30
0.000000
  0
VERTEX
  8
LAYER-1
 10
4.737229
 20
0.202320
 30
0.000000
  0
VERTEX
  8
LAYER-1
 10
4.732888
 20
0.202320
 30
0.000000
  0
VERTEX
  8
LAYER-1
 10
4.729416
 20
0.197979
 30
0.000000
  0
VERTEX
  8
LAYER-1
 10
4.728548
 20
0.192772
 30
0.000000
  0
VERTEX
  8
LAYER-1
 10
4.730284
 20
0.188431
 30
0.000000
  0
VERTEX
  8
LAYER-1
 10
4.734624
 20
0.186695
 30
0.000000
  0
VERTEX
  8
LAYER-1
 10
4.738965
 20
0.186695
 30
0.000000
  0
VERTEX
  8
LAYER-1
 10
4.743305
 20
0.190167
 30
0.000000
  0
VERTEX
  8
LAYER-1
 10
4.743305
 20
0.194507
 30
0.000000
  0
VERTEX
  8
LAYER-1
 10
4.742436
 20
0.198848
 30
0.000000
  0
VERTEX
  8
LAYER-1
 10
4.738096
 20
0.201452
 30
0.000000
  0
SEQEND
  8
LAYER-1
  0
POLYLINE
  8
LAYER-1
 66
  1
 70
  0
 62
  0
 10
4.524557
 20
0.192770
 30
0.000000
  0
VERTEX
  8
LAYER-1
 10
4.524557
 20
0.192770
 30
0.000000
  0
VERTEX
  8
LAYER-1
 10
4.520217
 20
0.192770
 30
0.000000
  0
VERTEX
  8
LAYER-1
 10
4.516745
 20
0.188430
 30
0.000000
  0
VERTEX
  8
LAYER-1
 10
4.515877
 20
0.183222
 30
0.000000
  0
VERTEX
  8
LAYER-1
 10
4.517614
 20
0.178881
 30
0.000000
  0
VERTEX
  8
LAYER-1
 10
4.521953
 20
0.177145
 30
0.000000
  0
VERTEX
  8
LAYER-1
 10
4.526294
 20
0.177145
 30
0.000000
  0
VERTEX
  8
LAYER-1
 10
4.530634
 20
0.180617
 30
0.000000
  0
VERTEX
  8
LAYER-1
 10
4.530634
 20
0.184958
 30
0.000000
  0
VERTEX
  8
LAYER-1
 10
4.529766
 20
0.189299
 30
0.000000
  0
VERTEX
  8
LAYER-1
 10
4.525426
 20
0.191903
 30
0.000000
  0
SEQEND
  8
LAYER-1
  0
POLYLINE
  8
LAYER-1
 66
  1
 70
  0
 62
  0
 10
4.771953
 20
0.164991
 30
0.000000
  0
VERTEX
  8
LAYER-1
 10
4.771953
 20
0.164991
 30
0.000000
  0
VERTEX
  8
LAYER-1
 10
4.767613
 20
0.164991
 30
0.000000
  0
VERTEX
  8
LAYER-1
 10
4.764140
 20
0.160650
 30
0.000000
  0
VERTEX
  8
LAYER-1
 10
4.763273
 20
0.155442
 30
0.000000
  0
VERTEX
  8
LAYER-1
 10
4.765009
 20
0.151101
 30
0.000000
  0
VERTEX
  8
LAYER-1
 10
4.769350
 20
0.149366
 30
0.000000
  0
VERTEX
  8
LAYER-1
 10
4.773690
 20
0.149366
 30
0.000000
  0
VERTEX
  8
LAYER-1
 10
4.778030
 20
0.152837
 30
0.000000
  0
VERTEX
  8
LAYER-1
 10
4.778030
 20
0.157178
 30
0.000000
  0
VERTEX
  8
LAYER-1
 10
4.777162
 20
0.161519
 30
0.000000
  0
VERTEX
  8
LAYER-1
 10
4.772822
 20
0.164123
 30
0.000000
  0
SEQEND
  8
LAYER-1
  0
POLYLINE
  8
LAYER-1
 66
  1
 70
  1
 62
  0
 10
4.386536
 20
0.111606
 30
0.000000
  0
VERTEX
  8
LAYER-1
 10
4.386536
 20
0.111606
 30
0.000000
  0
VERTEX
  8
LAYER-1
 10
4.379592
 20
0.137647
 30
0.000000
  0
VERTEX
  8
LAYER-1
 10
4.354418
 20
0.123760
 30
0.000000
  0
SEQEND
  8
LAYER-1
  0
POLYLINE
  8
LAYER-1
 66
  1
 70
  1
 62
  0
 10
4.234626
 20
0.152403
 30
0.000000
  0
VERTEX
  8
LAYER-1
 10
4.234626
 20
0.152403
 30
0.000000
  0
VERTEX
  8
LAYER-1
 10
4.247648
 20
0.174973
 30
0.000000
  0
VERTEX
  8
LAYER-1
 10
4.217265
 20
0.154141
 30
0.000000
  0
SEQEND
  8
LAYER-1
  0
POLYLINE
  8
LAYER-1
 66
  1
 70
  1
 62
  0
 10
4.317961
 20
0.112477
 30
0.000000
  0
VERTEX
  8
LAYER-1
 10
4.317961
 20
0.112477
 30
0.000000
  0
VERTEX
  8
LAYER-1
 10
4.334453
 20
0.137650
 30
0.000000
  0
VERTEX
  8
LAYER-1
 10
4.319696
 20
0.145463
 30
0.000000
  0
SEQEND
  8
LAYER-1
  0
POLYLINE
  8
LAYER-1
 66
  1
 70
  0
 62
  0
 10
4.492440
 20
0.114214
 30
0.000000
  0
VERTEX
  8
LAYER-1
 10
4.492440
 20
0.114214
 30
0.000000
  0
VERTEX
  8
LAYER-1
 10
4.496781
 20
0.114214
 30
0.000000
  0
VERTEX
  8
LAYER-1
 10
4.500253
 20
0.118555
 30
0.000000
  0
VERTEX
  8
LAYER-1
 10
4.501121
 20
0.123762
 30
0.000000
  0
VERTEX
  8
LAYER-1
 10
4.499385
 20
0.128103
 30
0.000000
  0
VERTEX
  8
LAYER-1
 10
4.495044
 20
0.129839
 30
0.000000
  0
VERTEX
  8
LAYER-1
 10
4.490704
 20
0.129839
 30
0.000000
  0
VERTEX
  8
LAYER-1
 10
4.486364
 20
0.126367
 30
0.000000
  0
VERTEX
  8
LAYER-1
 10
4.486364
 20
0.122026
 30
0.000000
  0
VERTEX
  8
LAYER-1
 10
4.487231
 20
0.117686
 30
0.000000
  0
VERTEX
  8
LAYER-1
 10
4.491572
 20
0.115081
 30
0.000000
  0
SEQEND
  8
LAYER-1
  0
POLYLINE
  8
LAYER-1
 66
  1
 70
  1
 62
  0
 10
4.443827
 20
0.128969
 30
0.000000
  0
VERTEX
  8
LAYER-1
 10
4.443827
 20
0.128969
 30
0.000000
  0
VERTEX
  8
LAYER-1
 10
4.456849
 20
0.151539
 30
0.000000
  0
VERTEX
  8
LAYER-1
 10
4.426467
 20
0.130707
 30
0.000000
  0
SEQEND
  8
LAYER-1
  0
POLYLINE
  8
LAYER-1
 66
  1
 70
  1
 62
  0
 10
4.332884
 20
0.164894
 30
0.000000
  0
VERTEX
  8
LAYER-1
 10
4.332884
 20
0.164894
 30
0.000000
  0
VERTEX
  8
LAYER-1
 10
4.345570
 20
0.184258
 30
0.000000
  0
VERTEX
  8
LAYER-1
 10
4.334220
 20
0.190269
 30
0.000000
  0
SEQEND
  8
LAYER-1
  0
POLYLINE
  8
LAYER-1
 66
  1
 70
  0
 62
  0
 10
4.288531
 20
0.196365
 30
0.000000
  0
VERTEX
  8
LAYER-1
 10
4.288531
 20
0.196365
 30
0.000000
  0
VERTEX
  8
LAYER-1
 10
4.292871
 20
0.196365
 30
0.000000
  0
VERTEX
  8
LAYER-1
 10
4.296344
 20
0.200706
 30
0.000000
  0
VERTEX
  8
LAYER-1
 10
4.297212
 20
0.205914
 30
0.000000
  0
VERTEX
  8
LAYER-1
 10
4.295476
 20
0.210254
 30
0.000000
  0
VERTEX
  8
LAYER-1
 10
4.291135
 20
0.211990
 30
0.000000
  0
VERTEX
  8
LAYER-1
 10
4.286794
 20
0.211990
 30
0.000000
  0
VERTEX
  8
LAYER-1
 10
4.282455
 20
0.208519
 30
0.000000
  0
VERTEX
  8
LAYER-1
 10
4.282455
 20
0.204178
 30
0.000000
  0
VERTEX
  8
LAYER-1
 10
4.283323
 20
0.199838
 30
0.000000
  0
VERTEX
  8
LAYER-1
 10
4.287663
 20
0.197233
 30
0.000000
  0
SEQEND
  8
LAYER-1
  0
POLYLINE
  8
LAYER-1
 66
  1
 70
  0
 62
  0
 10
4.265877
 20
0.118554
 30
0.000000
  0
VERTEX
  8
LAYER-1
 10
4.265877
 20
0.118554
 30
0.000000
  0
VERTEX
  8
LAYER-1
 10
4.270217
 20
0.118554
 30
0.000000
  0
VERTEX
  8
LAYER-1
 10
4.273689
 20
0.122894
 30
0.000000
  0
VERTEX
  8
LAYER-1
 10
4.274557
 20
0.128102
 30
0.000000
  0
VERTEX
  8
LAYER-1
 10
4.272821
 20
0.132443
 30
0.000000
  0
VERTEX
  8
LAYER-1
 10
4.268481
 20
0.134179
 30
0.000000
  0
VERTEX
  8
LAYER-1
 10
4.264141
 20
0.134179
 30
0.000000
  0
VERTEX
  8
LAYER-1
 10
4.259800
 20
0.130707
 30
0.000000
  0
VERTEX
  8
LAYER-1
 10
4.259800
 20
0.126367
 30
0.000000
  0
VERTEX
  8
LAYER-1
 10
4.260668
 20
0.122025
 30
0.000000
  0
VERTEX
  8
LAYER-1
 10
4.265009
 20
0.119420
 30
0.000000
  0
SEQEND
  8
LAYER-1
  0
POLYLINE
  8
LAYER-1
 66
  1
 70
  0
 62
  0
 10
4.429939
 20
0.195810
 30
0.000000
  0
VERTEX
  8
LAYER-1
 10
4.429939
 20
0.195810
 30
0.000000
  0
VERTEX
  8
LAYER-1
 10
4.434280
 20
0.195810
 30
0.000000
  0
VERTEX
  8
LAYER-1
 10
4.437752
 20
0.200150
 30
0.000000
  0
VERTEX
  8
LAYER-1
 10
4.438620
 20
0.205358
 30
0.000000
  0
VERTEX
  8
LAYER-1
 10
4.436884
 20
0.209699
 30
0.000000
  0
VERTEX
  8
LAYER-1
 10
4.432543
 20
0.211435
 30
0.000000
  0
VERTEX
  8
LAYER-1
 10
4.428203
 20
0.211435
 30
0.000000
  0
VERTEX
  8
LAYER-1
 10
4.423862
 20
0.207963
 30
0.000000
  0
VERTEX
  8
LAYER-1
 10
4.423862
 20
0.203623
 30
0.000000
  0
VERTEX
  8
LAYER-1
 10
4.424731
 20
0.199281
 30
0.000000
  0
VERTEX
  8
LAYER-1
 10
4.429071
 20
0.196676
 30
0.000000
  0
SEQEND
  8
LAYER-1
  0
POLYLINE
  8
LAYER-1
 66
  1
 70
  1
 62
  0
 10
4.881757
 20
0.152406
 30
0.000000
  0
VERTEX
  8
LAYER-1
 10
4.881757
 20
0.152406
 30
0.000000
  0
VERTEX
  8
LAYER-1
 10
4.907798
 20
0.159350
 30
0.000000
  0
VERTEX
  8
LAYER-1
 10
4.893910
 20
0.184524
 30
0.000000
  0
SEQEND
  8
LAYER-1
  0
POLYLINE
  8
LAYER-1
 66
  1
 70
  1
 62
  0
 10
4.564052
 20
0.205358
 30
0.000000
  0
VERTEX
  8
LAYER-1
 10
4.564052
 20
0.205358
 30
0.000000
  0
VERTEX
  8
LAYER-1
 10
4.586622
 20
0.192337
 30
0.000000
  0
VERTEX
  8
LAYER-1
 10
4.565789
 20
0.222719
 30
0.000000
  0
SEQEND
  8
LAYER-1
  0
POLYLINE
  8
LAYER-1
 66
  1
 70
  1
 62
  0
 10
5.500682
 20
0.110736
 30
0.000000
  0
VERTEX
  8
LAYER-1
 10
5.500682
 20
0.110736
 30
0.000000
  0
VERTEX
  8
LAYER-1
 10
5.525856
 20
0.094243
 30
0.000000
  0
VERTEX
  8
LAYER-1
 10
5.533668
 20
0.108999
 30
0.000000
  0
SEQEND
  8
LAYER-1
  0
POLYLINE
  8
LAYER-1
 66
  1
 70
  0
 62
  0
 10
5.321861
 20
0.119418
 30
0.000000
  0
VERTEX
  8
LAYER-1
 10
5.321861
 20
0.119418
 30
0.000000
  0
VERTEX
  8
LAYER-1
 10
5.321861
 20
0.115078
 30
0.000000
  0
VERTEX
  8
LAYER-1
 10
5.326202
 20
0.111605
 30
0.000000
  0
VERTEX
  8
LAYER-1
 10
5.331410
 20
0.110738
 30
0.000000
  0
VERTEX
  8
LAYER-1
 10
5.335751
 20
0.112474
 30
0.000000
  0
VERTEX
  8
LAYER-1
 10
5.337486
 20
0.116814
 30
0.000000
  0
VERTEX
  8
LAYER-1
 10
5.337486
 20
0.121155
 30
0.000000
  0
VERTEX
  8
LAYER-1
 10
5.334014
 20
0.125494
 30
0.000000
  0
VERTEX
  8
LAYER-1
 10
5.329674
 20
0.125494
 30
0.000000
  0
VERTEX
  8
LAYER-1
 10
5.325333
 20
0.124626
 30
0.000000
  0
VERTEX
  8
LAYER-1
 10
5.322729
 20
0.120287
 30
0.000000
  0
SEQEND
  8
LAYER-1
  0
POLYLINE
  8
LAYER-1
 66
  1
 70
  1
 62
  0
 10
4.952070
 20
0.139384
 30
0.000000
  0
VERTEX
  8
LAYER-1
 10
4.952070
 20
0.139384
 30
0.000000
  0
VERTEX
  8
LAYER-1
 10
4.974639
 20
0.126363
 30
0.000000
  0
VERTEX
  8
LAYER-1
 10
4.953807
 20
0.156744
 30
0.000000
  0
SEQEND
  8
LAYER-1
  0
POLYLINE
  8
LAYER-1
 66
  1
 70
  1
 62
  0
 10
4.915078
 20
0.210398
 30
0.000000
  0
VERTEX
  8
LAYER-1
 10
4.915078
 20
0.210398
 30
0.000000
  0
VERTEX
  8
LAYER-1
 10
4.934443
 20
0.197712
 30
0.000000
  0
VERTEX
  8
LAYER-1
 10
4.940453
 20
0.209063
 30
0.000000
  0
SEQEND
  8
LAYER-1
  0
POLYLINE
  8
LAYER-1
 66
  1
 70
  0
 62
  0
 10
4.559714
 20
0.145462
 30
0.000000
  0
VERTEX
  8
LAYER-1
 10
4.559714
 20
0.145462
 30
0.000000
  0
VERTEX
  8
LAYER-1
 10
4.559714
 20
0.141123
 30
0.000000
  0
VERTEX
  8
LAYER-1
 10
4.564053
 20
0.137650
 30
0.000000
  0
VERTEX
  8
LAYER-1
 10
4.569261
 20
0.136781
 30
0.000000
  0
VERTEX
  8
LAYER-1
 10
4.573602
 20
0.138518
 30
0.000000
  0
VERTEX
  8
LAYER-1
 10
4.575337
 20
0.142858
 30
0.000000
  0
VERTEX
  8
LAYER-1
 10
4.575337
 20
0.147198
 30
0.000000
  0
VERTEX
  8
LAYER-1
 10
4.571866
 20
0.151538
 30
0.000000
  0
VERTEX
  8
LAYER-1
 10
4.567525
 20
0.151538
 30
0.000000
  0
VERTEX
  8
LAYER-1
 10
4.563184
 20
0.150670
 30
0.000000
  0
VERTEX
  8
LAYER-1
 10
4.560580
 20
0.146330
 30
0.000000
  0
SEQEND
  8
LAYER-1
  0
POLYLINE
  8
LAYER-1
 66
  1
 70
  0
 62
  0
 10
4.965958
 20
0.107267
 30
0.000000
  0
VERTEX
  8
LAYER-1
 10
4.965958
 20
0.107267
 30
0.000000
  0
VERTEX
  8
LAYER-1
 10
4.965958
 20
0.102926
 30
0.000000
  0
VERTEX
  8
LAYER-1
 10
4.970299
 20
0.099454
 30
0.000000
  0
VERTEX
  8
LAYER-1
 10
4.975507
 20
0.098585
 30
0.000000
  0
VERTEX
  8
LAYER-1
 10
4.979847
 20
0.100322
 30
0.000000
  0
VERTEX
  8
LAYER-1
 10
4.981583
 20
0.104662
 30
0.000000
  0
VERTEX
  8
LAYER-1
 10
4.981583
 20
0.109003
 30
0.000000
  0
VERTEX
  8
LAYER-1
 10
4.978111
 20
0.113343
 30
0.000000
  0
VERTEX
  8
LAYER-1
 10
4.973771
 20
0.113343
 30
0.000000
  0
VERTEX
  8
LAYER-1
 10
4.969430
 20
0.112474
 30
0.000000
  0
VERTEX
  8
LAYER-1
 10
4.966826
 20
0.108135
 30
0.000000
  0
SEQEND
  8
LAYER-1
  0
POLYLINE
  8
LAYER-1
 66
  1
 70
  0
 62
  0
 10
5.034535
 20
0.142857
 30
0.000000
  0
VERTEX
  8
LAYER-1
 10
5.034535
 20
0.142857
 30
0.000000
  0
VERTEX
  8
LAYER-1
 10
5.034535
 20
0.138517
 30
0.000000
  0
VERTEX
  8
LAYER-1
 10
5.038876
 20
0.135045
 30
0.000000
  0
VERTEX
  8
LAYER-1
 10
5.044083
 20
0.134176
 30
0.000000
  0
VERTEX
  8
LAYER-1
 10
5.048424
 20
0.135913
 30
0.000000
  0
VERTEX
  8
LAYER-1
 10
5.050160
 20
0.140253
 30
0.000000
  0
VERTEX
  8
LAYER-1
 10
5.050160
 20
0.144593
 30
0.000000
  0
VERTEX
  8
LAYER-1
 10
5.046688
 20
0.148934
 30
0.000000
  0
VERTEX
  8
LAYER-1
 10
5.042347
 20
0.148934
 30
0.000000
  0
VERTEX
  8
LAYER-1
 10
5.038007
 20
0.148065
 30
0.000000
  0
VERTEX
  8
LAYER-1
 10
5.035403
 20
0.143725
 30
0.000000
  0
SEQEND
  8
LAYER-1
  0
POLYLINE
  8
LAYER-1
 66
  1
 70
  1
 62
  0
 10
5.073945
 20
0.164124
 30
0.000000
  0
VERTEX
  8
LAYER-1
 10
5.073945
 20
0.164124
 30
0.000000
  0
VERTEX
  8
LAYER-1
 10
5.080890
 20
0.138084
 30
0.000000
  0
VERTEX
  8
LAYER-1
 10
5.106063
 20
0.151972
 30
0.000000
  0
SEQEND
  8
LAYER-1
  0
POLYLINE
  8
LAYER-1
 66
  1
 70
  1
 62
  0
 10
5.235491
 20
0.192772
 30
0.000000
  0
VERTEX
  8
LAYER-1
 10
5.235491
 20
0.192772
 30
0.000000
  0
VERTEX
  8
LAYER-1
 10
5.222469
 20
0.170201
 30
0.000000
  0
VERTEX
  8
LAYER-1
 10
5.252851
 20
0.191034
 30
0.000000
  0
SEQEND
  8
LAYER-1
  0
POLYLINE
  8
LAYER-1
 66
  1
 70
  1
 62
  0
 10
5.627852
 20
0.163253
 30
0.000000
  0
VERTEX
  8
LAYER-1
 10
5.627852
 20
0.163253
 30
0.000000
  0
VERTEX
  8
LAYER-1
 10
5.611359
 20
0.138079
 30
0.000000
  0
VERTEX
  8
LAYER-1
 10
5.626116
 20
0.130267
 30
0.000000
  0
SEQEND
  8
LAYER-1
  0
POLYLINE
  8
LAYER-1
 66
  1
 70
  0
 62
  0
 10
5.023685
 20
0.195374
 30
0.000000
  0
VERTEX
  8
LAYER-1
 10
5.023685
 20
0.195374
 30
0.000000
  0
VERTEX
  8
LAYER-1
 10
5.019344
 20
0.195374
 30
0.000000
  0
VERTEX
  8
LAYER-1
 10
5.015873
 20
0.191034
 30
0.000000
  0
VERTEX
  8
LAYER-1
 10
5.015004
 20
0.185826
 30
0.000000
  0
VERTEX
  8
LAYER-1
 10
5.016741
 20
0.181485
 30
0.000000
  0
VERTEX
  8
LAYER-1
 10
5.021081
 20
0.179749
 30
0.000000
  0
VERTEX
  8
LAYER-1
 10
5.025421
 20
0.179749
 30
0.000000
  0
VERTEX
  8
LAYER-1
 10
5.029761
 20
0.183222
 30
0.000000
  0
VERTEX
  8
LAYER-1
 10
5.029761
 20
0.187562
 30
0.000000
  0
VERTEX
  8
LAYER-1
 10
5.028894
 20
0.191903
 30
0.000000
  0
VERTEX
  8
LAYER-1
 10
5.024553
 20
0.194507
 30
0.000000
  0
SEQEND
  8
LAYER-1
  0
POLYLINE
  8
LAYER-1
 66
  1
 70
  1
 62
  0
 10
5.087054
 20
0.118985
 30
0.000000
  0
VERTEX
  8
LAYER-1
 10
5.087054
 20
0.118985
 30
0.000000
  0
VERTEX
  8
LAYER-1
 10
5.074033
 20
0.096415
 30
0.000000
  0
VERTEX
  8
LAYER-1
 10
5.104415
 20
0.117248
 30
0.000000
  0
SEQEND
  8
LAYER-1
  0
POLYLINE
  8
LAYER-1
 66
  1
 70
  1
 62
  0
 10
5.155797
 20
0.096748
 30
0.000000
  0
VERTEX
  8
LAYER-1
 10
5.155797
 20
0.096748
 30
0.000000
  0
VERTEX
  8
LAYER-1
 10
5.168485
 20
0.116112
 30
0.000000
  0
VERTEX
  8
LAYER-1
 10
5.157133
 20
0.122123
 30
0.000000
  0
SEQEND
  8
LAYER-1
  0
POLYLINE
  8
LAYER-1
 66
  1
 70
  0
 62
  0
 10
5.175594
 20
0.197110
 30
0.000000
  0
VERTEX
  8
LAYER-1
 10
5.175594
 20
0.197110
 30
0.000000
  0
VERTEX
  8
LAYER-1
 10
5.171254
 20
0.197110
 30
0.000000
  0
VERTEX
  8
LAYER-1
 10
5.167782
 20
0.192769
 30
0.000000
  0
VERTEX
  8
LAYER-1
 10
5.166914
 20
0.187562
 30
0.000000
  0
VERTEX
  8
LAYER-1
 10
5.168650
 20
0.183222
 30
0.000000
  0
VERTEX
  8
LAYER-1
 10
5.172991
 20
0.181485
 30
0.000000
  0
VERTEX
  8
LAYER-1
 10
5.177331
 20
0.181485
 30
0.000000
  0
VERTEX
  8
LAYER-1
 10
5.181671
 20
0.184957
 30
0.000000
  0
VERTEX
  8
LAYER-1
 10
5.181671
 20
0.189298
 30
0.000000
  0
VERTEX
  8
LAYER-1
 10
5.180803
 20
0.193638
 30
0.000000
  0
VERTEX
  8
LAYER-1
 10
5.176462
 20
0.196243
 30
0.000000
  0
SEQEND
  8
LAYER-1
  0
POLYLINE
  8
LAYER-1
 66
  1
 70
  0
 62
  0
 10
5.679935
 20
0.157176
 30
0.000000
  0
VERTEX
  8
LAYER-1
 10
5.679935
 20
0.157176
 30
0.000000
  0
VERTEX
  8
LAYER-1
 10
5.675595
 20
0.157176
 30
0.000000
  0
VERTEX
  8
LAYER-1
 10
5.672123
 20
0.152835
 30
0.000000
  0
VERTEX
  8
LAYER-1
 10
5.671255
 20
0.147628
 30
0.000000
  0
VERTEX
  8
LAYER-1
 10
5.672991
 20
0.143287
 30
0.000000
  0
VERTEX
  8
LAYER-1
 10
5.677332
 20
0.141551
 30
0.000000
  0
VERTEX
  8
LAYER-1
 10
5.681672
 20
0.141551
 30
0.000000
  0
VERTEX
  8
LAYER-1
 10
5.686012
 20
0.145023
 30
0.000000
  0
VERTEX
  8
LAYER-1
 10
5.686012
 20
0.149363
 30
0.000000
  0
VERTEX
  8
LAYER-1
 10
5.685144
 20
0.153704
 30
0.000000
  0
VERTEX
  8
LAYER-1
 10
5.680804
 20
0.156309
 30
0.000000
  0
SEQEND
  8
LAYER-1
  0
POLYLINE
  8
LAYER-1
 66
  1
 70
  0
 62
  0
 10
5.588790
 20
0.125058
 30
0.000000
  0
VERTEX
  8
LAYER-1
 10
5.588790
 20
0.125058
 30
0.000000
  0
VERTEX
  8
LAYER-1
 10
5.584450
 20
0.125058
 30
0.000000
  0
VERTEX
  8
LAYER-1
 10
5.580978
 20
0.120717
 30
0.000000
  0
VERTEX
  8
LAYER-1
 10
5.580110
 20
0.115510
 30
0.000000
  0
VERTEX
  8
LAYER-1
 10
5.581846
 20
0.111169
 30
0.000000
  0
VERTEX
  8
LAYER-1
 10
5.586186
 20
0.109433
 30
0.000000
  0
VERTEX
  8
LAYER-1
 10
5.590526
 20
0.109433
 30
0.000000
  0
VERTEX
  8
LAYER-1
 10
5.594867
 20
0.112905
 30
0.000000
  0
VERTEX
  8
LAYER-1
 10
5.594867
 20
0.117246
 30
0.000000
  0
VERTEX
  8
LAYER-1
 10
5.593999
 20
0.121586
 30
0.000000
  0
VERTEX
  8
LAYER-1
 10
5.589658
 20
0.124191
 30
0.000000
  0
SEQEND
  8
LAYER-1
  0
POLYLINE
  8
LAYER-1
 66
  1
 70
  1
 62
  0
 10
5.273685
 20
0.179317
 30
0.000000
  0
VERTEX
  8
LAYER-1
 10
5.273685
 20
0.179317
 30
0.000000
  0
VERTEX
  8
LAYER-1
 10
5.299725
 20
0.186261
 30
0.000000
  0
VERTEX
  8
LAYER-1
 10
5.285838
 20
0.211435
 30
0.000000
  0
SEQEND
  8
LAYER-1
  0
POLYLINE
  8
LAYER-1
 66
  1
 70
  0
 62
  0
 10
5.242435
 20
0.129837
 30
0.000000
  0
VERTEX
  8
LAYER-1
 10
5.242435
 20
0.129837
 30
0.000000
  0
VERTEX
  8
LAYER-1
 10
5.242435
 20
0.125498
 30
0.000000
  0
VERTEX
  8
LAYER-1
 10
5.246776
 20
0.122025
 30
0.000000
  0
VERTEX
  8
LAYER-1
 10
5.251983
 20
0.121157
 30
0.000000
  0
VERTEX
  8
LAYER-1
 10
5.256324
 20
0.122893
 30
0.000000
  0
VERTEX
  8
LAYER-1
 10
5.258060
 20
0.127233
 30
0.000000
  0
VERTEX
  8
LAYER-1
 10
5.258060
 20
0.131574
 30
0.000000
  0
VERTEX
  8
LAYER-1
 10
5.254588
 20
0.135913
 30
0.000000
  0
VERTEX
  8
LAYER-1
 10
5.250248
 20
0.135913
 30
0.000000
  0
VERTEX
  8
LAYER-1
 10
5.245907
 20
0.135045
 30
0.000000
  0
VERTEX
  8
LAYER-1
 10
5.243302
 20
0.130706
 30
0.000000
  0
SEQEND
  8
LAYER-1
  0
POLYLINE
  8
LAYER-1
 66
  1
 70
  1
 62
  0
 10
5.337488
 20
0.143292
 30
0.000000
  0
VERTEX
  8
LAYER-1
 10
5.337488
 20
0.143292
 30
0.000000
  0
VERTEX
  8
LAYER-1
 10
5.350508
 20
0.165862
 30
0.000000
  0
VERTEX
  8
LAYER-1
 10
5.320126
 20
0.145030
 30
0.000000
  0
SEQEND
  8
LAYER-1
  0
POLYLINE
  8
LAYER-1
 66
  1
 70
  0
 62
  0
 10
5.392608
 20
0.177581
 30
0.000000
  0
VERTEX
  8
LAYER-1
 10
5.392608
 20
0.177581
 30
0.000000
  0
VERTEX
  8
LAYER-1
 10
5.392608
 20
0.173241
 30
0.000000
  0
VERTEX
  8
LAYER-1
 10
5.396949
 20
0.169768
 30
0.000000
  0
VERTEX
  8
LAYER-1
 10
5.402157
 20
0.168900
 30
0.000000
  0
VERTEX
  8
LAYER-1
 10
5.406498
 20
0.170636
 30
0.000000
  0
VERTEX
  8
LAYER-1
 10
5.408233
 20
0.174976
 30
0.000000
  0
VERTEX
  8
LAYER-1
 10
5.408233
 20
0.179317
 30
0.000000
  0
VERTEX
  8
LAYER-1
 10
5.404761
 20
0.183657
 30
0.000000
  0
VERTEX
  8
LAYER-1
 10
5.400421
 20
0.183657
 30
0.000000
  0
VERTEX
  8
LAYER-1
 10
5.396080
 20
0.182788
 30
0.000000
  0
VERTEX
  8
LAYER-1
 10
5.393475
 20
0.178449
 30
0.000000
  0
SEQEND
  8
LAYER-1
  0
POLYLINE
  8
LAYER-1
 66
  1
 70
  1
 62
  0
 10
6.138533
 20
0.193986
 30
0.000000
  0
VERTEX
  8
LAYER-1
 10
6.138533
 20
0.193986
 30
0.000000
  0
VERTEX
  8
LAYER-1
 10
6.131588
 20
0.220027
 30
0.000000
  0
VERTEX
  8
LAYER-1
 10
6.106414
 20
0.206139
 30
0.000000
  0
SEQEND
  8
LAYER-1
  0
POLYLINE
  8
LAYER-1
 66
  1
 70
  0
 62
  0
 10
6.179072
 20
0.067769
 30
0.000000
  0
VERTEX
  8
LAYER-1
 10
6.179072
 20
0.067769
 30
0.000000
  0
VERTEX
  8
LAYER-1
 10
6.183411
 20
0.067769
 30
0.000000
  0
VERTEX
  8
LAYER-1
 10
6.186885
 20
0.072110
 30
0.000000
  0
VERTEX
  8
LAYER-1
 10
6.187751
 20
0.077318
 30
0.000000
  0
VERTEX
  8
LAYER-1
 10
6.186016
 20
0.081659
 30
0.000000
  0
VERTEX
  8
LAYER-1
 10
6.181676
 20
0.083394
 30
0.000000
  0
VERTEX
  8
LAYER-1
 10
6.177335
 20
0.083394
 30
0.000000
  0
VERTEX
  8
LAYER-1
 10
6.172995
 20
0.079923
 30
0.000000
  0
VERTEX
  8
LAYER-1
 10
6.172995
 20
0.075582
 30
0.000000
  0
VERTEX
  8
LAYER-1
 10
6.173863
 20
0.071242
 30
0.000000
  0
VERTEX
  8
LAYER-1
 10
6.178203
 20
0.068637
 30
0.000000
  0
SEQEND
  8
LAYER-1
  0
POLYLINE
  8
LAYER-1
 66
  1
 70
  1
 62
  0
 10
5.475508
 20
0.100756
 30
0.000000
  0
VERTEX
  8
LAYER-1
 10
5.475508
 20
0.100756
 30
0.000000
  0
VERTEX
  8
LAYER-1
 10
5.488528
 20
0.123326
 30
0.000000
  0
VERTEX
  8
LAYER-1
 10
5.458147
 20
0.102493
 30
0.000000
  0
SEQEND
  8
LAYER-1
  0
POLYLINE
  8
LAYER-1
 66
  1
 70
  0
 62
  0
 10
5.519260
 20
0.179090
 30
0.000000
  0
VERTEX
  8
LAYER-1
 10
5.519260
 20
0.179090
 30
0.000000
  0
VERTEX
  8
LAYER-1
 10
5.523600
 20
0.179090
 30
0.000000
  0
VERTEX
  8
LAYER-1
 10
5.527072
 20
0.183431
 30
0.000000
  0
VERTEX
  8
LAYER-1
 10
5.527941
 20
0.188638
 30
0.000000
  0
VERTEX
  8
LAYER-1
 10
5.526204
 20
0.192980
 30
0.000000
  0
VERTEX
  8
LAYER-1
 10
5.521865
 20
0.194715
 30
0.000000
  0
VERTEX
  8
LAYER-1
 10
5.517524
 20
0.194715
 30
0.000000
  0
VERTEX
  8
LAYER-1
 10
5.513183
 20
0.191243
 30
0.000000
  0
VERTEX
  8
LAYER-1
 10
5.513183
 20
0.186902
 30
0.000000
  0
VERTEX
  8
LAYER-1
 10
5.514052
 20
0.182562
 30
0.000000
  0
VERTEX
  8
LAYER-1
 10
5.518392
 20
0.179958
 30
0.000000
  0
SEQEND
  8
LAYER-1
  0
POLYLINE
  8
LAYER-1
 66
  1
 70
  1
 62
  0
 10
6.058846
 20
0.109873
 30
0.000000
  0
VERTEX
  8
LAYER-1
 10
6.058846
 20
0.109873
 30
0.000000
  0
VERTEX
  8
LAYER-1
 10
6.032805
 20
0.102926
 30
0.000000
  0
VERTEX
  8
LAYER-1
 10
6.046693
 20
0.077754
 30
0.000000
  0
SEQEND
  8
LAYER-1
  0
POLYLINE
  8
LAYER-1
 66
  1
 70
  0
 62
  0
 10
5.423858
 20
0.124630
 30
0.000000
  0
VERTEX
  8
LAYER-1
 10
5.423858
 20
0.124630
 30
0.000000
  0
VERTEX
  8
LAYER-1
 10
5.423858
 20
0.128969
 30
0.000000
  0
VERTEX
  8
LAYER-1
 10
5.419518
 20
0.132443
 30
0.000000
  0
VERTEX
  8
LAYER-1
 10
5.414310
 20
0.133310
 30
0.000000
  0
VERTEX
  8
LAYER-1
 10
5.409969
 20
0.131574
 30
0.000000
  0
VERTEX
  8
LAYER-1
 10
5.408233
 20
0.127233
 30
0.000000
  0
VERTEX
  8
LAYER-1
 10
5.408233
 20
0.122893
 30
0.000000
  0
VERTEX
  8
LAYER-1
 10
5.411705
 20
0.118554
 30
0.000000
  0
VERTEX
  8
LAYER-1
 10
5.416046
 20
0.118554
 30
0.000000
  0
VERTEX
  8
LAYER-1
 10
5.420386
 20
0.119420
 30
0.000000
  0
VERTEX
  8
LAYER-1
 10
5.422991
 20
0.123761
 30
0.000000
  0
SEQEND
  8
LAYER-1
  0
POLYLINE
  8
LAYER-1
 66
  1
 70
  1
 62
  0
 10
6.007630
 20
0.099456
 30
0.000000
  0
VERTEX
  8
LAYER-1
 10
6.007630
 20
0.099456
 30
0.000000
  0
VERTEX
  8
LAYER-1
 10
5.979852
 20
0.115948
 30
0.000000
  0
VERTEX
  8
LAYER-1
 10
6.000685
 20
0.085567
 30
0.000000
  0
SEQEND
  8
LAYER-1
  0
POLYLINE
  8
LAYER-1
 66
  1
 70
  0
 62
  0
 10
5.718130
 20
0.181049
 30
0.000000
  0
VERTEX
  8
LAYER-1
 10
5.718130
 20
0.181049
 30
0.000000
  0
VERTEX
  8
LAYER-1
 10
5.718130
 20
0.185390
 30
0.000000
  0
VERTEX
  8
LAYER-1
 10
5.713789
 20
0.188861
 30
0.000000
  0
VERTEX
  8
LAYER-1
 10
5.708582
 20
0.189730
 30
0.000000
  0
VERTEX
  8
LAYER-1
 10
5.704241
 20
0.187993
 30
0.000000
  0
VERTEX
  8
LAYER-1
 10
5.702505
 20
0.183654
 30
0.000000
  0
VERTEX
  8
LAYER-1
 10
5.702505
 20
0.179313
 30
0.000000
  0
VERTEX
  8
LAYER-1
 10
5.705977
 20
0.174973
 30
0.000000
  0
VERTEX
  8
LAYER-1
 10
5.710317
 20
0.174973
 30
0.000000
  0
VERTEX
  8
LAYER-1
 10
5.714658
 20
0.175841
 30
0.000000
  0
VERTEX
  8
LAYER-1
 10
5.717262
 20
0.180180
 30
0.000000
  0
SEQEND
  8
LAYER-1
  0
POLYLINE
  8
LAYER-1
 66
  1
 70
  1
 62
  0
 10
6.288794
 20
0.087563
 30
0.000000
  0
VERTEX
  8
LAYER-1
 10
6.288794
 20
0.087563
 30
0.000000
  0
VERTEX
  8
LAYER-1
 10
6.281849
 20
0.113604
 30
0.000000
  0
VERTEX
  8
LAYER-1
 10
6.256675
 20
0.099716
 30
0.000000
  0
SEQEND
  8
LAYER-1
  0
POLYLINE
  8
LAYER-1
 66
  1
 70
  0
 62
  0
 10
6.378638
 20
0.187823
 30
0.000000
  0
VERTEX
  8
LAYER-1
 10
6.378638
 20
0.187823
 30
0.000000
  0
VERTEX
  8
LAYER-1
 10
6.382979
 20
0.187823
 30
0.000000
  0
VERTEX
  8
LAYER-1
 10
6.386451
 20
0.192164
 30
0.000000
  0
VERTEX
  8
LAYER-1
 10
6.387318
 20
0.197372
 30
0.000000
  0
VERTEX
  8
LAYER-1
 10
6.385582
 20
0.201713
 30
0.000000
  0
VERTEX
  8
LAYER-1
 10
6.381243
 20
0.203448
 30
0.000000
  0
VERTEX
  8
LAYER-1
 10
6.376903
 20
0.203448
 30
0.000000
  0
VERTEX
  8
LAYER-1
 10
6.372562
 20
0.199977
 30
0.000000
  0
VERTEX
  8
LAYER-1
 10
6.372562
 20
0.195635
 30
0.000000
  0
VERTEX
  8
LAYER-1
 10
6.373431
 20
0.191295
 30
0.000000
  0
VERTEX
  8
LAYER-1
 10
6.377769
 20
0.188691
 30
0.000000
  0
SEQEND
  8
LAYER-1
  0
POLYLINE
  8
LAYER-1
 66
  1
 70
  1
 62
  0
 10
6.363881
 20
0.222979
 30
0.000000
  0
VERTEX
  8
LAYER-1
 10
6.363881
 20
0.222979
 30
0.000000
  0
VERTEX
  8
LAYER-1
 10
6.337838
 20
0.216035
 30
0.000000
  0
VERTEX
  8
LAYER-1
 10
6.351727
 20
0.190862
 30
0.000000
  0
SEQEND
  8
LAYER-1
  0
POLYLINE
  8
LAYER-1
 66
  1
 70
  1
 62
  0
 10
5.612661
 20
0.081662
 30
0.000000
  0
VERTEX
  8
LAYER-1
 10
5.612661
 20
0.081662
 30
0.000000
  0
VERTEX
  8
LAYER-1
 10
5.625681
 20
0.104232
 30
0.000000
  0
VERTEX
  8
LAYER-1
 10
5.595300
 20
0.083399
 30
0.000000
  0
SEQEND
  8
LAYER-1
  0
POLYLINE
  8
LAYER-1
 66
  1
 70
  0
 62
  0
 10
5.609188
 20
0.188432
 30
0.000000
  0
VERTEX
  8
LAYER-1
 10
5.609188
 20
0.188432
 30
0.000000
  0
VERTEX
  8
LAYER-1
 10
5.613529
 20
0.188432
 30
0.000000
  0
VERTEX
  8
LAYER-1
 10
5.617001
 20
0.192773
 30
0.000000
  0
VERTEX
  8
LAYER-1
 10
5.617869
 20
0.197980
 30
0.000000
  0
VERTEX
  8
LAYER-1
 10
5.616133
 20
0.202321
 30
0.000000
  0
VERTEX
  8
LAYER-1
 10
5.611793
 20
0.204057
 30
0.000000
  0
VERTEX
  8
LAYER-1
 10
5.607452
 20
0.204057
 30
0.000000
  0
VERTEX
  8
LAYER-1
 10
5.603111
 20
0.200585
 30
0.000000
  0
VERTEX
  8
LAYER-1
 10
5.603111
 20
0.196244
 30
0.000000
  0
VERTEX
  8
LAYER-1
 10
5.603980
 20
0.191904
 30
0.000000
  0
VERTEX
  8
LAYER-1
 10
5.608321
 20
0.189300
 30
0.000000
  0
SEQEND
  8
LAYER-1
  0
POLYLINE
  8
LAYER-1
 66
  1
 70
  1
 62
  0
 10
5.561879
 20
0.167163
 30
0.000000
  0
VERTEX
  8
LAYER-1
 10
5.561879
 20
0.167163
 30
0.000000
  0
VERTEX
  8
LAYER-1
 10
5.587054
 20
0.150670
 30
0.000000
  0
VERTEX
  8
LAYER-1
 10
5.594866
 20
0.165426
 30
0.000000
  0
SEQEND
  8
LAYER-1
  0
POLYLINE
  8
LAYER-1
 66
  1
 70
  1
 62
  0
 10
5.548526
 20
0.139551
 30
0.000000
  0
VERTEX
  8
LAYER-1
 10
5.548526
 20
0.139551
 30
0.000000
  0
VERTEX
  8
LAYER-1
 10
5.529162
 20
0.152239
 30
0.000000
  0
VERTEX
  8
LAYER-1
 10
5.523151
 20
0.140887
 30
0.000000
  0
SEQEND
  8
LAYER-1
  0
POLYLINE
  8
LAYER-1
 66
  1
 70
  1
 62
  0
 10
1.325771
 20
0.198413
 30
0.000000
  0
VERTEX
  8
LAYER-1
 10
1.325771
 20
0.198413
 30
0.000000
  0
VERTEX
  8
LAYER-1
 10
1.312750
 20
0.175843
 30
0.000000
  0
VERTEX
  8
LAYER-1
 10
1.343132
 20
0.196676
 30
0.000000
  0
SEQEND
  8
LAYER-1
  0
POLYLINE
  8
LAYER-1
 66
  1
 70
  1
 62
  0
 10
5.875251
 20
0.125498
 30
0.000000
  0
VERTEX
  8
LAYER-1
 10
5.875251
 20
0.125498
 30
0.000000
  0
VERTEX
  8
LAYER-1
 10
5.897820
 20
0.112477
 30
0.000000
  0
VERTEX
  8
LAYER-1
 10
5.876988
 20
0.142860
 30
0.000000
  0
SEQEND
  8
LAYER-1
  0
POLYLINE
  8
LAYER-1
 66
  1
 70
  0
 62
  0
 10
5.803202
 20
0.172370
 30
0.000000
  0
VERTEX
  8
LAYER-1
 10
5.803202
 20
0.172370
 30
0.000000
  0
VERTEX
  8
LAYER-1
 10
5.803202
 20
0.168030
 30
0.000000
  0
VERTEX
  8
LAYER-1
 10
5.807543
 20
0.164558
 30
0.000000
  0
VERTEX
  8
LAYER-1
 10
5.812751
 20
0.163690
 30
0.000000
  0
VERTEX
  8
LAYER-1
 10
5.817092
 20
0.165426
 30
0.000000
  0
VERTEX
  8
LAYER-1
 10
5.818827
 20
0.169767
 30
0.000000
  0
VERTEX
  8
LAYER-1
 10
5.818827
 20
0.174106
 30
0.000000
  0
VERTEX
  8
LAYER-1
 10
5.815356
 20
0.178447
 30
0.000000
  0
VERTEX
  8
LAYER-1
 10
5.811015
 20
0.178447
 30
0.000000
  0
VERTEX
  8
LAYER-1
 10
5.806674
 20
0.177579
 30
0.000000
  0
VERTEX
  8
LAYER-1
 10
5.804070
 20
0.173238
 30
0.000000
  0
SEQEND
  8
LAYER-1
  0
POLYLINE
  8
LAYER-1
 66
  1
 70
  1
 62
  0
 10
5.752855
 20
0.183656
 30
0.000000
  0
VERTEX
  8
LAYER-1
 10
5.752855
 20
0.183656
 30
0.000000
  0
VERTEX
  8
LAYER-1
 10
5.775424
 20
0.170636
 30
0.000000
  0
VERTEX
  8
LAYER-1
 10
5.754592
 20
0.201018
 30
0.000000
  0
SEQEND
  8
LAYER-1
  0
POLYLINE
  8
LAYER-1
 66
  1
 70
  0
 62
  0
 10
6.015008
 20
0.125498
 30
0.000000
  0
VERTEX
  8
LAYER-1
 10
6.015008
 20
0.125498
 30
0.000000
  0
VERTEX
  8
LAYER-1
 10
6.015008
 20
0.121157
 30
0.000000
  0
VERTEX
  8
LAYER-1
 10
6.019349
 20
0.117686
 30
0.000000
  0
VERTEX
  8
LAYER-1
 10
6.024556
 20
0.116818
 30
0.000000
  0
VERTEX
  8
LAYER-1
 10
6.028897
 20
0.118554
 30
0.000000
  0
VERTEX
  8
LAYER-1
 10
6.030633
 20
0.122893
 30
0.000000
  0
VERTEX
  8
LAYER-1
 10
6.030633
 20
0.127235
 30
0.000000
  0
VERTEX
  8
LAYER-1
 10
6.027161
 20
0.131575
 30
0.000000
  0
VERTEX
  8
LAYER-1
 10
6.022820
 20
0.131575
 30
0.000000
  0
VERTEX
  8
LAYER-1
 10
6.018480
 20
0.130706
 30
0.000000
  0
VERTEX
  8
LAYER-1
 10
6.015876
 20
0.126367
 30
0.000000
  0
SEQEND
  8
LAYER-1
  0
POLYLINE
  8
LAYER-1
 66
  1
 70
  0
 62
  0
 10
5.849210
 20
0.180186
 30
0.000000
  0
VERTEX
  8
LAYER-1
 10
5.849210
 20
0.180186
 30
0.000000
  0
VERTEX
  8
LAYER-1
 10
5.849210
 20
0.175845
 30
0.000000
  0
VERTEX
  8
LAYER-1
 10
5.853550
 20
0.172373
 30
0.000000
  0
VERTEX
  8
LAYER-1
 10
5.858758
 20
0.171505
 30
0.000000
  0
VERTEX
  8
LAYER-1
 10
5.863099
 20
0.173242
 30
0.000000
  0
VERTEX
  8
LAYER-1
 10
5.864835
 20
0.177581
 30
0.000000
  0
VERTEX
  8
LAYER-1
 10
5.864835
 20
0.181922
 30
0.000000
  0
VERTEX
  8
LAYER-1
 10
5.861363
 20
0.186262
 30
0.000000
  0
VERTEX
  8
LAYER-1
 10
5.857022
 20
0.186262
 30
0.000000
  0
VERTEX
  8
LAYER-1
 10
5.852681
 20
0.185393
 30
0.000000
  0
VERTEX
  8
LAYER-1
 10
5.850076
 20
0.181054
 30
0.000000
  0
SEQEND
  8
LAYER-1
  0
POLYLINE
  8
LAYER-1
 66
  1
 70
  1
 62
  0
 10
5.773689
 20
0.115516
 30
0.000000
  0
VERTEX
  8
LAYER-1
 10
5.773689
 20
0.115516
 30
0.000000
  0
VERTEX
  8
LAYER-1
 10
5.760668
 20
0.092945
 30
0.000000
  0
VERTEX
  8
LAYER-1
 10
5.791050
 20
0.113778
 30
0.000000
  0
SEQEND
  8
LAYER-1
  0
POLYLINE
  8
LAYER-1
 66
  1
 70
  0
 62
  0
 10
5.699988
 20
0.107650
 30
0.000000
  0
VERTEX
  8
LAYER-1
 10
5.699988
 20
0.107650
 30
0.000000
  0
VERTEX
  8
LAYER-1
 10
5.695649
 20
0.107650
 30
0.000000
  0
VERTEX
  8
LAYER-1
 10
5.692176
 20
0.103310
 30
0.000000
  0
VERTEX
  8
LAYER-1
 10
5.691308
 20
0.098101
 30
0.000000
  0
VERTEX
  8
LAYER-1
 10
5.693044
 20
0.093761
 30
0.000000
  0
VERTEX
  8
LAYER-1
 10
5.697385
 20
0.092025
 30
0.000000
  0
VERTEX
  8
LAYER-1
 10
5.701725
 20
0.092025
 30
0.000000
  0
VERTEX
  8
LAYER-1
 10
5.706065
 20
0.095497
 30
0.000000
  0
VERTEX
  8
LAYER-1
 10
5.706065
 20
0.099837
 30
0.000000
  0
VERTEX
  8
LAYER-1
 10
5.705197
 20
0.104179
 30
0.000000
  0
VERTEX
  8
LAYER-1
 10
5.700857
 20
0.106783
 30
0.000000
  0
SEQEND
  8
LAYER-1
  0
POLYLINE
  8
LAYER-1
 66
  1
 70
  0
 62
  0
 10
5.773689
 20
0.145895
 30
0.000000
  0
VERTEX
  8
LAYER-1
 10
5.773689
 20
0.145895
 30
0.000000
  0
VERTEX
  8
LAYER-1
 10
5.769349
 20
0.145895
 30
0.000000
  0
VERTEX
  8
LAYER-1
 10
5.765877
 20
0.141555
 30
0.000000
  0
VERTEX
  8
LAYER-1
 10
5.765009
 20
0.136347
 30
0.000000
  0
VERTEX
  8
LAYER-1
 10
5.766745
 20
0.132006
 30
0.000000
  0
VERTEX
  8
LAYER-1
 10
5.771086
 20
0.130270
 30
0.000000
  0
VERTEX
  8
LAYER-1
 10
5.775425
 20
0.130270
 30
0.000000
  0
VERTEX
  8
LAYER-1
 10
5.779766
 20
0.133742
 30
0.000000
  0
VERTEX
  8
LAYER-1
 10
5.779766
 20
0.138083
 30
0.000000
  0
VERTEX
  8
LAYER-1
 10
5.778898
 20
0.142424
 30
0.000000
  0
VERTEX
  8
LAYER-1
 10
5.774557
 20
0.145029
 30
0.000000
  0
SEQEND
  8
LAYER-1
  0
POLYLINE
  8
LAYER-1
 66
  1
 70
  1
 62
  0
 10
6.080981
 20
0.162389
 30
0.000000
  0
VERTEX
  8
LAYER-1
 10
6.080981
 20
0.162389
 30
0.000000
  0
VERTEX
  8
LAYER-1
 10
6.087925
 20
0.136348
 30
0.000000
  0
VERTEX
  8
LAYER-1
 10
6.113099
 20
0.150236
 30
0.000000
  0
SEQEND
  8
LAYER-1
  0
POLYLINE
  8
LAYER-1
 66
  1
 70
  1
 62
  0
 10
6.243307
 20
0.191036
 30
0.000000
  0
VERTEX
  8
LAYER-1
 10
6.243307
 20
0.191036
 30
0.000000
  0
VERTEX
  8
LAYER-1
 10
6.230286
 20
0.168466
 30
0.000000
  0
VERTEX
  8
LAYER-1
 10
6.260668
 20
0.189299
 30
0.000000
  0
SEQEND
  8
LAYER-1
  0
POLYLINE
  8
LAYER-1
 66
  1
 70
  0
 62
  0
 10
6.031502
 20
0.193639
 30
0.000000
  0
VERTEX
  8
LAYER-1
 10
6.031502
 20
0.193639
 30
0.000000
  0
VERTEX
  8
LAYER-1
 10
6.027161
 20
0.193639
 30
0.000000
  0
VERTEX
  8
LAYER-1
 10
6.023689
 20
0.189299
 30
0.000000
  0
VERTEX
  8
LAYER-1
 10
6.022820
 20
0.184091
 30
0.000000
  0
VERTEX
  8
LAYER-1
 10
6.024557
 20
0.179750
 30
0.000000
  0
VERTEX
  8
LAYER-1
 10
6.028897
 20
0.178014
 30
0.000000
  0
VERTEX
  8
LAYER-1
 10
6.033238
 20
0.178014
 30
0.000000
  0
VERTEX
  8
LAYER-1
 10
6.037579
 20
0.181486
 30
0.000000
  0
VERTEX
  8
LAYER-1
 10
6.037579
 20
0.185827
 30
0.000000
  0
VERTEX
  8
LAYER-1
 10
6.036710
 20
0.190168
 30
0.000000
  0
VERTEX
  8
LAYER-1
 10
6.032370
 20
0.192772
 30
0.000000
  0
SEQEND
  8
LAYER-1
  0
POLYLINE
  8
LAYER-1
 66
  1
 70
  1
 62
  0
 10
6.141746
 20
0.125931
 30
0.000000
  0
VERTEX
  8
LAYER-1
 10
6.141746
 20
0.125931
 30
0.000000
  0
VERTEX
  8
LAYER-1
 10
6.128725
 20
0.103361
 30
0.000000
  0
VERTEX
  8
LAYER-1
 10
6.159107
 20
0.124194
 30
0.000000
  0
SEQEND
  8
LAYER-1
  0
POLYLINE
  8
LAYER-1
 66
  1
 70
  0
 62
  0
 10
6.183411
 20
0.195375
 30
0.000000
  0
VERTEX
  8
LAYER-1
 10
6.183411
 20
0.195375
 30
0.000000
  0
VERTEX
  8
LAYER-1
 10
6.179070
 20
0.195375
 30
0.000000
  0
VERTEX
  8
LAYER-1
 10
6.175599
 20
0.191035
 30
0.000000
  0
VERTEX
  8
LAYER-1
 10
6.174731
 20
0.185827
 30
0.000000
  0
VERTEX
  8
LAYER-1
 10
6.176467
 20
0.181486
 30
0.000000
  0
VERTEX
  8
LAYER-1
 10
6.180807
 20
0.179750
 30
0.000000
  0
VERTEX
  8
LAYER-1
 10
6.185147
 20
0.179750
 30
0.000000
  0
VERTEX
  8
LAYER-1
 10
6.189488
 20
0.183222
 30
0.000000
  0
VERTEX
  8
LAYER-1
 10
6.189488
 20
0.187563
 30
0.000000
  0
VERTEX
  8
LAYER-1
 10
6.188620
 20
0.191904
 30
0.000000
  0
VERTEX
  8
LAYER-1
 10
6.184279
 20
0.194507
 30
0.000000
  0
SEQEND
  8
LAYER-1
  0
POLYLINE
  8
LAYER-1
 66
  1
 70
  1
 62
  0
 10
6.522820
 20
0.186695
 30
0.000000
  0
VERTEX
  8
LAYER-1
 10
6.522820
 20
0.186695
 30
0.000000
  0
VERTEX
  8
LAYER-1
 10
6.529765
 20
0.160655
 30
0.000000
  0
VERTEX
  8
LAYER-1
 10
6.554938
 20
0.174542
 30
0.000000
  0
SEQEND
  8
LAYER-1
  0
POLYLINE
  8
LAYER-1
 66
  1
 70
  1
 62
  0
 10
6.685147
 20
0.215342
 30
0.000000
  0
VERTEX
  8
LAYER-1
 10
6.685147
 20
0.215342
 30
0.000000
  0
VERTEX
  8
LAYER-1
 10
6.672126
 20
0.192772
 30
0.000000
  0
VERTEX
  8
LAYER-1
 10
6.702508
 20
0.213604
 30
0.000000
  0
SEQEND
  8
LAYER-1
  0
POLYLINE
  8
LAYER-1
 66
  1
 70
  1
 62
  0
 10
5.913446
 20
0.151105
 30
0.000000
  0
VERTEX
  8
LAYER-1
 10
5.913446
 20
0.151105
 30
0.000000
  0
VERTEX
  8
LAYER-1
 10
5.938619
 20
0.134611
 30
0.000000
  0
VERTEX
  8
LAYER-1
 10
5.946432
 20
0.149369
 30
0.000000
  0
SEQEND
  8
LAYER-1
  0
POLYLINE
  8
LAYER-1
 66
  1
 70
  0
 62
  0
 10
6.483758
 20
0.207530
 30
0.000000
  0
VERTEX
  8
LAYER-1
 10
6.483758
 20
0.207530
 30
0.000000
  0
VERTEX
  8
LAYER-1
 10
6.479417
 20
0.207530
 30
0.000000
  0
VERTEX
  8
LAYER-1
 10
6.475945
 20
0.203189
 30
0.000000
  0
VERTEX
  8
LAYER-1
 10
6.475077
 20
0.197981
 30
0.000000
  0
VERTEX
  8
LAYER-1
 10
6.476813
 20
0.193641
 30
0.000000
  0
VERTEX
  8
LAYER-1
 10
6.481154
 20
0.191905
 30
0.000000
  0
VERTEX
  8
LAYER-1
 10
6.485494
 20
0.191905
 30
0.000000
  0
VERTEX
  8
LAYER-1
 10
6.489835
 20
0.195376
 30
0.000000
  0
VERTEX
  8
LAYER-1
 10
6.489835
 20
0.199717
 30
0.000000
  0
VERTEX
  8
LAYER-1
 10
6.488967
 20
0.204057
 30
0.000000
  0
VERTEX
  8
LAYER-1
 10
6.484626
 20
0.206662
 30
0.000000
  0
SEQEND
  8
LAYER-1
  0
POLYLINE
  8
LAYER-1
 66
  1
 70
  1
 62
  0
 10
6.499384
 20
0.118987
 30
0.000000
  0
VERTEX
  8
LAYER-1
 10
6.499384
 20
0.118987
 30
0.000000
  0
VERTEX
  8
LAYER-1
 10
6.486363
 20
0.096417
 30
0.000000
  0
VERTEX
  8
LAYER-1
 10
6.516745
 20
0.117249
 30
0.000000
  0
SEQEND
  8
LAYER-1
  0
POLYLINE
  8
LAYER-1
 66
  1
 70
  1
 62
  0
 10
6.593834
 20
0.133405
 30
0.000000
  0
VERTEX
  8
LAYER-1
 10
6.593834
 20
0.133405
 30
0.000000
  0
VERTEX
  8
LAYER-1
 10
6.581148
 20
0.114041
 30
0.000000
  0
VERTEX
  8
LAYER-1
 10
6.592498
 20
0.108030
 30
0.000000
  0
SEQEND
  8
LAYER-1
  0
POLYLINE
  8
LAYER-1
 66
  1
 70
  0
 62
  0
 10
6.625251
 20
0.211869
 30
0.000000
  0
VERTEX
  8
LAYER-1
 10
6.625251
 20
0.211869
 30
0.000000
  0
VERTEX
  8
LAYER-1
 10
6.620911
 20
0.211869
 30
0.000000
  0
VERTEX
  8
LAYER-1
 10
6.617438
 20
0.207529
 30
0.000000
  0
VERTEX
  8
LAYER-1
 10
6.616570
 20
0.202321
 30
0.000000
  0
VERTEX
  8
LAYER-1
 10
6.618306
 20
0.197980
 30
0.000000
  0
VERTEX
  8
LAYER-1
 10
6.622647
 20
0.196244
 30
0.000000
  0
VERTEX
  8
LAYER-1
 10
6.626988
 20
0.196244
 30
0.000000
  0
VERTEX
  8
LAYER-1
 10
6.631327
 20
0.199716
 30
0.000000
  0
VERTEX
  8
LAYER-1
 10
6.631327
 20
0.204057
 30
0.000000
  0
VERTEX
  8
LAYER-1
 10
6.630460
 20
0.208398
 30
0.000000
  0
VERTEX
  8
LAYER-1
 10
6.626119
 20
0.211002
 30
0.000000
  0
SEQEND
  8
LAYER-1
  0
POLYLINE
  8
LAYER-1
 66
  1
 70
  0
 62
  0
 10
5.902161
 20
0.204057
 30
0.000000
  0
VERTEX
  8
LAYER-1
 10
5.902161
 20
0.204057
 30
0.000000
  0
VERTEX
  8
LAYER-1
 10
5.902161
 20
0.199716
 30
0.000000
  0
VERTEX
  8
LAYER-1
 10
5.906502
 20
0.196244
 30
0.000000
  0
VERTEX
  8
LAYER-1
 10
5.911710
 20
0.195375
 30
0.000000
  0
VERTEX
  8
LAYER-1
 10
5.916051
 20
0.197111
 30
0.000000
  0
VERTEX
  8
LAYER-1
 10
5.917786
 20
0.201452
 30
0.000000
  0
VERTEX
  8
LAYER-1
 10
5.917786
 20
0.205793
 30
0.000000
  0
VERTEX
  8
LAYER-1
 10
5.914315
 20
0.210133
 30
0.000000
  0
VERTEX
  8
LAYER-1
 10
5.909974
 20
0.210133
 30
0.000000
  0
VERTEX
  8
LAYER-1
 10
5.905633
 20
0.209264
 30
0.000000
  0
VERTEX
  8
LAYER-1
 10
5.903029
 20
0.204924
 30
0.000000
  0
SEQEND
  8
LAYER-1
  0
POLYLINE
  8
LAYER-1
 66
  1
 70
  0
 62
  0
 10
6.465528
 20
0.119854
 30
0.000000
  0
VERTEX
  8
LAYER-1
 10
6.465528
 20
0.119854
 30
0.000000
  0
VERTEX
  8
LAYER-1
 10
6.461188
 20
0.119854
 30
0.000000
  0
VERTEX
  8
LAYER-1
 10
6.457716
 20
0.115512
 30
0.000000
  0
VERTEX
  8
LAYER-1
 10
6.456848
 20
0.110305
 30
0.000000
  0
VERTEX
  8
LAYER-1
 10
6.458583
 20
0.105964
 30
0.000000
  0
VERTEX
  8
LAYER-1
 10
6.462924
 20
0.104229
 30
0.000000
  0
VERTEX
  8
LAYER-1
 10
6.467264
 20
0.104229
 30
0.000000
  0
VERTEX
  8
LAYER-1
 10
6.471605
 20
0.107700
 30
0.000000
  0
VERTEX
  8
LAYER-1
 10
6.471605
 20
0.112041
 30
0.000000
  0
VERTEX
  8
LAYER-1
 10
6.470737
 20
0.116381
 30
0.000000
  0
VERTEX
  8
LAYER-1
 10
6.466396
 20
0.118986
 30
0.000000
  0
SEQEND
  8
LAYER-1
  0
POLYLINE
  8
LAYER-1
 66
  1
 70
  0
 62
  0
 10
6.363967
 20
0.157616
 30
0.000000
  0
VERTEX
  8
LAYER-1
 10
6.363967
 20
0.157616
 30
0.000000
  0
VERTEX
  8
LAYER-1
 10
6.363967
 20
0.161956
 30
0.000000
  0
VERTEX
  8
LAYER-1
 10
6.359627
 20
0.165428
 30
0.000000
  0
VERTEX
  8
LAYER-1
 10
6.354419
 20
0.166295
 30
0.000000
  0
VERTEX
  8
LAYER-1
 10
6.350079
 20
0.164560
 30
0.000000
  0
VERTEX
  8
LAYER-1
 10
6.348342
 20
0.160219
 30
0.000000
  0
VERTEX
  8
LAYER-1
 10
6.348342
 20
0.155880
 30
0.000000
  0
VERTEX
  8
LAYER-1
 10
6.351814
 20
0.151539
 30
0.000000
  0
VERTEX
  8
LAYER-1
 10
6.356155
 20
0.151539
 30
0.000000
  0
VERTEX
  8
LAYER-1
 10
6.360496
 20
0.152406
 30
0.000000
  0
VERTEX
  8
LAYER-1
 10
6.363099
 20
0.156748
 30
0.000000
  0
SEQEND
  8
LAYER-1
  0
POLYLINE
  8
LAYER-1
 66
  1
 70
  1
 62
  0
 10
6.296258
 20
0.144594
 30
0.000000
  0
VERTEX
  8
LAYER-1
 10
6.296258
 20
0.144594
 30
0.000000
  0
VERTEX
  8
LAYER-1
 10
6.273689
 20
0.157614
 30
0.000000
  0
VERTEX
  8
LAYER-1
 10
6.294522
 20
0.127232
 30
0.000000
  0
SEQEND
  8
LAYER-1
  0
POLYLINE
  8
LAYER-1
 66
  1
 70
  0
 62
  0
 10
6.213794
 20
0.109873
 30
0.000000
  0
VERTEX
  8
LAYER-1
 10
6.213794
 20
0.109873
 30
0.000000
  0
VERTEX
  8
LAYER-1
 10
6.213794
 20
0.114213
 30
0.000000
  0
VERTEX
  8
LAYER-1
 10
6.209454
 20
0.117685
 30
0.000000
  0
VERTEX
  8
LAYER-1
 10
6.204246
 20
0.118553
 30
0.000000
  0
VERTEX
  8
LAYER-1
 10
6.199905
 20
0.116817
 30
0.000000
  0
VERTEX
  8
LAYER-1
 10
6.198169
 20
0.112477
 30
0.000000
  0
VERTEX
  8
LAYER-1
 10
6.198169
 20
0.108136
 30
0.000000
  0
VERTEX
  8
LAYER-1
 10
6.201641
 20
0.103795
 30
0.000000
  0
VERTEX
  8
LAYER-1
 10
6.205982
 20
0.103795
 30
0.000000
  0
VERTEX
  8
LAYER-1
 10
6.210322
 20
0.104664
 30
0.000000
  0
VERTEX
  8
LAYER-1
 10
6.212925
 20
0.109005
 30
0.000000
  0
SEQEND
  8
LAYER-1
  0
POLYLINE
  8
LAYER-1
 66
  1
 70
  1
 62
  0
 10
6.404071
 20
0.100151
 30
0.000000
  0
VERTEX
  8
LAYER-1
 10
6.404071
 20
0.100151
 30
0.000000
  0
VERTEX
  8
LAYER-1
 10
6.397127
 20
0.126191
 30
0.000000
  0
VERTEX
  8
LAYER-1
 10
6.371953
 20
0.112304
 30
0.000000
  0
SEQEND
  8
LAYER-1
  0
POLYLINE
  8
LAYER-1
 66
  1
 70
  1
 62
  0
 10
6.425599
 20
0.154577
 30
0.000000
  0
VERTEX
  8
LAYER-1
 10
6.425599
 20
0.154577
 30
0.000000
  0
VERTEX
  8
LAYER-1
 10
6.438620
 20
0.177148
 30
0.000000
  0
VERTEX
  8
LAYER-1
 10
6.408238
 20
0.156314
 30
0.000000
  0
SEQEND
  8
LAYER-1
  0
POLYLINE
  8
LAYER-1
 66
  1
 70
  1
 62
  0
 10
5.853550
 20
0.098154
 30
0.000000
  0
VERTEX
  8
LAYER-1
 10
5.853550
 20
0.098154
 30
0.000000
  0
VERTEX
  8
LAYER-1
 10
5.830980
 20
0.111176
 30
0.000000
  0
VERTEX
  8
LAYER-1
 10
5.851813
 20
0.080793
 30
0.000000
  0
SEQEND
  8
LAYER-1
  0
POLYLINE
  8
LAYER-1
 66
  1
 70
  1
 62
  0
 10
6.631329
 20
0.122460
 30
0.000000
  0
VERTEX
  8
LAYER-1
 10
6.631329
 20
0.122460
 30
0.000000
  0
VERTEX
  8
LAYER-1
 10
6.647821
 20
0.147633
 30
0.000000
  0
VERTEX
  8
LAYER-1
 10
6.633064
 20
0.155446
 30
0.000000
  0
SEQEND
  8
LAYER-1
  0
POLYLINE
  8
LAYER-1
 66
  1
 70
  0
 62
  0
 10
6.662229
 20
0.049056
 30
0.000000
  0
VERTEX
  8
LAYER-1
 10
6.662229
 20
0.049056
 30
0.000000
  0
VERTEX
  8
LAYER-1
 10
6.666569
 20
0.049056
 30
0.000000
  0
VERTEX
  8
LAYER-1
 10
6.670041
 20
0.053397
 30
0.000000
  0
VERTEX
  8
LAYER-1
 10
6.670909
 20
0.058605
 30
0.000000
  0
VERTEX
  8
LAYER-1
 10
6.669173
 20
0.062945
 30
0.000000
  0
VERTEX
  8
LAYER-1
 10
6.664832
 20
0.064681
 30
0.000000
  0
VERTEX
  8
LAYER-1
 10
6.660493
 20
0.064681
 30
0.000000
  0
VERTEX
  8
LAYER-1
 10
6.656152
 20
0.061210
 30
0.000000
  0
VERTEX
  8
LAYER-1
 10
6.656152
 20
0.056869
 30
0.000000
  0
VERTEX
  8
LAYER-1
 10
6.657020
 20
0.052528
 30
0.000000
  0
VERTEX
  8
LAYER-1
 10
6.661361
 20
0.049923
 30
0.000000
  0
SEQEND
  8
LAYER-1
  0
POLYLINE
  8
LAYER-1
 66
  1
 70
  0
 62
  0
 10
6.638791
 20
0.074236
 30
0.000000
  0
VERTEX
  8
LAYER-1
 10
6.638791
 20
0.074236
 30
0.000000
  0
VERTEX
  8
LAYER-1
 10
6.643133
 20
0.074236
 30
0.000000
  0
VERTEX
  8
LAYER-1
 10
6.646604
 20
0.078576
 30
0.000000
  0
VERTEX
  8
LAYER-1
 10
6.647472
 20
0.083784
 30
0.000000
  0
VERTEX
  8
LAYER-1
 10
6.645736
 20
0.088125
 30
0.000000
  0
VERTEX
  8
LAYER-1
 10
6.641396
 20
0.089861
 30
0.000000
  0
VERTEX
  8
LAYER-1
 10
6.637056
 20
0.089861
 30
0.000000
  0
VERTEX
  8
LAYER-1
 10
6.632715
 20
0.086388
 30
0.000000
  0
VERTEX
  8
LAYER-1
 10
6.632715
 20
0.082048
 30
0.000000
  0
VERTEX
  8
LAYER-1
 10
6.633583
 20
0.077707
 30
0.000000
  0
VERTEX
  8
LAYER-1
 10
6.637924
 20
0.075103
 30
0.000000
  0
SEQEND
  8
LAYER-1
  0
POLYLINE
  8
LAYER-1
 66
  1
 70
  1
 62
  0
 10
6.713010
 20
0.090291
 30
0.000000
  0
VERTEX
  8
LAYER-1
 10
6.713010
 20
0.090291
 30
0.000000
  0
VERTEX
  8
LAYER-1
 10
6.687837
 20
0.106784
 30
0.000000
  0
VERTEX
  8
LAYER-1
 10
6.680024
 20
0.092027
 30
0.000000
  0
SEQEND
  8
LAYER-1
  0
POLYLINE
  8
LAYER-1
 66
  1
 70
  0
 62
  0
 10
6.723427
 20
0.129356
 30
0.000000
  0
VERTEX
  8
LAYER-1
 10
6.723427
 20
0.129356
 30
0.000000
  0
VERTEX
  8
LAYER-1
 10
6.723427
 20
0.133697
 30
0.000000
  0
VERTEX
  8
LAYER-1
 10
6.719086
 20
0.137168
 30
0.000000
  0
VERTEX
  8
LAYER-1
 10
6.713878
 20
0.138036
 30
0.000000
  0
VERTEX
  8
LAYER-1
 10
6.709538
 20
0.136300
 30
0.000000
  0
VERTEX
  8
LAYER-1
 10
6.707802
 20
0.131960
 30
0.000000
  0
VERTEX
  8
LAYER-1
 10
6.707802
 20
0.127619
 30
0.000000
  0
VERTEX
  8
LAYER-1
 10
6.711273
 20
0.123279
 30
0.000000
  0
VERTEX
  8
LAYER-1
 10
6.715614
 20
0.123279
 30
0.000000
  0
VERTEX
  8
LAYER-1
 10
6.719955
 20
0.124147
 30
0.000000
  0
VERTEX
  8
LAYER-1
 10
6.722560
 20
0.128487
 30
0.000000
  0
SEQEND
  8
LAYER-1
  0
POLYLINE
  8
LAYER-1
 66
  1
 70
  1
 62
  0
 10
6.669949
 20
0.135207
 30
0.000000
  0
VERTEX
  8
LAYER-1
 10
6.669949
 20
0.135207
 30
0.000000
  0
VERTEX
  8
LAYER-1
 10
6.682636
 20
0.154572
 30
0.000000
  0
VERTEX
  8
LAYER-1
 10
6.671285
 20
0.160583
 30
0.000000
  0
SEQEND
  8
LAYER-1
  0
POLYLINE
  8
LAYER-1
 66
  1
 70
  0
 62
  0
 10
5.993306
 20
0.164994
 30
0.000000
  0
VERTEX
  8
LAYER-1
 10
5.993306
 20
0.164994
 30
0.000000
  0
VERTEX
  8
LAYER-1
 10
5.993306
 20
0.169333
 30
0.000000
  0
VERTEX
  8
LAYER-1
 10
5.988965
 20
0.172807
 30
0.000000
  0
VERTEX
  8
LAYER-1
 10
5.983757
 20
0.173674
 30
0.000000
  0
VERTEX
  8
LAYER-1
 10
5.979417
 20
0.171938
 30
0.000000
  0
VERTEX
  8
LAYER-1
 10
5.977681
 20
0.167597
 30
0.000000
  0
VERTEX
  8
LAYER-1
 10
5.977681
 20
0.163256
 30
0.000000
  0
VERTEX
  8
LAYER-1
 10
5.981152
 20
0.158918
 30
0.000000
  0
VERTEX
  8
LAYER-1
 10
5.985493
 20
0.158918
 30
0.000000
  0
VERTEX
  8
LAYER-1
 10
5.989834
 20
0.159785
 30
0.000000
  0
VERTEX
  8
LAYER-1
 10
5.992439
 20
0.164125
 30
0.000000
  0
SEQEND
  8
LAYER-1
  0
POLYLINE
  8
LAYER-1
 66
  1
 70
  0
 62
  0
 10
6.579245
 20
0.128537
 30
0.000000
  0
VERTEX
  8
LAYER-1
 10
6.579245
 20
0.128537
 30
0.000000
  0
VERTEX
  8
LAYER-1
 10
6.583586
 20
0.128537
 30
0.000000
  0
VERTEX
  8
LAYER-1
 10
6.587057
 20
0.132877
 30
0.000000
  0
VERTEX
  8
LAYER-1
 10
6.587925
 20
0.138085
 30
0.000000
  0
VERTEX
  8
LAYER-1
 10
6.586189
 20
0.142426
 30
0.000000
  0
VERTEX
  8
LAYER-1
 10
6.581849
 20
0.144162
 30
0.000000
  0
VERTEX
  8
LAYER-1
 10
6.577509
 20
0.144162
 30
0.000000
  0
VERTEX
  8
LAYER-1
 10
6.573168
 20
0.140689
 30
0.000000
  0
VERTEX
  8
LAYER-1
 10
6.573168
 20
0.136349
 30
0.000000
  0
VERTEX
  8
LAYER-1
 10
6.574036
 20
0.132008
 30
0.000000
  0
VERTEX
  8
LAYER-1
 10
6.578377
 20
0.129404
 30
0.000000
  0
SEQEND
  8
LAYER-1
  0
POLYLINE
  8
LAYER-1
 66
  1
 70
  1
 62
  0
 10
0.836880
 20
0.132218
 30
0.000000
  0
VERTEX
  8
LAYER-1
 10
0.836880
 20
0.132218
 30
0.000000
  0
VERTEX
  8
LAYER-1
 10
0.814310
 20
0.145238
 30
0.000000
  0
VERTEX
  8
LAYER-1
 10
0.835143
 20
0.114857
 30
0.000000
  0
SEQEND
  8
LAYER-1
  0
POLYLINE
  8
LAYER-1
 66
  1
 70
  0
 62
  0
 10
0.825596
 20
0.065377
 30
0.000000
  0
VERTEX
  8
LAYER-1
 10
0.825596
 20
0.065377
 30
0.000000
  0
VERTEX
  8
LAYER-1
 10
0.825596
 20
0.069716
 30
0.000000
  0
VERTEX
  8
LAYER-1
 10
0.821255
 20
0.073190
 30
0.000000
  0
VERTEX
  8
LAYER-1
 10
0.816048
 20
0.074057
 30
0.000000
  0
VERTEX
  8
LAYER-1
 10
0.811707
 20
0.072321
 30
0.000000
  0
VERTEX
  8
LAYER-1
 10
0.809971
 20
0.067980
 30
0.000000
  0
VERTEX
  8
LAYER-1
 10
0.809971
 20
0.063639
 30
0.000000
  0
VERTEX
  8
LAYER-1
 10
0.813443
 20
0.059301
 30
0.000000
  0
VERTEX
  8
LAYER-1
 10
0.817784
 20
0.059301
 30
0.000000
  0
VERTEX
  8
LAYER-1
 10
0.822124
 20
0.060168
 30
0.000000
  0
VERTEX
  8
LAYER-1
 10
0.824729
 20
0.064508
 30
0.000000
  0
SEQEND
  8
LAYER-1
  0
POLYLINE
  8
LAYER-1
 66
  1
 70
  1
 62
  0
 10
1.103636
 20
0.054176
 30
0.000000
  0
VERTEX
  8
LAYER-1
 10
1.103636
 20
0.054176
 30
0.000000
  0
VERTEX
  8
LAYER-1
 10
1.120129
 20
0.079351
 30
0.000000
  0
VERTEX
  8
LAYER-1
 10
1.105371
 20
0.087163
 30
0.000000
  0
SEQEND
  8
LAYER-1
  0
POLYLINE
  8
LAYER-1
 66
  1
 70
  1
 62
  0
 10
1.151545
 20
0.069271
 30
0.000000
  0
VERTEX
  8
LAYER-1
 10
1.151545
 20
0.069271
 30
0.000000
  0
VERTEX
  8
LAYER-1
 10
1.164232
 20
0.088636
 30
0.000000
  0
VERTEX
  8
LAYER-1
 10
1.152881
 20
0.094646
 30
0.000000
  0
SEQEND
  8
LAYER-1
  0
POLYLINE
  8
LAYER-1
 66
  1
 70
  0
 62
  0
 10
1.215615
 20
0.045499
 30
0.000000
  0
VERTEX
  8
LAYER-1
 10
1.215615
 20
0.045499
 30
0.000000
  0
VERTEX
  8
LAYER-1
 10
1.219955
 20
0.045499
 30
0.000000
  0
VERTEX
  8
LAYER-1
 10
1.223427
 20
0.049839
 30
0.000000
  0
VERTEX
  8
LAYER-1
 10
1.224295
 20
0.055048
 30
0.000000
  0
VERTEX
  8
LAYER-1
 10
1.222559
 20
0.059388
 30
0.000000
  0
VERTEX
  8
LAYER-1
 10
1.218218
 20
0.061124
 30
0.000000
  0
VERTEX
  8
LAYER-1
 10
1.213879
 20
0.061124
 30
0.000000
  0
VERTEX
  8
LAYER-1
 10
1.209538
 20
0.057652
 30
0.000000
  0
VERTEX
  8
LAYER-1
 10
1.209538
 20
0.053312
 30
0.000000
  0
VERTEX
  8
LAYER-1
 10
1.210406
 20
0.048971
 30
0.000000
  0
VERTEX
  8
LAYER-1
 10
1.214746
 20
0.046367
 30
0.000000
  0
SEQEND
  8
LAYER-1
  0
POLYLINE
  8
LAYER-1
 66
  1
 70
  1
 62
  0
 10
1.249468
 20
0.108431
 30
0.000000
  0
VERTEX
  8
LAYER-1
 10
1.249468
 20
0.108431
 30
0.000000
  0
VERTEX
  8
LAYER-1
 10
1.223427
 20
0.101487
 30
0.000000
  0
VERTEX
  8
LAYER-1
 10
1.237315
 20
0.076313
 30
0.000000
  0
SEQEND
  8
LAYER-1
  0
POLYLINE
  8
LAYER-1
 66
  1
 70
  0
 62
  0
 10
2.617351
 20
0.076139
 30
0.000000
  0
VERTEX
  8
LAYER-1
 10
2.617351
 20
0.076139
 30
0.000000
  0
VERTEX
  8
LAYER-1
 10
2.617351
 20
0.080479
 30
0.000000
  0
VERTEX
  8
LAYER-1
 10
2.613011
 20
0.083951
 30
0.000000
  0
VERTEX
  8
LAYER-1
 10
2.607803
 20
0.084819
 30
0.000000
  0
VERTEX
  8
LAYER-1
 10
2.603462
 20
0.083083
 30
0.000000
  0
VERTEX
  8
LAYER-1
 10
2.601726
 20
0.078744
 30
0.000000
  0
VERTEX
  8
LAYER-1
 10
2.601726
 20
0.074403
 30
0.000000
  0
VERTEX
  8
LAYER-1
 10
2.605198
 20
0.070062
 30
0.000000
  0
VERTEX
  8
LAYER-1
 10
2.609539
 20
0.070062
 30
0.000000
  0
VERTEX
  8
LAYER-1
 10
2.613880
 20
0.070931
 30
0.000000
  0
VERTEX
  8
LAYER-1
 10
2.616483
 20
0.075271
 30
0.000000
  0
SEQEND
  8
LAYER-1
  0
POLYLINE
  8
LAYER-1
 66
  1
 70
  1
 62
  0
 10
2.551378
 20
0.039247
 30
0.000000
  0
VERTEX
  8
LAYER-1
 10
2.551378
 20
0.039247
 30
0.000000
  0
VERTEX
  8
LAYER-1
 10
2.544434
 20
0.065289
 30
0.000000
  0
VERTEX
  8
LAYER-1
 10
2.519261
 20
0.051401
 30
0.000000
  0
SEQEND
  8
LAYER-1
  0
POLYLINE
  8
LAYER-1
 66
  1
 70
  1
 62
  0
 10
2.563531
 20
0.075706
 30
0.000000
  0
VERTEX
  8
LAYER-1
 10
2.563531
 20
0.075706
 30
0.000000
  0
VERTEX
  8
LAYER-1
 10
2.576552
 20
0.098276
 30
0.000000
  0
VERTEX
  8
LAYER-1
 10
2.546170
 20
0.077443
 30
0.000000
  0
SEQEND
  8
LAYER-1
  0
POLYLINE
  8
LAYER-1
 66
  1
 70
  0
 62
  0
 10
2.399729
 20
0.086556
 30
0.000000
  0
VERTEX
  8
LAYER-1
 10
2.399729
 20
0.086556
 30
0.000000
  0
VERTEX
  8
LAYER-1
 10
2.395389
 20
0.086556
 30
0.000000
  0
VERTEX
  8
LAYER-1
 10
2.391917
 20
0.082215
 30
0.000000
  0
VERTEX
  8
LAYER-1
 10
2.391049
 20
0.077008
 30
0.000000
  0
VERTEX
  8
LAYER-1
 10
2.392785
 20
0.072667
 30
0.000000
  0
VERTEX
  8
LAYER-1
 10
2.397126
 20
0.070931
 30
0.000000
  0
VERTEX
  8
LAYER-1
 10
2.401465
 20
0.070931
 30
0.000000
  0
VERTEX
  8
LAYER-1
 10
2.405806
 20
0.074403
 30
0.000000
  0
VERTEX
  8
LAYER-1
 10
2.405806
 20
0.078744
 30
0.000000
  0
VERTEX
  8
LAYER-1
 10
2.404938
 20
0.083084
 30
0.000000
  0
VERTEX
  8
LAYER-1
 10
2.400597
 20
0.085689
 30
0.000000
  0
SEQEND
  8
LAYER-1
  0
POLYLINE
  8
LAYER-1
 66
  1
 70
  1
 62
  0
 10
2.479590
 20
0.049229
 30
0.000000
  0
VERTEX
  8
LAYER-1
 10
2.479590
 20
0.049229
 30
0.000000
  0
VERTEX
  8
LAYER-1
 10
2.457020
 20
0.062252
 30
0.000000
  0
VERTEX
  8
LAYER-1
 10
2.477853
 20
0.031869
 30
0.000000
  0
SEQEND
  8
LAYER-1
  0
POLYLINE
  8
LAYER-1
 66
  1
 70
  1
 62
  0
 10
3.074561
 20
0.050080
 30
0.000000
  0
VERTEX
  8
LAYER-1
 10
3.074561
 20
0.050080
 30
0.000000
  0
VERTEX
  8
LAYER-1
 10
3.087582
 20
0.072650
 30
0.000000
  0
VERTEX
  8
LAYER-1
 10
3.057200
 20
0.051818
 30
0.000000
  0
SEQEND
  8
LAYER-1
  0
POLYLINE
  8
LAYER-1
 66
  1
 70
  1
 62
  0
 10
2.980111
 20
0.056493
 30
0.000000
  0
VERTEX
  8
LAYER-1
 10
2.980111
 20
0.056493
 30
0.000000
  0
VERTEX
  8
LAYER-1
 10
2.992798
 20
0.075857
 30
0.000000
  0
VERTEX
  8
LAYER-1
 10
2.981447
 20
0.081868
 30
0.000000
  0
SEQEND
  8
LAYER-1
  0
POLYLINE
  8
LAYER-1
 66
  1
 70
  0
 62
  0
 10
3.108417
 20
0.049213
 30
0.000000
  0
VERTEX
  8
LAYER-1
 10
3.108417
 20
0.049213
 30
0.000000
  0
VERTEX
  8
LAYER-1
 10
3.112758
 20
0.049213
 30
0.000000
  0
VERTEX
  8
LAYER-1
 10
3.116229
 20
0.053554
 30
0.000000
  0
VERTEX
  8
LAYER-1
 10
3.117097
 20
0.058762
 30
0.000000
  0
VERTEX
  8
LAYER-1
 10
3.115361
 20
0.063102
 30
0.000000
  0
VERTEX
  8
LAYER-1
 10
3.111021
 20
0.064838
 30
0.000000
  0
VERTEX
  8
LAYER-1
 10
3.106681
 20
0.064838
 30
0.000000
  0
VERTEX
  8
LAYER-1
 10
3.102340
 20
0.061367
 30
0.000000
  0
VERTEX
  8
LAYER-1
 10
3.102340
 20
0.057025
 30
0.000000
  0
VERTEX
  8
LAYER-1
 10
3.103208
 20
0.052685
 30
0.000000
  0
VERTEX
  8
LAYER-1
 10
3.107549
 20
0.050080
 30
0.000000
  0
SEQEND
  8
LAYER-1
  0
POLYLINE
  8
LAYER-1
 66
  1
 70
  0
 62
  0
 10
2.994700
 20
0.040530
 30
0.000000
  0
VERTEX
  8
LAYER-1
 10
2.994700
 20
0.040530
 30
0.000000
  0
VERTEX
  8
LAYER-1
 10
2.990359
 20
0.040530
 30
0.000000
  0
VERTEX
  8
LAYER-1
 10
2.986888
 20
0.036189
 30
0.000000
  0
VERTEX
  8
LAYER-1
 10
2.986020
 20
0.030981
 30
0.000000
  0
VERTEX
  8
LAYER-1
 10
2.987756
 20
0.026641
 30
0.000000
  0
VERTEX
  8
LAYER-1
 10
2.992096
 20
0.024905
 30
0.000000
  0
VERTEX
  8
LAYER-1
 10
2.996436
 20
0.024905
 30
0.000000
  0
VERTEX
  8
LAYER-1
 10
3.000777
 20
0.028376
 30
0.000000
  0
VERTEX
  8
LAYER-1
 10
3.000777
 20
0.032717
 30
0.000000
  0
VERTEX
  8
LAYER-1
 10
2.999909
 20
0.037058
 30
0.000000
  0
VERTEX
  8
LAYER-1
 10
2.995568
 20
0.039663
 30
0.000000
  0
SEQEND
  8
LAYER-1
  0
POLYLINE
  8
LAYER-1
 66
  1
 70
  1
 62
  0
 10
2.835754
 20
0.053830
 30
0.000000
  0
VERTEX
  8
LAYER-1
 10
2.835754
 20
0.053830
 30
0.000000
  0
VERTEX
  8
LAYER-1
 10
2.848775
 20
0.076401
 30
0.000000
  0
VERTEX
  8
LAYER-1
 10
2.818393
 20
0.055568
 30
0.000000
  0
SEQEND
  8
LAYER-1
  0
POLYLINE
  8
LAYER-1
 66
  1
 70
  0
 62
  0
 10
2.869609
 20
0.052963
 30
0.000000
  0
VERTEX
  8
LAYER-1
 10
2.869609
 20
0.052963
 30
0.000000
  0
VERTEX
  8
LAYER-1
 10
2.873950
 20
0.052963
 30
0.000000
  0
VERTEX
  8
LAYER-1
 10
2.877422
 20
0.057304
 30
0.000000
  0
VERTEX
  8
LAYER-1
 10
2.878290
 20
0.062512
 30
0.000000
  0
VERTEX
  8
LAYER-1
 10
2.876554
 20
0.066853
 30
0.000000
  0
VERTEX
  8
LAYER-1
 10
2.872213
 20
0.068588
 30
0.000000
  0
VERTEX
  8
LAYER-1
 10
2.867874
 20
0.068588
 30
0.000000
  0
VERTEX
  8
LAYER-1
 10
2.863533
 20
0.065117
 30
0.000000
  0
VERTEX
  8
LAYER-1
 10
2.863533
 20
0.060776
 30
0.000000
  0
VERTEX
  8
LAYER-1
 10
2.864401
 20
0.056435
 30
0.000000
  0
VERTEX
  8
LAYER-1
 10
2.868741
 20
0.053830
 30
0.000000
  0
SEQEND
  8
LAYER-1
  0
POLYLINE
  8
LAYER-1
 66
  1
 70
  1
 62
  0
 10
3.467871
 20
0.088901
 30
0.000000
  0
VERTEX
  8
LAYER-1
 10
3.467871
 20
0.088901
 30
0.000000
  0
VERTEX
  8
LAYER-1
 10
3.490442
 20
0.075880
 30
0.000000
  0
VERTEX
  8
LAYER-1
 10
3.469609
 20
0.106262
 30
0.000000
  0
SEQEND
  8
LAYER-1
  0
POLYLINE
  8
LAYER-1
 66
  1
 70
  0
 62
  0
 10
3.467004
 20
0.055045
 30
0.000000
  0
VERTEX
  8
LAYER-1
 10
3.467004
 20
0.055045
 30
0.000000
  0
VERTEX
  8
LAYER-1
 10
3.467004
 20
0.050705
 30
0.000000
  0
VERTEX
  8
LAYER-1
 10
3.471345
 20
0.047233
 30
0.000000
  0
VERTEX
  8
LAYER-1
 10
3.476553
 20
0.046365
 30
0.000000
  0
VERTEX
  8
LAYER-1
 10
3.480893
 20
0.048101
 30
0.000000
  0
VERTEX
  8
LAYER-1
 10
3.482629
 20
0.052442
 30
0.000000
  0
VERTEX
  8
LAYER-1
 10
3.482629
 20
0.056781
 30
0.000000
  0
VERTEX
  8
LAYER-1
 10
3.479158
 20
0.061122
 30
0.000000
  0
VERTEX
  8
LAYER-1
 10
3.474817
 20
0.061122
 30
0.000000
  0
VERTEX
  8
LAYER-1
 10
3.470476
 20
0.060254
 30
0.000000
  0
VERTEX
  8
LAYER-1
 10
3.467871
 20
0.055913
 30
0.000000
  0
SEQEND
  8
LAYER-1
  0
POLYLINE
  8
LAYER-1
 66
  1
 70
  1
 62
  0
 10
4.017350
 20
0.120931
 30
0.000000
  0
VERTEX
  8
LAYER-1
 10
4.017350
 20
0.120931
 30
0.000000
  0
VERTEX
  8
LAYER-1
 10
4.024294
 20
0.094889
 30
0.000000
  0
VERTEX
  8
LAYER-1
 10
4.049468
 20
0.108777
 30
0.000000
  0
SEQEND
  8
LAYER-1
  0
POLYLINE
  8
LAYER-1
 66
  1
 70
  1
 62
  0
 10
3.989137
 20
0.084037
 30
0.000000
  0
VERTEX
  8
LAYER-1
 10
3.989137
 20
0.084037
 30
0.000000
  0
VERTEX
  8
LAYER-1
 10
4.011706
 20
0.071016
 30
0.000000
  0
VERTEX
  8
LAYER-1
 10
3.990874
 20
0.101397
 30
0.000000
  0
SEQEND
  8
LAYER-1
  0
POLYLINE
  8
LAYER-1
 66
  1
 70
  1
 62
  0
 10
4.105791
 20
0.076057
 30
0.000000
  0
VERTEX
  8
LAYER-1
 10
4.105791
 20
0.076057
 30
0.000000
  0
VERTEX
  8
LAYER-1
 10
4.125156
 20
0.063370
 30
0.000000
  0
VERTEX
  8
LAYER-1
 10
4.131166
 20
0.074721
 30
0.000000
  0
SEQEND
  8
LAYER-1
  0
POLYLINE
  8
LAYER-1
 66
  1
 70
  0
 62
  0
 10
4.050337
 20
0.081864
 30
0.000000
  0
VERTEX
  8
LAYER-1
 10
4.050337
 20
0.081864
 30
0.000000
  0
VERTEX
  8
LAYER-1
 10
4.045996
 20
0.081864
 30
0.000000
  0
VERTEX
  8
LAYER-1
 10
4.042524
 20
0.077524
 30
0.000000
  0
VERTEX
  8
LAYER-1
 10
4.041656
 20
0.072316
 30
0.000000
  0
VERTEX
  8
LAYER-1
 10
4.043392
 20
0.067975
 30
0.000000
  0
VERTEX
  8
LAYER-1
 10
4.047732
 20
0.066239
 30
0.000000
  0
VERTEX
  8
LAYER-1
 10
4.052072
 20
0.066239
 30
0.000000
  0
VERTEX
  8
LAYER-1
 10
4.056413
 20
0.069711
 30
0.000000
  0
VERTEX
  8
LAYER-1
 10
4.056413
 20
0.074052
 30
0.000000
  0
VERTEX
  8
LAYER-1
 10
4.055544
 20
0.078393
 30
0.000000
  0
VERTEX
  8
LAYER-1
 10
4.051205
 20
0.080996
 30
0.000000
  0
SEQEND
  8
LAYER-1
  0
POLYLINE
  8
LAYER-1
 66
  1
 70
  0
 62
  0
 10
3.934885
 20
0.059296
 30
0.000000
  0
VERTEX
  8
LAYER-1
 10
3.934885
 20
0.059296
 30
0.000000
  0
VERTEX
  8
LAYER-1
 10
3.939226
 20
0.059296
 30
0.000000
  0
VERTEX
  8
LAYER-1
 10
3.942697
 20
0.063637
 30
0.000000
  0
VERTEX
  8
LAYER-1
 10
3.943566
 20
0.068844
 30
0.000000
  0
VERTEX
  8
LAYER-1
 10
3.941831
 20
0.073185
 30
0.000000
  0
VERTEX
  8
LAYER-1
 10
3.937490
 20
0.074921
 30
0.000000
  0
VERTEX
  8
LAYER-1
 10
3.933149
 20
0.074921
 30
0.000000
  0
VERTEX
  8
LAYER-1
 10
3.928808
 20
0.071449
 30
0.000000
  0
VERTEX
  8
LAYER-1
 10
3.928808
 20
0.067108
 30
0.000000
  0
VERTEX
  8
LAYER-1
 10
3.929677
 20
0.062768
 30
0.000000
  0
VERTEX
  8
LAYER-1
 10
3.934018
 20
0.060163
 30
0.000000
  0
SEQEND
  8
LAYER-1
  0
POLYLINE
  8
LAYER-1
 66
  1
 70
  1
 62
  0
 10
4.421531
 20
0.029609
 30
0.000000
  0
VERTEX
  8
LAYER-1
 10
4.421531
 20
0.029609
 30
0.000000
  0
VERTEX
  8
LAYER-1
 10
4.414587
 20
0.055650
 30
0.000000
  0
VERTEX
  8
LAYER-1
 10
4.389413
 20
0.041762
 30
0.000000
  0
SEQEND
  8
LAYER-1
  0
POLYLINE
  8
LAYER-1
 66
  1
 70
  1
 62
  0
 10
4.449744
 20
0.066503
 30
0.000000
  0
VERTEX
  8
LAYER-1
 10
4.449744
 20
0.066503
 30
0.000000
  0
VERTEX
  8
LAYER-1
 10
4.427174
 20
0.079523
 30
0.000000
  0
VERTEX
  8
LAYER-1
 10
4.448007
 20
0.049142
 30
0.000000
  0
SEQEND
  8
LAYER-1
  0
POLYLINE
  8
LAYER-1
 66
  1
 70
  1
 62
  0
 10
4.333090
 20
0.074482
 30
0.000000
  0
VERTEX
  8
LAYER-1
 10
4.333090
 20
0.074482
 30
0.000000
  0
VERTEX
  8
LAYER-1
 10
4.313725
 20
0.087170
 30
0.000000
  0
VERTEX
  8
LAYER-1
 10
4.307715
 20
0.075818
 30
0.000000
  0
SEQEND
  8
LAYER-1
  0
POLYLINE
  8
LAYER-1
 66
  1
 70
  0
 62
  0
 10
4.388544
 20
0.068675
 30
0.000000
  0
VERTEX
  8
LAYER-1
 10
4.388544
 20
0.068675
 30
0.000000
  0
VERTEX
  8
LAYER-1
 10
4.392885
 20
0.068675
 30
0.000000
  0
VERTEX
  8
LAYER-1
 10
4.396357
 20
0.073016
 30
0.000000
  0
VERTEX
  8
LAYER-1
 10
4.397225
 20
0.078223
 30
0.000000
  0
VERTEX
  8
LAYER-1
 10
4.395489
 20
0.082564
 30
0.000000
  0
VERTEX
  8
LAYER-1
 10
4.391149
 20
0.084300
 30
0.000000
  0
VERTEX
  8
LAYER-1
 10
4.386809
 20
0.084300
 30
0.000000
  0
VERTEX
  8
LAYER-1
 10
4.382468
 20
0.080828
 30
0.000000
  0
VERTEX
  8
LAYER-1
 10
4.382468
 20
0.076487
 30
0.000000
  0
VERTEX
  8
LAYER-1
 10
4.383337
 20
0.072147
 30
0.000000
  0
VERTEX
  8
LAYER-1
 10
4.387677
 20
0.069543
 30
0.000000
  0
SEQEND
  8
LAYER-1
  0
POLYLINE
  8
LAYER-1
 66
  1
 70
  0
 62
  0
 10
4.503996
 20
0.091243
 30
0.000000
  0
VERTEX
  8
LAYER-1
 10
4.503996
 20
0.091243
 30
0.000000
  0
VERTEX
  8
LAYER-1
 10
4.499655
 20
0.091243
 30
0.000000
  0
VERTEX
  8
LAYER-1
 10
4.496184
 20
0.086903
 30
0.000000
  0
VERTEX
  8
LAYER-1
 10
4.495315
 20
0.081696
 30
0.000000
  0
VERTEX
  8
LAYER-1
 10
4.497050
 20
0.077354
 30
0.000000
  0
VERTEX
  8
LAYER-1
 10
4.501391
 20
0.075618
 30
0.000000
  0
VERTEX
  8
LAYER-1
 10
4.505732
 20
0.075618
 30
0.000000
  0
VERTEX
  8
LAYER-1
 10
4.510072
 20
0.079091
 30
0.000000
  0
VERTEX
  8
LAYER-1
 10
4.510072
 20
0.083431
 30
0.000000
  0
VERTEX
  8
LAYER-1
 10
4.509204
 20
0.087772
 30
0.000000
  0
VERTEX
  8
LAYER-1
 10
4.504863
 20
0.090377
 30
0.000000
  0
SEQEND
  8
LAYER-1
  0
POLYLINE
  8
LAYER-1
 66
  1
 70
  1
 62
  0
 10
4.673875
 20
0.013202
 30
0.000000
  0
VERTEX
  8
LAYER-1
 10
4.673875
 20
0.013202
 30
0.000000
  0
VERTEX
  8
LAYER-1
 10
4.666931
 20
0.039244
 30
0.000000
  0
VERTEX
  8
LAYER-1
 10
4.641757
 20
0.025356
 30
0.000000
  0
SEQEND
  8
LAYER-1
  0
POLYLINE
  8
LAYER-1
 66
  1
 70
  1
 62
  0
 10
4.702088
 20
0.050096
 30
0.000000
  0
VERTEX
  8
LAYER-1
 10
4.702088
 20
0.050096
 30
0.000000
  0
VERTEX
  8
LAYER-1
 10
4.679518
 20
0.063116
 30
0.000000
  0
VERTEX
  8
LAYER-1
 10
4.700351
 20
0.032735
 30
0.000000
  0
SEQEND
  8
LAYER-1
  0
POLYLINE
  8
LAYER-1
 66
  1
 70
  1
 62
  0
 10
4.585434
 20
0.058076
 30
0.000000
  0
VERTEX
  8
LAYER-1
 10
4.585434
 20
0.058076
 30
0.000000
  0
VERTEX
  8
LAYER-1
 10
4.566069
 20
0.070763
 30
0.000000
  0
VERTEX
  8
LAYER-1
 10
4.560059
 20
0.059412
 30
0.000000
  0
SEQEND
  8
LAYER-1
  0
POLYLINE
  8
LAYER-1
 66
  1
 70
  0
 62
  0
 10
4.640888
 20
0.052269
 30
0.000000
  0
VERTEX
  8
LAYER-1
 10
4.640888
 20
0.052269
 30
0.000000
  0
VERTEX
  8
LAYER-1
 10
4.645229
 20
0.052269
 30
0.000000
  0
VERTEX
  8
LAYER-1
 10
4.648701
 20
0.056609
 30
0.000000
  0
VERTEX
  8
LAYER-1
 10
4.649569
 20
0.061817
 30
0.000000
  0
VERTEX
  8
LAYER-1
 10
4.647833
 20
0.066158
 30
0.000000
  0
VERTEX
  8
LAYER-1
 10
4.643493
 20
0.067894
 30
0.000000
  0
VERTEX
  8
LAYER-1
 10
4.639153
 20
0.067894
 30
0.000000
  0
VERTEX
  8
LAYER-1
 10
4.634812
 20
0.064422
 30
0.000000
  0
VERTEX
  8
LAYER-1
 10
4.634812
 20
0.060081
 30
0.000000
  0
VERTEX
  8
LAYER-1
 10
4.635681
 20
0.055740
 30
0.000000
  0
VERTEX
  8
LAYER-1
 10
4.640020
 20
0.053136
 30
0.000000
  0
SEQEND
  8
LAYER-1
  0
POLYLINE
  8
LAYER-1
 66
  1
 70
  0
 62
  0
 10
4.756340
 20
0.074838
 30
0.000000
  0
VERTEX
  8
LAYER-1
 10
4.756340
 20
0.074838
 30
0.000000
  0
VERTEX
  8
LAYER-1
 10
4.751999
 20
0.074838
 30
0.000000
  0
VERTEX
  8
LAYER-1
 10
4.748528
 20
0.070496
 30
0.000000
  0
VERTEX
  8
LAYER-1
 10
4.747659
 20
0.065289
 30
0.000000
  0
VERTEX
  8
LAYER-1
 10
4.749394
 20
0.060948
 30
0.000000
  0
VERTEX
  8
LAYER-1
 10
4.753735
 20
0.059213
 30
0.000000
  0
VERTEX
  8
LAYER-1
 10
4.758076
 20
0.059213
 30
0.000000
  0
VERTEX
  8
LAYER-1
 10
4.762416
 20
0.062684
 30
0.000000
  0
VERTEX
  8
LAYER-1
 10
4.762416
 20
0.067025
 30
0.000000
  0
VERTEX
  8
LAYER-1
 10
4.761548
 20
0.071365
 30
0.000000
  0
VERTEX
  8
LAYER-1
 10
4.757207
 20
0.073970
 30
0.000000
  0
SEQEND
  8
LAYER-1
  0
POLYLINE
  8
LAYER-1
 66
  1
 70
  1
 62
  0
 10
4.894434
 20
0.112251
 30
0.000000
  0
VERTEX
  8
LAYER-1
 10
4.894434
 20
0.112251
 30
0.000000
  0
VERTEX
  8
LAYER-1
 10
4.901379
 20
0.086210
 30
0.000000
  0
VERTEX
  8
LAYER-1
 10
4.926552
 20
0.100099
 30
0.000000
  0
SEQEND
  8
LAYER-1
  0
POLYLINE
  8
LAYER-1
 66
  1
 70
  1
 62
  0
 10
4.866222
 20
0.075357
 30
0.000000
  0
VERTEX
  8
LAYER-1
 10
4.866222
 20
0.075357
 30
0.000000
  0
VERTEX
  8
LAYER-1
 10
4.888791
 20
0.062337
 30
0.000000
  0
VERTEX
  8
LAYER-1
 10
4.867958
 20
0.092718
 30
0.000000
  0
SEQEND
  8
LAYER-1
  0
POLYLINE
  8
LAYER-1
 66
  1
 70
  0
 62
  0
 10
4.811969
 20
0.050616
 30
0.000000
  0
VERTEX
  8
LAYER-1
 10
4.811969
 20
0.050616
 30
0.000000
  0
VERTEX
  8
LAYER-1
 10
4.816310
 20
0.050616
 30
0.000000
  0
VERTEX
  8
LAYER-1
 10
4.819782
 20
0.054957
 30
0.000000
  0
VERTEX
  8
LAYER-1
 10
4.820651
 20
0.060165
 30
0.000000
  0
VERTEX
  8
LAYER-1
 10
4.818915
 20
0.064506
 30
0.000000
  0
VERTEX
  8
LAYER-1
 10
4.814574
 20
0.066241
 30
0.000000
  0
VERTEX
  8
LAYER-1
 10
4.810234
 20
0.066241
 30
0.000000
  0
VERTEX
  8
LAYER-1
 10
4.805893
 20
0.062770
 30
0.000000
  0
VERTEX
  8
LAYER-1
 10
4.805893
 20
0.058428
 30
0.000000
  0
VERTEX
  8
LAYER-1
 10
4.806762
 20
0.054088
 30
0.000000
  0
VERTEX
  8
LAYER-1
 10
4.811103
 20
0.051483
 30
0.000000
  0
SEQEND
  8
LAYER-1
  0
POLYLINE
  8
LAYER-1
 66
  1
 70
  1
 62
  0
 10
5.447557
 20
0.224369
 30
0.000000
  0
VERTEX
  8
LAYER-1
 10
5.447557
 20
0.224369
 30
0.000000
  0
VERTEX
  8
LAYER-1
 10
5.454501
 20
0.198328
 30
0.000000
  0
VERTEX
  8
LAYER-1
 10
5.479675
 20
0.212215
 30
0.000000
  0
SEQEND
  8
LAYER-1
  0
POLYLINE
  8
LAYER-1
 66
  1
 70
  1
 62
  0
 10
5.460665
 20
0.179230
 30
0.000000
  0
VERTEX
  8
LAYER-1
 10
5.460665
 20
0.179230
 30
0.000000
  0
VERTEX
  8
LAYER-1
 10
5.447644
 20
0.156659
 30
0.000000
  0
VERTEX
  8
LAYER-1
 10
5.478026
 20
0.177492
 30
0.000000
  0
SEQEND
  8
LAYER-1
  0
POLYLINE
  8
LAYER-1
 66
  1
 70
  1
 62
  0
 10
5.152159
 20
0.147753
 30
0.000000
  0
VERTEX
  8
LAYER-1
 10
5.152159
 20
0.147753
 30
0.000000
  0
VERTEX
  8
LAYER-1
 10
5.145215
 20
0.173793
 30
0.000000
  0
VERTEX
  8
LAYER-1
 10
5.120042
 20
0.159906
 30
0.000000
  0
SEQEND
  8
LAYER-1
  0
POLYLINE
  8
LAYER-1
 66
  1
 70
  1
 62
  0
 10
5.139050
 20
0.192891
 30
0.000000
  0
VERTEX
  8
LAYER-1
 10
5.139050
 20
0.192891
 30
0.000000
  0
VERTEX
  8
LAYER-1
 10
5.152072
 20
0.215463
 30
0.000000
  0
VERTEX
  8
LAYER-1
 10
5.121689
 20
0.194629
 30
0.000000
  0
SEQEND
  8
LAYER-1
  0
POLYLINE
  8
LAYER-1
 66
  1
 70
  1
 62
  0
 10
5.656932
 20
0.049923
 30
0.000000
  0
VERTEX
  8
LAYER-1
 10
5.656932
 20
0.049923
 30
0.000000
  0
VERTEX
  8
LAYER-1
 10
5.682973
 20
0.056869
 30
0.000000
  0
VERTEX
  8
LAYER-1
 10
5.669086
 20
0.082042
 30
0.000000
  0
SEQEND
  8
LAYER-1
  0
POLYLINE
  8
LAYER-1
 66
  1
 70
  1
 62
  0
 10
5.702072
 20
0.063032
 30
0.000000
  0
VERTEX
  8
LAYER-1
 10
5.702072
 20
0.063032
 30
0.000000
  0
VERTEX
  8
LAYER-1
 10
5.724642
 20
0.050012
 30
0.000000
  0
VERTEX
  8
LAYER-1
 10
5.703810
 20
0.080393
 30
0.000000
  0
SEQEND
  8
LAYER-1
  0
ENDSEC
  0
EOF
