  0
SECTION
  2
HEADER
999
MacDraft 5.0\0
  9
$ACADVER
  1
AC1006
  9
$CLAYER
  8
LAYER-1
  9
$EXTMIN
 10
0.000000
 20
0.000000
  9
$EXTMAX
 10
6.763574
 20
10.028804
  9
$FASTZOOM
 70
0
  9
$FILLMODE
 70
1
  0
ENDSEC
  0
SECTION
  2
TABLES
  0
TABLE
  2
LTYPE
 70
16
  0
LTYPE
  2
CONTINUOUS
 70
64
  3
Solid Line
 72
65
 73
0
 40
0.000000
  0
LTYPE
  2
LTYPE01
 70
64
  3
CUSTOM
 72
65
 73
2
 40
0.111111
 49
0.083333
 49
-0.027778
  0
LTYPE
  2
LTYPE02
 70
64
  3
CUSTOM
 72
65
 73
2
 40
0.194444
 49
0.166667
 49
-0.027778
  0
LTYPE
  2
LTYPE03
 70
64
  3
CUSTOM
 72
65
 73
2
 40
0.375000
 49
0.333333
 49
-0.041667
  0
LTYPE
  2
LTYPE04
 70
64
  3
CUSTOM
 72
65
 73
2
 40
0.722222
 49
0.666667
 49
-0.055556
  0
LTYPE
  2
LTYPE05
 70
64
  3
CUSTOM
 72
65
 73
4
 40
0.152778
 49
0.083333
 49
-0.027778
 49
0.013889
 49
-0.027778
  0
LTYPE
  2
LTYPE06
 70
64
  3
CUSTOM
 72
65
 73
4
 40
0.236111
 49
0.166667
 49
-0.027778
 49
0.013889
 49
-0.027778
  0
LTYPE
  2
LTYPE07
 70
64
  3
CUSTOM
 72
65
 73
4
 40
0.444444
 49
0.333333
 49
-0.041667
 49
0.027778
 49
-0.041667
  0
LTYPE
  2
LTYPE08
 70
64
  3
CUSTOM
 72
65
 73
4
 40
0.805556
 49
0.666667
 49
-0.055556
 49
0.027778
 49
-0.055556
  0
LTYPE
  2
LTYPE09
 70
64
  3
CUSTOM
 72
65
 73
6
 40
0.194444
 49
0.083333
 49
-0.027778
 49
0.013889
 49
-0.027778
 49
0.013889
 49
-0.027778
  0
LTYPE
  2
LTYPE10
 70
64
  3
CUSTOM
 72
65
 73
6
 40
0.277778
 49
0.166667
 49
-0.027778
 49
0.013889
 49
-0.027778
 49
0.013889
 49
-0.027778
  0
LTYPE
  2
LTYPE11
 70
64
  3
CUSTOM
 72
65
 73
6
 40
0.500000
 49
0.333333
 49
-0.041667
 49
0.027778
 49
-0.027778
 49
0.027778
 49
-0.041667
  0
LTYPE
  2
LTYPE12
 70
64
  3
CUSTOM
 72
65
 73
6
 40
0.861111
 49
0.666667
 49
-0.055556
 49
0.027778
 49
-0.027778
 49
0.027778
 49
-0.055556
  0
LTYPE
  2
LTYPE13
 70
64
  3
CUSTOM
 72
65
 73
8
 40
0.319444
 49
0.166667
 49
-0.027778
 49
0.013889
 49
-0.027778
 49
0.013889
 49
-0.027778
 49
0.013889
 49
-0.027778
  0
LTYPE
  2
LTYPE14
 70
64
  3
CUSTOM
 72
65
 73
8
 40
0.555556
 49
0.333333
 49
-0.041667
 49
0.027778
 49
-0.027778
 49
0.027778
 49
-0.027778
 49
0.027778
 49
-0.041667
  0
LTYPE
  2
LTYPE15
 70
64
  3
CUSTOM
 72
65
 73
8
 40
0.944444
 49
0.666667
 49
-0.055556
 49
0.027778
 49
-0.041667
 49
0.027778
 49
-0.041667
 49
0.027778
 49
-0.055556
  0
ENDTAB
  0
TABLE
  2
LAYER
 70
1
  0
LAYER
  2
LAYER-1
 70
0
 62
7
  6
CONTINUOUS
  0
ENDTAB
  0
ENDSEC
  0
SECTION
  2
BLOCKS
  0
ENDSEC
  0
SECTION
  2
ENTITIES
  0
POLYLINE
  8
LAYER-1
 66
  1
 70
  0
 62
  0
 10
3.432826
 20
0.211272
 30
0.000000
  0
VERTEX
  8
LAYER-1
 10
3.432826
 20
0.211272
 30
0.000000
  0
VERTEX
  8
LAYER-1
 10
3.432826
 20
0.210083
 30
0.000000
  0
SEQEND
  8
LAYER-1
  0
POLYLINE
  8
LAYER-1
 66
  1
 70
  1
 62
  0
 10
1.260968
 20
0.116105
 30
0.000000
  0
VERTEX
  8
LAYER-1
 10
1.260968
 20
0.116105
 30
0.000000
  0
VERTEX
  8
LAYER-1
 10
1.267913
 20
0.090063
 30
0.000000
  0
VERTEX
  8
LAYER-1
 10
1.293087
 20
0.103951
 30
0.000000
  0
SEQEND
  8
LAYER-1
  0
POLYLINE
  8
LAYER-1
 66
  1
 70
  1
 62
  0
 10
1.451073
 20
0.221137
 30
0.000000
  0
VERTEX
  8
LAYER-1
 10
1.451073
 20
0.221137
 30
0.000000
  0
VERTEX
  8
LAYER-1
 10
1.438052
 20
0.198568
 30
0.000000
  0
VERTEX
  8
LAYER-1
 10
1.468434
 20
0.219400
 30
0.000000
  0
SEQEND
  8
LAYER-1
  0
POLYLINE
  8
LAYER-1
 66
  1
 70
  1
 62
  0
 10
1.096906
 20
0.156904
 30
0.000000
  0
VERTEX
  8
LAYER-1
 10
1.096906
 20
0.156904
 30
0.000000
  0
VERTEX
  8
LAYER-1
 10
1.080414
 20
0.131729
 30
0.000000
  0
VERTEX
  8
LAYER-1
 10
1.095170
 20
0.123917
 30
0.000000
  0
SEQEND
  8
LAYER-1
  0
POLYLINE
  8
LAYER-1
 66
  1
 70
  0
 62
  0
 10
1.263573
 20
0.157772
 30
0.000000
  0
VERTEX
  8
LAYER-1
 10
1.263573
 20
0.157772
 30
0.000000
  0
VERTEX
  8
LAYER-1
 10
1.259233
 20
0.157772
 30
0.000000
  0
VERTEX
  8
LAYER-1
 10
1.255760
 20
0.153431
 30
0.000000
  0
VERTEX
  8
LAYER-1
 10
1.254892
 20
0.148224
 30
0.000000
  0
VERTEX
  8
LAYER-1
 10
1.256628
 20
0.143883
 30
0.000000
  0
VERTEX
  8
LAYER-1
 10
1.260969
 20
0.142147
 30
0.000000
  0
VERTEX
  8
LAYER-1
 10
1.265309
 20
0.142147
 30
0.000000
  0
VERTEX
  8
LAYER-1
 10
1.269649
 20
0.145619
 30
0.000000
  0
VERTEX
  8
LAYER-1
 10
1.269649
 20
0.149960
 30
0.000000
  0
VERTEX
  8
LAYER-1
 10
1.268781
 20
0.154300
 30
0.000000
  0
VERTEX
  8
LAYER-1
 10
1.264441
 20
0.156904
 30
0.000000
  0
SEQEND
  8
LAYER-1
  0
POLYLINE
  8
LAYER-1
 66
  1
 70
  1
 62
  0
 10
0.901594
 20
0.195964
 30
0.000000
  0
VERTEX
  8
LAYER-1
 10
0.901594
 20
0.195964
 30
0.000000
  0
VERTEX
  8
LAYER-1
 10
0.888573
 20
0.173395
 30
0.000000
  0
VERTEX
  8
LAYER-1
 10
0.918955
 20
0.194228
 30
0.000000
  0
SEQEND
  8
LAYER-1
  0
POLYLINE
  8
LAYER-1
 66
  1
 70
  1
 62
  0
 10
1.033371
 20
0.195631
 30
0.000000
  0
VERTEX
  8
LAYER-1
 10
1.033371
 20
0.195631
 30
0.000000
  0
VERTEX
  8
LAYER-1
 10
1.020685
 20
0.176266
 30
0.000000
  0
VERTEX
  8
LAYER-1
 10
1.032036
 20
0.170256
 30
0.000000
  0
SEQEND
  8
LAYER-1
  0
POLYLINE
  8
LAYER-1
 66
  1
 70
  0
 62
  0
 10
1.391177
 20
0.176868
 30
0.000000
  0
VERTEX
  8
LAYER-1
 10
1.391177
 20
0.176868
 30
0.000000
  0
VERTEX
  8
LAYER-1
 10
1.386837
 20
0.176868
 30
0.000000
  0
VERTEX
  8
LAYER-1
 10
1.383365
 20
0.172527
 30
0.000000
  0
VERTEX
  8
LAYER-1
 10
1.382497
 20
0.167319
 30
0.000000
  0
VERTEX
  8
LAYER-1
 10
1.384233
 20
0.162979
 30
0.000000
  0
VERTEX
  8
LAYER-1
 10
1.388572
 20
0.161243
 30
0.000000
  0
VERTEX
  8
LAYER-1
 10
1.392913
 20
0.161243
 30
0.000000
  0
VERTEX
  8
LAYER-1
 10
1.397253
 20
0.164714
 30
0.000000
  0
VERTEX
  8
LAYER-1
 10
1.397253
 20
0.169056
 30
0.000000
  0
VERTEX
  8
LAYER-1
 10
1.396385
 20
0.173396
 30
0.000000
  0
VERTEX
  8
LAYER-1
 10
1.392045
 20
0.176000
 30
0.000000
  0
SEQEND
  8
LAYER-1
  0
POLYLINE
  8
LAYER-1
 66
  1
 70
  0
 62
  0
 10
1.148989
 20
0.150826
 30
0.000000
  0
VERTEX
  8
LAYER-1
 10
1.148989
 20
0.150826
 30
0.000000
  0
VERTEX
  8
LAYER-1
 10
1.144649
 20
0.150826
 30
0.000000
  0
VERTEX
  8
LAYER-1
 10
1.141177
 20
0.146486
 30
0.000000
  0
VERTEX
  8
LAYER-1
 10
1.140309
 20
0.141279
 30
0.000000
  0
VERTEX
  8
LAYER-1
 10
1.142045
 20
0.136937
 30
0.000000
  0
VERTEX
  8
LAYER-1
 10
1.146385
 20
0.135201
 30
0.000000
  0
VERTEX
  8
LAYER-1
 10
1.150726
 20
0.135201
 30
0.000000
  0
VERTEX
  8
LAYER-1
 10
1.155066
 20
0.138674
 30
0.000000
  0
VERTEX
  8
LAYER-1
 10
1.155066
 20
0.143014
 30
0.000000
  0
VERTEX
  8
LAYER-1
 10
1.154198
 20
0.147355
 30
0.000000
  0
VERTEX
  8
LAYER-1
 10
1.149857
 20
0.149958
 30
0.000000
  0
SEQEND
  8
LAYER-1
  0
POLYLINE
  8
LAYER-1
 66
  1
 70
  0
 62
  0
 10
0.984927
 20
0.143014
 30
0.000000
  0
VERTEX
  8
LAYER-1
 10
0.984927
 20
0.143014
 30
0.000000
  0
VERTEX
  8
LAYER-1
 10
0.980587
 20
0.143014
 30
0.000000
  0
VERTEX
  8
LAYER-1
 10
0.977114
 20
0.138674
 30
0.000000
  0
VERTEX
  8
LAYER-1
 10
0.976246
 20
0.133466
 30
0.000000
  0
VERTEX
  8
LAYER-1
 10
0.977982
 20
0.129125
 30
0.000000
  0
VERTEX
  8
LAYER-1
 10
0.982323
 20
0.127389
 30
0.000000
  0
VERTEX
  8
LAYER-1
 10
0.986663
 20
0.127389
 30
0.000000
  0
VERTEX
  8
LAYER-1
 10
0.991003
 20
0.130861
 30
0.000000
  0
VERTEX
  8
LAYER-1
 10
0.991003
 20
0.135201
 30
0.000000
  0
VERTEX
  8
LAYER-1
 10
0.990135
 20
0.139542
 30
0.000000
  0
VERTEX
  8
LAYER-1
 10
0.985795
 20
0.142146
 30
0.000000
  0
SEQEND
  8
LAYER-1
  0
POLYLINE
  8
LAYER-1
 66
  1
 70
  1
 62
  0
 10
1.612966
 20
0.167753
 30
0.000000
  0
VERTEX
  8
LAYER-1
 10
1.612966
 20
0.167753
 30
0.000000
  0
VERTEX
  8
LAYER-1
 10
1.586926
 20
0.160808
 30
0.000000
  0
VERTEX
  8
LAYER-1
 10
1.600813
 20
0.135635
 30
0.000000
  0
SEQEND
  8
LAYER-1
  0
POLYLINE
  8
LAYER-1
 66
  1
 70
  1
 62
  0
 10
1.674510
 20
0.108156
 30
0.000000
  0
VERTEX
  8
LAYER-1
 10
1.674510
 20
0.108156
 30
0.000000
  0
VERTEX
  8
LAYER-1
 10
1.697081
 20
0.095134
 30
0.000000
  0
VERTEX
  8
LAYER-1
 10
1.676248
 20
0.125517
 30
0.000000
  0
SEQEND
  8
LAYER-1
  0
POLYLINE
  8
LAYER-1
 66
  1
 70
  1
 62
  0
 10
1.205848
 20
0.175566
 30
0.000000
  0
VERTEX
  8
LAYER-1
 10
1.205848
 20
0.175566
 30
0.000000
  0
VERTEX
  8
LAYER-1
 10
1.180675
 20
0.192058
 30
0.000000
  0
VERTEX
  8
LAYER-1
 10
1.172862
 20
0.177301
 30
0.000000
  0
SEQEND
  8
LAYER-1
  0
POLYLINE
  8
LAYER-1
 66
  1
 70
  0
 62
  0
 10
1.624252
 20
0.204213
 30
0.000000
  0
VERTEX
  8
LAYER-1
 10
1.624252
 20
0.204213
 30
0.000000
  0
VERTEX
  8
LAYER-1
 10
1.624252
 20
0.208554
 30
0.000000
  0
VERTEX
  8
LAYER-1
 10
1.619911
 20
0.212025
 30
0.000000
  0
VERTEX
  8
LAYER-1
 10
1.614703
 20
0.212893
 30
0.000000
  0
VERTEX
  8
LAYER-1
 10
1.610363
 20
0.211157
 30
0.000000
  0
VERTEX
  8
LAYER-1
 10
1.608627
 20
0.206817
 30
0.000000
  0
VERTEX
  8
LAYER-1
 10
1.608627
 20
0.202477
 30
0.000000
  0
VERTEX
  8
LAYER-1
 10
1.612098
 20
0.198136
 30
0.000000
  0
VERTEX
  8
LAYER-1
 10
1.616439
 20
0.198136
 30
0.000000
  0
VERTEX
  8
LAYER-1
 10
1.620780
 20
0.199004
 30
0.000000
  0
VERTEX
  8
LAYER-1
 10
1.623385
 20
0.203345
 30
0.000000
  0
SEQEND
  8
LAYER-1
  0
POLYLINE
  8
LAYER-1
 66
  1
 70
  1
 62
  0
 10
1.576509
 20
0.179905
 30
0.000000
  0
VERTEX
  8
LAYER-1
 10
1.576509
 20
0.179905
 30
0.000000
  0
VERTEX
  8
LAYER-1
 10
1.553938
 20
0.192926
 30
0.000000
  0
VERTEX
  8
LAYER-1
 10
1.574771
 20
0.162544
 30
0.000000
  0
SEQEND
  8
LAYER-1
  0
POLYLINE
  8
LAYER-1
 66
  1
 70
  1
 62
  0
 10
1.224610
 20
0.192225
 30
0.000000
  0
VERTEX
  8
LAYER-1
 10
1.224610
 20
0.192225
 30
0.000000
  0
VERTEX
  8
LAYER-1
 10
1.205246
 20
0.204911
 30
0.000000
  0
VERTEX
  8
LAYER-1
 10
1.199235
 20
0.193561
 30
0.000000
  0
SEQEND
  8
LAYER-1
  0
POLYLINE
  8
LAYER-1
 66
  1
 70
  0
 62
  0
 10
1.690484
 20
0.068572
 30
0.000000
  0
VERTEX
  8
LAYER-1
 10
1.690484
 20
0.068572
 30
0.000000
  0
VERTEX
  8
LAYER-1
 10
1.690484
 20
0.064233
 30
0.000000
  0
VERTEX
  8
LAYER-1
 10
1.694825
 20
0.060760
 30
0.000000
  0
VERTEX
  8
LAYER-1
 10
1.700032
 20
0.059892
 30
0.000000
  0
VERTEX
  8
LAYER-1
 10
1.704373
 20
0.061628
 30
0.000000
  0
VERTEX
  8
LAYER-1
 10
1.706109
 20
0.065969
 30
0.000000
  0
VERTEX
  8
LAYER-1
 10
1.706109
 20
0.070309
 30
0.000000
  0
VERTEX
  8
LAYER-1
 10
1.702637
 20
0.074649
 30
0.000000
  0
VERTEX
  8
LAYER-1
 10
1.698296
 20
0.074649
 30
0.000000
  0
VERTEX
  8
LAYER-1
 10
1.693956
 20
0.073781
 30
0.000000
  0
VERTEX
  8
LAYER-1
 10
1.691351
 20
0.069440
 30
0.000000
  0
SEQEND
  8
LAYER-1
  0
POLYLINE
  8
LAYER-1
 66
  1
 70
  0
 62
  0
 10
1.199771
 20
0.123482
 30
0.000000
  0
VERTEX
  8
LAYER-1
 10
1.199771
 20
0.123482
 30
0.000000
  0
VERTEX
  8
LAYER-1
 10
1.199771
 20
0.127823
 30
0.000000
  0
VERTEX
  8
LAYER-1
 10
1.195431
 20
0.131294
 30
0.000000
  0
VERTEX
  8
LAYER-1
 10
1.190223
 20
0.132162
 30
0.000000
  0
VERTEX
  8
LAYER-1
 10
1.185882
 20
0.130426
 30
0.000000
  0
VERTEX
  8
LAYER-1
 10
1.184146
 20
0.126086
 30
0.000000
  0
VERTEX
  8
LAYER-1
 10
1.184146
 20
0.121746
 30
0.000000
  0
VERTEX
  8
LAYER-1
 10
1.187618
 20
0.117405
 30
0.000000
  0
VERTEX
  8
LAYER-1
 10
1.191959
 20
0.117405
 30
0.000000
  0
VERTEX
  8
LAYER-1
 10
1.196300
 20
0.118273
 30
0.000000
  0
VERTEX
  8
LAYER-1
 10
1.198904
 20
0.122614
 30
0.000000
  0
SEQEND
  8
LAYER-1
  0
POLYLINE
  8
LAYER-1
 66
  1
 70
  0
 62
  0
 10
1.501855
 20
0.158206
 30
0.000000
  0
VERTEX
  8
LAYER-1
 10
1.501855
 20
0.158206
 30
0.000000
  0
VERTEX
  8
LAYER-1
 10
1.501855
 20
0.162546
 30
0.000000
  0
VERTEX
  8
LAYER-1
 10
1.497515
 20
0.166018
 30
0.000000
  0
VERTEX
  8
LAYER-1
 10
1.492307
 20
0.166886
 30
0.000000
  0
VERTEX
  8
LAYER-1
 10
1.487966
 20
0.165150
 30
0.000000
  0
VERTEX
  8
LAYER-1
 10
1.486230
 20
0.160810
 30
0.000000
  0
VERTEX
  8
LAYER-1
 10
1.486230
 20
0.156470
 30
0.000000
  0
VERTEX
  8
LAYER-1
 10
1.489702
 20
0.152129
 30
0.000000
  0
VERTEX
  8
LAYER-1
 10
1.494043
 20
0.152129
 30
0.000000
  0
VERTEX
  8
LAYER-1
 10
1.498383
 20
0.152997
 30
0.000000
  0
VERTEX
  8
LAYER-1
 10
1.500988
 20
0.157338
 30
0.000000
  0
SEQEND
  8
LAYER-1
  0
POLYLINE
  8
LAYER-1
 66
  1
 70
  1
 62
  0
 10
1.721040
 20
0.150393
 30
0.000000
  0
VERTEX
  8
LAYER-1
 10
1.721040
 20
0.150393
 30
0.000000
  0
VERTEX
  8
LAYER-1
 10
1.727983
 20
0.124352
 30
0.000000
  0
VERTEX
  8
LAYER-1
 10
1.747081
 20
0.139976
 30
0.000000
  0
SEQEND
  8
LAYER-1
  0
POLYLINE
  8
LAYER-1
 66
  1
 70
  1
 62
  0
 10
1.905067
 20
0.172095
 30
0.000000
  0
VERTEX
  8
LAYER-1
 10
1.905067
 20
0.172095
 30
0.000000
  0
VERTEX
  8
LAYER-1
 10
1.892046
 20
0.149525
 30
0.000000
  0
VERTEX
  8
LAYER-1
 10
1.922428
 20
0.170358
 30
0.000000
  0
SEQEND
  8
LAYER-1
  0
POLYLINE
  8
LAYER-1
 66
  1
 70
  1
 62
  0
 10
1.954971
 20
0.070634
 30
0.000000
  0
VERTEX
  8
LAYER-1
 10
1.954971
 20
0.070634
 30
0.000000
  0
VERTEX
  8
LAYER-1
 10
1.938479
 20
0.045461
 30
0.000000
  0
VERTEX
  8
LAYER-1
 10
1.953235
 20
0.037649
 30
0.000000
  0
SEQEND
  8
LAYER-1
  0
POLYLINE
  8
LAYER-1
 66
  1
 70
  0
 62
  0
 10
1.693262
 20
0.174699
 30
0.000000
  0
VERTEX
  8
LAYER-1
 10
1.693262
 20
0.174699
 30
0.000000
  0
VERTEX
  8
LAYER-1
 10
1.688921
 20
0.174699
 30
0.000000
  0
VERTEX
  8
LAYER-1
 10
1.685449
 20
0.170358
 30
0.000000
  0
VERTEX
  8
LAYER-1
 10
1.684581
 20
0.165150
 30
0.000000
  0
VERTEX
  8
LAYER-1
 10
1.686317
 20
0.160810
 30
0.000000
  0
VERTEX
  8
LAYER-1
 10
1.690657
 20
0.159074
 30
0.000000
  0
VERTEX
  8
LAYER-1
 10
1.694998
 20
0.159074
 30
0.000000
  0
VERTEX
  8
LAYER-1
 10
1.699337
 20
0.162545
 30
0.000000
  0
VERTEX
  8
LAYER-1
 10
1.699337
 20
0.166886
 30
0.000000
  0
VERTEX
  8
LAYER-1
 10
1.698469
 20
0.171227
 30
0.000000
  0
VERTEX
  8
LAYER-1
 10
1.694130
 20
0.173831
 30
0.000000
  0
SEQEND
  8
LAYER-1
  0
POLYLINE
  8
LAYER-1
 66
  1
 70
  1
 62
  0
 10
1.730588
 20
0.106990
 30
0.000000
  0
VERTEX
  8
LAYER-1
 10
1.730588
 20
0.106990
 30
0.000000
  0
VERTEX
  8
LAYER-1
 10
1.717567
 20
0.084420
 30
0.000000
  0
VERTEX
  8
LAYER-1
 10
1.747949
 20
0.105253
 30
0.000000
  0
SEQEND
  8
LAYER-1
  0
POLYLINE
  8
LAYER-1
 66
  1
 70
  1
 62
  0
 10
1.986388
 20
0.052743
 30
0.000000
  0
VERTEX
  8
LAYER-1
 10
1.986388
 20
0.052743
 30
0.000000
  0
VERTEX
  8
LAYER-1
 10
1.999076
 20
0.072106
 30
0.000000
  0
VERTEX
  8
LAYER-1
 10
1.987724
 20
0.078118
 30
0.000000
  0
SEQEND
  8
LAYER-1
  0
POLYLINE
  8
LAYER-1
 66
  1
 70
  0
 62
  0
 10
1.885614
 20
0.053190
 30
0.000000
  0
VERTEX
  8
LAYER-1
 10
1.885614
 20
0.053190
 30
0.000000
  0
VERTEX
  8
LAYER-1
 10
1.889954
 20
0.053190
 30
0.000000
  0
VERTEX
  8
LAYER-1
 10
1.893426
 20
0.057530
 30
0.000000
  0
VERTEX
  8
LAYER-1
 10
1.894294
 20
0.062738
 30
0.000000
  0
VERTEX
  8
LAYER-1
 10
1.892558
 20
0.067078
 30
0.000000
  0
VERTEX
  8
LAYER-1
 10
1.888218
 20
0.068815
 30
0.000000
  0
VERTEX
  8
LAYER-1
 10
1.883878
 20
0.068815
 30
0.000000
  0
VERTEX
  8
LAYER-1
 10
1.879537
 20
0.065342
 30
0.000000
  0
VERTEX
  8
LAYER-1
 10
1.879537
 20
0.061002
 30
0.000000
  0
VERTEX
  8
LAYER-1
 10
1.880405
 20
0.056661
 30
0.000000
  0
VERTEX
  8
LAYER-1
 10
1.884746
 20
0.054057
 30
0.000000
  0
SEQEND
  8
LAYER-1
  0
POLYLINE
  8
LAYER-1
 66
  1
 70
  0
 62
  0
 10
1.575118
 20
0.089057
 30
0.000000
  0
VERTEX
  8
LAYER-1
 10
1.575118
 20
0.089057
 30
0.000000
  0
VERTEX
  8
LAYER-1
 10
1.579459
 20
0.089057
 30
0.000000
  0
VERTEX
  8
LAYER-1
 10
1.582930
 20
0.093398
 30
0.000000
  0
VERTEX
  8
LAYER-1
 10
1.583799
 20
0.098606
 30
0.000000
  0
VERTEX
  8
LAYER-1
 10
1.582063
 20
0.102946
 30
0.000000
  0
VERTEX
  8
LAYER-1
 10
1.577723
 20
0.104682
 30
0.000000
  0
VERTEX
  8
LAYER-1
 10
1.573382
 20
0.104682
 30
0.000000
  0
VERTEX
  8
LAYER-1
 10
1.569041
 20
0.101211
 30
0.000000
  0
VERTEX
  8
LAYER-1
 10
1.569041
 20
0.096870
 30
0.000000
  0
VERTEX
  8
LAYER-1
 10
1.569910
 20
0.092529
 30
0.000000
  0
VERTEX
  8
LAYER-1
 10
1.574251
 20
0.089925
 30
0.000000
  0
SEQEND
  8
LAYER-1
  0
POLYLINE
  8
LAYER-1
 66
  1
 70
  1
 62
  0
 10
2.070432
 20
0.155167
 30
0.000000
  0
VERTEX
  8
LAYER-1
 10
2.070432
 20
0.155167
 30
0.000000
  0
VERTEX
  8
LAYER-1
 10
2.044392
 20
0.148223
 30
0.000000
  0
VERTEX
  8
LAYER-1
 10
2.058279
 20
0.123049
 30
0.000000
  0
SEQEND
  8
LAYER-1
  0
POLYLINE
  8
LAYER-1
 66
  1
 70
  1
 62
  0
 10
1.809315
 20
0.115573
 30
0.000000
  0
VERTEX
  8
LAYER-1
 10
1.809315
 20
0.115573
 30
0.000000
  0
VERTEX
  8
LAYER-1
 10
1.786745
 20
0.128593
 30
0.000000
  0
VERTEX
  8
LAYER-1
 10
1.807577
 20
0.098212
 30
0.000000
  0
SEQEND
  8
LAYER-1
  0
POLYLINE
  8
LAYER-1
 66
  1
 70
  1
 62
  0
 10
1.839172
 20
0.037999
 30
0.000000
  0
VERTEX
  8
LAYER-1
 10
1.839172
 20
0.037999
 30
0.000000
  0
VERTEX
  8
LAYER-1
 10
1.864346
 20
0.021505
 30
0.000000
  0
VERTEX
  8
LAYER-1
 10
1.872158
 20
0.036263
 30
0.000000
  0
SEQEND
  8
LAYER-1
  0
POLYLINE
  8
LAYER-1
 66
  1
 70
  0
 62
  0
 10
2.101682
 20
0.204645
 30
0.000000
  0
VERTEX
  8
LAYER-1
 10
2.101682
 20
0.204645
 30
0.000000
  0
VERTEX
  8
LAYER-1
 10
2.101682
 20
0.208986
 30
0.000000
  0
VERTEX
  8
LAYER-1
 10
2.097341
 20
0.212457
 30
0.000000
  0
VERTEX
  8
LAYER-1
 10
2.092134
 20
0.213326
 30
0.000000
  0
VERTEX
  8
LAYER-1
 10
2.087793
 20
0.211589
 30
0.000000
  0
VERTEX
  8
LAYER-1
 10
2.086057
 20
0.207249
 30
0.000000
  0
VERTEX
  8
LAYER-1
 10
2.086057
 20
0.202910
 30
0.000000
  0
VERTEX
  8
LAYER-1
 10
2.089529
 20
0.198569
 30
0.000000
  0
VERTEX
  8
LAYER-1
 10
2.093870
 20
0.198569
 30
0.000000
  0
VERTEX
  8
LAYER-1
 10
2.098210
 20
0.199437
 30
0.000000
  0
VERTEX
  8
LAYER-1
 10
2.100815
 20
0.203777
 30
0.000000
  0
SEQEND
  8
LAYER-1
  0
POLYLINE
  8
LAYER-1
 66
  1
 70
  1
 62
  0
 10
2.033974
 20
0.167319
 30
0.000000
  0
VERTEX
  8
LAYER-1
 10
2.033974
 20
0.167319
 30
0.000000
  0
VERTEX
  8
LAYER-1
 10
2.011404
 20
0.180341
 30
0.000000
  0
VERTEX
  8
LAYER-1
 10
2.032237
 20
0.149958
 30
0.000000
  0
SEQEND
  8
LAYER-1
  0
POLYLINE
  8
LAYER-1
 66
  1
 70
  1
 62
  0
 10
0.802736
 20
0.203944
 30
0.000000
  0
VERTEX
  8
LAYER-1
 10
0.802736
 20
0.203944
 30
0.000000
  0
VERTEX
  8
LAYER-1
 10
0.783372
 20
0.216630
 30
0.000000
  0
VERTEX
  8
LAYER-1
 10
0.777361
 20
0.205280
 30
0.000000
  0
SEQEND
  8
LAYER-1
  0
POLYLINE
  8
LAYER-1
 66
  1
 70
  0
 62
  0
 10
1.813654
 20
0.175468
 30
0.000000
  0
VERTEX
  8
LAYER-1
 10
1.813654
 20
0.175468
 30
0.000000
  0
VERTEX
  8
LAYER-1
 10
1.813654
 20
0.179808
 30
0.000000
  0
VERTEX
  8
LAYER-1
 10
1.809313
 20
0.183281
 30
0.000000
  0
VERTEX
  8
LAYER-1
 10
1.804106
 20
0.184149
 30
0.000000
  0
VERTEX
  8
LAYER-1
 10
1.799765
 20
0.182413
 30
0.000000
  0
VERTEX
  8
LAYER-1
 10
1.798029
 20
0.178073
 30
0.000000
  0
VERTEX
  8
LAYER-1
 10
1.798029
 20
0.173731
 30
0.000000
  0
VERTEX
  8
LAYER-1
 10
1.801501
 20
0.169392
 30
0.000000
  0
VERTEX
  8
LAYER-1
 10
1.805841
 20
0.169392
 30
0.000000
  0
VERTEX
  8
LAYER-1
 10
1.810182
 20
0.170260
 30
0.000000
  0
VERTEX
  8
LAYER-1
 10
1.812787
 20
0.174600
 30
0.000000
  0
SEQEND
  8
LAYER-1
  0
POLYLINE
  8
LAYER-1
 66
  1
 70
  0
 62
  0
 10
0.779633
 20
0.136937
 30
0.000000
  0
VERTEX
  8
LAYER-1
 10
0.779633
 20
0.136937
 30
0.000000
  0
VERTEX
  8
LAYER-1
 10
0.779633
 20
0.141277
 30
0.000000
  0
VERTEX
  8
LAYER-1
 10
0.775292
 20
0.144749
 30
0.000000
  0
VERTEX
  8
LAYER-1
 10
0.770085
 20
0.145617
 30
0.000000
  0
VERTEX
  8
LAYER-1
 10
0.765744
 20
0.143881
 30
0.000000
  0
VERTEX
  8
LAYER-1
 10
0.764008
 20
0.139541
 30
0.000000
  0
VERTEX
  8
LAYER-1
 10
0.764008
 20
0.135201
 30
0.000000
  0
VERTEX
  8
LAYER-1
 10
0.767480
 20
0.130860
 30
0.000000
  0
VERTEX
  8
LAYER-1
 10
0.771821
 20
0.130860
 30
0.000000
  0
VERTEX
  8
LAYER-1
 10
0.776161
 20
0.131728
 30
0.000000
  0
VERTEX
  8
LAYER-1
 10
0.778766
 20
0.136069
 30
0.000000
  0
SEQEND
  8
LAYER-1
  0
POLYLINE
  8
LAYER-1
 66
  1
 70
  0
 62
  0
 10
1.902029
 20
0.204642
 30
0.000000
  0
VERTEX
  8
LAYER-1
 10
1.902029
 20
0.204642
 30
0.000000
  0
VERTEX
  8
LAYER-1
 10
1.902029
 20
0.208983
 30
0.000000
  0
VERTEX
  8
LAYER-1
 10
1.897688
 20
0.212455
 30
0.000000
  0
VERTEX
  8
LAYER-1
 10
1.892480
 20
0.213323
 30
0.000000
  0
VERTEX
  8
LAYER-1
 10
1.888140
 20
0.211587
 30
0.000000
  0
VERTEX
  8
LAYER-1
 10
1.886404
 20
0.207247
 30
0.000000
  0
VERTEX
  8
LAYER-1
 10
1.886404
 20
0.202906
 30
0.000000
  0
VERTEX
  8
LAYER-1
 10
1.889876
 20
0.198566
 30
0.000000
  0
VERTEX
  8
LAYER-1
 10
1.894216
 20
0.198566
 30
0.000000
  0
VERTEX
  8
LAYER-1
 10
1.898557
 20
0.199434
 30
0.000000
  0
VERTEX
  8
LAYER-1
 10
1.901162
 20
0.203774
 30
0.000000
  0
SEQEND
  8
LAYER-1
  0
POLYLINE
  8
LAYER-1
 66
  1
 70
  1
 62
  0
 10
1.461316
 20
0.069177
 30
0.000000
  0
VERTEX
  8
LAYER-1
 10
1.461316
 20
0.069177
 30
0.000000
  0
VERTEX
  8
LAYER-1
 10
1.435275
 20
0.062232
 30
0.000000
  0
VERTEX
  8
LAYER-1
 10
1.449163
 20
0.037059
 30
0.000000
  0
SEQEND
  8
LAYER-1
  0
POLYLINE
  8
LAYER-1
 66
  1
 70
  1
 62
  0
 10
2.307844
 20
0.132598
 30
0.000000
  0
VERTEX
  8
LAYER-1
 10
2.307844
 20
0.132598
 30
0.000000
  0
VERTEX
  8
LAYER-1
 10
2.330414
 20
0.119576
 30
0.000000
  0
VERTEX
  8
LAYER-1
 10
2.309581
 20
0.149958
 30
0.000000
  0
SEQEND
  8
LAYER-1
  0
POLYLINE
  8
LAYER-1
 66
  1
 70
  1
 62
  0
 10
0.917219
 20
0.149524
 30
0.000000
  0
VERTEX
  8
LAYER-1
 10
0.917219
 20
0.149524
 30
0.000000
  0
VERTEX
  8
LAYER-1
 10
0.942393
 20
0.133031
 30
0.000000
  0
VERTEX
  8
LAYER-1
 10
0.950205
 20
0.147788
 30
0.000000
  0
SEQEND
  8
LAYER-1
  0
POLYLINE
  8
LAYER-1
 66
  1
 70
  0
 62
  0
 10
2.235796
 20
0.179470
 30
0.000000
  0
VERTEX
  8
LAYER-1
 10
2.235796
 20
0.179470
 30
0.000000
  0
VERTEX
  8
LAYER-1
 10
2.235796
 20
0.175129
 30
0.000000
  0
VERTEX
  8
LAYER-1
 10
2.240137
 20
0.171657
 30
0.000000
  0
VERTEX
  8
LAYER-1
 10
2.245344
 20
0.170789
 30
0.000000
  0
VERTEX
  8
LAYER-1
 10
2.249685
 20
0.172525
 30
0.000000
  0
VERTEX
  8
LAYER-1
 10
2.251421
 20
0.176866
 30
0.000000
  0
VERTEX
  8
LAYER-1
 10
2.251421
 20
0.181206
 30
0.000000
  0
VERTEX
  8
LAYER-1
 10
2.247949
 20
0.185547
 30
0.000000
  0
VERTEX
  8
LAYER-1
 10
2.243608
 20
0.185547
 30
0.000000
  0
VERTEX
  8
LAYER-1
 10
2.239268
 20
0.184679
 30
0.000000
  0
VERTEX
  8
LAYER-1
 10
2.236664
 20
0.180338
 30
0.000000
  0
SEQEND
  8
LAYER-1
  0
POLYLINE
  8
LAYER-1
 66
  1
 70
  1
 62
  0
 10
2.185448
 20
0.190756
 30
0.000000
  0
VERTEX
  8
LAYER-1
 10
2.185448
 20
0.190756
 30
0.000000
  0
VERTEX
  8
LAYER-1
 10
2.208018
 20
0.177735
 30
0.000000
  0
VERTEX
  8
LAYER-1
 10
2.187185
 20
0.208117
 30
0.000000
  0
SEQEND
  8
LAYER-1
  0
POLYLINE
  8
LAYER-1
 66
  1
 70
  1
 62
  0
 10
0.915817
 20
0.097274
 30
0.000000
  0
VERTEX
  8
LAYER-1
 10
0.915817
 20
0.097274
 30
0.000000
  0
VERTEX
  8
LAYER-1
 10
0.935182
 20
0.084588
 30
0.000000
  0
VERTEX
  8
LAYER-1
 10
0.941192
 20
0.095938
 30
0.000000
  0
SEQEND
  8
LAYER-1
  0
POLYLINE
  8
LAYER-1
 66
  1
 70
  0
 62
  0
 10
1.641959
 20
0.049559
 30
0.000000
  0
VERTEX
  8
LAYER-1
 10
1.641959
 20
0.049559
 30
0.000000
  0
VERTEX
  8
LAYER-1
 10
1.641959
 20
0.053899
 30
0.000000
  0
VERTEX
  8
LAYER-1
 10
1.637618
 20
0.057371
 30
0.000000
  0
VERTEX
  8
LAYER-1
 10
1.632410
 20
0.058239
 30
0.000000
  0
VERTEX
  8
LAYER-1
 10
1.628070
 20
0.056504
 30
0.000000
  0
VERTEX
  8
LAYER-1
 10
1.626334
 20
0.052163
 30
0.000000
  0
VERTEX
  8
LAYER-1
 10
1.626334
 20
0.047822
 30
0.000000
  0
VERTEX
  8
LAYER-1
 10
1.629805
 20
0.043482
 30
0.000000
  0
VERTEX
  8
LAYER-1
 10
1.634146
 20
0.043482
 30
0.000000
  0
VERTEX
  8
LAYER-1
 10
1.638487
 20
0.044351
 30
0.000000
  0
VERTEX
  8
LAYER-1
 10
1.641091
 20
0.048692
 30
0.000000
  0
SEQEND
  8
LAYER-1
  0
POLYLINE
  8
LAYER-1
 66
  1
 70
  0
 62
  0
 10
2.447602
 20
0.132598
 30
0.000000
  0
VERTEX
  8
LAYER-1
 10
2.447602
 20
0.132598
 30
0.000000
  0
VERTEX
  8
LAYER-1
 10
2.447602
 20
0.128257
 30
0.000000
  0
VERTEX
  8
LAYER-1
 10
2.451942
 20
0.124786
 30
0.000000
  0
VERTEX
  8
LAYER-1
 10
2.457150
 20
0.123917
 30
0.000000
  0
VERTEX
  8
LAYER-1
 10
2.461491
 20
0.125654
 30
0.000000
  0
VERTEX
  8
LAYER-1
 10
2.463227
 20
0.129993
 30
0.000000
  0
VERTEX
  8
LAYER-1
 10
2.463227
 20
0.134333
 30
0.000000
  0
VERTEX
  8
LAYER-1
 10
2.459755
 20
0.138674
 30
0.000000
  0
VERTEX
  8
LAYER-1
 10
2.455414
 20
0.138674
 30
0.000000
  0
VERTEX
  8
LAYER-1
 10
2.451073
 20
0.137806
 30
0.000000
  0
VERTEX
  8
LAYER-1
 10
2.448470
 20
0.133466
 30
0.000000
  0
SEQEND
  8
LAYER-1
  0
POLYLINE
  8
LAYER-1
 66
  1
 70
  0
 62
  0
 10
2.281803
 20
0.187286
 30
0.000000
  0
VERTEX
  8
LAYER-1
 10
2.281803
 20
0.187286
 30
0.000000
  0
VERTEX
  8
LAYER-1
 10
2.281803
 20
0.182944
 30
0.000000
  0
VERTEX
  8
LAYER-1
 10
2.286144
 20
0.179473
 30
0.000000
  0
VERTEX
  8
LAYER-1
 10
2.291352
 20
0.178605
 30
0.000000
  0
VERTEX
  8
LAYER-1
 10
2.295692
 20
0.180341
 30
0.000000
  0
VERTEX
  8
LAYER-1
 10
2.297428
 20
0.184681
 30
0.000000
  0
VERTEX
  8
LAYER-1
 10
2.297428
 20
0.189021
 30
0.000000
  0
VERTEX
  8
LAYER-1
 10
2.293956
 20
0.193362
 30
0.000000
  0
VERTEX
  8
LAYER-1
 10
2.289616
 20
0.193362
 30
0.000000
  0
VERTEX
  8
LAYER-1
 10
2.285275
 20
0.192493
 30
0.000000
  0
VERTEX
  8
LAYER-1
 10
2.282670
 20
0.188154
 30
0.000000
  0
SEQEND
  8
LAYER-1
  0
POLYLINE
  8
LAYER-1
 66
  1
 70
  1
 62
  0
 10
2.043956
 20
0.104386
 30
0.000000
  0
VERTEX
  8
LAYER-1
 10
2.043956
 20
0.104386
 30
0.000000
  0
VERTEX
  8
LAYER-1
 10
2.050901
 20
0.078345
 30
0.000000
  0
VERTEX
  8
LAYER-1
 10
2.076074
 20
0.092233
 30
0.000000
  0
SEQEND
  8
LAYER-1
  0
POLYLINE
  8
LAYER-1
 66
  1
 70
  1
 62
  0
 10
2.148471
 20
0.091628
 30
0.000000
  0
VERTEX
  8
LAYER-1
 10
2.148471
 20
0.091628
 30
0.000000
  0
VERTEX
  8
LAYER-1
 10
2.135450
 20
0.069058
 30
0.000000
  0
VERTEX
  8
LAYER-1
 10
2.165831
 20
0.089890
 30
0.000000
  0
SEQEND
  8
LAYER-1
  0
POLYLINE
  8
LAYER-1
 66
  1
 70
  1
 62
  0
 10
1.864435
 20
0.122083
 30
0.000000
  0
VERTEX
  8
LAYER-1
 10
1.864435
 20
0.122083
 30
0.000000
  0
VERTEX
  8
LAYER-1
 10
1.847942
 20
0.096910
 30
0.000000
  0
VERTEX
  8
LAYER-1
 10
1.862699
 20
0.089098
 30
0.000000
  0
SEQEND
  8
LAYER-1
  0
POLYLINE
  8
LAYER-1
 66
  1
 70
  0
 62
  0
 10
1.994477
 20
0.135636
 30
0.000000
  0
VERTEX
  8
LAYER-1
 10
1.994477
 20
0.135636
 30
0.000000
  0
VERTEX
  8
LAYER-1
 10
1.990137
 20
0.135636
 30
0.000000
  0
VERTEX
  8
LAYER-1
 10
1.986665
 20
0.131295
 30
0.000000
  0
VERTEX
  8
LAYER-1
 10
1.985797
 20
0.126088
 30
0.000000
  0
VERTEX
  8
LAYER-1
 10
1.987533
 20
0.121747
 30
0.000000
  0
VERTEX
  8
LAYER-1
 10
1.991874
 20
0.120011
 30
0.000000
  0
VERTEX
  8
LAYER-1
 10
1.996213
 20
0.120011
 30
0.000000
  0
VERTEX
  8
LAYER-1
 10
2.000554
 20
0.123483
 30
0.000000
  0
VERTEX
  8
LAYER-1
 10
2.000554
 20
0.127824
 30
0.000000
  0
VERTEX
  8
LAYER-1
 10
1.999686
 20
0.132164
 30
0.000000
  0
VERTEX
  8
LAYER-1
 10
1.995345
 20
0.134769
 30
0.000000
  0
SEQEND
  8
LAYER-1
  0
POLYLINE
  8
LAYER-1
 66
  1
 70
  1
 62
  0
 10
0.852116
 20
0.212024
 30
0.000000
  0
VERTEX
  8
LAYER-1
 10
0.852116
 20
0.212024
 30
0.000000
  0
VERTEX
  8
LAYER-1
 10
0.839095
 20
0.189454
 30
0.000000
  0
VERTEX
  8
LAYER-1
 10
0.869477
 20
0.210286
 30
0.000000
  0
SEQEND
  8
LAYER-1
  0
POLYLINE
  8
LAYER-1
 66
  1
 70
  1
 62
  0
 10
1.849512
 20
0.154733
 30
0.000000
  0
VERTEX
  8
LAYER-1
 10
1.849512
 20
0.154733
 30
0.000000
  0
VERTEX
  8
LAYER-1
 10
1.836825
 20
0.135369
 30
0.000000
  0
VERTEX
  8
LAYER-1
 10
1.848176
 20
0.129357
 30
0.000000
  0
SEQEND
  8
LAYER-1
  0
POLYLINE
  8
LAYER-1
 66
  1
 70
  0
 62
  0
 10
2.146387
 20
0.137372
 30
0.000000
  0
VERTEX
  8
LAYER-1
 10
2.146387
 20
0.137372
 30
0.000000
  0
VERTEX
  8
LAYER-1
 10
2.142047
 20
0.137372
 30
0.000000
  0
VERTEX
  8
LAYER-1
 10
2.138574
 20
0.133031
 30
0.000000
  0
VERTEX
  8
LAYER-1
 10
2.137706
 20
0.127824
 30
0.000000
  0
VERTEX
  8
LAYER-1
 10
2.139442
 20
0.123483
 30
0.000000
  0
VERTEX
  8
LAYER-1
 10
2.143783
 20
0.121747
 30
0.000000
  0
VERTEX
  8
LAYER-1
 10
2.148124
 20
0.121747
 30
0.000000
  0
VERTEX
  8
LAYER-1
 10
2.152463
 20
0.125219
 30
0.000000
  0
VERTEX
  8
LAYER-1
 10
2.152463
 20
0.129560
 30
0.000000
  0
VERTEX
  8
LAYER-1
 10
2.151595
 20
0.133900
 30
0.000000
  0
VERTEX
  8
LAYER-1
 10
2.147255
 20
0.136505
 30
0.000000
  0
SEQEND
  8
LAYER-1
  0
POLYLINE
  8
LAYER-1
 66
  1
 70
  0
 62
  0
 10
2.206283
 20
0.142580
 30
0.000000
  0
VERTEX
  8
LAYER-1
 10
2.206283
 20
0.142580
 30
0.000000
  0
VERTEX
  8
LAYER-1
 10
2.201942
 20
0.142580
 30
0.000000
  0
VERTEX
  8
LAYER-1
 10
2.198470
 20
0.138239
 30
0.000000
  0
VERTEX
  8
LAYER-1
 10
2.197603
 20
0.133031
 30
0.000000
  0
VERTEX
  8
LAYER-1
 10
2.199338
 20
0.128691
 30
0.000000
  0
VERTEX
  8
LAYER-1
 10
2.203679
 20
0.126955
 30
0.000000
  0
VERTEX
  8
LAYER-1
 10
2.208019
 20
0.126955
 30
0.000000
  0
VERTEX
  8
LAYER-1
 10
2.212360
 20
0.130426
 30
0.000000
  0
VERTEX
  8
LAYER-1
 10
2.212360
 20
0.134767
 30
0.000000
  0
VERTEX
  8
LAYER-1
 10
2.211492
 20
0.139108
 30
0.000000
  0
VERTEX
  8
LAYER-1
 10
2.207151
 20
0.141713
 30
0.000000
  0
SEQEND
  8
LAYER-1
  0
POLYLINE
  8
LAYER-1
 66
  1
 70
  0
 62
  0
 10
0.862532
 20
0.129558
 30
0.000000
  0
VERTEX
  8
LAYER-1
 10
0.862532
 20
0.129558
 30
0.000000
  0
VERTEX
  8
LAYER-1
 10
0.858192
 20
0.129558
 30
0.000000
  0
VERTEX
  8
LAYER-1
 10
0.854720
 20
0.125218
 30
0.000000
  0
VERTEX
  8
LAYER-1
 10
0.853852
 20
0.120010
 30
0.000000
  0
VERTEX
  8
LAYER-1
 10
0.855588
 20
0.115669
 30
0.000000
  0
VERTEX
  8
LAYER-1
 10
0.859928
 20
0.113933
 30
0.000000
  0
VERTEX
  8
LAYER-1
 10
0.864268
 20
0.113933
 30
0.000000
  0
VERTEX
  8
LAYER-1
 10
0.868609
 20
0.117405
 30
0.000000
  0
VERTEX
  8
LAYER-1
 10
0.868609
 20
0.121746
 30
0.000000
  0
VERTEX
  8
LAYER-1
 10
0.867741
 20
0.126087
 30
0.000000
  0
VERTEX
  8
LAYER-1
 10
0.863400
 20
0.128692
 30
0.000000
  0
SEQEND
  8
LAYER-1
  0
POLYLINE
  8
LAYER-1
 66
  1
 70
  1
 62
  0
 10
2.513574
 20
0.169489
 30
0.000000
  0
VERTEX
  8
LAYER-1
 10
2.513574
 20
0.169489
 30
0.000000
  0
VERTEX
  8
LAYER-1
 10
2.520519
 20
0.143448
 30
0.000000
  0
VERTEX
  8
LAYER-1
 10
2.545692
 20
0.157336
 30
0.000000
  0
SEQEND
  8
LAYER-1
  0
POLYLINE
  8
LAYER-1
 66
  1
 70
  1
 62
  0
 10
2.675901
 20
0.198135
 30
0.000000
  0
VERTEX
  8
LAYER-1
 10
2.675901
 20
0.198135
 30
0.000000
  0
VERTEX
  8
LAYER-1
 10
2.662880
 20
0.175566
 30
0.000000
  0
VERTEX
  8
LAYER-1
 10
2.693262
 20
0.196398
 30
0.000000
  0
SEQEND
  8
LAYER-1
  0
POLYLINE
  8
LAYER-1
 66
  1
 70
  1
 62
  0
 10
1.352116
 20
0.149089
 30
0.000000
  0
VERTEX
  8
LAYER-1
 10
1.352116
 20
0.149089
 30
0.000000
  0
VERTEX
  8
LAYER-1
 10
1.335623
 20
0.123916
 30
0.000000
  0
VERTEX
  8
LAYER-1
 10
1.350380
 20
0.116103
 30
0.000000
  0
SEQEND
  8
LAYER-1
  0
POLYLINE
  8
LAYER-1
 66
  1
 70
  0
 62
  0
 10
2.464095
 20
0.200739
 30
0.000000
  0
VERTEX
  8
LAYER-1
 10
2.464095
 20
0.200739
 30
0.000000
  0
VERTEX
  8
LAYER-1
 10
2.459755
 20
0.200739
 30
0.000000
  0
VERTEX
  8
LAYER-1
 10
2.456283
 20
0.196398
 30
0.000000
  0
VERTEX
  8
LAYER-1
 10
2.455414
 20
0.191191
 30
0.000000
  0
VERTEX
  8
LAYER-1
 10
2.457151
 20
0.186850
 30
0.000000
  0
VERTEX
  8
LAYER-1
 10
2.461491
 20
0.185114
 30
0.000000
  0
VERTEX
  8
LAYER-1
 10
2.465831
 20
0.185114
 30
0.000000
  0
VERTEX
  8
LAYER-1
 10
2.470172
 20
0.188586
 30
0.000000
  0
VERTEX
  8
LAYER-1
 10
2.470172
 20
0.192926
 30
0.000000
  0
VERTEX
  8
LAYER-1
 10
2.469303
 20
0.197267
 30
0.000000
  0
VERTEX
  8
LAYER-1
 10
2.464963
 20
0.199871
 30
0.000000
  0
SEQEND
  8
LAYER-1
  0
POLYLINE
  8
LAYER-1
 66
  1
 70
  1
 62
  0
 10
2.501422
 20
0.133030
 30
0.000000
  0
VERTEX
  8
LAYER-1
 10
2.501422
 20
0.133030
 30
0.000000
  0
VERTEX
  8
LAYER-1
 10
2.488401
 20
0.110461
 30
0.000000
  0
VERTEX
  8
LAYER-1
 10
2.518783
 20
0.131293
 30
0.000000
  0
SEQEND
  8
LAYER-1
  0
POLYLINE
  8
LAYER-1
 66
  1
 70
  1
 62
  0
 10
1.060348
 20
0.223401
 30
0.000000
  0
VERTEX
  8
LAYER-1
 10
1.060348
 20
0.223401
 30
0.000000
  0
VERTEX
  8
LAYER-1
 10
1.079713
 20
0.210716
 30
0.000000
  0
VERTEX
  8
LAYER-1
 10
1.085723
 20
0.222065
 30
0.000000
  0
SEQEND
  8
LAYER-1
  0
POLYLINE
  8
LAYER-1
 66
  1
 70
  0
 62
  0
 10
2.616005
 20
0.202475
 30
0.000000
  0
VERTEX
  8
LAYER-1
 10
2.616005
 20
0.202475
 30
0.000000
  0
VERTEX
  8
LAYER-1
 10
2.611664
 20
0.202475
 30
0.000000
  0
VERTEX
  8
LAYER-1
 10
2.608192
 20
0.198135
 30
0.000000
  0
VERTEX
  8
LAYER-1
 10
2.607324
 20
0.192926
 30
0.000000
  0
VERTEX
  8
LAYER-1
 10
2.609060
 20
0.188586
 30
0.000000
  0
VERTEX
  8
LAYER-1
 10
2.613401
 20
0.186850
 30
0.000000
  0
VERTEX
  8
LAYER-1
 10
2.617741
 20
0.186850
 30
0.000000
  0
VERTEX
  8
LAYER-1
 10
2.622081
 20
0.190322
 30
0.000000
  0
VERTEX
  8
LAYER-1
 10
2.622081
 20
0.194662
 30
0.000000
  0
VERTEX
  8
LAYER-1
 10
2.621213
 20
0.199003
 30
0.000000
  0
VERTEX
  8
LAYER-1
 10
2.616873
 20
0.201607
 30
0.000000
  0
SEQEND
  8
LAYER-1
  0
POLYLINE
  8
LAYER-1
 66
  1
 70
  0
 62
  0
 10
1.404199
 20
0.143013
 30
0.000000
  0
VERTEX
  8
LAYER-1
 10
1.404199
 20
0.143013
 30
0.000000
  0
VERTEX
  8
LAYER-1
 10
1.399858
 20
0.143013
 30
0.000000
  0
VERTEX
  8
LAYER-1
 10
1.396387
 20
0.138673
 30
0.000000
  0
VERTEX
  8
LAYER-1
 10
1.395519
 20
0.133464
 30
0.000000
  0
VERTEX
  8
LAYER-1
 10
1.397255
 20
0.129124
 30
0.000000
  0
VERTEX
  8
LAYER-1
 10
1.401594
 20
0.127388
 30
0.000000
  0
VERTEX
  8
LAYER-1
 10
1.405935
 20
0.127388
 30
0.000000
  0
VERTEX
  8
LAYER-1
 10
1.410275
 20
0.130860
 30
0.000000
  0
VERTEX
  8
LAYER-1
 10
1.410275
 20
0.135201
 30
0.000000
  0
VERTEX
  8
LAYER-1
 10
1.409407
 20
0.139542
 30
0.000000
  0
VERTEX
  8
LAYER-1
 10
1.405067
 20
0.142145
 30
0.000000
  0
SEQEND
  8
LAYER-1
  0
POLYLINE
  8
LAYER-1
 66
  1
 70
  0
 62
  0
 10
0.987532
 20
0.119576
 30
0.000000
  0
VERTEX
  8
LAYER-1
 10
0.987532
 20
0.119576
 30
0.000000
  0
VERTEX
  8
LAYER-1
 10
0.983191
 20
0.119576
 30
0.000000
  0
VERTEX
  8
LAYER-1
 10
0.979719
 20
0.115235
 30
0.000000
  0
VERTEX
  8
LAYER-1
 10
0.978852
 20
0.110027
 30
0.000000
  0
VERTEX
  8
LAYER-1
 10
0.980587
 20
0.105687
 30
0.000000
  0
VERTEX
  8
LAYER-1
 10
0.984927
 20
0.103951
 30
0.000000
  0
VERTEX
  8
LAYER-1
 10
0.989268
 20
0.103951
 30
0.000000
  0
VERTEX
  8
LAYER-1
 10
0.993608
 20
0.107423
 30
0.000000
  0
VERTEX
  8
LAYER-1
 10
0.993608
 20
0.111763
 30
0.000000
  0
VERTEX
  8
LAYER-1
 10
0.992740
 20
0.116104
 30
0.000000
  0
VERTEX
  8
LAYER-1
 10
0.988400
 20
0.118707
 30
0.000000
  0
SEQEND
  8
LAYER-1
  0
POLYLINE
  8
LAYER-1
 66
  1
 70
  1
 62
  0
 10
2.955414
 20
0.193794
 30
0.000000
  0
VERTEX
  8
LAYER-1
 10
2.955414
 20
0.193794
 30
0.000000
  0
VERTEX
  8
LAYER-1
 10
2.962359
 20
0.167754
 30
0.000000
  0
VERTEX
  8
LAYER-1
 10
2.987532
 20
0.181641
 30
0.000000
  0
SEQEND
  8
LAYER-1
  0
POLYLINE
  8
LAYER-1
 66
  1
 70
  1
 62
  0
 10
3.117741
 20
0.222442
 30
0.000000
  0
VERTEX
  8
LAYER-1
 10
3.117741
 20
0.222442
 30
0.000000
  0
VERTEX
  8
LAYER-1
 10
3.104719
 20
0.199871
 30
0.000000
  0
VERTEX
  8
LAYER-1
 10
3.135102
 20
0.220704
 30
0.000000
  0
SEQEND
  8
LAYER-1
  0
POLYLINE
  8
LAYER-1
 66
  1
 70
  1
 62
  0
 10
2.346039
 20
0.158205
 30
0.000000
  0
VERTEX
  8
LAYER-1
 10
2.346039
 20
0.158205
 30
0.000000
  0
VERTEX
  8
LAYER-1
 10
2.371213
 20
0.141711
 30
0.000000
  0
VERTEX
  8
LAYER-1
 10
2.379025
 20
0.156469
 30
0.000000
  0
SEQEND
  8
LAYER-1
  0
POLYLINE
  8
LAYER-1
 66
  1
 70
  0
 62
  0
 10
2.916352
 20
0.214629
 30
0.000000
  0
VERTEX
  8
LAYER-1
 10
2.916352
 20
0.214629
 30
0.000000
  0
VERTEX
  8
LAYER-1
 10
2.912011
 20
0.214629
 30
0.000000
  0
VERTEX
  8
LAYER-1
 10
2.908539
 20
0.210288
 30
0.000000
  0
VERTEX
  8
LAYER-1
 10
2.907671
 20
0.205081
 30
0.000000
  0
VERTEX
  8
LAYER-1
 10
2.909407
 20
0.200740
 30
0.000000
  0
VERTEX
  8
LAYER-1
 10
2.913748
 20
0.199004
 30
0.000000
  0
VERTEX
  8
LAYER-1
 10
2.918087
 20
0.199004
 30
0.000000
  0
VERTEX
  8
LAYER-1
 10
2.922428
 20
0.202476
 30
0.000000
  0
VERTEX
  8
LAYER-1
 10
2.922428
 20
0.206817
 30
0.000000
  0
VERTEX
  8
LAYER-1
 10
2.921560
 20
0.211157
 30
0.000000
  0
VERTEX
  8
LAYER-1
 10
2.917220
 20
0.213762
 30
0.000000
  0
SEQEND
  8
LAYER-1
  0
POLYLINE
  8
LAYER-1
 66
  1
 70
  1
 62
  0
 10
2.931978
 20
0.126087
 30
0.000000
  0
VERTEX
  8
LAYER-1
 10
2.931978
 20
0.126087
 30
0.000000
  0
VERTEX
  8
LAYER-1
 10
2.918956
 20
0.103516
 30
0.000000
  0
VERTEX
  8
LAYER-1
 10
2.949338
 20
0.124349
 30
0.000000
  0
SEQEND
  8
LAYER-1
  0
POLYLINE
  8
LAYER-1
 66
  1
 70
  1
 62
  0
 10
3.026428
 20
0.119674
 30
0.000000
  0
VERTEX
  8
LAYER-1
 10
3.026428
 20
0.119674
 30
0.000000
  0
VERTEX
  8
LAYER-1
 10
3.013741
 20
0.100310
 30
0.000000
  0
VERTEX
  8
LAYER-1
 10
3.025092
 20
0.094298
 30
0.000000
  0
SEQEND
  8
LAYER-1
  0
POLYLINE
  8
LAYER-1
 66
  1
 70
  0
 62
  0
 10
3.057845
 20
0.218969
 30
0.000000
  0
VERTEX
  8
LAYER-1
 10
3.057845
 20
0.218969
 30
0.000000
  0
VERTEX
  8
LAYER-1
 10
3.053505
 20
0.218969
 30
0.000000
  0
VERTEX
  8
LAYER-1
 10
3.050032
 20
0.214628
 30
0.000000
  0
VERTEX
  8
LAYER-1
 10
3.049164
 20
0.209420
 30
0.000000
  0
VERTEX
  8
LAYER-1
 10
3.050900
 20
0.205080
 30
0.000000
  0
VERTEX
  8
LAYER-1
 10
3.055241
 20
0.203344
 30
0.000000
  0
VERTEX
  8
LAYER-1
 10
3.059581
 20
0.203344
 30
0.000000
  0
VERTEX
  8
LAYER-1
 10
3.063921
 20
0.206816
 30
0.000000
  0
VERTEX
  8
LAYER-1
 10
3.063921
 20
0.211156
 30
0.000000
  0
VERTEX
  8
LAYER-1
 10
3.063053
 20
0.215497
 30
0.000000
  0
VERTEX
  8
LAYER-1
 10
3.058712
 20
0.218102
 30
0.000000
  0
SEQEND
  8
LAYER-1
  0
POLYLINE
  8
LAYER-1
 66
  1
 70
  0
 62
  0
 10
2.334755
 20
0.211156
 30
0.000000
  0
VERTEX
  8
LAYER-1
 10
2.334755
 20
0.211156
 30
0.000000
  0
VERTEX
  8
LAYER-1
 10
2.334755
 20
0.206816
 30
0.000000
  0
VERTEX
  8
LAYER-1
 10
2.339096
 20
0.203344
 30
0.000000
  0
VERTEX
  8
LAYER-1
 10
2.344304
 20
0.202475
 30
0.000000
  0
VERTEX
  8
LAYER-1
 10
2.348644
 20
0.204211
 30
0.000000
  0
VERTEX
  8
LAYER-1
 10
2.350380
 20
0.208551
 30
0.000000
  0
VERTEX
  8
LAYER-1
 10
2.350380
 20
0.212892
 30
0.000000
  0
VERTEX
  8
LAYER-1
 10
2.346908
 20
0.217233
 30
0.000000
  0
VERTEX
  8
LAYER-1
 10
2.342568
 20
0.217233
 30
0.000000
  0
VERTEX
  8
LAYER-1
 10
2.338227
 20
0.216364
 30
0.000000
  0
VERTEX
  8
LAYER-1
 10
2.335622
 20
0.212023
 30
0.000000
  0
SEQEND
  8
LAYER-1
  0
POLYLINE
  8
LAYER-1
 66
  1
 70
  0
 62
  0
 10
2.898122
 20
0.126953
 30
0.000000
  0
VERTEX
  8
LAYER-1
 10
2.898122
 20
0.126953
 30
0.000000
  0
VERTEX
  8
LAYER-1
 10
2.893781
 20
0.126953
 30
0.000000
  0
VERTEX
  8
LAYER-1
 10
2.890309
 20
0.122612
 30
0.000000
  0
VERTEX
  8
LAYER-1
 10
2.889441
 20
0.117405
 30
0.000000
  0
VERTEX
  8
LAYER-1
 10
2.891177
 20
0.113063
 30
0.000000
  0
VERTEX
  8
LAYER-1
 10
2.895518
 20
0.111328
 30
0.000000
  0
VERTEX
  8
LAYER-1
 10
2.899858
 20
0.111328
 30
0.000000
  0
VERTEX
  8
LAYER-1
 10
2.904198
 20
0.114799
 30
0.000000
  0
VERTEX
  8
LAYER-1
 10
2.904198
 20
0.119141
 30
0.000000
  0
VERTEX
  8
LAYER-1
 10
2.903330
 20
0.123481
 30
0.000000
  0
VERTEX
  8
LAYER-1
 10
2.898990
 20
0.126086
 30
0.000000
  0
SEQEND
  8
LAYER-1
  0
POLYLINE
  8
LAYER-1
 66
  1
 70
  1
 62
  0
 10
2.765311
 20
0.115236
 30
0.000000
  0
VERTEX
  8
LAYER-1
 10
2.765311
 20
0.115236
 30
0.000000
  0
VERTEX
  8
LAYER-1
 10
2.739269
 20
0.108292
 30
0.000000
  0
VERTEX
  8
LAYER-1
 10
2.753158
 20
0.083118
 30
0.000000
  0
SEQEND
  8
LAYER-1
  0
POLYLINE
  8
LAYER-1
 66
  1
 70
  1
 62
  0
 10
1.388575
 20
0.089628
 30
0.000000
  0
VERTEX
  8
LAYER-1
 10
1.388575
 20
0.089628
 30
0.000000
  0
VERTEX
  8
LAYER-1
 10
1.363400
 20
0.106121
 30
0.000000
  0
VERTEX
  8
LAYER-1
 10
1.355587
 20
0.091364
 30
0.000000
  0
SEQEND
  8
LAYER-1
  0
POLYLINE
  8
LAYER-1
 66
  1
 70
  0
 62
  0
 10
2.796561
 20
0.164714
 30
0.000000
  0
VERTEX
  8
LAYER-1
 10
2.796561
 20
0.164714
 30
0.000000
  0
VERTEX
  8
LAYER-1
 10
2.796561
 20
0.169056
 30
0.000000
  0
VERTEX
  8
LAYER-1
 10
2.792220
 20
0.172527
 30
0.000000
  0
VERTEX
  8
LAYER-1
 10
2.787013
 20
0.173395
 30
0.000000
  0
VERTEX
  8
LAYER-1
 10
2.782672
 20
0.171660
 30
0.000000
  0
VERTEX
  8
LAYER-1
 10
2.780936
 20
0.167319
 30
0.000000
  0
VERTEX
  8
LAYER-1
 10
2.780936
 20
0.162979
 30
0.000000
  0
VERTEX
  8
LAYER-1
 10
2.784408
 20
0.158639
 30
0.000000
  0
VERTEX
  8
LAYER-1
 10
2.788749
 20
0.158639
 30
0.000000
  0
VERTEX
  8
LAYER-1
 10
2.793089
 20
0.159506
 30
0.000000
  0
VERTEX
  8
LAYER-1
 10
2.795692
 20
0.163847
 30
0.000000
  0
SEQEND
  8
LAYER-1
  0
POLYLINE
  8
LAYER-1
 66
  1
 70
  1
 62
  0
 10
2.728852
 20
0.127389
 30
0.000000
  0
VERTEX
  8
LAYER-1
 10
2.728852
 20
0.127389
 30
0.000000
  0
VERTEX
  8
LAYER-1
 10
2.706283
 20
0.140410
 30
0.000000
  0
VERTEX
  8
LAYER-1
 10
2.727116
 20
0.110027
 30
0.000000
  0
SEQEND
  8
LAYER-1
  0
POLYLINE
  8
LAYER-1
 66
  1
 70
  1
 62
  0
 10
1.466366
 20
0.108891
 30
0.000000
  0
VERTEX
  8
LAYER-1
 10
1.466366
 20
0.108891
 30
0.000000
  0
VERTEX
  8
LAYER-1
 10
1.447000
 20
0.121578
 30
0.000000
  0
VERTEX
  8
LAYER-1
 10
1.440991
 20
0.110226
 30
0.000000
  0
SEQEND
  8
LAYER-1
  0
POLYLINE
  8
LAYER-1
 66
  1
 70
  0
 62
  0
 10
1.526596
 20
0.097441
 30
0.000000
  0
VERTEX
  8
LAYER-1
 10
1.526596
 20
0.097441
 30
0.000000
  0
VERTEX
  8
LAYER-1
 10
1.526596
 20
0.101780
 30
0.000000
  0
VERTEX
  8
LAYER-1
 10
1.522255
 20
0.105253
 30
0.000000
  0
VERTEX
  8
LAYER-1
 10
1.517048
 20
0.106121
 30
0.000000
  0
VERTEX
  8
LAYER-1
 10
1.512707
 20
0.104385
 30
0.000000
  0
VERTEX
  8
LAYER-1
 10
1.510971
 20
0.100044
 30
0.000000
  0
VERTEX
  8
LAYER-1
 10
1.510971
 20
0.095704
 30
0.000000
  0
VERTEX
  8
LAYER-1
 10
1.514443
 20
0.091364
 30
0.000000
  0
VERTEX
  8
LAYER-1
 10
1.518784
 20
0.091364
 30
0.000000
  0
VERTEX
  8
LAYER-1
 10
1.523124
 20
0.092232
 30
0.000000
  0
VERTEX
  8
LAYER-1
 10
1.525727
 20
0.096573
 30
0.000000
  0
SEQEND
  8
LAYER-1
  0
POLYLINE
  8
LAYER-1
 66
  1
 70
  0
 62
  0
 10
2.646388
 20
0.116972
 30
0.000000
  0
VERTEX
  8
LAYER-1
 10
2.646388
 20
0.116972
 30
0.000000
  0
VERTEX
  8
LAYER-1
 10
2.646388
 20
0.121312
 30
0.000000
  0
VERTEX
  8
LAYER-1
 10
2.642047
 20
0.124785
 30
0.000000
  0
VERTEX
  8
LAYER-1
 10
2.636839
 20
0.125652
 30
0.000000
  0
VERTEX
  8
LAYER-1
 10
2.632499
 20
0.123917
 30
0.000000
  0
VERTEX
  8
LAYER-1
 10
2.630763
 20
0.119576
 30
0.000000
  0
VERTEX
  8
LAYER-1
 10
2.630763
 20
0.115236
 30
0.000000
  0
VERTEX
  8
LAYER-1
 10
2.634235
 20
0.110895
 30
0.000000
  0
VERTEX
  8
LAYER-1
 10
2.638575
 20
0.110895
 30
0.000000
  0
VERTEX
  8
LAYER-1
 10
2.642916
 20
0.111764
 30
0.000000
  0
VERTEX
  8
LAYER-1
 10
2.645519
 20
0.116104
 30
0.000000
  0
SEQEND
  8
LAYER-1
  0
POLYLINE
  8
LAYER-1
 66
  1
 70
  1
 62
  0
 10
2.839095
 20
0.118275
 30
0.000000
  0
VERTEX
  8
LAYER-1
 10
2.839095
 20
0.118275
 30
0.000000
  0
VERTEX
  8
LAYER-1
 10
2.832150
 20
0.144316
 30
0.000000
  0
VERTEX
  8
LAYER-1
 10
2.806977
 20
0.130429
 30
0.000000
  0
SEQEND
  8
LAYER-1
  0
POLYLINE
  8
LAYER-1
 66
  1
 70
  1
 62
  0
 10
2.286144
 20
0.105253
 30
0.000000
  0
VERTEX
  8
LAYER-1
 10
2.286144
 20
0.105253
 30
0.000000
  0
VERTEX
  8
LAYER-1
 10
2.263573
 20
0.118275
 30
0.000000
  0
VERTEX
  8
LAYER-1
 10
2.284406
 20
0.087892
 30
0.000000
  0
SEQEND
  8
LAYER-1
  0
POLYLINE
  8
LAYER-1
 66
  1
 70
  1
 62
  0
 10
3.063922
 20
0.129560
 30
0.000000
  0
VERTEX
  8
LAYER-1
 10
3.063922
 20
0.129560
 30
0.000000
  0
VERTEX
  8
LAYER-1
 10
3.080415
 20
0.154733
 30
0.000000
  0
VERTEX
  8
LAYER-1
 10
3.065658
 20
0.162545
 30
0.000000
  0
SEQEND
  8
LAYER-1
  0
POLYLINE
  8
LAYER-1
 66
  1
 70
  0
 62
  0
 10
3.199338
 20
0.097438
 30
0.000000
  0
VERTEX
  8
LAYER-1
 10
3.199338
 20
0.097438
 30
0.000000
  0
VERTEX
  8
LAYER-1
 10
3.203679
 20
0.097438
 30
0.000000
  0
VERTEX
  8
LAYER-1
 10
3.207150
 20
0.101780
 30
0.000000
  0
VERTEX
  8
LAYER-1
 10
3.208018
 20
0.106987
 30
0.000000
  0
VERTEX
  8
LAYER-1
 10
3.206282
 20
0.111328
 30
0.000000
  0
VERTEX
  8
LAYER-1
 10
3.201942
 20
0.113063
 30
0.000000
  0
VERTEX
  8
LAYER-1
 10
3.197602
 20
0.113063
 30
0.000000
  0
VERTEX
  8
LAYER-1
 10
3.193261
 20
0.109592
 30
0.000000
  0
VERTEX
  8
LAYER-1
 10
3.193261
 20
0.105251
 30
0.000000
  0
VERTEX
  8
LAYER-1
 10
3.194129
 20
0.100911
 30
0.000000
  0
VERTEX
  8
LAYER-1
 10
3.198470
 20
0.098306
 30
0.000000
  0
SEQEND
  8
LAYER-1
  0
POLYLINE
  8
LAYER-1
 66
  1
 70
  1
 62
  0
 10
2.851247
 20
0.154733
 30
0.000000
  0
VERTEX
  8
LAYER-1
 10
2.851247
 20
0.154733
 30
0.000000
  0
VERTEX
  8
LAYER-1
 10
2.864268
 20
0.177304
 30
0.000000
  0
VERTEX
  8
LAYER-1
 10
2.833886
 20
0.156470
 30
0.000000
  0
SEQEND
  8
LAYER-1
  0
POLYLINE
  8
LAYER-1
 66
  1
 70
  1
 62
  0
 10
3.104887
 20
0.105588
 30
0.000000
  0
VERTEX
  8
LAYER-1
 10
3.104887
 20
0.105588
 30
0.000000
  0
VERTEX
  8
LAYER-1
 10
3.117574
 20
0.124953
 30
0.000000
  0
VERTEX
  8
LAYER-1
 10
3.106223
 20
0.130964
 30
0.000000
  0
SEQEND
  8
LAYER-1
  0
POLYLINE
  8
LAYER-1
 66
  1
 70
  0
 62
  0
 10
2.425900
 20
0.165150
 30
0.000000
  0
VERTEX
  8
LAYER-1
 10
2.425900
 20
0.165150
 30
0.000000
  0
VERTEX
  8
LAYER-1
 10
2.425900
 20
0.169489
 30
0.000000
  0
VERTEX
  8
LAYER-1
 10
2.421559
 20
0.172963
 30
0.000000
  0
VERTEX
  8
LAYER-1
 10
2.416351
 20
0.173830
 30
0.000000
  0
VERTEX
  8
LAYER-1
 10
2.412010
 20
0.172094
 30
0.000000
  0
VERTEX
  8
LAYER-1
 10
2.410275
 20
0.167753
 30
0.000000
  0
VERTEX
  8
LAYER-1
 10
2.410275
 20
0.163412
 30
0.000000
  0
VERTEX
  8
LAYER-1
 10
2.413746
 20
0.159074
 30
0.000000
  0
VERTEX
  8
LAYER-1
 10
2.418087
 20
0.159074
 30
0.000000
  0
VERTEX
  8
LAYER-1
 10
2.422428
 20
0.159941
 30
0.000000
  0
VERTEX
  8
LAYER-1
 10
2.425033
 20
0.164281
 30
0.000000
  0
SEQEND
  8
LAYER-1
  0
POLYLINE
  8
LAYER-1
 66
  1
 70
  0
 62
  0
 10
3.011838
 20
0.135636
 30
0.000000
  0
VERTEX
  8
LAYER-1
 10
3.011838
 20
0.135636
 30
0.000000
  0
VERTEX
  8
LAYER-1
 10
3.016179
 20
0.135636
 30
0.000000
  0
VERTEX
  8
LAYER-1
 10
3.019651
 20
0.139977
 30
0.000000
  0
VERTEX
  8
LAYER-1
 10
3.020519
 20
0.145185
 30
0.000000
  0
VERTEX
  8
LAYER-1
 10
3.018783
 20
0.149525
 30
0.000000
  0
VERTEX
  8
LAYER-1
 10
3.014442
 20
0.151261
 30
0.000000
  0
VERTEX
  8
LAYER-1
 10
3.010103
 20
0.151261
 30
0.000000
  0
VERTEX
  8
LAYER-1
 10
3.005762
 20
0.147789
 30
0.000000
  0
VERTEX
  8
LAYER-1
 10
3.005762
 20
0.143449
 30
0.000000
  0
VERTEX
  8
LAYER-1
 10
3.006630
 20
0.139108
 30
0.000000
  0
VERTEX
  8
LAYER-1
 10
3.010970
 20
0.136503
 30
0.000000
  0
SEQEND
  8
LAYER-1
  0
POLYLINE
  8
LAYER-1
 66
  1
 70
  0
 62
  0
 10
3.175901
 20
0.143449
 30
0.000000
  0
VERTEX
  8
LAYER-1
 10
3.175901
 20
0.143449
 30
0.000000
  0
VERTEX
  8
LAYER-1
 10
3.180241
 20
0.143449
 30
0.000000
  0
VERTEX
  8
LAYER-1
 10
3.183713
 20
0.147789
 30
0.000000
  0
VERTEX
  8
LAYER-1
 10
3.184581
 20
0.152997
 30
0.000000
  0
VERTEX
  8
LAYER-1
 10
3.182846
 20
0.157338
 30
0.000000
  0
VERTEX
  8
LAYER-1
 10
3.178505
 20
0.159074
 30
0.000000
  0
VERTEX
  8
LAYER-1
 10
3.174165
 20
0.159074
 30
0.000000
  0
VERTEX
  8
LAYER-1
 10
3.169824
 20
0.155602
 30
0.000000
  0
VERTEX
  8
LAYER-1
 10
3.169824
 20
0.151261
 30
0.000000
  0
VERTEX
  8
LAYER-1
 10
3.170692
 20
0.146920
 30
0.000000
  0
VERTEX
  8
LAYER-1
 10
3.175033
 20
0.144316
 30
0.000000
  0
SEQEND
  8
LAYER-1
  0
POLYLINE
  8
LAYER-1
 66
  1
 70
  1
 62
  0
 10
3.583019
 20
0.141713
 30
0.000000
  0
VERTEX
  8
LAYER-1
 10
3.583019
 20
0.141713
 30
0.000000
  0
VERTEX
  8
LAYER-1
 10
3.589962
 20
0.115671
 30
0.000000
  0
VERTEX
  8
LAYER-1
 10
3.615136
 20
0.129560
 30
0.000000
  0
SEQEND
  8
LAYER-1
  0
POLYLINE
  8
LAYER-1
 66
  1
 70
  1
 62
  0
 10
3.749251
 20
0.095706
 30
0.000000
  0
VERTEX
  8
LAYER-1
 10
3.749251
 20
0.095706
 30
0.000000
  0
VERTEX
  8
LAYER-1
 10
3.736229
 20
0.073136
 30
0.000000
  0
VERTEX
  8
LAYER-1
 10
3.766613
 20
0.093969
 30
0.000000
  0
SEQEND
  8
LAYER-1
  0
POLYLINE
  8
LAYER-1
 66
  1
 70
  1
 62
  0
 10
3.634232
 20
0.185980
 30
0.000000
  0
VERTEX
  8
LAYER-1
 10
3.634232
 20
0.185980
 30
0.000000
  0
VERTEX
  8
LAYER-1
 10
3.617741
 20
0.160806
 30
0.000000
  0
VERTEX
  8
LAYER-1
 10
3.632497
 20
0.152993
 30
0.000000
  0
SEQEND
  8
LAYER-1
  0
POLYLINE
  8
LAYER-1
 66
  1
 70
  0
 62
  0
 10
3.549165
 20
0.172963
 30
0.000000
  0
VERTEX
  8
LAYER-1
 10
3.549165
 20
0.172963
 30
0.000000
  0
VERTEX
  8
LAYER-1
 10
3.544824
 20
0.172963
 30
0.000000
  0
VERTEX
  8
LAYER-1
 10
3.541352
 20
0.168622
 30
0.000000
  0
VERTEX
  8
LAYER-1
 10
3.540482
 20
0.163414
 30
0.000000
  0
VERTEX
  8
LAYER-1
 10
3.542219
 20
0.159074
 30
0.000000
  0
VERTEX
  8
LAYER-1
 10
3.546560
 20
0.157338
 30
0.000000
  0
VERTEX
  8
LAYER-1
 10
3.550900
 20
0.157338
 30
0.000000
  0
VERTEX
  8
LAYER-1
 10
3.555239
 20
0.160810
 30
0.000000
  0
VERTEX
  8
LAYER-1
 10
3.555239
 20
0.165150
 30
0.000000
  0
VERTEX
  8
LAYER-1
 10
3.554372
 20
0.169491
 30
0.000000
  0
VERTEX
  8
LAYER-1
 10
3.550032
 20
0.172095
 30
0.000000
  0
SEQEND
  8
LAYER-1
  0
POLYLINE
  8
LAYER-1
 66
  1
 70
  1
 62
  0
 10
3.532671
 20
0.113064
 30
0.000000
  0
VERTEX
  8
LAYER-1
 10
3.532671
 20
0.113064
 30
0.000000
  0
VERTEX
  8
LAYER-1
 10
3.519651
 20
0.090495
 30
0.000000
  0
VERTEX
  8
LAYER-1
 10
3.550032
 20
0.111328
 30
0.000000
  0
SEQEND
  8
LAYER-1
  0
POLYLINE
  8
LAYER-1
 66
  1
 70
  1
 62
  0
 10
3.588125
 20
0.211419
 30
0.000000
  0
VERTEX
  8
LAYER-1
 10
3.588125
 20
0.211419
 30
0.000000
  0
VERTEX
  8
LAYER-1
 10
3.607491
 20
0.198731
 30
0.000000
  0
VERTEX
  8
LAYER-1
 10
3.613501
 20
0.210083
 30
0.000000
  0
SEQEND
  8
LAYER-1
  0
POLYLINE
  8
LAYER-1
 66
  1
 70
  0
 62
  0
 10
3.472774
 20
0.162667
 30
0.000000
  0
VERTEX
  8
LAYER-1
 10
3.472774
 20
0.162667
 30
0.000000
  0
VERTEX
  8
LAYER-1
 10
3.468434
 20
0.162667
 30
0.000000
  0
VERTEX
  8
LAYER-1
 10
3.464962
 20
0.158327
 30
0.000000
  0
VERTEX
  8
LAYER-1
 10
3.464094
 20
0.153119
 30
0.000000
  0
VERTEX
  8
LAYER-1
 10
3.465830
 20
0.148778
 30
0.000000
  0
VERTEX
  8
LAYER-1
 10
3.470170
 20
0.147042
 30
0.000000
  0
VERTEX
  8
LAYER-1
 10
3.474511
 20
0.147042
 30
0.000000
  0
VERTEX
  8
LAYER-1
 10
3.478850
 20
0.150514
 30
0.000000
  0
VERTEX
  8
LAYER-1
 10
3.478850
 20
0.154855
 30
0.000000
  0
VERTEX
  8
LAYER-1
 10
3.477983
 20
0.159196
 30
0.000000
  0
VERTEX
  8
LAYER-1
 10
3.473643
 20
0.161799
 30
0.000000
  0
SEQEND
  8
LAYER-1
  0
POLYLINE
  8
LAYER-1
 66
  1
 70
  0
 62
  0
 10
3.849513
 20
0.134763
 30
0.000000
  0
VERTEX
  8
LAYER-1
 10
3.849513
 20
0.134763
 30
0.000000
  0
VERTEX
  8
LAYER-1
 10
3.845173
 20
0.134763
 30
0.000000
  0
VERTEX
  8
LAYER-1
 10
3.841700
 20
0.130423
 30
0.000000
  0
VERTEX
  8
LAYER-1
 10
3.840832
 20
0.125215
 30
0.000000
  0
VERTEX
  8
LAYER-1
 10
3.842568
 20
0.120874
 30
0.000000
  0
VERTEX
  8
LAYER-1
 10
3.846909
 20
0.119138
 30
0.000000
  0
VERTEX
  8
LAYER-1
 10
3.851248
 20
0.119138
 30
0.000000
  0
VERTEX
  8
LAYER-1
 10
3.855589
 20
0.122610
 30
0.000000
  0
VERTEX
  8
LAYER-1
 10
3.855589
 20
0.126951
 30
0.000000
  0
VERTEX
  8
LAYER-1
 10
3.854721
 20
0.131292
 30
0.000000
  0
VERTEX
  8
LAYER-1
 10
3.850380
 20
0.133895
 30
0.000000
  0
SEQEND
  8
LAYER-1
  0
POLYLINE
  8
LAYER-1
 66
  1
 70
  0
 62
  0
 10
3.581282
 20
0.106120
 30
0.000000
  0
VERTEX
  8
LAYER-1
 10
3.581282
 20
0.106120
 30
0.000000
  0
VERTEX
  8
LAYER-1
 10
3.576942
 20
0.106120
 30
0.000000
  0
VERTEX
  8
LAYER-1
 10
3.573469
 20
0.101780
 30
0.000000
  0
VERTEX
  8
LAYER-1
 10
3.572601
 20
0.096572
 30
0.000000
  0
VERTEX
  8
LAYER-1
 10
3.574337
 20
0.092231
 30
0.000000
  0
VERTEX
  8
LAYER-1
 10
3.578678
 20
0.090495
 30
0.000000
  0
VERTEX
  8
LAYER-1
 10
3.583018
 20
0.090495
 30
0.000000
  0
VERTEX
  8
LAYER-1
 10
3.587358
 20
0.093967
 30
0.000000
  0
VERTEX
  8
LAYER-1
 10
3.587358
 20
0.098307
 30
0.000000
  0
VERTEX
  8
LAYER-1
 10
3.586491
 20
0.102648
 30
0.000000
  0
VERTEX
  8
LAYER-1
 10
3.582150
 20
0.105252
 30
0.000000
  0
SEQEND
  8
LAYER-1
  0
POLYLINE
  8
LAYER-1
 66
  1
 70
  1
 62
  0
 10
3.379459
 20
0.165583
 30
0.000000
  0
VERTEX
  8
LAYER-1
 10
3.379459
 20
0.165583
 30
0.000000
  0
VERTEX
  8
LAYER-1
 10
3.353419
 20
0.158639
 30
0.000000
  0
VERTEX
  8
LAYER-1
 10
3.367306
 20
0.133466
 30
0.000000
  0
SEQEND
  8
LAYER-1
  0
POLYLINE
  8
LAYER-1
 66
  1
 70
  1
 62
  0
 10
3.286578
 20
0.114368
 30
0.000000
  0
VERTEX
  8
LAYER-1
 10
3.286578
 20
0.114368
 30
0.000000
  0
VERTEX
  8
LAYER-1
 10
3.264008
 20
0.127389
 30
0.000000
  0
VERTEX
  8
LAYER-1
 10
3.284840
 20
0.097007
 30
0.000000
  0
SEQEND
  8
LAYER-1
  0
POLYLINE
  8
LAYER-1
 66
  1
 70
  1
 62
  0
 10
3.250119
 20
0.159504
 30
0.000000
  0
VERTEX
  8
LAYER-1
 10
3.250119
 20
0.159504
 30
0.000000
  0
VERTEX
  8
LAYER-1
 10
3.224946
 20
0.175997
 30
0.000000
  0
VERTEX
  8
LAYER-1
 10
3.217133
 20
0.161240
 30
0.000000
  0
SEQEND
  8
LAYER-1
  0
POLYLINE
  8
LAYER-1
 66
  1
 70
  0
 62
  0
 10
3.410709
 20
0.215062
 30
0.000000
  0
VERTEX
  8
LAYER-1
 10
3.410709
 20
0.215062
 30
0.000000
  0
VERTEX
  8
LAYER-1
 10
3.410709
 20
0.219404
 30
0.000000
  0
VERTEX
  8
LAYER-1
 10
3.406369
 20
0.222875
 30
0.000000
  0
VERTEX
  8
LAYER-1
 10
3.401161
 20
0.223743
 30
0.000000
  0
VERTEX
  8
LAYER-1
 10
3.396820
 20
0.222007
 30
0.000000
  0
VERTEX
  8
LAYER-1
 10
3.395084
 20
0.217667
 30
0.000000
  0
VERTEX
  8
LAYER-1
 10
3.395084
 20
0.213326
 30
0.000000
  0
VERTEX
  8
LAYER-1
 10
3.398556
 20
0.208986
 30
0.000000
  0
VERTEX
  8
LAYER-1
 10
3.402897
 20
0.208986
 30
0.000000
  0
VERTEX
  8
LAYER-1
 10
3.407238
 20
0.209854
 30
0.000000
  0
VERTEX
  8
LAYER-1
 10
3.409843
 20
0.214194
 30
0.000000
  0
SEQEND
  8
LAYER-1
  0
POLYLINE
  8
LAYER-1
 66
  1
 70
  1
 62
  0
 10
3.343002
 20
0.177736
 30
0.000000
  0
VERTEX
  8
LAYER-1
 10
3.343002
 20
0.177736
 30
0.000000
  0
VERTEX
  8
LAYER-1
 10
3.320431
 20
0.190757
 30
0.000000
  0
VERTEX
  8
LAYER-1
 10
3.341264
 20
0.160375
 30
0.000000
  0
SEQEND
  8
LAYER-1
  0
POLYLINE
  8
LAYER-1
 66
  1
 70
  1
 62
  0
 10
3.294656
 20
0.184777
 30
0.000000
  0
VERTEX
  8
LAYER-1
 10
3.294656
 20
0.184777
 30
0.000000
  0
VERTEX
  8
LAYER-1
 10
3.281969
 20
0.165414
 30
0.000000
  0
VERTEX
  8
LAYER-1
 10
3.293320
 20
0.159403
 30
0.000000
  0
SEQEND
  8
LAYER-1
  0
POLYLINE
  8
LAYER-1
 66
  1
 70
  0
 62
  0
 10
3.412445
 20
0.087457
 30
0.000000
  0
VERTEX
  8
LAYER-1
 10
3.412445
 20
0.087457
 30
0.000000
  0
VERTEX
  8
LAYER-1
 10
3.412445
 20
0.091798
 30
0.000000
  0
VERTEX
  8
LAYER-1
 10
3.408105
 20
0.095270
 30
0.000000
  0
VERTEX
  8
LAYER-1
 10
3.402897
 20
0.096138
 30
0.000000
  0
VERTEX
  8
LAYER-1
 10
3.398556
 20
0.094402
 30
0.000000
  0
VERTEX
  8
LAYER-1
 10
3.396820
 20
0.090062
 30
0.000000
  0
VERTEX
  8
LAYER-1
 10
3.396820
 20
0.085720
 30
0.000000
  0
VERTEX
  8
LAYER-1
 10
3.400292
 20
0.081381
 30
0.000000
  0
VERTEX
  8
LAYER-1
 10
3.404633
 20
0.081381
 30
0.000000
  0
VERTEX
  8
LAYER-1
 10
3.408974
 20
0.082249
 30
0.000000
  0
VERTEX
  8
LAYER-1
 10
3.411578
 20
0.086589
 30
0.000000
  0
SEQEND
  8
LAYER-1
  0
POLYLINE
  8
LAYER-1
 66
  1
 70
  0
 62
  0
 10
3.330848
 20
0.088326
 30
0.000000
  0
VERTEX
  8
LAYER-1
 10
3.330848
 20
0.088326
 30
0.000000
  0
VERTEX
  8
LAYER-1
 10
3.330848
 20
0.092667
 30
0.000000
  0
VERTEX
  8
LAYER-1
 10
3.326507
 20
0.096138
 30
0.000000
  0
VERTEX
  8
LAYER-1
 10
3.321300
 20
0.097006
 30
0.000000
  0
VERTEX
  8
LAYER-1
 10
3.316959
 20
0.095270
 30
0.000000
  0
VERTEX
  8
LAYER-1
 10
3.315223
 20
0.090930
 30
0.000000
  0
VERTEX
  8
LAYER-1
 10
3.315223
 20
0.086589
 30
0.000000
  0
VERTEX
  8
LAYER-1
 10
3.318695
 20
0.082249
 30
0.000000
  0
VERTEX
  8
LAYER-1
 10
3.323035
 20
0.082249
 30
0.000000
  0
VERTEX
  8
LAYER-1
 10
3.327376
 20
0.083117
 30
0.000000
  0
VERTEX
  8
LAYER-1
 10
3.329981
 20
0.087457
 30
0.000000
  0
SEQEND
  8
LAYER-1
  0
POLYLINE
  8
LAYER-1
 66
  1
 70
  0
 62
  0
 10
3.260536
 20
0.198569
 30
0.000000
  0
VERTEX
  8
LAYER-1
 10
3.260536
 20
0.198569
 30
0.000000
  0
VERTEX
  8
LAYER-1
 10
3.260536
 20
0.202910
 30
0.000000
  0
VERTEX
  8
LAYER-1
 10
3.256195
 20
0.206381
 30
0.000000
  0
VERTEX
  8
LAYER-1
 10
3.250988
 20
0.207249
 30
0.000000
  0
VERTEX
  8
LAYER-1
 10
3.246647
 20
0.205513
 30
0.000000
  0
VERTEX
  8
LAYER-1
 10
3.244911
 20
0.201173
 30
0.000000
  0
VERTEX
  8
LAYER-1
 10
3.244911
 20
0.196832
 30
0.000000
  0
VERTEX
  8
LAYER-1
 10
3.248383
 20
0.192492
 30
0.000000
  0
VERTEX
  8
LAYER-1
 10
3.252724
 20
0.192492
 30
0.000000
  0
VERTEX
  8
LAYER-1
 10
3.257064
 20
0.193360
 30
0.000000
  0
VERTEX
  8
LAYER-1
 10
3.259669
 20
0.197701
 30
0.000000
  0
SEQEND
  8
LAYER-1
  0
POLYLINE
  8
LAYER-1
 66
  1
 70
  1
 62
  0
 10
4.043087
 20
0.188154
 30
0.000000
  0
VERTEX
  8
LAYER-1
 10
4.043087
 20
0.188154
 30
0.000000
  0
VERTEX
  8
LAYER-1
 10
4.050032
 20
0.162112
 30
0.000000
  0
VERTEX
  8
LAYER-1
 10
4.075205
 20
0.176000
 30
0.000000
  0
SEQEND
  8
LAYER-1
  0
POLYLINE
  8
LAYER-1
 66
  1
 70
  1
 62
  0
 10
4.205414
 20
0.216799
 30
0.000000
  0
VERTEX
  8
LAYER-1
 10
4.205414
 20
0.216799
 30
0.000000
  0
VERTEX
  8
LAYER-1
 10
4.192393
 20
0.194230
 30
0.000000
  0
VERTEX
  8
LAYER-1
 10
4.222775
 20
0.215062
 30
0.000000
  0
SEQEND
  8
LAYER-1
  0
POLYLINE
  8
LAYER-1
 66
  1
 70
  1
 62
  0
 10
4.184581
 20
0.131728
 30
0.000000
  0
VERTEX
  8
LAYER-1
 10
4.184581
 20
0.131728
 30
0.000000
  0
VERTEX
  8
LAYER-1
 10
4.168088
 20
0.106554
 30
0.000000
  0
VERTEX
  8
LAYER-1
 10
4.182845
 20
0.098741
 30
0.000000
  0
SEQEND
  8
LAYER-1
  0
POLYLINE
  8
LAYER-1
 66
  1
 70
  0
 62
  0
 10
3.993608
 20
0.219404
 30
0.000000
  0
VERTEX
  8
LAYER-1
 10
3.993608
 20
0.219404
 30
0.000000
  0
VERTEX
  8
LAYER-1
 10
3.989268
 20
0.219404
 30
0.000000
  0
VERTEX
  8
LAYER-1
 10
3.985796
 20
0.215062
 30
0.000000
  0
VERTEX
  8
LAYER-1
 10
3.984928
 20
0.209855
 30
0.000000
  0
VERTEX
  8
LAYER-1
 10
3.986664
 20
0.205514
 30
0.000000
  0
VERTEX
  8
LAYER-1
 10
3.991005
 20
0.203779
 30
0.000000
  0
VERTEX
  8
LAYER-1
 10
3.995344
 20
0.203779
 30
0.000000
  0
VERTEX
  8
LAYER-1
 10
3.999685
 20
0.207250
 30
0.000000
  0
VERTEX
  8
LAYER-1
 10
3.999685
 20
0.211591
 30
0.000000
  0
VERTEX
  8
LAYER-1
 10
3.998817
 20
0.215931
 30
0.000000
  0
VERTEX
  8
LAYER-1
 10
3.994476
 20
0.218536
 30
0.000000
  0
SEQEND
  8
LAYER-1
  0
POLYLINE
  8
LAYER-1
 66
  1
 70
  1
 62
  0
 10
4.014875
 20
0.151260
 30
0.000000
  0
VERTEX
  8
LAYER-1
 10
4.014875
 20
0.151260
 30
0.000000
  0
VERTEX
  8
LAYER-1
 10
4.037444
 20
0.138239
 30
0.000000
  0
VERTEX
  8
LAYER-1
 10
4.016611
 20
0.168620
 30
0.000000
  0
SEQEND
  8
LAYER-1
  0
POLYLINE
  8
LAYER-1
 66
  1
 70
  1
 62
  0
 10
4.131529
 20
0.143279
 30
0.000000
  0
VERTEX
  8
LAYER-1
 10
4.131529
 20
0.143279
 30
0.000000
  0
VERTEX
  8
LAYER-1
 10
4.150894
 20
0.130591
 30
0.000000
  0
VERTEX
  8
LAYER-1
 10
4.156904
 20
0.141943
 30
0.000000
  0
SEQEND
  8
LAYER-1
  0
POLYLINE
  8
LAYER-1
 66
  1
 70
  0
 62
  0
 10
4.145518
 20
0.221139
 30
0.000000
  0
VERTEX
  8
LAYER-1
 10
4.145518
 20
0.221139
 30
0.000000
  0
VERTEX
  8
LAYER-1
 10
4.141178
 20
0.221139
 30
0.000000
  0
VERTEX
  8
LAYER-1
 10
4.137705
 20
0.216799
 30
0.000000
  0
VERTEX
  8
LAYER-1
 10
4.136837
 20
0.211591
 30
0.000000
  0
VERTEX
  8
LAYER-1
 10
4.138573
 20
0.207250
 30
0.000000
  0
VERTEX
  8
LAYER-1
 10
4.142914
 20
0.205514
 30
0.000000
  0
VERTEX
  8
LAYER-1
 10
4.147255
 20
0.205514
 30
0.000000
  0
VERTEX
  8
LAYER-1
 10
4.151594
 20
0.208986
 30
0.000000
  0
VERTEX
  8
LAYER-1
 10
4.151594
 20
0.213326
 30
0.000000
  0
VERTEX
  8
LAYER-1
 10
4.150726
 20
0.217667
 30
0.000000
  0
VERTEX
  8
LAYER-1
 10
4.146386
 20
0.220271
 30
0.000000
  0
SEQEND
  8
LAYER-1
  0
POLYLINE
  8
LAYER-1
 66
  1
 70
  0
 62
  0
 10
4.229720
 20
0.094401
 30
0.000000
  0
VERTEX
  8
LAYER-1
 10
4.229720
 20
0.094401
 30
0.000000
  0
VERTEX
  8
LAYER-1
 10
4.225380
 20
0.094401
 30
0.000000
  0
VERTEX
  8
LAYER-1
 10
4.221908
 20
0.090061
 30
0.000000
  0
VERTEX
  8
LAYER-1
 10
4.221040
 20
0.084853
 30
0.000000
  0
VERTEX
  8
LAYER-1
 10
4.222776
 20
0.080512
 30
0.000000
  0
VERTEX
  8
LAYER-1
 10
4.227116
 20
0.078776
 30
0.000000
  0
VERTEX
  8
LAYER-1
 10
4.231456
 20
0.078776
 30
0.000000
  0
VERTEX
  8
LAYER-1
 10
4.235797
 20
0.082248
 30
0.000000
  0
VERTEX
  8
LAYER-1
 10
4.235797
 20
0.086589
 30
0.000000
  0
VERTEX
  8
LAYER-1
 10
4.234928
 20
0.090930
 30
0.000000
  0
VERTEX
  8
LAYER-1
 10
4.230588
 20
0.093533
 30
0.000000
  0
SEQEND
  8
LAYER-1
  0
POLYLINE
  8
LAYER-1
 66
  1
 70
  0
 62
  0
 10
4.076074
 20
0.149087
 30
0.000000
  0
VERTEX
  8
LAYER-1
 10
4.076074
 20
0.149087
 30
0.000000
  0
VERTEX
  8
LAYER-1
 10
4.071733
 20
0.149087
 30
0.000000
  0
VERTEX
  8
LAYER-1
 10
4.068261
 20
0.144747
 30
0.000000
  0
VERTEX
  8
LAYER-1
 10
4.067394
 20
0.139538
 30
0.000000
  0
VERTEX
  8
LAYER-1
 10
4.069130
 20
0.135198
 30
0.000000
  0
VERTEX
  8
LAYER-1
 10
4.073469
 20
0.133462
 30
0.000000
  0
VERTEX
  8
LAYER-1
 10
4.077810
 20
0.133462
 30
0.000000
  0
VERTEX
  8
LAYER-1
 10
4.082151
 20
0.136934
 30
0.000000
  0
VERTEX
  8
LAYER-1
 10
4.082151
 20
0.141274
 30
0.000000
  0
VERTEX
  8
LAYER-1
 10
4.081282
 20
0.145615
 30
0.000000
  0
VERTEX
  8
LAYER-1
 10
4.076942
 20
0.148219
 30
0.000000
  0
SEQEND
  8
LAYER-1
  0
POLYLINE
  8
LAYER-1
 66
  1
 70
  1
 62
  0
 10
3.911145
 20
0.157768
 30
0.000000
  0
VERTEX
  8
LAYER-1
 10
3.911145
 20
0.157768
 30
0.000000
  0
VERTEX
  8
LAYER-1
 10
3.904199
 20
0.183809
 30
0.000000
  0
VERTEX
  8
LAYER-1
 10
3.879026
 20
0.169922
 30
0.000000
  0
SEQEND
  8
LAYER-1
  0
POLYLINE
  8
LAYER-1
 66
  1
 70
  1
 62
  0
 10
3.500120
 20
0.189451
 30
0.000000
  0
VERTEX
  8
LAYER-1
 10
3.500120
 20
0.189451
 30
0.000000
  0
VERTEX
  8
LAYER-1
 10
3.513140
 20
0.212023
 30
0.000000
  0
VERTEX
  8
LAYER-1
 10
3.482759
 20
0.191189
 30
0.000000
  0
SEQEND
  8
LAYER-1
  0
POLYLINE
  8
LAYER-1
 66
  1
 70
  1
 62
  0
 10
3.797428
 20
0.182944
 30
0.000000
  0
VERTEX
  8
LAYER-1
 10
3.797428
 20
0.182944
 30
0.000000
  0
VERTEX
  8
LAYER-1
 10
3.813922
 20
0.208117
 30
0.000000
  0
VERTEX
  8
LAYER-1
 10
3.799164
 20
0.215930
 30
0.000000
  0
SEQEND
  8
LAYER-1
  0
POLYLINE
  8
LAYER-1
 66
  1
 70
  0
 62
  0
 10
3.960623
 20
0.126518
 30
0.000000
  0
VERTEX
  8
LAYER-1
 10
3.960623
 20
0.126518
 30
0.000000
  0
VERTEX
  8
LAYER-1
 10
3.964963
 20
0.126518
 30
0.000000
  0
VERTEX
  8
LAYER-1
 10
3.968435
 20
0.130859
 30
0.000000
  0
VERTEX
  8
LAYER-1
 10
3.969304
 20
0.136067
 30
0.000000
  0
VERTEX
  8
LAYER-1
 10
3.967568
 20
0.140407
 30
0.000000
  0
VERTEX
  8
LAYER-1
 10
3.963227
 20
0.142143
 30
0.000000
  0
VERTEX
  8
LAYER-1
 10
3.958886
 20
0.142143
 30
0.000000
  0
VERTEX
  8
LAYER-1
 10
3.954546
 20
0.138672
 30
0.000000
  0
VERTEX
  8
LAYER-1
 10
3.954546
 20
0.134331
 30
0.000000
  0
VERTEX
  8
LAYER-1
 10
3.955415
 20
0.129990
 30
0.000000
  0
VERTEX
  8
LAYER-1
 10
3.959755
 20
0.127385
 30
0.000000
  0
SEQEND
  8
LAYER-1
  0
POLYLINE
  8
LAYER-1
 66
  1
 70
  1
 62
  0
 10
3.914616
 20
0.123048
 30
0.000000
  0
VERTEX
  8
LAYER-1
 10
3.914616
 20
0.123048
 30
0.000000
  0
VERTEX
  8
LAYER-1
 10
3.927636
 20
0.145618
 30
0.000000
  0
VERTEX
  8
LAYER-1
 10
3.897255
 20
0.124786
 30
0.000000
  0
SEQEND
  8
LAYER-1
  0
POLYLINE
  8
LAYER-1
 66
  1
 70
  1
 62
  0
 10
3.860029
 20
0.164448
 30
0.000000
  0
VERTEX
  8
LAYER-1
 10
3.860029
 20
0.164448
 30
0.000000
  0
VERTEX
  8
LAYER-1
 10
3.840665
 20
0.177136
 30
0.000000
  0
VERTEX
  8
LAYER-1
 10
3.834654
 20
0.165784
 30
0.000000
  0
SEQEND
  8
LAYER-1
  0
POLYLINE
  8
LAYER-1
 66
  1
 70
  0
 62
  0
 10
3.836923
 20
0.061104
 30
0.000000
  0
VERTEX
  8
LAYER-1
 10
3.836923
 20
0.061104
 30
0.000000
  0
VERTEX
  8
LAYER-1
 10
3.841264
 20
0.061104
 30
0.000000
  0
VERTEX
  8
LAYER-1
 10
3.844735
 20
0.065445
 30
0.000000
  0
VERTEX
  8
LAYER-1
 10
3.845604
 20
0.070652
 30
0.000000
  0
VERTEX
  8
LAYER-1
 10
3.843869
 20
0.074993
 30
0.000000
  0
VERTEX
  8
LAYER-1
 10
3.839528
 20
0.076729
 30
0.000000
  0
VERTEX
  8
LAYER-1
 10
3.835187
 20
0.076729
 30
0.000000
  0
VERTEX
  8
LAYER-1
 10
3.830847
 20
0.073257
 30
0.000000
  0
VERTEX
  8
LAYER-1
 10
3.830847
 20
0.068916
 30
0.000000
  0
VERTEX
  8
LAYER-1
 10
3.831715
 20
0.064576
 30
0.000000
  0
VERTEX
  8
LAYER-1
 10
3.836056
 20
0.061971
 30
0.000000
  0
SEQEND
  8
LAYER-1
  0
POLYLINE
  8
LAYER-1
 66
  1
 70
  0
 62
  0
 10
3.747080
 20
0.203899
 30
0.000000
  0
VERTEX
  8
LAYER-1
 10
3.747080
 20
0.203899
 30
0.000000
  0
VERTEX
  8
LAYER-1
 10
3.751421
 20
0.203899
 30
0.000000
  0
VERTEX
  8
LAYER-1
 10
3.754893
 20
0.208240
 30
0.000000
  0
VERTEX
  8
LAYER-1
 10
3.755760
 20
0.213448
 30
0.000000
  0
VERTEX
  8
LAYER-1
 10
3.754024
 20
0.217789
 30
0.000000
  0
VERTEX
  8
LAYER-1
 10
3.749683
 20
0.219524
 30
0.000000
  0
VERTEX
  8
LAYER-1
 10
3.745344
 20
0.219524
 30
0.000000
  0
VERTEX
  8
LAYER-1
 10
3.741004
 20
0.216053
 30
0.000000
  0
VERTEX
  8
LAYER-1
 10
3.741004
 20
0.211711
 30
0.000000
  0
VERTEX
  8
LAYER-1
 10
3.741870
 20
0.207371
 30
0.000000
  0
VERTEX
  8
LAYER-1
 10
3.746211
 20
0.204766
 30
0.000000
  0
SEQEND
  8
LAYER-1
  0
POLYLINE
  8
LAYER-1
 66
  1
 70
  0
 62
  0
 10
3.909408
 20
0.196832
 30
0.000000
  0
VERTEX
  8
LAYER-1
 10
3.909408
 20
0.196832
 30
0.000000
  0
VERTEX
  8
LAYER-1
 10
3.913748
 20
0.196832
 30
0.000000
  0
VERTEX
  8
LAYER-1
 10
3.917220
 20
0.201174
 30
0.000000
  0
VERTEX
  8
LAYER-1
 10
3.918087
 20
0.206381
 30
0.000000
  0
VERTEX
  8
LAYER-1
 10
3.916351
 20
0.210722
 30
0.000000
  0
VERTEX
  8
LAYER-1
 10
3.912011
 20
0.212457
 30
0.000000
  0
VERTEX
  8
LAYER-1
 10
3.907672
 20
0.212457
 30
0.000000
  0
VERTEX
  8
LAYER-1
 10
3.903331
 20
0.208986
 30
0.000000
  0
VERTEX
  8
LAYER-1
 10
3.903331
 20
0.204645
 30
0.000000
  0
VERTEX
  8
LAYER-1
 10
3.904198
 20
0.200305
 30
0.000000
  0
VERTEX
  8
LAYER-1
 10
3.908539
 20
0.197700
 30
0.000000
  0
SEQEND
  8
LAYER-1
  0
POLYLINE
  8
LAYER-1
 66
  1
 70
  1
 62
  0
 10
4.665482
 20
0.166018
 30
0.000000
  0
VERTEX
  8
LAYER-1
 10
4.665482
 20
0.166018
 30
0.000000
  0
VERTEX
  8
LAYER-1
 10
4.672427
 20
0.139977
 30
0.000000
  0
VERTEX
  8
LAYER-1
 10
4.697600
 20
0.153865
 30
0.000000
  0
SEQEND
  8
LAYER-1
  0
POLYLINE
  8
LAYER-1
 66
  1
 70
  1
 62
  0
 10
4.792217
 20
0.201608
 30
0.000000
  0
VERTEX
  8
LAYER-1
 10
4.792217
 20
0.201608
 30
0.000000
  0
VERTEX
  8
LAYER-1
 10
4.779197
 20
0.179039
 30
0.000000
  0
VERTEX
  8
LAYER-1
 10
4.809578
 20
0.199872
 30
0.000000
  0
SEQEND
  8
LAYER-1
  0
POLYLINE
  8
LAYER-1
 66
  1
 70
  1
 62
  0
 10
4.467567
 20
0.190325
 30
0.000000
  0
VERTEX
  8
LAYER-1
 10
4.467567
 20
0.190325
 30
0.000000
  0
VERTEX
  8
LAYER-1
 10
4.451074
 20
0.165150
 30
0.000000
  0
VERTEX
  8
LAYER-1
 10
4.465831
 20
0.157338
 30
0.000000
  0
SEQEND
  8
LAYER-1
  0
POLYLINE
  8
LAYER-1
 66
  1
 70
  0
 62
  0
 10
4.577809
 20
0.182514
 30
0.000000
  0
VERTEX
  8
LAYER-1
 10
4.577809
 20
0.182514
 30
0.000000
  0
VERTEX
  8
LAYER-1
 10
4.573469
 20
0.182514
 30
0.000000
  0
VERTEX
  8
LAYER-1
 10
4.569997
 20
0.178173
 30
0.000000
  0
VERTEX
  8
LAYER-1
 10
4.569128
 20
0.172965
 30
0.000000
  0
VERTEX
  8
LAYER-1
 10
4.570864
 20
0.168625
 30
0.000000
  0
VERTEX
  8
LAYER-1
 10
4.575204
 20
0.166889
 30
0.000000
  0
VERTEX
  8
LAYER-1
 10
4.579545
 20
0.166889
 30
0.000000
  0
VERTEX
  8
LAYER-1
 10
4.583885
 20
0.170361
 30
0.000000
  0
VERTEX
  8
LAYER-1
 10
4.583885
 20
0.174701
 30
0.000000
  0
VERTEX
  8
LAYER-1
 10
4.583017
 20
0.179042
 30
0.000000
  0
VERTEX
  8
LAYER-1
 10
4.578676
 20
0.181646
 30
0.000000
  0
SEQEND
  8
LAYER-1
  0
POLYLINE
  8
LAYER-1
 66
  1
 70
  1
 62
  0
 10
4.607323
 20
0.136504
 30
0.000000
  0
VERTEX
  8
LAYER-1
 10
4.607323
 20
0.136504
 30
0.000000
  0
VERTEX
  8
LAYER-1
 10
4.594302
 20
0.113935
 30
0.000000
  0
VERTEX
  8
LAYER-1
 10
4.624684
 20
0.134767
 30
0.000000
  0
SEQEND
  8
LAYER-1
  0
POLYLINE
  8
LAYER-1
 66
  1
 70
  1
 62
  0
 10
4.814621
 20
0.137036
 30
0.000000
  0
VERTEX
  8
LAYER-1
 10
4.814621
 20
0.137036
 30
0.000000
  0
VERTEX
  8
LAYER-1
 10
4.801934
 20
0.117671
 30
0.000000
  0
VERTEX
  8
LAYER-1
 10
4.813286
 20
0.111660
 30
0.000000
  0
SEQEND
  8
LAYER-1
  0
POLYLINE
  8
LAYER-1
 66
  1
 70
  0
 62
  0
 10
4.721905
 20
0.205949
 30
0.000000
  0
VERTEX
  8
LAYER-1
 10
4.721905
 20
0.205949
 30
0.000000
  0
VERTEX
  8
LAYER-1
 10
4.717564
 20
0.205949
 30
0.000000
  0
VERTEX
  8
LAYER-1
 10
4.714092
 20
0.201608
 30
0.000000
  0
VERTEX
  8
LAYER-1
 10
4.713225
 20
0.196400
 30
0.000000
  0
VERTEX
  8
LAYER-1
 10
4.714960
 20
0.192060
 30
0.000000
  0
VERTEX
  8
LAYER-1
 10
4.719300
 20
0.190324
 30
0.000000
  0
VERTEX
  8
LAYER-1
 10
4.723641
 20
0.190324
 30
0.000000
  0
VERTEX
  8
LAYER-1
 10
4.727982
 20
0.193795
 30
0.000000
  0
VERTEX
  8
LAYER-1
 10
4.727982
 20
0.198136
 30
0.000000
  0
VERTEX
  8
LAYER-1
 10
4.727113
 20
0.202477
 30
0.000000
  0
VERTEX
  8
LAYER-1
 10
4.722773
 20
0.205081
 30
0.000000
  0
SEQEND
  8
LAYER-1
  0
POLYLINE
  8
LAYER-1
 66
  1
 70
  0
 62
  0
 10
4.509233
 20
0.196399
 30
0.000000
  0
VERTEX
  8
LAYER-1
 10
4.509233
 20
0.196399
 30
0.000000
  0
VERTEX
  8
LAYER-1
 10
4.504894
 20
0.196399
 30
0.000000
  0
VERTEX
  8
LAYER-1
 10
4.501421
 20
0.192058
 30
0.000000
  0
VERTEX
  8
LAYER-1
 10
4.500553
 20
0.186851
 30
0.000000
  0
VERTEX
  8
LAYER-1
 10
4.502290
 20
0.182510
 30
0.000000
  0
VERTEX
  8
LAYER-1
 10
4.506630
 20
0.180774
 30
0.000000
  0
VERTEX
  8
LAYER-1
 10
4.510970
 20
0.180774
 30
0.000000
  0
VERTEX
  8
LAYER-1
 10
4.515310
 20
0.184246
 30
0.000000
  0
VERTEX
  8
LAYER-1
 10
4.515310
 20
0.188587
 30
0.000000
  0
VERTEX
  8
LAYER-1
 10
4.514442
 20
0.192927
 30
0.000000
  0
VERTEX
  8
LAYER-1
 10
4.510102
 20
0.195531
 30
0.000000
  0
SEQEND
  8
LAYER-1
  0
POLYLINE
  8
LAYER-1
 66
  1
 70
  0
 62
  0
 10
4.756630
 20
0.168619
 30
0.000000
  0
VERTEX
  8
LAYER-1
 10
4.756630
 20
0.168619
 30
0.000000
  0
VERTEX
  8
LAYER-1
 10
4.752290
 20
0.168619
 30
0.000000
  0
VERTEX
  8
LAYER-1
 10
4.748817
 20
0.164279
 30
0.000000
  0
VERTEX
  8
LAYER-1
 10
4.747950
 20
0.159070
 30
0.000000
  0
VERTEX
  8
LAYER-1
 10
4.749686
 20
0.154730
 30
0.000000
  0
VERTEX
  8
LAYER-1
 10
4.754027
 20
0.152994
 30
0.000000
  0
VERTEX
  8
LAYER-1
 10
4.758366
 20
0.152994
 30
0.000000
  0
VERTEX
  8
LAYER-1
 10
4.762706
 20
0.156466
 30
0.000000
  0
VERTEX
  8
LAYER-1
 10
4.762706
 20
0.160806
 30
0.000000
  0
VERTEX
  8
LAYER-1
 10
4.761839
 20
0.165148
 30
0.000000
  0
VERTEX
  8
LAYER-1
 10
4.757498
 20
0.167751
 30
0.000000
  0
SEQEND
  8
LAYER-1
  0
POLYLINE
  8
LAYER-1
 66
  1
 70
  1
 62
  0
 10
4.371212
 20
0.115235
 30
0.000000
  0
VERTEX
  8
LAYER-1
 10
4.371212
 20
0.115235
 30
0.000000
  0
VERTEX
  8
LAYER-1
 10
4.364268
 20
0.141275
 30
0.000000
  0
VERTEX
  8
LAYER-1
 10
4.339094
 20
0.127388
 30
0.000000
  0
SEQEND
  8
LAYER-1
  0
POLYLINE
  8
LAYER-1
 66
  1
 70
  1
 62
  0
 10
4.219303
 20
0.156031
 30
0.000000
  0
VERTEX
  8
LAYER-1
 10
4.219303
 20
0.156031
 30
0.000000
  0
VERTEX
  8
LAYER-1
 10
4.232324
 20
0.178602
 30
0.000000
  0
VERTEX
  8
LAYER-1
 10
4.201942
 20
0.157769
 30
0.000000
  0
SEQEND
  8
LAYER-1
  0
POLYLINE
  8
LAYER-1
 66
  1
 70
  1
 62
  0
 10
4.302636
 20
0.116106
 30
0.000000
  0
VERTEX
  8
LAYER-1
 10
4.302636
 20
0.116106
 30
0.000000
  0
VERTEX
  8
LAYER-1
 10
4.319130
 20
0.141279
 30
0.000000
  0
VERTEX
  8
LAYER-1
 10
4.304373
 20
0.149092
 30
0.000000
  0
SEQEND
  8
LAYER-1
  0
POLYLINE
  8
LAYER-1
 66
  1
 70
  0
 62
  0
 10
4.477116
 20
0.117843
 30
0.000000
  0
VERTEX
  8
LAYER-1
 10
4.477116
 20
0.117843
 30
0.000000
  0
VERTEX
  8
LAYER-1
 10
4.481457
 20
0.117843
 30
0.000000
  0
VERTEX
  8
LAYER-1
 10
4.484929
 20
0.122183
 30
0.000000
  0
VERTEX
  8
LAYER-1
 10
4.485797
 20
0.127391
 30
0.000000
  0
VERTEX
  8
LAYER-1
 10
4.484061
 20
0.131732
 30
0.000000
  0
VERTEX
  8
LAYER-1
 10
4.479720
 20
0.133468
 30
0.000000
  0
VERTEX
  8
LAYER-1
 10
4.475380
 20
0.133468
 30
0.000000
  0
VERTEX
  8
LAYER-1
 10
4.471040
 20
0.129996
 30
0.000000
  0
VERTEX
  8
LAYER-1
 10
4.471040
 20
0.125655
 30
0.000000
  0
VERTEX
  8
LAYER-1
 10
4.471908
 20
0.121314
 30
0.000000
  0
VERTEX
  8
LAYER-1
 10
4.476248
 20
0.118710
 30
0.000000
  0
SEQEND
  8
LAYER-1
  0
POLYLINE
  8
LAYER-1
 66
  1
 70
  1
 62
  0
 10
4.428504
 20
0.132598
 30
0.000000
  0
VERTEX
  8
LAYER-1
 10
4.428504
 20
0.132598
 30
0.000000
  0
VERTEX
  8
LAYER-1
 10
4.441525
 20
0.155168
 30
0.000000
  0
VERTEX
  8
LAYER-1
 10
4.411143
 20
0.134336
 30
0.000000
  0
SEQEND
  8
LAYER-1
  0
POLYLINE
  8
LAYER-1
 66
  1
 70
  1
 62
  0
 10
4.317560
 20
0.168523
 30
0.000000
  0
VERTEX
  8
LAYER-1
 10
4.317560
 20
0.168523
 30
0.000000
  0
VERTEX
  8
LAYER-1
 10
4.330247
 20
0.187887
 30
0.000000
  0
VERTEX
  8
LAYER-1
 10
4.318896
 20
0.193899
 30
0.000000
  0
SEQEND
  8
LAYER-1
  0
POLYLINE
  8
LAYER-1
 66
  1
 70
  0
 62
  0
 10
4.273208
 20
0.199994
 30
0.000000
  0
VERTEX
  8
LAYER-1
 10
4.273208
 20
0.199994
 30
0.000000
  0
VERTEX
  8
LAYER-1
 10
4.277548
 20
0.199994
 30
0.000000
  0
VERTEX
  8
LAYER-1
 10
4.281021
 20
0.204335
 30
0.000000
  0
VERTEX
  8
LAYER-1
 10
4.281888
 20
0.209542
 30
0.000000
  0
VERTEX
  8
LAYER-1
 10
4.280153
 20
0.213883
 30
0.000000
  0
VERTEX
  8
LAYER-1
 10
4.275812
 20
0.215619
 30
0.000000
  0
VERTEX
  8
LAYER-1
 10
4.271471
 20
0.215619
 30
0.000000
  0
VERTEX
  8
LAYER-1
 10
4.267131
 20
0.212147
 30
0.000000
  0
VERTEX
  8
LAYER-1
 10
4.267131
 20
0.207807
 30
0.000000
  0
VERTEX
  8
LAYER-1
 10
4.267999
 20
0.203466
 30
0.000000
  0
VERTEX
  8
LAYER-1
 10
4.272340
 20
0.200861
 30
0.000000
  0
SEQEND
  8
LAYER-1
  0
POLYLINE
  8
LAYER-1
 66
  1
 70
  0
 62
  0
 10
4.250553
 20
0.122182
 30
0.000000
  0
VERTEX
  8
LAYER-1
 10
4.250553
 20
0.122182
 30
0.000000
  0
VERTEX
  8
LAYER-1
 10
4.254894
 20
0.122182
 30
0.000000
  0
VERTEX
  8
LAYER-1
 10
4.258366
 20
0.126523
 30
0.000000
  0
VERTEX
  8
LAYER-1
 10
4.259233
 20
0.131731
 30
0.000000
  0
VERTEX
  8
LAYER-1
 10
4.257498
 20
0.136071
 30
0.000000
  0
VERTEX
  8
LAYER-1
 10
4.253157
 20
0.137807
 30
0.000000
  0
VERTEX
  8
LAYER-1
 10
4.248817
 20
0.137807
 30
0.000000
  0
VERTEX
  8
LAYER-1
 10
4.244476
 20
0.134336
 30
0.000000
  0
VERTEX
  8
LAYER-1
 10
4.244476
 20
0.129995
 30
0.000000
  0
VERTEX
  8
LAYER-1
 10
4.245344
 20
0.125654
 30
0.000000
  0
VERTEX
  8
LAYER-1
 10
4.249685
 20
0.123049
 30
0.000000
  0
SEQEND
  8
LAYER-1
  0
POLYLINE
  8
LAYER-1
 66
  1
 70
  0
 62
  0
 10
4.414616
 20
0.199438
 30
0.000000
  0
VERTEX
  8
LAYER-1
 10
4.414616
 20
0.199438
 30
0.000000
  0
VERTEX
  8
LAYER-1
 10
4.418956
 20
0.199438
 30
0.000000
  0
VERTEX
  8
LAYER-1
 10
4.422428
 20
0.203779
 30
0.000000
  0
VERTEX
  8
LAYER-1
 10
4.423296
 20
0.208987
 30
0.000000
  0
VERTEX
  8
LAYER-1
 10
4.421560
 20
0.213327
 30
0.000000
  0
VERTEX
  8
LAYER-1
 10
4.417219
 20
0.215063
 30
0.000000
  0
VERTEX
  8
LAYER-1
 10
4.412880
 20
0.215063
 30
0.000000
  0
VERTEX
  8
LAYER-1
 10
4.408539
 20
0.211592
 30
0.000000
  0
VERTEX
  8
LAYER-1
 10
4.408539
 20
0.207251
 30
0.000000
  0
VERTEX
  8
LAYER-1
 10
4.409407
 20
0.202911
 30
0.000000
  0
VERTEX
  8
LAYER-1
 10
4.413748
 20
0.200306
 30
0.000000
  0
SEQEND
  8
LAYER-1
  0
POLYLINE
  8
LAYER-1
 66
  1
 70
  1
 62
  0
 10
4.866433
 20
0.156035
 30
0.000000
  0
VERTEX
  8
LAYER-1
 10
4.866433
 20
0.156035
 30
0.000000
  0
VERTEX
  8
LAYER-1
 10
4.892475
 20
0.162979
 30
0.000000
  0
VERTEX
  8
LAYER-1
 10
4.878587
 20
0.188152
 30
0.000000
  0
SEQEND
  8
LAYER-1
  0
POLYLINE
  8
LAYER-1
 66
  1
 70
  1
 62
  0
 10
4.548729
 20
0.208987
 30
0.000000
  0
VERTEX
  8
LAYER-1
 10
4.548729
 20
0.208987
 30
0.000000
  0
VERTEX
  8
LAYER-1
 10
4.571298
 20
0.195966
 30
0.000000
  0
VERTEX
  8
LAYER-1
 10
4.550465
 20
0.226348
 30
0.000000
  0
SEQEND
  8
LAYER-1
  0
POLYLINE
  8
LAYER-1
 66
  1
 70
  1
 62
  0
 10
5.485357
 20
0.114364
 30
0.000000
  0
VERTEX
  8
LAYER-1
 10
5.485357
 20
0.114364
 30
0.000000
  0
VERTEX
  8
LAYER-1
 10
5.510532
 20
0.097872
 30
0.000000
  0
VERTEX
  8
LAYER-1
 10
5.518344
 20
0.112629
 30
0.000000
  0
SEQEND
  8
LAYER-1
  0
POLYLINE
  8
LAYER-1
 66
  1
 70
  0
 62
  0
 10
5.306538
 20
0.123047
 30
0.000000
  0
VERTEX
  8
LAYER-1
 10
5.306538
 20
0.123047
 30
0.000000
  0
VERTEX
  8
LAYER-1
 10
5.306538
 20
0.118707
 30
0.000000
  0
VERTEX
  8
LAYER-1
 10
5.310879
 20
0.115234
 30
0.000000
  0
VERTEX
  8
LAYER-1
 10
5.316087
 20
0.114367
 30
0.000000
  0
VERTEX
  8
LAYER-1
 10
5.320427
 20
0.116103
 30
0.000000
  0
VERTEX
  8
LAYER-1
 10
5.322163
 20
0.120443
 30
0.000000
  0
VERTEX
  8
LAYER-1
 10
5.322163
 20
0.124783
 30
0.000000
  0
VERTEX
  8
LAYER-1
 10
5.318691
 20
0.129123
 30
0.000000
  0
VERTEX
  8
LAYER-1
 10
5.314351
 20
0.129123
 30
0.000000
  0
VERTEX
  8
LAYER-1
 10
5.310010
 20
0.128255
 30
0.000000
  0
VERTEX
  8
LAYER-1
 10
5.307406
 20
0.123916
 30
0.000000
  0
SEQEND
  8
LAYER-1
  0
POLYLINE
  8
LAYER-1
 66
  1
 70
  1
 62
  0
 10
4.936747
 20
0.143012
 30
0.000000
  0
VERTEX
  8
LAYER-1
 10
4.936747
 20
0.143012
 30
0.000000
  0
VERTEX
  8
LAYER-1
 10
4.959316
 20
0.129992
 30
0.000000
  0
VERTEX
  8
LAYER-1
 10
4.938484
 20
0.160373
 30
0.000000
  0
SEQEND
  8
LAYER-1
  0
POLYLINE
  8
LAYER-1
 66
  1
 70
  1
 62
  0
 10
4.899755
 20
0.214027
 30
0.000000
  0
VERTEX
  8
LAYER-1
 10
4.899755
 20
0.214027
 30
0.000000
  0
VERTEX
  8
LAYER-1
 10
4.919120
 20
0.201341
 30
0.000000
  0
VERTEX
  8
LAYER-1
 10
4.925130
 20
0.212692
 30
0.000000
  0
SEQEND
  8
LAYER-1
  0
POLYLINE
  8
LAYER-1
 66
  1
 70
  0
 62
  0
 10
4.544390
 20
0.149091
 30
0.000000
  0
VERTEX
  8
LAYER-1
 10
4.544390
 20
0.149091
 30
0.000000
  0
VERTEX
  8
LAYER-1
 10
4.544390
 20
0.144751
 30
0.000000
  0
VERTEX
  8
LAYER-1
 10
4.548729
 20
0.141279
 30
0.000000
  0
VERTEX
  8
LAYER-1
 10
4.553937
 20
0.140411
 30
0.000000
  0
VERTEX
  8
LAYER-1
 10
4.558278
 20
0.142146
 30
0.000000
  0
VERTEX
  8
LAYER-1
 10
4.560014
 20
0.146487
 30
0.000000
  0
VERTEX
  8
LAYER-1
 10
4.560014
 20
0.150826
 30
0.000000
  0
VERTEX
  8
LAYER-1
 10
4.556542
 20
0.155167
 30
0.000000
  0
VERTEX
  8
LAYER-1
 10
4.552201
 20
0.155167
 30
0.000000
  0
VERTEX
  8
LAYER-1
 10
4.547860
 20
0.154299
 30
0.000000
  0
VERTEX
  8
LAYER-1
 10
4.545257
 20
0.149958
 30
0.000000
  0
SEQEND
  8
LAYER-1
  0
POLYLINE
  8
LAYER-1
 66
  1
 70
  0
 62
  0
 10
4.950635
 20
0.110895
 30
0.000000
  0
VERTEX
  8
LAYER-1
 10
4.950635
 20
0.110895
 30
0.000000
  0
VERTEX
  8
LAYER-1
 10
4.950635
 20
0.106555
 30
0.000000
  0
VERTEX
  8
LAYER-1
 10
4.954976
 20
0.103082
 30
0.000000
  0
VERTEX
  8
LAYER-1
 10
4.960183
 20
0.102214
 30
0.000000
  0
VERTEX
  8
LAYER-1
 10
4.964524
 20
0.103951
 30
0.000000
  0
VERTEX
  8
LAYER-1
 10
4.966260
 20
0.108291
 30
0.000000
  0
VERTEX
  8
LAYER-1
 10
4.966260
 20
0.112631
 30
0.000000
  0
VERTEX
  8
LAYER-1
 10
4.962788
 20
0.116972
 30
0.000000
  0
VERTEX
  8
LAYER-1
 10
4.958447
 20
0.116972
 30
0.000000
  0
VERTEX
  8
LAYER-1
 10
4.954107
 20
0.116103
 30
0.000000
  0
VERTEX
  8
LAYER-1
 10
4.951503
 20
0.111763
 30
0.000000
  0
SEQEND
  8
LAYER-1
  0
POLYLINE
  8
LAYER-1
 66
  1
 70
  0
 62
  0
 10
5.019212
 20
0.146486
 30
0.000000
  0
VERTEX
  8
LAYER-1
 10
5.019212
 20
0.146486
 30
0.000000
  0
VERTEX
  8
LAYER-1
 10
5.019212
 20
0.142145
 30
0.000000
  0
VERTEX
  8
LAYER-1
 10
5.023552
 20
0.138674
 30
0.000000
  0
VERTEX
  8
LAYER-1
 10
5.028760
 20
0.137805
 30
0.000000
  0
VERTEX
  8
LAYER-1
 10
5.033101
 20
0.139542
 30
0.000000
  0
VERTEX
  8
LAYER-1
 10
5.034837
 20
0.143881
 30
0.000000
  0
VERTEX
  8
LAYER-1
 10
5.034837
 20
0.148222
 30
0.000000
  0
VERTEX
  8
LAYER-1
 10
5.031365
 20
0.152562
 30
0.000000
  0
VERTEX
  8
LAYER-1
 10
5.027024
 20
0.152562
 30
0.000000
  0
VERTEX
  8
LAYER-1
 10
5.022683
 20
0.151694
 30
0.000000
  0
VERTEX
  8
LAYER-1
 10
5.020079
 20
0.147354
 30
0.000000
  0
SEQEND
  8
LAYER-1
  0
POLYLINE
  8
LAYER-1
 66
  1
 70
  1
 62
  0
 10
5.058622
 20
0.167753
 30
0.000000
  0
VERTEX
  8
LAYER-1
 10
5.058622
 20
0.167753
 30
0.000000
  0
VERTEX
  8
LAYER-1
 10
5.065567
 20
0.141713
 30
0.000000
  0
VERTEX
  8
LAYER-1
 10
5.090740
 20
0.155600
 30
0.000000
  0
SEQEND
  8
LAYER-1
  0
POLYLINE
  8
LAYER-1
 66
  1
 70
  1
 62
  0
 10
5.220167
 20
0.196400
 30
0.000000
  0
VERTEX
  8
LAYER-1
 10
5.220167
 20
0.196400
 30
0.000000
  0
VERTEX
  8
LAYER-1
 10
5.207146
 20
0.173830
 30
0.000000
  0
VERTEX
  8
LAYER-1
 10
5.237528
 20
0.194662
 30
0.000000
  0
SEQEND
  8
LAYER-1
  0
POLYLINE
  8
LAYER-1
 66
  1
 70
  1
 62
  0
 10
5.612528
 20
0.166881
 30
0.000000
  0
VERTEX
  8
LAYER-1
 10
5.612528
 20
0.166881
 30
0.000000
  0
VERTEX
  8
LAYER-1
 10
5.596035
 20
0.141708
 30
0.000000
  0
VERTEX
  8
LAYER-1
 10
5.610792
 20
0.133895
 30
0.000000
  0
SEQEND
  8
LAYER-1
  0
POLYLINE
  8
LAYER-1
 66
  1
 70
  0
 62
  0
 10
5.008362
 20
0.199003
 30
0.000000
  0
VERTEX
  8
LAYER-1
 10
5.008362
 20
0.199003
 30
0.000000
  0
VERTEX
  8
LAYER-1
 10
5.004021
 20
0.199003
 30
0.000000
  0
VERTEX
  8
LAYER-1
 10
5.000549
 20
0.194662
 30
0.000000
  0
VERTEX
  8
LAYER-1
 10
4.999681
 20
0.189455
 30
0.000000
  0
VERTEX
  8
LAYER-1
 10
5.001417
 20
0.185114
 30
0.000000
  0
VERTEX
  8
LAYER-1
 10
5.005758
 20
0.183378
 30
0.000000
  0
VERTEX
  8
LAYER-1
 10
5.010098
 20
0.183378
 30
0.000000
  0
VERTEX
  8
LAYER-1
 10
5.014438
 20
0.186850
 30
0.000000
  0
VERTEX
  8
LAYER-1
 10
5.014438
 20
0.191191
 30
0.000000
  0
VERTEX
  8
LAYER-1
 10
5.013570
 20
0.195531
 30
0.000000
  0
VERTEX
  8
LAYER-1
 10
5.009229
 20
0.198136
 30
0.000000
  0
SEQEND
  8
LAYER-1
  0
POLYLINE
  8
LAYER-1
 66
  1
 70
  1
 62
  0
 10
5.071731
 20
0.122614
 30
0.000000
  0
VERTEX
  8
LAYER-1
 10
5.071731
 20
0.122614
 30
0.000000
  0
VERTEX
  8
LAYER-1
 10
5.058709
 20
0.100043
 30
0.000000
  0
VERTEX
  8
LAYER-1
 10
5.089091
 20
0.120876
 30
0.000000
  0
SEQEND
  8
LAYER-1
  0
POLYLINE
  8
LAYER-1
 66
  1
 70
  1
 62
  0
 10
5.140474
 20
0.100376
 30
0.000000
  0
VERTEX
  8
LAYER-1
 10
5.140474
 20
0.100376
 30
0.000000
  0
VERTEX
  8
LAYER-1
 10
5.153161
 20
0.119740
 30
0.000000
  0
VERTEX
  8
LAYER-1
 10
5.141810
 20
0.125751
 30
0.000000
  0
SEQEND
  8
LAYER-1
  0
POLYLINE
  8
LAYER-1
 66
  1
 70
  0
 62
  0
 10
5.160271
 20
0.200739
 30
0.000000
  0
VERTEX
  8
LAYER-1
 10
5.160271
 20
0.200739
 30
0.000000
  0
VERTEX
  8
LAYER-1
 10
5.155931
 20
0.200739
 30
0.000000
  0
VERTEX
  8
LAYER-1
 10
5.152459
 20
0.196398
 30
0.000000
  0
VERTEX
  8
LAYER-1
 10
5.151591
 20
0.191191
 30
0.000000
  0
VERTEX
  8
LAYER-1
 10
5.153326
 20
0.186850
 30
0.000000
  0
VERTEX
  8
LAYER-1
 10
5.157667
 20
0.185114
 30
0.000000
  0
VERTEX
  8
LAYER-1
 10
5.162008
 20
0.185114
 30
0.000000
  0
VERTEX
  8
LAYER-1
 10
5.166348
 20
0.188586
 30
0.000000
  0
VERTEX
  8
LAYER-1
 10
5.166348
 20
0.192926
 30
0.000000
  0
VERTEX
  8
LAYER-1
 10
5.165479
 20
0.197267
 30
0.000000
  0
VERTEX
  8
LAYER-1
 10
5.161139
 20
0.199872
 30
0.000000
  0
SEQEND
  8
LAYER-1
  0
POLYLINE
  8
LAYER-1
 66
  1
 70
  0
 62
  0
 10
5.664612
 20
0.160805
 30
0.000000
  0
VERTEX
  8
LAYER-1
 10
5.664612
 20
0.160805
 30
0.000000
  0
VERTEX
  8
LAYER-1
 10
5.660271
 20
0.160805
 30
0.000000
  0
VERTEX
  8
LAYER-1
 10
5.656799
 20
0.156464
 30
0.000000
  0
VERTEX
  8
LAYER-1
 10
5.655931
 20
0.151256
 30
0.000000
  0
VERTEX
  8
LAYER-1
 10
5.657667
 20
0.146916
 30
0.000000
  0
VERTEX
  8
LAYER-1
 10
5.662008
 20
0.145180
 30
0.000000
  0
VERTEX
  8
LAYER-1
 10
5.666348
 20
0.145180
 30
0.000000
  0
VERTEX
  8
LAYER-1
 10
5.670688
 20
0.148651
 30
0.000000
  0
VERTEX
  8
LAYER-1
 10
5.670688
 20
0.152992
 30
0.000000
  0
VERTEX
  8
LAYER-1
 10
5.669821
 20
0.157333
 30
0.000000
  0
VERTEX
  8
LAYER-1
 10
5.665479
 20
0.159938
 30
0.000000
  0
SEQEND
  8
LAYER-1
  0
POLYLINE
  8
LAYER-1
 66
  1
 70
  0
 62
  0
 10
5.573466
 20
0.128687
 30
0.000000
  0
VERTEX
  8
LAYER-1
 10
5.573466
 20
0.128687
 30
0.000000
  0
VERTEX
  8
LAYER-1
 10
5.569126
 20
0.128687
 30
0.000000
  0
VERTEX
  8
LAYER-1
 10
5.565654
 20
0.124346
 30
0.000000
  0
VERTEX
  8
LAYER-1
 10
5.564786
 20
0.119138
 30
0.000000
  0
VERTEX
  8
LAYER-1
 10
5.566522
 20
0.114798
 30
0.000000
  0
VERTEX
  8
LAYER-1
 10
5.570863
 20
0.113062
 30
0.000000
  0
VERTEX
  8
LAYER-1
 10
5.575203
 20
0.113062
 30
0.000000
  0
VERTEX
  8
LAYER-1
 10
5.579543
 20
0.116533
 30
0.000000
  0
VERTEX
  8
LAYER-1
 10
5.579543
 20
0.120874
 30
0.000000
  0
VERTEX
  8
LAYER-1
 10
5.578675
 20
0.125215
 30
0.000000
  0
VERTEX
  8
LAYER-1
 10
5.574334
 20
0.127819
 30
0.000000
  0
SEQEND
  8
LAYER-1
  0
POLYLINE
  8
LAYER-1
 66
  1
 70
  1
 62
  0
 10
5.258362
 20
0.182945
 30
0.000000
  0
VERTEX
  8
LAYER-1
 10
5.258362
 20
0.182945
 30
0.000000
  0
VERTEX
  8
LAYER-1
 10
5.284402
 20
0.189890
 30
0.000000
  0
VERTEX
  8
LAYER-1
 10
5.270515
 20
0.215063
 30
0.000000
  0
SEQEND
  8
LAYER-1
  0
POLYLINE
  8
LAYER-1
 66
  1
 70
  0
 62
  0
 10
5.227112
 20
0.133466
 30
0.000000
  0
VERTEX
  8
LAYER-1
 10
5.227112
 20
0.133466
 30
0.000000
  0
VERTEX
  8
LAYER-1
 10
5.227112
 20
0.129126
 30
0.000000
  0
VERTEX
  8
LAYER-1
 10
5.231453
 20
0.125654
 30
0.000000
  0
VERTEX
  8
LAYER-1
 10
5.236660
 20
0.124786
 30
0.000000
  0
VERTEX
  8
LAYER-1
 10
5.241001
 20
0.126522
 30
0.000000
  0
VERTEX
  8
LAYER-1
 10
5.242737
 20
0.130862
 30
0.000000
  0
VERTEX
  8
LAYER-1
 10
5.242737
 20
0.135202
 30
0.000000
  0
VERTEX
  8
LAYER-1
 10
5.239265
 20
0.139542
 30
0.000000
  0
VERTEX
  8
LAYER-1
 10
5.234924
 20
0.139542
 30
0.000000
  0
VERTEX
  8
LAYER-1
 10
5.230584
 20
0.138674
 30
0.000000
  0
VERTEX
  8
LAYER-1
 10
5.227979
 20
0.134335
 30
0.000000
  0
SEQEND
  8
LAYER-1
  0
POLYLINE
  8
LAYER-1
 66
  1
 70
  1
 62
  0
 10
5.322164
 20
0.146920
 30
0.000000
  0
VERTEX
  8
LAYER-1
 10
5.322164
 20
0.146920
 30
0.000000
  0
VERTEX
  8
LAYER-1
 10
5.335184
 20
0.169491
 30
0.000000
  0
VERTEX
  8
LAYER-1
 10
5.304803
 20
0.148658
 30
0.000000
  0
SEQEND
  8
LAYER-1
  0
POLYLINE
  8
LAYER-1
 66
  1
 70
  0
 62
  0
 10
5.377285
 20
0.181210
 30
0.000000
  0
VERTEX
  8
LAYER-1
 10
5.377285
 20
0.181210
 30
0.000000
  0
VERTEX
  8
LAYER-1
 10
5.377285
 20
0.176869
 30
0.000000
  0
VERTEX
  8
LAYER-1
 10
5.381626
 20
0.173397
 30
0.000000
  0
VERTEX
  8
LAYER-1
 10
5.386834
 20
0.172529
 30
0.000000
  0
VERTEX
  8
LAYER-1
 10
5.391174
 20
0.174265
 30
0.000000
  0
VERTEX
  8
LAYER-1
 10
5.392910
 20
0.178605
 30
0.000000
  0
VERTEX
  8
LAYER-1
 10
5.392910
 20
0.182945
 30
0.000000
  0
VERTEX
  8
LAYER-1
 10
5.389438
 20
0.187286
 30
0.000000
  0
VERTEX
  8
LAYER-1
 10
5.385098
 20
0.187286
 30
0.000000
  0
VERTEX
  8
LAYER-1
 10
5.380757
 20
0.186417
 30
0.000000
  0
VERTEX
  8
LAYER-1
 10
5.378152
 20
0.182077
 30
0.000000
  0
SEQEND
  8
LAYER-1
  0
POLYLINE
  8
LAYER-1
 66
  1
 70
  1
 62
  0
 10
6.123210
 20
0.197614
 30
0.000000
  0
VERTEX
  8
LAYER-1
 10
6.123210
 20
0.197614
 30
0.000000
  0
VERTEX
  8
LAYER-1
 10
6.116264
 20
0.223656
 30
0.000000
  0
VERTEX
  8
LAYER-1
 10
6.091091
 20
0.209768
 30
0.000000
  0
SEQEND
  8
LAYER-1
  0
POLYLINE
  8
LAYER-1
 66
  1
 70
  0
 62
  0
 10
6.163748
 20
0.071398
 30
0.000000
  0
VERTEX
  8
LAYER-1
 10
6.163748
 20
0.071398
 30
0.000000
  0
VERTEX
  8
LAYER-1
 10
6.168088
 20
0.071398
 30
0.000000
  0
VERTEX
  8
LAYER-1
 10
6.171561
 20
0.075739
 30
0.000000
  0
VERTEX
  8
LAYER-1
 10
6.172428
 20
0.080947
 30
0.000000
  0
VERTEX
  8
LAYER-1
 10
6.170692
 20
0.085287
 30
0.000000
  0
VERTEX
  8
LAYER-1
 10
6.166353
 20
0.087023
 30
0.000000
  0
VERTEX
  8
LAYER-1
 10
6.162012
 20
0.087023
 30
0.000000
  0
VERTEX
  8
LAYER-1
 10
6.157672
 20
0.083551
 30
0.000000
  0
VERTEX
  8
LAYER-1
 10
6.157672
 20
0.079211
 30
0.000000
  0
VERTEX
  8
LAYER-1
 10
6.158540
 20
0.074870
 30
0.000000
  0
VERTEX
  8
LAYER-1
 10
6.162880
 20
0.072266
 30
0.000000
  0
SEQEND
  8
LAYER-1
  0
POLYLINE
  8
LAYER-1
 66
  1
 70
  1
 62
  0
 10
5.460184
 20
0.104385
 30
0.000000
  0
VERTEX
  8
LAYER-1
 10
5.460184
 20
0.104385
 30
0.000000
  0
VERTEX
  8
LAYER-1
 10
5.473204
 20
0.126955
 30
0.000000
  0
VERTEX
  8
LAYER-1
 10
5.442823
 20
0.106122
 30
0.000000
  0
SEQEND
  8
LAYER-1
  0
POLYLINE
  8
LAYER-1
 66
  1
 70
  0
 62
  0
 10
5.503936
 20
0.182719
 30
0.000000
  0
VERTEX
  8
LAYER-1
 10
5.503936
 20
0.182719
 30
0.000000
  0
VERTEX
  8
LAYER-1
 10
5.508277
 20
0.182719
 30
0.000000
  0
VERTEX
  8
LAYER-1
 10
5.511749
 20
0.187059
 30
0.000000
  0
VERTEX
  8
LAYER-1
 10
5.512618
 20
0.192267
 30
0.000000
  0
VERTEX
  8
LAYER-1
 10
5.510881
 20
0.196608
 30
0.000000
  0
VERTEX
  8
LAYER-1
 10
5.506541
 20
0.198344
 30
0.000000
  0
VERTEX
  8
LAYER-1
 10
5.502201
 20
0.198344
 30
0.000000
  0
VERTEX
  8
LAYER-1
 10
5.497860
 20
0.194872
 30
0.000000
  0
VERTEX
  8
LAYER-1
 10
5.497860
 20
0.190531
 30
0.000000
  0
VERTEX
  8
LAYER-1
 10
5.498729
 20
0.186190
 30
0.000000
  0
VERTEX
  8
LAYER-1
 10
5.503068
 20
0.183587
 30
0.000000
  0
SEQEND
  8
LAYER-1
  0
POLYLINE
  8
LAYER-1
 66
  1
 70
  1
 62
  0
 10
6.043523
 20
0.113501
 30
0.000000
  0
VERTEX
  8
LAYER-1
 10
6.043523
 20
0.113501
 30
0.000000
  0
VERTEX
  8
LAYER-1
 10
6.017481
 20
0.106556
 30
0.000000
  0
VERTEX
  8
LAYER-1
 10
6.031370
 20
0.081382
 30
0.000000
  0
SEQEND
  8
LAYER-1
  0
POLYLINE
  8
LAYER-1
 66
  1
 70
  0
 62
  0
 10
5.408535
 20
0.128259
 30
0.000000
  0
VERTEX
  8
LAYER-1
 10
5.408535
 20
0.128259
 30
0.000000
  0
VERTEX
  8
LAYER-1
 10
5.408535
 20
0.132598
 30
0.000000
  0
VERTEX
  8
LAYER-1
 10
5.404194
 20
0.136071
 30
0.000000
  0
VERTEX
  8
LAYER-1
 10
5.398987
 20
0.136938
 30
0.000000
  0
VERTEX
  8
LAYER-1
 10
5.394646
 20
0.135202
 30
0.000000
  0
VERTEX
  8
LAYER-1
 10
5.392910
 20
0.130862
 30
0.000000
  0
VERTEX
  8
LAYER-1
 10
5.392910
 20
0.126521
 30
0.000000
  0
VERTEX
  8
LAYER-1
 10
5.396382
 20
0.122182
 30
0.000000
  0
VERTEX
  8
LAYER-1
 10
5.400723
 20
0.122182
 30
0.000000
  0
VERTEX
  8
LAYER-1
 10
5.405063
 20
0.123049
 30
0.000000
  0
VERTEX
  8
LAYER-1
 10
5.407667
 20
0.127390
 30
0.000000
  0
SEQEND
  8
LAYER-1
  0
POLYLINE
  8
LAYER-1
 66
  1
 70
  1
 62
  0
 10
5.992307
 20
0.103085
 30
0.000000
  0
VERTEX
  8
LAYER-1
 10
5.992307
 20
0.103085
 30
0.000000
  0
VERTEX
  8
LAYER-1
 10
5.964529
 20
0.119576
 30
0.000000
  0
VERTEX
  8
LAYER-1
 10
5.985362
 20
0.089195
 30
0.000000
  0
SEQEND
  8
LAYER-1
  0
POLYLINE
  8
LAYER-1
 66
  1
 70
  0
 62
  0
 10
5.702806
 20
0.184678
 30
0.000000
  0
VERTEX
  8
LAYER-1
 10
5.702806
 20
0.184678
 30
0.000000
  0
VERTEX
  8
LAYER-1
 10
5.702806
 20
0.189018
 30
0.000000
  0
VERTEX
  8
LAYER-1
 10
5.698466
 20
0.192490
 30
0.000000
  0
VERTEX
  8
LAYER-1
 10
5.693258
 20
0.193359
 30
0.000000
  0
VERTEX
  8
LAYER-1
 10
5.688917
 20
0.191622
 30
0.000000
  0
VERTEX
  8
LAYER-1
 10
5.687181
 20
0.187282
 30
0.000000
  0
VERTEX
  8
LAYER-1
 10
5.687181
 20
0.182942
 30
0.000000
  0
VERTEX
  8
LAYER-1
 10
5.690653
 20
0.178601
 30
0.000000
  0
VERTEX
  8
LAYER-1
 10
5.694994
 20
0.178601
 30
0.000000
  0
VERTEX
  8
LAYER-1
 10
5.699334
 20
0.179470
 30
0.000000
  0
VERTEX
  8
LAYER-1
 10
5.701938
 20
0.183809
 30
0.000000
  0
SEQEND
  8
LAYER-1
  0
POLYLINE
  8
LAYER-1
 66
  1
 70
  1
 62
  0
 10
6.273471
 20
0.091192
 30
0.000000
  0
VERTEX
  8
LAYER-1
 10
6.273471
 20
0.091192
 30
0.000000
  0
VERTEX
  8
LAYER-1
 10
6.266525
 20
0.117233
 30
0.000000
  0
VERTEX
  8
LAYER-1
 10
6.241352
 20
0.103345
 30
0.000000
  0
SEQEND
  8
LAYER-1
  0
POLYLINE
  8
LAYER-1
 66
  1
 70
  0
 62
  0
 10
6.363315
 20
0.191452
 30
0.000000
  0
VERTEX
  8
LAYER-1
 10
6.363315
 20
0.191452
 30
0.000000
  0
VERTEX
  8
LAYER-1
 10
6.367656
 20
0.191452
 30
0.000000
  0
VERTEX
  8
LAYER-1
 10
6.371128
 20
0.195792
 30
0.000000
  0
VERTEX
  8
LAYER-1
 10
6.371995
 20
0.201001
 30
0.000000
  0
VERTEX
  8
LAYER-1
 10
6.370259
 20
0.205341
 30
0.000000
  0
VERTEX
  8
LAYER-1
 10
6.365920
 20
0.207077
 30
0.000000
  0
VERTEX
  8
LAYER-1
 10
6.361579
 20
0.207077
 30
0.000000
  0
VERTEX
  8
LAYER-1
 10
6.357239
 20
0.203605
 30
0.000000
  0
VERTEX
  8
LAYER-1
 10
6.357239
 20
0.199265
 30
0.000000
  0
VERTEX
  8
LAYER-1
 10
6.358108
 20
0.194923
 30
0.000000
  0
VERTEX
  8
LAYER-1
 10
6.362446
 20
0.192320
 30
0.000000
  0
SEQEND
  8
LAYER-1
  0
POLYLINE
  8
LAYER-1
 66
  1
 70
  1
 62
  0
 10
6.348557
 20
0.226608
 30
0.000000
  0
VERTEX
  8
LAYER-1
 10
6.348557
 20
0.226608
 30
0.000000
  0
VERTEX
  8
LAYER-1
 10
6.322515
 20
0.219664
 30
0.000000
  0
VERTEX
  8
LAYER-1
 10
6.336404
 20
0.194490
 30
0.000000
  0
SEQEND
  8
LAYER-1
  0
POLYLINE
  8
LAYER-1
 66
  1
 70
  1
 62
  0
 10
5.597338
 20
0.085292
 30
0.000000
  0
VERTEX
  8
LAYER-1
 10
5.597338
 20
0.085292
 30
0.000000
  0
VERTEX
  8
LAYER-1
 10
5.610357
 20
0.107861
 30
0.000000
  0
VERTEX
  8
LAYER-1
 10
5.579976
 20
0.087028
 30
0.000000
  0
SEQEND
  8
LAYER-1
  0
POLYLINE
  8
LAYER-1
 66
  1
 70
  0
 62
  0
 10
5.593865
 20
0.192061
 30
0.000000
  0
VERTEX
  8
LAYER-1
 10
5.593865
 20
0.192061
 30
0.000000
  0
VERTEX
  8
LAYER-1
 10
5.598206
 20
0.192061
 30
0.000000
  0
VERTEX
  8
LAYER-1
 10
5.601677
 20
0.196401
 30
0.000000
  0
VERTEX
  8
LAYER-1
 10
5.602546
 20
0.201608
 30
0.000000
  0
VERTEX
  8
LAYER-1
 10
5.600810
 20
0.205950
 30
0.000000
  0
VERTEX
  8
LAYER-1
 10
5.596469
 20
0.207686
 30
0.000000
  0
VERTEX
  8
LAYER-1
 10
5.592129
 20
0.207686
 30
0.000000
  0
VERTEX
  8
LAYER-1
 10
5.587788
 20
0.204213
 30
0.000000
  0
VERTEX
  8
LAYER-1
 10
5.587788
 20
0.199873
 30
0.000000
  0
VERTEX
  8
LAYER-1
 10
5.588657
 20
0.195532
 30
0.000000
  0
VERTEX
  8
LAYER-1
 10
5.592998
 20
0.192929
 30
0.000000
  0
SEQEND
  8
LAYER-1
  0
POLYLINE
  8
LAYER-1
 66
  1
 70
  1
 62
  0
 10
5.546555
 20
0.170792
 30
0.000000
  0
VERTEX
  8
LAYER-1
 10
5.546555
 20
0.170792
 30
0.000000
  0
VERTEX
  8
LAYER-1
 10
5.571731
 20
0.154299
 30
0.000000
  0
VERTEX
  8
LAYER-1
 10
5.579543
 20
0.169056
 30
0.000000
  0
SEQEND
  8
LAYER-1
  0
POLYLINE
  8
LAYER-1
 66
  1
 70
  1
 62
  0
 10
5.533203
 20
0.143179
 30
0.000000
  0
VERTEX
  8
LAYER-1
 10
5.533203
 20
0.143179
 30
0.000000
  0
VERTEX
  8
LAYER-1
 10
5.513838
 20
0.155867
 30
0.000000
  0
VERTEX
  8
LAYER-1
 10
5.507827
 20
0.144515
 30
0.000000
  0
SEQEND
  8
LAYER-1
  0
POLYLINE
  8
LAYER-1
 66
  1
 70
  1
 62
  0
 10
1.310447
 20
0.202042
 30
0.000000
  0
VERTEX
  8
LAYER-1
 10
1.310447
 20
0.202042
 30
0.000000
  0
VERTEX
  8
LAYER-1
 10
1.297426
 20
0.179472
 30
0.000000
  0
VERTEX
  8
LAYER-1
 10
1.327808
 20
0.200305
 30
0.000000
  0
SEQEND
  8
LAYER-1
  0
POLYLINE
  8
LAYER-1
 66
  1
 70
  1
 62
  0
 10
5.859927
 20
0.129127
 30
0.000000
  0
VERTEX
  8
LAYER-1
 10
5.859927
 20
0.129127
 30
0.000000
  0
VERTEX
  8
LAYER-1
 10
5.882497
 20
0.116106
 30
0.000000
  0
VERTEX
  8
LAYER-1
 10
5.861664
 20
0.146488
 30
0.000000
  0
SEQEND
  8
LAYER-1
  0
POLYLINE
  8
LAYER-1
 66
  1
 70
  0
 62
  0
 10
5.787879
 20
0.175999
 30
0.000000
  0
VERTEX
  8
LAYER-1
 10
5.787879
 20
0.175999
 30
0.000000
  0
VERTEX
  8
LAYER-1
 10
5.787879
 20
0.171658
 30
0.000000
  0
VERTEX
  8
LAYER-1
 10
5.792219
 20
0.168187
 30
0.000000
  0
VERTEX
  8
LAYER-1
 10
5.797427
 20
0.167319
 30
0.000000
  0
VERTEX
  8
LAYER-1
 10
5.801768
 20
0.169055
 30
0.000000
  0
VERTEX
  8
LAYER-1
 10
5.803504
 20
0.173395
 30
0.000000
  0
VERTEX
  8
LAYER-1
 10
5.803504
 20
0.177735
 30
0.000000
  0
VERTEX
  8
LAYER-1
 10
5.800032
 20
0.182076
 30
0.000000
  0
VERTEX
  8
LAYER-1
 10
5.795691
 20
0.182076
 30
0.000000
  0
VERTEX
  8
LAYER-1
 10
5.791350
 20
0.181207
 30
0.000000
  0
VERTEX
  8
LAYER-1
 10
5.788747
 20
0.176867
 30
0.000000
  0
SEQEND
  8
LAYER-1
  0
POLYLINE
  8
LAYER-1
 66
  1
 70
  1
 62
  0
 10
5.737531
 20
0.187286
 30
0.000000
  0
VERTEX
  8
LAYER-1
 10
5.737531
 20
0.187286
 30
0.000000
  0
VERTEX
  8
LAYER-1
 10
5.760100
 20
0.174264
 30
0.000000
  0
VERTEX
  8
LAYER-1
 10
5.739268
 20
0.204646
 30
0.000000
  0
SEQEND
  8
LAYER-1
  0
POLYLINE
  8
LAYER-1
 66
  1
 70
  0
 62
  0
 10
5.999684
 20
0.129127
 30
0.000000
  0
VERTEX
  8
LAYER-1
 10
5.999684
 20
0.129127
 30
0.000000
  0
VERTEX
  8
LAYER-1
 10
5.999684
 20
0.124786
 30
0.000000
  0
VERTEX
  8
LAYER-1
 10
6.004025
 20
0.121314
 30
0.000000
  0
VERTEX
  8
LAYER-1
 10
6.009232
 20
0.120446
 30
0.000000
  0
VERTEX
  8
LAYER-1
 10
6.013573
 20
0.122182
 30
0.000000
  0
VERTEX
  8
LAYER-1
 10
6.015309
 20
0.126522
 30
0.000000
  0
VERTEX
  8
LAYER-1
 10
6.015309
 20
0.130863
 30
0.000000
  0
VERTEX
  8
LAYER-1
 10
6.011837
 20
0.135204
 30
0.000000
  0
VERTEX
  8
LAYER-1
 10
6.007497
 20
0.135204
 30
0.000000
  0
VERTEX
  8
LAYER-1
 10
6.003156
 20
0.134335
 30
0.000000
  0
VERTEX
  8
LAYER-1
 10
6.000552
 20
0.129995
 30
0.000000
  0
SEQEND
  8
LAYER-1
  0
POLYLINE
  8
LAYER-1
 66
  1
 70
  0
 62
  0
 10
5.833886
 20
0.183814
 30
0.000000
  0
VERTEX
  8
LAYER-1
 10
5.833886
 20
0.183814
 30
0.000000
  0
VERTEX
  8
LAYER-1
 10
5.833886
 20
0.179474
 30
0.000000
  0
VERTEX
  8
LAYER-1
 10
5.838226
 20
0.176002
 30
0.000000
  0
VERTEX
  8
LAYER-1
 10
5.843434
 20
0.175134
 30
0.000000
  0
VERTEX
  8
LAYER-1
 10
5.847775
 20
0.176870
 30
0.000000
  0
VERTEX
  8
LAYER-1
 10
5.849511
 20
0.181210
 30
0.000000
  0
VERTEX
  8
LAYER-1
 10
5.849511
 20
0.185550
 30
0.000000
  0
VERTEX
  8
LAYER-1
 10
5.846039
 20
0.189891
 30
0.000000
  0
VERTEX
  8
LAYER-1
 10
5.841698
 20
0.189891
 30
0.000000
  0
VERTEX
  8
LAYER-1
 10
5.837357
 20
0.189022
 30
0.000000
  0
VERTEX
  8
LAYER-1
 10
5.834753
 20
0.184682
 30
0.000000
  0
SEQEND
  8
LAYER-1
  0
POLYLINE
  8
LAYER-1
 66
  1
 70
  1
 62
  0
 10
5.758366
 20
0.119144
 30
0.000000
  0
VERTEX
  8
LAYER-1
 10
5.758366
 20
0.119144
 30
0.000000
  0
VERTEX
  8
LAYER-1
 10
5.745344
 20
0.096574
 30
0.000000
  0
VERTEX
  8
LAYER-1
 10
5.775726
 20
0.117406
 30
0.000000
  0
SEQEND
  8
LAYER-1
  0
POLYLINE
  8
LAYER-1
 66
  1
 70
  0
 62
  0
 10
5.684665
 20
0.111279
 30
0.000000
  0
VERTEX
  8
LAYER-1
 10
5.684665
 20
0.111279
 30
0.000000
  0
VERTEX
  8
LAYER-1
 10
5.680325
 20
0.111279
 30
0.000000
  0
VERTEX
  8
LAYER-1
 10
5.676852
 20
0.106938
 30
0.000000
  0
VERTEX
  8
LAYER-1
 10
5.675984
 20
0.101730
 30
0.000000
  0
VERTEX
  8
LAYER-1
 10
5.677720
 20
0.097389
 30
0.000000
  0
VERTEX
  8
LAYER-1
 10
5.682061
 20
0.095654
 30
0.000000
  0
VERTEX
  8
LAYER-1
 10
5.686402
 20
0.095654
 30
0.000000
  0
VERTEX
  8
LAYER-1
 10
5.690742
 20
0.099125
 30
0.000000
  0
VERTEX
  8
LAYER-1
 10
5.690742
 20
0.103466
 30
0.000000
  0
VERTEX
  8
LAYER-1
 10
5.689874
 20
0.107807
 30
0.000000
  0
VERTEX
  8
LAYER-1
 10
5.685533
 20
0.110412
 30
0.000000
  0
SEQEND
  8
LAYER-1
  0
POLYLINE
  8
LAYER-1
 66
  1
 70
  0
 62
  0
 10
5.758366
 20
0.149524
 30
0.000000
  0
VERTEX
  8
LAYER-1
 10
5.758366
 20
0.149524
 30
0.000000
  0
VERTEX
  8
LAYER-1
 10
5.754025
 20
0.149524
 30
0.000000
  0
VERTEX
  8
LAYER-1
 10
5.750553
 20
0.145183
 30
0.000000
  0
VERTEX
  8
LAYER-1
 10
5.749685
 20
0.139976
 30
0.000000
  0
VERTEX
  8
LAYER-1
 10
5.751421
 20
0.135635
 30
0.000000
  0
VERTEX
  8
LAYER-1
 10
5.755762
 20
0.133899
 30
0.000000
  0
VERTEX
  8
LAYER-1
 10
5.760101
 20
0.133899
 30
0.000000
  0
VERTEX
  8
LAYER-1
 10
5.764442
 20
0.137371
 30
0.000000
  0
VERTEX
  8
LAYER-1
 10
5.764442
 20
0.141712
 30
0.000000
  0
VERTEX
  8
LAYER-1
 10
5.763574
 20
0.146052
 30
0.000000
  0
VERTEX
  8
LAYER-1
 10
5.759234
 20
0.148657
 30
0.000000
  0
SEQEND
  8
LAYER-1
  0
POLYLINE
  8
LAYER-1
 66
  1
 70
  1
 62
  0
 10
6.065657
 20
0.166018
 30
0.000000
  0
VERTEX
  8
LAYER-1
 10
6.065657
 20
0.166018
 30
0.000000
  0
VERTEX
  8
LAYER-1
 10
6.072601
 20
0.139977
 30
0.000000
  0
VERTEX
  8
LAYER-1
 10
6.097775
 20
0.153865
 30
0.000000
  0
SEQEND
  8
LAYER-1
  0
POLYLINE
  8
LAYER-1
 66
  1
 70
  1
 62
  0
 10
6.227984
 20
0.194664
 30
0.000000
  0
VERTEX
  8
LAYER-1
 10
6.227984
 20
0.194664
 30
0.000000
  0
VERTEX
  8
LAYER-1
 10
6.214962
 20
0.172095
 30
0.000000
  0
VERTEX
  8
LAYER-1
 10
6.245344
 20
0.192927
 30
0.000000
  0
SEQEND
  8
LAYER-1
  0
POLYLINE
  8
LAYER-1
 66
  1
 70
  0
 62
  0
 10
6.016178
 20
0.197268
 30
0.000000
  0
VERTEX
  8
LAYER-1
 10
6.016178
 20
0.197268
 30
0.000000
  0
VERTEX
  8
LAYER-1
 10
6.011837
 20
0.197268
 30
0.000000
  0
VERTEX
  8
LAYER-1
 10
6.008366
 20
0.192927
 30
0.000000
  0
VERTEX
  8
LAYER-1
 10
6.007497
 20
0.187720
 30
0.000000
  0
VERTEX
  8
LAYER-1
 10
6.009234
 20
0.183379
 30
0.000000
  0
VERTEX
  8
LAYER-1
 10
6.013573
 20
0.181643
 30
0.000000
  0
VERTEX
  8
LAYER-1
 10
6.017914
 20
0.181643
 30
0.000000
  0
VERTEX
  8
LAYER-1
 10
6.022255
 20
0.185115
 30
0.000000
  0
VERTEX
  8
LAYER-1
 10
6.022255
 20
0.189456
 30
0.000000
  0
VERTEX
  8
LAYER-1
 10
6.021386
 20
0.193796
 30
0.000000
  0
VERTEX
  8
LAYER-1
 10
6.017046
 20
0.196400
 30
0.000000
  0
SEQEND
  8
LAYER-1
  0
POLYLINE
  8
LAYER-1
 66
  1
 70
  1
 62
  0
 10
6.126423
 20
0.129560
 30
0.000000
  0
VERTEX
  8
LAYER-1
 10
6.126423
 20
0.129560
 30
0.000000
  0
VERTEX
  8
LAYER-1
 10
6.113402
 20
0.106990
 30
0.000000
  0
VERTEX
  8
LAYER-1
 10
6.143784
 20
0.127823
 30
0.000000
  0
SEQEND
  8
LAYER-1
  0
POLYLINE
  8
LAYER-1
 66
  1
 70
  0
 62
  0
 10
6.168087
 20
0.199004
 30
0.000000
  0
VERTEX
  8
LAYER-1
 10
6.168087
 20
0.199004
 30
0.000000
  0
VERTEX
  8
LAYER-1
 10
6.163747
 20
0.199004
 30
0.000000
  0
VERTEX
  8
LAYER-1
 10
6.160275
 20
0.194663
 30
0.000000
  0
VERTEX
  8
LAYER-1
 10
6.159407
 20
0.189456
 30
0.000000
  0
VERTEX
  8
LAYER-1
 10
6.161143
 20
0.185115
 30
0.000000
  0
VERTEX
  8
LAYER-1
 10
6.165484
 20
0.183379
 30
0.000000
  0
VERTEX
  8
LAYER-1
 10
6.169823
 20
0.183379
 30
0.000000
  0
VERTEX
  8
LAYER-1
 10
6.174164
 20
0.186851
 30
0.000000
  0
VERTEX
  8
LAYER-1
 10
6.174164
 20
0.191192
 30
0.000000
  0
VERTEX
  8
LAYER-1
 10
6.173296
 20
0.195532
 30
0.000000
  0
VERTEX
  8
LAYER-1
 10
6.168955
 20
0.198136
 30
0.000000
  0
SEQEND
  8
LAYER-1
  0
POLYLINE
  8
LAYER-1
 66
  1
 70
  1
 62
  0
 10
6.507497
 20
0.190324
 30
0.000000
  0
VERTEX
  8
LAYER-1
 10
6.507497
 20
0.190324
 30
0.000000
  0
VERTEX
  8
LAYER-1
 10
6.514441
 20
0.164283
 30
0.000000
  0
VERTEX
  8
LAYER-1
 10
6.539615
 20
0.178170
 30
0.000000
  0
SEQEND
  8
LAYER-1
  0
POLYLINE
  8
LAYER-1
 66
  1
 70
  1
 62
  0
 10
6.669824
 20
0.218970
 30
0.000000
  0
VERTEX
  8
LAYER-1
 10
6.669824
 20
0.218970
 30
0.000000
  0
VERTEX
  8
LAYER-1
 10
6.656802
 20
0.196400
 30
0.000000
  0
VERTEX
  8
LAYER-1
 10
6.687184
 20
0.217233
 30
0.000000
  0
SEQEND
  8
LAYER-1
  0
POLYLINE
  8
LAYER-1
 66
  1
 70
  1
 62
  0
 10
5.898123
 20
0.154733
 30
0.000000
  0
VERTEX
  8
LAYER-1
 10
5.898123
 20
0.154733
 30
0.000000
  0
VERTEX
  8
LAYER-1
 10
5.923296
 20
0.138240
 30
0.000000
  0
VERTEX
  8
LAYER-1
 10
5.931109
 20
0.152998
 30
0.000000
  0
SEQEND
  8
LAYER-1
  0
POLYLINE
  8
LAYER-1
 66
  1
 70
  0
 62
  0
 10
6.468434
 20
0.211158
 30
0.000000
  0
VERTEX
  8
LAYER-1
 10
6.468434
 20
0.211158
 30
0.000000
  0
VERTEX
  8
LAYER-1
 10
6.464094
 20
0.211158
 30
0.000000
  0
VERTEX
  8
LAYER-1
 10
6.460622
 20
0.206818
 30
0.000000
  0
VERTEX
  8
LAYER-1
 10
6.459754
 20
0.201610
 30
0.000000
  0
VERTEX
  8
LAYER-1
 10
6.461490
 20
0.197269
 30
0.000000
  0
VERTEX
  8
LAYER-1
 10
6.465830
 20
0.195533
 30
0.000000
  0
VERTEX
  8
LAYER-1
 10
6.470170
 20
0.195533
 30
0.000000
  0
VERTEX
  8
LAYER-1
 10
6.474511
 20
0.199005
 30
0.000000
  0
VERTEX
  8
LAYER-1
 10
6.474511
 20
0.203345
 30
0.000000
  0
VERTEX
  8
LAYER-1
 10
6.473643
 20
0.207687
 30
0.000000
  0
VERTEX
  8
LAYER-1
 10
6.469302
 20
0.210292
 30
0.000000
  0
SEQEND
  8
LAYER-1
  0
POLYLINE
  8
LAYER-1
 66
  1
 70
  1
 62
  0
 10
6.484060
 20
0.122616
 30
0.000000
  0
VERTEX
  8
LAYER-1
 10
6.484060
 20
0.122616
 30
0.000000
  0
VERTEX
  8
LAYER-1
 10
6.471039
 20
0.100045
 30
0.000000
  0
VERTEX
  8
LAYER-1
 10
6.501421
 20
0.120878
 30
0.000000
  0
SEQEND
  8
LAYER-1
  0
POLYLINE
  8
LAYER-1
 66
  1
 70
  1
 62
  0
 10
6.578511
 20
0.137033
 30
0.000000
  0
VERTEX
  8
LAYER-1
 10
6.578511
 20
0.137033
 30
0.000000
  0
VERTEX
  8
LAYER-1
 10
6.565824
 20
0.117670
 30
0.000000
  0
VERTEX
  8
LAYER-1
 10
6.577175
 20
0.111659
 30
0.000000
  0
SEQEND
  8
LAYER-1
  0
POLYLINE
  8
LAYER-1
 66
  1
 70
  0
 62
  0
 10
6.609927
 20
0.215498
 30
0.000000
  0
VERTEX
  8
LAYER-1
 10
6.609927
 20
0.215498
 30
0.000000
  0
VERTEX
  8
LAYER-1
 10
6.605587
 20
0.215498
 30
0.000000
  0
VERTEX
  8
LAYER-1
 10
6.602115
 20
0.211157
 30
0.000000
  0
VERTEX
  8
LAYER-1
 10
6.601247
 20
0.205950
 30
0.000000
  0
VERTEX
  8
LAYER-1
 10
6.602982
 20
0.201608
 30
0.000000
  0
VERTEX
  8
LAYER-1
 10
6.607323
 20
0.199873
 30
0.000000
  0
VERTEX
  8
LAYER-1
 10
6.611664
 20
0.199873
 30
0.000000
  0
VERTEX
  8
LAYER-1
 10
6.616004
 20
0.203345
 30
0.000000
  0
VERTEX
  8
LAYER-1
 10
6.616004
 20
0.207686
 30
0.000000
  0
VERTEX
  8
LAYER-1
 10
6.615136
 20
0.212026
 30
0.000000
  0
VERTEX
  8
LAYER-1
 10
6.610795
 20
0.214631
 30
0.000000
  0
SEQEND
  8
LAYER-1
  0
POLYLINE
  8
LAYER-1
 66
  1
 70
  0
 62
  0
 10
5.886838
 20
0.207686
 30
0.000000
  0
VERTEX
  8
LAYER-1
 10
5.886838
 20
0.207686
 30
0.000000
  0
VERTEX
  8
LAYER-1
 10
5.886838
 20
0.203345
 30
0.000000
  0
VERTEX
  8
LAYER-1
 10
5.891179
 20
0.199873
 30
0.000000
  0
VERTEX
  8
LAYER-1
 10
5.896387
 20
0.199004
 30
0.000000
  0
VERTEX
  8
LAYER-1
 10
5.900728
 20
0.200740
 30
0.000000
  0
VERTEX
  8
LAYER-1
 10
5.902463
 20
0.205081
 30
0.000000
  0
VERTEX
  8
LAYER-1
 10
5.902463
 20
0.209421
 30
0.000000
  0
VERTEX
  8
LAYER-1
 10
5.898991
 20
0.213762
 30
0.000000
  0
VERTEX
  8
LAYER-1
 10
5.894651
 20
0.213762
 30
0.000000
  0
VERTEX
  8
LAYER-1
 10
5.890310
 20
0.212893
 30
0.000000
  0
VERTEX
  8
LAYER-1
 10
5.887705
 20
0.208552
 30
0.000000
  0
SEQEND
  8
LAYER-1
  0
POLYLINE
  8
LAYER-1
 66
  1
 70
  0
 62
  0
 10
6.450204
 20
0.123482
 30
0.000000
  0
VERTEX
  8
LAYER-1
 10
6.450204
 20
0.123482
 30
0.000000
  0
VERTEX
  8
LAYER-1
 10
6.445864
 20
0.123482
 30
0.000000
  0
VERTEX
  8
LAYER-1
 10
6.442392
 20
0.119141
 30
0.000000
  0
VERTEX
  8
LAYER-1
 10
6.441524
 20
0.113933
 30
0.000000
  0
VERTEX
  8
LAYER-1
 10
6.443260
 20
0.109593
 30
0.000000
  0
VERTEX
  8
LAYER-1
 10
6.447600
 20
0.107857
 30
0.000000
  0
VERTEX
  8
LAYER-1
 10
6.451940
 20
0.107857
 30
0.000000
  0
VERTEX
  8
LAYER-1
 10
6.456281
 20
0.111329
 30
0.000000
  0
VERTEX
  8
LAYER-1
 10
6.456281
 20
0.115669
 30
0.000000
  0
VERTEX
  8
LAYER-1
 10
6.455413
 20
0.120010
 30
0.000000
  0
VERTEX
  8
LAYER-1
 10
6.451072
 20
0.122615
 30
0.000000
  0
SEQEND
  8
LAYER-1
  0
POLYLINE
  8
LAYER-1
 66
  1
 70
  0
 62
  0
 10
6.348644
 20
0.161244
 30
0.000000
  0
VERTEX
  8
LAYER-1
 10
6.348644
 20
0.161244
 30
0.000000
  0
VERTEX
  8
LAYER-1
 10
6.348644
 20
0.165585
 30
0.000000
  0
VERTEX
  8
LAYER-1
 10
6.344303
 20
0.169056
 30
0.000000
  0
VERTEX
  8
LAYER-1
 10
6.339095
 20
0.169924
 30
0.000000
  0
VERTEX
  8
LAYER-1
 10
6.334755
 20
0.168188
 30
0.000000
  0
VERTEX
  8
LAYER-1
 10
6.333019
 20
0.163848
 30
0.000000
  0
VERTEX
  8
LAYER-1
 10
6.333019
 20
0.159508
 30
0.000000
  0
VERTEX
  8
LAYER-1
 10
6.336491
 20
0.155168
 30
0.000000
  0
VERTEX
  8
LAYER-1
 10
6.340831
 20
0.155168
 30
0.000000
  0
VERTEX
  8
LAYER-1
 10
6.345172
 20
0.156036
 30
0.000000
  0
VERTEX
  8
LAYER-1
 10
6.347775
 20
0.160376
 30
0.000000
  0
SEQEND
  8
LAYER-1
  0
POLYLINE
  8
LAYER-1
 66
  1
 70
  1
 62
  0
 10
6.280934
 20
0.148223
 30
0.000000
  0
VERTEX
  8
LAYER-1
 10
6.280934
 20
0.148223
 30
0.000000
  0
VERTEX
  8
LAYER-1
 10
6.258366
 20
0.161243
 30
0.000000
  0
VERTEX
  8
LAYER-1
 10
6.279198
 20
0.130861
 30
0.000000
  0
SEQEND
  8
LAYER-1
  0
POLYLINE
  8
LAYER-1
 66
  1
 70
  0
 62
  0
 10
6.198470
 20
0.113501
 30
0.000000
  0
VERTEX
  8
LAYER-1
 10
6.198470
 20
0.113501
 30
0.000000
  0
VERTEX
  8
LAYER-1
 10
6.198470
 20
0.117842
 30
0.000000
  0
VERTEX
  8
LAYER-1
 10
6.194130
 20
0.121313
 30
0.000000
  0
VERTEX
  8
LAYER-1
 10
6.188922
 20
0.122181
 30
0.000000
  0
VERTEX
  8
LAYER-1
 10
6.184581
 20
0.120445
 30
0.000000
  0
VERTEX
  8
LAYER-1
 10
6.182845
 20
0.116106
 30
0.000000
  0
VERTEX
  8
LAYER-1
 10
6.182845
 20
0.111765
 30
0.000000
  0
VERTEX
  8
LAYER-1
 10
6.186317
 20
0.107424
 30
0.000000
  0
VERTEX
  8
LAYER-1
 10
6.190658
 20
0.107424
 30
0.000000
  0
VERTEX
  8
LAYER-1
 10
6.194998
 20
0.108293
 30
0.000000
  0
VERTEX
  8
LAYER-1
 10
6.197601
 20
0.112633
 30
0.000000
  0
SEQEND
  8
LAYER-1
  0
POLYLINE
  8
LAYER-1
 66
  1
 70
  1
 62
  0
 10
6.388748
 20
0.103779
 30
0.000000
  0
VERTEX
  8
LAYER-1
 10
6.388748
 20
0.103779
 30
0.000000
  0
VERTEX
  8
LAYER-1
 10
6.381804
 20
0.129820
 30
0.000000
  0
VERTEX
  8
LAYER-1
 10
6.356630
 20
0.115933
 30
0.000000
  0
SEQEND
  8
LAYER-1
  0
POLYLINE
  8
LAYER-1
 66
  1
 70
  1
 62
  0
 10
6.410275
 20
0.158206
 30
0.000000
  0
VERTEX
  8
LAYER-1
 10
6.410275
 20
0.158206
 30
0.000000
  0
VERTEX
  8
LAYER-1
 10
6.423296
 20
0.180776
 30
0.000000
  0
VERTEX
  8
LAYER-1
 10
6.392914
 20
0.159943
 30
0.000000
  0
SEQEND
  8
LAYER-1
  0
POLYLINE
  8
LAYER-1
 66
  1
 70
  1
 62
  0
 10
5.838226
 20
0.101782
 30
0.000000
  0
VERTEX
  8
LAYER-1
 10
5.838226
 20
0.101782
 30
0.000000
  0
VERTEX
  8
LAYER-1
 10
5.815656
 20
0.114805
 30
0.000000
  0
VERTEX
  8
LAYER-1
 10
5.836489
 20
0.084421
 30
0.000000
  0
SEQEND
  8
LAYER-1
  0
POLYLINE
  8
LAYER-1
 66
  1
 70
  1
 62
  0
 10
6.616005
 20
0.126088
 30
0.000000
  0
VERTEX
  8
LAYER-1
 10
6.616005
 20
0.126088
 30
0.000000
  0
VERTEX
  8
LAYER-1
 10
6.632498
 20
0.151262
 30
0.000000
  0
VERTEX
  8
LAYER-1
 10
6.617741
 20
0.159075
 30
0.000000
  0
SEQEND
  8
LAYER-1
  0
POLYLINE
  8
LAYER-1
 66
  1
 70
  0
 62
  0
 10
6.646905
 20
0.052685
 30
0.000000
  0
VERTEX
  8
LAYER-1
 10
6.646905
 20
0.052685
 30
0.000000
  0
VERTEX
  8
LAYER-1
 10
6.651245
 20
0.052685
 30
0.000000
  0
VERTEX
  8
LAYER-1
 10
6.654717
 20
0.057025
 30
0.000000
  0
VERTEX
  8
LAYER-1
 10
6.655585
 20
0.062233
 30
0.000000
  0
VERTEX
  8
LAYER-1
 10
6.653849
 20
0.066574
 30
0.000000
  0
VERTEX
  8
LAYER-1
 10
6.649509
 20
0.068310
 30
0.000000
  0
VERTEX
  8
LAYER-1
 10
6.645169
 20
0.068310
 30
0.000000
  0
VERTEX
  8
LAYER-1
 10
6.640828
 20
0.064838
 30
0.000000
  0
VERTEX
  8
LAYER-1
 10
6.640828
 20
0.060498
 30
0.000000
  0
VERTEX
  8
LAYER-1
 10
6.641697
 20
0.056157
 30
0.000000
  0
VERTEX
  8
LAYER-1
 10
6.646037
 20
0.053552
 30
0.000000
  0
SEQEND
  8
LAYER-1
  0
POLYLINE
  8
LAYER-1
 66
  1
 70
  0
 62
  0
 10
6.623468
 20
0.077864
 30
0.000000
  0
VERTEX
  8
LAYER-1
 10
6.623468
 20
0.077864
 30
0.000000
  0
VERTEX
  8
LAYER-1
 10
6.627809
 20
0.077864
 30
0.000000
  0
VERTEX
  8
LAYER-1
 10
6.631281
 20
0.082205
 30
0.000000
  0
VERTEX
  8
LAYER-1
 10
6.632149
 20
0.087413
 30
0.000000
  0
VERTEX
  8
LAYER-1
 10
6.630413
 20
0.091753
 30
0.000000
  0
VERTEX
  8
LAYER-1
 10
6.626072
 20
0.093489
 30
0.000000
  0
VERTEX
  8
LAYER-1
 10
6.621732
 20
0.093489
 30
0.000000
  0
VERTEX
  8
LAYER-1
 10
6.617392
 20
0.090018
 30
0.000000
  0
VERTEX
  8
LAYER-1
 10
6.617392
 20
0.085676
 30
0.000000
  0
VERTEX
  8
LAYER-1
 10
6.618259
 20
0.081336
 30
0.000000
  0
VERTEX
  8
LAYER-1
 10
6.622601
 20
0.078731
 30
0.000000
  0
SEQEND
  8
LAYER-1
  0
POLYLINE
  8
LAYER-1
 66
  1
 70
  1
 62
  0
 10
6.697686
 20
0.093920
 30
0.000000
  0
VERTEX
  8
LAYER-1
 10
6.697686
 20
0.093920
 30
0.000000
  0
VERTEX
  8
LAYER-1
 10
6.672512
 20
0.110413
 30
0.000000
  0
VERTEX
  8
LAYER-1
 10
6.664700
 20
0.095656
 30
0.000000
  0
SEQEND
  8
LAYER-1
  0
POLYLINE
  8
LAYER-1
 66
  1
 70
  0
 62
  0
 10
6.708104
 20
0.132984
 30
0.000000
  0
VERTEX
  8
LAYER-1
 10
6.708104
 20
0.132984
 30
0.000000
  0
VERTEX
  8
LAYER-1
 10
6.708104
 20
0.137325
 30
0.000000
  0
VERTEX
  8
LAYER-1
 10
6.703762
 20
0.140796
 30
0.000000
  0
VERTEX
  8
LAYER-1
 10
6.698555
 20
0.141664
 30
0.000000
  0
VERTEX
  8
LAYER-1
 10
6.694215
 20
0.139929
 30
0.000000
  0
VERTEX
  8
LAYER-1
 10
6.692479
 20
0.135588
 30
0.000000
  0
VERTEX
  8
LAYER-1
 10
6.692479
 20
0.131248
 30
0.000000
  0
VERTEX
  8
LAYER-1
 10
6.695950
 20
0.126907
 30
0.000000
  0
VERTEX
  8
LAYER-1
 10
6.700291
 20
0.126907
 30
0.000000
  0
VERTEX
  8
LAYER-1
 10
6.704631
 20
0.127775
 30
0.000000
  0
VERTEX
  8
LAYER-1
 10
6.707236
 20
0.132117
 30
0.000000
  0
SEQEND
  8
LAYER-1
  0
POLYLINE
  8
LAYER-1
 66
  1
 70
  1
 62
  0
 10
6.654626
 20
0.138835
 30
0.000000
  0
VERTEX
  8
LAYER-1
 10
6.654626
 20
0.138835
 30
0.000000
  0
VERTEX
  8
LAYER-1
 10
6.667313
 20
0.158200
 30
0.000000
  0
VERTEX
  8
LAYER-1
 10
6.655962
 20
0.164211
 30
0.000000
  0
SEQEND
  8
LAYER-1
  0
POLYLINE
  8
LAYER-1
 66
  1
 70
  0
 62
  0
 10
5.977982
 20
0.168623
 30
0.000000
  0
VERTEX
  8
LAYER-1
 10
5.977982
 20
0.168623
 30
0.000000
  0
VERTEX
  8
LAYER-1
 10
5.977982
 20
0.172962
 30
0.000000
  0
VERTEX
  8
LAYER-1
 10
5.973642
 20
0.176436
 30
0.000000
  0
VERTEX
  8
LAYER-1
 10
5.968434
 20
0.177302
 30
0.000000
  0
VERTEX
  8
LAYER-1
 10
5.964094
 20
0.175567
 30
0.000000
  0
VERTEX
  8
LAYER-1
 10
5.962357
 20
0.171226
 30
0.000000
  0
VERTEX
  8
LAYER-1
 10
5.962357
 20
0.166885
 30
0.000000
  0
VERTEX
  8
LAYER-1
 10
5.965829
 20
0.162546
 30
0.000000
  0
VERTEX
  8
LAYER-1
 10
5.970170
 20
0.162546
 30
0.000000
  0
VERTEX
  8
LAYER-1
 10
5.974511
 20
0.163413
 30
0.000000
  0
VERTEX
  8
LAYER-1
 10
5.977116
 20
0.167754
 30
0.000000
  0
SEQEND
  8
LAYER-1
  0
POLYLINE
  8
LAYER-1
 66
  1
 70
  0
 62
  0
 10
6.563921
 20
0.132165
 30
0.000000
  0
VERTEX
  8
LAYER-1
 10
6.563921
 20
0.132165
 30
0.000000
  0
VERTEX
  8
LAYER-1
 10
6.568262
 20
0.132165
 30
0.000000
  0
VERTEX
  8
LAYER-1
 10
6.571734
 20
0.136506
 30
0.000000
  0
VERTEX
  8
LAYER-1
 10
6.572601
 20
0.141713
 30
0.000000
  0
VERTEX
  8
LAYER-1
 10
6.570866
 20
0.146055
 30
0.000000
  0
VERTEX
  8
LAYER-1
 10
6.566525
 20
0.147790
 30
0.000000
  0
VERTEX
  8
LAYER-1
 10
6.562185
 20
0.147790
 30
0.000000
  0
VERTEX
  8
LAYER-1
 10
6.557844
 20
0.144318
 30
0.000000
  0
VERTEX
  8
LAYER-1
 10
6.557844
 20
0.139977
 30
0.000000
  0
VERTEX
  8
LAYER-1
 10
6.558712
 20
0.135637
 30
0.000000
  0
VERTEX
  8
LAYER-1
 10
6.563053
 20
0.133032
 30
0.000000
  0
SEQEND
  8
LAYER-1
  0
POLYLINE
  8
LAYER-1
 66
  1
 70
  1
 62
  0
 10
0.821557
 20
0.135846
 30
0.000000
  0
VERTEX
  8
LAYER-1
 10
0.821557
 20
0.135846
 30
0.000000
  0
VERTEX
  8
LAYER-1
 10
0.798987
 20
0.148866
 30
0.000000
  0
VERTEX
  8
LAYER-1
 10
0.819819
 20
0.118485
 30
0.000000
  0
SEQEND
  8
LAYER-1
  0
POLYLINE
  8
LAYER-1
 66
  1
 70
  0
 62
  0
 10
0.810273
 20
0.069006
 30
0.000000
  0
VERTEX
  8
LAYER-1
 10
0.810273
 20
0.069006
 30
0.000000
  0
VERTEX
  8
LAYER-1
 10
0.810273
 20
0.073345
 30
0.000000
  0
VERTEX
  8
LAYER-1
 10
0.805932
 20
0.076819
 30
0.000000
  0
VERTEX
  8
LAYER-1
 10
0.800724
 20
0.077685
 30
0.000000
  0
VERTEX
  8
LAYER-1
 10
0.796384
 20
0.075950
 30
0.000000
  0
VERTEX
  8
LAYER-1
 10
0.794648
 20
0.071609
 30
0.000000
  0
VERTEX
  8
LAYER-1
 10
0.794648
 20
0.067268
 30
0.000000
  0
VERTEX
  8
LAYER-1
 10
0.798120
 20
0.062929
 30
0.000000
  0
VERTEX
  8
LAYER-1
 10
0.802460
 20
0.062929
 30
0.000000
  0
VERTEX
  8
LAYER-1
 10
0.806801
 20
0.063796
 30
0.000000
  0
VERTEX
  8
LAYER-1
 10
0.809406
 20
0.068137
 30
0.000000
  0
SEQEND
  8
LAYER-1
  0
POLYLINE
  8
LAYER-1
 66
  1
 70
  1
 62
  0
 10
1.088312
 20
0.057805
 30
0.000000
  0
VERTEX
  8
LAYER-1
 10
1.088312
 20
0.057805
 30
0.000000
  0
VERTEX
  8
LAYER-1
 10
1.104805
 20
0.082980
 30
0.000000
  0
VERTEX
  8
LAYER-1
 10
1.090048
 20
0.090792
 30
0.000000
  0
SEQEND
  8
LAYER-1
  0
POLYLINE
  8
LAYER-1
 66
  1
 70
  1
 62
  0
 10
1.136221
 20
0.072900
 30
0.000000
  0
VERTEX
  8
LAYER-1
 10
1.136221
 20
0.072900
 30
0.000000
  0
VERTEX
  8
LAYER-1
 10
1.148909
 20
0.092265
 30
0.000000
  0
VERTEX
  8
LAYER-1
 10
1.137558
 20
0.098275
 30
0.000000
  0
SEQEND
  8
LAYER-1
  0
POLYLINE
  8
LAYER-1
 66
  1
 70
  0
 62
  0
 10
1.200291
 20
0.049127
 30
0.000000
  0
VERTEX
  8
LAYER-1
 10
1.200291
 20
0.049127
 30
0.000000
  0
VERTEX
  8
LAYER-1
 10
1.204632
 20
0.049127
 30
0.000000
  0
VERTEX
  8
LAYER-1
 10
1.208104
 20
0.053468
 30
0.000000
  0
VERTEX
  8
LAYER-1
 10
1.208972
 20
0.058676
 30
0.000000
  0
VERTEX
  8
LAYER-1
 10
1.207236
 20
0.063017
 30
0.000000
  0
VERTEX
  8
LAYER-1
 10
1.202895
 20
0.064752
 30
0.000000
  0
VERTEX
  8
LAYER-1
 10
1.198555
 20
0.064752
 30
0.000000
  0
VERTEX
  8
LAYER-1
 10
1.194215
 20
0.061281
 30
0.000000
  0
VERTEX
  8
LAYER-1
 10
1.194215
 20
0.056940
 30
0.000000
  0
VERTEX
  8
LAYER-1
 10
1.195082
 20
0.052600
 30
0.000000
  0
VERTEX
  8
LAYER-1
 10
1.199423
 20
0.049995
 30
0.000000
  0
SEQEND
  8
LAYER-1
  0
POLYLINE
  8
LAYER-1
 66
  1
 70
  1
 62
  0
 10
1.234145
 20
0.112061
 30
0.000000
  0
VERTEX
  8
LAYER-1
 10
1.234145
 20
0.112061
 30
0.000000
  0
VERTEX
  8
LAYER-1
 10
1.208104
 20
0.105115
 30
0.000000
  0
VERTEX
  8
LAYER-1
 10
1.221992
 20
0.079942
 30
0.000000
  0
SEQEND
  8
LAYER-1
  0
POLYLINE
  8
LAYER-1
 66
  1
 70
  0
 62
  0
 10
2.602028
 20
0.079767
 30
0.000000
  0
VERTEX
  8
LAYER-1
 10
2.602028
 20
0.079767
 30
0.000000
  0
VERTEX
  8
LAYER-1
 10
2.602028
 20
0.084108
 30
0.000000
  0
VERTEX
  8
LAYER-1
 10
2.597687
 20
0.087580
 30
0.000000
  0
VERTEX
  8
LAYER-1
 10
2.592479
 20
0.088448
 30
0.000000
  0
VERTEX
  8
LAYER-1
 10
2.588139
 20
0.086711
 30
0.000000
  0
VERTEX
  8
LAYER-1
 10
2.586403
 20
0.082372
 30
0.000000
  0
VERTEX
  8
LAYER-1
 10
2.586403
 20
0.078032
 30
0.000000
  0
VERTEX
  8
LAYER-1
 10
2.589874
 20
0.073691
 30
0.000000
  0
VERTEX
  8
LAYER-1
 10
2.594215
 20
0.073691
 30
0.000000
  0
VERTEX
  8
LAYER-1
 10
2.598556
 20
0.074560
 30
0.000000
  0
VERTEX
  8
LAYER-1
 10
2.601160
 20
0.078899
 30
0.000000
  0
SEQEND
  8
LAYER-1
  0
POLYLINE
  8
LAYER-1
 66
  1
 70
  1
 62
  0
 10
2.536055
 20
0.042876
 30
0.000000
  0
VERTEX
  8
LAYER-1
 10
2.536055
 20
0.042876
 30
0.000000
  0
VERTEX
  8
LAYER-1
 10
2.529110
 20
0.068917
 30
0.000000
  0
VERTEX
  8
LAYER-1
 10
2.503937
 20
0.055029
 30
0.000000
  0
SEQEND
  8
LAYER-1
  0
POLYLINE
  8
LAYER-1
 66
  1
 70
  1
 62
  0
 10
2.548207
 20
0.079335
 30
0.000000
  0
VERTEX
  8
LAYER-1
 10
2.548207
 20
0.079335
 30
0.000000
  0
VERTEX
  8
LAYER-1
 10
2.561228
 20
0.101904
 30
0.000000
  0
VERTEX
  8
LAYER-1
 10
2.530846
 20
0.081072
 30
0.000000
  0
SEQEND
  8
LAYER-1
  0
POLYLINE
  8
LAYER-1
 66
  1
 70
  0
 62
  0
 10
2.384406
 20
0.090185
 30
0.000000
  0
VERTEX
  8
LAYER-1
 10
2.384406
 20
0.090185
 30
0.000000
  0
VERTEX
  8
LAYER-1
 10
2.380065
 20
0.090185
 30
0.000000
  0
VERTEX
  8
LAYER-1
 10
2.376594
 20
0.085844
 30
0.000000
  0
VERTEX
  8
LAYER-1
 10
2.375726
 20
0.080636
 30
0.000000
  0
VERTEX
  8
LAYER-1
 10
2.377462
 20
0.076296
 30
0.000000
  0
VERTEX
  8
LAYER-1
 10
2.381802
 20
0.074560
 30
0.000000
  0
VERTEX
  8
LAYER-1
 10
2.386142
 20
0.074560
 30
0.000000
  0
VERTEX
  8
LAYER-1
 10
2.390483
 20
0.078032
 30
0.000000
  0
VERTEX
  8
LAYER-1
 10
2.390483
 20
0.082372
 30
0.000000
  0
VERTEX
  8
LAYER-1
 10
2.389615
 20
0.086713
 30
0.000000
  0
VERTEX
  8
LAYER-1
 10
2.385274
 20
0.089317
 30
0.000000
  0
SEQEND
  8
LAYER-1
  0
POLYLINE
  8
LAYER-1
 66
  1
 70
  1
 62
  0
 10
2.464267
 20
0.052858
 30
0.000000
  0
VERTEX
  8
LAYER-1
 10
2.464267
 20
0.052858
 30
0.000000
  0
VERTEX
  8
LAYER-1
 10
2.441697
 20
0.065880
 30
0.000000
  0
VERTEX
  8
LAYER-1
 10
2.462529
 20
0.035497
 30
0.000000
  0
SEQEND
  8
LAYER-1
  0
POLYLINE
  8
LAYER-1
 66
  1
 70
  1
 62
  0
 10
3.059238
 20
0.053708
 30
0.000000
  0
VERTEX
  8
LAYER-1
 10
3.059238
 20
0.053708
 30
0.000000
  0
VERTEX
  8
LAYER-1
 10
3.072259
 20
0.076280
 30
0.000000
  0
VERTEX
  8
LAYER-1
 10
3.041877
 20
0.055446
 30
0.000000
  0
SEQEND
  8
LAYER-1
  0
POLYLINE
  8
LAYER-1
 66
  1
 70
  1
 62
  0
 10
2.964788
 20
0.060121
 30
0.000000
  0
VERTEX
  8
LAYER-1
 10
2.964788
 20
0.060121
 30
0.000000
  0
VERTEX
  8
LAYER-1
 10
2.977475
 20
0.079486
 30
0.000000
  0
VERTEX
  8
LAYER-1
 10
2.966124
 20
0.085497
 30
0.000000
  0
SEQEND
  8
LAYER-1
  0
POLYLINE
  8
LAYER-1
 66
  1
 70
  0
 62
  0
 10
3.093093
 20
0.052842
 30
0.000000
  0
VERTEX
  8
LAYER-1
 10
3.093093
 20
0.052842
 30
0.000000
  0
VERTEX
  8
LAYER-1
 10
3.097434
 20
0.052842
 30
0.000000
  0
VERTEX
  8
LAYER-1
 10
3.100906
 20
0.057182
 30
0.000000
  0
VERTEX
  8
LAYER-1
 10
3.101774
 20
0.062390
 30
0.000000
  0
VERTEX
  8
LAYER-1
 10
3.100038
 20
0.066731
 30
0.000000
  0
VERTEX
  8
LAYER-1
 10
3.095697
 20
0.068467
 30
0.000000
  0
VERTEX
  8
LAYER-1
 10
3.091358
 20
0.068467
 30
0.000000
  0
VERTEX
  8
LAYER-1
 10
3.087017
 20
0.064995
 30
0.000000
  0
VERTEX
  8
LAYER-1
 10
3.087017
 20
0.060655
 30
0.000000
  0
VERTEX
  8
LAYER-1
 10
3.087885
 20
0.056313
 30
0.000000
  0
VERTEX
  8
LAYER-1
 10
3.092225
 20
0.053708
 30
0.000000
  0
SEQEND
  8
LAYER-1
  0
POLYLINE
  8
LAYER-1
 66
  1
 70
  0
 62
  0
 10
2.979377
 20
0.044158
 30
0.000000
  0
VERTEX
  8
LAYER-1
 10
2.979377
 20
0.044158
 30
0.000000
  0
VERTEX
  8
LAYER-1
 10
2.975036
 20
0.044158
 30
0.000000
  0
VERTEX
  8
LAYER-1
 10
2.971564
 20
0.039818
 30
0.000000
  0
VERTEX
  8
LAYER-1
 10
2.970696
 20
0.034609
 30
0.000000
  0
VERTEX
  8
LAYER-1
 10
2.972432
 20
0.030269
 30
0.000000
  0
VERTEX
  8
LAYER-1
 10
2.976773
 20
0.028533
 30
0.000000
  0
VERTEX
  8
LAYER-1
 10
2.981113
 20
0.028533
 30
0.000000
  0
VERTEX
  8
LAYER-1
 10
2.985453
 20
0.032005
 30
0.000000
  0
VERTEX
  8
LAYER-1
 10
2.985453
 20
0.036346
 30
0.000000
  0
VERTEX
  8
LAYER-1
 10
2.984585
 20
0.040687
 30
0.000000
  0
VERTEX
  8
LAYER-1
 10
2.980245
 20
0.043291
 30
0.000000
  0
SEQEND
  8
LAYER-1
  0
POLYLINE
  8
LAYER-1
 66
  1
 70
  1
 62
  0
 10
2.820430
 20
0.057460
 30
0.000000
  0
VERTEX
  8
LAYER-1
 10
2.820430
 20
0.057460
 30
0.000000
  0
VERTEX
  8
LAYER-1
 10
2.833451
 20
0.080030
 30
0.000000
  0
VERTEX
  8
LAYER-1
 10
2.803069
 20
0.059197
 30
0.000000
  0
SEQEND
  8
LAYER-1
  0
POLYLINE
  8
LAYER-1
 66
  1
 70
  0
 62
  0
 10
2.854286
 20
0.056592
 30
0.000000
  0
VERTEX
  8
LAYER-1
 10
2.854286
 20
0.056592
 30
0.000000
  0
VERTEX
  8
LAYER-1
 10
2.858627
 20
0.056592
 30
0.000000
  0
VERTEX
  8
LAYER-1
 10
2.862098
 20
0.060933
 30
0.000000
  0
VERTEX
  8
LAYER-1
 10
2.862967
 20
0.066141
 30
0.000000
  0
VERTEX
  8
LAYER-1
 10
2.861231
 20
0.070481
 30
0.000000
  0
VERTEX
  8
LAYER-1
 10
2.856890
 20
0.072217
 30
0.000000
  0
VERTEX
  8
LAYER-1
 10
2.852550
 20
0.072217
 30
0.000000
  0
VERTEX
  8
LAYER-1
 10
2.848209
 20
0.068745
 30
0.000000
  0
VERTEX
  8
LAYER-1
 10
2.848209
 20
0.064405
 30
0.000000
  0
VERTEX
  8
LAYER-1
 10
2.849077
 20
0.060064
 30
0.000000
  0
VERTEX
  8
LAYER-1
 10
2.853418
 20
0.057460
 30
0.000000
  0
SEQEND
  8
LAYER-1
  0
POLYLINE
  8
LAYER-1
 66
  1
 70
  1
 62
  0
 10
3.452548
 20
0.092530
 30
0.000000
  0
VERTEX
  8
LAYER-1
 10
3.452548
 20
0.092530
 30
0.000000
  0
VERTEX
  8
LAYER-1
 10
3.475118
 20
0.079508
 30
0.000000
  0
VERTEX
  8
LAYER-1
 10
3.454286
 20
0.109890
 30
0.000000
  0
SEQEND
  8
LAYER-1
  0
POLYLINE
  8
LAYER-1
 66
  1
 70
  0
 62
  0
 10
3.451681
 20
0.058674
 30
0.000000
  0
VERTEX
  8
LAYER-1
 10
3.451681
 20
0.058674
 30
0.000000
  0
VERTEX
  8
LAYER-1
 10
3.451681
 20
0.054333
 30
0.000000
  0
VERTEX
  8
LAYER-1
 10
3.456022
 20
0.050862
 30
0.000000
  0
VERTEX
  8
LAYER-1
 10
3.461229
 20
0.049994
 30
0.000000
  0
VERTEX
  8
LAYER-1
 10
3.465570
 20
0.051730
 30
0.000000
  0
VERTEX
  8
LAYER-1
 10
3.467306
 20
0.056070
 30
0.000000
  0
VERTEX
  8
LAYER-1
 10
3.467306
 20
0.060410
 30
0.000000
  0
VERTEX
  8
LAYER-1
 10
3.463834
 20
0.064751
 30
0.000000
  0
VERTEX
  8
LAYER-1
 10
3.459493
 20
0.064751
 30
0.000000
  0
VERTEX
  8
LAYER-1
 10
3.455153
 20
0.063883
 30
0.000000
  0
VERTEX
  8
LAYER-1
 10
3.452548
 20
0.059542
 30
0.000000
  0
SEQEND
  8
LAYER-1
  0
POLYLINE
  8
LAYER-1
 66
  1
 70
  1
 62
  0
 10
4.002026
 20
0.124559
 30
0.000000
  0
VERTEX
  8
LAYER-1
 10
4.002026
 20
0.124559
 30
0.000000
  0
VERTEX
  8
LAYER-1
 10
4.008971
 20
0.098518
 30
0.000000
  0
VERTEX
  8
LAYER-1
 10
4.034145
 20
0.112406
 30
0.000000
  0
SEQEND
  8
LAYER-1
  0
POLYLINE
  8
LAYER-1
 66
  1
 70
  1
 62
  0
 10
3.973814
 20
0.087665
 30
0.000000
  0
VERTEX
  8
LAYER-1
 10
3.973814
 20
0.087665
 30
0.000000
  0
VERTEX
  8
LAYER-1
 10
3.996383
 20
0.074645
 30
0.000000
  0
VERTEX
  8
LAYER-1
 10
3.975551
 20
0.105026
 30
0.000000
  0
SEQEND
  8
LAYER-1
  0
POLYLINE
  8
LAYER-1
 66
  1
 70
  1
 62
  0
 10
4.090468
 20
0.079686
 30
0.000000
  0
VERTEX
  8
LAYER-1
 10
4.090468
 20
0.079686
 30
0.000000
  0
VERTEX
  8
LAYER-1
 10
4.109833
 20
0.066998
 30
0.000000
  0
VERTEX
  8
LAYER-1
 10
4.115843
 20
0.078350
 30
0.000000
  0
SEQEND
  8
LAYER-1
  0
POLYLINE
  8
LAYER-1
 66
  1
 70
  0
 62
  0
 10
4.035013
 20
0.085493
 30
0.000000
  0
VERTEX
  8
LAYER-1
 10
4.035013
 20
0.085493
 30
0.000000
  0
VERTEX
  8
LAYER-1
 10
4.030673
 20
0.085493
 30
0.000000
  0
VERTEX
  8
LAYER-1
 10
4.027201
 20
0.081152
 30
0.000000
  0
VERTEX
  8
LAYER-1
 10
4.026333
 20
0.075945
 30
0.000000
  0
VERTEX
  8
LAYER-1
 10
4.028069
 20
0.071604
 30
0.000000
  0
VERTEX
  8
LAYER-1
 10
4.032408
 20
0.069868
 30
0.000000
  0
VERTEX
  8
LAYER-1
 10
4.036749
 20
0.069868
 30
0.000000
  0
VERTEX
  8
LAYER-1
 10
4.041090
 20
0.073340
 30
0.000000
  0
VERTEX
  8
LAYER-1
 10
4.041090
 20
0.077681
 30
0.000000
  0
VERTEX
  8
LAYER-1
 10
4.040221
 20
0.082021
 30
0.000000
  0
VERTEX
  8
LAYER-1
 10
4.035881
 20
0.084625
 30
0.000000
  0
SEQEND
  8
LAYER-1
  0
POLYLINE
  8
LAYER-1
 66
  1
 70
  0
 62
  0
 10
3.919562
 20
0.062925
 30
0.000000
  0
VERTEX
  8
LAYER-1
 10
3.919562
 20
0.062925
 30
0.000000
  0
VERTEX
  8
LAYER-1
 10
3.923902
 20
0.062925
 30
0.000000
  0
VERTEX
  8
LAYER-1
 10
3.927374
 20
0.067265
 30
0.000000
  0
VERTEX
  8
LAYER-1
 10
3.928243
 20
0.072472
 30
0.000000
  0
VERTEX
  8
LAYER-1
 10
3.926507
 20
0.076814
 30
0.000000
  0
VERTEX
  8
LAYER-1
 10
3.922167
 20
0.078550
 30
0.000000
  0
VERTEX
  8
LAYER-1
 10
3.917826
 20
0.078550
 30
0.000000
  0
VERTEX
  8
LAYER-1
 10
3.913485
 20
0.075077
 30
0.000000
  0
VERTEX
  8
LAYER-1
 10
3.913485
 20
0.070737
 30
0.000000
  0
VERTEX
  8
LAYER-1
 10
3.914354
 20
0.066396
 30
0.000000
  0
VERTEX
  8
LAYER-1
 10
3.918695
 20
0.063791
 30
0.000000
  0
SEQEND
  8
LAYER-1
  0
POLYLINE
  8
LAYER-1
 66
  1
 70
  1
 62
  0
 10
4.406208
 20
0.033237
 30
0.000000
  0
VERTEX
  8
LAYER-1
 10
4.406208
 20
0.033237
 30
0.000000
  0
VERTEX
  8
LAYER-1
 10
4.399264
 20
0.059279
 30
0.000000
  0
VERTEX
  8
LAYER-1
 10
4.374090
 20
0.045391
 30
0.000000
  0
SEQEND
  8
LAYER-1
  0
POLYLINE
  8
LAYER-1
 66
  1
 70
  1
 62
  0
 10
4.434421
 20
0.070131
 30
0.000000
  0
VERTEX
  8
LAYER-1
 10
4.434421
 20
0.070131
 30
0.000000
  0
VERTEX
  8
LAYER-1
 10
4.411851
 20
0.083152
 30
0.000000
  0
VERTEX
  8
LAYER-1
 10
4.432684
 20
0.052771
 30
0.000000
  0
SEQEND
  8
LAYER-1
  0
POLYLINE
  8
LAYER-1
 66
  1
 70
  1
 62
  0
 10
4.317767
 20
0.078111
 30
0.000000
  0
VERTEX
  8
LAYER-1
 10
4.317767
 20
0.078111
 30
0.000000
  0
VERTEX
  8
LAYER-1
 10
4.298402
 20
0.090799
 30
0.000000
  0
VERTEX
  8
LAYER-1
 10
4.292391
 20
0.079447
 30
0.000000
  0
SEQEND
  8
LAYER-1
  0
POLYLINE
  8
LAYER-1
 66
  1
 70
  0
 62
  0
 10
4.373221
 20
0.072304
 30
0.000000
  0
VERTEX
  8
LAYER-1
 10
4.373221
 20
0.072304
 30
0.000000
  0
VERTEX
  8
LAYER-1
 10
4.377562
 20
0.072304
 30
0.000000
  0
VERTEX
  8
LAYER-1
 10
4.381034
 20
0.076644
 30
0.000000
  0
VERTEX
  8
LAYER-1
 10
4.381902
 20
0.081852
 30
0.000000
  0
VERTEX
  8
LAYER-1
 10
4.380166
 20
0.086193
 30
0.000000
  0
VERTEX
  8
LAYER-1
 10
4.375826
 20
0.087929
 30
0.000000
  0
VERTEX
  8
LAYER-1
 10
4.371485
 20
0.087929
 30
0.000000
  0
VERTEX
  8
LAYER-1
 10
4.367145
 20
0.084457
 30
0.000000
  0
VERTEX
  8
LAYER-1
 10
4.367145
 20
0.080116
 30
0.000000
  0
VERTEX
  8
LAYER-1
 10
4.368014
 20
0.075775
 30
0.000000
  0
VERTEX
  8
LAYER-1
 10
4.372353
 20
0.073172
 30
0.000000
  0
SEQEND
  8
LAYER-1
  0
POLYLINE
  8
LAYER-1
 66
  1
 70
  0
 62
  0
 10
4.488673
 20
0.094872
 30
0.000000
  0
VERTEX
  8
LAYER-1
 10
4.488673
 20
0.094872
 30
0.000000
  0
VERTEX
  8
LAYER-1
 10
4.484332
 20
0.094872
 30
0.000000
  0
VERTEX
  8
LAYER-1
 10
4.480860
 20
0.090531
 30
0.000000
  0
VERTEX
  8
LAYER-1
 10
4.479991
 20
0.085324
 30
0.000000
  0
VERTEX
  8
LAYER-1
 10
4.481727
 20
0.080983
 30
0.000000
  0
VERTEX
  8
LAYER-1
 10
4.486068
 20
0.079247
 30
0.000000
  0
VERTEX
  8
LAYER-1
 10
4.490409
 20
0.079247
 30
0.000000
  0
VERTEX
  8
LAYER-1
 10
4.494749
 20
0.082719
 30
0.000000
  0
VERTEX
  8
LAYER-1
 10
4.494749
 20
0.087060
 30
0.000000
  0
VERTEX
  8
LAYER-1
 10
4.493880
 20
0.091400
 30
0.000000
  0
VERTEX
  8
LAYER-1
 10
4.489540
 20
0.094005
 30
0.000000
  0
SEQEND
  8
LAYER-1
  0
POLYLINE
  8
LAYER-1
 66
  1
 70
  1
 62
  0
 10
4.658552
 20
0.016831
 30
0.000000
  0
VERTEX
  8
LAYER-1
 10
4.658552
 20
0.016831
 30
0.000000
  0
VERTEX
  8
LAYER-1
 10
4.651607
 20
0.042872
 30
0.000000
  0
VERTEX
  8
LAYER-1
 10
4.626433
 20
0.028984
 30
0.000000
  0
SEQEND
  8
LAYER-1
  0
POLYLINE
  8
LAYER-1
 66
  1
 70
  1
 62
  0
 10
4.686764
 20
0.053725
 30
0.000000
  0
VERTEX
  8
LAYER-1
 10
4.686764
 20
0.053725
 30
0.000000
  0
VERTEX
  8
LAYER-1
 10
4.664194
 20
0.066745
 30
0.000000
  0
VERTEX
  8
LAYER-1
 10
4.685027
 20
0.036364
 30
0.000000
  0
SEQEND
  8
LAYER-1
  0
POLYLINE
  8
LAYER-1
 66
  1
 70
  1
 62
  0
 10
4.570110
 20
0.061705
 30
0.000000
  0
VERTEX
  8
LAYER-1
 10
4.570110
 20
0.061705
 30
0.000000
  0
VERTEX
  8
LAYER-1
 10
4.550745
 20
0.074393
 30
0.000000
  0
VERTEX
  8
LAYER-1
 10
4.544735
 20
0.063041
 30
0.000000
  0
SEQEND
  8
LAYER-1
  0
POLYLINE
  8
LAYER-1
 66
  1
 70
  0
 62
  0
 10
4.625565
 20
0.055897
 30
0.000000
  0
VERTEX
  8
LAYER-1
 10
4.625565
 20
0.055897
 30
0.000000
  0
VERTEX
  8
LAYER-1
 10
4.629905
 20
0.055897
 30
0.000000
  0
VERTEX
  8
LAYER-1
 10
4.633377
 20
0.060238
 30
0.000000
  0
VERTEX
  8
LAYER-1
 10
4.634245
 20
0.065446
 30
0.000000
  0
VERTEX
  8
LAYER-1
 10
4.632509
 20
0.069786
 30
0.000000
  0
VERTEX
  8
LAYER-1
 10
4.628169
 20
0.071522
 30
0.000000
  0
VERTEX
  8
LAYER-1
 10
4.623828
 20
0.071522
 30
0.000000
  0
VERTEX
  8
LAYER-1
 10
4.619488
 20
0.068051
 30
0.000000
  0
VERTEX
  8
LAYER-1
 10
4.619488
 20
0.063710
 30
0.000000
  0
VERTEX
  8
LAYER-1
 10
4.620357
 20
0.059369
 30
0.000000
  0
VERTEX
  8
LAYER-1
 10
4.624697
 20
0.056765
 30
0.000000
  0
SEQEND
  8
LAYER-1
  0
POLYLINE
  8
LAYER-1
 66
  1
 70
  0
 62
  0
 10
4.741016
 20
0.078466
 30
0.000000
  0
VERTEX
  8
LAYER-1
 10
4.741016
 20
0.078466
 30
0.000000
  0
VERTEX
  8
LAYER-1
 10
4.736675
 20
0.078466
 30
0.000000
  0
VERTEX
  8
LAYER-1
 10
4.733203
 20
0.074126
 30
0.000000
  0
VERTEX
  8
LAYER-1
 10
4.732335
 20
0.068917
 30
0.000000
  0
VERTEX
  8
LAYER-1
 10
4.734071
 20
0.064577
 30
0.000000
  0
VERTEX
  8
LAYER-1
 10
4.738411
 20
0.062841
 30
0.000000
  0
VERTEX
  8
LAYER-1
 10
4.742752
 20
0.062841
 30
0.000000
  0
VERTEX
  8
LAYER-1
 10
4.747093
 20
0.066313
 30
0.000000
  0
VERTEX
  8
LAYER-1
 10
4.747093
 20
0.070653
 30
0.000000
  0
VERTEX
  8
LAYER-1
 10
4.746224
 20
0.074994
 30
0.000000
  0
VERTEX
  8
LAYER-1
 10
4.741883
 20
0.077599
 30
0.000000
  0
SEQEND
  8
LAYER-1
  0
POLYLINE
  8
LAYER-1
 66
  1
 70
  1
 62
  0
 10
4.879111
 20
0.115879
 30
0.000000
  0
VERTEX
  8
LAYER-1
 10
4.879111
 20
0.115879
 30
0.000000
  0
VERTEX
  8
LAYER-1
 10
4.886055
 20
0.089839
 30
0.000000
  0
VERTEX
  8
LAYER-1
 10
4.911228
 20
0.103727
 30
0.000000
  0
SEQEND
  8
LAYER-1
  0
POLYLINE
  8
LAYER-1
 66
  1
 70
  1
 62
  0
 10
4.850898
 20
0.078985
 30
0.000000
  0
VERTEX
  8
LAYER-1
 10
4.850898
 20
0.078985
 30
0.000000
  0
VERTEX
  8
LAYER-1
 10
4.873467
 20
0.065965
 30
0.000000
  0
VERTEX
  8
LAYER-1
 10
4.852634
 20
0.096347
 30
0.000000
  0
SEQEND
  8
LAYER-1
  0
POLYLINE
  8
LAYER-1
 66
  1
 70
  0
 62
  0
 10
4.796646
 20
0.054245
 30
0.000000
  0
VERTEX
  8
LAYER-1
 10
4.796646
 20
0.054245
 30
0.000000
  0
VERTEX
  8
LAYER-1
 10
4.800986
 20
0.054245
 30
0.000000
  0
VERTEX
  8
LAYER-1
 10
4.804458
 20
0.058585
 30
0.000000
  0
VERTEX
  8
LAYER-1
 10
4.805327
 20
0.063794
 30
0.000000
  0
VERTEX
  8
LAYER-1
 10
4.803591
 20
0.068134
 30
0.000000
  0
VERTEX
  8
LAYER-1
 10
4.799250
 20
0.069870
 30
0.000000
  0
VERTEX
  8
LAYER-1
 10
4.794910
 20
0.069870
 30
0.000000
  0
VERTEX
  8
LAYER-1
 10
4.790569
 20
0.066398
 30
0.000000
  0
VERTEX
  8
LAYER-1
 10
4.790569
 20
0.062057
 30
0.000000
  0
VERTEX
  8
LAYER-1
 10
4.791438
 20
0.057716
 30
0.000000
  0
VERTEX
  8
LAYER-1
 10
4.795778
 20
0.055112
 30
0.000000
  0
SEQEND
  8
LAYER-1
  0
POLYLINE
  8
LAYER-1
 66
  1
 70
  1
 62
  0
 10
5.432233
 20
0.227997
 30
0.000000
  0
VERTEX
  8
LAYER-1
 10
5.432233
 20
0.227997
 30
0.000000
  0
VERTEX
  8
LAYER-1
 10
5.439178
 20
0.201957
 30
0.000000
  0
VERTEX
  8
LAYER-1
 10
5.464351
 20
0.215844
 30
0.000000
  0
SEQEND
  8
LAYER-1
  0
POLYLINE
  8
LAYER-1
 66
  1
 70
  1
 62
  0
 10
5.445342
 20
0.182858
 30
0.000000
  0
VERTEX
  8
LAYER-1
 10
5.445342
 20
0.182858
 30
0.000000
  0
VERTEX
  8
LAYER-1
 10
5.432320
 20
0.160288
 30
0.000000
  0
VERTEX
  8
LAYER-1
 10
5.462702
 20
0.181120
 30
0.000000
  0
SEQEND
  8
LAYER-1
  0
POLYLINE
  8
LAYER-1
 66
  1
 70
  1
 62
  0
 10
5.136835
 20
0.151382
 30
0.000000
  0
VERTEX
  8
LAYER-1
 10
5.136835
 20
0.151382
 30
0.000000
  0
VERTEX
  8
LAYER-1
 10
5.129892
 20
0.177422
 30
0.000000
  0
VERTEX
  8
LAYER-1
 10
5.104719
 20
0.163534
 30
0.000000
  0
SEQEND
  8
LAYER-1
  0
POLYLINE
  8
LAYER-1
 66
  1
 70
  1
 62
  0
 10
5.123727
 20
0.196520
 30
0.000000
  0
VERTEX
  8
LAYER-1
 10
5.123727
 20
0.196520
 30
0.000000
  0
VERTEX
  8
LAYER-1
 10
5.136749
 20
0.219091
 30
0.000000
  0
VERTEX
  8
LAYER-1
 10
5.106366
 20
0.198258
 30
0.000000
  0
SEQEND
  8
LAYER-1
  0
POLYLINE
  8
LAYER-1
 66
  1
 70
  1
 62
  0
 10
5.641609
 20
0.053552
 30
0.000000
  0
VERTEX
  8
LAYER-1
 10
5.641609
 20
0.053552
 30
0.000000
  0
VERTEX
  8
LAYER-1
 10
5.667649
 20
0.060498
 30
0.000000
  0
VERTEX
  8
LAYER-1
 10
5.653762
 20
0.085670
 30
0.000000
  0
SEQEND
  8
LAYER-1
  0
POLYLINE
  8
LAYER-1
 66
  1
 70
  1
 62
  0
 10
5.686748
 20
0.066661
 30
0.000000
  0
VERTEX
  8
LAYER-1
 10
5.686748
 20
0.066661
 30
0.000000
  0
VERTEX
  8
LAYER-1
 10
5.709318
 20
0.053641
 30
0.000000
  0
VERTEX
  8
LAYER-1
 10
5.688485
 20
0.084022
 30
0.000000
  0
SEQEND
  8
LAYER-1
  0
ARC
  8
LAYER-1
 62
  0
 10
5.430465
 20
8.969836
 30
0.000000
 40
0.254425
 50
270.000000
 51
90.000000
  0
POLYLINE
  8
LAYER-1
 66
  1
 70
  0
 62
  0
 10
5.430465
 20
9.224261
 30
0.000000
  0
VERTEX
  8
LAYER-1
 10
5.430465
 20
9.224261
 30
0.000000
  0
VERTEX
  8
LAYER-1
 10
1.765543
 20
9.224261
 30
0.000000
  0
SEQEND
  8
LAYER-1
  0
POLYLINE
  8
LAYER-1
 66
  1
 70
  0
 62
  0
 10
1.765543
 20
9.224261
 30
0.000000
  0
VERTEX
  8
LAYER-1
 10
1.765543
 20
9.224261
 30
0.000000
  0
VERTEX
  8
LAYER-1
 10
1.765543
 20
8.715412
 30
0.000000
  0
SEQEND
  8
LAYER-1
  0
POLYLINE
  8
LAYER-1
 66
  1
 70
  0
 62
  0
 10
5.430465
 20
8.715412
 30
0.000000
  0
VERTEX
  8
LAYER-1
 10
5.430465
 20
8.715412
 30
0.000000
  0
VERTEX
  8
LAYER-1
 10
1.765543
 20
8.715412
 30
0.000000
  0
SEQEND
  8
LAYER-1
  0
TEXT
  8
LAYER-1
 62
  0
 10
3.569130
 20
9.507162
 30
0.000000
 40
0.333333
  1
MobilFlex
 72
  5
 11
5.721908
 21
9.507162
 31
0.000000
  0
POLYLINE
  8
LAYER-1
 66
  1
 70
  1
 62
  0
  0
VERTEX
  8
LAYER-1
 10
1.767046
 20
10.027136
 30
0.000000
  0
VERTEX
  8
LAYER-1
 10
2.004894
 20
10.027136
 30
0.000000
  0
VERTEX
  8
LAYER-1
 10
2.004894
 20
9.510191
 30
0.000000
  0
VERTEX
  8
LAYER-1
 10
1.767046
 20
9.510191
 30
0.000000
  0
SEQEND
  8
LAYER-1
  0
POLYLINE
  8
LAYER-1
 66
  1
 70
  1
 62
  0
  0
VERTEX
  8
LAYER-1
 10
2.079546
 20
10.027136
 30
0.000000
  0
VERTEX
  8
LAYER-1
 10
2.317394
 20
10.027136
 30
0.000000
  0
VERTEX
  8
LAYER-1
 10
2.317394
 20
9.510191
 30
0.000000
  0
VERTEX
  8
LAYER-1
 10
2.079546
 20
9.510191
 30
0.000000
  0
SEQEND
  8
LAYER-1
  0
POLYLINE
  8
LAYER-1
 66
  1
 70
  1
 62
  0
  0
VERTEX
  8
LAYER-1
 10
2.379894
 20
10.027136
 30
0.000000
  0
VERTEX
  8
LAYER-1
 10
2.617741
 20
10.027136
 30
0.000000
  0
VERTEX
  8
LAYER-1
 10
2.617741
 20
9.510191
 30
0.000000
  0
VERTEX
  8
LAYER-1
 10
2.379894
 20
9.510191
 30
0.000000
  0
SEQEND
  8
LAYER-1
  0
POLYLINE
  8
LAYER-1
 66
  1
 70
  1
 62
  0
  0
VERTEX
  8
LAYER-1
 10
2.683713
 20
10.027136
 30
0.000000
  0
VERTEX
  8
LAYER-1
 10
2.921560
 20
10.027136
 30
0.000000
  0
VERTEX
  8
LAYER-1
 10
2.921560
 20
9.510191
 30
0.000000
  0
VERTEX
  8
LAYER-1
 10
2.683713
 20
9.510191
 30
0.000000
  0
SEQEND
  8
LAYER-1
  0
POLYLINE
  8
LAYER-1
 66
  1
 70
  1
 62
  0
  0
VERTEX
  8
LAYER-1
 10
3.000553
 20
10.023221
 30
0.000000
  0
VERTEX
  8
LAYER-1
 10
3.375988
 20
10.023221
 30
0.000000
  0
VERTEX
  8
LAYER-1
 10
3.375988
 20
9.885201
 30
0.000000
  0
VERTEX
  8
LAYER-1
 10
3.000553
 20
9.885201
 30
0.000000
  0
SEQEND
  8
LAYER-1
  0
POLYLINE
  8
LAYER-1
 66
  1
 70
  1
 62
  0
  0
VERTEX
  8
LAYER-1
 10
3.000120
 20
9.795791
 30
0.000000
  0
VERTEX
  8
LAYER-1
 10
3.308279
 20
9.795791
 30
0.000000
  0
VERTEX
  8
LAYER-1
 10
3.308279
 20
9.661676
 30
0.000000
  0
VERTEX
  8
LAYER-1
 10
3.000120
 20
9.661676
 30
0.000000
  0
SEQEND
  8
LAYER-1
  0
POLYLINE
  8
LAYER-1
 66
  1
 70
  1
 62
  0
  0
VERTEX
  8
LAYER-1
 10
1.767046
 20
9.425565
 30
0.000000
  0
VERTEX
  8
LAYER-1
 10
5.685450
 20
9.425565
 30
0.000000
  0
VERTEX
  8
LAYER-1
 10
5.685450
 20
9.382162
 30
0.000000
  0
VERTEX
  8
LAYER-1
 10
1.767046
 20
9.382162
 30
0.000000
  0
SEQEND
  8
LAYER-1
  0
POLYLINE
  8
LAYER-1
 66
  1
 70
  1
 62
  7
  0
VERTEX
  8
LAYER-1
 10
5.484826
 20
7.189333
 30
0.000000
  0
VERTEX
  8
LAYER-1
 10
5.654965
 20
7.189333
 30
0.000000
  0
VERTEX
  8
LAYER-1
 10
5.654965
 20
6.367141
 30
0.000000
  0
VERTEX
  8
LAYER-1
 10
5.484826
 20
6.367141
 30
0.000000
  0
SEQEND
  8
LAYER-1
  0
POLYLINE
  8
LAYER-1
 66
  1
 70
  1
 62
  7
  0
VERTEX
  8
LAYER-1
 10
5.075346
 20
7.189333
 30
0.000000
  0
VERTEX
  8
LAYER-1
 10
5.245485
 20
7.189333
 30
0.000000
  0
VERTEX
  8
LAYER-1
 10
5.245485
 20
6.367141
 30
0.000000
  0
VERTEX
  8
LAYER-1
 10
5.075346
 20
6.367141
 30
0.000000
  0
SEQEND
  8
LAYER-1
  0
POLYLINE
  8
LAYER-1
 66
  1
 70
  1
 62
  7
  0
VERTEX
  8
LAYER-1
 10
4.666735
 20
7.189333
 30
0.000000
  0
VERTEX
  8
LAYER-1
 10
4.836875
 20
7.189333
 30
0.000000
  0
VERTEX
  8
LAYER-1
 10
4.836875
 20
6.367141
 30
0.000000
  0
VERTEX
  8
LAYER-1
 10
4.666735
 20
6.367141
 30
0.000000
  0
SEQEND
  8
LAYER-1
  0
POLYLINE
  8
LAYER-1
 66
  1
 70
  1
 62
  7
  0
VERTEX
  8
LAYER-1
 10
4.259861
 20
7.189333
 30
0.000000
  0
VERTEX
  8
LAYER-1
 10
4.430000
 20
7.189333
 30
0.000000
  0
VERTEX
  8
LAYER-1
 10
4.430000
 20
6.367141
 30
0.000000
  0
VERTEX
  8
LAYER-1
 10
4.259861
 20
6.367141
 30
0.000000
  0
SEQEND
  8
LAYER-1
  0
POLYLINE
  8
LAYER-1
 66
  1
 70
  1
 62
  7
  0
VERTEX
  8
LAYER-1
 10
3.851248
 20
7.189333
 30
0.000000
  0
VERTEX
  8
LAYER-1
 10
4.021388
 20
7.189333
 30
0.000000
  0
VERTEX
  8
LAYER-1
 10
4.021388
 20
6.367141
 30
0.000000
  0
VERTEX
  8
LAYER-1
 10
3.851248
 20
6.367141
 30
0.000000
  0
SEQEND
  8
LAYER-1
  0
POLYLINE
  8
LAYER-1
 66
  1
 70
  1
 62
  7
  0
VERTEX
  8
LAYER-1
 10
4.056422
 20
6.367498
 30
0.000000
  0
VERTEX
  8
LAYER-1
 10
4.226561
 20
6.367498
 30
0.000000
  0
VERTEX
  8
LAYER-1
 10
4.226561
 20
5.545307
 30
0.000000
  0
VERTEX
  8
LAYER-1
 10
4.056422
 20
5.545307
 30
0.000000
  0
SEQEND
  8
LAYER-1
  0
POLYLINE
  8
LAYER-1
 66
  1
 70
  1
 62
  7
  0
VERTEX
  8
LAYER-1
 10
4.463298
 20
6.367498
 30
0.000000
  0
VERTEX
  8
LAYER-1
 10
4.633437
 20
6.367498
 30
0.000000
  0
VERTEX
  8
LAYER-1
 10
4.633437
 20
5.545307
 30
0.000000
  0
VERTEX
  8
LAYER-1
 10
4.463298
 20
5.545307
 30
0.000000
  0
SEQEND
  8
LAYER-1
  0
POLYLINE
  8
LAYER-1
 66
  1
 70
  1
 62
  7
  0
VERTEX
  8
LAYER-1
 10
4.869306
 20
6.367498
 30
0.000000
  0
VERTEX
  8
LAYER-1
 10
5.039445
 20
6.367498
 30
0.000000
  0
VERTEX
  8
LAYER-1
 10
5.039445
 20
5.545307
 30
0.000000
  0
VERTEX
  8
LAYER-1
 10
4.869306
 20
5.545307
 30
0.000000
  0
SEQEND
  8
LAYER-1
  0
POLYLINE
  8
LAYER-1
 66
  1
 70
  1
 62
  7
  0
VERTEX
  8
LAYER-1
 10
5.279652
 20
6.367498
 30
0.000000
  0
VERTEX
  8
LAYER-1
 10
5.449791
 20
6.367498
 30
0.000000
  0
VERTEX
  8
LAYER-1
 10
5.449791
 20
5.545307
 30
0.000000
  0
VERTEX
  8
LAYER-1
 10
5.279652
 20
5.545307
 30
0.000000
  0
SEQEND
  8
LAYER-1
  0
POLYLINE
  8
LAYER-1
 66
  1
 70
  1
 62
  7
  0
VERTEX
  8
LAYER-1
 10
5.484826
 20
5.545304
 30
0.000000
  0
VERTEX
  8
LAYER-1
 10
5.654965
 20
5.545304
 30
0.000000
  0
VERTEX
  8
LAYER-1
 10
5.654965
 20
4.723113
 30
0.000000
  0
VERTEX
  8
LAYER-1
 10
5.484826
 20
4.723113
 30
0.000000
  0
SEQEND
  8
LAYER-1
  0
POLYLINE
  8
LAYER-1
 66
  1
 70
  1
 62
  7
  0
VERTEX
  8
LAYER-1
 10
5.074478
 20
5.545304
 30
0.000000
  0
VERTEX
  8
LAYER-1
 10
5.244617
 20
5.545304
 30
0.000000
  0
VERTEX
  8
LAYER-1
 10
5.244617
 20
4.723113
 30
0.000000
  0
VERTEX
  8
LAYER-1
 10
5.074478
 20
4.723113
 30
0.000000
  0
SEQEND
  8
LAYER-1
  0
POLYLINE
  8
LAYER-1
 66
  1
 70
  1
 62
  7
  0
VERTEX
  8
LAYER-1
 10
4.666735
 20
5.545304
 30
0.000000
  0
VERTEX
  8
LAYER-1
 10
4.836875
 20
5.545304
 30
0.000000
  0
VERTEX
  8
LAYER-1
 10
4.836875
 20
4.723113
 30
0.000000
  0
VERTEX
  8
LAYER-1
 10
4.666735
 20
4.723113
 30
0.000000
  0
SEQEND
  8
LAYER-1
  0
POLYLINE
  8
LAYER-1
 66
  1
 70
  1
 62
  7
  0
VERTEX
  8
LAYER-1
 10
4.259861
 20
5.545304
 30
0.000000
  0
VERTEX
  8
LAYER-1
 10
4.430000
 20
5.545304
 30
0.000000
  0
VERTEX
  8
LAYER-1
 10
4.430000
 20
4.723113
 30
0.000000
  0
VERTEX
  8
LAYER-1
 10
4.259861
 20
4.723113
 30
0.000000
  0
SEQEND
  8
LAYER-1
  0
POLYLINE
  8
LAYER-1
 66
  1
 70
  1
 62
  7
  0
VERTEX
  8
LAYER-1
 10
3.851248
 20
5.545304
 30
0.000000
  0
VERTEX
  8
LAYER-1
 10
4.021388
 20
5.545304
 30
0.000000
  0
VERTEX
  8
LAYER-1
 10
4.021388
 20
4.723113
 30
0.000000
  0
VERTEX
  8
LAYER-1
 10
3.851248
 20
4.723113
 30
0.000000
  0
SEQEND
  8
LAYER-1
  0
POLYLINE
  8
LAYER-1
 66
  1
 70
  1
 62
  7
  0
VERTEX
  8
LAYER-1
 10
4.056422
 20
4.723470
 30
0.000000
  0
VERTEX
  8
LAYER-1
 10
4.226561
 20
4.723470
 30
0.000000
  0
VERTEX
  8
LAYER-1
 10
4.226561
 20
3.901279
 30
0.000000
  0
VERTEX
  8
LAYER-1
 10
4.056422
 20
3.901279
 30
0.000000
  0
SEQEND
  8
LAYER-1
  0
POLYLINE
  8
LAYER-1
 66
  1
 70
  1
 62
  7
  0
VERTEX
  8
LAYER-1
 10
4.463298
 20
4.723470
 30
0.000000
  0
VERTEX
  8
LAYER-1
 10
4.633437
 20
4.723470
 30
0.000000
  0
VERTEX
  8
LAYER-1
 10
4.633437
 20
3.901279
 30
0.000000
  0
VERTEX
  8
LAYER-1
 10
4.463298
 20
3.901279
 30
0.000000
  0
SEQEND
  8
LAYER-1
  0
POLYLINE
  8
LAYER-1
 66
  1
 70
  1
 62
  7
  0
VERTEX
  8
LAYER-1
 10
4.870174
 20
4.723470
 30
0.000000
  0
VERTEX
  8
LAYER-1
 10
5.040313
 20
4.723470
 30
0.000000
  0
VERTEX
  8
LAYER-1
 10
5.040313
 20
3.901279
 30
0.000000
  0
VERTEX
  8
LAYER-1
 10
4.870174
 20
3.901279
 30
0.000000
  0
SEQEND
  8
LAYER-1
  0
POLYLINE
  8
LAYER-1
 66
  1
 70
  1
 62
  7
  0
VERTEX
  8
LAYER-1
 10
5.279652
 20
4.723470
 30
0.000000
  0
VERTEX
  8
LAYER-1
 10
5.449791
 20
4.723470
 30
0.000000
  0
VERTEX
  8
LAYER-1
 10
5.449791
 20
3.901279
 30
0.000000
  0
VERTEX
  8
LAYER-1
 10
5.279652
 20
3.901279
 30
0.000000
  0
SEQEND
  8
LAYER-1
  0
POLYLINE
  8
LAYER-1
 66
  1
 70
  1
 62
  7
  0
VERTEX
  8
LAYER-1
 10
5.484826
 20
3.901276
 30
0.000000
  0
VERTEX
  8
LAYER-1
 10
5.654965
 20
3.901276
 30
0.000000
  0
VERTEX
  8
LAYER-1
 10
5.654965
 20
3.079085
 30
0.000000
  0
VERTEX
  8
LAYER-1
 10
5.484826
 20
3.079085
 30
0.000000
  0
SEQEND
  8
LAYER-1
  0
POLYLINE
  8
LAYER-1
 66
  1
 70
  1
 62
  7
  0
VERTEX
  8
LAYER-1
 10
5.075346
 20
3.901276
 30
0.000000
  0
VERTEX
  8
LAYER-1
 10
5.245485
 20
3.901276
 30
0.000000
  0
VERTEX
  8
LAYER-1
 10
5.245485
 20
3.079085
 30
0.000000
  0
VERTEX
  8
LAYER-1
 10
5.075346
 20
3.079085
 30
0.000000
  0
SEQEND
  8
LAYER-1
  0
POLYLINE
  8
LAYER-1
 66
  1
 70
  1
 62
  7
  0
VERTEX
  8
LAYER-1
 10
4.666735
 20
3.901276
 30
0.000000
  0
VERTEX
  8
LAYER-1
 10
4.836875
 20
3.901276
 30
0.000000
  0
VERTEX
  8
LAYER-1
 10
4.836875
 20
3.079085
 30
0.000000
  0
VERTEX
  8
LAYER-1
 10
4.666735
 20
3.079085
 30
0.000000
  0
SEQEND
  8
LAYER-1
  0
POLYLINE
  8
LAYER-1
 66
  1
 70
  1
 62
  7
  0
VERTEX
  8
LAYER-1
 10
4.259861
 20
3.901276
 30
0.000000
  0
VERTEX
  8
LAYER-1
 10
4.430000
 20
3.901276
 30
0.000000
  0
VERTEX
  8
LAYER-1
 10
4.430000
 20
3.079085
 30
0.000000
  0
VERTEX
  8
LAYER-1
 10
4.259861
 20
3.079085
 30
0.000000
  0
SEQEND
  8
LAYER-1
  0
POLYLINE
  8
LAYER-1
 66
  1
 70
  1
 62
  7
  0
VERTEX
  8
LAYER-1
 10
3.851248
 20
3.901276
 30
0.000000
  0
VERTEX
  8
LAYER-1
 10
4.021388
 20
3.901276
 30
0.000000
  0
VERTEX
  8
LAYER-1
 10
4.021388
 20
3.079085
 30
0.000000
  0
VERTEX
  8
LAYER-1
 10
3.851248
 20
3.079085
 30
0.000000
  0
SEQEND
  8
LAYER-1
  0
POLYLINE
  8
LAYER-1
 66
  1
 70
  1
 62
  7
  0
VERTEX
  8
LAYER-1
 10
4.056422
 20
3.079441
 30
0.000000
  0
VERTEX
  8
LAYER-1
 10
4.226561
 20
3.079441
 30
0.000000
  0
VERTEX
  8
LAYER-1
 10
4.226561
 20
2.257247
 30
0.000000
  0
VERTEX
  8
LAYER-1
 10
4.056422
 20
2.257247
 30
0.000000
  0
SEQEND
  8
LAYER-1
  0
POLYLINE
  8
LAYER-1
 66
  1
 70
  1
 62
  7
  0
VERTEX
  8
LAYER-1
 10
4.463298
 20
3.079441
 30
0.000000
  0
VERTEX
  8
LAYER-1
 10
4.633437
 20
3.079441
 30
0.000000
  0
VERTEX
  8
LAYER-1
 10
4.633437
 20
2.257247
 30
0.000000
  0
VERTEX
  8
LAYER-1
 10
4.463298
 20
2.257247
 30
0.000000
  0
SEQEND
  8
LAYER-1
  0
POLYLINE
  8
LAYER-1
 66
  1
 70
  1
 62
  7
  0
VERTEX
  8
LAYER-1
 10
4.870174
 20
3.079441
 30
0.000000
  0
VERTEX
  8
LAYER-1
 10
5.040313
 20
3.079441
 30
0.000000
  0
VERTEX
  8
LAYER-1
 10
5.040313
 20
2.257247
 30
0.000000
  0
VERTEX
  8
LAYER-1
 10
4.870174
 20
2.257247
 30
0.000000
  0
SEQEND
  8
LAYER-1
  0
POLYLINE
  8
LAYER-1
 66
  1
 70
  1
 62
  7
  0
VERTEX
  8
LAYER-1
 10
5.279652
 20
3.079441
 30
0.000000
  0
VERTEX
  8
LAYER-1
 10
5.449791
 20
3.079441
 30
0.000000
  0
VERTEX
  8
LAYER-1
 10
5.449791
 20
2.257247
 30
0.000000
  0
VERTEX
  8
LAYER-1
 10
5.279652
 20
2.257247
 30
0.000000
  0
SEQEND
  8
LAYER-1
  0
POLYLINE
  8
LAYER-1
 66
  1
 70
  1
 62
  7
  0
VERTEX
  8
LAYER-1
 10
5.484826
 20
2.257245
 30
0.000000
  0
VERTEX
  8
LAYER-1
 10
5.654965
 20
2.257245
 30
0.000000
  0
VERTEX
  8
LAYER-1
 10
5.654965
 20
1.435054
 30
0.000000
  0
VERTEX
  8
LAYER-1
 10
5.484826
 20
1.435054
 30
0.000000
  0
SEQEND
  8
LAYER-1
  0
POLYLINE
  8
LAYER-1
 66
  1
 70
  1
 62
  7
  0
VERTEX
  8
LAYER-1
 10
5.075346
 20
2.257245
 30
0.000000
  0
VERTEX
  8
LAYER-1
 10
5.245485
 20
2.257245
 30
0.000000
  0
VERTEX
  8
LAYER-1
 10
5.245485
 20
1.435054
 30
0.000000
  0
VERTEX
  8
LAYER-1
 10
5.075346
 20
1.435054
 30
0.000000
  0
SEQEND
  8
LAYER-1
  0
POLYLINE
  8
LAYER-1
 66
  1
 70
  1
 62
  7
  0
VERTEX
  8
LAYER-1
 10
4.666735
 20
2.257245
 30
0.000000
  0
VERTEX
  8
LAYER-1
 10
4.836875
 20
2.257245
 30
0.000000
  0
VERTEX
  8
LAYER-1
 10
4.836875
 20
1.435054
 30
0.000000
  0
VERTEX
  8
LAYER-1
 10
4.666735
 20
1.435054
 30
0.000000
  0
SEQEND
  8
LAYER-1
  0
POLYLINE
  8
LAYER-1
 66
  1
 70
  1
 62
  7
  0
VERTEX
  8
LAYER-1
 10
4.259861
 20
2.257245
 30
0.000000
  0
VERTEX
  8
LAYER-1
 10
4.430000
 20
2.257245
 30
0.000000
  0
VERTEX
  8
LAYER-1
 10
4.430000
 20
1.435054
 30
0.000000
  0
VERTEX
  8
LAYER-1
 10
4.259861
 20
1.435054
 30
0.000000
  0
SEQEND
  8
LAYER-1
  0
POLYLINE
  8
LAYER-1
 66
  1
 70
  1
 62
  7
  0
VERTEX
  8
LAYER-1
 10
3.851248
 20
2.257245
 30
0.000000
  0
VERTEX
  8
LAYER-1
 10
4.021388
 20
2.257245
 30
0.000000
  0
VERTEX
  8
LAYER-1
 10
4.021388
 20
1.435054
 30
0.000000
  0
VERTEX
  8
LAYER-1
 10
3.851248
 20
1.435054
 30
0.000000
  0
SEQEND
  8
LAYER-1
  0
POLYLINE
  8
LAYER-1
 66
  1
 70
  1
 62
  7
  0
VERTEX
  8
LAYER-1
 10
4.056422
 20
1.435412
 30
0.000000
  0
VERTEX
  8
LAYER-1
 10
4.226561
 20
1.435412
 30
0.000000
  0
VERTEX
  8
LAYER-1
 10
4.226561
 20
0.613221
 30
0.000000
  0
VERTEX
  8
LAYER-1
 10
4.056422
 20
0.613221
 30
0.000000
  0
SEQEND
  8
LAYER-1
  0
POLYLINE
  8
LAYER-1
 66
  1
 70
  1
 62
  7
  0
VERTEX
  8
LAYER-1
 10
4.464166
 20
1.435412
 30
0.000000
  0
VERTEX
  8
LAYER-1
 10
4.634305
 20
1.435412
 30
0.000000
  0
VERTEX
  8
LAYER-1
 10
4.634305
 20
0.613221
 30
0.000000
  0
VERTEX
  8
LAYER-1
 10
4.464166
 20
0.613221
 30
0.000000
  0
SEQEND
  8
LAYER-1
  0
POLYLINE
  8
LAYER-1
 66
  1
 70
  1
 62
  7
  0
VERTEX
  8
LAYER-1
 10
4.870174
 20
1.435412
 30
0.000000
  0
VERTEX
  8
LAYER-1
 10
5.040313
 20
1.435412
 30
0.000000
  0
VERTEX
  8
LAYER-1
 10
5.040313
 20
0.613221
 30
0.000000
  0
VERTEX
  8
LAYER-1
 10
4.870174
 20
0.613221
 30
0.000000
  0
SEQEND
  8
LAYER-1
  0
POLYLINE
  8
LAYER-1
 66
  1
 70
  1
 62
  7
  0
VERTEX
  8
LAYER-1
 10
5.279652
 20
1.435412
 30
0.000000
  0
VERTEX
  8
LAYER-1
 10
5.449791
 20
1.435412
 30
0.000000
  0
VERTEX
  8
LAYER-1
 10
5.449791
 20
0.613221
 30
0.000000
  0
VERTEX
  8
LAYER-1
 10
5.279652
 20
0.613221
 30
0.000000
  0
SEQEND
  8
LAYER-1
  0
POLYLINE
  8
LAYER-1
 66
  1
 70
  1
 62
  7
  0
VERTEX
  8
LAYER-1
 10
1.804373
 20
7.190509
 30
0.000000
  0
VERTEX
  8
LAYER-1
 10
1.974512
 20
7.190509
 30
0.000000
  0
VERTEX
  8
LAYER-1
 10
1.974512
 20
6.368317
 30
0.000000
  0
VERTEX
  8
LAYER-1
 10
1.804373
 20
6.368317
 30
0.000000
  0
SEQEND
  8
LAYER-1
  0
POLYLINE
  8
LAYER-1
 66
  1
 70
  1
 62
  7
  0
VERTEX
  8
LAYER-1
 10
2.213853
 20
7.190509
 30
0.000000
  0
VERTEX
  8
LAYER-1
 10
2.383992
 20
7.190509
 30
0.000000
  0
VERTEX
  8
LAYER-1
 10
2.383992
 20
6.368317
 30
0.000000
  0
VERTEX
  8
LAYER-1
 10
2.213853
 20
6.368317
 30
0.000000
  0
SEQEND
  8
LAYER-1
  0
POLYLINE
  8
LAYER-1
 66
  1
 70
  1
 62
  7
  0
VERTEX
  8
LAYER-1
 10
2.623332
 20
7.190509
 30
0.000000
  0
VERTEX
  8
LAYER-1
 10
2.793471
 20
7.190509
 30
0.000000
  0
VERTEX
  8
LAYER-1
 10
2.793471
 20
6.368317
 30
0.000000
  0
VERTEX
  8
LAYER-1
 10
2.623332
 20
6.368317
 30
0.000000
  0
SEQEND
  8
LAYER-1
  0
POLYLINE
  8
LAYER-1
 66
  1
 70
  1
 62
  7
  0
VERTEX
  8
LAYER-1
 10
3.029339
 20
7.190509
 30
0.000000
  0
VERTEX
  8
LAYER-1
 10
3.199478
 20
7.190509
 30
0.000000
  0
VERTEX
  8
LAYER-1
 10
3.199478
 20
6.368317
 30
0.000000
  0
VERTEX
  8
LAYER-1
 10
3.029339
 20
6.368317
 30
0.000000
  0
SEQEND
  8
LAYER-1
  0
POLYLINE
  8
LAYER-1
 66
  1
 70
  1
 62
  7
  0
VERTEX
  8
LAYER-1
 10
3.437083
 20
7.190509
 30
0.000000
  0
VERTEX
  8
LAYER-1
 10
3.607221
 20
7.190509
 30
0.000000
  0
VERTEX
  8
LAYER-1
 10
3.607221
 20
6.368317
 30
0.000000
  0
VERTEX
  8
LAYER-1
 10
3.437083
 20
6.368317
 30
0.000000
  0
SEQEND
  8
LAYER-1
  0
POLYLINE
  8
LAYER-1
 66
  1
 70
  1
 62
  7
  0
VERTEX
  8
LAYER-1
 10
3.232777
 20
6.368674
 30
0.000000
  0
VERTEX
  8
LAYER-1
 10
3.402916
 20
6.368674
 30
0.000000
  0
VERTEX
  8
LAYER-1
 10
3.402916
 20
5.546483
 30
0.000000
  0
VERTEX
  8
LAYER-1
 10
3.232777
 20
5.546483
 30
0.000000
  0
SEQEND
  8
LAYER-1
  0
POLYLINE
  8
LAYER-1
 66
  1
 70
  1
 62
  7
  0
VERTEX
  8
LAYER-1
 10
2.826770
 20
6.368674
 30
0.000000
  0
VERTEX
  8
LAYER-1
 10
2.996909
 20
6.368674
 30
0.000000
  0
VERTEX
  8
LAYER-1
 10
2.996909
 20
5.546483
 30
0.000000
  0
VERTEX
  8
LAYER-1
 10
2.826770
 20
5.546483
 30
0.000000
  0
SEQEND
  8
LAYER-1
  0
POLYLINE
  8
LAYER-1
 66
  1
 70
  1
 62
  7
  0
VERTEX
  8
LAYER-1
 10
2.419026
 20
6.368674
 30
0.000000
  0
VERTEX
  8
LAYER-1
 10
2.589165
 20
6.368674
 30
0.000000
  0
VERTEX
  8
LAYER-1
 10
2.589165
 20
5.546483
 30
0.000000
  0
VERTEX
  8
LAYER-1
 10
2.419026
 20
5.546483
 30
0.000000
  0
SEQEND
  8
LAYER-1
  0
POLYLINE
  8
LAYER-1
 66
  1
 70
  1
 62
  7
  0
VERTEX
  8
LAYER-1
 10
2.010415
 20
6.368674
 30
0.000000
  0
VERTEX
  8
LAYER-1
 10
2.180554
 20
6.368674
 30
0.000000
  0
VERTEX
  8
LAYER-1
 10
2.180554
 20
5.546483
 30
0.000000
  0
VERTEX
  8
LAYER-1
 10
2.010415
 20
5.546483
 30
0.000000
  0
SEQEND
  8
LAYER-1
  0
POLYLINE
  8
LAYER-1
 66
  1
 70
  1
 62
  7
  0
VERTEX
  8
LAYER-1
 10
1.804373
 20
5.546480
 30
0.000000
  0
VERTEX
  8
LAYER-1
 10
1.974512
 20
5.546480
 30
0.000000
  0
VERTEX
  8
LAYER-1
 10
1.974512
 20
4.724290
 30
0.000000
  0
VERTEX
  8
LAYER-1
 10
1.804373
 20
4.724290
 30
0.000000
  0
SEQEND
  8
LAYER-1
  0
POLYLINE
  8
LAYER-1
 66
  1
 70
  1
 62
  7
  0
VERTEX
  8
LAYER-1
 10
2.213853
 20
5.546480
 30
0.000000
  0
VERTEX
  8
LAYER-1
 10
2.383992
 20
5.546480
 30
0.000000
  0
VERTEX
  8
LAYER-1
 10
2.383992
 20
4.724290
 30
0.000000
  0
VERTEX
  8
LAYER-1
 10
2.213853
 20
4.724290
 30
0.000000
  0
SEQEND
  8
LAYER-1
  0
POLYLINE
  8
LAYER-1
 66
  1
 70
  1
 62
  7
  0
VERTEX
  8
LAYER-1
 10
2.623332
 20
5.546480
 30
0.000000
  0
VERTEX
  8
LAYER-1
 10
2.793471
 20
5.546480
 30
0.000000
  0
VERTEX
  8
LAYER-1
 10
2.793471
 20
4.724290
 30
0.000000
  0
VERTEX
  8
LAYER-1
 10
2.623332
 20
4.724290
 30
0.000000
  0
SEQEND
  8
LAYER-1
  0
POLYLINE
  8
LAYER-1
 66
  1
 70
  1
 62
  7
  0
VERTEX
  8
LAYER-1
 10
3.029339
 20
5.546480
 30
0.000000
  0
VERTEX
  8
LAYER-1
 10
3.199478
 20
5.546480
 30
0.000000
  0
VERTEX
  8
LAYER-1
 10
3.199478
 20
4.724290
 30
0.000000
  0
VERTEX
  8
LAYER-1
 10
3.029339
 20
4.724290
 30
0.000000
  0
SEQEND
  8
LAYER-1
  0
POLYLINE
  8
LAYER-1
 66
  1
 70
  1
 62
  7
  0
VERTEX
  8
LAYER-1
 10
3.437083
 20
5.546480
 30
0.000000
  0
VERTEX
  8
LAYER-1
 10
3.607221
 20
5.546480
 30
0.000000
  0
VERTEX
  8
LAYER-1
 10
3.607221
 20
4.724290
 30
0.000000
  0
VERTEX
  8
LAYER-1
 10
3.437083
 20
4.724290
 30
0.000000
  0
SEQEND
  8
LAYER-1
  0
POLYLINE
  8
LAYER-1
 66
  1
 70
  1
 62
  7
  0
VERTEX
  8
LAYER-1
 10
3.232777
 20
4.724647
 30
0.000000
  0
VERTEX
  8
LAYER-1
 10
3.402916
 20
4.724647
 30
0.000000
  0
VERTEX
  8
LAYER-1
 10
3.402916
 20
3.902456
 30
0.000000
  0
VERTEX
  8
LAYER-1
 10
3.232777
 20
3.902456
 30
0.000000
  0
SEQEND
  8
LAYER-1
  0
POLYLINE
  8
LAYER-1
 66
  1
 70
  1
 62
  7
  0
VERTEX
  8
LAYER-1
 10
2.826770
 20
4.724647
 30
0.000000
  0
VERTEX
  8
LAYER-1
 10
2.996909
 20
4.724647
 30
0.000000
  0
VERTEX
  8
LAYER-1
 10
2.996909
 20
3.902456
 30
0.000000
  0
VERTEX
  8
LAYER-1
 10
2.826770
 20
3.902456
 30
0.000000
  0
SEQEND
  8
LAYER-1
  0
POLYLINE
  8
LAYER-1
 66
  1
 70
  1
 62
  7
  0
VERTEX
  8
LAYER-1
 10
2.419026
 20
4.724647
 30
0.000000
  0
VERTEX
  8
LAYER-1
 10
2.589165
 20
4.724647
 30
0.000000
  0
VERTEX
  8
LAYER-1
 10
2.589165
 20
3.902456
 30
0.000000
  0
VERTEX
  8
LAYER-1
 10
2.419026
 20
3.902456
 30
0.000000
  0
SEQEND
  8
LAYER-1
  0
POLYLINE
  8
LAYER-1
 66
  1
 70
  1
 62
  7
  0
VERTEX
  8
LAYER-1
 10
2.010415
 20
4.724647
 30
0.000000
  0
VERTEX
  8
LAYER-1
 10
2.180554
 20
4.724647
 30
0.000000
  0
VERTEX
  8
LAYER-1
 10
2.180554
 20
3.902456
 30
0.000000
  0
VERTEX
  8
LAYER-1
 10
2.010415
 20
3.902456
 30
0.000000
  0
SEQEND
  8
LAYER-1
  0
POLYLINE
  8
LAYER-1
 66
  1
 70
  1
 62
  7
  0
VERTEX
  8
LAYER-1
 10
1.804373
 20
3.902453
 30
0.000000
  0
VERTEX
  8
LAYER-1
 10
1.974512
 20
3.902453
 30
0.000000
  0
VERTEX
  8
LAYER-1
 10
1.974512
 20
3.080262
 30
0.000000
  0
VERTEX
  8
LAYER-1
 10
1.804373
 20
3.080262
 30
0.000000
  0
SEQEND
  8
LAYER-1
  0
POLYLINE
  8
LAYER-1
 66
  1
 70
  1
 62
  7
  0
VERTEX
  8
LAYER-1
 10
2.213853
 20
3.902453
 30
0.000000
  0
VERTEX
  8
LAYER-1
 10
2.383992
 20
3.902453
 30
0.000000
  0
VERTEX
  8
LAYER-1
 10
2.383992
 20
3.080262
 30
0.000000
  0
VERTEX
  8
LAYER-1
 10
2.213853
 20
3.080262
 30
0.000000
  0
SEQEND
  8
LAYER-1
  0
POLYLINE
  8
LAYER-1
 66
  1
 70
  1
 62
  7
  0
VERTEX
  8
LAYER-1
 10
2.623332
 20
3.902453
 30
0.000000
  0
VERTEX
  8
LAYER-1
 10
2.793471
 20
3.902453
 30
0.000000
  0
VERTEX
  8
LAYER-1
 10
2.793471
 20
3.080262
 30
0.000000
  0
VERTEX
  8
LAYER-1
 10
2.623332
 20
3.080262
 30
0.000000
  0
SEQEND
  8
LAYER-1
  0
POLYLINE
  8
LAYER-1
 66
  1
 70
  1
 62
  7
  0
VERTEX
  8
LAYER-1
 10
3.029339
 20
3.902453
 30
0.000000
  0
VERTEX
  8
LAYER-1
 10
3.199478
 20
3.902453
 30
0.000000
  0
VERTEX
  8
LAYER-1
 10
3.199478
 20
3.080262
 30
0.000000
  0
VERTEX
  8
LAYER-1
 10
3.029339
 20
3.080262
 30
0.000000
  0
SEQEND
  8
LAYER-1
  0
POLYLINE
  8
LAYER-1
 66
  1
 70
  1
 62
  7
  0
VERTEX
  8
LAYER-1
 10
3.437083
 20
3.902453
 30
0.000000
  0
VERTEX
  8
LAYER-1
 10
3.607221
 20
3.902453
 30
0.000000
  0
VERTEX
  8
LAYER-1
 10
3.607221
 20
3.080262
 30
0.000000
  0
VERTEX
  8
LAYER-1
 10
3.437083
 20
3.080262
 30
0.000000
  0
SEQEND
  8
LAYER-1
  0
POLYLINE
  8
LAYER-1
 66
  1
 70
  1
 62
  7
  0
VERTEX
  8
LAYER-1
 10
2.010415
 20
3.080617
 30
0.000000
  0
VERTEX
  8
LAYER-1
 10
2.180554
 20
3.080617
 30
0.000000
  0
VERTEX
  8
LAYER-1
 10
2.180554
 20
2.258424
 30
0.000000
  0
VERTEX
  8
LAYER-1
 10
2.010415
 20
2.258424
 30
0.000000
  0
SEQEND
  8
LAYER-1
  0
POLYLINE
  8
LAYER-1
 66
  1
 70
  1
 62
  7
  0
VERTEX
  8
LAYER-1
 10
2.419026
 20
3.080617
 30
0.000000
  0
VERTEX
  8
LAYER-1
 10
2.589165
 20
3.080617
 30
0.000000
  0
VERTEX
  8
LAYER-1
 10
2.589165
 20
2.258424
 30
0.000000
  0
VERTEX
  8
LAYER-1
 10
2.419026
 20
2.258424
 30
0.000000
  0
SEQEND
  8
LAYER-1
  0
POLYLINE
  8
LAYER-1
 66
  1
 70
  1
 62
  7
  0
VERTEX
  8
LAYER-1
 10
2.826770
 20
3.080617
 30
0.000000
  0
VERTEX
  8
LAYER-1
 10
2.996909
 20
3.080617
 30
0.000000
  0
VERTEX
  8
LAYER-1
 10
2.996909
 20
2.258424
 30
0.000000
  0
VERTEX
  8
LAYER-1
 10
2.826770
 20
2.258424
 30
0.000000
  0
SEQEND
  8
LAYER-1
  0
POLYLINE
  8
LAYER-1
 66
  1
 70
  1
 62
  7
  0
VERTEX
  8
LAYER-1
 10
3.232777
 20
3.080617
 30
0.000000
  0
VERTEX
  8
LAYER-1
 10
3.402916
 20
3.080617
 30
0.000000
  0
VERTEX
  8
LAYER-1
 10
3.402916
 20
2.258424
 30
0.000000
  0
VERTEX
  8
LAYER-1
 10
3.232777
 20
2.258424
 30
0.000000
  0
SEQEND
  8
LAYER-1
  0
POLYLINE
  8
LAYER-1
 66
  1
 70
  1
 62
  7
  0
VERTEX
  8
LAYER-1
 10
3.437083
 20
2.258422
 30
0.000000
  0
VERTEX
  8
LAYER-1
 10
3.607221
 20
2.258422
 30
0.000000
  0
VERTEX
  8
LAYER-1
 10
3.607221
 20
1.436229
 30
0.000000
  0
VERTEX
  8
LAYER-1
 10
3.437083
 20
1.436229
 30
0.000000
  0
SEQEND
  8
LAYER-1
  0
POLYLINE
  8
LAYER-1
 66
  1
 70
  1
 62
  7
  0
VERTEX
  8
LAYER-1
 10
3.029339
 20
2.258422
 30
0.000000
  0
VERTEX
  8
LAYER-1
 10
3.199478
 20
2.258422
 30
0.000000
  0
VERTEX
  8
LAYER-1
 10
3.199478
 20
1.436229
 30
0.000000
  0
VERTEX
  8
LAYER-1
 10
3.029339
 20
1.436229
 30
0.000000
  0
SEQEND
  8
LAYER-1
  0
POLYLINE
  8
LAYER-1
 66
  1
 70
  1
 62
  7
  0
VERTEX
  8
LAYER-1
 10
2.623332
 20
2.258422
 30
0.000000
  0
VERTEX
  8
LAYER-1
 10
2.793471
 20
2.258422
 30
0.000000
  0
VERTEX
  8
LAYER-1
 10
2.793471
 20
1.436229
 30
0.000000
  0
VERTEX
  8
LAYER-1
 10
2.623332
 20
1.436229
 30
0.000000
  0
SEQEND
  8
LAYER-1
  0
POLYLINE
  8
LAYER-1
 66
  1
 70
  1
 62
  7
  0
VERTEX
  8
LAYER-1
 10
2.213853
 20
2.258422
 30
0.000000
  0
VERTEX
  8
LAYER-1
 10
2.383992
 20
2.258422
 30
0.000000
  0
VERTEX
  8
LAYER-1
 10
2.383992
 20
1.436229
 30
0.000000
  0
VERTEX
  8
LAYER-1
 10
2.213853
 20
1.436229
 30
0.000000
  0
SEQEND
  8
LAYER-1
  0
POLYLINE
  8
LAYER-1
 66
  1
 70
  1
 62
  7
  0
VERTEX
  8
LAYER-1
 10
1.804373
 20
2.258422
 30
0.000000
  0
VERTEX
  8
LAYER-1
 10
1.974512
 20
2.258422
 30
0.000000
  0
VERTEX
  8
LAYER-1
 10
1.974512
 20
1.436229
 30
0.000000
  0
VERTEX
  8
LAYER-1
 10
1.804373
 20
1.436229
 30
0.000000
  0
SEQEND
  8
LAYER-1
  0
POLYLINE
  8
LAYER-1
 66
  1
 70
  1
 62
  7
  0
VERTEX
  8
LAYER-1
 10
3.232777
 20
1.436589
 30
0.000000
  0
VERTEX
  8
LAYER-1
 10
3.402916
 20
1.436589
 30
0.000000
  0
VERTEX
  8
LAYER-1
 10
3.402916
 20
0.614398
 30
0.000000
  0
VERTEX
  8
LAYER-1
 10
3.232777
 20
0.614398
 30
0.000000
  0
SEQEND
  8
LAYER-1
  0
POLYLINE
  8
LAYER-1
 66
  1
 70
  1
 62
  7
  0
VERTEX
  8
LAYER-1
 10
2.826770
 20
1.436589
 30
0.000000
  0
VERTEX
  8
LAYER-1
 10
2.996909
 20
1.436589
 30
0.000000
  0
VERTEX
  8
LAYER-1
 10
2.996909
 20
0.614398
 30
0.000000
  0
VERTEX
  8
LAYER-1
 10
2.826770
 20
0.614398
 30
0.000000
  0
SEQEND
  8
LAYER-1
  0
POLYLINE
  8
LAYER-1
 66
  1
 70
  1
 62
  7
  0
VERTEX
  8
LAYER-1
 10
2.419026
 20
1.436589
 30
0.000000
  0
VERTEX
  8
LAYER-1
 10
2.589165
 20
1.436589
 30
0.000000
  0
VERTEX
  8
LAYER-1
 10
2.589165
 20
0.614398
 30
0.000000
  0
VERTEX
  8
LAYER-1
 10
2.419026
 20
0.614398
 30
0.000000
  0
SEQEND
  8
LAYER-1
  0
POLYLINE
  8
LAYER-1
 66
  1
 70
  1
 62
  7
  0
VERTEX
  8
LAYER-1
 10
2.010415
 20
1.436589
 30
0.000000
  0
VERTEX
  8
LAYER-1
 10
2.180554
 20
1.436589
 30
0.000000
  0
VERTEX
  8
LAYER-1
 10
2.180554
 20
0.614398
 30
0.000000
  0
VERTEX
  8
LAYER-1
 10
2.010415
 20
0.614398
 30
0.000000
  0
SEQEND
  8
LAYER-1
  0
POLYLINE
  8
LAYER-1
 66
  1
 70
  1
 62
  0
  0
VERTEX
  8
LAYER-1
 10
4.020872
 20
7.189813
 30
0.000000
  0
VERTEX
  8
LAYER-1
 10
4.056822
 20
7.189813
 30
0.000000
  0
VERTEX
  8
LAYER-1
 10
4.056822
 20
0.608151
 30
0.000000
  0
VERTEX
  8
LAYER-1
 10
4.020872
 20
0.608151
 30
0.000000
  0
SEQEND
  8
LAYER-1
  0
POLYLINE
  8
LAYER-1
 66
  1
 70
  1
 62
  0
  0
VERTEX
  8
LAYER-1
 10
4.428268
 20
7.189813
 30
0.000000
  0
VERTEX
  8
LAYER-1
 10
4.464219
 20
7.189813
 30
0.000000
  0
VERTEX
  8
LAYER-1
 10
4.464219
 20
0.606300
 30
0.000000
  0
VERTEX
  8
LAYER-1
 10
4.428268
 20
0.606300
 30
0.000000
  0
SEQEND
  8
LAYER-1
  0
POLYLINE
  8
LAYER-1
 66
  1
 70
  1
 62
  0
  0
VERTEX
  8
LAYER-1
 10
4.834796
 20
7.189813
 30
0.000000
  0
VERTEX
  8
LAYER-1
 10
4.870747
 20
7.189813
 30
0.000000
  0
VERTEX
  8
LAYER-1
 10
4.870747
 20
0.607564
 30
0.000000
  0
VERTEX
  8
LAYER-1
 10
4.834796
 20
0.607564
 30
0.000000
  0
SEQEND
  8
LAYER-1
  0
POLYLINE
  8
LAYER-1
 66
  1
 70
  1
 62
  0
  0
VERTEX
  8
LAYER-1
 10
5.244796
 20
7.189813
 30
0.000000
  0
VERTEX
  8
LAYER-1
 10
5.280747
 20
7.189813
 30
0.000000
  0
VERTEX
  8
LAYER-1
 10
5.280747
 20
0.606977
 30
0.000000
  0
VERTEX
  8
LAYER-1
 10
5.244796
 20
0.606977
 30
0.000000
  0
SEQEND
  8
LAYER-1
  0
POLYLINE
  8
LAYER-1
 66
  1
 70
  1
 62
  0
  0
VERTEX
  8
LAYER-1
 10
5.655231
 20
7.189813
 30
0.000000
  0
VERTEX
  8
LAYER-1
 10
5.691181
 20
7.189813
 30
0.000000
  0
VERTEX
  8
LAYER-1
 10
5.691181
 20
0.606697
 30
0.000000
  0
VERTEX
  8
LAYER-1
 10
5.655231
 20
0.606697
 30
0.000000
  0
SEQEND
  8
LAYER-1
  0
POLYLINE
  8
LAYER-1
 66
  1
 70
  1
 62
  0
  0
VERTEX
  8
LAYER-1
 10
3.401636
 20
7.190018
 30
0.000000
  0
VERTEX
  8
LAYER-1
 10
3.437587
 20
7.190018
 30
0.000000
  0
VERTEX
  8
LAYER-1
 10
3.437587
 20
0.608002
 30
0.000000
  0
VERTEX
  8
LAYER-1
 10
3.401636
 20
0.608002
 30
0.000000
  0
SEQEND
  8
LAYER-1
  0
POLYLINE
  8
LAYER-1
 66
  1
 70
  1
 62
  0
  0
VERTEX
  8
LAYER-1
 10
2.995108
 20
7.190018
 30
0.000000
  0
VERTEX
  8
LAYER-1
 10
3.031059
 20
7.190018
 30
0.000000
  0
VERTEX
  8
LAYER-1
 10
3.031059
 20
0.608447
 30
0.000000
  0
VERTEX
  8
LAYER-1
 10
2.995108
 20
0.608447
 30
0.000000
  0
SEQEND
  8
LAYER-1
  0
POLYLINE
  8
LAYER-1
 66
  1
 70
  1
 62
  0
  0
VERTEX
  8
LAYER-1
 10
2.587712
 20
7.190018
 30
0.000000
  0
VERTEX
  8
LAYER-1
 10
2.623663
 20
7.190018
 30
0.000000
  0
VERTEX
  8
LAYER-1
 10
2.623663
 20
0.607108
 30
0.000000
  0
VERTEX
  8
LAYER-1
 10
2.587712
 20
0.607108
 30
0.000000
  0
SEQEND
  8
LAYER-1
  0
POLYLINE
  8
LAYER-1
 66
  1
 70
  1
 62
  0
  0
VERTEX
  8
LAYER-1
 10
2.178580
 20
7.190018
 30
0.000000
  0
VERTEX
  8
LAYER-1
 10
2.214530
 20
7.190018
 30
0.000000
  0
VERTEX
  8
LAYER-1
 10
2.214530
 20
0.608918
 30
0.000000
  0
VERTEX
  8
LAYER-1
 10
2.178580
 20
0.608918
 30
0.000000
  0
SEQEND
  8
LAYER-1
  0
POLYLINE
  8
LAYER-1
 66
  1
 70
  1
 62
  0
  0
VERTEX
  8
LAYER-1
 10
1.768145
 20
7.190018
 30
0.000000
  0
VERTEX
  8
LAYER-1
 10
1.804096
 20
7.190018
 30
0.000000
  0
VERTEX
  8
LAYER-1
 10
1.804096
 20
0.607976
 30
0.000000
  0
VERTEX
  8
LAYER-1
 10
1.768145
 20
0.607976
 30
0.000000
  0
SEQEND
  8
LAYER-1
  0
POLYLINE
  8
LAYER-1
 66
  1
 70
  1
 62
  0
  0
VERTEX
  8
LAYER-1
 10
3.606774
 20
7.190007
 30
0.000000
  0
VERTEX
  8
LAYER-1
 10
3.642725
 20
7.190007
 30
0.000000
  0
VERTEX
  8
LAYER-1
 10
3.642725
 20
0.606324
 30
0.000000
  0
VERTEX
  8
LAYER-1
 10
3.606774
 20
0.606324
 30
0.000000
  0
SEQEND
  8
LAYER-1
  0
POLYLINE
  8
LAYER-1
 66
  1
 70
  1
 62
  0
  0
VERTEX
  8
LAYER-1
 10
3.198510
 20
7.190007
 30
0.000000
  0
VERTEX
  8
LAYER-1
 10
3.234461
 20
7.190007
 30
0.000000
  0
VERTEX
  8
LAYER-1
 10
3.234461
 20
0.606324
 30
0.000000
  0
VERTEX
  8
LAYER-1
 10
3.198510
 20
0.606324
 30
0.000000
  0
SEQEND
  8
LAYER-1
  0
POLYLINE
  8
LAYER-1
 66
  1
 70
  1
 62
  0
  0
VERTEX
  8
LAYER-1
 10
2.791982
 20
7.190007
 30
0.000000
  0
VERTEX
  8
LAYER-1
 10
2.827933
 20
7.190007
 30
0.000000
  0
VERTEX
  8
LAYER-1
 10
2.827933
 20
0.606324
 30
0.000000
  0
VERTEX
  8
LAYER-1
 10
2.791982
 20
0.606324
 30
0.000000
  0
SEQEND
  8
LAYER-1
  0
POLYLINE
  8
LAYER-1
 66
  1
 70
  1
 62
  0
  0
VERTEX
  8
LAYER-1
 10
2.383717
 20
7.190007
 30
0.000000
  0
VERTEX
  8
LAYER-1
 10
2.419668
 20
7.190007
 30
0.000000
  0
VERTEX
  8
LAYER-1
 10
2.419668
 20
0.606324
 30
0.000000
  0
VERTEX
  8
LAYER-1
 10
2.383717
 20
0.606324
 30
0.000000
  0
SEQEND
  8
LAYER-1
  0
POLYLINE
  8
LAYER-1
 66
  1
 70
  1
 62
  0
  0
VERTEX
  8
LAYER-1
 10
1.974151
 20
7.190007
 30
0.000000
  0
VERTEX
  8
LAYER-1
 10
2.010102
 20
7.190007
 30
0.000000
  0
VERTEX
  8
LAYER-1
 10
2.010102
 20
0.606324
 30
0.000000
  0
VERTEX
  8
LAYER-1
 10
1.974151
 20
0.606324
 30
0.000000
  0
SEQEND
  8
LAYER-1
  0
POLYLINE
  8
LAYER-1
 66
  1
 70
  1
 62
  0
 10
3.645291
 20
0.341598
 30
0.000000
  0
VERTEX
  8
LAYER-1
 10
3.645291
 20
0.341598
 30
0.000000
  0
VERTEX
  8
LAYER-1
 10
1.749373
 20
0.341699
 30
0.000000
  0
VERTEX
  8
LAYER-1
 10
1.749373
 20
0.613232
 30
0.000000
  0
VERTEX
  8
LAYER-1
 10
3.645291
 20
0.613348
 30
0.000000
  0
SEQEND
  8
LAYER-1
  0
POLYLINE
  8
LAYER-1
 66
  1
 70
  0
 62
  0
 10
3.645510
 20
0.409505
 30
0.000000
  0
VERTEX
  8
LAYER-1
 10
3.645510
 20
0.409505
 30
0.000000
  0
VERTEX
  8
LAYER-1
 10
3.605784
 20
0.409505
 30
0.000000
  0
SEQEND
  8
LAYER-1
  0
POLYLINE
  8
LAYER-1
 66
  1
 70
  0
 62
  0
 10
3.645510
 20
0.539415
 30
0.000000
  0
VERTEX
  8
LAYER-1
 10
3.645510
 20
0.539415
 30
0.000000
  0
VERTEX
  8
LAYER-1
 10
3.605784
 20
0.539415
 30
0.000000
  0
SEQEND
  8
LAYER-1
  0
POLYLINE
  8
LAYER-1
 66
  1
 70
  0
 62
  0
 10
3.607154
 20
0.336453
 30
0.000000
  0
VERTEX
  8
LAYER-1
 10
3.607154
 20
0.336453
 30
0.000000
  0
VERTEX
  8
LAYER-1
 10
3.620326
 20
0.329406
 30
0.000000
  0
VERTEX
  8
LAYER-1
 10
3.637406
 20
0.333737
 30
0.000000
  0
VERTEX
  8
LAYER-1
 10
3.644058
 20
0.336451
 30
0.000000
  0
SEQEND
  8
LAYER-1
  0
POLYLINE
  8
LAYER-1
 66
  1
 70
  1
 62
  0
  0
VERTEX
  8
LAYER-1
 10
3.651261
 20
0.335830
 30
0.000000
  0
VERTEX
  8
LAYER-1
 10
3.596646
 20
0.335830
 30
0.000000
  0
VERTEX
  8
LAYER-1
 10
3.596646
 20
0.341735
 30
0.000000
  0
VERTEX
  8
LAYER-1
 10
3.651261
 20
0.341735
 30
0.000000
  0
SEQEND
  8
LAYER-1
  0
POLYLINE
  8
LAYER-1
 66
  1
 70
  1
 62
  0
 10
3.645085
 20
7.461639
 30
0.000000
  0
VERTEX
  8
LAYER-1
 10
3.645085
 20
7.461639
 30
0.000000
  0
VERTEX
  8
LAYER-1
 10
1.748733
 20
7.461538
 30
0.000000
  0
VERTEX
  8
LAYER-1
 10
1.748733
 20
7.190004
 30
0.000000
  0
VERTEX
  8
LAYER-1
 10
3.645085
 20
7.189888
 30
0.000000
  0
SEQEND
  8
LAYER-1
  0
POLYLINE
  8
LAYER-1
 66
  1
 70
  0
 62
  0
 10
3.383796
 20
7.461638
 30
0.000000
  0
VERTEX
  8
LAYER-1
 10
3.383796
 20
7.461638
 30
0.000000
  0
VERTEX
  8
LAYER-1
 10
3.383796
 20
7.190006
 30
0.000000
  0
SEQEND
  8
LAYER-1
  0
POLYLINE
  8
LAYER-1
 66
  1
 70
  0
 62
  0
 10
3.053299
 20
7.190006
 30
0.000000
  0
VERTEX
  8
LAYER-1
 10
3.053299
 20
7.190006
 30
0.000000
  0
VERTEX
  8
LAYER-1
 10
3.053299
 20
7.461638
 30
0.000000
  0
SEQEND
  8
LAYER-1
  0
POLYLINE
  8
LAYER-1
 66
  1
 70
  0
 62
  0
 10
2.240467
 20
7.190007
 30
0.000000
  0
VERTEX
  8
LAYER-1
 10
2.240467
 20
7.190007
 30
0.000000
  0
VERTEX
  8
LAYER-1
 10
2.240467
 20
7.461638
 30
0.000000
  0
SEQEND
  8
LAYER-1
  0
POLYLINE
  8
LAYER-1
 66
  1
 70
  0
 62
  0
 10
2.421635
 20
7.461678
 30
0.000000
  0
VERTEX
  8
LAYER-1
 10
2.421635
 20
7.461678
 30
0.000000
  0
VERTEX
  8
LAYER-1
 10
2.421635
 20
7.190049
 30
0.000000
  0
SEQEND
  8
LAYER-1
  0
POLYLINE
  8
LAYER-1
 66
  1
 70
  0
 62
  0
 10
2.381776
 20
7.461678
 30
0.000000
  0
VERTEX
  8
LAYER-1
 10
2.381776
 20
7.461678
 30
0.000000
  0
VERTEX
  8
LAYER-1
 10
2.381776
 20
7.190049
 30
0.000000
  0
SEQEND
  8
LAYER-1
  0
POLYLINE
  8
LAYER-1
 66
  1
 70
  0
 62
  0
 10
3.235652
 20
7.461678
 30
0.000000
  0
VERTEX
  8
LAYER-1
 10
3.235652
 20
7.461678
 30
0.000000
  0
VERTEX
  8
LAYER-1
 10
3.235652
 20
7.190049
 30
0.000000
  0
SEQEND
  8
LAYER-1
  0
POLYLINE
  8
LAYER-1
 66
  1
 70
  0
 62
  0
 10
3.196836
 20
7.461678
 30
0.000000
  0
VERTEX
  8
LAYER-1
 10
3.196836
 20
7.461678
 30
0.000000
  0
VERTEX
  8
LAYER-1
 10
3.196836
 20
7.190049
 30
0.000000
  0
SEQEND
  8
LAYER-1
  0
POLYLINE
  8
LAYER-1
 66
  1
 70
  0
 62
  0
 10
2.968976
 20
7.461638
 30
0.000000
  0
VERTEX
  8
LAYER-1
 10
2.968976
 20
7.461638
 30
0.000000
  0
VERTEX
  8
LAYER-1
 10
2.968976
 20
7.190007
 30
0.000000
  0
SEQEND
  8
LAYER-1
  0
POLYLINE
  8
LAYER-1
 66
  1
 70
  0
 62
  0
 10
2.156146
 20
7.461638
 30
0.000000
  0
VERTEX
  8
LAYER-1
 10
2.156146
 20
7.461638
 30
0.000000
  0
VERTEX
  8
LAYER-1
 10
2.156146
 20
7.190007
 30
0.000000
  0
SEQEND
  8
LAYER-1
  0
POLYLINE
  8
LAYER-1
 66
  1
 70
  0
 62
  0
 10
2.011240
 20
7.461244
 30
0.000000
  0
VERTEX
  8
LAYER-1
 10
2.011240
 20
7.461244
 30
0.000000
  0
VERTEX
  8
LAYER-1
 10
2.011240
 20
7.189615
 30
0.000000
  0
SEQEND
  8
LAYER-1
  0
POLYLINE
  8
LAYER-1
 66
  1
 70
  0
 62
  0
 10
1.972858
 20
7.461244
 30
0.000000
  0
VERTEX
  8
LAYER-1
 10
1.972858
 20
7.461244
 30
0.000000
  0
VERTEX
  8
LAYER-1
 10
1.972858
 20
7.189615
 30
0.000000
  0
SEQEND
  8
LAYER-1
  0
POLYLINE
  8
LAYER-1
 66
  1
 70
  0
 62
  0
 10
2.829079
 20
7.461713
 30
0.000000
  0
VERTEX
  8
LAYER-1
 10
2.829079
 20
7.461713
 30
0.000000
  0
VERTEX
  8
LAYER-1
 10
2.829079
 20
7.190085
 30
0.000000
  0
SEQEND
  8
LAYER-1
  0
POLYLINE
  8
LAYER-1
 66
  1
 70
  0
 62
  0
 10
2.790696
 20
7.461713
 30
0.000000
  0
VERTEX
  8
LAYER-1
 10
2.790696
 20
7.461713
 30
0.000000
  0
VERTEX
  8
LAYER-1
 10
2.790696
 20
7.190085
 30
0.000000
  0
SEQEND
  8
LAYER-1
  0
POLYLINE
  8
LAYER-1
 66
  1
 70
  0
 62
  0
 10
3.456130
 20
7.190010
 30
0.000000
  0
VERTEX
  8
LAYER-1
 10
3.456130
 20
7.190010
 30
0.000000
  0
VERTEX
  8
LAYER-1
 10
3.456130
 20
7.461639
 30
0.000000
  0
SEQEND
  8
LAYER-1
  0
POLYLINE
  8
LAYER-1
 66
  1
 70
  0
 62
  0
 10
3.420700
 20
7.461639
 30
0.000000
  0
VERTEX
  8
LAYER-1
 10
3.420700
 20
7.461639
 30
0.000000
  0
VERTEX
  8
LAYER-1
 10
3.420700
 20
7.190008
 30
0.000000
  0
SEQEND
  8
LAYER-1
  0
POLYLINE
  8
LAYER-1
 66
  1
 70
  0
 62
  0
 10
3.455226
 20
7.461639
 30
0.000000
  0
VERTEX
  8
LAYER-1
 10
3.455226
 20
7.461639
 30
0.000000
  0
VERTEX
  8
LAYER-1
 10
3.441349
 20
7.472577
 30
0.000000
  0
VERTEX
  8
LAYER-1
 10
3.426586
 20
7.470499
 30
0.000000
  0
VERTEX
  8
LAYER-1
 10
3.421671
 20
7.461650
 30
0.000000
  0
SEQEND
  8
LAYER-1
  0
POLYLINE
  8
LAYER-1
 66
  1
 70
  0
 62
  0
 10
3.420700
 20
7.461639
 30
0.000000
  0
VERTEX
  8
LAYER-1
 10
3.420700
 20
7.461639
 30
0.000000
  0
VERTEX
  8
LAYER-1
 10
3.403592
 20
7.472622
 30
0.000000
  0
VERTEX
  8
LAYER-1
 10
3.386512
 20
7.468291
 30
0.000000
  0
VERTEX
  8
LAYER-1
 10
3.383797
 20
7.461638
 30
0.000000
  0
SEQEND
  8
LAYER-1
  0
POLYLINE
  8
LAYER-1
 66
  1
 70
  0
 62
  0
 10
3.005145
 20
7.461145
 30
0.000000
  0
VERTEX
  8
LAYER-1
 10
3.005145
 20
7.461145
 30
0.000000
  0
VERTEX
  8
LAYER-1
 10
2.985640
 20
7.471137
 30
0.000000
  0
VERTEX
  8
LAYER-1
 10
2.967567
 20
7.464411
 30
0.000000
  0
VERTEX
  8
LAYER-1
 10
2.968237
 20
7.461144
 30
0.000000
  0
SEQEND
  8
LAYER-1
  0
POLYLINE
  8
LAYER-1
 66
  1
 70
  0
 62
  0
 10
2.192186
 20
7.461615
 30
0.000000
  0
VERTEX
  8
LAYER-1
 10
2.192186
 20
7.461615
 30
0.000000
  0
VERTEX
  8
LAYER-1
 10
2.172682
 20
7.471607
 30
0.000000
  0
VERTEX
  8
LAYER-1
 10
2.154608
 20
7.464881
 30
0.000000
  0
VERTEX
  8
LAYER-1
 10
2.155279
 20
7.461615
 30
0.000000
  0
SEQEND
  8
LAYER-1
  0
POLYLINE
  8
LAYER-1
 66
  1
 70
  0
 62
  0
 10
3.052854
 20
7.461146
 30
0.000000
  0
VERTEX
  8
LAYER-1
 10
3.052854
 20
7.461146
 30
0.000000
  0
VERTEX
  8
LAYER-1
 10
3.033350
 20
7.471138
 30
0.000000
  0
VERTEX
  8
LAYER-1
 10
3.015276
 20
7.464411
 30
0.000000
  0
VERTEX
  8
LAYER-1
 10
3.015946
 20
7.461145
 30
0.000000
  0
SEQEND
  8
LAYER-1
  0
POLYLINE
  8
LAYER-1
 66
  1
 70
  0
 62
  0
 10
3.030911
 20
7.461705
 30
0.000000
  0
VERTEX
  8
LAYER-1
 10
3.030911
 20
7.461705
 30
0.000000
  0
VERTEX
  8
LAYER-1
 10
3.020160
 20
7.474709
 30
0.000000
  0
VERTEX
  8
LAYER-1
 10
3.006144
 20
7.476303
 30
0.000000
  0
VERTEX
  8
LAYER-1
 10
2.995108
 20
7.467520
 30
0.000000
  0
VERTEX
  8
LAYER-1
 10
2.995483
 20
7.461705
 30
0.000000
  0
SEQEND
  8
LAYER-1
  0
POLYLINE
  8
LAYER-1
 66
  1
 70
  0
 62
  0
 10
3.030911
 20
7.461705
 30
0.000000
  0
VERTEX
  8
LAYER-1
 10
3.030911
 20
7.461705
 30
0.000000
  0
VERTEX
  8
LAYER-1
 10
2.995482
 20
7.461705
 30
0.000000
  0
SEQEND
  8
LAYER-1
  0
POLYLINE
  8
LAYER-1
 66
  1
 70
  0
 62
  0
 10
2.240836
 20
7.461616
 30
0.000000
  0
VERTEX
  8
LAYER-1
 10
2.240836
 20
7.461616
 30
0.000000
  0
VERTEX
  8
LAYER-1
 10
2.221332
 20
7.471608
 30
0.000000
  0
VERTEX
  8
LAYER-1
 10
2.203259
 20
7.464882
 30
0.000000
  0
VERTEX
  8
LAYER-1
 10
2.203929
 20
7.461615
 30
0.000000
  0
SEQEND
  8
LAYER-1
  0
POLYLINE
  8
LAYER-1
 66
  1
 70
  0
 62
  0
 10
2.214664
 20
7.461705
 30
0.000000
  0
VERTEX
  8
LAYER-1
 10
2.214664
 20
7.461705
 30
0.000000
  0
VERTEX
  8
LAYER-1
 10
2.203912
 20
7.474709
 30
0.000000
  0
VERTEX
  8
LAYER-1
 10
2.189897
 20
7.476303
 30
0.000000
  0
VERTEX
  8
LAYER-1
 10
2.178860
 20
7.467520
 30
0.000000
  0
VERTEX
  8
LAYER-1
 10
2.179235
 20
7.461705
 30
0.000000
  0
SEQEND
  8
LAYER-1
  0
POLYLINE
  8
LAYER-1
 66
  1
 70
  0
 62
  0
 10
2.214664
 20
7.461705
 30
0.000000
  0
VERTEX
  8
LAYER-1
 10
2.214664
 20
7.461705
 30
0.000000
  0
VERTEX
  8
LAYER-1
 10
2.179236
 20
7.461705
 30
0.000000
  0
SEQEND
  8
LAYER-1
  0
POLYLINE
  8
LAYER-1
 66
  1
 70
  0
 62
  0
 10
3.421976
 20
7.189423
 30
0.000000
  0
VERTEX
  8
LAYER-1
 10
3.421976
 20
7.189423
 30
0.000000
  0
VERTEX
  8
LAYER-1
 10
3.432212
 20
7.182828
 30
0.000000
  0
VERTEX
  8
LAYER-1
 10
3.446897
 20
7.185403
 30
0.000000
  0
VERTEX
  8
LAYER-1
 10
3.455196
 20
7.189983
 30
0.000000
  0
SEQEND
  8
LAYER-1
  0
POLYLINE
  8
LAYER-1
 66
  1
 70
  0
 62
  0
 10
3.421977
 20
7.189423
 30
0.000000
  0
VERTEX
  8
LAYER-1
 10
3.421977
 20
7.189423
 30
0.000000
  0
VERTEX
  8
LAYER-1
 10
3.455196
 20
7.189983
 30
0.000000
  0
SEQEND
  8
LAYER-1
  0
POLYLINE
  8
LAYER-1
 66
  1
 70
  0
 62
  0
 10
3.382864
 20
7.189984
 30
0.000000
  0
VERTEX
  8
LAYER-1
 10
3.382864
 20
7.189984
 30
0.000000
  0
VERTEX
  8
LAYER-1
 10
3.396035
 20
7.182937
 30
0.000000
  0
VERTEX
  8
LAYER-1
 10
3.413115
 20
7.187268
 30
0.000000
  0
VERTEX
  8
LAYER-1
 10
3.419768
 20
7.189983
 30
0.000000
  0
SEQEND
  8
LAYER-1
  0
POLYLINE
  8
LAYER-1
 66
  1
 70
  0
 62
  0
 10
3.382864
 20
7.189984
 30
0.000000
  0
VERTEX
  8
LAYER-1
 10
3.382864
 20
7.189984
 30
0.000000
  0
VERTEX
  8
LAYER-1
 10
3.419767
 20
7.189983
 30
0.000000
  0
SEQEND
  8
LAYER-1
  0
POLYLINE
  8
LAYER-1
 66
  1
 70
  0
 62
  0
 10
3.016020
 20
7.189537
 30
0.000000
  0
VERTEX
  8
LAYER-1
 10
3.016020
 20
7.189537
 30
0.000000
  0
VERTEX
  8
LAYER-1
 10
3.031587
 20
7.183482
 30
0.000000
  0
VERTEX
  8
LAYER-1
 10
3.049661
 20
7.190208
 30
0.000000
  0
VERTEX
  8
LAYER-1
 10
3.052928
 20
7.189536
 30
0.000000
  0
SEQEND
  8
LAYER-1
  0
POLYLINE
  8
LAYER-1
 66
  1
 70
  0
 62
  0
 10
2.968779
 20
7.189537
 30
0.000000
  0
VERTEX
  8
LAYER-1
 10
2.968779
 20
7.189537
 30
0.000000
  0
VERTEX
  8
LAYER-1
 10
2.984347
 20
7.183482
 30
0.000000
  0
VERTEX
  8
LAYER-1
 10
3.002420
 20
7.190208
 30
0.000000
  0
VERTEX
  8
LAYER-1
 10
3.005687
 20
7.189536
 30
0.000000
  0
SEQEND
  8
LAYER-1
  0
POLYLINE
  8
LAYER-1
 66
  1
 70
  0
 62
  0
 10
2.996025
 20
7.189447
 30
0.000000
  0
VERTEX
  8
LAYER-1
 10
2.996025
 20
7.189447
 30
0.000000
  0
VERTEX
  8
LAYER-1
 10
3.002840
 20
7.180379
 30
0.000000
  0
VERTEX
  8
LAYER-1
 10
3.016855
 20
7.178786
 30
0.000000
  0
VERTEX
  8
LAYER-1
 10
3.027892
 20
7.187569
 30
0.000000
  0
VERTEX
  8
LAYER-1
 10
3.031454
 20
7.189447
 30
0.000000
  0
SEQEND
  8
LAYER-1
  0
POLYLINE
  8
LAYER-1
 66
  1
 70
  0
 62
  0
 10
3.031454
 20
7.189447
 30
0.000000
  0
VERTEX
  8
LAYER-1
 10
3.031454
 20
7.189447
 30
0.000000
  0
VERTEX
  8
LAYER-1
 10
2.996025
 20
7.189447
 30
0.000000
  0
SEQEND
  8
LAYER-1
  0
POLYLINE
  8
LAYER-1
 66
  1
 70
  0
 62
  0
 10
2.203466
 20
7.189537
 30
0.000000
  0
VERTEX
  8
LAYER-1
 10
2.203466
 20
7.189537
 30
0.000000
  0
VERTEX
  8
LAYER-1
 10
2.219032
 20
7.183482
 30
0.000000
  0
VERTEX
  8
LAYER-1
 10
2.237106
 20
7.190208
 30
0.000000
  0
VERTEX
  8
LAYER-1
 10
2.240373
 20
7.189536
 30
0.000000
  0
SEQEND
  8
LAYER-1
  0
POLYLINE
  8
LAYER-1
 66
  1
 70
  0
 62
  0
 10
2.155286
 20
7.189537
 30
0.000000
  0
VERTEX
  8
LAYER-1
 10
2.155286
 20
7.189537
 30
0.000000
  0
VERTEX
  8
LAYER-1
 10
2.170853
 20
7.183482
 30
0.000000
  0
VERTEX
  8
LAYER-1
 10
2.188926
 20
7.190208
 30
0.000000
  0
VERTEX
  8
LAYER-1
 10
2.192193
 20
7.189536
 30
0.000000
  0
SEQEND
  8
LAYER-1
  0
POLYLINE
  8
LAYER-1
 66
  1
 70
  0
 62
  0
 10
2.179241
 20
7.189447
 30
0.000000
  0
VERTEX
  8
LAYER-1
 10
2.179241
 20
7.189447
 30
0.000000
  0
VERTEX
  8
LAYER-1
 10
2.186056
 20
7.180379
 30
0.000000
  0
VERTEX
  8
LAYER-1
 10
2.200072
 20
7.178786
 30
0.000000
  0
VERTEX
  8
LAYER-1
 10
2.211108
 20
7.187569
 30
0.000000
  0
VERTEX
  8
LAYER-1
 10
2.214670
 20
7.189447
 30
0.000000
  0
SEQEND
  8
LAYER-1
  0
POLYLINE
  8
LAYER-1
 66
  1
 70
  0
 62
  0
 10
2.214670
 20
7.189447
 30
0.000000
  0
VERTEX
  8
LAYER-1
 10
2.214670
 20
7.189447
 30
0.000000
  0
VERTEX
  8
LAYER-1
 10
2.179242
 20
7.189447
 30
0.000000
  0
SEQEND
  8
LAYER-1
  0
POLYLINE
  8
LAYER-1
 66
  1
 70
  1
 62
  0
  0
VERTEX
  8
LAYER-1
 10
2.995481
 20
7.461638
 30
0.000000
  0
VERTEX
  8
LAYER-1
 10
3.030911
 20
7.461638
 30
0.000000
  0
VERTEX
  8
LAYER-1
 10
3.030911
 20
7.190009
 30
0.000000
  0
VERTEX
  8
LAYER-1
 10
2.995481
 20
7.190009
 30
0.000000
  0
SEQEND
  8
LAYER-1
  0
POLYLINE
  8
LAYER-1
 66
  1
 70
  1
 62
  0
  0
VERTEX
  8
LAYER-1
 10
2.179167
 20
7.461638
 30
0.000000
  0
VERTEX
  8
LAYER-1
 10
2.214598
 20
7.461638
 30
0.000000
  0
VERTEX
  8
LAYER-1
 10
2.214598
 20
7.190009
 30
0.000000
  0
VERTEX
  8
LAYER-1
 10
2.179167
 20
7.190009
 30
0.000000
  0
SEQEND
  8
LAYER-1
  0
POLYLINE
  8
LAYER-1
 66
  1
 70
  0
 62
  0
 10
3.030911
 20
7.393731
 30
0.000000
  0
VERTEX
  8
LAYER-1
 10
3.030911
 20
7.393731
 30
0.000000
  0
VERTEX
  8
LAYER-1
 10
2.995481
 20
7.393731
 30
0.000000
  0
SEQEND
  8
LAYER-1
  0
POLYLINE
  8
LAYER-1
 66
  1
 70
  0
 62
  0
 10
3.030911
 20
7.263822
 30
0.000000
  0
VERTEX
  8
LAYER-1
 10
3.030911
 20
7.263822
 30
0.000000
  0
VERTEX
  8
LAYER-1
 10
2.995481
 20
7.263822
 30
0.000000
  0
SEQEND
  8
LAYER-1
  0
POLYLINE
  8
LAYER-1
 66
  1
 70
  0
 62
  0
 10
2.214598
 20
7.393731
 30
0.000000
  0
VERTEX
  8
LAYER-1
 10
2.214598
 20
7.393731
 30
0.000000
  0
VERTEX
  8
LAYER-1
 10
2.179169
 20
7.393731
 30
0.000000
  0
SEQEND
  8
LAYER-1
  0
POLYLINE
  8
LAYER-1
 66
  1
 70
  0
 62
  0
 10
2.214598
 20
7.263821
 30
0.000000
  0
VERTEX
  8
LAYER-1
 10
2.214598
 20
7.263821
 30
0.000000
  0
VERTEX
  8
LAYER-1
 10
2.179169
 20
7.263821
 30
0.000000
  0
SEQEND
  8
LAYER-1
  0
POLYLINE
  8
LAYER-1
 66
  1
 70
  0
 62
  0
 10
3.233243
 20
7.461195
 30
0.000000
  0
VERTEX
  8
LAYER-1
 10
3.233243
 20
7.461195
 30
0.000000
  0
VERTEX
  8
LAYER-1
 10
3.219366
 20
7.472132
 30
0.000000
  0
VERTEX
  8
LAYER-1
 10
3.204603
 20
7.470054
 30
0.000000
  0
VERTEX
  8
LAYER-1
 10
3.200024
 20
7.461755
 30
0.000000
  0
SEQEND
  8
LAYER-1
  0
POLYLINE
  8
LAYER-1
 66
  1
 70
  0
 62
  0
 10
2.419749
 20
7.461577
 30
0.000000
  0
VERTEX
  8
LAYER-1
 10
2.419749
 20
7.461577
 30
0.000000
  0
VERTEX
  8
LAYER-1
 10
2.402640
 20
7.472560
 30
0.000000
  0
VERTEX
  8
LAYER-1
 10
2.385561
 20
7.468229
 30
0.000000
  0
VERTEX
  8
LAYER-1
 10
2.382845
 20
7.461577
 30
0.000000
  0
SEQEND
  8
LAYER-1
  0
POLYLINE
  8
LAYER-1
 66
  1
 70
  0
 62
  0
 10
2.606945
 20
7.189420
 30
0.000000
  0
VERTEX
  8
LAYER-1
 10
2.606945
 20
7.189420
 30
0.000000
  0
VERTEX
  8
LAYER-1
 10
2.617181
 20
7.182826
 30
0.000000
  0
VERTEX
  8
LAYER-1
 10
2.631865
 20
7.185401
 30
0.000000
  0
VERTEX
  8
LAYER-1
 10
2.640164
 20
7.189980
 30
0.000000
  0
SEQEND
  8
LAYER-1
  0
POLYLINE
  8
LAYER-1
 66
  1
 70
  0
 62
  0
 10
2.606945
 20
7.189420
 30
0.000000
  0
VERTEX
  8
LAYER-1
 10
2.606945
 20
7.189420
 30
0.000000
  0
VERTEX
  8
LAYER-1
 10
2.640164
 20
7.189980
 30
0.000000
  0
SEQEND
  8
LAYER-1
  0
POLYLINE
  8
LAYER-1
 66
  1
 70
  0
 62
  0
 10
2.567832
 20
7.189981
 30
0.000000
  0
VERTEX
  8
LAYER-1
 10
2.567832
 20
7.189981
 30
0.000000
  0
VERTEX
  8
LAYER-1
 10
2.581003
 20
7.182934
 30
0.000000
  0
VERTEX
  8
LAYER-1
 10
2.598084
 20
7.187265
 30
0.000000
  0
VERTEX
  8
LAYER-1
 10
2.604736
 20
7.189980
 30
0.000000
  0
SEQEND
  8
LAYER-1
  0
POLYLINE
  8
LAYER-1
 66
  1
 70
  0
 62
  0
 10
2.567833
 20
7.189981
 30
0.000000
  0
VERTEX
  8
LAYER-1
 10
2.567833
 20
7.189981
 30
0.000000
  0
VERTEX
  8
LAYER-1
 10
2.604736
 20
7.189980
 30
0.000000
  0
SEQEND
  8
LAYER-1
  0
POLYLINE
  8
LAYER-1
 66
  1
 70
  0
 62
  0
 10
2.569004
 20
7.461638
 30
0.000000
  0
VERTEX
  8
LAYER-1
 10
2.569004
 20
7.461638
 30
0.000000
  0
VERTEX
  8
LAYER-1
 10
2.569004
 20
7.190006
 30
0.000000
  0
SEQEND
  8
LAYER-1
  0
POLYLINE
  8
LAYER-1
 66
  1
 70
  0
 62
  0
 10
2.641338
 20
7.190010
 30
0.000000
  0
VERTEX
  8
LAYER-1
 10
2.641338
 20
7.190010
 30
0.000000
  0
VERTEX
  8
LAYER-1
 10
2.641338
 20
7.461639
 30
0.000000
  0
SEQEND
  8
LAYER-1
  0
POLYLINE
  8
LAYER-1
 66
  1
 70
  0
 62
  0
 10
2.605908
 20
7.461639
 30
0.000000
  0
VERTEX
  8
LAYER-1
 10
2.605908
 20
7.461639
 30
0.000000
  0
VERTEX
  8
LAYER-1
 10
2.605908
 20
7.190008
 30
0.000000
  0
SEQEND
  8
LAYER-1
  0
POLYLINE
  8
LAYER-1
 66
  1
 70
  0
 62
  0
 10
2.641033
 20
7.461497
 30
0.000000
  0
VERTEX
  8
LAYER-1
 10
2.641033
 20
7.461497
 30
0.000000
  0
VERTEX
  8
LAYER-1
 10
2.627156
 20
7.472435
 30
0.000000
  0
VERTEX
  8
LAYER-1
 10
2.612393
 20
7.470357
 30
0.000000
  0
VERTEX
  8
LAYER-1
 10
2.607813
 20
7.462057
 30
0.000000
  0
SEQEND
  8
LAYER-1
  0
POLYLINE
  8
LAYER-1
 66
  1
 70
  0
 62
  0
 10
2.607814
 20
7.462057
 30
0.000000
  0
VERTEX
  8
LAYER-1
 10
2.607814
 20
7.462057
 30
0.000000
  0
VERTEX
  8
LAYER-1
 10
2.641033
 20
7.461497
 30
0.000000
  0
SEQEND
  8
LAYER-1
  0
POLYLINE
  8
LAYER-1
 66
  1
 70
  0
 62
  0
 10
2.605605
 20
7.461497
 30
0.000000
  0
VERTEX
  8
LAYER-1
 10
2.605605
 20
7.461497
 30
0.000000
  0
VERTEX
  8
LAYER-1
 10
2.588496
 20
7.472480
 30
0.000000
  0
VERTEX
  8
LAYER-1
 10
2.571416
 20
7.468149
 30
0.000000
  0
VERTEX
  8
LAYER-1
 10
2.568701
 20
7.461496
 30
0.000000
  0
SEQEND
  8
LAYER-1
  0
POLYLINE
  8
LAYER-1
 66
  1
 70
  0
 62
  0
 10
2.568701
 20
7.461496
 30
0.000000
  0
VERTEX
  8
LAYER-1
 10
2.568701
 20
7.461496
 30
0.000000
  0
VERTEX
  8
LAYER-1
 10
2.605604
 20
7.461497
 30
0.000000
  0
SEQEND
  8
LAYER-1
  0
POLYLINE
  8
LAYER-1
 66
  1
 70
  0
 62
  0
 10
1.786945
 20
7.189420
 30
0.000000
  0
VERTEX
  8
LAYER-1
 10
1.786945
 20
7.189420
 30
0.000000
  0
VERTEX
  8
LAYER-1
 10
1.797181
 20
7.182826
 30
0.000000
  0
VERTEX
  8
LAYER-1
 10
1.811865
 20
7.185401
 30
0.000000
  0
VERTEX
  8
LAYER-1
 10
1.820165
 20
7.189980
 30
0.000000
  0
SEQEND
  8
LAYER-1
  0
POLYLINE
  8
LAYER-1
 66
  1
 70
  0
 62
  0
 10
1.786945
 20
7.189420
 30
0.000000
  0
VERTEX
  8
LAYER-1
 10
1.786945
 20
7.189420
 30
0.000000
  0
VERTEX
  8
LAYER-1
 10
1.820164
 20
7.189980
 30
0.000000
  0
SEQEND
  8
LAYER-1
  0
POLYLINE
  8
LAYER-1
 66
  1
 70
  0
 62
  0
 10
1.747832
 20
7.189981
 30
0.000000
  0
VERTEX
  8
LAYER-1
 10
1.747832
 20
7.189981
 30
0.000000
  0
VERTEX
  8
LAYER-1
 10
1.761003
 20
7.182934
 30
0.000000
  0
VERTEX
  8
LAYER-1
 10
1.778084
 20
7.187265
 30
0.000000
  0
VERTEX
  8
LAYER-1
 10
1.784736
 20
7.189980
 30
0.000000
  0
SEQEND
  8
LAYER-1
  0
POLYLINE
  8
LAYER-1
 66
  1
 70
  0
 62
  0
 10
1.747833
 20
7.189981
 30
0.000000
  0
VERTEX
  8
LAYER-1
 10
1.747833
 20
7.189981
 30
0.000000
  0
VERTEX
  8
LAYER-1
 10
1.784735
 20
7.189980
 30
0.000000
  0
SEQEND
  8
LAYER-1
  0
POLYLINE
  8
LAYER-1
 66
  1
 70
  0
 62
  0
 10
1.749004
 20
7.461638
 30
0.000000
  0
VERTEX
  8
LAYER-1
 10
1.749004
 20
7.461638
 30
0.000000
  0
VERTEX
  8
LAYER-1
 10
1.749004
 20
7.190006
 30
0.000000
  0
SEQEND
  8
LAYER-1
  0
POLYLINE
  8
LAYER-1
 66
  1
 70
  0
 62
  0
 10
1.821337
 20
7.190010
 30
0.000000
  0
VERTEX
  8
LAYER-1
 10
1.821337
 20
7.190010
 30
0.000000
  0
VERTEX
  8
LAYER-1
 10
1.821337
 20
7.461639
 30
0.000000
  0
SEQEND
  8
LAYER-1
  0
POLYLINE
  8
LAYER-1
 66
  1
 70
  0
 62
  0
 10
1.785908
 20
7.461639
 30
0.000000
  0
VERTEX
  8
LAYER-1
 10
1.785908
 20
7.461639
 30
0.000000
  0
VERTEX
  8
LAYER-1
 10
1.785908
 20
7.190008
 30
0.000000
  0
SEQEND
  8
LAYER-1
  0
POLYLINE
  8
LAYER-1
 66
  1
 70
  0
 62
  0
 10
1.821033
 20
7.461497
 30
0.000000
  0
VERTEX
  8
LAYER-1
 10
1.821033
 20
7.461497
 30
0.000000
  0
VERTEX
  8
LAYER-1
 10
1.807156
 20
7.472435
 30
0.000000
  0
VERTEX
  8
LAYER-1
 10
1.792393
 20
7.470357
 30
0.000000
  0
VERTEX
  8
LAYER-1
 10
1.787813
 20
7.462057
 30
0.000000
  0
SEQEND
  8
LAYER-1
  0
POLYLINE
  8
LAYER-1
 66
  1
 70
  0
 62
  0
 10
1.787814
 20
7.462057
 30
0.000000
  0
VERTEX
  8
LAYER-1
 10
1.787814
 20
7.462057
 30
0.000000
  0
VERTEX
  8
LAYER-1
 10
1.821033
 20
7.461497
 30
0.000000
  0
SEQEND
  8
LAYER-1
  0
POLYLINE
  8
LAYER-1
 66
  1
 70
  0
 62
  0
 10
1.785605
 20
7.461497
 30
0.000000
  0
VERTEX
  8
LAYER-1
 10
1.785605
 20
7.461497
 30
0.000000
  0
VERTEX
  8
LAYER-1
 10
1.768496
 20
7.472480
 30
0.000000
  0
VERTEX
  8
LAYER-1
 10
1.751416
 20
7.468149
 30
0.000000
  0
VERTEX
  8
LAYER-1
 10
1.748701
 20
7.461496
 30
0.000000
  0
SEQEND
  8
LAYER-1
  0
POLYLINE
  8
LAYER-1
 66
  1
 70
  0
 62
  0
 10
1.748701
 20
7.461496
 30
0.000000
  0
VERTEX
  8
LAYER-1
 10
1.748701
 20
7.461496
 30
0.000000
  0
VERTEX
  8
LAYER-1
 10
1.785604
 20
7.461497
 30
0.000000
  0
SEQEND
  8
LAYER-1
  0
POLYLINE
  8
LAYER-1
 66
  1
 70
  0
 62
  0
 10
3.645304
 20
7.393731
 30
0.000000
  0
VERTEX
  8
LAYER-1
 10
3.645304
 20
7.393731
 30
0.000000
  0
VERTEX
  8
LAYER-1
 10
3.605578
 20
7.393731
 30
0.000000
  0
SEQEND
  8
LAYER-1
  0
POLYLINE
  8
LAYER-1
 66
  1
 70
  0
 62
  0
 10
3.645304
 20
7.263821
 30
0.000000
  0
VERTEX
  8
LAYER-1
 10
3.645304
 20
7.263821
 30
0.000000
  0
VERTEX
  8
LAYER-1
 10
3.605578
 20
7.263821
 30
0.000000
  0
SEQEND
  8
LAYER-1
  0
POLYLINE
  8
LAYER-1
 66
  1
 70
  0
 62
  0
 10
3.643852
 20
7.466785
 30
0.000000
  0
VERTEX
  8
LAYER-1
 10
3.643852
 20
7.466785
 30
0.000000
  0
VERTEX
  8
LAYER-1
 10
3.626743
 20
7.477768
 30
0.000000
  0
VERTEX
  8
LAYER-1
 10
3.609664
 20
7.473436
 30
0.000000
  0
VERTEX
  8
LAYER-1
 10
3.606948
 20
7.466783
 30
0.000000
  0
SEQEND
  8
LAYER-1
  0
POLYLINE
  8
LAYER-1
 66
  1
 70
  1
 62
  0
  0
VERTEX
  8
LAYER-1
 10
3.596439
 20
7.467406
 30
0.000000
  0
VERTEX
  8
LAYER-1
 10
3.651055
 20
7.467406
 30
0.000000
  0
VERTEX
  8
LAYER-1
 10
3.651055
 20
7.461501
 30
0.000000
  0
VERTEX
  8
LAYER-1
 10
3.596439
 20
7.461501
 30
0.000000
  0
SEQEND
  8
LAYER-1
  0
POLYLINE
  8
LAYER-1
 66
  1
 70
  0
 62
  0
 10
3.605144
 20
7.461636
 30
0.000000
  0
VERTEX
  8
LAYER-1
 10
3.605144
 20
7.461636
 30
0.000000
  0
VERTEX
  8
LAYER-1
 10
3.605144
 20
7.189888
 30
0.000000
  0
SEQEND
  8
LAYER-1
  0
POLYLINE
  8
LAYER-1
 66
  1
 70
  0
 62
  0
 10
3.605154
 20
0.613503
 30
0.000000
  0
VERTEX
  8
LAYER-1
 10
3.605154
 20
0.613503
 30
0.000000
  0
VERTEX
  8
LAYER-1
 10
3.605154
 20
0.341802
 30
0.000000
  0
SEQEND
  8
LAYER-1
  0
POLYLINE
  8
LAYER-1
 66
  1
 70
  0
 62
  0
 10
3.384235
 20
0.341364
 30
0.000000
  0
VERTEX
  8
LAYER-1
 10
3.384235
 20
0.341364
 30
0.000000
  0
VERTEX
  8
LAYER-1
 10
3.384235
 20
0.612996
 30
0.000000
  0
SEQEND
  8
LAYER-1
  0
POLYLINE
  8
LAYER-1
 66
  1
 70
  0
 62
  0
 10
3.053737
 20
0.612996
 30
0.000000
  0
VERTEX
  8
LAYER-1
 10
3.053737
 20
0.612996
 30
0.000000
  0
VERTEX
  8
LAYER-1
 10
3.053737
 20
0.341364
 30
0.000000
  0
SEQEND
  8
LAYER-1
  0
POLYLINE
  8
LAYER-1
 66
  1
 70
  0
 62
  0
 10
2.240906
 20
0.612996
 30
0.000000
  0
VERTEX
  8
LAYER-1
 10
2.240906
 20
0.612996
 30
0.000000
  0
VERTEX
  8
LAYER-1
 10
2.240906
 20
0.341364
 30
0.000000
  0
SEQEND
  8
LAYER-1
  0
POLYLINE
  8
LAYER-1
 66
  1
 70
  0
 62
  0
 10
2.422073
 20
0.341325
 30
0.000000
  0
VERTEX
  8
LAYER-1
 10
2.422073
 20
0.341325
 30
0.000000
  0
VERTEX
  8
LAYER-1
 10
2.422073
 20
0.612953
 30
0.000000
  0
SEQEND
  8
LAYER-1
  0
POLYLINE
  8
LAYER-1
 66
  1
 70
  0
 62
  0
 10
2.382214
 20
0.341325
 30
0.000000
  0
VERTEX
  8
LAYER-1
 10
2.382214
 20
0.341325
 30
0.000000
  0
VERTEX
  8
LAYER-1
 10
2.382214
 20
0.612953
 30
0.000000
  0
SEQEND
  8
LAYER-1
  0
POLYLINE
  8
LAYER-1
 66
  1
 70
  0
 62
  0
 10
3.236091
 20
0.341325
 30
0.000000
  0
VERTEX
  8
LAYER-1
 10
3.236091
 20
0.341325
 30
0.000000
  0
VERTEX
  8
LAYER-1
 10
3.236091
 20
0.612953
 30
0.000000
  0
SEQEND
  8
LAYER-1
  0
POLYLINE
  8
LAYER-1
 66
  1
 70
  0
 62
  0
 10
3.197275
 20
0.341325
 30
0.000000
  0
VERTEX
  8
LAYER-1
 10
3.197275
 20
0.341325
 30
0.000000
  0
VERTEX
  8
LAYER-1
 10
3.197275
 20
0.612953
 30
0.000000
  0
SEQEND
  8
LAYER-1
  0
POLYLINE
  8
LAYER-1
 66
  1
 70
  0
 62
  0
 10
2.969415
 20
0.341364
 30
0.000000
  0
VERTEX
  8
LAYER-1
 10
2.969415
 20
0.341364
 30
0.000000
  0
VERTEX
  8
LAYER-1
 10
2.969415
 20
0.612996
 30
0.000000
  0
SEQEND
  8
LAYER-1
  0
POLYLINE
  8
LAYER-1
 66
  1
 70
  0
 62
  0
 10
2.156584
 20
0.341364
 30
0.000000
  0
VERTEX
  8
LAYER-1
 10
2.156584
 20
0.341364
 30
0.000000
  0
VERTEX
  8
LAYER-1
 10
2.156584
 20
0.612996
 30
0.000000
  0
SEQEND
  8
LAYER-1
  0
POLYLINE
  8
LAYER-1
 66
  1
 70
  0
 62
  0
 10
2.011679
 20
0.341758
 30
0.000000
  0
VERTEX
  8
LAYER-1
 10
2.011679
 20
0.341758
 30
0.000000
  0
VERTEX
  8
LAYER-1
 10
2.011679
 20
0.613386
 30
0.000000
  0
SEQEND
  8
LAYER-1
  0
POLYLINE
  8
LAYER-1
 66
  1
 70
  0
 62
  0
 10
1.973297
 20
0.341758
 30
0.000000
  0
VERTEX
  8
LAYER-1
 10
1.973297
 20
0.341758
 30
0.000000
  0
VERTEX
  8
LAYER-1
 10
1.973297
 20
0.613386
 30
0.000000
  0
SEQEND
  8
LAYER-1
  0
POLYLINE
  8
LAYER-1
 66
  1
 70
  0
 62
  0
 10
2.829518
 20
0.341289
 30
0.000000
  0
VERTEX
  8
LAYER-1
 10
2.829518
 20
0.341289
 30
0.000000
  0
VERTEX
  8
LAYER-1
 10
2.829518
 20
0.612917
 30
0.000000
  0
SEQEND
  8
LAYER-1
  0
POLYLINE
  8
LAYER-1
 66
  1
 70
  0
 62
  0
 10
2.791135
 20
0.341289
 30
0.000000
  0
VERTEX
  8
LAYER-1
 10
2.791135
 20
0.341289
 30
0.000000
  0
VERTEX
  8
LAYER-1
 10
2.791135
 20
0.612917
 30
0.000000
  0
SEQEND
  8
LAYER-1
  0
POLYLINE
  8
LAYER-1
 66
  1
 70
  0
 62
  0
 10
3.456568
 20
0.612991
 30
0.000000
  0
VERTEX
  8
LAYER-1
 10
3.456568
 20
0.612991
 30
0.000000
  0
VERTEX
  8
LAYER-1
 10
3.456568
 20
0.341363
 30
0.000000
  0
SEQEND
  8
LAYER-1
  0
POLYLINE
  8
LAYER-1
 66
  1
 70
  0
 62
  0
 10
3.421138
 20
0.341363
 30
0.000000
  0
VERTEX
  8
LAYER-1
 10
3.421138
 20
0.341363
 30
0.000000
  0
VERTEX
  8
LAYER-1
 10
3.421138
 20
0.612994
 30
0.000000
  0
SEQEND
  8
LAYER-1
  0
POLYLINE
  8
LAYER-1
 66
  1
 70
  0
 62
  0
 10
3.422109
 20
0.341352
 30
0.000000
  0
VERTEX
  8
LAYER-1
 10
3.422109
 20
0.341352
 30
0.000000
  0
VERTEX
  8
LAYER-1
 10
3.432056
 20
0.334359
 30
0.000000
  0
VERTEX
  8
LAYER-1
 10
3.446817
 20
0.336448
 30
0.000000
  0
VERTEX
  8
LAYER-1
 10
3.455665
 20
0.341363
 30
0.000000
  0
SEQEND
  8
LAYER-1
  0
POLYLINE
  8
LAYER-1
 66
  1
 70
  0
 62
  0
 10
3.384236
 20
0.341364
 30
0.000000
  0
VERTEX
  8
LAYER-1
 10
3.384236
 20
0.341364
 30
0.000000
  0
VERTEX
  8
LAYER-1
 10
3.397406
 20
0.334317
 30
0.000000
  0
VERTEX
  8
LAYER-1
 10
3.414487
 20
0.338648
 30
0.000000
  0
VERTEX
  8
LAYER-1
 10
3.421138
 20
0.341363
 30
0.000000
  0
SEQEND
  8
LAYER-1
  0
POLYLINE
  8
LAYER-1
 66
  1
 70
  0
 62
  0
 10
2.968676
 20
0.341857
 30
0.000000
  0
VERTEX
  8
LAYER-1
 10
2.968676
 20
0.341857
 30
0.000000
  0
VERTEX
  8
LAYER-1
 10
2.984243
 20
0.335802
 30
0.000000
  0
VERTEX
  8
LAYER-1
 10
3.002316
 20
0.342527
 30
0.000000
  0
VERTEX
  8
LAYER-1
 10
3.005583
 20
0.341857
 30
0.000000
  0
SEQEND
  8
LAYER-1
  0
POLYLINE
  8
LAYER-1
 66
  1
 70
  0
 62
  0
 10
2.155717
 20
0.341387
 30
0.000000
  0
VERTEX
  8
LAYER-1
 10
2.155717
 20
0.341387
 30
0.000000
  0
VERTEX
  8
LAYER-1
 10
2.171285
 20
0.335331
 30
0.000000
  0
VERTEX
  8
LAYER-1
 10
2.189358
 20
0.342057
 30
0.000000
  0
VERTEX
  8
LAYER-1
 10
2.192625
 20
0.341387
 30
0.000000
  0
SEQEND
  8
LAYER-1
  0
POLYLINE
  8
LAYER-1
 66
  1
 70
  0
 62
  0
 10
3.016385
 20
0.341857
 30
0.000000
  0
VERTEX
  8
LAYER-1
 10
3.016385
 20
0.341857
 30
0.000000
  0
VERTEX
  8
LAYER-1
 10
3.031952
 20
0.335802
 30
0.000000
  0
VERTEX
  8
LAYER-1
 10
3.050026
 20
0.342527
 30
0.000000
  0
VERTEX
  8
LAYER-1
 10
3.053293
 20
0.341856
 30
0.000000
  0
SEQEND
  8
LAYER-1
  0
POLYLINE
  8
LAYER-1
 66
  1
 70
  0
 62
  0
 10
2.995921
 20
0.341298
 30
0.000000
  0
VERTEX
  8
LAYER-1
 10
2.995921
 20
0.341298
 30
0.000000
  0
VERTEX
  8
LAYER-1
 10
3.002736
 20
0.332229
 30
0.000000
  0
VERTEX
  8
LAYER-1
 10
3.016751
 20
0.330635
 30
0.000000
  0
VERTEX
  8
LAYER-1
 10
3.027788
 20
0.339418
 30
0.000000
  0
VERTEX
  8
LAYER-1
 10
3.031350
 20
0.341298
 30
0.000000
  0
SEQEND
  8
LAYER-1
  0
POLYLINE
  8
LAYER-1
 66
  1
 70
  0
 62
  0
 10
3.031350
 20
0.341298
 30
0.000000
  0
VERTEX
  8
LAYER-1
 10
3.031350
 20
0.341298
 30
0.000000
  0
VERTEX
  8
LAYER-1
 10
2.995921
 20
0.341298
 30
0.000000
  0
SEQEND
  8
LAYER-1
  0
POLYLINE
  8
LAYER-1
 66
  1
 70
  0
 62
  0
 10
2.204368
 20
0.341387
 30
0.000000
  0
VERTEX
  8
LAYER-1
 10
2.204368
 20
0.341387
 30
0.000000
  0
VERTEX
  8
LAYER-1
 10
2.219935
 20
0.335331
 30
0.000000
  0
VERTEX
  8
LAYER-1
 10
2.238008
 20
0.342057
 30
0.000000
  0
VERTEX
  8
LAYER-1
 10
2.241275
 20
0.341386
 30
0.000000
  0
SEQEND
  8
LAYER-1
  0
POLYLINE
  8
LAYER-1
 66
  1
 70
  0
 62
  0
 10
2.179674
 20
0.341298
 30
0.000000
  0
VERTEX
  8
LAYER-1
 10
2.179674
 20
0.341298
 30
0.000000
  0
VERTEX
  8
LAYER-1
 10
2.186489
 20
0.332229
 30
0.000000
  0
VERTEX
  8
LAYER-1
 10
2.200504
 20
0.330635
 30
0.000000
  0
VERTEX
  8
LAYER-1
 10
2.211541
 20
0.339418
 30
0.000000
  0
VERTEX
  8
LAYER-1
 10
2.215103
 20
0.341298
 30
0.000000
  0
SEQEND
  8
LAYER-1
  0
POLYLINE
  8
LAYER-1
 66
  1
 70
  0
 62
  0
 10
2.215103
 20
0.341298
 30
0.000000
  0
VERTEX
  8
LAYER-1
 10
2.215103
 20
0.341298
 30
0.000000
  0
VERTEX
  8
LAYER-1
 10
2.179674
 20
0.341298
 30
0.000000
  0
SEQEND
  8
LAYER-1
  0
POLYLINE
  8
LAYER-1
 66
  1
 70
  0
 62
  0
 10
3.455635
 20
0.613019
 30
0.000000
  0
VERTEX
  8
LAYER-1
 10
3.455635
 20
0.613019
 30
0.000000
  0
VERTEX
  8
LAYER-1
 10
3.441758
 20
0.623956
 30
0.000000
  0
VERTEX
  8
LAYER-1
 10
3.426995
 20
0.621879
 30
0.000000
  0
VERTEX
  8
LAYER-1
 10
3.422415
 20
0.613579
 30
0.000000
  0
SEQEND
  8
LAYER-1
  0
POLYLINE
  8
LAYER-1
 66
  1
 70
  0
 62
  0
 10
3.422415
 20
0.613580
 30
0.000000
  0
VERTEX
  8
LAYER-1
 10
3.422415
 20
0.613580
 30
0.000000
  0
VERTEX
  8
LAYER-1
 10
3.455635
 20
0.613019
 30
0.000000
  0
SEQEND
  8
LAYER-1
  0
POLYLINE
  8
LAYER-1
 66
  1
 70
  0
 62
  0
 10
3.420206
 20
0.613018
 30
0.000000
  0
VERTEX
  8
LAYER-1
 10
3.420206
 20
0.613018
 30
0.000000
  0
VERTEX
  8
LAYER-1
 10
3.403098
 20
0.624002
 30
0.000000
  0
VERTEX
  8
LAYER-1
 10
3.386018
 20
0.619670
 30
0.000000
  0
VERTEX
  8
LAYER-1
 10
3.383302
 20
0.613018
 30
0.000000
  0
SEQEND
  8
LAYER-1
  0
POLYLINE
  8
LAYER-1
 66
  1
 70
  0
 62
  0
 10
3.383303
 20
0.613018
 30
0.000000
  0
VERTEX
  8
LAYER-1
 10
3.383303
 20
0.613018
 30
0.000000
  0
VERTEX
  8
LAYER-1
 10
3.420206
 20
0.613019
 30
0.000000
  0
SEQEND
  8
LAYER-1
  0
POLYLINE
  8
LAYER-1
 66
  1
 70
  0
 62
  0
 10
3.053367
 20
0.613465
 30
0.000000
  0
VERTEX
  8
LAYER-1
 10
3.053367
 20
0.613465
 30
0.000000
  0
VERTEX
  8
LAYER-1
 10
3.033862
 20
0.623457
 30
0.000000
  0
VERTEX
  8
LAYER-1
 10
3.015789
 20
0.616731
 30
0.000000
  0
VERTEX
  8
LAYER-1
 10
3.016459
 20
0.613464
 30
0.000000
  0
SEQEND
  8
LAYER-1
  0
POLYLINE
  8
LAYER-1
 66
  1
 70
  0
 62
  0
 10
3.006126
 20
0.613465
 30
0.000000
  0
VERTEX
  8
LAYER-1
 10
3.006126
 20
0.613465
 30
0.000000
  0
VERTEX
  8
LAYER-1
 10
2.986621
 20
0.623457
 30
0.000000
  0
VERTEX
  8
LAYER-1
 10
2.968548
 20
0.616731
 30
0.000000
  0
VERTEX
  8
LAYER-1
 10
2.969218
 20
0.613464
 30
0.000000
  0
SEQEND
  8
LAYER-1
  0
POLYLINE
  8
LAYER-1
 66
  1
 70
  0
 62
  0
 10
3.031893
 20
0.613554
 30
0.000000
  0
VERTEX
  8
LAYER-1
 10
3.031893
 20
0.613554
 30
0.000000
  0
VERTEX
  8
LAYER-1
 10
3.021141
 20
0.626560
 30
0.000000
  0
VERTEX
  8
LAYER-1
 10
3.007125
 20
0.628153
 30
0.000000
  0
VERTEX
  8
LAYER-1
 10
2.996089
 20
0.619370
 30
0.000000
  0
VERTEX
  8
LAYER-1
 10
2.996464
 20
0.613554
 30
0.000000
  0
SEQEND
  8
LAYER-1
  0
POLYLINE
  8
LAYER-1
 66
  1
 70
  0
 62
  0
 10
3.031892
 20
0.613555
 30
0.000000
  0
VERTEX
  8
LAYER-1
 10
3.031892
 20
0.613555
 30
0.000000
  0
VERTEX
  8
LAYER-1
 10
2.996464
 20
0.613555
 30
0.000000
  0
SEQEND
  8
LAYER-1
  0
POLYLINE
  8
LAYER-1
 66
  1
 70
  0
 62
  0
 10
2.240812
 20
0.613465
 30
0.000000
  0
VERTEX
  8
LAYER-1
 10
2.240812
 20
0.613465
 30
0.000000
  0
VERTEX
  8
LAYER-1
 10
2.221307
 20
0.623457
 30
0.000000
  0
VERTEX
  8
LAYER-1
 10
2.203234
 20
0.616731
 30
0.000000
  0
VERTEX
  8
LAYER-1
 10
2.203904
 20
0.613464
 30
0.000000
  0
SEQEND
  8
LAYER-1
  0
POLYLINE
  8
LAYER-1
 66
  1
 70
  0
 62
  0
 10
2.192632
 20
0.613465
 30
0.000000
  0
VERTEX
  8
LAYER-1
 10
2.192632
 20
0.613465
 30
0.000000
  0
VERTEX
  8
LAYER-1
 10
2.173127
 20
0.623457
 30
0.000000
  0
VERTEX
  8
LAYER-1
 10
2.155054
 20
0.616731
 30
0.000000
  0
VERTEX
  8
LAYER-1
 10
2.155724
 20
0.613464
 30
0.000000
  0
SEQEND
  8
LAYER-1
  0
POLYLINE
  8
LAYER-1
 66
  1
 70
  0
 62
  0
 10
2.215109
 20
0.613554
 30
0.000000
  0
VERTEX
  8
LAYER-1
 10
2.215109
 20
0.613554
 30
0.000000
  0
VERTEX
  8
LAYER-1
 10
2.204357
 20
0.626560
 30
0.000000
  0
VERTEX
  8
LAYER-1
 10
2.190342
 20
0.628153
 30
0.000000
  0
VERTEX
  8
LAYER-1
 10
2.179305
 20
0.619370
 30
0.000000
  0
VERTEX
  8
LAYER-1
 10
2.179680
 20
0.613554
 30
0.000000
  0
SEQEND
  8
LAYER-1
  0
POLYLINE
  8
LAYER-1
 66
  1
 70
  0
 62
  0
 10
2.215109
 20
0.613555
 30
0.000000
  0
VERTEX
  8
LAYER-1
 10
2.215109
 20
0.613555
 30
0.000000
  0
VERTEX
  8
LAYER-1
 10
2.179681
 20
0.613555
 30
0.000000
  0
SEQEND
  8
LAYER-1
  0
POLYLINE
  8
LAYER-1
 66
  1
 70
  1
 62
  0
  0
VERTEX
  8
LAYER-1
 10
3.031350
 20
0.341364
 30
0.000000
  0
VERTEX
  8
LAYER-1
 10
2.995920
 20
0.341364
 30
0.000000
  0
VERTEX
  8
LAYER-1
 10
2.995920
 20
0.612992
 30
0.000000
  0
VERTEX
  8
LAYER-1
 10
3.031350
 20
0.612992
 30
0.000000
  0
SEQEND
  8
LAYER-1
  0
POLYLINE
  8
LAYER-1
 66
  1
 70
  1
 62
  0
  0
VERTEX
  8
LAYER-1
 10
2.215036
 20
0.341364
 30
0.000000
  0
VERTEX
  8
LAYER-1
 10
2.179606
 20
0.341364
 30
0.000000
  0
VERTEX
  8
LAYER-1
 10
2.179606
 20
0.612992
 30
0.000000
  0
VERTEX
  8
LAYER-1
 10
2.215036
 20
0.612992
 30
0.000000
  0
SEQEND
  8
LAYER-1
  0
POLYLINE
  8
LAYER-1
 66
  1
 70
  0
 62
  0
 10
3.031350
 20
0.409270
 30
0.000000
  0
VERTEX
  8
LAYER-1
 10
3.031350
 20
0.409270
 30
0.000000
  0
VERTEX
  8
LAYER-1
 10
2.995920
 20
0.409270
 30
0.000000
  0
SEQEND
  8
LAYER-1
  0
POLYLINE
  8
LAYER-1
 66
  1
 70
  0
 62
  0
 10
3.031350
 20
0.539180
 30
0.000000
  0
VERTEX
  8
LAYER-1
 10
3.031350
 20
0.539180
 30
0.000000
  0
VERTEX
  8
LAYER-1
 10
2.995920
 20
0.539180
 30
0.000000
  0
SEQEND
  8
LAYER-1
  0
POLYLINE
  8
LAYER-1
 66
  1
 70
  0
 62
  0
 10
2.215036
 20
0.409270
 30
0.000000
  0
VERTEX
  8
LAYER-1
 10
2.215036
 20
0.409270
 30
0.000000
  0
VERTEX
  8
LAYER-1
 10
2.179607
 20
0.409270
 30
0.000000
  0
SEQEND
  8
LAYER-1
  0
POLYLINE
  8
LAYER-1
 66
  1
 70
  0
 62
  0
 10
2.215036
 20
0.539180
 30
0.000000
  0
VERTEX
  8
LAYER-1
 10
2.215036
 20
0.539180
 30
0.000000
  0
VERTEX
  8
LAYER-1
 10
2.179607
 20
0.539180
 30
0.000000
  0
SEQEND
  8
LAYER-1
  0
POLYLINE
  8
LAYER-1
 66
  1
 70
  0
 62
  0
 10
3.200462
 20
0.341247
 30
0.000000
  0
VERTEX
  8
LAYER-1
 10
3.200462
 20
0.341247
 30
0.000000
  0
VERTEX
  8
LAYER-1
 10
3.210698
 20
0.334653
 30
0.000000
  0
VERTEX
  8
LAYER-1
 10
3.225382
 20
0.337228
 30
0.000000
  0
VERTEX
  8
LAYER-1
 10
3.233682
 20
0.341807
 30
0.000000
  0
SEQEND
  8
LAYER-1
  0
POLYLINE
  8
LAYER-1
 66
  1
 70
  0
 62
  0
 10
2.383284
 20
0.341426
 30
0.000000
  0
VERTEX
  8
LAYER-1
 10
2.383284
 20
0.341426
 30
0.000000
  0
VERTEX
  8
LAYER-1
 10
2.396455
 20
0.334379
 30
0.000000
  0
VERTEX
  8
LAYER-1
 10
2.413535
 20
0.338710
 30
0.000000
  0
VERTEX
  8
LAYER-1
 10
2.420188
 20
0.341425
 30
0.000000
  0
SEQEND
  8
LAYER-1
  0
POLYLINE
  8
LAYER-1
 66
  1
 70
  0
 62
  0
 10
2.640603
 20
0.613023
 30
0.000000
  0
VERTEX
  8
LAYER-1
 10
2.640603
 20
0.613023
 30
0.000000
  0
VERTEX
  8
LAYER-1
 10
2.626726
 20
0.623960
 30
0.000000
  0
VERTEX
  8
LAYER-1
 10
2.611963
 20
0.621881
 30
0.000000
  0
VERTEX
  8
LAYER-1
 10
2.607384
 20
0.613581
 30
0.000000
  0
SEQEND
  8
LAYER-1
  0
POLYLINE
  8
LAYER-1
 66
  1
 70
  0
 62
  0
 10
2.607384
 20
0.613581
 30
0.000000
  0
VERTEX
  8
LAYER-1
 10
2.607384
 20
0.613581
 30
0.000000
  0
VERTEX
  8
LAYER-1
 10
2.640603
 20
0.613021
 30
0.000000
  0
SEQEND
  8
LAYER-1
  0
POLYLINE
  8
LAYER-1
 66
  1
 70
  0
 62
  0
 10
2.605175
 20
0.613021
 30
0.000000
  0
VERTEX
  8
LAYER-1
 10
2.605175
 20
0.613021
 30
0.000000
  0
VERTEX
  8
LAYER-1
 10
2.588067
 20
0.624005
 30
0.000000
  0
VERTEX
  8
LAYER-1
 10
2.570986
 20
0.619674
 30
0.000000
  0
VERTEX
  8
LAYER-1
 10
2.568271
 20
0.613020
 30
0.000000
  0
SEQEND
  8
LAYER-1
  0
POLYLINE
  8
LAYER-1
 66
  1
 70
  0
 62
  0
 10
2.568271
 20
0.613020
 30
0.000000
  0
VERTEX
  8
LAYER-1
 10
2.568271
 20
0.613020
 30
0.000000
  0
VERTEX
  8
LAYER-1
 10
2.605174
 20
0.613021
 30
0.000000
  0
SEQEND
  8
LAYER-1
  0
POLYLINE
  8
LAYER-1
 66
  1
 70
  0
 62
  0
 10
2.569442
 20
0.341364
 30
0.000000
  0
VERTEX
  8
LAYER-1
 10
2.569442
 20
0.341364
 30
0.000000
  0
VERTEX
  8
LAYER-1
 10
2.569442
 20
0.612996
 30
0.000000
  0
SEQEND
  8
LAYER-1
  0
POLYLINE
  8
LAYER-1
 66
  1
 70
  0
 62
  0
 10
2.641776
 20
0.612991
 30
0.000000
  0
VERTEX
  8
LAYER-1
 10
2.641776
 20
0.612991
 30
0.000000
  0
VERTEX
  8
LAYER-1
 10
2.641776
 20
0.341363
 30
0.000000
  0
SEQEND
  8
LAYER-1
  0
POLYLINE
  8
LAYER-1
 66
  1
 70
  0
 62
  0
 10
2.606347
 20
0.341363
 30
0.000000
  0
VERTEX
  8
LAYER-1
 10
2.606347
 20
0.341363
 30
0.000000
  0
VERTEX
  8
LAYER-1
 10
2.606347
 20
0.612994
 30
0.000000
  0
SEQEND
  8
LAYER-1
  0
POLYLINE
  8
LAYER-1
 66
  1
 70
  0
 62
  0
 10
2.608252
 20
0.340945
 30
0.000000
  0
VERTEX
  8
LAYER-1
 10
2.608252
 20
0.340945
 30
0.000000
  0
VERTEX
  8
LAYER-1
 10
2.618488
 20
0.334351
 30
0.000000
  0
VERTEX
  8
LAYER-1
 10
2.633172
 20
0.336925
 30
0.000000
  0
VERTEX
  8
LAYER-1
 10
2.641472
 20
0.341504
 30
0.000000
  0
SEQEND
  8
LAYER-1
  0
POLYLINE
  8
LAYER-1
 66
  1
 70
  0
 62
  0
 10
2.608253
 20
0.340944
 30
0.000000
  0
VERTEX
  8
LAYER-1
 10
2.608253
 20
0.340944
 30
0.000000
  0
VERTEX
  8
LAYER-1
 10
2.641472
 20
0.341504
 30
0.000000
  0
SEQEND
  8
LAYER-1
  0
POLYLINE
  8
LAYER-1
 66
  1
 70
  0
 62
  0
 10
2.569140
 20
0.341506
 30
0.000000
  0
VERTEX
  8
LAYER-1
 10
2.569140
 20
0.341506
 30
0.000000
  0
VERTEX
  8
LAYER-1
 10
2.582311
 20
0.334459
 30
0.000000
  0
VERTEX
  8
LAYER-1
 10
2.599391
 20
0.338790
 30
0.000000
  0
VERTEX
  8
LAYER-1
 10
2.606043
 20
0.341505
 30
0.000000
  0
SEQEND
  8
LAYER-1
  0
POLYLINE
  8
LAYER-1
 66
  1
 70
  0
 62
  0
 10
2.569140
 20
0.341505
 30
0.000000
  0
VERTEX
  8
LAYER-1
 10
2.569140
 20
0.341505
 30
0.000000
  0
VERTEX
  8
LAYER-1
 10
2.606043
 20
0.341504
 30
0.000000
  0
SEQEND
  8
LAYER-1
  0
POLYLINE
  8
LAYER-1
 66
  1
 70
  0
 62
  0
 10
1.820603
 20
0.613023
 30
0.000000
  0
VERTEX
  8
LAYER-1
 10
1.820603
 20
0.613023
 30
0.000000
  0
VERTEX
  8
LAYER-1
 10
1.806726
 20
0.623960
 30
0.000000
  0
VERTEX
  8
LAYER-1
 10
1.791963
 20
0.621881
 30
0.000000
  0
VERTEX
  8
LAYER-1
 10
1.787384
 20
0.613581
 30
0.000000
  0
SEQEND
  8
LAYER-1
  0
POLYLINE
  8
LAYER-1
 66
  1
 70
  0
 62
  0
 10
1.787384
 20
0.613581
 30
0.000000
  0
VERTEX
  8
LAYER-1
 10
1.787384
 20
0.613581
 30
0.000000
  0
VERTEX
  8
LAYER-1
 10
1.820603
 20
0.613021
 30
0.000000
  0
SEQEND
  8
LAYER-1
  0
POLYLINE
  8
LAYER-1
 66
  1
 70
  0
 62
  0
 10
1.785175
 20
0.613021
 30
0.000000
  0
VERTEX
  8
LAYER-1
 10
1.785175
 20
0.613021
 30
0.000000
  0
VERTEX
  8
LAYER-1
 10
1.768066
 20
0.624005
 30
0.000000
  0
VERTEX
  8
LAYER-1
 10
1.750986
 20
0.619674
 30
0.000000
  0
VERTEX
  8
LAYER-1
 10
1.748271
 20
0.613020
 30
0.000000
  0
SEQEND
  8
LAYER-1
  0
POLYLINE
  8
LAYER-1
 66
  1
 70
  0
 62
  0
 10
1.748272
 20
0.613020
 30
0.000000
  0
VERTEX
  8
LAYER-1
 10
1.748272
 20
0.613020
 30
0.000000
  0
VERTEX
  8
LAYER-1
 10
1.785174
 20
0.613021
 30
0.000000
  0
SEQEND
  8
LAYER-1
  0
POLYLINE
  8
LAYER-1
 66
  1
 70
  0
 62
  0
 10
1.749442
 20
0.341364
 30
0.000000
  0
VERTEX
  8
LAYER-1
 10
1.749442
 20
0.341364
 30
0.000000
  0
VERTEX
  8
LAYER-1
 10
1.749442
 20
0.612996
 30
0.000000
  0
SEQEND
  8
LAYER-1
  0
POLYLINE
  8
LAYER-1
 66
  1
 70
  0
 62
  0
 10
1.821776
 20
0.612991
 30
0.000000
  0
VERTEX
  8
LAYER-1
 10
1.821776
 20
0.612991
 30
0.000000
  0
VERTEX
  8
LAYER-1
 10
1.821776
 20
0.341363
 30
0.000000
  0
SEQEND
  8
LAYER-1
  0
POLYLINE
  8
LAYER-1
 66
  1
 70
  0
 62
  0
 10
1.786346
 20
0.341363
 30
0.000000
  0
VERTEX
  8
LAYER-1
 10
1.786346
 20
0.341363
 30
0.000000
  0
VERTEX
  8
LAYER-1
 10
1.786346
 20
0.612994
 30
0.000000
  0
SEQEND
  8
LAYER-1
  0
POLYLINE
  8
LAYER-1
 66
  1
 70
  0
 62
  0
 10
1.788252
 20
0.340945
 30
0.000000
  0
VERTEX
  8
LAYER-1
 10
1.788252
 20
0.340945
 30
0.000000
  0
VERTEX
  8
LAYER-1
 10
1.798488
 20
0.334351
 30
0.000000
  0
VERTEX
  8
LAYER-1
 10
1.813172
 20
0.336925
 30
0.000000
  0
VERTEX
  8
LAYER-1
 10
1.821472
 20
0.341504
 30
0.000000
  0
SEQEND
  8
LAYER-1
  0
POLYLINE
  8
LAYER-1
 66
  1
 70
  0
 62
  0
 10
1.788253
 20
0.340944
 30
0.000000
  0
VERTEX
  8
LAYER-1
 10
1.788253
 20
0.340944
 30
0.000000
  0
VERTEX
  8
LAYER-1
 10
1.821471
 20
0.341504
 30
0.000000
  0
SEQEND
  8
LAYER-1
  0
POLYLINE
  8
LAYER-1
 66
  1
 70
  0
 62
  0
 10
1.749139
 20
0.341506
 30
0.000000
  0
VERTEX
  8
LAYER-1
 10
1.749139
 20
0.341506
 30
0.000000
  0
VERTEX
  8
LAYER-1
 10
1.762310
 20
0.334459
 30
0.000000
  0
VERTEX
  8
LAYER-1
 10
1.779391
 20
0.338790
 30
0.000000
  0
VERTEX
  8
LAYER-1
 10
1.786043
 20
0.341505
 30
0.000000
  0
SEQEND
  8
LAYER-1
  0
POLYLINE
  8
LAYER-1
 66
  1
 70
  0
 62
  0
 10
1.749140
 20
0.341505
 30
0.000000
  0
VERTEX
  8
LAYER-1
 10
1.749140
 20
0.341505
 30
0.000000
  0
VERTEX
  8
LAYER-1
 10
1.786043
 20
0.341504
 30
0.000000
  0
SEQEND
  8
LAYER-1
  0
POLYLINE
  8
LAYER-1
 66
  1
 70
  1
 62
  0
  0
VERTEX
  8
LAYER-1
 10
3.645069
 20
7.461123
 30
0.000000
  0
VERTEX
  8
LAYER-1
 10
3.813952
 20
7.461123
 30
0.000000
  0
VERTEX
  8
LAYER-1
 10
3.813952
 20
0.334873
 30
0.000000
  0
VERTEX
  8
LAYER-1
 10
3.645069
 20
0.334873
 30
0.000000
  0
SEQEND
  8
LAYER-1
  0
CIRCLE
  8
LAYER-1
 62
  0
 10
3.729716
 20
3.177201
 30
0.000000
 40
0.064283
  0
POLYLINE
  8
LAYER-1
 66
  1
 70
  0
 62
  0
 10
3.687369
 20
2.119566
 30
0.000000
  0
VERTEX
  8
LAYER-1
 10
3.687369
 20
2.119566
 30
0.000000
  0
VERTEX
  8
LAYER-1
 10
3.687371
 20
2.119566
 30
0.000000
  0
SEQEND
  8
LAYER-1
  0
POLYLINE
  8
LAYER-1
 66
  1
 70
  0
 62
  0
 10
3.695335
 20
2.111602
 30
0.000000
  0
VERTEX
  8
LAYER-1
 10
3.695335
 20
2.111602
 30
0.000000
  0
VERTEX
  8
LAYER-1
 10
3.695335
 20
1.862059
 30
0.000000
  0
SEQEND
  8
LAYER-1
  0
POLYLINE
  8
LAYER-1
 66
  1
 70
  0
 62
  0
 10
3.687371
 20
1.854095
 30
0.000000
  0
VERTEX
  8
LAYER-1
 10
3.687371
 20
1.854095
 30
0.000000
  0
VERTEX
  8
LAYER-1
 10
3.687369
 20
1.854095
 30
0.000000
  0
SEQEND
  8
LAYER-1
  0
POLYLINE
  8
LAYER-1
 66
  1
 70
  0
 62
  0
 10
3.679405
 20
1.862059
 30
0.000000
  0
VERTEX
  8
LAYER-1
 10
3.679405
 20
1.862059
 30
0.000000
  0
VERTEX
  8
LAYER-1
 10
3.679405
 20
2.111602
 30
0.000000
  0
SEQEND
  8
LAYER-1
  0
ARC
  8
LAYER-1
 62
  0
 10
3.687369
 20
2.111602
 30
0.000000
 40
0.007964
 50
270.000000
 51
0.000000
  0
ARC
  8
LAYER-1
 62
  0
 10
3.687369
 20
1.862059
 30
0.000000
 40
0.007964
 50
0.000000
 51
90.000000
  0
ARC
  8
LAYER-1
 62
  0
 10
3.687371
 20
1.862059
 30
0.000000
 40
0.007964
 50
90.000000
 51
180.000000
  0
ARC
  8
LAYER-1
 62
  0
 10
3.687371
 20
2.111602
 30
0.000000
 40
0.007964
 50
180.000000
 51
270.000000
  0
CIRCLE
  8
LAYER-1
 62
  7
 10
3.729716
 20
3.176960
 30
0.000000
 40
0.047124
  0
CIRCLE
  8
LAYER-1
 62
  0
 10
3.729716
 20
3.176960
 30
0.000000
 40
0.042287
  0
CIRCLE
  8
LAYER-1
 62
  0
 10
3.729716
 20
3.160164
 30
0.000000
 40
0.018794
  0
CIRCLE
  8
LAYER-1
 62
  0
 10
3.729716
 20
3.152128
 30
0.000000
 40
0.008035
  0
TEXT
  8
LAYER-1
 62
  0
 10
3.694130
 20
3.187718
 30
0.000000
 40
0.010417
  1
MobilFlex
 72
  5
 11
3.846908
 21
3.187718
 31
0.000000
  0
POLYLINE
  8
LAYER-1
 66
  1
 70
  1
 62
  0
 10
3.726092
 20
3.141918
 30
0.000000
  0
VERTEX
  8
LAYER-1
 10
3.726092
 20
3.141918
 30
0.000000
  0
VERTEX
  8
LAYER-1
 10
3.726092
 20
3.150619
 30
0.000000
  0
VERTEX
  8
LAYER-1
 10
3.729474
 20
3.150619
 30
0.000000
  0
VERTEX
  8
LAYER-1
 10
3.729474
 20
3.154002
 30
0.000000
  0
VERTEX
  8
LAYER-1
 10
3.725850
 20
3.157627
 30
0.000000
  0
VERTEX
  8
LAYER-1
 10
3.725850
 20
3.160043
 30
0.000000
  0
VERTEX
  8
LAYER-1
 10
3.728267
 20
3.167293
 30
0.000000
  0
VERTEX
  8
LAYER-1
 10
3.731408
 20
3.167293
 30
0.000000
  0
VERTEX
  8
LAYER-1
 10
3.730683
 20
3.161976
 30
0.000000
  0
VERTEX
  8
LAYER-1
 10
3.730926
 20
3.160043
 30
0.000000
  0
VERTEX
  8
LAYER-1
 10
3.732375
 20
3.160043
 30
0.000000
  0
VERTEX
  8
LAYER-1
 10
3.732375
 20
3.147719
 30
0.000000
  0
VERTEX
  8
LAYER-1
 10
3.729716
 20
3.146510
 30
0.000000
  0
VERTEX
  8
LAYER-1
 10
3.729716
 20
3.144093
 30
0.000000
  0
VERTEX
  8
LAYER-1
 10
3.732375
 20
3.143610
 30
0.000000
  0
VERTEX
  8
LAYER-1
 10
3.732375
 20
3.141918
 30
0.000000
  0
SEQEND
  8
LAYER-1
  0
CIRCLE
  8
LAYER-1
 62
  0
 10
3.687703
 20
1.856747
 30
0.000000
 40
0.022565
  0
CIRCLE
  8
LAYER-1
 62
  0
 10
3.687703
 20
1.856747
 30
0.000000
 40
0.016522
  0
CIRCLE
  8
LAYER-1
 62
  0
 10
3.687703
 20
1.856747
 30
0.000000
 40
0.013746
  0
CIRCLE
  8
LAYER-1
 62
  0
 10
3.687703
 20
1.856747
 30
0.000000
 40
0.008860
  0
LINE
  8
LAYER-1
 62
  0
 10
6.728852
 20
7.528551
 30
0.000000
 11
0.739269
 21
7.528551
 31
0.000000
  0
LINE
  8
LAYER-1
 62
  0
 10
6.728852
 20
7.638551
 30
0.000000
 11
0.739269
 21
7.638551
 31
0.000000
  0
LINE
  8
LAYER-1
 62
  0
 10
1.291352
 20
7.526587
 30
0.000000
 11
1.291352
 21
7.636565
 31
0.000000
  0
LINE
  8
LAYER-1
 62
  0
 10
1.231983
 20
7.526587
 30
0.000000
 11
1.416352
 21
7.526587
 31
0.000000
  0
LINE
  8
LAYER-1
 62
  0
 10
1.232324
 20
7.636565
 30
0.000000
 11
1.416352
 21
7.636565
 31
0.000000
  0
LINE
  8
LAYER-1
 62
  0
 10
1.291352
 20
7.636565
 30
0.000000
 11
1.291352
 21
7.271051
 31
0.000000
  0
LINE
  8
LAYER-1
 62
  0
 10
1.261890
 20
7.556050
 30
0.000000
 11
1.320815
 21
7.497124
 31
0.000000
  0
LINE
  8
LAYER-1
 62
  0
 10
1.261890
 20
7.666028
 30
0.000000
 11
1.320815
 21
7.607102
 31
0.000000
  0
TEXT
  8
LAYER-1
 62
  0
 10
1.281291
 20
7.145176
 30
0.000000
 40
0.125000
  1
 
  0
POLYLINE
  8
LAYER-1
 66
  1
 70
  1
 62
  0
  0
VERTEX
  8
LAYER-1
 10
3.752836
 20
7.526547
 30
0.000000
  0
VERTEX
  8
LAYER-1
 10
3.777931
 20
7.526547
 30
0.000000
  0
VERTEX
  8
LAYER-1
 10
3.777931
 20
7.461097
 30
0.000000
  0
VERTEX
  8
LAYER-1
 10
3.752836
 20
7.461097
 30
0.000000
  0
SEQEND
  8
LAYER-1
  0
POLYLINE
  8
LAYER-1
 66
  1
 70
  1
 62
  0
  0
VERTEX
  8
LAYER-1
 10
4.636141
 20
7.526889
 30
0.000000
  0
VERTEX
  8
LAYER-1
 10
4.661237
 20
7.526889
 30
0.000000
  0
VERTEX
  8
LAYER-1
 10
4.661237
 20
7.460970
 30
0.000000
  0
VERTEX
  8
LAYER-1
 10
4.636141
 20
7.460970
 30
0.000000
  0
SEQEND
  8
LAYER-1
  0
POLYLINE
  8
LAYER-1
 66
  1
 70
  1
 62
  0
  0
VERTEX
  8
LAYER-1
 10
5.453112
 20
7.526890
 30
0.000000
  0
VERTEX
  8
LAYER-1
 10
5.478208
 20
7.526890
 30
0.000000
  0
VERTEX
  8
LAYER-1
 10
5.478208
 20
7.460970
 30
0.000000
  0
VERTEX
  8
LAYER-1
 10
5.453112
 20
7.460970
 30
0.000000
  0
SEQEND
  8
LAYER-1
  0
POLYLINE
  8
LAYER-1
 66
  1
 70
  1
 62
  0
  0
VERTEX
  8
LAYER-1
 10
3.674274
 20
0.341079
 30
0.000000
  0
VERTEX
  8
LAYER-1
 10
3.707831
 20
0.341079
 30
0.000000
  0
VERTEX
  8
LAYER-1
 10
3.707831
 20
0.246441
 30
0.000000
  0
VERTEX
  8
LAYER-1
 10
3.674274
 20
0.246441
 30
0.000000
  0
SEQEND
  8
LAYER-1
  0
POLYLINE
  8
LAYER-1
 66
  1
 70
  1
 62
  0
  0
VERTEX
  8
LAYER-1
 10
2.797606
 20
7.526594
 30
0.000000
  0
VERTEX
  8
LAYER-1
 10
2.822702
 20
7.526594
 30
0.000000
  0
VERTEX
  8
LAYER-1
 10
2.822702
 20
7.461612
 30
0.000000
  0
VERTEX
  8
LAYER-1
 10
2.797606
 20
7.461612
 30
0.000000
  0
SEQEND
  8
LAYER-1
  0
POLYLINE
  8
LAYER-1
 66
  1
 70
  1
 62
  0
  0
VERTEX
  8
LAYER-1
 10
1.979767
 20
7.526594
 30
0.000000
  0
VERTEX
  8
LAYER-1
 10
2.004863
 20
7.526594
 30
0.000000
  0
VERTEX
  8
LAYER-1
 10
2.004863
 20
7.461612
 30
0.000000
  0
VERTEX
  8
LAYER-1
 10
1.979767
 20
7.461612
 30
0.000000
  0
SEQEND
  8
LAYER-1
  0
POLYLINE
  8
LAYER-1
 66
  1
 70
  0
 62
  0
 10
3.644370
 20
0.238781
 30
0.000000
  0
VERTEX
  8
LAYER-1
 10
3.644370
 20
0.238781
 30
0.000000
  0
VERTEX
  8
LAYER-1
 10
3.657148
 20
0.246346
 30
0.000000
  0
SEQEND
  8
LAYER-1
  0
POLYLINE
  8
LAYER-1
 66
  1
 70
  0
 62
  0
 10
3.644370
 20
0.238781
 30
0.000000
  0
VERTEX
  8
LAYER-1
 10
3.644370
 20
0.238781
 30
0.000000
  0
VERTEX
  8
LAYER-1
 10
3.644370
 20
0.237216
 30
0.000000
  0
SEQEND
  8
LAYER-1
  0
POLYLINE
  8
LAYER-1
 66
  1
 70
  1
 62
  0
  0
VERTEX
  8
LAYER-1
 10
3.662813
 20
0.237202
 30
0.000000
  0
VERTEX
  8
LAYER-1
 10
3.719400
 20
0.237202
 30
0.000000
  0
VERTEX
  8
LAYER-1
 10
3.719400
 20
0.049539
 30
0.000000
  0
VERTEX
  8
LAYER-1
 10
3.662813
 20
0.049539
 30
0.000000
  0
SEQEND
  8
LAYER-1
  0
POLYLINE
  8
LAYER-1
  6
LTYPE01
 66
  1
 70
  1
 62
  0
  0
VERTEX
  8
LAYER-1
  6
LTYPE01
 10
3.667507
 20
0.246328
 30
0.000000
  0
VERTEX
  8
LAYER-1
  6
LTYPE01
 10
3.714447
 20
0.246328
 30
0.000000
  0
VERTEX
  8
LAYER-1
  6
LTYPE01
 10
3.714447
 20
0.059100
 30
0.000000
  0
VERTEX
  8
LAYER-1
  6
LTYPE01
 10
3.667507
 20
0.059100
 30
0.000000
  0
SEQEND
  8
LAYER-1
  0
POLYLINE
  8
LAYER-1
 66
  1
 70
  0
 62
  0
 10
3.644370
 20
0.237216
 30
0.000000
  0
VERTEX
  8
LAYER-1
 10
3.644370
 20
0.237216
 30
0.000000
  0
VERTEX
  8
LAYER-1
 10
3.737987
 20
0.237216
 30
0.000000
  0
SEQEND
  8
LAYER-1
  0
POLYLINE
  8
LAYER-1
 66
  1
 70
  0
 62
  0
 10
3.737987
 20
0.237216
 30
0.000000
  0
VERTEX
  8
LAYER-1
 10
3.737987
 20
0.237216
 30
0.000000
  0
VERTEX
  8
LAYER-1
 10
3.737987
 20
0.238781
 30
0.000000
  0
SEQEND
  8
LAYER-1
  0
POLYLINE
  8
LAYER-1
 66
  1
 70
  0
 62
  0
 10
3.737987
 20
0.238781
 30
0.000000
  0
VERTEX
  8
LAYER-1
 10
3.737987
 20
0.238781
 30
0.000000
  0
VERTEX
  8
LAYER-1
 10
3.724948
 20
0.246346
 30
0.000000
  0
SEQEND
  8
LAYER-1
  0
POLYLINE
  8
LAYER-1
  6
LTYPE02
 66
  1
 70
  0
 62
  0
  6
LTYPE02
 10
3.668752
 20
0.145559
 30
0.000000
  0
VERTEX
  8
LAYER-1
  6
LTYPE02
 10
3.668752
 20
0.145559
 30
0.000000
  0
VERTEX
  8
LAYER-1
  6
LTYPE02
 10
3.668752
 20
0.111660
 30
0.000000
  0
SEQEND
  8
LAYER-1
  0
POLYLINE
  8
LAYER-1
  6
LTYPE02
 66
  1
 70
  0
 62
  0
  6
LTYPE02
 10
3.672660
 20
0.145559
 30
0.000000
  0
VERTEX
  8
LAYER-1
  6
LTYPE02
 10
3.672660
 20
0.145559
 30
0.000000
  0
VERTEX
  8
LAYER-1
  6
LTYPE02
 10
3.668752
 20
0.145559
 30
0.000000
  0
SEQEND
  8
LAYER-1
  0
POLYLINE
  8
LAYER-1
  6
LTYPE02
 66
  1
 70
  0
 62
  0
  6
LTYPE02
 10
3.672660
 20
0.145559
 30
0.000000
  0
VERTEX
  8
LAYER-1
  6
LTYPE02
 10
3.672660
 20
0.145559
 30
0.000000
  0
VERTEX
  8
LAYER-1
  6
LTYPE02
 10
3.672660
 20
0.149991
 30
0.000000
  0
SEQEND
  8
LAYER-1
  0
POLYLINE
  8
LAYER-1
  6
LTYPE02
 66
  1
 70
  0
 62
  0
  6
LTYPE02
 10
3.672660
 20
0.149991
 30
0.000000
  0
VERTEX
  8
LAYER-1
  6
LTYPE02
 10
3.672660
 20
0.149991
 30
0.000000
  0
VERTEX
  8
LAYER-1
  6
LTYPE02
 10
3.709920
 20
0.149991
 30
0.000000
  0
SEQEND
  8
LAYER-1
  0
POLYLINE
  8
LAYER-1
  6
LTYPE02
 66
  1
 70
  0
 62
  0
  6
LTYPE02
 10
3.668752
 20
0.111660
 30
0.000000
  0
VERTEX
  8
LAYER-1
  6
LTYPE02
 10
3.668752
 20
0.111660
 30
0.000000
  0
VERTEX
  8
LAYER-1
  6
LTYPE02
 10
3.713083
 20
0.111660
 30
0.000000
  0
SEQEND
  8
LAYER-1
  0
POLYLINE
  8
LAYER-1
  6
LTYPE02
 66
  1
 70
  0
 62
  0
  6
LTYPE02
 10
3.713083
 20
0.111660
 30
0.000000
  0
VERTEX
  8
LAYER-1
  6
LTYPE02
 10
3.713083
 20
0.111660
 30
0.000000
  0
VERTEX
  8
LAYER-1
  6
LTYPE02
 10
3.713083
 20
0.145559
 30
0.000000
  0
SEQEND
  8
LAYER-1
  0
POLYLINE
  8
LAYER-1
  6
LTYPE02
 66
  1
 70
  0
 62
  0
  6
LTYPE02
 10
3.709920
 20
0.145559
 30
0.000000
  0
VERTEX
  8
LAYER-1
  6
LTYPE02
 10
3.709920
 20
0.145559
 30
0.000000
  0
VERTEX
  8
LAYER-1
  6
LTYPE02
 10
3.713083
 20
0.145559
 30
0.000000
  0
SEQEND
  8
LAYER-1
  0
POLYLINE
  8
LAYER-1
  6
LTYPE02
 66
  1
 70
  0
 62
  0
  6
LTYPE02
 10
3.709920
 20
0.149991
 30
0.000000
  0
VERTEX
  8
LAYER-1
  6
LTYPE02
 10
3.709920
 20
0.149991
 30
0.000000
  0
VERTEX
  8
LAYER-1
  6
LTYPE02
 10
3.709920
 20
0.145559
 30
0.000000
  0
SEQEND
  8
LAYER-1
  0
POLYLINE
  8
LAYER-1
  6
LTYPE01
 66
  1
 70
  1
 62
  0
  0
VERTEX
  8
LAYER-1
  6
LTYPE01
 10
3.673890
 20
0.111513
 30
0.000000
  0
VERTEX
  8
LAYER-1
  6
LTYPE01
 10
3.708311
 20
0.111513
 30
0.000000
  0
VERTEX
  8
LAYER-1
  6
LTYPE01
 10
3.708311
 20
0.059359
 30
0.000000
  0
VERTEX
  8
LAYER-1
  6
LTYPE01
 10
3.673890
 20
0.059359
 30
0.000000
  0
SEQEND
  8
LAYER-1
  0
POLYLINE
  8
LAYER-1
  6
LTYPE02
 66
  1
 70
  0
 62
  0
  6
LTYPE02
 10
3.708311
 20
0.111513
 30
0.000000
  0
VERTEX
  8
LAYER-1
  6
LTYPE02
 10
3.708311
 20
0.111513
 30
0.000000
  0
VERTEX
  8
LAYER-1
  6
LTYPE02
 10
3.673890
 20
0.108645
 30
0.000000
  0
SEQEND
  8
LAYER-1
  0
POLYLINE
  8
LAYER-1
  6
LTYPE02
 66
  1
 70
  0
 62
  0
  6
LTYPE02
 10
3.708311
 20
0.109948
 30
0.000000
  0
VERTEX
  8
LAYER-1
  6
LTYPE02
 10
3.708311
 20
0.109948
 30
0.000000
  0
VERTEX
  8
LAYER-1
  6
LTYPE02
 10
3.673890
 20
0.106820
 30
0.000000
  0
SEQEND
  8
LAYER-1
  0
POLYLINE
  8
LAYER-1
  6
LTYPE02
 66
  1
 70
  0
 62
  0
  6
LTYPE02
 10
3.708311
 20
0.106559
 30
0.000000
  0
VERTEX
  8
LAYER-1
  6
LTYPE02
 10
3.708311
 20
0.106559
 30
0.000000
  0
VERTEX
  8
LAYER-1
  6
LTYPE02
 10
3.673890
 20
0.103689
 30
0.000000
  0
SEQEND
  8
LAYER-1
  0
POLYLINE
  8
LAYER-1
  6
LTYPE02
 66
  1
 70
  0
 62
  0
  6
LTYPE02
 10
3.708311
 20
0.104993
 30
0.000000
  0
VERTEX
  8
LAYER-1
  6
LTYPE02
 10
3.708311
 20
0.104993
 30
0.000000
  0
VERTEX
  8
LAYER-1
  6
LTYPE02
 10
3.673890
 20
0.101865
 30
0.000000
  0
SEQEND
  8
LAYER-1
  0
POLYLINE
  8
LAYER-1
  6
LTYPE02
 66
  1
 70
  0
 62
  0
  6
LTYPE02
 10
3.708311
 20
0.101410
 30
0.000000
  0
VERTEX
  8
LAYER-1
  6
LTYPE02
 10
3.708311
 20
0.101410
 30
0.000000
  0
VERTEX
  8
LAYER-1
  6
LTYPE02
 10
3.673890
 20
0.098540
 30
0.000000
  0
SEQEND
  8
LAYER-1
  0
POLYLINE
  8
LAYER-1
  6
LTYPE02
 66
  1
 70
  0
 62
  0
  6
LTYPE02
 10
3.708311
 20
0.099845
 30
0.000000
  0
VERTEX
  8
LAYER-1
  6
LTYPE02
 10
3.708311
 20
0.099845
 30
0.000000
  0
VERTEX
  8
LAYER-1
  6
LTYPE02
 10
3.673890
 20
0.096716
 30
0.000000
  0
SEQEND
  8
LAYER-1
  0
POLYLINE
  8
LAYER-1
  6
LTYPE02
 66
  1
 70
  0
 62
  0
  6
LTYPE02
 10
3.708246
 20
0.096910
 30
0.000000
  0
VERTEX
  8
LAYER-1
  6
LTYPE02
 10
3.708246
 20
0.096910
 30
0.000000
  0
VERTEX
  8
LAYER-1
  6
LTYPE02
 10
3.673824
 20
0.094042
 30
0.000000
  0
SEQEND
  8
LAYER-1
  0
POLYLINE
  8
LAYER-1
  6
LTYPE02
 66
  1
 70
  0
 62
  0
  6
LTYPE02
 10
3.708246
 20
0.095347
 30
0.000000
  0
VERTEX
  8
LAYER-1
  6
LTYPE02
 10
3.708246
 20
0.095347
 30
0.000000
  0
VERTEX
  8
LAYER-1
  6
LTYPE02
 10
3.673824
 20
0.092218
 30
0.000000
  0
SEQEND
  8
LAYER-1
  0
POLYLINE
  8
LAYER-1
  6
LTYPE02
 66
  1
 70
  0
 62
  0
  6
LTYPE02
 10
3.708246
 20
0.092088
 30
0.000000
  0
VERTEX
  8
LAYER-1
  6
LTYPE02
 10
3.708246
 20
0.092088
 30
0.000000
  0
VERTEX
  8
LAYER-1
  6
LTYPE02
 10
3.673824
 20
0.089220
 30
0.000000
  0
SEQEND
  8
LAYER-1
  0
POLYLINE
  8
LAYER-1
  6
LTYPE02
 66
  1
 70
  0
 62
  0
  6
LTYPE02
 10
3.708246
 20
0.090522
 30
0.000000
  0
VERTEX
  8
LAYER-1
  6
LTYPE02
 10
3.708246
 20
0.090522
 30
0.000000
  0
VERTEX
  8
LAYER-1
  6
LTYPE02
 10
3.673824
 20
0.087392
 30
0.000000
  0
SEQEND
  8
LAYER-1
  0
POLYLINE
  8
LAYER-1
  6
LTYPE02
 66
  1
 70
  0
 62
  0
  6
LTYPE02
 10
3.708246
 20
0.087131
 30
0.000000
  0
VERTEX
  8
LAYER-1
  6
LTYPE02
 10
3.708246
 20
0.087131
 30
0.000000
  0
VERTEX
  8
LAYER-1
  6
LTYPE02
 10
3.673824
 20
0.084262
 30
0.000000
  0
SEQEND
  8
LAYER-1
  0
POLYLINE
  8
LAYER-1
  6
LTYPE02
 66
  1
 70
  0
 62
  0
  6
LTYPE02
 10
3.708246
 20
0.085568
 30
0.000000
  0
VERTEX
  8
LAYER-1
  6
LTYPE02
 10
3.708246
 20
0.085568
 30
0.000000
  0
VERTEX
  8
LAYER-1
  6
LTYPE02
 10
3.673824
 20
0.082437
 30
0.000000
  0
SEQEND
  8
LAYER-1
  0
POLYLINE
  8
LAYER-1
  6
LTYPE02
 66
  1
 70
  0
 62
  0
  6
LTYPE02
 10
3.708246
 20
0.081982
 30
0.000000
  0
VERTEX
  8
LAYER-1
  6
LTYPE02
 10
3.708246
 20
0.081982
 30
0.000000
  0
VERTEX
  8
LAYER-1
  6
LTYPE02
 10
3.673824
 20
0.079113
 30
0.000000
  0
SEQEND
  8
LAYER-1
  0
POLYLINE
  8
LAYER-1
  6
LTYPE02
 66
  1
 70
  0
 62
  0
  6
LTYPE02
 10
3.708246
 20
0.080417
 30
0.000000
  0
VERTEX
  8
LAYER-1
  6
LTYPE02
 10
3.708246
 20
0.080417
 30
0.000000
  0
VERTEX
  8
LAYER-1
  6
LTYPE02
 10
3.673824
 20
0.077288
 30
0.000000
  0
SEQEND
  8
LAYER-1
  0
POLYLINE
  8
LAYER-1
  6
LTYPE02
 66
  1
 70
  0
 62
  0
  6
LTYPE02
 10
3.708181
 20
0.077482
 30
0.000000
  0
VERTEX
  8
LAYER-1
  6
LTYPE02
 10
3.708181
 20
0.077482
 30
0.000000
  0
VERTEX
  8
LAYER-1
  6
LTYPE02
 10
3.673760
 20
0.074615
 30
0.000000
  0
SEQEND
  8
LAYER-1
  0
POLYLINE
  8
LAYER-1
  6
LTYPE02
 66
  1
 70
  0
 62
  0
  6
LTYPE02
 10
3.708181
 20
0.075919
 30
0.000000
  0
VERTEX
  8
LAYER-1
  6
LTYPE02
 10
3.708181
 20
0.075919
 30
0.000000
  0
VERTEX
  8
LAYER-1
  6
LTYPE02
 10
3.673760
 20
0.072790
 30
0.000000
  0
SEQEND
  8
LAYER-1
  0
POLYLINE
  8
LAYER-1
  6
LTYPE02
 66
  1
 70
  0
 62
  0
  6
LTYPE02
 10
3.708311
 20
0.073116
 30
0.000000
  0
VERTEX
  8
LAYER-1
  6
LTYPE02
 10
3.708311
 20
0.073116
 30
0.000000
  0
VERTEX
  8
LAYER-1
  6
LTYPE02
 10
3.673890
 20
0.070248
 30
0.000000
  0
SEQEND
  8
LAYER-1
  0
POLYLINE
  8
LAYER-1
  6
LTYPE02
 66
  1
 70
  0
 62
  0
  6
LTYPE02
 10
3.708311
 20
0.071551
 30
0.000000
  0
VERTEX
  8
LAYER-1
  6
LTYPE02
 10
3.708311
 20
0.071551
 30
0.000000
  0
VERTEX
  8
LAYER-1
  6
LTYPE02
 10
3.673890
 20
0.068422
 30
0.000000
  0
SEQEND
  8
LAYER-1
  0
POLYLINE
  8
LAYER-1
  6
LTYPE02
 66
  1
 70
  0
 62
  0
  6
LTYPE02
 10
3.708311
 20
0.068162
 30
0.000000
  0
VERTEX
  8
LAYER-1
  6
LTYPE02
 10
3.708311
 20
0.068162
 30
0.000000
  0
VERTEX
  8
LAYER-1
  6
LTYPE02
 10
3.673890
 20
0.065294
 30
0.000000
  0
SEQEND
  8
LAYER-1
  0
POLYLINE
  8
LAYER-1
  6
LTYPE02
 66
  1
 70
  0
 62
  0
  6
LTYPE02
 10
3.708311
 20
0.066597
 30
0.000000
  0
VERTEX
  8
LAYER-1
  6
LTYPE02
 10
3.708311
 20
0.066597
 30
0.000000
  0
VERTEX
  8
LAYER-1
  6
LTYPE02
 10
3.673890
 20
0.063467
 30
0.000000
  0
SEQEND
  8
LAYER-1
  0
POLYLINE
  8
LAYER-1
  6
LTYPE02
 66
  1
 70
  0
 62
  0
  6
LTYPE02
 10
3.708311
 20
0.063011
 30
0.000000
  0
VERTEX
  8
LAYER-1
  6
LTYPE02
 10
3.708311
 20
0.063011
 30
0.000000
  0
VERTEX
  8
LAYER-1
  6
LTYPE02
 10
3.673890
 20
0.060142
 30
0.000000
  0
SEQEND
  8
LAYER-1
  0
POLYLINE
  8
LAYER-1
  6
LTYPE02
 66
  1
 70
  0
 62
  0
  6
LTYPE02
 10
3.708311
 20
0.061447
 30
0.000000
  0
VERTEX
  8
LAYER-1
  6
LTYPE02
 10
3.708311
 20
0.061447
 30
0.000000
  0
VERTEX
  8
LAYER-1
  6
LTYPE02
 10
3.685298
 20
0.059359
 30
0.000000
  0
SEQEND
  8
LAYER-1
  0
POLYLINE
  8
LAYER-1
  6
LTYPE02
 66
  1
 70
  0
 62
  0
  6
LTYPE02
 10
3.674881
 20
0.170723
 30
0.000000
  0
VERTEX
  8
LAYER-1
  6
LTYPE02
 10
3.674881
 20
0.170723
 30
0.000000
  0
VERTEX
  8
LAYER-1
  6
LTYPE02
 10
3.674881
 20
0.246346
 30
0.000000
  0
SEQEND
  8
LAYER-1
  0
POLYLINE
  8
LAYER-1
  6
LTYPE02
 66
  1
 70
  0
 62
  0
  6
LTYPE02
 10
3.707215
 20
0.170723
 30
0.000000
  0
VERTEX
  8
LAYER-1
  6
LTYPE02
 10
3.707215
 20
0.170723
 30
0.000000
  0
VERTEX
  8
LAYER-1
  6
LTYPE02
 10
3.707215
 20
0.246346
 30
0.000000
  0
SEQEND
  8
LAYER-1
  0
POLYLINE
  8
LAYER-1
  6
LTYPE01
 66
  1
 70
  0
 62
  0
  6
LTYPE01
 10
3.674881
 20
0.170723
 30
0.000000
  0
VERTEX
  8
LAYER-1
  6
LTYPE01
 10
3.674881
 20
0.170723
 30
0.000000
  0
VERTEX
  8
LAYER-1
  6
LTYPE01
 10
3.677647
 20
0.161259
 30
0.000000
  0
VERTEX
  8
LAYER-1
  6
LTYPE01
 10
3.689080
 20
0.156525
 30
0.000000
  0
VERTEX
  8
LAYER-1
  6
LTYPE01
 10
3.700512
 20
0.161259
 30
0.000000
  0
VERTEX
  8
LAYER-1
  6
LTYPE01
 10
3.707216
 20
0.170723
 30
0.000000
  0
SEQEND
  8
LAYER-1
  0
POLYLINE
  8
LAYER-1
 66
  1
 70
  0
 62
  0
 10
3.657148
 20
0.246346
 30
0.000000
  0
VERTEX
  8
LAYER-1
 10
3.657148
 20
0.246346
 30
0.000000
  0
VERTEX
  8
LAYER-1
 10
3.724948
 20
0.246346
 30
0.000000
  0
SEQEND
  8
LAYER-1
  0
TEXT
  8
LAYER-1
 62
  7
 10
1.944130
 20
8.854385
 30
0.000000
 40
0.177083
  1
Elevaci—n modelo Concept 1212
 72
  5
 11
5.471908
 21
8.854385
 31
0.000000
  0
TEXT
  8
LAYER-1
 62
  0
 10
1.041352
 20
6.896051
 30
0.000000
 40
0.125000
  1
1-
 72
  5
 11
1.263574
 21
6.896051
 31
0.000000
  0
TEXT
  8
LAYER-1
 62
  0
 10
1.263574
 20
6.896051
 30
0.000000
 40
0.104167
  1
9/16
 72
  5
 11
1.624685
 21
6.896051
 31
0.000000
  0
TEXT
  8
LAYER-1
 62
  0
 10
1.624685
 20
6.896051
 30
0.000000
 40
0.125000
  1
"
 72
  5
 11
1.749685
 21
6.896051
 31
0.000000
  0
TEXT
  8
LAYER-1
 62
  0
 10
1.041352
 20
6.701607
 30
0.000000
 40
0.125000
  1
40mm
 72
  5
 11
1.610797
 21
6.701607
 31
0.000000
  0
TEXT
  8
LAYER-1
 62
  0
 10
2.249685
 20
7.965496
 30
0.000000
 40
0.125000
  1
Componente
 72
  5
 11
3.319130
 21
7.965496
 31
0.000000
  0
TEXT
  8
LAYER-1
 62
  0
 10
2.249685
 20
7.771051
 30
0.000000
 40
0.125000
  1
intermediario #3
 72
  5
 11
3.569130
 21
7.771051
 31
0.000000
  0
POLYLINE
  8
LAYER-1
 66
  1
 70
  0
 62
  0
 10
3.478852
 20
7.791885
 30
0.000000
  0
VERTEX
  8
LAYER-1
 10
3.478852
 20
7.791885
 30
0.000000
  0
VERTEX
  8
LAYER-1
 10
3.719929
 20
7.476790
 30
0.000000
  0
SEQEND
  8
LAYER-1
  0
POLYLINE
  8
LAYER-1
 66
  1
 70
  1
 62
  0
  0
VERTEX
  8
LAYER-1
 10
3.731890
 20
7.461155
 30
0.000000
  0
VERTEX
  8
LAYER-1
 10
3.656600
 20
7.490991
 30
0.000000
  0
VERTEX
  8
LAYER-1
 10
3.689692
 20
7.516308
 30
0.000000
  0
VERTEX
  8
LAYER-1
 10
3.722784
 20
7.541628
 30
0.000000
  0
VERTEX
  8
LAYER-1
 10
3.731890
 20
7.461155
 30
0.000000
  0
SEQEND
  8
LAYER-1
  0
LINE
  8
LAYER-1
 62
  0
 10
5.836491
 20
5.545304
 30
0.000000
 11
5.836491
 21
6.367498
 31
0.000000
  0
LINE
  8
LAYER-1
 62
  0
 10
5.752188
 20
5.545304
 30
0.000000
 11
5.961491
 21
5.545304
 31
0.000000
  0
LINE
  8
LAYER-1
 62
  0
 10
5.752291
 20
6.367498
 30
0.000000
 11
5.961491
 21
6.367498
 31
0.000000
  0
LINE
  8
LAYER-1
 62
  0
 10
5.836491
 20
6.149523
 30
0.000000
 11
5.836491
 21
5.545304
 31
0.000000
  0
LINE
  8
LAYER-1
 62
  0
 10
5.807028
 20
5.574766
 30
0.000000
 11
5.865953
 21
5.515841
 31
0.000000
  0
LINE
  8
LAYER-1
 62
  0
 10
5.807028
 20
6.396961
 30
0.000000
 11
5.865953
 21
6.338035
 31
0.000000
  0
TEXT
  8
LAYER-1
 62
  0
 10
5.992850
 20
5.905676
 30
0.000000
 40
0.125000
  1
     
 50
90.000000
  0
TEXT
  8
LAYER-1
 62
  0
 10
6.124685
 20
6.007162
 30
0.000000
 40
0.125000
  1
12"
 72
  5
 11
6.444130
 21
6.007162
 31
0.000000
  0
TEXT
  8
LAYER-1
 62
  0
 10
5.944130
 20
5.812718
 30
0.000000
 40
0.125000
  1
305mm
 72
  5
 11
6.610797
 21
5.812718
 31
0.000000
  0
TEXT
  8
LAYER-1
 62
  0
 10
1.055241
 20
7.118273
 30
0.000000
 40
0.125000
  1
Rail
 72
  5
 11
1.430241
 21
7.118273
 31
0.000000
  0
POLYLINE
  8
LAYER-1
 66
  1
 70
  1
 62
  0
  0
VERTEX
  8
LAYER-1
 10
3.816532
 20
7.189803
 30
0.000000
  0
VERTEX
  8
LAYER-1
 10
3.852483
 20
7.189803
 30
0.000000
  0
VERTEX
  8
LAYER-1
 10
3.852483
 20
0.606118
 30
0.000000
  0
VERTEX
  8
LAYER-1
 10
3.816532
 20
0.606118
 30
0.000000
  0
SEQEND
  8
LAYER-1
  0
POLYLINE
  8
LAYER-1
 66
  1
 70
  1
 62
  0
  0
VERTEX
  8
LAYER-1
 10
4.224796
 20
7.189803
 30
0.000000
  0
VERTEX
  8
LAYER-1
 10
4.260747
 20
7.189803
 30
0.000000
  0
VERTEX
  8
LAYER-1
 10
4.260747
 20
0.606118
 30
0.000000
  0
VERTEX
  8
LAYER-1
 10
4.224796
 20
0.606118
 30
0.000000
  0
SEQEND
  8
LAYER-1
  0
POLYLINE
  8
LAYER-1
 66
  1
 70
  1
 62
  0
  0
VERTEX
  8
LAYER-1
 10
4.631324
 20
7.189803
 30
0.000000
  0
VERTEX
  8
LAYER-1
 10
4.667275
 20
7.189803
 30
0.000000
  0
VERTEX
  8
LAYER-1
 10
4.667275
 20
0.606118
 30
0.000000
  0
VERTEX
  8
LAYER-1
 10
4.631324
 20
0.606118
 30
0.000000
  0
SEQEND
  8
LAYER-1
  0
POLYLINE
  8
LAYER-1
 66
  1
 70
  1
 62
  0
  0
VERTEX
  8
LAYER-1
 10
5.039589
 20
7.189803
 30
0.000000
  0
VERTEX
  8
LAYER-1
 10
5.075539
 20
7.189803
 30
0.000000
  0
VERTEX
  8
LAYER-1
 10
5.075539
 20
0.606118
 30
0.000000
  0
VERTEX
  8
LAYER-1
 10
5.039589
 20
0.606118
 30
0.000000
  0
SEQEND
  8
LAYER-1
  0
POLYLINE
  8
LAYER-1
 66
  1
 70
  1
 62
  0
  0
VERTEX
  8
LAYER-1
 10
5.449155
 20
7.189803
 30
0.000000
  0
VERTEX
  8
LAYER-1
 10
5.485105
 20
7.189803
 30
0.000000
  0
VERTEX
  8
LAYER-1
 10
5.485105
 20
0.606118
 30
0.000000
  0
VERTEX
  8
LAYER-1
 10
5.449155
 20
0.606118
 30
0.000000
  0
SEQEND
  8
LAYER-1
  0
POLYLINE
  8
LAYER-1
 66
  1
 70
  1
 62
  0
 10
3.813966
 20
0.341392
 30
0.000000
  0
VERTEX
  8
LAYER-1
 10
3.813966
 20
0.341392
 30
0.000000
  0
VERTEX
  8
LAYER-1
 10
5.709883
 20
0.341493
 30
0.000000
  0
VERTEX
  8
LAYER-1
 10
5.709883
 20
0.613026
 30
0.000000
  0
VERTEX
  8
LAYER-1
 10
3.813966
 20
0.613143
 30
0.000000
  0
SEQEND
  8
LAYER-1
  0
POLYLINE
  8
LAYER-1
 66
  1
 70
  0
 62
  0
 10
3.813747
 20
0.409299
 30
0.000000
  0
VERTEX
  8
LAYER-1
 10
3.813747
 20
0.409299
 30
0.000000
  0
VERTEX
  8
LAYER-1
 10
3.853473
 20
0.409299
 30
0.000000
  0
SEQEND
  8
LAYER-1
  0
POLYLINE
  8
LAYER-1
 66
  1
 70
  0
 62
  0
 10
3.813747
 20
0.539209
 30
0.000000
  0
VERTEX
  8
LAYER-1
 10
3.813747
 20
0.539209
 30
0.000000
  0
VERTEX
  8
LAYER-1
 10
3.853473
 20
0.539209
 30
0.000000
  0
SEQEND
  8
LAYER-1
  0
POLYLINE
  8
LAYER-1
 66
  1
 70
  0
 62
  0
 10
3.815199
 20
0.336245
 30
0.000000
  0
VERTEX
  8
LAYER-1
 10
3.815199
 20
0.336245
 30
0.000000
  0
VERTEX
  8
LAYER-1
 10
3.828370
 20
0.329201
 30
0.000000
  0
VERTEX
  8
LAYER-1
 10
3.845449
 20
0.333533
 30
0.000000
  0
VERTEX
  8
LAYER-1
 10
3.852102
 20
0.336248
 30
0.000000
  0
SEQEND
  8
LAYER-1
  0
POLYLINE
  8
LAYER-1
 66
  1
 70
  1
 62
  0
  0
VERTEX
  8
LAYER-1
 10
3.862611
 20
0.335625
 30
0.000000
  0
VERTEX
  8
LAYER-1
 10
3.807996
 20
0.335625
 30
0.000000
  0
VERTEX
  8
LAYER-1
 10
3.807996
 20
0.341530
 30
0.000000
  0
VERTEX
  8
LAYER-1
 10
3.862611
 20
0.341530
 30
0.000000
  0
SEQEND
  8
LAYER-1
  0
POLYLINE
  8
LAYER-1
 66
  1
 70
  1
 62
  0
 10
3.814172
 20
7.461434
 30
0.000000
  0
VERTEX
  8
LAYER-1
 10
3.814172
 20
7.461434
 30
0.000000
  0
VERTEX
  8
LAYER-1
 10
5.710524
 20
7.461334
 30
0.000000
  0
VERTEX
  8
LAYER-1
 10
5.710524
 20
7.189801
 30
0.000000
  0
VERTEX
  8
LAYER-1
 10
3.814172
 20
7.189684
 30
0.000000
  0
SEQEND
  8
LAYER-1
  0
POLYLINE
  8
LAYER-1
 66
  1
 70
  0
 62
  0
 10
4.075461
 20
7.461434
 30
0.000000
  0
VERTEX
  8
LAYER-1
 10
4.075461
 20
7.461434
 30
0.000000
  0
VERTEX
  8
LAYER-1
 10
4.075461
 20
7.189802
 30
0.000000
  0
SEQEND
  8
LAYER-1
  0
POLYLINE
  8
LAYER-1
 66
  1
 70
  0
 62
  0
 10
4.405958
 20
7.189802
 30
0.000000
  0
VERTEX
  8
LAYER-1
 10
4.405958
 20
7.189802
 30
0.000000
  0
VERTEX
  8
LAYER-1
 10
4.405958
 20
7.461434
 30
0.000000
  0
SEQEND
  8
LAYER-1
  0
POLYLINE
  8
LAYER-1
 66
  1
 70
  0
 62
  0
 10
5.218790
 20
7.189802
 30
0.000000
  0
VERTEX
  8
LAYER-1
 10
5.218790
 20
7.189802
 30
0.000000
  0
VERTEX
  8
LAYER-1
 10
5.218790
 20
7.461434
 30
0.000000
  0
SEQEND
  8
LAYER-1
  0
POLYLINE
  8
LAYER-1
 66
  1
 70
  0
 62
  0
 10
5.037622
 20
7.461473
 30
0.000000
  0
VERTEX
  8
LAYER-1
 10
5.037622
 20
7.461473
 30
0.000000
  0
VERTEX
  8
LAYER-1
 10
5.037622
 20
7.189845
 30
0.000000
  0
SEQEND
  8
LAYER-1
  0
POLYLINE
  8
LAYER-1
 66
  1
 70
  0
 62
  0
 10
5.077481
 20
7.461473
 30
0.000000
  0
VERTEX
  8
LAYER-1
 10
5.077481
 20
7.461473
 30
0.000000
  0
VERTEX
  8
LAYER-1
 10
5.077481
 20
7.189845
 30
0.000000
  0
SEQEND
  8
LAYER-1
  0
POLYLINE
  8
LAYER-1
 66
  1
 70
  0
 62
  0
 10
4.223604
 20
7.461473
 30
0.000000
  0
VERTEX
  8
LAYER-1
 10
4.223604
 20
7.461473
 30
0.000000
  0
VERTEX
  8
LAYER-1
 10
4.223604
 20
7.189845
 30
0.000000
  0
SEQEND
  8
LAYER-1
  0
POLYLINE
  8
LAYER-1
 66
  1
 70
  0
 62
  0
 10
4.262421
 20
7.461473
 30
0.000000
  0
VERTEX
  8
LAYER-1
 10
4.262421
 20
7.461473
 30
0.000000
  0
VERTEX
  8
LAYER-1
 10
4.262421
 20
7.189845
 30
0.000000
  0
SEQEND
  8
LAYER-1
  0
POLYLINE
  8
LAYER-1
 66
  1
 70
  0
 62
  0
 10
4.490280
 20
7.461434
 30
0.000000
  0
VERTEX
  8
LAYER-1
 10
4.490280
 20
7.461434
 30
0.000000
  0
VERTEX
  8
LAYER-1
 10
4.490280
 20
7.189802
 30
0.000000
  0
SEQEND
  8
LAYER-1
  0
POLYLINE
  8
LAYER-1
 66
  1
 70
  0
 62
  0
 10
5.303112
 20
7.461434
 30
0.000000
  0
VERTEX
  8
LAYER-1
 10
5.303112
 20
7.461434
 30
0.000000
  0
VERTEX
  8
LAYER-1
 10
5.303112
 20
7.189802
 30
0.000000
  0
SEQEND
  8
LAYER-1
  0
POLYLINE
  8
LAYER-1
 66
  1
 70
  0
 62
  0
 10
5.448016
 20
7.461039
 30
0.000000
  0
VERTEX
  8
LAYER-1
 10
5.448016
 20
7.461039
 30
0.000000
  0
VERTEX
  8
LAYER-1
 10
5.448016
 20
7.189411
 30
0.000000
  0
SEQEND
  8
LAYER-1
  0
POLYLINE
  8
LAYER-1
 66
  1
 70
  0
 62
  0
 10
5.486398
 20
7.461039
 30
0.000000
  0
VERTEX
  8
LAYER-1
 10
5.486398
 20
7.461039
 30
0.000000
  0
VERTEX
  8
LAYER-1
 10
5.486398
 20
7.189411
 30
0.000000
  0
SEQEND
  8
LAYER-1
  0
POLYLINE
  8
LAYER-1
 66
  1
 70
  0
 62
  0
 10
4.630178
 20
7.461509
 30
0.000000
  0
VERTEX
  8
LAYER-1
 10
4.630178
 20
7.461509
 30
0.000000
  0
VERTEX
  8
LAYER-1
 10
4.630178
 20
7.189880
 30
0.000000
  0
SEQEND
  8
LAYER-1
  0
POLYLINE
  8
LAYER-1
 66
  1
 70
  0
 62
  0
 10
4.668561
 20
7.461509
 30
0.000000
  0
VERTEX
  8
LAYER-1
 10
4.668561
 20
7.461509
 30
0.000000
  0
VERTEX
  8
LAYER-1
 10
4.668561
 20
7.189880
 30
0.000000
  0
SEQEND
  8
LAYER-1
  0
POLYLINE
  8
LAYER-1
 66
  1
 70
  0
 62
  0
 10
4.003128
 20
7.189806
 30
0.000000
  0
VERTEX
  8
LAYER-1
 10
4.003128
 20
7.189806
 30
0.000000
  0
VERTEX
  8
LAYER-1
 10
4.003128
 20
7.461434
 30
0.000000
  0
SEQEND
  8
LAYER-1
  0
POLYLINE
  8
LAYER-1
 66
  1
 70
  0
 62
  0
 10
4.038558
 20
7.461434
 30
0.000000
  0
VERTEX
  8
LAYER-1
 10
4.038558
 20
7.461434
 30
0.000000
  0
VERTEX
  8
LAYER-1
 10
4.038558
 20
7.189804
 30
0.000000
  0
SEQEND
  8
LAYER-1
  0
POLYLINE
  8
LAYER-1
 66
  1
 70
  0
 62
  0
 10
4.037587
 20
7.461446
 30
0.000000
  0
VERTEX
  8
LAYER-1
 10
4.037587
 20
7.461446
 30
0.000000
  0
VERTEX
  8
LAYER-1
 10
4.023705
 20
7.472377
 30
0.000000
  0
VERTEX
  8
LAYER-1
 10
4.008943
 20
7.470288
 30
0.000000
  0
VERTEX
  8
LAYER-1
 10
4.004032
 20
7.461435
 30
0.000000
  0
SEQEND
  8
LAYER-1
  0
POLYLINE
  8
LAYER-1
 66
  1
 70
  0
 62
  0
 10
4.075460
 20
7.461434
 30
0.000000
  0
VERTEX
  8
LAYER-1
 10
4.075460
 20
7.461434
 30
0.000000
  0
VERTEX
  8
LAYER-1
 10
4.058354
 20
7.472418
 30
0.000000
  0
VERTEX
  8
LAYER-1
 10
4.041273
 20
7.468087
 30
0.000000
  0
VERTEX
  8
LAYER-1
 10
4.038558
 20
7.461435
 30
0.000000
  0
SEQEND
  8
LAYER-1
  0
POLYLINE
  8
LAYER-1
 66
  1
 70
  0
 62
  0
 10
4.491020
 20
7.460941
 30
0.000000
  0
VERTEX
  8
LAYER-1
 10
4.491020
 20
7.460941
 30
0.000000
  0
VERTEX
  8
LAYER-1
 10
4.471516
 20
7.470934
 30
0.000000
  0
VERTEX
  8
LAYER-1
 10
4.453442
 20
7.464208
 30
0.000000
  0
VERTEX
  8
LAYER-1
 10
4.454113
 20
7.460941
 30
0.000000
  0
SEQEND
  8
LAYER-1
  0
POLYLINE
  8
LAYER-1
 66
  1
 70
  0
 62
  0
 10
5.303978
 20
7.461411
 30
0.000000
  0
VERTEX
  8
LAYER-1
 10
5.303978
 20
7.461411
 30
0.000000
  0
VERTEX
  8
LAYER-1
 10
5.284474
 20
7.471403
 30
0.000000
  0
VERTEX
  8
LAYER-1
 10
5.266400
 20
7.464678
 30
0.000000
  0
VERTEX
  8
LAYER-1
 10
5.267070
 20
7.461411
 30
0.000000
  0
SEQEND
  8
LAYER-1
  0
POLYLINE
  8
LAYER-1
 66
  1
 70
  0
 62
  0
 10
4.443311
 20
7.460941
 30
0.000000
  0
VERTEX
  8
LAYER-1
 10
4.443311
 20
7.460941
 30
0.000000
  0
VERTEX
  8
LAYER-1
 10
4.423807
 20
7.470934
 30
0.000000
  0
VERTEX
  8
LAYER-1
 10
4.405733
 20
7.464208
 30
0.000000
  0
VERTEX
  8
LAYER-1
 10
4.406403
 20
7.460942
 30
0.000000
  0
SEQEND
  8
LAYER-1
  0
POLYLINE
  8
LAYER-1
 66
  1
 70
  0
 62
  0
 10
4.463774
 20
7.461500
 30
0.000000
  0
VERTEX
  8
LAYER-1
 10
4.463774
 20
7.461500
 30
0.000000
  0
VERTEX
  8
LAYER-1
 10
4.453022
 20
7.474506
 30
0.000000
  0
VERTEX
  8
LAYER-1
 10
4.439007
 20
7.476100
 30
0.000000
  0
VERTEX
  8
LAYER-1
 10
4.427970
 20
7.467316
 30
0.000000
  0
VERTEX
  8
LAYER-1
 10
4.428345
 20
7.461500
 30
0.000000
  0
SEQEND
  8
LAYER-1
  0
POLYLINE
  8
LAYER-1
 66
  1
 70
  0
 62
  0
 10
4.428346
 20
7.461500
 30
0.000000
  0
VERTEX
  8
LAYER-1
 10
4.428346
 20
7.461500
 30
0.000000
  0
VERTEX
  8
LAYER-1
 10
4.463774
 20
7.461500
 30
0.000000
  0
SEQEND
  8
LAYER-1
  0
POLYLINE
  8
LAYER-1
 66
  1
 70
  0
 62
  0
 10
5.255328
 20
7.461411
 30
0.000000
  0
VERTEX
  8
LAYER-1
 10
5.255328
 20
7.461411
 30
0.000000
  0
VERTEX
  8
LAYER-1
 10
5.235823
 20
7.471403
 30
0.000000
  0
VERTEX
  8
LAYER-1
 10
5.217750
 20
7.464678
 30
0.000000
  0
VERTEX
  8
LAYER-1
 10
5.218420
 20
7.461411
 30
0.000000
  0
SEQEND
  8
LAYER-1
  0
POLYLINE
  8
LAYER-1
 66
  1
 70
  0
 62
  0
 10
5.280022
 20
7.461500
 30
0.000000
  0
VERTEX
  8
LAYER-1
 10
5.280022
 20
7.461500
 30
0.000000
  0
VERTEX
  8
LAYER-1
 10
5.269269
 20
7.474506
 30
0.000000
  0
VERTEX
  8
LAYER-1
 10
5.255254
 20
7.476100
 30
0.000000
  0
VERTEX
  8
LAYER-1
 10
5.244217
 20
7.467316
 30
0.000000
  0
VERTEX
  8
LAYER-1
 10
5.244592
 20
7.461500
 30
0.000000
  0
SEQEND
  8
LAYER-1
  0
POLYLINE
  8
LAYER-1
 66
  1
 70
  0
 62
  0
 10
5.244593
 20
7.461500
 30
0.000000
  0
VERTEX
  8
LAYER-1
 10
5.244593
 20
7.461500
 30
0.000000
  0
VERTEX
  8
LAYER-1
 10
5.280021
 20
7.461500
 30
0.000000
  0
SEQEND
  8
LAYER-1
  0
POLYLINE
  8
LAYER-1
 66
  1
 70
  0
 62
  0
 10
4.004062
 20
7.189779
 30
0.000000
  0
VERTEX
  8
LAYER-1
 10
4.004062
 20
7.189779
 30
0.000000
  0
VERTEX
  8
LAYER-1
 10
4.014002
 20
7.182778
 30
0.000000
  0
VERTEX
  8
LAYER-1
 10
4.028765
 20
7.184856
 30
0.000000
  0
VERTEX
  8
LAYER-1
 10
4.037281
 20
7.189218
 30
0.000000
  0
SEQEND
  8
LAYER-1
  0
POLYLINE
  8
LAYER-1
 66
  1
 70
  0
 62
  0
 10
4.037281
 20
7.189218
 30
0.000000
  0
VERTEX
  8
LAYER-1
 10
4.037281
 20
7.189218
 30
0.000000
  0
VERTEX
  8
LAYER-1
 10
4.004062
 20
7.189779
 30
0.000000
  0
SEQEND
  8
LAYER-1
  0
POLYLINE
  8
LAYER-1
 66
  1
 70
  0
 62
  0
 10
4.039490
 20
7.189779
 30
0.000000
  0
VERTEX
  8
LAYER-1
 10
4.039490
 20
7.189779
 30
0.000000
  0
VERTEX
  8
LAYER-1
 10
4.052661
 20
7.182732
 30
0.000000
  0
VERTEX
  8
LAYER-1
 10
4.069742
 20
7.187064
 30
0.000000
  0
VERTEX
  8
LAYER-1
 10
4.076394
 20
7.189779
 30
0.000000
  0
SEQEND
  8
LAYER-1
  0
POLYLINE
  8
LAYER-1
 66
  1
 70
  0
 62
  0
 10
4.076393
 20
7.189779
 30
0.000000
  0
VERTEX
  8
LAYER-1
 10
4.076393
 20
7.189779
 30
0.000000
  0
VERTEX
  8
LAYER-1
 10
4.039491
 20
7.189779
 30
0.000000
  0
SEQEND
  8
LAYER-1
  0
POLYLINE
  8
LAYER-1
 66
  1
 70
  0
 62
  0
 10
4.406329
 20
7.189333
 30
0.000000
  0
VERTEX
  8
LAYER-1
 10
4.406329
 20
7.189333
 30
0.000000
  0
VERTEX
  8
LAYER-1
 10
4.421896
 20
7.183278
 30
0.000000
  0
VERTEX
  8
LAYER-1
 10
4.439970
 20
7.190003
 30
0.000000
  0
VERTEX
  8
LAYER-1
 10
4.443236
 20
7.189333
 30
0.000000
  0
SEQEND
  8
LAYER-1
  0
POLYLINE
  8
LAYER-1
 66
  1
 70
  0
 62
  0
 10
4.453569
 20
7.189333
 30
0.000000
  0
VERTEX
  8
LAYER-1
 10
4.453569
 20
7.189333
 30
0.000000
  0
VERTEX
  8
LAYER-1
 10
4.469137
 20
7.183278
 30
0.000000
  0
VERTEX
  8
LAYER-1
 10
4.487210
 20
7.190003
 30
0.000000
  0
VERTEX
  8
LAYER-1
 10
4.490477
 20
7.189333
 30
0.000000
  0
SEQEND
  8
LAYER-1
  0
POLYLINE
  8
LAYER-1
 66
  1
 70
  0
 62
  0
 10
4.427803
 20
7.189243
 30
0.000000
  0
VERTEX
  8
LAYER-1
 10
4.427803
 20
7.189243
 30
0.000000
  0
VERTEX
  8
LAYER-1
 10
4.434618
 20
7.180175
 30
0.000000
  0
VERTEX
  8
LAYER-1
 10
4.448633
 20
7.178582
 30
0.000000
  0
VERTEX
  8
LAYER-1
 10
4.459669
 20
7.187364
 30
0.000000
  0
VERTEX
  8
LAYER-1
 10
4.463232
 20
7.189243
 30
0.000000
  0
SEQEND
  8
LAYER-1
  0
POLYLINE
  8
LAYER-1
 66
  1
 70
  0
 62
  0
 10
4.427803
 20
7.189243
 30
0.000000
  0
VERTEX
  8
LAYER-1
 10
4.427803
 20
7.189243
 30
0.000000
  0
VERTEX
  8
LAYER-1
 10
4.463232
 20
7.189243
 30
0.000000
  0
SEQEND
  8
LAYER-1
  0
POLYLINE
  8
LAYER-1
 66
  1
 70
  0
 62
  0
 10
5.218884
 20
7.189333
 30
0.000000
  0
VERTEX
  8
LAYER-1
 10
5.218884
 20
7.189333
 30
0.000000
  0
VERTEX
  8
LAYER-1
 10
5.234451
 20
7.183278
 30
0.000000
  0
VERTEX
  8
LAYER-1
 10
5.252524
 20
7.190003
 30
0.000000
  0
VERTEX
  8
LAYER-1
 10
5.255792
 20
7.189333
 30
0.000000
  0
SEQEND
  8
LAYER-1
  0
POLYLINE
  8
LAYER-1
 66
  1
 70
  0
 62
  0
 10
5.267063
 20
7.189333
 30
0.000000
  0
VERTEX
  8
LAYER-1
 10
5.267063
 20
7.189333
 30
0.000000
  0
VERTEX
  8
LAYER-1
 10
5.282630
 20
7.183278
 30
0.000000
  0
VERTEX
  8
LAYER-1
 10
5.300704
 20
7.190003
 30
0.000000
  0
VERTEX
  8
LAYER-1
 10
5.303971
 20
7.189333
 30
0.000000
  0
SEQEND
  8
LAYER-1
  0
POLYLINE
  8
LAYER-1
 66
  1
 70
  0
 62
  0
 10
5.244586
 20
7.189243
 30
0.000000
  0
VERTEX
  8
LAYER-1
 10
5.244586
 20
7.189243
 30
0.000000
  0
VERTEX
  8
LAYER-1
 10
5.251401
 20
7.180175
 30
0.000000
  0
VERTEX
  8
LAYER-1
 10
5.265416
 20
7.178582
 30
0.000000
  0
VERTEX
  8
LAYER-1
 10
5.276453
 20
7.187364
 30
0.000000
  0
VERTEX
  8
LAYER-1
 10
5.280015
 20
7.189243
 30
0.000000
  0
SEQEND
  8
LAYER-1
  0
POLYLINE
  8
LAYER-1
 66
  1
 70
  0
 62
  0
 10
5.244587
 20
7.189243
 30
0.000000
  0
VERTEX
  8
LAYER-1
 10
5.244587
 20
7.189243
 30
0.000000
  0
VERTEX
  8
LAYER-1
 10
5.280015
 20
7.189243
 30
0.000000
  0
SEQEND
  8
LAYER-1
  0
POLYLINE
  8
LAYER-1
 66
  1
 70
  1
 62
  0
  0
VERTEX
  8
LAYER-1
 10
4.428346
 20
7.461434
 30
0.000000
  0
VERTEX
  8
LAYER-1
 10
4.463776
 20
7.461434
 30
0.000000
  0
VERTEX
  8
LAYER-1
 10
4.463776
 20
7.189805
 30
0.000000
  0
VERTEX
  8
LAYER-1
 10
4.428346
 20
7.189805
 30
0.000000
  0
SEQEND
  8
LAYER-1
  0
POLYLINE
  8
LAYER-1
 66
  1
 70
  1
 62
  0
  0
VERTEX
  8
LAYER-1
 10
5.244659
 20
7.461434
 30
0.000000
  0
VERTEX
  8
LAYER-1
 10
5.280089
 20
7.461434
 30
0.000000
  0
VERTEX
  8
LAYER-1
 10
5.280089
 20
7.189805
 30
0.000000
  0
VERTEX
  8
LAYER-1
 10
5.244659
 20
7.189805
 30
0.000000
  0
SEQEND
  8
LAYER-1
  0
POLYLINE
  8
LAYER-1
 66
  1
 70
  0
 62
  0
 10
4.428346
 20
7.393527
 30
0.000000
  0
VERTEX
  8
LAYER-1
 10
4.428346
 20
7.393527
 30
0.000000
  0
VERTEX
  8
LAYER-1
 10
4.463776
 20
7.393527
 30
0.000000
  0
SEQEND
  8
LAYER-1
  0
POLYLINE
  8
LAYER-1
 66
  1
 70
  0
 62
  0
 10
4.428346
 20
7.263618
 30
0.000000
  0
VERTEX
  8
LAYER-1
 10
4.428346
 20
7.263618
 30
0.000000
  0
VERTEX
  8
LAYER-1
 10
4.463776
 20
7.263618
 30
0.000000
  0
SEQEND
  8
LAYER-1
  0
POLYLINE
  8
LAYER-1
 66
  1
 70
  0
 62
  0
 10
5.244659
 20
7.393527
 30
0.000000
  0
VERTEX
  8
LAYER-1
 10
5.244659
 20
7.393527
 30
0.000000
  0
VERTEX
  8
LAYER-1
 10
5.280088
 20
7.393527
 30
0.000000
  0
SEQEND
  8
LAYER-1
  0
POLYLINE
  8
LAYER-1
 66
  1
 70
  0
 62
  0
 10
5.244659
 20
7.263618
 30
0.000000
  0
VERTEX
  8
LAYER-1
 10
5.244659
 20
7.263618
 30
0.000000
  0
VERTEX
  8
LAYER-1
 10
5.280088
 20
7.263618
 30
0.000000
  0
SEQEND
  8
LAYER-1
  0
POLYLINE
  8
LAYER-1
 66
  1
 70
  0
 62
  0
 10
4.259233
 20
7.461551
 30
0.000000
  0
VERTEX
  8
LAYER-1
 10
4.259233
 20
7.461551
 30
0.000000
  0
VERTEX
  8
LAYER-1
 10
4.245060
 20
7.472082
 30
0.000000
  0
VERTEX
  8
LAYER-1
 10
4.230376
 20
7.469508
 30
0.000000
  0
VERTEX
  8
LAYER-1
 10
4.226014
 20
7.460991
 30
0.000000
  0
SEQEND
  8
LAYER-1
  0
POLYLINE
  8
LAYER-1
 66
  1
 70
  0
 62
  0
 10
5.076411
 20
7.461372
 30
0.000000
  0
VERTEX
  8
LAYER-1
 10
5.076411
 20
7.461372
 30
0.000000
  0
VERTEX
  8
LAYER-1
 10
5.059303
 20
7.472356
 30
0.000000
  0
VERTEX
  8
LAYER-1
 10
5.042223
 20
7.468025
 30
0.000000
  0
VERTEX
  8
LAYER-1
 10
5.039508
 20
7.461373
 30
0.000000
  0
SEQEND
  8
LAYER-1
  0
POLYLINE
  8
LAYER-1
 66
  1
 70
  0
 62
  0
 10
4.819092
 20
7.189776
 30
0.000000
  0
VERTEX
  8
LAYER-1
 10
4.819092
 20
7.189776
 30
0.000000
  0
VERTEX
  8
LAYER-1
 10
4.829032
 20
7.182776
 30
0.000000
  0
VERTEX
  8
LAYER-1
 10
4.843795
 20
7.184853
 30
0.000000
  0
VERTEX
  8
LAYER-1
 10
4.852311
 20
7.189216
 30
0.000000
  0
SEQEND
  8
LAYER-1
  0
POLYLINE
  8
LAYER-1
 66
  1
 70
  0
 62
  0
 10
4.852311
 20
7.189216
 30
0.000000
  0
VERTEX
  8
LAYER-1
 10
4.852311
 20
7.189216
 30
0.000000
  0
VERTEX
  8
LAYER-1
 10
4.819092
 20
7.189776
 30
0.000000
  0
SEQEND
  8
LAYER-1
  0
POLYLINE
  8
LAYER-1
 66
  1
 70
  0
 62
  0
 10
4.854521
 20
7.189776
 30
0.000000
  0
VERTEX
  8
LAYER-1
 10
4.854521
 20
7.189776
 30
0.000000
  0
VERTEX
  8
LAYER-1
 10
4.867692
 20
7.182731
 30
0.000000
  0
VERTEX
  8
LAYER-1
 10
4.884772
 20
7.187062
 30
0.000000
  0
VERTEX
  8
LAYER-1
 10
4.891424
 20
7.189777
 30
0.000000
  0
SEQEND
  8
LAYER-1
  0
POLYLINE
  8
LAYER-1
 66
  1
 70
  0
 62
  0
 10
4.891424
 20
7.189777
 30
0.000000
  0
VERTEX
  8
LAYER-1
 10
4.891424
 20
7.189777
 30
0.000000
  0
VERTEX
  8
LAYER-1
 10
4.854521
 20
7.189776
 30
0.000000
  0
SEQEND
  8
LAYER-1
  0
POLYLINE
  8
LAYER-1
 66
  1
 70
  0
 62
  0
 10
4.890253
 20
7.461434
 30
0.000000
  0
VERTEX
  8
LAYER-1
 10
4.890253
 20
7.461434
 30
0.000000
  0
VERTEX
  8
LAYER-1
 10
4.890253
 20
7.189802
 30
0.000000
  0
SEQEND
  8
LAYER-1
  0
POLYLINE
  8
LAYER-1
 66
  1
 70
  0
 62
  0
 10
4.817919
 20
7.189806
 30
0.000000
  0
VERTEX
  8
LAYER-1
 10
4.817919
 20
7.189806
 30
0.000000
  0
VERTEX
  8
LAYER-1
 10
4.817919
 20
7.461434
 30
0.000000
  0
SEQEND
  8
LAYER-1
  0
POLYLINE
  8
LAYER-1
 66
  1
 70
  0
 62
  0
 10
4.853349
 20
7.461434
 30
0.000000
  0
VERTEX
  8
LAYER-1
 10
4.853349
 20
7.461434
 30
0.000000
  0
VERTEX
  8
LAYER-1
 10
4.853349
 20
7.189804
 30
0.000000
  0
SEQEND
  8
LAYER-1
  0
POLYLINE
  8
LAYER-1
 66
  1
 70
  0
 62
  0
 10
4.851443
 20
7.461853
 30
0.000000
  0
VERTEX
  8
LAYER-1
 10
4.851443
 20
7.461853
 30
0.000000
  0
VERTEX
  8
LAYER-1
 10
4.837271
 20
7.472385
 30
0.000000
  0
VERTEX
  8
LAYER-1
 10
4.822586
 20
7.469810
 30
0.000000
  0
VERTEX
  8
LAYER-1
 10
4.818224
 20
7.461294
 30
0.000000
  0
SEQEND
  8
LAYER-1
  0
POLYLINE
  8
LAYER-1
 66
  1
 70
  0
 62
  0
 10
4.851443
 20
7.461853
 30
0.000000
  0
VERTEX
  8
LAYER-1
 10
4.851443
 20
7.461853
 30
0.000000
  0
VERTEX
  8
LAYER-1
 10
4.818224
 20
7.461294
 30
0.000000
  0
SEQEND
  8
LAYER-1
  0
POLYLINE
  8
LAYER-1
 66
  1
 70
  0
 62
  0
 10
4.890555
 20
7.461292
 30
0.000000
  0
VERTEX
  8
LAYER-1
 10
4.890555
 20
7.461292
 30
0.000000
  0
VERTEX
  8
LAYER-1
 10
4.873447
 20
7.472276
 30
0.000000
  0
VERTEX
  8
LAYER-1
 10
4.856367
 20
7.467946
 30
0.000000
  0
VERTEX
  8
LAYER-1
 10
4.853652
 20
7.461294
 30
0.000000
  0
SEQEND
  8
LAYER-1
  0
POLYLINE
  8
LAYER-1
 66
  1
 70
  0
 62
  0
 10
4.890555
 20
7.461292
 30
0.000000
  0
VERTEX
  8
LAYER-1
 10
4.890555
 20
7.461292
 30
0.000000
  0
VERTEX
  8
LAYER-1
 10
4.853653
 20
7.461294
 30
0.000000
  0
SEQEND
  8
LAYER-1
  0
POLYLINE
  8
LAYER-1
 66
  1
 70
  0
 62
  0
 10
5.639092
 20
7.189776
 30
0.000000
  0
VERTEX
  8
LAYER-1
 10
5.639092
 20
7.189776
 30
0.000000
  0
VERTEX
  8
LAYER-1
 10
5.649032
 20
7.182776
 30
0.000000
  0
VERTEX
  8
LAYER-1
 10
5.663795
 20
7.184853
 30
0.000000
  0
VERTEX
  8
LAYER-1
 10
5.672312
 20
7.189216
 30
0.000000
  0
SEQEND
  8
LAYER-1
  0
POLYLINE
  8
LAYER-1
 66
  1
 70
  0
 62
  0
 10
5.672312
 20
7.189216
 30
0.000000
  0
VERTEX
  8
LAYER-1
 10
5.672312
 20
7.189216
 30
0.000000
  0
VERTEX
  8
LAYER-1
 10
5.639092
 20
7.189776
 30
0.000000
  0
SEQEND
  8
LAYER-1
  0
POLYLINE
  8
LAYER-1
 66
  1
 70
  0
 62
  0
 10
5.674521
 20
7.189776
 30
0.000000
  0
VERTEX
  8
LAYER-1
 10
5.674521
 20
7.189776
 30
0.000000
  0
VERTEX
  8
LAYER-1
 10
5.687692
 20
7.182731
 30
0.000000
  0
VERTEX
  8
LAYER-1
 10
5.704773
 20
7.187062
 30
0.000000
  0
VERTEX
  8
LAYER-1
 10
5.711425
 20
7.189777
 30
0.000000
  0
SEQEND
  8
LAYER-1
  0
POLYLINE
  8
LAYER-1
 66
  1
 70
  0
 62
  0
 10
5.711424
 20
7.189777
 30
0.000000
  0
VERTEX
  8
LAYER-1
 10
5.711424
 20
7.189777
 30
0.000000
  0
VERTEX
  8
LAYER-1
 10
5.674522
 20
7.189776
 30
0.000000
  0
SEQEND
  8
LAYER-1
  0
POLYLINE
  8
LAYER-1
 66
  1
 70
  0
 62
  0
 10
5.710253
 20
7.461434
 30
0.000000
  0
VERTEX
  8
LAYER-1
 10
5.710253
 20
7.461434
 30
0.000000
  0
VERTEX
  8
LAYER-1
 10
5.710253
 20
7.189802
 30
0.000000
  0
SEQEND
  8
LAYER-1
  0
POLYLINE
  8
LAYER-1
 66
  1
 70
  0
 62
  0
 10
5.637920
 20
7.189806
 30
0.000000
  0
VERTEX
  8
LAYER-1
 10
5.637920
 20
7.189806
 30
0.000000
  0
VERTEX
  8
LAYER-1
 10
5.637920
 20
7.461434
 30
0.000000
  0
SEQEND
  8
LAYER-1
  0
POLYLINE
  8
LAYER-1
 66
  1
 70
  0
 62
  0
 10
5.673349
 20
7.461434
 30
0.000000
  0
VERTEX
  8
LAYER-1
 10
5.673349
 20
7.461434
 30
0.000000
  0
VERTEX
  8
LAYER-1
 10
5.673349
 20
7.189804
 30
0.000000
  0
SEQEND
  8
LAYER-1
  0
POLYLINE
  8
LAYER-1
 66
  1
 70
  0
 62
  0
 10
5.671443
 20
7.461853
 30
0.000000
  0
VERTEX
  8
LAYER-1
 10
5.671443
 20
7.461853
 30
0.000000
  0
VERTEX
  8
LAYER-1
 10
5.657270
 20
7.472385
 30
0.000000
  0
VERTEX
  8
LAYER-1
 10
5.642586
 20
7.469810
 30
0.000000
  0
VERTEX
  8
LAYER-1
 10
5.638223
 20
7.461294
 30
0.000000
  0
SEQEND
  8
LAYER-1
  0
POLYLINE
  8
LAYER-1
 66
  1
 70
  0
 62
  0
 10
5.671443
 20
7.461853
 30
0.000000
  0
VERTEX
  8
LAYER-1
 10
5.671443
 20
7.461853
 30
0.000000
  0
VERTEX
  8
LAYER-1
 10
5.638224
 20
7.461294
 30
0.000000
  0
SEQEND
  8
LAYER-1
  0
POLYLINE
  8
LAYER-1
 66
  1
 70
  0
 62
  0
 10
5.710556
 20
7.461292
 30
0.000000
  0
VERTEX
  8
LAYER-1
 10
5.710556
 20
7.461292
 30
0.000000
  0
VERTEX
  8
LAYER-1
 10
5.693448
 20
7.472276
 30
0.000000
  0
VERTEX
  8
LAYER-1
 10
5.676367
 20
7.467946
 30
0.000000
  0
VERTEX
  8
LAYER-1
 10
5.673652
 20
7.461294
 30
0.000000
  0
SEQEND
  8
LAYER-1
  0
POLYLINE
  8
LAYER-1
 66
  1
 70
  0
 62
  0
 10
5.710555
 20
7.461292
 30
0.000000
  0
VERTEX
  8
LAYER-1
 10
5.710555
 20
7.461292
 30
0.000000
  0
VERTEX
  8
LAYER-1
 10
5.673653
 20
7.461294
 30
0.000000
  0
SEQEND
  8
LAYER-1
  0
POLYLINE
  8
LAYER-1
 66
  1
 70
  0
 62
  0
 10
3.813954
 20
7.393527
 30
0.000000
  0
VERTEX
  8
LAYER-1
 10
3.813954
 20
7.393527
 30
0.000000
  0
VERTEX
  8
LAYER-1
 10
3.853679
 20
7.393527
 30
0.000000
  0
SEQEND
  8
LAYER-1
  0
POLYLINE
  8
LAYER-1
 66
  1
 70
  0
 62
  0
 10
3.813954
 20
7.263618
 30
0.000000
  0
VERTEX
  8
LAYER-1
 10
3.813954
 20
7.263618
 30
0.000000
  0
VERTEX
  8
LAYER-1
 10
3.853679
 20
7.263618
 30
0.000000
  0
SEQEND
  8
LAYER-1
  0
POLYLINE
  8
LAYER-1
 66
  1
 70
  0
 62
  0
 10
3.852308
 20
7.466580
 30
0.000000
  0
VERTEX
  8
LAYER-1
 10
3.852308
 20
7.466580
 30
0.000000
  0
VERTEX
  8
LAYER-1
 10
3.835200
 20
7.477563
 30
0.000000
  0
VERTEX
  8
LAYER-1
 10
3.818120
 20
7.473233
 30
0.000000
  0
VERTEX
  8
LAYER-1
 10
3.815406
 20
7.466581
 30
0.000000
  0
SEQEND
  8
LAYER-1
  0
POLYLINE
  8
LAYER-1
 66
  1
 70
  1
 62
  0
  0
VERTEX
  8
LAYER-1
 10
3.808203
 20
7.467203
 30
0.000000
  0
VERTEX
  8
LAYER-1
 10
3.862817
 20
7.467203
 30
0.000000
  0
VERTEX
  8
LAYER-1
 10
3.862817
 20
7.461297
 30
0.000000
  0
VERTEX
  8
LAYER-1
 10
3.808203
 20
7.461297
 30
0.000000
  0
SEQEND
  8
LAYER-1
  0
POLYLINE
  8
LAYER-1
 66
  1
 70
  0
 62
  0
 10
3.854113
 20
7.461433
 30
0.000000
  0
VERTEX
  8
LAYER-1
 10
3.854113
 20
7.461433
 30
0.000000
  0
VERTEX
  8
LAYER-1
 10
3.854113
 20
7.189684
 30
0.000000
  0
SEQEND
  8
LAYER-1
  0
POLYLINE
  8
LAYER-1
 66
  1
 70
  0
 62
  0
 10
3.854102
 20
0.613297
 30
0.000000
  0
VERTEX
  8
LAYER-1
 10
3.854102
 20
0.613297
 30
0.000000
  0
VERTEX
  8
LAYER-1
 10
3.854102
 20
0.341598
 30
0.000000
  0
SEQEND
  8
LAYER-1
  0
POLYLINE
  8
LAYER-1
 66
  1
 70
  0
 62
  0
 10
4.075022
 20
0.341159
 30
0.000000
  0
VERTEX
  8
LAYER-1
 10
4.075022
 20
0.341159
 30
0.000000
  0
VERTEX
  8
LAYER-1
 10
4.075022
 20
0.612790
 30
0.000000
  0
SEQEND
  8
LAYER-1
  0
POLYLINE
  8
LAYER-1
 66
  1
 70
  0
 62
  0
 10
4.405520
 20
0.612790
 30
0.000000
  0
VERTEX
  8
LAYER-1
 10
4.405520
 20
0.612790
 30
0.000000
  0
VERTEX
  8
LAYER-1
 10
4.405520
 20
0.341159
 30
0.000000
  0
SEQEND
  8
LAYER-1
  0
POLYLINE
  8
LAYER-1
 66
  1
 70
  0
 62
  0
 10
5.218350
 20
0.612790
 30
0.000000
  0
VERTEX
  8
LAYER-1
 10
5.218350
 20
0.612790
 30
0.000000
  0
VERTEX
  8
LAYER-1
 10
5.218350
 20
0.341159
 30
0.000000
  0
SEQEND
  8
LAYER-1
  0
POLYLINE
  8
LAYER-1
 66
  1
 70
  0
 62
  0
 10
5.037184
 20
0.341119
 30
0.000000
  0
VERTEX
  8
LAYER-1
 10
5.037184
 20
0.341119
 30
0.000000
  0
VERTEX
  8
LAYER-1
 10
5.037184
 20
0.612747
 30
0.000000
  0
SEQEND
  8
LAYER-1
  0
POLYLINE
  8
LAYER-1
 66
  1
 70
  0
 62
  0
 10
5.077042
 20
0.341119
 30
0.000000
  0
VERTEX
  8
LAYER-1
 10
5.077042
 20
0.341119
 30
0.000000
  0
VERTEX
  8
LAYER-1
 10
5.077042
 20
0.612747
 30
0.000000
  0
SEQEND
  8
LAYER-1
  0
POLYLINE
  8
LAYER-1
 66
  1
 70
  0
 62
  0
 10
4.223166
 20
0.341119
 30
0.000000
  0
VERTEX
  8
LAYER-1
 10
4.223166
 20
0.341119
 30
0.000000
  0
VERTEX
  8
LAYER-1
 10
4.223166
 20
0.612747
 30
0.000000
  0
SEQEND
  8
LAYER-1
  0
POLYLINE
  8
LAYER-1
 66
  1
 70
  0
 62
  0
 10
4.261982
 20
0.341119
 30
0.000000
  0
VERTEX
  8
LAYER-1
 10
4.261982
 20
0.341119
 30
0.000000
  0
VERTEX
  8
LAYER-1
 10
4.261982
 20
0.612747
 30
0.000000
  0
SEQEND
  8
LAYER-1
  0
POLYLINE
  8
LAYER-1
 66
  1
 70
  0
 62
  0
 10
4.489841
 20
0.341159
 30
0.000000
  0
VERTEX
  8
LAYER-1
 10
4.489841
 20
0.341159
 30
0.000000
  0
VERTEX
  8
LAYER-1
 10
4.489841
 20
0.612790
 30
0.000000
  0
SEQEND
  8
LAYER-1
  0
POLYLINE
  8
LAYER-1
 66
  1
 70
  0
 62
  0
 10
5.302672
 20
0.341159
 30
0.000000
  0
VERTEX
  8
LAYER-1
 10
5.302672
 20
0.341159
 30
0.000000
  0
VERTEX
  8
LAYER-1
 10
5.302672
 20
0.612790
 30
0.000000
  0
SEQEND
  8
LAYER-1
  0
POLYLINE
  8
LAYER-1
 66
  1
 70
  0
 62
  0
 10
5.447578
 20
0.341554
 30
0.000000
  0
VERTEX
  8
LAYER-1
 10
5.447578
 20
0.341554
 30
0.000000
  0
VERTEX
  8
LAYER-1
 10
5.447578
 20
0.613182
 30
0.000000
  0
SEQEND
  8
LAYER-1
  0
POLYLINE
  8
LAYER-1
 66
  1
 70
  0
 62
  0
 10
5.485960
 20
0.341554
 30
0.000000
  0
VERTEX
  8
LAYER-1
 10
5.485960
 20
0.341554
 30
0.000000
  0
VERTEX
  8
LAYER-1
 10
5.485960
 20
0.613182
 30
0.000000
  0
SEQEND
  8
LAYER-1
  0
POLYLINE
  8
LAYER-1
 66
  1
 70
  0
 62
  0
 10
4.629739
 20
0.341084
 30
0.000000
  0
VERTEX
  8
LAYER-1
 10
4.629739
 20
0.341084
 30
0.000000
  0
VERTEX
  8
LAYER-1
 10
4.629739
 20
0.612711
 30
0.000000
  0
SEQEND
  8
LAYER-1
  0
POLYLINE
  8
LAYER-1
 66
  1
 70
  0
 62
  0
 10
4.668122
 20
0.341084
 30
0.000000
  0
VERTEX
  8
LAYER-1
 10
4.668122
 20
0.341084
 30
0.000000
  0
VERTEX
  8
LAYER-1
 10
4.668122
 20
0.612711
 30
0.000000
  0
SEQEND
  8
LAYER-1
  0
POLYLINE
  8
LAYER-1
 66
  1
 70
  0
 62
  0
 10
4.002690
 20
0.612786
 30
0.000000
  0
VERTEX
  8
LAYER-1
 10
4.002690
 20
0.612786
 30
0.000000
  0
VERTEX
  8
LAYER-1
 10
4.002690
 20
0.341158
 30
0.000000
  0
SEQEND
  8
LAYER-1
  0
POLYLINE
  8
LAYER-1
 66
  1
 70
  0
 62
  0
 10
4.038119
 20
0.341158
 30
0.000000
  0
VERTEX
  8
LAYER-1
 10
4.038119
 20
0.341158
 30
0.000000
  0
VERTEX
  8
LAYER-1
 10
4.038119
 20
0.612788
 30
0.000000
  0
SEQEND
  8
LAYER-1
  0
POLYLINE
  8
LAYER-1
 66
  1
 70
  0
 62
  0
 10
4.003594
 20
0.341158
 30
0.000000
  0
VERTEX
  8
LAYER-1
 10
4.003594
 20
0.341158
 30
0.000000
  0
VERTEX
  8
LAYER-1
 10
4.013533
 20
0.334157
 30
0.000000
  0
VERTEX
  8
LAYER-1
 10
4.028296
 20
0.336235
 30
0.000000
  0
VERTEX
  8
LAYER-1
 10
4.037149
 20
0.341146
 30
0.000000
  0
SEQEND
  8
LAYER-1
  0
POLYLINE
  8
LAYER-1
 66
  1
 70
  0
 62
  0
 10
4.038119
 20
0.341158
 30
0.000000
  0
VERTEX
  8
LAYER-1
 10
4.038119
 20
0.341158
 30
0.000000
  0
VERTEX
  8
LAYER-1
 10
4.051290
 20
0.334111
 30
0.000000
  0
VERTEX
  8
LAYER-1
 10
4.068370
 20
0.338442
 30
0.000000
  0
VERTEX
  8
LAYER-1
 10
4.075021
 20
0.341159
 30
0.000000
  0
SEQEND
  8
LAYER-1
  0
POLYLINE
  8
LAYER-1
 66
  1
 70
  0
 62
  0
 10
4.453673
 20
0.341651
 30
0.000000
  0
VERTEX
  8
LAYER-1
 10
4.453673
 20
0.341651
 30
0.000000
  0
VERTEX
  8
LAYER-1
 10
4.469240
 20
0.335596
 30
0.000000
  0
VERTEX
  8
LAYER-1
 10
4.487314
 20
0.342322
 30
0.000000
  0
VERTEX
  8
LAYER-1
 10
4.490581
 20
0.341651
 30
0.000000
  0
SEQEND
  8
LAYER-1
  0
POLYLINE
  8
LAYER-1
 66
  1
 70
  0
 62
  0
 10
5.266632
 20
0.341182
 30
0.000000
  0
VERTEX
  8
LAYER-1
 10
5.266632
 20
0.341182
 30
0.000000
  0
VERTEX
  8
LAYER-1
 10
5.282199
 20
0.335127
 30
0.000000
  0
VERTEX
  8
LAYER-1
 10
5.300273
 20
0.341852
 30
0.000000
  0
VERTEX
  8
LAYER-1
 10
5.303539
 20
0.341182
 30
0.000000
  0
SEQEND
  8
LAYER-1
  0
POLYLINE
  8
LAYER-1
 66
  1
 70
  0
 62
  0
 10
4.405964
 20
0.341651
 30
0.000000
  0
VERTEX
  8
LAYER-1
 10
4.405964
 20
0.341651
 30
0.000000
  0
VERTEX
  8
LAYER-1
 10
4.421531
 20
0.335596
 30
0.000000
  0
VERTEX
  8
LAYER-1
 10
4.439605
 20
0.342322
 30
0.000000
  0
VERTEX
  8
LAYER-1
 10
4.442872
 20
0.341651
 30
0.000000
  0
SEQEND
  8
LAYER-1
  0
POLYLINE
  8
LAYER-1
 66
  1
 70
  0
 62
  0
 10
4.427907
 20
0.341093
 30
0.000000
  0
VERTEX
  8
LAYER-1
 10
4.427907
 20
0.341093
 30
0.000000
  0
VERTEX
  8
LAYER-1
 10
4.434722
 20
0.332024
 30
0.000000
  0
VERTEX
  8
LAYER-1
 10
4.448737
 20
0.330431
 30
0.000000
  0
VERTEX
  8
LAYER-1
 10
4.459774
 20
0.339214
 30
0.000000
  0
VERTEX
  8
LAYER-1
 10
4.463336
 20
0.341093
 30
0.000000
  0
SEQEND
  8
LAYER-1
  0
POLYLINE
  8
LAYER-1
 66
  1
 70
  0
 62
  0
 10
4.427907
 20
0.341092
 30
0.000000
  0
VERTEX
  8
LAYER-1
 10
4.427907
 20
0.341092
 30
0.000000
  0
VERTEX
  8
LAYER-1
 10
4.463336
 20
0.341092
 30
0.000000
  0
SEQEND
  8
LAYER-1
  0
POLYLINE
  8
LAYER-1
 66
  1
 70
  0
 62
  0
 10
5.217982
 20
0.341181
 30
0.000000
  0
VERTEX
  8
LAYER-1
 10
5.217982
 20
0.341181
 30
0.000000
  0
VERTEX
  8
LAYER-1
 10
5.233549
 20
0.335127
 30
0.000000
  0
VERTEX
  8
LAYER-1
 10
5.251623
 20
0.341852
 30
0.000000
  0
VERTEX
  8
LAYER-1
 10
5.254889
 20
0.341182
 30
0.000000
  0
SEQEND
  8
LAYER-1
  0
POLYLINE
  8
LAYER-1
 66
  1
 70
  0
 62
  0
 10
5.244153
 20
0.341093
 30
0.000000
  0
VERTEX
  8
LAYER-1
 10
5.244153
 20
0.341093
 30
0.000000
  0
VERTEX
  8
LAYER-1
 10
5.250969
 20
0.332024
 30
0.000000
  0
VERTEX
  8
LAYER-1
 10
5.264984
 20
0.330431
 30
0.000000
  0
VERTEX
  8
LAYER-1
 10
5.276020
 20
0.339214
 30
0.000000
  0
VERTEX
  8
LAYER-1
 10
5.279583
 20
0.341093
 30
0.000000
  0
SEQEND
  8
LAYER-1
  0
POLYLINE
  8
LAYER-1
 66
  1
 70
  0
 62
  0
 10
5.244155
 20
0.341092
 30
0.000000
  0
VERTEX
  8
LAYER-1
 10
5.244155
 20
0.341092
 30
0.000000
  0
VERTEX
  8
LAYER-1
 10
5.279583
 20
0.341092
 30
0.000000
  0
SEQEND
  8
LAYER-1
  0
POLYLINE
  8
LAYER-1
 66
  1
 70
  0
 62
  0
 10
4.036843
 20
0.613374
 30
0.000000
  0
VERTEX
  8
LAYER-1
 10
4.036843
 20
0.613374
 30
0.000000
  0
VERTEX
  8
LAYER-1
 10
4.022670
 20
0.623906
 30
0.000000
  0
VERTEX
  8
LAYER-1
 10
4.007986
 20
0.621331
 30
0.000000
  0
VERTEX
  8
LAYER-1
 10
4.003624
 20
0.612815
 30
0.000000
  0
SEQEND
  8
LAYER-1
  0
POLYLINE
  8
LAYER-1
 66
  1
 70
  0
 62
  0
 10
4.036843
 20
0.613374
 30
0.000000
  0
VERTEX
  8
LAYER-1
 10
4.036843
 20
0.613374
 30
0.000000
  0
VERTEX
  8
LAYER-1
 10
4.003624
 20
0.612815
 30
0.000000
  0
SEQEND
  8
LAYER-1
  0
POLYLINE
  8
LAYER-1
 66
  1
 70
  0
 62
  0
 10
4.075956
 20
0.612812
 30
0.000000
  0
VERTEX
  8
LAYER-1
 10
4.075956
 20
0.612812
 30
0.000000
  0
VERTEX
  8
LAYER-1
 10
4.058848
 20
0.623796
 30
0.000000
  0
VERTEX
  8
LAYER-1
 10
4.041768
 20
0.619465
 30
0.000000
  0
VERTEX
  8
LAYER-1
 10
4.039052
 20
0.612812
 30
0.000000
  0
SEQEND
  8
LAYER-1
  0
POLYLINE
  8
LAYER-1
 66
  1
 70
  0
 62
  0
 10
4.075954
 20
0.612812
 30
0.000000
  0
VERTEX
  8
LAYER-1
 10
4.075954
 20
0.612812
 30
0.000000
  0
VERTEX
  8
LAYER-1
 10
4.039053
 20
0.612815
 30
0.000000
  0
SEQEND
  8
LAYER-1
  0
POLYLINE
  8
LAYER-1
 66
  1
 70
  0
 62
  0
 10
4.442797
 20
0.613258
 30
0.000000
  0
VERTEX
  8
LAYER-1
 10
4.442797
 20
0.613258
 30
0.000000
  0
VERTEX
  8
LAYER-1
 10
4.423294
 20
0.623251
 30
0.000000
  0
VERTEX
  8
LAYER-1
 10
4.405220
 20
0.616525
 30
0.000000
  0
VERTEX
  8
LAYER-1
 10
4.405890
 20
0.613261
 30
0.000000
  0
SEQEND
  8
LAYER-1
  0
POLYLINE
  8
LAYER-1
 66
  1
 70
  0
 62
  0
 10
4.490039
 20
0.613258
 30
0.000000
  0
VERTEX
  8
LAYER-1
 10
4.490039
 20
0.613258
 30
0.000000
  0
VERTEX
  8
LAYER-1
 10
4.470535
 20
0.623251
 30
0.000000
  0
VERTEX
  8
LAYER-1
 10
4.452461
 20
0.616525
 30
0.000000
  0
VERTEX
  8
LAYER-1
 10
4.453131
 20
0.613261
 30
0.000000
  0
SEQEND
  8
LAYER-1
  0
POLYLINE
  8
LAYER-1
 66
  1
 70
  0
 62
  0
 10
4.462793
 20
0.613348
 30
0.000000
  0
VERTEX
  8
LAYER-1
 10
4.462793
 20
0.613348
 30
0.000000
  0
VERTEX
  8
LAYER-1
 10
4.452041
 20
0.626354
 30
0.000000
  0
VERTEX
  8
LAYER-1
 10
4.438026
 20
0.627947
 30
0.000000
  0
VERTEX
  8
LAYER-1
 10
4.426989
 20
0.619164
 30
0.000000
  0
VERTEX
  8
LAYER-1
 10
4.427364
 20
0.613348
 30
0.000000
  0
SEQEND
  8
LAYER-1
  0
POLYLINE
  8
LAYER-1
 66
  1
 70
  0
 62
  0
 10
4.427365
 20
0.613349
 30
0.000000
  0
VERTEX
  8
LAYER-1
 10
4.427365
 20
0.613349
 30
0.000000
  0
VERTEX
  8
LAYER-1
 10
4.462793
 20
0.613349
 30
0.000000
  0
SEQEND
  8
LAYER-1
  0
POLYLINE
  8
LAYER-1
 66
  1
 70
  0
 62
  0
 10
5.255352
 20
0.613258
 30
0.000000
  0
VERTEX
  8
LAYER-1
 10
5.255352
 20
0.613258
 30
0.000000
  0
VERTEX
  8
LAYER-1
 10
5.235848
 20
0.623251
 30
0.000000
  0
VERTEX
  8
LAYER-1
 10
5.217775
 20
0.616525
 30
0.000000
  0
VERTEX
  8
LAYER-1
 10
5.218445
 20
0.613261
 30
0.000000
  0
SEQEND
  8
LAYER-1
  0
POLYLINE
  8
LAYER-1
 66
  1
 70
  0
 62
  0
 10
5.303532
 20
0.613258
 30
0.000000
  0
VERTEX
  8
LAYER-1
 10
5.303532
 20
0.613258
 30
0.000000
  0
VERTEX
  8
LAYER-1
 10
5.284029
 20
0.623251
 30
0.000000
  0
VERTEX
  8
LAYER-1
 10
5.265955
 20
0.616525
 30
0.000000
  0
VERTEX
  8
LAYER-1
 10
5.266625
 20
0.613261
 30
0.000000
  0
SEQEND
  8
LAYER-1
  0
POLYLINE
  8
LAYER-1
 66
  1
 70
  0
 62
  0
 10
5.279577
 20
0.613348
 30
0.000000
  0
VERTEX
  8
LAYER-1
 10
5.279577
 20
0.613348
 30
0.000000
  0
VERTEX
  8
LAYER-1
 10
5.268825
 20
0.626354
 30
0.000000
  0
VERTEX
  8
LAYER-1
 10
5.254809
 20
0.627947
 30
0.000000
  0
VERTEX
  8
LAYER-1
 10
5.243773
 20
0.619164
 30
0.000000
  0
VERTEX
  8
LAYER-1
 10
5.244148
 20
0.613348
 30
0.000000
  0
SEQEND
  8
LAYER-1
  0
POLYLINE
  8
LAYER-1
 66
  1
 70
  0
 62
  0
 10
5.244148
 20
0.613349
 30
0.000000
  0
VERTEX
  8
LAYER-1
 10
5.244148
 20
0.613349
 30
0.000000
  0
VERTEX
  8
LAYER-1
 10
5.279576
 20
0.613349
 30
0.000000
  0
SEQEND
  8
LAYER-1
  0
POLYLINE
  8
LAYER-1
 66
  1
 70
  1
 62
  0
  0
VERTEX
  8
LAYER-1
 10
4.463337
 20
0.341159
 30
0.000000
  0
VERTEX
  8
LAYER-1
 10
4.427907
 20
0.341159
 30
0.000000
  0
VERTEX
  8
LAYER-1
 10
4.427907
 20
0.612788
 30
0.000000
  0
VERTEX
  8
LAYER-1
 10
4.463337
 20
0.612788
 30
0.000000
  0
SEQEND
  8
LAYER-1
  0
POLYLINE
  8
LAYER-1
 66
  1
 70
  1
 62
  0
  0
VERTEX
  8
LAYER-1
 10
5.279651
 20
0.341159
 30
0.000000
  0
VERTEX
  8
LAYER-1
 10
5.244221
 20
0.341159
 30
0.000000
  0
VERTEX
  8
LAYER-1
 10
5.244221
 20
0.612788
 30
0.000000
  0
VERTEX
  8
LAYER-1
 10
5.279651
 20
0.612788
 30
0.000000
  0
SEQEND
  8
LAYER-1
  0
POLYLINE
  8
LAYER-1
 66
  1
 70
  0
 62
  0
 10
4.427907
 20
0.409065
 30
0.000000
  0
VERTEX
  8
LAYER-1
 10
4.427907
 20
0.409065
 30
0.000000
  0
VERTEX
  8
LAYER-1
 10
4.463337
 20
0.409065
 30
0.000000
  0
SEQEND
  8
LAYER-1
  0
POLYLINE
  8
LAYER-1
 66
  1
 70
  0
 62
  0
 10
4.427907
 20
0.538974
 30
0.000000
  0
VERTEX
  8
LAYER-1
 10
4.427907
 20
0.538974
 30
0.000000
  0
VERTEX
  8
LAYER-1
 10
4.463337
 20
0.538974
 30
0.000000
  0
SEQEND
  8
LAYER-1
  0
POLYLINE
  8
LAYER-1
 66
  1
 70
  0
 62
  0
 10
5.244221
 20
0.409065
 30
0.000000
  0
VERTEX
  8
LAYER-1
 10
5.244221
 20
0.409065
 30
0.000000
  0
VERTEX
  8
LAYER-1
 10
5.279649
 20
0.409065
 30
0.000000
  0
SEQEND
  8
LAYER-1
  0
POLYLINE
  8
LAYER-1
 66
  1
 70
  0
 62
  0
 10
5.244221
 20
0.538974
 30
0.000000
  0
VERTEX
  8
LAYER-1
 10
5.244221
 20
0.538974
 30
0.000000
  0
VERTEX
  8
LAYER-1
 10
5.279649
 20
0.538974
 30
0.000000
  0
SEQEND
  8
LAYER-1
  0
POLYLINE
  8
LAYER-1
 66
  1
 70
  0
 62
  0
 10
4.225575
 20
0.341601
 30
0.000000
  0
VERTEX
  8
LAYER-1
 10
4.225575
 20
0.341601
 30
0.000000
  0
VERTEX
  8
LAYER-1
 10
4.235515
 20
0.334601
 30
0.000000
  0
VERTEX
  8
LAYER-1
 10
4.250278
 20
0.336679
 30
0.000000
  0
VERTEX
  8
LAYER-1
 10
4.258794
 20
0.341042
 30
0.000000
  0
SEQEND
  8
LAYER-1
  0
POLYLINE
  8
LAYER-1
 66
  1
 70
  0
 62
  0
 10
5.039068
 20
0.341219
 30
0.000000
  0
VERTEX
  8
LAYER-1
 10
5.039068
 20
0.341219
 30
0.000000
  0
VERTEX
  8
LAYER-1
 10
5.052241
 20
0.334174
 30
0.000000
  0
VERTEX
  8
LAYER-1
 10
5.069320
 20
0.338505
 30
0.000000
  0
VERTEX
  8
LAYER-1
 10
5.075973
 20
0.341220
 30
0.000000
  0
SEQEND
  8
LAYER-1
  0
POLYLINE
  8
LAYER-1
 66
  1
 70
  0
 62
  0
 10
4.851873
 20
0.613376
 30
0.000000
  0
VERTEX
  8
LAYER-1
 10
4.851873
 20
0.613376
 30
0.000000
  0
VERTEX
  8
LAYER-1
 10
4.837701
 20
0.623907
 30
0.000000
  0
VERTEX
  8
LAYER-1
 10
4.823016
 20
0.621333
 30
0.000000
  0
VERTEX
  8
LAYER-1
 10
4.818654
 20
0.612817
 30
0.000000
  0
SEQEND
  8
LAYER-1
  0
POLYLINE
  8
LAYER-1
 66
  1
 70
  0
 62
  0
 10
4.851872
 20
0.613376
 30
0.000000
  0
VERTEX
  8
LAYER-1
 10
4.851872
 20
0.613376
 30
0.000000
  0
VERTEX
  8
LAYER-1
 10
4.818654
 20
0.612817
 30
0.000000
  0
SEQEND
  8
LAYER-1
  0
POLYLINE
  8
LAYER-1
 66
  1
 70
  0
 62
  0
 10
4.890985
 20
0.612816
 30
0.000000
  0
VERTEX
  8
LAYER-1
 10
4.890985
 20
0.612816
 30
0.000000
  0
VERTEX
  8
LAYER-1
 10
4.873877
 20
0.623800
 30
0.000000
  0
VERTEX
  8
LAYER-1
 10
4.856797
 20
0.619469
 30
0.000000
  0
VERTEX
  8
LAYER-1
 10
4.854081
 20
0.612817
 30
0.000000
  0
SEQEND
  8
LAYER-1
  0
POLYLINE
  8
LAYER-1
 66
  1
 70
  0
 62
  0
 10
4.890986
 20
0.612815
 30
0.000000
  0
VERTEX
  8
LAYER-1
 10
4.890986
 20
0.612815
 30
0.000000
  0
VERTEX
  8
LAYER-1
 10
4.854082
 20
0.612817
 30
0.000000
  0
SEQEND
  8
LAYER-1
  0
POLYLINE
  8
LAYER-1
 66
  1
 70
  0
 62
  0
 10
4.889814
 20
0.341159
 30
0.000000
  0
VERTEX
  8
LAYER-1
 10
4.889814
 20
0.341159
 30
0.000000
  0
VERTEX
  8
LAYER-1
 10
4.889814
 20
0.612790
 30
0.000000
  0
SEQEND
  8
LAYER-1
  0
POLYLINE
  8
LAYER-1
 66
  1
 70
  0
 62
  0
 10
4.817480
 20
0.612786
 30
0.000000
  0
VERTEX
  8
LAYER-1
 10
4.817480
 20
0.612786
 30
0.000000
  0
VERTEX
  8
LAYER-1
 10
4.817480
 20
0.341158
 30
0.000000
  0
SEQEND
  8
LAYER-1
  0
POLYLINE
  8
LAYER-1
 66
  1
 70
  0
 62
  0
 10
4.852910
 20
0.341158
 30
0.000000
  0
VERTEX
  8
LAYER-1
 10
4.852910
 20
0.341158
 30
0.000000
  0
VERTEX
  8
LAYER-1
 10
4.852910
 20
0.612788
 30
0.000000
  0
SEQEND
  8
LAYER-1
  0
POLYLINE
  8
LAYER-1
 66
  1
 70
  0
 62
  0
 10
4.817785
 20
0.341299
 30
0.000000
  0
VERTEX
  8
LAYER-1
 10
4.817785
 20
0.341299
 30
0.000000
  0
VERTEX
  8
LAYER-1
 10
4.827725
 20
0.334299
 30
0.000000
  0
VERTEX
  8
LAYER-1
 10
4.842488
 20
0.336377
 30
0.000000
  0
VERTEX
  8
LAYER-1
 10
4.851004
 20
0.340740
 30
0.000000
  0
SEQEND
  8
LAYER-1
  0
POLYLINE
  8
LAYER-1
 66
  1
 70
  0
 62
  0
 10
4.851004
 20
0.340738
 30
0.000000
  0
VERTEX
  8
LAYER-1
 10
4.851004
 20
0.340738
 30
0.000000
  0
VERTEX
  8
LAYER-1
 10
4.817785
 20
0.341299
 30
0.000000
  0
SEQEND
  8
LAYER-1
  0
POLYLINE
  8
LAYER-1
 66
  1
 70
  0
 62
  0
 10
4.853214
 20
0.341299
 30
0.000000
  0
VERTEX
  8
LAYER-1
 10
4.853214
 20
0.341299
 30
0.000000
  0
VERTEX
  8
LAYER-1
 10
4.866385
 20
0.334253
 30
0.000000
  0
VERTEX
  8
LAYER-1
 10
4.883465
 20
0.338584
 30
0.000000
  0
VERTEX
  8
LAYER-1
 10
4.890117
 20
0.341300
 30
0.000000
  0
SEQEND
  8
LAYER-1
  0
POLYLINE
  8
LAYER-1
 66
  1
 70
  0
 62
  0
 10
4.890117
 20
0.341299
 30
0.000000
  0
VERTEX
  8
LAYER-1
 10
4.890117
 20
0.341299
 30
0.000000
  0
VERTEX
  8
LAYER-1
 10
4.853214
 20
0.341299
 30
0.000000
  0
SEQEND
  8
LAYER-1
  0
POLYLINE
  8
LAYER-1
 66
  1
 70
  0
 62
  0
 10
5.671872
 20
0.613376
 30
0.000000
  0
VERTEX
  8
LAYER-1
 10
5.671872
 20
0.613376
 30
0.000000
  0
VERTEX
  8
LAYER-1
 10
5.657700
 20
0.623907
 30
0.000000
  0
VERTEX
  8
LAYER-1
 10
5.643016
 20
0.621333
 30
0.000000
  0
VERTEX
  8
LAYER-1
 10
5.638653
 20
0.612817
 30
0.000000
  0
SEQEND
  8
LAYER-1
  0
POLYLINE
  8
LAYER-1
 66
  1
 70
  0
 62
  0
 10
5.671872
 20
0.613376
 30
0.000000
  0
VERTEX
  8
LAYER-1
 10
5.671872
 20
0.613376
 30
0.000000
  0
VERTEX
  8
LAYER-1
 10
5.638654
 20
0.612817
 30
0.000000
  0
SEQEND
  8
LAYER-1
  0
POLYLINE
  8
LAYER-1
 66
  1
 70
  0
 62
  0
 10
5.710985
 20
0.612816
 30
0.000000
  0
VERTEX
  8
LAYER-1
 10
5.710985
 20
0.612816
 30
0.000000
  0
VERTEX
  8
LAYER-1
 10
5.693877
 20
0.623800
 30
0.000000
  0
VERTEX
  8
LAYER-1
 10
5.676797
 20
0.619469
 30
0.000000
  0
VERTEX
  8
LAYER-1
 10
5.674082
 20
0.612817
 30
0.000000
  0
SEQEND
  8
LAYER-1
  0
POLYLINE
  8
LAYER-1
 66
  1
 70
  0
 62
  0
 10
5.710985
 20
0.612815
 30
0.000000
  0
VERTEX
  8
LAYER-1
 10
5.710985
 20
0.612815
 30
0.000000
  0
VERTEX
  8
LAYER-1
 10
5.674082
 20
0.612817
 30
0.000000
  0
SEQEND
  8
LAYER-1
  0
POLYLINE
  8
LAYER-1
 66
  1
 70
  0
 62
  0
 10
5.709814
 20
0.341159
 30
0.000000
  0
VERTEX
  8
LAYER-1
 10
5.709814
 20
0.341159
 30
0.000000
  0
VERTEX
  8
LAYER-1
 10
5.709814
 20
0.612790
 30
0.000000
  0
SEQEND
  8
LAYER-1
  0
POLYLINE
  8
LAYER-1
 66
  1
 70
  0
 62
  0
 10
5.637480
 20
0.612786
 30
0.000000
  0
VERTEX
  8
LAYER-1
 10
5.637480
 20
0.612786
 30
0.000000
  0
VERTEX
  8
LAYER-1
 10
5.637480
 20
0.341158
 30
0.000000
  0
SEQEND
  8
LAYER-1
  0
POLYLINE
  8
LAYER-1
 66
  1
 70
  0
 62
  0
 10
5.672910
 20
0.341158
 30
0.000000
  0
VERTEX
  8
LAYER-1
 10
5.672910
 20
0.341158
 30
0.000000
  0
VERTEX
  8
LAYER-1
 10
5.672910
 20
0.612788
 30
0.000000
  0
SEQEND
  8
LAYER-1
  0
POLYLINE
  8
LAYER-1
 66
  1
 70
  0
 62
  0
 10
5.637785
 20
0.341299
 30
0.000000
  0
VERTEX
  8
LAYER-1
 10
5.637785
 20
0.341299
 30
0.000000
  0
VERTEX
  8
LAYER-1
 10
5.647725
 20
0.334299
 30
0.000000
  0
VERTEX
  8
LAYER-1
 10
5.662488
 20
0.336377
 30
0.000000
  0
VERTEX
  8
LAYER-1
 10
5.671004
 20
0.340740
 30
0.000000
  0
SEQEND
  8
LAYER-1
  0
POLYLINE
  8
LAYER-1
 66
  1
 70
  0
 62
  0
 10
5.671004
 20
0.340738
 30
0.000000
  0
VERTEX
  8
LAYER-1
 10
5.671004
 20
0.340738
 30
0.000000
  0
VERTEX
  8
LAYER-1
 10
5.637785
 20
0.341299
 30
0.000000
  0
SEQEND
  8
LAYER-1
  0
POLYLINE
  8
LAYER-1
 66
  1
 70
  0
 62
  0
 10
5.673214
 20
0.341299
 30
0.000000
  0
VERTEX
  8
LAYER-1
 10
5.673214
 20
0.341299
 30
0.000000
  0
VERTEX
  8
LAYER-1
 10
5.686385
 20
0.334253
 30
0.000000
  0
VERTEX
  8
LAYER-1
 10
5.703465
 20
0.338584
 30
0.000000
  0
VERTEX
  8
LAYER-1
 10
5.710117
 20
0.341300
 30
0.000000
  0
SEQEND
  8
LAYER-1
  0
POLYLINE
  8
LAYER-1
 66
  1
 70
  0
 62
  0
 10
5.710117
 20
0.341299
 30
0.000000
  0
VERTEX
  8
LAYER-1
 10
5.710117
 20
0.341299
 30
0.000000
  0
VERTEX
  8
LAYER-1
 10
5.673214
 20
0.341299
 30
0.000000
  0
SEQEND
  8
LAYER-1
  0
POLYLINE
  8
LAYER-1
 66
  1
 70
  0
 62
  0
 40
0.027778
 41
0.027778
 10
3.644370
 20
0.237216
 30
0.000000
  0
VERTEX
  8
LAYER-1
 10
3.644370
 20
0.237216
 30
0.000000
  0
VERTEX
  8
LAYER-1
 10
0.742741
 20
0.237216
 30
0.000000
  0
SEQEND
  8
LAYER-1
  0
POLYLINE
  8
LAYER-1
 66
  1
 70
  0
 62
  0
 40
0.027778
 41
0.027778
 10
3.737987
 20
0.237216
 30
0.000000
  0
VERTEX
  8
LAYER-1
 10
3.737987
 20
0.237216
 30
0.000000
  0
VERTEX
  8
LAYER-1
 10
6.735797
 20
0.237216
 30
0.000000
  0
SEQEND
  8
LAYER-1
  0
POLYLINE
  8
LAYER-1
 66
  1
 70
  0
 62
  0
 10
3.642812
 20
2.258422
 30
0.000000
  0
VERTEX
  8
LAYER-1
 10
3.642812
 20
2.258422
 30
0.000000
  0
VERTEX
  8
LAYER-1
 10
1.767915
 20
2.258422
 30
0.000000
  0
SEQEND
  8
LAYER-1
  0
POLYLINE
  8
LAYER-1
 66
  1
 70
  0
 62
  0
 10
3.642812
 20
3.902453
 30
0.000000
  0
VERTEX
  8
LAYER-1
 10
3.642812
 20
3.902453
 30
0.000000
  0
VERTEX
  8
LAYER-1
 10
1.767915
 20
3.902453
 30
0.000000
  0
SEQEND
  8
LAYER-1
  0
POLYLINE
  8
LAYER-1
 66
  1
 70
  0
 62
  0
 10
3.642812
 20
5.546480
 30
0.000000
  0
VERTEX
  8
LAYER-1
 10
3.642812
 20
5.546480
 30
0.000000
  0
VERTEX
  8
LAYER-1
 10
1.767915
 20
5.546480
 30
0.000000
  0
SEQEND
  8
LAYER-1
  0
POLYLINE
  8
LAYER-1
 66
  1
 70
  0
 62
  0
 10
3.642915
 20
1.436589
 30
0.000000
  0
VERTEX
  8
LAYER-1
 10
3.642915
 20
1.436589
 30
0.000000
  0
VERTEX
  8
LAYER-1
 10
1.767915
 20
1.436589
 30
0.000000
  0
SEQEND
  8
LAYER-1
  0
POLYLINE
  8
LAYER-1
 66
  1
 70
  0
 62
  0
 10
3.642915
 20
3.080617
 30
0.000000
  0
VERTEX
  8
LAYER-1
 10
3.642915
 20
3.080617
 30
0.000000
  0
VERTEX
  8
LAYER-1
 10
1.767915
 20
3.080617
 30
0.000000
  0
SEQEND
  8
LAYER-1
  0
POLYLINE
  8
LAYER-1
 66
  1
 70
  0
 62
  0
 10
3.642915
 20
4.724647
 30
0.000000
  0
VERTEX
  8
LAYER-1
 10
3.642915
 20
4.724647
 30
0.000000
  0
VERTEX
  8
LAYER-1
 10
1.768783
 20
4.724647
 30
0.000000
  0
SEQEND
  8
LAYER-1
  0
POLYLINE
  8
LAYER-1
 66
  1
 70
  0
 62
  0
 10
3.642915
 20
6.368674
 30
0.000000
  0
VERTEX
  8
LAYER-1
 10
3.642915
 20
6.368674
 30
0.000000
  0
VERTEX
  8
LAYER-1
 10
1.767915
 20
6.368674
 30
0.000000
  0
SEQEND
  8
LAYER-1
  0
POLYLINE
  8
LAYER-1
 66
  1
 70
  0
 62
  0
 10
5.689688
 20
2.257245
 30
0.000000
  0
VERTEX
  8
LAYER-1
 10
5.689688
 20
2.257245
 30
0.000000
  0
VERTEX
  8
LAYER-1
 10
3.814791
 20
2.257245
 30
0.000000
  0
SEQEND
  8
LAYER-1
  0
POLYLINE
  8
LAYER-1
 66
  1
 70
  0
 62
  0
 10
5.689688
 20
3.901276
 30
0.000000
  0
VERTEX
  8
LAYER-1
 10
5.689688
 20
3.901276
 30
0.000000
  0
VERTEX
  8
LAYER-1
 10
3.814791
 20
3.901276
 30
0.000000
  0
SEQEND
  8
LAYER-1
  0
POLYLINE
  8
LAYER-1
 66
  1
 70
  0
 62
  0
 10
5.689688
 20
5.545304
 30
0.000000
  0
VERTEX
  8
LAYER-1
 10
5.689688
 20
5.545304
 30
0.000000
  0
VERTEX
  8
LAYER-1
 10
3.814791
 20
5.545304
 30
0.000000
  0
SEQEND
  8
LAYER-1
  0
POLYLINE
  8
LAYER-1
 66
  1
 70
  0
 62
  0
 10
5.689791
 20
1.435412
 30
0.000000
  0
VERTEX
  8
LAYER-1
 10
5.689791
 20
1.435412
 30
0.000000
  0
VERTEX
  8
LAYER-1
 10
3.814791
 20
1.435412
 30
0.000000
  0
SEQEND
  8
LAYER-1
  0
POLYLINE
  8
LAYER-1
 66
  1
 70
  0
 62
  0
 10
5.689791
 20
3.079441
 30
0.000000
  0
VERTEX
  8
LAYER-1
 10
5.689791
 20
3.079441
 30
0.000000
  0
VERTEX
  8
LAYER-1
 10
3.814791
 20
3.079441
 30
0.000000
  0
SEQEND
  8
LAYER-1
  0
POLYLINE
  8
LAYER-1
 66
  1
 70
  0
 62
  0
 10
5.689791
 20
4.723470
 30
0.000000
  0
VERTEX
  8
LAYER-1
 10
5.689791
 20
4.723470
 30
0.000000
  0
VERTEX
  8
LAYER-1
 10
3.815658
 20
4.723470
 30
0.000000
  0
SEQEND
  8
LAYER-1
  0
POLYLINE
  8
LAYER-1
 66
  1
 70
  0
 62
  0
 10
5.689791
 20
6.367498
 30
0.000000
  0
VERTEX
  8
LAYER-1
 10
5.689791
 20
6.367498
 30
0.000000
  0
VERTEX
  8
LAYER-1
 10
3.814791
 20
6.367498
 30
0.000000
  0
SEQEND
  8
LAYER-1
  0
POLYLINE
  8
LAYER-1
 66
  1
 70
  1
 62
  7
  0
VERTEX
  8
LAYER-1
 10
0.077721
 20
4.785225
 30
0.000000
  0
VERTEX
  8
LAYER-1
 10
0.164024
 20
4.785225
 30
0.000000
  0
VERTEX
  8
LAYER-1
 10
0.164024
 20
4.485655
 30
0.000000
  0
VERTEX
  8
LAYER-1
 10
0.077721
 20
4.485655
 30
0.000000
  0
SEQEND
  8
LAYER-1
  0
POLYLINE
  8
LAYER-1
 66
  1
 70
  1
 62
  7
  0
VERTEX
  8
LAYER-1
 10
0.227814
 20
4.785225
 30
0.000000
  0
VERTEX
  8
LAYER-1
 10
0.314117
 20
4.785225
 30
0.000000
  0
VERTEX
  8
LAYER-1
 10
0.314117
 20
4.485655
 30
0.000000
  0
VERTEX
  8
LAYER-1
 10
0.227814
 20
4.485655
 30
0.000000
  0
SEQEND
  8
LAYER-1
  0
POLYLINE
  8
LAYER-1
 66
  1
 70
  1
 62
  7
  0
VERTEX
  8
LAYER-1
 10
0.377908
 20
4.785225
 30
0.000000
  0
VERTEX
  8
LAYER-1
 10
0.464209
 20
4.785225
 30
0.000000
  0
VERTEX
  8
LAYER-1
 10
0.464209
 20
4.485655
 30
0.000000
  0
VERTEX
  8
LAYER-1
 10
0.377908
 20
4.485655
 30
0.000000
  0
SEQEND
  8
LAYER-1
  0
POLYLINE
  8
LAYER-1
 66
  1
 70
  1
 62
  7
  0
VERTEX
  8
LAYER-1
 10
0.527998
 20
4.785225
 30
0.000000
  0
VERTEX
  8
LAYER-1
 10
0.614300
 20
4.785225
 30
0.000000
  0
VERTEX
  8
LAYER-1
 10
0.614300
 20
4.485655
 30
0.000000
  0
VERTEX
  8
LAYER-1
 10
0.527998
 20
4.485655
 30
0.000000
  0
SEQEND
  8
LAYER-1
  0
POLYLINE
  8
LAYER-1
 66
  1
 70
  1
 62
  7
  0
VERTEX
  8
LAYER-1
 10
0.678090
 20
4.785225
 30
0.000000
  0
VERTEX
  8
LAYER-1
 10
0.764393
 20
4.785225
 30
0.000000
  0
VERTEX
  8
LAYER-1
 10
0.764393
 20
4.485655
 30
0.000000
  0
VERTEX
  8
LAYER-1
 10
0.678090
 20
4.485655
 30
0.000000
  0
SEQEND
  8
LAYER-1
  0
POLYLINE
  8
LAYER-1
 66
  1
 70
  1
 62
  7
  0
VERTEX
  8
LAYER-1
 10
0.828183
 20
4.785225
 30
0.000000
  0
VERTEX
  8
LAYER-1
 10
0.914486
 20
4.785225
 30
0.000000
  0
VERTEX
  8
LAYER-1
 10
0.914486
 20
4.485655
 30
0.000000
  0
VERTEX
  8
LAYER-1
 10
0.828183
 20
4.485655
 30
0.000000
  0
SEQEND
  8
LAYER-1
  0
POLYLINE
  8
LAYER-1
 66
  1
 70
  1
 62
  7
  0
VERTEX
  8
LAYER-1
 10
0.978276
 20
4.785225
 30
0.000000
  0
VERTEX
  8
LAYER-1
 10
1.064578
 20
4.785225
 30
0.000000
  0
VERTEX
  8
LAYER-1
 10
1.064578
 20
4.485655
 30
0.000000
  0
VERTEX
  8
LAYER-1
 10
0.978276
 20
4.485655
 30
0.000000
  0
SEQEND
  8
LAYER-1
  0
POLYLINE
  8
LAYER-1
 66
  1
 70
  1
 62
  7
  0
VERTEX
  8
LAYER-1
 10
0.002554
 20
5.084771
 30
0.000000
  0
VERTEX
  8
LAYER-1
 10
0.088854
 20
5.084771
 30
0.000000
  0
VERTEX
  8
LAYER-1
 10
0.088854
 20
4.785207
 30
0.000000
  0
VERTEX
  8
LAYER-1
 10
0.002554
 20
4.785207
 30
0.000000
  0
SEQEND
  8
LAYER-1
  0
POLYLINE
  8
LAYER-1
 66
  1
 70
  1
 62
  7
  0
VERTEX
  8
LAYER-1
 10
0.152645
 20
5.084771
 30
0.000000
  0
VERTEX
  8
LAYER-1
 10
0.238947
 20
5.084771
 30
0.000000
  0
VERTEX
  8
LAYER-1
 10
0.238947
 20
4.785207
 30
0.000000
  0
VERTEX
  8
LAYER-1
 10
0.152645
 20
4.785207
 30
0.000000
  0
SEQEND
  8
LAYER-1
  0
POLYLINE
  8
LAYER-1
 66
  1
 70
  1
 62
  7
  0
VERTEX
  8
LAYER-1
 10
0.302738
 20
5.084771
 30
0.000000
  0
VERTEX
  8
LAYER-1
 10
0.389041
 20
5.084771
 30
0.000000
  0
VERTEX
  8
LAYER-1
 10
0.389041
 20
4.785207
 30
0.000000
  0
VERTEX
  8
LAYER-1
 10
0.302738
 20
4.785207
 30
0.000000
  0
SEQEND
  8
LAYER-1
  0
POLYLINE
  8
LAYER-1
 66
  1
 70
  1
 62
  7
  0
VERTEX
  8
LAYER-1
 10
0.452831
 20
5.084771
 30
0.000000
  0
VERTEX
  8
LAYER-1
 10
0.539133
 20
5.084771
 30
0.000000
  0
VERTEX
  8
LAYER-1
 10
0.539133
 20
4.785207
 30
0.000000
  0
VERTEX
  8
LAYER-1
 10
0.452831
 20
4.785207
 30
0.000000
  0
SEQEND
  8
LAYER-1
  0
POLYLINE
  8
LAYER-1
 66
  1
 70
  1
 62
  7
  0
VERTEX
  8
LAYER-1
 10
0.602924
 20
5.084771
 30
0.000000
  0
VERTEX
  8
LAYER-1
 10
0.689225
 20
5.084771
 30
0.000000
  0
VERTEX
  8
LAYER-1
 10
0.689225
 20
4.785207
 30
0.000000
  0
VERTEX
  8
LAYER-1
 10
0.602924
 20
4.785207
 30
0.000000
  0
SEQEND
  8
LAYER-1
  0
POLYLINE
  8
LAYER-1
 66
  1
 70
  1
 62
  7
  0
VERTEX
  8
LAYER-1
 10
0.753015
 20
5.084771
 30
0.000000
  0
VERTEX
  8
LAYER-1
 10
0.839318
 20
5.084771
 30
0.000000
  0
VERTEX
  8
LAYER-1
 10
0.839318
 20
4.785207
 30
0.000000
  0
VERTEX
  8
LAYER-1
 10
0.753015
 20
4.785207
 30
0.000000
  0
SEQEND
  8
LAYER-1
  0
POLYLINE
  8
LAYER-1
 66
  1
 70
  1
 62
  7
  0
VERTEX
  8
LAYER-1
 10
0.903108
 20
5.084771
 30
0.000000
  0
VERTEX
  8
LAYER-1
 10
0.989411
 20
5.084771
 30
0.000000
  0
VERTEX
  8
LAYER-1
 10
0.989411
 20
4.785207
 30
0.000000
  0
VERTEX
  8
LAYER-1
 10
0.903108
 20
4.785207
 30
0.000000
  0
SEQEND
  8
LAYER-1
  0
POLYLINE
  8
LAYER-1
 66
  1
 70
  1
 62
  7
  0
VERTEX
  8
LAYER-1
 10
0.077721
 20
4.186122
 30
0.000000
  0
VERTEX
  8
LAYER-1
 10
0.164024
 20
4.186122
 30
0.000000
  0
VERTEX
  8
LAYER-1
 10
0.164024
 20
3.886558
 30
0.000000
  0
VERTEX
  8
LAYER-1
 10
0.077721
 20
3.886558
 30
0.000000
  0
SEQEND
  8
LAYER-1
  0
POLYLINE
  8
LAYER-1
 66
  1
 70
  1
 62
  7
  0
VERTEX
  8
LAYER-1
 10
0.227814
 20
4.186122
 30
0.000000
  0
VERTEX
  8
LAYER-1
 10
0.314117
 20
4.186122
 30
0.000000
  0
VERTEX
  8
LAYER-1
 10
0.314117
 20
3.886558
 30
0.000000
  0
VERTEX
  8
LAYER-1
 10
0.227814
 20
3.886558
 30
0.000000
  0
SEQEND
  8
LAYER-1
  0
POLYLINE
  8
LAYER-1
 66
  1
 70
  1
 62
  7
  0
VERTEX
  8
LAYER-1
 10
0.377908
 20
4.186122
 30
0.000000
  0
VERTEX
  8
LAYER-1
 10
0.464209
 20
4.186122
 30
0.000000
  0
VERTEX
  8
LAYER-1
 10
0.464209
 20
3.886558
 30
0.000000
  0
VERTEX
  8
LAYER-1
 10
0.377908
 20
3.886558
 30
0.000000
  0
SEQEND
  8
LAYER-1
  0
POLYLINE
  8
LAYER-1
 66
  1
 70
  1
 62
  7
  0
VERTEX
  8
LAYER-1
 10
0.527998
 20
4.186122
 30
0.000000
  0
VERTEX
  8
LAYER-1
 10
0.614300
 20
4.186122
 30
0.000000
  0
VERTEX
  8
LAYER-1
 10
0.614300
 20
3.886558
 30
0.000000
  0
VERTEX
  8
LAYER-1
 10
0.527998
 20
3.886558
 30
0.000000
  0
SEQEND
  8
LAYER-1
  0
POLYLINE
  8
LAYER-1
 66
  1
 70
  1
 62
  7
  0
VERTEX
  8
LAYER-1
 10
0.678090
 20
4.186122
 30
0.000000
  0
VERTEX
  8
LAYER-1
 10
0.764393
 20
4.186122
 30
0.000000
  0
VERTEX
  8
LAYER-1
 10
0.764393
 20
3.886558
 30
0.000000
  0
VERTEX
  8
LAYER-1
 10
0.678090
 20
3.886558
 30
0.000000
  0
SEQEND
  8
LAYER-1
  0
POLYLINE
  8
LAYER-1
 66
  1
 70
  1
 62
  7
  0
VERTEX
  8
LAYER-1
 10
0.828183
 20
4.186122
 30
0.000000
  0
VERTEX
  8
LAYER-1
 10
0.914486
 20
4.186122
 30
0.000000
  0
VERTEX
  8
LAYER-1
 10
0.914486
 20
3.886558
 30
0.000000
  0
VERTEX
  8
LAYER-1
 10
0.828183
 20
3.886558
 30
0.000000
  0
SEQEND
  8
LAYER-1
  0
POLYLINE
  8
LAYER-1
 66
  1
 70
  1
 62
  7
  0
VERTEX
  8
LAYER-1
 10
0.978276
 20
4.186122
 30
0.000000
  0
VERTEX
  8
LAYER-1
 10
1.064578
 20
4.186122
 30
0.000000
  0
VERTEX
  8
LAYER-1
 10
1.064578
 20
3.886558
 30
0.000000
  0
VERTEX
  8
LAYER-1
 10
0.978276
 20
3.886558
 30
0.000000
  0
SEQEND
  8
LAYER-1
  0
POLYLINE
  8
LAYER-1
 66
  1
 70
  1
 62
  7
  0
VERTEX
  8
LAYER-1
 10
0.002554
 20
4.485672
 30
0.000000
  0
VERTEX
  8
LAYER-1
 10
0.088854
 20
4.485672
 30
0.000000
  0
VERTEX
  8
LAYER-1
 10
0.088854
 20
4.186105
 30
0.000000
  0
VERTEX
  8
LAYER-1
 10
0.002554
 20
4.186105
 30
0.000000
  0
SEQEND
  8
LAYER-1
  0
POLYLINE
  8
LAYER-1
 66
  1
 70
  1
 62
  7
  0
VERTEX
  8
LAYER-1
 10
0.152645
 20
4.485672
 30
0.000000
  0
VERTEX
  8
LAYER-1
 10
0.238947
 20
4.485672
 30
0.000000
  0
VERTEX
  8
LAYER-1
 10
0.238947
 20
4.186105
 30
0.000000
  0
VERTEX
  8
LAYER-1
 10
0.152645
 20
4.186105
 30
0.000000
  0
SEQEND
  8
LAYER-1
  0
POLYLINE
  8
LAYER-1
 66
  1
 70
  1
 62
  7
  0
VERTEX
  8
LAYER-1
 10
0.302738
 20
4.485672
 30
0.000000
  0
VERTEX
  8
LAYER-1
 10
0.389041
 20
4.485672
 30
0.000000
  0
VERTEX
  8
LAYER-1
 10
0.389041
 20
4.186105
 30
0.000000
  0
VERTEX
  8
LAYER-1
 10
0.302738
 20
4.186105
 30
0.000000
  0
SEQEND
  8
LAYER-1
  0
POLYLINE
  8
LAYER-1
 66
  1
 70
  1
 62
  7
  0
VERTEX
  8
LAYER-1
 10
0.452831
 20
4.485672
 30
0.000000
  0
VERTEX
  8
LAYER-1
 10
0.539133
 20
4.485672
 30
0.000000
  0
VERTEX
  8
LAYER-1
 10
0.539133
 20
4.186105
 30
0.000000
  0
VERTEX
  8
LAYER-1
 10
0.452831
 20
4.186105
 30
0.000000
  0
SEQEND
  8
LAYER-1
  0
POLYLINE
  8
LAYER-1
 66
  1
 70
  1
 62
  7
  0
VERTEX
  8
LAYER-1
 10
0.602924
 20
4.485672
 30
0.000000
  0
VERTEX
  8
LAYER-1
 10
0.689225
 20
4.485672
 30
0.000000
  0
VERTEX
  8
LAYER-1
 10
0.689225
 20
4.186105
 30
0.000000
  0
VERTEX
  8
LAYER-1
 10
0.602924
 20
4.186105
 30
0.000000
  0
SEQEND
  8
LAYER-1
  0
POLYLINE
  8
LAYER-1
 66
  1
 70
  1
 62
  7
  0
VERTEX
  8
LAYER-1
 10
0.753015
 20
4.485672
 30
0.000000
  0
VERTEX
  8
LAYER-1
 10
0.839318
 20
4.485672
 30
0.000000
  0
VERTEX
  8
LAYER-1
 10
0.839318
 20
4.186105
 30
0.000000
  0
VERTEX
  8
LAYER-1
 10
0.753015
 20
4.186105
 30
0.000000
  0
SEQEND
  8
LAYER-1
  0
POLYLINE
  8
LAYER-1
 66
  1
 70
  1
 62
  7
  0
VERTEX
  8
LAYER-1
 10
0.903108
 20
4.485672
 30
0.000000
  0
VERTEX
  8
LAYER-1
 10
0.989411
 20
4.485672
 30
0.000000
  0
VERTEX
  8
LAYER-1
 10
0.989411
 20
4.186105
 30
0.000000
  0
VERTEX
  8
LAYER-1
 10
0.903108
 20
4.186105
 30
0.000000
  0
SEQEND
  8
LAYER-1
  0
POLYLINE
  8
LAYER-1
 66
  1
 70
  1
 62
  7
  0
VERTEX
  8
LAYER-1
 10
0.002554
 20
3.886575
 30
0.000000
  0
VERTEX
  8
LAYER-1
 10
0.088854
 20
3.886575
 30
0.000000
  0
VERTEX
  8
LAYER-1
 10
0.088854
 20
3.587012
 30
0.000000
  0
VERTEX
  8
LAYER-1
 10
0.002554
 20
3.587012
 30
0.000000
  0
SEQEND
  8
LAYER-1
  0
POLYLINE
  8
LAYER-1
 66
  1
 70
  1
 62
  7
  0
VERTEX
  8
LAYER-1
 10
0.152645
 20
3.886575
 30
0.000000
  0
VERTEX
  8
LAYER-1
 10
0.238947
 20
3.886575
 30
0.000000
  0
VERTEX
  8
LAYER-1
 10
0.238947
 20
3.587012
 30
0.000000
  0
VERTEX
  8
LAYER-1
 10
0.152645
 20
3.587012
 30
0.000000
  0
SEQEND
  8
LAYER-1
  0
POLYLINE
  8
LAYER-1
 66
  1
 70
  1
 62
  7
  0
VERTEX
  8
LAYER-1
 10
0.302738
 20
3.886575
 30
0.000000
  0
VERTEX
  8
LAYER-1
 10
0.389041
 20
3.886575
 30
0.000000
  0
VERTEX
  8
LAYER-1
 10
0.389041
 20
3.587012
 30
0.000000
  0
VERTEX
  8
LAYER-1
 10
0.302738
 20
3.587012
 30
0.000000
  0
SEQEND
  8
LAYER-1
  0
POLYLINE
  8
LAYER-1
 66
  1
 70
  1
 62
  7
  0
VERTEX
  8
LAYER-1
 10
0.452831
 20
3.886575
 30
0.000000
  0
VERTEX
  8
LAYER-1
 10
0.539133
 20
3.886575
 30
0.000000
  0
VERTEX
  8
LAYER-1
 10
0.539133
 20
3.587012
 30
0.000000
  0
VERTEX
  8
LAYER-1
 10
0.452831
 20
3.587012
 30
0.000000
  0
SEQEND
  8
LAYER-1
  0
POLYLINE
  8
LAYER-1
 66
  1
 70
  1
 62
  7
  0
VERTEX
  8
LAYER-1
 10
0.602924
 20
3.886575
 30
0.000000
  0
VERTEX
  8
LAYER-1
 10
0.689225
 20
3.886575
 30
0.000000
  0
VERTEX
  8
LAYER-1
 10
0.689225
 20
3.587012
 30
0.000000
  0
VERTEX
  8
LAYER-1
 10
0.602924
 20
3.587012
 30
0.000000
  0
SEQEND
  8
LAYER-1
  0
POLYLINE
  8
LAYER-1
 66
  1
 70
  1
 62
  7
  0
VERTEX
  8
LAYER-1
 10
0.753015
 20
3.886575
 30
0.000000
  0
VERTEX
  8
LAYER-1
 10
0.839318
 20
3.886575
 30
0.000000
  0
VERTEX
  8
LAYER-1
 10
0.839318
 20
3.587012
 30
0.000000
  0
VERTEX
  8
LAYER-1
 10
0.753015
 20
3.587012
 30
0.000000
  0
SEQEND
  8
LAYER-1
  0
POLYLINE
  8
LAYER-1
 66
  1
 70
  1
 62
  7
  0
VERTEX
  8
LAYER-1
 10
0.903108
 20
3.886575
 30
0.000000
  0
VERTEX
  8
LAYER-1
 10
0.989411
 20
3.886575
 30
0.000000
  0
VERTEX
  8
LAYER-1
 10
0.989411
 20
3.587012
 30
0.000000
  0
VERTEX
  8
LAYER-1
 10
0.903108
 20
3.587012
 30
0.000000
  0
SEQEND
  8
LAYER-1
  0
POLYLINE
  8
LAYER-1
 66
  1
 70
  0
 62
  7
 10
1.053327
 20
4.785041
 30
0.000000
  0
VERTEX
  8
LAYER-1
 10
1.053327
 20
4.785041
 30
0.000000
  0
VERTEX
  8
LAYER-1
 10
1.053327
 20
4.485587
 30
0.000000
  0
SEQEND
  8
LAYER-1
  0
POLYLINE
  8
LAYER-1
 66
  1
 70
  0
 62
  7
 10
0.013899
 20
4.485199
 30
0.000000
  0
VERTEX
  8
LAYER-1
 10
0.013899
 20
4.485199
 30
0.000000
  0
VERTEX
  8
LAYER-1
 10
0.013889
 20
4.185939
 30
0.000000
  0
SEQEND
  8
LAYER-1
  0
POLYLINE
  8
LAYER-1
 66
  1
 70
  0
 62
  7
 10
1.053327
 20
4.185939
 30
0.000000
  0
VERTEX
  8
LAYER-1
 10
1.053327
 20
4.185939
 30
0.000000
  0
VERTEX
  8
LAYER-1
 10
1.053327
 20
3.886490
 30
0.000000
  0
SEQEND
  8
LAYER-1
  0
TEXT
  8
LAYER-1
 62
  0
 10
0.055241
 20
3.271051
 30
0.000000
 40
0.104167
  1
CONCEPT 1212
 72
  5
 11
1.180241
 21
3.271051
 31
0.000000
  0
POLYLINE
  8
LAYER-1
 66
  1
 70
  1
 62
  7
  0
VERTEX
  8
LAYER-1
 10
0.002543
 20
5.184373
 30
0.000000
  0
VERTEX
  8
LAYER-1
 10
0.152781
 20
5.184373
 30
0.000000
  0
VERTEX
  8
LAYER-1
 10
0.152781
 20
5.084719
 30
0.000000
  0
VERTEX
  8
LAYER-1
 10
0.002543
 20
5.084719
 30
0.000000
  0
SEQEND
  8
LAYER-1
  0
POLYLINE
  8
LAYER-1
 66
  1
 70
  1
 62
  7
  0
VERTEX
  8
LAYER-1
 10
0.152716
 20
5.184373
 30
0.000000
  0
VERTEX
  8
LAYER-1
 10
0.302953
 20
5.184373
 30
0.000000
  0
VERTEX
  8
LAYER-1
 10
0.302953
 20
5.084719
 30
0.000000
  0
VERTEX
  8
LAYER-1
 10
0.152716
 20
5.084719
 30
0.000000
  0
SEQEND
  8
LAYER-1
  0
POLYLINE
  8
LAYER-1
 66
  1
 70
  1
 62
  7
  0
VERTEX
  8
LAYER-1
 10
0.302742
 20
5.184373
 30
0.000000
  0
VERTEX
  8
LAYER-1
 10
0.452832
 20
5.184373
 30
0.000000
  0
VERTEX
  8
LAYER-1
 10
0.452832
 20
5.084719
 30
0.000000
  0
VERTEX
  8
LAYER-1
 10
0.302742
 20
5.084719
 30
0.000000
  0
SEQEND
  8
LAYER-1
  0
POLYLINE
  8
LAYER-1
 66
  1
 70
  1
 62
  7
  0
VERTEX
  8
LAYER-1
 10
0.452914
 20
5.184373
 30
0.000000
  0
VERTEX
  8
LAYER-1
 10
0.603005
 20
5.184373
 30
0.000000
  0
VERTEX
  8
LAYER-1
 10
0.603005
 20
5.084719
 30
0.000000
  0
VERTEX
  8
LAYER-1
 10
0.452914
 20
5.084719
 30
0.000000
  0
SEQEND
  8
LAYER-1
  0
POLYLINE
  8
LAYER-1
 66
  1
 70
  1
 62
  7
  0
VERTEX
  8
LAYER-1
 10
0.603087
 20
5.184373
 30
0.000000
  0
VERTEX
  8
LAYER-1
 10
0.753029
 20
5.184373
 30
0.000000
  0
VERTEX
  8
LAYER-1
 10
0.753029
 20
5.084719
 30
0.000000
  0
VERTEX
  8
LAYER-1
 10
0.603087
 20
5.084719
 30
0.000000
  0
SEQEND
  8
LAYER-1
  0
POLYLINE
  8
LAYER-1
 66
  1
 70
  1
 62
  7
  0
VERTEX
  8
LAYER-1
 10
0.752965
 20
5.184373
 30
0.000000
  0
VERTEX
  8
LAYER-1
 10
0.903202
 20
5.184373
 30
0.000000
  0
VERTEX
  8
LAYER-1
 10
0.903202
 20
5.084719
 30
0.000000
  0
VERTEX
  8
LAYER-1
 10
0.752965
 20
5.084719
 30
0.000000
  0
SEQEND
  8
LAYER-1
  0
POLYLINE
  8
LAYER-1
 66
  1
 70
  1
 62
  7
  0
VERTEX
  8
LAYER-1
 10
0.903137
 20
5.184373
 30
0.000000
  0
VERTEX
  8
LAYER-1
 10
1.064679
 20
5.184373
 30
0.000000
  0
VERTEX
  8
LAYER-1
 10
1.064679
 20
5.084719
 30
0.000000
  0
VERTEX
  8
LAYER-1
 10
0.903137
 20
5.084719
 30
0.000000
  0
SEQEND
  8
LAYER-1
  0
POLYLINE
  8
LAYER-1
 66
  1
 70
  0
 62
  7
 10
0.013889
 20
5.184434
 30
0.000000
  0
VERTEX
  8
LAYER-1
 10
0.013889
 20
5.184434
 30
0.000000
  0
VERTEX
  8
LAYER-1
 10
0.014036
 20
4.785158
 30
0.000000
  0
SEQEND
  8
LAYER-1
  0
POLYLINE
  8
LAYER-1
 66
  1
 70
  1
 62
  7
  0
VERTEX
  8
LAYER-1
 10
0.002543
 20
3.586956
 30
0.000000
  0
VERTEX
  8
LAYER-1
 10
0.152781
 20
3.586956
 30
0.000000
  0
VERTEX
  8
LAYER-1
 10
0.152781
 20
3.487303
 30
0.000000
  0
VERTEX
  8
LAYER-1
 10
0.002543
 20
3.487303
 30
0.000000
  0
SEQEND
  8
LAYER-1
  0
POLYLINE
  8
LAYER-1
 66
  1
 70
  1
 62
  7
  0
VERTEX
  8
LAYER-1
 10
0.152716
 20
3.586956
 30
0.000000
  0
VERTEX
  8
LAYER-1
 10
0.302953
 20
3.586956
 30
0.000000
  0
VERTEX
  8
LAYER-1
 10
0.302953
 20
3.487303
 30
0.000000
  0
VERTEX
  8
LAYER-1
 10
0.152716
 20
3.487303
 30
0.000000
  0
SEQEND
  8
LAYER-1
  0
POLYLINE
  8
LAYER-1
 66
  1
 70
  1
 62
  7
  0
VERTEX
  8
LAYER-1
 10
0.302742
 20
3.586956
 30
0.000000
  0
VERTEX
  8
LAYER-1
 10
0.452832
 20
3.586956
 30
0.000000
  0
VERTEX
  8
LAYER-1
 10
0.452832
 20
3.487303
 30
0.000000
  0
VERTEX
  8
LAYER-1
 10
0.302742
 20
3.487303
 30
0.000000
  0
SEQEND
  8
LAYER-1
  0
POLYLINE
  8
LAYER-1
 66
  1
 70
  1
 62
  7
  0
VERTEX
  8
LAYER-1
 10
0.452914
 20
3.586956
 30
0.000000
  0
VERTEX
  8
LAYER-1
 10
0.603005
 20
3.586956
 30
0.000000
  0
VERTEX
  8
LAYER-1
 10
0.603005
 20
3.487303
 30
0.000000
  0
VERTEX
  8
LAYER-1
 10
0.452914
 20
3.487303
 30
0.000000
  0
SEQEND
  8
LAYER-1
  0
POLYLINE
  8
LAYER-1
 66
  1
 70
  1
 62
  7
  0
VERTEX
  8
LAYER-1
 10
0.603087
 20
3.586956
 30
0.000000
  0
VERTEX
  8
LAYER-1
 10
0.753029
 20
3.586956
 30
0.000000
  0
VERTEX
  8
LAYER-1
 10
0.753029
 20
3.487303
 30
0.000000
  0
VERTEX
  8
LAYER-1
 10
0.603087
 20
3.487303
 30
0.000000
  0
SEQEND
  8
LAYER-1
  0
POLYLINE
  8
LAYER-1
 66
  1
 70
  1
 62
  7
  0
VERTEX
  8
LAYER-1
 10
0.752965
 20
3.586956
 30
0.000000
  0
VERTEX
  8
LAYER-1
 10
0.903202
 20
3.586956
 30
0.000000
  0
VERTEX
  8
LAYER-1
 10
0.903202
 20
3.487303
 30
0.000000
  0
VERTEX
  8
LAYER-1
 10
0.752965
 20
3.487303
 30
0.000000
  0
SEQEND
  8
LAYER-1
  0
POLYLINE
  8
LAYER-1
 66
  1
 70
  1
 62
  7
  0
VERTEX
  8
LAYER-1
 10
0.903137
 20
3.586956
 30
0.000000
  0
VERTEX
  8
LAYER-1
 10
1.064679
 20
3.586956
 30
0.000000
  0
VERTEX
  8
LAYER-1
 10
1.064679
 20
3.487303
 30
0.000000
  0
VERTEX
  8
LAYER-1
 10
0.903137
 20
3.487303
 30
0.000000
  0
SEQEND
  8
LAYER-1
  0
POLYLINE
  8
LAYER-1
 66
  1
 70
  0
 62
  7
 10
0.077685
 20
5.184384
 30
0.000000
  0
VERTEX
  8
LAYER-1
 10
0.077685
 20
5.184384
 30
0.000000
  0
VERTEX
  8
LAYER-1
 10
0.077685
 20
3.487214
 30
0.000000
  0
SEQEND
  8
LAYER-1
  0
POLYLINE
  8
LAYER-1
 66
  1
 70
  0
 62
  7
 10
0.088945
 20
5.184384
 30
0.000000
  0
VERTEX
  8
LAYER-1
 10
0.088945
 20
5.184384
 30
0.000000
  0
VERTEX
  8
LAYER-1
 10
0.088945
 20
3.487214
 30
0.000000
  0
SEQEND
  8
LAYER-1
  0
POLYLINE
  8
LAYER-1
 66
  1
 70
  0
 62
  7
 10
0.152732
 20
5.184384
 30
0.000000
  0
VERTEX
  8
LAYER-1
 10
0.152732
 20
5.184384
 30
0.000000
  0
VERTEX
  8
LAYER-1
 10
0.152732
 20
3.487214
 30
0.000000
  0
SEQEND
  8
LAYER-1
  0
POLYLINE
  8
LAYER-1
 66
  1
 70
  0
 62
  7
 10
0.163992
 20
5.184384
 30
0.000000
  0
VERTEX
  8
LAYER-1
 10
0.163992
 20
5.184384
 30
0.000000
  0
VERTEX
  8
LAYER-1
 10
0.163992
 20
3.487214
 30
0.000000
  0
SEQEND
  8
LAYER-1
  0
POLYLINE
  8
LAYER-1
 66
  1
 70
  0
 62
  7
 10
0.227778
 20
5.184384
 30
0.000000
  0
VERTEX
  8
LAYER-1
 10
0.227778
 20
5.184384
 30
0.000000
  0
VERTEX
  8
LAYER-1
 10
0.227778
 20
3.487214
 30
0.000000
  0
SEQEND
  8
LAYER-1
  0
POLYLINE
  8
LAYER-1
 66
  1
 70
  0
 62
  7
 10
0.239037
 20
5.184384
 30
0.000000
  0
VERTEX
  8
LAYER-1
 10
0.239037
 20
5.184384
 30
0.000000
  0
VERTEX
  8
LAYER-1
 10
0.239037
 20
3.487214
 30
0.000000
  0
SEQEND
  8
LAYER-1
  0
POLYLINE
  8
LAYER-1
 66
  1
 70
  0
 62
  7
 10
0.377870
 20
5.184384
 30
0.000000
  0
VERTEX
  8
LAYER-1
 10
0.377870
 20
5.184384
 30
0.000000
  0
VERTEX
  8
LAYER-1
 10
0.377870
 20
3.487214
 30
0.000000
  0
SEQEND
  8
LAYER-1
  0
POLYLINE
  8
LAYER-1
 66
  1
 70
  0
 62
  7
 10
0.389131
 20
5.184384
 30
0.000000
  0
VERTEX
  8
LAYER-1
 10
0.389131
 20
5.184384
 30
0.000000
  0
VERTEX
  8
LAYER-1
 10
0.389131
 20
3.487214
 30
0.000000
  0
SEQEND
  8
LAYER-1
  0
POLYLINE
  8
LAYER-1
 66
  1
 70
  0
 62
  7
 10
0.452917
 20
5.184384
 30
0.000000
  0
VERTEX
  8
LAYER-1
 10
0.452917
 20
5.184384
 30
0.000000
  0
VERTEX
  8
LAYER-1
 10
0.452917
 20
3.487214
 30
0.000000
  0
SEQEND
  8
LAYER-1
  0
POLYLINE
  8
LAYER-1
 66
  1
 70
  0
 62
  7
 10
0.464177
 20
5.184384
 30
0.000000
  0
VERTEX
  8
LAYER-1
 10
0.464177
 20
5.184384
 30
0.000000
  0
VERTEX
  8
LAYER-1
 10
0.464177
 20
3.487214
 30
0.000000
  0
SEQEND
  8
LAYER-1
  0
POLYLINE
  8
LAYER-1
 66
  1
 70
  0
 62
  7
 10
0.527962
 20
5.184384
 30
0.000000
  0
VERTEX
  8
LAYER-1
 10
0.527962
 20
5.184384
 30
0.000000
  0
VERTEX
  8
LAYER-1
 10
0.527962
 20
3.487214
 30
0.000000
  0
SEQEND
  8
LAYER-1
  0
POLYLINE
  8
LAYER-1
 66
  1
 70
  0
 62
  7
 10
0.539223
 20
5.184384
 30
0.000000
  0
VERTEX
  8
LAYER-1
 10
0.539223
 20
5.184384
 30
0.000000
  0
VERTEX
  8
LAYER-1
 10
0.539223
 20
3.487214
 30
0.000000
  0
SEQEND
  8
LAYER-1
  0
POLYLINE
  8
LAYER-1
 66
  1
 70
  0
 62
  7
 10
0.603009
 20
5.184384
 30
0.000000
  0
VERTEX
  8
LAYER-1
 10
0.603009
 20
5.184384
 30
0.000000
  0
VERTEX
  8
LAYER-1
 10
0.603009
 20
3.487214
 30
0.000000
  0
SEQEND
  8
LAYER-1
  0
POLYLINE
  8
LAYER-1
 66
  1
 70
  0
 62
  7
 10
0.614269
 20
5.184384
 30
0.000000
  0
VERTEX
  8
LAYER-1
 10
0.614269
 20
5.184384
 30
0.000000
  0
VERTEX
  8
LAYER-1
 10
0.614269
 20
3.487214
 30
0.000000
  0
SEQEND
  8
LAYER-1
  0
POLYLINE
  8
LAYER-1
 66
  1
 70
  0
 62
  7
 10
0.678055
 20
5.184384
 30
0.000000
  0
VERTEX
  8
LAYER-1
 10
0.678055
 20
5.184384
 30
0.000000
  0
VERTEX
  8
LAYER-1
 10
0.678055
 20
3.487214
 30
0.000000
  0
SEQEND
  8
LAYER-1
  0
POLYLINE
  8
LAYER-1
 66
  1
 70
  0
 62
  7
 10
0.689316
 20
5.184384
 30
0.000000
  0
VERTEX
  8
LAYER-1
 10
0.689316
 20
5.184384
 30
0.000000
  0
VERTEX
  8
LAYER-1
 10
0.689316
 20
3.487214
 30
0.000000
  0
SEQEND
  8
LAYER-1
  0
POLYLINE
  8
LAYER-1
 66
  1
 70
  0
 62
  7
 10
0.828148
 20
5.184384
 30
0.000000
  0
VERTEX
  8
LAYER-1
 10
0.828148
 20
5.184384
 30
0.000000
  0
VERTEX
  8
LAYER-1
 10
0.828148
 20
3.487214
 30
0.000000
  0
SEQEND
  8
LAYER-1
  0
POLYLINE
  8
LAYER-1
 66
  1
 70
  0
 62
  7
 10
0.839408
 20
5.184384
 30
0.000000
  0
VERTEX
  8
LAYER-1
 10
0.839408
 20
5.184384
 30
0.000000
  0
VERTEX
  8
LAYER-1
 10
0.839408
 20
3.487214
 30
0.000000
  0
SEQEND
  8
LAYER-1
  0
POLYLINE
  8
LAYER-1
 66
  1
 70
  0
 62
  7
 10
0.903194
 20
5.184384
 30
0.000000
  0
VERTEX
  8
LAYER-1
 10
0.903194
 20
5.184384
 30
0.000000
  0
VERTEX
  8
LAYER-1
 10
0.903194
 20
3.487214
 30
0.000000
  0
SEQEND
  8
LAYER-1
  0
POLYLINE
  8
LAYER-1
 66
  1
 70
  0
 62
  7
 10
0.914455
 20
5.184384
 30
0.000000
  0
VERTEX
  8
LAYER-1
 10
0.914455
 20
5.184384
 30
0.000000
  0
VERTEX
  8
LAYER-1
 10
0.914455
 20
3.487214
 30
0.000000
  0
SEQEND
  8
LAYER-1
  0
POLYLINE
  8
LAYER-1
 66
  1
 70
  0
 62
  7
 10
0.978240
 20
5.184384
 30
0.000000
  0
VERTEX
  8
LAYER-1
 10
0.978240
 20
5.184384
 30
0.000000
  0
VERTEX
  8
LAYER-1
 10
0.978240
 20
3.487214
 30
0.000000
  0
SEQEND
  8
LAYER-1
  0
POLYLINE
  8
LAYER-1
 66
  1
 70
  0
 62
  7
 10
0.989501
 20
5.184384
 30
0.000000
  0
VERTEX
  8
LAYER-1
 10
0.989501
 20
5.184384
 30
0.000000
  0
VERTEX
  8
LAYER-1
 10
0.989501
 20
3.487214
 30
0.000000
  0
SEQEND
  8
LAYER-1
  0
POLYLINE
  8
LAYER-1
 66
  1
 70
  0
 62
  7
 10
0.302824
 20
5.184384
 30
0.000000
  0
VERTEX
  8
LAYER-1
 10
0.302824
 20
5.184384
 30
0.000000
  0
VERTEX
  8
LAYER-1
 10
0.302824
 20
3.486984
 30
0.000000
  0
SEQEND
  8
LAYER-1
  0
POLYLINE
  8
LAYER-1
 66
  1
 70
  0
 62
  7
 10
0.314084
 20
5.184384
 30
0.000000
  0
VERTEX
  8
LAYER-1
 10
0.314084
 20
5.184384
 30
0.000000
  0
VERTEX
  8
LAYER-1
 10
0.314084
 20
3.486984
 30
0.000000
  0
SEQEND
  8
LAYER-1
  0
POLYLINE
  8
LAYER-1
 66
  1
 70
  0
 62
  7
 10
0.753101
 20
5.184134
 30
0.000000
  0
VERTEX
  8
LAYER-1
 10
0.753101
 20
5.184134
 30
0.000000
  0
VERTEX
  8
LAYER-1
 10
0.753101
 20
3.486986
 30
0.000000
  0
SEQEND
  8
LAYER-1
  0
POLYLINE
  8
LAYER-1
 66
  1
 70
  0
 62
  7
 10
0.764362
 20
5.184134
 30
0.000000
  0
VERTEX
  8
LAYER-1
 10
0.764362
 20
5.184134
 30
0.000000
  0
VERTEX
  8
LAYER-1
 10
0.764362
 20
3.486986
 30
0.000000
  0
SEQEND
  8
LAYER-1
  0
POLYLINE
  8
LAYER-1
 66
  1
 70
  0
 62
  7
 10
1.053327
 20
5.184588
 30
0.000000
  0
VERTEX
  8
LAYER-1
 10
1.053327
 20
5.184588
 30
0.000000
  0
VERTEX
  8
LAYER-1
 10
1.053327
 20
5.084769
 30
0.000000
  0
SEQEND
  8
LAYER-1
  0
POLYLINE
  8
LAYER-1
 66
  1
 70
  0
 62
  7
 10
0.014036
 20
3.886632
 30
0.000000
  0
VERTEX
  8
LAYER-1
 10
0.014036
 20
3.886632
 30
0.000000
  0
VERTEX
  8
LAYER-1
 10
0.013889
 20
3.487198
 30
0.000000
  0
SEQEND
  8
LAYER-1
  0
POLYLINE
  8
LAYER-1
 66
  1
 70
  0
 62
  7
 10
1.053474
 20
3.587020
 30
0.000000
  0
VERTEX
  8
LAYER-1
 10
1.053474
 20
3.587020
 30
0.000000
  0
VERTEX
  8
LAYER-1
 10
1.053327
 20
3.487354
 30
0.000000
  0
SEQEND
  8
LAYER-1
  0
TEXT
  8
LAYER-1
 62
  0
 10
0.291352
 20
3.201607
 30
0.000000
 40
0.083333
  1
(Calado)
 72
  5
 11
0.777463
 21
3.201607
 31
0.000000
  0
POLYLINE
  8
LAYER-1
 66
  1
 70
  0
 62
  0
 10
0.735963
 20
0.037542
 30
0.000000
  0
VERTEX
  8
LAYER-1
 10
0.735963
 20
0.037542
 30
0.000000
  0
VERTEX
  8
LAYER-1
 10
0.762451
 20
0.034087
 30
0.000000
  0
VERTEX
  8
LAYER-1
 10
0.781791
 20
0.034087
 30
0.000000
  0
VERTEX
  8
LAYER-1
 10
0.801132
 20
0.037559
 30
0.000000
  0
VERTEX
  8
LAYER-1
 10
0.820472
 20
0.037559
 30
0.000000
  0
VERTEX
  8
LAYER-1
 10
0.866889
 20
0.044502
 30
0.000000
  0
VERTEX
  8
LAYER-1
 10
0.901702
 20
0.054920
 30
0.000000
  0
VERTEX
  8
LAYER-1
 10
0.923943
 20
0.059260
 30
0.000000
  0
VERTEX
  8
LAYER-1
 10
0.945701
 20
0.060996
 30
0.000000
  0
VERTEX
  8
LAYER-1
 10
0.975195
 20
0.058391
 30
0.000000
  0
VERTEX
  8
LAYER-1
 10
1.006139
 20
0.054920
 30
0.000000
  0
VERTEX
  8
LAYER-1
 10
1.033216
 20
0.047976
 30
0.000000
  0
VERTEX
  8
LAYER-1
 10
1.052556
 20
0.044502
 30
0.000000
  0
VERTEX
  8
LAYER-1
 10
1.083501
 20
0.041031
 30
0.000000
  0
VERTEX
  8
LAYER-1
 10
1.102841
 20
0.037559
 30
0.000000
  0
VERTEX
  8
LAYER-1
 10
1.126050
 20
0.034087
 30
0.000000
  0
VERTEX
  8
LAYER-1
 10
1.153126
 20
0.034087
 30
0.000000
  0
VERTEX
  8
LAYER-1
 10
1.180202
 20
0.034087
 30
0.000000
  0
VERTEX
  8
LAYER-1
 10
1.203411
 20
0.034087
 30
0.000000
  0
VERTEX
  8
LAYER-1
 10
1.226619
 20
0.030615
 30
0.000000
  0
VERTEX
  8
LAYER-1
 10
1.265301
 20
0.030615
 30
0.000000
  0
VERTEX
  8
LAYER-1
 10
1.296245
 20
0.030615
 30
0.000000
  0
VERTEX
  8
LAYER-1
 10
1.315586
 20
0.027141
 30
0.000000
  0
VERTEX
  8
LAYER-1
 10
1.346530
 20
0.023670
 30
0.000000
  0
VERTEX
  8
LAYER-1
 10
1.377475
 20
0.020198
 30
0.000000
  0
VERTEX
  8
LAYER-1
 10
1.416156
 20
0.020198
 30
0.000000
  0
VERTEX
  8
LAYER-1
 10
1.447100
 20
0.020198
 30
0.000000
  0
VERTEX
  8
LAYER-1
 10
1.485781
 20
0.020198
 30
0.000000
  0
VERTEX
  8
LAYER-1
 10
1.516726
 20
0.027141
 30
0.000000
  0
VERTEX
  8
LAYER-1
 10
1.539934
 20
0.027141
 30
0.000000
  0
VERTEX
  8
LAYER-1
 10
1.559274
 20
0.030615
 30
0.000000
  0
VERTEX
  8
LAYER-1
 10
1.582483
 20
0.030615
 30
0.000000
  0
VERTEX
  8
LAYER-1
 10
1.601823
 20
0.030615
 30
0.000000
  0
VERTEX
  8
LAYER-1
 10
1.644372
 20
0.030615
 30
0.000000
  0
VERTEX
  8
LAYER-1
 10
1.690789
 20
0.023670
 30
0.000000
  0
VERTEX
  8
LAYER-1
 10
1.733337
 20
0.020198
 30
0.000000
  0
VERTEX
  8
LAYER-1
 10
1.795227
 20
0.013252
 30
0.000000
  0
VERTEX
  8
LAYER-1
 10
1.853248
 20
0.006309
 30
0.000000
  0
VERTEX
  8
LAYER-1
 10
1.903532
 20
0.006309
 30
0.000000
  0
VERTEX
  8
LAYER-1
 10
1.930609
 20
0.006309
 30
0.000000
  0
VERTEX
  8
LAYER-1
 10
1.965422
 20
0.006309
 30
0.000000
  0
VERTEX
  8
LAYER-1
 10
1.985729
 20
0.007178
 30
0.000000
  0
VERTEX
  8
LAYER-1
 10
2.022959
 20
0.009346
 30
0.000000
  0
VERTEX
  8
LAYER-1
 10
2.069859
 20
0.020198
 30
0.000000
  0
VERTEX
  8
LAYER-1
 10
2.112408
 20
0.034087
 30
0.000000
  0
VERTEX
  8
LAYER-1
 10
2.147221
 20
0.044502
 30
0.000000
  0
VERTEX
  8
LAYER-1
 10
2.174297
 20
0.054920
 30
0.000000
  0
VERTEX
  8
LAYER-1
 10
2.197506
 20
0.061865
 30
0.000000
  0
VERTEX
  8
LAYER-1
 10
2.220714
 20
0.061865
 30
0.000000
  0
VERTEX
  8
LAYER-1
 10
2.243923
 20
0.061865
 30
0.000000
  0
VERTEX
  8
LAYER-1
 10
2.267131
 20
0.061865
 30
0.000000
  0
VERTEX
  8
LAYER-1
 10
2.301943
 20
0.054920
 30
0.000000
  0
VERTEX
  8
LAYER-1
 10
2.332888
 20
0.047976
 30
0.000000
  0
VERTEX
  8
LAYER-1
 10
2.356097
 20
0.041031
 30
0.000000
  0
VERTEX
  8
LAYER-1
 10
2.375437
 20
0.037559
 30
0.000000
  0
VERTEX
  8
LAYER-1
 10
2.398645
 20
0.030615
 30
0.000000
  0
VERTEX
  8
LAYER-1
 10
2.417986
 20
0.023670
 30
0.000000
  0
VERTEX
  8
LAYER-1
 10
2.441194
 20
0.020198
 30
0.000000
  0
VERTEX
  8
LAYER-1
 10
2.460534
 20
0.020198
 30
0.000000
  0
VERTEX
  8
LAYER-1
 10
2.491479
 20
0.016726
 30
0.000000
  0
VERTEX
  8
LAYER-1
 10
2.518556
 20
0.016726
 30
0.000000
  0
VERTEX
  8
LAYER-1
 10
2.553368
 20
0.016726
 30
0.000000
  0
VERTEX
  8
LAYER-1
 10
2.580445
 20
0.020198
 30
0.000000
  0
VERTEX
  8
LAYER-1
 10
2.615257
 20
0.030615
 30
0.000000
  0
VERTEX
  8
LAYER-1
 10
2.634597
 20
0.030615
 30
0.000000
  0
VERTEX
  8
LAYER-1
 10
2.657806
 20
0.030615
 30
0.000000
  0
VERTEX
  8
LAYER-1
 10
2.677146
 20
0.030615
 30
0.000000
  0
VERTEX
  8
LAYER-1
 10
2.700355
 20
0.034087
 30
0.000000
  0
VERTEX
  8
LAYER-1
 10
2.723563
 20
0.037559
 30
0.000000
  0
VERTEX
  8
LAYER-1
 10
2.754508
 20
0.037559
 30
0.000000
  0
VERTEX
  8
LAYER-1
 10
2.785453
 20
0.037559
 30
0.000000
  0
VERTEX
  8
LAYER-1
 10
2.808661
 20
0.037559
 30
0.000000
  0
VERTEX
  8
LAYER-1
 10
2.831869
 20
0.037559
 30
0.000000
  0
VERTEX
  8
LAYER-1
 10
2.851209
 20
0.034087
 30
0.000000
  0
VERTEX
  8
LAYER-1
 10
2.870550
 20
0.030615
 30
0.000000
  0
VERTEX
  8
LAYER-1
 10
2.889890
 20
0.027141
 30
0.000000
  0
VERTEX
  8
LAYER-1
 10
2.909231
 20
0.023670
 30
0.000000
  0
VERTEX
  8
LAYER-1
 10
2.940175
 20
0.016726
 30
0.000000
  0
VERTEX
  8
LAYER-1
 10
2.963384
 20
0.013252
 30
0.000000
  0
VERTEX
  8
LAYER-1
 10
2.986592
 20
0.013252
 30
0.000000
  0
VERTEX
  8
LAYER-1
 10
3.005933
 20
0.013252
 30
0.000000
  0
VERTEX
  8
LAYER-1
 10
3.033009
 20
0.013252
 30
0.000000
  0
VERTEX
  8
LAYER-1
 10
3.063954
 20
0.016726
 30
0.000000
  0
VERTEX
  8
LAYER-1
 10
3.118107
 20
0.027141
 30
0.000000
  0
VERTEX
  8
LAYER-1
 10
3.164524
 20
0.037559
 30
0.000000
  0
VERTEX
  8
LAYER-1
 10
3.207072
 20
0.044502
 30
0.000000
  0
VERTEX
  8
LAYER-1
 10
3.238018
 20
0.047976
 30
0.000000
  0
VERTEX
  8
LAYER-1
 10
3.276697
 20
0.051448
 30
0.000000
  0
VERTEX
  8
LAYER-1
 10
3.307643
 20
0.054920
 30
0.000000
  0
VERTEX
  8
LAYER-1
 10
3.333268
 20
0.055789
 30
0.000000
  0
VERTEX
  8
LAYER-1
 10
3.350675
 20
0.053619
 30
0.000000
  0
VERTEX
  8
LAYER-1
 10
3.371949
 20
0.048843
 30
0.000000
  0
VERTEX
  8
LAYER-1
 10
3.392740
 20
0.037559
 30
0.000000
  0
VERTEX
  8
LAYER-1
 10
3.415948
 20
0.034087
 30
0.000000
  0
VERTEX
  8
LAYER-1
 10
3.435289
 20
0.034087
 30
0.000000
  0
VERTEX
  8
LAYER-1
 10
3.454629
 20
0.034087
 30
0.000000
  0
VERTEX
  8
LAYER-1
 10
3.473970
 20
0.034087
 30
0.000000
  0
VERTEX
  8
LAYER-1
 10
3.504915
 20
0.034087
 30
0.000000
  0
VERTEX
  8
LAYER-1
 10
3.528123
 20
0.034087
 30
0.000000
  0
VERTEX
  8
LAYER-1
 10
3.551332
 20
0.034087
 30
0.000000
  0
VERTEX
  8
LAYER-1
 10
3.570672
 20
0.034087
 30
0.000000
  0
VERTEX
  8
LAYER-1
 10
3.593881
 20
0.034087
 30
0.000000
  0
VERTEX
  8
LAYER-1
 10
3.617088
 20
0.034087
 30
0.000000
  0
VERTEX
  8
LAYER-1
 10
3.636430
 20
0.034087
 30
0.000000
  0
VERTEX
  8
LAYER-1
 10
3.663506
 20
0.034087
 30
0.000000
  0
VERTEX
  8
LAYER-1
 10
3.686714
 20
0.030615
 30
0.000000
  0
VERTEX
  8
LAYER-1
 10
3.708956
 20
0.022803
 30
0.000000
  0
VERTEX
  8
LAYER-1
 10
3.749571
 20
0.020198
 30
0.000000
  0
VERTEX
  8
LAYER-1
 10
3.787284
 20
0.023670
 30
0.000000
  0
VERTEX
  8
LAYER-1
 10
3.806625
 20
0.030615
 30
0.000000
  0
VERTEX
  8
LAYER-1
 10
3.829833
 20
0.037559
 30
0.000000
  0
VERTEX
  8
LAYER-1
 10
3.849657
 20
0.041465
 30
0.000000
  0
VERTEX
  8
LAYER-1
 10
3.872382
 20
0.047976
 30
0.000000
  0
VERTEX
  8
LAYER-1
 10
3.895590
 20
0.047976
 30
0.000000
  0
VERTEX
  8
LAYER-1
 10
3.918799
 20
0.044502
 30
0.000000
  0
VERTEX
  8
LAYER-1
 10
3.942008
 20
0.044502
 30
0.000000
  0
VERTEX
  8
LAYER-1
 10
3.965215
 20
0.044502
 30
0.000000
  0
VERTEX
  8
LAYER-1
 10
3.984556
 20
0.041031
 30
0.000000
  0
VERTEX
  8
LAYER-1
 10
4.011633
 20
0.041031
 30
0.000000
  0
VERTEX
  8
LAYER-1
 10
4.042578
 20
0.041031
 30
0.000000
  0
VERTEX
  8
LAYER-1
 10
4.073522
 20
0.047976
 30
0.000000
  0
VERTEX
  8
LAYER-1
 10
4.092862
 20
0.051448
 30
0.000000
  0
VERTEX
  8
LAYER-1
 10
4.119939
 20
0.051448
 30
0.000000
  0
VERTEX
  8
LAYER-1
 10
4.143147
 20
0.054920
 30
0.000000
  0
VERTEX
  8
LAYER-1
 10
4.174091
 20
0.058391
 30
0.000000
  0
VERTEX
  8
LAYER-1
 10
4.197300
 20
0.058391
 30
0.000000
  0
VERTEX
  8
LAYER-1
 10
4.228245
 20
0.054920
 30
0.000000
  0
VERTEX
  8
LAYER-1
 10
4.270794
 20
0.044502
 30
0.000000
  0
VERTEX
  8
LAYER-1
 10
4.301738
 20
0.034087
 30
0.000000
  0
VERTEX
  8
LAYER-1
 10
4.336550
 20
0.023670
 30
0.000000
  0
VERTEX
  8
LAYER-1
 10
4.379583
 20
0.016724
 30
0.000000
  0
VERTEX
  8
LAYER-1
 10
4.426967
 20
0.017593
 30
0.000000
  0
VERTEX
  8
LAYER-1
 10
4.482087
 20
0.020196
 30
0.000000
  0
VERTEX
  8
LAYER-1
 10
4.549294
 20
0.020196
 30
0.000000
  0
VERTEX
  8
LAYER-1
 10
4.594745
 20
0.008912
 30
0.000000
  0
VERTEX
  8
LAYER-1
 10
4.624722
 20
0.002835
 30
0.000000
  0
VERTEX
  8
LAYER-1
 10
4.647931
 20
0.001968
 30
0.000000
  0
VERTEX
  8
LAYER-1
 10
4.682743
 20
0.001968
 30
0.000000
  0
VERTEX
  8
LAYER-1
 10
4.707886
 20
0.006309
 30
0.000000
  0
VERTEX
  8
LAYER-1
 10
4.734962
 20
0.016726
 30
0.000000
  0
VERTEX
  8
LAYER-1
 10
4.769775
 20
0.023670
 30
0.000000
  0
VERTEX
  8
LAYER-1
 10
4.796852
 20
0.030615
 30
0.000000
  0
VERTEX
  8
LAYER-1
 10
4.820059
 20
0.034087
 30
0.000000
  0
VERTEX
  8
LAYER-1
 10
4.843267
 20
0.037559
 30
0.000000
  0
VERTEX
  8
LAYER-1
 10
4.870344
 20
0.041031
 30
0.000000
  0
VERTEX
  8
LAYER-1
 10
4.897420
 20
0.047976
 30
0.000000
  0
VERTEX
  8
LAYER-1
 10
4.916761
 20
0.051448
 30
0.000000
  0
VERTEX
  8
LAYER-1
 10
4.947706
 20
0.054920
 30
0.000000
  0
VERTEX
  8
LAYER-1
 10
4.970915
 20
0.061865
 30
0.000000
  0
VERTEX
  8
LAYER-1
 10
4.994607
 20
0.072715
 30
0.000000
  0
VERTEX
  8
LAYER-1
 10
5.017331
 20
0.079226
 30
0.000000
  0
VERTEX
  8
LAYER-1
 10
5.040540
 20
0.079226
 30
0.000000
  0
VERTEX
  8
LAYER-1
 10
5.067616
 20
0.079226
 30
0.000000
  0
VERTEX
  8
LAYER-1
 10
5.094692
 20
0.079226
 30
0.000000
  0
VERTEX
  8
LAYER-1
 10
5.133374
 20
0.075752
 30
0.000000
  0
VERTEX
  8
LAYER-1
 10
5.187527
 20
0.072281
 30
0.000000
  0
VERTEX
  8
LAYER-1
 10
5.230075
 20
0.072281
 30
0.000000
  0
VERTEX
  8
LAYER-1
 10
5.261020
 20
0.072281
 30
0.000000
  0
VERTEX
  8
LAYER-1
 10
5.284228
 20
0.072281
 30
0.000000
  0
VERTEX
  8
LAYER-1
 10
5.307437
 20
0.072281
 30
0.000000
  0
VERTEX
  8
LAYER-1
 10
5.338382
 20
0.075752
 30
0.000000
  0
VERTEX
  8
LAYER-1
 10
5.377062
 20
0.075752
 30
0.000000
  0
VERTEX
  8
LAYER-1
 10
5.408006
 20
0.075752
 30
0.000000
  0
VERTEX
  8
LAYER-1
 10
5.431215
 20
0.079226
 30
0.000000
  0
VERTEX
  8
LAYER-1
 10
5.462159
 20
0.079226
 30
0.000000
  0
VERTEX
  8
LAYER-1
 10
5.481501
 20
0.079226
 30
0.000000
  0
VERTEX
  8
LAYER-1
 10
5.512444
 20
0.070545
 30
0.000000
  0
VERTEX
  8
LAYER-1
 10
5.539521
 20
0.058391
 30
0.000000
  0
VERTEX
  8
LAYER-1
 10
5.574333
 20
0.044502
 30
0.000000
  0
VERTEX
  8
LAYER-1
 10
5.601409
 20
0.037559
 30
0.000000
  0
VERTEX
  8
LAYER-1
 10
5.632354
 20
0.030615
 30
0.000000
  0
VERTEX
  8
LAYER-1
 10
5.659915
 20
0.028445
 30
0.000000
  0
VERTEX
  8
LAYER-1
 10
5.686507
 20
0.027141
 30
0.000000
  0
VERTEX
  8
LAYER-1
 10
5.709716
 20
0.030615
 30
0.000000
  0
VERTEX
  8
LAYER-1
 10
5.732924
 20
0.037559
 30
0.000000
  0
VERTEX
  8
LAYER-1
 10
5.760001
 20
0.041031
 30
0.000000
  0
VERTEX
  8
LAYER-1
 10
5.783209
 20
0.044502
 30
0.000000
  0
VERTEX
  8
LAYER-1
 10
5.806418
 20
0.047976
 30
0.000000
  0
VERTEX
  8
LAYER-1
 10
5.825757
 20
0.051448
 30
0.000000
  0
VERTEX
  8
LAYER-1
 10
5.848966
 20
0.051448
 30
0.000000
  0
VERTEX
  8
LAYER-1
 10
5.876043
 20
0.051448
 30
0.000000
  0
VERTEX
  8
LAYER-1
 10
5.895867
 20
0.054053
 30
0.000000
  0
VERTEX
  8
LAYER-1
 10
5.922459
 20
0.058391
 30
0.000000
  0
VERTEX
  8
LAYER-1
 10
5.945668
 20
0.065337
 30
0.000000
  0
VERTEX
  8
LAYER-1
 10
5.976613
 20
0.065337
 30
0.000000
  0
VERTEX
  8
LAYER-1
 10
6.007557
 20
0.065337
 30
0.000000
  0
VERTEX
  8
LAYER-1
 10
6.026897
 20
0.065337
 30
0.000000
  0
VERTEX
  8
LAYER-1
 10
6.081050
 20
0.058391
 30
0.000000
  0
VERTEX
  8
LAYER-1
 10
6.111995
 20
0.051448
 30
0.000000
  0
VERTEX
  8
LAYER-1
 10
6.131336
 20
0.047976
 30
0.000000
  0
VERTEX
  8
LAYER-1
 10
6.166148
 20
0.047976
 30
0.000000
  0
VERTEX
  8
LAYER-1
 10
6.189839
 20
0.055354
 30
0.000000
  0
VERTEX
  8
LAYER-1
 10
6.211598
 20
0.056221
 30
0.000000
  0
VERTEX
  8
LAYER-1
 10
6.263334
 20
0.063166
 30
0.000000
  0
VERTEX
  8
LAYER-1
 10
6.311684
 20
0.073150
 30
0.000000
  0
VERTEX
  8
LAYER-1
 10
6.347947
 20
0.076621
 30
0.000000
  0
VERTEX
  8
LAYER-1
 10
6.380825
 20
0.077056
 30
0.000000
  0
VERTEX
  8
LAYER-1
 10
6.397748
 20
0.072281
 30
0.000000
  0
VERTEX
  8
LAYER-1
 10
6.416121
 20
0.068809
 30
0.000000
  0
VERTEX
  8
LAYER-1
 10
6.447066
 20
0.063601
 30
0.000000
  0
VERTEX
  8
LAYER-1
 10
6.487198
 20
0.071846
 30
0.000000
  0
VERTEX
  8
LAYER-1
 10
6.502670
 20
0.079226
 30
0.000000
  0
VERTEX
  8
LAYER-1
 10
6.525880
 20
0.079226
 30
0.000000
  0
VERTEX
  8
LAYER-1
 10
6.549088
 20
0.079226
 30
0.000000
  0
VERTEX
  8
LAYER-1
 10
6.576163
 20
0.072281
 30
0.000000
  0
VERTEX
  8
LAYER-1
 10
6.599372
 20
0.058391
 30
0.000000
  0
VERTEX
  8
LAYER-1
 10
6.626449
 20
0.047976
 30
0.000000
  0
VERTEX
  8
LAYER-1
 10
6.653525
 20
0.037559
 30
0.000000
  0
VERTEX
  8
LAYER-1
 10
6.676734
 20
0.037559
 30
0.000000
  0
VERTEX
  8
LAYER-1
 10
6.706766
 20
0.037542
 30
0.000000
  0
VERTEX
  8
LAYER-1
 10
6.730886
 20
0.047976
 30
0.000000
  0
SEQEND
  8
LAYER-1
  0
POLYLINE
  8
LAYER-1
 66
  1
 70
  0
 62
  0
 10
5.802979
 20
0.468113
 30
0.000000
  0
VERTEX
  8
LAYER-1
 10
5.802979
 20
0.468113
 30
0.000000
  0
VERTEX
  8
LAYER-1
 10
3.739112
 20
0.158534
 30
0.000000
  0
SEQEND
  8
LAYER-1
  0
POLYLINE
  8
LAYER-1
 66
  1
 70
  1
 62
  0
  0
VERTEX
  8
LAYER-1
 10
3.719645
 20
0.155613
 30
0.000000
  0
VERTEX
  8
LAYER-1
 10
3.782140
 20
0.207120
 30
0.000000
  0
VERTEX
  8
LAYER-1
 10
3.788321
 20
0.165915
 30
0.000000
  0
VERTEX
  8
LAYER-1
 10
3.794502
 20
0.124709
 30
0.000000
  0
VERTEX
  8
LAYER-1
 10
3.719645
 20
0.155613
 30
0.000000
  0
SEQEND
  8
LAYER-1
  0
LINE
  8
LAYER-1
 62
  0
 10
5.836491
 20
7.458551
 30
0.000000
 11
5.836491
 21
7.190513
 31
0.000000
  0
LINE
  8
LAYER-1
 62
  0
 10
5.753369
 20
7.458551
 30
0.000000
 11
5.961491
 21
7.458551
 31
0.000000
  0
LINE
  8
LAYER-1
 62
  0
 10
5.759232
 20
7.190513
 30
0.000000
 11
5.961491
 21
7.190513
 31
0.000000
  0
LINE
  8
LAYER-1
 62
  0
 10
5.865954
 20
7.429088
 30
0.000000
 11
5.807028
 21
7.488013
 31
0.000000
  0
LINE
  8
LAYER-1
 62
  0
 10
5.865954
 20
7.161050
 30
0.000000
 11
5.807028
 21
7.219975
 31
0.000000
  0
TEXT
  8
LAYER-1
 62
  0
 10
5.713929
 20
7.316168
 30
0.000000
 40
0.125000
  1
 
 50
90.000000
  0
TEXT
  8
LAYER-1
 62
  0
 10
6.152463
 20
7.340496
 30
0.000000
 40
0.125000
  1
4"
 72
  5
 11
6.374685
 21
7.340496
 31
0.000000
  0
TEXT
  8
LAYER-1
 62
  0
 10
5.930241
 20
7.146051
 30
0.000000
 40
0.125000
  1
102mm
 72
  5
 11
6.596908
 21
7.146051
 31
0.000000
  0
LINE
  8
LAYER-1
 62
  0
 10
4.443261
 20
7.721761
 30
0.000000
 11
4.852983
 21
7.721761
 31
0.000000
  0
LINE
  8
LAYER-1
 62
  0
 10
4.443261
 20
7.351971
 30
0.000000
 11
4.443261
 21
7.846761
 31
0.000000
  0
LINE
  8
LAYER-1
 62
  0
 10
4.852983
 20
7.350234
 30
0.000000
 11
4.852983
 21
7.846761
 31
0.000000
  0
LINE
  8
LAYER-1
 62
  0
 10
4.472723
 20
7.751224
 30
0.000000
 11
4.413798
 21
7.692298
 31
0.000000
  0
LINE
  8
LAYER-1
 62
  0
 10
4.882446
 20
7.751224
 30
0.000000
 11
4.823520
 21
7.692298
 31
0.000000
  0
TEXT
  8
LAYER-1
 62
  0
 10
4.639559
 20
7.845964
 30
0.000000
 40
0.125000
  1
 
  0
TEXT
  8
LAYER-1
 62
  0
 10
4.541352
 20
8.090496
 30
0.000000
 40
0.125000
  1
6"
 72
  5
 11
4.763574
 21
8.090496
 31
0.000000
  0
TEXT
  8
LAYER-1
 62
  0
 10
4.319130
 20
7.896051
 30
0.000000
 40
0.125000
  1
152mm
 72
  5
 11
4.985797
 21
7.896051
 31
0.000000
  0
TEXT
  8
LAYER-1
 62
  0
 10
1.763574
 20
8.521051
 30
0.000000
 40
0.125000
  1
CALADO
 72
  5
 11
2.499685
 21
8.521051
 31
0.000000
  0
TEXT
  8
LAYER-1
 62
  0
 10
5.819130
 20
0.548829
 30
0.000000
 40
0.125000
  1
Casquillo
 72
  5
 11
6.624685
 21
0.548829
 31
0.000000
  0
TEXT
  8
LAYER-1
 62
  0
 10
5.819130
 20
0.354385
 30
0.000000
 40
0.125000
  1
anti-polvo
 72
  5
 11
6.624685
 21
0.354385
 31
0.000000
  0
ENDSEC
  0
EOF
