  0
SECTION
  2
HEADER
999
MacDraft 5.0\0
  9
$ACADVER
  1
AC1006
  9
$CLAYER
  8
LAYER-1
  9
$EXTMIN
 10
0.000000
 20
0.000000
  9
$EXTMAX
 10
6.764222
 20
10.034499
  9
$FASTZOOM
 70
0
  9
$FILLMODE
 70
1
  0
ENDSEC
  0
SECTION
  2
TABLES
  0
TABLE
  2
LTYPE
 70
16
  0
LTYPE
  2
CONTINUOUS
 70
64
  3
Solid Line
 72
65
 73
0
 40
0.000000
  0
LTYPE
  2
LTYPE01
 70
64
  3
CUSTOM
 72
65
 73
2
 40
0.111111
 49
0.083333
 49
-0.027778
  0
LTYPE
  2
LTYPE02
 70
64
  3
CUSTOM
 72
65
 73
2
 40
0.194444
 49
0.166667
 49
-0.027778
  0
LTYPE
  2
LTYPE03
 70
64
  3
CUSTOM
 72
65
 73
2
 40
0.375000
 49
0.333333
 49
-0.041667
  0
LTYPE
  2
LTYPE04
 70
64
  3
CUSTOM
 72
65
 73
2
 40
0.722222
 49
0.666667
 49
-0.055556
  0
LTYPE
  2
LTYPE05
 70
64
  3
CUSTOM
 72
65
 73
4
 40
0.152778
 49
0.083333
 49
-0.027778
 49
0.013889
 49
-0.027778
  0
LTYPE
  2
LTYPE06
 70
64
  3
CUSTOM
 72
65
 73
4
 40
0.236111
 49
0.166667
 49
-0.027778
 49
0.013889
 49
-0.027778
  0
LTYPE
  2
LTYPE07
 70
64
  3
CUSTOM
 72
65
 73
4
 40
0.444444
 49
0.333333
 49
-0.041667
 49
0.027778
 49
-0.041667
  0
LTYPE
  2
LTYPE08
 70
64
  3
CUSTOM
 72
65
 73
4
 40
0.805556
 49
0.666667
 49
-0.055556
 49
0.027778
 49
-0.055556
  0
LTYPE
  2
LTYPE09
 70
64
  3
CUSTOM
 72
65
 73
6
 40
0.194444
 49
0.083333
 49
-0.027778
 49
0.013889
 49
-0.027778
 49
0.013889
 49
-0.027778
  0
LTYPE
  2
LTYPE10
 70
64
  3
CUSTOM
 72
65
 73
6
 40
0.277778
 49
0.166667
 49
-0.027778
 49
0.013889
 49
-0.027778
 49
0.013889
 49
-0.027778
  0
LTYPE
  2
LTYPE11
 70
64
  3
CUSTOM
 72
65
 73
6
 40
0.500000
 49
0.333333
 49
-0.041667
 49
0.027778
 49
-0.027778
 49
0.027778
 49
-0.041667
  0
LTYPE
  2
LTYPE12
 70
64
  3
CUSTOM
 72
65
 73
6
 40
0.861111
 49
0.666667
 49
-0.055556
 49
0.027778
 49
-0.027778
 49
0.027778
 49
-0.055556
  0
LTYPE
  2
LTYPE13
 70
64
  3
CUSTOM
 72
65
 73
8
 40
0.319444
 49
0.166667
 49
-0.027778
 49
0.013889
 49
-0.027778
 49
0.013889
 49
-0.027778
 49
0.013889
 49
-0.027778
  0
LTYPE
  2
LTYPE14
 70
64
  3
CUSTOM
 72
65
 73
8
 40
0.555556
 49
0.333333
 49
-0.041667
 49
0.027778
 49
-0.027778
 49
0.027778
 49
-0.027778
 49
0.027778
 49
-0.041667
  0
LTYPE
  2
LTYPE15
 70
64
  3
CUSTOM
 72
65
 73
8
 40
0.944444
 49
0.666667
 49
-0.055556
 49
0.027778
 49
-0.041667
 49
0.027778
 49
-0.041667
 49
0.027778
 49
-0.055556
  0
ENDTAB
  0
TABLE
  2
LAYER
 70
1
  0
LAYER
  2
LAYER-1
 70
0
 62
7
  6
CONTINUOUS
  0
ENDTAB
  0
ENDSEC
  0
SECTION
  2
BLOCKS
  0
ENDSEC
  0
SECTION
  2
ENTITIES
  0
POLYLINE
  8
LAYER-1
 66
  1
 70
  0
 62
  0
 10
3.440332
 20
0.211792
 30
0.000000
  0
VERTEX
  8
LAYER-1
 10
3.440332
 20
0.211792
 30
0.000000
  0
VERTEX
  8
LAYER-1
 10
3.440332
 20
0.210602
 30
0.000000
  0
SEQEND
  8
LAYER-1
  0
POLYLINE
  8
LAYER-1
 66
  1
 70
  1
 62
  0
 10
1.268474
 20
0.116624
 30
0.000000
  0
VERTEX
  8
LAYER-1
 10
1.268474
 20
0.116624
 30
0.000000
  0
VERTEX
  8
LAYER-1
 10
1.275419
 20
0.090583
 30
0.000000
  0
VERTEX
  8
LAYER-1
 10
1.300593
 20
0.104471
 30
0.000000
  0
SEQEND
  8
LAYER-1
  0
POLYLINE
  8
LAYER-1
 66
  1
 70
  1
 62
  0
 10
1.458579
 20
0.221657
 30
0.000000
  0
VERTEX
  8
LAYER-1
 10
1.458579
 20
0.221657
 30
0.000000
  0
VERTEX
  8
LAYER-1
 10
1.445559
 20
0.199087
 30
0.000000
  0
VERTEX
  8
LAYER-1
 10
1.475941
 20
0.219920
 30
0.000000
  0
SEQEND
  8
LAYER-1
  0
POLYLINE
  8
LAYER-1
 66
  1
 70
  1
 62
  0
 10
1.104413
 20
0.157422
 30
0.000000
  0
VERTEX
  8
LAYER-1
 10
1.104413
 20
0.157422
 30
0.000000
  0
VERTEX
  8
LAYER-1
 10
1.087920
 20
0.132248
 30
0.000000
  0
VERTEX
  8
LAYER-1
 10
1.102676
 20
0.124435
 30
0.000000
  0
SEQEND
  8
LAYER-1
  0
POLYLINE
  8
LAYER-1
 66
  1
 70
  0
 62
  0
 10
1.271079
 20
0.158291
 30
0.000000
  0
VERTEX
  8
LAYER-1
 10
1.271079
 20
0.158291
 30
0.000000
  0
VERTEX
  8
LAYER-1
 10
1.266739
 20
0.158291
 30
0.000000
  0
VERTEX
  8
LAYER-1
 10
1.263267
 20
0.153951
 30
0.000000
  0
VERTEX
  8
LAYER-1
 10
1.262399
 20
0.148743
 30
0.000000
  0
VERTEX
  8
LAYER-1
 10
1.264135
 20
0.144402
 30
0.000000
  0
VERTEX
  8
LAYER-1
 10
1.268475
 20
0.142666
 30
0.000000
  0
VERTEX
  8
LAYER-1
 10
1.272815
 20
0.142666
 30
0.000000
  0
VERTEX
  8
LAYER-1
 10
1.277156
 20
0.146139
 30
0.000000
  0
VERTEX
  8
LAYER-1
 10
1.277156
 20
0.150479
 30
0.000000
  0
VERTEX
  8
LAYER-1
 10
1.276288
 20
0.154820
 30
0.000000
  0
VERTEX
  8
LAYER-1
 10
1.271947
 20
0.157423
 30
0.000000
  0
SEQEND
  8
LAYER-1
  0
POLYLINE
  8
LAYER-1
 66
  1
 70
  1
 62
  0
 10
0.909100
 20
0.196484
 30
0.000000
  0
VERTEX
  8
LAYER-1
 10
0.909100
 20
0.196484
 30
0.000000
  0
VERTEX
  8
LAYER-1
 10
0.896079
 20
0.173915
 30
0.000000
  0
VERTEX
  8
LAYER-1
 10
0.926461
 20
0.194747
 30
0.000000
  0
SEQEND
  8
LAYER-1
  0
POLYLINE
  8
LAYER-1
 66
  1
 70
  1
 62
  0
 10
1.040877
 20
0.196151
 30
0.000000
  0
VERTEX
  8
LAYER-1
 10
1.040877
 20
0.196151
 30
0.000000
  0
VERTEX
  8
LAYER-1
 10
1.028191
 20
0.176786
 30
0.000000
  0
VERTEX
  8
LAYER-1
 10
1.039542
 20
0.170776
 30
0.000000
  0
SEQEND
  8
LAYER-1
  0
POLYLINE
  8
LAYER-1
 66
  1
 70
  0
 62
  0
 10
1.398684
 20
0.177388
 30
0.000000
  0
VERTEX
  8
LAYER-1
 10
1.398684
 20
0.177388
 30
0.000000
  0
VERTEX
  8
LAYER-1
 10
1.394343
 20
0.177388
 30
0.000000
  0
VERTEX
  8
LAYER-1
 10
1.390871
 20
0.173047
 30
0.000000
  0
VERTEX
  8
LAYER-1
 10
1.390003
 20
0.167839
 30
0.000000
  0
VERTEX
  8
LAYER-1
 10
1.391739
 20
0.163498
 30
0.000000
  0
VERTEX
  8
LAYER-1
 10
1.396079
 20
0.161763
 30
0.000000
  0
VERTEX
  8
LAYER-1
 10
1.400419
 20
0.161763
 30
0.000000
  0
VERTEX
  8
LAYER-1
 10
1.404759
 20
0.165234
 30
0.000000
  0
VERTEX
  8
LAYER-1
 10
1.404759
 20
0.169575
 30
0.000000
  0
VERTEX
  8
LAYER-1
 10
1.403891
 20
0.173915
 30
0.000000
  0
VERTEX
  8
LAYER-1
 10
1.399552
 20
0.176520
 30
0.000000
  0
SEQEND
  8
LAYER-1
  0
POLYLINE
  8
LAYER-1
 66
  1
 70
  0
 62
  0
 10
1.156495
 20
0.151346
 30
0.000000
  0
VERTEX
  8
LAYER-1
 10
1.156495
 20
0.151346
 30
0.000000
  0
VERTEX
  8
LAYER-1
 10
1.152156
 20
0.151346
 30
0.000000
  0
VERTEX
  8
LAYER-1
 10
1.148683
 20
0.147005
 30
0.000000
  0
VERTEX
  8
LAYER-1
 10
1.147815
 20
0.141797
 30
0.000000
  0
VERTEX
  8
LAYER-1
 10
1.149551
 20
0.137457
 30
0.000000
  0
VERTEX
  8
LAYER-1
 10
1.153892
 20
0.135721
 30
0.000000
  0
VERTEX
  8
LAYER-1
 10
1.158232
 20
0.135721
 30
0.000000
  0
VERTEX
  8
LAYER-1
 10
1.162572
 20
0.139192
 30
0.000000
  0
VERTEX
  8
LAYER-1
 10
1.162572
 20
0.143533
 30
0.000000
  0
VERTEX
  8
LAYER-1
 10
1.161704
 20
0.147874
 30
0.000000
  0
VERTEX
  8
LAYER-1
 10
1.157363
 20
0.150478
 30
0.000000
  0
SEQEND
  8
LAYER-1
  0
POLYLINE
  8
LAYER-1
 66
  1
 70
  0
 62
  0
 10
0.992433
 20
0.143533
 30
0.000000
  0
VERTEX
  8
LAYER-1
 10
0.992433
 20
0.143533
 30
0.000000
  0
VERTEX
  8
LAYER-1
 10
0.988093
 20
0.143533
 30
0.000000
  0
VERTEX
  8
LAYER-1
 10
0.984620
 20
0.139192
 30
0.000000
  0
VERTEX
  8
LAYER-1
 10
0.983752
 20
0.133985
 30
0.000000
  0
VERTEX
  8
LAYER-1
 10
0.985488
 20
0.129645
 30
0.000000
  0
VERTEX
  8
LAYER-1
 10
0.989829
 20
0.127908
 30
0.000000
  0
VERTEX
  8
LAYER-1
 10
0.994169
 20
0.127908
 30
0.000000
  0
VERTEX
  8
LAYER-1
 10
0.998510
 20
0.131380
 30
0.000000
  0
VERTEX
  8
LAYER-1
 10
0.998510
 20
0.135721
 30
0.000000
  0
VERTEX
  8
LAYER-1
 10
0.997642
 20
0.140061
 30
0.000000
  0
VERTEX
  8
LAYER-1
 10
0.993301
 20
0.142665
 30
0.000000
  0
SEQEND
  8
LAYER-1
  0
POLYLINE
  8
LAYER-1
 66
  1
 70
  1
 62
  0
 10
1.620472
 20
0.168272
 30
0.000000
  0
VERTEX
  8
LAYER-1
 10
1.620472
 20
0.168272
 30
0.000000
  0
VERTEX
  8
LAYER-1
 10
1.594432
 20
0.161328
 30
0.000000
  0
VERTEX
  8
LAYER-1
 10
1.608319
 20
0.136154
 30
0.000000
  0
SEQEND
  8
LAYER-1
  0
POLYLINE
  8
LAYER-1
 66
  1
 70
  1
 62
  0
 10
1.682016
 20
0.108675
 30
0.000000
  0
VERTEX
  8
LAYER-1
 10
1.682016
 20
0.108675
 30
0.000000
  0
VERTEX
  8
LAYER-1
 10
1.704586
 20
0.095654
 30
0.000000
  0
VERTEX
  8
LAYER-1
 10
1.683754
 20
0.126036
 30
0.000000
  0
SEQEND
  8
LAYER-1
  0
POLYLINE
  8
LAYER-1
 66
  1
 70
  1
 62
  0
 10
1.213354
 20
0.176085
 30
0.000000
  0
VERTEX
  8
LAYER-1
 10
1.213354
 20
0.176085
 30
0.000000
  0
VERTEX
  8
LAYER-1
 10
1.188181
 20
0.192578
 30
0.000000
  0
VERTEX
  8
LAYER-1
 10
1.180368
 20
0.177821
 30
0.000000
  0
SEQEND
  8
LAYER-1
  0
POLYLINE
  8
LAYER-1
 66
  1
 70
  0
 62
  0
 10
1.631758
 20
0.204732
 30
0.000000
  0
VERTEX
  8
LAYER-1
 10
1.631758
 20
0.204732
 30
0.000000
  0
VERTEX
  8
LAYER-1
 10
1.631758
 20
0.209073
 30
0.000000
  0
VERTEX
  8
LAYER-1
 10
1.627417
 20
0.212545
 30
0.000000
  0
VERTEX
  8
LAYER-1
 10
1.622209
 20
0.213413
 30
0.000000
  0
VERTEX
  8
LAYER-1
 10
1.617868
 20
0.211677
 30
0.000000
  0
VERTEX
  8
LAYER-1
 10
1.616133
 20
0.207336
 30
0.000000
  0
VERTEX
  8
LAYER-1
 10
1.616133
 20
0.202996
 30
0.000000
  0
VERTEX
  8
LAYER-1
 10
1.619604
 20
0.198655
 30
0.000000
  0
VERTEX
  8
LAYER-1
 10
1.623945
 20
0.198655
 30
0.000000
  0
VERTEX
  8
LAYER-1
 10
1.628286
 20
0.199523
 30
0.000000
  0
VERTEX
  8
LAYER-1
 10
1.630891
 20
0.203864
 30
0.000000
  0
SEQEND
  8
LAYER-1
  0
POLYLINE
  8
LAYER-1
 66
  1
 70
  1
 62
  0
 10
1.584015
 20
0.180425
 30
0.000000
  0
VERTEX
  8
LAYER-1
 10
1.584015
 20
0.180425
 30
0.000000
  0
VERTEX
  8
LAYER-1
 10
1.561444
 20
0.193446
 30
0.000000
  0
VERTEX
  8
LAYER-1
 10
1.582277
 20
0.163064
 30
0.000000
  0
SEQEND
  8
LAYER-1
  0
POLYLINE
  8
LAYER-1
 66
  1
 70
  1
 62
  0
 10
1.232116
 20
0.192744
 30
0.000000
  0
VERTEX
  8
LAYER-1
 10
1.232116
 20
0.192744
 30
0.000000
  0
VERTEX
  8
LAYER-1
 10
1.212752
 20
0.205431
 30
0.000000
  0
VERTEX
  8
LAYER-1
 10
1.206741
 20
0.194080
 30
0.000000
  0
SEQEND
  8
LAYER-1
  0
POLYLINE
  8
LAYER-1
 66
  1
 70
  0
 62
  0
 10
1.697990
 20
0.069092
 30
0.000000
  0
VERTEX
  8
LAYER-1
 10
1.697990
 20
0.069092
 30
0.000000
  0
VERTEX
  8
LAYER-1
 10
1.697990
 20
0.064752
 30
0.000000
  0
VERTEX
  8
LAYER-1
 10
1.702330
 20
0.061279
 30
0.000000
  0
VERTEX
  8
LAYER-1
 10
1.707538
 20
0.060411
 30
0.000000
  0
VERTEX
  8
LAYER-1
 10
1.711879
 20
0.062147
 30
0.000000
  0
VERTEX
  8
LAYER-1
 10
1.713615
 20
0.066488
 30
0.000000
  0
VERTEX
  8
LAYER-1
 10
1.713615
 20
0.070829
 30
0.000000
  0
VERTEX
  8
LAYER-1
 10
1.710143
 20
0.075168
 30
0.000000
  0
VERTEX
  8
LAYER-1
 10
1.705802
 20
0.075168
 30
0.000000
  0
VERTEX
  8
LAYER-1
 10
1.701462
 20
0.074300
 30
0.000000
  0
VERTEX
  8
LAYER-1
 10
1.698857
 20
0.069960
 30
0.000000
  0
SEQEND
  8
LAYER-1
  0
POLYLINE
  8
LAYER-1
 66
  1
 70
  0
 62
  0
 10
1.207278
 20
0.124001
 30
0.000000
  0
VERTEX
  8
LAYER-1
 10
1.207278
 20
0.124001
 30
0.000000
  0
VERTEX
  8
LAYER-1
 10
1.207278
 20
0.128342
 30
0.000000
  0
VERTEX
  8
LAYER-1
 10
1.202937
 20
0.131814
 30
0.000000
  0
VERTEX
  8
LAYER-1
 10
1.197729
 20
0.132682
 30
0.000000
  0
VERTEX
  8
LAYER-1
 10
1.193389
 20
0.130946
 30
0.000000
  0
VERTEX
  8
LAYER-1
 10
1.191653
 20
0.126605
 30
0.000000
  0
VERTEX
  8
LAYER-1
 10
1.191653
 20
0.122265
 30
0.000000
  0
VERTEX
  8
LAYER-1
 10
1.195124
 20
0.117925
 30
0.000000
  0
VERTEX
  8
LAYER-1
 10
1.199465
 20
0.117925
 30
0.000000
  0
VERTEX
  8
LAYER-1
 10
1.203806
 20
0.118792
 30
0.000000
  0
VERTEX
  8
LAYER-1
 10
1.206411
 20
0.123133
 30
0.000000
  0
SEQEND
  8
LAYER-1
  0
POLYLINE
  8
LAYER-1
 66
  1
 70
  0
 62
  0
 10
1.509361
 20
0.158725
 30
0.000000
  0
VERTEX
  8
LAYER-1
 10
1.509361
 20
0.158725
 30
0.000000
  0
VERTEX
  8
LAYER-1
 10
1.509361
 20
0.163066
 30
0.000000
  0
VERTEX
  8
LAYER-1
 10
1.505021
 20
0.166538
 30
0.000000
  0
VERTEX
  8
LAYER-1
 10
1.499813
 20
0.167405
 30
0.000000
  0
VERTEX
  8
LAYER-1
 10
1.495472
 20
0.165670
 30
0.000000
  0
VERTEX
  8
LAYER-1
 10
1.493736
 20
0.161329
 30
0.000000
  0
VERTEX
  8
LAYER-1
 10
1.493736
 20
0.156989
 30
0.000000
  0
VERTEX
  8
LAYER-1
 10
1.497208
 20
0.152648
 30
0.000000
  0
VERTEX
  8
LAYER-1
 10
1.501549
 20
0.152648
 30
0.000000
  0
VERTEX
  8
LAYER-1
 10
1.505890
 20
0.153516
 30
0.000000
  0
VERTEX
  8
LAYER-1
 10
1.508494
 20
0.157857
 30
0.000000
  0
SEQEND
  8
LAYER-1
  0
POLYLINE
  8
LAYER-1
 66
  1
 70
  1
 62
  0
 10
1.728546
 20
0.150913
 30
0.000000
  0
VERTEX
  8
LAYER-1
 10
1.728546
 20
0.150913
 30
0.000000
  0
VERTEX
  8
LAYER-1
 10
1.735490
 20
0.124871
 30
0.000000
  0
VERTEX
  8
LAYER-1
 10
1.754587
 20
0.140495
 30
0.000000
  0
SEQEND
  8
LAYER-1
  0
POLYLINE
  8
LAYER-1
 66
  1
 70
  1
 62
  0
 10
1.912573
 20
0.172614
 30
0.000000
  0
VERTEX
  8
LAYER-1
 10
1.912573
 20
0.172614
 30
0.000000
  0
VERTEX
  8
LAYER-1
 10
1.899552
 20
0.150045
 30
0.000000
  0
VERTEX
  8
LAYER-1
 10
1.929934
 20
0.170877
 30
0.000000
  0
SEQEND
  8
LAYER-1
  0
POLYLINE
  8
LAYER-1
 66
  1
 70
  1
 62
  0
 10
1.962477
 20
0.071153
 30
0.000000
  0
VERTEX
  8
LAYER-1
 10
1.962477
 20
0.071153
 30
0.000000
  0
VERTEX
  8
LAYER-1
 10
1.945985
 20
0.045980
 30
0.000000
  0
VERTEX
  8
LAYER-1
 10
1.960741
 20
0.038167
 30
0.000000
  0
SEQEND
  8
LAYER-1
  0
POLYLINE
  8
LAYER-1
 66
  1
 70
  0
 62
  0
 10
1.700768
 20
0.175218
 30
0.000000
  0
VERTEX
  8
LAYER-1
 10
1.700768
 20
0.175218
 30
0.000000
  0
VERTEX
  8
LAYER-1
 10
1.696427
 20
0.175218
 30
0.000000
  0
VERTEX
  8
LAYER-1
 10
1.692955
 20
0.170877
 30
0.000000
  0
VERTEX
  8
LAYER-1
 10
1.692087
 20
0.165670
 30
0.000000
  0
VERTEX
  8
LAYER-1
 10
1.693823
 20
0.161329
 30
0.000000
  0
VERTEX
  8
LAYER-1
 10
1.698163
 20
0.159593
 30
0.000000
  0
VERTEX
  8
LAYER-1
 10
1.702504
 20
0.159593
 30
0.000000
  0
VERTEX
  8
LAYER-1
 10
1.706843
 20
0.163065
 30
0.000000
  0
VERTEX
  8
LAYER-1
 10
1.706843
 20
0.167405
 30
0.000000
  0
VERTEX
  8
LAYER-1
 10
1.705975
 20
0.171746
 30
0.000000
  0
VERTEX
  8
LAYER-1
 10
1.701636
 20
0.174350
 30
0.000000
  0
SEQEND
  8
LAYER-1
  0
POLYLINE
  8
LAYER-1
 66
  1
 70
  1
 62
  0
 10
1.738094
 20
0.107509
 30
0.000000
  0
VERTEX
  8
LAYER-1
 10
1.738094
 20
0.107509
 30
0.000000
  0
VERTEX
  8
LAYER-1
 10
1.725073
 20
0.084940
 30
0.000000
  0
VERTEX
  8
LAYER-1
 10
1.755455
 20
0.105772
 30
0.000000
  0
SEQEND
  8
LAYER-1
  0
POLYLINE
  8
LAYER-1
 66
  1
 70
  1
 62
  0
 10
1.993894
 20
0.053262
 30
0.000000
  0
VERTEX
  8
LAYER-1
 10
1.993894
 20
0.053262
 30
0.000000
  0
VERTEX
  8
LAYER-1
 10
2.006582
 20
0.072626
 30
0.000000
  0
VERTEX
  8
LAYER-1
 10
1.995230
 20
0.078637
 30
0.000000
  0
SEQEND
  8
LAYER-1
  0
POLYLINE
  8
LAYER-1
 66
  1
 70
  0
 62
  0
 10
1.893120
 20
0.053709
 30
0.000000
  0
VERTEX
  8
LAYER-1
 10
1.893120
 20
0.053709
 30
0.000000
  0
VERTEX
  8
LAYER-1
 10
1.897460
 20
0.053709
 30
0.000000
  0
VERTEX
  8
LAYER-1
 10
1.900932
 20
0.058050
 30
0.000000
  0
VERTEX
  8
LAYER-1
 10
1.901800
 20
0.063257
 30
0.000000
  0
VERTEX
  8
LAYER-1
 10
1.900064
 20
0.067598
 30
0.000000
  0
VERTEX
  8
LAYER-1
 10
1.895724
 20
0.069334
 30
0.000000
  0
VERTEX
  8
LAYER-1
 10
1.891384
 20
0.069334
 30
0.000000
  0
VERTEX
  8
LAYER-1
 10
1.887043
 20
0.065862
 30
0.000000
  0
VERTEX
  8
LAYER-1
 10
1.887043
 20
0.061522
 30
0.000000
  0
VERTEX
  8
LAYER-1
 10
1.887911
 20
0.057181
 30
0.000000
  0
VERTEX
  8
LAYER-1
 10
1.892252
 20
0.054576
 30
0.000000
  0
SEQEND
  8
LAYER-1
  0
POLYLINE
  8
LAYER-1
 66
  1
 70
  0
 62
  0
 10
1.582624
 20
0.089577
 30
0.000000
  0
VERTEX
  8
LAYER-1
 10
1.582624
 20
0.089577
 30
0.000000
  0
VERTEX
  8
LAYER-1
 10
1.586965
 20
0.089577
 30
0.000000
  0
VERTEX
  8
LAYER-1
 10
1.590436
 20
0.093917
 30
0.000000
  0
VERTEX
  8
LAYER-1
 10
1.591305
 20
0.099124
 30
0.000000
  0
VERTEX
  8
LAYER-1
 10
1.589569
 20
0.103466
 30
0.000000
  0
VERTEX
  8
LAYER-1
 10
1.585229
 20
0.105202
 30
0.000000
  0
VERTEX
  8
LAYER-1
 10
1.580888
 20
0.105202
 30
0.000000
  0
VERTEX
  8
LAYER-1
 10
1.576547
 20
0.101729
 30
0.000000
  0
VERTEX
  8
LAYER-1
 10
1.576547
 20
0.097389
 30
0.000000
  0
VERTEX
  8
LAYER-1
 10
1.577416
 20
0.093048
 30
0.000000
  0
VERTEX
  8
LAYER-1
 10
1.581757
 20
0.090444
 30
0.000000
  0
SEQEND
  8
LAYER-1
  0
POLYLINE
  8
LAYER-1
 66
  1
 70
  1
 62
  0
 10
2.077938
 20
0.155686
 30
0.000000
  0
VERTEX
  8
LAYER-1
 10
2.077938
 20
0.155686
 30
0.000000
  0
VERTEX
  8
LAYER-1
 10
2.051898
 20
0.148742
 30
0.000000
  0
VERTEX
  8
LAYER-1
 10
2.065785
 20
0.123569
 30
0.000000
  0
SEQEND
  8
LAYER-1
  0
POLYLINE
  8
LAYER-1
 66
  1
 70
  1
 62
  0
 10
1.816821
 20
0.116091
 30
0.000000
  0
VERTEX
  8
LAYER-1
 10
1.816821
 20
0.116091
 30
0.000000
  0
VERTEX
  8
LAYER-1
 10
1.794250
 20
0.129113
 30
0.000000
  0
VERTEX
  8
LAYER-1
 10
1.815083
 20
0.098730
 30
0.000000
  0
SEQEND
  8
LAYER-1
  0
POLYLINE
  8
LAYER-1
 66
  1
 70
  1
 62
  0
 10
1.846678
 20
0.038518
 30
0.000000
  0
VERTEX
  8
LAYER-1
 10
1.846678
 20
0.038518
 30
0.000000
  0
VERTEX
  8
LAYER-1
 10
1.871852
 20
0.022024
 30
0.000000
  0
VERTEX
  8
LAYER-1
 10
1.879664
 20
0.036782
 30
0.000000
  0
SEQEND
  8
LAYER-1
  0
POLYLINE
  8
LAYER-1
 66
  1
 70
  0
 62
  0
 10
2.109188
 20
0.205165
 30
0.000000
  0
VERTEX
  8
LAYER-1
 10
2.109188
 20
0.205165
 30
0.000000
  0
VERTEX
  8
LAYER-1
 10
2.109188
 20
0.209505
 30
0.000000
  0
VERTEX
  8
LAYER-1
 10
2.104847
 20
0.212977
 30
0.000000
  0
VERTEX
  8
LAYER-1
 10
2.099640
 20
0.213845
 30
0.000000
  0
VERTEX
  8
LAYER-1
 10
2.095299
 20
0.212109
 30
0.000000
  0
VERTEX
  8
LAYER-1
 10
2.093563
 20
0.207769
 30
0.000000
  0
VERTEX
  8
LAYER-1
 10
2.093563
 20
0.203428
 30
0.000000
  0
VERTEX
  8
LAYER-1
 10
2.097035
 20
0.199088
 30
0.000000
  0
VERTEX
  8
LAYER-1
 10
2.101376
 20
0.199088
 30
0.000000
  0
VERTEX
  8
LAYER-1
 10
2.105716
 20
0.199956
 30
0.000000
  0
VERTEX
  8
LAYER-1
 10
2.108321
 20
0.204297
 30
0.000000
  0
SEQEND
  8
LAYER-1
  0
POLYLINE
  8
LAYER-1
 66
  1
 70
  1
 62
  0
 10
2.041480
 20
0.167839
 30
0.000000
  0
VERTEX
  8
LAYER-1
 10
2.041480
 20
0.167839
 30
0.000000
  0
VERTEX
  8
LAYER-1
 10
2.018910
 20
0.180860
 30
0.000000
  0
VERTEX
  8
LAYER-1
 10
2.039743
 20
0.150478
 30
0.000000
  0
SEQEND
  8
LAYER-1
  0
POLYLINE
  8
LAYER-1
 66
  1
 70
  1
 62
  0
 10
0.810242
 20
0.204463
 30
0.000000
  0
VERTEX
  8
LAYER-1
 10
0.810242
 20
0.204463
 30
0.000000
  0
VERTEX
  8
LAYER-1
 10
0.790878
 20
0.217150
 30
0.000000
  0
VERTEX
  8
LAYER-1
 10
0.784867
 20
0.205799
 30
0.000000
  0
SEQEND
  8
LAYER-1
  0
POLYLINE
  8
LAYER-1
 66
  1
 70
  0
 62
  0
 10
1.821160
 20
0.175988
 30
0.000000
  0
VERTEX
  8
LAYER-1
 10
1.821160
 20
0.175988
 30
0.000000
  0
VERTEX
  8
LAYER-1
 10
1.821160
 20
0.180328
 30
0.000000
  0
VERTEX
  8
LAYER-1
 10
1.816819
 20
0.183801
 30
0.000000
  0
VERTEX
  8
LAYER-1
 10
1.811611
 20
0.184668
 30
0.000000
  0
VERTEX
  8
LAYER-1
 10
1.807271
 20
0.182933
 30
0.000000
  0
VERTEX
  8
LAYER-1
 10
1.805535
 20
0.178591
 30
0.000000
  0
VERTEX
  8
LAYER-1
 10
1.805535
 20
0.174251
 30
0.000000
  0
VERTEX
  8
LAYER-1
 10
1.809007
 20
0.169911
 30
0.000000
  0
VERTEX
  8
LAYER-1
 10
1.813347
 20
0.169911
 30
0.000000
  0
VERTEX
  8
LAYER-1
 10
1.817688
 20
0.170779
 30
0.000000
  0
VERTEX
  8
LAYER-1
 10
1.820293
 20
0.175120
 30
0.000000
  0
SEQEND
  8
LAYER-1
  0
POLYLINE
  8
LAYER-1
 66
  1
 70
  0
 62
  0
 10
0.787139
 20
0.137456
 30
0.000000
  0
VERTEX
  8
LAYER-1
 10
0.787139
 20
0.137456
 30
0.000000
  0
VERTEX
  8
LAYER-1
 10
0.787139
 20
0.141797
 30
0.000000
  0
VERTEX
  8
LAYER-1
 10
0.782799
 20
0.145269
 30
0.000000
  0
VERTEX
  8
LAYER-1
 10
0.777591
 20
0.146136
 30
0.000000
  0
VERTEX
  8
LAYER-1
 10
0.773250
 20
0.144401
 30
0.000000
  0
VERTEX
  8
LAYER-1
 10
0.771514
 20
0.140060
 30
0.000000
  0
VERTEX
  8
LAYER-1
 10
0.771514
 20
0.135720
 30
0.000000
  0
VERTEX
  8
LAYER-1
 10
0.774986
 20
0.131379
 30
0.000000
  0
VERTEX
  8
LAYER-1
 10
0.779327
 20
0.131379
 30
0.000000
  0
VERTEX
  8
LAYER-1
 10
0.783667
 20
0.132247
 30
0.000000
  0
VERTEX
  8
LAYER-1
 10
0.786272
 20
0.136588
 30
0.000000
  0
SEQEND
  8
LAYER-1
  0
POLYLINE
  8
LAYER-1
 66
  1
 70
  0
 62
  0
 10
1.909535
 20
0.205161
 30
0.000000
  0
VERTEX
  8
LAYER-1
 10
1.909535
 20
0.205161
 30
0.000000
  0
VERTEX
  8
LAYER-1
 10
1.909535
 20
0.209502
 30
0.000000
  0
VERTEX
  8
LAYER-1
 10
1.905194
 20
0.212974
 30
0.000000
  0
VERTEX
  8
LAYER-1
 10
1.899986
 20
0.213842
 30
0.000000
  0
VERTEX
  8
LAYER-1
 10
1.895646
 20
0.212106
 30
0.000000
  0
VERTEX
  8
LAYER-1
 10
1.893910
 20
0.207765
 30
0.000000
  0
VERTEX
  8
LAYER-1
 10
1.893910
 20
0.203426
 30
0.000000
  0
VERTEX
  8
LAYER-1
 10
1.897382
 20
0.199085
 30
0.000000
  0
VERTEX
  8
LAYER-1
 10
1.901722
 20
0.199085
 30
0.000000
  0
VERTEX
  8
LAYER-1
 10
1.906063
 20
0.199953
 30
0.000000
  0
VERTEX
  8
LAYER-1
 10
1.908668
 20
0.204294
 30
0.000000
  0
SEQEND
  8
LAYER-1
  0
POLYLINE
  8
LAYER-1
 66
  1
 70
  1
 62
  0
 10
1.468823
 20
0.069696
 30
0.000000
  0
VERTEX
  8
LAYER-1
 10
1.468823
 20
0.069696
 30
0.000000
  0
VERTEX
  8
LAYER-1
 10
1.442781
 20
0.062752
 30
0.000000
  0
VERTEX
  8
LAYER-1
 10
1.456669
 20
0.037578
 30
0.000000
  0
SEQEND
  8
LAYER-1
  0
POLYLINE
  8
LAYER-1
 66
  1
 70
  1
 62
  0
 10
2.315350
 20
0.133117
 30
0.000000
  0
VERTEX
  8
LAYER-1
 10
2.315350
 20
0.133117
 30
0.000000
  0
VERTEX
  8
LAYER-1
 10
2.337920
 20
0.120096
 30
0.000000
  0
VERTEX
  8
LAYER-1
 10
2.317087
 20
0.150478
 30
0.000000
  0
SEQEND
  8
LAYER-1
  0
POLYLINE
  8
LAYER-1
 66
  1
 70
  1
 62
  0
 10
0.924725
 20
0.150044
 30
0.000000
  0
VERTEX
  8
LAYER-1
 10
0.924725
 20
0.150044
 30
0.000000
  0
VERTEX
  8
LAYER-1
 10
0.949899
 20
0.133551
 30
0.000000
  0
VERTEX
  8
LAYER-1
 10
0.957712
 20
0.148308
 30
0.000000
  0
SEQEND
  8
LAYER-1
  0
POLYLINE
  8
LAYER-1
 66
  1
 70
  0
 62
  0
 10
2.243302
 20
0.179989
 30
0.000000
  0
VERTEX
  8
LAYER-1
 10
2.243302
 20
0.179989
 30
0.000000
  0
VERTEX
  8
LAYER-1
 10
2.243302
 20
0.175648
 30
0.000000
  0
VERTEX
  8
LAYER-1
 10
2.247643
 20
0.172177
 30
0.000000
  0
VERTEX
  8
LAYER-1
 10
2.252850
 20
0.171309
 30
0.000000
  0
VERTEX
  8
LAYER-1
 10
2.257191
 20
0.173045
 30
0.000000
  0
VERTEX
  8
LAYER-1
 10
2.258927
 20
0.177385
 30
0.000000
  0
VERTEX
  8
LAYER-1
 10
2.258927
 20
0.181725
 30
0.000000
  0
VERTEX
  8
LAYER-1
 10
2.255455
 20
0.186066
 30
0.000000
  0
VERTEX
  8
LAYER-1
 10
2.251115
 20
0.186066
 30
0.000000
  0
VERTEX
  8
LAYER-1
 10
2.246774
 20
0.185198
 30
0.000000
  0
VERTEX
  8
LAYER-1
 10
2.244170
 20
0.180857
 30
0.000000
  0
SEQEND
  8
LAYER-1
  0
POLYLINE
  8
LAYER-1
 66
  1
 70
  1
 62
  0
 10
2.192954
 20
0.191276
 30
0.000000
  0
VERTEX
  8
LAYER-1
 10
2.192954
 20
0.191276
 30
0.000000
  0
VERTEX
  8
LAYER-1
 10
2.215524
 20
0.178254
 30
0.000000
  0
VERTEX
  8
LAYER-1
 10
2.194691
 20
0.208636
 30
0.000000
  0
SEQEND
  8
LAYER-1
  0
POLYLINE
  8
LAYER-1
 66
  1
 70
  1
 62
  0
 10
0.923323
 20
0.097794
 30
0.000000
  0
VERTEX
  8
LAYER-1
 10
0.923323
 20
0.097794
 30
0.000000
  0
VERTEX
  8
LAYER-1
 10
0.942688
 20
0.085107
 30
0.000000
  0
VERTEX
  8
LAYER-1
 10
0.948699
 20
0.096458
 30
0.000000
  0
SEQEND
  8
LAYER-1
  0
POLYLINE
  8
LAYER-1
 66
  1
 70
  0
 62
  0
 10
1.649465
 20
0.050078
 30
0.000000
  0
VERTEX
  8
LAYER-1
 10
1.649465
 20
0.050078
 30
0.000000
  0
VERTEX
  8
LAYER-1
 10
1.649465
 20
0.054418
 30
0.000000
  0
VERTEX
  8
LAYER-1
 10
1.645124
 20
0.057891
 30
0.000000
  0
VERTEX
  8
LAYER-1
 10
1.639916
 20
0.058759
 30
0.000000
  0
VERTEX
  8
LAYER-1
 10
1.635575
 20
0.057023
 30
0.000000
  0
VERTEX
  8
LAYER-1
 10
1.633840
 20
0.052683
 30
0.000000
  0
VERTEX
  8
LAYER-1
 10
1.633840
 20
0.048342
 30
0.000000
  0
VERTEX
  8
LAYER-1
 10
1.637311
 20
0.044002
 30
0.000000
  0
VERTEX
  8
LAYER-1
 10
1.641652
 20
0.044002
 30
0.000000
  0
VERTEX
  8
LAYER-1
 10
1.645993
 20
0.044870
 30
0.000000
  0
VERTEX
  8
LAYER-1
 10
1.648596
 20
0.049210
 30
0.000000
  0
SEQEND
  8
LAYER-1
  0
POLYLINE
  8
LAYER-1
 66
  1
 70
  0
 62
  0
 10
2.455107
 20
0.133117
 30
0.000000
  0
VERTEX
  8
LAYER-1
 10
2.455107
 20
0.133117
 30
0.000000
  0
VERTEX
  8
LAYER-1
 10
2.455107
 20
0.128777
 30
0.000000
  0
VERTEX
  8
LAYER-1
 10
2.459448
 20
0.125304
 30
0.000000
  0
VERTEX
  8
LAYER-1
 10
2.464656
 20
0.124436
 30
0.000000
  0
VERTEX
  8
LAYER-1
 10
2.468996
 20
0.126172
 30
0.000000
  0
VERTEX
  8
LAYER-1
 10
2.470732
 20
0.130513
 30
0.000000
  0
VERTEX
  8
LAYER-1
 10
2.470732
 20
0.134853
 30
0.000000
  0
VERTEX
  8
LAYER-1
 10
2.467261
 20
0.139194
 30
0.000000
  0
VERTEX
  8
LAYER-1
 10
2.462920
 20
0.139194
 30
0.000000
  0
VERTEX
  8
LAYER-1
 10
2.458579
 20
0.138325
 30
0.000000
  0
VERTEX
  8
LAYER-1
 10
2.455975
 20
0.133985
 30
0.000000
  0
SEQEND
  8
LAYER-1
  0
POLYLINE
  8
LAYER-1
 66
  1
 70
  0
 62
  0
 10
2.289309
 20
0.187804
 30
0.000000
  0
VERTEX
  8
LAYER-1
 10
2.289309
 20
0.187804
 30
0.000000
  0
VERTEX
  8
LAYER-1
 10
2.289309
 20
0.183464
 30
0.000000
  0
VERTEX
  8
LAYER-1
 10
2.293650
 20
0.179992
 30
0.000000
  0
VERTEX
  8
LAYER-1
 10
2.298857
 20
0.179124
 30
0.000000
  0
VERTEX
  8
LAYER-1
 10
2.303198
 20
0.180860
 30
0.000000
  0
VERTEX
  8
LAYER-1
 10
2.304934
 20
0.185200
 30
0.000000
  0
VERTEX
  8
LAYER-1
 10
2.304934
 20
0.189540
 30
0.000000
  0
VERTEX
  8
LAYER-1
 10
2.301462
 20
0.193882
 30
0.000000
  0
VERTEX
  8
LAYER-1
 10
2.297121
 20
0.193882
 30
0.000000
  0
VERTEX
  8
LAYER-1
 10
2.292781
 20
0.193013
 30
0.000000
  0
VERTEX
  8
LAYER-1
 10
2.290176
 20
0.188672
 30
0.000000
  0
SEQEND
  8
LAYER-1
  0
POLYLINE
  8
LAYER-1
 66
  1
 70
  1
 62
  0
 10
2.051462
 20
0.104905
 30
0.000000
  0
VERTEX
  8
LAYER-1
 10
2.051462
 20
0.104905
 30
0.000000
  0
VERTEX
  8
LAYER-1
 10
2.058407
 20
0.078865
 30
0.000000
  0
VERTEX
  8
LAYER-1
 10
2.083580
 20
0.092752
 30
0.000000
  0
SEQEND
  8
LAYER-1
  0
POLYLINE
  8
LAYER-1
 66
  1
 70
  1
 62
  0
 10
2.155976
 20
0.092148
 30
0.000000
  0
VERTEX
  8
LAYER-1
 10
2.155976
 20
0.092148
 30
0.000000
  0
VERTEX
  8
LAYER-1
 10
2.142955
 20
0.069577
 30
0.000000
  0
VERTEX
  8
LAYER-1
 10
2.173337
 20
0.090410
 30
0.000000
  0
SEQEND
  8
LAYER-1
  0
POLYLINE
  8
LAYER-1
 66
  1
 70
  1
 62
  0
 10
1.871941
 20
0.122603
 30
0.000000
  0
VERTEX
  8
LAYER-1
 10
1.871941
 20
0.122603
 30
0.000000
  0
VERTEX
  8
LAYER-1
 10
1.855448
 20
0.097429
 30
0.000000
  0
VERTEX
  8
LAYER-1
 10
1.870205
 20
0.089617
 30
0.000000
  0
SEQEND
  8
LAYER-1
  0
POLYLINE
  8
LAYER-1
 66
  1
 70
  0
 62
  0
 10
2.001983
 20
0.136155
 30
0.000000
  0
VERTEX
  8
LAYER-1
 10
2.001983
 20
0.136155
 30
0.000000
  0
VERTEX
  8
LAYER-1
 10
1.997643
 20
0.136155
 30
0.000000
  0
VERTEX
  8
LAYER-1
 10
1.994171
 20
0.131815
 30
0.000000
  0
VERTEX
  8
LAYER-1
 10
1.993303
 20
0.126607
 30
0.000000
  0
VERTEX
  8
LAYER-1
 10
1.995039
 20
0.122266
 30
0.000000
  0
VERTEX
  8
LAYER-1
 10
1.999379
 20
0.120530
 30
0.000000
  0
VERTEX
  8
LAYER-1
 10
2.003719
 20
0.120530
 30
0.000000
  0
VERTEX
  8
LAYER-1
 10
2.008060
 20
0.124002
 30
0.000000
  0
VERTEX
  8
LAYER-1
 10
2.008060
 20
0.128343
 30
0.000000
  0
VERTEX
  8
LAYER-1
 10
2.007192
 20
0.132684
 30
0.000000
  0
VERTEX
  8
LAYER-1
 10
2.002851
 20
0.135289
 30
0.000000
  0
SEQEND
  8
LAYER-1
  0
POLYLINE
  8
LAYER-1
 66
  1
 70
  1
 62
  0
 10
0.859622
 20
0.212544
 30
0.000000
  0
VERTEX
  8
LAYER-1
 10
0.859622
 20
0.212544
 30
0.000000
  0
VERTEX
  8
LAYER-1
 10
0.846601
 20
0.189973
 30
0.000000
  0
VERTEX
  8
LAYER-1
 10
0.876983
 20
0.210805
 30
0.000000
  0
SEQEND
  8
LAYER-1
  0
POLYLINE
  8
LAYER-1
 66
  1
 70
  1
 62
  0
 10
1.857018
 20
0.155252
 30
0.000000
  0
VERTEX
  8
LAYER-1
 10
1.857018
 20
0.155252
 30
0.000000
  0
VERTEX
  8
LAYER-1
 10
1.844331
 20
0.135888
 30
0.000000
  0
VERTEX
  8
LAYER-1
 10
1.855682
 20
0.129877
 30
0.000000
  0
SEQEND
  8
LAYER-1
  0
POLYLINE
  8
LAYER-1
 66
  1
 70
  0
 62
  0
 10
2.153893
 20
0.137891
 30
0.000000
  0
VERTEX
  8
LAYER-1
 10
2.153893
 20
0.137891
 30
0.000000
  0
VERTEX
  8
LAYER-1
 10
2.149553
 20
0.137891
 30
0.000000
  0
VERTEX
  8
LAYER-1
 10
2.146080
 20
0.133551
 30
0.000000
  0
VERTEX
  8
LAYER-1
 10
2.145212
 20
0.128343
 30
0.000000
  0
VERTEX
  8
LAYER-1
 10
2.146948
 20
0.124002
 30
0.000000
  0
VERTEX
  8
LAYER-1
 10
2.151289
 20
0.122266
 30
0.000000
  0
VERTEX
  8
LAYER-1
 10
2.155629
 20
0.122266
 30
0.000000
  0
VERTEX
  8
LAYER-1
 10
2.159969
 20
0.125738
 30
0.000000
  0
VERTEX
  8
LAYER-1
 10
2.159969
 20
0.130079
 30
0.000000
  0
VERTEX
  8
LAYER-1
 10
2.159101
 20
0.134420
 30
0.000000
  0
VERTEX
  8
LAYER-1
 10
2.154761
 20
0.137024
 30
0.000000
  0
SEQEND
  8
LAYER-1
  0
POLYLINE
  8
LAYER-1
 66
  1
 70
  0
 62
  0
 10
2.213789
 20
0.143099
 30
0.000000
  0
VERTEX
  8
LAYER-1
 10
2.213789
 20
0.143099
 30
0.000000
  0
VERTEX
  8
LAYER-1
 10
2.209448
 20
0.143099
 30
0.000000
  0
VERTEX
  8
LAYER-1
 10
2.205976
 20
0.138758
 30
0.000000
  0
VERTEX
  8
LAYER-1
 10
2.205108
 20
0.133551
 30
0.000000
  0
VERTEX
  8
LAYER-1
 10
2.206844
 20
0.129210
 30
0.000000
  0
VERTEX
  8
LAYER-1
 10
2.211185
 20
0.127474
 30
0.000000
  0
VERTEX
  8
LAYER-1
 10
2.215525
 20
0.127474
 30
0.000000
  0
VERTEX
  8
LAYER-1
 10
2.219865
 20
0.130946
 30
0.000000
  0
VERTEX
  8
LAYER-1
 10
2.219865
 20
0.135286
 30
0.000000
  0
VERTEX
  8
LAYER-1
 10
2.218998
 20
0.139627
 30
0.000000
  0
VERTEX
  8
LAYER-1
 10
2.214657
 20
0.142232
 30
0.000000
  0
SEQEND
  8
LAYER-1
  0
POLYLINE
  8
LAYER-1
 66
  1
 70
  0
 62
  0
 10
0.870038
 20
0.130078
 30
0.000000
  0
VERTEX
  8
LAYER-1
 10
0.870038
 20
0.130078
 30
0.000000
  0
VERTEX
  8
LAYER-1
 10
0.865698
 20
0.130078
 30
0.000000
  0
VERTEX
  8
LAYER-1
 10
0.862226
 20
0.125738
 30
0.000000
  0
VERTEX
  8
LAYER-1
 10
0.861358
 20
0.120529
 30
0.000000
  0
VERTEX
  8
LAYER-1
 10
0.863094
 20
0.116189
 30
0.000000
  0
VERTEX
  8
LAYER-1
 10
0.867435
 20
0.114453
 30
0.000000
  0
VERTEX
  8
LAYER-1
 10
0.871774
 20
0.114453
 30
0.000000
  0
VERTEX
  8
LAYER-1
 10
0.876115
 20
0.117925
 30
0.000000
  0
VERTEX
  8
LAYER-1
 10
0.876115
 20
0.122265
 30
0.000000
  0
VERTEX
  8
LAYER-1
 10
0.875247
 20
0.126606
 30
0.000000
  0
VERTEX
  8
LAYER-1
 10
0.870906
 20
0.129211
 30
0.000000
  0
SEQEND
  8
LAYER-1
  0
POLYLINE
  8
LAYER-1
 66
  1
 70
  1
 62
  0
 10
2.521080
 20
0.170008
 30
0.000000
  0
VERTEX
  8
LAYER-1
 10
2.521080
 20
0.170008
 30
0.000000
  0
VERTEX
  8
LAYER-1
 10
2.528025
 20
0.143967
 30
0.000000
  0
VERTEX
  8
LAYER-1
 10
2.553198
 20
0.157855
 30
0.000000
  0
SEQEND
  8
LAYER-1
  0
POLYLINE
  8
LAYER-1
 66
  1
 70
  1
 62
  0
 10
2.683407
 20
0.198654
 30
0.000000
  0
VERTEX
  8
LAYER-1
 10
2.683407
 20
0.198654
 30
0.000000
  0
VERTEX
  8
LAYER-1
 10
2.670386
 20
0.176085
 30
0.000000
  0
VERTEX
  8
LAYER-1
 10
2.700768
 20
0.196917
 30
0.000000
  0
SEQEND
  8
LAYER-1
  0
POLYLINE
  8
LAYER-1
 66
  1
 70
  1
 62
  0
 10
1.359622
 20
0.149609
 30
0.000000
  0
VERTEX
  8
LAYER-1
 10
1.359622
 20
0.149609
 30
0.000000
  0
VERTEX
  8
LAYER-1
 10
1.343129
 20
0.124435
 30
0.000000
  0
VERTEX
  8
LAYER-1
 10
1.357886
 20
0.116622
 30
0.000000
  0
SEQEND
  8
LAYER-1
  0
POLYLINE
  8
LAYER-1
 66
  1
 70
  0
 62
  0
 10
2.471601
 20
0.201258
 30
0.000000
  0
VERTEX
  8
LAYER-1
 10
2.471601
 20
0.201258
 30
0.000000
  0
VERTEX
  8
LAYER-1
 10
2.467261
 20
0.201258
 30
0.000000
  0
VERTEX
  8
LAYER-1
 10
2.463789
 20
0.196917
 30
0.000000
  0
VERTEX
  8
LAYER-1
 10
2.462920
 20
0.191710
 30
0.000000
  0
VERTEX
  8
LAYER-1
 10
2.464657
 20
0.187369
 30
0.000000
  0
VERTEX
  8
LAYER-1
 10
2.468996
 20
0.185633
 30
0.000000
  0
VERTEX
  8
LAYER-1
 10
2.473337
 20
0.185633
 30
0.000000
  0
VERTEX
  8
LAYER-1
 10
2.477678
 20
0.189105
 30
0.000000
  0
VERTEX
  8
LAYER-1
 10
2.477678
 20
0.193446
 30
0.000000
  0
VERTEX
  8
LAYER-1
 10
2.476809
 20
0.197786
 30
0.000000
  0
VERTEX
  8
LAYER-1
 10
2.472469
 20
0.200390
 30
0.000000
  0
SEQEND
  8
LAYER-1
  0
POLYLINE
  8
LAYER-1
 66
  1
 70
  1
 62
  0
 10
2.508928
 20
0.133550
 30
0.000000
  0
VERTEX
  8
LAYER-1
 10
2.508928
 20
0.133550
 30
0.000000
  0
VERTEX
  8
LAYER-1
 10
2.495907
 20
0.110980
 30
0.000000
  0
VERTEX
  8
LAYER-1
 10
2.526289
 20
0.131813
 30
0.000000
  0
SEQEND
  8
LAYER-1
  0
POLYLINE
  8
LAYER-1
 66
  1
 70
  1
 62
  0
 10
1.067854
 20
0.223921
 30
0.000000
  0
VERTEX
  8
LAYER-1
 10
1.067854
 20
0.223921
 30
0.000000
  0
VERTEX
  8
LAYER-1
 10
1.087219
 20
0.211235
 30
0.000000
  0
VERTEX
  8
LAYER-1
 10
1.093229
 20
0.222585
 30
0.000000
  0
SEQEND
  8
LAYER-1
  0
POLYLINE
  8
LAYER-1
 66
  1
 70
  0
 62
  0
 10
2.623511
 20
0.202994
 30
0.000000
  0
VERTEX
  8
LAYER-1
 10
2.623511
 20
0.202994
 30
0.000000
  0
VERTEX
  8
LAYER-1
 10
2.619170
 20
0.202994
 30
0.000000
  0
VERTEX
  8
LAYER-1
 10
2.615698
 20
0.198653
 30
0.000000
  0
VERTEX
  8
LAYER-1
 10
2.614830
 20
0.193446
 30
0.000000
  0
VERTEX
  8
LAYER-1
 10
2.616566
 20
0.189105
 30
0.000000
  0
VERTEX
  8
LAYER-1
 10
2.620907
 20
0.187369
 30
0.000000
  0
VERTEX
  8
LAYER-1
 10
2.625246
 20
0.187369
 30
0.000000
  0
VERTEX
  8
LAYER-1
 10
2.629587
 20
0.190841
 30
0.000000
  0
VERTEX
  8
LAYER-1
 10
2.629587
 20
0.195182
 30
0.000000
  0
VERTEX
  8
LAYER-1
 10
2.628719
 20
0.199522
 30
0.000000
  0
VERTEX
  8
LAYER-1
 10
2.624379
 20
0.202126
 30
0.000000
  0
SEQEND
  8
LAYER-1
  0
POLYLINE
  8
LAYER-1
 66
  1
 70
  0
 62
  0
 10
1.411705
 20
0.143533
 30
0.000000
  0
VERTEX
  8
LAYER-1
 10
1.411705
 20
0.143533
 30
0.000000
  0
VERTEX
  8
LAYER-1
 10
1.407365
 20
0.143533
 30
0.000000
  0
VERTEX
  8
LAYER-1
 10
1.403893
 20
0.139192
 30
0.000000
  0
VERTEX
  8
LAYER-1
 10
1.403025
 20
0.133984
 30
0.000000
  0
VERTEX
  8
LAYER-1
 10
1.404761
 20
0.129644
 30
0.000000
  0
VERTEX
  8
LAYER-1
 10
1.409101
 20
0.127908
 30
0.000000
  0
VERTEX
  8
LAYER-1
 10
1.413441
 20
0.127908
 30
0.000000
  0
VERTEX
  8
LAYER-1
 10
1.417781
 20
0.131379
 30
0.000000
  0
VERTEX
  8
LAYER-1
 10
1.417781
 20
0.135720
 30
0.000000
  0
VERTEX
  8
LAYER-1
 10
1.416913
 20
0.140060
 30
0.000000
  0
VERTEX
  8
LAYER-1
 10
1.412573
 20
0.142665
 30
0.000000
  0
SEQEND
  8
LAYER-1
  0
POLYLINE
  8
LAYER-1
 66
  1
 70
  0
 62
  0
 10
0.995038
 20
0.120095
 30
0.000000
  0
VERTEX
  8
LAYER-1
 10
0.995038
 20
0.120095
 30
0.000000
  0
VERTEX
  8
LAYER-1
 10
0.990698
 20
0.120095
 30
0.000000
  0
VERTEX
  8
LAYER-1
 10
0.987226
 20
0.115754
 30
0.000000
  0
VERTEX
  8
LAYER-1
 10
0.986358
 20
0.110547
 30
0.000000
  0
VERTEX
  8
LAYER-1
 10
0.988094
 20
0.106206
 30
0.000000
  0
VERTEX
  8
LAYER-1
 10
0.992433
 20
0.104470
 30
0.000000
  0
VERTEX
  8
LAYER-1
 10
0.996774
 20
0.104470
 30
0.000000
  0
VERTEX
  8
LAYER-1
 10
1.001114
 20
0.107942
 30
0.000000
  0
VERTEX
  8
LAYER-1
 10
1.001114
 20
0.112283
 30
0.000000
  0
VERTEX
  8
LAYER-1
 10
1.000246
 20
0.116623
 30
0.000000
  0
VERTEX
  8
LAYER-1
 10
0.995906
 20
0.119227
 30
0.000000
  0
SEQEND
  8
LAYER-1
  0
POLYLINE
  8
LAYER-1
 66
  1
 70
  1
 62
  0
 10
2.962920
 20
0.194314
 30
0.000000
  0
VERTEX
  8
LAYER-1
 10
2.962920
 20
0.194314
 30
0.000000
  0
VERTEX
  8
LAYER-1
 10
2.969865
 20
0.168273
 30
0.000000
  0
VERTEX
  8
LAYER-1
 10
2.995038
 20
0.182160
 30
0.000000
  0
SEQEND
  8
LAYER-1
  0
POLYLINE
  8
LAYER-1
 66
  1
 70
  1
 62
  0
 10
3.125247
 20
0.222961
 30
0.000000
  0
VERTEX
  8
LAYER-1
 10
3.125247
 20
0.222961
 30
0.000000
  0
VERTEX
  8
LAYER-1
 10
3.112225
 20
0.200390
 30
0.000000
  0
VERTEX
  8
LAYER-1
 10
3.142607
 20
0.221223
 30
0.000000
  0
SEQEND
  8
LAYER-1
  0
POLYLINE
  8
LAYER-1
 66
  1
 70
  1
 62
  0
 10
2.353545
 20
0.158724
 30
0.000000
  0
VERTEX
  8
LAYER-1
 10
2.353545
 20
0.158724
 30
0.000000
  0
VERTEX
  8
LAYER-1
 10
2.378719
 20
0.142230
 30
0.000000
  0
VERTEX
  8
LAYER-1
 10
2.386531
 20
0.156988
 30
0.000000
  0
SEQEND
  8
LAYER-1
  0
POLYLINE
  8
LAYER-1
 66
  1
 70
  0
 62
  0
 10
2.923857
 20
0.215148
 30
0.000000
  0
VERTEX
  8
LAYER-1
 10
2.923857
 20
0.215148
 30
0.000000
  0
VERTEX
  8
LAYER-1
 10
2.919517
 20
0.215148
 30
0.000000
  0
VERTEX
  8
LAYER-1
 10
2.916045
 20
0.210808
 30
0.000000
  0
VERTEX
  8
LAYER-1
 10
2.915177
 20
0.205600
 30
0.000000
  0
VERTEX
  8
LAYER-1
 10
2.916913
 20
0.201259
 30
0.000000
  0
VERTEX
  8
LAYER-1
 10
2.921254
 20
0.199523
 30
0.000000
  0
VERTEX
  8
LAYER-1
 10
2.925593
 20
0.199523
 30
0.000000
  0
VERTEX
  8
LAYER-1
 10
2.929934
 20
0.202995
 30
0.000000
  0
VERTEX
  8
LAYER-1
 10
2.929934
 20
0.207336
 30
0.000000
  0
VERTEX
  8
LAYER-1
 10
2.929066
 20
0.211677
 30
0.000000
  0
VERTEX
  8
LAYER-1
 10
2.924725
 20
0.214282
 30
0.000000
  0
SEQEND
  8
LAYER-1
  0
POLYLINE
  8
LAYER-1
 66
  1
 70
  1
 62
  0
 10
2.939483
 20
0.126606
 30
0.000000
  0
VERTEX
  8
LAYER-1
 10
2.939483
 20
0.126606
 30
0.000000
  0
VERTEX
  8
LAYER-1
 10
2.926462
 20
0.104035
 30
0.000000
  0
VERTEX
  8
LAYER-1
 10
2.956844
 20
0.124868
 30
0.000000
  0
SEQEND
  8
LAYER-1
  0
POLYLINE
  8
LAYER-1
 66
  1
 70
  1
 62
  0
 10
3.033934
 20
0.120193
 30
0.000000
  0
VERTEX
  8
LAYER-1
 10
3.033934
 20
0.120193
 30
0.000000
  0
VERTEX
  8
LAYER-1
 10
3.021247
 20
0.100829
 30
0.000000
  0
VERTEX
  8
LAYER-1
 10
3.032598
 20
0.094818
 30
0.000000
  0
SEQEND
  8
LAYER-1
  0
POLYLINE
  8
LAYER-1
 66
  1
 70
  0
 62
  0
 10
3.065350
 20
0.219488
 30
0.000000
  0
VERTEX
  8
LAYER-1
 10
3.065350
 20
0.219488
 30
0.000000
  0
VERTEX
  8
LAYER-1
 10
3.061011
 20
0.219488
 30
0.000000
  0
VERTEX
  8
LAYER-1
 10
3.057538
 20
0.215147
 30
0.000000
  0
VERTEX
  8
LAYER-1
 10
3.056670
 20
0.209940
 30
0.000000
  0
VERTEX
  8
LAYER-1
 10
3.058406
 20
0.205599
 30
0.000000
  0
VERTEX
  8
LAYER-1
 10
3.062746
 20
0.203863
 30
0.000000
  0
VERTEX
  8
LAYER-1
 10
3.067087
 20
0.203863
 30
0.000000
  0
VERTEX
  8
LAYER-1
 10
3.071427
 20
0.207335
 30
0.000000
  0
VERTEX
  8
LAYER-1
 10
3.071427
 20
0.211676
 30
0.000000
  0
VERTEX
  8
LAYER-1
 10
3.070559
 20
0.216016
 30
0.000000
  0
VERTEX
  8
LAYER-1
 10
3.066218
 20
0.218621
 30
0.000000
  0
SEQEND
  8
LAYER-1
  0
POLYLINE
  8
LAYER-1
 66
  1
 70
  0
 62
  0
 10
2.342261
 20
0.211676
 30
0.000000
  0
VERTEX
  8
LAYER-1
 10
2.342261
 20
0.211676
 30
0.000000
  0
VERTEX
  8
LAYER-1
 10
2.342261
 20
0.207335
 30
0.000000
  0
VERTEX
  8
LAYER-1
 10
2.346602
 20
0.203863
 30
0.000000
  0
VERTEX
  8
LAYER-1
 10
2.351809
 20
0.202994
 30
0.000000
  0
VERTEX
  8
LAYER-1
 10
2.356150
 20
0.204730
 30
0.000000
  0
VERTEX
  8
LAYER-1
 10
2.357886
 20
0.209071
 30
0.000000
  0
VERTEX
  8
LAYER-1
 10
2.357886
 20
0.213411
 30
0.000000
  0
VERTEX
  8
LAYER-1
 10
2.354414
 20
0.217752
 30
0.000000
  0
VERTEX
  8
LAYER-1
 10
2.350073
 20
0.217752
 30
0.000000
  0
VERTEX
  8
LAYER-1
 10
2.345733
 20
0.216883
 30
0.000000
  0
VERTEX
  8
LAYER-1
 10
2.343128
 20
0.212542
 30
0.000000
  0
SEQEND
  8
LAYER-1
  0
POLYLINE
  8
LAYER-1
 66
  1
 70
  0
 62
  0
 10
2.905628
 20
0.127472
 30
0.000000
  0
VERTEX
  8
LAYER-1
 10
2.905628
 20
0.127472
 30
0.000000
  0
VERTEX
  8
LAYER-1
 10
2.901287
 20
0.127472
 30
0.000000
  0
VERTEX
  8
LAYER-1
 10
2.897815
 20
0.123132
 30
0.000000
  0
VERTEX
  8
LAYER-1
 10
2.896947
 20
0.117923
 30
0.000000
  0
VERTEX
  8
LAYER-1
 10
2.898683
 20
0.113583
 30
0.000000
  0
VERTEX
  8
LAYER-1
 10
2.903024
 20
0.111847
 30
0.000000
  0
VERTEX
  8
LAYER-1
 10
2.907363
 20
0.111847
 30
0.000000
  0
VERTEX
  8
LAYER-1
 10
2.911704
 20
0.115319
 30
0.000000
  0
VERTEX
  8
LAYER-1
 10
2.911704
 20
0.119659
 30
0.000000
  0
VERTEX
  8
LAYER-1
 10
2.910836
 20
0.124001
 30
0.000000
  0
VERTEX
  8
LAYER-1
 10
2.906496
 20
0.126605
 30
0.000000
  0
SEQEND
  8
LAYER-1
  0
POLYLINE
  8
LAYER-1
 66
  1
 70
  1
 62
  0
 10
2.772817
 20
0.115755
 30
0.000000
  0
VERTEX
  8
LAYER-1
 10
2.772817
 20
0.115755
 30
0.000000
  0
VERTEX
  8
LAYER-1
 10
2.746775
 20
0.108810
 30
0.000000
  0
VERTEX
  8
LAYER-1
 10
2.760664
 20
0.083638
 30
0.000000
  0
SEQEND
  8
LAYER-1
  0
POLYLINE
  8
LAYER-1
 66
  1
 70
  1
 62
  0
 10
1.396082
 20
0.090147
 30
0.000000
  0
VERTEX
  8
LAYER-1
 10
1.396082
 20
0.090147
 30
0.000000
  0
VERTEX
  8
LAYER-1
 10
1.370906
 20
0.106640
 30
0.000000
  0
VERTEX
  8
LAYER-1
 10
1.363094
 20
0.091883
 30
0.000000
  0
SEQEND
  8
LAYER-1
  0
POLYLINE
  8
LAYER-1
 66
  1
 70
  0
 62
  0
 10
2.804067
 20
0.165234
 30
0.000000
  0
VERTEX
  8
LAYER-1
 10
2.804067
 20
0.165234
 30
0.000000
  0
VERTEX
  8
LAYER-1
 10
2.804067
 20
0.169575
 30
0.000000
  0
VERTEX
  8
LAYER-1
 10
2.799726
 20
0.173047
 30
0.000000
  0
VERTEX
  8
LAYER-1
 10
2.794519
 20
0.173915
 30
0.000000
  0
VERTEX
  8
LAYER-1
 10
2.790178
 20
0.172178
 30
0.000000
  0
VERTEX
  8
LAYER-1
 10
2.788442
 20
0.167838
 30
0.000000
  0
VERTEX
  8
LAYER-1
 10
2.788442
 20
0.163498
 30
0.000000
  0
VERTEX
  8
LAYER-1
 10
2.791914
 20
0.159158
 30
0.000000
  0
VERTEX
  8
LAYER-1
 10
2.796254
 20
0.159158
 30
0.000000
  0
VERTEX
  8
LAYER-1
 10
2.800595
 20
0.160026
 30
0.000000
  0
VERTEX
  8
LAYER-1
 10
2.803198
 20
0.164366
 30
0.000000
  0
SEQEND
  8
LAYER-1
  0
POLYLINE
  8
LAYER-1
 66
  1
 70
  1
 62
  0
 10
2.736357
 20
0.127908
 30
0.000000
  0
VERTEX
  8
LAYER-1
 10
2.736357
 20
0.127908
 30
0.000000
  0
VERTEX
  8
LAYER-1
 10
2.713789
 20
0.140928
 30
0.000000
  0
VERTEX
  8
LAYER-1
 10
2.734621
 20
0.110547
 30
0.000000
  0
SEQEND
  8
LAYER-1
  0
POLYLINE
  8
LAYER-1
 66
  1
 70
  1
 62
  0
 10
1.473872
 20
0.109411
 30
0.000000
  0
VERTEX
  8
LAYER-1
 10
1.473872
 20
0.109411
 30
0.000000
  0
VERTEX
  8
LAYER-1
 10
1.454506
 20
0.122097
 30
0.000000
  0
VERTEX
  8
LAYER-1
 10
1.448497
 20
0.110746
 30
0.000000
  0
SEQEND
  8
LAYER-1
  0
POLYLINE
  8
LAYER-1
 66
  1
 70
  0
 62
  0
 10
1.534102
 20
0.097960
 30
0.000000
  0
VERTEX
  8
LAYER-1
 10
1.534102
 20
0.097960
 30
0.000000
  0
VERTEX
  8
LAYER-1
 10
1.534102
 20
0.102300
 30
0.000000
  0
VERTEX
  8
LAYER-1
 10
1.529761
 20
0.105772
 30
0.000000
  0
VERTEX
  8
LAYER-1
 10
1.524554
 20
0.106640
 30
0.000000
  0
VERTEX
  8
LAYER-1
 10
1.520213
 20
0.104904
 30
0.000000
  0
VERTEX
  8
LAYER-1
 10
1.518477
 20
0.100564
 30
0.000000
  0
VERTEX
  8
LAYER-1
 10
1.518477
 20
0.096223
 30
0.000000
  0
VERTEX
  8
LAYER-1
 10
1.521949
 20
0.091883
 30
0.000000
  0
VERTEX
  8
LAYER-1
 10
1.526290
 20
0.091883
 30
0.000000
  0
VERTEX
  8
LAYER-1
 10
1.530631
 20
0.092751
 30
0.000000
  0
VERTEX
  8
LAYER-1
 10
1.533234
 20
0.097092
 30
0.000000
  0
SEQEND
  8
LAYER-1
  0
POLYLINE
  8
LAYER-1
 66
  1
 70
  0
 62
  0
 10
2.653894
 20
0.117491
 30
0.000000
  0
VERTEX
  8
LAYER-1
 10
2.653894
 20
0.117491
 30
0.000000
  0
VERTEX
  8
LAYER-1
 10
2.653894
 20
0.121832
 30
0.000000
  0
VERTEX
  8
LAYER-1
 10
2.649553
 20
0.125303
 30
0.000000
  0
VERTEX
  8
LAYER-1
 10
2.644345
 20
0.126172
 30
0.000000
  0
VERTEX
  8
LAYER-1
 10
2.640004
 20
0.124435
 30
0.000000
  0
VERTEX
  8
LAYER-1
 10
2.638269
 20
0.120096
 30
0.000000
  0
VERTEX
  8
LAYER-1
 10
2.638269
 20
0.115755
 30
0.000000
  0
VERTEX
  8
LAYER-1
 10
2.641740
 20
0.111415
 30
0.000000
  0
VERTEX
  8
LAYER-1
 10
2.646081
 20
0.111415
 30
0.000000
  0
VERTEX
  8
LAYER-1
 10
2.650422
 20
0.112283
 30
0.000000
  0
VERTEX
  8
LAYER-1
 10
2.653025
 20
0.116623
 30
0.000000
  0
SEQEND
  8
LAYER-1
  0
POLYLINE
  8
LAYER-1
 66
  1
 70
  1
 62
  0
 10
2.846601
 20
0.118795
 30
0.000000
  0
VERTEX
  8
LAYER-1
 10
2.846601
 20
0.118795
 30
0.000000
  0
VERTEX
  8
LAYER-1
 10
2.839656
 20
0.144835
 30
0.000000
  0
VERTEX
  8
LAYER-1
 10
2.814483
 20
0.130948
 30
0.000000
  0
SEQEND
  8
LAYER-1
  0
POLYLINE
  8
LAYER-1
 66
  1
 70
  1
 62
  0
 10
2.293650
 20
0.105772
 30
0.000000
  0
VERTEX
  8
LAYER-1
 10
2.293650
 20
0.105772
 30
0.000000
  0
VERTEX
  8
LAYER-1
 10
2.271079
 20
0.118795
 30
0.000000
  0
VERTEX
  8
LAYER-1
 10
2.291912
 20
0.088411
 30
0.000000
  0
SEQEND
  8
LAYER-1
  0
POLYLINE
  8
LAYER-1
 66
  1
 70
  1
 62
  0
 10
3.071428
 20
0.130079
 30
0.000000
  0
VERTEX
  8
LAYER-1
 10
3.071428
 20
0.130079
 30
0.000000
  0
VERTEX
  8
LAYER-1
 10
3.087921
 20
0.155252
 30
0.000000
  0
VERTEX
  8
LAYER-1
 10
3.073164
 20
0.163065
 30
0.000000
  0
SEQEND
  8
LAYER-1
  0
POLYLINE
  8
LAYER-1
 66
  1
 70
  0
 62
  0
 10
3.206844
 20
0.097958
 30
0.000000
  0
VERTEX
  8
LAYER-1
 10
3.206844
 20
0.097958
 30
0.000000
  0
VERTEX
  8
LAYER-1
 10
3.211185
 20
0.097958
 30
0.000000
  0
VERTEX
  8
LAYER-1
 10
3.214656
 20
0.102298
 30
0.000000
  0
VERTEX
  8
LAYER-1
 10
3.215524
 20
0.107507
 30
0.000000
  0
VERTEX
  8
LAYER-1
 10
3.213788
 20
0.111847
 30
0.000000
  0
VERTEX
  8
LAYER-1
 10
3.209448
 20
0.113583
 30
0.000000
  0
VERTEX
  8
LAYER-1
 10
3.205108
 20
0.113583
 30
0.000000
  0
VERTEX
  8
LAYER-1
 10
3.200767
 20
0.110111
 30
0.000000
  0
VERTEX
  8
LAYER-1
 10
3.200767
 20
0.105771
 30
0.000000
  0
VERTEX
  8
LAYER-1
 10
3.201635
 20
0.101429
 30
0.000000
  0
VERTEX
  8
LAYER-1
 10
3.205976
 20
0.098825
 30
0.000000
  0
SEQEND
  8
LAYER-1
  0
POLYLINE
  8
LAYER-1
 66
  1
 70
  1
 62
  0
 10
2.858753
 20
0.155252
 30
0.000000
  0
VERTEX
  8
LAYER-1
 10
2.858753
 20
0.155252
 30
0.000000
  0
VERTEX
  8
LAYER-1
 10
2.871774
 20
0.177823
 30
0.000000
  0
VERTEX
  8
LAYER-1
 10
2.841392
 20
0.156990
 30
0.000000
  0
SEQEND
  8
LAYER-1
  0
POLYLINE
  8
LAYER-1
 66
  1
 70
  1
 62
  0
 10
3.112393
 20
0.106108
 30
0.000000
  0
VERTEX
  8
LAYER-1
 10
3.112393
 20
0.106108
 30
0.000000
  0
VERTEX
  8
LAYER-1
 10
3.125079
 20
0.125472
 30
0.000000
  0
VERTEX
  8
LAYER-1
 10
3.113729
 20
0.131483
 30
0.000000
  0
SEQEND
  8
LAYER-1
  0
POLYLINE
  8
LAYER-1
 66
  1
 70
  0
 62
  0
 10
2.433405
 20
0.165670
 30
0.000000
  0
VERTEX
  8
LAYER-1
 10
2.433405
 20
0.165670
 30
0.000000
  0
VERTEX
  8
LAYER-1
 10
2.433405
 20
0.170008
 30
0.000000
  0
VERTEX
  8
LAYER-1
 10
2.429065
 20
0.173482
 30
0.000000
  0
VERTEX
  8
LAYER-1
 10
2.423857
 20
0.174349
 30
0.000000
  0
VERTEX
  8
LAYER-1
 10
2.419516
 20
0.172613
 30
0.000000
  0
VERTEX
  8
LAYER-1
 10
2.417780
 20
0.168272
 30
0.000000
  0
VERTEX
  8
LAYER-1
 10
2.417780
 20
0.163932
 30
0.000000
  0
VERTEX
  8
LAYER-1
 10
2.421252
 20
0.159593
 30
0.000000
  0
VERTEX
  8
LAYER-1
 10
2.425593
 20
0.159593
 30
0.000000
  0
VERTEX
  8
LAYER-1
 10
2.429934
 20
0.160460
 30
0.000000
  0
VERTEX
  8
LAYER-1
 10
2.432538
 20
0.164801
 30
0.000000
  0
SEQEND
  8
LAYER-1
  0
POLYLINE
  8
LAYER-1
 66
  1
 70
  0
 62
  0
 10
3.019344
 20
0.136155
 30
0.000000
  0
VERTEX
  8
LAYER-1
 10
3.019344
 20
0.136155
 30
0.000000
  0
VERTEX
  8
LAYER-1
 10
3.023685
 20
0.136155
 30
0.000000
  0
VERTEX
  8
LAYER-1
 10
3.027157
 20
0.140496
 30
0.000000
  0
VERTEX
  8
LAYER-1
 10
3.028025
 20
0.145704
 30
0.000000
  0
VERTEX
  8
LAYER-1
 10
3.026289
 20
0.150045
 30
0.000000
  0
VERTEX
  8
LAYER-1
 10
3.021948
 20
0.151780
 30
0.000000
  0
VERTEX
  8
LAYER-1
 10
3.017608
 20
0.151780
 30
0.000000
  0
VERTEX
  8
LAYER-1
 10
3.013268
 20
0.148309
 30
0.000000
  0
VERTEX
  8
LAYER-1
 10
3.013268
 20
0.143968
 30
0.000000
  0
VERTEX
  8
LAYER-1
 10
3.014136
 20
0.139627
 30
0.000000
  0
VERTEX
  8
LAYER-1
 10
3.018476
 20
0.137022
 30
0.000000
  0
SEQEND
  8
LAYER-1
  0
POLYLINE
  8
LAYER-1
 66
  1
 70
  0
 62
  0
 10
3.183407
 20
0.143968
 30
0.000000
  0
VERTEX
  8
LAYER-1
 10
3.183407
 20
0.143968
 30
0.000000
  0
VERTEX
  8
LAYER-1
 10
3.187748
 20
0.143968
 30
0.000000
  0
VERTEX
  8
LAYER-1
 10
3.191219
 20
0.148309
 30
0.000000
  0
VERTEX
  8
LAYER-1
 10
3.192087
 20
0.153516
 30
0.000000
  0
VERTEX
  8
LAYER-1
 10
3.190351
 20
0.157857
 30
0.000000
  0
VERTEX
  8
LAYER-1
 10
3.186011
 20
0.159593
 30
0.000000
  0
VERTEX
  8
LAYER-1
 10
3.181671
 20
0.159593
 30
0.000000
  0
VERTEX
  8
LAYER-1
 10
3.177330
 20
0.156121
 30
0.000000
  0
VERTEX
  8
LAYER-1
 10
3.177330
 20
0.151780
 30
0.000000
  0
VERTEX
  8
LAYER-1
 10
3.178198
 20
0.147440
 30
0.000000
  0
VERTEX
  8
LAYER-1
 10
3.182539
 20
0.144835
 30
0.000000
  0
SEQEND
  8
LAYER-1
  0
POLYLINE
  8
LAYER-1
 66
  1
 70
  1
 62
  0
 10
3.590524
 20
0.142232
 30
0.000000
  0
VERTEX
  8
LAYER-1
 10
3.590524
 20
0.142232
 30
0.000000
  0
VERTEX
  8
LAYER-1
 10
3.597468
 20
0.116191
 30
0.000000
  0
VERTEX
  8
LAYER-1
 10
3.622641
 20
0.130079
 30
0.000000
  0
SEQEND
  8
LAYER-1
  0
POLYLINE
  8
LAYER-1
 66
  1
 70
  1
 62
  0
 10
3.756756
 20
0.096225
 30
0.000000
  0
VERTEX
  8
LAYER-1
 10
3.756756
 20
0.096225
 30
0.000000
  0
VERTEX
  8
LAYER-1
 10
3.743735
 20
0.073655
 30
0.000000
  0
VERTEX
  8
LAYER-1
 10
3.774118
 20
0.094488
 30
0.000000
  0
SEQEND
  8
LAYER-1
  0
POLYLINE
  8
LAYER-1
 66
  1
 70
  1
 62
  0
 10
3.641738
 20
0.186499
 30
0.000000
  0
VERTEX
  8
LAYER-1
 10
3.641738
 20
0.186499
 30
0.000000
  0
VERTEX
  8
LAYER-1
 10
3.625246
 20
0.161325
 30
0.000000
  0
VERTEX
  8
LAYER-1
 10
3.640002
 20
0.153513
 30
0.000000
  0
SEQEND
  8
LAYER-1
  0
POLYLINE
  8
LAYER-1
 66
  1
 70
  0
 62
  0
 10
3.556670
 20
0.173482
 30
0.000000
  0
VERTEX
  8
LAYER-1
 10
3.556670
 20
0.173482
 30
0.000000
  0
VERTEX
  8
LAYER-1
 10
3.552330
 20
0.173482
 30
0.000000
  0
VERTEX
  8
LAYER-1
 10
3.548857
 20
0.169141
 30
0.000000
  0
VERTEX
  8
LAYER-1
 10
3.547988
 20
0.163934
 30
0.000000
  0
VERTEX
  8
LAYER-1
 10
3.549725
 20
0.159593
 30
0.000000
  0
VERTEX
  8
LAYER-1
 10
3.554066
 20
0.157857
 30
0.000000
  0
VERTEX
  8
LAYER-1
 10
3.558406
 20
0.157857
 30
0.000000
  0
VERTEX
  8
LAYER-1
 10
3.562745
 20
0.161329
 30
0.000000
  0
VERTEX
  8
LAYER-1
 10
3.562745
 20
0.165670
 30
0.000000
  0
VERTEX
  8
LAYER-1
 10
3.561877
 20
0.170010
 30
0.000000
  0
VERTEX
  8
LAYER-1
 10
3.557538
 20
0.172614
 30
0.000000
  0
SEQEND
  8
LAYER-1
  0
POLYLINE
  8
LAYER-1
 66
  1
 70
  1
 62
  0
 10
3.540176
 20
0.113584
 30
0.000000
  0
VERTEX
  8
LAYER-1
 10
3.540176
 20
0.113584
 30
0.000000
  0
VERTEX
  8
LAYER-1
 10
3.527156
 20
0.091014
 30
0.000000
  0
VERTEX
  8
LAYER-1
 10
3.557538
 20
0.111847
 30
0.000000
  0
SEQEND
  8
LAYER-1
  0
POLYLINE
  8
LAYER-1
 66
  1
 70
  1
 62
  0
 10
3.595631
 20
0.211938
 30
0.000000
  0
VERTEX
  8
LAYER-1
 10
3.595631
 20
0.211938
 30
0.000000
  0
VERTEX
  8
LAYER-1
 10
3.614996
 20
0.199250
 30
0.000000
  0
VERTEX
  8
LAYER-1
 10
3.621006
 20
0.210602
 30
0.000000
  0
SEQEND
  8
LAYER-1
  0
POLYLINE
  8
LAYER-1
 66
  1
 70
  0
 62
  0
 10
3.480280
 20
0.163187
 30
0.000000
  0
VERTEX
  8
LAYER-1
 10
3.480280
 20
0.163187
 30
0.000000
  0
VERTEX
  8
LAYER-1
 10
3.475940
 20
0.163187
 30
0.000000
  0
VERTEX
  8
LAYER-1
 10
3.472467
 20
0.158846
 30
0.000000
  0
VERTEX
  8
LAYER-1
 10
3.471600
 20
0.153638
 30
0.000000
  0
VERTEX
  8
LAYER-1
 10
3.473336
 20
0.149298
 30
0.000000
  0
VERTEX
  8
LAYER-1
 10
3.477676
 20
0.147562
 30
0.000000
  0
VERTEX
  8
LAYER-1
 10
3.482017
 20
0.147562
 30
0.000000
  0
VERTEX
  8
LAYER-1
 10
3.486357
 20
0.151033
 30
0.000000
  0
VERTEX
  8
LAYER-1
 10
3.486357
 20
0.155374
 30
0.000000
  0
VERTEX
  8
LAYER-1
 10
3.485488
 20
0.159715
 30
0.000000
  0
VERTEX
  8
LAYER-1
 10
3.481149
 20
0.162319
 30
0.000000
  0
SEQEND
  8
LAYER-1
  0
POLYLINE
  8
LAYER-1
 66
  1
 70
  0
 62
  0
 10
3.857018
 20
0.135283
 30
0.000000
  0
VERTEX
  8
LAYER-1
 10
3.857018
 20
0.135283
 30
0.000000
  0
VERTEX
  8
LAYER-1
 10
3.852679
 20
0.135283
 30
0.000000
  0
VERTEX
  8
LAYER-1
 10
3.849206
 20
0.130942
 30
0.000000
  0
VERTEX
  8
LAYER-1
 10
3.848338
 20
0.125734
 30
0.000000
  0
VERTEX
  8
LAYER-1
 10
3.850073
 20
0.121394
 30
0.000000
  0
VERTEX
  8
LAYER-1
 10
3.854414
 20
0.119658
 30
0.000000
  0
VERTEX
  8
LAYER-1
 10
3.858754
 20
0.119658
 30
0.000000
  0
VERTEX
  8
LAYER-1
 10
3.863095
 20
0.123129
 30
0.000000
  0
VERTEX
  8
LAYER-1
 10
3.863095
 20
0.127470
 30
0.000000
  0
VERTEX
  8
LAYER-1
 10
3.862227
 20
0.131811
 30
0.000000
  0
VERTEX
  8
LAYER-1
 10
3.857886
 20
0.134415
 30
0.000000
  0
SEQEND
  8
LAYER-1
  0
POLYLINE
  8
LAYER-1
 66
  1
 70
  0
 62
  0
 10
3.588788
 20
0.106639
 30
0.000000
  0
VERTEX
  8
LAYER-1
 10
3.588788
 20
0.106639
 30
0.000000
  0
VERTEX
  8
LAYER-1
 10
3.584448
 20
0.106639
 30
0.000000
  0
VERTEX
  8
LAYER-1
 10
3.580975
 20
0.102298
 30
0.000000
  0
VERTEX
  8
LAYER-1
 10
3.580107
 20
0.097091
 30
0.000000
  0
VERTEX
  8
LAYER-1
 10
3.581843
 20
0.092751
 30
0.000000
  0
VERTEX
  8
LAYER-1
 10
3.586184
 20
0.091014
 30
0.000000
  0
VERTEX
  8
LAYER-1
 10
3.590523
 20
0.091014
 30
0.000000
  0
VERTEX
  8
LAYER-1
 10
3.594864
 20
0.094486
 30
0.000000
  0
VERTEX
  8
LAYER-1
 10
3.594864
 20
0.098827
 30
0.000000
  0
VERTEX
  8
LAYER-1
 10
3.593996
 20
0.103167
 30
0.000000
  0
VERTEX
  8
LAYER-1
 10
3.589656
 20
0.105771
 30
0.000000
  0
SEQEND
  8
LAYER-1
  0
POLYLINE
  8
LAYER-1
 66
  1
 70
  1
 62
  0
 10
3.386965
 20
0.166103
 30
0.000000
  0
VERTEX
  8
LAYER-1
 10
3.386965
 20
0.166103
 30
0.000000
  0
VERTEX
  8
LAYER-1
 10
3.360925
 20
0.159158
 30
0.000000
  0
VERTEX
  8
LAYER-1
 10
3.374812
 20
0.133985
 30
0.000000
  0
SEQEND
  8
LAYER-1
  0
POLYLINE
  8
LAYER-1
 66
  1
 70
  1
 62
  0
 10
3.294084
 20
0.114888
 30
0.000000
  0
VERTEX
  8
LAYER-1
 10
3.294084
 20
0.114888
 30
0.000000
  0
VERTEX
  8
LAYER-1
 10
3.271514
 20
0.127908
 30
0.000000
  0
VERTEX
  8
LAYER-1
 10
3.292347
 20
0.097527
 30
0.000000
  0
SEQEND
  8
LAYER-1
  0
POLYLINE
  8
LAYER-1
 66
  1
 70
  1
 62
  0
 10
3.257625
 20
0.160023
 30
0.000000
  0
VERTEX
  8
LAYER-1
 10
3.257625
 20
0.160023
 30
0.000000
  0
VERTEX
  8
LAYER-1
 10
3.232452
 20
0.176516
 30
0.000000
  0
VERTEX
  8
LAYER-1
 10
3.224639
 20
0.161759
 30
0.000000
  0
SEQEND
  8
LAYER-1
  0
POLYLINE
  8
LAYER-1
 66
  1
 70
  0
 62
  0
 10
3.418215
 20
0.215582
 30
0.000000
  0
VERTEX
  8
LAYER-1
 10
3.418215
 20
0.215582
 30
0.000000
  0
VERTEX
  8
LAYER-1
 10
3.418215
 20
0.219922
 30
0.000000
  0
VERTEX
  8
LAYER-1
 10
3.413875
 20
0.223395
 30
0.000000
  0
VERTEX
  8
LAYER-1
 10
3.408667
 20
0.224263
 30
0.000000
  0
VERTEX
  8
LAYER-1
 10
3.404326
 20
0.222527
 30
0.000000
  0
VERTEX
  8
LAYER-1
 10
3.402590
 20
0.218185
 30
0.000000
  0
VERTEX
  8
LAYER-1
 10
3.402590
 20
0.213846
 30
0.000000
  0
VERTEX
  8
LAYER-1
 10
3.406062
 20
0.209505
 30
0.000000
  0
VERTEX
  8
LAYER-1
 10
3.410403
 20
0.209505
 30
0.000000
  0
VERTEX
  8
LAYER-1
 10
3.414744
 20
0.210373
 30
0.000000
  0
VERTEX
  8
LAYER-1
 10
3.417348
 20
0.214714
 30
0.000000
  0
SEQEND
  8
LAYER-1
  0
POLYLINE
  8
LAYER-1
 66
  1
 70
  1
 62
  0
 10
3.350508
 20
0.178255
 30
0.000000
  0
VERTEX
  8
LAYER-1
 10
3.350508
 20
0.178255
 30
0.000000
  0
VERTEX
  8
LAYER-1
 10
3.327937
 20
0.191277
 30
0.000000
  0
VERTEX
  8
LAYER-1
 10
3.348770
 20
0.160895
 30
0.000000
  0
SEQEND
  8
LAYER-1
  0
POLYLINE
  8
LAYER-1
 66
  1
 70
  1
 62
  0
 10
3.302161
 20
0.185297
 30
0.000000
  0
VERTEX
  8
LAYER-1
 10
3.302161
 20
0.185297
 30
0.000000
  0
VERTEX
  8
LAYER-1
 10
3.289475
 20
0.165933
 30
0.000000
  0
VERTEX
  8
LAYER-1
 10
3.300825
 20
0.159921
 30
0.000000
  0
SEQEND
  8
LAYER-1
  0
POLYLINE
  8
LAYER-1
 66
  1
 70
  0
 62
  0
 10
3.419951
 20
0.087977
 30
0.000000
  0
VERTEX
  8
LAYER-1
 10
3.419951
 20
0.087977
 30
0.000000
  0
VERTEX
  8
LAYER-1
 10
3.419951
 20
0.092317
 30
0.000000
  0
VERTEX
  8
LAYER-1
 10
3.415610
 20
0.095790
 30
0.000000
  0
VERTEX
  8
LAYER-1
 10
3.410403
 20
0.096658
 30
0.000000
  0
VERTEX
  8
LAYER-1
 10
3.406062
 20
0.094922
 30
0.000000
  0
VERTEX
  8
LAYER-1
 10
3.404326
 20
0.090581
 30
0.000000
  0
VERTEX
  8
LAYER-1
 10
3.404326
 20
0.086240
 30
0.000000
  0
VERTEX
  8
LAYER-1
 10
3.407798
 20
0.081901
 30
0.000000
  0
VERTEX
  8
LAYER-1
 10
3.412139
 20
0.081901
 30
0.000000
  0
VERTEX
  8
LAYER-1
 10
3.416479
 20
0.082768
 30
0.000000
  0
VERTEX
  8
LAYER-1
 10
3.419084
 20
0.087109
 30
0.000000
  0
SEQEND
  8
LAYER-1
  0
POLYLINE
  8
LAYER-1
 66
  1
 70
  0
 62
  0
 10
3.338354
 20
0.088845
 30
0.000000
  0
VERTEX
  8
LAYER-1
 10
3.338354
 20
0.088845
 30
0.000000
  0
VERTEX
  8
LAYER-1
 10
3.338354
 20
0.093185
 30
0.000000
  0
VERTEX
  8
LAYER-1
 10
3.334013
 20
0.096658
 30
0.000000
  0
VERTEX
  8
LAYER-1
 10
3.328806
 20
0.097526
 30
0.000000
  0
VERTEX
  8
LAYER-1
 10
3.324465
 20
0.095790
 30
0.000000
  0
VERTEX
  8
LAYER-1
 10
3.322729
 20
0.091448
 30
0.000000
  0
VERTEX
  8
LAYER-1
 10
3.322729
 20
0.087109
 30
0.000000
  0
VERTEX
  8
LAYER-1
 10
3.326201
 20
0.082768
 30
0.000000
  0
VERTEX
  8
LAYER-1
 10
3.330541
 20
0.082768
 30
0.000000
  0
VERTEX
  8
LAYER-1
 10
3.334882
 20
0.083636
 30
0.000000
  0
VERTEX
  8
LAYER-1
 10
3.337487
 20
0.087977
 30
0.000000
  0
SEQEND
  8
LAYER-1
  0
POLYLINE
  8
LAYER-1
 66
  1
 70
  0
 62
  0
 10
3.268042
 20
0.199088
 30
0.000000
  0
VERTEX
  8
LAYER-1
 10
3.268042
 20
0.199088
 30
0.000000
  0
VERTEX
  8
LAYER-1
 10
3.268042
 20
0.203428
 30
0.000000
  0
VERTEX
  8
LAYER-1
 10
3.263701
 20
0.206901
 30
0.000000
  0
VERTEX
  8
LAYER-1
 10
3.258494
 20
0.207769
 30
0.000000
  0
VERTEX
  8
LAYER-1
 10
3.254153
 20
0.206033
 30
0.000000
  0
VERTEX
  8
LAYER-1
 10
3.252417
 20
0.201692
 30
0.000000
  0
VERTEX
  8
LAYER-1
 10
3.252417
 20
0.197352
 30
0.000000
  0
VERTEX
  8
LAYER-1
 10
3.255889
 20
0.193011
 30
0.000000
  0
VERTEX
  8
LAYER-1
 10
3.260229
 20
0.193011
 30
0.000000
  0
VERTEX
  8
LAYER-1
 10
3.264570
 20
0.193879
 30
0.000000
  0
VERTEX
  8
LAYER-1
 10
3.267175
 20
0.198220
 30
0.000000
  0
SEQEND
  8
LAYER-1
  0
POLYLINE
  8
LAYER-1
 66
  1
 70
  1
 62
  0
 10
4.050593
 20
0.188672
 30
0.000000
  0
VERTEX
  8
LAYER-1
 10
4.050593
 20
0.188672
 30
0.000000
  0
VERTEX
  8
LAYER-1
 10
4.057538
 20
0.162632
 30
0.000000
  0
VERTEX
  8
LAYER-1
 10
4.082711
 20
0.176520
 30
0.000000
  0
SEQEND
  8
LAYER-1
  0
POLYLINE
  8
LAYER-1
 66
  1
 70
  1
 62
  0
 10
4.212919
 20
0.217319
 30
0.000000
  0
VERTEX
  8
LAYER-1
 10
4.212919
 20
0.217319
 30
0.000000
  0
VERTEX
  8
LAYER-1
 10
4.199898
 20
0.194749
 30
0.000000
  0
VERTEX
  8
LAYER-1
 10
4.230281
 20
0.215582
 30
0.000000
  0
SEQEND
  8
LAYER-1
  0
POLYLINE
  8
LAYER-1
 66
  1
 70
  1
 62
  0
 10
4.192087
 20
0.132247
 30
0.000000
  0
VERTEX
  8
LAYER-1
 10
4.192087
 20
0.132247
 30
0.000000
  0
VERTEX
  8
LAYER-1
 10
4.175594
 20
0.107073
 30
0.000000
  0
VERTEX
  8
LAYER-1
 10
4.190351
 20
0.099260
 30
0.000000
  0
SEQEND
  8
LAYER-1
  0
POLYLINE
  8
LAYER-1
 66
  1
 70
  0
 62
  0
 10
4.001114
 20
0.219922
 30
0.000000
  0
VERTEX
  8
LAYER-1
 10
4.001114
 20
0.219922
 30
0.000000
  0
VERTEX
  8
LAYER-1
 10
3.996773
 20
0.219922
 30
0.000000
  0
VERTEX
  8
LAYER-1
 10
3.993301
 20
0.215582
 30
0.000000
  0
VERTEX
  8
LAYER-1
 10
3.992434
 20
0.210374
 30
0.000000
  0
VERTEX
  8
LAYER-1
 10
3.994169
 20
0.206033
 30
0.000000
  0
VERTEX
  8
LAYER-1
 10
3.998510
 20
0.204297
 30
0.000000
  0
VERTEX
  8
LAYER-1
 10
4.002850
 20
0.204297
 30
0.000000
  0
VERTEX
  8
LAYER-1
 10
4.007191
 20
0.207770
 30
0.000000
  0
VERTEX
  8
LAYER-1
 10
4.007191
 20
0.212110
 30
0.000000
  0
VERTEX
  8
LAYER-1
 10
4.006323
 20
0.216451
 30
0.000000
  0
VERTEX
  8
LAYER-1
 10
4.001982
 20
0.219054
 30
0.000000
  0
SEQEND
  8
LAYER-1
  0
POLYLINE
  8
LAYER-1
 66
  1
 70
  1
 62
  0
 10
4.022380
 20
0.151778
 30
0.000000
  0
VERTEX
  8
LAYER-1
 10
4.022380
 20
0.151778
 30
0.000000
  0
VERTEX
  8
LAYER-1
 10
4.044950
 20
0.138758
 30
0.000000
  0
VERTEX
  8
LAYER-1
 10
4.024117
 20
0.169139
 30
0.000000
  0
SEQEND
  8
LAYER-1
  0
POLYLINE
  8
LAYER-1
 66
  1
 70
  1
 62
  0
 10
4.139034
 20
0.143799
 30
0.000000
  0
VERTEX
  8
LAYER-1
 10
4.139034
 20
0.143799
 30
0.000000
  0
VERTEX
  8
LAYER-1
 10
4.158399
 20
0.131111
 30
0.000000
  0
VERTEX
  8
LAYER-1
 10
4.164410
 20
0.142463
 30
0.000000
  0
SEQEND
  8
LAYER-1
  0
POLYLINE
  8
LAYER-1
 66
  1
 70
  0
 62
  0
 10
4.153023
 20
0.221658
 30
0.000000
  0
VERTEX
  8
LAYER-1
 10
4.153023
 20
0.221658
 30
0.000000
  0
VERTEX
  8
LAYER-1
 10
4.148684
 20
0.221658
 30
0.000000
  0
VERTEX
  8
LAYER-1
 10
4.145211
 20
0.217317
 30
0.000000
  0
VERTEX
  8
LAYER-1
 10
4.144343
 20
0.212110
 30
0.000000
  0
VERTEX
  8
LAYER-1
 10
4.146079
 20
0.207770
 30
0.000000
  0
VERTEX
  8
LAYER-1
 10
4.150419
 20
0.206033
 30
0.000000
  0
VERTEX
  8
LAYER-1
 10
4.154760
 20
0.206033
 30
0.000000
  0
VERTEX
  8
LAYER-1
 10
4.159100
 20
0.209505
 30
0.000000
  0
VERTEX
  8
LAYER-1
 10
4.159100
 20
0.213846
 30
0.000000
  0
VERTEX
  8
LAYER-1
 10
4.158232
 20
0.218186
 30
0.000000
  0
VERTEX
  8
LAYER-1
 10
4.153891
 20
0.220790
 30
0.000000
  0
SEQEND
  8
LAYER-1
  0
POLYLINE
  8
LAYER-1
 66
  1
 70
  0
 62
  0
 10
4.237226
 20
0.094921
 30
0.000000
  0
VERTEX
  8
LAYER-1
 10
4.237226
 20
0.094921
 30
0.000000
  0
VERTEX
  8
LAYER-1
 10
4.232885
 20
0.094921
 30
0.000000
  0
VERTEX
  8
LAYER-1
 10
4.229413
 20
0.090580
 30
0.000000
  0
VERTEX
  8
LAYER-1
 10
4.228545
 20
0.085372
 30
0.000000
  0
VERTEX
  8
LAYER-1
 10
4.230281
 20
0.081032
 30
0.000000
  0
VERTEX
  8
LAYER-1
 10
4.234621
 20
0.079296
 30
0.000000
  0
VERTEX
  8
LAYER-1
 10
4.238962
 20
0.079296
 30
0.000000
  0
VERTEX
  8
LAYER-1
 10
4.243303
 20
0.082767
 30
0.000000
  0
VERTEX
  8
LAYER-1
 10
4.243303
 20
0.087108
 30
0.000000
  0
VERTEX
  8
LAYER-1
 10
4.242434
 20
0.091448
 30
0.000000
  0
VERTEX
  8
LAYER-1
 10
4.238094
 20
0.094053
 30
0.000000
  0
SEQEND
  8
LAYER-1
  0
POLYLINE
  8
LAYER-1
 66
  1
 70
  0
 62
  0
 10
4.083580
 20
0.149606
 30
0.000000
  0
VERTEX
  8
LAYER-1
 10
4.083580
 20
0.149606
 30
0.000000
  0
VERTEX
  8
LAYER-1
 10
4.079239
 20
0.149606
 30
0.000000
  0
VERTEX
  8
LAYER-1
 10
4.075767
 20
0.145265
 30
0.000000
  0
VERTEX
  8
LAYER-1
 10
4.074899
 20
0.140058
 30
0.000000
  0
VERTEX
  8
LAYER-1
 10
4.076635
 20
0.135717
 30
0.000000
  0
VERTEX
  8
LAYER-1
 10
4.080975
 20
0.133981
 30
0.000000
  0
VERTEX
  8
LAYER-1
 10
4.085316
 20
0.133981
 30
0.000000
  0
VERTEX
  8
LAYER-1
 10
4.089656
 20
0.137453
 30
0.000000
  0
VERTEX
  8
LAYER-1
 10
4.089656
 20
0.141794
 30
0.000000
  0
VERTEX
  8
LAYER-1
 10
4.088788
 20
0.146134
 30
0.000000
  0
VERTEX
  8
LAYER-1
 10
4.084448
 20
0.148738
 30
0.000000
  0
SEQEND
  8
LAYER-1
  0
POLYLINE
  8
LAYER-1
 66
  1
 70
  1
 62
  0
 10
3.918650
 20
0.158288
 30
0.000000
  0
VERTEX
  8
LAYER-1
 10
3.918650
 20
0.158288
 30
0.000000
  0
VERTEX
  8
LAYER-1
 10
3.911705
 20
0.184328
 30
0.000000
  0
VERTEX
  8
LAYER-1
 10
3.886531
 20
0.170441
 30
0.000000
  0
SEQEND
  8
LAYER-1
  0
POLYLINE
  8
LAYER-1
 66
  1
 70
  1
 62
  0
 10
3.507626
 20
0.189971
 30
0.000000
  0
VERTEX
  8
LAYER-1
 10
3.507626
 20
0.189971
 30
0.000000
  0
VERTEX
  8
LAYER-1
 10
3.520646
 20
0.212541
 30
0.000000
  0
VERTEX
  8
LAYER-1
 10
3.490265
 20
0.191709
 30
0.000000
  0
SEQEND
  8
LAYER-1
  0
POLYLINE
  8
LAYER-1
 66
  1
 70
  1
 62
  0
 10
3.804934
 20
0.183463
 30
0.000000
  0
VERTEX
  8
LAYER-1
 10
3.804934
 20
0.183463
 30
0.000000
  0
VERTEX
  8
LAYER-1
 10
3.821428
 20
0.208636
 30
0.000000
  0
VERTEX
  8
LAYER-1
 10
3.806669
 20
0.216448
 30
0.000000
  0
SEQEND
  8
LAYER-1
  0
POLYLINE
  8
LAYER-1
 66
  1
 70
  0
 62
  0
 10
3.968128
 20
0.127038
 30
0.000000
  0
VERTEX
  8
LAYER-1
 10
3.968128
 20
0.127038
 30
0.000000
  0
VERTEX
  8
LAYER-1
 10
3.972469
 20
0.127038
 30
0.000000
  0
VERTEX
  8
LAYER-1
 10
3.975941
 20
0.131378
 30
0.000000
  0
VERTEX
  8
LAYER-1
 10
3.976810
 20
0.136586
 30
0.000000
  0
VERTEX
  8
LAYER-1
 10
3.975073
 20
0.140927
 30
0.000000
  0
VERTEX
  8
LAYER-1
 10
3.970733
 20
0.142663
 30
0.000000
  0
VERTEX
  8
LAYER-1
 10
3.966392
 20
0.142663
 30
0.000000
  0
VERTEX
  8
LAYER-1
 10
3.962051
 20
0.139191
 30
0.000000
  0
VERTEX
  8
LAYER-1
 10
3.962051
 20
0.134850
 30
0.000000
  0
VERTEX
  8
LAYER-1
 10
3.962920
 20
0.130509
 30
0.000000
  0
VERTEX
  8
LAYER-1
 10
3.967261
 20
0.127904
 30
0.000000
  0
SEQEND
  8
LAYER-1
  0
POLYLINE
  8
LAYER-1
 66
  1
 70
  1
 62
  0
 10
3.922121
 20
0.123567
 30
0.000000
  0
VERTEX
  8
LAYER-1
 10
3.922121
 20
0.123567
 30
0.000000
  0
VERTEX
  8
LAYER-1
 10
3.935142
 20
0.146138
 30
0.000000
  0
VERTEX
  8
LAYER-1
 10
3.904760
 20
0.125304
 30
0.000000
  0
SEQEND
  8
LAYER-1
  0
POLYLINE
  8
LAYER-1
 66
  1
 70
  1
 62
  0
 10
3.867535
 20
0.164968
 30
0.000000
  0
VERTEX
  8
LAYER-1
 10
3.867535
 20
0.164968
 30
0.000000
  0
VERTEX
  8
LAYER-1
 10
3.848170
 20
0.177656
 30
0.000000
  0
VERTEX
  8
LAYER-1
 10
3.842159
 20
0.166304
 30
0.000000
  0
SEQEND
  8
LAYER-1
  0
POLYLINE
  8
LAYER-1
 66
  1
 70
  0
 62
  0
 10
3.844429
 20
0.061623
 30
0.000000
  0
VERTEX
  8
LAYER-1
 10
3.844429
 20
0.061623
 30
0.000000
  0
VERTEX
  8
LAYER-1
 10
3.848769
 20
0.061623
 30
0.000000
  0
VERTEX
  8
LAYER-1
 10
3.852241
 20
0.065964
 30
0.000000
  0
VERTEX
  8
LAYER-1
 10
3.853110
 20
0.071171
 30
0.000000
  0
VERTEX
  8
LAYER-1
 10
3.851374
 20
0.075512
 30
0.000000
  0
VERTEX
  8
LAYER-1
 10
3.847034
 20
0.077248
 30
0.000000
  0
VERTEX
  8
LAYER-1
 10
3.842693
 20
0.077248
 30
0.000000
  0
VERTEX
  8
LAYER-1
 10
3.838352
 20
0.073776
 30
0.000000
  0
VERTEX
  8
LAYER-1
 10
3.838352
 20
0.069436
 30
0.000000
  0
VERTEX
  8
LAYER-1
 10
3.839221
 20
0.065095
 30
0.000000
  0
VERTEX
  8
LAYER-1
 10
3.843562
 20
0.062490
 30
0.000000
  0
SEQEND
  8
LAYER-1
  0
POLYLINE
  8
LAYER-1
 66
  1
 70
  0
 62
  0
 10
3.754586
 20
0.204419
 30
0.000000
  0
VERTEX
  8
LAYER-1
 10
3.754586
 20
0.204419
 30
0.000000
  0
VERTEX
  8
LAYER-1
 10
3.758926
 20
0.204419
 30
0.000000
  0
VERTEX
  8
LAYER-1
 10
3.762398
 20
0.208760
 30
0.000000
  0
VERTEX
  8
LAYER-1
 10
3.763265
 20
0.213967
 30
0.000000
  0
VERTEX
  8
LAYER-1
 10
3.761529
 20
0.218307
 30
0.000000
  0
VERTEX
  8
LAYER-1
 10
3.757189
 20
0.220044
 30
0.000000
  0
VERTEX
  8
LAYER-1
 10
3.752850
 20
0.220044
 30
0.000000
  0
VERTEX
  8
LAYER-1
 10
3.748509
 20
0.216572
 30
0.000000
  0
VERTEX
  8
LAYER-1
 10
3.748509
 20
0.212231
 30
0.000000
  0
VERTEX
  8
LAYER-1
 10
3.749376
 20
0.207891
 30
0.000000
  0
VERTEX
  8
LAYER-1
 10
3.753717
 20
0.205286
 30
0.000000
  0
SEQEND
  8
LAYER-1
  0
POLYLINE
  8
LAYER-1
 66
  1
 70
  0
 62
  0
 10
3.916913
 20
0.197352
 30
0.000000
  0
VERTEX
  8
LAYER-1
 10
3.916913
 20
0.197352
 30
0.000000
  0
VERTEX
  8
LAYER-1
 10
3.921254
 20
0.197352
 30
0.000000
  0
VERTEX
  8
LAYER-1
 10
3.924726
 20
0.201692
 30
0.000000
  0
VERTEX
  8
LAYER-1
 10
3.925593
 20
0.206901
 30
0.000000
  0
VERTEX
  8
LAYER-1
 10
3.923857
 20
0.211241
 30
0.000000
  0
VERTEX
  8
LAYER-1
 10
3.919516
 20
0.212977
 30
0.000000
  0
VERTEX
  8
LAYER-1
 10
3.915178
 20
0.212977
 30
0.000000
  0
VERTEX
  8
LAYER-1
 10
3.910837
 20
0.209505
 30
0.000000
  0
VERTEX
  8
LAYER-1
 10
3.910837
 20
0.205165
 30
0.000000
  0
VERTEX
  8
LAYER-1
 10
3.911704
 20
0.200823
 30
0.000000
  0
VERTEX
  8
LAYER-1
 10
3.916044
 20
0.198219
 30
0.000000
  0
SEQEND
  8
LAYER-1
  0
POLYLINE
  8
LAYER-1
 66
  1
 70
  1
 62
  0
 10
4.672988
 20
0.166538
 30
0.000000
  0
VERTEX
  8
LAYER-1
 10
4.672988
 20
0.166538
 30
0.000000
  0
VERTEX
  8
LAYER-1
 10
4.679932
 20
0.140496
 30
0.000000
  0
VERTEX
  8
LAYER-1
 10
4.705106
 20
0.154384
 30
0.000000
  0
SEQEND
  8
LAYER-1
  0
POLYLINE
  8
LAYER-1
 66
  1
 70
  1
 62
  0
 10
4.799723
 20
0.202128
 30
0.000000
  0
VERTEX
  8
LAYER-1
 10
4.799723
 20
0.202128
 30
0.000000
  0
VERTEX
  8
LAYER-1
 10
4.786703
 20
0.179559
 30
0.000000
  0
VERTEX
  8
LAYER-1
 10
4.817084
 20
0.200391
 30
0.000000
  0
SEQEND
  8
LAYER-1
  0
POLYLINE
  8
LAYER-1
 66
  1
 70
  1
 62
  0
 10
4.475073
 20
0.190844
 30
0.000000
  0
VERTEX
  8
LAYER-1
 10
4.475073
 20
0.190844
 30
0.000000
  0
VERTEX
  8
LAYER-1
 10
4.458580
 20
0.165670
 30
0.000000
  0
VERTEX
  8
LAYER-1
 10
4.473337
 20
0.157857
 30
0.000000
  0
SEQEND
  8
LAYER-1
  0
POLYLINE
  8
LAYER-1
 66
  1
 70
  0
 62
  0
 10
4.585315
 20
0.183033
 30
0.000000
  0
VERTEX
  8
LAYER-1
 10
4.585315
 20
0.183033
 30
0.000000
  0
VERTEX
  8
LAYER-1
 10
4.580974
 20
0.183033
 30
0.000000
  0
VERTEX
  8
LAYER-1
 10
4.577502
 20
0.178692
 30
0.000000
  0
VERTEX
  8
LAYER-1
 10
4.576633
 20
0.173485
 30
0.000000
  0
VERTEX
  8
LAYER-1
 10
4.578369
 20
0.169145
 30
0.000000
  0
VERTEX
  8
LAYER-1
 10
4.582710
 20
0.167408
 30
0.000000
  0
VERTEX
  8
LAYER-1
 10
4.587051
 20
0.167408
 30
0.000000
  0
VERTEX
  8
LAYER-1
 10
4.591390
 20
0.170880
 30
0.000000
  0
VERTEX
  8
LAYER-1
 10
4.591390
 20
0.175221
 30
0.000000
  0
VERTEX
  8
LAYER-1
 10
4.590522
 20
0.179561
 30
0.000000
  0
VERTEX
  8
LAYER-1
 10
4.586182
 20
0.182165
 30
0.000000
  0
SEQEND
  8
LAYER-1
  0
POLYLINE
  8
LAYER-1
 66
  1
 70
  1
 62
  0
 10
4.614829
 20
0.137023
 30
0.000000
  0
VERTEX
  8
LAYER-1
 10
4.614829
 20
0.137023
 30
0.000000
  0
VERTEX
  8
LAYER-1
 10
4.601807
 20
0.114454
 30
0.000000
  0
VERTEX
  8
LAYER-1
 10
4.632190
 20
0.135286
 30
0.000000
  0
SEQEND
  8
LAYER-1
  0
POLYLINE
  8
LAYER-1
 66
  1
 70
  1
 62
  0
 10
4.822126
 20
0.137555
 30
0.000000
  0
VERTEX
  8
LAYER-1
 10
4.822126
 20
0.137555
 30
0.000000
  0
VERTEX
  8
LAYER-1
 10
4.809440
 20
0.118189
 30
0.000000
  0
VERTEX
  8
LAYER-1
 10
4.820791
 20
0.112179
 30
0.000000
  0
SEQEND
  8
LAYER-1
  0
POLYLINE
  8
LAYER-1
 66
  1
 70
  0
 62
  0
 10
4.729410
 20
0.206468
 30
0.000000
  0
VERTEX
  8
LAYER-1
 10
4.729410
 20
0.206468
 30
0.000000
  0
VERTEX
  8
LAYER-1
 10
4.725070
 20
0.206468
 30
0.000000
  0
VERTEX
  8
LAYER-1
 10
4.721598
 20
0.202127
 30
0.000000
  0
VERTEX
  8
LAYER-1
 10
4.720730
 20
0.196920
 30
0.000000
  0
VERTEX
  8
LAYER-1
 10
4.722466
 20
0.192579
 30
0.000000
  0
VERTEX
  8
LAYER-1
 10
4.726806
 20
0.190843
 30
0.000000
  0
VERTEX
  8
LAYER-1
 10
4.731146
 20
0.190843
 30
0.000000
  0
VERTEX
  8
LAYER-1
 10
4.735487
 20
0.194315
 30
0.000000
  0
VERTEX
  8
LAYER-1
 10
4.735487
 20
0.198655
 30
0.000000
  0
VERTEX
  8
LAYER-1
 10
4.734618
 20
0.202996
 30
0.000000
  0
VERTEX
  8
LAYER-1
 10
4.730278
 20
0.205600
 30
0.000000
  0
SEQEND
  8
LAYER-1
  0
POLYLINE
  8
LAYER-1
 66
  1
 70
  0
 62
  0
 10
4.516739
 20
0.196919
 30
0.000000
  0
VERTEX
  8
LAYER-1
 10
4.516739
 20
0.196919
 30
0.000000
  0
VERTEX
  8
LAYER-1
 10
4.512399
 20
0.196919
 30
0.000000
  0
VERTEX
  8
LAYER-1
 10
4.508926
 20
0.192578
 30
0.000000
  0
VERTEX
  8
LAYER-1
 10
4.508059
 20
0.187370
 30
0.000000
  0
VERTEX
  8
LAYER-1
 10
4.509795
 20
0.183029
 30
0.000000
  0
VERTEX
  8
LAYER-1
 10
4.514135
 20
0.181294
 30
0.000000
  0
VERTEX
  8
LAYER-1
 10
4.518476
 20
0.181294
 30
0.000000
  0
VERTEX
  8
LAYER-1
 10
4.522816
 20
0.184765
 30
0.000000
  0
VERTEX
  8
LAYER-1
 10
4.522816
 20
0.189106
 30
0.000000
  0
VERTEX
  8
LAYER-1
 10
4.521948
 20
0.193447
 30
0.000000
  0
VERTEX
  8
LAYER-1
 10
4.517608
 20
0.196051
 30
0.000000
  0
SEQEND
  8
LAYER-1
  0
POLYLINE
  8
LAYER-1
 66
  1
 70
  0
 62
  0
 10
4.764135
 20
0.169139
 30
0.000000
  0
VERTEX
  8
LAYER-1
 10
4.764135
 20
0.169139
 30
0.000000
  0
VERTEX
  8
LAYER-1
 10
4.759796
 20
0.169139
 30
0.000000
  0
VERTEX
  8
LAYER-1
 10
4.756323
 20
0.164797
 30
0.000000
  0
VERTEX
  8
LAYER-1
 10
4.755456
 20
0.159590
 30
0.000000
  0
VERTEX
  8
LAYER-1
 10
4.757192
 20
0.155249
 30
0.000000
  0
VERTEX
  8
LAYER-1
 10
4.761532
 20
0.153514
 30
0.000000
  0
VERTEX
  8
LAYER-1
 10
4.765872
 20
0.153514
 30
0.000000
  0
VERTEX
  8
LAYER-1
 10
4.770212
 20
0.156985
 30
0.000000
  0
VERTEX
  8
LAYER-1
 10
4.770212
 20
0.161326
 30
0.000000
  0
VERTEX
  8
LAYER-1
 10
4.769345
 20
0.165666
 30
0.000000
  0
VERTEX
  8
LAYER-1
 10
4.765004
 20
0.168271
 30
0.000000
  0
SEQEND
  8
LAYER-1
  0
POLYLINE
  8
LAYER-1
 66
  1
 70
  1
 62
  0
 10
4.378718
 20
0.115754
 30
0.000000
  0
VERTEX
  8
LAYER-1
 10
4.378718
 20
0.115754
 30
0.000000
  0
VERTEX
  8
LAYER-1
 10
4.371773
 20
0.141795
 30
0.000000
  0
VERTEX
  8
LAYER-1
 10
4.346600
 20
0.127908
 30
0.000000
  0
SEQEND
  8
LAYER-1
  0
POLYLINE
  8
LAYER-1
 66
  1
 70
  1
 62
  0
 10
4.226809
 20
0.156551
 30
0.000000
  0
VERTEX
  8
LAYER-1
 10
4.226809
 20
0.156551
 30
0.000000
  0
VERTEX
  8
LAYER-1
 10
4.239830
 20
0.179121
 30
0.000000
  0
VERTEX
  8
LAYER-1
 10
4.209448
 20
0.158289
 30
0.000000
  0
SEQEND
  8
LAYER-1
  0
POLYLINE
  8
LAYER-1
 66
  1
 70
  1
 62
  0
 10
4.310142
 20
0.116625
 30
0.000000
  0
VERTEX
  8
LAYER-1
 10
4.310142
 20
0.116625
 30
0.000000
  0
VERTEX
  8
LAYER-1
 10
4.326635
 20
0.141798
 30
0.000000
  0
VERTEX
  8
LAYER-1
 10
4.311878
 20
0.149611
 30
0.000000
  0
SEQEND
  8
LAYER-1
  0
POLYLINE
  8
LAYER-1
 66
  1
 70
  0
 62
  0
 10
4.484622
 20
0.118362
 30
0.000000
  0
VERTEX
  8
LAYER-1
 10
4.484622
 20
0.118362
 30
0.000000
  0
VERTEX
  8
LAYER-1
 10
4.488963
 20
0.118362
 30
0.000000
  0
VERTEX
  8
LAYER-1
 10
4.492435
 20
0.122703
 30
0.000000
  0
VERTEX
  8
LAYER-1
 10
4.493303
 20
0.127910
 30
0.000000
  0
VERTEX
  8
LAYER-1
 10
4.491567
 20
0.132251
 30
0.000000
  0
VERTEX
  8
LAYER-1
 10
4.487226
 20
0.133987
 30
0.000000
  0
VERTEX
  8
LAYER-1
 10
4.482886
 20
0.133987
 30
0.000000
  0
VERTEX
  8
LAYER-1
 10
4.478545
 20
0.130515
 30
0.000000
  0
VERTEX
  8
LAYER-1
 10
4.478545
 20
0.126174
 30
0.000000
  0
VERTEX
  8
LAYER-1
 10
4.479413
 20
0.121834
 30
0.000000
  0
VERTEX
  8
LAYER-1
 10
4.483754
 20
0.119229
 30
0.000000
  0
SEQEND
  8
LAYER-1
  0
POLYLINE
  8
LAYER-1
 66
  1
 70
  1
 62
  0
 10
4.436009
 20
0.133117
 30
0.000000
  0
VERTEX
  8
LAYER-1
 10
4.436009
 20
0.133117
 30
0.000000
  0
VERTEX
  8
LAYER-1
 10
4.449031
 20
0.155688
 30
0.000000
  0
VERTEX
  8
LAYER-1
 10
4.418648
 20
0.134855
 30
0.000000
  0
SEQEND
  8
LAYER-1
  0
POLYLINE
  8
LAYER-1
 66
  1
 70
  1
 62
  0
 10
4.325066
 20
0.169042
 30
0.000000
  0
VERTEX
  8
LAYER-1
 10
4.325066
 20
0.169042
 30
0.000000
  0
VERTEX
  8
LAYER-1
 10
4.337752
 20
0.188406
 30
0.000000
  0
VERTEX
  8
LAYER-1
 10
4.326402
 20
0.194417
 30
0.000000
  0
SEQEND
  8
LAYER-1
  0
POLYLINE
  8
LAYER-1
 66
  1
 70
  0
 62
  0
 10
4.280714
 20
0.200513
 30
0.000000
  0
VERTEX
  8
LAYER-1
 10
4.280714
 20
0.200513
 30
0.000000
  0
VERTEX
  8
LAYER-1
 10
4.285054
 20
0.200513
 30
0.000000
  0
VERTEX
  8
LAYER-1
 10
4.288526
 20
0.204854
 30
0.000000
  0
VERTEX
  8
LAYER-1
 10
4.289394
 20
0.210062
 30
0.000000
  0
VERTEX
  8
LAYER-1
 10
4.287658
 20
0.214402
 30
0.000000
  0
VERTEX
  8
LAYER-1
 10
4.283318
 20
0.216138
 30
0.000000
  0
VERTEX
  8
LAYER-1
 10
4.278977
 20
0.216138
 30
0.000000
  0
VERTEX
  8
LAYER-1
 10
4.274637
 20
0.212667
 30
0.000000
  0
VERTEX
  8
LAYER-1
 10
4.274637
 20
0.208326
 30
0.000000
  0
VERTEX
  8
LAYER-1
 10
4.275505
 20
0.203985
 30
0.000000
  0
VERTEX
  8
LAYER-1
 10
4.279846
 20
0.201380
 30
0.000000
  0
SEQEND
  8
LAYER-1
  0
POLYLINE
  8
LAYER-1
 66
  1
 70
  0
 62
  0
 10
4.258059
 20
0.122702
 30
0.000000
  0
VERTEX
  8
LAYER-1
 10
4.258059
 20
0.122702
 30
0.000000
  0
VERTEX
  8
LAYER-1
 10
4.262399
 20
0.122702
 30
0.000000
  0
VERTEX
  8
LAYER-1
 10
4.265871
 20
0.127042
 30
0.000000
  0
VERTEX
  8
LAYER-1
 10
4.266739
 20
0.132250
 30
0.000000
  0
VERTEX
  8
LAYER-1
 10
4.265003
 20
0.136591
 30
0.000000
  0
VERTEX
  8
LAYER-1
 10
4.260663
 20
0.138327
 30
0.000000
  0
VERTEX
  8
LAYER-1
 10
4.256323
 20
0.138327
 30
0.000000
  0
VERTEX
  8
LAYER-1
 10
4.251982
 20
0.134855
 30
0.000000
  0
VERTEX
  8
LAYER-1
 10
4.251982
 20
0.130514
 30
0.000000
  0
VERTEX
  8
LAYER-1
 10
4.252850
 20
0.126173
 30
0.000000
  0
VERTEX
  8
LAYER-1
 10
4.257191
 20
0.123569
 30
0.000000
  0
SEQEND
  8
LAYER-1
  0
POLYLINE
  8
LAYER-1
 66
  1
 70
  0
 62
  0
 10
4.422121
 20
0.199958
 30
0.000000
  0
VERTEX
  8
LAYER-1
 10
4.422121
 20
0.199958
 30
0.000000
  0
VERTEX
  8
LAYER-1
 10
4.426462
 20
0.199958
 30
0.000000
  0
VERTEX
  8
LAYER-1
 10
4.429934
 20
0.204298
 30
0.000000
  0
VERTEX
  8
LAYER-1
 10
4.430801
 20
0.209507
 30
0.000000
  0
VERTEX
  8
LAYER-1
 10
4.429066
 20
0.213847
 30
0.000000
  0
VERTEX
  8
LAYER-1
 10
4.424725
 20
0.215583
 30
0.000000
  0
VERTEX
  8
LAYER-1
 10
4.420385
 20
0.215583
 30
0.000000
  0
VERTEX
  8
LAYER-1
 10
4.416044
 20
0.212111
 30
0.000000
  0
VERTEX
  8
LAYER-1
 10
4.416044
 20
0.207770
 30
0.000000
  0
VERTEX
  8
LAYER-1
 10
4.416913
 20
0.203429
 30
0.000000
  0
VERTEX
  8
LAYER-1
 10
4.421253
 20
0.200825
 30
0.000000
  0
SEQEND
  8
LAYER-1
  0
POLYLINE
  8
LAYER-1
 66
  1
 70
  1
 62
  0
 10
4.873939
 20
0.156553
 30
0.000000
  0
VERTEX
  8
LAYER-1
 10
4.873939
 20
0.156553
 30
0.000000
  0
VERTEX
  8
LAYER-1
 10
4.899980
 20
0.163498
 30
0.000000
  0
VERTEX
  8
LAYER-1
 10
4.886092
 20
0.188672
 30
0.000000
  0
SEQEND
  8
LAYER-1
  0
POLYLINE
  8
LAYER-1
 66
  1
 70
  1
 62
  0
 10
4.556234
 20
0.209507
 30
0.000000
  0
VERTEX
  8
LAYER-1
 10
4.556234
 20
0.209507
 30
0.000000
  0
VERTEX
  8
LAYER-1
 10
4.578804
 20
0.196485
 30
0.000000
  0
VERTEX
  8
LAYER-1
 10
4.557971
 20
0.226867
 30
0.000000
  0
SEQEND
  8
LAYER-1
  0
POLYLINE
  8
LAYER-1
 66
  1
 70
  1
 62
  0
 10
5.492863
 20
0.114883
 30
0.000000
  0
VERTEX
  8
LAYER-1
 10
5.492863
 20
0.114883
 30
0.000000
  0
VERTEX
  8
LAYER-1
 10
5.518038
 20
0.098390
 30
0.000000
  0
VERTEX
  8
LAYER-1
 10
5.525850
 20
0.113147
 30
0.000000
  0
SEQEND
  8
LAYER-1
  0
POLYLINE
  8
LAYER-1
 66
  1
 70
  0
 62
  0
 10
5.314044
 20
0.123566
 30
0.000000
  0
VERTEX
  8
LAYER-1
 10
5.314044
 20
0.123566
 30
0.000000
  0
VERTEX
  8
LAYER-1
 10
5.314044
 20
0.119226
 30
0.000000
  0
VERTEX
  8
LAYER-1
 10
5.318384
 20
0.115753
 30
0.000000
  0
VERTEX
  8
LAYER-1
 10
5.323592
 20
0.114886
 30
0.000000
  0
VERTEX
  8
LAYER-1
 10
5.327933
 20
0.116622
 30
0.000000
  0
VERTEX
  8
LAYER-1
 10
5.329669
 20
0.120962
 30
0.000000
  0
VERTEX
  8
LAYER-1
 10
5.329669
 20
0.125303
 30
0.000000
  0
VERTEX
  8
LAYER-1
 10
5.326197
 20
0.129642
 30
0.000000
  0
VERTEX
  8
LAYER-1
 10
5.321856
 20
0.129642
 30
0.000000
  0
VERTEX
  8
LAYER-1
 10
5.317515
 20
0.128774
 30
0.000000
  0
VERTEX
  8
LAYER-1
 10
5.314912
 20
0.124435
 30
0.000000
  0
SEQEND
  8
LAYER-1
  0
POLYLINE
  8
LAYER-1
 66
  1
 70
  1
 62
  0
 10
4.944252
 20
0.143532
 30
0.000000
  0
VERTEX
  8
LAYER-1
 10
4.944252
 20
0.143532
 30
0.000000
  0
VERTEX
  8
LAYER-1
 10
4.966822
 20
0.130511
 30
0.000000
  0
VERTEX
  8
LAYER-1
 10
4.945989
 20
0.160892
 30
0.000000
  0
SEQEND
  8
LAYER-1
  0
POLYLINE
  8
LAYER-1
 66
  1
 70
  1
 62
  0
 10
4.907260
 20
0.214546
 30
0.000000
  0
VERTEX
  8
LAYER-1
 10
4.907260
 20
0.214546
 30
0.000000
  0
VERTEX
  8
LAYER-1
 10
4.926625
 20
0.201860
 30
0.000000
  0
VERTEX
  8
LAYER-1
 10
4.932635
 20
0.213212
 30
0.000000
  0
SEQEND
  8
LAYER-1
  0
POLYLINE
  8
LAYER-1
 66
  1
 70
  0
 62
  0
 10
4.551895
 20
0.149610
 30
0.000000
  0
VERTEX
  8
LAYER-1
 10
4.551895
 20
0.149610
 30
0.000000
  0
VERTEX
  8
LAYER-1
 10
4.551895
 20
0.145270
 30
0.000000
  0
VERTEX
  8
LAYER-1
 10
4.556235
 20
0.141797
 30
0.000000
  0
VERTEX
  8
LAYER-1
 10
4.561443
 20
0.140929
 30
0.000000
  0
VERTEX
  8
LAYER-1
 10
4.565784
 20
0.142665
 30
0.000000
  0
VERTEX
  8
LAYER-1
 10
4.567519
 20
0.147007
 30
0.000000
  0
VERTEX
  8
LAYER-1
 10
4.567519
 20
0.151346
 30
0.000000
  0
VERTEX
  8
LAYER-1
 10
4.564047
 20
0.155686
 30
0.000000
  0
VERTEX
  8
LAYER-1
 10
4.559707
 20
0.155686
 30
0.000000
  0
VERTEX
  8
LAYER-1
 10
4.555366
 20
0.154819
 30
0.000000
  0
VERTEX
  8
LAYER-1
 10
4.552762
 20
0.150478
 30
0.000000
  0
SEQEND
  8
LAYER-1
  0
POLYLINE
  8
LAYER-1
 66
  1
 70
  0
 62
  0
 10
4.958140
 20
0.111415
 30
0.000000
  0
VERTEX
  8
LAYER-1
 10
4.958140
 20
0.111415
 30
0.000000
  0
VERTEX
  8
LAYER-1
 10
4.958140
 20
0.107073
 30
0.000000
  0
VERTEX
  8
LAYER-1
 10
4.962481
 20
0.103602
 30
0.000000
  0
VERTEX
  8
LAYER-1
 10
4.967689
 20
0.102733
 30
0.000000
  0
VERTEX
  8
LAYER-1
 10
4.972030
 20
0.104470
 30
0.000000
  0
VERTEX
  8
LAYER-1
 10
4.973765
 20
0.108810
 30
0.000000
  0
VERTEX
  8
LAYER-1
 10
4.973765
 20
0.113151
 30
0.000000
  0
VERTEX
  8
LAYER-1
 10
4.970294
 20
0.117491
 30
0.000000
  0
VERTEX
  8
LAYER-1
 10
4.965953
 20
0.117491
 30
0.000000
  0
VERTEX
  8
LAYER-1
 10
4.961612
 20
0.116622
 30
0.000000
  0
VERTEX
  8
LAYER-1
 10
4.959009
 20
0.112283
 30
0.000000
  0
SEQEND
  8
LAYER-1
  0
POLYLINE
  8
LAYER-1
 66
  1
 70
  0
 62
  0
 10
5.026717
 20
0.147005
 30
0.000000
  0
VERTEX
  8
LAYER-1
 10
5.026717
 20
0.147005
 30
0.000000
  0
VERTEX
  8
LAYER-1
 10
5.026717
 20
0.142665
 30
0.000000
  0
VERTEX
  8
LAYER-1
 10
5.031058
 20
0.139192
 30
0.000000
  0
VERTEX
  8
LAYER-1
 10
5.036265
 20
0.138323
 30
0.000000
  0
VERTEX
  8
LAYER-1
 10
5.040606
 20
0.140060
 30
0.000000
  0
VERTEX
  8
LAYER-1
 10
5.042342
 20
0.144401
 30
0.000000
  0
VERTEX
  8
LAYER-1
 10
5.042342
 20
0.148741
 30
0.000000
  0
VERTEX
  8
LAYER-1
 10
5.038870
 20
0.153082
 30
0.000000
  0
VERTEX
  8
LAYER-1
 10
5.034530
 20
0.153082
 30
0.000000
  0
VERTEX
  8
LAYER-1
 10
5.030189
 20
0.152213
 30
0.000000
  0
VERTEX
  8
LAYER-1
 10
5.027585
 20
0.147873
 30
0.000000
  0
SEQEND
  8
LAYER-1
  0
POLYLINE
  8
LAYER-1
 66
  1
 70
  1
 62
  0
 10
5.066128
 20
0.168272
 30
0.000000
  0
VERTEX
  8
LAYER-1
 10
5.066128
 20
0.168272
 30
0.000000
  0
VERTEX
  8
LAYER-1
 10
5.073072
 20
0.142232
 30
0.000000
  0
VERTEX
  8
LAYER-1
 10
5.098245
 20
0.156119
 30
0.000000
  0
SEQEND
  8
LAYER-1
  0
POLYLINE
  8
LAYER-1
 66
  1
 70
  1
 62
  0
 10
5.227673
 20
0.196920
 30
0.000000
  0
VERTEX
  8
LAYER-1
 10
5.227673
 20
0.196920
 30
0.000000
  0
VERTEX
  8
LAYER-1
 10
5.214652
 20
0.174349
 30
0.000000
  0
VERTEX
  8
LAYER-1
 10
5.245034
 20
0.195182
 30
0.000000
  0
SEQEND
  8
LAYER-1
  0
POLYLINE
  8
LAYER-1
 66
  1
 70
  1
 62
  0
 10
5.620034
 20
0.167401
 30
0.000000
  0
VERTEX
  8
LAYER-1
 10
5.620034
 20
0.167401
 30
0.000000
  0
VERTEX
  8
LAYER-1
 10
5.603541
 20
0.142227
 30
0.000000
  0
VERTEX
  8
LAYER-1
 10
5.618298
 20
0.134415
 30
0.000000
  0
SEQEND
  8
LAYER-1
  0
POLYLINE
  8
LAYER-1
 66
  1
 70
  0
 62
  0
 10
5.015867
 20
0.199522
 30
0.000000
  0
VERTEX
  8
LAYER-1
 10
5.015867
 20
0.199522
 30
0.000000
  0
VERTEX
  8
LAYER-1
 10
5.011527
 20
0.199522
 30
0.000000
  0
VERTEX
  8
LAYER-1
 10
5.008055
 20
0.195182
 30
0.000000
  0
VERTEX
  8
LAYER-1
 10
5.007187
 20
0.189974
 30
0.000000
  0
VERTEX
  8
LAYER-1
 10
5.008923
 20
0.185633
 30
0.000000
  0
VERTEX
  8
LAYER-1
 10
5.013263
 20
0.183897
 30
0.000000
  0
VERTEX
  8
LAYER-1
 10
5.017603
 20
0.183897
 30
0.000000
  0
VERTEX
  8
LAYER-1
 10
5.021944
 20
0.187369
 30
0.000000
  0
VERTEX
  8
LAYER-1
 10
5.021944
 20
0.191710
 30
0.000000
  0
VERTEX
  8
LAYER-1
 10
5.021076
 20
0.196051
 30
0.000000
  0
VERTEX
  8
LAYER-1
 10
5.016735
 20
0.198655
 30
0.000000
  0
SEQEND
  8
LAYER-1
  0
POLYLINE
  8
LAYER-1
 66
  1
 70
  1
 62
  0
 10
5.079236
 20
0.123133
 30
0.000000
  0
VERTEX
  8
LAYER-1
 10
5.079236
 20
0.123133
 30
0.000000
  0
VERTEX
  8
LAYER-1
 10
5.066215
 20
0.100563
 30
0.000000
  0
VERTEX
  8
LAYER-1
 10
5.096597
 20
0.121396
 30
0.000000
  0
SEQEND
  8
LAYER-1
  0
POLYLINE
  8
LAYER-1
 66
  1
 70
  1
 62
  0
 10
5.147979
 20
0.100895
 30
0.000000
  0
VERTEX
  8
LAYER-1
 10
5.147979
 20
0.100895
 30
0.000000
  0
VERTEX
  8
LAYER-1
 10
5.160667
 20
0.120260
 30
0.000000
  0
VERTEX
  8
LAYER-1
 10
5.149315
 20
0.126271
 30
0.000000
  0
SEQEND
  8
LAYER-1
  0
POLYLINE
  8
LAYER-1
 66
  1
 70
  0
 62
  0
 10
5.167777
 20
0.201258
 30
0.000000
  0
VERTEX
  8
LAYER-1
 10
5.167777
 20
0.201258
 30
0.000000
  0
VERTEX
  8
LAYER-1
 10
5.163437
 20
0.201258
 30
0.000000
  0
VERTEX
  8
LAYER-1
 10
5.159964
 20
0.196917
 30
0.000000
  0
VERTEX
  8
LAYER-1
 10
5.159096
 20
0.191710
 30
0.000000
  0
VERTEX
  8
LAYER-1
 10
5.160832
 20
0.187369
 30
0.000000
  0
VERTEX
  8
LAYER-1
 10
5.165173
 20
0.185633
 30
0.000000
  0
VERTEX
  8
LAYER-1
 10
5.169513
 20
0.185633
 30
0.000000
  0
VERTEX
  8
LAYER-1
 10
5.173853
 20
0.189105
 30
0.000000
  0
VERTEX
  8
LAYER-1
 10
5.173853
 20
0.193446
 30
0.000000
  0
VERTEX
  8
LAYER-1
 10
5.172985
 20
0.197786
 30
0.000000
  0
VERTEX
  8
LAYER-1
 10
5.168644
 20
0.200391
 30
0.000000
  0
SEQEND
  8
LAYER-1
  0
POLYLINE
  8
LAYER-1
 66
  1
 70
  0
 62
  0
 10
5.672117
 20
0.161324
 30
0.000000
  0
VERTEX
  8
LAYER-1
 10
5.672117
 20
0.161324
 30
0.000000
  0
VERTEX
  8
LAYER-1
 10
5.667777
 20
0.161324
 30
0.000000
  0
VERTEX
  8
LAYER-1
 10
5.664305
 20
0.156983
 30
0.000000
  0
VERTEX
  8
LAYER-1
 10
5.663437
 20
0.151776
 30
0.000000
  0
VERTEX
  8
LAYER-1
 10
5.665173
 20
0.147435
 30
0.000000
  0
VERTEX
  8
LAYER-1
 10
5.669514
 20
0.145699
 30
0.000000
  0
VERTEX
  8
LAYER-1
 10
5.673853
 20
0.145699
 30
0.000000
  0
VERTEX
  8
LAYER-1
 10
5.678194
 20
0.149171
 30
0.000000
  0
VERTEX
  8
LAYER-1
 10
5.678194
 20
0.153511
 30
0.000000
  0
VERTEX
  8
LAYER-1
 10
5.677326
 20
0.157852
 30
0.000000
  0
VERTEX
  8
LAYER-1
 10
5.672986
 20
0.160457
 30
0.000000
  0
SEQEND
  8
LAYER-1
  0
POLYLINE
  8
LAYER-1
 66
  1
 70
  0
 62
  0
 10
5.580972
 20
0.129206
 30
0.000000
  0
VERTEX
  8
LAYER-1
 10
5.580972
 20
0.129206
 30
0.000000
  0
VERTEX
  8
LAYER-1
 10
5.576631
 20
0.129206
 30
0.000000
  0
VERTEX
  8
LAYER-1
 10
5.573160
 20
0.124865
 30
0.000000
  0
VERTEX
  8
LAYER-1
 10
5.572292
 20
0.119658
 30
0.000000
  0
VERTEX
  8
LAYER-1
 10
5.574028
 20
0.115317
 30
0.000000
  0
VERTEX
  8
LAYER-1
 10
5.578368
 20
0.113581
 30
0.000000
  0
VERTEX
  8
LAYER-1
 10
5.582708
 20
0.113581
 30
0.000000
  0
VERTEX
  8
LAYER-1
 10
5.587049
 20
0.117053
 30
0.000000
  0
VERTEX
  8
LAYER-1
 10
5.587049
 20
0.121394
 30
0.000000
  0
VERTEX
  8
LAYER-1
 10
5.586181
 20
0.125734
 30
0.000000
  0
VERTEX
  8
LAYER-1
 10
5.581840
 20
0.128339
 30
0.000000
  0
SEQEND
  8
LAYER-1
  0
POLYLINE
  8
LAYER-1
 66
  1
 70
  1
 62
  0
 10
5.265867
 20
0.183465
 30
0.000000
  0
VERTEX
  8
LAYER-1
 10
5.265867
 20
0.183465
 30
0.000000
  0
VERTEX
  8
LAYER-1
 10
5.291908
 20
0.190409
 30
0.000000
  0
VERTEX
  8
LAYER-1
 10
5.278021
 20
0.215583
 30
0.000000
  0
SEQEND
  8
LAYER-1
  0
POLYLINE
  8
LAYER-1
 66
  1
 70
  0
 62
  0
 10
5.234617
 20
0.133985
 30
0.000000
  0
VERTEX
  8
LAYER-1
 10
5.234617
 20
0.133985
 30
0.000000
  0
VERTEX
  8
LAYER-1
 10
5.234617
 20
0.129645
 30
0.000000
  0
VERTEX
  8
LAYER-1
 10
5.238958
 20
0.126172
 30
0.000000
  0
VERTEX
  8
LAYER-1
 10
5.244166
 20
0.125305
 30
0.000000
  0
VERTEX
  8
LAYER-1
 10
5.248506
 20
0.127041
 30
0.000000
  0
VERTEX
  8
LAYER-1
 10
5.250242
 20
0.131382
 30
0.000000
  0
VERTEX
  8
LAYER-1
 10
5.250242
 20
0.135722
 30
0.000000
  0
VERTEX
  8
LAYER-1
 10
5.246771
 20
0.140061
 30
0.000000
  0
VERTEX
  8
LAYER-1
 10
5.242430
 20
0.140061
 30
0.000000
  0
VERTEX
  8
LAYER-1
 10
5.238089
 20
0.139194
 30
0.000000
  0
VERTEX
  8
LAYER-1
 10
5.235484
 20
0.134854
 30
0.000000
  0
SEQEND
  8
LAYER-1
  0
POLYLINE
  8
LAYER-1
 66
  1
 70
  1
 62
  0
 10
5.329670
 20
0.147440
 30
0.000000
  0
VERTEX
  8
LAYER-1
 10
5.329670
 20
0.147440
 30
0.000000
  0
VERTEX
  8
LAYER-1
 10
5.342690
 20
0.170010
 30
0.000000
  0
VERTEX
  8
LAYER-1
 10
5.312309
 20
0.149178
 30
0.000000
  0
SEQEND
  8
LAYER-1
  0
POLYLINE
  8
LAYER-1
 66
  1
 70
  0
 62
  0
 10
5.384791
 20
0.181729
 30
0.000000
  0
VERTEX
  8
LAYER-1
 10
5.384791
 20
0.181729
 30
0.000000
  0
VERTEX
  8
LAYER-1
 10
5.384791
 20
0.177389
 30
0.000000
  0
VERTEX
  8
LAYER-1
 10
5.389131
 20
0.173916
 30
0.000000
  0
VERTEX
  8
LAYER-1
 10
5.394339
 20
0.173047
 30
0.000000
  0
VERTEX
  8
LAYER-1
 10
5.398680
 20
0.174784
 30
0.000000
  0
VERTEX
  8
LAYER-1
 10
5.400416
 20
0.179124
 30
0.000000
  0
VERTEX
  8
LAYER-1
 10
5.400416
 20
0.183465
 30
0.000000
  0
VERTEX
  8
LAYER-1
 10
5.396944
 20
0.187805
 30
0.000000
  0
VERTEX
  8
LAYER-1
 10
5.392603
 20
0.187805
 30
0.000000
  0
VERTEX
  8
LAYER-1
 10
5.388262
 20
0.186936
 30
0.000000
  0
VERTEX
  8
LAYER-1
 10
5.385658
 20
0.182597
 30
0.000000
  0
SEQEND
  8
LAYER-1
  0
POLYLINE
  8
LAYER-1
 66
  1
 70
  1
 62
  0
 10
6.130715
 20
0.198134
 30
0.000000
  0
VERTEX
  8
LAYER-1
 10
6.130715
 20
0.198134
 30
0.000000
  0
VERTEX
  8
LAYER-1
 10
6.123770
 20
0.224174
 30
0.000000
  0
VERTEX
  8
LAYER-1
 10
6.098596
 20
0.210286
 30
0.000000
  0
SEQEND
  8
LAYER-1
  0
POLYLINE
  8
LAYER-1
 66
  1
 70
  0
 62
  0
 10
6.171254
 20
0.071917
 30
0.000000
  0
VERTEX
  8
LAYER-1
 10
6.171254
 20
0.071917
 30
0.000000
  0
VERTEX
  8
LAYER-1
 10
6.175594
 20
0.071917
 30
0.000000
  0
VERTEX
  8
LAYER-1
 10
6.179067
 20
0.076258
 30
0.000000
  0
VERTEX
  8
LAYER-1
 10
6.179934
 20
0.081466
 30
0.000000
  0
VERTEX
  8
LAYER-1
 10
6.178198
 20
0.085807
 30
0.000000
  0
VERTEX
  8
LAYER-1
 10
6.173858
 20
0.087542
 30
0.000000
  0
VERTEX
  8
LAYER-1
 10
6.169518
 20
0.087542
 30
0.000000
  0
VERTEX
  8
LAYER-1
 10
6.165178
 20
0.084071
 30
0.000000
  0
VERTEX
  8
LAYER-1
 10
6.165178
 20
0.079730
 30
0.000000
  0
VERTEX
  8
LAYER-1
 10
6.166046
 20
0.075389
 30
0.000000
  0
VERTEX
  8
LAYER-1
 10
6.170385
 20
0.072785
 30
0.000000
  0
SEQEND
  8
LAYER-1
  0
POLYLINE
  8
LAYER-1
 66
  1
 70
  1
 62
  0
 10
5.467690
 20
0.104904
 30
0.000000
  0
VERTEX
  8
LAYER-1
 10
5.467690
 20
0.104904
 30
0.000000
  0
VERTEX
  8
LAYER-1
 10
5.480710
 20
0.127474
 30
0.000000
  0
VERTEX
  8
LAYER-1
 10
5.450329
 20
0.106641
 30
0.000000
  0
SEQEND
  8
LAYER-1
  0
POLYLINE
  8
LAYER-1
 66
  1
 70
  0
 62
  0
 10
5.511442
 20
0.183238
 30
0.000000
  0
VERTEX
  8
LAYER-1
 10
5.511442
 20
0.183238
 30
0.000000
  0
VERTEX
  8
LAYER-1
 10
5.515783
 20
0.183238
 30
0.000000
  0
VERTEX
  8
LAYER-1
 10
5.519254
 20
0.187579
 30
0.000000
  0
VERTEX
  8
LAYER-1
 10
5.520123
 20
0.192786
 30
0.000000
  0
VERTEX
  8
LAYER-1
 10
5.518386
 20
0.197127
 30
0.000000
  0
VERTEX
  8
LAYER-1
 10
5.514047
 20
0.198863
 30
0.000000
  0
VERTEX
  8
LAYER-1
 10
5.509706
 20
0.198863
 30
0.000000
  0
VERTEX
  8
LAYER-1
 10
5.505366
 20
0.195391
 30
0.000000
  0
VERTEX
  8
LAYER-1
 10
5.505366
 20
0.191050
 30
0.000000
  0
VERTEX
  8
LAYER-1
 10
5.506234
 20
0.186710
 30
0.000000
  0
VERTEX
  8
LAYER-1
 10
5.510574
 20
0.184106
 30
0.000000
  0
SEQEND
  8
LAYER-1
  0
POLYLINE
  8
LAYER-1
 66
  1
 70
  1
 62
  0
 10
6.051028
 20
0.114020
 30
0.000000
  0
VERTEX
  8
LAYER-1
 10
6.051028
 20
0.114020
 30
0.000000
  0
VERTEX
  8
LAYER-1
 10
6.024987
 20
0.107075
 30
0.000000
  0
VERTEX
  8
LAYER-1
 10
6.038875
 20
0.081902
 30
0.000000
  0
SEQEND
  8
LAYER-1
  0
POLYLINE
  8
LAYER-1
 66
  1
 70
  0
 62
  0
 10
5.416041
 20
0.128778
 30
0.000000
  0
VERTEX
  8
LAYER-1
 10
5.416041
 20
0.128778
 30
0.000000
  0
VERTEX
  8
LAYER-1
 10
5.416041
 20
0.133117
 30
0.000000
  0
VERTEX
  8
LAYER-1
 10
5.411700
 20
0.136591
 30
0.000000
  0
VERTEX
  8
LAYER-1
 10
5.406492
 20
0.137458
 30
0.000000
  0
VERTEX
  8
LAYER-1
 10
5.402152
 20
0.135722
 30
0.000000
  0
VERTEX
  8
LAYER-1
 10
5.400416
 20
0.131382
 30
0.000000
  0
VERTEX
  8
LAYER-1
 10
5.400416
 20
0.127040
 30
0.000000
  0
VERTEX
  8
LAYER-1
 10
5.403887
 20
0.122702
 30
0.000000
  0
VERTEX
  8
LAYER-1
 10
5.408228
 20
0.122702
 30
0.000000
  0
VERTEX
  8
LAYER-1
 10
5.412569
 20
0.123569
 30
0.000000
  0
VERTEX
  8
LAYER-1
 10
5.415173
 20
0.127909
 30
0.000000
  0
SEQEND
  8
LAYER-1
  0
POLYLINE
  8
LAYER-1
 66
  1
 70
  1
 62
  0
 10
5.999813
 20
0.103604
 30
0.000000
  0
VERTEX
  8
LAYER-1
 10
5.999813
 20
0.103604
 30
0.000000
  0
VERTEX
  8
LAYER-1
 10
5.972034
 20
0.120096
 30
0.000000
  0
VERTEX
  8
LAYER-1
 10
5.992867
 20
0.089715
 30
0.000000
  0
SEQEND
  8
LAYER-1
  0
POLYLINE
  8
LAYER-1
 66
  1
 70
  0
 62
  0
 10
5.710312
 20
0.185197
 30
0.000000
  0
VERTEX
  8
LAYER-1
 10
5.710312
 20
0.185197
 30
0.000000
  0
VERTEX
  8
LAYER-1
 10
5.710312
 20
0.189538
 30
0.000000
  0
VERTEX
  8
LAYER-1
 10
5.705971
 20
0.193009
 30
0.000000
  0
VERTEX
  8
LAYER-1
 10
5.700764
 20
0.193878
 30
0.000000
  0
VERTEX
  8
LAYER-1
 10
5.696423
 20
0.192140
 30
0.000000
  0
VERTEX
  8
LAYER-1
 10
5.694687
 20
0.187802
 30
0.000000
  0
VERTEX
  8
LAYER-1
 10
5.694687
 20
0.183461
 30
0.000000
  0
VERTEX
  8
LAYER-1
 10
5.698159
 20
0.179120
 30
0.000000
  0
VERTEX
  8
LAYER-1
 10
5.702499
 20
0.179120
 30
0.000000
  0
VERTEX
  8
LAYER-1
 10
5.706840
 20
0.179989
 30
0.000000
  0
VERTEX
  8
LAYER-1
 10
5.709444
 20
0.184328
 30
0.000000
  0
SEQEND
  8
LAYER-1
  0
POLYLINE
  8
LAYER-1
 66
  1
 70
  1
 62
  0
 10
6.280976
 20
0.091711
 30
0.000000
  0
VERTEX
  8
LAYER-1
 10
6.280976
 20
0.091711
 30
0.000000
  0
VERTEX
  8
LAYER-1
 10
6.274031
 20
0.117753
 30
0.000000
  0
VERTEX
  8
LAYER-1
 10
6.248857
 20
0.103864
 30
0.000000
  0
SEQEND
  8
LAYER-1
  0
POLYLINE
  8
LAYER-1
 66
  1
 70
  0
 62
  0
 10
6.370821
 20
0.191972
 30
0.000000
  0
VERTEX
  8
LAYER-1
 10
6.370821
 20
0.191972
 30
0.000000
  0
VERTEX
  8
LAYER-1
 10
6.375161
 20
0.191972
 30
0.000000
  0
VERTEX
  8
LAYER-1
 10
6.378633
 20
0.196312
 30
0.000000
  0
VERTEX
  8
LAYER-1
 10
6.379500
 20
0.201519
 30
0.000000
  0
VERTEX
  8
LAYER-1
 10
6.377764
 20
0.205861
 30
0.000000
  0
VERTEX
  8
LAYER-1
 10
6.373426
 20
0.207597
 30
0.000000
  0
VERTEX
  8
LAYER-1
 10
6.369085
 20
0.207597
 30
0.000000
  0
VERTEX
  8
LAYER-1
 10
6.364744
 20
0.204124
 30
0.000000
  0
VERTEX
  8
LAYER-1
 10
6.364744
 20
0.199784
 30
0.000000
  0
VERTEX
  8
LAYER-1
 10
6.365613
 20
0.195443
 30
0.000000
  0
VERTEX
  8
LAYER-1
 10
6.369952
 20
0.192839
 30
0.000000
  0
SEQEND
  8
LAYER-1
  0
POLYLINE
  8
LAYER-1
 66
  1
 70
  1
 62
  0
 10
6.356063
 20
0.227128
 30
0.000000
  0
VERTEX
  8
LAYER-1
 10
6.356063
 20
0.227128
 30
0.000000
  0
VERTEX
  8
LAYER-1
 10
6.330020
 20
0.220183
 30
0.000000
  0
VERTEX
  8
LAYER-1
 10
6.343910
 20
0.195010
 30
0.000000
  0
SEQEND
  8
LAYER-1
  0
POLYLINE
  8
LAYER-1
 66
  1
 70
  1
 62
  0
 10
5.604843
 20
0.085810
 30
0.000000
  0
VERTEX
  8
LAYER-1
 10
5.604843
 20
0.085810
 30
0.000000
  0
VERTEX
  8
LAYER-1
 10
5.617864
 20
0.108380
 30
0.000000
  0
VERTEX
  8
LAYER-1
 10
5.587482
 20
0.087547
 30
0.000000
  0
SEQEND
  8
LAYER-1
  0
POLYLINE
  8
LAYER-1
 66
  1
 70
  0
 62
  0
 10
5.601370
 20
0.192579
 30
0.000000
  0
VERTEX
  8
LAYER-1
 10
5.601370
 20
0.192579
 30
0.000000
  0
VERTEX
  8
LAYER-1
 10
5.605711
 20
0.192579
 30
0.000000
  0
VERTEX
  8
LAYER-1
 10
5.609183
 20
0.196921
 30
0.000000
  0
VERTEX
  8
LAYER-1
 10
5.610052
 20
0.202128
 30
0.000000
  0
VERTEX
  8
LAYER-1
 10
5.608316
 20
0.206469
 30
0.000000
  0
VERTEX
  8
LAYER-1
 10
5.603975
 20
0.208204
 30
0.000000
  0
VERTEX
  8
LAYER-1
 10
5.599634
 20
0.208204
 30
0.000000
  0
VERTEX
  8
LAYER-1
 10
5.595294
 20
0.204733
 30
0.000000
  0
VERTEX
  8
LAYER-1
 10
5.595294
 20
0.200392
 30
0.000000
  0
VERTEX
  8
LAYER-1
 10
5.596163
 20
0.196052
 30
0.000000
  0
VERTEX
  8
LAYER-1
 10
5.600503
 20
0.193448
 30
0.000000
  0
SEQEND
  8
LAYER-1
  0
POLYLINE
  8
LAYER-1
 66
  1
 70
  1
 62
  0
 10
5.554061
 20
0.171310
 30
0.000000
  0
VERTEX
  8
LAYER-1
 10
5.554061
 20
0.171310
 30
0.000000
  0
VERTEX
  8
LAYER-1
 10
5.579236
 20
0.154817
 30
0.000000
  0
VERTEX
  8
LAYER-1
 10
5.587049
 20
0.169575
 30
0.000000
  0
SEQEND
  8
LAYER-1
  0
POLYLINE
  8
LAYER-1
 66
  1
 70
  1
 62
  0
 10
5.540708
 20
0.143699
 30
0.000000
  0
VERTEX
  8
LAYER-1
 10
5.540708
 20
0.143699
 30
0.000000
  0
VERTEX
  8
LAYER-1
 10
5.521344
 20
0.156386
 30
0.000000
  0
VERTEX
  8
LAYER-1
 10
5.515333
 20
0.145035
 30
0.000000
  0
SEQEND
  8
LAYER-1
  0
POLYLINE
  8
LAYER-1
 66
  1
 70
  1
 62
  0
 10
1.317954
 20
0.202560
 30
0.000000
  0
VERTEX
  8
LAYER-1
 10
1.317954
 20
0.202560
 30
0.000000
  0
VERTEX
  8
LAYER-1
 10
1.304933
 20
0.179991
 30
0.000000
  0
VERTEX
  8
LAYER-1
 10
1.335315
 20
0.200823
 30
0.000000
  0
SEQEND
  8
LAYER-1
  0
POLYLINE
  8
LAYER-1
 66
  1
 70
  1
 62
  0
 10
5.867433
 20
0.129646
 30
0.000000
  0
VERTEX
  8
LAYER-1
 10
5.867433
 20
0.129646
 30
0.000000
  0
VERTEX
  8
LAYER-1
 10
5.890002
 20
0.116625
 30
0.000000
  0
VERTEX
  8
LAYER-1
 10
5.869169
 20
0.147007
 30
0.000000
  0
SEQEND
  8
LAYER-1
  0
POLYLINE
  8
LAYER-1
 66
  1
 70
  0
 62
  0
 10
5.795384
 20
0.176519
 30
0.000000
  0
VERTEX
  8
LAYER-1
 10
5.795384
 20
0.176519
 30
0.000000
  0
VERTEX
  8
LAYER-1
 10
5.795384
 20
0.172178
 30
0.000000
  0
VERTEX
  8
LAYER-1
 10
5.799725
 20
0.168706
 30
0.000000
  0
VERTEX
  8
LAYER-1
 10
5.804933
 20
0.167838
 30
0.000000
  0
VERTEX
  8
LAYER-1
 10
5.809274
 20
0.169573
 30
0.000000
  0
VERTEX
  8
LAYER-1
 10
5.811009
 20
0.173915
 30
0.000000
  0
VERTEX
  8
LAYER-1
 10
5.811009
 20
0.178254
 30
0.000000
  0
VERTEX
  8
LAYER-1
 10
5.807538
 20
0.182595
 30
0.000000
  0
VERTEX
  8
LAYER-1
 10
5.803197
 20
0.182595
 30
0.000000
  0
VERTEX
  8
LAYER-1
 10
5.798856
 20
0.181727
 30
0.000000
  0
VERTEX
  8
LAYER-1
 10
5.796252
 20
0.177386
 30
0.000000
  0
SEQEND
  8
LAYER-1
  0
POLYLINE
  8
LAYER-1
 66
  1
 70
  1
 62
  0
 10
5.745037
 20
0.187804
 30
0.000000
  0
VERTEX
  8
LAYER-1
 10
5.745037
 20
0.187804
 30
0.000000
  0
VERTEX
  8
LAYER-1
 10
5.767606
 20
0.174783
 30
0.000000
  0
VERTEX
  8
LAYER-1
 10
5.746774
 20
0.205165
 30
0.000000
  0
SEQEND
  8
LAYER-1
  0
POLYLINE
  8
LAYER-1
 66
  1
 70
  0
 62
  0
 10
6.007190
 20
0.129646
 30
0.000000
  0
VERTEX
  8
LAYER-1
 10
6.007190
 20
0.129646
 30
0.000000
  0
VERTEX
  8
LAYER-1
 10
6.007190
 20
0.125305
 30
0.000000
  0
VERTEX
  8
LAYER-1
 10
6.011531
 20
0.121834
 30
0.000000
  0
VERTEX
  8
LAYER-1
 10
6.016738
 20
0.120966
 30
0.000000
  0
VERTEX
  8
LAYER-1
 10
6.021079
 20
0.122702
 30
0.000000
  0
VERTEX
  8
LAYER-1
 10
6.022815
 20
0.127041
 30
0.000000
  0
VERTEX
  8
LAYER-1
 10
6.022815
 20
0.131382
 30
0.000000
  0
VERTEX
  8
LAYER-1
 10
6.019343
 20
0.135723
 30
0.000000
  0
VERTEX
  8
LAYER-1
 10
6.015002
 20
0.135723
 30
0.000000
  0
VERTEX
  8
LAYER-1
 10
6.010662
 20
0.134854
 30
0.000000
  0
VERTEX
  8
LAYER-1
 10
6.008058
 20
0.130514
 30
0.000000
  0
SEQEND
  8
LAYER-1
  0
POLYLINE
  8
LAYER-1
 66
  1
 70
  0
 62
  0
 10
5.841391
 20
0.184334
 30
0.000000
  0
VERTEX
  8
LAYER-1
 10
5.841391
 20
0.184334
 30
0.000000
  0
VERTEX
  8
LAYER-1
 10
5.841391
 20
0.179993
 30
0.000000
  0
VERTEX
  8
LAYER-1
 10
5.845732
 20
0.176521
 30
0.000000
  0
VERTEX
  8
LAYER-1
 10
5.850940
 20
0.175653
 30
0.000000
  0
VERTEX
  8
LAYER-1
 10
5.855281
 20
0.177389
 30
0.000000
  0
VERTEX
  8
LAYER-1
 10
5.857016
 20
0.181729
 30
0.000000
  0
VERTEX
  8
LAYER-1
 10
5.857016
 20
0.186070
 30
0.000000
  0
VERTEX
  8
LAYER-1
 10
5.853544
 20
0.190410
 30
0.000000
  0
VERTEX
  8
LAYER-1
 10
5.849204
 20
0.190410
 30
0.000000
  0
VERTEX
  8
LAYER-1
 10
5.844863
 20
0.189541
 30
0.000000
  0
VERTEX
  8
LAYER-1
 10
5.842258
 20
0.185202
 30
0.000000
  0
SEQEND
  8
LAYER-1
  0
POLYLINE
  8
LAYER-1
 66
  1
 70
  1
 62
  0
 10
5.765871
 20
0.119664
 30
0.000000
  0
VERTEX
  8
LAYER-1
 10
5.765871
 20
0.119664
 30
0.000000
  0
VERTEX
  8
LAYER-1
 10
5.752850
 20
0.097093
 30
0.000000
  0
VERTEX
  8
LAYER-1
 10
5.783232
 20
0.117926
 30
0.000000
  0
SEQEND
  8
LAYER-1
  0
POLYLINE
  8
LAYER-1
 66
  1
 70
  0
 62
  0
 10
5.692170
 20
0.111798
 30
0.000000
  0
VERTEX
  8
LAYER-1
 10
5.692170
 20
0.111798
 30
0.000000
  0
VERTEX
  8
LAYER-1
 10
5.687831
 20
0.111798
 30
0.000000
  0
VERTEX
  8
LAYER-1
 10
5.684358
 20
0.107457
 30
0.000000
  0
VERTEX
  8
LAYER-1
 10
5.683490
 20
0.102250
 30
0.000000
  0
VERTEX
  8
LAYER-1
 10
5.685226
 20
0.097909
 30
0.000000
  0
VERTEX
  8
LAYER-1
 10
5.689567
 20
0.096173
 30
0.000000
  0
VERTEX
  8
LAYER-1
 10
5.693907
 20
0.096173
 30
0.000000
  0
VERTEX
  8
LAYER-1
 10
5.698247
 20
0.099645
 30
0.000000
  0
VERTEX
  8
LAYER-1
 10
5.698247
 20
0.103985
 30
0.000000
  0
VERTEX
  8
LAYER-1
 10
5.697379
 20
0.108326
 30
0.000000
  0
VERTEX
  8
LAYER-1
 10
5.693039
 20
0.110931
 30
0.000000
  0
SEQEND
  8
LAYER-1
  0
POLYLINE
  8
LAYER-1
 66
  1
 70
  0
 62
  0
 10
5.765871
 20
0.150044
 30
0.000000
  0
VERTEX
  8
LAYER-1
 10
5.765871
 20
0.150044
 30
0.000000
  0
VERTEX
  8
LAYER-1
 10
5.761531
 20
0.150044
 30
0.000000
  0
VERTEX
  8
LAYER-1
 10
5.758059
 20
0.145703
 30
0.000000
  0
VERTEX
  8
LAYER-1
 10
5.757191
 20
0.140495
 30
0.000000
  0
VERTEX
  8
LAYER-1
 10
5.758927
 20
0.136154
 30
0.000000
  0
VERTEX
  8
LAYER-1
 10
5.763268
 20
0.134419
 30
0.000000
  0
VERTEX
  8
LAYER-1
 10
5.767607
 20
0.134419
 30
0.000000
  0
VERTEX
  8
LAYER-1
 10
5.771948
 20
0.137890
 30
0.000000
  0
VERTEX
  8
LAYER-1
 10
5.771948
 20
0.142231
 30
0.000000
  0
VERTEX
  8
LAYER-1
 10
5.771080
 20
0.146572
 30
0.000000
  0
VERTEX
  8
LAYER-1
 10
5.766739
 20
0.149177
 30
0.000000
  0
SEQEND
  8
LAYER-1
  0
POLYLINE
  8
LAYER-1
 66
  1
 70
  1
 62
  0
 10
6.073163
 20
0.166538
 30
0.000000
  0
VERTEX
  8
LAYER-1
 10
6.073163
 20
0.166538
 30
0.000000
  0
VERTEX
  8
LAYER-1
 10
6.080107
 20
0.140496
 30
0.000000
  0
VERTEX
  8
LAYER-1
 10
6.105281
 20
0.154384
 30
0.000000
  0
SEQEND
  8
LAYER-1
  0
POLYLINE
  8
LAYER-1
 66
  1
 70
  1
 62
  0
 10
6.235489
 20
0.195184
 30
0.000000
  0
VERTEX
  8
LAYER-1
 10
6.235489
 20
0.195184
 30
0.000000
  0
VERTEX
  8
LAYER-1
 10
6.222468
 20
0.172614
 30
0.000000
  0
VERTEX
  8
LAYER-1
 10
6.252850
 20
0.193447
 30
0.000000
  0
SEQEND
  8
LAYER-1
  0
POLYLINE
  8
LAYER-1
 66
  1
 70
  0
 62
  0
 10
6.023684
 20
0.197788
 30
0.000000
  0
VERTEX
  8
LAYER-1
 10
6.023684
 20
0.197788
 30
0.000000
  0
VERTEX
  8
LAYER-1
 10
6.019343
 20
0.197788
 30
0.000000
  0
VERTEX
  8
LAYER-1
 10
6.015871
 20
0.193447
 30
0.000000
  0
VERTEX
  8
LAYER-1
 10
6.015002
 20
0.188239
 30
0.000000
  0
VERTEX
  8
LAYER-1
 10
6.016739
 20
0.183898
 30
0.000000
  0
VERTEX
  8
LAYER-1
 10
6.021079
 20
0.182163
 30
0.000000
  0
VERTEX
  8
LAYER-1
 10
6.025419
 20
0.182163
 30
0.000000
  0
VERTEX
  8
LAYER-1
 10
6.029760
 20
0.185634
 30
0.000000
  0
VERTEX
  8
LAYER-1
 10
6.029760
 20
0.189975
 30
0.000000
  0
VERTEX
  8
LAYER-1
 10
6.028891
 20
0.194316
 30
0.000000
  0
VERTEX
  8
LAYER-1
 10
6.024552
 20
0.196920
 30
0.000000
  0
SEQEND
  8
LAYER-1
  0
POLYLINE
  8
LAYER-1
 66
  1
 70
  1
 62
  0
 10
6.133929
 20
0.130079
 30
0.000000
  0
VERTEX
  8
LAYER-1
 10
6.133929
 20
0.130079
 30
0.000000
  0
VERTEX
  8
LAYER-1
 10
6.120907
 20
0.107509
 30
0.000000
  0
VERTEX
  8
LAYER-1
 10
6.151290
 20
0.128342
 30
0.000000
  0
SEQEND
  8
LAYER-1
  0
POLYLINE
  8
LAYER-1
 66
  1
 70
  0
 62
  0
 10
6.175593
 20
0.199523
 30
0.000000
  0
VERTEX
  8
LAYER-1
 10
6.175593
 20
0.199523
 30
0.000000
  0
VERTEX
  8
LAYER-1
 10
6.171252
 20
0.199523
 30
0.000000
  0
VERTEX
  8
LAYER-1
 10
6.167781
 20
0.195183
 30
0.000000
  0
VERTEX
  8
LAYER-1
 10
6.166913
 20
0.189975
 30
0.000000
  0
VERTEX
  8
LAYER-1
 10
6.168649
 20
0.185634
 30
0.000000
  0
VERTEX
  8
LAYER-1
 10
6.172989
 20
0.183898
 30
0.000000
  0
VERTEX
  8
LAYER-1
 10
6.177329
 20
0.183898
 30
0.000000
  0
VERTEX
  8
LAYER-1
 10
6.181669
 20
0.187370
 30
0.000000
  0
VERTEX
  8
LAYER-1
 10
6.181669
 20
0.191711
 30
0.000000
  0
VERTEX
  8
LAYER-1
 10
6.180802
 20
0.196052
 30
0.000000
  0
VERTEX
  8
LAYER-1
 10
6.176461
 20
0.198655
 30
0.000000
  0
SEQEND
  8
LAYER-1
  0
POLYLINE
  8
LAYER-1
 66
  1
 70
  1
 62
  0
 10
6.515002
 20
0.190843
 30
0.000000
  0
VERTEX
  8
LAYER-1
 10
6.515002
 20
0.190843
 30
0.000000
  0
VERTEX
  8
LAYER-1
 10
6.521947
 20
0.164803
 30
0.000000
  0
VERTEX
  8
LAYER-1
 10
6.547120
 20
0.178690
 30
0.000000
  0
SEQEND
  8
LAYER-1
  0
POLYLINE
  8
LAYER-1
 66
  1
 70
  1
 62
  0
 10
6.677329
 20
0.219490
 30
0.000000
  0
VERTEX
  8
LAYER-1
 10
6.677329
 20
0.219490
 30
0.000000
  0
VERTEX
  8
LAYER-1
 10
6.664308
 20
0.196920
 30
0.000000
  0
VERTEX
  8
LAYER-1
 10
6.694690
 20
0.217752
 30
0.000000
  0
SEQEND
  8
LAYER-1
  0
POLYLINE
  8
LAYER-1
 66
  1
 70
  1
 62
  0
 10
5.905628
 20
0.155253
 30
0.000000
  0
VERTEX
  8
LAYER-1
 10
5.905628
 20
0.155253
 30
0.000000
  0
VERTEX
  8
LAYER-1
 10
5.930802
 20
0.138759
 30
0.000000
  0
VERTEX
  8
LAYER-1
 10
5.938614
 20
0.153517
 30
0.000000
  0
SEQEND
  8
LAYER-1
  0
POLYLINE
  8
LAYER-1
 66
  1
 70
  0
 62
  0
 10
6.475940
 20
0.211678
 30
0.000000
  0
VERTEX
  8
LAYER-1
 10
6.475940
 20
0.211678
 30
0.000000
  0
VERTEX
  8
LAYER-1
 10
6.471599
 20
0.211678
 30
0.000000
  0
VERTEX
  8
LAYER-1
 10
6.468127
 20
0.207336
 30
0.000000
  0
VERTEX
  8
LAYER-1
 10
6.467259
 20
0.202129
 30
0.000000
  0
VERTEX
  8
LAYER-1
 10
6.468995
 20
0.197789
 30
0.000000
  0
VERTEX
  8
LAYER-1
 10
6.473336
 20
0.196053
 30
0.000000
  0
VERTEX
  8
LAYER-1
 10
6.477676
 20
0.196053
 30
0.000000
  0
VERTEX
  8
LAYER-1
 10
6.482016
 20
0.199524
 30
0.000000
  0
VERTEX
  8
LAYER-1
 10
6.482016
 20
0.203865
 30
0.000000
  0
VERTEX
  8
LAYER-1
 10
6.481149
 20
0.208205
 30
0.000000
  0
VERTEX
  8
LAYER-1
 10
6.476808
 20
0.210810
 30
0.000000
  0
SEQEND
  8
LAYER-1
  0
POLYLINE
  8
LAYER-1
 66
  1
 70
  1
 62
  0
 10
6.491566
 20
0.123135
 30
0.000000
  0
VERTEX
  8
LAYER-1
 10
6.491566
 20
0.123135
 30
0.000000
  0
VERTEX
  8
LAYER-1
 10
6.478544
 20
0.100565
 30
0.000000
  0
VERTEX
  8
LAYER-1
 10
6.508927
 20
0.121397
 30
0.000000
  0
SEQEND
  8
LAYER-1
  0
POLYLINE
  8
LAYER-1
 66
  1
 70
  1
 62
  0
 10
6.586016
 20
0.137553
 30
0.000000
  0
VERTEX
  8
LAYER-1
 10
6.586016
 20
0.137553
 30
0.000000
  0
VERTEX
  8
LAYER-1
 10
6.573330
 20
0.118189
 30
0.000000
  0
VERTEX
  8
LAYER-1
 10
6.584680
 20
0.112178
 30
0.000000
  0
SEQEND
  8
LAYER-1
  0
POLYLINE
  8
LAYER-1
 66
  1
 70
  0
 62
  0
 10
6.617433
 20
0.216017
 30
0.000000
  0
VERTEX
  8
LAYER-1
 10
6.617433
 20
0.216017
 30
0.000000
  0
VERTEX
  8
LAYER-1
 10
6.613093
 20
0.216017
 30
0.000000
  0
VERTEX
  8
LAYER-1
 10
6.609620
 20
0.211677
 30
0.000000
  0
VERTEX
  8
LAYER-1
 10
6.608752
 20
0.206469
 30
0.000000
  0
VERTEX
  8
LAYER-1
 10
6.610488
 20
0.202128
 30
0.000000
  0
VERTEX
  8
LAYER-1
 10
6.614829
 20
0.200392
 30
0.000000
  0
VERTEX
  8
LAYER-1
 10
6.619169
 20
0.200392
 30
0.000000
  0
VERTEX
  8
LAYER-1
 10
6.623509
 20
0.203864
 30
0.000000
  0
VERTEX
  8
LAYER-1
 10
6.623509
 20
0.208204
 30
0.000000
  0
VERTEX
  8
LAYER-1
 10
6.622641
 20
0.212546
 30
0.000000
  0
VERTEX
  8
LAYER-1
 10
6.618301
 20
0.215151
 30
0.000000
  0
SEQEND
  8
LAYER-1
  0
POLYLINE
  8
LAYER-1
 66
  1
 70
  0
 62
  0
 10
5.894344
 20
0.208204
 30
0.000000
  0
VERTEX
  8
LAYER-1
 10
5.894344
 20
0.208204
 30
0.000000
  0
VERTEX
  8
LAYER-1
 10
5.894344
 20
0.203864
 30
0.000000
  0
VERTEX
  8
LAYER-1
 10
5.898685
 20
0.200392
 30
0.000000
  0
VERTEX
  8
LAYER-1
 10
5.903893
 20
0.199523
 30
0.000000
  0
VERTEX
  8
LAYER-1
 10
5.908233
 20
0.201259
 30
0.000000
  0
VERTEX
  8
LAYER-1
 10
5.909969
 20
0.205600
 30
0.000000
  0
VERTEX
  8
LAYER-1
 10
5.909969
 20
0.209941
 30
0.000000
  0
VERTEX
  8
LAYER-1
 10
5.906497
 20
0.214282
 30
0.000000
  0
VERTEX
  8
LAYER-1
 10
5.902156
 20
0.214282
 30
0.000000
  0
VERTEX
  8
LAYER-1
 10
5.897816
 20
0.213413
 30
0.000000
  0
VERTEX
  8
LAYER-1
 10
5.895211
 20
0.209072
 30
0.000000
  0
SEQEND
  8
LAYER-1
  0
POLYLINE
  8
LAYER-1
 66
  1
 70
  0
 62
  0
 10
6.457710
 20
0.124001
 30
0.000000
  0
VERTEX
  8
LAYER-1
 10
6.457710
 20
0.124001
 30
0.000000
  0
VERTEX
  8
LAYER-1
 10
6.453369
 20
0.124001
 30
0.000000
  0
VERTEX
  8
LAYER-1
 10
6.449897
 20
0.119660
 30
0.000000
  0
VERTEX
  8
LAYER-1
 10
6.449030
 20
0.114453
 30
0.000000
  0
VERTEX
  8
LAYER-1
 10
6.450765
 20
0.110113
 30
0.000000
  0
VERTEX
  8
LAYER-1
 10
6.455106
 20
0.108376
 30
0.000000
  0
VERTEX
  8
LAYER-1
 10
6.459446
 20
0.108376
 30
0.000000
  0
VERTEX
  8
LAYER-1
 10
6.463787
 20
0.111848
 30
0.000000
  0
VERTEX
  8
LAYER-1
 10
6.463787
 20
0.116189
 30
0.000000
  0
VERTEX
  8
LAYER-1
 10
6.462919
 20
0.120529
 30
0.000000
  0
VERTEX
  8
LAYER-1
 10
6.458578
 20
0.123134
 30
0.000000
  0
SEQEND
  8
LAYER-1
  0
POLYLINE
  8
LAYER-1
 66
  1
 70
  0
 62
  0
 10
6.356149
 20
0.161764
 30
0.000000
  0
VERTEX
  8
LAYER-1
 10
6.356149
 20
0.161764
 30
0.000000
  0
VERTEX
  8
LAYER-1
 10
6.356149
 20
0.166104
 30
0.000000
  0
VERTEX
  8
LAYER-1
 10
6.351809
 20
0.169576
 30
0.000000
  0
VERTEX
  8
LAYER-1
 10
6.346601
 20
0.170444
 30
0.000000
  0
VERTEX
  8
LAYER-1
 10
6.342260
 20
0.168708
 30
0.000000
  0
VERTEX
  8
LAYER-1
 10
6.340524
 20
0.164367
 30
0.000000
  0
VERTEX
  8
LAYER-1
 10
6.340524
 20
0.160027
 30
0.000000
  0
VERTEX
  8
LAYER-1
 10
6.343996
 20
0.155688
 30
0.000000
  0
VERTEX
  8
LAYER-1
 10
6.348337
 20
0.155688
 30
0.000000
  0
VERTEX
  8
LAYER-1
 10
6.352678
 20
0.156554
 30
0.000000
  0
VERTEX
  8
LAYER-1
 10
6.355281
 20
0.160895
 30
0.000000
  0
SEQEND
  8
LAYER-1
  0
POLYLINE
  8
LAYER-1
 66
  1
 70
  1
 62
  0
 10
6.288440
 20
0.148742
 30
0.000000
  0
VERTEX
  8
LAYER-1
 10
6.288440
 20
0.148742
 30
0.000000
  0
VERTEX
  8
LAYER-1
 10
6.265871
 20
0.161763
 30
0.000000
  0
VERTEX
  8
LAYER-1
 10
6.286704
 20
0.131380
 30
0.000000
  0
SEQEND
  8
LAYER-1
  0
POLYLINE
  8
LAYER-1
 66
  1
 70
  0
 62
  0
 10
6.205976
 20
0.114020
 30
0.000000
  0
VERTEX
  8
LAYER-1
 10
6.205976
 20
0.114020
 30
0.000000
  0
VERTEX
  8
LAYER-1
 10
6.205976
 20
0.118361
 30
0.000000
  0
VERTEX
  8
LAYER-1
 10
6.201635
 20
0.121833
 30
0.000000
  0
VERTEX
  8
LAYER-1
 10
6.196428
 20
0.122701
 30
0.000000
  0
VERTEX
  8
LAYER-1
 10
6.192087
 20
0.120965
 30
0.000000
  0
VERTEX
  8
LAYER-1
 10
6.190351
 20
0.116625
 30
0.000000
  0
VERTEX
  8
LAYER-1
 10
6.190351
 20
0.112284
 30
0.000000
  0
VERTEX
  8
LAYER-1
 10
6.193823
 20
0.107944
 30
0.000000
  0
VERTEX
  8
LAYER-1
 10
6.198163
 20
0.107944
 30
0.000000
  0
VERTEX
  8
LAYER-1
 10
6.202504
 20
0.108813
 30
0.000000
  0
VERTEX
  8
LAYER-1
 10
6.205107
 20
0.113152
 30
0.000000
  0
SEQEND
  8
LAYER-1
  0
POLYLINE
  8
LAYER-1
 66
  1
 70
  1
 62
  0
 10
6.396254
 20
0.104299
 30
0.000000
  0
VERTEX
  8
LAYER-1
 10
6.396254
 20
0.104299
 30
0.000000
  0
VERTEX
  8
LAYER-1
 10
6.389309
 20
0.130339
 30
0.000000
  0
VERTEX
  8
LAYER-1
 10
6.364136
 20
0.116452
 30
0.000000
  0
SEQEND
  8
LAYER-1
  0
POLYLINE
  8
LAYER-1
 66
  1
 70
  1
 62
  0
 10
6.417781
 20
0.158725
 30
0.000000
  0
VERTEX
  8
LAYER-1
 10
6.417781
 20
0.158725
 30
0.000000
  0
VERTEX
  8
LAYER-1
 10
6.430802
 20
0.181296
 30
0.000000
  0
VERTEX
  8
LAYER-1
 10
6.400419
 20
0.160463
 30
0.000000
  0
SEQEND
  8
LAYER-1
  0
POLYLINE
  8
LAYER-1
 66
  1
 70
  1
 62
  0
 10
5.845732
 20
0.102302
 30
0.000000
  0
VERTEX
  8
LAYER-1
 10
5.845732
 20
0.102302
 30
0.000000
  0
VERTEX
  8
LAYER-1
 10
5.823162
 20
0.115323
 30
0.000000
  0
VERTEX
  8
LAYER-1
 10
5.843994
 20
0.084941
 30
0.000000
  0
SEQEND
  8
LAYER-1
  0
POLYLINE
  8
LAYER-1
 66
  1
 70
  1
 62
  0
 10
6.623510
 20
0.126608
 30
0.000000
  0
VERTEX
  8
LAYER-1
 10
6.623510
 20
0.126608
 30
0.000000
  0
VERTEX
  8
LAYER-1
 10
6.640003
 20
0.151782
 30
0.000000
  0
VERTEX
  8
LAYER-1
 10
6.625246
 20
0.159594
 30
0.000000
  0
SEQEND
  8
LAYER-1
  0
POLYLINE
  8
LAYER-1
 66
  1
 70
  0
 62
  0
 10
6.654411
 20
0.053204
 30
0.000000
  0
VERTEX
  8
LAYER-1
 10
6.654411
 20
0.053204
 30
0.000000
  0
VERTEX
  8
LAYER-1
 10
6.658751
 20
0.053204
 30
0.000000
  0
VERTEX
  8
LAYER-1
 10
6.662223
 20
0.057545
 30
0.000000
  0
VERTEX
  8
LAYER-1
 10
6.663091
 20
0.062753
 30
0.000000
  0
VERTEX
  8
LAYER-1
 10
6.661355
 20
0.067094
 30
0.000000
  0
VERTEX
  8
LAYER-1
 10
6.657014
 20
0.068829
 30
0.000000
  0
VERTEX
  8
LAYER-1
 10
6.652675
 20
0.068829
 30
0.000000
  0
VERTEX
  8
LAYER-1
 10
6.648334
 20
0.065358
 30
0.000000
  0
VERTEX
  8
LAYER-1
 10
6.648334
 20
0.061017
 30
0.000000
  0
VERTEX
  8
LAYER-1
 10
6.649202
 20
0.056676
 30
0.000000
  0
VERTEX
  8
LAYER-1
 10
6.653543
 20
0.054071
 30
0.000000
  0
SEQEND
  8
LAYER-1
  0
POLYLINE
  8
LAYER-1
 66
  1
 70
  0
 62
  0
 10
6.630974
 20
0.078384
 30
0.000000
  0
VERTEX
  8
LAYER-1
 10
6.630974
 20
0.078384
 30
0.000000
  0
VERTEX
  8
LAYER-1
 10
6.635315
 20
0.078384
 30
0.000000
  0
VERTEX
  8
LAYER-1
 10
6.638787
 20
0.082724
 30
0.000000
  0
VERTEX
  8
LAYER-1
 10
6.639655
 20
0.087932
 30
0.000000
  0
VERTEX
  8
LAYER-1
 10
6.637919
 20
0.092272
 30
0.000000
  0
VERTEX
  8
LAYER-1
 10
6.633578
 20
0.094009
 30
0.000000
  0
VERTEX
  8
LAYER-1
 10
6.629238
 20
0.094009
 30
0.000000
  0
VERTEX
  8
LAYER-1
 10
6.624897
 20
0.090536
 30
0.000000
  0
VERTEX
  8
LAYER-1
 10
6.624897
 20
0.086196
 30
0.000000
  0
VERTEX
  8
LAYER-1
 10
6.625765
 20
0.081855
 30
0.000000
  0
VERTEX
  8
LAYER-1
 10
6.630106
 20
0.079251
 30
0.000000
  0
SEQEND
  8
LAYER-1
  0
POLYLINE
  8
LAYER-1
 66
  1
 70
  1
 62
  0
 10
6.705192
 20
0.094439
 30
0.000000
  0
VERTEX
  8
LAYER-1
 10
6.705192
 20
0.094439
 30
0.000000
  0
VERTEX
  8
LAYER-1
 10
6.680019
 20
0.110932
 30
0.000000
  0
VERTEX
  8
LAYER-1
 10
6.672206
 20
0.096175
 30
0.000000
  0
SEQEND
  8
LAYER-1
  0
POLYLINE
  8
LAYER-1
 66
  1
 70
  0
 62
  0
 10
6.715609
 20
0.133503
 30
0.000000
  0
VERTEX
  8
LAYER-1
 10
6.715609
 20
0.133503
 30
0.000000
  0
VERTEX
  8
LAYER-1
 10
6.715609
 20
0.137845
 30
0.000000
  0
VERTEX
  8
LAYER-1
 10
6.711269
 20
0.141316
 30
0.000000
  0
VERTEX
  8
LAYER-1
 10
6.706061
 20
0.142184
 30
0.000000
  0
VERTEX
  8
LAYER-1
 10
6.701720
 20
0.140448
 30
0.000000
  0
VERTEX
  8
LAYER-1
 10
6.699984
 20
0.136108
 30
0.000000
  0
VERTEX
  8
LAYER-1
 10
6.699984
 20
0.131767
 30
0.000000
  0
VERTEX
  8
LAYER-1
 10
6.703456
 20
0.127427
 30
0.000000
  0
VERTEX
  8
LAYER-1
 10
6.707796
 20
0.127427
 30
0.000000
  0
VERTEX
  8
LAYER-1
 10
6.712137
 20
0.128295
 30
0.000000
  0
VERTEX
  8
LAYER-1
 10
6.714742
 20
0.132635
 30
0.000000
  0
SEQEND
  8
LAYER-1
  0
POLYLINE
  8
LAYER-1
 66
  1
 70
  1
 62
  0
 10
6.662132
 20
0.139355
 30
0.000000
  0
VERTEX
  8
LAYER-1
 10
6.662132
 20
0.139355
 30
0.000000
  0
VERTEX
  8
LAYER-1
 10
6.674819
 20
0.158719
 30
0.000000
  0
VERTEX
  8
LAYER-1
 10
6.663468
 20
0.164730
 30
0.000000
  0
SEQEND
  8
LAYER-1
  0
POLYLINE
  8
LAYER-1
 66
  1
 70
  0
 62
  0
 10
5.985488
 20
0.169142
 30
0.000000
  0
VERTEX
  8
LAYER-1
 10
5.985488
 20
0.169142
 30
0.000000
  0
VERTEX
  8
LAYER-1
 10
5.985488
 20
0.173481
 30
0.000000
  0
VERTEX
  8
LAYER-1
 10
5.981147
 20
0.176954
 30
0.000000
  0
VERTEX
  8
LAYER-1
 10
5.975940
 20
0.177822
 30
0.000000
  0
VERTEX
  8
LAYER-1
 10
5.971599
 20
0.176086
 30
0.000000
  0
VERTEX
  8
LAYER-1
 10
5.969863
 20
0.171745
 30
0.000000
  0
VERTEX
  8
LAYER-1
 10
5.969863
 20
0.167404
 30
0.000000
  0
VERTEX
  8
LAYER-1
 10
5.973335
 20
0.163066
 30
0.000000
  0
VERTEX
  8
LAYER-1
 10
5.977676
 20
0.163066
 30
0.000000
  0
VERTEX
  8
LAYER-1
 10
5.982016
 20
0.163933
 30
0.000000
  0
VERTEX
  8
LAYER-1
 10
5.984621
 20
0.168273
 30
0.000000
  0
SEQEND
  8
LAYER-1
  0
POLYLINE
  8
LAYER-1
 66
  1
 70
  0
 62
  0
 10
6.571427
 20
0.132684
 30
0.000000
  0
VERTEX
  8
LAYER-1
 10
6.571427
 20
0.132684
 30
0.000000
  0
VERTEX
  8
LAYER-1
 10
6.575768
 20
0.132684
 30
0.000000
  0
VERTEX
  8
LAYER-1
 10
6.579239
 20
0.137026
 30
0.000000
  0
VERTEX
  8
LAYER-1
 10
6.580107
 20
0.142233
 30
0.000000
  0
VERTEX
  8
LAYER-1
 10
6.578371
 20
0.146573
 30
0.000000
  0
VERTEX
  8
LAYER-1
 10
6.574031
 20
0.148309
 30
0.000000
  0
VERTEX
  8
LAYER-1
 10
6.569691
 20
0.148309
 30
0.000000
  0
VERTEX
  8
LAYER-1
 10
6.565350
 20
0.144838
 30
0.000000
  0
VERTEX
  8
LAYER-1
 10
6.565350
 20
0.140497
 30
0.000000
  0
VERTEX
  8
LAYER-1
 10
6.566218
 20
0.136157
 30
0.000000
  0
VERTEX
  8
LAYER-1
 10
6.570559
 20
0.133552
 30
0.000000
  0
SEQEND
  8
LAYER-1
  0
POLYLINE
  8
LAYER-1
 66
  1
 70
  1
 62
  0
 10
0.829063
 20
0.136366
 30
0.000000
  0
VERTEX
  8
LAYER-1
 10
0.829063
 20
0.136366
 30
0.000000
  0
VERTEX
  8
LAYER-1
 10
0.806493
 20
0.149386
 30
0.000000
  0
VERTEX
  8
LAYER-1
 10
0.827325
 20
0.119005
 30
0.000000
  0
SEQEND
  8
LAYER-1
  0
POLYLINE
  8
LAYER-1
 66
  1
 70
  0
 62
  0
 10
0.817779
 20
0.069525
 30
0.000000
  0
VERTEX
  8
LAYER-1
 10
0.817779
 20
0.069525
 30
0.000000
  0
VERTEX
  8
LAYER-1
 10
0.817779
 20
0.073864
 30
0.000000
  0
VERTEX
  8
LAYER-1
 10
0.813438
 20
0.077337
 30
0.000000
  0
VERTEX
  8
LAYER-1
 10
0.808231
 20
0.078205
 30
0.000000
  0
VERTEX
  8
LAYER-1
 10
0.803890
 20
0.076469
 30
0.000000
  0
VERTEX
  8
LAYER-1
 10
0.802154
 20
0.072128
 30
0.000000
  0
VERTEX
  8
LAYER-1
 10
0.802154
 20
0.067787
 30
0.000000
  0
VERTEX
  8
LAYER-1
 10
0.805626
 20
0.063449
 30
0.000000
  0
VERTEX
  8
LAYER-1
 10
0.809966
 20
0.063449
 30
0.000000
  0
VERTEX
  8
LAYER-1
 10
0.814307
 20
0.064316
 30
0.000000
  0
VERTEX
  8
LAYER-1
 10
0.816912
 20
0.068656
 30
0.000000
  0
SEQEND
  8
LAYER-1
  0
POLYLINE
  8
LAYER-1
 66
  1
 70
  1
 62
  0
 10
1.095819
 20
0.058324
 30
0.000000
  0
VERTEX
  8
LAYER-1
 10
1.095819
 20
0.058324
 30
0.000000
  0
VERTEX
  8
LAYER-1
 10
1.112311
 20
0.083499
 30
0.000000
  0
VERTEX
  8
LAYER-1
 10
1.097554
 20
0.091311
 30
0.000000
  0
SEQEND
  8
LAYER-1
  0
POLYLINE
  8
LAYER-1
 66
  1
 70
  1
 62
  0
 10
1.143728
 20
0.073419
 30
0.000000
  0
VERTEX
  8
LAYER-1
 10
1.143728
 20
0.073419
 30
0.000000
  0
VERTEX
  8
LAYER-1
 10
1.156415
 20
0.092784
 30
0.000000
  0
VERTEX
  8
LAYER-1
 10
1.145064
 20
0.098794
 30
0.000000
  0
SEQEND
  8
LAYER-1
  0
POLYLINE
  8
LAYER-1
 66
  1
 70
  0
 62
  0
 10
1.207797
 20
0.049647
 30
0.000000
  0
VERTEX
  8
LAYER-1
 10
1.207797
 20
0.049647
 30
0.000000
  0
VERTEX
  8
LAYER-1
 10
1.212138
 20
0.049647
 30
0.000000
  0
VERTEX
  8
LAYER-1
 10
1.215610
 20
0.053987
 30
0.000000
  0
VERTEX
  8
LAYER-1
 10
1.216478
 20
0.059196
 30
0.000000
  0
VERTEX
  8
LAYER-1
 10
1.214742
 20
0.063536
 30
0.000000
  0
VERTEX
  8
LAYER-1
 10
1.210401
 20
0.065272
 30
0.000000
  0
VERTEX
  8
LAYER-1
 10
1.206061
 20
0.065272
 30
0.000000
  0
VERTEX
  8
LAYER-1
 10
1.201721
 20
0.061800
 30
0.000000
  0
VERTEX
  8
LAYER-1
 10
1.201721
 20
0.057460
 30
0.000000
  0
VERTEX
  8
LAYER-1
 10
1.202589
 20
0.053118
 30
0.000000
  0
VERTEX
  8
LAYER-1
 10
1.206929
 20
0.050515
 30
0.000000
  0
SEQEND
  8
LAYER-1
  0
POLYLINE
  8
LAYER-1
 66
  1
 70
  1
 62
  0
 10
1.241651
 20
0.112579
 30
0.000000
  0
VERTEX
  8
LAYER-1
 10
1.241651
 20
0.112579
 30
0.000000
  0
VERTEX
  8
LAYER-1
 10
1.215610
 20
0.105635
 30
0.000000
  0
VERTEX
  8
LAYER-1
 10
1.229498
 20
0.080461
 30
0.000000
  0
SEQEND
  8
LAYER-1
  0
POLYLINE
  8
LAYER-1
 66
  1
 70
  0
 62
  0
 10
2.609534
 20
0.080287
 30
0.000000
  0
VERTEX
  8
LAYER-1
 10
2.609534
 20
0.080287
 30
0.000000
  0
VERTEX
  8
LAYER-1
 10
2.609534
 20
0.084627
 30
0.000000
  0
VERTEX
  8
LAYER-1
 10
2.605193
 20
0.088099
 30
0.000000
  0
VERTEX
  8
LAYER-1
 10
2.599985
 20
0.088967
 30
0.000000
  0
VERTEX
  8
LAYER-1
 10
2.595644
 20
0.087231
 30
0.000000
  0
VERTEX
  8
LAYER-1
 10
2.593909
 20
0.082892
 30
0.000000
  0
VERTEX
  8
LAYER-1
 10
2.593909
 20
0.078551
 30
0.000000
  0
VERTEX
  8
LAYER-1
 10
2.597380
 20
0.074210
 30
0.000000
  0
VERTEX
  8
LAYER-1
 10
2.601721
 20
0.074210
 30
0.000000
  0
VERTEX
  8
LAYER-1
 10
2.606062
 20
0.075079
 30
0.000000
  0
VERTEX
  8
LAYER-1
 10
2.608666
 20
0.079419
 30
0.000000
  0
SEQEND
  8
LAYER-1
  0
POLYLINE
  8
LAYER-1
 66
  1
 70
  1
 62
  0
 10
2.543561
 20
0.043395
 30
0.000000
  0
VERTEX
  8
LAYER-1
 10
2.543561
 20
0.043395
 30
0.000000
  0
VERTEX
  8
LAYER-1
 10
2.536616
 20
0.069437
 30
0.000000
  0
VERTEX
  8
LAYER-1
 10
2.511443
 20
0.055549
 30
0.000000
  0
SEQEND
  8
LAYER-1
  0
POLYLINE
  8
LAYER-1
 66
  1
 70
  1
 62
  0
 10
2.555713
 20
0.079854
 30
0.000000
  0
VERTEX
  8
LAYER-1
 10
2.555713
 20
0.079854
 30
0.000000
  0
VERTEX
  8
LAYER-1
 10
2.568734
 20
0.102424
 30
0.000000
  0
VERTEX
  8
LAYER-1
 10
2.538352
 20
0.081591
 30
0.000000
  0
SEQEND
  8
LAYER-1
  0
POLYLINE
  8
LAYER-1
 66
  1
 70
  0
 62
  0
 10
2.391912
 20
0.090704
 30
0.000000
  0
VERTEX
  8
LAYER-1
 10
2.391912
 20
0.090704
 30
0.000000
  0
VERTEX
  8
LAYER-1
 10
2.387571
 20
0.090704
 30
0.000000
  0
VERTEX
  8
LAYER-1
 10
2.384100
 20
0.086363
 30
0.000000
  0
VERTEX
  8
LAYER-1
 10
2.383231
 20
0.081156
 30
0.000000
  0
VERTEX
  8
LAYER-1
 10
2.384967
 20
0.076814
 30
0.000000
  0
VERTEX
  8
LAYER-1
 10
2.389308
 20
0.075079
 30
0.000000
  0
VERTEX
  8
LAYER-1
 10
2.393648
 20
0.075079
 30
0.000000
  0
VERTEX
  8
LAYER-1
 10
2.397989
 20
0.078551
 30
0.000000
  0
VERTEX
  8
LAYER-1
 10
2.397989
 20
0.082892
 30
0.000000
  0
VERTEX
  8
LAYER-1
 10
2.397121
 20
0.087232
 30
0.000000
  0
VERTEX
  8
LAYER-1
 10
2.392780
 20
0.089837
 30
0.000000
  0
SEQEND
  8
LAYER-1
  0
POLYLINE
  8
LAYER-1
 66
  1
 70
  1
 62
  0
 10
2.471773
 20
0.053377
 30
0.000000
  0
VERTEX
  8
LAYER-1
 10
2.471773
 20
0.053377
 30
0.000000
  0
VERTEX
  8
LAYER-1
 10
2.449202
 20
0.066399
 30
0.000000
  0
VERTEX
  8
LAYER-1
 10
2.470035
 20
0.036017
 30
0.000000
  0
SEQEND
  8
LAYER-1
  0
POLYLINE
  8
LAYER-1
 66
  1
 70
  1
 62
  0
 10
3.066744
 20
0.054228
 30
0.000000
  0
VERTEX
  8
LAYER-1
 10
3.066744
 20
0.054228
 30
0.000000
  0
VERTEX
  8
LAYER-1
 10
3.079765
 20
0.076798
 30
0.000000
  0
VERTEX
  8
LAYER-1
 10
3.049383
 20
0.055966
 30
0.000000
  0
SEQEND
  8
LAYER-1
  0
POLYLINE
  8
LAYER-1
 66
  1
 70
  1
 62
  0
 10
2.972294
 20
0.060641
 30
0.000000
  0
VERTEX
  8
LAYER-1
 10
2.972294
 20
0.060641
 30
0.000000
  0
VERTEX
  8
LAYER-1
 10
2.984980
 20
0.080005
 30
0.000000
  0
VERTEX
  8
LAYER-1
 10
2.973630
 20
0.086016
 30
0.000000
  0
SEQEND
  8
LAYER-1
  0
POLYLINE
  8
LAYER-1
 66
  1
 70
  0
 62
  0
 10
3.100600
 20
0.053361
 30
0.000000
  0
VERTEX
  8
LAYER-1
 10
3.100600
 20
0.053361
 30
0.000000
  0
VERTEX
  8
LAYER-1
 10
3.104940
 20
0.053361
 30
0.000000
  0
VERTEX
  8
LAYER-1
 10
3.108412
 20
0.057702
 30
0.000000
  0
VERTEX
  8
LAYER-1
 10
3.109280
 20
0.062909
 30
0.000000
  0
VERTEX
  8
LAYER-1
 10
3.107544
 20
0.067250
 30
0.000000
  0
VERTEX
  8
LAYER-1
 10
3.103203
 20
0.068986
 30
0.000000
  0
VERTEX
  8
LAYER-1
 10
3.098863
 20
0.068986
 30
0.000000
  0
VERTEX
  8
LAYER-1
 10
3.094523
 20
0.065514
 30
0.000000
  0
VERTEX
  8
LAYER-1
 10
3.094523
 20
0.061173
 30
0.000000
  0
VERTEX
  8
LAYER-1
 10
3.095391
 20
0.056833
 30
0.000000
  0
VERTEX
  8
LAYER-1
 10
3.099731
 20
0.054228
 30
0.000000
  0
SEQEND
  8
LAYER-1
  0
POLYLINE
  8
LAYER-1
 66
  1
 70
  0
 62
  0
 10
2.986883
 20
0.044678
 30
0.000000
  0
VERTEX
  8
LAYER-1
 10
2.986883
 20
0.044678
 30
0.000000
  0
VERTEX
  8
LAYER-1
 10
2.982542
 20
0.044678
 30
0.000000
  0
VERTEX
  8
LAYER-1
 10
2.979070
 20
0.040337
 30
0.000000
  0
VERTEX
  8
LAYER-1
 10
2.978202
 20
0.035129
 30
0.000000
  0
VERTEX
  8
LAYER-1
 10
2.979938
 20
0.030789
 30
0.000000
  0
VERTEX
  8
LAYER-1
 10
2.984279
 20
0.029053
 30
0.000000
  0
VERTEX
  8
LAYER-1
 10
2.988619
 20
0.029053
 30
0.000000
  0
VERTEX
  8
LAYER-1
 10
2.992959
 20
0.032524
 30
0.000000
  0
VERTEX
  8
LAYER-1
 10
2.992959
 20
0.036865
 30
0.000000
  0
VERTEX
  8
LAYER-1
 10
2.992091
 20
0.041206
 30
0.000000
  0
VERTEX
  8
LAYER-1
 10
2.987751
 20
0.043811
 30
0.000000
  0
SEQEND
  8
LAYER-1
  0
POLYLINE
  8
LAYER-1
 66
  1
 70
  1
 62
  0
 10
2.827936
 20
0.057978
 30
0.000000
  0
VERTEX
  8
LAYER-1
 10
2.827936
 20
0.057978
 30
0.000000
  0
VERTEX
  8
LAYER-1
 10
2.840957
 20
0.080549
 30
0.000000
  0
VERTEX
  8
LAYER-1
 10
2.810575
 20
0.059716
 30
0.000000
  0
SEQEND
  8
LAYER-1
  0
POLYLINE
  8
LAYER-1
 66
  1
 70
  0
 62
  0
 10
2.861792
 20
0.057111
 30
0.000000
  0
VERTEX
  8
LAYER-1
 10
2.861792
 20
0.057111
 30
0.000000
  0
VERTEX
  8
LAYER-1
 10
2.866133
 20
0.057111
 30
0.000000
  0
VERTEX
  8
LAYER-1
 10
2.869604
 20
0.061452
 30
0.000000
  0
VERTEX
  8
LAYER-1
 10
2.870472
 20
0.066660
 30
0.000000
  0
VERTEX
  8
LAYER-1
 10
2.868736
 20
0.071001
 30
0.000000
  0
VERTEX
  8
LAYER-1
 10
2.864396
 20
0.072736
 30
0.000000
  0
VERTEX
  8
LAYER-1
 10
2.860056
 20
0.072736
 30
0.000000
  0
VERTEX
  8
LAYER-1
 10
2.855715
 20
0.069265
 30
0.000000
  0
VERTEX
  8
LAYER-1
 10
2.855715
 20
0.064924
 30
0.000000
  0
VERTEX
  8
LAYER-1
 10
2.856583
 20
0.060583
 30
0.000000
  0
VERTEX
  8
LAYER-1
 10
2.860924
 20
0.057978
 30
0.000000
  0
SEQEND
  8
LAYER-1
  0
POLYLINE
  8
LAYER-1
 66
  1
 70
  1
 62
  0
 10
3.460054
 20
0.093049
 30
0.000000
  0
VERTEX
  8
LAYER-1
 10
3.460054
 20
0.093049
 30
0.000000
  0
VERTEX
  8
LAYER-1
 10
3.482624
 20
0.080028
 30
0.000000
  0
VERTEX
  8
LAYER-1
 10
3.461792
 20
0.110410
 30
0.000000
  0
SEQEND
  8
LAYER-1
  0
POLYLINE
  8
LAYER-1
 66
  1
 70
  0
 62
  0
 10
3.459187
 20
0.059193
 30
0.000000
  0
VERTEX
  8
LAYER-1
 10
3.459187
 20
0.059193
 30
0.000000
  0
VERTEX
  8
LAYER-1
 10
3.459187
 20
0.054853
 30
0.000000
  0
VERTEX
  8
LAYER-1
 10
3.463527
 20
0.051381
 30
0.000000
  0
VERTEX
  8
LAYER-1
 10
3.468735
 20
0.050513
 30
0.000000
  0
VERTEX
  8
LAYER-1
 10
3.473076
 20
0.052249
 30
0.000000
  0
VERTEX
  8
LAYER-1
 10
3.474812
 20
0.056590
 30
0.000000
  0
VERTEX
  8
LAYER-1
 10
3.474812
 20
0.060929
 30
0.000000
  0
VERTEX
  8
LAYER-1
 10
3.471340
 20
0.065270
 30
0.000000
  0
VERTEX
  8
LAYER-1
 10
3.466999
 20
0.065270
 30
0.000000
  0
VERTEX
  8
LAYER-1
 10
3.462658
 20
0.064402
 30
0.000000
  0
VERTEX
  8
LAYER-1
 10
3.460054
 20
0.060061
 30
0.000000
  0
SEQEND
  8
LAYER-1
  0
POLYLINE
  8
LAYER-1
 66
  1
 70
  1
 62
  0
 10
4.009532
 20
0.125079
 30
0.000000
  0
VERTEX
  8
LAYER-1
 10
4.009532
 20
0.125079
 30
0.000000
  0
VERTEX
  8
LAYER-1
 10
4.016477
 20
0.099037
 30
0.000000
  0
VERTEX
  8
LAYER-1
 10
4.041650
 20
0.112925
 30
0.000000
  0
SEQEND
  8
LAYER-1
  0
POLYLINE
  8
LAYER-1
 66
  1
 70
  1
 62
  0
 10
3.981319
 20
0.088185
 30
0.000000
  0
VERTEX
  8
LAYER-1
 10
3.981319
 20
0.088185
 30
0.000000
  0
VERTEX
  8
LAYER-1
 10
4.003889
 20
0.075165
 30
0.000000
  0
VERTEX
  8
LAYER-1
 10
3.983056
 20
0.105546
 30
0.000000
  0
SEQEND
  8
LAYER-1
  0
POLYLINE
  8
LAYER-1
 66
  1
 70
  1
 62
  0
 10
4.097973
 20
0.080204
 30
0.000000
  0
VERTEX
  8
LAYER-1
 10
4.097973
 20
0.080204
 30
0.000000
  0
VERTEX
  8
LAYER-1
 10
4.117338
 20
0.067518
 30
0.000000
  0
VERTEX
  8
LAYER-1
 10
4.123349
 20
0.078868
 30
0.000000
  0
SEQEND
  8
LAYER-1
  0
POLYLINE
  8
LAYER-1
 66
  1
 70
  0
 62
  0
 10
4.042519
 20
0.086012
 30
0.000000
  0
VERTEX
  8
LAYER-1
 10
4.042519
 20
0.086012
 30
0.000000
  0
VERTEX
  8
LAYER-1
 10
4.038178
 20
0.086012
 30
0.000000
  0
VERTEX
  8
LAYER-1
 10
4.034707
 20
0.081672
 30
0.000000
  0
VERTEX
  8
LAYER-1
 10
4.033838
 20
0.076464
 30
0.000000
  0
VERTEX
  8
LAYER-1
 10
4.035575
 20
0.072123
 30
0.000000
  0
VERTEX
  8
LAYER-1
 10
4.039914
 20
0.070387
 30
0.000000
  0
VERTEX
  8
LAYER-1
 10
4.044255
 20
0.070387
 30
0.000000
  0
VERTEX
  8
LAYER-1
 10
4.048595
 20
0.073859
 30
0.000000
  0
VERTEX
  8
LAYER-1
 10
4.048595
 20
0.078200
 30
0.000000
  0
VERTEX
  8
LAYER-1
 10
4.047727
 20
0.082541
 30
0.000000
  0
VERTEX
  8
LAYER-1
 10
4.043387
 20
0.085144
 30
0.000000
  0
SEQEND
  8
LAYER-1
  0
POLYLINE
  8
LAYER-1
 66
  1
 70
  0
 62
  0
 10
3.927067
 20
0.063444
 30
0.000000
  0
VERTEX
  8
LAYER-1
 10
3.927067
 20
0.063444
 30
0.000000
  0
VERTEX
  8
LAYER-1
 10
3.931408
 20
0.063444
 30
0.000000
  0
VERTEX
  8
LAYER-1
 10
3.934880
 20
0.067785
 30
0.000000
  0
VERTEX
  8
LAYER-1
 10
3.935749
 20
0.072992
 30
0.000000
  0
VERTEX
  8
LAYER-1
 10
3.934013
 20
0.077333
 30
0.000000
  0
VERTEX
  8
LAYER-1
 10
3.929672
 20
0.079069
 30
0.000000
  0
VERTEX
  8
LAYER-1
 10
3.925332
 20
0.079069
 30
0.000000
  0
VERTEX
  8
LAYER-1
 10
3.920991
 20
0.075597
 30
0.000000
  0
VERTEX
  8
LAYER-1
 10
3.920991
 20
0.071256
 30
0.000000
  0
VERTEX
  8
LAYER-1
 10
3.921860
 20
0.066916
 30
0.000000
  0
VERTEX
  8
LAYER-1
 10
3.926200
 20
0.064311
 30
0.000000
  0
SEQEND
  8
LAYER-1
  0
POLYLINE
  8
LAYER-1
 66
  1
 70
  1
 62
  0
 10
4.413714
 20
0.033757
 30
0.000000
  0
VERTEX
  8
LAYER-1
 10
4.413714
 20
0.033757
 30
0.000000
  0
VERTEX
  8
LAYER-1
 10
4.406769
 20
0.059798
 30
0.000000
  0
VERTEX
  8
LAYER-1
 10
4.381596
 20
0.045909
 30
0.000000
  0
SEQEND
  8
LAYER-1
  0
POLYLINE
  8
LAYER-1
 66
  1
 70
  1
 62
  0
 10
4.441926
 20
0.070651
 30
0.000000
  0
VERTEX
  8
LAYER-1
 10
4.441926
 20
0.070651
 30
0.000000
  0
VERTEX
  8
LAYER-1
 10
4.419357
 20
0.083671
 30
0.000000
  0
VERTEX
  8
LAYER-1
 10
4.440189
 20
0.053290
 30
0.000000
  0
SEQEND
  8
LAYER-1
  0
POLYLINE
  8
LAYER-1
 66
  1
 70
  1
 62
  0
 10
4.325272
 20
0.078630
 30
0.000000
  0
VERTEX
  8
LAYER-1
 10
4.325272
 20
0.078630
 30
0.000000
  0
VERTEX
  8
LAYER-1
 10
4.305907
 20
0.091318
 30
0.000000
  0
VERTEX
  8
LAYER-1
 10
4.299897
 20
0.079966
 30
0.000000
  0
SEQEND
  8
LAYER-1
  0
POLYLINE
  8
LAYER-1
 66
  1
 70
  0
 62
  0
 10
4.380727
 20
0.072823
 30
0.000000
  0
VERTEX
  8
LAYER-1
 10
4.380727
 20
0.072823
 30
0.000000
  0
VERTEX
  8
LAYER-1
 10
4.385067
 20
0.072823
 30
0.000000
  0
VERTEX
  8
LAYER-1
 10
4.388539
 20
0.077164
 30
0.000000
  0
VERTEX
  8
LAYER-1
 10
4.389407
 20
0.082371
 30
0.000000
  0
VERTEX
  8
LAYER-1
 10
4.387671
 20
0.086712
 30
0.000000
  0
VERTEX
  8
LAYER-1
 10
4.383332
 20
0.088448
 30
0.000000
  0
VERTEX
  8
LAYER-1
 10
4.378991
 20
0.088448
 30
0.000000
  0
VERTEX
  8
LAYER-1
 10
4.374650
 20
0.084976
 30
0.000000
  0
VERTEX
  8
LAYER-1
 10
4.374650
 20
0.080635
 30
0.000000
  0
VERTEX
  8
LAYER-1
 10
4.375519
 20
0.076295
 30
0.000000
  0
VERTEX
  8
LAYER-1
 10
4.379859
 20
0.073691
 30
0.000000
  0
SEQEND
  8
LAYER-1
  0
POLYLINE
  8
LAYER-1
 66
  1
 70
  0
 62
  0
 10
4.496179
 20
0.095391
 30
0.000000
  0
VERTEX
  8
LAYER-1
 10
4.496179
 20
0.095391
 30
0.000000
  0
VERTEX
  8
LAYER-1
 10
4.491838
 20
0.095391
 30
0.000000
  0
VERTEX
  8
LAYER-1
 10
4.488366
 20
0.091051
 30
0.000000
  0
VERTEX
  8
LAYER-1
 10
4.487497
 20
0.085843
 30
0.000000
  0
VERTEX
  8
LAYER-1
 10
4.489233
 20
0.081502
 30
0.000000
  0
VERTEX
  8
LAYER-1
 10
4.493574
 20
0.079766
 30
0.000000
  0
VERTEX
  8
LAYER-1
 10
4.497914
 20
0.079766
 30
0.000000
  0
VERTEX
  8
LAYER-1
 10
4.502255
 20
0.083238
 30
0.000000
  0
VERTEX
  8
LAYER-1
 10
4.502255
 20
0.087579
 30
0.000000
  0
VERTEX
  8
LAYER-1
 10
4.501386
 20
0.091920
 30
0.000000
  0
VERTEX
  8
LAYER-1
 10
4.497045
 20
0.094525
 30
0.000000
  0
SEQEND
  8
LAYER-1
  0
POLYLINE
  8
LAYER-1
 66
  1
 70
  1
 62
  0
 10
4.666057
 20
0.017350
 30
0.000000
  0
VERTEX
  8
LAYER-1
 10
4.666057
 20
0.017350
 30
0.000000
  0
VERTEX
  8
LAYER-1
 10
4.659112
 20
0.043392
 30
0.000000
  0
VERTEX
  8
LAYER-1
 10
4.633939
 20
0.029504
 30
0.000000
  0
SEQEND
  8
LAYER-1
  0
POLYLINE
  8
LAYER-1
 66
  1
 70
  1
 62
  0
 10
4.694270
 20
0.054244
 30
0.000000
  0
VERTEX
  8
LAYER-1
 10
4.694270
 20
0.054244
 30
0.000000
  0
VERTEX
  8
LAYER-1
 10
4.671700
 20
0.067264
 30
0.000000
  0
VERTEX
  8
LAYER-1
 10
4.692533
 20
0.036883
 30
0.000000
  0
SEQEND
  8
LAYER-1
  0
POLYLINE
  8
LAYER-1
 66
  1
 70
  1
 62
  0
 10
4.577616
 20
0.062224
 30
0.000000
  0
VERTEX
  8
LAYER-1
 10
4.577616
 20
0.062224
 30
0.000000
  0
VERTEX
  8
LAYER-1
 10
4.558251
 20
0.074911
 30
0.000000
  0
VERTEX
  8
LAYER-1
 10
4.552241
 20
0.063560
 30
0.000000
  0
SEQEND
  8
LAYER-1
  0
POLYLINE
  8
LAYER-1
 66
  1
 70
  0
 62
  0
 10
4.633070
 20
0.056417
 30
0.000000
  0
VERTEX
  8
LAYER-1
 10
4.633070
 20
0.056417
 30
0.000000
  0
VERTEX
  8
LAYER-1
 10
4.637411
 20
0.056417
 30
0.000000
  0
VERTEX
  8
LAYER-1
 10
4.640883
 20
0.060757
 30
0.000000
  0
VERTEX
  8
LAYER-1
 10
4.641751
 20
0.065965
 30
0.000000
  0
VERTEX
  8
LAYER-1
 10
4.640015
 20
0.070306
 30
0.000000
  0
VERTEX
  8
LAYER-1
 10
4.635675
 20
0.072042
 30
0.000000
  0
VERTEX
  8
LAYER-1
 10
4.631334
 20
0.072042
 30
0.000000
  0
VERTEX
  8
LAYER-1
 10
4.626993
 20
0.068570
 30
0.000000
  0
VERTEX
  8
LAYER-1
 10
4.626993
 20
0.064229
 30
0.000000
  0
VERTEX
  8
LAYER-1
 10
4.627862
 20
0.059888
 30
0.000000
  0
VERTEX
  8
LAYER-1
 10
4.632202
 20
0.057285
 30
0.000000
  0
SEQEND
  8
LAYER-1
  0
POLYLINE
  8
LAYER-1
 66
  1
 70
  0
 62
  0
 10
4.748522
 20
0.078985
 30
0.000000
  0
VERTEX
  8
LAYER-1
 10
4.748522
 20
0.078985
 30
0.000000
  0
VERTEX
  8
LAYER-1
 10
4.744181
 20
0.078985
 30
0.000000
  0
VERTEX
  8
LAYER-1
 10
4.740709
 20
0.074644
 30
0.000000
  0
VERTEX
  8
LAYER-1
 10
4.739840
 20
0.069437
 30
0.000000
  0
VERTEX
  8
LAYER-1
 10
4.741576
 20
0.065096
 30
0.000000
  0
VERTEX
  8
LAYER-1
 10
4.745917
 20
0.063360
 30
0.000000
  0
VERTEX
  8
LAYER-1
 10
4.750258
 20
0.063360
 30
0.000000
  0
VERTEX
  8
LAYER-1
 10
4.754598
 20
0.066832
 30
0.000000
  0
VERTEX
  8
LAYER-1
 10
4.754598
 20
0.071173
 30
0.000000
  0
VERTEX
  8
LAYER-1
 10
4.753730
 20
0.075513
 30
0.000000
  0
VERTEX
  8
LAYER-1
 10
4.749389
 20
0.078118
 30
0.000000
  0
SEQEND
  8
LAYER-1
  0
POLYLINE
  8
LAYER-1
 66
  1
 70
  1
 62
  0
 10
4.886616
 20
0.116399
 30
0.000000
  0
VERTEX
  8
LAYER-1
 10
4.886616
 20
0.116399
 30
0.000000
  0
VERTEX
  8
LAYER-1
 10
4.893561
 20
0.090357
 30
0.000000
  0
VERTEX
  8
LAYER-1
 10
4.918734
 20
0.104246
 30
0.000000
  0
SEQEND
  8
LAYER-1
  0
POLYLINE
  8
LAYER-1
 66
  1
 70
  1
 62
  0
 10
4.858404
 20
0.079505
 30
0.000000
  0
VERTEX
  8
LAYER-1
 10
4.858404
 20
0.079505
 30
0.000000
  0
VERTEX
  8
LAYER-1
 10
4.880973
 20
0.066485
 30
0.000000
  0
VERTEX
  8
LAYER-1
 10
4.860140
 20
0.096866
 30
0.000000
  0
SEQEND
  8
LAYER-1
  0
POLYLINE
  8
LAYER-1
 66
  1
 70
  0
 62
  0
 10
4.804151
 20
0.054765
 30
0.000000
  0
VERTEX
  8
LAYER-1
 10
4.804151
 20
0.054765
 30
0.000000
  0
VERTEX
  8
LAYER-1
 10
4.808492
 20
0.054765
 30
0.000000
  0
VERTEX
  8
LAYER-1
 10
4.811964
 20
0.059105
 30
0.000000
  0
VERTEX
  8
LAYER-1
 10
4.812833
 20
0.064312
 30
0.000000
  0
VERTEX
  8
LAYER-1
 10
4.811097
 20
0.068654
 30
0.000000
  0
VERTEX
  8
LAYER-1
 10
4.806756
 20
0.070390
 30
0.000000
  0
VERTEX
  8
LAYER-1
 10
4.802415
 20
0.070390
 30
0.000000
  0
VERTEX
  8
LAYER-1
 10
4.798075
 20
0.066917
 30
0.000000
  0
VERTEX
  8
LAYER-1
 10
4.798075
 20
0.062577
 30
0.000000
  0
VERTEX
  8
LAYER-1
 10
4.798943
 20
0.058236
 30
0.000000
  0
VERTEX
  8
LAYER-1
 10
4.803284
 20
0.055631
 30
0.000000
  0
SEQEND
  8
LAYER-1
  0
POLYLINE
  8
LAYER-1
 66
  1
 70
  1
 62
  0
 10
5.439739
 20
0.228516
 30
0.000000
  0
VERTEX
  8
LAYER-1
 10
5.439739
 20
0.228516
 30
0.000000
  0
VERTEX
  8
LAYER-1
 10
5.446683
 20
0.202476
 30
0.000000
  0
VERTEX
  8
LAYER-1
 10
5.471857
 20
0.216363
 30
0.000000
  0
SEQEND
  8
LAYER-1
  0
POLYLINE
  8
LAYER-1
 66
  1
 70
  1
 62
  0
 10
5.452847
 20
0.183378
 30
0.000000
  0
VERTEX
  8
LAYER-1
 10
5.452847
 20
0.183378
 30
0.000000
  0
VERTEX
  8
LAYER-1
 10
5.439826
 20
0.160806
 30
0.000000
  0
VERTEX
  8
LAYER-1
 10
5.470208
 20
0.181640
 30
0.000000
  0
SEQEND
  8
LAYER-1
  0
POLYLINE
  8
LAYER-1
 66
  1
 70
  1
 62
  0
 10
5.144341
 20
0.151900
 30
0.000000
  0
VERTEX
  8
LAYER-1
 10
5.144341
 20
0.151900
 30
0.000000
  0
VERTEX
  8
LAYER-1
 10
5.137397
 20
0.177941
 30
0.000000
  0
VERTEX
  8
LAYER-1
 10
5.112224
 20
0.164054
 30
0.000000
  0
SEQEND
  8
LAYER-1
  0
POLYLINE
  8
LAYER-1
 66
  1
 70
  1
 62
  0
 10
5.131232
 20
0.197039
 30
0.000000
  0
VERTEX
  8
LAYER-1
 10
5.131232
 20
0.197039
 30
0.000000
  0
VERTEX
  8
LAYER-1
 10
5.144254
 20
0.219610
 30
0.000000
  0
VERTEX
  8
LAYER-1
 10
5.113872
 20
0.198777
 30
0.000000
  0
SEQEND
  8
LAYER-1
  0
POLYLINE
  8
LAYER-1
 66
  1
 70
  1
 62
  0
 10
5.649114
 20
0.054071
 30
0.000000
  0
VERTEX
  8
LAYER-1
 10
5.649114
 20
0.054071
 30
0.000000
  0
VERTEX
  8
LAYER-1
 10
5.675155
 20
0.061017
 30
0.000000
  0
VERTEX
  8
LAYER-1
 10
5.661268
 20
0.086190
 30
0.000000
  0
SEQEND
  8
LAYER-1
  0
POLYLINE
  8
LAYER-1
 66
  1
 70
  1
 62
  0
 10
5.694253
 20
0.067180
 30
0.000000
  0
VERTEX
  8
LAYER-1
 10
5.694253
 20
0.067180
 30
0.000000
  0
VERTEX
  8
LAYER-1
 10
5.716824
 20
0.054159
 30
0.000000
  0
VERTEX
  8
LAYER-1
 10
5.695991
 20
0.084540
 30
0.000000
  0
SEQEND
  8
LAYER-1
  0
ARC
  8
LAYER-1
 62
  0
 10
5.445002
 20
8.970845
 30
0.000000
 40
0.254425
 50
270.000000
 51
90.000000
  0
POLYLINE
  8
LAYER-1
 66
  1
 70
  0
 62
  0
 10
5.445002
 20
9.225270
 30
0.000000
  0
VERTEX
  8
LAYER-1
 10
5.445002
 20
9.225270
 30
0.000000
  0
VERTEX
  8
LAYER-1
 10
1.780080
 20
9.225270
 30
0.000000
  0
SEQEND
  8
LAYER-1
  0
POLYLINE
  8
LAYER-1
 66
  1
 70
  0
 62
  0
 10
1.780080
 20
9.225270
 30
0.000000
  0
VERTEX
  8
LAYER-1
 10
1.780080
 20
9.225270
 30
0.000000
  0
VERTEX
  8
LAYER-1
 10
1.780080
 20
8.716420
 30
0.000000
  0
SEQEND
  8
LAYER-1
  0
POLYLINE
  8
LAYER-1
 66
  1
 70
  0
 62
  0
 10
5.445002
 20
8.716420
 30
0.000000
  0
VERTEX
  8
LAYER-1
 10
5.445002
 20
8.716420
 30
0.000000
  0
VERTEX
  8
LAYER-1
 10
1.780080
 20
8.716420
 30
0.000000
  0
SEQEND
  8
LAYER-1
  0
TEXT
  8
LAYER-1
 62
  0
 10
3.583667
 20
9.513666
 30
0.000000
 40
0.333333
  1
MobilFlex
 72
  5
 11
5.736445
 21
9.513666
 31
0.000000
  0
POLYLINE
  8
LAYER-1
 66
  1
 70
  1
 62
  0
  0
VERTEX
  8
LAYER-1
 10
1.781584
 20
10.032833
 30
0.000000
  0
VERTEX
  8
LAYER-1
 10
2.019431
 20
10.032833
 30
0.000000
  0
VERTEX
  8
LAYER-1
 10
2.019431
 20
9.515888
 30
0.000000
  0
VERTEX
  8
LAYER-1
 10
1.781584
 20
9.515888
 30
0.000000
  0
SEQEND
  8
LAYER-1
  0
POLYLINE
  8
LAYER-1
 66
  1
 70
  1
 62
  0
  0
VERTEX
  8
LAYER-1
 10
2.094084
 20
10.032833
 30
0.000000
  0
VERTEX
  8
LAYER-1
 10
2.331931
 20
10.032833
 30
0.000000
  0
VERTEX
  8
LAYER-1
 10
2.331931
 20
9.515888
 30
0.000000
  0
VERTEX
  8
LAYER-1
 10
2.094084
 20
9.515888
 30
0.000000
  0
SEQEND
  8
LAYER-1
  0
POLYLINE
  8
LAYER-1
 66
  1
 70
  1
 62
  0
  0
VERTEX
  8
LAYER-1
 10
2.394431
 20
10.032833
 30
0.000000
  0
VERTEX
  8
LAYER-1
 10
2.632278
 20
10.032833
 30
0.000000
  0
VERTEX
  8
LAYER-1
 10
2.632278
 20
9.515888
 30
0.000000
  0
VERTEX
  8
LAYER-1
 10
2.394431
 20
9.515888
 30
0.000000
  0
SEQEND
  8
LAYER-1
  0
POLYLINE
  8
LAYER-1
 66
  1
 70
  1
 62
  0
  0
VERTEX
  8
LAYER-1
 10
2.698250
 20
10.032833
 30
0.000000
  0
VERTEX
  8
LAYER-1
 10
2.936098
 20
10.032833
 30
0.000000
  0
VERTEX
  8
LAYER-1
 10
2.936098
 20
9.515888
 30
0.000000
  0
VERTEX
  8
LAYER-1
 10
2.698250
 20
9.515888
 30
0.000000
  0
SEQEND
  8
LAYER-1
  0
POLYLINE
  8
LAYER-1
 66
  1
 70
  1
 62
  0
  0
VERTEX
  8
LAYER-1
 10
3.015091
 20
10.028917
 30
0.000000
  0
VERTEX
  8
LAYER-1
 10
3.390525
 20
10.028917
 30
0.000000
  0
VERTEX
  8
LAYER-1
 10
3.390525
 20
9.890896
 30
0.000000
  0
VERTEX
  8
LAYER-1
 10
3.015091
 20
9.890896
 30
0.000000
  0
SEQEND
  8
LAYER-1
  0
POLYLINE
  8
LAYER-1
 66
  1
 70
  1
 62
  0
  0
VERTEX
  8
LAYER-1
 10
3.014657
 20
9.801487
 30
0.000000
  0
VERTEX
  8
LAYER-1
 10
3.322816
 20
9.801487
 30
0.000000
  0
VERTEX
  8
LAYER-1
 10
3.322816
 20
9.667372
 30
0.000000
  0
VERTEX
  8
LAYER-1
 10
3.014657
 20
9.667372
 30
0.000000
  0
SEQEND
  8
LAYER-1
  0
POLYLINE
  8
LAYER-1
 66
  1
 70
  1
 62
  0
  0
VERTEX
  8
LAYER-1
 10
1.781584
 20
9.431261
 30
0.000000
  0
VERTEX
  8
LAYER-1
 10
5.699987
 20
9.431261
 30
0.000000
  0
VERTEX
  8
LAYER-1
 10
5.699987
 20
9.387858
 30
0.000000
  0
VERTEX
  8
LAYER-1
 10
1.781584
 20
9.387858
 30
0.000000
  0
SEQEND
  8
LAYER-1
  0
POLYLINE
  8
LAYER-1
 66
  1
 70
  1
 62
  7
  0
VERTEX
  8
LAYER-1
 10
3.851896
 20
7.196000
 30
0.000000
  0
VERTEX
  8
LAYER-1
 10
4.022036
 20
7.196000
 30
0.000000
  0
VERTEX
  8
LAYER-1
 10
4.022036
 20
6.779080
 30
0.000000
  0
VERTEX
  8
LAYER-1
 10
3.851896
 20
6.779080
 30
0.000000
  0
SEQEND
  8
LAYER-1
  0
POLYLINE
  8
LAYER-1
 66
  1
 70
  1
 62
  7
  0
VERTEX
  8
LAYER-1
 10
4.261377
 20
7.196000
 30
0.000000
  0
VERTEX
  8
LAYER-1
 10
4.431516
 20
7.196000
 30
0.000000
  0
VERTEX
  8
LAYER-1
 10
4.431516
 20
6.779080
 30
0.000000
  0
VERTEX
  8
LAYER-1
 10
4.261377
 20
6.779080
 30
0.000000
  0
SEQEND
  8
LAYER-1
  0
POLYLINE
  8
LAYER-1
 66
  1
 70
  1
 62
  7
  0
VERTEX
  8
LAYER-1
 10
4.668251
 20
7.196000
 30
0.000000
  0
VERTEX
  8
LAYER-1
 10
4.838390
 20
7.196000
 30
0.000000
  0
VERTEX
  8
LAYER-1
 10
4.838390
 20
6.779080
 30
0.000000
  0
VERTEX
  8
LAYER-1
 10
4.668251
 20
6.779080
 30
0.000000
  0
SEQEND
  8
LAYER-1
  0
POLYLINE
  8
LAYER-1
 66
  1
 70
  1
 62
  7
  0
VERTEX
  8
LAYER-1
 10
5.076862
 20
7.196000
 30
0.000000
  0
VERTEX
  8
LAYER-1
 10
5.247001
 20
7.196000
 30
0.000000
  0
VERTEX
  8
LAYER-1
 10
5.247001
 20
6.779080
 30
0.000000
  0
VERTEX
  8
LAYER-1
 10
5.076862
 20
6.779080
 30
0.000000
  0
SEQEND
  8
LAYER-1
  0
POLYLINE
  8
LAYER-1
 66
  1
 70
  1
 62
  7
  0
VERTEX
  8
LAYER-1
 10
5.484606
 20
7.196000
 30
0.000000
  0
VERTEX
  8
LAYER-1
 10
5.654745
 20
7.196000
 30
0.000000
  0
VERTEX
  8
LAYER-1
 10
5.654745
 20
6.779080
 30
0.000000
  0
VERTEX
  8
LAYER-1
 10
5.484606
 20
6.779080
 30
0.000000
  0
SEQEND
  8
LAYER-1
  0
POLYLINE
  8
LAYER-1
 66
  1
 70
  1
 62
  7
  0
VERTEX
  8
LAYER-1
 10
4.057070
 20
6.779502
 30
0.000000
  0
VERTEX
  8
LAYER-1
 10
4.227209
 20
6.779502
 30
0.000000
  0
VERTEX
  8
LAYER-1
 10
4.227209
 20
6.162859
 30
0.000000
  0
VERTEX
  8
LAYER-1
 10
4.057070
 20
6.162859
 30
0.000000
  0
SEQEND
  8
LAYER-1
  0
POLYLINE
  8
LAYER-1
 66
  1
 70
  1
 62
  7
  0
VERTEX
  8
LAYER-1
 10
4.463946
 20
6.779502
 30
0.000000
  0
VERTEX
  8
LAYER-1
 10
4.634085
 20
6.779502
 30
0.000000
  0
VERTEX
  8
LAYER-1
 10
4.634085
 20
6.162859
 30
0.000000
  0
VERTEX
  8
LAYER-1
 10
4.463946
 20
6.162859
 30
0.000000
  0
SEQEND
  8
LAYER-1
  0
POLYLINE
  8
LAYER-1
 66
  1
 70
  1
 62
  7
  0
VERTEX
  8
LAYER-1
 10
4.869954
 20
6.779502
 30
0.000000
  0
VERTEX
  8
LAYER-1
 10
5.040093
 20
6.779502
 30
0.000000
  0
VERTEX
  8
LAYER-1
 10
5.040093
 20
6.162859
 30
0.000000
  0
VERTEX
  8
LAYER-1
 10
4.869954
 20
6.162859
 30
0.000000
  0
SEQEND
  8
LAYER-1
  0
POLYLINE
  8
LAYER-1
 66
  1
 70
  1
 62
  7
  0
VERTEX
  8
LAYER-1
 10
5.280301
 20
6.779502
 30
0.000000
  0
VERTEX
  8
LAYER-1
 10
5.450439
 20
6.779502
 30
0.000000
  0
VERTEX
  8
LAYER-1
 10
5.450439
 20
6.162859
 30
0.000000
  0
VERTEX
  8
LAYER-1
 10
5.280301
 20
6.162859
 30
0.000000
  0
SEQEND
  8
LAYER-1
  0
POLYLINE
  8
LAYER-1
 66
  1
 70
  1
 62
  7
  0
VERTEX
  8
LAYER-1
 10
5.485474
 20
6.162857
 30
0.000000
  0
VERTEX
  8
LAYER-1
 10
5.655613
 20
6.162857
 30
0.000000
  0
VERTEX
  8
LAYER-1
 10
5.655613
 20
5.546213
 30
0.000000
  0
VERTEX
  8
LAYER-1
 10
5.485474
 20
5.546213
 30
0.000000
  0
SEQEND
  8
LAYER-1
  0
POLYLINE
  8
LAYER-1
 66
  1
 70
  1
 62
  7
  0
VERTEX
  8
LAYER-1
 10
5.075994
 20
6.162857
 30
0.000000
  0
VERTEX
  8
LAYER-1
 10
5.246133
 20
6.162857
 30
0.000000
  0
VERTEX
  8
LAYER-1
 10
5.246133
 20
5.546213
 30
0.000000
  0
VERTEX
  8
LAYER-1
 10
5.075994
 20
5.546213
 30
0.000000
  0
SEQEND
  8
LAYER-1
  0
POLYLINE
  8
LAYER-1
 66
  1
 70
  1
 62
  7
  0
VERTEX
  8
LAYER-1
 10
4.667383
 20
6.162857
 30
0.000000
  0
VERTEX
  8
LAYER-1
 10
4.837523
 20
6.162857
 30
0.000000
  0
VERTEX
  8
LAYER-1
 10
4.837523
 20
5.546213
 30
0.000000
  0
VERTEX
  8
LAYER-1
 10
4.667383
 20
5.546213
 30
0.000000
  0
SEQEND
  8
LAYER-1
  0
POLYLINE
  8
LAYER-1
 66
  1
 70
  1
 62
  7
  0
VERTEX
  8
LAYER-1
 10
4.260509
 20
6.162857
 30
0.000000
  0
VERTEX
  8
LAYER-1
 10
4.430648
 20
6.162857
 30
0.000000
  0
VERTEX
  8
LAYER-1
 10
4.430648
 20
5.546213
 30
0.000000
  0
VERTEX
  8
LAYER-1
 10
4.260509
 20
5.546213
 30
0.000000
  0
SEQEND
  8
LAYER-1
  0
POLYLINE
  8
LAYER-1
 66
  1
 70
  1
 62
  7
  0
VERTEX
  8
LAYER-1
 10
3.851896
 20
6.162857
 30
0.000000
  0
VERTEX
  8
LAYER-1
 10
4.022036
 20
6.162857
 30
0.000000
  0
VERTEX
  8
LAYER-1
 10
4.022036
 20
5.546213
 30
0.000000
  0
VERTEX
  8
LAYER-1
 10
3.851896
 20
5.546213
 30
0.000000
  0
SEQEND
  8
LAYER-1
  0
POLYLINE
  8
LAYER-1
 66
  1
 70
  1
 62
  7
  0
VERTEX
  8
LAYER-1
 10
4.057070
 20
5.546482
 30
0.000000
  0
VERTEX
  8
LAYER-1
 10
4.227209
 20
5.546482
 30
0.000000
  0
VERTEX
  8
LAYER-1
 10
4.227209
 20
4.929838
 30
0.000000
  0
VERTEX
  8
LAYER-1
 10
4.057070
 20
4.929838
 30
0.000000
  0
SEQEND
  8
LAYER-1
  0
POLYLINE
  8
LAYER-1
 66
  1
 70
  1
 62
  7
  0
VERTEX
  8
LAYER-1
 10
4.463946
 20
5.546482
 30
0.000000
  0
VERTEX
  8
LAYER-1
 10
4.634085
 20
5.546482
 30
0.000000
  0
VERTEX
  8
LAYER-1
 10
4.634085
 20
4.929838
 30
0.000000
  0
VERTEX
  8
LAYER-1
 10
4.463946
 20
4.929838
 30
0.000000
  0
SEQEND
  8
LAYER-1
  0
POLYLINE
  8
LAYER-1
 66
  1
 70
  1
 62
  7
  0
VERTEX
  8
LAYER-1
 10
4.869954
 20
5.546482
 30
0.000000
  0
VERTEX
  8
LAYER-1
 10
5.040093
 20
5.546482
 30
0.000000
  0
VERTEX
  8
LAYER-1
 10
5.040093
 20
4.929838
 30
0.000000
  0
VERTEX
  8
LAYER-1
 10
4.869954
 20
4.929838
 30
0.000000
  0
SEQEND
  8
LAYER-1
  0
POLYLINE
  8
LAYER-1
 66
  1
 70
  1
 62
  7
  0
VERTEX
  8
LAYER-1
 10
5.280301
 20
5.546482
 30
0.000000
  0
VERTEX
  8
LAYER-1
 10
5.450439
 20
5.546482
 30
0.000000
  0
VERTEX
  8
LAYER-1
 10
5.450439
 20
4.929838
 30
0.000000
  0
VERTEX
  8
LAYER-1
 10
5.280301
 20
4.929838
 30
0.000000
  0
SEQEND
  8
LAYER-1
  0
POLYLINE
  8
LAYER-1
 66
  1
 70
  1
 62
  7
  0
VERTEX
  8
LAYER-1
 10
5.485474
 20
4.929836
 30
0.000000
  0
VERTEX
  8
LAYER-1
 10
5.655613
 20
4.929836
 30
0.000000
  0
VERTEX
  8
LAYER-1
 10
5.655613
 20
4.313193
 30
0.000000
  0
VERTEX
  8
LAYER-1
 10
5.485474
 20
4.313193
 30
0.000000
  0
SEQEND
  8
LAYER-1
  0
POLYLINE
  8
LAYER-1
 66
  1
 70
  1
 62
  7
  0
VERTEX
  8
LAYER-1
 10
5.075126
 20
4.929836
 30
0.000000
  0
VERTEX
  8
LAYER-1
 10
5.245265
 20
4.929836
 30
0.000000
  0
VERTEX
  8
LAYER-1
 10
5.245265
 20
4.313193
 30
0.000000
  0
VERTEX
  8
LAYER-1
 10
5.075126
 20
4.313193
 30
0.000000
  0
SEQEND
  8
LAYER-1
  0
POLYLINE
  8
LAYER-1
 66
  1
 70
  1
 62
  7
  0
VERTEX
  8
LAYER-1
 10
4.667383
 20
4.929836
 30
0.000000
  0
VERTEX
  8
LAYER-1
 10
4.837523
 20
4.929836
 30
0.000000
  0
VERTEX
  8
LAYER-1
 10
4.837523
 20
4.313193
 30
0.000000
  0
VERTEX
  8
LAYER-1
 10
4.667383
 20
4.313193
 30
0.000000
  0
SEQEND
  8
LAYER-1
  0
POLYLINE
  8
LAYER-1
 66
  1
 70
  1
 62
  7
  0
VERTEX
  8
LAYER-1
 10
4.260509
 20
4.929836
 30
0.000000
  0
VERTEX
  8
LAYER-1
 10
4.430648
 20
4.929836
 30
0.000000
  0
VERTEX
  8
LAYER-1
 10
4.430648
 20
4.313193
 30
0.000000
  0
VERTEX
  8
LAYER-1
 10
4.260509
 20
4.313193
 30
0.000000
  0
SEQEND
  8
LAYER-1
  0
POLYLINE
  8
LAYER-1
 66
  1
 70
  1
 62
  7
  0
VERTEX
  8
LAYER-1
 10
3.851896
 20
4.929836
 30
0.000000
  0
VERTEX
  8
LAYER-1
 10
4.022036
 20
4.929836
 30
0.000000
  0
VERTEX
  8
LAYER-1
 10
4.022036
 20
4.313193
 30
0.000000
  0
VERTEX
  8
LAYER-1
 10
3.851896
 20
4.313193
 30
0.000000
  0
SEQEND
  8
LAYER-1
  0
POLYLINE
  8
LAYER-1
 66
  1
 70
  1
 62
  7
  0
VERTEX
  8
LAYER-1
 10
4.057070
 20
4.313461
 30
0.000000
  0
VERTEX
  8
LAYER-1
 10
4.227209
 20
4.313461
 30
0.000000
  0
VERTEX
  8
LAYER-1
 10
4.227209
 20
3.696817
 30
0.000000
  0
VERTEX
  8
LAYER-1
 10
4.057070
 20
3.696817
 30
0.000000
  0
SEQEND
  8
LAYER-1
  0
POLYLINE
  8
LAYER-1
 66
  1
 70
  1
 62
  7
  0
VERTEX
  8
LAYER-1
 10
4.463946
 20
4.313461
 30
0.000000
  0
VERTEX
  8
LAYER-1
 10
4.634085
 20
4.313461
 30
0.000000
  0
VERTEX
  8
LAYER-1
 10
4.634085
 20
3.696817
 30
0.000000
  0
VERTEX
  8
LAYER-1
 10
4.463946
 20
3.696817
 30
0.000000
  0
SEQEND
  8
LAYER-1
  0
POLYLINE
  8
LAYER-1
 66
  1
 70
  1
 62
  7
  0
VERTEX
  8
LAYER-1
 10
4.870822
 20
4.313461
 30
0.000000
  0
VERTEX
  8
LAYER-1
 10
5.040961
 20
4.313461
 30
0.000000
  0
VERTEX
  8
LAYER-1
 10
5.040961
 20
3.696817
 30
0.000000
  0
VERTEX
  8
LAYER-1
 10
4.870822
 20
3.696817
 30
0.000000
  0
SEQEND
  8
LAYER-1
  0
POLYLINE
  8
LAYER-1
 66
  1
 70
  1
 62
  7
  0
VERTEX
  8
LAYER-1
 10
5.280301
 20
4.313461
 30
0.000000
  0
VERTEX
  8
LAYER-1
 10
5.450439
 20
4.313461
 30
0.000000
  0
VERTEX
  8
LAYER-1
 10
5.450439
 20
3.696817
 30
0.000000
  0
VERTEX
  8
LAYER-1
 10
5.280301
 20
3.696817
 30
0.000000
  0
SEQEND
  8
LAYER-1
  0
POLYLINE
  8
LAYER-1
 66
  1
 70
  1
 62
  7
  0
VERTEX
  8
LAYER-1
 10
5.485474
 20
3.696815
 30
0.000000
  0
VERTEX
  8
LAYER-1
 10
5.655613
 20
3.696815
 30
0.000000
  0
VERTEX
  8
LAYER-1
 10
5.655613
 20
3.080172
 30
0.000000
  0
VERTEX
  8
LAYER-1
 10
5.485474
 20
3.080172
 30
0.000000
  0
SEQEND
  8
LAYER-1
  0
POLYLINE
  8
LAYER-1
 66
  1
 70
  1
 62
  7
  0
VERTEX
  8
LAYER-1
 10
5.075994
 20
3.696815
 30
0.000000
  0
VERTEX
  8
LAYER-1
 10
5.246133
 20
3.696815
 30
0.000000
  0
VERTEX
  8
LAYER-1
 10
5.246133
 20
3.080172
 30
0.000000
  0
VERTEX
  8
LAYER-1
 10
5.075994
 20
3.080172
 30
0.000000
  0
SEQEND
  8
LAYER-1
  0
POLYLINE
  8
LAYER-1
 66
  1
 70
  1
 62
  7
  0
VERTEX
  8
LAYER-1
 10
4.667383
 20
3.696815
 30
0.000000
  0
VERTEX
  8
LAYER-1
 10
4.837523
 20
3.696815
 30
0.000000
  0
VERTEX
  8
LAYER-1
 10
4.837523
 20
3.080172
 30
0.000000
  0
VERTEX
  8
LAYER-1
 10
4.667383
 20
3.080172
 30
0.000000
  0
SEQEND
  8
LAYER-1
  0
POLYLINE
  8
LAYER-1
 66
  1
 70
  1
 62
  7
  0
VERTEX
  8
LAYER-1
 10
4.260509
 20
3.696815
 30
0.000000
  0
VERTEX
  8
LAYER-1
 10
4.430648
 20
3.696815
 30
0.000000
  0
VERTEX
  8
LAYER-1
 10
4.430648
 20
3.080172
 30
0.000000
  0
VERTEX
  8
LAYER-1
 10
4.260509
 20
3.080172
 30
0.000000
  0
SEQEND
  8
LAYER-1
  0
POLYLINE
  8
LAYER-1
 66
  1
 70
  1
 62
  7
  0
VERTEX
  8
LAYER-1
 10
3.851896
 20
3.696815
 30
0.000000
  0
VERTEX
  8
LAYER-1
 10
4.022036
 20
3.696815
 30
0.000000
  0
VERTEX
  8
LAYER-1
 10
4.022036
 20
3.080172
 30
0.000000
  0
VERTEX
  8
LAYER-1
 10
3.851896
 20
3.080172
 30
0.000000
  0
SEQEND
  8
LAYER-1
  0
POLYLINE
  8
LAYER-1
 66
  1
 70
  1
 62
  7
  0
VERTEX
  8
LAYER-1
 10
4.057070
 20
3.080439
 30
0.000000
  0
VERTEX
  8
LAYER-1
 10
4.227209
 20
3.080439
 30
0.000000
  0
VERTEX
  8
LAYER-1
 10
4.227209
 20
2.463795
 30
0.000000
  0
VERTEX
  8
LAYER-1
 10
4.057070
 20
2.463795
 30
0.000000
  0
SEQEND
  8
LAYER-1
  0
POLYLINE
  8
LAYER-1
 66
  1
 70
  1
 62
  7
  0
VERTEX
  8
LAYER-1
 10
4.463946
 20
3.080439
 30
0.000000
  0
VERTEX
  8
LAYER-1
 10
4.634085
 20
3.080439
 30
0.000000
  0
VERTEX
  8
LAYER-1
 10
4.634085
 20
2.463795
 30
0.000000
  0
VERTEX
  8
LAYER-1
 10
4.463946
 20
2.463795
 30
0.000000
  0
SEQEND
  8
LAYER-1
  0
POLYLINE
  8
LAYER-1
 66
  1
 70
  1
 62
  7
  0
VERTEX
  8
LAYER-1
 10
4.870822
 20
3.080439
 30
0.000000
  0
VERTEX
  8
LAYER-1
 10
5.040961
 20
3.080439
 30
0.000000
  0
VERTEX
  8
LAYER-1
 10
5.040961
 20
2.463795
 30
0.000000
  0
VERTEX
  8
LAYER-1
 10
4.870822
 20
2.463795
 30
0.000000
  0
SEQEND
  8
LAYER-1
  0
POLYLINE
  8
LAYER-1
 66
  1
 70
  1
 62
  7
  0
VERTEX
  8
LAYER-1
 10
5.280301
 20
3.080439
 30
0.000000
  0
VERTEX
  8
LAYER-1
 10
5.450439
 20
3.080439
 30
0.000000
  0
VERTEX
  8
LAYER-1
 10
5.450439
 20
2.463795
 30
0.000000
  0
VERTEX
  8
LAYER-1
 10
5.280301
 20
2.463795
 30
0.000000
  0
SEQEND
  8
LAYER-1
  0
POLYLINE
  8
LAYER-1
 66
  1
 70
  1
 62
  7
  0
VERTEX
  8
LAYER-1
 10
5.485474
 20
2.463793
 30
0.000000
  0
VERTEX
  8
LAYER-1
 10
5.655613
 20
2.463793
 30
0.000000
  0
VERTEX
  8
LAYER-1
 10
5.655613
 20
1.847149
 30
0.000000
  0
VERTEX
  8
LAYER-1
 10
5.485474
 20
1.847149
 30
0.000000
  0
SEQEND
  8
LAYER-1
  0
POLYLINE
  8
LAYER-1
 66
  1
 70
  1
 62
  7
  0
VERTEX
  8
LAYER-1
 10
5.075994
 20
2.463793
 30
0.000000
  0
VERTEX
  8
LAYER-1
 10
5.246133
 20
2.463793
 30
0.000000
  0
VERTEX
  8
LAYER-1
 10
5.246133
 20
1.847149
 30
0.000000
  0
VERTEX
  8
LAYER-1
 10
5.075994
 20
1.847149
 30
0.000000
  0
SEQEND
  8
LAYER-1
  0
POLYLINE
  8
LAYER-1
 66
  1
 70
  1
 62
  7
  0
VERTEX
  8
LAYER-1
 10
4.667383
 20
2.463793
 30
0.000000
  0
VERTEX
  8
LAYER-1
 10
4.837523
 20
2.463793
 30
0.000000
  0
VERTEX
  8
LAYER-1
 10
4.837523
 20
1.847149
 30
0.000000
  0
VERTEX
  8
LAYER-1
 10
4.667383
 20
1.847149
 30
0.000000
  0
SEQEND
  8
LAYER-1
  0
POLYLINE
  8
LAYER-1
 66
  1
 70
  1
 62
  7
  0
VERTEX
  8
LAYER-1
 10
4.260509
 20
2.463793
 30
0.000000
  0
VERTEX
  8
LAYER-1
 10
4.430648
 20
2.463793
 30
0.000000
  0
VERTEX
  8
LAYER-1
 10
4.430648
 20
1.847149
 30
0.000000
  0
VERTEX
  8
LAYER-1
 10
4.260509
 20
1.847149
 30
0.000000
  0
SEQEND
  8
LAYER-1
  0
POLYLINE
  8
LAYER-1
 66
  1
 70
  1
 62
  7
  0
VERTEX
  8
LAYER-1
 10
3.851896
 20
2.463793
 30
0.000000
  0
VERTEX
  8
LAYER-1
 10
4.022036
 20
2.463793
 30
0.000000
  0
VERTEX
  8
LAYER-1
 10
4.022036
 20
1.847149
 30
0.000000
  0
VERTEX
  8
LAYER-1
 10
3.851896
 20
1.847149
 30
0.000000
  0
SEQEND
  8
LAYER-1
  0
POLYLINE
  8
LAYER-1
 66
  1
 70
  1
 62
  7
  0
VERTEX
  8
LAYER-1
 10
4.057070
 20
1.847419
 30
0.000000
  0
VERTEX
  8
LAYER-1
 10
4.227209
 20
1.847419
 30
0.000000
  0
VERTEX
  8
LAYER-1
 10
4.227209
 20
1.230776
 30
0.000000
  0
VERTEX
  8
LAYER-1
 10
4.057070
 20
1.230776
 30
0.000000
  0
SEQEND
  8
LAYER-1
  0
POLYLINE
  8
LAYER-1
 66
  1
 70
  1
 62
  7
  0
VERTEX
  8
LAYER-1
 10
4.464814
 20
1.847419
 30
0.000000
  0
VERTEX
  8
LAYER-1
 10
4.634953
 20
1.847419
 30
0.000000
  0
VERTEX
  8
LAYER-1
 10
4.634953
 20
1.230776
 30
0.000000
  0
VERTEX
  8
LAYER-1
 10
4.464814
 20
1.230776
 30
0.000000
  0
SEQEND
  8
LAYER-1
  0
POLYLINE
  8
LAYER-1
 66
  1
 70
  1
 62
  7
  0
VERTEX
  8
LAYER-1
 10
4.870822
 20
1.847419
 30
0.000000
  0
VERTEX
  8
LAYER-1
 10
5.040961
 20
1.847419
 30
0.000000
  0
VERTEX
  8
LAYER-1
 10
5.040961
 20
1.230776
 30
0.000000
  0
VERTEX
  8
LAYER-1
 10
4.870822
 20
1.230776
 30
0.000000
  0
SEQEND
  8
LAYER-1
  0
POLYLINE
  8
LAYER-1
 66
  1
 70
  1
 62
  7
  0
VERTEX
  8
LAYER-1
 10
5.280301
 20
1.847419
 30
0.000000
  0
VERTEX
  8
LAYER-1
 10
5.450439
 20
1.847419
 30
0.000000
  0
VERTEX
  8
LAYER-1
 10
5.450439
 20
1.230776
 30
0.000000
  0
VERTEX
  8
LAYER-1
 10
5.280301
 20
1.230776
 30
0.000000
  0
SEQEND
  8
LAYER-1
  0
POLYLINE
  8
LAYER-1
 66
  1
 70
  1
 62
  7
  0
VERTEX
  8
LAYER-1
 10
5.485474
 20
1.230773
 30
0.000000
  0
VERTEX
  8
LAYER-1
 10
5.655613
 20
1.230773
 30
0.000000
  0
VERTEX
  8
LAYER-1
 10
5.655613
 20
0.614132
 30
0.000000
  0
VERTEX
  8
LAYER-1
 10
5.485474
 20
0.614132
 30
0.000000
  0
SEQEND
  8
LAYER-1
  0
POLYLINE
  8
LAYER-1
 66
  1
 70
  1
 62
  7
  0
VERTEX
  8
LAYER-1
 10
5.075994
 20
1.230773
 30
0.000000
  0
VERTEX
  8
LAYER-1
 10
5.246133
 20
1.230773
 30
0.000000
  0
VERTEX
  8
LAYER-1
 10
5.246133
 20
0.614132
 30
0.000000
  0
VERTEX
  8
LAYER-1
 10
5.075994
 20
0.614132
 30
0.000000
  0
SEQEND
  8
LAYER-1
  0
POLYLINE
  8
LAYER-1
 66
  1
 70
  1
 62
  7
  0
VERTEX
  8
LAYER-1
 10
4.667383
 20
1.230773
 30
0.000000
  0
VERTEX
  8
LAYER-1
 10
4.837523
 20
1.230773
 30
0.000000
  0
VERTEX
  8
LAYER-1
 10
4.837523
 20
0.614132
 30
0.000000
  0
VERTEX
  8
LAYER-1
 10
4.667383
 20
0.614132
 30
0.000000
  0
SEQEND
  8
LAYER-1
  0
POLYLINE
  8
LAYER-1
 66
  1
 70
  1
 62
  7
  0
VERTEX
  8
LAYER-1
 10
4.261377
 20
1.230773
 30
0.000000
  0
VERTEX
  8
LAYER-1
 10
4.431516
 20
1.230773
 30
0.000000
  0
VERTEX
  8
LAYER-1
 10
4.431516
 20
0.614132
 30
0.000000
  0
VERTEX
  8
LAYER-1
 10
4.261377
 20
0.614132
 30
0.000000
  0
SEQEND
  8
LAYER-1
  0
POLYLINE
  8
LAYER-1
 66
  1
 70
  1
 62
  7
  0
VERTEX
  8
LAYER-1
 10
3.851896
 20
1.230773
 30
0.000000
  0
VERTEX
  8
LAYER-1
 10
4.022036
 20
1.230773
 30
0.000000
  0
VERTEX
  8
LAYER-1
 10
4.022036
 20
0.614132
 30
0.000000
  0
VERTEX
  8
LAYER-1
 10
3.851896
 20
0.614132
 30
0.000000
  0
SEQEND
  8
LAYER-1
  0
POLYLINE
  8
LAYER-1
 66
  1
 70
  1
 62
  7
  0
VERTEX
  8
LAYER-1
 10
1.805021
 20
7.196309
 30
0.000000
  0
VERTEX
  8
LAYER-1
 10
1.975160
 20
7.196309
 30
0.000000
  0
VERTEX
  8
LAYER-1
 10
1.975160
 20
6.779388
 30
0.000000
  0
VERTEX
  8
LAYER-1
 10
1.805021
 20
6.779388
 30
0.000000
  0
SEQEND
  8
LAYER-1
  0
POLYLINE
  8
LAYER-1
 66
  1
 70
  1
 62
  7
  0
VERTEX
  8
LAYER-1
 10
2.214501
 20
7.196309
 30
0.000000
  0
VERTEX
  8
LAYER-1
 10
2.384640
 20
7.196309
 30
0.000000
  0
VERTEX
  8
LAYER-1
 10
2.384640
 20
6.779388
 30
0.000000
  0
VERTEX
  8
LAYER-1
 10
2.214501
 20
6.779388
 30
0.000000
  0
SEQEND
  8
LAYER-1
  0
POLYLINE
  8
LAYER-1
 66
  1
 70
  1
 62
  7
  0
VERTEX
  8
LAYER-1
 10
2.623980
 20
7.196309
 30
0.000000
  0
VERTEX
  8
LAYER-1
 10
2.794119
 20
7.196309
 30
0.000000
  0
VERTEX
  8
LAYER-1
 10
2.794119
 20
6.779388
 30
0.000000
  0
VERTEX
  8
LAYER-1
 10
2.623980
 20
6.779388
 30
0.000000
  0
SEQEND
  8
LAYER-1
  0
POLYLINE
  8
LAYER-1
 66
  1
 70
  1
 62
  7
  0
VERTEX
  8
LAYER-1
 10
3.029987
 20
7.196309
 30
0.000000
  0
VERTEX
  8
LAYER-1
 10
3.200126
 20
7.196309
 30
0.000000
  0
VERTEX
  8
LAYER-1
 10
3.200126
 20
6.779388
 30
0.000000
  0
VERTEX
  8
LAYER-1
 10
3.029987
 20
6.779388
 30
0.000000
  0
SEQEND
  8
LAYER-1
  0
POLYLINE
  8
LAYER-1
 66
  1
 70
  1
 62
  7
  0
VERTEX
  8
LAYER-1
 10
3.437731
 20
7.196309
 30
0.000000
  0
VERTEX
  8
LAYER-1
 10
3.607869
 20
7.196309
 30
0.000000
  0
VERTEX
  8
LAYER-1
 10
3.607869
 20
6.779388
 30
0.000000
  0
VERTEX
  8
LAYER-1
 10
3.437731
 20
6.779388
 30
0.000000
  0
SEQEND
  8
LAYER-1
  0
POLYLINE
  8
LAYER-1
 66
  1
 70
  1
 62
  7
  0
VERTEX
  8
LAYER-1
 10
3.233425
 20
6.779811
 30
0.000000
  0
VERTEX
  8
LAYER-1
 10
3.403564
 20
6.779811
 30
0.000000
  0
VERTEX
  8
LAYER-1
 10
3.403564
 20
6.163167
 30
0.000000
  0
VERTEX
  8
LAYER-1
 10
3.233425
 20
6.163167
 30
0.000000
  0
SEQEND
  8
LAYER-1
  0
POLYLINE
  8
LAYER-1
 66
  1
 70
  1
 62
  7
  0
VERTEX
  8
LAYER-1
 10
2.827418
 20
6.779811
 30
0.000000
  0
VERTEX
  8
LAYER-1
 10
2.997557
 20
6.779811
 30
0.000000
  0
VERTEX
  8
LAYER-1
 10
2.997557
 20
6.163167
 30
0.000000
  0
VERTEX
  8
LAYER-1
 10
2.827418
 20
6.163167
 30
0.000000
  0
SEQEND
  8
LAYER-1
  0
POLYLINE
  8
LAYER-1
 66
  1
 70
  1
 62
  7
  0
VERTEX
  8
LAYER-1
 10
2.419675
 20
6.779811
 30
0.000000
  0
VERTEX
  8
LAYER-1
 10
2.589813
 20
6.779811
 30
0.000000
  0
VERTEX
  8
LAYER-1
 10
2.589813
 20
6.163167
 30
0.000000
  0
VERTEX
  8
LAYER-1
 10
2.419675
 20
6.163167
 30
0.000000
  0
SEQEND
  8
LAYER-1
  0
POLYLINE
  8
LAYER-1
 66
  1
 70
  1
 62
  7
  0
VERTEX
  8
LAYER-1
 10
2.011063
 20
6.779811
 30
0.000000
  0
VERTEX
  8
LAYER-1
 10
2.181202
 20
6.779811
 30
0.000000
  0
VERTEX
  8
LAYER-1
 10
2.181202
 20
6.163167
 30
0.000000
  0
VERTEX
  8
LAYER-1
 10
2.011063
 20
6.163167
 30
0.000000
  0
SEQEND
  8
LAYER-1
  0
POLYLINE
  8
LAYER-1
 66
  1
 70
  1
 62
  7
  0
VERTEX
  8
LAYER-1
 10
1.805021
 20
6.163165
 30
0.000000
  0
VERTEX
  8
LAYER-1
 10
1.975160
 20
6.163165
 30
0.000000
  0
VERTEX
  8
LAYER-1
 10
1.975160
 20
5.546522
 30
0.000000
  0
VERTEX
  8
LAYER-1
 10
1.805021
 20
5.546522
 30
0.000000
  0
SEQEND
  8
LAYER-1
  0
POLYLINE
  8
LAYER-1
 66
  1
 70
  1
 62
  7
  0
VERTEX
  8
LAYER-1
 10
2.214501
 20
6.163165
 30
0.000000
  0
VERTEX
  8
LAYER-1
 10
2.384640
 20
6.163165
 30
0.000000
  0
VERTEX
  8
LAYER-1
 10
2.384640
 20
5.546522
 30
0.000000
  0
VERTEX
  8
LAYER-1
 10
2.214501
 20
5.546522
 30
0.000000
  0
SEQEND
  8
LAYER-1
  0
POLYLINE
  8
LAYER-1
 66
  1
 70
  1
 62
  7
  0
VERTEX
  8
LAYER-1
 10
2.623980
 20
6.163165
 30
0.000000
  0
VERTEX
  8
LAYER-1
 10
2.794119
 20
6.163165
 30
0.000000
  0
VERTEX
  8
LAYER-1
 10
2.794119
 20
5.546522
 30
0.000000
  0
VERTEX
  8
LAYER-1
 10
2.623980
 20
5.546522
 30
0.000000
  0
SEQEND
  8
LAYER-1
  0
POLYLINE
  8
LAYER-1
 66
  1
 70
  1
 62
  7
  0
VERTEX
  8
LAYER-1
 10
3.029987
 20
6.163165
 30
0.000000
  0
VERTEX
  8
LAYER-1
 10
3.200126
 20
6.163165
 30
0.000000
  0
VERTEX
  8
LAYER-1
 10
3.200126
 20
5.546522
 30
0.000000
  0
VERTEX
  8
LAYER-1
 10
3.029987
 20
5.546522
 30
0.000000
  0
SEQEND
  8
LAYER-1
  0
POLYLINE
  8
LAYER-1
 66
  1
 70
  1
 62
  7
  0
VERTEX
  8
LAYER-1
 10
3.437731
 20
6.163165
 30
0.000000
  0
VERTEX
  8
LAYER-1
 10
3.607869
 20
6.163165
 30
0.000000
  0
VERTEX
  8
LAYER-1
 10
3.607869
 20
5.546522
 30
0.000000
  0
VERTEX
  8
LAYER-1
 10
3.437731
 20
5.546522
 30
0.000000
  0
SEQEND
  8
LAYER-1
  0
POLYLINE
  8
LAYER-1
 66
  1
 70
  1
 62
  7
  0
VERTEX
  8
LAYER-1
 10
3.233425
 20
5.546789
 30
0.000000
  0
VERTEX
  8
LAYER-1
 10
3.403564
 20
5.546789
 30
0.000000
  0
VERTEX
  8
LAYER-1
 10
3.403564
 20
4.930146
 30
0.000000
  0
VERTEX
  8
LAYER-1
 10
3.233425
 20
4.930146
 30
0.000000
  0
SEQEND
  8
LAYER-1
  0
POLYLINE
  8
LAYER-1
 66
  1
 70
  1
 62
  7
  0
VERTEX
  8
LAYER-1
 10
2.827418
 20
5.546789
 30
0.000000
  0
VERTEX
  8
LAYER-1
 10
2.997557
 20
5.546789
 30
0.000000
  0
VERTEX
  8
LAYER-1
 10
2.997557
 20
4.930146
 30
0.000000
  0
VERTEX
  8
LAYER-1
 10
2.827418
 20
4.930146
 30
0.000000
  0
SEQEND
  8
LAYER-1
  0
POLYLINE
  8
LAYER-1
 66
  1
 70
  1
 62
  7
  0
VERTEX
  8
LAYER-1
 10
2.419675
 20
5.546789
 30
0.000000
  0
VERTEX
  8
LAYER-1
 10
2.589813
 20
5.546789
 30
0.000000
  0
VERTEX
  8
LAYER-1
 10
2.589813
 20
4.930146
 30
0.000000
  0
VERTEX
  8
LAYER-1
 10
2.419675
 20
4.930146
 30
0.000000
  0
SEQEND
  8
LAYER-1
  0
POLYLINE
  8
LAYER-1
 66
  1
 70
  1
 62
  7
  0
VERTEX
  8
LAYER-1
 10
2.011063
 20
5.546789
 30
0.000000
  0
VERTEX
  8
LAYER-1
 10
2.181202
 20
5.546789
 30
0.000000
  0
VERTEX
  8
LAYER-1
 10
2.181202
 20
4.930146
 30
0.000000
  0
VERTEX
  8
LAYER-1
 10
2.011063
 20
4.930146
 30
0.000000
  0
SEQEND
  8
LAYER-1
  0
POLYLINE
  8
LAYER-1
 66
  1
 70
  1
 62
  7
  0
VERTEX
  8
LAYER-1
 10
1.805021
 20
4.930144
 30
0.000000
  0
VERTEX
  8
LAYER-1
 10
1.975160
 20
4.930144
 30
0.000000
  0
VERTEX
  8
LAYER-1
 10
1.975160
 20
4.313501
 30
0.000000
  0
VERTEX
  8
LAYER-1
 10
1.805021
 20
4.313501
 30
0.000000
  0
SEQEND
  8
LAYER-1
  0
POLYLINE
  8
LAYER-1
 66
  1
 70
  1
 62
  7
  0
VERTEX
  8
LAYER-1
 10
2.214501
 20
4.930144
 30
0.000000
  0
VERTEX
  8
LAYER-1
 10
2.384640
 20
4.930144
 30
0.000000
  0
VERTEX
  8
LAYER-1
 10
2.384640
 20
4.313501
 30
0.000000
  0
VERTEX
  8
LAYER-1
 10
2.214501
 20
4.313501
 30
0.000000
  0
SEQEND
  8
LAYER-1
  0
POLYLINE
  8
LAYER-1
 66
  1
 70
  1
 62
  7
  0
VERTEX
  8
LAYER-1
 10
2.623980
 20
4.930144
 30
0.000000
  0
VERTEX
  8
LAYER-1
 10
2.794119
 20
4.930144
 30
0.000000
  0
VERTEX
  8
LAYER-1
 10
2.794119
 20
4.313501
 30
0.000000
  0
VERTEX
  8
LAYER-1
 10
2.623980
 20
4.313501
 30
0.000000
  0
SEQEND
  8
LAYER-1
  0
POLYLINE
  8
LAYER-1
 66
  1
 70
  1
 62
  7
  0
VERTEX
  8
LAYER-1
 10
3.029987
 20
4.930144
 30
0.000000
  0
VERTEX
  8
LAYER-1
 10
3.200126
 20
4.930144
 30
0.000000
  0
VERTEX
  8
LAYER-1
 10
3.200126
 20
4.313501
 30
0.000000
  0
VERTEX
  8
LAYER-1
 10
3.029987
 20
4.313501
 30
0.000000
  0
SEQEND
  8
LAYER-1
  0
POLYLINE
  8
LAYER-1
 66
  1
 70
  1
 62
  7
  0
VERTEX
  8
LAYER-1
 10
3.437731
 20
4.930144
 30
0.000000
  0
VERTEX
  8
LAYER-1
 10
3.607869
 20
4.930144
 30
0.000000
  0
VERTEX
  8
LAYER-1
 10
3.607869
 20
4.313501
 30
0.000000
  0
VERTEX
  8
LAYER-1
 10
3.437731
 20
4.313501
 30
0.000000
  0
SEQEND
  8
LAYER-1
  0
POLYLINE
  8
LAYER-1
 66
  1
 70
  1
 62
  7
  0
VERTEX
  8
LAYER-1
 10
3.233425
 20
4.313769
 30
0.000000
  0
VERTEX
  8
LAYER-1
 10
3.403564
 20
4.313769
 30
0.000000
  0
VERTEX
  8
LAYER-1
 10
3.403564
 20
3.697126
 30
0.000000
  0
VERTEX
  8
LAYER-1
 10
3.233425
 20
3.697126
 30
0.000000
  0
SEQEND
  8
LAYER-1
  0
POLYLINE
  8
LAYER-1
 66
  1
 70
  1
 62
  7
  0
VERTEX
  8
LAYER-1
 10
2.827418
 20
4.313769
 30
0.000000
  0
VERTEX
  8
LAYER-1
 10
2.997557
 20
4.313769
 30
0.000000
  0
VERTEX
  8
LAYER-1
 10
2.997557
 20
3.697126
 30
0.000000
  0
VERTEX
  8
LAYER-1
 10
2.827418
 20
3.697126
 30
0.000000
  0
SEQEND
  8
LAYER-1
  0
POLYLINE
  8
LAYER-1
 66
  1
 70
  1
 62
  7
  0
VERTEX
  8
LAYER-1
 10
2.419675
 20
4.313769
 30
0.000000
  0
VERTEX
  8
LAYER-1
 10
2.589813
 20
4.313769
 30
0.000000
  0
VERTEX
  8
LAYER-1
 10
2.589813
 20
3.697126
 30
0.000000
  0
VERTEX
  8
LAYER-1
 10
2.419675
 20
3.697126
 30
0.000000
  0
SEQEND
  8
LAYER-1
  0
POLYLINE
  8
LAYER-1
 66
  1
 70
  1
 62
  7
  0
VERTEX
  8
LAYER-1
 10
2.011063
 20
4.313769
 30
0.000000
  0
VERTEX
  8
LAYER-1
 10
2.181202
 20
4.313769
 30
0.000000
  0
VERTEX
  8
LAYER-1
 10
2.181202
 20
3.697126
 30
0.000000
  0
VERTEX
  8
LAYER-1
 10
2.011063
 20
3.697126
 30
0.000000
  0
SEQEND
  8
LAYER-1
  0
POLYLINE
  8
LAYER-1
 66
  1
 70
  1
 62
  7
  0
VERTEX
  8
LAYER-1
 10
1.805021
 20
3.697124
 30
0.000000
  0
VERTEX
  8
LAYER-1
 10
1.975160
 20
3.697124
 30
0.000000
  0
VERTEX
  8
LAYER-1
 10
1.975160
 20
3.080481
 30
0.000000
  0
VERTEX
  8
LAYER-1
 10
1.805021
 20
3.080481
 30
0.000000
  0
SEQEND
  8
LAYER-1
  0
POLYLINE
  8
LAYER-1
 66
  1
 70
  1
 62
  7
  0
VERTEX
  8
LAYER-1
 10
2.214501
 20
3.697124
 30
0.000000
  0
VERTEX
  8
LAYER-1
 10
2.384640
 20
3.697124
 30
0.000000
  0
VERTEX
  8
LAYER-1
 10
2.384640
 20
3.080481
 30
0.000000
  0
VERTEX
  8
LAYER-1
 10
2.214501
 20
3.080481
 30
0.000000
  0
SEQEND
  8
LAYER-1
  0
POLYLINE
  8
LAYER-1
 66
  1
 70
  1
 62
  7
  0
VERTEX
  8
LAYER-1
 10
2.623980
 20
3.697124
 30
0.000000
  0
VERTEX
  8
LAYER-1
 10
2.794119
 20
3.697124
 30
0.000000
  0
VERTEX
  8
LAYER-1
 10
2.794119
 20
3.080481
 30
0.000000
  0
VERTEX
  8
LAYER-1
 10
2.623980
 20
3.080481
 30
0.000000
  0
SEQEND
  8
LAYER-1
  0
POLYLINE
  8
LAYER-1
 66
  1
 70
  1
 62
  7
  0
VERTEX
  8
LAYER-1
 10
3.029987
 20
3.697124
 30
0.000000
  0
VERTEX
  8
LAYER-1
 10
3.200126
 20
3.697124
 30
0.000000
  0
VERTEX
  8
LAYER-1
 10
3.200126
 20
3.080481
 30
0.000000
  0
VERTEX
  8
LAYER-1
 10
3.029987
 20
3.080481
 30
0.000000
  0
SEQEND
  8
LAYER-1
  0
POLYLINE
  8
LAYER-1
 66
  1
 70
  1
 62
  7
  0
VERTEX
  8
LAYER-1
 10
3.437731
 20
3.697124
 30
0.000000
  0
VERTEX
  8
LAYER-1
 10
3.607869
 20
3.697124
 30
0.000000
  0
VERTEX
  8
LAYER-1
 10
3.607869
 20
3.080481
 30
0.000000
  0
VERTEX
  8
LAYER-1
 10
3.437731
 20
3.080481
 30
0.000000
  0
SEQEND
  8
LAYER-1
  0
POLYLINE
  8
LAYER-1
 66
  1
 70
  1
 62
  7
  0
VERTEX
  8
LAYER-1
 10
2.011063
 20
3.080747
 30
0.000000
  0
VERTEX
  8
LAYER-1
 10
2.181202
 20
3.080747
 30
0.000000
  0
VERTEX
  8
LAYER-1
 10
2.181202
 20
2.464104
 30
0.000000
  0
VERTEX
  8
LAYER-1
 10
2.011063
 20
2.464104
 30
0.000000
  0
SEQEND
  8
LAYER-1
  0
POLYLINE
  8
LAYER-1
 66
  1
 70
  1
 62
  7
  0
VERTEX
  8
LAYER-1
 10
2.419675
 20
3.080747
 30
0.000000
  0
VERTEX
  8
LAYER-1
 10
2.589813
 20
3.080747
 30
0.000000
  0
VERTEX
  8
LAYER-1
 10
2.589813
 20
2.464104
 30
0.000000
  0
VERTEX
  8
LAYER-1
 10
2.419675
 20
2.464104
 30
0.000000
  0
SEQEND
  8
LAYER-1
  0
POLYLINE
  8
LAYER-1
 66
  1
 70
  1
 62
  7
  0
VERTEX
  8
LAYER-1
 10
2.827418
 20
3.080747
 30
0.000000
  0
VERTEX
  8
LAYER-1
 10
2.997557
 20
3.080747
 30
0.000000
  0
VERTEX
  8
LAYER-1
 10
2.997557
 20
2.464104
 30
0.000000
  0
VERTEX
  8
LAYER-1
 10
2.827418
 20
2.464104
 30
0.000000
  0
SEQEND
  8
LAYER-1
  0
POLYLINE
  8
LAYER-1
 66
  1
 70
  1
 62
  7
  0
VERTEX
  8
LAYER-1
 10
3.233425
 20
3.080747
 30
0.000000
  0
VERTEX
  8
LAYER-1
 10
3.403564
 20
3.080747
 30
0.000000
  0
VERTEX
  8
LAYER-1
 10
3.403564
 20
2.464104
 30
0.000000
  0
VERTEX
  8
LAYER-1
 10
3.233425
 20
2.464104
 30
0.000000
  0
SEQEND
  8
LAYER-1
  0
POLYLINE
  8
LAYER-1
 66
  1
 70
  1
 62
  7
  0
VERTEX
  8
LAYER-1
 10
3.437731
 20
2.464102
 30
0.000000
  0
VERTEX
  8
LAYER-1
 10
3.607869
 20
2.464102
 30
0.000000
  0
VERTEX
  8
LAYER-1
 10
3.607869
 20
1.847458
 30
0.000000
  0
VERTEX
  8
LAYER-1
 10
3.437731
 20
1.847458
 30
0.000000
  0
SEQEND
  8
LAYER-1
  0
POLYLINE
  8
LAYER-1
 66
  1
 70
  1
 62
  7
  0
VERTEX
  8
LAYER-1
 10
3.029987
 20
2.464102
 30
0.000000
  0
VERTEX
  8
LAYER-1
 10
3.200126
 20
2.464102
 30
0.000000
  0
VERTEX
  8
LAYER-1
 10
3.200126
 20
1.847458
 30
0.000000
  0
VERTEX
  8
LAYER-1
 10
3.029987
 20
1.847458
 30
0.000000
  0
SEQEND
  8
LAYER-1
  0
POLYLINE
  8
LAYER-1
 66
  1
 70
  1
 62
  7
  0
VERTEX
  8
LAYER-1
 10
2.623980
 20
2.464102
 30
0.000000
  0
VERTEX
  8
LAYER-1
 10
2.794119
 20
2.464102
 30
0.000000
  0
VERTEX
  8
LAYER-1
 10
2.794119
 20
1.847458
 30
0.000000
  0
VERTEX
  8
LAYER-1
 10
2.623980
 20
1.847458
 30
0.000000
  0
SEQEND
  8
LAYER-1
  0
POLYLINE
  8
LAYER-1
 66
  1
 70
  1
 62
  7
  0
VERTEX
  8
LAYER-1
 10
2.214501
 20
2.464102
 30
0.000000
  0
VERTEX
  8
LAYER-1
 10
2.384640
 20
2.464102
 30
0.000000
  0
VERTEX
  8
LAYER-1
 10
2.384640
 20
1.847458
 30
0.000000
  0
VERTEX
  8
LAYER-1
 10
2.214501
 20
1.847458
 30
0.000000
  0
SEQEND
  8
LAYER-1
  0
POLYLINE
  8
LAYER-1
 66
  1
 70
  1
 62
  7
  0
VERTEX
  8
LAYER-1
 10
1.805021
 20
2.464102
 30
0.000000
  0
VERTEX
  8
LAYER-1
 10
1.975160
 20
2.464102
 30
0.000000
  0
VERTEX
  8
LAYER-1
 10
1.975160
 20
1.847458
 30
0.000000
  0
VERTEX
  8
LAYER-1
 10
1.805021
 20
1.847458
 30
0.000000
  0
SEQEND
  8
LAYER-1
  0
POLYLINE
  8
LAYER-1
 66
  1
 70
  1
 62
  7
  0
VERTEX
  8
LAYER-1
 10
3.233425
 20
1.847727
 30
0.000000
  0
VERTEX
  8
LAYER-1
 10
3.403564
 20
1.847727
 30
0.000000
  0
VERTEX
  8
LAYER-1
 10
3.403564
 20
1.231084
 30
0.000000
  0
VERTEX
  8
LAYER-1
 10
3.233425
 20
1.231084
 30
0.000000
  0
SEQEND
  8
LAYER-1
  0
POLYLINE
  8
LAYER-1
 66
  1
 70
  1
 62
  7
  0
VERTEX
  8
LAYER-1
 10
2.827418
 20
1.847727
 30
0.000000
  0
VERTEX
  8
LAYER-1
 10
2.997557
 20
1.847727
 30
0.000000
  0
VERTEX
  8
LAYER-1
 10
2.997557
 20
1.231084
 30
0.000000
  0
VERTEX
  8
LAYER-1
 10
2.827418
 20
1.231084
 30
0.000000
  0
SEQEND
  8
LAYER-1
  0
POLYLINE
  8
LAYER-1
 66
  1
 70
  1
 62
  7
  0
VERTEX
  8
LAYER-1
 10
2.419675
 20
1.847727
 30
0.000000
  0
VERTEX
  8
LAYER-1
 10
2.589813
 20
1.847727
 30
0.000000
  0
VERTEX
  8
LAYER-1
 10
2.589813
 20
1.231084
 30
0.000000
  0
VERTEX
  8
LAYER-1
 10
2.419675
 20
1.231084
 30
0.000000
  0
SEQEND
  8
LAYER-1
  0
POLYLINE
  8
LAYER-1
 66
  1
 70
  1
 62
  7
  0
VERTEX
  8
LAYER-1
 10
2.011063
 20
1.847727
 30
0.000000
  0
VERTEX
  8
LAYER-1
 10
2.181202
 20
1.847727
 30
0.000000
  0
VERTEX
  8
LAYER-1
 10
2.181202
 20
1.231084
 30
0.000000
  0
VERTEX
  8
LAYER-1
 10
2.011063
 20
1.231084
 30
0.000000
  0
SEQEND
  8
LAYER-1
  0
POLYLINE
  8
LAYER-1
 66
  1
 70
  1
 62
  7
  0
VERTEX
  8
LAYER-1
 10
2.214501
 20
1.231082
 30
0.000000
  0
VERTEX
  8
LAYER-1
 10
2.384640
 20
1.231082
 30
0.000000
  0
VERTEX
  8
LAYER-1
 10
2.384640
 20
0.614439
 30
0.000000
  0
VERTEX
  8
LAYER-1
 10
2.214501
 20
0.614439
 30
0.000000
  0
SEQEND
  8
LAYER-1
  0
POLYLINE
  8
LAYER-1
 66
  1
 70
  1
 62
  7
  0
VERTEX
  8
LAYER-1
 10
2.623980
 20
1.231082
 30
0.000000
  0
VERTEX
  8
LAYER-1
 10
2.794119
 20
1.231082
 30
0.000000
  0
VERTEX
  8
LAYER-1
 10
2.794119
 20
0.614439
 30
0.000000
  0
VERTEX
  8
LAYER-1
 10
2.623980
 20
0.614439
 30
0.000000
  0
SEQEND
  8
LAYER-1
  0
POLYLINE
  8
LAYER-1
 66
  1
 70
  1
 62
  7
  0
VERTEX
  8
LAYER-1
 10
3.029987
 20
1.231082
 30
0.000000
  0
VERTEX
  8
LAYER-1
 10
3.200126
 20
1.231082
 30
0.000000
  0
VERTEX
  8
LAYER-1
 10
3.200126
 20
0.614439
 30
0.000000
  0
VERTEX
  8
LAYER-1
 10
3.029987
 20
0.614439
 30
0.000000
  0
SEQEND
  8
LAYER-1
  0
POLYLINE
  8
LAYER-1
 66
  1
 70
  1
 62
  7
  0
VERTEX
  8
LAYER-1
 10
3.437731
 20
1.231082
 30
0.000000
  0
VERTEX
  8
LAYER-1
 10
3.607869
 20
1.231082
 30
0.000000
  0
VERTEX
  8
LAYER-1
 10
3.607869
 20
0.614439
 30
0.000000
  0
VERTEX
  8
LAYER-1
 10
3.437731
 20
0.614439
 30
0.000000
  0
SEQEND
  8
LAYER-1
  0
POLYLINE
  8
LAYER-1
 66
  1
 70
  1
 62
  7
  0
VERTEX
  8
LAYER-1
 10
1.805021
 20
1.231082
 30
0.000000
  0
VERTEX
  8
LAYER-1
 10
1.975160
 20
1.231082
 30
0.000000
  0
VERTEX
  8
LAYER-1
 10
1.975160
 20
0.614439
 30
0.000000
  0
VERTEX
  8
LAYER-1
 10
1.805021
 20
0.614439
 30
0.000000
  0
SEQEND
  8
LAYER-1
  0
POLYLINE
  8
LAYER-1
 66
  1
 70
  1
 62
  0
  0
VERTEX
  8
LAYER-1
 10
4.021520
 20
7.196317
 30
0.000000
  0
VERTEX
  8
LAYER-1
 10
4.057471
 20
7.196317
 30
0.000000
  0
VERTEX
  8
LAYER-1
 10
4.057471
 20
0.614655
 30
0.000000
  0
VERTEX
  8
LAYER-1
 10
4.021520
 20
0.614655
 30
0.000000
  0
SEQEND
  8
LAYER-1
  0
POLYLINE
  8
LAYER-1
 66
  1
 70
  1
 62
  0
  0
VERTEX
  8
LAYER-1
 10
4.428916
 20
7.196317
 30
0.000000
  0
VERTEX
  8
LAYER-1
 10
4.464867
 20
7.196317
 30
0.000000
  0
VERTEX
  8
LAYER-1
 10
4.464867
 20
0.612803
 30
0.000000
  0
VERTEX
  8
LAYER-1
 10
4.428916
 20
0.612803
 30
0.000000
  0
SEQEND
  8
LAYER-1
  0
POLYLINE
  8
LAYER-1
 66
  1
 70
  1
 62
  0
  0
VERTEX
  8
LAYER-1
 10
4.835444
 20
7.196317
 30
0.000000
  0
VERTEX
  8
LAYER-1
 10
4.871395
 20
7.196317
 30
0.000000
  0
VERTEX
  8
LAYER-1
 10
4.871395
 20
0.614068
 30
0.000000
  0
VERTEX
  8
LAYER-1
 10
4.835444
 20
0.614068
 30
0.000000
  0
SEQEND
  8
LAYER-1
  0
POLYLINE
  8
LAYER-1
 66
  1
 70
  1
 62
  0
  0
VERTEX
  8
LAYER-1
 10
5.245444
 20
7.196317
 30
0.000000
  0
VERTEX
  8
LAYER-1
 10
5.281395
 20
7.196317
 30
0.000000
  0
VERTEX
  8
LAYER-1
 10
5.281395
 20
0.613480
 30
0.000000
  0
VERTEX
  8
LAYER-1
 10
5.245444
 20
0.613480
 30
0.000000
  0
SEQEND
  8
LAYER-1
  0
POLYLINE
  8
LAYER-1
 66
  1
 70
  1
 62
  0
  0
VERTEX
  8
LAYER-1
 10
5.655879
 20
7.196317
 30
0.000000
  0
VERTEX
  8
LAYER-1
 10
5.691829
 20
7.196317
 30
0.000000
  0
VERTEX
  8
LAYER-1
 10
5.691829
 20
0.613201
 30
0.000000
  0
VERTEX
  8
LAYER-1
 10
5.655879
 20
0.613201
 30
0.000000
  0
SEQEND
  8
LAYER-1
  0
POLYLINE
  8
LAYER-1
 66
  1
 70
  1
 62
  0
  0
VERTEX
  8
LAYER-1
 10
3.402284
 20
7.196521
 30
0.000000
  0
VERTEX
  8
LAYER-1
 10
3.438235
 20
7.196521
 30
0.000000
  0
VERTEX
  8
LAYER-1
 10
3.438235
 20
0.614505
 30
0.000000
  0
VERTEX
  8
LAYER-1
 10
3.402284
 20
0.614505
 30
0.000000
  0
SEQEND
  8
LAYER-1
  0
POLYLINE
  8
LAYER-1
 66
  1
 70
  1
 62
  0
  0
VERTEX
  8
LAYER-1
 10
2.995756
 20
7.196521
 30
0.000000
  0
VERTEX
  8
LAYER-1
 10
3.031707
 20
7.196521
 30
0.000000
  0
VERTEX
  8
LAYER-1
 10
3.031707
 20
0.614950
 30
0.000000
  0
VERTEX
  8
LAYER-1
 10
2.995756
 20
0.614950
 30
0.000000
  0
SEQEND
  8
LAYER-1
  0
POLYLINE
  8
LAYER-1
 66
  1
 70
  1
 62
  0
  0
VERTEX
  8
LAYER-1
 10
2.588360
 20
7.196521
 30
0.000000
  0
VERTEX
  8
LAYER-1
 10
2.624311
 20
7.196521
 30
0.000000
  0
VERTEX
  8
LAYER-1
 10
2.624311
 20
0.613612
 30
0.000000
  0
VERTEX
  8
LAYER-1
 10
2.588360
 20
0.613612
 30
0.000000
  0
SEQEND
  8
LAYER-1
  0
POLYLINE
  8
LAYER-1
 66
  1
 70
  1
 62
  0
  0
VERTEX
  8
LAYER-1
 10
2.179228
 20
7.196521
 30
0.000000
  0
VERTEX
  8
LAYER-1
 10
2.215178
 20
7.196521
 30
0.000000
  0
VERTEX
  8
LAYER-1
 10
2.215178
 20
0.615422
 30
0.000000
  0
VERTEX
  8
LAYER-1
 10
2.179228
 20
0.615422
 30
0.000000
  0
SEQEND
  8
LAYER-1
  0
POLYLINE
  8
LAYER-1
 66
  1
 70
  1
 62
  0
  0
VERTEX
  8
LAYER-1
 10
1.768794
 20
7.196521
 30
0.000000
  0
VERTEX
  8
LAYER-1
 10
1.804744
 20
7.196521
 30
0.000000
  0
VERTEX
  8
LAYER-1
 10
1.804744
 20
0.614480
 30
0.000000
  0
VERTEX
  8
LAYER-1
 10
1.768794
 20
0.614480
 30
0.000000
  0
SEQEND
  8
LAYER-1
  0
POLYLINE
  8
LAYER-1
 66
  1
 70
  1
 62
  0
  0
VERTEX
  8
LAYER-1
 10
3.607422
 20
7.196510
 30
0.000000
  0
VERTEX
  8
LAYER-1
 10
3.643373
 20
7.196510
 30
0.000000
  0
VERTEX
  8
LAYER-1
 10
3.643373
 20
0.612828
 30
0.000000
  0
VERTEX
  8
LAYER-1
 10
3.607422
 20
0.612828
 30
0.000000
  0
SEQEND
  8
LAYER-1
  0
POLYLINE
  8
LAYER-1
 66
  1
 70
  1
 62
  0
  0
VERTEX
  8
LAYER-1
 10
3.199158
 20
7.196510
 30
0.000000
  0
VERTEX
  8
LAYER-1
 10
3.235109
 20
7.196510
 30
0.000000
  0
VERTEX
  8
LAYER-1
 10
3.235109
 20
0.612828
 30
0.000000
  0
VERTEX
  8
LAYER-1
 10
3.199158
 20
0.612828
 30
0.000000
  0
SEQEND
  8
LAYER-1
  0
POLYLINE
  8
LAYER-1
 66
  1
 70
  1
 62
  0
  0
VERTEX
  8
LAYER-1
 10
2.792630
 20
7.196510
 30
0.000000
  0
VERTEX
  8
LAYER-1
 10
2.828581
 20
7.196510
 30
0.000000
  0
VERTEX
  8
LAYER-1
 10
2.828581
 20
0.612828
 30
0.000000
  0
VERTEX
  8
LAYER-1
 10
2.792630
 20
0.612828
 30
0.000000
  0
SEQEND
  8
LAYER-1
  0
POLYLINE
  8
LAYER-1
 66
  1
 70
  1
 62
  0
  0
VERTEX
  8
LAYER-1
 10
2.384366
 20
7.196510
 30
0.000000
  0
VERTEX
  8
LAYER-1
 10
2.420316
 20
7.196510
 30
0.000000
  0
VERTEX
  8
LAYER-1
 10
2.420316
 20
0.612828
 30
0.000000
  0
VERTEX
  8
LAYER-1
 10
2.384366
 20
0.612828
 30
0.000000
  0
SEQEND
  8
LAYER-1
  0
POLYLINE
  8
LAYER-1
 66
  1
 70
  1
 62
  0
  0
VERTEX
  8
LAYER-1
 10
1.974799
 20
7.196510
 30
0.000000
  0
VERTEX
  8
LAYER-1
 10
2.010750
 20
7.196510
 30
0.000000
  0
VERTEX
  8
LAYER-1
 10
2.010750
 20
0.612828
 30
0.000000
  0
VERTEX
  8
LAYER-1
 10
1.974799
 20
0.612828
 30
0.000000
  0
SEQEND
  8
LAYER-1
  0
POLYLINE
  8
LAYER-1
 66
  1
 70
  1
 62
  0
 10
3.645939
 20
0.342022
 30
0.000000
  0
VERTEX
  8
LAYER-1
 10
3.645939
 20
0.342022
 30
0.000000
  0
VERTEX
  8
LAYER-1
 10
1.750021
 20
0.342123
 30
0.000000
  0
VERTEX
  8
LAYER-1
 10
1.750021
 20
0.613657
 30
0.000000
  0
VERTEX
  8
LAYER-1
 10
3.645939
 20
0.613773
 30
0.000000
  0
SEQEND
  8
LAYER-1
  0
POLYLINE
  8
LAYER-1
 66
  1
 70
  0
 62
  0
 10
3.646158
 20
0.409930
 30
0.000000
  0
VERTEX
  8
LAYER-1
 10
3.646158
 20
0.409930
 30
0.000000
  0
VERTEX
  8
LAYER-1
 10
3.606432
 20
0.409930
 30
0.000000
  0
SEQEND
  8
LAYER-1
  0
POLYLINE
  8
LAYER-1
 66
  1
 70
  0
 62
  0
 10
3.646158
 20
0.539840
 30
0.000000
  0
VERTEX
  8
LAYER-1
 10
3.646158
 20
0.539840
 30
0.000000
  0
VERTEX
  8
LAYER-1
 10
3.606432
 20
0.539840
 30
0.000000
  0
SEQEND
  8
LAYER-1
  0
POLYLINE
  8
LAYER-1
 66
  1
 70
  0
 62
  0
 10
3.607802
 20
0.336878
 30
0.000000
  0
VERTEX
  8
LAYER-1
 10
3.607802
 20
0.336878
 30
0.000000
  0
VERTEX
  8
LAYER-1
 10
3.620974
 20
0.329831
 30
0.000000
  0
VERTEX
  8
LAYER-1
 10
3.638054
 20
0.334162
 30
0.000000
  0
VERTEX
  8
LAYER-1
 10
3.644706
 20
0.336877
 30
0.000000
  0
SEQEND
  8
LAYER-1
  0
POLYLINE
  8
LAYER-1
 66
  1
 70
  1
 62
  0
  0
VERTEX
  8
LAYER-1
 10
3.651909
 20
0.336255
 30
0.000000
  0
VERTEX
  8
LAYER-1
 10
3.597294
 20
0.336255
 30
0.000000
  0
VERTEX
  8
LAYER-1
 10
3.597294
 20
0.342160
 30
0.000000
  0
VERTEX
  8
LAYER-1
 10
3.651909
 20
0.342160
 30
0.000000
  0
SEQEND
  8
LAYER-1
  0
POLYLINE
  8
LAYER-1
 66
  1
 70
  1
 62
  0
 10
3.645733
 20
7.468142
 30
0.000000
  0
VERTEX
  8
LAYER-1
 10
3.645733
 20
7.468142
 30
0.000000
  0
VERTEX
  8
LAYER-1
 10
1.749381
 20
7.468041
 30
0.000000
  0
VERTEX
  8
LAYER-1
 10
1.749381
 20
7.196508
 30
0.000000
  0
VERTEX
  8
LAYER-1
 10
3.645733
 20
7.196392
 30
0.000000
  0
SEQEND
  8
LAYER-1
  0
POLYLINE
  8
LAYER-1
 66
  1
 70
  0
 62
  0
 10
3.384444
 20
7.468141
 30
0.000000
  0
VERTEX
  8
LAYER-1
 10
3.384444
 20
7.468141
 30
0.000000
  0
VERTEX
  8
LAYER-1
 10
3.384444
 20
7.196509
 30
0.000000
  0
SEQEND
  8
LAYER-1
  0
POLYLINE
  8
LAYER-1
 66
  1
 70
  0
 62
  0
 10
3.053947
 20
7.196509
 30
0.000000
  0
VERTEX
  8
LAYER-1
 10
3.053947
 20
7.196509
 30
0.000000
  0
VERTEX
  8
LAYER-1
 10
3.053947
 20
7.468141
 30
0.000000
  0
SEQEND
  8
LAYER-1
  0
POLYLINE
  8
LAYER-1
 66
  1
 70
  0
 62
  0
 10
2.241115
 20
7.196510
 30
0.000000
  0
VERTEX
  8
LAYER-1
 10
2.241115
 20
7.196510
 30
0.000000
  0
VERTEX
  8
LAYER-1
 10
2.241115
 20
7.468141
 30
0.000000
  0
SEQEND
  8
LAYER-1
  0
POLYLINE
  8
LAYER-1
 66
  1
 70
  0
 62
  0
 10
2.422283
 20
7.468181
 30
0.000000
  0
VERTEX
  8
LAYER-1
 10
2.422283
 20
7.468181
 30
0.000000
  0
VERTEX
  8
LAYER-1
 10
2.422283
 20
7.196553
 30
0.000000
  0
SEQEND
  8
LAYER-1
  0
POLYLINE
  8
LAYER-1
 66
  1
 70
  0
 62
  0
 10
2.382424
 20
7.468181
 30
0.000000
  0
VERTEX
  8
LAYER-1
 10
2.382424
 20
7.468181
 30
0.000000
  0
VERTEX
  8
LAYER-1
 10
2.382424
 20
7.196553
 30
0.000000
  0
SEQEND
  8
LAYER-1
  0
POLYLINE
  8
LAYER-1
 66
  1
 70
  0
 62
  0
 10
3.236301
 20
7.468181
 30
0.000000
  0
VERTEX
  8
LAYER-1
 10
3.236301
 20
7.468181
 30
0.000000
  0
VERTEX
  8
LAYER-1
 10
3.236301
 20
7.196553
 30
0.000000
  0
SEQEND
  8
LAYER-1
  0
POLYLINE
  8
LAYER-1
 66
  1
 70
  0
 62
  0
 10
3.197484
 20
7.468181
 30
0.000000
  0
VERTEX
  8
LAYER-1
 10
3.197484
 20
7.468181
 30
0.000000
  0
VERTEX
  8
LAYER-1
 10
3.197484
 20
7.196553
 30
0.000000
  0
SEQEND
  8
LAYER-1
  0
POLYLINE
  8
LAYER-1
 66
  1
 70
  0
 62
  0
 10
2.969624
 20
7.468141
 30
0.000000
  0
VERTEX
  8
LAYER-1
 10
2.969624
 20
7.468141
 30
0.000000
  0
VERTEX
  8
LAYER-1
 10
2.969624
 20
7.196510
 30
0.000000
  0
SEQEND
  8
LAYER-1
  0
POLYLINE
  8
LAYER-1
 66
  1
 70
  0
 62
  0
 10
2.156794
 20
7.468141
 30
0.000000
  0
VERTEX
  8
LAYER-1
 10
2.156794
 20
7.468141
 30
0.000000
  0
VERTEX
  8
LAYER-1
 10
2.156794
 20
7.196510
 30
0.000000
  0
SEQEND
  8
LAYER-1
  0
POLYLINE
  8
LAYER-1
 66
  1
 70
  0
 62
  0
 10
2.011889
 20
7.467747
 30
0.000000
  0
VERTEX
  8
LAYER-1
 10
2.011889
 20
7.467747
 30
0.000000
  0
VERTEX
  8
LAYER-1
 10
2.011889
 20
7.196119
 30
0.000000
  0
SEQEND
  8
LAYER-1
  0
POLYLINE
  8
LAYER-1
 66
  1
 70
  0
 62
  0
 10
1.973506
 20
7.467747
 30
0.000000
  0
VERTEX
  8
LAYER-1
 10
1.973506
 20
7.467747
 30
0.000000
  0
VERTEX
  8
LAYER-1
 10
1.973506
 20
7.196119
 30
0.000000
  0
SEQEND
  8
LAYER-1
  0
POLYLINE
  8
LAYER-1
 66
  1
 70
  0
 62
  0
 10
2.829727
 20
7.468217
 30
0.000000
  0
VERTEX
  8
LAYER-1
 10
2.829727
 20
7.468217
 30
0.000000
  0
VERTEX
  8
LAYER-1
 10
2.829727
 20
7.196588
 30
0.000000
  0
SEQEND
  8
LAYER-1
  0
POLYLINE
  8
LAYER-1
 66
  1
 70
  0
 62
  0
 10
2.791344
 20
7.468217
 30
0.000000
  0
VERTEX
  8
LAYER-1
 10
2.791344
 20
7.468217
 30
0.000000
  0
VERTEX
  8
LAYER-1
 10
2.791344
 20
7.196588
 30
0.000000
  0
SEQEND
  8
LAYER-1
  0
POLYLINE
  8
LAYER-1
 66
  1
 70
  0
 62
  0
 10
3.456778
 20
7.196514
 30
0.000000
  0
VERTEX
  8
LAYER-1
 10
3.456778
 20
7.196514
 30
0.000000
  0
VERTEX
  8
LAYER-1
 10
3.456778
 20
7.468142
 30
0.000000
  0
SEQEND
  8
LAYER-1
  0
POLYLINE
  8
LAYER-1
 66
  1
 70
  0
 62
  0
 10
3.421348
 20
7.468142
 30
0.000000
  0
VERTEX
  8
LAYER-1
 10
3.421348
 20
7.468142
 30
0.000000
  0
VERTEX
  8
LAYER-1
 10
3.421348
 20
7.196512
 30
0.000000
  0
SEQEND
  8
LAYER-1
  0
POLYLINE
  8
LAYER-1
 66
  1
 70
  0
 62
  0
 10
3.455874
 20
7.468143
 30
0.000000
  0
VERTEX
  8
LAYER-1
 10
3.455874
 20
7.468143
 30
0.000000
  0
VERTEX
  8
LAYER-1
 10
3.441998
 20
7.479080
 30
0.000000
  0
VERTEX
  8
LAYER-1
 10
3.427234
 20
7.477002
 30
0.000000
  0
VERTEX
  8
LAYER-1
 10
3.422319
 20
7.468154
 30
0.000000
  0
SEQEND
  8
LAYER-1
  0
POLYLINE
  8
LAYER-1
 66
  1
 70
  0
 62
  0
 10
3.421348
 20
7.468143
 30
0.000000
  0
VERTEX
  8
LAYER-1
 10
3.421348
 20
7.468143
 30
0.000000
  0
VERTEX
  8
LAYER-1
 10
3.404240
 20
7.479126
 30
0.000000
  0
VERTEX
  8
LAYER-1
 10
3.387160
 20
7.474794
 30
0.000000
  0
VERTEX
  8
LAYER-1
 10
3.384445
 20
7.468141
 30
0.000000
  0
SEQEND
  8
LAYER-1
  0
POLYLINE
  8
LAYER-1
 66
  1
 70
  0
 62
  0
 10
3.005793
 20
7.467649
 30
0.000000
  0
VERTEX
  8
LAYER-1
 10
3.005793
 20
7.467649
 30
0.000000
  0
VERTEX
  8
LAYER-1
 10
2.986288
 20
7.477641
 30
0.000000
  0
VERTEX
  8
LAYER-1
 10
2.968215
 20
7.470915
 30
0.000000
  0
VERTEX
  8
LAYER-1
 10
2.968885
 20
7.467648
 30
0.000000
  0
SEQEND
  8
LAYER-1
  0
POLYLINE
  8
LAYER-1
 66
  1
 70
  0
 62
  0
 10
2.192834
 20
7.468118
 30
0.000000
  0
VERTEX
  8
LAYER-1
 10
2.192834
 20
7.468118
 30
0.000000
  0
VERTEX
  8
LAYER-1
 10
2.173330
 20
7.478110
 30
0.000000
  0
VERTEX
  8
LAYER-1
 10
2.155256
 20
7.471385
 30
0.000000
  0
VERTEX
  8
LAYER-1
 10
2.155927
 20
7.468118
 30
0.000000
  0
SEQEND
  8
LAYER-1
  0
POLYLINE
  8
LAYER-1
 66
  1
 70
  0
 62
  0
 10
3.053502
 20
7.467650
 30
0.000000
  0
VERTEX
  8
LAYER-1
 10
3.053502
 20
7.467650
 30
0.000000
  0
VERTEX
  8
LAYER-1
 10
3.033998
 20
7.477642
 30
0.000000
  0
VERTEX
  8
LAYER-1
 10
3.015924
 20
7.470915
 30
0.000000
  0
VERTEX
  8
LAYER-1
 10
3.016594
 20
7.467649
 30
0.000000
  0
SEQEND
  8
LAYER-1
  0
POLYLINE
  8
LAYER-1
 66
  1
 70
  0
 62
  0
 10
3.031559
 20
7.468208
 30
0.000000
  0
VERTEX
  8
LAYER-1
 10
3.031559
 20
7.468208
 30
0.000000
  0
VERTEX
  8
LAYER-1
 10
3.020808
 20
7.481213
 30
0.000000
  0
VERTEX
  8
LAYER-1
 10
3.006792
 20
7.482807
 30
0.000000
  0
VERTEX
  8
LAYER-1
 10
2.995756
 20
7.474024
 30
0.000000
  0
VERTEX
  8
LAYER-1
 10
2.996131
 20
7.468208
 30
0.000000
  0
SEQEND
  8
LAYER-1
  0
POLYLINE
  8
LAYER-1
 66
  1
 70
  0
 62
  0
 10
3.031559
 20
7.468208
 30
0.000000
  0
VERTEX
  8
LAYER-1
 10
3.031559
 20
7.468208
 30
0.000000
  0
VERTEX
  8
LAYER-1
 10
2.996130
 20
7.468208
 30
0.000000
  0
SEQEND
  8
LAYER-1
  0
POLYLINE
  8
LAYER-1
 66
  1
 70
  0
 62
  0
 10
2.241485
 20
7.468119
 30
0.000000
  0
VERTEX
  8
LAYER-1
 10
2.241485
 20
7.468119
 30
0.000000
  0
VERTEX
  8
LAYER-1
 10
2.221980
 20
7.478111
 30
0.000000
  0
VERTEX
  8
LAYER-1
 10
2.203907
 20
7.471386
 30
0.000000
  0
VERTEX
  8
LAYER-1
 10
2.204577
 20
7.468118
 30
0.000000
  0
SEQEND
  8
LAYER-1
  0
POLYLINE
  8
LAYER-1
 66
  1
 70
  0
 62
  0
 10
2.215312
 20
7.468208
 30
0.000000
  0
VERTEX
  8
LAYER-1
 10
2.215312
 20
7.468208
 30
0.000000
  0
VERTEX
  8
LAYER-1
 10
2.204560
 20
7.481213
 30
0.000000
  0
VERTEX
  8
LAYER-1
 10
2.190545
 20
7.482807
 30
0.000000
  0
VERTEX
  8
LAYER-1
 10
2.179508
 20
7.474024
 30
0.000000
  0
VERTEX
  8
LAYER-1
 10
2.179884
 20
7.468208
 30
0.000000
  0
SEQEND
  8
LAYER-1
  0
POLYLINE
  8
LAYER-1
 66
  1
 70
  0
 62
  0
 10
2.215312
 20
7.468208
 30
0.000000
  0
VERTEX
  8
LAYER-1
 10
2.215312
 20
7.468208
 30
0.000000
  0
VERTEX
  8
LAYER-1
 10
2.179884
 20
7.468208
 30
0.000000
  0
SEQEND
  8
LAYER-1
  0
POLYLINE
  8
LAYER-1
 66
  1
 70
  0
 62
  0
 10
3.422624
 20
7.195926
 30
0.000000
  0
VERTEX
  8
LAYER-1
 10
3.422624
 20
7.195926
 30
0.000000
  0
VERTEX
  8
LAYER-1
 10
3.432860
 20
7.189332
 30
0.000000
  0
VERTEX
  8
LAYER-1
 10
3.447545
 20
7.191906
 30
0.000000
  0
VERTEX
  8
LAYER-1
 10
3.455844
 20
7.196487
 30
0.000000
  0
SEQEND
  8
LAYER-1
  0
POLYLINE
  8
LAYER-1
 66
  1
 70
  0
 62
  0
 10
3.422625
 20
7.195926
 30
0.000000
  0
VERTEX
  8
LAYER-1
 10
3.422625
 20
7.195926
 30
0.000000
  0
VERTEX
  8
LAYER-1
 10
3.455844
 20
7.196487
 30
0.000000
  0
SEQEND
  8
LAYER-1
  0
POLYLINE
  8
LAYER-1
 66
  1
 70
  0
 62
  0
 10
3.383512
 20
7.196487
 30
0.000000
  0
VERTEX
  8
LAYER-1
 10
3.383512
 20
7.196487
 30
0.000000
  0
VERTEX
  8
LAYER-1
 10
3.396683
 20
7.189440
 30
0.000000
  0
VERTEX
  8
LAYER-1
 10
3.413763
 20
7.193771
 30
0.000000
  0
VERTEX
  8
LAYER-1
 10
3.420416
 20
7.196487
 30
0.000000
  0
SEQEND
  8
LAYER-1
  0
POLYLINE
  8
LAYER-1
 66
  1
 70
  0
 62
  0
 10
3.383512
 20
7.196487
 30
0.000000
  0
VERTEX
  8
LAYER-1
 10
3.383512
 20
7.196487
 30
0.000000
  0
VERTEX
  8
LAYER-1
 10
3.420415
 20
7.196487
 30
0.000000
  0
SEQEND
  8
LAYER-1
  0
POLYLINE
  8
LAYER-1
 66
  1
 70
  0
 62
  0
 10
3.016668
 20
7.196041
 30
0.000000
  0
VERTEX
  8
LAYER-1
 10
3.016668
 20
7.196041
 30
0.000000
  0
VERTEX
  8
LAYER-1
 10
3.032235
 20
7.189985
 30
0.000000
  0
VERTEX
  8
LAYER-1
 10
3.050309
 20
7.196711
 30
0.000000
  0
VERTEX
  8
LAYER-1
 10
3.053576
 20
7.196040
 30
0.000000
  0
SEQEND
  8
LAYER-1
  0
POLYLINE
  8
LAYER-1
 66
  1
 70
  0
 62
  0
 10
2.969428
 20
7.196041
 30
0.000000
  0
VERTEX
  8
LAYER-1
 10
2.969428
 20
7.196041
 30
0.000000
  0
VERTEX
  8
LAYER-1
 10
2.984995
 20
7.189985
 30
0.000000
  0
VERTEX
  8
LAYER-1
 10
3.003068
 20
7.196711
 30
0.000000
  0
VERTEX
  8
LAYER-1
 10
3.006335
 20
7.196040
 30
0.000000
  0
SEQEND
  8
LAYER-1
  0
POLYLINE
  8
LAYER-1
 66
  1
 70
  0
 62
  0
 10
2.996673
 20
7.195951
 30
0.000000
  0
VERTEX
  8
LAYER-1
 10
2.996673
 20
7.195951
 30
0.000000
  0
VERTEX
  8
LAYER-1
 10
3.003488
 20
7.186883
 30
0.000000
  0
VERTEX
  8
LAYER-1
 10
3.017503
 20
7.185289
 30
0.000000
  0
VERTEX
  8
LAYER-1
 10
3.028540
 20
7.194072
 30
0.000000
  0
VERTEX
  8
LAYER-1
 10
3.032102
 20
7.195951
 30
0.000000
  0
SEQEND
  8
LAYER-1
  0
POLYLINE
  8
LAYER-1
 66
  1
 70
  0
 62
  0
 10
3.032102
 20
7.195951
 30
0.000000
  0
VERTEX
  8
LAYER-1
 10
3.032102
 20
7.195951
 30
0.000000
  0
VERTEX
  8
LAYER-1
 10
2.996673
 20
7.195951
 30
0.000000
  0
SEQEND
  8
LAYER-1
  0
POLYLINE
  8
LAYER-1
 66
  1
 70
  0
 62
  0
 10
2.204114
 20
7.196041
 30
0.000000
  0
VERTEX
  8
LAYER-1
 10
2.204114
 20
7.196041
 30
0.000000
  0
VERTEX
  8
LAYER-1
 10
2.219681
 20
7.189985
 30
0.000000
  0
VERTEX
  8
LAYER-1
 10
2.237754
 20
7.196711
 30
0.000000
  0
VERTEX
  8
LAYER-1
 10
2.241021
 20
7.196040
 30
0.000000
  0
SEQEND
  8
LAYER-1
  0
POLYLINE
  8
LAYER-1
 66
  1
 70
  0
 62
  0
 10
2.155934
 20
7.196041
 30
0.000000
  0
VERTEX
  8
LAYER-1
 10
2.155934
 20
7.196041
 30
0.000000
  0
VERTEX
  8
LAYER-1
 10
2.171501
 20
7.189985
 30
0.000000
  0
VERTEX
  8
LAYER-1
 10
2.189574
 20
7.196711
 30
0.000000
  0
VERTEX
  8
LAYER-1
 10
2.192841
 20
7.196040
 30
0.000000
  0
SEQEND
  8
LAYER-1
  0
POLYLINE
  8
LAYER-1
 66
  1
 70
  0
 62
  0
 10
2.179889
 20
7.195951
 30
0.000000
  0
VERTEX
  8
LAYER-1
 10
2.179889
 20
7.195951
 30
0.000000
  0
VERTEX
  8
LAYER-1
 10
2.186704
 20
7.186883
 30
0.000000
  0
VERTEX
  8
LAYER-1
 10
2.200720
 20
7.185289
 30
0.000000
  0
VERTEX
  8
LAYER-1
 10
2.211756
 20
7.194072
 30
0.000000
  0
VERTEX
  8
LAYER-1
 10
2.215318
 20
7.195951
 30
0.000000
  0
SEQEND
  8
LAYER-1
  0
POLYLINE
  8
LAYER-1
 66
  1
 70
  0
 62
  0
 10
2.215318
 20
7.195951
 30
0.000000
  0
VERTEX
  8
LAYER-1
 10
2.215318
 20
7.195951
 30
0.000000
  0
VERTEX
  8
LAYER-1
 10
2.179890
 20
7.195951
 30
0.000000
  0
SEQEND
  8
LAYER-1
  0
POLYLINE
  8
LAYER-1
 66
  1
 70
  1
 62
  0
  0
VERTEX
  8
LAYER-1
 10
2.996129
 20
7.468141
 30
0.000000
  0
VERTEX
  8
LAYER-1
 10
3.031559
 20
7.468141
 30
0.000000
  0
VERTEX
  8
LAYER-1
 10
3.031559
 20
7.196513
 30
0.000000
  0
VERTEX
  8
LAYER-1
 10
2.996129
 20
7.196513
 30
0.000000
  0
SEQEND
  8
LAYER-1
  0
POLYLINE
  8
LAYER-1
 66
  1
 70
  1
 62
  0
  0
VERTEX
  8
LAYER-1
 10
2.179815
 20
7.468141
 30
0.000000
  0
VERTEX
  8
LAYER-1
 10
2.215246
 20
7.468141
 30
0.000000
  0
VERTEX
  8
LAYER-1
 10
2.215246
 20
7.196513
 30
0.000000
  0
VERTEX
  8
LAYER-1
 10
2.179815
 20
7.196513
 30
0.000000
  0
SEQEND
  8
LAYER-1
  0
POLYLINE
  8
LAYER-1
 66
  1
 70
  0
 62
  0
 10
3.031559
 20
7.400235
 30
0.000000
  0
VERTEX
  8
LAYER-1
 10
3.031559
 20
7.400235
 30
0.000000
  0
VERTEX
  8
LAYER-1
 10
2.996129
 20
7.400235
 30
0.000000
  0
SEQEND
  8
LAYER-1
  0
POLYLINE
  8
LAYER-1
 66
  1
 70
  0
 62
  0
 10
3.031559
 20
7.270326
 30
0.000000
  0
VERTEX
  8
LAYER-1
 10
3.031559
 20
7.270326
 30
0.000000
  0
VERTEX
  8
LAYER-1
 10
2.996129
 20
7.270326
 30
0.000000
  0
SEQEND
  8
LAYER-1
  0
POLYLINE
  8
LAYER-1
 66
  1
 70
  0
 62
  0
 10
2.215246
 20
7.400235
 30
0.000000
  0
VERTEX
  8
LAYER-1
 10
2.215246
 20
7.400235
 30
0.000000
  0
VERTEX
  8
LAYER-1
 10
2.179817
 20
7.400235
 30
0.000000
  0
SEQEND
  8
LAYER-1
  0
POLYLINE
  8
LAYER-1
 66
  1
 70
  0
 62
  0
 10
2.215246
 20
7.270325
 30
0.000000
  0
VERTEX
  8
LAYER-1
 10
2.215246
 20
7.270325
 30
0.000000
  0
VERTEX
  8
LAYER-1
 10
2.179817
 20
7.270325
 30
0.000000
  0
SEQEND
  8
LAYER-1
  0
POLYLINE
  8
LAYER-1
 66
  1
 70
  0
 62
  0
 10
3.233891
 20
7.467699
 30
0.000000
  0
VERTEX
  8
LAYER-1
 10
3.233891
 20
7.467699
 30
0.000000
  0
VERTEX
  8
LAYER-1
 10
3.220014
 20
7.478636
 30
0.000000
  0
VERTEX
  8
LAYER-1
 10
3.205251
 20
7.476557
 30
0.000000
  0
VERTEX
  8
LAYER-1
 10
3.200672
 20
7.468258
 30
0.000000
  0
SEQEND
  8
LAYER-1
  0
POLYLINE
  8
LAYER-1
 66
  1
 70
  0
 62
  0
 10
2.420397
 20
7.468080
 30
0.000000
  0
VERTEX
  8
LAYER-1
 10
2.420397
 20
7.468080
 30
0.000000
  0
VERTEX
  8
LAYER-1
 10
2.403289
 20
7.479063
 30
0.000000
  0
VERTEX
  8
LAYER-1
 10
2.386209
 20
7.474732
 30
0.000000
  0
VERTEX
  8
LAYER-1
 10
2.383493
 20
7.468080
 30
0.000000
  0
SEQEND
  8
LAYER-1
  0
POLYLINE
  8
LAYER-1
 66
  1
 70
  0
 62
  0
 10
2.607593
 20
7.195924
 30
0.000000
  0
VERTEX
  8
LAYER-1
 10
2.607593
 20
7.195924
 30
0.000000
  0
VERTEX
  8
LAYER-1
 10
2.617829
 20
7.189329
 30
0.000000
  0
VERTEX
  8
LAYER-1
 10
2.632513
 20
7.191905
 30
0.000000
  0
VERTEX
  8
LAYER-1
 10
2.640813
 20
7.196484
 30
0.000000
  0
SEQEND
  8
LAYER-1
  0
POLYLINE
  8
LAYER-1
 66
  1
 70
  0
 62
  0
 10
2.607593
 20
7.195924
 30
0.000000
  0
VERTEX
  8
LAYER-1
 10
2.607593
 20
7.195924
 30
0.000000
  0
VERTEX
  8
LAYER-1
 10
2.640812
 20
7.196484
 30
0.000000
  0
SEQEND
  8
LAYER-1
  0
POLYLINE
  8
LAYER-1
 66
  1
 70
  0
 62
  0
 10
2.568480
 20
7.196485
 30
0.000000
  0
VERTEX
  8
LAYER-1
 10
2.568480
 20
7.196485
 30
0.000000
  0
VERTEX
  8
LAYER-1
 10
2.581651
 20
7.189438
 30
0.000000
  0
VERTEX
  8
LAYER-1
 10
2.598732
 20
7.193769
 30
0.000000
  0
VERTEX
  8
LAYER-1
 10
2.605384
 20
7.196484
 30
0.000000
  0
SEQEND
  8
LAYER-1
  0
POLYLINE
  8
LAYER-1
 66
  1
 70
  0
 62
  0
 10
2.568481
 20
7.196485
 30
0.000000
  0
VERTEX
  8
LAYER-1
 10
2.568481
 20
7.196485
 30
0.000000
  0
VERTEX
  8
LAYER-1
 10
2.605384
 20
7.196484
 30
0.000000
  0
SEQEND
  8
LAYER-1
  0
POLYLINE
  8
LAYER-1
 66
  1
 70
  0
 62
  0
 10
2.569652
 20
7.468141
 30
0.000000
  0
VERTEX
  8
LAYER-1
 10
2.569652
 20
7.468141
 30
0.000000
  0
VERTEX
  8
LAYER-1
 10
2.569652
 20
7.196509
 30
0.000000
  0
SEQEND
  8
LAYER-1
  0
POLYLINE
  8
LAYER-1
 66
  1
 70
  0
 62
  0
 10
2.641986
 20
7.196514
 30
0.000000
  0
VERTEX
  8
LAYER-1
 10
2.641986
 20
7.196514
 30
0.000000
  0
VERTEX
  8
LAYER-1
 10
2.641986
 20
7.468142
 30
0.000000
  0
SEQEND
  8
LAYER-1
  0
POLYLINE
  8
LAYER-1
 66
  1
 70
  0
 62
  0
 10
2.606556
 20
7.468142
 30
0.000000
  0
VERTEX
  8
LAYER-1
 10
2.606556
 20
7.468142
 30
0.000000
  0
VERTEX
  8
LAYER-1
 10
2.606556
 20
7.196512
 30
0.000000
  0
SEQEND
  8
LAYER-1
  0
POLYLINE
  8
LAYER-1
 66
  1
 70
  0
 62
  0
 10
2.641681
 20
7.468001
 30
0.000000
  0
VERTEX
  8
LAYER-1
 10
2.641681
 20
7.468001
 30
0.000000
  0
VERTEX
  8
LAYER-1
 10
2.627804
 20
7.478939
 30
0.000000
  0
VERTEX
  8
LAYER-1
 10
2.613041
 20
7.476861
 30
0.000000
  0
VERTEX
  8
LAYER-1
 10
2.608461
 20
7.468561
 30
0.000000
  0
SEQEND
  8
LAYER-1
  0
POLYLINE
  8
LAYER-1
 66
  1
 70
  0
 62
  0
 10
2.608462
 20
7.468561
 30
0.000000
  0
VERTEX
  8
LAYER-1
 10
2.608462
 20
7.468561
 30
0.000000
  0
VERTEX
  8
LAYER-1
 10
2.641681
 20
7.468001
 30
0.000000
  0
SEQEND
  8
LAYER-1
  0
POLYLINE
  8
LAYER-1
 66
  1
 70
  0
 62
  0
 10
2.606253
 20
7.468001
 30
0.000000
  0
VERTEX
  8
LAYER-1
 10
2.606253
 20
7.468001
 30
0.000000
  0
VERTEX
  8
LAYER-1
 10
2.589144
 20
7.478984
 30
0.000000
  0
VERTEX
  8
LAYER-1
 10
2.572064
 20
7.474653
 30
0.000000
  0
VERTEX
  8
LAYER-1
 10
2.569349
 20
7.468000
 30
0.000000
  0
SEQEND
  8
LAYER-1
  0
POLYLINE
  8
LAYER-1
 66
  1
 70
  0
 62
  0
 10
2.569349
 20
7.468000
 30
0.000000
  0
VERTEX
  8
LAYER-1
 10
2.569349
 20
7.468000
 30
0.000000
  0
VERTEX
  8
LAYER-1
 10
2.606252
 20
7.468001
 30
0.000000
  0
SEQEND
  8
LAYER-1
  0
POLYLINE
  8
LAYER-1
 66
  1
 70
  0
 62
  0
 10
1.787593
 20
7.195924
 30
0.000000
  0
VERTEX
  8
LAYER-1
 10
1.787593
 20
7.195924
 30
0.000000
  0
VERTEX
  8
LAYER-1
 10
1.797829
 20
7.189329
 30
0.000000
  0
VERTEX
  8
LAYER-1
 10
1.812513
 20
7.191905
 30
0.000000
  0
VERTEX
  8
LAYER-1
 10
1.820813
 20
7.196484
 30
0.000000
  0
SEQEND
  8
LAYER-1
  0
POLYLINE
  8
LAYER-1
 66
  1
 70
  0
 62
  0
 10
1.787593
 20
7.195924
 30
0.000000
  0
VERTEX
  8
LAYER-1
 10
1.787593
 20
7.195924
 30
0.000000
  0
VERTEX
  8
LAYER-1
 10
1.820812
 20
7.196484
 30
0.000000
  0
SEQEND
  8
LAYER-1
  0
POLYLINE
  8
LAYER-1
 66
  1
 70
  0
 62
  0
 10
1.748480
 20
7.196485
 30
0.000000
  0
VERTEX
  8
LAYER-1
 10
1.748480
 20
7.196485
 30
0.000000
  0
VERTEX
  8
LAYER-1
 10
1.761651
 20
7.189438
 30
0.000000
  0
VERTEX
  8
LAYER-1
 10
1.778732
 20
7.193769
 30
0.000000
  0
VERTEX
  8
LAYER-1
 10
1.785384
 20
7.196484
 30
0.000000
  0
SEQEND
  8
LAYER-1
  0
POLYLINE
  8
LAYER-1
 66
  1
 70
  0
 62
  0
 10
1.748481
 20
7.196485
 30
0.000000
  0
VERTEX
  8
LAYER-1
 10
1.748481
 20
7.196485
 30
0.000000
  0
VERTEX
  8
LAYER-1
 10
1.785383
 20
7.196484
 30
0.000000
  0
SEQEND
  8
LAYER-1
  0
POLYLINE
  8
LAYER-1
 66
  1
 70
  0
 62
  0
 10
1.749652
 20
7.468141
 30
0.000000
  0
VERTEX
  8
LAYER-1
 10
1.749652
 20
7.468141
 30
0.000000
  0
VERTEX
  8
LAYER-1
 10
1.749652
 20
7.196509
 30
0.000000
  0
SEQEND
  8
LAYER-1
  0
POLYLINE
  8
LAYER-1
 66
  1
 70
  0
 62
  0
 10
1.821985
 20
7.196514
 30
0.000000
  0
VERTEX
  8
LAYER-1
 10
1.821985
 20
7.196514
 30
0.000000
  0
VERTEX
  8
LAYER-1
 10
1.821985
 20
7.468142
 30
0.000000
  0
SEQEND
  8
LAYER-1
  0
POLYLINE
  8
LAYER-1
 66
  1
 70
  0
 62
  0
 10
1.786556
 20
7.468142
 30
0.000000
  0
VERTEX
  8
LAYER-1
 10
1.786556
 20
7.468142
 30
0.000000
  0
VERTEX
  8
LAYER-1
 10
1.786556
 20
7.196512
 30
0.000000
  0
SEQEND
  8
LAYER-1
  0
POLYLINE
  8
LAYER-1
 66
  1
 70
  0
 62
  0
 10
1.821681
 20
7.468001
 30
0.000000
  0
VERTEX
  8
LAYER-1
 10
1.821681
 20
7.468001
 30
0.000000
  0
VERTEX
  8
LAYER-1
 10
1.807804
 20
7.478939
 30
0.000000
  0
VERTEX
  8
LAYER-1
 10
1.793041
 20
7.476861
 30
0.000000
  0
VERTEX
  8
LAYER-1
 10
1.788461
 20
7.468561
 30
0.000000
  0
SEQEND
  8
LAYER-1
  0
POLYLINE
  8
LAYER-1
 66
  1
 70
  0
 62
  0
 10
1.788462
 20
7.468561
 30
0.000000
  0
VERTEX
  8
LAYER-1
 10
1.788462
 20
7.468561
 30
0.000000
  0
VERTEX
  8
LAYER-1
 10
1.821681
 20
7.468001
 30
0.000000
  0
SEQEND
  8
LAYER-1
  0
POLYLINE
  8
LAYER-1
 66
  1
 70
  0
 62
  0
 10
1.786253
 20
7.468001
 30
0.000000
  0
VERTEX
  8
LAYER-1
 10
1.786253
 20
7.468001
 30
0.000000
  0
VERTEX
  8
LAYER-1
 10
1.769144
 20
7.478984
 30
0.000000
  0
VERTEX
  8
LAYER-1
 10
1.752064
 20
7.474653
 30
0.000000
  0
VERTEX
  8
LAYER-1
 10
1.749349
 20
7.468000
 30
0.000000
  0
SEQEND
  8
LAYER-1
  0
POLYLINE
  8
LAYER-1
 66
  1
 70
  0
 62
  0
 10
1.749349
 20
7.468000
 30
0.000000
  0
VERTEX
  8
LAYER-1
 10
1.749349
 20
7.468000
 30
0.000000
  0
VERTEX
  8
LAYER-1
 10
1.786252
 20
7.468001
 30
0.000000
  0
SEQEND
  8
LAYER-1
  0
POLYLINE
  8
LAYER-1
 66
  1
 70
  0
 62
  0
 10
3.645952
 20
7.400235
 30
0.000000
  0
VERTEX
  8
LAYER-1
 10
3.645952
 20
7.400235
 30
0.000000
  0
VERTEX
  8
LAYER-1
 10
3.606226
 20
7.400235
 30
0.000000
  0
SEQEND
  8
LAYER-1
  0
POLYLINE
  8
LAYER-1
 66
  1
 70
  0
 62
  0
 10
3.645952
 20
7.270325
 30
0.000000
  0
VERTEX
  8
LAYER-1
 10
3.645952
 20
7.270325
 30
0.000000
  0
VERTEX
  8
LAYER-1
 10
3.606226
 20
7.270325
 30
0.000000
  0
SEQEND
  8
LAYER-1
  0
POLYLINE
  8
LAYER-1
 66
  1
 70
  0
 62
  0
 10
3.644500
 20
7.473289
 30
0.000000
  0
VERTEX
  8
LAYER-1
 10
3.644500
 20
7.473289
 30
0.000000
  0
VERTEX
  8
LAYER-1
 10
3.627391
 20
7.484272
 30
0.000000
  0
VERTEX
  8
LAYER-1
 10
3.610312
 20
7.479940
 30
0.000000
  0
VERTEX
  8
LAYER-1
 10
3.607597
 20
7.473287
 30
0.000000
  0
SEQEND
  8
LAYER-1
  0
POLYLINE
  8
LAYER-1
 66
  1
 70
  1
 62
  0
  0
VERTEX
  8
LAYER-1
 10
3.597087
 20
7.473910
 30
0.000000
  0
VERTEX
  8
LAYER-1
 10
3.651703
 20
7.473910
 30
0.000000
  0
VERTEX
  8
LAYER-1
 10
3.651703
 20
7.468005
 30
0.000000
  0
VERTEX
  8
LAYER-1
 10
3.597087
 20
7.468005
 30
0.000000
  0
SEQEND
  8
LAYER-1
  0
POLYLINE
  8
LAYER-1
 66
  1
 70
  0
 62
  0
 10
3.605792
 20
7.468140
 30
0.000000
  0
VERTEX
  8
LAYER-1
 10
3.605792
 20
7.468140
 30
0.000000
  0
VERTEX
  8
LAYER-1
 10
3.605792
 20
7.196392
 30
0.000000
  0
SEQEND
  8
LAYER-1
  0
POLYLINE
  8
LAYER-1
 66
  1
 70
  0
 62
  0
 10
3.605802
 20
0.613928
 30
0.000000
  0
VERTEX
  8
LAYER-1
 10
3.605802
 20
0.613928
 30
0.000000
  0
VERTEX
  8
LAYER-1
 10
3.605802
 20
0.342228
 30
0.000000
  0
SEQEND
  8
LAYER-1
  0
POLYLINE
  8
LAYER-1
 66
  1
 70
  0
 62
  0
 10
3.384883
 20
0.341789
 30
0.000000
  0
VERTEX
  8
LAYER-1
 10
3.384883
 20
0.341789
 30
0.000000
  0
VERTEX
  8
LAYER-1
 10
3.384883
 20
0.613420
 30
0.000000
  0
SEQEND
  8
LAYER-1
  0
POLYLINE
  8
LAYER-1
 66
  1
 70
  0
 62
  0
 10
3.054385
 20
0.613420
 30
0.000000
  0
VERTEX
  8
LAYER-1
 10
3.054385
 20
0.613420
 30
0.000000
  0
VERTEX
  8
LAYER-1
 10
3.054385
 20
0.341789
 30
0.000000
  0
SEQEND
  8
LAYER-1
  0
POLYLINE
  8
LAYER-1
 66
  1
 70
  0
 62
  0
 10
2.241554
 20
0.613420
 30
0.000000
  0
VERTEX
  8
LAYER-1
 10
2.241554
 20
0.613420
 30
0.000000
  0
VERTEX
  8
LAYER-1
 10
2.241554
 20
0.341789
 30
0.000000
  0
SEQEND
  8
LAYER-1
  0
POLYLINE
  8
LAYER-1
 66
  1
 70
  0
 62
  0
 10
2.422721
 20
0.341749
 30
0.000000
  0
VERTEX
  8
LAYER-1
 10
2.422721
 20
0.341749
 30
0.000000
  0
VERTEX
  8
LAYER-1
 10
2.422721
 20
0.613378
 30
0.000000
  0
SEQEND
  8
LAYER-1
  0
POLYLINE
  8
LAYER-1
 66
  1
 70
  0
 62
  0
 10
2.382863
 20
0.341749
 30
0.000000
  0
VERTEX
  8
LAYER-1
 10
2.382863
 20
0.341749
 30
0.000000
  0
VERTEX
  8
LAYER-1
 10
2.382863
 20
0.613378
 30
0.000000
  0
SEQEND
  8
LAYER-1
  0
POLYLINE
  8
LAYER-1
 66
  1
 70
  0
 62
  0
 10
3.236739
 20
0.341749
 30
0.000000
  0
VERTEX
  8
LAYER-1
 10
3.236739
 20
0.341749
 30
0.000000
  0
VERTEX
  8
LAYER-1
 10
3.236739
 20
0.613378
 30
0.000000
  0
SEQEND
  8
LAYER-1
  0
POLYLINE
  8
LAYER-1
 66
  1
 70
  0
 62
  0
 10
3.197923
 20
0.341749
 30
0.000000
  0
VERTEX
  8
LAYER-1
 10
3.197923
 20
0.341749
 30
0.000000
  0
VERTEX
  8
LAYER-1
 10
3.197923
 20
0.613378
 30
0.000000
  0
SEQEND
  8
LAYER-1
  0
POLYLINE
  8
LAYER-1
 66
  1
 70
  0
 62
  0
 10
2.970063
 20
0.341789
 30
0.000000
  0
VERTEX
  8
LAYER-1
 10
2.970063
 20
0.341789
 30
0.000000
  0
VERTEX
  8
LAYER-1
 10
2.970063
 20
0.613420
 30
0.000000
  0
SEQEND
  8
LAYER-1
  0
POLYLINE
  8
LAYER-1
 66
  1
 70
  0
 62
  0
 10
2.157232
 20
0.341789
 30
0.000000
  0
VERTEX
  8
LAYER-1
 10
2.157232
 20
0.341789
 30
0.000000
  0
VERTEX
  8
LAYER-1
 10
2.157232
 20
0.613420
 30
0.000000
  0
SEQEND
  8
LAYER-1
  0
POLYLINE
  8
LAYER-1
 66
  1
 70
  0
 62
  0
 10
2.012327
 20
0.342183
 30
0.000000
  0
VERTEX
  8
LAYER-1
 10
2.012327
 20
0.342183
 30
0.000000
  0
VERTEX
  8
LAYER-1
 10
2.012327
 20
0.613812
 30
0.000000
  0
SEQEND
  8
LAYER-1
  0
POLYLINE
  8
LAYER-1
 66
  1
 70
  0
 62
  0
 10
1.973945
 20
0.342183
 30
0.000000
  0
VERTEX
  8
LAYER-1
 10
1.973945
 20
0.342183
 30
0.000000
  0
VERTEX
  8
LAYER-1
 10
1.973945
 20
0.613812
 30
0.000000
  0
SEQEND
  8
LAYER-1
  0
POLYLINE
  8
LAYER-1
 66
  1
 70
  0
 62
  0
 10
2.830166
 20
0.341714
 30
0.000000
  0
VERTEX
  8
LAYER-1
 10
2.830166
 20
0.341714
 30
0.000000
  0
VERTEX
  8
LAYER-1
 10
2.830166
 20
0.613341
 30
0.000000
  0
SEQEND
  8
LAYER-1
  0
POLYLINE
  8
LAYER-1
 66
  1
 70
  0
 62
  0
 10
2.791783
 20
0.341714
 30
0.000000
  0
VERTEX
  8
LAYER-1
 10
2.791783
 20
0.341714
 30
0.000000
  0
VERTEX
  8
LAYER-1
 10
2.791783
 20
0.613341
 30
0.000000
  0
SEQEND
  8
LAYER-1
  0
POLYLINE
  8
LAYER-1
 66
  1
 70
  0
 62
  0
 10
3.457216
 20
0.613417
 30
0.000000
  0
VERTEX
  8
LAYER-1
 10
3.457216
 20
0.613417
 30
0.000000
  0
VERTEX
  8
LAYER-1
 10
3.457216
 20
0.341788
 30
0.000000
  0
SEQEND
  8
LAYER-1
  0
POLYLINE
  8
LAYER-1
 66
  1
 70
  0
 62
  0
 10
3.421786
 20
0.341788
 30
0.000000
  0
VERTEX
  8
LAYER-1
 10
3.421786
 20
0.341788
 30
0.000000
  0
VERTEX
  8
LAYER-1
 10
3.421786
 20
0.613419
 30
0.000000
  0
SEQEND
  8
LAYER-1
  0
POLYLINE
  8
LAYER-1
 66
  1
 70
  0
 62
  0
 10
3.422757
 20
0.341777
 30
0.000000
  0
VERTEX
  8
LAYER-1
 10
3.422757
 20
0.341777
 30
0.000000
  0
VERTEX
  8
LAYER-1
 10
3.432704
 20
0.334784
 30
0.000000
  0
VERTEX
  8
LAYER-1
 10
3.447465
 20
0.336873
 30
0.000000
  0
VERTEX
  8
LAYER-1
 10
3.456313
 20
0.341788
 30
0.000000
  0
SEQEND
  8
LAYER-1
  0
POLYLINE
  8
LAYER-1
 66
  1
 70
  0
 62
  0
 10
3.384884
 20
0.341789
 30
0.000000
  0
VERTEX
  8
LAYER-1
 10
3.384884
 20
0.341789
 30
0.000000
  0
VERTEX
  8
LAYER-1
 10
3.398054
 20
0.334741
 30
0.000000
  0
VERTEX
  8
LAYER-1
 10
3.415135
 20
0.339072
 30
0.000000
  0
VERTEX
  8
LAYER-1
 10
3.421786
 20
0.341788
 30
0.000000
  0
SEQEND
  8
LAYER-1
  0
POLYLINE
  8
LAYER-1
 66
  1
 70
  0
 62
  0
 10
2.969324
 20
0.342282
 30
0.000000
  0
VERTEX
  8
LAYER-1
 10
2.969324
 20
0.342282
 30
0.000000
  0
VERTEX
  8
LAYER-1
 10
2.984891
 20
0.336227
 30
0.000000
  0
VERTEX
  8
LAYER-1
 10
3.002964
 20
0.342952
 30
0.000000
  0
VERTEX
  8
LAYER-1
 10
3.006231
 20
0.342282
 30
0.000000
  0
SEQEND
  8
LAYER-1
  0
POLYLINE
  8
LAYER-1
 66
  1
 70
  0
 62
  0
 10
2.156365
 20
0.341812
 30
0.000000
  0
VERTEX
  8
LAYER-1
 10
2.156365
 20
0.341812
 30
0.000000
  0
VERTEX
  8
LAYER-1
 10
2.171933
 20
0.335757
 30
0.000000
  0
VERTEX
  8
LAYER-1
 10
2.190006
 20
0.342482
 30
0.000000
  0
VERTEX
  8
LAYER-1
 10
2.193273
 20
0.341812
 30
0.000000
  0
SEQEND
  8
LAYER-1
  0
POLYLINE
  8
LAYER-1
 66
  1
 70
  0
 62
  0
 10
3.017033
 20
0.342282
 30
0.000000
  0
VERTEX
  8
LAYER-1
 10
3.017033
 20
0.342282
 30
0.000000
  0
VERTEX
  8
LAYER-1
 10
3.032600
 20
0.336227
 30
0.000000
  0
VERTEX
  8
LAYER-1
 10
3.050674
 20
0.342952
 30
0.000000
  0
VERTEX
  8
LAYER-1
 10
3.053941
 20
0.342281
 30
0.000000
  0
SEQEND
  8
LAYER-1
  0
POLYLINE
  8
LAYER-1
 66
  1
 70
  0
 62
  0
 10
2.996569
 20
0.341723
 30
0.000000
  0
VERTEX
  8
LAYER-1
 10
2.996569
 20
0.341723
 30
0.000000
  0
VERTEX
  8
LAYER-1
 10
3.003384
 20
0.332654
 30
0.000000
  0
VERTEX
  8
LAYER-1
 10
3.017399
 20
0.331061
 30
0.000000
  0
VERTEX
  8
LAYER-1
 10
3.028436
 20
0.339844
 30
0.000000
  0
VERTEX
  8
LAYER-1
 10
3.031998
 20
0.341723
 30
0.000000
  0
SEQEND
  8
LAYER-1
  0
POLYLINE
  8
LAYER-1
 66
  1
 70
  0
 62
  0
 10
3.031998
 20
0.341723
 30
0.000000
  0
VERTEX
  8
LAYER-1
 10
3.031998
 20
0.341723
 30
0.000000
  0
VERTEX
  8
LAYER-1
 10
2.996569
 20
0.341723
 30
0.000000
  0
SEQEND
  8
LAYER-1
  0
POLYLINE
  8
LAYER-1
 66
  1
 70
  0
 62
  0
 10
2.205016
 20
0.341812
 30
0.000000
  0
VERTEX
  8
LAYER-1
 10
2.205016
 20
0.341812
 30
0.000000
  0
VERTEX
  8
LAYER-1
 10
2.220583
 20
0.335757
 30
0.000000
  0
VERTEX
  8
LAYER-1
 10
2.238657
 20
0.342482
 30
0.000000
  0
VERTEX
  8
LAYER-1
 10
2.241923
 20
0.341811
 30
0.000000
  0
SEQEND
  8
LAYER-1
  0
POLYLINE
  8
LAYER-1
 66
  1
 70
  0
 62
  0
 10
2.180322
 20
0.341723
 30
0.000000
  0
VERTEX
  8
LAYER-1
 10
2.180322
 20
0.341723
 30
0.000000
  0
VERTEX
  8
LAYER-1
 10
2.187137
 20
0.332654
 30
0.000000
  0
VERTEX
  8
LAYER-1
 10
2.201152
 20
0.331061
 30
0.000000
  0
VERTEX
  8
LAYER-1
 10
2.212189
 20
0.339844
 30
0.000000
  0
VERTEX
  8
LAYER-1
 10
2.215751
 20
0.341723
 30
0.000000
  0
SEQEND
  8
LAYER-1
  0
POLYLINE
  8
LAYER-1
 66
  1
 70
  0
 62
  0
 10
2.215751
 20
0.341723
 30
0.000000
  0
VERTEX
  8
LAYER-1
 10
2.215751
 20
0.341723
 30
0.000000
  0
VERTEX
  8
LAYER-1
 10
2.180322
 20
0.341723
 30
0.000000
  0
SEQEND
  8
LAYER-1
  0
POLYLINE
  8
LAYER-1
 66
  1
 70
  0
 62
  0
 10
3.456283
 20
0.613445
 30
0.000000
  0
VERTEX
  8
LAYER-1
 10
3.456283
 20
0.613445
 30
0.000000
  0
VERTEX
  8
LAYER-1
 10
3.442406
 20
0.624382
 30
0.000000
  0
VERTEX
  8
LAYER-1
 10
3.427643
 20
0.622303
 30
0.000000
  0
VERTEX
  8
LAYER-1
 10
3.423063
 20
0.614004
 30
0.000000
  0
SEQEND
  8
LAYER-1
  0
POLYLINE
  8
LAYER-1
 66
  1
 70
  0
 62
  0
 10
3.423063
 20
0.614005
 30
0.000000
  0
VERTEX
  8
LAYER-1
 10
3.423063
 20
0.614005
 30
0.000000
  0
VERTEX
  8
LAYER-1
 10
3.456283
 20
0.613445
 30
0.000000
  0
SEQEND
  8
LAYER-1
  0
POLYLINE
  8
LAYER-1
 66
  1
 70
  0
 62
  0
 10
3.420854
 20
0.613443
 30
0.000000
  0
VERTEX
  8
LAYER-1
 10
3.420854
 20
0.613443
 30
0.000000
  0
VERTEX
  8
LAYER-1
 10
3.403746
 20
0.624427
 30
0.000000
  0
VERTEX
  8
LAYER-1
 10
3.386666
 20
0.620096
 30
0.000000
  0
VERTEX
  8
LAYER-1
 10
3.383951
 20
0.613442
 30
0.000000
  0
SEQEND
  8
LAYER-1
  0
POLYLINE
  8
LAYER-1
 66
  1
 70
  0
 62
  0
 10
3.383951
 20
0.613443
 30
0.000000
  0
VERTEX
  8
LAYER-1
 10
3.383951
 20
0.613443
 30
0.000000
  0
VERTEX
  8
LAYER-1
 10
3.420854
 20
0.613445
 30
0.000000
  0
SEQEND
  8
LAYER-1
  0
POLYLINE
  8
LAYER-1
 66
  1
 70
  0
 62
  0
 10
3.054015
 20
0.613891
 30
0.000000
  0
VERTEX
  8
LAYER-1
 10
3.054015
 20
0.613891
 30
0.000000
  0
VERTEX
  8
LAYER-1
 10
3.034510
 20
0.623882
 30
0.000000
  0
VERTEX
  8
LAYER-1
 10
3.016437
 20
0.617157
 30
0.000000
  0
VERTEX
  8
LAYER-1
 10
3.017107
 20
0.613890
 30
0.000000
  0
SEQEND
  8
LAYER-1
  0
POLYLINE
  8
LAYER-1
 66
  1
 70
  0
 62
  0
 10
3.006774
 20
0.613891
 30
0.000000
  0
VERTEX
  8
LAYER-1
 10
3.006774
 20
0.613891
 30
0.000000
  0
VERTEX
  8
LAYER-1
 10
2.987269
 20
0.623882
 30
0.000000
  0
VERTEX
  8
LAYER-1
 10
2.969196
 20
0.617157
 30
0.000000
  0
VERTEX
  8
LAYER-1
 10
2.969866
 20
0.613890
 30
0.000000
  0
SEQEND
  8
LAYER-1
  0
POLYLINE
  8
LAYER-1
 66
  1
 70
  0
 62
  0
 10
3.032541
 20
0.613979
 30
0.000000
  0
VERTEX
  8
LAYER-1
 10
3.032541
 20
0.613979
 30
0.000000
  0
VERTEX
  8
LAYER-1
 10
3.021789
 20
0.626984
 30
0.000000
  0
VERTEX
  8
LAYER-1
 10
3.007774
 20
0.628578
 30
0.000000
  0
VERTEX
  8
LAYER-1
 10
2.996737
 20
0.619795
 30
0.000000
  0
VERTEX
  8
LAYER-1
 10
2.997112
 20
0.613979
 30
0.000000
  0
SEQEND
  8
LAYER-1
  0
POLYLINE
  8
LAYER-1
 66
  1
 70
  0
 62
  0
 10
3.032540
 20
0.613980
 30
0.000000
  0
VERTEX
  8
LAYER-1
 10
3.032540
 20
0.613980
 30
0.000000
  0
VERTEX
  8
LAYER-1
 10
2.997112
 20
0.613980
 30
0.000000
  0
SEQEND
  8
LAYER-1
  0
POLYLINE
  8
LAYER-1
 66
  1
 70
  0
 62
  0
 10
2.241460
 20
0.613891
 30
0.000000
  0
VERTEX
  8
LAYER-1
 10
2.241460
 20
0.613891
 30
0.000000
  0
VERTEX
  8
LAYER-1
 10
2.221955
 20
0.623882
 30
0.000000
  0
VERTEX
  8
LAYER-1
 10
2.203882
 20
0.617157
 30
0.000000
  0
VERTEX
  8
LAYER-1
 10
2.204552
 20
0.613890
 30
0.000000
  0
SEQEND
  8
LAYER-1
  0
POLYLINE
  8
LAYER-1
 66
  1
 70
  0
 62
  0
 10
2.193280
 20
0.613891
 30
0.000000
  0
VERTEX
  8
LAYER-1
 10
2.193280
 20
0.613891
 30
0.000000
  0
VERTEX
  8
LAYER-1
 10
2.173775
 20
0.623882
 30
0.000000
  0
VERTEX
  8
LAYER-1
 10
2.155702
 20
0.617157
 30
0.000000
  0
VERTEX
  8
LAYER-1
 10
2.156372
 20
0.613890
 30
0.000000
  0
SEQEND
  8
LAYER-1
  0
POLYLINE
  8
LAYER-1
 66
  1
 70
  0
 62
  0
 10
2.215757
 20
0.613979
 30
0.000000
  0
VERTEX
  8
LAYER-1
 10
2.215757
 20
0.613979
 30
0.000000
  0
VERTEX
  8
LAYER-1
 10
2.205005
 20
0.626984
 30
0.000000
  0
VERTEX
  8
LAYER-1
 10
2.190990
 20
0.628578
 30
0.000000
  0
VERTEX
  8
LAYER-1
 10
2.179953
 20
0.619795
 30
0.000000
  0
VERTEX
  8
LAYER-1
 10
2.180328
 20
0.613979
 30
0.000000
  0
SEQEND
  8
LAYER-1
  0
POLYLINE
  8
LAYER-1
 66
  1
 70
  0
 62
  0
 10
2.215757
 20
0.613980
 30
0.000000
  0
VERTEX
  8
LAYER-1
 10
2.215757
 20
0.613980
 30
0.000000
  0
VERTEX
  8
LAYER-1
 10
2.180329
 20
0.613980
 30
0.000000
  0
SEQEND
  8
LAYER-1
  0
POLYLINE
  8
LAYER-1
 66
  1
 70
  1
 62
  0
  0
VERTEX
  8
LAYER-1
 10
3.031998
 20
0.341789
 30
0.000000
  0
VERTEX
  8
LAYER-1
 10
2.996568
 20
0.341789
 30
0.000000
  0
VERTEX
  8
LAYER-1
 10
2.996568
 20
0.613418
 30
0.000000
  0
VERTEX
  8
LAYER-1
 10
3.031998
 20
0.613418
 30
0.000000
  0
SEQEND
  8
LAYER-1
  0
POLYLINE
  8
LAYER-1
 66
  1
 70
  1
 62
  0
  0
VERTEX
  8
LAYER-1
 10
2.215684
 20
0.341789
 30
0.000000
  0
VERTEX
  8
LAYER-1
 10
2.180254
 20
0.341789
 30
0.000000
  0
VERTEX
  8
LAYER-1
 10
2.180254
 20
0.613418
 30
0.000000
  0
VERTEX
  8
LAYER-1
 10
2.215684
 20
0.613418
 30
0.000000
  0
SEQEND
  8
LAYER-1
  0
POLYLINE
  8
LAYER-1
 66
  1
 70
  0
 62
  0
 10
3.031998
 20
0.409696
 30
0.000000
  0
VERTEX
  8
LAYER-1
 10
3.031998
 20
0.409696
 30
0.000000
  0
VERTEX
  8
LAYER-1
 10
2.996568
 20
0.409696
 30
0.000000
  0
SEQEND
  8
LAYER-1
  0
POLYLINE
  8
LAYER-1
 66
  1
 70
  0
 62
  0
 10
3.031998
 20
0.539605
 30
0.000000
  0
VERTEX
  8
LAYER-1
 10
3.031998
 20
0.539605
 30
0.000000
  0
VERTEX
  8
LAYER-1
 10
2.996568
 20
0.539605
 30
0.000000
  0
SEQEND
  8
LAYER-1
  0
POLYLINE
  8
LAYER-1
 66
  1
 70
  0
 62
  0
 10
2.215684
 20
0.409696
 30
0.000000
  0
VERTEX
  8
LAYER-1
 10
2.215684
 20
0.409696
 30
0.000000
  0
VERTEX
  8
LAYER-1
 10
2.180255
 20
0.409696
 30
0.000000
  0
SEQEND
  8
LAYER-1
  0
POLYLINE
  8
LAYER-1
 66
  1
 70
  0
 62
  0
 10
2.215684
 20
0.539605
 30
0.000000
  0
VERTEX
  8
LAYER-1
 10
2.215684
 20
0.539605
 30
0.000000
  0
VERTEX
  8
LAYER-1
 10
2.180255
 20
0.539605
 30
0.000000
  0
SEQEND
  8
LAYER-1
  0
POLYLINE
  8
LAYER-1
 66
  1
 70
  0
 62
  0
 10
3.201110
 20
0.341671
 30
0.000000
  0
VERTEX
  8
LAYER-1
 10
3.201110
 20
0.341671
 30
0.000000
  0
VERTEX
  8
LAYER-1
 10
3.211346
 20
0.335078
 30
0.000000
  0
VERTEX
  8
LAYER-1
 10
3.226031
 20
0.337653
 30
0.000000
  0
VERTEX
  8
LAYER-1
 10
3.234330
 20
0.342232
 30
0.000000
  0
SEQEND
  8
LAYER-1
  0
POLYLINE
  8
LAYER-1
 66
  1
 70
  0
 62
  0
 10
2.383932
 20
0.341850
 30
0.000000
  0
VERTEX
  8
LAYER-1
 10
2.383932
 20
0.341850
 30
0.000000
  0
VERTEX
  8
LAYER-1
 10
2.397103
 20
0.334804
 30
0.000000
  0
VERTEX
  8
LAYER-1
 10
2.414183
 20
0.339135
 30
0.000000
  0
VERTEX
  8
LAYER-1
 10
2.420836
 20
0.341849
 30
0.000000
  0
SEQEND
  8
LAYER-1
  0
POLYLINE
  8
LAYER-1
 66
  1
 70
  0
 62
  0
 10
2.641251
 20
0.613447
 30
0.000000
  0
VERTEX
  8
LAYER-1
 10
2.641251
 20
0.613447
 30
0.000000
  0
VERTEX
  8
LAYER-1
 10
2.627374
 20
0.624385
 30
0.000000
  0
VERTEX
  8
LAYER-1
 10
2.612611
 20
0.622307
 30
0.000000
  0
VERTEX
  8
LAYER-1
 10
2.608032
 20
0.614007
 30
0.000000
  0
SEQEND
  8
LAYER-1
  0
POLYLINE
  8
LAYER-1
 66
  1
 70
  0
 62
  0
 10
2.608032
 20
0.614007
 30
0.000000
  0
VERTEX
  8
LAYER-1
 10
2.608032
 20
0.614007
 30
0.000000
  0
VERTEX
  8
LAYER-1
 10
2.641251
 20
0.613447
 30
0.000000
  0
SEQEND
  8
LAYER-1
  0
POLYLINE
  8
LAYER-1
 66
  1
 70
  0
 62
  0
 10
2.605823
 20
0.613447
 30
0.000000
  0
VERTEX
  8
LAYER-1
 10
2.605823
 20
0.613447
 30
0.000000
  0
VERTEX
  8
LAYER-1
 10
2.588715
 20
0.624429
 30
0.000000
  0
VERTEX
  8
LAYER-1
 10
2.571635
 20
0.620099
 30
0.000000
  0
VERTEX
  8
LAYER-1
 10
2.568919
 20
0.613446
 30
0.000000
  0
SEQEND
  8
LAYER-1
  0
POLYLINE
  8
LAYER-1
 66
  1
 70
  0
 62
  0
 10
2.568919
 20
0.613446
 30
0.000000
  0
VERTEX
  8
LAYER-1
 10
2.568919
 20
0.613446
 30
0.000000
  0
VERTEX
  8
LAYER-1
 10
2.605822
 20
0.613447
 30
0.000000
  0
SEQEND
  8
LAYER-1
  0
POLYLINE
  8
LAYER-1
 66
  1
 70
  0
 62
  0
 10
2.570090
 20
0.341789
 30
0.000000
  0
VERTEX
  8
LAYER-1
 10
2.570090
 20
0.341789
 30
0.000000
  0
VERTEX
  8
LAYER-1
 10
2.570090
 20
0.613420
 30
0.000000
  0
SEQEND
  8
LAYER-1
  0
POLYLINE
  8
LAYER-1
 66
  1
 70
  0
 62
  0
 10
2.642424
 20
0.613417
 30
0.000000
  0
VERTEX
  8
LAYER-1
 10
2.642424
 20
0.613417
 30
0.000000
  0
VERTEX
  8
LAYER-1
 10
2.642424
 20
0.341788
 30
0.000000
  0
SEQEND
  8
LAYER-1
  0
POLYLINE
  8
LAYER-1
 66
  1
 70
  0
 62
  0
 10
2.606995
 20
0.341788
 30
0.000000
  0
VERTEX
  8
LAYER-1
 10
2.606995
 20
0.341788
 30
0.000000
  0
VERTEX
  8
LAYER-1
 10
2.606995
 20
0.613419
 30
0.000000
  0
SEQEND
  8
LAYER-1
  0
POLYLINE
  8
LAYER-1
 66
  1
 70
  0
 62
  0
 10
2.608900
 20
0.341370
 30
0.000000
  0
VERTEX
  8
LAYER-1
 10
2.608900
 20
0.341370
 30
0.000000
  0
VERTEX
  8
LAYER-1
 10
2.619136
 20
0.334775
 30
0.000000
  0
VERTEX
  8
LAYER-1
 10
2.633820
 20
0.337351
 30
0.000000
  0
VERTEX
  8
LAYER-1
 10
2.642120
 20
0.341929
 30
0.000000
  0
SEQEND
  8
LAYER-1
  0
POLYLINE
  8
LAYER-1
 66
  1
 70
  0
 62
  0
 10
2.608901
 20
0.341369
 30
0.000000
  0
VERTEX
  8
LAYER-1
 10
2.608901
 20
0.341369
 30
0.000000
  0
VERTEX
  8
LAYER-1
 10
2.642120
 20
0.341929
 30
0.000000
  0
SEQEND
  8
LAYER-1
  0
POLYLINE
  8
LAYER-1
 66
  1
 70
  0
 62
  0
 10
2.569788
 20
0.341932
 30
0.000000
  0
VERTEX
  8
LAYER-1
 10
2.569788
 20
0.341932
 30
0.000000
  0
VERTEX
  8
LAYER-1
 10
2.582959
 20
0.334884
 30
0.000000
  0
VERTEX
  8
LAYER-1
 10
2.600039
 20
0.339215
 30
0.000000
  0
VERTEX
  8
LAYER-1
 10
2.606692
 20
0.341930
 30
0.000000
  0
SEQEND
  8
LAYER-1
  0
POLYLINE
  8
LAYER-1
 66
  1
 70
  0
 62
  0
 10
2.569788
 20
0.341930
 30
0.000000
  0
VERTEX
  8
LAYER-1
 10
2.569788
 20
0.341930
 30
0.000000
  0
VERTEX
  8
LAYER-1
 10
2.606691
 20
0.341929
 30
0.000000
  0
SEQEND
  8
LAYER-1
  0
POLYLINE
  8
LAYER-1
 66
  1
 70
  0
 62
  0
 10
1.821252
 20
0.613447
 30
0.000000
  0
VERTEX
  8
LAYER-1
 10
1.821252
 20
0.613447
 30
0.000000
  0
VERTEX
  8
LAYER-1
 10
1.807374
 20
0.624385
 30
0.000000
  0
VERTEX
  8
LAYER-1
 10
1.792611
 20
0.622307
 30
0.000000
  0
VERTEX
  8
LAYER-1
 10
1.788032
 20
0.614007
 30
0.000000
  0
SEQEND
  8
LAYER-1
  0
POLYLINE
  8
LAYER-1
 66
  1
 70
  0
 62
  0
 10
1.788032
 20
0.614007
 30
0.000000
  0
VERTEX
  8
LAYER-1
 10
1.788032
 20
0.614007
 30
0.000000
  0
VERTEX
  8
LAYER-1
 10
1.821251
 20
0.613447
 30
0.000000
  0
SEQEND
  8
LAYER-1
  0
POLYLINE
  8
LAYER-1
 66
  1
 70
  0
 62
  0
 10
1.785823
 20
0.613447
 30
0.000000
  0
VERTEX
  8
LAYER-1
 10
1.785823
 20
0.613447
 30
0.000000
  0
VERTEX
  8
LAYER-1
 10
1.768714
 20
0.624429
 30
0.000000
  0
VERTEX
  8
LAYER-1
 10
1.751634
 20
0.620099
 30
0.000000
  0
VERTEX
  8
LAYER-1
 10
1.748919
 20
0.613446
 30
0.000000
  0
SEQEND
  8
LAYER-1
  0
POLYLINE
  8
LAYER-1
 66
  1
 70
  0
 62
  0
 10
1.748920
 20
0.613446
 30
0.000000
  0
VERTEX
  8
LAYER-1
 10
1.748920
 20
0.613446
 30
0.000000
  0
VERTEX
  8
LAYER-1
 10
1.785822
 20
0.613447
 30
0.000000
  0
SEQEND
  8
LAYER-1
  0
POLYLINE
  8
LAYER-1
 66
  1
 70
  0
 62
  0
 10
1.750090
 20
0.341789
 30
0.000000
  0
VERTEX
  8
LAYER-1
 10
1.750090
 20
0.341789
 30
0.000000
  0
VERTEX
  8
LAYER-1
 10
1.750090
 20
0.613420
 30
0.000000
  0
SEQEND
  8
LAYER-1
  0
POLYLINE
  8
LAYER-1
 66
  1
 70
  0
 62
  0
 10
1.822424
 20
0.613417
 30
0.000000
  0
VERTEX
  8
LAYER-1
 10
1.822424
 20
0.613417
 30
0.000000
  0
VERTEX
  8
LAYER-1
 10
1.822424
 20
0.341788
 30
0.000000
  0
SEQEND
  8
LAYER-1
  0
POLYLINE
  8
LAYER-1
 66
  1
 70
  0
 62
  0
 10
1.786995
 20
0.341788
 30
0.000000
  0
VERTEX
  8
LAYER-1
 10
1.786995
 20
0.341788
 30
0.000000
  0
VERTEX
  8
LAYER-1
 10
1.786995
 20
0.613419
 30
0.000000
  0
SEQEND
  8
LAYER-1
  0
POLYLINE
  8
LAYER-1
 66
  1
 70
  0
 62
  0
 10
1.788900
 20
0.341370
 30
0.000000
  0
VERTEX
  8
LAYER-1
 10
1.788900
 20
0.341370
 30
0.000000
  0
VERTEX
  8
LAYER-1
 10
1.799136
 20
0.334775
 30
0.000000
  0
VERTEX
  8
LAYER-1
 10
1.813821
 20
0.337351
 30
0.000000
  0
VERTEX
  8
LAYER-1
 10
1.822120
 20
0.341929
 30
0.000000
  0
SEQEND
  8
LAYER-1
  0
POLYLINE
  8
LAYER-1
 66
  1
 70
  0
 62
  0
 10
1.788901
 20
0.341369
 30
0.000000
  0
VERTEX
  8
LAYER-1
 10
1.788901
 20
0.341369
 30
0.000000
  0
VERTEX
  8
LAYER-1
 10
1.822119
 20
0.341929
 30
0.000000
  0
SEQEND
  8
LAYER-1
  0
POLYLINE
  8
LAYER-1
 66
  1
 70
  0
 62
  0
 10
1.749787
 20
0.341932
 30
0.000000
  0
VERTEX
  8
LAYER-1
 10
1.749787
 20
0.341932
 30
0.000000
  0
VERTEX
  8
LAYER-1
 10
1.762959
 20
0.334884
 30
0.000000
  0
VERTEX
  8
LAYER-1
 10
1.780039
 20
0.339215
 30
0.000000
  0
VERTEX
  8
LAYER-1
 10
1.786691
 20
0.341930
 30
0.000000
  0
SEQEND
  8
LAYER-1
  0
POLYLINE
  8
LAYER-1
 66
  1
 70
  0
 62
  0
 10
1.749788
 20
0.341930
 30
0.000000
  0
VERTEX
  8
LAYER-1
 10
1.749788
 20
0.341930
 30
0.000000
  0
VERTEX
  8
LAYER-1
 10
1.786691
 20
0.341929
 30
0.000000
  0
SEQEND
  8
LAYER-1
  0
POLYLINE
  8
LAYER-1
 66
  1
 70
  1
 62
  0
  0
VERTEX
  8
LAYER-1
 10
3.645717
 20
7.467627
 30
0.000000
  0
VERTEX
  8
LAYER-1
 10
3.814600
 20
7.467627
 30
0.000000
  0
VERTEX
  8
LAYER-1
 10
3.814600
 20
0.341376
 30
0.000000
  0
VERTEX
  8
LAYER-1
 10
3.645717
 20
0.341376
 30
0.000000
  0
SEQEND
  8
LAYER-1
  0
CIRCLE
  8
LAYER-1
 62
  0
 10
3.730364
 20
3.177629
 30
0.000000
 40
0.064283
  0
POLYLINE
  8
LAYER-1
 66
  1
 70
  0
 62
  0
 10
3.688018
 20
2.119991
 30
0.000000
  0
VERTEX
  8
LAYER-1
 10
3.688018
 20
2.119991
 30
0.000000
  0
VERTEX
  8
LAYER-1
 10
3.688019
 20
2.119991
 30
0.000000
  0
SEQEND
  8
LAYER-1
  0
POLYLINE
  8
LAYER-1
 66
  1
 70
  0
 62
  0
 10
3.695983
 20
2.112027
 30
0.000000
  0
VERTEX
  8
LAYER-1
 10
3.695983
 20
2.112027
 30
0.000000
  0
VERTEX
  8
LAYER-1
 10
3.695983
 20
1.862484
 30
0.000000
  0
SEQEND
  8
LAYER-1
  0
POLYLINE
  8
LAYER-1
 66
  1
 70
  0
 62
  0
 10
3.688019
 20
1.854520
 30
0.000000
  0
VERTEX
  8
LAYER-1
 10
3.688019
 20
1.854520
 30
0.000000
  0
VERTEX
  8
LAYER-1
 10
3.688018
 20
1.854520
 30
0.000000
  0
SEQEND
  8
LAYER-1
  0
POLYLINE
  8
LAYER-1
 66
  1
 70
  0
 62
  0
 10
3.680053
 20
1.862484
 30
0.000000
  0
VERTEX
  8
LAYER-1
 10
3.680053
 20
1.862484
 30
0.000000
  0
VERTEX
  8
LAYER-1
 10
3.680053
 20
2.112027
 30
0.000000
  0
SEQEND
  8
LAYER-1
  0
ARC
  8
LAYER-1
 62
  0
 10
3.688018
 20
2.112027
 30
0.000000
 40
0.007964
 50
270.000000
 51
0.000000
  0
ARC
  8
LAYER-1
 62
  0
 10
3.688018
 20
1.862484
 30
0.000000
 40
0.007964
 50
0.000000
 51
90.000000
  0
ARC
  8
LAYER-1
 62
  0
 10
3.688019
 20
1.862484
 30
0.000000
 40
0.007964
 50
90.000000
 51
180.000000
  0
ARC
  8
LAYER-1
 62
  0
 10
3.688019
 20
2.112027
 30
0.000000
 40
0.007964
 50
180.000000
 51
270.000000
  0
CIRCLE
  8
LAYER-1
 62
  7
 10
3.730364
 20
3.177388
 30
0.000000
 40
0.047124
  0
CIRCLE
  8
LAYER-1
 62
  0
 10
3.730364
 20
3.177388
 30
0.000000
 40
0.042287
  0
CIRCLE
  8
LAYER-1
 62
  0
 10
3.730364
 20
3.160592
 30
0.000000
 40
0.018794
  0
CIRCLE
  8
LAYER-1
 62
  0
 10
3.730364
 20
3.152557
 30
0.000000
 40
0.008035
  0
TEXT
  8
LAYER-1
 62
  0
 10
3.694778
 20
3.180333
 30
0.000000
 40
0.010417
  1
MobilFlex
 72
  5
 11
3.847556
 21
3.180333
 31
0.000000
  0
POLYLINE
  8
LAYER-1
 66
  1
 70
  1
 62
  0
 10
3.726740
 20
3.142346
 30
0.000000
  0
VERTEX
  8
LAYER-1
 10
3.726740
 20
3.142346
 30
0.000000
  0
VERTEX
  8
LAYER-1
 10
3.726740
 20
3.151047
 30
0.000000
  0
VERTEX
  8
LAYER-1
 10
3.730122
 20
3.151047
 30
0.000000
  0
VERTEX
  8
LAYER-1
 10
3.730122
 20
3.154430
 30
0.000000
  0
VERTEX
  8
LAYER-1
 10
3.726498
 20
3.158055
 30
0.000000
  0
VERTEX
  8
LAYER-1
 10
3.726498
 20
3.160471
 30
0.000000
  0
VERTEX
  8
LAYER-1
 10
3.728915
 20
3.167721
 30
0.000000
  0
VERTEX
  8
LAYER-1
 10
3.732056
 20
3.167721
 30
0.000000
  0
VERTEX
  8
LAYER-1
 10
3.731331
 20
3.162404
 30
0.000000
  0
VERTEX
  8
LAYER-1
 10
3.731574
 20
3.160471
 30
0.000000
  0
VERTEX
  8
LAYER-1
 10
3.733023
 20
3.160471
 30
0.000000
  0
VERTEX
  8
LAYER-1
 10
3.733023
 20
3.148147
 30
0.000000
  0
VERTEX
  8
LAYER-1
 10
3.730364
 20
3.146938
 30
0.000000
  0
VERTEX
  8
LAYER-1
 10
3.730364
 20
3.144521
 30
0.000000
  0
VERTEX
  8
LAYER-1
 10
3.733023
 20
3.144038
 30
0.000000
  0
VERTEX
  8
LAYER-1
 10
3.733023
 20
3.142346
 30
0.000000
  0
SEQEND
  8
LAYER-1
  0
CIRCLE
  8
LAYER-1
 62
  0
 10
3.688351
 20
1.857172
 30
0.000000
 40
0.022565
  0
CIRCLE
  8
LAYER-1
 62
  0
 10
3.688351
 20
1.857172
 30
0.000000
 40
0.016522
  0
CIRCLE
  8
LAYER-1
 62
  0
 10
3.688351
 20
1.857172
 30
0.000000
 40
0.013746
  0
CIRCLE
  8
LAYER-1
 62
  0
 10
3.688351
 20
1.857172
 30
0.000000
 40
0.008860
  0
LINE
  8
LAYER-1
 62
  0
 10
6.732972
 20
7.535055
 30
0.000000
 11
0.739917
 21
7.535055
 31
0.000000
  0
LINE
  8
LAYER-1
 62
  0
 10
6.732972
 20
7.645054
 30
0.000000
 11
0.739917
 21
7.645054
 31
0.000000
  0
LINE
  8
LAYER-1
 62
  0
 10
1.292000
 20
7.534933
 30
0.000000
 11
1.292000
 21
7.645176
 31
0.000000
  0
LINE
  8
LAYER-1
 62
  0
 10
1.226462
 20
7.534933
 30
0.000000
 11
1.417000
 21
7.534933
 31
0.000000
  0
LINE
  8
LAYER-1
 62
  0
 10
1.228632
 20
7.645176
 30
0.000000
 11
1.417000
 21
7.645176
 31
0.000000
  0
LINE
  8
LAYER-1
 62
  0
 10
1.292000
 20
7.645176
 30
0.000000
 11
1.292000
 21
7.277555
 31
0.000000
  0
LINE
  8
LAYER-1
 62
  0
 10
1.262538
 20
7.564396
 30
0.000000
 11
1.321463
 21
7.505470
 31
0.000000
  0
LINE
  8
LAYER-1
 62
  0
 10
1.262538
 20
7.674639
 30
0.000000
 11
1.321463
 21
7.615713
 31
0.000000
  0
TEXT
  8
LAYER-1
 62
  0
 10
1.281939
 20
7.151680
 30
0.000000
 40
0.125000
  1
 
  0
POLYLINE
  8
LAYER-1
 66
  1
 70
  1
 62
  0
  0
VERTEX
  8
LAYER-1
 10
3.753484
 20
7.533051
 30
0.000000
  0
VERTEX
  8
LAYER-1
 10
3.778579
 20
7.533051
 30
0.000000
  0
VERTEX
  8
LAYER-1
 10
3.778579
 20
7.467601
 30
0.000000
  0
VERTEX
  8
LAYER-1
 10
3.753484
 20
7.467601
 30
0.000000
  0
SEQEND
  8
LAYER-1
  0
POLYLINE
  8
LAYER-1
 66
  1
 70
  1
 62
  0
  0
VERTEX
  8
LAYER-1
 10
4.636789
 20
7.533393
 30
0.000000
  0
VERTEX
  8
LAYER-1
 10
4.661885
 20
7.533393
 30
0.000000
  0
VERTEX
  8
LAYER-1
 10
4.661885
 20
7.467473
 30
0.000000
  0
VERTEX
  8
LAYER-1
 10
4.636789
 20
7.467473
 30
0.000000
  0
SEQEND
  8
LAYER-1
  0
POLYLINE
  8
LAYER-1
 66
  1
 70
  1
 62
  0
  0
VERTEX
  8
LAYER-1
 10
5.453760
 20
7.533394
 30
0.000000
  0
VERTEX
  8
LAYER-1
 10
5.478856
 20
7.533394
 30
0.000000
  0
VERTEX
  8
LAYER-1
 10
5.478856
 20
7.467473
 30
0.000000
  0
VERTEX
  8
LAYER-1
 10
5.453760
 20
7.467473
 30
0.000000
  0
SEQEND
  8
LAYER-1
  0
POLYLINE
  8
LAYER-1
 66
  1
 70
  1
 62
  0
  0
VERTEX
  8
LAYER-1
 10
3.674922
 20
0.341504
 30
0.000000
  0
VERTEX
  8
LAYER-1
 10
3.708479
 20
0.341504
 30
0.000000
  0
VERTEX
  8
LAYER-1
 10
3.708479
 20
0.246866
 30
0.000000
  0
VERTEX
  8
LAYER-1
 10
3.674922
 20
0.246866
 30
0.000000
  0
SEQEND
  8
LAYER-1
  0
POLYLINE
  8
LAYER-1
 66
  1
 70
  1
 62
  0
  0
VERTEX
  8
LAYER-1
 10
2.798254
 20
7.533097
 30
0.000000
  0
VERTEX
  8
LAYER-1
 10
2.823350
 20
7.533097
 30
0.000000
  0
VERTEX
  8
LAYER-1
 10
2.823350
 20
7.468116
 30
0.000000
  0
VERTEX
  8
LAYER-1
 10
2.798254
 20
7.468116
 30
0.000000
  0
SEQEND
  8
LAYER-1
  0
POLYLINE
  8
LAYER-1
 66
  1
 70
  1
 62
  0
  0
VERTEX
  8
LAYER-1
 10
1.980415
 20
7.533097
 30
0.000000
  0
VERTEX
  8
LAYER-1
 10
2.005511
 20
7.533097
 30
0.000000
  0
VERTEX
  8
LAYER-1
 10
2.005511
 20
7.468116
 30
0.000000
  0
VERTEX
  8
LAYER-1
 10
1.980415
 20
7.468116
 30
0.000000
  0
SEQEND
  8
LAYER-1
  0
POLYLINE
  8
LAYER-1
 66
  1
 70
  0
 62
  0
 10
3.645018
 20
0.239206
 30
0.000000
  0
VERTEX
  8
LAYER-1
 10
3.645018
 20
0.239206
 30
0.000000
  0
VERTEX
  8
LAYER-1
 10
3.657796
 20
0.246770
 30
0.000000
  0
SEQEND
  8
LAYER-1
  0
POLYLINE
  8
LAYER-1
 66
  1
 70
  0
 62
  0
 10
3.645018
 20
0.239206
 30
0.000000
  0
VERTEX
  8
LAYER-1
 10
3.645018
 20
0.239206
 30
0.000000
  0
VERTEX
  8
LAYER-1
 10
3.645018
 20
0.237641
 30
0.000000
  0
SEQEND
  8
LAYER-1
  0
POLYLINE
  8
LAYER-1
 66
  1
 70
  1
 62
  0
  0
VERTEX
  8
LAYER-1
 10
3.663461
 20
0.237628
 30
0.000000
  0
VERTEX
  8
LAYER-1
 10
3.720048
 20
0.237628
 30
0.000000
  0
VERTEX
  8
LAYER-1
 10
3.720048
 20
0.049964
 30
0.000000
  0
VERTEX
  8
LAYER-1
 10
3.663461
 20
0.049964
 30
0.000000
  0
SEQEND
  8
LAYER-1
  0
POLYLINE
  8
LAYER-1
  6
LTYPE01
 66
  1
 70
  1
 62
  0
  0
VERTEX
  8
LAYER-1
  6
LTYPE01
 10
3.668155
 20
0.246753
 30
0.000000
  0
VERTEX
  8
LAYER-1
  6
LTYPE01
 10
3.715095
 20
0.246753
 30
0.000000
  0
VERTEX
  8
LAYER-1
  6
LTYPE01
 10
3.715095
 20
0.059525
 30
0.000000
  0
VERTEX
  8
LAYER-1
  6
LTYPE01
 10
3.668155
 20
0.059525
 30
0.000000
  0
SEQEND
  8
LAYER-1
  0
POLYLINE
  8
LAYER-1
 66
  1
 70
  0
 62
  0
 10
3.645018
 20
0.237641
 30
0.000000
  0
VERTEX
  8
LAYER-1
 10
3.645018
 20
0.237641
 30
0.000000
  0
VERTEX
  8
LAYER-1
 10
3.738635
 20
0.237641
 30
0.000000
  0
SEQEND
  8
LAYER-1
  0
POLYLINE
  8
LAYER-1
 66
  1
 70
  0
 62
  0
 10
3.738635
 20
0.237641
 30
0.000000
  0
VERTEX
  8
LAYER-1
 10
3.738635
 20
0.237641
 30
0.000000
  0
VERTEX
  8
LAYER-1
 10
3.738635
 20
0.239206
 30
0.000000
  0
SEQEND
  8
LAYER-1
  0
POLYLINE
  8
LAYER-1
 66
  1
 70
  0
 62
  0
 10
3.738635
 20
0.239206
 30
0.000000
  0
VERTEX
  8
LAYER-1
 10
3.738635
 20
0.239206
 30
0.000000
  0
VERTEX
  8
LAYER-1
 10
3.725596
 20
0.246770
 30
0.000000
  0
SEQEND
  8
LAYER-1
  0
POLYLINE
  8
LAYER-1
  6
LTYPE02
 66
  1
 70
  0
 62
  0
  6
LTYPE02
 10
3.669400
 20
0.145983
 30
0.000000
  0
VERTEX
  8
LAYER-1
  6
LTYPE02
 10
3.669400
 20
0.145983
 30
0.000000
  0
VERTEX
  8
LAYER-1
  6
LTYPE02
 10
3.669400
 20
0.112084
 30
0.000000
  0
SEQEND
  8
LAYER-1
  0
POLYLINE
  8
LAYER-1
  6
LTYPE02
 66
  1
 70
  0
 62
  0
  6
LTYPE02
 10
3.673308
 20
0.145983
 30
0.000000
  0
VERTEX
  8
LAYER-1
  6
LTYPE02
 10
3.673308
 20
0.145983
 30
0.000000
  0
VERTEX
  8
LAYER-1
  6
LTYPE02
 10
3.669400
 20
0.145983
 30
0.000000
  0
SEQEND
  8
LAYER-1
  0
POLYLINE
  8
LAYER-1
  6
LTYPE02
 66
  1
 70
  0
 62
  0
  6
LTYPE02
 10
3.673308
 20
0.145983
 30
0.000000
  0
VERTEX
  8
LAYER-1
  6
LTYPE02
 10
3.673308
 20
0.145983
 30
0.000000
  0
VERTEX
  8
LAYER-1
  6
LTYPE02
 10
3.673308
 20
0.150416
 30
0.000000
  0
SEQEND
  8
LAYER-1
  0
POLYLINE
  8
LAYER-1
  6
LTYPE02
 66
  1
 70
  0
 62
  0
  6
LTYPE02
 10
3.673308
 20
0.150416
 30
0.000000
  0
VERTEX
  8
LAYER-1
  6
LTYPE02
 10
3.673308
 20
0.150416
 30
0.000000
  0
VERTEX
  8
LAYER-1
  6
LTYPE02
 10
3.710568
 20
0.150416
 30
0.000000
  0
SEQEND
  8
LAYER-1
  0
POLYLINE
  8
LAYER-1
  6
LTYPE02
 66
  1
 70
  0
 62
  0
  6
LTYPE02
 10
3.669400
 20
0.112084
 30
0.000000
  0
VERTEX
  8
LAYER-1
  6
LTYPE02
 10
3.669400
 20
0.112084
 30
0.000000
  0
VERTEX
  8
LAYER-1
  6
LTYPE02
 10
3.713732
 20
0.112084
 30
0.000000
  0
SEQEND
  8
LAYER-1
  0
POLYLINE
  8
LAYER-1
  6
LTYPE02
 66
  1
 70
  0
 62
  0
  6
LTYPE02
 10
3.713732
 20
0.112084
 30
0.000000
  0
VERTEX
  8
LAYER-1
  6
LTYPE02
 10
3.713732
 20
0.112084
 30
0.000000
  0
VERTEX
  8
LAYER-1
  6
LTYPE02
 10
3.713732
 20
0.145983
 30
0.000000
  0
SEQEND
  8
LAYER-1
  0
POLYLINE
  8
LAYER-1
  6
LTYPE02
 66
  1
 70
  0
 62
  0
  6
LTYPE02
 10
3.710568
 20
0.145983
 30
0.000000
  0
VERTEX
  8
LAYER-1
  6
LTYPE02
 10
3.710568
 20
0.145983
 30
0.000000
  0
VERTEX
  8
LAYER-1
  6
LTYPE02
 10
3.713732
 20
0.145983
 30
0.000000
  0
SEQEND
  8
LAYER-1
  0
POLYLINE
  8
LAYER-1
  6
LTYPE02
 66
  1
 70
  0
 62
  0
  6
LTYPE02
 10
3.710568
 20
0.150416
 30
0.000000
  0
VERTEX
  8
LAYER-1
  6
LTYPE02
 10
3.710568
 20
0.150416
 30
0.000000
  0
VERTEX
  8
LAYER-1
  6
LTYPE02
 10
3.710568
 20
0.145983
 30
0.000000
  0
SEQEND
  8
LAYER-1
  0
POLYLINE
  8
LAYER-1
  6
LTYPE01
 66
  1
 70
  1
 62
  0
  0
VERTEX
  8
LAYER-1
  6
LTYPE01
 10
3.674538
 20
0.111938
 30
0.000000
  0
VERTEX
  8
LAYER-1
  6
LTYPE01
 10
3.708959
 20
0.111938
 30
0.000000
  0
VERTEX
  8
LAYER-1
  6
LTYPE01
 10
3.708959
 20
0.059785
 30
0.000000
  0
VERTEX
  8
LAYER-1
  6
LTYPE01
 10
3.674538
 20
0.059785
 30
0.000000
  0
SEQEND
  8
LAYER-1
  0
POLYLINE
  8
LAYER-1
  6
LTYPE02
 66
  1
 70
  0
 62
  0
  6
LTYPE02
 10
3.708959
 20
0.111938
 30
0.000000
  0
VERTEX
  8
LAYER-1
  6
LTYPE02
 10
3.708959
 20
0.111938
 30
0.000000
  0
VERTEX
  8
LAYER-1
  6
LTYPE02
 10
3.674538
 20
0.109070
 30
0.000000
  0
SEQEND
  8
LAYER-1
  0
POLYLINE
  8
LAYER-1
  6
LTYPE02
 66
  1
 70
  0
 62
  0
  6
LTYPE02
 10
3.708959
 20
0.110374
 30
0.000000
  0
VERTEX
  8
LAYER-1
  6
LTYPE02
 10
3.708959
 20
0.110374
 30
0.000000
  0
VERTEX
  8
LAYER-1
  6
LTYPE02
 10
3.674538
 20
0.107245
 30
0.000000
  0
SEQEND
  8
LAYER-1
  0
POLYLINE
  8
LAYER-1
  6
LTYPE02
 66
  1
 70
  0
 62
  0
  6
LTYPE02
 10
3.708959
 20
0.106984
 30
0.000000
  0
VERTEX
  8
LAYER-1
  6
LTYPE02
 10
3.708959
 20
0.106984
 30
0.000000
  0
VERTEX
  8
LAYER-1
  6
LTYPE02
 10
3.674538
 20
0.104114
 30
0.000000
  0
SEQEND
  8
LAYER-1
  0
POLYLINE
  8
LAYER-1
  6
LTYPE02
 66
  1
 70
  0
 62
  0
  6
LTYPE02
 10
3.708959
 20
0.105419
 30
0.000000
  0
VERTEX
  8
LAYER-1
  6
LTYPE02
 10
3.708959
 20
0.105419
 30
0.000000
  0
VERTEX
  8
LAYER-1
  6
LTYPE02
 10
3.674538
 20
0.102290
 30
0.000000
  0
SEQEND
  8
LAYER-1
  0
POLYLINE
  8
LAYER-1
  6
LTYPE02
 66
  1
 70
  0
 62
  0
  6
LTYPE02
 10
3.708959
 20
0.101835
 30
0.000000
  0
VERTEX
  8
LAYER-1
  6
LTYPE02
 10
3.708959
 20
0.101835
 30
0.000000
  0
VERTEX
  8
LAYER-1
  6
LTYPE02
 10
3.674538
 20
0.098965
 30
0.000000
  0
SEQEND
  8
LAYER-1
  0
POLYLINE
  8
LAYER-1
  6
LTYPE02
 66
  1
 70
  0
 62
  0
  6
LTYPE02
 10
3.708959
 20
0.100271
 30
0.000000
  0
VERTEX
  8
LAYER-1
  6
LTYPE02
 10
3.708959
 20
0.100271
 30
0.000000
  0
VERTEX
  8
LAYER-1
  6
LTYPE02
 10
3.674538
 20
0.097141
 30
0.000000
  0
SEQEND
  8
LAYER-1
  0
POLYLINE
  8
LAYER-1
  6
LTYPE02
 66
  1
 70
  0
 62
  0
  6
LTYPE02
 10
3.708895
 20
0.097335
 30
0.000000
  0
VERTEX
  8
LAYER-1
  6
LTYPE02
 10
3.708895
 20
0.097335
 30
0.000000
  0
VERTEX
  8
LAYER-1
  6
LTYPE02
 10
3.674472
 20
0.094468
 30
0.000000
  0
SEQEND
  8
LAYER-1
  0
POLYLINE
  8
LAYER-1
  6
LTYPE02
 66
  1
 70
  0
 62
  0
  6
LTYPE02
 10
3.708895
 20
0.095772
 30
0.000000
  0
VERTEX
  8
LAYER-1
  6
LTYPE02
 10
3.708895
 20
0.095772
 30
0.000000
  0
VERTEX
  8
LAYER-1
  6
LTYPE02
 10
3.674472
 20
0.092644
 30
0.000000
  0
SEQEND
  8
LAYER-1
  0
POLYLINE
  8
LAYER-1
  6
LTYPE02
 66
  1
 70
  0
 62
  0
  6
LTYPE02
 10
3.708895
 20
0.092513
 30
0.000000
  0
VERTEX
  8
LAYER-1
  6
LTYPE02
 10
3.708895
 20
0.092513
 30
0.000000
  0
VERTEX
  8
LAYER-1
  6
LTYPE02
 10
3.674472
 20
0.089645
 30
0.000000
  0
SEQEND
  8
LAYER-1
  0
POLYLINE
  8
LAYER-1
  6
LTYPE02
 66
  1
 70
  0
 62
  0
  6
LTYPE02
 10
3.708895
 20
0.090947
 30
0.000000
  0
VERTEX
  8
LAYER-1
  6
LTYPE02
 10
3.708895
 20
0.090947
 30
0.000000
  0
VERTEX
  8
LAYER-1
  6
LTYPE02
 10
3.674472
 20
0.087818
 30
0.000000
  0
SEQEND
  8
LAYER-1
  0
POLYLINE
  8
LAYER-1
  6
LTYPE02
 66
  1
 70
  0
 62
  0
  6
LTYPE02
 10
3.708895
 20
0.087556
 30
0.000000
  0
VERTEX
  8
LAYER-1
  6
LTYPE02
 10
3.708895
 20
0.087556
 30
0.000000
  0
VERTEX
  8
LAYER-1
  6
LTYPE02
 10
3.674472
 20
0.084688
 30
0.000000
  0
SEQEND
  8
LAYER-1
  0
POLYLINE
  8
LAYER-1
  6
LTYPE02
 66
  1
 70
  0
 62
  0
  6
LTYPE02
 10
3.708895
 20
0.085993
 30
0.000000
  0
VERTEX
  8
LAYER-1
  6
LTYPE02
 10
3.708895
 20
0.085993
 30
0.000000
  0
VERTEX
  8
LAYER-1
  6
LTYPE02
 10
3.674472
 20
0.082863
 30
0.000000
  0
SEQEND
  8
LAYER-1
  0
POLYLINE
  8
LAYER-1
  6
LTYPE02
 66
  1
 70
  0
 62
  0
  6
LTYPE02
 10
3.708895
 20
0.082407
 30
0.000000
  0
VERTEX
  8
LAYER-1
  6
LTYPE02
 10
3.708895
 20
0.082407
 30
0.000000
  0
VERTEX
  8
LAYER-1
  6
LTYPE02
 10
3.674472
 20
0.079538
 30
0.000000
  0
SEQEND
  8
LAYER-1
  0
POLYLINE
  8
LAYER-1
  6
LTYPE02
 66
  1
 70
  0
 62
  0
  6
LTYPE02
 10
3.708895
 20
0.080842
 30
0.000000
  0
VERTEX
  8
LAYER-1
  6
LTYPE02
 10
3.708895
 20
0.080842
 30
0.000000
  0
VERTEX
  8
LAYER-1
  6
LTYPE02
 10
3.674472
 20
0.077714
 30
0.000000
  0
SEQEND
  8
LAYER-1
  0
POLYLINE
  8
LAYER-1
  6
LTYPE02
 66
  1
 70
  0
 62
  0
  6
LTYPE02
 10
3.708829
 20
0.077908
 30
0.000000
  0
VERTEX
  8
LAYER-1
  6
LTYPE02
 10
3.708829
 20
0.077908
 30
0.000000
  0
VERTEX
  8
LAYER-1
  6
LTYPE02
 10
3.674408
 20
0.075040
 30
0.000000
  0
SEQEND
  8
LAYER-1
  0
POLYLINE
  8
LAYER-1
  6
LTYPE02
 66
  1
 70
  0
 62
  0
  6
LTYPE02
 10
3.708829
 20
0.076345
 30
0.000000
  0
VERTEX
  8
LAYER-1
  6
LTYPE02
 10
3.708829
 20
0.076345
 30
0.000000
  0
VERTEX
  8
LAYER-1
  6
LTYPE02
 10
3.674408
 20
0.073215
 30
0.000000
  0
SEQEND
  8
LAYER-1
  0
POLYLINE
  8
LAYER-1
  6
LTYPE02
 66
  1
 70
  0
 62
  0
  6
LTYPE02
 10
3.708959
 20
0.073541
 30
0.000000
  0
VERTEX
  8
LAYER-1
  6
LTYPE02
 10
3.708959
 20
0.073541
 30
0.000000
  0
VERTEX
  8
LAYER-1
  6
LTYPE02
 10
3.674538
 20
0.070673
 30
0.000000
  0
SEQEND
  8
LAYER-1
  0
POLYLINE
  8
LAYER-1
  6
LTYPE02
 66
  1
 70
  0
 62
  0
  6
LTYPE02
 10
3.708959
 20
0.071977
 30
0.000000
  0
VERTEX
  8
LAYER-1
  6
LTYPE02
 10
3.708959
 20
0.071977
 30
0.000000
  0
VERTEX
  8
LAYER-1
  6
LTYPE02
 10
3.674538
 20
0.068848
 30
0.000000
  0
SEQEND
  8
LAYER-1
  0
POLYLINE
  8
LAYER-1
  6
LTYPE02
 66
  1
 70
  0
 62
  0
  6
LTYPE02
 10
3.708959
 20
0.068587
 30
0.000000
  0
VERTEX
  8
LAYER-1
  6
LTYPE02
 10
3.708959
 20
0.068587
 30
0.000000
  0
VERTEX
  8
LAYER-1
  6
LTYPE02
 10
3.674538
 20
0.065719
 30
0.000000
  0
SEQEND
  8
LAYER-1
  0
POLYLINE
  8
LAYER-1
  6
LTYPE02
 66
  1
 70
  0
 62
  0
  6
LTYPE02
 10
3.708959
 20
0.067023
 30
0.000000
  0
VERTEX
  8
LAYER-1
  6
LTYPE02
 10
3.708959
 20
0.067023
 30
0.000000
  0
VERTEX
  8
LAYER-1
  6
LTYPE02
 10
3.674538
 20
0.063893
 30
0.000000
  0
SEQEND
  8
LAYER-1
  0
POLYLINE
  8
LAYER-1
  6
LTYPE02
 66
  1
 70
  0
 62
  0
  6
LTYPE02
 10
3.708959
 20
0.063436
 30
0.000000
  0
VERTEX
  8
LAYER-1
  6
LTYPE02
 10
3.708959
 20
0.063436
 30
0.000000
  0
VERTEX
  8
LAYER-1
  6
LTYPE02
 10
3.674538
 20
0.060567
 30
0.000000
  0
SEQEND
  8
LAYER-1
  0
POLYLINE
  8
LAYER-1
  6
LTYPE02
 66
  1
 70
  0
 62
  0
  6
LTYPE02
 10
3.708959
 20
0.061872
 30
0.000000
  0
VERTEX
  8
LAYER-1
  6
LTYPE02
 10
3.708959
 20
0.061872
 30
0.000000
  0
VERTEX
  8
LAYER-1
  6
LTYPE02
 10
3.685946
 20
0.059785
 30
0.000000
  0
SEQEND
  8
LAYER-1
  0
POLYLINE
  8
LAYER-1
  6
LTYPE02
 66
  1
 70
  0
 62
  0
  6
LTYPE02
 10
3.675529
 20
0.171149
 30
0.000000
  0
VERTEX
  8
LAYER-1
  6
LTYPE02
 10
3.675529
 20
0.171149
 30
0.000000
  0
VERTEX
  8
LAYER-1
  6
LTYPE02
 10
3.675529
 20
0.246770
 30
0.000000
  0
SEQEND
  8
LAYER-1
  0
POLYLINE
  8
LAYER-1
  6
LTYPE02
 66
  1
 70
  0
 62
  0
  6
LTYPE02
 10
3.707863
 20
0.171149
 30
0.000000
  0
VERTEX
  8
LAYER-1
  6
LTYPE02
 10
3.707863
 20
0.171149
 30
0.000000
  0
VERTEX
  8
LAYER-1
  6
LTYPE02
 10
3.707863
 20
0.246770
 30
0.000000
  0
SEQEND
  8
LAYER-1
  0
POLYLINE
  8
LAYER-1
  6
LTYPE01
 66
  1
 70
  0
 62
  0
  6
LTYPE01
 10
3.675529
 20
0.171149
 30
0.000000
  0
VERTEX
  8
LAYER-1
  6
LTYPE01
 10
3.675529
 20
0.171149
 30
0.000000
  0
VERTEX
  8
LAYER-1
  6
LTYPE01
 10
3.678295
 20
0.161685
 30
0.000000
  0
VERTEX
  8
LAYER-1
  6
LTYPE01
 10
3.689728
 20
0.156949
 30
0.000000
  0
VERTEX
  8
LAYER-1
  6
LTYPE01
 10
3.701160
 20
0.161685
 30
0.000000
  0
VERTEX
  8
LAYER-1
  6
LTYPE01
 10
3.707864
 20
0.171149
 30
0.000000
  0
SEQEND
  8
LAYER-1
  0
POLYLINE
  8
LAYER-1
 66
  1
 70
  0
 62
  0
 10
3.657796
 20
0.246770
 30
0.000000
  0
VERTEX
  8
LAYER-1
 10
3.657796
 20
0.246770
 30
0.000000
  0
VERTEX
  8
LAYER-1
 10
3.725596
 20
0.246770
 30
0.000000
  0
SEQEND
  8
LAYER-1
  0
TEXT
  8
LAYER-1
 62
  7
 10
1.972556
 20
8.846999
 30
0.000000
 40
0.187500
  1
Elevaci—n modelo Concept 99
 72
  5
 11
5.583667
 21
8.846999
 31
0.000000
  0
TEXT
  8
LAYER-1
 62
  0
 10
1.042000
 20
6.902555
 30
0.000000
 40
0.125000
  1
1-
 72
  5
 11
1.264222
 21
6.902555
 31
0.000000
  0
TEXT
  8
LAYER-1
 62
  0
 10
1.264222
 20
6.902555
 30
0.000000
 40
0.104167
  1
9/16
 72
  5
 11
1.625334
 21
6.902555
 31
0.000000
  0
TEXT
  8
LAYER-1
 62
  0
 10
1.625334
 20
6.902555
 30
0.000000
 40
0.125000
  1
"
 72
  5
 11
1.750334
 21
6.902555
 31
0.000000
  0
TEXT
  8
LAYER-1
 62
  0
 10
1.042000
 20
6.708110
 30
0.000000
 40
0.125000
  1
40mm
 72
  5
 11
1.611445
 21
6.708110
 31
0.000000
  0
TEXT
  8
LAYER-1
 62
  0
 10
2.236445
 20
7.971999
 30
0.000000
 40
0.125000
  1
Componente
 72
  5
 11
3.305889
 21
7.971999
 31
0.000000
  0
TEXT
  8
LAYER-1
 62
  0
 10
2.236445
 20
7.777555
 30
0.000000
 40
0.125000
  1
intermediario #3
 72
  5
 11
3.555889
 21
7.777555
 31
0.000000
  0
POLYLINE
  8
LAYER-1
 66
  1
 70
  0
 62
  0
 10
3.479500
 20
7.798388
 30
0.000000
  0
VERTEX
  8
LAYER-1
 10
3.479500
 20
7.798388
 30
0.000000
  0
VERTEX
  8
LAYER-1
 10
3.720577
 20
7.483293
 30
0.000000
  0
SEQEND
  8
LAYER-1
  0
POLYLINE
  8
LAYER-1
 66
  1
 70
  1
 62
  0
  0
VERTEX
  8
LAYER-1
 10
3.732538
 20
7.467659
 30
0.000000
  0
VERTEX
  8
LAYER-1
 10
3.657248
 20
7.497494
 30
0.000000
  0
VERTEX
  8
LAYER-1
 10
3.690340
 20
7.522812
 30
0.000000
  0
VERTEX
  8
LAYER-1
 10
3.723432
 20
7.548131
 30
0.000000
  0
VERTEX
  8
LAYER-1
 10
3.732538
 20
7.467659
 30
0.000000
  0
SEQEND
  8
LAYER-1
  0
LINE
  8
LAYER-1
 62
  0
 10
5.837137
 20
5.546482
 30
0.000000
 11
5.837137
 21
6.162857
 31
0.000000
  0
LINE
  8
LAYER-1
 62
  0
 10
5.752939
 20
5.546482
 30
0.000000
 11
5.962137
 21
5.546482
 31
0.000000
  0
LINE
  8
LAYER-1
 62
  0
 10
5.752836
 20
6.162857
 30
0.000000
 11
5.962137
 21
6.162857
 31
0.000000
  0
LINE
  8
LAYER-1
 62
  0
 10
5.837137
 20
6.055333
 30
0.000000
 11
5.837137
 21
5.546482
 31
0.000000
  0
LINE
  8
LAYER-1
 62
  0
 10
5.807674
 20
5.575945
 30
0.000000
 11
5.866600
 21
5.517018
 31
0.000000
  0
LINE
  8
LAYER-1
 62
  0
 10
5.807674
 20
6.192320
 30
0.000000
 11
5.866600
 21
6.133394
 31
0.000000
  0
TEXT
  8
LAYER-1
 62
  0
 10
5.995164
 20
5.811486
 30
0.000000
 40
0.125000
  1
     
 50
90.000000
  0
TEXT
  8
LAYER-1
 62
  0
 10
1.055889
 20
7.124777
 30
0.000000
 40
0.125000
  1
Rail
 72
  5
 11
1.430889
 21
7.124777
 31
0.000000
  0
POLYLINE
  8
LAYER-1
 66
  1
 70
  1
 62
  0
  0
VERTEX
  8
LAYER-1
 10
3.817180
 20
7.196307
 30
0.000000
  0
VERTEX
  8
LAYER-1
 10
3.853131
 20
7.196307
 30
0.000000
  0
VERTEX
  8
LAYER-1
 10
3.853131
 20
0.612622
 30
0.000000
  0
VERTEX
  8
LAYER-1
 10
3.817180
 20
0.612622
 30
0.000000
  0
SEQEND
  8
LAYER-1
  0
POLYLINE
  8
LAYER-1
 66
  1
 70
  1
 62
  0
  0
VERTEX
  8
LAYER-1
 10
4.225444
 20
7.196307
 30
0.000000
  0
VERTEX
  8
LAYER-1
 10
4.261395
 20
7.196307
 30
0.000000
  0
VERTEX
  8
LAYER-1
 10
4.261395
 20
0.612622
 30
0.000000
  0
VERTEX
  8
LAYER-1
 10
4.225444
 20
0.612622
 30
0.000000
  0
SEQEND
  8
LAYER-1
  0
POLYLINE
  8
LAYER-1
 66
  1
 70
  1
 62
  0
  0
VERTEX
  8
LAYER-1
 10
4.631972
 20
7.196307
 30
0.000000
  0
VERTEX
  8
LAYER-1
 10
4.667923
 20
7.196307
 30
0.000000
  0
VERTEX
  8
LAYER-1
 10
4.667923
 20
0.612622
 30
0.000000
  0
VERTEX
  8
LAYER-1
 10
4.631972
 20
0.612622
 30
0.000000
  0
SEQEND
  8
LAYER-1
  0
POLYLINE
  8
LAYER-1
 66
  1
 70
  1
 62
  0
  0
VERTEX
  8
LAYER-1
 10
5.040237
 20
7.196307
 30
0.000000
  0
VERTEX
  8
LAYER-1
 10
5.076188
 20
7.196307
 30
0.000000
  0
VERTEX
  8
LAYER-1
 10
5.076188
 20
0.612622
 30
0.000000
  0
VERTEX
  8
LAYER-1
 10
5.040237
 20
0.612622
 30
0.000000
  0
SEQEND
  8
LAYER-1
  0
POLYLINE
  8
LAYER-1
 66
  1
 70
  1
 62
  0
  0
VERTEX
  8
LAYER-1
 10
5.449803
 20
7.196307
 30
0.000000
  0
VERTEX
  8
LAYER-1
 10
5.485753
 20
7.196307
 30
0.000000
  0
VERTEX
  8
LAYER-1
 10
5.485753
 20
0.612622
 30
0.000000
  0
VERTEX
  8
LAYER-1
 10
5.449803
 20
0.612622
 30
0.000000
  0
SEQEND
  8
LAYER-1
  0
POLYLINE
  8
LAYER-1
 66
  1
 70
  1
 62
  0
 10
3.814614
 20
0.341817
 30
0.000000
  0
VERTEX
  8
LAYER-1
 10
3.814614
 20
0.341817
 30
0.000000
  0
VERTEX
  8
LAYER-1
 10
5.710531
 20
0.341919
 30
0.000000
  0
VERTEX
  8
LAYER-1
 10
5.710531
 20
0.613452
 30
0.000000
  0
VERTEX
  8
LAYER-1
 10
3.814614
 20
0.613569
 30
0.000000
  0
SEQEND
  8
LAYER-1
  0
POLYLINE
  8
LAYER-1
 66
  1
 70
  0
 62
  0
 10
3.814395
 20
0.409725
 30
0.000000
  0
VERTEX
  8
LAYER-1
 10
3.814395
 20
0.409725
 30
0.000000
  0
VERTEX
  8
LAYER-1
 10
3.854121
 20
0.409725
 30
0.000000
  0
SEQEND
  8
LAYER-1
  0
POLYLINE
  8
LAYER-1
 66
  1
 70
  0
 62
  0
 10
3.814395
 20
0.539635
 30
0.000000
  0
VERTEX
  8
LAYER-1
 10
3.814395
 20
0.539635
 30
0.000000
  0
VERTEX
  8
LAYER-1
 10
3.854121
 20
0.539635
 30
0.000000
  0
SEQEND
  8
LAYER-1
  0
POLYLINE
  8
LAYER-1
 66
  1
 70
  0
 62
  0
 10
3.815847
 20
0.336671
 30
0.000000
  0
VERTEX
  8
LAYER-1
 10
3.815847
 20
0.336671
 30
0.000000
  0
VERTEX
  8
LAYER-1
 10
3.829018
 20
0.329626
 30
0.000000
  0
VERTEX
  8
LAYER-1
 10
3.846097
 20
0.333957
 30
0.000000
  0
VERTEX
  8
LAYER-1
 10
3.852750
 20
0.336672
 30
0.000000
  0
SEQEND
  8
LAYER-1
  0
POLYLINE
  8
LAYER-1
 66
  1
 70
  1
 62
  0
  0
VERTEX
  8
LAYER-1
 10
3.863259
 20
0.336050
 30
0.000000
  0
VERTEX
  8
LAYER-1
 10
3.808644
 20
0.336050
 30
0.000000
  0
VERTEX
  8
LAYER-1
 10
3.808644
 20
0.341955
 30
0.000000
  0
VERTEX
  8
LAYER-1
 10
3.863259
 20
0.341955
 30
0.000000
  0
SEQEND
  8
LAYER-1
  0
POLYLINE
  8
LAYER-1
 66
  1
 70
  1
 62
  0
 10
3.814820
 20
7.467938
 30
0.000000
  0
VERTEX
  8
LAYER-1
 10
3.814820
 20
7.467938
 30
0.000000
  0
VERTEX
  8
LAYER-1
 10
5.711172
 20
7.467838
 30
0.000000
  0
VERTEX
  8
LAYER-1
 10
5.711172
 20
7.196304
 30
0.000000
  0
VERTEX
  8
LAYER-1
 10
3.814820
 20
7.196187
 30
0.000000
  0
SEQEND
  8
LAYER-1
  0
POLYLINE
  8
LAYER-1
 66
  1
 70
  0
 62
  0
 10
4.076110
 20
7.467938
 30
0.000000
  0
VERTEX
  8
LAYER-1
 10
4.076110
 20
7.467938
 30
0.000000
  0
VERTEX
  8
LAYER-1
 10
4.076110
 20
7.196306
 30
0.000000
  0
SEQEND
  8
LAYER-1
  0
POLYLINE
  8
LAYER-1
 66
  1
 70
  0
 62
  0
 10
4.406606
 20
7.196306
 30
0.000000
  0
VERTEX
  8
LAYER-1
 10
4.406606
 20
7.196306
 30
0.000000
  0
VERTEX
  8
LAYER-1
 10
4.406606
 20
7.467938
 30
0.000000
  0
SEQEND
  8
LAYER-1
  0
POLYLINE
  8
LAYER-1
 66
  1
 70
  0
 62
  0
 10
5.219438
 20
7.196306
 30
0.000000
  0
VERTEX
  8
LAYER-1
 10
5.219438
 20
7.196306
 30
0.000000
  0
VERTEX
  8
LAYER-1
 10
5.219438
 20
7.467938
 30
0.000000
  0
SEQEND
  8
LAYER-1
  0
POLYLINE
  8
LAYER-1
 66
  1
 70
  0
 62
  0
 10
5.038270
 20
7.467977
 30
0.000000
  0
VERTEX
  8
LAYER-1
 10
5.038270
 20
7.467977
 30
0.000000
  0
VERTEX
  8
LAYER-1
 10
5.038270
 20
7.196348
 30
0.000000
  0
SEQEND
  8
LAYER-1
  0
POLYLINE
  8
LAYER-1
 66
  1
 70
  0
 62
  0
 10
5.078129
 20
7.467977
 30
0.000000
  0
VERTEX
  8
LAYER-1
 10
5.078129
 20
7.467977
 30
0.000000
  0
VERTEX
  8
LAYER-1
 10
5.078129
 20
7.196348
 30
0.000000
  0
SEQEND
  8
LAYER-1
  0
POLYLINE
  8
LAYER-1
 66
  1
 70
  0
 62
  0
 10
4.224252
 20
7.467977
 30
0.000000
  0
VERTEX
  8
LAYER-1
 10
4.224252
 20
7.467977
 30
0.000000
  0
VERTEX
  8
LAYER-1
 10
4.224252
 20
7.196348
 30
0.000000
  0
SEQEND
  8
LAYER-1
  0
POLYLINE
  8
LAYER-1
 66
  1
 70
  0
 62
  0
 10
4.263069
 20
7.467977
 30
0.000000
  0
VERTEX
  8
LAYER-1
 10
4.263069
 20
7.467977
 30
0.000000
  0
VERTEX
  8
LAYER-1
 10
4.263069
 20
7.196348
 30
0.000000
  0
SEQEND
  8
LAYER-1
  0
POLYLINE
  8
LAYER-1
 66
  1
 70
  0
 62
  0
 10
4.490928
 20
7.467938
 30
0.000000
  0
VERTEX
  8
LAYER-1
 10
4.490928
 20
7.467938
 30
0.000000
  0
VERTEX
  8
LAYER-1
 10
4.490928
 20
7.196306
 30
0.000000
  0
SEQEND
  8
LAYER-1
  0
POLYLINE
  8
LAYER-1
 66
  1
 70
  0
 62
  0
 10
5.303760
 20
7.467938
 30
0.000000
  0
VERTEX
  8
LAYER-1
 10
5.303760
 20
7.467938
 30
0.000000
  0
VERTEX
  8
LAYER-1
 10
5.303760
 20
7.196306
 30
0.000000
  0
SEQEND
  8
LAYER-1
  0
POLYLINE
  8
LAYER-1
 66
  1
 70
  0
 62
  0
 10
5.448664
 20
7.467543
 30
0.000000
  0
VERTEX
  8
LAYER-1
 10
5.448664
 20
7.467543
 30
0.000000
  0
VERTEX
  8
LAYER-1
 10
5.448664
 20
7.195914
 30
0.000000
  0
SEQEND
  8
LAYER-1
  0
POLYLINE
  8
LAYER-1
 66
  1
 70
  0
 62
  0
 10
5.487047
 20
7.467543
 30
0.000000
  0
VERTEX
  8
LAYER-1
 10
5.487047
 20
7.467543
 30
0.000000
  0
VERTEX
  8
LAYER-1
 10
5.487047
 20
7.195914
 30
0.000000
  0
SEQEND
  8
LAYER-1
  0
POLYLINE
  8
LAYER-1
 66
  1
 70
  0
 62
  0
 10
4.630826
 20
7.468012
 30
0.000000
  0
VERTEX
  8
LAYER-1
 10
4.630826
 20
7.468012
 30
0.000000
  0
VERTEX
  8
LAYER-1
 10
4.630826
 20
7.196384
 30
0.000000
  0
SEQEND
  8
LAYER-1
  0
POLYLINE
  8
LAYER-1
 66
  1
 70
  0
 62
  0
 10
4.669209
 20
7.468012
 30
0.000000
  0
VERTEX
  8
LAYER-1
 10
4.669209
 20
7.468012
 30
0.000000
  0
VERTEX
  8
LAYER-1
 10
4.669209
 20
7.196384
 30
0.000000
  0
SEQEND
  8
LAYER-1
  0
POLYLINE
  8
LAYER-1
 66
  1
 70
  0
 62
  0
 10
4.003777
 20
7.196309
 30
0.000000
  0
VERTEX
  8
LAYER-1
 10
4.003777
 20
7.196309
 30
0.000000
  0
VERTEX
  8
LAYER-1
 10
4.003777
 20
7.467938
 30
0.000000
  0
SEQEND
  8
LAYER-1
  0
POLYLINE
  8
LAYER-1
 66
  1
 70
  0
 62
  0
 10
4.039206
 20
7.467938
 30
0.000000
  0
VERTEX
  8
LAYER-1
 10
4.039206
 20
7.467938
 30
0.000000
  0
VERTEX
  8
LAYER-1
 10
4.039206
 20
7.196308
 30
0.000000
  0
SEQEND
  8
LAYER-1
  0
POLYLINE
  8
LAYER-1
 66
  1
 70
  0
 62
  0
 10
4.038236
 20
7.467950
 30
0.000000
  0
VERTEX
  8
LAYER-1
 10
4.038236
 20
7.467950
 30
0.000000
  0
VERTEX
  8
LAYER-1
 10
4.024353
 20
7.478880
 30
0.000000
  0
VERTEX
  8
LAYER-1
 10
4.009591
 20
7.476791
 30
0.000000
  0
VERTEX
  8
LAYER-1
 10
4.004680
 20
7.467939
 30
0.000000
  0
SEQEND
  8
LAYER-1
  0
POLYLINE
  8
LAYER-1
 66
  1
 70
  0
 62
  0
 10
4.076108
 20
7.467938
 30
0.000000
  0
VERTEX
  8
LAYER-1
 10
4.076108
 20
7.467938
 30
0.000000
  0
VERTEX
  8
LAYER-1
 10
4.059002
 20
7.478922
 30
0.000000
  0
VERTEX
  8
LAYER-1
 10
4.041921
 20
7.474591
 30
0.000000
  0
VERTEX
  8
LAYER-1
 10
4.039206
 20
7.467939
 30
0.000000
  0
SEQEND
  8
LAYER-1
  0
POLYLINE
  8
LAYER-1
 66
  1
 70
  0
 62
  0
 10
4.491668
 20
7.467445
 30
0.000000
  0
VERTEX
  8
LAYER-1
 10
4.491668
 20
7.467445
 30
0.000000
  0
VERTEX
  8
LAYER-1
 10
4.472164
 20
7.477437
 30
0.000000
  0
VERTEX
  8
LAYER-1
 10
4.454090
 20
7.470712
 30
0.000000
  0
VERTEX
  8
LAYER-1
 10
4.454761
 20
7.467445
 30
0.000000
  0
SEQEND
  8
LAYER-1
  0
POLYLINE
  8
LAYER-1
 66
  1
 70
  0
 62
  0
 10
5.304626
 20
7.467914
 30
0.000000
  0
VERTEX
  8
LAYER-1
 10
5.304626
 20
7.467914
 30
0.000000
  0
VERTEX
  8
LAYER-1
 10
5.285122
 20
7.477907
 30
0.000000
  0
VERTEX
  8
LAYER-1
 10
5.267048
 20
7.471181
 30
0.000000
  0
VERTEX
  8
LAYER-1
 10
5.267718
 20
7.467915
 30
0.000000
  0
SEQEND
  8
LAYER-1
  0
POLYLINE
  8
LAYER-1
 66
  1
 70
  0
 62
  0
 10
4.443959
 20
7.467445
 30
0.000000
  0
VERTEX
  8
LAYER-1
 10
4.443959
 20
7.467445
 30
0.000000
  0
VERTEX
  8
LAYER-1
 10
4.424455
 20
7.477437
 30
0.000000
  0
VERTEX
  8
LAYER-1
 10
4.406381
 20
7.470712
 30
0.000000
  0
VERTEX
  8
LAYER-1
 10
4.407051
 20
7.467445
 30
0.000000
  0
SEQEND
  8
LAYER-1
  0
POLYLINE
  8
LAYER-1
 66
  1
 70
  0
 62
  0
 10
4.464422
 20
7.468004
 30
0.000000
  0
VERTEX
  8
LAYER-1
 10
4.464422
 20
7.468004
 30
0.000000
  0
VERTEX
  8
LAYER-1
 10
4.453670
 20
7.481010
 30
0.000000
  0
VERTEX
  8
LAYER-1
 10
4.439655
 20
7.482603
 30
0.000000
  0
VERTEX
  8
LAYER-1
 10
4.428618
 20
7.473819
 30
0.000000
  0
VERTEX
  8
LAYER-1
 10
4.428993
 20
7.468004
 30
0.000000
  0
SEQEND
  8
LAYER-1
  0
POLYLINE
  8
LAYER-1
 66
  1
 70
  0
 62
  0
 10
4.428994
 20
7.468004
 30
0.000000
  0
VERTEX
  8
LAYER-1
 10
4.428994
 20
7.468004
 30
0.000000
  0
VERTEX
  8
LAYER-1
 10
4.464422
 20
7.468004
 30
0.000000
  0
SEQEND
  8
LAYER-1
  0
POLYLINE
  8
LAYER-1
 66
  1
 70
  0
 62
  0
 10
5.255976
 20
7.467914
 30
0.000000
  0
VERTEX
  8
LAYER-1
 10
5.255976
 20
7.467914
 30
0.000000
  0
VERTEX
  8
LAYER-1
 10
5.236471
 20
7.477907
 30
0.000000
  0
VERTEX
  8
LAYER-1
 10
5.218398
 20
7.471181
 30
0.000000
  0
VERTEX
  8
LAYER-1
 10
5.219068
 20
7.467915
 30
0.000000
  0
SEQEND
  8
LAYER-1
  0
POLYLINE
  8
LAYER-1
 66
  1
 70
  0
 62
  0
 10
5.280670
 20
7.468004
 30
0.000000
  0
VERTEX
  8
LAYER-1
 10
5.280670
 20
7.468004
 30
0.000000
  0
VERTEX
  8
LAYER-1
 10
5.269917
 20
7.481010
 30
0.000000
  0
VERTEX
  8
LAYER-1
 10
5.255902
 20
7.482603
 30
0.000000
  0
VERTEX
  8
LAYER-1
 10
5.244865
 20
7.473819
 30
0.000000
  0
VERTEX
  8
LAYER-1
 10
5.245241
 20
7.468004
 30
0.000000
  0
SEQEND
  8
LAYER-1
  0
POLYLINE
  8
LAYER-1
 66
  1
 70
  0
 62
  0
 10
5.245241
 20
7.468004
 30
0.000000
  0
VERTEX
  8
LAYER-1
 10
5.245241
 20
7.468004
 30
0.000000
  0
VERTEX
  8
LAYER-1
 10
5.280669
 20
7.468004
 30
0.000000
  0
SEQEND
  8
LAYER-1
  0
POLYLINE
  8
LAYER-1
 66
  1
 70
  0
 62
  0
 10
4.004710
 20
7.196282
 30
0.000000
  0
VERTEX
  8
LAYER-1
 10
4.004710
 20
7.196282
 30
0.000000
  0
VERTEX
  8
LAYER-1
 10
4.014650
 20
7.189282
 30
0.000000
  0
VERTEX
  8
LAYER-1
 10
4.029413
 20
7.191360
 30
0.000000
  0
VERTEX
  8
LAYER-1
 10
4.037929
 20
7.195722
 30
0.000000
  0
SEQEND
  8
LAYER-1
  0
POLYLINE
  8
LAYER-1
 66
  1
 70
  0
 62
  0
 10
4.037929
 20
7.195722
 30
0.000000
  0
VERTEX
  8
LAYER-1
 10
4.037929
 20
7.195722
 30
0.000000
  0
VERTEX
  8
LAYER-1
 10
4.004710
 20
7.196282
 30
0.000000
  0
SEQEND
  8
LAYER-1
  0
POLYLINE
  8
LAYER-1
 66
  1
 70
  0
 62
  0
 10
4.040138
 20
7.196282
 30
0.000000
  0
VERTEX
  8
LAYER-1
 10
4.040138
 20
7.196282
 30
0.000000
  0
VERTEX
  8
LAYER-1
 10
4.053310
 20
7.189236
 30
0.000000
  0
VERTEX
  8
LAYER-1
 10
4.070390
 20
7.193568
 30
0.000000
  0
VERTEX
  8
LAYER-1
 10
4.077042
 20
7.196283
 30
0.000000
  0
SEQEND
  8
LAYER-1
  0
POLYLINE
  8
LAYER-1
 66
  1
 70
  0
 62
  0
 10
4.077041
 20
7.196283
 30
0.000000
  0
VERTEX
  8
LAYER-1
 10
4.077041
 20
7.196283
 30
0.000000
  0
VERTEX
  8
LAYER-1
 10
4.040139
 20
7.196282
 30
0.000000
  0
SEQEND
  8
LAYER-1
  0
POLYLINE
  8
LAYER-1
 66
  1
 70
  0
 62
  0
 10
4.406977
 20
7.195836
 30
0.000000
  0
VERTEX
  8
LAYER-1
 10
4.406977
 20
7.195836
 30
0.000000
  0
VERTEX
  8
LAYER-1
 10
4.422544
 20
7.189781
 30
0.000000
  0
VERTEX
  8
LAYER-1
 10
4.440618
 20
7.196507
 30
0.000000
  0
VERTEX
  8
LAYER-1
 10
4.443885
 20
7.195836
 30
0.000000
  0
SEQEND
  8
LAYER-1
  0
POLYLINE
  8
LAYER-1
 66
  1
 70
  0
 62
  0
 10
4.454217
 20
7.195836
 30
0.000000
  0
VERTEX
  8
LAYER-1
 10
4.454217
 20
7.195836
 30
0.000000
  0
VERTEX
  8
LAYER-1
 10
4.469785
 20
7.189781
 30
0.000000
  0
VERTEX
  8
LAYER-1
 10
4.487858
 20
7.196507
 30
0.000000
  0
VERTEX
  8
LAYER-1
 10
4.491125
 20
7.195836
 30
0.000000
  0
SEQEND
  8
LAYER-1
  0
POLYLINE
  8
LAYER-1
 66
  1
 70
  0
 62
  0
 10
4.428451
 20
7.195747
 30
0.000000
  0
VERTEX
  8
LAYER-1
 10
4.428451
 20
7.195747
 30
0.000000
  0
VERTEX
  8
LAYER-1
 10
4.435266
 20
7.186679
 30
0.000000
  0
VERTEX
  8
LAYER-1
 10
4.449281
 20
7.185086
 30
0.000000
  0
VERTEX
  8
LAYER-1
 10
4.460317
 20
7.193868
 30
0.000000
  0
VERTEX
  8
LAYER-1
 10
4.463880
 20
7.195747
 30
0.000000
  0
SEQEND
  8
LAYER-1
  0
POLYLINE
  8
LAYER-1
 66
  1
 70
  0
 62
  0
 10
4.428451
 20
7.195747
 30
0.000000
  0
VERTEX
  8
LAYER-1
 10
4.428451
 20
7.195747
 30
0.000000
  0
VERTEX
  8
LAYER-1
 10
4.463880
 20
7.195747
 30
0.000000
  0
SEQEND
  8
LAYER-1
  0
POLYLINE
  8
LAYER-1
 66
  1
 70
  0
 62
  0
 10
5.219532
 20
7.195836
 30
0.000000
  0
VERTEX
  8
LAYER-1
 10
5.219532
 20
7.195836
 30
0.000000
  0
VERTEX
  8
LAYER-1
 10
5.235099
 20
7.189781
 30
0.000000
  0
VERTEX
  8
LAYER-1
 10
5.253173
 20
7.196507
 30
0.000000
  0
VERTEX
  8
LAYER-1
 10
5.256440
 20
7.195836
 30
0.000000
  0
SEQEND
  8
LAYER-1
  0
POLYLINE
  8
LAYER-1
 66
  1
 70
  0
 62
  0
 10
5.267711
 20
7.195836
 30
0.000000
  0
VERTEX
  8
LAYER-1
 10
5.267711
 20
7.195836
 30
0.000000
  0
VERTEX
  8
LAYER-1
 10
5.283279
 20
7.189781
 30
0.000000
  0
VERTEX
  8
LAYER-1
 10
5.301352
 20
7.196507
 30
0.000000
  0
VERTEX
  8
LAYER-1
 10
5.304619
 20
7.195836
 30
0.000000
  0
SEQEND
  8
LAYER-1
  0
POLYLINE
  8
LAYER-1
 66
  1
 70
  0
 62
  0
 10
5.245234
 20
7.195747
 30
0.000000
  0
VERTEX
  8
LAYER-1
 10
5.245234
 20
7.195747
 30
0.000000
  0
VERTEX
  8
LAYER-1
 10
5.252049
 20
7.186679
 30
0.000000
  0
VERTEX
  8
LAYER-1
 10
5.266065
 20
7.185086
 30
0.000000
  0
VERTEX
  8
LAYER-1
 10
5.277101
 20
7.193868
 30
0.000000
  0
VERTEX
  8
LAYER-1
 10
5.280663
 20
7.195747
 30
0.000000
  0
SEQEND
  8
LAYER-1
  0
POLYLINE
  8
LAYER-1
 66
  1
 70
  0
 62
  0
 10
5.245235
 20
7.195747
 30
0.000000
  0
VERTEX
  8
LAYER-1
 10
5.245235
 20
7.195747
 30
0.000000
  0
VERTEX
  8
LAYER-1
 10
5.280663
 20
7.195747
 30
0.000000
  0
SEQEND
  8
LAYER-1
  0
POLYLINE
  8
LAYER-1
 66
  1
 70
  1
 62
  0
  0
VERTEX
  8
LAYER-1
 10
4.428994
 20
7.467938
 30
0.000000
  0
VERTEX
  8
LAYER-1
 10
4.464424
 20
7.467938
 30
0.000000
  0
VERTEX
  8
LAYER-1
 10
4.464424
 20
7.196309
 30
0.000000
  0
VERTEX
  8
LAYER-1
 10
4.428994
 20
7.196309
 30
0.000000
  0
SEQEND
  8
LAYER-1
  0
POLYLINE
  8
LAYER-1
 66
  1
 70
  1
 62
  0
  0
VERTEX
  8
LAYER-1
 10
5.245307
 20
7.467938
 30
0.000000
  0
VERTEX
  8
LAYER-1
 10
5.280737
 20
7.467938
 30
0.000000
  0
VERTEX
  8
LAYER-1
 10
5.280737
 20
7.196309
 30
0.000000
  0
VERTEX
  8
LAYER-1
 10
5.245307
 20
7.196309
 30
0.000000
  0
SEQEND
  8
LAYER-1
  0
POLYLINE
  8
LAYER-1
 66
  1
 70
  0
 62
  0
 10
4.428994
 20
7.400030
 30
0.000000
  0
VERTEX
  8
LAYER-1
 10
4.428994
 20
7.400030
 30
0.000000
  0
VERTEX
  8
LAYER-1
 10
4.464424
 20
7.400030
 30
0.000000
  0
SEQEND
  8
LAYER-1
  0
POLYLINE
  8
LAYER-1
 66
  1
 70
  0
 62
  0
 10
4.428994
 20
7.270121
 30
0.000000
  0
VERTEX
  8
LAYER-1
 10
4.428994
 20
7.270121
 30
0.000000
  0
VERTEX
  8
LAYER-1
 10
4.464424
 20
7.270121
 30
0.000000
  0
SEQEND
  8
LAYER-1
  0
POLYLINE
  8
LAYER-1
 66
  1
 70
  0
 62
  0
 10
5.245307
 20
7.400030
 30
0.000000
  0
VERTEX
  8
LAYER-1
 10
5.245307
 20
7.400030
 30
0.000000
  0
VERTEX
  8
LAYER-1
 10
5.280736
 20
7.400030
 30
0.000000
  0
SEQEND
  8
LAYER-1
  0
POLYLINE
  8
LAYER-1
 66
  1
 70
  0
 62
  0
 10
5.245307
 20
7.270121
 30
0.000000
  0
VERTEX
  8
LAYER-1
 10
5.245307
 20
7.270121
 30
0.000000
  0
VERTEX
  8
LAYER-1
 10
5.280736
 20
7.270121
 30
0.000000
  0
SEQEND
  8
LAYER-1
  0
POLYLINE
  8
LAYER-1
 66
  1
 70
  0
 62
  0
 10
4.259881
 20
7.468055
 30
0.000000
  0
VERTEX
  8
LAYER-1
 10
4.259881
 20
7.468055
 30
0.000000
  0
VERTEX
  8
LAYER-1
 10
4.245708
 20
7.478586
 30
0.000000
  0
VERTEX
  8
LAYER-1
 10
4.231024
 20
7.476011
 30
0.000000
  0
VERTEX
  8
LAYER-1
 10
4.226662
 20
7.467495
 30
0.000000
  0
SEQEND
  8
LAYER-1
  0
POLYLINE
  8
LAYER-1
 66
  1
 70
  0
 62
  0
 10
5.077059
 20
7.467876
 30
0.000000
  0
VERTEX
  8
LAYER-1
 10
5.077059
 20
7.467876
 30
0.000000
  0
VERTEX
  8
LAYER-1
 10
5.059951
 20
7.478860
 30
0.000000
  0
VERTEX
  8
LAYER-1
 10
5.042871
 20
7.474529
 30
0.000000
  0
VERTEX
  8
LAYER-1
 10
5.040156
 20
7.467877
 30
0.000000
  0
SEQEND
  8
LAYER-1
  0
POLYLINE
  8
LAYER-1
 66
  1
 70
  0
 62
  0
 10
4.819740
 20
7.196280
 30
0.000000
  0
VERTEX
  8
LAYER-1
 10
4.819740
 20
7.196280
 30
0.000000
  0
VERTEX
  8
LAYER-1
 10
4.829680
 20
7.189279
 30
0.000000
  0
VERTEX
  8
LAYER-1
 10
4.844443
 20
7.191357
 30
0.000000
  0
VERTEX
  8
LAYER-1
 10
4.852960
 20
7.195719
 30
0.000000
  0
SEQEND
  8
LAYER-1
  0
POLYLINE
  8
LAYER-1
 66
  1
 70
  0
 62
  0
 10
4.852960
 20
7.195719
 30
0.000000
  0
VERTEX
  8
LAYER-1
 10
4.852960
 20
7.195719
 30
0.000000
  0
VERTEX
  8
LAYER-1
 10
4.819740
 20
7.196280
 30
0.000000
  0
SEQEND
  8
LAYER-1
  0
POLYLINE
  8
LAYER-1
 66
  1
 70
  0
 62
  0
 10
4.855169
 20
7.196280
 30
0.000000
  0
VERTEX
  8
LAYER-1
 10
4.855169
 20
7.196280
 30
0.000000
  0
VERTEX
  8
LAYER-1
 10
4.868340
 20
7.189234
 30
0.000000
  0
VERTEX
  8
LAYER-1
 10
4.885420
 20
7.193565
 30
0.000000
  0
VERTEX
  8
LAYER-1
 10
4.892072
 20
7.196281
 30
0.000000
  0
SEQEND
  8
LAYER-1
  0
POLYLINE
  8
LAYER-1
 66
  1
 70
  0
 62
  0
 10
4.892072
 20
7.196281
 30
0.000000
  0
VERTEX
  8
LAYER-1
 10
4.892072
 20
7.196281
 30
0.000000
  0
VERTEX
  8
LAYER-1
 10
4.855170
 20
7.196280
 30
0.000000
  0
SEQEND
  8
LAYER-1
  0
POLYLINE
  8
LAYER-1
 66
  1
 70
  0
 62
  0
 10
4.890901
 20
7.467938
 30
0.000000
  0
VERTEX
  8
LAYER-1
 10
4.890901
 20
7.467938
 30
0.000000
  0
VERTEX
  8
LAYER-1
 10
4.890901
 20
7.196306
 30
0.000000
  0
SEQEND
  8
LAYER-1
  0
POLYLINE
  8
LAYER-1
 66
  1
 70
  0
 62
  0
 10
4.818567
 20
7.196309
 30
0.000000
  0
VERTEX
  8
LAYER-1
 10
4.818567
 20
7.196309
 30
0.000000
  0
VERTEX
  8
LAYER-1
 10
4.818567
 20
7.467938
 30
0.000000
  0
SEQEND
  8
LAYER-1
  0
POLYLINE
  8
LAYER-1
 66
  1
 70
  0
 62
  0
 10
4.853997
 20
7.467938
 30
0.000000
  0
VERTEX
  8
LAYER-1
 10
4.853997
 20
7.467938
 30
0.000000
  0
VERTEX
  8
LAYER-1
 10
4.853997
 20
7.196308
 30
0.000000
  0
SEQEND
  8
LAYER-1
  0
POLYLINE
  8
LAYER-1
 66
  1
 70
  0
 62
  0
 10
4.852091
 20
7.468357
 30
0.000000
  0
VERTEX
  8
LAYER-1
 10
4.852091
 20
7.468357
 30
0.000000
  0
VERTEX
  8
LAYER-1
 10
4.837919
 20
7.478889
 30
0.000000
  0
VERTEX
  8
LAYER-1
 10
4.823234
 20
7.476313
 30
0.000000
  0
VERTEX
  8
LAYER-1
 10
4.818872
 20
7.467797
 30
0.000000
  0
SEQEND
  8
LAYER-1
  0
POLYLINE
  8
LAYER-1
 66
  1
 70
  0
 62
  0
 10
4.852091
 20
7.468357
 30
0.000000
  0
VERTEX
  8
LAYER-1
 10
4.852091
 20
7.468357
 30
0.000000
  0
VERTEX
  8
LAYER-1
 10
4.818872
 20
7.467797
 30
0.000000
  0
SEQEND
  8
LAYER-1
  0
POLYLINE
  8
LAYER-1
 66
  1
 70
  0
 62
  0
 10
4.891204
 20
7.467795
 30
0.000000
  0
VERTEX
  8
LAYER-1
 10
4.891204
 20
7.467795
 30
0.000000
  0
VERTEX
  8
LAYER-1
 10
4.874095
 20
7.478780
 30
0.000000
  0
VERTEX
  8
LAYER-1
 10
4.857015
 20
7.474449
 30
0.000000
  0
VERTEX
  8
LAYER-1
 10
4.854300
 20
7.467797
 30
0.000000
  0
SEQEND
  8
LAYER-1
  0
POLYLINE
  8
LAYER-1
 66
  1
 70
  0
 62
  0
 10
4.891204
 20
7.467795
 30
0.000000
  0
VERTEX
  8
LAYER-1
 10
4.891204
 20
7.467795
 30
0.000000
  0
VERTEX
  8
LAYER-1
 10
4.854301
 20
7.467797
 30
0.000000
  0
SEQEND
  8
LAYER-1
  0
POLYLINE
  8
LAYER-1
 66
  1
 70
  0
 62
  0
 10
5.639740
 20
7.196280
 30
0.000000
  0
VERTEX
  8
LAYER-1
 10
5.639740
 20
7.196280
 30
0.000000
  0
VERTEX
  8
LAYER-1
 10
5.649680
 20
7.189279
 30
0.000000
  0
VERTEX
  8
LAYER-1
 10
5.664444
 20
7.191357
 30
0.000000
  0
VERTEX
  8
LAYER-1
 10
5.672960
 20
7.195719
 30
0.000000
  0
SEQEND
  8
LAYER-1
  0
POLYLINE
  8
LAYER-1
 66
  1
 70
  0
 62
  0
 10
5.672960
 20
7.195719
 30
0.000000
  0
VERTEX
  8
LAYER-1
 10
5.672960
 20
7.195719
 30
0.000000
  0
VERTEX
  8
LAYER-1
 10
5.639740
 20
7.196280
 30
0.000000
  0
SEQEND
  8
LAYER-1
  0
POLYLINE
  8
LAYER-1
 66
  1
 70
  0
 62
  0
 10
5.675169
 20
7.196280
 30
0.000000
  0
VERTEX
  8
LAYER-1
 10
5.675169
 20
7.196280
 30
0.000000
  0
VERTEX
  8
LAYER-1
 10
5.688341
 20
7.189234
 30
0.000000
  0
VERTEX
  8
LAYER-1
 10
5.705421
 20
7.193565
 30
0.000000
  0
VERTEX
  8
LAYER-1
 10
5.712073
 20
7.196281
 30
0.000000
  0
SEQEND
  8
LAYER-1
  0
POLYLINE
  8
LAYER-1
 66
  1
 70
  0
 62
  0
 10
5.712072
 20
7.196281
 30
0.000000
  0
VERTEX
  8
LAYER-1
 10
5.712072
 20
7.196281
 30
0.000000
  0
VERTEX
  8
LAYER-1
 10
5.675170
 20
7.196280
 30
0.000000
  0
SEQEND
  8
LAYER-1
  0
POLYLINE
  8
LAYER-1
 66
  1
 70
  0
 62
  0
 10
5.710901
 20
7.467938
 30
0.000000
  0
VERTEX
  8
LAYER-1
 10
5.710901
 20
7.467938
 30
0.000000
  0
VERTEX
  8
LAYER-1
 10
5.710901
 20
7.196306
 30
0.000000
  0
SEQEND
  8
LAYER-1
  0
POLYLINE
  8
LAYER-1
 66
  1
 70
  0
 62
  0
 10
5.638568
 20
7.196309
 30
0.000000
  0
VERTEX
  8
LAYER-1
 10
5.638568
 20
7.196309
 30
0.000000
  0
VERTEX
  8
LAYER-1
 10
5.638568
 20
7.467938
 30
0.000000
  0
SEQEND
  8
LAYER-1
  0
POLYLINE
  8
LAYER-1
 66
  1
 70
  0
 62
  0
 10
5.673997
 20
7.467938
 30
0.000000
  0
VERTEX
  8
LAYER-1
 10
5.673997
 20
7.467938
 30
0.000000
  0
VERTEX
  8
LAYER-1
 10
5.673997
 20
7.196308
 30
0.000000
  0
SEQEND
  8
LAYER-1
  0
POLYLINE
  8
LAYER-1
 66
  1
 70
  0
 62
  0
 10
5.672091
 20
7.468357
 30
0.000000
  0
VERTEX
  8
LAYER-1
 10
5.672091
 20
7.468357
 30
0.000000
  0
VERTEX
  8
LAYER-1
 10
5.657918
 20
7.478889
 30
0.000000
  0
VERTEX
  8
LAYER-1
 10
5.643234
 20
7.476313
 30
0.000000
  0
VERTEX
  8
LAYER-1
 10
5.638872
 20
7.467797
 30
0.000000
  0
SEQEND
  8
LAYER-1
  0
POLYLINE
  8
LAYER-1
 66
  1
 70
  0
 62
  0
 10
5.672091
 20
7.468357
 30
0.000000
  0
VERTEX
  8
LAYER-1
 10
5.672091
 20
7.468357
 30
0.000000
  0
VERTEX
  8
LAYER-1
 10
5.638872
 20
7.467797
 30
0.000000
  0
SEQEND
  8
LAYER-1
  0
POLYLINE
  8
LAYER-1
 66
  1
 70
  0
 62
  0
 10
5.711204
 20
7.467795
 30
0.000000
  0
VERTEX
  8
LAYER-1
 10
5.711204
 20
7.467795
 30
0.000000
  0
VERTEX
  8
LAYER-1
 10
5.694096
 20
7.478780
 30
0.000000
  0
VERTEX
  8
LAYER-1
 10
5.677016
 20
7.474449
 30
0.000000
  0
VERTEX
  8
LAYER-1
 10
5.674300
 20
7.467797
 30
0.000000
  0
SEQEND
  8
LAYER-1
  0
POLYLINE
  8
LAYER-1
 66
  1
 70
  0
 62
  0
 10
5.711203
 20
7.467795
 30
0.000000
  0
VERTEX
  8
LAYER-1
 10
5.711203
 20
7.467795
 30
0.000000
  0
VERTEX
  8
LAYER-1
 10
5.674301
 20
7.467797
 30
0.000000
  0
SEQEND
  8
LAYER-1
  0
POLYLINE
  8
LAYER-1
 66
  1
 70
  0
 62
  0
 10
3.814602
 20
7.400030
 30
0.000000
  0
VERTEX
  8
LAYER-1
 10
3.814602
 20
7.400030
 30
0.000000
  0
VERTEX
  8
LAYER-1
 10
3.854327
 20
7.400030
 30
0.000000
  0
SEQEND
  8
LAYER-1
  0
POLYLINE
  8
LAYER-1
 66
  1
 70
  0
 62
  0
 10
3.814602
 20
7.270121
 30
0.000000
  0
VERTEX
  8
LAYER-1
 10
3.814602
 20
7.270121
 30
0.000000
  0
VERTEX
  8
LAYER-1
 10
3.854327
 20
7.270121
 30
0.000000
  0
SEQEND
  8
LAYER-1
  0
POLYLINE
  8
LAYER-1
 66
  1
 70
  0
 62
  0
 10
3.852957
 20
7.473083
 30
0.000000
  0
VERTEX
  8
LAYER-1
 10
3.852957
 20
7.473083
 30
0.000000
  0
VERTEX
  8
LAYER-1
 10
3.835848
 20
7.484066
 30
0.000000
  0
VERTEX
  8
LAYER-1
 10
3.818768
 20
7.479736
 30
0.000000
  0
VERTEX
  8
LAYER-1
 10
3.816054
 20
7.473084
 30
0.000000
  0
SEQEND
  8
LAYER-1
  0
POLYLINE
  8
LAYER-1
 66
  1
 70
  1
 62
  0
  0
VERTEX
  8
LAYER-1
 10
3.808851
 20
7.473707
 30
0.000000
  0
VERTEX
  8
LAYER-1
 10
3.863465
 20
7.473707
 30
0.000000
  0
VERTEX
  8
LAYER-1
 10
3.863465
 20
7.467801
 30
0.000000
  0
VERTEX
  8
LAYER-1
 10
3.808851
 20
7.467801
 30
0.000000
  0
SEQEND
  8
LAYER-1
  0
POLYLINE
  8
LAYER-1
 66
  1
 70
  0
 62
  0
 10
3.854761
 20
7.467936
 30
0.000000
  0
VERTEX
  8
LAYER-1
 10
3.854761
 20
7.467936
 30
0.000000
  0
VERTEX
  8
LAYER-1
 10
3.854761
 20
7.196187
 30
0.000000
  0
SEQEND
  8
LAYER-1
  0
POLYLINE
  8
LAYER-1
 66
  1
 70
  0
 62
  0
 10
3.854750
 20
0.613722
 30
0.000000
  0
VERTEX
  8
LAYER-1
 10
3.854750
 20
0.613722
 30
0.000000
  0
VERTEX
  8
LAYER-1
 10
3.854750
 20
0.342022
 30
0.000000
  0
SEQEND
  8
LAYER-1
  0
POLYLINE
  8
LAYER-1
 66
  1
 70
  0
 62
  0
 10
4.075670
 20
0.341584
 30
0.000000
  0
VERTEX
  8
LAYER-1
 10
4.075670
 20
0.341584
 30
0.000000
  0
VERTEX
  8
LAYER-1
 10
4.075670
 20
0.613215
 30
0.000000
  0
SEQEND
  8
LAYER-1
  0
POLYLINE
  8
LAYER-1
 66
  1
 70
  0
 62
  0
 10
4.406168
 20
0.613215
 30
0.000000
  0
VERTEX
  8
LAYER-1
 10
4.406168
 20
0.613215
 30
0.000000
  0
VERTEX
  8
LAYER-1
 10
4.406168
 20
0.341584
 30
0.000000
  0
SEQEND
  8
LAYER-1
  0
POLYLINE
  8
LAYER-1
 66
  1
 70
  0
 62
  0
 10
5.218998
 20
0.613215
 30
0.000000
  0
VERTEX
  8
LAYER-1
 10
5.218998
 20
0.613215
 30
0.000000
  0
VERTEX
  8
LAYER-1
 10
5.218998
 20
0.341584
 30
0.000000
  0
SEQEND
  8
LAYER-1
  0
POLYLINE
  8
LAYER-1
 66
  1
 70
  0
 62
  0
 10
5.037832
 20
0.341544
 30
0.000000
  0
VERTEX
  8
LAYER-1
 10
5.037832
 20
0.341544
 30
0.000000
  0
VERTEX
  8
LAYER-1
 10
5.037832
 20
0.613173
 30
0.000000
  0
SEQEND
  8
LAYER-1
  0
POLYLINE
  8
LAYER-1
 66
  1
 70
  0
 62
  0
 10
5.077690
 20
0.341544
 30
0.000000
  0
VERTEX
  8
LAYER-1
 10
5.077690
 20
0.341544
 30
0.000000
  0
VERTEX
  8
LAYER-1
 10
5.077690
 20
0.613173
 30
0.000000
  0
SEQEND
  8
LAYER-1
  0
POLYLINE
  8
LAYER-1
 66
  1
 70
  0
 62
  0
 10
4.223814
 20
0.341544
 30
0.000000
  0
VERTEX
  8
LAYER-1
 10
4.223814
 20
0.341544
 30
0.000000
  0
VERTEX
  8
LAYER-1
 10
4.223814
 20
0.613173
 30
0.000000
  0
SEQEND
  8
LAYER-1
  0
POLYLINE
  8
LAYER-1
 66
  1
 70
  0
 62
  0
 10
4.262630
 20
0.341544
 30
0.000000
  0
VERTEX
  8
LAYER-1
 10
4.262630
 20
0.341544
 30
0.000000
  0
VERTEX
  8
LAYER-1
 10
4.262630
 20
0.613173
 30
0.000000
  0
SEQEND
  8
LAYER-1
  0
POLYLINE
  8
LAYER-1
 66
  1
 70
  0
 62
  0
 10
4.490490
 20
0.341584
 30
0.000000
  0
VERTEX
  8
LAYER-1
 10
4.490490
 20
0.341584
 30
0.000000
  0
VERTEX
  8
LAYER-1
 10
4.490490
 20
0.613215
 30
0.000000
  0
SEQEND
  8
LAYER-1
  0
POLYLINE
  8
LAYER-1
 66
  1
 70
  0
 62
  0
 10
5.303320
 20
0.341584
 30
0.000000
  0
VERTEX
  8
LAYER-1
 10
5.303320
 20
0.341584
 30
0.000000
  0
VERTEX
  8
LAYER-1
 10
5.303320
 20
0.613215
 30
0.000000
  0
SEQEND
  8
LAYER-1
  0
POLYLINE
  8
LAYER-1
 66
  1
 70
  0
 62
  0
 10
5.448226
 20
0.341978
 30
0.000000
  0
VERTEX
  8
LAYER-1
 10
5.448226
 20
0.341978
 30
0.000000
  0
VERTEX
  8
LAYER-1
 10
5.448226
 20
0.613607
 30
0.000000
  0
SEQEND
  8
LAYER-1
  0
POLYLINE
  8
LAYER-1
 66
  1
 70
  0
 62
  0
 10
5.486608
 20
0.341978
 30
0.000000
  0
VERTEX
  8
LAYER-1
 10
5.486608
 20
0.341978
 30
0.000000
  0
VERTEX
  8
LAYER-1
 10
5.486608
 20
0.613607
 30
0.000000
  0
SEQEND
  8
LAYER-1
  0
POLYLINE
  8
LAYER-1
 66
  1
 70
  0
 62
  0
 10
4.630387
 20
0.341510
 30
0.000000
  0
VERTEX
  8
LAYER-1
 10
4.630387
 20
0.341510
 30
0.000000
  0
VERTEX
  8
LAYER-1
 10
4.630387
 20
0.613136
 30
0.000000
  0
SEQEND
  8
LAYER-1
  0
POLYLINE
  8
LAYER-1
 66
  1
 70
  0
 62
  0
 10
4.668770
 20
0.341510
 30
0.000000
  0
VERTEX
  8
LAYER-1
 10
4.668770
 20
0.341510
 30
0.000000
  0
VERTEX
  8
LAYER-1
 10
4.668770
 20
0.613136
 30
0.000000
  0
SEQEND
  8
LAYER-1
  0
POLYLINE
  8
LAYER-1
 66
  1
 70
  0
 62
  0
 10
4.003338
 20
0.613211
 30
0.000000
  0
VERTEX
  8
LAYER-1
 10
4.003338
 20
0.613211
 30
0.000000
  0
VERTEX
  8
LAYER-1
 10
4.003338
 20
0.341582
 30
0.000000
  0
SEQEND
  8
LAYER-1
  0
POLYLINE
  8
LAYER-1
 66
  1
 70
  0
 62
  0
 10
4.038767
 20
0.341582
 30
0.000000
  0
VERTEX
  8
LAYER-1
 10
4.038767
 20
0.341582
 30
0.000000
  0
VERTEX
  8
LAYER-1
 10
4.038767
 20
0.613213
 30
0.000000
  0
SEQEND
  8
LAYER-1
  0
POLYLINE
  8
LAYER-1
 66
  1
 70
  0
 62
  0
 10
4.004242
 20
0.341582
 30
0.000000
  0
VERTEX
  8
LAYER-1
 10
4.004242
 20
0.341582
 30
0.000000
  0
VERTEX
  8
LAYER-1
 10
4.014181
 20
0.334582
 30
0.000000
  0
VERTEX
  8
LAYER-1
 10
4.028944
 20
0.336661
 30
0.000000
  0
VERTEX
  8
LAYER-1
 10
4.037797
 20
0.341571
 30
0.000000
  0
SEQEND
  8
LAYER-1
  0
POLYLINE
  8
LAYER-1
 66
  1
 70
  0
 62
  0
 10
4.038767
 20
0.341582
 30
0.000000
  0
VERTEX
  8
LAYER-1
 10
4.038767
 20
0.341582
 30
0.000000
  0
VERTEX
  8
LAYER-1
 10
4.051938
 20
0.334536
 30
0.000000
  0
VERTEX
  8
LAYER-1
 10
4.069018
 20
0.338867
 30
0.000000
  0
VERTEX
  8
LAYER-1
 10
4.075669
 20
0.341584
 30
0.000000
  0
SEQEND
  8
LAYER-1
  0
POLYLINE
  8
LAYER-1
 66
  1
 70
  0
 62
  0
 10
4.454321
 20
0.342077
 30
0.000000
  0
VERTEX
  8
LAYER-1
 10
4.454321
 20
0.342077
 30
0.000000
  0
VERTEX
  8
LAYER-1
 10
4.469888
 20
0.336021
 30
0.000000
  0
VERTEX
  8
LAYER-1
 10
4.487962
 20
0.342746
 30
0.000000
  0
VERTEX
  8
LAYER-1
 10
4.491229
 20
0.342077
 30
0.000000
  0
SEQEND
  8
LAYER-1
  0
POLYLINE
  8
LAYER-1
 66
  1
 70
  0
 62
  0
 10
5.267280
 20
0.341607
 30
0.000000
  0
VERTEX
  8
LAYER-1
 10
5.267280
 20
0.341607
 30
0.000000
  0
VERTEX
  8
LAYER-1
 10
5.282847
 20
0.335552
 30
0.000000
  0
VERTEX
  8
LAYER-1
 10
5.300921
 20
0.342278
 30
0.000000
  0
VERTEX
  8
LAYER-1
 10
5.304187
 20
0.341607
 30
0.000000
  0
SEQEND
  8
LAYER-1
  0
POLYLINE
  8
LAYER-1
 66
  1
 70
  0
 62
  0
 10
4.406612
 20
0.342077
 30
0.000000
  0
VERTEX
  8
LAYER-1
 10
4.406612
 20
0.342077
 30
0.000000
  0
VERTEX
  8
LAYER-1
 10
4.422179
 20
0.336021
 30
0.000000
  0
VERTEX
  8
LAYER-1
 10
4.440253
 20
0.342746
 30
0.000000
  0
VERTEX
  8
LAYER-1
 10
4.443520
 20
0.342077
 30
0.000000
  0
SEQEND
  8
LAYER-1
  0
POLYLINE
  8
LAYER-1
 66
  1
 70
  0
 62
  0
 10
4.428555
 20
0.341518
 30
0.000000
  0
VERTEX
  8
LAYER-1
 10
4.428555
 20
0.341518
 30
0.000000
  0
VERTEX
  8
LAYER-1
 10
4.435370
 20
0.332449
 30
0.000000
  0
VERTEX
  8
LAYER-1
 10
4.449385
 20
0.330855
 30
0.000000
  0
VERTEX
  8
LAYER-1
 10
4.460422
 20
0.339639
 30
0.000000
  0
VERTEX
  8
LAYER-1
 10
4.463984
 20
0.341518
 30
0.000000
  0
SEQEND
  8
LAYER-1
  0
POLYLINE
  8
LAYER-1
 66
  1
 70
  0
 62
  0
 10
4.428555
 20
0.341517
 30
0.000000
  0
VERTEX
  8
LAYER-1
 10
4.428555
 20
0.341517
 30
0.000000
  0
VERTEX
  8
LAYER-1
 10
4.463984
 20
0.341517
 30
0.000000
  0
SEQEND
  8
LAYER-1
  0
POLYLINE
  8
LAYER-1
 66
  1
 70
  0
 62
  0
 10
5.218630
 20
0.341605
 30
0.000000
  0
VERTEX
  8
LAYER-1
 10
5.218630
 20
0.341605
 30
0.000000
  0
VERTEX
  8
LAYER-1
 10
5.234197
 20
0.335552
 30
0.000000
  0
VERTEX
  8
LAYER-1
 10
5.252271
 20
0.342278
 30
0.000000
  0
VERTEX
  8
LAYER-1
 10
5.255537
 20
0.341607
 30
0.000000
  0
SEQEND
  8
LAYER-1
  0
POLYLINE
  8
LAYER-1
 66
  1
 70
  0
 62
  0
 10
5.244801
 20
0.341518
 30
0.000000
  0
VERTEX
  8
LAYER-1
 10
5.244801
 20
0.341518
 30
0.000000
  0
VERTEX
  8
LAYER-1
 10
5.251617
 20
0.332449
 30
0.000000
  0
VERTEX
  8
LAYER-1
 10
5.265632
 20
0.330855
 30
0.000000
  0
VERTEX
  8
LAYER-1
 10
5.276669
 20
0.339639
 30
0.000000
  0
VERTEX
  8
LAYER-1
 10
5.280231
 20
0.341518
 30
0.000000
  0
SEQEND
  8
LAYER-1
  0
POLYLINE
  8
LAYER-1
 66
  1
 70
  0
 62
  0
 10
5.244803
 20
0.341517
 30
0.000000
  0
VERTEX
  8
LAYER-1
 10
5.244803
 20
0.341517
 30
0.000000
  0
VERTEX
  8
LAYER-1
 10
5.280231
 20
0.341517
 30
0.000000
  0
SEQEND
  8
LAYER-1
  0
POLYLINE
  8
LAYER-1
 66
  1
 70
  0
 62
  0
 10
4.037491
 20
0.613799
 30
0.000000
  0
VERTEX
  8
LAYER-1
 10
4.037491
 20
0.613799
 30
0.000000
  0
VERTEX
  8
LAYER-1
 10
4.023318
 20
0.624331
 30
0.000000
  0
VERTEX
  8
LAYER-1
 10
4.008634
 20
0.621756
 30
0.000000
  0
VERTEX
  8
LAYER-1
 10
4.004272
 20
0.613240
 30
0.000000
  0
SEQEND
  8
LAYER-1
  0
POLYLINE
  8
LAYER-1
 66
  1
 70
  0
 62
  0
 10
4.037491
 20
0.613799
 30
0.000000
  0
VERTEX
  8
LAYER-1
 10
4.037491
 20
0.613799
 30
0.000000
  0
VERTEX
  8
LAYER-1
 10
4.004272
 20
0.613240
 30
0.000000
  0
SEQEND
  8
LAYER-1
  0
POLYLINE
  8
LAYER-1
 66
  1
 70
  0
 62
  0
 10
4.076604
 20
0.613237
 30
0.000000
  0
VERTEX
  8
LAYER-1
 10
4.076604
 20
0.613237
 30
0.000000
  0
VERTEX
  8
LAYER-1
 10
4.059496
 20
0.624221
 30
0.000000
  0
VERTEX
  8
LAYER-1
 10
4.042416
 20
0.619890
 30
0.000000
  0
VERTEX
  8
LAYER-1
 10
4.039700
 20
0.613238
 30
0.000000
  0
SEQEND
  8
LAYER-1
  0
POLYLINE
  8
LAYER-1
 66
  1
 70
  0
 62
  0
 10
4.076603
 20
0.613238
 30
0.000000
  0
VERTEX
  8
LAYER-1
 10
4.076603
 20
0.613238
 30
0.000000
  0
VERTEX
  8
LAYER-1
 10
4.039701
 20
0.613240
 30
0.000000
  0
SEQEND
  8
LAYER-1
  0
POLYLINE
  8
LAYER-1
 66
  1
 70
  0
 62
  0
 10
4.443445
 20
0.613684
 30
0.000000
  0
VERTEX
  8
LAYER-1
 10
4.443445
 20
0.613684
 30
0.000000
  0
VERTEX
  8
LAYER-1
 10
4.423942
 20
0.623677
 30
0.000000
  0
VERTEX
  8
LAYER-1
 10
4.405868
 20
0.616951
 30
0.000000
  0
VERTEX
  8
LAYER-1
 10
4.406538
 20
0.613686
 30
0.000000
  0
SEQEND
  8
LAYER-1
  0
POLYLINE
  8
LAYER-1
 66
  1
 70
  0
 62
  0
 10
4.490687
 20
0.613684
 30
0.000000
  0
VERTEX
  8
LAYER-1
 10
4.490687
 20
0.613684
 30
0.000000
  0
VERTEX
  8
LAYER-1
 10
4.471183
 20
0.623677
 30
0.000000
  0
VERTEX
  8
LAYER-1
 10
4.453109
 20
0.616951
 30
0.000000
  0
VERTEX
  8
LAYER-1
 10
4.453779
 20
0.613686
 30
0.000000
  0
SEQEND
  8
LAYER-1
  0
POLYLINE
  8
LAYER-1
 66
  1
 70
  0
 62
  0
 10
4.463441
 20
0.613773
 30
0.000000
  0
VERTEX
  8
LAYER-1
 10
4.463441
 20
0.613773
 30
0.000000
  0
VERTEX
  8
LAYER-1
 10
4.452689
 20
0.626779
 30
0.000000
  0
VERTEX
  8
LAYER-1
 10
4.438674
 20
0.628373
 30
0.000000
  0
VERTEX
  8
LAYER-1
 10
4.427637
 20
0.619589
 30
0.000000
  0
VERTEX
  8
LAYER-1
 10
4.428012
 20
0.613773
 30
0.000000
  0
SEQEND
  8
LAYER-1
  0
POLYLINE
  8
LAYER-1
 66
  1
 70
  0
 62
  0
 10
4.428013
 20
0.613775
 30
0.000000
  0
VERTEX
  8
LAYER-1
 10
4.428013
 20
0.613775
 30
0.000000
  0
VERTEX
  8
LAYER-1
 10
4.463441
 20
0.613775
 30
0.000000
  0
SEQEND
  8
LAYER-1
  0
POLYLINE
  8
LAYER-1
 66
  1
 70
  0
 62
  0
 10
5.256000
 20
0.613684
 30
0.000000
  0
VERTEX
  8
LAYER-1
 10
5.256000
 20
0.613684
 30
0.000000
  0
VERTEX
  8
LAYER-1
 10
5.236496
 20
0.623677
 30
0.000000
  0
VERTEX
  8
LAYER-1
 10
5.218423
 20
0.616951
 30
0.000000
  0
VERTEX
  8
LAYER-1
 10
5.219093
 20
0.613686
 30
0.000000
  0
SEQEND
  8
LAYER-1
  0
POLYLINE
  8
LAYER-1
 66
  1
 70
  0
 62
  0
 10
5.304181
 20
0.613684
 30
0.000000
  0
VERTEX
  8
LAYER-1
 10
5.304181
 20
0.613684
 30
0.000000
  0
VERTEX
  8
LAYER-1
 10
5.284677
 20
0.623677
 30
0.000000
  0
VERTEX
  8
LAYER-1
 10
5.266603
 20
0.616951
 30
0.000000
  0
VERTEX
  8
LAYER-1
 10
5.267273
 20
0.613686
 30
0.000000
  0
SEQEND
  8
LAYER-1
  0
POLYLINE
  8
LAYER-1
 66
  1
 70
  0
 62
  0
 10
5.280225
 20
0.613773
 30
0.000000
  0
VERTEX
  8
LAYER-1
 10
5.280225
 20
0.613773
 30
0.000000
  0
VERTEX
  8
LAYER-1
 10
5.269473
 20
0.626779
 30
0.000000
  0
VERTEX
  8
LAYER-1
 10
5.255458
 20
0.628373
 30
0.000000
  0
VERTEX
  8
LAYER-1
 10
5.244421
 20
0.619589
 30
0.000000
  0
VERTEX
  8
LAYER-1
 10
5.244796
 20
0.613773
 30
0.000000
  0
SEQEND
  8
LAYER-1
  0
POLYLINE
  8
LAYER-1
 66
  1
 70
  0
 62
  0
 10
5.244796
 20
0.613775
 30
0.000000
  0
VERTEX
  8
LAYER-1
 10
5.244796
 20
0.613775
 30
0.000000
  0
VERTEX
  8
LAYER-1
 10
5.280224
 20
0.613775
 30
0.000000
  0
SEQEND
  8
LAYER-1
  0
POLYLINE
  8
LAYER-1
 66
  1
 70
  1
 62
  0
  0
VERTEX
  8
LAYER-1
 10
4.463985
 20
0.341584
 30
0.000000
  0
VERTEX
  8
LAYER-1
 10
4.428555
 20
0.341584
 30
0.000000
  0
VERTEX
  8
LAYER-1
 10
4.428555
 20
0.613213
 30
0.000000
  0
VERTEX
  8
LAYER-1
 10
4.463985
 20
0.613213
 30
0.000000
  0
SEQEND
  8
LAYER-1
  0
POLYLINE
  8
LAYER-1
 66
  1
 70
  1
 62
  0
  0
VERTEX
  8
LAYER-1
 10
5.280299
 20
0.341584
 30
0.000000
  0
VERTEX
  8
LAYER-1
 10
5.244869
 20
0.341584
 30
0.000000
  0
VERTEX
  8
LAYER-1
 10
5.244869
 20
0.613213
 30
0.000000
  0
VERTEX
  8
LAYER-1
 10
5.280299
 20
0.613213
 30
0.000000
  0
SEQEND
  8
LAYER-1
  0
POLYLINE
  8
LAYER-1
 66
  1
 70
  0
 62
  0
 10
4.428555
 20
0.409490
 30
0.000000
  0
VERTEX
  8
LAYER-1
 10
4.428555
 20
0.409490
 30
0.000000
  0
VERTEX
  8
LAYER-1
 10
4.463985
 20
0.409490
 30
0.000000
  0
SEQEND
  8
LAYER-1
  0
POLYLINE
  8
LAYER-1
 66
  1
 70
  0
 62
  0
 10
4.428555
 20
0.539400
 30
0.000000
  0
VERTEX
  8
LAYER-1
 10
4.428555
 20
0.539400
 30
0.000000
  0
VERTEX
  8
LAYER-1
 10
4.463985
 20
0.539400
 30
0.000000
  0
SEQEND
  8
LAYER-1
  0
POLYLINE
  8
LAYER-1
 66
  1
 70
  0
 62
  0
 10
5.244869
 20
0.409490
 30
0.000000
  0
VERTEX
  8
LAYER-1
 10
5.244869
 20
0.409490
 30
0.000000
  0
VERTEX
  8
LAYER-1
 10
5.280297
 20
0.409490
 30
0.000000
  0
SEQEND
  8
LAYER-1
  0
POLYLINE
  8
LAYER-1
 66
  1
 70
  0
 62
  0
 10
5.244869
 20
0.539400
 30
0.000000
  0
VERTEX
  8
LAYER-1
 10
5.244869
 20
0.539400
 30
0.000000
  0
VERTEX
  8
LAYER-1
 10
5.280297
 20
0.539400
 30
0.000000
  0
SEQEND
  8
LAYER-1
  0
POLYLINE
  8
LAYER-1
 66
  1
 70
  0
 62
  0
 10
4.226223
 20
0.342027
 30
0.000000
  0
VERTEX
  8
LAYER-1
 10
4.226223
 20
0.342027
 30
0.000000
  0
VERTEX
  8
LAYER-1
 10
4.236163
 20
0.335026
 30
0.000000
  0
VERTEX
  8
LAYER-1
 10
4.250926
 20
0.337104
 30
0.000000
  0
VERTEX
  8
LAYER-1
 10
4.259442
 20
0.341467
 30
0.000000
  0
SEQEND
  8
LAYER-1
  0
POLYLINE
  8
LAYER-1
 66
  1
 70
  0
 62
  0
 10
5.039717
 20
0.341644
 30
0.000000
  0
VERTEX
  8
LAYER-1
 10
5.039717
 20
0.341644
 30
0.000000
  0
VERTEX
  8
LAYER-1
 10
5.052889
 20
0.334600
 30
0.000000
  0
VERTEX
  8
LAYER-1
 10
5.069968
 20
0.338931
 30
0.000000
  0
VERTEX
  8
LAYER-1
 10
5.076621
 20
0.341646
 30
0.000000
  0
SEQEND
  8
LAYER-1
  0
POLYLINE
  8
LAYER-1
 66
  1
 70
  0
 62
  0
 10
4.852521
 20
0.613801
 30
0.000000
  0
VERTEX
  8
LAYER-1
 10
4.852521
 20
0.613801
 30
0.000000
  0
VERTEX
  8
LAYER-1
 10
4.838349
 20
0.624333
 30
0.000000
  0
VERTEX
  8
LAYER-1
 10
4.823664
 20
0.621758
 30
0.000000
  0
VERTEX
  8
LAYER-1
 10
4.819302
 20
0.613241
 30
0.000000
  0
SEQEND
  8
LAYER-1
  0
POLYLINE
  8
LAYER-1
 66
  1
 70
  0
 62
  0
 10
4.852520
 20
0.613801
 30
0.000000
  0
VERTEX
  8
LAYER-1
 10
4.852520
 20
0.613801
 30
0.000000
  0
VERTEX
  8
LAYER-1
 10
4.819302
 20
0.613241
 30
0.000000
  0
SEQEND
  8
LAYER-1
  0
POLYLINE
  8
LAYER-1
 66
  1
 70
  0
 62
  0
 10
4.891633
 20
0.613241
 30
0.000000
  0
VERTEX
  8
LAYER-1
 10
4.891633
 20
0.613241
 30
0.000000
  0
VERTEX
  8
LAYER-1
 10
4.874525
 20
0.624225
 30
0.000000
  0
VERTEX
  8
LAYER-1
 10
4.857445
 20
0.619894
 30
0.000000
  0
VERTEX
  8
LAYER-1
 10
4.854730
 20
0.613241
 30
0.000000
  0
SEQEND
  8
LAYER-1
  0
POLYLINE
  8
LAYER-1
 66
  1
 70
  0
 62
  0
 10
4.891634
 20
0.613240
 30
0.000000
  0
VERTEX
  8
LAYER-1
 10
4.891634
 20
0.613240
 30
0.000000
  0
VERTEX
  8
LAYER-1
 10
4.854730
 20
0.613241
 30
0.000000
  0
SEQEND
  8
LAYER-1
  0
POLYLINE
  8
LAYER-1
 66
  1
 70
  0
 62
  0
 10
4.890462
 20
0.341584
 30
0.000000
  0
VERTEX
  8
LAYER-1
 10
4.890462
 20
0.341584
 30
0.000000
  0
VERTEX
  8
LAYER-1
 10
4.890462
 20
0.613215
 30
0.000000
  0
SEQEND
  8
LAYER-1
  0
POLYLINE
  8
LAYER-1
 66
  1
 70
  0
 62
  0
 10
4.818128
 20
0.613211
 30
0.000000
  0
VERTEX
  8
LAYER-1
 10
4.818128
 20
0.613211
 30
0.000000
  0
VERTEX
  8
LAYER-1
 10
4.818128
 20
0.341582
 30
0.000000
  0
SEQEND
  8
LAYER-1
  0
POLYLINE
  8
LAYER-1
 66
  1
 70
  0
 62
  0
 10
4.853558
 20
0.341582
 30
0.000000
  0
VERTEX
  8
LAYER-1
 10
4.853558
 20
0.341582
 30
0.000000
  0
VERTEX
  8
LAYER-1
 10
4.853558
 20
0.613213
 30
0.000000
  0
SEQEND
  8
LAYER-1
  0
POLYLINE
  8
LAYER-1
 66
  1
 70
  0
 62
  0
 10
4.818433
 20
0.341725
 30
0.000000
  0
VERTEX
  8
LAYER-1
 10
4.818433
 20
0.341725
 30
0.000000
  0
VERTEX
  8
LAYER-1
 10
4.828373
 20
0.334724
 30
0.000000
  0
VERTEX
  8
LAYER-1
 10
4.843136
 20
0.336802
 30
0.000000
  0
VERTEX
  8
LAYER-1
 10
4.851652
 20
0.341165
 30
0.000000
  0
SEQEND
  8
LAYER-1
  0
POLYLINE
  8
LAYER-1
 66
  1
 70
  0
 62
  0
 10
4.851652
 20
0.341164
 30
0.000000
  0
VERTEX
  8
LAYER-1
 10
4.851652
 20
0.341164
 30
0.000000
  0
VERTEX
  8
LAYER-1
 10
4.818433
 20
0.341725
 30
0.000000
  0
SEQEND
  8
LAYER-1
  0
POLYLINE
  8
LAYER-1
 66
  1
 70
  0
 62
  0
 10
4.853862
 20
0.341725
 30
0.000000
  0
VERTEX
  8
LAYER-1
 10
4.853862
 20
0.341725
 30
0.000000
  0
VERTEX
  8
LAYER-1
 10
4.867033
 20
0.334678
 30
0.000000
  0
VERTEX
  8
LAYER-1
 10
4.884113
 20
0.339010
 30
0.000000
  0
VERTEX
  8
LAYER-1
 10
4.890765
 20
0.341726
 30
0.000000
  0
SEQEND
  8
LAYER-1
  0
POLYLINE
  8
LAYER-1
 66
  1
 70
  0
 62
  0
 10
4.890765
 20
0.341725
 30
0.000000
  0
VERTEX
  8
LAYER-1
 10
4.890765
 20
0.341725
 30
0.000000
  0
VERTEX
  8
LAYER-1
 10
4.853862
 20
0.341725
 30
0.000000
  0
SEQEND
  8
LAYER-1
  0
POLYLINE
  8
LAYER-1
 66
  1
 70
  0
 62
  0
 10
5.672521
 20
0.613801
 30
0.000000
  0
VERTEX
  8
LAYER-1
 10
5.672521
 20
0.613801
 30
0.000000
  0
VERTEX
  8
LAYER-1
 10
5.658348
 20
0.624333
 30
0.000000
  0
VERTEX
  8
LAYER-1
 10
5.643664
 20
0.621758
 30
0.000000
  0
VERTEX
  8
LAYER-1
 10
5.639301
 20
0.613241
 30
0.000000
  0
SEQEND
  8
LAYER-1
  0
POLYLINE
  8
LAYER-1
 66
  1
 70
  0
 62
  0
 10
5.672521
 20
0.613801
 30
0.000000
  0
VERTEX
  8
LAYER-1
 10
5.672521
 20
0.613801
 30
0.000000
  0
VERTEX
  8
LAYER-1
 10
5.639302
 20
0.613241
 30
0.000000
  0
SEQEND
  8
LAYER-1
  0
POLYLINE
  8
LAYER-1
 66
  1
 70
  0
 62
  0
 10
5.711633
 20
0.613241
 30
0.000000
  0
VERTEX
  8
LAYER-1
 10
5.711633
 20
0.613241
 30
0.000000
  0
VERTEX
  8
LAYER-1
 10
5.694525
 20
0.624225
 30
0.000000
  0
VERTEX
  8
LAYER-1
 10
5.677445
 20
0.619894
 30
0.000000
  0
VERTEX
  8
LAYER-1
 10
5.674730
 20
0.613241
 30
0.000000
  0
SEQEND
  8
LAYER-1
  0
POLYLINE
  8
LAYER-1
 66
  1
 70
  0
 62
  0
 10
5.711633
 20
0.613240
 30
0.000000
  0
VERTEX
  8
LAYER-1
 10
5.711633
 20
0.613240
 30
0.000000
  0
VERTEX
  8
LAYER-1
 10
5.674731
 20
0.613241
 30
0.000000
  0
SEQEND
  8
LAYER-1
  0
POLYLINE
  8
LAYER-1
 66
  1
 70
  0
 62
  0
 10
5.710462
 20
0.341584
 30
0.000000
  0
VERTEX
  8
LAYER-1
 10
5.710462
 20
0.341584
 30
0.000000
  0
VERTEX
  8
LAYER-1
 10
5.710462
 20
0.613215
 30
0.000000
  0
SEQEND
  8
LAYER-1
  0
POLYLINE
  8
LAYER-1
 66
  1
 70
  0
 62
  0
 10
5.638128
 20
0.613211
 30
0.000000
  0
VERTEX
  8
LAYER-1
 10
5.638128
 20
0.613211
 30
0.000000
  0
VERTEX
  8
LAYER-1
 10
5.638128
 20
0.341582
 30
0.000000
  0
SEQEND
  8
LAYER-1
  0
POLYLINE
  8
LAYER-1
 66
  1
 70
  0
 62
  0
 10
5.673559
 20
0.341582
 30
0.000000
  0
VERTEX
  8
LAYER-1
 10
5.673559
 20
0.341582
 30
0.000000
  0
VERTEX
  8
LAYER-1
 10
5.673559
 20
0.613213
 30
0.000000
  0
SEQEND
  8
LAYER-1
  0
POLYLINE
  8
LAYER-1
 66
  1
 70
  0
 62
  0
 10
5.638433
 20
0.341725
 30
0.000000
  0
VERTEX
  8
LAYER-1
 10
5.638433
 20
0.341725
 30
0.000000
  0
VERTEX
  8
LAYER-1
 10
5.648373
 20
0.334724
 30
0.000000
  0
VERTEX
  8
LAYER-1
 10
5.663136
 20
0.336802
 30
0.000000
  0
VERTEX
  8
LAYER-1
 10
5.671652
 20
0.341165
 30
0.000000
  0
SEQEND
  8
LAYER-1
  0
POLYLINE
  8
LAYER-1
 66
  1
 70
  0
 62
  0
 10
5.671652
 20
0.341164
 30
0.000000
  0
VERTEX
  8
LAYER-1
 10
5.671652
 20
0.341164
 30
0.000000
  0
VERTEX
  8
LAYER-1
 10
5.638433
 20
0.341725
 30
0.000000
  0
SEQEND
  8
LAYER-1
  0
POLYLINE
  8
LAYER-1
 66
  1
 70
  0
 62
  0
 10
5.673862
 20
0.341725
 30
0.000000
  0
VERTEX
  8
LAYER-1
 10
5.673862
 20
0.341725
 30
0.000000
  0
VERTEX
  8
LAYER-1
 10
5.687033
 20
0.334678
 30
0.000000
  0
VERTEX
  8
LAYER-1
 10
5.704113
 20
0.339010
 30
0.000000
  0
VERTEX
  8
LAYER-1
 10
5.710765
 20
0.341726
 30
0.000000
  0
SEQEND
  8
LAYER-1
  0
POLYLINE
  8
LAYER-1
 66
  1
 70
  0
 62
  0
 10
5.710765
 20
0.341725
 30
0.000000
  0
VERTEX
  8
LAYER-1
 10
5.710765
 20
0.341725
 30
0.000000
  0
VERTEX
  8
LAYER-1
 10
5.673862
 20
0.341725
 30
0.000000
  0
SEQEND
  8
LAYER-1
  0
POLYLINE
  8
LAYER-1
 66
  1
 70
  0
 62
  0
 40
0.027778
 41
0.027778
 10
3.645018
 20
0.237641
 30
0.000000
  0
VERTEX
  8
LAYER-1
 10
3.645018
 20
0.237641
 30
0.000000
  0
VERTEX
  8
LAYER-1
 10
0.736445
 20
0.237641
 30
0.000000
  0
SEQEND
  8
LAYER-1
  0
POLYLINE
  8
LAYER-1
 66
  1
 70
  0
 62
  0
 40
0.027778
 41
0.027778
 10
3.738635
 20
0.237641
 30
0.000000
  0
VERTEX
  8
LAYER-1
 10
3.738635
 20
0.237641
 30
0.000000
  0
VERTEX
  8
LAYER-1
 10
6.736445
 20
0.237641
 30
0.000000
  0
SEQEND
  8
LAYER-1
  0
POLYLINE
  8
LAYER-1
 66
  1
 70
  1
 62
  7
  0
VERTEX
  8
LAYER-1
 10
0.075117
 20
4.882161
 30
0.000000
  0
VERTEX
  8
LAYER-1
 10
0.157896
 20
4.882161
 30
0.000000
  0
VERTEX
  8
LAYER-1
 10
0.157896
 20
4.666655
 30
0.000000
  0
VERTEX
  8
LAYER-1
 10
0.075117
 20
4.666655
 30
0.000000
  0
SEQEND
  8
LAYER-1
  0
POLYLINE
  8
LAYER-1
 66
  1
 70
  1
 62
  7
  0
VERTEX
  8
LAYER-1
 10
0.219083
 20
4.882161
 30
0.000000
  0
VERTEX
  8
LAYER-1
 10
0.301864
 20
4.882161
 30
0.000000
  0
VERTEX
  8
LAYER-1
 10
0.301864
 20
4.666655
 30
0.000000
  0
VERTEX
  8
LAYER-1
 10
0.219083
 20
4.666655
 30
0.000000
  0
SEQEND
  8
LAYER-1
  0
POLYLINE
  8
LAYER-1
 66
  1
 70
  1
 62
  7
  0
VERTEX
  8
LAYER-1
 10
0.363050
 20
4.882161
 30
0.000000
  0
VERTEX
  8
LAYER-1
 10
0.445828
 20
4.882161
 30
0.000000
  0
VERTEX
  8
LAYER-1
 10
0.445828
 20
4.666655
 30
0.000000
  0
VERTEX
  8
LAYER-1
 10
0.363050
 20
4.666655
 30
0.000000
  0
SEQEND
  8
LAYER-1
  0
POLYLINE
  8
LAYER-1
 66
  1
 70
  1
 62
  7
  0
VERTEX
  8
LAYER-1
 10
0.507016
 20
4.882161
 30
0.000000
  0
VERTEX
  8
LAYER-1
 10
0.589794
 20
4.882161
 30
0.000000
  0
VERTEX
  8
LAYER-1
 10
0.589794
 20
4.666655
 30
0.000000
  0
VERTEX
  8
LAYER-1
 10
0.507016
 20
4.666655
 30
0.000000
  0
SEQEND
  8
LAYER-1
  0
POLYLINE
  8
LAYER-1
 66
  1
 70
  1
 62
  7
  0
VERTEX
  8
LAYER-1
 10
0.650981
 20
4.882161
 30
0.000000
  0
VERTEX
  8
LAYER-1
 10
0.733761
 20
4.882161
 30
0.000000
  0
VERTEX
  8
LAYER-1
 10
0.733761
 20
4.666655
 30
0.000000
  0
VERTEX
  8
LAYER-1
 10
0.650981
 20
4.666655
 30
0.000000
  0
SEQEND
  8
LAYER-1
  0
POLYLINE
  8
LAYER-1
 66
  1
 70
  1
 62
  7
  0
VERTEX
  8
LAYER-1
 10
0.794948
 20
4.882161
 30
0.000000
  0
VERTEX
  8
LAYER-1
 10
0.877727
 20
4.882161
 30
0.000000
  0
VERTEX
  8
LAYER-1
 10
0.877727
 20
4.666655
 30
0.000000
  0
VERTEX
  8
LAYER-1
 10
0.794948
 20
4.666655
 30
0.000000
  0
SEQEND
  8
LAYER-1
  0
POLYLINE
  8
LAYER-1
 66
  1
 70
  1
 62
  7
  0
VERTEX
  8
LAYER-1
 10
0.938914
 20
4.882161
 30
0.000000
  0
VERTEX
  8
LAYER-1
 10
1.021693
 20
4.882161
 30
0.000000
  0
VERTEX
  8
LAYER-1
 10
1.021693
 20
4.666655
 30
0.000000
  0
VERTEX
  8
LAYER-1
 10
0.938914
 20
4.666655
 30
0.000000
  0
SEQEND
  8
LAYER-1
  0
POLYLINE
  8
LAYER-1
 66
  1
 70
  1
 62
  7
  0
VERTEX
  8
LAYER-1
 10
0.003017
 20
5.097651
 30
0.000000
  0
VERTEX
  8
LAYER-1
 10
0.085796
 20
5.097651
 30
0.000000
  0
VERTEX
  8
LAYER-1
 10
0.085796
 20
4.882148
 30
0.000000
  0
VERTEX
  8
LAYER-1
 10
0.003017
 20
4.882148
 30
0.000000
  0
SEQEND
  8
LAYER-1
  0
POLYLINE
  8
LAYER-1
 66
  1
 70
  1
 62
  7
  0
VERTEX
  8
LAYER-1
 10
0.146983
 20
5.097651
 30
0.000000
  0
VERTEX
  8
LAYER-1
 10
0.229762
 20
5.097651
 30
0.000000
  0
VERTEX
  8
LAYER-1
 10
0.229762
 20
4.882148
 30
0.000000
  0
VERTEX
  8
LAYER-1
 10
0.146983
 20
4.882148
 30
0.000000
  0
SEQEND
  8
LAYER-1
  0
POLYLINE
  8
LAYER-1
 66
  1
 70
  1
 62
  7
  0
VERTEX
  8
LAYER-1
 10
0.290949
 20
5.097651
 30
0.000000
  0
VERTEX
  8
LAYER-1
 10
0.373729
 20
5.097651
 30
0.000000
  0
VERTEX
  8
LAYER-1
 10
0.373729
 20
4.882148
 30
0.000000
  0
VERTEX
  8
LAYER-1
 10
0.290949
 20
4.882148
 30
0.000000
  0
SEQEND
  8
LAYER-1
  0
POLYLINE
  8
LAYER-1
 66
  1
 70
  1
 62
  7
  0
VERTEX
  8
LAYER-1
 10
0.434916
 20
5.097651
 30
0.000000
  0
VERTEX
  8
LAYER-1
 10
0.517695
 20
5.097651
 30
0.000000
  0
VERTEX
  8
LAYER-1
 10
0.517695
 20
4.882148
 30
0.000000
  0
VERTEX
  8
LAYER-1
 10
0.434916
 20
4.882148
 30
0.000000
  0
SEQEND
  8
LAYER-1
  0
POLYLINE
  8
LAYER-1
 66
  1
 70
  1
 62
  7
  0
VERTEX
  8
LAYER-1
 10
0.578881
 20
5.097651
 30
0.000000
  0
VERTEX
  8
LAYER-1
 10
0.661661
 20
5.097651
 30
0.000000
  0
VERTEX
  8
LAYER-1
 10
0.661661
 20
4.882148
 30
0.000000
  0
VERTEX
  8
LAYER-1
 10
0.578881
 20
4.882148
 30
0.000000
  0
SEQEND
  8
LAYER-1
  0
POLYLINE
  8
LAYER-1
 66
  1
 70
  1
 62
  7
  0
VERTEX
  8
LAYER-1
 10
0.722848
 20
5.097651
 30
0.000000
  0
VERTEX
  8
LAYER-1
 10
0.805627
 20
5.097651
 30
0.000000
  0
VERTEX
  8
LAYER-1
 10
0.805627
 20
4.882148
 30
0.000000
  0
VERTEX
  8
LAYER-1
 10
0.722848
 20
4.882148
 30
0.000000
  0
SEQEND
  8
LAYER-1
  0
POLYLINE
  8
LAYER-1
 66
  1
 70
  1
 62
  7
  0
VERTEX
  8
LAYER-1
 10
0.866814
 20
5.097651
 30
0.000000
  0
VERTEX
  8
LAYER-1
 10
0.949594
 20
5.097651
 30
0.000000
  0
VERTEX
  8
LAYER-1
 10
0.949594
 20
4.882148
 30
0.000000
  0
VERTEX
  8
LAYER-1
 10
0.866814
 20
4.882148
 30
0.000000
  0
SEQEND
  8
LAYER-1
  0
POLYLINE
  8
LAYER-1
 66
  1
 70
  1
 62
  7
  0
VERTEX
  8
LAYER-1
 10
0.075117
 20
4.451175
 30
0.000000
  0
VERTEX
  8
LAYER-1
 10
0.157896
 20
4.451175
 30
0.000000
  0
VERTEX
  8
LAYER-1
 10
0.157896
 20
4.235673
 30
0.000000
  0
VERTEX
  8
LAYER-1
 10
0.075117
 20
4.235673
 30
0.000000
  0
SEQEND
  8
LAYER-1
  0
POLYLINE
  8
LAYER-1
 66
  1
 70
  1
 62
  7
  0
VERTEX
  8
LAYER-1
 10
0.219083
 20
4.451175
 30
0.000000
  0
VERTEX
  8
LAYER-1
 10
0.301864
 20
4.451175
 30
0.000000
  0
VERTEX
  8
LAYER-1
 10
0.301864
 20
4.235673
 30
0.000000
  0
VERTEX
  8
LAYER-1
 10
0.219083
 20
4.235673
 30
0.000000
  0
SEQEND
  8
LAYER-1
  0
POLYLINE
  8
LAYER-1
 66
  1
 70
  1
 62
  7
  0
VERTEX
  8
LAYER-1
 10
0.363050
 20
4.451175
 30
0.000000
  0
VERTEX
  8
LAYER-1
 10
0.445828
 20
4.451175
 30
0.000000
  0
VERTEX
  8
LAYER-1
 10
0.445828
 20
4.235673
 30
0.000000
  0
VERTEX
  8
LAYER-1
 10
0.363050
 20
4.235673
 30
0.000000
  0
SEQEND
  8
LAYER-1
  0
POLYLINE
  8
LAYER-1
 66
  1
 70
  1
 62
  7
  0
VERTEX
  8
LAYER-1
 10
0.507016
 20
4.451175
 30
0.000000
  0
VERTEX
  8
LAYER-1
 10
0.589794
 20
4.451175
 30
0.000000
  0
VERTEX
  8
LAYER-1
 10
0.589794
 20
4.235673
 30
0.000000
  0
VERTEX
  8
LAYER-1
 10
0.507016
 20
4.235673
 30
0.000000
  0
SEQEND
  8
LAYER-1
  0
POLYLINE
  8
LAYER-1
 66
  1
 70
  1
 62
  7
  0
VERTEX
  8
LAYER-1
 10
0.650981
 20
4.451175
 30
0.000000
  0
VERTEX
  8
LAYER-1
 10
0.733761
 20
4.451175
 30
0.000000
  0
VERTEX
  8
LAYER-1
 10
0.733761
 20
4.235673
 30
0.000000
  0
VERTEX
  8
LAYER-1
 10
0.650981
 20
4.235673
 30
0.000000
  0
SEQEND
  8
LAYER-1
  0
POLYLINE
  8
LAYER-1
 66
  1
 70
  1
 62
  7
  0
VERTEX
  8
LAYER-1
 10
0.794948
 20
4.451175
 30
0.000000
  0
VERTEX
  8
LAYER-1
 10
0.877727
 20
4.451175
 30
0.000000
  0
VERTEX
  8
LAYER-1
 10
0.877727
 20
4.235673
 30
0.000000
  0
VERTEX
  8
LAYER-1
 10
0.794948
 20
4.235673
 30
0.000000
  0
SEQEND
  8
LAYER-1
  0
POLYLINE
  8
LAYER-1
 66
  1
 70
  1
 62
  7
  0
VERTEX
  8
LAYER-1
 10
0.938914
 20
4.451175
 30
0.000000
  0
VERTEX
  8
LAYER-1
 10
1.021693
 20
4.451175
 30
0.000000
  0
VERTEX
  8
LAYER-1
 10
1.021693
 20
4.235673
 30
0.000000
  0
VERTEX
  8
LAYER-1
 10
0.938914
 20
4.235673
 30
0.000000
  0
SEQEND
  8
LAYER-1
  0
POLYLINE
  8
LAYER-1
 66
  1
 70
  1
 62
  7
  0
VERTEX
  8
LAYER-1
 10
0.003017
 20
4.666668
 30
0.000000
  0
VERTEX
  8
LAYER-1
 10
0.085796
 20
4.666668
 30
0.000000
  0
VERTEX
  8
LAYER-1
 10
0.085796
 20
4.451164
 30
0.000000
  0
VERTEX
  8
LAYER-1
 10
0.003017
 20
4.451164
 30
0.000000
  0
SEQEND
  8
LAYER-1
  0
POLYLINE
  8
LAYER-1
 66
  1
 70
  1
 62
  7
  0
VERTEX
  8
LAYER-1
 10
0.146983
 20
4.666668
 30
0.000000
  0
VERTEX
  8
LAYER-1
 10
0.229762
 20
4.666668
 30
0.000000
  0
VERTEX
  8
LAYER-1
 10
0.229762
 20
4.451164
 30
0.000000
  0
VERTEX
  8
LAYER-1
 10
0.146983
 20
4.451164
 30
0.000000
  0
SEQEND
  8
LAYER-1
  0
POLYLINE
  8
LAYER-1
 66
  1
 70
  1
 62
  7
  0
VERTEX
  8
LAYER-1
 10
0.290949
 20
4.666668
 30
0.000000
  0
VERTEX
  8
LAYER-1
 10
0.373729
 20
4.666668
 30
0.000000
  0
VERTEX
  8
LAYER-1
 10
0.373729
 20
4.451164
 30
0.000000
  0
VERTEX
  8
LAYER-1
 10
0.290949
 20
4.451164
 30
0.000000
  0
SEQEND
  8
LAYER-1
  0
POLYLINE
  8
LAYER-1
 66
  1
 70
  1
 62
  7
  0
VERTEX
  8
LAYER-1
 10
0.434916
 20
4.666668
 30
0.000000
  0
VERTEX
  8
LAYER-1
 10
0.517695
 20
4.666668
 30
0.000000
  0
VERTEX
  8
LAYER-1
 10
0.517695
 20
4.451164
 30
0.000000
  0
VERTEX
  8
LAYER-1
 10
0.434916
 20
4.451164
 30
0.000000
  0
SEQEND
  8
LAYER-1
  0
POLYLINE
  8
LAYER-1
 66
  1
 70
  1
 62
  7
  0
VERTEX
  8
LAYER-1
 10
0.578881
 20
4.666668
 30
0.000000
  0
VERTEX
  8
LAYER-1
 10
0.661661
 20
4.666668
 30
0.000000
  0
VERTEX
  8
LAYER-1
 10
0.661661
 20
4.451164
 30
0.000000
  0
VERTEX
  8
LAYER-1
 10
0.578881
 20
4.451164
 30
0.000000
  0
SEQEND
  8
LAYER-1
  0
POLYLINE
  8
LAYER-1
 66
  1
 70
  1
 62
  7
  0
VERTEX
  8
LAYER-1
 10
0.722848
 20
4.666668
 30
0.000000
  0
VERTEX
  8
LAYER-1
 10
0.805627
 20
4.666668
 30
0.000000
  0
VERTEX
  8
LAYER-1
 10
0.805627
 20
4.451164
 30
0.000000
  0
VERTEX
  8
LAYER-1
 10
0.722848
 20
4.451164
 30
0.000000
  0
SEQEND
  8
LAYER-1
  0
POLYLINE
  8
LAYER-1
 66
  1
 70
  1
 62
  7
  0
VERTEX
  8
LAYER-1
 10
0.866814
 20
4.666668
 30
0.000000
  0
VERTEX
  8
LAYER-1
 10
0.949594
 20
4.666668
 30
0.000000
  0
VERTEX
  8
LAYER-1
 10
0.949594
 20
4.451164
 30
0.000000
  0
VERTEX
  8
LAYER-1
 10
0.866814
 20
4.451164
 30
0.000000
  0
SEQEND
  8
LAYER-1
  0
POLYLINE
  8
LAYER-1
 66
  1
 70
  1
 62
  7
  0
VERTEX
  8
LAYER-1
 10
0.075117
 20
4.020195
 30
0.000000
  0
VERTEX
  8
LAYER-1
 10
0.157896
 20
4.020195
 30
0.000000
  0
VERTEX
  8
LAYER-1
 10
0.157896
 20
3.804693
 30
0.000000
  0
VERTEX
  8
LAYER-1
 10
0.075117
 20
3.804693
 30
0.000000
  0
SEQEND
  8
LAYER-1
  0
POLYLINE
  8
LAYER-1
 66
  1
 70
  1
 62
  7
  0
VERTEX
  8
LAYER-1
 10
0.219083
 20
4.020195
 30
0.000000
  0
VERTEX
  8
LAYER-1
 10
0.301864
 20
4.020195
 30
0.000000
  0
VERTEX
  8
LAYER-1
 10
0.301864
 20
3.804693
 30
0.000000
  0
VERTEX
  8
LAYER-1
 10
0.219083
 20
3.804693
 30
0.000000
  0
SEQEND
  8
LAYER-1
  0
POLYLINE
  8
LAYER-1
 66
  1
 70
  1
 62
  7
  0
VERTEX
  8
LAYER-1
 10
0.363050
 20
4.020195
 30
0.000000
  0
VERTEX
  8
LAYER-1
 10
0.445828
 20
4.020195
 30
0.000000
  0
VERTEX
  8
LAYER-1
 10
0.445828
 20
3.804693
 30
0.000000
  0
VERTEX
  8
LAYER-1
 10
0.363050
 20
3.804693
 30
0.000000
  0
SEQEND
  8
LAYER-1
  0
POLYLINE
  8
LAYER-1
 66
  1
 70
  1
 62
  7
  0
VERTEX
  8
LAYER-1
 10
0.507016
 20
4.020195
 30
0.000000
  0
VERTEX
  8
LAYER-1
 10
0.589794
 20
4.020195
 30
0.000000
  0
VERTEX
  8
LAYER-1
 10
0.589794
 20
3.804693
 30
0.000000
  0
VERTEX
  8
LAYER-1
 10
0.507016
 20
3.804693
 30
0.000000
  0
SEQEND
  8
LAYER-1
  0
POLYLINE
  8
LAYER-1
 66
  1
 70
  1
 62
  7
  0
VERTEX
  8
LAYER-1
 10
0.650981
 20
4.020195
 30
0.000000
  0
VERTEX
  8
LAYER-1
 10
0.733761
 20
4.020195
 30
0.000000
  0
VERTEX
  8
LAYER-1
 10
0.733761
 20
3.804693
 30
0.000000
  0
VERTEX
  8
LAYER-1
 10
0.650981
 20
3.804693
 30
0.000000
  0
SEQEND
  8
LAYER-1
  0
POLYLINE
  8
LAYER-1
 66
  1
 70
  1
 62
  7
  0
VERTEX
  8
LAYER-1
 10
0.794948
 20
4.020195
 30
0.000000
  0
VERTEX
  8
LAYER-1
 10
0.877727
 20
4.020195
 30
0.000000
  0
VERTEX
  8
LAYER-1
 10
0.877727
 20
3.804693
 30
0.000000
  0
VERTEX
  8
LAYER-1
 10
0.794948
 20
3.804693
 30
0.000000
  0
SEQEND
  8
LAYER-1
  0
POLYLINE
  8
LAYER-1
 66
  1
 70
  1
 62
  7
  0
VERTEX
  8
LAYER-1
 10
0.938914
 20
4.020195
 30
0.000000
  0
VERTEX
  8
LAYER-1
 10
1.021693
 20
4.020195
 30
0.000000
  0
VERTEX
  8
LAYER-1
 10
1.021693
 20
3.804693
 30
0.000000
  0
VERTEX
  8
LAYER-1
 10
0.938914
 20
3.804693
 30
0.000000
  0
SEQEND
  8
LAYER-1
  0
POLYLINE
  8
LAYER-1
 66
  1
 70
  1
 62
  7
  0
VERTEX
  8
LAYER-1
 10
0.003017
 20
4.235685
 30
0.000000
  0
VERTEX
  8
LAYER-1
 10
0.085796
 20
4.235685
 30
0.000000
  0
VERTEX
  8
LAYER-1
 10
0.085796
 20
4.020182
 30
0.000000
  0
VERTEX
  8
LAYER-1
 10
0.003017
 20
4.020182
 30
0.000000
  0
SEQEND
  8
LAYER-1
  0
POLYLINE
  8
LAYER-1
 66
  1
 70
  1
 62
  7
  0
VERTEX
  8
LAYER-1
 10
0.146983
 20
4.235685
 30
0.000000
  0
VERTEX
  8
LAYER-1
 10
0.229762
 20
4.235685
 30
0.000000
  0
VERTEX
  8
LAYER-1
 10
0.229762
 20
4.020182
 30
0.000000
  0
VERTEX
  8
LAYER-1
 10
0.146983
 20
4.020182
 30
0.000000
  0
SEQEND
  8
LAYER-1
  0
POLYLINE
  8
LAYER-1
 66
  1
 70
  1
 62
  7
  0
VERTEX
  8
LAYER-1
 10
0.290949
 20
4.235685
 30
0.000000
  0
VERTEX
  8
LAYER-1
 10
0.373729
 20
4.235685
 30
0.000000
  0
VERTEX
  8
LAYER-1
 10
0.373729
 20
4.020182
 30
0.000000
  0
VERTEX
  8
LAYER-1
 10
0.290949
 20
4.020182
 30
0.000000
  0
SEQEND
  8
LAYER-1
  0
POLYLINE
  8
LAYER-1
 66
  1
 70
  1
 62
  7
  0
VERTEX
  8
LAYER-1
 10
0.434916
 20
4.235685
 30
0.000000
  0
VERTEX
  8
LAYER-1
 10
0.517695
 20
4.235685
 30
0.000000
  0
VERTEX
  8
LAYER-1
 10
0.517695
 20
4.020182
 30
0.000000
  0
VERTEX
  8
LAYER-1
 10
0.434916
 20
4.020182
 30
0.000000
  0
SEQEND
  8
LAYER-1
  0
POLYLINE
  8
LAYER-1
 66
  1
 70
  1
 62
  7
  0
VERTEX
  8
LAYER-1
 10
0.578881
 20
4.235685
 30
0.000000
  0
VERTEX
  8
LAYER-1
 10
0.661661
 20
4.235685
 30
0.000000
  0
VERTEX
  8
LAYER-1
 10
0.661661
 20
4.020182
 30
0.000000
  0
VERTEX
  8
LAYER-1
 10
0.578881
 20
4.020182
 30
0.000000
  0
SEQEND
  8
LAYER-1
  0
POLYLINE
  8
LAYER-1
 66
  1
 70
  1
 62
  7
  0
VERTEX
  8
LAYER-1
 10
0.722848
 20
4.235685
 30
0.000000
  0
VERTEX
  8
LAYER-1
 10
0.805627
 20
4.235685
 30
0.000000
  0
VERTEX
  8
LAYER-1
 10
0.805627
 20
4.020182
 30
0.000000
  0
VERTEX
  8
LAYER-1
 10
0.722848
 20
4.020182
 30
0.000000
  0
SEQEND
  8
LAYER-1
  0
POLYLINE
  8
LAYER-1
 66
  1
 70
  1
 62
  7
  0
VERTEX
  8
LAYER-1
 10
0.866814
 20
4.235685
 30
0.000000
  0
VERTEX
  8
LAYER-1
 10
0.949594
 20
4.235685
 30
0.000000
  0
VERTEX
  8
LAYER-1
 10
0.949594
 20
4.020182
 30
0.000000
  0
VERTEX
  8
LAYER-1
 10
0.866814
 20
4.020182
 30
0.000000
  0
SEQEND
  8
LAYER-1
  0
POLYLINE
  8
LAYER-1
 66
  1
 70
  1
 62
  7
  0
VERTEX
  8
LAYER-1
 10
0.003017
 20
3.804705
 30
0.000000
  0
VERTEX
  8
LAYER-1
 10
0.085796
 20
3.804705
 30
0.000000
  0
VERTEX
  8
LAYER-1
 10
0.085796
 20
3.589203
 30
0.000000
  0
VERTEX
  8
LAYER-1
 10
0.003017
 20
3.589203
 30
0.000000
  0
SEQEND
  8
LAYER-1
  0
POLYLINE
  8
LAYER-1
 66
  1
 70
  1
 62
  7
  0
VERTEX
  8
LAYER-1
 10
0.146983
 20
3.804705
 30
0.000000
  0
VERTEX
  8
LAYER-1
 10
0.229762
 20
3.804705
 30
0.000000
  0
VERTEX
  8
LAYER-1
 10
0.229762
 20
3.589203
 30
0.000000
  0
VERTEX
  8
LAYER-1
 10
0.146983
 20
3.589203
 30
0.000000
  0
SEQEND
  8
LAYER-1
  0
POLYLINE
  8
LAYER-1
 66
  1
 70
  1
 62
  7
  0
VERTEX
  8
LAYER-1
 10
0.290949
 20
3.804705
 30
0.000000
  0
VERTEX
  8
LAYER-1
 10
0.373729
 20
3.804705
 30
0.000000
  0
VERTEX
  8
LAYER-1
 10
0.373729
 20
3.589203
 30
0.000000
  0
VERTEX
  8
LAYER-1
 10
0.290949
 20
3.589203
 30
0.000000
  0
SEQEND
  8
LAYER-1
  0
POLYLINE
  8
LAYER-1
 66
  1
 70
  1
 62
  7
  0
VERTEX
  8
LAYER-1
 10
0.434916
 20
3.804705
 30
0.000000
  0
VERTEX
  8
LAYER-1
 10
0.517695
 20
3.804705
 30
0.000000
  0
VERTEX
  8
LAYER-1
 10
0.517695
 20
3.589203
 30
0.000000
  0
VERTEX
  8
LAYER-1
 10
0.434916
 20
3.589203
 30
0.000000
  0
SEQEND
  8
LAYER-1
  0
POLYLINE
  8
LAYER-1
 66
  1
 70
  1
 62
  7
  0
VERTEX
  8
LAYER-1
 10
0.578881
 20
3.804705
 30
0.000000
  0
VERTEX
  8
LAYER-1
 10
0.661661
 20
3.804705
 30
0.000000
  0
VERTEX
  8
LAYER-1
 10
0.661661
 20
3.589203
 30
0.000000
  0
VERTEX
  8
LAYER-1
 10
0.578881
 20
3.589203
 30
0.000000
  0
SEQEND
  8
LAYER-1
  0
POLYLINE
  8
LAYER-1
 66
  1
 70
  1
 62
  7
  0
VERTEX
  8
LAYER-1
 10
0.722848
 20
3.804705
 30
0.000000
  0
VERTEX
  8
LAYER-1
 10
0.805627
 20
3.804705
 30
0.000000
  0
VERTEX
  8
LAYER-1
 10
0.805627
 20
3.589203
 30
0.000000
  0
VERTEX
  8
LAYER-1
 10
0.722848
 20
3.589203
 30
0.000000
  0
SEQEND
  8
LAYER-1
  0
POLYLINE
  8
LAYER-1
 66
  1
 70
  1
 62
  7
  0
VERTEX
  8
LAYER-1
 10
0.866814
 20
3.804705
 30
0.000000
  0
VERTEX
  8
LAYER-1
 10
0.949594
 20
3.804705
 30
0.000000
  0
VERTEX
  8
LAYER-1
 10
0.949594
 20
3.589203
 30
0.000000
  0
VERTEX
  8
LAYER-1
 10
0.866814
 20
3.589203
 30
0.000000
  0
SEQEND
  8
LAYER-1
  0
POLYLINE
  8
LAYER-1
 66
  1
 70
  0
 62
  7
 10
1.010902
 20
4.882029
 30
0.000000
  0
VERTEX
  8
LAYER-1
 10
1.010902
 20
4.882029
 30
0.000000
  0
VERTEX
  8
LAYER-1
 10
1.010902
 20
4.666606
 30
0.000000
  0
SEQEND
  8
LAYER-1
  0
POLYLINE
  8
LAYER-1
 66
  1
 70
  0
 62
  7
 10
0.013899
 20
4.666328
 30
0.000000
  0
VERTEX
  8
LAYER-1
 10
0.013899
 20
4.666328
 30
0.000000
  0
VERTEX
  8
LAYER-1
 10
0.013889
 20
4.451043
 30
0.000000
  0
SEQEND
  8
LAYER-1
  0
POLYLINE
  8
LAYER-1
 66
  1
 70
  0
 62
  7
 10
1.010902
 20
4.451043
 30
0.000000
  0
VERTEX
  8
LAYER-1
 10
1.010902
 20
4.451043
 30
0.000000
  0
VERTEX
  8
LAYER-1
 10
1.010902
 20
4.235624
 30
0.000000
  0
SEQEND
  8
LAYER-1
  0
POLYLINE
  8
LAYER-1
 66
  1
 70
  0
 62
  7
 10
0.013899
 20
4.235346
 30
0.000000
  0
VERTEX
  8
LAYER-1
 10
0.013899
 20
4.235346
 30
0.000000
  0
VERTEX
  8
LAYER-1
 10
0.013889
 20
4.020063
 30
0.000000
  0
SEQEND
  8
LAYER-1
  0
POLYLINE
  8
LAYER-1
 66
  1
 70
  0
 62
  7
 10
1.010902
 20
4.020063
 30
0.000000
  0
VERTEX
  8
LAYER-1
 10
1.010902
 20
4.020063
 30
0.000000
  0
VERTEX
  8
LAYER-1
 10
1.010902
 20
3.804644
 30
0.000000
  0
SEQEND
  8
LAYER-1
  0
POLYLINE
  8
LAYER-1
 66
  1
 70
  1
 62
  7
  0
VERTEX
  8
LAYER-1
 10
0.003007
 20
5.193078
 30
0.000000
  0
VERTEX
  8
LAYER-1
 10
0.147112
 20
5.193078
 30
0.000000
  0
VERTEX
  8
LAYER-1
 10
0.147112
 20
5.097492
 30
0.000000
  0
VERTEX
  8
LAYER-1
 10
0.003007
 20
5.097492
 30
0.000000
  0
SEQEND
  8
LAYER-1
  0
POLYLINE
  8
LAYER-1
 66
  1
 70
  1
 62
  7
  0
VERTEX
  8
LAYER-1
 10
0.147050
 20
5.193078
 30
0.000000
  0
VERTEX
  8
LAYER-1
 10
0.291156
 20
5.193078
 30
0.000000
  0
VERTEX
  8
LAYER-1
 10
0.291156
 20
5.097492
 30
0.000000
  0
VERTEX
  8
LAYER-1
 10
0.147050
 20
5.097492
 30
0.000000
  0
SEQEND
  8
LAYER-1
  0
POLYLINE
  8
LAYER-1
 66
  1
 70
  1
 62
  7
  0
VERTEX
  8
LAYER-1
 10
0.290953
 20
5.193078
 30
0.000000
  0
VERTEX
  8
LAYER-1
 10
0.434917
 20
5.193078
 30
0.000000
  0
VERTEX
  8
LAYER-1
 10
0.434917
 20
5.097492
 30
0.000000
  0
VERTEX
  8
LAYER-1
 10
0.290953
 20
5.097492
 30
0.000000
  0
SEQEND
  8
LAYER-1
  0
POLYLINE
  8
LAYER-1
 66
  1
 70
  1
 62
  7
  0
VERTEX
  8
LAYER-1
 10
0.434996
 20
5.193078
 30
0.000000
  0
VERTEX
  8
LAYER-1
 10
0.578960
 20
5.193078
 30
0.000000
  0
VERTEX
  8
LAYER-1
 10
0.578960
 20
5.097492
 30
0.000000
  0
VERTEX
  8
LAYER-1
 10
0.434996
 20
5.097492
 30
0.000000
  0
SEQEND
  8
LAYER-1
  0
POLYLINE
  8
LAYER-1
 66
  1
 70
  1
 62
  7
  0
VERTEX
  8
LAYER-1
 10
0.579038
 20
5.193078
 30
0.000000
  0
VERTEX
  8
LAYER-1
 10
0.722861
 20
5.193078
 30
0.000000
  0
VERTEX
  8
LAYER-1
 10
0.722861
 20
5.097492
 30
0.000000
  0
VERTEX
  8
LAYER-1
 10
0.579038
 20
5.097492
 30
0.000000
  0
SEQEND
  8
LAYER-1
  0
POLYLINE
  8
LAYER-1
 66
  1
 70
  1
 62
  7
  0
VERTEX
  8
LAYER-1
 10
0.722801
 20
5.193078
 30
0.000000
  0
VERTEX
  8
LAYER-1
 10
0.866904
 20
5.193078
 30
0.000000
  0
VERTEX
  8
LAYER-1
 10
0.866904
 20
5.097492
 30
0.000000
  0
VERTEX
  8
LAYER-1
 10
0.722801
 20
5.097492
 30
0.000000
  0
SEQEND
  8
LAYER-1
  0
POLYLINE
  8
LAYER-1
 66
  1
 70
  1
 62
  7
  0
VERTEX
  8
LAYER-1
 10
0.866843
 20
5.193078
 30
0.000000
  0
VERTEX
  8
LAYER-1
 10
1.021790
 20
5.193078
 30
0.000000
  0
VERTEX
  8
LAYER-1
 10
1.021790
 20
5.097492
 30
0.000000
  0
VERTEX
  8
LAYER-1
 10
0.866843
 20
5.097492
 30
0.000000
  0
SEQEND
  8
LAYER-1
  0
POLYLINE
  8
LAYER-1
 66
  1
 70
  0
 62
  7
 10
0.013889
 20
5.193137
 30
0.000000
  0
VERTEX
  8
LAYER-1
 10
0.013889
 20
5.193137
 30
0.000000
  0
VERTEX
  8
LAYER-1
 10
0.013889
 20
4.882151
 30
0.000000
  0
SEQEND
  8
LAYER-1
  0
POLYLINE
  8
LAYER-1
 66
  1
 70
  1
 62
  7
  0
VERTEX
  8
LAYER-1
 10
0.003007
 20
3.589166
 30
0.000000
  0
VERTEX
  8
LAYER-1
 10
0.147112
 20
3.589166
 30
0.000000
  0
VERTEX
  8
LAYER-1
 10
0.147112
 20
3.493580
 30
0.000000
  0
VERTEX
  8
LAYER-1
 10
0.003007
 20
3.493580
 30
0.000000
  0
SEQEND
  8
LAYER-1
  0
POLYLINE
  8
LAYER-1
 66
  1
 70
  1
 62
  7
  0
VERTEX
  8
LAYER-1
 10
0.147050
 20
3.589166
 30
0.000000
  0
VERTEX
  8
LAYER-1
 10
0.291156
 20
3.589166
 30
0.000000
  0
VERTEX
  8
LAYER-1
 10
0.291156
 20
3.493580
 30
0.000000
  0
VERTEX
  8
LAYER-1
 10
0.147050
 20
3.493580
 30
0.000000
  0
SEQEND
  8
LAYER-1
  0
POLYLINE
  8
LAYER-1
 66
  1
 70
  1
 62
  7
  0
VERTEX
  8
LAYER-1
 10
0.290953
 20
3.589166
 30
0.000000
  0
VERTEX
  8
LAYER-1
 10
0.434917
 20
3.589166
 30
0.000000
  0
VERTEX
  8
LAYER-1
 10
0.434917
 20
3.493580
 30
0.000000
  0
VERTEX
  8
LAYER-1
 10
0.290953
 20
3.493580
 30
0.000000
  0
SEQEND
  8
LAYER-1
  0
POLYLINE
  8
LAYER-1
 66
  1
 70
  1
 62
  7
  0
VERTEX
  8
LAYER-1
 10
0.434996
 20
3.589166
 30
0.000000
  0
VERTEX
  8
LAYER-1
 10
0.578960
 20
3.589166
 30
0.000000
  0
VERTEX
  8
LAYER-1
 10
0.578960
 20
3.493580
 30
0.000000
  0
VERTEX
  8
LAYER-1
 10
0.434996
 20
3.493580
 30
0.000000
  0
SEQEND
  8
LAYER-1
  0
POLYLINE
  8
LAYER-1
 66
  1
 70
  1
 62
  7
  0
VERTEX
  8
LAYER-1
 10
0.579038
 20
3.589166
 30
0.000000
  0
VERTEX
  8
LAYER-1
 10
0.722861
 20
3.589166
 30
0.000000
  0
VERTEX
  8
LAYER-1
 10
0.722861
 20
3.493580
 30
0.000000
  0
VERTEX
  8
LAYER-1
 10
0.579038
 20
3.493580
 30
0.000000
  0
SEQEND
  8
LAYER-1
  0
POLYLINE
  8
LAYER-1
 66
  1
 70
  1
 62
  7
  0
VERTEX
  8
LAYER-1
 10
0.722801
 20
3.589166
 30
0.000000
  0
VERTEX
  8
LAYER-1
 10
0.866904
 20
3.589166
 30
0.000000
  0
VERTEX
  8
LAYER-1
 10
0.866904
 20
3.493580
 30
0.000000
  0
VERTEX
  8
LAYER-1
 10
0.722801
 20
3.493580
 30
0.000000
  0
SEQEND
  8
LAYER-1
  0
POLYLINE
  8
LAYER-1
 66
  1
 70
  1
 62
  7
  0
VERTEX
  8
LAYER-1
 10
0.866843
 20
3.589166
 30
0.000000
  0
VERTEX
  8
LAYER-1
 10
1.021790
 20
3.589166
 30
0.000000
  0
VERTEX
  8
LAYER-1
 10
1.021790
 20
3.493580
 30
0.000000
  0
VERTEX
  8
LAYER-1
 10
0.866843
 20
3.493580
 30
0.000000
  0
SEQEND
  8
LAYER-1
  0
POLYLINE
  8
LAYER-1
 66
  1
 70
  0
 62
  7
 10
0.075083
 20
5.193089
 30
0.000000
  0
VERTEX
  8
LAYER-1
 10
0.075083
 20
5.193089
 30
0.000000
  0
VERTEX
  8
LAYER-1
 10
0.075083
 20
3.493798
 30
0.000000
  0
SEQEND
  8
LAYER-1
  0
POLYLINE
  8
LAYER-1
 66
  1
 70
  0
 62
  7
 10
0.085883
 20
5.193089
 30
0.000000
  0
VERTEX
  8
LAYER-1
 10
0.085883
 20
5.193089
 30
0.000000
  0
VERTEX
  8
LAYER-1
 10
0.085883
 20
3.493798
 30
0.000000
  0
SEQEND
  8
LAYER-1
  0
POLYLINE
  8
LAYER-1
 66
  1
 70
  0
 62
  7
 10
0.147066
 20
5.193089
 30
0.000000
  0
VERTEX
  8
LAYER-1
 10
0.147066
 20
5.193089
 30
0.000000
  0
VERTEX
  8
LAYER-1
 10
0.147066
 20
3.493798
 30
0.000000
  0
SEQEND
  8
LAYER-1
  0
POLYLINE
  8
LAYER-1
 66
  1
 70
  0
 62
  7
 10
0.157867
 20
5.193089
 30
0.000000
  0
VERTEX
  8
LAYER-1
 10
0.157867
 20
5.193089
 30
0.000000
  0
VERTEX
  8
LAYER-1
 10
0.157867
 20
3.493798
 30
0.000000
  0
SEQEND
  8
LAYER-1
  0
POLYLINE
  8
LAYER-1
 66
  1
 70
  0
 62
  7
 10
0.219048
 20
5.193089
 30
0.000000
  0
VERTEX
  8
LAYER-1
 10
0.219048
 20
5.193089
 30
0.000000
  0
VERTEX
  8
LAYER-1
 10
0.219048
 20
3.493798
 30
0.000000
  0
SEQEND
  8
LAYER-1
  0
POLYLINE
  8
LAYER-1
 66
  1
 70
  0
 62
  7
 10
0.229850
 20
5.193089
 30
0.000000
  0
VERTEX
  8
LAYER-1
 10
0.229850
 20
5.193089
 30
0.000000
  0
VERTEX
  8
LAYER-1
 10
0.229850
 20
3.493798
 30
0.000000
  0
SEQEND
  8
LAYER-1
  0
POLYLINE
  8
LAYER-1
 66
  1
 70
  0
 62
  7
 10
0.363016
 20
5.193089
 30
0.000000
  0
VERTEX
  8
LAYER-1
 10
0.363016
 20
5.193089
 30
0.000000
  0
VERTEX
  8
LAYER-1
 10
0.363016
 20
3.493798
 30
0.000000
  0
SEQEND
  8
LAYER-1
  0
POLYLINE
  8
LAYER-1
 66
  1
 70
  0
 62
  7
 10
0.373816
 20
5.193089
 30
0.000000
  0
VERTEX
  8
LAYER-1
 10
0.373816
 20
5.193089
 30
0.000000
  0
VERTEX
  8
LAYER-1
 10
0.373816
 20
3.493798
 30
0.000000
  0
SEQEND
  8
LAYER-1
  0
POLYLINE
  8
LAYER-1
 66
  1
 70
  0
 62
  7
 10
0.434998
 20
5.193089
 30
0.000000
  0
VERTEX
  8
LAYER-1
 10
0.434998
 20
5.193089
 30
0.000000
  0
VERTEX
  8
LAYER-1
 10
0.434998
 20
3.493798
 30
0.000000
  0
SEQEND
  8
LAYER-1
  0
POLYLINE
  8
LAYER-1
 66
  1
 70
  0
 62
  7
 10
0.445799
 20
5.193089
 30
0.000000
  0
VERTEX
  8
LAYER-1
 10
0.445799
 20
5.193089
 30
0.000000
  0
VERTEX
  8
LAYER-1
 10
0.445799
 20
3.493798
 30
0.000000
  0
SEQEND
  8
LAYER-1
  0
POLYLINE
  8
LAYER-1
 66
  1
 70
  0
 62
  7
 10
0.506981
 20
5.193089
 30
0.000000
  0
VERTEX
  8
LAYER-1
 10
0.506981
 20
5.193089
 30
0.000000
  0
VERTEX
  8
LAYER-1
 10
0.506981
 20
3.493798
 30
0.000000
  0
SEQEND
  8
LAYER-1
  0
POLYLINE
  8
LAYER-1
 66
  1
 70
  0
 62
  7
 10
0.517781
 20
5.193089
 30
0.000000
  0
VERTEX
  8
LAYER-1
 10
0.517781
 20
5.193089
 30
0.000000
  0
VERTEX
  8
LAYER-1
 10
0.517781
 20
3.493798
 30
0.000000
  0
SEQEND
  8
LAYER-1
  0
POLYLINE
  8
LAYER-1
 66
  1
 70
  0
 62
  7
 10
0.578964
 20
5.193089
 30
0.000000
  0
VERTEX
  8
LAYER-1
 10
0.578964
 20
5.193089
 30
0.000000
  0
VERTEX
  8
LAYER-1
 10
0.578964
 20
3.493798
 30
0.000000
  0
SEQEND
  8
LAYER-1
  0
POLYLINE
  8
LAYER-1
 66
  1
 70
  0
 62
  7
 10
0.589764
 20
5.193089
 30
0.000000
  0
VERTEX
  8
LAYER-1
 10
0.589764
 20
5.193089
 30
0.000000
  0
VERTEX
  8
LAYER-1
 10
0.589764
 20
3.493798
 30
0.000000
  0
SEQEND
  8
LAYER-1
  0
POLYLINE
  8
LAYER-1
 66
  1
 70
  0
 62
  7
 10
0.650947
 20
5.193089
 30
0.000000
  0
VERTEX
  8
LAYER-1
 10
0.650947
 20
5.193089
 30
0.000000
  0
VERTEX
  8
LAYER-1
 10
0.650947
 20
3.493798
 30
0.000000
  0
SEQEND
  8
LAYER-1
  0
POLYLINE
  8
LAYER-1
 66
  1
 70
  0
 62
  7
 10
0.661747
 20
5.193089
 30
0.000000
  0
VERTEX
  8
LAYER-1
 10
0.661747
 20
5.193089
 30
0.000000
  0
VERTEX
  8
LAYER-1
 10
0.661747
 20
3.493798
 30
0.000000
  0
SEQEND
  8
LAYER-1
  0
POLYLINE
  8
LAYER-1
 66
  1
 70
  0
 62
  7
 10
0.794915
 20
5.193089
 30
0.000000
  0
VERTEX
  8
LAYER-1
 10
0.794915
 20
5.193089
 30
0.000000
  0
VERTEX
  8
LAYER-1
 10
0.794915
 20
3.493798
 30
0.000000
  0
SEQEND
  8
LAYER-1
  0
POLYLINE
  8
LAYER-1
 66
  1
 70
  0
 62
  7
 10
0.805715
 20
5.193089
 30
0.000000
  0
VERTEX
  8
LAYER-1
 10
0.805715
 20
5.193089
 30
0.000000
  0
VERTEX
  8
LAYER-1
 10
0.805715
 20
3.493798
 30
0.000000
  0
SEQEND
  8
LAYER-1
  0
POLYLINE
  8
LAYER-1
 66
  1
 70
  0
 62
  7
 10
0.866896
 20
5.193089
 30
0.000000
  0
VERTEX
  8
LAYER-1
 10
0.866896
 20
5.193089
 30
0.000000
  0
VERTEX
  8
LAYER-1
 10
0.866896
 20
3.493798
 30
0.000000
  0
SEQEND
  8
LAYER-1
  0
POLYLINE
  8
LAYER-1
 66
  1
 70
  0
 62
  7
 10
0.877697
 20
5.193089
 30
0.000000
  0
VERTEX
  8
LAYER-1
 10
0.877697
 20
5.193089
 30
0.000000
  0
VERTEX
  8
LAYER-1
 10
0.877697
 20
3.493798
 30
0.000000
  0
SEQEND
  8
LAYER-1
  0
POLYLINE
  8
LAYER-1
 66
  1
 70
  0
 62
  7
 10
0.938881
 20
5.193089
 30
0.000000
  0
VERTEX
  8
LAYER-1
 10
0.938881
 20
5.193089
 30
0.000000
  0
VERTEX
  8
LAYER-1
 10
0.938881
 20
3.493798
 30
0.000000
  0
SEQEND
  8
LAYER-1
  0
POLYLINE
  8
LAYER-1
 66
  1
 70
  0
 62
  7
 10
0.949681
 20
5.193089
 30
0.000000
  0
VERTEX
  8
LAYER-1
 10
0.949681
 20
5.193089
 30
0.000000
  0
VERTEX
  8
LAYER-1
 10
0.949681
 20
3.493798
 30
0.000000
  0
SEQEND
  8
LAYER-1
  0
POLYLINE
  8
LAYER-1
 66
  1
 70
  0
 62
  7
 10
0.291031
 20
5.193089
 30
0.000000
  0
VERTEX
  8
LAYER-1
 10
0.291031
 20
5.193089
 30
0.000000
  0
VERTEX
  8
LAYER-1
 10
0.291031
 20
3.493570
 30
0.000000
  0
SEQEND
  8
LAYER-1
  0
POLYLINE
  8
LAYER-1
 66
  1
 70
  0
 62
  7
 10
0.301833
 20
5.193089
 30
0.000000
  0
VERTEX
  8
LAYER-1
 10
0.301833
 20
5.193089
 30
0.000000
  0
VERTEX
  8
LAYER-1
 10
0.301833
 20
3.493570
 30
0.000000
  0
SEQEND
  8
LAYER-1
  0
POLYLINE
  8
LAYER-1
 66
  1
 70
  0
 62
  7
 10
0.722932
 20
5.192838
 30
0.000000
  0
VERTEX
  8
LAYER-1
 10
0.722932
 20
5.192838
 30
0.000000
  0
VERTEX
  8
LAYER-1
 10
0.722932
 20
3.493570
 30
0.000000
  0
SEQEND
  8
LAYER-1
  0
POLYLINE
  8
LAYER-1
 66
  1
 70
  0
 62
  7
 10
0.733732
 20
5.192838
 30
0.000000
  0
VERTEX
  8
LAYER-1
 10
0.733732
 20
5.192838
 30
0.000000
  0
VERTEX
  8
LAYER-1
 10
0.733732
 20
3.493570
 30
0.000000
  0
SEQEND
  8
LAYER-1
  0
POLYLINE
  8
LAYER-1
 66
  1
 70
  0
 62
  7
 10
1.010902
 20
5.193284
 30
0.000000
  0
VERTEX
  8
LAYER-1
 10
1.010902
 20
5.193284
 30
0.000000
  0
VERTEX
  8
LAYER-1
 10
1.010902
 20
5.097540
 30
0.000000
  0
SEQEND
  8
LAYER-1
  0
POLYLINE
  8
LAYER-1
 66
  1
 70
  0
 62
  7
 10
0.014030
 20
3.804615
 30
0.000000
  0
VERTEX
  8
LAYER-1
 10
0.014030
 20
3.804615
 30
0.000000
  0
VERTEX
  8
LAYER-1
 10
0.013889
 20
3.493480
 30
0.000000
  0
SEQEND
  8
LAYER-1
  0
POLYLINE
  8
LAYER-1
 66
  1
 70
  0
 62
  7
 10
1.011042
 20
3.589226
 30
0.000000
  0
VERTEX
  8
LAYER-1
 10
1.011042
 20
3.589226
 30
0.000000
  0
VERTEX
  8
LAYER-1
 10
1.010902
 20
3.493630
 30
0.000000
  0
SEQEND
  8
LAYER-1
  0
TEXT
  8
LAYER-1
 62
  0
 10
0.125334
 20
3.291444
 30
0.000000
 40
0.104167
  1
CONCEPT 99
 72
  5
 11
1.083667
 21
3.291444
 31
0.000000
  0
TEXT
  8
LAYER-1
 62
  0
 10
0.292000
 20
3.221999
 30
0.000000
 40
0.083333
  1
(Calado)
 72
  5
 11
0.778111
 21
3.221999
 31
0.000000
  0
POLYLINE
  8
LAYER-1
 66
  1
 70
  0
 62
  0
 10
3.643460
 20
1.231082
 30
0.000000
  0
VERTEX
  8
LAYER-1
 10
3.643460
 20
1.231082
 30
0.000000
  0
VERTEX
  8
LAYER-1
 10
1.768563
 20
1.231082
 30
0.000000
  0
SEQEND
  8
LAYER-1
  0
POLYLINE
  8
LAYER-1
 66
  1
 70
  0
 62
  0
 10
3.643460
 20
2.464102
 30
0.000000
  0
VERTEX
  8
LAYER-1
 10
3.643460
 20
2.464102
 30
0.000000
  0
VERTEX
  8
LAYER-1
 10
1.768563
 20
2.464102
 30
0.000000
  0
SEQEND
  8
LAYER-1
  0
POLYLINE
  8
LAYER-1
 66
  1
 70
  0
 62
  0
 10
3.643460
 20
3.697124
 30
0.000000
  0
VERTEX
  8
LAYER-1
 10
3.643460
 20
3.697124
 30
0.000000
  0
VERTEX
  8
LAYER-1
 10
1.768563
 20
3.697124
 30
0.000000
  0
SEQEND
  8
LAYER-1
  0
POLYLINE
  8
LAYER-1
 66
  1
 70
  0
 62
  0
 10
3.643460
 20
4.930144
 30
0.000000
  0
VERTEX
  8
LAYER-1
 10
3.643460
 20
4.930144
 30
0.000000
  0
VERTEX
  8
LAYER-1
 10
1.768563
 20
4.930144
 30
0.000000
  0
SEQEND
  8
LAYER-1
  0
POLYLINE
  8
LAYER-1
 66
  1
 70
  0
 62
  0
 10
3.643460
 20
6.163165
 30
0.000000
  0
VERTEX
  8
LAYER-1
 10
3.643460
 20
6.163165
 30
0.000000
  0
VERTEX
  8
LAYER-1
 10
1.768563
 20
6.163165
 30
0.000000
  0
SEQEND
  8
LAYER-1
  0
POLYLINE
  8
LAYER-1
 66
  1
 70
  0
 62
  0
 10
3.643563
 20
1.847727
 30
0.000000
  0
VERTEX
  8
LAYER-1
 10
3.643563
 20
1.847727
 30
0.000000
  0
VERTEX
  8
LAYER-1
 10
1.768563
 20
1.847727
 30
0.000000
  0
SEQEND
  8
LAYER-1
  0
POLYLINE
  8
LAYER-1
 66
  1
 70
  0
 62
  0
 10
3.643563
 20
3.080747
 30
0.000000
  0
VERTEX
  8
LAYER-1
 10
3.643563
 20
3.080747
 30
0.000000
  0
VERTEX
  8
LAYER-1
 10
1.768563
 20
3.080747
 30
0.000000
  0
SEQEND
  8
LAYER-1
  0
POLYLINE
  8
LAYER-1
 66
  1
 70
  0
 62
  0
 10
3.643563
 20
4.313769
 30
0.000000
  0
VERTEX
  8
LAYER-1
 10
3.643563
 20
4.313769
 30
0.000000
  0
VERTEX
  8
LAYER-1
 10
1.769431
 20
4.313769
 30
0.000000
  0
SEQEND
  8
LAYER-1
  0
POLYLINE
  8
LAYER-1
 66
  1
 70
  0
 62
  0
 10
3.643563
 20
5.546789
 30
0.000000
  0
VERTEX
  8
LAYER-1
 10
3.643563
 20
5.546789
 30
0.000000
  0
VERTEX
  8
LAYER-1
 10
1.768563
 20
5.546789
 30
0.000000
  0
SEQEND
  8
LAYER-1
  0
POLYLINE
  8
LAYER-1
 66
  1
 70
  0
 62
  0
 10
1.769431
 20
6.780158
 30
0.000000
  0
VERTEX
  8
LAYER-1
 10
1.769431
 20
6.780158
 30
0.000000
  0
VERTEX
  8
LAYER-1
 10
3.642694
 20
6.780158
 30
0.000000
  0
SEQEND
  8
LAYER-1
  0
POLYLINE
  8
LAYER-1
 66
  1
 70
  0
 62
  0
 10
5.690336
 20
1.230773
 30
0.000000
  0
VERTEX
  8
LAYER-1
 10
5.690336
 20
1.230773
 30
0.000000
  0
VERTEX
  8
LAYER-1
 10
3.815439
 20
1.230773
 30
0.000000
  0
SEQEND
  8
LAYER-1
  0
POLYLINE
  8
LAYER-1
 66
  1
 70
  0
 62
  0
 10
5.690336
 20
2.463793
 30
0.000000
  0
VERTEX
  8
LAYER-1
 10
5.690336
 20
2.463793
 30
0.000000
  0
VERTEX
  8
LAYER-1
 10
3.815439
 20
2.463793
 30
0.000000
  0
SEQEND
  8
LAYER-1
  0
POLYLINE
  8
LAYER-1
 66
  1
 70
  0
 62
  0
 10
5.690336
 20
3.696815
 30
0.000000
  0
VERTEX
  8
LAYER-1
 10
5.690336
 20
3.696815
 30
0.000000
  0
VERTEX
  8
LAYER-1
 10
3.815439
 20
3.696815
 30
0.000000
  0
SEQEND
  8
LAYER-1
  0
POLYLINE
  8
LAYER-1
 66
  1
 70
  0
 62
  0
 10
5.690336
 20
4.929836
 30
0.000000
  0
VERTEX
  8
LAYER-1
 10
5.690336
 20
4.929836
 30
0.000000
  0
VERTEX
  8
LAYER-1
 10
3.815439
 20
4.929836
 30
0.000000
  0
SEQEND
  8
LAYER-1
  0
POLYLINE
  8
LAYER-1
 66
  1
 70
  0
 62
  0
 10
5.690336
 20
6.162857
 30
0.000000
  0
VERTEX
  8
LAYER-1
 10
5.690336
 20
6.162857
 30
0.000000
  0
VERTEX
  8
LAYER-1
 10
3.815439
 20
6.162857
 30
0.000000
  0
SEQEND
  8
LAYER-1
  0
POLYLINE
  8
LAYER-1
 66
  1
 70
  0
 62
  0
 10
5.690439
 20
1.847419
 30
0.000000
  0
VERTEX
  8
LAYER-1
 10
5.690439
 20
1.847419
 30
0.000000
  0
VERTEX
  8
LAYER-1
 10
3.815439
 20
1.847419
 30
0.000000
  0
SEQEND
  8
LAYER-1
  0
POLYLINE
  8
LAYER-1
 66
  1
 70
  0
 62
  0
 10
5.690439
 20
3.080439
 30
0.000000
  0
VERTEX
  8
LAYER-1
 10
5.690439
 20
3.080439
 30
0.000000
  0
VERTEX
  8
LAYER-1
 10
3.815439
 20
3.080439
 30
0.000000
  0
SEQEND
  8
LAYER-1
  0
POLYLINE
  8
LAYER-1
 66
  1
 70
  0
 62
  0
 10
5.690439
 20
4.313461
 30
0.000000
  0
VERTEX
  8
LAYER-1
 10
5.690439
 20
4.313461
 30
0.000000
  0
VERTEX
  8
LAYER-1
 10
3.816306
 20
4.313461
 30
0.000000
  0
SEQEND
  8
LAYER-1
  0
POLYLINE
  8
LAYER-1
 66
  1
 70
  0
 62
  0
 10
5.690439
 20
5.546482
 30
0.000000
  0
VERTEX
  8
LAYER-1
 10
5.690439
 20
5.546482
 30
0.000000
  0
VERTEX
  8
LAYER-1
 10
3.815439
 20
5.546482
 30
0.000000
  0
SEQEND
  8
LAYER-1
  0
POLYLINE
  8
LAYER-1
 66
  1
 70
  0
 62
  0
 10
3.816306
 20
6.779850
 30
0.000000
  0
VERTEX
  8
LAYER-1
 10
3.816306
 20
6.779850
 30
0.000000
  0
VERTEX
  8
LAYER-1
 10
5.689570
 20
6.779850
 30
0.000000
  0
SEQEND
  8
LAYER-1
  0
POLYLINE
  8
LAYER-1
 66
  1
 70
  0
 62
  0
 10
0.736610
 20
0.037543
 30
0.000000
  0
VERTEX
  8
LAYER-1
 10
0.736610
 20
0.037543
 30
0.000000
  0
VERTEX
  8
LAYER-1
 10
0.763089
 20
0.034087
 30
0.000000
  0
VERTEX
  8
LAYER-1
 10
0.782422
 20
0.034087
 30
0.000000
  0
VERTEX
  8
LAYER-1
 10
0.801756
 20
0.037560
 30
0.000000
  0
VERTEX
  8
LAYER-1
 10
0.821090
 20
0.037560
 30
0.000000
  0
VERTEX
  8
LAYER-1
 10
0.867490
 20
0.044504
 30
0.000000
  0
VERTEX
  8
LAYER-1
 10
0.902291
 20
0.054921
 30
0.000000
  0
VERTEX
  8
LAYER-1
 10
0.924524
 20
0.059261
 30
0.000000
  0
VERTEX
  8
LAYER-1
 10
0.946274
 20
0.060998
 30
0.000000
  0
VERTEX
  8
LAYER-1
 10
0.975758
 20
0.058393
 30
0.000000
  0
VERTEX
  8
LAYER-1
 10
1.006692
 20
0.054921
 30
0.000000
  0
VERTEX
  8
LAYER-1
 10
1.033759
 20
0.047976
 30
0.000000
  0
VERTEX
  8
LAYER-1
 10
1.053092
 20
0.044504
 30
0.000000
  0
VERTEX
  8
LAYER-1
 10
1.084026
 20
0.041032
 30
0.000000
  0
VERTEX
  8
LAYER-1
 10
1.103360
 20
0.037560
 30
0.000000
  0
VERTEX
  8
LAYER-1
 10
1.126560
 20
0.034087
 30
0.000000
  0
VERTEX
  8
LAYER-1
 10
1.153627
 20
0.034087
 30
0.000000
  0
VERTEX
  8
LAYER-1
 10
1.180694
 20
0.034087
 30
0.000000
  0
VERTEX
  8
LAYER-1
 10
1.203894
 20
0.034087
 30
0.000000
  0
VERTEX
  8
LAYER-1
 10
1.227094
 20
0.030615
 30
0.000000
  0
VERTEX
  8
LAYER-1
 10
1.265761
 20
0.030615
 30
0.000000
  0
VERTEX
  8
LAYER-1
 10
1.296695
 20
0.030615
 30
0.000000
  0
VERTEX
  8
LAYER-1
 10
1.316028
 20
0.027143
 30
0.000000
  0
VERTEX
  8
LAYER-1
 10
1.346963
 20
0.023671
 30
0.000000
  0
VERTEX
  8
LAYER-1
 10
1.377896
 20
0.020198
 30
0.000000
  0
VERTEX
  8
LAYER-1
 10
1.416563
 20
0.020198
 30
0.000000
  0
VERTEX
  8
LAYER-1
 10
1.447497
 20
0.020198
 30
0.000000
  0
VERTEX
  8
LAYER-1
 10
1.486164
 20
0.020198
 30
0.000000
  0
VERTEX
  8
LAYER-1
 10
1.517098
 20
0.027143
 30
0.000000
  0
VERTEX
  8
LAYER-1
 10
1.540298
 20
0.027143
 30
0.000000
  0
VERTEX
  8
LAYER-1
 10
1.559631
 20
0.030615
 30
0.000000
  0
VERTEX
  8
LAYER-1
 10
1.582832
 20
0.030615
 30
0.000000
  0
VERTEX
  8
LAYER-1
 10
1.602165
 20
0.030615
 30
0.000000
  0
VERTEX
  8
LAYER-1
 10
1.644699
 20
0.030615
 30
0.000000
  0
VERTEX
  8
LAYER-1
 10
1.691100
 20
0.023671
 30
0.000000
  0
VERTEX
  8
LAYER-1
 10
1.733633
 20
0.020198
 30
0.000000
  0
VERTEX
  8
LAYER-1
 10
1.795501
 20
0.013254
 30
0.000000
  0
VERTEX
  8
LAYER-1
 10
1.853501
 20
0.006310
 30
0.000000
  0
VERTEX
  8
LAYER-1
 10
1.903768
 20
0.006310
 30
0.000000
  0
VERTEX
  8
LAYER-1
 10
1.930836
 20
0.006310
 30
0.000000
  0
VERTEX
  8
LAYER-1
 10
1.965636
 20
0.006310
 30
0.000000
  0
VERTEX
  8
LAYER-1
 10
1.985936
 20
0.007178
 30
0.000000
  0
VERTEX
  8
LAYER-1
 10
2.023153
 20
0.009348
 30
0.000000
  0
VERTEX
  8
LAYER-1
 10
2.070037
 20
0.020198
 30
0.000000
  0
VERTEX
  8
LAYER-1
 10
2.112570
 20
0.034087
 30
0.000000
  0
VERTEX
  8
LAYER-1
 10
2.147371
 20
0.044504
 30
0.000000
  0
VERTEX
  8
LAYER-1
 10
2.174438
 20
0.054921
 30
0.000000
  0
VERTEX
  8
LAYER-1
 10
2.197638
 20
0.061865
 30
0.000000
  0
VERTEX
  8
LAYER-1
 10
2.220838
 20
0.061865
 30
0.000000
  0
VERTEX
  8
LAYER-1
 10
2.244039
 20
0.061865
 30
0.000000
  0
VERTEX
  8
LAYER-1
 10
2.267239
 20
0.061865
 30
0.000000
  0
VERTEX
  8
LAYER-1
 10
2.302039
 20
0.054921
 30
0.000000
  0
VERTEX
  8
LAYER-1
 10
2.332973
 20
0.047976
 30
0.000000
  0
VERTEX
  8
LAYER-1
 10
2.356173
 20
0.041032
 30
0.000000
  0
VERTEX
  8
LAYER-1
 10
2.375507
 20
0.037560
 30
0.000000
  0
VERTEX
  8
LAYER-1
 10
2.398707
 20
0.030615
 30
0.000000
  0
VERTEX
  8
LAYER-1
 10
2.418041
 20
0.023671
 30
0.000000
  0
VERTEX
  8
LAYER-1
 10
2.441241
 20
0.020198
 30
0.000000
  0
VERTEX
  8
LAYER-1
 10
2.460574
 20
0.020198
 30
0.000000
  0
VERTEX
  8
LAYER-1
 10
2.491508
 20
0.016726
 30
0.000000
  0
VERTEX
  8
LAYER-1
 10
2.518575
 20
0.016726
 30
0.000000
  0
VERTEX
  8
LAYER-1
 10
2.553375
 20
0.016726
 30
0.000000
  0
VERTEX
  8
LAYER-1
 10
2.580442
 20
0.020198
 30
0.000000
  0
VERTEX
  8
LAYER-1
 10
2.615242
 20
0.030615
 30
0.000000
  0
VERTEX
  8
LAYER-1
 10
2.634576
 20
0.030615
 30
0.000000
  0
VERTEX
  8
LAYER-1
 10
2.657777
 20
0.030615
 30
0.000000
  0
VERTEX
  8
LAYER-1
 10
2.677110
 20
0.030615
 30
0.000000
  0
VERTEX
  8
LAYER-1
 10
2.700311
 20
0.034087
 30
0.000000
  0
VERTEX
  8
LAYER-1
 10
2.723511
 20
0.037560
 30
0.000000
  0
VERTEX
  8
LAYER-1
 10
2.754445
 20
0.037560
 30
0.000000
  0
VERTEX
  8
LAYER-1
 10
2.785378
 20
0.037560
 30
0.000000
  0
VERTEX
  8
LAYER-1
 10
2.808578
 20
0.037560
 30
0.000000
  0
VERTEX
  8
LAYER-1
 10
2.831779
 20
0.037560
 30
0.000000
  0
VERTEX
  8
LAYER-1
 10
2.851112
 20
0.034087
 30
0.000000
  0
VERTEX
  8
LAYER-1
 10
2.870446
 20
0.030615
 30
0.000000
  0
VERTEX
  8
LAYER-1
 10
2.889779
 20
0.027143
 30
0.000000
  0
VERTEX
  8
LAYER-1
 10
2.909113
 20
0.023671
 30
0.000000
  0
VERTEX
  8
LAYER-1
 10
2.940047
 20
0.016726
 30
0.000000
  0
VERTEX
  8
LAYER-1
 10
2.963247
 20
0.013254
 30
0.000000
  0
VERTEX
  8
LAYER-1
 10
2.986447
 20
0.013254
 30
0.000000
  0
VERTEX
  8
LAYER-1
 10
3.005780
 20
0.013254
 30
0.000000
  0
VERTEX
  8
LAYER-1
 10
3.032847
 20
0.013254
 30
0.000000
  0
VERTEX
  8
LAYER-1
 10
3.063781
 20
0.016726
 30
0.000000
  0
VERTEX
  8
LAYER-1
 10
3.117916
 20
0.027143
 30
0.000000
  0
VERTEX
  8
LAYER-1
 10
3.164316
 20
0.037560
 30
0.000000
  0
VERTEX
  8
LAYER-1
 10
3.206849
 20
0.044504
 30
0.000000
  0
VERTEX
  8
LAYER-1
 10
3.237783
 20
0.047976
 30
0.000000
  0
VERTEX
  8
LAYER-1
 10
3.276450
 20
0.051448
 30
0.000000
  0
VERTEX
  8
LAYER-1
 10
3.307384
 20
0.054921
 30
0.000000
  0
VERTEX
  8
LAYER-1
 10
3.333001
 20
0.055789
 30
0.000000
  0
VERTEX
  8
LAYER-1
 10
3.350400
 20
0.053619
 30
0.000000
  0
VERTEX
  8
LAYER-1
 10
3.371668
 20
0.048844
 30
0.000000
  0
VERTEX
  8
LAYER-1
 10
3.392452
 20
0.037560
 30
0.000000
  0
VERTEX
  8
LAYER-1
 10
3.415652
 20
0.034087
 30
0.000000
  0
VERTEX
  8
LAYER-1
 10
3.434986
 20
0.034087
 30
0.000000
  0
VERTEX
  8
LAYER-1
 10
3.454319
 20
0.034087
 30
0.000000
  0
VERTEX
  8
LAYER-1
 10
3.473653
 20
0.034087
 30
0.000000
  0
VERTEX
  8
LAYER-1
 10
3.504588
 20
0.034087
 30
0.000000
  0
VERTEX
  8
LAYER-1
 10
3.527788
 20
0.034087
 30
0.000000
  0
VERTEX
  8
LAYER-1
 10
3.550988
 20
0.034087
 30
0.000000
  0
VERTEX
  8
LAYER-1
 10
3.570322
 20
0.034087
 30
0.000000
  0
VERTEX
  8
LAYER-1
 10
3.593522
 20
0.034087
 30
0.000000
  0
VERTEX
  8
LAYER-1
 10
3.616722
 20
0.034087
 30
0.000000
  0
VERTEX
  8
LAYER-1
 10
3.636056
 20
0.034087
 30
0.000000
  0
VERTEX
  8
LAYER-1
 10
3.663122
 20
0.034087
 30
0.000000
  0
VERTEX
  8
LAYER-1
 10
3.686322
 20
0.030615
 30
0.000000
  0
VERTEX
  8
LAYER-1
 10
3.708556
 20
0.022803
 30
0.000000
  0
VERTEX
  8
LAYER-1
 10
3.749157
 20
0.020198
 30
0.000000
  0
VERTEX
  8
LAYER-1
 10
3.786857
 20
0.023671
 30
0.000000
  0
VERTEX
  8
LAYER-1
 10
3.806190
 20
0.030615
 30
0.000000
  0
VERTEX
  8
LAYER-1
 10
3.829391
 20
0.037560
 30
0.000000
  0
VERTEX
  8
LAYER-1
 10
3.849208
 20
0.041467
 30
0.000000
  0
VERTEX
  8
LAYER-1
 10
3.871925
 20
0.047976
 30
0.000000
  0
VERTEX
  8
LAYER-1
 10
3.895125
 20
0.047976
 30
0.000000
  0
VERTEX
  8
LAYER-1
 10
3.918325
 20
0.044504
 30
0.000000
  0
VERTEX
  8
LAYER-1
 10
3.941527
 20
0.044504
 30
0.000000
  0
VERTEX
  8
LAYER-1
 10
3.964726
 20
0.044504
 30
0.000000
  0
VERTEX
  8
LAYER-1
 10
3.984060
 20
0.041032
 30
0.000000
  0
VERTEX
  8
LAYER-1
 10
4.011127
 20
0.041032
 30
0.000000
  0
VERTEX
  8
LAYER-1
 10
4.042060
 20
0.041032
 30
0.000000
  0
VERTEX
  8
LAYER-1
 10
4.072994
 20
0.047976
 30
0.000000
  0
VERTEX
  8
LAYER-1
 10
4.092328
 20
0.051448
 30
0.000000
  0
VERTEX
  8
LAYER-1
 10
4.119395
 20
0.051448
 30
0.000000
  0
VERTEX
  8
LAYER-1
 10
4.142596
 20
0.054921
 30
0.000000
  0
VERTEX
  8
LAYER-1
 10
4.173528
 20
0.058393
 30
0.000000
  0
VERTEX
  8
LAYER-1
 10
4.196729
 20
0.058393
 30
0.000000
  0
VERTEX
  8
LAYER-1
 10
4.227663
 20
0.054921
 30
0.000000
  0
VERTEX
  8
LAYER-1
 10
4.270197
 20
0.044504
 30
0.000000
  0
VERTEX
  8
LAYER-1
 10
4.301130
 20
0.034087
 30
0.000000
  0
VERTEX
  8
LAYER-1
 10
4.335930
 20
0.023671
 30
0.000000
  0
VERTEX
  8
LAYER-1
 10
4.378948
 20
0.016725
 30
0.000000
  0
VERTEX
  8
LAYER-1
 10
4.426315
 20
0.017593
 30
0.000000
  0
VERTEX
  8
LAYER-1
 10
4.481415
 20
0.020198
 30
0.000000
  0
VERTEX
  8
LAYER-1
 10
4.548599
 20
0.020198
 30
0.000000
  0
VERTEX
  8
LAYER-1
 10
4.594034
 20
0.008913
 30
0.000000
  0
VERTEX
  8
LAYER-1
 10
4.624000
 20
0.002836
 30
0.000000
  0
VERTEX
  8
LAYER-1
 10
4.647201
 20
0.001968
 30
0.000000
  0
VERTEX
  8
LAYER-1
 10
4.682001
 20
0.001969
 30
0.000000
  0
VERTEX
  8
LAYER-1
 10
4.707135
 20
0.006310
 30
0.000000
  0
VERTEX
  8
LAYER-1
 10
4.734202
 20
0.016726
 30
0.000000
  0
VERTEX
  8
LAYER-1
 10
4.769002
 20
0.023671
 30
0.000000
  0
VERTEX
  8
LAYER-1
 10
4.796069
 20
0.030615
 30
0.000000
  0
VERTEX
  8
LAYER-1
 10
4.819270
 20
0.034087
 30
0.000000
  0
VERTEX
  8
LAYER-1
 10
4.842469
 20
0.037560
 30
0.000000
  0
VERTEX
  8
LAYER-1
 10
4.869536
 20
0.041032
 30
0.000000
  0
VERTEX
  8
LAYER-1
 10
4.896603
 20
0.047976
 30
0.000000
  0
VERTEX
  8
LAYER-1
 10
4.915937
 20
0.051448
 30
0.000000
  0
VERTEX
  8
LAYER-1
 10
4.946870
 20
0.054921
 30
0.000000
  0
VERTEX
  8
LAYER-1
 10
4.970071
 20
0.061865
 30
0.000000
  0
VERTEX
  8
LAYER-1
 10
4.993754
 20
0.072717
 30
0.000000
  0
VERTEX
  8
LAYER-1
 10
5.016471
 20
0.079226
 30
0.000000
  0
VERTEX
  8
LAYER-1
 10
5.039672
 20
0.079226
 30
0.000000
  0
VERTEX
  8
LAYER-1
 10
5.066739
 20
0.079226
 30
0.000000
  0
VERTEX
  8
LAYER-1
 10
5.093806
 20
0.079226
 30
0.000000
  0
VERTEX
  8
LAYER-1
 10
5.132473
 20
0.075754
 30
0.000000
  0
VERTEX
  8
LAYER-1
 10
5.186607
 20
0.072282
 30
0.000000
  0
VERTEX
  8
LAYER-1
 10
5.229141
 20
0.072282
 30
0.000000
  0
VERTEX
  8
LAYER-1
 10
5.260074
 20
0.072282
 30
0.000000
  0
VERTEX
  8
LAYER-1
 10
5.283274
 20
0.072282
 30
0.000000
  0
VERTEX
  8
LAYER-1
 10
5.306475
 20
0.072282
 30
0.000000
  0
VERTEX
  8
LAYER-1
 10
5.337408
 20
0.075754
 30
0.000000
  0
VERTEX
  8
LAYER-1
 10
5.376076
 20
0.075754
 30
0.000000
  0
VERTEX
  8
LAYER-1
 10
5.407009
 20
0.075754
 30
0.000000
  0
VERTEX
  8
LAYER-1
 10
5.430210
 20
0.079226
 30
0.000000
  0
VERTEX
  8
LAYER-1
 10
5.461143
 20
0.079226
 30
0.000000
  0
VERTEX
  8
LAYER-1
 10
5.480477
 20
0.079226
 30
0.000000
  0
VERTEX
  8
LAYER-1
 10
5.511410
 20
0.070546
 30
0.000000
  0
VERTEX
  8
LAYER-1
 10
5.538477
 20
0.058393
 30
0.000000
  0
VERTEX
  8
LAYER-1
 10
5.573277
 20
0.044504
 30
0.000000
  0
VERTEX
  8
LAYER-1
 10
5.600344
 20
0.037560
 30
0.000000
  0
VERTEX
  8
LAYER-1
 10
5.631279
 20
0.030615
 30
0.000000
  0
VERTEX
  8
LAYER-1
 10
5.658829
 20
0.028445
 30
0.000000
  0
VERTEX
  8
LAYER-1
 10
5.685412
 20
0.027143
 30
0.000000
  0
VERTEX
  8
LAYER-1
 10
5.708613
 20
0.030615
 30
0.000000
  0
VERTEX
  8
LAYER-1
 10
5.731812
 20
0.037560
 30
0.000000
  0
VERTEX
  8
LAYER-1
 10
5.758881
 20
0.041032
 30
0.000000
  0
VERTEX
  8
LAYER-1
 10
5.782079
 20
0.044504
 30
0.000000
  0
VERTEX
  8
LAYER-1
 10
5.805280
 20
0.047976
 30
0.000000
  0
VERTEX
  8
LAYER-1
 10
5.824613
 20
0.051448
 30
0.000000
  0
VERTEX
  8
LAYER-1
 10
5.847814
 20
0.051448
 30
0.000000
  0
VERTEX
  8
LAYER-1
 10
5.874881
 20
0.051448
 30
0.000000
  0
VERTEX
  8
LAYER-1
 10
5.894698
 20
0.054053
 30
0.000000
  0
VERTEX
  8
LAYER-1
 10
5.921282
 20
0.058393
 30
0.000000
  0
VERTEX
  8
LAYER-1
 10
5.944482
 20
0.065337
 30
0.000000
  0
VERTEX
  8
LAYER-1
 10
5.975415
 20
0.065337
 30
0.000000
  0
VERTEX
  8
LAYER-1
 10
6.006349
 20
0.065337
 30
0.000000
  0
VERTEX
  8
LAYER-1
 10
6.025683
 20
0.065337
 30
0.000000
  0
VERTEX
  8
LAYER-1
 10
6.079816
 20
0.058393
 30
0.000000
  0
VERTEX
  8
LAYER-1
 10
6.110750
 20
0.051448
 30
0.000000
  0
VERTEX
  8
LAYER-1
 10
6.130083
 20
0.047976
 30
0.000000
  0
VERTEX
  8
LAYER-1
 10
6.164884
 20
0.047976
 30
0.000000
  0
VERTEX
  8
LAYER-1
 10
6.188568
 20
0.055355
 30
0.000000
  0
VERTEX
  8
LAYER-1
 10
6.210318
 20
0.056223
 30
0.000000
  0
VERTEX
  8
LAYER-1
 10
6.262035
 20
0.063167
 30
0.000000
  0
VERTEX
  8
LAYER-1
 10
6.310369
 20
0.073150
 30
0.000000
  0
VERTEX
  8
LAYER-1
 10
6.346620
 20
0.076623
 30
0.000000
  0
VERTEX
  8
LAYER-1
 10
6.379487
 20
0.077056
 30
0.000000
  0
VERTEX
  8
LAYER-1
 10
6.396403
 20
0.072282
 30
0.000000
  0
VERTEX
  8
LAYER-1
 10
6.414769
 20
0.068810
 30
0.000000
  0
VERTEX
  8
LAYER-1
 10
6.445704
 20
0.063601
 30
0.000000
  0
VERTEX
  8
LAYER-1
 10
6.485821
 20
0.071848
 30
0.000000
  0
VERTEX
  8
LAYER-1
 10
6.501288
 20
0.079226
 30
0.000000
  0
VERTEX
  8
LAYER-1
 10
6.524488
 20
0.079226
 30
0.000000
  0
VERTEX
  8
LAYER-1
 10
6.547688
 20
0.079226
 30
0.000000
  0
VERTEX
  8
LAYER-1
 10
6.574755
 20
0.072282
 30
0.000000
  0
VERTEX
  8
LAYER-1
 10
6.597956
 20
0.058393
 30
0.000000
  0
VERTEX
  8
LAYER-1
 10
6.625022
 20
0.047976
 30
0.000000
  0
VERTEX
  8
LAYER-1
 10
6.652089
 20
0.037560
 30
0.000000
  0
VERTEX
  8
LAYER-1
 10
6.675290
 20
0.037560
 30
0.000000
  0
VERTEX
  8
LAYER-1
 10
6.705311
 20
0.037543
 30
0.000000
  0
VERTEX
  8
LAYER-1
 10
6.729424
 20
0.047976
 30
0.000000
  0
SEQEND
  8
LAYER-1
  0
POLYLINE
  8
LAYER-1
 66
  1
 70
  0
 62
  0
 10
5.803193
 20
0.468114
 30
0.000000
  0
VERTEX
  8
LAYER-1
 10
5.803193
 20
0.468114
 30
0.000000
  0
VERTEX
  8
LAYER-1
 10
3.739326
 20
0.158535
 30
0.000000
  0
SEQEND
  8
LAYER-1
  0
POLYLINE
  8
LAYER-1
 66
  1
 70
  1
 62
  0
  0
VERTEX
  8
LAYER-1
 10
3.719859
 20
0.155614
 30
0.000000
  0
VERTEX
  8
LAYER-1
 10
3.782354
 20
0.207121
 30
0.000000
  0
VERTEX
  8
LAYER-1
 10
3.788535
 20
0.165916
 30
0.000000
  0
VERTEX
  8
LAYER-1
 10
3.794716
 20
0.124710
 30
0.000000
  0
VERTEX
  8
LAYER-1
 10
3.719859
 20
0.155614
 30
0.000000
  0
SEQEND
  8
LAYER-1
  0
TEXT
  8
LAYER-1
 62
  0
 10
6.153111
 20
5.930333
 30
0.000000
 40
0.125000
  1
9"
 72
  5
 11
6.375334
 21
5.930333
 31
0.000000
  0
TEXT
  8
LAYER-1
 62
  0
 10
5.930889
 20
5.735888
 30
0.000000
 40
0.125000
  1
229mm
 72
  5
 11
6.597556
 21
5.735888
 31
0.000000
  0
TEXT
  8
LAYER-1
 62
  0
 10
1.778111
 20
8.527555
 30
0.000000
 40
0.125000
  1
CALADO
 72
  5
 11
2.514222
 21
8.527555
 31
0.000000
  0
LINE
  8
LAYER-1
 62
  0
 10
5.836928
 20
7.465054
 30
0.000000
 11
5.836928
 21
7.197016
 31
0.000000
  0
LINE
  8
LAYER-1
 62
  0
 10
5.753806
 20
7.465054
 30
0.000000
 11
5.961928
 21
7.465054
 31
0.000000
  0
LINE
  8
LAYER-1
 62
  0
 10
5.759670
 20
7.197016
 30
0.000000
 11
5.961928
 21
7.197016
 31
0.000000
  0
LINE
  8
LAYER-1
 62
  0
 10
5.866391
 20
7.435591
 30
0.000000
 11
5.807465
 21
7.494517
 31
0.000000
  0
LINE
  8
LAYER-1
 62
  0
 10
5.866391
 20
7.167553
 30
0.000000
 11
5.807465
 21
7.226478
 31
0.000000
  0
TEXT
  8
LAYER-1
 62
  0
 10
5.714365
 20
7.322882
 30
0.000000
 40
0.125000
  1
 
 50
90.000000
  0
TEXT
  8
LAYER-1
 62
  0
 10
6.153111
 20
7.346999
 30
0.000000
 40
0.125000
  1
4"
 72
  5
 11
6.375334
 21
7.346999
 31
0.000000
  0
TEXT
  8
LAYER-1
 62
  0
 10
5.930889
 20
7.152555
 30
0.000000
 40
0.125000
  1
102mm
 72
  5
 11
6.597556
 21
7.152555
 31
0.000000
  0
LINE
  8
LAYER-1
 62
  0
 10
4.443698
 20
7.728265
 30
0.000000
 11
4.853420
 21
7.728265
 31
0.000000
  0
LINE
  8
LAYER-1
 62
  0
 10
4.443698
 20
7.358474
 30
0.000000
 11
4.443698
 21
7.853265
 31
0.000000
  0
LINE
  8
LAYER-1
 62
  0
 10
4.853420
 20
7.356738
 30
0.000000
 11
4.853420
 21
7.853265
 31
0.000000
  0
LINE
  8
LAYER-1
 62
  0
 10
4.473161
 20
7.757727
 30
0.000000
 11
4.414235
 21
7.698802
 31
0.000000
  0
LINE
  8
LAYER-1
 62
  0
 10
4.882883
 20
7.757727
 30
0.000000
 11
4.823958
 21
7.698802
 31
0.000000
  0
TEXT
  8
LAYER-1
 62
  0
 10
4.640207
 20
7.852467
 30
0.000000
 40
0.125000
  1
 
  0
TEXT
  8
LAYER-1
 62
  0
 10
4.514222
 20
8.096999
 30
0.000000
 40
0.125000
  1
6"
 72
  5
 11
4.736445
 21
8.096999
 31
0.000000
  0
TEXT
  8
LAYER-1
 62
  0
 10
4.292000
 20
7.902555
 30
0.000000
 40
0.125000
  1
152mm
 72
  5
 11
4.958667
 21
7.902555
 31
0.000000
  0
TEXT
  8
LAYER-1
 62
  0
 10
5.819778
 20
0.541444
 30
0.000000
 40
0.125000
  1
Casquillo
 72
  5
 11
6.625334
 21
0.541444
 31
0.000000
  0
TEXT
  8
LAYER-1
 62
  0
 10
5.819778
 20
0.346999
 30
0.000000
 40
0.125000
  1
anti-polvo
 72
  5
 11
6.625334
 21
0.346999
 31
0.000000
  0
ENDSEC
  0
EOF
