  0
SECTION
  2
HEADER
999
MacDraft 5.0\0
  9
$ACADVER
  1
AC1006
  9
$CLAYER
  8
LAYER-1
  9
$EXTMIN
 10
0.000000
 20
0.000000
  9
$EXTMAX
 10
6.799136
 20
9.972381
  9
$FASTZOOM
 70
0
  9
$FILLMODE
 70
1
  0
ENDSEC
  0
SECTION
  2
TABLES
  0
TABLE
  2
LTYPE
 70
16
  0
LTYPE
  2
CONTINUOUS
 70
64
  3
Solid Line
 72
65
 73
0
 40
0.000000
  0
LTYPE
  2
LTYPE01
 70
64
  3
CUSTOM
 72
65
 73
2
 40
0.111111
 49
0.083333
 49
-0.027778
  0
LTYPE
  2
LTYPE02
 70
64
  3
CUSTOM
 72
65
 73
2
 40
0.194444
 49
0.166667
 49
-0.027778
  0
LTYPE
  2
LTYPE03
 70
64
  3
CUSTOM
 72
65
 73
2
 40
0.375000
 49
0.333333
 49
-0.041667
  0
LTYPE
  2
LTYPE04
 70
64
  3
CUSTOM
 72
65
 73
2
 40
0.722222
 49
0.666667
 49
-0.055556
  0
LTYPE
  2
LTYPE05
 70
64
  3
CUSTOM
 72
65
 73
4
 40
0.152778
 49
0.083333
 49
-0.027778
 49
0.013889
 49
-0.027778
  0
LTYPE
  2
LTYPE06
 70
64
  3
CUSTOM
 72
65
 73
4
 40
0.236111
 49
0.166667
 49
-0.027778
 49
0.013889
 49
-0.027778
  0
LTYPE
  2
LTYPE07
 70
64
  3
CUSTOM
 72
65
 73
4
 40
0.444444
 49
0.333333
 49
-0.041667
 49
0.027778
 49
-0.041667
  0
LTYPE
  2
LTYPE08
 70
64
  3
CUSTOM
 72
65
 73
4
 40
0.805556
 49
0.666667
 49
-0.055556
 49
0.027778
 49
-0.055556
  0
LTYPE
  2
LTYPE09
 70
64
  3
CUSTOM
 72
65
 73
6
 40
0.194444
 49
0.083333
 49
-0.027778
 49
0.013889
 49
-0.027778
 49
0.013889
 49
-0.027778
  0
LTYPE
  2
LTYPE10
 70
64
  3
CUSTOM
 72
65
 73
6
 40
0.277778
 49
0.166667
 49
-0.027778
 49
0.013889
 49
-0.027778
 49
0.013889
 49
-0.027778
  0
LTYPE
  2
LTYPE11
 70
64
  3
CUSTOM
 72
65
 73
6
 40
0.500000
 49
0.333333
 49
-0.041667
 49
0.027778
 49
-0.027778
 49
0.027778
 49
-0.041667
  0
LTYPE
  2
LTYPE12
 70
64
  3
CUSTOM
 72
65
 73
6
 40
0.861111
 49
0.666667
 49
-0.055556
 49
0.027778
 49
-0.027778
 49
0.027778
 49
-0.055556
  0
LTYPE
  2
LTYPE13
 70
64
  3
CUSTOM
 72
65
 73
8
 40
0.319444
 49
0.166667
 49
-0.027778
 49
0.013889
 49
-0.027778
 49
0.013889
 49
-0.027778
 49
0.013889
 49
-0.027778
  0
LTYPE
  2
LTYPE14
 70
64
  3
CUSTOM
 72
65
 73
8
 40
0.555556
 49
0.333333
 49
-0.041667
 49
0.027778
 49
-0.027778
 49
0.027778
 49
-0.027778
 49
0.027778
 49
-0.041667
  0
LTYPE
  2
LTYPE15
 70
64
  3
CUSTOM
 72
65
 73
8
 40
0.944444
 49
0.666667
 49
-0.055556
 49
0.027778
 49
-0.041667
 49
0.027778
 49
-0.041667
 49
0.027778
 49
-0.055556
  0
ENDTAB
  0
TABLE
  2
LAYER
 70
1
  0
LAYER
  2
LAYER-1
 70
0
 62
7
  6
CONTINUOUS
  0
ENDTAB
  0
ENDSEC
  0
SECTION
  2
BLOCKS
  0
ENDSEC
  0
SECTION
  2
ENTITIES
  0
POLYLINE
  8
LAYER-1
 66
  1
 70
  0
 62
  0
 10
3.474553
 20
0.212886
 30
0.000000
  0
VERTEX
  8
LAYER-1
 10
3.474553
 20
0.212886
 30
0.000000
  0
VERTEX
  8
LAYER-1
 10
3.474553
 20
0.211696
 30
0.000000
  0
SEQEND
  8
LAYER-1
  0
POLYLINE
  8
LAYER-1
 66
  1
 70
  1
 62
  0
 10
1.302695
 20
0.117718
 30
0.000000
  0
VERTEX
  8
LAYER-1
 10
1.302695
 20
0.117718
 30
0.000000
  0
VERTEX
  8
LAYER-1
 10
1.309639
 20
0.091677
 30
0.000000
  0
VERTEX
  8
LAYER-1
 10
1.334814
 20
0.105565
 30
0.000000
  0
SEQEND
  8
LAYER-1
  0
POLYLINE
  8
LAYER-1
 66
  1
 70
  1
 62
  0
 10
1.492799
 20
0.222750
 30
0.000000
  0
VERTEX
  8
LAYER-1
 10
1.492799
 20
0.222750
 30
0.000000
  0
VERTEX
  8
LAYER-1
 10
1.479779
 20
0.200181
 30
0.000000
  0
VERTEX
  8
LAYER-1
 10
1.510161
 20
0.221014
 30
0.000000
  0
SEQEND
  8
LAYER-1
  0
POLYLINE
  8
LAYER-1
 66
  1
 70
  1
 62
  0
 10
1.138633
 20
0.158517
 30
0.000000
  0
VERTEX
  8
LAYER-1
 10
1.138633
 20
0.158517
 30
0.000000
  0
VERTEX
  8
LAYER-1
 10
1.122140
 20
0.133342
 30
0.000000
  0
VERTEX
  8
LAYER-1
 10
1.136896
 20
0.125530
 30
0.000000
  0
SEQEND
  8
LAYER-1
  0
POLYLINE
  8
LAYER-1
 66
  1
 70
  0
 62
  0
 10
1.305300
 20
0.159386
 30
0.000000
  0
VERTEX
  8
LAYER-1
 10
1.305300
 20
0.159386
 30
0.000000
  0
VERTEX
  8
LAYER-1
 10
1.300960
 20
0.159386
 30
0.000000
  0
VERTEX
  8
LAYER-1
 10
1.297487
 20
0.155045
 30
0.000000
  0
VERTEX
  8
LAYER-1
 10
1.296619
 20
0.149837
 30
0.000000
  0
VERTEX
  8
LAYER-1
 10
1.298355
 20
0.145497
 30
0.000000
  0
VERTEX
  8
LAYER-1
 10
1.302696
 20
0.143761
 30
0.000000
  0
VERTEX
  8
LAYER-1
 10
1.307035
 20
0.143761
 30
0.000000
  0
VERTEX
  8
LAYER-1
 10
1.311376
 20
0.147232
 30
0.000000
  0
VERTEX
  8
LAYER-1
 10
1.311376
 20
0.151573
 30
0.000000
  0
VERTEX
  8
LAYER-1
 10
1.310508
 20
0.155913
 30
0.000000
  0
VERTEX
  8
LAYER-1
 10
1.306168
 20
0.158518
 30
0.000000
  0
SEQEND
  8
LAYER-1
  0
POLYLINE
  8
LAYER-1
 66
  1
 70
  1
 62
  0
 10
0.943321
 20
0.197578
 30
0.000000
  0
VERTEX
  8
LAYER-1
 10
0.943321
 20
0.197578
 30
0.000000
  0
VERTEX
  8
LAYER-1
 10
0.930300
 20
0.175009
 30
0.000000
  0
VERTEX
  8
LAYER-1
 10
0.960682
 20
0.195841
 30
0.000000
  0
SEQEND
  8
LAYER-1
  0
POLYLINE
  8
LAYER-1
 66
  1
 70
  1
 62
  0
 10
1.075098
 20
0.197244
 30
0.000000
  0
VERTEX
  8
LAYER-1
 10
1.075098
 20
0.197244
 30
0.000000
  0
VERTEX
  8
LAYER-1
 10
1.062411
 20
0.177879
 30
0.000000
  0
VERTEX
  8
LAYER-1
 10
1.073763
 20
0.171869
 30
0.000000
  0
SEQEND
  8
LAYER-1
  0
POLYLINE
  8
LAYER-1
 66
  1
 70
  0
 62
  0
 10
1.432904
 20
0.178481
 30
0.000000
  0
VERTEX
  8
LAYER-1
 10
1.432904
 20
0.178481
 30
0.000000
  0
VERTEX
  8
LAYER-1
 10
1.428563
 20
0.178481
 30
0.000000
  0
VERTEX
  8
LAYER-1
 10
1.425092
 20
0.174141
 30
0.000000
  0
VERTEX
  8
LAYER-1
 10
1.424224
 20
0.168933
 30
0.000000
  0
VERTEX
  8
LAYER-1
 10
1.425959
 20
0.164592
 30
0.000000
  0
VERTEX
  8
LAYER-1
 10
1.430299
 20
0.162856
 30
0.000000
  0
VERTEX
  8
LAYER-1
 10
1.434640
 20
0.162856
 30
0.000000
  0
VERTEX
  8
LAYER-1
 10
1.438980
 20
0.166328
 30
0.000000
  0
VERTEX
  8
LAYER-1
 10
1.438980
 20
0.170669
 30
0.000000
  0
VERTEX
  8
LAYER-1
 10
1.438112
 20
0.175010
 30
0.000000
  0
VERTEX
  8
LAYER-1
 10
1.433772
 20
0.177613
 30
0.000000
  0
SEQEND
  8
LAYER-1
  0
POLYLINE
  8
LAYER-1
 66
  1
 70
  0
 62
  0
 10
1.190716
 20
0.152440
 30
0.000000
  0
VERTEX
  8
LAYER-1
 10
1.190716
 20
0.152440
 30
0.000000
  0
VERTEX
  8
LAYER-1
 10
1.186376
 20
0.152440
 30
0.000000
  0
VERTEX
  8
LAYER-1
 10
1.182904
 20
0.148099
 30
0.000000
  0
VERTEX
  8
LAYER-1
 10
1.182035
 20
0.142892
 30
0.000000
  0
VERTEX
  8
LAYER-1
 10
1.183771
 20
0.138551
 30
0.000000
  0
VERTEX
  8
LAYER-1
 10
1.188112
 20
0.136815
 30
0.000000
  0
VERTEX
  8
LAYER-1
 10
1.192453
 20
0.136815
 30
0.000000
  0
VERTEX
  8
LAYER-1
 10
1.196793
 20
0.140287
 30
0.000000
  0
VERTEX
  8
LAYER-1
 10
1.196793
 20
0.144628
 30
0.000000
  0
VERTEX
  8
LAYER-1
 10
1.195925
 20
0.148968
 30
0.000000
  0
VERTEX
  8
LAYER-1
 10
1.191584
 20
0.151572
 30
0.000000
  0
SEQEND
  8
LAYER-1
  0
POLYLINE
  8
LAYER-1
 66
  1
 70
  0
 62
  0
 10
1.026654
 20
0.144628
 30
0.000000
  0
VERTEX
  8
LAYER-1
 10
1.026654
 20
0.144628
 30
0.000000
  0
VERTEX
  8
LAYER-1
 10
1.022314
 20
0.144628
 30
0.000000
  0
VERTEX
  8
LAYER-1
 10
1.018841
 20
0.140287
 30
0.000000
  0
VERTEX
  8
LAYER-1
 10
1.017973
 20
0.135079
 30
0.000000
  0
VERTEX
  8
LAYER-1
 10
1.019709
 20
0.130738
 30
0.000000
  0
VERTEX
  8
LAYER-1
 10
1.024050
 20
0.129003
 30
0.000000
  0
VERTEX
  8
LAYER-1
 10
1.028389
 20
0.129003
 30
0.000000
  0
VERTEX
  8
LAYER-1
 10
1.032730
 20
0.132474
 30
0.000000
  0
VERTEX
  8
LAYER-1
 10
1.032730
 20
0.136815
 30
0.000000
  0
VERTEX
  8
LAYER-1
 10
1.031862
 20
0.141156
 30
0.000000
  0
VERTEX
  8
LAYER-1
 10
1.027521
 20
0.143760
 30
0.000000
  0
SEQEND
  8
LAYER-1
  0
POLYLINE
  8
LAYER-1
 66
  1
 70
  1
 62
  0
 10
1.654693
 20
0.169367
 30
0.000000
  0
VERTEX
  8
LAYER-1
 10
1.654693
 20
0.169367
 30
0.000000
  0
VERTEX
  8
LAYER-1
 10
1.628653
 20
0.162422
 30
0.000000
  0
VERTEX
  8
LAYER-1
 10
1.642540
 20
0.137249
 30
0.000000
  0
SEQEND
  8
LAYER-1
  0
POLYLINE
  8
LAYER-1
 66
  1
 70
  1
 62
  0
 10
1.716237
 20
0.109769
 30
0.000000
  0
VERTEX
  8
LAYER-1
 10
1.716237
 20
0.109769
 30
0.000000
  0
VERTEX
  8
LAYER-1
 10
1.738807
 20
0.096748
 30
0.000000
  0
VERTEX
  8
LAYER-1
 10
1.717975
 20
0.127130
 30
0.000000
  0
SEQEND
  8
LAYER-1
  0
POLYLINE
  8
LAYER-1
 66
  1
 70
  1
 62
  0
 10
1.247575
 20
0.177179
 30
0.000000
  0
VERTEX
  8
LAYER-1
 10
1.247575
 20
0.177179
 30
0.000000
  0
VERTEX
  8
LAYER-1
 10
1.222401
 20
0.193672
 30
0.000000
  0
VERTEX
  8
LAYER-1
 10
1.214589
 20
0.178915
 30
0.000000
  0
SEQEND
  8
LAYER-1
  0
POLYLINE
  8
LAYER-1
 66
  1
 70
  0
 62
  0
 10
1.665979
 20
0.205826
 30
0.000000
  0
VERTEX
  8
LAYER-1
 10
1.665979
 20
0.205826
 30
0.000000
  0
VERTEX
  8
LAYER-1
 10
1.665979
 20
0.210167
 30
0.000000
  0
VERTEX
  8
LAYER-1
 10
1.661638
 20
0.213638
 30
0.000000
  0
VERTEX
  8
LAYER-1
 10
1.656430
 20
0.214506
 30
0.000000
  0
VERTEX
  8
LAYER-1
 10
1.652089
 20
0.212771
 30
0.000000
  0
VERTEX
  8
LAYER-1
 10
1.650354
 20
0.208430
 30
0.000000
  0
VERTEX
  8
LAYER-1
 10
1.650354
 20
0.204091
 30
0.000000
  0
VERTEX
  8
LAYER-1
 10
1.653825
 20
0.199749
 30
0.000000
  0
VERTEX
  8
LAYER-1
 10
1.658166
 20
0.199749
 30
0.000000
  0
VERTEX
  8
LAYER-1
 10
1.662507
 20
0.200617
 30
0.000000
  0
VERTEX
  8
LAYER-1
 10
1.665112
 20
0.204959
 30
0.000000
  0
SEQEND
  8
LAYER-1
  0
POLYLINE
  8
LAYER-1
 66
  1
 70
  1
 62
  0
 10
1.618235
 20
0.181519
 30
0.000000
  0
VERTEX
  8
LAYER-1
 10
1.618235
 20
0.181519
 30
0.000000
  0
VERTEX
  8
LAYER-1
 10
1.595665
 20
0.194540
 30
0.000000
  0
VERTEX
  8
LAYER-1
 10
1.616498
 20
0.164158
 30
0.000000
  0
SEQEND
  8
LAYER-1
  0
POLYLINE
  8
LAYER-1
 66
  1
 70
  1
 62
  0
 10
1.266337
 20
0.193838
 30
0.000000
  0
VERTEX
  8
LAYER-1
 10
1.266337
 20
0.193838
 30
0.000000
  0
VERTEX
  8
LAYER-1
 10
1.246973
 20
0.206525
 30
0.000000
  0
VERTEX
  8
LAYER-1
 10
1.240962
 20
0.195174
 30
0.000000
  0
SEQEND
  8
LAYER-1
  0
POLYLINE
  8
LAYER-1
 66
  1
 70
  0
 62
  0
 10
1.732211
 20
0.070186
 30
0.000000
  0
VERTEX
  8
LAYER-1
 10
1.732211
 20
0.070186
 30
0.000000
  0
VERTEX
  8
LAYER-1
 10
1.732211
 20
0.065846
 30
0.000000
  0
VERTEX
  8
LAYER-1
 10
1.736551
 20
0.062374
 30
0.000000
  0
VERTEX
  8
LAYER-1
 10
1.741759
 20
0.061506
 30
0.000000
  0
VERTEX
  8
LAYER-1
 10
1.746100
 20
0.063241
 30
0.000000
  0
VERTEX
  8
LAYER-1
 10
1.747836
 20
0.067582
 30
0.000000
  0
VERTEX
  8
LAYER-1
 10
1.747836
 20
0.071922
 30
0.000000
  0
VERTEX
  8
LAYER-1
 10
1.744364
 20
0.076263
 30
0.000000
  0
VERTEX
  8
LAYER-1
 10
1.740023
 20
0.076263
 30
0.000000
  0
VERTEX
  8
LAYER-1
 10
1.735683
 20
0.075395
 30
0.000000
  0
VERTEX
  8
LAYER-1
 10
1.733078
 20
0.071053
 30
0.000000
  0
SEQEND
  8
LAYER-1
  0
POLYLINE
  8
LAYER-1
 66
  1
 70
  0
 62
  0
 10
1.241498
 20
0.125096
 30
0.000000
  0
VERTEX
  8
LAYER-1
 10
1.241498
 20
0.125096
 30
0.000000
  0
VERTEX
  8
LAYER-1
 10
1.241498
 20
0.129436
 30
0.000000
  0
VERTEX
  8
LAYER-1
 10
1.237157
 20
0.132908
 30
0.000000
  0
VERTEX
  8
LAYER-1
 10
1.231950
 20
0.133775
 30
0.000000
  0
VERTEX
  8
LAYER-1
 10
1.227609
 20
0.132040
 30
0.000000
  0
VERTEX
  8
LAYER-1
 10
1.225873
 20
0.127699
 30
0.000000
  0
VERTEX
  8
LAYER-1
 10
1.225873
 20
0.123360
 30
0.000000
  0
VERTEX
  8
LAYER-1
 10
1.229345
 20
0.119019
 30
0.000000
  0
VERTEX
  8
LAYER-1
 10
1.233686
 20
0.119019
 30
0.000000
  0
VERTEX
  8
LAYER-1
 10
1.238026
 20
0.119887
 30
0.000000
  0
VERTEX
  8
LAYER-1
 10
1.240631
 20
0.124228
 30
0.000000
  0
SEQEND
  8
LAYER-1
  0
POLYLINE
  8
LAYER-1
 66
  1
 70
  0
 62
  0
 10
1.543582
 20
0.159819
 30
0.000000
  0
VERTEX
  8
LAYER-1
 10
1.543582
 20
0.159819
 30
0.000000
  0
VERTEX
  8
LAYER-1
 10
1.543582
 20
0.164160
 30
0.000000
  0
VERTEX
  8
LAYER-1
 10
1.539241
 20
0.167631
 30
0.000000
  0
VERTEX
  8
LAYER-1
 10
1.534034
 20
0.168499
 30
0.000000
  0
VERTEX
  8
LAYER-1
 10
1.529693
 20
0.166763
 30
0.000000
  0
VERTEX
  8
LAYER-1
 10
1.527957
 20
0.162423
 30
0.000000
  0
VERTEX
  8
LAYER-1
 10
1.527957
 20
0.158084
 30
0.000000
  0
VERTEX
  8
LAYER-1
 10
1.531429
 20
0.153742
 30
0.000000
  0
VERTEX
  8
LAYER-1
 10
1.535770
 20
0.153742
 30
0.000000
  0
VERTEX
  8
LAYER-1
 10
1.540110
 20
0.154611
 30
0.000000
  0
VERTEX
  8
LAYER-1
 10
1.542715
 20
0.158951
 30
0.000000
  0
SEQEND
  8
LAYER-1
  0
POLYLINE
  8
LAYER-1
 66
  1
 70
  1
 62
  0
 10
1.762767
 20
0.152006
 30
0.000000
  0
VERTEX
  8
LAYER-1
 10
1.762767
 20
0.152006
 30
0.000000
  0
VERTEX
  8
LAYER-1
 10
1.769710
 20
0.125966
 30
0.000000
  0
VERTEX
  8
LAYER-1
 10
1.788808
 20
0.141590
 30
0.000000
  0
SEQEND
  8
LAYER-1
  0
POLYLINE
  8
LAYER-1
 66
  1
 70
  1
 62
  0
 10
1.946794
 20
0.173709
 30
0.000000
  0
VERTEX
  8
LAYER-1
 10
1.946794
 20
0.173709
 30
0.000000
  0
VERTEX
  8
LAYER-1
 10
1.933773
 20
0.151138
 30
0.000000
  0
VERTEX
  8
LAYER-1
 10
1.964155
 20
0.171972
 30
0.000000
  0
SEQEND
  8
LAYER-1
  0
POLYLINE
  8
LAYER-1
 66
  1
 70
  1
 62
  0
 10
1.996698
 20
0.072248
 30
0.000000
  0
VERTEX
  8
LAYER-1
 10
1.996698
 20
0.072248
 30
0.000000
  0
VERTEX
  8
LAYER-1
 10
1.980206
 20
0.047074
 30
0.000000
  0
VERTEX
  8
LAYER-1
 10
1.994962
 20
0.039262
 30
0.000000
  0
SEQEND
  8
LAYER-1
  0
POLYLINE
  8
LAYER-1
 66
  1
 70
  0
 62
  0
 10
1.734989
 20
0.176312
 30
0.000000
  0
VERTEX
  8
LAYER-1
 10
1.734989
 20
0.176312
 30
0.000000
  0
VERTEX
  8
LAYER-1
 10
1.730648
 20
0.176312
 30
0.000000
  0
VERTEX
  8
LAYER-1
 10
1.727176
 20
0.171972
 30
0.000000
  0
VERTEX
  8
LAYER-1
 10
1.726308
 20
0.166763
 30
0.000000
  0
VERTEX
  8
LAYER-1
 10
1.728044
 20
0.162423
 30
0.000000
  0
VERTEX
  8
LAYER-1
 10
1.732384
 20
0.160687
 30
0.000000
  0
VERTEX
  8
LAYER-1
 10
1.736724
 20
0.160687
 30
0.000000
  0
VERTEX
  8
LAYER-1
 10
1.741064
 20
0.164159
 30
0.000000
  0
VERTEX
  8
LAYER-1
 10
1.741064
 20
0.168499
 30
0.000000
  0
VERTEX
  8
LAYER-1
 10
1.740196
 20
0.172841
 30
0.000000
  0
VERTEX
  8
LAYER-1
 10
1.735857
 20
0.175444
 30
0.000000
  0
SEQEND
  8
LAYER-1
  0
POLYLINE
  8
LAYER-1
 66
  1
 70
  1
 62
  0
 10
1.772315
 20
0.108604
 30
0.000000
  0
VERTEX
  8
LAYER-1
 10
1.772315
 20
0.108604
 30
0.000000
  0
VERTEX
  8
LAYER-1
 10
1.759294
 20
0.086034
 30
0.000000
  0
VERTEX
  8
LAYER-1
 10
1.789676
 20
0.106867
 30
0.000000
  0
SEQEND
  8
LAYER-1
  0
POLYLINE
  8
LAYER-1
 66
  1
 70
  1
 62
  0
 10
2.028115
 20
0.054356
 30
0.000000
  0
VERTEX
  8
LAYER-1
 10
2.028115
 20
0.054356
 30
0.000000
  0
VERTEX
  8
LAYER-1
 10
2.040803
 20
0.073720
 30
0.000000
  0
VERTEX
  8
LAYER-1
 10
2.029451
 20
0.079731
 30
0.000000
  0
SEQEND
  8
LAYER-1
  0
POLYLINE
  8
LAYER-1
 66
  1
 70
  0
 62
  0
 10
1.927341
 20
0.054803
 30
0.000000
  0
VERTEX
  8
LAYER-1
 10
1.927341
 20
0.054803
 30
0.000000
  0
VERTEX
  8
LAYER-1
 10
1.931681
 20
0.054803
 30
0.000000
  0
VERTEX
  8
LAYER-1
 10
1.935153
 20
0.059144
 30
0.000000
  0
VERTEX
  8
LAYER-1
 10
1.936021
 20
0.064351
 30
0.000000
  0
VERTEX
  8
LAYER-1
 10
1.934285
 20
0.068693
 30
0.000000
  0
VERTEX
  8
LAYER-1
 10
1.929945
 20
0.070428
 30
0.000000
  0
VERTEX
  8
LAYER-1
 10
1.925605
 20
0.070428
 30
0.000000
  0
VERTEX
  8
LAYER-1
 10
1.921264
 20
0.066956
 30
0.000000
  0
VERTEX
  8
LAYER-1
 10
1.921264
 20
0.062615
 30
0.000000
  0
VERTEX
  8
LAYER-1
 10
1.922132
 20
0.058275
 30
0.000000
  0
VERTEX
  8
LAYER-1
 10
1.926473
 20
0.055670
 30
0.000000
  0
SEQEND
  8
LAYER-1
  0
POLYLINE
  8
LAYER-1
 66
  1
 70
  0
 62
  0
 10
1.616845
 20
0.090670
 30
0.000000
  0
VERTEX
  8
LAYER-1
 10
1.616845
 20
0.090670
 30
0.000000
  0
VERTEX
  8
LAYER-1
 10
1.621186
 20
0.090670
 30
0.000000
  0
VERTEX
  8
LAYER-1
 10
1.624657
 20
0.095011
 30
0.000000
  0
VERTEX
  8
LAYER-1
 10
1.625526
 20
0.100219
 30
0.000000
  0
VERTEX
  8
LAYER-1
 10
1.623790
 20
0.104560
 30
0.000000
  0
VERTEX
  8
LAYER-1
 10
1.619450
 20
0.106295
 30
0.000000
  0
VERTEX
  8
LAYER-1
 10
1.615109
 20
0.106295
 30
0.000000
  0
VERTEX
  8
LAYER-1
 10
1.610768
 20
0.102824
 30
0.000000
  0
VERTEX
  8
LAYER-1
 10
1.610768
 20
0.098483
 30
0.000000
  0
VERTEX
  8
LAYER-1
 10
1.611637
 20
0.094142
 30
0.000000
  0
VERTEX
  8
LAYER-1
 10
1.615978
 20
0.091538
 30
0.000000
  0
SEQEND
  8
LAYER-1
  0
POLYLINE
  8
LAYER-1
 66
  1
 70
  1
 62
  0
 10
2.112159
 20
0.156781
 30
0.000000
  0
VERTEX
  8
LAYER-1
 10
2.112159
 20
0.156781
 30
0.000000
  0
VERTEX
  8
LAYER-1
 10
2.086119
 20
0.149836
 30
0.000000
  0
VERTEX
  8
LAYER-1
 10
2.100006
 20
0.124663
 30
0.000000
  0
SEQEND
  8
LAYER-1
  0
POLYLINE
  8
LAYER-1
 66
  1
 70
  1
 62
  0
 10
1.851042
 20
0.117186
 30
0.000000
  0
VERTEX
  8
LAYER-1
 10
1.851042
 20
0.117186
 30
0.000000
  0
VERTEX
  8
LAYER-1
 10
1.828472
 20
0.130207
 30
0.000000
  0
VERTEX
  8
LAYER-1
 10
1.849304
 20
0.099825
 30
0.000000
  0
SEQEND
  8
LAYER-1
  0
POLYLINE
  8
LAYER-1
 66
  1
 70
  1
 62
  0
 10
1.880899
 20
0.039613
 30
0.000000
  0
VERTEX
  8
LAYER-1
 10
1.880899
 20
0.039613
 30
0.000000
  0
VERTEX
  8
LAYER-1
 10
1.906073
 20
0.023119
 30
0.000000
  0
VERTEX
  8
LAYER-1
 10
1.913885
 20
0.037877
 30
0.000000
  0
SEQEND
  8
LAYER-1
  0
POLYLINE
  8
LAYER-1
 66
  1
 70
  0
 62
  0
 10
2.143409
 20
0.206259
 30
0.000000
  0
VERTEX
  8
LAYER-1
 10
2.143409
 20
0.206259
 30
0.000000
  0
VERTEX
  8
LAYER-1
 10
2.143409
 20
0.210599
 30
0.000000
  0
VERTEX
  8
LAYER-1
 10
2.139068
 20
0.214071
 30
0.000000
  0
VERTEX
  8
LAYER-1
 10
2.133861
 20
0.214940
 30
0.000000
  0
VERTEX
  8
LAYER-1
 10
2.129520
 20
0.213203
 30
0.000000
  0
VERTEX
  8
LAYER-1
 10
2.127784
 20
0.208862
 30
0.000000
  0
VERTEX
  8
LAYER-1
 10
2.127784
 20
0.204523
 30
0.000000
  0
VERTEX
  8
LAYER-1
 10
2.131256
 20
0.200182
 30
0.000000
  0
VERTEX
  8
LAYER-1
 10
2.135597
 20
0.200182
 30
0.000000
  0
VERTEX
  8
LAYER-1
 10
2.139937
 20
0.201050
 30
0.000000
  0
VERTEX
  8
LAYER-1
 10
2.142542
 20
0.205391
 30
0.000000
  0
SEQEND
  8
LAYER-1
  0
POLYLINE
  8
LAYER-1
 66
  1
 70
  1
 62
  0
 10
2.075701
 20
0.168933
 30
0.000000
  0
VERTEX
  8
LAYER-1
 10
2.075701
 20
0.168933
 30
0.000000
  0
VERTEX
  8
LAYER-1
 10
2.053131
 20
0.181954
 30
0.000000
  0
VERTEX
  8
LAYER-1
 10
2.073963
 20
0.151572
 30
0.000000
  0
SEQEND
  8
LAYER-1
  0
POLYLINE
  8
LAYER-1
 66
  1
 70
  1
 62
  0
 10
0.844463
 20
0.205557
 30
0.000000
  0
VERTEX
  8
LAYER-1
 10
0.844463
 20
0.205557
 30
0.000000
  0
VERTEX
  8
LAYER-1
 10
0.825099
 20
0.218244
 30
0.000000
  0
VERTEX
  8
LAYER-1
 10
0.819088
 20
0.206893
 30
0.000000
  0
SEQEND
  8
LAYER-1
  0
POLYLINE
  8
LAYER-1
 66
  1
 70
  0
 62
  0
 10
1.855381
 20
0.177082
 30
0.000000
  0
VERTEX
  8
LAYER-1
 10
1.855381
 20
0.177082
 30
0.000000
  0
VERTEX
  8
LAYER-1
 10
1.855381
 20
0.181422
 30
0.000000
  0
VERTEX
  8
LAYER-1
 10
1.851040
 20
0.184894
 30
0.000000
  0
VERTEX
  8
LAYER-1
 10
1.845832
 20
0.185762
 30
0.000000
  0
VERTEX
  8
LAYER-1
 10
1.841492
 20
0.184027
 30
0.000000
  0
VERTEX
  8
LAYER-1
 10
1.839756
 20
0.179686
 30
0.000000
  0
VERTEX
  8
LAYER-1
 10
1.839756
 20
0.175346
 30
0.000000
  0
VERTEX
  8
LAYER-1
 10
1.843228
 20
0.171005
 30
0.000000
  0
VERTEX
  8
LAYER-1
 10
1.847568
 20
0.171005
 30
0.000000
  0
VERTEX
  8
LAYER-1
 10
1.851909
 20
0.171873
 30
0.000000
  0
VERTEX
  8
LAYER-1
 10
1.854514
 20
0.176214
 30
0.000000
  0
SEQEND
  8
LAYER-1
  0
POLYLINE
  8
LAYER-1
 66
  1
 70
  0
 62
  0
 10
0.821360
 20
0.138550
 30
0.000000
  0
VERTEX
  8
LAYER-1
 10
0.821360
 20
0.138550
 30
0.000000
  0
VERTEX
  8
LAYER-1
 10
0.821360
 20
0.142891
 30
0.000000
  0
VERTEX
  8
LAYER-1
 10
0.817019
 20
0.146362
 30
0.000000
  0
VERTEX
  8
LAYER-1
 10
0.811812
 20
0.147230
 30
0.000000
  0
VERTEX
  8
LAYER-1
 10
0.807471
 20
0.145494
 30
0.000000
  0
VERTEX
  8
LAYER-1
 10
0.805735
 20
0.141154
 30
0.000000
  0
VERTEX
  8
LAYER-1
 10
0.805735
 20
0.136815
 30
0.000000
  0
VERTEX
  8
LAYER-1
 10
0.809207
 20
0.132473
 30
0.000000
  0
VERTEX
  8
LAYER-1
 10
0.813547
 20
0.132473
 30
0.000000
  0
VERTEX
  8
LAYER-1
 10
0.817888
 20
0.133341
 30
0.000000
  0
VERTEX
  8
LAYER-1
 10
0.820493
 20
0.137682
 30
0.000000
  0
SEQEND
  8
LAYER-1
  0
POLYLINE
  8
LAYER-1
 66
  1
 70
  0
 62
  0
 10
1.943756
 20
0.206256
 30
0.000000
  0
VERTEX
  8
LAYER-1
 10
1.943756
 20
0.206256
 30
0.000000
  0
VERTEX
  8
LAYER-1
 10
1.943756
 20
0.210597
 30
0.000000
  0
VERTEX
  8
LAYER-1
 10
1.939415
 20
0.214068
 30
0.000000
  0
VERTEX
  8
LAYER-1
 10
1.934207
 20
0.214936
 30
0.000000
  0
VERTEX
  8
LAYER-1
 10
1.929867
 20
0.213200
 30
0.000000
  0
VERTEX
  8
LAYER-1
 10
1.928131
 20
0.208860
 30
0.000000
  0
VERTEX
  8
LAYER-1
 10
1.928131
 20
0.204520
 30
0.000000
  0
VERTEX
  8
LAYER-1
 10
1.931602
 20
0.200179
 30
0.000000
  0
VERTEX
  8
LAYER-1
 10
1.935943
 20
0.200179
 30
0.000000
  0
VERTEX
  8
LAYER-1
 10
1.940284
 20
0.201047
 30
0.000000
  0
VERTEX
  8
LAYER-1
 10
1.942889
 20
0.205388
 30
0.000000
  0
SEQEND
  8
LAYER-1
  0
POLYLINE
  8
LAYER-1
 66
  1
 70
  1
 62
  0
 10
1.503043
 20
0.070791
 30
0.000000
  0
VERTEX
  8
LAYER-1
 10
1.503043
 20
0.070791
 30
0.000000
  0
VERTEX
  8
LAYER-1
 10
1.477002
 20
0.063846
 30
0.000000
  0
VERTEX
  8
LAYER-1
 10
1.490890
 20
0.038673
 30
0.000000
  0
SEQEND
  8
LAYER-1
  0
POLYLINE
  8
LAYER-1
 66
  1
 70
  1
 62
  0
 10
2.349571
 20
0.134211
 30
0.000000
  0
VERTEX
  8
LAYER-1
 10
2.349571
 20
0.134211
 30
0.000000
  0
VERTEX
  8
LAYER-1
 10
2.372141
 20
0.121190
 30
0.000000
  0
VERTEX
  8
LAYER-1
 10
2.351308
 20
0.151572
 30
0.000000
  0
SEQEND
  8
LAYER-1
  0
POLYLINE
  8
LAYER-1
 66
  1
 70
  1
 62
  0
 10
0.958945
 20
0.151137
 30
0.000000
  0
VERTEX
  8
LAYER-1
 10
0.958945
 20
0.151137
 30
0.000000
  0
VERTEX
  8
LAYER-1
 10
0.984120
 20
0.134644
 30
0.000000
  0
VERTEX
  8
LAYER-1
 10
0.991932
 20
0.149402
 30
0.000000
  0
SEQEND
  8
LAYER-1
  0
POLYLINE
  8
LAYER-1
 66
  1
 70
  0
 62
  0
 10
2.277523
 20
0.181084
 30
0.000000
  0
VERTEX
  8
LAYER-1
 10
2.277523
 20
0.181084
 30
0.000000
  0
VERTEX
  8
LAYER-1
 10
2.277523
 20
0.176743
 30
0.000000
  0
VERTEX
  8
LAYER-1
 10
2.281864
 20
0.173271
 30
0.000000
  0
VERTEX
  8
LAYER-1
 10
2.287071
 20
0.172403
 30
0.000000
  0
VERTEX
  8
LAYER-1
 10
2.291412
 20
0.174139
 30
0.000000
  0
VERTEX
  8
LAYER-1
 10
2.293148
 20
0.178480
 30
0.000000
  0
VERTEX
  8
LAYER-1
 10
2.293148
 20
0.182819
 30
0.000000
  0
VERTEX
  8
LAYER-1
 10
2.289676
 20
0.187160
 30
0.000000
  0
VERTEX
  8
LAYER-1
 10
2.285336
 20
0.187160
 30
0.000000
  0
VERTEX
  8
LAYER-1
 10
2.280995
 20
0.186292
 30
0.000000
  0
VERTEX
  8
LAYER-1
 10
2.278391
 20
0.181952
 30
0.000000
  0
SEQEND
  8
LAYER-1
  0
POLYLINE
  8
LAYER-1
 66
  1
 70
  1
 62
  0
 10
2.227175
 20
0.192369
 30
0.000000
  0
VERTEX
  8
LAYER-1
 10
2.227175
 20
0.192369
 30
0.000000
  0
VERTEX
  8
LAYER-1
 10
2.249745
 20
0.179348
 30
0.000000
  0
VERTEX
  8
LAYER-1
 10
2.228912
 20
0.209730
 30
0.000000
  0
SEQEND
  8
LAYER-1
  0
POLYLINE
  8
LAYER-1
 66
  1
 70
  1
 62
  0
 10
0.957544
 20
0.098888
 30
0.000000
  0
VERTEX
  8
LAYER-1
 10
0.957544
 20
0.098888
 30
0.000000
  0
VERTEX
  8
LAYER-1
 10
0.976909
 20
0.086201
 30
0.000000
  0
VERTEX
  8
LAYER-1
 10
0.982919
 20
0.097552
 30
0.000000
  0
SEQEND
  8
LAYER-1
  0
POLYLINE
  8
LAYER-1
 66
  1
 70
  0
 62
  0
 10
1.683686
 20
0.051173
 30
0.000000
  0
VERTEX
  8
LAYER-1
 10
1.683686
 20
0.051173
 30
0.000000
  0
VERTEX
  8
LAYER-1
 10
1.683686
 20
0.055512
 30
0.000000
  0
VERTEX
  8
LAYER-1
 10
1.679345
 20
0.058985
 30
0.000000
  0
VERTEX
  8
LAYER-1
 10
1.674137
 20
0.059853
 30
0.000000
  0
VERTEX
  8
LAYER-1
 10
1.669796
 20
0.058117
 30
0.000000
  0
VERTEX
  8
LAYER-1
 10
1.668061
 20
0.053776
 30
0.000000
  0
VERTEX
  8
LAYER-1
 10
1.668061
 20
0.049436
 30
0.000000
  0
VERTEX
  8
LAYER-1
 10
1.671532
 20
0.045096
 30
0.000000
  0
VERTEX
  8
LAYER-1
 10
1.675873
 20
0.045096
 30
0.000000
  0
VERTEX
  8
LAYER-1
 10
1.680214
 20
0.045964
 30
0.000000
  0
VERTEX
  8
LAYER-1
 10
1.682817
 20
0.050305
 30
0.000000
  0
SEQEND
  8
LAYER-1
  0
POLYLINE
  8
LAYER-1
 66
  1
 70
  0
 62
  0
 10
2.489328
 20
0.134211
 30
0.000000
  0
VERTEX
  8
LAYER-1
 10
2.489328
 20
0.134211
 30
0.000000
  0
VERTEX
  8
LAYER-1
 10
2.489328
 20
0.129871
 30
0.000000
  0
VERTEX
  8
LAYER-1
 10
2.493669
 20
0.126399
 30
0.000000
  0
VERTEX
  8
LAYER-1
 10
2.498877
 20
0.125531
 30
0.000000
  0
VERTEX
  8
LAYER-1
 10
2.503217
 20
0.127267
 30
0.000000
  0
VERTEX
  8
LAYER-1
 10
2.504953
 20
0.131606
 30
0.000000
  0
VERTEX
  8
LAYER-1
 10
2.504953
 20
0.135947
 30
0.000000
  0
VERTEX
  8
LAYER-1
 10
2.501482
 20
0.140288
 30
0.000000
  0
VERTEX
  8
LAYER-1
 10
2.497141
 20
0.140288
 30
0.000000
  0
VERTEX
  8
LAYER-1
 10
2.492800
 20
0.139419
 30
0.000000
  0
VERTEX
  8
LAYER-1
 10
2.490196
 20
0.135079
 30
0.000000
  0
SEQEND
  8
LAYER-1
  0
POLYLINE
  8
LAYER-1
 66
  1
 70
  0
 62
  0
 10
2.323530
 20
0.188899
 30
0.000000
  0
VERTEX
  8
LAYER-1
 10
2.323530
 20
0.188899
 30
0.000000
  0
VERTEX
  8
LAYER-1
 10
2.323530
 20
0.184558
 30
0.000000
  0
VERTEX
  8
LAYER-1
 10
2.327871
 20
0.181086
 30
0.000000
  0
VERTEX
  8
LAYER-1
 10
2.333078
 20
0.180218
 30
0.000000
  0
VERTEX
  8
LAYER-1
 10
2.337419
 20
0.181954
 30
0.000000
  0
VERTEX
  8
LAYER-1
 10
2.339155
 20
0.186294
 30
0.000000
  0
VERTEX
  8
LAYER-1
 10
2.339155
 20
0.190635
 30
0.000000
  0
VERTEX
  8
LAYER-1
 10
2.335683
 20
0.194975
 30
0.000000
  0
VERTEX
  8
LAYER-1
 10
2.331342
 20
0.194975
 30
0.000000
  0
VERTEX
  8
LAYER-1
 10
2.327002
 20
0.194106
 30
0.000000
  0
VERTEX
  8
LAYER-1
 10
2.324397
 20
0.189767
 30
0.000000
  0
SEQEND
  8
LAYER-1
  0
POLYLINE
  8
LAYER-1
 66
  1
 70
  1
 62
  0
 10
2.085683
 20
0.105999
 30
0.000000
  0
VERTEX
  8
LAYER-1
 10
2.085683
 20
0.105999
 30
0.000000
  0
VERTEX
  8
LAYER-1
 10
2.092628
 20
0.079959
 30
0.000000
  0
VERTEX
  8
LAYER-1
 10
2.117801
 20
0.093847
 30
0.000000
  0
SEQEND
  8
LAYER-1
  0
POLYLINE
  8
LAYER-1
 66
  1
 70
  1
 62
  0
 10
2.190197
 20
0.093241
 30
0.000000
  0
VERTEX
  8
LAYER-1
 10
2.190197
 20
0.093241
 30
0.000000
  0
VERTEX
  8
LAYER-1
 10
2.177176
 20
0.070671
 30
0.000000
  0
VERTEX
  8
LAYER-1
 10
2.207558
 20
0.091504
 30
0.000000
  0
SEQEND
  8
LAYER-1
  0
POLYLINE
  8
LAYER-1
 66
  1
 70
  1
 62
  0
 10
1.906162
 20
0.123697
 30
0.000000
  0
VERTEX
  8
LAYER-1
 10
1.906162
 20
0.123697
 30
0.000000
  0
VERTEX
  8
LAYER-1
 10
1.889669
 20
0.098523
 30
0.000000
  0
VERTEX
  8
LAYER-1
 10
1.904426
 20
0.090711
 30
0.000000
  0
SEQEND
  8
LAYER-1
  0
POLYLINE
  8
LAYER-1
 66
  1
 70
  0
 62
  0
 10
2.036204
 20
0.137249
 30
0.000000
  0
VERTEX
  8
LAYER-1
 10
2.036204
 20
0.137249
 30
0.000000
  0
VERTEX
  8
LAYER-1
 10
2.031864
 20
0.137249
 30
0.000000
  0
VERTEX
  8
LAYER-1
 10
2.028392
 20
0.132909
 30
0.000000
  0
VERTEX
  8
LAYER-1
 10
2.027524
 20
0.127701
 30
0.000000
  0
VERTEX
  8
LAYER-1
 10
2.029260
 20
0.123361
 30
0.000000
  0
VERTEX
  8
LAYER-1
 10
2.033600
 20
0.121624
 30
0.000000
  0
VERTEX
  8
LAYER-1
 10
2.037940
 20
0.121624
 30
0.000000
  0
VERTEX
  8
LAYER-1
 10
2.042281
 20
0.125097
 30
0.000000
  0
VERTEX
  8
LAYER-1
 10
2.042281
 20
0.129437
 30
0.000000
  0
VERTEX
  8
LAYER-1
 10
2.041413
 20
0.133778
 30
0.000000
  0
VERTEX
  8
LAYER-1
 10
2.037072
 20
0.136382
 30
0.000000
  0
SEQEND
  8
LAYER-1
  0
POLYLINE
  8
LAYER-1
 66
  1
 70
  1
 62
  0
 10
0.893843
 20
0.213637
 30
0.000000
  0
VERTEX
  8
LAYER-1
 10
0.893843
 20
0.213637
 30
0.000000
  0
VERTEX
  8
LAYER-1
 10
0.880822
 20
0.191067
 30
0.000000
  0
VERTEX
  8
LAYER-1
 10
0.911204
 20
0.211900
 30
0.000000
  0
SEQEND
  8
LAYER-1
  0
POLYLINE
  8
LAYER-1
 66
  1
 70
  1
 62
  0
 10
1.891239
 20
0.156347
 30
0.000000
  0
VERTEX
  8
LAYER-1
 10
1.891239
 20
0.156347
 30
0.000000
  0
VERTEX
  8
LAYER-1
 10
1.878552
 20
0.136982
 30
0.000000
  0
VERTEX
  8
LAYER-1
 10
1.889903
 20
0.130971
 30
0.000000
  0
SEQEND
  8
LAYER-1
  0
POLYLINE
  8
LAYER-1
 66
  1
 70
  0
 62
  0
 10
2.188114
 20
0.138986
 30
0.000000
  0
VERTEX
  8
LAYER-1
 10
2.188114
 20
0.138986
 30
0.000000
  0
VERTEX
  8
LAYER-1
 10
2.183774
 20
0.138986
 30
0.000000
  0
VERTEX
  8
LAYER-1
 10
2.180301
 20
0.134644
 30
0.000000
  0
VERTEX
  8
LAYER-1
 10
2.179433
 20
0.129437
 30
0.000000
  0
VERTEX
  8
LAYER-1
 10
2.181169
 20
0.125097
 30
0.000000
  0
VERTEX
  8
LAYER-1
 10
2.185510
 20
0.123361
 30
0.000000
  0
VERTEX
  8
LAYER-1
 10
2.189850
 20
0.123361
 30
0.000000
  0
VERTEX
  8
LAYER-1
 10
2.194190
 20
0.126832
 30
0.000000
  0
VERTEX
  8
LAYER-1
 10
2.194190
 20
0.131173
 30
0.000000
  0
VERTEX
  8
LAYER-1
 10
2.193322
 20
0.135513
 30
0.000000
  0
VERTEX
  8
LAYER-1
 10
2.188982
 20
0.138118
 30
0.000000
  0
SEQEND
  8
LAYER-1
  0
POLYLINE
  8
LAYER-1
 66
  1
 70
  0
 62
  0
 10
2.248010
 20
0.144193
 30
0.000000
  0
VERTEX
  8
LAYER-1
 10
2.248010
 20
0.144193
 30
0.000000
  0
VERTEX
  8
LAYER-1
 10
2.243669
 20
0.144193
 30
0.000000
  0
VERTEX
  8
LAYER-1
 10
2.240197
 20
0.139853
 30
0.000000
  0
VERTEX
  8
LAYER-1
 10
2.239329
 20
0.134644
 30
0.000000
  0
VERTEX
  8
LAYER-1
 10
2.241065
 20
0.130304
 30
0.000000
  0
VERTEX
  8
LAYER-1
 10
2.245406
 20
0.128568
 30
0.000000
  0
VERTEX
  8
LAYER-1
 10
2.249746
 20
0.128568
 30
0.000000
  0
VERTEX
  8
LAYER-1
 10
2.254086
 20
0.132040
 30
0.000000
  0
VERTEX
  8
LAYER-1
 10
2.254086
 20
0.136381
 30
0.000000
  0
VERTEX
  8
LAYER-1
 10
2.253219
 20
0.140722
 30
0.000000
  0
VERTEX
  8
LAYER-1
 10
2.248878
 20
0.143326
 30
0.000000
  0
SEQEND
  8
LAYER-1
  0
POLYLINE
  8
LAYER-1
 66
  1
 70
  0
 62
  0
 10
0.904259
 20
0.131172
 30
0.000000
  0
VERTEX
  8
LAYER-1
 10
0.904259
 20
0.131172
 30
0.000000
  0
VERTEX
  8
LAYER-1
 10
0.899918
 20
0.131172
 30
0.000000
  0
VERTEX
  8
LAYER-1
 10
0.896447
 20
0.126831
 30
0.000000
  0
VERTEX
  8
LAYER-1
 10
0.895579
 20
0.121624
 30
0.000000
  0
VERTEX
  8
LAYER-1
 10
0.897314
 20
0.117283
 30
0.000000
  0
VERTEX
  8
LAYER-1
 10
0.901655
 20
0.115547
 30
0.000000
  0
VERTEX
  8
LAYER-1
 10
0.905995
 20
0.115547
 30
0.000000
  0
VERTEX
  8
LAYER-1
 10
0.910336
 20
0.119019
 30
0.000000
  0
VERTEX
  8
LAYER-1
 10
0.910336
 20
0.123360
 30
0.000000
  0
VERTEX
  8
LAYER-1
 10
0.909468
 20
0.127700
 30
0.000000
  0
VERTEX
  8
LAYER-1
 10
0.905127
 20
0.130305
 30
0.000000
  0
SEQEND
  8
LAYER-1
  0
POLYLINE
  8
LAYER-1
 66
  1
 70
  1
 62
  0
 10
2.555301
 20
0.171103
 30
0.000000
  0
VERTEX
  8
LAYER-1
 10
2.555301
 20
0.171103
 30
0.000000
  0
VERTEX
  8
LAYER-1
 10
2.562246
 20
0.145061
 30
0.000000
  0
VERTEX
  8
LAYER-1
 10
2.587419
 20
0.158949
 30
0.000000
  0
SEQEND
  8
LAYER-1
  0
POLYLINE
  8
LAYER-1
 66
  1
 70
  1
 62
  0
 10
2.717628
 20
0.199749
 30
0.000000
  0
VERTEX
  8
LAYER-1
 10
2.717628
 20
0.199749
 30
0.000000
  0
VERTEX
  8
LAYER-1
 10
2.704607
 20
0.177179
 30
0.000000
  0
VERTEX
  8
LAYER-1
 10
2.734989
 20
0.198012
 30
0.000000
  0
SEQEND
  8
LAYER-1
  0
POLYLINE
  8
LAYER-1
 66
  1
 70
  1
 62
  0
 10
1.393842
 20
0.150703
 30
0.000000
  0
VERTEX
  8
LAYER-1
 10
1.393842
 20
0.150703
 30
0.000000
  0
VERTEX
  8
LAYER-1
 10
1.377349
 20
0.125529
 30
0.000000
  0
VERTEX
  8
LAYER-1
 10
1.392106
 20
0.117716
 30
0.000000
  0
SEQEND
  8
LAYER-1
  0
POLYLINE
  8
LAYER-1
 66
  1
 70
  0
 62
  0
 10
2.505822
 20
0.202353
 30
0.000000
  0
VERTEX
  8
LAYER-1
 10
2.505822
 20
0.202353
 30
0.000000
  0
VERTEX
  8
LAYER-1
 10
2.501482
 20
0.202353
 30
0.000000
  0
VERTEX
  8
LAYER-1
 10
2.498010
 20
0.198012
 30
0.000000
  0
VERTEX
  8
LAYER-1
 10
2.497141
 20
0.192804
 30
0.000000
  0
VERTEX
  8
LAYER-1
 10
2.498878
 20
0.188463
 30
0.000000
  0
VERTEX
  8
LAYER-1
 10
2.503217
 20
0.186728
 30
0.000000
  0
VERTEX
  8
LAYER-1
 10
2.507558
 20
0.186728
 30
0.000000
  0
VERTEX
  8
LAYER-1
 10
2.511899
 20
0.190199
 30
0.000000
  0
VERTEX
  8
LAYER-1
 10
2.511899
 20
0.194540
 30
0.000000
  0
VERTEX
  8
LAYER-1
 10
2.511030
 20
0.198881
 30
0.000000
  0
VERTEX
  8
LAYER-1
 10
2.506690
 20
0.201485
 30
0.000000
  0
SEQEND
  8
LAYER-1
  0
POLYLINE
  8
LAYER-1
 66
  1
 70
  1
 62
  0
 10
2.543149
 20
0.134644
 30
0.000000
  0
VERTEX
  8
LAYER-1
 10
2.543149
 20
0.134644
 30
0.000000
  0
VERTEX
  8
LAYER-1
 10
2.530128
 20
0.112074
 30
0.000000
  0
VERTEX
  8
LAYER-1
 10
2.560510
 20
0.132907
 30
0.000000
  0
SEQEND
  8
LAYER-1
  0
POLYLINE
  8
LAYER-1
 66
  1
 70
  1
 62
  0
 10
1.102075
 20
0.225015
 30
0.000000
  0
VERTEX
  8
LAYER-1
 10
1.102075
 20
0.225015
 30
0.000000
  0
VERTEX
  8
LAYER-1
 10
1.121440
 20
0.212329
 30
0.000000
  0
VERTEX
  8
LAYER-1
 10
1.127450
 20
0.223679
 30
0.000000
  0
SEQEND
  8
LAYER-1
  0
POLYLINE
  8
LAYER-1
 66
  1
 70
  0
 62
  0
 10
2.657732
 20
0.204088
 30
0.000000
  0
VERTEX
  8
LAYER-1
 10
2.657732
 20
0.204088
 30
0.000000
  0
VERTEX
  8
LAYER-1
 10
2.653391
 20
0.204088
 30
0.000000
  0
VERTEX
  8
LAYER-1
 10
2.649919
 20
0.199748
 30
0.000000
  0
VERTEX
  8
LAYER-1
 10
2.649051
 20
0.194540
 30
0.000000
  0
VERTEX
  8
LAYER-1
 10
2.650787
 20
0.190199
 30
0.000000
  0
VERTEX
  8
LAYER-1
 10
2.655128
 20
0.188463
 30
0.000000
  0
VERTEX
  8
LAYER-1
 10
2.659467
 20
0.188463
 30
0.000000
  0
VERTEX
  8
LAYER-1
 10
2.663808
 20
0.191935
 30
0.000000
  0
VERTEX
  8
LAYER-1
 10
2.663808
 20
0.196275
 30
0.000000
  0
VERTEX
  8
LAYER-1
 10
2.662940
 20
0.200617
 30
0.000000
  0
VERTEX
  8
LAYER-1
 10
2.658600
 20
0.203221
 30
0.000000
  0
SEQEND
  8
LAYER-1
  0
POLYLINE
  8
LAYER-1
 66
  1
 70
  0
 62
  0
 10
1.445926
 20
0.144627
 30
0.000000
  0
VERTEX
  8
LAYER-1
 10
1.445926
 20
0.144627
 30
0.000000
  0
VERTEX
  8
LAYER-1
 10
1.441585
 20
0.144627
 30
0.000000
  0
VERTEX
  8
LAYER-1
 10
1.438114
 20
0.140286
 30
0.000000
  0
VERTEX
  8
LAYER-1
 10
1.437245
 20
0.135078
 30
0.000000
  0
VERTEX
  8
LAYER-1
 10
1.438981
 20
0.130737
 30
0.000000
  0
VERTEX
  8
LAYER-1
 10
1.443321
 20
0.129002
 30
0.000000
  0
VERTEX
  8
LAYER-1
 10
1.447662
 20
0.129002
 30
0.000000
  0
VERTEX
  8
LAYER-1
 10
1.452002
 20
0.132473
 30
0.000000
  0
VERTEX
  8
LAYER-1
 10
1.452002
 20
0.136815
 30
0.000000
  0
VERTEX
  8
LAYER-1
 10
1.451134
 20
0.141155
 30
0.000000
  0
VERTEX
  8
LAYER-1
 10
1.446794
 20
0.143759
 30
0.000000
  0
SEQEND
  8
LAYER-1
  0
POLYLINE
  8
LAYER-1
 66
  1
 70
  0
 62
  0
 10
1.029259
 20
0.121190
 30
0.000000
  0
VERTEX
  8
LAYER-1
 10
1.029259
 20
0.121190
 30
0.000000
  0
VERTEX
  8
LAYER-1
 10
1.024918
 20
0.121190
 30
0.000000
  0
VERTEX
  8
LAYER-1
 10
1.021446
 20
0.116848
 30
0.000000
  0
VERTEX
  8
LAYER-1
 10
1.020578
 20
0.111641
 30
0.000000
  0
VERTEX
  8
LAYER-1
 10
1.022314
 20
0.107300
 30
0.000000
  0
VERTEX
  8
LAYER-1
 10
1.026654
 20
0.105565
 30
0.000000
  0
VERTEX
  8
LAYER-1
 10
1.030995
 20
0.105565
 30
0.000000
  0
VERTEX
  8
LAYER-1
 10
1.035334
 20
0.109036
 30
0.000000
  0
VERTEX
  8
LAYER-1
 10
1.035334
 20
0.113377
 30
0.000000
  0
VERTEX
  8
LAYER-1
 10
1.034466
 20
0.117717
 30
0.000000
  0
VERTEX
  8
LAYER-1
 10
1.030127
 20
0.120321
 30
0.000000
  0
SEQEND
  8
LAYER-1
  0
POLYLINE
  8
LAYER-1
 66
  1
 70
  1
 62
  0
 10
2.997141
 20
0.195408
 30
0.000000
  0
VERTEX
  8
LAYER-1
 10
2.997141
 20
0.195408
 30
0.000000
  0
VERTEX
  8
LAYER-1
 10
3.004086
 20
0.169367
 30
0.000000
  0
VERTEX
  8
LAYER-1
 10
3.029259
 20
0.183255
 30
0.000000
  0
SEQEND
  8
LAYER-1
  0
POLYLINE
  8
LAYER-1
 66
  1
 70
  1
 62
  0
 10
3.159467
 20
0.224055
 30
0.000000
  0
VERTEX
  8
LAYER-1
 10
3.159467
 20
0.224055
 30
0.000000
  0
VERTEX
  8
LAYER-1
 10
3.146446
 20
0.201485
 30
0.000000
  0
VERTEX
  8
LAYER-1
 10
3.176829
 20
0.222317
 30
0.000000
  0
SEQEND
  8
LAYER-1
  0
POLYLINE
  8
LAYER-1
 66
  1
 70
  1
 62
  0
 10
2.387766
 20
0.159818
 30
0.000000
  0
VERTEX
  8
LAYER-1
 10
2.387766
 20
0.159818
 30
0.000000
  0
VERTEX
  8
LAYER-1
 10
2.412940
 20
0.143324
 30
0.000000
  0
VERTEX
  8
LAYER-1
 10
2.420752
 20
0.158082
 30
0.000000
  0
SEQEND
  8
LAYER-1
  0
POLYLINE
  8
LAYER-1
 66
  1
 70
  0
 62
  0
 10
2.958078
 20
0.216242
 30
0.000000
  0
VERTEX
  8
LAYER-1
 10
2.958078
 20
0.216242
 30
0.000000
  0
VERTEX
  8
LAYER-1
 10
2.953738
 20
0.216242
 30
0.000000
  0
VERTEX
  8
LAYER-1
 10
2.950266
 20
0.211902
 30
0.000000
  0
VERTEX
  8
LAYER-1
 10
2.949398
 20
0.206694
 30
0.000000
  0
VERTEX
  8
LAYER-1
 10
2.951134
 20
0.202354
 30
0.000000
  0
VERTEX
  8
LAYER-1
 10
2.955475
 20
0.200617
 30
0.000000
  0
VERTEX
  8
LAYER-1
 10
2.959814
 20
0.200617
 30
0.000000
  0
VERTEX
  8
LAYER-1
 10
2.964155
 20
0.204090
 30
0.000000
  0
VERTEX
  8
LAYER-1
 10
2.964155
 20
0.208430
 30
0.000000
  0
VERTEX
  8
LAYER-1
 10
2.963287
 20
0.212771
 30
0.000000
  0
VERTEX
  8
LAYER-1
 10
2.958946
 20
0.215375
 30
0.000000
  0
SEQEND
  8
LAYER-1
  0
POLYLINE
  8
LAYER-1
 66
  1
 70
  1
 62
  0
 10
2.973704
 20
0.127700
 30
0.000000
  0
VERTEX
  8
LAYER-1
 10
2.973704
 20
0.127700
 30
0.000000
  0
VERTEX
  8
LAYER-1
 10
2.960683
 20
0.105130
 30
0.000000
  0
VERTEX
  8
LAYER-1
 10
2.991065
 20
0.125962
 30
0.000000
  0
SEQEND
  8
LAYER-1
  0
POLYLINE
  8
LAYER-1
 66
  1
 70
  1
 62
  0
 10
3.068155
 20
0.121287
 30
0.000000
  0
VERTEX
  8
LAYER-1
 10
3.068155
 20
0.121287
 30
0.000000
  0
VERTEX
  8
LAYER-1
 10
3.055468
 20
0.101923
 30
0.000000
  0
VERTEX
  8
LAYER-1
 10
3.066819
 20
0.095912
 30
0.000000
  0
SEQEND
  8
LAYER-1
  0
POLYLINE
  8
LAYER-1
 66
  1
 70
  0
 62
  0
 10
3.099571
 20
0.220582
 30
0.000000
  0
VERTEX
  8
LAYER-1
 10
3.099571
 20
0.220582
 30
0.000000
  0
VERTEX
  8
LAYER-1
 10
3.095232
 20
0.220582
 30
0.000000
  0
VERTEX
  8
LAYER-1
 10
3.091759
 20
0.216242
 30
0.000000
  0
VERTEX
  8
LAYER-1
 10
3.090891
 20
0.211034
 30
0.000000
  0
VERTEX
  8
LAYER-1
 10
3.092627
 20
0.206693
 30
0.000000
  0
VERTEX
  8
LAYER-1
 10
3.096967
 20
0.204957
 30
0.000000
  0
VERTEX
  8
LAYER-1
 10
3.101308
 20
0.204957
 30
0.000000
  0
VERTEX
  8
LAYER-1
 10
3.105648
 20
0.208429
 30
0.000000
  0
VERTEX
  8
LAYER-1
 10
3.105648
 20
0.212769
 30
0.000000
  0
VERTEX
  8
LAYER-1
 10
3.104780
 20
0.217111
 30
0.000000
  0
VERTEX
  8
LAYER-1
 10
3.100439
 20
0.219716
 30
0.000000
  0
SEQEND
  8
LAYER-1
  0
POLYLINE
  8
LAYER-1
 66
  1
 70
  0
 62
  0
 10
2.376482
 20
0.212769
 30
0.000000
  0
VERTEX
  8
LAYER-1
 10
2.376482
 20
0.212769
 30
0.000000
  0
VERTEX
  8
LAYER-1
 10
2.376482
 20
0.208429
 30
0.000000
  0
VERTEX
  8
LAYER-1
 10
2.380823
 20
0.204957
 30
0.000000
  0
VERTEX
  8
LAYER-1
 10
2.386030
 20
0.204088
 30
0.000000
  0
VERTEX
  8
LAYER-1
 10
2.390371
 20
0.205824
 30
0.000000
  0
VERTEX
  8
LAYER-1
 10
2.392107
 20
0.210165
 30
0.000000
  0
VERTEX
  8
LAYER-1
 10
2.392107
 20
0.214506
 30
0.000000
  0
VERTEX
  8
LAYER-1
 10
2.388635
 20
0.218847
 30
0.000000
  0
VERTEX
  8
LAYER-1
 10
2.384295
 20
0.218847
 30
0.000000
  0
VERTEX
  8
LAYER-1
 10
2.379954
 20
0.217978
 30
0.000000
  0
VERTEX
  8
LAYER-1
 10
2.377349
 20
0.213637
 30
0.000000
  0
SEQEND
  8
LAYER-1
  0
POLYLINE
  8
LAYER-1
 66
  1
 70
  0
 62
  0
 10
2.939849
 20
0.128566
 30
0.000000
  0
VERTEX
  8
LAYER-1
 10
2.939849
 20
0.128566
 30
0.000000
  0
VERTEX
  8
LAYER-1
 10
2.935508
 20
0.128566
 30
0.000000
  0
VERTEX
  8
LAYER-1
 10
2.932036
 20
0.124225
 30
0.000000
  0
VERTEX
  8
LAYER-1
 10
2.931168
 20
0.119018
 30
0.000000
  0
VERTEX
  8
LAYER-1
 10
2.932904
 20
0.114677
 30
0.000000
  0
VERTEX
  8
LAYER-1
 10
2.937245
 20
0.112941
 30
0.000000
  0
VERTEX
  8
LAYER-1
 10
2.941584
 20
0.112941
 30
0.000000
  0
VERTEX
  8
LAYER-1
 10
2.945925
 20
0.116413
 30
0.000000
  0
VERTEX
  8
LAYER-1
 10
2.945925
 20
0.120754
 30
0.000000
  0
VERTEX
  8
LAYER-1
 10
2.945057
 20
0.125094
 30
0.000000
  0
VERTEX
  8
LAYER-1
 10
2.940717
 20
0.127699
 30
0.000000
  0
SEQEND
  8
LAYER-1
  0
POLYLINE
  8
LAYER-1
 66
  1
 70
  1
 62
  0
 10
2.807038
 20
0.116849
 30
0.000000
  0
VERTEX
  8
LAYER-1
 10
2.807038
 20
0.116849
 30
0.000000
  0
VERTEX
  8
LAYER-1
 10
2.780996
 20
0.109905
 30
0.000000
  0
VERTEX
  8
LAYER-1
 10
2.794885
 20
0.084731
 30
0.000000
  0
SEQEND
  8
LAYER-1
  0
POLYLINE
  8
LAYER-1
 66
  1
 70
  1
 62
  0
 10
1.430302
 20
0.091242
 30
0.000000
  0
VERTEX
  8
LAYER-1
 10
1.430302
 20
0.091242
 30
0.000000
  0
VERTEX
  8
LAYER-1
 10
1.405127
 20
0.107735
 30
0.000000
  0
VERTEX
  8
LAYER-1
 10
1.397314
 20
0.092978
 30
0.000000
  0
SEQEND
  8
LAYER-1
  0
POLYLINE
  8
LAYER-1
 66
  1
 70
  0
 62
  0
 10
2.838288
 20
0.166328
 30
0.000000
  0
VERTEX
  8
LAYER-1
 10
2.838288
 20
0.166328
 30
0.000000
  0
VERTEX
  8
LAYER-1
 10
2.838288
 20
0.170669
 30
0.000000
  0
VERTEX
  8
LAYER-1
 10
2.833947
 20
0.174141
 30
0.000000
  0
VERTEX
  8
LAYER-1
 10
2.828740
 20
0.175009
 30
0.000000
  0
VERTEX
  8
LAYER-1
 10
2.824399
 20
0.173273
 30
0.000000
  0
VERTEX
  8
LAYER-1
 10
2.822663
 20
0.168932
 30
0.000000
  0
VERTEX
  8
LAYER-1
 10
2.822663
 20
0.164592
 30
0.000000
  0
VERTEX
  8
LAYER-1
 10
2.826135
 20
0.160253
 30
0.000000
  0
VERTEX
  8
LAYER-1
 10
2.830475
 20
0.160253
 30
0.000000
  0
VERTEX
  8
LAYER-1
 10
2.834816
 20
0.161119
 30
0.000000
  0
VERTEX
  8
LAYER-1
 10
2.837419
 20
0.165460
 30
0.000000
  0
SEQEND
  8
LAYER-1
  0
POLYLINE
  8
LAYER-1
 66
  1
 70
  1
 62
  0
 10
2.770578
 20
0.129003
 30
0.000000
  0
VERTEX
  8
LAYER-1
 10
2.770578
 20
0.129003
 30
0.000000
  0
VERTEX
  8
LAYER-1
 10
2.748010
 20
0.142023
 30
0.000000
  0
VERTEX
  8
LAYER-1
 10
2.768842
 20
0.111641
 30
0.000000
  0
SEQEND
  8
LAYER-1
  0
POLYLINE
  8
LAYER-1
 66
  1
 70
  1
 62
  0
 10
1.508093
 20
0.110505
 30
0.000000
  0
VERTEX
  8
LAYER-1
 10
1.508093
 20
0.110505
 30
0.000000
  0
VERTEX
  8
LAYER-1
 10
1.488727
 20
0.123191
 30
0.000000
  0
VERTEX
  8
LAYER-1
 10
1.482717
 20
0.111839
 30
0.000000
  0
SEQEND
  8
LAYER-1
  0
POLYLINE
  8
LAYER-1
 66
  1
 70
  0
 62
  0
 10
1.568323
 20
0.099054
 30
0.000000
  0
VERTEX
  8
LAYER-1
 10
1.568323
 20
0.099054
 30
0.000000
  0
VERTEX
  8
LAYER-1
 10
1.568323
 20
0.103394
 30
0.000000
  0
VERTEX
  8
LAYER-1
 10
1.563982
 20
0.106867
 30
0.000000
  0
VERTEX
  8
LAYER-1
 10
1.558774
 20
0.107735
 30
0.000000
  0
VERTEX
  8
LAYER-1
 10
1.554434
 20
0.105999
 30
0.000000
  0
VERTEX
  8
LAYER-1
 10
1.552698
 20
0.101658
 30
0.000000
  0
VERTEX
  8
LAYER-1
 10
1.552698
 20
0.097317
 30
0.000000
  0
VERTEX
  8
LAYER-1
 10
1.556170
 20
0.092978
 30
0.000000
  0
VERTEX
  8
LAYER-1
 10
1.560510
 20
0.092978
 30
0.000000
  0
VERTEX
  8
LAYER-1
 10
1.564851
 20
0.093846
 30
0.000000
  0
VERTEX
  8
LAYER-1
 10
1.567454
 20
0.098186
 30
0.000000
  0
SEQEND
  8
LAYER-1
  0
POLYLINE
  8
LAYER-1
 66
  1
 70
  0
 62
  0
 10
2.688115
 20
0.118585
 30
0.000000
  0
VERTEX
  8
LAYER-1
 10
2.688115
 20
0.118585
 30
0.000000
  0
VERTEX
  8
LAYER-1
 10
2.688115
 20
0.122926
 30
0.000000
  0
VERTEX
  8
LAYER-1
 10
2.683774
 20
0.126398
 30
0.000000
  0
VERTEX
  8
LAYER-1
 10
2.678566
 20
0.127266
 30
0.000000
  0
VERTEX
  8
LAYER-1
 10
2.674225
 20
0.125530
 30
0.000000
  0
VERTEX
  8
LAYER-1
 10
2.672490
 20
0.121190
 30
0.000000
  0
VERTEX
  8
LAYER-1
 10
2.672490
 20
0.116849
 30
0.000000
  0
VERTEX
  8
LAYER-1
 10
2.675961
 20
0.112509
 30
0.000000
  0
VERTEX
  8
LAYER-1
 10
2.680302
 20
0.112509
 30
0.000000
  0
VERTEX
  8
LAYER-1
 10
2.684643
 20
0.113378
 30
0.000000
  0
VERTEX
  8
LAYER-1
 10
2.687246
 20
0.117717
 30
0.000000
  0
SEQEND
  8
LAYER-1
  0
POLYLINE
  8
LAYER-1
 66
  1
 70
  1
 62
  0
 10
2.880822
 20
0.119888
 30
0.000000
  0
VERTEX
  8
LAYER-1
 10
2.880822
 20
0.119888
 30
0.000000
  0
VERTEX
  8
LAYER-1
 10
2.873877
 20
0.145929
 30
0.000000
  0
VERTEX
  8
LAYER-1
 10
2.848704
 20
0.132042
 30
0.000000
  0
SEQEND
  8
LAYER-1
  0
POLYLINE
  8
LAYER-1
 66
  1
 70
  1
 62
  0
 10
2.327871
 20
0.106867
 30
0.000000
  0
VERTEX
  8
LAYER-1
 10
2.327871
 20
0.106867
 30
0.000000
  0
VERTEX
  8
LAYER-1
 10
2.305300
 20
0.119888
 30
0.000000
  0
VERTEX
  8
LAYER-1
 10
2.326133
 20
0.089506
 30
0.000000
  0
SEQEND
  8
LAYER-1
  0
POLYLINE
  8
LAYER-1
 66
  1
 70
  1
 62
  0
 10
3.105649
 20
0.131173
 30
0.000000
  0
VERTEX
  8
LAYER-1
 10
3.105649
 20
0.131173
 30
0.000000
  0
VERTEX
  8
LAYER-1
 10
3.122142
 20
0.156347
 30
0.000000
  0
VERTEX
  8
LAYER-1
 10
3.107385
 20
0.164159
 30
0.000000
  0
SEQEND
  8
LAYER-1
  0
POLYLINE
  8
LAYER-1
 66
  1
 70
  0
 62
  0
 10
3.241065
 20
0.099052
 30
0.000000
  0
VERTEX
  8
LAYER-1
 10
3.241065
 20
0.099052
 30
0.000000
  0
VERTEX
  8
LAYER-1
 10
3.245405
 20
0.099052
 30
0.000000
  0
VERTEX
  8
LAYER-1
 10
3.248877
 20
0.103393
 30
0.000000
  0
VERTEX
  8
LAYER-1
 10
3.249745
 20
0.108600
 30
0.000000
  0
VERTEX
  8
LAYER-1
 10
3.248009
 20
0.112941
 30
0.000000
  0
VERTEX
  8
LAYER-1
 10
3.243668
 20
0.114677
 30
0.000000
  0
VERTEX
  8
LAYER-1
 10
3.239329
 20
0.114677
 30
0.000000
  0
VERTEX
  8
LAYER-1
 10
3.234988
 20
0.111205
 30
0.000000
  0
VERTEX
  8
LAYER-1
 10
3.234988
 20
0.106865
 30
0.000000
  0
VERTEX
  8
LAYER-1
 10
3.235856
 20
0.102524
 30
0.000000
  0
VERTEX
  8
LAYER-1
 10
3.240197
 20
0.099919
 30
0.000000
  0
SEQEND
  8
LAYER-1
  0
POLYLINE
  8
LAYER-1
 66
  1
 70
  1
 62
  0
 10
2.892974
 20
0.156347
 30
0.000000
  0
VERTEX
  8
LAYER-1
 10
2.892974
 20
0.156347
 30
0.000000
  0
VERTEX
  8
LAYER-1
 10
2.905995
 20
0.178917
 30
0.000000
  0
VERTEX
  8
LAYER-1
 10
2.875613
 20
0.158084
 30
0.000000
  0
SEQEND
  8
LAYER-1
  0
POLYLINE
  8
LAYER-1
 66
  1
 70
  1
 62
  0
 10
3.146614
 20
0.107202
 30
0.000000
  0
VERTEX
  8
LAYER-1
 10
3.146614
 20
0.107202
 30
0.000000
  0
VERTEX
  8
LAYER-1
 10
3.159300
 20
0.126566
 30
0.000000
  0
VERTEX
  8
LAYER-1
 10
3.147950
 20
0.132577
 30
0.000000
  0
SEQEND
  8
LAYER-1
  0
POLYLINE
  8
LAYER-1
 66
  1
 70
  0
 62
  0
 10
2.467626
 20
0.166763
 30
0.000000
  0
VERTEX
  8
LAYER-1
 10
2.467626
 20
0.166763
 30
0.000000
  0
VERTEX
  8
LAYER-1
 10
2.467626
 20
0.171103
 30
0.000000
  0
VERTEX
  8
LAYER-1
 10
2.463286
 20
0.174576
 30
0.000000
  0
VERTEX
  8
LAYER-1
 10
2.458078
 20
0.175443
 30
0.000000
  0
VERTEX
  8
LAYER-1
 10
2.453737
 20
0.173707
 30
0.000000
  0
VERTEX
  8
LAYER-1
 10
2.452001
 20
0.169367
 30
0.000000
  0
VERTEX
  8
LAYER-1
 10
2.452001
 20
0.165025
 30
0.000000
  0
VERTEX
  8
LAYER-1
 10
2.455473
 20
0.160687
 30
0.000000
  0
VERTEX
  8
LAYER-1
 10
2.459814
 20
0.160687
 30
0.000000
  0
VERTEX
  8
LAYER-1
 10
2.464155
 20
0.161554
 30
0.000000
  0
VERTEX
  8
LAYER-1
 10
2.466759
 20
0.165894
 30
0.000000
  0
SEQEND
  8
LAYER-1
  0
POLYLINE
  8
LAYER-1
 66
  1
 70
  0
 62
  0
 10
3.053565
 20
0.137249
 30
0.000000
  0
VERTEX
  8
LAYER-1
 10
3.053565
 20
0.137249
 30
0.000000
  0
VERTEX
  8
LAYER-1
 10
3.057906
 20
0.137249
 30
0.000000
  0
VERTEX
  8
LAYER-1
 10
3.061378
 20
0.141591
 30
0.000000
  0
VERTEX
  8
LAYER-1
 10
3.062246
 20
0.146798
 30
0.000000
  0
VERTEX
  8
LAYER-1
 10
3.060510
 20
0.151138
 30
0.000000
  0
VERTEX
  8
LAYER-1
 10
3.056169
 20
0.152874
 30
0.000000
  0
VERTEX
  8
LAYER-1
 10
3.051829
 20
0.152874
 30
0.000000
  0
VERTEX
  8
LAYER-1
 10
3.047489
 20
0.149403
 30
0.000000
  0
VERTEX
  8
LAYER-1
 10
3.047489
 20
0.145062
 30
0.000000
  0
VERTEX
  8
LAYER-1
 10
3.048357
 20
0.140722
 30
0.000000
  0
VERTEX
  8
LAYER-1
 10
3.052697
 20
0.138117
 30
0.000000
  0
SEQEND
  8
LAYER-1
  0
POLYLINE
  8
LAYER-1
 66
  1
 70
  0
 62
  0
 10
3.217628
 20
0.145062
 30
0.000000
  0
VERTEX
  8
LAYER-1
 10
3.217628
 20
0.145062
 30
0.000000
  0
VERTEX
  8
LAYER-1
 10
3.221968
 20
0.145062
 30
0.000000
  0
VERTEX
  8
LAYER-1
 10
3.225440
 20
0.149403
 30
0.000000
  0
VERTEX
  8
LAYER-1
 10
3.226308
 20
0.154611
 30
0.000000
  0
VERTEX
  8
LAYER-1
 10
3.224572
 20
0.158951
 30
0.000000
  0
VERTEX
  8
LAYER-1
 10
3.220232
 20
0.160687
 30
0.000000
  0
VERTEX
  8
LAYER-1
 10
3.215892
 20
0.160687
 30
0.000000
  0
VERTEX
  8
LAYER-1
 10
3.211551
 20
0.157216
 30
0.000000
  0
VERTEX
  8
LAYER-1
 10
3.211551
 20
0.152874
 30
0.000000
  0
VERTEX
  8
LAYER-1
 10
3.212419
 20
0.148534
 30
0.000000
  0
VERTEX
  8
LAYER-1
 10
3.216760
 20
0.145929
 30
0.000000
  0
SEQEND
  8
LAYER-1
  0
POLYLINE
  8
LAYER-1
 66
  1
 70
  1
 62
  0
 10
3.624746
 20
0.143326
 30
0.000000
  0
VERTEX
  8
LAYER-1
 10
3.624746
 20
0.143326
 30
0.000000
  0
VERTEX
  8
LAYER-1
 10
3.631689
 20
0.117285
 30
0.000000
  0
VERTEX
  8
LAYER-1
 10
3.656862
 20
0.131173
 30
0.000000
  0
SEQEND
  8
LAYER-1
  0
POLYLINE
  8
LAYER-1
 66
  1
 70
  1
 62
  0
 10
3.790977
 20
0.097319
 30
0.000000
  0
VERTEX
  8
LAYER-1
 10
3.790977
 20
0.097319
 30
0.000000
  0
VERTEX
  8
LAYER-1
 10
3.777956
 20
0.074749
 30
0.000000
  0
VERTEX
  8
LAYER-1
 10
3.808339
 20
0.095582
 30
0.000000
  0
SEQEND
  8
LAYER-1
  0
POLYLINE
  8
LAYER-1
 66
  1
 70
  1
 62
  0
 10
3.675959
 20
0.187593
 30
0.000000
  0
VERTEX
  8
LAYER-1
 10
3.675959
 20
0.187593
 30
0.000000
  0
VERTEX
  8
LAYER-1
 10
3.659467
 20
0.162419
 30
0.000000
  0
VERTEX
  8
LAYER-1
 10
3.674224
 20
0.154606
 30
0.000000
  0
SEQEND
  8
LAYER-1
  0
POLYLINE
  8
LAYER-1
 66
  1
 70
  0
 62
  0
 10
3.590891
 20
0.174576
 30
0.000000
  0
VERTEX
  8
LAYER-1
 10
3.590891
 20
0.174576
 30
0.000000
  0
VERTEX
  8
LAYER-1
 10
3.586551
 20
0.174576
 30
0.000000
  0
VERTEX
  8
LAYER-1
 10
3.583079
 20
0.170236
 30
0.000000
  0
VERTEX
  8
LAYER-1
 10
3.582209
 20
0.165028
 30
0.000000
  0
VERTEX
  8
LAYER-1
 10
3.583946
 20
0.160687
 30
0.000000
  0
VERTEX
  8
LAYER-1
 10
3.588287
 20
0.158951
 30
0.000000
  0
VERTEX
  8
LAYER-1
 10
3.592627
 20
0.158951
 30
0.000000
  0
VERTEX
  8
LAYER-1
 10
3.596966
 20
0.162423
 30
0.000000
  0
VERTEX
  8
LAYER-1
 10
3.596966
 20
0.166763
 30
0.000000
  0
VERTEX
  8
LAYER-1
 10
3.596099
 20
0.171104
 30
0.000000
  0
VERTEX
  8
LAYER-1
 10
3.591759
 20
0.173709
 30
0.000000
  0
SEQEND
  8
LAYER-1
  0
POLYLINE
  8
LAYER-1
 66
  1
 70
  1
 62
  0
 10
3.574398
 20
0.114678
 30
0.000000
  0
VERTEX
  8
LAYER-1
 10
3.574398
 20
0.114678
 30
0.000000
  0
VERTEX
  8
LAYER-1
 10
3.561377
 20
0.092109
 30
0.000000
  0
VERTEX
  8
LAYER-1
 10
3.591759
 20
0.112941
 30
0.000000
  0
SEQEND
  8
LAYER-1
  0
POLYLINE
  8
LAYER-1
 66
  1
 70
  1
 62
  0
 10
3.629852
 20
0.213032
 30
0.000000
  0
VERTEX
  8
LAYER-1
 10
3.629852
 20
0.213032
 30
0.000000
  0
VERTEX
  8
LAYER-1
 10
3.649217
 20
0.200345
 30
0.000000
  0
VERTEX
  8
LAYER-1
 10
3.655228
 20
0.211696
 30
0.000000
  0
SEQEND
  8
LAYER-1
  0
POLYLINE
  8
LAYER-1
 66
  1
 70
  0
 62
  0
 10
3.514501
 20
0.164281
 30
0.000000
  0
VERTEX
  8
LAYER-1
 10
3.514501
 20
0.164281
 30
0.000000
  0
VERTEX
  8
LAYER-1
 10
3.510161
 20
0.164281
 30
0.000000
  0
VERTEX
  8
LAYER-1
 10
3.506688
 20
0.159940
 30
0.000000
  0
VERTEX
  8
LAYER-1
 10
3.505821
 20
0.154733
 30
0.000000
  0
VERTEX
  8
LAYER-1
 10
3.507557
 20
0.150391
 30
0.000000
  0
VERTEX
  8
LAYER-1
 10
3.511897
 20
0.148656
 30
0.000000
  0
VERTEX
  8
LAYER-1
 10
3.516238
 20
0.148656
 30
0.000000
  0
VERTEX
  8
LAYER-1
 10
3.520577
 20
0.152128
 30
0.000000
  0
VERTEX
  8
LAYER-1
 10
3.520577
 20
0.156469
 30
0.000000
  0
VERTEX
  8
LAYER-1
 10
3.519710
 20
0.160809
 30
0.000000
  0
VERTEX
  8
LAYER-1
 10
3.515370
 20
0.163413
 30
0.000000
  0
SEQEND
  8
LAYER-1
  0
POLYLINE
  8
LAYER-1
 66
  1
 70
  0
 62
  0
 10
3.891240
 20
0.136377
 30
0.000000
  0
VERTEX
  8
LAYER-1
 10
3.891240
 20
0.136377
 30
0.000000
  0
VERTEX
  8
LAYER-1
 10
3.886900
 20
0.136377
 30
0.000000
  0
VERTEX
  8
LAYER-1
 10
3.883427
 20
0.132036
 30
0.000000
  0
VERTEX
  8
LAYER-1
 10
3.882559
 20
0.126829
 30
0.000000
  0
VERTEX
  8
LAYER-1
 10
3.884295
 20
0.122487
 30
0.000000
  0
VERTEX
  8
LAYER-1
 10
3.888635
 20
0.120752
 30
0.000000
  0
VERTEX
  8
LAYER-1
 10
3.892975
 20
0.120752
 30
0.000000
  0
VERTEX
  8
LAYER-1
 10
3.897316
 20
0.124223
 30
0.000000
  0
VERTEX
  8
LAYER-1
 10
3.897316
 20
0.128565
 30
0.000000
  0
VERTEX
  8
LAYER-1
 10
3.896448
 20
0.132905
 30
0.000000
  0
VERTEX
  8
LAYER-1
 10
3.892107
 20
0.135509
 30
0.000000
  0
SEQEND
  8
LAYER-1
  0
POLYLINE
  8
LAYER-1
 66
  1
 70
  0
 62
  0
 10
3.623009
 20
0.107734
 30
0.000000
  0
VERTEX
  8
LAYER-1
 10
3.623009
 20
0.107734
 30
0.000000
  0
VERTEX
  8
LAYER-1
 10
3.618669
 20
0.107734
 30
0.000000
  0
VERTEX
  8
LAYER-1
 10
3.615196
 20
0.103393
 30
0.000000
  0
VERTEX
  8
LAYER-1
 10
3.614328
 20
0.098185
 30
0.000000
  0
VERTEX
  8
LAYER-1
 10
3.616064
 20
0.093844
 30
0.000000
  0
VERTEX
  8
LAYER-1
 10
3.620405
 20
0.092109
 30
0.000000
  0
VERTEX
  8
LAYER-1
 10
3.624744
 20
0.092109
 30
0.000000
  0
VERTEX
  8
LAYER-1
 10
3.629085
 20
0.095580
 30
0.000000
  0
VERTEX
  8
LAYER-1
 10
3.629085
 20
0.099921
 30
0.000000
  0
VERTEX
  8
LAYER-1
 10
3.628217
 20
0.104262
 30
0.000000
  0
VERTEX
  8
LAYER-1
 10
3.623877
 20
0.106866
 30
0.000000
  0
SEQEND
  8
LAYER-1
  0
POLYLINE
  8
LAYER-1
 66
  1
 70
  1
 62
  0
 10
3.421186
 20
0.167197
 30
0.000000
  0
VERTEX
  8
LAYER-1
 10
3.421186
 20
0.167197
 30
0.000000
  0
VERTEX
  8
LAYER-1
 10
3.395146
 20
0.160253
 30
0.000000
  0
VERTEX
  8
LAYER-1
 10
3.409033
 20
0.135079
 30
0.000000
  0
SEQEND
  8
LAYER-1
  0
POLYLINE
  8
LAYER-1
 66
  1
 70
  1
 62
  0
 10
3.328305
 20
0.115981
 30
0.000000
  0
VERTEX
  8
LAYER-1
 10
3.328305
 20
0.115981
 30
0.000000
  0
VERTEX
  8
LAYER-1
 10
3.305735
 20
0.129003
 30
0.000000
  0
VERTEX
  8
LAYER-1
 10
3.326567
 20
0.098621
 30
0.000000
  0
SEQEND
  8
LAYER-1
  0
POLYLINE
  8
LAYER-1
 66
  1
 70
  1
 62
  0
 10
3.291846
 20
0.161118
 30
0.000000
  0
VERTEX
  8
LAYER-1
 10
3.291846
 20
0.161118
 30
0.000000
  0
VERTEX
  8
LAYER-1
 10
3.266673
 20
0.177611
 30
0.000000
  0
VERTEX
  8
LAYER-1
 10
3.258860
 20
0.162854
 30
0.000000
  0
SEQEND
  8
LAYER-1
  0
POLYLINE
  8
LAYER-1
 66
  1
 70
  0
 62
  0
 10
3.452436
 20
0.216676
 30
0.000000
  0
VERTEX
  8
LAYER-1
 10
3.452436
 20
0.216676
 30
0.000000
  0
VERTEX
  8
LAYER-1
 10
3.452436
 20
0.221017
 30
0.000000
  0
VERTEX
  8
LAYER-1
 10
3.448096
 20
0.224488
 30
0.000000
  0
VERTEX
  8
LAYER-1
 10
3.442888
 20
0.225356
 30
0.000000
  0
VERTEX
  8
LAYER-1
 10
3.438547
 20
0.223621
 30
0.000000
  0
VERTEX
  8
LAYER-1
 10
3.436811
 20
0.219280
 30
0.000000
  0
VERTEX
  8
LAYER-1
 10
3.436811
 20
0.214940
 30
0.000000
  0
VERTEX
  8
LAYER-1
 10
3.440283
 20
0.210599
 30
0.000000
  0
VERTEX
  8
LAYER-1
 10
3.444624
 20
0.210599
 30
0.000000
  0
VERTEX
  8
LAYER-1
 10
3.448964
 20
0.211467
 30
0.000000
  0
VERTEX
  8
LAYER-1
 10
3.451569
 20
0.215808
 30
0.000000
  0
SEQEND
  8
LAYER-1
  0
POLYLINE
  8
LAYER-1
 66
  1
 70
  1
 62
  0
 10
3.384729
 20
0.179349
 30
0.000000
  0
VERTEX
  8
LAYER-1
 10
3.384729
 20
0.179349
 30
0.000000
  0
VERTEX
  8
LAYER-1
 10
3.362158
 20
0.192371
 30
0.000000
  0
VERTEX
  8
LAYER-1
 10
3.382991
 20
0.161988
 30
0.000000
  0
SEQEND
  8
LAYER-1
  0
POLYLINE
  8
LAYER-1
 66
  1
 70
  1
 62
  0
 10
3.336383
 20
0.186391
 30
0.000000
  0
VERTEX
  8
LAYER-1
 10
3.336383
 20
0.186391
 30
0.000000
  0
VERTEX
  8
LAYER-1
 10
3.323696
 20
0.167027
 30
0.000000
  0
VERTEX
  8
LAYER-1
 10
3.335047
 20
0.161016
 30
0.000000
  0
SEQEND
  8
LAYER-1
  0
POLYLINE
  8
LAYER-1
 66
  1
 70
  0
 62
  0
 10
3.454172
 20
0.089071
 30
0.000000
  0
VERTEX
  8
LAYER-1
 10
3.454172
 20
0.089071
 30
0.000000
  0
VERTEX
  8
LAYER-1
 10
3.454172
 20
0.093411
 30
0.000000
  0
VERTEX
  8
LAYER-1
 10
3.449832
 20
0.096884
 30
0.000000
  0
VERTEX
  8
LAYER-1
 10
3.444624
 20
0.097752
 30
0.000000
  0
VERTEX
  8
LAYER-1
 10
3.440283
 20
0.096016
 30
0.000000
  0
VERTEX
  8
LAYER-1
 10
3.438547
 20
0.091675
 30
0.000000
  0
VERTEX
  8
LAYER-1
 10
3.438547
 20
0.087335
 30
0.000000
  0
VERTEX
  8
LAYER-1
 10
3.442019
 20
0.082994
 30
0.000000
  0
VERTEX
  8
LAYER-1
 10
3.446360
 20
0.082994
 30
0.000000
  0
VERTEX
  8
LAYER-1
 10
3.450701
 20
0.083862
 30
0.000000
  0
VERTEX
  8
LAYER-1
 10
3.453305
 20
0.088203
 30
0.000000
  0
SEQEND
  8
LAYER-1
  0
POLYLINE
  8
LAYER-1
 66
  1
 70
  0
 62
  0
 10
3.372575
 20
0.089940
 30
0.000000
  0
VERTEX
  8
LAYER-1
 10
3.372575
 20
0.089940
 30
0.000000
  0
VERTEX
  8
LAYER-1
 10
3.372575
 20
0.094280
 30
0.000000
  0
VERTEX
  8
LAYER-1
 10
3.368234
 20
0.097752
 30
0.000000
  0
VERTEX
  8
LAYER-1
 10
3.363027
 20
0.098619
 30
0.000000
  0
VERTEX
  8
LAYER-1
 10
3.358686
 20
0.096884
 30
0.000000
  0
VERTEX
  8
LAYER-1
 10
3.356950
 20
0.092543
 30
0.000000
  0
VERTEX
  8
LAYER-1
 10
3.356950
 20
0.088203
 30
0.000000
  0
VERTEX
  8
LAYER-1
 10
3.360421
 20
0.083862
 30
0.000000
  0
VERTEX
  8
LAYER-1
 10
3.364763
 20
0.083862
 30
0.000000
  0
VERTEX
  8
LAYER-1
 10
3.369103
 20
0.084730
 30
0.000000
  0
VERTEX
  8
LAYER-1
 10
3.371708
 20
0.089071
 30
0.000000
  0
SEQEND
  8
LAYER-1
  0
POLYLINE
  8
LAYER-1
 66
  1
 70
  0
 62
  0
 10
3.302263
 20
0.200182
 30
0.000000
  0
VERTEX
  8
LAYER-1
 10
3.302263
 20
0.200182
 30
0.000000
  0
VERTEX
  8
LAYER-1
 10
3.302263
 20
0.204523
 30
0.000000
  0
VERTEX
  8
LAYER-1
 10
3.297922
 20
0.207994
 30
0.000000
  0
VERTEX
  8
LAYER-1
 10
3.292714
 20
0.208862
 30
0.000000
  0
VERTEX
  8
LAYER-1
 10
3.288374
 20
0.207127
 30
0.000000
  0
VERTEX
  8
LAYER-1
 10
3.286638
 20
0.202786
 30
0.000000
  0
VERTEX
  8
LAYER-1
 10
3.286638
 20
0.198446
 30
0.000000
  0
VERTEX
  8
LAYER-1
 10
3.290110
 20
0.194105
 30
0.000000
  0
VERTEX
  8
LAYER-1
 10
3.294451
 20
0.194105
 30
0.000000
  0
VERTEX
  8
LAYER-1
 10
3.298791
 20
0.194973
 30
0.000000
  0
VERTEX
  8
LAYER-1
 10
3.301396
 20
0.199315
 30
0.000000
  0
SEQEND
  8
LAYER-1
  0
POLYLINE
  8
LAYER-1
 66
  1
 70
  1
 62
  0
 10
4.084814
 20
0.189767
 30
0.000000
  0
VERTEX
  8
LAYER-1
 10
4.084814
 20
0.189767
 30
0.000000
  0
VERTEX
  8
LAYER-1
 10
4.091759
 20
0.163725
 30
0.000000
  0
VERTEX
  8
LAYER-1
 10
4.116932
 20
0.177613
 30
0.000000
  0
SEQEND
  8
LAYER-1
  0
POLYLINE
  8
LAYER-1
 66
  1
 70
  1
 62
  0
 10
4.247141
 20
0.218413
 30
0.000000
  0
VERTEX
  8
LAYER-1
 10
4.247141
 20
0.218413
 30
0.000000
  0
VERTEX
  8
LAYER-1
 10
4.234119
 20
0.195843
 30
0.000000
  0
VERTEX
  8
LAYER-1
 10
4.264502
 20
0.216676
 30
0.000000
  0
SEQEND
  8
LAYER-1
  0
POLYLINE
  8
LAYER-1
 66
  1
 70
  1
 62
  0
 10
4.226308
 20
0.133341
 30
0.000000
  0
VERTEX
  8
LAYER-1
 10
4.226308
 20
0.133341
 30
0.000000
  0
VERTEX
  8
LAYER-1
 10
4.209815
 20
0.108167
 30
0.000000
  0
VERTEX
  8
LAYER-1
 10
4.224572
 20
0.100355
 30
0.000000
  0
SEQEND
  8
LAYER-1
  0
POLYLINE
  8
LAYER-1
 66
  1
 70
  0
 62
  0
 10
4.035335
 20
0.221017
 30
0.000000
  0
VERTEX
  8
LAYER-1
 10
4.035335
 20
0.221017
 30
0.000000
  0
VERTEX
  8
LAYER-1
 10
4.030994
 20
0.221017
 30
0.000000
  0
VERTEX
  8
LAYER-1
 10
4.027523
 20
0.216676
 30
0.000000
  0
VERTEX
  8
LAYER-1
 10
4.026655
 20
0.211468
 30
0.000000
  0
VERTEX
  8
LAYER-1
 10
4.028391
 20
0.207128
 30
0.000000
  0
VERTEX
  8
LAYER-1
 10
4.032731
 20
0.205392
 30
0.000000
  0
VERTEX
  8
LAYER-1
 10
4.037071
 20
0.205392
 30
0.000000
  0
VERTEX
  8
LAYER-1
 10
4.041412
 20
0.208863
 30
0.000000
  0
VERTEX
  8
LAYER-1
 10
4.041412
 20
0.213204
 30
0.000000
  0
VERTEX
  8
LAYER-1
 10
4.040544
 20
0.217545
 30
0.000000
  0
VERTEX
  8
LAYER-1
 10
4.036203
 20
0.220149
 30
0.000000
  0
SEQEND
  8
LAYER-1
  0
POLYLINE
  8
LAYER-1
 66
  1
 70
  1
 62
  0
 10
4.056602
 20
0.152873
 30
0.000000
  0
VERTEX
  8
LAYER-1
 10
4.056602
 20
0.152873
 30
0.000000
  0
VERTEX
  8
LAYER-1
 10
4.079171
 20
0.139853
 30
0.000000
  0
VERTEX
  8
LAYER-1
 10
4.058338
 20
0.170234
 30
0.000000
  0
SEQEND
  8
LAYER-1
  0
POLYLINE
  8
LAYER-1
 66
  1
 70
  1
 62
  0
 10
4.173255
 20
0.144893
 30
0.000000
  0
VERTEX
  8
LAYER-1
 10
4.173255
 20
0.144893
 30
0.000000
  0
VERTEX
  8
LAYER-1
 10
4.192621
 20
0.132206
 30
0.000000
  0
VERTEX
  8
LAYER-1
 10
4.198631
 20
0.143557
 30
0.000000
  0
SEQEND
  8
LAYER-1
  0
POLYLINE
  8
LAYER-1
 66
  1
 70
  0
 62
  0
 10
4.187244
 20
0.222753
 30
0.000000
  0
VERTEX
  8
LAYER-1
 10
4.187244
 20
0.222753
 30
0.000000
  0
VERTEX
  8
LAYER-1
 10
4.182905
 20
0.222753
 30
0.000000
  0
VERTEX
  8
LAYER-1
 10
4.179432
 20
0.218412
 30
0.000000
  0
VERTEX
  8
LAYER-1
 10
4.178564
 20
0.213204
 30
0.000000
  0
VERTEX
  8
LAYER-1
 10
4.180300
 20
0.208863
 30
0.000000
  0
VERTEX
  8
LAYER-1
 10
4.184641
 20
0.207128
 30
0.000000
  0
VERTEX
  8
LAYER-1
 10
4.188981
 20
0.207128
 30
0.000000
  0
VERTEX
  8
LAYER-1
 10
4.193321
 20
0.210599
 30
0.000000
  0
VERTEX
  8
LAYER-1
 10
4.193321
 20
0.214940
 30
0.000000
  0
VERTEX
  8
LAYER-1
 10
4.192453
 20
0.219281
 30
0.000000
  0
VERTEX
  8
LAYER-1
 10
4.188112
 20
0.221885
 30
0.000000
  0
SEQEND
  8
LAYER-1
  0
POLYLINE
  8
LAYER-1
 66
  1
 70
  0
 62
  0
 10
4.271447
 20
0.096015
 30
0.000000
  0
VERTEX
  8
LAYER-1
 10
4.271447
 20
0.096015
 30
0.000000
  0
VERTEX
  8
LAYER-1
 10
4.267106
 20
0.096015
 30
0.000000
  0
VERTEX
  8
LAYER-1
 10
4.263635
 20
0.091674
 30
0.000000
  0
VERTEX
  8
LAYER-1
 10
4.262767
 20
0.086466
 30
0.000000
  0
VERTEX
  8
LAYER-1
 10
4.264503
 20
0.082125
 30
0.000000
  0
VERTEX
  8
LAYER-1
 10
4.268842
 20
0.080390
 30
0.000000
  0
VERTEX
  8
LAYER-1
 10
4.273183
 20
0.080390
 30
0.000000
  0
VERTEX
  8
LAYER-1
 10
4.277524
 20
0.083861
 30
0.000000
  0
VERTEX
  8
LAYER-1
 10
4.277524
 20
0.088203
 30
0.000000
  0
VERTEX
  8
LAYER-1
 10
4.276655
 20
0.092543
 30
0.000000
  0
VERTEX
  8
LAYER-1
 10
4.272315
 20
0.095147
 30
0.000000
  0
SEQEND
  8
LAYER-1
  0
POLYLINE
  8
LAYER-1
 66
  1
 70
  0
 62
  0
 10
4.117801
 20
0.150700
 30
0.000000
  0
VERTEX
  8
LAYER-1
 10
4.117801
 20
0.150700
 30
0.000000
  0
VERTEX
  8
LAYER-1
 10
4.113460
 20
0.150700
 30
0.000000
  0
VERTEX
  8
LAYER-1
 10
4.109988
 20
0.146360
 30
0.000000
  0
VERTEX
  8
LAYER-1
 10
4.109121
 20
0.141152
 30
0.000000
  0
VERTEX
  8
LAYER-1
 10
4.110856
 20
0.136811
 30
0.000000
  0
VERTEX
  8
LAYER-1
 10
4.115196
 20
0.135075
 30
0.000000
  0
VERTEX
  8
LAYER-1
 10
4.119537
 20
0.135075
 30
0.000000
  0
VERTEX
  8
LAYER-1
 10
4.123878
 20
0.138547
 30
0.000000
  0
VERTEX
  8
LAYER-1
 10
4.123878
 20
0.142888
 30
0.000000
  0
VERTEX
  8
LAYER-1
 10
4.123009
 20
0.147229
 30
0.000000
  0
VERTEX
  8
LAYER-1
 10
4.118669
 20
0.149832
 30
0.000000
  0
SEQEND
  8
LAYER-1
  0
POLYLINE
  8
LAYER-1
 66
  1
 70
  1
 62
  0
 10
3.952872
 20
0.159381
 30
0.000000
  0
VERTEX
  8
LAYER-1
 10
3.952872
 20
0.159381
 30
0.000000
  0
VERTEX
  8
LAYER-1
 10
3.945926
 20
0.185422
 30
0.000000
  0
VERTEX
  8
LAYER-1
 10
3.920753
 20
0.171535
 30
0.000000
  0
SEQEND
  8
LAYER-1
  0
POLYLINE
  8
LAYER-1
 66
  1
 70
  1
 62
  0
 10
3.541847
 20
0.191065
 30
0.000000
  0
VERTEX
  8
LAYER-1
 10
3.541847
 20
0.191065
 30
0.000000
  0
VERTEX
  8
LAYER-1
 10
3.554867
 20
0.213636
 30
0.000000
  0
VERTEX
  8
LAYER-1
 10
3.524486
 20
0.192803
 30
0.000000
  0
SEQEND
  8
LAYER-1
  0
POLYLINE
  8
LAYER-1
 66
  1
 70
  1
 62
  0
 10
3.839155
 20
0.184557
 30
0.000000
  0
VERTEX
  8
LAYER-1
 10
3.839155
 20
0.184557
 30
0.000000
  0
VERTEX
  8
LAYER-1
 10
3.855649
 20
0.209730
 30
0.000000
  0
VERTEX
  8
LAYER-1
 10
3.840891
 20
0.217543
 30
0.000000
  0
SEQEND
  8
LAYER-1
  0
POLYLINE
  8
LAYER-1
 66
  1
 70
  0
 62
  0
 10
4.002349
 20
0.128131
 30
0.000000
  0
VERTEX
  8
LAYER-1
 10
4.002349
 20
0.128131
 30
0.000000
  0
VERTEX
  8
LAYER-1
 10
4.006690
 20
0.128131
 30
0.000000
  0
VERTEX
  8
LAYER-1
 10
4.010162
 20
0.132473
 30
0.000000
  0
VERTEX
  8
LAYER-1
 10
4.011031
 20
0.137680
 30
0.000000
  0
VERTEX
  8
LAYER-1
 10
4.009295
 20
0.142021
 30
0.000000
  0
VERTEX
  8
LAYER-1
 10
4.004954
 20
0.143756
 30
0.000000
  0
VERTEX
  8
LAYER-1
 10
4.000613
 20
0.143756
 30
0.000000
  0
VERTEX
  8
LAYER-1
 10
3.996273
 20
0.140285
 30
0.000000
  0
VERTEX
  8
LAYER-1
 10
3.996273
 20
0.135944
 30
0.000000
  0
VERTEX
  8
LAYER-1
 10
3.997142
 20
0.131604
 30
0.000000
  0
VERTEX
  8
LAYER-1
 10
4.001482
 20
0.128999
 30
0.000000
  0
SEQEND
  8
LAYER-1
  0
POLYLINE
  8
LAYER-1
 66
  1
 70
  1
 62
  0
 10
3.956342
 20
0.124661
 30
0.000000
  0
VERTEX
  8
LAYER-1
 10
3.956342
 20
0.124661
 30
0.000000
  0
VERTEX
  8
LAYER-1
 10
3.969363
 20
0.147231
 30
0.000000
  0
VERTEX
  8
LAYER-1
 10
3.938981
 20
0.126399
 30
0.000000
  0
SEQEND
  8
LAYER-1
  0
POLYLINE
  8
LAYER-1
 66
  1
 70
  1
 62
  0
 10
3.901756
 20
0.166062
 30
0.000000
  0
VERTEX
  8
LAYER-1
 10
3.901756
 20
0.166062
 30
0.000000
  0
VERTEX
  8
LAYER-1
 10
3.882392
 20
0.178750
 30
0.000000
  0
VERTEX
  8
LAYER-1
 10
3.876380
 20
0.167398
 30
0.000000
  0
SEQEND
  8
LAYER-1
  0
POLYLINE
  8
LAYER-1
 66
  1
 70
  0
 62
  0
 10
3.878650
 20
0.062718
 30
0.000000
  0
VERTEX
  8
LAYER-1
 10
3.878650
 20
0.062718
 30
0.000000
  0
VERTEX
  8
LAYER-1
 10
3.882991
 20
0.062718
 30
0.000000
  0
VERTEX
  8
LAYER-1
 10
3.886462
 20
0.067058
 30
0.000000
  0
VERTEX
  8
LAYER-1
 10
3.887331
 20
0.072266
 30
0.000000
  0
VERTEX
  8
LAYER-1
 10
3.885596
 20
0.076607
 30
0.000000
  0
VERTEX
  8
LAYER-1
 10
3.881255
 20
0.078343
 30
0.000000
  0
VERTEX
  8
LAYER-1
 10
3.876914
 20
0.078343
 30
0.000000
  0
VERTEX
  8
LAYER-1
 10
3.872573
 20
0.074871
 30
0.000000
  0
VERTEX
  8
LAYER-1
 10
3.872573
 20
0.070530
 30
0.000000
  0
VERTEX
  8
LAYER-1
 10
3.873442
 20
0.066189
 30
0.000000
  0
VERTEX
  8
LAYER-1
 10
3.877783
 20
0.063584
 30
0.000000
  0
SEQEND
  8
LAYER-1
  0
POLYLINE
  8
LAYER-1
 66
  1
 70
  0
 62
  0
 10
3.788807
 20
0.205513
 30
0.000000
  0
VERTEX
  8
LAYER-1
 10
3.788807
 20
0.205513
 30
0.000000
  0
VERTEX
  8
LAYER-1
 10
3.793148
 20
0.205513
 30
0.000000
  0
VERTEX
  8
LAYER-1
 10
3.796619
 20
0.209853
 30
0.000000
  0
VERTEX
  8
LAYER-1
 10
3.797487
 20
0.215062
 30
0.000000
  0
VERTEX
  8
LAYER-1
 10
3.795751
 20
0.219402
 30
0.000000
  0
VERTEX
  8
LAYER-1
 10
3.791410
 20
0.221138
 30
0.000000
  0
VERTEX
  8
LAYER-1
 10
3.787071
 20
0.221138
 30
0.000000
  0
VERTEX
  8
LAYER-1
 10
3.782731
 20
0.217666
 30
0.000000
  0
VERTEX
  8
LAYER-1
 10
3.782731
 20
0.213326
 30
0.000000
  0
VERTEX
  8
LAYER-1
 10
3.783597
 20
0.208984
 30
0.000000
  0
VERTEX
  8
LAYER-1
 10
3.787938
 20
0.206380
 30
0.000000
  0
SEQEND
  8
LAYER-1
  0
POLYLINE
  8
LAYER-1
 66
  1
 70
  0
 62
  0
 10
3.951135
 20
0.198446
 30
0.000000
  0
VERTEX
  8
LAYER-1
 10
3.951135
 20
0.198446
 30
0.000000
  0
VERTEX
  8
LAYER-1
 10
3.955475
 20
0.198446
 30
0.000000
  0
VERTEX
  8
LAYER-1
 10
3.958947
 20
0.202787
 30
0.000000
  0
VERTEX
  8
LAYER-1
 10
3.959814
 20
0.207994
 30
0.000000
  0
VERTEX
  8
LAYER-1
 10
3.958078
 20
0.212335
 30
0.000000
  0
VERTEX
  8
LAYER-1
 10
3.953737
 20
0.214071
 30
0.000000
  0
VERTEX
  8
LAYER-1
 10
3.949399
 20
0.214071
 30
0.000000
  0
VERTEX
  8
LAYER-1
 10
3.945058
 20
0.210599
 30
0.000000
  0
VERTEX
  8
LAYER-1
 10
3.945058
 20
0.206259
 30
0.000000
  0
VERTEX
  8
LAYER-1
 10
3.945925
 20
0.201918
 30
0.000000
  0
VERTEX
  8
LAYER-1
 10
3.950266
 20
0.199313
 30
0.000000
  0
SEQEND
  8
LAYER-1
  0
POLYLINE
  8
LAYER-1
 66
  1
 70
  1
 62
  0
 10
4.707209
 20
0.167631
 30
0.000000
  0
VERTEX
  8
LAYER-1
 10
4.707209
 20
0.167631
 30
0.000000
  0
VERTEX
  8
LAYER-1
 10
4.714154
 20
0.141591
 30
0.000000
  0
VERTEX
  8
LAYER-1
 10
4.739327
 20
0.155479
 30
0.000000
  0
SEQEND
  8
LAYER-1
  0
POLYLINE
  8
LAYER-1
 66
  1
 70
  1
 62
  0
 10
4.833944
 20
0.203222
 30
0.000000
  0
VERTEX
  8
LAYER-1
 10
4.833944
 20
0.203222
 30
0.000000
  0
VERTEX
  8
LAYER-1
 10
4.820924
 20
0.180653
 30
0.000000
  0
VERTEX
  8
LAYER-1
 10
4.851305
 20
0.201486
 30
0.000000
  0
SEQEND
  8
LAYER-1
  0
POLYLINE
  8
LAYER-1
 66
  1
 70
  1
 62
  0
 10
4.509294
 20
0.191938
 30
0.000000
  0
VERTEX
  8
LAYER-1
 10
4.509294
 20
0.191938
 30
0.000000
  0
VERTEX
  8
LAYER-1
 10
4.492801
 20
0.166763
 30
0.000000
  0
VERTEX
  8
LAYER-1
 10
4.507558
 20
0.158951
 30
0.000000
  0
SEQEND
  8
LAYER-1
  0
POLYLINE
  8
LAYER-1
 66
  1
 70
  0
 62
  0
 10
4.619536
 20
0.184128
 30
0.000000
  0
VERTEX
  8
LAYER-1
 10
4.619536
 20
0.184128
 30
0.000000
  0
VERTEX
  8
LAYER-1
 10
4.615195
 20
0.184128
 30
0.000000
  0
VERTEX
  8
LAYER-1
 10
4.611724
 20
0.179787
 30
0.000000
  0
VERTEX
  8
LAYER-1
 10
4.610855
 20
0.174579
 30
0.000000
  0
VERTEX
  8
LAYER-1
 10
4.612590
 20
0.170238
 30
0.000000
  0
VERTEX
  8
LAYER-1
 10
4.616931
 20
0.168503
 30
0.000000
  0
VERTEX
  8
LAYER-1
 10
4.621272
 20
0.168503
 30
0.000000
  0
VERTEX
  8
LAYER-1
 10
4.625612
 20
0.171974
 30
0.000000
  0
VERTEX
  8
LAYER-1
 10
4.625612
 20
0.176315
 30
0.000000
  0
VERTEX
  8
LAYER-1
 10
4.624744
 20
0.180656
 30
0.000000
  0
VERTEX
  8
LAYER-1
 10
4.620403
 20
0.183260
 30
0.000000
  0
SEQEND
  8
LAYER-1
  0
POLYLINE
  8
LAYER-1
 66
  1
 70
  1
 62
  0
 10
4.649050
 20
0.138117
 30
0.000000
  0
VERTEX
  8
LAYER-1
 10
4.649050
 20
0.138117
 30
0.000000
  0
VERTEX
  8
LAYER-1
 10
4.636029
 20
0.115548
 30
0.000000
  0
VERTEX
  8
LAYER-1
 10
4.666411
 20
0.136381
 30
0.000000
  0
SEQEND
  8
LAYER-1
  0
POLYLINE
  8
LAYER-1
 66
  1
 70
  1
 62
  0
 10
4.856347
 20
0.138649
 30
0.000000
  0
VERTEX
  8
LAYER-1
 10
4.856347
 20
0.138649
 30
0.000000
  0
VERTEX
  8
LAYER-1
 10
4.843661
 20
0.119284
 30
0.000000
  0
VERTEX
  8
LAYER-1
 10
4.855013
 20
0.113274
 30
0.000000
  0
SEQEND
  8
LAYER-1
  0
POLYLINE
  8
LAYER-1
 66
  1
 70
  0
 62
  0
 10
4.763632
 20
0.207562
 30
0.000000
  0
VERTEX
  8
LAYER-1
 10
4.763632
 20
0.207562
 30
0.000000
  0
VERTEX
  8
LAYER-1
 10
4.759291
 20
0.207562
 30
0.000000
  0
VERTEX
  8
LAYER-1
 10
4.755819
 20
0.203222
 30
0.000000
  0
VERTEX
  8
LAYER-1
 10
4.754951
 20
0.198013
 30
0.000000
  0
VERTEX
  8
LAYER-1
 10
4.756687
 20
0.193673
 30
0.000000
  0
VERTEX
  8
LAYER-1
 10
4.761027
 20
0.191937
 30
0.000000
  0
VERTEX
  8
LAYER-1
 10
4.765368
 20
0.191937
 30
0.000000
  0
VERTEX
  8
LAYER-1
 10
4.769708
 20
0.195409
 30
0.000000
  0
VERTEX
  8
LAYER-1
 10
4.769708
 20
0.199749
 30
0.000000
  0
VERTEX
  8
LAYER-1
 10
4.768840
 20
0.204091
 30
0.000000
  0
VERTEX
  8
LAYER-1
 10
4.764500
 20
0.206694
 30
0.000000
  0
SEQEND
  8
LAYER-1
  0
POLYLINE
  8
LAYER-1
 66
  1
 70
  0
 62
  0
 10
4.550960
 20
0.198012
 30
0.000000
  0
VERTEX
  8
LAYER-1
 10
4.550960
 20
0.198012
 30
0.000000
  0
VERTEX
  8
LAYER-1
 10
4.546621
 20
0.198012
 30
0.000000
  0
VERTEX
  8
LAYER-1
 10
4.543148
 20
0.193672
 30
0.000000
  0
VERTEX
  8
LAYER-1
 10
4.542280
 20
0.188465
 30
0.000000
  0
VERTEX
  8
LAYER-1
 10
4.544017
 20
0.184124
 30
0.000000
  0
VERTEX
  8
LAYER-1
 10
4.548356
 20
0.182387
 30
0.000000
  0
VERTEX
  8
LAYER-1
 10
4.552697
 20
0.182387
 30
0.000000
  0
VERTEX
  8
LAYER-1
 10
4.557037
 20
0.185860
 30
0.000000
  0
VERTEX
  8
LAYER-1
 10
4.557037
 20
0.190200
 30
0.000000
  0
VERTEX
  8
LAYER-1
 10
4.556169
 20
0.194541
 30
0.000000
  0
VERTEX
  8
LAYER-1
 10
4.551829
 20
0.197144
 30
0.000000
  0
SEQEND
  8
LAYER-1
  0
POLYLINE
  8
LAYER-1
 66
  1
 70
  0
 62
  0
 10
4.798356
 20
0.170233
 30
0.000000
  0
VERTEX
  8
LAYER-1
 10
4.798356
 20
0.170233
 30
0.000000
  0
VERTEX
  8
LAYER-1
 10
4.794017
 20
0.170233
 30
0.000000
  0
VERTEX
  8
LAYER-1
 10
4.790544
 20
0.165892
 30
0.000000
  0
VERTEX
  8
LAYER-1
 10
4.789677
 20
0.160684
 30
0.000000
  0
VERTEX
  8
LAYER-1
 10
4.791413
 20
0.156343
 30
0.000000
  0
VERTEX
  8
LAYER-1
 10
4.795753
 20
0.154608
 30
0.000000
  0
VERTEX
  8
LAYER-1
 10
4.800093
 20
0.154608
 30
0.000000
  0
VERTEX
  8
LAYER-1
 10
4.804433
 20
0.158079
 30
0.000000
  0
VERTEX
  8
LAYER-1
 10
4.804433
 20
0.162420
 30
0.000000
  0
VERTEX
  8
LAYER-1
 10
4.803566
 20
0.166761
 30
0.000000
  0
VERTEX
  8
LAYER-1
 10
4.799225
 20
0.169365
 30
0.000000
  0
SEQEND
  8
LAYER-1
  0
POLYLINE
  8
LAYER-1
 66
  1
 70
  1
 62
  0
 10
4.412939
 20
0.116848
 30
0.000000
  0
VERTEX
  8
LAYER-1
 10
4.412939
 20
0.116848
 30
0.000000
  0
VERTEX
  8
LAYER-1
 10
4.405994
 20
0.142889
 30
0.000000
  0
VERTEX
  8
LAYER-1
 10
4.380821
 20
0.129002
 30
0.000000
  0
SEQEND
  8
LAYER-1
  0
POLYLINE
  8
LAYER-1
 66
  1
 70
  1
 62
  0
 10
4.261030
 20
0.157644
 30
0.000000
  0
VERTEX
  8
LAYER-1
 10
4.261030
 20
0.157644
 30
0.000000
  0
VERTEX
  8
LAYER-1
 10
4.274051
 20
0.180216
 30
0.000000
  0
VERTEX
  8
LAYER-1
 10
4.243669
 20
0.159383
 30
0.000000
  0
SEQEND
  8
LAYER-1
  0
POLYLINE
  8
LAYER-1
 66
  1
 70
  1
 62
  0
 10
4.344363
 20
0.117719
 30
0.000000
  0
VERTEX
  8
LAYER-1
 10
4.344363
 20
0.117719
 30
0.000000
  0
VERTEX
  8
LAYER-1
 10
4.360856
 20
0.142893
 30
0.000000
  0
VERTEX
  8
LAYER-1
 10
4.346099
 20
0.150705
 30
0.000000
  0
SEQEND
  8
LAYER-1
  0
POLYLINE
  8
LAYER-1
 66
  1
 70
  0
 62
  0
 10
4.518843
 20
0.119456
 30
0.000000
  0
VERTEX
  8
LAYER-1
 10
4.518843
 20
0.119456
 30
0.000000
  0
VERTEX
  8
LAYER-1
 10
4.523184
 20
0.119456
 30
0.000000
  0
VERTEX
  8
LAYER-1
 10
4.526656
 20
0.123797
 30
0.000000
  0
VERTEX
  8
LAYER-1
 10
4.527524
 20
0.129005
 30
0.000000
  0
VERTEX
  8
LAYER-1
 10
4.525788
 20
0.133345
 30
0.000000
  0
VERTEX
  8
LAYER-1
 10
4.521447
 20
0.135081
 30
0.000000
  0
VERTEX
  8
LAYER-1
 10
4.517107
 20
0.135081
 30
0.000000
  0
VERTEX
  8
LAYER-1
 10
4.512767
 20
0.131610
 30
0.000000
  0
VERTEX
  8
LAYER-1
 10
4.512767
 20
0.127268
 30
0.000000
  0
VERTEX
  8
LAYER-1
 10
4.513635
 20
0.122928
 30
0.000000
  0
VERTEX
  8
LAYER-1
 10
4.517975
 20
0.120323
 30
0.000000
  0
SEQEND
  8
LAYER-1
  0
POLYLINE
  8
LAYER-1
 66
  1
 70
  1
 62
  0
 10
4.470231
 20
0.134211
 30
0.000000
  0
VERTEX
  8
LAYER-1
 10
4.470231
 20
0.134211
 30
0.000000
  0
VERTEX
  8
LAYER-1
 10
4.483252
 20
0.156782
 30
0.000000
  0
VERTEX
  8
LAYER-1
 10
4.452869
 20
0.135949
 30
0.000000
  0
SEQEND
  8
LAYER-1
  0
POLYLINE
  8
LAYER-1
 66
  1
 70
  1
 62
  0
 10
4.359287
 20
0.170136
 30
0.000000
  0
VERTEX
  8
LAYER-1
 10
4.359287
 20
0.170136
 30
0.000000
  0
VERTEX
  8
LAYER-1
 10
4.371974
 20
0.189501
 30
0.000000
  0
VERTEX
  8
LAYER-1
 10
4.360623
 20
0.195512
 30
0.000000
  0
SEQEND
  8
LAYER-1
  0
POLYLINE
  8
LAYER-1
 66
  1
 70
  0
 62
  0
 10
4.314935
 20
0.201608
 30
0.000000
  0
VERTEX
  8
LAYER-1
 10
4.314935
 20
0.201608
 30
0.000000
  0
VERTEX
  8
LAYER-1
 10
4.319274
 20
0.201608
 30
0.000000
  0
VERTEX
  8
LAYER-1
 10
4.322748
 20
0.205948
 30
0.000000
  0
VERTEX
  8
LAYER-1
 10
4.323616
 20
0.211156
 30
0.000000
  0
VERTEX
  8
LAYER-1
 10
4.321879
 20
0.215496
 30
0.000000
  0
VERTEX
  8
LAYER-1
 10
4.317539
 20
0.217233
 30
0.000000
  0
VERTEX
  8
LAYER-1
 10
4.313198
 20
0.217233
 30
0.000000
  0
VERTEX
  8
LAYER-1
 10
4.308858
 20
0.213760
 30
0.000000
  0
VERTEX
  8
LAYER-1
 10
4.308858
 20
0.209420
 30
0.000000
  0
VERTEX
  8
LAYER-1
 10
4.309726
 20
0.205079
 30
0.000000
  0
VERTEX
  8
LAYER-1
 10
4.314067
 20
0.202475
 30
0.000000
  0
SEQEND
  8
LAYER-1
  0
POLYLINE
  8
LAYER-1
 66
  1
 70
  0
 62
  0
 10
4.292280
 20
0.123796
 30
0.000000
  0
VERTEX
  8
LAYER-1
 10
4.292280
 20
0.123796
 30
0.000000
  0
VERTEX
  8
LAYER-1
 10
4.296621
 20
0.123796
 30
0.000000
  0
VERTEX
  8
LAYER-1
 10
4.300092
 20
0.128137
 30
0.000000
  0
VERTEX
  8
LAYER-1
 10
4.300960
 20
0.133344
 30
0.000000
  0
VERTEX
  8
LAYER-1
 10
4.299224
 20
0.137685
 30
0.000000
  0
VERTEX
  8
LAYER-1
 10
4.294884
 20
0.139421
 30
0.000000
  0
VERTEX
  8
LAYER-1
 10
4.290544
 20
0.139421
 30
0.000000
  0
VERTEX
  8
LAYER-1
 10
4.286203
 20
0.135949
 30
0.000000
  0
VERTEX
  8
LAYER-1
 10
4.286203
 20
0.131609
 30
0.000000
  0
VERTEX
  8
LAYER-1
 10
4.287071
 20
0.127268
 30
0.000000
  0
VERTEX
  8
LAYER-1
 10
4.291412
 20
0.124663
 30
0.000000
  0
SEQEND
  8
LAYER-1
  0
POLYLINE
  8
LAYER-1
 66
  1
 70
  0
 62
  0
 10
4.456342
 20
0.201052
 30
0.000000
  0
VERTEX
  8
LAYER-1
 10
4.456342
 20
0.201052
 30
0.000000
  0
VERTEX
  8
LAYER-1
 10
4.460683
 20
0.201052
 30
0.000000
  0
VERTEX
  8
LAYER-1
 10
4.464155
 20
0.205393
 30
0.000000
  0
VERTEX
  8
LAYER-1
 10
4.465023
 20
0.210600
 30
0.000000
  0
VERTEX
  8
LAYER-1
 10
4.463287
 20
0.214941
 30
0.000000
  0
VERTEX
  8
LAYER-1
 10
4.458946
 20
0.216677
 30
0.000000
  0
VERTEX
  8
LAYER-1
 10
4.454606
 20
0.216677
 30
0.000000
  0
VERTEX
  8
LAYER-1
 10
4.450266
 20
0.213205
 30
0.000000
  0
VERTEX
  8
LAYER-1
 10
4.450266
 20
0.208865
 30
0.000000
  0
VERTEX
  8
LAYER-1
 10
4.451134
 20
0.204524
 30
0.000000
  0
VERTEX
  8
LAYER-1
 10
4.455474
 20
0.201919
 30
0.000000
  0
SEQEND
  8
LAYER-1
  0
POLYLINE
  8
LAYER-1
 66
  1
 70
  1
 62
  0
 10
4.908160
 20
0.157648
 30
0.000000
  0
VERTEX
  8
LAYER-1
 10
4.908160
 20
0.157648
 30
0.000000
  0
VERTEX
  8
LAYER-1
 10
4.934202
 20
0.164592
 30
0.000000
  0
VERTEX
  8
LAYER-1
 10
4.920314
 20
0.189766
 30
0.000000
  0
SEQEND
  8
LAYER-1
  0
POLYLINE
  8
LAYER-1
 66
  1
 70
  1
 62
  0
 10
4.590455
 20
0.210600
 30
0.000000
  0
VERTEX
  8
LAYER-1
 10
4.590455
 20
0.210600
 30
0.000000
  0
VERTEX
  8
LAYER-1
 10
4.613025
 20
0.197579
 30
0.000000
  0
VERTEX
  8
LAYER-1
 10
4.592192
 20
0.227961
 30
0.000000
  0
SEQEND
  8
LAYER-1
  0
POLYLINE
  8
LAYER-1
 66
  1
 70
  1
 62
  0
 10
5.527084
 20
0.115978
 30
0.000000
  0
VERTEX
  8
LAYER-1
 10
5.527084
 20
0.115978
 30
0.000000
  0
VERTEX
  8
LAYER-1
 10
5.552259
 20
0.099485
 30
0.000000
  0
VERTEX
  8
LAYER-1
 10
5.560071
 20
0.114242
 30
0.000000
  0
SEQEND
  8
LAYER-1
  0
POLYLINE
  8
LAYER-1
 66
  1
 70
  0
 62
  0
 10
5.348265
 20
0.124660
 30
0.000000
  0
VERTEX
  8
LAYER-1
 10
5.348265
 20
0.124660
 30
0.000000
  0
VERTEX
  8
LAYER-1
 10
5.348265
 20
0.120321
 30
0.000000
  0
VERTEX
  8
LAYER-1
 10
5.352606
 20
0.116848
 30
0.000000
  0
VERTEX
  8
LAYER-1
 10
5.357814
 20
0.115980
 30
0.000000
  0
VERTEX
  8
LAYER-1
 10
5.362154
 20
0.117716
 30
0.000000
  0
VERTEX
  8
LAYER-1
 10
5.363890
 20
0.122056
 30
0.000000
  0
VERTEX
  8
LAYER-1
 10
5.363890
 20
0.126397
 30
0.000000
  0
VERTEX
  8
LAYER-1
 10
5.360418
 20
0.130736
 30
0.000000
  0
VERTEX
  8
LAYER-1
 10
5.356077
 20
0.130736
 30
0.000000
  0
VERTEX
  8
LAYER-1
 10
5.351737
 20
0.129868
 30
0.000000
  0
VERTEX
  8
LAYER-1
 10
5.349133
 20
0.125529
 30
0.000000
  0
SEQEND
  8
LAYER-1
  0
POLYLINE
  8
LAYER-1
 66
  1
 70
  1
 62
  0
 10
4.978474
 20
0.144625
 30
0.000000
  0
VERTEX
  8
LAYER-1
 10
4.978474
 20
0.144625
 30
0.000000
  0
VERTEX
  8
LAYER-1
 10
5.001043
 20
0.131605
 30
0.000000
  0
VERTEX
  8
LAYER-1
 10
4.980211
 20
0.161986
 30
0.000000
  0
SEQEND
  8
LAYER-1
  0
POLYLINE
  8
LAYER-1
 66
  1
 70
  1
 62
  0
 10
4.941482
 20
0.215641
 30
0.000000
  0
VERTEX
  8
LAYER-1
 10
4.941482
 20
0.215641
 30
0.000000
  0
VERTEX
  8
LAYER-1
 10
4.960846
 20
0.202954
 30
0.000000
  0
VERTEX
  8
LAYER-1
 10
4.966857
 20
0.214305
 30
0.000000
  0
SEQEND
  8
LAYER-1
  0
POLYLINE
  8
LAYER-1
 66
  1
 70
  0
 62
  0
 10
4.586116
 20
0.150704
 30
0.000000
  0
VERTEX
  8
LAYER-1
 10
4.586116
 20
0.150704
 30
0.000000
  0
VERTEX
  8
LAYER-1
 10
4.586116
 20
0.146365
 30
0.000000
  0
VERTEX
  8
LAYER-1
 10
4.590456
 20
0.142892
 30
0.000000
  0
VERTEX
  8
LAYER-1
 10
4.595664
 20
0.142024
 30
0.000000
  0
VERTEX
  8
LAYER-1
 10
4.600005
 20
0.143760
 30
0.000000
  0
VERTEX
  8
LAYER-1
 10
4.601741
 20
0.148100
 30
0.000000
  0
VERTEX
  8
LAYER-1
 10
4.601741
 20
0.152440
 30
0.000000
  0
VERTEX
  8
LAYER-1
 10
4.598269
 20
0.156781
 30
0.000000
  0
VERTEX
  8
LAYER-1
 10
4.593928
 20
0.156781
 30
0.000000
  0
VERTEX
  8
LAYER-1
 10
4.589587
 20
0.155913
 30
0.000000
  0
VERTEX
  8
LAYER-1
 10
4.586984
 20
0.151572
 30
0.000000
  0
SEQEND
  8
LAYER-1
  0
POLYLINE
  8
LAYER-1
 66
  1
 70
  0
 62
  0
 10
4.992362
 20
0.112509
 30
0.000000
  0
VERTEX
  8
LAYER-1
 10
4.992362
 20
0.112509
 30
0.000000
  0
VERTEX
  8
LAYER-1
 10
4.992362
 20
0.108168
 30
0.000000
  0
VERTEX
  8
LAYER-1
 10
4.996702
 20
0.104696
 30
0.000000
  0
VERTEX
  8
LAYER-1
 10
5.001910
 20
0.103828
 30
0.000000
  0
VERTEX
  8
LAYER-1
 10
5.006251
 20
0.105565
 30
0.000000
  0
VERTEX
  8
LAYER-1
 10
5.007987
 20
0.109904
 30
0.000000
  0
VERTEX
  8
LAYER-1
 10
5.007987
 20
0.114244
 30
0.000000
  0
VERTEX
  8
LAYER-1
 10
5.004515
 20
0.118585
 30
0.000000
  0
VERTEX
  8
LAYER-1
 10
5.000174
 20
0.118585
 30
0.000000
  0
VERTEX
  8
LAYER-1
 10
4.995834
 20
0.117716
 30
0.000000
  0
VERTEX
  8
LAYER-1
 10
4.993230
 20
0.113377
 30
0.000000
  0
SEQEND
  8
LAYER-1
  0
POLYLINE
  8
LAYER-1
 66
  1
 70
  0
 62
  0
 10
5.060939
 20
0.148099
 30
0.000000
  0
VERTEX
  8
LAYER-1
 10
5.060939
 20
0.148099
 30
0.000000
  0
VERTEX
  8
LAYER-1
 10
5.060939
 20
0.143759
 30
0.000000
  0
VERTEX
  8
LAYER-1
 10
5.065279
 20
0.140287
 30
0.000000
  0
VERTEX
  8
LAYER-1
 10
5.070487
 20
0.139418
 30
0.000000
  0
VERTEX
  8
LAYER-1
 10
5.074827
 20
0.141155
 30
0.000000
  0
VERTEX
  8
LAYER-1
 10
5.076564
 20
0.145494
 30
0.000000
  0
VERTEX
  8
LAYER-1
 10
5.076564
 20
0.149835
 30
0.000000
  0
VERTEX
  8
LAYER-1
 10
5.073092
 20
0.154176
 30
0.000000
  0
VERTEX
  8
LAYER-1
 10
5.068751
 20
0.154176
 30
0.000000
  0
VERTEX
  8
LAYER-1
 10
5.064410
 20
0.153307
 30
0.000000
  0
VERTEX
  8
LAYER-1
 10
5.061806
 20
0.148967
 30
0.000000
  0
SEQEND
  8
LAYER-1
  0
POLYLINE
  8
LAYER-1
 66
  1
 70
  1
 62
  0
 10
5.100349
 20
0.169367
 30
0.000000
  0
VERTEX
  8
LAYER-1
 10
5.100349
 20
0.169367
 30
0.000000
  0
VERTEX
  8
LAYER-1
 10
5.107293
 20
0.143326
 30
0.000000
  0
VERTEX
  8
LAYER-1
 10
5.132467
 20
0.157213
 30
0.000000
  0
SEQEND
  8
LAYER-1
  0
POLYLINE
  8
LAYER-1
 66
  1
 70
  1
 62
  0
 10
5.261894
 20
0.198013
 30
0.000000
  0
VERTEX
  8
LAYER-1
 10
5.261894
 20
0.198013
 30
0.000000
  0
VERTEX
  8
LAYER-1
 10
5.248873
 20
0.175443
 30
0.000000
  0
VERTEX
  8
LAYER-1
 10
5.279255
 20
0.196275
 30
0.000000
  0
SEQEND
  8
LAYER-1
  0
POLYLINE
  8
LAYER-1
 66
  1
 70
  1
 62
  0
 10
5.654255
 20
0.168494
 30
0.000000
  0
VERTEX
  8
LAYER-1
 10
5.654255
 20
0.168494
 30
0.000000
  0
VERTEX
  8
LAYER-1
 10
5.637762
 20
0.143322
 30
0.000000
  0
VERTEX
  8
LAYER-1
 10
5.652519
 20
0.135509
 30
0.000000
  0
SEQEND
  8
LAYER-1
  0
POLYLINE
  8
LAYER-1
 66
  1
 70
  0
 62
  0
 10
5.050089
 20
0.200617
 30
0.000000
  0
VERTEX
  8
LAYER-1
 10
5.050089
 20
0.200617
 30
0.000000
  0
VERTEX
  8
LAYER-1
 10
5.045748
 20
0.200617
 30
0.000000
  0
VERTEX
  8
LAYER-1
 10
5.042276
 20
0.196275
 30
0.000000
  0
VERTEX
  8
LAYER-1
 10
5.041408
 20
0.191068
 30
0.000000
  0
VERTEX
  8
LAYER-1
 10
5.043144
 20
0.186728
 30
0.000000
  0
VERTEX
  8
LAYER-1
 10
5.047485
 20
0.184992
 30
0.000000
  0
VERTEX
  8
LAYER-1
 10
5.051824
 20
0.184992
 30
0.000000
  0
VERTEX
  8
LAYER-1
 10
5.056165
 20
0.188463
 30
0.000000
  0
VERTEX
  8
LAYER-1
 10
5.056165
 20
0.192804
 30
0.000000
  0
VERTEX
  8
LAYER-1
 10
5.055297
 20
0.197144
 30
0.000000
  0
VERTEX
  8
LAYER-1
 10
5.050956
 20
0.199749
 30
0.000000
  0
SEQEND
  8
LAYER-1
  0
POLYLINE
  8
LAYER-1
 66
  1
 70
  1
 62
  0
 10
5.113458
 20
0.124228
 30
0.000000
  0
VERTEX
  8
LAYER-1
 10
5.113458
 20
0.124228
 30
0.000000
  0
VERTEX
  8
LAYER-1
 10
5.100436
 20
0.101657
 30
0.000000
  0
VERTEX
  8
LAYER-1
 10
5.130818
 20
0.122490
 30
0.000000
  0
SEQEND
  8
LAYER-1
  0
POLYLINE
  8
LAYER-1
 66
  1
 70
  1
 62
  0
 10
5.182201
 20
0.101990
 30
0.000000
  0
VERTEX
  8
LAYER-1
 10
5.182201
 20
0.101990
 30
0.000000
  0
VERTEX
  8
LAYER-1
 10
5.194888
 20
0.121353
 30
0.000000
  0
VERTEX
  8
LAYER-1
 10
5.183537
 20
0.127365
 30
0.000000
  0
SEQEND
  8
LAYER-1
  0
POLYLINE
  8
LAYER-1
 66
  1
 70
  0
 62
  0
 10
5.201998
 20
0.202353
 30
0.000000
  0
VERTEX
  8
LAYER-1
 10
5.201998
 20
0.202353
 30
0.000000
  0
VERTEX
  8
LAYER-1
 10
5.197658
 20
0.202353
 30
0.000000
  0
VERTEX
  8
LAYER-1
 10
5.194185
 20
0.198012
 30
0.000000
  0
VERTEX
  8
LAYER-1
 10
5.193317
 20
0.192804
 30
0.000000
  0
VERTEX
  8
LAYER-1
 10
5.195053
 20
0.188463
 30
0.000000
  0
VERTEX
  8
LAYER-1
 10
5.199394
 20
0.186728
 30
0.000000
  0
VERTEX
  8
LAYER-1
 10
5.203735
 20
0.186728
 30
0.000000
  0
VERTEX
  8
LAYER-1
 10
5.208074
 20
0.190199
 30
0.000000
  0
VERTEX
  8
LAYER-1
 10
5.208074
 20
0.194540
 30
0.000000
  0
VERTEX
  8
LAYER-1
 10
5.207206
 20
0.198881
 30
0.000000
  0
VERTEX
  8
LAYER-1
 10
5.202866
 20
0.201486
 30
0.000000
  0
SEQEND
  8
LAYER-1
  0
POLYLINE
  8
LAYER-1
 66
  1
 70
  0
 62
  0
 10
5.706339
 20
0.162418
 30
0.000000
  0
VERTEX
  8
LAYER-1
 10
5.706339
 20
0.162418
 30
0.000000
  0
VERTEX
  8
LAYER-1
 10
5.701998
 20
0.162418
 30
0.000000
  0
VERTEX
  8
LAYER-1
 10
5.698526
 20
0.158078
 30
0.000000
  0
VERTEX
  8
LAYER-1
 10
5.697658
 20
0.152869
 30
0.000000
  0
VERTEX
  8
LAYER-1
 10
5.699394
 20
0.148529
 30
0.000000
  0
VERTEX
  8
LAYER-1
 10
5.703735
 20
0.146793
 30
0.000000
  0
VERTEX
  8
LAYER-1
 10
5.708074
 20
0.146793
 30
0.000000
  0
VERTEX
  8
LAYER-1
 10
5.712415
 20
0.150265
 30
0.000000
  0
VERTEX
  8
LAYER-1
 10
5.712415
 20
0.154605
 30
0.000000
  0
VERTEX
  8
LAYER-1
 10
5.711547
 20
0.158947
 30
0.000000
  0
VERTEX
  8
LAYER-1
 10
5.707207
 20
0.161552
 30
0.000000
  0
SEQEND
  8
LAYER-1
  0
POLYLINE
  8
LAYER-1
 66
  1
 70
  0
 62
  0
 10
5.615193
 20
0.130300
 30
0.000000
  0
VERTEX
  8
LAYER-1
 10
5.615193
 20
0.130300
 30
0.000000
  0
VERTEX
  8
LAYER-1
 10
5.610853
 20
0.130300
 30
0.000000
  0
VERTEX
  8
LAYER-1
 10
5.607381
 20
0.125960
 30
0.000000
  0
VERTEX
  8
LAYER-1
 10
5.606513
 20
0.120752
 30
0.000000
  0
VERTEX
  8
LAYER-1
 10
5.608249
 20
0.116411
 30
0.000000
  0
VERTEX
  8
LAYER-1
 10
5.612590
 20
0.114675
 30
0.000000
  0
VERTEX
  8
LAYER-1
 10
5.616929
 20
0.114675
 30
0.000000
  0
VERTEX
  8
LAYER-1
 10
5.621270
 20
0.118147
 30
0.000000
  0
VERTEX
  8
LAYER-1
 10
5.621270
 20
0.122487
 30
0.000000
  0
VERTEX
  8
LAYER-1
 10
5.620402
 20
0.126829
 30
0.000000
  0
VERTEX
  8
LAYER-1
 10
5.616061
 20
0.129434
 30
0.000000
  0
SEQEND
  8
LAYER-1
  0
POLYLINE
  8
LAYER-1
 66
  1
 70
  1
 62
  0
 10
5.300089
 20
0.184559
 30
0.000000
  0
VERTEX
  8
LAYER-1
 10
5.300089
 20
0.184559
 30
0.000000
  0
VERTEX
  8
LAYER-1
 10
5.326129
 20
0.191504
 30
0.000000
  0
VERTEX
  8
LAYER-1
 10
5.312242
 20
0.216677
 30
0.000000
  0
SEQEND
  8
LAYER-1
  0
POLYLINE
  8
LAYER-1
 66
  1
 70
  0
 62
  0
 10
5.268839
 20
0.135079
 30
0.000000
  0
VERTEX
  8
LAYER-1
 10
5.268839
 20
0.135079
 30
0.000000
  0
VERTEX
  8
LAYER-1
 10
5.268839
 20
0.130740
 30
0.000000
  0
VERTEX
  8
LAYER-1
 10
5.273179
 20
0.127267
 30
0.000000
  0
VERTEX
  8
LAYER-1
 10
5.278387
 20
0.126400
 30
0.000000
  0
VERTEX
  8
LAYER-1
 10
5.282728
 20
0.128136
 30
0.000000
  0
VERTEX
  8
LAYER-1
 10
5.284464
 20
0.132475
 30
0.000000
  0
VERTEX
  8
LAYER-1
 10
5.284464
 20
0.136816
 30
0.000000
  0
VERTEX
  8
LAYER-1
 10
5.280992
 20
0.141156
 30
0.000000
  0
VERTEX
  8
LAYER-1
 10
5.276651
 20
0.141156
 30
0.000000
  0
VERTEX
  8
LAYER-1
 10
5.272310
 20
0.140288
 30
0.000000
  0
VERTEX
  8
LAYER-1
 10
5.269705
 20
0.135948
 30
0.000000
  0
SEQEND
  8
LAYER-1
  0
POLYLINE
  8
LAYER-1
 66
  1
 70
  1
 62
  0
 10
5.363891
 20
0.148534
 30
0.000000
  0
VERTEX
  8
LAYER-1
 10
5.363891
 20
0.148534
 30
0.000000
  0
VERTEX
  8
LAYER-1
 10
5.376911
 20
0.171104
 30
0.000000
  0
VERTEX
  8
LAYER-1
 10
5.346530
 20
0.150272
 30
0.000000
  0
SEQEND
  8
LAYER-1
  0
POLYLINE
  8
LAYER-1
 66
  1
 70
  0
 62
  0
 10
5.419012
 20
0.182823
 30
0.000000
  0
VERTEX
  8
LAYER-1
 10
5.419012
 20
0.182823
 30
0.000000
  0
VERTEX
  8
LAYER-1
 10
5.419012
 20
0.178482
 30
0.000000
  0
VERTEX
  8
LAYER-1
 10
5.423353
 20
0.175011
 30
0.000000
  0
VERTEX
  8
LAYER-1
 10
5.428560
 20
0.174142
 30
0.000000
  0
VERTEX
  8
LAYER-1
 10
5.432901
 20
0.175879
 30
0.000000
  0
VERTEX
  8
LAYER-1
 10
5.434637
 20
0.180218
 30
0.000000
  0
VERTEX
  8
LAYER-1
 10
5.434637
 20
0.184559
 30
0.000000
  0
VERTEX
  8
LAYER-1
 10
5.431165
 20
0.188900
 30
0.000000
  0
VERTEX
  8
LAYER-1
 10
5.426824
 20
0.188900
 30
0.000000
  0
VERTEX
  8
LAYER-1
 10
5.422484
 20
0.188031
 30
0.000000
  0
VERTEX
  8
LAYER-1
 10
5.419879
 20
0.183691
 30
0.000000
  0
SEQEND
  8
LAYER-1
  0
POLYLINE
  8
LAYER-1
 66
  1
 70
  1
 62
  0
 10
6.164936
 20
0.199227
 30
0.000000
  0
VERTEX
  8
LAYER-1
 10
6.164936
 20
0.199227
 30
0.000000
  0
VERTEX
  8
LAYER-1
 10
6.157991
 20
0.225269
 30
0.000000
  0
VERTEX
  8
LAYER-1
 10
6.132818
 20
0.211381
 30
0.000000
  0
SEQEND
  8
LAYER-1
  0
POLYLINE
  8
LAYER-1
 66
  1
 70
  0
 62
  0
 10
6.205475
 20
0.073012
 30
0.000000
  0
VERTEX
  8
LAYER-1
 10
6.205475
 20
0.073012
 30
0.000000
  0
VERTEX
  8
LAYER-1
 10
6.209815
 20
0.073012
 30
0.000000
  0
VERTEX
  8
LAYER-1
 10
6.213288
 20
0.077353
 30
0.000000
  0
VERTEX
  8
LAYER-1
 10
6.214155
 20
0.082560
 30
0.000000
  0
VERTEX
  8
LAYER-1
 10
6.212419
 20
0.086900
 30
0.000000
  0
VERTEX
  8
LAYER-1
 10
6.208079
 20
0.088637
 30
0.000000
  0
VERTEX
  8
LAYER-1
 10
6.203739
 20
0.088637
 30
0.000000
  0
VERTEX
  8
LAYER-1
 10
6.199399
 20
0.085165
 30
0.000000
  0
VERTEX
  8
LAYER-1
 10
6.199399
 20
0.080824
 30
0.000000
  0
VERTEX
  8
LAYER-1
 10
6.200267
 20
0.076484
 30
0.000000
  0
VERTEX
  8
LAYER-1
 10
6.204606
 20
0.073880
 30
0.000000
  0
SEQEND
  8
LAYER-1
  0
POLYLINE
  8
LAYER-1
 66
  1
 70
  1
 62
  0
 10
5.501911
 20
0.105999
 30
0.000000
  0
VERTEX
  8
LAYER-1
 10
5.501911
 20
0.105999
 30
0.000000
  0
VERTEX
  8
LAYER-1
 10
5.514931
 20
0.128568
 30
0.000000
  0
VERTEX
  8
LAYER-1
 10
5.484550
 20
0.107736
 30
0.000000
  0
SEQEND
  8
LAYER-1
  0
POLYLINE
  8
LAYER-1
 66
  1
 70
  0
 62
  0
 10
5.545663
 20
0.184332
 30
0.000000
  0
VERTEX
  8
LAYER-1
 10
5.545663
 20
0.184332
 30
0.000000
  0
VERTEX
  8
LAYER-1
 10
5.550004
 20
0.184332
 30
0.000000
  0
VERTEX
  8
LAYER-1
 10
5.553476
 20
0.188673
 30
0.000000
  0
VERTEX
  8
LAYER-1
 10
5.554345
 20
0.193881
 30
0.000000
  0
VERTEX
  8
LAYER-1
 10
5.552608
 20
0.198221
 30
0.000000
  0
VERTEX
  8
LAYER-1
 10
5.548268
 20
0.199957
 30
0.000000
  0
VERTEX
  8
LAYER-1
 10
5.543928
 20
0.199957
 30
0.000000
  0
VERTEX
  8
LAYER-1
 10
5.539587
 20
0.196486
 30
0.000000
  0
VERTEX
  8
LAYER-1
 10
5.539587
 20
0.192145
 30
0.000000
  0
VERTEX
  8
LAYER-1
 10
5.540456
 20
0.187804
 30
0.000000
  0
VERTEX
  8
LAYER-1
 10
5.544795
 20
0.185200
 30
0.000000
  0
SEQEND
  8
LAYER-1
  0
POLYLINE
  8
LAYER-1
 66
  1
 70
  1
 62
  0
 10
6.085250
 20
0.115115
 30
0.000000
  0
VERTEX
  8
LAYER-1
 10
6.085250
 20
0.115115
 30
0.000000
  0
VERTEX
  8
LAYER-1
 10
6.059208
 20
0.108169
 30
0.000000
  0
VERTEX
  8
LAYER-1
 10
6.073096
 20
0.082996
 30
0.000000
  0
SEQEND
  8
LAYER-1
  0
POLYLINE
  8
LAYER-1
 66
  1
 70
  0
 62
  0
 10
5.450262
 20
0.129873
 30
0.000000
  0
VERTEX
  8
LAYER-1
 10
5.450262
 20
0.129873
 30
0.000000
  0
VERTEX
  8
LAYER-1
 10
5.450262
 20
0.134211
 30
0.000000
  0
VERTEX
  8
LAYER-1
 10
5.445921
 20
0.137685
 30
0.000000
  0
VERTEX
  8
LAYER-1
 10
5.440714
 20
0.138552
 30
0.000000
  0
VERTEX
  8
LAYER-1
 10
5.436373
 20
0.136816
 30
0.000000
  0
VERTEX
  8
LAYER-1
 10
5.434637
 20
0.132475
 30
0.000000
  0
VERTEX
  8
LAYER-1
 10
5.434637
 20
0.128135
 30
0.000000
  0
VERTEX
  8
LAYER-1
 10
5.438109
 20
0.123796
 30
0.000000
  0
VERTEX
  8
LAYER-1
 10
5.442449
 20
0.123796
 30
0.000000
  0
VERTEX
  8
LAYER-1
 10
5.446790
 20
0.124663
 30
0.000000
  0
VERTEX
  8
LAYER-1
 10
5.449394
 20
0.129004
 30
0.000000
  0
SEQEND
  8
LAYER-1
  0
POLYLINE
  8
LAYER-1
 66
  1
 70
  1
 62
  0
 10
6.034034
 20
0.104698
 30
0.000000
  0
VERTEX
  8
LAYER-1
 10
6.034034
 20
0.104698
 30
0.000000
  0
VERTEX
  8
LAYER-1
 10
6.006256
 20
0.121190
 30
0.000000
  0
VERTEX
  8
LAYER-1
 10
6.027089
 20
0.090809
 30
0.000000
  0
SEQEND
  8
LAYER-1
  0
POLYLINE
  8
LAYER-1
 66
  1
 70
  0
 62
  0
 10
5.744533
 20
0.186291
 30
0.000000
  0
VERTEX
  8
LAYER-1
 10
5.744533
 20
0.186291
 30
0.000000
  0
VERTEX
  8
LAYER-1
 10
5.744533
 20
0.190631
 30
0.000000
  0
VERTEX
  8
LAYER-1
 10
5.740192
 20
0.194104
 30
0.000000
  0
VERTEX
  8
LAYER-1
 10
5.734985
 20
0.194973
 30
0.000000
  0
VERTEX
  8
LAYER-1
 10
5.730644
 20
0.193235
 30
0.000000
  0
VERTEX
  8
LAYER-1
 10
5.728908
 20
0.188896
 30
0.000000
  0
VERTEX
  8
LAYER-1
 10
5.728908
 20
0.184555
 30
0.000000
  0
VERTEX
  8
LAYER-1
 10
5.732380
 20
0.180215
 30
0.000000
  0
VERTEX
  8
LAYER-1
 10
5.736721
 20
0.180215
 30
0.000000
  0
VERTEX
  8
LAYER-1
 10
5.741061
 20
0.181084
 30
0.000000
  0
VERTEX
  8
LAYER-1
 10
5.743665
 20
0.185422
 30
0.000000
  0
SEQEND
  8
LAYER-1
  0
POLYLINE
  8
LAYER-1
 66
  1
 70
  1
 62
  0
 10
6.315197
 20
0.092806
 30
0.000000
  0
VERTEX
  8
LAYER-1
 10
6.315197
 20
0.092806
 30
0.000000
  0
VERTEX
  8
LAYER-1
 10
6.308252
 20
0.118846
 30
0.000000
  0
VERTEX
  8
LAYER-1
 10
6.283079
 20
0.104958
 30
0.000000
  0
SEQEND
  8
LAYER-1
  0
POLYLINE
  8
LAYER-1
 66
  1
 70
  0
 62
  0
 10
6.405042
 20
0.193065
 30
0.000000
  0
VERTEX
  8
LAYER-1
 10
6.405042
 20
0.193065
 30
0.000000
  0
VERTEX
  8
LAYER-1
 10
6.409383
 20
0.193065
 30
0.000000
  0
VERTEX
  8
LAYER-1
 10
6.412855
 20
0.197406
 30
0.000000
  0
VERTEX
  8
LAYER-1
 10
6.413722
 20
0.202614
 30
0.000000
  0
VERTEX
  8
LAYER-1
 10
6.411986
 20
0.206955
 30
0.000000
  0
VERTEX
  8
LAYER-1
 10
6.407647
 20
0.208690
 30
0.000000
  0
VERTEX
  8
LAYER-1
 10
6.403306
 20
0.208690
 30
0.000000
  0
VERTEX
  8
LAYER-1
 10
6.398966
 20
0.205219
 30
0.000000
  0
VERTEX
  8
LAYER-1
 10
6.398966
 20
0.200878
 30
0.000000
  0
VERTEX
  8
LAYER-1
 10
6.399835
 20
0.196537
 30
0.000000
  0
VERTEX
  8
LAYER-1
 10
6.404173
 20
0.193933
 30
0.000000
  0
SEQEND
  8
LAYER-1
  0
POLYLINE
  8
LAYER-1
 66
  1
 70
  1
 62
  0
 10
6.390284
 20
0.228221
 30
0.000000
  0
VERTEX
  8
LAYER-1
 10
6.390284
 20
0.228221
 30
0.000000
  0
VERTEX
  8
LAYER-1
 10
6.364242
 20
0.221277
 30
0.000000
  0
VERTEX
  8
LAYER-1
 10
6.378131
 20
0.196103
 30
0.000000
  0
SEQEND
  8
LAYER-1
  0
POLYLINE
  8
LAYER-1
 66
  1
 70
  1
 62
  0
 10
5.639064
 20
0.086905
 30
0.000000
  0
VERTEX
  8
LAYER-1
 10
5.639064
 20
0.086905
 30
0.000000
  0
VERTEX
  8
LAYER-1
 10
5.652084
 20
0.109474
 30
0.000000
  0
VERTEX
  8
LAYER-1
 10
5.621704
 20
0.088642
 30
0.000000
  0
SEQEND
  8
LAYER-1
  0
POLYLINE
  8
LAYER-1
 66
  1
 70
  0
 62
  0
 10
5.635592
 20
0.193674
 30
0.000000
  0
VERTEX
  8
LAYER-1
 10
5.635592
 20
0.193674
 30
0.000000
  0
VERTEX
  8
LAYER-1
 10
5.639932
 20
0.193674
 30
0.000000
  0
VERTEX
  8
LAYER-1
 10
5.643404
 20
0.198015
 30
0.000000
  0
VERTEX
  8
LAYER-1
 10
5.644273
 20
0.203222
 30
0.000000
  0
VERTEX
  8
LAYER-1
 10
5.642537
 20
0.207563
 30
0.000000
  0
VERTEX
  8
LAYER-1
 10
5.638196
 20
0.209299
 30
0.000000
  0
VERTEX
  8
LAYER-1
 10
5.633856
 20
0.209299
 30
0.000000
  0
VERTEX
  8
LAYER-1
 10
5.629515
 20
0.205828
 30
0.000000
  0
VERTEX
  8
LAYER-1
 10
5.629515
 20
0.201486
 30
0.000000
  0
VERTEX
  8
LAYER-1
 10
5.630384
 20
0.197146
 30
0.000000
  0
VERTEX
  8
LAYER-1
 10
5.634725
 20
0.194542
 30
0.000000
  0
SEQEND
  8
LAYER-1
  0
POLYLINE
  8
LAYER-1
 66
  1
 70
  1
 62
  0
 10
5.588282
 20
0.172405
 30
0.000000
  0
VERTEX
  8
LAYER-1
 10
5.588282
 20
0.172405
 30
0.000000
  0
VERTEX
  8
LAYER-1
 10
5.613458
 20
0.155912
 30
0.000000
  0
VERTEX
  8
LAYER-1
 10
5.621270
 20
0.170669
 30
0.000000
  0
SEQEND
  8
LAYER-1
  0
POLYLINE
  8
LAYER-1
 66
  1
 70
  1
 62
  0
 10
5.574930
 20
0.144793
 30
0.000000
  0
VERTEX
  8
LAYER-1
 10
5.574930
 20
0.144793
 30
0.000000
  0
VERTEX
  8
LAYER-1
 10
5.555565
 20
0.157481
 30
0.000000
  0
VERTEX
  8
LAYER-1
 10
5.549554
 20
0.146129
 30
0.000000
  0
SEQEND
  8
LAYER-1
  0
POLYLINE
  8
LAYER-1
 66
  1
 70
  1
 62
  0
 10
1.352174
 20
0.203655
 30
0.000000
  0
VERTEX
  8
LAYER-1
 10
1.352174
 20
0.203655
 30
0.000000
  0
VERTEX
  8
LAYER-1
 10
1.339153
 20
0.181085
 30
0.000000
  0
VERTEX
  8
LAYER-1
 10
1.369535
 20
0.201918
 30
0.000000
  0
SEQEND
  8
LAYER-1
  0
POLYLINE
  8
LAYER-1
 66
  1
 70
  1
 62
  0
 10
5.901654
 20
0.130741
 30
0.000000
  0
VERTEX
  8
LAYER-1
 10
5.901654
 20
0.130741
 30
0.000000
  0
VERTEX
  8
LAYER-1
 10
5.924224
 20
0.117719
 30
0.000000
  0
VERTEX
  8
LAYER-1
 10
5.903391
 20
0.148101
 30
0.000000
  0
SEQEND
  8
LAYER-1
  0
POLYLINE
  8
LAYER-1
 66
  1
 70
  0
 62
  0
 10
5.829606
 20
0.177612
 30
0.000000
  0
VERTEX
  8
LAYER-1
 10
5.829606
 20
0.177612
 30
0.000000
  0
VERTEX
  8
LAYER-1
 10
5.829606
 20
0.173272
 30
0.000000
  0
VERTEX
  8
LAYER-1
 10
5.833946
 20
0.169800
 30
0.000000
  0
VERTEX
  8
LAYER-1
 10
5.839154
 20
0.168932
 30
0.000000
  0
VERTEX
  8
LAYER-1
 10
5.843495
 20
0.170668
 30
0.000000
  0
VERTEX
  8
LAYER-1
 10
5.845231
 20
0.175009
 30
0.000000
  0
VERTEX
  8
LAYER-1
 10
5.845231
 20
0.179348
 30
0.000000
  0
VERTEX
  8
LAYER-1
 10
5.841759
 20
0.183690
 30
0.000000
  0
VERTEX
  8
LAYER-1
 10
5.837418
 20
0.183690
 30
0.000000
  0
VERTEX
  8
LAYER-1
 10
5.833077
 20
0.182821
 30
0.000000
  0
VERTEX
  8
LAYER-1
 10
5.830474
 20
0.178480
 30
0.000000
  0
SEQEND
  8
LAYER-1
  0
POLYLINE
  8
LAYER-1
 66
  1
 70
  1
 62
  0
 10
5.779258
 20
0.188899
 30
0.000000
  0
VERTEX
  8
LAYER-1
 10
5.779258
 20
0.188899
 30
0.000000
  0
VERTEX
  8
LAYER-1
 10
5.801827
 20
0.175878
 30
0.000000
  0
VERTEX
  8
LAYER-1
 10
5.780995
 20
0.206260
 30
0.000000
  0
SEQEND
  8
LAYER-1
  0
POLYLINE
  8
LAYER-1
 66
  1
 70
  0
 62
  0
 10
6.041411
 20
0.130741
 30
0.000000
  0
VERTEX
  8
LAYER-1
 10
6.041411
 20
0.130741
 30
0.000000
  0
VERTEX
  8
LAYER-1
 10
6.041411
 20
0.126400
 30
0.000000
  0
VERTEX
  8
LAYER-1
 10
6.045752
 20
0.122928
 30
0.000000
  0
VERTEX
  8
LAYER-1
 10
6.050959
 20
0.122060
 30
0.000000
  0
VERTEX
  8
LAYER-1
 10
6.055300
 20
0.123796
 30
0.000000
  0
VERTEX
  8
LAYER-1
 10
6.057036
 20
0.128136
 30
0.000000
  0
VERTEX
  8
LAYER-1
 10
6.057036
 20
0.132476
 30
0.000000
  0
VERTEX
  8
LAYER-1
 10
6.053564
 20
0.136817
 30
0.000000
  0
VERTEX
  8
LAYER-1
 10
6.049224
 20
0.136817
 30
0.000000
  0
VERTEX
  8
LAYER-1
 10
6.044883
 20
0.135948
 30
0.000000
  0
VERTEX
  8
LAYER-1
 10
6.042279
 20
0.131609
 30
0.000000
  0
SEQEND
  8
LAYER-1
  0
POLYLINE
  8
LAYER-1
 66
  1
 70
  0
 62
  0
 10
5.875612
 20
0.185428
 30
0.000000
  0
VERTEX
  8
LAYER-1
 10
5.875612
 20
0.185428
 30
0.000000
  0
VERTEX
  8
LAYER-1
 10
5.875612
 20
0.181087
 30
0.000000
  0
VERTEX
  8
LAYER-1
 10
5.879953
 20
0.177616
 30
0.000000
  0
VERTEX
  8
LAYER-1
 10
5.885161
 20
0.176748
 30
0.000000
  0
VERTEX
  8
LAYER-1
 10
5.889502
 20
0.178484
 30
0.000000
  0
VERTEX
  8
LAYER-1
 10
5.891237
 20
0.182823
 30
0.000000
  0
VERTEX
  8
LAYER-1
 10
5.891237
 20
0.187163
 30
0.000000
  0
VERTEX
  8
LAYER-1
 10
5.887766
 20
0.191505
 30
0.000000
  0
VERTEX
  8
LAYER-1
 10
5.883425
 20
0.191505
 30
0.000000
  0
VERTEX
  8
LAYER-1
 10
5.879084
 20
0.190636
 30
0.000000
  0
VERTEX
  8
LAYER-1
 10
5.876480
 20
0.186296
 30
0.000000
  0
SEQEND
  8
LAYER-1
  0
POLYLINE
  8
LAYER-1
 66
  1
 70
  1
 62
  0
 10
5.800092
 20
0.120757
 30
0.000000
  0
VERTEX
  8
LAYER-1
 10
5.800092
 20
0.120757
 30
0.000000
  0
VERTEX
  8
LAYER-1
 10
5.787071
 20
0.098187
 30
0.000000
  0
VERTEX
  8
LAYER-1
 10
5.817453
 20
0.119019
 30
0.000000
  0
SEQEND
  8
LAYER-1
  0
POLYLINE
  8
LAYER-1
 66
  1
 70
  0
 62
  0
 10
5.726392
 20
0.112892
 30
0.000000
  0
VERTEX
  8
LAYER-1
 10
5.726392
 20
0.112892
 30
0.000000
  0
VERTEX
  8
LAYER-1
 10
5.722052
 20
0.112892
 30
0.000000
  0
VERTEX
  8
LAYER-1
 10
5.718579
 20
0.108552
 30
0.000000
  0
VERTEX
  8
LAYER-1
 10
5.717711
 20
0.103344
 30
0.000000
  0
VERTEX
  8
LAYER-1
 10
5.719447
 20
0.099003
 30
0.000000
  0
VERTEX
  8
LAYER-1
 10
5.723788
 20
0.097267
 30
0.000000
  0
VERTEX
  8
LAYER-1
 10
5.728129
 20
0.097267
 30
0.000000
  0
VERTEX
  8
LAYER-1
 10
5.732468
 20
0.100739
 30
0.000000
  0
VERTEX
  8
LAYER-1
 10
5.732468
 20
0.105080
 30
0.000000
  0
VERTEX
  8
LAYER-1
 10
5.731600
 20
0.109421
 30
0.000000
  0
VERTEX
  8
LAYER-1
 10
5.727260
 20
0.112025
 30
0.000000
  0
SEQEND
  8
LAYER-1
  0
POLYLINE
  8
LAYER-1
 66
  1
 70
  0
 62
  0
 10
5.800092
 20
0.151137
 30
0.000000
  0
VERTEX
  8
LAYER-1
 10
5.800092
 20
0.151137
 30
0.000000
  0
VERTEX
  8
LAYER-1
 10
5.795752
 20
0.151137
 30
0.000000
  0
VERTEX
  8
LAYER-1
 10
5.792280
 20
0.146797
 30
0.000000
  0
VERTEX
  8
LAYER-1
 10
5.791412
 20
0.141590
 30
0.000000
  0
VERTEX
  8
LAYER-1
 10
5.793148
 20
0.137249
 30
0.000000
  0
VERTEX
  8
LAYER-1
 10
5.797489
 20
0.135512
 30
0.000000
  0
VERTEX
  8
LAYER-1
 10
5.801828
 20
0.135512
 30
0.000000
  0
VERTEX
  8
LAYER-1
 10
5.806169
 20
0.138985
 30
0.000000
  0
VERTEX
  8
LAYER-1
 10
5.806169
 20
0.143325
 30
0.000000
  0
VERTEX
  8
LAYER-1
 10
5.805301
 20
0.147666
 30
0.000000
  0
VERTEX
  8
LAYER-1
 10
5.800961
 20
0.150271
 30
0.000000
  0
SEQEND
  8
LAYER-1
  0
POLYLINE
  8
LAYER-1
 66
  1
 70
  1
 62
  0
 10
6.107384
 20
0.167631
 30
0.000000
  0
VERTEX
  8
LAYER-1
 10
6.107384
 20
0.167631
 30
0.000000
  0
VERTEX
  8
LAYER-1
 10
6.114328
 20
0.141591
 30
0.000000
  0
VERTEX
  8
LAYER-1
 10
6.139502
 20
0.155479
 30
0.000000
  0
SEQEND
  8
LAYER-1
  0
POLYLINE
  8
LAYER-1
 66
  1
 70
  1
 62
  0
 10
6.269711
 20
0.196278
 30
0.000000
  0
VERTEX
  8
LAYER-1
 10
6.269711
 20
0.196278
 30
0.000000
  0
VERTEX
  8
LAYER-1
 10
6.256689
 20
0.173709
 30
0.000000
  0
VERTEX
  8
LAYER-1
 10
6.287071
 20
0.194541
 30
0.000000
  0
SEQEND
  8
LAYER-1
  0
POLYLINE
  8
LAYER-1
 66
  1
 70
  0
 62
  0
 10
6.057905
 20
0.198881
 30
0.000000
  0
VERTEX
  8
LAYER-1
 10
6.057905
 20
0.198881
 30
0.000000
  0
VERTEX
  8
LAYER-1
 10
6.053564
 20
0.198881
 30
0.000000
  0
VERTEX
  8
LAYER-1
 10
6.050092
 20
0.194541
 30
0.000000
  0
VERTEX
  8
LAYER-1
 10
6.049224
 20
0.189334
 30
0.000000
  0
VERTEX
  8
LAYER-1
 10
6.050961
 20
0.184992
 30
0.000000
  0
VERTEX
  8
LAYER-1
 10
6.055300
 20
0.183256
 30
0.000000
  0
VERTEX
  8
LAYER-1
 10
6.059641
 20
0.183256
 30
0.000000
  0
VERTEX
  8
LAYER-1
 10
6.063981
 20
0.186729
 30
0.000000
  0
VERTEX
  8
LAYER-1
 10
6.063981
 20
0.191069
 30
0.000000
  0
VERTEX
  8
LAYER-1
 10
6.063112
 20
0.195410
 30
0.000000
  0
VERTEX
  8
LAYER-1
 10
6.058773
 20
0.198013
 30
0.000000
  0
SEQEND
  8
LAYER-1
  0
POLYLINE
  8
LAYER-1
 66
  1
 70
  1
 62
  0
 10
6.168150
 20
0.131173
 30
0.000000
  0
VERTEX
  8
LAYER-1
 10
6.168150
 20
0.131173
 30
0.000000
  0
VERTEX
  8
LAYER-1
 10
6.155128
 20
0.108604
 30
0.000000
  0
VERTEX
  8
LAYER-1
 10
6.185511
 20
0.129436
 30
0.000000
  0
SEQEND
  8
LAYER-1
  0
POLYLINE
  8
LAYER-1
 66
  1
 70
  0
 62
  0
 10
6.209814
 20
0.200617
 30
0.000000
  0
VERTEX
  8
LAYER-1
 10
6.209814
 20
0.200617
 30
0.000000
  0
VERTEX
  8
LAYER-1
 10
6.205474
 20
0.200617
 30
0.000000
  0
VERTEX
  8
LAYER-1
 10
6.202002
 20
0.196277
 30
0.000000
  0
VERTEX
  8
LAYER-1
 10
6.201134
 20
0.191069
 30
0.000000
  0
VERTEX
  8
LAYER-1
 10
6.202870
 20
0.186729
 30
0.000000
  0
VERTEX
  8
LAYER-1
 10
6.207211
 20
0.184992
 30
0.000000
  0
VERTEX
  8
LAYER-1
 10
6.211550
 20
0.184992
 30
0.000000
  0
VERTEX
  8
LAYER-1
 10
6.215891
 20
0.188465
 30
0.000000
  0
VERTEX
  8
LAYER-1
 10
6.215891
 20
0.192805
 30
0.000000
  0
VERTEX
  8
LAYER-1
 10
6.215023
 20
0.197146
 30
0.000000
  0
VERTEX
  8
LAYER-1
 10
6.210682
 20
0.199749
 30
0.000000
  0
SEQEND
  8
LAYER-1
  0
POLYLINE
  8
LAYER-1
 66
  1
 70
  1
 62
  0
 10
6.549224
 20
0.191937
 30
0.000000
  0
VERTEX
  8
LAYER-1
 10
6.549224
 20
0.191937
 30
0.000000
  0
VERTEX
  8
LAYER-1
 10
6.556168
 20
0.165897
 30
0.000000
  0
VERTEX
  8
LAYER-1
 10
6.581342
 20
0.179784
 30
0.000000
  0
SEQEND
  8
LAYER-1
  0
POLYLINE
  8
LAYER-1
 66
  1
 70
  1
 62
  0
 10
6.711550
 20
0.220584
 30
0.000000
  0
VERTEX
  8
LAYER-1
 10
6.711550
 20
0.220584
 30
0.000000
  0
VERTEX
  8
LAYER-1
 10
6.698529
 20
0.198013
 30
0.000000
  0
VERTEX
  8
LAYER-1
 10
6.728911
 20
0.218847
 30
0.000000
  0
SEQEND
  8
LAYER-1
  0
POLYLINE
  8
LAYER-1
 66
  1
 70
  1
 62
  0
 10
5.939849
 20
0.156347
 30
0.000000
  0
VERTEX
  8
LAYER-1
 10
5.939849
 20
0.156347
 30
0.000000
  0
VERTEX
  8
LAYER-1
 10
5.965023
 20
0.139854
 30
0.000000
  0
VERTEX
  8
LAYER-1
 10
5.972836
 20
0.154611
 30
0.000000
  0
SEQEND
  8
LAYER-1
  0
POLYLINE
  8
LAYER-1
 66
  1
 70
  0
 62
  0
 10
6.510161
 20
0.212772
 30
0.000000
  0
VERTEX
  8
LAYER-1
 10
6.510161
 20
0.212772
 30
0.000000
  0
VERTEX
  8
LAYER-1
 10
6.505820
 20
0.212772
 30
0.000000
  0
VERTEX
  8
LAYER-1
 10
6.502349
 20
0.208431
 30
0.000000
  0
VERTEX
  8
LAYER-1
 10
6.501481
 20
0.203223
 30
0.000000
  0
VERTEX
  8
LAYER-1
 10
6.503217
 20
0.198882
 30
0.000000
  0
VERTEX
  8
LAYER-1
 10
6.507557
 20
0.197147
 30
0.000000
  0
VERTEX
  8
LAYER-1
 10
6.511897
 20
0.197147
 30
0.000000
  0
VERTEX
  8
LAYER-1
 10
6.516237
 20
0.200618
 30
0.000000
  0
VERTEX
  8
LAYER-1
 10
6.516237
 20
0.204959
 30
0.000000
  0
VERTEX
  8
LAYER-1
 10
6.515370
 20
0.209300
 30
0.000000
  0
VERTEX
  8
LAYER-1
 10
6.511029
 20
0.211905
 30
0.000000
  0
SEQEND
  8
LAYER-1
  0
POLYLINE
  8
LAYER-1
 66
  1
 70
  1
 62
  0
 10
6.525787
 20
0.124229
 30
0.000000
  0
VERTEX
  8
LAYER-1
 10
6.525787
 20
0.124229
 30
0.000000
  0
VERTEX
  8
LAYER-1
 10
6.512766
 20
0.101659
 30
0.000000
  0
VERTEX
  8
LAYER-1
 10
6.543148
 20
0.122492
 30
0.000000
  0
SEQEND
  8
LAYER-1
  0
POLYLINE
  8
LAYER-1
 66
  1
 70
  1
 62
  0
 10
6.620238
 20
0.138647
 30
0.000000
  0
VERTEX
  8
LAYER-1
 10
6.620238
 20
0.138647
 30
0.000000
  0
VERTEX
  8
LAYER-1
 10
6.607551
 20
0.119283
 30
0.000000
  0
VERTEX
  8
LAYER-1
 10
6.618902
 20
0.113272
 30
0.000000
  0
SEQEND
  8
LAYER-1
  0
POLYLINE
  8
LAYER-1
 66
  1
 70
  0
 62
  0
 10
6.651654
 20
0.217111
 30
0.000000
  0
VERTEX
  8
LAYER-1
 10
6.651654
 20
0.217111
 30
0.000000
  0
VERTEX
  8
LAYER-1
 10
6.647314
 20
0.217111
 30
0.000000
  0
VERTEX
  8
LAYER-1
 10
6.643842
 20
0.212771
 30
0.000000
  0
VERTEX
  8
LAYER-1
 10
6.642974
 20
0.207563
 30
0.000000
  0
VERTEX
  8
LAYER-1
 10
6.644709
 20
0.203222
 30
0.000000
  0
VERTEX
  8
LAYER-1
 10
6.649050
 20
0.201486
 30
0.000000
  0
VERTEX
  8
LAYER-1
 10
6.653391
 20
0.201486
 30
0.000000
  0
VERTEX
  8
LAYER-1
 10
6.657731
 20
0.204959
 30
0.000000
  0
VERTEX
  8
LAYER-1
 10
6.657731
 20
0.209299
 30
0.000000
  0
VERTEX
  8
LAYER-1
 10
6.656862
 20
0.213640
 30
0.000000
  0
VERTEX
  8
LAYER-1
 10
6.652522
 20
0.216244
 30
0.000000
  0
SEQEND
  8
LAYER-1
  0
POLYLINE
  8
LAYER-1
 66
  1
 70
  0
 62
  0
 10
5.928565
 20
0.209299
 30
0.000000
  0
VERTEX
  8
LAYER-1
 10
5.928565
 20
0.209299
 30
0.000000
  0
VERTEX
  8
LAYER-1
 10
5.928565
 20
0.204959
 30
0.000000
  0
VERTEX
  8
LAYER-1
 10
5.932906
 20
0.201486
 30
0.000000
  0
VERTEX
  8
LAYER-1
 10
5.938114
 20
0.200617
 30
0.000000
  0
VERTEX
  8
LAYER-1
 10
5.942454
 20
0.202354
 30
0.000000
  0
VERTEX
  8
LAYER-1
 10
5.944190
 20
0.206694
 30
0.000000
  0
VERTEX
  8
LAYER-1
 10
5.944190
 20
0.211035
 30
0.000000
  0
VERTEX
  8
LAYER-1
 10
5.940718
 20
0.215375
 30
0.000000
  0
VERTEX
  8
LAYER-1
 10
5.936378
 20
0.215375
 30
0.000000
  0
VERTEX
  8
LAYER-1
 10
5.932037
 20
0.214506
 30
0.000000
  0
VERTEX
  8
LAYER-1
 10
5.929432
 20
0.210166
 30
0.000000
  0
SEQEND
  8
LAYER-1
  0
POLYLINE
  8
LAYER-1
 66
  1
 70
  0
 62
  0
 10
6.491931
 20
0.125096
 30
0.000000
  0
VERTEX
  8
LAYER-1
 10
6.491931
 20
0.125096
 30
0.000000
  0
VERTEX
  8
LAYER-1
 10
6.487590
 20
0.125096
 30
0.000000
  0
VERTEX
  8
LAYER-1
 10
6.484119
 20
0.120755
 30
0.000000
  0
VERTEX
  8
LAYER-1
 10
6.483251
 20
0.115547
 30
0.000000
  0
VERTEX
  8
LAYER-1
 10
6.484987
 20
0.111206
 30
0.000000
  0
VERTEX
  8
LAYER-1
 10
6.489327
 20
0.109471
 30
0.000000
  0
VERTEX
  8
LAYER-1
 10
6.493667
 20
0.109471
 30
0.000000
  0
VERTEX
  8
LAYER-1
 10
6.498008
 20
0.112942
 30
0.000000
  0
VERTEX
  8
LAYER-1
 10
6.498008
 20
0.117283
 30
0.000000
  0
VERTEX
  8
LAYER-1
 10
6.497140
 20
0.121624
 30
0.000000
  0
VERTEX
  8
LAYER-1
 10
6.492799
 20
0.124229
 30
0.000000
  0
SEQEND
  8
LAYER-1
  0
POLYLINE
  8
LAYER-1
 66
  1
 70
  0
 62
  0
 10
6.390371
 20
0.162857
 30
0.000000
  0
VERTEX
  8
LAYER-1
 10
6.390371
 20
0.162857
 30
0.000000
  0
VERTEX
  8
LAYER-1
 10
6.390371
 20
0.167198
 30
0.000000
  0
VERTEX
  8
LAYER-1
 10
6.386030
 20
0.170670
 30
0.000000
  0
VERTEX
  8
LAYER-1
 10
6.380822
 20
0.171538
 30
0.000000
  0
VERTEX
  8
LAYER-1
 10
6.376481
 20
0.169802
 30
0.000000
  0
VERTEX
  8
LAYER-1
 10
6.374746
 20
0.165461
 30
0.000000
  0
VERTEX
  8
LAYER-1
 10
6.374746
 20
0.161122
 30
0.000000
  0
VERTEX
  8
LAYER-1
 10
6.378217
 20
0.156782
 30
0.000000
  0
VERTEX
  8
LAYER-1
 10
6.382558
 20
0.156782
 30
0.000000
  0
VERTEX
  8
LAYER-1
 10
6.386899
 20
0.157649
 30
0.000000
  0
VERTEX
  8
LAYER-1
 10
6.389502
 20
0.161990
 30
0.000000
  0
SEQEND
  8
LAYER-1
  0
POLYLINE
  8
LAYER-1
 66
  1
 70
  1
 62
  0
 10
6.322661
 20
0.149836
 30
0.000000
  0
VERTEX
  8
LAYER-1
 10
6.322661
 20
0.149836
 30
0.000000
  0
VERTEX
  8
LAYER-1
 10
6.300092
 20
0.162856
 30
0.000000
  0
VERTEX
  8
LAYER-1
 10
6.320925
 20
0.132474
 30
0.000000
  0
SEQEND
  8
LAYER-1
  0
POLYLINE
  8
LAYER-1
 66
  1
 70
  0
 62
  0
 10
6.240197
 20
0.115115
 30
0.000000
  0
VERTEX
  8
LAYER-1
 10
6.240197
 20
0.115115
 30
0.000000
  0
VERTEX
  8
LAYER-1
 10
6.240197
 20
0.119455
 30
0.000000
  0
VERTEX
  8
LAYER-1
 10
6.235856
 20
0.122927
 30
0.000000
  0
VERTEX
  8
LAYER-1
 10
6.230649
 20
0.123795
 30
0.000000
  0
VERTEX
  8
LAYER-1
 10
6.226308
 20
0.122059
 30
0.000000
  0
VERTEX
  8
LAYER-1
 10
6.224572
 20
0.117719
 30
0.000000
  0
VERTEX
  8
LAYER-1
 10
6.224572
 20
0.113379
 30
0.000000
  0
VERTEX
  8
LAYER-1
 10
6.228044
 20
0.109038
 30
0.000000
  0
VERTEX
  8
LAYER-1
 10
6.232385
 20
0.109038
 30
0.000000
  0
VERTEX
  8
LAYER-1
 10
6.236725
 20
0.109907
 30
0.000000
  0
VERTEX
  8
LAYER-1
 10
6.239328
 20
0.114247
 30
0.000000
  0
SEQEND
  8
LAYER-1
  0
POLYLINE
  8
LAYER-1
 66
  1
 70
  1
 62
  0
 10
6.430475
 20
0.105393
 30
0.000000
  0
VERTEX
  8
LAYER-1
 10
6.430475
 20
0.105393
 30
0.000000
  0
VERTEX
  8
LAYER-1
 10
6.423531
 20
0.131433
 30
0.000000
  0
VERTEX
  8
LAYER-1
 10
6.398357
 20
0.117546
 30
0.000000
  0
SEQEND
  8
LAYER-1
  0
POLYLINE
  8
LAYER-1
 66
  1
 70
  1
 62
  0
 10
6.452002
 20
0.159819
 30
0.000000
  0
VERTEX
  8
LAYER-1
 10
6.452002
 20
0.159819
 30
0.000000
  0
VERTEX
  8
LAYER-1
 10
6.465023
 20
0.182390
 30
0.000000
  0
VERTEX
  8
LAYER-1
 10
6.434641
 20
0.161557
 30
0.000000
  0
SEQEND
  8
LAYER-1
  0
POLYLINE
  8
LAYER-1
 66
  1
 70
  1
 62
  0
 10
5.879953
 20
0.103396
 30
0.000000
  0
VERTEX
  8
LAYER-1
 10
5.879953
 20
0.103396
 30
0.000000
  0
VERTEX
  8
LAYER-1
 10
5.857383
 20
0.116418
 30
0.000000
  0
VERTEX
  8
LAYER-1
 10
5.878215
 20
0.086035
 30
0.000000
  0
SEQEND
  8
LAYER-1
  0
POLYLINE
  8
LAYER-1
 66
  1
 70
  1
 62
  0
 10
6.657731
 20
0.127703
 30
0.000000
  0
VERTEX
  8
LAYER-1
 10
6.657731
 20
0.127703
 30
0.000000
  0
VERTEX
  8
LAYER-1
 10
6.674225
 20
0.152875
 30
0.000000
  0
VERTEX
  8
LAYER-1
 10
6.659467
 20
0.160688
 30
0.000000
  0
SEQEND
  8
LAYER-1
  0
POLYLINE
  8
LAYER-1
 66
  1
 70
  0
 62
  0
 10
6.688632
 20
0.054298
 30
0.000000
  0
VERTEX
  8
LAYER-1
 10
6.688632
 20
0.054298
 30
0.000000
  0
VERTEX
  8
LAYER-1
 10
6.692973
 20
0.054298
 30
0.000000
  0
VERTEX
  8
LAYER-1
 10
6.696444
 20
0.058640
 30
0.000000
  0
VERTEX
  8
LAYER-1
 10
6.697312
 20
0.063847
 30
0.000000
  0
VERTEX
  8
LAYER-1
 10
6.695576
 20
0.068187
 30
0.000000
  0
VERTEX
  8
LAYER-1
 10
6.691236
 20
0.069923
 30
0.000000
  0
VERTEX
  8
LAYER-1
 10
6.686896
 20
0.069923
 30
0.000000
  0
VERTEX
  8
LAYER-1
 10
6.682555
 20
0.066452
 30
0.000000
  0
VERTEX
  8
LAYER-1
 10
6.682555
 20
0.062111
 30
0.000000
  0
VERTEX
  8
LAYER-1
 10
6.683423
 20
0.057771
 30
0.000000
  0
VERTEX
  8
LAYER-1
 10
6.687764
 20
0.055166
 30
0.000000
  0
SEQEND
  8
LAYER-1
  0
POLYLINE
  8
LAYER-1
 66
  1
 70
  0
 62
  0
 10
6.665195
 20
0.079478
 30
0.000000
  0
VERTEX
  8
LAYER-1
 10
6.665195
 20
0.079478
 30
0.000000
  0
VERTEX
  8
LAYER-1
 10
6.669536
 20
0.079478
 30
0.000000
  0
VERTEX
  8
LAYER-1
 10
6.673008
 20
0.083818
 30
0.000000
  0
VERTEX
  8
LAYER-1
 10
6.673876
 20
0.089026
 30
0.000000
  0
VERTEX
  8
LAYER-1
 10
6.672139
 20
0.093367
 30
0.000000
  0
VERTEX
  8
LAYER-1
 10
6.667799
 20
0.095103
 30
0.000000
  0
VERTEX
  8
LAYER-1
 10
6.663459
 20
0.095103
 30
0.000000
  0
VERTEX
  8
LAYER-1
 10
6.659119
 20
0.091631
 30
0.000000
  0
VERTEX
  8
LAYER-1
 10
6.659119
 20
0.087290
 30
0.000000
  0
VERTEX
  8
LAYER-1
 10
6.659987
 20
0.082949
 30
0.000000
  0
VERTEX
  8
LAYER-1
 10
6.664327
 20
0.080344
 30
0.000000
  0
SEQEND
  8
LAYER-1
  0
POLYLINE
  8
LAYER-1
 66
  1
 70
  1
 62
  0
 10
6.739413
 20
0.095534
 30
0.000000
  0
VERTEX
  8
LAYER-1
 10
6.739413
 20
0.095534
 30
0.000000
  0
VERTEX
  8
LAYER-1
 10
6.714239
 20
0.112026
 30
0.000000
  0
VERTEX
  8
LAYER-1
 10
6.706427
 20
0.097269
 30
0.000000
  0
SEQEND
  8
LAYER-1
  0
POLYLINE
  8
LAYER-1
 66
  1
 70
  0
 62
  0
 10
6.749830
 20
0.134598
 30
0.000000
  0
VERTEX
  8
LAYER-1
 10
6.749830
 20
0.134598
 30
0.000000
  0
VERTEX
  8
LAYER-1
 10
6.749830
 20
0.138938
 30
0.000000
  0
VERTEX
  8
LAYER-1
 10
6.745489
 20
0.142410
 30
0.000000
  0
VERTEX
  8
LAYER-1
 10
6.740282
 20
0.143278
 30
0.000000
  0
VERTEX
  8
LAYER-1
 10
6.735942
 20
0.141542
 30
0.000000
  0
VERTEX
  8
LAYER-1
 10
6.734205
 20
0.137201
 30
0.000000
  0
VERTEX
  8
LAYER-1
 10
6.734205
 20
0.132862
 30
0.000000
  0
VERTEX
  8
LAYER-1
 10
6.737677
 20
0.128521
 30
0.000000
  0
VERTEX
  8
LAYER-1
 10
6.742018
 20
0.128521
 30
0.000000
  0
VERTEX
  8
LAYER-1
 10
6.746358
 20
0.129389
 30
0.000000
  0
VERTEX
  8
LAYER-1
 10
6.748963
 20
0.133730
 30
0.000000
  0
SEQEND
  8
LAYER-1
  0
POLYLINE
  8
LAYER-1
 66
  1
 70
  1
 62
  0
 10
6.696353
 20
0.140450
 30
0.000000
  0
VERTEX
  8
LAYER-1
 10
6.696353
 20
0.140450
 30
0.000000
  0
VERTEX
  8
LAYER-1
 10
6.709039
 20
0.159813
 30
0.000000
  0
VERTEX
  8
LAYER-1
 10
6.697689
 20
0.165825
 30
0.000000
  0
SEQEND
  8
LAYER-1
  0
POLYLINE
  8
LAYER-1
 66
  1
 70
  0
 62
  0
 10
6.019709
 20
0.170236
 30
0.000000
  0
VERTEX
  8
LAYER-1
 10
6.019709
 20
0.170236
 30
0.000000
  0
VERTEX
  8
LAYER-1
 10
6.019709
 20
0.174575
 30
0.000000
  0
VERTEX
  8
LAYER-1
 10
6.015369
 20
0.178049
 30
0.000000
  0
VERTEX
  8
LAYER-1
 10
6.010161
 20
0.178916
 30
0.000000
  0
VERTEX
  8
LAYER-1
 10
6.005820
 20
0.177180
 30
0.000000
  0
VERTEX
  8
LAYER-1
 10
6.004084
 20
0.172840
 30
0.000000
  0
VERTEX
  8
LAYER-1
 10
6.004084
 20
0.168499
 30
0.000000
  0
VERTEX
  8
LAYER-1
 10
6.007556
 20
0.164160
 30
0.000000
  0
VERTEX
  8
LAYER-1
 10
6.011897
 20
0.164160
 30
0.000000
  0
VERTEX
  8
LAYER-1
 10
6.016237
 20
0.165027
 30
0.000000
  0
VERTEX
  8
LAYER-1
 10
6.018842
 20
0.169367
 30
0.000000
  0
SEQEND
  8
LAYER-1
  0
POLYLINE
  8
LAYER-1
 66
  1
 70
  0
 62
  0
 10
6.605648
 20
0.133779
 30
0.000000
  0
VERTEX
  8
LAYER-1
 10
6.605648
 20
0.133779
 30
0.000000
  0
VERTEX
  8
LAYER-1
 10
6.609989
 20
0.133779
 30
0.000000
  0
VERTEX
  8
LAYER-1
 10
6.613461
 20
0.138119
 30
0.000000
  0
VERTEX
  8
LAYER-1
 10
6.614328
 20
0.143328
 30
0.000000
  0
VERTEX
  8
LAYER-1
 10
6.612592
 20
0.147668
 30
0.000000
  0
VERTEX
  8
LAYER-1
 10
6.608252
 20
0.149404
 30
0.000000
  0
VERTEX
  8
LAYER-1
 10
6.603912
 20
0.149404
 30
0.000000
  0
VERTEX
  8
LAYER-1
 10
6.599571
 20
0.145932
 30
0.000000
  0
VERTEX
  8
LAYER-1
 10
6.599571
 20
0.141591
 30
0.000000
  0
VERTEX
  8
LAYER-1
 10
6.600439
 20
0.137250
 30
0.000000
  0
VERTEX
  8
LAYER-1
 10
6.604780
 20
0.134646
 30
0.000000
  0
SEQEND
  8
LAYER-1
  0
POLYLINE
  8
LAYER-1
 66
  1
 70
  1
 62
  0
 10
0.863284
 20
0.137460
 30
0.000000
  0
VERTEX
  8
LAYER-1
 10
0.863284
 20
0.137460
 30
0.000000
  0
VERTEX
  8
LAYER-1
 10
0.840713
 20
0.150480
 30
0.000000
  0
VERTEX
  8
LAYER-1
 10
0.861546
 20
0.120099
 30
0.000000
  0
SEQEND
  8
LAYER-1
  0
POLYLINE
  8
LAYER-1
 66
  1
 70
  0
 62
  0
 10
0.852000
 20
0.070619
 30
0.000000
  0
VERTEX
  8
LAYER-1
 10
0.852000
 20
0.070619
 30
0.000000
  0
VERTEX
  8
LAYER-1
 10
0.852000
 20
0.074958
 30
0.000000
  0
VERTEX
  8
LAYER-1
 10
0.847659
 20
0.078432
 30
0.000000
  0
VERTEX
  8
LAYER-1
 10
0.842451
 20
0.079299
 30
0.000000
  0
VERTEX
  8
LAYER-1
 10
0.838110
 20
0.077563
 30
0.000000
  0
VERTEX
  8
LAYER-1
 10
0.836375
 20
0.073222
 30
0.000000
  0
VERTEX
  8
LAYER-1
 10
0.836375
 20
0.068882
 30
0.000000
  0
VERTEX
  8
LAYER-1
 10
0.839846
 20
0.064543
 30
0.000000
  0
VERTEX
  8
LAYER-1
 10
0.844187
 20
0.064543
 30
0.000000
  0
VERTEX
  8
LAYER-1
 10
0.848528
 20
0.065409
 30
0.000000
  0
VERTEX
  8
LAYER-1
 10
0.851133
 20
0.069750
 30
0.000000
  0
SEQEND
  8
LAYER-1
  0
POLYLINE
  8
LAYER-1
 66
  1
 70
  1
 62
  0
 10
1.130039
 20
0.059419
 30
0.000000
  0
VERTEX
  8
LAYER-1
 10
1.130039
 20
0.059419
 30
0.000000
  0
VERTEX
  8
LAYER-1
 10
1.146532
 20
0.084593
 30
0.000000
  0
VERTEX
  8
LAYER-1
 10
1.131775
 20
0.092406
 30
0.000000
  0
SEQEND
  8
LAYER-1
  0
POLYLINE
  8
LAYER-1
 66
  1
 70
  1
 62
  0
 10
1.177948
 20
0.074513
 30
0.000000
  0
VERTEX
  8
LAYER-1
 10
1.177948
 20
0.074513
 30
0.000000
  0
VERTEX
  8
LAYER-1
 10
1.190636
 20
0.093878
 30
0.000000
  0
VERTEX
  8
LAYER-1
 10
1.179284
 20
0.099888
 30
0.000000
  0
SEQEND
  8
LAYER-1
  0
POLYLINE
  8
LAYER-1
 66
  1
 70
  0
 62
  0
 10
1.242018
 20
0.050741
 30
0.000000
  0
VERTEX
  8
LAYER-1
 10
1.242018
 20
0.050741
 30
0.000000
  0
VERTEX
  8
LAYER-1
 10
1.246359
 20
0.050741
 30
0.000000
  0
VERTEX
  8
LAYER-1
 10
1.249830
 20
0.055082
 30
0.000000
  0
VERTEX
  8
LAYER-1
 10
1.250698
 20
0.060289
 30
0.000000
  0
VERTEX
  8
LAYER-1
 10
1.248962
 20
0.064630
 30
0.000000
  0
VERTEX
  8
LAYER-1
 10
1.244622
 20
0.066366
 30
0.000000
  0
VERTEX
  8
LAYER-1
 10
1.240282
 20
0.066366
 30
0.000000
  0
VERTEX
  8
LAYER-1
 10
1.235941
 20
0.062894
 30
0.000000
  0
VERTEX
  8
LAYER-1
 10
1.235941
 20
0.058554
 30
0.000000
  0
VERTEX
  8
LAYER-1
 10
1.236809
 20
0.054213
 30
0.000000
  0
VERTEX
  8
LAYER-1
 10
1.241150
 20
0.051609
 30
0.000000
  0
SEQEND
  8
LAYER-1
  0
POLYLINE
  8
LAYER-1
 66
  1
 70
  1
 62
  0
 10
1.275872
 20
0.113674
 30
0.000000
  0
VERTEX
  8
LAYER-1
 10
1.275872
 20
0.113674
 30
0.000000
  0
VERTEX
  8
LAYER-1
 10
1.249830
 20
0.106729
 30
0.000000
  0
VERTEX
  8
LAYER-1
 10
1.263718
 20
0.081556
 30
0.000000
  0
SEQEND
  8
LAYER-1
  0
POLYLINE
  8
LAYER-1
 66
  1
 70
  0
 62
  0
 10
2.643755
 20
0.081381
 30
0.000000
  0
VERTEX
  8
LAYER-1
 10
2.643755
 20
0.081381
 30
0.000000
  0
VERTEX
  8
LAYER-1
 10
2.643755
 20
0.085721
 30
0.000000
  0
VERTEX
  8
LAYER-1
 10
2.639414
 20
0.089194
 30
0.000000
  0
VERTEX
  8
LAYER-1
 10
2.634206
 20
0.090062
 30
0.000000
  0
VERTEX
  8
LAYER-1
 10
2.629865
 20
0.088326
 30
0.000000
  0
VERTEX
  8
LAYER-1
 10
2.628130
 20
0.083985
 30
0.000000
  0
VERTEX
  8
LAYER-1
 10
2.628130
 20
0.079645
 30
0.000000
  0
VERTEX
  8
LAYER-1
 10
2.631601
 20
0.075304
 30
0.000000
  0
VERTEX
  8
LAYER-1
 10
2.635942
 20
0.075304
 30
0.000000
  0
VERTEX
  8
LAYER-1
 10
2.640283
 20
0.076173
 30
0.000000
  0
VERTEX
  8
LAYER-1
 10
2.642887
 20
0.080513
 30
0.000000
  0
SEQEND
  8
LAYER-1
  0
POLYLINE
  8
LAYER-1
 66
  1
 70
  1
 62
  0
 10
2.577782
 20
0.044490
 30
0.000000
  0
VERTEX
  8
LAYER-1
 10
2.577782
 20
0.044490
 30
0.000000
  0
VERTEX
  8
LAYER-1
 10
2.570837
 20
0.070531
 30
0.000000
  0
VERTEX
  8
LAYER-1
 10
2.545664
 20
0.056643
 30
0.000000
  0
SEQEND
  8
LAYER-1
  0
POLYLINE
  8
LAYER-1
 66
  1
 70
  1
 62
  0
 10
2.589934
 20
0.080948
 30
0.000000
  0
VERTEX
  8
LAYER-1
 10
2.589934
 20
0.080948
 30
0.000000
  0
VERTEX
  8
LAYER-1
 10
2.602955
 20
0.103518
 30
0.000000
  0
VERTEX
  8
LAYER-1
 10
2.572573
 20
0.082685
 30
0.000000
  0
SEQEND
  8
LAYER-1
  0
POLYLINE
  8
LAYER-1
 66
  1
 70
  0
 62
  0
 10
2.426133
 20
0.091798
 30
0.000000
  0
VERTEX
  8
LAYER-1
 10
2.426133
 20
0.091798
 30
0.000000
  0
VERTEX
  8
LAYER-1
 10
2.421792
 20
0.091798
 30
0.000000
  0
VERTEX
  8
LAYER-1
 10
2.418321
 20
0.087457
 30
0.000000
  0
VERTEX
  8
LAYER-1
 10
2.417452
 20
0.082250
 30
0.000000
  0
VERTEX
  8
LAYER-1
 10
2.419188
 20
0.077909
 30
0.000000
  0
VERTEX
  8
LAYER-1
 10
2.423529
 20
0.076173
 30
0.000000
  0
VERTEX
  8
LAYER-1
 10
2.427869
 20
0.076173
 30
0.000000
  0
VERTEX
  8
LAYER-1
 10
2.432210
 20
0.079645
 30
0.000000
  0
VERTEX
  8
LAYER-1
 10
2.432210
 20
0.083985
 30
0.000000
  0
VERTEX
  8
LAYER-1
 10
2.431342
 20
0.088326
 30
0.000000
  0
VERTEX
  8
LAYER-1
 10
2.427001
 20
0.090931
 30
0.000000
  0
SEQEND
  8
LAYER-1
  0
POLYLINE
  8
LAYER-1
 66
  1
 70
  1
 62
  0
 10
2.505994
 20
0.054471
 30
0.000000
  0
VERTEX
  8
LAYER-1
 10
2.505994
 20
0.054471
 30
0.000000
  0
VERTEX
  8
LAYER-1
 10
2.483423
 20
0.067494
 30
0.000000
  0
VERTEX
  8
LAYER-1
 10
2.504256
 20
0.037110
 30
0.000000
  0
SEQEND
  8
LAYER-1
  0
POLYLINE
  8
LAYER-1
 66
  1
 70
  1
 62
  0
 10
3.100965
 20
0.055322
 30
0.000000
  0
VERTEX
  8
LAYER-1
 10
3.100965
 20
0.055322
 30
0.000000
  0
VERTEX
  8
LAYER-1
 10
3.113986
 20
0.077893
 30
0.000000
  0
VERTEX
  8
LAYER-1
 10
3.083604
 20
0.057060
 30
0.000000
  0
SEQEND
  8
LAYER-1
  0
POLYLINE
  8
LAYER-1
 66
  1
 70
  1
 62
  0
 10
3.006515
 20
0.061735
 30
0.000000
  0
VERTEX
  8
LAYER-1
 10
3.006515
 20
0.061735
 30
0.000000
  0
VERTEX
  8
LAYER-1
 10
3.019201
 20
0.081099
 30
0.000000
  0
VERTEX
  8
LAYER-1
 10
3.007851
 20
0.087111
 30
0.000000
  0
SEQEND
  8
LAYER-1
  0
POLYLINE
  8
LAYER-1
 66
  1
 70
  0
 62
  0
 10
3.134820
 20
0.054455
 30
0.000000
  0
VERTEX
  8
LAYER-1
 10
3.134820
 20
0.054455
 30
0.000000
  0
VERTEX
  8
LAYER-1
 10
3.139161
 20
0.054455
 30
0.000000
  0
VERTEX
  8
LAYER-1
 10
3.142633
 20
0.058796
 30
0.000000
  0
VERTEX
  8
LAYER-1
 10
3.143501
 20
0.064004
 30
0.000000
  0
VERTEX
  8
LAYER-1
 10
3.141765
 20
0.068344
 30
0.000000
  0
VERTEX
  8
LAYER-1
 10
3.137424
 20
0.070080
 30
0.000000
  0
VERTEX
  8
LAYER-1
 10
3.133085
 20
0.070080
 30
0.000000
  0
VERTEX
  8
LAYER-1
 10
3.128744
 20
0.066608
 30
0.000000
  0
VERTEX
  8
LAYER-1
 10
3.128744
 20
0.062268
 30
0.000000
  0
VERTEX
  8
LAYER-1
 10
3.129612
 20
0.057927
 30
0.000000
  0
VERTEX
  8
LAYER-1
 10
3.133952
 20
0.055322
 30
0.000000
  0
SEQEND
  8
LAYER-1
  0
POLYLINE
  8
LAYER-1
 66
  1
 70
  0
 62
  0
 10
3.021104
 20
0.045772
 30
0.000000
  0
VERTEX
  8
LAYER-1
 10
3.021104
 20
0.045772
 30
0.000000
  0
VERTEX
  8
LAYER-1
 10
3.016763
 20
0.045772
 30
0.000000
  0
VERTEX
  8
LAYER-1
 10
3.013291
 20
0.041431
 30
0.000000
  0
VERTEX
  8
LAYER-1
 10
3.012423
 20
0.036224
 30
0.000000
  0
VERTEX
  8
LAYER-1
 10
3.014159
 20
0.031882
 30
0.000000
  0
VERTEX
  8
LAYER-1
 10
3.018500
 20
0.030147
 30
0.000000
  0
VERTEX
  8
LAYER-1
 10
3.022840
 20
0.030147
 30
0.000000
  0
VERTEX
  8
LAYER-1
 10
3.027180
 20
0.033619
 30
0.000000
  0
VERTEX
  8
LAYER-1
 10
3.027180
 20
0.037960
 30
0.000000
  0
VERTEX
  8
LAYER-1
 10
3.026312
 20
0.042300
 30
0.000000
  0
VERTEX
  8
LAYER-1
 10
3.021972
 20
0.044905
 30
0.000000
  0
SEQEND
  8
LAYER-1
  0
POLYLINE
  8
LAYER-1
 66
  1
 70
  1
 62
  0
 10
2.862157
 20
0.059073
 30
0.000000
  0
VERTEX
  8
LAYER-1
 10
2.862157
 20
0.059073
 30
0.000000
  0
VERTEX
  8
LAYER-1
 10
2.875178
 20
0.081643
 30
0.000000
  0
VERTEX
  8
LAYER-1
 10
2.844796
 20
0.060811
 30
0.000000
  0
SEQEND
  8
LAYER-1
  0
POLYLINE
  8
LAYER-1
 66
  1
 70
  0
 62
  0
 10
2.896013
 20
0.058205
 30
0.000000
  0
VERTEX
  8
LAYER-1
 10
2.896013
 20
0.058205
 30
0.000000
  0
VERTEX
  8
LAYER-1
 10
2.900354
 20
0.058205
 30
0.000000
  0
VERTEX
  8
LAYER-1
 10
2.903825
 20
0.062547
 30
0.000000
  0
VERTEX
  8
LAYER-1
 10
2.904693
 20
0.067754
 30
0.000000
  0
VERTEX
  8
LAYER-1
 10
2.902957
 20
0.072094
 30
0.000000
  0
VERTEX
  8
LAYER-1
 10
2.898617
 20
0.073830
 30
0.000000
  0
VERTEX
  8
LAYER-1
 10
2.894277
 20
0.073830
 30
0.000000
  0
VERTEX
  8
LAYER-1
 10
2.889936
 20
0.070359
 30
0.000000
  0
VERTEX
  8
LAYER-1
 10
2.889936
 20
0.066018
 30
0.000000
  0
VERTEX
  8
LAYER-1
 10
2.890804
 20
0.061678
 30
0.000000
  0
VERTEX
  8
LAYER-1
 10
2.895145
 20
0.059073
 30
0.000000
  0
SEQEND
  8
LAYER-1
  0
POLYLINE
  8
LAYER-1
 66
  1
 70
  1
 62
  0
 10
3.494275
 20
0.094143
 30
0.000000
  0
VERTEX
  8
LAYER-1
 10
3.494275
 20
0.094143
 30
0.000000
  0
VERTEX
  8
LAYER-1
 10
3.516845
 20
0.081123
 30
0.000000
  0
VERTEX
  8
LAYER-1
 10
3.496012
 20
0.111504
 30
0.000000
  0
SEQEND
  8
LAYER-1
  0
POLYLINE
  8
LAYER-1
 66
  1
 70
  0
 62
  0
 10
3.493408
 20
0.060287
 30
0.000000
  0
VERTEX
  8
LAYER-1
 10
3.493408
 20
0.060287
 30
0.000000
  0
VERTEX
  8
LAYER-1
 10
3.493408
 20
0.055947
 30
0.000000
  0
VERTEX
  8
LAYER-1
 10
3.497748
 20
0.052475
 30
0.000000
  0
VERTEX
  8
LAYER-1
 10
3.502956
 20
0.051607
 30
0.000000
  0
VERTEX
  8
LAYER-1
 10
3.507297
 20
0.053343
 30
0.000000
  0
VERTEX
  8
LAYER-1
 10
3.509033
 20
0.057684
 30
0.000000
  0
VERTEX
  8
LAYER-1
 10
3.509033
 20
0.062024
 30
0.000000
  0
VERTEX
  8
LAYER-1
 10
3.505561
 20
0.066364
 30
0.000000
  0
VERTEX
  8
LAYER-1
 10
3.501220
 20
0.066364
 30
0.000000
  0
VERTEX
  8
LAYER-1
 10
3.496880
 20
0.065497
 30
0.000000
  0
VERTEX
  8
LAYER-1
 10
3.494275
 20
0.061156
 30
0.000000
  0
SEQEND
  8
LAYER-1
  0
POLYLINE
  8
LAYER-1
 66
  1
 70
  1
 62
  0
 10
4.043753
 20
0.126173
 30
0.000000
  0
VERTEX
  8
LAYER-1
 10
4.043753
 20
0.126173
 30
0.000000
  0
VERTEX
  8
LAYER-1
 10
4.050698
 20
0.100132
 30
0.000000
  0
VERTEX
  8
LAYER-1
 10
4.075871
 20
0.114020
 30
0.000000
  0
SEQEND
  8
LAYER-1
  0
POLYLINE
  8
LAYER-1
 66
  1
 70
  1
 62
  0
 10
4.015541
 20
0.089279
 30
0.000000
  0
VERTEX
  8
LAYER-1
 10
4.015541
 20
0.089279
 30
0.000000
  0
VERTEX
  8
LAYER-1
 10
4.038110
 20
0.076258
 30
0.000000
  0
VERTEX
  8
LAYER-1
 10
4.017278
 20
0.106639
 30
0.000000
  0
SEQEND
  8
LAYER-1
  0
POLYLINE
  8
LAYER-1
 66
  1
 70
  1
 62
  0
 10
4.132195
 20
0.081299
 30
0.000000
  0
VERTEX
  8
LAYER-1
 10
4.132195
 20
0.081299
 30
0.000000
  0
VERTEX
  8
LAYER-1
 10
4.151560
 20
0.068611
 30
0.000000
  0
VERTEX
  8
LAYER-1
 10
4.157570
 20
0.079963
 30
0.000000
  0
SEQEND
  8
LAYER-1
  0
POLYLINE
  8
LAYER-1
 66
  1
 70
  0
 62
  0
 10
4.076740
 20
0.087106
 30
0.000000
  0
VERTEX
  8
LAYER-1
 10
4.076740
 20
0.087106
 30
0.000000
  0
VERTEX
  8
LAYER-1
 10
4.072400
 20
0.087106
 30
0.000000
  0
VERTEX
  8
LAYER-1
 10
4.068928
 20
0.082766
 30
0.000000
  0
VERTEX
  8
LAYER-1
 10
4.068060
 20
0.077558
 30
0.000000
  0
VERTEX
  8
LAYER-1
 10
4.069796
 20
0.073218
 30
0.000000
  0
VERTEX
  8
LAYER-1
 10
4.074135
 20
0.071481
 30
0.000000
  0
VERTEX
  8
LAYER-1
 10
4.078476
 20
0.071481
 30
0.000000
  0
VERTEX
  8
LAYER-1
 10
4.082817
 20
0.074954
 30
0.000000
  0
VERTEX
  8
LAYER-1
 10
4.082817
 20
0.079294
 30
0.000000
  0
VERTEX
  8
LAYER-1
 10
4.081948
 20
0.083635
 30
0.000000
  0
VERTEX
  8
LAYER-1
 10
4.077608
 20
0.086238
 30
0.000000
  0
SEQEND
  8
LAYER-1
  0
POLYLINE
  8
LAYER-1
 66
  1
 70
  0
 62
  0
 10
3.961288
 20
0.064538
 30
0.000000
  0
VERTEX
  8
LAYER-1
 10
3.961288
 20
0.064538
 30
0.000000
  0
VERTEX
  8
LAYER-1
 10
3.965629
 20
0.064538
 30
0.000000
  0
VERTEX
  8
LAYER-1
 10
3.969101
 20
0.068879
 30
0.000000
  0
VERTEX
  8
LAYER-1
 10
3.969970
 20
0.074087
 30
0.000000
  0
VERTEX
  8
LAYER-1
 10
3.968234
 20
0.078427
 30
0.000000
  0
VERTEX
  8
LAYER-1
 10
3.963893
 20
0.080163
 30
0.000000
  0
VERTEX
  8
LAYER-1
 10
3.959553
 20
0.080163
 30
0.000000
  0
VERTEX
  8
LAYER-1
 10
3.955212
 20
0.076692
 30
0.000000
  0
VERTEX
  8
LAYER-1
 10
3.955212
 20
0.072350
 30
0.000000
  0
VERTEX
  8
LAYER-1
 10
3.956081
 20
0.068010
 30
0.000000
  0
VERTEX
  8
LAYER-1
 10
3.960422
 20
0.065405
 30
0.000000
  0
SEQEND
  8
LAYER-1
  0
POLYLINE
  8
LAYER-1
 66
  1
 70
  1
 62
  0
 10
4.447935
 20
0.034851
 30
0.000000
  0
VERTEX
  8
LAYER-1
 10
4.447935
 20
0.034851
 30
0.000000
  0
VERTEX
  8
LAYER-1
 10
4.440990
 20
0.060892
 30
0.000000
  0
VERTEX
  8
LAYER-1
 10
4.415817
 20
0.047004
 30
0.000000
  0
SEQEND
  8
LAYER-1
  0
POLYLINE
  8
LAYER-1
 66
  1
 70
  1
 62
  0
 10
4.476148
 20
0.071745
 30
0.000000
  0
VERTEX
  8
LAYER-1
 10
4.476148
 20
0.071745
 30
0.000000
  0
VERTEX
  8
LAYER-1
 10
4.453578
 20
0.084765
 30
0.000000
  0
VERTEX
  8
LAYER-1
 10
4.474411
 20
0.054384
 30
0.000000
  0
SEQEND
  8
LAYER-1
  0
POLYLINE
  8
LAYER-1
 66
  1
 70
  1
 62
  0
 10
4.359494
 20
0.079725
 30
0.000000
  0
VERTEX
  8
LAYER-1
 10
4.359494
 20
0.079725
 30
0.000000
  0
VERTEX
  8
LAYER-1
 10
4.340129
 20
0.092412
 30
0.000000
  0
VERTEX
  8
LAYER-1
 10
4.334118
 20
0.081061
 30
0.000000
  0
SEQEND
  8
LAYER-1
  0
POLYLINE
  8
LAYER-1
 66
  1
 70
  0
 62
  0
 10
4.414948
 20
0.073917
 30
0.000000
  0
VERTEX
  8
LAYER-1
 10
4.414948
 20
0.073917
 30
0.000000
  0
VERTEX
  8
LAYER-1
 10
4.419289
 20
0.073917
 30
0.000000
  0
VERTEX
  8
LAYER-1
 10
4.422760
 20
0.078258
 30
0.000000
  0
VERTEX
  8
LAYER-1
 10
4.423628
 20
0.083466
 30
0.000000
  0
VERTEX
  8
LAYER-1
 10
4.421892
 20
0.087806
 30
0.000000
  0
VERTEX
  8
LAYER-1
 10
4.417553
 20
0.089542
 30
0.000000
  0
VERTEX
  8
LAYER-1
 10
4.413212
 20
0.089542
 30
0.000000
  0
VERTEX
  8
LAYER-1
 10
4.408872
 20
0.086071
 30
0.000000
  0
VERTEX
  8
LAYER-1
 10
4.408872
 20
0.081729
 30
0.000000
  0
VERTEX
  8
LAYER-1
 10
4.409740
 20
0.077389
 30
0.000000
  0
VERTEX
  8
LAYER-1
 10
4.414080
 20
0.074785
 30
0.000000
  0
SEQEND
  8
LAYER-1
  0
POLYLINE
  8
LAYER-1
 66
  1
 70
  0
 62
  0
 10
4.530400
 20
0.096486
 30
0.000000
  0
VERTEX
  8
LAYER-1
 10
4.530400
 20
0.096486
 30
0.000000
  0
VERTEX
  8
LAYER-1
 10
4.526059
 20
0.096486
 30
0.000000
  0
VERTEX
  8
LAYER-1
 10
4.522587
 20
0.092145
 30
0.000000
  0
VERTEX
  8
LAYER-1
 10
4.521718
 20
0.086937
 30
0.000000
  0
VERTEX
  8
LAYER-1
 10
4.523454
 20
0.082597
 30
0.000000
  0
VERTEX
  8
LAYER-1
 10
4.527795
 20
0.080861
 30
0.000000
  0
VERTEX
  8
LAYER-1
 10
4.532135
 20
0.080861
 30
0.000000
  0
VERTEX
  8
LAYER-1
 10
4.536476
 20
0.084333
 30
0.000000
  0
VERTEX
  8
LAYER-1
 10
4.536476
 20
0.088673
 30
0.000000
  0
VERTEX
  8
LAYER-1
 10
4.535607
 20
0.093014
 30
0.000000
  0
VERTEX
  8
LAYER-1
 10
4.531267
 20
0.095618
 30
0.000000
  0
SEQEND
  8
LAYER-1
  0
POLYLINE
  8
LAYER-1
 66
  1
 70
  1
 62
  0
 10
4.700278
 20
0.018444
 30
0.000000
  0
VERTEX
  8
LAYER-1
 10
4.700278
 20
0.018444
 30
0.000000
  0
VERTEX
  8
LAYER-1
 10
4.693334
 20
0.044485
 30
0.000000
  0
VERTEX
  8
LAYER-1
 10
4.668160
 20
0.030597
 30
0.000000
  0
SEQEND
  8
LAYER-1
  0
POLYLINE
  8
LAYER-1
 66
  1
 70
  1
 62
  0
 10
4.728491
 20
0.055339
 30
0.000000
  0
VERTEX
  8
LAYER-1
 10
4.728491
 20
0.055339
 30
0.000000
  0
VERTEX
  8
LAYER-1
 10
4.705921
 20
0.068359
 30
0.000000
  0
VERTEX
  8
LAYER-1
 10
4.726754
 20
0.037977
 30
0.000000
  0
SEQEND
  8
LAYER-1
  0
POLYLINE
  8
LAYER-1
 66
  1
 70
  1
 62
  0
 10
4.611837
 20
0.063318
 30
0.000000
  0
VERTEX
  8
LAYER-1
 10
4.611837
 20
0.063318
 30
0.000000
  0
VERTEX
  8
LAYER-1
 10
4.592472
 20
0.076006
 30
0.000000
  0
VERTEX
  8
LAYER-1
 10
4.586462
 20
0.064654
 30
0.000000
  0
SEQEND
  8
LAYER-1
  0
POLYLINE
  8
LAYER-1
 66
  1
 70
  0
 62
  0
 10
4.667291
 20
0.057510
 30
0.000000
  0
VERTEX
  8
LAYER-1
 10
4.667291
 20
0.057510
 30
0.000000
  0
VERTEX
  8
LAYER-1
 10
4.671632
 20
0.057510
 30
0.000000
  0
VERTEX
  8
LAYER-1
 10
4.675104
 20
0.061852
 30
0.000000
  0
VERTEX
  8
LAYER-1
 10
4.675972
 20
0.067059
 30
0.000000
  0
VERTEX
  8
LAYER-1
 10
4.674236
 20
0.071400
 30
0.000000
  0
VERTEX
  8
LAYER-1
 10
4.669896
 20
0.073135
 30
0.000000
  0
VERTEX
  8
LAYER-1
 10
4.665555
 20
0.073135
 30
0.000000
  0
VERTEX
  8
LAYER-1
 10
4.661215
 20
0.069664
 30
0.000000
  0
VERTEX
  8
LAYER-1
 10
4.661215
 20
0.065323
 30
0.000000
  0
VERTEX
  8
LAYER-1
 10
4.662084
 20
0.060983
 30
0.000000
  0
VERTEX
  8
LAYER-1
 10
4.666423
 20
0.058378
 30
0.000000
  0
SEQEND
  8
LAYER-1
  0
POLYLINE
  8
LAYER-1
 66
  1
 70
  0
 62
  0
 10
4.782743
 20
0.080079
 30
0.000000
  0
VERTEX
  8
LAYER-1
 10
4.782743
 20
0.080079
 30
0.000000
  0
VERTEX
  8
LAYER-1
 10
4.778402
 20
0.080079
 30
0.000000
  0
VERTEX
  8
LAYER-1
 10
4.774930
 20
0.075739
 30
0.000000
  0
VERTEX
  8
LAYER-1
 10
4.774061
 20
0.070531
 30
0.000000
  0
VERTEX
  8
LAYER-1
 10
4.775798
 20
0.066190
 30
0.000000
  0
VERTEX
  8
LAYER-1
 10
4.780138
 20
0.064454
 30
0.000000
  0
VERTEX
  8
LAYER-1
 10
4.784479
 20
0.064454
 30
0.000000
  0
VERTEX
  8
LAYER-1
 10
4.788820
 20
0.067926
 30
0.000000
  0
VERTEX
  8
LAYER-1
 10
4.788820
 20
0.072266
 30
0.000000
  0
VERTEX
  8
LAYER-1
 10
4.787951
 20
0.076608
 30
0.000000
  0
VERTEX
  8
LAYER-1
 10
4.783610
 20
0.079213
 30
0.000000
  0
SEQEND
  8
LAYER-1
  0
POLYLINE
  8
LAYER-1
 66
  1
 70
  1
 62
  0
 10
4.920837
 20
0.117494
 30
0.000000
  0
VERTEX
  8
LAYER-1
 10
4.920837
 20
0.117494
 30
0.000000
  0
VERTEX
  8
LAYER-1
 10
4.927782
 20
0.091452
 30
0.000000
  0
VERTEX
  8
LAYER-1
 10
4.952955
 20
0.105340
 30
0.000000
  0
SEQEND
  8
LAYER-1
  0
POLYLINE
  8
LAYER-1
 66
  1
 70
  1
 62
  0
 10
4.892625
 20
0.080599
 30
0.000000
  0
VERTEX
  8
LAYER-1
 10
4.892625
 20
0.080599
 30
0.000000
  0
VERTEX
  8
LAYER-1
 10
4.915194
 20
0.067579
 30
0.000000
  0
VERTEX
  8
LAYER-1
 10
4.894361
 20
0.097961
 30
0.000000
  0
SEQEND
  8
LAYER-1
  0
POLYLINE
  8
LAYER-1
 66
  1
 70
  0
 62
  0
 10
4.838373
 20
0.055858
 30
0.000000
  0
VERTEX
  8
LAYER-1
 10
4.838373
 20
0.055858
 30
0.000000
  0
VERTEX
  8
LAYER-1
 10
4.842713
 20
0.055858
 30
0.000000
  0
VERTEX
  8
LAYER-1
 10
4.846185
 20
0.060199
 30
0.000000
  0
VERTEX
  8
LAYER-1
 10
4.847054
 20
0.065407
 30
0.000000
  0
VERTEX
  8
LAYER-1
 10
4.845318
 20
0.069748
 30
0.000000
  0
VERTEX
  8
LAYER-1
 10
4.840977
 20
0.071483
 30
0.000000
  0
VERTEX
  8
LAYER-1
 10
4.836636
 20
0.071483
 30
0.000000
  0
VERTEX
  8
LAYER-1
 10
4.832296
 20
0.068012
 30
0.000000
  0
VERTEX
  8
LAYER-1
 10
4.832296
 20
0.063671
 30
0.000000
  0
VERTEX
  8
LAYER-1
 10
4.833165
 20
0.059330
 30
0.000000
  0
VERTEX
  8
LAYER-1
 10
4.837505
 20
0.056725
 30
0.000000
  0
SEQEND
  8
LAYER-1
  0
POLYLINE
  8
LAYER-1
 66
  1
 70
  1
 62
  0
 10
5.473960
 20
0.229611
 30
0.000000
  0
VERTEX
  8
LAYER-1
 10
5.473960
 20
0.229611
 30
0.000000
  0
VERTEX
  8
LAYER-1
 10
5.480904
 20
0.203570
 30
0.000000
  0
VERTEX
  8
LAYER-1
 10
5.506078
 20
0.217457
 30
0.000000
  0
SEQEND
  8
LAYER-1
  0
POLYLINE
  8
LAYER-1
 66
  1
 70
  1
 62
  0
 10
5.487069
 20
0.184471
 30
0.000000
  0
VERTEX
  8
LAYER-1
 10
5.487069
 20
0.184471
 30
0.000000
  0
VERTEX
  8
LAYER-1
 10
5.474047
 20
0.161901
 30
0.000000
  0
VERTEX
  8
LAYER-1
 10
5.504429
 20
0.182733
 30
0.000000
  0
SEQEND
  8
LAYER-1
  0
POLYLINE
  8
LAYER-1
 66
  1
 70
  1
 62
  0
 10
5.178562
 20
0.152995
 30
0.000000
  0
VERTEX
  8
LAYER-1
 10
5.178562
 20
0.152995
 30
0.000000
  0
VERTEX
  8
LAYER-1
 10
5.171619
 20
0.179035
 30
0.000000
  0
VERTEX
  8
LAYER-1
 10
5.146445
 20
0.165148
 30
0.000000
  0
SEQEND
  8
LAYER-1
  0
POLYLINE
  8
LAYER-1
 66
  1
 70
  1
 62
  0
 10
5.165454
 20
0.198134
 30
0.000000
  0
VERTEX
  8
LAYER-1
 10
5.165454
 20
0.198134
 30
0.000000
  0
VERTEX
  8
LAYER-1
 10
5.178476
 20
0.220704
 30
0.000000
  0
VERTEX
  8
LAYER-1
 10
5.148093
 20
0.199871
 30
0.000000
  0
SEQEND
  8
LAYER-1
  0
POLYLINE
  8
LAYER-1
 66
  1
 70
  1
 62
  0
 10
5.683336
 20
0.055166
 30
0.000000
  0
VERTEX
  8
LAYER-1
 10
5.683336
 20
0.055166
 30
0.000000
  0
VERTEX
  8
LAYER-1
 10
5.709376
 20
0.062111
 30
0.000000
  0
VERTEX
  8
LAYER-1
 10
5.695489
 20
0.087285
 30
0.000000
  0
SEQEND
  8
LAYER-1
  0
POLYLINE
  8
LAYER-1
 66
  1
 70
  1
 62
  0
 10
5.728475
 20
0.068274
 30
0.000000
  0
VERTEX
  8
LAYER-1
 10
5.728475
 20
0.068274
 30
0.000000
  0
VERTEX
  8
LAYER-1
 10
5.751045
 20
0.055254
 30
0.000000
  0
VERTEX
  8
LAYER-1
 10
5.730212
 20
0.085635
 30
0.000000
  0
SEQEND
  8
LAYER-1
  0
ARC
  8
LAYER-1
 62
  0
 10
5.466026
 20
8.908205
 30
0.000000
 40
0.254425
 50
270.000000
 51
90.000000
  0
POLYLINE
  8
LAYER-1
 66
  1
 70
  0
 62
  0
 10
5.466026
 20
9.162630
 30
0.000000
  0
VERTEX
  8
LAYER-1
 10
5.466026
 20
9.162630
 30
0.000000
  0
VERTEX
  8
LAYER-1
 10
1.801105
 20
9.162630
 30
0.000000
  0
SEQEND
  8
LAYER-1
  0
POLYLINE
  8
LAYER-1
 66
  1
 70
  0
 62
  0
 10
1.801105
 20
9.162630
 30
0.000000
  0
VERTEX
  8
LAYER-1
 10
1.801105
 20
9.162630
 30
0.000000
  0
VERTEX
  8
LAYER-1
 10
1.801105
 20
8.653781
 30
0.000000
  0
SEQEND
  8
LAYER-1
  0
POLYLINE
  8
LAYER-1
 66
  1
 70
  0
 62
  0
 10
5.466026
 20
8.653781
 30
0.000000
  0
VERTEX
  8
LAYER-1
 10
5.466026
 20
8.653781
 30
0.000000
  0
VERTEX
  8
LAYER-1
 10
1.801105
 20
8.653781
 30
0.000000
  0
SEQEND
  8
LAYER-1
  0
TEXT
  8
LAYER-1
 62
  0
 10
3.611636
 20
9.450740
 30
0.000000
 40
0.333333
  1
MobilFlex
 72
  5
 11
5.764414
 21
9.450740
 31
0.000000
  0
POLYLINE
  8
LAYER-1
 66
  1
 70
  1
 62
  0
  0
VERTEX
  8
LAYER-1
 10
1.802608
 20
9.970713
 30
0.000000
  0
VERTEX
  8
LAYER-1
 10
2.040456
 20
9.970713
 30
0.000000
  0
VERTEX
  8
LAYER-1
 10
2.040456
 20
9.453769
 30
0.000000
  0
VERTEX
  8
LAYER-1
 10
1.802608
 20
9.453769
 30
0.000000
  0
SEQEND
  8
LAYER-1
  0
POLYLINE
  8
LAYER-1
 66
  1
 70
  1
 62
  0
  0
VERTEX
  8
LAYER-1
 10
2.115108
 20
9.970713
 30
0.000000
  0
VERTEX
  8
LAYER-1
 10
2.352956
 20
9.970713
 30
0.000000
  0
VERTEX
  8
LAYER-1
 10
2.352956
 20
9.453769
 30
0.000000
  0
VERTEX
  8
LAYER-1
 10
2.115108
 20
9.453769
 30
0.000000
  0
SEQEND
  8
LAYER-1
  0
POLYLINE
  8
LAYER-1
 66
  1
 70
  1
 62
  0
  0
VERTEX
  8
LAYER-1
 10
2.415456
 20
9.970713
 30
0.000000
  0
VERTEX
  8
LAYER-1
 10
2.653303
 20
9.970713
 30
0.000000
  0
VERTEX
  8
LAYER-1
 10
2.653303
 20
9.453769
 30
0.000000
  0
VERTEX
  8
LAYER-1
 10
2.415456
 20
9.453769
 30
0.000000
  0
SEQEND
  8
LAYER-1
  0
POLYLINE
  8
LAYER-1
 66
  1
 70
  1
 62
  0
  0
VERTEX
  8
LAYER-1
 10
2.719275
 20
9.970713
 30
0.000000
  0
VERTEX
  8
LAYER-1
 10
2.957122
 20
9.970713
 30
0.000000
  0
VERTEX
  8
LAYER-1
 10
2.957122
 20
9.453769
 30
0.000000
  0
VERTEX
  8
LAYER-1
 10
2.719275
 20
9.453769
 30
0.000000
  0
SEQEND
  8
LAYER-1
  0
POLYLINE
  8
LAYER-1
 66
  1
 70
  1
 62
  0
  0
VERTEX
  8
LAYER-1
 10
3.036115
 20
9.966799
 30
0.000000
  0
VERTEX
  8
LAYER-1
 10
3.411549
 20
9.966799
 30
0.000000
  0
VERTEX
  8
LAYER-1
 10
3.411549
 20
9.828778
 30
0.000000
  0
VERTEX
  8
LAYER-1
 10
3.036115
 20
9.828778
 30
0.000000
  0
SEQEND
  8
LAYER-1
  0
POLYLINE
  8
LAYER-1
 66
  1
 70
  1
 62
  0
  0
VERTEX
  8
LAYER-1
 10
3.035681
 20
9.739368
 30
0.000000
  0
VERTEX
  8
LAYER-1
 10
3.343841
 20
9.739368
 30
0.000000
  0
VERTEX
  8
LAYER-1
 10
3.343841
 20
9.605253
 30
0.000000
  0
VERTEX
  8
LAYER-1
 10
3.035681
 20
9.605253
 30
0.000000
  0
SEQEND
  8
LAYER-1
  0
POLYLINE
  8
LAYER-1
 66
  1
 70
  1
 62
  0
  0
VERTEX
  8
LAYER-1
 10
1.802608
 20
9.369142
 30
0.000000
  0
VERTEX
  8
LAYER-1
 10
5.721011
 20
9.369142
 30
0.000000
  0
VERTEX
  8
LAYER-1
 10
5.721011
 20
9.325740
 30
0.000000
  0
VERTEX
  8
LAYER-1
 10
1.802608
 20
9.325740
 30
0.000000
  0
SEQEND
  8
LAYER-1
  0
POLYLINE
  8
LAYER-1
 66
  1
 70
  0
 62
  0
 10
5.773594
 20
7.413294
 30
0.000000
  0
VERTEX
  8
LAYER-1
 10
5.773594
 20
7.413294
 30
0.000000
  0
VERTEX
  8
LAYER-1
 10
1.754731
 20
7.413430
 30
0.000000
  0
VERTEX
  8
LAYER-1
 10
1.754731
 20
0.346217
 30
0.000000
  0
VERTEX
  8
LAYER-1
 10
5.773594
 20
0.346217
 30
0.000000
  0
VERTEX
  8
LAYER-1
 10
5.773594
 20
7.413430
 30
0.000000
  0
SEQEND
  8
LAYER-1
  0
POLYLINE
  8
LAYER-1
 66
  1
 70
  1
 62
  0
  0
VERTEX
  8
LAYER-1
 10
3.789743
 20
7.479853
 30
0.000000
  0
VERTEX
  8
LAYER-1
 10
3.814838
 20
7.479853
 30
0.000000
  0
VERTEX
  8
LAYER-1
 10
3.814838
 20
7.413535
 30
0.000000
  0
VERTEX
  8
LAYER-1
 10
3.789743
 20
7.413535
 30
0.000000
  0
SEQEND
  8
LAYER-1
  0
POLYLINE
  8
LAYER-1
 66
  1
 70
  1
 62
  0
  0
VERTEX
  8
LAYER-1
 10
1.827407
 20
7.413441
 30
0.000000
  0
VERTEX
  8
LAYER-1
 10
2.152040
 20
7.413441
 30
0.000000
  0
VERTEX
  8
LAYER-1
 10
2.152040
 20
7.143442
 30
0.000000
  0
VERTEX
  8
LAYER-1
 10
1.827407
 20
7.143442
 30
0.000000
  0
SEQEND
  8
LAYER-1
  0
POLYLINE
  8
LAYER-1
 66
  1
 70
  1
 62
  0
  0
VERTEX
  8
LAYER-1
 10
2.647531
 20
7.413441
 30
0.000000
  0
VERTEX
  8
LAYER-1
 10
2.972161
 20
7.413441
 30
0.000000
  0
VERTEX
  8
LAYER-1
 10
2.972161
 20
7.143442
 30
0.000000
  0
VERTEX
  8
LAYER-1
 10
2.647531
 20
7.143442
 30
0.000000
  0
SEQEND
  8
LAYER-1
  0
POLYLINE
  8
LAYER-1
 66
  1
 70
  0
 62
  0
 10
2.794423
 20
7.413516
 30
0.000000
  0
VERTEX
  8
LAYER-1
 10
2.794423
 20
7.413516
 30
0.000000
  0
VERTEX
  8
LAYER-1
 10
2.794423
 20
7.143985
 30
0.000000
  0
SEQEND
  8
LAYER-1
  0
POLYLINE
  8
LAYER-1
 66
  1
 70
  0
 62
  0
 10
2.831502
 20
7.413516
 30
0.000000
  0
VERTEX
  8
LAYER-1
 10
2.831502
 20
7.413516
 30
0.000000
  0
VERTEX
  8
LAYER-1
 10
2.831502
 20
7.143985
 30
0.000000
  0
SEQEND
  8
LAYER-1
  0
POLYLINE
  8
LAYER-1
 66
  1
 70
  0
 62
  0
 10
1.972756
 20
7.413516
 30
0.000000
  0
VERTEX
  8
LAYER-1
 10
1.972756
 20
7.413516
 30
0.000000
  0
VERTEX
  8
LAYER-1
 10
1.972756
 20
7.143985
 30
0.000000
  0
SEQEND
  8
LAYER-1
  0
POLYLINE
  8
LAYER-1
 66
  1
 70
  0
 62
  0
 10
2.011318
 20
7.413516
 30
0.000000
  0
VERTEX
  8
LAYER-1
 10
2.011318
 20
7.413516
 30
0.000000
  0
VERTEX
  8
LAYER-1
 10
2.011318
 20
7.143985
 30
0.000000
  0
SEQEND
  8
LAYER-1
  0
POLYLINE
  8
LAYER-1
 66
  1
 70
  1
 62
  0
  0
VERTEX
  8
LAYER-1
 10
2.168533
 20
7.419376
 30
0.000000
  0
VERTEX
  8
LAYER-1
 10
2.223409
 20
7.419376
 30
0.000000
  0
VERTEX
  8
LAYER-1
 10
2.223409
 20
7.413516
 30
0.000000
  0
VERTEX
  8
LAYER-1
 10
2.168533
 20
7.413516
 30
0.000000
  0
SEQEND
  8
LAYER-1
  0
POLYLINE
  8
LAYER-1
 66
  1
 70
  0
 62
  0
 10
2.177431
 20
7.346133
 30
0.000000
  0
VERTEX
  8
LAYER-1
 10
2.177431
 20
7.346133
 30
0.000000
  0
VERTEX
  8
LAYER-1
 10
2.213027
 20
7.346133
 30
0.000000
  0
SEQEND
  8
LAYER-1
  0
POLYLINE
  8
LAYER-1
 66
  1
 70
  0
 62
  0
 10
2.177431
 20
7.217228
 30
0.000000
  0
VERTEX
  8
LAYER-1
 10
2.177431
 20
7.217228
 30
0.000000
  0
VERTEX
  8
LAYER-1
 10
2.213027
 20
7.217228
 30
0.000000
  0
SEQEND
  8
LAYER-1
  0
POLYLINE
  8
LAYER-1
 66
  1
 70
  1
 62
  0
  0
VERTEX
  8
LAYER-1
 10
2.985747
 20
7.419376
 30
0.000000
  0
VERTEX
  8
LAYER-1
 10
3.040623
 20
7.419376
 30
0.000000
  0
VERTEX
  8
LAYER-1
 10
3.040623
 20
7.413516
 30
0.000000
  0
VERTEX
  8
LAYER-1
 10
2.985747
 20
7.413516
 30
0.000000
  0
SEQEND
  8
LAYER-1
  0
POLYLINE
  8
LAYER-1
 66
  1
 70
  0
 62
  0
 10
2.996130
 20
7.346133
 30
0.000000
  0
VERTEX
  8
LAYER-1
 10
2.996130
 20
7.346133
 30
0.000000
  0
VERTEX
  8
LAYER-1
 10
3.031725
 20
7.346133
 30
0.000000
  0
SEQEND
  8
LAYER-1
  0
POLYLINE
  8
LAYER-1
 66
  1
 70
  0
 62
  0
 10
2.996130
 20
7.217227
 30
0.000000
  0
VERTEX
  8
LAYER-1
 10
2.996130
 20
7.217227
 30
0.000000
  0
VERTEX
  8
LAYER-1
 10
3.031725
 20
7.217227
 30
0.000000
  0
SEQEND
  8
LAYER-1
  0
POLYLINE
  8
LAYER-1
 66
  1
 70
  0
 62
  0
 10
1.827407
 20
7.413441
 30
0.000000
  0
VERTEX
  8
LAYER-1
 10
1.827407
 20
7.413441
 30
0.000000
  0
VERTEX
  8
LAYER-1
 10
1.827407
 20
0.346650
 30
0.000000
  0
SEQEND
  8
LAYER-1
  0
POLYLINE
  8
LAYER-1
 66
  1
 70
  0
 62
  0
 10
2.152040
 20
7.413441
 30
0.000000
  0
VERTEX
  8
LAYER-1
 10
2.152040
 20
7.413441
 30
0.000000
  0
VERTEX
  8
LAYER-1
 10
2.152040
 20
0.346650
 30
0.000000
  0
SEQEND
  8
LAYER-1
  0
POLYLINE
  8
LAYER-1
 66
  1
 70
  0
 62
  0
 10
2.237469
 20
7.413441
 30
0.000000
  0
VERTEX
  8
LAYER-1
 10
2.237469
 20
7.413441
 30
0.000000
  0
VERTEX
  8
LAYER-1
 10
2.237469
 20
0.346650
 30
0.000000
  0
SEQEND
  8
LAYER-1
  0
POLYLINE
  8
LAYER-1
 66
  1
 70
  0
 62
  0
 10
2.177431
 20
7.413441
 30
0.000000
  0
VERTEX
  8
LAYER-1
 10
2.177431
 20
7.413441
 30
0.000000
  0
VERTEX
  8
LAYER-1
 10
2.177431
 20
0.346650
 30
0.000000
  0
SEQEND
  8
LAYER-1
  0
POLYLINE
  8
LAYER-1
 66
  1
 70
  0
 62
  0
 10
2.213027
 20
7.413441
 30
0.000000
  0
VERTEX
  8
LAYER-1
 10
2.213027
 20
7.413441
 30
0.000000
  0
VERTEX
  8
LAYER-1
 10
2.213027
 20
0.346650
 30
0.000000
  0
SEQEND
  8
LAYER-1
  0
POLYLINE
  8
LAYER-1
 66
  1
 70
  1
 62
  0
  0
VERTEX
  8
LAYER-1
 10
2.167049
 20
0.346725
 30
0.000000
  0
VERTEX
  8
LAYER-1
 10
2.221925
 20
0.346725
 30
0.000000
  0
VERTEX
  8
LAYER-1
 10
2.221925
 20
0.340866
 30
0.000000
  0
VERTEX
  8
LAYER-1
 10
2.167049
 20
0.340866
 30
0.000000
  0
SEQEND
  8
LAYER-1
  0
POLYLINE
  8
LAYER-1
 66
  1
 70
  0
 62
  0
 10
2.213027
 20
0.419968
 30
0.000000
  0
VERTEX
  8
LAYER-1
 10
2.213027
 20
0.419968
 30
0.000000
  0
VERTEX
  8
LAYER-1
 10
2.177431
 20
0.419968
 30
0.000000
  0
SEQEND
  8
LAYER-1
  0
POLYLINE
  8
LAYER-1
 66
  1
 70
  0
 62
  0
 10
2.213027
 20
0.548874
 30
0.000000
  0
VERTEX
  8
LAYER-1
 10
2.213027
 20
0.548874
 30
0.000000
  0
VERTEX
  8
LAYER-1
 10
2.177431
 20
0.548874
 30
0.000000
  0
SEQEND
  8
LAYER-1
  0
POLYLINE
  8
LAYER-1
 66
  1
 70
  0
 62
  0
 10
2.177431
 20
0.623858
 30
0.000000
  0
VERTEX
  8
LAYER-1
 10
2.177431
 20
0.623858
 30
0.000000
  0
VERTEX
  8
LAYER-1
 10
2.213027
 20
0.623858
 30
0.000000
  0
SEQEND
  8
LAYER-1
  0
POLYLINE
  8
LAYER-1
 66
  1
 70
  0
 62
  0
 10
2.177431
 20
1.470538
 30
0.000000
  0
VERTEX
  8
LAYER-1
 10
2.177431
 20
1.470538
 30
0.000000
  0
VERTEX
  8
LAYER-1
 10
2.213027
 20
1.470538
 30
0.000000
  0
SEQEND
  8
LAYER-1
  0
POLYLINE
  8
LAYER-1
 66
  1
 70
  0
 62
  0
 10
2.177431
 20
2.308427
 30
0.000000
  0
VERTEX
  8
LAYER-1
 10
2.177431
 20
2.308427
 30
0.000000
  0
VERTEX
  8
LAYER-1
 10
2.213027
 20
2.308427
 30
0.000000
  0
SEQEND
  8
LAYER-1
  0
POLYLINE
  8
LAYER-1
 66
  1
 70
  0
 62
  0
 10
2.177431
 20
3.158029
 30
0.000000
  0
VERTEX
  8
LAYER-1
 10
2.177431
 20
3.158029
 30
0.000000
  0
VERTEX
  8
LAYER-1
 10
2.213027
 20
3.158029
 30
0.000000
  0
SEQEND
  8
LAYER-1
  0
POLYLINE
  8
LAYER-1
 66
  1
 70
  0
 62
  0
 10
2.213027
 20
4.000315
 30
0.000000
  0
VERTEX
  8
LAYER-1
 10
2.213027
 20
4.000315
 30
0.000000
  0
VERTEX
  8
LAYER-1
 10
2.177431
 20
4.000315
 30
0.000000
  0
SEQEND
  8
LAYER-1
  0
POLYLINE
  8
LAYER-1
 66
  1
 70
  0
 62
  0
 10
2.562102
 20
7.413441
 30
0.000000
  0
VERTEX
  8
LAYER-1
 10
2.562102
 20
7.413441
 30
0.000000
  0
VERTEX
  8
LAYER-1
 10
2.562102
 20
0.346650
 30
0.000000
  0
SEQEND
  8
LAYER-1
  0
POLYLINE
  8
LAYER-1
 66
  1
 70
  0
 62
  0
 10
2.647531
 20
7.413441
 30
0.000000
  0
VERTEX
  8
LAYER-1
 10
2.647531
 20
7.413441
 30
0.000000
  0
VERTEX
  8
LAYER-1
 10
2.647531
 20
0.346650
 30
0.000000
  0
SEQEND
  8
LAYER-1
  0
POLYLINE
  8
LAYER-1
 66
  1
 70
  0
 62
  0
 10
2.972161
 20
7.413441
 30
0.000000
  0
VERTEX
  8
LAYER-1
 10
2.972161
 20
7.413441
 30
0.000000
  0
VERTEX
  8
LAYER-1
 10
2.972161
 20
0.346650
 30
0.000000
  0
SEQEND
  8
LAYER-1
  0
POLYLINE
  8
LAYER-1
 66
  1
 70
  0
 62
  0
 10
3.057591
 20
7.413441
 30
0.000000
  0
VERTEX
  8
LAYER-1
 10
3.057591
 20
7.413441
 30
0.000000
  0
VERTEX
  8
LAYER-1
 10
3.057591
 20
0.346650
 30
0.000000
  0
SEQEND
  8
LAYER-1
  0
POLYLINE
  8
LAYER-1
 66
  1
 70
  0
 62
  0
 10
3.382222
 20
7.413441
 30
0.000000
  0
VERTEX
  8
LAYER-1
 10
3.382222
 20
7.413441
 30
0.000000
  0
VERTEX
  8
LAYER-1
 10
3.382222
 20
0.346650
 30
0.000000
  0
SEQEND
  8
LAYER-1
  0
POLYLINE
  8
LAYER-1
 66
  1
 70
  0
 62
  0
 10
3.464803
 20
7.413441
 30
0.000000
  0
VERTEX
  8
LAYER-1
 10
3.464803
 20
7.413441
 30
0.000000
  0
VERTEX
  8
LAYER-1
 10
3.464803
 20
0.346650
 30
0.000000
  0
SEQEND
  8
LAYER-1
  0
POLYLINE
  8
LAYER-1
 66
  1
 70
  0
 62
  0
 10
1.791812
 20
7.413441
 30
0.000000
  0
VERTEX
  8
LAYER-1
 10
1.791812
 20
7.413441
 30
0.000000
  0
VERTEX
  8
LAYER-1
 10
1.791812
 20
0.346650
 30
0.000000
  0
SEQEND
  8
LAYER-1
  0
POLYLINE
  8
LAYER-1
 66
  1
 70
  0
 62
  0
 10
2.604579
 20
7.413441
 30
0.000000
  0
VERTEX
  8
LAYER-1
 10
2.604579
 20
7.413441
 30
0.000000
  0
VERTEX
  8
LAYER-1
 10
2.604579
 20
0.346650
 30
0.000000
  0
SEQEND
  8
LAYER-1
  0
POLYLINE
  8
LAYER-1
 66
  1
 70
  0
 62
  0
 10
2.996130
 20
7.413441
 30
0.000000
  0
VERTEX
  8
LAYER-1
 10
2.996130
 20
7.413441
 30
0.000000
  0
VERTEX
  8
LAYER-1
 10
2.996130
 20
0.346650
 30
0.000000
  0
SEQEND
  8
LAYER-1
  0
POLYLINE
  8
LAYER-1
 66
  1
 70
  0
 62
  0
 10
3.031725
 20
7.413441
 30
0.000000
  0
VERTEX
  8
LAYER-1
 10
3.031725
 20
7.413441
 30
0.000000
  0
VERTEX
  8
LAYER-1
 10
3.031725
 20
0.346650
 30
0.000000
  0
SEQEND
  8
LAYER-1
  0
POLYLINE
  8
LAYER-1
 66
  1
 70
  0
 62
  0
 10
3.423277
 20
7.413441
 30
0.000000
  0
VERTEX
  8
LAYER-1
 10
3.423277
 20
7.413441
 30
0.000000
  0
VERTEX
  8
LAYER-1
 10
3.423277
 20
0.346650
 30
0.000000
  0
SEQEND
  8
LAYER-1
  0
POLYLINE
  8
LAYER-1
 66
  1
 70
  1
 62
  0
  0
VERTEX
  8
LAYER-1
 10
2.984262
 20
0.346725
 30
0.000000
  0
VERTEX
  8
LAYER-1
 10
3.039140
 20
0.346725
 30
0.000000
  0
VERTEX
  8
LAYER-1
 10
3.039140
 20
0.340866
 30
0.000000
  0
VERTEX
  8
LAYER-1
 10
2.984262
 20
0.340866
 30
0.000000
  0
SEQEND
  8
LAYER-1
  0
POLYLINE
  8
LAYER-1
 66
  1
 70
  0
 62
  0
 10
3.031725
 20
0.419968
 30
0.000000
  0
VERTEX
  8
LAYER-1
 10
3.031725
 20
0.419968
 30
0.000000
  0
VERTEX
  8
LAYER-1
 10
2.996130
 20
0.419968
 30
0.000000
  0
SEQEND
  8
LAYER-1
  0
POLYLINE
  8
LAYER-1
 66
  1
 70
  0
 62
  0
 10
3.031725
 20
0.548874
 30
0.000000
  0
VERTEX
  8
LAYER-1
 10
3.031725
 20
0.548874
 30
0.000000
  0
VERTEX
  8
LAYER-1
 10
2.996130
 20
0.548874
 30
0.000000
  0
SEQEND
  8
LAYER-1
  0
POLYLINE
  8
LAYER-1
 66
  1
 70
  0
 62
  0
 10
2.996130
 20
0.623858
 30
0.000000
  0
VERTEX
  8
LAYER-1
 10
2.996130
 20
0.623858
 30
0.000000
  0
VERTEX
  8
LAYER-1
 10
3.031725
 20
0.623858
 30
0.000000
  0
SEQEND
  8
LAYER-1
  0
POLYLINE
  8
LAYER-1
 66
  1
 70
  0
 62
  0
 10
2.996130
 20
1.470538
 30
0.000000
  0
VERTEX
  8
LAYER-1
 10
2.996130
 20
1.470538
 30
0.000000
  0
VERTEX
  8
LAYER-1
 10
3.031725
 20
1.470538
 30
0.000000
  0
SEQEND
  8
LAYER-1
  0
POLYLINE
  8
LAYER-1
 66
  1
 70
  0
 62
  0
 10
2.996130
 20
2.308427
 30
0.000000
  0
VERTEX
  8
LAYER-1
 10
2.996130
 20
2.308427
 30
0.000000
  0
VERTEX
  8
LAYER-1
 10
3.031725
 20
2.308427
 30
0.000000
  0
SEQEND
  8
LAYER-1
  0
POLYLINE
  8
LAYER-1
 66
  1
 70
  0
 62
  0
 10
2.996130
 20
3.158029
 30
0.000000
  0
VERTEX
  8
LAYER-1
 10
2.996130
 20
3.158029
 30
0.000000
  0
VERTEX
  8
LAYER-1
 10
3.031725
 20
3.158029
 30
0.000000
  0
SEQEND
  8
LAYER-1
  0
POLYLINE
  8
LAYER-1
 66
  1
 70
  0
 62
  0
 10
3.031725
 20
4.000315
 30
0.000000
  0
VERTEX
  8
LAYER-1
 10
3.031725
 20
4.000315
 30
0.000000
  0
VERTEX
  8
LAYER-1
 10
2.996130
 20
4.000315
 30
0.000000
  0
SEQEND
  8
LAYER-1
  0
POLYLINE
  8
LAYER-1
 66
  1
 70
  0
 62
  0
 10
2.178083
 20
4.851316
 30
0.000000
  0
VERTEX
  8
LAYER-1
 10
2.178083
 20
4.851316
 30
0.000000
  0
VERTEX
  8
LAYER-1
 10
2.213679
 20
4.851316
 30
0.000000
  0
SEQEND
  8
LAYER-1
  0
POLYLINE
  8
LAYER-1
 66
  1
 70
  0
 62
  0
 10
2.178083
 20
5.695065
 30
0.000000
  0
VERTEX
  8
LAYER-1
 10
2.178083
 20
5.695065
 30
0.000000
  0
VERTEX
  8
LAYER-1
 10
2.213679
 20
5.695065
 30
0.000000
  0
SEQEND
  8
LAYER-1
  0
POLYLINE
  8
LAYER-1
 66
  1
 70
  0
 62
  0
 10
2.178083
 20
6.540284
 30
0.000000
  0
VERTEX
  8
LAYER-1
 10
2.178083
 20
6.540284
 30
0.000000
  0
VERTEX
  8
LAYER-1
 10
2.213679
 20
6.540284
 30
0.000000
  0
SEQEND
  8
LAYER-1
  0
POLYLINE
  8
LAYER-1
 66
  1
 70
  0
 62
  0
 10
2.995953
 20
6.540284
 30
0.000000
  0
VERTEX
  8
LAYER-1
 10
2.995953
 20
6.540284
 30
0.000000
  0
VERTEX
  8
LAYER-1
 10
3.031548
 20
6.540284
 30
0.000000
  0
SEQEND
  8
LAYER-1
  0
POLYLINE
  8
LAYER-1
 66
  1
 70
  0
 62
  0
 10
3.644087
 20
6.540208
 30
0.000000
  0
VERTEX
  8
LAYER-1
 10
3.644087
 20
6.540208
 30
0.000000
  0
VERTEX
  8
LAYER-1
 10
3.679681
 20
6.540208
 30
0.000000
  0
SEQEND
  8
LAYER-1
  0
POLYLINE
  8
LAYER-1
 66
  1
 70
  0
 62
  0
 10
5.350243
 20
6.540284
 30
0.000000
  0
VERTEX
  8
LAYER-1
 10
5.350243
 20
6.540284
 30
0.000000
  0
VERTEX
  8
LAYER-1
 10
5.314648
 20
6.540284
 30
0.000000
  0
SEQEND
  8
LAYER-1
  0
POLYLINE
  8
LAYER-1
 66
  1
 70
  0
 62
  0
 10
4.532368
 20
6.540284
 30
0.000000
  0
VERTEX
  8
LAYER-1
 10
4.532368
 20
6.540284
 30
0.000000
  0
VERTEX
  8
LAYER-1
 10
4.496777
 20
6.540284
 30
0.000000
  0
SEQEND
  8
LAYER-1
  0
POLYLINE
  8
LAYER-1
 66
  1
 70
  0
 62
  0
 10
3.884230
 20
6.540208
 30
0.000000
  0
VERTEX
  8
LAYER-1
 10
3.884230
 20
6.540208
 30
0.000000
  0
VERTEX
  8
LAYER-1
 10
3.848638
 20
6.540208
 30
0.000000
  0
SEQEND
  8
LAYER-1
  0
POLYLINE
  8
LAYER-1
 66
  1
 70
  0
 62
  0
 10
2.995953
 20
4.851316
 30
0.000000
  0
VERTEX
  8
LAYER-1
 10
2.995953
 20
4.851316
 30
0.000000
  0
VERTEX
  8
LAYER-1
 10
3.031548
 20
4.851316
 30
0.000000
  0
SEQEND
  8
LAYER-1
  0
POLYLINE
  8
LAYER-1
 66
  1
 70
  0
 62
  0
 10
2.995953
 20
5.695065
 30
0.000000
  0
VERTEX
  8
LAYER-1
 10
2.995953
 20
5.695065
 30
0.000000
  0
VERTEX
  8
LAYER-1
 10
3.031548
 20
5.695065
 30
0.000000
  0
SEQEND
  8
LAYER-1
  0
POLYLINE
  8
LAYER-1
 66
  1
 70
  1
 62
  0
  0
VERTEX
  8
LAYER-1
 10
3.633881
 20
7.419300
 30
0.000000
  0
VERTEX
  8
LAYER-1
 10
3.688758
 20
7.419300
 30
0.000000
  0
VERTEX
  8
LAYER-1
 10
3.688758
 20
7.413439
 30
0.000000
  0
VERTEX
  8
LAYER-1
 10
3.633881
 20
7.413439
 30
0.000000
  0
SEQEND
  8
LAYER-1
  0
POLYLINE
  8
LAYER-1
 66
  1
 70
  0
 62
  0
 10
3.644264
 20
7.346057
 30
0.000000
  0
VERTEX
  8
LAYER-1
 10
3.644264
 20
7.346057
 30
0.000000
  0
VERTEX
  8
LAYER-1
 10
3.679858
 20
7.346057
 30
0.000000
  0
SEQEND
  8
LAYER-1
  0
POLYLINE
  8
LAYER-1
 66
  1
 70
  0
 62
  0
 10
3.644264
 20
7.217150
 30
0.000000
  0
VERTEX
  8
LAYER-1
 10
3.644264
 20
7.217150
 30
0.000000
  0
VERTEX
  8
LAYER-1
 10
3.679858
 20
7.217150
 30
0.000000
  0
SEQEND
  8
LAYER-1
  0
POLYLINE
  8
LAYER-1
 66
  1
 70
  0
 62
  0
 10
3.644264
 20
7.413365
 30
0.000000
  0
VERTEX
  8
LAYER-1
 10
3.644264
 20
7.413365
 30
0.000000
  0
VERTEX
  8
LAYER-1
 10
3.644264
 20
0.346650
 30
0.000000
  0
SEQEND
  8
LAYER-1
  0
POLYLINE
  8
LAYER-1
 66
  1
 70
  0
 62
  0
 10
3.679858
 20
0.419891
 30
0.000000
  0
VERTEX
  8
LAYER-1
 10
3.679858
 20
0.419891
 30
0.000000
  0
VERTEX
  8
LAYER-1
 10
3.644264
 20
0.419891
 30
0.000000
  0
SEQEND
  8
LAYER-1
  0
POLYLINE
  8
LAYER-1
 66
  1
 70
  0
 62
  0
 10
3.679858
 20
0.548797
 30
0.000000
  0
VERTEX
  8
LAYER-1
 10
3.679858
 20
0.548797
 30
0.000000
  0
VERTEX
  8
LAYER-1
 10
3.644264
 20
0.548797
 30
0.000000
  0
SEQEND
  8
LAYER-1
  0
POLYLINE
  8
LAYER-1
 66
  1
 70
  0
 62
  0
 10
3.644264
 20
0.623779
 30
0.000000
  0
VERTEX
  8
LAYER-1
 10
3.644264
 20
0.623779
 30
0.000000
  0
VERTEX
  8
LAYER-1
 10
3.679860
 20
0.623779
 30
0.000000
  0
SEQEND
  8
LAYER-1
  0
POLYLINE
  8
LAYER-1
 66
  1
 70
  0
 62
  0
 10
3.644264
 20
1.470462
 30
0.000000
  0
VERTEX
  8
LAYER-1
 10
3.644264
 20
1.470462
 30
0.000000
  0
VERTEX
  8
LAYER-1
 10
3.679860
 20
1.470462
 30
0.000000
  0
SEQEND
  8
LAYER-1
  0
POLYLINE
  8
LAYER-1
 66
  1
 70
  0
 62
  0
 10
3.644264
 20
2.308350
 30
0.000000
  0
VERTEX
  8
LAYER-1
 10
3.644264
 20
2.308350
 30
0.000000
  0
VERTEX
  8
LAYER-1
 10
3.679860
 20
2.308350
 30
0.000000
  0
SEQEND
  8
LAYER-1
  0
POLYLINE
  8
LAYER-1
 66
  1
 70
  0
 62
  0
 10
3.644264
 20
3.157954
 30
0.000000
  0
VERTEX
  8
LAYER-1
 10
3.644264
 20
3.157954
 30
0.000000
  0
VERTEX
  8
LAYER-1
 10
3.679860
 20
3.157954
 30
0.000000
  0
SEQEND
  8
LAYER-1
  0
POLYLINE
  8
LAYER-1
 66
  1
 70
  0
 62
  0
 10
3.679860
 20
4.000239
 30
0.000000
  0
VERTEX
  8
LAYER-1
 10
3.679860
 20
4.000239
 30
0.000000
  0
VERTEX
  8
LAYER-1
 10
3.644264
 20
4.000239
 30
0.000000
  0
SEQEND
  8
LAYER-1
  0
POLYLINE
  8
LAYER-1
 66
  1
 70
  0
 62
  0
 10
3.644087
 20
4.851240
 30
0.000000
  0
VERTEX
  8
LAYER-1
 10
3.644087
 20
4.851240
 30
0.000000
  0
VERTEX
  8
LAYER-1
 10
3.679681
 20
4.851240
 30
0.000000
  0
SEQEND
  8
LAYER-1
  0
POLYLINE
  8
LAYER-1
 66
  1
 70
  0
 62
  0
 10
3.644087
 20
5.694989
 30
0.000000
  0
VERTEX
  8
LAYER-1
 10
3.644087
 20
5.694989
 30
0.000000
  0
VERTEX
  8
LAYER-1
 10
3.679681
 20
5.694989
 30
0.000000
  0
SEQEND
  8
LAYER-1
  0
POLYLINE
  8
LAYER-1
 66
  1
 70
  1
 62
  0
  0
VERTEX
  8
LAYER-1
 10
3.632401
 20
0.346650
 30
0.000000
  0
VERTEX
  8
LAYER-1
 10
3.687275
 20
0.346650
 30
0.000000
  0
VERTEX
  8
LAYER-1
 10
3.687275
 20
0.340791
 30
0.000000
  0
VERTEX
  8
LAYER-1
 10
3.632401
 20
0.340791
 30
0.000000
  0
SEQEND
  8
LAYER-1
  0
POLYLINE
  8
LAYER-1
 66
  1
 70
  1
 62
  0
  0
VERTEX
  8
LAYER-1
 10
3.678791
 20
7.413441
 30
0.000000
  0
VERTEX
  8
LAYER-1
 10
3.848465
 20
7.413441
 30
0.000000
  0
VERTEX
  8
LAYER-1
 10
3.848465
 20
0.346458
 30
0.000000
  0
VERTEX
  8
LAYER-1
 10
3.678791
 20
0.346458
 30
0.000000
  0
SEQEND
  8
LAYER-1
  0
POLYLINE
  8
LAYER-1
 66
  1
 70
  1
 62
  0
  0
VERTEX
  8
LAYER-1
 10
5.376286
 20
7.413440
 30
0.000000
  0
VERTEX
  8
LAYER-1
 10
5.700918
 20
7.413440
 30
0.000000
  0
VERTEX
  8
LAYER-1
 10
5.700918
 20
7.143441
 30
0.000000
  0
VERTEX
  8
LAYER-1
 10
5.376286
 20
7.143441
 30
0.000000
  0
SEQEND
  8
LAYER-1
  0
POLYLINE
  8
LAYER-1
 66
  1
 70
  1
 62
  0
  0
VERTEX
  8
LAYER-1
 10
4.556162
 20
7.413440
 30
0.000000
  0
VERTEX
  8
LAYER-1
 10
4.880793
 20
7.413440
 30
0.000000
  0
VERTEX
  8
LAYER-1
 10
4.880793
 20
7.143441
 30
0.000000
  0
VERTEX
  8
LAYER-1
 10
4.556162
 20
7.143441
 30
0.000000
  0
SEQEND
  8
LAYER-1
  0
POLYLINE
  8
LAYER-1
 66
  1
 70
  0
 62
  0
 10
4.733902
 20
7.413515
 30
0.000000
  0
VERTEX
  8
LAYER-1
 10
4.733902
 20
7.413515
 30
0.000000
  0
VERTEX
  8
LAYER-1
 10
4.733902
 20
7.143984
 30
0.000000
  0
SEQEND
  8
LAYER-1
  0
POLYLINE
  8
LAYER-1
 66
  1
 70
  0
 62
  0
 10
4.696826
 20
7.413515
 30
0.000000
  0
VERTEX
  8
LAYER-1
 10
4.696826
 20
7.413515
 30
0.000000
  0
VERTEX
  8
LAYER-1
 10
4.696826
 20
7.143984
 30
0.000000
  0
SEQEND
  8
LAYER-1
  0
POLYLINE
  8
LAYER-1
 66
  1
 70
  0
 62
  0
 10
5.555570
 20
7.413515
 30
0.000000
  0
VERTEX
  8
LAYER-1
 10
5.555570
 20
7.413515
 30
0.000000
  0
VERTEX
  8
LAYER-1
 10
5.555570
 20
7.143984
 30
0.000000
  0
SEQEND
  8
LAYER-1
  0
POLYLINE
  8
LAYER-1
 66
  1
 70
  0
 62
  0
 10
5.517009
 20
7.413515
 30
0.000000
  0
VERTEX
  8
LAYER-1
 10
5.517009
 20
7.413515
 30
0.000000
  0
VERTEX
  8
LAYER-1
 10
5.517009
 20
7.143984
 30
0.000000
  0
SEQEND
  8
LAYER-1
  0
POLYLINE
  8
LAYER-1
 66
  1
 70
  1
 62
  0
  0
VERTEX
  8
LAYER-1
 10
5.304916
 20
7.419376
 30
0.000000
  0
VERTEX
  8
LAYER-1
 10
5.359791
 20
7.419376
 30
0.000000
  0
VERTEX
  8
LAYER-1
 10
5.359791
 20
7.413515
 30
0.000000
  0
VERTEX
  8
LAYER-1
 10
5.304916
 20
7.413515
 30
0.000000
  0
SEQEND
  8
LAYER-1
  0
POLYLINE
  8
LAYER-1
 66
  1
 70
  0
 62
  0
 10
5.350897
 20
7.346133
 30
0.000000
  0
VERTEX
  8
LAYER-1
 10
5.350897
 20
7.346133
 30
0.000000
  0
VERTEX
  8
LAYER-1
 10
5.315299
 20
7.346133
 30
0.000000
  0
SEQEND
  8
LAYER-1
  0
POLYLINE
  8
LAYER-1
 66
  1
 70
  0
 62
  0
 10
5.350897
 20
7.217228
 30
0.000000
  0
VERTEX
  8
LAYER-1
 10
5.350897
 20
7.217228
 30
0.000000
  0
VERTEX
  8
LAYER-1
 10
5.315299
 20
7.217228
 30
0.000000
  0
SEQEND
  8
LAYER-1
  0
POLYLINE
  8
LAYER-1
 66
  1
 70
  1
 62
  0
  0
VERTEX
  8
LAYER-1
 10
4.487698
 20
7.419376
 30
0.000000
  0
VERTEX
  8
LAYER-1
 10
4.542577
 20
7.419376
 30
0.000000
  0
VERTEX
  8
LAYER-1
 10
4.542577
 20
7.413515
 30
0.000000
  0
VERTEX
  8
LAYER-1
 10
4.487698
 20
7.413515
 30
0.000000
  0
SEQEND
  8
LAYER-1
  0
POLYLINE
  8
LAYER-1
 66
  1
 70
  0
 62
  0
 10
4.532191
 20
7.346133
 30
0.000000
  0
VERTEX
  8
LAYER-1
 10
4.532191
 20
7.346133
 30
0.000000
  0
VERTEX
  8
LAYER-1
 10
4.496600
 20
7.346133
 30
0.000000
  0
SEQEND
  8
LAYER-1
  0
POLYLINE
  8
LAYER-1
 66
  1
 70
  0
 62
  0
 10
4.532191
 20
7.217226
 30
0.000000
  0
VERTEX
  8
LAYER-1
 10
4.532191
 20
7.217226
 30
0.000000
  0
VERTEX
  8
LAYER-1
 10
4.496600
 20
7.217226
 30
0.000000
  0
SEQEND
  8
LAYER-1
  0
POLYLINE
  8
LAYER-1
 66
  1
 70
  0
 62
  0
 10
5.700918
 20
7.413440
 30
0.000000
  0
VERTEX
  8
LAYER-1
 10
5.700918
 20
7.413440
 30
0.000000
  0
VERTEX
  8
LAYER-1
 10
5.700918
 20
0.346650
 30
0.000000
  0
SEQEND
  8
LAYER-1
  0
POLYLINE
  8
LAYER-1
 66
  1
 70
  0
 62
  0
 10
5.376286
 20
7.413440
 30
0.000000
  0
VERTEX
  8
LAYER-1
 10
5.376286
 20
7.413440
 30
0.000000
  0
VERTEX
  8
LAYER-1
 10
5.376286
 20
0.346650
 30
0.000000
  0
SEQEND
  8
LAYER-1
  0
POLYLINE
  8
LAYER-1
 66
  1
 70
  0
 62
  0
 10
5.290855
 20
7.413440
 30
0.000000
  0
VERTEX
  8
LAYER-1
 10
5.290855
 20
7.413440
 30
0.000000
  0
VERTEX
  8
LAYER-1
 10
5.290855
 20
0.346650
 30
0.000000
  0
SEQEND
  8
LAYER-1
  0
POLYLINE
  8
LAYER-1
 66
  1
 70
  0
 62
  0
 10
5.350897
 20
7.413440
 30
0.000000
  0
VERTEX
  8
LAYER-1
 10
5.350897
 20
7.413440
 30
0.000000
  0
VERTEX
  8
LAYER-1
 10
5.350897
 20
0.346650
 30
0.000000
  0
SEQEND
  8
LAYER-1
  0
POLYLINE
  8
LAYER-1
 66
  1
 70
  0
 62
  0
 10
5.315299
 20
7.413440
 30
0.000000
  0
VERTEX
  8
LAYER-1
 10
5.315299
 20
7.413440
 30
0.000000
  0
VERTEX
  8
LAYER-1
 10
5.315299
 20
0.346650
 30
0.000000
  0
SEQEND
  8
LAYER-1
  0
POLYLINE
  8
LAYER-1
 66
  1
 70
  1
 62
  0
  0
VERTEX
  8
LAYER-1
 10
5.306401
 20
0.346725
 30
0.000000
  0
VERTEX
  8
LAYER-1
 10
5.361276
 20
0.346725
 30
0.000000
  0
VERTEX
  8
LAYER-1
 10
5.361276
 20
0.340866
 30
0.000000
  0
VERTEX
  8
LAYER-1
 10
5.306401
 20
0.340866
 30
0.000000
  0
SEQEND
  8
LAYER-1
  0
POLYLINE
  8
LAYER-1
 66
  1
 70
  0
 62
  0
 10
5.315299
 20
0.419968
 30
0.000000
  0
VERTEX
  8
LAYER-1
 10
5.315299
 20
0.419968
 30
0.000000
  0
VERTEX
  8
LAYER-1
 10
5.350897
 20
0.419968
 30
0.000000
  0
SEQEND
  8
LAYER-1
  0
POLYLINE
  8
LAYER-1
 66
  1
 70
  0
 62
  0
 10
5.315299
 20
0.548874
 30
0.000000
  0
VERTEX
  8
LAYER-1
 10
5.315299
 20
0.548874
 30
0.000000
  0
VERTEX
  8
LAYER-1
 10
5.350897
 20
0.548874
 30
0.000000
  0
SEQEND
  8
LAYER-1
  0
POLYLINE
  8
LAYER-1
 66
  1
 70
  0
 62
  0
 10
5.350897
 20
0.623858
 30
0.000000
  0
VERTEX
  8
LAYER-1
 10
5.350897
 20
0.623858
 30
0.000000
  0
VERTEX
  8
LAYER-1
 10
5.315299
 20
0.623858
 30
0.000000
  0
SEQEND
  8
LAYER-1
  0
POLYLINE
  8
LAYER-1
 66
  1
 70
  0
 62
  0
 10
5.350897
 20
1.470538
 30
0.000000
  0
VERTEX
  8
LAYER-1
 10
5.350897
 20
1.470538
 30
0.000000
  0
VERTEX
  8
LAYER-1
 10
5.315299
 20
1.470538
 30
0.000000
  0
SEQEND
  8
LAYER-1
  0
POLYLINE
  8
LAYER-1
 66
  1
 70
  0
 62
  0
 10
5.350897
 20
2.308427
 30
0.000000
  0
VERTEX
  8
LAYER-1
 10
5.350897
 20
2.308427
 30
0.000000
  0
VERTEX
  8
LAYER-1
 10
5.315299
 20
2.308427
 30
0.000000
  0
SEQEND
  8
LAYER-1
  0
POLYLINE
  8
LAYER-1
 66
  1
 70
  0
 62
  0
 10
5.350897
 20
3.158029
 30
0.000000
  0
VERTEX
  8
LAYER-1
 10
5.350897
 20
3.158029
 30
0.000000
  0
VERTEX
  8
LAYER-1
 10
5.315299
 20
3.158029
 30
0.000000
  0
SEQEND
  8
LAYER-1
  0
POLYLINE
  8
LAYER-1
 66
  1
 70
  0
 62
  0
 10
5.315299
 20
4.000315
 30
0.000000
  0
VERTEX
  8
LAYER-1
 10
5.315299
 20
4.000315
 30
0.000000
  0
VERTEX
  8
LAYER-1
 10
5.350897
 20
4.000315
 30
0.000000
  0
SEQEND
  8
LAYER-1
  0
POLYLINE
  8
LAYER-1
 66
  1
 70
  0
 62
  0
 10
4.966223
 20
7.413440
 30
0.000000
  0
VERTEX
  8
LAYER-1
 10
4.966223
 20
7.413440
 30
0.000000
  0
VERTEX
  8
LAYER-1
 10
4.966223
 20
0.346650
 30
0.000000
  0
SEQEND
  8
LAYER-1
  0
POLYLINE
  8
LAYER-1
 66
  1
 70
  0
 62
  0
 10
4.880793
 20
7.413440
 30
0.000000
  0
VERTEX
  8
LAYER-1
 10
4.880793
 20
7.413440
 30
0.000000
  0
VERTEX
  8
LAYER-1
 10
4.880793
 20
0.346650
 30
0.000000
  0
SEQEND
  8
LAYER-1
  0
POLYLINE
  8
LAYER-1
 66
  1
 70
  0
 62
  0
 10
4.556162
 20
7.413440
 30
0.000000
  0
VERTEX
  8
LAYER-1
 10
4.556162
 20
7.413440
 30
0.000000
  0
VERTEX
  8
LAYER-1
 10
4.556162
 20
0.346650
 30
0.000000
  0
SEQEND
  8
LAYER-1
  0
POLYLINE
  8
LAYER-1
 66
  1
 70
  0
 62
  0
 10
4.470730
 20
7.413440
 30
0.000000
  0
VERTEX
  8
LAYER-1
 10
4.470730
 20
7.413440
 30
0.000000
  0
VERTEX
  8
LAYER-1
 10
4.470730
 20
0.346650
 30
0.000000
  0
SEQEND
  8
LAYER-1
  0
POLYLINE
  8
LAYER-1
 66
  1
 70
  0
 62
  0
 10
4.146100
 20
7.413440
 30
0.000000
  0
VERTEX
  8
LAYER-1
 10
4.146100
 20
7.413440
 30
0.000000
  0
VERTEX
  8
LAYER-1
 10
4.146100
 20
0.346650
 30
0.000000
  0
SEQEND
  8
LAYER-1
  0
POLYLINE
  8
LAYER-1
 66
  1
 70
  0
 62
  0
 10
4.063516
 20
7.413440
 30
0.000000
  0
VERTEX
  8
LAYER-1
 10
4.063516
 20
7.413440
 30
0.000000
  0
VERTEX
  8
LAYER-1
 10
4.063516
 20
0.346650
 30
0.000000
  0
SEQEND
  8
LAYER-1
  0
POLYLINE
  8
LAYER-1
 66
  1
 70
  0
 62
  0
 10
5.736515
 20
7.413440
 30
0.000000
  0
VERTEX
  8
LAYER-1
 10
5.736515
 20
7.413440
 30
0.000000
  0
VERTEX
  8
LAYER-1
 10
5.736515
 20
0.346650
 30
0.000000
  0
SEQEND
  8
LAYER-1
  0
POLYLINE
  8
LAYER-1
 66
  1
 70
  0
 62
  0
 10
4.923748
 20
7.413440
 30
0.000000
  0
VERTEX
  8
LAYER-1
 10
4.923748
 20
7.413440
 30
0.000000
  0
VERTEX
  8
LAYER-1
 10
4.923748
 20
0.346650
 30
0.000000
  0
SEQEND
  8
LAYER-1
  0
POLYLINE
  8
LAYER-1
 66
  1
 70
  0
 62
  0
 10
4.532191
 20
7.413440
 30
0.000000
  0
VERTEX
  8
LAYER-1
 10
4.532191
 20
7.413440
 30
0.000000
  0
VERTEX
  8
LAYER-1
 10
4.532191
 20
0.346650
 30
0.000000
  0
SEQEND
  8
LAYER-1
  0
POLYLINE
  8
LAYER-1
 66
  1
 70
  0
 62
  0
 10
4.496600
 20
7.413440
 30
0.000000
  0
VERTEX
  8
LAYER-1
 10
4.496600
 20
7.413440
 30
0.000000
  0
VERTEX
  8
LAYER-1
 10
4.496600
 20
0.346650
 30
0.000000
  0
SEQEND
  8
LAYER-1
  0
POLYLINE
  8
LAYER-1
 66
  1
 70
  0
 62
  0
 10
4.105042
 20
7.413440
 30
0.000000
  0
VERTEX
  8
LAYER-1
 10
4.105042
 20
7.413440
 30
0.000000
  0
VERTEX
  8
LAYER-1
 10
4.105042
 20
0.346650
 30
0.000000
  0
SEQEND
  8
LAYER-1
  0
POLYLINE
  8
LAYER-1
 66
  1
 70
  1
 62
  0
  0
VERTEX
  8
LAYER-1
 10
4.489183
 20
0.346725
 30
0.000000
  0
VERTEX
  8
LAYER-1
 10
4.544061
 20
0.346725
 30
0.000000
  0
VERTEX
  8
LAYER-1
 10
4.544061
 20
0.340866
 30
0.000000
  0
VERTEX
  8
LAYER-1
 10
4.489183
 20
0.340866
 30
0.000000
  0
SEQEND
  8
LAYER-1
  0
POLYLINE
  8
LAYER-1
 66
  1
 70
  0
 62
  0
 10
4.496600
 20
0.419968
 30
0.000000
  0
VERTEX
  8
LAYER-1
 10
4.496600
 20
0.419968
 30
0.000000
  0
VERTEX
  8
LAYER-1
 10
4.532191
 20
0.419968
 30
0.000000
  0
SEQEND
  8
LAYER-1
  0
POLYLINE
  8
LAYER-1
 66
  1
 70
  0
 62
  0
 10
4.496600
 20
0.548874
 30
0.000000
  0
VERTEX
  8
LAYER-1
 10
4.496600
 20
0.548874
 30
0.000000
  0
VERTEX
  8
LAYER-1
 10
4.532191
 20
0.548874
 30
0.000000
  0
SEQEND
  8
LAYER-1
  0
POLYLINE
  8
LAYER-1
 66
  1
 70
  0
 62
  0
 10
4.532191
 20
0.623858
 30
0.000000
  0
VERTEX
  8
LAYER-1
 10
4.532191
 20
0.623858
 30
0.000000
  0
VERTEX
  8
LAYER-1
 10
4.496600
 20
0.623858
 30
0.000000
  0
SEQEND
  8
LAYER-1
  0
POLYLINE
  8
LAYER-1
 66
  1
 70
  0
 62
  0
 10
4.532191
 20
1.470538
 30
0.000000
  0
VERTEX
  8
LAYER-1
 10
4.532191
 20
1.470538
 30
0.000000
  0
VERTEX
  8
LAYER-1
 10
4.496600
 20
1.470538
 30
0.000000
  0
SEQEND
  8
LAYER-1
  0
POLYLINE
  8
LAYER-1
 66
  1
 70
  0
 62
  0
 10
4.532191
 20
2.308427
 30
0.000000
  0
VERTEX
  8
LAYER-1
 10
4.532191
 20
2.308427
 30
0.000000
  0
VERTEX
  8
LAYER-1
 10
4.496600
 20
2.308427
 30
0.000000
  0
SEQEND
  8
LAYER-1
  0
POLYLINE
  8
LAYER-1
 66
  1
 70
  0
 62
  0
 10
4.532191
 20
3.158029
 30
0.000000
  0
VERTEX
  8
LAYER-1
 10
4.532191
 20
3.158029
 30
0.000000
  0
VERTEX
  8
LAYER-1
 10
4.496600
 20
3.158029
 30
0.000000
  0
SEQEND
  8
LAYER-1
  0
POLYLINE
  8
LAYER-1
 66
  1
 70
  0
 62
  0
 10
4.496600
 20
4.000315
 30
0.000000
  0
VERTEX
  8
LAYER-1
 10
4.496600
 20
4.000315
 30
0.000000
  0
VERTEX
  8
LAYER-1
 10
4.532191
 20
4.000315
 30
0.000000
  0
SEQEND
  8
LAYER-1
  0
POLYLINE
  8
LAYER-1
 66
  1
 70
  0
 62
  0
 10
5.350243
 20
4.851316
 30
0.000000
  0
VERTEX
  8
LAYER-1
 10
5.350243
 20
4.851316
 30
0.000000
  0
VERTEX
  8
LAYER-1
 10
5.314648
 20
4.851316
 30
0.000000
  0
SEQEND
  8
LAYER-1
  0
POLYLINE
  8
LAYER-1
 66
  1
 70
  0
 62
  0
 10
5.350243
 20
5.695065
 30
0.000000
  0
VERTEX
  8
LAYER-1
 10
5.350243
 20
5.695065
 30
0.000000
  0
VERTEX
  8
LAYER-1
 10
5.314648
 20
5.695065
 30
0.000000
  0
SEQEND
  8
LAYER-1
  0
POLYLINE
  8
LAYER-1
 66
  1
 70
  0
 62
  0
 10
4.532368
 20
4.851316
 30
0.000000
  0
VERTEX
  8
LAYER-1
 10
4.532368
 20
4.851316
 30
0.000000
  0
VERTEX
  8
LAYER-1
 10
4.496777
 20
4.851316
 30
0.000000
  0
SEQEND
  8
LAYER-1
  0
POLYLINE
  8
LAYER-1
 66
  1
 70
  0
 62
  0
 10
4.532368
 20
5.695065
 30
0.000000
  0
VERTEX
  8
LAYER-1
 10
4.532368
 20
5.695065
 30
0.000000
  0
VERTEX
  8
LAYER-1
 10
4.496777
 20
5.695065
 30
0.000000
  0
SEQEND
  8
LAYER-1
  0
POLYLINE
  8
LAYER-1
 66
  1
 70
  1
 62
  0
  0
VERTEX
  8
LAYER-1
 10
3.839560
 20
7.419300
 30
0.000000
  0
VERTEX
  8
LAYER-1
 10
3.894437
 20
7.419300
 30
0.000000
  0
VERTEX
  8
LAYER-1
 10
3.894437
 20
7.413439
 30
0.000000
  0
VERTEX
  8
LAYER-1
 10
3.839560
 20
7.413439
 30
0.000000
  0
SEQEND
  8
LAYER-1
  0
POLYLINE
  8
LAYER-1
 66
  1
 70
  0
 62
  0
 10
3.884052
 20
7.346056
 30
0.000000
  0
VERTEX
  8
LAYER-1
 10
3.884052
 20
7.346056
 30
0.000000
  0
VERTEX
  8
LAYER-1
 10
3.848461
 20
7.346056
 30
0.000000
  0
SEQEND
  8
LAYER-1
  0
POLYLINE
  8
LAYER-1
 66
  1
 70
  0
 62
  0
 10
3.884052
 20
7.217150
 30
0.000000
  0
VERTEX
  8
LAYER-1
 10
3.884052
 20
7.217150
 30
0.000000
  0
VERTEX
  8
LAYER-1
 10
3.848461
 20
7.217150
 30
0.000000
  0
SEQEND
  8
LAYER-1
  0
POLYLINE
  8
LAYER-1
 66
  1
 70
  0
 62
  0
 10
3.884052
 20
7.413364
 30
0.000000
  0
VERTEX
  8
LAYER-1
 10
3.884052
 20
7.413364
 30
0.000000
  0
VERTEX
  8
LAYER-1
 10
3.884052
 20
0.346650
 30
0.000000
  0
SEQEND
  8
LAYER-1
  0
POLYLINE
  8
LAYER-1
 66
  1
 70
  0
 62
  0
 10
3.848461
 20
0.419891
 30
0.000000
  0
VERTEX
  8
LAYER-1
 10
3.848461
 20
0.419891
 30
0.000000
  0
VERTEX
  8
LAYER-1
 10
3.884052
 20
0.419891
 30
0.000000
  0
SEQEND
  8
LAYER-1
  0
POLYLINE
  8
LAYER-1
 66
  1
 70
  0
 62
  0
 10
3.848461
 20
0.548797
 30
0.000000
  0
VERTEX
  8
LAYER-1
 10
3.848461
 20
0.548797
 30
0.000000
  0
VERTEX
  8
LAYER-1
 10
3.884052
 20
0.548797
 30
0.000000
  0
SEQEND
  8
LAYER-1
  0
POLYLINE
  8
LAYER-1
 66
  1
 70
  0
 62
  0
 10
3.884052
 20
0.623779
 30
0.000000
  0
VERTEX
  8
LAYER-1
 10
3.884052
 20
0.623779
 30
0.000000
  0
VERTEX
  8
LAYER-1
 10
3.848458
 20
0.623779
 30
0.000000
  0
SEQEND
  8
LAYER-1
  0
POLYLINE
  8
LAYER-1
 66
  1
 70
  0
 62
  0
 10
3.884052
 20
1.470462
 30
0.000000
  0
VERTEX
  8
LAYER-1
 10
3.884052
 20
1.470462
 30
0.000000
  0
VERTEX
  8
LAYER-1
 10
3.848458
 20
1.470462
 30
0.000000
  0
SEQEND
  8
LAYER-1
  0
POLYLINE
  8
LAYER-1
 66
  1
 70
  0
 62
  0
 10
3.884052
 20
2.308350
 30
0.000000
  0
VERTEX
  8
LAYER-1
 10
3.884052
 20
2.308350
 30
0.000000
  0
VERTEX
  8
LAYER-1
 10
3.848458
 20
2.308350
 30
0.000000
  0
SEQEND
  8
LAYER-1
  0
POLYLINE
  8
LAYER-1
 66
  1
 70
  0
 62
  0
 10
3.884052
 20
3.157954
 30
0.000000
  0
VERTEX
  8
LAYER-1
 10
3.884052
 20
3.157954
 30
0.000000
  0
VERTEX
  8
LAYER-1
 10
3.848458
 20
3.157954
 30
0.000000
  0
SEQEND
  8
LAYER-1
  0
POLYLINE
  8
LAYER-1
 66
  1
 70
  0
 62
  0
 10
3.848458
 20
4.000239
 30
0.000000
  0
VERTEX
  8
LAYER-1
 10
3.848458
 20
4.000239
 30
0.000000
  0
VERTEX
  8
LAYER-1
 10
3.884052
 20
4.000239
 30
0.000000
  0
SEQEND
  8
LAYER-1
  0
POLYLINE
  8
LAYER-1
 66
  1
 70
  0
 62
  0
 10
3.884230
 20
4.851240
 30
0.000000
  0
VERTEX
  8
LAYER-1
 10
3.884230
 20
4.851240
 30
0.000000
  0
VERTEX
  8
LAYER-1
 10
3.848638
 20
4.851240
 30
0.000000
  0
SEQEND
  8
LAYER-1
  0
POLYLINE
  8
LAYER-1
 66
  1
 70
  0
 62
  0
 10
3.884230
 20
5.694989
 30
0.000000
  0
VERTEX
  8
LAYER-1
 10
3.884230
 20
5.694989
 30
0.000000
  0
VERTEX
  8
LAYER-1
 10
3.848638
 20
5.694989
 30
0.000000
  0
SEQEND
  8
LAYER-1
  0
POLYLINE
  8
LAYER-1
 66
  1
 70
  1
 62
  0
  0
VERTEX
  8
LAYER-1
 10
3.841044
 20
0.346650
 30
0.000000
  0
VERTEX
  8
LAYER-1
 10
3.895916
 20
0.346650
 30
0.000000
  0
VERTEX
  8
LAYER-1
 10
3.895916
 20
0.340791
 30
0.000000
  0
VERTEX
  8
LAYER-1
 10
3.841044
 20
0.340791
 30
0.000000
  0
SEQEND
  8
LAYER-1
  0
TEXT
  8
LAYER-1
 62
  7
 10
2.000525
 20
8.784073
 30
0.000000
 40
0.187500
  1
Elevaci—n modelo Global
 72
  5
 11
5.042191
 21
8.784073
 31
0.000000
  0
LINE
  8
LAYER-1
 62
  0
 10
6.764414
 20
7.479073
 30
0.000000
 11
0.764414
 21
7.479073
 31
0.000000
  0
LINE
  8
LAYER-1
 62
  0
 10
6.764414
 20
7.589072
 30
0.000000
 11
0.764414
 21
7.589072
 31
0.000000
  0
LINE
  8
LAYER-1
 62
  0
 10
1.327783
 20
7.480579
 30
0.000000
 11
1.327783
 21
7.590558
 31
0.000000
  0
LINE
  8
LAYER-1
 62
  0
 10
1.268415
 20
7.480579
 30
0.000000
 11
1.452783
 21
7.480579
 31
0.000000
  0
LINE
  8
LAYER-1
 62
  0
 10
1.268755
 20
7.590558
 30
0.000000
 11
1.452783
 21
7.590558
 31
0.000000
  0
LINE
  8
LAYER-1
 62
  0
 10
1.327783
 20
7.590558
 30
0.000000
 11
1.327783
 21
7.225043
 31
0.000000
  0
LINE
  8
LAYER-1
 62
  0
 10
1.298320
 20
7.510042
 30
0.000000
 11
1.357246
 21
7.451116
 31
0.000000
  0
LINE
  8
LAYER-1
 62
  0
 10
1.298320
 20
7.620021
 30
0.000000
 11
1.357246
 21
7.561094
 31
0.000000
  0
TEXT
  8
LAYER-1
 62
  0
 10
1.315923
 20
7.096627
 30
0.000000
 40
0.125000
  1
 
  0
TEXT
  8
LAYER-1
 62
  0
 10
1.069969
 20
6.853517
 30
0.000000
 40
0.125000
  1
1-
 72
  5
 11
1.292191
 21
6.853517
 31
0.000000
  0
TEXT
  8
LAYER-1
 62
  0
 10
1.292191
 20
6.853517
 30
0.000000
 40
0.104167
  1
9/16
 72
  5
 11
1.653303
 21
6.853517
 31
0.000000
  0
TEXT
  8
LAYER-1
 62
  0
 10
1.653303
 20
6.853517
 30
0.000000
 40
0.125000
  1
"
 72
  5
 11
1.778303
 21
6.853517
 31
0.000000
  0
TEXT
  8
LAYER-1
 62
  0
 10
1.069969
 20
6.659073
 30
0.000000
 40
0.125000
  1
40mm
 72
  5
 11
1.639414
 21
6.659073
 31
0.000000
  0
TEXT
  8
LAYER-1
 62
  0
 10
2.306080
 20
7.909073
 30
0.000000
 40
0.125000
  1
Componente
 72
  5
 11
3.375525
 21
7.909073
 31
0.000000
  0
TEXT
  8
LAYER-1
 62
  0
 10
2.306080
 20
7.714628
 30
0.000000
 40
0.125000
  1
intermediario #4
 72
  5
 11
3.625525
 21
7.714628
 31
0.000000
  0
POLYLINE
  8
LAYER-1
 66
  1
 70
  0
 62
  0
 10
3.515282
 20
7.745877
 30
0.000000
  0
VERTEX
  8
LAYER-1
 10
3.515282
 20
7.745877
 30
0.000000
  0
VERTEX
  8
LAYER-1
 10
3.756357
 20
7.430782
 30
0.000000
  0
SEQEND
  8
LAYER-1
  0
POLYLINE
  8
LAYER-1
 66
  1
 70
  1
 62
  0
  0
VERTEX
  8
LAYER-1
 10
3.768319
 20
7.415148
 30
0.000000
  0
VERTEX
  8
LAYER-1
 10
3.693029
 20
7.444983
 30
0.000000
  0
VERTEX
  8
LAYER-1
 10
3.726121
 20
7.470301
 30
0.000000
  0
VERTEX
  8
LAYER-1
 10
3.759213
 20
7.495620
 30
0.000000
  0
VERTEX
  8
LAYER-1
 10
3.768319
 20
7.415148
 30
0.000000
  0
SEQEND
  8
LAYER-1
  0
POLYLINE
  8
LAYER-1
 66
  1
 70
  0
 62
  0
 40
0.027778
 41
0.027778
 10
3.680799
 20
0.240680
 30
0.000000
  0
VERTEX
  8
LAYER-1
 10
3.680799
 20
0.240680
 30
0.000000
  0
VERTEX
  8
LAYER-1
 10
0.764414
 20
0.240680
 30
0.000000
  0
SEQEND
  8
LAYER-1
  0
POLYLINE
  8
LAYER-1
 66
  1
 70
  0
 62
  0
 40
0.027778
 41
0.027778
 10
3.774417
 20
0.240680
 30
0.000000
  0
VERTEX
  8
LAYER-1
 10
3.774417
 20
0.240680
 30
0.000000
  0
VERTEX
  8
LAYER-1
 10
6.771358
 20
0.240680
 30
0.000000
  0
SEQEND
  8
LAYER-1
  0
POLYLINE
  8
LAYER-1
 66
  1
 70
  1
 62
  0
  0
VERTEX
  8
LAYER-1
 10
3.711181
 20
0.346458
 30
0.000000
  0
VERTEX
  8
LAYER-1
 10
3.744738
 20
0.346458
 30
0.000000
  0
VERTEX
  8
LAYER-1
 10
3.744738
 20
0.250953
 30
0.000000
  0
VERTEX
  8
LAYER-1
 10
3.711181
 20
0.250953
 30
0.000000
  0
SEQEND
  8
LAYER-1
  0
POLYLINE
  8
LAYER-1
 66
  1
 70
  0
 62
  0
 10
3.731222
 20
2.457414
 30
0.000000
  0
VERTEX
  8
LAYER-1
 10
3.731222
 20
2.457414
 30
0.000000
  0
VERTEX
  8
LAYER-1
 10
3.731222
 20
2.457414
 30
0.000000
  0
SEQEND
  8
LAYER-1
  0
POLYLINE
  8
LAYER-1
 66
  1
 70
  0
 62
  0
 10
3.739187
 20
2.449449
 30
0.000000
  0
VERTEX
  8
LAYER-1
 10
3.739187
 20
2.449449
 30
0.000000
  0
VERTEX
  8
LAYER-1
 10
3.739187
 20
2.199906
 30
0.000000
  0
SEQEND
  8
LAYER-1
  0
POLYLINE
  8
LAYER-1
 66
  1
 70
  0
 62
  0
 10
3.731222
 20
2.191942
 30
0.000000
  0
VERTEX
  8
LAYER-1
 10
3.731222
 20
2.191942
 30
0.000000
  0
VERTEX
  8
LAYER-1
 10
3.731222
 20
2.191942
 30
0.000000
  0
SEQEND
  8
LAYER-1
  0
POLYLINE
  8
LAYER-1
 66
  1
 70
  0
 62
  0
 10
3.723257
 20
2.199906
 30
0.000000
  0
VERTEX
  8
LAYER-1
 10
3.723257
 20
2.199906
 30
0.000000
  0
VERTEX
  8
LAYER-1
 10
3.723257
 20
2.449449
 30
0.000000
  0
SEQEND
  8
LAYER-1
  0
ARC
  8
LAYER-1
 62
  0
 10
3.731222
 20
2.449449
 30
0.000000
 40
0.007964
 50
270.000000
 51
0.000000
  0
ARC
  8
LAYER-1
 62
  0
 10
3.731222
 20
2.199906
 30
0.000000
 40
0.007964
 50
0.000000
 51
90.000000
  0
ARC
  8
LAYER-1
 62
  0
 10
3.731222
 20
2.199906
 30
0.000000
 40
0.007964
 50
90.000000
 51
180.000000
  0
ARC
  8
LAYER-1
 62
  0
 10
3.731222
 20
2.449449
 30
0.000000
 40
0.007964
 50
180.000000
 51
270.000000
  0
CIRCLE
  8
LAYER-1
 62
  0
 10
3.731555
 20
2.194594
 30
0.000000
 40
0.022565
  0
CIRCLE
  8
LAYER-1
 62
  0
 10
3.731555
 20
2.194594
 30
0.000000
 40
0.016522
  0
CIRCLE
  8
LAYER-1
 62
  0
 10
3.731555
 20
2.194594
 30
0.000000
 40
0.013746
  0
CIRCLE
  8
LAYER-1
 62
  0
 10
3.731555
 20
2.194594
 30
0.000000
 40
0.008860
  0
POLYLINE
  8
LAYER-1
 66
  1
 70
  0
 62
  0
 10
3.681277
 20
0.243292
 30
0.000000
  0
VERTEX
  8
LAYER-1
 10
3.681277
 20
0.243292
 30
0.000000
  0
VERTEX
  8
LAYER-1
 10
3.694055
 20
0.250857
 30
0.000000
  0
SEQEND
  8
LAYER-1
  0
POLYLINE
  8
LAYER-1
 66
  1
 70
  0
 62
  0
 10
3.681277
 20
0.243292
 30
0.000000
  0
VERTEX
  8
LAYER-1
 10
3.681277
 20
0.243292
 30
0.000000
  0
VERTEX
  8
LAYER-1
 10
3.681277
 20
0.241727
 30
0.000000
  0
SEQEND
  8
LAYER-1
  0
POLYLINE
  8
LAYER-1
 66
  1
 70
  1
 62
  0
  0
VERTEX
  8
LAYER-1
 10
3.699721
 20
0.241714
 30
0.000000
  0
VERTEX
  8
LAYER-1
 10
3.756307
 20
0.241714
 30
0.000000
  0
VERTEX
  8
LAYER-1
 10
3.756307
 20
0.054051
 30
0.000000
  0
VERTEX
  8
LAYER-1
 10
3.699721
 20
0.054051
 30
0.000000
  0
SEQEND
  8
LAYER-1
  0
POLYLINE
  8
LAYER-1
  6
LTYPE01
 66
  1
 70
  1
 62
  0
  0
VERTEX
  8
LAYER-1
  6
LTYPE01
 10
3.704415
 20
0.250839
 30
0.000000
  0
VERTEX
  8
LAYER-1
  6
LTYPE01
 10
3.751355
 20
0.250839
 30
0.000000
  0
VERTEX
  8
LAYER-1
  6
LTYPE01
 10
3.751355
 20
0.063611
 30
0.000000
  0
VERTEX
  8
LAYER-1
  6
LTYPE01
 10
3.704415
 20
0.063611
 30
0.000000
  0
SEQEND
  8
LAYER-1
  0
POLYLINE
  8
LAYER-1
 66
  1
 70
  0
 62
  0
 10
3.681277
 20
0.241727
 30
0.000000
  0
VERTEX
  8
LAYER-1
 10
3.681277
 20
0.241727
 30
0.000000
  0
VERTEX
  8
LAYER-1
 10
3.774894
 20
0.241727
 30
0.000000
  0
SEQEND
  8
LAYER-1
  0
POLYLINE
  8
LAYER-1
 66
  1
 70
  0
 62
  0
 10
3.774894
 20
0.241727
 30
0.000000
  0
VERTEX
  8
LAYER-1
 10
3.774894
 20
0.241727
 30
0.000000
  0
VERTEX
  8
LAYER-1
 10
3.774894
 20
0.243292
 30
0.000000
  0
SEQEND
  8
LAYER-1
  0
POLYLINE
  8
LAYER-1
 66
  1
 70
  0
 62
  0
 10
3.774894
 20
0.243292
 30
0.000000
  0
VERTEX
  8
LAYER-1
 10
3.774894
 20
0.243292
 30
0.000000
  0
VERTEX
  8
LAYER-1
 10
3.761855
 20
0.250857
 30
0.000000
  0
SEQEND
  8
LAYER-1
  0
POLYLINE
  8
LAYER-1
  6
LTYPE02
 66
  1
 70
  0
 62
  0
  6
LTYPE02
 10
3.705659
 20
0.150068
 30
0.000000
  0
VERTEX
  8
LAYER-1
  6
LTYPE02
 10
3.705659
 20
0.150068
 30
0.000000
  0
VERTEX
  8
LAYER-1
  6
LTYPE02
 10
3.705659
 20
0.116170
 30
0.000000
  0
SEQEND
  8
LAYER-1
  0
POLYLINE
  8
LAYER-1
  6
LTYPE02
 66
  1
 70
  0
 62
  0
  6
LTYPE02
 10
3.709568
 20
0.150068
 30
0.000000
  0
VERTEX
  8
LAYER-1
  6
LTYPE02
 10
3.709568
 20
0.150068
 30
0.000000
  0
VERTEX
  8
LAYER-1
  6
LTYPE02
 10
3.705659
 20
0.150068
 30
0.000000
  0
SEQEND
  8
LAYER-1
  0
POLYLINE
  8
LAYER-1
  6
LTYPE02
 66
  1
 70
  0
 62
  0
  6
LTYPE02
 10
3.709568
 20
0.150068
 30
0.000000
  0
VERTEX
  8
LAYER-1
  6
LTYPE02
 10
3.709568
 20
0.150068
 30
0.000000
  0
VERTEX
  8
LAYER-1
  6
LTYPE02
 10
3.709568
 20
0.154502
 30
0.000000
  0
SEQEND
  8
LAYER-1
  0
POLYLINE
  8
LAYER-1
  6
LTYPE02
 66
  1
 70
  0
 62
  0
  6
LTYPE02
 10
3.709568
 20
0.154502
 30
0.000000
  0
VERTEX
  8
LAYER-1
  6
LTYPE02
 10
3.709568
 20
0.154502
 30
0.000000
  0
VERTEX
  8
LAYER-1
  6
LTYPE02
 10
3.746827
 20
0.154502
 30
0.000000
  0
SEQEND
  8
LAYER-1
  0
POLYLINE
  8
LAYER-1
  6
LTYPE02
 66
  1
 70
  0
 62
  0
  6
LTYPE02
 10
3.705659
 20
0.116170
 30
0.000000
  0
VERTEX
  8
LAYER-1
  6
LTYPE02
 10
3.705659
 20
0.116170
 30
0.000000
  0
VERTEX
  8
LAYER-1
  6
LTYPE02
 10
3.749991
 20
0.116170
 30
0.000000
  0
SEQEND
  8
LAYER-1
  0
POLYLINE
  8
LAYER-1
  6
LTYPE02
 66
  1
 70
  0
 62
  0
  6
LTYPE02
 10
3.749991
 20
0.116170
 30
0.000000
  0
VERTEX
  8
LAYER-1
  6
LTYPE02
 10
3.749991
 20
0.116170
 30
0.000000
  0
VERTEX
  8
LAYER-1
  6
LTYPE02
 10
3.749991
 20
0.150068
 30
0.000000
  0
SEQEND
  8
LAYER-1
  0
POLYLINE
  8
LAYER-1
  6
LTYPE02
 66
  1
 70
  0
 62
  0
  6
LTYPE02
 10
3.746827
 20
0.150068
 30
0.000000
  0
VERTEX
  8
LAYER-1
  6
LTYPE02
 10
3.746827
 20
0.150068
 30
0.000000
  0
VERTEX
  8
LAYER-1
  6
LTYPE02
 10
3.749991
 20
0.150068
 30
0.000000
  0
SEQEND
  8
LAYER-1
  0
POLYLINE
  8
LAYER-1
  6
LTYPE02
 66
  1
 70
  0
 62
  0
  6
LTYPE02
 10
3.746827
 20
0.154502
 30
0.000000
  0
VERTEX
  8
LAYER-1
  6
LTYPE02
 10
3.746827
 20
0.154502
 30
0.000000
  0
VERTEX
  8
LAYER-1
  6
LTYPE02
 10
3.746827
 20
0.150068
 30
0.000000
  0
SEQEND
  8
LAYER-1
  0
POLYLINE
  8
LAYER-1
  6
LTYPE01
 66
  1
 70
  1
 62
  0
  0
VERTEX
  8
LAYER-1
  6
LTYPE01
 10
3.710797
 20
0.116024
 30
0.000000
  0
VERTEX
  8
LAYER-1
  6
LTYPE01
 10
3.745218
 20
0.116024
 30
0.000000
  0
VERTEX
  8
LAYER-1
  6
LTYPE01
 10
3.745218
 20
0.063870
 30
0.000000
  0
VERTEX
  8
LAYER-1
  6
LTYPE01
 10
3.710797
 20
0.063870
 30
0.000000
  0
SEQEND
  8
LAYER-1
  0
POLYLINE
  8
LAYER-1
  6
LTYPE02
 66
  1
 70
  0
 62
  0
  6
LTYPE02
 10
3.745218
 20
0.116024
 30
0.000000
  0
VERTEX
  8
LAYER-1
  6
LTYPE02
 10
3.745218
 20
0.116024
 30
0.000000
  0
VERTEX
  8
LAYER-1
  6
LTYPE02
 10
3.710797
 20
0.113156
 30
0.000000
  0
SEQEND
  8
LAYER-1
  0
POLYLINE
  8
LAYER-1
  6
LTYPE02
 66
  1
 70
  0
 62
  0
  6
LTYPE02
 10
3.745218
 20
0.114459
 30
0.000000
  0
VERTEX
  8
LAYER-1
  6
LTYPE02
 10
3.745218
 20
0.114459
 30
0.000000
  0
VERTEX
  8
LAYER-1
  6
LTYPE02
 10
3.710797
 20
0.111332
 30
0.000000
  0
SEQEND
  8
LAYER-1
  0
POLYLINE
  8
LAYER-1
  6
LTYPE02
 66
  1
 70
  0
 62
  0
  6
LTYPE02
 10
3.745218
 20
0.111070
 30
0.000000
  0
VERTEX
  8
LAYER-1
  6
LTYPE02
 10
3.745218
 20
0.111070
 30
0.000000
  0
VERTEX
  8
LAYER-1
  6
LTYPE02
 10
3.710797
 20
0.108200
 30
0.000000
  0
SEQEND
  8
LAYER-1
  0
POLYLINE
  8
LAYER-1
  6
LTYPE02
 66
  1
 70
  0
 62
  0
  6
LTYPE02
 10
3.745218
 20
0.109505
 30
0.000000
  0
VERTEX
  8
LAYER-1
  6
LTYPE02
 10
3.745218
 20
0.109505
 30
0.000000
  0
VERTEX
  8
LAYER-1
  6
LTYPE02
 10
3.710797
 20
0.106375
 30
0.000000
  0
SEQEND
  8
LAYER-1
  0
POLYLINE
  8
LAYER-1
  6
LTYPE02
 66
  1
 70
  0
 62
  0
  6
LTYPE02
 10
3.745218
 20
0.105921
 30
0.000000
  0
VERTEX
  8
LAYER-1
  6
LTYPE02
 10
3.745218
 20
0.105921
 30
0.000000
  0
VERTEX
  8
LAYER-1
  6
LTYPE02
 10
3.710797
 20
0.103052
 30
0.000000
  0
SEQEND
  8
LAYER-1
  0
POLYLINE
  8
LAYER-1
  6
LTYPE02
 66
  1
 70
  0
 62
  0
  6
LTYPE02
 10
3.745218
 20
0.104357
 30
0.000000
  0
VERTEX
  8
LAYER-1
  6
LTYPE02
 10
3.745218
 20
0.104357
 30
0.000000
  0
VERTEX
  8
LAYER-1
  6
LTYPE02
 10
3.710797
 20
0.101228
 30
0.000000
  0
SEQEND
  8
LAYER-1
  0
POLYLINE
  8
LAYER-1
  6
LTYPE02
 66
  1
 70
  0
 62
  0
  6
LTYPE02
 10
3.745154
 20
0.101422
 30
0.000000
  0
VERTEX
  8
LAYER-1
  6
LTYPE02
 10
3.745154
 20
0.101422
 30
0.000000
  0
VERTEX
  8
LAYER-1
  6
LTYPE02
 10
3.710732
 20
0.098553
 30
0.000000
  0
SEQEND
  8
LAYER-1
  0
POLYLINE
  8
LAYER-1
  6
LTYPE02
 66
  1
 70
  0
 62
  0
  6
LTYPE02
 10
3.745154
 20
0.099859
 30
0.000000
  0
VERTEX
  8
LAYER-1
  6
LTYPE02
 10
3.745154
 20
0.099859
 30
0.000000
  0
VERTEX
  8
LAYER-1
  6
LTYPE02
 10
3.710732
 20
0.096729
 30
0.000000
  0
SEQEND
  8
LAYER-1
  0
POLYLINE
  8
LAYER-1
  6
LTYPE02
 66
  1
 70
  0
 62
  0
  6
LTYPE02
 10
3.745154
 20
0.096598
 30
0.000000
  0
VERTEX
  8
LAYER-1
  6
LTYPE02
 10
3.745154
 20
0.096598
 30
0.000000
  0
VERTEX
  8
LAYER-1
  6
LTYPE02
 10
3.710732
 20
0.093730
 30
0.000000
  0
SEQEND
  8
LAYER-1
  0
POLYLINE
  8
LAYER-1
  6
LTYPE02
 66
  1
 70
  0
 62
  0
  6
LTYPE02
 10
3.745154
 20
0.095033
 30
0.000000
  0
VERTEX
  8
LAYER-1
  6
LTYPE02
 10
3.745154
 20
0.095033
 30
0.000000
  0
VERTEX
  8
LAYER-1
  6
LTYPE02
 10
3.710732
 20
0.091904
 30
0.000000
  0
SEQEND
  8
LAYER-1
  0
POLYLINE
  8
LAYER-1
  6
LTYPE02
 66
  1
 70
  0
 62
  0
  6
LTYPE02
 10
3.745154
 20
0.091643
 30
0.000000
  0
VERTEX
  8
LAYER-1
  6
LTYPE02
 10
3.745154
 20
0.091643
 30
0.000000
  0
VERTEX
  8
LAYER-1
  6
LTYPE02
 10
3.710732
 20
0.088774
 30
0.000000
  0
SEQEND
  8
LAYER-1
  0
POLYLINE
  8
LAYER-1
  6
LTYPE02
 66
  1
 70
  0
 62
  0
  6
LTYPE02
 10
3.745154
 20
0.090079
 30
0.000000
  0
VERTEX
  8
LAYER-1
  6
LTYPE02
 10
3.745154
 20
0.090079
 30
0.000000
  0
VERTEX
  8
LAYER-1
  6
LTYPE02
 10
3.710732
 20
0.086948
 30
0.000000
  0
SEQEND
  8
LAYER-1
  0
POLYLINE
  8
LAYER-1
  6
LTYPE02
 66
  1
 70
  0
 62
  0
  6
LTYPE02
 10
3.745154
 20
0.086493
 30
0.000000
  0
VERTEX
  8
LAYER-1
  6
LTYPE02
 10
3.745154
 20
0.086493
 30
0.000000
  0
VERTEX
  8
LAYER-1
  6
LTYPE02
 10
3.710732
 20
0.083624
 30
0.000000
  0
SEQEND
  8
LAYER-1
  0
POLYLINE
  8
LAYER-1
  6
LTYPE02
 66
  1
 70
  0
 62
  0
  6
LTYPE02
 10
3.745154
 20
0.084928
 30
0.000000
  0
VERTEX
  8
LAYER-1
  6
LTYPE02
 10
3.745154
 20
0.084928
 30
0.000000
  0
VERTEX
  8
LAYER-1
  6
LTYPE02
 10
3.710732
 20
0.081800
 30
0.000000
  0
SEQEND
  8
LAYER-1
  0
POLYLINE
  8
LAYER-1
  6
LTYPE02
 66
  1
 70
  0
 62
  0
  6
LTYPE02
 10
3.745089
 20
0.081994
 30
0.000000
  0
VERTEX
  8
LAYER-1
  6
LTYPE02
 10
3.745089
 20
0.081994
 30
0.000000
  0
VERTEX
  8
LAYER-1
  6
LTYPE02
 10
3.710667
 20
0.079126
 30
0.000000
  0
SEQEND
  8
LAYER-1
  0
POLYLINE
  8
LAYER-1
  6
LTYPE02
 66
  1
 70
  0
 62
  0
  6
LTYPE02
 10
3.745089
 20
0.080431
 30
0.000000
  0
VERTEX
  8
LAYER-1
  6
LTYPE02
 10
3.745089
 20
0.080431
 30
0.000000
  0
VERTEX
  8
LAYER-1
  6
LTYPE02
 10
3.710667
 20
0.077302
 30
0.000000
  0
SEQEND
  8
LAYER-1
  0
POLYLINE
  8
LAYER-1
  6
LTYPE02
 66
  1
 70
  0
 62
  0
  6
LTYPE02
 10
3.745218
 20
0.077627
 30
0.000000
  0
VERTEX
  8
LAYER-1
  6
LTYPE02
 10
3.745218
 20
0.077627
 30
0.000000
  0
VERTEX
  8
LAYER-1
  6
LTYPE02
 10
3.710797
 20
0.074758
 30
0.000000
  0
SEQEND
  8
LAYER-1
  0
POLYLINE
  8
LAYER-1
  6
LTYPE02
 66
  1
 70
  0
 62
  0
  6
LTYPE02
 10
3.745218
 20
0.076062
 30
0.000000
  0
VERTEX
  8
LAYER-1
  6
LTYPE02
 10
3.745218
 20
0.076062
 30
0.000000
  0
VERTEX
  8
LAYER-1
  6
LTYPE02
 10
3.710797
 20
0.072934
 30
0.000000
  0
SEQEND
  8
LAYER-1
  0
POLYLINE
  8
LAYER-1
  6
LTYPE02
 66
  1
 70
  0
 62
  0
  6
LTYPE02
 10
3.745218
 20
0.072673
 30
0.000000
  0
VERTEX
  8
LAYER-1
  6
LTYPE02
 10
3.745218
 20
0.072673
 30
0.000000
  0
VERTEX
  8
LAYER-1
  6
LTYPE02
 10
3.710797
 20
0.069804
 30
0.000000
  0
SEQEND
  8
LAYER-1
  0
POLYLINE
  8
LAYER-1
  6
LTYPE02
 66
  1
 70
  0
 62
  0
  6
LTYPE02
 10
3.745218
 20
0.071108
 30
0.000000
  0
VERTEX
  8
LAYER-1
  6
LTYPE02
 10
3.745218
 20
0.071108
 30
0.000000
  0
VERTEX
  8
LAYER-1
  6
LTYPE02
 10
3.710797
 20
0.067978
 30
0.000000
  0
SEQEND
  8
LAYER-1
  0
POLYLINE
  8
LAYER-1
  6
LTYPE02
 66
  1
 70
  0
 62
  0
  6
LTYPE02
 10
3.745218
 20
0.067523
 30
0.000000
  0
VERTEX
  8
LAYER-1
  6
LTYPE02
 10
3.745218
 20
0.067523
 30
0.000000
  0
VERTEX
  8
LAYER-1
  6
LTYPE02
 10
3.710797
 20
0.064652
 30
0.000000
  0
SEQEND
  8
LAYER-1
  0
POLYLINE
  8
LAYER-1
  6
LTYPE02
 66
  1
 70
  0
 62
  0
  6
LTYPE02
 10
3.745218
 20
0.065958
 30
0.000000
  0
VERTEX
  8
LAYER-1
  6
LTYPE02
 10
3.745218
 20
0.065958
 30
0.000000
  0
VERTEX
  8
LAYER-1
  6
LTYPE02
 10
3.722206
 20
0.063870
 30
0.000000
  0
SEQEND
  8
LAYER-1
  0
POLYLINE
  8
LAYER-1
  6
LTYPE02
 66
  1
 70
  0
 62
  0
  6
LTYPE02
 10
3.711788
 20
0.175234
 30
0.000000
  0
VERTEX
  8
LAYER-1
  6
LTYPE02
 10
3.711788
 20
0.175234
 30
0.000000
  0
VERTEX
  8
LAYER-1
  6
LTYPE02
 10
3.711788
 20
0.250857
 30
0.000000
  0
SEQEND
  8
LAYER-1
  0
POLYLINE
  8
LAYER-1
  6
LTYPE02
 66
  1
 70
  0
 62
  0
  6
LTYPE02
 10
3.744122
 20
0.175234
 30
0.000000
  0
VERTEX
  8
LAYER-1
  6
LTYPE02
 10
3.744122
 20
0.175234
 30
0.000000
  0
VERTEX
  8
LAYER-1
  6
LTYPE02
 10
3.744122
 20
0.250857
 30
0.000000
  0
SEQEND
  8
LAYER-1
  0
POLYLINE
  8
LAYER-1
  6
LTYPE01
 66
  1
 70
  0
 62
  0
  6
LTYPE01
 10
3.711788
 20
0.175234
 30
0.000000
  0
VERTEX
  8
LAYER-1
  6
LTYPE01
 10
3.711788
 20
0.175234
 30
0.000000
  0
VERTEX
  8
LAYER-1
  6
LTYPE01
 10
3.714555
 20
0.165771
 30
0.000000
  0
VERTEX
  8
LAYER-1
  6
LTYPE01
 10
3.725987
 20
0.161036
 30
0.000000
  0
VERTEX
  8
LAYER-1
  6
LTYPE01
 10
3.737419
 20
0.165771
 30
0.000000
  0
VERTEX
  8
LAYER-1
  6
LTYPE01
 10
3.744123
 20
0.175234
 30
0.000000
  0
SEQEND
  8
LAYER-1
  0
POLYLINE
  8
LAYER-1
 66
  1
 70
  0
 62
  0
 10
3.694055
 20
0.250857
 30
0.000000
  0
VERTEX
  8
LAYER-1
 10
3.694055
 20
0.250857
 30
0.000000
  0
VERTEX
  8
LAYER-1
 10
3.761855
 20
0.250857
 30
0.000000
  0
SEQEND
  8
LAYER-1
  0
POLYLINE
  8
LAYER-1
 66
  1
 70
  1
 62
  0
  0
VERTEX
  8
LAYER-1
 10
2.800872
 20
7.479819
 30
0.000000
  0
VERTEX
  8
LAYER-1
 10
2.825967
 20
7.479819
 30
0.000000
  0
VERTEX
  8
LAYER-1
 10
2.825967
 20
7.413501
 30
0.000000
  0
VERTEX
  8
LAYER-1
 10
2.800872
 20
7.413501
 30
0.000000
  0
SEQEND
  8
LAYER-1
  0
POLYLINE
  8
LAYER-1
 66
  1
 70
  1
 62
  0
  0
VERTEX
  8
LAYER-1
 10
1.979692
 20
7.479819
 30
0.000000
  0
VERTEX
  8
LAYER-1
 10
2.004787
 20
7.479819
 30
0.000000
  0
VERTEX
  8
LAYER-1
 10
2.004787
 20
7.413501
 30
0.000000
  0
VERTEX
  8
LAYER-1
 10
1.979692
 20
7.413501
 30
0.000000
  0
SEQEND
  8
LAYER-1
  0
POLYLINE
  8
LAYER-1
 66
  1
 70
  1
 62
  0
  0
VERTEX
  8
LAYER-1
 10
4.702781
 20
7.479819
 30
0.000000
  0
VERTEX
  8
LAYER-1
 10
4.727876
 20
7.479819
 30
0.000000
  0
VERTEX
  8
LAYER-1
 10
4.727876
 20
7.413501
 30
0.000000
  0
VERTEX
  8
LAYER-1
 10
4.702781
 20
7.413501
 30
0.000000
  0
SEQEND
  8
LAYER-1
  0
POLYLINE
  8
LAYER-1
 66
  1
 70
  1
 62
  0
  0
VERTEX
  8
LAYER-1
 10
5.523962
 20
7.479819
 30
0.000000
  0
VERTEX
  8
LAYER-1
 10
5.549057
 20
7.479819
 30
0.000000
  0
VERTEX
  8
LAYER-1
 10
5.549057
 20
7.413501
 30
0.000000
  0
VERTEX
  8
LAYER-1
 10
5.523962
 20
7.413501
 30
0.000000
  0
SEQEND
  8
LAYER-1
  0
POLYLINE
  8
LAYER-1
 66
  1
 70
  0
 62
  0
 10
2.178083
 20
7.143496
 30
0.000000
  0
VERTEX
  8
LAYER-1
 10
2.178083
 20
7.143496
 30
0.000000
  0
VERTEX
  8
LAYER-1
 10
2.213679
 20
7.143496
 30
0.000000
  0
SEQEND
  8
LAYER-1
  0
POLYLINE
  8
LAYER-1
 66
  1
 70
  0
 62
  0
 10
2.995953
 20
7.143496
 30
0.000000
  0
VERTEX
  8
LAYER-1
 10
2.995953
 20
7.143496
 30
0.000000
  0
VERTEX
  8
LAYER-1
 10
3.031548
 20
7.143496
 30
0.000000
  0
SEQEND
  8
LAYER-1
  0
POLYLINE
  8
LAYER-1
 66
  1
 70
  0
 62
  0
 10
3.644087
 20
7.143420
 30
0.000000
  0
VERTEX
  8
LAYER-1
 10
3.644087
 20
7.143420
 30
0.000000
  0
VERTEX
  8
LAYER-1
 10
3.679681
 20
7.143420
 30
0.000000
  0
SEQEND
  8
LAYER-1
  0
POLYLINE
  8
LAYER-1
 66
  1
 70
  0
 62
  0
 10
5.350243
 20
7.143495
 30
0.000000
  0
VERTEX
  8
LAYER-1
 10
5.350243
 20
7.143495
 30
0.000000
  0
VERTEX
  8
LAYER-1
 10
5.314648
 20
7.143495
 30
0.000000
  0
SEQEND
  8
LAYER-1
  0
POLYLINE
  8
LAYER-1
 66
  1
 70
  0
 62
  0
 10
4.532368
 20
7.143495
 30
0.000000
  0
VERTEX
  8
LAYER-1
 10
4.532368
 20
7.143495
 30
0.000000
  0
VERTEX
  8
LAYER-1
 10
4.496777
 20
7.143495
 30
0.000000
  0
SEQEND
  8
LAYER-1
  0
POLYLINE
  8
LAYER-1
 66
  1
 70
  0
 62
  0
 10
3.884230
 20
7.143419
 30
0.000000
  0
VERTEX
  8
LAYER-1
 10
3.884230
 20
7.143419
 30
0.000000
  0
VERTEX
  8
LAYER-1
 10
3.848638
 20
7.143419
 30
0.000000
  0
SEQEND
  8
LAYER-1
  0
TEXT
  8
LAYER-1
 62
  0
 10
1.083858
 20
7.075740
 30
0.000000
 40
0.125000
  1
Rail
 72
  5
 11
1.458858
 21
7.075740
 31
0.000000
  0
TEXT
  8
LAYER-1
 62
  0
 10
5.889414
 20
5.561851
 30
0.000000
 40
0.125000
  1
Panel de
 72
  5
 11
6.639414
 21
5.561851
 31
0.000000
  0
TEXT
  8
LAYER-1
 62
  0
 10
5.889414
 20
5.367406
 30
0.000000
 40
0.125000
  1
aluminio
 72
  5
 11
6.625525
 21
5.367406
 31
0.000000
  0
POLYLINE
  8
LAYER-1
 66
  1
 70
  0
 62
  0
 10
5.823007
 20
5.474177
 30
0.000000
  0
VERTEX
  8
LAYER-1
 10
5.823007
 20
5.474177
 30
0.000000
  0
VERTEX
  8
LAYER-1
 10
5.581931
 20
5.789271
 30
0.000000
  0
SEQEND
  8
LAYER-1
  0
POLYLINE
  8
LAYER-1
 66
  1
 70
  1
 62
  0
  0
VERTEX
  8
LAYER-1
 10
5.569970
 20
5.804906
 30
0.000000
  0
VERTEX
  8
LAYER-1
 10
5.645259
 20
5.775071
 30
0.000000
  0
VERTEX
  8
LAYER-1
 10
5.612167
 20
5.749752
 30
0.000000
  0
VERTEX
  8
LAYER-1
 10
5.579075
 20
5.724433
 30
0.000000
  0
VERTEX
  8
LAYER-1
 10
5.569970
 20
5.804906
 30
0.000000
  0
SEQEND
  8
LAYER-1
  0
POLYLINE
  8
LAYER-1
 66
  1
 70
  0
 62
  0
 10
0.013889
 20
5.133888
 30
0.000000
  0
VERTEX
  8
LAYER-1
 10
0.013889
 20
5.133888
 30
0.000000
  0
VERTEX
  8
LAYER-1
 10
0.013889
 20
3.435410
 30
0.000000
  0
SEQEND
  8
LAYER-1
  0
POLYLINE
  8
LAYER-1
 66
  1
 70
  0
 62
  0
 10
0.031292
 20
5.133888
 30
0.000000
  0
VERTEX
  8
LAYER-1
 10
0.031292
 20
5.133888
 30
0.000000
  0
VERTEX
  8
LAYER-1
 10
0.031292
 20
3.435410
 30
0.000000
  0
SEQEND
  8
LAYER-1
  0
POLYLINE
  8
LAYER-1
 66
  1
 70
  0
 62
  0
 10
0.145694
 20
5.133888
 30
0.000000
  0
VERTEX
  8
LAYER-1
 10
0.145694
 20
5.133888
 30
0.000000
  0
VERTEX
  8
LAYER-1
 10
0.145694
 20
3.435410
 30
0.000000
  0
SEQEND
  8
LAYER-1
  0
POLYLINE
  8
LAYER-1
 66
  1
 70
  0
 62
  0
 10
0.163098
 20
5.133888
 30
0.000000
  0
VERTEX
  8
LAYER-1
 10
0.163098
 20
5.133888
 30
0.000000
  0
VERTEX
  8
LAYER-1
 10
0.163098
 20
3.435410
 30
0.000000
  0
SEQEND
  8
LAYER-1
  0
POLYLINE
  8
LAYER-1
 66
  1
 70
  0
 62
  0
 10
0.162271
 20
5.133888
 30
0.000000
  0
VERTEX
  8
LAYER-1
 10
0.162271
 20
5.133888
 30
0.000000
  0
VERTEX
  8
LAYER-1
 10
0.162271
 20
3.435410
 30
0.000000
  0
SEQEND
  8
LAYER-1
  0
POLYLINE
  8
LAYER-1
 66
  1
 70
  0
 62
  0
 10
0.179675
 20
5.133888
 30
0.000000
  0
VERTEX
  8
LAYER-1
 10
0.179675
 20
5.133888
 30
0.000000
  0
VERTEX
  8
LAYER-1
 10
0.179675
 20
3.435410
 30
0.000000
  0
SEQEND
  8
LAYER-1
  0
POLYLINE
  8
LAYER-1
 66
  1
 70
  0
 62
  0
 10
0.294077
 20
5.133888
 30
0.000000
  0
VERTEX
  8
LAYER-1
 10
0.294077
 20
5.133888
 30
0.000000
  0
VERTEX
  8
LAYER-1
 10
0.294077
 20
3.435410
 30
0.000000
  0
SEQEND
  8
LAYER-1
  0
POLYLINE
  8
LAYER-1
 66
  1
 70
  0
 62
  0
 10
0.311480
 20
5.133888
 30
0.000000
  0
VERTEX
  8
LAYER-1
 10
0.311480
 20
5.133888
 30
0.000000
  0
VERTEX
  8
LAYER-1
 10
0.311480
 20
3.435410
 30
0.000000
  0
SEQEND
  8
LAYER-1
  0
POLYLINE
  8
LAYER-1
 66
  1
 70
  0
 62
  0
 10
0.310653
 20
5.133888
 30
0.000000
  0
VERTEX
  8
LAYER-1
 10
0.310653
 20
5.133888
 30
0.000000
  0
VERTEX
  8
LAYER-1
 10
0.310653
 20
3.435410
 30
0.000000
  0
SEQEND
  8
LAYER-1
  0
POLYLINE
  8
LAYER-1
 66
  1
 70
  0
 62
  0
 10
0.328057
 20
5.133888
 30
0.000000
  0
VERTEX
  8
LAYER-1
 10
0.328057
 20
5.133888
 30
0.000000
  0
VERTEX
  8
LAYER-1
 10
0.328057
 20
3.435410
 30
0.000000
  0
SEQEND
  8
LAYER-1
  0
POLYLINE
  8
LAYER-1
 66
  1
 70
  0
 62
  0
 10
0.442459
 20
5.133888
 30
0.000000
  0
VERTEX
  8
LAYER-1
 10
0.442459
 20
5.133888
 30
0.000000
  0
VERTEX
  8
LAYER-1
 10
0.442459
 20
3.435410
 30
0.000000
  0
SEQEND
  8
LAYER-1
  0
POLYLINE
  8
LAYER-1
 66
  1
 70
  0
 62
  0
 10
0.459861
 20
5.133888
 30
0.000000
  0
VERTEX
  8
LAYER-1
 10
0.459861
 20
5.133888
 30
0.000000
  0
VERTEX
  8
LAYER-1
 10
0.459861
 20
3.435410
 30
0.000000
  0
SEQEND
  8
LAYER-1
  0
POLYLINE
  8
LAYER-1
 66
  1
 70
  0
 62
  0
 10
0.459034
 20
5.133888
 30
0.000000
  0
VERTEX
  8
LAYER-1
 10
0.459034
 20
5.133888
 30
0.000000
  0
VERTEX
  8
LAYER-1
 10
0.459034
 20
3.435410
 30
0.000000
  0
SEQEND
  8
LAYER-1
  0
POLYLINE
  8
LAYER-1
 66
  1
 70
  0
 62
  0
 10
0.476437
 20
5.133888
 30
0.000000
  0
VERTEX
  8
LAYER-1
 10
0.476437
 20
5.133888
 30
0.000000
  0
VERTEX
  8
LAYER-1
 10
0.476437
 20
3.435410
 30
0.000000
  0
SEQEND
  8
LAYER-1
  0
POLYLINE
  8
LAYER-1
 66
  1
 70
  0
 62
  0
 10
0.590839
 20
5.133888
 30
0.000000
  0
VERTEX
  8
LAYER-1
 10
0.590839
 20
5.133888
 30
0.000000
  0
VERTEX
  8
LAYER-1
 10
0.590839
 20
3.435410
 30
0.000000
  0
SEQEND
  8
LAYER-1
  0
POLYLINE
  8
LAYER-1
 66
  1
 70
  0
 62
  0
 10
0.608244
 20
5.133888
 30
0.000000
  0
VERTEX
  8
LAYER-1
 10
0.608244
 20
5.133888
 30
0.000000
  0
VERTEX
  8
LAYER-1
 10
0.608244
 20
3.435410
 30
0.000000
  0
SEQEND
  8
LAYER-1
  0
POLYLINE
  8
LAYER-1
 66
  1
 70
  0
 62
  0
 10
0.607415
 20
5.133888
 30
0.000000
  0
VERTEX
  8
LAYER-1
 10
0.607415
 20
5.133888
 30
0.000000
  0
VERTEX
  8
LAYER-1
 10
0.607415
 20
3.435410
 30
0.000000
  0
SEQEND
  8
LAYER-1
  0
POLYLINE
  8
LAYER-1
 66
  1
 70
  0
 62
  0
 10
0.624820
 20
5.133888
 30
0.000000
  0
VERTEX
  8
LAYER-1
 10
0.624820
 20
5.133888
 30
0.000000
  0
VERTEX
  8
LAYER-1
 10
0.624820
 20
3.435410
 30
0.000000
  0
SEQEND
  8
LAYER-1
  0
POLYLINE
  8
LAYER-1
 66
  1
 70
  0
 62
  0
 10
0.739220
 20
5.133888
 30
0.000000
  0
VERTEX
  8
LAYER-1
 10
0.739220
 20
5.133888
 30
0.000000
  0
VERTEX
  8
LAYER-1
 10
0.739220
 20
3.435410
 30
0.000000
  0
SEQEND
  8
LAYER-1
  0
POLYLINE
  8
LAYER-1
 66
  1
 70
  0
 62
  0
 10
0.756625
 20
5.133888
 30
0.000000
  0
VERTEX
  8
LAYER-1
 10
0.756625
 20
5.133888
 30
0.000000
  0
VERTEX
  8
LAYER-1
 10
0.756625
 20
3.435410
 30
0.000000
  0
SEQEND
  8
LAYER-1
  0
POLYLINE
  8
LAYER-1
 66
  1
 70
  0
 62
  0
 10
0.755797
 20
5.133888
 30
0.000000
  0
VERTEX
  8
LAYER-1
 10
0.755797
 20
5.133888
 30
0.000000
  0
VERTEX
  8
LAYER-1
 10
0.755797
 20
3.435410
 30
0.000000
  0
SEQEND
  8
LAYER-1
  0
POLYLINE
  8
LAYER-1
 66
  1
 70
  0
 62
  0
 10
0.773200
 20
5.133888
 30
0.000000
  0
VERTEX
  8
LAYER-1
 10
0.773200
 20
5.133888
 30
0.000000
  0
VERTEX
  8
LAYER-1
 10
0.773200
 20
3.435410
 30
0.000000
  0
SEQEND
  8
LAYER-1
  0
POLYLINE
  8
LAYER-1
 66
  1
 70
  0
 62
  0
 10
0.887603
 20
5.133888
 30
0.000000
  0
VERTEX
  8
LAYER-1
 10
0.887603
 20
5.133888
 30
0.000000
  0
VERTEX
  8
LAYER-1
 10
0.887603
 20
3.435410
 30
0.000000
  0
SEQEND
  8
LAYER-1
  0
POLYLINE
  8
LAYER-1
 66
  1
 70
  0
 62
  0
 10
0.905008
 20
5.133888
 30
0.000000
  0
VERTEX
  8
LAYER-1
 10
0.905008
 20
5.133888
 30
0.000000
  0
VERTEX
  8
LAYER-1
 10
0.905008
 20
3.435410
 30
0.000000
  0
SEQEND
  8
LAYER-1
  0
POLYLINE
  8
LAYER-1
 66
  1
 70
  0
 62
  0
 10
0.904180
 20
5.133888
 30
0.000000
  0
VERTEX
  8
LAYER-1
 10
0.904180
 20
5.133888
 30
0.000000
  0
VERTEX
  8
LAYER-1
 10
0.904180
 20
3.435410
 30
0.000000
  0
SEQEND
  8
LAYER-1
  0
POLYLINE
  8
LAYER-1
 66
  1
 70
  0
 62
  0
 10
0.921583
 20
5.133888
 30
0.000000
  0
VERTEX
  8
LAYER-1
 10
0.921583
 20
5.133888
 30
0.000000
  0
VERTEX
  8
LAYER-1
 10
0.921583
 20
3.435410
 30
0.000000
  0
SEQEND
  8
LAYER-1
  0
POLYLINE
  8
LAYER-1
 66
  1
 70
  0
 62
  0
 10
1.035985
 20
5.133888
 30
0.000000
  0
VERTEX
  8
LAYER-1
 10
1.035985
 20
5.133888
 30
0.000000
  0
VERTEX
  8
LAYER-1
 10
1.035985
 20
3.435410
 30
0.000000
  0
SEQEND
  8
LAYER-1
  0
POLYLINE
  8
LAYER-1
 66
  1
 70
  0
 62
  0
 10
1.053388
 20
5.133888
 30
0.000000
  0
VERTEX
  8
LAYER-1
 10
1.053388
 20
5.133888
 30
0.000000
  0
VERTEX
  8
LAYER-1
 10
1.053388
 20
3.435410
 30
0.000000
  0
SEQEND
  8
LAYER-1
  0
POLYLINE
  8
LAYER-1
 66
  1
 70
  1
 62
  0
  0
VERTEX
  8
LAYER-1
 10
0.031292
 20
5.133228
 30
0.000000
  0
VERTEX
  8
LAYER-1
 10
0.145759
 20
5.133228
 30
0.000000
  0
VERTEX
  8
LAYER-1
 10
0.145759
 20
3.436832
 30
0.000000
  0
VERTEX
  8
LAYER-1
 10
0.031292
 20
3.436832
 30
0.000000
  0
SEQEND
  8
LAYER-1
  0
POLYLINE
  8
LAYER-1
 66
  1
 70
  1
 62
  0
  0
VERTEX
  8
LAYER-1
 10
0.179593
 20
5.029196
 30
0.000000
  0
VERTEX
  8
LAYER-1
 10
0.294205
 20
5.029196
 30
0.000000
  0
VERTEX
  8
LAYER-1
 10
0.294205
 20
3.436764
 30
0.000000
  0
VERTEX
  8
LAYER-1
 10
0.179593
 20
3.436764
 30
0.000000
  0
SEQEND
  8
LAYER-1
  0
POLYLINE
  8
LAYER-1
 66
  1
 70
  1
 62
  0
  0
VERTEX
  8
LAYER-1
 10
0.476338
 20
5.029196
 30
0.000000
  0
VERTEX
  8
LAYER-1
 10
0.590803
 20
5.029196
 30
0.000000
  0
VERTEX
  8
LAYER-1
 10
0.590803
 20
3.436764
 30
0.000000
  0
VERTEX
  8
LAYER-1
 10
0.476338
 20
3.436764
 30
0.000000
  0
SEQEND
  8
LAYER-1
  0
POLYLINE
  8
LAYER-1
 66
  1
 70
  1
 62
  0
  0
VERTEX
  8
LAYER-1
 10
0.773228
 20
5.029196
 30
0.000000
  0
VERTEX
  8
LAYER-1
 10
0.887695
 20
5.029196
 30
0.000000
  0
VERTEX
  8
LAYER-1
 10
0.887695
 20
3.436764
 30
0.000000
  0
VERTEX
  8
LAYER-1
 10
0.773228
 20
3.436764
 30
0.000000
  0
SEQEND
  8
LAYER-1
  0
POLYLINE
  8
LAYER-1
 66
  1
 70
  1
 62
  0
  0
VERTEX
  8
LAYER-1
 10
0.328038
 20
5.133228
 30
0.000000
  0
VERTEX
  8
LAYER-1
 10
0.442504
 20
5.133228
 30
0.000000
  0
VERTEX
  8
LAYER-1
 10
0.442504
 20
3.436832
 30
0.000000
  0
VERTEX
  8
LAYER-1
 10
0.328038
 20
3.436832
 30
0.000000
  0
SEQEND
  8
LAYER-1
  0
POLYLINE
  8
LAYER-1
 66
  1
 70
  1
 62
  0
  0
VERTEX
  8
LAYER-1
 10
0.624929
 20
5.133228
 30
0.000000
  0
VERTEX
  8
LAYER-1
 10
0.739247
 20
5.133228
 30
0.000000
  0
VERTEX
  8
LAYER-1
 10
0.739247
 20
3.436832
 30
0.000000
  0
VERTEX
  8
LAYER-1
 10
0.624929
 20
3.436832
 30
0.000000
  0
SEQEND
  8
LAYER-1
  0
POLYLINE
  8
LAYER-1
 66
  1
 70
  1
 62
  0
  0
VERTEX
  8
LAYER-1
 10
0.921676
 20
5.133228
 30
0.000000
  0
VERTEX
  8
LAYER-1
 10
1.035995
 20
5.133228
 30
0.000000
  0
VERTEX
  8
LAYER-1
 10
1.035995
 20
3.436832
 30
0.000000
  0
VERTEX
  8
LAYER-1
 10
0.921676
 20
3.436832
 30
0.000000
  0
SEQEND
  8
LAYER-1
  0
POLYLINE
  8
LAYER-1
 66
  1
 70
  0
 62
  0
 10
0.013889
 20
5.133888
 30
0.000000
  0
VERTEX
  8
LAYER-1
 10
0.013889
 20
5.133888
 30
0.000000
  0
VERTEX
  8
LAYER-1
 10
1.053388
 20
5.133888
 30
0.000000
  0
SEQEND
  8
LAYER-1
  0
POLYLINE
  8
LAYER-1
 66
  1
 70
  0
 62
  0
 10
0.013889
 20
3.435410
 30
0.000000
  0
VERTEX
  8
LAYER-1
 10
0.013889
 20
3.435410
 30
0.000000
  0
VERTEX
  8
LAYER-1
 10
1.053388
 20
3.435410
 30
0.000000
  0
SEQEND
  8
LAYER-1
  0
TEXT
  8
LAYER-1
 62
  0
 10
0.208858
 20
3.228517
 30
0.000000
 40
0.104167
  1
GLOBAL
 72
  5
 11
0.861636
 21
3.228517
 31
0.000000
  0
TEXT
  8
LAYER-1
 62
  0
 10
0.264414
 20
3.131295
 30
0.000000
 40
0.083333
  1
(Opaco)
 72
  5
 11
0.722747
 21
3.131295
 31
0.000000
  0
POLYLINE
  8
LAYER-1
 66
  1
 70
  1
 62
  0
  0
VERTEX
  8
LAYER-1
 10
0.179894
 20
5.133817
 30
0.000000
  0
VERTEX
  8
LAYER-1
 10
0.294505
 20
5.133817
 30
0.000000
  0
VERTEX
  8
LAYER-1
 10
0.294505
 20
5.030183
 30
0.000000
  0
VERTEX
  8
LAYER-1
 10
0.179894
 20
5.030183
 30
0.000000
  0
SEQEND
  8
LAYER-1
  0
POLYLINE
  8
LAYER-1
 66
  1
 70
  1
 62
  0
  0
VERTEX
  8
LAYER-1
 10
0.476639
 20
5.133817
 30
0.000000
  0
VERTEX
  8
LAYER-1
 10
0.591104
 20
5.133817
 30
0.000000
  0
VERTEX
  8
LAYER-1
 10
0.591104
 20
5.030183
 30
0.000000
  0
VERTEX
  8
LAYER-1
 10
0.476639
 20
5.030183
 30
0.000000
  0
SEQEND
  8
LAYER-1
  0
POLYLINE
  8
LAYER-1
 66
  1
 70
  1
 62
  0
  0
VERTEX
  8
LAYER-1
 10
0.773529
 20
5.133817
 30
0.000000
  0
VERTEX
  8
LAYER-1
 10
0.887995
 20
5.133817
 30
0.000000
  0
VERTEX
  8
LAYER-1
 10
0.887995
 20
5.030183
 30
0.000000
  0
VERTEX
  8
LAYER-1
 10
0.773529
 20
5.030183
 30
0.000000
  0
SEQEND
  8
LAYER-1
  0
POLYLINE
  8
LAYER-1
 66
  1
 70
  0
 62
  7
 10
0.179894
 20
5.030183
 30
0.000000
  0
VERTEX
  8
LAYER-1
 10
0.179894
 20
5.030183
 30
0.000000
  0
VERTEX
  8
LAYER-1
 10
0.294505
 20
5.030183
 30
0.000000
  0
SEQEND
  8
LAYER-1
  0
POLYLINE
  8
LAYER-1
 66
  1
 70
  0
 62
  7
 10
0.476639
 20
5.030183
 30
0.000000
  0
VERTEX
  8
LAYER-1
 10
0.476639
 20
5.030183
 30
0.000000
  0
VERTEX
  8
LAYER-1
 10
0.591104
 20
5.030183
 30
0.000000
  0
SEQEND
  8
LAYER-1
  0
POLYLINE
  8
LAYER-1
 66
  1
 70
  0
 62
  7
 10
0.773529
 20
5.030183
 30
0.000000
  0
VERTEX
  8
LAYER-1
 10
0.773529
 20
5.030183
 30
0.000000
  0
VERTEX
  8
LAYER-1
 10
0.887995
 20
5.030183
 30
0.000000
  0
SEQEND
  8
LAYER-1
  0
POLYLINE
  8
LAYER-1
 66
  1
 70
  0
 62
  7
 10
0.229958
 20
5.133822
 30
0.000000
  0
VERTEX
  8
LAYER-1
 10
0.229958
 20
5.133822
 30
0.000000
  0
VERTEX
  8
LAYER-1
 10
0.229958
 20
5.030517
 30
0.000000
  0
SEQEND
  8
LAYER-1
  0
POLYLINE
  8
LAYER-1
 66
  1
 70
  0
 62
  7
 10
0.241878
 20
5.133822
 30
0.000000
  0
VERTEX
  8
LAYER-1
 10
0.241878
 20
5.133822
 30
0.000000
  0
VERTEX
  8
LAYER-1
 10
0.241878
 20
5.030517
 30
0.000000
  0
SEQEND
  8
LAYER-1
  0
POLYLINE
  8
LAYER-1
 66
  1
 70
  0
 62
  7
 10
0.527954
 20
5.135411
 30
0.000000
  0
VERTEX
  8
LAYER-1
 10
0.527954
 20
5.135411
 30
0.000000
  0
VERTEX
  8
LAYER-1
 10
0.527954
 20
5.032105
 30
0.000000
  0
SEQEND
  8
LAYER-1
  0
POLYLINE
  8
LAYER-1
 66
  1
 70
  0
 62
  7
 10
0.539873
 20
5.135411
 30
0.000000
  0
VERTEX
  8
LAYER-1
 10
0.539873
 20
5.135411
 30
0.000000
  0
VERTEX
  8
LAYER-1
 10
0.539873
 20
5.032105
 30
0.000000
  0
SEQEND
  8
LAYER-1
  0
POLYLINE
  8
LAYER-1
 66
  1
 70
  0
 62
  7
 10
0.825155
 20
5.133028
 30
0.000000
  0
VERTEX
  8
LAYER-1
 10
0.825155
 20
5.133028
 30
0.000000
  0
VERTEX
  8
LAYER-1
 10
0.825155
 20
5.029723
 30
0.000000
  0
SEQEND
  8
LAYER-1
  0
POLYLINE
  8
LAYER-1
 66
  1
 70
  0
 62
  7
 10
0.837075
 20
5.133028
 30
0.000000
  0
VERTEX
  8
LAYER-1
 10
0.837075
 20
5.133028
 30
0.000000
  0
VERTEX
  8
LAYER-1
 10
0.837075
 20
5.029723
 30
0.000000
  0
SEQEND
  8
LAYER-1
  0
POLYLINE
  8
LAYER-1
 66
  1
 70
  0
 62
  0
 10
0.771443
 20
0.037543
 30
0.000000
  0
VERTEX
  8
LAYER-1
 10
0.771443
 20
0.037543
 30
0.000000
  0
VERTEX
  8
LAYER-1
 10
0.797983
 20
0.034087
 30
0.000000
  0
VERTEX
  8
LAYER-1
 10
0.817362
 20
0.034087
 30
0.000000
  0
VERTEX
  8
LAYER-1
 10
0.836740
 20
0.037560
 30
0.000000
  0
VERTEX
  8
LAYER-1
 10
0.856118
 20
0.037560
 30
0.000000
  0
VERTEX
  8
LAYER-1
 10
0.902626
 20
0.044504
 30
0.000000
  0
VERTEX
  8
LAYER-1
 10
0.937507
 20
0.054921
 30
0.000000
  0
VERTEX
  8
LAYER-1
 10
0.959792
 20
0.059261
 30
0.000000
  0
VERTEX
  8
LAYER-1
 10
0.981593
 20
0.060998
 30
0.000000
  0
VERTEX
  8
LAYER-1
 10
1.011145
 20
0.058393
 30
0.000000
  0
VERTEX
  8
LAYER-1
 10
1.042150
 20
0.054921
 30
0.000000
  0
VERTEX
  8
LAYER-1
 10
1.069280
 20
0.047977
 30
0.000000
  0
VERTEX
  8
LAYER-1
 10
1.088658
 20
0.044504
 30
0.000000
  0
VERTEX
  8
LAYER-1
 10
1.119663
 20
0.041033
 30
0.000000
  0
VERTEX
  8
LAYER-1
 10
1.139042
 20
0.037560
 30
0.000000
  0
VERTEX
  8
LAYER-1
 10
1.162296
 20
0.034087
 30
0.000000
  0
VERTEX
  8
LAYER-1
 10
1.189425
 20
0.034087
 30
0.000000
  0
VERTEX
  8
LAYER-1
 10
1.216555
 20
0.034087
 30
0.000000
  0
VERTEX
  8
LAYER-1
 10
1.239809
 20
0.034087
 30
0.000000
  0
VERTEX
  8
LAYER-1
 10
1.263063
 20
0.030616
 30
0.000000
  0
VERTEX
  8
LAYER-1
 10
1.301821
 20
0.030616
 30
0.000000
  0
VERTEX
  8
LAYER-1
 10
1.332827
 20
0.030616
 30
0.000000
  0
VERTEX
  8
LAYER-1
 10
1.352204
 20
0.027143
 30
0.000000
  0
VERTEX
  8
LAYER-1
 10
1.383210
 20
0.023671
 30
0.000000
  0
VERTEX
  8
LAYER-1
 10
1.414216
 20
0.020198
 30
0.000000
  0
VERTEX
  8
LAYER-1
 10
1.452972
 20
0.020198
 30
0.000000
  0
VERTEX
  8
LAYER-1
 10
1.483978
 20
0.020198
 30
0.000000
  0
VERTEX
  8
LAYER-1
 10
1.522734
 20
0.020198
 30
0.000000
  0
VERTEX
  8
LAYER-1
 10
1.553739
 20
0.027143
 30
0.000000
  0
VERTEX
  8
LAYER-1
 10
1.576993
 20
0.027143
 30
0.000000
  0
VERTEX
  8
LAYER-1
 10
1.596371
 20
0.030616
 30
0.000000
  0
VERTEX
  8
LAYER-1
 10
1.619626
 20
0.030616
 30
0.000000
  0
VERTEX
  8
LAYER-1
 10
1.639004
 20
0.030616
 30
0.000000
  0
VERTEX
  8
LAYER-1
 10
1.681636
 20
0.030616
 30
0.000000
  0
VERTEX
  8
LAYER-1
 10
1.728145
 20
0.023671
 30
0.000000
  0
VERTEX
  8
LAYER-1
 10
1.770776
 20
0.020198
 30
0.000000
  0
VERTEX
  8
LAYER-1
 10
1.832787
 20
0.013254
 30
0.000000
  0
VERTEX
  8
LAYER-1
 10
1.890922
 20
0.006310
 30
0.000000
  0
VERTEX
  8
LAYER-1
 10
1.941305
 20
0.006310
 30
0.000000
  0
VERTEX
  8
LAYER-1
 10
1.968435
 20
0.006310
 30
0.000000
  0
VERTEX
  8
LAYER-1
 10
2.003316
 20
0.006310
 30
0.000000
  0
VERTEX
  8
LAYER-1
 10
2.023663
 20
0.007178
 30
0.000000
  0
VERTEX
  8
LAYER-1
 10
2.060966
 20
0.009348
 30
0.000000
  0
VERTEX
  8
LAYER-1
 10
2.107959
 20
0.020198
 30
0.000000
  0
VERTEX
  8
LAYER-1
 10
2.150591
 20
0.034087
 30
0.000000
  0
VERTEX
  8
LAYER-1
 10
2.185472
 20
0.044504
 30
0.000000
  0
VERTEX
  8
LAYER-1
 10
2.212602
 20
0.054921
 30
0.000000
  0
VERTEX
  8
LAYER-1
 10
2.235856
 20
0.061866
 30
0.000000
  0
VERTEX
  8
LAYER-1
 10
2.259110
 20
0.061866
 30
0.000000
  0
VERTEX
  8
LAYER-1
 10
2.282364
 20
0.061866
 30
0.000000
  0
VERTEX
  8
LAYER-1
 10
2.305618
 20
0.061866
 30
0.000000
  0
VERTEX
  8
LAYER-1
 10
2.340499
 20
0.054921
 30
0.000000
  0
VERTEX
  8
LAYER-1
 10
2.371504
 20
0.047977
 30
0.000000
  0
VERTEX
  8
LAYER-1
 10
2.394758
 20
0.041033
 30
0.000000
  0
VERTEX
  8
LAYER-1
 10
2.414136
 20
0.037560
 30
0.000000
  0
VERTEX
  8
LAYER-1
 10
2.437390
 20
0.030616
 30
0.000000
  0
VERTEX
  8
LAYER-1
 10
2.456768
 20
0.023671
 30
0.000000
  0
VERTEX
  8
LAYER-1
 10
2.480022
 20
0.020198
 30
0.000000
  0
VERTEX
  8
LAYER-1
 10
2.499401
 20
0.020198
 30
0.000000
  0
VERTEX
  8
LAYER-1
 10
2.530406
 20
0.016727
 30
0.000000
  0
VERTEX
  8
LAYER-1
 10
2.557536
 20
0.016727
 30
0.000000
  0
VERTEX
  8
LAYER-1
 10
2.592417
 20
0.016727
 30
0.000000
  0
VERTEX
  8
LAYER-1
 10
2.619546
 20
0.020198
 30
0.000000
  0
VERTEX
  8
LAYER-1
 10
2.654428
 20
0.030616
 30
0.000000
  0
VERTEX
  8
LAYER-1
 10
2.673805
 20
0.030616
 30
0.000000
  0
VERTEX
  8
LAYER-1
 10
2.697060
 20
0.030616
 30
0.000000
  0
VERTEX
  8
LAYER-1
 10
2.716438
 20
0.030616
 30
0.000000
  0
VERTEX
  8
LAYER-1
 10
2.739692
 20
0.034087
 30
0.000000
  0
VERTEX
  8
LAYER-1
 10
2.762946
 20
0.037560
 30
0.000000
  0
VERTEX
  8
LAYER-1
 10
2.793951
 20
0.037560
 30
0.000000
  0
VERTEX
  8
LAYER-1
 10
2.824957
 20
0.037560
 30
0.000000
  0
VERTEX
  8
LAYER-1
 10
2.848210
 20
0.037560
 30
0.000000
  0
VERTEX
  8
LAYER-1
 10
2.871464
 20
0.037560
 30
0.000000
  0
VERTEX
  8
LAYER-1
 10
2.890843
 20
0.034087
 30
0.000000
  0
VERTEX
  8
LAYER-1
 10
2.910222
 20
0.030616
 30
0.000000
  0
VERTEX
  8
LAYER-1
 10
2.929600
 20
0.027143
 30
0.000000
  0
VERTEX
  8
LAYER-1
 10
2.948978
 20
0.023671
 30
0.000000
  0
VERTEX
  8
LAYER-1
 10
2.979984
 20
0.016727
 30
0.000000
  0
VERTEX
  8
LAYER-1
 10
3.003237
 20
0.013254
 30
0.000000
  0
VERTEX
  8
LAYER-1
 10
3.026491
 20
0.013254
 30
0.000000
  0
VERTEX
  8
LAYER-1
 10
3.045869
 20
0.013254
 30
0.000000
  0
VERTEX
  8
LAYER-1
 10
3.072999
 20
0.013254
 30
0.000000
  0
VERTEX
  8
LAYER-1
 10
3.104004
 20
0.016727
 30
0.000000
  0
VERTEX
  8
LAYER-1
 10
3.158263
 20
0.027143
 30
0.000000
  0
VERTEX
  8
LAYER-1
 10
3.204771
 20
0.037560
 30
0.000000
  0
VERTEX
  8
LAYER-1
 10
3.247403
 20
0.044504
 30
0.000000
  0
VERTEX
  8
LAYER-1
 10
3.278409
 20
0.047977
 30
0.000000
  0
VERTEX
  8
LAYER-1
 10
3.317165
 20
0.051448
 30
0.000000
  0
VERTEX
  8
LAYER-1
 10
3.348171
 20
0.054921
 30
0.000000
  0
VERTEX
  8
LAYER-1
 10
3.373847
 20
0.055790
 30
0.000000
  0
VERTEX
  8
LAYER-1
 10
3.391287
 20
0.053619
 30
0.000000
  0
VERTEX
  8
LAYER-1
 10
3.412604
 20
0.048845
 30
0.000000
  0
VERTEX
  8
LAYER-1
 10
3.433435
 20
0.037560
 30
0.000000
  0
VERTEX
  8
LAYER-1
 10
3.456689
 20
0.034087
 30
0.000000
  0
VERTEX
  8
LAYER-1
 10
3.476068
 20
0.034087
 30
0.000000
  0
VERTEX
  8
LAYER-1
 10
3.495446
 20
0.034087
 30
0.000000
  0
VERTEX
  8
LAYER-1
 10
3.514826
 20
0.034087
 30
0.000000
  0
VERTEX
  8
LAYER-1
 10
3.545831
 20
0.034087
 30
0.000000
  0
VERTEX
  8
LAYER-1
 10
3.569085
 20
0.034087
 30
0.000000
  0
VERTEX
  8
LAYER-1
 10
3.592339
 20
0.034087
 30
0.000000
  0
VERTEX
  8
LAYER-1
 10
3.611718
 20
0.034087
 30
0.000000
  0
VERTEX
  8
LAYER-1
 10
3.634972
 20
0.034087
 30
0.000000
  0
VERTEX
  8
LAYER-1
 10
3.658226
 20
0.034087
 30
0.000000
  0
VERTEX
  8
LAYER-1
 10
3.677604
 20
0.034087
 30
0.000000
  0
VERTEX
  8
LAYER-1
 10
3.704734
 20
0.034087
 30
0.000000
  0
VERTEX
  8
LAYER-1
 10
3.727987
 20
0.030616
 30
0.000000
  0
VERTEX
  8
LAYER-1
 10
3.750273
 20
0.022803
 30
0.000000
  0
VERTEX
  8
LAYER-1
 10
3.790967
 20
0.020198
 30
0.000000
  0
VERTEX
  8
LAYER-1
 10
3.828755
 20
0.023671
 30
0.000000
  0
VERTEX
  8
LAYER-1
 10
3.848133
 20
0.030616
 30
0.000000
  0
VERTEX
  8
LAYER-1
 10
3.871387
 20
0.037560
 30
0.000000
  0
VERTEX
  8
LAYER-1
 10
3.891251
 20
0.041467
 30
0.000000
  0
VERTEX
  8
LAYER-1
 10
3.914020
 20
0.047977
 30
0.000000
  0
VERTEX
  8
LAYER-1
 10
3.937272
 20
0.047977
 30
0.000000
  0
VERTEX
  8
LAYER-1
 10
3.960527
 20
0.044504
 30
0.000000
  0
VERTEX
  8
LAYER-1
 10
3.983782
 20
0.044504
 30
0.000000
  0
VERTEX
  8
LAYER-1
 10
4.007035
 20
0.044504
 30
0.000000
  0
VERTEX
  8
LAYER-1
 10
4.026415
 20
0.041033
 30
0.000000
  0
VERTEX
  8
LAYER-1
 10
4.053544
 20
0.041033
 30
0.000000
  0
VERTEX
  8
LAYER-1
 10
4.084549
 20
0.041033
 30
0.000000
  0
VERTEX
  8
LAYER-1
 10
4.115554
 20
0.047977
 30
0.000000
  0
VERTEX
  8
LAYER-1
 10
4.134933
 20
0.051448
 30
0.000000
  0
VERTEX
  8
LAYER-1
 10
4.162062
 20
0.051448
 30
0.000000
  0
VERTEX
  8
LAYER-1
 10
4.185316
 20
0.054921
 30
0.000000
  0
VERTEX
  8
LAYER-1
 10
4.216321
 20
0.058393
 30
0.000000
  0
VERTEX
  8
LAYER-1
 10
4.239575
 20
0.058393
 30
0.000000
  0
VERTEX
  8
LAYER-1
 10
4.270581
 20
0.054921
 30
0.000000
  0
VERTEX
  8
LAYER-1
 10
4.313213
 20
0.044504
 30
0.000000
  0
VERTEX
  8
LAYER-1
 10
4.344218
 20
0.034087
 30
0.000000
  0
VERTEX
  8
LAYER-1
 10
4.379100
 20
0.023671
 30
0.000000
  0
VERTEX
  8
LAYER-1
 10
4.422217
 20
0.016726
 30
0.000000
  0
VERTEX
  8
LAYER-1
 10
4.469693
 20
0.017593
 30
0.000000
  0
VERTEX
  8
LAYER-1
 10
4.524921
 20
0.020198
 30
0.000000
  0
VERTEX
  8
LAYER-1
 10
4.592261
 20
0.020198
 30
0.000000
  0
VERTEX
  8
LAYER-1
 10
4.637800
 20
0.008914
 30
0.000000
  0
VERTEX
  8
LAYER-1
 10
4.667836
 20
0.002836
 30
0.000000
  0
VERTEX
  8
LAYER-1
 10
4.691090
 20
0.001968
 30
0.000000
  0
VERTEX
  8
LAYER-1
 10
4.725972
 20
0.001970
 30
0.000000
  0
VERTEX
  8
LAYER-1
 10
4.751163
 20
0.006310
 30
0.000000
  0
VERTEX
  8
LAYER-1
 10
4.778293
 20
0.016727
 30
0.000000
  0
VERTEX
  8
LAYER-1
 10
4.813174
 20
0.023671
 30
0.000000
  0
VERTEX
  8
LAYER-1
 10
4.840303
 20
0.030616
 30
0.000000
  0
VERTEX
  8
LAYER-1
 10
4.863558
 20
0.034087
 30
0.000000
  0
VERTEX
  8
LAYER-1
 10
4.886811
 20
0.037560
 30
0.000000
  0
VERTEX
  8
LAYER-1
 10
4.913940
 20
0.041033
 30
0.000000
  0
VERTEX
  8
LAYER-1
 10
4.941070
 20
0.047977
 30
0.000000
  0
VERTEX
  8
LAYER-1
 10
4.960448
 20
0.051448
 30
0.000000
  0
VERTEX
  8
LAYER-1
 10
4.991454
 20
0.054921
 30
0.000000
  0
VERTEX
  8
LAYER-1
 10
5.014708
 20
0.061866
 30
0.000000
  0
VERTEX
  8
LAYER-1
 10
5.038446
 20
0.072717
 30
0.000000
  0
VERTEX
  8
LAYER-1
 10
5.061215
 20
0.079227
 30
0.000000
  0
VERTEX
  8
LAYER-1
 10
5.084470
 20
0.079227
 30
0.000000
  0
VERTEX
  8
LAYER-1
 10
5.111599
 20
0.079227
 30
0.000000
  0
VERTEX
  8
LAYER-1
 10
5.138728
 20
0.079227
 30
0.000000
  0
VERTEX
  8
LAYER-1
 10
5.177486
 20
0.075754
 30
0.000000
  0
VERTEX
  8
LAYER-1
 10
5.231745
 20
0.072283
 30
0.000000
  0
VERTEX
  8
LAYER-1
 10
5.274377
 20
0.072283
 30
0.000000
  0
VERTEX
  8
LAYER-1
 10
5.305381
 20
0.072283
 30
0.000000
  0
VERTEX
  8
LAYER-1
 10
5.328636
 20
0.072283
 30
0.000000
  0
VERTEX
  8
LAYER-1
 10
5.351891
 20
0.072283
 30
0.000000
  0
VERTEX
  8
LAYER-1
 10
5.382895
 20
0.075754
 30
0.000000
  0
VERTEX
  8
LAYER-1
 10
5.421652
 20
0.075754
 30
0.000000
  0
VERTEX
  8
LAYER-1
 10
5.452657
 20
0.075754
 30
0.000000
  0
VERTEX
  8
LAYER-1
 10
5.475911
 20
0.079227
 30
0.000000
  0
VERTEX
  8
LAYER-1
 10
5.506916
 20
0.079227
 30
0.000000
  0
VERTEX
  8
LAYER-1
 10
5.526295
 20
0.079227
 30
0.000000
  0
VERTEX
  8
LAYER-1
 10
5.557300
 20
0.070546
 30
0.000000
  0
VERTEX
  8
LAYER-1
 10
5.584429
 20
0.058393
 30
0.000000
  0
VERTEX
  8
LAYER-1
 10
5.619310
 20
0.044504
 30
0.000000
  0
VERTEX
  8
LAYER-1
 10
5.646439
 20
0.037560
 30
0.000000
  0
VERTEX
  8
LAYER-1
 10
5.677446
 20
0.030616
 30
0.000000
  0
VERTEX
  8
LAYER-1
 10
5.705060
 20
0.028446
 30
0.000000
  0
VERTEX
  8
LAYER-1
 10
5.731705
 20
0.027143
 30
0.000000
  0
VERTEX
  8
LAYER-1
 10
5.754959
 20
0.030616
 30
0.000000
  0
VERTEX
  8
LAYER-1
 10
5.778213
 20
0.037560
 30
0.000000
  0
VERTEX
  8
LAYER-1
 10
5.805343
 20
0.041033
 30
0.000000
  0
VERTEX
  8
LAYER-1
 10
5.828596
 20
0.044504
 30
0.000000
  0
VERTEX
  8
LAYER-1
 10
5.851851
 20
0.047977
 30
0.000000
  0
VERTEX
  8
LAYER-1
 10
5.871229
 20
0.051448
 30
0.000000
  0
VERTEX
  8
LAYER-1
 10
5.894483
 20
0.051448
 30
0.000000
  0
VERTEX
  8
LAYER-1
 10
5.921612
 20
0.051448
 30
0.000000
  0
VERTEX
  8
LAYER-1
 10
5.941475
 20
0.054053
 30
0.000000
  0
VERTEX
  8
LAYER-1
 10
5.968120
 20
0.058393
 30
0.000000
  0
VERTEX
  8
LAYER-1
 10
5.991374
 20
0.065337
 30
0.000000
  0
VERTEX
  8
LAYER-1
 10
6.022379
 20
0.065337
 30
0.000000
  0
VERTEX
  8
LAYER-1
 10
6.053385
 20
0.065337
 30
0.000000
  0
VERTEX
  8
LAYER-1
 10
6.072762
 20
0.065337
 30
0.000000
  0
VERTEX
  8
LAYER-1
 10
6.127022
 20
0.058393
 30
0.000000
  0
VERTEX
  8
LAYER-1
 10
6.158028
 20
0.051448
 30
0.000000
  0
VERTEX
  8
LAYER-1
 10
6.177405
 20
0.047977
 30
0.000000
  0
VERTEX
  8
LAYER-1
 10
6.212286
 20
0.047977
 30
0.000000
  0
VERTEX
  8
LAYER-1
 10
6.236025
 20
0.055355
 30
0.000000
  0
VERTEX
  8
LAYER-1
 10
6.257825
 20
0.056223
 30
0.000000
  0
VERTEX
  8
LAYER-1
 10
6.309663
 20
0.063167
 30
0.000000
  0
VERTEX
  8
LAYER-1
 10
6.358108
 20
0.073150
 30
0.000000
  0
VERTEX
  8
LAYER-1
 10
6.394443
 20
0.076623
 30
0.000000
  0
VERTEX
  8
LAYER-1
 10
6.427386
 20
0.077056
 30
0.000000
  0
VERTEX
  8
LAYER-1
 10
6.444341
 20
0.072283
 30
0.000000
  0
VERTEX
  8
LAYER-1
 10
6.462751
 20
0.068810
 30
0.000000
  0
VERTEX
  8
LAYER-1
 10
6.493757
 20
0.063602
 30
0.000000
  0
VERTEX
  8
LAYER-1
 10
6.533966
 20
0.071848
 30
0.000000
  0
VERTEX
  8
LAYER-1
 10
6.549469
 20
0.079227
 30
0.000000
  0
VERTEX
  8
LAYER-1
 10
6.572723
 20
0.079227
 30
0.000000
  0
VERTEX
  8
LAYER-1
 10
6.595977
 20
0.079227
 30
0.000000
  0
VERTEX
  8
LAYER-1
 10
6.623107
 20
0.072283
 30
0.000000
  0
VERTEX
  8
LAYER-1
 10
6.646361
 20
0.058393
 30
0.000000
  0
VERTEX
  8
LAYER-1
 10
6.673490
 20
0.047977
 30
0.000000
  0
VERTEX
  8
LAYER-1
 10
6.700620
 20
0.037560
 30
0.000000
  0
VERTEX
  8
LAYER-1
 10
6.723874
 20
0.037560
 30
0.000000
  0
VERTEX
  8
LAYER-1
 10
6.753966
 20
0.037543
 30
0.000000
  0
VERTEX
  8
LAYER-1
 10
6.778134
 20
0.047977
 30
0.000000
  0
SEQEND
  8
LAYER-1
  0
POLYLINE
  8
LAYER-1
 66
  1
 70
  0
 62
  0
 10
5.840277
 20
0.468115
 30
0.000000
  0
VERTEX
  8
LAYER-1
 10
5.840277
 20
0.468115
 30
0.000000
  0
VERTEX
  8
LAYER-1
 10
3.776411
 20
0.158535
 30
0.000000
  0
SEQEND
  8
LAYER-1
  0
POLYLINE
  8
LAYER-1
 66
  1
 70
  1
 62
  0
  0
VERTEX
  8
LAYER-1
 10
3.756943
 20
0.155615
 30
0.000000
  0
VERTEX
  8
LAYER-1
 10
3.819438
 20
0.207122
 30
0.000000
  0
VERTEX
  8
LAYER-1
 10
3.825619
 20
0.165916
 30
0.000000
  0
VERTEX
  8
LAYER-1
 10
3.831800
 20
0.124711
 30
0.000000
  0
VERTEX
  8
LAYER-1
 10
3.756943
 20
0.155615
 30
0.000000
  0
SEQEND
  8
LAYER-1
  0
TEXT
  8
LAYER-1
 62
  0
 10
1.806080
 20
8.450740
 30
0.000000
 40
0.125000
  1
OPACO
 72
  5
 11
2.458858
 21
8.450740
 31
0.000000
  0
LINE
  8
LAYER-1
 62
  0
 10
5.906775
 20
7.409073
 30
0.000000
 11
5.906775
 21
7.141034
 31
0.000000
  0
LINE
  8
LAYER-1
 62
  0
 10
5.823653
 20
7.409073
 30
0.000000
 11
6.031775
 21
7.409073
 31
0.000000
  0
LINE
  8
LAYER-1
 62
  0
 10
5.829517
 20
7.141034
 30
0.000000
 11
6.031775
 21
7.141034
 31
0.000000
  0
LINE
  8
LAYER-1
 62
  0
 10
5.936238
 20
7.379610
 30
0.000000
 11
5.877312
 21
7.438536
 31
0.000000
  0
LINE
  8
LAYER-1
 62
  0
 10
5.936238
 20
7.111571
 30
0.000000
 11
5.877312
 21
7.170497
 31
0.000000
  0
TEXT
  8
LAYER-1
 62
  0
 10
5.783283
 20
7.266470
 30
0.000000
 40
0.125000
  1
 
 50
90.000000
  0
TEXT
  8
LAYER-1
 62
  0
 10
6.236636
 20
7.284073
 30
0.000000
 40
0.125000
  1
4"
 72
  5
 11
6.458858
 21
7.284073
 31
0.000000
  0
TEXT
  8
LAYER-1
 62
  0
 10
6.014414
 20
7.089628
 30
0.000000
 40
0.125000
  1
102mm
 72
  5
 11
6.681080
 21
7.089628
 31
0.000000
  0
LINE
  8
LAYER-1
 62
  0
 10
4.513545
 20
7.672283
 30
0.000000
 11
4.923267
 21
7.672283
 31
0.000000
  0
LINE
  8
LAYER-1
 62
  0
 10
4.513545
 20
7.302493
 30
0.000000
 11
4.513545
 21
7.797283
 31
0.000000
  0
LINE
  8
LAYER-1
 62
  0
 10
4.923267
 20
7.300757
 30
0.000000
 11
4.923267
 21
7.797283
 31
0.000000
  0
LINE
  8
LAYER-1
 62
  0
 10
4.543007
 20
7.701746
 30
0.000000
 11
4.484082
 21
7.642820
 31
0.000000
  0
LINE
  8
LAYER-1
 62
  0
 10
4.952730
 20
7.701746
 30
0.000000
 11
4.893804
 21
7.642820
 31
0.000000
  0
TEXT
  8
LAYER-1
 62
  0
 10
4.713561
 20
7.797415
 30
0.000000
 40
0.125000
  1
 
  0
TEXT
  8
LAYER-1
 62
  0
 10
4.597747
 20
8.034073
 30
0.000000
 40
0.125000
  1
6"
 72
  5
 11
4.819969
 21
8.034073
 31
0.000000
  0
TEXT
  8
LAYER-1
 62
  0
 10
4.375525
 20
7.839628
 30
0.000000
 40
0.125000
  1
152mm
 72
  5
 11
5.042191
 21
7.839628
 31
0.000000
  0
TEXT
  8
LAYER-1
 62
  0
 10
5.861636
 20
0.561851
 30
0.000000
 40
0.125000
  1
Casquillo
 72
  5
 11
6.667191
 21
0.561851
 31
0.000000
  0
TEXT
  8
LAYER-1
 62
  0
 10
5.861636
 20
0.367406
 30
0.000000
 40
0.125000
  1
anti-polvo
 72
  5
 11
6.667191
 21
0.367406
 31
0.000000
  0
ENDSEC
  0
EOF
