  0
SECTION
  2
HEADER
999
MacDraft 5.0\0
  9
$ACADVER
  1
AC1006
  9
$CLAYER
  8
LAYER-1
  9
$EXTMIN
 10
0.000000
 20
0.000000
  9
$EXTMAX
 10
7.278606
 20
9.975867
  9
$FASTZOOM
 70
0
  9
$FILLMODE
 70
1
  0
ENDSEC
  0
SECTION
  2
TABLES
  0
TABLE
  2
LTYPE
 70
16
  0
LTYPE
  2
CONTINUOUS
 70
64
  3
Solid Line
 72
65
 73
0
 40
0.000000
  0
LTYPE
  2
LTYPE01
 70
64
  3
CUSTOM
 72
65
 73
2
 40
0.111111
 49
0.083333
 49
-0.027778
  0
LTYPE
  2
LTYPE02
 70
64
  3
CUSTOM
 72
65
 73
2
 40
0.194444
 49
0.166667
 49
-0.027778
  0
LTYPE
  2
LTYPE03
 70
64
  3
CUSTOM
 72
65
 73
2
 40
0.375000
 49
0.333333
 49
-0.041667
  0
LTYPE
  2
LTYPE04
 70
64
  3
CUSTOM
 72
65
 73
2
 40
0.722222
 49
0.666667
 49
-0.055556
  0
LTYPE
  2
LTYPE05
 70
64
  3
CUSTOM
 72
65
 73
4
 40
0.152778
 49
0.083333
 49
-0.027778
 49
0.013889
 49
-0.027778
  0
LTYPE
  2
LTYPE06
 70
64
  3
CUSTOM
 72
65
 73
4
 40
0.236111
 49
0.166667
 49
-0.027778
 49
0.013889
 49
-0.027778
  0
LTYPE
  2
LTYPE07
 70
64
  3
CUSTOM
 72
65
 73
4
 40
0.444444
 49
0.333333
 49
-0.041667
 49
0.027778
 49
-0.041667
  0
LTYPE
  2
LTYPE08
 70
64
  3
CUSTOM
 72
65
 73
4
 40
0.805556
 49
0.666667
 49
-0.055556
 49
0.027778
 49
-0.055556
  0
LTYPE
  2
LTYPE09
 70
64
  3
CUSTOM
 72
65
 73
6
 40
0.194444
 49
0.083333
 49
-0.027778
 49
0.013889
 49
-0.027778
 49
0.013889
 49
-0.027778
  0
LTYPE
  2
LTYPE10
 70
64
  3
CUSTOM
 72
65
 73
6
 40
0.277778
 49
0.166667
 49
-0.027778
 49
0.013889
 49
-0.027778
 49
0.013889
 49
-0.027778
  0
LTYPE
  2
LTYPE11
 70
64
  3
CUSTOM
 72
65
 73
6
 40
0.500000
 49
0.333333
 49
-0.041667
 49
0.027778
 49
-0.027778
 49
0.027778
 49
-0.041667
  0
LTYPE
  2
LTYPE12
 70
64
  3
CUSTOM
 72
65
 73
6
 40
0.861111
 49
0.666667
 49
-0.055556
 49
0.027778
 49
-0.027778
 49
0.027778
 49
-0.055556
  0
LTYPE
  2
LTYPE13
 70
64
  3
CUSTOM
 72
65
 73
8
 40
0.319444
 49
0.166667
 49
-0.027778
 49
0.013889
 49
-0.027778
 49
0.013889
 49
-0.027778
 49
0.013889
 49
-0.027778
  0
LTYPE
  2
LTYPE14
 70
64
  3
CUSTOM
 72
65
 73
8
 40
0.555556
 49
0.333333
 49
-0.041667
 49
0.027778
 49
-0.027778
 49
0.027778
 49
-0.027778
 49
0.027778
 49
-0.041667
  0
LTYPE
  2
LTYPE15
 70
64
  3
CUSTOM
 72
65
 73
8
 40
0.944444
 49
0.666667
 49
-0.055556
 49
0.027778
 49
-0.041667
 49
0.027778
 49
-0.041667
 49
0.027778
 49
-0.055556
  0
ENDTAB
  0
TABLE
  2
LAYER
 70
1
  0
LAYER
  2
LAYER-1
 70
0
 62
7
  6
CONTINUOUS
  0
ENDTAB
  0
ENDSEC
  0
SECTION
  2
BLOCKS
  0
ENDSEC
  0
SECTION
  2
ENTITIES
  0
ARC
  8
LAYER-1
 62
  0
 10
5.469802
 20
8.915337
 30
0.000000
 40
0.254425
 50
270.000000
 51
90.000000
  0
POLYLINE
  8
LAYER-1
 66
  1
 70
  0
 62
  0
 10
5.469802
 20
9.169763
 30
0.000000
  0
VERTEX
  8
LAYER-1
 10
5.469802
 20
9.169763
 30
0.000000
  0
VERTEX
  8
LAYER-1
 10
1.804880
 20
9.169763
 30
0.000000
  0
SEQEND
  8
LAYER-1
  0
POLYLINE
  8
LAYER-1
 66
  1
 70
  0
 62
  0
 10
1.804880
 20
9.169763
 30
0.000000
  0
VERTEX
  8
LAYER-1
 10
1.804880
 20
9.169763
 30
0.000000
  0
VERTEX
  8
LAYER-1
 10
1.804880
 20
8.660912
 30
0.000000
  0
SEQEND
  8
LAYER-1
  0
POLYLINE
  8
LAYER-1
 66
  1
 70
  0
 62
  0
 10
5.469802
 20
8.660912
 30
0.000000
  0
VERTEX
  8
LAYER-1
 10
5.469802
 20
8.660912
 30
0.000000
  0
VERTEX
  8
LAYER-1
 10
1.804880
 20
8.660912
 30
0.000000
  0
SEQEND
  8
LAYER-1
  0
TEXT
  8
LAYER-1
 62
  0
 10
3.615411
 20
9.454225
 30
0.000000
 40
0.333333
  1
MobilFlex
 72
  5
 11
5.768189
 21
9.454225
 31
0.000000
  0
POLYLINE
  8
LAYER-1
 66
  1
 70
  1
 62
  0
  0
VERTEX
  8
LAYER-1
 10
1.806383
 20
9.974199
 30
0.000000
  0
VERTEX
  8
LAYER-1
 10
2.044230
 20
9.974199
 30
0.000000
  0
VERTEX
  8
LAYER-1
 10
2.044230
 20
9.457255
 30
0.000000
  0
VERTEX
  8
LAYER-1
 10
1.806383
 20
9.457255
 30
0.000000
  0
SEQEND
  8
LAYER-1
  0
POLYLINE
  8
LAYER-1
 66
  1
 70
  1
 62
  0
  0
VERTEX
  8
LAYER-1
 10
2.118883
 20
9.974199
 30
0.000000
  0
VERTEX
  8
LAYER-1
 10
2.356730
 20
9.974199
 30
0.000000
  0
VERTEX
  8
LAYER-1
 10
2.356730
 20
9.457255
 30
0.000000
  0
VERTEX
  8
LAYER-1
 10
2.118883
 20
9.457255
 30
0.000000
  0
SEQEND
  8
LAYER-1
  0
POLYLINE
  8
LAYER-1
 66
  1
 70
  1
 62
  0
  0
VERTEX
  8
LAYER-1
 10
2.419230
 20
9.974199
 30
0.000000
  0
VERTEX
  8
LAYER-1
 10
2.657078
 20
9.974199
 30
0.000000
  0
VERTEX
  8
LAYER-1
 10
2.657078
 20
9.457255
 30
0.000000
  0
VERTEX
  8
LAYER-1
 10
2.419230
 20
9.457255
 30
0.000000
  0
SEQEND
  8
LAYER-1
  0
POLYLINE
  8
LAYER-1
 66
  1
 70
  1
 62
  0
  0
VERTEX
  8
LAYER-1
 10
2.723050
 20
9.974199
 30
0.000000
  0
VERTEX
  8
LAYER-1
 10
2.960897
 20
9.974199
 30
0.000000
  0
VERTEX
  8
LAYER-1
 10
2.960897
 20
9.457255
 30
0.000000
  0
VERTEX
  8
LAYER-1
 10
2.723050
 20
9.457255
 30
0.000000
  0
SEQEND
  8
LAYER-1
  0
POLYLINE
  8
LAYER-1
 66
  1
 70
  1
 62
  0
  0
VERTEX
  8
LAYER-1
 10
3.039890
 20
9.970284
 30
0.000000
  0
VERTEX
  8
LAYER-1
 10
3.415324
 20
9.970284
 30
0.000000
  0
VERTEX
  8
LAYER-1
 10
3.415324
 20
9.832264
 30
0.000000
  0
VERTEX
  8
LAYER-1
 10
3.039890
 20
9.832264
 30
0.000000
  0
SEQEND
  8
LAYER-1
  0
POLYLINE
  8
LAYER-1
 66
  1
 70
  1
 62
  0
  0
VERTEX
  8
LAYER-1
 10
3.039456
 20
9.742854
 30
0.000000
  0
VERTEX
  8
LAYER-1
 10
3.347616
 20
9.742854
 30
0.000000
  0
VERTEX
  8
LAYER-1
 10
3.347616
 20
9.608739
 30
0.000000
  0
VERTEX
  8
LAYER-1
 10
3.039456
 20
9.608739
 30
0.000000
  0
SEQEND
  8
LAYER-1
  0
POLYLINE
  8
LAYER-1
 66
  1
 70
  1
 62
  0
  0
VERTEX
  8
LAYER-1
 10
1.806383
 20
9.372628
 30
0.000000
  0
VERTEX
  8
LAYER-1
 10
5.724786
 20
9.372628
 30
0.000000
  0
VERTEX
  8
LAYER-1
 10
5.724786
 20
9.329225
 30
0.000000
  0
VERTEX
  8
LAYER-1
 10
1.806383
 20
9.329225
 30
0.000000
  0
SEQEND
  8
LAYER-1
  0
POLYLINE
  8
LAYER-1
 66
  1
 70
  0
 62
  0
 10
5.777370
 20
7.416779
 30
0.000000
  0
VERTEX
  8
LAYER-1
 10
5.777370
 20
7.416779
 30
0.000000
  0
VERTEX
  8
LAYER-1
 10
1.758507
 20
7.416916
 30
0.000000
  0
VERTEX
  8
LAYER-1
 10
1.758507
 20
0.349703
 30
0.000000
  0
VERTEX
  8
LAYER-1
 10
5.777370
 20
0.349703
 30
0.000000
  0
VERTEX
  8
LAYER-1
 10
5.777370
 20
7.416916
 30
0.000000
  0
SEQEND
  8
LAYER-1
  0
POLYLINE
  8
LAYER-1
 66
  1
 70
  1
 62
  0
  0
VERTEX
  8
LAYER-1
 10
5.380004
 20
3.868457
 30
0.000000
  0
VERTEX
  8
LAYER-1
 10
5.704815
 20
3.868457
 30
0.000000
  0
VERTEX
  8
LAYER-1
 10
5.704815
 20
0.663676
 30
0.000000
  0
VERTEX
  8
LAYER-1
 10
5.380004
 20
0.663676
 30
0.000000
  0
SEQEND
  8
LAYER-1
  0
POLYLINE
  8
LAYER-1
 66
  1
 70
  1
 62
  0
  0
VERTEX
  8
LAYER-1
 10
4.970004
 20
3.868457
 30
0.000000
  0
VERTEX
  8
LAYER-1
 10
5.294815
 20
3.868457
 30
0.000000
  0
VERTEX
  8
LAYER-1
 10
5.294815
 20
0.663676
 30
0.000000
  0
VERTEX
  8
LAYER-1
 10
4.970004
 20
0.663676
 30
0.000000
  0
SEQEND
  8
LAYER-1
  0
POLYLINE
  8
LAYER-1
 66
  1
 70
  1
 62
  0
  0
VERTEX
  8
LAYER-1
 10
4.559570
 20
3.868457
 30
0.000000
  0
VERTEX
  8
LAYER-1
 10
4.884381
 20
3.868457
 30
0.000000
  0
VERTEX
  8
LAYER-1
 10
4.884381
 20
0.663676
 30
0.000000
  0
VERTEX
  8
LAYER-1
 10
4.559570
 20
0.663676
 30
0.000000
  0
SEQEND
  8
LAYER-1
  0
POLYLINE
  8
LAYER-1
 66
  1
 70
  1
 62
  0
  0
VERTEX
  8
LAYER-1
 10
4.149569
 20
3.868457
 30
0.000000
  0
VERTEX
  8
LAYER-1
 10
4.474380
 20
3.868457
 30
0.000000
  0
VERTEX
  8
LAYER-1
 10
4.474380
 20
0.663676
 30
0.000000
  0
VERTEX
  8
LAYER-1
 10
4.149569
 20
0.663676
 30
0.000000
  0
SEQEND
  8
LAYER-1
  0
POLYLINE
  8
LAYER-1
 66
  1
 70
  1
 62
  0
  0
VERTEX
  8
LAYER-1
 10
3.061183
 20
3.868457
 30
0.000000
  0
VERTEX
  8
LAYER-1
 10
3.385993
 20
3.868457
 30
0.000000
  0
VERTEX
  8
LAYER-1
 10
3.385993
 20
0.663676
 30
0.000000
  0
VERTEX
  8
LAYER-1
 10
3.061183
 20
0.663676
 30
0.000000
  0
SEQEND
  8
LAYER-1
  0
POLYLINE
  8
LAYER-1
 66
  1
 70
  1
 62
  0
  0
VERTEX
  8
LAYER-1
 10
2.651617
 20
3.868457
 30
0.000000
  0
VERTEX
  8
LAYER-1
 10
2.976427
 20
3.868457
 30
0.000000
  0
VERTEX
  8
LAYER-1
 10
2.976427
 20
0.663676
 30
0.000000
  0
VERTEX
  8
LAYER-1
 10
2.651617
 20
0.663676
 30
0.000000
  0
SEQEND
  8
LAYER-1
  0
POLYLINE
  8
LAYER-1
 66
  1
 70
  1
 62
  0
  0
VERTEX
  8
LAYER-1
 10
2.241183
 20
3.868457
 30
0.000000
  0
VERTEX
  8
LAYER-1
 10
2.565993
 20
3.868457
 30
0.000000
  0
VERTEX
  8
LAYER-1
 10
2.565993
 20
0.663676
 30
0.000000
  0
VERTEX
  8
LAYER-1
 10
2.241183
 20
0.663676
 30
0.000000
  0
SEQEND
  8
LAYER-1
  0
POLYLINE
  8
LAYER-1
 66
  1
 70
  1
 62
  0
  0
VERTEX
  8
LAYER-1
 10
1.831183
 20
3.868457
 30
0.000000
  0
VERTEX
  8
LAYER-1
 10
2.155993
 20
3.868457
 30
0.000000
  0
VERTEX
  8
LAYER-1
 10
2.155993
 20
0.663676
 30
0.000000
  0
VERTEX
  8
LAYER-1
 10
1.831183
 20
0.663676
 30
0.000000
  0
SEQEND
  8
LAYER-1
  0
POLYLINE
  8
LAYER-1
 66
  1
 70
  1
 62
  0
  0
VERTEX
  8
LAYER-1
 10
5.380004
 20
7.146494
 30
0.000000
  0
VERTEX
  8
LAYER-1
 10
5.704815
 20
7.146494
 30
0.000000
  0
VERTEX
  8
LAYER-1
 10
5.704815
 20
3.941722
 30
0.000000
  0
VERTEX
  8
LAYER-1
 10
5.380004
 20
3.941722
 30
0.000000
  0
SEQEND
  8
LAYER-1
  0
POLYLINE
  8
LAYER-1
 66
  1
 70
  1
 62
  0
  0
VERTEX
  8
LAYER-1
 10
4.970004
 20
7.146494
 30
0.000000
  0
VERTEX
  8
LAYER-1
 10
5.294815
 20
7.146494
 30
0.000000
  0
VERTEX
  8
LAYER-1
 10
5.294815
 20
3.941722
 30
0.000000
  0
VERTEX
  8
LAYER-1
 10
4.970004
 20
3.941722
 30
0.000000
  0
SEQEND
  8
LAYER-1
  0
POLYLINE
  8
LAYER-1
 66
  1
 70
  1
 62
  0
  0
VERTEX
  8
LAYER-1
 10
4.559570
 20
7.146494
 30
0.000000
  0
VERTEX
  8
LAYER-1
 10
4.884381
 20
7.146494
 30
0.000000
  0
VERTEX
  8
LAYER-1
 10
4.884381
 20
3.941722
 30
0.000000
  0
VERTEX
  8
LAYER-1
 10
4.559570
 20
3.941722
 30
0.000000
  0
SEQEND
  8
LAYER-1
  0
POLYLINE
  8
LAYER-1
 66
  1
 70
  1
 62
  0
  0
VERTEX
  8
LAYER-1
 10
4.149569
 20
7.146494
 30
0.000000
  0
VERTEX
  8
LAYER-1
 10
4.474380
 20
7.146494
 30
0.000000
  0
VERTEX
  8
LAYER-1
 10
4.474380
 20
3.941722
 30
0.000000
  0
VERTEX
  8
LAYER-1
 10
4.149569
 20
3.941722
 30
0.000000
  0
SEQEND
  8
LAYER-1
  0
POLYLINE
  8
LAYER-1
 66
  1
 70
  1
 62
  0
  0
VERTEX
  8
LAYER-1
 10
3.061183
 20
7.146494
 30
0.000000
  0
VERTEX
  8
LAYER-1
 10
3.385993
 20
7.146494
 30
0.000000
  0
VERTEX
  8
LAYER-1
 10
3.385993
 20
3.941722
 30
0.000000
  0
VERTEX
  8
LAYER-1
 10
3.061183
 20
3.941722
 30
0.000000
  0
SEQEND
  8
LAYER-1
  0
POLYLINE
  8
LAYER-1
 66
  1
 70
  1
 62
  0
  0
VERTEX
  8
LAYER-1
 10
2.651617
 20
7.146494
 30
0.000000
  0
VERTEX
  8
LAYER-1
 10
2.976427
 20
7.146494
 30
0.000000
  0
VERTEX
  8
LAYER-1
 10
2.976427
 20
3.941722
 30
0.000000
  0
VERTEX
  8
LAYER-1
 10
2.651617
 20
3.941722
 30
0.000000
  0
SEQEND
  8
LAYER-1
  0
POLYLINE
  8
LAYER-1
 66
  1
 70
  1
 62
  0
  0
VERTEX
  8
LAYER-1
 10
2.241183
 20
7.146494
 30
0.000000
  0
VERTEX
  8
LAYER-1
 10
2.565993
 20
7.146494
 30
0.000000
  0
VERTEX
  8
LAYER-1
 10
2.565993
 20
3.941722
 30
0.000000
  0
VERTEX
  8
LAYER-1
 10
2.241183
 20
3.941722
 30
0.000000
  0
SEQEND
  8
LAYER-1
  0
POLYLINE
  8
LAYER-1
 66
  1
 70
  1
 62
  0
  0
VERTEX
  8
LAYER-1
 10
1.831183
 20
7.146494
 30
0.000000
  0
VERTEX
  8
LAYER-1
 10
2.155993
 20
7.146494
 30
0.000000
  0
VERTEX
  8
LAYER-1
 10
2.155993
 20
3.941722
 30
0.000000
  0
VERTEX
  8
LAYER-1
 10
1.831183
 20
3.941722
 30
0.000000
  0
SEQEND
  8
LAYER-1
  0
POLYLINE
  8
LAYER-1
 66
  1
 70
  1
 62
  0
  0
VERTEX
  8
LAYER-1
 10
3.793519
 20
7.483339
 30
0.000000
  0
VERTEX
  8
LAYER-1
 10
3.818614
 20
7.483339
 30
0.000000
  0
VERTEX
  8
LAYER-1
 10
3.818614
 20
7.417021
 30
0.000000
  0
VERTEX
  8
LAYER-1
 10
3.793519
 20
7.417021
 30
0.000000
  0
SEQEND
  8
LAYER-1
  0
POLYLINE
  8
LAYER-1
 66
  1
 70
  1
 62
  0
  0
VERTEX
  8
LAYER-1
 10
1.831183
 20
0.663456
 30
0.000000
  0
VERTEX
  8
LAYER-1
 10
2.155815
 20
0.663456
 30
0.000000
  0
VERTEX
  8
LAYER-1
 10
2.155815
 20
0.350030
 30
0.000000
  0
VERTEX
  8
LAYER-1
 10
1.831183
 20
0.350030
 30
0.000000
  0
SEQEND
  8
LAYER-1
  0
POLYLINE
  8
LAYER-1
 66
  1
 70
  1
 62
  0
  0
VERTEX
  8
LAYER-1
 10
2.241245
 20
0.663456
 30
0.000000
  0
VERTEX
  8
LAYER-1
 10
2.565877
 20
0.663456
 30
0.000000
  0
VERTEX
  8
LAYER-1
 10
2.565877
 20
0.350030
 30
0.000000
  0
VERTEX
  8
LAYER-1
 10
2.241245
 20
0.350030
 30
0.000000
  0
SEQEND
  8
LAYER-1
  0
POLYLINE
  8
LAYER-1
 66
  1
 70
  1
 62
  0
  0
VERTEX
  8
LAYER-1
 10
2.651307
 20
0.663456
 30
0.000000
  0
VERTEX
  8
LAYER-1
 10
2.975936
 20
0.663456
 30
0.000000
  0
VERTEX
  8
LAYER-1
 10
2.975936
 20
0.350030
 30
0.000000
  0
VERTEX
  8
LAYER-1
 10
2.651307
 20
0.350030
 30
0.000000
  0
SEQEND
  8
LAYER-1
  0
POLYLINE
  8
LAYER-1
 66
  1
 70
  1
 62
  0
  0
VERTEX
  8
LAYER-1
 10
3.061367
 20
0.663456
 30
0.000000
  0
VERTEX
  8
LAYER-1
 10
3.385998
 20
0.663456
 30
0.000000
  0
VERTEX
  8
LAYER-1
 10
3.385998
 20
0.350030
 30
0.000000
  0
VERTEX
  8
LAYER-1
 10
3.061367
 20
0.350030
 30
0.000000
  0
SEQEND
  8
LAYER-1
  0
POLYLINE
  8
LAYER-1
 66
  1
 70
  1
 62
  0
  0
VERTEX
  8
LAYER-1
 10
5.380062
 20
0.663456
 30
0.000000
  0
VERTEX
  8
LAYER-1
 10
5.704693
 20
0.663456
 30
0.000000
  0
VERTEX
  8
LAYER-1
 10
5.704693
 20
0.350030
 30
0.000000
  0
VERTEX
  8
LAYER-1
 10
5.380062
 20
0.350030
 30
0.000000
  0
SEQEND
  8
LAYER-1
  0
POLYLINE
  8
LAYER-1
 66
  1
 70
  1
 62
  0
  0
VERTEX
  8
LAYER-1
 10
4.969999
 20
0.663456
 30
0.000000
  0
VERTEX
  8
LAYER-1
 10
5.294631
 20
0.663456
 30
0.000000
  0
VERTEX
  8
LAYER-1
 10
5.294631
 20
0.350030
 30
0.000000
  0
VERTEX
  8
LAYER-1
 10
4.969999
 20
0.350030
 30
0.000000
  0
SEQEND
  8
LAYER-1
  0
POLYLINE
  8
LAYER-1
 66
  1
 70
  1
 62
  0
  0
VERTEX
  8
LAYER-1
 10
4.559937
 20
0.663456
 30
0.000000
  0
VERTEX
  8
LAYER-1
 10
4.884569
 20
0.663456
 30
0.000000
  0
VERTEX
  8
LAYER-1
 10
4.884569
 20
0.350030
 30
0.000000
  0
VERTEX
  8
LAYER-1
 10
4.559937
 20
0.350030
 30
0.000000
  0
SEQEND
  8
LAYER-1
  0
POLYLINE
  8
LAYER-1
 66
  1
 70
  1
 62
  0
  0
VERTEX
  8
LAYER-1
 10
4.149875
 20
0.663456
 30
0.000000
  0
VERTEX
  8
LAYER-1
 10
4.474506
 20
0.663456
 30
0.000000
  0
VERTEX
  8
LAYER-1
 10
4.474506
 20
0.350030
 30
0.000000
  0
VERTEX
  8
LAYER-1
 10
4.149875
 20
0.350030
 30
0.000000
  0
SEQEND
  8
LAYER-1
  0
POLYLINE
  8
LAYER-1
 66
  1
 70
  1
 62
  0
  0
VERTEX
  8
LAYER-1
 10
1.831183
 20
7.416927
 30
0.000000
  0
VERTEX
  8
LAYER-1
 10
2.155815
 20
7.416927
 30
0.000000
  0
VERTEX
  8
LAYER-1
 10
2.155815
 20
7.146928
 30
0.000000
  0
VERTEX
  8
LAYER-1
 10
1.831183
 20
7.146928
 30
0.000000
  0
SEQEND
  8
LAYER-1
  0
POLYLINE
  8
LAYER-1
 66
  1
 70
  1
 62
  0
  0
VERTEX
  8
LAYER-1
 10
2.241245
 20
7.416927
 30
0.000000
  0
VERTEX
  8
LAYER-1
 10
2.565877
 20
7.416927
 30
0.000000
  0
VERTEX
  8
LAYER-1
 10
2.565877
 20
7.146928
 30
0.000000
  0
VERTEX
  8
LAYER-1
 10
2.241245
 20
7.146928
 30
0.000000
  0
SEQEND
  8
LAYER-1
  0
POLYLINE
  8
LAYER-1
 66
  1
 70
  1
 62
  0
  0
VERTEX
  8
LAYER-1
 10
2.651307
 20
7.416927
 30
0.000000
  0
VERTEX
  8
LAYER-1
 10
2.975936
 20
7.416927
 30
0.000000
  0
VERTEX
  8
LAYER-1
 10
2.975936
 20
7.146928
 30
0.000000
  0
VERTEX
  8
LAYER-1
 10
2.651307
 20
7.146928
 30
0.000000
  0
SEQEND
  8
LAYER-1
  0
POLYLINE
  8
LAYER-1
 66
  1
 70
  1
 62
  0
  0
VERTEX
  8
LAYER-1
 10
3.061367
 20
7.416927
 30
0.000000
  0
VERTEX
  8
LAYER-1
 10
3.385998
 20
7.416927
 30
0.000000
  0
VERTEX
  8
LAYER-1
 10
3.385998
 20
7.146928
 30
0.000000
  0
VERTEX
  8
LAYER-1
 10
3.061367
 20
7.146928
 30
0.000000
  0
SEQEND
  8
LAYER-1
  0
POLYLINE
  8
LAYER-1
 66
  1
 70
  0
 62
  0
 10
2.798198
 20
7.417002
 30
0.000000
  0
VERTEX
  8
LAYER-1
 10
2.798198
 20
7.417002
 30
0.000000
  0
VERTEX
  8
LAYER-1
 10
2.798198
 20
7.147471
 30
0.000000
  0
SEQEND
  8
LAYER-1
  0
POLYLINE
  8
LAYER-1
 66
  1
 70
  0
 62
  0
 10
2.835278
 20
7.417002
 30
0.000000
  0
VERTEX
  8
LAYER-1
 10
2.835278
 20
7.417002
 30
0.000000
  0
VERTEX
  8
LAYER-1
 10
2.835278
 20
7.147471
 30
0.000000
  0
SEQEND
  8
LAYER-1
  0
POLYLINE
  8
LAYER-1
 66
  1
 70
  0
 62
  0
 10
1.976532
 20
7.417002
 30
0.000000
  0
VERTEX
  8
LAYER-1
 10
1.976532
 20
7.417002
 30
0.000000
  0
VERTEX
  8
LAYER-1
 10
1.976532
 20
7.147471
 30
0.000000
  0
SEQEND
  8
LAYER-1
  0
POLYLINE
  8
LAYER-1
 66
  1
 70
  0
 62
  0
 10
2.015094
 20
7.417002
 30
0.000000
  0
VERTEX
  8
LAYER-1
 10
2.015094
 20
7.417002
 30
0.000000
  0
VERTEX
  8
LAYER-1
 10
2.015094
 20
7.147471
 30
0.000000
  0
SEQEND
  8
LAYER-1
  0
POLYLINE
  8
LAYER-1
 66
  1
 70
  1
 62
  0
  0
VERTEX
  8
LAYER-1
 10
2.172309
 20
7.422862
 30
0.000000
  0
VERTEX
  8
LAYER-1
 10
2.227185
 20
7.422862
 30
0.000000
  0
VERTEX
  8
LAYER-1
 10
2.227185
 20
7.417002
 30
0.000000
  0
VERTEX
  8
LAYER-1
 10
2.172309
 20
7.417002
 30
0.000000
  0
SEQEND
  8
LAYER-1
  0
POLYLINE
  8
LAYER-1
 66
  1
 70
  0
 62
  0
 10
2.181207
 20
7.349619
 30
0.000000
  0
VERTEX
  8
LAYER-1
 10
2.181207
 20
7.349619
 30
0.000000
  0
VERTEX
  8
LAYER-1
 10
2.216803
 20
7.349619
 30
0.000000
  0
SEQEND
  8
LAYER-1
  0
POLYLINE
  8
LAYER-1
 66
  1
 70
  0
 62
  0
 10
2.181207
 20
7.220713
 30
0.000000
  0
VERTEX
  8
LAYER-1
 10
2.181207
 20
7.220713
 30
0.000000
  0
VERTEX
  8
LAYER-1
 10
2.216803
 20
7.220713
 30
0.000000
  0
SEQEND
  8
LAYER-1
  0
POLYLINE
  8
LAYER-1
 66
  1
 70
  1
 62
  0
  0
VERTEX
  8
LAYER-1
 10
2.989523
 20
7.422862
 30
0.000000
  0
VERTEX
  8
LAYER-1
 10
3.044398
 20
7.422862
 30
0.000000
  0
VERTEX
  8
LAYER-1
 10
3.044398
 20
7.417002
 30
0.000000
  0
VERTEX
  8
LAYER-1
 10
2.989523
 20
7.417002
 30
0.000000
  0
SEQEND
  8
LAYER-1
  0
POLYLINE
  8
LAYER-1
 66
  1
 70
  0
 62
  0
 10
2.999906
 20
7.349619
 30
0.000000
  0
VERTEX
  8
LAYER-1
 10
2.999906
 20
7.349619
 30
0.000000
  0
VERTEX
  8
LAYER-1
 10
3.035500
 20
7.349619
 30
0.000000
  0
SEQEND
  8
LAYER-1
  0
POLYLINE
  8
LAYER-1
 66
  1
 70
  0
 62
  0
 10
2.999906
 20
7.220712
 30
0.000000
  0
VERTEX
  8
LAYER-1
 10
2.999906
 20
7.220712
 30
0.000000
  0
VERTEX
  8
LAYER-1
 10
3.035500
 20
7.220712
 30
0.000000
  0
SEQEND
  8
LAYER-1
  0
POLYLINE
  8
LAYER-1
 66
  1
 70
  0
 62
  0
 10
1.831183
 20
7.416927
 30
0.000000
  0
VERTEX
  8
LAYER-1
 10
1.831183
 20
7.416927
 30
0.000000
  0
VERTEX
  8
LAYER-1
 10
1.831183
 20
0.350136
 30
0.000000
  0
SEQEND
  8
LAYER-1
  0
POLYLINE
  8
LAYER-1
 66
  1
 70
  0
 62
  0
 10
2.155815
 20
7.416927
 30
0.000000
  0
VERTEX
  8
LAYER-1
 10
2.155815
 20
7.416927
 30
0.000000
  0
VERTEX
  8
LAYER-1
 10
2.155815
 20
0.350136
 30
0.000000
  0
SEQEND
  8
LAYER-1
  0
POLYLINE
  8
LAYER-1
 66
  1
 70
  0
 62
  0
 10
2.241245
 20
7.416927
 30
0.000000
  0
VERTEX
  8
LAYER-1
 10
2.241245
 20
7.416927
 30
0.000000
  0
VERTEX
  8
LAYER-1
 10
2.241245
 20
0.350136
 30
0.000000
  0
SEQEND
  8
LAYER-1
  0
POLYLINE
  8
LAYER-1
 66
  1
 70
  0
 62
  0
 10
2.181207
 20
7.416927
 30
0.000000
  0
VERTEX
  8
LAYER-1
 10
2.181207
 20
7.416927
 30
0.000000
  0
VERTEX
  8
LAYER-1
 10
2.181207
 20
0.350136
 30
0.000000
  0
SEQEND
  8
LAYER-1
  0
POLYLINE
  8
LAYER-1
 66
  1
 70
  0
 62
  0
 10
2.216803
 20
7.416927
 30
0.000000
  0
VERTEX
  8
LAYER-1
 10
2.216803
 20
7.416927
 30
0.000000
  0
VERTEX
  8
LAYER-1
 10
2.216803
 20
0.350136
 30
0.000000
  0
SEQEND
  8
LAYER-1
  0
POLYLINE
  8
LAYER-1
 66
  1
 70
  1
 62
  0
  0
VERTEX
  8
LAYER-1
 10
2.170824
 20
0.350211
 30
0.000000
  0
VERTEX
  8
LAYER-1
 10
2.225700
 20
0.350211
 30
0.000000
  0
VERTEX
  8
LAYER-1
 10
2.225700
 20
0.344352
 30
0.000000
  0
VERTEX
  8
LAYER-1
 10
2.170824
 20
0.344352
 30
0.000000
  0
SEQEND
  8
LAYER-1
  0
POLYLINE
  8
LAYER-1
 66
  1
 70
  0
 62
  0
 10
2.216803
 20
0.423453
 30
0.000000
  0
VERTEX
  8
LAYER-1
 10
2.216803
 20
0.423453
 30
0.000000
  0
VERTEX
  8
LAYER-1
 10
2.181207
 20
0.423453
 30
0.000000
  0
SEQEND
  8
LAYER-1
  0
POLYLINE
  8
LAYER-1
 66
  1
 70
  0
 62
  0
 10
2.216803
 20
0.552360
 30
0.000000
  0
VERTEX
  8
LAYER-1
 10
2.216803
 20
0.552360
 30
0.000000
  0
VERTEX
  8
LAYER-1
 10
2.181207
 20
0.552360
 30
0.000000
  0
SEQEND
  8
LAYER-1
  0
POLYLINE
  8
LAYER-1
 66
  1
 70
  0
 62
  0
 10
2.181207
 20
0.627344
 30
0.000000
  0
VERTEX
  8
LAYER-1
 10
2.181207
 20
0.627344
 30
0.000000
  0
VERTEX
  8
LAYER-1
 10
2.216803
 20
0.627344
 30
0.000000
  0
SEQEND
  8
LAYER-1
  0
POLYLINE
  8
LAYER-1
 66
  1
 70
  0
 62
  0
 10
2.181207
 20
1.474024
 30
0.000000
  0
VERTEX
  8
LAYER-1
 10
2.181207
 20
1.474024
 30
0.000000
  0
VERTEX
  8
LAYER-1
 10
2.216803
 20
1.474024
 30
0.000000
  0
SEQEND
  8
LAYER-1
  0
POLYLINE
  8
LAYER-1
 66
  1
 70
  0
 62
  0
 10
2.181207
 20
2.311913
 30
0.000000
  0
VERTEX
  8
LAYER-1
 10
2.181207
 20
2.311913
 30
0.000000
  0
VERTEX
  8
LAYER-1
 10
2.216803
 20
2.311913
 30
0.000000
  0
SEQEND
  8
LAYER-1
  0
POLYLINE
  8
LAYER-1
 66
  1
 70
  0
 62
  0
 10
2.181207
 20
3.161515
 30
0.000000
  0
VERTEX
  8
LAYER-1
 10
2.181207
 20
3.161515
 30
0.000000
  0
VERTEX
  8
LAYER-1
 10
2.216803
 20
3.161515
 30
0.000000
  0
SEQEND
  8
LAYER-1
  0
POLYLINE
  8
LAYER-1
 66
  1
 70
  0
 62
  0
 10
2.216803
 20
4.003801
 30
0.000000
  0
VERTEX
  8
LAYER-1
 10
2.216803
 20
4.003801
 30
0.000000
  0
VERTEX
  8
LAYER-1
 10
2.181207
 20
4.003801
 30
0.000000
  0
SEQEND
  8
LAYER-1
  0
POLYLINE
  8
LAYER-1
 66
  1
 70
  1
 62
  0
  0
VERTEX
  8
LAYER-1
 10
1.831183
 20
3.942155
 30
0.000000
  0
VERTEX
  8
LAYER-1
 10
2.155993
 20
3.942155
 30
0.000000
  0
VERTEX
  8
LAYER-1
 10
2.155993
 20
3.865985
 30
0.000000
  0
VERTEX
  8
LAYER-1
 10
1.831183
 20
3.865985
 30
0.000000
  0
SEQEND
  8
LAYER-1
  0
POLYLINE
  8
LAYER-1
 66
  1
 70
  1
 62
  0
  0
VERTEX
  8
LAYER-1
 10
2.241245
 20
3.942155
 30
0.000000
  0
VERTEX
  8
LAYER-1
 10
2.566055
 20
3.942155
 30
0.000000
  0
VERTEX
  8
LAYER-1
 10
2.566055
 20
3.865985
 30
0.000000
  0
VERTEX
  8
LAYER-1
 10
2.241245
 20
3.865985
 30
0.000000
  0
SEQEND
  8
LAYER-1
  0
POLYLINE
  8
LAYER-1
 66
  1
 70
  1
 62
  0
  0
VERTEX
  8
LAYER-1
 10
2.651307
 20
3.942155
 30
0.000000
  0
VERTEX
  8
LAYER-1
 10
2.976113
 20
3.942155
 30
0.000000
  0
VERTEX
  8
LAYER-1
 10
2.976113
 20
3.865985
 30
0.000000
  0
VERTEX
  8
LAYER-1
 10
2.651307
 20
3.865985
 30
0.000000
  0
SEQEND
  8
LAYER-1
  0
POLYLINE
  8
LAYER-1
 66
  1
 70
  1
 62
  0
  0
VERTEX
  8
LAYER-1
 10
3.061367
 20
3.942155
 30
0.000000
  0
VERTEX
  8
LAYER-1
 10
3.386175
 20
3.942155
 30
0.000000
  0
VERTEX
  8
LAYER-1
 10
3.386175
 20
3.865985
 30
0.000000
  0
VERTEX
  8
LAYER-1
 10
3.061367
 20
3.865985
 30
0.000000
  0
SEQEND
  8
LAYER-1
  0
POLYLINE
  8
LAYER-1
 66
  1
 70
  1
 62
  0
  0
VERTEX
  8
LAYER-1
 10
5.379884
 20
3.942155
 30
0.000000
  0
VERTEX
  8
LAYER-1
 10
5.704693
 20
3.942155
 30
0.000000
  0
VERTEX
  8
LAYER-1
 10
5.704693
 20
3.865985
 30
0.000000
  0
VERTEX
  8
LAYER-1
 10
5.379884
 20
3.865985
 30
0.000000
  0
SEQEND
  8
LAYER-1
  0
POLYLINE
  8
LAYER-1
 66
  1
 70
  1
 62
  0
  0
VERTEX
  8
LAYER-1
 10
4.969822
 20
3.942155
 30
0.000000
  0
VERTEX
  8
LAYER-1
 10
5.294631
 20
3.942155
 30
0.000000
  0
VERTEX
  8
LAYER-1
 10
5.294631
 20
3.865985
 30
0.000000
  0
VERTEX
  8
LAYER-1
 10
4.969822
 20
3.865985
 30
0.000000
  0
SEQEND
  8
LAYER-1
  0
POLYLINE
  8
LAYER-1
 66
  1
 70
  1
 62
  0
  0
VERTEX
  8
LAYER-1
 10
4.559760
 20
3.942155
 30
0.000000
  0
VERTEX
  8
LAYER-1
 10
4.884569
 20
3.942155
 30
0.000000
  0
VERTEX
  8
LAYER-1
 10
4.884569
 20
3.865985
 30
0.000000
  0
VERTEX
  8
LAYER-1
 10
4.559760
 20
3.865985
 30
0.000000
  0
SEQEND
  8
LAYER-1
  0
POLYLINE
  8
LAYER-1
 66
  1
 70
  1
 62
  0
  0
VERTEX
  8
LAYER-1
 10
4.149698
 20
3.942155
 30
0.000000
  0
VERTEX
  8
LAYER-1
 10
4.474506
 20
3.942155
 30
0.000000
  0
VERTEX
  8
LAYER-1
 10
4.474506
 20
3.865985
 30
0.000000
  0
VERTEX
  8
LAYER-1
 10
4.149698
 20
3.865985
 30
0.000000
  0
SEQEND
  8
LAYER-1
  0
POLYLINE
  8
LAYER-1
 66
  1
 70
  1
 62
  0
  0
VERTEX
  8
LAYER-1
 10
1.848981
 20
3.847927
 30
0.000000
  0
VERTEX
  8
LAYER-1
 10
2.136712
 20
3.847927
 30
0.000000
  0
VERTEX
  8
LAYER-1
 10
2.136712
 20
0.678856
 30
0.000000
  0
VERTEX
  8
LAYER-1
 10
1.848981
 20
0.678856
 30
0.000000
  0
SEQEND
  8
LAYER-1
  0
POLYLINE
  8
LAYER-1
 66
  1
 70
  1
 62
  0
  0
VERTEX
  8
LAYER-1
 10
2.259044
 20
3.847927
 30
0.000000
  0
VERTEX
  8
LAYER-1
 10
2.546774
 20
3.847927
 30
0.000000
  0
VERTEX
  8
LAYER-1
 10
2.546774
 20
0.678856
 30
0.000000
  0
VERTEX
  8
LAYER-1
 10
2.259044
 20
0.678856
 30
0.000000
  0
SEQEND
  8
LAYER-1
  0
POLYLINE
  8
LAYER-1
 66
  1
 70
  1
 62
  0
  0
VERTEX
  8
LAYER-1
 10
2.669106
 20
3.847927
 30
0.000000
  0
VERTEX
  8
LAYER-1
 10
2.956833
 20
3.847927
 30
0.000000
  0
VERTEX
  8
LAYER-1
 10
2.956833
 20
0.678856
 30
0.000000
  0
VERTEX
  8
LAYER-1
 10
2.669106
 20
0.678856
 30
0.000000
  0
SEQEND
  8
LAYER-1
  0
POLYLINE
  8
LAYER-1
 66
  1
 70
  1
 62
  0
  0
VERTEX
  8
LAYER-1
 10
3.079166
 20
3.847927
 30
0.000000
  0
VERTEX
  8
LAYER-1
 10
3.366895
 20
3.847927
 30
0.000000
  0
VERTEX
  8
LAYER-1
 10
3.366895
 20
0.678856
 30
0.000000
  0
VERTEX
  8
LAYER-1
 10
3.079166
 20
0.678856
 30
0.000000
  0
SEQEND
  8
LAYER-1
  0
LINE
  8
LAYER-1
 62
  0
 10
1.902235
 20
3.270665
 30
0.000000
 11
2.038326
 21
3.508402
 31
0.000000
  0
LINE
  8
LAYER-1
 62
  0
 10
1.958871
 20
3.238245
 30
0.000000
 11
2.094961
 21
3.475981
 31
0.000000
  0
LINE
  8
LAYER-1
 62
  0
 10
2.312298
 20
3.270665
 30
0.000000
 11
2.448387
 21
3.508402
 31
0.000000
  0
LINE
  8
LAYER-1
 62
  0
 10
2.368933
 20
3.238245
 30
0.000000
 11
2.505023
 21
3.475981
 31
0.000000
  0
LINE
  8
LAYER-1
 62
  0
 10
2.722360
 20
3.270665
 30
0.000000
 11
2.858447
 21
3.508402
 31
0.000000
  0
LINE
  8
LAYER-1
 62
  0
 10
2.778996
 20
3.238246
 30
0.000000
 11
2.915083
 21
3.475982
 31
0.000000
  0
LINE
  8
LAYER-1
 62
  0
 10
3.132419
 20
3.270665
 30
0.000000
 11
3.268508
 21
3.508402
 31
0.000000
  0
LINE
  8
LAYER-1
 62
  0
 10
3.189055
 20
3.238245
 30
0.000000
 11
3.325144
 21
3.475981
 31
0.000000
  0
LINE
  8
LAYER-1
 62
  0
 10
1.901876
 20
1.046817
 30
0.000000
 11
2.037964
 21
1.284552
 31
0.000000
  0
LINE
  8
LAYER-1
 62
  0
 10
1.958511
 20
1.014397
 30
0.000000
 11
2.094599
 21
1.252131
 31
0.000000
  0
LINE
  8
LAYER-1
 62
  0
 10
2.311938
 20
1.046817
 30
0.000000
 11
2.448026
 21
1.284552
 31
0.000000
  0
LINE
  8
LAYER-1
 62
  0
 10
2.368573
 20
1.014397
 30
0.000000
 11
2.504662
 21
1.252131
 31
0.000000
  0
LINE
  8
LAYER-1
 62
  0
 10
2.722000
 20
1.046817
 30
0.000000
 11
2.858087
 21
1.284552
 31
0.000000
  0
LINE
  8
LAYER-1
 62
  0
 10
2.778636
 20
1.014397
 30
0.000000
 11
2.914723
 21
1.252131
 31
0.000000
  0
LINE
  8
LAYER-1
 62
  0
 10
3.132060
 20
1.046817
 30
0.000000
 11
3.268149
 21
1.284552
 31
0.000000
  0
LINE
  8
LAYER-1
 62
  0
 10
3.188695
 20
1.014397
 30
0.000000
 11
3.324784
 21
1.252131
 31
0.000000
  0
POLYLINE
  8
LAYER-1
 66
  1
 70
  0
 62
  0
 10
2.565877
 20
7.416927
 30
0.000000
  0
VERTEX
  8
LAYER-1
 10
2.565877
 20
7.416927
 30
0.000000
  0
VERTEX
  8
LAYER-1
 10
2.565877
 20
0.350136
 30
0.000000
  0
SEQEND
  8
LAYER-1
  0
POLYLINE
  8
LAYER-1
 66
  1
 70
  0
 62
  0
 10
2.651307
 20
7.416927
 30
0.000000
  0
VERTEX
  8
LAYER-1
 10
2.651307
 20
7.416927
 30
0.000000
  0
VERTEX
  8
LAYER-1
 10
2.651307
 20
0.350136
 30
0.000000
  0
SEQEND
  8
LAYER-1
  0
POLYLINE
  8
LAYER-1
 66
  1
 70
  0
 62
  0
 10
2.975936
 20
7.416927
 30
0.000000
  0
VERTEX
  8
LAYER-1
 10
2.975936
 20
7.416927
 30
0.000000
  0
VERTEX
  8
LAYER-1
 10
2.975936
 20
0.350136
 30
0.000000
  0
SEQEND
  8
LAYER-1
  0
POLYLINE
  8
LAYER-1
 66
  1
 70
  0
 62
  0
 10
3.061367
 20
7.416927
 30
0.000000
  0
VERTEX
  8
LAYER-1
 10
3.061367
 20
7.416927
 30
0.000000
  0
VERTEX
  8
LAYER-1
 10
3.061367
 20
0.350136
 30
0.000000
  0
SEQEND
  8
LAYER-1
  0
POLYLINE
  8
LAYER-1
 66
  1
 70
  0
 62
  0
 10
3.385998
 20
7.416927
 30
0.000000
  0
VERTEX
  8
LAYER-1
 10
3.385998
 20
7.416927
 30
0.000000
  0
VERTEX
  8
LAYER-1
 10
3.385998
 20
0.350136
 30
0.000000
  0
SEQEND
  8
LAYER-1
  0
POLYLINE
  8
LAYER-1
 66
  1
 70
  0
 62
  0
 10
3.468579
 20
7.416927
 30
0.000000
  0
VERTEX
  8
LAYER-1
 10
3.468579
 20
7.416927
 30
0.000000
  0
VERTEX
  8
LAYER-1
 10
3.468579
 20
0.350136
 30
0.000000
  0
SEQEND
  8
LAYER-1
  0
POLYLINE
  8
LAYER-1
 66
  1
 70
  0
 62
  0
 10
1.795588
 20
7.416927
 30
0.000000
  0
VERTEX
  8
LAYER-1
 10
1.795588
 20
7.416927
 30
0.000000
  0
VERTEX
  8
LAYER-1
 10
1.795588
 20
0.350136
 30
0.000000
  0
SEQEND
  8
LAYER-1
  0
POLYLINE
  8
LAYER-1
 66
  1
 70
  0
 62
  0
 10
2.608355
 20
7.416927
 30
0.000000
  0
VERTEX
  8
LAYER-1
 10
2.608355
 20
7.416927
 30
0.000000
  0
VERTEX
  8
LAYER-1
 10
2.608355
 20
0.350136
 30
0.000000
  0
SEQEND
  8
LAYER-1
  0
POLYLINE
  8
LAYER-1
 66
  1
 70
  0
 62
  0
 10
2.999906
 20
7.416927
 30
0.000000
  0
VERTEX
  8
LAYER-1
 10
2.999906
 20
7.416927
 30
0.000000
  0
VERTEX
  8
LAYER-1
 10
2.999906
 20
0.350136
 30
0.000000
  0
SEQEND
  8
LAYER-1
  0
POLYLINE
  8
LAYER-1
 66
  1
 70
  0
 62
  0
 10
3.035500
 20
7.416927
 30
0.000000
  0
VERTEX
  8
LAYER-1
 10
3.035500
 20
7.416927
 30
0.000000
  0
VERTEX
  8
LAYER-1
 10
3.035500
 20
0.350136
 30
0.000000
  0
SEQEND
  8
LAYER-1
  0
POLYLINE
  8
LAYER-1
 66
  1
 70
  0
 62
  0
 10
3.427052
 20
7.416927
 30
0.000000
  0
VERTEX
  8
LAYER-1
 10
3.427052
 20
7.416927
 30
0.000000
  0
VERTEX
  8
LAYER-1
 10
3.427052
 20
0.350136
 30
0.000000
  0
SEQEND
  8
LAYER-1
  0
POLYLINE
  8
LAYER-1
 66
  1
 70
  1
 62
  0
  0
VERTEX
  8
LAYER-1
 10
2.988038
 20
0.350211
 30
0.000000
  0
VERTEX
  8
LAYER-1
 10
3.042915
 20
0.350211
 30
0.000000
  0
VERTEX
  8
LAYER-1
 10
3.042915
 20
0.344352
 30
0.000000
  0
VERTEX
  8
LAYER-1
 10
2.988038
 20
0.344352
 30
0.000000
  0
SEQEND
  8
LAYER-1
  0
POLYLINE
  8
LAYER-1
 66
  1
 70
  0
 62
  0
 10
3.035500
 20
0.423453
 30
0.000000
  0
VERTEX
  8
LAYER-1
 10
3.035500
 20
0.423453
 30
0.000000
  0
VERTEX
  8
LAYER-1
 10
2.999906
 20
0.423453
 30
0.000000
  0
SEQEND
  8
LAYER-1
  0
POLYLINE
  8
LAYER-1
 66
  1
 70
  0
 62
  0
 10
3.035500
 20
0.552360
 30
0.000000
  0
VERTEX
  8
LAYER-1
 10
3.035500
 20
0.552360
 30
0.000000
  0
VERTEX
  8
LAYER-1
 10
2.999906
 20
0.552360
 30
0.000000
  0
SEQEND
  8
LAYER-1
  0
POLYLINE
  8
LAYER-1
 66
  1
 70
  0
 62
  0
 10
2.999906
 20
0.627344
 30
0.000000
  0
VERTEX
  8
LAYER-1
 10
2.999906
 20
0.627344
 30
0.000000
  0
VERTEX
  8
LAYER-1
 10
3.035500
 20
0.627344
 30
0.000000
  0
SEQEND
  8
LAYER-1
  0
POLYLINE
  8
LAYER-1
 66
  1
 70
  0
 62
  0
 10
2.999906
 20
1.474024
 30
0.000000
  0
VERTEX
  8
LAYER-1
 10
2.999906
 20
1.474024
 30
0.000000
  0
VERTEX
  8
LAYER-1
 10
3.035500
 20
1.474024
 30
0.000000
  0
SEQEND
  8
LAYER-1
  0
POLYLINE
  8
LAYER-1
 66
  1
 70
  0
 62
  0
 10
2.999906
 20
2.311913
 30
0.000000
  0
VERTEX
  8
LAYER-1
 10
2.999906
 20
2.311913
 30
0.000000
  0
VERTEX
  8
LAYER-1
 10
3.035500
 20
2.311913
 30
0.000000
  0
SEQEND
  8
LAYER-1
  0
POLYLINE
  8
LAYER-1
 66
  1
 70
  0
 62
  0
 10
2.999906
 20
3.161515
 30
0.000000
  0
VERTEX
  8
LAYER-1
 10
2.999906
 20
3.161515
 30
0.000000
  0
VERTEX
  8
LAYER-1
 10
3.035500
 20
3.161515
 30
0.000000
  0
SEQEND
  8
LAYER-1
  0
POLYLINE
  8
LAYER-1
 66
  1
 70
  0
 62
  0
 10
3.035500
 20
4.003801
 30
0.000000
  0
VERTEX
  8
LAYER-1
 10
3.035500
 20
4.003801
 30
0.000000
  0
VERTEX
  8
LAYER-1
 10
2.999906
 20
4.003801
 30
0.000000
  0
SEQEND
  8
LAYER-1
  0
POLYLINE
  8
LAYER-1
 66
  1
 70
  0
 62
  0
 10
2.181858
 20
4.854802
 30
0.000000
  0
VERTEX
  8
LAYER-1
 10
2.181858
 20
4.854802
 30
0.000000
  0
VERTEX
  8
LAYER-1
 10
2.217455
 20
4.854802
 30
0.000000
  0
SEQEND
  8
LAYER-1
  0
POLYLINE
  8
LAYER-1
 66
  1
 70
  0
 62
  0
 10
2.181858
 20
5.698551
 30
0.000000
  0
VERTEX
  8
LAYER-1
 10
2.181858
 20
5.698551
 30
0.000000
  0
VERTEX
  8
LAYER-1
 10
2.217455
 20
5.698551
 30
0.000000
  0
SEQEND
  8
LAYER-1
  0
POLYLINE
  8
LAYER-1
 66
  1
 70
  0
 62
  0
 10
2.181858
 20
6.543770
 30
0.000000
  0
VERTEX
  8
LAYER-1
 10
2.181858
 20
6.543770
 30
0.000000
  0
VERTEX
  8
LAYER-1
 10
2.217455
 20
6.543770
 30
0.000000
  0
SEQEND
  8
LAYER-1
  0
POLYLINE
  8
LAYER-1
 66
  1
 70
  0
 62
  0
 10
2.999729
 20
6.543770
 30
0.000000
  0
VERTEX
  8
LAYER-1
 10
2.999729
 20
6.543770
 30
0.000000
  0
VERTEX
  8
LAYER-1
 10
3.035323
 20
6.543770
 30
0.000000
  0
SEQEND
  8
LAYER-1
  0
POLYLINE
  8
LAYER-1
 66
  1
 70
  0
 62
  0
 10
3.647862
 20
6.543694
 30
0.000000
  0
VERTEX
  8
LAYER-1
 10
3.647862
 20
6.543694
 30
0.000000
  0
VERTEX
  8
LAYER-1
 10
3.683457
 20
6.543694
 30
0.000000
  0
SEQEND
  8
LAYER-1
  0
POLYLINE
  8
LAYER-1
 66
  1
 70
  0
 62
  0
 10
5.354019
 20
6.543769
 30
0.000000
  0
VERTEX
  8
LAYER-1
 10
5.354019
 20
6.543769
 30
0.000000
  0
VERTEX
  8
LAYER-1
 10
5.318424
 20
6.543769
 30
0.000000
  0
SEQEND
  8
LAYER-1
  0
POLYLINE
  8
LAYER-1
 66
  1
 70
  0
 62
  0
 10
4.536144
 20
6.543769
 30
0.000000
  0
VERTEX
  8
LAYER-1
 10
4.536144
 20
6.543769
 30
0.000000
  0
VERTEX
  8
LAYER-1
 10
4.500553
 20
6.543769
 30
0.000000
  0
SEQEND
  8
LAYER-1
  0
POLYLINE
  8
LAYER-1
 66
  1
 70
  0
 62
  0
 10
3.888006
 20
6.543694
 30
0.000000
  0
VERTEX
  8
LAYER-1
 10
3.888006
 20
6.543694
 30
0.000000
  0
VERTEX
  8
LAYER-1
 10
3.852414
 20
6.543694
 30
0.000000
  0
SEQEND
  8
LAYER-1
  0
POLYLINE
  8
LAYER-1
 66
  1
 70
  0
 62
  0
 10
2.999729
 20
4.854802
 30
0.000000
  0
VERTEX
  8
LAYER-1
 10
2.999729
 20
4.854802
 30
0.000000
  0
VERTEX
  8
LAYER-1
 10
3.035323
 20
4.854802
 30
0.000000
  0
SEQEND
  8
LAYER-1
  0
POLYLINE
  8
LAYER-1
 66
  1
 70
  0
 62
  0
 10
2.999729
 20
5.698551
 30
0.000000
  0
VERTEX
  8
LAYER-1
 10
2.999729
 20
5.698551
 30
0.000000
  0
VERTEX
  8
LAYER-1
 10
3.035323
 20
5.698551
 30
0.000000
  0
SEQEND
  8
LAYER-1
  0
POLYLINE
  8
LAYER-1
 66
  1
 70
  1
 62
  0
  0
VERTEX
  8
LAYER-1
 10
3.637657
 20
7.422785
 30
0.000000
  0
VERTEX
  8
LAYER-1
 10
3.692534
 20
7.422785
 30
0.000000
  0
VERTEX
  8
LAYER-1
 10
3.692534
 20
7.416925
 30
0.000000
  0
VERTEX
  8
LAYER-1
 10
3.637657
 20
7.416925
 30
0.000000
  0
SEQEND
  8
LAYER-1
  0
POLYLINE
  8
LAYER-1
 66
  1
 70
  0
 62
  0
 10
3.648040
 20
7.349542
 30
0.000000
  0
VERTEX
  8
LAYER-1
 10
3.648040
 20
7.349542
 30
0.000000
  0
VERTEX
  8
LAYER-1
 10
3.683634
 20
7.349542
 30
0.000000
  0
SEQEND
  8
LAYER-1
  0
POLYLINE
  8
LAYER-1
 66
  1
 70
  0
 62
  0
 10
3.648040
 20
7.220635
 30
0.000000
  0
VERTEX
  8
LAYER-1
 10
3.648040
 20
7.220635
 30
0.000000
  0
VERTEX
  8
LAYER-1
 10
3.683634
 20
7.220635
 30
0.000000
  0
SEQEND
  8
LAYER-1
  0
POLYLINE
  8
LAYER-1
 66
  1
 70
  0
 62
  0
 10
3.648040
 20
7.416851
 30
0.000000
  0
VERTEX
  8
LAYER-1
 10
3.648040
 20
7.416851
 30
0.000000
  0
VERTEX
  8
LAYER-1
 10
3.648040
 20
0.350136
 30
0.000000
  0
SEQEND
  8
LAYER-1
  0
POLYLINE
  8
LAYER-1
 66
  1
 70
  0
 62
  0
 10
3.683634
 20
0.423376
 30
0.000000
  0
VERTEX
  8
LAYER-1
 10
3.683634
 20
0.423376
 30
0.000000
  0
VERTEX
  8
LAYER-1
 10
3.648040
 20
0.423376
 30
0.000000
  0
SEQEND
  8
LAYER-1
  0
POLYLINE
  8
LAYER-1
 66
  1
 70
  0
 62
  0
 10
3.683634
 20
0.552283
 30
0.000000
  0
VERTEX
  8
LAYER-1
 10
3.683634
 20
0.552283
 30
0.000000
  0
VERTEX
  8
LAYER-1
 10
3.648040
 20
0.552283
 30
0.000000
  0
SEQEND
  8
LAYER-1
  0
POLYLINE
  8
LAYER-1
 66
  1
 70
  0
 62
  0
 10
3.648040
 20
0.627265
 30
0.000000
  0
VERTEX
  8
LAYER-1
 10
3.648040
 20
0.627265
 30
0.000000
  0
VERTEX
  8
LAYER-1
 10
3.683636
 20
0.627265
 30
0.000000
  0
SEQEND
  8
LAYER-1
  0
POLYLINE
  8
LAYER-1
 66
  1
 70
  0
 62
  0
 10
3.648040
 20
1.473947
 30
0.000000
  0
VERTEX
  8
LAYER-1
 10
3.648040
 20
1.473947
 30
0.000000
  0
VERTEX
  8
LAYER-1
 10
3.683636
 20
1.473947
 30
0.000000
  0
SEQEND
  8
LAYER-1
  0
POLYLINE
  8
LAYER-1
 66
  1
 70
  0
 62
  0
 10
3.648040
 20
2.311835
 30
0.000000
  0
VERTEX
  8
LAYER-1
 10
3.648040
 20
2.311835
 30
0.000000
  0
VERTEX
  8
LAYER-1
 10
3.683636
 20
2.311835
 30
0.000000
  0
SEQEND
  8
LAYER-1
  0
POLYLINE
  8
LAYER-1
 66
  1
 70
  0
 62
  0
 10
3.648040
 20
3.161440
 30
0.000000
  0
VERTEX
  8
LAYER-1
 10
3.648040
 20
3.161440
 30
0.000000
  0
VERTEX
  8
LAYER-1
 10
3.683636
 20
3.161440
 30
0.000000
  0
SEQEND
  8
LAYER-1
  0
POLYLINE
  8
LAYER-1
 66
  1
 70
  0
 62
  0
 10
3.683636
 20
4.003724
 30
0.000000
  0
VERTEX
  8
LAYER-1
 10
3.683636
 20
4.003724
 30
0.000000
  0
VERTEX
  8
LAYER-1
 10
3.648040
 20
4.003724
 30
0.000000
  0
SEQEND
  8
LAYER-1
  0
POLYLINE
  8
LAYER-1
 66
  1
 70
  0
 62
  0
 10
3.647862
 20
4.854725
 30
0.000000
  0
VERTEX
  8
LAYER-1
 10
3.647862
 20
4.854725
 30
0.000000
  0
VERTEX
  8
LAYER-1
 10
3.683457
 20
4.854725
 30
0.000000
  0
SEQEND
  8
LAYER-1
  0
POLYLINE
  8
LAYER-1
 66
  1
 70
  0
 62
  0
 10
3.647862
 20
5.698475
 30
0.000000
  0
VERTEX
  8
LAYER-1
 10
3.647862
 20
5.698475
 30
0.000000
  0
VERTEX
  8
LAYER-1
 10
3.683457
 20
5.698475
 30
0.000000
  0
SEQEND
  8
LAYER-1
  0
POLYLINE
  8
LAYER-1
 66
  1
 70
  1
 62
  0
  0
VERTEX
  8
LAYER-1
 10
3.636176
 20
0.350136
 30
0.000000
  0
VERTEX
  8
LAYER-1
 10
3.691051
 20
0.350136
 30
0.000000
  0
VERTEX
  8
LAYER-1
 10
3.691051
 20
0.344276
 30
0.000000
  0
VERTEX
  8
LAYER-1
 10
3.636176
 20
0.344276
 30
0.000000
  0
SEQEND
  8
LAYER-1
  0
POLYLINE
  8
LAYER-1
 66
  1
 70
  1
 62
  0
  0
VERTEX
  8
LAYER-1
 10
3.682567
 20
7.416927
 30
0.000000
  0
VERTEX
  8
LAYER-1
 10
3.852240
 20
7.416927
 30
0.000000
  0
VERTEX
  8
LAYER-1
 10
3.852240
 20
0.349943
 30
0.000000
  0
VERTEX
  8
LAYER-1
 10
3.682567
 20
0.349943
 30
0.000000
  0
SEQEND
  8
LAYER-1
  0
POLYLINE
  8
LAYER-1
 66
  1
 70
  1
 62
  0
  0
VERTEX
  8
LAYER-1
 10
5.380062
 20
7.416926
 30
0.000000
  0
VERTEX
  8
LAYER-1
 10
5.704693
 20
7.416926
 30
0.000000
  0
VERTEX
  8
LAYER-1
 10
5.704693
 20
7.146927
 30
0.000000
  0
VERTEX
  8
LAYER-1
 10
5.380062
 20
7.146927
 30
0.000000
  0
SEQEND
  8
LAYER-1
  0
POLYLINE
  8
LAYER-1
 66
  1
 70
  1
 62
  0
  0
VERTEX
  8
LAYER-1
 10
4.969999
 20
7.416926
 30
0.000000
  0
VERTEX
  8
LAYER-1
 10
5.294631
 20
7.416926
 30
0.000000
  0
VERTEX
  8
LAYER-1
 10
5.294631
 20
7.146927
 30
0.000000
  0
VERTEX
  8
LAYER-1
 10
4.969999
 20
7.146927
 30
0.000000
  0
SEQEND
  8
LAYER-1
  0
POLYLINE
  8
LAYER-1
 66
  1
 70
  1
 62
  0
  0
VERTEX
  8
LAYER-1
 10
4.559937
 20
7.416926
 30
0.000000
  0
VERTEX
  8
LAYER-1
 10
4.884569
 20
7.416926
 30
0.000000
  0
VERTEX
  8
LAYER-1
 10
4.884569
 20
7.146927
 30
0.000000
  0
VERTEX
  8
LAYER-1
 10
4.559937
 20
7.146927
 30
0.000000
  0
SEQEND
  8
LAYER-1
  0
POLYLINE
  8
LAYER-1
 66
  1
 70
  1
 62
  0
  0
VERTEX
  8
LAYER-1
 10
4.149875
 20
7.416926
 30
0.000000
  0
VERTEX
  8
LAYER-1
 10
4.474506
 20
7.416926
 30
0.000000
  0
VERTEX
  8
LAYER-1
 10
4.474506
 20
7.146927
 30
0.000000
  0
VERTEX
  8
LAYER-1
 10
4.149875
 20
7.146927
 30
0.000000
  0
SEQEND
  8
LAYER-1
  0
POLYLINE
  8
LAYER-1
 66
  1
 70
  0
 62
  0
 10
4.737678
 20
7.417001
 30
0.000000
  0
VERTEX
  8
LAYER-1
 10
4.737678
 20
7.417001
 30
0.000000
  0
VERTEX
  8
LAYER-1
 10
4.737678
 20
7.147470
 30
0.000000
  0
SEQEND
  8
LAYER-1
  0
POLYLINE
  8
LAYER-1
 66
  1
 70
  0
 62
  0
 10
4.700601
 20
7.417001
 30
0.000000
  0
VERTEX
  8
LAYER-1
 10
4.700601
 20
7.417001
 30
0.000000
  0
VERTEX
  8
LAYER-1
 10
4.700601
 20
7.147470
 30
0.000000
  0
SEQEND
  8
LAYER-1
  0
POLYLINE
  8
LAYER-1
 66
  1
 70
  0
 62
  0
 10
5.559345
 20
7.417001
 30
0.000000
  0
VERTEX
  8
LAYER-1
 10
5.559345
 20
7.417001
 30
0.000000
  0
VERTEX
  8
LAYER-1
 10
5.559345
 20
7.147470
 30
0.000000
  0
SEQEND
  8
LAYER-1
  0
POLYLINE
  8
LAYER-1
 66
  1
 70
  0
 62
  0
 10
5.520785
 20
7.417001
 30
0.000000
  0
VERTEX
  8
LAYER-1
 10
5.520785
 20
7.417001
 30
0.000000
  0
VERTEX
  8
LAYER-1
 10
5.520785
 20
7.147470
 30
0.000000
  0
SEQEND
  8
LAYER-1
  0
POLYLINE
  8
LAYER-1
 66
  1
 70
  1
 62
  0
  0
VERTEX
  8
LAYER-1
 10
5.308692
 20
7.422862
 30
0.000000
  0
VERTEX
  8
LAYER-1
 10
5.363567
 20
7.422862
 30
0.000000
  0
VERTEX
  8
LAYER-1
 10
5.363567
 20
7.417001
 30
0.000000
  0
VERTEX
  8
LAYER-1
 10
5.308692
 20
7.417001
 30
0.000000
  0
SEQEND
  8
LAYER-1
  0
POLYLINE
  8
LAYER-1
 66
  1
 70
  0
 62
  0
 10
5.354672
 20
7.349619
 30
0.000000
  0
VERTEX
  8
LAYER-1
 10
5.354672
 20
7.349619
 30
0.000000
  0
VERTEX
  8
LAYER-1
 10
5.319074
 20
7.349619
 30
0.000000
  0
SEQEND
  8
LAYER-1
  0
POLYLINE
  8
LAYER-1
 66
  1
 70
  0
 62
  0
 10
5.354672
 20
7.220713
 30
0.000000
  0
VERTEX
  8
LAYER-1
 10
5.354672
 20
7.220713
 30
0.000000
  0
VERTEX
  8
LAYER-1
 10
5.319074
 20
7.220713
 30
0.000000
  0
SEQEND
  8
LAYER-1
  0
POLYLINE
  8
LAYER-1
 66
  1
 70
  1
 62
  0
  0
VERTEX
  8
LAYER-1
 10
4.491474
 20
7.422862
 30
0.000000
  0
VERTEX
  8
LAYER-1
 10
4.546352
 20
7.422862
 30
0.000000
  0
VERTEX
  8
LAYER-1
 10
4.546352
 20
7.417001
 30
0.000000
  0
VERTEX
  8
LAYER-1
 10
4.491474
 20
7.417001
 30
0.000000
  0
SEQEND
  8
LAYER-1
  0
POLYLINE
  8
LAYER-1
 66
  1
 70
  0
 62
  0
 10
4.535967
 20
7.349619
 30
0.000000
  0
VERTEX
  8
LAYER-1
 10
4.535967
 20
7.349619
 30
0.000000
  0
VERTEX
  8
LAYER-1
 10
4.500376
 20
7.349619
 30
0.000000
  0
SEQEND
  8
LAYER-1
  0
POLYLINE
  8
LAYER-1
 66
  1
 70
  0
 62
  0
 10
4.535967
 20
7.220712
 30
0.000000
  0
VERTEX
  8
LAYER-1
 10
4.535967
 20
7.220712
 30
0.000000
  0
VERTEX
  8
LAYER-1
 10
4.500376
 20
7.220712
 30
0.000000
  0
SEQEND
  8
LAYER-1
  0
POLYLINE
  8
LAYER-1
 66
  1
 70
  0
 62
  0
 10
5.704693
 20
7.416926
 30
0.000000
  0
VERTEX
  8
LAYER-1
 10
5.704693
 20
7.416926
 30
0.000000
  0
VERTEX
  8
LAYER-1
 10
5.704693
 20
0.350136
 30
0.000000
  0
SEQEND
  8
LAYER-1
  0
POLYLINE
  8
LAYER-1
 66
  1
 70
  0
 62
  0
 10
5.380062
 20
7.416926
 30
0.000000
  0
VERTEX
  8
LAYER-1
 10
5.380062
 20
7.416926
 30
0.000000
  0
VERTEX
  8
LAYER-1
 10
5.380062
 20
0.350136
 30
0.000000
  0
SEQEND
  8
LAYER-1
  0
POLYLINE
  8
LAYER-1
 66
  1
 70
  0
 62
  0
 10
5.294631
 20
7.416926
 30
0.000000
  0
VERTEX
  8
LAYER-1
 10
5.294631
 20
7.416926
 30
0.000000
  0
VERTEX
  8
LAYER-1
 10
5.294631
 20
0.350136
 30
0.000000
  0
SEQEND
  8
LAYER-1
  0
POLYLINE
  8
LAYER-1
 66
  1
 70
  0
 62
  0
 10
5.354672
 20
7.416926
 30
0.000000
  0
VERTEX
  8
LAYER-1
 10
5.354672
 20
7.416926
 30
0.000000
  0
VERTEX
  8
LAYER-1
 10
5.354672
 20
0.350136
 30
0.000000
  0
SEQEND
  8
LAYER-1
  0
POLYLINE
  8
LAYER-1
 66
  1
 70
  0
 62
  0
 10
5.319074
 20
7.416926
 30
0.000000
  0
VERTEX
  8
LAYER-1
 10
5.319074
 20
7.416926
 30
0.000000
  0
VERTEX
  8
LAYER-1
 10
5.319074
 20
0.350136
 30
0.000000
  0
SEQEND
  8
LAYER-1
  0
POLYLINE
  8
LAYER-1
 66
  1
 70
  1
 62
  0
  0
VERTEX
  8
LAYER-1
 10
5.310176
 20
0.350211
 30
0.000000
  0
VERTEX
  8
LAYER-1
 10
5.365052
 20
0.350211
 30
0.000000
  0
VERTEX
  8
LAYER-1
 10
5.365052
 20
0.344352
 30
0.000000
  0
VERTEX
  8
LAYER-1
 10
5.310176
 20
0.344352
 30
0.000000
  0
SEQEND
  8
LAYER-1
  0
POLYLINE
  8
LAYER-1
 66
  1
 70
  0
 62
  0
 10
5.319074
 20
0.423453
 30
0.000000
  0
VERTEX
  8
LAYER-1
 10
5.319074
 20
0.423453
 30
0.000000
  0
VERTEX
  8
LAYER-1
 10
5.354672
 20
0.423453
 30
0.000000
  0
SEQEND
  8
LAYER-1
  0
POLYLINE
  8
LAYER-1
 66
  1
 70
  0
 62
  0
 10
5.319074
 20
0.552360
 30
0.000000
  0
VERTEX
  8
LAYER-1
 10
5.319074
 20
0.552360
 30
0.000000
  0
VERTEX
  8
LAYER-1
 10
5.354672
 20
0.552360
 30
0.000000
  0
SEQEND
  8
LAYER-1
  0
POLYLINE
  8
LAYER-1
 66
  1
 70
  0
 62
  0
 10
5.354672
 20
0.627344
 30
0.000000
  0
VERTEX
  8
LAYER-1
 10
5.354672
 20
0.627344
 30
0.000000
  0
VERTEX
  8
LAYER-1
 10
5.319074
 20
0.627344
 30
0.000000
  0
SEQEND
  8
LAYER-1
  0
POLYLINE
  8
LAYER-1
 66
  1
 70
  0
 62
  0
 10
5.354672
 20
1.474024
 30
0.000000
  0
VERTEX
  8
LAYER-1
 10
5.354672
 20
1.474024
 30
0.000000
  0
VERTEX
  8
LAYER-1
 10
5.319074
 20
1.474024
 30
0.000000
  0
SEQEND
  8
LAYER-1
  0
POLYLINE
  8
LAYER-1
 66
  1
 70
  0
 62
  0
 10
5.354672
 20
2.311913
 30
0.000000
  0
VERTEX
  8
LAYER-1
 10
5.354672
 20
2.311913
 30
0.000000
  0
VERTEX
  8
LAYER-1
 10
5.319074
 20
2.311913
 30
0.000000
  0
SEQEND
  8
LAYER-1
  0
POLYLINE
  8
LAYER-1
 66
  1
 70
  0
 62
  0
 10
5.354672
 20
3.161515
 30
0.000000
  0
VERTEX
  8
LAYER-1
 10
5.354672
 20
3.161515
 30
0.000000
  0
VERTEX
  8
LAYER-1
 10
5.319074
 20
3.161515
 30
0.000000
  0
SEQEND
  8
LAYER-1
  0
POLYLINE
  8
LAYER-1
 66
  1
 70
  0
 62
  0
 10
5.319074
 20
4.003801
 30
0.000000
  0
VERTEX
  8
LAYER-1
 10
5.319074
 20
4.003801
 30
0.000000
  0
VERTEX
  8
LAYER-1
 10
5.354672
 20
4.003801
 30
0.000000
  0
SEQEND
  8
LAYER-1
  0
POLYLINE
  8
LAYER-1
 66
  1
 70
  1
 62
  0
  0
VERTEX
  8
LAYER-1
 10
5.399165
 20
3.847927
 30
0.000000
  0
VERTEX
  8
LAYER-1
 10
5.686898
 20
3.847927
 30
0.000000
  0
VERTEX
  8
LAYER-1
 10
5.686898
 20
0.678856
 30
0.000000
  0
VERTEX
  8
LAYER-1
 10
5.399165
 20
0.678856
 30
0.000000
  0
SEQEND
  8
LAYER-1
  0
POLYLINE
  8
LAYER-1
 66
  1
 70
  1
 62
  0
  0
VERTEX
  8
LAYER-1
 10
4.989102
 20
3.847927
 30
0.000000
  0
VERTEX
  8
LAYER-1
 10
5.276835
 20
3.847927
 30
0.000000
  0
VERTEX
  8
LAYER-1
 10
5.276835
 20
0.678856
 30
0.000000
  0
VERTEX
  8
LAYER-1
 10
4.989102
 20
0.678856
 30
0.000000
  0
SEQEND
  8
LAYER-1
  0
POLYLINE
  8
LAYER-1
 66
  1
 70
  1
 62
  0
  0
VERTEX
  8
LAYER-1
 10
4.579040
 20
3.847927
 30
0.000000
  0
VERTEX
  8
LAYER-1
 10
4.866773
 20
3.847927
 30
0.000000
  0
VERTEX
  8
LAYER-1
 10
4.866773
 20
0.678856
 30
0.000000
  0
VERTEX
  8
LAYER-1
 10
4.579040
 20
0.678856
 30
0.000000
  0
SEQEND
  8
LAYER-1
  0
POLYLINE
  8
LAYER-1
 66
  1
 70
  1
 62
  0
  0
VERTEX
  8
LAYER-1
 10
4.168978
 20
3.847927
 30
0.000000
  0
VERTEX
  8
LAYER-1
 10
4.456711
 20
3.847927
 30
0.000000
  0
VERTEX
  8
LAYER-1
 10
4.456711
 20
0.678856
 30
0.000000
  0
VERTEX
  8
LAYER-1
 10
4.168978
 20
0.678856
 30
0.000000
  0
SEQEND
  8
LAYER-1
  0
LINE
  8
LAYER-1
 62
  0
 10
4.620621
 20
3.270665
 30
0.000000
 11
4.756710
 21
3.508402
 31
0.000000
  0
LINE
  8
LAYER-1
 62
  0
 10
4.677257
 20
3.238246
 30
0.000000
 11
4.813345
 21
3.475982
 31
0.000000
  0
LINE
  8
LAYER-1
 62
  0
 10
5.030683
 20
3.270665
 30
0.000000
 11
5.166772
 21
3.508402
 31
0.000000
  0
LINE
  8
LAYER-1
 62
  0
 10
5.087319
 20
3.238246
 30
0.000000
 11
5.223407
 21
3.475982
 31
0.000000
  0
LINE
  8
LAYER-1
 62
  0
 10
5.440745
 20
3.270665
 30
0.000000
 11
5.576834
 21
3.508402
 31
0.000000
  0
LINE
  8
LAYER-1
 62
  0
 10
5.497381
 20
3.238245
 30
0.000000
 11
5.633470
 21
3.475981
 31
0.000000
  0
LINE
  8
LAYER-1
 62
  0
 10
4.215719
 20
3.270668
 30
0.000000
 11
4.351807
 21
3.508403
 31
0.000000
  0
LINE
  8
LAYER-1
 62
  0
 10
4.272354
 20
3.238247
 30
0.000000
 11
4.408443
 21
3.475982
 31
0.000000
  0
LINE
  8
LAYER-1
 62
  0
 10
4.620260
 20
1.046817
 30
0.000000
 11
4.756348
 21
1.284552
 31
0.000000
  0
LINE
  8
LAYER-1
 62
  0
 10
4.676896
 20
1.014397
 30
0.000000
 11
4.812984
 21
1.252131
 31
0.000000
  0
LINE
  8
LAYER-1
 62
  0
 10
5.030321
 20
1.046817
 30
0.000000
 11
5.166410
 21
1.284552
 31
0.000000
  0
LINE
  8
LAYER-1
 62
  0
 10
5.086957
 20
1.014397
 30
0.000000
 11
5.223046
 21
1.252131
 31
0.000000
  0
LINE
  8
LAYER-1
 62
  0
 10
5.440385
 20
1.046817
 30
0.000000
 11
5.576476
 21
1.284552
 31
0.000000
  0
LINE
  8
LAYER-1
 62
  0
 10
5.497020
 20
1.014397
 30
0.000000
 11
5.633111
 21
1.252131
 31
0.000000
  0
LINE
  8
LAYER-1
 62
  0
 10
4.215360
 20
1.046817
 30
0.000000
 11
4.351446
 21
1.284552
 31
0.000000
  0
LINE
  8
LAYER-1
 62
  0
 10
4.271996
 20
1.014397
 30
0.000000
 11
4.408081
 21
1.252131
 31
0.000000
  0
POLYLINE
  8
LAYER-1
 66
  1
 70
  0
 62
  0
 10
4.969999
 20
7.416926
 30
0.000000
  0
VERTEX
  8
LAYER-1
 10
4.969999
 20
7.416926
 30
0.000000
  0
VERTEX
  8
LAYER-1
 10
4.969999
 20
0.350136
 30
0.000000
  0
SEQEND
  8
LAYER-1
  0
POLYLINE
  8
LAYER-1
 66
  1
 70
  0
 62
  0
 10
4.884569
 20
7.416926
 30
0.000000
  0
VERTEX
  8
LAYER-1
 10
4.884569
 20
7.416926
 30
0.000000
  0
VERTEX
  8
LAYER-1
 10
4.884569
 20
0.350136
 30
0.000000
  0
SEQEND
  8
LAYER-1
  0
POLYLINE
  8
LAYER-1
 66
  1
 70
  0
 62
  0
 10
4.559937
 20
7.416926
 30
0.000000
  0
VERTEX
  8
LAYER-1
 10
4.559937
 20
7.416926
 30
0.000000
  0
VERTEX
  8
LAYER-1
 10
4.559937
 20
0.350136
 30
0.000000
  0
SEQEND
  8
LAYER-1
  0
POLYLINE
  8
LAYER-1
 66
  1
 70
  0
 62
  0
 10
4.474506
 20
7.416926
 30
0.000000
  0
VERTEX
  8
LAYER-1
 10
4.474506
 20
7.416926
 30
0.000000
  0
VERTEX
  8
LAYER-1
 10
4.474506
 20
0.350136
 30
0.000000
  0
SEQEND
  8
LAYER-1
  0
POLYLINE
  8
LAYER-1
 66
  1
 70
  0
 62
  0
 10
4.149875
 20
7.416926
 30
0.000000
  0
VERTEX
  8
LAYER-1
 10
4.149875
 20
7.416926
 30
0.000000
  0
VERTEX
  8
LAYER-1
 10
4.149875
 20
0.350136
 30
0.000000
  0
SEQEND
  8
LAYER-1
  0
POLYLINE
  8
LAYER-1
 66
  1
 70
  0
 62
  0
 10
4.067292
 20
7.416926
 30
0.000000
  0
VERTEX
  8
LAYER-1
 10
4.067292
 20
7.416926
 30
0.000000
  0
VERTEX
  8
LAYER-1
 10
4.067292
 20
0.350136
 30
0.000000
  0
SEQEND
  8
LAYER-1
  0
POLYLINE
  8
LAYER-1
 66
  1
 70
  0
 62
  0
 10
5.740291
 20
7.416926
 30
0.000000
  0
VERTEX
  8
LAYER-1
 10
5.740291
 20
7.416926
 30
0.000000
  0
VERTEX
  8
LAYER-1
 10
5.740291
 20
0.350136
 30
0.000000
  0
SEQEND
  8
LAYER-1
  0
POLYLINE
  8
LAYER-1
 66
  1
 70
  0
 62
  0
 10
4.927524
 20
7.416926
 30
0.000000
  0
VERTEX
  8
LAYER-1
 10
4.927524
 20
7.416926
 30
0.000000
  0
VERTEX
  8
LAYER-1
 10
4.927524
 20
0.350136
 30
0.000000
  0
SEQEND
  8
LAYER-1
  0
POLYLINE
  8
LAYER-1
 66
  1
 70
  0
 62
  0
 10
4.535967
 20
7.416926
 30
0.000000
  0
VERTEX
  8
LAYER-1
 10
4.535967
 20
7.416926
 30
0.000000
  0
VERTEX
  8
LAYER-1
 10
4.535967
 20
0.350136
 30
0.000000
  0
SEQEND
  8
LAYER-1
  0
POLYLINE
  8
LAYER-1
 66
  1
 70
  0
 62
  0
 10
4.500376
 20
7.416926
 30
0.000000
  0
VERTEX
  8
LAYER-1
 10
4.500376
 20
7.416926
 30
0.000000
  0
VERTEX
  8
LAYER-1
 10
4.500376
 20
0.350136
 30
0.000000
  0
SEQEND
  8
LAYER-1
  0
POLYLINE
  8
LAYER-1
 66
  1
 70
  0
 62
  0
 10
4.108818
 20
7.416926
 30
0.000000
  0
VERTEX
  8
LAYER-1
 10
4.108818
 20
7.416926
 30
0.000000
  0
VERTEX
  8
LAYER-1
 10
4.108818
 20
0.350136
 30
0.000000
  0
SEQEND
  8
LAYER-1
  0
POLYLINE
  8
LAYER-1
 66
  1
 70
  1
 62
  0
  0
VERTEX
  8
LAYER-1
 10
4.492959
 20
0.350211
 30
0.000000
  0
VERTEX
  8
LAYER-1
 10
4.547837
 20
0.350211
 30
0.000000
  0
VERTEX
  8
LAYER-1
 10
4.547837
 20
0.344352
 30
0.000000
  0
VERTEX
  8
LAYER-1
 10
4.492959
 20
0.344352
 30
0.000000
  0
SEQEND
  8
LAYER-1
  0
POLYLINE
  8
LAYER-1
 66
  1
 70
  0
 62
  0
 10
4.500376
 20
0.423453
 30
0.000000
  0
VERTEX
  8
LAYER-1
 10
4.500376
 20
0.423453
 30
0.000000
  0
VERTEX
  8
LAYER-1
 10
4.535967
 20
0.423453
 30
0.000000
  0
SEQEND
  8
LAYER-1
  0
POLYLINE
  8
LAYER-1
 66
  1
 70
  0
 62
  0
 10
4.500376
 20
0.552360
 30
0.000000
  0
VERTEX
  8
LAYER-1
 10
4.500376
 20
0.552360
 30
0.000000
  0
VERTEX
  8
LAYER-1
 10
4.535967
 20
0.552360
 30
0.000000
  0
SEQEND
  8
LAYER-1
  0
POLYLINE
  8
LAYER-1
 66
  1
 70
  0
 62
  0
 10
4.535967
 20
0.627344
 30
0.000000
  0
VERTEX
  8
LAYER-1
 10
4.535967
 20
0.627344
 30
0.000000
  0
VERTEX
  8
LAYER-1
 10
4.500376
 20
0.627344
 30
0.000000
  0
SEQEND
  8
LAYER-1
  0
POLYLINE
  8
LAYER-1
 66
  1
 70
  0
 62
  0
 10
4.535967
 20
1.474024
 30
0.000000
  0
VERTEX
  8
LAYER-1
 10
4.535967
 20
1.474024
 30
0.000000
  0
VERTEX
  8
LAYER-1
 10
4.500376
 20
1.474024
 30
0.000000
  0
SEQEND
  8
LAYER-1
  0
POLYLINE
  8
LAYER-1
 66
  1
 70
  0
 62
  0
 10
4.535967
 20
2.311913
 30
0.000000
  0
VERTEX
  8
LAYER-1
 10
4.535967
 20
2.311913
 30
0.000000
  0
VERTEX
  8
LAYER-1
 10
4.500376
 20
2.311913
 30
0.000000
  0
SEQEND
  8
LAYER-1
  0
POLYLINE
  8
LAYER-1
 66
  1
 70
  0
 62
  0
 10
4.535967
 20
3.161515
 30
0.000000
  0
VERTEX
  8
LAYER-1
 10
4.535967
 20
3.161515
 30
0.000000
  0
VERTEX
  8
LAYER-1
 10
4.500376
 20
3.161515
 30
0.000000
  0
SEQEND
  8
LAYER-1
  0
POLYLINE
  8
LAYER-1
 66
  1
 70
  0
 62
  0
 10
4.500376
 20
4.003801
 30
0.000000
  0
VERTEX
  8
LAYER-1
 10
4.500376
 20
4.003801
 30
0.000000
  0
VERTEX
  8
LAYER-1
 10
4.535967
 20
4.003801
 30
0.000000
  0
SEQEND
  8
LAYER-1
  0
POLYLINE
  8
LAYER-1
 66
  1
 70
  0
 62
  0
 10
5.354019
 20
4.854802
 30
0.000000
  0
VERTEX
  8
LAYER-1
 10
5.354019
 20
4.854802
 30
0.000000
  0
VERTEX
  8
LAYER-1
 10
5.318424
 20
4.854802
 30
0.000000
  0
SEQEND
  8
LAYER-1
  0
POLYLINE
  8
LAYER-1
 66
  1
 70
  0
 62
  0
 10
5.354019
 20
5.698551
 30
0.000000
  0
VERTEX
  8
LAYER-1
 10
5.354019
 20
5.698551
 30
0.000000
  0
VERTEX
  8
LAYER-1
 10
5.318424
 20
5.698551
 30
0.000000
  0
SEQEND
  8
LAYER-1
  0
POLYLINE
  8
LAYER-1
 66
  1
 70
  0
 62
  0
 10
4.536144
 20
4.854802
 30
0.000000
  0
VERTEX
  8
LAYER-1
 10
4.536144
 20
4.854802
 30
0.000000
  0
VERTEX
  8
LAYER-1
 10
4.500553
 20
4.854802
 30
0.000000
  0
SEQEND
  8
LAYER-1
  0
POLYLINE
  8
LAYER-1
 66
  1
 70
  0
 62
  0
 10
4.536144
 20
5.698551
 30
0.000000
  0
VERTEX
  8
LAYER-1
 10
4.536144
 20
5.698551
 30
0.000000
  0
VERTEX
  8
LAYER-1
 10
4.500553
 20
5.698551
 30
0.000000
  0
SEQEND
  8
LAYER-1
  0
POLYLINE
  8
LAYER-1
 66
  1
 70
  1
 62
  0
  0
VERTEX
  8
LAYER-1
 10
3.843335
 20
7.422785
 30
0.000000
  0
VERTEX
  8
LAYER-1
 10
3.898213
 20
7.422785
 30
0.000000
  0
VERTEX
  8
LAYER-1
 10
3.898213
 20
7.416924
 30
0.000000
  0
VERTEX
  8
LAYER-1
 10
3.843335
 20
7.416924
 30
0.000000
  0
SEQEND
  8
LAYER-1
  0
POLYLINE
  8
LAYER-1
 66
  1
 70
  0
 62
  0
 10
3.887828
 20
7.349542
 30
0.000000
  0
VERTEX
  8
LAYER-1
 10
3.887828
 20
7.349542
 30
0.000000
  0
VERTEX
  8
LAYER-1
 10
3.852236
 20
7.349542
 30
0.000000
  0
SEQEND
  8
LAYER-1
  0
POLYLINE
  8
LAYER-1
 66
  1
 70
  0
 62
  0
 10
3.887828
 20
7.220635
 30
0.000000
  0
VERTEX
  8
LAYER-1
 10
3.887828
 20
7.220635
 30
0.000000
  0
VERTEX
  8
LAYER-1
 10
3.852236
 20
7.220635
 30
0.000000
  0
SEQEND
  8
LAYER-1
  0
POLYLINE
  8
LAYER-1
 66
  1
 70
  0
 62
  0
 10
3.887828
 20
7.416850
 30
0.000000
  0
VERTEX
  8
LAYER-1
 10
3.887828
 20
7.416850
 30
0.000000
  0
VERTEX
  8
LAYER-1
 10
3.887828
 20
0.350136
 30
0.000000
  0
SEQEND
  8
LAYER-1
  0
POLYLINE
  8
LAYER-1
 66
  1
 70
  0
 62
  0
 10
3.852236
 20
0.423376
 30
0.000000
  0
VERTEX
  8
LAYER-1
 10
3.852236
 20
0.423376
 30
0.000000
  0
VERTEX
  8
LAYER-1
 10
3.887828
 20
0.423376
 30
0.000000
  0
SEQEND
  8
LAYER-1
  0
POLYLINE
  8
LAYER-1
 66
  1
 70
  0
 62
  0
 10
3.852236
 20
0.552283
 30
0.000000
  0
VERTEX
  8
LAYER-1
 10
3.852236
 20
0.552283
 30
0.000000
  0
VERTEX
  8
LAYER-1
 10
3.887828
 20
0.552283
 30
0.000000
  0
SEQEND
  8
LAYER-1
  0
POLYLINE
  8
LAYER-1
 66
  1
 70
  0
 62
  0
 10
3.887828
 20
0.627265
 30
0.000000
  0
VERTEX
  8
LAYER-1
 10
3.887828
 20
0.627265
 30
0.000000
  0
VERTEX
  8
LAYER-1
 10
3.852233
 20
0.627265
 30
0.000000
  0
SEQEND
  8
LAYER-1
  0
POLYLINE
  8
LAYER-1
 66
  1
 70
  0
 62
  0
 10
3.887828
 20
1.473947
 30
0.000000
  0
VERTEX
  8
LAYER-1
 10
3.887828
 20
1.473947
 30
0.000000
  0
VERTEX
  8
LAYER-1
 10
3.852233
 20
1.473947
 30
0.000000
  0
SEQEND
  8
LAYER-1
  0
POLYLINE
  8
LAYER-1
 66
  1
 70
  0
 62
  0
 10
3.887828
 20
2.311835
 30
0.000000
  0
VERTEX
  8
LAYER-1
 10
3.887828
 20
2.311835
 30
0.000000
  0
VERTEX
  8
LAYER-1
 10
3.852233
 20
2.311835
 30
0.000000
  0
SEQEND
  8
LAYER-1
  0
POLYLINE
  8
LAYER-1
 66
  1
 70
  0
 62
  0
 10
3.887828
 20
3.161440
 30
0.000000
  0
VERTEX
  8
LAYER-1
 10
3.887828
 20
3.161440
 30
0.000000
  0
VERTEX
  8
LAYER-1
 10
3.852233
 20
3.161440
 30
0.000000
  0
SEQEND
  8
LAYER-1
  0
POLYLINE
  8
LAYER-1
 66
  1
 70
  0
 62
  0
 10
3.852233
 20
4.003724
 30
0.000000
  0
VERTEX
  8
LAYER-1
 10
3.852233
 20
4.003724
 30
0.000000
  0
VERTEX
  8
LAYER-1
 10
3.887828
 20
4.003724
 30
0.000000
  0
SEQEND
  8
LAYER-1
  0
POLYLINE
  8
LAYER-1
 66
  1
 70
  0
 62
  0
 10
3.888006
 20
4.854725
 30
0.000000
  0
VERTEX
  8
LAYER-1
 10
3.888006
 20
4.854725
 30
0.000000
  0
VERTEX
  8
LAYER-1
 10
3.852414
 20
4.854725
 30
0.000000
  0
SEQEND
  8
LAYER-1
  0
POLYLINE
  8
LAYER-1
 66
  1
 70
  0
 62
  0
 10
3.888006
 20
5.698475
 30
0.000000
  0
VERTEX
  8
LAYER-1
 10
3.888006
 20
5.698475
 30
0.000000
  0
VERTEX
  8
LAYER-1
 10
3.852414
 20
5.698475
 30
0.000000
  0
SEQEND
  8
LAYER-1
  0
POLYLINE
  8
LAYER-1
 66
  1
 70
  1
 62
  0
  0
VERTEX
  8
LAYER-1
 10
3.844819
 20
0.350136
 30
0.000000
  0
VERTEX
  8
LAYER-1
 10
3.899691
 20
0.350136
 30
0.000000
  0
VERTEX
  8
LAYER-1
 10
3.899691
 20
0.344276
 30
0.000000
  0
VERTEX
  8
LAYER-1
 10
3.844819
 20
0.344276
 30
0.000000
  0
SEQEND
  8
LAYER-1
  0
TEXT
  8
LAYER-1
 62
  7
 10
1.990411
 20
8.787559
 30
0.000000
 40
0.187500
  1
Elevaci—n modelo Royal
 72
  5
 11
4.934856
 21
8.787559
 31
0.000000
  0
LINE
  8
LAYER-1
 62
  0
 10
6.768189
 20
7.482559
 30
0.000000
 11
0.771661
 21
7.482559
 31
0.000000
  0
LINE
  8
LAYER-1
 62
  0
 10
6.768189
 20
7.592558
 30
0.000000
 11
0.771661
 21
7.592558
 31
0.000000
  0
LINE
  8
LAYER-1
 62
  0
 10
1.331559
 20
7.484065
 30
0.000000
 11
1.331559
 21
7.594043
 31
0.000000
  0
LINE
  8
LAYER-1
 62
  0
 10
1.272190
 20
7.484065
 30
0.000000
 11
1.456559
 21
7.484065
 31
0.000000
  0
LINE
  8
LAYER-1
 62
  0
 10
1.272530
 20
7.594043
 30
0.000000
 11
1.456559
 21
7.594043
 31
0.000000
  0
LINE
  8
LAYER-1
 62
  0
 10
1.331559
 20
7.594043
 30
0.000000
 11
1.331559
 21
7.228529
 31
0.000000
  0
LINE
  8
LAYER-1
 62
  0
 10
1.302096
 20
7.513528
 30
0.000000
 11
1.361021
 21
7.454602
 31
0.000000
  0
LINE
  8
LAYER-1
 62
  0
 10
1.302096
 20
7.623506
 30
0.000000
 11
1.361021
 21
7.564580
 31
0.000000
  0
TEXT
  8
LAYER-1
 62
  0
 10
1.319698
 20
7.100113
 30
0.000000
 40
0.125000
  1
 
  0
TEXT
  8
LAYER-1
 62
  0
 10
1.073745
 20
6.857003
 30
0.000000
 40
0.125000
  1
1-
 72
  5
 11
1.295967
 21
6.857003
 31
0.000000
  0
TEXT
  8
LAYER-1
 62
  0
 10
1.295967
 20
6.857003
 30
0.000000
 40
0.104167
  1
9/16
 72
  5
 11
1.657078
 21
6.857003
 31
0.000000
  0
TEXT
  8
LAYER-1
 62
  0
 10
1.657078
 20
6.857003
 30
0.000000
 40
0.125000
  1
"
 72
  5
 11
1.782078
 21
6.857003
 31
0.000000
  0
TEXT
  8
LAYER-1
 62
  0
 10
1.073745
 20
6.662559
 30
0.000000
 40
0.125000
  1
40mm
 72
  5
 11
1.643189
 21
6.662559
 31
0.000000
  0
TEXT
  8
LAYER-1
 62
  0
 10
2.309856
 20
7.884781
 30
0.000000
 40
0.125000
  1
Componente
 72
  5
 11
3.379300
 21
7.884781
 31
0.000000
  0
TEXT
  8
LAYER-1
 62
  0
 10
2.309856
 20
7.690336
 30
0.000000
 40
0.125000
  1
intermediario #4
 72
  5
 11
3.629300
 21
7.690336
 31
0.000000
  0
POLYLINE
  8
LAYER-1
 66
  1
 70
  0
 62
  0
 10
3.519057
 20
7.749363
 30
0.000000
  0
VERTEX
  8
LAYER-1
 10
3.519057
 20
7.749363
 30
0.000000
  0
VERTEX
  8
LAYER-1
 10
3.760133
 20
7.434268
 30
0.000000
  0
SEQEND
  8
LAYER-1
  0
POLYLINE
  8
LAYER-1
 66
  1
 70
  1
 62
  0
  0
VERTEX
  8
LAYER-1
 10
3.772095
 20
7.418633
 30
0.000000
  0
VERTEX
  8
LAYER-1
 10
3.696805
 20
7.448469
 30
0.000000
  0
VERTEX
  8
LAYER-1
 10
3.729897
 20
7.473787
 30
0.000000
  0
VERTEX
  8
LAYER-1
 10
3.762989
 20
7.499106
 30
0.000000
  0
VERTEX
  8
LAYER-1
 10
3.772095
 20
7.418633
 30
0.000000
  0
SEQEND
  8
LAYER-1
  0
POLYLINE
  8
LAYER-1
 66
  1
 70
  0
 62
  0
 40
0.027778
 41
0.027778
 10
3.684575
 20
0.244166
 30
0.000000
  0
VERTEX
  8
LAYER-1
 10
3.684575
 20
0.244166
 30
0.000000
  0
VERTEX
  8
LAYER-1
 10
0.768189
 20
0.244166
 30
0.000000
  0
SEQEND
  8
LAYER-1
  0
POLYLINE
  8
LAYER-1
 66
  1
 70
  0
 62
  0
 40
0.027778
 41
0.027778
 10
3.778192
 20
0.244166
 30
0.000000
  0
VERTEX
  8
LAYER-1
 10
3.778192
 20
0.244166
 30
0.000000
  0
VERTEX
  8
LAYER-1
 10
6.761245
 20
0.244166
 30
0.000000
  0
SEQEND
  8
LAYER-1
  0
POLYLINE
  8
LAYER-1
 66
  1
 70
  1
 62
  0
  0
VERTEX
  8
LAYER-1
 10
0.031375
 20
3.544190
 30
0.000000
  0
VERTEX
  8
LAYER-1
 10
0.145716
 20
3.544190
 30
0.000000
  0
VERTEX
  8
LAYER-1
 10
0.145716
 20
3.440536
 30
0.000000
  0
VERTEX
  8
LAYER-1
 10
0.031375
 20
3.440536
 30
0.000000
  0
SEQEND
  8
LAYER-1
  0
POLYLINE
  8
LAYER-1
 66
  1
 70
  1
 62
  0
  0
VERTEX
  8
LAYER-1
 10
0.179704
 20
3.544190
 30
0.000000
  0
VERTEX
  8
LAYER-1
 10
0.294334
 20
3.544190
 30
0.000000
  0
VERTEX
  8
LAYER-1
 10
0.294334
 20
3.440536
 30
0.000000
  0
VERTEX
  8
LAYER-1
 10
0.179704
 20
3.440536
 30
0.000000
  0
SEQEND
  8
LAYER-1
  0
POLYLINE
  8
LAYER-1
 66
  1
 70
  1
 62
  0
  0
VERTEX
  8
LAYER-1
 10
0.328176
 20
3.544190
 30
0.000000
  0
VERTEX
  8
LAYER-1
 10
0.442515
 20
3.544190
 30
0.000000
  0
VERTEX
  8
LAYER-1
 10
0.442515
 20
3.440536
 30
0.000000
  0
VERTEX
  8
LAYER-1
 10
0.328176
 20
3.440536
 30
0.000000
  0
SEQEND
  8
LAYER-1
  0
POLYLINE
  8
LAYER-1
 66
  1
 70
  1
 62
  0
  0
VERTEX
  8
LAYER-1
 10
0.476503
 20
3.544190
 30
0.000000
  0
VERTEX
  8
LAYER-1
 10
0.590987
 20
3.544190
 30
0.000000
  0
VERTEX
  8
LAYER-1
 10
0.590987
 20
3.440536
 30
0.000000
  0
VERTEX
  8
LAYER-1
 10
0.476503
 20
3.440536
 30
0.000000
  0
SEQEND
  8
LAYER-1
  0
POLYLINE
  8
LAYER-1
 66
  1
 70
  1
 62
  0
  0
VERTEX
  8
LAYER-1
 10
0.624975
 20
3.544190
 30
0.000000
  0
VERTEX
  8
LAYER-1
 10
0.739314
 20
3.544190
 30
0.000000
  0
VERTEX
  8
LAYER-1
 10
0.739314
 20
3.440536
 30
0.000000
  0
VERTEX
  8
LAYER-1
 10
0.624975
 20
3.440536
 30
0.000000
  0
SEQEND
  8
LAYER-1
  0
POLYLINE
  8
LAYER-1
 66
  1
 70
  1
 62
  0
  0
VERTEX
  8
LAYER-1
 10
0.773447
 20
3.544190
 30
0.000000
  0
VERTEX
  8
LAYER-1
 10
0.887788
 20
3.544190
 30
0.000000
  0
VERTEX
  8
LAYER-1
 10
0.887788
 20
3.440536
 30
0.000000
  0
VERTEX
  8
LAYER-1
 10
0.773447
 20
3.440536
 30
0.000000
  0
SEQEND
  8
LAYER-1
  0
POLYLINE
  8
LAYER-1
 66
  1
 70
  1
 62
  0
  0
VERTEX
  8
LAYER-1
 10
0.921774
 20
3.544190
 30
0.000000
  0
VERTEX
  8
LAYER-1
 10
1.036261
 20
3.544190
 30
0.000000
  0
VERTEX
  8
LAYER-1
 10
1.036261
 20
3.440536
 30
0.000000
  0
VERTEX
  8
LAYER-1
 10
0.921774
 20
3.440536
 30
0.000000
  0
SEQEND
  8
LAYER-1
  0
POLYLINE
  8
LAYER-1
 66
  1
 70
  1
 62
  0
  0
VERTEX
  8
LAYER-1
 10
0.031297
 20
5.139373
 30
0.000000
  0
VERTEX
  8
LAYER-1
 10
0.145784
 20
5.139373
 30
0.000000
  0
VERTEX
  8
LAYER-1
 10
0.145784
 20
5.035719
 30
0.000000
  0
VERTEX
  8
LAYER-1
 10
0.031297
 20
5.035719
 30
0.000000
  0
SEQEND
  8
LAYER-1
  0
POLYLINE
  8
LAYER-1
 66
  1
 70
  1
 62
  0
  0
VERTEX
  8
LAYER-1
 10
0.179623
 20
5.139373
 30
0.000000
  0
VERTEX
  8
LAYER-1
 10
0.294257
 20
5.139373
 30
0.000000
  0
VERTEX
  8
LAYER-1
 10
0.294257
 20
5.035719
 30
0.000000
  0
VERTEX
  8
LAYER-1
 10
0.179623
 20
5.035719
 30
0.000000
  0
SEQEND
  8
LAYER-1
  0
POLYLINE
  8
LAYER-1
 66
  1
 70
  1
 62
  0
  0
VERTEX
  8
LAYER-1
 10
0.328096
 20
5.139373
 30
0.000000
  0
VERTEX
  8
LAYER-1
 10
0.442583
 20
5.139373
 30
0.000000
  0
VERTEX
  8
LAYER-1
 10
0.442583
 20
5.035719
 30
0.000000
  0
VERTEX
  8
LAYER-1
 10
0.328096
 20
5.035719
 30
0.000000
  0
SEQEND
  8
LAYER-1
  0
POLYLINE
  8
LAYER-1
 66
  1
 70
  1
 62
  0
  0
VERTEX
  8
LAYER-1
 10
0.476422
 20
5.139373
 30
0.000000
  0
VERTEX
  8
LAYER-1
 10
0.590910
 20
5.139373
 30
0.000000
  0
VERTEX
  8
LAYER-1
 10
0.590910
 20
5.035719
 30
0.000000
  0
VERTEX
  8
LAYER-1
 10
0.476422
 20
5.035719
 30
0.000000
  0
SEQEND
  8
LAYER-1
  0
POLYLINE
  8
LAYER-1
 66
  1
 70
  1
 62
  0
  0
VERTEX
  8
LAYER-1
 10
0.623452
 20
5.139373
 30
0.000000
  0
VERTEX
  8
LAYER-1
 10
0.739382
 20
5.139373
 30
0.000000
  0
VERTEX
  8
LAYER-1
 10
0.739382
 20
5.035719
 30
0.000000
  0
VERTEX
  8
LAYER-1
 10
0.623452
 20
5.035719
 30
0.000000
  0
SEQEND
  8
LAYER-1
  0
POLYLINE
  8
LAYER-1
 66
  1
 70
  1
 62
  0
  0
VERTEX
  8
LAYER-1
 10
0.773369
 20
5.139373
 30
0.000000
  0
VERTEX
  8
LAYER-1
 10
0.887854
 20
5.139373
 30
0.000000
  0
VERTEX
  8
LAYER-1
 10
0.887854
 20
5.035719
 30
0.000000
  0
VERTEX
  8
LAYER-1
 10
0.773369
 20
5.035719
 30
0.000000
  0
SEQEND
  8
LAYER-1
  0
POLYLINE
  8
LAYER-1
 66
  1
 70
  1
 62
  0
  0
VERTEX
  8
LAYER-1
 10
0.921047
 20
5.139373
 30
0.000000
  0
VERTEX
  8
LAYER-1
 10
1.036183
 20
5.139373
 30
0.000000
  0
VERTEX
  8
LAYER-1
 10
1.036183
 20
5.035719
 30
0.000000
  0
VERTEX
  8
LAYER-1
 10
0.921047
 20
5.035719
 30
0.000000
  0
SEQEND
  8
LAYER-1
  0
POLYLINE
  8
LAYER-1
 66
  1
 70
  1
 62
  0
  0
VERTEX
  8
LAYER-1
 10
0.294257
 20
5.139373
 30
0.000000
  0
VERTEX
  8
LAYER-1
 10
0.310707
 20
5.139373
 30
0.000000
  0
VERTEX
  8
LAYER-1
 10
0.310707
 20
3.440581
 30
0.000000
  0
VERTEX
  8
LAYER-1
 10
0.294257
 20
3.440581
 30
0.000000
  0
SEQEND
  8
LAYER-1
  0
POLYLINE
  8
LAYER-1
 66
  1
 70
  1
 62
  0
  0
VERTEX
  8
LAYER-1
 10
0.310707
 20
5.139373
 30
0.000000
  0
VERTEX
  8
LAYER-1
 10
0.328176
 20
5.139373
 30
0.000000
  0
VERTEX
  8
LAYER-1
 10
0.328176
 20
3.440536
 30
0.000000
  0
VERTEX
  8
LAYER-1
 10
0.310707
 20
3.440536
 30
0.000000
  0
SEQEND
  8
LAYER-1
  0
POLYLINE
  8
LAYER-1
 66
  1
 70
  1
 62
  0
  0
VERTEX
  8
LAYER-1
 10
0.442583
 20
5.139373
 30
0.000000
  0
VERTEX
  8
LAYER-1
 10
0.459116
 20
5.139373
 30
0.000000
  0
VERTEX
  8
LAYER-1
 10
0.459116
 20
3.440581
 30
0.000000
  0
VERTEX
  8
LAYER-1
 10
0.442583
 20
3.440581
 30
0.000000
  0
SEQEND
  8
LAYER-1
  0
POLYLINE
  8
LAYER-1
 66
  1
 70
  1
 62
  0
  0
VERTEX
  8
LAYER-1
 10
0.459116
 20
5.139373
 30
0.000000
  0
VERTEX
  8
LAYER-1
 10
0.476503
 20
5.139373
 30
0.000000
  0
VERTEX
  8
LAYER-1
 10
0.476503
 20
3.440536
 30
0.000000
  0
VERTEX
  8
LAYER-1
 10
0.459116
 20
3.440536
 30
0.000000
  0
SEQEND
  8
LAYER-1
  0
POLYLINE
  8
LAYER-1
 66
  1
 70
  1
 62
  0
  0
VERTEX
  8
LAYER-1
 10
0.590910
 20
5.139373
 30
0.000000
  0
VERTEX
  8
LAYER-1
 10
0.607526
 20
5.139373
 30
0.000000
  0
VERTEX
  8
LAYER-1
 10
0.607526
 20
3.440581
 30
0.000000
  0
VERTEX
  8
LAYER-1
 10
0.590910
 20
3.440581
 30
0.000000
  0
SEQEND
  8
LAYER-1
  0
POLYLINE
  8
LAYER-1
 66
  1
 70
  1
 62
  0
  0
VERTEX
  8
LAYER-1
 10
0.607526
 20
5.139373
 30
0.000000
  0
VERTEX
  8
LAYER-1
 10
0.624975
 20
5.139373
 30
0.000000
  0
VERTEX
  8
LAYER-1
 10
0.624975
 20
3.440536
 30
0.000000
  0
VERTEX
  8
LAYER-1
 10
0.607526
 20
3.440536
 30
0.000000
  0
SEQEND
  8
LAYER-1
  0
POLYLINE
  8
LAYER-1
 66
  1
 70
  1
 62
  0
  0
VERTEX
  8
LAYER-1
 10
0.739382
 20
5.139373
 30
0.000000
  0
VERTEX
  8
LAYER-1
 10
0.755934
 20
5.139373
 30
0.000000
  0
VERTEX
  8
LAYER-1
 10
0.755934
 20
3.440581
 30
0.000000
  0
VERTEX
  8
LAYER-1
 10
0.739382
 20
3.440581
 30
0.000000
  0
SEQEND
  8
LAYER-1
  0
POLYLINE
  8
LAYER-1
 66
  1
 70
  1
 62
  0
  0
VERTEX
  8
LAYER-1
 10
0.755934
 20
5.139373
 30
0.000000
  0
VERTEX
  8
LAYER-1
 10
0.773447
 20
5.139373
 30
0.000000
  0
VERTEX
  8
LAYER-1
 10
0.773447
 20
3.440536
 30
0.000000
  0
VERTEX
  8
LAYER-1
 10
0.755934
 20
3.440536
 30
0.000000
  0
SEQEND
  8
LAYER-1
  0
POLYLINE
  8
LAYER-1
 66
  1
 70
  1
 62
  0
  0
VERTEX
  8
LAYER-1
 10
0.887854
 20
5.139373
 30
0.000000
  0
VERTEX
  8
LAYER-1
 10
0.904344
 20
5.139373
 30
0.000000
  0
VERTEX
  8
LAYER-1
 10
0.904344
 20
3.440581
 30
0.000000
  0
VERTEX
  8
LAYER-1
 10
0.887854
 20
3.440581
 30
0.000000
  0
SEQEND
  8
LAYER-1
  0
POLYLINE
  8
LAYER-1
 66
  1
 70
  1
 62
  0
  0
VERTEX
  8
LAYER-1
 10
0.904344
 20
5.139373
 30
0.000000
  0
VERTEX
  8
LAYER-1
 10
0.921774
 20
5.139373
 30
0.000000
  0
VERTEX
  8
LAYER-1
 10
0.921774
 20
3.440536
 30
0.000000
  0
VERTEX
  8
LAYER-1
 10
0.904344
 20
3.440536
 30
0.000000
  0
SEQEND
  8
LAYER-1
  0
POLYLINE
  8
LAYER-1
 66
  1
 70
  1
 62
  0
  0
VERTEX
  8
LAYER-1
 10
0.145784
 20
5.139373
 30
0.000000
  0
VERTEX
  8
LAYER-1
 10
0.162300
 20
5.139373
 30
0.000000
  0
VERTEX
  8
LAYER-1
 10
0.162300
 20
3.440581
 30
0.000000
  0
VERTEX
  8
LAYER-1
 10
0.145784
 20
3.440581
 30
0.000000
  0
SEQEND
  8
LAYER-1
  0
POLYLINE
  8
LAYER-1
 66
  1
 70
  1
 62
  0
  0
VERTEX
  8
LAYER-1
 10
0.162300
 20
5.139373
 30
0.000000
  0
VERTEX
  8
LAYER-1
 10
0.179704
 20
5.139373
 30
0.000000
  0
VERTEX
  8
LAYER-1
 10
0.179704
 20
3.440536
 30
0.000000
  0
VERTEX
  8
LAYER-1
 10
0.162300
 20
3.440536
 30
0.000000
  0
SEQEND
  8
LAYER-1
  0
LINE
  8
LAYER-1
 62
  0
 10
0.049162
 20
4.385050
 30
0.000000
 11
0.111328
 21
4.517800
 31
0.000000
  0
LINE
  8
LAYER-1
 62
  0
 10
0.070970
 20
4.374838
 30
0.000000
 11
0.133135
 21
4.507587
 31
0.000000
  0
LINE
  8
LAYER-1
 62
  0
 10
0.049162
 20
4.834398
 30
0.000000
 11
0.111328
 21
4.967145
 31
0.000000
  0
LINE
  8
LAYER-1
 62
  0
 10
0.070970
 20
4.824185
 30
0.000000
 11
0.133135
 21
4.956932
 31
0.000000
  0
LINE
  8
LAYER-1
 62
  0
 10
0.197572
 20
4.385050
 30
0.000000
 11
0.259738
 21
4.517800
 31
0.000000
  0
LINE
  8
LAYER-1
 62
  0
 10
0.219380
 20
4.374838
 30
0.000000
 11
0.281545
 21
4.507587
 31
0.000000
  0
LINE
  8
LAYER-1
 62
  0
 10
0.197572
 20
4.834398
 30
0.000000
 11
0.259738
 21
4.967145
 31
0.000000
  0
LINE
  8
LAYER-1
 62
  0
 10
0.219380
 20
4.824185
 30
0.000000
 11
0.281545
 21
4.956932
 31
0.000000
  0
LINE
  8
LAYER-1
 62
  0
 10
0.345979
 20
4.385050
 30
0.000000
 11
0.408145
 21
4.517800
 31
0.000000
  0
LINE
  8
LAYER-1
 62
  0
 10
0.367786
 20
4.374838
 30
0.000000
 11
0.429953
 21
4.507587
 31
0.000000
  0
LINE
  8
LAYER-1
 62
  0
 10
0.345979
 20
4.834398
 30
0.000000
 11
0.408145
 21
4.967145
 31
0.000000
  0
LINE
  8
LAYER-1
 62
  0
 10
0.367786
 20
4.824185
 30
0.000000
 11
0.429953
 21
4.956932
 31
0.000000
  0
LINE
  8
LAYER-1
 62
  0
 10
0.494388
 20
4.385050
 30
0.000000
 11
0.556554
 21
4.517800
 31
0.000000
  0
LINE
  8
LAYER-1
 62
  0
 10
0.516196
 20
4.374838
 30
0.000000
 11
0.578361
 21
4.507587
 31
0.000000
  0
LINE
  8
LAYER-1
 62
  0
 10
0.494388
 20
4.834398
 30
0.000000
 11
0.556554
 21
4.967145
 31
0.000000
  0
LINE
  8
LAYER-1
 62
  0
 10
0.516196
 20
4.824185
 30
0.000000
 11
0.578361
 21
4.956932
 31
0.000000
  0
LINE
  8
LAYER-1
 62
  0
 10
0.642797
 20
4.385050
 30
0.000000
 11
0.704964
 21
4.517800
 31
0.000000
  0
LINE
  8
LAYER-1
 62
  0
 10
0.664605
 20
4.374838
 30
0.000000
 11
0.726771
 21
4.507587
 31
0.000000
  0
LINE
  8
LAYER-1
 62
  0
 10
0.642797
 20
4.834398
 30
0.000000
 11
0.704964
 21
4.967145
 31
0.000000
  0
LINE
  8
LAYER-1
 62
  0
 10
0.664605
 20
4.824185
 30
0.000000
 11
0.726771
 21
4.956932
 31
0.000000
  0
LINE
  8
LAYER-1
 62
  0
 10
0.791207
 20
4.385050
 30
0.000000
 11
0.853372
 21
4.517800
 31
0.000000
  0
LINE
  8
LAYER-1
 62
  0
 10
0.813014
 20
4.374838
 30
0.000000
 11
0.875180
 21
4.507587
 31
0.000000
  0
LINE
  8
LAYER-1
 62
  0
 10
0.791207
 20
4.834398
 30
0.000000
 11
0.853372
 21
4.967145
 31
0.000000
  0
LINE
  8
LAYER-1
 62
  0
 10
0.813014
 20
4.824185
 30
0.000000
 11
0.875180
 21
4.956932
 31
0.000000
  0
LINE
  8
LAYER-1
 62
  0
 10
0.939615
 20
4.385050
 30
0.000000
 11
1.001780
 21
4.517800
 31
0.000000
  0
LINE
  8
LAYER-1
 62
  0
 10
0.961422
 20
4.374838
 30
0.000000
 11
1.023587
 21
4.507587
 31
0.000000
  0
LINE
  8
LAYER-1
 62
  0
 10
0.939615
 20
4.834398
 30
0.000000
 11
1.001780
 21
4.967145
 31
0.000000
  0
LINE
  8
LAYER-1
 62
  0
 10
0.961422
 20
4.824185
 30
0.000000
 11
1.023587
 21
4.956932
 31
0.000000
  0
LINE
  8
LAYER-1
 62
  0
 10
0.049162
 20
4.059169
 30
0.000000
 11
0.111328
 21
4.191917
 31
0.000000
  0
LINE
  8
LAYER-1
 62
  0
 10
0.070970
 20
4.048957
 30
0.000000
 11
0.133135
 21
4.181705
 31
0.000000
  0
LINE
  8
LAYER-1
 62
  0
 10
0.046770
 20
3.624132
 30
0.000000
 11
0.108938
 21
3.756882
 31
0.000000
  0
LINE
  8
LAYER-1
 62
  0
 10
0.068577
 20
3.613920
 30
0.000000
 11
0.130745
 21
3.746669
 31
0.000000
  0
LINE
  8
LAYER-1
 62
  0
 10
0.197572
 20
4.059169
 30
0.000000
 11
0.259738
 21
4.191917
 31
0.000000
  0
LINE
  8
LAYER-1
 62
  0
 10
0.219380
 20
4.048957
 30
0.000000
 11
0.281545
 21
4.181705
 31
0.000000
  0
LINE
  8
LAYER-1
 62
  0
 10
0.195181
 20
3.624132
 30
0.000000
 11
0.257345
 21
3.756882
 31
0.000000
  0
LINE
  8
LAYER-1
 62
  0
 10
0.216988
 20
3.613920
 30
0.000000
 11
0.279153
 21
3.746669
 31
0.000000
  0
LINE
  8
LAYER-1
 62
  0
 10
0.345979
 20
4.059169
 30
0.000000
 11
0.408145
 21
4.191917
 31
0.000000
  0
LINE
  8
LAYER-1
 62
  0
 10
0.367786
 20
4.048957
 30
0.000000
 11
0.429953
 21
4.181705
 31
0.000000
  0
LINE
  8
LAYER-1
 62
  0
 10
0.343588
 20
3.624132
 30
0.000000
 11
0.405756
 21
3.756882
 31
0.000000
  0
LINE
  8
LAYER-1
 62
  0
 10
0.365396
 20
3.613920
 30
0.000000
 11
0.427563
 21
3.746669
 31
0.000000
  0
LINE
  8
LAYER-1
 62
  0
 10
0.494388
 20
4.059169
 30
0.000000
 11
0.556554
 21
4.191917
 31
0.000000
  0
LINE
  8
LAYER-1
 62
  0
 10
0.516196
 20
4.048957
 30
0.000000
 11
0.578361
 21
4.181705
 31
0.000000
  0
LINE
  8
LAYER-1
 62
  0
 10
0.491998
 20
3.624132
 30
0.000000
 11
0.554164
 21
3.756882
 31
0.000000
  0
LINE
  8
LAYER-1
 62
  0
 10
0.513805
 20
3.613920
 30
0.000000
 11
0.575971
 21
3.746669
 31
0.000000
  0
LINE
  8
LAYER-1
 62
  0
 10
0.642797
 20
4.059169
 30
0.000000
 11
0.704964
 21
4.191917
 31
0.000000
  0
LINE
  8
LAYER-1
 62
  0
 10
0.664605
 20
4.048957
 30
0.000000
 11
0.726771
 21
4.181705
 31
0.000000
  0
LINE
  8
LAYER-1
 62
  0
 10
0.640407
 20
3.624132
 30
0.000000
 11
0.702572
 21
3.756882
 31
0.000000
  0
LINE
  8
LAYER-1
 62
  0
 10
0.662214
 20
3.613920
 30
0.000000
 11
0.724380
 21
3.746669
 31
0.000000
  0
LINE
  8
LAYER-1
 62
  0
 10
0.791207
 20
4.059169
 30
0.000000
 11
0.853372
 21
4.191917
 31
0.000000
  0
LINE
  8
LAYER-1
 62
  0
 10
0.813014
 20
4.048957
 30
0.000000
 11
0.875180
 21
4.181705
 31
0.000000
  0
LINE
  8
LAYER-1
 62
  0
 10
0.788814
 20
3.624132
 30
0.000000
 11
0.850980
 21
3.756882
 31
0.000000
  0
LINE
  8
LAYER-1
 62
  0
 10
0.810622
 20
3.613920
 30
0.000000
 11
0.872787
 21
3.746669
 31
0.000000
  0
LINE
  8
LAYER-1
 62
  0
 10
0.939615
 20
4.059169
 30
0.000000
 11
1.001780
 21
4.191917
 31
0.000000
  0
LINE
  8
LAYER-1
 62
  0
 10
0.961422
 20
4.048957
 30
0.000000
 11
1.023587
 21
4.181705
 31
0.000000
  0
LINE
  8
LAYER-1
 62
  0
 10
0.937225
 20
3.624132
 30
0.000000
 11
0.999390
 21
3.756882
 31
0.000000
  0
LINE
  8
LAYER-1
 62
  0
 10
0.959032
 20
3.613920
 30
0.000000
 11
1.021198
 21
3.746669
 31
0.000000
  0
TEXT
  8
LAYER-1
 62
  0
 10
0.240411
 20
3.232003
 30
0.000000
 40
0.104167
  1
ROYAL
 72
  5
 11
0.795967
 21
3.232003
 31
0.000000
  0
TEXT
  8
LAYER-1
 62
  0
 10
0.795967
 20
3.232003
 30
0.000000
 40
0.104167
  1
 
 72
  5
 11
0.907078
 21
3.232003
 31
0.000000
  0
TEXT
  8
LAYER-1
 62
  0
 10
0.045967
 20
3.148670
 30
0.000000
 40
0.083333
  1
(Vidrio Temperado)
 72
  5
 11
1.045967
 21
3.148670
 31
0.000000
  0
POLYLINE
  8
LAYER-1
 66
  1
 70
  1
 62
  0
  0
VERTEX
  8
LAYER-1
 10
0.013889
 20
5.139373
 30
0.000000
  0
VERTEX
  8
LAYER-1
 10
0.031375
 20
5.139373
 30
0.000000
  0
VERTEX
  8
LAYER-1
 10
0.031375
 20
3.440536
 30
0.000000
  0
VERTEX
  8
LAYER-1
 10
0.013889
 20
3.440536
 30
0.000000
  0
SEQEND
  8
LAYER-1
  0
POLYLINE
  8
LAYER-1
 66
  1
 70
  1
 62
  0
  0
VERTEX
  8
LAYER-1
 10
1.036183
 20
5.139373
 30
0.000000
  0
VERTEX
  8
LAYER-1
 10
1.053577
 20
5.139373
 30
0.000000
  0
VERTEX
  8
LAYER-1
 10
1.053577
 20
3.440581
 30
0.000000
  0
VERTEX
  8
LAYER-1
 10
1.036183
 20
3.440581
 30
0.000000
  0
SEQEND
  8
LAYER-1
  0
POLYLINE
  8
LAYER-1
 66
  1
 70
  1
 62
  0
  0
VERTEX
  8
LAYER-1
 10
0.031297
 20
4.301448
 30
0.000000
  0
VERTEX
  8
LAYER-1
 10
0.145564
 20
4.301448
 30
0.000000
  0
VERTEX
  8
LAYER-1
 10
0.145564
 20
4.276666
 30
0.000000
  0
VERTEX
  8
LAYER-1
 10
0.031297
 20
4.276666
 30
0.000000
  0
SEQEND
  8
LAYER-1
  0
POLYLINE
  8
LAYER-1
 66
  1
 70
  1
 62
  0
  0
VERTEX
  8
LAYER-1
 10
0.179705
 20
4.301448
 30
0.000000
  0
VERTEX
  8
LAYER-1
 10
0.294769
 20
4.301448
 30
0.000000
  0
VERTEX
  8
LAYER-1
 10
0.294769
 20
4.276666
 30
0.000000
  0
VERTEX
  8
LAYER-1
 10
0.179705
 20
4.276666
 30
0.000000
  0
SEQEND
  8
LAYER-1
  0
POLYLINE
  8
LAYER-1
 66
  1
 70
  1
 62
  0
  0
VERTEX
  8
LAYER-1
 10
0.328115
 20
4.301448
 30
0.000000
  0
VERTEX
  8
LAYER-1
 10
0.442383
 20
4.301448
 30
0.000000
  0
VERTEX
  8
LAYER-1
 10
0.442383
 20
4.276666
 30
0.000000
  0
VERTEX
  8
LAYER-1
 10
0.328115
 20
4.276666
 30
0.000000
  0
SEQEND
  8
LAYER-1
  0
POLYLINE
  8
LAYER-1
 66
  1
 70
  1
 62
  0
  0
VERTEX
  8
LAYER-1
 10
0.476523
 20
4.301448
 30
0.000000
  0
VERTEX
  8
LAYER-1
 10
0.590791
 20
4.301448
 30
0.000000
  0
VERTEX
  8
LAYER-1
 10
0.590791
 20
4.276666
 30
0.000000
  0
VERTEX
  8
LAYER-1
 10
0.476523
 20
4.276666
 30
0.000000
  0
SEQEND
  8
LAYER-1
  0
POLYLINE
  8
LAYER-1
 66
  1
 70
  1
 62
  0
  0
VERTEX
  8
LAYER-1
 10
0.624934
 20
4.301448
 30
0.000000
  0
VERTEX
  8
LAYER-1
 10
0.739201
 20
4.301448
 30
0.000000
  0
VERTEX
  8
LAYER-1
 10
0.739201
 20
4.276666
 30
0.000000
  0
VERTEX
  8
LAYER-1
 10
0.624934
 20
4.276666
 30
0.000000
  0
SEQEND
  8
LAYER-1
  0
POLYLINE
  8
LAYER-1
 66
  1
 70
  1
 62
  0
  0
VERTEX
  8
LAYER-1
 10
0.773341
 20
4.301448
 30
0.000000
  0
VERTEX
  8
LAYER-1
 10
0.888406
 20
4.301448
 30
0.000000
  0
VERTEX
  8
LAYER-1
 10
0.888406
 20
4.276666
 30
0.000000
  0
VERTEX
  8
LAYER-1
 10
0.773341
 20
4.276666
 30
0.000000
  0
SEQEND
  8
LAYER-1
  0
POLYLINE
  8
LAYER-1
 66
  1
 70
  1
 62
  0
  0
VERTEX
  8
LAYER-1
 10
0.921750
 20
4.301448
 30
0.000000
  0
VERTEX
  8
LAYER-1
 10
1.036017
 20
4.301448
 30
0.000000
  0
VERTEX
  8
LAYER-1
 10
1.036017
 20
4.276666
 30
0.000000
  0
VERTEX
  8
LAYER-1
 10
0.921750
 20
4.276666
 30
0.000000
  0
SEQEND
  8
LAYER-1
  0
POLYLINE
  8
LAYER-1
 66
  1
 70
  0
 62
  7
 10
0.031375
 20
5.139373
 30
0.000000
  0
VERTEX
  8
LAYER-1
 10
0.031375
 20
5.139373
 30
0.000000
  0
VERTEX
  8
LAYER-1
 10
0.031375
 20
5.035719
 30
0.000000
  0
SEQEND
  8
LAYER-1
  0
POLYLINE
  8
LAYER-1
 66
  1
 70
  0
 62
  7
 10
0.145784
 20
5.139373
 30
0.000000
  0
VERTEX
  8
LAYER-1
 10
0.145784
 20
5.139373
 30
0.000000
  0
VERTEX
  8
LAYER-1
 10
0.145784
 20
5.035719
 30
0.000000
  0
SEQEND
  8
LAYER-1
  0
POLYLINE
  8
LAYER-1
 66
  1
 70
  0
 62
  7
 10
0.179704
 20
5.139373
 30
0.000000
  0
VERTEX
  8
LAYER-1
 10
0.179704
 20
5.139373
 30
0.000000
  0
VERTEX
  8
LAYER-1
 10
0.179704
 20
5.035719
 30
0.000000
  0
SEQEND
  8
LAYER-1
  0
POLYLINE
  8
LAYER-1
 66
  1
 70
  0
 62
  7
 10
0.294257
 20
5.139373
 30
0.000000
  0
VERTEX
  8
LAYER-1
 10
0.294257
 20
5.139373
 30
0.000000
  0
VERTEX
  8
LAYER-1
 10
0.294257
 20
5.035719
 30
0.000000
  0
SEQEND
  8
LAYER-1
  0
POLYLINE
  8
LAYER-1
 66
  1
 70
  0
 62
  7
 10
0.328176
 20
5.139373
 30
0.000000
  0
VERTEX
  8
LAYER-1
 10
0.328176
 20
5.139373
 30
0.000000
  0
VERTEX
  8
LAYER-1
 10
0.328176
 20
5.035719
 30
0.000000
  0
SEQEND
  8
LAYER-1
  0
POLYLINE
  8
LAYER-1
 66
  1
 70
  0
 62
  7
 10
0.442583
 20
5.139373
 30
0.000000
  0
VERTEX
  8
LAYER-1
 10
0.442583
 20
5.139373
 30
0.000000
  0
VERTEX
  8
LAYER-1
 10
0.442583
 20
5.035719
 30
0.000000
  0
SEQEND
  8
LAYER-1
  0
POLYLINE
  8
LAYER-1
 66
  1
 70
  0
 62
  7
 10
0.476503
 20
5.139373
 30
0.000000
  0
VERTEX
  8
LAYER-1
 10
0.476503
 20
5.139373
 30
0.000000
  0
VERTEX
  8
LAYER-1
 10
0.476503
 20
5.035719
 30
0.000000
  0
SEQEND
  8
LAYER-1
  0
POLYLINE
  8
LAYER-1
 66
  1
 70
  0
 62
  7
 10
0.590910
 20
5.139373
 30
0.000000
  0
VERTEX
  8
LAYER-1
 10
0.590910
 20
5.139373
 30
0.000000
  0
VERTEX
  8
LAYER-1
 10
0.590910
 20
5.035719
 30
0.000000
  0
SEQEND
  8
LAYER-1
  0
POLYLINE
  8
LAYER-1
 66
  1
 70
  0
 62
  7
 10
0.624975
 20
5.139373
 30
0.000000
  0
VERTEX
  8
LAYER-1
 10
0.624975
 20
5.139373
 30
0.000000
  0
VERTEX
  8
LAYER-1
 10
0.624975
 20
5.035719
 30
0.000000
  0
SEQEND
  8
LAYER-1
  0
POLYLINE
  8
LAYER-1
 66
  1
 70
  0
 62
  7
 10
0.739382
 20
5.139373
 30
0.000000
  0
VERTEX
  8
LAYER-1
 10
0.739382
 20
5.139373
 30
0.000000
  0
VERTEX
  8
LAYER-1
 10
0.739382
 20
5.035719
 30
0.000000
  0
SEQEND
  8
LAYER-1
  0
POLYLINE
  8
LAYER-1
 66
  1
 70
  0
 62
  7
 10
0.773447
 20
5.139373
 30
0.000000
  0
VERTEX
  8
LAYER-1
 10
0.773447
 20
5.139373
 30
0.000000
  0
VERTEX
  8
LAYER-1
 10
0.773447
 20
5.035719
 30
0.000000
  0
SEQEND
  8
LAYER-1
  0
POLYLINE
  8
LAYER-1
 66
  1
 70
  0
 62
  7
 10
0.887854
 20
5.139373
 30
0.000000
  0
VERTEX
  8
LAYER-1
 10
0.887854
 20
5.139373
 30
0.000000
  0
VERTEX
  8
LAYER-1
 10
0.887854
 20
5.035719
 30
0.000000
  0
SEQEND
  8
LAYER-1
  0
POLYLINE
  8
LAYER-1
 66
  1
 70
  0
 62
  7
 10
0.921047
 20
5.139373
 30
0.000000
  0
VERTEX
  8
LAYER-1
 10
0.921047
 20
5.139373
 30
0.000000
  0
VERTEX
  8
LAYER-1
 10
0.921047
 20
5.035719
 30
0.000000
  0
SEQEND
  8
LAYER-1
  0
POLYLINE
  8
LAYER-1
 66
  1
 70
  0
 62
  7
 10
1.036183
 20
5.139373
 30
0.000000
  0
VERTEX
  8
LAYER-1
 10
1.036183
 20
5.139373
 30
0.000000
  0
VERTEX
  8
LAYER-1
 10
1.036183
 20
5.035719
 30
0.000000
  0
SEQEND
  8
LAYER-1
  0
POLYLINE
  8
LAYER-1
 66
  1
 70
  0
 62
  7
 10
0.031297
 20
4.301448
 30
0.000000
  0
VERTEX
  8
LAYER-1
 10
0.031297
 20
4.301448
 30
0.000000
  0
VERTEX
  8
LAYER-1
 10
0.031297
 20
4.276666
 30
0.000000
  0
SEQEND
  8
LAYER-1
  0
POLYLINE
  8
LAYER-1
 66
  1
 70
  0
 62
  7
 10
0.145564
 20
4.301448
 30
0.000000
  0
VERTEX
  8
LAYER-1
 10
0.145564
 20
4.301448
 30
0.000000
  0
VERTEX
  8
LAYER-1
 10
0.145564
 20
4.276666
 30
0.000000
  0
SEQEND
  8
LAYER-1
  0
POLYLINE
  8
LAYER-1
 66
  1
 70
  0
 62
  7
 10
0.179705
 20
4.301448
 30
0.000000
  0
VERTEX
  8
LAYER-1
 10
0.179705
 20
4.301448
 30
0.000000
  0
VERTEX
  8
LAYER-1
 10
0.179705
 20
4.276666
 30
0.000000
  0
SEQEND
  8
LAYER-1
  0
POLYLINE
  8
LAYER-1
 66
  1
 70
  0
 62
  7
 10
0.294769
 20
4.301448
 30
0.000000
  0
VERTEX
  8
LAYER-1
 10
0.294769
 20
4.301448
 30
0.000000
  0
VERTEX
  8
LAYER-1
 10
0.294769
 20
4.276666
 30
0.000000
  0
SEQEND
  8
LAYER-1
  0
POLYLINE
  8
LAYER-1
 66
  1
 70
  0
 62
  7
 10
0.328115
 20
4.301448
 30
0.000000
  0
VERTEX
  8
LAYER-1
 10
0.328115
 20
4.301448
 30
0.000000
  0
VERTEX
  8
LAYER-1
 10
0.328115
 20
4.276666
 30
0.000000
  0
SEQEND
  8
LAYER-1
  0
POLYLINE
  8
LAYER-1
 66
  1
 70
  0
 62
  7
 10
0.442383
 20
4.301448
 30
0.000000
  0
VERTEX
  8
LAYER-1
 10
0.442383
 20
4.301448
 30
0.000000
  0
VERTEX
  8
LAYER-1
 10
0.442383
 20
4.276666
 30
0.000000
  0
SEQEND
  8
LAYER-1
  0
POLYLINE
  8
LAYER-1
 66
  1
 70
  0
 62
  7
 10
0.476523
 20
4.301448
 30
0.000000
  0
VERTEX
  8
LAYER-1
 10
0.476523
 20
4.301448
 30
0.000000
  0
VERTEX
  8
LAYER-1
 10
0.476523
 20
4.276666
 30
0.000000
  0
SEQEND
  8
LAYER-1
  0
POLYLINE
  8
LAYER-1
 66
  1
 70
  0
 62
  7
 10
0.590791
 20
4.301448
 30
0.000000
  0
VERTEX
  8
LAYER-1
 10
0.590791
 20
4.301448
 30
0.000000
  0
VERTEX
  8
LAYER-1
 10
0.590791
 20
4.276666
 30
0.000000
  0
SEQEND
  8
LAYER-1
  0
POLYLINE
  8
LAYER-1
 66
  1
 70
  0
 62
  7
 10
0.624934
 20
4.301448
 30
0.000000
  0
VERTEX
  8
LAYER-1
 10
0.624934
 20
4.301448
 30
0.000000
  0
VERTEX
  8
LAYER-1
 10
0.624934
 20
4.276666
 30
0.000000
  0
SEQEND
  8
LAYER-1
  0
POLYLINE
  8
LAYER-1
 66
  1
 70
  0
 62
  7
 10
0.739201
 20
4.301448
 30
0.000000
  0
VERTEX
  8
LAYER-1
 10
0.739201
 20
4.301448
 30
0.000000
  0
VERTEX
  8
LAYER-1
 10
0.739201
 20
4.276666
 30
0.000000
  0
SEQEND
  8
LAYER-1
  0
POLYLINE
  8
LAYER-1
 66
  1
 70
  0
 62
  7
 10
0.773341
 20
4.301448
 30
0.000000
  0
VERTEX
  8
LAYER-1
 10
0.773341
 20
4.301448
 30
0.000000
  0
VERTEX
  8
LAYER-1
 10
0.773341
 20
4.276666
 30
0.000000
  0
SEQEND
  8
LAYER-1
  0
POLYLINE
  8
LAYER-1
 66
  1
 70
  0
 62
  7
 10
0.888406
 20
4.301448
 30
0.000000
  0
VERTEX
  8
LAYER-1
 10
0.888406
 20
4.301448
 30
0.000000
  0
VERTEX
  8
LAYER-1
 10
0.888406
 20
4.276666
 30
0.000000
  0
SEQEND
  8
LAYER-1
  0
POLYLINE
  8
LAYER-1
 66
  1
 70
  0
 62
  7
 10
0.921750
 20
4.301448
 30
0.000000
  0
VERTEX
  8
LAYER-1
 10
0.921750
 20
4.301448
 30
0.000000
  0
VERTEX
  8
LAYER-1
 10
0.921750
 20
4.276666
 30
0.000000
  0
SEQEND
  8
LAYER-1
  0
POLYLINE
  8
LAYER-1
 66
  1
 70
  0
 62
  7
 10
1.036017
 20
4.301448
 30
0.000000
  0
VERTEX
  8
LAYER-1
 10
1.036017
 20
4.301448
 30
0.000000
  0
VERTEX
  8
LAYER-1
 10
1.036017
 20
4.276666
 30
0.000000
  0
SEQEND
  8
LAYER-1
  0
POLYLINE
  8
LAYER-1
 66
  1
 70
  0
 62
  7
 10
0.031375
 20
3.544190
 30
0.000000
  0
VERTEX
  8
LAYER-1
 10
0.031375
 20
3.544190
 30
0.000000
  0
VERTEX
  8
LAYER-1
 10
0.031375
 20
3.440536
 30
0.000000
  0
SEQEND
  8
LAYER-1
  0
POLYLINE
  8
LAYER-1
 66
  1
 70
  0
 62
  7
 10
0.145716
 20
3.544190
 30
0.000000
  0
VERTEX
  8
LAYER-1
 10
0.145716
 20
3.544190
 30
0.000000
  0
VERTEX
  8
LAYER-1
 10
0.145716
 20
3.440581
 30
0.000000
  0
SEQEND
  8
LAYER-1
  0
POLYLINE
  8
LAYER-1
 66
  1
 70
  0
 62
  7
 10
0.179704
 20
3.544190
 30
0.000000
  0
VERTEX
  8
LAYER-1
 10
0.179704
 20
3.544190
 30
0.000000
  0
VERTEX
  8
LAYER-1
 10
0.179704
 20
3.440536
 30
0.000000
  0
SEQEND
  8
LAYER-1
  0
POLYLINE
  8
LAYER-1
 66
  1
 70
  0
 62
  7
 10
0.294334
 20
3.544190
 30
0.000000
  0
VERTEX
  8
LAYER-1
 10
0.294334
 20
3.544190
 30
0.000000
  0
VERTEX
  8
LAYER-1
 10
0.294334
 20
3.440581
 30
0.000000
  0
SEQEND
  8
LAYER-1
  0
POLYLINE
  8
LAYER-1
 66
  1
 70
  0
 62
  7
 10
0.328176
 20
3.544190
 30
0.000000
  0
VERTEX
  8
LAYER-1
 10
0.328176
 20
3.544190
 30
0.000000
  0
VERTEX
  8
LAYER-1
 10
0.328176
 20
3.440859
 30
0.000000
  0
SEQEND
  8
LAYER-1
  0
POLYLINE
  8
LAYER-1
 66
  1
 70
  0
 62
  7
 10
0.442515
 20
3.544190
 30
0.000000
  0
VERTEX
  8
LAYER-1
 10
0.442515
 20
3.544190
 30
0.000000
  0
VERTEX
  8
LAYER-1
 10
0.442515
 20
3.440581
 30
0.000000
  0
SEQEND
  8
LAYER-1
  0
POLYLINE
  8
LAYER-1
 66
  1
 70
  0
 62
  7
 10
0.476503
 20
3.544190
 30
0.000000
  0
VERTEX
  8
LAYER-1
 10
0.476503
 20
3.544190
 30
0.000000
  0
VERTEX
  8
LAYER-1
 10
0.476503
 20
3.440536
 30
0.000000
  0
SEQEND
  8
LAYER-1
  0
POLYLINE
  8
LAYER-1
 66
  1
 70
  0
 62
  7
 10
0.590987
 20
3.544190
 30
0.000000
  0
VERTEX
  8
LAYER-1
 10
0.590987
 20
3.544190
 30
0.000000
  0
VERTEX
  8
LAYER-1
 10
0.590987
 20
3.440581
 30
0.000000
  0
SEQEND
  8
LAYER-1
  0
POLYLINE
  8
LAYER-1
 66
  1
 70
  0
 62
  7
 10
0.624975
 20
3.544190
 30
0.000000
  0
VERTEX
  8
LAYER-1
 10
0.624975
 20
3.544190
 30
0.000000
  0
VERTEX
  8
LAYER-1
 10
0.624975
 20
3.440536
 30
0.000000
  0
SEQEND
  8
LAYER-1
  0
POLYLINE
  8
LAYER-1
 66
  1
 70
  0
 62
  7
 10
0.739314
 20
3.544190
 30
0.000000
  0
VERTEX
  8
LAYER-1
 10
0.739314
 20
3.544190
 30
0.000000
  0
VERTEX
  8
LAYER-1
 10
0.739314
 20
3.440859
 30
0.000000
  0
SEQEND
  8
LAYER-1
  0
POLYLINE
  8
LAYER-1
 66
  1
 70
  0
 62
  7
 10
0.773447
 20
3.544190
 30
0.000000
  0
VERTEX
  8
LAYER-1
 10
0.773447
 20
3.544190
 30
0.000000
  0
VERTEX
  8
LAYER-1
 10
0.773447
 20
3.440536
 30
0.000000
  0
SEQEND
  8
LAYER-1
  0
POLYLINE
  8
LAYER-1
 66
  1
 70
  0
 62
  7
 10
0.887788
 20
3.544190
 30
0.000000
  0
VERTEX
  8
LAYER-1
 10
0.887788
 20
3.544190
 30
0.000000
  0
VERTEX
  8
LAYER-1
 10
0.887788
 20
3.440581
 30
0.000000
  0
SEQEND
  8
LAYER-1
  0
POLYLINE
  8
LAYER-1
 66
  1
 70
  0
 62
  7
 10
0.921774
 20
3.544190
 30
0.000000
  0
VERTEX
  8
LAYER-1
 10
0.921774
 20
3.544190
 30
0.000000
  0
VERTEX
  8
LAYER-1
 10
0.921774
 20
3.440536
 30
0.000000
  0
SEQEND
  8
LAYER-1
  0
POLYLINE
  8
LAYER-1
 66
  1
 70
  0
 62
  7
 10
1.036261
 20
3.544190
 30
0.000000
  0
VERTEX
  8
LAYER-1
 10
1.036261
 20
3.544190
 30
0.000000
  0
VERTEX
  8
LAYER-1
 10
1.036261
 20
3.440581
 30
0.000000
  0
SEQEND
  8
LAYER-1
  0
POLYLINE
  8
LAYER-1
 66
  1
 70
  0
 62
  7
 10
0.162300
 20
5.139373
 30
0.000000
  0
VERTEX
  8
LAYER-1
 10
0.162300
 20
5.139373
 30
0.000000
  0
VERTEX
  8
LAYER-1
 10
0.162300
 20
3.440536
 30
0.000000
  0
SEQEND
  8
LAYER-1
  0
POLYLINE
  8
LAYER-1
 66
  1
 70
  0
 62
  7
 10
0.310707
 20
5.139373
 30
0.000000
  0
VERTEX
  8
LAYER-1
 10
0.310707
 20
5.139373
 30
0.000000
  0
VERTEX
  8
LAYER-1
 10
0.310707
 20
3.440536
 30
0.000000
  0
SEQEND
  8
LAYER-1
  0
POLYLINE
  8
LAYER-1
 66
  1
 70
  0
 62
  7
 10
0.459116
 20
5.139373
 30
0.000000
  0
VERTEX
  8
LAYER-1
 10
0.459116
 20
5.139373
 30
0.000000
  0
VERTEX
  8
LAYER-1
 10
0.459116
 20
3.440536
 30
0.000000
  0
SEQEND
  8
LAYER-1
  0
POLYLINE
  8
LAYER-1
 66
  1
 70
  0
 62
  7
 10
0.607526
 20
5.139373
 30
0.000000
  0
VERTEX
  8
LAYER-1
 10
0.607526
 20
5.139373
 30
0.000000
  0
VERTEX
  8
LAYER-1
 10
0.607526
 20
3.440536
 30
0.000000
  0
SEQEND
  8
LAYER-1
  0
POLYLINE
  8
LAYER-1
 66
  1
 70
  0
 62
  7
 10
0.755934
 20
5.139373
 30
0.000000
  0
VERTEX
  8
LAYER-1
 10
0.755934
 20
5.139373
 30
0.000000
  0
VERTEX
  8
LAYER-1
 10
0.755934
 20
3.440536
 30
0.000000
  0
SEQEND
  8
LAYER-1
  0
POLYLINE
  8
LAYER-1
 66
  1
 70
  0
 62
  7
 10
0.904344
 20
5.139373
 30
0.000000
  0
VERTEX
  8
LAYER-1
 10
0.904344
 20
5.139373
 30
0.000000
  0
VERTEX
  8
LAYER-1
 10
0.904344
 20
3.440536
 30
0.000000
  0
SEQEND
  8
LAYER-1
  0
POLYLINE
  8
LAYER-1
 66
  1
 70
  0
 62
  0
 10
0.031375
 20
5.035719
 30
0.000000
  0
VERTEX
  8
LAYER-1
 10
0.031375
 20
5.035719
 30
0.000000
  0
VERTEX
  8
LAYER-1
 10
0.145784
 20
5.035719
 30
0.000000
  0
SEQEND
  8
LAYER-1
  0
POLYLINE
  8
LAYER-1
 66
  1
 70
  0
 62
  0
 10
0.179704
 20
5.035719
 30
0.000000
  0
VERTEX
  8
LAYER-1
 10
0.179704
 20
5.035719
 30
0.000000
  0
VERTEX
  8
LAYER-1
 10
0.294257
 20
5.035719
 30
0.000000
  0
SEQEND
  8
LAYER-1
  0
POLYLINE
  8
LAYER-1
 66
  1
 70
  0
 62
  0
 10
0.328176
 20
5.035719
 30
0.000000
  0
VERTEX
  8
LAYER-1
 10
0.328176
 20
5.035719
 30
0.000000
  0
VERTEX
  8
LAYER-1
 10
0.442583
 20
5.035719
 30
0.000000
  0
SEQEND
  8
LAYER-1
  0
POLYLINE
  8
LAYER-1
 66
  1
 70
  0
 62
  0
 10
0.476503
 20
5.035719
 30
0.000000
  0
VERTEX
  8
LAYER-1
 10
0.476503
 20
5.035719
 30
0.000000
  0
VERTEX
  8
LAYER-1
 10
0.590910
 20
5.035719
 30
0.000000
  0
SEQEND
  8
LAYER-1
  0
POLYLINE
  8
LAYER-1
 66
  1
 70
  0
 62
  0
 10
0.624975
 20
5.035719
 30
0.000000
  0
VERTEX
  8
LAYER-1
 10
0.624975
 20
5.035719
 30
0.000000
  0
VERTEX
  8
LAYER-1
 10
0.739382
 20
5.035719
 30
0.000000
  0
SEQEND
  8
LAYER-1
  0
POLYLINE
  8
LAYER-1
 66
  1
 70
  0
 62
  0
 10
0.773447
 20
5.035719
 30
0.000000
  0
VERTEX
  8
LAYER-1
 10
0.773447
 20
5.035719
 30
0.000000
  0
VERTEX
  8
LAYER-1
 10
0.887854
 20
5.035719
 30
0.000000
  0
SEQEND
  8
LAYER-1
  0
POLYLINE
  8
LAYER-1
 66
  1
 70
  0
 62
  0
 10
0.921047
 20
5.035719
 30
0.000000
  0
VERTEX
  8
LAYER-1
 10
0.921047
 20
5.035719
 30
0.000000
  0
VERTEX
  8
LAYER-1
 10
1.036183
 20
5.035719
 30
0.000000
  0
SEQEND
  8
LAYER-1
  0
POLYLINE
  8
LAYER-1
 66
  1
 70
  0
 62
  0
 10
0.031375
 20
3.544190
 30
0.000000
  0
VERTEX
  8
LAYER-1
 10
0.031375
 20
3.544190
 30
0.000000
  0
VERTEX
  8
LAYER-1
 10
0.145716
 20
3.544190
 30
0.000000
  0
SEQEND
  8
LAYER-1
  0
POLYLINE
  8
LAYER-1
 66
  1
 70
  0
 62
  0
 10
0.179704
 20
3.544190
 30
0.000000
  0
VERTEX
  8
LAYER-1
 10
0.179704
 20
3.544190
 30
0.000000
  0
VERTEX
  8
LAYER-1
 10
0.294334
 20
3.544190
 30
0.000000
  0
SEQEND
  8
LAYER-1
  0
POLYLINE
  8
LAYER-1
 66
  1
 70
  0
 62
  0
 10
0.328176
 20
3.544190
 30
0.000000
  0
VERTEX
  8
LAYER-1
 10
0.328176
 20
3.544190
 30
0.000000
  0
VERTEX
  8
LAYER-1
 10
0.442515
 20
3.544190
 30
0.000000
  0
SEQEND
  8
LAYER-1
  0
POLYLINE
  8
LAYER-1
 66
  1
 70
  0
 62
  0
 10
0.476503
 20
3.544190
 30
0.000000
  0
VERTEX
  8
LAYER-1
 10
0.476503
 20
3.544190
 30
0.000000
  0
VERTEX
  8
LAYER-1
 10
0.590987
 20
3.544190
 30
0.000000
  0
SEQEND
  8
LAYER-1
  0
POLYLINE
  8
LAYER-1
 66
  1
 70
  0
 62
  0
 10
0.624975
 20
3.544190
 30
0.000000
  0
VERTEX
  8
LAYER-1
 10
0.624975
 20
3.544190
 30
0.000000
  0
VERTEX
  8
LAYER-1
 10
0.739314
 20
3.544190
 30
0.000000
  0
SEQEND
  8
LAYER-1
  0
POLYLINE
  8
LAYER-1
 66
  1
 70
  0
 62
  0
 10
0.773447
 20
3.544190
 30
0.000000
  0
VERTEX
  8
LAYER-1
 10
0.773447
 20
3.544190
 30
0.000000
  0
VERTEX
  8
LAYER-1
 10
0.887788
 20
3.544190
 30
0.000000
  0
SEQEND
  8
LAYER-1
  0
POLYLINE
  8
LAYER-1
 66
  1
 70
  0
 62
  0
 10
0.921774
 20
3.544190
 30
0.000000
  0
VERTEX
  8
LAYER-1
 10
0.921774
 20
3.544190
 30
0.000000
  0
VERTEX
  8
LAYER-1
 10
1.036261
 20
3.544190
 30
0.000000
  0
SEQEND
  8
LAYER-1
  0
POLYLINE
  8
LAYER-1
 66
  1
 70
  0
 62
  0
 10
0.013889
 20
3.440536
 30
0.000000
  0
VERTEX
  8
LAYER-1
 10
0.013889
 20
3.440536
 30
0.000000
  0
VERTEX
  8
LAYER-1
 10
1.053577
 20
3.440581
 30
0.000000
  0
SEQEND
  8
LAYER-1
  0
POLYLINE
  8
LAYER-1
 66
  1
 70
  0
 62
  0
 10
0.013889
 20
5.139373
 30
0.000000
  0
VERTEX
  8
LAYER-1
 10
0.013889
 20
5.139373
 30
0.000000
  0
VERTEX
  8
LAYER-1
 10
1.053577
 20
5.139373
 30
0.000000
  0
SEQEND
  8
LAYER-1
  0
POLYLINE
  8
LAYER-1
 66
  1
 70
  0
 62
  7
 10
0.230864
 20
5.137451
 30
0.000000
  0
VERTEX
  8
LAYER-1
 10
0.230864
 20
5.137451
 30
0.000000
  0
VERTEX
  8
LAYER-1
 10
0.230864
 20
5.034145
 30
0.000000
  0
SEQEND
  8
LAYER-1
  0
POLYLINE
  8
LAYER-1
 66
  1
 70
  0
 62
  7
 10
0.242783
 20
5.137451
 30
0.000000
  0
VERTEX
  8
LAYER-1
 10
0.242783
 20
5.137451
 30
0.000000
  0
VERTEX
  8
LAYER-1
 10
0.242783
 20
5.034145
 30
0.000000
  0
SEQEND
  8
LAYER-1
  0
POLYLINE
  8
LAYER-1
 66
  1
 70
  0
 62
  7
 10
0.528859
 20
5.139040
 30
0.000000
  0
VERTEX
  8
LAYER-1
 10
0.528859
 20
5.139040
 30
0.000000
  0
VERTEX
  8
LAYER-1
 10
0.528859
 20
5.035734
 30
0.000000
  0
SEQEND
  8
LAYER-1
  0
POLYLINE
  8
LAYER-1
 66
  1
 70
  0
 62
  7
 10
0.540778
 20
5.139040
 30
0.000000
  0
VERTEX
  8
LAYER-1
 10
0.540778
 20
5.139040
 30
0.000000
  0
VERTEX
  8
LAYER-1
 10
0.540778
 20
5.035734
 30
0.000000
  0
SEQEND
  8
LAYER-1
  0
POLYLINE
  8
LAYER-1
 66
  1
 70
  0
 62
  7
 10
0.826061
 20
5.136657
 30
0.000000
  0
VERTEX
  8
LAYER-1
 10
0.826061
 20
5.136657
 30
0.000000
  0
VERTEX
  8
LAYER-1
 10
0.826061
 20
5.033351
 30
0.000000
  0
SEQEND
  8
LAYER-1
  0
POLYLINE
  8
LAYER-1
 66
  1
 70
  0
 62
  7
 10
0.837980
 20
5.136657
 30
0.000000
  0
VERTEX
  8
LAYER-1
 10
0.837980
 20
5.136657
 30
0.000000
  0
VERTEX
  8
LAYER-1
 10
0.837980
 20
5.033351
 30
0.000000
  0
SEQEND
  8
LAYER-1
  0
POLYLINE
  8
LAYER-1
 66
  1
 70
  1
 62
  0
  0
VERTEX
  8
LAYER-1
 10
3.714956
 20
0.349943
 30
0.000000
  0
VERTEX
  8
LAYER-1
 10
3.748514
 20
0.349943
 30
0.000000
  0
VERTEX
  8
LAYER-1
 10
3.748514
 20
0.254439
 30
0.000000
  0
VERTEX
  8
LAYER-1
 10
3.714956
 20
0.254439
 30
0.000000
  0
SEQEND
  8
LAYER-1
  0
POLYLINE
  8
LAYER-1
 66
  1
 70
  0
 62
  0
 10
3.734997
 20
2.460899
 30
0.000000
  0
VERTEX
  8
LAYER-1
 10
3.734997
 20
2.460899
 30
0.000000
  0
VERTEX
  8
LAYER-1
 10
3.734998
 20
2.460899
 30
0.000000
  0
SEQEND
  8
LAYER-1
  0
POLYLINE
  8
LAYER-1
 66
  1
 70
  0
 62
  0
 10
3.742963
 20
2.452935
 30
0.000000
  0
VERTEX
  8
LAYER-1
 10
3.742963
 20
2.452935
 30
0.000000
  0
VERTEX
  8
LAYER-1
 10
3.742963
 20
2.203392
 30
0.000000
  0
SEQEND
  8
LAYER-1
  0
POLYLINE
  8
LAYER-1
 66
  1
 70
  0
 62
  0
 10
3.734998
 20
2.195428
 30
0.000000
  0
VERTEX
  8
LAYER-1
 10
3.734998
 20
2.195428
 30
0.000000
  0
VERTEX
  8
LAYER-1
 10
3.734997
 20
2.195428
 30
0.000000
  0
SEQEND
  8
LAYER-1
  0
POLYLINE
  8
LAYER-1
 66
  1
 70
  0
 62
  0
 10
3.727033
 20
2.203392
 30
0.000000
  0
VERTEX
  8
LAYER-1
 10
3.727033
 20
2.203392
 30
0.000000
  0
VERTEX
  8
LAYER-1
 10
3.727033
 20
2.452935
 30
0.000000
  0
SEQEND
  8
LAYER-1
  0
ARC
  8
LAYER-1
 62
  0
 10
3.734997
 20
2.452935
 30
0.000000
 40
0.007964
 50
270.000000
 51
0.000000
  0
ARC
  8
LAYER-1
 62
  0
 10
3.734997
 20
2.203392
 30
0.000000
 40
0.007964
 50
0.000000
 51
90.000000
  0
ARC
  8
LAYER-1
 62
  0
 10
3.734998
 20
2.203392
 30
0.000000
 40
0.007964
 50
90.000000
 51
180.000000
  0
ARC
  8
LAYER-1
 62
  0
 10
3.734998
 20
2.452935
 30
0.000000
 40
0.007964
 50
180.000000
 51
270.000000
  0
CIRCLE
  8
LAYER-1
 62
  0
 10
3.735330
 20
2.198080
 30
0.000000
 40
0.022565
  0
CIRCLE
  8
LAYER-1
 62
  0
 10
3.735330
 20
2.198080
 30
0.000000
 40
0.016522
  0
CIRCLE
  8
LAYER-1
 62
  0
 10
3.735330
 20
2.198080
 30
0.000000
 40
0.013746
  0
CIRCLE
  8
LAYER-1
 62
  0
 10
3.735330
 20
2.198080
 30
0.000000
 40
0.008860
  0
POLYLINE
  8
LAYER-1
 66
  1
 70
  0
 62
  0
 10
3.685053
 20
0.246778
 30
0.000000
  0
VERTEX
  8
LAYER-1
 10
3.685053
 20
0.246778
 30
0.000000
  0
VERTEX
  8
LAYER-1
 10
3.697831
 20
0.254343
 30
0.000000
  0
SEQEND
  8
LAYER-1
  0
POLYLINE
  8
LAYER-1
 66
  1
 70
  0
 62
  0
 10
3.685053
 20
0.246778
 30
0.000000
  0
VERTEX
  8
LAYER-1
 10
3.685053
 20
0.246778
 30
0.000000
  0
VERTEX
  8
LAYER-1
 10
3.685053
 20
0.245213
 30
0.000000
  0
SEQEND
  8
LAYER-1
  0
POLYLINE
  8
LAYER-1
 66
  1
 70
  1
 62
  0
  0
VERTEX
  8
LAYER-1
 10
3.703496
 20
0.245199
 30
0.000000
  0
VERTEX
  8
LAYER-1
 10
3.760083
 20
0.245199
 30
0.000000
  0
VERTEX
  8
LAYER-1
 10
3.760083
 20
0.057537
 30
0.000000
  0
VERTEX
  8
LAYER-1
 10
3.703496
 20
0.057537
 30
0.000000
  0
SEQEND
  8
LAYER-1
  0
POLYLINE
  8
LAYER-1
  6
LTYPE01
 66
  1
 70
  1
 62
  0
  0
VERTEX
  8
LAYER-1
  6
LTYPE01
 10
3.708190
 20
0.254325
 30
0.000000
  0
VERTEX
  8
LAYER-1
  6
LTYPE01
 10
3.755130
 20
0.254325
 30
0.000000
  0
VERTEX
  8
LAYER-1
  6
LTYPE01
 10
3.755130
 20
0.067096
 30
0.000000
  0
VERTEX
  8
LAYER-1
  6
LTYPE01
 10
3.708190
 20
0.067096
 30
0.000000
  0
SEQEND
  8
LAYER-1
  0
POLYLINE
  8
LAYER-1
 66
  1
 70
  0
 62
  0
 10
3.685053
 20
0.245213
 30
0.000000
  0
VERTEX
  8
LAYER-1
 10
3.685053
 20
0.245213
 30
0.000000
  0
VERTEX
  8
LAYER-1
 10
3.778670
 20
0.245213
 30
0.000000
  0
SEQEND
  8
LAYER-1
  0
POLYLINE
  8
LAYER-1
 66
  1
 70
  0
 62
  0
 10
3.778670
 20
0.245213
 30
0.000000
  0
VERTEX
  8
LAYER-1
 10
3.778670
 20
0.245213
 30
0.000000
  0
VERTEX
  8
LAYER-1
 10
3.778670
 20
0.246778
 30
0.000000
  0
SEQEND
  8
LAYER-1
  0
POLYLINE
  8
LAYER-1
 66
  1
 70
  0
 62
  0
 10
3.778670
 20
0.246778
 30
0.000000
  0
VERTEX
  8
LAYER-1
 10
3.778670
 20
0.246778
 30
0.000000
  0
VERTEX
  8
LAYER-1
 10
3.765631
 20
0.254343
 30
0.000000
  0
SEQEND
  8
LAYER-1
  0
POLYLINE
  8
LAYER-1
  6
LTYPE02
 66
  1
 70
  0
 62
  0
  6
LTYPE02
 10
3.709435
 20
0.153554
 30
0.000000
  0
VERTEX
  8
LAYER-1
  6
LTYPE02
 10
3.709435
 20
0.153554
 30
0.000000
  0
VERTEX
  8
LAYER-1
  6
LTYPE02
 10
3.709435
 20
0.119656
 30
0.000000
  0
SEQEND
  8
LAYER-1
  0
POLYLINE
  8
LAYER-1
  6
LTYPE02
 66
  1
 70
  0
 62
  0
  6
LTYPE02
 10
3.713343
 20
0.153554
 30
0.000000
  0
VERTEX
  8
LAYER-1
  6
LTYPE02
 10
3.713343
 20
0.153554
 30
0.000000
  0
VERTEX
  8
LAYER-1
  6
LTYPE02
 10
3.709435
 20
0.153554
 30
0.000000
  0
SEQEND
  8
LAYER-1
  0
POLYLINE
  8
LAYER-1
  6
LTYPE02
 66
  1
 70
  0
 62
  0
  6
LTYPE02
 10
3.713343
 20
0.153554
 30
0.000000
  0
VERTEX
  8
LAYER-1
  6
LTYPE02
 10
3.713343
 20
0.153554
 30
0.000000
  0
VERTEX
  8
LAYER-1
  6
LTYPE02
 10
3.713343
 20
0.157988
 30
0.000000
  0
SEQEND
  8
LAYER-1
  0
POLYLINE
  8
LAYER-1
  6
LTYPE02
 66
  1
 70
  0
 62
  0
  6
LTYPE02
 10
3.713343
 20
0.157988
 30
0.000000
  0
VERTEX
  8
LAYER-1
  6
LTYPE02
 10
3.713343
 20
0.157988
 30
0.000000
  0
VERTEX
  8
LAYER-1
  6
LTYPE02
 10
3.750603
 20
0.157988
 30
0.000000
  0
SEQEND
  8
LAYER-1
  0
POLYLINE
  8
LAYER-1
  6
LTYPE02
 66
  1
 70
  0
 62
  0
  6
LTYPE02
 10
3.709435
 20
0.119656
 30
0.000000
  0
VERTEX
  8
LAYER-1
  6
LTYPE02
 10
3.709435
 20
0.119656
 30
0.000000
  0
VERTEX
  8
LAYER-1
  6
LTYPE02
 10
3.753767
 20
0.119656
 30
0.000000
  0
SEQEND
  8
LAYER-1
  0
POLYLINE
  8
LAYER-1
  6
LTYPE02
 66
  1
 70
  0
 62
  0
  6
LTYPE02
 10
3.753767
 20
0.119656
 30
0.000000
  0
VERTEX
  8
LAYER-1
  6
LTYPE02
 10
3.753767
 20
0.119656
 30
0.000000
  0
VERTEX
  8
LAYER-1
  6
LTYPE02
 10
3.753767
 20
0.153554
 30
0.000000
  0
SEQEND
  8
LAYER-1
  0
POLYLINE
  8
LAYER-1
  6
LTYPE02
 66
  1
 70
  0
 62
  0
  6
LTYPE02
 10
3.750603
 20
0.153554
 30
0.000000
  0
VERTEX
  8
LAYER-1
  6
LTYPE02
 10
3.750603
 20
0.153554
 30
0.000000
  0
VERTEX
  8
LAYER-1
  6
LTYPE02
 10
3.753767
 20
0.153554
 30
0.000000
  0
SEQEND
  8
LAYER-1
  0
POLYLINE
  8
LAYER-1
  6
LTYPE02
 66
  1
 70
  0
 62
  0
  6
LTYPE02
 10
3.750603
 20
0.157988
 30
0.000000
  0
VERTEX
  8
LAYER-1
  6
LTYPE02
 10
3.750603
 20
0.157988
 30
0.000000
  0
VERTEX
  8
LAYER-1
  6
LTYPE02
 10
3.750603
 20
0.153554
 30
0.000000
  0
SEQEND
  8
LAYER-1
  0
POLYLINE
  8
LAYER-1
  6
LTYPE01
 66
  1
 70
  1
 62
  0
  0
VERTEX
  8
LAYER-1
  6
LTYPE01
 10
3.714572
 20
0.119509
 30
0.000000
  0
VERTEX
  8
LAYER-1
  6
LTYPE01
 10
3.748994
 20
0.119509
 30
0.000000
  0
VERTEX
  8
LAYER-1
  6
LTYPE01
 10
3.748994
 20
0.067356
 30
0.000000
  0
VERTEX
  8
LAYER-1
  6
LTYPE01
 10
3.714572
 20
0.067356
 30
0.000000
  0
SEQEND
  8
LAYER-1
  0
POLYLINE
  8
LAYER-1
  6
LTYPE02
 66
  1
 70
  0
 62
  0
  6
LTYPE02
 10
3.748994
 20
0.119509
 30
0.000000
  0
VERTEX
  8
LAYER-1
  6
LTYPE02
 10
3.748994
 20
0.119509
 30
0.000000
  0
VERTEX
  8
LAYER-1
  6
LTYPE02
 10
3.714572
 20
0.116642
 30
0.000000
  0
SEQEND
  8
LAYER-1
  0
POLYLINE
  8
LAYER-1
  6
LTYPE02
 66
  1
 70
  0
 62
  0
  6
LTYPE02
 10
3.748994
 20
0.117945
 30
0.000000
  0
VERTEX
  8
LAYER-1
  6
LTYPE02
 10
3.748994
 20
0.117945
 30
0.000000
  0
VERTEX
  8
LAYER-1
  6
LTYPE02
 10
3.714572
 20
0.114817
 30
0.000000
  0
SEQEND
  8
LAYER-1
  0
POLYLINE
  8
LAYER-1
  6
LTYPE02
 66
  1
 70
  0
 62
  0
  6
LTYPE02
 10
3.748994
 20
0.114555
 30
0.000000
  0
VERTEX
  8
LAYER-1
  6
LTYPE02
 10
3.748994
 20
0.114555
 30
0.000000
  0
VERTEX
  8
LAYER-1
  6
LTYPE02
 10
3.714572
 20
0.111686
 30
0.000000
  0
SEQEND
  8
LAYER-1
  0
POLYLINE
  8
LAYER-1
  6
LTYPE02
 66
  1
 70
  0
 62
  0
  6
LTYPE02
 10
3.748994
 20
0.112990
 30
0.000000
  0
VERTEX
  8
LAYER-1
  6
LTYPE02
 10
3.748994
 20
0.112990
 30
0.000000
  0
VERTEX
  8
LAYER-1
  6
LTYPE02
 10
3.714572
 20
0.109861
 30
0.000000
  0
SEQEND
  8
LAYER-1
  0
POLYLINE
  8
LAYER-1
  6
LTYPE02
 66
  1
 70
  0
 62
  0
  6
LTYPE02
 10
3.748994
 20
0.109407
 30
0.000000
  0
VERTEX
  8
LAYER-1
  6
LTYPE02
 10
3.748994
 20
0.109407
 30
0.000000
  0
VERTEX
  8
LAYER-1
  6
LTYPE02
 10
3.714572
 20
0.106538
 30
0.000000
  0
SEQEND
  8
LAYER-1
  0
POLYLINE
  8
LAYER-1
  6
LTYPE02
 66
  1
 70
  0
 62
  0
  6
LTYPE02
 10
3.748994
 20
0.107842
 30
0.000000
  0
VERTEX
  8
LAYER-1
  6
LTYPE02
 10
3.748994
 20
0.107842
 30
0.000000
  0
VERTEX
  8
LAYER-1
  6
LTYPE02
 10
3.714572
 20
0.104713
 30
0.000000
  0
SEQEND
  8
LAYER-1
  0
POLYLINE
  8
LAYER-1
  6
LTYPE02
 66
  1
 70
  0
 62
  0
  6
LTYPE02
 10
3.748930
 20
0.104908
 30
0.000000
  0
VERTEX
  8
LAYER-1
  6
LTYPE02
 10
3.748930
 20
0.104908
 30
0.000000
  0
VERTEX
  8
LAYER-1
  6
LTYPE02
 10
3.714507
 20
0.102039
 30
0.000000
  0
SEQEND
  8
LAYER-1
  0
POLYLINE
  8
LAYER-1
  6
LTYPE02
 66
  1
 70
  0
 62
  0
  6
LTYPE02
 10
3.748930
 20
0.103344
 30
0.000000
  0
VERTEX
  8
LAYER-1
  6
LTYPE02
 10
3.748930
 20
0.103344
 30
0.000000
  0
VERTEX
  8
LAYER-1
  6
LTYPE02
 10
3.714507
 20
0.100215
 30
0.000000
  0
SEQEND
  8
LAYER-1
  0
POLYLINE
  8
LAYER-1
  6
LTYPE02
 66
  1
 70
  0
 62
  0
  6
LTYPE02
 10
3.748930
 20
0.100084
 30
0.000000
  0
VERTEX
  8
LAYER-1
  6
LTYPE02
 10
3.748930
 20
0.100084
 30
0.000000
  0
VERTEX
  8
LAYER-1
  6
LTYPE02
 10
3.714507
 20
0.097215
 30
0.000000
  0
SEQEND
  8
LAYER-1
  0
POLYLINE
  8
LAYER-1
  6
LTYPE02
 66
  1
 70
  0
 62
  0
  6
LTYPE02
 10
3.748930
 20
0.098519
 30
0.000000
  0
VERTEX
  8
LAYER-1
  6
LTYPE02
 10
3.748930
 20
0.098519
 30
0.000000
  0
VERTEX
  8
LAYER-1
  6
LTYPE02
 10
3.714507
 20
0.095389
 30
0.000000
  0
SEQEND
  8
LAYER-1
  0
POLYLINE
  8
LAYER-1
  6
LTYPE02
 66
  1
 70
  0
 62
  0
  6
LTYPE02
 10
3.748930
 20
0.095128
 30
0.000000
  0
VERTEX
  8
LAYER-1
  6
LTYPE02
 10
3.748930
 20
0.095128
 30
0.000000
  0
VERTEX
  8
LAYER-1
  6
LTYPE02
 10
3.714507
 20
0.092260
 30
0.000000
  0
SEQEND
  8
LAYER-1
  0
POLYLINE
  8
LAYER-1
  6
LTYPE02
 66
  1
 70
  0
 62
  0
  6
LTYPE02
 10
3.748930
 20
0.093565
 30
0.000000
  0
VERTEX
  8
LAYER-1
  6
LTYPE02
 10
3.748930
 20
0.093565
 30
0.000000
  0
VERTEX
  8
LAYER-1
  6
LTYPE02
 10
3.714507
 20
0.090434
 30
0.000000
  0
SEQEND
  8
LAYER-1
  0
POLYLINE
  8
LAYER-1
  6
LTYPE02
 66
  1
 70
  0
 62
  0
  6
LTYPE02
 10
3.748930
 20
0.089979
 30
0.000000
  0
VERTEX
  8
LAYER-1
  6
LTYPE02
 10
3.748930
 20
0.089979
 30
0.000000
  0
VERTEX
  8
LAYER-1
  6
LTYPE02
 10
3.714507
 20
0.087110
 30
0.000000
  0
SEQEND
  8
LAYER-1
  0
POLYLINE
  8
LAYER-1
  6
LTYPE02
 66
  1
 70
  0
 62
  0
  6
LTYPE02
 10
3.748930
 20
0.088414
 30
0.000000
  0
VERTEX
  8
LAYER-1
  6
LTYPE02
 10
3.748930
 20
0.088414
 30
0.000000
  0
VERTEX
  8
LAYER-1
  6
LTYPE02
 10
3.714507
 20
0.085286
 30
0.000000
  0
SEQEND
  8
LAYER-1
  0
POLYLINE
  8
LAYER-1
  6
LTYPE02
 66
  1
 70
  0
 62
  0
  6
LTYPE02
 10
3.748864
 20
0.085480
 30
0.000000
  0
VERTEX
  8
LAYER-1
  6
LTYPE02
 10
3.748864
 20
0.085480
 30
0.000000
  0
VERTEX
  8
LAYER-1
  6
LTYPE02
 10
3.714443
 20
0.082612
 30
0.000000
  0
SEQEND
  8
LAYER-1
  0
POLYLINE
  8
LAYER-1
  6
LTYPE02
 66
  1
 70
  0
 62
  0
  6
LTYPE02
 10
3.748864
 20
0.083917
 30
0.000000
  0
VERTEX
  8
LAYER-1
  6
LTYPE02
 10
3.748864
 20
0.083917
 30
0.000000
  0
VERTEX
  8
LAYER-1
  6
LTYPE02
 10
3.714443
 20
0.080788
 30
0.000000
  0
SEQEND
  8
LAYER-1
  0
POLYLINE
  8
LAYER-1
  6
LTYPE02
 66
  1
 70
  0
 62
  0
  6
LTYPE02
 10
3.748994
 20
0.081112
 30
0.000000
  0
VERTEX
  8
LAYER-1
  6
LTYPE02
 10
3.748994
 20
0.081112
 30
0.000000
  0
VERTEX
  8
LAYER-1
  6
LTYPE02
 10
3.714572
 20
0.078244
 30
0.000000
  0
SEQEND
  8
LAYER-1
  0
POLYLINE
  8
LAYER-1
  6
LTYPE02
 66
  1
 70
  0
 62
  0
  6
LTYPE02
 10
3.748994
 20
0.079547
 30
0.000000
  0
VERTEX
  8
LAYER-1
  6
LTYPE02
 10
3.748994
 20
0.079547
 30
0.000000
  0
VERTEX
  8
LAYER-1
  6
LTYPE02
 10
3.714572
 20
0.076419
 30
0.000000
  0
SEQEND
  8
LAYER-1
  0
POLYLINE
  8
LAYER-1
  6
LTYPE02
 66
  1
 70
  0
 62
  0
  6
LTYPE02
 10
3.748994
 20
0.076158
 30
0.000000
  0
VERTEX
  8
LAYER-1
  6
LTYPE02
 10
3.748994
 20
0.076158
 30
0.000000
  0
VERTEX
  8
LAYER-1
  6
LTYPE02
 10
3.714572
 20
0.073290
 30
0.000000
  0
SEQEND
  8
LAYER-1
  0
POLYLINE
  8
LAYER-1
  6
LTYPE02
 66
  1
 70
  0
 62
  0
  6
LTYPE02
 10
3.748994
 20
0.074593
 30
0.000000
  0
VERTEX
  8
LAYER-1
  6
LTYPE02
 10
3.748994
 20
0.074593
 30
0.000000
  0
VERTEX
  8
LAYER-1
  6
LTYPE02
 10
3.714572
 20
0.071464
 30
0.000000
  0
SEQEND
  8
LAYER-1
  0
POLYLINE
  8
LAYER-1
  6
LTYPE02
 66
  1
 70
  0
 62
  0
  6
LTYPE02
 10
3.748994
 20
0.071008
 30
0.000000
  0
VERTEX
  8
LAYER-1
  6
LTYPE02
 10
3.748994
 20
0.071008
 30
0.000000
  0
VERTEX
  8
LAYER-1
  6
LTYPE02
 10
3.714572
 20
0.068138
 30
0.000000
  0
SEQEND
  8
LAYER-1
  0
POLYLINE
  8
LAYER-1
  6
LTYPE02
 66
  1
 70
  0
 62
  0
  6
LTYPE02
 10
3.748994
 20
0.069444
 30
0.000000
  0
VERTEX
  8
LAYER-1
  6
LTYPE02
 10
3.748994
 20
0.069444
 30
0.000000
  0
VERTEX
  8
LAYER-1
  6
LTYPE02
 10
3.725981
 20
0.067356
 30
0.000000
  0
SEQEND
  8
LAYER-1
  0
POLYLINE
  8
LAYER-1
  6
LTYPE02
 66
  1
 70
  0
 62
  0
  6
LTYPE02
 10
3.715564
 20
0.178720
 30
0.000000
  0
VERTEX
  8
LAYER-1
  6
LTYPE02
 10
3.715564
 20
0.178720
 30
0.000000
  0
VERTEX
  8
LAYER-1
  6
LTYPE02
 10
3.715564
 20
0.254343
 30
0.000000
  0
SEQEND
  8
LAYER-1
  0
POLYLINE
  8
LAYER-1
  6
LTYPE02
 66
  1
 70
  0
 62
  0
  6
LTYPE02
 10
3.747898
 20
0.178720
 30
0.000000
  0
VERTEX
  8
LAYER-1
  6
LTYPE02
 10
3.747898
 20
0.178720
 30
0.000000
  0
VERTEX
  8
LAYER-1
  6
LTYPE02
 10
3.747898
 20
0.254343
 30
0.000000
  0
SEQEND
  8
LAYER-1
  0
POLYLINE
  8
LAYER-1
  6
LTYPE01
 66
  1
 70
  0
 62
  0
  6
LTYPE01
 10
3.715563
 20
0.178720
 30
0.000000
  0
VERTEX
  8
LAYER-1
  6
LTYPE01
 10
3.715563
 20
0.178720
 30
0.000000
  0
VERTEX
  8
LAYER-1
  6
LTYPE01
 10
3.718330
 20
0.169256
 30
0.000000
  0
VERTEX
  8
LAYER-1
  6
LTYPE01
 10
3.729763
 20
0.164522
 30
0.000000
  0
VERTEX
  8
LAYER-1
  6
LTYPE01
 10
3.741195
 20
0.169256
 30
0.000000
  0
VERTEX
  8
LAYER-1
  6
LTYPE01
 10
3.747899
 20
0.178720
 30
0.000000
  0
SEQEND
  8
LAYER-1
  0
POLYLINE
  8
LAYER-1
 66
  1
 70
  0
 62
  0
 10
3.697831
 20
0.254343
 30
0.000000
  0
VERTEX
  8
LAYER-1
 10
3.697831
 20
0.254343
 30
0.000000
  0
VERTEX
  8
LAYER-1
 10
3.765631
 20
0.254343
 30
0.000000
  0
SEQEND
  8
LAYER-1
  0
POLYLINE
  8
LAYER-1
 66
  1
 70
  1
 62
  0
  0
VERTEX
  8
LAYER-1
 10
2.804647
 20
7.483305
 30
0.000000
  0
VERTEX
  8
LAYER-1
 10
2.829743
 20
7.483305
 30
0.000000
  0
VERTEX
  8
LAYER-1
 10
2.829743
 20
7.416987
 30
0.000000
  0
VERTEX
  8
LAYER-1
 10
2.804647
 20
7.416987
 30
0.000000
  0
SEQEND
  8
LAYER-1
  0
POLYLINE
  8
LAYER-1
 66
  1
 70
  1
 62
  0
  0
VERTEX
  8
LAYER-1
 10
1.983467
 20
7.483305
 30
0.000000
  0
VERTEX
  8
LAYER-1
 10
2.008562
 20
7.483305
 30
0.000000
  0
VERTEX
  8
LAYER-1
 10
2.008562
 20
7.416987
 30
0.000000
  0
VERTEX
  8
LAYER-1
 10
1.983467
 20
7.416987
 30
0.000000
  0
SEQEND
  8
LAYER-1
  0
POLYLINE
  8
LAYER-1
 66
  1
 70
  1
 62
  0
  0
VERTEX
  8
LAYER-1
 10
4.706557
 20
7.483305
 30
0.000000
  0
VERTEX
  8
LAYER-1
 10
4.731652
 20
7.483305
 30
0.000000
  0
VERTEX
  8
LAYER-1
 10
4.731652
 20
7.416987
 30
0.000000
  0
VERTEX
  8
LAYER-1
 10
4.706557
 20
7.416987
 30
0.000000
  0
SEQEND
  8
LAYER-1
  0
POLYLINE
  8
LAYER-1
 66
  1
 70
  1
 62
  0
  0
VERTEX
  8
LAYER-1
 10
5.527738
 20
7.483305
 30
0.000000
  0
VERTEX
  8
LAYER-1
 10
5.552833
 20
7.483305
 30
0.000000
  0
VERTEX
  8
LAYER-1
 10
5.552833
 20
7.416987
 30
0.000000
  0
VERTEX
  8
LAYER-1
 10
5.527738
 20
7.416987
 30
0.000000
  0
SEQEND
  8
LAYER-1
  0
POLYLINE
  8
LAYER-1
 66
  1
 70
  0
 62
  0
 10
2.181858
 20
7.146982
 30
0.000000
  0
VERTEX
  8
LAYER-1
 10
2.181858
 20
7.146982
 30
0.000000
  0
VERTEX
  8
LAYER-1
 10
2.217455
 20
7.146982
 30
0.000000
  0
SEQEND
  8
LAYER-1
  0
POLYLINE
  8
LAYER-1
 66
  1
 70
  0
 62
  0
 10
2.999729
 20
7.146982
 30
0.000000
  0
VERTEX
  8
LAYER-1
 10
2.999729
 20
7.146982
 30
0.000000
  0
VERTEX
  8
LAYER-1
 10
3.035323
 20
7.146982
 30
0.000000
  0
SEQEND
  8
LAYER-1
  0
POLYLINE
  8
LAYER-1
 66
  1
 70
  0
 62
  0
 10
3.647862
 20
7.146906
 30
0.000000
  0
VERTEX
  8
LAYER-1
 10
3.647862
 20
7.146906
 30
0.000000
  0
VERTEX
  8
LAYER-1
 10
3.683457
 20
7.146906
 30
0.000000
  0
SEQEND
  8
LAYER-1
  0
POLYLINE
  8
LAYER-1
 66
  1
 70
  0
 62
  0
 10
5.354019
 20
7.146981
 30
0.000000
  0
VERTEX
  8
LAYER-1
 10
5.354019
 20
7.146981
 30
0.000000
  0
VERTEX
  8
LAYER-1
 10
5.318424
 20
7.146981
 30
0.000000
  0
SEQEND
  8
LAYER-1
  0
POLYLINE
  8
LAYER-1
 66
  1
 70
  0
 62
  0
 10
4.536144
 20
7.146981
 30
0.000000
  0
VERTEX
  8
LAYER-1
 10
4.536144
 20
7.146981
 30
0.000000
  0
VERTEX
  8
LAYER-1
 10
4.500553
 20
7.146981
 30
0.000000
  0
SEQEND
  8
LAYER-1
  0
POLYLINE
  8
LAYER-1
 66
  1
 70
  0
 62
  0
 10
3.888006
 20
7.146905
 30
0.000000
  0
VERTEX
  8
LAYER-1
 10
3.888006
 20
7.146905
 30
0.000000
  0
VERTEX
  8
LAYER-1
 10
3.852414
 20
7.146905
 30
0.000000
  0
SEQEND
  8
LAYER-1
  0
TEXT
  8
LAYER-1
 62
  0
 10
1.087634
 20
7.079225
 30
0.000000
 40
0.125000
  1
Rail
 72
  5
 11
1.462634
 21
7.079225
 31
0.000000
  0
TEXT
  8
LAYER-1
 62
  0
 10
5.893189
 20
5.551448
 30
0.000000
 40
0.125000
  1
Vidrio temperado
 72
  5
 11
7.268189
 21
5.551448
 31
0.000000
  0
TEXT
  8
LAYER-1
 62
  0
 10
5.893189
 20
5.357003
 30
0.000000
 40
0.104167
  1
1/8
 72
  5
 11
6.170967
 21
5.357003
 31
0.000000
  0
TEXT
  8
LAYER-1
 62
  0
 10
6.170967
 20
5.357003
 30
0.000000
 40
0.125000
  1
" (3mm)
 72
  5
 11
6.851523
 21
5.357003
 31
0.000000
  0
POLYLINE
  8
LAYER-1
 66
  1
 70
  1
 62
  0
  0
VERTEX
  8
LAYER-1
 10
1.848981
 20
7.129301
 30
0.000000
  0
VERTEX
  8
LAYER-1
 10
2.136712
 20
7.129301
 30
0.000000
  0
VERTEX
  8
LAYER-1
 10
2.136712
 20
3.960991
 30
0.000000
  0
VERTEX
  8
LAYER-1
 10
1.848981
 20
3.960991
 30
0.000000
  0
SEQEND
  8
LAYER-1
  0
POLYLINE
  8
LAYER-1
 66
  1
 70
  1
 62
  0
  0
VERTEX
  8
LAYER-1
 10
2.259044
 20
7.129301
 30
0.000000
  0
VERTEX
  8
LAYER-1
 10
2.546774
 20
7.129301
 30
0.000000
  0
VERTEX
  8
LAYER-1
 10
2.546774
 20
3.960991
 30
0.000000
  0
VERTEX
  8
LAYER-1
 10
2.259044
 20
3.960991
 30
0.000000
  0
SEQEND
  8
LAYER-1
  0
POLYLINE
  8
LAYER-1
 66
  1
 70
  1
 62
  0
  0
VERTEX
  8
LAYER-1
 10
2.669106
 20
7.129301
 30
0.000000
  0
VERTEX
  8
LAYER-1
 10
2.956833
 20
7.129301
 30
0.000000
  0
VERTEX
  8
LAYER-1
 10
2.956833
 20
3.960991
 30
0.000000
  0
VERTEX
  8
LAYER-1
 10
2.669106
 20
3.960991
 30
0.000000
  0
SEQEND
  8
LAYER-1
  0
POLYLINE
  8
LAYER-1
 66
  1
 70
  1
 62
  0
  0
VERTEX
  8
LAYER-1
 10
3.079166
 20
7.129301
 30
0.000000
  0
VERTEX
  8
LAYER-1
 10
3.366895
 20
7.129301
 30
0.000000
  0
VERTEX
  8
LAYER-1
 10
3.366895
 20
3.960991
 30
0.000000
  0
VERTEX
  8
LAYER-1
 10
3.079166
 20
3.960991
 30
0.000000
  0
SEQEND
  8
LAYER-1
  0
POLYLINE
  8
LAYER-1
 66
  1
 70
  1
 62
  0
  0
VERTEX
  8
LAYER-1
 10
5.399165
 20
7.129300
 30
0.000000
  0
VERTEX
  8
LAYER-1
 10
5.686898
 20
7.129300
 30
0.000000
  0
VERTEX
  8
LAYER-1
 10
5.686898
 20
3.960991
 30
0.000000
  0
VERTEX
  8
LAYER-1
 10
5.399165
 20
3.960991
 30
0.000000
  0
SEQEND
  8
LAYER-1
  0
POLYLINE
  8
LAYER-1
 66
  1
 70
  1
 62
  0
  0
VERTEX
  8
LAYER-1
 10
4.989102
 20
7.129300
 30
0.000000
  0
VERTEX
  8
LAYER-1
 10
5.276835
 20
7.129300
 30
0.000000
  0
VERTEX
  8
LAYER-1
 10
5.276835
 20
3.960991
 30
0.000000
  0
VERTEX
  8
LAYER-1
 10
4.989102
 20
3.960991
 30
0.000000
  0
SEQEND
  8
LAYER-1
  0
POLYLINE
  8
LAYER-1
 66
  1
 70
  1
 62
  0
  0
VERTEX
  8
LAYER-1
 10
4.579040
 20
7.129300
 30
0.000000
  0
VERTEX
  8
LAYER-1
 10
4.866773
 20
7.129300
 30
0.000000
  0
VERTEX
  8
LAYER-1
 10
4.866773
 20
3.960991
 30
0.000000
  0
VERTEX
  8
LAYER-1
 10
4.579040
 20
3.960991
 30
0.000000
  0
SEQEND
  8
LAYER-1
  0
POLYLINE
  8
LAYER-1
 66
  1
 70
  1
 62
  0
  0
VERTEX
  8
LAYER-1
 10
4.168978
 20
7.129300
 30
0.000000
  0
VERTEX
  8
LAYER-1
 10
4.456711
 20
7.129300
 30
0.000000
  0
VERTEX
  8
LAYER-1
 10
4.456711
 20
3.960991
 30
0.000000
  0
VERTEX
  8
LAYER-1
 10
4.168978
 20
3.960991
 30
0.000000
  0
SEQEND
  8
LAYER-1
  0
LINE
  8
LAYER-1
 62
  0
 10
1.903720
 20
6.687607
 30
0.000000
 11
2.039808
 21
6.925341
 31
0.000000
  0
LINE
  8
LAYER-1
 62
  0
 10
1.960356
 20
6.655187
 30
0.000000
 11
2.096444
 21
6.892921
 31
0.000000
  0
LINE
  8
LAYER-1
 62
  0
 10
2.313782
 20
6.687607
 30
0.000000
 11
2.449871
 21
6.925341
 31
0.000000
  0
LINE
  8
LAYER-1
 62
  0
 10
2.370418
 20
6.655187
 30
0.000000
 11
2.506506
 21
6.892921
 31
0.000000
  0
LINE
  8
LAYER-1
 62
  0
 10
2.723844
 20
6.687606
 30
0.000000
 11
2.859930
 21
6.925341
 31
0.000000
  0
LINE
  8
LAYER-1
 62
  0
 10
2.780480
 20
6.655187
 30
0.000000
 11
2.916566
 21
6.892921
 31
0.000000
  0
LINE
  8
LAYER-1
 62
  0
 10
3.133904
 20
6.687607
 30
0.000000
 11
3.269991
 21
6.925341
 31
0.000000
  0
LINE
  8
LAYER-1
 62
  0
 10
3.190539
 20
6.655187
 30
0.000000
 11
3.326626
 21
6.892921
 31
0.000000
  0
LINE
  8
LAYER-1
 62
  0
 10
4.622105
 20
6.687606
 30
0.000000
 11
4.758190
 21
6.925341
 31
0.000000
  0
LINE
  8
LAYER-1
 62
  0
 10
4.678741
 20
6.655187
 30
0.000000
 11
4.814826
 21
6.892921
 31
0.000000
  0
LINE
  8
LAYER-1
 62
  0
 10
5.032168
 20
6.687606
 30
0.000000
 11
5.168253
 21
6.925341
 31
0.000000
  0
LINE
  8
LAYER-1
 62
  0
 10
5.088804
 20
6.655187
 30
0.000000
 11
5.224889
 21
6.892921
 31
0.000000
  0
LINE
  8
LAYER-1
 62
  0
 10
5.442229
 20
6.687606
 30
0.000000
 11
5.578315
 21
6.925341
 31
0.000000
  0
LINE
  8
LAYER-1
 62
  0
 10
5.498865
 20
6.655187
 30
0.000000
 11
5.634951
 21
6.892921
 31
0.000000
  0
LINE
  8
LAYER-1
 62
  0
 10
4.217203
 20
6.687607
 30
0.000000
 11
4.353292
 21
6.925341
 31
0.000000
  0
LINE
  8
LAYER-1
 62
  0
 10
4.273839
 20
6.655187
 30
0.000000
 11
4.409928
 21
6.892921
 31
0.000000
  0
LINE
  8
LAYER-1
 62
  0
 10
1.904080
 20
4.300492
 30
0.000000
 11
2.040170
 21
4.538227
 31
0.000000
  0
LINE
  8
LAYER-1
 62
  0
 10
1.960715
 20
4.268071
 30
0.000000
 11
2.096805
 21
4.505806
 31
0.000000
  0
LINE
  8
LAYER-1
 62
  0
 10
2.314142
 20
4.300492
 30
0.000000
 11
2.450232
 21
4.538227
 31
0.000000
  0
LINE
  8
LAYER-1
 62
  0
 10
2.370777
 20
4.268071
 30
0.000000
 11
2.506868
 21
4.505806
 31
0.000000
  0
LINE
  8
LAYER-1
 62
  0
 10
2.724206
 20
4.300491
 30
0.000000
 11
2.860291
 21
4.538226
 31
0.000000
  0
LINE
  8
LAYER-1
 62
  0
 10
2.780841
 20
4.268071
 30
0.000000
 11
2.916927
 21
4.505806
 31
0.000000
  0
LINE
  8
LAYER-1
 62
  0
 10
3.134265
 20
4.300491
 30
0.000000
 11
3.270352
 21
4.538226
 31
0.000000
  0
LINE
  8
LAYER-1
 62
  0
 10
3.190901
 20
4.268071
 30
0.000000
 11
3.326988
 21
4.505806
 31
0.000000
  0
LINE
  8
LAYER-1
 62
  0
 10
4.622463
 20
4.300492
 30
0.000000
 11
4.758552
 21
4.538227
 31
0.000000
  0
LINE
  8
LAYER-1
 62
  0
 10
4.679099
 20
4.268071
 30
0.000000
 11
4.815188
 21
4.505806
 31
0.000000
  0
LINE
  8
LAYER-1
 62
  0
 10
5.032525
 20
4.300492
 30
0.000000
 11
5.168614
 21
4.538227
 31
0.000000
  0
LINE
  8
LAYER-1
 62
  0
 10
5.089161
 20
4.268071
 30
0.000000
 11
5.225250
 21
4.505806
 31
0.000000
  0
LINE
  8
LAYER-1
 62
  0
 10
5.442591
 20
4.300491
 30
0.000000
 11
5.578677
 21
4.538226
 31
0.000000
  0
LINE
  8
LAYER-1
 62
  0
 10
5.499227
 20
4.268071
 30
0.000000
 11
5.635312
 21
4.505806
 31
0.000000
  0
LINE
  8
LAYER-1
 62
  0
 10
4.217562
 20
4.300492
 30
0.000000
 11
4.353653
 21
4.538227
 31
0.000000
  0
LINE
  8
LAYER-1
 62
  0
 10
4.274196
 20
4.268071
 30
0.000000
 11
4.410288
 21
4.505806
 31
0.000000
  0
TEXT
  8
LAYER-1
 62
  0
 10
5.893189
 20
4.634781
 30
0.000000
 40
0.125000
  1
Protector
 72
  5
 11
6.643189
 21
4.634781
 31
0.000000
  0
TEXT
  8
LAYER-1
 62
  0
 10
5.893189
 20
4.440336
 30
0.000000
 40
0.125000
  1
PVC
 72
  5
 11
6.295967
 21
4.440336
 31
0.000000
  0
POLYLINE
  8
LAYER-1
 66
  1
 70
  0
 62
  0
 10
5.830689
 20
5.502836
 30
0.000000
  0
VERTEX
  8
LAYER-1
 10
5.830689
 20
5.502836
 30
0.000000
  0
VERTEX
  8
LAYER-1
 10
5.586415
 20
5.793326
 30
0.000000
  0
SEQEND
  8
LAYER-1
  0
POLYLINE
  8
LAYER-1
 66
  1
 70
  1
 62
  0
  0
VERTEX
  8
LAYER-1
 10
5.573745
 20
5.808392
 30
0.000000
  0
VERTEX
  8
LAYER-1
 10
5.650330
 20
5.782059
 30
0.000000
  0
VERTEX
  8
LAYER-1
 10
5.618440
 20
5.755242
 30
0.000000
  0
VERTEX
  8
LAYER-1
 10
5.586550
 20
5.728425
 30
0.000000
  0
VERTEX
  8
LAYER-1
 10
5.573745
 20
5.808392
 30
0.000000
  0
SEQEND
  8
LAYER-1
  0
POLYLINE
  8
LAYER-1
 66
  1
 70
  0
 62
  0
 10
5.858467
 20
4.582698
 30
0.000000
  0
VERTEX
  8
LAYER-1
 10
5.858467
 20
4.582698
 30
0.000000
  0
VERTEX
  8
LAYER-1
 10
5.720255
 20
4.708345
 30
0.000000
  0
SEQEND
  8
LAYER-1
  0
POLYLINE
  8
LAYER-1
 66
  1
 70
  1
 62
  0
  0
VERTEX
  8
LAYER-1
 10
5.705689
 20
4.721586
 30
0.000000
  0
VERTEX
  8
LAYER-1
 10
5.785102
 20
4.705705
 30
0.000000
  0
VERTEX
  8
LAYER-1
 10
5.757075
 20
4.674873
 30
0.000000
  0
VERTEX
  8
LAYER-1
 10
5.729047
 20
4.644042
 30
0.000000
  0
VERTEX
  8
LAYER-1
 10
5.705689
 20
4.721586
 30
0.000000
  0
SEQEND
  8
LAYER-1
  0
POLYLINE
  8
LAYER-1
 66
  1
 70
  0
 62
  0
 10
0.768278
 20
0.037543
 30
0.000000
  0
VERTEX
  8
LAYER-1
 10
0.768278
 20
0.037543
 30
0.000000
  0
VERTEX
  8
LAYER-1
 10
0.794792
 20
0.034087
 30
0.000000
  0
VERTEX
  8
LAYER-1
 10
0.814150
 20
0.034087
 30
0.000000
  0
VERTEX
  8
LAYER-1
 10
0.833509
 20
0.037560
 30
0.000000
  0
VERTEX
  8
LAYER-1
 10
0.852867
 20
0.037560
 30
0.000000
  0
VERTEX
  8
LAYER-1
 10
0.899328
 20
0.044504
 30
0.000000
  0
VERTEX
  8
LAYER-1
 10
0.934173
 20
0.054921
 30
0.000000
  0
VERTEX
  8
LAYER-1
 10
0.956436
 20
0.059261
 30
0.000000
  0
VERTEX
  8
LAYER-1
 10
0.978214
 20
0.060998
 30
0.000000
  0
VERTEX
  8
LAYER-1
 10
1.007736
 20
0.058393
 30
0.000000
  0
VERTEX
  8
LAYER-1
 10
1.038709
 20
0.054921
 30
0.000000
  0
VERTEX
  8
LAYER-1
 10
1.065811
 20
0.047976
 30
0.000000
  0
VERTEX
  8
LAYER-1
 10
1.085170
 20
0.044504
 30
0.000000
  0
VERTEX
  8
LAYER-1
 10
1.116144
 20
0.041032
 30
0.000000
  0
VERTEX
  8
LAYER-1
 10
1.135502
 20
0.037560
 30
0.000000
  0
VERTEX
  8
LAYER-1
 10
1.158732
 20
0.034087
 30
0.000000
  0
VERTEX
  8
LAYER-1
 10
1.185834
 20
0.034087
 30
0.000000
  0
VERTEX
  8
LAYER-1
 10
1.212936
 20
0.034087
 30
0.000000
  0
VERTEX
  8
LAYER-1
 10
1.236167
 20
0.034087
 30
0.000000
  0
VERTEX
  8
LAYER-1
 10
1.259397
 20
0.030615
 30
0.000000
  0
VERTEX
  8
LAYER-1
 10
1.298114
 20
0.030615
 30
0.000000
  0
VERTEX
  8
LAYER-1
 10
1.329088
 20
0.030615
 30
0.000000
  0
VERTEX
  8
LAYER-1
 10
1.348446
 20
0.027143
 30
0.000000
  0
VERTEX
  8
LAYER-1
 10
1.379420
 20
0.023671
 30
0.000000
  0
VERTEX
  8
LAYER-1
 10
1.410394
 20
0.020198
 30
0.000000
  0
VERTEX
  8
LAYER-1
 10
1.449111
 20
0.020198
 30
0.000000
  0
VERTEX
  8
LAYER-1
 10
1.480085
 20
0.020198
 30
0.000000
  0
VERTEX
  8
LAYER-1
 10
1.518801
 20
0.020198
 30
0.000000
  0
VERTEX
  8
LAYER-1
 10
1.549775
 20
0.027143
 30
0.000000
  0
VERTEX
  8
LAYER-1
 10
1.573005
 20
0.027143
 30
0.000000
  0
VERTEX
  8
LAYER-1
 10
1.592364
 20
0.030615
 30
0.000000
  0
VERTEX
  8
LAYER-1
 10
1.615595
 20
0.030615
 30
0.000000
  0
VERTEX
  8
LAYER-1
 10
1.634953
 20
0.030615
 30
0.000000
  0
VERTEX
  8
LAYER-1
 10
1.677542
 20
0.030615
 30
0.000000
  0
VERTEX
  8
LAYER-1
 10
1.724002
 20
0.023671
 30
0.000000
  0
VERTEX
  8
LAYER-1
 10
1.766591
 20
0.020198
 30
0.000000
  0
VERTEX
  8
LAYER-1
 10
1.828539
 20
0.013254
 30
0.000000
  0
VERTEX
  8
LAYER-1
 10
1.886614
 20
0.006310
 30
0.000000
  0
VERTEX
  8
LAYER-1
 10
1.936946
 20
0.006310
 30
0.000000
  0
VERTEX
  8
LAYER-1
 10
1.964048
 20
0.006310
 30
0.000000
  0
VERTEX
  8
LAYER-1
 10
1.998894
 20
0.006310
 30
0.000000
  0
VERTEX
  8
LAYER-1
 10
2.019220
 20
0.007178
 30
0.000000
  0
VERTEX
  8
LAYER-1
 10
2.056485
 20
0.009348
 30
0.000000
  0
VERTEX
  8
LAYER-1
 10
2.103430
 20
0.020198
 30
0.000000
  0
VERTEX
  8
LAYER-1
 10
2.146019
 20
0.034087
 30
0.000000
  0
VERTEX
  8
LAYER-1
 10
2.180864
 20
0.044504
 30
0.000000
  0
VERTEX
  8
LAYER-1
 10
2.207966
 20
0.054921
 30
0.000000
  0
VERTEX
  8
LAYER-1
 10
2.231197
 20
0.061865
 30
0.000000
  0
VERTEX
  8
LAYER-1
 10
2.254427
 20
0.061865
 30
0.000000
  0
VERTEX
  8
LAYER-1
 10
2.277657
 20
0.061865
 30
0.000000
  0
VERTEX
  8
LAYER-1
 10
2.300887
 20
0.061865
 30
0.000000
  0
VERTEX
  8
LAYER-1
 10
2.335733
 20
0.054921
 30
0.000000
  0
VERTEX
  8
LAYER-1
 10
2.366706
 20
0.047976
 30
0.000000
  0
VERTEX
  8
LAYER-1
 10
2.389936
 20
0.041032
 30
0.000000
  0
VERTEX
  8
LAYER-1
 10
2.409295
 20
0.037560
 30
0.000000
  0
VERTEX
  8
LAYER-1
 10
2.432525
 20
0.030615
 30
0.000000
  0
VERTEX
  8
LAYER-1
 10
2.451884
 20
0.023671
 30
0.000000
  0
VERTEX
  8
LAYER-1
 10
2.475114
 20
0.020198
 30
0.000000
  0
VERTEX
  8
LAYER-1
 10
2.494473
 20
0.020198
 30
0.000000
  0
VERTEX
  8
LAYER-1
 10
2.525447
 20
0.016726
 30
0.000000
  0
VERTEX
  8
LAYER-1
 10
2.552548
 20
0.016726
 30
0.000000
  0
VERTEX
  8
LAYER-1
 10
2.587394
 20
0.016726
 30
0.000000
  0
VERTEX
  8
LAYER-1
 10
2.614496
 20
0.020198
 30
0.000000
  0
VERTEX
  8
LAYER-1
 10
2.649341
 20
0.030615
 30
0.000000
  0
VERTEX
  8
LAYER-1
 10
2.668700
 20
0.030615
 30
0.000000
  0
VERTEX
  8
LAYER-1
 10
2.691930
 20
0.030615
 30
0.000000
  0
VERTEX
  8
LAYER-1
 10
2.711289
 20
0.030615
 30
0.000000
  0
VERTEX
  8
LAYER-1
 10
2.734519
 20
0.034087
 30
0.000000
  0
VERTEX
  8
LAYER-1
 10
2.757749
 20
0.037560
 30
0.000000
  0
VERTEX
  8
LAYER-1
 10
2.788723
 20
0.037560
 30
0.000000
  0
VERTEX
  8
LAYER-1
 10
2.819696
 20
0.037560
 30
0.000000
  0
VERTEX
  8
LAYER-1
 10
2.842927
 20
0.037560
 30
0.000000
  0
VERTEX
  8
LAYER-1
 10
2.866157
 20
0.037560
 30
0.000000
  0
VERTEX
  8
LAYER-1
 10
2.885515
 20
0.034087
 30
0.000000
  0
VERTEX
  8
LAYER-1
 10
2.904874
 20
0.030615
 30
0.000000
  0
VERTEX
  8
LAYER-1
 10
2.924233
 20
0.027143
 30
0.000000
  0
VERTEX
  8
LAYER-1
 10
2.943591
 20
0.023671
 30
0.000000
  0
VERTEX
  8
LAYER-1
 10
2.974565
 20
0.016726
 30
0.000000
  0
VERTEX
  8
LAYER-1
 10
2.997795
 20
0.013254
 30
0.000000
  0
VERTEX
  8
LAYER-1
 10
3.021025
 20
0.013254
 30
0.000000
  0
VERTEX
  8
LAYER-1
 10
3.040384
 20
0.013254
 30
0.000000
  0
VERTEX
  8
LAYER-1
 10
3.067486
 20
0.013254
 30
0.000000
  0
VERTEX
  8
LAYER-1
 10
3.098460
 20
0.016726
 30
0.000000
  0
VERTEX
  8
LAYER-1
 10
3.152664
 20
0.027143
 30
0.000000
  0
VERTEX
  8
LAYER-1
 10
3.199124
 20
0.037560
 30
0.000000
  0
VERTEX
  8
LAYER-1
 10
3.241713
 20
0.044504
 30
0.000000
  0
VERTEX
  8
LAYER-1
 10
3.272687
 20
0.047976
 30
0.000000
  0
VERTEX
  8
LAYER-1
 10
3.311403
 20
0.051448
 30
0.000000
  0
VERTEX
  8
LAYER-1
 10
3.342377
 20
0.054921
 30
0.000000
  0
VERTEX
  8
LAYER-1
 10
3.368028
 20
0.055789
 30
0.000000
  0
VERTEX
  8
LAYER-1
 10
3.385450
 20
0.053619
 30
0.000000
  0
VERTEX
  8
LAYER-1
 10
3.406745
 20
0.048844
 30
0.000000
  0
VERTEX
  8
LAYER-1
 10
3.427555
 20
0.037560
 30
0.000000
  0
VERTEX
  8
LAYER-1
 10
3.450785
 20
0.034087
 30
0.000000
  0
VERTEX
  8
LAYER-1
 10
3.470144
 20
0.034087
 30
0.000000
  0
VERTEX
  8
LAYER-1
 10
3.489502
 20
0.034087
 30
0.000000
  0
VERTEX
  8
LAYER-1
 10
3.508861
 20
0.034087
 30
0.000000
  0
VERTEX
  8
LAYER-1
 10
3.539835
 20
0.034087
 30
0.000000
  0
VERTEX
  8
LAYER-1
 10
3.563065
 20
0.034087
 30
0.000000
  0
VERTEX
  8
LAYER-1
 10
3.586294
 20
0.034087
 30
0.000000
  0
VERTEX
  8
LAYER-1
 10
3.605654
 20
0.034087
 30
0.000000
  0
VERTEX
  8
LAYER-1
 10
3.628884
 20
0.034087
 30
0.000000
  0
VERTEX
  8
LAYER-1
 10
3.652114
 20
0.034087
 30
0.000000
  0
VERTEX
  8
LAYER-1
 10
3.671473
 20
0.034087
 30
0.000000
  0
VERTEX
  8
LAYER-1
 10
3.698574
 20
0.034087
 30
0.000000
  0
VERTEX
  8
LAYER-1
 10
3.721805
 20
0.030615
 30
0.000000
  0
VERTEX
  8
LAYER-1
 10
3.744067
 20
0.022803
 30
0.000000
  0
VERTEX
  8
LAYER-1
 10
3.784720
 20
0.020198
 30
0.000000
  0
VERTEX
  8
LAYER-1
 10
3.822469
 20
0.023671
 30
0.000000
  0
VERTEX
  8
LAYER-1
 10
3.841828
 20
0.030615
 30
0.000000
  0
VERTEX
  8
LAYER-1
 10
3.865058
 20
0.037560
 30
0.000000
  0
VERTEX
  8
LAYER-1
 10
3.884901
 20
0.041467
 30
0.000000
  0
VERTEX
  8
LAYER-1
 10
3.907647
 20
0.047976
 30
0.000000
  0
VERTEX
  8
LAYER-1
 10
3.930877
 20
0.047976
 30
0.000000
  0
VERTEX
  8
LAYER-1
 10
3.954108
 20
0.044504
 30
0.000000
  0
VERTEX
  8
LAYER-1
 10
3.977338
 20
0.044504
 30
0.000000
  0
VERTEX
  8
LAYER-1
 10
4.000568
 20
0.044504
 30
0.000000
  0
VERTEX
  8
LAYER-1
 10
4.019927
 20
0.041032
 30
0.000000
  0
VERTEX
  8
LAYER-1
 10
4.047029
 20
0.041032
 30
0.000000
  0
VERTEX
  8
LAYER-1
 10
4.078003
 20
0.041032
 30
0.000000
  0
VERTEX
  8
LAYER-1
 10
4.108976
 20
0.047976
 30
0.000000
  0
VERTEX
  8
LAYER-1
 10
4.128335
 20
0.051448
 30
0.000000
  0
VERTEX
  8
LAYER-1
 10
4.155437
 20
0.051448
 30
0.000000
  0
VERTEX
  8
LAYER-1
 10
4.178667
 20
0.054921
 30
0.000000
  0
VERTEX
  8
LAYER-1
 10
4.209641
 20
0.058393
 30
0.000000
  0
VERTEX
  8
LAYER-1
 10
4.232871
 20
0.058393
 30
0.000000
  0
VERTEX
  8
LAYER-1
 10
4.263845
 20
0.054921
 30
0.000000
  0
VERTEX
  8
LAYER-1
 10
4.306433
 20
0.044504
 30
0.000000
  0
VERTEX
  8
LAYER-1
 10
4.337407
 20
0.034087
 30
0.000000
  0
VERTEX
  8
LAYER-1
 10
4.372253
 20
0.023671
 30
0.000000
  0
VERTEX
  8
LAYER-1
 10
4.415326
 20
0.016725
 30
0.000000
  0
VERTEX
  8
LAYER-1
 10
4.462753
 20
0.017593
 30
0.000000
  0
VERTEX
  8
LAYER-1
 10
4.517925
 20
0.020198
 30
0.000000
  0
VERTEX
  8
LAYER-1
 10
4.585197
 20
0.020198
 30
0.000000
  0
VERTEX
  8
LAYER-1
 10
4.630689
 20
0.008913
 30
0.000000
  0
VERTEX
  8
LAYER-1
 10
4.660695
 20
0.002836
 30
0.000000
  0
VERTEX
  8
LAYER-1
 10
4.683925
 20
0.001968
 30
0.000000
  0
VERTEX
  8
LAYER-1
 10
4.718771
 20
0.001969
 30
0.000000
  0
VERTEX
  8
LAYER-1
 10
4.743937
 20
0.006310
 30
0.000000
  0
VERTEX
  8
LAYER-1
 10
4.771038
 20
0.016726
 30
0.000000
  0
VERTEX
  8
LAYER-1
 10
4.805884
 20
0.023671
 30
0.000000
  0
VERTEX
  8
LAYER-1
 10
4.832986
 20
0.030615
 30
0.000000
  0
VERTEX
  8
LAYER-1
 10
4.856216
 20
0.034087
 30
0.000000
  0
VERTEX
  8
LAYER-1
 10
4.879446
 20
0.037560
 30
0.000000
  0
VERTEX
  8
LAYER-1
 10
4.906548
 20
0.041032
 30
0.000000
  0
VERTEX
  8
LAYER-1
 10
4.933650
 20
0.047976
 30
0.000000
  0
VERTEX
  8
LAYER-1
 10
4.953009
 20
0.051448
 30
0.000000
  0
VERTEX
  8
LAYER-1
 10
4.983983
 20
0.054921
 30
0.000000
  0
VERTEX
  8
LAYER-1
 10
5.007212
 20
0.061865
 30
0.000000
  0
VERTEX
  8
LAYER-1
 10
5.030927
 20
0.072717
 30
0.000000
  0
VERTEX
  8
LAYER-1
 10
5.053673
 20
0.079226
 30
0.000000
  0
VERTEX
  8
LAYER-1
 10
5.076903
 20
0.079226
 30
0.000000
  0
VERTEX
  8
LAYER-1
 10
5.104006
 20
0.079226
 30
0.000000
  0
VERTEX
  8
LAYER-1
 10
5.131107
 20
0.079226
 30
0.000000
  0
VERTEX
  8
LAYER-1
 10
5.169825
 20
0.075754
 30
0.000000
  0
VERTEX
  8
LAYER-1
 10
5.224029
 20
0.072282
 30
0.000000
  0
VERTEX
  8
LAYER-1
 10
5.266617
 20
0.072282
 30
0.000000
  0
VERTEX
  8
LAYER-1
 10
5.297591
 20
0.072282
 30
0.000000
  0
VERTEX
  8
LAYER-1
 10
5.320822
 20
0.072282
 30
0.000000
  0
VERTEX
  8
LAYER-1
 10
5.344052
 20
0.072282
 30
0.000000
  0
VERTEX
  8
LAYER-1
 10
5.375025
 20
0.075754
 30
0.000000
  0
VERTEX
  8
LAYER-1
 10
5.413743
 20
0.075754
 30
0.000000
  0
VERTEX
  8
LAYER-1
 10
5.444716
 20
0.075754
 30
0.000000
  0
VERTEX
  8
LAYER-1
 10
5.467946
 20
0.079226
 30
0.000000
  0
VERTEX
  8
LAYER-1
 10
5.498920
 20
0.079226
 30
0.000000
  0
VERTEX
  8
LAYER-1
 10
5.518279
 20
0.079226
 30
0.000000
  0
VERTEX
  8
LAYER-1
 10
5.549252
 20
0.070546
 30
0.000000
  0
VERTEX
  8
LAYER-1
 10
5.576355
 20
0.058393
 30
0.000000
  0
VERTEX
  8
LAYER-1
 10
5.611199
 20
0.044504
 30
0.000000
  0
VERTEX
  8
LAYER-1
 10
5.638302
 20
0.037560
 30
0.000000
  0
VERTEX
  8
LAYER-1
 10
5.669275
 20
0.030615
 30
0.000000
  0
VERTEX
  8
LAYER-1
 10
5.696861
 20
0.028445
 30
0.000000
  0
VERTEX
  8
LAYER-1
 10
5.723479
 20
0.027143
 30
0.000000
  0
VERTEX
  8
LAYER-1
 10
5.746710
 20
0.030615
 30
0.000000
  0
VERTEX
  8
LAYER-1
 10
5.769939
 20
0.037560
 30
0.000000
  0
VERTEX
  8
LAYER-1
 10
5.797042
 20
0.041032
 30
0.000000
  0
VERTEX
  8
LAYER-1
 10
5.820272
 20
0.044504
 30
0.000000
  0
VERTEX
  8
LAYER-1
 10
5.843502
 20
0.047976
 30
0.000000
  0
VERTEX
  8
LAYER-1
 10
5.862861
 20
0.051448
 30
0.000000
  0
VERTEX
  8
LAYER-1
 10
5.886091
 20
0.051448
 30
0.000000
  0
VERTEX
  8
LAYER-1
 10
5.913193
 20
0.051448
 30
0.000000
  0
VERTEX
  8
LAYER-1
 10
5.933036
 20
0.054053
 30
0.000000
  0
VERTEX
  8
LAYER-1
 10
5.959654
 20
0.058393
 30
0.000000
  0
VERTEX
  8
LAYER-1
 10
5.982884
 20
0.065337
 30
0.000000
  0
VERTEX
  8
LAYER-1
 10
6.013858
 20
0.065337
 30
0.000000
  0
VERTEX
  8
LAYER-1
 10
6.044831
 20
0.065337
 30
0.000000
  0
VERTEX
  8
LAYER-1
 10
6.064190
 20
0.065337
 30
0.000000
  0
VERTEX
  8
LAYER-1
 10
6.118394
 20
0.058393
 30
0.000000
  0
VERTEX
  8
LAYER-1
 10
6.149367
 20
0.051448
 30
0.000000
  0
VERTEX
  8
LAYER-1
 10
6.168726
 20
0.047976
 30
0.000000
  0
VERTEX
  8
LAYER-1
 10
6.203571
 20
0.047976
 30
0.000000
  0
VERTEX
  8
LAYER-1
 10
6.227285
 20
0.055355
 30
0.000000
  0
VERTEX
  8
LAYER-1
 10
6.249064
 20
0.056223
 30
0.000000
  0
VERTEX
  8
LAYER-1
 10
6.300848
 20
0.063167
 30
0.000000
  0
VERTEX
  8
LAYER-1
 10
6.349244
 20
0.073150
 30
0.000000
  0
VERTEX
  8
LAYER-1
 10
6.385542
 20
0.076623
 30
0.000000
  0
VERTEX
  8
LAYER-1
 10
6.418451
 20
0.077056
 30
0.000000
  0
VERTEX
  8
LAYER-1
 10
6.435390
 20
0.072282
 30
0.000000
  0
VERTEX
  8
LAYER-1
 10
6.453781
 20
0.068810
 30
0.000000
  0
VERTEX
  8
LAYER-1
 10
6.484754
 20
0.063601
 30
0.000000
  0
VERTEX
  8
LAYER-1
 10
6.524924
 20
0.071848
 30
0.000000
  0
VERTEX
  8
LAYER-1
 10
6.540410
 20
0.079226
 30
0.000000
  0
VERTEX
  8
LAYER-1
 10
6.563641
 20
0.079226
 30
0.000000
  0
VERTEX
  8
LAYER-1
 10
6.586871
 20
0.079226
 30
0.000000
  0
VERTEX
  8
LAYER-1
 10
6.613973
 20
0.072282
 30
0.000000
  0
VERTEX
  8
LAYER-1
 10
6.637203
 20
0.058393
 30
0.000000
  0
VERTEX
  8
LAYER-1
 10
6.664305
 20
0.047976
 30
0.000000
  0
VERTEX
  8
LAYER-1
 10
6.691407
 20
0.037560
 30
0.000000
  0
VERTEX
  8
LAYER-1
 10
6.714637
 20
0.037560
 30
0.000000
  0
VERTEX
  8
LAYER-1
 10
6.744698
 20
0.037543
 30
0.000000
  0
VERTEX
  8
LAYER-1
 10
6.768841
 20
0.047976
 30
0.000000
  0
SEQEND
  8
LAYER-1
  0
TEXT
  8
LAYER-1
 62
  0
 10
1.795967
 20
8.468114
 30
0.000000
 40
0.125000
  1
VIDRIO TEMPERADO
 72
  5
 11
3.490411
 21
8.468114
 31
0.000000
  0
TEXT
  8
LAYER-1
 62
  0
 10
5.865411
 20
0.551448
 30
0.000000
 40
0.125000
  1
Casquillo
 72
  5
 11
6.670967
 21
0.551448
 31
0.000000
  0
TEXT
  8
LAYER-1
 62
  0
 10
5.865411
 20
0.357003
 30
0.000000
 40
0.125000
  1
anti-polvo
 72
  5
 11
6.670967
 21
0.357003
 31
0.000000
  0
POLYLINE
  8
LAYER-1
 66
  1
 70
  0
 62
  0
 10
5.851523
 20
0.468114
 30
0.000000
  0
VERTEX
  8
LAYER-1
 10
5.851523
 20
0.468114
 30
0.000000
  0
VERTEX
  8
LAYER-1
 10
3.787657
 20
0.158535
 30
0.000000
  0
SEQEND
  8
LAYER-1
  0
POLYLINE
  8
LAYER-1
 66
  1
 70
  1
 62
  0
  0
VERTEX
  8
LAYER-1
 10
3.768189
 20
0.155614
 30
0.000000
  0
VERTEX
  8
LAYER-1
 10
3.830684
 20
0.207121
 30
0.000000
  0
VERTEX
  8
LAYER-1
 10
3.836865
 20
0.165916
 30
0.000000
  0
VERTEX
  8
LAYER-1
 10
3.843046
 20
0.124710
 30
0.000000
  0
VERTEX
  8
LAYER-1
 10
3.768189
 20
0.155614
 30
0.000000
  0
SEQEND
  8
LAYER-1
  0
LINE
  8
LAYER-1
 62
  0
 10
5.910550
 20
7.416031
 30
0.000000
 11
5.910550
 21
7.147992
 31
0.000000
  0
LINE
  8
LAYER-1
 62
  0
 10
5.827429
 20
7.416031
 30
0.000000
 11
6.035550
 21
7.416031
 31
0.000000
  0
LINE
  8
LAYER-1
 62
  0
 10
5.833292
 20
7.147992
 30
0.000000
 11
6.035550
 21
7.147992
 31
0.000000
  0
LINE
  8
LAYER-1
 62
  0
 10
5.940013
 20
7.386568
 30
0.000000
 11
5.881088
 21
7.445494
 31
0.000000
  0
LINE
  8
LAYER-1
 62
  0
 10
5.940013
 20
7.118529
 30
0.000000
 11
5.881088
 21
7.177455
 31
0.000000
  0
TEXT
  8
LAYER-1
 62
  0
 10
5.786594
 20
7.273429
 30
0.000000
 40
0.125000
  1
 
 50
90.000000
  0
TEXT
  8
LAYER-1
 62
  0
 10
6.212634
 20
7.301448
 30
0.000000
 40
0.125000
  1
4"
 72
  5
 11
6.434856
 21
7.301448
 31
0.000000
  0
TEXT
  8
LAYER-1
 62
  0
 10
5.990411
 20
7.107003
 30
0.000000
 40
0.125000
  1
102mm
 72
  5
 11
6.657078
 21
7.107003
 31
0.000000
  0
LINE
  8
LAYER-1
 62
  0
 10
4.517320
 20
7.679242
 30
0.000000
 11
4.927043
 21
7.679242
 31
0.000000
  0
LINE
  8
LAYER-1
 62
  0
 10
4.517320
 20
7.309451
 30
0.000000
 11
4.517320
 21
7.804242
 31
0.000000
  0
LINE
  8
LAYER-1
 62
  0
 10
4.927043
 20
7.307715
 30
0.000000
 11
4.927043
 21
7.804242
 31
0.000000
  0
LINE
  8
LAYER-1
 62
  0
 10
4.546783
 20
7.708704
 30
0.000000
 11
4.487858
 21
7.649779
 31
0.000000
  0
LINE
  8
LAYER-1
 62
  0
 10
4.956506
 20
7.708704
 30
0.000000
 11
4.897580
 21
7.649779
 31
0.000000
  0
TEXT
  8
LAYER-1
 62
  0
 10
4.717336
 20
7.800901
 30
0.000000
 40
0.125000
  1
 
  0
TEXT
  8
LAYER-1
 62
  0
 10
4.601523
 20
8.023670
 30
0.000000
 40
0.125000
  1
6"
 72
  5
 11
4.823745
 21
8.023670
 31
0.000000
  0
TEXT
  8
LAYER-1
 62
  0
 10
4.379300
 20
7.829225
 30
0.000000
 40
0.125000
  1
152mm
 72
  5
 11
5.045967
 21
7.829225
 31
0.000000
  0
POLYLINE
  8
LAYER-1
 66
  1
 70
  0
 62
  0
 10
3.476069
 20
0.215196
 30
0.000000
  0
VERTEX
  8
LAYER-1
 10
3.476069
 20
0.215196
 30
0.000000
  0
VERTEX
  8
LAYER-1
 10
3.476069
 20
0.214005
 30
0.000000
  0
SEQEND
  8
LAYER-1
  0
POLYLINE
  8
LAYER-1
 66
  1
 70
  1
 62
  0
 10
1.304211
 20
0.120027
 30
0.000000
  0
VERTEX
  8
LAYER-1
 10
1.304211
 20
0.120027
 30
0.000000
  0
VERTEX
  8
LAYER-1
 10
1.311156
 20
0.093987
 30
0.000000
  0
VERTEX
  8
LAYER-1
 10
1.336330
 20
0.107875
 30
0.000000
  0
SEQEND
  8
LAYER-1
  0
POLYLINE
  8
LAYER-1
 66
  1
 70
  1
 62
  0
 10
1.494316
 20
0.225060
 30
0.000000
  0
VERTEX
  8
LAYER-1
 10
1.494316
 20
0.225060
 30
0.000000
  0
VERTEX
  8
LAYER-1
 10
1.481296
 20
0.202490
 30
0.000000
  0
VERTEX
  8
LAYER-1
 10
1.511678
 20
0.223323
 30
0.000000
  0
SEQEND
  8
LAYER-1
  0
POLYLINE
  8
LAYER-1
 66
  1
 70
  1
 62
  0
 10
1.140150
 20
0.160826
 30
0.000000
  0
VERTEX
  8
LAYER-1
 10
1.140150
 20
0.160826
 30
0.000000
  0
VERTEX
  8
LAYER-1
 10
1.123657
 20
0.135651
 30
0.000000
  0
VERTEX
  8
LAYER-1
 10
1.138413
 20
0.127839
 30
0.000000
  0
SEQEND
  8
LAYER-1
  0
POLYLINE
  8
LAYER-1
 66
  1
 70
  0
 62
  0
 10
1.306816
 20
0.161695
 30
0.000000
  0
VERTEX
  8
LAYER-1
 10
1.306816
 20
0.161695
 30
0.000000
  0
VERTEX
  8
LAYER-1
 10
1.302476
 20
0.161695
 30
0.000000
  0
VERTEX
  8
LAYER-1
 10
1.299003
 20
0.157355
 30
0.000000
  0
VERTEX
  8
LAYER-1
 10
1.298135
 20
0.152146
 30
0.000000
  0
VERTEX
  8
LAYER-1
 10
1.299871
 20
0.147806
 30
0.000000
  0
VERTEX
  8
LAYER-1
 10
1.304212
 20
0.146070
 30
0.000000
  0
VERTEX
  8
LAYER-1
 10
1.308552
 20
0.146070
 30
0.000000
  0
VERTEX
  8
LAYER-1
 10
1.312892
 20
0.149542
 30
0.000000
  0
VERTEX
  8
LAYER-1
 10
1.312892
 20
0.153882
 30
0.000000
  0
VERTEX
  8
LAYER-1
 10
1.312025
 20
0.158223
 30
0.000000
  0
VERTEX
  8
LAYER-1
 10
1.307684
 20
0.160827
 30
0.000000
  0
SEQEND
  8
LAYER-1
  0
POLYLINE
  8
LAYER-1
 66
  1
 70
  1
 62
  0
 10
0.944837
 20
0.199888
 30
0.000000
  0
VERTEX
  8
LAYER-1
 10
0.944837
 20
0.199888
 30
0.000000
  0
VERTEX
  8
LAYER-1
 10
0.931816
 20
0.177318
 30
0.000000
  0
VERTEX
  8
LAYER-1
 10
0.962198
 20
0.198151
 30
0.000000
  0
SEQEND
  8
LAYER-1
  0
POLYLINE
  8
LAYER-1
 66
  1
 70
  1
 62
  0
 10
1.076614
 20
0.199554
 30
0.000000
  0
VERTEX
  8
LAYER-1
 10
1.076614
 20
0.199554
 30
0.000000
  0
VERTEX
  8
LAYER-1
 10
1.063928
 20
0.180189
 30
0.000000
  0
VERTEX
  8
LAYER-1
 10
1.075279
 20
0.174179
 30
0.000000
  0
SEQEND
  8
LAYER-1
  0
POLYLINE
  8
LAYER-1
 66
  1
 70
  0
 62
  0
 10
1.434420
 20
0.180790
 30
0.000000
  0
VERTEX
  8
LAYER-1
 10
1.434420
 20
0.180790
 30
0.000000
  0
VERTEX
  8
LAYER-1
 10
1.430080
 20
0.180790
 30
0.000000
  0
VERTEX
  8
LAYER-1
 10
1.426608
 20
0.176450
 30
0.000000
  0
VERTEX
  8
LAYER-1
 10
1.425740
 20
0.171243
 30
0.000000
  0
VERTEX
  8
LAYER-1
 10
1.427476
 20
0.166901
 30
0.000000
  0
VERTEX
  8
LAYER-1
 10
1.431816
 20
0.165165
 30
0.000000
  0
VERTEX
  8
LAYER-1
 10
1.436156
 20
0.165165
 30
0.000000
  0
VERTEX
  8
LAYER-1
 10
1.440496
 20
0.168638
 30
0.000000
  0
VERTEX
  8
LAYER-1
 10
1.440496
 20
0.172978
 30
0.000000
  0
VERTEX
  8
LAYER-1
 10
1.439628
 20
0.177319
 30
0.000000
  0
VERTEX
  8
LAYER-1
 10
1.435288
 20
0.179923
 30
0.000000
  0
SEQEND
  8
LAYER-1
  0
POLYLINE
  8
LAYER-1
 66
  1
 70
  0
 62
  0
 10
1.192232
 20
0.154750
 30
0.000000
  0
VERTEX
  8
LAYER-1
 10
1.192232
 20
0.154750
 30
0.000000
  0
VERTEX
  8
LAYER-1
 10
1.187892
 20
0.154750
 30
0.000000
  0
VERTEX
  8
LAYER-1
 10
1.184420
 20
0.150408
 30
0.000000
  0
VERTEX
  8
LAYER-1
 10
1.183552
 20
0.145201
 30
0.000000
  0
VERTEX
  8
LAYER-1
 10
1.185288
 20
0.140861
 30
0.000000
  0
VERTEX
  8
LAYER-1
 10
1.189628
 20
0.139125
 30
0.000000
  0
VERTEX
  8
LAYER-1
 10
1.193969
 20
0.139125
 30
0.000000
  0
VERTEX
  8
LAYER-1
 10
1.198309
 20
0.142596
 30
0.000000
  0
VERTEX
  8
LAYER-1
 10
1.198309
 20
0.146937
 30
0.000000
  0
VERTEX
  8
LAYER-1
 10
1.197441
 20
0.151277
 30
0.000000
  0
VERTEX
  8
LAYER-1
 10
1.193100
 20
0.153881
 30
0.000000
  0
SEQEND
  8
LAYER-1
  0
POLYLINE
  8
LAYER-1
 66
  1
 70
  0
 62
  0
 10
1.028170
 20
0.146937
 30
0.000000
  0
VERTEX
  8
LAYER-1
 10
1.028170
 20
0.146937
 30
0.000000
  0
VERTEX
  8
LAYER-1
 10
1.023830
 20
0.146937
 30
0.000000
  0
VERTEX
  8
LAYER-1
 10
1.020357
 20
0.142596
 30
0.000000
  0
VERTEX
  8
LAYER-1
 10
1.019489
 20
0.137388
 30
0.000000
  0
VERTEX
  8
LAYER-1
 10
1.021225
 20
0.133048
 30
0.000000
  0
VERTEX
  8
LAYER-1
 10
1.025566
 20
0.131312
 30
0.000000
  0
VERTEX
  8
LAYER-1
 10
1.029906
 20
0.131312
 30
0.000000
  0
VERTEX
  8
LAYER-1
 10
1.034246
 20
0.134783
 30
0.000000
  0
VERTEX
  8
LAYER-1
 10
1.034246
 20
0.139125
 30
0.000000
  0
VERTEX
  8
LAYER-1
 10
1.033378
 20
0.143465
 30
0.000000
  0
VERTEX
  8
LAYER-1
 10
1.029038
 20
0.146069
 30
0.000000
  0
SEQEND
  8
LAYER-1
  0
POLYLINE
  8
LAYER-1
 66
  1
 70
  1
 62
  0
 10
1.656210
 20
0.171676
 30
0.000000
  0
VERTEX
  8
LAYER-1
 10
1.656210
 20
0.171676
 30
0.000000
  0
VERTEX
  8
LAYER-1
 10
1.630169
 20
0.164731
 30
0.000000
  0
VERTEX
  8
LAYER-1
 10
1.644057
 20
0.139558
 30
0.000000
  0
SEQEND
  8
LAYER-1
  0
POLYLINE
  8
LAYER-1
 66
  1
 70
  1
 62
  0
 10
1.717753
 20
0.112078
 30
0.000000
  0
VERTEX
  8
LAYER-1
 10
1.717753
 20
0.112078
 30
0.000000
  0
VERTEX
  8
LAYER-1
 10
1.740324
 20
0.099058
 30
0.000000
  0
VERTEX
  8
LAYER-1
 10
1.719491
 20
0.129439
 30
0.000000
  0
SEQEND
  8
LAYER-1
  0
POLYLINE
  8
LAYER-1
 66
  1
 70
  1
 62
  0
 10
1.249091
 20
0.179488
 30
0.000000
  0
VERTEX
  8
LAYER-1
 10
1.249091
 20
0.179488
 30
0.000000
  0
VERTEX
  8
LAYER-1
 10
1.223918
 20
0.195981
 30
0.000000
  0
VERTEX
  8
LAYER-1
 10
1.216105
 20
0.181224
 30
0.000000
  0
SEQEND
  8
LAYER-1
  0
POLYLINE
  8
LAYER-1
 66
  1
 70
  0
 62
  0
 10
1.667495
 20
0.208136
 30
0.000000
  0
VERTEX
  8
LAYER-1
 10
1.667495
 20
0.208136
 30
0.000000
  0
VERTEX
  8
LAYER-1
 10
1.667495
 20
0.212476
 30
0.000000
  0
VERTEX
  8
LAYER-1
 10
1.663154
 20
0.215948
 30
0.000000
  0
VERTEX
  8
LAYER-1
 10
1.657947
 20
0.216816
 30
0.000000
  0
VERTEX
  8
LAYER-1
 10
1.653606
 20
0.215080
 30
0.000000
  0
VERTEX
  8
LAYER-1
 10
1.651870
 20
0.210739
 30
0.000000
  0
VERTEX
  8
LAYER-1
 10
1.651870
 20
0.206400
 30
0.000000
  0
VERTEX
  8
LAYER-1
 10
1.655342
 20
0.202059
 30
0.000000
  0
VERTEX
  8
LAYER-1
 10
1.659682
 20
0.202059
 30
0.000000
  0
VERTEX
  8
LAYER-1
 10
1.664023
 20
0.202927
 30
0.000000
  0
VERTEX
  8
LAYER-1
 10
1.666628
 20
0.207268
 30
0.000000
  0
SEQEND
  8
LAYER-1
  0
POLYLINE
  8
LAYER-1
 66
  1
 70
  1
 62
  0
 10
1.619752
 20
0.183828
 30
0.000000
  0
VERTEX
  8
LAYER-1
 10
1.619752
 20
0.183828
 30
0.000000
  0
VERTEX
  8
LAYER-1
 10
1.597182
 20
0.196849
 30
0.000000
  0
VERTEX
  8
LAYER-1
 10
1.618014
 20
0.166467
 30
0.000000
  0
SEQEND
  8
LAYER-1
  0
POLYLINE
  8
LAYER-1
 66
  1
 70
  1
 62
  0
 10
1.267853
 20
0.196147
 30
0.000000
  0
VERTEX
  8
LAYER-1
 10
1.267853
 20
0.196147
 30
0.000000
  0
VERTEX
  8
LAYER-1
 10
1.248489
 20
0.208834
 30
0.000000
  0
VERTEX
  8
LAYER-1
 10
1.242478
 20
0.197483
 30
0.000000
  0
SEQEND
  8
LAYER-1
  0
POLYLINE
  8
LAYER-1
 66
  1
 70
  0
 62
  0
 10
1.733727
 20
0.072495
 30
0.000000
  0
VERTEX
  8
LAYER-1
 10
1.733727
 20
0.072495
 30
0.000000
  0
VERTEX
  8
LAYER-1
 10
1.733727
 20
0.068155
 30
0.000000
  0
VERTEX
  8
LAYER-1
 10
1.738068
 20
0.064683
 30
0.000000
  0
VERTEX
  8
LAYER-1
 10
1.743276
 20
0.063815
 30
0.000000
  0
VERTEX
  8
LAYER-1
 10
1.747617
 20
0.065551
 30
0.000000
  0
VERTEX
  8
LAYER-1
 10
1.749352
 20
0.069891
 30
0.000000
  0
VERTEX
  8
LAYER-1
 10
1.749352
 20
0.074232
 30
0.000000
  0
VERTEX
  8
LAYER-1
 10
1.745881
 20
0.078572
 30
0.000000
  0
VERTEX
  8
LAYER-1
 10
1.741540
 20
0.078572
 30
0.000000
  0
VERTEX
  8
LAYER-1
 10
1.737199
 20
0.077704
 30
0.000000
  0
VERTEX
  8
LAYER-1
 10
1.734594
 20
0.073363
 30
0.000000
  0
SEQEND
  8
LAYER-1
  0
POLYLINE
  8
LAYER-1
 66
  1
 70
  0
 62
  0
 10
1.243014
 20
0.127405
 30
0.000000
  0
VERTEX
  8
LAYER-1
 10
1.243014
 20
0.127405
 30
0.000000
  0
VERTEX
  8
LAYER-1
 10
1.243014
 20
0.131745
 30
0.000000
  0
VERTEX
  8
LAYER-1
 10
1.238674
 20
0.135217
 30
0.000000
  0
VERTEX
  8
LAYER-1
 10
1.233466
 20
0.136086
 30
0.000000
  0
VERTEX
  8
LAYER-1
 10
1.229125
 20
0.134349
 30
0.000000
  0
VERTEX
  8
LAYER-1
 10
1.227389
 20
0.130008
 30
0.000000
  0
VERTEX
  8
LAYER-1
 10
1.227389
 20
0.125669
 30
0.000000
  0
VERTEX
  8
LAYER-1
 10
1.230861
 20
0.121328
 30
0.000000
  0
VERTEX
  8
LAYER-1
 10
1.235202
 20
0.121328
 30
0.000000
  0
VERTEX
  8
LAYER-1
 10
1.239543
 20
0.122196
 30
0.000000
  0
VERTEX
  8
LAYER-1
 10
1.242147
 20
0.126537
 30
0.000000
  0
SEQEND
  8
LAYER-1
  0
POLYLINE
  8
LAYER-1
 66
  1
 70
  0
 62
  0
 10
1.545098
 20
0.162128
 30
0.000000
  0
VERTEX
  8
LAYER-1
 10
1.545098
 20
0.162128
 30
0.000000
  0
VERTEX
  8
LAYER-1
 10
1.545098
 20
0.166469
 30
0.000000
  0
VERTEX
  8
LAYER-1
 10
1.540758
 20
0.169941
 30
0.000000
  0
VERTEX
  8
LAYER-1
 10
1.535550
 20
0.170809
 30
0.000000
  0
VERTEX
  8
LAYER-1
 10
1.531209
 20
0.169073
 30
0.000000
  0
VERTEX
  8
LAYER-1
 10
1.529473
 20
0.164732
 30
0.000000
  0
VERTEX
  8
LAYER-1
 10
1.529473
 20
0.160393
 30
0.000000
  0
VERTEX
  8
LAYER-1
 10
1.532945
 20
0.156052
 30
0.000000
  0
VERTEX
  8
LAYER-1
 10
1.537286
 20
0.156052
 30
0.000000
  0
VERTEX
  8
LAYER-1
 10
1.541627
 20
0.156920
 30
0.000000
  0
VERTEX
  8
LAYER-1
 10
1.544231
 20
0.161261
 30
0.000000
  0
SEQEND
  8
LAYER-1
  0
POLYLINE
  8
LAYER-1
 66
  1
 70
  1
 62
  0
 10
1.764283
 20
0.154316
 30
0.000000
  0
VERTEX
  8
LAYER-1
 10
1.764283
 20
0.154316
 30
0.000000
  0
VERTEX
  8
LAYER-1
 10
1.771227
 20
0.128275
 30
0.000000
  0
VERTEX
  8
LAYER-1
 10
1.790325
 20
0.143899
 30
0.000000
  0
SEQEND
  8
LAYER-1
  0
POLYLINE
  8
LAYER-1
 66
  1
 70
  1
 62
  0
 10
1.948311
 20
0.176018
 30
0.000000
  0
VERTEX
  8
LAYER-1
 10
1.948311
 20
0.176018
 30
0.000000
  0
VERTEX
  8
LAYER-1
 10
1.935290
 20
0.153448
 30
0.000000
  0
VERTEX
  8
LAYER-1
 10
1.965672
 20
0.174281
 30
0.000000
  0
SEQEND
  8
LAYER-1
  0
POLYLINE
  8
LAYER-1
 66
  1
 70
  1
 62
  0
 10
1.998215
 20
0.074557
 30
0.000000
  0
VERTEX
  8
LAYER-1
 10
1.998215
 20
0.074557
 30
0.000000
  0
VERTEX
  8
LAYER-1
 10
1.981723
 20
0.049383
 30
0.000000
  0
VERTEX
  8
LAYER-1
 10
1.996479
 20
0.041571
 30
0.000000
  0
SEQEND
  8
LAYER-1
  0
POLYLINE
  8
LAYER-1
 66
  1
 70
  0
 62
  0
 10
1.736505
 20
0.178621
 30
0.000000
  0
VERTEX
  8
LAYER-1
 10
1.736505
 20
0.178621
 30
0.000000
  0
VERTEX
  8
LAYER-1
 10
1.732164
 20
0.178621
 30
0.000000
  0
VERTEX
  8
LAYER-1
 10
1.728693
 20
0.174281
 30
0.000000
  0
VERTEX
  8
LAYER-1
 10
1.727825
 20
0.169073
 30
0.000000
  0
VERTEX
  8
LAYER-1
 10
1.729561
 20
0.164732
 30
0.000000
  0
VERTEX
  8
LAYER-1
 10
1.733900
 20
0.162996
 30
0.000000
  0
VERTEX
  8
LAYER-1
 10
1.738241
 20
0.162996
 30
0.000000
  0
VERTEX
  8
LAYER-1
 10
1.742581
 20
0.166468
 30
0.000000
  0
VERTEX
  8
LAYER-1
 10
1.742581
 20
0.170809
 30
0.000000
  0
VERTEX
  8
LAYER-1
 10
1.741713
 20
0.175150
 30
0.000000
  0
VERTEX
  8
LAYER-1
 10
1.737373
 20
0.177753
 30
0.000000
  0
SEQEND
  8
LAYER-1
  0
POLYLINE
  8
LAYER-1
 66
  1
 70
  1
 62
  0
 10
1.773832
 20
0.110913
 30
0.000000
  0
VERTEX
  8
LAYER-1
 10
1.773832
 20
0.110913
 30
0.000000
  0
VERTEX
  8
LAYER-1
 10
1.760811
 20
0.088343
 30
0.000000
  0
VERTEX
  8
LAYER-1
 10
1.791193
 20
0.109176
 30
0.000000
  0
SEQEND
  8
LAYER-1
  0
POLYLINE
  8
LAYER-1
 66
  1
 70
  1
 62
  0
 10
2.029632
 20
0.056665
 30
0.000000
  0
VERTEX
  8
LAYER-1
 10
2.029632
 20
0.056665
 30
0.000000
  0
VERTEX
  8
LAYER-1
 10
2.042319
 20
0.076029
 30
0.000000
  0
VERTEX
  8
LAYER-1
 10
2.030968
 20
0.082041
 30
0.000000
  0
SEQEND
  8
LAYER-1
  0
POLYLINE
  8
LAYER-1
 66
  1
 70
  0
 62
  0
 10
1.928857
 20
0.057112
 30
0.000000
  0
VERTEX
  8
LAYER-1
 10
1.928857
 20
0.057112
 30
0.000000
  0
VERTEX
  8
LAYER-1
 10
1.933198
 20
0.057112
 30
0.000000
  0
VERTEX
  8
LAYER-1
 10
1.936670
 20
0.061453
 30
0.000000
  0
VERTEX
  8
LAYER-1
 10
1.937538
 20
0.066661
 30
0.000000
  0
VERTEX
  8
LAYER-1
 10
1.935802
 20
0.071002
 30
0.000000
  0
VERTEX
  8
LAYER-1
 10
1.931461
 20
0.072737
 30
0.000000
  0
VERTEX
  8
LAYER-1
 10
1.927121
 20
0.072737
 30
0.000000
  0
VERTEX
  8
LAYER-1
 10
1.922781
 20
0.069266
 30
0.000000
  0
VERTEX
  8
LAYER-1
 10
1.922781
 20
0.064924
 30
0.000000
  0
VERTEX
  8
LAYER-1
 10
1.923649
 20
0.060584
 30
0.000000
  0
VERTEX
  8
LAYER-1
 10
1.927989
 20
0.057979
 30
0.000000
  0
SEQEND
  8
LAYER-1
  0
POLYLINE
  8
LAYER-1
 66
  1
 70
  0
 62
  0
 10
1.618361
 20
0.092980
 30
0.000000
  0
VERTEX
  8
LAYER-1
 10
1.618361
 20
0.092980
 30
0.000000
  0
VERTEX
  8
LAYER-1
 10
1.622702
 20
0.092980
 30
0.000000
  0
VERTEX
  8
LAYER-1
 10
1.626174
 20
0.097321
 30
0.000000
  0
VERTEX
  8
LAYER-1
 10
1.627043
 20
0.102528
 30
0.000000
  0
VERTEX
  8
LAYER-1
 10
1.625307
 20
0.106869
 30
0.000000
  0
VERTEX
  8
LAYER-1
 10
1.620966
 20
0.108605
 30
0.000000
  0
VERTEX
  8
LAYER-1
 10
1.616625
 20
0.108605
 30
0.000000
  0
VERTEX
  8
LAYER-1
 10
1.612285
 20
0.105133
 30
0.000000
  0
VERTEX
  8
LAYER-1
 10
1.612285
 20
0.100793
 30
0.000000
  0
VERTEX
  8
LAYER-1
 10
1.613154
 20
0.096452
 30
0.000000
  0
VERTEX
  8
LAYER-1
 10
1.617494
 20
0.093847
 30
0.000000
  0
SEQEND
  8
LAYER-1
  0
POLYLINE
  8
LAYER-1
 66
  1
 70
  1
 62
  0
 10
2.113676
 20
0.159090
 30
0.000000
  0
VERTEX
  8
LAYER-1
 10
2.113676
 20
0.159090
 30
0.000000
  0
VERTEX
  8
LAYER-1
 10
2.087635
 20
0.152145
 30
0.000000
  0
VERTEX
  8
LAYER-1
 10
2.101522
 20
0.126972
 30
0.000000
  0
SEQEND
  8
LAYER-1
  0
POLYLINE
  8
LAYER-1
 66
  1
 70
  1
 62
  0
 10
1.852559
 20
0.119495
 30
0.000000
  0
VERTEX
  8
LAYER-1
 10
1.852559
 20
0.119495
 30
0.000000
  0
VERTEX
  8
LAYER-1
 10
1.829988
 20
0.132517
 30
0.000000
  0
VERTEX
  8
LAYER-1
 10
1.850821
 20
0.102134
 30
0.000000
  0
SEQEND
  8
LAYER-1
  0
POLYLINE
  8
LAYER-1
 66
  1
 70
  1
 62
  0
 10
1.882416
 20
0.041922
 30
0.000000
  0
VERTEX
  8
LAYER-1
 10
1.882416
 20
0.041922
 30
0.000000
  0
VERTEX
  8
LAYER-1
 10
1.907589
 20
0.025428
 30
0.000000
  0
VERTEX
  8
LAYER-1
 10
1.915402
 20
0.040186
 30
0.000000
  0
SEQEND
  8
LAYER-1
  0
POLYLINE
  8
LAYER-1
 66
  1
 70
  0
 62
  0
 10
2.144926
 20
0.208568
 30
0.000000
  0
VERTEX
  8
LAYER-1
 10
2.144926
 20
0.208568
 30
0.000000
  0
VERTEX
  8
LAYER-1
 10
2.144926
 20
0.212908
 30
0.000000
  0
VERTEX
  8
LAYER-1
 10
2.140585
 20
0.216381
 30
0.000000
  0
VERTEX
  8
LAYER-1
 10
2.135377
 20
0.217249
 30
0.000000
  0
VERTEX
  8
LAYER-1
 10
2.131037
 20
0.215513
 30
0.000000
  0
VERTEX
  8
LAYER-1
 10
2.129301
 20
0.211171
 30
0.000000
  0
VERTEX
  8
LAYER-1
 10
2.129301
 20
0.206832
 30
0.000000
  0
VERTEX
  8
LAYER-1
 10
2.132772
 20
0.202492
 30
0.000000
  0
VERTEX
  8
LAYER-1
 10
2.137113
 20
0.202492
 30
0.000000
  0
VERTEX
  8
LAYER-1
 10
2.141454
 20
0.203359
 30
0.000000
  0
VERTEX
  8
LAYER-1
 10
2.144059
 20
0.207700
 30
0.000000
  0
SEQEND
  8
LAYER-1
  0
POLYLINE
  8
LAYER-1
 66
  1
 70
  1
 62
  0
 10
2.077218
 20
0.171243
 30
0.000000
  0
VERTEX
  8
LAYER-1
 10
2.077218
 20
0.171243
 30
0.000000
  0
VERTEX
  8
LAYER-1
 10
2.054647
 20
0.184263
 30
0.000000
  0
VERTEX
  8
LAYER-1
 10
2.075480
 20
0.153881
 30
0.000000
  0
SEQEND
  8
LAYER-1
  0
POLYLINE
  8
LAYER-1
 66
  1
 70
  1
 62
  0
 10
0.845979
 20
0.207866
 30
0.000000
  0
VERTEX
  8
LAYER-1
 10
0.845979
 20
0.207866
 30
0.000000
  0
VERTEX
  8
LAYER-1
 10
0.826615
 20
0.220553
 30
0.000000
  0
VERTEX
  8
LAYER-1
 10
0.820604
 20
0.209202
 30
0.000000
  0
SEQEND
  8
LAYER-1
  0
POLYLINE
  8
LAYER-1
 66
  1
 70
  0
 62
  0
 10
1.856897
 20
0.179392
 30
0.000000
  0
VERTEX
  8
LAYER-1
 10
1.856897
 20
0.179392
 30
0.000000
  0
VERTEX
  8
LAYER-1
 10
1.856897
 20
0.183731
 30
0.000000
  0
VERTEX
  8
LAYER-1
 10
1.852557
 20
0.187204
 30
0.000000
  0
VERTEX
  8
LAYER-1
 10
1.847349
 20
0.188071
 30
0.000000
  0
VERTEX
  8
LAYER-1
 10
1.843008
 20
0.186336
 30
0.000000
  0
VERTEX
  8
LAYER-1
 10
1.841272
 20
0.181995
 30
0.000000
  0
VERTEX
  8
LAYER-1
 10
1.841272
 20
0.177655
 30
0.000000
  0
VERTEX
  8
LAYER-1
 10
1.844744
 20
0.173314
 30
0.000000
  0
VERTEX
  8
LAYER-1
 10
1.849085
 20
0.173314
 30
0.000000
  0
VERTEX
  8
LAYER-1
 10
1.853426
 20
0.174182
 30
0.000000
  0
VERTEX
  8
LAYER-1
 10
1.856030
 20
0.178524
 30
0.000000
  0
SEQEND
  8
LAYER-1
  0
POLYLINE
  8
LAYER-1
 66
  1
 70
  0
 62
  0
 10
0.822876
 20
0.140859
 30
0.000000
  0
VERTEX
  8
LAYER-1
 10
0.822876
 20
0.140859
 30
0.000000
  0
VERTEX
  8
LAYER-1
 10
0.822876
 20
0.145200
 30
0.000000
  0
VERTEX
  8
LAYER-1
 10
0.818535
 20
0.148671
 30
0.000000
  0
VERTEX
  8
LAYER-1
 10
0.813328
 20
0.149540
 30
0.000000
  0
VERTEX
  8
LAYER-1
 10
0.808987
 20
0.147804
 30
0.000000
  0
VERTEX
  8
LAYER-1
 10
0.807251
 20
0.143463
 30
0.000000
  0
VERTEX
  8
LAYER-1
 10
0.807251
 20
0.139124
 30
0.000000
  0
VERTEX
  8
LAYER-1
 10
0.810723
 20
0.134783
 30
0.000000
  0
VERTEX
  8
LAYER-1
 10
0.815064
 20
0.134783
 30
0.000000
  0
VERTEX
  8
LAYER-1
 10
0.819404
 20
0.135651
 30
0.000000
  0
VERTEX
  8
LAYER-1
 10
0.822009
 20
0.139992
 30
0.000000
  0
SEQEND
  8
LAYER-1
  0
POLYLINE
  8
LAYER-1
 66
  1
 70
  0
 62
  0
 10
1.945272
 20
0.208565
 30
0.000000
  0
VERTEX
  8
LAYER-1
 10
1.945272
 20
0.208565
 30
0.000000
  0
VERTEX
  8
LAYER-1
 10
1.945272
 20
0.212906
 30
0.000000
  0
VERTEX
  8
LAYER-1
 10
1.940932
 20
0.216377
 30
0.000000
  0
VERTEX
  8
LAYER-1
 10
1.935724
 20
0.217245
 30
0.000000
  0
VERTEX
  8
LAYER-1
 10
1.931383
 20
0.215510
 30
0.000000
  0
VERTEX
  8
LAYER-1
 10
1.929647
 20
0.211169
 30
0.000000
  0
VERTEX
  8
LAYER-1
 10
1.929647
 20
0.206829
 30
0.000000
  0
VERTEX
  8
LAYER-1
 10
1.933119
 20
0.202488
 30
0.000000
  0
VERTEX
  8
LAYER-1
 10
1.937460
 20
0.202488
 30
0.000000
  0
VERTEX
  8
LAYER-1
 10
1.941801
 20
0.203356
 30
0.000000
  0
VERTEX
  8
LAYER-1
 10
1.944405
 20
0.207698
 30
0.000000
  0
SEQEND
  8
LAYER-1
  0
POLYLINE
  8
LAYER-1
 66
  1
 70
  1
 62
  0
 10
1.504560
 20
0.073100
 30
0.000000
  0
VERTEX
  8
LAYER-1
 10
1.504560
 20
0.073100
 30
0.000000
  0
VERTEX
  8
LAYER-1
 10
1.478518
 20
0.066155
 30
0.000000
  0
VERTEX
  8
LAYER-1
 10
1.492406
 20
0.040982
 30
0.000000
  0
SEQEND
  8
LAYER-1
  0
POLYLINE
  8
LAYER-1
 66
  1
 70
  1
 62
  0
 10
2.351088
 20
0.136520
 30
0.000000
  0
VERTEX
  8
LAYER-1
 10
2.351088
 20
0.136520
 30
0.000000
  0
VERTEX
  8
LAYER-1
 10
2.373658
 20
0.123500
 30
0.000000
  0
VERTEX
  8
LAYER-1
 10
2.352825
 20
0.153881
 30
0.000000
  0
SEQEND
  8
LAYER-1
  0
POLYLINE
  8
LAYER-1
 66
  1
 70
  1
 62
  0
 10
0.960462
 20
0.153447
 30
0.000000
  0
VERTEX
  8
LAYER-1
 10
0.960462
 20
0.153447
 30
0.000000
  0
VERTEX
  8
LAYER-1
 10
0.985636
 20
0.136954
 30
0.000000
  0
VERTEX
  8
LAYER-1
 10
0.993448
 20
0.151711
 30
0.000000
  0
SEQEND
  8
LAYER-1
  0
POLYLINE
  8
LAYER-1
 66
  1
 70
  0
 62
  0
 10
2.279040
 20
0.183393
 30
0.000000
  0
VERTEX
  8
LAYER-1
 10
2.279040
 20
0.183393
 30
0.000000
  0
VERTEX
  8
LAYER-1
 10
2.279040
 20
0.179052
 30
0.000000
  0
VERTEX
  8
LAYER-1
 10
2.283380
 20
0.175580
 30
0.000000
  0
VERTEX
  8
LAYER-1
 10
2.288588
 20
0.174712
 30
0.000000
  0
VERTEX
  8
LAYER-1
 10
2.292929
 20
0.176448
 30
0.000000
  0
VERTEX
  8
LAYER-1
 10
2.294665
 20
0.180789
 30
0.000000
  0
VERTEX
  8
LAYER-1
 10
2.294665
 20
0.185129
 30
0.000000
  0
VERTEX
  8
LAYER-1
 10
2.291193
 20
0.189469
 30
0.000000
  0
VERTEX
  8
LAYER-1
 10
2.286852
 20
0.189469
 30
0.000000
  0
VERTEX
  8
LAYER-1
 10
2.282511
 20
0.188601
 30
0.000000
  0
VERTEX
  8
LAYER-1
 10
2.279908
 20
0.184261
 30
0.000000
  0
SEQEND
  8
LAYER-1
  0
POLYLINE
  8
LAYER-1
 66
  1
 70
  1
 62
  0
 10
2.228692
 20
0.194679
 30
0.000000
  0
VERTEX
  8
LAYER-1
 10
2.228692
 20
0.194679
 30
0.000000
  0
VERTEX
  8
LAYER-1
 10
2.251261
 20
0.181658
 30
0.000000
  0
VERTEX
  8
LAYER-1
 10
2.230429
 20
0.212040
 30
0.000000
  0
SEQEND
  8
LAYER-1
  0
POLYLINE
  8
LAYER-1
 66
  1
 70
  1
 62
  0
 10
0.959060
 20
0.101197
 30
0.000000
  0
VERTEX
  8
LAYER-1
 10
0.959060
 20
0.101197
 30
0.000000
  0
VERTEX
  8
LAYER-1
 10
0.978425
 20
0.088510
 30
0.000000
  0
VERTEX
  8
LAYER-1
 10
0.984436
 20
0.099861
 30
0.000000
  0
SEQEND
  8
LAYER-1
  0
POLYLINE
  8
LAYER-1
 66
  1
 70
  0
 62
  0
 10
1.685202
 20
0.053482
 30
0.000000
  0
VERTEX
  8
LAYER-1
 10
1.685202
 20
0.053482
 30
0.000000
  0
VERTEX
  8
LAYER-1
 10
1.685202
 20
0.057821
 30
0.000000
  0
VERTEX
  8
LAYER-1
 10
1.680861
 20
0.061295
 30
0.000000
  0
VERTEX
  8
LAYER-1
 10
1.675654
 20
0.062163
 30
0.000000
  0
VERTEX
  8
LAYER-1
 10
1.671313
 20
0.060427
 30
0.000000
  0
VERTEX
  8
LAYER-1
 10
1.669577
 20
0.056086
 30
0.000000
  0
VERTEX
  8
LAYER-1
 10
1.669577
 20
0.051745
 30
0.000000
  0
VERTEX
  8
LAYER-1
 10
1.673049
 20
0.047406
 30
0.000000
  0
VERTEX
  8
LAYER-1
 10
1.677389
 20
0.047406
 30
0.000000
  0
VERTEX
  8
LAYER-1
 10
1.681730
 20
0.048274
 30
0.000000
  0
VERTEX
  8
LAYER-1
 10
1.684334
 20
0.052614
 30
0.000000
  0
SEQEND
  8
LAYER-1
  0
POLYLINE
  8
LAYER-1
 66
  1
 70
  0
 62
  0
 10
2.490845
 20
0.136520
 30
0.000000
  0
VERTEX
  8
LAYER-1
 10
2.490845
 20
0.136520
 30
0.000000
  0
VERTEX
  8
LAYER-1
 10
2.490845
 20
0.132180
 30
0.000000
  0
VERTEX
  8
LAYER-1
 10
2.495186
 20
0.128708
 30
0.000000
  0
VERTEX
  8
LAYER-1
 10
2.500394
 20
0.127840
 30
0.000000
  0
VERTEX
  8
LAYER-1
 10
2.504734
 20
0.129576
 30
0.000000
  0
VERTEX
  8
LAYER-1
 10
2.506470
 20
0.133915
 30
0.000000
  0
VERTEX
  8
LAYER-1
 10
2.506470
 20
0.138256
 30
0.000000
  0
VERTEX
  8
LAYER-1
 10
2.502998
 20
0.142597
 30
0.000000
  0
VERTEX
  8
LAYER-1
 10
2.498658
 20
0.142597
 30
0.000000
  0
VERTEX
  8
LAYER-1
 10
2.494317
 20
0.141728
 30
0.000000
  0
VERTEX
  8
LAYER-1
 10
2.491713
 20
0.137388
 30
0.000000
  0
SEQEND
  8
LAYER-1
  0
POLYLINE
  8
LAYER-1
 66
  1
 70
  0
 62
  0
 10
2.325047
 20
0.191208
 30
0.000000
  0
VERTEX
  8
LAYER-1
 10
2.325047
 20
0.191208
 30
0.000000
  0
VERTEX
  8
LAYER-1
 10
2.325047
 20
0.186868
 30
0.000000
  0
VERTEX
  8
LAYER-1
 10
2.329387
 20
0.183395
 30
0.000000
  0
VERTEX
  8
LAYER-1
 10
2.334595
 20
0.182527
 30
0.000000
  0
VERTEX
  8
LAYER-1
 10
2.338936
 20
0.184263
 30
0.000000
  0
VERTEX
  8
LAYER-1
 10
2.340672
 20
0.188603
 30
0.000000
  0
VERTEX
  8
LAYER-1
 10
2.340672
 20
0.192944
 30
0.000000
  0
VERTEX
  8
LAYER-1
 10
2.337200
 20
0.197284
 30
0.000000
  0
VERTEX
  8
LAYER-1
 10
2.332859
 20
0.197284
 30
0.000000
  0
VERTEX
  8
LAYER-1
 10
2.328519
 20
0.196415
 30
0.000000
  0
VERTEX
  8
LAYER-1
 10
2.325914
 20
0.192076
 30
0.000000
  0
SEQEND
  8
LAYER-1
  0
POLYLINE
  8
LAYER-1
 66
  1
 70
  1
 62
  0
 10
2.087200
 20
0.108309
 30
0.000000
  0
VERTEX
  8
LAYER-1
 10
2.087200
 20
0.108309
 30
0.000000
  0
VERTEX
  8
LAYER-1
 10
2.094144
 20
0.082269
 30
0.000000
  0
VERTEX
  8
LAYER-1
 10
2.119318
 20
0.096156
 30
0.000000
  0
SEQEND
  8
LAYER-1
  0
POLYLINE
  8
LAYER-1
 66
  1
 70
  1
 62
  0
 10
2.191714
 20
0.095551
 30
0.000000
  0
VERTEX
  8
LAYER-1
 10
2.191714
 20
0.095551
 30
0.000000
  0
VERTEX
  8
LAYER-1
 10
2.178693
 20
0.072980
 30
0.000000
  0
VERTEX
  8
LAYER-1
 10
2.209075
 20
0.093814
 30
0.000000
  0
SEQEND
  8
LAYER-1
  0
POLYLINE
  8
LAYER-1
 66
  1
 70
  1
 62
  0
 10
1.907679
 20
0.126006
 30
0.000000
  0
VERTEX
  8
LAYER-1
 10
1.907679
 20
0.126006
 30
0.000000
  0
VERTEX
  8
LAYER-1
 10
1.891186
 20
0.100833
 30
0.000000
  0
VERTEX
  8
LAYER-1
 10
1.905943
 20
0.093020
 30
0.000000
  0
SEQEND
  8
LAYER-1
  0
POLYLINE
  8
LAYER-1
 66
  1
 70
  0
 62
  0
 10
2.037721
 20
0.139559
 30
0.000000
  0
VERTEX
  8
LAYER-1
 10
2.037721
 20
0.139559
 30
0.000000
  0
VERTEX
  8
LAYER-1
 10
2.033380
 20
0.139559
 30
0.000000
  0
VERTEX
  8
LAYER-1
 10
2.029908
 20
0.135218
 30
0.000000
  0
VERTEX
  8
LAYER-1
 10
2.029041
 20
0.130011
 30
0.000000
  0
VERTEX
  8
LAYER-1
 10
2.030777
 20
0.125670
 30
0.000000
  0
VERTEX
  8
LAYER-1
 10
2.035117
 20
0.123934
 30
0.000000
  0
VERTEX
  8
LAYER-1
 10
2.039457
 20
0.123934
 30
0.000000
  0
VERTEX
  8
LAYER-1
 10
2.043798
 20
0.127406
 30
0.000000
  0
VERTEX
  8
LAYER-1
 10
2.043798
 20
0.131746
 30
0.000000
  0
VERTEX
  8
LAYER-1
 10
2.042930
 20
0.136087
 30
0.000000
  0
VERTEX
  8
LAYER-1
 10
2.038589
 20
0.138692
 30
0.000000
  0
SEQEND
  8
LAYER-1
  0
POLYLINE
  8
LAYER-1
 66
  1
 70
  1
 62
  0
 10
0.895359
 20
0.215947
 30
0.000000
  0
VERTEX
  8
LAYER-1
 10
0.895359
 20
0.215947
 30
0.000000
  0
VERTEX
  8
LAYER-1
 10
0.882338
 20
0.193376
 30
0.000000
  0
VERTEX
  8
LAYER-1
 10
0.912720
 20
0.214209
 30
0.000000
  0
SEQEND
  8
LAYER-1
  0
POLYLINE
  8
LAYER-1
 66
  1
 70
  1
 62
  0
 10
1.892755
 20
0.158656
 30
0.000000
  0
VERTEX
  8
LAYER-1
 10
1.892755
 20
0.158656
 30
0.000000
  0
VERTEX
  8
LAYER-1
 10
1.880069
 20
0.139292
 30
0.000000
  0
VERTEX
  8
LAYER-1
 10
1.891419
 20
0.133280
 30
0.000000
  0
SEQEND
  8
LAYER-1
  0
POLYLINE
  8
LAYER-1
 66
  1
 70
  0
 62
  0
 10
2.189630
 20
0.141295
 30
0.000000
  0
VERTEX
  8
LAYER-1
 10
2.189630
 20
0.141295
 30
0.000000
  0
VERTEX
  8
LAYER-1
 10
2.185291
 20
0.141295
 30
0.000000
  0
VERTEX
  8
LAYER-1
 10
2.181818
 20
0.136954
 30
0.000000
  0
VERTEX
  8
LAYER-1
 10
2.180950
 20
0.131746
 30
0.000000
  0
VERTEX
  8
LAYER-1
 10
2.182686
 20
0.127406
 30
0.000000
  0
VERTEX
  8
LAYER-1
 10
2.187027
 20
0.125670
 30
0.000000
  0
VERTEX
  8
LAYER-1
 10
2.191367
 20
0.125670
 30
0.000000
  0
VERTEX
  8
LAYER-1
 10
2.195707
 20
0.129142
 30
0.000000
  0
VERTEX
  8
LAYER-1
 10
2.195707
 20
0.133482
 30
0.000000
  0
VERTEX
  8
LAYER-1
 10
2.194839
 20
0.137823
 30
0.000000
  0
VERTEX
  8
LAYER-1
 10
2.190498
 20
0.140427
 30
0.000000
  0
SEQEND
  8
LAYER-1
  0
POLYLINE
  8
LAYER-1
 66
  1
 70
  0
 62
  0
 10
2.249527
 20
0.146502
 30
0.000000
  0
VERTEX
  8
LAYER-1
 10
2.249527
 20
0.146502
 30
0.000000
  0
VERTEX
  8
LAYER-1
 10
2.245186
 20
0.146502
 30
0.000000
  0
VERTEX
  8
LAYER-1
 10
2.241714
 20
0.142162
 30
0.000000
  0
VERTEX
  8
LAYER-1
 10
2.240846
 20
0.136954
 30
0.000000
  0
VERTEX
  8
LAYER-1
 10
2.242582
 20
0.132613
 30
0.000000
  0
VERTEX
  8
LAYER-1
 10
2.246923
 20
0.130877
 30
0.000000
  0
VERTEX
  8
LAYER-1
 10
2.251262
 20
0.130877
 30
0.000000
  0
VERTEX
  8
LAYER-1
 10
2.255603
 20
0.134349
 30
0.000000
  0
VERTEX
  8
LAYER-1
 10
2.255603
 20
0.138690
 30
0.000000
  0
VERTEX
  8
LAYER-1
 10
2.254735
 20
0.143031
 30
0.000000
  0
VERTEX
  8
LAYER-1
 10
2.250394
 20
0.145636
 30
0.000000
  0
SEQEND
  8
LAYER-1
  0
POLYLINE
  8
LAYER-1
 66
  1
 70
  0
 62
  0
 10
0.905775
 20
0.133481
 30
0.000000
  0
VERTEX
  8
LAYER-1
 10
0.905775
 20
0.133481
 30
0.000000
  0
VERTEX
  8
LAYER-1
 10
0.901435
 20
0.133481
 30
0.000000
  0
VERTEX
  8
LAYER-1
 10
0.897963
 20
0.129140
 30
0.000000
  0
VERTEX
  8
LAYER-1
 10
0.897095
 20
0.123933
 30
0.000000
  0
VERTEX
  8
LAYER-1
 10
0.898831
 20
0.119592
 30
0.000000
  0
VERTEX
  8
LAYER-1
 10
0.903172
 20
0.117856
 30
0.000000
  0
VERTEX
  8
LAYER-1
 10
0.907511
 20
0.117856
 30
0.000000
  0
VERTEX
  8
LAYER-1
 10
0.911852
 20
0.121328
 30
0.000000
  0
VERTEX
  8
LAYER-1
 10
0.911852
 20
0.125669
 30
0.000000
  0
VERTEX
  8
LAYER-1
 10
0.910984
 20
0.130009
 30
0.000000
  0
VERTEX
  8
LAYER-1
 10
0.906643
 20
0.132614
 30
0.000000
  0
SEQEND
  8
LAYER-1
  0
POLYLINE
  8
LAYER-1
 66
  1
 70
  1
 62
  0
 10
2.556818
 20
0.173412
 30
0.000000
  0
VERTEX
  8
LAYER-1
 10
2.556818
 20
0.173412
 30
0.000000
  0
VERTEX
  8
LAYER-1
 10
2.563762
 20
0.147370
 30
0.000000
  0
VERTEX
  8
LAYER-1
 10
2.588936
 20
0.161258
 30
0.000000
  0
SEQEND
  8
LAYER-1
  0
POLYLINE
  8
LAYER-1
 66
  1
 70
  1
 62
  0
 10
2.719144
 20
0.202058
 30
0.000000
  0
VERTEX
  8
LAYER-1
 10
2.719144
 20
0.202058
 30
0.000000
  0
VERTEX
  8
LAYER-1
 10
2.706123
 20
0.179488
 30
0.000000
  0
VERTEX
  8
LAYER-1
 10
2.736505
 20
0.200321
 30
0.000000
  0
SEQEND
  8
LAYER-1
  0
POLYLINE
  8
LAYER-1
 66
  1
 70
  1
 62
  0
 10
1.395359
 20
0.153013
 30
0.000000
  0
VERTEX
  8
LAYER-1
 10
1.395359
 20
0.153013
 30
0.000000
  0
VERTEX
  8
LAYER-1
 10
1.378866
 20
0.127838
 30
0.000000
  0
VERTEX
  8
LAYER-1
 10
1.393623
 20
0.120026
 30
0.000000
  0
SEQEND
  8
LAYER-1
  0
POLYLINE
  8
LAYER-1
 66
  1
 70
  0
 62
  0
 10
2.507339
 20
0.204662
 30
0.000000
  0
VERTEX
  8
LAYER-1
 10
2.507339
 20
0.204662
 30
0.000000
  0
VERTEX
  8
LAYER-1
 10
2.502998
 20
0.204662
 30
0.000000
  0
VERTEX
  8
LAYER-1
 10
2.499527
 20
0.200321
 30
0.000000
  0
VERTEX
  8
LAYER-1
 10
2.498658
 20
0.195113
 30
0.000000
  0
VERTEX
  8
LAYER-1
 10
2.500394
 20
0.190773
 30
0.000000
  0
VERTEX
  8
LAYER-1
 10
2.504734
 20
0.189037
 30
0.000000
  0
VERTEX
  8
LAYER-1
 10
2.509075
 20
0.189037
 30
0.000000
  0
VERTEX
  8
LAYER-1
 10
2.513416
 20
0.192508
 30
0.000000
  0
VERTEX
  8
LAYER-1
 10
2.513416
 20
0.196849
 30
0.000000
  0
VERTEX
  8
LAYER-1
 10
2.512547
 20
0.201190
 30
0.000000
  0
VERTEX
  8
LAYER-1
 10
2.508207
 20
0.203794
 30
0.000000
  0
SEQEND
  8
LAYER-1
  0
POLYLINE
  8
LAYER-1
 66
  1
 70
  1
 62
  0
 10
2.544666
 20
0.136953
 30
0.000000
  0
VERTEX
  8
LAYER-1
 10
2.544666
 20
0.136953
 30
0.000000
  0
VERTEX
  8
LAYER-1
 10
2.531644
 20
0.114383
 30
0.000000
  0
VERTEX
  8
LAYER-1
 10
2.562027
 20
0.135217
 30
0.000000
  0
SEQEND
  8
LAYER-1
  0
POLYLINE
  8
LAYER-1
 66
  1
 70
  1
 62
  0
 10
1.103591
 20
0.227325
 30
0.000000
  0
VERTEX
  8
LAYER-1
 10
1.103591
 20
0.227325
 30
0.000000
  0
VERTEX
  8
LAYER-1
 10
1.122956
 20
0.214639
 30
0.000000
  0
VERTEX
  8
LAYER-1
 10
1.128966
 20
0.225989
 30
0.000000
  0
SEQEND
  8
LAYER-1
  0
POLYLINE
  8
LAYER-1
 66
  1
 70
  0
 62
  0
 10
2.659248
 20
0.206398
 30
0.000000
  0
VERTEX
  8
LAYER-1
 10
2.659248
 20
0.206398
 30
0.000000
  0
VERTEX
  8
LAYER-1
 10
2.654908
 20
0.206398
 30
0.000000
  0
VERTEX
  8
LAYER-1
 10
2.651436
 20
0.202057
 30
0.000000
  0
VERTEX
  8
LAYER-1
 10
2.650568
 20
0.196849
 30
0.000000
  0
VERTEX
  8
LAYER-1
 10
2.652304
 20
0.192508
 30
0.000000
  0
VERTEX
  8
LAYER-1
 10
2.656644
 20
0.190773
 30
0.000000
  0
VERTEX
  8
LAYER-1
 10
2.660984
 20
0.190773
 30
0.000000
  0
VERTEX
  8
LAYER-1
 10
2.665325
 20
0.194244
 30
0.000000
  0
VERTEX
  8
LAYER-1
 10
2.665325
 20
0.198586
 30
0.000000
  0
VERTEX
  8
LAYER-1
 10
2.664457
 20
0.202926
 30
0.000000
  0
VERTEX
  8
LAYER-1
 10
2.660116
 20
0.205530
 30
0.000000
  0
SEQEND
  8
LAYER-1
  0
POLYLINE
  8
LAYER-1
 66
  1
 70
  0
 62
  0
 10
1.447442
 20
0.146936
 30
0.000000
  0
VERTEX
  8
LAYER-1
 10
1.447442
 20
0.146936
 30
0.000000
  0
VERTEX
  8
LAYER-1
 10
1.443102
 20
0.146936
 30
0.000000
  0
VERTEX
  8
LAYER-1
 10
1.439630
 20
0.142595
 30
0.000000
  0
VERTEX
  8
LAYER-1
 10
1.438762
 20
0.137388
 30
0.000000
  0
VERTEX
  8
LAYER-1
 10
1.440498
 20
0.133046
 30
0.000000
  0
VERTEX
  8
LAYER-1
 10
1.444837
 20
0.131311
 30
0.000000
  0
VERTEX
  8
LAYER-1
 10
1.449178
 20
0.131311
 30
0.000000
  0
VERTEX
  8
LAYER-1
 10
1.453518
 20
0.134783
 30
0.000000
  0
VERTEX
  8
LAYER-1
 10
1.453518
 20
0.139124
 30
0.000000
  0
VERTEX
  8
LAYER-1
 10
1.452650
 20
0.143464
 30
0.000000
  0
VERTEX
  8
LAYER-1
 10
1.448310
 20
0.146068
 30
0.000000
  0
SEQEND
  8
LAYER-1
  0
POLYLINE
  8
LAYER-1
 66
  1
 70
  0
 62
  0
 10
1.030775
 20
0.123499
 30
0.000000
  0
VERTEX
  8
LAYER-1
 10
1.030775
 20
0.123499
 30
0.000000
  0
VERTEX
  8
LAYER-1
 10
1.026434
 20
0.123499
 30
0.000000
  0
VERTEX
  8
LAYER-1
 10
1.022963
 20
0.119158
 30
0.000000
  0
VERTEX
  8
LAYER-1
 10
1.022095
 20
0.113950
 30
0.000000
  0
VERTEX
  8
LAYER-1
 10
1.023831
 20
0.109609
 30
0.000000
  0
VERTEX
  8
LAYER-1
 10
1.028170
 20
0.107874
 30
0.000000
  0
VERTEX
  8
LAYER-1
 10
1.032511
 20
0.107874
 30
0.000000
  0
VERTEX
  8
LAYER-1
 10
1.036851
 20
0.111345
 30
0.000000
  0
VERTEX
  8
LAYER-1
 10
1.036851
 20
0.115686
 30
0.000000
  0
VERTEX
  8
LAYER-1
 10
1.035983
 20
0.120026
 30
0.000000
  0
VERTEX
  8
LAYER-1
 10
1.031643
 20
0.122631
 30
0.000000
  0
SEQEND
  8
LAYER-1
  0
POLYLINE
  8
LAYER-1
 66
  1
 70
  1
 62
  0
 10
2.998658
 20
0.197717
 30
0.000000
  0
VERTEX
  8
LAYER-1
 10
2.998658
 20
0.197717
 30
0.000000
  0
VERTEX
  8
LAYER-1
 10
3.005602
 20
0.171677
 30
0.000000
  0
VERTEX
  8
LAYER-1
 10
3.030775
 20
0.185564
 30
0.000000
  0
SEQEND
  8
LAYER-1
  0
POLYLINE
  8
LAYER-1
 66
  1
 70
  1
 62
  0
 10
3.160984
 20
0.226364
 30
0.000000
  0
VERTEX
  8
LAYER-1
 10
3.160984
 20
0.226364
 30
0.000000
  0
VERTEX
  8
LAYER-1
 10
3.147963
 20
0.203794
 30
0.000000
  0
VERTEX
  8
LAYER-1
 10
3.178345
 20
0.224626
 30
0.000000
  0
SEQEND
  8
LAYER-1
  0
POLYLINE
  8
LAYER-1
 66
  1
 70
  1
 62
  0
 10
2.389283
 20
0.162127
 30
0.000000
  0
VERTEX
  8
LAYER-1
 10
2.389283
 20
0.162127
 30
0.000000
  0
VERTEX
  8
LAYER-1
 10
2.414456
 20
0.145633
 30
0.000000
  0
VERTEX
  8
LAYER-1
 10
2.422269
 20
0.160392
 30
0.000000
  0
SEQEND
  8
LAYER-1
  0
POLYLINE
  8
LAYER-1
 66
  1
 70
  0
 62
  0
 10
2.959595
 20
0.218552
 30
0.000000
  0
VERTEX
  8
LAYER-1
 10
2.959595
 20
0.218552
 30
0.000000
  0
VERTEX
  8
LAYER-1
 10
2.955254
 20
0.218552
 30
0.000000
  0
VERTEX
  8
LAYER-1
 10
2.951783
 20
0.214211
 30
0.000000
  0
VERTEX
  8
LAYER-1
 10
2.950915
 20
0.209003
 30
0.000000
  0
VERTEX
  8
LAYER-1
 10
2.952650
 20
0.204663
 30
0.000000
  0
VERTEX
  8
LAYER-1
 10
2.956991
 20
0.202927
 30
0.000000
  0
VERTEX
  8
LAYER-1
 10
2.961331
 20
0.202927
 30
0.000000
  0
VERTEX
  8
LAYER-1
 10
2.965672
 20
0.206399
 30
0.000000
  0
VERTEX
  8
LAYER-1
 10
2.965672
 20
0.210739
 30
0.000000
  0
VERTEX
  8
LAYER-1
 10
2.964804
 20
0.215080
 30
0.000000
  0
VERTEX
  8
LAYER-1
 10
2.960463
 20
0.217684
 30
0.000000
  0
SEQEND
  8
LAYER-1
  0
POLYLINE
  8
LAYER-1
 66
  1
 70
  1
 62
  0
 10
2.975221
 20
0.130009
 30
0.000000
  0
VERTEX
  8
LAYER-1
 10
2.975221
 20
0.130009
 30
0.000000
  0
VERTEX
  8
LAYER-1
 10
2.962200
 20
0.107439
 30
0.000000
  0
VERTEX
  8
LAYER-1
 10
2.992582
 20
0.128271
 30
0.000000
  0
SEQEND
  8
LAYER-1
  0
POLYLINE
  8
LAYER-1
 66
  1
 70
  1
 62
  0
 10
3.069671
 20
0.123596
 30
0.000000
  0
VERTEX
  8
LAYER-1
 10
3.069671
 20
0.123596
 30
0.000000
  0
VERTEX
  8
LAYER-1
 10
3.056985
 20
0.104233
 30
0.000000
  0
VERTEX
  8
LAYER-1
 10
3.068335
 20
0.098221
 30
0.000000
  0
SEQEND
  8
LAYER-1
  0
POLYLINE
  8
LAYER-1
 66
  1
 70
  0
 62
  0
 10
3.101088
 20
0.222892
 30
0.000000
  0
VERTEX
  8
LAYER-1
 10
3.101088
 20
0.222892
 30
0.000000
  0
VERTEX
  8
LAYER-1
 10
3.096748
 20
0.222892
 30
0.000000
  0
VERTEX
  8
LAYER-1
 10
3.093275
 20
0.218551
 30
0.000000
  0
VERTEX
  8
LAYER-1
 10
3.092408
 20
0.213343
 30
0.000000
  0
VERTEX
  8
LAYER-1
 10
3.094144
 20
0.209002
 30
0.000000
  0
VERTEX
  8
LAYER-1
 10
3.098484
 20
0.207267
 30
0.000000
  0
VERTEX
  8
LAYER-1
 10
3.102825
 20
0.207267
 30
0.000000
  0
VERTEX
  8
LAYER-1
 10
3.107165
 20
0.210738
 30
0.000000
  0
VERTEX
  8
LAYER-1
 10
3.107165
 20
0.215079
 30
0.000000
  0
VERTEX
  8
LAYER-1
 10
3.106297
 20
0.219420
 30
0.000000
  0
VERTEX
  8
LAYER-1
 10
3.101956
 20
0.222025
 30
0.000000
  0
SEQEND
  8
LAYER-1
  0
POLYLINE
  8
LAYER-1
 66
  1
 70
  0
 62
  0
 10
2.377999
 20
0.215079
 30
0.000000
  0
VERTEX
  8
LAYER-1
 10
2.377999
 20
0.215079
 30
0.000000
  0
VERTEX
  8
LAYER-1
 10
2.377999
 20
0.210738
 30
0.000000
  0
VERTEX
  8
LAYER-1
 10
2.382339
 20
0.207267
 30
0.000000
  0
VERTEX
  8
LAYER-1
 10
2.387547
 20
0.206398
 30
0.000000
  0
VERTEX
  8
LAYER-1
 10
2.391888
 20
0.208133
 30
0.000000
  0
VERTEX
  8
LAYER-1
 10
2.393624
 20
0.212474
 30
0.000000
  0
VERTEX
  8
LAYER-1
 10
2.393624
 20
0.216815
 30
0.000000
  0
VERTEX
  8
LAYER-1
 10
2.390152
 20
0.221156
 30
0.000000
  0
VERTEX
  8
LAYER-1
 10
2.385811
 20
0.221156
 30
0.000000
  0
VERTEX
  8
LAYER-1
 10
2.381471
 20
0.220287
 30
0.000000
  0
VERTEX
  8
LAYER-1
 10
2.378866
 20
0.215946
 30
0.000000
  0
SEQEND
  8
LAYER-1
  0
POLYLINE
  8
LAYER-1
 66
  1
 70
  0
 62
  0
 10
2.941365
 20
0.130875
 30
0.000000
  0
VERTEX
  8
LAYER-1
 10
2.941365
 20
0.130875
 30
0.000000
  0
VERTEX
  8
LAYER-1
 10
2.937025
 20
0.130875
 30
0.000000
  0
VERTEX
  8
LAYER-1
 10
2.933553
 20
0.126535
 30
0.000000
  0
VERTEX
  8
LAYER-1
 10
2.932685
 20
0.121327
 30
0.000000
  0
VERTEX
  8
LAYER-1
 10
2.934421
 20
0.116987
 30
0.000000
  0
VERTEX
  8
LAYER-1
 10
2.938761
 20
0.115250
 30
0.000000
  0
VERTEX
  8
LAYER-1
 10
2.943101
 20
0.115250
 30
0.000000
  0
VERTEX
  8
LAYER-1
 10
2.947442
 20
0.118723
 30
0.000000
  0
VERTEX
  8
LAYER-1
 10
2.947442
 20
0.123063
 30
0.000000
  0
VERTEX
  8
LAYER-1
 10
2.946574
 20
0.127404
 30
0.000000
  0
VERTEX
  8
LAYER-1
 10
2.942233
 20
0.130008
 30
0.000000
  0
SEQEND
  8
LAYER-1
  0
POLYLINE
  8
LAYER-1
 66
  1
 70
  1
 62
  0
 10
2.808555
 20
0.119158
 30
0.000000
  0
VERTEX
  8
LAYER-1
 10
2.808555
 20
0.119158
 30
0.000000
  0
VERTEX
  8
LAYER-1
 10
2.782512
 20
0.112214
 30
0.000000
  0
VERTEX
  8
LAYER-1
 10
2.796402
 20
0.087040
 30
0.000000
  0
SEQEND
  8
LAYER-1
  0
POLYLINE
  8
LAYER-1
 66
  1
 70
  1
 62
  0
 10
1.431818
 20
0.093551
 30
0.000000
  0
VERTEX
  8
LAYER-1
 10
1.431818
 20
0.093551
 30
0.000000
  0
VERTEX
  8
LAYER-1
 10
1.406643
 20
0.110044
 30
0.000000
  0
VERTEX
  8
LAYER-1
 10
1.398831
 20
0.095287
 30
0.000000
  0
SEQEND
  8
LAYER-1
  0
POLYLINE
  8
LAYER-1
 66
  1
 70
  0
 62
  0
 10
2.839805
 20
0.168638
 30
0.000000
  0
VERTEX
  8
LAYER-1
 10
2.839805
 20
0.168638
 30
0.000000
  0
VERTEX
  8
LAYER-1
 10
2.839805
 20
0.172978
 30
0.000000
  0
VERTEX
  8
LAYER-1
 10
2.835464
 20
0.176450
 30
0.000000
  0
VERTEX
  8
LAYER-1
 10
2.830256
 20
0.177318
 30
0.000000
  0
VERTEX
  8
LAYER-1
 10
2.825916
 20
0.175582
 30
0.000000
  0
VERTEX
  8
LAYER-1
 10
2.824180
 20
0.171242
 30
0.000000
  0
VERTEX
  8
LAYER-1
 10
2.824180
 20
0.166901
 30
0.000000
  0
VERTEX
  8
LAYER-1
 10
2.827652
 20
0.162562
 30
0.000000
  0
VERTEX
  8
LAYER-1
 10
2.831992
 20
0.162562
 30
0.000000
  0
VERTEX
  8
LAYER-1
 10
2.836333
 20
0.163429
 30
0.000000
  0
VERTEX
  8
LAYER-1
 10
2.838936
 20
0.167770
 30
0.000000
  0
SEQEND
  8
LAYER-1
  0
POLYLINE
  8
LAYER-1
 66
  1
 70
  1
 62
  0
 10
2.772095
 20
0.131312
 30
0.000000
  0
VERTEX
  8
LAYER-1
 10
2.772095
 20
0.131312
 30
0.000000
  0
VERTEX
  8
LAYER-1
 10
2.749527
 20
0.144332
 30
0.000000
  0
VERTEX
  8
LAYER-1
 10
2.770359
 20
0.113950
 30
0.000000
  0
SEQEND
  8
LAYER-1
  0
POLYLINE
  8
LAYER-1
 66
  1
 70
  1
 62
  0
 10
1.509609
 20
0.112814
 30
0.000000
  0
VERTEX
  8
LAYER-1
 10
1.509609
 20
0.112814
 30
0.000000
  0
VERTEX
  8
LAYER-1
 10
1.490243
 20
0.125501
 30
0.000000
  0
VERTEX
  8
LAYER-1
 10
1.484234
 20
0.114149
 30
0.000000
  0
SEQEND
  8
LAYER-1
  0
POLYLINE
  8
LAYER-1
 66
  1
 70
  0
 62
  0
 10
1.569839
 20
0.101363
 30
0.000000
  0
VERTEX
  8
LAYER-1
 10
1.569839
 20
0.101363
 30
0.000000
  0
VERTEX
  8
LAYER-1
 10
1.569839
 20
0.105703
 30
0.000000
  0
VERTEX
  8
LAYER-1
 10
1.565498
 20
0.109176
 30
0.000000
  0
VERTEX
  8
LAYER-1
 10
1.560291
 20
0.110044
 30
0.000000
  0
VERTEX
  8
LAYER-1
 10
1.555950
 20
0.108308
 30
0.000000
  0
VERTEX
  8
LAYER-1
 10
1.554214
 20
0.103967
 30
0.000000
  0
VERTEX
  8
LAYER-1
 10
1.554214
 20
0.099626
 30
0.000000
  0
VERTEX
  8
LAYER-1
 10
1.557686
 20
0.095287
 30
0.000000
  0
VERTEX
  8
LAYER-1
 10
1.562026
 20
0.095287
 30
0.000000
  0
VERTEX
  8
LAYER-1
 10
1.566367
 20
0.096155
 30
0.000000
  0
VERTEX
  8
LAYER-1
 10
1.568970
 20
0.100495
 30
0.000000
  0
SEQEND
  8
LAYER-1
  0
POLYLINE
  8
LAYER-1
 66
  1
 70
  0
 62
  0
 10
2.689631
 20
0.120895
 30
0.000000
  0
VERTEX
  8
LAYER-1
 10
2.689631
 20
0.120895
 30
0.000000
  0
VERTEX
  8
LAYER-1
 10
2.689631
 20
0.125236
 30
0.000000
  0
VERTEX
  8
LAYER-1
 10
2.685291
 20
0.128707
 30
0.000000
  0
VERTEX
  8
LAYER-1
 10
2.680083
 20
0.129575
 30
0.000000
  0
VERTEX
  8
LAYER-1
 10
2.675742
 20
0.127839
 30
0.000000
  0
VERTEX
  8
LAYER-1
 10
2.674006
 20
0.123500
 30
0.000000
  0
VERTEX
  8
LAYER-1
 10
2.674006
 20
0.119158
 30
0.000000
  0
VERTEX
  8
LAYER-1
 10
2.677478
 20
0.114818
 30
0.000000
  0
VERTEX
  8
LAYER-1
 10
2.681819
 20
0.114818
 30
0.000000
  0
VERTEX
  8
LAYER-1
 10
2.686160
 20
0.115687
 30
0.000000
  0
VERTEX
  8
LAYER-1
 10
2.688762
 20
0.120026
 30
0.000000
  0
SEQEND
  8
LAYER-1
  0
POLYLINE
  8
LAYER-1
 66
  1
 70
  1
 62
  0
 10
2.882339
 20
0.122198
 30
0.000000
  0
VERTEX
  8
LAYER-1
 10
2.882339
 20
0.122198
 30
0.000000
  0
VERTEX
  8
LAYER-1
 10
2.875394
 20
0.148238
 30
0.000000
  0
VERTEX
  8
LAYER-1
 10
2.850221
 20
0.134351
 30
0.000000
  0
SEQEND
  8
LAYER-1
  0
POLYLINE
  8
LAYER-1
 66
  1
 70
  1
 62
  0
 10
2.329387
 20
0.109176
 30
0.000000
  0
VERTEX
  8
LAYER-1
 10
2.329387
 20
0.109176
 30
0.000000
  0
VERTEX
  8
LAYER-1
 10
2.306817
 20
0.122198
 30
0.000000
  0
VERTEX
  8
LAYER-1
 10
2.327650
 20
0.091815
 30
0.000000
  0
SEQEND
  8
LAYER-1
  0
POLYLINE
  8
LAYER-1
 66
  1
 70
  1
 62
  0
 10
3.107166
 20
0.133482
 30
0.000000
  0
VERTEX
  8
LAYER-1
 10
3.107166
 20
0.133482
 30
0.000000
  0
VERTEX
  8
LAYER-1
 10
3.123658
 20
0.158656
 30
0.000000
  0
VERTEX
  8
LAYER-1
 10
3.108902
 20
0.166468
 30
0.000000
  0
SEQEND
  8
LAYER-1
  0
POLYLINE
  8
LAYER-1
 66
  1
 70
  0
 62
  0
 10
3.242582
 20
0.101362
 30
0.000000
  0
VERTEX
  8
LAYER-1
 10
3.242582
 20
0.101362
 30
0.000000
  0
VERTEX
  8
LAYER-1
 10
3.246922
 20
0.101362
 30
0.000000
  0
VERTEX
  8
LAYER-1
 10
3.250394
 20
0.105702
 30
0.000000
  0
VERTEX
  8
LAYER-1
 10
3.251262
 20
0.110910
 30
0.000000
  0
VERTEX
  8
LAYER-1
 10
3.249526
 20
0.115250
 30
0.000000
  0
VERTEX
  8
LAYER-1
 10
3.245185
 20
0.116987
 30
0.000000
  0
VERTEX
  8
LAYER-1
 10
3.240846
 20
0.116987
 30
0.000000
  0
VERTEX
  8
LAYER-1
 10
3.236505
 20
0.113514
 30
0.000000
  0
VERTEX
  8
LAYER-1
 10
3.236505
 20
0.109174
 30
0.000000
  0
VERTEX
  8
LAYER-1
 10
3.237373
 20
0.104833
 30
0.000000
  0
VERTEX
  8
LAYER-1
 10
3.241714
 20
0.102229
 30
0.000000
  0
SEQEND
  8
LAYER-1
  0
POLYLINE
  8
LAYER-1
 66
  1
 70
  1
 62
  0
 10
2.894491
 20
0.158656
 30
0.000000
  0
VERTEX
  8
LAYER-1
 10
2.894491
 20
0.158656
 30
0.000000
  0
VERTEX
  8
LAYER-1
 10
2.907512
 20
0.181226
 30
0.000000
  0
VERTEX
  8
LAYER-1
 10
2.877130
 20
0.160394
 30
0.000000
  0
SEQEND
  8
LAYER-1
  0
POLYLINE
  8
LAYER-1
 66
  1
 70
  1
 62
  0
 10
3.148130
 20
0.109511
 30
0.000000
  0
VERTEX
  8
LAYER-1
 10
3.148130
 20
0.109511
 30
0.000000
  0
VERTEX
  8
LAYER-1
 10
3.160817
 20
0.128875
 30
0.000000
  0
VERTEX
  8
LAYER-1
 10
3.149466
 20
0.134887
 30
0.000000
  0
SEQEND
  8
LAYER-1
  0
POLYLINE
  8
LAYER-1
 66
  1
 70
  0
 62
  0
 10
2.469143
 20
0.169073
 30
0.000000
  0
VERTEX
  8
LAYER-1
 10
2.469143
 20
0.169073
 30
0.000000
  0
VERTEX
  8
LAYER-1
 10
2.469143
 20
0.173412
 30
0.000000
  0
VERTEX
  8
LAYER-1
 10
2.464802
 20
0.176886
 30
0.000000
  0
VERTEX
  8
LAYER-1
 10
2.459595
 20
0.177752
 30
0.000000
  0
VERTEX
  8
LAYER-1
 10
2.455254
 20
0.176017
 30
0.000000
  0
VERTEX
  8
LAYER-1
 10
2.453518
 20
0.171676
 30
0.000000
  0
VERTEX
  8
LAYER-1
 10
2.453518
 20
0.167336
 30
0.000000
  0
VERTEX
  8
LAYER-1
 10
2.456990
 20
0.162996
 30
0.000000
  0
VERTEX
  8
LAYER-1
 10
2.461330
 20
0.162996
 30
0.000000
  0
VERTEX
  8
LAYER-1
 10
2.465671
 20
0.163863
 30
0.000000
  0
VERTEX
  8
LAYER-1
 10
2.468276
 20
0.168204
 30
0.000000
  0
SEQEND
  8
LAYER-1
  0
POLYLINE
  8
LAYER-1
 66
  1
 70
  0
 62
  0
 10
3.055082
 20
0.139559
 30
0.000000
  0
VERTEX
  8
LAYER-1
 10
3.055082
 20
0.139559
 30
0.000000
  0
VERTEX
  8
LAYER-1
 10
3.059423
 20
0.139559
 30
0.000000
  0
VERTEX
  8
LAYER-1
 10
3.062894
 20
0.143900
 30
0.000000
  0
VERTEX
  8
LAYER-1
 10
3.063762
 20
0.149107
 30
0.000000
  0
VERTEX
  8
LAYER-1
 10
3.062027
 20
0.153448
 30
0.000000
  0
VERTEX
  8
LAYER-1
 10
3.057686
 20
0.155184
 30
0.000000
  0
VERTEX
  8
LAYER-1
 10
3.053346
 20
0.155184
 30
0.000000
  0
VERTEX
  8
LAYER-1
 10
3.049005
 20
0.151712
 30
0.000000
  0
VERTEX
  8
LAYER-1
 10
3.049005
 20
0.147371
 30
0.000000
  0
VERTEX
  8
LAYER-1
 10
3.049873
 20
0.143031
 30
0.000000
  0
VERTEX
  8
LAYER-1
 10
3.054214
 20
0.140426
 30
0.000000
  0
SEQEND
  8
LAYER-1
  0
POLYLINE
  8
LAYER-1
 66
  1
 70
  0
 62
  0
 10
3.219145
 20
0.147371
 30
0.000000
  0
VERTEX
  8
LAYER-1
 10
3.219145
 20
0.147371
 30
0.000000
  0
VERTEX
  8
LAYER-1
 10
3.223485
 20
0.147371
 30
0.000000
  0
VERTEX
  8
LAYER-1
 10
3.226957
 20
0.151712
 30
0.000000
  0
VERTEX
  8
LAYER-1
 10
3.227825
 20
0.156920
 30
0.000000
  0
VERTEX
  8
LAYER-1
 10
3.226089
 20
0.161261
 30
0.000000
  0
VERTEX
  8
LAYER-1
 10
3.221748
 20
0.162996
 30
0.000000
  0
VERTEX
  8
LAYER-1
 10
3.217408
 20
0.162996
 30
0.000000
  0
VERTEX
  8
LAYER-1
 10
3.213068
 20
0.159525
 30
0.000000
  0
VERTEX
  8
LAYER-1
 10
3.213068
 20
0.155184
 30
0.000000
  0
VERTEX
  8
LAYER-1
 10
3.213936
 20
0.150843
 30
0.000000
  0
VERTEX
  8
LAYER-1
 10
3.218277
 20
0.148238
 30
0.000000
  0
SEQEND
  8
LAYER-1
  0
POLYLINE
  8
LAYER-1
 66
  1
 70
  1
 62
  0
 10
3.626262
 20
0.145636
 30
0.000000
  0
VERTEX
  8
LAYER-1
 10
3.626262
 20
0.145636
 30
0.000000
  0
VERTEX
  8
LAYER-1
 10
3.633205
 20
0.119594
 30
0.000000
  0
VERTEX
  8
LAYER-1
 10
3.658379
 20
0.133482
 30
0.000000
  0
SEQEND
  8
LAYER-1
  0
POLYLINE
  8
LAYER-1
 66
  1
 70
  1
 62
  0
 10
3.792494
 20
0.099628
 30
0.000000
  0
VERTEX
  8
LAYER-1
 10
3.792494
 20
0.099628
 30
0.000000
  0
VERTEX
  8
LAYER-1
 10
3.779473
 20
0.077059
 30
0.000000
  0
VERTEX
  8
LAYER-1
 10
3.809856
 20
0.097892
 30
0.000000
  0
SEQEND
  8
LAYER-1
  0
POLYLINE
  8
LAYER-1
 66
  1
 70
  1
 62
  0
 10
3.677476
 20
0.189902
 30
0.000000
  0
VERTEX
  8
LAYER-1
 10
3.677476
 20
0.189902
 30
0.000000
  0
VERTEX
  8
LAYER-1
 10
3.660984
 20
0.164729
 30
0.000000
  0
VERTEX
  8
LAYER-1
 10
3.675740
 20
0.156916
 30
0.000000
  0
SEQEND
  8
LAYER-1
  0
POLYLINE
  8
LAYER-1
 66
  1
 70
  0
 62
  0
 10
3.592408
 20
0.176886
 30
0.000000
  0
VERTEX
  8
LAYER-1
 10
3.592408
 20
0.176886
 30
0.000000
  0
VERTEX
  8
LAYER-1
 10
3.588067
 20
0.176886
 30
0.000000
  0
VERTEX
  8
LAYER-1
 10
3.584595
 20
0.172545
 30
0.000000
  0
VERTEX
  8
LAYER-1
 10
3.583726
 20
0.167337
 30
0.000000
  0
VERTEX
  8
LAYER-1
 10
3.585463
 20
0.162996
 30
0.000000
  0
VERTEX
  8
LAYER-1
 10
3.589803
 20
0.161261
 30
0.000000
  0
VERTEX
  8
LAYER-1
 10
3.594143
 20
0.161261
 30
0.000000
  0
VERTEX
  8
LAYER-1
 10
3.598483
 20
0.164732
 30
0.000000
  0
VERTEX
  8
LAYER-1
 10
3.598483
 20
0.169073
 30
0.000000
  0
VERTEX
  8
LAYER-1
 10
3.597615
 20
0.173414
 30
0.000000
  0
VERTEX
  8
LAYER-1
 10
3.593275
 20
0.176018
 30
0.000000
  0
SEQEND
  8
LAYER-1
  0
POLYLINE
  8
LAYER-1
 66
  1
 70
  1
 62
  0
 10
3.575914
 20
0.116987
 30
0.000000
  0
VERTEX
  8
LAYER-1
 10
3.575914
 20
0.116987
 30
0.000000
  0
VERTEX
  8
LAYER-1
 10
3.562894
 20
0.094418
 30
0.000000
  0
VERTEX
  8
LAYER-1
 10
3.593275
 20
0.115250
 30
0.000000
  0
SEQEND
  8
LAYER-1
  0
POLYLINE
  8
LAYER-1
 66
  1
 70
  1
 62
  0
 10
3.631369
 20
0.215341
 30
0.000000
  0
VERTEX
  8
LAYER-1
 10
3.631369
 20
0.215341
 30
0.000000
  0
VERTEX
  8
LAYER-1
 10
3.650734
 20
0.202654
 30
0.000000
  0
VERTEX
  8
LAYER-1
 10
3.656744
 20
0.214005
 30
0.000000
  0
SEQEND
  8
LAYER-1
  0
POLYLINE
  8
LAYER-1
 66
  1
 70
  0
 62
  0
 10
3.516017
 20
0.166590
 30
0.000000
  0
VERTEX
  8
LAYER-1
 10
3.516017
 20
0.166590
 30
0.000000
  0
VERTEX
  8
LAYER-1
 10
3.511678
 20
0.166590
 30
0.000000
  0
VERTEX
  8
LAYER-1
 10
3.508205
 20
0.162249
 30
0.000000
  0
VERTEX
  8
LAYER-1
 10
3.507338
 20
0.157042
 30
0.000000
  0
VERTEX
  8
LAYER-1
 10
3.509074
 20
0.152701
 30
0.000000
  0
VERTEX
  8
LAYER-1
 10
3.513414
 20
0.150965
 30
0.000000
  0
VERTEX
  8
LAYER-1
 10
3.517754
 20
0.150965
 30
0.000000
  0
VERTEX
  8
LAYER-1
 10
3.522094
 20
0.154437
 30
0.000000
  0
VERTEX
  8
LAYER-1
 10
3.522094
 20
0.158778
 30
0.000000
  0
VERTEX
  8
LAYER-1
 10
3.521226
 20
0.163118
 30
0.000000
  0
VERTEX
  8
LAYER-1
 10
3.516886
 20
0.165722
 30
0.000000
  0
SEQEND
  8
LAYER-1
  0
POLYLINE
  8
LAYER-1
 66
  1
 70
  0
 62
  0
 10
3.892756
 20
0.138686
 30
0.000000
  0
VERTEX
  8
LAYER-1
 10
3.892756
 20
0.138686
 30
0.000000
  0
VERTEX
  8
LAYER-1
 10
3.888416
 20
0.138686
 30
0.000000
  0
VERTEX
  8
LAYER-1
 10
3.884943
 20
0.134345
 30
0.000000
  0
VERTEX
  8
LAYER-1
 10
3.884076
 20
0.129138
 30
0.000000
  0
VERTEX
  8
LAYER-1
 10
3.885811
 20
0.124797
 30
0.000000
  0
VERTEX
  8
LAYER-1
 10
3.890152
 20
0.123061
 30
0.000000
  0
VERTEX
  8
LAYER-1
 10
3.894492
 20
0.123061
 30
0.000000
  0
VERTEX
  8
LAYER-1
 10
3.898833
 20
0.126533
 30
0.000000
  0
VERTEX
  8
LAYER-1
 10
3.898833
 20
0.130874
 30
0.000000
  0
VERTEX
  8
LAYER-1
 10
3.897964
 20
0.135214
 30
0.000000
  0
VERTEX
  8
LAYER-1
 10
3.893624
 20
0.137818
 30
0.000000
  0
SEQEND
  8
LAYER-1
  0
POLYLINE
  8
LAYER-1
 66
  1
 70
  0
 62
  0
 10
3.624525
 20
0.110043
 30
0.000000
  0
VERTEX
  8
LAYER-1
 10
3.624525
 20
0.110043
 30
0.000000
  0
VERTEX
  8
LAYER-1
 10
3.620185
 20
0.110043
 30
0.000000
  0
VERTEX
  8
LAYER-1
 10
3.616713
 20
0.105702
 30
0.000000
  0
VERTEX
  8
LAYER-1
 10
3.615845
 20
0.100494
 30
0.000000
  0
VERTEX
  8
LAYER-1
 10
3.617580
 20
0.096154
 30
0.000000
  0
VERTEX
  8
LAYER-1
 10
3.621921
 20
0.094418
 30
0.000000
  0
VERTEX
  8
LAYER-1
 10
3.626261
 20
0.094418
 30
0.000000
  0
VERTEX
  8
LAYER-1
 10
3.630602
 20
0.097889
 30
0.000000
  0
VERTEX
  8
LAYER-1
 10
3.630602
 20
0.102230
 30
0.000000
  0
VERTEX
  8
LAYER-1
 10
3.629734
 20
0.106571
 30
0.000000
  0
VERTEX
  8
LAYER-1
 10
3.625393
 20
0.109175
 30
0.000000
  0
SEQEND
  8
LAYER-1
  0
POLYLINE
  8
LAYER-1
 66
  1
 70
  1
 62
  0
 10
3.422703
 20
0.169506
 30
0.000000
  0
VERTEX
  8
LAYER-1
 10
3.422703
 20
0.169506
 30
0.000000
  0
VERTEX
  8
LAYER-1
 10
3.396662
 20
0.162562
 30
0.000000
  0
VERTEX
  8
LAYER-1
 10
3.410550
 20
0.137388
 30
0.000000
  0
SEQEND
  8
LAYER-1
  0
POLYLINE
  8
LAYER-1
 66
  1
 70
  1
 62
  0
 10
3.329822
 20
0.118290
 30
0.000000
  0
VERTEX
  8
LAYER-1
 10
3.329822
 20
0.118290
 30
0.000000
  0
VERTEX
  8
LAYER-1
 10
3.307251
 20
0.131312
 30
0.000000
  0
VERTEX
  8
LAYER-1
 10
3.328084
 20
0.100930
 30
0.000000
  0
SEQEND
  8
LAYER-1
  0
POLYLINE
  8
LAYER-1
 66
  1
 70
  1
 62
  0
 10
3.293363
 20
0.163427
 30
0.000000
  0
VERTEX
  8
LAYER-1
 10
3.293363
 20
0.163427
 30
0.000000
  0
VERTEX
  8
LAYER-1
 10
3.268189
 20
0.179920
 30
0.000000
  0
VERTEX
  8
LAYER-1
 10
3.260377
 20
0.165163
 30
0.000000
  0
SEQEND
  8
LAYER-1
  0
POLYLINE
  8
LAYER-1
 66
  1
 70
  0
 62
  0
 10
3.453953
 20
0.218986
 30
0.000000
  0
VERTEX
  8
LAYER-1
 10
3.453953
 20
0.218986
 30
0.000000
  0
VERTEX
  8
LAYER-1
 10
3.453953
 20
0.223326
 30
0.000000
  0
VERTEX
  8
LAYER-1
 10
3.449612
 20
0.226798
 30
0.000000
  0
VERTEX
  8
LAYER-1
 10
3.444405
 20
0.227665
 30
0.000000
  0
VERTEX
  8
LAYER-1
 10
3.440064
 20
0.225930
 30
0.000000
  0
VERTEX
  8
LAYER-1
 10
3.438328
 20
0.221589
 30
0.000000
  0
VERTEX
  8
LAYER-1
 10
3.438328
 20
0.217250
 30
0.000000
  0
VERTEX
  8
LAYER-1
 10
3.441800
 20
0.212908
 30
0.000000
  0
VERTEX
  8
LAYER-1
 10
3.446140
 20
0.212908
 30
0.000000
  0
VERTEX
  8
LAYER-1
 10
3.450481
 20
0.213776
 30
0.000000
  0
VERTEX
  8
LAYER-1
 10
3.453086
 20
0.218118
 30
0.000000
  0
SEQEND
  8
LAYER-1
  0
POLYLINE
  8
LAYER-1
 66
  1
 70
  1
 62
  0
 10
3.386245
 20
0.181658
 30
0.000000
  0
VERTEX
  8
LAYER-1
 10
3.386245
 20
0.181658
 30
0.000000
  0
VERTEX
  8
LAYER-1
 10
3.363675
 20
0.194680
 30
0.000000
  0
VERTEX
  8
LAYER-1
 10
3.384507
 20
0.164298
 30
0.000000
  0
SEQEND
  8
LAYER-1
  0
POLYLINE
  8
LAYER-1
 66
  1
 70
  1
 62
  0
 10
3.337899
 20
0.188700
 30
0.000000
  0
VERTEX
  8
LAYER-1
 10
3.337899
 20
0.188700
 30
0.000000
  0
VERTEX
  8
LAYER-1
 10
3.325213
 20
0.169336
 30
0.000000
  0
VERTEX
  8
LAYER-1
 10
3.336563
 20
0.163325
 30
0.000000
  0
SEQEND
  8
LAYER-1
  0
POLYLINE
  8
LAYER-1
 66
  1
 70
  0
 62
  0
 10
3.455689
 20
0.091381
 30
0.000000
  0
VERTEX
  8
LAYER-1
 10
3.455689
 20
0.091381
 30
0.000000
  0
VERTEX
  8
LAYER-1
 10
3.455689
 20
0.095720
 30
0.000000
  0
VERTEX
  8
LAYER-1
 10
3.451348
 20
0.099193
 30
0.000000
  0
VERTEX
  8
LAYER-1
 10
3.446140
 20
0.100061
 30
0.000000
  0
VERTEX
  8
LAYER-1
 10
3.441800
 20
0.098325
 30
0.000000
  0
VERTEX
  8
LAYER-1
 10
3.440064
 20
0.093984
 30
0.000000
  0
VERTEX
  8
LAYER-1
 10
3.440064
 20
0.089644
 30
0.000000
  0
VERTEX
  8
LAYER-1
 10
3.443536
 20
0.085304
 30
0.000000
  0
VERTEX
  8
LAYER-1
 10
3.447876
 20
0.085304
 30
0.000000
  0
VERTEX
  8
LAYER-1
 10
3.452217
 20
0.086171
 30
0.000000
  0
VERTEX
  8
LAYER-1
 10
3.454822
 20
0.090513
 30
0.000000
  0
SEQEND
  8
LAYER-1
  0
POLYLINE
  8
LAYER-1
 66
  1
 70
  0
 62
  0
 10
3.374092
 20
0.092249
 30
0.000000
  0
VERTEX
  8
LAYER-1
 10
3.374092
 20
0.092249
 30
0.000000
  0
VERTEX
  8
LAYER-1
 10
3.374092
 20
0.096589
 30
0.000000
  0
VERTEX
  8
LAYER-1
 10
3.369751
 20
0.100061
 30
0.000000
  0
VERTEX
  8
LAYER-1
 10
3.364543
 20
0.100929
 30
0.000000
  0
VERTEX
  8
LAYER-1
 10
3.360202
 20
0.099193
 30
0.000000
  0
VERTEX
  8
LAYER-1
 10
3.358467
 20
0.094852
 30
0.000000
  0
VERTEX
  8
LAYER-1
 10
3.358467
 20
0.090513
 30
0.000000
  0
VERTEX
  8
LAYER-1
 10
3.361938
 20
0.086171
 30
0.000000
  0
VERTEX
  8
LAYER-1
 10
3.366279
 20
0.086171
 30
0.000000
  0
VERTEX
  8
LAYER-1
 10
3.370620
 20
0.087040
 30
0.000000
  0
VERTEX
  8
LAYER-1
 10
3.373224
 20
0.091381
 30
0.000000
  0
SEQEND
  8
LAYER-1
  0
POLYLINE
  8
LAYER-1
 66
  1
 70
  0
 62
  0
 10
3.303780
 20
0.202492
 30
0.000000
  0
VERTEX
  8
LAYER-1
 10
3.303780
 20
0.202492
 30
0.000000
  0
VERTEX
  8
LAYER-1
 10
3.303780
 20
0.206832
 30
0.000000
  0
VERTEX
  8
LAYER-1
 10
3.299439
 20
0.210304
 30
0.000000
  0
VERTEX
  8
LAYER-1
 10
3.294231
 20
0.211171
 30
0.000000
  0
VERTEX
  8
LAYER-1
 10
3.289890
 20
0.209436
 30
0.000000
  0
VERTEX
  8
LAYER-1
 10
3.288155
 20
0.205095
 30
0.000000
  0
VERTEX
  8
LAYER-1
 10
3.288155
 20
0.200756
 30
0.000000
  0
VERTEX
  8
LAYER-1
 10
3.291626
 20
0.196415
 30
0.000000
  0
VERTEX
  8
LAYER-1
 10
3.295967
 20
0.196415
 30
0.000000
  0
VERTEX
  8
LAYER-1
 10
3.300308
 20
0.197283
 30
0.000000
  0
VERTEX
  8
LAYER-1
 10
3.302912
 20
0.201624
 30
0.000000
  0
SEQEND
  8
LAYER-1
  0
POLYLINE
  8
LAYER-1
 66
  1
 70
  1
 62
  0
 10
4.086330
 20
0.192076
 30
0.000000
  0
VERTEX
  8
LAYER-1
 10
4.086330
 20
0.192076
 30
0.000000
  0
VERTEX
  8
LAYER-1
 10
4.093275
 20
0.166034
 30
0.000000
  0
VERTEX
  8
LAYER-1
 10
4.118448
 20
0.179923
 30
0.000000
  0
SEQEND
  8
LAYER-1
  0
POLYLINE
  8
LAYER-1
 66
  1
 70
  1
 62
  0
 10
4.248657
 20
0.220722
 30
0.000000
  0
VERTEX
  8
LAYER-1
 10
4.248657
 20
0.220722
 30
0.000000
  0
VERTEX
  8
LAYER-1
 10
4.235636
 20
0.198152
 30
0.000000
  0
VERTEX
  8
LAYER-1
 10
4.266018
 20
0.218986
 30
0.000000
  0
SEQEND
  8
LAYER-1
  0
POLYLINE
  8
LAYER-1
 66
  1
 70
  1
 62
  0
 10
4.227824
 20
0.135651
 30
0.000000
  0
VERTEX
  8
LAYER-1
 10
4.227824
 20
0.135651
 30
0.000000
  0
VERTEX
  8
LAYER-1
 10
4.211331
 20
0.110476
 30
0.000000
  0
VERTEX
  8
LAYER-1
 10
4.226088
 20
0.102664
 30
0.000000
  0
SEQEND
  8
LAYER-1
  0
POLYLINE
  8
LAYER-1
 66
  1
 70
  0
 62
  0
 10
4.036852
 20
0.223326
 30
0.000000
  0
VERTEX
  8
LAYER-1
 10
4.036852
 20
0.223326
 30
0.000000
  0
VERTEX
  8
LAYER-1
 10
4.032511
 20
0.223326
 30
0.000000
  0
VERTEX
  8
LAYER-1
 10
4.029039
 20
0.218986
 30
0.000000
  0
VERTEX
  8
LAYER-1
 10
4.028171
 20
0.213777
 30
0.000000
  0
VERTEX
  8
LAYER-1
 10
4.029907
 20
0.209437
 30
0.000000
  0
VERTEX
  8
LAYER-1
 10
4.034248
 20
0.207701
 30
0.000000
  0
VERTEX
  8
LAYER-1
 10
4.038588
 20
0.207701
 30
0.000000
  0
VERTEX
  8
LAYER-1
 10
4.042928
 20
0.211173
 30
0.000000
  0
VERTEX
  8
LAYER-1
 10
4.042928
 20
0.215513
 30
0.000000
  0
VERTEX
  8
LAYER-1
 10
4.042060
 20
0.219855
 30
0.000000
  0
VERTEX
  8
LAYER-1
 10
4.037720
 20
0.222458
 30
0.000000
  0
SEQEND
  8
LAYER-1
  0
POLYLINE
  8
LAYER-1
 66
  1
 70
  1
 62
  0
 10
4.058118
 20
0.155182
 30
0.000000
  0
VERTEX
  8
LAYER-1
 10
4.058118
 20
0.155182
 30
0.000000
  0
VERTEX
  8
LAYER-1
 10
4.080688
 20
0.142162
 30
0.000000
  0
VERTEX
  8
LAYER-1
 10
4.059855
 20
0.172543
 30
0.000000
  0
SEQEND
  8
LAYER-1
  0
POLYLINE
  8
LAYER-1
 66
  1
 70
  1
 62
  0
 10
4.174772
 20
0.147202
 30
0.000000
  0
VERTEX
  8
LAYER-1
 10
4.174772
 20
0.147202
 30
0.000000
  0
VERTEX
  8
LAYER-1
 10
4.194137
 20
0.134515
 30
0.000000
  0
VERTEX
  8
LAYER-1
 10
4.200147
 20
0.145866
 30
0.000000
  0
SEQEND
  8
LAYER-1
  0
POLYLINE
  8
LAYER-1
 66
  1
 70
  0
 62
  0
 10
4.188761
 20
0.225062
 30
0.000000
  0
VERTEX
  8
LAYER-1
 10
4.188761
 20
0.225062
 30
0.000000
  0
VERTEX
  8
LAYER-1
 10
4.184421
 20
0.225062
 30
0.000000
  0
VERTEX
  8
LAYER-1
 10
4.180948
 20
0.220721
 30
0.000000
  0
VERTEX
  8
LAYER-1
 10
4.180080
 20
0.215513
 30
0.000000
  0
VERTEX
  8
LAYER-1
 10
4.181817
 20
0.211173
 30
0.000000
  0
VERTEX
  8
LAYER-1
 10
4.186157
 20
0.209437
 30
0.000000
  0
VERTEX
  8
LAYER-1
 10
4.190498
 20
0.209437
 30
0.000000
  0
VERTEX
  8
LAYER-1
 10
4.194838
 20
0.212908
 30
0.000000
  0
VERTEX
  8
LAYER-1
 10
4.194838
 20
0.217250
 30
0.000000
  0
VERTEX
  8
LAYER-1
 10
4.193970
 20
0.221590
 30
0.000000
  0
VERTEX
  8
LAYER-1
 10
4.189629
 20
0.224194
 30
0.000000
  0
SEQEND
  8
LAYER-1
  0
POLYLINE
  8
LAYER-1
 66
  1
 70
  0
 62
  0
 10
4.272963
 20
0.098324
 30
0.000000
  0
VERTEX
  8
LAYER-1
 10
4.272963
 20
0.098324
 30
0.000000
  0
VERTEX
  8
LAYER-1
 10
4.268623
 20
0.098324
 30
0.000000
  0
VERTEX
  8
LAYER-1
 10
4.265151
 20
0.093983
 30
0.000000
  0
VERTEX
  8
LAYER-1
 10
4.264283
 20
0.088776
 30
0.000000
  0
VERTEX
  8
LAYER-1
 10
4.266019
 20
0.084435
 30
0.000000
  0
VERTEX
  8
LAYER-1
 10
4.270358
 20
0.082699
 30
0.000000
  0
VERTEX
  8
LAYER-1
 10
4.274699
 20
0.082699
 30
0.000000
  0
VERTEX
  8
LAYER-1
 10
4.279040
 20
0.086171
 30
0.000000
  0
VERTEX
  8
LAYER-1
 10
4.279040
 20
0.090512
 30
0.000000
  0
VERTEX
  8
LAYER-1
 10
4.278171
 20
0.094852
 30
0.000000
  0
VERTEX
  8
LAYER-1
 10
4.273831
 20
0.097456
 30
0.000000
  0
SEQEND
  8
LAYER-1
  0
POLYLINE
  8
LAYER-1
 66
  1
 70
  0
 62
  0
 10
4.119317
 20
0.153010
 30
0.000000
  0
VERTEX
  8
LAYER-1
 10
4.119317
 20
0.153010
 30
0.000000
  0
VERTEX
  8
LAYER-1
 10
4.114977
 20
0.153010
 30
0.000000
  0
VERTEX
  8
LAYER-1
 10
4.111505
 20
0.148669
 30
0.000000
  0
VERTEX
  8
LAYER-1
 10
4.110637
 20
0.143461
 30
0.000000
  0
VERTEX
  8
LAYER-1
 10
4.112373
 20
0.139120
 30
0.000000
  0
VERTEX
  8
LAYER-1
 10
4.116713
 20
0.137385
 30
0.000000
  0
VERTEX
  8
LAYER-1
 10
4.121053
 20
0.137385
 30
0.000000
  0
VERTEX
  8
LAYER-1
 10
4.125394
 20
0.140856
 30
0.000000
  0
VERTEX
  8
LAYER-1
 10
4.125394
 20
0.145198
 30
0.000000
  0
VERTEX
  8
LAYER-1
 10
4.124525
 20
0.149538
 30
0.000000
  0
VERTEX
  8
LAYER-1
 10
4.120185
 20
0.152142
 30
0.000000
  0
SEQEND
  8
LAYER-1
  0
POLYLINE
  8
LAYER-1
 66
  1
 70
  1
 62
  0
 10
3.954388
 20
0.161691
 30
0.000000
  0
VERTEX
  8
LAYER-1
 10
3.954388
 20
0.161691
 30
0.000000
  0
VERTEX
  8
LAYER-1
 10
3.947442
 20
0.187731
 30
0.000000
  0
VERTEX
  8
LAYER-1
 10
3.922269
 20
0.173844
 30
0.000000
  0
SEQEND
  8
LAYER-1
  0
POLYLINE
  8
LAYER-1
 66
  1
 70
  1
 62
  0
 10
3.543364
 20
0.193375
 30
0.000000
  0
VERTEX
  8
LAYER-1
 10
3.543364
 20
0.193375
 30
0.000000
  0
VERTEX
  8
LAYER-1
 10
3.556384
 20
0.215945
 30
0.000000
  0
VERTEX
  8
LAYER-1
 10
3.526003
 20
0.195112
 30
0.000000
  0
SEQEND
  8
LAYER-1
  0
POLYLINE
  8
LAYER-1
 66
  1
 70
  1
 62
  0
 10
3.840671
 20
0.186867
 30
0.000000
  0
VERTEX
  8
LAYER-1
 10
3.840671
 20
0.186867
 30
0.000000
  0
VERTEX
  8
LAYER-1
 10
3.857165
 20
0.212040
 30
0.000000
  0
VERTEX
  8
LAYER-1
 10
3.842407
 20
0.219852
 30
0.000000
  0
SEQEND
  8
LAYER-1
  0
POLYLINE
  8
LAYER-1
 66
  1
 70
  0
 62
  0
 10
4.003866
 20
0.130441
 30
0.000000
  0
VERTEX
  8
LAYER-1
 10
4.003866
 20
0.130441
 30
0.000000
  0
VERTEX
  8
LAYER-1
 10
4.008207
 20
0.130441
 30
0.000000
  0
VERTEX
  8
LAYER-1
 10
4.011678
 20
0.134782
 30
0.000000
  0
VERTEX
  8
LAYER-1
 10
4.012547
 20
0.139989
 30
0.000000
  0
VERTEX
  8
LAYER-1
 10
4.010811
 20
0.144330
 30
0.000000
  0
VERTEX
  8
LAYER-1
 10
4.006471
 20
0.146066
 30
0.000000
  0
VERTEX
  8
LAYER-1
 10
4.002130
 20
0.146066
 30
0.000000
  0
VERTEX
  8
LAYER-1
 10
3.997789
 20
0.142594
 30
0.000000
  0
VERTEX
  8
LAYER-1
 10
3.997789
 20
0.138254
 30
0.000000
  0
VERTEX
  8
LAYER-1
 10
3.998658
 20
0.133913
 30
0.000000
  0
VERTEX
  8
LAYER-1
 10
4.002999
 20
0.131308
 30
0.000000
  0
SEQEND
  8
LAYER-1
  0
POLYLINE
  8
LAYER-1
 66
  1
 70
  1
 62
  0
 10
3.957859
 20
0.126970
 30
0.000000
  0
VERTEX
  8
LAYER-1
 10
3.957859
 20
0.126970
 30
0.000000
  0
VERTEX
  8
LAYER-1
 10
3.970880
 20
0.149540
 30
0.000000
  0
VERTEX
  8
LAYER-1
 10
3.940498
 20
0.128708
 30
0.000000
  0
SEQEND
  8
LAYER-1
  0
POLYLINE
  8
LAYER-1
 66
  1
 70
  1
 62
  0
 10
3.903272
 20
0.168371
 30
0.000000
  0
VERTEX
  8
LAYER-1
 10
3.903272
 20
0.168371
 30
0.000000
  0
VERTEX
  8
LAYER-1
 10
3.883908
 20
0.181059
 30
0.000000
  0
VERTEX
  8
LAYER-1
 10
3.877897
 20
0.169707
 30
0.000000
  0
SEQEND
  8
LAYER-1
  0
POLYLINE
  8
LAYER-1
 66
  1
 70
  0
 62
  0
 10
3.880166
 20
0.065027
 30
0.000000
  0
VERTEX
  8
LAYER-1
 10
3.880166
 20
0.065027
 30
0.000000
  0
VERTEX
  8
LAYER-1
 10
3.884507
 20
0.065027
 30
0.000000
  0
VERTEX
  8
LAYER-1
 10
3.887978
 20
0.069367
 30
0.000000
  0
VERTEX
  8
LAYER-1
 10
3.888847
 20
0.074575
 30
0.000000
  0
VERTEX
  8
LAYER-1
 10
3.887111
 20
0.078916
 30
0.000000
  0
VERTEX
  8
LAYER-1
 10
3.882771
 20
0.080652
 30
0.000000
  0
VERTEX
  8
LAYER-1
 10
3.878430
 20
0.080652
 30
0.000000
  0
VERTEX
  8
LAYER-1
 10
3.874089
 20
0.077180
 30
0.000000
  0
VERTEX
  8
LAYER-1
 10
3.874089
 20
0.072840
 30
0.000000
  0
VERTEX
  8
LAYER-1
 10
3.874958
 20
0.068498
 30
0.000000
  0
VERTEX
  8
LAYER-1
 10
3.879299
 20
0.065893
 30
0.000000
  0
SEQEND
  8
LAYER-1
  0
POLYLINE
  8
LAYER-1
 66
  1
 70
  0
 62
  0
 10
3.790323
 20
0.207822
 30
0.000000
  0
VERTEX
  8
LAYER-1
 10
3.790323
 20
0.207822
 30
0.000000
  0
VERTEX
  8
LAYER-1
 10
3.794664
 20
0.207822
 30
0.000000
  0
VERTEX
  8
LAYER-1
 10
3.798136
 20
0.212162
 30
0.000000
  0
VERTEX
  8
LAYER-1
 10
3.799003
 20
0.217371
 30
0.000000
  0
VERTEX
  8
LAYER-1
 10
3.797267
 20
0.221711
 30
0.000000
  0
VERTEX
  8
LAYER-1
 10
3.792926
 20
0.223447
 30
0.000000
  0
VERTEX
  8
LAYER-1
 10
3.788588
 20
0.223447
 30
0.000000
  0
VERTEX
  8
LAYER-1
 10
3.784247
 20
0.219975
 30
0.000000
  0
VERTEX
  8
LAYER-1
 10
3.784247
 20
0.215635
 30
0.000000
  0
VERTEX
  8
LAYER-1
 10
3.785114
 20
0.211294
 30
0.000000
  0
VERTEX
  8
LAYER-1
 10
3.789455
 20
0.208689
 30
0.000000
  0
SEQEND
  8
LAYER-1
  0
POLYLINE
  8
LAYER-1
 66
  1
 70
  0
 62
  0
 10
3.952651
 20
0.200756
 30
0.000000
  0
VERTEX
  8
LAYER-1
 10
3.952651
 20
0.200756
 30
0.000000
  0
VERTEX
  8
LAYER-1
 10
3.956992
 20
0.200756
 30
0.000000
  0
VERTEX
  8
LAYER-1
 10
3.960464
 20
0.205096
 30
0.000000
  0
VERTEX
  8
LAYER-1
 10
3.961330
 20
0.210304
 30
0.000000
  0
VERTEX
  8
LAYER-1
 10
3.959595
 20
0.214645
 30
0.000000
  0
VERTEX
  8
LAYER-1
 10
3.955254
 20
0.216381
 30
0.000000
  0
VERTEX
  8
LAYER-1
 10
3.950915
 20
0.216381
 30
0.000000
  0
VERTEX
  8
LAYER-1
 10
3.946574
 20
0.212908
 30
0.000000
  0
VERTEX
  8
LAYER-1
 10
3.946574
 20
0.208568
 30
0.000000
  0
VERTEX
  8
LAYER-1
 10
3.947442
 20
0.204227
 30
0.000000
  0
VERTEX
  8
LAYER-1
 10
3.951782
 20
0.201623
 30
0.000000
  0
SEQEND
  8
LAYER-1
  0
POLYLINE
  8
LAYER-1
 66
  1
 70
  1
 62
  0
 10
4.708726
 20
0.169941
 30
0.000000
  0
VERTEX
  8
LAYER-1
 10
4.708726
 20
0.169941
 30
0.000000
  0
VERTEX
  8
LAYER-1
 10
4.715670
 20
0.143900
 30
0.000000
  0
VERTEX
  8
LAYER-1
 10
4.740844
 20
0.157788
 30
0.000000
  0
SEQEND
  8
LAYER-1
  0
POLYLINE
  8
LAYER-1
 66
  1
 70
  1
 62
  0
 10
4.835460
 20
0.205532
 30
0.000000
  0
VERTEX
  8
LAYER-1
 10
4.835460
 20
0.205532
 30
0.000000
  0
VERTEX
  8
LAYER-1
 10
4.822440
 20
0.182962
 30
0.000000
  0
VERTEX
  8
LAYER-1
 10
4.852822
 20
0.203795
 30
0.000000
  0
SEQEND
  8
LAYER-1
  0
POLYLINE
  8
LAYER-1
 66
  1
 70
  1
 62
  0
 10
4.510810
 20
0.194247
 30
0.000000
  0
VERTEX
  8
LAYER-1
 10
4.510810
 20
0.194247
 30
0.000000
  0
VERTEX
  8
LAYER-1
 10
4.494317
 20
0.169073
 30
0.000000
  0
VERTEX
  8
LAYER-1
 10
4.509074
 20
0.161261
 30
0.000000
  0
SEQEND
  8
LAYER-1
  0
POLYLINE
  8
LAYER-1
 66
  1
 70
  0
 62
  0
 10
4.621052
 20
0.186437
 30
0.000000
  0
VERTEX
  8
LAYER-1
 10
4.621052
 20
0.186437
 30
0.000000
  0
VERTEX
  8
LAYER-1
 10
4.616712
 20
0.186437
 30
0.000000
  0
VERTEX
  8
LAYER-1
 10
4.613240
 20
0.182096
 30
0.000000
  0
VERTEX
  8
LAYER-1
 10
4.612371
 20
0.176888
 30
0.000000
  0
VERTEX
  8
LAYER-1
 10
4.614107
 20
0.172547
 30
0.000000
  0
VERTEX
  8
LAYER-1
 10
4.618448
 20
0.170812
 30
0.000000
  0
VERTEX
  8
LAYER-1
 10
4.622788
 20
0.170812
 30
0.000000
  0
VERTEX
  8
LAYER-1
 10
4.627128
 20
0.174283
 30
0.000000
  0
VERTEX
  8
LAYER-1
 10
4.627128
 20
0.178624
 30
0.000000
  0
VERTEX
  8
LAYER-1
 10
4.626260
 20
0.182965
 30
0.000000
  0
VERTEX
  8
LAYER-1
 10
4.621919
 20
0.185569
 30
0.000000
  0
SEQEND
  8
LAYER-1
  0
POLYLINE
  8
LAYER-1
 66
  1
 70
  1
 62
  0
 10
4.650567
 20
0.140427
 30
0.000000
  0
VERTEX
  8
LAYER-1
 10
4.650567
 20
0.140427
 30
0.000000
  0
VERTEX
  8
LAYER-1
 10
4.637545
 20
0.117857
 30
0.000000
  0
VERTEX
  8
LAYER-1
 10
4.667927
 20
0.138690
 30
0.000000
  0
SEQEND
  8
LAYER-1
  0
POLYLINE
  8
LAYER-1
 66
  1
 70
  1
 62
  0
 10
4.857864
 20
0.140958
 30
0.000000
  0
VERTEX
  8
LAYER-1
 10
4.857864
 20
0.140958
 30
0.000000
  0
VERTEX
  8
LAYER-1
 10
4.845178
 20
0.121593
 30
0.000000
  0
VERTEX
  8
LAYER-1
 10
4.856529
 20
0.115583
 30
0.000000
  0
SEQEND
  8
LAYER-1
  0
POLYLINE
  8
LAYER-1
 66
  1
 70
  0
 62
  0
 10
4.765148
 20
0.209871
 30
0.000000
  0
VERTEX
  8
LAYER-1
 10
4.765148
 20
0.209871
 30
0.000000
  0
VERTEX
  8
LAYER-1
 10
4.760807
 20
0.209871
 30
0.000000
  0
VERTEX
  8
LAYER-1
 10
4.757336
 20
0.205531
 30
0.000000
  0
VERTEX
  8
LAYER-1
 10
4.756468
 20
0.200323
 30
0.000000
  0
VERTEX
  8
LAYER-1
 10
4.758204
 20
0.195982
 30
0.000000
  0
VERTEX
  8
LAYER-1
 10
4.762544
 20
0.194246
 30
0.000000
  0
VERTEX
  8
LAYER-1
 10
4.766884
 20
0.194246
 30
0.000000
  0
VERTEX
  8
LAYER-1
 10
4.771225
 20
0.197718
 30
0.000000
  0
VERTEX
  8
LAYER-1
 10
4.771225
 20
0.202059
 30
0.000000
  0
VERTEX
  8
LAYER-1
 10
4.770356
 20
0.206400
 30
0.000000
  0
VERTEX
  8
LAYER-1
 10
4.766016
 20
0.209003
 30
0.000000
  0
SEQEND
  8
LAYER-1
  0
POLYLINE
  8
LAYER-1
 66
  1
 70
  0
 62
  0
 10
4.552477
 20
0.200322
 30
0.000000
  0
VERTEX
  8
LAYER-1
 10
4.552477
 20
0.200322
 30
0.000000
  0
VERTEX
  8
LAYER-1
 10
4.548137
 20
0.200322
 30
0.000000
  0
VERTEX
  8
LAYER-1
 10
4.544664
 20
0.195981
 30
0.000000
  0
VERTEX
  8
LAYER-1
 10
4.543796
 20
0.190774
 30
0.000000
  0
VERTEX
  8
LAYER-1
 10
4.545533
 20
0.186433
 30
0.000000
  0
VERTEX
  8
LAYER-1
 10
4.549873
 20
0.184697
 30
0.000000
  0
VERTEX
  8
LAYER-1
 10
4.554214
 20
0.184697
 30
0.000000
  0
VERTEX
  8
LAYER-1
 10
4.558553
 20
0.188169
 30
0.000000
  0
VERTEX
  8
LAYER-1
 10
4.558553
 20
0.192509
 30
0.000000
  0
VERTEX
  8
LAYER-1
 10
4.557685
 20
0.196850
 30
0.000000
  0
VERTEX
  8
LAYER-1
 10
4.553346
 20
0.199454
 30
0.000000
  0
SEQEND
  8
LAYER-1
  0
POLYLINE
  8
LAYER-1
 66
  1
 70
  0
 62
  0
 10
4.799873
 20
0.172542
 30
0.000000
  0
VERTEX
  8
LAYER-1
 10
4.799873
 20
0.172542
 30
0.000000
  0
VERTEX
  8
LAYER-1
 10
4.795533
 20
0.172542
 30
0.000000
  0
VERTEX
  8
LAYER-1
 10
4.792060
 20
0.168201
 30
0.000000
  0
VERTEX
  8
LAYER-1
 10
4.791193
 20
0.162994
 30
0.000000
  0
VERTEX
  8
LAYER-1
 10
4.792929
 20
0.158652
 30
0.000000
  0
VERTEX
  8
LAYER-1
 10
4.797270
 20
0.156917
 30
0.000000
  0
VERTEX
  8
LAYER-1
 10
4.801609
 20
0.156917
 30
0.000000
  0
VERTEX
  8
LAYER-1
 10
4.805949
 20
0.160389
 30
0.000000
  0
VERTEX
  8
LAYER-1
 10
4.805949
 20
0.164730
 30
0.000000
  0
VERTEX
  8
LAYER-1
 10
4.805082
 20
0.169070
 30
0.000000
  0
VERTEX
  8
LAYER-1
 10
4.800741
 20
0.171674
 30
0.000000
  0
SEQEND
  8
LAYER-1
  0
POLYLINE
  8
LAYER-1
 66
  1
 70
  1
 62
  0
 10
4.414455
 20
0.119158
 30
0.000000
  0
VERTEX
  8
LAYER-1
 10
4.414455
 20
0.119158
 30
0.000000
  0
VERTEX
  8
LAYER-1
 10
4.407511
 20
0.145198
 30
0.000000
  0
VERTEX
  8
LAYER-1
 10
4.382338
 20
0.131311
 30
0.000000
  0
SEQEND
  8
LAYER-1
  0
POLYLINE
  8
LAYER-1
 66
  1
 70
  1
 62
  0
 10
4.262546
 20
0.159954
 30
0.000000
  0
VERTEX
  8
LAYER-1
 10
4.262546
 20
0.159954
 30
0.000000
  0
VERTEX
  8
LAYER-1
 10
4.275567
 20
0.182525
 30
0.000000
  0
VERTEX
  8
LAYER-1
 10
4.245185
 20
0.161692
 30
0.000000
  0
SEQEND
  8
LAYER-1
  0
POLYLINE
  8
LAYER-1
 66
  1
 70
  1
 62
  0
 10
4.345880
 20
0.120028
 30
0.000000
  0
VERTEX
  8
LAYER-1
 10
4.345880
 20
0.120028
 30
0.000000
  0
VERTEX
  8
LAYER-1
 10
4.362373
 20
0.145202
 30
0.000000
  0
VERTEX
  8
LAYER-1
 10
4.347616
 20
0.153014
 30
0.000000
  0
SEQEND
  8
LAYER-1
  0
POLYLINE
  8
LAYER-1
 66
  1
 70
  0
 62
  0
 10
4.520360
 20
0.121765
 30
0.000000
  0
VERTEX
  8
LAYER-1
 10
4.520360
 20
0.121765
 30
0.000000
  0
VERTEX
  8
LAYER-1
 10
4.524701
 20
0.121765
 30
0.000000
  0
VERTEX
  8
LAYER-1
 10
4.528172
 20
0.126106
 30
0.000000
  0
VERTEX
  8
LAYER-1
 10
4.529040
 20
0.131314
 30
0.000000
  0
VERTEX
  8
LAYER-1
 10
4.527304
 20
0.135655
 30
0.000000
  0
VERTEX
  8
LAYER-1
 10
4.522964
 20
0.137390
 30
0.000000
  0
VERTEX
  8
LAYER-1
 10
4.518624
 20
0.137390
 30
0.000000
  0
VERTEX
  8
LAYER-1
 10
4.514283
 20
0.133919
 30
0.000000
  0
VERTEX
  8
LAYER-1
 10
4.514283
 20
0.129578
 30
0.000000
  0
VERTEX
  8
LAYER-1
 10
4.515151
 20
0.125237
 30
0.000000
  0
VERTEX
  8
LAYER-1
 10
4.519492
 20
0.122632
 30
0.000000
  0
SEQEND
  8
LAYER-1
  0
POLYLINE
  8
LAYER-1
 66
  1
 70
  1
 62
  0
 10
4.471747
 20
0.136520
 30
0.000000
  0
VERTEX
  8
LAYER-1
 10
4.471747
 20
0.136520
 30
0.000000
  0
VERTEX
  8
LAYER-1
 10
4.484768
 20
0.159091
 30
0.000000
  0
VERTEX
  8
LAYER-1
 10
4.454386
 20
0.138258
 30
0.000000
  0
SEQEND
  8
LAYER-1
  0
POLYLINE
  8
LAYER-1
 66
  1
 70
  1
 62
  0
 10
4.360803
 20
0.172446
 30
0.000000
  0
VERTEX
  8
LAYER-1
 10
4.360803
 20
0.172446
 30
0.000000
  0
VERTEX
  8
LAYER-1
 10
4.373490
 20
0.191810
 30
0.000000
  0
VERTEX
  8
LAYER-1
 10
4.362139
 20
0.197821
 30
0.000000
  0
SEQEND
  8
LAYER-1
  0
POLYLINE
  8
LAYER-1
 66
  1
 70
  0
 62
  0
 10
4.316451
 20
0.203917
 30
0.000000
  0
VERTEX
  8
LAYER-1
 10
4.316451
 20
0.203917
 30
0.000000
  0
VERTEX
  8
LAYER-1
 10
4.320791
 20
0.203917
 30
0.000000
  0
VERTEX
  8
LAYER-1
 10
4.324263
 20
0.208258
 30
0.000000
  0
VERTEX
  8
LAYER-1
 10
4.325131
 20
0.213465
 30
0.000000
  0
VERTEX
  8
LAYER-1
 10
4.323396
 20
0.217806
 30
0.000000
  0
VERTEX
  8
LAYER-1
 10
4.319055
 20
0.219542
 30
0.000000
  0
VERTEX
  8
LAYER-1
 10
4.314714
 20
0.219542
 30
0.000000
  0
VERTEX
  8
LAYER-1
 10
4.310374
 20
0.216070
 30
0.000000
  0
VERTEX
  8
LAYER-1
 10
4.310374
 20
0.211729
 30
0.000000
  0
VERTEX
  8
LAYER-1
 10
4.311242
 20
0.207389
 30
0.000000
  0
VERTEX
  8
LAYER-1
 10
4.315583
 20
0.204784
 30
0.000000
  0
SEQEND
  8
LAYER-1
  0
POLYLINE
  8
LAYER-1
 66
  1
 70
  0
 62
  0
 10
4.293796
 20
0.126105
 30
0.000000
  0
VERTEX
  8
LAYER-1
 10
4.293796
 20
0.126105
 30
0.000000
  0
VERTEX
  8
LAYER-1
 10
4.298137
 20
0.126105
 30
0.000000
  0
VERTEX
  8
LAYER-1
 10
4.301609
 20
0.130446
 30
0.000000
  0
VERTEX
  8
LAYER-1
 10
4.302477
 20
0.135653
 30
0.000000
  0
VERTEX
  8
LAYER-1
 10
4.300741
 20
0.139994
 30
0.000000
  0
VERTEX
  8
LAYER-1
 10
4.296400
 20
0.141730
 30
0.000000
  0
VERTEX
  8
LAYER-1
 10
4.292060
 20
0.141730
 30
0.000000
  0
VERTEX
  8
LAYER-1
 10
4.287720
 20
0.138258
 30
0.000000
  0
VERTEX
  8
LAYER-1
 10
4.287720
 20
0.133918
 30
0.000000
  0
VERTEX
  8
LAYER-1
 10
4.288588
 20
0.129577
 30
0.000000
  0
VERTEX
  8
LAYER-1
 10
4.292928
 20
0.126972
 30
0.000000
  0
SEQEND
  8
LAYER-1
  0
POLYLINE
  8
LAYER-1
 66
  1
 70
  0
 62
  0
 10
4.457859
 20
0.203362
 30
0.000000
  0
VERTEX
  8
LAYER-1
 10
4.457859
 20
0.203362
 30
0.000000
  0
VERTEX
  8
LAYER-1
 10
4.462199
 20
0.203362
 30
0.000000
  0
VERTEX
  8
LAYER-1
 10
4.465671
 20
0.207702
 30
0.000000
  0
VERTEX
  8
LAYER-1
 10
4.466539
 20
0.212909
 30
0.000000
  0
VERTEX
  8
LAYER-1
 10
4.464803
 20
0.217250
 30
0.000000
  0
VERTEX
  8
LAYER-1
 10
4.460463
 20
0.218987
 30
0.000000
  0
VERTEX
  8
LAYER-1
 10
4.456123
 20
0.218987
 30
0.000000
  0
VERTEX
  8
LAYER-1
 10
4.451782
 20
0.215514
 30
0.000000
  0
VERTEX
  8
LAYER-1
 10
4.451782
 20
0.211174
 30
0.000000
  0
VERTEX
  8
LAYER-1
 10
4.452650
 20
0.206833
 30
0.000000
  0
VERTEX
  8
LAYER-1
 10
4.456991
 20
0.204228
 30
0.000000
  0
SEQEND
  8
LAYER-1
  0
POLYLINE
  8
LAYER-1
 66
  1
 70
  1
 62
  0
 10
4.909676
 20
0.159957
 30
0.000000
  0
VERTEX
  8
LAYER-1
 10
4.909676
 20
0.159957
 30
0.000000
  0
VERTEX
  8
LAYER-1
 10
4.935717
 20
0.166901
 30
0.000000
  0
VERTEX
  8
LAYER-1
 10
4.921829
 20
0.192075
 30
0.000000
  0
SEQEND
  8
LAYER-1
  0
POLYLINE
  8
LAYER-1
 66
  1
 70
  1
 62
  0
 10
4.591972
 20
0.212909
 30
0.000000
  0
VERTEX
  8
LAYER-1
 10
4.591972
 20
0.212909
 30
0.000000
  0
VERTEX
  8
LAYER-1
 10
4.614541
 20
0.199888
 30
0.000000
  0
VERTEX
  8
LAYER-1
 10
4.593708
 20
0.230270
 30
0.000000
  0
SEQEND
  8
LAYER-1
  0
POLYLINE
  8
LAYER-1
 66
  1
 70
  1
 62
  0
 10
5.528601
 20
0.118287
 30
0.000000
  0
VERTEX
  8
LAYER-1
 10
5.528601
 20
0.118287
 30
0.000000
  0
VERTEX
  8
LAYER-1
 10
5.553775
 20
0.101794
 30
0.000000
  0
VERTEX
  8
LAYER-1
 10
5.561588
 20
0.116551
 30
0.000000
  0
SEQEND
  8
LAYER-1
  0
POLYLINE
  8
LAYER-1
 66
  1
 70
  0
 62
  0
 10
5.349781
 20
0.126969
 30
0.000000
  0
VERTEX
  8
LAYER-1
 10
5.349781
 20
0.126969
 30
0.000000
  0
VERTEX
  8
LAYER-1
 10
5.349781
 20
0.122630
 30
0.000000
  0
VERTEX
  8
LAYER-1
 10
5.354122
 20
0.119157
 30
0.000000
  0
VERTEX
  8
LAYER-1
 10
5.359329
 20
0.118290
 30
0.000000
  0
VERTEX
  8
LAYER-1
 10
5.363670
 20
0.120026
 30
0.000000
  0
VERTEX
  8
LAYER-1
 10
5.365406
 20
0.124365
 30
0.000000
  0
VERTEX
  8
LAYER-1
 10
5.365406
 20
0.128706
 30
0.000000
  0
VERTEX
  8
LAYER-1
 10
5.361934
 20
0.133046
 30
0.000000
  0
VERTEX
  8
LAYER-1
 10
5.357594
 20
0.133046
 30
0.000000
  0
VERTEX
  8
LAYER-1
 10
5.353253
 20
0.132178
 30
0.000000
  0
VERTEX
  8
LAYER-1
 10
5.350649
 20
0.127838
 30
0.000000
  0
SEQEND
  8
LAYER-1
  0
POLYLINE
  8
LAYER-1
 66
  1
 70
  1
 62
  0
 10
4.979990
 20
0.146935
 30
0.000000
  0
VERTEX
  8
LAYER-1
 10
4.979990
 20
0.146935
 30
0.000000
  0
VERTEX
  8
LAYER-1
 10
5.002559
 20
0.133915
 30
0.000000
  0
VERTEX
  8
LAYER-1
 10
4.981726
 20
0.164296
 30
0.000000
  0
SEQEND
  8
LAYER-1
  0
POLYLINE
  8
LAYER-1
 66
  1
 70
  1
 62
  0
 10
4.942997
 20
0.217950
 30
0.000000
  0
VERTEX
  8
LAYER-1
 10
4.942997
 20
0.217950
 30
0.000000
  0
VERTEX
  8
LAYER-1
 10
4.962363
 20
0.205264
 30
0.000000
  0
VERTEX
  8
LAYER-1
 10
4.968373
 20
0.216615
 30
0.000000
  0
SEQEND
  8
LAYER-1
  0
POLYLINE
  8
LAYER-1
 66
  1
 70
  0
 62
  0
 10
4.587633
 20
0.153013
 30
0.000000
  0
VERTEX
  8
LAYER-1
 10
4.587633
 20
0.153013
 30
0.000000
  0
VERTEX
  8
LAYER-1
 10
4.587633
 20
0.148674
 30
0.000000
  0
VERTEX
  8
LAYER-1
 10
4.591973
 20
0.145201
 30
0.000000
  0
VERTEX
  8
LAYER-1
 10
4.597180
 20
0.144333
 30
0.000000
  0
VERTEX
  8
LAYER-1
 10
4.601521
 20
0.146069
 30
0.000000
  0
VERTEX
  8
LAYER-1
 10
4.603257
 20
0.150409
 30
0.000000
  0
VERTEX
  8
LAYER-1
 10
4.603257
 20
0.154750
 30
0.000000
  0
VERTEX
  8
LAYER-1
 10
4.599785
 20
0.159090
 30
0.000000
  0
VERTEX
  8
LAYER-1
 10
4.595445
 20
0.159090
 30
0.000000
  0
VERTEX
  8
LAYER-1
 10
4.591104
 20
0.158222
 30
0.000000
  0
VERTEX
  8
LAYER-1
 10
4.588500
 20
0.153881
 30
0.000000
  0
SEQEND
  8
LAYER-1
  0
POLYLINE
  8
LAYER-1
 66
  1
 70
  0
 62
  0
 10
4.993878
 20
0.114818
 30
0.000000
  0
VERTEX
  8
LAYER-1
 10
4.993878
 20
0.114818
 30
0.000000
  0
VERTEX
  8
LAYER-1
 10
4.993878
 20
0.110477
 30
0.000000
  0
VERTEX
  8
LAYER-1
 10
4.998219
 20
0.107006
 30
0.000000
  0
VERTEX
  8
LAYER-1
 10
5.003426
 20
0.106137
 30
0.000000
  0
VERTEX
  8
LAYER-1
 10
5.007767
 20
0.107874
 30
0.000000
  0
VERTEX
  8
LAYER-1
 10
5.009503
 20
0.112213
 30
0.000000
  0
VERTEX
  8
LAYER-1
 10
5.009503
 20
0.116554
 30
0.000000
  0
VERTEX
  8
LAYER-1
 10
5.006031
 20
0.120895
 30
0.000000
  0
VERTEX
  8
LAYER-1
 10
5.001690
 20
0.120895
 30
0.000000
  0
VERTEX
  8
LAYER-1
 10
4.997350
 20
0.120026
 30
0.000000
  0
VERTEX
  8
LAYER-1
 10
4.994746
 20
0.115686
 30
0.000000
  0
SEQEND
  8
LAYER-1
  0
POLYLINE
  8
LAYER-1
 66
  1
 70
  0
 62
  0
 10
5.062454
 20
0.150408
 30
0.000000
  0
VERTEX
  8
LAYER-1
 10
5.062454
 20
0.150408
 30
0.000000
  0
VERTEX
  8
LAYER-1
 10
5.062454
 20
0.146068
 30
0.000000
  0
VERTEX
  8
LAYER-1
 10
5.066795
 20
0.142596
 30
0.000000
  0
VERTEX
  8
LAYER-1
 10
5.072003
 20
0.141727
 30
0.000000
  0
VERTEX
  8
LAYER-1
 10
5.076344
 20
0.143464
 30
0.000000
  0
VERTEX
  8
LAYER-1
 10
5.078079
 20
0.147804
 30
0.000000
  0
VERTEX
  8
LAYER-1
 10
5.078079
 20
0.152145
 30
0.000000
  0
VERTEX
  8
LAYER-1
 10
5.074607
 20
0.156486
 30
0.000000
  0
VERTEX
  8
LAYER-1
 10
5.070267
 20
0.156486
 30
0.000000
  0
VERTEX
  8
LAYER-1
 10
5.065926
 20
0.155617
 30
0.000000
  0
VERTEX
  8
LAYER-1
 10
5.063322
 20
0.151276
 30
0.000000
  0
SEQEND
  8
LAYER-1
  0
POLYLINE
  8
LAYER-1
 66
  1
 70
  1
 62
  0
 10
5.101865
 20
0.171676
 30
0.000000
  0
VERTEX
  8
LAYER-1
 10
5.101865
 20
0.171676
 30
0.000000
  0
VERTEX
  8
LAYER-1
 10
5.108809
 20
0.145636
 30
0.000000
  0
VERTEX
  8
LAYER-1
 10
5.133983
 20
0.159523
 30
0.000000
  0
SEQEND
  8
LAYER-1
  0
POLYLINE
  8
LAYER-1
 66
  1
 70
  1
 62
  0
 10
5.263410
 20
0.200323
 30
0.000000
  0
VERTEX
  8
LAYER-1
 10
5.263410
 20
0.200323
 30
0.000000
  0
VERTEX
  8
LAYER-1
 10
5.250389
 20
0.177752
 30
0.000000
  0
VERTEX
  8
LAYER-1
 10
5.280771
 20
0.198586
 30
0.000000
  0
SEQEND
  8
LAYER-1
  0
POLYLINE
  8
LAYER-1
 66
  1
 70
  1
 62
  0
 10
5.655771
 20
0.170804
 30
0.000000
  0
VERTEX
  8
LAYER-1
 10
5.655771
 20
0.170804
 30
0.000000
  0
VERTEX
  8
LAYER-1
 10
5.639278
 20
0.145631
 30
0.000000
  0
VERTEX
  8
LAYER-1
 10
5.654035
 20
0.137818
 30
0.000000
  0
SEQEND
  8
LAYER-1
  0
POLYLINE
  8
LAYER-1
 66
  1
 70
  0
 62
  0
 10
5.051604
 20
0.202926
 30
0.000000
  0
VERTEX
  8
LAYER-1
 10
5.051604
 20
0.202926
 30
0.000000
  0
VERTEX
  8
LAYER-1
 10
5.047264
 20
0.202926
 30
0.000000
  0
VERTEX
  8
LAYER-1
 10
5.043792
 20
0.198586
 30
0.000000
  0
VERTEX
  8
LAYER-1
 10
5.042924
 20
0.193377
 30
0.000000
  0
VERTEX
  8
LAYER-1
 10
5.044660
 20
0.189037
 30
0.000000
  0
VERTEX
  8
LAYER-1
 10
5.049001
 20
0.187301
 30
0.000000
  0
VERTEX
  8
LAYER-1
 10
5.053340
 20
0.187301
 30
0.000000
  0
VERTEX
  8
LAYER-1
 10
5.057681
 20
0.190773
 30
0.000000
  0
VERTEX
  8
LAYER-1
 10
5.057681
 20
0.195113
 30
0.000000
  0
VERTEX
  8
LAYER-1
 10
5.056813
 20
0.199454
 30
0.000000
  0
VERTEX
  8
LAYER-1
 10
5.052472
 20
0.202059
 30
0.000000
  0
SEQEND
  8
LAYER-1
  0
POLYLINE
  8
LAYER-1
 66
  1
 70
  1
 62
  0
 10
5.114973
 20
0.126537
 30
0.000000
  0
VERTEX
  8
LAYER-1
 10
5.114973
 20
0.126537
 30
0.000000
  0
VERTEX
  8
LAYER-1
 10
5.101952
 20
0.103967
 30
0.000000
  0
VERTEX
  8
LAYER-1
 10
5.132334
 20
0.124799
 30
0.000000
  0
SEQEND
  8
LAYER-1
  0
POLYLINE
  8
LAYER-1
 66
  1
 70
  1
 62
  0
 10
5.183716
 20
0.104299
 30
0.000000
  0
VERTEX
  8
LAYER-1
 10
5.183716
 20
0.104299
 30
0.000000
  0
VERTEX
  8
LAYER-1
 10
5.196404
 20
0.123663
 30
0.000000
  0
VERTEX
  8
LAYER-1
 10
5.185052
 20
0.129674
 30
0.000000
  0
SEQEND
  8
LAYER-1
  0
POLYLINE
  8
LAYER-1
 66
  1
 70
  0
 62
  0
 10
5.203514
 20
0.204662
 30
0.000000
  0
VERTEX
  8
LAYER-1
 10
5.203514
 20
0.204662
 30
0.000000
  0
VERTEX
  8
LAYER-1
 10
5.199174
 20
0.204662
 30
0.000000
  0
VERTEX
  8
LAYER-1
 10
5.195701
 20
0.200321
 30
0.000000
  0
VERTEX
  8
LAYER-1
 10
5.194834
 20
0.195113
 30
0.000000
  0
VERTEX
  8
LAYER-1
 10
5.196569
 20
0.190773
 30
0.000000
  0
VERTEX
  8
LAYER-1
 10
5.200910
 20
0.189037
 30
0.000000
  0
VERTEX
  8
LAYER-1
 10
5.205251
 20
0.189037
 30
0.000000
  0
VERTEX
  8
LAYER-1
 10
5.209590
 20
0.192508
 30
0.000000
  0
VERTEX
  8
LAYER-1
 10
5.209590
 20
0.196849
 30
0.000000
  0
VERTEX
  8
LAYER-1
 10
5.208722
 20
0.201190
 30
0.000000
  0
VERTEX
  8
LAYER-1
 10
5.204382
 20
0.203795
 30
0.000000
  0
SEQEND
  8
LAYER-1
  0
POLYLINE
  8
LAYER-1
 66
  1
 70
  0
 62
  0
 10
5.707855
 20
0.164727
 30
0.000000
  0
VERTEX
  8
LAYER-1
 10
5.707855
 20
0.164727
 30
0.000000
  0
VERTEX
  8
LAYER-1
 10
5.703514
 20
0.164727
 30
0.000000
  0
VERTEX
  8
LAYER-1
 10
5.700042
 20
0.160387
 30
0.000000
  0
VERTEX
  8
LAYER-1
 10
5.699175
 20
0.155179
 30
0.000000
  0
VERTEX
  8
LAYER-1
 10
5.700910
 20
0.150838
 30
0.000000
  0
VERTEX
  8
LAYER-1
 10
5.705251
 20
0.149102
 30
0.000000
  0
VERTEX
  8
LAYER-1
 10
5.709591
 20
0.149102
 30
0.000000
  0
VERTEX
  8
LAYER-1
 10
5.713932
 20
0.152574
 30
0.000000
  0
VERTEX
  8
LAYER-1
 10
5.713932
 20
0.156915
 30
0.000000
  0
VERTEX
  8
LAYER-1
 10
5.713064
 20
0.161256
 30
0.000000
  0
VERTEX
  8
LAYER-1
 10
5.708723
 20
0.163861
 30
0.000000
  0
SEQEND
  8
LAYER-1
  0
POLYLINE
  8
LAYER-1
 66
  1
 70
  0
 62
  0
 10
5.616710
 20
0.132610
 30
0.000000
  0
VERTEX
  8
LAYER-1
 10
5.616710
 20
0.132610
 30
0.000000
  0
VERTEX
  8
LAYER-1
 10
5.612369
 20
0.132610
 30
0.000000
  0
VERTEX
  8
LAYER-1
 10
5.608897
 20
0.128269
 30
0.000000
  0
VERTEX
  8
LAYER-1
 10
5.608029
 20
0.123061
 30
0.000000
  0
VERTEX
  8
LAYER-1
 10
5.609765
 20
0.118720
 30
0.000000
  0
VERTEX
  8
LAYER-1
 10
5.614106
 20
0.116985
 30
0.000000
  0
VERTEX
  8
LAYER-1
 10
5.618446
 20
0.116985
 30
0.000000
  0
VERTEX
  8
LAYER-1
 10
5.622787
 20
0.120456
 30
0.000000
  0
VERTEX
  8
LAYER-1
 10
5.622787
 20
0.124797
 30
0.000000
  0
VERTEX
  8
LAYER-1
 10
5.621919
 20
0.129138
 30
0.000000
  0
VERTEX
  8
LAYER-1
 10
5.617578
 20
0.131743
 30
0.000000
  0
SEQEND
  8
LAYER-1
  0
POLYLINE
  8
LAYER-1
 66
  1
 70
  1
 62
  0
 10
5.301604
 20
0.186868
 30
0.000000
  0
VERTEX
  8
LAYER-1
 10
5.301604
 20
0.186868
 30
0.000000
  0
VERTEX
  8
LAYER-1
 10
5.327645
 20
0.193813
 30
0.000000
  0
VERTEX
  8
LAYER-1
 10
5.313758
 20
0.218987
 30
0.000000
  0
SEQEND
  8
LAYER-1
  0
POLYLINE
  8
LAYER-1
 66
  1
 70
  0
 62
  0
 10
5.270354
 20
0.137388
 30
0.000000
  0
VERTEX
  8
LAYER-1
 10
5.270354
 20
0.137388
 30
0.000000
  0
VERTEX
  8
LAYER-1
 10
5.270354
 20
0.133049
 30
0.000000
  0
VERTEX
  8
LAYER-1
 10
5.274695
 20
0.129576
 30
0.000000
  0
VERTEX
  8
LAYER-1
 10
5.279903
 20
0.128709
 30
0.000000
  0
VERTEX
  8
LAYER-1
 10
5.284244
 20
0.130445
 30
0.000000
  0
VERTEX
  8
LAYER-1
 10
5.285979
 20
0.134784
 30
0.000000
  0
VERTEX
  8
LAYER-1
 10
5.285979
 20
0.139125
 30
0.000000
  0
VERTEX
  8
LAYER-1
 10
5.282508
 20
0.143465
 30
0.000000
  0
VERTEX
  8
LAYER-1
 10
5.278167
 20
0.143465
 30
0.000000
  0
VERTEX
  8
LAYER-1
 10
5.273826
 20
0.142597
 30
0.000000
  0
VERTEX
  8
LAYER-1
 10
5.271222
 20
0.138257
 30
0.000000
  0
SEQEND
  8
LAYER-1
  0
POLYLINE
  8
LAYER-1
 66
  1
 70
  1
 62
  0
 10
5.365407
 20
0.150843
 30
0.000000
  0
VERTEX
  8
LAYER-1
 10
5.365407
 20
0.150843
 30
0.000000
  0
VERTEX
  8
LAYER-1
 10
5.378427
 20
0.173414
 30
0.000000
  0
VERTEX
  8
LAYER-1
 10
5.348046
 20
0.152581
 30
0.000000
  0
SEQEND
  8
LAYER-1
  0
POLYLINE
  8
LAYER-1
 66
  1
 70
  0
 62
  0
 10
5.420528
 20
0.185132
 30
0.000000
  0
VERTEX
  8
LAYER-1
 10
5.420528
 20
0.185132
 30
0.000000
  0
VERTEX
  8
LAYER-1
 10
5.420528
 20
0.180792
 30
0.000000
  0
VERTEX
  8
LAYER-1
 10
5.424869
 20
0.177320
 30
0.000000
  0
VERTEX
  8
LAYER-1
 10
5.430076
 20
0.176451
 30
0.000000
  0
VERTEX
  8
LAYER-1
 10
5.434417
 20
0.178188
 30
0.000000
  0
VERTEX
  8
LAYER-1
 10
5.436153
 20
0.182527
 30
0.000000
  0
VERTEX
  8
LAYER-1
 10
5.436153
 20
0.186868
 30
0.000000
  0
VERTEX
  8
LAYER-1
 10
5.432681
 20
0.191209
 30
0.000000
  0
VERTEX
  8
LAYER-1
 10
5.428340
 20
0.191209
 30
0.000000
  0
VERTEX
  8
LAYER-1
 10
5.424000
 20
0.190340
 30
0.000000
  0
VERTEX
  8
LAYER-1
 10
5.421395
 20
0.186000
 30
0.000000
  0
SEQEND
  8
LAYER-1
  0
POLYLINE
  8
LAYER-1
 66
  1
 70
  1
 62
  0
 10
6.166453
 20
0.201537
 30
0.000000
  0
VERTEX
  8
LAYER-1
 10
6.166453
 20
0.201537
 30
0.000000
  0
VERTEX
  8
LAYER-1
 10
6.159507
 20
0.227578
 30
0.000000
  0
VERTEX
  8
LAYER-1
 10
6.134334
 20
0.213690
 30
0.000000
  0
SEQEND
  8
LAYER-1
  0
POLYLINE
  8
LAYER-1
 66
  1
 70
  0
 62
  0
 10
6.206991
 20
0.075321
 30
0.000000
  0
VERTEX
  8
LAYER-1
 10
6.206991
 20
0.075321
 30
0.000000
  0
VERTEX
  8
LAYER-1
 10
6.211331
 20
0.075321
 30
0.000000
  0
VERTEX
  8
LAYER-1
 10
6.214804
 20
0.079662
 30
0.000000
  0
VERTEX
  8
LAYER-1
 10
6.215671
 20
0.084869
 30
0.000000
  0
VERTEX
  8
LAYER-1
 10
6.213935
 20
0.089211
 30
0.000000
  0
VERTEX
  8
LAYER-1
 10
6.209595
 20
0.090946
 30
0.000000
  0
VERTEX
  8
LAYER-1
 10
6.205254
 20
0.090946
 30
0.000000
  0
VERTEX
  8
LAYER-1
 10
6.200915
 20
0.087474
 30
0.000000
  0
VERTEX
  8
LAYER-1
 10
6.200915
 20
0.083133
 30
0.000000
  0
VERTEX
  8
LAYER-1
 10
6.201783
 20
0.078793
 30
0.000000
  0
VERTEX
  8
LAYER-1
 10
6.206123
 20
0.076189
 30
0.000000
  0
SEQEND
  8
LAYER-1
  0
POLYLINE
  8
LAYER-1
 66
  1
 70
  1
 62
  0
 10
5.503427
 20
0.108308
 30
0.000000
  0
VERTEX
  8
LAYER-1
 10
5.503427
 20
0.108308
 30
0.000000
  0
VERTEX
  8
LAYER-1
 10
5.516447
 20
0.130877
 30
0.000000
  0
VERTEX
  8
LAYER-1
 10
5.486066
 20
0.110045
 30
0.000000
  0
SEQEND
  8
LAYER-1
  0
POLYLINE
  8
LAYER-1
 66
  1
 70
  0
 62
  0
 10
5.547179
 20
0.186641
 30
0.000000
  0
VERTEX
  8
LAYER-1
 10
5.547179
 20
0.186641
 30
0.000000
  0
VERTEX
  8
LAYER-1
 10
5.551520
 20
0.186641
 30
0.000000
  0
VERTEX
  8
LAYER-1
 10
5.554992
 20
0.190982
 30
0.000000
  0
VERTEX
  8
LAYER-1
 10
5.555861
 20
0.196190
 30
0.000000
  0
VERTEX
  8
LAYER-1
 10
5.554124
 20
0.200530
 30
0.000000
  0
VERTEX
  8
LAYER-1
 10
5.549784
 20
0.202266
 30
0.000000
  0
VERTEX
  8
LAYER-1
 10
5.545443
 20
0.202266
 30
0.000000
  0
VERTEX
  8
LAYER-1
 10
5.541103
 20
0.198795
 30
0.000000
  0
VERTEX
  8
LAYER-1
 10
5.541103
 20
0.194454
 30
0.000000
  0
VERTEX
  8
LAYER-1
 10
5.541971
 20
0.190113
 30
0.000000
  0
VERTEX
  8
LAYER-1
 10
5.546311
 20
0.187509
 30
0.000000
  0
SEQEND
  8
LAYER-1
  0
POLYLINE
  8
LAYER-1
 66
  1
 70
  1
 62
  0
 10
6.086766
 20
0.117424
 30
0.000000
  0
VERTEX
  8
LAYER-1
 10
6.086766
 20
0.117424
 30
0.000000
  0
VERTEX
  8
LAYER-1
 10
6.060724
 20
0.110478
 30
0.000000
  0
VERTEX
  8
LAYER-1
 10
6.074613
 20
0.085305
 30
0.000000
  0
SEQEND
  8
LAYER-1
  0
POLYLINE
  8
LAYER-1
 66
  1
 70
  0
 62
  0
 10
5.451778
 20
0.132182
 30
0.000000
  0
VERTEX
  8
LAYER-1
 10
5.451778
 20
0.132182
 30
0.000000
  0
VERTEX
  8
LAYER-1
 10
5.451778
 20
0.136520
 30
0.000000
  0
VERTEX
  8
LAYER-1
 10
5.447437
 20
0.139994
 30
0.000000
  0
VERTEX
  8
LAYER-1
 10
5.442229
 20
0.140862
 30
0.000000
  0
VERTEX
  8
LAYER-1
 10
5.437889
 20
0.139125
 30
0.000000
  0
VERTEX
  8
LAYER-1
 10
5.436153
 20
0.134784
 30
0.000000
  0
VERTEX
  8
LAYER-1
 10
5.436153
 20
0.130444
 30
0.000000
  0
VERTEX
  8
LAYER-1
 10
5.439625
 20
0.126105
 30
0.000000
  0
VERTEX
  8
LAYER-1
 10
5.443965
 20
0.126105
 30
0.000000
  0
VERTEX
  8
LAYER-1
 10
5.448306
 20
0.126972
 30
0.000000
  0
VERTEX
  8
LAYER-1
 10
5.450910
 20
0.131313
 30
0.000000
  0
SEQEND
  8
LAYER-1
  0
POLYLINE
  8
LAYER-1
 66
  1
 70
  1
 62
  0
 10
6.035550
 20
0.107007
 30
0.000000
  0
VERTEX
  8
LAYER-1
 10
6.035550
 20
0.107007
 30
0.000000
  0
VERTEX
  8
LAYER-1
 10
6.007772
 20
0.123500
 30
0.000000
  0
VERTEX
  8
LAYER-1
 10
6.028604
 20
0.093118
 30
0.000000
  0
SEQEND
  8
LAYER-1
  0
POLYLINE
  8
LAYER-1
 66
  1
 70
  0
 62
  0
 10
5.746050
 20
0.188600
 30
0.000000
  0
VERTEX
  8
LAYER-1
 10
5.746050
 20
0.188600
 30
0.000000
  0
VERTEX
  8
LAYER-1
 10
5.746050
 20
0.192941
 30
0.000000
  0
VERTEX
  8
LAYER-1
 10
5.741709
 20
0.196413
 30
0.000000
  0
VERTEX
  8
LAYER-1
 10
5.736501
 20
0.197282
 30
0.000000
  0
VERTEX
  8
LAYER-1
 10
5.732160
 20
0.195544
 30
0.000000
  0
VERTEX
  8
LAYER-1
 10
5.730425
 20
0.191205
 30
0.000000
  0
VERTEX
  8
LAYER-1
 10
5.730425
 20
0.186864
 30
0.000000
  0
VERTEX
  8
LAYER-1
 10
5.733896
 20
0.182524
 30
0.000000
  0
VERTEX
  8
LAYER-1
 10
5.738237
 20
0.182524
 30
0.000000
  0
VERTEX
  8
LAYER-1
 10
5.742578
 20
0.183393
 30
0.000000
  0
VERTEX
  8
LAYER-1
 10
5.745182
 20
0.187731
 30
0.000000
  0
SEQEND
  8
LAYER-1
  0
POLYLINE
  8
LAYER-1
 66
  1
 70
  1
 62
  0
 10
6.316714
 20
0.095115
 30
0.000000
  0
VERTEX
  8
LAYER-1
 10
6.316714
 20
0.095115
 30
0.000000
  0
VERTEX
  8
LAYER-1
 10
6.309768
 20
0.121156
 30
0.000000
  0
VERTEX
  8
LAYER-1
 10
6.284595
 20
0.107268
 30
0.000000
  0
SEQEND
  8
LAYER-1
  0
POLYLINE
  8
LAYER-1
 66
  1
 70
  0
 62
  0
 10
6.406558
 20
0.195374
 30
0.000000
  0
VERTEX
  8
LAYER-1
 10
6.406558
 20
0.195374
 30
0.000000
  0
VERTEX
  8
LAYER-1
 10
6.410899
 20
0.195374
 30
0.000000
  0
VERTEX
  8
LAYER-1
 10
6.414371
 20
0.199716
 30
0.000000
  0
VERTEX
  8
LAYER-1
 10
6.415237
 20
0.204923
 30
0.000000
  0
VERTEX
  8
LAYER-1
 10
6.413502
 20
0.209264
 30
0.000000
  0
VERTEX
  8
LAYER-1
 10
6.409163
 20
0.210999
 30
0.000000
  0
VERTEX
  8
LAYER-1
 10
6.404822
 20
0.210999
 30
0.000000
  0
VERTEX
  8
LAYER-1
 10
6.400481
 20
0.207528
 30
0.000000
  0
VERTEX
  8
LAYER-1
 10
6.400481
 20
0.203187
 30
0.000000
  0
VERTEX
  8
LAYER-1
 10
6.401350
 20
0.198847
 30
0.000000
  0
VERTEX
  8
LAYER-1
 10
6.405689
 20
0.196242
 30
0.000000
  0
SEQEND
  8
LAYER-1
  0
POLYLINE
  8
LAYER-1
 66
  1
 70
  1
 62
  0
 10
6.391800
 20
0.230531
 30
0.000000
  0
VERTEX
  8
LAYER-1
 10
6.391800
 20
0.230531
 30
0.000000
  0
VERTEX
  8
LAYER-1
 10
6.365758
 20
0.223586
 30
0.000000
  0
VERTEX
  8
LAYER-1
 10
6.379647
 20
0.198413
 30
0.000000
  0
SEQEND
  8
LAYER-1
  0
POLYLINE
  8
LAYER-1
 66
  1
 70
  1
 62
  0
 10
5.640580
 20
0.089214
 30
0.000000
  0
VERTEX
  8
LAYER-1
 10
5.640580
 20
0.089214
 30
0.000000
  0
VERTEX
  8
LAYER-1
 10
5.653600
 20
0.111783
 30
0.000000
  0
VERTEX
  8
LAYER-1
 10
5.623219
 20
0.090951
 30
0.000000
  0
SEQEND
  8
LAYER-1
  0
POLYLINE
  8
LAYER-1
 66
  1
 70
  0
 62
  0
 10
5.637107
 20
0.195983
 30
0.000000
  0
VERTEX
  8
LAYER-1
 10
5.637107
 20
0.195983
 30
0.000000
  0
VERTEX
  8
LAYER-1
 10
5.641448
 20
0.195983
 30
0.000000
  0
VERTEX
  8
LAYER-1
 10
5.644920
 20
0.200324
 30
0.000000
  0
VERTEX
  8
LAYER-1
 10
5.645789
 20
0.205532
 30
0.000000
  0
VERTEX
  8
LAYER-1
 10
5.644053
 20
0.209872
 30
0.000000
  0
VERTEX
  8
LAYER-1
 10
5.639712
 20
0.211608
 30
0.000000
  0
VERTEX
  8
LAYER-1
 10
5.635372
 20
0.211608
 30
0.000000
  0
VERTEX
  8
LAYER-1
 10
5.631031
 20
0.208137
 30
0.000000
  0
VERTEX
  8
LAYER-1
 10
5.631031
 20
0.203796
 30
0.000000
  0
VERTEX
  8
LAYER-1
 10
5.631900
 20
0.199455
 30
0.000000
  0
VERTEX
  8
LAYER-1
 10
5.636241
 20
0.196851
 30
0.000000
  0
SEQEND
  8
LAYER-1
  0
POLYLINE
  8
LAYER-1
 66
  1
 70
  1
 62
  0
 10
5.589798
 20
0.174714
 30
0.000000
  0
VERTEX
  8
LAYER-1
 10
5.589798
 20
0.174714
 30
0.000000
  0
VERTEX
  8
LAYER-1
 10
5.614973
 20
0.158221
 30
0.000000
  0
VERTEX
  8
LAYER-1
 10
5.622786
 20
0.172978
 30
0.000000
  0
SEQEND
  8
LAYER-1
  0
POLYLINE
  8
LAYER-1
 66
  1
 70
  1
 62
  0
 10
5.576445
 20
0.147102
 30
0.000000
  0
VERTEX
  8
LAYER-1
 10
5.576445
 20
0.147102
 30
0.000000
  0
VERTEX
  8
LAYER-1
 10
5.557081
 20
0.159790
 30
0.000000
  0
VERTEX
  8
LAYER-1
 10
5.551070
 20
0.148438
 30
0.000000
  0
SEQEND
  8
LAYER-1
  0
POLYLINE
  8
LAYER-1
 66
  1
 70
  1
 62
  0
 10
1.353691
 20
0.205964
 30
0.000000
  0
VERTEX
  8
LAYER-1
 10
1.353691
 20
0.205964
 30
0.000000
  0
VERTEX
  8
LAYER-1
 10
1.340670
 20
0.183395
 30
0.000000
  0
VERTEX
  8
LAYER-1
 10
1.371051
 20
0.204227
 30
0.000000
  0
SEQEND
  8
LAYER-1
  0
POLYLINE
  8
LAYER-1
 66
  1
 70
  1
 62
  0
 10
5.903170
 20
0.133050
 30
0.000000
  0
VERTEX
  8
LAYER-1
 10
5.903170
 20
0.133050
 30
0.000000
  0
VERTEX
  8
LAYER-1
 10
5.925740
 20
0.120028
 30
0.000000
  0
VERTEX
  8
LAYER-1
 10
5.904907
 20
0.150411
 30
0.000000
  0
SEQEND
  8
LAYER-1
  0
POLYLINE
  8
LAYER-1
 66
  1
 70
  0
 62
  0
 10
5.831122
 20
0.179921
 30
0.000000
  0
VERTEX
  8
LAYER-1
 10
5.831122
 20
0.179921
 30
0.000000
  0
VERTEX
  8
LAYER-1
 10
5.831122
 20
0.175581
 30
0.000000
  0
VERTEX
  8
LAYER-1
 10
5.835463
 20
0.172109
 30
0.000000
  0
VERTEX
  8
LAYER-1
 10
5.840670
 20
0.171242
 30
0.000000
  0
VERTEX
  8
LAYER-1
 10
5.845011
 20
0.172977
 30
0.000000
  0
VERTEX
  8
LAYER-1
 10
5.846747
 20
0.177318
 30
0.000000
  0
VERTEX
  8
LAYER-1
 10
5.846747
 20
0.181658
 30
0.000000
  0
VERTEX
  8
LAYER-1
 10
5.843275
 20
0.185999
 30
0.000000
  0
VERTEX
  8
LAYER-1
 10
5.838935
 20
0.185999
 30
0.000000
  0
VERTEX
  8
LAYER-1
 10
5.834594
 20
0.185131
 30
0.000000
  0
VERTEX
  8
LAYER-1
 10
5.831990
 20
0.180790
 30
0.000000
  0
SEQEND
  8
LAYER-1
  0
POLYLINE
  8
LAYER-1
 66
  1
 70
  1
 62
  0
 10
5.780774
 20
0.191208
 30
0.000000
  0
VERTEX
  8
LAYER-1
 10
5.780774
 20
0.191208
 30
0.000000
  0
VERTEX
  8
LAYER-1
 10
5.803344
 20
0.178187
 30
0.000000
  0
VERTEX
  8
LAYER-1
 10
5.782511
 20
0.208569
 30
0.000000
  0
SEQEND
  8
LAYER-1
  0
POLYLINE
  8
LAYER-1
 66
  1
 70
  0
 62
  0
 10
6.042928
 20
0.133050
 30
0.000000
  0
VERTEX
  8
LAYER-1
 10
6.042928
 20
0.133050
 30
0.000000
  0
VERTEX
  8
LAYER-1
 10
6.042928
 20
0.128709
 30
0.000000
  0
VERTEX
  8
LAYER-1
 10
6.047268
 20
0.125237
 30
0.000000
  0
VERTEX
  8
LAYER-1
 10
6.052476
 20
0.124369
 30
0.000000
  0
VERTEX
  8
LAYER-1
 10
6.056817
 20
0.126105
 30
0.000000
  0
VERTEX
  8
LAYER-1
 10
6.058553
 20
0.130445
 30
0.000000
  0
VERTEX
  8
LAYER-1
 10
6.058553
 20
0.134786
 30
0.000000
  0
VERTEX
  8
LAYER-1
 10
6.055081
 20
0.139126
 30
0.000000
  0
VERTEX
  8
LAYER-1
 10
6.050740
 20
0.139126
 30
0.000000
  0
VERTEX
  8
LAYER-1
 10
6.046399
 20
0.138257
 30
0.000000
  0
VERTEX
  8
LAYER-1
 10
6.043795
 20
0.133918
 30
0.000000
  0
SEQEND
  8
LAYER-1
  0
POLYLINE
  8
LAYER-1
 66
  1
 70
  0
 62
  0
 10
5.877129
 20
0.187737
 30
0.000000
  0
VERTEX
  8
LAYER-1
 10
5.877129
 20
0.187737
 30
0.000000
  0
VERTEX
  8
LAYER-1
 10
5.877129
 20
0.183396
 30
0.000000
  0
VERTEX
  8
LAYER-1
 10
5.881470
 20
0.179925
 30
0.000000
  0
VERTEX
  8
LAYER-1
 10
5.886678
 20
0.179057
 30
0.000000
  0
VERTEX
  8
LAYER-1
 10
5.891018
 20
0.180793
 30
0.000000
  0
VERTEX
  8
LAYER-1
 10
5.892754
 20
0.185132
 30
0.000000
  0
VERTEX
  8
LAYER-1
 10
5.892754
 20
0.189473
 30
0.000000
  0
VERTEX
  8
LAYER-1
 10
5.889282
 20
0.193814
 30
0.000000
  0
VERTEX
  8
LAYER-1
 10
5.884942
 20
0.193814
 30
0.000000
  0
VERTEX
  8
LAYER-1
 10
5.880601
 20
0.192945
 30
0.000000
  0
VERTEX
  8
LAYER-1
 10
5.877996
 20
0.188605
 30
0.000000
  0
SEQEND
  8
LAYER-1
  0
POLYLINE
  8
LAYER-1
 66
  1
 70
  1
 62
  0
 10
5.801609
 20
0.123067
 30
0.000000
  0
VERTEX
  8
LAYER-1
 10
5.801609
 20
0.123067
 30
0.000000
  0
VERTEX
  8
LAYER-1
 10
5.788588
 20
0.100496
 30
0.000000
  0
VERTEX
  8
LAYER-1
 10
5.818970
 20
0.121329
 30
0.000000
  0
SEQEND
  8
LAYER-1
  0
POLYLINE
  8
LAYER-1
 66
  1
 70
  0
 62
  0
 10
5.727908
 20
0.115201
 30
0.000000
  0
VERTEX
  8
LAYER-1
 10
5.727908
 20
0.115201
 30
0.000000
  0
VERTEX
  8
LAYER-1
 10
5.723568
 20
0.115201
 30
0.000000
  0
VERTEX
  8
LAYER-1
 10
5.720096
 20
0.110861
 30
0.000000
  0
VERTEX
  8
LAYER-1
 10
5.719228
 20
0.105653
 30
0.000000
  0
VERTEX
  8
LAYER-1
 10
5.720964
 20
0.101312
 30
0.000000
  0
VERTEX
  8
LAYER-1
 10
5.725304
 20
0.099576
 30
0.000000
  0
VERTEX
  8
LAYER-1
 10
5.729645
 20
0.099576
 30
0.000000
  0
VERTEX
  8
LAYER-1
 10
5.733985
 20
0.103049
 30
0.000000
  0
VERTEX
  8
LAYER-1
 10
5.733985
 20
0.107389
 30
0.000000
  0
VERTEX
  8
LAYER-1
 10
5.733117
 20
0.111730
 30
0.000000
  0
VERTEX
  8
LAYER-1
 10
5.728776
 20
0.114334
 30
0.000000
  0
SEQEND
  8
LAYER-1
  0
POLYLINE
  8
LAYER-1
 66
  1
 70
  0
 62
  0
 10
5.801609
 20
0.153447
 30
0.000000
  0
VERTEX
  8
LAYER-1
 10
5.801609
 20
0.153447
 30
0.000000
  0
VERTEX
  8
LAYER-1
 10
5.797268
 20
0.153447
 30
0.000000
  0
VERTEX
  8
LAYER-1
 10
5.793797
 20
0.149106
 30
0.000000
  0
VERTEX
  8
LAYER-1
 10
5.792928
 20
0.143899
 30
0.000000
  0
VERTEX
  8
LAYER-1
 10
5.794664
 20
0.139558
 30
0.000000
  0
VERTEX
  8
LAYER-1
 10
5.799005
 20
0.137822
 30
0.000000
  0
VERTEX
  8
LAYER-1
 10
5.803345
 20
0.137822
 30
0.000000
  0
VERTEX
  8
LAYER-1
 10
5.807685
 20
0.141294
 30
0.000000
  0
VERTEX
  8
LAYER-1
 10
5.807685
 20
0.145634
 30
0.000000
  0
VERTEX
  8
LAYER-1
 10
5.806817
 20
0.149975
 30
0.000000
  0
VERTEX
  8
LAYER-1
 10
5.802477
 20
0.152580
 30
0.000000
  0
SEQEND
  8
LAYER-1
  0
POLYLINE
  8
LAYER-1
 66
  1
 70
  1
 62
  0
 10
6.108900
 20
0.169941
 30
0.000000
  0
VERTEX
  8
LAYER-1
 10
6.108900
 20
0.169941
 30
0.000000
  0
VERTEX
  8
LAYER-1
 10
6.115845
 20
0.143900
 30
0.000000
  0
VERTEX
  8
LAYER-1
 10
6.141018
 20
0.157788
 30
0.000000
  0
SEQEND
  8
LAYER-1
  0
POLYLINE
  8
LAYER-1
 66
  1
 70
  1
 62
  0
 10
6.271227
 20
0.198587
 30
0.000000
  0
VERTEX
  8
LAYER-1
 10
6.271227
 20
0.198587
 30
0.000000
  0
VERTEX
  8
LAYER-1
 10
6.258206
 20
0.176018
 30
0.000000
  0
VERTEX
  8
LAYER-1
 10
6.288588
 20
0.196850
 30
0.000000
  0
SEQEND
  8
LAYER-1
  0
POLYLINE
  8
LAYER-1
 66
  1
 70
  0
 62
  0
 10
6.059422
 20
0.201191
 30
0.000000
  0
VERTEX
  8
LAYER-1
 10
6.059422
 20
0.201191
 30
0.000000
  0
VERTEX
  8
LAYER-1
 10
6.055081
 20
0.201191
 30
0.000000
  0
VERTEX
  8
LAYER-1
 10
6.051609
 20
0.196850
 30
0.000000
  0
VERTEX
  8
LAYER-1
 10
6.050740
 20
0.191643
 30
0.000000
  0
VERTEX
  8
LAYER-1
 10
6.052477
 20
0.187302
 30
0.000000
  0
VERTEX
  8
LAYER-1
 10
6.056817
 20
0.185566
 30
0.000000
  0
VERTEX
  8
LAYER-1
 10
6.061157
 20
0.185566
 30
0.000000
  0
VERTEX
  8
LAYER-1
 10
6.065498
 20
0.189038
 30
0.000000
  0
VERTEX
  8
LAYER-1
 10
6.065498
 20
0.193378
 30
0.000000
  0
VERTEX
  8
LAYER-1
 10
6.064629
 20
0.197719
 30
0.000000
  0
VERTEX
  8
LAYER-1
 10
6.060289
 20
0.200323
 30
0.000000
  0
SEQEND
  8
LAYER-1
  0
POLYLINE
  8
LAYER-1
 66
  1
 70
  1
 62
  0
 10
6.169666
 20
0.133482
 30
0.000000
  0
VERTEX
  8
LAYER-1
 10
6.169666
 20
0.133482
 30
0.000000
  0
VERTEX
  8
LAYER-1
 10
6.156645
 20
0.110913
 30
0.000000
  0
VERTEX
  8
LAYER-1
 10
6.187027
 20
0.131745
 30
0.000000
  0
SEQEND
  8
LAYER-1
  0
POLYLINE
  8
LAYER-1
 66
  1
 70
  0
 62
  0
 10
6.211331
 20
0.202927
 30
0.000000
  0
VERTEX
  8
LAYER-1
 10
6.211331
 20
0.202927
 30
0.000000
  0
VERTEX
  8
LAYER-1
 10
6.206990
 20
0.202927
 30
0.000000
  0
VERTEX
  8
LAYER-1
 10
6.203518
 20
0.198586
 30
0.000000
  0
VERTEX
  8
LAYER-1
 10
6.202650
 20
0.193378
 30
0.000000
  0
VERTEX
  8
LAYER-1
 10
6.204386
 20
0.189038
 30
0.000000
  0
VERTEX
  8
LAYER-1
 10
6.208727
 20
0.187302
 30
0.000000
  0
VERTEX
  8
LAYER-1
 10
6.213067
 20
0.187302
 30
0.000000
  0
VERTEX
  8
LAYER-1
 10
6.217407
 20
0.190774
 30
0.000000
  0
VERTEX
  8
LAYER-1
 10
6.217407
 20
0.195114
 30
0.000000
  0
VERTEX
  8
LAYER-1
 10
6.216539
 20
0.199455
 30
0.000000
  0
VERTEX
  8
LAYER-1
 10
6.212198
 20
0.202059
 30
0.000000
  0
SEQEND
  8
LAYER-1
  0
POLYLINE
  8
LAYER-1
 66
  1
 70
  1
 62
  0
 10
6.550740
 20
0.194246
 30
0.000000
  0
VERTEX
  8
LAYER-1
 10
6.550740
 20
0.194246
 30
0.000000
  0
VERTEX
  8
LAYER-1
 10
6.557685
 20
0.168206
 30
0.000000
  0
VERTEX
  8
LAYER-1
 10
6.582858
 20
0.182093
 30
0.000000
  0
SEQEND
  8
LAYER-1
  0
POLYLINE
  8
LAYER-1
 66
  1
 70
  1
 62
  0
 10
6.713067
 20
0.222894
 30
0.000000
  0
VERTEX
  8
LAYER-1
 10
6.713067
 20
0.222894
 30
0.000000
  0
VERTEX
  8
LAYER-1
 10
6.700045
 20
0.200323
 30
0.000000
  0
VERTEX
  8
LAYER-1
 10
6.730427
 20
0.221156
 30
0.000000
  0
SEQEND
  8
LAYER-1
  0
POLYLINE
  8
LAYER-1
 66
  1
 70
  1
 62
  0
 10
5.941366
 20
0.158657
 30
0.000000
  0
VERTEX
  8
LAYER-1
 10
5.941366
 20
0.158657
 30
0.000000
  0
VERTEX
  8
LAYER-1
 10
5.966539
 20
0.142163
 30
0.000000
  0
VERTEX
  8
LAYER-1
 10
5.974351
 20
0.156921
 30
0.000000
  0
SEQEND
  8
LAYER-1
  0
POLYLINE
  8
LAYER-1
 66
  1
 70
  0
 62
  0
 10
6.511678
 20
0.215081
 30
0.000000
  0
VERTEX
  8
LAYER-1
 10
6.511678
 20
0.215081
 30
0.000000
  0
VERTEX
  8
LAYER-1
 10
6.507337
 20
0.215081
 30
0.000000
  0
VERTEX
  8
LAYER-1
 10
6.503865
 20
0.210740
 30
0.000000
  0
VERTEX
  8
LAYER-1
 10
6.502997
 20
0.205532
 30
0.000000
  0
VERTEX
  8
LAYER-1
 10
6.504733
 20
0.201192
 30
0.000000
  0
VERTEX
  8
LAYER-1
 10
6.509073
 20
0.199456
 30
0.000000
  0
VERTEX
  8
LAYER-1
 10
6.513413
 20
0.199456
 30
0.000000
  0
VERTEX
  8
LAYER-1
 10
6.517754
 20
0.202927
 30
0.000000
  0
VERTEX
  8
LAYER-1
 10
6.517754
 20
0.207269
 30
0.000000
  0
VERTEX
  8
LAYER-1
 10
6.516886
 20
0.211609
 30
0.000000
  0
VERTEX
  8
LAYER-1
 10
6.512545
 20
0.214214
 30
0.000000
  0
SEQEND
  8
LAYER-1
  0
POLYLINE
  8
LAYER-1
 66
  1
 70
  1
 62
  0
 10
6.527303
 20
0.126539
 30
0.000000
  0
VERTEX
  8
LAYER-1
 10
6.527303
 20
0.126539
 30
0.000000
  0
VERTEX
  8
LAYER-1
 10
6.514282
 20
0.103968
 30
0.000000
  0
VERTEX
  8
LAYER-1
 10
6.544664
 20
0.124801
 30
0.000000
  0
SEQEND
  8
LAYER-1
  0
POLYLINE
  8
LAYER-1
 66
  1
 70
  1
 62
  0
 10
6.621754
 20
0.140956
 30
0.000000
  0
VERTEX
  8
LAYER-1
 10
6.621754
 20
0.140956
 30
0.000000
  0
VERTEX
  8
LAYER-1
 10
6.609067
 20
0.121592
 30
0.000000
  0
VERTEX
  8
LAYER-1
 10
6.620418
 20
0.115581
 30
0.000000
  0
SEQEND
  8
LAYER-1
  0
POLYLINE
  8
LAYER-1
 66
  1
 70
  0
 62
  0
 10
6.653170
 20
0.219421
 30
0.000000
  0
VERTEX
  8
LAYER-1
 10
6.653170
 20
0.219421
 30
0.000000
  0
VERTEX
  8
LAYER-1
 10
6.648831
 20
0.219421
 30
0.000000
  0
VERTEX
  8
LAYER-1
 10
6.645358
 20
0.215080
 30
0.000000
  0
VERTEX
  8
LAYER-1
 10
6.644490
 20
0.209872
 30
0.000000
  0
VERTEX
  8
LAYER-1
 10
6.646226
 20
0.205532
 30
0.000000
  0
VERTEX
  8
LAYER-1
 10
6.650567
 20
0.203796
 30
0.000000
  0
VERTEX
  8
LAYER-1
 10
6.654907
 20
0.203796
 30
0.000000
  0
VERTEX
  8
LAYER-1
 10
6.659247
 20
0.207268
 30
0.000000
  0
VERTEX
  8
LAYER-1
 10
6.659247
 20
0.211608
 30
0.000000
  0
VERTEX
  8
LAYER-1
 10
6.658379
 20
0.215949
 30
0.000000
  0
VERTEX
  8
LAYER-1
 10
6.654038
 20
0.218553
 30
0.000000
  0
SEQEND
  8
LAYER-1
  0
POLYLINE
  8
LAYER-1
 66
  1
 70
  0
 62
  0
 10
5.930081
 20
0.211608
 30
0.000000
  0
VERTEX
  8
LAYER-1
 10
5.930081
 20
0.211608
 30
0.000000
  0
VERTEX
  8
LAYER-1
 10
5.930081
 20
0.207268
 30
0.000000
  0
VERTEX
  8
LAYER-1
 10
5.934422
 20
0.203796
 30
0.000000
  0
VERTEX
  8
LAYER-1
 10
5.939629
 20
0.202927
 30
0.000000
  0
VERTEX
  8
LAYER-1
 10
5.943970
 20
0.204663
 30
0.000000
  0
VERTEX
  8
LAYER-1
 10
5.945706
 20
0.209003
 30
0.000000
  0
VERTEX
  8
LAYER-1
 10
5.945706
 20
0.213344
 30
0.000000
  0
VERTEX
  8
LAYER-1
 10
5.942234
 20
0.217684
 30
0.000000
  0
VERTEX
  8
LAYER-1
 10
5.937894
 20
0.217684
 30
0.000000
  0
VERTEX
  8
LAYER-1
 10
5.933553
 20
0.216816
 30
0.000000
  0
VERTEX
  8
LAYER-1
 10
5.930948
 20
0.212475
 30
0.000000
  0
SEQEND
  8
LAYER-1
  0
POLYLINE
  8
LAYER-1
 66
  1
 70
  0
 62
  0
 10
6.493448
 20
0.127405
 30
0.000000
  0
VERTEX
  8
LAYER-1
 10
6.493448
 20
0.127405
 30
0.000000
  0
VERTEX
  8
LAYER-1
 10
6.489107
 20
0.127405
 30
0.000000
  0
VERTEX
  8
LAYER-1
 10
6.485635
 20
0.123064
 30
0.000000
  0
VERTEX
  8
LAYER-1
 10
6.484767
 20
0.117856
 30
0.000000
  0
VERTEX
  8
LAYER-1
 10
6.486503
 20
0.113515
 30
0.000000
  0
VERTEX
  8
LAYER-1
 10
6.490844
 20
0.111780
 30
0.000000
  0
VERTEX
  8
LAYER-1
 10
6.495184
 20
0.111780
 30
0.000000
  0
VERTEX
  8
LAYER-1
 10
6.499524
 20
0.115251
 30
0.000000
  0
VERTEX
  8
LAYER-1
 10
6.499524
 20
0.119592
 30
0.000000
  0
VERTEX
  8
LAYER-1
 10
6.498656
 20
0.123933
 30
0.000000
  0
VERTEX
  8
LAYER-1
 10
6.494316
 20
0.126538
 30
0.000000
  0
SEQEND
  8
LAYER-1
  0
POLYLINE
  8
LAYER-1
 66
  1
 70
  0
 62
  0
 10
6.391887
 20
0.165167
 30
0.000000
  0
VERTEX
  8
LAYER-1
 10
6.391887
 20
0.165167
 30
0.000000
  0
VERTEX
  8
LAYER-1
 10
6.391887
 20
0.169507
 30
0.000000
  0
VERTEX
  8
LAYER-1
 10
6.387547
 20
0.172980
 30
0.000000
  0
VERTEX
  8
LAYER-1
 10
6.382339
 20
0.173847
 30
0.000000
  0
VERTEX
  8
LAYER-1
 10
6.377998
 20
0.172112
 30
0.000000
  0
VERTEX
  8
LAYER-1
 10
6.376262
 20
0.167770
 30
0.000000
  0
VERTEX
  8
LAYER-1
 10
6.376262
 20
0.163431
 30
0.000000
  0
VERTEX
  8
LAYER-1
 10
6.379734
 20
0.159091
 30
0.000000
  0
VERTEX
  8
LAYER-1
 10
6.384075
 20
0.159091
 30
0.000000
  0
VERTEX
  8
LAYER-1
 10
6.388415
 20
0.159958
 30
0.000000
  0
VERTEX
  8
LAYER-1
 10
6.391018
 20
0.164299
 30
0.000000
  0
SEQEND
  8
LAYER-1
  0
POLYLINE
  8
LAYER-1
 66
  1
 70
  1
 62
  0
 10
6.324178
 20
0.152145
 30
0.000000
  0
VERTEX
  8
LAYER-1
 10
6.324178
 20
0.152145
 30
0.000000
  0
VERTEX
  8
LAYER-1
 10
6.301609
 20
0.165165
 30
0.000000
  0
VERTEX
  8
LAYER-1
 10
6.322442
 20
0.134783
 30
0.000000
  0
SEQEND
  8
LAYER-1
  0
POLYLINE
  8
LAYER-1
 66
  1
 70
  0
 62
  0
 10
6.241714
 20
0.117424
 30
0.000000
  0
VERTEX
  8
LAYER-1
 10
6.241714
 20
0.117424
 30
0.000000
  0
VERTEX
  8
LAYER-1
 10
6.241714
 20
0.121764
 30
0.000000
  0
VERTEX
  8
LAYER-1
 10
6.237373
 20
0.125237
 30
0.000000
  0
VERTEX
  8
LAYER-1
 10
6.232165
 20
0.126105
 30
0.000000
  0
VERTEX
  8
LAYER-1
 10
6.227825
 20
0.124368
 30
0.000000
  0
VERTEX
  8
LAYER-1
 10
6.226089
 20
0.120028
 30
0.000000
  0
VERTEX
  8
LAYER-1
 10
6.226089
 20
0.115688
 30
0.000000
  0
VERTEX
  8
LAYER-1
 10
6.229560
 20
0.111347
 30
0.000000
  0
VERTEX
  8
LAYER-1
 10
6.233901
 20
0.111347
 30
0.000000
  0
VERTEX
  8
LAYER-1
 10
6.238242
 20
0.112216
 30
0.000000
  0
VERTEX
  8
LAYER-1
 10
6.240845
 20
0.116556
 30
0.000000
  0
SEQEND
  8
LAYER-1
  0
POLYLINE
  8
LAYER-1
 66
  1
 70
  1
 62
  0
 10
6.431991
 20
0.107702
 30
0.000000
  0
VERTEX
  8
LAYER-1
 10
6.431991
 20
0.107702
 30
0.000000
  0
VERTEX
  8
LAYER-1
 10
6.425046
 20
0.133742
 30
0.000000
  0
VERTEX
  8
LAYER-1
 10
6.399873
 20
0.119855
 30
0.000000
  0
SEQEND
  8
LAYER-1
  0
POLYLINE
  8
LAYER-1
 66
  1
 70
  1
 62
  0
 10
6.453518
 20
0.162128
 30
0.000000
  0
VERTEX
  8
LAYER-1
 10
6.453518
 20
0.162128
 30
0.000000
  0
VERTEX
  8
LAYER-1
 10
6.466539
 20
0.184699
 30
0.000000
  0
VERTEX
  8
LAYER-1
 10
6.436157
 20
0.163866
 30
0.000000
  0
SEQEND
  8
LAYER-1
  0
POLYLINE
  8
LAYER-1
 66
  1
 70
  1
 62
  0
 10
5.881470
 20
0.105705
 30
0.000000
  0
VERTEX
  8
LAYER-1
 10
5.881470
 20
0.105705
 30
0.000000
  0
VERTEX
  8
LAYER-1
 10
5.858899
 20
0.118727
 30
0.000000
  0
VERTEX
  8
LAYER-1
 10
5.879732
 20
0.088344
 30
0.000000
  0
SEQEND
  8
LAYER-1
  0
POLYLINE
  8
LAYER-1
 66
  1
 70
  1
 62
  0
 10
6.659248
 20
0.130012
 30
0.000000
  0
VERTEX
  8
LAYER-1
 10
6.659248
 20
0.130012
 30
0.000000
  0
VERTEX
  8
LAYER-1
 10
6.675741
 20
0.155184
 30
0.000000
  0
VERTEX
  8
LAYER-1
 10
6.660984
 20
0.162997
 30
0.000000
  0
SEQEND
  8
LAYER-1
  0
POLYLINE
  8
LAYER-1
 66
  1
 70
  0
 62
  0
 10
6.690148
 20
0.056608
 30
0.000000
  0
VERTEX
  8
LAYER-1
 10
6.690148
 20
0.056608
 30
0.000000
  0
VERTEX
  8
LAYER-1
 10
6.694489
 20
0.056608
 30
0.000000
  0
VERTEX
  8
LAYER-1
 10
6.697961
 20
0.060949
 30
0.000000
  0
VERTEX
  8
LAYER-1
 10
6.698829
 20
0.066156
 30
0.000000
  0
VERTEX
  8
LAYER-1
 10
6.697093
 20
0.070496
 30
0.000000
  0
VERTEX
  8
LAYER-1
 10
6.692752
 20
0.072233
 30
0.000000
  0
VERTEX
  8
LAYER-1
 10
6.688412
 20
0.072233
 30
0.000000
  0
VERTEX
  8
LAYER-1
 10
6.684072
 20
0.068761
 30
0.000000
  0
VERTEX
  8
LAYER-1
 10
6.684072
 20
0.064420
 30
0.000000
  0
VERTEX
  8
LAYER-1
 10
6.684939
 20
0.060080
 30
0.000000
  0
VERTEX
  8
LAYER-1
 10
6.689280
 20
0.057475
 30
0.000000
  0
SEQEND
  8
LAYER-1
  0
POLYLINE
  8
LAYER-1
 66
  1
 70
  0
 62
  0
 10
6.666711
 20
0.081787
 30
0.000000
  0
VERTEX
  8
LAYER-1
 10
6.666711
 20
0.081787
 30
0.000000
  0
VERTEX
  8
LAYER-1
 10
6.671052
 20
0.081787
 30
0.000000
  0
VERTEX
  8
LAYER-1
 10
6.674523
 20
0.086127
 30
0.000000
  0
VERTEX
  8
LAYER-1
 10
6.675391
 20
0.091336
 30
0.000000
  0
VERTEX
  8
LAYER-1
 10
6.673656
 20
0.095676
 30
0.000000
  0
VERTEX
  8
LAYER-1
 10
6.669315
 20
0.097412
 30
0.000000
  0
VERTEX
  8
LAYER-1
 10
6.664975
 20
0.097412
 30
0.000000
  0
VERTEX
  8
LAYER-1
 10
6.660634
 20
0.093940
 30
0.000000
  0
VERTEX
  8
LAYER-1
 10
6.660634
 20
0.089600
 30
0.000000
  0
VERTEX
  8
LAYER-1
 10
6.661502
 20
0.085258
 30
0.000000
  0
VERTEX
  8
LAYER-1
 10
6.665843
 20
0.082654
 30
0.000000
  0
SEQEND
  8
LAYER-1
  0
POLYLINE
  8
LAYER-1
 66
  1
 70
  1
 62
  0
 10
6.740929
 20
0.097843
 30
0.000000
  0
VERTEX
  8
LAYER-1
 10
6.740929
 20
0.097843
 30
0.000000
  0
VERTEX
  8
LAYER-1
 10
6.715756
 20
0.114336
 30
0.000000
  0
VERTEX
  8
LAYER-1
 10
6.707943
 20
0.099578
 30
0.000000
  0
SEQEND
  8
LAYER-1
  0
POLYLINE
  8
LAYER-1
 66
  1
 70
  0
 62
  0
 10
6.751346
 20
0.136907
 30
0.000000
  0
VERTEX
  8
LAYER-1
 10
6.751346
 20
0.136907
 30
0.000000
  0
VERTEX
  8
LAYER-1
 10
6.751346
 20
0.141248
 30
0.000000
  0
VERTEX
  8
LAYER-1
 10
6.747006
 20
0.144719
 30
0.000000
  0
VERTEX
  8
LAYER-1
 10
6.741798
 20
0.145587
 30
0.000000
  0
VERTEX
  8
LAYER-1
 10
6.737457
 20
0.143851
 30
0.000000
  0
VERTEX
  8
LAYER-1
 10
6.735721
 20
0.139511
 30
0.000000
  0
VERTEX
  8
LAYER-1
 10
6.735721
 20
0.135171
 30
0.000000
  0
VERTEX
  8
LAYER-1
 10
6.739193
 20
0.130831
 30
0.000000
  0
VERTEX
  8
LAYER-1
 10
6.743534
 20
0.130831
 30
0.000000
  0
VERTEX
  8
LAYER-1
 10
6.747875
 20
0.131699
 30
0.000000
  0
VERTEX
  8
LAYER-1
 10
6.750479
 20
0.136039
 30
0.000000
  0
SEQEND
  8
LAYER-1
  0
POLYLINE
  8
LAYER-1
 66
  1
 70
  1
 62
  0
 10
6.697869
 20
0.142759
 30
0.000000
  0
VERTEX
  8
LAYER-1
 10
6.697869
 20
0.142759
 30
0.000000
  0
VERTEX
  8
LAYER-1
 10
6.710555
 20
0.162123
 30
0.000000
  0
VERTEX
  8
LAYER-1
 10
6.699205
 20
0.168134
 30
0.000000
  0
SEQEND
  8
LAYER-1
  0
POLYLINE
  8
LAYER-1
 66
  1
 70
  0
 62
  0
 10
6.021225
 20
0.172546
 30
0.000000
  0
VERTEX
  8
LAYER-1
 10
6.021225
 20
0.172546
 30
0.000000
  0
VERTEX
  8
LAYER-1
 10
6.021225
 20
0.176884
 30
0.000000
  0
VERTEX
  8
LAYER-1
 10
6.016885
 20
0.180358
 30
0.000000
  0
VERTEX
  8
LAYER-1
 10
6.011677
 20
0.181225
 30
0.000000
  0
VERTEX
  8
LAYER-1
 10
6.007336
 20
0.179489
 30
0.000000
  0
VERTEX
  8
LAYER-1
 10
6.005600
 20
0.175149
 30
0.000000
  0
VERTEX
  8
LAYER-1
 10
6.005600
 20
0.170808
 30
0.000000
  0
VERTEX
  8
LAYER-1
 10
6.009072
 20
0.166469
 30
0.000000
  0
VERTEX
  8
LAYER-1
 10
6.013413
 20
0.166469
 30
0.000000
  0
VERTEX
  8
LAYER-1
 10
6.017754
 20
0.167336
 30
0.000000
  0
VERTEX
  8
LAYER-1
 10
6.020358
 20
0.171677
 30
0.000000
  0
SEQEND
  8
LAYER-1
  0
POLYLINE
  8
LAYER-1
 66
  1
 70
  0
 62
  0
 10
6.607164
 20
0.136088
 30
0.000000
  0
VERTEX
  8
LAYER-1
 10
6.607164
 20
0.136088
 30
0.000000
  0
VERTEX
  8
LAYER-1
 10
6.611505
 20
0.136088
 30
0.000000
  0
VERTEX
  8
LAYER-1
 10
6.614977
 20
0.140428
 30
0.000000
  0
VERTEX
  8
LAYER-1
 10
6.615845
 20
0.145637
 30
0.000000
  0
VERTEX
  8
LAYER-1
 10
6.614109
 20
0.149977
 30
0.000000
  0
VERTEX
  8
LAYER-1
 10
6.609768
 20
0.151713
 30
0.000000
  0
VERTEX
  8
LAYER-1
 10
6.605428
 20
0.151713
 30
0.000000
  0
VERTEX
  8
LAYER-1
 10
6.601088
 20
0.148241
 30
0.000000
  0
VERTEX
  8
LAYER-1
 10
6.601088
 20
0.143901
 30
0.000000
  0
VERTEX
  8
LAYER-1
 10
6.601956
 20
0.139559
 30
0.000000
  0
VERTEX
  8
LAYER-1
 10
6.606297
 20
0.136955
 30
0.000000
  0
SEQEND
  8
LAYER-1
  0
POLYLINE
  8
LAYER-1
 66
  1
 70
  1
 62
  0
 10
0.864800
 20
0.139770
 30
0.000000
  0
VERTEX
  8
LAYER-1
 10
0.864800
 20
0.139770
 30
0.000000
  0
VERTEX
  8
LAYER-1
 10
0.842230
 20
0.152790
 30
0.000000
  0
VERTEX
  8
LAYER-1
 10
0.863062
 20
0.122409
 30
0.000000
  0
SEQEND
  8
LAYER-1
  0
POLYLINE
  8
LAYER-1
 66
  1
 70
  0
 62
  0
 10
0.853516
 20
0.072929
 30
0.000000
  0
VERTEX
  8
LAYER-1
 10
0.853516
 20
0.072929
 30
0.000000
  0
VERTEX
  8
LAYER-1
 10
0.853516
 20
0.077267
 30
0.000000
  0
VERTEX
  8
LAYER-1
 10
0.849175
 20
0.080741
 30
0.000000
  0
VERTEX
  8
LAYER-1
 10
0.843967
 20
0.081608
 30
0.000000
  0
VERTEX
  8
LAYER-1
 10
0.839627
 20
0.079872
 30
0.000000
  0
VERTEX
  8
LAYER-1
 10
0.837891
 20
0.075532
 30
0.000000
  0
VERTEX
  8
LAYER-1
 10
0.837891
 20
0.071191
 30
0.000000
  0
VERTEX
  8
LAYER-1
 10
0.841363
 20
0.066852
 30
0.000000
  0
VERTEX
  8
LAYER-1
 10
0.845703
 20
0.066852
 30
0.000000
  0
VERTEX
  8
LAYER-1
 10
0.850044
 20
0.067719
 30
0.000000
  0
VERTEX
  8
LAYER-1
 10
0.852649
 20
0.072060
 30
0.000000
  0
SEQEND
  8
LAYER-1
  0
POLYLINE
  8
LAYER-1
 66
  1
 70
  1
 62
  0
 10
1.131555
 20
0.061728
 30
0.000000
  0
VERTEX
  8
LAYER-1
 10
1.131555
 20
0.061728
 30
0.000000
  0
VERTEX
  8
LAYER-1
 10
1.148048
 20
0.086902
 30
0.000000
  0
VERTEX
  8
LAYER-1
 10
1.133291
 20
0.094715
 30
0.000000
  0
SEQEND
  8
LAYER-1
  0
POLYLINE
  8
LAYER-1
 66
  1
 70
  1
 62
  0
 10
1.179465
 20
0.076822
 30
0.000000
  0
VERTEX
  8
LAYER-1
 10
1.179465
 20
0.076822
 30
0.000000
  0
VERTEX
  8
LAYER-1
 10
1.192152
 20
0.096187
 30
0.000000
  0
VERTEX
  8
LAYER-1
 10
1.180801
 20
0.102197
 30
0.000000
  0
SEQEND
  8
LAYER-1
  0
POLYLINE
  8
LAYER-1
 66
  1
 70
  0
 62
  0
 10
1.243534
 20
0.053051
 30
0.000000
  0
VERTEX
  8
LAYER-1
 10
1.243534
 20
0.053051
 30
0.000000
  0
VERTEX
  8
LAYER-1
 10
1.247875
 20
0.053051
 30
0.000000
  0
VERTEX
  8
LAYER-1
 10
1.251347
 20
0.057391
 30
0.000000
  0
VERTEX
  8
LAYER-1
 10
1.252215
 20
0.062599
 30
0.000000
  0
VERTEX
  8
LAYER-1
 10
1.250479
 20
0.066939
 30
0.000000
  0
VERTEX
  8
LAYER-1
 10
1.246138
 20
0.068676
 30
0.000000
  0
VERTEX
  8
LAYER-1
 10
1.241798
 20
0.068676
 30
0.000000
  0
VERTEX
  8
LAYER-1
 10
1.237458
 20
0.065203
 30
0.000000
  0
VERTEX
  8
LAYER-1
 10
1.237458
 20
0.060863
 30
0.000000
  0
VERTEX
  8
LAYER-1
 10
1.238326
 20
0.056522
 30
0.000000
  0
VERTEX
  8
LAYER-1
 10
1.242666
 20
0.053919
 30
0.000000
  0
SEQEND
  8
LAYER-1
  0
POLYLINE
  8
LAYER-1
 66
  1
 70
  1
 62
  0
 10
1.277388
 20
0.115983
 30
0.000000
  0
VERTEX
  8
LAYER-1
 10
1.277388
 20
0.115983
 30
0.000000
  0
VERTEX
  8
LAYER-1
 10
1.251347
 20
0.109038
 30
0.000000
  0
VERTEX
  8
LAYER-1
 10
1.265235
 20
0.083865
 30
0.000000
  0
SEQEND
  8
LAYER-1
  0
POLYLINE
  8
LAYER-1
 66
  1
 70
  0
 62
  0
 10
2.645271
 20
0.083690
 30
0.000000
  0
VERTEX
  8
LAYER-1
 10
2.645271
 20
0.083690
 30
0.000000
  0
VERTEX
  8
LAYER-1
 10
2.645271
 20
0.088030
 30
0.000000
  0
VERTEX
  8
LAYER-1
 10
2.640931
 20
0.091503
 30
0.000000
  0
VERTEX
  8
LAYER-1
 10
2.635723
 20
0.092371
 30
0.000000
  0
VERTEX
  8
LAYER-1
 10
2.631382
 20
0.090635
 30
0.000000
  0
VERTEX
  8
LAYER-1
 10
2.629646
 20
0.086295
 30
0.000000
  0
VERTEX
  8
LAYER-1
 10
2.629646
 20
0.081954
 30
0.000000
  0
VERTEX
  8
LAYER-1
 10
2.633118
 20
0.077614
 30
0.000000
  0
VERTEX
  8
LAYER-1
 10
2.637459
 20
0.077614
 30
0.000000
  0
VERTEX
  8
LAYER-1
 10
2.641800
 20
0.078483
 30
0.000000
  0
VERTEX
  8
LAYER-1
 10
2.644403
 20
0.082822
 30
0.000000
  0
SEQEND
  8
LAYER-1
  0
POLYLINE
  8
LAYER-1
 66
  1
 70
  1
 62
  0
 10
2.579298
 20
0.046799
 30
0.000000
  0
VERTEX
  8
LAYER-1
 10
2.579298
 20
0.046799
 30
0.000000
  0
VERTEX
  8
LAYER-1
 10
2.572354
 20
0.072840
 30
0.000000
  0
VERTEX
  8
LAYER-1
 10
2.547181
 20
0.058952
 30
0.000000
  0
SEQEND
  8
LAYER-1
  0
POLYLINE
  8
LAYER-1
 66
  1
 70
  1
 62
  0
 10
2.591451
 20
0.083258
 30
0.000000
  0
VERTEX
  8
LAYER-1
 10
2.591451
 20
0.083258
 30
0.000000
  0
VERTEX
  8
LAYER-1
 10
2.604472
 20
0.105827
 30
0.000000
  0
VERTEX
  8
LAYER-1
 10
2.574090
 20
0.084994
 30
0.000000
  0
SEQEND
  8
LAYER-1
  0
POLYLINE
  8
LAYER-1
 66
  1
 70
  0
 62
  0
 10
2.427650
 20
0.094108
 30
0.000000
  0
VERTEX
  8
LAYER-1
 10
2.427650
 20
0.094108
 30
0.000000
  0
VERTEX
  8
LAYER-1
 10
2.423309
 20
0.094108
 30
0.000000
  0
VERTEX
  8
LAYER-1
 10
2.419837
 20
0.089767
 30
0.000000
  0
VERTEX
  8
LAYER-1
 10
2.418969
 20
0.084559
 30
0.000000
  0
VERTEX
  8
LAYER-1
 10
2.420705
 20
0.080218
 30
0.000000
  0
VERTEX
  8
LAYER-1
 10
2.425046
 20
0.078483
 30
0.000000
  0
VERTEX
  8
LAYER-1
 10
2.429386
 20
0.078483
 30
0.000000
  0
VERTEX
  8
LAYER-1
 10
2.433726
 20
0.081954
 30
0.000000
  0
VERTEX
  8
LAYER-1
 10
2.433726
 20
0.086295
 30
0.000000
  0
VERTEX
  8
LAYER-1
 10
2.432858
 20
0.090636
 30
0.000000
  0
VERTEX
  8
LAYER-1
 10
2.428518
 20
0.093241
 30
0.000000
  0
SEQEND
  8
LAYER-1
  0
POLYLINE
  8
LAYER-1
 66
  1
 70
  1
 62
  0
 10
2.507511
 20
0.056780
 30
0.000000
  0
VERTEX
  8
LAYER-1
 10
2.507511
 20
0.056780
 30
0.000000
  0
VERTEX
  8
LAYER-1
 10
2.484940
 20
0.069803
 30
0.000000
  0
VERTEX
  8
LAYER-1
 10
2.505773
 20
0.039420
 30
0.000000
  0
SEQEND
  8
LAYER-1
  0
POLYLINE
  8
LAYER-1
 66
  1
 70
  1
 62
  0
 10
3.102481
 20
0.057632
 30
0.000000
  0
VERTEX
  8
LAYER-1
 10
3.102481
 20
0.057632
 30
0.000000
  0
VERTEX
  8
LAYER-1
 10
3.115502
 20
0.080202
 30
0.000000
  0
VERTEX
  8
LAYER-1
 10
3.085120
 20
0.059369
 30
0.000000
  0
SEQEND
  8
LAYER-1
  0
POLYLINE
  8
LAYER-1
 66
  1
 70
  1
 62
  0
 10
3.008032
 20
0.064045
 30
0.000000
  0
VERTEX
  8
LAYER-1
 10
3.008032
 20
0.064045
 30
0.000000
  0
VERTEX
  8
LAYER-1
 10
3.020718
 20
0.083409
 30
0.000000
  0
VERTEX
  8
LAYER-1
 10
3.009368
 20
0.089420
 30
0.000000
  0
SEQEND
  8
LAYER-1
  0
POLYLINE
  8
LAYER-1
 66
  1
 70
  0
 62
  0
 10
3.136337
 20
0.056764
 30
0.000000
  0
VERTEX
  8
LAYER-1
 10
3.136337
 20
0.056764
 30
0.000000
  0
VERTEX
  8
LAYER-1
 10
3.140678
 20
0.056764
 30
0.000000
  0
VERTEX
  8
LAYER-1
 10
3.144149
 20
0.061106
 30
0.000000
  0
VERTEX
  8
LAYER-1
 10
3.145017
 20
0.066313
 30
0.000000
  0
VERTEX
  8
LAYER-1
 10
3.143282
 20
0.070653
 30
0.000000
  0
VERTEX
  8
LAYER-1
 10
3.138941
 20
0.072389
 30
0.000000
  0
VERTEX
  8
LAYER-1
 10
3.134601
 20
0.072389
 30
0.000000
  0
VERTEX
  8
LAYER-1
 10
3.130260
 20
0.068918
 30
0.000000
  0
VERTEX
  8
LAYER-1
 10
3.130260
 20
0.064577
 30
0.000000
  0
VERTEX
  8
LAYER-1
 10
3.131129
 20
0.060237
 30
0.000000
  0
VERTEX
  8
LAYER-1
 10
3.135469
 20
0.057632
 30
0.000000
  0
SEQEND
  8
LAYER-1
  0
POLYLINE
  8
LAYER-1
 66
  1
 70
  0
 62
  0
 10
3.022620
 20
0.048081
 30
0.000000
  0
VERTEX
  8
LAYER-1
 10
3.022620
 20
0.048081
 30
0.000000
  0
VERTEX
  8
LAYER-1
 10
3.018280
 20
0.048081
 30
0.000000
  0
VERTEX
  8
LAYER-1
 10
3.014808
 20
0.043740
 30
0.000000
  0
VERTEX
  8
LAYER-1
 10
3.013940
 20
0.038533
 30
0.000000
  0
VERTEX
  8
LAYER-1
 10
3.015676
 20
0.034192
 30
0.000000
  0
VERTEX
  8
LAYER-1
 10
3.020017
 20
0.032456
 30
0.000000
  0
VERTEX
  8
LAYER-1
 10
3.024356
 20
0.032456
 30
0.000000
  0
VERTEX
  8
LAYER-1
 10
3.028697
 20
0.035928
 30
0.000000
  0
VERTEX
  8
LAYER-1
 10
3.028697
 20
0.040269
 30
0.000000
  0
VERTEX
  8
LAYER-1
 10
3.027829
 20
0.044609
 30
0.000000
  0
VERTEX
  8
LAYER-1
 10
3.023488
 20
0.047214
 30
0.000000
  0
SEQEND
  8
LAYER-1
  0
POLYLINE
  8
LAYER-1
 66
  1
 70
  1
 62
  0
 10
2.863674
 20
0.061382
 30
0.000000
  0
VERTEX
  8
LAYER-1
 10
2.863674
 20
0.061382
 30
0.000000
  0
VERTEX
  8
LAYER-1
 10
2.876695
 20
0.083952
 30
0.000000
  0
VERTEX
  8
LAYER-1
 10
2.846313
 20
0.063120
 30
0.000000
  0
SEQEND
  8
LAYER-1
  0
POLYLINE
  8
LAYER-1
 66
  1
 70
  0
 62
  0
 10
2.897530
 20
0.060515
 30
0.000000
  0
VERTEX
  8
LAYER-1
 10
2.897530
 20
0.060515
 30
0.000000
  0
VERTEX
  8
LAYER-1
 10
2.901870
 20
0.060515
 30
0.000000
  0
VERTEX
  8
LAYER-1
 10
2.905342
 20
0.064856
 30
0.000000
  0
VERTEX
  8
LAYER-1
 10
2.906210
 20
0.070063
 30
0.000000
  0
VERTEX
  8
LAYER-1
 10
2.904474
 20
0.074404
 30
0.000000
  0
VERTEX
  8
LAYER-1
 10
2.900133
 20
0.076140
 30
0.000000
  0
VERTEX
  8
LAYER-1
 10
2.895794
 20
0.076140
 30
0.000000
  0
VERTEX
  8
LAYER-1
 10
2.891453
 20
0.072668
 30
0.000000
  0
VERTEX
  8
LAYER-1
 10
2.891453
 20
0.068327
 30
0.000000
  0
VERTEX
  8
LAYER-1
 10
2.892321
 20
0.063987
 30
0.000000
  0
VERTEX
  8
LAYER-1
 10
2.896662
 20
0.061382
 30
0.000000
  0
SEQEND
  8
LAYER-1
  0
POLYLINE
  8
LAYER-1
 66
  1
 70
  1
 62
  0
 10
3.495792
 20
0.096453
 30
0.000000
  0
VERTEX
  8
LAYER-1
 10
3.495792
 20
0.096453
 30
0.000000
  0
VERTEX
  8
LAYER-1
 10
3.518362
 20
0.083432
 30
0.000000
  0
VERTEX
  8
LAYER-1
 10
3.497529
 20
0.113814
 30
0.000000
  0
SEQEND
  8
LAYER-1
  0
POLYLINE
  8
LAYER-1
 66
  1
 70
  0
 62
  0
 10
3.494924
 20
0.062597
 30
0.000000
  0
VERTEX
  8
LAYER-1
 10
3.494924
 20
0.062597
 30
0.000000
  0
VERTEX
  8
LAYER-1
 10
3.494924
 20
0.058256
 30
0.000000
  0
VERTEX
  8
LAYER-1
 10
3.499265
 20
0.054784
 30
0.000000
  0
VERTEX
  8
LAYER-1
 10
3.504473
 20
0.053916
 30
0.000000
  0
VERTEX
  8
LAYER-1
 10
3.508814
 20
0.055652
 30
0.000000
  0
VERTEX
  8
LAYER-1
 10
3.510549
 20
0.059993
 30
0.000000
  0
VERTEX
  8
LAYER-1
 10
3.510549
 20
0.064333
 30
0.000000
  0
VERTEX
  8
LAYER-1
 10
3.507078
 20
0.068674
 30
0.000000
  0
VERTEX
  8
LAYER-1
 10
3.502737
 20
0.068674
 30
0.000000
  0
VERTEX
  8
LAYER-1
 10
3.498396
 20
0.067806
 30
0.000000
  0
VERTEX
  8
LAYER-1
 10
3.495792
 20
0.063465
 30
0.000000
  0
SEQEND
  8
LAYER-1
  0
POLYLINE
  8
LAYER-1
 66
  1
 70
  1
 62
  0
 10
4.045269
 20
0.128482
 30
0.000000
  0
VERTEX
  8
LAYER-1
 10
4.045269
 20
0.128482
 30
0.000000
  0
VERTEX
  8
LAYER-1
 10
4.052214
 20
0.102441
 30
0.000000
  0
VERTEX
  8
LAYER-1
 10
4.077387
 20
0.116329
 30
0.000000
  0
SEQEND
  8
LAYER-1
  0
POLYLINE
  8
LAYER-1
 66
  1
 70
  1
 62
  0
 10
4.017057
 20
0.091588
 30
0.000000
  0
VERTEX
  8
LAYER-1
 10
4.017057
 20
0.091588
 30
0.000000
  0
VERTEX
  8
LAYER-1
 10
4.039626
 20
0.078568
 30
0.000000
  0
VERTEX
  8
LAYER-1
 10
4.018793
 20
0.108949
 30
0.000000
  0
SEQEND
  8
LAYER-1
  0
POLYLINE
  8
LAYER-1
 66
  1
 70
  1
 62
  0
 10
4.133711
 20
0.083608
 30
0.000000
  0
VERTEX
  8
LAYER-1
 10
4.133711
 20
0.083608
 30
0.000000
  0
VERTEX
  8
LAYER-1
 10
4.153076
 20
0.070920
 30
0.000000
  0
VERTEX
  8
LAYER-1
 10
4.159086
 20
0.082272
 30
0.000000
  0
SEQEND
  8
LAYER-1
  0
POLYLINE
  8
LAYER-1
 66
  1
 70
  0
 62
  0
 10
4.078256
 20
0.089416
 30
0.000000
  0
VERTEX
  8
LAYER-1
 10
4.078256
 20
0.089416
 30
0.000000
  0
VERTEX
  8
LAYER-1
 10
4.073915
 20
0.089416
 30
0.000000
  0
VERTEX
  8
LAYER-1
 10
4.070443
 20
0.085075
 30
0.000000
  0
VERTEX
  8
LAYER-1
 10
4.069576
 20
0.079867
 30
0.000000
  0
VERTEX
  8
LAYER-1
 10
4.071312
 20
0.075527
 30
0.000000
  0
VERTEX
  8
LAYER-1
 10
4.075651
 20
0.073791
 30
0.000000
  0
VERTEX
  8
LAYER-1
 10
4.079992
 20
0.073791
 30
0.000000
  0
VERTEX
  8
LAYER-1
 10
4.084333
 20
0.077263
 30
0.000000
  0
VERTEX
  8
LAYER-1
 10
4.084333
 20
0.081603
 30
0.000000
  0
VERTEX
  8
LAYER-1
 10
4.083464
 20
0.085944
 30
0.000000
  0
VERTEX
  8
LAYER-1
 10
4.079124
 20
0.088548
 30
0.000000
  0
SEQEND
  8
LAYER-1
  0
POLYLINE
  8
LAYER-1
 66
  1
 70
  0
 62
  0
 10
3.962805
 20
0.066847
 30
0.000000
  0
VERTEX
  8
LAYER-1
 10
3.962805
 20
0.066847
 30
0.000000
  0
VERTEX
  8
LAYER-1
 10
3.967145
 20
0.066847
 30
0.000000
  0
VERTEX
  8
LAYER-1
 10
3.970617
 20
0.071188
 30
0.000000
  0
VERTEX
  8
LAYER-1
 10
3.971486
 20
0.076396
 30
0.000000
  0
VERTEX
  8
LAYER-1
 10
3.969750
 20
0.080736
 30
0.000000
  0
VERTEX
  8
LAYER-1
 10
3.965409
 20
0.082472
 30
0.000000
  0
VERTEX
  8
LAYER-1
 10
3.961068
 20
0.082472
 30
0.000000
  0
VERTEX
  8
LAYER-1
 10
3.956728
 20
0.079001
 30
0.000000
  0
VERTEX
  8
LAYER-1
 10
3.956728
 20
0.074660
 30
0.000000
  0
VERTEX
  8
LAYER-1
 10
3.957597
 20
0.070319
 30
0.000000
  0
VERTEX
  8
LAYER-1
 10
3.961937
 20
0.067714
 30
0.000000
  0
SEQEND
  8
LAYER-1
  0
POLYLINE
  8
LAYER-1
 66
  1
 70
  1
 62
  0
 10
4.449451
 20
0.037160
 30
0.000000
  0
VERTEX
  8
LAYER-1
 10
4.449451
 20
0.037160
 30
0.000000
  0
VERTEX
  8
LAYER-1
 10
4.442506
 20
0.063201
 30
0.000000
  0
VERTEX
  8
LAYER-1
 10
4.417333
 20
0.049313
 30
0.000000
  0
SEQEND
  8
LAYER-1
  0
POLYLINE
  8
LAYER-1
 66
  1
 70
  1
 62
  0
 10
4.477664
 20
0.074054
 30
0.000000
  0
VERTEX
  8
LAYER-1
 10
4.477664
 20
0.074054
 30
0.000000
  0
VERTEX
  8
LAYER-1
 10
4.455094
 20
0.087074
 30
0.000000
  0
VERTEX
  8
LAYER-1
 10
4.475927
 20
0.056693
 30
0.000000
  0
SEQEND
  8
LAYER-1
  0
POLYLINE
  8
LAYER-1
 66
  1
 70
  1
 62
  0
 10
4.361009
 20
0.082034
 30
0.000000
  0
VERTEX
  8
LAYER-1
 10
4.361009
 20
0.082034
 30
0.000000
  0
VERTEX
  8
LAYER-1
 10
4.341644
 20
0.094721
 30
0.000000
  0
VERTEX
  8
LAYER-1
 10
4.335634
 20
0.083370
 30
0.000000
  0
SEQEND
  8
LAYER-1
  0
POLYLINE
  8
LAYER-1
 66
  1
 70
  0
 62
  0
 10
4.416464
 20
0.076226
 30
0.000000
  0
VERTEX
  8
LAYER-1
 10
4.416464
 20
0.076226
 30
0.000000
  0
VERTEX
  8
LAYER-1
 10
4.420805
 20
0.076226
 30
0.000000
  0
VERTEX
  8
LAYER-1
 10
4.424277
 20
0.080567
 30
0.000000
  0
VERTEX
  8
LAYER-1
 10
4.425145
 20
0.085775
 30
0.000000
  0
VERTEX
  8
LAYER-1
 10
4.423409
 20
0.090116
 30
0.000000
  0
VERTEX
  8
LAYER-1
 10
4.419069
 20
0.091851
 30
0.000000
  0
VERTEX
  8
LAYER-1
 10
4.414728
 20
0.091851
 30
0.000000
  0
VERTEX
  8
LAYER-1
 10
4.410387
 20
0.088380
 30
0.000000
  0
VERTEX
  8
LAYER-1
 10
4.410387
 20
0.084039
 30
0.000000
  0
VERTEX
  8
LAYER-1
 10
4.411256
 20
0.079698
 30
0.000000
  0
VERTEX
  8
LAYER-1
 10
4.415596
 20
0.077094
 30
0.000000
  0
SEQEND
  8
LAYER-1
  0
POLYLINE
  8
LAYER-1
 66
  1
 70
  0
 62
  0
 10
4.531915
 20
0.098795
 30
0.000000
  0
VERTEX
  8
LAYER-1
 10
4.531915
 20
0.098795
 30
0.000000
  0
VERTEX
  8
LAYER-1
 10
4.527575
 20
0.098795
 30
0.000000
  0
VERTEX
  8
LAYER-1
 10
4.524103
 20
0.094454
 30
0.000000
  0
VERTEX
  8
LAYER-1
 10
4.523234
 20
0.089247
 30
0.000000
  0
VERTEX
  8
LAYER-1
 10
4.524970
 20
0.084906
 30
0.000000
  0
VERTEX
  8
LAYER-1
 10
4.529311
 20
0.083170
 30
0.000000
  0
VERTEX
  8
LAYER-1
 10
4.533652
 20
0.083170
 30
0.000000
  0
VERTEX
  8
LAYER-1
 10
4.537992
 20
0.086642
 30
0.000000
  0
VERTEX
  8
LAYER-1
 10
4.537992
 20
0.090982
 30
0.000000
  0
VERTEX
  8
LAYER-1
 10
4.537123
 20
0.095323
 30
0.000000
  0
VERTEX
  8
LAYER-1
 10
4.532783
 20
0.097928
 30
0.000000
  0
SEQEND
  8
LAYER-1
  0
POLYLINE
  8
LAYER-1
 66
  1
 70
  1
 62
  0
 10
4.701795
 20
0.020754
 30
0.000000
  0
VERTEX
  8
LAYER-1
 10
4.701795
 20
0.020754
 30
0.000000
  0
VERTEX
  8
LAYER-1
 10
4.694850
 20
0.046795
 30
0.000000
  0
VERTEX
  8
LAYER-1
 10
4.669677
 20
0.032907
 30
0.000000
  0
SEQEND
  8
LAYER-1
  0
POLYLINE
  8
LAYER-1
 66
  1
 70
  1
 62
  0
 10
4.730007
 20
0.057648
 30
0.000000
  0
VERTEX
  8
LAYER-1
 10
4.730007
 20
0.057648
 30
0.000000
  0
VERTEX
  8
LAYER-1
 10
4.707438
 20
0.070668
 30
0.000000
  0
VERTEX
  8
LAYER-1
 10
4.728271
 20
0.040287
 30
0.000000
  0
SEQEND
  8
LAYER-1
  0
POLYLINE
  8
LAYER-1
 66
  1
 70
  1
 62
  0
 10
4.613353
 20
0.065627
 30
0.000000
  0
VERTEX
  8
LAYER-1
 10
4.613353
 20
0.065627
 30
0.000000
  0
VERTEX
  8
LAYER-1
 10
4.593988
 20
0.078315
 30
0.000000
  0
VERTEX
  8
LAYER-1
 10
4.587978
 20
0.066963
 30
0.000000
  0
SEQEND
  8
LAYER-1
  0
POLYLINE
  8
LAYER-1
 66
  1
 70
  0
 62
  0
 10
4.668808
 20
0.059820
 30
0.000000
  0
VERTEX
  8
LAYER-1
 10
4.668808
 20
0.059820
 30
0.000000
  0
VERTEX
  8
LAYER-1
 10
4.673149
 20
0.059820
 30
0.000000
  0
VERTEX
  8
LAYER-1
 10
4.676620
 20
0.064161
 30
0.000000
  0
VERTEX
  8
LAYER-1
 10
4.677488
 20
0.069368
 30
0.000000
  0
VERTEX
  8
LAYER-1
 10
4.675752
 20
0.073709
 30
0.000000
  0
VERTEX
  8
LAYER-1
 10
4.671413
 20
0.075445
 30
0.000000
  0
VERTEX
  8
LAYER-1
 10
4.667072
 20
0.075445
 30
0.000000
  0
VERTEX
  8
LAYER-1
 10
4.662731
 20
0.071973
 30
0.000000
  0
VERTEX
  8
LAYER-1
 10
4.662731
 20
0.067633
 30
0.000000
  0
VERTEX
  8
LAYER-1
 10
4.663600
 20
0.063292
 30
0.000000
  0
VERTEX
  8
LAYER-1
 10
4.667940
 20
0.060688
 30
0.000000
  0
SEQEND
  8
LAYER-1
  0
POLYLINE
  8
LAYER-1
 66
  1
 70
  0
 62
  0
 10
4.784259
 20
0.082389
 30
0.000000
  0
VERTEX
  8
LAYER-1
 10
4.784259
 20
0.082389
 30
0.000000
  0
VERTEX
  8
LAYER-1
 10
4.779919
 20
0.082389
 30
0.000000
  0
VERTEX
  8
LAYER-1
 10
4.776447
 20
0.078048
 30
0.000000
  0
VERTEX
  8
LAYER-1
 10
4.775578
 20
0.072840
 30
0.000000
  0
VERTEX
  8
LAYER-1
 10
4.777314
 20
0.068499
 30
0.000000
  0
VERTEX
  8
LAYER-1
 10
4.781655
 20
0.066764
 30
0.000000
  0
VERTEX
  8
LAYER-1
 10
4.785995
 20
0.066764
 30
0.000000
  0
VERTEX
  8
LAYER-1
 10
4.790336
 20
0.070235
 30
0.000000
  0
VERTEX
  8
LAYER-1
 10
4.790336
 20
0.074576
 30
0.000000
  0
VERTEX
  8
LAYER-1
 10
4.789467
 20
0.078917
 30
0.000000
  0
VERTEX
  8
LAYER-1
 10
4.785127
 20
0.081522
 30
0.000000
  0
SEQEND
  8
LAYER-1
  0
POLYLINE
  8
LAYER-1
 66
  1
 70
  1
 62
  0
 10
4.922354
 20
0.119803
 30
0.000000
  0
VERTEX
  8
LAYER-1
 10
4.922354
 20
0.119803
 30
0.000000
  0
VERTEX
  8
LAYER-1
 10
4.929298
 20
0.093761
 30
0.000000
  0
VERTEX
  8
LAYER-1
 10
4.954472
 20
0.107649
 30
0.000000
  0
SEQEND
  8
LAYER-1
  0
POLYLINE
  8
LAYER-1
 66
  1
 70
  1
 62
  0
 10
4.894141
 20
0.082909
 30
0.000000
  0
VERTEX
  8
LAYER-1
 10
4.894141
 20
0.082909
 30
0.000000
  0
VERTEX
  8
LAYER-1
 10
4.916711
 20
0.069889
 30
0.000000
  0
VERTEX
  8
LAYER-1
 10
4.895878
 20
0.100270
 30
0.000000
  0
SEQEND
  8
LAYER-1
  0
POLYLINE
  8
LAYER-1
 66
  1
 70
  0
 62
  0
 10
4.839889
 20
0.058167
 30
0.000000
  0
VERTEX
  8
LAYER-1
 10
4.839889
 20
0.058167
 30
0.000000
  0
VERTEX
  8
LAYER-1
 10
4.844230
 20
0.058167
 30
0.000000
  0
VERTEX
  8
LAYER-1
 10
4.847702
 20
0.062508
 30
0.000000
  0
VERTEX
  8
LAYER-1
 10
4.848571
 20
0.067716
 30
0.000000
  0
VERTEX
  8
LAYER-1
 10
4.846834
 20
0.072057
 30
0.000000
  0
VERTEX
  8
LAYER-1
 10
4.842494
 20
0.073792
 30
0.000000
  0
VERTEX
  8
LAYER-1
 10
4.838153
 20
0.073792
 30
0.000000
  0
VERTEX
  8
LAYER-1
 10
4.833812
 20
0.070321
 30
0.000000
  0
VERTEX
  8
LAYER-1
 10
4.833812
 20
0.065980
 30
0.000000
  0
VERTEX
  8
LAYER-1
 10
4.834681
 20
0.061640
 30
0.000000
  0
VERTEX
  8
LAYER-1
 10
4.839022
 20
0.059035
 30
0.000000
  0
SEQEND
  8
LAYER-1
  0
POLYLINE
  8
LAYER-1
 66
  1
 70
  1
 62
  0
 10
5.475477
 20
0.231920
 30
0.000000
  0
VERTEX
  8
LAYER-1
 10
5.475477
 20
0.231920
 30
0.000000
  0
VERTEX
  8
LAYER-1
 10
5.482421
 20
0.205879
 30
0.000000
  0
VERTEX
  8
LAYER-1
 10
5.507594
 20
0.219766
 30
0.000000
  0
SEQEND
  8
LAYER-1
  0
POLYLINE
  8
LAYER-1
 66
  1
 70
  1
 62
  0
 10
5.488585
 20
0.186781
 30
0.000000
  0
VERTEX
  8
LAYER-1
 10
5.488585
 20
0.186781
 30
0.000000
  0
VERTEX
  8
LAYER-1
 10
5.475564
 20
0.164210
 30
0.000000
  0
VERTEX
  8
LAYER-1
 10
5.505946
 20
0.185043
 30
0.000000
  0
SEQEND
  8
LAYER-1
  0
POLYLINE
  8
LAYER-1
 66
  1
 70
  1
 62
  0
 10
5.180078
 20
0.155304
 30
0.000000
  0
VERTEX
  8
LAYER-1
 10
5.180078
 20
0.155304
 30
0.000000
  0
VERTEX
  8
LAYER-1
 10
5.173135
 20
0.181345
 30
0.000000
  0
VERTEX
  8
LAYER-1
 10
5.147961
 20
0.167458
 30
0.000000
  0
SEQEND
  8
LAYER-1
  0
POLYLINE
  8
LAYER-1
 66
  1
 70
  1
 62
  0
 10
5.166970
 20
0.200443
 30
0.000000
  0
VERTEX
  8
LAYER-1
 10
5.166970
 20
0.200443
 30
0.000000
  0
VERTEX
  8
LAYER-1
 10
5.179992
 20
0.223014
 30
0.000000
  0
VERTEX
  8
LAYER-1
 10
5.149609
 20
0.202181
 30
0.000000
  0
SEQEND
  8
LAYER-1
  0
POLYLINE
  8
LAYER-1
 66
  1
 70
  1
 62
  0
 10
5.684852
 20
0.057475
 30
0.000000
  0
VERTEX
  8
LAYER-1
 10
5.684852
 20
0.057475
 30
0.000000
  0
VERTEX
  8
LAYER-1
 10
5.710892
 20
0.064420
 30
0.000000
  0
VERTEX
  8
LAYER-1
 10
5.697005
 20
0.089594
 30
0.000000
  0
SEQEND
  8
LAYER-1
  0
POLYLINE
  8
LAYER-1
 66
  1
 70
  1
 62
  0
 10
5.729991
 20
0.070584
 30
0.000000
  0
VERTEX
  8
LAYER-1
 10
5.729991
 20
0.070584
 30
0.000000
  0
VERTEX
  8
LAYER-1
 10
5.752562
 20
0.057563
 30
0.000000
  0
VERTEX
  8
LAYER-1
 10
5.731729
 20
0.087944
 30
0.000000
  0
SEQEND
  8
LAYER-1
  0
ENDSEC
  0
EOF
