  0
SECTION
  2
HEADER
999
MacDraft 5.0\0
  9
$ACADVER
  1
AC1006
  9
$CLAYER
  8
LAYER-1
  9
$EXTMIN
 10
0.000000
 20
0.000000
  9
$EXTMAX
 10
6.771594
 20
9.982813
  9
$FASTZOOM
 70
0
  9
$FILLMODE
 70
1
  0
ENDSEC
  0
SECTION
  2
TABLES
  0
TABLE
  2
LTYPE
 70
16
  0
LTYPE
  2
CONTINUOUS
 70
64
  3
Solid Line
 72
65
 73
0
 40
0.000000
  0
LTYPE
  2
LTYPE01
 70
64
  3
CUSTOM
 72
65
 73
2
 40
0.111111
 49
0.083333
 49
-0.027778
  0
LTYPE
  2
LTYPE02
 70
64
  3
CUSTOM
 72
65
 73
2
 40
0.194444
 49
0.166667
 49
-0.027778
  0
LTYPE
  2
LTYPE03
 70
64
  3
CUSTOM
 72
65
 73
2
 40
0.375000
 49
0.333333
 49
-0.041667
  0
LTYPE
  2
LTYPE04
 70
64
  3
CUSTOM
 72
65
 73
2
 40
0.722222
 49
0.666667
 49
-0.055556
  0
LTYPE
  2
LTYPE05
 70
64
  3
CUSTOM
 72
65
 73
4
 40
0.152778
 49
0.083333
 49
-0.027778
 49
0.013889
 49
-0.027778
  0
LTYPE
  2
LTYPE06
 70
64
  3
CUSTOM
 72
65
 73
4
 40
0.236111
 49
0.166667
 49
-0.027778
 49
0.013889
 49
-0.027778
  0
LTYPE
  2
LTYPE07
 70
64
  3
CUSTOM
 72
65
 73
4
 40
0.444444
 49
0.333333
 49
-0.041667
 49
0.027778
 49
-0.041667
  0
LTYPE
  2
LTYPE08
 70
64
  3
CUSTOM
 72
65
 73
4
 40
0.805556
 49
0.666667
 49
-0.055556
 49
0.027778
 49
-0.055556
  0
LTYPE
  2
LTYPE09
 70
64
  3
CUSTOM
 72
65
 73
6
 40
0.194444
 49
0.083333
 49
-0.027778
 49
0.013889
 49
-0.027778
 49
0.013889
 49
-0.027778
  0
LTYPE
  2
LTYPE10
 70
64
  3
CUSTOM
 72
65
 73
6
 40
0.277778
 49
0.166667
 49
-0.027778
 49
0.013889
 49
-0.027778
 49
0.013889
 49
-0.027778
  0
LTYPE
  2
LTYPE11
 70
64
  3
CUSTOM
 72
65
 73
6
 40
0.500000
 49
0.333333
 49
-0.041667
 49
0.027778
 49
-0.027778
 49
0.027778
 49
-0.041667
  0
LTYPE
  2
LTYPE12
 70
64
  3
CUSTOM
 72
65
 73
6
 40
0.861111
 49
0.666667
 49
-0.055556
 49
0.027778
 49
-0.027778
 49
0.027778
 49
-0.055556
  0
LTYPE
  2
LTYPE13
 70
64
  3
CUSTOM
 72
65
 73
8
 40
0.319444
 49
0.166667
 49
-0.027778
 49
0.013889
 49
-0.027778
 49
0.013889
 49
-0.027778
 49
0.013889
 49
-0.027778
  0
LTYPE
  2
LTYPE14
 70
64
  3
CUSTOM
 72
65
 73
8
 40
0.555556
 49
0.333333
 49
-0.041667
 49
0.027778
 49
-0.027778
 49
0.027778
 49
-0.027778
 49
0.027778
 49
-0.041667
  0
LTYPE
  2
LTYPE15
 70
64
  3
CUSTOM
 72
65
 73
8
 40
0.944444
 49
0.666667
 49
-0.055556
 49
0.027778
 49
-0.041667
 49
0.027778
 49
-0.041667
 49
0.027778
 49
-0.055556
  0
ENDTAB
  0
TABLE
  2
LAYER
 70
1
  0
LAYER
  2
LAYER-1
 70
0
 62
7
  6
CONTINUOUS
  0
ENDTAB
  0
ENDSEC
  0
SECTION
  2
BLOCKS
  0
ENDSEC
  0
SECTION
  2
ENTITIES
  0
POLYLINE
  8
LAYER-1
 66
  1
 70
  0
 62
  0
 10
3.443167
 20
0.215877
 30
0.000000
  0
VERTEX
  8
LAYER-1
 10
3.443167
 20
0.215877
 30
0.000000
  0
VERTEX
  8
LAYER-1
 10
3.443167
 20
0.214688
 30
0.000000
  0
SEQEND
  8
LAYER-1
  0
POLYLINE
  8
LAYER-1
 66
  1
 70
  1
 62
  0
 10
1.271308
 20
0.120710
 30
0.000000
  0
VERTEX
  8
LAYER-1
 10
1.271308
 20
0.120710
 30
0.000000
  0
VERTEX
  8
LAYER-1
 10
1.278253
 20
0.094668
 30
0.000000
  0
VERTEX
  8
LAYER-1
 10
1.303427
 20
0.108556
 30
0.000000
  0
SEQEND
  8
LAYER-1
  0
POLYLINE
  8
LAYER-1
 66
  1
 70
  1
 62
  0
 10
1.461413
 20
0.225742
 30
0.000000
  0
VERTEX
  8
LAYER-1
 10
1.461413
 20
0.225742
 30
0.000000
  0
VERTEX
  8
LAYER-1
 10
1.448393
 20
0.203172
 30
0.000000
  0
VERTEX
  8
LAYER-1
 10
1.478775
 20
0.224005
 30
0.000000
  0
SEQEND
  8
LAYER-1
  0
POLYLINE
  8
LAYER-1
 66
  1
 70
  1
 62
  0
 10
1.107247
 20
0.161508
 30
0.000000
  0
VERTEX
  8
LAYER-1
 10
1.107247
 20
0.161508
 30
0.000000
  0
VERTEX
  8
LAYER-1
 10
1.090754
 20
0.136334
 30
0.000000
  0
VERTEX
  8
LAYER-1
 10
1.105510
 20
0.128521
 30
0.000000
  0
SEQEND
  8
LAYER-1
  0
POLYLINE
  8
LAYER-1
 66
  1
 70
  0
 62
  0
 10
1.273913
 20
0.162377
 30
0.000000
  0
VERTEX
  8
LAYER-1
 10
1.273913
 20
0.162377
 30
0.000000
  0
VERTEX
  8
LAYER-1
 10
1.269573
 20
0.162377
 30
0.000000
  0
VERTEX
  8
LAYER-1
 10
1.266101
 20
0.158036
 30
0.000000
  0
VERTEX
  8
LAYER-1
 10
1.265233
 20
0.152829
 30
0.000000
  0
VERTEX
  8
LAYER-1
 10
1.266969
 20
0.148488
 30
0.000000
  0
VERTEX
  8
LAYER-1
 10
1.271309
 20
0.146752
 30
0.000000
  0
VERTEX
  8
LAYER-1
 10
1.275649
 20
0.146752
 30
0.000000
  0
VERTEX
  8
LAYER-1
 10
1.279990
 20
0.150224
 30
0.000000
  0
VERTEX
  8
LAYER-1
 10
1.279990
 20
0.154565
 30
0.000000
  0
VERTEX
  8
LAYER-1
 10
1.279122
 20
0.158905
 30
0.000000
  0
VERTEX
  8
LAYER-1
 10
1.274781
 20
0.161509
 30
0.000000
  0
SEQEND
  8
LAYER-1
  0
POLYLINE
  8
LAYER-1
 66
  1
 70
  1
 62
  0
 10
0.911934
 20
0.200570
 30
0.000000
  0
VERTEX
  8
LAYER-1
 10
0.911934
 20
0.200570
 30
0.000000
  0
VERTEX
  8
LAYER-1
 10
0.898913
 20
0.178000
 30
0.000000
  0
VERTEX
  8
LAYER-1
 10
0.929295
 20
0.198833
 30
0.000000
  0
SEQEND
  8
LAYER-1
  0
POLYLINE
  8
LAYER-1
 66
  1
 70
  1
 62
  0
 10
1.043712
 20
0.200236
 30
0.000000
  0
VERTEX
  8
LAYER-1
 10
1.043712
 20
0.200236
 30
0.000000
  0
VERTEX
  8
LAYER-1
 10
1.031025
 20
0.180871
 30
0.000000
  0
VERTEX
  8
LAYER-1
 10
1.042377
 20
0.174861
 30
0.000000
  0
SEQEND
  8
LAYER-1
  0
POLYLINE
  8
LAYER-1
 66
  1
 70
  0
 62
  0
 10
1.401518
 20
0.181473
 30
0.000000
  0
VERTEX
  8
LAYER-1
 10
1.401518
 20
0.181473
 30
0.000000
  0
VERTEX
  8
LAYER-1
 10
1.397177
 20
0.181473
 30
0.000000
  0
VERTEX
  8
LAYER-1
 10
1.393705
 20
0.177133
 30
0.000000
  0
VERTEX
  8
LAYER-1
 10
1.392837
 20
0.171924
 30
0.000000
  0
VERTEX
  8
LAYER-1
 10
1.394573
 20
0.167584
 30
0.000000
  0
VERTEX
  8
LAYER-1
 10
1.398913
 20
0.165848
 30
0.000000
  0
VERTEX
  8
LAYER-1
 10
1.403254
 20
0.165848
 30
0.000000
  0
VERTEX
  8
LAYER-1
 10
1.407593
 20
0.169320
 30
0.000000
  0
VERTEX
  8
LAYER-1
 10
1.407593
 20
0.173660
 30
0.000000
  0
VERTEX
  8
LAYER-1
 10
1.406725
 20
0.178001
 30
0.000000
  0
VERTEX
  8
LAYER-1
 10
1.402386
 20
0.180605
 30
0.000000
  0
SEQEND
  8
LAYER-1
  0
POLYLINE
  8
LAYER-1
 66
  1
 70
  0
 62
  0
 10
1.159330
 20
0.155431
 30
0.000000
  0
VERTEX
  8
LAYER-1
 10
1.159330
 20
0.155431
 30
0.000000
  0
VERTEX
  8
LAYER-1
 10
1.154990
 20
0.155431
 30
0.000000
  0
VERTEX
  8
LAYER-1
 10
1.151517
 20
0.151091
 30
0.000000
  0
VERTEX
  8
LAYER-1
 10
1.150649
 20
0.145883
 30
0.000000
  0
VERTEX
  8
LAYER-1
 10
1.152385
 20
0.141542
 30
0.000000
  0
VERTEX
  8
LAYER-1
 10
1.156726
 20
0.139806
 30
0.000000
  0
VERTEX
  8
LAYER-1
 10
1.161066
 20
0.139806
 30
0.000000
  0
VERTEX
  8
LAYER-1
 10
1.165406
 20
0.143278
 30
0.000000
  0
VERTEX
  8
LAYER-1
 10
1.165406
 20
0.147619
 30
0.000000
  0
VERTEX
  8
LAYER-1
 10
1.164538
 20
0.151960
 30
0.000000
  0
VERTEX
  8
LAYER-1
 10
1.160198
 20
0.154564
 30
0.000000
  0
SEQEND
  8
LAYER-1
  0
POLYLINE
  8
LAYER-1
 66
  1
 70
  0
 62
  0
 10
0.995267
 20
0.147619
 30
0.000000
  0
VERTEX
  8
LAYER-1
 10
0.995267
 20
0.147619
 30
0.000000
  0
VERTEX
  8
LAYER-1
 10
0.990927
 20
0.147619
 30
0.000000
  0
VERTEX
  8
LAYER-1
 10
0.987455
 20
0.143278
 30
0.000000
  0
VERTEX
  8
LAYER-1
 10
0.986587
 20
0.138071
 30
0.000000
  0
VERTEX
  8
LAYER-1
 10
0.988323
 20
0.133730
 30
0.000000
  0
VERTEX
  8
LAYER-1
 10
0.992663
 20
0.131994
 30
0.000000
  0
VERTEX
  8
LAYER-1
 10
0.997003
 20
0.131994
 30
0.000000
  0
VERTEX
  8
LAYER-1
 10
1.001344
 20
0.135466
 30
0.000000
  0
VERTEX
  8
LAYER-1
 10
1.001344
 20
0.139806
 30
0.000000
  0
VERTEX
  8
LAYER-1
 10
1.000476
 20
0.144147
 30
0.000000
  0
VERTEX
  8
LAYER-1
 10
0.996135
 20
0.146751
 30
0.000000
  0
SEQEND
  8
LAYER-1
  0
POLYLINE
  8
LAYER-1
 66
  1
 70
  1
 62
  0
 10
1.623307
 20
0.172358
 30
0.000000
  0
VERTEX
  8
LAYER-1
 10
1.623307
 20
0.172358
 30
0.000000
  0
VERTEX
  8
LAYER-1
 10
1.597267
 20
0.165414
 30
0.000000
  0
VERTEX
  8
LAYER-1
 10
1.611154
 20
0.140240
 30
0.000000
  0
SEQEND
  8
LAYER-1
  0
POLYLINE
  8
LAYER-1
 66
  1
 70
  1
 62
  0
 10
1.684851
 20
0.112761
 30
0.000000
  0
VERTEX
  8
LAYER-1
 10
1.684851
 20
0.112761
 30
0.000000
  0
VERTEX
  8
LAYER-1
 10
1.707421
 20
0.099740
 30
0.000000
  0
VERTEX
  8
LAYER-1
 10
1.686588
 20
0.130122
 30
0.000000
  0
SEQEND
  8
LAYER-1
  0
POLYLINE
  8
LAYER-1
 66
  1
 70
  1
 62
  0
 10
1.216188
 20
0.180171
 30
0.000000
  0
VERTEX
  8
LAYER-1
 10
1.216188
 20
0.180171
 30
0.000000
  0
VERTEX
  8
LAYER-1
 10
1.191015
 20
0.196664
 30
0.000000
  0
VERTEX
  8
LAYER-1
 10
1.183203
 20
0.181906
 30
0.000000
  0
SEQEND
  8
LAYER-1
  0
POLYLINE
  8
LAYER-1
 66
  1
 70
  0
 62
  0
 10
1.634592
 20
0.208817
 30
0.000000
  0
VERTEX
  8
LAYER-1
 10
1.634592
 20
0.208817
 30
0.000000
  0
VERTEX
  8
LAYER-1
 10
1.634592
 20
0.213159
 30
0.000000
  0
VERTEX
  8
LAYER-1
 10
1.630252
 20
0.216630
 30
0.000000
  0
VERTEX
  8
LAYER-1
 10
1.625044
 20
0.217498
 30
0.000000
  0
VERTEX
  8
LAYER-1
 10
1.620703
 20
0.215762
 30
0.000000
  0
VERTEX
  8
LAYER-1
 10
1.618967
 20
0.211422
 30
0.000000
  0
VERTEX
  8
LAYER-1
 10
1.618967
 20
0.207081
 30
0.000000
  0
VERTEX
  8
LAYER-1
 10
1.622439
 20
0.202741
 30
0.000000
  0
VERTEX
  8
LAYER-1
 10
1.626780
 20
0.202741
 30
0.000000
  0
VERTEX
  8
LAYER-1
 10
1.631121
 20
0.203609
 30
0.000000
  0
VERTEX
  8
LAYER-1
 10
1.633725
 20
0.207949
 30
0.000000
  0
SEQEND
  8
LAYER-1
  0
POLYLINE
  8
LAYER-1
 66
  1
 70
  1
 62
  0
 10
1.586849
 20
0.184510
 30
0.000000
  0
VERTEX
  8
LAYER-1
 10
1.586849
 20
0.184510
 30
0.000000
  0
VERTEX
  8
LAYER-1
 10
1.564279
 20
0.197531
 30
0.000000
  0
VERTEX
  8
LAYER-1
 10
1.585112
 20
0.167149
 30
0.000000
  0
SEQEND
  8
LAYER-1
  0
POLYLINE
  8
LAYER-1
 66
  1
 70
  1
 62
  0
 10
1.234951
 20
0.196830
 30
0.000000
  0
VERTEX
  8
LAYER-1
 10
1.234951
 20
0.196830
 30
0.000000
  0
VERTEX
  8
LAYER-1
 10
1.215587
 20
0.209517
 30
0.000000
  0
VERTEX
  8
LAYER-1
 10
1.209575
 20
0.198166
 30
0.000000
  0
SEQEND
  8
LAYER-1
  0
POLYLINE
  8
LAYER-1
 66
  1
 70
  0
 62
  0
 10
1.700825
 20
0.073177
 30
0.000000
  0
VERTEX
  8
LAYER-1
 10
1.700825
 20
0.073177
 30
0.000000
  0
VERTEX
  8
LAYER-1
 10
1.700825
 20
0.068837
 30
0.000000
  0
VERTEX
  8
LAYER-1
 10
1.705165
 20
0.065364
 30
0.000000
  0
VERTEX
  8
LAYER-1
 10
1.710373
 20
0.064497
 30
0.000000
  0
VERTEX
  8
LAYER-1
 10
1.714714
 20
0.066232
 30
0.000000
  0
VERTEX
  8
LAYER-1
 10
1.716450
 20
0.070574
 30
0.000000
  0
VERTEX
  8
LAYER-1
 10
1.716450
 20
0.074914
 30
0.000000
  0
VERTEX
  8
LAYER-1
 10
1.712978
 20
0.079254
 30
0.000000
  0
VERTEX
  8
LAYER-1
 10
1.708637
 20
0.079254
 30
0.000000
  0
VERTEX
  8
LAYER-1
 10
1.704297
 20
0.078386
 30
0.000000
  0
VERTEX
  8
LAYER-1
 10
1.701692
 20
0.074045
 30
0.000000
  0
SEQEND
  8
LAYER-1
  0
POLYLINE
  8
LAYER-1
 66
  1
 70
  0
 62
  0
 10
1.210112
 20
0.128087
 30
0.000000
  0
VERTEX
  8
LAYER-1
 10
1.210112
 20
0.128087
 30
0.000000
  0
VERTEX
  8
LAYER-1
 10
1.210112
 20
0.132428
 30
0.000000
  0
VERTEX
  8
LAYER-1
 10
1.205771
 20
0.135899
 30
0.000000
  0
VERTEX
  8
LAYER-1
 10
1.200563
 20
0.136767
 30
0.000000
  0
VERTEX
  8
LAYER-1
 10
1.196223
 20
0.135031
 30
0.000000
  0
VERTEX
  8
LAYER-1
 10
1.194487
 20
0.130691
 30
0.000000
  0
VERTEX
  8
LAYER-1
 10
1.194487
 20
0.126351
 30
0.000000
  0
VERTEX
  8
LAYER-1
 10
1.197959
 20
0.122010
 30
0.000000
  0
VERTEX
  8
LAYER-1
 10
1.202299
 20
0.122010
 30
0.000000
  0
VERTEX
  8
LAYER-1
 10
1.206640
 20
0.122878
 30
0.000000
  0
VERTEX
  8
LAYER-1
 10
1.209245
 20
0.127218
 30
0.000000
  0
SEQEND
  8
LAYER-1
  0
POLYLINE
  8
LAYER-1
 66
  1
 70
  0
 62
  0
 10
1.512196
 20
0.162810
 30
0.000000
  0
VERTEX
  8
LAYER-1
 10
1.512196
 20
0.162810
 30
0.000000
  0
VERTEX
  8
LAYER-1
 10
1.512196
 20
0.167152
 30
0.000000
  0
VERTEX
  8
LAYER-1
 10
1.507855
 20
0.170623
 30
0.000000
  0
VERTEX
  8
LAYER-1
 10
1.502647
 20
0.171491
 30
0.000000
  0
VERTEX
  8
LAYER-1
 10
1.498306
 20
0.169755
 30
0.000000
  0
VERTEX
  8
LAYER-1
 10
1.496571
 20
0.165415
 30
0.000000
  0
VERTEX
  8
LAYER-1
 10
1.496571
 20
0.161074
 30
0.000000
  0
VERTEX
  8
LAYER-1
 10
1.500042
 20
0.156734
 30
0.000000
  0
VERTEX
  8
LAYER-1
 10
1.504383
 20
0.156734
 30
0.000000
  0
VERTEX
  8
LAYER-1
 10
1.508724
 20
0.157602
 30
0.000000
  0
VERTEX
  8
LAYER-1
 10
1.511329
 20
0.161942
 30
0.000000
  0
SEQEND
  8
LAYER-1
  0
POLYLINE
  8
LAYER-1
 66
  1
 70
  1
 62
  0
 10
1.731381
 20
0.154998
 30
0.000000
  0
VERTEX
  8
LAYER-1
 10
1.731381
 20
0.154998
 30
0.000000
  0
VERTEX
  8
LAYER-1
 10
1.738324
 20
0.128956
 30
0.000000
  0
VERTEX
  8
LAYER-1
 10
1.757422
 20
0.144580
 30
0.000000
  0
SEQEND
  8
LAYER-1
  0
POLYLINE
  8
LAYER-1
 66
  1
 70
  1
 62
  0
 10
1.915408
 20
0.176699
 30
0.000000
  0
VERTEX
  8
LAYER-1
 10
1.915408
 20
0.176699
 30
0.000000
  0
VERTEX
  8
LAYER-1
 10
1.902387
 20
0.154130
 30
0.000000
  0
VERTEX
  8
LAYER-1
 10
1.932769
 20
0.174962
 30
0.000000
  0
SEQEND
  8
LAYER-1
  0
POLYLINE
  8
LAYER-1
 66
  1
 70
  1
 62
  0
 10
1.965312
 20
0.075239
 30
0.000000
  0
VERTEX
  8
LAYER-1
 10
1.965312
 20
0.075239
 30
0.000000
  0
VERTEX
  8
LAYER-1
 10
1.948820
 20
0.050066
 30
0.000000
  0
VERTEX
  8
LAYER-1
 10
1.963576
 20
0.042253
 30
0.000000
  0
SEQEND
  8
LAYER-1
  0
POLYLINE
  8
LAYER-1
 66
  1
 70
  0
 62
  0
 10
1.703602
 20
0.179303
 30
0.000000
  0
VERTEX
  8
LAYER-1
 10
1.703602
 20
0.179303
 30
0.000000
  0
VERTEX
  8
LAYER-1
 10
1.699262
 20
0.179303
 30
0.000000
  0
VERTEX
  8
LAYER-1
 10
1.695790
 20
0.174962
 30
0.000000
  0
VERTEX
  8
LAYER-1
 10
1.694922
 20
0.169755
 30
0.000000
  0
VERTEX
  8
LAYER-1
 10
1.696658
 20
0.165415
 30
0.000000
  0
VERTEX
  8
LAYER-1
 10
1.700998
 20
0.163678
 30
0.000000
  0
VERTEX
  8
LAYER-1
 10
1.705338
 20
0.163678
 30
0.000000
  0
VERTEX
  8
LAYER-1
 10
1.709678
 20
0.167150
 30
0.000000
  0
VERTEX
  8
LAYER-1
 10
1.709678
 20
0.171491
 30
0.000000
  0
VERTEX
  8
LAYER-1
 10
1.708810
 20
0.175831
 30
0.000000
  0
VERTEX
  8
LAYER-1
 10
1.704471
 20
0.178435
 30
0.000000
  0
SEQEND
  8
LAYER-1
  0
POLYLINE
  8
LAYER-1
 66
  1
 70
  1
 62
  0
 10
1.740929
 20
0.111595
 30
0.000000
  0
VERTEX
  8
LAYER-1
 10
1.740929
 20
0.111595
 30
0.000000
  0
VERTEX
  8
LAYER-1
 10
1.727908
 20
0.089025
 30
0.000000
  0
VERTEX
  8
LAYER-1
 10
1.758290
 20
0.109858
 30
0.000000
  0
SEQEND
  8
LAYER-1
  0
POLYLINE
  8
LAYER-1
 66
  1
 70
  1
 62
  0
 10
1.996729
 20
0.057348
 30
0.000000
  0
VERTEX
  8
LAYER-1
 10
1.996729
 20
0.057348
 30
0.000000
  0
VERTEX
  8
LAYER-1
 10
2.009417
 20
0.076712
 30
0.000000
  0
VERTEX
  8
LAYER-1
 10
1.998065
 20
0.082723
 30
0.000000
  0
SEQEND
  8
LAYER-1
  0
POLYLINE
  8
LAYER-1
 66
  1
 70
  0
 62
  0
 10
1.895955
 20
0.057794
 30
0.000000
  0
VERTEX
  8
LAYER-1
 10
1.895955
 20
0.057794
 30
0.000000
  0
VERTEX
  8
LAYER-1
 10
1.900295
 20
0.057794
 30
0.000000
  0
VERTEX
  8
LAYER-1
 10
1.903767
 20
0.062135
 30
0.000000
  0
VERTEX
  8
LAYER-1
 10
1.904635
 20
0.067343
 30
0.000000
  0
VERTEX
  8
LAYER-1
 10
1.902899
 20
0.071683
 30
0.000000
  0
VERTEX
  8
LAYER-1
 10
1.898559
 20
0.073419
 30
0.000000
  0
VERTEX
  8
LAYER-1
 10
1.894219
 20
0.073419
 30
0.000000
  0
VERTEX
  8
LAYER-1
 10
1.889878
 20
0.069948
 30
0.000000
  0
VERTEX
  8
LAYER-1
 10
1.889878
 20
0.065607
 30
0.000000
  0
VERTEX
  8
LAYER-1
 10
1.890746
 20
0.061267
 30
0.000000
  0
VERTEX
  8
LAYER-1
 10
1.895087
 20
0.058662
 30
0.000000
  0
SEQEND
  8
LAYER-1
  0
POLYLINE
  8
LAYER-1
 66
  1
 70
  0
 62
  0
 10
1.585459
 20
0.093662
 30
0.000000
  0
VERTEX
  8
LAYER-1
 10
1.585459
 20
0.093662
 30
0.000000
  0
VERTEX
  8
LAYER-1
 10
1.589799
 20
0.093662
 30
0.000000
  0
VERTEX
  8
LAYER-1
 10
1.593271
 20
0.098003
 30
0.000000
  0
VERTEX
  8
LAYER-1
 10
1.594140
 20
0.103210
 30
0.000000
  0
VERTEX
  8
LAYER-1
 10
1.592404
 20
0.107551
 30
0.000000
  0
VERTEX
  8
LAYER-1
 10
1.588063
 20
0.109287
 30
0.000000
  0
VERTEX
  8
LAYER-1
 10
1.583723
 20
0.109287
 30
0.000000
  0
VERTEX
  8
LAYER-1
 10
1.579382
 20
0.105815
 30
0.000000
  0
VERTEX
  8
LAYER-1
 10
1.579382
 20
0.101474
 30
0.000000
  0
VERTEX
  8
LAYER-1
 10
1.580251
 20
0.097134
 30
0.000000
  0
VERTEX
  8
LAYER-1
 10
1.584592
 20
0.094530
 30
0.000000
  0
SEQEND
  8
LAYER-1
  0
POLYLINE
  8
LAYER-1
 66
  1
 70
  1
 62
  0
 10
2.080773
 20
0.159772
 30
0.000000
  0
VERTEX
  8
LAYER-1
 10
2.080773
 20
0.159772
 30
0.000000
  0
VERTEX
  8
LAYER-1
 10
2.054732
 20
0.152828
 30
0.000000
  0
VERTEX
  8
LAYER-1
 10
2.068620
 20
0.127654
 30
0.000000
  0
SEQEND
  8
LAYER-1
  0
POLYLINE
  8
LAYER-1
 66
  1
 70
  1
 62
  0
 10
1.819656
 20
0.120177
 30
0.000000
  0
VERTEX
  8
LAYER-1
 10
1.819656
 20
0.120177
 30
0.000000
  0
VERTEX
  8
LAYER-1
 10
1.797085
 20
0.133198
 30
0.000000
  0
VERTEX
  8
LAYER-1
 10
1.817918
 20
0.102816
 30
0.000000
  0
SEQEND
  8
LAYER-1
  0
POLYLINE
  8
LAYER-1
 66
  1
 70
  1
 62
  0
 10
1.849513
 20
0.042604
 30
0.000000
  0
VERTEX
  8
LAYER-1
 10
1.849513
 20
0.042604
 30
0.000000
  0
VERTEX
  8
LAYER-1
 10
1.874687
 20
0.026110
 30
0.000000
  0
VERTEX
  8
LAYER-1
 10
1.882499
 20
0.040868
 30
0.000000
  0
SEQEND
  8
LAYER-1
  0
POLYLINE
  8
LAYER-1
 66
  1
 70
  0
 62
  0
 10
2.112023
 20
0.209250
 30
0.000000
  0
VERTEX
  8
LAYER-1
 10
2.112023
 20
0.209250
 30
0.000000
  0
VERTEX
  8
LAYER-1
 10
2.112023
 20
0.213591
 30
0.000000
  0
VERTEX
  8
LAYER-1
 10
2.107682
 20
0.217062
 30
0.000000
  0
VERTEX
  8
LAYER-1
 10
2.102474
 20
0.217930
 30
0.000000
  0
VERTEX
  8
LAYER-1
 10
2.098134
 20
0.216195
 30
0.000000
  0
VERTEX
  8
LAYER-1
 10
2.096398
 20
0.211854
 30
0.000000
  0
VERTEX
  8
LAYER-1
 10
2.096398
 20
0.207514
 30
0.000000
  0
VERTEX
  8
LAYER-1
 10
2.099870
 20
0.203173
 30
0.000000
  0
VERTEX
  8
LAYER-1
 10
2.104210
 20
0.203173
 30
0.000000
  0
VERTEX
  8
LAYER-1
 10
2.108551
 20
0.204041
 30
0.000000
  0
VERTEX
  8
LAYER-1
 10
2.111156
 20
0.208383
 30
0.000000
  0
SEQEND
  8
LAYER-1
  0
POLYLINE
  8
LAYER-1
 66
  1
 70
  1
 62
  0
 10
2.044315
 20
0.171924
 30
0.000000
  0
VERTEX
  8
LAYER-1
 10
2.044315
 20
0.171924
 30
0.000000
  0
VERTEX
  8
LAYER-1
 10
2.021745
 20
0.184946
 30
0.000000
  0
VERTEX
  8
LAYER-1
 10
2.042577
 20
0.154564
 30
0.000000
  0
SEQEND
  8
LAYER-1
  0
POLYLINE
  8
LAYER-1
 66
  1
 70
  1
 62
  0
 10
0.813076
 20
0.208549
 30
0.000000
  0
VERTEX
  8
LAYER-1
 10
0.813076
 20
0.208549
 30
0.000000
  0
VERTEX
  8
LAYER-1
 10
0.793713
 20
0.221235
 30
0.000000
  0
VERTEX
  8
LAYER-1
 10
0.787701
 20
0.209885
 30
0.000000
  0
SEQEND
  8
LAYER-1
  0
POLYLINE
  8
LAYER-1
 66
  1
 70
  0
 62
  0
 10
1.823995
 20
0.180073
 30
0.000000
  0
VERTEX
  8
LAYER-1
 10
1.823995
 20
0.180073
 30
0.000000
  0
VERTEX
  8
LAYER-1
 10
1.823995
 20
0.184413
 30
0.000000
  0
VERTEX
  8
LAYER-1
 10
1.819654
 20
0.187886
 30
0.000000
  0
VERTEX
  8
LAYER-1
 10
1.814446
 20
0.188754
 30
0.000000
  0
VERTEX
  8
LAYER-1
 10
1.810105
 20
0.187018
 30
0.000000
  0
VERTEX
  8
LAYER-1
 10
1.808370
 20
0.182677
 30
0.000000
  0
VERTEX
  8
LAYER-1
 10
1.808370
 20
0.178336
 30
0.000000
  0
VERTEX
  8
LAYER-1
 10
1.811841
 20
0.173997
 30
0.000000
  0
VERTEX
  8
LAYER-1
 10
1.816182
 20
0.173997
 30
0.000000
  0
VERTEX
  8
LAYER-1
 10
1.820523
 20
0.174865
 30
0.000000
  0
VERTEX
  8
LAYER-1
 10
1.823128
 20
0.179205
 30
0.000000
  0
SEQEND
  8
LAYER-1
  0
POLYLINE
  8
LAYER-1
 66
  1
 70
  0
 62
  0
 10
0.789974
 20
0.141541
 30
0.000000
  0
VERTEX
  8
LAYER-1
 10
0.789974
 20
0.141541
 30
0.000000
  0
VERTEX
  8
LAYER-1
 10
0.789974
 20
0.145883
 30
0.000000
  0
VERTEX
  8
LAYER-1
 10
0.785633
 20
0.149354
 30
0.000000
  0
VERTEX
  8
LAYER-1
 10
0.780425
 20
0.150222
 30
0.000000
  0
VERTEX
  8
LAYER-1
 10
0.776084
 20
0.148486
 30
0.000000
  0
VERTEX
  8
LAYER-1
 10
0.774349
 20
0.144146
 30
0.000000
  0
VERTEX
  8
LAYER-1
 10
0.774349
 20
0.139805
 30
0.000000
  0
VERTEX
  8
LAYER-1
 10
0.777820
 20
0.135465
 30
0.000000
  0
VERTEX
  8
LAYER-1
 10
0.782161
 20
0.135465
 30
0.000000
  0
VERTEX
  8
LAYER-1
 10
0.786502
 20
0.136333
 30
0.000000
  0
VERTEX
  8
LAYER-1
 10
0.789107
 20
0.140673
 30
0.000000
  0
SEQEND
  8
LAYER-1
  0
POLYLINE
  8
LAYER-1
 66
  1
 70
  0
 62
  0
 10
1.912370
 20
0.209247
 30
0.000000
  0
VERTEX
  8
LAYER-1
 10
1.912370
 20
0.209247
 30
0.000000
  0
VERTEX
  8
LAYER-1
 10
1.912370
 20
0.213588
 30
0.000000
  0
VERTEX
  8
LAYER-1
 10
1.908029
 20
0.217060
 30
0.000000
  0
VERTEX
  8
LAYER-1
 10
1.902821
 20
0.217928
 30
0.000000
  0
VERTEX
  8
LAYER-1
 10
1.898481
 20
0.216192
 30
0.000000
  0
VERTEX
  8
LAYER-1
 10
1.896745
 20
0.211851
 30
0.000000
  0
VERTEX
  8
LAYER-1
 10
1.896745
 20
0.207511
 30
0.000000
  0
VERTEX
  8
LAYER-1
 10
1.900216
 20
0.203171
 30
0.000000
  0
VERTEX
  8
LAYER-1
 10
1.904557
 20
0.203171
 30
0.000000
  0
VERTEX
  8
LAYER-1
 10
1.908898
 20
0.204039
 30
0.000000
  0
VERTEX
  8
LAYER-1
 10
1.911503
 20
0.208379
 30
0.000000
  0
SEQEND
  8
LAYER-1
  0
POLYLINE
  8
LAYER-1
 66
  1
 70
  1
 62
  0
 10
1.471657
 20
0.073782
 30
0.000000
  0
VERTEX
  8
LAYER-1
 10
1.471657
 20
0.073782
 30
0.000000
  0
VERTEX
  8
LAYER-1
 10
1.445615
 20
0.066837
 30
0.000000
  0
VERTEX
  8
LAYER-1
 10
1.459504
 20
0.041664
 30
0.000000
  0
SEQEND
  8
LAYER-1
  0
POLYLINE
  8
LAYER-1
 66
  1
 70
  1
 62
  0
 10
2.318185
 20
0.137203
 30
0.000000
  0
VERTEX
  8
LAYER-1
 10
2.318185
 20
0.137203
 30
0.000000
  0
VERTEX
  8
LAYER-1
 10
2.340755
 20
0.124181
 30
0.000000
  0
VERTEX
  8
LAYER-1
 10
2.319922
 20
0.154564
 30
0.000000
  0
SEQEND
  8
LAYER-1
  0
POLYLINE
  8
LAYER-1
 66
  1
 70
  1
 62
  0
 10
0.927559
 20
0.154129
 30
0.000000
  0
VERTEX
  8
LAYER-1
 10
0.927559
 20
0.154129
 30
0.000000
  0
VERTEX
  8
LAYER-1
 10
0.952733
 20
0.137636
 30
0.000000
  0
VERTEX
  8
LAYER-1
 10
0.960546
 20
0.152393
 30
0.000000
  0
SEQEND
  8
LAYER-1
  0
POLYLINE
  8
LAYER-1
 66
  1
 70
  0
 62
  0
 10
2.246137
 20
0.184074
 30
0.000000
  0
VERTEX
  8
LAYER-1
 10
2.246137
 20
0.184074
 30
0.000000
  0
VERTEX
  8
LAYER-1
 10
2.246137
 20
0.179734
 30
0.000000
  0
VERTEX
  8
LAYER-1
 10
2.250477
 20
0.176262
 30
0.000000
  0
VERTEX
  8
LAYER-1
 10
2.255685
 20
0.175395
 30
0.000000
  0
VERTEX
  8
LAYER-1
 10
2.260026
 20
0.177130
 30
0.000000
  0
VERTEX
  8
LAYER-1
 10
2.261762
 20
0.181471
 30
0.000000
  0
VERTEX
  8
LAYER-1
 10
2.261762
 20
0.185811
 30
0.000000
  0
VERTEX
  8
LAYER-1
 10
2.258290
 20
0.190152
 30
0.000000
  0
VERTEX
  8
LAYER-1
 10
2.253949
 20
0.190152
 30
0.000000
  0
VERTEX
  8
LAYER-1
 10
2.249609
 20
0.189284
 30
0.000000
  0
VERTEX
  8
LAYER-1
 10
2.247005
 20
0.184942
 30
0.000000
  0
SEQEND
  8
LAYER-1
  0
POLYLINE
  8
LAYER-1
 66
  1
 70
  1
 62
  0
 10
2.195789
 20
0.195361
 30
0.000000
  0
VERTEX
  8
LAYER-1
 10
2.195789
 20
0.195361
 30
0.000000
  0
VERTEX
  8
LAYER-1
 10
2.218359
 20
0.182340
 30
0.000000
  0
VERTEX
  8
LAYER-1
 10
2.197526
 20
0.212722
 30
0.000000
  0
SEQEND
  8
LAYER-1
  0
POLYLINE
  8
LAYER-1
 66
  1
 70
  1
 62
  0
 10
0.926158
 20
0.101880
 30
0.000000
  0
VERTEX
  8
LAYER-1
 10
0.926158
 20
0.101880
 30
0.000000
  0
VERTEX
  8
LAYER-1
 10
0.945523
 20
0.089193
 30
0.000000
  0
VERTEX
  8
LAYER-1
 10
0.951533
 20
0.100543
 30
0.000000
  0
SEQEND
  8
LAYER-1
  0
POLYLINE
  8
LAYER-1
 66
  1
 70
  0
 62
  0
 10
1.652299
 20
0.054164
 30
0.000000
  0
VERTEX
  8
LAYER-1
 10
1.652299
 20
0.054164
 30
0.000000
  0
VERTEX
  8
LAYER-1
 10
1.652299
 20
0.058504
 30
0.000000
  0
VERTEX
  8
LAYER-1
 10
1.647959
 20
0.061977
 30
0.000000
  0
VERTEX
  8
LAYER-1
 10
1.642751
 20
0.062844
 30
0.000000
  0
VERTEX
  8
LAYER-1
 10
1.638410
 20
0.061109
 30
0.000000
  0
VERTEX
  8
LAYER-1
 10
1.636674
 20
0.056768
 30
0.000000
  0
VERTEX
  8
LAYER-1
 10
1.636674
 20
0.052428
 30
0.000000
  0
VERTEX
  8
LAYER-1
 10
1.640146
 20
0.048087
 30
0.000000
  0
VERTEX
  8
LAYER-1
 10
1.644487
 20
0.048087
 30
0.000000
  0
VERTEX
  8
LAYER-1
 10
1.648827
 20
0.048955
 30
0.000000
  0
VERTEX
  8
LAYER-1
 10
1.651431
 20
0.053296
 30
0.000000
  0
SEQEND
  8
LAYER-1
  0
POLYLINE
  8
LAYER-1
 66
  1
 70
  0
 62
  0
 10
2.457942
 20
0.137203
 30
0.000000
  0
VERTEX
  8
LAYER-1
 10
2.457942
 20
0.137203
 30
0.000000
  0
VERTEX
  8
LAYER-1
 10
2.457942
 20
0.132862
 30
0.000000
  0
VERTEX
  8
LAYER-1
 10
2.462283
 20
0.129390
 30
0.000000
  0
VERTEX
  8
LAYER-1
 10
2.467491
 20
0.128522
 30
0.000000
  0
VERTEX
  8
LAYER-1
 10
2.471831
 20
0.130258
 30
0.000000
  0
VERTEX
  8
LAYER-1
 10
2.473567
 20
0.134598
 30
0.000000
  0
VERTEX
  8
LAYER-1
 10
2.473567
 20
0.138939
 30
0.000000
  0
VERTEX
  8
LAYER-1
 10
2.470096
 20
0.143279
 30
0.000000
  0
VERTEX
  8
LAYER-1
 10
2.465755
 20
0.143279
 30
0.000000
  0
VERTEX
  8
LAYER-1
 10
2.461414
 20
0.142410
 30
0.000000
  0
VERTEX
  8
LAYER-1
 10
2.458810
 20
0.138071
 30
0.000000
  0
SEQEND
  8
LAYER-1
  0
POLYLINE
  8
LAYER-1
 66
  1
 70
  0
 62
  0
 10
2.292144
 20
0.191890
 30
0.000000
  0
VERTEX
  8
LAYER-1
 10
2.292144
 20
0.191890
 30
0.000000
  0
VERTEX
  8
LAYER-1
 10
2.292144
 20
0.187549
 30
0.000000
  0
VERTEX
  8
LAYER-1
 10
2.296485
 20
0.184078
 30
0.000000
  0
VERTEX
  8
LAYER-1
 10
2.301692
 20
0.183210
 30
0.000000
  0
VERTEX
  8
LAYER-1
 10
2.306033
 20
0.184946
 30
0.000000
  0
VERTEX
  8
LAYER-1
 10
2.307769
 20
0.189285
 30
0.000000
  0
VERTEX
  8
LAYER-1
 10
2.307769
 20
0.193626
 30
0.000000
  0
VERTEX
  8
LAYER-1
 10
2.304297
 20
0.197967
 30
0.000000
  0
VERTEX
  8
LAYER-1
 10
2.299956
 20
0.197967
 30
0.000000
  0
VERTEX
  8
LAYER-1
 10
2.295616
 20
0.197098
 30
0.000000
  0
VERTEX
  8
LAYER-1
 10
2.293011
 20
0.192758
 30
0.000000
  0
SEQEND
  8
LAYER-1
  0
POLYLINE
  8
LAYER-1
 66
  1
 70
  1
 62
  0
 10
2.054297
 20
0.108991
 30
0.000000
  0
VERTEX
  8
LAYER-1
 10
2.054297
 20
0.108991
 30
0.000000
  0
VERTEX
  8
LAYER-1
 10
2.061242
 20
0.082950
 30
0.000000
  0
VERTEX
  8
LAYER-1
 10
2.086415
 20
0.096837
 30
0.000000
  0
SEQEND
  8
LAYER-1
  0
POLYLINE
  8
LAYER-1
 66
  1
 70
  1
 62
  0
 10
2.158811
 20
0.096233
 30
0.000000
  0
VERTEX
  8
LAYER-1
 10
2.158811
 20
0.096233
 30
0.000000
  0
VERTEX
  8
LAYER-1
 10
2.145790
 20
0.073663
 30
0.000000
  0
VERTEX
  8
LAYER-1
 10
2.176172
 20
0.094495
 30
0.000000
  0
SEQEND
  8
LAYER-1
  0
POLYLINE
  8
LAYER-1
 66
  1
 70
  1
 62
  0
 10
1.874776
 20
0.126689
 30
0.000000
  0
VERTEX
  8
LAYER-1
 10
1.874776
 20
0.126689
 30
0.000000
  0
VERTEX
  8
LAYER-1
 10
1.858283
 20
0.101515
 30
0.000000
  0
VERTEX
  8
LAYER-1
 10
1.873040
 20
0.093703
 30
0.000000
  0
SEQEND
  8
LAYER-1
  0
POLYLINE
  8
LAYER-1
 66
  1
 70
  0
 62
  0
 10
2.004818
 20
0.140241
 30
0.000000
  0
VERTEX
  8
LAYER-1
 10
2.004818
 20
0.140241
 30
0.000000
  0
VERTEX
  8
LAYER-1
 10
2.000477
 20
0.140241
 30
0.000000
  0
VERTEX
  8
LAYER-1
 10
1.997006
 20
0.135900
 30
0.000000
  0
VERTEX
  8
LAYER-1
 10
1.996138
 20
0.130692
 30
0.000000
  0
VERTEX
  8
LAYER-1
 10
1.997874
 20
0.126352
 30
0.000000
  0
VERTEX
  8
LAYER-1
 10
2.002214
 20
0.124616
 30
0.000000
  0
VERTEX
  8
LAYER-1
 10
2.006554
 20
0.124616
 30
0.000000
  0
VERTEX
  8
LAYER-1
 10
2.010895
 20
0.128087
 30
0.000000
  0
VERTEX
  8
LAYER-1
 10
2.010895
 20
0.132428
 30
0.000000
  0
VERTEX
  8
LAYER-1
 10
2.010027
 20
0.136769
 30
0.000000
  0
VERTEX
  8
LAYER-1
 10
2.005686
 20
0.139374
 30
0.000000
  0
SEQEND
  8
LAYER-1
  0
POLYLINE
  8
LAYER-1
 66
  1
 70
  1
 62
  0
 10
0.862456
 20
0.216629
 30
0.000000
  0
VERTEX
  8
LAYER-1
 10
0.862456
 20
0.216629
 30
0.000000
  0
VERTEX
  8
LAYER-1
 10
0.849435
 20
0.194059
 30
0.000000
  0
VERTEX
  8
LAYER-1
 10
0.879817
 20
0.214891
 30
0.000000
  0
SEQEND
  8
LAYER-1
  0
POLYLINE
  8
LAYER-1
 66
  1
 70
  1
 62
  0
 10
1.859852
 20
0.159337
 30
0.000000
  0
VERTEX
  8
LAYER-1
 10
1.859852
 20
0.159337
 30
0.000000
  0
VERTEX
  8
LAYER-1
 10
1.847166
 20
0.139974
 30
0.000000
  0
VERTEX
  8
LAYER-1
 10
1.858516
 20
0.133963
 30
0.000000
  0
SEQEND
  8
LAYER-1
  0
POLYLINE
  8
LAYER-1
 66
  1
 70
  0
 62
  0
 10
2.156727
 20
0.141977
 30
0.000000
  0
VERTEX
  8
LAYER-1
 10
2.156727
 20
0.141977
 30
0.000000
  0
VERTEX
  8
LAYER-1
 10
2.152388
 20
0.141977
 30
0.000000
  0
VERTEX
  8
LAYER-1
 10
2.148915
 20
0.137636
 30
0.000000
  0
VERTEX
  8
LAYER-1
 10
2.148047
 20
0.132428
 30
0.000000
  0
VERTEX
  8
LAYER-1
 10
2.149783
 20
0.128087
 30
0.000000
  0
VERTEX
  8
LAYER-1
 10
2.154124
 20
0.126352
 30
0.000000
  0
VERTEX
  8
LAYER-1
 10
2.158464
 20
0.126352
 30
0.000000
  0
VERTEX
  8
LAYER-1
 10
2.162804
 20
0.129823
 30
0.000000
  0
VERTEX
  8
LAYER-1
 10
2.162804
 20
0.134165
 30
0.000000
  0
VERTEX
  8
LAYER-1
 10
2.161936
 20
0.138505
 30
0.000000
  0
VERTEX
  8
LAYER-1
 10
2.157596
 20
0.141110
 30
0.000000
  0
SEQEND
  8
LAYER-1
  0
POLYLINE
  8
LAYER-1
 66
  1
 70
  0
 62
  0
 10
2.216624
 20
0.147185
 30
0.000000
  0
VERTEX
  8
LAYER-1
 10
2.216624
 20
0.147185
 30
0.000000
  0
VERTEX
  8
LAYER-1
 10
2.212283
 20
0.147185
 30
0.000000
  0
VERTEX
  8
LAYER-1
 10
2.208811
 20
0.142843
 30
0.000000
  0
VERTEX
  8
LAYER-1
 10
2.207943
 20
0.137636
 30
0.000000
  0
VERTEX
  8
LAYER-1
 10
2.209679
 20
0.133296
 30
0.000000
  0
VERTEX
  8
LAYER-1
 10
2.214020
 20
0.131560
 30
0.000000
  0
VERTEX
  8
LAYER-1
 10
2.218360
 20
0.131560
 30
0.000000
  0
VERTEX
  8
LAYER-1
 10
2.222700
 20
0.135031
 30
0.000000
  0
VERTEX
  8
LAYER-1
 10
2.222700
 20
0.139372
 30
0.000000
  0
VERTEX
  8
LAYER-1
 10
2.221832
 20
0.143712
 30
0.000000
  0
VERTEX
  8
LAYER-1
 10
2.217492
 20
0.146317
 30
0.000000
  0
SEQEND
  8
LAYER-1
  0
POLYLINE
  8
LAYER-1
 66
  1
 70
  0
 62
  0
 10
0.872873
 20
0.134164
 30
0.000000
  0
VERTEX
  8
LAYER-1
 10
0.872873
 20
0.134164
 30
0.000000
  0
VERTEX
  8
LAYER-1
 10
0.868532
 20
0.134164
 30
0.000000
  0
VERTEX
  8
LAYER-1
 10
0.865060
 20
0.129823
 30
0.000000
  0
VERTEX
  8
LAYER-1
 10
0.864192
 20
0.124615
 30
0.000000
  0
VERTEX
  8
LAYER-1
 10
0.865928
 20
0.120274
 30
0.000000
  0
VERTEX
  8
LAYER-1
 10
0.870269
 20
0.118539
 30
0.000000
  0
VERTEX
  8
LAYER-1
 10
0.874609
 20
0.118539
 30
0.000000
  0
VERTEX
  8
LAYER-1
 10
0.878949
 20
0.122010
 30
0.000000
  0
VERTEX
  8
LAYER-1
 10
0.878949
 20
0.126351
 30
0.000000
  0
VERTEX
  8
LAYER-1
 10
0.878081
 20
0.130692
 30
0.000000
  0
VERTEX
  8
LAYER-1
 10
0.873741
 20
0.133297
 30
0.000000
  0
SEQEND
  8
LAYER-1
  0
POLYLINE
  8
LAYER-1
 66
  1
 70
  1
 62
  0
 10
2.523915
 20
0.174093
 30
0.000000
  0
VERTEX
  8
LAYER-1
 10
2.523915
 20
0.174093
 30
0.000000
  0
VERTEX
  8
LAYER-1
 10
2.530860
 20
0.148053
 30
0.000000
  0
VERTEX
  8
LAYER-1
 10
2.556033
 20
0.161941
 30
0.000000
  0
SEQEND
  8
LAYER-1
  0
POLYLINE
  8
LAYER-1
 66
  1
 70
  1
 62
  0
 10
2.686242
 20
0.202740
 30
0.000000
  0
VERTEX
  8
LAYER-1
 10
2.686242
 20
0.202740
 30
0.000000
  0
VERTEX
  8
LAYER-1
 10
2.673221
 20
0.180171
 30
0.000000
  0
VERTEX
  8
LAYER-1
 10
2.703602
 20
0.201003
 30
0.000000
  0
SEQEND
  8
LAYER-1
  0
POLYLINE
  8
LAYER-1
 66
  1
 70
  1
 62
  0
 10
1.362456
 20
0.153695
 30
0.000000
  0
VERTEX
  8
LAYER-1
 10
1.362456
 20
0.153695
 30
0.000000
  0
VERTEX
  8
LAYER-1
 10
1.345963
 20
0.128521
 30
0.000000
  0
VERTEX
  8
LAYER-1
 10
1.360720
 20
0.120708
 30
0.000000
  0
SEQEND
  8
LAYER-1
  0
POLYLINE
  8
LAYER-1
 66
  1
 70
  0
 62
  0
 10
2.474436
 20
0.205343
 30
0.000000
  0
VERTEX
  8
LAYER-1
 10
2.474436
 20
0.205343
 30
0.000000
  0
VERTEX
  8
LAYER-1
 10
2.470096
 20
0.205343
 30
0.000000
  0
VERTEX
  8
LAYER-1
 10
2.466624
 20
0.201003
 30
0.000000
  0
VERTEX
  8
LAYER-1
 10
2.465755
 20
0.195796
 30
0.000000
  0
VERTEX
  8
LAYER-1
 10
2.467492
 20
0.191455
 30
0.000000
  0
VERTEX
  8
LAYER-1
 10
2.471831
 20
0.189718
 30
0.000000
  0
VERTEX
  8
LAYER-1
 10
2.476172
 20
0.189718
 30
0.000000
  0
VERTEX
  8
LAYER-1
 10
2.480513
 20
0.193191
 30
0.000000
  0
VERTEX
  8
LAYER-1
 10
2.480513
 20
0.197531
 30
0.000000
  0
VERTEX
  8
LAYER-1
 10
2.479644
 20
0.201872
 30
0.000000
  0
VERTEX
  8
LAYER-1
 10
2.475304
 20
0.204476
 30
0.000000
  0
SEQEND
  8
LAYER-1
  0
POLYLINE
  8
LAYER-1
 66
  1
 70
  1
 62
  0
 10
2.511763
 20
0.137635
 30
0.000000
  0
VERTEX
  8
LAYER-1
 10
2.511763
 20
0.137635
 30
0.000000
  0
VERTEX
  8
LAYER-1
 10
2.498742
 20
0.115066
 30
0.000000
  0
VERTEX
  8
LAYER-1
 10
2.529124
 20
0.135898
 30
0.000000
  0
SEQEND
  8
LAYER-1
  0
POLYLINE
  8
LAYER-1
 66
  1
 70
  1
 62
  0
 10
1.070688
 20
0.228007
 30
0.000000
  0
VERTEX
  8
LAYER-1
 10
1.070688
 20
0.228007
 30
0.000000
  0
VERTEX
  8
LAYER-1
 10
1.090053
 20
0.215321
 30
0.000000
  0
VERTEX
  8
LAYER-1
 10
1.096064
 20
0.226671
 30
0.000000
  0
SEQEND
  8
LAYER-1
  0
POLYLINE
  8
LAYER-1
 66
  1
 70
  0
 62
  0
 10
2.626346
 20
0.207080
 30
0.000000
  0
VERTEX
  8
LAYER-1
 10
2.626346
 20
0.207080
 30
0.000000
  0
VERTEX
  8
LAYER-1
 10
2.622005
 20
0.207080
 30
0.000000
  0
VERTEX
  8
LAYER-1
 10
2.618533
 20
0.202739
 30
0.000000
  0
VERTEX
  8
LAYER-1
 10
2.617665
 20
0.197531
 30
0.000000
  0
VERTEX
  8
LAYER-1
 10
2.619401
 20
0.193191
 30
0.000000
  0
VERTEX
  8
LAYER-1
 10
2.623742
 20
0.191455
 30
0.000000
  0
VERTEX
  8
LAYER-1
 10
2.628081
 20
0.191455
 30
0.000000
  0
VERTEX
  8
LAYER-1
 10
2.632422
 20
0.194927
 30
0.000000
  0
VERTEX
  8
LAYER-1
 10
2.632422
 20
0.199267
 30
0.000000
  0
VERTEX
  8
LAYER-1
 10
2.631554
 20
0.203608
 30
0.000000
  0
VERTEX
  8
LAYER-1
 10
2.627213
 20
0.206212
 30
0.000000
  0
SEQEND
  8
LAYER-1
  0
POLYLINE
  8
LAYER-1
 66
  1
 70
  0
 62
  0
 10
1.414540
 20
0.147618
 30
0.000000
  0
VERTEX
  8
LAYER-1
 10
1.414540
 20
0.147618
 30
0.000000
  0
VERTEX
  8
LAYER-1
 10
1.410199
 20
0.147618
 30
0.000000
  0
VERTEX
  8
LAYER-1
 10
1.406727
 20
0.143277
 30
0.000000
  0
VERTEX
  8
LAYER-1
 10
1.405859
 20
0.138070
 30
0.000000
  0
VERTEX
  8
LAYER-1
 10
1.407595
 20
0.133729
 30
0.000000
  0
VERTEX
  8
LAYER-1
 10
1.411935
 20
0.131993
 30
0.000000
  0
VERTEX
  8
LAYER-1
 10
1.416275
 20
0.131993
 30
0.000000
  0
VERTEX
  8
LAYER-1
 10
1.420615
 20
0.135465
 30
0.000000
  0
VERTEX
  8
LAYER-1
 10
1.420615
 20
0.139805
 30
0.000000
  0
VERTEX
  8
LAYER-1
 10
1.419747
 20
0.144146
 30
0.000000
  0
VERTEX
  8
LAYER-1
 10
1.415408
 20
0.146750
 30
0.000000
  0
SEQEND
  8
LAYER-1
  0
POLYLINE
  8
LAYER-1
 66
  1
 70
  0
 62
  0
 10
0.997872
 20
0.124180
 30
0.000000
  0
VERTEX
  8
LAYER-1
 10
0.997872
 20
0.124180
 30
0.000000
  0
VERTEX
  8
LAYER-1
 10
0.993532
 20
0.124180
 30
0.000000
  0
VERTEX
  8
LAYER-1
 10
0.990060
 20
0.119840
 30
0.000000
  0
VERTEX
  8
LAYER-1
 10
0.989192
 20
0.114633
 30
0.000000
  0
VERTEX
  8
LAYER-1
 10
0.990928
 20
0.110291
 30
0.000000
  0
VERTEX
  8
LAYER-1
 10
0.995268
 20
0.108555
 30
0.000000
  0
VERTEX
  8
LAYER-1
 10
0.999608
 20
0.108555
 30
0.000000
  0
VERTEX
  8
LAYER-1
 10
1.003948
 20
0.112027
 30
0.000000
  0
VERTEX
  8
LAYER-1
 10
1.003948
 20
0.116368
 30
0.000000
  0
VERTEX
  8
LAYER-1
 10
1.003080
 20
0.120709
 30
0.000000
  0
VERTEX
  8
LAYER-1
 10
0.998741
 20
0.123312
 30
0.000000
  0
SEQEND
  8
LAYER-1
  0
POLYLINE
  8
LAYER-1
 66
  1
 70
  1
 62
  0
 10
2.965755
 20
0.198399
 30
0.000000
  0
VERTEX
  8
LAYER-1
 10
2.965755
 20
0.198399
 30
0.000000
  0
VERTEX
  8
LAYER-1
 10
2.972699
 20
0.172359
 30
0.000000
  0
VERTEX
  8
LAYER-1
 10
2.997873
 20
0.186246
 30
0.000000
  0
SEQEND
  8
LAYER-1
  0
POLYLINE
  8
LAYER-1
 66
  1
 70
  1
 62
  0
 10
3.128082
 20
0.227047
 30
0.000000
  0
VERTEX
  8
LAYER-1
 10
3.128082
 20
0.227047
 30
0.000000
  0
VERTEX
  8
LAYER-1
 10
3.115060
 20
0.204476
 30
0.000000
  0
VERTEX
  8
LAYER-1
 10
3.145442
 20
0.225309
 30
0.000000
  0
SEQEND
  8
LAYER-1
  0
POLYLINE
  8
LAYER-1
 66
  1
 70
  1
 62
  0
 10
2.356380
 20
0.162810
 30
0.000000
  0
VERTEX
  8
LAYER-1
 10
2.356380
 20
0.162810
 30
0.000000
  0
VERTEX
  8
LAYER-1
 10
2.381554
 20
0.146316
 30
0.000000
  0
VERTEX
  8
LAYER-1
 10
2.389366
 20
0.161073
 30
0.000000
  0
SEQEND
  8
LAYER-1
  0
POLYLINE
  8
LAYER-1
 66
  1
 70
  0
 62
  0
 10
2.926692
 20
0.219234
 30
0.000000
  0
VERTEX
  8
LAYER-1
 10
2.926692
 20
0.219234
 30
0.000000
  0
VERTEX
  8
LAYER-1
 10
2.922352
 20
0.219234
 30
0.000000
  0
VERTEX
  8
LAYER-1
 10
2.918880
 20
0.214893
 30
0.000000
  0
VERTEX
  8
LAYER-1
 10
2.918012
 20
0.209685
 30
0.000000
  0
VERTEX
  8
LAYER-1
 10
2.919748
 20
0.205345
 30
0.000000
  0
VERTEX
  8
LAYER-1
 10
2.924088
 20
0.203609
 30
0.000000
  0
VERTEX
  8
LAYER-1
 10
2.928428
 20
0.203609
 30
0.000000
  0
VERTEX
  8
LAYER-1
 10
2.932769
 20
0.207080
 30
0.000000
  0
VERTEX
  8
LAYER-1
 10
2.932769
 20
0.211422
 30
0.000000
  0
VERTEX
  8
LAYER-1
 10
2.931901
 20
0.215762
 30
0.000000
  0
VERTEX
  8
LAYER-1
 10
2.927560
 20
0.218367
 30
0.000000
  0
SEQEND
  8
LAYER-1
  0
POLYLINE
  8
LAYER-1
 66
  1
 70
  1
 62
  0
 10
2.942318
 20
0.130692
 30
0.000000
  0
VERTEX
  8
LAYER-1
 10
2.942318
 20
0.130692
 30
0.000000
  0
VERTEX
  8
LAYER-1
 10
2.929297
 20
0.108121
 30
0.000000
  0
VERTEX
  8
LAYER-1
 10
2.959679
 20
0.128954
 30
0.000000
  0
SEQEND
  8
LAYER-1
  0
POLYLINE
  8
LAYER-1
 66
  1
 70
  1
 62
  0
 10
3.036769
 20
0.124279
 30
0.000000
  0
VERTEX
  8
LAYER-1
 10
3.036769
 20
0.124279
 30
0.000000
  0
VERTEX
  8
LAYER-1
 10
3.024082
 20
0.104914
 30
0.000000
  0
VERTEX
  8
LAYER-1
 10
3.035432
 20
0.098903
 30
0.000000
  0
SEQEND
  8
LAYER-1
  0
POLYLINE
  8
LAYER-1
 66
  1
 70
  0
 62
  0
 10
3.068185
 20
0.223573
 30
0.000000
  0
VERTEX
  8
LAYER-1
 10
3.068185
 20
0.223573
 30
0.000000
  0
VERTEX
  8
LAYER-1
 10
3.063846
 20
0.223573
 30
0.000000
  0
VERTEX
  8
LAYER-1
 10
3.060373
 20
0.219233
 30
0.000000
  0
VERTEX
  8
LAYER-1
 10
3.059505
 20
0.214025
 30
0.000000
  0
VERTEX
  8
LAYER-1
 10
3.061241
 20
0.209685
 30
0.000000
  0
VERTEX
  8
LAYER-1
 10
3.065581
 20
0.207948
 30
0.000000
  0
VERTEX
  8
LAYER-1
 10
3.069922
 20
0.207948
 30
0.000000
  0
VERTEX
  8
LAYER-1
 10
3.074262
 20
0.211421
 30
0.000000
  0
VERTEX
  8
LAYER-1
 10
3.074262
 20
0.215761
 30
0.000000
  0
VERTEX
  8
LAYER-1
 10
3.073394
 20
0.220102
 30
0.000000
  0
VERTEX
  8
LAYER-1
 10
3.069053
 20
0.222706
 30
0.000000
  0
SEQEND
  8
LAYER-1
  0
POLYLINE
  8
LAYER-1
 66
  1
 70
  0
 62
  0
 10
2.345096
 20
0.215761
 30
0.000000
  0
VERTEX
  8
LAYER-1
 10
2.345096
 20
0.215761
 30
0.000000
  0
VERTEX
  8
LAYER-1
 10
2.345096
 20
0.211421
 30
0.000000
  0
VERTEX
  8
LAYER-1
 10
2.349437
 20
0.207948
 30
0.000000
  0
VERTEX
  8
LAYER-1
 10
2.354644
 20
0.207080
 30
0.000000
  0
VERTEX
  8
LAYER-1
 10
2.358985
 20
0.208816
 30
0.000000
  0
VERTEX
  8
LAYER-1
 10
2.360721
 20
0.213156
 30
0.000000
  0
VERTEX
  8
LAYER-1
 10
2.360721
 20
0.217497
 30
0.000000
  0
VERTEX
  8
LAYER-1
 10
2.357249
 20
0.221837
 30
0.000000
  0
VERTEX
  8
LAYER-1
 10
2.352908
 20
0.221837
 30
0.000000
  0
VERTEX
  8
LAYER-1
 10
2.348568
 20
0.220968
 30
0.000000
  0
VERTEX
  8
LAYER-1
 10
2.345963
 20
0.216628
 30
0.000000
  0
SEQEND
  8
LAYER-1
  0
POLYLINE
  8
LAYER-1
 66
  1
 70
  0
 62
  0
 10
2.908463
 20
0.131558
 30
0.000000
  0
VERTEX
  8
LAYER-1
 10
2.908463
 20
0.131558
 30
0.000000
  0
VERTEX
  8
LAYER-1
 10
2.904122
 20
0.131558
 30
0.000000
  0
VERTEX
  8
LAYER-1
 10
2.900650
 20
0.127217
 30
0.000000
  0
VERTEX
  8
LAYER-1
 10
2.899782
 20
0.122009
 30
0.000000
  0
VERTEX
  8
LAYER-1
 10
2.901518
 20
0.117668
 30
0.000000
  0
VERTEX
  8
LAYER-1
 10
2.905859
 20
0.115933
 30
0.000000
  0
VERTEX
  8
LAYER-1
 10
2.910198
 20
0.115933
 30
0.000000
  0
VERTEX
  8
LAYER-1
 10
2.914539
 20
0.119404
 30
0.000000
  0
VERTEX
  8
LAYER-1
 10
2.914539
 20
0.123745
 30
0.000000
  0
VERTEX
  8
LAYER-1
 10
2.913671
 20
0.128086
 30
0.000000
  0
VERTEX
  8
LAYER-1
 10
2.909330
 20
0.130691
 30
0.000000
  0
SEQEND
  8
LAYER-1
  0
POLYLINE
  8
LAYER-1
 66
  1
 70
  1
 62
  0
 10
2.775652
 20
0.119841
 30
0.000000
  0
VERTEX
  8
LAYER-1
 10
2.775652
 20
0.119841
 30
0.000000
  0
VERTEX
  8
LAYER-1
 10
2.749610
 20
0.112896
 30
0.000000
  0
VERTEX
  8
LAYER-1
 10
2.763499
 20
0.087723
 30
0.000000
  0
SEQEND
  8
LAYER-1
  0
POLYLINE
  8
LAYER-1
 66
  1
 70
  1
 62
  0
 10
1.398916
 20
0.094233
 30
0.000000
  0
VERTEX
  8
LAYER-1
 10
1.398916
 20
0.094233
 30
0.000000
  0
VERTEX
  8
LAYER-1
 10
1.373740
 20
0.110726
 30
0.000000
  0
VERTEX
  8
LAYER-1
 10
1.365928
 20
0.095968
 30
0.000000
  0
SEQEND
  8
LAYER-1
  0
POLYLINE
  8
LAYER-1
 66
  1
 70
  0
 62
  0
 10
2.806902
 20
0.169320
 30
0.000000
  0
VERTEX
  8
LAYER-1
 10
2.806902
 20
0.169320
 30
0.000000
  0
VERTEX
  8
LAYER-1
 10
2.806902
 20
0.173660
 30
0.000000
  0
VERTEX
  8
LAYER-1
 10
2.802561
 20
0.177133
 30
0.000000
  0
VERTEX
  8
LAYER-1
 10
2.797354
 20
0.178000
 30
0.000000
  0
VERTEX
  8
LAYER-1
 10
2.793013
 20
0.176264
 30
0.000000
  0
VERTEX
  8
LAYER-1
 10
2.791277
 20
0.171923
 30
0.000000
  0
VERTEX
  8
LAYER-1
 10
2.791277
 20
0.167584
 30
0.000000
  0
VERTEX
  8
LAYER-1
 10
2.794749
 20
0.163244
 30
0.000000
  0
VERTEX
  8
LAYER-1
 10
2.799089
 20
0.163244
 30
0.000000
  0
VERTEX
  8
LAYER-1
 10
2.803430
 20
0.164111
 30
0.000000
  0
VERTEX
  8
LAYER-1
 10
2.806033
 20
0.168452
 30
0.000000
  0
SEQEND
  8
LAYER-1
  0
POLYLINE
  8
LAYER-1
 66
  1
 70
  1
 62
  0
 10
2.739192
 20
0.131994
 30
0.000000
  0
VERTEX
  8
LAYER-1
 10
2.739192
 20
0.131994
 30
0.000000
  0
VERTEX
  8
LAYER-1
 10
2.716624
 20
0.145014
 30
0.000000
  0
VERTEX
  8
LAYER-1
 10
2.737456
 20
0.114633
 30
0.000000
  0
SEQEND
  8
LAYER-1
  0
POLYLINE
  8
LAYER-1
 66
  1
 70
  1
 62
  0
 10
1.476706
 20
0.113496
 30
0.000000
  0
VERTEX
  8
LAYER-1
 10
1.476706
 20
0.113496
 30
0.000000
  0
VERTEX
  8
LAYER-1
 10
1.457340
 20
0.126183
 30
0.000000
  0
VERTEX
  8
LAYER-1
 10
1.451331
 20
0.114831
 30
0.000000
  0
SEQEND
  8
LAYER-1
  0
POLYLINE
  8
LAYER-1
 66
  1
 70
  0
 62
  0
 10
1.536936
 20
0.102046
 30
0.000000
  0
VERTEX
  8
LAYER-1
 10
1.536936
 20
0.102046
 30
0.000000
  0
VERTEX
  8
LAYER-1
 10
1.536936
 20
0.106385
 30
0.000000
  0
VERTEX
  8
LAYER-1
 10
1.532596
 20
0.109858
 30
0.000000
  0
VERTEX
  8
LAYER-1
 10
1.527388
 20
0.110726
 30
0.000000
  0
VERTEX
  8
LAYER-1
 10
1.523047
 20
0.108990
 30
0.000000
  0
VERTEX
  8
LAYER-1
 10
1.521311
 20
0.104649
 30
0.000000
  0
VERTEX
  8
LAYER-1
 10
1.521311
 20
0.100309
 30
0.000000
  0
VERTEX
  8
LAYER-1
 10
1.524783
 20
0.095968
 30
0.000000
  0
VERTEX
  8
LAYER-1
 10
1.529124
 20
0.095968
 30
0.000000
  0
VERTEX
  8
LAYER-1
 10
1.533465
 20
0.096837
 30
0.000000
  0
VERTEX
  8
LAYER-1
 10
1.536068
 20
0.101178
 30
0.000000
  0
SEQEND
  8
LAYER-1
  0
POLYLINE
  8
LAYER-1
 66
  1
 70
  0
 62
  0
 10
2.656729
 20
0.121577
 30
0.000000
  0
VERTEX
  8
LAYER-1
 10
2.656729
 20
0.121577
 30
0.000000
  0
VERTEX
  8
LAYER-1
 10
2.656729
 20
0.125917
 30
0.000000
  0
VERTEX
  8
LAYER-1
 10
2.652388
 20
0.129389
 30
0.000000
  0
VERTEX
  8
LAYER-1
 10
2.647180
 20
0.130258
 30
0.000000
  0
VERTEX
  8
LAYER-1
 10
2.642839
 20
0.128521
 30
0.000000
  0
VERTEX
  8
LAYER-1
 10
2.641104
 20
0.124181
 30
0.000000
  0
VERTEX
  8
LAYER-1
 10
2.641104
 20
0.119841
 30
0.000000
  0
VERTEX
  8
LAYER-1
 10
2.644575
 20
0.115500
 30
0.000000
  0
VERTEX
  8
LAYER-1
 10
2.648916
 20
0.115500
 30
0.000000
  0
VERTEX
  8
LAYER-1
 10
2.653257
 20
0.116369
 30
0.000000
  0
VERTEX
  8
LAYER-1
 10
2.655860
 20
0.120709
 30
0.000000
  0
SEQEND
  8
LAYER-1
  0
POLYLINE
  8
LAYER-1
 66
  1
 70
  1
 62
  0
 10
2.849436
 20
0.122880
 30
0.000000
  0
VERTEX
  8
LAYER-1
 10
2.849436
 20
0.122880
 30
0.000000
  0
VERTEX
  8
LAYER-1
 10
2.842491
 20
0.148921
 30
0.000000
  0
VERTEX
  8
LAYER-1
 10
2.817318
 20
0.135034
 30
0.000000
  0
SEQEND
  8
LAYER-1
  0
POLYLINE
  8
LAYER-1
 66
  1
 70
  1
 62
  0
 10
2.296485
 20
0.109858
 30
0.000000
  0
VERTEX
  8
LAYER-1
 10
2.296485
 20
0.109858
 30
0.000000
  0
VERTEX
  8
LAYER-1
 10
2.273914
 20
0.122880
 30
0.000000
  0
VERTEX
  8
LAYER-1
 10
2.294747
 20
0.092497
 30
0.000000
  0
SEQEND
  8
LAYER-1
  0
POLYLINE
  8
LAYER-1
 66
  1
 70
  1
 62
  0
 10
3.074263
 20
0.134165
 30
0.000000
  0
VERTEX
  8
LAYER-1
 10
3.074263
 20
0.134165
 30
0.000000
  0
VERTEX
  8
LAYER-1
 10
3.090756
 20
0.159337
 30
0.000000
  0
VERTEX
  8
LAYER-1
 10
3.075999
 20
0.167150
 30
0.000000
  0
SEQEND
  8
LAYER-1
  0
POLYLINE
  8
LAYER-1
 66
  1
 70
  0
 62
  0
 10
3.209679
 20
0.102043
 30
0.000000
  0
VERTEX
  8
LAYER-1
 10
3.209679
 20
0.102043
 30
0.000000
  0
VERTEX
  8
LAYER-1
 10
3.214020
 20
0.102043
 30
0.000000
  0
VERTEX
  8
LAYER-1
 10
3.217491
 20
0.106384
 30
0.000000
  0
VERTEX
  8
LAYER-1
 10
3.218359
 20
0.111592
 30
0.000000
  0
VERTEX
  8
LAYER-1
 10
3.216623
 20
0.115933
 30
0.000000
  0
VERTEX
  8
LAYER-1
 10
3.212283
 20
0.117668
 30
0.000000
  0
VERTEX
  8
LAYER-1
 10
3.207943
 20
0.117668
 30
0.000000
  0
VERTEX
  8
LAYER-1
 10
3.203602
 20
0.114197
 30
0.000000
  0
VERTEX
  8
LAYER-1
 10
3.203602
 20
0.109856
 30
0.000000
  0
VERTEX
  8
LAYER-1
 10
3.204470
 20
0.105515
 30
0.000000
  0
VERTEX
  8
LAYER-1
 10
3.208811
 20
0.102910
 30
0.000000
  0
SEQEND
  8
LAYER-1
  0
POLYLINE
  8
LAYER-1
 66
  1
 70
  1
 62
  0
 10
2.861588
 20
0.159337
 30
0.000000
  0
VERTEX
  8
LAYER-1
 10
2.861588
 20
0.159337
 30
0.000000
  0
VERTEX
  8
LAYER-1
 10
2.874609
 20
0.181909
 30
0.000000
  0
VERTEX
  8
LAYER-1
 10
2.844227
 20
0.161075
 30
0.000000
  0
SEQEND
  8
LAYER-1
  0
POLYLINE
  8
LAYER-1
 66
  1
 70
  1
 62
  0
 10
3.115227
 20
0.110193
 30
0.000000
  0
VERTEX
  8
LAYER-1
 10
3.115227
 20
0.110193
 30
0.000000
  0
VERTEX
  8
LAYER-1
 10
3.127914
 20
0.129557
 30
0.000000
  0
VERTEX
  8
LAYER-1
 10
3.116563
 20
0.135568
 30
0.000000
  0
SEQEND
  8
LAYER-1
  0
POLYLINE
  8
LAYER-1
 66
  1
 70
  0
 62
  0
 10
2.436240
 20
0.169755
 30
0.000000
  0
VERTEX
  8
LAYER-1
 10
2.436240
 20
0.169755
 30
0.000000
  0
VERTEX
  8
LAYER-1
 10
2.436240
 20
0.174093
 30
0.000000
  0
VERTEX
  8
LAYER-1
 10
2.431900
 20
0.177567
 30
0.000000
  0
VERTEX
  8
LAYER-1
 10
2.426692
 20
0.178435
 30
0.000000
  0
VERTEX
  8
LAYER-1
 10
2.422351
 20
0.176698
 30
0.000000
  0
VERTEX
  8
LAYER-1
 10
2.420615
 20
0.172358
 30
0.000000
  0
VERTEX
  8
LAYER-1
 10
2.420615
 20
0.168017
 30
0.000000
  0
VERTEX
  8
LAYER-1
 10
2.424087
 20
0.163678
 30
0.000000
  0
VERTEX
  8
LAYER-1
 10
2.428428
 20
0.163678
 30
0.000000
  0
VERTEX
  8
LAYER-1
 10
2.432769
 20
0.164546
 30
0.000000
  0
VERTEX
  8
LAYER-1
 10
2.435373
 20
0.168886
 30
0.000000
  0
SEQEND
  8
LAYER-1
  0
POLYLINE
  8
LAYER-1
 66
  1
 70
  0
 62
  0
 10
3.022179
 20
0.140241
 30
0.000000
  0
VERTEX
  8
LAYER-1
 10
3.022179
 20
0.140241
 30
0.000000
  0
VERTEX
  8
LAYER-1
 10
3.026520
 20
0.140241
 30
0.000000
  0
VERTEX
  8
LAYER-1
 10
3.029992
 20
0.144581
 30
0.000000
  0
VERTEX
  8
LAYER-1
 10
3.030860
 20
0.149790
 30
0.000000
  0
VERTEX
  8
LAYER-1
 10
3.029124
 20
0.154130
 30
0.000000
  0
VERTEX
  8
LAYER-1
 10
3.024783
 20
0.155866
 30
0.000000
  0
VERTEX
  8
LAYER-1
 10
3.020443
 20
0.155866
 30
0.000000
  0
VERTEX
  8
LAYER-1
 10
3.016103
 20
0.152394
 30
0.000000
  0
VERTEX
  8
LAYER-1
 10
3.016103
 20
0.148053
 30
0.000000
  0
VERTEX
  8
LAYER-1
 10
3.016971
 20
0.143712
 30
0.000000
  0
VERTEX
  8
LAYER-1
 10
3.021311
 20
0.141108
 30
0.000000
  0
SEQEND
  8
LAYER-1
  0
POLYLINE
  8
LAYER-1
 66
  1
 70
  0
 62
  0
 10
3.186242
 20
0.148053
 30
0.000000
  0
VERTEX
  8
LAYER-1
 10
3.186242
 20
0.148053
 30
0.000000
  0
VERTEX
  8
LAYER-1
 10
3.190582
 20
0.148053
 30
0.000000
  0
VERTEX
  8
LAYER-1
 10
3.194054
 20
0.152394
 30
0.000000
  0
VERTEX
  8
LAYER-1
 10
3.194922
 20
0.157602
 30
0.000000
  0
VERTEX
  8
LAYER-1
 10
3.193186
 20
0.161942
 30
0.000000
  0
VERTEX
  8
LAYER-1
 10
3.188846
 20
0.163678
 30
0.000000
  0
VERTEX
  8
LAYER-1
 10
3.184506
 20
0.163678
 30
0.000000
  0
VERTEX
  8
LAYER-1
 10
3.180165
 20
0.160206
 30
0.000000
  0
VERTEX
  8
LAYER-1
 10
3.180165
 20
0.155866
 30
0.000000
  0
VERTEX
  8
LAYER-1
 10
3.181033
 20
0.151525
 30
0.000000
  0
VERTEX
  8
LAYER-1
 10
3.185374
 20
0.148921
 30
0.000000
  0
SEQEND
  8
LAYER-1
  0
POLYLINE
  8
LAYER-1
 66
  1
 70
  1
 62
  0
 10
3.593360
 20
0.146317
 30
0.000000
  0
VERTEX
  8
LAYER-1
 10
3.593360
 20
0.146317
 30
0.000000
  0
VERTEX
  8
LAYER-1
 10
3.600303
 20
0.120277
 30
0.000000
  0
VERTEX
  8
LAYER-1
 10
3.625476
 20
0.134165
 30
0.000000
  0
SEQEND
  8
LAYER-1
  0
POLYLINE
  8
LAYER-1
 66
  1
 70
  1
 62
  0
 10
3.759591
 20
0.100310
 30
0.000000
  0
VERTEX
  8
LAYER-1
 10
3.759591
 20
0.100310
 30
0.000000
  0
VERTEX
  8
LAYER-1
 10
3.746571
 20
0.077741
 30
0.000000
  0
VERTEX
  8
LAYER-1
 10
3.776953
 20
0.098573
 30
0.000000
  0
SEQEND
  8
LAYER-1
  0
POLYLINE
  8
LAYER-1
 66
  1
 70
  1
 62
  0
 10
3.644573
 20
0.190585
 30
0.000000
  0
VERTEX
  8
LAYER-1
 10
3.644573
 20
0.190585
 30
0.000000
  0
VERTEX
  8
LAYER-1
 10
3.628081
 20
0.165410
 30
0.000000
  0
VERTEX
  8
LAYER-1
 10
3.642838
 20
0.157598
 30
0.000000
  0
SEQEND
  8
LAYER-1
  0
POLYLINE
  8
LAYER-1
 66
  1
 70
  0
 62
  0
 10
3.559505
 20
0.177567
 30
0.000000
  0
VERTEX
  8
LAYER-1
 10
3.559505
 20
0.177567
 30
0.000000
  0
VERTEX
  8
LAYER-1
 10
3.555165
 20
0.177567
 30
0.000000
  0
VERTEX
  8
LAYER-1
 10
3.551692
 20
0.173227
 30
0.000000
  0
VERTEX
  8
LAYER-1
 10
3.550823
 20
0.168019
 30
0.000000
  0
VERTEX
  8
LAYER-1
 10
3.552560
 20
0.163678
 30
0.000000
  0
VERTEX
  8
LAYER-1
 10
3.556901
 20
0.161942
 30
0.000000
  0
VERTEX
  8
LAYER-1
 10
3.561241
 20
0.161942
 30
0.000000
  0
VERTEX
  8
LAYER-1
 10
3.565581
 20
0.165415
 30
0.000000
  0
VERTEX
  8
LAYER-1
 10
3.565581
 20
0.169755
 30
0.000000
  0
VERTEX
  8
LAYER-1
 10
3.564713
 20
0.174096
 30
0.000000
  0
VERTEX
  8
LAYER-1
 10
3.560373
 20
0.176699
 30
0.000000
  0
SEQEND
  8
LAYER-1
  0
POLYLINE
  8
LAYER-1
 66
  1
 70
  1
 62
  0
 10
3.543011
 20
0.117670
 30
0.000000
  0
VERTEX
  8
LAYER-1
 10
3.543011
 20
0.117670
 30
0.000000
  0
VERTEX
  8
LAYER-1
 10
3.529991
 20
0.095100
 30
0.000000
  0
VERTEX
  8
LAYER-1
 10
3.560373
 20
0.115933
 30
0.000000
  0
SEQEND
  8
LAYER-1
  0
POLYLINE
  8
LAYER-1
 66
  1
 70
  1
 62
  0
 10
3.598466
 20
0.216024
 30
0.000000
  0
VERTEX
  8
LAYER-1
 10
3.598466
 20
0.216024
 30
0.000000
  0
VERTEX
  8
LAYER-1
 10
3.617831
 20
0.203336
 30
0.000000
  0
VERTEX
  8
LAYER-1
 10
3.623842
 20
0.214688
 30
0.000000
  0
SEQEND
  8
LAYER-1
  0
POLYLINE
  8
LAYER-1
 66
  1
 70
  0
 62
  0
 10
3.483115
 20
0.167272
 30
0.000000
  0
VERTEX
  8
LAYER-1
 10
3.483115
 20
0.167272
 30
0.000000
  0
VERTEX
  8
LAYER-1
 10
3.478775
 20
0.167272
 30
0.000000
  0
VERTEX
  8
LAYER-1
 10
3.475302
 20
0.162932
 30
0.000000
  0
VERTEX
  8
LAYER-1
 10
3.474435
 20
0.157724
 30
0.000000
  0
VERTEX
  8
LAYER-1
 10
3.476171
 20
0.153383
 30
0.000000
  0
VERTEX
  8
LAYER-1
 10
3.480511
 20
0.151647
 30
0.000000
  0
VERTEX
  8
LAYER-1
 10
3.484852
 20
0.151647
 30
0.000000
  0
VERTEX
  8
LAYER-1
 10
3.489191
 20
0.155119
 30
0.000000
  0
VERTEX
  8
LAYER-1
 10
3.489191
 20
0.159459
 30
0.000000
  0
VERTEX
  8
LAYER-1
 10
3.488323
 20
0.163801
 30
0.000000
  0
VERTEX
  8
LAYER-1
 10
3.483984
 20
0.166405
 30
0.000000
  0
SEQEND
  8
LAYER-1
  0
POLYLINE
  8
LAYER-1
 66
  1
 70
  0
 62
  0
 10
3.859854
 20
0.139368
 30
0.000000
  0
VERTEX
  8
LAYER-1
 10
3.859854
 20
0.139368
 30
0.000000
  0
VERTEX
  8
LAYER-1
 10
3.855514
 20
0.139368
 30
0.000000
  0
VERTEX
  8
LAYER-1
 10
3.852041
 20
0.135028
 30
0.000000
  0
VERTEX
  8
LAYER-1
 10
3.851173
 20
0.129820
 30
0.000000
  0
VERTEX
  8
LAYER-1
 10
3.852909
 20
0.125479
 30
0.000000
  0
VERTEX
  8
LAYER-1
 10
3.857250
 20
0.123743
 30
0.000000
  0
VERTEX
  8
LAYER-1
 10
3.861590
 20
0.123743
 30
0.000000
  0
VERTEX
  8
LAYER-1
 10
3.865930
 20
0.127215
 30
0.000000
  0
VERTEX
  8
LAYER-1
 10
3.865930
 20
0.131555
 30
0.000000
  0
VERTEX
  8
LAYER-1
 10
3.865062
 20
0.135896
 30
0.000000
  0
VERTEX
  8
LAYER-1
 10
3.860722
 20
0.138501
 30
0.000000
  0
SEQEND
  8
LAYER-1
  0
POLYLINE
  8
LAYER-1
 66
  1
 70
  0
 62
  0
 10
3.591623
 20
0.110725
 30
0.000000
  0
VERTEX
  8
LAYER-1
 10
3.591623
 20
0.110725
 30
0.000000
  0
VERTEX
  8
LAYER-1
 10
3.587283
 20
0.110725
 30
0.000000
  0
VERTEX
  8
LAYER-1
 10
3.583810
 20
0.106384
 30
0.000000
  0
VERTEX
  8
LAYER-1
 10
3.582942
 20
0.101177
 30
0.000000
  0
VERTEX
  8
LAYER-1
 10
3.584678
 20
0.096836
 30
0.000000
  0
VERTEX
  8
LAYER-1
 10
3.589019
 20
0.095100
 30
0.000000
  0
VERTEX
  8
LAYER-1
 10
3.593359
 20
0.095100
 30
0.000000
  0
VERTEX
  8
LAYER-1
 10
3.597699
 20
0.098572
 30
0.000000
  0
VERTEX
  8
LAYER-1
 10
3.597699
 20
0.102912
 30
0.000000
  0
VERTEX
  8
LAYER-1
 10
3.596831
 20
0.107253
 30
0.000000
  0
VERTEX
  8
LAYER-1
 10
3.592491
 20
0.109857
 30
0.000000
  0
SEQEND
  8
LAYER-1
  0
POLYLINE
  8
LAYER-1
 66
  1
 70
  1
 62
  0
 10
3.389800
 20
0.170189
 30
0.000000
  0
VERTEX
  8
LAYER-1
 10
3.389800
 20
0.170189
 30
0.000000
  0
VERTEX
  8
LAYER-1
 10
3.363760
 20
0.163244
 30
0.000000
  0
VERTEX
  8
LAYER-1
 10
3.377647
 20
0.138071
 30
0.000000
  0
SEQEND
  8
LAYER-1
  0
POLYLINE
  8
LAYER-1
 66
  1
 70
  1
 62
  0
 10
3.296919
 20
0.118973
 30
0.000000
  0
VERTEX
  8
LAYER-1
 10
3.296919
 20
0.118973
 30
0.000000
  0
VERTEX
  8
LAYER-1
 10
3.274349
 20
0.131994
 30
0.000000
  0
VERTEX
  8
LAYER-1
 10
3.295181
 20
0.101612
 30
0.000000
  0
SEQEND
  8
LAYER-1
  0
POLYLINE
  8
LAYER-1
 66
  1
 70
  1
 62
  0
 10
3.260460
 20
0.164109
 30
0.000000
  0
VERTEX
  8
LAYER-1
 10
3.260460
 20
0.164109
 30
0.000000
  0
VERTEX
  8
LAYER-1
 10
3.235287
 20
0.180602
 30
0.000000
  0
VERTEX
  8
LAYER-1
 10
3.227474
 20
0.165845
 30
0.000000
  0
SEQEND
  8
LAYER-1
  0
POLYLINE
  8
LAYER-1
 66
  1
 70
  0
 62
  0
 10
3.421050
 20
0.219667
 30
0.000000
  0
VERTEX
  8
LAYER-1
 10
3.421050
 20
0.219667
 30
0.000000
  0
VERTEX
  8
LAYER-1
 10
3.421050
 20
0.224008
 30
0.000000
  0
VERTEX
  8
LAYER-1
 10
3.416710
 20
0.227480
 30
0.000000
  0
VERTEX
  8
LAYER-1
 10
3.411502
 20
0.228348
 30
0.000000
  0
VERTEX
  8
LAYER-1
 10
3.407161
 20
0.226612
 30
0.000000
  0
VERTEX
  8
LAYER-1
 10
3.405425
 20
0.222271
 30
0.000000
  0
VERTEX
  8
LAYER-1
 10
3.405425
 20
0.217931
 30
0.000000
  0
VERTEX
  8
LAYER-1
 10
3.408897
 20
0.213591
 30
0.000000
  0
VERTEX
  8
LAYER-1
 10
3.413238
 20
0.213591
 30
0.000000
  0
VERTEX
  8
LAYER-1
 10
3.417579
 20
0.214459
 30
0.000000
  0
VERTEX
  8
LAYER-1
 10
3.420183
 20
0.218799
 30
0.000000
  0
SEQEND
  8
LAYER-1
  0
POLYLINE
  8
LAYER-1
 66
  1
 70
  1
 62
  0
 10
3.353342
 20
0.182341
 30
0.000000
  0
VERTEX
  8
LAYER-1
 10
3.353342
 20
0.182341
 30
0.000000
  0
VERTEX
  8
LAYER-1
 10
3.330772
 20
0.195362
 30
0.000000
  0
VERTEX
  8
LAYER-1
 10
3.351605
 20
0.164980
 30
0.000000
  0
SEQEND
  8
LAYER-1
  0
POLYLINE
  8
LAYER-1
 66
  1
 70
  1
 62
  0
 10
3.304996
 20
0.189383
 30
0.000000
  0
VERTEX
  8
LAYER-1
 10
3.304996
 20
0.189383
 30
0.000000
  0
VERTEX
  8
LAYER-1
 10
3.292310
 20
0.170019
 30
0.000000
  0
VERTEX
  8
LAYER-1
 10
3.303660
 20
0.164007
 30
0.000000
  0
SEQEND
  8
LAYER-1
  0
POLYLINE
  8
LAYER-1
 66
  1
 70
  0
 62
  0
 10
3.422786
 20
0.092062
 30
0.000000
  0
VERTEX
  8
LAYER-1
 10
3.422786
 20
0.092062
 30
0.000000
  0
VERTEX
  8
LAYER-1
 10
3.422786
 20
0.096402
 30
0.000000
  0
VERTEX
  8
LAYER-1
 10
3.418445
 20
0.099875
 30
0.000000
  0
VERTEX
  8
LAYER-1
 10
3.413238
 20
0.100743
 30
0.000000
  0
VERTEX
  8
LAYER-1
 10
3.408897
 20
0.099008
 30
0.000000
  0
VERTEX
  8
LAYER-1
 10
3.407161
 20
0.094666
 30
0.000000
  0
VERTEX
  8
LAYER-1
 10
3.407161
 20
0.090326
 30
0.000000
  0
VERTEX
  8
LAYER-1
 10
3.410633
 20
0.085986
 30
0.000000
  0
VERTEX
  8
LAYER-1
 10
3.414974
 20
0.085986
 30
0.000000
  0
VERTEX
  8
LAYER-1
 10
3.419314
 20
0.086854
 30
0.000000
  0
VERTEX
  8
LAYER-1
 10
3.421919
 20
0.091195
 30
0.000000
  0
SEQEND
  8
LAYER-1
  0
POLYLINE
  8
LAYER-1
 66
  1
 70
  0
 62
  0
 10
3.341189
 20
0.092930
 30
0.000000
  0
VERTEX
  8
LAYER-1
 10
3.341189
 20
0.092930
 30
0.000000
  0
VERTEX
  8
LAYER-1
 10
3.341189
 20
0.097271
 30
0.000000
  0
VERTEX
  8
LAYER-1
 10
3.336848
 20
0.100743
 30
0.000000
  0
VERTEX
  8
LAYER-1
 10
3.331640
 20
0.101611
 30
0.000000
  0
VERTEX
  8
LAYER-1
 10
3.327300
 20
0.099875
 30
0.000000
  0
VERTEX
  8
LAYER-1
 10
3.325564
 20
0.095534
 30
0.000000
  0
VERTEX
  8
LAYER-1
 10
3.325564
 20
0.091195
 30
0.000000
  0
VERTEX
  8
LAYER-1
 10
3.329036
 20
0.086854
 30
0.000000
  0
VERTEX
  8
LAYER-1
 10
3.333376
 20
0.086854
 30
0.000000
  0
VERTEX
  8
LAYER-1
 10
3.337717
 20
0.087722
 30
0.000000
  0
VERTEX
  8
LAYER-1
 10
3.340322
 20
0.092062
 30
0.000000
  0
SEQEND
  8
LAYER-1
  0
POLYLINE
  8
LAYER-1
 66
  1
 70
  0
 62
  0
 10
3.270877
 20
0.203173
 30
0.000000
  0
VERTEX
  8
LAYER-1
 10
3.270877
 20
0.203173
 30
0.000000
  0
VERTEX
  8
LAYER-1
 10
3.270877
 20
0.207514
 30
0.000000
  0
VERTEX
  8
LAYER-1
 10
3.266536
 20
0.210986
 30
0.000000
  0
VERTEX
  8
LAYER-1
 10
3.261329
 20
0.211854
 30
0.000000
  0
VERTEX
  8
LAYER-1
 10
3.256988
 20
0.210118
 30
0.000000
  0
VERTEX
  8
LAYER-1
 10
3.255252
 20
0.205777
 30
0.000000
  0
VERTEX
  8
LAYER-1
 10
3.255252
 20
0.201437
 30
0.000000
  0
VERTEX
  8
LAYER-1
 10
3.258724
 20
0.197097
 30
0.000000
  0
VERTEX
  8
LAYER-1
 10
3.263064
 20
0.197097
 30
0.000000
  0
VERTEX
  8
LAYER-1
 10
3.267405
 20
0.197965
 30
0.000000
  0
VERTEX
  8
LAYER-1
 10
3.270010
 20
0.202305
 30
0.000000
  0
SEQEND
  8
LAYER-1
  0
POLYLINE
  8
LAYER-1
 66
  1
 70
  1
 62
  0
 10
4.053428
 20
0.192758
 30
0.000000
  0
VERTEX
  8
LAYER-1
 10
4.053428
 20
0.192758
 30
0.000000
  0
VERTEX
  8
LAYER-1
 10
4.060373
 20
0.166717
 30
0.000000
  0
VERTEX
  8
LAYER-1
 10
4.085546
 20
0.180605
 30
0.000000
  0
SEQEND
  8
LAYER-1
  0
POLYLINE
  8
LAYER-1
 66
  1
 70
  1
 62
  0
 10
4.215755
 20
0.221404
 30
0.000000
  0
VERTEX
  8
LAYER-1
 10
4.215755
 20
0.221404
 30
0.000000
  0
VERTEX
  8
LAYER-1
 10
4.202734
 20
0.198835
 30
0.000000
  0
VERTEX
  8
LAYER-1
 10
4.233116
 20
0.219667
 30
0.000000
  0
SEQEND
  8
LAYER-1
  0
POLYLINE
  8
LAYER-1
 66
  1
 70
  1
 62
  0
 10
4.194922
 20
0.136333
 30
0.000000
  0
VERTEX
  8
LAYER-1
 10
4.194922
 20
0.136333
 30
0.000000
  0
VERTEX
  8
LAYER-1
 10
4.178429
 20
0.111159
 30
0.000000
  0
VERTEX
  8
LAYER-1
 10
4.193186
 20
0.103346
 30
0.000000
  0
SEQEND
  8
LAYER-1
  0
POLYLINE
  8
LAYER-1
 66
  1
 70
  0
 62
  0
 10
4.003949
 20
0.224008
 30
0.000000
  0
VERTEX
  8
LAYER-1
 10
4.003949
 20
0.224008
 30
0.000000
  0
VERTEX
  8
LAYER-1
 10
3.999609
 20
0.224008
 30
0.000000
  0
VERTEX
  8
LAYER-1
 10
3.996137
 20
0.219667
 30
0.000000
  0
VERTEX
  8
LAYER-1
 10
3.995269
 20
0.214460
 30
0.000000
  0
VERTEX
  8
LAYER-1
 10
3.997005
 20
0.210119
 30
0.000000
  0
VERTEX
  8
LAYER-1
 10
4.001346
 20
0.208383
 30
0.000000
  0
VERTEX
  8
LAYER-1
 10
4.005685
 20
0.208383
 30
0.000000
  0
VERTEX
  8
LAYER-1
 10
4.010026
 20
0.211855
 30
0.000000
  0
VERTEX
  8
LAYER-1
 10
4.010026
 20
0.216196
 30
0.000000
  0
VERTEX
  8
LAYER-1
 10
4.009158
 20
0.220536
 30
0.000000
  0
VERTEX
  8
LAYER-1
 10
4.004818
 20
0.223140
 30
0.000000
  0
SEQEND
  8
LAYER-1
  0
POLYLINE
  8
LAYER-1
 66
  1
 70
  1
 62
  0
 10
4.025216
 20
0.155864
 30
0.000000
  0
VERTEX
  8
LAYER-1
 10
4.025216
 20
0.155864
 30
0.000000
  0
VERTEX
  8
LAYER-1
 10
4.047785
 20
0.142843
 30
0.000000
  0
VERTEX
  8
LAYER-1
 10
4.026953
 20
0.173225
 30
0.000000
  0
SEQEND
  8
LAYER-1
  0
POLYLINE
  8
LAYER-1
 66
  1
 70
  1
 62
  0
 10
4.141869
 20
0.147884
 30
0.000000
  0
VERTEX
  8
LAYER-1
 10
4.141869
 20
0.147884
 30
0.000000
  0
VERTEX
  8
LAYER-1
 10
4.161235
 20
0.135196
 30
0.000000
  0
VERTEX
  8
LAYER-1
 10
4.167245
 20
0.146548
 30
0.000000
  0
SEQEND
  8
LAYER-1
  0
POLYLINE
  8
LAYER-1
 66
  1
 70
  0
 62
  0
 10
4.155859
 20
0.225744
 30
0.000000
  0
VERTEX
  8
LAYER-1
 10
4.155859
 20
0.225744
 30
0.000000
  0
VERTEX
  8
LAYER-1
 10
4.151519
 20
0.225744
 30
0.000000
  0
VERTEX
  8
LAYER-1
 10
4.148046
 20
0.221403
 30
0.000000
  0
VERTEX
  8
LAYER-1
 10
4.147178
 20
0.216196
 30
0.000000
  0
VERTEX
  8
LAYER-1
 10
4.148914
 20
0.211855
 30
0.000000
  0
VERTEX
  8
LAYER-1
 10
4.153255
 20
0.210119
 30
0.000000
  0
VERTEX
  8
LAYER-1
 10
4.157596
 20
0.210119
 30
0.000000
  0
VERTEX
  8
LAYER-1
 10
4.161935
 20
0.213591
 30
0.000000
  0
VERTEX
  8
LAYER-1
 10
4.161935
 20
0.217931
 30
0.000000
  0
VERTEX
  8
LAYER-1
 10
4.161068
 20
0.222272
 30
0.000000
  0
VERTEX
  8
LAYER-1
 10
4.156727
 20
0.224876
 30
0.000000
  0
SEQEND
  8
LAYER-1
  0
POLYLINE
  8
LAYER-1
 66
  1
 70
  0
 62
  0
 10
4.240061
 20
0.099006
 30
0.000000
  0
VERTEX
  8
LAYER-1
 10
4.240061
 20
0.099006
 30
0.000000
  0
VERTEX
  8
LAYER-1
 10
4.235720
 20
0.099006
 30
0.000000
  0
VERTEX
  8
LAYER-1
 10
4.232248
 20
0.094666
 30
0.000000
  0
VERTEX
  8
LAYER-1
 10
4.231380
 20
0.089458
 30
0.000000
  0
VERTEX
  8
LAYER-1
 10
4.233116
 20
0.085117
 30
0.000000
  0
VERTEX
  8
LAYER-1
 10
4.237456
 20
0.083381
 30
0.000000
  0
VERTEX
  8
LAYER-1
 10
4.241797
 20
0.083381
 30
0.000000
  0
VERTEX
  8
LAYER-1
 10
4.246137
 20
0.086853
 30
0.000000
  0
VERTEX
  8
LAYER-1
 10
4.246137
 20
0.091193
 30
0.000000
  0
VERTEX
  8
LAYER-1
 10
4.245269
 20
0.095534
 30
0.000000
  0
VERTEX
  8
LAYER-1
 10
4.240929
 20
0.098139
 30
0.000000
  0
SEQEND
  8
LAYER-1
  0
POLYLINE
  8
LAYER-1
 66
  1
 70
  0
 62
  0
 10
4.086415
 20
0.153692
 30
0.000000
  0
VERTEX
  8
LAYER-1
 10
4.086415
 20
0.153692
 30
0.000000
  0
VERTEX
  8
LAYER-1
 10
4.082074
 20
0.153692
 30
0.000000
  0
VERTEX
  8
LAYER-1
 10
4.078603
 20
0.149351
 30
0.000000
  0
VERTEX
  8
LAYER-1
 10
4.077735
 20
0.144143
 30
0.000000
  0
VERTEX
  8
LAYER-1
 10
4.079471
 20
0.139803
 30
0.000000
  0
VERTEX
  8
LAYER-1
 10
4.083810
 20
0.138067
 30
0.000000
  0
VERTEX
  8
LAYER-1
 10
4.088151
 20
0.138067
 30
0.000000
  0
VERTEX
  8
LAYER-1
 10
4.092492
 20
0.141539
 30
0.000000
  0
VERTEX
  8
LAYER-1
 10
4.092492
 20
0.145879
 30
0.000000
  0
VERTEX
  8
LAYER-1
 10
4.091623
 20
0.150220
 30
0.000000
  0
VERTEX
  8
LAYER-1
 10
4.087283
 20
0.152824
 30
0.000000
  0
SEQEND
  8
LAYER-1
  0
POLYLINE
  8
LAYER-1
 66
  1
 70
  1
 62
  0
 10
3.921485
 20
0.162373
 30
0.000000
  0
VERTEX
  8
LAYER-1
 10
3.921485
 20
0.162373
 30
0.000000
  0
VERTEX
  8
LAYER-1
 10
3.914540
 20
0.188414
 30
0.000000
  0
VERTEX
  8
LAYER-1
 10
3.889367
 20
0.174527
 30
0.000000
  0
SEQEND
  8
LAYER-1
  0
POLYLINE
  8
LAYER-1
 66
  1
 70
  1
 62
  0
 10
3.510461
 20
0.194057
 30
0.000000
  0
VERTEX
  8
LAYER-1
 10
3.510461
 20
0.194057
 30
0.000000
  0
VERTEX
  8
LAYER-1
 10
3.523481
 20
0.216627
 30
0.000000
  0
VERTEX
  8
LAYER-1
 10
3.493100
 20
0.195795
 30
0.000000
  0
SEQEND
  8
LAYER-1
  0
POLYLINE
  8
LAYER-1
 66
  1
 70
  1
 62
  0
 10
3.807769
 20
0.187548
 30
0.000000
  0
VERTEX
  8
LAYER-1
 10
3.807769
 20
0.187548
 30
0.000000
  0
VERTEX
  8
LAYER-1
 10
3.824263
 20
0.212722
 30
0.000000
  0
VERTEX
  8
LAYER-1
 10
3.809505
 20
0.220534
 30
0.000000
  0
SEQEND
  8
LAYER-1
  0
POLYLINE
  8
LAYER-1
 66
  1
 70
  0
 62
  0
 10
3.970963
 20
0.131123
 30
0.000000
  0
VERTEX
  8
LAYER-1
 10
3.970963
 20
0.131123
 30
0.000000
  0
VERTEX
  8
LAYER-1
 10
3.975304
 20
0.131123
 30
0.000000
  0
VERTEX
  8
LAYER-1
 10
3.978776
 20
0.135464
 30
0.000000
  0
VERTEX
  8
LAYER-1
 10
3.979645
 20
0.140672
 30
0.000000
  0
VERTEX
  8
LAYER-1
 10
3.977909
 20
0.145012
 30
0.000000
  0
VERTEX
  8
LAYER-1
 10
3.973568
 20
0.146748
 30
0.000000
  0
VERTEX
  8
LAYER-1
 10
3.969228
 20
0.146748
 30
0.000000
  0
VERTEX
  8
LAYER-1
 10
3.964887
 20
0.143277
 30
0.000000
  0
VERTEX
  8
LAYER-1
 10
3.964887
 20
0.138936
 30
0.000000
  0
VERTEX
  8
LAYER-1
 10
3.965756
 20
0.134595
 30
0.000000
  0
VERTEX
  8
LAYER-1
 10
3.970097
 20
0.131990
 30
0.000000
  0
SEQEND
  8
LAYER-1
  0
POLYLINE
  8
LAYER-1
 66
  1
 70
  1
 62
  0
 10
3.924956
 20
0.127652
 30
0.000000
  0
VERTEX
  8
LAYER-1
 10
3.924956
 20
0.127652
 30
0.000000
  0
VERTEX
  8
LAYER-1
 10
3.937978
 20
0.150223
 30
0.000000
  0
VERTEX
  8
LAYER-1
 10
3.907596
 20
0.129390
 30
0.000000
  0
SEQEND
  8
LAYER-1
  0
POLYLINE
  8
LAYER-1
 66
  1
 70
  1
 62
  0
 10
3.870370
 20
0.169053
 30
0.000000
  0
VERTEX
  8
LAYER-1
 10
3.870370
 20
0.169053
 30
0.000000
  0
VERTEX
  8
LAYER-1
 10
3.851006
 20
0.181741
 30
0.000000
  0
VERTEX
  8
LAYER-1
 10
3.844994
 20
0.170390
 30
0.000000
  0
SEQEND
  8
LAYER-1
  0
POLYLINE
  8
LAYER-1
 66
  1
 70
  0
 62
  0
 10
3.847263
 20
0.065709
 30
0.000000
  0
VERTEX
  8
LAYER-1
 10
3.847263
 20
0.065709
 30
0.000000
  0
VERTEX
  8
LAYER-1
 10
3.851604
 20
0.065709
 30
0.000000
  0
VERTEX
  8
LAYER-1
 10
3.855076
 20
0.070050
 30
0.000000
  0
VERTEX
  8
LAYER-1
 10
3.855945
 20
0.075257
 30
0.000000
  0
VERTEX
  8
LAYER-1
 10
3.854209
 20
0.079598
 30
0.000000
  0
VERTEX
  8
LAYER-1
 10
3.849868
 20
0.081334
 30
0.000000
  0
VERTEX
  8
LAYER-1
 10
3.845528
 20
0.081334
 30
0.000000
  0
VERTEX
  8
LAYER-1
 10
3.841187
 20
0.077862
 30
0.000000
  0
VERTEX
  8
LAYER-1
 10
3.841187
 20
0.073521
 30
0.000000
  0
VERTEX
  8
LAYER-1
 10
3.842056
 20
0.069181
 30
0.000000
  0
VERTEX
  8
LAYER-1
 10
3.846397
 20
0.066576
 30
0.000000
  0
SEQEND
  8
LAYER-1
  0
POLYLINE
  8
LAYER-1
 66
  1
 70
  0
 62
  0
 10
3.757421
 20
0.208505
 30
0.000000
  0
VERTEX
  8
LAYER-1
 10
3.757421
 20
0.208505
 30
0.000000
  0
VERTEX
  8
LAYER-1
 10
3.761762
 20
0.208505
 30
0.000000
  0
VERTEX
  8
LAYER-1
 10
3.765234
 20
0.212845
 30
0.000000
  0
VERTEX
  8
LAYER-1
 10
3.766101
 20
0.218052
 30
0.000000
  0
VERTEX
  8
LAYER-1
 10
3.764365
 20
0.222393
 30
0.000000
  0
VERTEX
  8
LAYER-1
 10
3.760024
 20
0.224130
 30
0.000000
  0
VERTEX
  8
LAYER-1
 10
3.755685
 20
0.224130
 30
0.000000
  0
VERTEX
  8
LAYER-1
 10
3.751344
 20
0.220657
 30
0.000000
  0
VERTEX
  8
LAYER-1
 10
3.751344
 20
0.216317
 30
0.000000
  0
VERTEX
  8
LAYER-1
 10
3.752212
 20
0.211976
 30
0.000000
  0
VERTEX
  8
LAYER-1
 10
3.756552
 20
0.209371
 30
0.000000
  0
SEQEND
  8
LAYER-1
  0
POLYLINE
  8
LAYER-1
 66
  1
 70
  0
 62
  0
 10
3.919749
 20
0.201437
 30
0.000000
  0
VERTEX
  8
LAYER-1
 10
3.919749
 20
0.201437
 30
0.000000
  0
VERTEX
  8
LAYER-1
 10
3.924090
 20
0.201437
 30
0.000000
  0
VERTEX
  8
LAYER-1
 10
3.927561
 20
0.205778
 30
0.000000
  0
VERTEX
  8
LAYER-1
 10
3.928428
 20
0.210986
 30
0.000000
  0
VERTEX
  8
LAYER-1
 10
3.926693
 20
0.215327
 30
0.000000
  0
VERTEX
  8
LAYER-1
 10
3.922352
 20
0.217062
 30
0.000000
  0
VERTEX
  8
LAYER-1
 10
3.918013
 20
0.217062
 30
0.000000
  0
VERTEX
  8
LAYER-1
 10
3.913672
 20
0.213591
 30
0.000000
  0
VERTEX
  8
LAYER-1
 10
3.913672
 20
0.209250
 30
0.000000
  0
VERTEX
  8
LAYER-1
 10
3.914539
 20
0.204909
 30
0.000000
  0
VERTEX
  8
LAYER-1
 10
3.918880
 20
0.202304
 30
0.000000
  0
SEQEND
  8
LAYER-1
  0
POLYLINE
  8
LAYER-1
 66
  1
 70
  1
 62
  0
 10
4.675824
 20
0.170623
 30
0.000000
  0
VERTEX
  8
LAYER-1
 10
4.675824
 20
0.170623
 30
0.000000
  0
VERTEX
  8
LAYER-1
 10
4.682768
 20
0.144581
 30
0.000000
  0
VERTEX
  8
LAYER-1
 10
4.707941
 20
0.158470
 30
0.000000
  0
SEQEND
  8
LAYER-1
  0
POLYLINE
  8
LAYER-1
 66
  1
 70
  1
 62
  0
 10
4.802558
 20
0.206214
 30
0.000000
  0
VERTEX
  8
LAYER-1
 10
4.802558
 20
0.206214
 30
0.000000
  0
VERTEX
  8
LAYER-1
 10
4.789538
 20
0.183644
 30
0.000000
  0
VERTEX
  8
LAYER-1
 10
4.819919
 20
0.204477
 30
0.000000
  0
SEQEND
  8
LAYER-1
  0
POLYLINE
  8
LAYER-1
 66
  1
 70
  1
 62
  0
 10
4.477908
 20
0.194929
 30
0.000000
  0
VERTEX
  8
LAYER-1
 10
4.477908
 20
0.194929
 30
0.000000
  0
VERTEX
  8
LAYER-1
 10
4.461415
 20
0.169755
 30
0.000000
  0
VERTEX
  8
LAYER-1
 10
4.476172
 20
0.161942
 30
0.000000
  0
SEQEND
  8
LAYER-1
  0
POLYLINE
  8
LAYER-1
 66
  1
 70
  0
 62
  0
 10
4.588150
 20
0.187119
 30
0.000000
  0
VERTEX
  8
LAYER-1
 10
4.588150
 20
0.187119
 30
0.000000
  0
VERTEX
  8
LAYER-1
 10
4.583809
 20
0.187119
 30
0.000000
  0
VERTEX
  8
LAYER-1
 10
4.580338
 20
0.182778
 30
0.000000
  0
VERTEX
  8
LAYER-1
 10
4.579469
 20
0.177571
 30
0.000000
  0
VERTEX
  8
LAYER-1
 10
4.581205
 20
0.173230
 30
0.000000
  0
VERTEX
  8
LAYER-1
 10
4.585545
 20
0.171494
 30
0.000000
  0
VERTEX
  8
LAYER-1
 10
4.589886
 20
0.171494
 30
0.000000
  0
VERTEX
  8
LAYER-1
 10
4.594226
 20
0.174966
 30
0.000000
  0
VERTEX
  8
LAYER-1
 10
4.594226
 20
0.179306
 30
0.000000
  0
VERTEX
  8
LAYER-1
 10
4.593358
 20
0.183647
 30
0.000000
  0
VERTEX
  8
LAYER-1
 10
4.589017
 20
0.186250
 30
0.000000
  0
SEQEND
  8
LAYER-1
  0
POLYLINE
  8
LAYER-1
 66
  1
 70
  1
 62
  0
 10
4.617664
 20
0.141109
 30
0.000000
  0
VERTEX
  8
LAYER-1
 10
4.617664
 20
0.141109
 30
0.000000
  0
VERTEX
  8
LAYER-1
 10
4.604643
 20
0.118540
 30
0.000000
  0
VERTEX
  8
LAYER-1
 10
4.635025
 20
0.139372
 30
0.000000
  0
SEQEND
  8
LAYER-1
  0
POLYLINE
  8
LAYER-1
 66
  1
 70
  1
 62
  0
 10
4.824962
 20
0.141641
 30
0.000000
  0
VERTEX
  8
LAYER-1
 10
4.824962
 20
0.141641
 30
0.000000
  0
VERTEX
  8
LAYER-1
 10
4.812275
 20
0.122275
 30
0.000000
  0
VERTEX
  8
LAYER-1
 10
4.823627
 20
0.116265
 30
0.000000
  0
SEQEND
  8
LAYER-1
  0
POLYLINE
  8
LAYER-1
 66
  1
 70
  0
 62
  0
 10
4.732246
 20
0.210553
 30
0.000000
  0
VERTEX
  8
LAYER-1
 10
4.732246
 20
0.210553
 30
0.000000
  0
VERTEX
  8
LAYER-1
 10
4.727905
 20
0.210553
 30
0.000000
  0
VERTEX
  8
LAYER-1
 10
4.724433
 20
0.206212
 30
0.000000
  0
VERTEX
  8
LAYER-1
 10
4.723565
 20
0.201005
 30
0.000000
  0
VERTEX
  8
LAYER-1
 10
4.725302
 20
0.196665
 30
0.000000
  0
VERTEX
  8
LAYER-1
 10
4.729641
 20
0.194928
 30
0.000000
  0
VERTEX
  8
LAYER-1
 10
4.733982
 20
0.194928
 30
0.000000
  0
VERTEX
  8
LAYER-1
 10
4.738322
 20
0.198400
 30
0.000000
  0
VERTEX
  8
LAYER-1
 10
4.738322
 20
0.202741
 30
0.000000
  0
VERTEX
  8
LAYER-1
 10
4.737453
 20
0.207081
 30
0.000000
  0
VERTEX
  8
LAYER-1
 10
4.733114
 20
0.209685
 30
0.000000
  0
SEQEND
  8
LAYER-1
  0
POLYLINE
  8
LAYER-1
 66
  1
 70
  0
 62
  0
 10
4.519574
 20
0.201004
 30
0.000000
  0
VERTEX
  8
LAYER-1
 10
4.519574
 20
0.201004
 30
0.000000
  0
VERTEX
  8
LAYER-1
 10
4.515235
 20
0.201004
 30
0.000000
  0
VERTEX
  8
LAYER-1
 10
4.511762
 20
0.196664
 30
0.000000
  0
VERTEX
  8
LAYER-1
 10
4.510894
 20
0.191455
 30
0.000000
  0
VERTEX
  8
LAYER-1
 10
4.512631
 20
0.187115
 30
0.000000
  0
VERTEX
  8
LAYER-1
 10
4.516971
 20
0.185379
 30
0.000000
  0
VERTEX
  8
LAYER-1
 10
4.521311
 20
0.185379
 30
0.000000
  0
VERTEX
  8
LAYER-1
 10
4.525651
 20
0.188851
 30
0.000000
  0
VERTEX
  8
LAYER-1
 10
4.525651
 20
0.193192
 30
0.000000
  0
VERTEX
  8
LAYER-1
 10
4.524783
 20
0.197533
 30
0.000000
  0
VERTEX
  8
LAYER-1
 10
4.520443
 20
0.200136
 30
0.000000
  0
SEQEND
  8
LAYER-1
  0
POLYLINE
  8
LAYER-1
 66
  1
 70
  0
 62
  0
 10
4.766970
 20
0.173224
 30
0.000000
  0
VERTEX
  8
LAYER-1
 10
4.766970
 20
0.173224
 30
0.000000
  0
VERTEX
  8
LAYER-1
 10
4.762630
 20
0.173224
 30
0.000000
  0
VERTEX
  8
LAYER-1
 10
4.759158
 20
0.168883
 30
0.000000
  0
VERTEX
  8
LAYER-1
 10
4.758291
 20
0.163676
 30
0.000000
  0
VERTEX
  8
LAYER-1
 10
4.760027
 20
0.159335
 30
0.000000
  0
VERTEX
  8
LAYER-1
 10
4.764367
 20
0.157599
 30
0.000000
  0
VERTEX
  8
LAYER-1
 10
4.768707
 20
0.157599
 30
0.000000
  0
VERTEX
  8
LAYER-1
 10
4.773047
 20
0.161071
 30
0.000000
  0
VERTEX
  8
LAYER-1
 10
4.773047
 20
0.165411
 30
0.000000
  0
VERTEX
  8
LAYER-1
 10
4.772180
 20
0.169752
 30
0.000000
  0
VERTEX
  8
LAYER-1
 10
4.767839
 20
0.172356
 30
0.000000
  0
SEQEND
  8
LAYER-1
  0
POLYLINE
  8
LAYER-1
 66
  1
 70
  1
 62
  0
 10
4.381553
 20
0.119840
 30
0.000000
  0
VERTEX
  8
LAYER-1
 10
4.381553
 20
0.119840
 30
0.000000
  0
VERTEX
  8
LAYER-1
 10
4.374609
 20
0.145880
 30
0.000000
  0
VERTEX
  8
LAYER-1
 10
4.349435
 20
0.131993
 30
0.000000
  0
SEQEND
  8
LAYER-1
  0
POLYLINE
  8
LAYER-1
 66
  1
 70
  1
 62
  0
 10
4.229644
 20
0.160636
 30
0.000000
  0
VERTEX
  8
LAYER-1
 10
4.229644
 20
0.160636
 30
0.000000
  0
VERTEX
  8
LAYER-1
 10
4.242665
 20
0.183207
 30
0.000000
  0
VERTEX
  8
LAYER-1
 10
4.212282
 20
0.162374
 30
0.000000
  0
SEQEND
  8
LAYER-1
  0
POLYLINE
  8
LAYER-1
 66
  1
 70
  1
 62
  0
 10
4.312978
 20
0.120711
 30
0.000000
  0
VERTEX
  8
LAYER-1
 10
4.312978
 20
0.120711
 30
0.000000
  0
VERTEX
  8
LAYER-1
 10
4.329471
 20
0.145884
 30
0.000000
  0
VERTEX
  8
LAYER-1
 10
4.314713
 20
0.153697
 30
0.000000
  0
SEQEND
  8
LAYER-1
  0
POLYLINE
  8
LAYER-1
 66
  1
 70
  0
 62
  0
 10
4.487457
 20
0.122448
 30
0.000000
  0
VERTEX
  8
LAYER-1
 10
4.487457
 20
0.122448
 30
0.000000
  0
VERTEX
  8
LAYER-1
 10
4.491798
 20
0.122448
 30
0.000000
  0
VERTEX
  8
LAYER-1
 10
4.495270
 20
0.126788
 30
0.000000
  0
VERTEX
  8
LAYER-1
 10
4.496138
 20
0.131996
 30
0.000000
  0
VERTEX
  8
LAYER-1
 10
4.494402
 20
0.136336
 30
0.000000
  0
VERTEX
  8
LAYER-1
 10
4.490061
 20
0.138073
 30
0.000000
  0
VERTEX
  8
LAYER-1
 10
4.485722
 20
0.138073
 30
0.000000
  0
VERTEX
  8
LAYER-1
 10
4.481381
 20
0.134600
 30
0.000000
  0
VERTEX
  8
LAYER-1
 10
4.481381
 20
0.130260
 30
0.000000
  0
VERTEX
  8
LAYER-1
 10
4.482249
 20
0.125919
 30
0.000000
  0
VERTEX
  8
LAYER-1
 10
4.486590
 20
0.123315
 30
0.000000
  0
SEQEND
  8
LAYER-1
  0
POLYLINE
  8
LAYER-1
 66
  1
 70
  1
 62
  0
 10
4.438844
 20
0.137203
 30
0.000000
  0
VERTEX
  8
LAYER-1
 10
4.438844
 20
0.137203
 30
0.000000
  0
VERTEX
  8
LAYER-1
 10
4.451866
 20
0.159773
 30
0.000000
  0
VERTEX
  8
LAYER-1
 10
4.421484
 20
0.138941
 30
0.000000
  0
SEQEND
  8
LAYER-1
  0
POLYLINE
  8
LAYER-1
 66
  1
 70
  1
 62
  0
 10
4.327901
 20
0.173128
 30
0.000000
  0
VERTEX
  8
LAYER-1
 10
4.327901
 20
0.173128
 30
0.000000
  0
VERTEX
  8
LAYER-1
 10
4.340588
 20
0.192492
 30
0.000000
  0
VERTEX
  8
LAYER-1
 10
4.329237
 20
0.198503
 30
0.000000
  0
SEQEND
  8
LAYER-1
  0
POLYLINE
  8
LAYER-1
 66
  1
 70
  0
 62
  0
 10
4.283549
 20
0.204599
 30
0.000000
  0
VERTEX
  8
LAYER-1
 10
4.283549
 20
0.204599
 30
0.000000
  0
VERTEX
  8
LAYER-1
 10
4.287888
 20
0.204599
 30
0.000000
  0
VERTEX
  8
LAYER-1
 10
4.291361
 20
0.208939
 30
0.000000
  0
VERTEX
  8
LAYER-1
 10
4.292229
 20
0.214147
 30
0.000000
  0
VERTEX
  8
LAYER-1
 10
4.290493
 20
0.218488
 30
0.000000
  0
VERTEX
  8
LAYER-1
 10
4.286152
 20
0.220224
 30
0.000000
  0
VERTEX
  8
LAYER-1
 10
4.281812
 20
0.220224
 30
0.000000
  0
VERTEX
  8
LAYER-1
 10
4.277472
 20
0.216752
 30
0.000000
  0
VERTEX
  8
LAYER-1
 10
4.277472
 20
0.212412
 30
0.000000
  0
VERTEX
  8
LAYER-1
 10
4.278340
 20
0.208071
 30
0.000000
  0
VERTEX
  8
LAYER-1
 10
4.282681
 20
0.205466
 30
0.000000
  0
SEQEND
  8
LAYER-1
  0
POLYLINE
  8
LAYER-1
 66
  1
 70
  0
 62
  0
 10
4.260894
 20
0.126787
 30
0.000000
  0
VERTEX
  8
LAYER-1
 10
4.260894
 20
0.126787
 30
0.000000
  0
VERTEX
  8
LAYER-1
 10
4.265235
 20
0.126787
 30
0.000000
  0
VERTEX
  8
LAYER-1
 10
4.268706
 20
0.131128
 30
0.000000
  0
VERTEX
  8
LAYER-1
 10
4.269574
 20
0.136336
 30
0.000000
  0
VERTEX
  8
LAYER-1
 10
4.267838
 20
0.140677
 30
0.000000
  0
VERTEX
  8
LAYER-1
 10
4.263498
 20
0.142412
 30
0.000000
  0
VERTEX
  8
LAYER-1
 10
4.259158
 20
0.142412
 30
0.000000
  0
VERTEX
  8
LAYER-1
 10
4.254818
 20
0.138941
 30
0.000000
  0
VERTEX
  8
LAYER-1
 10
4.254818
 20
0.134599
 30
0.000000
  0
VERTEX
  8
LAYER-1
 10
4.255685
 20
0.130259
 30
0.000000
  0
VERTEX
  8
LAYER-1
 10
4.260026
 20
0.127654
 30
0.000000
  0
SEQEND
  8
LAYER-1
  0
POLYLINE
  8
LAYER-1
 66
  1
 70
  0
 62
  0
 10
4.424956
 20
0.204043
 30
0.000000
  0
VERTEX
  8
LAYER-1
 10
4.424956
 20
0.204043
 30
0.000000
  0
VERTEX
  8
LAYER-1
 10
4.429297
 20
0.204043
 30
0.000000
  0
VERTEX
  8
LAYER-1
 10
4.432769
 20
0.208384
 30
0.000000
  0
VERTEX
  8
LAYER-1
 10
4.433637
 20
0.213592
 30
0.000000
  0
VERTEX
  8
LAYER-1
 10
4.431901
 20
0.217933
 30
0.000000
  0
VERTEX
  8
LAYER-1
 10
4.427560
 20
0.219668
 30
0.000000
  0
VERTEX
  8
LAYER-1
 10
4.423221
 20
0.219668
 30
0.000000
  0
VERTEX
  8
LAYER-1
 10
4.418880
 20
0.216197
 30
0.000000
  0
VERTEX
  8
LAYER-1
 10
4.418880
 20
0.211856
 30
0.000000
  0
VERTEX
  8
LAYER-1
 10
4.419748
 20
0.207515
 30
0.000000
  0
VERTEX
  8
LAYER-1
 10
4.424088
 20
0.204910
 30
0.000000
  0
SEQEND
  8
LAYER-1
  0
POLYLINE
  8
LAYER-1
 66
  1
 70
  1
 62
  0
 10
4.876774
 20
0.160639
 30
0.000000
  0
VERTEX
  8
LAYER-1
 10
4.876774
 20
0.160639
 30
0.000000
  0
VERTEX
  8
LAYER-1
 10
4.902815
 20
0.167584
 30
0.000000
  0
VERTEX
  8
LAYER-1
 10
4.888927
 20
0.192758
 30
0.000000
  0
SEQEND
  8
LAYER-1
  0
POLYLINE
  8
LAYER-1
 66
  1
 70
  1
 62
  0
 10
4.559069
 20
0.213592
 30
0.000000
  0
VERTEX
  8
LAYER-1
 10
4.559069
 20
0.213592
 30
0.000000
  0
VERTEX
  8
LAYER-1
 10
4.581639
 20
0.200571
 30
0.000000
  0
VERTEX
  8
LAYER-1
 10
4.560806
 20
0.230953
 30
0.000000
  0
SEQEND
  8
LAYER-1
  0
POLYLINE
  8
LAYER-1
 66
  1
 70
  1
 62
  0
 10
5.495699
 20
0.118969
 30
0.000000
  0
VERTEX
  8
LAYER-1
 10
5.495699
 20
0.118969
 30
0.000000
  0
VERTEX
  8
LAYER-1
 10
5.520873
 20
0.102476
 30
0.000000
  0
VERTEX
  8
LAYER-1
 10
5.528686
 20
0.117233
 30
0.000000
  0
SEQEND
  8
LAYER-1
  0
POLYLINE
  8
LAYER-1
 66
  1
 70
  0
 62
  0
 10
5.316878
 20
0.127652
 30
0.000000
  0
VERTEX
  8
LAYER-1
 10
5.316878
 20
0.127652
 30
0.000000
  0
VERTEX
  8
LAYER-1
 10
5.316878
 20
0.123311
 30
0.000000
  0
VERTEX
  8
LAYER-1
 10
5.321219
 20
0.119839
 30
0.000000
  0
VERTEX
  8
LAYER-1
 10
5.326427
 20
0.118972
 30
0.000000
  0
VERTEX
  8
LAYER-1
 10
5.330768
 20
0.120708
 30
0.000000
  0
VERTEX
  8
LAYER-1
 10
5.332503
 20
0.125047
 30
0.000000
  0
VERTEX
  8
LAYER-1
 10
5.332503
 20
0.129389
 30
0.000000
  0
VERTEX
  8
LAYER-1
 10
5.329032
 20
0.133728
 30
0.000000
  0
VERTEX
  8
LAYER-1
 10
5.324691
 20
0.133728
 30
0.000000
  0
VERTEX
  8
LAYER-1
 10
5.320350
 20
0.132860
 30
0.000000
  0
VERTEX
  8
LAYER-1
 10
5.317746
 20
0.128521
 30
0.000000
  0
SEQEND
  8
LAYER-1
  0
POLYLINE
  8
LAYER-1
 66
  1
 70
  1
 62
  0
 10
4.947087
 20
0.147617
 30
0.000000
  0
VERTEX
  8
LAYER-1
 10
4.947087
 20
0.147617
 30
0.000000
  0
VERTEX
  8
LAYER-1
 10
4.969657
 20
0.134597
 30
0.000000
  0
VERTEX
  8
LAYER-1
 10
4.948824
 20
0.164978
 30
0.000000
  0
SEQEND
  8
LAYER-1
  0
POLYLINE
  8
LAYER-1
 66
  1
 70
  1
 62
  0
 10
4.910095
 20
0.218632
 30
0.000000
  0
VERTEX
  8
LAYER-1
 10
4.910095
 20
0.218632
 30
0.000000
  0
VERTEX
  8
LAYER-1
 10
4.929460
 20
0.205945
 30
0.000000
  0
VERTEX
  8
LAYER-1
 10
4.935471
 20
0.217297
 30
0.000000
  0
SEQEND
  8
LAYER-1
  0
POLYLINE
  8
LAYER-1
 66
  1
 70
  0
 62
  0
 10
4.554731
 20
0.153696
 30
0.000000
  0
VERTEX
  8
LAYER-1
 10
4.554731
 20
0.153696
 30
0.000000
  0
VERTEX
  8
LAYER-1
 10
4.554731
 20
0.149356
 30
0.000000
  0
VERTEX
  8
LAYER-1
 10
4.559071
 20
0.145883
 30
0.000000
  0
VERTEX
  8
LAYER-1
 10
4.564278
 20
0.145015
 30
0.000000
  0
VERTEX
  8
LAYER-1
 10
4.568619
 20
0.146751
 30
0.000000
  0
VERTEX
  8
LAYER-1
 10
4.570355
 20
0.151092
 30
0.000000
  0
VERTEX
  8
LAYER-1
 10
4.570355
 20
0.155431
 30
0.000000
  0
VERTEX
  8
LAYER-1
 10
4.566883
 20
0.159772
 30
0.000000
  0
VERTEX
  8
LAYER-1
 10
4.562542
 20
0.159772
 30
0.000000
  0
VERTEX
  8
LAYER-1
 10
4.558202
 20
0.158904
 30
0.000000
  0
VERTEX
  8
LAYER-1
 10
4.555598
 20
0.154564
 30
0.000000
  0
SEQEND
  8
LAYER-1
  0
POLYLINE
  8
LAYER-1
 66
  1
 70
  0
 62
  0
 10
4.960975
 20
0.115500
 30
0.000000
  0
VERTEX
  8
LAYER-1
 10
4.960975
 20
0.115500
 30
0.000000
  0
VERTEX
  8
LAYER-1
 10
4.960975
 20
0.111159
 30
0.000000
  0
VERTEX
  8
LAYER-1
 10
4.965316
 20
0.107687
 30
0.000000
  0
VERTEX
  8
LAYER-1
 10
4.970524
 20
0.106818
 30
0.000000
  0
VERTEX
  8
LAYER-1
 10
4.974865
 20
0.108555
 30
0.000000
  0
VERTEX
  8
LAYER-1
 10
4.976600
 20
0.112896
 30
0.000000
  0
VERTEX
  8
LAYER-1
 10
4.976600
 20
0.117236
 30
0.000000
  0
VERTEX
  8
LAYER-1
 10
4.973128
 20
0.121577
 30
0.000000
  0
VERTEX
  8
LAYER-1
 10
4.968788
 20
0.121577
 30
0.000000
  0
VERTEX
  8
LAYER-1
 10
4.964447
 20
0.120708
 30
0.000000
  0
VERTEX
  8
LAYER-1
 10
4.961843
 20
0.116368
 30
0.000000
  0
SEQEND
  8
LAYER-1
  0
POLYLINE
  8
LAYER-1
 66
  1
 70
  0
 62
  0
 10
5.029552
 20
0.151091
 30
0.000000
  0
VERTEX
  8
LAYER-1
 10
5.029552
 20
0.151091
 30
0.000000
  0
VERTEX
  8
LAYER-1
 10
5.029552
 20
0.146750
 30
0.000000
  0
VERTEX
  8
LAYER-1
 10
5.033893
 20
0.143278
 30
0.000000
  0
VERTEX
  8
LAYER-1
 10
5.039100
 20
0.142409
 30
0.000000
  0
VERTEX
  8
LAYER-1
 10
5.043441
 20
0.144146
 30
0.000000
  0
VERTEX
  8
LAYER-1
 10
5.045177
 20
0.148486
 30
0.000000
  0
VERTEX
  8
LAYER-1
 10
5.045177
 20
0.152827
 30
0.000000
  0
VERTEX
  8
LAYER-1
 10
5.041705
 20
0.157167
 30
0.000000
  0
VERTEX
  8
LAYER-1
 10
5.037365
 20
0.157167
 30
0.000000
  0
VERTEX
  8
LAYER-1
 10
5.033024
 20
0.156298
 30
0.000000
  0
VERTEX
  8
LAYER-1
 10
5.030420
 20
0.151959
 30
0.000000
  0
SEQEND
  8
LAYER-1
  0
POLYLINE
  8
LAYER-1
 66
  1
 70
  1
 62
  0
 10
5.068963
 20
0.172358
 30
0.000000
  0
VERTEX
  8
LAYER-1
 10
5.068963
 20
0.172358
 30
0.000000
  0
VERTEX
  8
LAYER-1
 10
5.075907
 20
0.146317
 30
0.000000
  0
VERTEX
  8
LAYER-1
 10
5.101081
 20
0.160205
 30
0.000000
  0
SEQEND
  8
LAYER-1
  0
POLYLINE
  8
LAYER-1
 66
  1
 70
  1
 62
  0
 10
5.230508
 20
0.201005
 30
0.000000
  0
VERTEX
  8
LAYER-1
 10
5.230508
 20
0.201005
 30
0.000000
  0
VERTEX
  8
LAYER-1
 10
5.217486
 20
0.178435
 30
0.000000
  0
VERTEX
  8
LAYER-1
 10
5.247868
 20
0.199267
 30
0.000000
  0
SEQEND
  8
LAYER-1
  0
POLYLINE
  8
LAYER-1
 66
  1
 70
  1
 62
  0
 10
5.622869
 20
0.171486
 30
0.000000
  0
VERTEX
  8
LAYER-1
 10
5.622869
 20
0.171486
 30
0.000000
  0
VERTEX
  8
LAYER-1
 10
5.606376
 20
0.146313
 30
0.000000
  0
VERTEX
  8
LAYER-1
 10
5.621133
 20
0.138501
 30
0.000000
  0
SEQEND
  8
LAYER-1
  0
POLYLINE
  8
LAYER-1
 66
  1
 70
  0
 62
  0
 10
5.018702
 20
0.203608
 30
0.000000
  0
VERTEX
  8
LAYER-1
 10
5.018702
 20
0.203608
 30
0.000000
  0
VERTEX
  8
LAYER-1
 10
5.014361
 20
0.203608
 30
0.000000
  0
VERTEX
  8
LAYER-1
 10
5.010890
 20
0.199267
 30
0.000000
  0
VERTEX
  8
LAYER-1
 10
5.010022
 20
0.194060
 30
0.000000
  0
VERTEX
  8
LAYER-1
 10
5.011758
 20
0.189718
 30
0.000000
  0
VERTEX
  8
LAYER-1
 10
5.016098
 20
0.187983
 30
0.000000
  0
VERTEX
  8
LAYER-1
 10
5.020438
 20
0.187983
 30
0.000000
  0
VERTEX
  8
LAYER-1
 10
5.024779
 20
0.191455
 30
0.000000
  0
VERTEX
  8
LAYER-1
 10
5.024779
 20
0.195796
 30
0.000000
  0
VERTEX
  8
LAYER-1
 10
5.023911
 20
0.200136
 30
0.000000
  0
VERTEX
  8
LAYER-1
 10
5.019570
 20
0.202741
 30
0.000000
  0
SEQEND
  8
LAYER-1
  0
POLYLINE
  8
LAYER-1
 66
  1
 70
  1
 62
  0
 10
5.082071
 20
0.127218
 30
0.000000
  0
VERTEX
  8
LAYER-1
 10
5.082071
 20
0.127218
 30
0.000000
  0
VERTEX
  8
LAYER-1
 10
5.069050
 20
0.104648
 30
0.000000
  0
VERTEX
  8
LAYER-1
 10
5.099432
 20
0.125481
 30
0.000000
  0
SEQEND
  8
LAYER-1
  0
POLYLINE
  8
LAYER-1
 66
  1
 70
  1
 62
  0
 10
5.150814
 20
0.104981
 30
0.000000
  0
VERTEX
  8
LAYER-1
 10
5.150814
 20
0.104981
 30
0.000000
  0
VERTEX
  8
LAYER-1
 10
5.163502
 20
0.124345
 30
0.000000
  0
VERTEX
  8
LAYER-1
 10
5.152150
 20
0.130356
 30
0.000000
  0
SEQEND
  8
LAYER-1
  0
POLYLINE
  8
LAYER-1
 66
  1
 70
  0
 62
  0
 10
5.170611
 20
0.205343
 30
0.000000
  0
VERTEX
  8
LAYER-1
 10
5.170611
 20
0.205343
 30
0.000000
  0
VERTEX
  8
LAYER-1
 10
5.166272
 20
0.205343
 30
0.000000
  0
VERTEX
  8
LAYER-1
 10
5.162799
 20
0.201003
 30
0.000000
  0
VERTEX
  8
LAYER-1
 10
5.161931
 20
0.195796
 30
0.000000
  0
VERTEX
  8
LAYER-1
 10
5.163667
 20
0.191455
 30
0.000000
  0
VERTEX
  8
LAYER-1
 10
5.168008
 20
0.189718
 30
0.000000
  0
VERTEX
  8
LAYER-1
 10
5.172348
 20
0.189718
 30
0.000000
  0
VERTEX
  8
LAYER-1
 10
5.176688
 20
0.193191
 30
0.000000
  0
VERTEX
  8
LAYER-1
 10
5.176688
 20
0.197531
 30
0.000000
  0
VERTEX
  8
LAYER-1
 10
5.175820
 20
0.201872
 30
0.000000
  0
VERTEX
  8
LAYER-1
 10
5.171480
 20
0.204477
 30
0.000000
  0
SEQEND
  8
LAYER-1
  0
POLYLINE
  8
LAYER-1
 66
  1
 70
  0
 62
  0
 10
5.674953
 20
0.165410
 30
0.000000
  0
VERTEX
  8
LAYER-1
 10
5.674953
 20
0.165410
 30
0.000000
  0
VERTEX
  8
LAYER-1
 10
5.670612
 20
0.165410
 30
0.000000
  0
VERTEX
  8
LAYER-1
 10
5.667140
 20
0.161069
 30
0.000000
  0
VERTEX
  8
LAYER-1
 10
5.666272
 20
0.155861
 30
0.000000
  0
VERTEX
  8
LAYER-1
 10
5.668008
 20
0.151521
 30
0.000000
  0
VERTEX
  8
LAYER-1
 10
5.672349
 20
0.149785
 30
0.000000
  0
VERTEX
  8
LAYER-1
 10
5.676689
 20
0.149785
 30
0.000000
  0
VERTEX
  8
LAYER-1
 10
5.681029
 20
0.153257
 30
0.000000
  0
VERTEX
  8
LAYER-1
 10
5.681029
 20
0.157597
 30
0.000000
  0
VERTEX
  8
LAYER-1
 10
5.680161
 20
0.161938
 30
0.000000
  0
VERTEX
  8
LAYER-1
 10
5.675821
 20
0.164542
 30
0.000000
  0
SEQEND
  8
LAYER-1
  0
POLYLINE
  8
LAYER-1
 66
  1
 70
  0
 62
  0
 10
5.583808
 20
0.133291
 30
0.000000
  0
VERTEX
  8
LAYER-1
 10
5.583808
 20
0.133291
 30
0.000000
  0
VERTEX
  8
LAYER-1
 10
5.579467
 20
0.133291
 30
0.000000
  0
VERTEX
  8
LAYER-1
 10
5.575995
 20
0.128951
 30
0.000000
  0
VERTEX
  8
LAYER-1
 10
5.575127
 20
0.123743
 30
0.000000
  0
VERTEX
  8
LAYER-1
 10
5.576863
 20
0.119403
 30
0.000000
  0
VERTEX
  8
LAYER-1
 10
5.581203
 20
0.117666
 30
0.000000
  0
VERTEX
  8
LAYER-1
 10
5.585543
 20
0.117666
 30
0.000000
  0
VERTEX
  8
LAYER-1
 10
5.589884
 20
0.121139
 30
0.000000
  0
VERTEX
  8
LAYER-1
 10
5.589884
 20
0.125479
 30
0.000000
  0
VERTEX
  8
LAYER-1
 10
5.589016
 20
0.129820
 30
0.000000
  0
VERTEX
  8
LAYER-1
 10
5.584675
 20
0.132424
 30
0.000000
  0
SEQEND
  8
LAYER-1
  0
POLYLINE
  8
LAYER-1
 66
  1
 70
  1
 62
  0
 10
5.268702
 20
0.187550
 30
0.000000
  0
VERTEX
  8
LAYER-1
 10
5.268702
 20
0.187550
 30
0.000000
  0
VERTEX
  8
LAYER-1
 10
5.294743
 20
0.194495
 30
0.000000
  0
VERTEX
  8
LAYER-1
 10
5.280855
 20
0.219668
 30
0.000000
  0
SEQEND
  8
LAYER-1
  0
POLYLINE
  8
LAYER-1
 66
  1
 70
  0
 62
  0
 10
5.237452
 20
0.138071
 30
0.000000
  0
VERTEX
  8
LAYER-1
 10
5.237452
 20
0.138071
 30
0.000000
  0
VERTEX
  8
LAYER-1
 10
5.237452
 20
0.133731
 30
0.000000
  0
VERTEX
  8
LAYER-1
 10
5.241793
 20
0.130258
 30
0.000000
  0
VERTEX
  8
LAYER-1
 10
5.247000
 20
0.129391
 30
0.000000
  0
VERTEX
  8
LAYER-1
 10
5.251341
 20
0.131127
 30
0.000000
  0
VERTEX
  8
LAYER-1
 10
5.253077
 20
0.135467
 30
0.000000
  0
VERTEX
  8
LAYER-1
 10
5.253077
 20
0.139808
 30
0.000000
  0
VERTEX
  8
LAYER-1
 10
5.249605
 20
0.144147
 30
0.000000
  0
VERTEX
  8
LAYER-1
 10
5.245265
 20
0.144147
 30
0.000000
  0
VERTEX
  8
LAYER-1
 10
5.240924
 20
0.143279
 30
0.000000
  0
VERTEX
  8
LAYER-1
 10
5.238319
 20
0.138940
 30
0.000000
  0
SEQEND
  8
LAYER-1
  0
POLYLINE
  8
LAYER-1
 66
  1
 70
  1
 62
  0
 10
5.332505
 20
0.151525
 30
0.000000
  0
VERTEX
  8
LAYER-1
 10
5.332505
 20
0.151525
 30
0.000000
  0
VERTEX
  8
LAYER-1
 10
5.345525
 20
0.174096
 30
0.000000
  0
VERTEX
  8
LAYER-1
 10
5.315144
 20
0.153263
 30
0.000000
  0
SEQEND
  8
LAYER-1
  0
POLYLINE
  8
LAYER-1
 66
  1
 70
  0
 62
  0
 10
5.387625
 20
0.185815
 30
0.000000
  0
VERTEX
  8
LAYER-1
 10
5.387625
 20
0.185815
 30
0.000000
  0
VERTEX
  8
LAYER-1
 10
5.387625
 20
0.181474
 30
0.000000
  0
VERTEX
  8
LAYER-1
 10
5.391967
 20
0.178002
 30
0.000000
  0
VERTEX
  8
LAYER-1
 10
5.397174
 20
0.177133
 30
0.000000
  0
VERTEX
  8
LAYER-1
 10
5.401515
 20
0.178870
 30
0.000000
  0
VERTEX
  8
LAYER-1
 10
5.403250
 20
0.183210
 30
0.000000
  0
VERTEX
  8
LAYER-1
 10
5.403250
 20
0.187550
 30
0.000000
  0
VERTEX
  8
LAYER-1
 10
5.399779
 20
0.191891
 30
0.000000
  0
VERTEX
  8
LAYER-1
 10
5.395438
 20
0.191891
 30
0.000000
  0
VERTEX
  8
LAYER-1
 10
5.391097
 20
0.191022
 30
0.000000
  0
VERTEX
  8
LAYER-1
 10
5.388493
 20
0.186683
 30
0.000000
  0
SEQEND
  8
LAYER-1
  0
POLYLINE
  8
LAYER-1
 66
  1
 70
  1
 62
  0
 10
6.133551
 20
0.202219
 30
0.000000
  0
VERTEX
  8
LAYER-1
 10
6.133551
 20
0.202219
 30
0.000000
  0
VERTEX
  8
LAYER-1
 10
6.126605
 20
0.228260
 30
0.000000
  0
VERTEX
  8
LAYER-1
 10
6.101432
 20
0.214372
 30
0.000000
  0
SEQEND
  8
LAYER-1
  0
POLYLINE
  8
LAYER-1
 66
  1
 70
  0
 62
  0
 10
6.174089
 20
0.076003
 30
0.000000
  0
VERTEX
  8
LAYER-1
 10
6.174089
 20
0.076003
 30
0.000000
  0
VERTEX
  8
LAYER-1
 10
6.178429
 20
0.076003
 30
0.000000
  0
VERTEX
  8
LAYER-1
 10
6.181902
 20
0.080343
 30
0.000000
  0
VERTEX
  8
LAYER-1
 10
6.182769
 20
0.085552
 30
0.000000
  0
VERTEX
  8
LAYER-1
 10
6.181033
 20
0.089892
 30
0.000000
  0
VERTEX
  8
LAYER-1
 10
6.176693
 20
0.091628
 30
0.000000
  0
VERTEX
  8
LAYER-1
 10
6.172352
 20
0.091628
 30
0.000000
  0
VERTEX
  8
LAYER-1
 10
6.168012
 20
0.088156
 30
0.000000
  0
VERTEX
  8
LAYER-1
 10
6.168012
 20
0.083816
 30
0.000000
  0
VERTEX
  8
LAYER-1
 10
6.168880
 20
0.079475
 30
0.000000
  0
VERTEX
  8
LAYER-1
 10
6.173220
 20
0.076871
 30
0.000000
  0
SEQEND
  8
LAYER-1
  0
POLYLINE
  8
LAYER-1
 66
  1
 70
  1
 62
  0
 10
5.470525
 20
0.108990
 30
0.000000
  0
VERTEX
  8
LAYER-1
 10
5.470525
 20
0.108990
 30
0.000000
  0
VERTEX
  8
LAYER-1
 10
5.483545
 20
0.131560
 30
0.000000
  0
VERTEX
  8
LAYER-1
 10
5.453164
 20
0.110727
 30
0.000000
  0
SEQEND
  8
LAYER-1
  0
POLYLINE
  8
LAYER-1
 66
  1
 70
  0
 62
  0
 10
5.514277
 20
0.187324
 30
0.000000
  0
VERTEX
  8
LAYER-1
 10
5.514277
 20
0.187324
 30
0.000000
  0
VERTEX
  8
LAYER-1
 10
5.518617
 20
0.187324
 30
0.000000
  0
VERTEX
  8
LAYER-1
 10
5.522089
 20
0.191664
 30
0.000000
  0
VERTEX
  8
LAYER-1
 10
5.522958
 20
0.196872
 30
0.000000
  0
VERTEX
  8
LAYER-1
 10
5.521222
 20
0.201213
 30
0.000000
  0
VERTEX
  8
LAYER-1
 10
5.516882
 20
0.202949
 30
0.000000
  0
VERTEX
  8
LAYER-1
 10
5.512541
 20
0.202949
 30
0.000000
  0
VERTEX
  8
LAYER-1
 10
5.508200
 20
0.199476
 30
0.000000
  0
VERTEX
  8
LAYER-1
 10
5.508200
 20
0.195136
 30
0.000000
  0
VERTEX
  8
LAYER-1
 10
5.509069
 20
0.190795
 30
0.000000
  0
VERTEX
  8
LAYER-1
 10
5.513409
 20
0.188192
 30
0.000000
  0
SEQEND
  8
LAYER-1
  0
POLYLINE
  8
LAYER-1
 66
  1
 70
  1
 62
  0
 10
6.053863
 20
0.118106
 30
0.000000
  0
VERTEX
  8
LAYER-1
 10
6.053863
 20
0.118106
 30
0.000000
  0
VERTEX
  8
LAYER-1
 10
6.027822
 20
0.111160
 30
0.000000
  0
VERTEX
  8
LAYER-1
 10
6.041710
 20
0.085987
 30
0.000000
  0
SEQEND
  8
LAYER-1
  0
POLYLINE
  8
LAYER-1
 66
  1
 70
  0
 62
  0
 10
5.418875
 20
0.132864
 30
0.000000
  0
VERTEX
  8
LAYER-1
 10
5.418875
 20
0.132864
 30
0.000000
  0
VERTEX
  8
LAYER-1
 10
5.418875
 20
0.137203
 30
0.000000
  0
VERTEX
  8
LAYER-1
 10
5.414535
 20
0.140677
 30
0.000000
  0
VERTEX
  8
LAYER-1
 10
5.409327
 20
0.141543
 30
0.000000
  0
VERTEX
  8
LAYER-1
 10
5.404986
 20
0.139808
 30
0.000000
  0
VERTEX
  8
LAYER-1
 10
5.403250
 20
0.135467
 30
0.000000
  0
VERTEX
  8
LAYER-1
 10
5.403250
 20
0.131126
 30
0.000000
  0
VERTEX
  8
LAYER-1
 10
5.406722
 20
0.126787
 30
0.000000
  0
VERTEX
  8
LAYER-1
 10
5.411063
 20
0.126787
 30
0.000000
  0
VERTEX
  8
LAYER-1
 10
5.415404
 20
0.127654
 30
0.000000
  0
VERTEX
  8
LAYER-1
 10
5.418008
 20
0.131995
 30
0.000000
  0
SEQEND
  8
LAYER-1
  0
POLYLINE
  8
LAYER-1
 66
  1
 70
  1
 62
  0
 10
6.002647
 20
0.107690
 30
0.000000
  0
VERTEX
  8
LAYER-1
 10
6.002647
 20
0.107690
 30
0.000000
  0
VERTEX
  8
LAYER-1
 10
5.974869
 20
0.124181
 30
0.000000
  0
VERTEX
  8
LAYER-1
 10
5.995702
 20
0.093800
 30
0.000000
  0
SEQEND
  8
LAYER-1
  0
POLYLINE
  8
LAYER-1
 66
  1
 70
  0
 62
  0
 10
5.713147
 20
0.189283
 30
0.000000
  0
VERTEX
  8
LAYER-1
 10
5.713147
 20
0.189283
 30
0.000000
  0
VERTEX
  8
LAYER-1
 10
5.713147
 20
0.193623
 30
0.000000
  0
VERTEX
  8
LAYER-1
 10
5.708806
 20
0.197095
 30
0.000000
  0
VERTEX
  8
LAYER-1
 10
5.703599
 20
0.197964
 30
0.000000
  0
VERTEX
  8
LAYER-1
 10
5.699258
 20
0.196226
 30
0.000000
  0
VERTEX
  8
LAYER-1
 10
5.697522
 20
0.191887
 30
0.000000
  0
VERTEX
  8
LAYER-1
 10
5.697522
 20
0.187547
 30
0.000000
  0
VERTEX
  8
LAYER-1
 10
5.700994
 20
0.183205
 30
0.000000
  0
VERTEX
  8
LAYER-1
 10
5.705335
 20
0.183205
 30
0.000000
  0
VERTEX
  8
LAYER-1
 10
5.709675
 20
0.184074
 30
0.000000
  0
VERTEX
  8
LAYER-1
 10
5.712279
 20
0.188414
 30
0.000000
  0
SEQEND
  8
LAYER-1
  0
POLYLINE
  8
LAYER-1
 66
  1
 70
  1
 62
  0
 10
6.283811
 20
0.095796
 30
0.000000
  0
VERTEX
  8
LAYER-1
 10
6.283811
 20
0.095796
 30
0.000000
  0
VERTEX
  8
LAYER-1
 10
6.276866
 20
0.121838
 30
0.000000
  0
VERTEX
  8
LAYER-1
 10
6.251692
 20
0.107950
 30
0.000000
  0
SEQEND
  8
LAYER-1
  0
POLYLINE
  8
LAYER-1
 66
  1
 70
  0
 62
  0
 10
6.373656
 20
0.196057
 30
0.000000
  0
VERTEX
  8
LAYER-1
 10
6.373656
 20
0.196057
 30
0.000000
  0
VERTEX
  8
LAYER-1
 10
6.377997
 20
0.196057
 30
0.000000
  0
VERTEX
  8
LAYER-1
 10
6.381468
 20
0.200398
 30
0.000000
  0
VERTEX
  8
LAYER-1
 10
6.382335
 20
0.205605
 30
0.000000
  0
VERTEX
  8
LAYER-1
 10
6.380600
 20
0.209946
 30
0.000000
  0
VERTEX
  8
LAYER-1
 10
6.376261
 20
0.211682
 30
0.000000
  0
VERTEX
  8
LAYER-1
 10
6.371920
 20
0.211682
 30
0.000000
  0
VERTEX
  8
LAYER-1
 10
6.367579
 20
0.208210
 30
0.000000
  0
VERTEX
  8
LAYER-1
 10
6.367579
 20
0.203869
 30
0.000000
  0
VERTEX
  8
LAYER-1
 10
6.368448
 20
0.199529
 30
0.000000
  0
VERTEX
  8
LAYER-1
 10
6.372787
 20
0.196925
 30
0.000000
  0
SEQEND
  8
LAYER-1
  0
POLYLINE
  8
LAYER-1
 66
  1
 70
  1
 62
  0
 10
6.358898
 20
0.231213
 30
0.000000
  0
VERTEX
  8
LAYER-1
 10
6.358898
 20
0.231213
 30
0.000000
  0
VERTEX
  8
LAYER-1
 10
6.332856
 20
0.224269
 30
0.000000
  0
VERTEX
  8
LAYER-1
 10
6.346745
 20
0.199095
 30
0.000000
  0
SEQEND
  8
LAYER-1
  0
POLYLINE
  8
LAYER-1
 66
  1
 70
  1
 62
  0
 10
5.607678
 20
0.089896
 30
0.000000
  0
VERTEX
  8
LAYER-1
 10
5.607678
 20
0.089896
 30
0.000000
  0
VERTEX
  8
LAYER-1
 10
5.620698
 20
0.112466
 30
0.000000
  0
VERTEX
  8
LAYER-1
 10
5.590317
 20
0.091633
 30
0.000000
  0
SEQEND
  8
LAYER-1
  0
POLYLINE
  8
LAYER-1
 66
  1
 70
  0
 62
  0
 10
5.604205
 20
0.196665
 30
0.000000
  0
VERTEX
  8
LAYER-1
 10
5.604205
 20
0.196665
 30
0.000000
  0
VERTEX
  8
LAYER-1
 10
5.608546
 20
0.196665
 30
0.000000
  0
VERTEX
  8
LAYER-1
 10
5.612018
 20
0.201006
 30
0.000000
  0
VERTEX
  8
LAYER-1
 10
5.612887
 20
0.206214
 30
0.000000
  0
VERTEX
  8
LAYER-1
 10
5.611151
 20
0.210554
 30
0.000000
  0
VERTEX
  8
LAYER-1
 10
5.606810
 20
0.212290
 30
0.000000
  0
VERTEX
  8
LAYER-1
 10
5.602470
 20
0.212290
 30
0.000000
  0
VERTEX
  8
LAYER-1
 10
5.598129
 20
0.208818
 30
0.000000
  0
VERTEX
  8
LAYER-1
 10
5.598129
 20
0.204478
 30
0.000000
  0
VERTEX
  8
LAYER-1
 10
5.598998
 20
0.200137
 30
0.000000
  0
VERTEX
  8
LAYER-1
 10
5.603338
 20
0.197534
 30
0.000000
  0
SEQEND
  8
LAYER-1
  0
POLYLINE
  8
LAYER-1
 66
  1
 70
  1
 62
  0
 10
5.556896
 20
0.175396
 30
0.000000
  0
VERTEX
  8
LAYER-1
 10
5.556896
 20
0.175396
 30
0.000000
  0
VERTEX
  8
LAYER-1
 10
5.582071
 20
0.158903
 30
0.000000
  0
VERTEX
  8
LAYER-1
 10
5.589884
 20
0.173660
 30
0.000000
  0
SEQEND
  8
LAYER-1
  0
POLYLINE
  8
LAYER-1
 66
  1
 70
  1
 62
  0
 10
5.543543
 20
0.147784
 30
0.000000
  0
VERTEX
  8
LAYER-1
 10
5.543543
 20
0.147784
 30
0.000000
  0
VERTEX
  8
LAYER-1
 10
5.524179
 20
0.160472
 30
0.000000
  0
VERTEX
  8
LAYER-1
 10
5.518168
 20
0.149121
 30
0.000000
  0
SEQEND
  8
LAYER-1
  0
POLYLINE
  8
LAYER-1
 66
  1
 70
  1
 62
  0
 10
1.320788
 20
0.206646
 30
0.000000
  0
VERTEX
  8
LAYER-1
 10
1.320788
 20
0.206646
 30
0.000000
  0
VERTEX
  8
LAYER-1
 10
1.307767
 20
0.184077
 30
0.000000
  0
VERTEX
  8
LAYER-1
 10
1.338149
 20
0.204909
 30
0.000000
  0
SEQEND
  8
LAYER-1
  0
POLYLINE
  8
LAYER-1
 66
  1
 70
  1
 62
  0
 10
5.870268
 20
0.133731
 30
0.000000
  0
VERTEX
  8
LAYER-1
 10
5.870268
 20
0.133731
 30
0.000000
  0
VERTEX
  8
LAYER-1
 10
5.892838
 20
0.120711
 30
0.000000
  0
VERTEX
  8
LAYER-1
 10
5.872005
 20
0.151093
 30
0.000000
  0
SEQEND
  8
LAYER-1
  0
POLYLINE
  8
LAYER-1
 66
  1
 70
  0
 62
  0
 10
5.798219
 20
0.180604
 30
0.000000
  0
VERTEX
  8
LAYER-1
 10
5.798219
 20
0.180604
 30
0.000000
  0
VERTEX
  8
LAYER-1
 10
5.798219
 20
0.176264
 30
0.000000
  0
VERTEX
  8
LAYER-1
 10
5.802560
 20
0.172791
 30
0.000000
  0
VERTEX
  8
LAYER-1
 10
5.807768
 20
0.171923
 30
0.000000
  0
VERTEX
  8
LAYER-1
 10
5.812109
 20
0.173659
 30
0.000000
  0
VERTEX
  8
LAYER-1
 10
5.813844
 20
0.178000
 30
0.000000
  0
VERTEX
  8
LAYER-1
 10
5.813844
 20
0.182340
 30
0.000000
  0
VERTEX
  8
LAYER-1
 10
5.810373
 20
0.186680
 30
0.000000
  0
VERTEX
  8
LAYER-1
 10
5.806032
 20
0.186680
 30
0.000000
  0
VERTEX
  8
LAYER-1
 10
5.801691
 20
0.185812
 30
0.000000
  0
VERTEX
  8
LAYER-1
 10
5.799088
 20
0.181472
 30
0.000000
  0
SEQEND
  8
LAYER-1
  0
POLYLINE
  8
LAYER-1
 66
  1
 70
  1
 62
  0
 10
5.747872
 20
0.191890
 30
0.000000
  0
VERTEX
  8
LAYER-1
 10
5.747872
 20
0.191890
 30
0.000000
  0
VERTEX
  8
LAYER-1
 10
5.770441
 20
0.178869
 30
0.000000
  0
VERTEX
  8
LAYER-1
 10
5.749609
 20
0.209251
 30
0.000000
  0
SEQEND
  8
LAYER-1
  0
POLYLINE
  8
LAYER-1
 66
  1
 70
  0
 62
  0
 10
6.010025
 20
0.133731
 30
0.000000
  0
VERTEX
  8
LAYER-1
 10
6.010025
 20
0.133731
 30
0.000000
  0
VERTEX
  8
LAYER-1
 10
6.010025
 20
0.129391
 30
0.000000
  0
VERTEX
  8
LAYER-1
 10
6.014366
 20
0.125919
 30
0.000000
  0
VERTEX
  8
LAYER-1
 10
6.019574
 20
0.125052
 30
0.000000
  0
VERTEX
  8
LAYER-1
 10
6.023914
 20
0.126787
 30
0.000000
  0
VERTEX
  8
LAYER-1
 10
6.025650
 20
0.131127
 30
0.000000
  0
VERTEX
  8
LAYER-1
 10
6.025650
 20
0.135468
 30
0.000000
  0
VERTEX
  8
LAYER-1
 10
6.022178
 20
0.139809
 30
0.000000
  0
VERTEX
  8
LAYER-1
 10
6.017838
 20
0.139809
 30
0.000000
  0
VERTEX
  8
LAYER-1
 10
6.013497
 20
0.138940
 30
0.000000
  0
VERTEX
  8
LAYER-1
 10
6.010893
 20
0.134599
 30
0.000000
  0
SEQEND
  8
LAYER-1
  0
POLYLINE
  8
LAYER-1
 66
  1
 70
  0
 62
  0
 10
5.844227
 20
0.188419
 30
0.000000
  0
VERTEX
  8
LAYER-1
 10
5.844227
 20
0.188419
 30
0.000000
  0
VERTEX
  8
LAYER-1
 10
5.844227
 20
0.184079
 30
0.000000
  0
VERTEX
  8
LAYER-1
 10
5.848568
 20
0.180606
 30
0.000000
  0
VERTEX
  8
LAYER-1
 10
5.853775
 20
0.179739
 30
0.000000
  0
VERTEX
  8
LAYER-1
 10
5.858116
 20
0.181474
 30
0.000000
  0
VERTEX
  8
LAYER-1
 10
5.859852
 20
0.185815
 30
0.000000
  0
VERTEX
  8
LAYER-1
 10
5.859852
 20
0.190155
 30
0.000000
  0
VERTEX
  8
LAYER-1
 10
5.856380
 20
0.194496
 30
0.000000
  0
VERTEX
  8
LAYER-1
 10
5.852039
 20
0.194496
 30
0.000000
  0
VERTEX
  8
LAYER-1
 10
5.847699
 20
0.193627
 30
0.000000
  0
VERTEX
  8
LAYER-1
 10
5.845094
 20
0.189287
 30
0.000000
  0
SEQEND
  8
LAYER-1
  0
POLYLINE
  8
LAYER-1
 66
  1
 70
  1
 62
  0
 10
5.768706
 20
0.123749
 30
0.000000
  0
VERTEX
  8
LAYER-1
 10
5.768706
 20
0.123749
 30
0.000000
  0
VERTEX
  8
LAYER-1
 10
5.755685
 20
0.101178
 30
0.000000
  0
VERTEX
  8
LAYER-1
 10
5.786068
 20
0.122011
 30
0.000000
  0
SEQEND
  8
LAYER-1
  0
POLYLINE
  8
LAYER-1
 66
  1
 70
  0
 62
  0
 10
5.695006
 20
0.115884
 30
0.000000
  0
VERTEX
  8
LAYER-1
 10
5.695006
 20
0.115884
 30
0.000000
  0
VERTEX
  8
LAYER-1
 10
5.690666
 20
0.115884
 30
0.000000
  0
VERTEX
  8
LAYER-1
 10
5.687194
 20
0.111543
 30
0.000000
  0
VERTEX
  8
LAYER-1
 10
5.686325
 20
0.106335
 30
0.000000
  0
VERTEX
  8
LAYER-1
 10
5.688061
 20
0.101995
 30
0.000000
  0
VERTEX
  8
LAYER-1
 10
5.692402
 20
0.100259
 30
0.000000
  0
VERTEX
  8
LAYER-1
 10
5.696743
 20
0.100259
 30
0.000000
  0
VERTEX
  8
LAYER-1
 10
5.701082
 20
0.103730
 30
0.000000
  0
VERTEX
  8
LAYER-1
 10
5.701082
 20
0.108071
 30
0.000000
  0
VERTEX
  8
LAYER-1
 10
5.700214
 20
0.112411
 30
0.000000
  0
VERTEX
  8
LAYER-1
 10
5.695874
 20
0.115017
 30
0.000000
  0
SEQEND
  8
LAYER-1
  0
POLYLINE
  8
LAYER-1
 66
  1
 70
  0
 62
  0
 10
5.768706
 20
0.154129
 30
0.000000
  0
VERTEX
  8
LAYER-1
 10
5.768706
 20
0.154129
 30
0.000000
  0
VERTEX
  8
LAYER-1
 10
5.764366
 20
0.154129
 30
0.000000
  0
VERTEX
  8
LAYER-1
 10
5.760894
 20
0.149789
 30
0.000000
  0
VERTEX
  8
LAYER-1
 10
5.760026
 20
0.144580
 30
0.000000
  0
VERTEX
  8
LAYER-1
 10
5.761762
 20
0.140240
 30
0.000000
  0
VERTEX
  8
LAYER-1
 10
5.766103
 20
0.138504
 30
0.000000
  0
VERTEX
  8
LAYER-1
 10
5.770443
 20
0.138504
 30
0.000000
  0
VERTEX
  8
LAYER-1
 10
5.774783
 20
0.141976
 30
0.000000
  0
VERTEX
  8
LAYER-1
 10
5.774783
 20
0.146317
 30
0.000000
  0
VERTEX
  8
LAYER-1
 10
5.773915
 20
0.150658
 30
0.000000
  0
VERTEX
  8
LAYER-1
 10
5.769574
 20
0.153262
 30
0.000000
  0
SEQEND
  8
LAYER-1
  0
POLYLINE
  8
LAYER-1
 66
  1
 70
  1
 62
  0
 10
6.075998
 20
0.170623
 30
0.000000
  0
VERTEX
  8
LAYER-1
 10
6.075998
 20
0.170623
 30
0.000000
  0
VERTEX
  8
LAYER-1
 10
6.082943
 20
0.144581
 30
0.000000
  0
VERTEX
  8
LAYER-1
 10
6.108116
 20
0.158470
 30
0.000000
  0
SEQEND
  8
LAYER-1
  0
POLYLINE
  8
LAYER-1
 66
  1
 70
  1
 62
  0
 10
6.238324
 20
0.199269
 30
0.000000
  0
VERTEX
  8
LAYER-1
 10
6.238324
 20
0.199269
 30
0.000000
  0
VERTEX
  8
LAYER-1
 10
6.225303
 20
0.176699
 30
0.000000
  0
VERTEX
  8
LAYER-1
 10
6.255686
 20
0.197533
 30
0.000000
  0
SEQEND
  8
LAYER-1
  0
POLYLINE
  8
LAYER-1
 66
  1
 70
  0
 62
  0
 10
6.026519
 20
0.201873
 30
0.000000
  0
VERTEX
  8
LAYER-1
 10
6.026519
 20
0.201873
 30
0.000000
  0
VERTEX
  8
LAYER-1
 10
6.022178
 20
0.201873
 30
0.000000
  0
VERTEX
  8
LAYER-1
 10
6.018706
 20
0.197533
 30
0.000000
  0
VERTEX
  8
LAYER-1
 10
6.017838
 20
0.192324
 30
0.000000
  0
VERTEX
  8
LAYER-1
 10
6.019574
 20
0.187984
 30
0.000000
  0
VERTEX
  8
LAYER-1
 10
6.023914
 20
0.186248
 30
0.000000
  0
VERTEX
  8
LAYER-1
 10
6.028255
 20
0.186248
 30
0.000000
  0
VERTEX
  8
LAYER-1
 10
6.032596
 20
0.189720
 30
0.000000
  0
VERTEX
  8
LAYER-1
 10
6.032596
 20
0.194060
 30
0.000000
  0
VERTEX
  8
LAYER-1
 10
6.031727
 20
0.198402
 30
0.000000
  0
VERTEX
  8
LAYER-1
 10
6.027387
 20
0.201005
 30
0.000000
  0
SEQEND
  8
LAYER-1
  0
POLYLINE
  8
LAYER-1
 66
  1
 70
  1
 62
  0
 10
6.136763
 20
0.134165
 30
0.000000
  0
VERTEX
  8
LAYER-1
 10
6.136763
 20
0.134165
 30
0.000000
  0
VERTEX
  8
LAYER-1
 10
6.123742
 20
0.111595
 30
0.000000
  0
VERTEX
  8
LAYER-1
 10
6.154124
 20
0.132428
 30
0.000000
  0
SEQEND
  8
LAYER-1
  0
POLYLINE
  8
LAYER-1
 66
  1
 70
  0
 62
  0
 10
6.178428
 20
0.203609
 30
0.000000
  0
VERTEX
  8
LAYER-1
 10
6.178428
 20
0.203609
 30
0.000000
  0
VERTEX
  8
LAYER-1
 10
6.174088
 20
0.203609
 30
0.000000
  0
VERTEX
  8
LAYER-1
 10
6.170616
 20
0.199268
 30
0.000000
  0
VERTEX
  8
LAYER-1
 10
6.169748
 20
0.194060
 30
0.000000
  0
VERTEX
  8
LAYER-1
 10
6.171484
 20
0.189720
 30
0.000000
  0
VERTEX
  8
LAYER-1
 10
6.175824
 20
0.187984
 30
0.000000
  0
VERTEX
  8
LAYER-1
 10
6.180164
 20
0.187984
 30
0.000000
  0
VERTEX
  8
LAYER-1
 10
6.184505
 20
0.191455
 30
0.000000
  0
VERTEX
  8
LAYER-1
 10
6.184505
 20
0.195797
 30
0.000000
  0
VERTEX
  8
LAYER-1
 10
6.183637
 20
0.200137
 30
0.000000
  0
VERTEX
  8
LAYER-1
 10
6.179296
 20
0.202741
 30
0.000000
  0
SEQEND
  8
LAYER-1
  0
POLYLINE
  8
LAYER-1
 66
  1
 70
  1
 62
  0
 10
6.517838
 20
0.194928
 30
0.000000
  0
VERTEX
  8
LAYER-1
 10
6.517838
 20
0.194928
 30
0.000000
  0
VERTEX
  8
LAYER-1
 10
6.524782
 20
0.168888
 30
0.000000
  0
VERTEX
  8
LAYER-1
 10
6.549956
 20
0.182775
 30
0.000000
  0
SEQEND
  8
LAYER-1
  0
POLYLINE
  8
LAYER-1
 66
  1
 70
  1
 62
  0
 10
6.680164
 20
0.223575
 30
0.000000
  0
VERTEX
  8
LAYER-1
 10
6.680164
 20
0.223575
 30
0.000000
  0
VERTEX
  8
LAYER-1
 10
6.667143
 20
0.201005
 30
0.000000
  0
VERTEX
  8
LAYER-1
 10
6.697525
 20
0.221837
 30
0.000000
  0
SEQEND
  8
LAYER-1
  0
POLYLINE
  8
LAYER-1
 66
  1
 70
  1
 62
  0
 10
5.908463
 20
0.159339
 30
0.000000
  0
VERTEX
  8
LAYER-1
 10
5.908463
 20
0.159339
 30
0.000000
  0
VERTEX
  8
LAYER-1
 10
5.933637
 20
0.142845
 30
0.000000
  0
VERTEX
  8
LAYER-1
 10
5.941449
 20
0.157603
 30
0.000000
  0
SEQEND
  8
LAYER-1
  0
POLYLINE
  8
LAYER-1
 66
  1
 70
  0
 62
  0
 10
6.478775
 20
0.215763
 30
0.000000
  0
VERTEX
  8
LAYER-1
 10
6.478775
 20
0.215763
 30
0.000000
  0
VERTEX
  8
LAYER-1
 10
6.474434
 20
0.215763
 30
0.000000
  0
VERTEX
  8
LAYER-1
 10
6.470963
 20
0.211422
 30
0.000000
  0
VERTEX
  8
LAYER-1
 10
6.470095
 20
0.206215
 30
0.000000
  0
VERTEX
  8
LAYER-1
 10
6.471831
 20
0.201874
 30
0.000000
  0
VERTEX
  8
LAYER-1
 10
6.476171
 20
0.200138
 30
0.000000
  0
VERTEX
  8
LAYER-1
 10
6.480511
 20
0.200138
 30
0.000000
  0
VERTEX
  8
LAYER-1
 10
6.484852
 20
0.203610
 30
0.000000
  0
VERTEX
  8
LAYER-1
 10
6.484852
 20
0.207950
 30
0.000000
  0
VERTEX
  8
LAYER-1
 10
6.483984
 20
0.212291
 30
0.000000
  0
VERTEX
  8
LAYER-1
 10
6.479643
 20
0.214896
 30
0.000000
  0
SEQEND
  8
LAYER-1
  0
POLYLINE
  8
LAYER-1
 66
  1
 70
  1
 62
  0
 10
6.494401
 20
0.127221
 30
0.000000
  0
VERTEX
  8
LAYER-1
 10
6.494401
 20
0.127221
 30
0.000000
  0
VERTEX
  8
LAYER-1
 10
6.481380
 20
0.104650
 30
0.000000
  0
VERTEX
  8
LAYER-1
 10
6.511762
 20
0.125483
 30
0.000000
  0
SEQEND
  8
LAYER-1
  0
POLYLINE
  8
LAYER-1
 66
  1
 70
  1
 62
  0
 10
6.588852
 20
0.141639
 30
0.000000
  0
VERTEX
  8
LAYER-1
 10
6.588852
 20
0.141639
 30
0.000000
  0
VERTEX
  8
LAYER-1
 10
6.576165
 20
0.122275
 30
0.000000
  0
VERTEX
  8
LAYER-1
 10
6.587515
 20
0.116263
 30
0.000000
  0
SEQEND
  8
LAYER-1
  0
POLYLINE
  8
LAYER-1
 66
  1
 70
  0
 62
  0
 10
6.620268
 20
0.220103
 30
0.000000
  0
VERTEX
  8
LAYER-1
 10
6.620268
 20
0.220103
 30
0.000000
  0
VERTEX
  8
LAYER-1
 10
6.615928
 20
0.220103
 30
0.000000
  0
VERTEX
  8
LAYER-1
 10
6.612456
 20
0.215762
 30
0.000000
  0
VERTEX
  8
LAYER-1
 10
6.611588
 20
0.210554
 30
0.000000
  0
VERTEX
  8
LAYER-1
 10
6.613324
 20
0.206214
 30
0.000000
  0
VERTEX
  8
LAYER-1
 10
6.617664
 20
0.204478
 30
0.000000
  0
VERTEX
  8
LAYER-1
 10
6.622005
 20
0.204478
 30
0.000000
  0
VERTEX
  8
LAYER-1
 10
6.626345
 20
0.207949
 30
0.000000
  0
VERTEX
  8
LAYER-1
 10
6.626345
 20
0.212290
 30
0.000000
  0
VERTEX
  8
LAYER-1
 10
6.625477
 20
0.216631
 30
0.000000
  0
VERTEX
  8
LAYER-1
 10
6.621136
 20
0.219236
 30
0.000000
  0
SEQEND
  8
LAYER-1
  0
POLYLINE
  8
LAYER-1
 66
  1
 70
  0
 62
  0
 10
5.897179
 20
0.212290
 30
0.000000
  0
VERTEX
  8
LAYER-1
 10
5.897179
 20
0.212290
 30
0.000000
  0
VERTEX
  8
LAYER-1
 10
5.897179
 20
0.207949
 30
0.000000
  0
VERTEX
  8
LAYER-1
 10
5.901519
 20
0.204478
 30
0.000000
  0
VERTEX
  8
LAYER-1
 10
5.906727
 20
0.203609
 30
0.000000
  0
VERTEX
  8
LAYER-1
 10
5.911068
 20
0.205345
 30
0.000000
  0
VERTEX
  8
LAYER-1
 10
5.912804
 20
0.209685
 30
0.000000
  0
VERTEX
  8
LAYER-1
 10
5.912804
 20
0.214027
 30
0.000000
  0
VERTEX
  8
LAYER-1
 10
5.909332
 20
0.218367
 30
0.000000
  0
VERTEX
  8
LAYER-1
 10
5.904991
 20
0.218367
 30
0.000000
  0
VERTEX
  8
LAYER-1
 10
5.900650
 20
0.217498
 30
0.000000
  0
VERTEX
  8
LAYER-1
 10
5.898046
 20
0.213158
 30
0.000000
  0
SEQEND
  8
LAYER-1
  0
POLYLINE
  8
LAYER-1
 66
  1
 70
  0
 62
  0
 10
6.460545
 20
0.128087
 30
0.000000
  0
VERTEX
  8
LAYER-1
 10
6.460545
 20
0.128087
 30
0.000000
  0
VERTEX
  8
LAYER-1
 10
6.456205
 20
0.128087
 30
0.000000
  0
VERTEX
  8
LAYER-1
 10
6.452733
 20
0.123746
 30
0.000000
  0
VERTEX
  8
LAYER-1
 10
6.451865
 20
0.118539
 30
0.000000
  0
VERTEX
  8
LAYER-1
 10
6.453601
 20
0.114198
 30
0.000000
  0
VERTEX
  8
LAYER-1
 10
6.457942
 20
0.112462
 30
0.000000
  0
VERTEX
  8
LAYER-1
 10
6.462281
 20
0.112462
 30
0.000000
  0
VERTEX
  8
LAYER-1
 10
6.466622
 20
0.115934
 30
0.000000
  0
VERTEX
  8
LAYER-1
 10
6.466622
 20
0.120274
 30
0.000000
  0
VERTEX
  8
LAYER-1
 10
6.465754
 20
0.124615
 30
0.000000
  0
VERTEX
  8
LAYER-1
 10
6.461413
 20
0.127220
 30
0.000000
  0
SEQEND
  8
LAYER-1
  0
POLYLINE
  8
LAYER-1
 66
  1
 70
  0
 62
  0
 10
6.358985
 20
0.165849
 30
0.000000
  0
VERTEX
  8
LAYER-1
 10
6.358985
 20
0.165849
 30
0.000000
  0
VERTEX
  8
LAYER-1
 10
6.358985
 20
0.170190
 30
0.000000
  0
VERTEX
  8
LAYER-1
 10
6.354644
 20
0.173661
 30
0.000000
  0
VERTEX
  8
LAYER-1
 10
6.349436
 20
0.174529
 30
0.000000
  0
VERTEX
  8
LAYER-1
 10
6.345096
 20
0.172793
 30
0.000000
  0
VERTEX
  8
LAYER-1
 10
6.343360
 20
0.168453
 30
0.000000
  0
VERTEX
  8
LAYER-1
 10
6.343360
 20
0.164113
 30
0.000000
  0
VERTEX
  8
LAYER-1
 10
6.346831
 20
0.159773
 30
0.000000
  0
VERTEX
  8
LAYER-1
 10
6.351172
 20
0.159773
 30
0.000000
  0
VERTEX
  8
LAYER-1
 10
6.355513
 20
0.160640
 30
0.000000
  0
VERTEX
  8
LAYER-1
 10
6.358116
 20
0.164981
 30
0.000000
  0
SEQEND
  8
LAYER-1
  0
POLYLINE
  8
LAYER-1
 66
  1
 70
  1
 62
  0
 10
6.291275
 20
0.152828
 30
0.000000
  0
VERTEX
  8
LAYER-1
 10
6.291275
 20
0.152828
 30
0.000000
  0
VERTEX
  8
LAYER-1
 10
6.268706
 20
0.165848
 30
0.000000
  0
VERTEX
  8
LAYER-1
 10
6.289539
 20
0.135466
 30
0.000000
  0
SEQEND
  8
LAYER-1
  0
POLYLINE
  8
LAYER-1
 66
  1
 70
  0
 62
  0
 10
6.208811
 20
0.118106
 30
0.000000
  0
VERTEX
  8
LAYER-1
 10
6.208811
 20
0.118106
 30
0.000000
  0
VERTEX
  8
LAYER-1
 10
6.208811
 20
0.122447
 30
0.000000
  0
VERTEX
  8
LAYER-1
 10
6.204471
 20
0.125918
 30
0.000000
  0
VERTEX
  8
LAYER-1
 10
6.199263
 20
0.126786
 30
0.000000
  0
VERTEX
  8
LAYER-1
 10
6.194922
 20
0.125050
 30
0.000000
  0
VERTEX
  8
LAYER-1
 10
6.193186
 20
0.120711
 30
0.000000
  0
VERTEX
  8
LAYER-1
 10
6.193186
 20
0.116370
 30
0.000000
  0
VERTEX
  8
LAYER-1
 10
6.196658
 20
0.112029
 30
0.000000
  0
VERTEX
  8
LAYER-1
 10
6.200999
 20
0.112029
 30
0.000000
  0
VERTEX
  8
LAYER-1
 10
6.205340
 20
0.112898
 30
0.000000
  0
VERTEX
  8
LAYER-1
 10
6.207943
 20
0.117238
 30
0.000000
  0
SEQEND
  8
LAYER-1
  0
POLYLINE
  8
LAYER-1
 66
  1
 70
  1
 62
  0
 10
6.399089
 20
0.108384
 30
0.000000
  0
VERTEX
  8
LAYER-1
 10
6.399089
 20
0.108384
 30
0.000000
  0
VERTEX
  8
LAYER-1
 10
6.392144
 20
0.134425
 30
0.000000
  0
VERTEX
  8
LAYER-1
 10
6.366971
 20
0.120538
 30
0.000000
  0
SEQEND
  8
LAYER-1
  0
POLYLINE
  8
LAYER-1
 66
  1
 70
  1
 62
  0
 10
6.420616
 20
0.162810
 30
0.000000
  0
VERTEX
  8
LAYER-1
 10
6.420616
 20
0.162810
 30
0.000000
  0
VERTEX
  8
LAYER-1
 10
6.433637
 20
0.185381
 30
0.000000
  0
VERTEX
  8
LAYER-1
 10
6.403255
 20
0.164548
 30
0.000000
  0
SEQEND
  8
LAYER-1
  0
POLYLINE
  8
LAYER-1
 66
  1
 70
  1
 62
  0
 10
5.848568
 20
0.106387
 30
0.000000
  0
VERTEX
  8
LAYER-1
 10
5.848568
 20
0.106387
 30
0.000000
  0
VERTEX
  8
LAYER-1
 10
5.825997
 20
0.119409
 30
0.000000
  0
VERTEX
  8
LAYER-1
 10
5.846830
 20
0.089027
 30
0.000000
  0
SEQEND
  8
LAYER-1
  0
POLYLINE
  8
LAYER-1
 66
  1
 70
  1
 62
  0
 10
6.626346
 20
0.130693
 30
0.000000
  0
VERTEX
  8
LAYER-1
 10
6.626346
 20
0.130693
 30
0.000000
  0
VERTEX
  8
LAYER-1
 10
6.642838
 20
0.155867
 30
0.000000
  0
VERTEX
  8
LAYER-1
 10
6.628081
 20
0.163679
 30
0.000000
  0
SEQEND
  8
LAYER-1
  0
POLYLINE
  8
LAYER-1
 66
  1
 70
  0
 62
  0
 10
6.657246
 20
0.057290
 30
0.000000
  0
VERTEX
  8
LAYER-1
 10
6.657246
 20
0.057290
 30
0.000000
  0
VERTEX
  8
LAYER-1
 10
6.661586
 20
0.057290
 30
0.000000
  0
VERTEX
  8
LAYER-1
 10
6.665059
 20
0.061630
 30
0.000000
  0
VERTEX
  8
LAYER-1
 10
6.665927
 20
0.066839
 30
0.000000
  0
VERTEX
  8
LAYER-1
 10
6.664191
 20
0.071179
 30
0.000000
  0
VERTEX
  8
LAYER-1
 10
6.659849
 20
0.072915
 30
0.000000
  0
VERTEX
  8
LAYER-1
 10
6.655510
 20
0.072915
 30
0.000000
  0
VERTEX
  8
LAYER-1
 10
6.651169
 20
0.069443
 30
0.000000
  0
VERTEX
  8
LAYER-1
 10
6.651169
 20
0.065102
 30
0.000000
  0
VERTEX
  8
LAYER-1
 10
6.652037
 20
0.060761
 30
0.000000
  0
VERTEX
  8
LAYER-1
 10
6.656378
 20
0.058157
 30
0.000000
  0
SEQEND
  8
LAYER-1
  0
POLYLINE
  8
LAYER-1
 66
  1
 70
  0
 62
  0
 10
6.633809
 20
0.082469
 30
0.000000
  0
VERTEX
  8
LAYER-1
 10
6.633809
 20
0.082469
 30
0.000000
  0
VERTEX
  8
LAYER-1
 10
6.638150
 20
0.082469
 30
0.000000
  0
VERTEX
  8
LAYER-1
 10
6.641621
 20
0.086810
 30
0.000000
  0
VERTEX
  8
LAYER-1
 10
6.642489
 20
0.092017
 30
0.000000
  0
VERTEX
  8
LAYER-1
 10
6.640753
 20
0.096358
 30
0.000000
  0
VERTEX
  8
LAYER-1
 10
6.636413
 20
0.098094
 30
0.000000
  0
VERTEX
  8
LAYER-1
 10
6.632073
 20
0.098094
 30
0.000000
  0
VERTEX
  8
LAYER-1
 10
6.627732
 20
0.094622
 30
0.000000
  0
VERTEX
  8
LAYER-1
 10
6.627732
 20
0.090281
 30
0.000000
  0
VERTEX
  8
LAYER-1
 10
6.628600
 20
0.085941
 30
0.000000
  0
VERTEX
  8
LAYER-1
 10
6.632941
 20
0.083336
 30
0.000000
  0
SEQEND
  8
LAYER-1
  0
POLYLINE
  8
LAYER-1
 66
  1
 70
  1
 62
  0
 10
6.708027
 20
0.098524
 30
0.000000
  0
VERTEX
  8
LAYER-1
 10
6.708027
 20
0.098524
 30
0.000000
  0
VERTEX
  8
LAYER-1
 10
6.682854
 20
0.115017
 30
0.000000
  0
VERTEX
  8
LAYER-1
 10
6.675041
 20
0.100260
 30
0.000000
  0
SEQEND
  8
LAYER-1
  0
POLYLINE
  8
LAYER-1
 66
  1
 70
  0
 62
  0
 10
6.718444
 20
0.137589
 30
0.000000
  0
VERTEX
  8
LAYER-1
 10
6.718444
 20
0.137589
 30
0.000000
  0
VERTEX
  8
LAYER-1
 10
6.718444
 20
0.141930
 30
0.000000
  0
VERTEX
  8
LAYER-1
 10
6.714103
 20
0.145402
 30
0.000000
  0
VERTEX
  8
LAYER-1
 10
6.708895
 20
0.146270
 30
0.000000
  0
VERTEX
  8
LAYER-1
 10
6.704555
 20
0.144534
 30
0.000000
  0
VERTEX
  8
LAYER-1
 10
6.702819
 20
0.140193
 30
0.000000
  0
VERTEX
  8
LAYER-1
 10
6.702819
 20
0.135853
 30
0.000000
  0
VERTEX
  8
LAYER-1
 10
6.706290
 20
0.131512
 30
0.000000
  0
VERTEX
  8
LAYER-1
 10
6.710631
 20
0.131512
 30
0.000000
  0
VERTEX
  8
LAYER-1
 10
6.714972
 20
0.132380
 30
0.000000
  0
VERTEX
  8
LAYER-1
 10
6.717577
 20
0.136721
 30
0.000000
  0
SEQEND
  8
LAYER-1
  0
POLYLINE
  8
LAYER-1
 66
  1
 70
  1
 62
  0
 10
6.664966
 20
0.143441
 30
0.000000
  0
VERTEX
  8
LAYER-1
 10
6.664966
 20
0.143441
 30
0.000000
  0
VERTEX
  8
LAYER-1
 10
6.677653
 20
0.162804
 30
0.000000
  0
VERTEX
  8
LAYER-1
 10
6.666302
 20
0.168816
 30
0.000000
  0
SEQEND
  8
LAYER-1
  0
POLYLINE
  8
LAYER-1
 66
  1
 70
  0
 62
  0
 10
5.988323
 20
0.173228
 30
0.000000
  0
VERTEX
  8
LAYER-1
 10
5.988323
 20
0.173228
 30
0.000000
  0
VERTEX
  8
LAYER-1
 10
5.988323
 20
0.177567
 30
0.000000
  0
VERTEX
  8
LAYER-1
 10
5.983983
 20
0.181040
 30
0.000000
  0
VERTEX
  8
LAYER-1
 10
5.978775
 20
0.181908
 30
0.000000
  0
VERTEX
  8
LAYER-1
 10
5.974434
 20
0.180172
 30
0.000000
  0
VERTEX
  8
LAYER-1
 10
5.972698
 20
0.175830
 30
0.000000
  0
VERTEX
  8
LAYER-1
 10
5.972698
 20
0.171490
 30
0.000000
  0
VERTEX
  8
LAYER-1
 10
5.976170
 20
0.167152
 30
0.000000
  0
VERTEX
  8
LAYER-1
 10
5.980511
 20
0.167152
 30
0.000000
  0
VERTEX
  8
LAYER-1
 10
5.984851
 20
0.168018
 30
0.000000
  0
VERTEX
  8
LAYER-1
 10
5.987456
 20
0.172359
 30
0.000000
  0
SEQEND
  8
LAYER-1
  0
POLYLINE
  8
LAYER-1
 66
  1
 70
  0
 62
  0
 10
6.574262
 20
0.136770
 30
0.000000
  0
VERTEX
  8
LAYER-1
 10
6.574262
 20
0.136770
 30
0.000000
  0
VERTEX
  8
LAYER-1
 10
6.578603
 20
0.136770
 30
0.000000
  0
VERTEX
  8
LAYER-1
 10
6.582074
 20
0.141111
 30
0.000000
  0
VERTEX
  8
LAYER-1
 10
6.582943
 20
0.146318
 30
0.000000
  0
VERTEX
  8
LAYER-1
 10
6.581206
 20
0.150659
 30
0.000000
  0
VERTEX
  8
LAYER-1
 10
6.576866
 20
0.152395
 30
0.000000
  0
VERTEX
  8
LAYER-1
 10
6.572526
 20
0.152395
 30
0.000000
  0
VERTEX
  8
LAYER-1
 10
6.568186
 20
0.148923
 30
0.000000
  0
VERTEX
  8
LAYER-1
 10
6.568186
 20
0.144583
 30
0.000000
  0
VERTEX
  8
LAYER-1
 10
6.569053
 20
0.140242
 30
0.000000
  0
VERTEX
  8
LAYER-1
 10
6.573394
 20
0.137637
 30
0.000000
  0
SEQEND
  8
LAYER-1
  0
POLYLINE
  8
LAYER-1
 66
  1
 70
  1
 62
  0
 10
0.831897
 20
0.140451
 30
0.000000
  0
VERTEX
  8
LAYER-1
 10
0.831897
 20
0.140451
 30
0.000000
  0
VERTEX
  8
LAYER-1
 10
0.809327
 20
0.153472
 30
0.000000
  0
VERTEX
  8
LAYER-1
 10
0.830160
 20
0.123091
 30
0.000000
  0
SEQEND
  8
LAYER-1
  0
POLYLINE
  8
LAYER-1
 66
  1
 70
  0
 62
  0
 10
0.820613
 20
0.073611
 30
0.000000
  0
VERTEX
  8
LAYER-1
 10
0.820613
 20
0.073611
 30
0.000000
  0
VERTEX
  8
LAYER-1
 10
0.820613
 20
0.077950
 30
0.000000
  0
VERTEX
  8
LAYER-1
 10
0.816272
 20
0.081423
 30
0.000000
  0
VERTEX
  8
LAYER-1
 10
0.811065
 20
0.082291
 30
0.000000
  0
VERTEX
  8
LAYER-1
 10
0.806724
 20
0.080555
 30
0.000000
  0
VERTEX
  8
LAYER-1
 10
0.804988
 20
0.076213
 30
0.000000
  0
VERTEX
  8
LAYER-1
 10
0.804988
 20
0.071873
 30
0.000000
  0
VERTEX
  8
LAYER-1
 10
0.808460
 20
0.067535
 30
0.000000
  0
VERTEX
  8
LAYER-1
 10
0.812801
 20
0.067535
 30
0.000000
  0
VERTEX
  8
LAYER-1
 10
0.817141
 20
0.068401
 30
0.000000
  0
VERTEX
  8
LAYER-1
 10
0.819746
 20
0.072742
 30
0.000000
  0
SEQEND
  8
LAYER-1
  0
POLYLINE
  8
LAYER-1
 66
  1
 70
  1
 62
  0
 10
1.098653
 20
0.062410
 30
0.000000
  0
VERTEX
  8
LAYER-1
 10
1.098653
 20
0.062410
 30
0.000000
  0
VERTEX
  8
LAYER-1
 10
1.115146
 20
0.087585
 30
0.000000
  0
VERTEX
  8
LAYER-1
 10
1.100389
 20
0.095397
 30
0.000000
  0
SEQEND
  8
LAYER-1
  0
POLYLINE
  8
LAYER-1
 66
  1
 70
  1
 62
  0
 10
1.146562
 20
0.077504
 30
0.000000
  0
VERTEX
  8
LAYER-1
 10
1.146562
 20
0.077504
 30
0.000000
  0
VERTEX
  8
LAYER-1
 10
1.159250
 20
0.096870
 30
0.000000
  0
VERTEX
  8
LAYER-1
 10
1.147898
 20
0.102880
 30
0.000000
  0
SEQEND
  8
LAYER-1
  0
POLYLINE
  8
LAYER-1
 66
  1
 70
  0
 62
  0
 10
1.210631
 20
0.053732
 30
0.000000
  0
VERTEX
  8
LAYER-1
 10
1.210631
 20
0.053732
 30
0.000000
  0
VERTEX
  8
LAYER-1
 10
1.214972
 20
0.053732
 30
0.000000
  0
VERTEX
  8
LAYER-1
 10
1.218444
 20
0.058073
 30
0.000000
  0
VERTEX
  8
LAYER-1
 10
1.219312
 20
0.063281
 30
0.000000
  0
VERTEX
  8
LAYER-1
 10
1.217576
 20
0.067622
 30
0.000000
  0
VERTEX
  8
LAYER-1
 10
1.213235
 20
0.069357
 30
0.000000
  0
VERTEX
  8
LAYER-1
 10
1.208896
 20
0.069357
 30
0.000000
  0
VERTEX
  8
LAYER-1
 10
1.204555
 20
0.065886
 30
0.000000
  0
VERTEX
  8
LAYER-1
 10
1.204555
 20
0.061545
 30
0.000000
  0
VERTEX
  8
LAYER-1
 10
1.205423
 20
0.057204
 30
0.000000
  0
VERTEX
  8
LAYER-1
 10
1.209764
 20
0.054600
 30
0.000000
  0
SEQEND
  8
LAYER-1
  0
POLYLINE
  8
LAYER-1
 66
  1
 70
  1
 62
  0
 10
1.244485
 20
0.116665
 30
0.000000
  0
VERTEX
  8
LAYER-1
 10
1.244485
 20
0.116665
 30
0.000000
  0
VERTEX
  8
LAYER-1
 10
1.218444
 20
0.109721
 30
0.000000
  0
VERTEX
  8
LAYER-1
 10
1.232332
 20
0.084547
 30
0.000000
  0
SEQEND
  8
LAYER-1
  0
POLYLINE
  8
LAYER-1
 66
  1
 70
  0
 62
  0
 10
2.612368
 20
0.084372
 30
0.000000
  0
VERTEX
  8
LAYER-1
 10
2.612368
 20
0.084372
 30
0.000000
  0
VERTEX
  8
LAYER-1
 10
2.612368
 20
0.088713
 30
0.000000
  0
VERTEX
  8
LAYER-1
 10
2.608028
 20
0.092184
 30
0.000000
  0
VERTEX
  8
LAYER-1
 10
2.602820
 20
0.093052
 30
0.000000
  0
VERTEX
  8
LAYER-1
 10
2.598479
 20
0.091317
 30
0.000000
  0
VERTEX
  8
LAYER-1
 10
2.596743
 20
0.086977
 30
0.000000
  0
VERTEX
  8
LAYER-1
 10
2.596743
 20
0.082637
 30
0.000000
  0
VERTEX
  8
LAYER-1
 10
2.600215
 20
0.078295
 30
0.000000
  0
VERTEX
  8
LAYER-1
 10
2.604556
 20
0.078295
 30
0.000000
  0
VERTEX
  8
LAYER-1
 10
2.608897
 20
0.079164
 30
0.000000
  0
VERTEX
  8
LAYER-1
 10
2.611500
 20
0.083505
 30
0.000000
  0
SEQEND
  8
LAYER-1
  0
POLYLINE
  8
LAYER-1
 66
  1
 70
  1
 62
  0
 10
2.546396
 20
0.047481
 30
0.000000
  0
VERTEX
  8
LAYER-1
 10
2.546396
 20
0.047481
 30
0.000000
  0
VERTEX
  8
LAYER-1
 10
2.539451
 20
0.073522
 30
0.000000
  0
VERTEX
  8
LAYER-1
 10
2.514278
 20
0.059634
 30
0.000000
  0
SEQEND
  8
LAYER-1
  0
POLYLINE
  8
LAYER-1
 66
  1
 70
  1
 62
  0
 10
2.558548
 20
0.083939
 30
0.000000
  0
VERTEX
  8
LAYER-1
 10
2.558548
 20
0.083939
 30
0.000000
  0
VERTEX
  8
LAYER-1
 10
2.571569
 20
0.106509
 30
0.000000
  0
VERTEX
  8
LAYER-1
 10
2.541187
 20
0.085676
 30
0.000000
  0
SEQEND
  8
LAYER-1
  0
POLYLINE
  8
LAYER-1
 66
  1
 70
  0
 62
  0
 10
2.394747
 20
0.094789
 30
0.000000
  0
VERTEX
  8
LAYER-1
 10
2.394747
 20
0.094789
 30
0.000000
  0
VERTEX
  8
LAYER-1
 10
2.390406
 20
0.094789
 30
0.000000
  0
VERTEX
  8
LAYER-1
 10
2.386934
 20
0.090449
 30
0.000000
  0
VERTEX
  8
LAYER-1
 10
2.386066
 20
0.085241
 30
0.000000
  0
VERTEX
  8
LAYER-1
 10
2.387802
 20
0.080900
 30
0.000000
  0
VERTEX
  8
LAYER-1
 10
2.392143
 20
0.079164
 30
0.000000
  0
VERTEX
  8
LAYER-1
 10
2.396483
 20
0.079164
 30
0.000000
  0
VERTEX
  8
LAYER-1
 10
2.400823
 20
0.082637
 30
0.000000
  0
VERTEX
  8
LAYER-1
 10
2.400823
 20
0.086977
 30
0.000000
  0
VERTEX
  8
LAYER-1
 10
2.399956
 20
0.091318
 30
0.000000
  0
VERTEX
  8
LAYER-1
 10
2.395615
 20
0.093922
 30
0.000000
  0
SEQEND
  8
LAYER-1
  0
POLYLINE
  8
LAYER-1
 66
  1
 70
  1
 62
  0
 10
2.474608
 20
0.057463
 30
0.000000
  0
VERTEX
  8
LAYER-1
 10
2.474608
 20
0.057463
 30
0.000000
  0
VERTEX
  8
LAYER-1
 10
2.452037
 20
0.070485
 30
0.000000
  0
VERTEX
  8
LAYER-1
 10
2.472870
 20
0.040102
 30
0.000000
  0
SEQEND
  8
LAYER-1
  0
POLYLINE
  8
LAYER-1
 66
  1
 70
  1
 62
  0
 10
3.069579
 20
0.058313
 30
0.000000
  0
VERTEX
  8
LAYER-1
 10
3.069579
 20
0.058313
 30
0.000000
  0
VERTEX
  8
LAYER-1
 10
3.082600
 20
0.080884
 30
0.000000
  0
VERTEX
  8
LAYER-1
 10
3.052218
 20
0.060051
 30
0.000000
  0
SEQEND
  8
LAYER-1
  0
POLYLINE
  8
LAYER-1
 66
  1
 70
  1
 62
  0
 10
2.975129
 20
0.064727
 30
0.000000
  0
VERTEX
  8
LAYER-1
 10
2.975129
 20
0.064727
 30
0.000000
  0
VERTEX
  8
LAYER-1
 10
2.987815
 20
0.084090
 30
0.000000
  0
VERTEX
  8
LAYER-1
 10
2.976465
 20
0.090101
 30
0.000000
  0
SEQEND
  8
LAYER-1
  0
POLYLINE
  8
LAYER-1
 66
  1
 70
  0
 62
  0
 10
3.103434
 20
0.057447
 30
0.000000
  0
VERTEX
  8
LAYER-1
 10
3.103434
 20
0.057447
 30
0.000000
  0
VERTEX
  8
LAYER-1
 10
3.107775
 20
0.057447
 30
0.000000
  0
VERTEX
  8
LAYER-1
 10
3.111247
 20
0.061787
 30
0.000000
  0
VERTEX
  8
LAYER-1
 10
3.112115
 20
0.066995
 30
0.000000
  0
VERTEX
  8
LAYER-1
 10
3.110379
 20
0.071336
 30
0.000000
  0
VERTEX
  8
LAYER-1
 10
3.106038
 20
0.073072
 30
0.000000
  0
VERTEX
  8
LAYER-1
 10
3.101698
 20
0.073072
 30
0.000000
  0
VERTEX
  8
LAYER-1
 10
3.097358
 20
0.069600
 30
0.000000
  0
VERTEX
  8
LAYER-1
 10
3.097358
 20
0.065259
 30
0.000000
  0
VERTEX
  8
LAYER-1
 10
3.098226
 20
0.060918
 30
0.000000
  0
VERTEX
  8
LAYER-1
 10
3.102566
 20
0.058313
 30
0.000000
  0
SEQEND
  8
LAYER-1
  0
POLYLINE
  8
LAYER-1
 66
  1
 70
  0
 62
  0
 10
2.989718
 20
0.048763
 30
0.000000
  0
VERTEX
  8
LAYER-1
 10
2.989718
 20
0.048763
 30
0.000000
  0
VERTEX
  8
LAYER-1
 10
2.985377
 20
0.048763
 30
0.000000
  0
VERTEX
  8
LAYER-1
 10
2.981905
 20
0.044423
 30
0.000000
  0
VERTEX
  8
LAYER-1
 10
2.981037
 20
0.039215
 30
0.000000
  0
VERTEX
  8
LAYER-1
 10
2.982773
 20
0.034874
 30
0.000000
  0
VERTEX
  8
LAYER-1
 10
2.987114
 20
0.033138
 30
0.000000
  0
VERTEX
  8
LAYER-1
 10
2.991454
 20
0.033138
 30
0.000000
  0
VERTEX
  8
LAYER-1
 10
2.995794
 20
0.036610
 30
0.000000
  0
VERTEX
  8
LAYER-1
 10
2.995794
 20
0.040950
 30
0.000000
  0
VERTEX
  8
LAYER-1
 10
2.994926
 20
0.045291
 30
0.000000
  0
VERTEX
  8
LAYER-1
 10
2.990586
 20
0.047896
 30
0.000000
  0
SEQEND
  8
LAYER-1
  0
POLYLINE
  8
LAYER-1
 66
  1
 70
  1
 62
  0
 10
2.830771
 20
0.062064
 30
0.000000
  0
VERTEX
  8
LAYER-1
 10
2.830771
 20
0.062064
 30
0.000000
  0
VERTEX
  8
LAYER-1
 10
2.843792
 20
0.084635
 30
0.000000
  0
VERTEX
  8
LAYER-1
 10
2.813410
 20
0.063802
 30
0.000000
  0
SEQEND
  8
LAYER-1
  0
POLYLINE
  8
LAYER-1
 66
  1
 70
  0
 62
  0
 10
2.864627
 20
0.061197
 30
0.000000
  0
VERTEX
  8
LAYER-1
 10
2.864627
 20
0.061197
 30
0.000000
  0
VERTEX
  8
LAYER-1
 10
2.868967
 20
0.061197
 30
0.000000
  0
VERTEX
  8
LAYER-1
 10
2.872439
 20
0.065537
 30
0.000000
  0
VERTEX
  8
LAYER-1
 10
2.873307
 20
0.070746
 30
0.000000
  0
VERTEX
  8
LAYER-1
 10
2.871571
 20
0.075086
 30
0.000000
  0
VERTEX
  8
LAYER-1
 10
2.867231
 20
0.076822
 30
0.000000
  0
VERTEX
  8
LAYER-1
 10
2.862891
 20
0.076822
 30
0.000000
  0
VERTEX
  8
LAYER-1
 10
2.858550
 20
0.073350
 30
0.000000
  0
VERTEX
  8
LAYER-1
 10
2.858550
 20
0.069010
 30
0.000000
  0
VERTEX
  8
LAYER-1
 10
2.859418
 20
0.064668
 30
0.000000
  0
VERTEX
  8
LAYER-1
 10
2.863759
 20
0.062064
 30
0.000000
  0
SEQEND
  8
LAYER-1
  0
POLYLINE
  8
LAYER-1
 66
  1
 70
  1
 62
  0
 10
3.462889
 20
0.097135
 30
0.000000
  0
VERTEX
  8
LAYER-1
 10
3.462889
 20
0.097135
 30
0.000000
  0
VERTEX
  8
LAYER-1
 10
3.485459
 20
0.084113
 30
0.000000
  0
VERTEX
  8
LAYER-1
 10
3.464627
 20
0.114496
 30
0.000000
  0
SEQEND
  8
LAYER-1
  0
POLYLINE
  8
LAYER-1
 66
  1
 70
  0
 62
  0
 10
3.462022
 20
0.063279
 30
0.000000
  0
VERTEX
  8
LAYER-1
 10
3.462022
 20
0.063279
 30
0.000000
  0
VERTEX
  8
LAYER-1
 10
3.462022
 20
0.058938
 30
0.000000
  0
VERTEX
  8
LAYER-1
 10
3.466362
 20
0.055467
 30
0.000000
  0
VERTEX
  8
LAYER-1
 10
3.471570
 20
0.054598
 30
0.000000
  0
VERTEX
  8
LAYER-1
 10
3.475911
 20
0.056335
 30
0.000000
  0
VERTEX
  8
LAYER-1
 10
3.477647
 20
0.060675
 30
0.000000
  0
VERTEX
  8
LAYER-1
 10
3.477647
 20
0.065015
 30
0.000000
  0
VERTEX
  8
LAYER-1
 10
3.474175
 20
0.069355
 30
0.000000
  0
VERTEX
  8
LAYER-1
 10
3.469834
 20
0.069355
 30
0.000000
  0
VERTEX
  8
LAYER-1
 10
3.465493
 20
0.068487
 30
0.000000
  0
VERTEX
  8
LAYER-1
 10
3.462889
 20
0.064147
 30
0.000000
  0
SEQEND
  8
LAYER-1
  0
POLYLINE
  8
LAYER-1
 66
  1
 70
  1
 62
  0
 10
4.012367
 20
0.129164
 30
0.000000
  0
VERTEX
  8
LAYER-1
 10
4.012367
 20
0.129164
 30
0.000000
  0
VERTEX
  8
LAYER-1
 10
4.019312
 20
0.103123
 30
0.000000
  0
VERTEX
  8
LAYER-1
 10
4.044485
 20
0.117011
 30
0.000000
  0
SEQEND
  8
LAYER-1
  0
POLYLINE
  8
LAYER-1
 66
  1
 70
  1
 62
  0
 10
3.984154
 20
0.092270
 30
0.000000
  0
VERTEX
  8
LAYER-1
 10
3.984154
 20
0.092270
 30
0.000000
  0
VERTEX
  8
LAYER-1
 10
4.006724
 20
0.079250
 30
0.000000
  0
VERTEX
  8
LAYER-1
 10
3.985891
 20
0.109631
 30
0.000000
  0
SEQEND
  8
LAYER-1
  0
POLYLINE
  8
LAYER-1
 66
  1
 70
  1
 62
  0
 10
4.100808
 20
0.084290
 30
0.000000
  0
VERTEX
  8
LAYER-1
 10
4.100808
 20
0.084290
 30
0.000000
  0
VERTEX
  8
LAYER-1
 10
4.120173
 20
0.071603
 30
0.000000
  0
VERTEX
  8
LAYER-1
 10
4.126183
 20
0.082954
 30
0.000000
  0
SEQEND
  8
LAYER-1
  0
POLYLINE
  8
LAYER-1
 66
  1
 70
  0
 62
  0
 10
4.045354
 20
0.090098
 30
0.000000
  0
VERTEX
  8
LAYER-1
 10
4.045354
 20
0.090098
 30
0.000000
  0
VERTEX
  8
LAYER-1
 10
4.041013
 20
0.090098
 30
0.000000
  0
VERTEX
  8
LAYER-1
 10
4.037541
 20
0.085757
 30
0.000000
  0
VERTEX
  8
LAYER-1
 10
4.036673
 20
0.080549
 30
0.000000
  0
VERTEX
  8
LAYER-1
 10
4.038409
 20
0.076209
 30
0.000000
  0
VERTEX
  8
LAYER-1
 10
4.042749
 20
0.074473
 30
0.000000
  0
VERTEX
  8
LAYER-1
 10
4.047090
 20
0.074473
 30
0.000000
  0
VERTEX
  8
LAYER-1
 10
4.051431
 20
0.077944
 30
0.000000
  0
VERTEX
  8
LAYER-1
 10
4.051431
 20
0.082286
 30
0.000000
  0
VERTEX
  8
LAYER-1
 10
4.050562
 20
0.086626
 30
0.000000
  0
VERTEX
  8
LAYER-1
 10
4.046222
 20
0.089230
 30
0.000000
  0
SEQEND
  8
LAYER-1
  0
POLYLINE
  8
LAYER-1
 66
  1
 70
  0
 62
  0
 10
3.929902
 20
0.067529
 30
0.000000
  0
VERTEX
  8
LAYER-1
 10
3.929902
 20
0.067529
 30
0.000000
  0
VERTEX
  8
LAYER-1
 10
3.934243
 20
0.067529
 30
0.000000
  0
VERTEX
  8
LAYER-1
 10
3.937715
 20
0.071870
 30
0.000000
  0
VERTEX
  8
LAYER-1
 10
3.938584
 20
0.077078
 30
0.000000
  0
VERTEX
  8
LAYER-1
 10
3.936848
 20
0.081418
 30
0.000000
  0
VERTEX
  8
LAYER-1
 10
3.932507
 20
0.083154
 30
0.000000
  0
VERTEX
  8
LAYER-1
 10
3.928166
 20
0.083154
 30
0.000000
  0
VERTEX
  8
LAYER-1
 10
3.923826
 20
0.079682
 30
0.000000
  0
VERTEX
  8
LAYER-1
 10
3.923826
 20
0.075342
 30
0.000000
  0
VERTEX
  8
LAYER-1
 10
3.924694
 20
0.071001
 30
0.000000
  0
VERTEX
  8
LAYER-1
 10
3.929035
 20
0.068397
 30
0.000000
  0
SEQEND
  8
LAYER-1
  0
POLYLINE
  8
LAYER-1
 66
  1
 70
  1
 62
  0
 10
4.416548
 20
0.037843
 30
0.000000
  0
VERTEX
  8
LAYER-1
 10
4.416548
 20
0.037843
 30
0.000000
  0
VERTEX
  8
LAYER-1
 10
4.409604
 20
0.063883
 30
0.000000
  0
VERTEX
  8
LAYER-1
 10
4.384430
 20
0.049995
 30
0.000000
  0
SEQEND
  8
LAYER-1
  0
POLYLINE
  8
LAYER-1
 66
  1
 70
  1
 62
  0
 10
4.444761
 20
0.074737
 30
0.000000
  0
VERTEX
  8
LAYER-1
 10
4.444761
 20
0.074737
 30
0.000000
  0
VERTEX
  8
LAYER-1
 10
4.422192
 20
0.087757
 30
0.000000
  0
VERTEX
  8
LAYER-1
 10
4.443024
 20
0.057376
 30
0.000000
  0
SEQEND
  8
LAYER-1
  0
POLYLINE
  8
LAYER-1
 66
  1
 70
  1
 62
  0
 10
4.328107
 20
0.082716
 30
0.000000
  0
VERTEX
  8
LAYER-1
 10
4.328107
 20
0.082716
 30
0.000000
  0
VERTEX
  8
LAYER-1
 10
4.308742
 20
0.095404
 30
0.000000
  0
VERTEX
  8
LAYER-1
 10
4.302732
 20
0.084052
 30
0.000000
  0
SEQEND
  8
LAYER-1
  0
POLYLINE
  8
LAYER-1
 66
  1
 70
  0
 62
  0
 10
4.383561
 20
0.076909
 30
0.000000
  0
VERTEX
  8
LAYER-1
 10
4.383561
 20
0.076909
 30
0.000000
  0
VERTEX
  8
LAYER-1
 10
4.387902
 20
0.076909
 30
0.000000
  0
VERTEX
  8
LAYER-1
 10
4.391374
 20
0.081250
 30
0.000000
  0
VERTEX
  8
LAYER-1
 10
4.392242
 20
0.086457
 30
0.000000
  0
VERTEX
  8
LAYER-1
 10
4.390506
 20
0.090797
 30
0.000000
  0
VERTEX
  8
LAYER-1
 10
4.386166
 20
0.092534
 30
0.000000
  0
VERTEX
  8
LAYER-1
 10
4.381826
 20
0.092534
 30
0.000000
  0
VERTEX
  8
LAYER-1
 10
4.377485
 20
0.089062
 30
0.000000
  0
VERTEX
  8
LAYER-1
 10
4.377485
 20
0.084721
 30
0.000000
  0
VERTEX
  8
LAYER-1
 10
4.378354
 20
0.080381
 30
0.000000
  0
VERTEX
  8
LAYER-1
 10
4.382694
 20
0.077777
 30
0.000000
  0
SEQEND
  8
LAYER-1
  0
POLYLINE
  8
LAYER-1
 66
  1
 70
  0
 62
  0
 10
4.499013
 20
0.099477
 30
0.000000
  0
VERTEX
  8
LAYER-1
 10
4.499013
 20
0.099477
 30
0.000000
  0
VERTEX
  8
LAYER-1
 10
4.494673
 20
0.099477
 30
0.000000
  0
VERTEX
  8
LAYER-1
 10
4.491201
 20
0.095137
 30
0.000000
  0
VERTEX
  8
LAYER-1
 10
4.490332
 20
0.089929
 30
0.000000
  0
VERTEX
  8
LAYER-1
 10
4.492068
 20
0.085588
 30
0.000000
  0
VERTEX
  8
LAYER-1
 10
4.496408
 20
0.083852
 30
0.000000
  0
VERTEX
  8
LAYER-1
 10
4.500749
 20
0.083852
 30
0.000000
  0
VERTEX
  8
LAYER-1
 10
4.505090
 20
0.087324
 30
0.000000
  0
VERTEX
  8
LAYER-1
 10
4.505090
 20
0.091665
 30
0.000000
  0
VERTEX
  8
LAYER-1
 10
4.504221
 20
0.096006
 30
0.000000
  0
VERTEX
  8
LAYER-1
 10
4.499880
 20
0.098610
 30
0.000000
  0
SEQEND
  8
LAYER-1
  0
POLYLINE
  8
LAYER-1
 66
  1
 70
  1
 62
  0
 10
4.668892
 20
0.021436
 30
0.000000
  0
VERTEX
  8
LAYER-1
 10
4.668892
 20
0.021436
 30
0.000000
  0
VERTEX
  8
LAYER-1
 10
4.661948
 20
0.047477
 30
0.000000
  0
VERTEX
  8
LAYER-1
 10
4.636774
 20
0.033589
 30
0.000000
  0
SEQEND
  8
LAYER-1
  0
POLYLINE
  8
LAYER-1
 66
  1
 70
  1
 62
  0
 10
4.697105
 20
0.058330
 30
0.000000
  0
VERTEX
  8
LAYER-1
 10
4.697105
 20
0.058330
 30
0.000000
  0
VERTEX
  8
LAYER-1
 10
4.674536
 20
0.071350
 30
0.000000
  0
VERTEX
  8
LAYER-1
 10
4.695368
 20
0.040969
 30
0.000000
  0
SEQEND
  8
LAYER-1
  0
POLYLINE
  8
LAYER-1
 66
  1
 70
  1
 62
  0
 10
4.580451
 20
0.066310
 30
0.000000
  0
VERTEX
  8
LAYER-1
 10
4.580451
 20
0.066310
 30
0.000000
  0
VERTEX
  8
LAYER-1
 10
4.561086
 20
0.078997
 30
0.000000
  0
VERTEX
  8
LAYER-1
 10
4.555076
 20
0.067646
 30
0.000000
  0
SEQEND
  8
LAYER-1
  0
POLYLINE
  8
LAYER-1
 66
  1
 70
  0
 62
  0
 10
4.635905
 20
0.060502
 30
0.000000
  0
VERTEX
  8
LAYER-1
 10
4.635905
 20
0.060502
 30
0.000000
  0
VERTEX
  8
LAYER-1
 10
4.640246
 20
0.060502
 30
0.000000
  0
VERTEX
  8
LAYER-1
 10
4.643718
 20
0.064843
 30
0.000000
  0
VERTEX
  8
LAYER-1
 10
4.644586
 20
0.070051
 30
0.000000
  0
VERTEX
  8
LAYER-1
 10
4.642850
 20
0.074391
 30
0.000000
  0
VERTEX
  8
LAYER-1
 10
4.638510
 20
0.076127
 30
0.000000
  0
VERTEX
  8
LAYER-1
 10
4.634170
 20
0.076127
 30
0.000000
  0
VERTEX
  8
LAYER-1
 10
4.629829
 20
0.072656
 30
0.000000
  0
VERTEX
  8
LAYER-1
 10
4.629829
 20
0.068314
 30
0.000000
  0
VERTEX
  8
LAYER-1
 10
4.630698
 20
0.063974
 30
0.000000
  0
VERTEX
  8
LAYER-1
 10
4.635038
 20
0.061370
 30
0.000000
  0
SEQEND
  8
LAYER-1
  0
POLYLINE
  8
LAYER-1
 66
  1
 70
  0
 62
  0
 10
4.751357
 20
0.083071
 30
0.000000
  0
VERTEX
  8
LAYER-1
 10
4.751357
 20
0.083071
 30
0.000000
  0
VERTEX
  8
LAYER-1
 10
4.747016
 20
0.083071
 30
0.000000
  0
VERTEX
  8
LAYER-1
 10
4.743545
 20
0.078730
 30
0.000000
  0
VERTEX
  8
LAYER-1
 10
4.742676
 20
0.073522
 30
0.000000
  0
VERTEX
  8
LAYER-1
 10
4.744411
 20
0.069182
 30
0.000000
  0
VERTEX
  8
LAYER-1
 10
4.748752
 20
0.067446
 30
0.000000
  0
VERTEX
  8
LAYER-1
 10
4.753093
 20
0.067446
 30
0.000000
  0
VERTEX
  8
LAYER-1
 10
4.757434
 20
0.070918
 30
0.000000
  0
VERTEX
  8
LAYER-1
 10
4.757434
 20
0.075258
 30
0.000000
  0
VERTEX
  8
LAYER-1
 10
4.756565
 20
0.079599
 30
0.000000
  0
VERTEX
  8
LAYER-1
 10
4.752224
 20
0.082203
 30
0.000000
  0
SEQEND
  8
LAYER-1
  0
POLYLINE
  8
LAYER-1
 66
  1
 70
  1
 62
  0
 10
4.889451
 20
0.120485
 30
0.000000
  0
VERTEX
  8
LAYER-1
 10
4.889451
 20
0.120485
 30
0.000000
  0
VERTEX
  8
LAYER-1
 10
4.896396
 20
0.094443
 30
0.000000
  0
VERTEX
  8
LAYER-1
 10
4.921569
 20
0.108331
 30
0.000000
  0
SEQEND
  8
LAYER-1
  0
POLYLINE
  8
LAYER-1
 66
  1
 70
  1
 62
  0
 10
4.861239
 20
0.083591
 30
0.000000
  0
VERTEX
  8
LAYER-1
 10
4.861239
 20
0.083591
 30
0.000000
  0
VERTEX
  8
LAYER-1
 10
4.883808
 20
0.070570
 30
0.000000
  0
VERTEX
  8
LAYER-1
 10
4.862976
 20
0.100951
 30
0.000000
  0
SEQEND
  8
LAYER-1
  0
POLYLINE
  8
LAYER-1
 66
  1
 70
  0
 62
  0
 10
4.806986
 20
0.058850
 30
0.000000
  0
VERTEX
  8
LAYER-1
 10
4.806986
 20
0.058850
 30
0.000000
  0
VERTEX
  8
LAYER-1
 10
4.811327
 20
0.058850
 30
0.000000
  0
VERTEX
  8
LAYER-1
 10
4.814799
 20
0.063191
 30
0.000000
  0
VERTEX
  8
LAYER-1
 10
4.815668
 20
0.068398
 30
0.000000
  0
VERTEX
  8
LAYER-1
 10
4.813932
 20
0.072739
 30
0.000000
  0
VERTEX
  8
LAYER-1
 10
4.809592
 20
0.074475
 30
0.000000
  0
VERTEX
  8
LAYER-1
 10
4.805251
 20
0.074475
 30
0.000000
  0
VERTEX
  8
LAYER-1
 10
4.800910
 20
0.071003
 30
0.000000
  0
VERTEX
  8
LAYER-1
 10
4.800910
 20
0.066662
 30
0.000000
  0
VERTEX
  8
LAYER-1
 10
4.801779
 20
0.062322
 30
0.000000
  0
VERTEX
  8
LAYER-1
 10
4.806120
 20
0.059717
 30
0.000000
  0
SEQEND
  8
LAYER-1
  0
POLYLINE
  8
LAYER-1
 66
  1
 70
  1
 62
  0
 10
5.442574
 20
0.232602
 30
0.000000
  0
VERTEX
  8
LAYER-1
 10
5.442574
 20
0.232602
 30
0.000000
  0
VERTEX
  8
LAYER-1
 10
5.449518
 20
0.206562
 30
0.000000
  0
VERTEX
  8
LAYER-1
 10
5.474692
 20
0.220449
 30
0.000000
  0
SEQEND
  8
LAYER-1
  0
POLYLINE
  8
LAYER-1
 66
  1
 70
  1
 62
  0
 10
5.455683
 20
0.187463
 30
0.000000
  0
VERTEX
  8
LAYER-1
 10
5.455683
 20
0.187463
 30
0.000000
  0
VERTEX
  8
LAYER-1
 10
5.442662
 20
0.164892
 30
0.000000
  0
VERTEX
  8
LAYER-1
 10
5.473044
 20
0.185725
 30
0.000000
  0
SEQEND
  8
LAYER-1
  0
POLYLINE
  8
LAYER-1
 66
  1
 70
  1
 62
  0
 10
5.147176
 20
0.155986
 30
0.000000
  0
VERTEX
  8
LAYER-1
 10
5.147176
 20
0.155986
 30
0.000000
  0
VERTEX
  8
LAYER-1
 10
5.140233
 20
0.182026
 30
0.000000
  0
VERTEX
  8
LAYER-1
 10
5.115059
 20
0.168139
 30
0.000000
  0
SEQEND
  8
LAYER-1
  0
POLYLINE
  8
LAYER-1
 66
  1
 70
  1
 62
  0
 10
5.134067
 20
0.201125
 30
0.000000
  0
VERTEX
  8
LAYER-1
 10
5.134067
 20
0.201125
 30
0.000000
  0
VERTEX
  8
LAYER-1
 10
5.147089
 20
0.223696
 30
0.000000
  0
VERTEX
  8
LAYER-1
 10
5.116706
 20
0.202863
 30
0.000000
  0
SEQEND
  8
LAYER-1
  0
POLYLINE
  8
LAYER-1
 66
  1
 70
  1
 62
  0
 10
5.651950
 20
0.058157
 30
0.000000
  0
VERTEX
  8
LAYER-1
 10
5.651950
 20
0.058157
 30
0.000000
  0
VERTEX
  8
LAYER-1
 10
5.677990
 20
0.065102
 30
0.000000
  0
VERTEX
  8
LAYER-1
 10
5.664103
 20
0.090276
 30
0.000000
  0
SEQEND
  8
LAYER-1
  0
POLYLINE
  8
LAYER-1
 66
  1
 70
  1
 62
  0
 10
5.697089
 20
0.071265
 30
0.000000
  0
VERTEX
  8
LAYER-1
 10
5.697089
 20
0.071265
 30
0.000000
  0
VERTEX
  8
LAYER-1
 10
5.719659
 20
0.058245
 30
0.000000
  0
VERTEX
  8
LAYER-1
 10
5.698827
 20
0.088626
 30
0.000000
  0
SEQEND
  8
LAYER-1
  0
ARC
  8
LAYER-1
 62
  0
 10
5.452374
 20
8.919939
 30
0.000000
 40
0.254425
 50
270.000000
 51
90.000000
  0
POLYLINE
  8
LAYER-1
 66
  1
 70
  0
 62
  0
 10
5.452374
 20
9.174364
 30
0.000000
  0
VERTEX
  8
LAYER-1
 10
5.452374
 20
9.174364
 30
0.000000
  0
VERTEX
  8
LAYER-1
 10
1.787451
 20
9.174364
 30
0.000000
  0
SEQEND
  8
LAYER-1
  0
POLYLINE
  8
LAYER-1
 66
  1
 70
  0
 62
  0
 10
1.787451
 20
9.174364
 30
0.000000
  0
VERTEX
  8
LAYER-1
 10
1.787451
 20
9.174364
 30
0.000000
  0
VERTEX
  8
LAYER-1
 10
1.787451
 20
8.665515
 30
0.000000
  0
SEQEND
  8
LAYER-1
  0
POLYLINE
  8
LAYER-1
 66
  1
 70
  0
 62
  0
 10
5.452374
 20
8.665515
 30
0.000000
  0
VERTEX
  8
LAYER-1
 10
5.452374
 20
8.665515
 30
0.000000
  0
VERTEX
  8
LAYER-1
 10
1.787451
 20
8.665515
 30
0.000000
  0
SEQEND
  8
LAYER-1
  0
TEXT
  8
LAYER-1
 62
  0
 10
3.597982
 20
9.461171
 30
0.000000
 40
0.333333
  1
MobilFlex
 72
  5
 11
5.750760
 21
9.461171
 31
0.000000
  0
POLYLINE
  8
LAYER-1
 66
  1
 70
  1
 62
  0
  0
VERTEX
  8
LAYER-1
 10
1.788955
 20
9.981146
 30
0.000000
  0
VERTEX
  8
LAYER-1
 10
2.026802
 20
9.981146
 30
0.000000
  0
VERTEX
  8
LAYER-1
 10
2.026802
 20
9.464201
 30
0.000000
  0
VERTEX
  8
LAYER-1
 10
1.788955
 20
9.464201
 30
0.000000
  0
SEQEND
  8
LAYER-1
  0
POLYLINE
  8
LAYER-1
 66
  1
 70
  1
 62
  0
  0
VERTEX
  8
LAYER-1
 10
2.101455
 20
9.981146
 30
0.000000
  0
VERTEX
  8
LAYER-1
 10
2.339302
 20
9.981146
 30
0.000000
  0
VERTEX
  8
LAYER-1
 10
2.339302
 20
9.464201
 30
0.000000
  0
VERTEX
  8
LAYER-1
 10
2.101455
 20
9.464201
 30
0.000000
  0
SEQEND
  8
LAYER-1
  0
POLYLINE
  8
LAYER-1
 66
  1
 70
  1
 62
  0
  0
VERTEX
  8
LAYER-1
 10
2.401802
 20
9.981146
 30
0.000000
  0
VERTEX
  8
LAYER-1
 10
2.639649
 20
9.981146
 30
0.000000
  0
VERTEX
  8
LAYER-1
 10
2.639649
 20
9.464201
 30
0.000000
  0
VERTEX
  8
LAYER-1
 10
2.401802
 20
9.464201
 30
0.000000
  0
SEQEND
  8
LAYER-1
  0
POLYLINE
  8
LAYER-1
 66
  1
 70
  1
 62
  0
  0
VERTEX
  8
LAYER-1
 10
2.705621
 20
9.981146
 30
0.000000
  0
VERTEX
  8
LAYER-1
 10
2.943469
 20
9.981146
 30
0.000000
  0
VERTEX
  8
LAYER-1
 10
2.943469
 20
9.464201
 30
0.000000
  0
VERTEX
  8
LAYER-1
 10
2.705621
 20
9.464201
 30
0.000000
  0
SEQEND
  8
LAYER-1
  0
POLYLINE
  8
LAYER-1
 66
  1
 70
  1
 62
  0
  0
VERTEX
  8
LAYER-1
 10
3.022462
 20
9.977230
 30
0.000000
  0
VERTEX
  8
LAYER-1
 10
3.397896
 20
9.977230
 30
0.000000
  0
VERTEX
  8
LAYER-1
 10
3.397896
 20
9.839210
 30
0.000000
  0
VERTEX
  8
LAYER-1
 10
3.022462
 20
9.839210
 30
0.000000
  0
SEQEND
  8
LAYER-1
  0
POLYLINE
  8
LAYER-1
 66
  1
 70
  1
 62
  0
  0
VERTEX
  8
LAYER-1
 10
3.022028
 20
9.749800
 30
0.000000
  0
VERTEX
  8
LAYER-1
 10
3.330187
 20
9.749800
 30
0.000000
  0
VERTEX
  8
LAYER-1
 10
3.330187
 20
9.615685
 30
0.000000
  0
VERTEX
  8
LAYER-1
 10
3.022028
 20
9.615685
 30
0.000000
  0
SEQEND
  8
LAYER-1
  0
POLYLINE
  8
LAYER-1
 66
  1
 70
  1
 62
  0
  0
VERTEX
  8
LAYER-1
 10
1.788955
 20
9.379574
 30
0.000000
  0
VERTEX
  8
LAYER-1
 10
5.707358
 20
9.379574
 30
0.000000
  0
VERTEX
  8
LAYER-1
 10
5.707358
 20
9.336171
 30
0.000000
  0
VERTEX
  8
LAYER-1
 10
1.788955
 20
9.336171
 30
0.000000
  0
SEQEND
  8
LAYER-1
  0
POLYLINE
  8
LAYER-1
 66
  1
 70
  1
 62
  0
  0
VERTEX
  8
LAYER-1
 10
3.422013
 20
7.144101
 30
0.000000
  0
VERTEX
  8
LAYER-1
 10
3.448922
 20
7.144101
 30
0.000000
  0
VERTEX
  8
LAYER-1
 10
3.448922
 20
0.616549
 30
0.000000
  0
VERTEX
  8
LAYER-1
 10
3.422013
 20
0.616549
 30
0.000000
  0
SEQEND
  8
LAYER-1
  0
POLYLINE
  8
LAYER-1
 66
  1
 70
  1
 62
  0
  0
VERTEX
  8
LAYER-1
 10
3.621738
 20
7.144026
 30
0.000000
  0
VERTEX
  8
LAYER-1
 10
3.657689
 20
7.144026
 30
0.000000
  0
VERTEX
  8
LAYER-1
 10
3.657689
 20
0.616747
 30
0.000000
  0
VERTEX
  8
LAYER-1
 10
3.621738
 20
0.616747
 30
0.000000
  0
SEQEND
  8
LAYER-1
  0
POLYLINE
  8
LAYER-1
 66
  1
 70
  1
 62
  0
  0
VERTEX
  8
LAYER-1
 10
3.014617
 20
7.144101
 30
0.000000
  0
VERTEX
  8
LAYER-1
 10
3.041526
 20
7.144101
 30
0.000000
  0
VERTEX
  8
LAYER-1
 10
3.041526
 20
0.616549
 30
0.000000
  0
VERTEX
  8
LAYER-1
 10
3.014617
 20
0.616549
 30
0.000000
  0
SEQEND
  8
LAYER-1
  0
POLYLINE
  8
LAYER-1
 66
  1
 70
  1
 62
  0
  0
VERTEX
  8
LAYER-1
 10
3.213474
 20
7.144026
 30
0.000000
  0
VERTEX
  8
LAYER-1
 10
3.249424
 20
7.144026
 30
0.000000
  0
VERTEX
  8
LAYER-1
 10
3.249424
 20
0.616747
 30
0.000000
  0
VERTEX
  8
LAYER-1
 10
3.213474
 20
0.616747
 30
0.000000
  0
SEQEND
  8
LAYER-1
  0
POLYLINE
  8
LAYER-1
 66
  1
 70
  1
 62
  0
  0
VERTEX
  8
LAYER-1
 10
2.607653
 20
7.144101
 30
0.000000
  0
VERTEX
  8
LAYER-1
 10
2.634562
 20
7.144101
 30
0.000000
  0
VERTEX
  8
LAYER-1
 10
2.634562
 20
0.616549
 30
0.000000
  0
VERTEX
  8
LAYER-1
 10
2.607653
 20
0.616549
 30
0.000000
  0
SEQEND
  8
LAYER-1
  0
POLYLINE
  8
LAYER-1
 66
  1
 70
  1
 62
  0
  0
VERTEX
  8
LAYER-1
 10
2.806945
 20
7.144026
 30
0.000000
  0
VERTEX
  8
LAYER-1
 10
2.842896
 20
7.144026
 30
0.000000
  0
VERTEX
  8
LAYER-1
 10
2.842896
 20
0.616747
 30
0.000000
  0
VERTEX
  8
LAYER-1
 10
2.806945
 20
0.616747
 30
0.000000
  0
SEQEND
  8
LAYER-1
  0
POLYLINE
  8
LAYER-1
 66
  1
 70
  1
 62
  0
  0
VERTEX
  8
LAYER-1
 10
2.198087
 20
7.144101
 30
0.000000
  0
VERTEX
  8
LAYER-1
 10
2.224996
 20
7.144101
 30
0.000000
  0
VERTEX
  8
LAYER-1
 10
2.224996
 20
0.616549
 30
0.000000
  0
VERTEX
  8
LAYER-1
 10
2.198087
 20
0.616549
 30
0.000000
  0
SEQEND
  8
LAYER-1
  0
POLYLINE
  8
LAYER-1
 66
  1
 70
  1
 62
  0
  0
VERTEX
  8
LAYER-1
 10
2.398681
 20
7.144026
 30
0.000000
  0
VERTEX
  8
LAYER-1
 10
2.434632
 20
7.144026
 30
0.000000
  0
VERTEX
  8
LAYER-1
 10
2.434632
 20
0.616747
 30
0.000000
  0
VERTEX
  8
LAYER-1
 10
2.398681
 20
0.616747
 30
0.000000
  0
SEQEND
  8
LAYER-1
  0
POLYLINE
  8
LAYER-1
 66
  1
 70
  1
 62
  0
  0
VERTEX
  8
LAYER-1
 10
1.787220
 20
7.144101
 30
0.000000
  0
VERTEX
  8
LAYER-1
 10
1.814130
 20
7.144101
 30
0.000000
  0
VERTEX
  8
LAYER-1
 10
1.814130
 20
0.616549
 30
0.000000
  0
VERTEX
  8
LAYER-1
 10
1.787220
 20
0.616549
 30
0.000000
  0
SEQEND
  8
LAYER-1
  0
POLYLINE
  8
LAYER-1
 66
  1
 70
  1
 62
  0
  0
VERTEX
  8
LAYER-1
 10
1.989115
 20
7.144026
 30
0.000000
  0
VERTEX
  8
LAYER-1
 10
2.025066
 20
7.144026
 30
0.000000
  0
VERTEX
  8
LAYER-1
 10
2.025066
 20
0.616747
 30
0.000000
  0
VERTEX
  8
LAYER-1
 10
1.989115
 20
0.616747
 30
0.000000
  0
SEQEND
  8
LAYER-1
  0
POLYLINE
  8
LAYER-1
 66
  1
 70
  1
 62
  0
 10
3.660255
 20
0.345082
 30
0.000000
  0
VERTEX
  8
LAYER-1
 10
3.660255
 20
0.345082
 30
0.000000
  0
VERTEX
  8
LAYER-1
 10
1.764337
 20
0.345183
 30
0.000000
  0
VERTEX
  8
LAYER-1
 10
1.764337
 20
0.616716
 30
0.000000
  0
VERTEX
  8
LAYER-1
 10
3.660255
 20
0.616832
 30
0.000000
  0
SEQEND
  8
LAYER-1
  0
POLYLINE
  8
LAYER-1
 66
  1
 70
  0
 62
  0
 10
3.660473
 20
0.412989
 30
0.000000
  0
VERTEX
  8
LAYER-1
 10
3.660473
 20
0.412989
 30
0.000000
  0
VERTEX
  8
LAYER-1
 10
3.620747
 20
0.412989
 30
0.000000
  0
SEQEND
  8
LAYER-1
  0
POLYLINE
  8
LAYER-1
 66
  1
 70
  0
 62
  0
 10
3.660473
 20
0.542899
 30
0.000000
  0
VERTEX
  8
LAYER-1
 10
3.660473
 20
0.542899
 30
0.000000
  0
VERTEX
  8
LAYER-1
 10
3.620747
 20
0.542899
 30
0.000000
  0
SEQEND
  8
LAYER-1
  0
POLYLINE
  8
LAYER-1
 66
  1
 70
  0
 62
  0
 10
3.622118
 20
0.339938
 30
0.000000
  0
VERTEX
  8
LAYER-1
 10
3.622118
 20
0.339938
 30
0.000000
  0
VERTEX
  8
LAYER-1
 10
3.635290
 20
0.332890
 30
0.000000
  0
VERTEX
  8
LAYER-1
 10
3.652370
 20
0.337221
 30
0.000000
  0
VERTEX
  8
LAYER-1
 10
3.659022
 20
0.339935
 30
0.000000
  0
SEQEND
  8
LAYER-1
  0
POLYLINE
  8
LAYER-1
 66
  1
 70
  1
 62
  0
  0
VERTEX
  8
LAYER-1
 10
3.666225
 20
0.339314
 30
0.000000
  0
VERTEX
  8
LAYER-1
 10
3.611610
 20
0.339314
 30
0.000000
  0
VERTEX
  8
LAYER-1
 10
3.611610
 20
0.345219
 30
0.000000
  0
VERTEX
  8
LAYER-1
 10
3.666225
 20
0.345219
 30
0.000000
  0
SEQEND
  8
LAYER-1
  0
POLYLINE
  8
LAYER-1
 66
  1
 70
  1
 62
  0
 10
3.660049
 20
7.415648
 30
0.000000
  0
VERTEX
  8
LAYER-1
 10
3.660049
 20
7.415648
 30
0.000000
  0
VERTEX
  8
LAYER-1
 10
1.763696
 20
7.415547
 30
0.000000
  0
VERTEX
  8
LAYER-1
 10
1.763696
 20
7.144014
 30
0.000000
  0
VERTEX
  8
LAYER-1
 10
3.660049
 20
7.143897
 30
0.000000
  0
SEQEND
  8
LAYER-1
  0
POLYLINE
  8
LAYER-1
 66
  1
 70
  0
 62
  0
 10
3.398759
 20
7.415648
 30
0.000000
  0
VERTEX
  8
LAYER-1
 10
3.398759
 20
7.415648
 30
0.000000
  0
VERTEX
  8
LAYER-1
 10
3.398759
 20
7.144016
 30
0.000000
  0
SEQEND
  8
LAYER-1
  0
POLYLINE
  8
LAYER-1
 66
  1
 70
  0
 62
  0
 10
3.068262
 20
7.144016
 30
0.000000
  0
VERTEX
  8
LAYER-1
 10
3.068262
 20
7.144016
 30
0.000000
  0
VERTEX
  8
LAYER-1
 10
3.068262
 20
7.415648
 30
0.000000
  0
SEQEND
  8
LAYER-1
  0
POLYLINE
  8
LAYER-1
 66
  1
 70
  0
 62
  0
 10
2.255431
 20
7.144016
 30
0.000000
  0
VERTEX
  8
LAYER-1
 10
2.255431
 20
7.144016
 30
0.000000
  0
VERTEX
  8
LAYER-1
 10
2.255431
 20
7.415648
 30
0.000000
  0
SEQEND
  8
LAYER-1
  0
POLYLINE
  8
LAYER-1
 66
  1
 70
  0
 62
  0
 10
2.436598
 20
7.415687
 30
0.000000
  0
VERTEX
  8
LAYER-1
 10
2.436598
 20
7.415687
 30
0.000000
  0
VERTEX
  8
LAYER-1
 10
2.436598
 20
7.144058
 30
0.000000
  0
SEQEND
  8
LAYER-1
  0
POLYLINE
  8
LAYER-1
 66
  1
 70
  0
 62
  0
 10
2.396739
 20
7.415687
 30
0.000000
  0
VERTEX
  8
LAYER-1
 10
2.396739
 20
7.415687
 30
0.000000
  0
VERTEX
  8
LAYER-1
 10
2.396739
 20
7.144058
 30
0.000000
  0
SEQEND
  8
LAYER-1
  0
POLYLINE
  8
LAYER-1
 66
  1
 70
  0
 62
  0
 10
3.250616
 20
7.415687
 30
0.000000
  0
VERTEX
  8
LAYER-1
 10
3.250616
 20
7.415687
 30
0.000000
  0
VERTEX
  8
LAYER-1
 10
3.250616
 20
7.144058
 30
0.000000
  0
SEQEND
  8
LAYER-1
  0
POLYLINE
  8
LAYER-1
 66
  1
 70
  0
 62
  0
 10
3.211799
 20
7.415687
 30
0.000000
  0
VERTEX
  8
LAYER-1
 10
3.211799
 20
7.415687
 30
0.000000
  0
VERTEX
  8
LAYER-1
 10
3.211799
 20
7.144058
 30
0.000000
  0
SEQEND
  8
LAYER-1
  0
POLYLINE
  8
LAYER-1
 66
  1
 70
  0
 62
  0
 10
2.983940
 20
7.415648
 30
0.000000
  0
VERTEX
  8
LAYER-1
 10
2.983940
 20
7.415648
 30
0.000000
  0
VERTEX
  8
LAYER-1
 10
2.983940
 20
7.144016
 30
0.000000
  0
SEQEND
  8
LAYER-1
  0
POLYLINE
  8
LAYER-1
 66
  1
 70
  0
 62
  0
 10
2.171109
 20
7.415648
 30
0.000000
  0
VERTEX
  8
LAYER-1
 10
2.171109
 20
7.415648
 30
0.000000
  0
VERTEX
  8
LAYER-1
 10
2.171109
 20
7.144016
 30
0.000000
  0
SEQEND
  8
LAYER-1
  0
POLYLINE
  8
LAYER-1
 66
  1
 70
  0
 62
  0
 10
2.026204
 20
7.415253
 30
0.000000
  0
VERTEX
  8
LAYER-1
 10
2.026204
 20
7.415253
 30
0.000000
  0
VERTEX
  8
LAYER-1
 10
2.026204
 20
7.143624
 30
0.000000
  0
SEQEND
  8
LAYER-1
  0
POLYLINE
  8
LAYER-1
 66
  1
 70
  0
 62
  0
 10
1.987821
 20
7.415253
 30
0.000000
  0
VERTEX
  8
LAYER-1
 10
1.987821
 20
7.415253
 30
0.000000
  0
VERTEX
  8
LAYER-1
 10
1.987821
 20
7.143624
 30
0.000000
  0
SEQEND
  8
LAYER-1
  0
POLYLINE
  8
LAYER-1
 66
  1
 70
  0
 62
  0
 10
2.844042
 20
7.415722
 30
0.000000
  0
VERTEX
  8
LAYER-1
 10
2.844042
 20
7.415722
 30
0.000000
  0
VERTEX
  8
LAYER-1
 10
2.844042
 20
7.144094
 30
0.000000
  0
SEQEND
  8
LAYER-1
  0
POLYLINE
  8
LAYER-1
 66
  1
 70
  0
 62
  0
 10
2.805660
 20
7.415722
 30
0.000000
  0
VERTEX
  8
LAYER-1
 10
2.805660
 20
7.415722
 30
0.000000
  0
VERTEX
  8
LAYER-1
 10
2.805660
 20
7.144094
 30
0.000000
  0
SEQEND
  8
LAYER-1
  0
POLYLINE
  8
LAYER-1
 66
  1
 70
  0
 62
  0
 10
3.471093
 20
7.144019
 30
0.000000
  0
VERTEX
  8
LAYER-1
 10
3.471093
 20
7.144019
 30
0.000000
  0
VERTEX
  8
LAYER-1
 10
3.471093
 20
7.415648
 30
0.000000
  0
SEQEND
  8
LAYER-1
  0
POLYLINE
  8
LAYER-1
 66
  1
 70
  0
 62
  0
 10
3.435664
 20
7.415648
 30
0.000000
  0
VERTEX
  8
LAYER-1
 10
3.435664
 20
7.415648
 30
0.000000
  0
VERTEX
  8
LAYER-1
 10
3.435664
 20
7.144018
 30
0.000000
  0
SEQEND
  8
LAYER-1
  0
POLYLINE
  8
LAYER-1
 66
  1
 70
  0
 62
  0
 10
3.470190
 20
7.415649
 30
0.000000
  0
VERTEX
  8
LAYER-1
 10
3.470190
 20
7.415649
 30
0.000000
  0
VERTEX
  8
LAYER-1
 10
3.456313
 20
7.426587
 30
0.000000
  0
VERTEX
  8
LAYER-1
 10
3.441550
 20
7.424508
 30
0.000000
  0
VERTEX
  8
LAYER-1
 10
3.436634
 20
7.415660
 30
0.000000
  0
SEQEND
  8
LAYER-1
  0
POLYLINE
  8
LAYER-1
 66
  1
 70
  0
 62
  0
 10
3.435664
 20
7.415649
 30
0.000000
  0
VERTEX
  8
LAYER-1
 10
3.435664
 20
7.415649
 30
0.000000
  0
VERTEX
  8
LAYER-1
 10
3.418556
 20
7.426632
 30
0.000000
  0
VERTEX
  8
LAYER-1
 10
3.401475
 20
7.422300
 30
0.000000
  0
VERTEX
  8
LAYER-1
 10
3.398761
 20
7.415648
 30
0.000000
  0
SEQEND
  8
LAYER-1
  0
POLYLINE
  8
LAYER-1
 66
  1
 70
  0
 62
  0
 10
3.020108
 20
7.415154
 30
0.000000
  0
VERTEX
  8
LAYER-1
 10
3.020108
 20
7.415154
 30
0.000000
  0
VERTEX
  8
LAYER-1
 10
3.000604
 20
7.425146
 30
0.000000
  0
VERTEX
  8
LAYER-1
 10
2.982530
 20
7.418421
 30
0.000000
  0
VERTEX
  8
LAYER-1
 10
2.983200
 20
7.415154
 30
0.000000
  0
SEQEND
  8
LAYER-1
  0
POLYLINE
  8
LAYER-1
 66
  1
 70
  0
 62
  0
 10
2.207150
 20
7.415624
 30
0.000000
  0
VERTEX
  8
LAYER-1
 10
2.207150
 20
7.415624
 30
0.000000
  0
VERTEX
  8
LAYER-1
 10
2.187645
 20
7.425617
 30
0.000000
  0
VERTEX
  8
LAYER-1
 10
2.169572
 20
7.418891
 30
0.000000
  0
VERTEX
  8
LAYER-1
 10
2.170242
 20
7.415624
 30
0.000000
  0
SEQEND
  8
LAYER-1
  0
POLYLINE
  8
LAYER-1
 66
  1
 70
  0
 62
  0
 10
3.067817
 20
7.415154
 30
0.000000
  0
VERTEX
  8
LAYER-1
 10
3.067817
 20
7.415154
 30
0.000000
  0
VERTEX
  8
LAYER-1
 10
3.048313
 20
7.425147
 30
0.000000
  0
VERTEX
  8
LAYER-1
 10
3.030240
 20
7.418421
 30
0.000000
  0
VERTEX
  8
LAYER-1
 10
3.030910
 20
7.415154
 30
0.000000
  0
SEQEND
  8
LAYER-1
  0
POLYLINE
  8
LAYER-1
 66
  1
 70
  0
 62
  0
 10
3.045875
 20
7.415714
 30
0.000000
  0
VERTEX
  8
LAYER-1
 10
3.045875
 20
7.415714
 30
0.000000
  0
VERTEX
  8
LAYER-1
 10
3.035123
 20
7.428719
 30
0.000000
  0
VERTEX
  8
LAYER-1
 10
3.021108
 20
7.430312
 30
0.000000
  0
VERTEX
  8
LAYER-1
 10
3.010071
 20
7.421529
 30
0.000000
  0
VERTEX
  8
LAYER-1
 10
3.010446
 20
7.415714
 30
0.000000
  0
SEQEND
  8
LAYER-1
  0
POLYLINE
  8
LAYER-1
 66
  1
 70
  0
 62
  0
 10
3.045875
 20
7.415714
 30
0.000000
  0
VERTEX
  8
LAYER-1
 10
3.045875
 20
7.415714
 30
0.000000
  0
VERTEX
  8
LAYER-1
 10
3.010446
 20
7.415714
 30
0.000000
  0
SEQEND
  8
LAYER-1
  0
POLYLINE
  8
LAYER-1
 66
  1
 70
  0
 62
  0
 10
2.255800
 20
7.415624
 30
0.000000
  0
VERTEX
  8
LAYER-1
 10
2.255800
 20
7.415624
 30
0.000000
  0
VERTEX
  8
LAYER-1
 10
2.236296
 20
7.425617
 30
0.000000
  0
VERTEX
  8
LAYER-1
 10
2.218222
 20
7.418891
 30
0.000000
  0
VERTEX
  8
LAYER-1
 10
2.218893
 20
7.415624
 30
0.000000
  0
SEQEND
  8
LAYER-1
  0
POLYLINE
  8
LAYER-1
 66
  1
 70
  0
 62
  0
 10
2.229628
 20
7.415714
 30
0.000000
  0
VERTEX
  8
LAYER-1
 10
2.229628
 20
7.415714
 30
0.000000
  0
VERTEX
  8
LAYER-1
 10
2.218876
 20
7.428719
 30
0.000000
  0
VERTEX
  8
LAYER-1
 10
2.204861
 20
7.430312
 30
0.000000
  0
VERTEX
  8
LAYER-1
 10
2.193824
 20
7.421529
 30
0.000000
  0
VERTEX
  8
LAYER-1
 10
2.194199
 20
7.415714
 30
0.000000
  0
SEQEND
  8
LAYER-1
  0
POLYLINE
  8
LAYER-1
 66
  1
 70
  0
 62
  0
 10
2.229628
 20
7.415714
 30
0.000000
  0
VERTEX
  8
LAYER-1
 10
2.229628
 20
7.415714
 30
0.000000
  0
VERTEX
  8
LAYER-1
 10
2.194199
 20
7.415714
 30
0.000000
  0
SEQEND
  8
LAYER-1
  0
POLYLINE
  8
LAYER-1
 66
  1
 70
  0
 62
  0
 10
3.436940
 20
7.143432
 30
0.000000
  0
VERTEX
  8
LAYER-1
 10
3.436940
 20
7.143432
 30
0.000000
  0
VERTEX
  8
LAYER-1
 10
3.447176
 20
7.136837
 30
0.000000
  0
VERTEX
  8
LAYER-1
 10
3.461860
 20
7.139413
 30
0.000000
  0
VERTEX
  8
LAYER-1
 10
3.470160
 20
7.143992
 30
0.000000
  0
SEQEND
  8
LAYER-1
  0
POLYLINE
  8
LAYER-1
 66
  1
 70
  0
 62
  0
 10
3.436940
 20
7.143432
 30
0.000000
  0
VERTEX
  8
LAYER-1
 10
3.436940
 20
7.143432
 30
0.000000
  0
VERTEX
  8
LAYER-1
 10
3.470160
 20
7.143992
 30
0.000000
  0
SEQEND
  8
LAYER-1
  0
POLYLINE
  8
LAYER-1
 66
  1
 70
  0
 62
  0
 10
3.397827
 20
7.143993
 30
0.000000
  0
VERTEX
  8
LAYER-1
 10
3.397827
 20
7.143993
 30
0.000000
  0
VERTEX
  8
LAYER-1
 10
3.410999
 20
7.136946
 30
0.000000
  0
VERTEX
  8
LAYER-1
 10
3.428079
 20
7.141276
 30
0.000000
  0
VERTEX
  8
LAYER-1
 10
3.434732
 20
7.143992
 30
0.000000
  0
SEQEND
  8
LAYER-1
  0
POLYLINE
  8
LAYER-1
 66
  1
 70
  0
 62
  0
 10
3.397828
 20
7.143993
 30
0.000000
  0
VERTEX
  8
LAYER-1
 10
3.397828
 20
7.143993
 30
0.000000
  0
VERTEX
  8
LAYER-1
 10
3.434731
 20
7.143992
 30
0.000000
  0
SEQEND
  8
LAYER-1
  0
POLYLINE
  8
LAYER-1
 66
  1
 70
  0
 62
  0
 10
3.030984
 20
7.143546
 30
0.000000
  0
VERTEX
  8
LAYER-1
 10
3.030984
 20
7.143546
 30
0.000000
  0
VERTEX
  8
LAYER-1
 10
3.046551
 20
7.137490
 30
0.000000
  0
VERTEX
  8
LAYER-1
 10
3.064625
 20
7.144216
 30
0.000000
  0
VERTEX
  8
LAYER-1
 10
3.067891
 20
7.143546
 30
0.000000
  0
SEQEND
  8
LAYER-1
  0
POLYLINE
  8
LAYER-1
 66
  1
 70
  0
 62
  0
 10
2.983743
 20
7.143546
 30
0.000000
  0
VERTEX
  8
LAYER-1
 10
2.983743
 20
7.143546
 30
0.000000
  0
VERTEX
  8
LAYER-1
 10
2.999310
 20
7.137490
 30
0.000000
  0
VERTEX
  8
LAYER-1
 10
3.017384
 20
7.144216
 30
0.000000
  0
VERTEX
  8
LAYER-1
 10
3.020651
 20
7.143546
 30
0.000000
  0
SEQEND
  8
LAYER-1
  0
POLYLINE
  8
LAYER-1
 66
  1
 70
  0
 62
  0
 10
3.010989
 20
7.143456
 30
0.000000
  0
VERTEX
  8
LAYER-1
 10
3.010989
 20
7.143456
 30
0.000000
  0
VERTEX
  8
LAYER-1
 10
3.017804
 20
7.134388
 30
0.000000
  0
VERTEX
  8
LAYER-1
 10
3.031819
 20
7.132795
 30
0.000000
  0
VERTEX
  8
LAYER-1
 10
3.042856
 20
7.141578
 30
0.000000
  0
VERTEX
  8
LAYER-1
 10
3.046418
 20
7.143456
 30
0.000000
  0
SEQEND
  8
LAYER-1
  0
POLYLINE
  8
LAYER-1
 66
  1
 70
  0
 62
  0
 10
3.046417
 20
7.143456
 30
0.000000
  0
VERTEX
  8
LAYER-1
 10
3.046417
 20
7.143456
 30
0.000000
  0
VERTEX
  8
LAYER-1
 10
3.010989
 20
7.143456
 30
0.000000
  0
SEQEND
  8
LAYER-1
  0
POLYLINE
  8
LAYER-1
 66
  1
 70
  0
 62
  0
 10
2.218429
 20
7.143546
 30
0.000000
  0
VERTEX
  8
LAYER-1
 10
2.218429
 20
7.143546
 30
0.000000
  0
VERTEX
  8
LAYER-1
 10
2.233996
 20
7.137490
 30
0.000000
  0
VERTEX
  8
LAYER-1
 10
2.252070
 20
7.144216
 30
0.000000
  0
VERTEX
  8
LAYER-1
 10
2.255337
 20
7.143546
 30
0.000000
  0
SEQEND
  8
LAYER-1
  0
POLYLINE
  8
LAYER-1
 66
  1
 70
  0
 62
  0
 10
2.170249
 20
7.143546
 30
0.000000
  0
VERTEX
  8
LAYER-1
 10
2.170249
 20
7.143546
 30
0.000000
  0
VERTEX
  8
LAYER-1
 10
2.185816
 20
7.137490
 30
0.000000
  0
VERTEX
  8
LAYER-1
 10
2.203890
 20
7.144216
 30
0.000000
  0
VERTEX
  8
LAYER-1
 10
2.207157
 20
7.143546
 30
0.000000
  0
SEQEND
  8
LAYER-1
  0
POLYLINE
  8
LAYER-1
 66
  1
 70
  0
 62
  0
 10
2.194205
 20
7.143456
 30
0.000000
  0
VERTEX
  8
LAYER-1
 10
2.194205
 20
7.143456
 30
0.000000
  0
VERTEX
  8
LAYER-1
 10
2.201020
 20
7.134388
 30
0.000000
  0
VERTEX
  8
LAYER-1
 10
2.215035
 20
7.132795
 30
0.000000
  0
VERTEX
  8
LAYER-1
 10
2.226072
 20
7.141578
 30
0.000000
  0
VERTEX
  8
LAYER-1
 10
2.229634
 20
7.143456
 30
0.000000
  0
SEQEND
  8
LAYER-1
  0
POLYLINE
  8
LAYER-1
 66
  1
 70
  0
 62
  0
 10
2.229634
 20
7.143456
 30
0.000000
  0
VERTEX
  8
LAYER-1
 10
2.229634
 20
7.143456
 30
0.000000
  0
VERTEX
  8
LAYER-1
 10
2.194206
 20
7.143456
 30
0.000000
  0
SEQEND
  8
LAYER-1
  0
POLYLINE
  8
LAYER-1
 66
  1
 70
  1
 62
  0
  0
VERTEX
  8
LAYER-1
 10
3.010445
 20
7.415648
 30
0.000000
  0
VERTEX
  8
LAYER-1
 10
3.045875
 20
7.415648
 30
0.000000
  0
VERTEX
  8
LAYER-1
 10
3.045875
 20
7.144018
 30
0.000000
  0
VERTEX
  8
LAYER-1
 10
3.010445
 20
7.144018
 30
0.000000
  0
SEQEND
  8
LAYER-1
  0
POLYLINE
  8
LAYER-1
 66
  1
 70
  1
 62
  0
  0
VERTEX
  8
LAYER-1
 10
2.194131
 20
7.415648
 30
0.000000
  0
VERTEX
  8
LAYER-1
 10
2.229561
 20
7.415648
 30
0.000000
  0
VERTEX
  8
LAYER-1
 10
2.229561
 20
7.144018
 30
0.000000
  0
VERTEX
  8
LAYER-1
 10
2.194131
 20
7.144018
 30
0.000000
  0
SEQEND
  8
LAYER-1
  0
POLYLINE
  8
LAYER-1
 66
  1
 70
  0
 62
  0
 10
3.045875
 20
7.347740
 30
0.000000
  0
VERTEX
  8
LAYER-1
 10
3.045875
 20
7.347740
 30
0.000000
  0
VERTEX
  8
LAYER-1
 10
3.010445
 20
7.347740
 30
0.000000
  0
SEQEND
  8
LAYER-1
  0
POLYLINE
  8
LAYER-1
 66
  1
 70
  0
 62
  0
 10
3.045875
 20
7.217831
 30
0.000000
  0
VERTEX
  8
LAYER-1
 10
3.045875
 20
7.217831
 30
0.000000
  0
VERTEX
  8
LAYER-1
 10
3.010445
 20
7.217831
 30
0.000000
  0
SEQEND
  8
LAYER-1
  0
POLYLINE
  8
LAYER-1
 66
  1
 70
  0
 62
  0
 10
2.229561
 20
7.347740
 30
0.000000
  0
VERTEX
  8
LAYER-1
 10
2.229561
 20
7.347740
 30
0.000000
  0
VERTEX
  8
LAYER-1
 10
2.194132
 20
7.347740
 30
0.000000
  0
SEQEND
  8
LAYER-1
  0
POLYLINE
  8
LAYER-1
 66
  1
 70
  0
 62
  0
 10
2.229561
 20
7.217830
 30
0.000000
  0
VERTEX
  8
LAYER-1
 10
2.229561
 20
7.217830
 30
0.000000
  0
VERTEX
  8
LAYER-1
 10
2.194132
 20
7.217830
 30
0.000000
  0
SEQEND
  8
LAYER-1
  0
POLYLINE
  8
LAYER-1
 66
  1
 70
  0
 62
  0
 10
3.248207
 20
7.415204
 30
0.000000
  0
VERTEX
  8
LAYER-1
 10
3.248207
 20
7.415204
 30
0.000000
  0
VERTEX
  8
LAYER-1
 10
3.234329
 20
7.426142
 30
0.000000
  0
VERTEX
  8
LAYER-1
 10
3.219567
 20
7.424064
 30
0.000000
  0
VERTEX
  8
LAYER-1
 10
3.214987
 20
7.415764
 30
0.000000
  0
SEQEND
  8
LAYER-1
  0
POLYLINE
  8
LAYER-1
 66
  1
 70
  0
 62
  0
 10
3.660267
 20
7.347740
 30
0.000000
  0
VERTEX
  8
LAYER-1
 10
3.660267
 20
7.347740
 30
0.000000
  0
VERTEX
  8
LAYER-1
 10
3.620541
 20
7.347740
 30
0.000000
  0
SEQEND
  8
LAYER-1
  0
POLYLINE
  8
LAYER-1
 66
  1
 70
  0
 62
  0
 10
3.660267
 20
7.217830
 30
0.000000
  0
VERTEX
  8
LAYER-1
 10
3.660267
 20
7.217830
 30
0.000000
  0
VERTEX
  8
LAYER-1
 10
3.620541
 20
7.217830
 30
0.000000
  0
SEQEND
  8
LAYER-1
  0
POLYLINE
  8
LAYER-1
 66
  1
 70
  0
 62
  0
 10
2.434713
 20
7.415587
 30
0.000000
  0
VERTEX
  8
LAYER-1
 10
2.434713
 20
7.415587
 30
0.000000
  0
VERTEX
  8
LAYER-1
 10
2.417604
 20
7.426570
 30
0.000000
  0
VERTEX
  8
LAYER-1
 10
2.400524
 20
7.422238
 30
0.000000
  0
VERTEX
  8
LAYER-1
 10
2.397809
 20
7.415585
 30
0.000000
  0
SEQEND
  8
LAYER-1
  0
POLYLINE
  8
LAYER-1
 66
  1
 70
  0
 62
  0
 10
3.658816
 20
7.420793
 30
0.000000
  0
VERTEX
  8
LAYER-1
 10
3.658816
 20
7.420793
 30
0.000000
  0
VERTEX
  8
LAYER-1
 10
3.641707
 20
7.431776
 30
0.000000
  0
VERTEX
  8
LAYER-1
 10
3.624627
 20
7.427445
 30
0.000000
  0
VERTEX
  8
LAYER-1
 10
3.621912
 20
7.420792
 30
0.000000
  0
SEQEND
  8
LAYER-1
  0
POLYLINE
  8
LAYER-1
 66
  1
 70
  1
 62
  0
  0
VERTEX
  8
LAYER-1
 10
3.611403
 20
7.421416
 30
0.000000
  0
VERTEX
  8
LAYER-1
 10
3.666019
 20
7.421416
 30
0.000000
  0
VERTEX
  8
LAYER-1
 10
3.666019
 20
7.415510
 30
0.000000
  0
VERTEX
  8
LAYER-1
 10
3.611403
 20
7.415510
 30
0.000000
  0
SEQEND
  8
LAYER-1
  0
POLYLINE
  8
LAYER-1
 66
  1
 70
  1
 62
  0
  0
VERTEX
  8
LAYER-1
 10
3.006268
 20
1.438064
 30
0.000000
  0
VERTEX
  8
LAYER-1
 10
3.457997
 20
1.438064
 30
0.000000
  0
VERTEX
  8
LAYER-1
 10
3.457997
 20
1.429207
 30
0.000000
  0
VERTEX
  8
LAYER-1
 10
3.006268
 20
1.429207
 30
0.000000
  0
SEQEND
  8
LAYER-1
  0
POLYLINE
  8
LAYER-1
 66
  1
 70
  1
 62
  0
  0
VERTEX
  8
LAYER-1
 10
3.005834
 20
2.254367
 30
0.000000
  0
VERTEX
  8
LAYER-1
 10
3.457563
 20
2.254367
 30
0.000000
  0
VERTEX
  8
LAYER-1
 10
3.457563
 20
2.245510
 30
0.000000
  0
VERTEX
  8
LAYER-1
 10
3.005834
 20
2.245510
 30
0.000000
  0
SEQEND
  8
LAYER-1
  0
POLYLINE
  8
LAYER-1
 66
  1
 70
  1
 62
  0
  0
VERTEX
  8
LAYER-1
 10
3.006703
 20
3.070670
 30
0.000000
  0
VERTEX
  8
LAYER-1
 10
3.458431
 20
3.070670
 30
0.000000
  0
VERTEX
  8
LAYER-1
 10
3.458431
 20
3.061813
 30
0.000000
  0
VERTEX
  8
LAYER-1
 10
3.006703
 20
3.061813
 30
0.000000
  0
SEQEND
  8
LAYER-1
  0
POLYLINE
  8
LAYER-1
 66
  1
 70
  1
 62
  0
  0
VERTEX
  8
LAYER-1
 10
3.006703
 20
3.886973
 30
0.000000
  0
VERTEX
  8
LAYER-1
 10
3.458431
 20
3.886973
 30
0.000000
  0
VERTEX
  8
LAYER-1
 10
3.458431
 20
3.878117
 30
0.000000
  0
VERTEX
  8
LAYER-1
 10
3.006703
 20
3.878117
 30
0.000000
  0
SEQEND
  8
LAYER-1
  0
POLYLINE
  8
LAYER-1
 66
  1
 70
  1
 62
  0
  0
VERTEX
  8
LAYER-1
 10
3.006269
 20
4.703277
 30
0.000000
  0
VERTEX
  8
LAYER-1
 10
3.457997
 20
4.703277
 30
0.000000
  0
VERTEX
  8
LAYER-1
 10
3.457997
 20
4.694421
 30
0.000000
  0
VERTEX
  8
LAYER-1
 10
3.006269
 20
4.694421
 30
0.000000
  0
SEQEND
  8
LAYER-1
  0
POLYLINE
  8
LAYER-1
 66
  1
 70
  1
 62
  0
  0
VERTEX
  8
LAYER-1
 10
3.006703
 20
5.519581
 30
0.000000
  0
VERTEX
  8
LAYER-1
 10
3.458431
 20
5.519581
 30
0.000000
  0
VERTEX
  8
LAYER-1
 10
3.458431
 20
5.510724
 30
0.000000
  0
VERTEX
  8
LAYER-1
 10
3.006703
 20
5.510724
 30
0.000000
  0
SEQEND
  8
LAYER-1
  0
POLYLINE
  8
LAYER-1
 66
  1
 70
  1
 62
  0
  0
VERTEX
  8
LAYER-1
 10
3.006269
 20
6.335884
 30
0.000000
  0
VERTEX
  8
LAYER-1
 10
3.457997
 20
6.335884
 30
0.000000
  0
VERTEX
  8
LAYER-1
 10
3.457997
 20
6.327028
 30
0.000000
  0
VERTEX
  8
LAYER-1
 10
3.006269
 20
6.327028
 30
0.000000
  0
SEQEND
  8
LAYER-1
  0
POLYLINE
  8
LAYER-1
 66
  1
 70
  1
 62
  0
  0
VERTEX
  8
LAYER-1
 10
2.195204
 20
1.438064
 30
0.000000
  0
VERTEX
  8
LAYER-1
 10
2.646934
 20
1.438064
 30
0.000000
  0
VERTEX
  8
LAYER-1
 10
2.646934
 20
1.429207
 30
0.000000
  0
VERTEX
  8
LAYER-1
 10
2.195204
 20
1.429207
 30
0.000000
  0
SEQEND
  8
LAYER-1
  0
POLYLINE
  8
LAYER-1
 66
  1
 70
  1
 62
  0
  0
VERTEX
  8
LAYER-1
 10
2.195204
 20
2.254367
 30
0.000000
  0
VERTEX
  8
LAYER-1
 10
2.646934
 20
2.254367
 30
0.000000
  0
VERTEX
  8
LAYER-1
 10
2.646934
 20
2.245510
 30
0.000000
  0
VERTEX
  8
LAYER-1
 10
2.195204
 20
2.245510
 30
0.000000
  0
SEQEND
  8
LAYER-1
  0
POLYLINE
  8
LAYER-1
 66
  1
 70
  1
 62
  0
  0
VERTEX
  8
LAYER-1
 10
2.189995
 20
3.070670
 30
0.000000
  0
VERTEX
  8
LAYER-1
 10
2.641725
 20
3.070670
 30
0.000000
  0
VERTEX
  8
LAYER-1
 10
2.641725
 20
3.061813
 30
0.000000
  0
VERTEX
  8
LAYER-1
 10
2.189995
 20
3.061813
 30
0.000000
  0
SEQEND
  8
LAYER-1
  0
POLYLINE
  8
LAYER-1
 66
  1
 70
  1
 62
  0
  0
VERTEX
  8
LAYER-1
 10
2.189995
 20
3.886973
 30
0.000000
  0
VERTEX
  8
LAYER-1
 10
2.641725
 20
3.886973
 30
0.000000
  0
VERTEX
  8
LAYER-1
 10
2.641725
 20
3.878117
 30
0.000000
  0
VERTEX
  8
LAYER-1
 10
2.189995
 20
3.878117
 30
0.000000
  0
SEQEND
  8
LAYER-1
  0
POLYLINE
  8
LAYER-1
 66
  1
 70
  1
 62
  0
  0
VERTEX
  8
LAYER-1
 10
2.189995
 20
4.703279
 30
0.000000
  0
VERTEX
  8
LAYER-1
 10
2.641725
 20
4.703279
 30
0.000000
  0
VERTEX
  8
LAYER-1
 10
2.641725
 20
4.694421
 30
0.000000
  0
VERTEX
  8
LAYER-1
 10
2.189995
 20
4.694421
 30
0.000000
  0
SEQEND
  8
LAYER-1
  0
POLYLINE
  8
LAYER-1
 66
  1
 70
  1
 62
  0
  0
VERTEX
  8
LAYER-1
 10
2.189995
 20
5.519581
 30
0.000000
  0
VERTEX
  8
LAYER-1
 10
2.641725
 20
5.519581
 30
0.000000
  0
VERTEX
  8
LAYER-1
 10
2.641725
 20
5.510725
 30
0.000000
  0
VERTEX
  8
LAYER-1
 10
2.189995
 20
5.510725
 30
0.000000
  0
SEQEND
  8
LAYER-1
  0
POLYLINE
  8
LAYER-1
 66
  1
 70
  1
 62
  0
  0
VERTEX
  8
LAYER-1
 10
2.189995
 20
6.335884
 30
0.000000
  0
VERTEX
  8
LAYER-1
 10
2.641725
 20
6.335884
 30
0.000000
  0
VERTEX
  8
LAYER-1
 10
2.641725
 20
6.327028
 30
0.000000
  0
VERTEX
  8
LAYER-1
 10
2.189995
 20
6.327028
 30
0.000000
  0
SEQEND
  8
LAYER-1
  0
POLYLINE
  8
LAYER-1
 66
  1
 70
  1
 62
  0
  0
VERTEX
  8
LAYER-1
 10
2.599173
 20
1.036527
 30
0.000000
  0
VERTEX
  8
LAYER-1
 10
3.050903
 20
1.036527
 30
0.000000
  0
VERTEX
  8
LAYER-1
 10
3.050903
 20
1.027669
 30
0.000000
  0
VERTEX
  8
LAYER-1
 10
2.599173
 20
1.027669
 30
0.000000
  0
SEQEND
  8
LAYER-1
  0
POLYLINE
  8
LAYER-1
 66
  1
 70
  1
 62
  0
  0
VERTEX
  8
LAYER-1
 10
2.599607
 20
1.852829
 30
0.000000
  0
VERTEX
  8
LAYER-1
 10
3.051337
 20
1.852829
 30
0.000000
  0
VERTEX
  8
LAYER-1
 10
3.051337
 20
1.843974
 30
0.000000
  0
VERTEX
  8
LAYER-1
 10
2.599607
 20
1.843974
 30
0.000000
  0
SEQEND
  8
LAYER-1
  0
POLYLINE
  8
LAYER-1
 66
  1
 70
  1
 62
  0
  0
VERTEX
  8
LAYER-1
 10
2.599607
 20
2.669133
 30
0.000000
  0
VERTEX
  8
LAYER-1
 10
3.051337
 20
2.669133
 30
0.000000
  0
VERTEX
  8
LAYER-1
 10
3.051337
 20
2.660275
 30
0.000000
  0
VERTEX
  8
LAYER-1
 10
2.599607
 20
2.660275
 30
0.000000
  0
SEQEND
  8
LAYER-1
  0
POLYLINE
  8
LAYER-1
 66
  1
 70
  1
 62
  0
  0
VERTEX
  8
LAYER-1
 10
2.598739
 20
3.485435
 30
0.000000
  0
VERTEX
  8
LAYER-1
 10
3.050469
 20
3.485435
 30
0.000000
  0
VERTEX
  8
LAYER-1
 10
3.050469
 20
3.476579
 30
0.000000
  0
VERTEX
  8
LAYER-1
 10
2.598739
 20
3.476579
 30
0.000000
  0
SEQEND
  8
LAYER-1
  0
POLYLINE
  8
LAYER-1
 66
  1
 70
  1
 62
  0
  0
VERTEX
  8
LAYER-1
 10
2.598739
 20
4.301739
 30
0.000000
  0
VERTEX
  8
LAYER-1
 10
3.050469
 20
4.301739
 30
0.000000
  0
VERTEX
  8
LAYER-1
 10
3.050469
 20
4.292881
 30
0.000000
  0
VERTEX
  8
LAYER-1
 10
2.598739
 20
4.292881
 30
0.000000
  0
SEQEND
  8
LAYER-1
  0
POLYLINE
  8
LAYER-1
 66
  1
 70
  1
 62
  0
  0
VERTEX
  8
LAYER-1
 10
2.598739
 20
5.118044
 30
0.000000
  0
VERTEX
  8
LAYER-1
 10
3.050469
 20
5.118044
 30
0.000000
  0
VERTEX
  8
LAYER-1
 10
3.050469
 20
5.109187
 30
0.000000
  0
VERTEX
  8
LAYER-1
 10
2.598739
 20
5.109187
 30
0.000000
  0
SEQEND
  8
LAYER-1
  0
POLYLINE
  8
LAYER-1
 66
  1
 70
  1
 62
  0
  0
VERTEX
  8
LAYER-1
 10
2.599173
 20
5.934348
 30
0.000000
  0
VERTEX
  8
LAYER-1
 10
3.050903
 20
5.934348
 30
0.000000
  0
VERTEX
  8
LAYER-1
 10
3.050903
 20
5.925490
 30
0.000000
  0
VERTEX
  8
LAYER-1
 10
2.599173
 20
5.925490
 30
0.000000
  0
SEQEND
  8
LAYER-1
  0
POLYLINE
  8
LAYER-1
 66
  1
 70
  1
 62
  0
  0
VERTEX
  8
LAYER-1
 10
2.599173
 20
6.750642
 30
0.000000
  0
VERTEX
  8
LAYER-1
 10
3.050903
 20
6.750642
 30
0.000000
  0
VERTEX
  8
LAYER-1
 10
3.050903
 20
6.741785
 30
0.000000
  0
VERTEX
  8
LAYER-1
 10
2.599173
 20
6.741785
 30
0.000000
  0
SEQEND
  8
LAYER-1
  0
POLYLINE
  8
LAYER-1
 66
  1
 70
  1
 62
  0
  0
VERTEX
  8
LAYER-1
 10
1.780729
 20
1.036527
 30
0.000000
  0
VERTEX
  8
LAYER-1
 10
2.232460
 20
1.036527
 30
0.000000
  0
VERTEX
  8
LAYER-1
 10
2.232460
 20
1.027669
 30
0.000000
  0
VERTEX
  8
LAYER-1
 10
1.780729
 20
1.027669
 30
0.000000
  0
SEQEND
  8
LAYER-1
  0
POLYLINE
  8
LAYER-1
 66
  1
 70
  1
 62
  0
  0
VERTEX
  8
LAYER-1
 10
1.781164
 20
1.852829
 30
0.000000
  0
VERTEX
  8
LAYER-1
 10
2.232894
 20
1.852829
 30
0.000000
  0
VERTEX
  8
LAYER-1
 10
2.232894
 20
1.843974
 30
0.000000
  0
VERTEX
  8
LAYER-1
 10
1.781164
 20
1.843974
 30
0.000000
  0
SEQEND
  8
LAYER-1
  0
POLYLINE
  8
LAYER-1
 66
  1
 70
  1
 62
  0
  0
VERTEX
  8
LAYER-1
 10
1.780730
 20
2.669133
 30
0.000000
  0
VERTEX
  8
LAYER-1
 10
2.232460
 20
2.669133
 30
0.000000
  0
VERTEX
  8
LAYER-1
 10
2.232460
 20
2.660275
 30
0.000000
  0
VERTEX
  8
LAYER-1
 10
1.780730
 20
2.660275
 30
0.000000
  0
SEQEND
  8
LAYER-1
  0
POLYLINE
  8
LAYER-1
 66
  1
 70
  1
 62
  0
  0
VERTEX
  8
LAYER-1
 10
1.780295
 20
3.485435
 30
0.000000
  0
VERTEX
  8
LAYER-1
 10
2.232026
 20
3.485435
 30
0.000000
  0
VERTEX
  8
LAYER-1
 10
2.232026
 20
3.476579
 30
0.000000
  0
VERTEX
  8
LAYER-1
 10
1.780295
 20
3.476579
 30
0.000000
  0
SEQEND
  8
LAYER-1
  0
POLYLINE
  8
LAYER-1
 66
  1
 70
  1
 62
  0
  0
VERTEX
  8
LAYER-1
 10
1.780730
 20
4.301739
 30
0.000000
  0
VERTEX
  8
LAYER-1
 10
2.232460
 20
4.301739
 30
0.000000
  0
VERTEX
  8
LAYER-1
 10
2.232460
 20
4.292881
 30
0.000000
  0
VERTEX
  8
LAYER-1
 10
1.780730
 20
4.292881
 30
0.000000
  0
SEQEND
  8
LAYER-1
  0
POLYLINE
  8
LAYER-1
 66
  1
 70
  1
 62
  0
  0
VERTEX
  8
LAYER-1
 10
1.780730
 20
5.118044
 30
0.000000
  0
VERTEX
  8
LAYER-1
 10
2.232460
 20
5.118044
 30
0.000000
  0
VERTEX
  8
LAYER-1
 10
2.232460
 20
5.109187
 30
0.000000
  0
VERTEX
  8
LAYER-1
 10
1.780730
 20
5.109187
 30
0.000000
  0
SEQEND
  8
LAYER-1
  0
POLYLINE
  8
LAYER-1
 66
  1
 70
  1
 62
  0
  0
VERTEX
  8
LAYER-1
 10
1.780296
 20
5.934346
 30
0.000000
  0
VERTEX
  8
LAYER-1
 10
2.232026
 20
5.934346
 30
0.000000
  0
VERTEX
  8
LAYER-1
 10
2.232026
 20
5.925490
 30
0.000000
  0
VERTEX
  8
LAYER-1
 10
1.780296
 20
5.925490
 30
0.000000
  0
SEQEND
  8
LAYER-1
  0
POLYLINE
  8
LAYER-1
 66
  1
 70
  1
 62
  0
  0
VERTEX
  8
LAYER-1
 10
1.781164
 20
6.750642
 30
0.000000
  0
VERTEX
  8
LAYER-1
 10
2.232894
 20
6.750642
 30
0.000000
  0
VERTEX
  8
LAYER-1
 10
2.232894
 20
6.741785
 30
0.000000
  0
VERTEX
  8
LAYER-1
 10
1.781164
 20
6.741785
 30
0.000000
  0
SEQEND
  8
LAYER-1
  0
POLYLINE
  8
LAYER-1
 66
  1
 70
  1
 62
  0
  0
VERTEX
  8
LAYER-1
 10
3.409970
 20
1.034934
 30
0.000000
  0
VERTEX
  8
LAYER-1
 10
3.660135
 20
1.034934
 30
0.000000
  0
VERTEX
  8
LAYER-1
 10
3.660135
 20
1.026076
 30
0.000000
  0
VERTEX
  8
LAYER-1
 10
3.409970
 20
1.026076
 30
0.000000
  0
SEQEND
  8
LAYER-1
  0
POLYLINE
  8
LAYER-1
 66
  1
 70
  1
 62
  0
  0
VERTEX
  8
LAYER-1
 10
3.409970
 20
1.851236
 30
0.000000
  0
VERTEX
  8
LAYER-1
 10
3.660135
 20
1.851236
 30
0.000000
  0
VERTEX
  8
LAYER-1
 10
3.660135
 20
1.842379
 30
0.000000
  0
VERTEX
  8
LAYER-1
 10
3.409970
 20
1.842379
 30
0.000000
  0
SEQEND
  8
LAYER-1
  0
POLYLINE
  8
LAYER-1
 66
  1
 70
  1
 62
  0
  0
VERTEX
  8
LAYER-1
 10
3.409970
 20
2.667540
 30
0.000000
  0
VERTEX
  8
LAYER-1
 10
3.660135
 20
2.667540
 30
0.000000
  0
VERTEX
  8
LAYER-1
 10
3.660135
 20
2.658681
 30
0.000000
  0
VERTEX
  8
LAYER-1
 10
3.409970
 20
2.658681
 30
0.000000
  0
SEQEND
  8
LAYER-1
  0
POLYLINE
  8
LAYER-1
 66
  1
 70
  1
 62
  0
  0
VERTEX
  8
LAYER-1
 10
3.409970
 20
3.483842
 30
0.000000
  0
VERTEX
  8
LAYER-1
 10
3.660135
 20
3.483842
 30
0.000000
  0
VERTEX
  8
LAYER-1
 10
3.660135
 20
3.474985
 30
0.000000
  0
VERTEX
  8
LAYER-1
 10
3.409970
 20
3.474985
 30
0.000000
  0
SEQEND
  8
LAYER-1
  0
POLYLINE
  8
LAYER-1
 66
  1
 70
  1
 62
  0
  0
VERTEX
  8
LAYER-1
 10
3.409970
 20
4.300145
 30
0.000000
  0
VERTEX
  8
LAYER-1
 10
3.660135
 20
4.300145
 30
0.000000
  0
VERTEX
  8
LAYER-1
 10
3.660135
 20
4.291287
 30
0.000000
  0
VERTEX
  8
LAYER-1
 10
3.409970
 20
4.291287
 30
0.000000
  0
SEQEND
  8
LAYER-1
  0
POLYLINE
  8
LAYER-1
 66
  1
 70
  1
 62
  0
  0
VERTEX
  8
LAYER-1
 10
3.409970
 20
5.116450
 30
0.000000
  0
VERTEX
  8
LAYER-1
 10
3.660135
 20
5.116450
 30
0.000000
  0
VERTEX
  8
LAYER-1
 10
3.660135
 20
5.107594
 30
0.000000
  0
VERTEX
  8
LAYER-1
 10
3.409970
 20
5.107594
 30
0.000000
  0
SEQEND
  8
LAYER-1
  0
POLYLINE
  8
LAYER-1
 66
  1
 70
  1
 62
  0
  0
VERTEX
  8
LAYER-1
 10
3.409970
 20
5.932755
 30
0.000000
  0
VERTEX
  8
LAYER-1
 10
3.660135
 20
5.932755
 30
0.000000
  0
VERTEX
  8
LAYER-1
 10
3.660135
 20
5.923897
 30
0.000000
  0
VERTEX
  8
LAYER-1
 10
3.409970
 20
5.923897
 30
0.000000
  0
SEQEND
  8
LAYER-1
  0
POLYLINE
  8
LAYER-1
 66
  1
 70
  1
 62
  0
  0
VERTEX
  8
LAYER-1
 10
3.409970
 20
6.749050
 30
0.000000
  0
VERTEX
  8
LAYER-1
 10
3.660135
 20
6.749050
 30
0.000000
  0
VERTEX
  8
LAYER-1
 10
3.660135
 20
6.740192
 30
0.000000
  0
VERTEX
  8
LAYER-1
 10
3.409970
 20
6.740192
 30
0.000000
  0
SEQEND
  8
LAYER-1
  0
POLYLINE
  8
LAYER-1
 66
  1
 70
  0
 62
  0
 10
3.620107
 20
7.415645
 30
0.000000
  0
VERTEX
  8
LAYER-1
 10
3.620107
 20
7.415645
 30
0.000000
  0
VERTEX
  8
LAYER-1
 10
3.620107
 20
7.143897
 30
0.000000
  0
SEQEND
  8
LAYER-1
  0
POLYLINE
  8
LAYER-1
 66
  1
 70
  0
 62
  0
 10
3.620118
 20
0.616987
 30
0.000000
  0
VERTEX
  8
LAYER-1
 10
3.620118
 20
0.616987
 30
0.000000
  0
VERTEX
  8
LAYER-1
 10
3.620118
 20
0.345286
 30
0.000000
  0
SEQEND
  8
LAYER-1
  0
POLYLINE
  8
LAYER-1
 66
  1
 70
  0
 62
  0
 10
2.621908
 20
7.143429
 30
0.000000
  0
VERTEX
  8
LAYER-1
 10
2.621908
 20
7.143429
 30
0.000000
  0
VERTEX
  8
LAYER-1
 10
2.632144
 20
7.136835
 30
0.000000
  0
VERTEX
  8
LAYER-1
 10
2.646829
 20
7.139409
 30
0.000000
  0
VERTEX
  8
LAYER-1
 10
2.655128
 20
7.143990
 30
0.000000
  0
SEQEND
  8
LAYER-1
  0
POLYLINE
  8
LAYER-1
 66
  1
 70
  0
 62
  0
 10
2.621909
 20
7.143429
 30
0.000000
  0
VERTEX
  8
LAYER-1
 10
2.621909
 20
7.143429
 30
0.000000
  0
VERTEX
  8
LAYER-1
 10
2.655128
 20
7.143990
 30
0.000000
  0
SEQEND
  8
LAYER-1
  0
POLYLINE
  8
LAYER-1
 66
  1
 70
  0
 62
  0
 10
2.582796
 20
7.143990
 30
0.000000
  0
VERTEX
  8
LAYER-1
 10
2.582796
 20
7.143990
 30
0.000000
  0
VERTEX
  8
LAYER-1
 10
2.595967
 20
7.136944
 30
0.000000
  0
VERTEX
  8
LAYER-1
 10
2.613047
 20
7.141274
 30
0.000000
  0
VERTEX
  8
LAYER-1
 10
2.619700
 20
7.143990
 30
0.000000
  0
SEQEND
  8
LAYER-1
  0
POLYLINE
  8
LAYER-1
 66
  1
 70
  0
 62
  0
 10
2.582796
 20
7.143990
 30
0.000000
  0
VERTEX
  8
LAYER-1
 10
2.582796
 20
7.143990
 30
0.000000
  0
VERTEX
  8
LAYER-1
 10
2.619699
 20
7.143990
 30
0.000000
  0
SEQEND
  8
LAYER-1
  0
POLYLINE
  8
LAYER-1
 66
  1
 70
  0
 62
  0
 10
2.583967
 20
7.415648
 30
0.000000
  0
VERTEX
  8
LAYER-1
 10
2.583967
 20
7.415648
 30
0.000000
  0
VERTEX
  8
LAYER-1
 10
2.583967
 20
7.144016
 30
0.000000
  0
SEQEND
  8
LAYER-1
  0
POLYLINE
  8
LAYER-1
 66
  1
 70
  0
 62
  0
 10
2.656301
 20
7.144019
 30
0.000000
  0
VERTEX
  8
LAYER-1
 10
2.656301
 20
7.144019
 30
0.000000
  0
VERTEX
  8
LAYER-1
 10
2.656301
 20
7.415648
 30
0.000000
  0
SEQEND
  8
LAYER-1
  0
POLYLINE
  8
LAYER-1
 66
  1
 70
  0
 62
  0
 10
2.620871
 20
7.415648
 30
0.000000
  0
VERTEX
  8
LAYER-1
 10
2.620871
 20
7.415648
 30
0.000000
  0
VERTEX
  8
LAYER-1
 10
2.620871
 20
7.144018
 30
0.000000
  0
SEQEND
  8
LAYER-1
  0
POLYLINE
  8
LAYER-1
 66
  1
 70
  0
 62
  0
 10
2.655997
 20
7.415507
 30
0.000000
  0
VERTEX
  8
LAYER-1
 10
2.655997
 20
7.415507
 30
0.000000
  0
VERTEX
  8
LAYER-1
 10
2.642119
 20
7.426444
 30
0.000000
  0
VERTEX
  8
LAYER-1
 10
2.627356
 20
7.424366
 30
0.000000
  0
VERTEX
  8
LAYER-1
 10
2.622777
 20
7.416066
 30
0.000000
  0
SEQEND
  8
LAYER-1
  0
POLYLINE
  8
LAYER-1
 66
  1
 70
  0
 62
  0
 10
2.622777
 20
7.416066
 30
0.000000
  0
VERTEX
  8
LAYER-1
 10
2.622777
 20
7.416066
 30
0.000000
  0
VERTEX
  8
LAYER-1
 10
2.655996
 20
7.415507
 30
0.000000
  0
SEQEND
  8
LAYER-1
  0
POLYLINE
  8
LAYER-1
 66
  1
 70
  0
 62
  0
 10
2.620568
 20
7.415507
 30
0.000000
  0
VERTEX
  8
LAYER-1
 10
2.620568
 20
7.415507
 30
0.000000
  0
VERTEX
  8
LAYER-1
 10
2.603460
 20
7.426490
 30
0.000000
  0
VERTEX
  8
LAYER-1
 10
2.586380
 20
7.422158
 30
0.000000
  0
VERTEX
  8
LAYER-1
 10
2.583664
 20
7.415505
 30
0.000000
  0
SEQEND
  8
LAYER-1
  0
POLYLINE
  8
LAYER-1
 66
  1
 70
  0
 62
  0
 10
2.583665
 20
7.415505
 30
0.000000
  0
VERTEX
  8
LAYER-1
 10
2.583665
 20
7.415505
 30
0.000000
  0
VERTEX
  8
LAYER-1
 10
2.620568
 20
7.415507
 30
0.000000
  0
SEQEND
  8
LAYER-1
  0
POLYLINE
  8
LAYER-1
 66
  1
 70
  0
 62
  0
 10
1.801908
 20
7.143429
 30
0.000000
  0
VERTEX
  8
LAYER-1
 10
1.801908
 20
7.143429
 30
0.000000
  0
VERTEX
  8
LAYER-1
 10
1.812144
 20
7.136835
 30
0.000000
  0
VERTEX
  8
LAYER-1
 10
1.826829
 20
7.139409
 30
0.000000
  0
VERTEX
  8
LAYER-1
 10
1.835128
 20
7.143990
 30
0.000000
  0
SEQEND
  8
LAYER-1
  0
POLYLINE
  8
LAYER-1
 66
  1
 70
  0
 62
  0
 10
1.801909
 20
7.143429
 30
0.000000
  0
VERTEX
  8
LAYER-1
 10
1.801909
 20
7.143429
 30
0.000000
  0
VERTEX
  8
LAYER-1
 10
1.835128
 20
7.143990
 30
0.000000
  0
SEQEND
  8
LAYER-1
  0
POLYLINE
  8
LAYER-1
 66
  1
 70
  0
 62
  0
 10
1.762796
 20
7.143990
 30
0.000000
  0
VERTEX
  8
LAYER-1
 10
1.762796
 20
7.143990
 30
0.000000
  0
VERTEX
  8
LAYER-1
 10
1.775967
 20
7.136944
 30
0.000000
  0
VERTEX
  8
LAYER-1
 10
1.793047
 20
7.141274
 30
0.000000
  0
VERTEX
  8
LAYER-1
 10
1.799700
 20
7.143990
 30
0.000000
  0
SEQEND
  8
LAYER-1
  0
POLYLINE
  8
LAYER-1
 66
  1
 70
  0
 62
  0
 10
1.762796
 20
7.143990
 30
0.000000
  0
VERTEX
  8
LAYER-1
 10
1.762796
 20
7.143990
 30
0.000000
  0
VERTEX
  8
LAYER-1
 10
1.799699
 20
7.143990
 30
0.000000
  0
SEQEND
  8
LAYER-1
  0
POLYLINE
  8
LAYER-1
 66
  1
 70
  0
 62
  0
 10
1.763967
 20
7.415648
 30
0.000000
  0
VERTEX
  8
LAYER-1
 10
1.763967
 20
7.415648
 30
0.000000
  0
VERTEX
  8
LAYER-1
 10
1.763967
 20
7.144016
 30
0.000000
  0
SEQEND
  8
LAYER-1
  0
POLYLINE
  8
LAYER-1
 66
  1
 70
  0
 62
  0
 10
1.836301
 20
7.144019
 30
0.000000
  0
VERTEX
  8
LAYER-1
 10
1.836301
 20
7.144019
 30
0.000000
  0
VERTEX
  8
LAYER-1
 10
1.836301
 20
7.415648
 30
0.000000
  0
SEQEND
  8
LAYER-1
  0
POLYLINE
  8
LAYER-1
 66
  1
 70
  0
 62
  0
 10
1.800871
 20
7.415648
 30
0.000000
  0
VERTEX
  8
LAYER-1
 10
1.800871
 20
7.415648
 30
0.000000
  0
VERTEX
  8
LAYER-1
 10
1.800871
 20
7.144018
 30
0.000000
  0
SEQEND
  8
LAYER-1
  0
POLYLINE
  8
LAYER-1
 66
  1
 70
  0
 62
  0
 10
1.835997
 20
7.415507
 30
0.000000
  0
VERTEX
  8
LAYER-1
 10
1.835997
 20
7.415507
 30
0.000000
  0
VERTEX
  8
LAYER-1
 10
1.822119
 20
7.426444
 30
0.000000
  0
VERTEX
  8
LAYER-1
 10
1.807357
 20
7.424366
 30
0.000000
  0
VERTEX
  8
LAYER-1
 10
1.802777
 20
7.416066
 30
0.000000
  0
SEQEND
  8
LAYER-1
  0
POLYLINE
  8
LAYER-1
 66
  1
 70
  0
 62
  0
 10
1.802777
 20
7.416066
 30
0.000000
  0
VERTEX
  8
LAYER-1
 10
1.802777
 20
7.416066
 30
0.000000
  0
VERTEX
  8
LAYER-1
 10
1.835996
 20
7.415507
 30
0.000000
  0
SEQEND
  8
LAYER-1
  0
POLYLINE
  8
LAYER-1
 66
  1
 70
  0
 62
  0
 10
1.800568
 20
7.415507
 30
0.000000
  0
VERTEX
  8
LAYER-1
 10
1.800568
 20
7.415507
 30
0.000000
  0
VERTEX
  8
LAYER-1
 10
1.783460
 20
7.426490
 30
0.000000
  0
VERTEX
  8
LAYER-1
 10
1.766380
 20
7.422158
 30
0.000000
  0
VERTEX
  8
LAYER-1
 10
1.763664
 20
7.415505
 30
0.000000
  0
SEQEND
  8
LAYER-1
  0
POLYLINE
  8
LAYER-1
 66
  1
 70
  0
 62
  0
 10
1.763665
 20
7.415505
 30
0.000000
  0
VERTEX
  8
LAYER-1
 10
1.763665
 20
7.415505
 30
0.000000
  0
VERTEX
  8
LAYER-1
 10
1.800567
 20
7.415507
 30
0.000000
  0
SEQEND
  8
LAYER-1
  0
POLYLINE
  8
LAYER-1
 66
  1
 70
  0
 62
  0
 10
3.399199
 20
0.344848
 30
0.000000
  0
VERTEX
  8
LAYER-1
 10
3.399199
 20
0.344848
 30
0.000000
  0
VERTEX
  8
LAYER-1
 10
3.399199
 20
0.616480
 30
0.000000
  0
SEQEND
  8
LAYER-1
  0
POLYLINE
  8
LAYER-1
 66
  1
 70
  0
 62
  0
 10
3.068701
 20
0.616480
 30
0.000000
  0
VERTEX
  8
LAYER-1
 10
3.068701
 20
0.616480
 30
0.000000
  0
VERTEX
  8
LAYER-1
 10
3.068701
 20
0.344848
 30
0.000000
  0
SEQEND
  8
LAYER-1
  0
POLYLINE
  8
LAYER-1
 66
  1
 70
  0
 62
  0
 10
2.255870
 20
0.616480
 30
0.000000
  0
VERTEX
  8
LAYER-1
 10
2.255870
 20
0.616480
 30
0.000000
  0
VERTEX
  8
LAYER-1
 10
2.255870
 20
0.344848
 30
0.000000
  0
SEQEND
  8
LAYER-1
  0
POLYLINE
  8
LAYER-1
 66
  1
 70
  0
 62
  0
 10
2.437037
 20
0.344809
 30
0.000000
  0
VERTEX
  8
LAYER-1
 10
2.437037
 20
0.344809
 30
0.000000
  0
VERTEX
  8
LAYER-1
 10
2.437037
 20
0.616437
 30
0.000000
  0
SEQEND
  8
LAYER-1
  0
POLYLINE
  8
LAYER-1
 66
  1
 70
  0
 62
  0
 10
2.397178
 20
0.344809
 30
0.000000
  0
VERTEX
  8
LAYER-1
 10
2.397178
 20
0.344809
 30
0.000000
  0
VERTEX
  8
LAYER-1
 10
2.397178
 20
0.616437
 30
0.000000
  0
SEQEND
  8
LAYER-1
  0
POLYLINE
  8
LAYER-1
 66
  1
 70
  0
 62
  0
 10
3.251054
 20
0.344809
 30
0.000000
  0
VERTEX
  8
LAYER-1
 10
3.251054
 20
0.344809
 30
0.000000
  0
VERTEX
  8
LAYER-1
 10
3.251054
 20
0.616437
 30
0.000000
  0
SEQEND
  8
LAYER-1
  0
POLYLINE
  8
LAYER-1
 66
  1
 70
  0
 62
  0
 10
3.212238
 20
0.344809
 30
0.000000
  0
VERTEX
  8
LAYER-1
 10
3.212238
 20
0.344809
 30
0.000000
  0
VERTEX
  8
LAYER-1
 10
3.212238
 20
0.616437
 30
0.000000
  0
SEQEND
  8
LAYER-1
  0
POLYLINE
  8
LAYER-1
 66
  1
 70
  0
 62
  0
 10
2.984378
 20
0.344848
 30
0.000000
  0
VERTEX
  8
LAYER-1
 10
2.984378
 20
0.344848
 30
0.000000
  0
VERTEX
  8
LAYER-1
 10
2.984378
 20
0.616480
 30
0.000000
  0
SEQEND
  8
LAYER-1
  0
POLYLINE
  8
LAYER-1
 66
  1
 70
  0
 62
  0
 10
2.171548
 20
0.344848
 30
0.000000
  0
VERTEX
  8
LAYER-1
 10
2.171548
 20
0.344848
 30
0.000000
  0
VERTEX
  8
LAYER-1
 10
2.171548
 20
0.616480
 30
0.000000
  0
SEQEND
  8
LAYER-1
  0
POLYLINE
  8
LAYER-1
 66
  1
 70
  0
 62
  0
 10
2.026643
 20
0.345242
 30
0.000000
  0
VERTEX
  8
LAYER-1
 10
2.026643
 20
0.345242
 30
0.000000
  0
VERTEX
  8
LAYER-1
 10
2.026643
 20
0.616870
 30
0.000000
  0
SEQEND
  8
LAYER-1
  0
POLYLINE
  8
LAYER-1
 66
  1
 70
  0
 62
  0
 10
1.988260
 20
0.345242
 30
0.000000
  0
VERTEX
  8
LAYER-1
 10
1.988260
 20
0.345242
 30
0.000000
  0
VERTEX
  8
LAYER-1
 10
1.988260
 20
0.616870
 30
0.000000
  0
SEQEND
  8
LAYER-1
  0
POLYLINE
  8
LAYER-1
 66
  1
 70
  0
 62
  0
 10
2.844481
 20
0.344773
 30
0.000000
  0
VERTEX
  8
LAYER-1
 10
2.844481
 20
0.344773
 30
0.000000
  0
VERTEX
  8
LAYER-1
 10
2.844481
 20
0.616401
 30
0.000000
  0
SEQEND
  8
LAYER-1
  0
POLYLINE
  8
LAYER-1
 66
  1
 70
  0
 62
  0
 10
2.806098
 20
0.344773
 30
0.000000
  0
VERTEX
  8
LAYER-1
 10
2.806098
 20
0.344773
 30
0.000000
  0
VERTEX
  8
LAYER-1
 10
2.806098
 20
0.616401
 30
0.000000
  0
SEQEND
  8
LAYER-1
  0
POLYLINE
  8
LAYER-1
 66
  1
 70
  0
 62
  0
 10
3.471532
 20
0.616475
 30
0.000000
  0
VERTEX
  8
LAYER-1
 10
3.471532
 20
0.616475
 30
0.000000
  0
VERTEX
  8
LAYER-1
 10
3.471532
 20
0.344847
 30
0.000000
  0
SEQEND
  8
LAYER-1
  0
POLYLINE
  8
LAYER-1
 66
  1
 70
  0
 62
  0
 10
3.436102
 20
0.344847
 30
0.000000
  0
VERTEX
  8
LAYER-1
 10
3.436102
 20
0.344847
 30
0.000000
  0
VERTEX
  8
LAYER-1
 10
3.436102
 20
0.616478
 30
0.000000
  0
SEQEND
  8
LAYER-1
  0
POLYLINE
  8
LAYER-1
 66
  1
 70
  0
 62
  0
 10
3.437073
 20
0.344836
 30
0.000000
  0
VERTEX
  8
LAYER-1
 10
3.437073
 20
0.344836
 30
0.000000
  0
VERTEX
  8
LAYER-1
 10
3.447019
 20
0.337843
 30
0.000000
  0
VERTEX
  8
LAYER-1
 10
3.461781
 20
0.339932
 30
0.000000
  0
VERTEX
  8
LAYER-1
 10
3.470628
 20
0.344847
 30
0.000000
  0
SEQEND
  8
LAYER-1
  0
POLYLINE
  8
LAYER-1
 66
  1
 70
  0
 62
  0
 10
3.399199
 20
0.344848
 30
0.000000
  0
VERTEX
  8
LAYER-1
 10
3.399199
 20
0.344848
 30
0.000000
  0
VERTEX
  8
LAYER-1
 10
3.412370
 20
0.337801
 30
0.000000
  0
VERTEX
  8
LAYER-1
 10
3.429450
 20
0.342132
 30
0.000000
  0
VERTEX
  8
LAYER-1
 10
3.436102
 20
0.344847
 30
0.000000
  0
SEQEND
  8
LAYER-1
  0
POLYLINE
  8
LAYER-1
 66
  1
 70
  0
 62
  0
 10
2.983639
 20
0.345341
 30
0.000000
  0
VERTEX
  8
LAYER-1
 10
2.983639
 20
0.345341
 30
0.000000
  0
VERTEX
  8
LAYER-1
 10
2.999206
 20
0.339286
 30
0.000000
  0
VERTEX
  8
LAYER-1
 10
3.017280
 20
0.346011
 30
0.000000
  0
VERTEX
  8
LAYER-1
 10
3.020547
 20
0.345341
 30
0.000000
  0
SEQEND
  8
LAYER-1
  0
POLYLINE
  8
LAYER-1
 66
  1
 70
  0
 62
  0
 10
2.170681
 20
0.344872
 30
0.000000
  0
VERTEX
  8
LAYER-1
 10
2.170681
 20
0.344872
 30
0.000000
  0
VERTEX
  8
LAYER-1
 10
2.186248
 20
0.338815
 30
0.000000
  0
VERTEX
  8
LAYER-1
 10
2.204322
 20
0.345541
 30
0.000000
  0
VERTEX
  8
LAYER-1
 10
2.207588
 20
0.344872
 30
0.000000
  0
SEQEND
  8
LAYER-1
  0
POLYLINE
  8
LAYER-1
 66
  1
 70
  0
 62
  0
 10
3.031349
 20
0.345341
 30
0.000000
  0
VERTEX
  8
LAYER-1
 10
3.031349
 20
0.345341
 30
0.000000
  0
VERTEX
  8
LAYER-1
 10
3.046915
 20
0.339286
 30
0.000000
  0
VERTEX
  8
LAYER-1
 10
3.064989
 20
0.346011
 30
0.000000
  0
VERTEX
  8
LAYER-1
 10
3.068256
 20
0.345340
 30
0.000000
  0
SEQEND
  8
LAYER-1
  0
POLYLINE
  8
LAYER-1
 66
  1
 70
  0
 62
  0
 10
3.010885
 20
0.344782
 30
0.000000
  0
VERTEX
  8
LAYER-1
 10
3.010885
 20
0.344782
 30
0.000000
  0
VERTEX
  8
LAYER-1
 10
3.017700
 20
0.335713
 30
0.000000
  0
VERTEX
  8
LAYER-1
 10
3.031715
 20
0.334119
 30
0.000000
  0
VERTEX
  8
LAYER-1
 10
3.042752
 20
0.342902
 30
0.000000
  0
VERTEX
  8
LAYER-1
 10
3.046314
 20
0.344782
 30
0.000000
  0
SEQEND
  8
LAYER-1
  0
POLYLINE
  8
LAYER-1
 66
  1
 70
  0
 62
  0
 10
3.046313
 20
0.344782
 30
0.000000
  0
VERTEX
  8
LAYER-1
 10
3.046313
 20
0.344782
 30
0.000000
  0
VERTEX
  8
LAYER-1
 10
3.010885
 20
0.344782
 30
0.000000
  0
SEQEND
  8
LAYER-1
  0
POLYLINE
  8
LAYER-1
 66
  1
 70
  0
 62
  0
 10
2.219331
 20
0.344872
 30
0.000000
  0
VERTEX
  8
LAYER-1
 10
2.219331
 20
0.344872
 30
0.000000
  0
VERTEX
  8
LAYER-1
 10
2.234898
 20
0.338815
 30
0.000000
  0
VERTEX
  8
LAYER-1
 10
2.252972
 20
0.345541
 30
0.000000
  0
VERTEX
  8
LAYER-1
 10
2.256239
 20
0.344870
 30
0.000000
  0
SEQEND
  8
LAYER-1
  0
POLYLINE
  8
LAYER-1
 66
  1
 70
  0
 62
  0
 10
2.194638
 20
0.344782
 30
0.000000
  0
VERTEX
  8
LAYER-1
 10
2.194638
 20
0.344782
 30
0.000000
  0
VERTEX
  8
LAYER-1
 10
2.201452
 20
0.335713
 30
0.000000
  0
VERTEX
  8
LAYER-1
 10
2.215468
 20
0.334119
 30
0.000000
  0
VERTEX
  8
LAYER-1
 10
2.226504
 20
0.342902
 30
0.000000
  0
VERTEX
  8
LAYER-1
 10
2.230066
 20
0.344782
 30
0.000000
  0
SEQEND
  8
LAYER-1
  0
POLYLINE
  8
LAYER-1
 66
  1
 70
  0
 62
  0
 10
2.230066
 20
0.344782
 30
0.000000
  0
VERTEX
  8
LAYER-1
 10
2.230066
 20
0.344782
 30
0.000000
  0
VERTEX
  8
LAYER-1
 10
2.194638
 20
0.344782
 30
0.000000
  0
SEQEND
  8
LAYER-1
  0
POLYLINE
  8
LAYER-1
 66
  1
 70
  0
 62
  0
 10
3.470599
 20
0.616503
 30
0.000000
  0
VERTEX
  8
LAYER-1
 10
3.470599
 20
0.616503
 30
0.000000
  0
VERTEX
  8
LAYER-1
 10
3.456721
 20
0.627441
 30
0.000000
  0
VERTEX
  8
LAYER-1
 10
3.441958
 20
0.625363
 30
0.000000
  0
VERTEX
  8
LAYER-1
 10
3.437379
 20
0.617063
 30
0.000000
  0
SEQEND
  8
LAYER-1
  0
POLYLINE
  8
LAYER-1
 66
  1
 70
  0
 62
  0
 10
3.437379
 20
0.617064
 30
0.000000
  0
VERTEX
  8
LAYER-1
 10
3.437379
 20
0.617064
 30
0.000000
  0
VERTEX
  8
LAYER-1
 10
3.470598
 20
0.616503
 30
0.000000
  0
SEQEND
  8
LAYER-1
  0
POLYLINE
  8
LAYER-1
 66
  1
 70
  0
 62
  0
 10
3.435170
 20
0.616503
 30
0.000000
  0
VERTEX
  8
LAYER-1
 10
3.435170
 20
0.616503
 30
0.000000
  0
VERTEX
  8
LAYER-1
 10
3.418061
 20
0.627486
 30
0.000000
  0
VERTEX
  8
LAYER-1
 10
3.400981
 20
0.623155
 30
0.000000
  0
VERTEX
  8
LAYER-1
 10
3.398266
 20
0.616502
 30
0.000000
  0
SEQEND
  8
LAYER-1
  0
POLYLINE
  8
LAYER-1
 66
  1
 70
  0
 62
  0
 10
3.398266
 20
0.616503
 30
0.000000
  0
VERTEX
  8
LAYER-1
 10
3.398266
 20
0.616503
 30
0.000000
  0
VERTEX
  8
LAYER-1
 10
3.435169
 20
0.616503
 30
0.000000
  0
SEQEND
  8
LAYER-1
  0
POLYLINE
  8
LAYER-1
 66
  1
 70
  0
 62
  0
 10
3.068330
 20
0.616949
 30
0.000000
  0
VERTEX
  8
LAYER-1
 10
3.068330
 20
0.616949
 30
0.000000
  0
VERTEX
  8
LAYER-1
 10
3.048826
 20
0.626941
 30
0.000000
  0
VERTEX
  8
LAYER-1
 10
3.030752
 20
0.620216
 30
0.000000
  0
VERTEX
  8
LAYER-1
 10
3.031423
 20
0.616948
 30
0.000000
  0
SEQEND
  8
LAYER-1
  0
POLYLINE
  8
LAYER-1
 66
  1
 70
  0
 62
  0
 10
3.021089
 20
0.616949
 30
0.000000
  0
VERTEX
  8
LAYER-1
 10
3.021089
 20
0.616949
 30
0.000000
  0
VERTEX
  8
LAYER-1
 10
3.001585
 20
0.626941
 30
0.000000
  0
VERTEX
  8
LAYER-1
 10
2.983511
 20
0.620216
 30
0.000000
  0
VERTEX
  8
LAYER-1
 10
2.984182
 20
0.616948
 30
0.000000
  0
SEQEND
  8
LAYER-1
  0
POLYLINE
  8
LAYER-1
 66
  1
 70
  0
 62
  0
 10
3.046856
 20
0.617038
 30
0.000000
  0
VERTEX
  8
LAYER-1
 10
3.046856
 20
0.617038
 30
0.000000
  0
VERTEX
  8
LAYER-1
 10
3.036104
 20
0.630044
 30
0.000000
  0
VERTEX
  8
LAYER-1
 10
3.022089
 20
0.631638
 30
0.000000
  0
VERTEX
  8
LAYER-1
 10
3.011052
 20
0.622854
 30
0.000000
  0
VERTEX
  8
LAYER-1
 10
3.011427
 20
0.617038
 30
0.000000
  0
SEQEND
  8
LAYER-1
  0
POLYLINE
  8
LAYER-1
 66
  1
 70
  0
 62
  0
 10
3.046856
 20
0.617039
 30
0.000000
  0
VERTEX
  8
LAYER-1
 10
3.046856
 20
0.617039
 30
0.000000
  0
VERTEX
  8
LAYER-1
 10
3.011427
 20
0.617039
 30
0.000000
  0
SEQEND
  8
LAYER-1
  0
POLYLINE
  8
LAYER-1
 66
  1
 70
  0
 62
  0
 10
2.255775
 20
0.616949
 30
0.000000
  0
VERTEX
  8
LAYER-1
 10
2.255775
 20
0.616949
 30
0.000000
  0
VERTEX
  8
LAYER-1
 10
2.236271
 20
0.626941
 30
0.000000
  0
VERTEX
  8
LAYER-1
 10
2.218197
 20
0.620216
 30
0.000000
  0
VERTEX
  8
LAYER-1
 10
2.218868
 20
0.616948
 30
0.000000
  0
SEQEND
  8
LAYER-1
  0
POLYLINE
  8
LAYER-1
 66
  1
 70
  0
 62
  0
 10
2.207596
 20
0.616949
 30
0.000000
  0
VERTEX
  8
LAYER-1
 10
2.207596
 20
0.616949
 30
0.000000
  0
VERTEX
  8
LAYER-1
 10
2.188091
 20
0.626941
 30
0.000000
  0
VERTEX
  8
LAYER-1
 10
2.170018
 20
0.620216
 30
0.000000
  0
VERTEX
  8
LAYER-1
 10
2.170688
 20
0.616948
 30
0.000000
  0
SEQEND
  8
LAYER-1
  0
POLYLINE
  8
LAYER-1
 66
  1
 70
  0
 62
  0
 10
2.230073
 20
0.617038
 30
0.000000
  0
VERTEX
  8
LAYER-1
 10
2.230073
 20
0.617038
 30
0.000000
  0
VERTEX
  8
LAYER-1
 10
2.219321
 20
0.630044
 30
0.000000
  0
VERTEX
  8
LAYER-1
 10
2.205306
 20
0.631638
 30
0.000000
  0
VERTEX
  8
LAYER-1
 10
2.194269
 20
0.622854
 30
0.000000
  0
VERTEX
  8
LAYER-1
 10
2.194644
 20
0.617038
 30
0.000000
  0
SEQEND
  8
LAYER-1
  0
POLYLINE
  8
LAYER-1
 66
  1
 70
  0
 62
  0
 10
2.230072
 20
0.617039
 30
0.000000
  0
VERTEX
  8
LAYER-1
 10
2.230072
 20
0.617039
 30
0.000000
  0
VERTEX
  8
LAYER-1
 10
2.194644
 20
0.617039
 30
0.000000
  0
SEQEND
  8
LAYER-1
  0
POLYLINE
  8
LAYER-1
 66
  1
 70
  1
 62
  0
  0
VERTEX
  8
LAYER-1
 10
3.046313
 20
0.344848
 30
0.000000
  0
VERTEX
  8
LAYER-1
 10
3.010883
 20
0.344848
 30
0.000000
  0
VERTEX
  8
LAYER-1
 10
3.010883
 20
0.616476
 30
0.000000
  0
VERTEX
  8
LAYER-1
 10
3.046313
 20
0.616476
 30
0.000000
  0
SEQEND
  8
LAYER-1
  0
POLYLINE
  8
LAYER-1
 66
  1
 70
  1
 62
  0
  0
VERTEX
  8
LAYER-1
 10
2.230000
 20
0.344848
 30
0.000000
  0
VERTEX
  8
LAYER-1
 10
2.194569
 20
0.344848
 30
0.000000
  0
VERTEX
  8
LAYER-1
 10
2.194569
 20
0.616476
 30
0.000000
  0
VERTEX
  8
LAYER-1
 10
2.230000
 20
0.616476
 30
0.000000
  0
SEQEND
  8
LAYER-1
  0
POLYLINE
  8
LAYER-1
 66
  1
 70
  0
 62
  0
 10
3.046313
 20
0.412754
 30
0.000000
  0
VERTEX
  8
LAYER-1
 10
3.046313
 20
0.412754
 30
0.000000
  0
VERTEX
  8
LAYER-1
 10
3.010883
 20
0.412754
 30
0.000000
  0
SEQEND
  8
LAYER-1
  0
POLYLINE
  8
LAYER-1
 66
  1
 70
  0
 62
  0
 10
3.046313
 20
0.542664
 30
0.000000
  0
VERTEX
  8
LAYER-1
 10
3.046313
 20
0.542664
 30
0.000000
  0
VERTEX
  8
LAYER-1
 10
3.010883
 20
0.542664
 30
0.000000
  0
SEQEND
  8
LAYER-1
  0
POLYLINE
  8
LAYER-1
 66
  1
 70
  0
 62
  0
 10
2.230000
 20
0.412754
 30
0.000000
  0
VERTEX
  8
LAYER-1
 10
2.230000
 20
0.412754
 30
0.000000
  0
VERTEX
  8
LAYER-1
 10
2.194571
 20
0.412754
 30
0.000000
  0
SEQEND
  8
LAYER-1
  0
POLYLINE
  8
LAYER-1
 66
  1
 70
  0
 62
  0
 10
2.230000
 20
0.542664
 30
0.000000
  0
VERTEX
  8
LAYER-1
 10
2.230000
 20
0.542664
 30
0.000000
  0
VERTEX
  8
LAYER-1
 10
2.194571
 20
0.542664
 30
0.000000
  0
SEQEND
  8
LAYER-1
  0
POLYLINE
  8
LAYER-1
 66
  1
 70
  0
 62
  0
 10
3.215426
 20
0.344731
 30
0.000000
  0
VERTEX
  8
LAYER-1
 10
3.215426
 20
0.344731
 30
0.000000
  0
VERTEX
  8
LAYER-1
 10
3.225662
 20
0.338137
 30
0.000000
  0
VERTEX
  8
LAYER-1
 10
3.240346
 20
0.340712
 30
0.000000
  0
VERTEX
  8
LAYER-1
 10
3.248645
 20
0.345291
 30
0.000000
  0
SEQEND
  8
LAYER-1
  0
POLYLINE
  8
LAYER-1
 66
  1
 70
  0
 62
  0
 10
2.398247
 20
0.344910
 30
0.000000
  0
VERTEX
  8
LAYER-1
 10
2.398247
 20
0.344910
 30
0.000000
  0
VERTEX
  8
LAYER-1
 10
2.411418
 20
0.337863
 30
0.000000
  0
VERTEX
  8
LAYER-1
 10
2.428499
 20
0.342194
 30
0.000000
  0
VERTEX
  8
LAYER-1
 10
2.435151
 20
0.344909
 30
0.000000
  0
SEQEND
  8
LAYER-1
  0
POLYLINE
  8
LAYER-1
 66
  1
 70
  0
 62
  0
 10
2.655567
 20
0.616507
 30
0.000000
  0
VERTEX
  8
LAYER-1
 10
2.655567
 20
0.616507
 30
0.000000
  0
VERTEX
  8
LAYER-1
 10
2.641689
 20
0.627444
 30
0.000000
  0
VERTEX
  8
LAYER-1
 10
2.626927
 20
0.625365
 30
0.000000
  0
VERTEX
  8
LAYER-1
 10
2.622347
 20
0.617066
 30
0.000000
  0
SEQEND
  8
LAYER-1
  0
POLYLINE
  8
LAYER-1
 66
  1
 70
  0
 62
  0
 10
2.622348
 20
0.617066
 30
0.000000
  0
VERTEX
  8
LAYER-1
 10
2.622348
 20
0.617066
 30
0.000000
  0
VERTEX
  8
LAYER-1
 10
2.655567
 20
0.616505
 30
0.000000
  0
SEQEND
  8
LAYER-1
  0
POLYLINE
  8
LAYER-1
 66
  1
 70
  0
 62
  0
 10
2.620139
 20
0.616505
 30
0.000000
  0
VERTEX
  8
LAYER-1
 10
2.620139
 20
0.616505
 30
0.000000
  0
VERTEX
  8
LAYER-1
 10
2.603030
 20
0.627489
 30
0.000000
  0
VERTEX
  8
LAYER-1
 10
2.585950
 20
0.623158
 30
0.000000
  0
VERTEX
  8
LAYER-1
 10
2.583235
 20
0.616504
 30
0.000000
  0
SEQEND
  8
LAYER-1
  0
POLYLINE
  8
LAYER-1
 66
  1
 70
  0
 62
  0
 10
2.583235
 20
0.616504
 30
0.000000
  0
VERTEX
  8
LAYER-1
 10
2.583235
 20
0.616504
 30
0.000000
  0
VERTEX
  8
LAYER-1
 10
2.620138
 20
0.616505
 30
0.000000
  0
SEQEND
  8
LAYER-1
  0
POLYLINE
  8
LAYER-1
 66
  1
 70
  0
 62
  0
 10
2.584406
 20
0.344848
 30
0.000000
  0
VERTEX
  8
LAYER-1
 10
2.584406
 20
0.344848
 30
0.000000
  0
VERTEX
  8
LAYER-1
 10
2.584406
 20
0.616480
 30
0.000000
  0
SEQEND
  8
LAYER-1
  0
POLYLINE
  8
LAYER-1
 66
  1
 70
  0
 62
  0
 10
2.656740
 20
0.616475
 30
0.000000
  0
VERTEX
  8
LAYER-1
 10
2.656740
 20
0.616475
 30
0.000000
  0
VERTEX
  8
LAYER-1
 10
2.656740
 20
0.344847
 30
0.000000
  0
SEQEND
  8
LAYER-1
  0
POLYLINE
  8
LAYER-1
 66
  1
 70
  0
 62
  0
 10
2.621310
 20
0.344847
 30
0.000000
  0
VERTEX
  8
LAYER-1
 10
2.621310
 20
0.344847
 30
0.000000
  0
VERTEX
  8
LAYER-1
 10
2.621310
 20
0.616478
 30
0.000000
  0
SEQEND
  8
LAYER-1
  0
POLYLINE
  8
LAYER-1
 66
  1
 70
  0
 62
  0
 10
2.623215
 20
0.344429
 30
0.000000
  0
VERTEX
  8
LAYER-1
 10
2.623215
 20
0.344429
 30
0.000000
  0
VERTEX
  8
LAYER-1
 10
2.633451
 20
0.337835
 30
0.000000
  0
VERTEX
  8
LAYER-1
 10
2.648136
 20
0.340409
 30
0.000000
  0
VERTEX
  8
LAYER-1
 10
2.656435
 20
0.344989
 30
0.000000
  0
SEQEND
  8
LAYER-1
  0
POLYLINE
  8
LAYER-1
 66
  1
 70
  0
 62
  0
 10
2.623216
 20
0.344428
 30
0.000000
  0
VERTEX
  8
LAYER-1
 10
2.623216
 20
0.344428
 30
0.000000
  0
VERTEX
  8
LAYER-1
 10
2.656435
 20
0.344989
 30
0.000000
  0
SEQEND
  8
LAYER-1
  0
POLYLINE
  8
LAYER-1
 66
  1
 70
  0
 62
  0
 10
2.584103
 20
0.344990
 30
0.000000
  0
VERTEX
  8
LAYER-1
 10
2.584103
 20
0.344990
 30
0.000000
  0
VERTEX
  8
LAYER-1
 10
2.597274
 20
0.337943
 30
0.000000
  0
VERTEX
  8
LAYER-1
 10
2.614354
 20
0.342274
 30
0.000000
  0
VERTEX
  8
LAYER-1
 10
2.621007
 20
0.344989
 30
0.000000
  0
SEQEND
  8
LAYER-1
  0
POLYLINE
  8
LAYER-1
 66
  1
 70
  0
 62
  0
 10
2.584103
 20
0.344989
 30
0.000000
  0
VERTEX
  8
LAYER-1
 10
2.584103
 20
0.344989
 30
0.000000
  0
VERTEX
  8
LAYER-1
 10
2.621006
 20
0.344989
 30
0.000000
  0
SEQEND
  8
LAYER-1
  0
POLYLINE
  8
LAYER-1
 66
  1
 70
  0
 62
  0
 10
1.835567
 20
0.616507
 30
0.000000
  0
VERTEX
  8
LAYER-1
 10
1.835567
 20
0.616507
 30
0.000000
  0
VERTEX
  8
LAYER-1
 10
1.821690
 20
0.627444
 30
0.000000
  0
VERTEX
  8
LAYER-1
 10
1.806927
 20
0.625365
 30
0.000000
  0
VERTEX
  8
LAYER-1
 10
1.802347
 20
0.617066
 30
0.000000
  0
SEQEND
  8
LAYER-1
  0
POLYLINE
  8
LAYER-1
 66
  1
 70
  0
 62
  0
 10
1.802348
 20
0.617066
 30
0.000000
  0
VERTEX
  8
LAYER-1
 10
1.802348
 20
0.617066
 30
0.000000
  0
VERTEX
  8
LAYER-1
 10
1.835567
 20
0.616505
 30
0.000000
  0
SEQEND
  8
LAYER-1
  0
POLYLINE
  8
LAYER-1
 66
  1
 70
  0
 62
  0
 10
1.800138
 20
0.616505
 30
0.000000
  0
VERTEX
  8
LAYER-1
 10
1.800138
 20
0.616505
 30
0.000000
  0
VERTEX
  8
LAYER-1
 10
1.783030
 20
0.627489
 30
0.000000
  0
VERTEX
  8
LAYER-1
 10
1.765950
 20
0.623158
 30
0.000000
  0
VERTEX
  8
LAYER-1
 10
1.763235
 20
0.616504
 30
0.000000
  0
SEQEND
  8
LAYER-1
  0
POLYLINE
  8
LAYER-1
 66
  1
 70
  0
 62
  0
 10
1.763235
 20
0.616504
 30
0.000000
  0
VERTEX
  8
LAYER-1
 10
1.763235
 20
0.616504
 30
0.000000
  0
VERTEX
  8
LAYER-1
 10
1.800138
 20
0.616505
 30
0.000000
  0
SEQEND
  8
LAYER-1
  0
POLYLINE
  8
LAYER-1
 66
  1
 70
  0
 62
  0
 10
1.764406
 20
0.344848
 30
0.000000
  0
VERTEX
  8
LAYER-1
 10
1.764406
 20
0.344848
 30
0.000000
  0
VERTEX
  8
LAYER-1
 10
1.764406
 20
0.616480
 30
0.000000
  0
SEQEND
  8
LAYER-1
  0
POLYLINE
  8
LAYER-1
 66
  1
 70
  0
 62
  0
 10
1.836740
 20
0.616475
 30
0.000000
  0
VERTEX
  8
LAYER-1
 10
1.836740
 20
0.616475
 30
0.000000
  0
VERTEX
  8
LAYER-1
 10
1.836740
 20
0.344847
 30
0.000000
  0
SEQEND
  8
LAYER-1
  0
POLYLINE
  8
LAYER-1
 66
  1
 70
  0
 62
  0
 10
1.801310
 20
0.344847
 30
0.000000
  0
VERTEX
  8
LAYER-1
 10
1.801310
 20
0.344847
 30
0.000000
  0
VERTEX
  8
LAYER-1
 10
1.801310
 20
0.616478
 30
0.000000
  0
SEQEND
  8
LAYER-1
  0
POLYLINE
  8
LAYER-1
 66
  1
 70
  0
 62
  0
 10
1.803216
 20
0.344429
 30
0.000000
  0
VERTEX
  8
LAYER-1
 10
1.803216
 20
0.344429
 30
0.000000
  0
VERTEX
  8
LAYER-1
 10
1.813452
 20
0.337835
 30
0.000000
  0
VERTEX
  8
LAYER-1
 10
1.828136
 20
0.340409
 30
0.000000
  0
VERTEX
  8
LAYER-1
 10
1.836436
 20
0.344989
 30
0.000000
  0
SEQEND
  8
LAYER-1
  0
POLYLINE
  8
LAYER-1
 66
  1
 70
  0
 62
  0
 10
1.803216
 20
0.344428
 30
0.000000
  0
VERTEX
  8
LAYER-1
 10
1.803216
 20
0.344428
 30
0.000000
  0
VERTEX
  8
LAYER-1
 10
1.836435
 20
0.344989
 30
0.000000
  0
SEQEND
  8
LAYER-1
  0
POLYLINE
  8
LAYER-1
 66
  1
 70
  0
 62
  0
 10
1.764103
 20
0.344990
 30
0.000000
  0
VERTEX
  8
LAYER-1
 10
1.764103
 20
0.344990
 30
0.000000
  0
VERTEX
  8
LAYER-1
 10
1.777274
 20
0.337943
 30
0.000000
  0
VERTEX
  8
LAYER-1
 10
1.794354
 20
0.342274
 30
0.000000
  0
VERTEX
  8
LAYER-1
 10
1.801007
 20
0.344989
 30
0.000000
  0
SEQEND
  8
LAYER-1
  0
POLYLINE
  8
LAYER-1
 66
  1
 70
  0
 62
  0
 10
1.764104
 20
0.344989
 30
0.000000
  0
VERTEX
  8
LAYER-1
 10
1.764104
 20
0.344989
 30
0.000000
  0
VERTEX
  8
LAYER-1
 10
1.801006
 20
0.344989
 30
0.000000
  0
SEQEND
  8
LAYER-1
  0
POLYLINE
  8
LAYER-1
 66
  1
 70
  1
 62
  0
  0
VERTEX
  8
LAYER-1
 10
3.660033
 20
7.415132
 30
0.000000
  0
VERTEX
  8
LAYER-1
 10
3.828915
 20
7.415132
 30
0.000000
  0
VERTEX
  8
LAYER-1
 10
3.828915
 20
0.345306
 30
0.000000
  0
VERTEX
  8
LAYER-1
 10
3.660033
 20
0.345306
 30
0.000000
  0
SEQEND
  8
LAYER-1
  0
CIRCLE
  8
LAYER-1
 62
  0
 10
3.744680
 20
3.180689
 30
0.000000
 40
0.064283
  0
LINE
  8
LAYER-1
 62
  0
 10
6.750760
 20
7.482560
 30
0.000000
 11
0.747288
 21
7.482560
 31
0.000000
  0
LINE
  8
LAYER-1
 62
  0
 10
6.750760
 20
7.592560
 30
0.000000
 11
0.747288
 21
7.592560
 31
0.000000
  0
LINE
  8
LAYER-1
 62
  0
 10
1.306316
 20
7.480596
 30
0.000000
 11
1.306316
 21
7.590574
 31
0.000000
  0
LINE
  8
LAYER-1
 62
  0
 10
1.246947
 20
7.480596
 30
0.000000
 11
1.431316
 21
7.480596
 31
0.000000
  0
LINE
  8
LAYER-1
 62
  0
 10
1.247288
 20
7.590574
 30
0.000000
 11
1.431316
 21
7.590574
 31
0.000000
  0
LINE
  8
LAYER-1
 62
  0
 10
1.306316
 20
7.590574
 30
0.000000
 11
1.306316
 21
7.225060
 31
0.000000
  0
LINE
  8
LAYER-1
 62
  0
 10
1.276853
 20
7.510059
 30
0.000000
 11
1.335778
 21
7.451133
 31
0.000000
  0
LINE
  8
LAYER-1
 62
  0
 10
1.276853
 20
7.620038
 30
0.000000
 11
1.335778
 21
7.561111
 31
0.000000
  0
TEXT
  8
LAYER-1
 62
  0
 10
1.296255
 20
7.099185
 30
0.000000
 40
0.125000
  1
 
  0
POLYLINE
  8
LAYER-1
 66
  1
 70
  1
 62
  0
  0
VERTEX
  8
LAYER-1
 10
3.767799
 20
7.480557
 30
0.000000
  0
VERTEX
  8
LAYER-1
 10
3.792895
 20
7.480557
 30
0.000000
  0
VERTEX
  8
LAYER-1
 10
3.792895
 20
7.415106
 30
0.000000
  0
VERTEX
  8
LAYER-1
 10
3.767799
 20
7.415106
 30
0.000000
  0
SEQEND
  8
LAYER-1
  0
POLYLINE
  8
LAYER-1
 66
  1
 70
  1
 62
  0
  0
VERTEX
  8
LAYER-1
 10
4.651105
 20
7.480899
 30
0.000000
  0
VERTEX
  8
LAYER-1
 10
4.676200
 20
7.480899
 30
0.000000
  0
VERTEX
  8
LAYER-1
 10
4.676200
 20
7.414979
 30
0.000000
  0
VERTEX
  8
LAYER-1
 10
4.651105
 20
7.414979
 30
0.000000
  0
SEQEND
  8
LAYER-1
  0
POLYLINE
  8
LAYER-1
 66
  1
 70
  1
 62
  0
  0
VERTEX
  8
LAYER-1
 10
5.468076
 20
7.480899
 30
0.000000
  0
VERTEX
  8
LAYER-1
 10
5.493172
 20
7.480899
 30
0.000000
  0
VERTEX
  8
LAYER-1
 10
5.493172
 20
7.414979
 30
0.000000
  0
VERTEX
  8
LAYER-1
 10
5.468076
 20
7.414979
 30
0.000000
  0
SEQEND
  8
LAYER-1
  0
POLYLINE
  8
LAYER-1
 66
  1
 70
  1
 62
  0
  0
VERTEX
  8
LAYER-1
 10
3.689237
 20
0.345431
 30
0.000000
  0
VERTEX
  8
LAYER-1
 10
3.722794
 20
0.345431
 30
0.000000
  0
VERTEX
  8
LAYER-1
 10
3.722794
 20
0.249925
 30
0.000000
  0
VERTEX
  8
LAYER-1
 10
3.689237
 20
0.249925
 30
0.000000
  0
SEQEND
  8
LAYER-1
  0
POLYLINE
  8
LAYER-1
 66
  1
 70
  0
 62
  0
 10
3.702333
 20
2.123049
 30
0.000000
  0
VERTEX
  8
LAYER-1
 10
3.702333
 20
2.123049
 30
0.000000
  0
VERTEX
  8
LAYER-1
 10
3.702335
 20
2.123049
 30
0.000000
  0
SEQEND
  8
LAYER-1
  0
POLYLINE
  8
LAYER-1
 66
  1
 70
  0
 62
  0
 10
3.710299
 20
2.115085
 30
0.000000
  0
VERTEX
  8
LAYER-1
 10
3.710299
 20
2.115085
 30
0.000000
  0
VERTEX
  8
LAYER-1
 10
3.710299
 20
1.865542
 30
0.000000
  0
SEQEND
  8
LAYER-1
  0
POLYLINE
  8
LAYER-1
 66
  1
 70
  0
 62
  0
 10
3.702335
 20
1.857578
 30
0.000000
  0
VERTEX
  8
LAYER-1
 10
3.702335
 20
1.857578
 30
0.000000
  0
VERTEX
  8
LAYER-1
 10
3.702333
 20
1.857578
 30
0.000000
  0
SEQEND
  8
LAYER-1
  0
POLYLINE
  8
LAYER-1
 66
  1
 70
  0
 62
  0
 10
3.694369
 20
1.865542
 30
0.000000
  0
VERTEX
  8
LAYER-1
 10
3.694369
 20
1.865542
 30
0.000000
  0
VERTEX
  8
LAYER-1
 10
3.694369
 20
2.115085
 30
0.000000
  0
SEQEND
  8
LAYER-1
  0
ARC
  8
LAYER-1
 62
  0
 10
3.702333
 20
2.115085
 30
0.000000
 40
0.007964
 50
270.000000
 51
0.000000
  0
ARC
  8
LAYER-1
 62
  0
 10
3.702333
 20
1.865542
 30
0.000000
 40
0.007964
 50
0.000000
 51
90.000000
  0
ARC
  8
LAYER-1
 62
  0
 10
3.702335
 20
1.865542
 30
0.000000
 40
0.007964
 50
90.000000
 51
180.000000
  0
ARC
  8
LAYER-1
 62
  0
 10
3.702335
 20
2.115085
 30
0.000000
 40
0.007964
 50
180.000000
 51
270.000000
  0
POLYLINE
  8
LAYER-1
 66
  1
 70
  1
 62
  0
  0
VERTEX
  8
LAYER-1
 10
2.812570
 20
7.480603
 30
0.000000
  0
VERTEX
  8
LAYER-1
 10
2.837666
 20
7.480603
 30
0.000000
  0
VERTEX
  8
LAYER-1
 10
2.837666
 20
7.415622
 30
0.000000
  0
VERTEX
  8
LAYER-1
 10
2.812570
 20
7.415622
 30
0.000000
  0
SEQEND
  8
LAYER-1
  0
POLYLINE
  8
LAYER-1
 66
  1
 70
  1
 62
  0
  0
VERTEX
  8
LAYER-1
 10
1.994731
 20
7.480603
 30
0.000000
  0
VERTEX
  8
LAYER-1
 10
2.019827
 20
7.480603
 30
0.000000
  0
VERTEX
  8
LAYER-1
 10
2.019827
 20
7.415622
 30
0.000000
  0
VERTEX
  8
LAYER-1
 10
1.994731
 20
7.415622
 30
0.000000
  0
SEQEND
  8
LAYER-1
  0
POLYLINE
  8
LAYER-1
 66
  1
 70
  0
 62
  0
 10
3.659334
 20
0.242265
 30
0.000000
  0
VERTEX
  8
LAYER-1
 10
3.659334
 20
0.242265
 30
0.000000
  0
VERTEX
  8
LAYER-1
 10
3.672112
 20
0.249830
 30
0.000000
  0
SEQEND
  8
LAYER-1
  0
POLYLINE
  8
LAYER-1
 66
  1
 70
  0
 62
  0
 10
3.659334
 20
0.242265
 30
0.000000
  0
VERTEX
  8
LAYER-1
 10
3.659334
 20
0.242265
 30
0.000000
  0
VERTEX
  8
LAYER-1
 10
3.659334
 20
0.240700
 30
0.000000
  0
SEQEND
  8
LAYER-1
  0
POLYLINE
  8
LAYER-1
 66
  1
 70
  1
 62
  0
  0
VERTEX
  8
LAYER-1
 10
3.677777
 20
0.240686
 30
0.000000
  0
VERTEX
  8
LAYER-1
 10
3.734364
 20
0.240686
 30
0.000000
  0
VERTEX
  8
LAYER-1
 10
3.734364
 20
0.053023
 30
0.000000
  0
VERTEX
  8
LAYER-1
 10
3.677777
 20
0.053023
 30
0.000000
  0
SEQEND
  8
LAYER-1
  0
POLYLINE
  8
LAYER-1
  6
LTYPE01
 66
  1
 70
  1
 62
  0
  0
VERTEX
  8
LAYER-1
  6
LTYPE01
 10
3.682471
 20
0.249812
 30
0.000000
  0
VERTEX
  8
LAYER-1
  6
LTYPE01
 10
3.729411
 20
0.249812
 30
0.000000
  0
VERTEX
  8
LAYER-1
  6
LTYPE01
 10
3.729411
 20
0.062584
 30
0.000000
  0
VERTEX
  8
LAYER-1
  6
LTYPE01
 10
3.682471
 20
0.062584
 30
0.000000
  0
SEQEND
  8
LAYER-1
  0
POLYLINE
  8
LAYER-1
 66
  1
 70
  0
 62
  0
 10
3.659334
 20
0.240700
 30
0.000000
  0
VERTEX
  8
LAYER-1
 10
3.659334
 20
0.240700
 30
0.000000
  0
VERTEX
  8
LAYER-1
 10
3.752951
 20
0.240700
 30
0.000000
  0
SEQEND
  8
LAYER-1
  0
POLYLINE
  8
LAYER-1
 66
  1
 70
  0
 62
  0
 10
3.752951
 20
0.240700
 30
0.000000
  0
VERTEX
  8
LAYER-1
 10
3.752951
 20
0.240700
 30
0.000000
  0
VERTEX
  8
LAYER-1
 10
3.752951
 20
0.242265
 30
0.000000
  0
SEQEND
  8
LAYER-1
  0
POLYLINE
  8
LAYER-1
 66
  1
 70
  0
 62
  0
 10
3.752951
 20
0.242265
 30
0.000000
  0
VERTEX
  8
LAYER-1
 10
3.752951
 20
0.242265
 30
0.000000
  0
VERTEX
  8
LAYER-1
 10
3.739911
 20
0.249830
 30
0.000000
  0
SEQEND
  8
LAYER-1
  0
POLYLINE
  8
LAYER-1
  6
LTYPE02
 66
  1
 70
  0
 62
  0
  6
LTYPE02
 10
3.683716
 20
0.149043
 30
0.000000
  0
VERTEX
  8
LAYER-1
  6
LTYPE02
 10
3.683716
 20
0.149043
 30
0.000000
  0
VERTEX
  8
LAYER-1
  6
LTYPE02
 10
3.683716
 20
0.115144
 30
0.000000
  0
SEQEND
  8
LAYER-1
  0
POLYLINE
  8
LAYER-1
  6
LTYPE02
 66
  1
 70
  0
 62
  0
  6
LTYPE02
 10
3.687624
 20
0.149043
 30
0.000000
  0
VERTEX
  8
LAYER-1
  6
LTYPE02
 10
3.687624
 20
0.149043
 30
0.000000
  0
VERTEX
  8
LAYER-1
  6
LTYPE02
 10
3.683716
 20
0.149043
 30
0.000000
  0
SEQEND
  8
LAYER-1
  0
POLYLINE
  8
LAYER-1
  6
LTYPE02
 66
  1
 70
  0
 62
  0
  6
LTYPE02
 10
3.687624
 20
0.149043
 30
0.000000
  0
VERTEX
  8
LAYER-1
  6
LTYPE02
 10
3.687624
 20
0.149043
 30
0.000000
  0
VERTEX
  8
LAYER-1
  6
LTYPE02
 10
3.687624
 20
0.153475
 30
0.000000
  0
SEQEND
  8
LAYER-1
  0
POLYLINE
  8
LAYER-1
  6
LTYPE02
 66
  1
 70
  0
 62
  0
  6
LTYPE02
 10
3.687624
 20
0.153475
 30
0.000000
  0
VERTEX
  8
LAYER-1
  6
LTYPE02
 10
3.687624
 20
0.153475
 30
0.000000
  0
VERTEX
  8
LAYER-1
  6
LTYPE02
 10
3.724884
 20
0.153475
 30
0.000000
  0
SEQEND
  8
LAYER-1
  0
POLYLINE
  8
LAYER-1
  6
LTYPE02
 66
  1
 70
  0
 62
  0
  6
LTYPE02
 10
3.683716
 20
0.115144
 30
0.000000
  0
VERTEX
  8
LAYER-1
  6
LTYPE02
 10
3.683716
 20
0.115144
 30
0.000000
  0
VERTEX
  8
LAYER-1
  6
LTYPE02
 10
3.728047
 20
0.115144
 30
0.000000
  0
SEQEND
  8
LAYER-1
  0
POLYLINE
  8
LAYER-1
  6
LTYPE02
 66
  1
 70
  0
 62
  0
  6
LTYPE02
 10
3.728047
 20
0.115144
 30
0.000000
  0
VERTEX
  8
LAYER-1
  6
LTYPE02
 10
3.728047
 20
0.115144
 30
0.000000
  0
VERTEX
  8
LAYER-1
  6
LTYPE02
 10
3.728047
 20
0.149043
 30
0.000000
  0
SEQEND
  8
LAYER-1
  0
POLYLINE
  8
LAYER-1
  6
LTYPE02
 66
  1
 70
  0
 62
  0
  6
LTYPE02
 10
3.724884
 20
0.149043
 30
0.000000
  0
VERTEX
  8
LAYER-1
  6
LTYPE02
 10
3.724884
 20
0.149043
 30
0.000000
  0
VERTEX
  8
LAYER-1
  6
LTYPE02
 10
3.728047
 20
0.149043
 30
0.000000
  0
SEQEND
  8
LAYER-1
  0
POLYLINE
  8
LAYER-1
  6
LTYPE02
 66
  1
 70
  0
 62
  0
  6
LTYPE02
 10
3.724884
 20
0.153475
 30
0.000000
  0
VERTEX
  8
LAYER-1
  6
LTYPE02
 10
3.724884
 20
0.153475
 30
0.000000
  0
VERTEX
  8
LAYER-1
  6
LTYPE02
 10
3.724884
 20
0.149043
 30
0.000000
  0
SEQEND
  8
LAYER-1
  0
POLYLINE
  8
LAYER-1
  6
LTYPE01
 66
  1
 70
  1
 62
  0
  0
VERTEX
  8
LAYER-1
  6
LTYPE01
 10
3.688853
 20
0.114997
 30
0.000000
  0
VERTEX
  8
LAYER-1
  6
LTYPE01
 10
3.723275
 20
0.114997
 30
0.000000
  0
VERTEX
  8
LAYER-1
  6
LTYPE01
 10
3.723275
 20
0.062843
 30
0.000000
  0
VERTEX
  8
LAYER-1
  6
LTYPE01
 10
3.688853
 20
0.062843
 30
0.000000
  0
SEQEND
  8
LAYER-1
  0
POLYLINE
  8
LAYER-1
  6
LTYPE02
 66
  1
 70
  0
 62
  0
  6
LTYPE02
 10
3.723275
 20
0.114997
 30
0.000000
  0
VERTEX
  8
LAYER-1
  6
LTYPE02
 10
3.723275
 20
0.114997
 30
0.000000
  0
VERTEX
  8
LAYER-1
  6
LTYPE02
 10
3.688853
 20
0.112129
 30
0.000000
  0
SEQEND
  8
LAYER-1
  0
POLYLINE
  8
LAYER-1
  6
LTYPE02
 66
  1
 70
  0
 62
  0
  6
LTYPE02
 10
3.723275
 20
0.113433
 30
0.000000
  0
VERTEX
  8
LAYER-1
  6
LTYPE02
 10
3.723275
 20
0.113433
 30
0.000000
  0
VERTEX
  8
LAYER-1
  6
LTYPE02
 10
3.688853
 20
0.110304
 30
0.000000
  0
SEQEND
  8
LAYER-1
  0
POLYLINE
  8
LAYER-1
  6
LTYPE02
 66
  1
 70
  0
 62
  0
  6
LTYPE02
 10
3.723275
 20
0.110044
 30
0.000000
  0
VERTEX
  8
LAYER-1
  6
LTYPE02
 10
3.723275
 20
0.110044
 30
0.000000
  0
VERTEX
  8
LAYER-1
  6
LTYPE02
 10
3.688853
 20
0.107173
 30
0.000000
  0
SEQEND
  8
LAYER-1
  0
POLYLINE
  8
LAYER-1
  6
LTYPE02
 66
  1
 70
  0
 62
  0
  6
LTYPE02
 10
3.723275
 20
0.108477
 30
0.000000
  0
VERTEX
  8
LAYER-1
  6
LTYPE02
 10
3.723275
 20
0.108477
 30
0.000000
  0
VERTEX
  8
LAYER-1
  6
LTYPE02
 10
3.688853
 20
0.105349
 30
0.000000
  0
SEQEND
  8
LAYER-1
  0
POLYLINE
  8
LAYER-1
  6
LTYPE02
 66
  1
 70
  0
 62
  0
  6
LTYPE02
 10
3.723275
 20
0.104894
 30
0.000000
  0
VERTEX
  8
LAYER-1
  6
LTYPE02
 10
3.723275
 20
0.104894
 30
0.000000
  0
VERTEX
  8
LAYER-1
  6
LTYPE02
 10
3.688853
 20
0.102025
 30
0.000000
  0
SEQEND
  8
LAYER-1
  0
POLYLINE
  8
LAYER-1
  6
LTYPE02
 66
  1
 70
  0
 62
  0
  6
LTYPE02
 10
3.723275
 20
0.103330
 30
0.000000
  0
VERTEX
  8
LAYER-1
  6
LTYPE02
 10
3.723275
 20
0.103330
 30
0.000000
  0
VERTEX
  8
LAYER-1
  6
LTYPE02
 10
3.688853
 20
0.100200
 30
0.000000
  0
SEQEND
  8
LAYER-1
  0
POLYLINE
  8
LAYER-1
  6
LTYPE02
 66
  1
 70
  0
 62
  0
  6
LTYPE02
 10
3.723210
 20
0.100394
 30
0.000000
  0
VERTEX
  8
LAYER-1
  6
LTYPE02
 10
3.723210
 20
0.100394
 30
0.000000
  0
VERTEX
  8
LAYER-1
  6
LTYPE02
 10
3.688788
 20
0.097527
 30
0.000000
  0
SEQEND
  8
LAYER-1
  0
POLYLINE
  8
LAYER-1
  6
LTYPE02
 66
  1
 70
  0
 62
  0
  6
LTYPE02
 10
3.723210
 20
0.098831
 30
0.000000
  0
VERTEX
  8
LAYER-1
  6
LTYPE02
 10
3.723210
 20
0.098831
 30
0.000000
  0
VERTEX
  8
LAYER-1
  6
LTYPE02
 10
3.688788
 20
0.095702
 30
0.000000
  0
SEQEND
  8
LAYER-1
  0
POLYLINE
  8
LAYER-1
  6
LTYPE02
 66
  1
 70
  0
 62
  0
  6
LTYPE02
 10
3.723210
 20
0.095572
 30
0.000000
  0
VERTEX
  8
LAYER-1
  6
LTYPE02
 10
3.723210
 20
0.095572
 30
0.000000
  0
VERTEX
  8
LAYER-1
  6
LTYPE02
 10
3.688788
 20
0.092704
 30
0.000000
  0
SEQEND
  8
LAYER-1
  0
POLYLINE
  8
LAYER-1
  6
LTYPE02
 66
  1
 70
  0
 62
  0
  6
LTYPE02
 10
3.723210
 20
0.094006
 30
0.000000
  0
VERTEX
  8
LAYER-1
  6
LTYPE02
 10
3.723210
 20
0.094006
 30
0.000000
  0
VERTEX
  8
LAYER-1
  6
LTYPE02
 10
3.688788
 20
0.090876
 30
0.000000
  0
SEQEND
  8
LAYER-1
  0
POLYLINE
  8
LAYER-1
  6
LTYPE02
 66
  1
 70
  0
 62
  0
  6
LTYPE02
 10
3.723210
 20
0.090615
 30
0.000000
  0
VERTEX
  8
LAYER-1
  6
LTYPE02
 10
3.723210
 20
0.090615
 30
0.000000
  0
VERTEX
  8
LAYER-1
  6
LTYPE02
 10
3.688788
 20
0.087747
 30
0.000000
  0
SEQEND
  8
LAYER-1
  0
POLYLINE
  8
LAYER-1
  6
LTYPE02
 66
  1
 70
  0
 62
  0
  6
LTYPE02
 10
3.723210
 20
0.089052
 30
0.000000
  0
VERTEX
  8
LAYER-1
  6
LTYPE02
 10
3.723210
 20
0.089052
 30
0.000000
  0
VERTEX
  8
LAYER-1
  6
LTYPE02
 10
3.688788
 20
0.085921
 30
0.000000
  0
SEQEND
  8
LAYER-1
  0
POLYLINE
  8
LAYER-1
  6
LTYPE02
 66
  1
 70
  0
 62
  0
  6
LTYPE02
 10
3.723210
 20
0.085466
 30
0.000000
  0
VERTEX
  8
LAYER-1
  6
LTYPE02
 10
3.723210
 20
0.085466
 30
0.000000
  0
VERTEX
  8
LAYER-1
  6
LTYPE02
 10
3.688788
 20
0.082597
 30
0.000000
  0
SEQEND
  8
LAYER-1
  0
POLYLINE
  8
LAYER-1
  6
LTYPE02
 66
  1
 70
  0
 62
  0
  6
LTYPE02
 10
3.723210
 20
0.083901
 30
0.000000
  0
VERTEX
  8
LAYER-1
  6
LTYPE02
 10
3.723210
 20
0.083901
 30
0.000000
  0
VERTEX
  8
LAYER-1
  6
LTYPE02
 10
3.688788
 20
0.080772
 30
0.000000
  0
SEQEND
  8
LAYER-1
  0
POLYLINE
  8
LAYER-1
  6
LTYPE02
 66
  1
 70
  0
 62
  0
  6
LTYPE02
 10
3.723145
 20
0.080967
 30
0.000000
  0
VERTEX
  8
LAYER-1
  6
LTYPE02
 10
3.723145
 20
0.080967
 30
0.000000
  0
VERTEX
  8
LAYER-1
  6
LTYPE02
 10
3.688724
 20
0.078100
 30
0.000000
  0
SEQEND
  8
LAYER-1
  0
POLYLINE
  8
LAYER-1
  6
LTYPE02
 66
  1
 70
  0
 62
  0
  6
LTYPE02
 10
3.723145
 20
0.079404
 30
0.000000
  0
VERTEX
  8
LAYER-1
  6
LTYPE02
 10
3.723145
 20
0.079404
 30
0.000000
  0
VERTEX
  8
LAYER-1
  6
LTYPE02
 10
3.688724
 20
0.076274
 30
0.000000
  0
SEQEND
  8
LAYER-1
  0
POLYLINE
  8
LAYER-1
  6
LTYPE02
 66
  1
 70
  0
 62
  0
  6
LTYPE02
 10
3.723275
 20
0.076600
 30
0.000000
  0
VERTEX
  8
LAYER-1
  6
LTYPE02
 10
3.723275
 20
0.076600
 30
0.000000
  0
VERTEX
  8
LAYER-1
  6
LTYPE02
 10
3.688853
 20
0.073732
 30
0.000000
  0
SEQEND
  8
LAYER-1
  0
POLYLINE
  8
LAYER-1
  6
LTYPE02
 66
  1
 70
  0
 62
  0
  6
LTYPE02
 10
3.723275
 20
0.075035
 30
0.000000
  0
VERTEX
  8
LAYER-1
  6
LTYPE02
 10
3.723275
 20
0.075035
 30
0.000000
  0
VERTEX
  8
LAYER-1
  6
LTYPE02
 10
3.688853
 20
0.071906
 30
0.000000
  0
SEQEND
  8
LAYER-1
  0
POLYLINE
  8
LAYER-1
  6
LTYPE02
 66
  1
 70
  0
 62
  0
  6
LTYPE02
 10
3.723275
 20
0.071646
 30
0.000000
  0
VERTEX
  8
LAYER-1
  6
LTYPE02
 10
3.723275
 20
0.071646
 30
0.000000
  0
VERTEX
  8
LAYER-1
  6
LTYPE02
 10
3.688853
 20
0.068778
 30
0.000000
  0
SEQEND
  8
LAYER-1
  0
POLYLINE
  8
LAYER-1
  6
LTYPE02
 66
  1
 70
  0
 62
  0
  6
LTYPE02
 10
3.723275
 20
0.070081
 30
0.000000
  0
VERTEX
  8
LAYER-1
  6
LTYPE02
 10
3.723275
 20
0.070081
 30
0.000000
  0
VERTEX
  8
LAYER-1
  6
LTYPE02
 10
3.688853
 20
0.066951
 30
0.000000
  0
SEQEND
  8
LAYER-1
  0
POLYLINE
  8
LAYER-1
  6
LTYPE02
 66
  1
 70
  0
 62
  0
  6
LTYPE02
 10
3.723275
 20
0.066495
 30
0.000000
  0
VERTEX
  8
LAYER-1
  6
LTYPE02
 10
3.723275
 20
0.066495
 30
0.000000
  0
VERTEX
  8
LAYER-1
  6
LTYPE02
 10
3.688853
 20
0.063626
 30
0.000000
  0
SEQEND
  8
LAYER-1
  0
POLYLINE
  8
LAYER-1
  6
LTYPE02
 66
  1
 70
  0
 62
  0
  6
LTYPE02
 10
3.723275
 20
0.064931
 30
0.000000
  0
VERTEX
  8
LAYER-1
  6
LTYPE02
 10
3.723275
 20
0.064931
 30
0.000000
  0
VERTEX
  8
LAYER-1
  6
LTYPE02
 10
3.700262
 20
0.062843
 30
0.000000
  0
SEQEND
  8
LAYER-1
  0
POLYLINE
  8
LAYER-1
  6
LTYPE02
 66
  1
 70
  0
 62
  0
  6
LTYPE02
 10
3.689845
 20
0.174207
 30
0.000000
  0
VERTEX
  8
LAYER-1
  6
LTYPE02
 10
3.689845
 20
0.174207
 30
0.000000
  0
VERTEX
  8
LAYER-1
  6
LTYPE02
 10
3.689845
 20
0.249830
 30
0.000000
  0
SEQEND
  8
LAYER-1
  0
POLYLINE
  8
LAYER-1
  6
LTYPE02
 66
  1
 70
  0
 62
  0
  6
LTYPE02
 10
3.722179
 20
0.174207
 30
0.000000
  0
VERTEX
  8
LAYER-1
  6
LTYPE02
 10
3.722179
 20
0.174207
 30
0.000000
  0
VERTEX
  8
LAYER-1
  6
LTYPE02
 10
3.722179
 20
0.249830
 30
0.000000
  0
SEQEND
  8
LAYER-1
  0
POLYLINE
  8
LAYER-1
  6
LTYPE01
 66
  1
 70
  0
 62
  0
  6
LTYPE01
 10
3.689844
 20
0.174207
 30
0.000000
  0
VERTEX
  8
LAYER-1
  6
LTYPE01
 10
3.689844
 20
0.174207
 30
0.000000
  0
VERTEX
  8
LAYER-1
  6
LTYPE01
 10
3.692611
 20
0.164743
 30
0.000000
  0
VERTEX
  8
LAYER-1
  6
LTYPE01
 10
3.704043
 20
0.160009
 30
0.000000
  0
VERTEX
  8
LAYER-1
  6
LTYPE01
 10
3.715476
 20
0.164743
 30
0.000000
  0
VERTEX
  8
LAYER-1
  6
LTYPE01
 10
3.722179
 20
0.174207
 30
0.000000
  0
SEQEND
  8
LAYER-1
  0
POLYLINE
  8
LAYER-1
 66
  1
 70
  0
 62
  0
 10
3.672112
 20
0.249830
 30
0.000000
  0
VERTEX
  8
LAYER-1
 10
3.672112
 20
0.249830
 30
0.000000
  0
VERTEX
  8
LAYER-1
 10
3.739911
 20
0.249830
 30
0.000000
  0
SEQEND
  8
LAYER-1
  0
TEXT
  8
LAYER-1
 62
  7
 10
1.972982
 20
8.794505
 30
0.000000
 40
0.177083
  1
Elevaciùn modelo SystÅm S-126
 72
  5
 11
5.500760
 21
8.794505
 31
0.000000
  0
TEXT
  8
LAYER-1
 62
  0
 10
1.056316
 20
6.850060
 30
0.000000
 40
0.125000
  1
1-
 72
  5
 11
1.278538
 21
6.850060
 31
0.000000
  0
TEXT
  8
LAYER-1
 62
  0
 10
1.278538
 20
6.850060
 30
0.000000
 40
0.104167
  1
9/16
 72
  5
 11
1.639649
 21
6.850060
 31
0.000000
  0
TEXT
  8
LAYER-1
 62
  0
 10
1.639649
 20
6.850060
 30
0.000000
 40
0.125000
  1
"
 72
  5
 11
1.764649
 21
6.850060
 31
0.000000
  0
TEXT
  8
LAYER-1
 62
  0
 10
1.056316
 20
6.655616
 30
0.000000
 40
0.125000
  1
40mm
 72
  5
 11
1.625760
 21
6.655616
 31
0.000000
  0
TEXT
  8
LAYER-1
 62
  0
 10
6.028538
 20
4.711171
 30
0.000000
 40
0.125000
  1
barra
 72
  5
 11
6.500760
 21
4.711171
 31
0.000000
  0
TEXT
  8
LAYER-1
 62
  0
 10
5.861871
 20
4.516727
 30
0.000000
 40
0.125000
  1
horizontal
 72
  5
 11
6.667427
 21
4.516727
 31
0.000000
  0
TEXT
  8
LAYER-1
 62
  0
 10
6.097982
 20
4.322283
 30
0.000000
 40
0.104167
  1
1/8
 72
  5
 11
6.375760
 21
4.322283
 31
0.000000
  0
TEXT
  8
LAYER-1
 62
  0
 10
6.375760
 20
4.322283
 30
0.000000
 40
0.125000
  1
"
 72
  5
 11
6.500760
 21
4.322283
 31
0.000000
  0
TEXT
  8
LAYER-1
 62
  0
 10
6.028538
 20
4.127838
 30
0.000000
 40
0.125000
  1
3mm
 72
  5
 11
6.500760
 21
4.127838
 31
0.000000
  0
POLYLINE
  8
LAYER-1
 66
  1
 70
  1
 62
  7
  0
VERTEX
  8
LAYER-1
 10
0.078052
 20
5.136517
 30
0.000000
  0
VERTEX
  8
LAYER-1
 10
0.088782
 20
5.136517
 30
0.000000
  0
VERTEX
  8
LAYER-1
 10
0.088782
 20
3.439020
 30
0.000000
  0
VERTEX
  8
LAYER-1
 10
0.078052
 20
3.439020
 30
0.000000
  0
SEQEND
  8
LAYER-1
  0
POLYLINE
  8
LAYER-1
 66
  1
 70
  0
 62
 15
 10
0.078052
 20
5.136517
 30
0.000000
  0
VERTEX
  8
LAYER-1
 10
0.078052
 20
5.136517
 30
0.000000
  0
VERTEX
  8
LAYER-1
 10
0.078052
 20
3.439020
 30
0.000000
  0
SEQEND
  8
LAYER-1
  0
POLYLINE
  8
LAYER-1
 66
  1
 70
  0
 62
 15
 10
0.088782
 20
5.136517
 30
0.000000
  0
VERTEX
  8
LAYER-1
 10
0.088782
 20
5.136517
 30
0.000000
  0
VERTEX
  8
LAYER-1
 10
0.088782
 20
3.439020
 30
0.000000
  0
SEQEND
  8
LAYER-1
  0
POLYLINE
  8
LAYER-1
 66
  1
 70
  1
 62
  7
  0
VERTEX
  8
LAYER-1
 10
0.004726
 20
5.037430
 30
0.000000
  0
VERTEX
  8
LAYER-1
 10
0.011880
 20
5.037430
 30
0.000000
  0
VERTEX
  8
LAYER-1
 10
0.011880
 20
3.538415
 30
0.000000
  0
VERTEX
  8
LAYER-1
 10
0.004726
 20
3.538415
 30
0.000000
  0
SEQEND
  8
LAYER-1
  0
POLYLINE
  8
LAYER-1
 66
  1
 70
  1
 62
  7
  0
VERTEX
  8
LAYER-1
 10
1.056325
 20
5.037430
 30
0.000000
  0
VERTEX
  8
LAYER-1
 10
1.063477
 20
5.037430
 30
0.000000
  0
VERTEX
  8
LAYER-1
 10
1.063477
 20
3.538415
 30
0.000000
  0
VERTEX
  8
LAYER-1
 10
1.056325
 20
3.538415
 30
0.000000
  0
SEQEND
  8
LAYER-1
  0
POLYLINE
  8
LAYER-1
 66
  1
 70
  1
 62
  7
  0
VERTEX
  8
LAYER-1
 10
0.906095
 20
5.037430
 30
0.000000
  0
VERTEX
  8
LAYER-1
 10
0.913250
 20
5.037430
 30
0.000000
  0
VERTEX
  8
LAYER-1
 10
0.913250
 20
3.538415
 30
0.000000
  0
VERTEX
  8
LAYER-1
 10
0.906095
 20
3.538415
 30
0.000000
  0
SEQEND
  8
LAYER-1
  0
POLYLINE
  8
LAYER-1
 66
  1
 70
  1
 62
  7
  0
VERTEX
  8
LAYER-1
 10
0.755867
 20
5.037430
 30
0.000000
  0
VERTEX
  8
LAYER-1
 10
0.763021
 20
5.037430
 30
0.000000
  0
VERTEX
  8
LAYER-1
 10
0.763021
 20
3.538415
 30
0.000000
  0
VERTEX
  8
LAYER-1
 10
0.755867
 20
3.538415
 30
0.000000
  0
SEQEND
  8
LAYER-1
  0
POLYLINE
  8
LAYER-1
 66
  1
 70
  1
 62
  7
  0
VERTEX
  8
LAYER-1
 10
0.605639
 20
5.037430
 30
0.000000
  0
VERTEX
  8
LAYER-1
 10
0.612793
 20
5.037430
 30
0.000000
  0
VERTEX
  8
LAYER-1
 10
0.612793
 20
3.538415
 30
0.000000
  0
VERTEX
  8
LAYER-1
 10
0.605639
 20
3.538415
 30
0.000000
  0
SEQEND
  8
LAYER-1
  0
POLYLINE
  8
LAYER-1
 66
  1
 70
  1
 62
  7
  0
VERTEX
  8
LAYER-1
 10
0.455410
 20
5.037430
 30
0.000000
  0
VERTEX
  8
LAYER-1
 10
0.462565
 20
5.037430
 30
0.000000
  0
VERTEX
  8
LAYER-1
 10
0.462565
 20
3.538415
 30
0.000000
  0
VERTEX
  8
LAYER-1
 10
0.455410
 20
3.538415
 30
0.000000
  0
SEQEND
  8
LAYER-1
  0
POLYLINE
  8
LAYER-1
 66
  1
 70
  1
 62
  7
  0
VERTEX
  8
LAYER-1
 10
0.305182
 20
5.037430
 30
0.000000
  0
VERTEX
  8
LAYER-1
 10
0.312336
 20
5.037430
 30
0.000000
  0
VERTEX
  8
LAYER-1
 10
0.312336
 20
3.538415
 30
0.000000
  0
VERTEX
  8
LAYER-1
 10
0.305182
 20
3.538415
 30
0.000000
  0
SEQEND
  8
LAYER-1
  0
POLYLINE
  8
LAYER-1
 66
  1
 70
  1
 62
  7
  0
VERTEX
  8
LAYER-1
 10
0.154954
 20
5.037430
 30
0.000000
  0
VERTEX
  8
LAYER-1
 10
0.162108
 20
5.037430
 30
0.000000
  0
VERTEX
  8
LAYER-1
 10
0.162108
 20
3.538415
 30
0.000000
  0
VERTEX
  8
LAYER-1
 10
0.154954
 20
3.538415
 30
0.000000
  0
SEQEND
  8
LAYER-1
  0
POLYLINE
  8
LAYER-1
 66
  1
 70
  1
 62
  7
  0
VERTEX
  8
LAYER-1
 10
0.979419
 20
5.136517
 30
0.000000
  0
VERTEX
  8
LAYER-1
 10
0.990152
 20
5.136517
 30
0.000000
  0
VERTEX
  8
LAYER-1
 10
0.990152
 20
3.439020
 30
0.000000
  0
VERTEX
  8
LAYER-1
 10
0.979419
 20
3.439020
 30
0.000000
  0
SEQEND
  8
LAYER-1
  0
POLYLINE
  8
LAYER-1
 66
  1
 70
  0
 62
 15
 10
0.979419
 20
5.136517
 30
0.000000
  0
VERTEX
  8
LAYER-1
 10
0.979419
 20
5.136517
 30
0.000000
  0
VERTEX
  8
LAYER-1
 10
0.979419
 20
3.439020
 30
0.000000
  0
SEQEND
  8
LAYER-1
  0
POLYLINE
  8
LAYER-1
 66
  1
 70
  0
 62
 15
 10
0.990152
 20
5.136517
 30
0.000000
  0
VERTEX
  8
LAYER-1
 10
0.990152
 20
5.136517
 30
0.000000
  0
VERTEX
  8
LAYER-1
 10
0.990152
 20
3.439020
 30
0.000000
  0
SEQEND
  8
LAYER-1
  0
POLYLINE
  8
LAYER-1
 66
  1
 70
  1
 62
  7
  0
VERTEX
  8
LAYER-1
 10
0.829193
 20
5.136517
 30
0.000000
  0
VERTEX
  8
LAYER-1
 10
0.839923
 20
5.136517
 30
0.000000
  0
VERTEX
  8
LAYER-1
 10
0.839923
 20
3.439020
 30
0.000000
  0
VERTEX
  8
LAYER-1
 10
0.829193
 20
3.439020
 30
0.000000
  0
SEQEND
  8
LAYER-1
  0
POLYLINE
  8
LAYER-1
 66
  1
 70
  0
 62
 15
 10
0.829193
 20
5.136517
 30
0.000000
  0
VERTEX
  8
LAYER-1
 10
0.829193
 20
5.136517
 30
0.000000
  0
VERTEX
  8
LAYER-1
 10
0.829193
 20
3.439020
 30
0.000000
  0
SEQEND
  8
LAYER-1
  0
POLYLINE
  8
LAYER-1
 66
  1
 70
  0
 62
 15
 10
0.839923
 20
5.136517
 30
0.000000
  0
VERTEX
  8
LAYER-1
 10
0.839923
 20
5.136517
 30
0.000000
  0
VERTEX
  8
LAYER-1
 10
0.839923
 20
3.439020
 30
0.000000
  0
SEQEND
  8
LAYER-1
  0
POLYLINE
  8
LAYER-1
 66
  1
 70
  1
 62
  7
  0
VERTEX
  8
LAYER-1
 10
0.678965
 20
5.136517
 30
0.000000
  0
VERTEX
  8
LAYER-1
 10
0.689696
 20
5.136517
 30
0.000000
  0
VERTEX
  8
LAYER-1
 10
0.689696
 20
3.439020
 30
0.000000
  0
VERTEX
  8
LAYER-1
 10
0.678965
 20
3.439020
 30
0.000000
  0
SEQEND
  8
LAYER-1
  0
POLYLINE
  8
LAYER-1
 66
  1
 70
  0
 62
 15
 10
0.678965
 20
5.136517
 30
0.000000
  0
VERTEX
  8
LAYER-1
 10
0.678965
 20
5.136517
 30
0.000000
  0
VERTEX
  8
LAYER-1
 10
0.678965
 20
3.439020
 30
0.000000
  0
SEQEND
  8
LAYER-1
  0
POLYLINE
  8
LAYER-1
 66
  1
 70
  0
 62
 15
 10
0.689696
 20
5.136517
 30
0.000000
  0
VERTEX
  8
LAYER-1
 10
0.689696
 20
5.136517
 30
0.000000
  0
VERTEX
  8
LAYER-1
 10
0.689696
 20
3.439020
 30
0.000000
  0
SEQEND
  8
LAYER-1
  0
POLYLINE
  8
LAYER-1
 66
  1
 70
  1
 62
  7
  0
VERTEX
  8
LAYER-1
 10
0.528736
 20
5.136517
 30
0.000000
  0
VERTEX
  8
LAYER-1
 10
0.539468
 20
5.136517
 30
0.000000
  0
VERTEX
  8
LAYER-1
 10
0.539468
 20
3.439020
 30
0.000000
  0
VERTEX
  8
LAYER-1
 10
0.528736
 20
3.439020
 30
0.000000
  0
SEQEND
  8
LAYER-1
  0
POLYLINE
  8
LAYER-1
 66
  1
 70
  0
 62
 15
 10
0.528736
 20
5.136517
 30
0.000000
  0
VERTEX
  8
LAYER-1
 10
0.528736
 20
5.136517
 30
0.000000
  0
VERTEX
  8
LAYER-1
 10
0.528736
 20
3.439020
 30
0.000000
  0
SEQEND
  8
LAYER-1
  0
POLYLINE
  8
LAYER-1
 66
  1
 70
  0
 62
 15
 10
0.539468
 20
5.136517
 30
0.000000
  0
VERTEX
  8
LAYER-1
 10
0.539468
 20
5.136517
 30
0.000000
  0
VERTEX
  8
LAYER-1
 10
0.539468
 20
3.439020
 30
0.000000
  0
SEQEND
  8
LAYER-1
  0
POLYLINE
  8
LAYER-1
 66
  1
 70
  1
 62
  7
  0
VERTEX
  8
LAYER-1
 10
0.378507
 20
5.136517
 30
0.000000
  0
VERTEX
  8
LAYER-1
 10
0.389239
 20
5.136517
 30
0.000000
  0
VERTEX
  8
LAYER-1
 10
0.389239
 20
3.439020
 30
0.000000
  0
VERTEX
  8
LAYER-1
 10
0.378507
 20
3.439020
 30
0.000000
  0
SEQEND
  8
LAYER-1
  0
POLYLINE
  8
LAYER-1
 66
  1
 70
  0
 62
 15
 10
0.378507
 20
5.136517
 30
0.000000
  0
VERTEX
  8
LAYER-1
 10
0.378507
 20
5.136517
 30
0.000000
  0
VERTEX
  8
LAYER-1
 10
0.378507
 20
3.439020
 30
0.000000
  0
SEQEND
  8
LAYER-1
  0
POLYLINE
  8
LAYER-1
 66
  1
 70
  0
 62
 15
 10
0.389239
 20
5.136517
 30
0.000000
  0
VERTEX
  8
LAYER-1
 10
0.389239
 20
5.136517
 30
0.000000
  0
VERTEX
  8
LAYER-1
 10
0.389239
 20
3.439020
 30
0.000000
  0
SEQEND
  8
LAYER-1
  0
POLYLINE
  8
LAYER-1
 66
  1
 70
  1
 62
  7
  0
VERTEX
  8
LAYER-1
 10
0.228279
 20
5.136517
 30
0.000000
  0
VERTEX
  8
LAYER-1
 10
0.239010
 20
5.136517
 30
0.000000
  0
VERTEX
  8
LAYER-1
 10
0.239010
 20
3.439020
 30
0.000000
  0
VERTEX
  8
LAYER-1
 10
0.228279
 20
3.439020
 30
0.000000
  0
SEQEND
  8
LAYER-1
  0
POLYLINE
  8
LAYER-1
 66
  1
 70
  0
 62
 15
 10
0.228279
 20
5.136517
 30
0.000000
  0
VERTEX
  8
LAYER-1
 10
0.228279
 20
5.136517
 30
0.000000
  0
VERTEX
  8
LAYER-1
 10
0.228279
 20
3.439020
 30
0.000000
  0
SEQEND
  8
LAYER-1
  0
POLYLINE
  8
LAYER-1
 66
  1
 70
  0
 62
 15
 10
0.239010
 20
5.136517
 30
0.000000
  0
VERTEX
  8
LAYER-1
 10
0.239010
 20
5.136517
 30
0.000000
  0
VERTEX
  8
LAYER-1
 10
0.239010
 20
3.439020
 30
0.000000
  0
SEQEND
  8
LAYER-1
  0
POLYLINE
  8
LAYER-1
 66
  1
 70
  1
 62
  7
  0
VERTEX
  8
LAYER-1
 10
0.002572
 20
5.137102
 30
0.000000
  0
VERTEX
  8
LAYER-1
 10
0.152945
 20
5.137102
 30
0.000000
  0
VERTEX
  8
LAYER-1
 10
0.152945
 20
5.037359
 30
0.000000
  0
VERTEX
  8
LAYER-1
 10
0.002572
 20
5.037359
 30
0.000000
  0
SEQEND
  8
LAYER-1
  0
POLYLINE
  8
LAYER-1
 66
  1
 70
  1
 62
  7
  0
VERTEX
  8
LAYER-1
 10
0.152880
 20
5.137102
 30
0.000000
  0
VERTEX
  8
LAYER-1
 10
0.303254
 20
5.137102
 30
0.000000
  0
VERTEX
  8
LAYER-1
 10
0.303254
 20
5.037359
 30
0.000000
  0
VERTEX
  8
LAYER-1
 10
0.152880
 20
5.037359
 30
0.000000
  0
SEQEND
  8
LAYER-1
  0
POLYLINE
  8
LAYER-1
 66
  1
 70
  1
 62
  7
  0
VERTEX
  8
LAYER-1
 10
0.303042
 20
5.137102
 30
0.000000
  0
VERTEX
  8
LAYER-1
 10
0.453268
 20
5.137102
 30
0.000000
  0
VERTEX
  8
LAYER-1
 10
0.453268
 20
5.037359
 30
0.000000
  0
VERTEX
  8
LAYER-1
 10
0.303042
 20
5.037359
 30
0.000000
  0
SEQEND
  8
LAYER-1
  0
POLYLINE
  8
LAYER-1
 66
  1
 70
  1
 62
  7
  0
VERTEX
  8
LAYER-1
 10
0.453057
 20
5.137102
 30
0.000000
  0
VERTEX
  8
LAYER-1
 10
0.603576
 20
5.137102
 30
0.000000
  0
VERTEX
  8
LAYER-1
 10
0.603576
 20
5.037359
 30
0.000000
  0
VERTEX
  8
LAYER-1
 10
0.453057
 20
5.037359
 30
0.000000
  0
SEQEND
  8
LAYER-1
  0
POLYLINE
  8
LAYER-1
 66
  1
 70
  1
 62
  7
  0
VERTEX
  8
LAYER-1
 10
0.603657
 20
5.137102
 30
0.000000
  0
VERTEX
  8
LAYER-1
 10
0.753736
 20
5.137102
 30
0.000000
  0
VERTEX
  8
LAYER-1
 10
0.753736
 20
5.037359
 30
0.000000
  0
VERTEX
  8
LAYER-1
 10
0.603657
 20
5.037359
 30
0.000000
  0
SEQEND
  8
LAYER-1
  0
POLYLINE
  8
LAYER-1
 66
  1
 70
  1
 62
  7
  0
VERTEX
  8
LAYER-1
 10
0.753673
 20
5.137102
 30
0.000000
  0
VERTEX
  8
LAYER-1
 10
0.904045
 20
5.137102
 30
0.000000
  0
VERTEX
  8
LAYER-1
 10
0.904045
 20
5.037359
 30
0.000000
  0
VERTEX
  8
LAYER-1
 10
0.753673
 20
5.037359
 30
0.000000
  0
SEQEND
  8
LAYER-1
  0
POLYLINE
  8
LAYER-1
 66
  1
 70
  1
 62
  7
  0
VERTEX
  8
LAYER-1
 10
0.903981
 20
5.137102
 30
0.000000
  0
VERTEX
  8
LAYER-1
 10
1.065668
 20
5.137102
 30
0.000000
  0
VERTEX
  8
LAYER-1
 10
1.065668
 20
5.037359
 30
0.000000
  0
VERTEX
  8
LAYER-1
 10
0.903981
 20
5.037359
 30
0.000000
  0
SEQEND
  8
LAYER-1
  0
POLYLINE
  8
LAYER-1
 66
  1
 70
  1
 62
  7
  0
VERTEX
  8
LAYER-1
 10
0.002572
 20
3.538552
 30
0.000000
  0
VERTEX
  8
LAYER-1
 10
0.152945
 20
3.538552
 30
0.000000
  0
VERTEX
  8
LAYER-1
 10
0.152945
 20
3.438809
 30
0.000000
  0
VERTEX
  8
LAYER-1
 10
0.002572
 20
3.438809
 30
0.000000
  0
SEQEND
  8
LAYER-1
  0
POLYLINE
  8
LAYER-1
 66
  1
 70
  1
 62
  7
  0
VERTEX
  8
LAYER-1
 10
0.152880
 20
3.538552
 30
0.000000
  0
VERTEX
  8
LAYER-1
 10
0.303254
 20
3.538552
 30
0.000000
  0
VERTEX
  8
LAYER-1
 10
0.303254
 20
3.438809
 30
0.000000
  0
VERTEX
  8
LAYER-1
 10
0.152880
 20
3.438809
 30
0.000000
  0
SEQEND
  8
LAYER-1
  0
POLYLINE
  8
LAYER-1
 66
  1
 70
  1
 62
  7
  0
VERTEX
  8
LAYER-1
 10
0.303042
 20
3.538552
 30
0.000000
  0
VERTEX
  8
LAYER-1
 10
0.453268
 20
3.538552
 30
0.000000
  0
VERTEX
  8
LAYER-1
 10
0.453268
 20
3.438809
 30
0.000000
  0
VERTEX
  8
LAYER-1
 10
0.303042
 20
3.438809
 30
0.000000
  0
SEQEND
  8
LAYER-1
  0
POLYLINE
  8
LAYER-1
 66
  1
 70
  1
 62
  7
  0
VERTEX
  8
LAYER-1
 10
0.453351
 20
3.538552
 30
0.000000
  0
VERTEX
  8
LAYER-1
 10
0.603576
 20
3.538552
 30
0.000000
  0
VERTEX
  8
LAYER-1
 10
0.603576
 20
3.438809
 30
0.000000
  0
VERTEX
  8
LAYER-1
 10
0.453351
 20
3.438809
 30
0.000000
  0
SEQEND
  8
LAYER-1
  0
POLYLINE
  8
LAYER-1
 66
  1
 70
  1
 62
  7
  0
VERTEX
  8
LAYER-1
 10
0.603657
 20
3.538552
 30
0.000000
  0
VERTEX
  8
LAYER-1
 10
0.753736
 20
3.538552
 30
0.000000
  0
VERTEX
  8
LAYER-1
 10
0.753736
 20
3.438809
 30
0.000000
  0
VERTEX
  8
LAYER-1
 10
0.603657
 20
3.438809
 30
0.000000
  0
SEQEND
  8
LAYER-1
  0
POLYLINE
  8
LAYER-1
 66
  1
 70
  1
 62
  7
  0
VERTEX
  8
LAYER-1
 10
0.753673
 20
3.538552
 30
0.000000
  0
VERTEX
  8
LAYER-1
 10
0.904045
 20
3.538552
 30
0.000000
  0
VERTEX
  8
LAYER-1
 10
0.904045
 20
3.438809
 30
0.000000
  0
VERTEX
  8
LAYER-1
 10
0.753673
 20
3.438809
 30
0.000000
  0
SEQEND
  8
LAYER-1
  0
POLYLINE
  8
LAYER-1
 66
  1
 70
  1
 62
  7
  0
VERTEX
  8
LAYER-1
 10
0.903981
 20
3.538552
 30
0.000000
  0
VERTEX
  8
LAYER-1
 10
1.065668
 20
3.538552
 30
0.000000
  0
VERTEX
  8
LAYER-1
 10
1.065668
 20
3.438809
 30
0.000000
  0
VERTEX
  8
LAYER-1
 10
0.903981
 20
3.438809
 30
0.000000
  0
SEQEND
  8
LAYER-1
  0
POLYLINE
  8
LAYER-1
 66
  1
 70
  0
 62
  7
 10
0.164166
 20
3.538578
 30
0.000000
  0
VERTEX
  8
LAYER-1
 10
0.164166
 20
3.538578
 30
0.000000
  0
VERTEX
  8
LAYER-1
 10
0.164166
 20
3.438807
 30
0.000000
  0
SEQEND
  8
LAYER-1
  0
POLYLINE
  8
LAYER-1
 66
  1
 70
  0
 62
  7
 10
0.464624
 20
3.538578
 30
0.000000
  0
VERTEX
  8
LAYER-1
 10
0.464624
 20
3.538578
 30
0.000000
  0
VERTEX
  8
LAYER-1
 10
0.464624
 20
3.438807
 30
0.000000
  0
SEQEND
  8
LAYER-1
  0
POLYLINE
  8
LAYER-1
 66
  1
 70
  0
 62
  7
 10
0.614851
 20
3.538578
 30
0.000000
  0
VERTEX
  8
LAYER-1
 10
0.614851
 20
3.538578
 30
0.000000
  0
VERTEX
  8
LAYER-1
 10
0.614851
 20
3.438807
 30
0.000000
  0
SEQEND
  8
LAYER-1
  0
POLYLINE
  8
LAYER-1
 66
  1
 70
  0
 62
  7
 10
0.915308
 20
3.538578
 30
0.000000
  0
VERTEX
  8
LAYER-1
 10
0.915308
 20
3.538578
 30
0.000000
  0
VERTEX
  8
LAYER-1
 10
0.915308
 20
3.438807
 30
0.000000
  0
SEQEND
  8
LAYER-1
  0
POLYLINE
  8
LAYER-1
 66
  1
 70
  0
 62
  7
 10
0.314395
 20
3.538578
 30
0.000000
  0
VERTEX
  8
LAYER-1
 10
0.314395
 20
3.538578
 30
0.000000
  0
VERTEX
  8
LAYER-1
 10
0.314395
 20
3.438795
 30
0.000000
  0
SEQEND
  8
LAYER-1
  0
POLYLINE
  8
LAYER-1
 66
  1
 70
  0
 62
  7
 10
0.765079
 20
3.538564
 30
0.000000
  0
VERTEX
  8
LAYER-1
 10
0.765079
 20
3.538564
 30
0.000000
  0
VERTEX
  8
LAYER-1
 10
0.765079
 20
3.438795
 30
0.000000
  0
SEQEND
  8
LAYER-1
  0
POLYLINE
  8
LAYER-1
 66
  1
 70
  0
 62
  7
 10
0.013938
 20
3.538578
 30
0.000000
  0
VERTEX
  8
LAYER-1
 10
0.013938
 20
3.538578
 30
0.000000
  0
VERTEX
  8
LAYER-1
 10
0.013938
 20
3.438807
 30
0.000000
  0
SEQEND
  8
LAYER-1
  0
POLYLINE
  8
LAYER-1
 66
  1
 70
  0
 62
  7
 10
1.065536
 20
3.538578
 30
0.000000
  0
VERTEX
  8
LAYER-1
 10
1.065536
 20
3.538578
 30
0.000000
  0
VERTEX
  8
LAYER-1
 10
1.065536
 20
3.438807
 30
0.000000
  0
SEQEND
  8
LAYER-1
  0
POLYLINE
  8
LAYER-1
 66
  1
 70
  0
 62
  7
 10
0.164117
 20
5.137111
 30
0.000000
  0
VERTEX
  8
LAYER-1
 10
0.164117
 20
5.137111
 30
0.000000
  0
VERTEX
  8
LAYER-1
 10
0.164117
 20
5.037340
 30
0.000000
  0
SEQEND
  8
LAYER-1
  0
POLYLINE
  8
LAYER-1
 66
  1
 70
  0
 62
  7
 10
0.464573
 20
5.137111
 30
0.000000
  0
VERTEX
  8
LAYER-1
 10
0.464573
 20
5.137111
 30
0.000000
  0
VERTEX
  8
LAYER-1
 10
0.464573
 20
5.037340
 30
0.000000
  0
SEQEND
  8
LAYER-1
  0
POLYLINE
  8
LAYER-1
 66
  1
 70
  0
 62
  7
 10
0.614802
 20
5.137111
 30
0.000000
  0
VERTEX
  8
LAYER-1
 10
0.614802
 20
5.137111
 30
0.000000
  0
VERTEX
  8
LAYER-1
 10
0.614802
 20
5.037340
 30
0.000000
  0
SEQEND
  8
LAYER-1
  0
POLYLINE
  8
LAYER-1
 66
  1
 70
  0
 62
  7
 10
0.915258
 20
5.137111
 30
0.000000
  0
VERTEX
  8
LAYER-1
 10
0.915258
 20
5.137111
 30
0.000000
  0
VERTEX
  8
LAYER-1
 10
0.915258
 20
5.037340
 30
0.000000
  0
SEQEND
  8
LAYER-1
  0
POLYLINE
  8
LAYER-1
 66
  1
 70
  0
 62
  7
 10
0.314345
 20
5.137111
 30
0.000000
  0
VERTEX
  8
LAYER-1
 10
0.314345
 20
5.137111
 30
0.000000
  0
VERTEX
  8
LAYER-1
 10
0.314345
 20
5.037326
 30
0.000000
  0
SEQEND
  8
LAYER-1
  0
POLYLINE
  8
LAYER-1
 66
  1
 70
  0
 62
  7
 10
0.765031
 20
5.137097
 30
0.000000
  0
VERTEX
  8
LAYER-1
 10
0.765031
 20
5.137097
 30
0.000000
  0
VERTEX
  8
LAYER-1
 10
0.765031
 20
5.037326
 30
0.000000
  0
SEQEND
  8
LAYER-1
  0
POLYLINE
  8
LAYER-1
 66
  1
 70
  0
 62
  7
 10
0.013889
 20
5.137111
 30
0.000000
  0
VERTEX
  8
LAYER-1
 10
0.013889
 20
5.137111
 30
0.000000
  0
VERTEX
  8
LAYER-1
 10
0.013889
 20
5.037340
 30
0.000000
  0
SEQEND
  8
LAYER-1
  0
POLYLINE
  8
LAYER-1
 66
  1
 70
  0
 62
  7
 10
1.065486
 20
5.137111
 30
0.000000
  0
VERTEX
  8
LAYER-1
 10
1.065486
 20
5.137111
 30
0.000000
  0
VERTEX
  8
LAYER-1
 10
1.065486
 20
5.037340
 30
0.000000
  0
SEQEND
  8
LAYER-1
  0
POLYLINE
  8
LAYER-1
 66
  1
 70
  1
 62
  0
  0
VERTEX
  8
LAYER-1
 10
0.003561
 20
3.690397
 30
0.000000
  0
VERTEX
  8
LAYER-1
 10
0.163078
 20
3.690397
 30
0.000000
  0
VERTEX
  8
LAYER-1
 10
0.163078
 20
3.687326
 30
0.000000
  0
VERTEX
  8
LAYER-1
 10
0.003561
 20
3.687326
 30
0.000000
  0
SEQEND
  8
LAYER-1
  0
POLYLINE
  8
LAYER-1
 66
  1
 70
  1
 62
  0
  0
VERTEX
  8
LAYER-1
 10
0.304017
 20
3.690397
 30
0.000000
  0
VERTEX
  8
LAYER-1
 10
0.463534
 20
3.690397
 30
0.000000
  0
VERTEX
  8
LAYER-1
 10
0.463534
 20
3.687326
 30
0.000000
  0
VERTEX
  8
LAYER-1
 10
0.304017
 20
3.687326
 30
0.000000
  0
SEQEND
  8
LAYER-1
  0
POLYLINE
  8
LAYER-1
 66
  1
 70
  1
 62
  0
  0
VERTEX
  8
LAYER-1
 10
0.604473
 20
3.690397
 30
0.000000
  0
VERTEX
  8
LAYER-1
 10
0.763990
 20
3.690397
 30
0.000000
  0
VERTEX
  8
LAYER-1
 10
0.763990
 20
3.687326
 30
0.000000
  0
VERTEX
  8
LAYER-1
 10
0.604473
 20
3.687326
 30
0.000000
  0
SEQEND
  8
LAYER-1
  0
POLYLINE
  8
LAYER-1
 66
  1
 70
  1
 62
  0
  0
VERTEX
  8
LAYER-1
 10
0.904930
 20
3.690397
 30
0.000000
  0
VERTEX
  8
LAYER-1
 10
1.064446
 20
3.690397
 30
0.000000
  0
VERTEX
  8
LAYER-1
 10
1.064446
 20
3.687326
 30
0.000000
  0
VERTEX
  8
LAYER-1
 10
0.904930
 20
3.687326
 30
0.000000
  0
SEQEND
  8
LAYER-1
  0
POLYLINE
  8
LAYER-1
 66
  1
 70
  1
 62
  0
  0
VERTEX
  8
LAYER-1
 10
0.003561
 20
3.990195
 30
0.000000
  0
VERTEX
  8
LAYER-1
 10
0.163078
 20
3.990195
 30
0.000000
  0
VERTEX
  8
LAYER-1
 10
0.163078
 20
3.987124
 30
0.000000
  0
VERTEX
  8
LAYER-1
 10
0.003561
 20
3.987124
 30
0.000000
  0
SEQEND
  8
LAYER-1
  0
POLYLINE
  8
LAYER-1
 66
  1
 70
  1
 62
  0
  0
VERTEX
  8
LAYER-1
 10
0.304017
 20
3.990195
 30
0.000000
  0
VERTEX
  8
LAYER-1
 10
0.463534
 20
3.990195
 30
0.000000
  0
VERTEX
  8
LAYER-1
 10
0.463534
 20
3.987124
 30
0.000000
  0
VERTEX
  8
LAYER-1
 10
0.304017
 20
3.987124
 30
0.000000
  0
SEQEND
  8
LAYER-1
  0
POLYLINE
  8
LAYER-1
 66
  1
 70
  1
 62
  0
  0
VERTEX
  8
LAYER-1
 10
0.604473
 20
3.990195
 30
0.000000
  0
VERTEX
  8
LAYER-1
 10
0.763990
 20
3.990195
 30
0.000000
  0
VERTEX
  8
LAYER-1
 10
0.763990
 20
3.987124
 30
0.000000
  0
VERTEX
  8
LAYER-1
 10
0.604473
 20
3.987124
 30
0.000000
  0
SEQEND
  8
LAYER-1
  0
POLYLINE
  8
LAYER-1
 66
  1
 70
  1
 62
  0
  0
VERTEX
  8
LAYER-1
 10
0.904930
 20
3.990195
 30
0.000000
  0
VERTEX
  8
LAYER-1
 10
1.064446
 20
3.990195
 30
0.000000
  0
VERTEX
  8
LAYER-1
 10
1.064446
 20
3.987124
 30
0.000000
  0
VERTEX
  8
LAYER-1
 10
0.904930
 20
3.987124
 30
0.000000
  0
SEQEND
  8
LAYER-1
  0
POLYLINE
  8
LAYER-1
 66
  1
 70
  1
 62
  0
  0
VERTEX
  8
LAYER-1
 10
0.003561
 20
4.289992
 30
0.000000
  0
VERTEX
  8
LAYER-1
 10
0.163078
 20
4.289992
 30
0.000000
  0
VERTEX
  8
LAYER-1
 10
0.163078
 20
4.286922
 30
0.000000
  0
VERTEX
  8
LAYER-1
 10
0.003561
 20
4.286922
 30
0.000000
  0
SEQEND
  8
LAYER-1
  0
POLYLINE
  8
LAYER-1
 66
  1
 70
  1
 62
  0
  0
VERTEX
  8
LAYER-1
 10
0.304017
 20
4.289992
 30
0.000000
  0
VERTEX
  8
LAYER-1
 10
0.463534
 20
4.289992
 30
0.000000
  0
VERTEX
  8
LAYER-1
 10
0.463534
 20
4.286922
 30
0.000000
  0
VERTEX
  8
LAYER-1
 10
0.304017
 20
4.286922
 30
0.000000
  0
SEQEND
  8
LAYER-1
  0
POLYLINE
  8
LAYER-1
 66
  1
 70
  1
 62
  0
  0
VERTEX
  8
LAYER-1
 10
0.604473
 20
4.289992
 30
0.000000
  0
VERTEX
  8
LAYER-1
 10
0.763990
 20
4.289992
 30
0.000000
  0
VERTEX
  8
LAYER-1
 10
0.763990
 20
4.286922
 30
0.000000
  0
VERTEX
  8
LAYER-1
 10
0.604473
 20
4.286922
 30
0.000000
  0
SEQEND
  8
LAYER-1
  0
POLYLINE
  8
LAYER-1
 66
  1
 70
  1
 62
  0
  0
VERTEX
  8
LAYER-1
 10
0.904930
 20
4.289992
 30
0.000000
  0
VERTEX
  8
LAYER-1
 10
1.064446
 20
4.289992
 30
0.000000
  0
VERTEX
  8
LAYER-1
 10
1.064446
 20
4.286922
 30
0.000000
  0
VERTEX
  8
LAYER-1
 10
0.904930
 20
4.286922
 30
0.000000
  0
SEQEND
  8
LAYER-1
  0
POLYLINE
  8
LAYER-1
 66
  1
 70
  1
 62
  0
  0
VERTEX
  8
LAYER-1
 10
0.003561
 20
4.589791
 30
0.000000
  0
VERTEX
  8
LAYER-1
 10
0.163078
 20
4.589791
 30
0.000000
  0
VERTEX
  8
LAYER-1
 10
0.163078
 20
4.586720
 30
0.000000
  0
VERTEX
  8
LAYER-1
 10
0.003561
 20
4.586720
 30
0.000000
  0
SEQEND
  8
LAYER-1
  0
POLYLINE
  8
LAYER-1
 66
  1
 70
  1
 62
  0
  0
VERTEX
  8
LAYER-1
 10
0.304017
 20
4.589791
 30
0.000000
  0
VERTEX
  8
LAYER-1
 10
0.463534
 20
4.589791
 30
0.000000
  0
VERTEX
  8
LAYER-1
 10
0.463534
 20
4.586720
 30
0.000000
  0
VERTEX
  8
LAYER-1
 10
0.304017
 20
4.586720
 30
0.000000
  0
SEQEND
  8
LAYER-1
  0
POLYLINE
  8
LAYER-1
 66
  1
 70
  1
 62
  0
  0
VERTEX
  8
LAYER-1
 10
0.604473
 20
4.589791
 30
0.000000
  0
VERTEX
  8
LAYER-1
 10
0.763990
 20
4.589791
 30
0.000000
  0
VERTEX
  8
LAYER-1
 10
0.763990
 20
4.586720
 30
0.000000
  0
VERTEX
  8
LAYER-1
 10
0.604473
 20
4.586720
 30
0.000000
  0
SEQEND
  8
LAYER-1
  0
POLYLINE
  8
LAYER-1
 66
  1
 70
  1
 62
  0
  0
VERTEX
  8
LAYER-1
 10
0.904930
 20
4.589791
 30
0.000000
  0
VERTEX
  8
LAYER-1
 10
1.064446
 20
4.589791
 30
0.000000
  0
VERTEX
  8
LAYER-1
 10
1.064446
 20
4.586720
 30
0.000000
  0
VERTEX
  8
LAYER-1
 10
0.904930
 20
4.586720
 30
0.000000
  0
SEQEND
  8
LAYER-1
  0
POLYLINE
  8
LAYER-1
 66
  1
 70
  1
 62
  0
  0
VERTEX
  8
LAYER-1
 10
0.003561
 20
4.889588
 30
0.000000
  0
VERTEX
  8
LAYER-1
 10
0.163078
 20
4.889588
 30
0.000000
  0
VERTEX
  8
LAYER-1
 10
0.163078
 20
4.886517
 30
0.000000
  0
VERTEX
  8
LAYER-1
 10
0.003561
 20
4.886517
 30
0.000000
  0
SEQEND
  8
LAYER-1
  0
POLYLINE
  8
LAYER-1
 66
  1
 70
  1
 62
  0
  0
VERTEX
  8
LAYER-1
 10
0.304017
 20
4.889588
 30
0.000000
  0
VERTEX
  8
LAYER-1
 10
0.463534
 20
4.889588
 30
0.000000
  0
VERTEX
  8
LAYER-1
 10
0.463534
 20
4.886517
 30
0.000000
  0
VERTEX
  8
LAYER-1
 10
0.304017
 20
4.886517
 30
0.000000
  0
SEQEND
  8
LAYER-1
  0
POLYLINE
  8
LAYER-1
 66
  1
 70
  1
 62
  0
  0
VERTEX
  8
LAYER-1
 10
0.604473
 20
4.889588
 30
0.000000
  0
VERTEX
  8
LAYER-1
 10
0.763990
 20
4.889588
 30
0.000000
  0
VERTEX
  8
LAYER-1
 10
0.763990
 20
4.886517
 30
0.000000
  0
VERTEX
  8
LAYER-1
 10
0.604473
 20
4.886517
 30
0.000000
  0
SEQEND
  8
LAYER-1
  0
POLYLINE
  8
LAYER-1
 66
  1
 70
  1
 62
  0
  0
VERTEX
  8
LAYER-1
 10
0.904930
 20
4.889588
 30
0.000000
  0
VERTEX
  8
LAYER-1
 10
1.064446
 20
4.889588
 30
0.000000
  0
VERTEX
  8
LAYER-1
 10
1.064446
 20
4.886517
 30
0.000000
  0
VERTEX
  8
LAYER-1
 10
0.904930
 20
4.886517
 30
0.000000
  0
SEQEND
  8
LAYER-1
  0
POLYLINE
  8
LAYER-1
 66
  1
 70
  1
 62
  0
  0
VERTEX
  8
LAYER-1
 10
0.153789
 20
3.840296
 30
0.000000
  0
VERTEX
  8
LAYER-1
 10
0.313305
 20
3.840296
 30
0.000000
  0
VERTEX
  8
LAYER-1
 10
0.313305
 20
3.837224
 30
0.000000
  0
VERTEX
  8
LAYER-1
 10
0.153789
 20
3.837224
 30
0.000000
  0
SEQEND
  8
LAYER-1
  0
POLYLINE
  8
LAYER-1
 66
  1
 70
  1
 62
  0
  0
VERTEX
  8
LAYER-1
 10
0.454245
 20
3.840296
 30
0.000000
  0
VERTEX
  8
LAYER-1
 10
0.613762
 20
3.840296
 30
0.000000
  0
VERTEX
  8
LAYER-1
 10
0.613762
 20
3.837224
 30
0.000000
  0
VERTEX
  8
LAYER-1
 10
0.454245
 20
3.837224
 30
0.000000
  0
SEQEND
  8
LAYER-1
  0
POLYLINE
  8
LAYER-1
 66
  1
 70
  1
 62
  0
  0
VERTEX
  8
LAYER-1
 10
0.754702
 20
3.840296
 30
0.000000
  0
VERTEX
  8
LAYER-1
 10
0.914218
 20
3.840296
 30
0.000000
  0
VERTEX
  8
LAYER-1
 10
0.914218
 20
3.837224
 30
0.000000
  0
VERTEX
  8
LAYER-1
 10
0.754702
 20
3.837224
 30
0.000000
  0
SEQEND
  8
LAYER-1
  0
POLYLINE
  8
LAYER-1
 66
  1
 70
  1
 62
  0
  0
VERTEX
  8
LAYER-1
 10
0.153789
 20
4.140093
 30
0.000000
  0
VERTEX
  8
LAYER-1
 10
0.313305
 20
4.140093
 30
0.000000
  0
VERTEX
  8
LAYER-1
 10
0.313305
 20
4.137023
 30
0.000000
  0
VERTEX
  8
LAYER-1
 10
0.153789
 20
4.137023
 30
0.000000
  0
SEQEND
  8
LAYER-1
  0
POLYLINE
  8
LAYER-1
 66
  1
 70
  1
 62
  0
  0
VERTEX
  8
LAYER-1
 10
0.454245
 20
4.140093
 30
0.000000
  0
VERTEX
  8
LAYER-1
 10
0.613762
 20
4.140093
 30
0.000000
  0
VERTEX
  8
LAYER-1
 10
0.613762
 20
4.137023
 30
0.000000
  0
VERTEX
  8
LAYER-1
 10
0.454245
 20
4.137023
 30
0.000000
  0
SEQEND
  8
LAYER-1
  0
POLYLINE
  8
LAYER-1
 66
  1
 70
  1
 62
  0
  0
VERTEX
  8
LAYER-1
 10
0.754702
 20
4.140093
 30
0.000000
  0
VERTEX
  8
LAYER-1
 10
0.914218
 20
4.140093
 30
0.000000
  0
VERTEX
  8
LAYER-1
 10
0.914218
 20
4.137023
 30
0.000000
  0
VERTEX
  8
LAYER-1
 10
0.754702
 20
4.137023
 30
0.000000
  0
SEQEND
  8
LAYER-1
  0
POLYLINE
  8
LAYER-1
 66
  1
 70
  1
 62
  0
  0
VERTEX
  8
LAYER-1
 10
0.153789
 20
4.439891
 30
0.000000
  0
VERTEX
  8
LAYER-1
 10
0.313305
 20
4.439891
 30
0.000000
  0
VERTEX
  8
LAYER-1
 10
0.313305
 20
4.436821
 30
0.000000
  0
VERTEX
  8
LAYER-1
 10
0.153789
 20
4.436821
 30
0.000000
  0
SEQEND
  8
LAYER-1
  0
POLYLINE
  8
LAYER-1
 66
  1
 70
  1
 62
  0
  0
VERTEX
  8
LAYER-1
 10
0.454245
 20
4.439891
 30
0.000000
  0
VERTEX
  8
LAYER-1
 10
0.613762
 20
4.439891
 30
0.000000
  0
VERTEX
  8
LAYER-1
 10
0.613762
 20
4.436821
 30
0.000000
  0
VERTEX
  8
LAYER-1
 10
0.454245
 20
4.436821
 30
0.000000
  0
SEQEND
  8
LAYER-1
  0
POLYLINE
  8
LAYER-1
 66
  1
 70
  1
 62
  0
  0
VERTEX
  8
LAYER-1
 10
0.754702
 20
4.439891
 30
0.000000
  0
VERTEX
  8
LAYER-1
 10
0.914218
 20
4.439891
 30
0.000000
  0
VERTEX
  8
LAYER-1
 10
0.914218
 20
4.436821
 30
0.000000
  0
VERTEX
  8
LAYER-1
 10
0.754702
 20
4.436821
 30
0.000000
  0
SEQEND
  8
LAYER-1
  0
POLYLINE
  8
LAYER-1
 66
  1
 70
  1
 62
  0
  0
VERTEX
  8
LAYER-1
 10
0.153789
 20
4.739688
 30
0.000000
  0
VERTEX
  8
LAYER-1
 10
0.313305
 20
4.739688
 30
0.000000
  0
VERTEX
  8
LAYER-1
 10
0.313305
 20
4.736619
 30
0.000000
  0
VERTEX
  8
LAYER-1
 10
0.153789
 20
4.736619
 30
0.000000
  0
SEQEND
  8
LAYER-1
  0
POLYLINE
  8
LAYER-1
 66
  1
 70
  1
 62
  0
  0
VERTEX
  8
LAYER-1
 10
0.454245
 20
4.739688
 30
0.000000
  0
VERTEX
  8
LAYER-1
 10
0.613762
 20
4.739688
 30
0.000000
  0
VERTEX
  8
LAYER-1
 10
0.613762
 20
4.736619
 30
0.000000
  0
VERTEX
  8
LAYER-1
 10
0.454245
 20
4.736619
 30
0.000000
  0
SEQEND
  8
LAYER-1
  0
POLYLINE
  8
LAYER-1
 66
  1
 70
  1
 62
  0
  0
VERTEX
  8
LAYER-1
 10
0.754702
 20
4.739688
 30
0.000000
  0
VERTEX
  8
LAYER-1
 10
0.914218
 20
4.739688
 30
0.000000
  0
VERTEX
  8
LAYER-1
 10
0.914218
 20
4.736619
 30
0.000000
  0
VERTEX
  8
LAYER-1
 10
0.754702
 20
4.736619
 30
0.000000
  0
SEQEND
  8
LAYER-1
  0
POLYLINE
  8
LAYER-1
 66
  1
 70
  0
 62
  7
 10
1.054319
 20
3.538578
 30
0.000000
  0
VERTEX
  8
LAYER-1
 10
1.054319
 20
3.538578
 30
0.000000
  0
VERTEX
  8
LAYER-1
 10
1.054319
 20
3.438807
 30
0.000000
  0
SEQEND
  8
LAYER-1
  0
POLYLINE
  8
LAYER-1
 66
  1
 70
  0
 62
  7
 10
1.054563
 20
5.137111
 30
0.000000
  0
VERTEX
  8
LAYER-1
 10
1.054563
 20
5.137111
 30
0.000000
  0
VERTEX
  8
LAYER-1
 10
1.054563
 20
5.037340
 30
0.000000
  0
SEQEND
  8
LAYER-1
  0
TEXT
  8
LAYER-1
 62
  0
 10
-0.013129
 20
3.211171
 30
0.000000
 40
0.104167
  1
SYSTÚM S-126
 72
  5
 11
1.070205
 21
3.211171
 31
0.000000
  0
TEXT
  8
LAYER-1
 62
  0
 10
0.292427
 20
3.100060
 30
0.000000
 40
0.083333
  1
(Calado)
 72
  5
 11
0.778538
 21
3.100060
 31
0.000000
  0
POLYLINE
  8
LAYER-1
 66
  1
 70
  0
 62
  7
 10
0.076152
 20
5.136660
 30
0.000000
  0
VERTEX
  8
LAYER-1
 10
0.076152
 20
5.136660
 30
0.000000
  0
VERTEX
  8
LAYER-1
 10
0.076152
 20
5.036905
 30
0.000000
  0
SEQEND
  8
LAYER-1
  0
POLYLINE
  8
LAYER-1
 66
  1
 70
  0
 62
  7
 10
0.088027
 20
5.136660
 30
0.000000
  0
VERTEX
  8
LAYER-1
 10
0.088027
 20
5.136660
 30
0.000000
  0
VERTEX
  8
LAYER-1
 10
0.088027
 20
5.036905
 30
0.000000
  0
SEQEND
  8
LAYER-1
  0
POLYLINE
  8
LAYER-1
 66
  1
 70
  0
 62
  7
 10
0.227494
 20
5.136660
 30
0.000000
  0
VERTEX
  8
LAYER-1
 10
0.227494
 20
5.136660
 30
0.000000
  0
VERTEX
  8
LAYER-1
 10
0.227494
 20
5.036905
 30
0.000000
  0
SEQEND
  8
LAYER-1
  0
POLYLINE
  8
LAYER-1
 66
  1
 70
  0
 62
  7
 10
0.239370
 20
5.136660
 30
0.000000
  0
VERTEX
  8
LAYER-1
 10
0.239370
 20
5.136660
 30
0.000000
  0
VERTEX
  8
LAYER-1
 10
0.239370
 20
5.036905
 30
0.000000
  0
SEQEND
  8
LAYER-1
  0
POLYLINE
  8
LAYER-1
 66
  1
 70
  0
 62
  7
 10
0.377254
 20
5.136660
 30
0.000000
  0
VERTEX
  8
LAYER-1
 10
0.377254
 20
5.136660
 30
0.000000
  0
VERTEX
  8
LAYER-1
 10
0.377254
 20
5.036905
 30
0.000000
  0
SEQEND
  8
LAYER-1
  0
POLYLINE
  8
LAYER-1
 66
  1
 70
  0
 62
  7
 10
0.389129
 20
5.136660
 30
0.000000
  0
VERTEX
  8
LAYER-1
 10
0.389129
 20
5.136660
 30
0.000000
  0
VERTEX
  8
LAYER-1
 10
0.389129
 20
5.036905
 30
0.000000
  0
SEQEND
  8
LAYER-1
  0
POLYLINE
  8
LAYER-1
 66
  1
 70
  0
 62
  7
 10
0.527804
 20
5.136660
 30
0.000000
  0
VERTEX
  8
LAYER-1
 10
0.527804
 20
5.136660
 30
0.000000
  0
VERTEX
  8
LAYER-1
 10
0.527804
 20
5.036905
 30
0.000000
  0
SEQEND
  8
LAYER-1
  0
POLYLINE
  8
LAYER-1
 66
  1
 70
  0
 62
  7
 10
0.539680
 20
5.136660
 30
0.000000
  0
VERTEX
  8
LAYER-1
 10
0.539680
 20
5.136660
 30
0.000000
  0
VERTEX
  8
LAYER-1
 10
0.539680
 20
5.036905
 30
0.000000
  0
SEQEND
  8
LAYER-1
  0
POLYLINE
  8
LAYER-1
 66
  1
 70
  0
 62
  7
 10
0.677564
 20
5.136660
 30
0.000000
  0
VERTEX
  8
LAYER-1
 10
0.677564
 20
5.136660
 30
0.000000
  0
VERTEX
  8
LAYER-1
 10
0.677564
 20
5.036905
 30
0.000000
  0
SEQEND
  8
LAYER-1
  0
POLYLINE
  8
LAYER-1
 66
  1
 70
  0
 62
  7
 10
0.689439
 20
5.136660
 30
0.000000
  0
VERTEX
  8
LAYER-1
 10
0.689439
 20
5.136660
 30
0.000000
  0
VERTEX
  8
LAYER-1
 10
0.689439
 20
5.036905
 30
0.000000
  0
SEQEND
  8
LAYER-1
  0
POLYLINE
  8
LAYER-1
 66
  1
 70
  0
 62
  7
 10
0.828115
 20
5.136660
 30
0.000000
  0
VERTEX
  8
LAYER-1
 10
0.828115
 20
5.136660
 30
0.000000
  0
VERTEX
  8
LAYER-1
 10
0.828115
 20
5.036905
 30
0.000000
  0
SEQEND
  8
LAYER-1
  0
POLYLINE
  8
LAYER-1
 66
  1
 70
  0
 62
  7
 10
0.839990
 20
5.136660
 30
0.000000
  0
VERTEX
  8
LAYER-1
 10
0.839990
 20
5.136660
 30
0.000000
  0
VERTEX
  8
LAYER-1
 10
0.839990
 20
5.036905
 30
0.000000
  0
SEQEND
  8
LAYER-1
  0
POLYLINE
  8
LAYER-1
 66
  1
 70
  0
 62
  7
 10
0.977874
 20
5.136660
 30
0.000000
  0
VERTEX
  8
LAYER-1
 10
0.977874
 20
5.136660
 30
0.000000
  0
VERTEX
  8
LAYER-1
 10
0.977874
 20
5.036905
 30
0.000000
  0
SEQEND
  8
LAYER-1
  0
POLYLINE
  8
LAYER-1
 66
  1
 70
  0
 62
  7
 10
0.989749
 20
5.136660
 30
0.000000
  0
VERTEX
  8
LAYER-1
 10
0.989749
 20
5.136660
 30
0.000000
  0
VERTEX
  8
LAYER-1
 10
0.989749
 20
5.036905
 30
0.000000
  0
SEQEND
  8
LAYER-1
  0
POLYLINE
  8
LAYER-1
 66
  1
 70
  0
 62
  7
 10
0.076943
 20
3.538993
 30
0.000000
  0
VERTEX
  8
LAYER-1
 10
0.076943
 20
3.538993
 30
0.000000
  0
VERTEX
  8
LAYER-1
 10
0.076943
 20
3.439237
 30
0.000000
  0
SEQEND
  8
LAYER-1
  0
POLYLINE
  8
LAYER-1
 66
  1
 70
  0
 62
  7
 10
0.088819
 20
3.538993
 30
0.000000
  0
VERTEX
  8
LAYER-1
 10
0.088819
 20
3.538993
 30
0.000000
  0
VERTEX
  8
LAYER-1
 10
0.088819
 20
3.439237
 30
0.000000
  0
SEQEND
  8
LAYER-1
  0
POLYLINE
  8
LAYER-1
 66
  1
 70
  0
 62
  7
 10
0.228286
 20
3.538993
 30
0.000000
  0
VERTEX
  8
LAYER-1
 10
0.228286
 20
3.538993
 30
0.000000
  0
VERTEX
  8
LAYER-1
 10
0.228286
 20
3.439237
 30
0.000000
  0
SEQEND
  8
LAYER-1
  0
POLYLINE
  8
LAYER-1
 66
  1
 70
  0
 62
  7
 10
0.240161
 20
3.538993
 30
0.000000
  0
VERTEX
  8
LAYER-1
 10
0.240161
 20
3.538993
 30
0.000000
  0
VERTEX
  8
LAYER-1
 10
0.240161
 20
3.439237
 30
0.000000
  0
SEQEND
  8
LAYER-1
  0
POLYLINE
  8
LAYER-1
 66
  1
 70
  0
 62
  7
 10
0.378045
 20
3.538993
 30
0.000000
  0
VERTEX
  8
LAYER-1
 10
0.378045
 20
3.538993
 30
0.000000
  0
VERTEX
  8
LAYER-1
 10
0.378045
 20
3.439237
 30
0.000000
  0
SEQEND
  8
LAYER-1
  0
POLYLINE
  8
LAYER-1
 66
  1
 70
  0
 62
  7
 10
0.389920
 20
3.538993
 30
0.000000
  0
VERTEX
  8
LAYER-1
 10
0.389920
 20
3.538993
 30
0.000000
  0
VERTEX
  8
LAYER-1
 10
0.389920
 20
3.439237
 30
0.000000
  0
SEQEND
  8
LAYER-1
  0
POLYLINE
  8
LAYER-1
 66
  1
 70
  0
 62
  7
 10
0.528596
 20
3.538993
 30
0.000000
  0
VERTEX
  8
LAYER-1
 10
0.528596
 20
3.538993
 30
0.000000
  0
VERTEX
  8
LAYER-1
 10
0.528596
 20
3.439237
 30
0.000000
  0
SEQEND
  8
LAYER-1
  0
POLYLINE
  8
LAYER-1
 66
  1
 70
  0
 62
  7
 10
0.540471
 20
3.538993
 30
0.000000
  0
VERTEX
  8
LAYER-1
 10
0.540471
 20
3.538993
 30
0.000000
  0
VERTEX
  8
LAYER-1
 10
0.540471
 20
3.439237
 30
0.000000
  0
SEQEND
  8
LAYER-1
  0
POLYLINE
  8
LAYER-1
 66
  1
 70
  0
 62
  7
 10
0.678355
 20
3.538993
 30
0.000000
  0
VERTEX
  8
LAYER-1
 10
0.678355
 20
3.538993
 30
0.000000
  0
VERTEX
  8
LAYER-1
 10
0.678355
 20
3.439237
 30
0.000000
  0
SEQEND
  8
LAYER-1
  0
POLYLINE
  8
LAYER-1
 66
  1
 70
  0
 62
  7
 10
0.690231
 20
3.538993
 30
0.000000
  0
VERTEX
  8
LAYER-1
 10
0.690231
 20
3.538993
 30
0.000000
  0
VERTEX
  8
LAYER-1
 10
0.690231
 20
3.439237
 30
0.000000
  0
SEQEND
  8
LAYER-1
  0
POLYLINE
  8
LAYER-1
 66
  1
 70
  0
 62
  7
 10
0.828906
 20
3.538993
 30
0.000000
  0
VERTEX
  8
LAYER-1
 10
0.828906
 20
3.538993
 30
0.000000
  0
VERTEX
  8
LAYER-1
 10
0.828906
 20
3.439237
 30
0.000000
  0
SEQEND
  8
LAYER-1
  0
POLYLINE
  8
LAYER-1
 66
  1
 70
  0
 62
  7
 10
0.840781
 20
3.538993
 30
0.000000
  0
VERTEX
  8
LAYER-1
 10
0.840781
 20
3.538993
 30
0.000000
  0
VERTEX
  8
LAYER-1
 10
0.840781
 20
3.439237
 30
0.000000
  0
SEQEND
  8
LAYER-1
  0
POLYLINE
  8
LAYER-1
 66
  1
 70
  0
 62
  7
 10
0.978665
 20
3.538993
 30
0.000000
  0
VERTEX
  8
LAYER-1
 10
0.978665
 20
3.538993
 30
0.000000
  0
VERTEX
  8
LAYER-1
 10
0.978665
 20
3.439237
 30
0.000000
  0
SEQEND
  8
LAYER-1
  0
POLYLINE
  8
LAYER-1
 66
  1
 70
  0
 62
  7
 10
0.990541
 20
3.538993
 30
0.000000
  0
VERTEX
  8
LAYER-1
 10
0.990541
 20
3.538993
 30
0.000000
  0
VERTEX
  8
LAYER-1
 10
0.990541
 20
3.439237
 30
0.000000
  0
SEQEND
  8
LAYER-1
  0
TEXT
  8
LAYER-1
 62
  0
 10
2.278538
 20
7.919505
 30
0.000000
 40
0.125000
  1
Componente
 72
  5
 11
3.347982
 21
7.919505
 31
0.000000
  0
TEXT
  8
LAYER-1
 62
  0
 10
2.278538
 20
7.725060
 30
0.000000
 40
0.125000
  1
intermediario #3
 72
  5
 11
3.597982
 21
7.725060
 31
0.000000
  0
POLYLINE
  8
LAYER-1
 66
  1
 70
  0
 62
  0
 10
3.493816
 20
7.745894
 30
0.000000
  0
VERTEX
  8
LAYER-1
 10
3.493816
 20
7.745894
 30
0.000000
  0
VERTEX
  8
LAYER-1
 10
3.734893
 20
7.430798
 30
0.000000
  0
SEQEND
  8
LAYER-1
  0
POLYLINE
  8
LAYER-1
 66
  1
 70
  1
 62
  0
  0
VERTEX
  8
LAYER-1
 10
3.746854
 20
7.415165
 30
0.000000
  0
VERTEX
  8
LAYER-1
 10
3.671564
 20
7.444999
 30
0.000000
  0
VERTEX
  8
LAYER-1
 10
3.704656
 20
7.470318
 30
0.000000
  0
VERTEX
  8
LAYER-1
 10
3.737748
 20
7.495636
 30
0.000000
  0
VERTEX
  8
LAYER-1
 10
3.746854
 20
7.415165
 30
0.000000
  0
SEQEND
  8
LAYER-1
  0
TEXT
  8
LAYER-1
 62
  0
 10
1.070205
 20
7.072283
 30
0.000000
 40
0.125000
  1
Rail
 72
  5
 11
1.445205
 21
7.072283
 31
0.000000
  0
CIRCLE
  8
LAYER-1
 62
  7
 10
3.744680
 20
3.180449
 30
0.000000
 40
0.047124
  0
CIRCLE
  8
LAYER-1
 62
  0
 10
3.744680
 20
3.180449
 30
0.000000
 40
0.042287
  0
CIRCLE
  8
LAYER-1
 62
  0
 10
3.744680
 20
3.163653
 30
0.000000
 40
0.018794
  0
CIRCLE
  8
LAYER-1
 62
  0
 10
3.744680
 20
3.155617
 30
0.000000
 40
0.008035
  0
TEXT
  8
LAYER-1
 62
  0
 10
3.709094
 20
3.183394
 30
0.000000
 40
0.010417
  1
MobilFlex
 72
  5
 11
3.861871
 21
3.183394
 31
0.000000
  0
POLYLINE
  8
LAYER-1
 66
  1
 70
  1
 62
  0
 10
3.741055
 20
3.145406
 30
0.000000
  0
VERTEX
  8
LAYER-1
 10
3.741055
 20
3.145406
 30
0.000000
  0
VERTEX
  8
LAYER-1
 10
3.741055
 20
3.154107
 30
0.000000
  0
VERTEX
  8
LAYER-1
 10
3.744438
 20
3.154107
 30
0.000000
  0
VERTEX
  8
LAYER-1
 10
3.744438
 20
3.157490
 30
0.000000
  0
VERTEX
  8
LAYER-1
 10
3.740814
 20
3.161115
 30
0.000000
  0
VERTEX
  8
LAYER-1
 10
3.740814
 20
3.163532
 30
0.000000
  0
VERTEX
  8
LAYER-1
 10
3.743231
 20
3.170781
 30
0.000000
  0
VERTEX
  8
LAYER-1
 10
3.746372
 20
3.170781
 30
0.000000
  0
VERTEX
  8
LAYER-1
 10
3.745647
 20
3.165465
 30
0.000000
  0
VERTEX
  8
LAYER-1
 10
3.745889
 20
3.163532
 30
0.000000
  0
VERTEX
  8
LAYER-1
 10
3.747339
 20
3.163532
 30
0.000000
  0
VERTEX
  8
LAYER-1
 10
3.747339
 20
3.151207
 30
0.000000
  0
VERTEX
  8
LAYER-1
 10
3.744680
 20
3.149998
 30
0.000000
  0
VERTEX
  8
LAYER-1
 10
3.744680
 20
3.147581
 30
0.000000
  0
VERTEX
  8
LAYER-1
 10
3.747339
 20
3.147098
 30
0.000000
  0
VERTEX
  8
LAYER-1
 10
3.747339
 20
3.145406
 30
0.000000
  0
SEQEND
  8
LAYER-1
  0
POLYLINE
  8
LAYER-1
 66
  1
 70
  1
 62
  0
  0
VERTEX
  8
LAYER-1
 10
4.040263
 20
7.143897
 30
0.000000
  0
VERTEX
  8
LAYER-1
 10
4.067173
 20
7.143897
 30
0.000000
  0
VERTEX
  8
LAYER-1
 10
4.067173
 20
0.616343
 30
0.000000
  0
VERTEX
  8
LAYER-1
 10
4.040263
 20
0.616343
 30
0.000000
  0
SEQEND
  8
LAYER-1
  0
POLYLINE
  8
LAYER-1
 66
  1
 70
  1
 62
  0
  0
VERTEX
  8
LAYER-1
 10
3.831496
 20
7.143823
 30
0.000000
  0
VERTEX
  8
LAYER-1
 10
3.867446
 20
7.143823
 30
0.000000
  0
VERTEX
  8
LAYER-1
 10
3.867446
 20
0.616541
 30
0.000000
  0
VERTEX
  8
LAYER-1
 10
3.831496
 20
0.616541
 30
0.000000
  0
SEQEND
  8
LAYER-1
  0
POLYLINE
  8
LAYER-1
 66
  1
 70
  1
 62
  0
  0
VERTEX
  8
LAYER-1
 10
4.447658
 20
7.143897
 30
0.000000
  0
VERTEX
  8
LAYER-1
 10
4.474567
 20
7.143897
 30
0.000000
  0
VERTEX
  8
LAYER-1
 10
4.474567
 20
0.616343
 30
0.000000
  0
VERTEX
  8
LAYER-1
 10
4.447658
 20
0.616343
 30
0.000000
  0
SEQEND
  8
LAYER-1
  0
POLYLINE
  8
LAYER-1
 66
  1
 70
  1
 62
  0
  0
VERTEX
  8
LAYER-1
 10
4.239760
 20
7.143823
 30
0.000000
  0
VERTEX
  8
LAYER-1
 10
4.275711
 20
7.143823
 30
0.000000
  0
VERTEX
  8
LAYER-1
 10
4.275711
 20
0.616541
 30
0.000000
  0
VERTEX
  8
LAYER-1
 10
4.239760
 20
0.616541
 30
0.000000
  0
SEQEND
  8
LAYER-1
  0
POLYLINE
  8
LAYER-1
 66
  1
 70
  1
 62
  0
  0
VERTEX
  8
LAYER-1
 10
4.854621
 20
7.143897
 30
0.000000
  0
VERTEX
  8
LAYER-1
 10
4.881531
 20
7.143897
 30
0.000000
  0
VERTEX
  8
LAYER-1
 10
4.881531
 20
0.616343
 30
0.000000
  0
VERTEX
  8
LAYER-1
 10
4.854621
 20
0.616343
 30
0.000000
  0
SEQEND
  8
LAYER-1
  0
POLYLINE
  8
LAYER-1
 66
  1
 70
  1
 62
  0
  0
VERTEX
  8
LAYER-1
 10
4.646288
 20
7.143823
 30
0.000000
  0
VERTEX
  8
LAYER-1
 10
4.682239
 20
7.143823
 30
0.000000
  0
VERTEX
  8
LAYER-1
 10
4.682239
 20
0.616541
 30
0.000000
  0
VERTEX
  8
LAYER-1
 10
4.646288
 20
0.616541
 30
0.000000
  0
SEQEND
  8
LAYER-1
  0
POLYLINE
  8
LAYER-1
 66
  1
 70
  1
 62
  0
  0
VERTEX
  8
LAYER-1
 10
5.264188
 20
7.143897
 30
0.000000
  0
VERTEX
  8
LAYER-1
 10
5.291097
 20
7.143897
 30
0.000000
  0
VERTEX
  8
LAYER-1
 10
5.291097
 20
0.616343
 30
0.000000
  0
VERTEX
  8
LAYER-1
 10
5.264188
 20
0.616343
 30
0.000000
  0
SEQEND
  8
LAYER-1
  0
POLYLINE
  8
LAYER-1
 66
  1
 70
  1
 62
  0
  0
VERTEX
  8
LAYER-1
 10
5.054552
 20
7.143823
 30
0.000000
  0
VERTEX
  8
LAYER-1
 10
5.090503
 20
7.143823
 30
0.000000
  0
VERTEX
  8
LAYER-1
 10
5.090503
 20
0.616541
 30
0.000000
  0
VERTEX
  8
LAYER-1
 10
5.054552
 20
0.616541
 30
0.000000
  0
SEQEND
  8
LAYER-1
  0
POLYLINE
  8
LAYER-1
 66
  1
 70
  1
 62
  0
  0
VERTEX
  8
LAYER-1
 10
5.675054
 20
7.143897
 30
0.000000
  0
VERTEX
  8
LAYER-1
 10
5.701964
 20
7.143897
 30
0.000000
  0
VERTEX
  8
LAYER-1
 10
5.701964
 20
0.616343
 30
0.000000
  0
VERTEX
  8
LAYER-1
 10
5.675054
 20
0.616343
 30
0.000000
  0
SEQEND
  8
LAYER-1
  0
POLYLINE
  8
LAYER-1
 66
  1
 70
  1
 62
  0
  0
VERTEX
  8
LAYER-1
 10
5.464119
 20
7.143823
 30
0.000000
  0
VERTEX
  8
LAYER-1
 10
5.500069
 20
7.143823
 30
0.000000
  0
VERTEX
  8
LAYER-1
 10
5.500069
 20
0.616541
 30
0.000000
  0
VERTEX
  8
LAYER-1
 10
5.464119
 20
0.616541
 30
0.000000
  0
SEQEND
  8
LAYER-1
  0
POLYLINE
  8
LAYER-1
 66
  1
 70
  1
 62
  0
 10
3.828929
 20
0.344876
 30
0.000000
  0
VERTEX
  8
LAYER-1
 10
3.828929
 20
0.344876
 30
0.000000
  0
VERTEX
  8
LAYER-1
 10
5.724847
 20
0.344977
 30
0.000000
  0
VERTEX
  8
LAYER-1
 10
5.724847
 20
0.616510
 30
0.000000
  0
VERTEX
  8
LAYER-1
 10
3.828929
 20
0.616627
 30
0.000000
  0
SEQEND
  8
LAYER-1
  0
POLYLINE
  8
LAYER-1
 66
  1
 70
  0
 62
  0
 10
3.828711
 20
0.412783
 30
0.000000
  0
VERTEX
  8
LAYER-1
 10
3.828711
 20
0.412783
 30
0.000000
  0
VERTEX
  8
LAYER-1
 10
3.868437
 20
0.412783
 30
0.000000
  0
SEQEND
  8
LAYER-1
  0
POLYLINE
  8
LAYER-1
 66
  1
 70
  0
 62
  0
 10
3.828711
 20
0.542693
 30
0.000000
  0
VERTEX
  8
LAYER-1
 10
3.828711
 20
0.542693
 30
0.000000
  0
VERTEX
  8
LAYER-1
 10
3.868437
 20
0.542693
 30
0.000000
  0
SEQEND
  8
LAYER-1
  0
POLYLINE
  8
LAYER-1
 66
  1
 70
  0
 62
  0
 10
3.830162
 20
0.339730
 30
0.000000
  0
VERTEX
  8
LAYER-1
 10
3.830162
 20
0.339730
 30
0.000000
  0
VERTEX
  8
LAYER-1
 10
3.843333
 20
0.332686
 30
0.000000
  0
VERTEX
  8
LAYER-1
 10
3.860413
 20
0.337017
 30
0.000000
  0
VERTEX
  8
LAYER-1
 10
3.867066
 20
0.339732
 30
0.000000
  0
SEQEND
  8
LAYER-1
  0
POLYLINE
  8
LAYER-1
 66
  1
 70
  1
 62
  0
  0
VERTEX
  8
LAYER-1
 10
3.877574
 20
0.339109
 30
0.000000
  0
VERTEX
  8
LAYER-1
 10
3.822959
 20
0.339109
 30
0.000000
  0
VERTEX
  8
LAYER-1
 10
3.822959
 20
0.345015
 30
0.000000
  0
VERTEX
  8
LAYER-1
 10
3.877574
 20
0.345015
 30
0.000000
  0
SEQEND
  8
LAYER-1
  0
POLYLINE
  8
LAYER-1
 66
  1
 70
  1
 62
  0
 10
3.829136
 20
7.415443
 30
0.000000
  0
VERTEX
  8
LAYER-1
 10
3.829136
 20
7.415443
 30
0.000000
  0
VERTEX
  8
LAYER-1
 10
5.725488
 20
7.415343
 30
0.000000
  0
VERTEX
  8
LAYER-1
 10
5.725488
 20
7.143810
 30
0.000000
  0
VERTEX
  8
LAYER-1
 10
3.829136
 20
7.143693
 30
0.000000
  0
SEQEND
  8
LAYER-1
  0
POLYLINE
  8
LAYER-1
 66
  1
 70
  0
 62
  0
 10
4.090425
 20
7.415443
 30
0.000000
  0
VERTEX
  8
LAYER-1
 10
4.090425
 20
7.415443
 30
0.000000
  0
VERTEX
  8
LAYER-1
 10
4.090425
 20
7.143812
 30
0.000000
  0
SEQEND
  8
LAYER-1
  0
POLYLINE
  8
LAYER-1
 66
  1
 70
  0
 62
  0
 10
4.420922
 20
7.143812
 30
0.000000
  0
VERTEX
  8
LAYER-1
 10
4.420922
 20
7.143812
 30
0.000000
  0
VERTEX
  8
LAYER-1
 10
4.420922
 20
7.415443
 30
0.000000
  0
SEQEND
  8
LAYER-1
  0
POLYLINE
  8
LAYER-1
 66
  1
 70
  0
 62
  0
 10
5.233754
 20
7.143812
 30
0.000000
  0
VERTEX
  8
LAYER-1
 10
5.233754
 20
7.143812
 30
0.000000
  0
VERTEX
  8
LAYER-1
 10
5.233754
 20
7.415443
 30
0.000000
  0
SEQEND
  8
LAYER-1
  0
POLYLINE
  8
LAYER-1
 66
  1
 70
  0
 62
  0
 10
5.052586
 20
7.415482
 30
0.000000
  0
VERTEX
  8
LAYER-1
 10
5.052586
 20
7.415482
 30
0.000000
  0
VERTEX
  8
LAYER-1
 10
5.052586
 20
7.143854
 30
0.000000
  0
SEQEND
  8
LAYER-1
  0
POLYLINE
  8
LAYER-1
 66
  1
 70
  0
 62
  0
 10
5.092445
 20
7.415482
 30
0.000000
  0
VERTEX
  8
LAYER-1
 10
5.092445
 20
7.415482
 30
0.000000
  0
VERTEX
  8
LAYER-1
 10
5.092445
 20
7.143854
 30
0.000000
  0
SEQEND
  8
LAYER-1
  0
POLYLINE
  8
LAYER-1
 66
  1
 70
  0
 62
  0
 10
4.238568
 20
7.415482
 30
0.000000
  0
VERTEX
  8
LAYER-1
 10
4.238568
 20
7.415482
 30
0.000000
  0
VERTEX
  8
LAYER-1
 10
4.238568
 20
7.143854
 30
0.000000
  0
SEQEND
  8
LAYER-1
  0
POLYLINE
  8
LAYER-1
 66
  1
 70
  0
 62
  0
 10
4.277384
 20
7.415482
 30
0.000000
  0
VERTEX
  8
LAYER-1
 10
4.277384
 20
7.415482
 30
0.000000
  0
VERTEX
  8
LAYER-1
 10
4.277384
 20
7.143854
 30
0.000000
  0
SEQEND
  8
LAYER-1
  0
POLYLINE
  8
LAYER-1
 66
  1
 70
  0
 62
  0
 10
4.505244
 20
7.415443
 30
0.000000
  0
VERTEX
  8
LAYER-1
 10
4.505244
 20
7.415443
 30
0.000000
  0
VERTEX
  8
LAYER-1
 10
4.505244
 20
7.143812
 30
0.000000
  0
SEQEND
  8
LAYER-1
  0
POLYLINE
  8
LAYER-1
 66
  1
 70
  0
 62
  0
 10
5.318075
 20
7.415443
 30
0.000000
  0
VERTEX
  8
LAYER-1
 10
5.318075
 20
7.415443
 30
0.000000
  0
VERTEX
  8
LAYER-1
 10
5.318075
 20
7.143812
 30
0.000000
  0
SEQEND
  8
LAYER-1
  0
POLYLINE
  8
LAYER-1
 66
  1
 70
  0
 62
  0
 10
5.462980
 20
7.415049
 30
0.000000
  0
VERTEX
  8
LAYER-1
 10
5.462980
 20
7.415049
 30
0.000000
  0
VERTEX
  8
LAYER-1
 10
5.462980
 20
7.143420
 30
0.000000
  0
SEQEND
  8
LAYER-1
  0
POLYLINE
  8
LAYER-1
 66
  1
 70
  0
 62
  0
 10
5.501362
 20
7.415049
 30
0.000000
  0
VERTEX
  8
LAYER-1
 10
5.501362
 20
7.415049
 30
0.000000
  0
VERTEX
  8
LAYER-1
 10
5.501362
 20
7.143420
 30
0.000000
  0
SEQEND
  8
LAYER-1
  0
POLYLINE
  8
LAYER-1
 66
  1
 70
  0
 62
  0
 10
4.645142
 20
7.415518
 30
0.000000
  0
VERTEX
  8
LAYER-1
 10
4.645142
 20
7.415518
 30
0.000000
  0
VERTEX
  8
LAYER-1
 10
4.645142
 20
7.143890
 30
0.000000
  0
SEQEND
  8
LAYER-1
  0
POLYLINE
  8
LAYER-1
 66
  1
 70
  0
 62
  0
 10
4.683525
 20
7.415518
 30
0.000000
  0
VERTEX
  8
LAYER-1
 10
4.683525
 20
7.415518
 30
0.000000
  0
VERTEX
  8
LAYER-1
 10
4.683525
 20
7.143890
 30
0.000000
  0
SEQEND
  8
LAYER-1
  0
POLYLINE
  8
LAYER-1
 66
  1
 70
  0
 62
  0
 10
4.018092
 20
7.143815
 30
0.000000
  0
VERTEX
  8
LAYER-1
 10
4.018092
 20
7.143815
 30
0.000000
  0
VERTEX
  8
LAYER-1
 10
4.018092
 20
7.415444
 30
0.000000
  0
SEQEND
  8
LAYER-1
  0
POLYLINE
  8
LAYER-1
 66
  1
 70
  0
 62
  0
 10
4.053522
 20
7.415444
 30
0.000000
  0
VERTEX
  8
LAYER-1
 10
4.053522
 20
7.415444
 30
0.000000
  0
VERTEX
  8
LAYER-1
 10
4.053522
 20
7.143813
 30
0.000000
  0
SEQEND
  8
LAYER-1
  0
POLYLINE
  8
LAYER-1
 66
  1
 70
  0
 62
  0
 10
4.052551
 20
7.415455
 30
0.000000
  0
VERTEX
  8
LAYER-1
 10
4.052551
 20
7.415455
 30
0.000000
  0
VERTEX
  8
LAYER-1
 10
4.038669
 20
7.426386
 30
0.000000
  0
VERTEX
  8
LAYER-1
 10
4.023907
 20
7.424297
 30
0.000000
  0
VERTEX
  8
LAYER-1
 10
4.018996
 20
7.415444
 30
0.000000
  0
SEQEND
  8
LAYER-1
  0
POLYLINE
  8
LAYER-1
 66
  1
 70
  0
 62
  0
 10
4.090424
 20
7.415443
 30
0.000000
  0
VERTEX
  8
LAYER-1
 10
4.090424
 20
7.415443
 30
0.000000
  0
VERTEX
  8
LAYER-1
 10
4.073318
 20
7.426427
 30
0.000000
  0
VERTEX
  8
LAYER-1
 10
4.056237
 20
7.422097
 30
0.000000
  0
VERTEX
  8
LAYER-1
 10
4.053522
 20
7.415444
 30
0.000000
  0
SEQEND
  8
LAYER-1
  0
POLYLINE
  8
LAYER-1
 66
  1
 70
  0
 62
  0
 10
4.505984
 20
7.414950
 30
0.000000
  0
VERTEX
  8
LAYER-1
 10
4.505984
 20
7.414950
 30
0.000000
  0
VERTEX
  8
LAYER-1
 10
4.486479
 20
7.424942
 30
0.000000
  0
VERTEX
  8
LAYER-1
 10
4.468406
 20
7.418217
 30
0.000000
  0
VERTEX
  8
LAYER-1
 10
4.469076
 20
7.414950
 30
0.000000
  0
SEQEND
  8
LAYER-1
  0
POLYLINE
  8
LAYER-1
 66
  1
 70
  0
 62
  0
 10
5.318942
 20
7.415420
 30
0.000000
  0
VERTEX
  8
LAYER-1
 10
5.318942
 20
7.415420
 30
0.000000
  0
VERTEX
  8
LAYER-1
 10
5.299438
 20
7.425412
 30
0.000000
  0
VERTEX
  8
LAYER-1
 10
5.281364
 20
7.418687
 30
0.000000
  0
VERTEX
  8
LAYER-1
 10
5.282034
 20
7.415421
 30
0.000000
  0
SEQEND
  8
LAYER-1
  0
POLYLINE
  8
LAYER-1
 66
  1
 70
  0
 62
  0
 10
4.458274
 20
7.414950
 30
0.000000
  0
VERTEX
  8
LAYER-1
 10
4.458274
 20
7.414950
 30
0.000000
  0
VERTEX
  8
LAYER-1
 10
4.438770
 20
7.424943
 30
0.000000
  0
VERTEX
  8
LAYER-1
 10
4.420697
 20
7.418218
 30
0.000000
  0
VERTEX
  8
LAYER-1
 10
4.421367
 20
7.414951
 30
0.000000
  0
SEQEND
  8
LAYER-1
  0
POLYLINE
  8
LAYER-1
 66
  1
 70
  0
 62
  0
 10
4.478738
 20
7.415510
 30
0.000000
  0
VERTEX
  8
LAYER-1
 10
4.478738
 20
7.415510
 30
0.000000
  0
VERTEX
  8
LAYER-1
 10
4.467986
 20
7.428515
 30
0.000000
  0
VERTEX
  8
LAYER-1
 10
4.453971
 20
7.430108
 30
0.000000
  0
VERTEX
  8
LAYER-1
 10
4.442934
 20
7.421325
 30
0.000000
  0
VERTEX
  8
LAYER-1
 10
4.443309
 20
7.415510
 30
0.000000
  0
SEQEND
  8
LAYER-1
  0
POLYLINE
  8
LAYER-1
 66
  1
 70
  0
 62
  0
 10
4.443309
 20
7.415510
 30
0.000000
  0
VERTEX
  8
LAYER-1
 10
4.443309
 20
7.415510
 30
0.000000
  0
VERTEX
  8
LAYER-1
 10
4.478738
 20
7.415510
 30
0.000000
  0
SEQEND
  8
LAYER-1
  0
POLYLINE
  8
LAYER-1
 66
  1
 70
  0
 62
  0
 10
5.270292
 20
7.415420
 30
0.000000
  0
VERTEX
  8
LAYER-1
 10
5.270292
 20
7.415420
 30
0.000000
  0
VERTEX
  8
LAYER-1
 10
5.250787
 20
7.425412
 30
0.000000
  0
VERTEX
  8
LAYER-1
 10
5.232713
 20
7.418687
 30
0.000000
  0
VERTEX
  8
LAYER-1
 10
5.233384
 20
7.415421
 30
0.000000
  0
SEQEND
  8
LAYER-1
  0
POLYLINE
  8
LAYER-1
 66
  1
 70
  0
 62
  0
 10
5.294985
 20
7.415510
 30
0.000000
  0
VERTEX
  8
LAYER-1
 10
5.294985
 20
7.415510
 30
0.000000
  0
VERTEX
  8
LAYER-1
 10
5.284233
 20
7.428515
 30
0.000000
  0
VERTEX
  8
LAYER-1
 10
5.270218
 20
7.430108
 30
0.000000
  0
VERTEX
  8
LAYER-1
 10
5.259181
 20
7.421325
 30
0.000000
  0
VERTEX
  8
LAYER-1
 10
5.259556
 20
7.415510
 30
0.000000
  0
SEQEND
  8
LAYER-1
  0
POLYLINE
  8
LAYER-1
 66
  1
 70
  0
 62
  0
 10
5.259557
 20
7.415510
 30
0.000000
  0
VERTEX
  8
LAYER-1
 10
5.259557
 20
7.415510
 30
0.000000
  0
VERTEX
  8
LAYER-1
 10
5.294985
 20
7.415510
 30
0.000000
  0
SEQEND
  8
LAYER-1
  0
POLYLINE
  8
LAYER-1
 66
  1
 70
  0
 62
  0
 10
4.019026
 20
7.143788
 30
0.000000
  0
VERTEX
  8
LAYER-1
 10
4.019026
 20
7.143788
 30
0.000000
  0
VERTEX
  8
LAYER-1
 10
4.028966
 20
7.136787
 30
0.000000
  0
VERTEX
  8
LAYER-1
 10
4.043729
 20
7.138865
 30
0.000000
  0
VERTEX
  8
LAYER-1
 10
4.052245
 20
7.143227
 30
0.000000
  0
SEQEND
  8
LAYER-1
  0
POLYLINE
  8
LAYER-1
 66
  1
 70
  0
 62
  0
 10
4.052245
 20
7.143227
 30
0.000000
  0
VERTEX
  8
LAYER-1
 10
4.052245
 20
7.143227
 30
0.000000
  0
VERTEX
  8
LAYER-1
 10
4.019026
 20
7.143788
 30
0.000000
  0
SEQEND
  8
LAYER-1
  0
POLYLINE
  8
LAYER-1
 66
  1
 70
  0
 62
  0
 10
4.054454
 20
7.143788
 30
0.000000
  0
VERTEX
  8
LAYER-1
 10
4.054454
 20
7.143788
 30
0.000000
  0
VERTEX
  8
LAYER-1
 10
4.067625
 20
7.136742
 30
0.000000
  0
VERTEX
  8
LAYER-1
 10
4.084705
 20
7.141073
 30
0.000000
  0
VERTEX
  8
LAYER-1
 10
4.091357
 20
7.143789
 30
0.000000
  0
SEQEND
  8
LAYER-1
  0
POLYLINE
  8
LAYER-1
 66
  1
 70
  0
 62
  0
 10
4.091356
 20
7.143789
 30
0.000000
  0
VERTEX
  8
LAYER-1
 10
4.091356
 20
7.143789
 30
0.000000
  0
VERTEX
  8
LAYER-1
 10
4.054455
 20
7.143788
 30
0.000000
  0
SEQEND
  8
LAYER-1
  0
POLYLINE
  8
LAYER-1
 66
  1
 70
  0
 62
  0
 10
4.421293
 20
7.143342
 30
0.000000
  0
VERTEX
  8
LAYER-1
 10
4.421293
 20
7.143342
 30
0.000000
  0
VERTEX
  8
LAYER-1
 10
4.436860
 20
7.137287
 30
0.000000
  0
VERTEX
  8
LAYER-1
 10
4.454934
 20
7.144012
 30
0.000000
  0
VERTEX
  8
LAYER-1
 10
4.458200
 20
7.143343
 30
0.000000
  0
SEQEND
  8
LAYER-1
  0
POLYLINE
  8
LAYER-1
 66
  1
 70
  0
 62
  0
 10
4.468533
 20
7.143342
 30
0.000000
  0
VERTEX
  8
LAYER-1
 10
4.468533
 20
7.143342
 30
0.000000
  0
VERTEX
  8
LAYER-1
 10
4.484100
 20
7.137287
 30
0.000000
  0
VERTEX
  8
LAYER-1
 10
4.502174
 20
7.144012
 30
0.000000
  0
VERTEX
  8
LAYER-1
 10
4.505441
 20
7.143343
 30
0.000000
  0
SEQEND
  8
LAYER-1
  0
POLYLINE
  8
LAYER-1
 66
  1
 70
  0
 62
  0
 10
4.442766
 20
7.143253
 30
0.000000
  0
VERTEX
  8
LAYER-1
 10
4.442766
 20
7.143253
 30
0.000000
  0
VERTEX
  8
LAYER-1
 10
4.449582
 20
7.134184
 30
0.000000
  0
VERTEX
  8
LAYER-1
 10
4.463596
 20
7.132590
 30
0.000000
  0
VERTEX
  8
LAYER-1
 10
4.474633
 20
7.141374
 30
0.000000
  0
VERTEX
  8
LAYER-1
 10
4.478196
 20
7.143253
 30
0.000000
  0
SEQEND
  8
LAYER-1
  0
POLYLINE
  8
LAYER-1
 66
  1
 70
  0
 62
  0
 10
4.442767
 20
7.143253
 30
0.000000
  0
VERTEX
  8
LAYER-1
 10
4.442767
 20
7.143253
 30
0.000000
  0
VERTEX
  8
LAYER-1
 10
4.478196
 20
7.143253
 30
0.000000
  0
SEQEND
  8
LAYER-1
  0
POLYLINE
  8
LAYER-1
 66
  1
 70
  0
 62
  0
 10
5.233848
 20
7.143342
 30
0.000000
  0
VERTEX
  8
LAYER-1
 10
5.233848
 20
7.143342
 30
0.000000
  0
VERTEX
  8
LAYER-1
 10
5.249415
 20
7.137287
 30
0.000000
  0
VERTEX
  8
LAYER-1
 10
5.267488
 20
7.144012
 30
0.000000
  0
VERTEX
  8
LAYER-1
 10
5.270755
 20
7.143343
 30
0.000000
  0
SEQEND
  8
LAYER-1
  0
POLYLINE
  8
LAYER-1
 66
  1
 70
  0
 62
  0
 10
5.282027
 20
7.143342
 30
0.000000
  0
VERTEX
  8
LAYER-1
 10
5.282027
 20
7.143342
 30
0.000000
  0
VERTEX
  8
LAYER-1
 10
5.297594
 20
7.137287
 30
0.000000
  0
VERTEX
  8
LAYER-1
 10
5.315668
 20
7.144012
 30
0.000000
  0
VERTEX
  8
LAYER-1
 10
5.318935
 20
7.143343
 30
0.000000
  0
SEQEND
  8
LAYER-1
  0
POLYLINE
  8
LAYER-1
 66
  1
 70
  0
 62
  0
 10
5.259550
 20
7.143253
 30
0.000000
  0
VERTEX
  8
LAYER-1
 10
5.259550
 20
7.143253
 30
0.000000
  0
VERTEX
  8
LAYER-1
 10
5.266365
 20
7.134184
 30
0.000000
  0
VERTEX
  8
LAYER-1
 10
5.280380
 20
7.132590
 30
0.000000
  0
VERTEX
  8
LAYER-1
 10
5.291417
 20
7.141374
 30
0.000000
  0
VERTEX
  8
LAYER-1
 10
5.294979
 20
7.143253
 30
0.000000
  0
SEQEND
  8
LAYER-1
  0
POLYLINE
  8
LAYER-1
 66
  1
 70
  0
 62
  0
 10
5.259550
 20
7.143253
 30
0.000000
  0
VERTEX
  8
LAYER-1
 10
5.259550
 20
7.143253
 30
0.000000
  0
VERTEX
  8
LAYER-1
 10
5.294979
 20
7.143253
 30
0.000000
  0
SEQEND
  8
LAYER-1
  0
POLYLINE
  8
LAYER-1
 66
  1
 70
  1
 62
  0
  0
VERTEX
  8
LAYER-1
 10
4.443309
 20
7.415443
 30
0.000000
  0
VERTEX
  8
LAYER-1
 10
4.478739
 20
7.415443
 30
0.000000
  0
VERTEX
  8
LAYER-1
 10
4.478739
 20
7.143814
 30
0.000000
  0
VERTEX
  8
LAYER-1
 10
4.443309
 20
7.143814
 30
0.000000
  0
SEQEND
  8
LAYER-1
  0
POLYLINE
  8
LAYER-1
 66
  1
 70
  1
 62
  0
  0
VERTEX
  8
LAYER-1
 10
5.259623
 20
7.415443
 30
0.000000
  0
VERTEX
  8
LAYER-1
 10
5.295053
 20
7.415443
 30
0.000000
  0
VERTEX
  8
LAYER-1
 10
5.295053
 20
7.143814
 30
0.000000
  0
VERTEX
  8
LAYER-1
 10
5.259623
 20
7.143814
 30
0.000000
  0
SEQEND
  8
LAYER-1
  0
POLYLINE
  8
LAYER-1
 66
  1
 70
  0
 62
  0
 10
4.443309
 20
7.347536
 30
0.000000
  0
VERTEX
  8
LAYER-1
 10
4.443309
 20
7.347536
 30
0.000000
  0
VERTEX
  8
LAYER-1
 10
4.478739
 20
7.347536
 30
0.000000
  0
SEQEND
  8
LAYER-1
  0
POLYLINE
  8
LAYER-1
 66
  1
 70
  0
 62
  0
 10
4.443309
 20
7.217627
 30
0.000000
  0
VERTEX
  8
LAYER-1
 10
4.443309
 20
7.217627
 30
0.000000
  0
VERTEX
  8
LAYER-1
 10
4.478739
 20
7.217627
 30
0.000000
  0
SEQEND
  8
LAYER-1
  0
POLYLINE
  8
LAYER-1
 66
  1
 70
  0
 62
  0
 10
5.259623
 20
7.347536
 30
0.000000
  0
VERTEX
  8
LAYER-1
 10
5.259623
 20
7.347536
 30
0.000000
  0
VERTEX
  8
LAYER-1
 10
5.295052
 20
7.347536
 30
0.000000
  0
SEQEND
  8
LAYER-1
  0
POLYLINE
  8
LAYER-1
 66
  1
 70
  0
 62
  0
 10
5.259623
 20
7.217626
 30
0.000000
  0
VERTEX
  8
LAYER-1
 10
5.259623
 20
7.217626
 30
0.000000
  0
VERTEX
  8
LAYER-1
 10
5.295052
 20
7.217626
 30
0.000000
  0
SEQEND
  8
LAYER-1
  0
POLYLINE
  8
LAYER-1
 66
  1
 70
  0
 62
  0
 10
4.274197
 20
7.415560
 30
0.000000
  0
VERTEX
  8
LAYER-1
 10
4.274197
 20
7.415560
 30
0.000000
  0
VERTEX
  8
LAYER-1
 10
4.260024
 20
7.426092
 30
0.000000
  0
VERTEX
  8
LAYER-1
 10
4.245340
 20
7.423516
 30
0.000000
  0
VERTEX
  8
LAYER-1
 10
4.240977
 20
7.415000
 30
0.000000
  0
SEQEND
  8
LAYER-1
  0
POLYLINE
  8
LAYER-1
 66
  1
 70
  0
 62
  0
 10
5.091375
 20
7.415382
 30
0.000000
  0
VERTEX
  8
LAYER-1
 10
5.091375
 20
7.415382
 30
0.000000
  0
VERTEX
  8
LAYER-1
 10
5.074267
 20
7.426364
 30
0.000000
  0
VERTEX
  8
LAYER-1
 10
5.057187
 20
7.422034
 30
0.000000
  0
VERTEX
  8
LAYER-1
 10
5.054472
 20
7.415382
 30
0.000000
  0
SEQEND
  8
LAYER-1
  0
POLYLINE
  8
LAYER-1
 66
  1
 70
  0
 62
  0
 10
4.834056
 20
7.143785
 30
0.000000
  0
VERTEX
  8
LAYER-1
 10
4.834056
 20
7.143785
 30
0.000000
  0
VERTEX
  8
LAYER-1
 10
4.843996
 20
7.136785
 30
0.000000
  0
VERTEX
  8
LAYER-1
 10
4.858759
 20
7.138863
 30
0.000000
  0
VERTEX
  8
LAYER-1
 10
4.867275
 20
7.143226
 30
0.000000
  0
SEQEND
  8
LAYER-1
  0
POLYLINE
  8
LAYER-1
 66
  1
 70
  0
 62
  0
 10
4.867275
 20
7.143226
 30
0.000000
  0
VERTEX
  8
LAYER-1
 10
4.867275
 20
7.143226
 30
0.000000
  0
VERTEX
  8
LAYER-1
 10
4.834056
 20
7.143785
 30
0.000000
  0
SEQEND
  8
LAYER-1
  0
POLYLINE
  8
LAYER-1
 66
  1
 70
  0
 62
  0
 10
4.869485
 20
7.143785
 30
0.000000
  0
VERTEX
  8
LAYER-1
 10
4.869485
 20
7.143785
 30
0.000000
  0
VERTEX
  8
LAYER-1
 10
4.882656
 20
7.136739
 30
0.000000
  0
VERTEX
  8
LAYER-1
 10
4.899736
 20
7.141071
 30
0.000000
  0
VERTEX
  8
LAYER-1
 10
4.906388
 20
7.143786
 30
0.000000
  0
SEQEND
  8
LAYER-1
  0
POLYLINE
  8
LAYER-1
 66
  1
 70
  0
 62
  0
 10
4.906388
 20
7.143786
 30
0.000000
  0
VERTEX
  8
LAYER-1
 10
4.906388
 20
7.143786
 30
0.000000
  0
VERTEX
  8
LAYER-1
 10
4.869485
 20
7.143785
 30
0.000000
  0
SEQEND
  8
LAYER-1
  0
POLYLINE
  8
LAYER-1
 66
  1
 70
  0
 62
  0
 10
4.905217
 20
7.415443
 30
0.000000
  0
VERTEX
  8
LAYER-1
 10
4.905217
 20
7.415443
 30
0.000000
  0
VERTEX
  8
LAYER-1
 10
4.905217
 20
7.143812
 30
0.000000
  0
SEQEND
  8
LAYER-1
  0
POLYLINE
  8
LAYER-1
 66
  1
 70
  0
 62
  0
 10
4.832883
 20
7.143815
 30
0.000000
  0
VERTEX
  8
LAYER-1
 10
4.832883
 20
7.143815
 30
0.000000
  0
VERTEX
  8
LAYER-1
 10
4.832883
 20
7.415444
 30
0.000000
  0
SEQEND
  8
LAYER-1
  0
POLYLINE
  8
LAYER-1
 66
  1
 70
  0
 62
  0
 10
4.868312
 20
7.415444
 30
0.000000
  0
VERTEX
  8
LAYER-1
 10
4.868312
 20
7.415444
 30
0.000000
  0
VERTEX
  8
LAYER-1
 10
4.868312
 20
7.143813
 30
0.000000
  0
SEQEND
  8
LAYER-1
  0
POLYLINE
  8
LAYER-1
 66
  1
 70
  0
 62
  0
 10
4.866407
 20
7.415863
 30
0.000000
  0
VERTEX
  8
LAYER-1
 10
4.866407
 20
7.415863
 30
0.000000
  0
VERTEX
  8
LAYER-1
 10
4.852234
 20
7.426394
 30
0.000000
  0
VERTEX
  8
LAYER-1
 10
4.837550
 20
7.423819
 30
0.000000
  0
VERTEX
  8
LAYER-1
 10
4.833188
 20
7.415303
 30
0.000000
  0
SEQEND
  8
LAYER-1
  0
POLYLINE
  8
LAYER-1
 66
  1
 70
  0
 62
  0
 10
4.866406
 20
7.415863
 30
0.000000
  0
VERTEX
  8
LAYER-1
 10
4.866406
 20
7.415863
 30
0.000000
  0
VERTEX
  8
LAYER-1
 10
4.833188
 20
7.415303
 30
0.000000
  0
SEQEND
  8
LAYER-1
  0
POLYLINE
  8
LAYER-1
 66
  1
 70
  0
 62
  0
 10
4.905519
 20
7.415302
 30
0.000000
  0
VERTEX
  8
LAYER-1
 10
4.905519
 20
7.415302
 30
0.000000
  0
VERTEX
  8
LAYER-1
 10
4.888411
 20
7.426285
 30
0.000000
  0
VERTEX
  8
LAYER-1
 10
4.871331
 20
7.421955
 30
0.000000
  0
VERTEX
  8
LAYER-1
 10
4.868616
 20
7.415303
 30
0.000000
  0
SEQEND
  8
LAYER-1
  0
POLYLINE
  8
LAYER-1
 66
  1
 70
  0
 62
  0
 10
4.905519
 20
7.415302
 30
0.000000
  0
VERTEX
  8
LAYER-1
 10
4.905519
 20
7.415302
 30
0.000000
  0
VERTEX
  8
LAYER-1
 10
4.868616
 20
7.415303
 30
0.000000
  0
SEQEND
  8
LAYER-1
  0
POLYLINE
  8
LAYER-1
 66
  1
 70
  0
 62
  0
 10
5.654056
 20
7.143785
 30
0.000000
  0
VERTEX
  8
LAYER-1
 10
5.654056
 20
7.143785
 30
0.000000
  0
VERTEX
  8
LAYER-1
 10
5.663996
 20
7.136785
 30
0.000000
  0
VERTEX
  8
LAYER-1
 10
5.678759
 20
7.138863
 30
0.000000
  0
VERTEX
  8
LAYER-1
 10
5.687275
 20
7.143226
 30
0.000000
  0
SEQEND
  8
LAYER-1
  0
POLYLINE
  8
LAYER-1
 66
  1
 70
  0
 62
  0
 10
5.687275
 20
7.143226
 30
0.000000
  0
VERTEX
  8
LAYER-1
 10
5.687275
 20
7.143226
 30
0.000000
  0
VERTEX
  8
LAYER-1
 10
5.654056
 20
7.143785
 30
0.000000
  0
SEQEND
  8
LAYER-1
  0
POLYLINE
  8
LAYER-1
 66
  1
 70
  0
 62
  0
 10
5.689485
 20
7.143785
 30
0.000000
  0
VERTEX
  8
LAYER-1
 10
5.689485
 20
7.143785
 30
0.000000
  0
VERTEX
  8
LAYER-1
 10
5.702656
 20
7.136739
 30
0.000000
  0
VERTEX
  8
LAYER-1
 10
5.719736
 20
7.141071
 30
0.000000
  0
VERTEX
  8
LAYER-1
 10
5.726388
 20
7.143786
 30
0.000000
  0
SEQEND
  8
LAYER-1
  0
POLYLINE
  8
LAYER-1
 66
  1
 70
  0
 62
  0
 10
5.726388
 20
7.143786
 30
0.000000
  0
VERTEX
  8
LAYER-1
 10
5.726388
 20
7.143786
 30
0.000000
  0
VERTEX
  8
LAYER-1
 10
5.689485
 20
7.143785
 30
0.000000
  0
SEQEND
  8
LAYER-1
  0
POLYLINE
  8
LAYER-1
 66
  1
 70
  0
 62
  0
 10
5.725217
 20
7.415443
 30
0.000000
  0
VERTEX
  8
LAYER-1
 10
5.725217
 20
7.415443
 30
0.000000
  0
VERTEX
  8
LAYER-1
 10
5.725217
 20
7.143812
 30
0.000000
  0
SEQEND
  8
LAYER-1
  0
POLYLINE
  8
LAYER-1
 66
  1
 70
  0
 62
  0
 10
5.652883
 20
7.143815
 30
0.000000
  0
VERTEX
  8
LAYER-1
 10
5.652883
 20
7.143815
 30
0.000000
  0
VERTEX
  8
LAYER-1
 10
5.652883
 20
7.415444
 30
0.000000
  0
SEQEND
  8
LAYER-1
  0
POLYLINE
  8
LAYER-1
 66
  1
 70
  0
 62
  0
 10
5.688313
 20
7.415444
 30
0.000000
  0
VERTEX
  8
LAYER-1
 10
5.688313
 20
7.415444
 30
0.000000
  0
VERTEX
  8
LAYER-1
 10
5.688313
 20
7.143813
 30
0.000000
  0
SEQEND
  8
LAYER-1
  0
POLYLINE
  8
LAYER-1
 66
  1
 70
  0
 62
  0
 10
5.686406
 20
7.415863
 30
0.000000
  0
VERTEX
  8
LAYER-1
 10
5.686406
 20
7.415863
 30
0.000000
  0
VERTEX
  8
LAYER-1
 10
5.672234
 20
7.426394
 30
0.000000
  0
VERTEX
  8
LAYER-1
 10
5.657550
 20
7.423819
 30
0.000000
  0
VERTEX
  8
LAYER-1
 10
5.653187
 20
7.415303
 30
0.000000
  0
SEQEND
  8
LAYER-1
  0
POLYLINE
  8
LAYER-1
 66
  1
 70
  0
 62
  0
 10
5.686406
 20
7.415863
 30
0.000000
  0
VERTEX
  8
LAYER-1
 10
5.686406
 20
7.415863
 30
0.000000
  0
VERTEX
  8
LAYER-1
 10
5.653188
 20
7.415303
 30
0.000000
  0
SEQEND
  8
LAYER-1
  0
POLYLINE
  8
LAYER-1
 66
  1
 70
  0
 62
  0
 10
5.725519
 20
7.415302
 30
0.000000
  0
VERTEX
  8
LAYER-1
 10
5.725519
 20
7.415302
 30
0.000000
  0
VERTEX
  8
LAYER-1
 10
5.708411
 20
7.426285
 30
0.000000
  0
VERTEX
  8
LAYER-1
 10
5.691331
 20
7.421955
 30
0.000000
  0
VERTEX
  8
LAYER-1
 10
5.688616
 20
7.415303
 30
0.000000
  0
SEQEND
  8
LAYER-1
  0
POLYLINE
  8
LAYER-1
 66
  1
 70
  0
 62
  0
 10
5.725519
 20
7.415302
 30
0.000000
  0
VERTEX
  8
LAYER-1
 10
5.725519
 20
7.415302
 30
0.000000
  0
VERTEX
  8
LAYER-1
 10
5.688616
 20
7.415303
 30
0.000000
  0
SEQEND
  8
LAYER-1
  0
POLYLINE
  8
LAYER-1
 66
  1
 70
  0
 62
  0
 10
3.828918
 20
7.347536
 30
0.000000
  0
VERTEX
  8
LAYER-1
 10
3.828918
 20
7.347536
 30
0.000000
  0
VERTEX
  8
LAYER-1
 10
3.868643
 20
7.347536
 30
0.000000
  0
SEQEND
  8
LAYER-1
  0
POLYLINE
  8
LAYER-1
 66
  1
 70
  0
 62
  0
 10
3.828918
 20
7.217626
 30
0.000000
  0
VERTEX
  8
LAYER-1
 10
3.828918
 20
7.217626
 30
0.000000
  0
VERTEX
  8
LAYER-1
 10
3.868643
 20
7.217626
 30
0.000000
  0
SEQEND
  8
LAYER-1
  0
POLYLINE
  8
LAYER-1
 66
  1
 70
  0
 62
  0
 10
3.867272
 20
7.420589
 30
0.000000
  0
VERTEX
  8
LAYER-1
 10
3.867272
 20
7.420589
 30
0.000000
  0
VERTEX
  8
LAYER-1
 10
3.850164
 20
7.431573
 30
0.000000
  0
VERTEX
  8
LAYER-1
 10
3.833084
 20
7.427242
 30
0.000000
  0
VERTEX
  8
LAYER-1
 10
3.830369
 20
7.420590
 30
0.000000
  0
SEQEND
  8
LAYER-1
  0
POLYLINE
  8
LAYER-1
 66
  1
 70
  1
 62
  0
  0
VERTEX
  8
LAYER-1
 10
3.823166
 20
7.421212
 30
0.000000
  0
VERTEX
  8
LAYER-1
 10
3.877781
 20
7.421212
 30
0.000000
  0
VERTEX
  8
LAYER-1
 10
3.877781
 20
7.415306
 30
0.000000
  0
VERTEX
  8
LAYER-1
 10
3.823166
 20
7.415306
 30
0.000000
  0
SEQEND
  8
LAYER-1
  0
POLYLINE
  8
LAYER-1
 66
  1
 70
  1
 62
  0
  0
VERTEX
  8
LAYER-1
 10
4.031189
 20
1.437859
 30
0.000000
  0
VERTEX
  8
LAYER-1
 10
4.482916
 20
1.437859
 30
0.000000
  0
VERTEX
  8
LAYER-1
 10
4.482916
 20
1.429001
 30
0.000000
  0
VERTEX
  8
LAYER-1
 10
4.031189
 20
1.429001
 30
0.000000
  0
SEQEND
  8
LAYER-1
  0
POLYLINE
  8
LAYER-1
 66
  1
 70
  1
 62
  0
  0
VERTEX
  8
LAYER-1
 10
4.031623
 20
2.254161
 30
0.000000
  0
VERTEX
  8
LAYER-1
 10
4.483350
 20
2.254161
 30
0.000000
  0
VERTEX
  8
LAYER-1
 10
4.483350
 20
2.245305
 30
0.000000
  0
VERTEX
  8
LAYER-1
 10
4.031623
 20
2.245305
 30
0.000000
  0
SEQEND
  8
LAYER-1
  0
POLYLINE
  8
LAYER-1
 66
  1
 70
  1
 62
  0
  0
VERTEX
  8
LAYER-1
 10
4.030754
 20
3.070467
 30
0.000000
  0
VERTEX
  8
LAYER-1
 10
4.482481
 20
3.070467
 30
0.000000
  0
VERTEX
  8
LAYER-1
 10
4.482481
 20
3.061608
 30
0.000000
  0
VERTEX
  8
LAYER-1
 10
4.030754
 20
3.061608
 30
0.000000
  0
SEQEND
  8
LAYER-1
  0
POLYLINE
  8
LAYER-1
 66
  1
 70
  1
 62
  0
  0
VERTEX
  8
LAYER-1
 10
4.030754
 20
3.886769
 30
0.000000
  0
VERTEX
  8
LAYER-1
 10
4.482481
 20
3.886769
 30
0.000000
  0
VERTEX
  8
LAYER-1
 10
4.482481
 20
3.877912
 30
0.000000
  0
VERTEX
  8
LAYER-1
 10
4.030754
 20
3.877912
 30
0.000000
  0
SEQEND
  8
LAYER-1
  0
POLYLINE
  8
LAYER-1
 66
  1
 70
  1
 62
  0
  0
VERTEX
  8
LAYER-1
 10
4.031189
 20
4.703072
 30
0.000000
  0
VERTEX
  8
LAYER-1
 10
4.482915
 20
4.703072
 30
0.000000
  0
VERTEX
  8
LAYER-1
 10
4.482915
 20
4.694217
 30
0.000000
  0
VERTEX
  8
LAYER-1
 10
4.031189
 20
4.694217
 30
0.000000
  0
SEQEND
  8
LAYER-1
  0
POLYLINE
  8
LAYER-1
 66
  1
 70
  1
 62
  0
  0
VERTEX
  8
LAYER-1
 10
4.030754
 20
5.519377
 30
0.000000
  0
VERTEX
  8
LAYER-1
 10
4.482481
 20
5.519377
 30
0.000000
  0
VERTEX
  8
LAYER-1
 10
4.482481
 20
5.510519
 30
0.000000
  0
VERTEX
  8
LAYER-1
 10
4.030754
 20
5.510519
 30
0.000000
  0
SEQEND
  8
LAYER-1
  0
POLYLINE
  8
LAYER-1
 66
  1
 70
  1
 62
  0
  0
VERTEX
  8
LAYER-1
 10
4.031189
 20
6.335680
 30
0.000000
  0
VERTEX
  8
LAYER-1
 10
4.482915
 20
6.335680
 30
0.000000
  0
VERTEX
  8
LAYER-1
 10
4.482915
 20
6.326824
 30
0.000000
  0
VERTEX
  8
LAYER-1
 10
4.031189
 20
6.326824
 30
0.000000
  0
SEQEND
  8
LAYER-1
  0
POLYLINE
  8
LAYER-1
 66
  1
 70
  1
 62
  0
  0
VERTEX
  8
LAYER-1
 10
4.842250
 20
1.437859
 30
0.000000
  0
VERTEX
  8
LAYER-1
 10
5.293980
 20
1.437859
 30
0.000000
  0
VERTEX
  8
LAYER-1
 10
5.293980
 20
1.429001
 30
0.000000
  0
VERTEX
  8
LAYER-1
 10
4.842250
 20
1.429001
 30
0.000000
  0
SEQEND
  8
LAYER-1
  0
POLYLINE
  8
LAYER-1
 66
  1
 70
  1
 62
  0
  0
VERTEX
  8
LAYER-1
 10
4.842250
 20
2.254161
 30
0.000000
  0
VERTEX
  8
LAYER-1
 10
5.293980
 20
2.254161
 30
0.000000
  0
VERTEX
  8
LAYER-1
 10
5.293980
 20
2.245305
 30
0.000000
  0
VERTEX
  8
LAYER-1
 10
4.842250
 20
2.245305
 30
0.000000
  0
SEQEND
  8
LAYER-1
  0
POLYLINE
  8
LAYER-1
 66
  1
 70
  1
 62
  0
  0
VERTEX
  8
LAYER-1
 10
4.847459
 20
3.070467
 30
0.000000
  0
VERTEX
  8
LAYER-1
 10
5.299189
 20
3.070467
 30
0.000000
  0
VERTEX
  8
LAYER-1
 10
5.299189
 20
3.061608
 30
0.000000
  0
VERTEX
  8
LAYER-1
 10
4.847459
 20
3.061608
 30
0.000000
  0
SEQEND
  8
LAYER-1
  0
POLYLINE
  8
LAYER-1
 66
  1
 70
  1
 62
  0
  0
VERTEX
  8
LAYER-1
 10
4.847459
 20
3.886769
 30
0.000000
  0
VERTEX
  8
LAYER-1
 10
5.299189
 20
3.886769
 30
0.000000
  0
VERTEX
  8
LAYER-1
 10
5.299189
 20
3.877912
 30
0.000000
  0
VERTEX
  8
LAYER-1
 10
4.847459
 20
3.877912
 30
0.000000
  0
SEQEND
  8
LAYER-1
  0
POLYLINE
  8
LAYER-1
 66
  1
 70
  1
 62
  0
  0
VERTEX
  8
LAYER-1
 10
4.847459
 20
4.703074
 30
0.000000
  0
VERTEX
  8
LAYER-1
 10
5.299189
 20
4.703074
 30
0.000000
  0
VERTEX
  8
LAYER-1
 10
5.299189
 20
4.694217
 30
0.000000
  0
VERTEX
  8
LAYER-1
 10
4.847459
 20
4.694217
 30
0.000000
  0
SEQEND
  8
LAYER-1
  0
POLYLINE
  8
LAYER-1
 66
  1
 70
  1
 62
  0
  0
VERTEX
  8
LAYER-1
 10
4.847459
 20
5.519377
 30
0.000000
  0
VERTEX
  8
LAYER-1
 10
5.299189
 20
5.519377
 30
0.000000
  0
VERTEX
  8
LAYER-1
 10
5.299189
 20
5.510521
 30
0.000000
  0
VERTEX
  8
LAYER-1
 10
4.847459
 20
5.510521
 30
0.000000
  0
SEQEND
  8
LAYER-1
  0
POLYLINE
  8
LAYER-1
 66
  1
 70
  1
 62
  0
  0
VERTEX
  8
LAYER-1
 10
4.847459
 20
6.335680
 30
0.000000
  0
VERTEX
  8
LAYER-1
 10
5.299189
 20
6.335680
 30
0.000000
  0
VERTEX
  8
LAYER-1
 10
5.299189
 20
6.326824
 30
0.000000
  0
VERTEX
  8
LAYER-1
 10
4.847459
 20
6.326824
 30
0.000000
  0
SEQEND
  8
LAYER-1
  0
POLYLINE
  8
LAYER-1
 66
  1
 70
  1
 62
  0
  0
VERTEX
  8
LAYER-1
 10
4.438281
 20
1.036323
 30
0.000000
  0
VERTEX
  8
LAYER-1
 10
4.890011
 20
1.036323
 30
0.000000
  0
VERTEX
  8
LAYER-1
 10
4.890011
 20
1.027464
 30
0.000000
  0
VERTEX
  8
LAYER-1
 10
4.438281
 20
1.027464
 30
0.000000
  0
SEQEND
  8
LAYER-1
  0
POLYLINE
  8
LAYER-1
 66
  1
 70
  1
 62
  0
  0
VERTEX
  8
LAYER-1
 10
4.437847
 20
1.852623
 30
0.000000
  0
VERTEX
  8
LAYER-1
 10
4.889577
 20
1.852623
 30
0.000000
  0
VERTEX
  8
LAYER-1
 10
4.889577
 20
1.843769
 30
0.000000
  0
VERTEX
  8
LAYER-1
 10
4.437847
 20
1.843769
 30
0.000000
  0
SEQEND
  8
LAYER-1
  0
POLYLINE
  8
LAYER-1
 66
  1
 70
  1
 62
  0
  0
VERTEX
  8
LAYER-1
 10
4.437847
 20
2.668928
 30
0.000000
  0
VERTEX
  8
LAYER-1
 10
4.889577
 20
2.668928
 30
0.000000
  0
VERTEX
  8
LAYER-1
 10
4.889577
 20
2.660071
 30
0.000000
  0
VERTEX
  8
LAYER-1
 10
4.437847
 20
2.660071
 30
0.000000
  0
SEQEND
  8
LAYER-1
  0
POLYLINE
  8
LAYER-1
 66
  1
 70
  1
 62
  0
  0
VERTEX
  8
LAYER-1
 10
4.438715
 20
3.485231
 30
0.000000
  0
VERTEX
  8
LAYER-1
 10
4.890446
 20
3.485231
 30
0.000000
  0
VERTEX
  8
LAYER-1
 10
4.890446
 20
3.476374
 30
0.000000
  0
VERTEX
  8
LAYER-1
 10
4.438715
 20
3.476374
 30
0.000000
  0
SEQEND
  8
LAYER-1
  0
POLYLINE
  8
LAYER-1
 66
  1
 70
  1
 62
  0
  0
VERTEX
  8
LAYER-1
 10
4.438715
 20
4.301535
 30
0.000000
  0
VERTEX
  8
LAYER-1
 10
4.890446
 20
4.301535
 30
0.000000
  0
VERTEX
  8
LAYER-1
 10
4.890446
 20
4.292677
 30
0.000000
  0
VERTEX
  8
LAYER-1
 10
4.438715
 20
4.292677
 30
0.000000
  0
SEQEND
  8
LAYER-1
  0
POLYLINE
  8
LAYER-1
 66
  1
 70
  1
 62
  0
  0
VERTEX
  8
LAYER-1
 10
4.438715
 20
5.117839
 30
0.000000
  0
VERTEX
  8
LAYER-1
 10
4.890446
 20
5.117839
 30
0.000000
  0
VERTEX
  8
LAYER-1
 10
4.890446
 20
5.108983
 30
0.000000
  0
VERTEX
  8
LAYER-1
 10
4.438715
 20
5.108983
 30
0.000000
  0
SEQEND
  8
LAYER-1
  0
POLYLINE
  8
LAYER-1
 66
  1
 70
  1
 62
  0
  0
VERTEX
  8
LAYER-1
 10
4.438281
 20
5.934144
 30
0.000000
  0
VERTEX
  8
LAYER-1
 10
4.890011
 20
5.934144
 30
0.000000
  0
VERTEX
  8
LAYER-1
 10
4.890011
 20
5.925285
 30
0.000000
  0
VERTEX
  8
LAYER-1
 10
4.438281
 20
5.925285
 30
0.000000
  0
SEQEND
  8
LAYER-1
  0
POLYLINE
  8
LAYER-1
 66
  1
 70
  1
 62
  0
  0
VERTEX
  8
LAYER-1
 10
4.438281
 20
6.750438
 30
0.000000
  0
VERTEX
  8
LAYER-1
 10
4.890011
 20
6.750438
 30
0.000000
  0
VERTEX
  8
LAYER-1
 10
4.890011
 20
6.741581
 30
0.000000
  0
VERTEX
  8
LAYER-1
 10
4.438281
 20
6.741581
 30
0.000000
  0
SEQEND
  8
LAYER-1
  0
POLYLINE
  8
LAYER-1
 66
  1
 70
  1
 62
  0
  0
VERTEX
  8
LAYER-1
 10
5.256724
 20
1.036323
 30
0.000000
  0
VERTEX
  8
LAYER-1
 10
5.708455
 20
1.036323
 30
0.000000
  0
VERTEX
  8
LAYER-1
 10
5.708455
 20
1.027464
 30
0.000000
  0
VERTEX
  8
LAYER-1
 10
5.256724
 20
1.027464
 30
0.000000
  0
SEQEND
  8
LAYER-1
  0
POLYLINE
  8
LAYER-1
 66
  1
 70
  1
 62
  0
  0
VERTEX
  8
LAYER-1
 10
5.256290
 20
1.852623
 30
0.000000
  0
VERTEX
  8
LAYER-1
 10
5.708020
 20
1.852623
 30
0.000000
  0
VERTEX
  8
LAYER-1
 10
5.708020
 20
1.843769
 30
0.000000
  0
VERTEX
  8
LAYER-1
 10
5.256290
 20
1.843769
 30
0.000000
  0
SEQEND
  8
LAYER-1
  0
POLYLINE
  8
LAYER-1
 66
  1
 70
  1
 62
  0
  0
VERTEX
  8
LAYER-1
 10
5.256724
 20
2.668928
 30
0.000000
  0
VERTEX
  8
LAYER-1
 10
5.708454
 20
2.668928
 30
0.000000
  0
VERTEX
  8
LAYER-1
 10
5.708454
 20
2.660071
 30
0.000000
  0
VERTEX
  8
LAYER-1
 10
5.256724
 20
2.660071
 30
0.000000
  0
SEQEND
  8
LAYER-1
  0
POLYLINE
  8
LAYER-1
 66
  1
 70
  1
 62
  0
  0
VERTEX
  8
LAYER-1
 10
5.257158
 20
3.485231
 30
0.000000
  0
VERTEX
  8
LAYER-1
 10
5.708889
 20
3.485231
 30
0.000000
  0
VERTEX
  8
LAYER-1
 10
5.708889
 20
3.476374
 30
0.000000
  0
VERTEX
  8
LAYER-1
 10
5.257158
 20
3.476374
 30
0.000000
  0
SEQEND
  8
LAYER-1
  0
POLYLINE
  8
LAYER-1
 66
  1
 70
  1
 62
  0
  0
VERTEX
  8
LAYER-1
 10
5.256724
 20
4.301535
 30
0.000000
  0
VERTEX
  8
LAYER-1
 10
5.708454
 20
4.301535
 30
0.000000
  0
VERTEX
  8
LAYER-1
 10
5.708454
 20
4.292677
 30
0.000000
  0
VERTEX
  8
LAYER-1
 10
5.256724
 20
4.292677
 30
0.000000
  0
SEQEND
  8
LAYER-1
  0
POLYLINE
  8
LAYER-1
 66
  1
 70
  1
 62
  0
  0
VERTEX
  8
LAYER-1
 10
5.256724
 20
5.117839
 30
0.000000
  0
VERTEX
  8
LAYER-1
 10
5.708454
 20
5.117839
 30
0.000000
  0
VERTEX
  8
LAYER-1
 10
5.708454
 20
5.108983
 30
0.000000
  0
VERTEX
  8
LAYER-1
 10
5.256724
 20
5.108983
 30
0.000000
  0
SEQEND
  8
LAYER-1
  0
POLYLINE
  8
LAYER-1
 66
  1
 70
  1
 62
  0
  0
VERTEX
  8
LAYER-1
 10
5.257158
 20
5.934142
 30
0.000000
  0
VERTEX
  8
LAYER-1
 10
5.708889
 20
5.934142
 30
0.000000
  0
VERTEX
  8
LAYER-1
 10
5.708889
 20
5.925285
 30
0.000000
  0
VERTEX
  8
LAYER-1
 10
5.257158
 20
5.925285
 30
0.000000
  0
SEQEND
  8
LAYER-1
  0
POLYLINE
  8
LAYER-1
 66
  1
 70
  1
 62
  0
  0
VERTEX
  8
LAYER-1
 10
5.256290
 20
6.750438
 30
0.000000
  0
VERTEX
  8
LAYER-1
 10
5.708020
 20
6.750438
 30
0.000000
  0
VERTEX
  8
LAYER-1
 10
5.708020
 20
6.741581
 30
0.000000
  0
VERTEX
  8
LAYER-1
 10
5.256290
 20
6.741581
 30
0.000000
  0
SEQEND
  8
LAYER-1
  0
POLYLINE
  8
LAYER-1
 66
  1
 70
  1
 62
  0
  0
VERTEX
  8
LAYER-1
 10
3.829049
 20
1.034729
 30
0.000000
  0
VERTEX
  8
LAYER-1
 10
4.079215
 20
1.034729
 30
0.000000
  0
VERTEX
  8
LAYER-1
 10
4.079215
 20
1.025870
 30
0.000000
  0
VERTEX
  8
LAYER-1
 10
3.829049
 20
1.025870
 30
0.000000
  0
SEQEND
  8
LAYER-1
  0
POLYLINE
  8
LAYER-1
 66
  1
 70
  1
 62
  0
  0
VERTEX
  8
LAYER-1
 10
3.829049
 20
1.851032
 30
0.000000
  0
VERTEX
  8
LAYER-1
 10
4.079215
 20
1.851032
 30
0.000000
  0
VERTEX
  8
LAYER-1
 10
4.079215
 20
1.842173
 30
0.000000
  0
VERTEX
  8
LAYER-1
 10
3.829049
 20
1.842173
 30
0.000000
  0
SEQEND
  8
LAYER-1
  0
POLYLINE
  8
LAYER-1
 66
  1
 70
  1
 62
  0
  0
VERTEX
  8
LAYER-1
 10
3.829049
 20
2.667336
 30
0.000000
  0
VERTEX
  8
LAYER-1
 10
4.079215
 20
2.667336
 30
0.000000
  0
VERTEX
  8
LAYER-1
 10
4.079215
 20
2.658477
 30
0.000000
  0
VERTEX
  8
LAYER-1
 10
3.829049
 20
2.658477
 30
0.000000
  0
SEQEND
  8
LAYER-1
  0
POLYLINE
  8
LAYER-1
 66
  1
 70
  1
 62
  0
  0
VERTEX
  8
LAYER-1
 10
3.829049
 20
3.483638
 30
0.000000
  0
VERTEX
  8
LAYER-1
 10
4.079215
 20
3.483638
 30
0.000000
  0
VERTEX
  8
LAYER-1
 10
4.079215
 20
3.474781
 30
0.000000
  0
VERTEX
  8
LAYER-1
 10
3.829049
 20
3.474781
 30
0.000000
  0
SEQEND
  8
LAYER-1
  0
POLYLINE
  8
LAYER-1
 66
  1
 70
  1
 62
  0
  0
VERTEX
  8
LAYER-1
 10
3.829049
 20
4.299941
 30
0.000000
  0
VERTEX
  8
LAYER-1
 10
4.079215
 20
4.299941
 30
0.000000
  0
VERTEX
  8
LAYER-1
 10
4.079215
 20
4.291083
 30
0.000000
  0
VERTEX
  8
LAYER-1
 10
3.829049
 20
4.291083
 30
0.000000
  0
SEQEND
  8
LAYER-1
  0
POLYLINE
  8
LAYER-1
 66
  1
 70
  1
 62
  0
  0
VERTEX
  8
LAYER-1
 10
3.829049
 20
5.116246
 30
0.000000
  0
VERTEX
  8
LAYER-1
 10
4.079215
 20
5.116246
 30
0.000000
  0
VERTEX
  8
LAYER-1
 10
4.079215
 20
5.107389
 30
0.000000
  0
VERTEX
  8
LAYER-1
 10
3.829049
 20
5.107389
 30
0.000000
  0
SEQEND
  8
LAYER-1
  0
POLYLINE
  8
LAYER-1
 66
  1
 70
  1
 62
  0
  0
VERTEX
  8
LAYER-1
 10
3.829049
 20
5.932550
 30
0.000000
  0
VERTEX
  8
LAYER-1
 10
4.079215
 20
5.932550
 30
0.000000
  0
VERTEX
  8
LAYER-1
 10
4.079215
 20
5.923692
 30
0.000000
  0
VERTEX
  8
LAYER-1
 10
3.829049
 20
5.923692
 30
0.000000
  0
SEQEND
  8
LAYER-1
  0
POLYLINE
  8
LAYER-1
 66
  1
 70
  1
 62
  0
  0
VERTEX
  8
LAYER-1
 10
3.829049
 20
6.748846
 30
0.000000
  0
VERTEX
  8
LAYER-1
 10
4.079215
 20
6.748846
 30
0.000000
  0
VERTEX
  8
LAYER-1
 10
4.079215
 20
6.739988
 30
0.000000
  0
VERTEX
  8
LAYER-1
 10
3.829049
 20
6.739988
 30
0.000000
  0
SEQEND
  8
LAYER-1
  0
POLYLINE
  8
LAYER-1
 66
  1
 70
  0
 62
  0
 10
3.869077
 20
7.415441
 30
0.000000
  0
VERTEX
  8
LAYER-1
 10
3.869077
 20
7.415441
 30
0.000000
  0
VERTEX
  8
LAYER-1
 10
3.869077
 20
7.143693
 30
0.000000
  0
SEQEND
  8
LAYER-1
  0
POLYLINE
  8
LAYER-1
 66
  1
 70
  0
 62
  0
 10
3.869066
 20
0.616781
 30
0.000000
  0
VERTEX
  8
LAYER-1
 10
3.869066
 20
0.616781
 30
0.000000
  0
VERTEX
  8
LAYER-1
 10
3.869066
 20
0.345082
 30
0.000000
  0
SEQEND
  8
LAYER-1
  0
POLYLINE
  8
LAYER-1
 66
  1
 70
  0
 62
  0
 10
4.089986
 20
0.344643
 30
0.000000
  0
VERTEX
  8
LAYER-1
 10
4.089986
 20
0.344643
 30
0.000000
  0
VERTEX
  8
LAYER-1
 10
4.089986
 20
0.616274
 30
0.000000
  0
SEQEND
  8
LAYER-1
  0
POLYLINE
  8
LAYER-1
 66
  1
 70
  0
 62
  0
 10
4.420483
 20
0.616274
 30
0.000000
  0
VERTEX
  8
LAYER-1
 10
4.420483
 20
0.616274
 30
0.000000
  0
VERTEX
  8
LAYER-1
 10
4.420483
 20
0.344643
 30
0.000000
  0
SEQEND
  8
LAYER-1
  0
POLYLINE
  8
LAYER-1
 66
  1
 70
  0
 62
  0
 10
5.233314
 20
0.616274
 30
0.000000
  0
VERTEX
  8
LAYER-1
 10
5.233314
 20
0.616274
 30
0.000000
  0
VERTEX
  8
LAYER-1
 10
5.233314
 20
0.344643
 30
0.000000
  0
SEQEND
  8
LAYER-1
  0
POLYLINE
  8
LAYER-1
 66
  1
 70
  0
 62
  0
 10
5.052147
 20
0.344603
 30
0.000000
  0
VERTEX
  8
LAYER-1
 10
5.052147
 20
0.344603
 30
0.000000
  0
VERTEX
  8
LAYER-1
 10
5.052147
 20
0.616231
 30
0.000000
  0
SEQEND
  8
LAYER-1
  0
POLYLINE
  8
LAYER-1
 66
  1
 70
  0
 62
  0
 10
5.092006
 20
0.344603
 30
0.000000
  0
VERTEX
  8
LAYER-1
 10
5.092006
 20
0.344603
 30
0.000000
  0
VERTEX
  8
LAYER-1
 10
5.092006
 20
0.616231
 30
0.000000
  0
SEQEND
  8
LAYER-1
  0
POLYLINE
  8
LAYER-1
 66
  1
 70
  0
 62
  0
 10
4.238130
 20
0.344603
 30
0.000000
  0
VERTEX
  8
LAYER-1
 10
4.238130
 20
0.344603
 30
0.000000
  0
VERTEX
  8
LAYER-1
 10
4.238130
 20
0.616231
 30
0.000000
  0
SEQEND
  8
LAYER-1
  0
POLYLINE
  8
LAYER-1
 66
  1
 70
  0
 62
  0
 10
4.276946
 20
0.344603
 30
0.000000
  0
VERTEX
  8
LAYER-1
 10
4.276946
 20
0.344603
 30
0.000000
  0
VERTEX
  8
LAYER-1
 10
4.276946
 20
0.616231
 30
0.000000
  0
SEQEND
  8
LAYER-1
  0
POLYLINE
  8
LAYER-1
 66
  1
 70
  0
 62
  0
 10
4.504805
 20
0.344643
 30
0.000000
  0
VERTEX
  8
LAYER-1
 10
4.504805
 20
0.344643
 30
0.000000
  0
VERTEX
  8
LAYER-1
 10
4.504805
 20
0.616274
 30
0.000000
  0
SEQEND
  8
LAYER-1
  0
POLYLINE
  8
LAYER-1
 66
  1
 70
  0
 62
  0
 10
5.317636
 20
0.344643
 30
0.000000
  0
VERTEX
  8
LAYER-1
 10
5.317636
 20
0.344643
 30
0.000000
  0
VERTEX
  8
LAYER-1
 10
5.317636
 20
0.616274
 30
0.000000
  0
SEQEND
  8
LAYER-1
  0
POLYLINE
  8
LAYER-1
 66
  1
 70
  0
 62
  0
 10
5.462541
 20
0.345038
 30
0.000000
  0
VERTEX
  8
LAYER-1
 10
5.462541
 20
0.345038
 30
0.000000
  0
VERTEX
  8
LAYER-1
 10
5.462541
 20
0.616666
 30
0.000000
  0
SEQEND
  8
LAYER-1
  0
POLYLINE
  8
LAYER-1
 66
  1
 70
  0
 62
  0
 10
5.500924
 20
0.345038
 30
0.000000
  0
VERTEX
  8
LAYER-1
 10
5.500924
 20
0.345038
 30
0.000000
  0
VERTEX
  8
LAYER-1
 10
5.500924
 20
0.616666
 30
0.000000
  0
SEQEND
  8
LAYER-1
  0
POLYLINE
  8
LAYER-1
 66
  1
 70
  0
 62
  0
 10
4.644703
 20
0.344568
 30
0.000000
  0
VERTEX
  8
LAYER-1
 10
4.644703
 20
0.344568
 30
0.000000
  0
VERTEX
  8
LAYER-1
 10
4.644703
 20
0.616195
 30
0.000000
  0
SEQEND
  8
LAYER-1
  0
POLYLINE
  8
LAYER-1
 66
  1
 70
  0
 62
  0
 10
4.683086
 20
0.344568
 30
0.000000
  0
VERTEX
  8
LAYER-1
 10
4.683086
 20
0.344568
 30
0.000000
  0
VERTEX
  8
LAYER-1
 10
4.683086
 20
0.616195
 30
0.000000
  0
SEQEND
  8
LAYER-1
  0
POLYLINE
  8
LAYER-1
 66
  1
 70
  0
 62
  0
 10
4.017654
 20
0.616270
 30
0.000000
  0
VERTEX
  8
LAYER-1
 10
4.017654
 20
0.616270
 30
0.000000
  0
VERTEX
  8
LAYER-1
 10
4.017654
 20
0.344642
 30
0.000000
  0
SEQEND
  8
LAYER-1
  0
POLYLINE
  8
LAYER-1
 66
  1
 70
  0
 62
  0
 10
4.053083
 20
0.344642
 30
0.000000
  0
VERTEX
  8
LAYER-1
 10
4.053083
 20
0.344642
 30
0.000000
  0
VERTEX
  8
LAYER-1
 10
4.053083
 20
0.616272
 30
0.000000
  0
SEQEND
  8
LAYER-1
  0
POLYLINE
  8
LAYER-1
 66
  1
 70
  0
 62
  0
 10
4.018558
 20
0.344642
 30
0.000000
  0
VERTEX
  8
LAYER-1
 10
4.018558
 20
0.344642
 30
0.000000
  0
VERTEX
  8
LAYER-1
 10
4.028497
 20
0.337641
 30
0.000000
  0
VERTEX
  8
LAYER-1
 10
4.043260
 20
0.339719
 30
0.000000
  0
VERTEX
  8
LAYER-1
 10
4.052113
 20
0.344630
 30
0.000000
  0
SEQEND
  8
LAYER-1
  0
POLYLINE
  8
LAYER-1
 66
  1
 70
  0
 62
  0
 10
4.053083
 20
0.344642
 30
0.000000
  0
VERTEX
  8
LAYER-1
 10
4.053083
 20
0.344642
 30
0.000000
  0
VERTEX
  8
LAYER-1
 10
4.066254
 20
0.337595
 30
0.000000
  0
VERTEX
  8
LAYER-1
 10
4.083334
 20
0.341926
 30
0.000000
  0
VERTEX
  8
LAYER-1
 10
4.089985
 20
0.344643
 30
0.000000
  0
SEQEND
  8
LAYER-1
  0
POLYLINE
  8
LAYER-1
 66
  1
 70
  0
 62
  0
 10
4.468637
 20
0.345135
 30
0.000000
  0
VERTEX
  8
LAYER-1
 10
4.468637
 20
0.345135
 30
0.000000
  0
VERTEX
  8
LAYER-1
 10
4.484204
 20
0.339080
 30
0.000000
  0
VERTEX
  8
LAYER-1
 10
4.502278
 20
0.345806
 30
0.000000
  0
VERTEX
  8
LAYER-1
 10
4.505544
 20
0.345135
 30
0.000000
  0
SEQEND
  8
LAYER-1
  0
POLYLINE
  8
LAYER-1
 66
  1
 70
  0
 62
  0
 10
5.281595
 20
0.344666
 30
0.000000
  0
VERTEX
  8
LAYER-1
 10
5.281595
 20
0.344666
 30
0.000000
  0
VERTEX
  8
LAYER-1
 10
5.297163
 20
0.338611
 30
0.000000
  0
VERTEX
  8
LAYER-1
 10
5.315236
 20
0.345336
 30
0.000000
  0
VERTEX
  8
LAYER-1
 10
5.318503
 20
0.344666
 30
0.000000
  0
SEQEND
  8
LAYER-1
  0
POLYLINE
  8
LAYER-1
 66
  1
 70
  0
 62
  0
 10
4.420928
 20
0.345135
 30
0.000000
  0
VERTEX
  8
LAYER-1
 10
4.420928
 20
0.345135
 30
0.000000
  0
VERTEX
  8
LAYER-1
 10
4.436495
 20
0.339080
 30
0.000000
  0
VERTEX
  8
LAYER-1
 10
4.454569
 20
0.345806
 30
0.000000
  0
VERTEX
  8
LAYER-1
 10
4.457835
 20
0.345135
 30
0.000000
  0
SEQEND
  8
LAYER-1
  0
POLYLINE
  8
LAYER-1
 66
  1
 70
  0
 62
  0
 10
4.442871
 20
0.344577
 30
0.000000
  0
VERTEX
  8
LAYER-1
 10
4.442871
 20
0.344577
 30
0.000000
  0
VERTEX
  8
LAYER-1
 10
4.449686
 20
0.335509
 30
0.000000
  0
VERTEX
  8
LAYER-1
 10
4.463701
 20
0.333915
 30
0.000000
  0
VERTEX
  8
LAYER-1
 10
4.474738
 20
0.342698
 30
0.000000
  0
VERTEX
  8
LAYER-1
 10
4.478300
 20
0.344577
 30
0.000000
  0
SEQEND
  8
LAYER-1
  0
POLYLINE
  8
LAYER-1
 66
  1
 70
  0
 62
  0
 10
4.442871
 20
0.344577
 30
0.000000
  0
VERTEX
  8
LAYER-1
 10
4.442871
 20
0.344577
 30
0.000000
  0
VERTEX
  8
LAYER-1
 10
4.478300
 20
0.344577
 30
0.000000
  0
SEQEND
  8
LAYER-1
  0
POLYLINE
  8
LAYER-1
 66
  1
 70
  0
 62
  0
 10
5.232945
 20
0.344665
 30
0.000000
  0
VERTEX
  8
LAYER-1
 10
5.232945
 20
0.344665
 30
0.000000
  0
VERTEX
  8
LAYER-1
 10
5.248513
 20
0.338611
 30
0.000000
  0
VERTEX
  8
LAYER-1
 10
5.266586
 20
0.345336
 30
0.000000
  0
VERTEX
  8
LAYER-1
 10
5.269853
 20
0.344666
 30
0.000000
  0
SEQEND
  8
LAYER-1
  0
POLYLINE
  8
LAYER-1
 66
  1
 70
  0
 62
  0
 10
5.259117
 20
0.344577
 30
0.000000
  0
VERTEX
  8
LAYER-1
 10
5.259117
 20
0.344577
 30
0.000000
  0
VERTEX
  8
LAYER-1
 10
5.265933
 20
0.335509
 30
0.000000
  0
VERTEX
  8
LAYER-1
 10
5.279947
 20
0.333915
 30
0.000000
  0
VERTEX
  8
LAYER-1
 10
5.290984
 20
0.342698
 30
0.000000
  0
VERTEX
  8
LAYER-1
 10
5.294546
 20
0.344577
 30
0.000000
  0
SEQEND
  8
LAYER-1
  0
POLYLINE
  8
LAYER-1
 66
  1
 70
  0
 62
  0
 10
5.259118
 20
0.344577
 30
0.000000
  0
VERTEX
  8
LAYER-1
 10
5.259118
 20
0.344577
 30
0.000000
  0
VERTEX
  8
LAYER-1
 10
5.294546
 20
0.344577
 30
0.000000
  0
SEQEND
  8
LAYER-1
  0
POLYLINE
  8
LAYER-1
 66
  1
 70
  0
 62
  0
 10
4.051807
 20
0.616859
 30
0.000000
  0
VERTEX
  8
LAYER-1
 10
4.051807
 20
0.616859
 30
0.000000
  0
VERTEX
  8
LAYER-1
 10
4.037634
 20
0.627390
 30
0.000000
  0
VERTEX
  8
LAYER-1
 10
4.022950
 20
0.624815
 30
0.000000
  0
VERTEX
  8
LAYER-1
 10
4.018587
 20
0.616299
 30
0.000000
  0
SEQEND
  8
LAYER-1
  0
POLYLINE
  8
LAYER-1
 66
  1
 70
  0
 62
  0
 10
4.051807
 20
0.616859
 30
0.000000
  0
VERTEX
  8
LAYER-1
 10
4.051807
 20
0.616859
 30
0.000000
  0
VERTEX
  8
LAYER-1
 10
4.018587
 20
0.616299
 30
0.000000
  0
SEQEND
  8
LAYER-1
  0
POLYLINE
  8
LAYER-1
 66
  1
 70
  0
 62
  0
 10
4.090919
 20
0.616296
 30
0.000000
  0
VERTEX
  8
LAYER-1
 10
4.090919
 20
0.616296
 30
0.000000
  0
VERTEX
  8
LAYER-1
 10
4.073811
 20
0.627280
 30
0.000000
  0
VERTEX
  8
LAYER-1
 10
4.056731
 20
0.622949
 30
0.000000
  0
VERTEX
  8
LAYER-1
 10
4.054016
 20
0.616297
 30
0.000000
  0
SEQEND
  8
LAYER-1
  0
POLYLINE
  8
LAYER-1
 66
  1
 70
  0
 62
  0
 10
4.090918
 20
0.616297
 30
0.000000
  0
VERTEX
  8
LAYER-1
 10
4.090918
 20
0.616297
 30
0.000000
  0
VERTEX
  8
LAYER-1
 10
4.054017
 20
0.616299
 30
0.000000
  0
SEQEND
  8
LAYER-1
  0
POLYLINE
  8
LAYER-1
 66
  1
 70
  0
 62
  0
 10
4.457761
 20
0.616743
 30
0.000000
  0
VERTEX
  8
LAYER-1
 10
4.457761
 20
0.616743
 30
0.000000
  0
VERTEX
  8
LAYER-1
 10
4.438257
 20
0.626735
 30
0.000000
  0
VERTEX
  8
LAYER-1
 10
4.420184
 20
0.620010
 30
0.000000
  0
VERTEX
  8
LAYER-1
 10
4.420854
 20
0.616745
 30
0.000000
  0
SEQEND
  8
LAYER-1
  0
POLYLINE
  8
LAYER-1
 66
  1
 70
  0
 62
  0
 10
4.505002
 20
0.616743
 30
0.000000
  0
VERTEX
  8
LAYER-1
 10
4.505002
 20
0.616743
 30
0.000000
  0
VERTEX
  8
LAYER-1
 10
4.485499
 20
0.626735
 30
0.000000
  0
VERTEX
  8
LAYER-1
 10
4.467425
 20
0.620010
 30
0.000000
  0
VERTEX
  8
LAYER-1
 10
4.468095
 20
0.616745
 30
0.000000
  0
SEQEND
  8
LAYER-1
  0
POLYLINE
  8
LAYER-1
 66
  1
 70
  0
 62
  0
 10
4.477757
 20
0.616832
 30
0.000000
  0
VERTEX
  8
LAYER-1
 10
4.477757
 20
0.616832
 30
0.000000
  0
VERTEX
  8
LAYER-1
 10
4.467005
 20
0.629838
 30
0.000000
  0
VERTEX
  8
LAYER-1
 10
4.452989
 20
0.631432
 30
0.000000
  0
VERTEX
  8
LAYER-1
 10
4.441953
 20
0.622648
 30
0.000000
  0
VERTEX
  8
LAYER-1
 10
4.442327
 20
0.616832
 30
0.000000
  0
SEQEND
  8
LAYER-1
  0
POLYLINE
  8
LAYER-1
 66
  1
 70
  0
 62
  0
 10
4.442329
 20
0.616833
 30
0.000000
  0
VERTEX
  8
LAYER-1
 10
4.442329
 20
0.616833
 30
0.000000
  0
VERTEX
  8
LAYER-1
 10
4.477757
 20
0.616833
 30
0.000000
  0
SEQEND
  8
LAYER-1
  0
POLYLINE
  8
LAYER-1
 66
  1
 70
  0
 62
  0
 10
5.270316
 20
0.616743
 30
0.000000
  0
VERTEX
  8
LAYER-1
 10
5.270316
 20
0.616743
 30
0.000000
  0
VERTEX
  8
LAYER-1
 10
5.250812
 20
0.626735
 30
0.000000
  0
VERTEX
  8
LAYER-1
 10
5.232738
 20
0.620010
 30
0.000000
  0
VERTEX
  8
LAYER-1
 10
5.233409
 20
0.616745
 30
0.000000
  0
SEQEND
  8
LAYER-1
  0
POLYLINE
  8
LAYER-1
 66
  1
 70
  0
 62
  0
 10
5.318496
 20
0.616743
 30
0.000000
  0
VERTEX
  8
LAYER-1
 10
5.318496
 20
0.616743
 30
0.000000
  0
VERTEX
  8
LAYER-1
 10
5.298993
 20
0.626735
 30
0.000000
  0
VERTEX
  8
LAYER-1
 10
5.280919
 20
0.620010
 30
0.000000
  0
VERTEX
  8
LAYER-1
 10
5.281589
 20
0.616745
 30
0.000000
  0
SEQEND
  8
LAYER-1
  0
POLYLINE
  8
LAYER-1
 66
  1
 70
  0
 62
  0
 10
5.294541
 20
0.616832
 30
0.000000
  0
VERTEX
  8
LAYER-1
 10
5.294541
 20
0.616832
 30
0.000000
  0
VERTEX
  8
LAYER-1
 10
5.283788
 20
0.629838
 30
0.000000
  0
VERTEX
  8
LAYER-1
 10
5.269773
 20
0.631432
 30
0.000000
  0
VERTEX
  8
LAYER-1
 10
5.258737
 20
0.622648
 30
0.000000
  0
VERTEX
  8
LAYER-1
 10
5.259112
 20
0.616832
 30
0.000000
  0
SEQEND
  8
LAYER-1
  0
POLYLINE
  8
LAYER-1
 66
  1
 70
  0
 62
  0
 10
5.259112
 20
0.616833
 30
0.000000
  0
VERTEX
  8
LAYER-1
 10
5.259112
 20
0.616833
 30
0.000000
  0
VERTEX
  8
LAYER-1
 10
5.294540
 20
0.616833
 30
0.000000
  0
SEQEND
  8
LAYER-1
  0
POLYLINE
  8
LAYER-1
 66
  1
 70
  1
 62
  0
  0
VERTEX
  8
LAYER-1
 10
4.478301
 20
0.344643
 30
0.000000
  0
VERTEX
  8
LAYER-1
 10
4.442871
 20
0.344643
 30
0.000000
  0
VERTEX
  8
LAYER-1
 10
4.442871
 20
0.616272
 30
0.000000
  0
VERTEX
  8
LAYER-1
 10
4.478301
 20
0.616272
 30
0.000000
  0
SEQEND
  8
LAYER-1
  0
POLYLINE
  8
LAYER-1
 66
  1
 70
  1
 62
  0
  0
VERTEX
  8
LAYER-1
 10
5.294615
 20
0.344643
 30
0.000000
  0
VERTEX
  8
LAYER-1
 10
5.259185
 20
0.344643
 30
0.000000
  0
VERTEX
  8
LAYER-1
 10
5.259185
 20
0.616272
 30
0.000000
  0
VERTEX
  8
LAYER-1
 10
5.294615
 20
0.616272
 30
0.000000
  0
SEQEND
  8
LAYER-1
  0
POLYLINE
  8
LAYER-1
 66
  1
 70
  0
 62
  0
 10
4.442871
 20
0.412549
 30
0.000000
  0
VERTEX
  8
LAYER-1
 10
4.442871
 20
0.412549
 30
0.000000
  0
VERTEX
  8
LAYER-1
 10
4.478301
 20
0.412549
 30
0.000000
  0
SEQEND
  8
LAYER-1
  0
POLYLINE
  8
LAYER-1
 66
  1
 70
  0
 62
  0
 10
4.442871
 20
0.542458
 30
0.000000
  0
VERTEX
  8
LAYER-1
 10
4.442871
 20
0.542458
 30
0.000000
  0
VERTEX
  8
LAYER-1
 10
4.478301
 20
0.542458
 30
0.000000
  0
SEQEND
  8
LAYER-1
  0
POLYLINE
  8
LAYER-1
 66
  1
 70
  0
 62
  0
 10
5.259185
 20
0.412549
 30
0.000000
  0
VERTEX
  8
LAYER-1
 10
5.259185
 20
0.412549
 30
0.000000
  0
VERTEX
  8
LAYER-1
 10
5.294613
 20
0.412549
 30
0.000000
  0
SEQEND
  8
LAYER-1
  0
POLYLINE
  8
LAYER-1
 66
  1
 70
  0
 62
  0
 10
5.259185
 20
0.542458
 30
0.000000
  0
VERTEX
  8
LAYER-1
 10
5.259185
 20
0.542458
 30
0.000000
  0
VERTEX
  8
LAYER-1
 10
5.294613
 20
0.542458
 30
0.000000
  0
SEQEND
  8
LAYER-1
  0
POLYLINE
  8
LAYER-1
 66
  1
 70
  0
 62
  0
 10
4.240539
 20
0.345085
 30
0.000000
  0
VERTEX
  8
LAYER-1
 10
4.240539
 20
0.345085
 30
0.000000
  0
VERTEX
  8
LAYER-1
 10
4.250479
 20
0.338086
 30
0.000000
  0
VERTEX
  8
LAYER-1
 10
4.265242
 20
0.340163
 30
0.000000
  0
VERTEX
  8
LAYER-1
 10
4.273758
 20
0.344527
 30
0.000000
  0
SEQEND
  8
LAYER-1
  0
POLYLINE
  8
LAYER-1
 66
  1
 70
  0
 62
  0
 10
5.054032
 20
0.344703
 30
0.000000
  0
VERTEX
  8
LAYER-1
 10
5.054032
 20
0.344703
 30
0.000000
  0
VERTEX
  8
LAYER-1
 10
5.067204
 20
0.337658
 30
0.000000
  0
VERTEX
  8
LAYER-1
 10
5.084284
 20
0.341989
 30
0.000000
  0
VERTEX
  8
LAYER-1
 10
5.090937
 20
0.344705
 30
0.000000
  0
SEQEND
  8
LAYER-1
  0
POLYLINE
  8
LAYER-1
 66
  1
 70
  0
 62
  0
 10
4.866837
 20
0.616860
 30
0.000000
  0
VERTEX
  8
LAYER-1
 10
4.866837
 20
0.616860
 30
0.000000
  0
VERTEX
  8
LAYER-1
 10
4.852665
 20
0.627392
 30
0.000000
  0
VERTEX
  8
LAYER-1
 10
4.837980
 20
0.624817
 30
0.000000
  0
VERTEX
  8
LAYER-1
 10
4.833618
 20
0.616301
 30
0.000000
  0
SEQEND
  8
LAYER-1
  0
POLYLINE
  8
LAYER-1
 66
  1
 70
  0
 62
  0
 10
4.866836
 20
0.616860
 30
0.000000
  0
VERTEX
  8
LAYER-1
 10
4.866836
 20
0.616860
 30
0.000000
  0
VERTEX
  8
LAYER-1
 10
4.833618
 20
0.616301
 30
0.000000
  0
SEQEND
  8
LAYER-1
  0
POLYLINE
  8
LAYER-1
 66
  1
 70
  0
 62
  0
 10
4.905949
 20
0.616300
 30
0.000000
  0
VERTEX
  8
LAYER-1
 10
4.905949
 20
0.616300
 30
0.000000
  0
VERTEX
  8
LAYER-1
 10
4.888841
 20
0.627285
 30
0.000000
  0
VERTEX
  8
LAYER-1
 10
4.871761
 20
0.622953
 30
0.000000
  0
VERTEX
  8
LAYER-1
 10
4.869045
 20
0.616301
 30
0.000000
  0
SEQEND
  8
LAYER-1
  0
POLYLINE
  8
LAYER-1
 66
  1
 70
  0
 62
  0
 10
4.905949
 20
0.616299
 30
0.000000
  0
VERTEX
  8
LAYER-1
 10
4.905949
 20
0.616299
 30
0.000000
  0
VERTEX
  8
LAYER-1
 10
4.869046
 20
0.616301
 30
0.000000
  0
SEQEND
  8
LAYER-1
  0
POLYLINE
  8
LAYER-1
 66
  1
 70
  0
 62
  0
 10
4.904778
 20
0.344643
 30
0.000000
  0
VERTEX
  8
LAYER-1
 10
4.904778
 20
0.344643
 30
0.000000
  0
VERTEX
  8
LAYER-1
 10
4.904778
 20
0.616274
 30
0.000000
  0
SEQEND
  8
LAYER-1
  0
POLYLINE
  8
LAYER-1
 66
  1
 70
  0
 62
  0
 10
4.832444
 20
0.616270
 30
0.000000
  0
VERTEX
  8
LAYER-1
 10
4.832444
 20
0.616270
 30
0.000000
  0
VERTEX
  8
LAYER-1
 10
4.832444
 20
0.344642
 30
0.000000
  0
SEQEND
  8
LAYER-1
  0
POLYLINE
  8
LAYER-1
 66
  1
 70
  0
 62
  0
 10
4.867874
 20
0.344642
 30
0.000000
  0
VERTEX
  8
LAYER-1
 10
4.867874
 20
0.344642
 30
0.000000
  0
VERTEX
  8
LAYER-1
 10
4.867874
 20
0.616272
 30
0.000000
  0
SEQEND
  8
LAYER-1
  0
POLYLINE
  8
LAYER-1
 66
  1
 70
  0
 62
  0
 10
4.832749
 20
0.344783
 30
0.000000
  0
VERTEX
  8
LAYER-1
 10
4.832749
 20
0.344783
 30
0.000000
  0
VERTEX
  8
LAYER-1
 10
4.842689
 20
0.337784
 30
0.000000
  0
VERTEX
  8
LAYER-1
 10
4.857452
 20
0.339862
 30
0.000000
  0
VERTEX
  8
LAYER-1
 10
4.865968
 20
0.344225
 30
0.000000
  0
SEQEND
  8
LAYER-1
  0
POLYLINE
  8
LAYER-1
 66
  1
 70
  0
 62
  0
 10
4.865968
 20
0.344222
 30
0.000000
  0
VERTEX
  8
LAYER-1
 10
4.865968
 20
0.344222
 30
0.000000
  0
VERTEX
  8
LAYER-1
 10
4.832749
 20
0.344783
 30
0.000000
  0
SEQEND
  8
LAYER-1
  0
POLYLINE
  8
LAYER-1
 66
  1
 70
  0
 62
  0
 10
4.868178
 20
0.344783
 30
0.000000
  0
VERTEX
  8
LAYER-1
 10
4.868178
 20
0.344783
 30
0.000000
  0
VERTEX
  8
LAYER-1
 10
4.881349
 20
0.337737
 30
0.000000
  0
VERTEX
  8
LAYER-1
 10
4.898429
 20
0.342068
 30
0.000000
  0
VERTEX
  8
LAYER-1
 10
4.905081
 20
0.344785
 30
0.000000
  0
SEQEND
  8
LAYER-1
  0
POLYLINE
  8
LAYER-1
 66
  1
 70
  0
 62
  0
 10
4.905081
 20
0.344783
 30
0.000000
  0
VERTEX
  8
LAYER-1
 10
4.905081
 20
0.344783
 30
0.000000
  0
VERTEX
  8
LAYER-1
 10
4.868178
 20
0.344783
 30
0.000000
  0
SEQEND
  8
LAYER-1
  0
POLYLINE
  8
LAYER-1
 66
  1
 70
  0
 62
  0
 10
5.686836
 20
0.616860
 30
0.000000
  0
VERTEX
  8
LAYER-1
 10
5.686836
 20
0.616860
 30
0.000000
  0
VERTEX
  8
LAYER-1
 10
5.672664
 20
0.627392
 30
0.000000
  0
VERTEX
  8
LAYER-1
 10
5.657979
 20
0.624817
 30
0.000000
  0
VERTEX
  8
LAYER-1
 10
5.653617
 20
0.616301
 30
0.000000
  0
SEQEND
  8
LAYER-1
  0
POLYLINE
  8
LAYER-1
 66
  1
 70
  0
 62
  0
 10
5.686836
 20
0.616860
 30
0.000000
  0
VERTEX
  8
LAYER-1
 10
5.686836
 20
0.616860
 30
0.000000
  0
VERTEX
  8
LAYER-1
 10
5.653618
 20
0.616301
 30
0.000000
  0
SEQEND
  8
LAYER-1
  0
POLYLINE
  8
LAYER-1
 66
  1
 70
  0
 62
  0
 10
5.725949
 20
0.616300
 30
0.000000
  0
VERTEX
  8
LAYER-1
 10
5.725949
 20
0.616300
 30
0.000000
  0
VERTEX
  8
LAYER-1
 10
5.708841
 20
0.627285
 30
0.000000
  0
VERTEX
  8
LAYER-1
 10
5.691761
 20
0.622953
 30
0.000000
  0
VERTEX
  8
LAYER-1
 10
5.689045
 20
0.616301
 30
0.000000
  0
SEQEND
  8
LAYER-1
  0
POLYLINE
  8
LAYER-1
 66
  1
 70
  0
 62
  0
 10
5.725949
 20
0.616299
 30
0.000000
  0
VERTEX
  8
LAYER-1
 10
5.725949
 20
0.616299
 30
0.000000
  0
VERTEX
  8
LAYER-1
 10
5.689046
 20
0.616301
 30
0.000000
  0
SEQEND
  8
LAYER-1
  0
POLYLINE
  8
LAYER-1
 66
  1
 70
  0
 62
  0
 10
5.724778
 20
0.344643
 30
0.000000
  0
VERTEX
  8
LAYER-1
 10
5.724778
 20
0.344643
 30
0.000000
  0
VERTEX
  8
LAYER-1
 10
5.724778
 20
0.616274
 30
0.000000
  0
SEQEND
  8
LAYER-1
  0
POLYLINE
  8
LAYER-1
 66
  1
 70
  0
 62
  0
 10
5.652444
 20
0.616270
 30
0.000000
  0
VERTEX
  8
LAYER-1
 10
5.652444
 20
0.616270
 30
0.000000
  0
VERTEX
  8
LAYER-1
 10
5.652444
 20
0.344642
 30
0.000000
  0
SEQEND
  8
LAYER-1
  0
POLYLINE
  8
LAYER-1
 66
  1
 70
  0
 62
  0
 10
5.687874
 20
0.344642
 30
0.000000
  0
VERTEX
  8
LAYER-1
 10
5.687874
 20
0.344642
 30
0.000000
  0
VERTEX
  8
LAYER-1
 10
5.687874
 20
0.616272
 30
0.000000
  0
SEQEND
  8
LAYER-1
  0
POLYLINE
  8
LAYER-1
 66
  1
 70
  0
 62
  0
 10
5.652749
 20
0.344783
 30
0.000000
  0
VERTEX
  8
LAYER-1
 10
5.652749
 20
0.344783
 30
0.000000
  0
VERTEX
  8
LAYER-1
 10
5.662689
 20
0.337784
 30
0.000000
  0
VERTEX
  8
LAYER-1
 10
5.677452
 20
0.339862
 30
0.000000
  0
VERTEX
  8
LAYER-1
 10
5.685968
 20
0.344225
 30
0.000000
  0
SEQEND
  8
LAYER-1
  0
POLYLINE
  8
LAYER-1
 66
  1
 70
  0
 62
  0
 10
5.685968
 20
0.344222
 30
0.000000
  0
VERTEX
  8
LAYER-1
 10
5.685968
 20
0.344222
 30
0.000000
  0
VERTEX
  8
LAYER-1
 10
5.652749
 20
0.344783
 30
0.000000
  0
SEQEND
  8
LAYER-1
  0
POLYLINE
  8
LAYER-1
 66
  1
 70
  0
 62
  0
 10
5.688178
 20
0.344783
 30
0.000000
  0
VERTEX
  8
LAYER-1
 10
5.688178
 20
0.344783
 30
0.000000
  0
VERTEX
  8
LAYER-1
 10
5.701349
 20
0.337737
 30
0.000000
  0
VERTEX
  8
LAYER-1
 10
5.718429
 20
0.342068
 30
0.000000
  0
VERTEX
  8
LAYER-1
 10
5.725081
 20
0.344785
 30
0.000000
  0
SEQEND
  8
LAYER-1
  0
POLYLINE
  8
LAYER-1
 66
  1
 70
  0
 62
  0
 10
5.725081
 20
0.344783
 30
0.000000
  0
VERTEX
  8
LAYER-1
 10
5.725081
 20
0.344783
 30
0.000000
  0
VERTEX
  8
LAYER-1
 10
5.688178
 20
0.344783
 30
0.000000
  0
SEQEND
  8
LAYER-1
  0
POLYLINE
  8
LAYER-1
 66
  1
 70
  0
 62
  0
 10
6.000760
 20
4.433394
 30
0.000000
  0
VERTEX
  8
LAYER-1
 10
6.000760
 20
4.433394
 30
0.000000
  0
VERTEX
  8
LAYER-1
 10
5.725109
 20
4.301277
 30
0.000000
  0
SEQEND
  8
LAYER-1
  0
POLYLINE
  8
LAYER-1
 66
  1
 70
  1
 62
  0
  0
VERTEX
  8
LAYER-1
 10
5.707357
 20
4.292769
 30
0.000000
  0
VERTEX
  8
LAYER-1
 10
5.751971
 20
4.360358
 30
0.000000
  0
VERTEX
  8
LAYER-1
 10
5.769980
 20
4.322784
 30
0.000000
  0
VERTEX
  8
LAYER-1
 10
5.787989
 20
4.285210
 30
0.000000
  0
VERTEX
  8
LAYER-1
 10
5.707357
 20
4.292769
 30
0.000000
  0
SEQEND
  8
LAYER-1
  0
CIRCLE
  8
LAYER-1
 62
  0
 10
3.702666
 20
1.860231
 30
0.000000
 40
0.022565
  0
CIRCLE
  8
LAYER-1
 62
  0
 10
3.702666
 20
1.860231
 30
0.000000
 40
0.016522
  0
CIRCLE
  8
LAYER-1
 62
  0
 10
3.702666
 20
1.860231
 30
0.000000
 40
0.013746
  0
CIRCLE
  8
LAYER-1
 62
  0
 10
3.702666
 20
1.860231
 30
0.000000
 40
0.008860
  0
POLYLINE
  8
LAYER-1
 66
  1
 70
  0
 62
  0
 40
0.027778
 41
0.027778
 10
3.659334
 20
0.240700
 30
0.000000
  0
VERTEX
  8
LAYER-1
 10
3.659334
 20
0.240700
 30
0.000000
  0
VERTEX
  8
LAYER-1
 10
0.750760
 20
0.240700
 30
0.000000
  0
SEQEND
  8
LAYER-1
  0
POLYLINE
  8
LAYER-1
 66
  1
 70
  0
 62
  0
 40
0.027778
 41
0.027778
 10
3.752951
 20
0.240700
 30
0.000000
  0
VERTEX
  8
LAYER-1
 10
3.752951
 20
0.240700
 30
0.000000
  0
VERTEX
  8
LAYER-1
 10
6.743816
 20
0.240700
 30
0.000000
  0
SEQEND
  8
LAYER-1
  0
POLYLINE
  8
LAYER-1
 66
  1
 70
  0
 62
  0
 10
0.750845
 20
0.037543
 30
0.000000
  0
VERTEX
  8
LAYER-1
 10
0.750845
 20
0.037543
 30
0.000000
  0
VERTEX
  8
LAYER-1
 10
0.777358
 20
0.034088
 30
0.000000
  0
VERTEX
  8
LAYER-1
 10
0.796717
 20
0.034088
 30
0.000000
  0
VERTEX
  8
LAYER-1
 10
0.816075
 20
0.037560
 30
0.000000
  0
VERTEX
  8
LAYER-1
 10
0.835434
 20
0.037560
 30
0.000000
  0
VERTEX
  8
LAYER-1
 10
0.881894
 20
0.044504
 30
0.000000
  0
VERTEX
  8
LAYER-1
 10
0.916740
 20
0.054921
 30
0.000000
  0
VERTEX
  8
LAYER-1
 10
0.939002
 20
0.059261
 30
0.000000
  0
VERTEX
  8
LAYER-1
 10
0.960780
 20
0.060998
 30
0.000000
  0
VERTEX
  8
LAYER-1
 10
0.990302
 20
0.058394
 30
0.000000
  0
VERTEX
  8
LAYER-1
 10
1.021276
 20
0.054921
 30
0.000000
  0
VERTEX
  8
LAYER-1
 10
1.048378
 20
0.047977
 30
0.000000
  0
VERTEX
  8
LAYER-1
 10
1.067736
 20
0.044504
 30
0.000000
  0
VERTEX
  8
LAYER-1
 10
1.098710
 20
0.041033
 30
0.000000
  0
VERTEX
  8
LAYER-1
 10
1.118068
 20
0.037560
 30
0.000000
  0
VERTEX
  8
LAYER-1
 10
1.141299
 20
0.034088
 30
0.000000
  0
VERTEX
  8
LAYER-1
 10
1.168401
 20
0.034088
 30
0.000000
  0
VERTEX
  8
LAYER-1
 10
1.195503
 20
0.034088
 30
0.000000
  0
VERTEX
  8
LAYER-1
 10
1.218733
 20
0.034088
 30
0.000000
  0
VERTEX
  8
LAYER-1
 10
1.241963
 20
0.030616
 30
0.000000
  0
VERTEX
  8
LAYER-1
 10
1.280681
 20
0.030616
 30
0.000000
  0
VERTEX
  8
LAYER-1
 10
1.311654
 20
0.030616
 30
0.000000
  0
VERTEX
  8
LAYER-1
 10
1.331013
 20
0.027144
 30
0.000000
  0
VERTEX
  8
LAYER-1
 10
1.361987
 20
0.023671
 30
0.000000
  0
VERTEX
  8
LAYER-1
 10
1.392961
 20
0.020198
 30
0.000000
  0
VERTEX
  8
LAYER-1
 10
1.431678
 20
0.020198
 30
0.000000
  0
VERTEX
  8
LAYER-1
 10
1.462651
 20
0.020198
 30
0.000000
  0
VERTEX
  8
LAYER-1
 10
1.501369
 20
0.020198
 30
0.000000
  0
VERTEX
  8
LAYER-1
 10
1.532342
 20
0.027144
 30
0.000000
  0
VERTEX
  8
LAYER-1
 10
1.555572
 20
0.027144
 30
0.000000
  0
VERTEX
  8
LAYER-1
 10
1.574931
 20
0.030616
 30
0.000000
  0
VERTEX
  8
LAYER-1
 10
1.598161
 20
0.030616
 30
0.000000
  0
VERTEX
  8
LAYER-1
 10
1.617520
 20
0.030616
 30
0.000000
  0
VERTEX
  8
LAYER-1
 10
1.660109
 20
0.030616
 30
0.000000
  0
VERTEX
  8
LAYER-1
 10
1.706569
 20
0.023671
 30
0.000000
  0
VERTEX
  8
LAYER-1
 10
1.749158
 20
0.020198
 30
0.000000
  0
VERTEX
  8
LAYER-1
 10
1.811106
 20
0.013254
 30
0.000000
  0
VERTEX
  8
LAYER-1
 10
1.869181
 20
0.006310
 30
0.000000
  0
VERTEX
  8
LAYER-1
 10
1.919513
 20
0.006310
 30
0.000000
  0
VERTEX
  8
LAYER-1
 10
1.946615
 20
0.006310
 30
0.000000
  0
VERTEX
  8
LAYER-1
 10
1.981461
 20
0.006310
 30
0.000000
  0
VERTEX
  8
LAYER-1
 10
2.001787
 20
0.007178
 30
0.000000
  0
VERTEX
  8
LAYER-1
 10
2.039053
 20
0.009348
 30
0.000000
  0
VERTEX
  8
LAYER-1
 10
2.085997
 20
0.020198
 30
0.000000
  0
VERTEX
  8
LAYER-1
 10
2.128586
 20
0.034088
 30
0.000000
  0
VERTEX
  8
LAYER-1
 10
2.163431
 20
0.044504
 30
0.000000
  0
VERTEX
  8
LAYER-1
 10
2.190534
 20
0.054921
 30
0.000000
  0
VERTEX
  8
LAYER-1
 10
2.213763
 20
0.061866
 30
0.000000
  0
VERTEX
  8
LAYER-1
 10
2.236993
 20
0.061866
 30
0.000000
  0
VERTEX
  8
LAYER-1
 10
2.260224
 20
0.061866
 30
0.000000
  0
VERTEX
  8
LAYER-1
 10
2.283454
 20
0.061866
 30
0.000000
  0
VERTEX
  8
LAYER-1
 10
2.318300
 20
0.054921
 30
0.000000
  0
VERTEX
  8
LAYER-1
 10
2.349273
 20
0.047977
 30
0.000000
  0
VERTEX
  8
LAYER-1
 10
2.372503
 20
0.041033
 30
0.000000
  0
VERTEX
  8
LAYER-1
 10
2.391862
 20
0.037560
 30
0.000000
  0
VERTEX
  8
LAYER-1
 10
2.415092
 20
0.030616
 30
0.000000
  0
VERTEX
  8
LAYER-1
 10
2.434451
 20
0.023671
 30
0.000000
  0
VERTEX
  8
LAYER-1
 10
2.457681
 20
0.020198
 30
0.000000
  0
VERTEX
  8
LAYER-1
 10
2.477039
 20
0.020198
 30
0.000000
  0
VERTEX
  8
LAYER-1
 10
2.508014
 20
0.016727
 30
0.000000
  0
VERTEX
  8
LAYER-1
 10
2.535116
 20
0.016727
 30
0.000000
  0
VERTEX
  8
LAYER-1
 10
2.569961
 20
0.016727
 30
0.000000
  0
VERTEX
  8
LAYER-1
 10
2.597063
 20
0.020198
 30
0.000000
  0
VERTEX
  8
LAYER-1
 10
2.631908
 20
0.030616
 30
0.000000
  0
VERTEX
  8
LAYER-1
 10
2.651267
 20
0.030616
 30
0.000000
  0
VERTEX
  8
LAYER-1
 10
2.674497
 20
0.030616
 30
0.000000
  0
VERTEX
  8
LAYER-1
 10
2.693856
 20
0.030616
 30
0.000000
  0
VERTEX
  8
LAYER-1
 10
2.717086
 20
0.034088
 30
0.000000
  0
VERTEX
  8
LAYER-1
 10
2.740316
 20
0.037560
 30
0.000000
  0
VERTEX
  8
LAYER-1
 10
2.771290
 20
0.037560
 30
0.000000
  0
VERTEX
  8
LAYER-1
 10
2.802263
 20
0.037560
 30
0.000000
  0
VERTEX
  8
LAYER-1
 10
2.825494
 20
0.037560
 30
0.000000
  0
VERTEX
  8
LAYER-1
 10
2.848724
 20
0.037560
 30
0.000000
  0
VERTEX
  8
LAYER-1
 10
2.868083
 20
0.034088
 30
0.000000
  0
VERTEX
  8
LAYER-1
 10
2.887442
 20
0.030616
 30
0.000000
  0
VERTEX
  8
LAYER-1
 10
2.906800
 20
0.027144
 30
0.000000
  0
VERTEX
  8
LAYER-1
 10
2.926159
 20
0.023671
 30
0.000000
  0
VERTEX
  8
LAYER-1
 10
2.957132
 20
0.016727
 30
0.000000
  0
VERTEX
  8
LAYER-1
 10
2.980362
 20
0.013254
 30
0.000000
  0
VERTEX
  8
LAYER-1
 10
3.003593
 20
0.013254
 30
0.000000
  0
VERTEX
  8
LAYER-1
 10
3.022951
 20
0.013254
 30
0.000000
  0
VERTEX
  8
LAYER-1
 10
3.050053
 20
0.013254
 30
0.000000
  0
VERTEX
  8
LAYER-1
 10
3.081027
 20
0.016727
 30
0.000000
  0
VERTEX
  8
LAYER-1
 10
3.135231
 20
0.027144
 30
0.000000
  0
VERTEX
  8
LAYER-1
 10
3.181692
 20
0.037560
 30
0.000000
  0
VERTEX
  8
LAYER-1
 10
3.224280
 20
0.044504
 30
0.000000
  0
VERTEX
  8
LAYER-1
 10
3.255254
 20
0.047977
 30
0.000000
  0
VERTEX
  8
LAYER-1
 10
3.293971
 20
0.051448
 30
0.000000
  0
VERTEX
  8
LAYER-1
 10
3.324945
 20
0.054921
 30
0.000000
  0
VERTEX
  8
LAYER-1
 10
3.350595
 20
0.055790
 30
0.000000
  0
VERTEX
  8
LAYER-1
 10
3.368018
 20
0.053619
 30
0.000000
  0
VERTEX
  8
LAYER-1
 10
3.389312
 20
0.048845
 30
0.000000
  0
VERTEX
  8
LAYER-1
 10
3.410122
 20
0.037560
 30
0.000000
  0
VERTEX
  8
LAYER-1
 10
3.433353
 20
0.034088
 30
0.000000
  0
VERTEX
  8
LAYER-1
 10
3.452712
 20
0.034088
 30
0.000000
  0
VERTEX
  8
LAYER-1
 10
3.472069
 20
0.034088
 30
0.000000
  0
VERTEX
  8
LAYER-1
 10
3.491429
 20
0.034088
 30
0.000000
  0
VERTEX
  8
LAYER-1
 10
3.522404
 20
0.034088
 30
0.000000
  0
VERTEX
  8
LAYER-1
 10
3.545634
 20
0.034088
 30
0.000000
  0
VERTEX
  8
LAYER-1
 10
3.568864
 20
0.034088
 30
0.000000
  0
VERTEX
  8
LAYER-1
 10
3.588223
 20
0.034088
 30
0.000000
  0
VERTEX
  8
LAYER-1
 10
3.611453
 20
0.034088
 30
0.000000
  0
VERTEX
  8
LAYER-1
 10
3.634683
 20
0.034088
 30
0.000000
  0
VERTEX
  8
LAYER-1
 10
3.654043
 20
0.034088
 30
0.000000
  0
VERTEX
  8
LAYER-1
 10
3.681145
 20
0.034088
 30
0.000000
  0
VERTEX
  8
LAYER-1
 10
3.704374
 20
0.030616
 30
0.000000
  0
VERTEX
  8
LAYER-1
 10
3.726637
 20
0.022803
 30
0.000000
  0
VERTEX
  8
LAYER-1
 10
3.767290
 20
0.020198
 30
0.000000
  0
VERTEX
  8
LAYER-1
 10
3.805039
 20
0.023671
 30
0.000000
  0
VERTEX
  8
LAYER-1
 10
3.824397
 20
0.030616
 30
0.000000
  0
VERTEX
  8
LAYER-1
 10
3.847628
 20
0.037560
 30
0.000000
  0
VERTEX
  8
LAYER-1
 10
3.867471
 20
0.041467
 30
0.000000
  0
VERTEX
  8
LAYER-1
 10
3.890217
 20
0.047977
 30
0.000000
  0
VERTEX
  8
LAYER-1
 10
3.913446
 20
0.047977
 30
0.000000
  0
VERTEX
  8
LAYER-1
 10
3.936676
 20
0.044504
 30
0.000000
  0
VERTEX
  8
LAYER-1
 10
3.959908
 20
0.044504
 30
0.000000
  0
VERTEX
  8
LAYER-1
 10
3.983138
 20
0.044504
 30
0.000000
  0
VERTEX
  8
LAYER-1
 10
4.002497
 20
0.041033
 30
0.000000
  0
VERTEX
  8
LAYER-1
 10
4.029599
 20
0.041033
 30
0.000000
  0
VERTEX
  8
LAYER-1
 10
4.060572
 20
0.041033
 30
0.000000
  0
VERTEX
  8
LAYER-1
 10
4.091546
 20
0.047977
 30
0.000000
  0
VERTEX
  8
LAYER-1
 10
4.110905
 20
0.051448
 30
0.000000
  0
VERTEX
  8
LAYER-1
 10
4.138006
 20
0.051448
 30
0.000000
  0
VERTEX
  8
LAYER-1
 10
4.161237
 20
0.054921
 30
0.000000
  0
VERTEX
  8
LAYER-1
 10
4.192210
 20
0.058394
 30
0.000000
  0
VERTEX
  8
LAYER-1
 10
4.215441
 20
0.058394
 30
0.000000
  0
VERTEX
  8
LAYER-1
 10
4.246415
 20
0.054921
 30
0.000000
  0
VERTEX
  8
LAYER-1
 10
4.289004
 20
0.044504
 30
0.000000
  0
VERTEX
  8
LAYER-1
 10
4.319977
 20
0.034088
 30
0.000000
  0
VERTEX
  8
LAYER-1
 10
4.354822
 20
0.023671
 30
0.000000
  0
VERTEX
  8
LAYER-1
 10
4.397896
 20
0.016726
 30
0.000000
  0
VERTEX
  8
LAYER-1
 10
4.445324
 20
0.017594
 30
0.000000
  0
VERTEX
  8
LAYER-1
 10
4.500495
 20
0.020198
 30
0.000000
  0
VERTEX
  8
LAYER-1
 10
4.567766
 20
0.020198
 30
0.000000
  0
VERTEX
  8
LAYER-1
 10
4.613260
 20
0.008914
 30
0.000000
  0
VERTEX
  8
LAYER-1
 10
4.643265
 20
0.002837
 30
0.000000
  0
VERTEX
  8
LAYER-1
 10
4.666496
 20
0.001969
 30
0.000000
  0
VERTEX
  8
LAYER-1
 10
4.701341
 20
0.001970
 30
0.000000
  0
VERTEX
  8
LAYER-1
 10
4.726507
 20
0.006310
 30
0.000000
  0
VERTEX
  8
LAYER-1
 10
4.753609
 20
0.016727
 30
0.000000
  0
VERTEX
  8
LAYER-1
 10
4.788455
 20
0.023671
 30
0.000000
  0
VERTEX
  8
LAYER-1
 10
4.815556
 20
0.030616
 30
0.000000
  0
VERTEX
  8
LAYER-1
 10
4.838788
 20
0.034088
 30
0.000000
  0
VERTEX
  8
LAYER-1
 10
4.862016
 20
0.037560
 30
0.000000
  0
VERTEX
  8
LAYER-1
 10
4.889119
 20
0.041033
 30
0.000000
  0
VERTEX
  8
LAYER-1
 10
4.916220
 20
0.047977
 30
0.000000
  0
VERTEX
  8
LAYER-1
 10
4.935580
 20
0.051448
 30
0.000000
  0
VERTEX
  8
LAYER-1
 10
4.966553
 20
0.054921
 30
0.000000
  0
VERTEX
  8
LAYER-1
 10
4.989783
 20
0.061866
 30
0.000000
  0
VERTEX
  8
LAYER-1
 10
5.013497
 20
0.072717
 30
0.000000
  0
VERTEX
  8
LAYER-1
 10
5.036244
 20
0.079227
 30
0.000000
  0
VERTEX
  8
LAYER-1
 10
5.059475
 20
0.079227
 30
0.000000
  0
VERTEX
  8
LAYER-1
 10
5.086576
 20
0.079227
 30
0.000000
  0
VERTEX
  8
LAYER-1
 10
5.113678
 20
0.079227
 30
0.000000
  0
VERTEX
  8
LAYER-1
 10
5.152395
 20
0.075754
 30
0.000000
  0
VERTEX
  8
LAYER-1
 10
5.206600
 20
0.072283
 30
0.000000
  0
VERTEX
  8
LAYER-1
 10
5.249187
 20
0.072283
 30
0.000000
  0
VERTEX
  8
LAYER-1
 10
5.280161
 20
0.072283
 30
0.000000
  0
VERTEX
  8
LAYER-1
 10
5.303392
 20
0.072283
 30
0.000000
  0
VERTEX
  8
LAYER-1
 10
5.326622
 20
0.072283
 30
0.000000
  0
VERTEX
  8
LAYER-1
 10
5.357595
 20
0.075754
 30
0.000000
  0
VERTEX
  8
LAYER-1
 10
5.396313
 20
0.075754
 30
0.000000
  0
VERTEX
  8
LAYER-1
 10
5.427286
 20
0.075754
 30
0.000000
  0
VERTEX
  8
LAYER-1
 10
5.450516
 20
0.079227
 30
0.000000
  0
VERTEX
  8
LAYER-1
 10
5.481490
 20
0.079227
 30
0.000000
  0
VERTEX
  8
LAYER-1
 10
5.500849
 20
0.079227
 30
0.000000
  0
VERTEX
  8
LAYER-1
 10
5.531822
 20
0.070546
 30
0.000000
  0
VERTEX
  8
LAYER-1
 10
5.558924
 20
0.058394
 30
0.000000
  0
VERTEX
  8
LAYER-1
 10
5.593769
 20
0.044504
 30
0.000000
  0
VERTEX
  8
LAYER-1
 10
5.620872
 20
0.037560
 30
0.000000
  0
VERTEX
  8
LAYER-1
 10
5.651845
 20
0.030616
 30
0.000000
  0
VERTEX
  8
LAYER-1
 10
5.679431
 20
0.028446
 30
0.000000
  0
VERTEX
  8
LAYER-1
 10
5.706050
 20
0.027144
 30
0.000000
  0
VERTEX
  8
LAYER-1
 10
5.729279
 20
0.030616
 30
0.000000
  0
VERTEX
  8
LAYER-1
 10
5.752509
 20
0.037560
 30
0.000000
  0
VERTEX
  8
LAYER-1
 10
5.779612
 20
0.041033
 30
0.000000
  0
VERTEX
  8
LAYER-1
 10
5.802842
 20
0.044504
 30
0.000000
  0
VERTEX
  8
LAYER-1
 10
5.826072
 20
0.047977
 30
0.000000
  0
VERTEX
  8
LAYER-1
 10
5.845431
 20
0.051448
 30
0.000000
  0
VERTEX
  8
LAYER-1
 10
5.868662
 20
0.051448
 30
0.000000
  0
VERTEX
  8
LAYER-1
 10
5.895764
 20
0.051448
 30
0.000000
  0
VERTEX
  8
LAYER-1
 10
5.915606
 20
0.054053
 30
0.000000
  0
VERTEX
  8
LAYER-1
 10
5.942223
 20
0.058394
 30
0.000000
  0
VERTEX
  8
LAYER-1
 10
5.965454
 20
0.065338
 30
0.000000
  0
VERTEX
  8
LAYER-1
 10
5.996428
 20
0.065338
 30
0.000000
  0
VERTEX
  8
LAYER-1
 10
6.027401
 20
0.065338
 30
0.000000
  0
VERTEX
  8
LAYER-1
 10
6.046760
 20
0.065338
 30
0.000000
  0
VERTEX
  8
LAYER-1
 10
6.100964
 20
0.058394
 30
0.000000
  0
VERTEX
  8
LAYER-1
 10
6.131937
 20
0.051448
 30
0.000000
  0
VERTEX
  8
LAYER-1
 10
6.151296
 20
0.047977
 30
0.000000
  0
VERTEX
  8
LAYER-1
 10
6.186142
 20
0.047977
 30
0.000000
  0
VERTEX
  8
LAYER-1
 10
6.209856
 20
0.055355
 30
0.000000
  0
VERTEX
  8
LAYER-1
 10
6.231634
 20
0.056223
 30
0.000000
  0
VERTEX
  8
LAYER-1
 10
6.283418
 20
0.063167
 30
0.000000
  0
VERTEX
  8
LAYER-1
 10
6.331814
 20
0.073151
 30
0.000000
  0
VERTEX
  8
LAYER-1
 10
6.368112
 20
0.076623
 30
0.000000
  0
VERTEX
  8
LAYER-1
 10
6.401022
 20
0.077057
 30
0.000000
  0
VERTEX
  8
LAYER-1
 10
6.417960
 20
0.072283
 30
0.000000
  0
VERTEX
  8
LAYER-1
 10
6.436351
 20
0.068810
 30
0.000000
  0
VERTEX
  8
LAYER-1
 10
6.467325
 20
0.063602
 30
0.000000
  0
VERTEX
  8
LAYER-1
 10
6.507493
 20
0.071848
 30
0.000000
  0
VERTEX
  8
LAYER-1
 10
6.522981
 20
0.079227
 30
0.000000
  0
VERTEX
  8
LAYER-1
 10
6.546211
 20
0.079227
 30
0.000000
  0
VERTEX
  8
LAYER-1
 10
6.569441
 20
0.079227
 30
0.000000
  0
VERTEX
  8
LAYER-1
 10
6.596543
 20
0.072283
 30
0.000000
  0
VERTEX
  8
LAYER-1
 10
6.619773
 20
0.058394
 30
0.000000
  0
VERTEX
  8
LAYER-1
 10
6.646875
 20
0.047977
 30
0.000000
  0
VERTEX
  8
LAYER-1
 10
6.673977
 20
0.037560
 30
0.000000
  0
VERTEX
  8
LAYER-1
 10
6.697207
 20
0.037560
 30
0.000000
  0
VERTEX
  8
LAYER-1
 10
6.727269
 20
0.037543
 30
0.000000
  0
VERTEX
  8
LAYER-1
 10
6.751412
 20
0.047977
 30
0.000000
  0
SEQEND
  8
LAYER-1
  0
TEXT
  8
LAYER-1
 62
  0
 10
5.834094
 20
0.544505
 30
0.000000
 40
0.125000
  1
Casquillo
 72
  5
 11
6.639649
 21
0.544505
 31
0.000000
  0
TEXT
  8
LAYER-1
 62
  0
 10
5.834094
 20
0.350060
 30
0.000000
 40
0.125000
  1
anti-polvo
 72
  5
 11
6.639649
 21
0.350060
 31
0.000000
  0
POLYLINE
  8
LAYER-1
 66
  1
 70
  0
 62
  0
 10
5.817601
 20
0.468115
 30
0.000000
  0
VERTEX
  8
LAYER-1
 10
5.817601
 20
0.468115
 30
0.000000
  0
VERTEX
  8
LAYER-1
 10
3.753735
 20
0.158535
 30
0.000000
  0
SEQEND
  8
LAYER-1
  0
POLYLINE
  8
LAYER-1
 66
  1
 70
  1
 62
  0
  0
VERTEX
  8
LAYER-1
 10
3.734267
 20
0.155615
 30
0.000000
  0
VERTEX
  8
LAYER-1
 10
3.796762
 20
0.207122
 30
0.000000
  0
VERTEX
  8
LAYER-1
 10
3.802943
 20
0.165916
 30
0.000000
  0
VERTEX
  8
LAYER-1
 10
3.809124
 20
0.124711
 30
0.000000
  0
VERTEX
  8
LAYER-1
 10
3.734267
 20
0.155615
 30
0.000000
  0
SEQEND
  8
LAYER-1
  0
TEXT
  8
LAYER-1
 62
  0
 10
1.792427
 20
8.475060
 30
0.000000
 40
0.125000
  1
CALADO
 72
  5
 11
2.528538
 21
8.475060
 31
0.000000
  0
LINE
  8
LAYER-1
 62
  0
 10
5.851452
 20
5.117839
 30
0.000000
 11
5.851452
 21
5.925285
 31
0.000000
  0
LINE
  8
LAYER-1
 62
  0
 10
5.770954
 20
5.117839
 30
0.000000
 11
5.976452
 21
5.117839
 31
0.000000
  0
LINE
  8
LAYER-1
 62
  0
 10
5.771389
 20
5.925285
 30
0.000000
 11
5.976452
 21
5.925285
 31
0.000000
  0
LINE
  8
LAYER-1
 62
  0
 10
5.851452
 20
5.732682
 30
0.000000
 11
5.851452
 21
5.117839
 31
0.000000
  0
LINE
  8
LAYER-1
 62
  0
 10
5.821989
 20
5.147302
 30
0.000000
 11
5.880914
 21
5.088376
 31
0.000000
  0
LINE
  8
LAYER-1
 62
  0
 10
5.821989
 20
5.954748
 30
0.000000
 11
5.880914
 21
5.895822
 31
0.000000
  0
TEXT
  8
LAYER-1
 62
  0
 10
6.006821
 20
5.453185
 30
0.000000
 40
0.125000
  1
      
 50
90.000000
  0
TEXT
  8
LAYER-1
 62
  0
 10
6.125760
 20
5.572283
 30
0.000000
 40
0.125000
  1
12"
 72
  5
 11
6.445205
 21
5.572283
 31
0.000000
  0
TEXT
  8
LAYER-1
 62
  0
 10
5.945205
 20
5.377838
 30
0.000000
 40
0.125000
  1
305mm
 72
  5
 11
6.611871
 21
5.377838
 31
0.000000
  0
LINE
  8
LAYER-1
 62
  0
 10
5.851454
 20
7.413239
 30
0.000000
 11
5.851454
 21
7.145199
 31
0.000000
  0
LINE
  8
LAYER-1
 62
  0
 10
5.768333
 20
7.413239
 30
0.000000
 11
5.976454
 21
7.413239
 31
0.000000
  0
LINE
  8
LAYER-1
 62
  0
 10
5.774196
 20
7.145199
 30
0.000000
 11
5.976454
 21
7.145199
 31
0.000000
  0
LINE
  8
LAYER-1
 62
  0
 10
5.880917
 20
7.383775
 30
0.000000
 11
5.821992
 21
7.442702
 31
0.000000
  0
LINE
  8
LAYER-1
 62
  0
 10
5.880917
 20
7.115736
 30
0.000000
 11
5.821992
 21
7.174662
 31
0.000000
  0
TEXT
  8
LAYER-1
 62
  0
 10
5.729570
 20
7.270855
 30
0.000000
 40
0.125000
  1
 
 50
90.000000
  0
TEXT
  8
LAYER-1
 62
  0
 10
6.167427
 20
7.294505
 30
0.000000
 40
0.125000
  1
4"
 72
  5
 11
6.389649
 21
7.294505
 31
0.000000
  0
TEXT
  8
LAYER-1
 62
  0
 10
5.945205
 20
7.100060
 30
0.000000
 40
0.125000
  1
102mm
 72
  5
 11
6.611871
 21
7.100060
 31
0.000000
  0
LINE
  8
LAYER-1
 62
  0
 10
4.458224
 20
7.676448
 30
0.000000
 11
4.867947
 21
7.676448
 31
0.000000
  0
LINE
  8
LAYER-1
 62
  0
 10
4.458224
 20
7.306658
 30
0.000000
 11
4.458224
 21
7.801448
 31
0.000000
  0
LINE
  8
LAYER-1
 62
  0
 10
4.867947
 20
7.304921
 30
0.000000
 11
4.867947
 21
7.801448
 31
0.000000
  0
LINE
  8
LAYER-1
 62
  0
 10
4.487687
 20
7.705911
 30
0.000000
 11
4.428762
 21
7.646986
 31
0.000000
  0
LINE
  8
LAYER-1
 62
  0
 10
4.897410
 20
7.705911
 30
0.000000
 11
4.838484
 21
7.646986
 31
0.000000
  0
TEXT
  8
LAYER-1
 62
  0
 10
4.654523
 20
7.799973
 30
0.000000
 40
0.125000
  1
 
  0
TEXT
  8
LAYER-1
 62
  0
 10
4.542427
 20
8.044505
 30
0.000000
 40
0.125000
  1
6"
 72
  5
 11
4.764649
 21
8.044505
 31
0.000000
  0
TEXT
  8
LAYER-1
 62
  0
 10
4.320205
 20
7.850060
 30
0.000000
 40
0.125000
  1
152mm
 72
  5
 11
4.986871
 21
7.850060
 31
0.000000
  0
ENDSEC
  0
EOF
