  0
SECTION
  2
HEADER
999
MacDraft 5.0\0
  9
$ACADVER
  1
AC1006
  9
$CLAYER
  8
LAYER-1
  9
$EXTMIN
 10
0.000000
 20
0.000000
  9
$EXTMAX
 10
6.928193
 20
10.035307
  9
$FASTZOOM
 70
0
  9
$FILLMODE
 70
1
  0
ENDSEC
  0
SECTION
  2
TABLES
  0
TABLE
  2
LTYPE
 70
16
  0
LTYPE
  2
CONTINUOUS
 70
64
  3
Solid Line
 72
65
 73
0
 40
0.000000
  0
LTYPE
  2
LTYPE01
 70
64
  3
CUSTOM
 72
65
 73
2
 40
0.111111
 49
0.083333
 49
-0.027778
  0
LTYPE
  2
LTYPE02
 70
64
  3
CUSTOM
 72
65
 73
2
 40
0.194444
 49
0.166667
 49
-0.027778
  0
LTYPE
  2
LTYPE03
 70
64
  3
CUSTOM
 72
65
 73
2
 40
0.375000
 49
0.333333
 49
-0.041667
  0
LTYPE
  2
LTYPE04
 70
64
  3
CUSTOM
 72
65
 73
2
 40
0.722222
 49
0.666667
 49
-0.055556
  0
LTYPE
  2
LTYPE05
 70
64
  3
CUSTOM
 72
65
 73
4
 40
0.152778
 49
0.083333
 49
-0.027778
 49
0.013889
 49
-0.027778
  0
LTYPE
  2
LTYPE06
 70
64
  3
CUSTOM
 72
65
 73
4
 40
0.236111
 49
0.166667
 49
-0.027778
 49
0.013889
 49
-0.027778
  0
LTYPE
  2
LTYPE07
 70
64
  3
CUSTOM
 72
65
 73
4
 40
0.444444
 49
0.333333
 49
-0.041667
 49
0.027778
 49
-0.041667
  0
LTYPE
  2
LTYPE08
 70
64
  3
CUSTOM
 72
65
 73
4
 40
0.805556
 49
0.666667
 49
-0.055556
 49
0.027778
 49
-0.055556
  0
LTYPE
  2
LTYPE09
 70
64
  3
CUSTOM
 72
65
 73
6
 40
0.194444
 49
0.083333
 49
-0.027778
 49
0.013889
 49
-0.027778
 49
0.013889
 49
-0.027778
  0
LTYPE
  2
LTYPE10
 70
64
  3
CUSTOM
 72
65
 73
6
 40
0.277778
 49
0.166667
 49
-0.027778
 49
0.013889
 49
-0.027778
 49
0.013889
 49
-0.027778
  0
LTYPE
  2
LTYPE11
 70
64
  3
CUSTOM
 72
65
 73
6
 40
0.500000
 49
0.333333
 49
-0.041667
 49
0.027778
 49
-0.027778
 49
0.027778
 49
-0.041667
  0
LTYPE
  2
LTYPE12
 70
64
  3
CUSTOM
 72
65
 73
6
 40
0.861111
 49
0.666667
 49
-0.055556
 49
0.027778
 49
-0.027778
 49
0.027778
 49
-0.055556
  0
LTYPE
  2
LTYPE13
 70
64
  3
CUSTOM
 72
65
 73
8
 40
0.319444
 49
0.166667
 49
-0.027778
 49
0.013889
 49
-0.027778
 49
0.013889
 49
-0.027778
 49
0.013889
 49
-0.027778
  0
LTYPE
  2
LTYPE14
 70
64
  3
CUSTOM
 72
65
 73
8
 40
0.555556
 49
0.333333
 49
-0.041667
 49
0.027778
 49
-0.027778
 49
0.027778
 49
-0.027778
 49
0.027778
 49
-0.041667
  0
LTYPE
  2
LTYPE15
 70
64
  3
CUSTOM
 72
65
 73
8
 40
0.944444
 49
0.666667
 49
-0.055556
 49
0.027778
 49
-0.041667
 49
0.027778
 49
-0.041667
 49
0.027778
 49
-0.055556
  0
ENDTAB
  0
TABLE
  2
LAYER
 70
1
  0
LAYER
  2
LAYER-1
 70
0
 62
7
  6
CONTINUOUS
  0
ENDTAB
  0
ENDSEC
  0
SECTION
  2
BLOCKS
  0
ENDSEC
  0
SECTION
  2
ENTITIES
  0
POLYLINE
  8
LAYER-1
 66
  1
 70
  0
 62
  0
 10
3.440398
 20
0.205817
 30
0.000000
  0
VERTEX
  8
LAYER-1
 10
3.440398
 20
0.205817
 30
0.000000
  0
VERTEX
  8
LAYER-1
 10
3.440398
 20
0.204627
 30
0.000000
  0
SEQEND
  8
LAYER-1
  0
POLYLINE
  8
LAYER-1
 66
  1
 70
  1
 62
  0
 10
1.268542
 20
0.110650
 30
0.000000
  0
VERTEX
  8
LAYER-1
 10
1.268542
 20
0.110650
 30
0.000000
  0
VERTEX
  8
LAYER-1
 10
1.275487
 20
0.084609
 30
0.000000
  0
VERTEX
  8
LAYER-1
 10
1.300661
 20
0.098497
 30
0.000000
  0
SEQEND
  8
LAYER-1
  0
POLYLINE
  8
LAYER-1
 66
  1
 70
  1
 62
  0
 10
1.458646
 20
0.215682
 30
0.000000
  0
VERTEX
  8
LAYER-1
 10
1.458646
 20
0.215682
 30
0.000000
  0
VERTEX
  8
LAYER-1
 10
1.445626
 20
0.193112
 30
0.000000
  0
VERTEX
  8
LAYER-1
 10
1.476008
 20
0.213945
 30
0.000000
  0
SEQEND
  8
LAYER-1
  0
POLYLINE
  8
LAYER-1
 66
  1
 70
  1
 62
  0
 10
1.104480
 20
0.151449
 30
0.000000
  0
VERTEX
  8
LAYER-1
 10
1.104480
 20
0.151449
 30
0.000000
  0
VERTEX
  8
LAYER-1
 10
1.087987
 20
0.126274
 30
0.000000
  0
VERTEX
  8
LAYER-1
 10
1.102743
 20
0.118462
 30
0.000000
  0
SEQEND
  8
LAYER-1
  0
POLYLINE
  8
LAYER-1
 66
  1
 70
  0
 62
  0
 10
1.271147
 20
0.152317
 30
0.000000
  0
VERTEX
  8
LAYER-1
 10
1.271147
 20
0.152317
 30
0.000000
  0
VERTEX
  8
LAYER-1
 10
1.266807
 20
0.152317
 30
0.000000
  0
VERTEX
  8
LAYER-1
 10
1.263334
 20
0.147977
 30
0.000000
  0
VERTEX
  8
LAYER-1
 10
1.262466
 20
0.142769
 30
0.000000
  0
VERTEX
  8
LAYER-1
 10
1.264202
 20
0.138429
 30
0.000000
  0
VERTEX
  8
LAYER-1
 10
1.268543
 20
0.136692
 30
0.000000
  0
VERTEX
  8
LAYER-1
 10
1.272883
 20
0.136692
 30
0.000000
  0
VERTEX
  8
LAYER-1
 10
1.277223
 20
0.140165
 30
0.000000
  0
VERTEX
  8
LAYER-1
 10
1.277223
 20
0.144505
 30
0.000000
  0
VERTEX
  8
LAYER-1
 10
1.276355
 20
0.148846
 30
0.000000
  0
VERTEX
  8
LAYER-1
 10
1.272015
 20
0.151449
 30
0.000000
  0
SEQEND
  8
LAYER-1
  0
POLYLINE
  8
LAYER-1
 66
  1
 70
  1
 62
  0
 10
0.909168
 20
0.190509
 30
0.000000
  0
VERTEX
  8
LAYER-1
 10
0.909168
 20
0.190509
 30
0.000000
  0
VERTEX
  8
LAYER-1
 10
0.896146
 20
0.167941
 30
0.000000
  0
VERTEX
  8
LAYER-1
 10
0.926529
 20
0.188772
 30
0.000000
  0
SEQEND
  8
LAYER-1
  0
POLYLINE
  8
LAYER-1
 66
  1
 70
  1
 62
  0
 10
1.040945
 20
0.190175
 30
0.000000
  0
VERTEX
  8
LAYER-1
 10
1.040945
 20
0.190175
 30
0.000000
  0
VERTEX
  8
LAYER-1
 10
1.028258
 20
0.170812
 30
0.000000
  0
VERTEX
  8
LAYER-1
 10
1.039610
 20
0.164802
 30
0.000000
  0
SEQEND
  8
LAYER-1
  0
POLYLINE
  8
LAYER-1
 66
  1
 70
  0
 62
  0
 10
1.398751
 20
0.171414
 30
0.000000
  0
VERTEX
  8
LAYER-1
 10
1.398751
 20
0.171414
 30
0.000000
  0
VERTEX
  8
LAYER-1
 10
1.394410
 20
0.171414
 30
0.000000
  0
VERTEX
  8
LAYER-1
 10
1.390939
 20
0.167073
 30
0.000000
  0
VERTEX
  8
LAYER-1
 10
1.390071
 20
0.161865
 30
0.000000
  0
VERTEX
  8
LAYER-1
 10
1.391806
 20
0.157524
 30
0.000000
  0
VERTEX
  8
LAYER-1
 10
1.396146
 20
0.155789
 30
0.000000
  0
VERTEX
  8
LAYER-1
 10
1.400487
 20
0.155789
 30
0.000000
  0
VERTEX
  8
LAYER-1
 10
1.404827
 20
0.159260
 30
0.000000
  0
VERTEX
  8
LAYER-1
 10
1.404827
 20
0.163601
 30
0.000000
  0
VERTEX
  8
LAYER-1
 10
1.403959
 20
0.167942
 30
0.000000
  0
VERTEX
  8
LAYER-1
 10
1.399619
 20
0.170546
 30
0.000000
  0
SEQEND
  8
LAYER-1
  0
POLYLINE
  8
LAYER-1
 66
  1
 70
  0
 62
  0
 10
1.156563
 20
0.145372
 30
0.000000
  0
VERTEX
  8
LAYER-1
 10
1.156563
 20
0.145372
 30
0.000000
  0
VERTEX
  8
LAYER-1
 10
1.152223
 20
0.145372
 30
0.000000
  0
VERTEX
  8
LAYER-1
 10
1.148751
 20
0.141031
 30
0.000000
  0
VERTEX
  8
LAYER-1
 10
1.147883
 20
0.135824
 30
0.000000
  0
VERTEX
  8
LAYER-1
 10
1.149618
 20
0.131483
 30
0.000000
  0
VERTEX
  8
LAYER-1
 10
1.153959
 20
0.129747
 30
0.000000
  0
VERTEX
  8
LAYER-1
 10
1.158300
 20
0.129747
 30
0.000000
  0
VERTEX
  8
LAYER-1
 10
1.162640
 20
0.133219
 30
0.000000
  0
VERTEX
  8
LAYER-1
 10
1.162640
 20
0.137560
 30
0.000000
  0
VERTEX
  8
LAYER-1
 10
1.161772
 20
0.141900
 30
0.000000
  0
VERTEX
  8
LAYER-1
 10
1.157431
 20
0.144504
 30
0.000000
  0
SEQEND
  8
LAYER-1
  0
POLYLINE
  8
LAYER-1
 66
  1
 70
  0
 62
  0
 10
0.992500
 20
0.137560
 30
0.000000
  0
VERTEX
  8
LAYER-1
 10
0.992500
 20
0.137560
 30
0.000000
  0
VERTEX
  8
LAYER-1
 10
0.988161
 20
0.137560
 30
0.000000
  0
VERTEX
  8
LAYER-1
 10
0.984688
 20
0.133219
 30
0.000000
  0
VERTEX
  8
LAYER-1
 10
0.983820
 20
0.128011
 30
0.000000
  0
VERTEX
  8
LAYER-1
 10
0.985556
 20
0.123671
 30
0.000000
  0
VERTEX
  8
LAYER-1
 10
0.989897
 20
0.121935
 30
0.000000
  0
VERTEX
  8
LAYER-1
 10
0.994236
 20
0.121935
 30
0.000000
  0
VERTEX
  8
LAYER-1
 10
0.998577
 20
0.125406
 30
0.000000
  0
VERTEX
  8
LAYER-1
 10
0.998577
 20
0.129747
 30
0.000000
  0
VERTEX
  8
LAYER-1
 10
0.997709
 20
0.134087
 30
0.000000
  0
VERTEX
  8
LAYER-1
 10
0.993368
 20
0.136692
 30
0.000000
  0
SEQEND
  8
LAYER-1
  0
POLYLINE
  8
LAYER-1
 66
  1
 70
  1
 62
  0
 10
1.620540
 20
0.162298
 30
0.000000
  0
VERTEX
  8
LAYER-1
 10
1.620540
 20
0.162298
 30
0.000000
  0
VERTEX
  8
LAYER-1
 10
1.594500
 20
0.155354
 30
0.000000
  0
VERTEX
  8
LAYER-1
 10
1.608387
 20
0.130180
 30
0.000000
  0
SEQEND
  8
LAYER-1
  0
POLYLINE
  8
LAYER-1
 66
  1
 70
  1
 62
  0
 10
1.682083
 20
0.102701
 30
0.000000
  0
VERTEX
  8
LAYER-1
 10
1.682083
 20
0.102701
 30
0.000000
  0
VERTEX
  8
LAYER-1
 10
1.704654
 20
0.089680
 30
0.000000
  0
VERTEX
  8
LAYER-1
 10
1.683821
 20
0.120062
 30
0.000000
  0
SEQEND
  8
LAYER-1
  0
POLYLINE
  8
LAYER-1
 66
  1
 70
  1
 62
  0
 10
1.213422
 20
0.170111
 30
0.000000
  0
VERTEX
  8
LAYER-1
 10
1.213422
 20
0.170111
 30
0.000000
  0
VERTEX
  8
LAYER-1
 10
1.188248
 20
0.186603
 30
0.000000
  0
VERTEX
  8
LAYER-1
 10
1.180436
 20
0.171847
 30
0.000000
  0
SEQEND
  8
LAYER-1
  0
POLYLINE
  8
LAYER-1
 66
  1
 70
  0
 62
  0
 10
1.631825
 20
0.198758
 30
0.000000
  0
VERTEX
  8
LAYER-1
 10
1.631825
 20
0.198758
 30
0.000000
  0
VERTEX
  8
LAYER-1
 10
1.631825
 20
0.203098
 30
0.000000
  0
VERTEX
  8
LAYER-1
 10
1.627485
 20
0.206570
 30
0.000000
  0
VERTEX
  8
LAYER-1
 10
1.622277
 20
0.207437
 30
0.000000
  0
VERTEX
  8
LAYER-1
 10
1.617936
 20
0.205702
 30
0.000000
  0
VERTEX
  8
LAYER-1
 10
1.616200
 20
0.201361
 30
0.000000
  0
VERTEX
  8
LAYER-1
 10
1.616200
 20
0.197021
 30
0.000000
  0
VERTEX
  8
LAYER-1
 10
1.619672
 20
0.192680
 30
0.000000
  0
VERTEX
  8
LAYER-1
 10
1.624013
 20
0.192680
 30
0.000000
  0
VERTEX
  8
LAYER-1
 10
1.628354
 20
0.193548
 30
0.000000
  0
VERTEX
  8
LAYER-1
 10
1.630958
 20
0.197890
 30
0.000000
  0
SEQEND
  8
LAYER-1
  0
POLYLINE
  8
LAYER-1
 66
  1
 70
  1
 62
  0
 10
1.584082
 20
0.174449
 30
0.000000
  0
VERTEX
  8
LAYER-1
 10
1.584082
 20
0.174449
 30
0.000000
  0
VERTEX
  8
LAYER-1
 10
1.561512
 20
0.187471
 30
0.000000
  0
VERTEX
  8
LAYER-1
 10
1.582344
 20
0.157090
 30
0.000000
  0
SEQEND
  8
LAYER-1
  0
POLYLINE
  8
LAYER-1
 66
  1
 70
  1
 62
  0
 10
1.232184
 20
0.186769
 30
0.000000
  0
VERTEX
  8
LAYER-1
 10
1.232184
 20
0.186769
 30
0.000000
  0
VERTEX
  8
LAYER-1
 10
1.212820
 20
0.199456
 30
0.000000
  0
VERTEX
  8
LAYER-1
 10
1.206809
 20
0.188105
 30
0.000000
  0
SEQEND
  8
LAYER-1
  0
POLYLINE
  8
LAYER-1
 66
  1
 70
  0
 62
  0
 10
1.698057
 20
0.063118
 30
0.000000
  0
VERTEX
  8
LAYER-1
 10
1.698057
 20
0.063118
 30
0.000000
  0
VERTEX
  8
LAYER-1
 10
1.698057
 20
0.058779
 30
0.000000
  0
VERTEX
  8
LAYER-1
 10
1.702398
 20
0.055305
 30
0.000000
  0
VERTEX
  8
LAYER-1
 10
1.707606
 20
0.054437
 30
0.000000
  0
VERTEX
  8
LAYER-1
 10
1.711946
 20
0.056174
 30
0.000000
  0
VERTEX
  8
LAYER-1
 10
1.713682
 20
0.060514
 30
0.000000
  0
VERTEX
  8
LAYER-1
 10
1.713682
 20
0.064855
 30
0.000000
  0
VERTEX
  8
LAYER-1
 10
1.710210
 20
0.069194
 30
0.000000
  0
VERTEX
  8
LAYER-1
 10
1.705870
 20
0.069194
 30
0.000000
  0
VERTEX
  8
LAYER-1
 10
1.701529
 20
0.068326
 30
0.000000
  0
VERTEX
  8
LAYER-1
 10
1.698924
 20
0.063986
 30
0.000000
  0
SEQEND
  8
LAYER-1
  0
POLYLINE
  8
LAYER-1
 66
  1
 70
  0
 62
  0
 10
1.207345
 20
0.118028
 30
0.000000
  0
VERTEX
  8
LAYER-1
 10
1.207345
 20
0.118028
 30
0.000000
  0
VERTEX
  8
LAYER-1
 10
1.207345
 20
0.122368
 30
0.000000
  0
VERTEX
  8
LAYER-1
 10
1.203005
 20
0.125840
 30
0.000000
  0
VERTEX
  8
LAYER-1
 10
1.197797
 20
0.126708
 30
0.000000
  0
VERTEX
  8
LAYER-1
 10
1.193456
 20
0.124972
 30
0.000000
  0
VERTEX
  8
LAYER-1
 10
1.191720
 20
0.120631
 30
0.000000
  0
VERTEX
  8
LAYER-1
 10
1.191720
 20
0.116291
 30
0.000000
  0
VERTEX
  8
LAYER-1
 10
1.195192
 20
0.111951
 30
0.000000
  0
VERTEX
  8
LAYER-1
 10
1.199533
 20
0.111951
 30
0.000000
  0
VERTEX
  8
LAYER-1
 10
1.203873
 20
0.112818
 30
0.000000
  0
VERTEX
  8
LAYER-1
 10
1.206478
 20
0.117160
 30
0.000000
  0
SEQEND
  8
LAYER-1
  0
POLYLINE
  8
LAYER-1
 66
  1
 70
  0
 62
  0
 10
1.509429
 20
0.152751
 30
0.000000
  0
VERTEX
  8
LAYER-1
 10
1.509429
 20
0.152751
 30
0.000000
  0
VERTEX
  8
LAYER-1
 10
1.509429
 20
0.157092
 30
0.000000
  0
VERTEX
  8
LAYER-1
 10
1.505088
 20
0.160564
 30
0.000000
  0
VERTEX
  8
LAYER-1
 10
1.499881
 20
0.161431
 30
0.000000
  0
VERTEX
  8
LAYER-1
 10
1.495540
 20
0.159696
 30
0.000000
  0
VERTEX
  8
LAYER-1
 10
1.493804
 20
0.155355
 30
0.000000
  0
VERTEX
  8
LAYER-1
 10
1.493804
 20
0.151015
 30
0.000000
  0
VERTEX
  8
LAYER-1
 10
1.497276
 20
0.146674
 30
0.000000
  0
VERTEX
  8
LAYER-1
 10
1.501617
 20
0.146674
 30
0.000000
  0
VERTEX
  8
LAYER-1
 10
1.505957
 20
0.147542
 30
0.000000
  0
VERTEX
  8
LAYER-1
 10
1.508562
 20
0.151883
 30
0.000000
  0
SEQEND
  8
LAYER-1
  0
POLYLINE
  8
LAYER-1
 66
  1
 70
  1
 62
  0
 10
1.728613
 20
0.144939
 30
0.000000
  0
VERTEX
  8
LAYER-1
 10
1.728613
 20
0.144939
 30
0.000000
  0
VERTEX
  8
LAYER-1
 10
1.735557
 20
0.118897
 30
0.000000
  0
VERTEX
  8
LAYER-1
 10
1.754655
 20
0.134521
 30
0.000000
  0
SEQEND
  8
LAYER-1
  0
POLYLINE
  8
LAYER-1
 66
  1
 70
  1
 62
  0
 10
1.912640
 20
0.166640
 30
0.000000
  0
VERTEX
  8
LAYER-1
 10
1.912640
 20
0.166640
 30
0.000000
  0
VERTEX
  8
LAYER-1
 10
1.899619
 20
0.144071
 30
0.000000
  0
VERTEX
  8
LAYER-1
 10
1.930001
 20
0.164903
 30
0.000000
  0
SEQEND
  8
LAYER-1
  0
POLYLINE
  8
LAYER-1
 66
  1
 70
  1
 62
  0
 10
1.962545
 20
0.065180
 30
0.000000
  0
VERTEX
  8
LAYER-1
 10
1.962545
 20
0.065180
 30
0.000000
  0
VERTEX
  8
LAYER-1
 10
1.946053
 20
0.040006
 30
0.000000
  0
VERTEX
  8
LAYER-1
 10
1.960809
 20
0.032194
 30
0.000000
  0
SEQEND
  8
LAYER-1
  0
POLYLINE
  8
LAYER-1
 66
  1
 70
  0
 62
  0
 10
1.700835
 20
0.169244
 30
0.000000
  0
VERTEX
  8
LAYER-1
 10
1.700835
 20
0.169244
 30
0.000000
  0
VERTEX
  8
LAYER-1
 10
1.696494
 20
0.169244
 30
0.000000
  0
VERTEX
  8
LAYER-1
 10
1.693022
 20
0.164903
 30
0.000000
  0
VERTEX
  8
LAYER-1
 10
1.692155
 20
0.159696
 30
0.000000
  0
VERTEX
  8
LAYER-1
 10
1.693890
 20
0.155355
 30
0.000000
  0
VERTEX
  8
LAYER-1
 10
1.698230
 20
0.153619
 30
0.000000
  0
VERTEX
  8
LAYER-1
 10
1.702571
 20
0.153619
 30
0.000000
  0
VERTEX
  8
LAYER-1
 10
1.706911
 20
0.157091
 30
0.000000
  0
VERTEX
  8
LAYER-1
 10
1.706911
 20
0.161431
 30
0.000000
  0
VERTEX
  8
LAYER-1
 10
1.706043
 20
0.165772
 30
0.000000
  0
VERTEX
  8
LAYER-1
 10
1.701703
 20
0.168376
 30
0.000000
  0
SEQEND
  8
LAYER-1
  0
POLYLINE
  8
LAYER-1
 66
  1
 70
  1
 62
  0
 10
1.738162
 20
0.101535
 30
0.000000
  0
VERTEX
  8
LAYER-1
 10
1.738162
 20
0.101535
 30
0.000000
  0
VERTEX
  8
LAYER-1
 10
1.725140
 20
0.078966
 30
0.000000
  0
VERTEX
  8
LAYER-1
 10
1.755522
 20
0.099798
 30
0.000000
  0
SEQEND
  8
LAYER-1
  0
POLYLINE
  8
LAYER-1
 66
  1
 70
  1
 62
  0
 10
1.993961
 20
0.047288
 30
0.000000
  0
VERTEX
  8
LAYER-1
 10
1.993961
 20
0.047288
 30
0.000000
  0
VERTEX
  8
LAYER-1
 10
2.006649
 20
0.066652
 30
0.000000
  0
VERTEX
  8
LAYER-1
 10
1.995297
 20
0.072663
 30
0.000000
  0
SEQEND
  8
LAYER-1
  0
POLYLINE
  8
LAYER-1
 66
  1
 70
  0
 62
  0
 10
1.893187
 20
0.047735
 30
0.000000
  0
VERTEX
  8
LAYER-1
 10
1.893187
 20
0.047735
 30
0.000000
  0
VERTEX
  8
LAYER-1
 10
1.897528
 20
0.047735
 30
0.000000
  0
VERTEX
  8
LAYER-1
 10
1.900999
 20
0.052076
 30
0.000000
  0
VERTEX
  8
LAYER-1
 10
1.901867
 20
0.057283
 30
0.000000
  0
VERTEX
  8
LAYER-1
 10
1.900131
 20
0.061624
 30
0.000000
  0
VERTEX
  8
LAYER-1
 10
1.895791
 20
0.063360
 30
0.000000
  0
VERTEX
  8
LAYER-1
 10
1.891451
 20
0.063360
 30
0.000000
  0
VERTEX
  8
LAYER-1
 10
1.887110
 20
0.059888
 30
0.000000
  0
VERTEX
  8
LAYER-1
 10
1.887110
 20
0.055548
 30
0.000000
  0
VERTEX
  8
LAYER-1
 10
1.887978
 20
0.051207
 30
0.000000
  0
VERTEX
  8
LAYER-1
 10
1.892319
 20
0.048602
 30
0.000000
  0
SEQEND
  8
LAYER-1
  0
POLYLINE
  8
LAYER-1
 66
  1
 70
  0
 62
  0
 10
1.582692
 20
0.083603
 30
0.000000
  0
VERTEX
  8
LAYER-1
 10
1.582692
 20
0.083603
 30
0.000000
  0
VERTEX
  8
LAYER-1
 10
1.587032
 20
0.083603
 30
0.000000
  0
VERTEX
  8
LAYER-1
 10
1.590504
 20
0.087943
 30
0.000000
  0
VERTEX
  8
LAYER-1
 10
1.591373
 20
0.093151
 30
0.000000
  0
VERTEX
  8
LAYER-1
 10
1.589637
 20
0.097492
 30
0.000000
  0
VERTEX
  8
LAYER-1
 10
1.585296
 20
0.099228
 30
0.000000
  0
VERTEX
  8
LAYER-1
 10
1.580956
 20
0.099228
 30
0.000000
  0
VERTEX
  8
LAYER-1
 10
1.576615
 20
0.095756
 30
0.000000
  0
VERTEX
  8
LAYER-1
 10
1.576615
 20
0.091415
 30
0.000000
  0
VERTEX
  8
LAYER-1
 10
1.577484
 20
0.087074
 30
0.000000
  0
VERTEX
  8
LAYER-1
 10
1.581825
 20
0.084471
 30
0.000000
  0
SEQEND
  8
LAYER-1
  0
POLYLINE
  8
LAYER-1
 66
  1
 70
  1
 62
  0
 10
2.078005
 20
0.149712
 30
0.000000
  0
VERTEX
  8
LAYER-1
 10
2.078005
 20
0.149712
 30
0.000000
  0
VERTEX
  8
LAYER-1
 10
2.051965
 20
0.142768
 30
0.000000
  0
VERTEX
  8
LAYER-1
 10
2.065852
 20
0.117595
 30
0.000000
  0
SEQEND
  8
LAYER-1
  0
POLYLINE
  8
LAYER-1
 66
  1
 70
  1
 62
  0
 10
1.816889
 20
0.110118
 30
0.000000
  0
VERTEX
  8
LAYER-1
 10
1.816889
 20
0.110118
 30
0.000000
  0
VERTEX
  8
LAYER-1
 10
1.794318
 20
0.123139
 30
0.000000
  0
VERTEX
  8
LAYER-1
 10
1.815151
 20
0.092757
 30
0.000000
  0
SEQEND
  8
LAYER-1
  0
POLYLINE
  8
LAYER-1
 66
  1
 70
  1
 62
  0
 10
1.846745
 20
0.032544
 30
0.000000
  0
VERTEX
  8
LAYER-1
 10
1.846745
 20
0.032544
 30
0.000000
  0
VERTEX
  8
LAYER-1
 10
1.871919
 20
0.016051
 30
0.000000
  0
VERTEX
  8
LAYER-1
 10
1.879731
 20
0.030808
 30
0.000000
  0
SEQEND
  8
LAYER-1
  0
POLYLINE
  8
LAYER-1
 66
  1
 70
  0
 62
  0
 10
2.109255
 20
0.199190
 30
0.000000
  0
VERTEX
  8
LAYER-1
 10
2.109255
 20
0.199190
 30
0.000000
  0
VERTEX
  8
LAYER-1
 10
2.109255
 20
0.203530
 30
0.000000
  0
VERTEX
  8
LAYER-1
 10
2.104915
 20
0.207002
 30
0.000000
  0
VERTEX
  8
LAYER-1
 10
2.099707
 20
0.207870
 30
0.000000
  0
VERTEX
  8
LAYER-1
 10
2.095366
 20
0.206134
 30
0.000000
  0
VERTEX
  8
LAYER-1
 10
2.093630
 20
0.201793
 30
0.000000
  0
VERTEX
  8
LAYER-1
 10
2.093630
 20
0.197454
 30
0.000000
  0
VERTEX
  8
LAYER-1
 10
2.097102
 20
0.193114
 30
0.000000
  0
VERTEX
  8
LAYER-1
 10
2.101443
 20
0.193114
 30
0.000000
  0
VERTEX
  8
LAYER-1
 10
2.105783
 20
0.193981
 30
0.000000
  0
VERTEX
  8
LAYER-1
 10
2.108388
 20
0.198322
 30
0.000000
  0
SEQEND
  8
LAYER-1
  0
POLYLINE
  8
LAYER-1
 66
  1
 70
  1
 62
  0
 10
2.041548
 20
0.161865
 30
0.000000
  0
VERTEX
  8
LAYER-1
 10
2.041548
 20
0.161865
 30
0.000000
  0
VERTEX
  8
LAYER-1
 10
2.018977
 20
0.174885
 30
0.000000
  0
VERTEX
  8
LAYER-1
 10
2.039810
 20
0.144504
 30
0.000000
  0
SEQEND
  8
LAYER-1
  0
POLYLINE
  8
LAYER-1
 66
  1
 70
  1
 62
  0
 10
0.810310
 20
0.198488
 30
0.000000
  0
VERTEX
  8
LAYER-1
 10
0.810310
 20
0.198488
 30
0.000000
  0
VERTEX
  8
LAYER-1
 10
0.790946
 20
0.211175
 30
0.000000
  0
VERTEX
  8
LAYER-1
 10
0.784935
 20
0.199824
 30
0.000000
  0
SEQEND
  8
LAYER-1
  0
POLYLINE
  8
LAYER-1
 66
  1
 70
  0
 62
  0
 10
1.821227
 20
0.170014
 30
0.000000
  0
VERTEX
  8
LAYER-1
 10
1.821227
 20
0.170014
 30
0.000000
  0
VERTEX
  8
LAYER-1
 10
1.821227
 20
0.174353
 30
0.000000
  0
VERTEX
  8
LAYER-1
 10
1.816887
 20
0.177826
 30
0.000000
  0
VERTEX
  8
LAYER-1
 10
1.811679
 20
0.178693
 30
0.000000
  0
VERTEX
  8
LAYER-1
 10
1.807338
 20
0.176958
 30
0.000000
  0
VERTEX
  8
LAYER-1
 10
1.805602
 20
0.172618
 30
0.000000
  0
VERTEX
  8
LAYER-1
 10
1.805602
 20
0.168277
 30
0.000000
  0
VERTEX
  8
LAYER-1
 10
1.809074
 20
0.163937
 30
0.000000
  0
VERTEX
  8
LAYER-1
 10
1.813415
 20
0.163937
 30
0.000000
  0
VERTEX
  8
LAYER-1
 10
1.817755
 20
0.164805
 30
0.000000
  0
VERTEX
  8
LAYER-1
 10
1.820360
 20
0.169146
 30
0.000000
  0
SEQEND
  8
LAYER-1
  0
POLYLINE
  8
LAYER-1
 66
  1
 70
  0
 62
  0
 10
0.787207
 20
0.131482
 30
0.000000
  0
VERTEX
  8
LAYER-1
 10
0.787207
 20
0.131482
 30
0.000000
  0
VERTEX
  8
LAYER-1
 10
0.787207
 20
0.135823
 30
0.000000
  0
VERTEX
  8
LAYER-1
 10
0.782866
 20
0.139295
 30
0.000000
  0
VERTEX
  8
LAYER-1
 10
0.777658
 20
0.140162
 30
0.000000
  0
VERTEX
  8
LAYER-1
 10
0.773318
 20
0.138427
 30
0.000000
  0
VERTEX
  8
LAYER-1
 10
0.771582
 20
0.134086
 30
0.000000
  0
VERTEX
  8
LAYER-1
 10
0.771582
 20
0.129746
 30
0.000000
  0
VERTEX
  8
LAYER-1
 10
0.775054
 20
0.125405
 30
0.000000
  0
VERTEX
  8
LAYER-1
 10
0.779394
 20
0.125405
 30
0.000000
  0
VERTEX
  8
LAYER-1
 10
0.783735
 20
0.126273
 30
0.000000
  0
VERTEX
  8
LAYER-1
 10
0.786340
 20
0.130614
 30
0.000000
  0
SEQEND
  8
LAYER-1
  0
POLYLINE
  8
LAYER-1
 66
  1
 70
  0
 62
  0
 10
1.909602
 20
0.199187
 30
0.000000
  0
VERTEX
  8
LAYER-1
 10
1.909602
 20
0.199187
 30
0.000000
  0
VERTEX
  8
LAYER-1
 10
1.909602
 20
0.203528
 30
0.000000
  0
VERTEX
  8
LAYER-1
 10
1.905261
 20
0.206999
 30
0.000000
  0
VERTEX
  8
LAYER-1
 10
1.900054
 20
0.207867
 30
0.000000
  0
VERTEX
  8
LAYER-1
 10
1.895713
 20
0.206132
 30
0.000000
  0
VERTEX
  8
LAYER-1
 10
1.893977
 20
0.201791
 30
0.000000
  0
VERTEX
  8
LAYER-1
 10
1.893977
 20
0.197451
 30
0.000000
  0
VERTEX
  8
LAYER-1
 10
1.897449
 20
0.193110
 30
0.000000
  0
VERTEX
  8
LAYER-1
 10
1.901790
 20
0.193110
 30
0.000000
  0
VERTEX
  8
LAYER-1
 10
1.906130
 20
0.193978
 30
0.000000
  0
VERTEX
  8
LAYER-1
 10
1.908735
 20
0.198319
 30
0.000000
  0
SEQEND
  8
LAYER-1
  0
POLYLINE
  8
LAYER-1
 66
  1
 70
  1
 62
  0
 10
1.468890
 20
0.063722
 30
0.000000
  0
VERTEX
  8
LAYER-1
 10
1.468890
 20
0.063722
 30
0.000000
  0
VERTEX
  8
LAYER-1
 10
1.442849
 20
0.056778
 30
0.000000
  0
VERTEX
  8
LAYER-1
 10
1.456737
 20
0.031604
 30
0.000000
  0
SEQEND
  8
LAYER-1
  0
POLYLINE
  8
LAYER-1
 66
  1
 70
  1
 62
  0
 10
2.315418
 20
0.127143
 30
0.000000
  0
VERTEX
  8
LAYER-1
 10
2.315418
 20
0.127143
 30
0.000000
  0
VERTEX
  8
LAYER-1
 10
2.337987
 20
0.114122
 30
0.000000
  0
VERTEX
  8
LAYER-1
 10
2.317155
 20
0.144504
 30
0.000000
  0
SEQEND
  8
LAYER-1
  0
POLYLINE
  8
LAYER-1
 66
  1
 70
  1
 62
  0
 10
0.924792
 20
0.144070
 30
0.000000
  0
VERTEX
  8
LAYER-1
 10
0.924792
 20
0.144070
 30
0.000000
  0
VERTEX
  8
LAYER-1
 10
0.949967
 20
0.127577
 30
0.000000
  0
VERTEX
  8
LAYER-1
 10
0.957779
 20
0.142334
 30
0.000000
  0
SEQEND
  8
LAYER-1
  0
POLYLINE
  8
LAYER-1
 66
  1
 70
  0
 62
  0
 10
2.243369
 20
0.174015
 30
0.000000
  0
VERTEX
  8
LAYER-1
 10
2.243369
 20
0.174015
 30
0.000000
  0
VERTEX
  8
LAYER-1
 10
2.243369
 20
0.169674
 30
0.000000
  0
VERTEX
  8
LAYER-1
 10
2.247710
 20
0.166203
 30
0.000000
  0
VERTEX
  8
LAYER-1
 10
2.252918
 20
0.165335
 30
0.000000
  0
VERTEX
  8
LAYER-1
 10
2.257258
 20
0.167071
 30
0.000000
  0
VERTEX
  8
LAYER-1
 10
2.258994
 20
0.171411
 30
0.000000
  0
VERTEX
  8
LAYER-1
 10
2.258994
 20
0.175751
 30
0.000000
  0
VERTEX
  8
LAYER-1
 10
2.255522
 20
0.180091
 30
0.000000
  0
VERTEX
  8
LAYER-1
 10
2.251182
 20
0.180091
 30
0.000000
  0
VERTEX
  8
LAYER-1
 10
2.246841
 20
0.179223
 30
0.000000
  0
VERTEX
  8
LAYER-1
 10
2.244237
 20
0.174883
 30
0.000000
  0
SEQEND
  8
LAYER-1
  0
POLYLINE
  8
LAYER-1
 66
  1
 70
  1
 62
  0
 10
2.193022
 20
0.185301
 30
0.000000
  0
VERTEX
  8
LAYER-1
 10
2.193022
 20
0.185301
 30
0.000000
  0
VERTEX
  8
LAYER-1
 10
2.215591
 20
0.172280
 30
0.000000
  0
VERTEX
  8
LAYER-1
 10
2.194758
 20
0.202661
 30
0.000000
  0
SEQEND
  8
LAYER-1
  0
POLYLINE
  8
LAYER-1
 66
  1
 70
  1
 62
  0
 10
0.923391
 20
0.091820
 30
0.000000
  0
VERTEX
  8
LAYER-1
 10
0.923391
 20
0.091820
 30
0.000000
  0
VERTEX
  8
LAYER-1
 10
0.942756
 20
0.079133
 30
0.000000
  0
VERTEX
  8
LAYER-1
 10
0.948766
 20
0.090484
 30
0.000000
  0
SEQEND
  8
LAYER-1
  0
POLYLINE
  8
LAYER-1
 66
  1
 70
  0
 62
  0
 10
1.649532
 20
0.044105
 30
0.000000
  0
VERTEX
  8
LAYER-1
 10
1.649532
 20
0.044105
 30
0.000000
  0
VERTEX
  8
LAYER-1
 10
1.649532
 20
0.048444
 30
0.000000
  0
VERTEX
  8
LAYER-1
 10
1.645192
 20
0.051917
 30
0.000000
  0
VERTEX
  8
LAYER-1
 10
1.639984
 20
0.052785
 30
0.000000
  0
VERTEX
  8
LAYER-1
 10
1.635643
 20
0.051049
 30
0.000000
  0
VERTEX
  8
LAYER-1
 10
1.633907
 20
0.046709
 30
0.000000
  0
VERTEX
  8
LAYER-1
 10
1.633907
 20
0.042368
 30
0.000000
  0
VERTEX
  8
LAYER-1
 10
1.637379
 20
0.038028
 30
0.000000
  0
VERTEX
  8
LAYER-1
 10
1.641720
 20
0.038028
 30
0.000000
  0
VERTEX
  8
LAYER-1
 10
1.646061
 20
0.038896
 30
0.000000
  0
VERTEX
  8
LAYER-1
 10
1.648664
 20
0.043237
 30
0.000000
  0
SEQEND
  8
LAYER-1
  0
POLYLINE
  8
LAYER-1
 66
  1
 70
  0
 62
  0
 10
2.455175
 20
0.127143
 30
0.000000
  0
VERTEX
  8
LAYER-1
 10
2.455175
 20
0.127143
 30
0.000000
  0
VERTEX
  8
LAYER-1
 10
2.455175
 20
0.122803
 30
0.000000
  0
VERTEX
  8
LAYER-1
 10
2.459515
 20
0.119331
 30
0.000000
  0
VERTEX
  8
LAYER-1
 10
2.464723
 20
0.118462
 30
0.000000
  0
VERTEX
  8
LAYER-1
 10
2.469064
 20
0.120199
 30
0.000000
  0
VERTEX
  8
LAYER-1
 10
2.470800
 20
0.124539
 30
0.000000
  0
VERTEX
  8
LAYER-1
 10
2.470800
 20
0.128879
 30
0.000000
  0
VERTEX
  8
LAYER-1
 10
2.467328
 20
0.133220
 30
0.000000
  0
VERTEX
  8
LAYER-1
 10
2.462987
 20
0.133220
 30
0.000000
  0
VERTEX
  8
LAYER-1
 10
2.458647
 20
0.132351
 30
0.000000
  0
VERTEX
  8
LAYER-1
 10
2.456043
 20
0.128011
 30
0.000000
  0
SEQEND
  8
LAYER-1
  0
POLYLINE
  8
LAYER-1
 66
  1
 70
  0
 62
  0
 10
2.289376
 20
0.181830
 30
0.000000
  0
VERTEX
  8
LAYER-1
 10
2.289376
 20
0.181830
 30
0.000000
  0
VERTEX
  8
LAYER-1
 10
2.289376
 20
0.177489
 30
0.000000
  0
VERTEX
  8
LAYER-1
 10
2.293717
 20
0.174017
 30
0.000000
  0
VERTEX
  8
LAYER-1
 10
2.298925
 20
0.173150
 30
0.000000
  0
VERTEX
  8
LAYER-1
 10
2.303265
 20
0.174885
 30
0.000000
  0
VERTEX
  8
LAYER-1
 10
2.305001
 20
0.179225
 30
0.000000
  0
VERTEX
  8
LAYER-1
 10
2.305001
 20
0.183566
 30
0.000000
  0
VERTEX
  8
LAYER-1
 10
2.301530
 20
0.187906
 30
0.000000
  0
VERTEX
  8
LAYER-1
 10
2.297189
 20
0.187906
 30
0.000000
  0
VERTEX
  8
LAYER-1
 10
2.292848
 20
0.187037
 30
0.000000
  0
VERTEX
  8
LAYER-1
 10
2.290243
 20
0.182698
 30
0.000000
  0
SEQEND
  8
LAYER-1
  0
POLYLINE
  8
LAYER-1
 66
  1
 70
  1
 62
  0
 10
2.051530
 20
0.098931
 30
0.000000
  0
VERTEX
  8
LAYER-1
 10
2.051530
 20
0.098931
 30
0.000000
  0
VERTEX
  8
LAYER-1
 10
2.058474
 20
0.072891
 30
0.000000
  0
VERTEX
  8
LAYER-1
 10
2.083647
 20
0.086778
 30
0.000000
  0
SEQEND
  8
LAYER-1
  0
POLYLINE
  8
LAYER-1
 66
  1
 70
  1
 62
  0
 10
2.156044
 20
0.086174
 30
0.000000
  0
VERTEX
  8
LAYER-1
 10
2.156044
 20
0.086174
 30
0.000000
  0
VERTEX
  8
LAYER-1
 10
2.143023
 20
0.063603
 30
0.000000
  0
VERTEX
  8
LAYER-1
 10
2.173405
 20
0.084436
 30
0.000000
  0
SEQEND
  8
LAYER-1
  0
POLYLINE
  8
LAYER-1
 66
  1
 70
  1
 62
  0
 10
1.872008
 20
0.116629
 30
0.000000
  0
VERTEX
  8
LAYER-1
 10
1.872008
 20
0.116629
 30
0.000000
  0
VERTEX
  8
LAYER-1
 10
1.855515
 20
0.091455
 30
0.000000
  0
VERTEX
  8
LAYER-1
 10
1.870272
 20
0.083643
 30
0.000000
  0
SEQEND
  8
LAYER-1
  0
POLYLINE
  8
LAYER-1
 66
  1
 70
  0
 62
  0
 10
2.002051
 20
0.130181
 30
0.000000
  0
VERTEX
  8
LAYER-1
 10
2.002051
 20
0.130181
 30
0.000000
  0
VERTEX
  8
LAYER-1
 10
1.997710
 20
0.130181
 30
0.000000
  0
VERTEX
  8
LAYER-1
 10
1.994238
 20
0.125841
 30
0.000000
  0
VERTEX
  8
LAYER-1
 10
1.993370
 20
0.120633
 30
0.000000
  0
VERTEX
  8
LAYER-1
 10
1.995106
 20
0.116292
 30
0.000000
  0
VERTEX
  8
LAYER-1
 10
1.999447
 20
0.114556
 30
0.000000
  0
VERTEX
  8
LAYER-1
 10
2.003787
 20
0.114556
 30
0.000000
  0
VERTEX
  8
LAYER-1
 10
2.008127
 20
0.118028
 30
0.000000
  0
VERTEX
  8
LAYER-1
 10
2.008127
 20
0.122369
 30
0.000000
  0
VERTEX
  8
LAYER-1
 10
2.007259
 20
0.126710
 30
0.000000
  0
VERTEX
  8
LAYER-1
 10
2.002919
 20
0.129315
 30
0.000000
  0
SEQEND
  8
LAYER-1
  0
POLYLINE
  8
LAYER-1
 66
  1
 70
  1
 62
  0
 10
0.859690
 20
0.206568
 30
0.000000
  0
VERTEX
  8
LAYER-1
 10
0.859690
 20
0.206568
 30
0.000000
  0
VERTEX
  8
LAYER-1
 10
0.846669
 20
0.183998
 30
0.000000
  0
VERTEX
  8
LAYER-1
 10
0.877051
 20
0.204831
 30
0.000000
  0
SEQEND
  8
LAYER-1
  0
POLYLINE
  8
LAYER-1
 66
  1
 70
  1
 62
  0
 10
1.857085
 20
0.149278
 30
0.000000
  0
VERTEX
  8
LAYER-1
 10
1.857085
 20
0.149278
 30
0.000000
  0
VERTEX
  8
LAYER-1
 10
1.844398
 20
0.129914
 30
0.000000
  0
VERTEX
  8
LAYER-1
 10
1.855749
 20
0.123903
 30
0.000000
  0
SEQEND
  8
LAYER-1
  0
POLYLINE
  8
LAYER-1
 66
  1
 70
  0
 62
  0
 10
2.153960
 20
0.131917
 30
0.000000
  0
VERTEX
  8
LAYER-1
 10
2.153960
 20
0.131917
 30
0.000000
  0
VERTEX
  8
LAYER-1
 10
2.149620
 20
0.131917
 30
0.000000
  0
VERTEX
  8
LAYER-1
 10
2.146147
 20
0.127577
 30
0.000000
  0
VERTEX
  8
LAYER-1
 10
2.145280
 20
0.122369
 30
0.000000
  0
VERTEX
  8
LAYER-1
 10
2.147015
 20
0.118028
 30
0.000000
  0
VERTEX
  8
LAYER-1
 10
2.151356
 20
0.116292
 30
0.000000
  0
VERTEX
  8
LAYER-1
 10
2.155697
 20
0.116292
 30
0.000000
  0
VERTEX
  8
LAYER-1
 10
2.160037
 20
0.119765
 30
0.000000
  0
VERTEX
  8
LAYER-1
 10
2.160037
 20
0.124105
 30
0.000000
  0
VERTEX
  8
LAYER-1
 10
2.159169
 20
0.128446
 30
0.000000
  0
VERTEX
  8
LAYER-1
 10
2.154828
 20
0.131050
 30
0.000000
  0
SEQEND
  8
LAYER-1
  0
POLYLINE
  8
LAYER-1
 66
  1
 70
  0
 62
  0
 10
2.213856
 20
0.137125
 30
0.000000
  0
VERTEX
  8
LAYER-1
 10
2.213856
 20
0.137125
 30
0.000000
  0
VERTEX
  8
LAYER-1
 10
2.209515
 20
0.137125
 30
0.000000
  0
VERTEX
  8
LAYER-1
 10
2.206044
 20
0.132785
 30
0.000000
  0
VERTEX
  8
LAYER-1
 10
2.205176
 20
0.127577
 30
0.000000
  0
VERTEX
  8
LAYER-1
 10
2.206912
 20
0.123236
 30
0.000000
  0
VERTEX
  8
LAYER-1
 10
2.211252
 20
0.121500
 30
0.000000
  0
VERTEX
  8
LAYER-1
 10
2.215592
 20
0.121500
 30
0.000000
  0
VERTEX
  8
LAYER-1
 10
2.219933
 20
0.124972
 30
0.000000
  0
VERTEX
  8
LAYER-1
 10
2.219933
 20
0.129312
 30
0.000000
  0
VERTEX
  8
LAYER-1
 10
2.219065
 20
0.133653
 30
0.000000
  0
VERTEX
  8
LAYER-1
 10
2.214724
 20
0.136258
 30
0.000000
  0
SEQEND
  8
LAYER-1
  0
POLYLINE
  8
LAYER-1
 66
  1
 70
  0
 62
  0
 10
0.870106
 20
0.124104
 30
0.000000
  0
VERTEX
  8
LAYER-1
 10
0.870106
 20
0.124104
 30
0.000000
  0
VERTEX
  8
LAYER-1
 10
0.865765
 20
0.124104
 30
0.000000
  0
VERTEX
  8
LAYER-1
 10
0.862294
 20
0.119764
 30
0.000000
  0
VERTEX
  8
LAYER-1
 10
0.861426
 20
0.114555
 30
0.000000
  0
VERTEX
  8
LAYER-1
 10
0.863162
 20
0.110215
 30
0.000000
  0
VERTEX
  8
LAYER-1
 10
0.867502
 20
0.108479
 30
0.000000
  0
VERTEX
  8
LAYER-1
 10
0.871842
 20
0.108479
 30
0.000000
  0
VERTEX
  8
LAYER-1
 10
0.876183
 20
0.111951
 30
0.000000
  0
VERTEX
  8
LAYER-1
 10
0.876183
 20
0.116291
 30
0.000000
  0
VERTEX
  8
LAYER-1
 10
0.875315
 20
0.120633
 30
0.000000
  0
VERTEX
  8
LAYER-1
 10
0.870974
 20
0.123237
 30
0.000000
  0
SEQEND
  8
LAYER-1
  0
POLYLINE
  8
LAYER-1
 66
  1
 70
  1
 62
  0
 10
2.521147
 20
0.164035
 30
0.000000
  0
VERTEX
  8
LAYER-1
 10
2.521147
 20
0.164035
 30
0.000000
  0
VERTEX
  8
LAYER-1
 10
2.528092
 20
0.137993
 30
0.000000
  0
VERTEX
  8
LAYER-1
 10
2.553265
 20
0.151881
 30
0.000000
  0
SEQEND
  8
LAYER-1
  0
POLYLINE
  8
LAYER-1
 66
  1
 70
  1
 62
  0
 10
2.683475
 20
0.192680
 30
0.000000
  0
VERTEX
  8
LAYER-1
 10
2.683475
 20
0.192680
 30
0.000000
  0
VERTEX
  8
LAYER-1
 10
2.670453
 20
0.170111
 30
0.000000
  0
VERTEX
  8
LAYER-1
 10
2.700836
 20
0.190943
 30
0.000000
  0
SEQEND
  8
LAYER-1
  0
POLYLINE
  8
LAYER-1
 66
  1
 70
  1
 62
  0
 10
1.359689
 20
0.143635
 30
0.000000
  0
VERTEX
  8
LAYER-1
 10
1.359689
 20
0.143635
 30
0.000000
  0
VERTEX
  8
LAYER-1
 10
1.343196
 20
0.118461
 30
0.000000
  0
VERTEX
  8
LAYER-1
 10
1.357953
 20
0.110648
 30
0.000000
  0
SEQEND
  8
LAYER-1
  0
POLYLINE
  8
LAYER-1
 66
  1
 70
  0
 62
  0
 10
2.471669
 20
0.195284
 30
0.000000
  0
VERTEX
  8
LAYER-1
 10
2.471669
 20
0.195284
 30
0.000000
  0
VERTEX
  8
LAYER-1
 10
2.467328
 20
0.195284
 30
0.000000
  0
VERTEX
  8
LAYER-1
 10
2.463856
 20
0.190943
 30
0.000000
  0
VERTEX
  8
LAYER-1
 10
2.462987
 20
0.185735
 30
0.000000
  0
VERTEX
  8
LAYER-1
 10
2.464724
 20
0.181395
 30
0.000000
  0
VERTEX
  8
LAYER-1
 10
2.469064
 20
0.179659
 30
0.000000
  0
VERTEX
  8
LAYER-1
 10
2.473405
 20
0.179659
 30
0.000000
  0
VERTEX
  8
LAYER-1
 10
2.477745
 20
0.183130
 30
0.000000
  0
VERTEX
  8
LAYER-1
 10
2.477745
 20
0.187471
 30
0.000000
  0
VERTEX
  8
LAYER-1
 10
2.476876
 20
0.191811
 30
0.000000
  0
VERTEX
  8
LAYER-1
 10
2.472537
 20
0.194416
 30
0.000000
  0
SEQEND
  8
LAYER-1
  0
POLYLINE
  8
LAYER-1
 66
  1
 70
  1
 62
  0
 10
2.508995
 20
0.127576
 30
0.000000
  0
VERTEX
  8
LAYER-1
 10
2.508995
 20
0.127576
 30
0.000000
  0
VERTEX
  8
LAYER-1
 10
2.495974
 20
0.105006
 30
0.000000
  0
VERTEX
  8
LAYER-1
 10
2.526356
 20
0.125839
 30
0.000000
  0
SEQEND
  8
LAYER-1
  0
POLYLINE
  8
LAYER-1
 66
  1
 70
  1
 62
  0
 10
1.067922
 20
0.217946
 30
0.000000
  0
VERTEX
  8
LAYER-1
 10
1.067922
 20
0.217946
 30
0.000000
  0
VERTEX
  8
LAYER-1
 10
1.087287
 20
0.205260
 30
0.000000
  0
VERTEX
  8
LAYER-1
 10
1.093297
 20
0.216610
 30
0.000000
  0
SEQEND
  8
LAYER-1
  0
POLYLINE
  8
LAYER-1
 66
  1
 70
  0
 62
  0
 10
2.623578
 20
0.197020
 30
0.000000
  0
VERTEX
  8
LAYER-1
 10
2.623578
 20
0.197020
 30
0.000000
  0
VERTEX
  8
LAYER-1
 10
2.619237
 20
0.197020
 30
0.000000
  0
VERTEX
  8
LAYER-1
 10
2.615765
 20
0.192679
 30
0.000000
  0
VERTEX
  8
LAYER-1
 10
2.614897
 20
0.187471
 30
0.000000
  0
VERTEX
  8
LAYER-1
 10
2.616633
 20
0.183130
 30
0.000000
  0
VERTEX
  8
LAYER-1
 10
2.620974
 20
0.181395
 30
0.000000
  0
VERTEX
  8
LAYER-1
 10
2.625314
 20
0.181395
 30
0.000000
  0
VERTEX
  8
LAYER-1
 10
2.629655
 20
0.184866
 30
0.000000
  0
VERTEX
  8
LAYER-1
 10
2.629655
 20
0.189207
 30
0.000000
  0
VERTEX
  8
LAYER-1
 10
2.628787
 20
0.193548
 30
0.000000
  0
VERTEX
  8
LAYER-1
 10
2.624446
 20
0.196152
 30
0.000000
  0
SEQEND
  8
LAYER-1
  0
POLYLINE
  8
LAYER-1
 66
  1
 70
  0
 62
  0
 10
1.411773
 20
0.137559
 30
0.000000
  0
VERTEX
  8
LAYER-1
 10
1.411773
 20
0.137559
 30
0.000000
  0
VERTEX
  8
LAYER-1
 10
1.407432
 20
0.137559
 30
0.000000
  0
VERTEX
  8
LAYER-1
 10
1.403961
 20
0.133218
 30
0.000000
  0
VERTEX
  8
LAYER-1
 10
1.403092
 20
0.128010
 30
0.000000
  0
VERTEX
  8
LAYER-1
 10
1.404828
 20
0.123670
 30
0.000000
  0
VERTEX
  8
LAYER-1
 10
1.409168
 20
0.121934
 30
0.000000
  0
VERTEX
  8
LAYER-1
 10
1.413509
 20
0.121934
 30
0.000000
  0
VERTEX
  8
LAYER-1
 10
1.417849
 20
0.125405
 30
0.000000
  0
VERTEX
  8
LAYER-1
 10
1.417849
 20
0.129746
 30
0.000000
  0
VERTEX
  8
LAYER-1
 10
1.416981
 20
0.134087
 30
0.000000
  0
VERTEX
  8
LAYER-1
 10
1.412641
 20
0.136691
 30
0.000000
  0
SEQEND
  8
LAYER-1
  0
POLYLINE
  8
LAYER-1
 66
  1
 70
  0
 62
  0
 10
0.995106
 20
0.114121
 30
0.000000
  0
VERTEX
  8
LAYER-1
 10
0.995106
 20
0.114121
 30
0.000000
  0
VERTEX
  8
LAYER-1
 10
0.990765
 20
0.114121
 30
0.000000
  0
VERTEX
  8
LAYER-1
 10
0.987293
 20
0.109780
 30
0.000000
  0
VERTEX
  8
LAYER-1
 10
0.986425
 20
0.104573
 30
0.000000
  0
VERTEX
  8
LAYER-1
 10
0.988161
 20
0.100232
 30
0.000000
  0
VERTEX
  8
LAYER-1
 10
0.992501
 20
0.098496
 30
0.000000
  0
VERTEX
  8
LAYER-1
 10
0.996842
 20
0.098496
 30
0.000000
  0
VERTEX
  8
LAYER-1
 10
1.001181
 20
0.101968
 30
0.000000
  0
VERTEX
  8
LAYER-1
 10
1.001181
 20
0.106309
 30
0.000000
  0
VERTEX
  8
LAYER-1
 10
1.000313
 20
0.110649
 30
0.000000
  0
VERTEX
  8
LAYER-1
 10
0.995974
 20
0.113253
 30
0.000000
  0
SEQEND
  8
LAYER-1
  0
POLYLINE
  8
LAYER-1
 66
  1
 70
  1
 62
  0
 10
2.962988
 20
0.188339
 30
0.000000
  0
VERTEX
  8
LAYER-1
 10
2.962988
 20
0.188339
 30
0.000000
  0
VERTEX
  8
LAYER-1
 10
2.969932
 20
0.162299
 30
0.000000
  0
VERTEX
  8
LAYER-1
 10
2.995106
 20
0.176186
 30
0.000000
  0
SEQEND
  8
LAYER-1
  0
POLYLINE
  8
LAYER-1
 66
  1
 70
  1
 62
  0
 10
3.125315
 20
0.216986
 30
0.000000
  0
VERTEX
  8
LAYER-1
 10
3.125315
 20
0.216986
 30
0.000000
  0
VERTEX
  8
LAYER-1
 10
3.112293
 20
0.194416
 30
0.000000
  0
VERTEX
  8
LAYER-1
 10
3.142675
 20
0.215248
 30
0.000000
  0
SEQEND
  8
LAYER-1
  0
POLYLINE
  8
LAYER-1
 66
  1
 70
  1
 62
  0
 10
2.353613
 20
0.152750
 30
0.000000
  0
VERTEX
  8
LAYER-1
 10
2.353613
 20
0.152750
 30
0.000000
  0
VERTEX
  8
LAYER-1
 10
2.378786
 20
0.136256
 30
0.000000
  0
VERTEX
  8
LAYER-1
 10
2.386599
 20
0.151015
 30
0.000000
  0
SEQEND
  8
LAYER-1
  0
POLYLINE
  8
LAYER-1
 66
  1
 70
  0
 62
  0
 10
2.923925
 20
0.209173
 30
0.000000
  0
VERTEX
  8
LAYER-1
 10
2.923925
 20
0.209173
 30
0.000000
  0
VERTEX
  8
LAYER-1
 10
2.919584
 20
0.209173
 30
0.000000
  0
VERTEX
  8
LAYER-1
 10
2.916113
 20
0.204833
 30
0.000000
  0
VERTEX
  8
LAYER-1
 10
2.915245
 20
0.199625
 30
0.000000
  0
VERTEX
  8
LAYER-1
 10
2.916981
 20
0.195285
 30
0.000000
  0
VERTEX
  8
LAYER-1
 10
2.921321
 20
0.193548
 30
0.000000
  0
VERTEX
  8
LAYER-1
 10
2.925661
 20
0.193548
 30
0.000000
  0
VERTEX
  8
LAYER-1
 10
2.930002
 20
0.197021
 30
0.000000
  0
VERTEX
  8
LAYER-1
 10
2.930002
 20
0.201361
 30
0.000000
  0
VERTEX
  8
LAYER-1
 10
2.929134
 20
0.205702
 30
0.000000
  0
VERTEX
  8
LAYER-1
 10
2.924793
 20
0.208306
 30
0.000000
  0
SEQEND
  8
LAYER-1
  0
POLYLINE
  8
LAYER-1
 66
  1
 70
  1
 62
  0
 10
2.939551
 20
0.120633
 30
0.000000
  0
VERTEX
  8
LAYER-1
 10
2.939551
 20
0.120633
 30
0.000000
  0
VERTEX
  8
LAYER-1
 10
2.926530
 20
0.098061
 30
0.000000
  0
VERTEX
  8
LAYER-1
 10
2.956912
 20
0.118895
 30
0.000000
  0
SEQEND
  8
LAYER-1
  0
POLYLINE
  8
LAYER-1
 66
  1
 70
  1
 62
  0
 10
3.034001
 20
0.114219
 30
0.000000
  0
VERTEX
  8
LAYER-1
 10
3.034001
 20
0.114219
 30
0.000000
  0
VERTEX
  8
LAYER-1
 10
3.021315
 20
0.094855
 30
0.000000
  0
VERTEX
  8
LAYER-1
 10
3.032665
 20
0.088844
 30
0.000000
  0
SEQEND
  8
LAYER-1
  0
POLYLINE
  8
LAYER-1
 66
  1
 70
  0
 62
  0
 10
3.065418
 20
0.213514
 30
0.000000
  0
VERTEX
  8
LAYER-1
 10
3.065418
 20
0.213514
 30
0.000000
  0
VERTEX
  8
LAYER-1
 10
3.061078
 20
0.213514
 30
0.000000
  0
VERTEX
  8
LAYER-1
 10
3.057606
 20
0.209173
 30
0.000000
  0
VERTEX
  8
LAYER-1
 10
3.056738
 20
0.203965
 30
0.000000
  0
VERTEX
  8
LAYER-1
 10
3.058474
 20
0.199624
 30
0.000000
  0
VERTEX
  8
LAYER-1
 10
3.062814
 20
0.197889
 30
0.000000
  0
VERTEX
  8
LAYER-1
 10
3.067155
 20
0.197889
 30
0.000000
  0
VERTEX
  8
LAYER-1
 10
3.071495
 20
0.201360
 30
0.000000
  0
VERTEX
  8
LAYER-1
 10
3.071495
 20
0.205701
 30
0.000000
  0
VERTEX
  8
LAYER-1
 10
3.070627
 20
0.210041
 30
0.000000
  0
VERTEX
  8
LAYER-1
 10
3.066286
 20
0.212646
 30
0.000000
  0
SEQEND
  8
LAYER-1
  0
POLYLINE
  8
LAYER-1
 66
  1
 70
  0
 62
  0
 10
2.342328
 20
0.205701
 30
0.000000
  0
VERTEX
  8
LAYER-1
 10
2.342328
 20
0.205701
 30
0.000000
  0
VERTEX
  8
LAYER-1
 10
2.342328
 20
0.201360
 30
0.000000
  0
VERTEX
  8
LAYER-1
 10
2.346669
 20
0.197889
 30
0.000000
  0
VERTEX
  8
LAYER-1
 10
2.351877
 20
0.197020
 30
0.000000
  0
VERTEX
  8
LAYER-1
 10
2.356217
 20
0.198755
 30
0.000000
  0
VERTEX
  8
LAYER-1
 10
2.357953
 20
0.203096
 30
0.000000
  0
VERTEX
  8
LAYER-1
 10
2.357953
 20
0.207436
 30
0.000000
  0
VERTEX
  8
LAYER-1
 10
2.354482
 20
0.211778
 30
0.000000
  0
VERTEX
  8
LAYER-1
 10
2.350141
 20
0.211778
 30
0.000000
  0
VERTEX
  8
LAYER-1
 10
2.345800
 20
0.210909
 30
0.000000
  0
VERTEX
  8
LAYER-1
 10
2.343195
 20
0.206568
 30
0.000000
  0
SEQEND
  8
LAYER-1
  0
POLYLINE
  8
LAYER-1
 66
  1
 70
  0
 62
  0
 10
2.905695
 20
0.121498
 30
0.000000
  0
VERTEX
  8
LAYER-1
 10
2.905695
 20
0.121498
 30
0.000000
  0
VERTEX
  8
LAYER-1
 10
2.901355
 20
0.121498
 30
0.000000
  0
VERTEX
  8
LAYER-1
 10
2.897883
 20
0.117158
 30
0.000000
  0
VERTEX
  8
LAYER-1
 10
2.897015
 20
0.111949
 30
0.000000
  0
VERTEX
  8
LAYER-1
 10
2.898751
 20
0.107609
 30
0.000000
  0
VERTEX
  8
LAYER-1
 10
2.903092
 20
0.105873
 30
0.000000
  0
VERTEX
  8
LAYER-1
 10
2.907431
 20
0.105873
 30
0.000000
  0
VERTEX
  8
LAYER-1
 10
2.911772
 20
0.109345
 30
0.000000
  0
VERTEX
  8
LAYER-1
 10
2.911772
 20
0.113686
 30
0.000000
  0
VERTEX
  8
LAYER-1
 10
2.910904
 20
0.118027
 30
0.000000
  0
VERTEX
  8
LAYER-1
 10
2.906563
 20
0.120631
 30
0.000000
  0
SEQEND
  8
LAYER-1
  0
POLYLINE
  8
LAYER-1
 66
  1
 70
  1
 62
  0
 10
2.772884
 20
0.109781
 30
0.000000
  0
VERTEX
  8
LAYER-1
 10
2.772884
 20
0.109781
 30
0.000000
  0
VERTEX
  8
LAYER-1
 10
2.746842
 20
0.102837
 30
0.000000
  0
VERTEX
  8
LAYER-1
 10
2.760731
 20
0.077664
 30
0.000000
  0
SEQEND
  8
LAYER-1
  0
POLYLINE
  8
LAYER-1
 66
  1
 70
  1
 62
  0
 10
1.396149
 20
0.084173
 30
0.000000
  0
VERTEX
  8
LAYER-1
 10
1.396149
 20
0.084173
 30
0.000000
  0
VERTEX
  8
LAYER-1
 10
1.370974
 20
0.100666
 30
0.000000
  0
VERTEX
  8
LAYER-1
 10
1.363161
 20
0.085910
 30
0.000000
  0
SEQEND
  8
LAYER-1
  0
POLYLINE
  8
LAYER-1
 66
  1
 70
  0
 62
  0
 10
2.804134
 20
0.159260
 30
0.000000
  0
VERTEX
  8
LAYER-1
 10
2.804134
 20
0.159260
 30
0.000000
  0
VERTEX
  8
LAYER-1
 10
2.804134
 20
0.163601
 30
0.000000
  0
VERTEX
  8
LAYER-1
 10
2.799794
 20
0.167073
 30
0.000000
  0
VERTEX
  8
LAYER-1
 10
2.794586
 20
0.167941
 30
0.000000
  0
VERTEX
  8
LAYER-1
 10
2.790245
 20
0.166205
 30
0.000000
  0
VERTEX
  8
LAYER-1
 10
2.788509
 20
0.161864
 30
0.000000
  0
VERTEX
  8
LAYER-1
 10
2.788509
 20
0.157524
 30
0.000000
  0
VERTEX
  8
LAYER-1
 10
2.791981
 20
0.153185
 30
0.000000
  0
VERTEX
  8
LAYER-1
 10
2.796322
 20
0.153185
 30
0.000000
  0
VERTEX
  8
LAYER-1
 10
2.800663
 20
0.154052
 30
0.000000
  0
VERTEX
  8
LAYER-1
 10
2.803265
 20
0.158392
 30
0.000000
  0
SEQEND
  8
LAYER-1
  0
POLYLINE
  8
LAYER-1
 66
  1
 70
  1
 62
  0
 10
2.736425
 20
0.121935
 30
0.000000
  0
VERTEX
  8
LAYER-1
 10
2.736425
 20
0.121935
 30
0.000000
  0
VERTEX
  8
LAYER-1
 10
2.713857
 20
0.134955
 30
0.000000
  0
VERTEX
  8
LAYER-1
 10
2.734689
 20
0.104573
 30
0.000000
  0
SEQEND
  8
LAYER-1
  0
POLYLINE
  8
LAYER-1
 66
  1
 70
  1
 62
  0
 10
1.473940
 20
0.103437
 30
0.000000
  0
VERTEX
  8
LAYER-1
 10
1.473940
 20
0.103437
 30
0.000000
  0
VERTEX
  8
LAYER-1
 10
1.454574
 20
0.116124
 30
0.000000
  0
VERTEX
  8
LAYER-1
 10
1.448564
 20
0.104772
 30
0.000000
  0
SEQEND
  8
LAYER-1
  0
POLYLINE
  8
LAYER-1
 66
  1
 70
  0
 62
  0
 10
1.534169
 20
0.091986
 30
0.000000
  0
VERTEX
  8
LAYER-1
 10
1.534169
 20
0.091986
 30
0.000000
  0
VERTEX
  8
LAYER-1
 10
1.534169
 20
0.096326
 30
0.000000
  0
VERTEX
  8
LAYER-1
 10
1.529828
 20
0.099798
 30
0.000000
  0
VERTEX
  8
LAYER-1
 10
1.524621
 20
0.100666
 30
0.000000
  0
VERTEX
  8
LAYER-1
 10
1.520280
 20
0.098930
 30
0.000000
  0
VERTEX
  8
LAYER-1
 10
1.518544
 20
0.094590
 30
0.000000
  0
VERTEX
  8
LAYER-1
 10
1.518544
 20
0.090249
 30
0.000000
  0
VERTEX
  8
LAYER-1
 10
1.522016
 20
0.085910
 30
0.000000
  0
VERTEX
  8
LAYER-1
 10
1.526357
 20
0.085910
 30
0.000000
  0
VERTEX
  8
LAYER-1
 10
1.530697
 20
0.086778
 30
0.000000
  0
VERTEX
  8
LAYER-1
 10
1.533300
 20
0.091118
 30
0.000000
  0
SEQEND
  8
LAYER-1
  0
POLYLINE
  8
LAYER-1
 66
  1
 70
  0
 62
  0
 10
2.653961
 20
0.111517
 30
0.000000
  0
VERTEX
  8
LAYER-1
 10
2.653961
 20
0.111517
 30
0.000000
  0
VERTEX
  8
LAYER-1
 10
2.653961
 20
0.115858
 30
0.000000
  0
VERTEX
  8
LAYER-1
 10
2.649620
 20
0.119330
 30
0.000000
  0
VERTEX
  8
LAYER-1
 10
2.644413
 20
0.120198
 30
0.000000
  0
VERTEX
  8
LAYER-1
 10
2.640072
 20
0.118462
 30
0.000000
  0
VERTEX
  8
LAYER-1
 10
2.638336
 20
0.114122
 30
0.000000
  0
VERTEX
  8
LAYER-1
 10
2.638336
 20
0.109781
 30
0.000000
  0
VERTEX
  8
LAYER-1
 10
2.641808
 20
0.105441
 30
0.000000
  0
VERTEX
  8
LAYER-1
 10
2.646148
 20
0.105441
 30
0.000000
  0
VERTEX
  8
LAYER-1
 10
2.650489
 20
0.106310
 30
0.000000
  0
VERTEX
  8
LAYER-1
 10
2.653092
 20
0.110649
 30
0.000000
  0
SEQEND
  8
LAYER-1
  0
POLYLINE
  8
LAYER-1
 66
  1
 70
  1
 62
  0
 10
2.846668
 20
0.112821
 30
0.000000
  0
VERTEX
  8
LAYER-1
 10
2.846668
 20
0.112821
 30
0.000000
  0
VERTEX
  8
LAYER-1
 10
2.839724
 20
0.138861
 30
0.000000
  0
VERTEX
  8
LAYER-1
 10
2.814550
 20
0.124974
 30
0.000000
  0
SEQEND
  8
LAYER-1
  0
POLYLINE
  8
LAYER-1
 66
  1
 70
  1
 62
  0
 10
2.293717
 20
0.099798
 30
0.000000
  0
VERTEX
  8
LAYER-1
 10
2.293717
 20
0.099798
 30
0.000000
  0
VERTEX
  8
LAYER-1
 10
2.271147
 20
0.112821
 30
0.000000
  0
VERTEX
  8
LAYER-1
 10
2.291979
 20
0.082437
 30
0.000000
  0
SEQEND
  8
LAYER-1
  0
POLYLINE
  8
LAYER-1
 66
  1
 70
  1
 62
  0
 10
3.071496
 20
0.124105
 30
0.000000
  0
VERTEX
  8
LAYER-1
 10
3.071496
 20
0.124105
 30
0.000000
  0
VERTEX
  8
LAYER-1
 10
3.087989
 20
0.149278
 30
0.000000
  0
VERTEX
  8
LAYER-1
 10
3.073232
 20
0.157091
 30
0.000000
  0
SEQEND
  8
LAYER-1
  0
POLYLINE
  8
LAYER-1
 66
  1
 70
  0
 62
  0
 10
3.206911
 20
0.091984
 30
0.000000
  0
VERTEX
  8
LAYER-1
 10
3.206911
 20
0.091984
 30
0.000000
  0
VERTEX
  8
LAYER-1
 10
3.211252
 20
0.091984
 30
0.000000
  0
VERTEX
  8
LAYER-1
 10
3.214724
 20
0.096324
 30
0.000000
  0
VERTEX
  8
LAYER-1
 10
3.215591
 20
0.101533
 30
0.000000
  0
VERTEX
  8
LAYER-1
 10
3.213856
 20
0.105873
 30
0.000000
  0
VERTEX
  8
LAYER-1
 10
3.209515
 20
0.107609
 30
0.000000
  0
VERTEX
  8
LAYER-1
 10
3.205175
 20
0.107609
 30
0.000000
  0
VERTEX
  8
LAYER-1
 10
3.200834
 20
0.104137
 30
0.000000
  0
VERTEX
  8
LAYER-1
 10
3.200834
 20
0.099797
 30
0.000000
  0
VERTEX
  8
LAYER-1
 10
3.201703
 20
0.095456
 30
0.000000
  0
VERTEX
  8
LAYER-1
 10
3.206043
 20
0.092851
 30
0.000000
  0
SEQEND
  8
LAYER-1
  0
POLYLINE
  8
LAYER-1
 66
  1
 70
  1
 62
  0
 10
2.858820
 20
0.149278
 30
0.000000
  0
VERTEX
  8
LAYER-1
 10
2.858820
 20
0.149278
 30
0.000000
  0
VERTEX
  8
LAYER-1
 10
2.871842
 20
0.171849
 30
0.000000
  0
VERTEX
  8
LAYER-1
 10
2.841459
 20
0.151016
 30
0.000000
  0
SEQEND
  8
LAYER-1
  0
POLYLINE
  8
LAYER-1
 66
  1
 70
  1
 62
  0
 10
3.112460
 20
0.100134
 30
0.000000
  0
VERTEX
  8
LAYER-1
 10
3.112460
 20
0.100134
 30
0.000000
  0
VERTEX
  8
LAYER-1
 10
3.125147
 20
0.119498
 30
0.000000
  0
VERTEX
  8
LAYER-1
 10
3.113797
 20
0.125509
 30
0.000000
  0
SEQEND
  8
LAYER-1
  0
POLYLINE
  8
LAYER-1
 66
  1
 70
  0
 62
  0
 10
2.433473
 20
0.159696
 30
0.000000
  0
VERTEX
  8
LAYER-1
 10
2.433473
 20
0.159696
 30
0.000000
  0
VERTEX
  8
LAYER-1
 10
2.433473
 20
0.164035
 30
0.000000
  0
VERTEX
  8
LAYER-1
 10
2.429132
 20
0.167508
 30
0.000000
  0
VERTEX
  8
LAYER-1
 10
2.423925
 20
0.168375
 30
0.000000
  0
VERTEX
  8
LAYER-1
 10
2.419584
 20
0.166640
 30
0.000000
  0
VERTEX
  8
LAYER-1
 10
2.417848
 20
0.162298
 30
0.000000
  0
VERTEX
  8
LAYER-1
 10
2.417848
 20
0.157958
 30
0.000000
  0
VERTEX
  8
LAYER-1
 10
2.421320
 20
0.153619
 30
0.000000
  0
VERTEX
  8
LAYER-1
 10
2.425660
 20
0.153619
 30
0.000000
  0
VERTEX
  8
LAYER-1
 10
2.430001
 20
0.154486
 30
0.000000
  0
VERTEX
  8
LAYER-1
 10
2.432606
 20
0.158827
 30
0.000000
  0
SEQEND
  8
LAYER-1
  0
POLYLINE
  8
LAYER-1
 66
  1
 70
  0
 62
  0
 10
3.019412
 20
0.130181
 30
0.000000
  0
VERTEX
  8
LAYER-1
 10
3.019412
 20
0.130181
 30
0.000000
  0
VERTEX
  8
LAYER-1
 10
3.023753
 20
0.130181
 30
0.000000
  0
VERTEX
  8
LAYER-1
 10
3.027225
 20
0.134522
 30
0.000000
  0
VERTEX
  8
LAYER-1
 10
3.028092
 20
0.139730
 30
0.000000
  0
VERTEX
  8
LAYER-1
 10
3.026357
 20
0.144071
 30
0.000000
  0
VERTEX
  8
LAYER-1
 10
3.022016
 20
0.145806
 30
0.000000
  0
VERTEX
  8
LAYER-1
 10
3.017676
 20
0.145806
 30
0.000000
  0
VERTEX
  8
LAYER-1
 10
3.013336
 20
0.142335
 30
0.000000
  0
VERTEX
  8
LAYER-1
 10
3.013336
 20
0.137994
 30
0.000000
  0
VERTEX
  8
LAYER-1
 10
3.014203
 20
0.133653
 30
0.000000
  0
VERTEX
  8
LAYER-1
 10
3.018544
 20
0.131048
 30
0.000000
  0
SEQEND
  8
LAYER-1
  0
POLYLINE
  8
LAYER-1
 66
  1
 70
  0
 62
  0
 10
3.183475
 20
0.137994
 30
0.000000
  0
VERTEX
  8
LAYER-1
 10
3.183475
 20
0.137994
 30
0.000000
  0
VERTEX
  8
LAYER-1
 10
3.187815
 20
0.137994
 30
0.000000
  0
VERTEX
  8
LAYER-1
 10
3.191287
 20
0.142335
 30
0.000000
  0
VERTEX
  8
LAYER-1
 10
3.192154
 20
0.147542
 30
0.000000
  0
VERTEX
  8
LAYER-1
 10
3.190419
 20
0.151883
 30
0.000000
  0
VERTEX
  8
LAYER-1
 10
3.186078
 20
0.153619
 30
0.000000
  0
VERTEX
  8
LAYER-1
 10
3.181739
 20
0.153619
 30
0.000000
  0
VERTEX
  8
LAYER-1
 10
3.177398
 20
0.150147
 30
0.000000
  0
VERTEX
  8
LAYER-1
 10
3.177398
 20
0.145806
 30
0.000000
  0
VERTEX
  8
LAYER-1
 10
3.178266
 20
0.141466
 30
0.000000
  0
VERTEX
  8
LAYER-1
 10
3.182607
 20
0.138861
 30
0.000000
  0
SEQEND
  8
LAYER-1
  0
POLYLINE
  8
LAYER-1
 66
  1
 70
  1
 62
  0
 10
3.590591
 20
0.136258
 30
0.000000
  0
VERTEX
  8
LAYER-1
 10
3.590591
 20
0.136258
 30
0.000000
  0
VERTEX
  8
LAYER-1
 10
3.597535
 20
0.110217
 30
0.000000
  0
VERTEX
  8
LAYER-1
 10
3.622709
 20
0.124105
 30
0.000000
  0
SEQEND
  8
LAYER-1
  0
POLYLINE
  8
LAYER-1
 66
  1
 70
  1
 62
  0
 10
3.756824
 20
0.090251
 30
0.000000
  0
VERTEX
  8
LAYER-1
 10
3.756824
 20
0.090251
 30
0.000000
  0
VERTEX
  8
LAYER-1
 10
3.743802
 20
0.067681
 30
0.000000
  0
VERTEX
  8
LAYER-1
 10
3.774185
 20
0.088515
 30
0.000000
  0
SEQEND
  8
LAYER-1
  0
POLYLINE
  8
LAYER-1
 66
  1
 70
  1
 62
  0
 10
3.641805
 20
0.180524
 30
0.000000
  0
VERTEX
  8
LAYER-1
 10
3.641805
 20
0.180524
 30
0.000000
  0
VERTEX
  8
LAYER-1
 10
3.625313
 20
0.155351
 30
0.000000
  0
VERTEX
  8
LAYER-1
 10
3.640069
 20
0.147539
 30
0.000000
  0
SEQEND
  8
LAYER-1
  0
POLYLINE
  8
LAYER-1
 66
  1
 70
  0
 62
  0
 10
3.556736
 20
0.167508
 30
0.000000
  0
VERTEX
  8
LAYER-1
 10
3.556736
 20
0.167508
 30
0.000000
  0
VERTEX
  8
LAYER-1
 10
3.552396
 20
0.167508
 30
0.000000
  0
VERTEX
  8
LAYER-1
 10
3.548924
 20
0.163167
 30
0.000000
  0
VERTEX
  8
LAYER-1
 10
3.548055
 20
0.157960
 30
0.000000
  0
VERTEX
  8
LAYER-1
 10
3.549792
 20
0.153619
 30
0.000000
  0
VERTEX
  8
LAYER-1
 10
3.554132
 20
0.151883
 30
0.000000
  0
VERTEX
  8
LAYER-1
 10
3.558472
 20
0.151883
 30
0.000000
  0
VERTEX
  8
LAYER-1
 10
3.562812
 20
0.155355
 30
0.000000
  0
VERTEX
  8
LAYER-1
 10
3.562812
 20
0.159696
 30
0.000000
  0
VERTEX
  8
LAYER-1
 10
3.561943
 20
0.164036
 30
0.000000
  0
VERTEX
  8
LAYER-1
 10
3.557604
 20
0.166640
 30
0.000000
  0
SEQEND
  8
LAYER-1
  0
POLYLINE
  8
LAYER-1
 66
  1
 70
  1
 62
  0
 10
3.540243
 20
0.107610
 30
0.000000
  0
VERTEX
  8
LAYER-1
 10
3.540243
 20
0.107610
 30
0.000000
  0
VERTEX
  8
LAYER-1
 10
3.527223
 20
0.085041
 30
0.000000
  0
VERTEX
  8
LAYER-1
 10
3.557604
 20
0.105873
 30
0.000000
  0
SEQEND
  8
LAYER-1
  0
POLYLINE
  8
LAYER-1
 66
  1
 70
  1
 62
  0
 10
3.595698
 20
0.205963
 30
0.000000
  0
VERTEX
  8
LAYER-1
 10
3.595698
 20
0.205963
 30
0.000000
  0
VERTEX
  8
LAYER-1
 10
3.615063
 20
0.193275
 30
0.000000
  0
VERTEX
  8
LAYER-1
 10
3.621073
 20
0.204627
 30
0.000000
  0
SEQEND
  8
LAYER-1
  0
POLYLINE
  8
LAYER-1
 66
  1
 70
  0
 62
  0
 10
3.480346
 20
0.157213
 30
0.000000
  0
VERTEX
  8
LAYER-1
 10
3.480346
 20
0.157213
 30
0.000000
  0
VERTEX
  8
LAYER-1
 10
3.476006
 20
0.157213
 30
0.000000
  0
VERTEX
  8
LAYER-1
 10
3.472534
 20
0.152872
 30
0.000000
  0
VERTEX
  8
LAYER-1
 10
3.471667
 20
0.147664
 30
0.000000
  0
VERTEX
  8
LAYER-1
 10
3.473403
 20
0.143324
 30
0.000000
  0
VERTEX
  8
LAYER-1
 10
3.477743
 20
0.141588
 30
0.000000
  0
VERTEX
  8
LAYER-1
 10
3.482083
 20
0.141588
 30
0.000000
  0
VERTEX
  8
LAYER-1
 10
3.486423
 20
0.145059
 30
0.000000
  0
VERTEX
  8
LAYER-1
 10
3.486423
 20
0.149400
 30
0.000000
  0
VERTEX
  8
LAYER-1
 10
3.485555
 20
0.153741
 30
0.000000
  0
VERTEX
  8
LAYER-1
 10
3.481215
 20
0.156345
 30
0.000000
  0
SEQEND
  8
LAYER-1
  0
POLYLINE
  8
LAYER-1
 66
  1
 70
  0
 62
  0
 10
3.857086
 20
0.129309
 30
0.000000
  0
VERTEX
  8
LAYER-1
 10
3.857086
 20
0.129309
 30
0.000000
  0
VERTEX
  8
LAYER-1
 10
3.852746
 20
0.129309
 30
0.000000
  0
VERTEX
  8
LAYER-1
 10
3.849274
 20
0.124968
 30
0.000000
  0
VERTEX
  8
LAYER-1
 10
3.848406
 20
0.119760
 30
0.000000
  0
VERTEX
  8
LAYER-1
 10
3.850141
 20
0.115420
 30
0.000000
  0
VERTEX
  8
LAYER-1
 10
3.854482
 20
0.113684
 30
0.000000
  0
VERTEX
  8
LAYER-1
 10
3.858822
 20
0.113684
 30
0.000000
  0
VERTEX
  8
LAYER-1
 10
3.863163
 20
0.117155
 30
0.000000
  0
VERTEX
  8
LAYER-1
 10
3.863163
 20
0.121496
 30
0.000000
  0
VERTEX
  8
LAYER-1
 10
3.862295
 20
0.125837
 30
0.000000
  0
VERTEX
  8
LAYER-1
 10
3.857954
 20
0.128441
 30
0.000000
  0
SEQEND
  8
LAYER-1
  0
POLYLINE
  8
LAYER-1
 66
  1
 70
  0
 62
  0
 10
3.588854
 20
0.100666
 30
0.000000
  0
VERTEX
  8
LAYER-1
 10
3.588854
 20
0.100666
 30
0.000000
  0
VERTEX
  8
LAYER-1
 10
3.584515
 20
0.100666
 30
0.000000
  0
VERTEX
  8
LAYER-1
 10
3.581042
 20
0.096324
 30
0.000000
  0
VERTEX
  8
LAYER-1
 10
3.580174
 20
0.091117
 30
0.000000
  0
VERTEX
  8
LAYER-1
 10
3.581910
 20
0.086777
 30
0.000000
  0
VERTEX
  8
LAYER-1
 10
3.586250
 20
0.085041
 30
0.000000
  0
VERTEX
  8
LAYER-1
 10
3.590590
 20
0.085041
 30
0.000000
  0
VERTEX
  8
LAYER-1
 10
3.594931
 20
0.088512
 30
0.000000
  0
VERTEX
  8
LAYER-1
 10
3.594931
 20
0.092853
 30
0.000000
  0
VERTEX
  8
LAYER-1
 10
3.594063
 20
0.097193
 30
0.000000
  0
VERTEX
  8
LAYER-1
 10
3.589722
 20
0.099798
 30
0.000000
  0
SEQEND
  8
LAYER-1
  0
POLYLINE
  8
LAYER-1
 66
  1
 70
  1
 62
  0
 10
3.387032
 20
0.160129
 30
0.000000
  0
VERTEX
  8
LAYER-1
 10
3.387032
 20
0.160129
 30
0.000000
  0
VERTEX
  8
LAYER-1
 10
3.360992
 20
0.153185
 30
0.000000
  0
VERTEX
  8
LAYER-1
 10
3.374879
 20
0.128011
 30
0.000000
  0
SEQEND
  8
LAYER-1
  0
POLYLINE
  8
LAYER-1
 66
  1
 70
  1
 62
  0
 10
3.294151
 20
0.108914
 30
0.000000
  0
VERTEX
  8
LAYER-1
 10
3.294151
 20
0.108914
 30
0.000000
  0
VERTEX
  8
LAYER-1
 10
3.271581
 20
0.121935
 30
0.000000
  0
VERTEX
  8
LAYER-1
 10
3.292413
 20
0.091553
 30
0.000000
  0
SEQEND
  8
LAYER-1
  0
POLYLINE
  8
LAYER-1
 66
  1
 70
  1
 62
  0
 10
3.257693
 20
0.154049
 30
0.000000
  0
VERTEX
  8
LAYER-1
 10
3.257693
 20
0.154049
 30
0.000000
  0
VERTEX
  8
LAYER-1
 10
3.232519
 20
0.170542
 30
0.000000
  0
VERTEX
  8
LAYER-1
 10
3.224706
 20
0.155785
 30
0.000000
  0
SEQEND
  8
LAYER-1
  0
POLYLINE
  8
LAYER-1
 66
  1
 70
  0
 62
  0
 10
3.418282
 20
0.209607
 30
0.000000
  0
VERTEX
  8
LAYER-1
 10
3.418282
 20
0.209607
 30
0.000000
  0
VERTEX
  8
LAYER-1
 10
3.418282
 20
0.213948
 30
0.000000
  0
VERTEX
  8
LAYER-1
 10
3.413941
 20
0.217420
 30
0.000000
  0
VERTEX
  8
LAYER-1
 10
3.408734
 20
0.218287
 30
0.000000
  0
VERTEX
  8
LAYER-1
 10
3.404393
 20
0.216552
 30
0.000000
  0
VERTEX
  8
LAYER-1
 10
3.402657
 20
0.212211
 30
0.000000
  0
VERTEX
  8
LAYER-1
 10
3.402657
 20
0.207871
 30
0.000000
  0
VERTEX
  8
LAYER-1
 10
3.406129
 20
0.203530
 30
0.000000
  0
VERTEX
  8
LAYER-1
 10
3.410469
 20
0.203530
 30
0.000000
  0
VERTEX
  8
LAYER-1
 10
3.414810
 20
0.204398
 30
0.000000
  0
VERTEX
  8
LAYER-1
 10
3.417415
 20
0.208739
 30
0.000000
  0
SEQEND
  8
LAYER-1
  0
POLYLINE
  8
LAYER-1
 66
  1
 70
  1
 62
  0
 10
3.350574
 20
0.172281
 30
0.000000
  0
VERTEX
  8
LAYER-1
 10
3.350574
 20
0.172281
 30
0.000000
  0
VERTEX
  8
LAYER-1
 10
3.328004
 20
0.185302
 30
0.000000
  0
VERTEX
  8
LAYER-1
 10
3.348837
 20
0.154921
 30
0.000000
  0
SEQEND
  8
LAYER-1
  0
POLYLINE
  8
LAYER-1
 66
  1
 70
  1
 62
  0
 10
3.302229
 20
0.179322
 30
0.000000
  0
VERTEX
  8
LAYER-1
 10
3.302229
 20
0.179322
 30
0.000000
  0
VERTEX
  8
LAYER-1
 10
3.289542
 20
0.159959
 30
0.000000
  0
VERTEX
  8
LAYER-1
 10
3.300893
 20
0.153948
 30
0.000000
  0
SEQEND
  8
LAYER-1
  0
POLYLINE
  8
LAYER-1
 66
  1
 70
  0
 62
  0
 10
3.420018
 20
0.082003
 30
0.000000
  0
VERTEX
  8
LAYER-1
 10
3.420018
 20
0.082003
 30
0.000000
  0
VERTEX
  8
LAYER-1
 10
3.420018
 20
0.086343
 30
0.000000
  0
VERTEX
  8
LAYER-1
 10
3.415677
 20
0.089816
 30
0.000000
  0
VERTEX
  8
LAYER-1
 10
3.410469
 20
0.090684
 30
0.000000
  0
VERTEX
  8
LAYER-1
 10
3.406129
 20
0.088948
 30
0.000000
  0
VERTEX
  8
LAYER-1
 10
3.404393
 20
0.084607
 30
0.000000
  0
VERTEX
  8
LAYER-1
 10
3.404393
 20
0.080266
 30
0.000000
  0
VERTEX
  8
LAYER-1
 10
3.407865
 20
0.075927
 30
0.000000
  0
VERTEX
  8
LAYER-1
 10
3.412206
 20
0.075927
 30
0.000000
  0
VERTEX
  8
LAYER-1
 10
3.416546
 20
0.076795
 30
0.000000
  0
VERTEX
  8
LAYER-1
 10
3.419151
 20
0.081135
 30
0.000000
  0
SEQEND
  8
LAYER-1
  0
POLYLINE
  8
LAYER-1
 66
  1
 70
  0
 62
  0
 10
3.338421
 20
0.082871
 30
0.000000
  0
VERTEX
  8
LAYER-1
 10
3.338421
 20
0.082871
 30
0.000000
  0
VERTEX
  8
LAYER-1
 10
3.338421
 20
0.087212
 30
0.000000
  0
VERTEX
  8
LAYER-1
 10
3.334080
 20
0.090684
 30
0.000000
  0
VERTEX
  8
LAYER-1
 10
3.328873
 20
0.091552
 30
0.000000
  0
VERTEX
  8
LAYER-1
 10
3.324532
 20
0.089816
 30
0.000000
  0
VERTEX
  8
LAYER-1
 10
3.322796
 20
0.085475
 30
0.000000
  0
VERTEX
  8
LAYER-1
 10
3.322796
 20
0.081135
 30
0.000000
  0
VERTEX
  8
LAYER-1
 10
3.326268
 20
0.076795
 30
0.000000
  0
VERTEX
  8
LAYER-1
 10
3.330609
 20
0.076795
 30
0.000000
  0
VERTEX
  8
LAYER-1
 10
3.334949
 20
0.077662
 30
0.000000
  0
VERTEX
  8
LAYER-1
 10
3.337554
 20
0.082003
 30
0.000000
  0
SEQEND
  8
LAYER-1
  0
POLYLINE
  8
LAYER-1
 66
  1
 70
  0
 62
  0
 10
3.268109
 20
0.193114
 30
0.000000
  0
VERTEX
  8
LAYER-1
 10
3.268109
 20
0.193114
 30
0.000000
  0
VERTEX
  8
LAYER-1
 10
3.268109
 20
0.197454
 30
0.000000
  0
VERTEX
  8
LAYER-1
 10
3.263769
 20
0.200926
 30
0.000000
  0
VERTEX
  8
LAYER-1
 10
3.258561
 20
0.201793
 30
0.000000
  0
VERTEX
  8
LAYER-1
 10
3.254220
 20
0.200058
 30
0.000000
  0
VERTEX
  8
LAYER-1
 10
3.252484
 20
0.195717
 30
0.000000
  0
VERTEX
  8
LAYER-1
 10
3.252484
 20
0.191377
 30
0.000000
  0
VERTEX
  8
LAYER-1
 10
3.255956
 20
0.187036
 30
0.000000
  0
VERTEX
  8
LAYER-1
 10
3.260297
 20
0.187036
 30
0.000000
  0
VERTEX
  8
LAYER-1
 10
3.264637
 20
0.187904
 30
0.000000
  0
VERTEX
  8
LAYER-1
 10
3.267242
 20
0.192245
 30
0.000000
  0
SEQEND
  8
LAYER-1
  0
POLYLINE
  8
LAYER-1
 66
  1
 70
  1
 62
  0
 10
4.050661
 20
0.182698
 30
0.000000
  0
VERTEX
  8
LAYER-1
 10
4.050661
 20
0.182698
 30
0.000000
  0
VERTEX
  8
LAYER-1
 10
4.057605
 20
0.156658
 30
0.000000
  0
VERTEX
  8
LAYER-1
 10
4.082779
 20
0.170546
 30
0.000000
  0
SEQEND
  8
LAYER-1
  0
POLYLINE
  8
LAYER-1
 66
  1
 70
  1
 62
  0
 10
4.212988
 20
0.211344
 30
0.000000
  0
VERTEX
  8
LAYER-1
 10
4.212988
 20
0.211344
 30
0.000000
  0
VERTEX
  8
LAYER-1
 10
4.199966
 20
0.188774
 30
0.000000
  0
VERTEX
  8
LAYER-1
 10
4.230349
 20
0.209607
 30
0.000000
  0
SEQEND
  8
LAYER-1
  0
POLYLINE
  8
LAYER-1
 66
  1
 70
  1
 62
  0
 10
4.192155
 20
0.126273
 30
0.000000
  0
VERTEX
  8
LAYER-1
 10
4.192155
 20
0.126273
 30
0.000000
  0
VERTEX
  8
LAYER-1
 10
4.175662
 20
0.101099
 30
0.000000
  0
VERTEX
  8
LAYER-1
 10
4.190419
 20
0.093286
 30
0.000000
  0
SEQEND
  8
LAYER-1
  0
POLYLINE
  8
LAYER-1
 66
  1
 70
  0
 62
  0
 10
4.001182
 20
0.213948
 30
0.000000
  0
VERTEX
  8
LAYER-1
 10
4.001182
 20
0.213948
 30
0.000000
  0
VERTEX
  8
LAYER-1
 10
3.996841
 20
0.213948
 30
0.000000
  0
VERTEX
  8
LAYER-1
 10
3.993369
 20
0.209607
 30
0.000000
  0
VERTEX
  8
LAYER-1
 10
3.992502
 20
0.204399
 30
0.000000
  0
VERTEX
  8
LAYER-1
 10
3.994237
 20
0.200059
 30
0.000000
  0
VERTEX
  8
LAYER-1
 10
3.998578
 20
0.198323
 30
0.000000
  0
VERTEX
  8
LAYER-1
 10
4.002918
 20
0.198323
 30
0.000000
  0
VERTEX
  8
LAYER-1
 10
4.007259
 20
0.201795
 30
0.000000
  0
VERTEX
  8
LAYER-1
 10
4.007259
 20
0.206135
 30
0.000000
  0
VERTEX
  8
LAYER-1
 10
4.006390
 20
0.210476
 30
0.000000
  0
VERTEX
  8
LAYER-1
 10
4.002050
 20
0.213080
 30
0.000000
  0
SEQEND
  8
LAYER-1
  0
POLYLINE
  8
LAYER-1
 66
  1
 70
  1
 62
  0
 10
4.022448
 20
0.145805
 30
0.000000
  0
VERTEX
  8
LAYER-1
 10
4.022448
 20
0.145805
 30
0.000000
  0
VERTEX
  8
LAYER-1
 10
4.045018
 20
0.132785
 30
0.000000
  0
VERTEX
  8
LAYER-1
 10
4.024185
 20
0.163166
 30
0.000000
  0
SEQEND
  8
LAYER-1
  0
POLYLINE
  8
LAYER-1
 66
  1
 70
  1
 62
  0
 10
4.139103
 20
0.137825
 30
0.000000
  0
VERTEX
  8
LAYER-1
 10
4.139103
 20
0.137825
 30
0.000000
  0
VERTEX
  8
LAYER-1
 10
4.158468
 20
0.125137
 30
0.000000
  0
VERTEX
  8
LAYER-1
 10
4.164478
 20
0.136489
 30
0.000000
  0
SEQEND
  8
LAYER-1
  0
POLYLINE
  8
LAYER-1
 66
  1
 70
  0
 62
  0
 10
4.153091
 20
0.215684
 30
0.000000
  0
VERTEX
  8
LAYER-1
 10
4.153091
 20
0.215684
 30
0.000000
  0
VERTEX
  8
LAYER-1
 10
4.148752
 20
0.215684
 30
0.000000
  0
VERTEX
  8
LAYER-1
 10
4.145279
 20
0.211343
 30
0.000000
  0
VERTEX
  8
LAYER-1
 10
4.144411
 20
0.206135
 30
0.000000
  0
VERTEX
  8
LAYER-1
 10
4.146147
 20
0.201795
 30
0.000000
  0
VERTEX
  8
LAYER-1
 10
4.150488
 20
0.200059
 30
0.000000
  0
VERTEX
  8
LAYER-1
 10
4.154828
 20
0.200059
 30
0.000000
  0
VERTEX
  8
LAYER-1
 10
4.159168
 20
0.203530
 30
0.000000
  0
VERTEX
  8
LAYER-1
 10
4.159168
 20
0.207871
 30
0.000000
  0
VERTEX
  8
LAYER-1
 10
4.158300
 20
0.212212
 30
0.000000
  0
VERTEX
  8
LAYER-1
 10
4.153959
 20
0.214816
 30
0.000000
  0
SEQEND
  8
LAYER-1
  0
POLYLINE
  8
LAYER-1
 66
  1
 70
  0
 62
  0
 10
4.237294
 20
0.088947
 30
0.000000
  0
VERTEX
  8
LAYER-1
 10
4.237294
 20
0.088947
 30
0.000000
  0
VERTEX
  8
LAYER-1
 10
4.232953
 20
0.088947
 30
0.000000
  0
VERTEX
  8
LAYER-1
 10
4.229482
 20
0.084606
 30
0.000000
  0
VERTEX
  8
LAYER-1
 10
4.228614
 20
0.079398
 30
0.000000
  0
VERTEX
  8
LAYER-1
 10
4.230350
 20
0.075058
 30
0.000000
  0
VERTEX
  8
LAYER-1
 10
4.234690
 20
0.073322
 30
0.000000
  0
VERTEX
  8
LAYER-1
 10
4.239030
 20
0.073322
 30
0.000000
  0
VERTEX
  8
LAYER-1
 10
4.243371
 20
0.076793
 30
0.000000
  0
VERTEX
  8
LAYER-1
 10
4.243371
 20
0.081134
 30
0.000000
  0
VERTEX
  8
LAYER-1
 10
4.242502
 20
0.085475
 30
0.000000
  0
VERTEX
  8
LAYER-1
 10
4.238162
 20
0.088079
 30
0.000000
  0
SEQEND
  8
LAYER-1
  0
POLYLINE
  8
LAYER-1
 66
  1
 70
  0
 62
  0
 10
4.083647
 20
0.143633
 30
0.000000
  0
VERTEX
  8
LAYER-1
 10
4.083647
 20
0.143633
 30
0.000000
  0
VERTEX
  8
LAYER-1
 10
4.079307
 20
0.143633
 30
0.000000
  0
VERTEX
  8
LAYER-1
 10
4.075835
 20
0.139292
 30
0.000000
  0
VERTEX
  8
LAYER-1
 10
4.074967
 20
0.134084
 30
0.000000
  0
VERTEX
  8
LAYER-1
 10
4.076703
 20
0.129743
 30
0.000000
  0
VERTEX
  8
LAYER-1
 10
4.081043
 20
0.128008
 30
0.000000
  0
VERTEX
  8
LAYER-1
 10
4.085384
 20
0.128008
 30
0.000000
  0
VERTEX
  8
LAYER-1
 10
4.089724
 20
0.131479
 30
0.000000
  0
VERTEX
  8
LAYER-1
 10
4.089724
 20
0.135820
 30
0.000000
  0
VERTEX
  8
LAYER-1
 10
4.088855
 20
0.140160
 30
0.000000
  0
VERTEX
  8
LAYER-1
 10
4.084515
 20
0.142765
 30
0.000000
  0
SEQEND
  8
LAYER-1
  0
POLYLINE
  8
LAYER-1
 66
  1
 70
  1
 62
  0
 10
3.918718
 20
0.152314
 30
0.000000
  0
VERTEX
  8
LAYER-1
 10
3.918718
 20
0.152314
 30
0.000000
  0
VERTEX
  8
LAYER-1
 10
3.911772
 20
0.178353
 30
0.000000
  0
VERTEX
  8
LAYER-1
 10
3.886599
 20
0.164467
 30
0.000000
  0
SEQEND
  8
LAYER-1
  0
POLYLINE
  8
LAYER-1
 66
  1
 70
  1
 62
  0
 10
3.507693
 20
0.183996
 30
0.000000
  0
VERTEX
  8
LAYER-1
 10
3.507693
 20
0.183996
 30
0.000000
  0
VERTEX
  8
LAYER-1
 10
3.520713
 20
0.206567
 30
0.000000
  0
VERTEX
  8
LAYER-1
 10
3.490331
 20
0.185734
 30
0.000000
  0
SEQEND
  8
LAYER-1
  0
POLYLINE
  8
LAYER-1
 66
  1
 70
  1
 62
  0
 10
3.805001
 20
0.177489
 30
0.000000
  0
VERTEX
  8
LAYER-1
 10
3.805001
 20
0.177489
 30
0.000000
  0
VERTEX
  8
LAYER-1
 10
3.821495
 20
0.202661
 30
0.000000
  0
VERTEX
  8
LAYER-1
 10
3.806737
 20
0.210474
 30
0.000000
  0
SEQEND
  8
LAYER-1
  0
POLYLINE
  8
LAYER-1
 66
  1
 70
  0
 62
  0
 10
3.968196
 20
0.121064
 30
0.000000
  0
VERTEX
  8
LAYER-1
 10
3.968196
 20
0.121064
 30
0.000000
  0
VERTEX
  8
LAYER-1
 10
3.972537
 20
0.121064
 30
0.000000
  0
VERTEX
  8
LAYER-1
 10
3.976009
 20
0.125404
 30
0.000000
  0
VERTEX
  8
LAYER-1
 10
3.976877
 20
0.130612
 30
0.000000
  0
VERTEX
  8
LAYER-1
 10
3.975141
 20
0.134953
 30
0.000000
  0
VERTEX
  8
LAYER-1
 10
3.970801
 20
0.136689
 30
0.000000
  0
VERTEX
  8
LAYER-1
 10
3.966460
 20
0.136689
 30
0.000000
  0
VERTEX
  8
LAYER-1
 10
3.962119
 20
0.133217
 30
0.000000
  0
VERTEX
  8
LAYER-1
 10
3.962119
 20
0.128877
 30
0.000000
  0
VERTEX
  8
LAYER-1
 10
3.962988
 20
0.124535
 30
0.000000
  0
VERTEX
  8
LAYER-1
 10
3.967329
 20
0.121930
 30
0.000000
  0
SEQEND
  8
LAYER-1
  0
POLYLINE
  8
LAYER-1
 66
  1
 70
  1
 62
  0
 10
3.922189
 20
0.117593
 30
0.000000
  0
VERTEX
  8
LAYER-1
 10
3.922189
 20
0.117593
 30
0.000000
  0
VERTEX
  8
LAYER-1
 10
3.935210
 20
0.140164
 30
0.000000
  0
VERTEX
  8
LAYER-1
 10
3.904828
 20
0.119331
 30
0.000000
  0
SEQEND
  8
LAYER-1
  0
POLYLINE
  8
LAYER-1
 66
  1
 70
  1
 62
  0
 10
3.867602
 20
0.158994
 30
0.000000
  0
VERTEX
  8
LAYER-1
 10
3.867602
 20
0.158994
 30
0.000000
  0
VERTEX
  8
LAYER-1
 10
3.848238
 20
0.171682
 30
0.000000
  0
VERTEX
  8
LAYER-1
 10
3.842227
 20
0.160330
 30
0.000000
  0
SEQEND
  8
LAYER-1
  0
POLYLINE
  8
LAYER-1
 66
  1
 70
  0
 62
  0
 10
3.844496
 20
0.055650
 30
0.000000
  0
VERTEX
  8
LAYER-1
 10
3.844496
 20
0.055650
 30
0.000000
  0
VERTEX
  8
LAYER-1
 10
3.848837
 20
0.055650
 30
0.000000
  0
VERTEX
  8
LAYER-1
 10
3.852309
 20
0.059990
 30
0.000000
  0
VERTEX
  8
LAYER-1
 10
3.853178
 20
0.065198
 30
0.000000
  0
VERTEX
  8
LAYER-1
 10
3.851442
 20
0.069539
 30
0.000000
  0
VERTEX
  8
LAYER-1
 10
3.847101
 20
0.071275
 30
0.000000
  0
VERTEX
  8
LAYER-1
 10
3.842760
 20
0.071275
 30
0.000000
  0
VERTEX
  8
LAYER-1
 10
3.838420
 20
0.067802
 30
0.000000
  0
VERTEX
  8
LAYER-1
 10
3.838420
 20
0.063462
 30
0.000000
  0
VERTEX
  8
LAYER-1
 10
3.839288
 20
0.059121
 30
0.000000
  0
VERTEX
  8
LAYER-1
 10
3.843629
 20
0.056517
 30
0.000000
  0
SEQEND
  8
LAYER-1
  0
POLYLINE
  8
LAYER-1
 66
  1
 70
  0
 62
  0
 10
3.754653
 20
0.198444
 30
0.000000
  0
VERTEX
  8
LAYER-1
 10
3.754653
 20
0.198444
 30
0.000000
  0
VERTEX
  8
LAYER-1
 10
3.758994
 20
0.198444
 30
0.000000
  0
VERTEX
  8
LAYER-1
 10
3.762466
 20
0.202784
 30
0.000000
  0
VERTEX
  8
LAYER-1
 10
3.763333
 20
0.207993
 30
0.000000
  0
VERTEX
  8
LAYER-1
 10
3.761597
 20
0.212333
 30
0.000000
  0
VERTEX
  8
LAYER-1
 10
3.757256
 20
0.214069
 30
0.000000
  0
VERTEX
  8
LAYER-1
 10
3.752917
 20
0.214069
 30
0.000000
  0
VERTEX
  8
LAYER-1
 10
3.748577
 20
0.210597
 30
0.000000
  0
VERTEX
  8
LAYER-1
 10
3.748577
 20
0.206256
 30
0.000000
  0
VERTEX
  8
LAYER-1
 10
3.749443
 20
0.201915
 30
0.000000
  0
VERTEX
  8
LAYER-1
 10
3.753784
 20
0.199311
 30
0.000000
  0
SEQEND
  8
LAYER-1
  0
POLYLINE
  8
LAYER-1
 66
  1
 70
  0
 62
  0
 10
3.916981
 20
0.191377
 30
0.000000
  0
VERTEX
  8
LAYER-1
 10
3.916981
 20
0.191377
 30
0.000000
  0
VERTEX
  8
LAYER-1
 10
3.921322
 20
0.191377
 30
0.000000
  0
VERTEX
  8
LAYER-1
 10
3.924794
 20
0.195718
 30
0.000000
  0
VERTEX
  8
LAYER-1
 10
3.925661
 20
0.200926
 30
0.000000
  0
VERTEX
  8
LAYER-1
 10
3.923925
 20
0.205266
 30
0.000000
  0
VERTEX
  8
LAYER-1
 10
3.919584
 20
0.207002
 30
0.000000
  0
VERTEX
  8
LAYER-1
 10
3.915245
 20
0.207002
 30
0.000000
  0
VERTEX
  8
LAYER-1
 10
3.910905
 20
0.203530
 30
0.000000
  0
VERTEX
  8
LAYER-1
 10
3.910905
 20
0.199190
 30
0.000000
  0
VERTEX
  8
LAYER-1
 10
3.911772
 20
0.194849
 30
0.000000
  0
VERTEX
  8
LAYER-1
 10
3.916112
 20
0.192245
 30
0.000000
  0
SEQEND
  8
LAYER-1
  0
POLYLINE
  8
LAYER-1
 66
  1
 70
  1
 62
  0
 10
4.673056
 20
0.160564
 30
0.000000
  0
VERTEX
  8
LAYER-1
 10
4.673056
 20
0.160564
 30
0.000000
  0
VERTEX
  8
LAYER-1
 10
4.680001
 20
0.134522
 30
0.000000
  0
VERTEX
  8
LAYER-1
 10
4.705174
 20
0.148410
 30
0.000000
  0
SEQEND
  8
LAYER-1
  0
POLYLINE
  8
LAYER-1
 66
  1
 70
  1
 62
  0
 10
4.799791
 20
0.196153
 30
0.000000
  0
VERTEX
  8
LAYER-1
 10
4.799791
 20
0.196153
 30
0.000000
  0
VERTEX
  8
LAYER-1
 10
4.786771
 20
0.173585
 30
0.000000
  0
VERTEX
  8
LAYER-1
 10
4.817153
 20
0.194416
 30
0.000000
  0
SEQEND
  8
LAYER-1
  0
POLYLINE
  8
LAYER-1
 66
  1
 70
  1
 62
  0
 10
4.475141
 20
0.184869
 30
0.000000
  0
VERTEX
  8
LAYER-1
 10
4.475141
 20
0.184869
 30
0.000000
  0
VERTEX
  8
LAYER-1
 10
4.458649
 20
0.159696
 30
0.000000
  0
VERTEX
  8
LAYER-1
 10
4.473406
 20
0.151883
 30
0.000000
  0
SEQEND
  8
LAYER-1
  0
POLYLINE
  8
LAYER-1
 66
  1
 70
  0
 62
  0
 10
4.585384
 20
0.177059
 30
0.000000
  0
VERTEX
  8
LAYER-1
 10
4.585384
 20
0.177059
 30
0.000000
  0
VERTEX
  8
LAYER-1
 10
4.581043
 20
0.177059
 30
0.000000
  0
VERTEX
  8
LAYER-1
 10
4.577571
 20
0.172718
 30
0.000000
  0
VERTEX
  8
LAYER-1
 10
4.576702
 20
0.167511
 30
0.000000
  0
VERTEX
  8
LAYER-1
 10
4.578438
 20
0.163171
 30
0.000000
  0
VERTEX
  8
LAYER-1
 10
4.582779
 20
0.161435
 30
0.000000
  0
VERTEX
  8
LAYER-1
 10
4.587119
 20
0.161435
 30
0.000000
  0
VERTEX
  8
LAYER-1
 10
4.591459
 20
0.164906
 30
0.000000
  0
VERTEX
  8
LAYER-1
 10
4.591459
 20
0.169247
 30
0.000000
  0
VERTEX
  8
LAYER-1
 10
4.590591
 20
0.173587
 30
0.000000
  0
VERTEX
  8
LAYER-1
 10
4.586250
 20
0.176191
 30
0.000000
  0
SEQEND
  8
LAYER-1
  0
POLYLINE
  8
LAYER-1
 66
  1
 70
  1
 62
  0
 10
4.614897
 20
0.131049
 30
0.000000
  0
VERTEX
  8
LAYER-1
 10
4.614897
 20
0.131049
 30
0.000000
  0
VERTEX
  8
LAYER-1
 10
4.601877
 20
0.108480
 30
0.000000
  0
VERTEX
  8
LAYER-1
 10
4.632259
 20
0.129312
 30
0.000000
  0
SEQEND
  8
LAYER-1
  0
POLYLINE
  8
LAYER-1
 66
  1
 70
  1
 62
  0
 10
4.822195
 20
0.131581
 30
0.000000
  0
VERTEX
  8
LAYER-1
 10
4.822195
 20
0.131581
 30
0.000000
  0
VERTEX
  8
LAYER-1
 10
4.809508
 20
0.112217
 30
0.000000
  0
VERTEX
  8
LAYER-1
 10
4.820860
 20
0.106206
 30
0.000000
  0
SEQEND
  8
LAYER-1
  0
POLYLINE
  8
LAYER-1
 66
  1
 70
  0
 62
  0
 10
4.729479
 20
0.200493
 30
0.000000
  0
VERTEX
  8
LAYER-1
 10
4.729479
 20
0.200493
 30
0.000000
  0
VERTEX
  8
LAYER-1
 10
4.725138
 20
0.200493
 30
0.000000
  0
VERTEX
  8
LAYER-1
 10
4.721666
 20
0.196153
 30
0.000000
  0
VERTEX
  8
LAYER-1
 10
4.720798
 20
0.190945
 30
0.000000
  0
VERTEX
  8
LAYER-1
 10
4.722534
 20
0.186604
 30
0.000000
  0
VERTEX
  8
LAYER-1
 10
4.726874
 20
0.184868
 30
0.000000
  0
VERTEX
  8
LAYER-1
 10
4.731215
 20
0.184868
 30
0.000000
  0
VERTEX
  8
LAYER-1
 10
4.735555
 20
0.188340
 30
0.000000
  0
VERTEX
  8
LAYER-1
 10
4.735555
 20
0.192680
 30
0.000000
  0
VERTEX
  8
LAYER-1
 10
4.734687
 20
0.197021
 30
0.000000
  0
VERTEX
  8
LAYER-1
 10
4.730347
 20
0.199625
 30
0.000000
  0
SEQEND
  8
LAYER-1
  0
POLYLINE
  8
LAYER-1
 66
  1
 70
  0
 62
  0
 10
4.516808
 20
0.190943
 30
0.000000
  0
VERTEX
  8
LAYER-1
 10
4.516808
 20
0.190943
 30
0.000000
  0
VERTEX
  8
LAYER-1
 10
4.512468
 20
0.190943
 30
0.000000
  0
VERTEX
  8
LAYER-1
 10
4.508995
 20
0.186603
 30
0.000000
  0
VERTEX
  8
LAYER-1
 10
4.508127
 20
0.181396
 30
0.000000
  0
VERTEX
  8
LAYER-1
 10
4.509864
 20
0.177055
 30
0.000000
  0
VERTEX
  8
LAYER-1
 10
4.514204
 20
0.175318
 30
0.000000
  0
VERTEX
  8
LAYER-1
 10
4.518545
 20
0.175318
 30
0.000000
  0
VERTEX
  8
LAYER-1
 10
4.522884
 20
0.178791
 30
0.000000
  0
VERTEX
  8
LAYER-1
 10
4.522884
 20
0.183131
 30
0.000000
  0
VERTEX
  8
LAYER-1
 10
4.522016
 20
0.187472
 30
0.000000
  0
VERTEX
  8
LAYER-1
 10
4.517677
 20
0.190076
 30
0.000000
  0
SEQEND
  8
LAYER-1
  0
POLYLINE
  8
LAYER-1
 66
  1
 70
  0
 62
  0
 10
4.764203
 20
0.163165
 30
0.000000
  0
VERTEX
  8
LAYER-1
 10
4.764203
 20
0.163165
 30
0.000000
  0
VERTEX
  8
LAYER-1
 10
4.759864
 20
0.163165
 30
0.000000
  0
VERTEX
  8
LAYER-1
 10
4.756391
 20
0.158824
 30
0.000000
  0
VERTEX
  8
LAYER-1
 10
4.755524
 20
0.153616
 30
0.000000
  0
VERTEX
  8
LAYER-1
 10
4.757260
 20
0.149276
 30
0.000000
  0
VERTEX
  8
LAYER-1
 10
4.761600
 20
0.147540
 30
0.000000
  0
VERTEX
  8
LAYER-1
 10
4.765940
 20
0.147540
 30
0.000000
  0
VERTEX
  8
LAYER-1
 10
4.770280
 20
0.151011
 30
0.000000
  0
VERTEX
  8
LAYER-1
 10
4.770280
 20
0.155352
 30
0.000000
  0
VERTEX
  8
LAYER-1
 10
4.769413
 20
0.159693
 30
0.000000
  0
VERTEX
  8
LAYER-1
 10
4.765072
 20
0.162297
 30
0.000000
  0
SEQEND
  8
LAYER-1
  0
POLYLINE
  8
LAYER-1
 66
  1
 70
  1
 62
  0
 10
4.378787
 20
0.109780
 30
0.000000
  0
VERTEX
  8
LAYER-1
 10
4.378787
 20
0.109780
 30
0.000000
  0
VERTEX
  8
LAYER-1
 10
4.371842
 20
0.135821
 30
0.000000
  0
VERTEX
  8
LAYER-1
 10
4.346669
 20
0.121934
 30
0.000000
  0
SEQEND
  8
LAYER-1
  0
POLYLINE
  8
LAYER-1
 66
  1
 70
  1
 62
  0
 10
4.226877
 20
0.150577
 30
0.000000
  0
VERTEX
  8
LAYER-1
 10
4.226877
 20
0.150577
 30
0.000000
  0
VERTEX
  8
LAYER-1
 10
4.239898
 20
0.173147
 30
0.000000
  0
VERTEX
  8
LAYER-1
 10
4.209516
 20
0.152315
 30
0.000000
  0
SEQEND
  8
LAYER-1
  0
POLYLINE
  8
LAYER-1
 66
  1
 70
  1
 62
  0
 10
4.310211
 20
0.110652
 30
0.000000
  0
VERTEX
  8
LAYER-1
 10
4.310211
 20
0.110652
 30
0.000000
  0
VERTEX
  8
LAYER-1
 10
4.326704
 20
0.135824
 30
0.000000
  0
VERTEX
  8
LAYER-1
 10
4.311947
 20
0.143637
 30
0.000000
  0
SEQEND
  8
LAYER-1
  0
POLYLINE
  8
LAYER-1
 66
  1
 70
  0
 62
  0
 10
4.484691
 20
0.112388
 30
0.000000
  0
VERTEX
  8
LAYER-1
 10
4.484691
 20
0.112388
 30
0.000000
  0
VERTEX
  8
LAYER-1
 10
4.489031
 20
0.112388
 30
0.000000
  0
VERTEX
  8
LAYER-1
 10
4.492503
 20
0.116729
 30
0.000000
  0
VERTEX
  8
LAYER-1
 10
4.493371
 20
0.121936
 30
0.000000
  0
VERTEX
  8
LAYER-1
 10
4.491635
 20
0.126277
 30
0.000000
  0
VERTEX
  8
LAYER-1
 10
4.487295
 20
0.128013
 30
0.000000
  0
VERTEX
  8
LAYER-1
 10
4.482955
 20
0.128013
 30
0.000000
  0
VERTEX
  8
LAYER-1
 10
4.478614
 20
0.124541
 30
0.000000
  0
VERTEX
  8
LAYER-1
 10
4.478614
 20
0.120200
 30
0.000000
  0
VERTEX
  8
LAYER-1
 10
4.479482
 20
0.115860
 30
0.000000
  0
VERTEX
  8
LAYER-1
 10
4.483823
 20
0.113255
 30
0.000000
  0
SEQEND
  8
LAYER-1
  0
POLYLINE
  8
LAYER-1
 66
  1
 70
  1
 62
  0
 10
4.436078
 20
0.127143
 30
0.000000
  0
VERTEX
  8
LAYER-1
 10
4.436078
 20
0.127143
 30
0.000000
  0
VERTEX
  8
LAYER-1
 10
4.449099
 20
0.149714
 30
0.000000
  0
VERTEX
  8
LAYER-1
 10
4.418717
 20
0.128881
 30
0.000000
  0
SEQEND
  8
LAYER-1
  0
POLYLINE
  8
LAYER-1
 66
  1
 70
  1
 62
  0
 10
4.325134
 20
0.163068
 30
0.000000
  0
VERTEX
  8
LAYER-1
 10
4.325134
 20
0.163068
 30
0.000000
  0
VERTEX
  8
LAYER-1
 10
4.337821
 20
0.182432
 30
0.000000
  0
VERTEX
  8
LAYER-1
 10
4.326470
 20
0.188443
 30
0.000000
  0
SEQEND
  8
LAYER-1
  0
POLYLINE
  8
LAYER-1
 66
  1
 70
  0
 62
  0
 10
4.280782
 20
0.194539
 30
0.000000
  0
VERTEX
  8
LAYER-1
 10
4.280782
 20
0.194539
 30
0.000000
  0
VERTEX
  8
LAYER-1
 10
4.285122
 20
0.194539
 30
0.000000
  0
VERTEX
  8
LAYER-1
 10
4.288595
 20
0.198880
 30
0.000000
  0
VERTEX
  8
LAYER-1
 10
4.289463
 20
0.204087
 30
0.000000
  0
VERTEX
  8
LAYER-1
 10
4.287727
 20
0.208427
 30
0.000000
  0
VERTEX
  8
LAYER-1
 10
4.283386
 20
0.210164
 30
0.000000
  0
VERTEX
  8
LAYER-1
 10
4.279046
 20
0.210164
 30
0.000000
  0
VERTEX
  8
LAYER-1
 10
4.274705
 20
0.206692
 30
0.000000
  0
VERTEX
  8
LAYER-1
 10
4.274705
 20
0.202351
 30
0.000000
  0
VERTEX
  8
LAYER-1
 10
4.275573
 20
0.198011
 30
0.000000
  0
VERTEX
  8
LAYER-1
 10
4.279914
 20
0.195406
 30
0.000000
  0
SEQEND
  8
LAYER-1
  0
POLYLINE
  8
LAYER-1
 66
  1
 70
  0
 62
  0
 10
4.258127
 20
0.116728
 30
0.000000
  0
VERTEX
  8
LAYER-1
 10
4.258127
 20
0.116728
 30
0.000000
  0
VERTEX
  8
LAYER-1
 10
4.262468
 20
0.116728
 30
0.000000
  0
VERTEX
  8
LAYER-1
 10
4.265940
 20
0.121068
 30
0.000000
  0
VERTEX
  8
LAYER-1
 10
4.266807
 20
0.126277
 30
0.000000
  0
VERTEX
  8
LAYER-1
 10
4.265071
 20
0.130617
 30
0.000000
  0
VERTEX
  8
LAYER-1
 10
4.260731
 20
0.132353
 30
0.000000
  0
VERTEX
  8
LAYER-1
 10
4.256391
 20
0.132353
 30
0.000000
  0
VERTEX
  8
LAYER-1
 10
4.252050
 20
0.128881
 30
0.000000
  0
VERTEX
  8
LAYER-1
 10
4.252050
 20
0.124541
 30
0.000000
  0
VERTEX
  8
LAYER-1
 10
4.252918
 20
0.120199
 30
0.000000
  0
VERTEX
  8
LAYER-1
 10
4.257259
 20
0.117595
 30
0.000000
  0
SEQEND
  8
LAYER-1
  0
POLYLINE
  8
LAYER-1
 66
  1
 70
  0
 62
  0
 10
4.422190
 20
0.193983
 30
0.000000
  0
VERTEX
  8
LAYER-1
 10
4.422190
 20
0.193983
 30
0.000000
  0
VERTEX
  8
LAYER-1
 10
4.426531
 20
0.193983
 30
0.000000
  0
VERTEX
  8
LAYER-1
 10
4.430002
 20
0.198324
 30
0.000000
  0
VERTEX
  8
LAYER-1
 10
4.430870
 20
0.203531
 30
0.000000
  0
VERTEX
  8
LAYER-1
 10
4.429134
 20
0.207872
 30
0.000000
  0
VERTEX
  8
LAYER-1
 10
4.424794
 20
0.209608
 30
0.000000
  0
VERTEX
  8
LAYER-1
 10
4.420454
 20
0.209608
 30
0.000000
  0
VERTEX
  8
LAYER-1
 10
4.416113
 20
0.206136
 30
0.000000
  0
VERTEX
  8
LAYER-1
 10
4.416113
 20
0.201796
 30
0.000000
  0
VERTEX
  8
LAYER-1
 10
4.416981
 20
0.197455
 30
0.000000
  0
VERTEX
  8
LAYER-1
 10
4.421322
 20
0.194850
 30
0.000000
  0
SEQEND
  8
LAYER-1
  0
POLYLINE
  8
LAYER-1
 66
  1
 70
  1
 62
  0
 10
4.874008
 20
0.150580
 30
0.000000
  0
VERTEX
  8
LAYER-1
 10
4.874008
 20
0.150580
 30
0.000000
  0
VERTEX
  8
LAYER-1
 10
4.900049
 20
0.157524
 30
0.000000
  0
VERTEX
  8
LAYER-1
 10
4.886161
 20
0.182697
 30
0.000000
  0
SEQEND
  8
LAYER-1
  0
POLYLINE
  8
LAYER-1
 66
  1
 70
  1
 62
  0
 10
4.556303
 20
0.203531
 30
0.000000
  0
VERTEX
  8
LAYER-1
 10
4.556303
 20
0.203531
 30
0.000000
  0
VERTEX
  8
LAYER-1
 10
4.578872
 20
0.190510
 30
0.000000
  0
VERTEX
  8
LAYER-1
 10
4.558040
 20
0.220892
 30
0.000000
  0
SEQEND
  8
LAYER-1
  0
POLYLINE
  8
LAYER-1
 66
  1
 70
  1
 62
  0
 10
5.492932
 20
0.108910
 30
0.000000
  0
VERTEX
  8
LAYER-1
 10
5.492932
 20
0.108910
 30
0.000000
  0
VERTEX
  8
LAYER-1
 10
5.518106
 20
0.092417
 30
0.000000
  0
VERTEX
  8
LAYER-1
 10
5.525919
 20
0.107173
 30
0.000000
  0
SEQEND
  8
LAYER-1
  0
POLYLINE
  8
LAYER-1
 66
  1
 70
  0
 62
  0
 10
5.314113
 20
0.117592
 30
0.000000
  0
VERTEX
  8
LAYER-1
 10
5.314113
 20
0.117592
 30
0.000000
  0
VERTEX
  8
LAYER-1
 10
5.314113
 20
0.113252
 30
0.000000
  0
VERTEX
  8
LAYER-1
 10
5.318454
 20
0.109779
 30
0.000000
  0
VERTEX
  8
LAYER-1
 10
5.323661
 20
0.108912
 30
0.000000
  0
VERTEX
  8
LAYER-1
 10
5.328002
 20
0.110648
 30
0.000000
  0
VERTEX
  8
LAYER-1
 10
5.329738
 20
0.114989
 30
0.000000
  0
VERTEX
  8
LAYER-1
 10
5.329738
 20
0.119329
 30
0.000000
  0
VERTEX
  8
LAYER-1
 10
5.326266
 20
0.123668
 30
0.000000
  0
VERTEX
  8
LAYER-1
 10
5.321925
 20
0.123668
 30
0.000000
  0
VERTEX
  8
LAYER-1
 10
5.317585
 20
0.122801
 30
0.000000
  0
VERTEX
  8
LAYER-1
 10
5.314981
 20
0.118461
 30
0.000000
  0
SEQEND
  8
LAYER-1
  0
POLYLINE
  8
LAYER-1
 66
  1
 70
  1
 62
  0
 10
4.944321
 20
0.137558
 30
0.000000
  0
VERTEX
  8
LAYER-1
 10
4.944321
 20
0.137558
 30
0.000000
  0
VERTEX
  8
LAYER-1
 10
4.966891
 20
0.124537
 30
0.000000
  0
VERTEX
  8
LAYER-1
 10
4.946058
 20
0.154918
 30
0.000000
  0
SEQEND
  8
LAYER-1
  0
POLYLINE
  8
LAYER-1
 66
  1
 70
  1
 62
  0
 10
4.907329
 20
0.208572
 30
0.000000
  0
VERTEX
  8
LAYER-1
 10
4.907329
 20
0.208572
 30
0.000000
  0
VERTEX
  8
LAYER-1
 10
4.926694
 20
0.195886
 30
0.000000
  0
VERTEX
  8
LAYER-1
 10
4.932704
 20
0.207236
 30
0.000000
  0
SEQEND
  8
LAYER-1
  0
POLYLINE
  8
LAYER-1
 66
  1
 70
  0
 62
  0
 10
4.551964
 20
0.143636
 30
0.000000
  0
VERTEX
  8
LAYER-1
 10
4.551964
 20
0.143636
 30
0.000000
  0
VERTEX
  8
LAYER-1
 10
4.551964
 20
0.139297
 30
0.000000
  0
VERTEX
  8
LAYER-1
 10
4.556304
 20
0.135824
 30
0.000000
  0
VERTEX
  8
LAYER-1
 10
4.561512
 20
0.134956
 30
0.000000
  0
VERTEX
  8
LAYER-1
 10
4.565852
 20
0.136692
 30
0.000000
  0
VERTEX
  8
LAYER-1
 10
4.567588
 20
0.141033
 30
0.000000
  0
VERTEX
  8
LAYER-1
 10
4.567588
 20
0.145372
 30
0.000000
  0
VERTEX
  8
LAYER-1
 10
4.564116
 20
0.149712
 30
0.000000
  0
VERTEX
  8
LAYER-1
 10
4.559775
 20
0.149712
 30
0.000000
  0
VERTEX
  8
LAYER-1
 10
4.555435
 20
0.148845
 30
0.000000
  0
VERTEX
  8
LAYER-1
 10
4.552831
 20
0.144504
 30
0.000000
  0
SEQEND
  8
LAYER-1
  0
POLYLINE
  8
LAYER-1
 66
  1
 70
  0
 62
  0
 10
4.958209
 20
0.105441
 30
0.000000
  0
VERTEX
  8
LAYER-1
 10
4.958209
 20
0.105441
 30
0.000000
  0
VERTEX
  8
LAYER-1
 10
4.958209
 20
0.101100
 30
0.000000
  0
VERTEX
  8
LAYER-1
 10
4.962550
 20
0.097628
 30
0.000000
  0
VERTEX
  8
LAYER-1
 10
4.967758
 20
0.096759
 30
0.000000
  0
VERTEX
  8
LAYER-1
 10
4.972098
 20
0.098496
 30
0.000000
  0
VERTEX
  8
LAYER-1
 10
4.973834
 20
0.102836
 30
0.000000
  0
VERTEX
  8
LAYER-1
 10
4.973834
 20
0.107177
 30
0.000000
  0
VERTEX
  8
LAYER-1
 10
4.970362
 20
0.111517
 30
0.000000
  0
VERTEX
  8
LAYER-1
 10
4.966022
 20
0.111517
 30
0.000000
  0
VERTEX
  8
LAYER-1
 10
4.961681
 20
0.110648
 30
0.000000
  0
VERTEX
  8
LAYER-1
 10
4.959077
 20
0.106309
 30
0.000000
  0
SEQEND
  8
LAYER-1
  0
POLYLINE
  8
LAYER-1
 66
  1
 70
  0
 62
  0
 10
5.026786
 20
0.141031
 30
0.000000
  0
VERTEX
  8
LAYER-1
 10
5.026786
 20
0.141031
 30
0.000000
  0
VERTEX
  8
LAYER-1
 10
5.026786
 20
0.136691
 30
0.000000
  0
VERTEX
  8
LAYER-1
 10
5.031127
 20
0.133219
 30
0.000000
  0
VERTEX
  8
LAYER-1
 10
5.036334
 20
0.132350
 30
0.000000
  0
VERTEX
  8
LAYER-1
 10
5.040675
 20
0.134087
 30
0.000000
  0
VERTEX
  8
LAYER-1
 10
5.042411
 20
0.138427
 30
0.000000
  0
VERTEX
  8
LAYER-1
 10
5.042411
 20
0.142767
 30
0.000000
  0
VERTEX
  8
LAYER-1
 10
5.038939
 20
0.147108
 30
0.000000
  0
VERTEX
  8
LAYER-1
 10
5.034598
 20
0.147108
 30
0.000000
  0
VERTEX
  8
LAYER-1
 10
5.030258
 20
0.146239
 30
0.000000
  0
VERTEX
  8
LAYER-1
 10
5.027654
 20
0.141899
 30
0.000000
  0
SEQEND
  8
LAYER-1
  0
POLYLINE
  8
LAYER-1
 66
  1
 70
  1
 62
  0
 10
5.066197
 20
0.162298
 30
0.000000
  0
VERTEX
  8
LAYER-1
 10
5.066197
 20
0.162298
 30
0.000000
  0
VERTEX
  8
LAYER-1
 10
5.073141
 20
0.136258
 30
0.000000
  0
VERTEX
  8
LAYER-1
 10
5.098315
 20
0.150146
 30
0.000000
  0
SEQEND
  8
LAYER-1
  0
POLYLINE
  8
LAYER-1
 66
  1
 70
  1
 62
  0
 10
5.227742
 20
0.190945
 30
0.000000
  0
VERTEX
  8
LAYER-1
 10
5.227742
 20
0.190945
 30
0.000000
  0
VERTEX
  8
LAYER-1
 10
5.214721
 20
0.168375
 30
0.000000
  0
VERTEX
  8
LAYER-1
 10
5.245103
 20
0.189207
 30
0.000000
  0
SEQEND
  8
LAYER-1
  0
POLYLINE
  8
LAYER-1
 66
  1
 70
  1
 62
  0
 10
5.620102
 20
0.161427
 30
0.000000
  0
VERTEX
  8
LAYER-1
 10
5.620102
 20
0.161427
 30
0.000000
  0
VERTEX
  8
LAYER-1
 10
5.603609
 20
0.136253
 30
0.000000
  0
VERTEX
  8
LAYER-1
 10
5.618367
 20
0.128441
 30
0.000000
  0
SEQEND
  8
LAYER-1
  0
POLYLINE
  8
LAYER-1
 66
  1
 70
  0
 62
  0
 10
5.015936
 20
0.193548
 30
0.000000
  0
VERTEX
  8
LAYER-1
 10
5.015936
 20
0.193548
 30
0.000000
  0
VERTEX
  8
LAYER-1
 10
5.011595
 20
0.193548
 30
0.000000
  0
VERTEX
  8
LAYER-1
 10
5.008124
 20
0.189207
 30
0.000000
  0
VERTEX
  8
LAYER-1
 10
5.007256
 20
0.183999
 30
0.000000
  0
VERTEX
  8
LAYER-1
 10
5.008992
 20
0.179659
 30
0.000000
  0
VERTEX
  8
LAYER-1
 10
5.013332
 20
0.177923
 30
0.000000
  0
VERTEX
  8
LAYER-1
 10
5.017672
 20
0.177923
 30
0.000000
  0
VERTEX
  8
LAYER-1
 10
5.022012
 20
0.181395
 30
0.000000
  0
VERTEX
  8
LAYER-1
 10
5.022012
 20
0.185735
 30
0.000000
  0
VERTEX
  8
LAYER-1
 10
5.021145
 20
0.190076
 30
0.000000
  0
VERTEX
  8
LAYER-1
 10
5.016804
 20
0.192680
 30
0.000000
  0
SEQEND
  8
LAYER-1
  0
POLYLINE
  8
LAYER-1
 66
  1
 70
  1
 62
  0
 10
5.079305
 20
0.117160
 30
0.000000
  0
VERTEX
  8
LAYER-1
 10
5.079305
 20
0.117160
 30
0.000000
  0
VERTEX
  8
LAYER-1
 10
5.066284
 20
0.094589
 30
0.000000
  0
VERTEX
  8
LAYER-1
 10
5.096666
 20
0.115422
 30
0.000000
  0
SEQEND
  8
LAYER-1
  0
POLYLINE
  8
LAYER-1
 66
  1
 70
  1
 62
  0
 10
5.148048
 20
0.094922
 30
0.000000
  0
VERTEX
  8
LAYER-1
 10
5.148048
 20
0.094922
 30
0.000000
  0
VERTEX
  8
LAYER-1
 10
5.160736
 20
0.114286
 30
0.000000
  0
VERTEX
  8
LAYER-1
 10
5.149384
 20
0.120297
 30
0.000000
  0
SEQEND
  8
LAYER-1
  0
POLYLINE
  8
LAYER-1
 66
  1
 70
  0
 62
  0
 10
5.167846
 20
0.195284
 30
0.000000
  0
VERTEX
  8
LAYER-1
 10
5.167846
 20
0.195284
 30
0.000000
  0
VERTEX
  8
LAYER-1
 10
5.163506
 20
0.195284
 30
0.000000
  0
VERTEX
  8
LAYER-1
 10
5.160033
 20
0.190943
 30
0.000000
  0
VERTEX
  8
LAYER-1
 10
5.159165
 20
0.185735
 30
0.000000
  0
VERTEX
  8
LAYER-1
 10
5.160901
 20
0.181395
 30
0.000000
  0
VERTEX
  8
LAYER-1
 10
5.165242
 20
0.179659
 30
0.000000
  0
VERTEX
  8
LAYER-1
 10
5.169583
 20
0.179659
 30
0.000000
  0
VERTEX
  8
LAYER-1
 10
5.173922
 20
0.183130
 30
0.000000
  0
VERTEX
  8
LAYER-1
 10
5.173922
 20
0.187471
 30
0.000000
  0
VERTEX
  8
LAYER-1
 10
5.173055
 20
0.191811
 30
0.000000
  0
VERTEX
  8
LAYER-1
 10
5.168714
 20
0.194416
 30
0.000000
  0
SEQEND
  8
LAYER-1
  0
POLYLINE
  8
LAYER-1
 66
  1
 70
  0
 62
  0
 10
5.672186
 20
0.155351
 30
0.000000
  0
VERTEX
  8
LAYER-1
 10
5.672186
 20
0.155351
 30
0.000000
  0
VERTEX
  8
LAYER-1
 10
5.667845
 20
0.155351
 30
0.000000
  0
VERTEX
  8
LAYER-1
 10
5.664373
 20
0.151009
 30
0.000000
  0
VERTEX
  8
LAYER-1
 10
5.663505
 20
0.145802
 30
0.000000
  0
VERTEX
  8
LAYER-1
 10
5.665241
 20
0.141461
 30
0.000000
  0
VERTEX
  8
LAYER-1
 10
5.669582
 20
0.139726
 30
0.000000
  0
VERTEX
  8
LAYER-1
 10
5.673921
 20
0.139726
 30
0.000000
  0
VERTEX
  8
LAYER-1
 10
5.678262
 20
0.143197
 30
0.000000
  0
VERTEX
  8
LAYER-1
 10
5.678262
 20
0.147538
 30
0.000000
  0
VERTEX
  8
LAYER-1
 10
5.677394
 20
0.151878
 30
0.000000
  0
VERTEX
  8
LAYER-1
 10
5.673054
 20
0.154483
 30
0.000000
  0
SEQEND
  8
LAYER-1
  0
POLYLINE
  8
LAYER-1
 66
  1
 70
  0
 62
  0
 10
5.581041
 20
0.123233
 30
0.000000
  0
VERTEX
  8
LAYER-1
 10
5.581041
 20
0.123233
 30
0.000000
  0
VERTEX
  8
LAYER-1
 10
5.576700
 20
0.123233
 30
0.000000
  0
VERTEX
  8
LAYER-1
 10
5.573228
 20
0.118891
 30
0.000000
  0
VERTEX
  8
LAYER-1
 10
5.572361
 20
0.113684
 30
0.000000
  0
VERTEX
  8
LAYER-1
 10
5.574096
 20
0.109343
 30
0.000000
  0
VERTEX
  8
LAYER-1
 10
5.578437
 20
0.107608
 30
0.000000
  0
VERTEX
  8
LAYER-1
 10
5.582777
 20
0.107608
 30
0.000000
  0
VERTEX
  8
LAYER-1
 10
5.587118
 20
0.111079
 30
0.000000
  0
VERTEX
  8
LAYER-1
 10
5.587118
 20
0.115420
 30
0.000000
  0
VERTEX
  8
LAYER-1
 10
5.586249
 20
0.119760
 30
0.000000
  0
VERTEX
  8
LAYER-1
 10
5.581909
 20
0.122365
 30
0.000000
  0
SEQEND
  8
LAYER-1
  0
POLYLINE
  8
LAYER-1
 66
  1
 70
  1
 62
  0
 10
5.265937
 20
0.177490
 30
0.000000
  0
VERTEX
  8
LAYER-1
 10
5.265937
 20
0.177490
 30
0.000000
  0
VERTEX
  8
LAYER-1
 10
5.291977
 20
0.184435
 30
0.000000
  0
VERTEX
  8
LAYER-1
 10
5.278090
 20
0.209608
 30
0.000000
  0
SEQEND
  8
LAYER-1
  0
POLYLINE
  8
LAYER-1
 66
  1
 70
  0
 62
  0
 10
5.234687
 20
0.128011
 30
0.000000
  0
VERTEX
  8
LAYER-1
 10
5.234687
 20
0.128011
 30
0.000000
  0
VERTEX
  8
LAYER-1
 10
5.234687
 20
0.123672
 30
0.000000
  0
VERTEX
  8
LAYER-1
 10
5.239027
 20
0.120199
 30
0.000000
  0
VERTEX
  8
LAYER-1
 10
5.244235
 20
0.119331
 30
0.000000
  0
VERTEX
  8
LAYER-1
 10
5.248576
 20
0.121067
 30
0.000000
  0
VERTEX
  8
LAYER-1
 10
5.250312
 20
0.125408
 30
0.000000
  0
VERTEX
  8
LAYER-1
 10
5.250312
 20
0.129748
 30
0.000000
  0
VERTEX
  8
LAYER-1
 10
5.246840
 20
0.134087
 30
0.000000
  0
VERTEX
  8
LAYER-1
 10
5.242499
 20
0.134087
 30
0.000000
  0
VERTEX
  8
LAYER-1
 10
5.238158
 20
0.133220
 30
0.000000
  0
VERTEX
  8
LAYER-1
 10
5.235553
 20
0.128880
 30
0.000000
  0
SEQEND
  8
LAYER-1
  0
POLYLINE
  8
LAYER-1
 66
  1
 70
  1
 62
  0
 10
5.329739
 20
0.141466
 30
0.000000
  0
VERTEX
  8
LAYER-1
 10
5.329739
 20
0.141466
 30
0.000000
  0
VERTEX
  8
LAYER-1
 10
5.342759
 20
0.164036
 30
0.000000
  0
VERTEX
  8
LAYER-1
 10
5.312378
 20
0.143204
 30
0.000000
  0
SEQEND
  8
LAYER-1
  0
POLYLINE
  8
LAYER-1
 66
  1
 70
  0
 62
  0
 10
5.384860
 20
0.175754
 30
0.000000
  0
VERTEX
  8
LAYER-1
 10
5.384860
 20
0.175754
 30
0.000000
  0
VERTEX
  8
LAYER-1
 10
5.384860
 20
0.171415
 30
0.000000
  0
VERTEX
  8
LAYER-1
 10
5.389201
 20
0.167942
 30
0.000000
  0
VERTEX
  8
LAYER-1
 10
5.394408
 20
0.167074
 30
0.000000
  0
VERTEX
  8
LAYER-1
 10
5.398749
 20
0.168811
 30
0.000000
  0
VERTEX
  8
LAYER-1
 10
5.400485
 20
0.173150
 30
0.000000
  0
VERTEX
  8
LAYER-1
 10
5.400485
 20
0.177490
 30
0.000000
  0
VERTEX
  8
LAYER-1
 10
5.397013
 20
0.181831
 30
0.000000
  0
VERTEX
  8
LAYER-1
 10
5.392673
 20
0.181831
 30
0.000000
  0
VERTEX
  8
LAYER-1
 10
5.388332
 20
0.180962
 30
0.000000
  0
VERTEX
  8
LAYER-1
 10
5.385727
 20
0.176622
 30
0.000000
  0
SEQEND
  8
LAYER-1
  0
POLYLINE
  8
LAYER-1
 66
  1
 70
  1
 62
  0
 10
6.130783
 20
0.192159
 30
0.000000
  0
VERTEX
  8
LAYER-1
 10
6.130783
 20
0.192159
 30
0.000000
  0
VERTEX
  8
LAYER-1
 10
6.123838
 20
0.218200
 30
0.000000
  0
VERTEX
  8
LAYER-1
 10
6.098665
 20
0.204312
 30
0.000000
  0
SEQEND
  8
LAYER-1
  0
POLYLINE
  8
LAYER-1
 66
  1
 70
  0
 62
  0
 10
6.171322
 20
0.065943
 30
0.000000
  0
VERTEX
  8
LAYER-1
 10
6.171322
 20
0.065943
 30
0.000000
  0
VERTEX
  8
LAYER-1
 10
6.175662
 20
0.065943
 30
0.000000
  0
VERTEX
  8
LAYER-1
 10
6.179134
 20
0.070285
 30
0.000000
  0
VERTEX
  8
LAYER-1
 10
6.180002
 20
0.075492
 30
0.000000
  0
VERTEX
  8
LAYER-1
 10
6.178265
 20
0.079833
 30
0.000000
  0
VERTEX
  8
LAYER-1
 10
6.173926
 20
0.081568
 30
0.000000
  0
VERTEX
  8
LAYER-1
 10
6.169585
 20
0.081568
 30
0.000000
  0
VERTEX
  8
LAYER-1
 10
6.165245
 20
0.078097
 30
0.000000
  0
VERTEX
  8
LAYER-1
 10
6.165245
 20
0.073756
 30
0.000000
  0
VERTEX
  8
LAYER-1
 10
6.166114
 20
0.069416
 30
0.000000
  0
VERTEX
  8
LAYER-1
 10
6.170453
 20
0.066811
 30
0.000000
  0
SEQEND
  8
LAYER-1
  0
POLYLINE
  8
LAYER-1
 66
  1
 70
  1
 62
  0
 10
5.467759
 20
0.098930
 30
0.000000
  0
VERTEX
  8
LAYER-1
 10
5.467759
 20
0.098930
 30
0.000000
  0
VERTEX
  8
LAYER-1
 10
5.480779
 20
0.121500
 30
0.000000
  0
VERTEX
  8
LAYER-1
 10
5.450398
 20
0.100667
 30
0.000000
  0
SEQEND
  8
LAYER-1
  0
POLYLINE
  8
LAYER-1
 66
  1
 70
  0
 62
  0
 10
5.511511
 20
0.177263
 30
0.000000
  0
VERTEX
  8
LAYER-1
 10
5.511511
 20
0.177263
 30
0.000000
  0
VERTEX
  8
LAYER-1
 10
5.515851
 20
0.177263
 30
0.000000
  0
VERTEX
  8
LAYER-1
 10
5.519323
 20
0.181604
 30
0.000000
  0
VERTEX
  8
LAYER-1
 10
5.520192
 20
0.186812
 30
0.000000
  0
VERTEX
  8
LAYER-1
 10
5.518456
 20
0.191152
 30
0.000000
  0
VERTEX
  8
LAYER-1
 10
5.514116
 20
0.192888
 30
0.000000
  0
VERTEX
  8
LAYER-1
 10
5.509775
 20
0.192888
 30
0.000000
  0
VERTEX
  8
LAYER-1
 10
5.505434
 20
0.189417
 30
0.000000
  0
VERTEX
  8
LAYER-1
 10
5.505434
 20
0.185076
 30
0.000000
  0
VERTEX
  8
LAYER-1
 10
5.506303
 20
0.180735
 30
0.000000
  0
VERTEX
  8
LAYER-1
 10
5.510643
 20
0.178131
 30
0.000000
  0
SEQEND
  8
LAYER-1
  0
POLYLINE
  8
LAYER-1
 66
  1
 70
  1
 62
  0
 10
6.051097
 20
0.108047
 30
0.000000
  0
VERTEX
  8
LAYER-1
 10
6.051097
 20
0.108047
 30
0.000000
  0
VERTEX
  8
LAYER-1
 10
6.025055
 20
0.101101
 30
0.000000
  0
VERTEX
  8
LAYER-1
 10
6.038943
 20
0.075928
 30
0.000000
  0
SEQEND
  8
LAYER-1
  0
POLYLINE
  8
LAYER-1
 66
  1
 70
  0
 62
  0
 10
5.416110
 20
0.122804
 30
0.000000
  0
VERTEX
  8
LAYER-1
 10
5.416110
 20
0.122804
 30
0.000000
  0
VERTEX
  8
LAYER-1
 10
5.416110
 20
0.127143
 30
0.000000
  0
VERTEX
  8
LAYER-1
 10
5.411769
 20
0.130617
 30
0.000000
  0
VERTEX
  8
LAYER-1
 10
5.406562
 20
0.131484
 30
0.000000
  0
VERTEX
  8
LAYER-1
 10
5.402221
 20
0.129748
 30
0.000000
  0
VERTEX
  8
LAYER-1
 10
5.400485
 20
0.125408
 30
0.000000
  0
VERTEX
  8
LAYER-1
 10
5.400485
 20
0.121067
 30
0.000000
  0
VERTEX
  8
LAYER-1
 10
5.403957
 20
0.116728
 30
0.000000
  0
VERTEX
  8
LAYER-1
 10
5.408298
 20
0.116728
 30
0.000000
  0
VERTEX
  8
LAYER-1
 10
5.412638
 20
0.117595
 30
0.000000
  0
VERTEX
  8
LAYER-1
 10
5.415242
 20
0.121936
 30
0.000000
  0
SEQEND
  8
LAYER-1
  0
POLYLINE
  8
LAYER-1
 66
  1
 70
  1
 62
  0
 10
5.999881
 20
0.097630
 30
0.000000
  0
VERTEX
  8
LAYER-1
 10
5.999881
 20
0.097630
 30
0.000000
  0
VERTEX
  8
LAYER-1
 10
5.972103
 20
0.114122
 30
0.000000
  0
VERTEX
  8
LAYER-1
 10
5.992936
 20
0.083741
 30
0.000000
  0
SEQEND
  8
LAYER-1
  0
POLYLINE
  8
LAYER-1
 66
  1
 70
  0
 62
  0
 10
5.710380
 20
0.179222
 30
0.000000
  0
VERTEX
  8
LAYER-1
 10
5.710380
 20
0.179222
 30
0.000000
  0
VERTEX
  8
LAYER-1
 10
5.710380
 20
0.183563
 30
0.000000
  0
VERTEX
  8
LAYER-1
 10
5.706039
 20
0.187035
 30
0.000000
  0
VERTEX
  8
LAYER-1
 10
5.700832
 20
0.187904
 30
0.000000
  0
VERTEX
  8
LAYER-1
 10
5.696491
 20
0.186166
 30
0.000000
  0
VERTEX
  8
LAYER-1
 10
5.694755
 20
0.181827
 30
0.000000
  0
VERTEX
  8
LAYER-1
 10
5.694755
 20
0.177486
 30
0.000000
  0
VERTEX
  8
LAYER-1
 10
5.698227
 20
0.173147
 30
0.000000
  0
VERTEX
  8
LAYER-1
 10
5.702568
 20
0.173147
 30
0.000000
  0
VERTEX
  8
LAYER-1
 10
5.706908
 20
0.174015
 30
0.000000
  0
VERTEX
  8
LAYER-1
 10
5.709512
 20
0.178353
 30
0.000000
  0
SEQEND
  8
LAYER-1
  0
POLYLINE
  8
LAYER-1
 66
  1
 70
  1
 62
  0
 10
6.281044
 20
0.085737
 30
0.000000
  0
VERTEX
  8
LAYER-1
 10
6.281044
 20
0.085737
 30
0.000000
  0
VERTEX
  8
LAYER-1
 10
6.274098
 20
0.111779
 30
0.000000
  0
VERTEX
  8
LAYER-1
 10
6.248925
 20
0.097890
 30
0.000000
  0
SEQEND
  8
LAYER-1
  0
POLYLINE
  8
LAYER-1
 66
  1
 70
  0
 62
  0
 10
6.370888
 20
0.185996
 30
0.000000
  0
VERTEX
  8
LAYER-1
 10
6.370888
 20
0.185996
 30
0.000000
  0
VERTEX
  8
LAYER-1
 10
6.375229
 20
0.185996
 30
0.000000
  0
VERTEX
  8
LAYER-1
 10
6.378701
 20
0.190337
 30
0.000000
  0
VERTEX
  8
LAYER-1
 10
6.379568
 20
0.195545
 30
0.000000
  0
VERTEX
  8
LAYER-1
 10
6.377832
 20
0.199886
 30
0.000000
  0
VERTEX
  8
LAYER-1
 10
6.373493
 20
0.201621
 30
0.000000
  0
VERTEX
  8
LAYER-1
 10
6.369152
 20
0.201621
 30
0.000000
  0
VERTEX
  8
LAYER-1
 10
6.364812
 20
0.198150
 30
0.000000
  0
VERTEX
  8
LAYER-1
 10
6.364812
 20
0.193809
 30
0.000000
  0
VERTEX
  8
LAYER-1
 10
6.365681
 20
0.189468
 30
0.000000
  0
VERTEX
  8
LAYER-1
 10
6.370019
 20
0.186864
 30
0.000000
  0
SEQEND
  8
LAYER-1
  0
POLYLINE
  8
LAYER-1
 66
  1
 70
  1
 62
  0
 10
6.356130
 20
0.221152
 30
0.000000
  0
VERTEX
  8
LAYER-1
 10
6.356130
 20
0.221152
 30
0.000000
  0
VERTEX
  8
LAYER-1
 10
6.330088
 20
0.214208
 30
0.000000
  0
VERTEX
  8
LAYER-1
 10
6.343977
 20
0.189035
 30
0.000000
  0
SEQEND
  8
LAYER-1
  0
POLYLINE
  8
LAYER-1
 66
  1
 70
  1
 62
  0
 10
5.604912
 20
0.079837
 30
0.000000
  0
VERTEX
  8
LAYER-1
 10
5.604912
 20
0.079837
 30
0.000000
  0
VERTEX
  8
LAYER-1
 10
5.617932
 20
0.102406
 30
0.000000
  0
VERTEX
  8
LAYER-1
 10
5.587551
 20
0.081573
 30
0.000000
  0
SEQEND
  8
LAYER-1
  0
POLYLINE
  8
LAYER-1
 66
  1
 70
  0
 62
  0
 10
5.601439
 20
0.186605
 30
0.000000
  0
VERTEX
  8
LAYER-1
 10
5.601439
 20
0.186605
 30
0.000000
  0
VERTEX
  8
LAYER-1
 10
5.605780
 20
0.186605
 30
0.000000
  0
VERTEX
  8
LAYER-1
 10
5.609252
 20
0.190946
 30
0.000000
  0
VERTEX
  8
LAYER-1
 10
5.610121
 20
0.196153
 30
0.000000
  0
VERTEX
  8
LAYER-1
 10
5.608384
 20
0.200494
 30
0.000000
  0
VERTEX
  8
LAYER-1
 10
5.604044
 20
0.202230
 30
0.000000
  0
VERTEX
  8
LAYER-1
 10
5.599703
 20
0.202230
 30
0.000000
  0
VERTEX
  8
LAYER-1
 10
5.595362
 20
0.198758
 30
0.000000
  0
VERTEX
  8
LAYER-1
 10
5.595362
 20
0.194417
 30
0.000000
  0
VERTEX
  8
LAYER-1
 10
5.596231
 20
0.190077
 30
0.000000
  0
VERTEX
  8
LAYER-1
 10
5.600572
 20
0.187473
 30
0.000000
  0
SEQEND
  8
LAYER-1
  0
POLYLINE
  8
LAYER-1
 66
  1
 70
  1
 62
  0
 10
5.554130
 20
0.165337
 30
0.000000
  0
VERTEX
  8
LAYER-1
 10
5.554130
 20
0.165337
 30
0.000000
  0
VERTEX
  8
LAYER-1
 10
5.579305
 20
0.148844
 30
0.000000
  0
VERTEX
  8
LAYER-1
 10
5.587118
 20
0.163601
 30
0.000000
  0
SEQEND
  8
LAYER-1
  0
POLYLINE
  8
LAYER-1
 66
  1
 70
  1
 62
  0
 10
5.540777
 20
0.137725
 30
0.000000
  0
VERTEX
  8
LAYER-1
 10
5.540777
 20
0.137725
 30
0.000000
  0
VERTEX
  8
LAYER-1
 10
5.521413
 20
0.150413
 30
0.000000
  0
VERTEX
  8
LAYER-1
 10
5.515402
 20
0.139061
 30
0.000000
  0
SEQEND
  8
LAYER-1
  0
POLYLINE
  8
LAYER-1
 66
  1
 70
  1
 62
  0
 10
1.318021
 20
0.196586
 30
0.000000
  0
VERTEX
  8
LAYER-1
 10
1.318021
 20
0.196586
 30
0.000000
  0
VERTEX
  8
LAYER-1
 10
1.305000
 20
0.174016
 30
0.000000
  0
VERTEX
  8
LAYER-1
 10
1.335382
 20
0.194849
 30
0.000000
  0
SEQEND
  8
LAYER-1
  0
POLYLINE
  8
LAYER-1
 66
  1
 70
  1
 62
  0
 10
5.867501
 20
0.123672
 30
0.000000
  0
VERTEX
  8
LAYER-1
 10
5.867501
 20
0.123672
 30
0.000000
  0
VERTEX
  8
LAYER-1
 10
5.890071
 20
0.110652
 30
0.000000
  0
VERTEX
  8
LAYER-1
 10
5.869238
 20
0.141034
 30
0.000000
  0
SEQEND
  8
LAYER-1
  0
POLYLINE
  8
LAYER-1
 66
  1
 70
  0
 62
  0
 10
5.795453
 20
0.170545
 30
0.000000
  0
VERTEX
  8
LAYER-1
 10
5.795453
 20
0.170545
 30
0.000000
  0
VERTEX
  8
LAYER-1
 10
5.795453
 20
0.166204
 30
0.000000
  0
VERTEX
  8
LAYER-1
 10
5.799793
 20
0.162732
 30
0.000000
  0
VERTEX
  8
LAYER-1
 10
5.805001
 20
0.161864
 30
0.000000
  0
VERTEX
  8
LAYER-1
 10
5.809342
 20
0.163600
 30
0.000000
  0
VERTEX
  8
LAYER-1
 10
5.811078
 20
0.167941
 30
0.000000
  0
VERTEX
  8
LAYER-1
 10
5.811078
 20
0.172280
 30
0.000000
  0
VERTEX
  8
LAYER-1
 10
5.807606
 20
0.176620
 30
0.000000
  0
VERTEX
  8
LAYER-1
 10
5.803265
 20
0.176620
 30
0.000000
  0
VERTEX
  8
LAYER-1
 10
5.798924
 20
0.175752
 30
0.000000
  0
VERTEX
  8
LAYER-1
 10
5.796321
 20
0.171412
 30
0.000000
  0
SEQEND
  8
LAYER-1
  0
POLYLINE
  8
LAYER-1
 66
  1
 70
  1
 62
  0
 10
5.745105
 20
0.181830
 30
0.000000
  0
VERTEX
  8
LAYER-1
 10
5.745105
 20
0.181830
 30
0.000000
  0
VERTEX
  8
LAYER-1
 10
5.767674
 20
0.168810
 30
0.000000
  0
VERTEX
  8
LAYER-1
 10
5.746842
 20
0.199191
 30
0.000000
  0
SEQEND
  8
LAYER-1
  0
POLYLINE
  8
LAYER-1
 66
  1
 70
  0
 62
  0
 10
6.007258
 20
0.123672
 30
0.000000
  0
VERTEX
  8
LAYER-1
 10
6.007258
 20
0.123672
 30
0.000000
  0
VERTEX
  8
LAYER-1
 10
6.007258
 20
0.119331
 30
0.000000
  0
VERTEX
  8
LAYER-1
 10
6.011599
 20
0.115860
 30
0.000000
  0
VERTEX
  8
LAYER-1
 10
6.016806
 20
0.114992
 30
0.000000
  0
VERTEX
  8
LAYER-1
 10
6.021147
 20
0.116728
 30
0.000000
  0
VERTEX
  8
LAYER-1
 10
6.022883
 20
0.121067
 30
0.000000
  0
VERTEX
  8
LAYER-1
 10
6.022883
 20
0.125409
 30
0.000000
  0
VERTEX
  8
LAYER-1
 10
6.019411
 20
0.129749
 30
0.000000
  0
VERTEX
  8
LAYER-1
 10
6.015071
 20
0.129749
 30
0.000000
  0
VERTEX
  8
LAYER-1
 10
6.010730
 20
0.128880
 30
0.000000
  0
VERTEX
  8
LAYER-1
 10
6.008126
 20
0.124541
 30
0.000000
  0
SEQEND
  8
LAYER-1
  0
POLYLINE
  8
LAYER-1
 66
  1
 70
  0
 62
  0
 10
5.841459
 20
0.178359
 30
0.000000
  0
VERTEX
  8
LAYER-1
 10
5.841459
 20
0.178359
 30
0.000000
  0
VERTEX
  8
LAYER-1
 10
5.841459
 20
0.174018
 30
0.000000
  0
VERTEX
  8
LAYER-1
 10
5.845800
 20
0.170547
 30
0.000000
  0
VERTEX
  8
LAYER-1
 10
5.851008
 20
0.169679
 30
0.000000
  0
VERTEX
  8
LAYER-1
 10
5.855349
 20
0.171416
 30
0.000000
  0
VERTEX
  8
LAYER-1
 10
5.857084
 20
0.175754
 30
0.000000
  0
VERTEX
  8
LAYER-1
 10
5.857084
 20
0.180095
 30
0.000000
  0
VERTEX
  8
LAYER-1
 10
5.853613
 20
0.184436
 30
0.000000
  0
VERTEX
  8
LAYER-1
 10
5.849272
 20
0.184436
 30
0.000000
  0
VERTEX
  8
LAYER-1
 10
5.844931
 20
0.183567
 30
0.000000
  0
VERTEX
  8
LAYER-1
 10
5.842327
 20
0.179227
 30
0.000000
  0
SEQEND
  8
LAYER-1
  0
POLYLINE
  8
LAYER-1
 66
  1
 70
  1
 62
  0
 10
5.765940
 20
0.113690
 30
0.000000
  0
VERTEX
  8
LAYER-1
 10
5.765940
 20
0.113690
 30
0.000000
  0
VERTEX
  8
LAYER-1
 10
5.752918
 20
0.091119
 30
0.000000
  0
VERTEX
  8
LAYER-1
 10
5.783300
 20
0.111952
 30
0.000000
  0
SEQEND
  8
LAYER-1
  0
POLYLINE
  8
LAYER-1
 66
  1
 70
  0
 62
  0
 10
5.692239
 20
0.105824
 30
0.000000
  0
VERTEX
  8
LAYER-1
 10
5.692239
 20
0.105824
 30
0.000000
  0
VERTEX
  8
LAYER-1
 10
5.687899
 20
0.105824
 30
0.000000
  0
VERTEX
  8
LAYER-1
 10
5.684426
 20
0.101484
 30
0.000000
  0
VERTEX
  8
LAYER-1
 10
5.683558
 20
0.096276
 30
0.000000
  0
VERTEX
  8
LAYER-1
 10
5.685294
 20
0.091935
 30
0.000000
  0
VERTEX
  8
LAYER-1
 10
5.689635
 20
0.090199
 30
0.000000
  0
VERTEX
  8
LAYER-1
 10
5.693976
 20
0.090199
 30
0.000000
  0
VERTEX
  8
LAYER-1
 10
5.698316
 20
0.093671
 30
0.000000
  0
VERTEX
  8
LAYER-1
 10
5.698316
 20
0.098011
 30
0.000000
  0
VERTEX
  8
LAYER-1
 10
5.697447
 20
0.102353
 30
0.000000
  0
VERTEX
  8
LAYER-1
 10
5.693107
 20
0.104958
 30
0.000000
  0
SEQEND
  8
LAYER-1
  0
POLYLINE
  8
LAYER-1
 66
  1
 70
  0
 62
  0
 10
5.765940
 20
0.144070
 30
0.000000
  0
VERTEX
  8
LAYER-1
 10
5.765940
 20
0.144070
 30
0.000000
  0
VERTEX
  8
LAYER-1
 10
5.761599
 20
0.144070
 30
0.000000
  0
VERTEX
  8
LAYER-1
 10
5.758127
 20
0.139729
 30
0.000000
  0
VERTEX
  8
LAYER-1
 10
5.757259
 20
0.134521
 30
0.000000
  0
VERTEX
  8
LAYER-1
 10
5.758995
 20
0.130180
 30
0.000000
  0
VERTEX
  8
LAYER-1
 10
5.763336
 20
0.128445
 30
0.000000
  0
VERTEX
  8
LAYER-1
 10
5.767675
 20
0.128445
 30
0.000000
  0
VERTEX
  8
LAYER-1
 10
5.772016
 20
0.131916
 30
0.000000
  0
VERTEX
  8
LAYER-1
 10
5.772016
 20
0.136258
 30
0.000000
  0
VERTEX
  8
LAYER-1
 10
5.771148
 20
0.140598
 30
0.000000
  0
VERTEX
  8
LAYER-1
 10
5.766808
 20
0.143203
 30
0.000000
  0
SEQEND
  8
LAYER-1
  0
POLYLINE
  8
LAYER-1
 66
  1
 70
  1
 62
  0
 10
6.073231
 20
0.160564
 30
0.000000
  0
VERTEX
  8
LAYER-1
 10
6.073231
 20
0.160564
 30
0.000000
  0
VERTEX
  8
LAYER-1
 10
6.080175
 20
0.134522
 30
0.000000
  0
VERTEX
  8
LAYER-1
 10
6.105349
 20
0.148410
 30
0.000000
  0
SEQEND
  8
LAYER-1
  0
POLYLINE
  8
LAYER-1
 66
  1
 70
  1
 62
  0
 10
6.235557
 20
0.189209
 30
0.000000
  0
VERTEX
  8
LAYER-1
 10
6.235557
 20
0.189209
 30
0.000000
  0
VERTEX
  8
LAYER-1
 10
6.222536
 20
0.166640
 30
0.000000
  0
VERTEX
  8
LAYER-1
 10
6.252918
 20
0.187472
 30
0.000000
  0
SEQEND
  8
LAYER-1
  0
POLYLINE
  8
LAYER-1
 66
  1
 70
  0
 62
  0
 10
6.023752
 20
0.191812
 30
0.000000
  0
VERTEX
  8
LAYER-1
 10
6.023752
 20
0.191812
 30
0.000000
  0
VERTEX
  8
LAYER-1
 10
6.019411
 20
0.191812
 30
0.000000
  0
VERTEX
  8
LAYER-1
 10
6.015940
 20
0.187472
 30
0.000000
  0
VERTEX
  8
LAYER-1
 10
6.015071
 20
0.182265
 30
0.000000
  0
VERTEX
  8
LAYER-1
 10
6.016808
 20
0.177923
 30
0.000000
  0
VERTEX
  8
LAYER-1
 10
6.021147
 20
0.176187
 30
0.000000
  0
VERTEX
  8
LAYER-1
 10
6.025488
 20
0.176187
 30
0.000000
  0
VERTEX
  8
LAYER-1
 10
6.029828
 20
0.179660
 30
0.000000
  0
VERTEX
  8
LAYER-1
 10
6.029828
 20
0.184000
 30
0.000000
  0
VERTEX
  8
LAYER-1
 10
6.028959
 20
0.188341
 30
0.000000
  0
VERTEX
  8
LAYER-1
 10
6.024620
 20
0.190945
 30
0.000000
  0
SEQEND
  8
LAYER-1
  0
POLYLINE
  8
LAYER-1
 66
  1
 70
  1
 62
  0
 10
6.133996
 20
0.124105
 30
0.000000
  0
VERTEX
  8
LAYER-1
 10
6.133996
 20
0.124105
 30
0.000000
  0
VERTEX
  8
LAYER-1
 10
6.120975
 20
0.101535
 30
0.000000
  0
VERTEX
  8
LAYER-1
 10
6.151357
 20
0.122368
 30
0.000000
  0
SEQEND
  8
LAYER-1
  0
POLYLINE
  8
LAYER-1
 66
  1
 70
  0
 62
  0
 10
6.175661
 20
0.193548
 30
0.000000
  0
VERTEX
  8
LAYER-1
 10
6.175661
 20
0.193548
 30
0.000000
  0
VERTEX
  8
LAYER-1
 10
6.171320
 20
0.193548
 30
0.000000
  0
VERTEX
  8
LAYER-1
 10
6.167848
 20
0.189208
 30
0.000000
  0
VERTEX
  8
LAYER-1
 10
6.166980
 20
0.184000
 30
0.000000
  0
VERTEX
  8
LAYER-1
 10
6.168716
 20
0.179660
 30
0.000000
  0
VERTEX
  8
LAYER-1
 10
6.173057
 20
0.177923
 30
0.000000
  0
VERTEX
  8
LAYER-1
 10
6.177397
 20
0.177923
 30
0.000000
  0
VERTEX
  8
LAYER-1
 10
6.181737
 20
0.181396
 30
0.000000
  0
VERTEX
  8
LAYER-1
 10
6.181737
 20
0.185736
 30
0.000000
  0
VERTEX
  8
LAYER-1
 10
6.180870
 20
0.190077
 30
0.000000
  0
VERTEX
  8
LAYER-1
 10
6.176529
 20
0.192680
 30
0.000000
  0
SEQEND
  8
LAYER-1
  0
POLYLINE
  8
LAYER-1
 66
  1
 70
  1
 62
  0
 10
6.515070
 20
0.184868
 30
0.000000
  0
VERTEX
  8
LAYER-1
 10
6.515070
 20
0.184868
 30
0.000000
  0
VERTEX
  8
LAYER-1
 10
6.522015
 20
0.158829
 30
0.000000
  0
VERTEX
  8
LAYER-1
 10
6.547188
 20
0.172716
 30
0.000000
  0
SEQEND
  8
LAYER-1
  0
POLYLINE
  8
LAYER-1
 66
  1
 70
  1
 62
  0
 10
6.677397
 20
0.213515
 30
0.000000
  0
VERTEX
  8
LAYER-1
 10
6.677397
 20
0.213515
 30
0.000000
  0
VERTEX
  8
LAYER-1
 10
6.664376
 20
0.190945
 30
0.000000
  0
VERTEX
  8
LAYER-1
 10
6.694758
 20
0.211778
 30
0.000000
  0
SEQEND
  8
LAYER-1
  0
POLYLINE
  8
LAYER-1
 66
  1
 70
  1
 62
  0
 10
5.905696
 20
0.149279
 30
0.000000
  0
VERTEX
  8
LAYER-1
 10
5.905696
 20
0.149279
 30
0.000000
  0
VERTEX
  8
LAYER-1
 10
5.930870
 20
0.132785
 30
0.000000
  0
VERTEX
  8
LAYER-1
 10
5.938683
 20
0.147543
 30
0.000000
  0
SEQEND
  8
LAYER-1
  0
POLYLINE
  8
LAYER-1
 66
  1
 70
  0
 62
  0
 10
6.476007
 20
0.205703
 30
0.000000
  0
VERTEX
  8
LAYER-1
 10
6.476007
 20
0.205703
 30
0.000000
  0
VERTEX
  8
LAYER-1
 10
6.471667
 20
0.205703
 30
0.000000
  0
VERTEX
  8
LAYER-1
 10
6.468195
 20
0.201362
 30
0.000000
  0
VERTEX
  8
LAYER-1
 10
6.467327
 20
0.196154
 30
0.000000
  0
VERTEX
  8
LAYER-1
 10
6.469062
 20
0.191814
 30
0.000000
  0
VERTEX
  8
LAYER-1
 10
6.473403
 20
0.190078
 30
0.000000
  0
VERTEX
  8
LAYER-1
 10
6.477743
 20
0.190078
 30
0.000000
  0
VERTEX
  8
LAYER-1
 10
6.482084
 20
0.193549
 30
0.000000
  0
VERTEX
  8
LAYER-1
 10
6.482084
 20
0.197890
 30
0.000000
  0
VERTEX
  8
LAYER-1
 10
6.481216
 20
0.202231
 30
0.000000
  0
VERTEX
  8
LAYER-1
 10
6.476875
 20
0.204836
 30
0.000000
  0
SEQEND
  8
LAYER-1
  0
POLYLINE
  8
LAYER-1
 66
  1
 70
  1
 62
  0
 10
6.491633
 20
0.117161
 30
0.000000
  0
VERTEX
  8
LAYER-1
 10
6.491633
 20
0.117161
 30
0.000000
  0
VERTEX
  8
LAYER-1
 10
6.478612
 20
0.094591
 30
0.000000
  0
VERTEX
  8
LAYER-1
 10
6.508995
 20
0.115423
 30
0.000000
  0
SEQEND
  8
LAYER-1
  0
POLYLINE
  8
LAYER-1
 66
  1
 70
  1
 62
  0
 10
6.586084
 20
0.131579
 30
0.000000
  0
VERTEX
  8
LAYER-1
 10
6.586084
 20
0.131579
 30
0.000000
  0
VERTEX
  8
LAYER-1
 10
6.573398
 20
0.112215
 30
0.000000
  0
VERTEX
  8
LAYER-1
 10
6.584748
 20
0.106204
 30
0.000000
  0
SEQEND
  8
LAYER-1
  0
POLYLINE
  8
LAYER-1
 66
  1
 70
  0
 62
  0
 10
6.617501
 20
0.210042
 30
0.000000
  0
VERTEX
  8
LAYER-1
 10
6.617501
 20
0.210042
 30
0.000000
  0
VERTEX
  8
LAYER-1
 10
6.613161
 20
0.210042
 30
0.000000
  0
VERTEX
  8
LAYER-1
 10
6.609688
 20
0.205702
 30
0.000000
  0
VERTEX
  8
LAYER-1
 10
6.608820
 20
0.200494
 30
0.000000
  0
VERTEX
  8
LAYER-1
 10
6.610556
 20
0.196153
 30
0.000000
  0
VERTEX
  8
LAYER-1
 10
6.614897
 20
0.194417
 30
0.000000
  0
VERTEX
  8
LAYER-1
 10
6.619237
 20
0.194417
 30
0.000000
  0
VERTEX
  8
LAYER-1
 10
6.623577
 20
0.197890
 30
0.000000
  0
VERTEX
  8
LAYER-1
 10
6.623577
 20
0.202230
 30
0.000000
  0
VERTEX
  8
LAYER-1
 10
6.622709
 20
0.206571
 30
0.000000
  0
VERTEX
  8
LAYER-1
 10
6.618368
 20
0.209175
 30
0.000000
  0
SEQEND
  8
LAYER-1
  0
POLYLINE
  8
LAYER-1
 66
  1
 70
  0
 62
  0
 10
5.894412
 20
0.202230
 30
0.000000
  0
VERTEX
  8
LAYER-1
 10
5.894412
 20
0.202230
 30
0.000000
  0
VERTEX
  8
LAYER-1
 10
5.894412
 20
0.197890
 30
0.000000
  0
VERTEX
  8
LAYER-1
 10
5.898753
 20
0.194417
 30
0.000000
  0
VERTEX
  8
LAYER-1
 10
5.903961
 20
0.193548
 30
0.000000
  0
VERTEX
  8
LAYER-1
 10
5.908301
 20
0.195285
 30
0.000000
  0
VERTEX
  8
LAYER-1
 10
5.910037
 20
0.199625
 30
0.000000
  0
VERTEX
  8
LAYER-1
 10
5.910037
 20
0.203966
 30
0.000000
  0
VERTEX
  8
LAYER-1
 10
5.906565
 20
0.208306
 30
0.000000
  0
VERTEX
  8
LAYER-1
 10
5.902225
 20
0.208306
 30
0.000000
  0
VERTEX
  8
LAYER-1
 10
5.897884
 20
0.207437
 30
0.000000
  0
VERTEX
  8
LAYER-1
 10
5.895279
 20
0.203097
 30
0.000000
  0
SEQEND
  8
LAYER-1
  0
POLYLINE
  8
LAYER-1
 66
  1
 70
  0
 62
  0
 10
6.457777
 20
0.118028
 30
0.000000
  0
VERTEX
  8
LAYER-1
 10
6.457777
 20
0.118028
 30
0.000000
  0
VERTEX
  8
LAYER-1
 10
6.453437
 20
0.118028
 30
0.000000
  0
VERTEX
  8
LAYER-1
 10
6.449965
 20
0.113686
 30
0.000000
  0
VERTEX
  8
LAYER-1
 10
6.449097
 20
0.108479
 30
0.000000
  0
VERTEX
  8
LAYER-1
 10
6.450833
 20
0.104139
 30
0.000000
  0
VERTEX
  8
LAYER-1
 10
6.455173
 20
0.102403
 30
0.000000
  0
VERTEX
  8
LAYER-1
 10
6.459513
 20
0.102403
 30
0.000000
  0
VERTEX
  8
LAYER-1
 10
6.463854
 20
0.105874
 30
0.000000
  0
VERTEX
  8
LAYER-1
 10
6.463854
 20
0.110215
 30
0.000000
  0
VERTEX
  8
LAYER-1
 10
6.462986
 20
0.114555
 30
0.000000
  0
VERTEX
  8
LAYER-1
 10
6.458645
 20
0.117160
 30
0.000000
  0
SEQEND
  8
LAYER-1
  0
POLYLINE
  8
LAYER-1
 66
  1
 70
  0
 62
  0
 10
6.356217
 20
0.155790
 30
0.000000
  0
VERTEX
  8
LAYER-1
 10
6.356217
 20
0.155790
 30
0.000000
  0
VERTEX
  8
LAYER-1
 10
6.356217
 20
0.160130
 30
0.000000
  0
VERTEX
  8
LAYER-1
 10
6.351876
 20
0.163602
 30
0.000000
  0
VERTEX
  8
LAYER-1
 10
6.346668
 20
0.164470
 30
0.000000
  0
VERTEX
  8
LAYER-1
 10
6.342328
 20
0.162734
 30
0.000000
  0
VERTEX
  8
LAYER-1
 10
6.340592
 20
0.158393
 30
0.000000
  0
VERTEX
  8
LAYER-1
 10
6.340592
 20
0.154054
 30
0.000000
  0
VERTEX
  8
LAYER-1
 10
6.344064
 20
0.149714
 30
0.000000
  0
VERTEX
  8
LAYER-1
 10
6.348404
 20
0.149714
 30
0.000000
  0
VERTEX
  8
LAYER-1
 10
6.352745
 20
0.150581
 30
0.000000
  0
VERTEX
  8
LAYER-1
 10
6.355348
 20
0.154922
 30
0.000000
  0
SEQEND
  8
LAYER-1
  0
POLYLINE
  8
LAYER-1
 66
  1
 70
  1
 62
  0
 10
6.288508
 20
0.142768
 30
0.000000
  0
VERTEX
  8
LAYER-1
 10
6.288508
 20
0.142768
 30
0.000000
  0
VERTEX
  8
LAYER-1
 10
6.265939
 20
0.155789
 30
0.000000
  0
VERTEX
  8
LAYER-1
 10
6.286772
 20
0.125406
 30
0.000000
  0
SEQEND
  8
LAYER-1
  0
POLYLINE
  8
LAYER-1
 66
  1
 70
  0
 62
  0
 10
6.206044
 20
0.108047
 30
0.000000
  0
VERTEX
  8
LAYER-1
 10
6.206044
 20
0.108047
 30
0.000000
  0
VERTEX
  8
LAYER-1
 10
6.206044
 20
0.112387
 30
0.000000
  0
VERTEX
  8
LAYER-1
 10
6.201703
 20
0.115859
 30
0.000000
  0
VERTEX
  8
LAYER-1
 10
6.196495
 20
0.116727
 30
0.000000
  0
VERTEX
  8
LAYER-1
 10
6.192155
 20
0.114991
 30
0.000000
  0
VERTEX
  8
LAYER-1
 10
6.190419
 20
0.110652
 30
0.000000
  0
VERTEX
  8
LAYER-1
 10
6.190419
 20
0.106311
 30
0.000000
  0
VERTEX
  8
LAYER-1
 10
6.193890
 20
0.101970
 30
0.000000
  0
VERTEX
  8
LAYER-1
 10
6.198231
 20
0.101970
 30
0.000000
  0
VERTEX
  8
LAYER-1
 10
6.202572
 20
0.102839
 30
0.000000
  0
VERTEX
  8
LAYER-1
 10
6.205175
 20
0.107179
 30
0.000000
  0
SEQEND
  8
LAYER-1
  0
POLYLINE
  8
LAYER-1
 66
  1
 70
  1
 62
  0
 10
6.396321
 20
0.098325
 30
0.000000
  0
VERTEX
  8
LAYER-1
 10
6.396321
 20
0.098325
 30
0.000000
  0
VERTEX
  8
LAYER-1
 10
6.389377
 20
0.124365
 30
0.000000
  0
VERTEX
  8
LAYER-1
 10
6.364203
 20
0.110479
 30
0.000000
  0
SEQEND
  8
LAYER-1
  0
POLYLINE
  8
LAYER-1
 66
  1
 70
  1
 62
  0
 10
6.417848
 20
0.152751
 30
0.000000
  0
VERTEX
  8
LAYER-1
 10
6.417848
 20
0.152751
 30
0.000000
  0
VERTEX
  8
LAYER-1
 10
6.430869
 20
0.175321
 30
0.000000
  0
VERTEX
  8
LAYER-1
 10
6.400487
 20
0.154489
 30
0.000000
  0
SEQEND
  8
LAYER-1
  0
POLYLINE
  8
LAYER-1
 66
  1
 70
  1
 62
  0
 10
5.845800
 20
0.096328
 30
0.000000
  0
VERTEX
  8
LAYER-1
 10
5.845800
 20
0.096328
 30
0.000000
  0
VERTEX
  8
LAYER-1
 10
5.823230
 20
0.109350
 30
0.000000
  0
VERTEX
  8
LAYER-1
 10
5.844062
 20
0.078967
 30
0.000000
  0
SEQEND
  8
LAYER-1
  0
POLYLINE
  8
LAYER-1
 66
  1
 70
  1
 62
  0
 10
6.623578
 20
0.120634
 30
0.000000
  0
VERTEX
  8
LAYER-1
 10
6.623578
 20
0.120634
 30
0.000000
  0
VERTEX
  8
LAYER-1
 10
6.640071
 20
0.145808
 30
0.000000
  0
VERTEX
  8
LAYER-1
 10
6.625314
 20
0.153620
 30
0.000000
  0
SEQEND
  8
LAYER-1
  0
POLYLINE
  8
LAYER-1
 66
  1
 70
  0
 62
  0
 10
6.654478
 20
0.047230
 30
0.000000
  0
VERTEX
  8
LAYER-1
 10
6.654478
 20
0.047230
 30
0.000000
  0
VERTEX
  8
LAYER-1
 10
6.658819
 20
0.047230
 30
0.000000
  0
VERTEX
  8
LAYER-1
 10
6.662290
 20
0.051571
 30
0.000000
  0
VERTEX
  8
LAYER-1
 10
6.663158
 20
0.056779
 30
0.000000
  0
VERTEX
  8
LAYER-1
 10
6.661423
 20
0.061120
 30
0.000000
  0
VERTEX
  8
LAYER-1
 10
6.657082
 20
0.062855
 30
0.000000
  0
VERTEX
  8
LAYER-1
 10
6.652743
 20
0.062855
 30
0.000000
  0
VERTEX
  8
LAYER-1
 10
6.648401
 20
0.059384
 30
0.000000
  0
VERTEX
  8
LAYER-1
 10
6.648401
 20
0.055043
 30
0.000000
  0
VERTEX
  8
LAYER-1
 10
6.649270
 20
0.050702
 30
0.000000
  0
VERTEX
  8
LAYER-1
 10
6.653611
 20
0.048097
 30
0.000000
  0
SEQEND
  8
LAYER-1
  0
POLYLINE
  8
LAYER-1
 66
  1
 70
  0
 62
  0
 10
6.631042
 20
0.072410
 30
0.000000
  0
VERTEX
  8
LAYER-1
 10
6.631042
 20
0.072410
 30
0.000000
  0
VERTEX
  8
LAYER-1
 10
6.635382
 20
0.072410
 30
0.000000
  0
VERTEX
  8
LAYER-1
 10
6.638855
 20
0.076750
 30
0.000000
  0
VERTEX
  8
LAYER-1
 10
6.639722
 20
0.081958
 30
0.000000
  0
VERTEX
  8
LAYER-1
 10
6.637987
 20
0.086299
 30
0.000000
  0
VERTEX
  8
LAYER-1
 10
6.633645
 20
0.088035
 30
0.000000
  0
VERTEX
  8
LAYER-1
 10
6.629306
 20
0.088035
 30
0.000000
  0
VERTEX
  8
LAYER-1
 10
6.624965
 20
0.084563
 30
0.000000
  0
VERTEX
  8
LAYER-1
 10
6.624965
 20
0.080222
 30
0.000000
  0
VERTEX
  8
LAYER-1
 10
6.625833
 20
0.075881
 30
0.000000
  0
VERTEX
  8
LAYER-1
 10
6.630174
 20
0.073277
 30
0.000000
  0
SEQEND
  8
LAYER-1
  0
POLYLINE
  8
LAYER-1
 66
  1
 70
  1
 62
  0
 10
6.705259
 20
0.088465
 30
0.000000
  0
VERTEX
  8
LAYER-1
 10
6.705259
 20
0.088465
 30
0.000000
  0
VERTEX
  8
LAYER-1
 10
6.680086
 20
0.104958
 30
0.000000
  0
VERTEX
  8
LAYER-1
 10
6.672274
 20
0.090201
 30
0.000000
  0
SEQEND
  8
LAYER-1
  0
POLYLINE
  8
LAYER-1
 66
  1
 70
  0
 62
  0
 10
6.715677
 20
0.127530
 30
0.000000
  0
VERTEX
  8
LAYER-1
 10
6.715677
 20
0.127530
 30
0.000000
  0
VERTEX
  8
LAYER-1
 10
6.715677
 20
0.131871
 30
0.000000
  0
VERTEX
  8
LAYER-1
 10
6.711336
 20
0.135342
 30
0.000000
  0
VERTEX
  8
LAYER-1
 10
6.706128
 20
0.136210
 30
0.000000
  0
VERTEX
  8
LAYER-1
 10
6.701788
 20
0.134474
 30
0.000000
  0
VERTEX
  8
LAYER-1
 10
6.700052
 20
0.130134
 30
0.000000
  0
VERTEX
  8
LAYER-1
 10
6.700052
 20
0.125793
 30
0.000000
  0
VERTEX
  8
LAYER-1
 10
6.703524
 20
0.121453
 30
0.000000
  0
VERTEX
  8
LAYER-1
 10
6.707864
 20
0.121453
 30
0.000000
  0
VERTEX
  8
LAYER-1
 10
6.712205
 20
0.122321
 30
0.000000
  0
VERTEX
  8
LAYER-1
 10
6.714809
 20
0.126662
 30
0.000000
  0
SEQEND
  8
LAYER-1
  0
POLYLINE
  8
LAYER-1
 66
  1
 70
  1
 62
  0
 10
6.662200
 20
0.133381
 30
0.000000
  0
VERTEX
  8
LAYER-1
 10
6.662200
 20
0.133381
 30
0.000000
  0
VERTEX
  8
LAYER-1
 10
6.674886
 20
0.152746
 30
0.000000
  0
VERTEX
  8
LAYER-1
 10
6.663536
 20
0.158757
 30
0.000000
  0
SEQEND
  8
LAYER-1
  0
POLYLINE
  8
LAYER-1
 66
  1
 70
  0
 62
  0
 10
5.985556
 20
0.163168
 30
0.000000
  0
VERTEX
  8
LAYER-1
 10
5.985556
 20
0.163168
 30
0.000000
  0
VERTEX
  8
LAYER-1
 10
5.985556
 20
0.167508
 30
0.000000
  0
VERTEX
  8
LAYER-1
 10
5.981216
 20
0.170981
 30
0.000000
  0
VERTEX
  8
LAYER-1
 10
5.976008
 20
0.171848
 30
0.000000
  0
VERTEX
  8
LAYER-1
 10
5.971667
 20
0.170112
 30
0.000000
  0
VERTEX
  8
LAYER-1
 10
5.969931
 20
0.165771
 30
0.000000
  0
VERTEX
  8
LAYER-1
 10
5.969931
 20
0.161430
 30
0.000000
  0
VERTEX
  8
LAYER-1
 10
5.973403
 20
0.157092
 30
0.000000
  0
VERTEX
  8
LAYER-1
 10
5.977744
 20
0.157092
 30
0.000000
  0
VERTEX
  8
LAYER-1
 10
5.982084
 20
0.157959
 30
0.000000
  0
VERTEX
  8
LAYER-1
 10
5.984690
 20
0.162299
 30
0.000000
  0
SEQEND
  8
LAYER-1
  0
POLYLINE
  8
LAYER-1
 66
  1
 70
  0
 62
  0
 10
6.571495
 20
0.126711
 30
0.000000
  0
VERTEX
  8
LAYER-1
 10
6.571495
 20
0.126711
 30
0.000000
  0
VERTEX
  8
LAYER-1
 10
6.575835
 20
0.126711
 30
0.000000
  0
VERTEX
  8
LAYER-1
 10
6.579307
 20
0.131052
 30
0.000000
  0
VERTEX
  8
LAYER-1
 10
6.580175
 20
0.136259
 30
0.000000
  0
VERTEX
  8
LAYER-1
 10
6.578439
 20
0.140600
 30
0.000000
  0
VERTEX
  8
LAYER-1
 10
6.574098
 20
0.142336
 30
0.000000
  0
VERTEX
  8
LAYER-1
 10
6.569759
 20
0.142336
 30
0.000000
  0
VERTEX
  8
LAYER-1
 10
6.565418
 20
0.138864
 30
0.000000
  0
VERTEX
  8
LAYER-1
 10
6.565418
 20
0.134523
 30
0.000000
  0
VERTEX
  8
LAYER-1
 10
6.566286
 20
0.130183
 30
0.000000
  0
VERTEX
  8
LAYER-1
 10
6.570627
 20
0.127578
 30
0.000000
  0
SEQEND
  8
LAYER-1
  0
POLYLINE
  8
LAYER-1
 66
  1
 70
  1
 62
  0
 10
0.829131
 20
0.130392
 30
0.000000
  0
VERTEX
  8
LAYER-1
 10
0.829131
 20
0.130392
 30
0.000000
  0
VERTEX
  8
LAYER-1
 10
0.806560
 20
0.143412
 30
0.000000
  0
VERTEX
  8
LAYER-1
 10
0.827393
 20
0.113031
 30
0.000000
  0
SEQEND
  8
LAYER-1
  0
POLYLINE
  8
LAYER-1
 66
  1
 70
  0
 62
  0
 10
0.817847
 20
0.063551
 30
0.000000
  0
VERTEX
  8
LAYER-1
 10
0.817847
 20
0.063551
 30
0.000000
  0
VERTEX
  8
LAYER-1
 10
0.817847
 20
0.067891
 30
0.000000
  0
VERTEX
  8
LAYER-1
 10
0.813506
 20
0.071364
 30
0.000000
  0
VERTEX
  8
LAYER-1
 10
0.808298
 20
0.072231
 30
0.000000
  0
VERTEX
  8
LAYER-1
 10
0.803957
 20
0.070495
 30
0.000000
  0
VERTEX
  8
LAYER-1
 10
0.802222
 20
0.066154
 30
0.000000
  0
VERTEX
  8
LAYER-1
 10
0.802222
 20
0.061813
 30
0.000000
  0
VERTEX
  8
LAYER-1
 10
0.805693
 20
0.057475
 30
0.000000
  0
VERTEX
  8
LAYER-1
 10
0.810034
 20
0.057475
 30
0.000000
  0
VERTEX
  8
LAYER-1
 10
0.814375
 20
0.058342
 30
0.000000
  0
VERTEX
  8
LAYER-1
 10
0.816980
 20
0.062682
 30
0.000000
  0
SEQEND
  8
LAYER-1
  0
POLYLINE
  8
LAYER-1
 66
  1
 70
  1
 62
  0
 10
1.095886
 20
0.052350
 30
0.000000
  0
VERTEX
  8
LAYER-1
 10
1.095886
 20
0.052350
 30
0.000000
  0
VERTEX
  8
LAYER-1
 10
1.112379
 20
0.077525
 30
0.000000
  0
VERTEX
  8
LAYER-1
 10
1.097622
 20
0.085337
 30
0.000000
  0
SEQEND
  8
LAYER-1
  0
POLYLINE
  8
LAYER-1
 66
  1
 70
  1
 62
  0
 10
1.143795
 20
0.067446
 30
0.000000
  0
VERTEX
  8
LAYER-1
 10
1.143795
 20
0.067446
 30
0.000000
  0
VERTEX
  8
LAYER-1
 10
1.156483
 20
0.086810
 30
0.000000
  0
VERTEX
  8
LAYER-1
 10
1.145131
 20
0.092820
 30
0.000000
  0
SEQEND
  8
LAYER-1
  0
POLYLINE
  8
LAYER-1
 66
  1
 70
  0
 62
  0
 10
1.207865
 20
0.043673
 30
0.000000
  0
VERTEX
  8
LAYER-1
 10
1.207865
 20
0.043673
 30
0.000000
  0
VERTEX
  8
LAYER-1
 10
1.212206
 20
0.043673
 30
0.000000
  0
VERTEX
  8
LAYER-1
 10
1.215677
 20
0.048013
 30
0.000000
  0
VERTEX
  8
LAYER-1
 10
1.216545
 20
0.053222
 30
0.000000
  0
VERTEX
  8
LAYER-1
 10
1.214810
 20
0.057562
 30
0.000000
  0
VERTEX
  8
LAYER-1
 10
1.210469
 20
0.059298
 30
0.000000
  0
VERTEX
  8
LAYER-1
 10
1.206129
 20
0.059298
 30
0.000000
  0
VERTEX
  8
LAYER-1
 10
1.201788
 20
0.055826
 30
0.000000
  0
VERTEX
  8
LAYER-1
 10
1.201788
 20
0.051486
 30
0.000000
  0
VERTEX
  8
LAYER-1
 10
1.202656
 20
0.047145
 30
0.000000
  0
VERTEX
  8
LAYER-1
 10
1.206997
 20
0.044541
 30
0.000000
  0
SEQEND
  8
LAYER-1
  0
POLYLINE
  8
LAYER-1
 66
  1
 70
  1
 62
  0
 10
1.241719
 20
0.106606
 30
0.000000
  0
VERTEX
  8
LAYER-1
 10
1.241719
 20
0.106606
 30
0.000000
  0
VERTEX
  8
LAYER-1
 10
1.215677
 20
0.099661
 30
0.000000
  0
VERTEX
  8
LAYER-1
 10
1.229566
 20
0.074487
 30
0.000000
  0
SEQEND
  8
LAYER-1
  0
POLYLINE
  8
LAYER-1
 66
  1
 70
  0
 62
  0
 10
2.609601
 20
0.074313
 30
0.000000
  0
VERTEX
  8
LAYER-1
 10
2.609601
 20
0.074313
 30
0.000000
  0
VERTEX
  8
LAYER-1
 10
2.609601
 20
0.078653
 30
0.000000
  0
VERTEX
  8
LAYER-1
 10
2.605260
 20
0.082125
 30
0.000000
  0
VERTEX
  8
LAYER-1
 10
2.600053
 20
0.082993
 30
0.000000
  0
VERTEX
  8
LAYER-1
 10
2.595712
 20
0.081257
 30
0.000000
  0
VERTEX
  8
LAYER-1
 10
2.593976
 20
0.076918
 30
0.000000
  0
VERTEX
  8
LAYER-1
 10
2.593976
 20
0.072577
 30
0.000000
  0
VERTEX
  8
LAYER-1
 10
2.597448
 20
0.068236
 30
0.000000
  0
VERTEX
  8
LAYER-1
 10
2.601788
 20
0.068236
 30
0.000000
  0
VERTEX
  8
LAYER-1
 10
2.606129
 20
0.069105
 30
0.000000
  0
VERTEX
  8
LAYER-1
 10
2.608733
 20
0.073445
 30
0.000000
  0
SEQEND
  8
LAYER-1
  0
POLYLINE
  8
LAYER-1
 66
  1
 70
  1
 62
  0
 10
2.543628
 20
0.037421
 30
0.000000
  0
VERTEX
  8
LAYER-1
 10
2.543628
 20
0.037421
 30
0.000000
  0
VERTEX
  8
LAYER-1
 10
2.536684
 20
0.063463
 30
0.000000
  0
VERTEX
  8
LAYER-1
 10
2.511510
 20
0.049575
 30
0.000000
  0
SEQEND
  8
LAYER-1
  0
POLYLINE
  8
LAYER-1
 66
  1
 70
  1
 62
  0
 10
2.555780
 20
0.073881
 30
0.000000
  0
VERTEX
  8
LAYER-1
 10
2.555780
 20
0.073881
 30
0.000000
  0
VERTEX
  8
LAYER-1
 10
2.568801
 20
0.096450
 30
0.000000
  0
VERTEX
  8
LAYER-1
 10
2.538420
 20
0.075617
 30
0.000000
  0
SEQEND
  8
LAYER-1
  0
POLYLINE
  8
LAYER-1
 66
  1
 70
  0
 62
  0
 10
2.391979
 20
0.084730
 30
0.000000
  0
VERTEX
  8
LAYER-1
 10
2.391979
 20
0.084730
 30
0.000000
  0
VERTEX
  8
LAYER-1
 10
2.387639
 20
0.084730
 30
0.000000
  0
VERTEX
  8
LAYER-1
 10
2.384167
 20
0.080389
 30
0.000000
  0
VERTEX
  8
LAYER-1
 10
2.383299
 20
0.075182
 30
0.000000
  0
VERTEX
  8
LAYER-1
 10
2.385035
 20
0.070841
 30
0.000000
  0
VERTEX
  8
LAYER-1
 10
2.389375
 20
0.069105
 30
0.000000
  0
VERTEX
  8
LAYER-1
 10
2.393715
 20
0.069105
 30
0.000000
  0
VERTEX
  8
LAYER-1
 10
2.398056
 20
0.072577
 30
0.000000
  0
VERTEX
  8
LAYER-1
 10
2.398056
 20
0.076918
 30
0.000000
  0
VERTEX
  8
LAYER-1
 10
2.397188
 20
0.081258
 30
0.000000
  0
VERTEX
  8
LAYER-1
 10
2.392847
 20
0.083863
 30
0.000000
  0
SEQEND
  8
LAYER-1
  0
POLYLINE
  8
LAYER-1
 66
  1
 70
  1
 62
  0
 10
2.471840
 20
0.047403
 30
0.000000
  0
VERTEX
  8
LAYER-1
 10
2.471840
 20
0.047403
 30
0.000000
  0
VERTEX
  8
LAYER-1
 10
2.449270
 20
0.060426
 30
0.000000
  0
VERTEX
  8
LAYER-1
 10
2.470102
 20
0.030043
 30
0.000000
  0
SEQEND
  8
LAYER-1
  0
POLYLINE
  8
LAYER-1
 66
  1
 70
  1
 62
  0
 10
3.066811
 20
0.048254
 30
0.000000
  0
VERTEX
  8
LAYER-1
 10
3.066811
 20
0.048254
 30
0.000000
  0
VERTEX
  8
LAYER-1
 10
3.079833
 20
0.070825
 30
0.000000
  0
VERTEX
  8
LAYER-1
 10
3.049451
 20
0.049992
 30
0.000000
  0
SEQEND
  8
LAYER-1
  0
POLYLINE
  8
LAYER-1
 66
  1
 70
  1
 62
  0
 10
2.972362
 20
0.054667
 30
0.000000
  0
VERTEX
  8
LAYER-1
 10
2.972362
 20
0.054667
 30
0.000000
  0
VERTEX
  8
LAYER-1
 10
2.985048
 20
0.074031
 30
0.000000
  0
VERTEX
  8
LAYER-1
 10
2.973698
 20
0.080043
 30
0.000000
  0
SEQEND
  8
LAYER-1
  0
POLYLINE
  8
LAYER-1
 66
  1
 70
  0
 62
  0
 10
3.100667
 20
0.047387
 30
0.000000
  0
VERTEX
  8
LAYER-1
 10
3.100667
 20
0.047387
 30
0.000000
  0
VERTEX
  8
LAYER-1
 10
3.105008
 20
0.047387
 30
0.000000
  0
VERTEX
  8
LAYER-1
 10
3.108480
 20
0.051728
 30
0.000000
  0
VERTEX
  8
LAYER-1
 10
3.109347
 20
0.056936
 30
0.000000
  0
VERTEX
  8
LAYER-1
 10
3.107612
 20
0.061276
 30
0.000000
  0
VERTEX
  8
LAYER-1
 10
3.103271
 20
0.063012
 30
0.000000
  0
VERTEX
  8
LAYER-1
 10
3.098931
 20
0.063012
 30
0.000000
  0
VERTEX
  8
LAYER-1
 10
3.094591
 20
0.059541
 30
0.000000
  0
VERTEX
  8
LAYER-1
 10
3.094591
 20
0.055200
 30
0.000000
  0
VERTEX
  8
LAYER-1
 10
3.095459
 20
0.050859
 30
0.000000
  0
VERTEX
  8
LAYER-1
 10
3.099799
 20
0.048254
 30
0.000000
  0
SEQEND
  8
LAYER-1
  0
POLYLINE
  8
LAYER-1
 66
  1
 70
  0
 62
  0
 10
2.986951
 20
0.038704
 30
0.000000
  0
VERTEX
  8
LAYER-1
 10
2.986951
 20
0.038704
 30
0.000000
  0
VERTEX
  8
LAYER-1
 10
2.982610
 20
0.038704
 30
0.000000
  0
VERTEX
  8
LAYER-1
 10
2.979138
 20
0.034363
 30
0.000000
  0
VERTEX
  8
LAYER-1
 10
2.978270
 20
0.029155
 30
0.000000
  0
VERTEX
  8
LAYER-1
 10
2.980006
 20
0.024815
 30
0.000000
  0
VERTEX
  8
LAYER-1
 10
2.984347
 20
0.023079
 30
0.000000
  0
VERTEX
  8
LAYER-1
 10
2.988686
 20
0.023079
 30
0.000000
  0
VERTEX
  8
LAYER-1
 10
2.993027
 20
0.026550
 30
0.000000
  0
VERTEX
  8
LAYER-1
 10
2.993027
 20
0.030891
 30
0.000000
  0
VERTEX
  8
LAYER-1
 10
2.992159
 20
0.035232
 30
0.000000
  0
VERTEX
  8
LAYER-1
 10
2.987818
 20
0.037837
 30
0.000000
  0
SEQEND
  8
LAYER-1
  0
POLYLINE
  8
LAYER-1
 66
  1
 70
  1
 62
  0
 10
2.828003
 20
0.052004
 30
0.000000
  0
VERTEX
  8
LAYER-1
 10
2.828003
 20
0.052004
 30
0.000000
  0
VERTEX
  8
LAYER-1
 10
2.841025
 20
0.074575
 30
0.000000
  0
VERTEX
  8
LAYER-1
 10
2.810642
 20
0.053742
 30
0.000000
  0
SEQEND
  8
LAYER-1
  0
POLYLINE
  8
LAYER-1
 66
  1
 70
  0
 62
  0
 10
2.861859
 20
0.051137
 30
0.000000
  0
VERTEX
  8
LAYER-1
 10
2.861859
 20
0.051137
 30
0.000000
  0
VERTEX
  8
LAYER-1
 10
2.866200
 20
0.051137
 30
0.000000
  0
VERTEX
  8
LAYER-1
 10
2.869672
 20
0.055478
 30
0.000000
  0
VERTEX
  8
LAYER-1
 10
2.870540
 20
0.060686
 30
0.000000
  0
VERTEX
  8
LAYER-1
 10
2.868804
 20
0.065027
 30
0.000000
  0
VERTEX
  8
LAYER-1
 10
2.864463
 20
0.066762
 30
0.000000
  0
VERTEX
  8
LAYER-1
 10
2.860123
 20
0.066762
 30
0.000000
  0
VERTEX
  8
LAYER-1
 10
2.855783
 20
0.063291
 30
0.000000
  0
VERTEX
  8
LAYER-1
 10
2.855783
 20
0.058950
 30
0.000000
  0
VERTEX
  8
LAYER-1
 10
2.856650
 20
0.054610
 30
0.000000
  0
VERTEX
  8
LAYER-1
 10
2.860991
 20
0.052004
 30
0.000000
  0
SEQEND
  8
LAYER-1
  0
POLYLINE
  8
LAYER-1
 66
  1
 70
  1
 62
  0
 10
3.460120
 20
0.087075
 30
0.000000
  0
VERTEX
  8
LAYER-1
 10
3.460120
 20
0.087075
 30
0.000000
  0
VERTEX
  8
LAYER-1
 10
3.482691
 20
0.074054
 30
0.000000
  0
VERTEX
  8
LAYER-1
 10
3.461859
 20
0.104436
 30
0.000000
  0
SEQEND
  8
LAYER-1
  0
POLYLINE
  8
LAYER-1
 66
  1
 70
  0
 62
  0
 10
3.459254
 20
0.053219
 30
0.000000
  0
VERTEX
  8
LAYER-1
 10
3.459254
 20
0.053219
 30
0.000000
  0
VERTEX
  8
LAYER-1
 10
3.459254
 20
0.048879
 30
0.000000
  0
VERTEX
  8
LAYER-1
 10
3.463594
 20
0.045407
 30
0.000000
  0
VERTEX
  8
LAYER-1
 10
3.468802
 20
0.044540
 30
0.000000
  0
VERTEX
  8
LAYER-1
 10
3.473142
 20
0.046275
 30
0.000000
  0
VERTEX
  8
LAYER-1
 10
3.474878
 20
0.050616
 30
0.000000
  0
VERTEX
  8
LAYER-1
 10
3.474878
 20
0.054955
 30
0.000000
  0
VERTEX
  8
LAYER-1
 10
3.471407
 20
0.059297
 30
0.000000
  0
VERTEX
  8
LAYER-1
 10
3.467066
 20
0.059297
 30
0.000000
  0
VERTEX
  8
LAYER-1
 10
3.462725
 20
0.058428
 30
0.000000
  0
VERTEX
  8
LAYER-1
 10
3.460120
 20
0.054087
 30
0.000000
  0
SEQEND
  8
LAYER-1
  0
POLYLINE
  8
LAYER-1
 66
  1
 70
  1
 62
  0
 10
4.009600
 20
0.119105
 30
0.000000
  0
VERTEX
  8
LAYER-1
 10
4.009600
 20
0.119105
 30
0.000000
  0
VERTEX
  8
LAYER-1
 10
4.016544
 20
0.093063
 30
0.000000
  0
VERTEX
  8
LAYER-1
 10
4.041718
 20
0.106951
 30
0.000000
  0
SEQEND
  8
LAYER-1
  0
POLYLINE
  8
LAYER-1
 66
  1
 70
  1
 62
  0
 10
3.981387
 20
0.082211
 30
0.000000
  0
VERTEX
  8
LAYER-1
 10
3.981387
 20
0.082211
 30
0.000000
  0
VERTEX
  8
LAYER-1
 10
4.003957
 20
0.069191
 30
0.000000
  0
VERTEX
  8
LAYER-1
 10
3.983124
 20
0.099572
 30
0.000000
  0
SEQEND
  8
LAYER-1
  0
POLYLINE
  8
LAYER-1
 66
  1
 70
  1
 62
  0
 10
4.098041
 20
0.074231
 30
0.000000
  0
VERTEX
  8
LAYER-1
 10
4.098041
 20
0.074231
 30
0.000000
  0
VERTEX
  8
LAYER-1
 10
4.117407
 20
0.061544
 30
0.000000
  0
VERTEX
  8
LAYER-1
 10
4.123417
 20
0.072895
 30
0.000000
  0
SEQEND
  8
LAYER-1
  0
POLYLINE
  8
LAYER-1
 66
  1
 70
  0
 62
  0
 10
4.042587
 20
0.080038
 30
0.000000
  0
VERTEX
  8
LAYER-1
 10
4.042587
 20
0.080038
 30
0.000000
  0
VERTEX
  8
LAYER-1
 10
4.038246
 20
0.080038
 30
0.000000
  0
VERTEX
  8
LAYER-1
 10
4.034774
 20
0.075698
 30
0.000000
  0
VERTEX
  8
LAYER-1
 10
4.033906
 20
0.070491
 30
0.000000
  0
VERTEX
  8
LAYER-1
 10
4.035642
 20
0.066149
 30
0.000000
  0
VERTEX
  8
LAYER-1
 10
4.039982
 20
0.064413
 30
0.000000
  0
VERTEX
  8
LAYER-1
 10
4.044323
 20
0.064413
 30
0.000000
  0
VERTEX
  8
LAYER-1
 10
4.048663
 20
0.067886
 30
0.000000
  0
VERTEX
  8
LAYER-1
 10
4.048663
 20
0.072226
 30
0.000000
  0
VERTEX
  8
LAYER-1
 10
4.047794
 20
0.076567
 30
0.000000
  0
VERTEX
  8
LAYER-1
 10
4.043454
 20
0.079170
 30
0.000000
  0
SEQEND
  8
LAYER-1
  0
POLYLINE
  8
LAYER-1
 66
  1
 70
  0
 62
  0
 10
3.927135
 20
0.057470
 30
0.000000
  0
VERTEX
  8
LAYER-1
 10
3.927135
 20
0.057470
 30
0.000000
  0
VERTEX
  8
LAYER-1
 10
3.931476
 20
0.057470
 30
0.000000
  0
VERTEX
  8
LAYER-1
 10
3.934948
 20
0.061811
 30
0.000000
  0
VERTEX
  8
LAYER-1
 10
3.935816
 20
0.067018
 30
0.000000
  0
VERTEX
  8
LAYER-1
 10
3.934081
 20
0.071359
 30
0.000000
  0
VERTEX
  8
LAYER-1
 10
3.929740
 20
0.073095
 30
0.000000
  0
VERTEX
  8
LAYER-1
 10
3.925399
 20
0.073095
 30
0.000000
  0
VERTEX
  8
LAYER-1
 10
3.921059
 20
0.069623
 30
0.000000
  0
VERTEX
  8
LAYER-1
 10
3.921059
 20
0.065282
 30
0.000000
  0
VERTEX
  8
LAYER-1
 10
3.921928
 20
0.060942
 30
0.000000
  0
VERTEX
  8
LAYER-1
 10
3.926268
 20
0.058337
 30
0.000000
  0
SEQEND
  8
LAYER-1
  0
POLYLINE
  8
LAYER-1
 66
  1
 70
  1
 62
  0
 10
4.413782
 20
0.027783
 30
0.000000
  0
VERTEX
  8
LAYER-1
 10
4.413782
 20
0.027783
 30
0.000000
  0
VERTEX
  8
LAYER-1
 10
4.406838
 20
0.053825
 30
0.000000
  0
VERTEX
  8
LAYER-1
 10
4.381664
 20
0.039936
 30
0.000000
  0
SEQEND
  8
LAYER-1
  0
POLYLINE
  8
LAYER-1
 66
  1
 70
  1
 62
  0
 10
4.441995
 20
0.064677
 30
0.000000
  0
VERTEX
  8
LAYER-1
 10
4.441995
 20
0.064677
 30
0.000000
  0
VERTEX
  8
LAYER-1
 10
4.419426
 20
0.077697
 30
0.000000
  0
VERTEX
  8
LAYER-1
 10
4.440258
 20
0.047316
 30
0.000000
  0
SEQEND
  8
LAYER-1
  0
POLYLINE
  8
LAYER-1
 66
  1
 70
  1
 62
  0
 10
4.325341
 20
0.072656
 30
0.000000
  0
VERTEX
  8
LAYER-1
 10
4.325341
 20
0.072656
 30
0.000000
  0
VERTEX
  8
LAYER-1
 10
4.305976
 20
0.085344
 30
0.000000
  0
VERTEX
  8
LAYER-1
 10
4.299966
 20
0.073992
 30
0.000000
  0
SEQEND
  8
LAYER-1
  0
POLYLINE
  8
LAYER-1
 66
  1
 70
  0
 62
  0
 10
4.380795
 20
0.066850
 30
0.000000
  0
VERTEX
  8
LAYER-1
 10
4.380795
 20
0.066850
 30
0.000000
  0
VERTEX
  8
LAYER-1
 10
4.385136
 20
0.066850
 30
0.000000
  0
VERTEX
  8
LAYER-1
 10
4.388608
 20
0.071190
 30
0.000000
  0
VERTEX
  8
LAYER-1
 10
4.389476
 20
0.076397
 30
0.000000
  0
VERTEX
  8
LAYER-1
 10
4.387740
 20
0.080738
 30
0.000000
  0
VERTEX
  8
LAYER-1
 10
4.383400
 20
0.082475
 30
0.000000
  0
VERTEX
  8
LAYER-1
 10
4.379060
 20
0.082475
 30
0.000000
  0
VERTEX
  8
LAYER-1
 10
4.374719
 20
0.079002
 30
0.000000
  0
VERTEX
  8
LAYER-1
 10
4.374719
 20
0.074662
 30
0.000000
  0
VERTEX
  8
LAYER-1
 10
4.375588
 20
0.070321
 30
0.000000
  0
VERTEX
  8
LAYER-1
 10
4.379928
 20
0.067717
 30
0.000000
  0
SEQEND
  8
LAYER-1
  0
POLYLINE
  8
LAYER-1
 66
  1
 70
  0
 62
  0
 10
4.496247
 20
0.089418
 30
0.000000
  0
VERTEX
  8
LAYER-1
 10
4.496247
 20
0.089418
 30
0.000000
  0
VERTEX
  8
LAYER-1
 10
4.491906
 20
0.089418
 30
0.000000
  0
VERTEX
  8
LAYER-1
 10
4.488435
 20
0.085077
 30
0.000000
  0
VERTEX
  8
LAYER-1
 10
4.487566
 20
0.079870
 30
0.000000
  0
VERTEX
  8
LAYER-1
 10
4.489301
 20
0.075528
 30
0.000000
  0
VERTEX
  8
LAYER-1
 10
4.493642
 20
0.073793
 30
0.000000
  0
VERTEX
  8
LAYER-1
 10
4.497983
 20
0.073793
 30
0.000000
  0
VERTEX
  8
LAYER-1
 10
4.502324
 20
0.077265
 30
0.000000
  0
VERTEX
  8
LAYER-1
 10
4.502324
 20
0.081606
 30
0.000000
  0
VERTEX
  8
LAYER-1
 10
4.501455
 20
0.085946
 30
0.000000
  0
VERTEX
  8
LAYER-1
 10
4.497114
 20
0.088551
 30
0.000000
  0
SEQEND
  8
LAYER-1
  0
POLYLINE
  8
LAYER-1
 66
  1
 70
  1
 62
  0
 10
4.666125
 20
0.011376
 30
0.000000
  0
VERTEX
  8
LAYER-1
 10
4.666125
 20
0.011376
 30
0.000000
  0
VERTEX
  8
LAYER-1
 10
4.659181
 20
0.037418
 30
0.000000
  0
VERTEX
  8
LAYER-1
 10
4.634008
 20
0.023530
 30
0.000000
  0
SEQEND
  8
LAYER-1
  0
POLYLINE
  8
LAYER-1
 66
  1
 70
  1
 62
  0
 10
4.694338
 20
0.048270
 30
0.000000
  0
VERTEX
  8
LAYER-1
 10
4.694338
 20
0.048270
 30
0.000000
  0
VERTEX
  8
LAYER-1
 10
4.671768
 20
0.061290
 30
0.000000
  0
VERTEX
  8
LAYER-1
 10
4.692601
 20
0.030909
 30
0.000000
  0
SEQEND
  8
LAYER-1
  0
POLYLINE
  8
LAYER-1
 66
  1
 70
  1
 62
  0
 10
4.577684
 20
0.056250
 30
0.000000
  0
VERTEX
  8
LAYER-1
 10
4.577684
 20
0.056250
 30
0.000000
  0
VERTEX
  8
LAYER-1
 10
4.558320
 20
0.068938
 30
0.000000
  0
VERTEX
  8
LAYER-1
 10
4.552309
 20
0.057587
 30
0.000000
  0
SEQEND
  8
LAYER-1
  0
POLYLINE
  8
LAYER-1
 66
  1
 70
  0
 62
  0
 10
4.633139
 20
0.050443
 30
0.000000
  0
VERTEX
  8
LAYER-1
 10
4.633139
 20
0.050443
 30
0.000000
  0
VERTEX
  8
LAYER-1
 10
4.637480
 20
0.050443
 30
0.000000
  0
VERTEX
  8
LAYER-1
 10
4.640951
 20
0.054783
 30
0.000000
  0
VERTEX
  8
LAYER-1
 10
4.641819
 20
0.059991
 30
0.000000
  0
VERTEX
  8
LAYER-1
 10
4.640083
 20
0.064332
 30
0.000000
  0
VERTEX
  8
LAYER-1
 10
4.635744
 20
0.066068
 30
0.000000
  0
VERTEX
  8
LAYER-1
 10
4.631403
 20
0.066068
 30
0.000000
  0
VERTEX
  8
LAYER-1
 10
4.627062
 20
0.062596
 30
0.000000
  0
VERTEX
  8
LAYER-1
 10
4.627062
 20
0.058256
 30
0.000000
  0
VERTEX
  8
LAYER-1
 10
4.627931
 20
0.053914
 30
0.000000
  0
VERTEX
  8
LAYER-1
 10
4.632271
 20
0.051311
 30
0.000000
  0
SEQEND
  8
LAYER-1
  0
POLYLINE
  8
LAYER-1
 66
  1
 70
  0
 62
  0
 10
4.748590
 20
0.073012
 30
0.000000
  0
VERTEX
  8
LAYER-1
 10
4.748590
 20
0.073012
 30
0.000000
  0
VERTEX
  8
LAYER-1
 10
4.744249
 20
0.073012
 30
0.000000
  0
VERTEX
  8
LAYER-1
 10
4.740777
 20
0.068670
 30
0.000000
  0
VERTEX
  8
LAYER-1
 10
4.739908
 20
0.063463
 30
0.000000
  0
VERTEX
  8
LAYER-1
 10
4.741645
 20
0.059122
 30
0.000000
  0
VERTEX
  8
LAYER-1
 10
4.745985
 20
0.057387
 30
0.000000
  0
VERTEX
  8
LAYER-1
 10
4.750326
 20
0.057387
 30
0.000000
  0
VERTEX
  8
LAYER-1
 10
4.754667
 20
0.060858
 30
0.000000
  0
VERTEX
  8
LAYER-1
 10
4.754667
 20
0.065199
 30
0.000000
  0
VERTEX
  8
LAYER-1
 10
4.753798
 20
0.069539
 30
0.000000
  0
VERTEX
  8
LAYER-1
 10
4.749457
 20
0.072144
 30
0.000000
  0
SEQEND
  8
LAYER-1
  0
POLYLINE
  8
LAYER-1
 66
  1
 70
  1
 62
  0
 10
4.886685
 20
0.110425
 30
0.000000
  0
VERTEX
  8
LAYER-1
 10
4.886685
 20
0.110425
 30
0.000000
  0
VERTEX
  8
LAYER-1
 10
4.893629
 20
0.084384
 30
0.000000
  0
VERTEX
  8
LAYER-1
 10
4.918802
 20
0.098273
 30
0.000000
  0
SEQEND
  8
LAYER-1
  0
POLYLINE
  8
LAYER-1
 66
  1
 70
  1
 62
  0
 10
4.858472
 20
0.073531
 30
0.000000
  0
VERTEX
  8
LAYER-1
 10
4.858472
 20
0.073531
 30
0.000000
  0
VERTEX
  8
LAYER-1
 10
4.881042
 20
0.060511
 30
0.000000
  0
VERTEX
  8
LAYER-1
 10
4.860209
 20
0.090892
 30
0.000000
  0
SEQEND
  8
LAYER-1
  0
POLYLINE
  8
LAYER-1
 66
  1
 70
  0
 62
  0
 10
4.804220
 20
0.048791
 30
0.000000
  0
VERTEX
  8
LAYER-1
 10
4.804220
 20
0.048791
 30
0.000000
  0
VERTEX
  8
LAYER-1
 10
4.808561
 20
0.048791
 30
0.000000
  0
VERTEX
  8
LAYER-1
 10
4.812032
 20
0.053131
 30
0.000000
  0
VERTEX
  8
LAYER-1
 10
4.812901
 20
0.058339
 30
0.000000
  0
VERTEX
  8
LAYER-1
 10
4.811165
 20
0.062680
 30
0.000000
  0
VERTEX
  8
LAYER-1
 10
4.806825
 20
0.064416
 30
0.000000
  0
VERTEX
  8
LAYER-1
 10
4.802484
 20
0.064416
 30
0.000000
  0
VERTEX
  8
LAYER-1
 10
4.798143
 20
0.060944
 30
0.000000
  0
VERTEX
  8
LAYER-1
 10
4.798143
 20
0.056603
 30
0.000000
  0
VERTEX
  8
LAYER-1
 10
4.799012
 20
0.052262
 30
0.000000
  0
VERTEX
  8
LAYER-1
 10
4.803353
 20
0.049657
 30
0.000000
  0
SEQEND
  8
LAYER-1
  0
POLYLINE
  8
LAYER-1
 66
  1
 70
  1
 62
  0
 10
5.439807
 20
0.222542
 30
0.000000
  0
VERTEX
  8
LAYER-1
 10
5.439807
 20
0.222542
 30
0.000000
  0
VERTEX
  8
LAYER-1
 10
5.446752
 20
0.196501
 30
0.000000
  0
VERTEX
  8
LAYER-1
 10
5.471926
 20
0.210388
 30
0.000000
  0
SEQEND
  8
LAYER-1
  0
POLYLINE
  8
LAYER-1
 66
  1
 70
  1
 62
  0
 10
5.452916
 20
0.177403
 30
0.000000
  0
VERTEX
  8
LAYER-1
 10
5.452916
 20
0.177403
 30
0.000000
  0
VERTEX
  8
LAYER-1
 10
5.439895
 20
0.154833
 30
0.000000
  0
VERTEX
  8
LAYER-1
 10
5.470277
 20
0.175665
 30
0.000000
  0
SEQEND
  8
LAYER-1
  0
POLYLINE
  8
LAYER-1
 66
  1
 70
  1
 62
  0
 10
5.144410
 20
0.145927
 30
0.000000
  0
VERTEX
  8
LAYER-1
 10
5.144410
 20
0.145927
 30
0.000000
  0
VERTEX
  8
LAYER-1
 10
5.137467
 20
0.171967
 30
0.000000
  0
VERTEX
  8
LAYER-1
 10
5.112293
 20
0.158080
 30
0.000000
  0
SEQEND
  8
LAYER-1
  0
POLYLINE
  8
LAYER-1
 66
  1
 70
  1
 62
  0
 10
5.131301
 20
0.191065
 30
0.000000
  0
VERTEX
  8
LAYER-1
 10
5.131301
 20
0.191065
 30
0.000000
  0
VERTEX
  8
LAYER-1
 10
5.144324
 20
0.213636
 30
0.000000
  0
VERTEX
  8
LAYER-1
 10
5.113941
 20
0.192802
 30
0.000000
  0
SEQEND
  8
LAYER-1
  0
POLYLINE
  8
LAYER-1
 66
  1
 70
  1
 62
  0
 10
5.649183
 20
0.048097
 30
0.000000
  0
VERTEX
  8
LAYER-1
 10
5.649183
 20
0.048097
 30
0.000000
  0
VERTEX
  8
LAYER-1
 10
5.675223
 20
0.055043
 30
0.000000
  0
VERTEX
  8
LAYER-1
 10
5.661336
 20
0.080216
 30
0.000000
  0
SEQEND
  8
LAYER-1
  0
POLYLINE
  8
LAYER-1
 66
  1
 70
  1
 62
  0
 10
5.694322
 20
0.061206
 30
0.000000
  0
VERTEX
  8
LAYER-1
 10
5.694322
 20
0.061206
 30
0.000000
  0
VERTEX
  8
LAYER-1
 10
5.716892
 20
0.048186
 30
0.000000
  0
VERTEX
  8
LAYER-1
 10
5.696059
 20
0.078567
 30
0.000000
  0
SEQEND
  8
LAYER-1
  0
ARC
  8
LAYER-1
 62
  0
 10
5.445002
 20
8.972000
 30
0.000000
 40
0.254425
 50
270.000000
 51
90.000000
  0
POLYLINE
  8
LAYER-1
 66
  1
 70
  0
 62
  0
 10
5.445002
 20
9.226425
 30
0.000000
  0
VERTEX
  8
LAYER-1
 10
5.445002
 20
9.226425
 30
0.000000
  0
VERTEX
  8
LAYER-1
 10
1.780080
 20
9.226425
 30
0.000000
  0
SEQEND
  8
LAYER-1
  0
POLYLINE
  8
LAYER-1
 66
  1
 70
  0
 62
  0
 10
1.780080
 20
9.226425
 30
0.000000
  0
VERTEX
  8
LAYER-1
 10
1.780080
 20
9.226425
 30
0.000000
  0
VERTEX
  8
LAYER-1
 10
1.780080
 20
8.717575
 30
0.000000
  0
SEQEND
  8
LAYER-1
  0
POLYLINE
  8
LAYER-1
 66
  1
 70
  0
 62
  0
 10
5.445002
 20
8.717575
 30
0.000000
  0
VERTEX
  8
LAYER-1
 10
5.445002
 20
8.717575
 30
0.000000
  0
VERTEX
  8
LAYER-1
 10
1.780080
 20
8.717575
 30
0.000000
  0
SEQEND
  8
LAYER-1
  0
TEXT
  8
LAYER-1
 62
  0
 10
3.583667
 20
9.513666
 30
0.000000
 40
0.333333
  1
MobilFlex
 72
  5
 11
5.736445
 21
9.513666
 31
0.000000
  0
POLYLINE
  8
LAYER-1
 66
  1
 70
  1
 62
  0
  0
VERTEX
  8
LAYER-1
 10
1.781584
 20
10.033641
 30
0.000000
  0
VERTEX
  8
LAYER-1
 10
2.019431
 20
10.033641
 30
0.000000
  0
VERTEX
  8
LAYER-1
 10
2.019431
 20
9.516696
 30
0.000000
  0
VERTEX
  8
LAYER-1
 10
1.781584
 20
9.516696
 30
0.000000
  0
SEQEND
  8
LAYER-1
  0
POLYLINE
  8
LAYER-1
 66
  1
 70
  1
 62
  0
  0
VERTEX
  8
LAYER-1
 10
2.094084
 20
10.033641
 30
0.000000
  0
VERTEX
  8
LAYER-1
 10
2.331931
 20
10.033641
 30
0.000000
  0
VERTEX
  8
LAYER-1
 10
2.331931
 20
9.516696
 30
0.000000
  0
VERTEX
  8
LAYER-1
 10
2.094084
 20
9.516696
 30
0.000000
  0
SEQEND
  8
LAYER-1
  0
POLYLINE
  8
LAYER-1
 66
  1
 70
  1
 62
  0
  0
VERTEX
  8
LAYER-1
 10
2.394431
 20
10.033641
 30
0.000000
  0
VERTEX
  8
LAYER-1
 10
2.632278
 20
10.033641
 30
0.000000
  0
VERTEX
  8
LAYER-1
 10
2.632278
 20
9.516696
 30
0.000000
  0
VERTEX
  8
LAYER-1
 10
2.394431
 20
9.516696
 30
0.000000
  0
SEQEND
  8
LAYER-1
  0
POLYLINE
  8
LAYER-1
 66
  1
 70
  1
 62
  0
  0
VERTEX
  8
LAYER-1
 10
2.698250
 20
10.033641
 30
0.000000
  0
VERTEX
  8
LAYER-1
 10
2.936097
 20
10.033641
 30
0.000000
  0
VERTEX
  8
LAYER-1
 10
2.936097
 20
9.516696
 30
0.000000
  0
VERTEX
  8
LAYER-1
 10
2.698250
 20
9.516696
 30
0.000000
  0
SEQEND
  8
LAYER-1
  0
POLYLINE
  8
LAYER-1
 66
  1
 70
  1
 62
  0
  0
VERTEX
  8
LAYER-1
 10
3.015091
 20
10.029725
 30
0.000000
  0
VERTEX
  8
LAYER-1
 10
3.390525
 20
10.029725
 30
0.000000
  0
VERTEX
  8
LAYER-1
 10
3.390525
 20
9.891704
 30
0.000000
  0
VERTEX
  8
LAYER-1
 10
3.015091
 20
9.891704
 30
0.000000
  0
SEQEND
  8
LAYER-1
  0
POLYLINE
  8
LAYER-1
 66
  1
 70
  1
 62
  0
  0
VERTEX
  8
LAYER-1
 10
3.014657
 20
9.802294
 30
0.000000
  0
VERTEX
  8
LAYER-1
 10
3.322816
 20
9.802294
 30
0.000000
  0
VERTEX
  8
LAYER-1
 10
3.322816
 20
9.668180
 30
0.000000
  0
VERTEX
  8
LAYER-1
 10
3.014657
 20
9.668180
 30
0.000000
  0
SEQEND
  8
LAYER-1
  0
POLYLINE
  8
LAYER-1
 66
  1
 70
  1
 62
  0
  0
VERTEX
  8
LAYER-1
 10
1.781584
 20
9.432069
 30
0.000000
  0
VERTEX
  8
LAYER-1
 10
5.699987
 20
9.432069
 30
0.000000
  0
VERTEX
  8
LAYER-1
 10
5.699987
 20
9.388666
 30
0.000000
  0
VERTEX
  8
LAYER-1
 10
1.781584
 20
9.388666
 30
0.000000
  0
SEQEND
  8
LAYER-1
  0
POLYLINE
  8
LAYER-1
 66
  1
 70
  1
 62
  7
  0
VERTEX
  8
LAYER-1
 10
3.851896
 20
7.196000
 30
0.000000
  0
VERTEX
  8
LAYER-1
 10
4.022036
 20
7.196000
 30
0.000000
  0
VERTEX
  8
LAYER-1
 10
4.022036
 20
6.779080
 30
0.000000
  0
VERTEX
  8
LAYER-1
 10
3.851896
 20
6.779080
 30
0.000000
  0
SEQEND
  8
LAYER-1
  0
POLYLINE
  8
LAYER-1
 66
  1
 70
  1
 62
  7
  0
VERTEX
  8
LAYER-1
 10
4.261377
 20
7.196000
 30
0.000000
  0
VERTEX
  8
LAYER-1
 10
4.431516
 20
7.196000
 30
0.000000
  0
VERTEX
  8
LAYER-1
 10
4.431516
 20
6.779080
 30
0.000000
  0
VERTEX
  8
LAYER-1
 10
4.261377
 20
6.779080
 30
0.000000
  0
SEQEND
  8
LAYER-1
  0
POLYLINE
  8
LAYER-1
 66
  1
 70
  1
 62
  7
  0
VERTEX
  8
LAYER-1
 10
4.668251
 20
7.196000
 30
0.000000
  0
VERTEX
  8
LAYER-1
 10
4.838390
 20
7.196000
 30
0.000000
  0
VERTEX
  8
LAYER-1
 10
4.838390
 20
6.779080
 30
0.000000
  0
VERTEX
  8
LAYER-1
 10
4.668251
 20
6.779080
 30
0.000000
  0
SEQEND
  8
LAYER-1
  0
POLYLINE
  8
LAYER-1
 66
  1
 70
  1
 62
  7
  0
VERTEX
  8
LAYER-1
 10
5.076862
 20
7.196000
 30
0.000000
  0
VERTEX
  8
LAYER-1
 10
5.247001
 20
7.196000
 30
0.000000
  0
VERTEX
  8
LAYER-1
 10
5.247001
 20
6.779080
 30
0.000000
  0
VERTEX
  8
LAYER-1
 10
5.076862
 20
6.779080
 30
0.000000
  0
SEQEND
  8
LAYER-1
  0
POLYLINE
  8
LAYER-1
 66
  1
 70
  1
 62
  7
  0
VERTEX
  8
LAYER-1
 10
5.484606
 20
7.196000
 30
0.000000
  0
VERTEX
  8
LAYER-1
 10
5.654745
 20
7.196000
 30
0.000000
  0
VERTEX
  8
LAYER-1
 10
5.654745
 20
6.779080
 30
0.000000
  0
VERTEX
  8
LAYER-1
 10
5.484606
 20
6.779080
 30
0.000000
  0
SEQEND
  8
LAYER-1
  0
POLYLINE
  8
LAYER-1
 66
  1
 70
  1
 62
  7
  0
VERTEX
  8
LAYER-1
 10
4.057070
 20
6.779502
 30
0.000000
  0
VERTEX
  8
LAYER-1
 10
4.227209
 20
6.779502
 30
0.000000
  0
VERTEX
  8
LAYER-1
 10
4.227209
 20
6.162859
 30
0.000000
  0
VERTEX
  8
LAYER-1
 10
4.057070
 20
6.162859
 30
0.000000
  0
SEQEND
  8
LAYER-1
  0
POLYLINE
  8
LAYER-1
 66
  1
 70
  1
 62
  7
  0
VERTEX
  8
LAYER-1
 10
4.463946
 20
6.779502
 30
0.000000
  0
VERTEX
  8
LAYER-1
 10
4.634085
 20
6.779502
 30
0.000000
  0
VERTEX
  8
LAYER-1
 10
4.634085
 20
6.162859
 30
0.000000
  0
VERTEX
  8
LAYER-1
 10
4.463946
 20
6.162859
 30
0.000000
  0
SEQEND
  8
LAYER-1
  0
POLYLINE
  8
LAYER-1
 66
  1
 70
  1
 62
  7
  0
VERTEX
  8
LAYER-1
 10
4.869954
 20
6.779502
 30
0.000000
  0
VERTEX
  8
LAYER-1
 10
5.040093
 20
6.779502
 30
0.000000
  0
VERTEX
  8
LAYER-1
 10
5.040093
 20
6.162859
 30
0.000000
  0
VERTEX
  8
LAYER-1
 10
4.869954
 20
6.162859
 30
0.000000
  0
SEQEND
  8
LAYER-1
  0
POLYLINE
  8
LAYER-1
 66
  1
 70
  1
 62
  7
  0
VERTEX
  8
LAYER-1
 10
5.280301
 20
6.779502
 30
0.000000
  0
VERTEX
  8
LAYER-1
 10
5.450439
 20
6.779502
 30
0.000000
  0
VERTEX
  8
LAYER-1
 10
5.450439
 20
6.162859
 30
0.000000
  0
VERTEX
  8
LAYER-1
 10
5.280301
 20
6.162859
 30
0.000000
  0
SEQEND
  8
LAYER-1
  0
POLYLINE
  8
LAYER-1
 66
  1
 70
  1
 62
  7
  0
VERTEX
  8
LAYER-1
 10
5.485474
 20
6.162857
 30
0.000000
  0
VERTEX
  8
LAYER-1
 10
5.655613
 20
6.162857
 30
0.000000
  0
VERTEX
  8
LAYER-1
 10
5.655613
 20
5.546213
 30
0.000000
  0
VERTEX
  8
LAYER-1
 10
5.485474
 20
5.546213
 30
0.000000
  0
SEQEND
  8
LAYER-1
  0
POLYLINE
  8
LAYER-1
 66
  1
 70
  1
 62
  7
  0
VERTEX
  8
LAYER-1
 10
5.075994
 20
6.162857
 30
0.000000
  0
VERTEX
  8
LAYER-1
 10
5.246133
 20
6.162857
 30
0.000000
  0
VERTEX
  8
LAYER-1
 10
5.246133
 20
5.546213
 30
0.000000
  0
VERTEX
  8
LAYER-1
 10
5.075994
 20
5.546213
 30
0.000000
  0
SEQEND
  8
LAYER-1
  0
POLYLINE
  8
LAYER-1
 66
  1
 70
  1
 62
  7
  0
VERTEX
  8
LAYER-1
 10
4.667383
 20
6.162857
 30
0.000000
  0
VERTEX
  8
LAYER-1
 10
4.837523
 20
6.162857
 30
0.000000
  0
VERTEX
  8
LAYER-1
 10
4.837523
 20
5.546213
 30
0.000000
  0
VERTEX
  8
LAYER-1
 10
4.667383
 20
5.546213
 30
0.000000
  0
SEQEND
  8
LAYER-1
  0
POLYLINE
  8
LAYER-1
 66
  1
 70
  1
 62
  7
  0
VERTEX
  8
LAYER-1
 10
4.260509
 20
6.162857
 30
0.000000
  0
VERTEX
  8
LAYER-1
 10
4.430648
 20
6.162857
 30
0.000000
  0
VERTEX
  8
LAYER-1
 10
4.430648
 20
5.546213
 30
0.000000
  0
VERTEX
  8
LAYER-1
 10
4.260509
 20
5.546213
 30
0.000000
  0
SEQEND
  8
LAYER-1
  0
POLYLINE
  8
LAYER-1
 66
  1
 70
  1
 62
  7
  0
VERTEX
  8
LAYER-1
 10
3.851896
 20
6.162857
 30
0.000000
  0
VERTEX
  8
LAYER-1
 10
4.022036
 20
6.162857
 30
0.000000
  0
VERTEX
  8
LAYER-1
 10
4.022036
 20
5.546213
 30
0.000000
  0
VERTEX
  8
LAYER-1
 10
3.851896
 20
5.546213
 30
0.000000
  0
SEQEND
  8
LAYER-1
  0
POLYLINE
  8
LAYER-1
 66
  1
 70
  1
 62
  7
  0
VERTEX
  8
LAYER-1
 10
4.057070
 20
5.546482
 30
0.000000
  0
VERTEX
  8
LAYER-1
 10
4.227209
 20
5.546482
 30
0.000000
  0
VERTEX
  8
LAYER-1
 10
4.227209
 20
4.929838
 30
0.000000
  0
VERTEX
  8
LAYER-1
 10
4.057070
 20
4.929838
 30
0.000000
  0
SEQEND
  8
LAYER-1
  0
POLYLINE
  8
LAYER-1
 66
  1
 70
  1
 62
  7
  0
VERTEX
  8
LAYER-1
 10
4.463946
 20
5.546482
 30
0.000000
  0
VERTEX
  8
LAYER-1
 10
4.634085
 20
5.546482
 30
0.000000
  0
VERTEX
  8
LAYER-1
 10
4.634085
 20
4.929838
 30
0.000000
  0
VERTEX
  8
LAYER-1
 10
4.463946
 20
4.929838
 30
0.000000
  0
SEQEND
  8
LAYER-1
  0
POLYLINE
  8
LAYER-1
 66
  1
 70
  1
 62
  7
  0
VERTEX
  8
LAYER-1
 10
4.869954
 20
5.546482
 30
0.000000
  0
VERTEX
  8
LAYER-1
 10
5.040093
 20
5.546482
 30
0.000000
  0
VERTEX
  8
LAYER-1
 10
5.040093
 20
4.929838
 30
0.000000
  0
VERTEX
  8
LAYER-1
 10
4.869954
 20
4.929838
 30
0.000000
  0
SEQEND
  8
LAYER-1
  0
POLYLINE
  8
LAYER-1
 66
  1
 70
  1
 62
  7
  0
VERTEX
  8
LAYER-1
 10
5.280301
 20
5.546482
 30
0.000000
  0
VERTEX
  8
LAYER-1
 10
5.450439
 20
5.546482
 30
0.000000
  0
VERTEX
  8
LAYER-1
 10
5.450439
 20
4.929838
 30
0.000000
  0
VERTEX
  8
LAYER-1
 10
5.280301
 20
4.929838
 30
0.000000
  0
SEQEND
  8
LAYER-1
  0
POLYLINE
  8
LAYER-1
 66
  1
 70
  1
 62
  7
  0
VERTEX
  8
LAYER-1
 10
5.485474
 20
4.929836
 30
0.000000
  0
VERTEX
  8
LAYER-1
 10
5.655613
 20
4.929836
 30
0.000000
  0
VERTEX
  8
LAYER-1
 10
5.655613
 20
4.313193
 30
0.000000
  0
VERTEX
  8
LAYER-1
 10
5.485474
 20
4.313193
 30
0.000000
  0
SEQEND
  8
LAYER-1
  0
POLYLINE
  8
LAYER-1
 66
  1
 70
  1
 62
  7
  0
VERTEX
  8
LAYER-1
 10
5.075126
 20
4.929836
 30
0.000000
  0
VERTEX
  8
LAYER-1
 10
5.245265
 20
4.929836
 30
0.000000
  0
VERTEX
  8
LAYER-1
 10
5.245265
 20
4.313193
 30
0.000000
  0
VERTEX
  8
LAYER-1
 10
5.075126
 20
4.313193
 30
0.000000
  0
SEQEND
  8
LAYER-1
  0
POLYLINE
  8
LAYER-1
 66
  1
 70
  1
 62
  7
  0
VERTEX
  8
LAYER-1
 10
4.667383
 20
4.929836
 30
0.000000
  0
VERTEX
  8
LAYER-1
 10
4.837523
 20
4.929836
 30
0.000000
  0
VERTEX
  8
LAYER-1
 10
4.837523
 20
4.313193
 30
0.000000
  0
VERTEX
  8
LAYER-1
 10
4.667383
 20
4.313193
 30
0.000000
  0
SEQEND
  8
LAYER-1
  0
POLYLINE
  8
LAYER-1
 66
  1
 70
  1
 62
  7
  0
VERTEX
  8
LAYER-1
 10
4.260509
 20
4.929836
 30
0.000000
  0
VERTEX
  8
LAYER-1
 10
4.430648
 20
4.929836
 30
0.000000
  0
VERTEX
  8
LAYER-1
 10
4.430648
 20
4.313193
 30
0.000000
  0
VERTEX
  8
LAYER-1
 10
4.260509
 20
4.313193
 30
0.000000
  0
SEQEND
  8
LAYER-1
  0
POLYLINE
  8
LAYER-1
 66
  1
 70
  1
 62
  7
  0
VERTEX
  8
LAYER-1
 10
3.851896
 20
4.929836
 30
0.000000
  0
VERTEX
  8
LAYER-1
 10
4.022036
 20
4.929836
 30
0.000000
  0
VERTEX
  8
LAYER-1
 10
4.022036
 20
4.313193
 30
0.000000
  0
VERTEX
  8
LAYER-1
 10
3.851896
 20
4.313193
 30
0.000000
  0
SEQEND
  8
LAYER-1
  0
POLYLINE
  8
LAYER-1
 66
  1
 70
  1
 62
  7
  0
VERTEX
  8
LAYER-1
 10
4.057070
 20
4.313461
 30
0.000000
  0
VERTEX
  8
LAYER-1
 10
4.227209
 20
4.313461
 30
0.000000
  0
VERTEX
  8
LAYER-1
 10
4.227209
 20
3.696817
 30
0.000000
  0
VERTEX
  8
LAYER-1
 10
4.057070
 20
3.696817
 30
0.000000
  0
SEQEND
  8
LAYER-1
  0
POLYLINE
  8
LAYER-1
 66
  1
 70
  1
 62
  7
  0
VERTEX
  8
LAYER-1
 10
4.463946
 20
4.313461
 30
0.000000
  0
VERTEX
  8
LAYER-1
 10
4.634085
 20
4.313461
 30
0.000000
  0
VERTEX
  8
LAYER-1
 10
4.634085
 20
3.696817
 30
0.000000
  0
VERTEX
  8
LAYER-1
 10
4.463946
 20
3.696817
 30
0.000000
  0
SEQEND
  8
LAYER-1
  0
POLYLINE
  8
LAYER-1
 66
  1
 70
  1
 62
  7
  0
VERTEX
  8
LAYER-1
 10
4.870822
 20
4.313461
 30
0.000000
  0
VERTEX
  8
LAYER-1
 10
5.040961
 20
4.313461
 30
0.000000
  0
VERTEX
  8
LAYER-1
 10
5.040961
 20
3.696817
 30
0.000000
  0
VERTEX
  8
LAYER-1
 10
4.870822
 20
3.696817
 30
0.000000
  0
SEQEND
  8
LAYER-1
  0
POLYLINE
  8
LAYER-1
 66
  1
 70
  1
 62
  7
  0
VERTEX
  8
LAYER-1
 10
5.280301
 20
4.313461
 30
0.000000
  0
VERTEX
  8
LAYER-1
 10
5.450439
 20
4.313461
 30
0.000000
  0
VERTEX
  8
LAYER-1
 10
5.450439
 20
3.696817
 30
0.000000
  0
VERTEX
  8
LAYER-1
 10
5.280301
 20
3.696817
 30
0.000000
  0
SEQEND
  8
LAYER-1
  0
POLYLINE
  8
LAYER-1
 66
  1
 70
  1
 62
  7
  0
VERTEX
  8
LAYER-1
 10
5.485474
 20
3.696815
 30
0.000000
  0
VERTEX
  8
LAYER-1
 10
5.655613
 20
3.696815
 30
0.000000
  0
VERTEX
  8
LAYER-1
 10
5.655613
 20
3.080172
 30
0.000000
  0
VERTEX
  8
LAYER-1
 10
5.485474
 20
3.080172
 30
0.000000
  0
SEQEND
  8
LAYER-1
  0
POLYLINE
  8
LAYER-1
 66
  1
 70
  1
 62
  7
  0
VERTEX
  8
LAYER-1
 10
5.075994
 20
3.696815
 30
0.000000
  0
VERTEX
  8
LAYER-1
 10
5.246133
 20
3.696815
 30
0.000000
  0
VERTEX
  8
LAYER-1
 10
5.246133
 20
3.080172
 30
0.000000
  0
VERTEX
  8
LAYER-1
 10
5.075994
 20
3.080172
 30
0.000000
  0
SEQEND
  8
LAYER-1
  0
POLYLINE
  8
LAYER-1
 66
  1
 70
  1
 62
  7
  0
VERTEX
  8
LAYER-1
 10
4.667383
 20
3.696815
 30
0.000000
  0
VERTEX
  8
LAYER-1
 10
4.837523
 20
3.696815
 30
0.000000
  0
VERTEX
  8
LAYER-1
 10
4.837523
 20
3.080172
 30
0.000000
  0
VERTEX
  8
LAYER-1
 10
4.667383
 20
3.080172
 30
0.000000
  0
SEQEND
  8
LAYER-1
  0
POLYLINE
  8
LAYER-1
 66
  1
 70
  1
 62
  7
  0
VERTEX
  8
LAYER-1
 10
4.260509
 20
3.696815
 30
0.000000
  0
VERTEX
  8
LAYER-1
 10
4.430648
 20
3.696815
 30
0.000000
  0
VERTEX
  8
LAYER-1
 10
4.430648
 20
3.080172
 30
0.000000
  0
VERTEX
  8
LAYER-1
 10
4.260509
 20
3.080172
 30
0.000000
  0
SEQEND
  8
LAYER-1
  0
POLYLINE
  8
LAYER-1
 66
  1
 70
  1
 62
  7
  0
VERTEX
  8
LAYER-1
 10
3.851896
 20
3.696815
 30
0.000000
  0
VERTEX
  8
LAYER-1
 10
4.022036
 20
3.696815
 30
0.000000
  0
VERTEX
  8
LAYER-1
 10
4.022036
 20
3.080172
 30
0.000000
  0
VERTEX
  8
LAYER-1
 10
3.851896
 20
3.080172
 30
0.000000
  0
SEQEND
  8
LAYER-1
  0
POLYLINE
  8
LAYER-1
 66
  1
 70
  1
 62
  7
  0
VERTEX
  8
LAYER-1
 10
4.057070
 20
3.080439
 30
0.000000
  0
VERTEX
  8
LAYER-1
 10
4.227209
 20
3.080439
 30
0.000000
  0
VERTEX
  8
LAYER-1
 10
4.227209
 20
2.463795
 30
0.000000
  0
VERTEX
  8
LAYER-1
 10
4.057070
 20
2.463795
 30
0.000000
  0
SEQEND
  8
LAYER-1
  0
POLYLINE
  8
LAYER-1
 66
  1
 70
  1
 62
  7
  0
VERTEX
  8
LAYER-1
 10
4.463946
 20
3.080439
 30
0.000000
  0
VERTEX
  8
LAYER-1
 10
4.634085
 20
3.080439
 30
0.000000
  0
VERTEX
  8
LAYER-1
 10
4.634085
 20
2.463795
 30
0.000000
  0
VERTEX
  8
LAYER-1
 10
4.463946
 20
2.463795
 30
0.000000
  0
SEQEND
  8
LAYER-1
  0
POLYLINE
  8
LAYER-1
 66
  1
 70
  1
 62
  7
  0
VERTEX
  8
LAYER-1
 10
4.870822
 20
3.080439
 30
0.000000
  0
VERTEX
  8
LAYER-1
 10
5.040961
 20
3.080439
 30
0.000000
  0
VERTEX
  8
LAYER-1
 10
5.040961
 20
2.463795
 30
0.000000
  0
VERTEX
  8
LAYER-1
 10
4.870822
 20
2.463795
 30
0.000000
  0
SEQEND
  8
LAYER-1
  0
POLYLINE
  8
LAYER-1
 66
  1
 70
  1
 62
  7
  0
VERTEX
  8
LAYER-1
 10
5.280301
 20
3.080439
 30
0.000000
  0
VERTEX
  8
LAYER-1
 10
5.450439
 20
3.080439
 30
0.000000
  0
VERTEX
  8
LAYER-1
 10
5.450439
 20
2.463795
 30
0.000000
  0
VERTEX
  8
LAYER-1
 10
5.280301
 20
2.463795
 30
0.000000
  0
SEQEND
  8
LAYER-1
  0
POLYLINE
  8
LAYER-1
 66
  1
 70
  1
 62
  7
  0
VERTEX
  8
LAYER-1
 10
5.485474
 20
2.463793
 30
0.000000
  0
VERTEX
  8
LAYER-1
 10
5.655613
 20
2.463793
 30
0.000000
  0
VERTEX
  8
LAYER-1
 10
5.655613
 20
1.847149
 30
0.000000
  0
VERTEX
  8
LAYER-1
 10
5.485474
 20
1.847149
 30
0.000000
  0
SEQEND
  8
LAYER-1
  0
POLYLINE
  8
LAYER-1
 66
  1
 70
  1
 62
  7
  0
VERTEX
  8
LAYER-1
 10
5.075994
 20
2.463793
 30
0.000000
  0
VERTEX
  8
LAYER-1
 10
5.246133
 20
2.463793
 30
0.000000
  0
VERTEX
  8
LAYER-1
 10
5.246133
 20
1.847149
 30
0.000000
  0
VERTEX
  8
LAYER-1
 10
5.075994
 20
1.847149
 30
0.000000
  0
SEQEND
  8
LAYER-1
  0
POLYLINE
  8
LAYER-1
 66
  1
 70
  1
 62
  7
  0
VERTEX
  8
LAYER-1
 10
4.667383
 20
2.463793
 30
0.000000
  0
VERTEX
  8
LAYER-1
 10
4.837523
 20
2.463793
 30
0.000000
  0
VERTEX
  8
LAYER-1
 10
4.837523
 20
1.847149
 30
0.000000
  0
VERTEX
  8
LAYER-1
 10
4.667383
 20
1.847149
 30
0.000000
  0
SEQEND
  8
LAYER-1
  0
POLYLINE
  8
LAYER-1
 66
  1
 70
  1
 62
  7
  0
VERTEX
  8
LAYER-1
 10
4.260509
 20
2.463793
 30
0.000000
  0
VERTEX
  8
LAYER-1
 10
4.430648
 20
2.463793
 30
0.000000
  0
VERTEX
  8
LAYER-1
 10
4.430648
 20
1.847149
 30
0.000000
  0
VERTEX
  8
LAYER-1
 10
4.260509
 20
1.847149
 30
0.000000
  0
SEQEND
  8
LAYER-1
  0
POLYLINE
  8
LAYER-1
 66
  1
 70
  1
 62
  7
  0
VERTEX
  8
LAYER-1
 10
3.851896
 20
2.463793
 30
0.000000
  0
VERTEX
  8
LAYER-1
 10
4.022036
 20
2.463793
 30
0.000000
  0
VERTEX
  8
LAYER-1
 10
4.022036
 20
1.847149
 30
0.000000
  0
VERTEX
  8
LAYER-1
 10
3.851896
 20
1.847149
 30
0.000000
  0
SEQEND
  8
LAYER-1
  0
POLYLINE
  8
LAYER-1
 66
  1
 70
  1
 62
  7
  0
VERTEX
  8
LAYER-1
 10
4.057070
 20
1.847419
 30
0.000000
  0
VERTEX
  8
LAYER-1
 10
4.227209
 20
1.847419
 30
0.000000
  0
VERTEX
  8
LAYER-1
 10
4.227209
 20
1.230776
 30
0.000000
  0
VERTEX
  8
LAYER-1
 10
4.057070
 20
1.230776
 30
0.000000
  0
SEQEND
  8
LAYER-1
  0
POLYLINE
  8
LAYER-1
 66
  1
 70
  1
 62
  7
  0
VERTEX
  8
LAYER-1
 10
4.464814
 20
1.847419
 30
0.000000
  0
VERTEX
  8
LAYER-1
 10
4.634953
 20
1.847419
 30
0.000000
  0
VERTEX
  8
LAYER-1
 10
4.634953
 20
1.230776
 30
0.000000
  0
VERTEX
  8
LAYER-1
 10
4.464814
 20
1.230776
 30
0.000000
  0
SEQEND
  8
LAYER-1
  0
POLYLINE
  8
LAYER-1
 66
  1
 70
  1
 62
  7
  0
VERTEX
  8
LAYER-1
 10
4.870822
 20
1.847419
 30
0.000000
  0
VERTEX
  8
LAYER-1
 10
5.040961
 20
1.847419
 30
0.000000
  0
VERTEX
  8
LAYER-1
 10
5.040961
 20
1.230776
 30
0.000000
  0
VERTEX
  8
LAYER-1
 10
4.870822
 20
1.230776
 30
0.000000
  0
SEQEND
  8
LAYER-1
  0
POLYLINE
  8
LAYER-1
 66
  1
 70
  1
 62
  7
  0
VERTEX
  8
LAYER-1
 10
5.280301
 20
1.847419
 30
0.000000
  0
VERTEX
  8
LAYER-1
 10
5.450439
 20
1.847419
 30
0.000000
  0
VERTEX
  8
LAYER-1
 10
5.450439
 20
1.230776
 30
0.000000
  0
VERTEX
  8
LAYER-1
 10
5.280301
 20
1.230776
 30
0.000000
  0
SEQEND
  8
LAYER-1
  0
POLYLINE
  8
LAYER-1
 66
  1
 70
  1
 62
  7
  0
VERTEX
  8
LAYER-1
 10
5.485474
 20
1.230773
 30
0.000000
  0
VERTEX
  8
LAYER-1
 10
5.655613
 20
1.230773
 30
0.000000
  0
VERTEX
  8
LAYER-1
 10
5.655613
 20
0.614132
 30
0.000000
  0
VERTEX
  8
LAYER-1
 10
5.485474
 20
0.614132
 30
0.000000
  0
SEQEND
  8
LAYER-1
  0
POLYLINE
  8
LAYER-1
 66
  1
 70
  1
 62
  7
  0
VERTEX
  8
LAYER-1
 10
5.075994
 20
1.230773
 30
0.000000
  0
VERTEX
  8
LAYER-1
 10
5.246133
 20
1.230773
 30
0.000000
  0
VERTEX
  8
LAYER-1
 10
5.246133
 20
0.614132
 30
0.000000
  0
VERTEX
  8
LAYER-1
 10
5.075994
 20
0.614132
 30
0.000000
  0
SEQEND
  8
LAYER-1
  0
POLYLINE
  8
LAYER-1
 66
  1
 70
  1
 62
  7
  0
VERTEX
  8
LAYER-1
 10
4.667383
 20
1.230773
 30
0.000000
  0
VERTEX
  8
LAYER-1
 10
4.837523
 20
1.230773
 30
0.000000
  0
VERTEX
  8
LAYER-1
 10
4.837523
 20
0.614132
 30
0.000000
  0
VERTEX
  8
LAYER-1
 10
4.667383
 20
0.614132
 30
0.000000
  0
SEQEND
  8
LAYER-1
  0
POLYLINE
  8
LAYER-1
 66
  1
 70
  1
 62
  7
  0
VERTEX
  8
LAYER-1
 10
4.261377
 20
1.230773
 30
0.000000
  0
VERTEX
  8
LAYER-1
 10
4.431516
 20
1.230773
 30
0.000000
  0
VERTEX
  8
LAYER-1
 10
4.431516
 20
0.614132
 30
0.000000
  0
VERTEX
  8
LAYER-1
 10
4.261377
 20
0.614132
 30
0.000000
  0
SEQEND
  8
LAYER-1
  0
POLYLINE
  8
LAYER-1
 66
  1
 70
  1
 62
  7
  0
VERTEX
  8
LAYER-1
 10
3.851896
 20
1.230773
 30
0.000000
  0
VERTEX
  8
LAYER-1
 10
4.022036
 20
1.230773
 30
0.000000
  0
VERTEX
  8
LAYER-1
 10
4.022036
 20
0.614132
 30
0.000000
  0
VERTEX
  8
LAYER-1
 10
3.851896
 20
0.614132
 30
0.000000
  0
SEQEND
  8
LAYER-1
  0
POLYLINE
  8
LAYER-1
 66
  1
 70
  1
 62
  7
  0
VERTEX
  8
LAYER-1
 10
1.805021
 20
7.196309
 30
0.000000
  0
VERTEX
  8
LAYER-1
 10
1.975160
 20
7.196309
 30
0.000000
  0
VERTEX
  8
LAYER-1
 10
1.975160
 20
6.779388
 30
0.000000
  0
VERTEX
  8
LAYER-1
 10
1.805021
 20
6.779388
 30
0.000000
  0
SEQEND
  8
LAYER-1
  0
POLYLINE
  8
LAYER-1
 66
  1
 70
  1
 62
  7
  0
VERTEX
  8
LAYER-1
 10
2.214501
 20
7.196309
 30
0.000000
  0
VERTEX
  8
LAYER-1
 10
2.384640
 20
7.196309
 30
0.000000
  0
VERTEX
  8
LAYER-1
 10
2.384640
 20
6.779388
 30
0.000000
  0
VERTEX
  8
LAYER-1
 10
2.214501
 20
6.779388
 30
0.000000
  0
SEQEND
  8
LAYER-1
  0
POLYLINE
  8
LAYER-1
 66
  1
 70
  1
 62
  7
  0
VERTEX
  8
LAYER-1
 10
2.623980
 20
7.196309
 30
0.000000
  0
VERTEX
  8
LAYER-1
 10
2.794119
 20
7.196309
 30
0.000000
  0
VERTEX
  8
LAYER-1
 10
2.794119
 20
6.779388
 30
0.000000
  0
VERTEX
  8
LAYER-1
 10
2.623980
 20
6.779388
 30
0.000000
  0
SEQEND
  8
LAYER-1
  0
POLYLINE
  8
LAYER-1
 66
  1
 70
  1
 62
  7
  0
VERTEX
  8
LAYER-1
 10
3.029987
 20
7.196309
 30
0.000000
  0
VERTEX
  8
LAYER-1
 10
3.200126
 20
7.196309
 30
0.000000
  0
VERTEX
  8
LAYER-1
 10
3.200126
 20
6.779388
 30
0.000000
  0
VERTEX
  8
LAYER-1
 10
3.029987
 20
6.779388
 30
0.000000
  0
SEQEND
  8
LAYER-1
  0
POLYLINE
  8
LAYER-1
 66
  1
 70
  1
 62
  7
  0
VERTEX
  8
LAYER-1
 10
3.437731
 20
7.196309
 30
0.000000
  0
VERTEX
  8
LAYER-1
 10
3.607869
 20
7.196309
 30
0.000000
  0
VERTEX
  8
LAYER-1
 10
3.607869
 20
6.779388
 30
0.000000
  0
VERTEX
  8
LAYER-1
 10
3.437731
 20
6.779388
 30
0.000000
  0
SEQEND
  8
LAYER-1
  0
POLYLINE
  8
LAYER-1
 66
  1
 70
  1
 62
  7
  0
VERTEX
  8
LAYER-1
 10
3.233425
 20
6.779811
 30
0.000000
  0
VERTEX
  8
LAYER-1
 10
3.403564
 20
6.779811
 30
0.000000
  0
VERTEX
  8
LAYER-1
 10
3.403564
 20
6.163167
 30
0.000000
  0
VERTEX
  8
LAYER-1
 10
3.233425
 20
6.163167
 30
0.000000
  0
SEQEND
  8
LAYER-1
  0
POLYLINE
  8
LAYER-1
 66
  1
 70
  1
 62
  7
  0
VERTEX
  8
LAYER-1
 10
2.827418
 20
6.779811
 30
0.000000
  0
VERTEX
  8
LAYER-1
 10
2.997557
 20
6.779811
 30
0.000000
  0
VERTEX
  8
LAYER-1
 10
2.997557
 20
6.163167
 30
0.000000
  0
VERTEX
  8
LAYER-1
 10
2.827418
 20
6.163167
 30
0.000000
  0
SEQEND
  8
LAYER-1
  0
POLYLINE
  8
LAYER-1
 66
  1
 70
  1
 62
  7
  0
VERTEX
  8
LAYER-1
 10
2.419675
 20
6.779811
 30
0.000000
  0
VERTEX
  8
LAYER-1
 10
2.589813
 20
6.779811
 30
0.000000
  0
VERTEX
  8
LAYER-1
 10
2.589813
 20
6.163167
 30
0.000000
  0
VERTEX
  8
LAYER-1
 10
2.419675
 20
6.163167
 30
0.000000
  0
SEQEND
  8
LAYER-1
  0
POLYLINE
  8
LAYER-1
 66
  1
 70
  1
 62
  7
  0
VERTEX
  8
LAYER-1
 10
2.011063
 20
6.779811
 30
0.000000
  0
VERTEX
  8
LAYER-1
 10
2.181202
 20
6.779811
 30
0.000000
  0
VERTEX
  8
LAYER-1
 10
2.181202
 20
6.163167
 30
0.000000
  0
VERTEX
  8
LAYER-1
 10
2.011063
 20
6.163167
 30
0.000000
  0
SEQEND
  8
LAYER-1
  0
POLYLINE
  8
LAYER-1
 66
  1
 70
  1
 62
  7
  0
VERTEX
  8
LAYER-1
 10
1.805021
 20
6.163165
 30
0.000000
  0
VERTEX
  8
LAYER-1
 10
1.975160
 20
6.163165
 30
0.000000
  0
VERTEX
  8
LAYER-1
 10
1.975160
 20
5.546522
 30
0.000000
  0
VERTEX
  8
LAYER-1
 10
1.805021
 20
5.546522
 30
0.000000
  0
SEQEND
  8
LAYER-1
  0
POLYLINE
  8
LAYER-1
 66
  1
 70
  1
 62
  7
  0
VERTEX
  8
LAYER-1
 10
2.214501
 20
6.163165
 30
0.000000
  0
VERTEX
  8
LAYER-1
 10
2.384640
 20
6.163165
 30
0.000000
  0
VERTEX
  8
LAYER-1
 10
2.384640
 20
5.546522
 30
0.000000
  0
VERTEX
  8
LAYER-1
 10
2.214501
 20
5.546522
 30
0.000000
  0
SEQEND
  8
LAYER-1
  0
POLYLINE
  8
LAYER-1
 66
  1
 70
  1
 62
  7
  0
VERTEX
  8
LAYER-1
 10
2.623980
 20
6.163165
 30
0.000000
  0
VERTEX
  8
LAYER-1
 10
2.794119
 20
6.163165
 30
0.000000
  0
VERTEX
  8
LAYER-1
 10
2.794119
 20
5.546522
 30
0.000000
  0
VERTEX
  8
LAYER-1
 10
2.623980
 20
5.546522
 30
0.000000
  0
SEQEND
  8
LAYER-1
  0
POLYLINE
  8
LAYER-1
 66
  1
 70
  1
 62
  7
  0
VERTEX
  8
LAYER-1
 10
3.029987
 20
6.163165
 30
0.000000
  0
VERTEX
  8
LAYER-1
 10
3.200126
 20
6.163165
 30
0.000000
  0
VERTEX
  8
LAYER-1
 10
3.200126
 20
5.546522
 30
0.000000
  0
VERTEX
  8
LAYER-1
 10
3.029987
 20
5.546522
 30
0.000000
  0
SEQEND
  8
LAYER-1
  0
POLYLINE
  8
LAYER-1
 66
  1
 70
  1
 62
  7
  0
VERTEX
  8
LAYER-1
 10
3.437731
 20
6.163165
 30
0.000000
  0
VERTEX
  8
LAYER-1
 10
3.607869
 20
6.163165
 30
0.000000
  0
VERTEX
  8
LAYER-1
 10
3.607869
 20
5.546522
 30
0.000000
  0
VERTEX
  8
LAYER-1
 10
3.437731
 20
5.546522
 30
0.000000
  0
SEQEND
  8
LAYER-1
  0
POLYLINE
  8
LAYER-1
 66
  1
 70
  1
 62
  7
  0
VERTEX
  8
LAYER-1
 10
3.233425
 20
5.546789
 30
0.000000
  0
VERTEX
  8
LAYER-1
 10
3.403564
 20
5.546789
 30
0.000000
  0
VERTEX
  8
LAYER-1
 10
3.403564
 20
4.930146
 30
0.000000
  0
VERTEX
  8
LAYER-1
 10
3.233425
 20
4.930146
 30
0.000000
  0
SEQEND
  8
LAYER-1
  0
POLYLINE
  8
LAYER-1
 66
  1
 70
  1
 62
  7
  0
VERTEX
  8
LAYER-1
 10
2.827418
 20
5.546789
 30
0.000000
  0
VERTEX
  8
LAYER-1
 10
2.997557
 20
5.546789
 30
0.000000
  0
VERTEX
  8
LAYER-1
 10
2.997557
 20
4.930146
 30
0.000000
  0
VERTEX
  8
LAYER-1
 10
2.827418
 20
4.930146
 30
0.000000
  0
SEQEND
  8
LAYER-1
  0
POLYLINE
  8
LAYER-1
 66
  1
 70
  1
 62
  7
  0
VERTEX
  8
LAYER-1
 10
2.419675
 20
5.546789
 30
0.000000
  0
VERTEX
  8
LAYER-1
 10
2.589813
 20
5.546789
 30
0.000000
  0
VERTEX
  8
LAYER-1
 10
2.589813
 20
4.930146
 30
0.000000
  0
VERTEX
  8
LAYER-1
 10
2.419675
 20
4.930146
 30
0.000000
  0
SEQEND
  8
LAYER-1
  0
POLYLINE
  8
LAYER-1
 66
  1
 70
  1
 62
  7
  0
VERTEX
  8
LAYER-1
 10
2.011063
 20
5.546789
 30
0.000000
  0
VERTEX
  8
LAYER-1
 10
2.181202
 20
5.546789
 30
0.000000
  0
VERTEX
  8
LAYER-1
 10
2.181202
 20
4.930146
 30
0.000000
  0
VERTEX
  8
LAYER-1
 10
2.011063
 20
4.930146
 30
0.000000
  0
SEQEND
  8
LAYER-1
  0
POLYLINE
  8
LAYER-1
 66
  1
 70
  1
 62
  7
  0
VERTEX
  8
LAYER-1
 10
1.805021
 20
4.930144
 30
0.000000
  0
VERTEX
  8
LAYER-1
 10
1.975160
 20
4.930144
 30
0.000000
  0
VERTEX
  8
LAYER-1
 10
1.975160
 20
4.313501
 30
0.000000
  0
VERTEX
  8
LAYER-1
 10
1.805021
 20
4.313501
 30
0.000000
  0
SEQEND
  8
LAYER-1
  0
POLYLINE
  8
LAYER-1
 66
  1
 70
  1
 62
  7
  0
VERTEX
  8
LAYER-1
 10
2.214501
 20
4.930144
 30
0.000000
  0
VERTEX
  8
LAYER-1
 10
2.384640
 20
4.930144
 30
0.000000
  0
VERTEX
  8
LAYER-1
 10
2.384640
 20
4.313501
 30
0.000000
  0
VERTEX
  8
LAYER-1
 10
2.214501
 20
4.313501
 30
0.000000
  0
SEQEND
  8
LAYER-1
  0
POLYLINE
  8
LAYER-1
 66
  1
 70
  1
 62
  7
  0
VERTEX
  8
LAYER-1
 10
2.623980
 20
4.930144
 30
0.000000
  0
VERTEX
  8
LAYER-1
 10
2.794119
 20
4.930144
 30
0.000000
  0
VERTEX
  8
LAYER-1
 10
2.794119
 20
4.313501
 30
0.000000
  0
VERTEX
  8
LAYER-1
 10
2.623980
 20
4.313501
 30
0.000000
  0
SEQEND
  8
LAYER-1
  0
POLYLINE
  8
LAYER-1
 66
  1
 70
  1
 62
  7
  0
VERTEX
  8
LAYER-1
 10
3.029987
 20
4.930144
 30
0.000000
  0
VERTEX
  8
LAYER-1
 10
3.200126
 20
4.930144
 30
0.000000
  0
VERTEX
  8
LAYER-1
 10
3.200126
 20
4.313501
 30
0.000000
  0
VERTEX
  8
LAYER-1
 10
3.029987
 20
4.313501
 30
0.000000
  0
SEQEND
  8
LAYER-1
  0
POLYLINE
  8
LAYER-1
 66
  1
 70
  1
 62
  7
  0
VERTEX
  8
LAYER-1
 10
3.437731
 20
4.930144
 30
0.000000
  0
VERTEX
  8
LAYER-1
 10
3.607869
 20
4.930144
 30
0.000000
  0
VERTEX
  8
LAYER-1
 10
3.607869
 20
4.313501
 30
0.000000
  0
VERTEX
  8
LAYER-1
 10
3.437731
 20
4.313501
 30
0.000000
  0
SEQEND
  8
LAYER-1
  0
POLYLINE
  8
LAYER-1
 66
  1
 70
  1
 62
  7
  0
VERTEX
  8
LAYER-1
 10
3.233425
 20
4.313769
 30
0.000000
  0
VERTEX
  8
LAYER-1
 10
3.403564
 20
4.313769
 30
0.000000
  0
VERTEX
  8
LAYER-1
 10
3.403564
 20
3.697126
 30
0.000000
  0
VERTEX
  8
LAYER-1
 10
3.233425
 20
3.697126
 30
0.000000
  0
SEQEND
  8
LAYER-1
  0
POLYLINE
  8
LAYER-1
 66
  1
 70
  1
 62
  7
  0
VERTEX
  8
LAYER-1
 10
2.827418
 20
4.313769
 30
0.000000
  0
VERTEX
  8
LAYER-1
 10
2.997557
 20
4.313769
 30
0.000000
  0
VERTEX
  8
LAYER-1
 10
2.997557
 20
3.697126
 30
0.000000
  0
VERTEX
  8
LAYER-1
 10
2.827418
 20
3.697126
 30
0.000000
  0
SEQEND
  8
LAYER-1
  0
POLYLINE
  8
LAYER-1
 66
  1
 70
  1
 62
  7
  0
VERTEX
  8
LAYER-1
 10
2.419675
 20
4.313769
 30
0.000000
  0
VERTEX
  8
LAYER-1
 10
2.589813
 20
4.313769
 30
0.000000
  0
VERTEX
  8
LAYER-1
 10
2.589813
 20
3.697126
 30
0.000000
  0
VERTEX
  8
LAYER-1
 10
2.419675
 20
3.697126
 30
0.000000
  0
SEQEND
  8
LAYER-1
  0
POLYLINE
  8
LAYER-1
 66
  1
 70
  1
 62
  7
  0
VERTEX
  8
LAYER-1
 10
2.011063
 20
4.313769
 30
0.000000
  0
VERTEX
  8
LAYER-1
 10
2.181202
 20
4.313769
 30
0.000000
  0
VERTEX
  8
LAYER-1
 10
2.181202
 20
3.697126
 30
0.000000
  0
VERTEX
  8
LAYER-1
 10
2.011063
 20
3.697126
 30
0.000000
  0
SEQEND
  8
LAYER-1
  0
POLYLINE
  8
LAYER-1
 66
  1
 70
  1
 62
  7
  0
VERTEX
  8
LAYER-1
 10
1.805021
 20
3.697124
 30
0.000000
  0
VERTEX
  8
LAYER-1
 10
1.975160
 20
3.697124
 30
0.000000
  0
VERTEX
  8
LAYER-1
 10
1.975160
 20
3.080481
 30
0.000000
  0
VERTEX
  8
LAYER-1
 10
1.805021
 20
3.080481
 30
0.000000
  0
SEQEND
  8
LAYER-1
  0
POLYLINE
  8
LAYER-1
 66
  1
 70
  1
 62
  7
  0
VERTEX
  8
LAYER-1
 10
2.214501
 20
3.697124
 30
0.000000
  0
VERTEX
  8
LAYER-1
 10
2.384640
 20
3.697124
 30
0.000000
  0
VERTEX
  8
LAYER-1
 10
2.384640
 20
3.080481
 30
0.000000
  0
VERTEX
  8
LAYER-1
 10
2.214501
 20
3.080481
 30
0.000000
  0
SEQEND
  8
LAYER-1
  0
POLYLINE
  8
LAYER-1
 66
  1
 70
  1
 62
  7
  0
VERTEX
  8
LAYER-1
 10
2.623980
 20
3.697124
 30
0.000000
  0
VERTEX
  8
LAYER-1
 10
2.794119
 20
3.697124
 30
0.000000
  0
VERTEX
  8
LAYER-1
 10
2.794119
 20
3.080481
 30
0.000000
  0
VERTEX
  8
LAYER-1
 10
2.623980
 20
3.080481
 30
0.000000
  0
SEQEND
  8
LAYER-1
  0
POLYLINE
  8
LAYER-1
 66
  1
 70
  1
 62
  7
  0
VERTEX
  8
LAYER-1
 10
3.029987
 20
3.697124
 30
0.000000
  0
VERTEX
  8
LAYER-1
 10
3.200126
 20
3.697124
 30
0.000000
  0
VERTEX
  8
LAYER-1
 10
3.200126
 20
3.080481
 30
0.000000
  0
VERTEX
  8
LAYER-1
 10
3.029987
 20
3.080481
 30
0.000000
  0
SEQEND
  8
LAYER-1
  0
POLYLINE
  8
LAYER-1
 66
  1
 70
  1
 62
  7
  0
VERTEX
  8
LAYER-1
 10
3.437731
 20
3.697124
 30
0.000000
  0
VERTEX
  8
LAYER-1
 10
3.607869
 20
3.697124
 30
0.000000
  0
VERTEX
  8
LAYER-1
 10
3.607869
 20
3.080481
 30
0.000000
  0
VERTEX
  8
LAYER-1
 10
3.437731
 20
3.080481
 30
0.000000
  0
SEQEND
  8
LAYER-1
  0
POLYLINE
  8
LAYER-1
 66
  1
 70
  1
 62
  7
  0
VERTEX
  8
LAYER-1
 10
2.011063
 20
3.080747
 30
0.000000
  0
VERTEX
  8
LAYER-1
 10
2.181202
 20
3.080747
 30
0.000000
  0
VERTEX
  8
LAYER-1
 10
2.181202
 20
2.464104
 30
0.000000
  0
VERTEX
  8
LAYER-1
 10
2.011063
 20
2.464104
 30
0.000000
  0
SEQEND
  8
LAYER-1
  0
POLYLINE
  8
LAYER-1
 66
  1
 70
  1
 62
  7
  0
VERTEX
  8
LAYER-1
 10
2.419675
 20
3.080747
 30
0.000000
  0
VERTEX
  8
LAYER-1
 10
2.589813
 20
3.080747
 30
0.000000
  0
VERTEX
  8
LAYER-1
 10
2.589813
 20
2.464104
 30
0.000000
  0
VERTEX
  8
LAYER-1
 10
2.419675
 20
2.464104
 30
0.000000
  0
SEQEND
  8
LAYER-1
  0
POLYLINE
  8
LAYER-1
 66
  1
 70
  1
 62
  7
  0
VERTEX
  8
LAYER-1
 10
2.827418
 20
3.080747
 30
0.000000
  0
VERTEX
  8
LAYER-1
 10
2.997557
 20
3.080747
 30
0.000000
  0
VERTEX
  8
LAYER-1
 10
2.997557
 20
2.464104
 30
0.000000
  0
VERTEX
  8
LAYER-1
 10
2.827418
 20
2.464104
 30
0.000000
  0
SEQEND
  8
LAYER-1
  0
POLYLINE
  8
LAYER-1
 66
  1
 70
  1
 62
  7
  0
VERTEX
  8
LAYER-1
 10
3.233425
 20
3.080747
 30
0.000000
  0
VERTEX
  8
LAYER-1
 10
3.403564
 20
3.080747
 30
0.000000
  0
VERTEX
  8
LAYER-1
 10
3.403564
 20
2.464104
 30
0.000000
  0
VERTEX
  8
LAYER-1
 10
3.233425
 20
2.464104
 30
0.000000
  0
SEQEND
  8
LAYER-1
  0
POLYLINE
  8
LAYER-1
 66
  1
 70
  1
 62
  7
  0
VERTEX
  8
LAYER-1
 10
3.437731
 20
2.464102
 30
0.000000
  0
VERTEX
  8
LAYER-1
 10
3.607869
 20
2.464102
 30
0.000000
  0
VERTEX
  8
LAYER-1
 10
3.607869
 20
1.847458
 30
0.000000
  0
VERTEX
  8
LAYER-1
 10
3.437731
 20
1.847458
 30
0.000000
  0
SEQEND
  8
LAYER-1
  0
POLYLINE
  8
LAYER-1
 66
  1
 70
  1
 62
  7
  0
VERTEX
  8
LAYER-1
 10
3.029987
 20
2.464102
 30
0.000000
  0
VERTEX
  8
LAYER-1
 10
3.200126
 20
2.464102
 30
0.000000
  0
VERTEX
  8
LAYER-1
 10
3.200126
 20
1.847458
 30
0.000000
  0
VERTEX
  8
LAYER-1
 10
3.029987
 20
1.847458
 30
0.000000
  0
SEQEND
  8
LAYER-1
  0
POLYLINE
  8
LAYER-1
 66
  1
 70
  1
 62
  7
  0
VERTEX
  8
LAYER-1
 10
2.623980
 20
2.464102
 30
0.000000
  0
VERTEX
  8
LAYER-1
 10
2.794119
 20
2.464102
 30
0.000000
  0
VERTEX
  8
LAYER-1
 10
2.794119
 20
1.847458
 30
0.000000
  0
VERTEX
  8
LAYER-1
 10
2.623980
 20
1.847458
 30
0.000000
  0
SEQEND
  8
LAYER-1
  0
POLYLINE
  8
LAYER-1
 66
  1
 70
  1
 62
  7
  0
VERTEX
  8
LAYER-1
 10
2.214501
 20
2.464102
 30
0.000000
  0
VERTEX
  8
LAYER-1
 10
2.384640
 20
2.464102
 30
0.000000
  0
VERTEX
  8
LAYER-1
 10
2.384640
 20
1.847458
 30
0.000000
  0
VERTEX
  8
LAYER-1
 10
2.214501
 20
1.847458
 30
0.000000
  0
SEQEND
  8
LAYER-1
  0
POLYLINE
  8
LAYER-1
 66
  1
 70
  1
 62
  7
  0
VERTEX
  8
LAYER-1
 10
1.805021
 20
2.464102
 30
0.000000
  0
VERTEX
  8
LAYER-1
 10
1.975160
 20
2.464102
 30
0.000000
  0
VERTEX
  8
LAYER-1
 10
1.975160
 20
1.847458
 30
0.000000
  0
VERTEX
  8
LAYER-1
 10
1.805021
 20
1.847458
 30
0.000000
  0
SEQEND
  8
LAYER-1
  0
POLYLINE
  8
LAYER-1
 66
  1
 70
  1
 62
  7
  0
VERTEX
  8
LAYER-1
 10
3.233425
 20
1.847727
 30
0.000000
  0
VERTEX
  8
LAYER-1
 10
3.403564
 20
1.847727
 30
0.000000
  0
VERTEX
  8
LAYER-1
 10
3.403564
 20
1.231084
 30
0.000000
  0
VERTEX
  8
LAYER-1
 10
3.233425
 20
1.231084
 30
0.000000
  0
SEQEND
  8
LAYER-1
  0
POLYLINE
  8
LAYER-1
 66
  1
 70
  1
 62
  7
  0
VERTEX
  8
LAYER-1
 10
2.827418
 20
1.847727
 30
0.000000
  0
VERTEX
  8
LAYER-1
 10
2.997557
 20
1.847727
 30
0.000000
  0
VERTEX
  8
LAYER-1
 10
2.997557
 20
1.231084
 30
0.000000
  0
VERTEX
  8
LAYER-1
 10
2.827418
 20
1.231084
 30
0.000000
  0
SEQEND
  8
LAYER-1
  0
POLYLINE
  8
LAYER-1
 66
  1
 70
  1
 62
  7
  0
VERTEX
  8
LAYER-1
 10
2.419675
 20
1.847727
 30
0.000000
  0
VERTEX
  8
LAYER-1
 10
2.589813
 20
1.847727
 30
0.000000
  0
VERTEX
  8
LAYER-1
 10
2.589813
 20
1.231084
 30
0.000000
  0
VERTEX
  8
LAYER-1
 10
2.419675
 20
1.231084
 30
0.000000
  0
SEQEND
  8
LAYER-1
  0
POLYLINE
  8
LAYER-1
 66
  1
 70
  1
 62
  7
  0
VERTEX
  8
LAYER-1
 10
2.011063
 20
1.847727
 30
0.000000
  0
VERTEX
  8
LAYER-1
 10
2.181202
 20
1.847727
 30
0.000000
  0
VERTEX
  8
LAYER-1
 10
2.181202
 20
1.231084
 30
0.000000
  0
VERTEX
  8
LAYER-1
 10
2.011063
 20
1.231084
 30
0.000000
  0
SEQEND
  8
LAYER-1
  0
POLYLINE
  8
LAYER-1
 66
  1
 70
  1
 62
  7
  0
VERTEX
  8
LAYER-1
 10
2.214501
 20
1.231082
 30
0.000000
  0
VERTEX
  8
LAYER-1
 10
2.384640
 20
1.231082
 30
0.000000
  0
VERTEX
  8
LAYER-1
 10
2.384640
 20
0.614439
 30
0.000000
  0
VERTEX
  8
LAYER-1
 10
2.214501
 20
0.614439
 30
0.000000
  0
SEQEND
  8
LAYER-1
  0
POLYLINE
  8
LAYER-1
 66
  1
 70
  1
 62
  7
  0
VERTEX
  8
LAYER-1
 10
2.623980
 20
1.231082
 30
0.000000
  0
VERTEX
  8
LAYER-1
 10
2.794119
 20
1.231082
 30
0.000000
  0
VERTEX
  8
LAYER-1
 10
2.794119
 20
0.614439
 30
0.000000
  0
VERTEX
  8
LAYER-1
 10
2.623980
 20
0.614439
 30
0.000000
  0
SEQEND
  8
LAYER-1
  0
POLYLINE
  8
LAYER-1
 66
  1
 70
  1
 62
  7
  0
VERTEX
  8
LAYER-1
 10
3.029987
 20
1.231082
 30
0.000000
  0
VERTEX
  8
LAYER-1
 10
3.200126
 20
1.231082
 30
0.000000
  0
VERTEX
  8
LAYER-1
 10
3.200126
 20
0.614439
 30
0.000000
  0
VERTEX
  8
LAYER-1
 10
3.029987
 20
0.614439
 30
0.000000
  0
SEQEND
  8
LAYER-1
  0
POLYLINE
  8
LAYER-1
 66
  1
 70
  1
 62
  7
  0
VERTEX
  8
LAYER-1
 10
3.437731
 20
1.231082
 30
0.000000
  0
VERTEX
  8
LAYER-1
 10
3.607869
 20
1.231082
 30
0.000000
  0
VERTEX
  8
LAYER-1
 10
3.607869
 20
0.614439
 30
0.000000
  0
VERTEX
  8
LAYER-1
 10
3.437731
 20
0.614439
 30
0.000000
  0
SEQEND
  8
LAYER-1
  0
POLYLINE
  8
LAYER-1
 66
  1
 70
  1
 62
  7
  0
VERTEX
  8
LAYER-1
 10
1.805021
 20
1.231082
 30
0.000000
  0
VERTEX
  8
LAYER-1
 10
1.975160
 20
1.231082
 30
0.000000
  0
VERTEX
  8
LAYER-1
 10
1.975160
 20
0.614439
 30
0.000000
  0
VERTEX
  8
LAYER-1
 10
1.805021
 20
0.614439
 30
0.000000
  0
SEQEND
  8
LAYER-1
  0
POLYLINE
  8
LAYER-1
 66
  1
 70
  1
 62
  0
  0
VERTEX
  8
LAYER-1
 10
4.021520
 20
7.196317
 30
0.000000
  0
VERTEX
  8
LAYER-1
 10
4.057471
 20
7.196317
 30
0.000000
  0
VERTEX
  8
LAYER-1
 10
4.057471
 20
0.614655
 30
0.000000
  0
VERTEX
  8
LAYER-1
 10
4.021520
 20
0.614655
 30
0.000000
  0
SEQEND
  8
LAYER-1
  0
POLYLINE
  8
LAYER-1
 66
  1
 70
  1
 62
  0
  0
VERTEX
  8
LAYER-1
 10
4.428916
 20
7.196317
 30
0.000000
  0
VERTEX
  8
LAYER-1
 10
4.464867
 20
7.196317
 30
0.000000
  0
VERTEX
  8
LAYER-1
 10
4.464867
 20
0.612803
 30
0.000000
  0
VERTEX
  8
LAYER-1
 10
4.428916
 20
0.612803
 30
0.000000
  0
SEQEND
  8
LAYER-1
  0
POLYLINE
  8
LAYER-1
 66
  1
 70
  1
 62
  0
  0
VERTEX
  8
LAYER-1
 10
4.835444
 20
7.196317
 30
0.000000
  0
VERTEX
  8
LAYER-1
 10
4.871395
 20
7.196317
 30
0.000000
  0
VERTEX
  8
LAYER-1
 10
4.871395
 20
0.614068
 30
0.000000
  0
VERTEX
  8
LAYER-1
 10
4.835444
 20
0.614068
 30
0.000000
  0
SEQEND
  8
LAYER-1
  0
POLYLINE
  8
LAYER-1
 66
  1
 70
  1
 62
  0
  0
VERTEX
  8
LAYER-1
 10
5.245444
 20
7.196317
 30
0.000000
  0
VERTEX
  8
LAYER-1
 10
5.281395
 20
7.196317
 30
0.000000
  0
VERTEX
  8
LAYER-1
 10
5.281395
 20
0.613480
 30
0.000000
  0
VERTEX
  8
LAYER-1
 10
5.245444
 20
0.613480
 30
0.000000
  0
SEQEND
  8
LAYER-1
  0
POLYLINE
  8
LAYER-1
 66
  1
 70
  1
 62
  0
  0
VERTEX
  8
LAYER-1
 10
5.655879
 20
7.196317
 30
0.000000
  0
VERTEX
  8
LAYER-1
 10
5.691829
 20
7.196317
 30
0.000000
  0
VERTEX
  8
LAYER-1
 10
5.691829
 20
0.613201
 30
0.000000
  0
VERTEX
  8
LAYER-1
 10
5.655879
 20
0.613201
 30
0.000000
  0
SEQEND
  8
LAYER-1
  0
POLYLINE
  8
LAYER-1
 66
  1
 70
  1
 62
  0
  0
VERTEX
  8
LAYER-1
 10
3.402284
 20
7.196521
 30
0.000000
  0
VERTEX
  8
LAYER-1
 10
3.438235
 20
7.196521
 30
0.000000
  0
VERTEX
  8
LAYER-1
 10
3.438235
 20
0.614505
 30
0.000000
  0
VERTEX
  8
LAYER-1
 10
3.402284
 20
0.614505
 30
0.000000
  0
SEQEND
  8
LAYER-1
  0
POLYLINE
  8
LAYER-1
 66
  1
 70
  1
 62
  0
  0
VERTEX
  8
LAYER-1
 10
2.995756
 20
7.196521
 30
0.000000
  0
VERTEX
  8
LAYER-1
 10
3.031707
 20
7.196521
 30
0.000000
  0
VERTEX
  8
LAYER-1
 10
3.031707
 20
0.614950
 30
0.000000
  0
VERTEX
  8
LAYER-1
 10
2.995756
 20
0.614950
 30
0.000000
  0
SEQEND
  8
LAYER-1
  0
POLYLINE
  8
LAYER-1
 66
  1
 70
  1
 62
  0
  0
VERTEX
  8
LAYER-1
 10
2.588360
 20
7.196521
 30
0.000000
  0
VERTEX
  8
LAYER-1
 10
2.624311
 20
7.196521
 30
0.000000
  0
VERTEX
  8
LAYER-1
 10
2.624311
 20
0.613612
 30
0.000000
  0
VERTEX
  8
LAYER-1
 10
2.588360
 20
0.613612
 30
0.000000
  0
SEQEND
  8
LAYER-1
  0
POLYLINE
  8
LAYER-1
 66
  1
 70
  1
 62
  0
  0
VERTEX
  8
LAYER-1
 10
2.179228
 20
7.196521
 30
0.000000
  0
VERTEX
  8
LAYER-1
 10
2.215178
 20
7.196521
 30
0.000000
  0
VERTEX
  8
LAYER-1
 10
2.215178
 20
0.615422
 30
0.000000
  0
VERTEX
  8
LAYER-1
 10
2.179228
 20
0.615422
 30
0.000000
  0
SEQEND
  8
LAYER-1
  0
POLYLINE
  8
LAYER-1
 66
  1
 70
  1
 62
  0
  0
VERTEX
  8
LAYER-1
 10
1.768794
 20
7.196521
 30
0.000000
  0
VERTEX
  8
LAYER-1
 10
1.804744
 20
7.196521
 30
0.000000
  0
VERTEX
  8
LAYER-1
 10
1.804744
 20
0.614480
 30
0.000000
  0
VERTEX
  8
LAYER-1
 10
1.768794
 20
0.614480
 30
0.000000
  0
SEQEND
  8
LAYER-1
  0
POLYLINE
  8
LAYER-1
 66
  1
 70
  1
 62
  0
  0
VERTEX
  8
LAYER-1
 10
3.607422
 20
7.196510
 30
0.000000
  0
VERTEX
  8
LAYER-1
 10
3.643373
 20
7.196510
 30
0.000000
  0
VERTEX
  8
LAYER-1
 10
3.643373
 20
0.612828
 30
0.000000
  0
VERTEX
  8
LAYER-1
 10
3.607422
 20
0.612828
 30
0.000000
  0
SEQEND
  8
LAYER-1
  0
POLYLINE
  8
LAYER-1
 66
  1
 70
  1
 62
  0
  0
VERTEX
  8
LAYER-1
 10
3.199158
 20
7.196510
 30
0.000000
  0
VERTEX
  8
LAYER-1
 10
3.235109
 20
7.196510
 30
0.000000
  0
VERTEX
  8
LAYER-1
 10
3.235109
 20
0.612828
 30
0.000000
  0
VERTEX
  8
LAYER-1
 10
3.199158
 20
0.612828
 30
0.000000
  0
SEQEND
  8
LAYER-1
  0
POLYLINE
  8
LAYER-1
 66
  1
 70
  1
 62
  0
  0
VERTEX
  8
LAYER-1
 10
2.792630
 20
7.196510
 30
0.000000
  0
VERTEX
  8
LAYER-1
 10
2.828581
 20
7.196510
 30
0.000000
  0
VERTEX
  8
LAYER-1
 10
2.828581
 20
0.612828
 30
0.000000
  0
VERTEX
  8
LAYER-1
 10
2.792630
 20
0.612828
 30
0.000000
  0
SEQEND
  8
LAYER-1
  0
POLYLINE
  8
LAYER-1
 66
  1
 70
  1
 62
  0
  0
VERTEX
  8
LAYER-1
 10
2.384366
 20
7.196510
 30
0.000000
  0
VERTEX
  8
LAYER-1
 10
2.420316
 20
7.196510
 30
0.000000
  0
VERTEX
  8
LAYER-1
 10
2.420316
 20
0.612828
 30
0.000000
  0
VERTEX
  8
LAYER-1
 10
2.384366
 20
0.612828
 30
0.000000
  0
SEQEND
  8
LAYER-1
  0
POLYLINE
  8
LAYER-1
 66
  1
 70
  1
 62
  0
  0
VERTEX
  8
LAYER-1
 10
1.974799
 20
7.196510
 30
0.000000
  0
VERTEX
  8
LAYER-1
 10
2.010750
 20
7.196510
 30
0.000000
  0
VERTEX
  8
LAYER-1
 10
2.010750
 20
0.612828
 30
0.000000
  0
VERTEX
  8
LAYER-1
 10
1.974799
 20
0.612828
 30
0.000000
  0
SEQEND
  8
LAYER-1
  0
POLYLINE
  8
LAYER-1
 66
  1
 70
  1
 62
  0
 10
3.645939
 20
0.342022
 30
0.000000
  0
VERTEX
  8
LAYER-1
 10
3.645939
 20
0.342022
 30
0.000000
  0
VERTEX
  8
LAYER-1
 10
1.750021
 20
0.342123
 30
0.000000
  0
VERTEX
  8
LAYER-1
 10
1.750021
 20
0.613657
 30
0.000000
  0
VERTEX
  8
LAYER-1
 10
3.645939
 20
0.613773
 30
0.000000
  0
SEQEND
  8
LAYER-1
  0
POLYLINE
  8
LAYER-1
 66
  1
 70
  0
 62
  0
 10
3.646158
 20
0.409930
 30
0.000000
  0
VERTEX
  8
LAYER-1
 10
3.646158
 20
0.409930
 30
0.000000
  0
VERTEX
  8
LAYER-1
 10
3.606432
 20
0.409930
 30
0.000000
  0
SEQEND
  8
LAYER-1
  0
POLYLINE
  8
LAYER-1
 66
  1
 70
  0
 62
  0
 10
3.646158
 20
0.539840
 30
0.000000
  0
VERTEX
  8
LAYER-1
 10
3.646158
 20
0.539840
 30
0.000000
  0
VERTEX
  8
LAYER-1
 10
3.606432
 20
0.539840
 30
0.000000
  0
SEQEND
  8
LAYER-1
  0
POLYLINE
  8
LAYER-1
 66
  1
 70
  0
 62
  0
 10
3.607802
 20
0.336878
 30
0.000000
  0
VERTEX
  8
LAYER-1
 10
3.607802
 20
0.336878
 30
0.000000
  0
VERTEX
  8
LAYER-1
 10
3.620974
 20
0.329831
 30
0.000000
  0
VERTEX
  8
LAYER-1
 10
3.638054
 20
0.334162
 30
0.000000
  0
VERTEX
  8
LAYER-1
 10
3.644706
 20
0.336877
 30
0.000000
  0
SEQEND
  8
LAYER-1
  0
POLYLINE
  8
LAYER-1
 66
  1
 70
  1
 62
  0
  0
VERTEX
  8
LAYER-1
 10
3.651909
 20
0.336255
 30
0.000000
  0
VERTEX
  8
LAYER-1
 10
3.597294
 20
0.336255
 30
0.000000
  0
VERTEX
  8
LAYER-1
 10
3.597294
 20
0.342160
 30
0.000000
  0
VERTEX
  8
LAYER-1
 10
3.651909
 20
0.342160
 30
0.000000
  0
SEQEND
  8
LAYER-1
  0
POLYLINE
  8
LAYER-1
 66
  1
 70
  1
 62
  0
 10
3.645733
 20
7.468142
 30
0.000000
  0
VERTEX
  8
LAYER-1
 10
3.645733
 20
7.468142
 30
0.000000
  0
VERTEX
  8
LAYER-1
 10
1.749381
 20
7.468041
 30
0.000000
  0
VERTEX
  8
LAYER-1
 10
1.749381
 20
7.196508
 30
0.000000
  0
VERTEX
  8
LAYER-1
 10
3.645733
 20
7.196392
 30
0.000000
  0
SEQEND
  8
LAYER-1
  0
POLYLINE
  8
LAYER-1
 66
  1
 70
  0
 62
  0
 10
3.384444
 20
7.468141
 30
0.000000
  0
VERTEX
  8
LAYER-1
 10
3.384444
 20
7.468141
 30
0.000000
  0
VERTEX
  8
LAYER-1
 10
3.384444
 20
7.196509
 30
0.000000
  0
SEQEND
  8
LAYER-1
  0
POLYLINE
  8
LAYER-1
 66
  1
 70
  0
 62
  0
 10
3.053947
 20
7.196509
 30
0.000000
  0
VERTEX
  8
LAYER-1
 10
3.053947
 20
7.196509
 30
0.000000
  0
VERTEX
  8
LAYER-1
 10
3.053947
 20
7.468141
 30
0.000000
  0
SEQEND
  8
LAYER-1
  0
POLYLINE
  8
LAYER-1
 66
  1
 70
  0
 62
  0
 10
2.241115
 20
7.196510
 30
0.000000
  0
VERTEX
  8
LAYER-1
 10
2.241115
 20
7.196510
 30
0.000000
  0
VERTEX
  8
LAYER-1
 10
2.241115
 20
7.468141
 30
0.000000
  0
SEQEND
  8
LAYER-1
  0
POLYLINE
  8
LAYER-1
 66
  1
 70
  0
 62
  0
 10
2.422283
 20
7.468181
 30
0.000000
  0
VERTEX
  8
LAYER-1
 10
2.422283
 20
7.468181
 30
0.000000
  0
VERTEX
  8
LAYER-1
 10
2.422283
 20
7.196553
 30
0.000000
  0
SEQEND
  8
LAYER-1
  0
POLYLINE
  8
LAYER-1
 66
  1
 70
  0
 62
  0
 10
2.382424
 20
7.468181
 30
0.000000
  0
VERTEX
  8
LAYER-1
 10
2.382424
 20
7.468181
 30
0.000000
  0
VERTEX
  8
LAYER-1
 10
2.382424
 20
7.196553
 30
0.000000
  0
SEQEND
  8
LAYER-1
  0
POLYLINE
  8
LAYER-1
 66
  1
 70
  0
 62
  0
 10
3.236301
 20
7.468181
 30
0.000000
  0
VERTEX
  8
LAYER-1
 10
3.236301
 20
7.468181
 30
0.000000
  0
VERTEX
  8
LAYER-1
 10
3.236301
 20
7.196553
 30
0.000000
  0
SEQEND
  8
LAYER-1
  0
POLYLINE
  8
LAYER-1
 66
  1
 70
  0
 62
  0
 10
3.197484
 20
7.468181
 30
0.000000
  0
VERTEX
  8
LAYER-1
 10
3.197484
 20
7.468181
 30
0.000000
  0
VERTEX
  8
LAYER-1
 10
3.197484
 20
7.196553
 30
0.000000
  0
SEQEND
  8
LAYER-1
  0
POLYLINE
  8
LAYER-1
 66
  1
 70
  0
 62
  0
 10
2.969624
 20
7.468141
 30
0.000000
  0
VERTEX
  8
LAYER-1
 10
2.969624
 20
7.468141
 30
0.000000
  0
VERTEX
  8
LAYER-1
 10
2.969624
 20
7.196510
 30
0.000000
  0
SEQEND
  8
LAYER-1
  0
POLYLINE
  8
LAYER-1
 66
  1
 70
  0
 62
  0
 10
2.156794
 20
7.468141
 30
0.000000
  0
VERTEX
  8
LAYER-1
 10
2.156794
 20
7.468141
 30
0.000000
  0
VERTEX
  8
LAYER-1
 10
2.156794
 20
7.196510
 30
0.000000
  0
SEQEND
  8
LAYER-1
  0
POLYLINE
  8
LAYER-1
 66
  1
 70
  0
 62
  0
 10
2.011889
 20
7.467747
 30
0.000000
  0
VERTEX
  8
LAYER-1
 10
2.011889
 20
7.467747
 30
0.000000
  0
VERTEX
  8
LAYER-1
 10
2.011889
 20
7.196119
 30
0.000000
  0
SEQEND
  8
LAYER-1
  0
POLYLINE
  8
LAYER-1
 66
  1
 70
  0
 62
  0
 10
1.973506
 20
7.467747
 30
0.000000
  0
VERTEX
  8
LAYER-1
 10
1.973506
 20
7.467747
 30
0.000000
  0
VERTEX
  8
LAYER-1
 10
1.973506
 20
7.196119
 30
0.000000
  0
SEQEND
  8
LAYER-1
  0
POLYLINE
  8
LAYER-1
 66
  1
 70
  0
 62
  0
 10
2.829727
 20
7.468217
 30
0.000000
  0
VERTEX
  8
LAYER-1
 10
2.829727
 20
7.468217
 30
0.000000
  0
VERTEX
  8
LAYER-1
 10
2.829727
 20
7.196588
 30
0.000000
  0
SEQEND
  8
LAYER-1
  0
POLYLINE
  8
LAYER-1
 66
  1
 70
  0
 62
  0
 10
2.791344
 20
7.468217
 30
0.000000
  0
VERTEX
  8
LAYER-1
 10
2.791344
 20
7.468217
 30
0.000000
  0
VERTEX
  8
LAYER-1
 10
2.791344
 20
7.196588
 30
0.000000
  0
SEQEND
  8
LAYER-1
  0
POLYLINE
  8
LAYER-1
 66
  1
 70
  0
 62
  0
 10
3.456778
 20
7.196514
 30
0.000000
  0
VERTEX
  8
LAYER-1
 10
3.456778
 20
7.196514
 30
0.000000
  0
VERTEX
  8
LAYER-1
 10
3.456778
 20
7.468142
 30
0.000000
  0
SEQEND
  8
LAYER-1
  0
POLYLINE
  8
LAYER-1
 66
  1
 70
  0
 62
  0
 10
3.421348
 20
7.468142
 30
0.000000
  0
VERTEX
  8
LAYER-1
 10
3.421348
 20
7.468142
 30
0.000000
  0
VERTEX
  8
LAYER-1
 10
3.421348
 20
7.196512
 30
0.000000
  0
SEQEND
  8
LAYER-1
  0
POLYLINE
  8
LAYER-1
 66
  1
 70
  0
 62
  0
 10
3.455874
 20
7.468143
 30
0.000000
  0
VERTEX
  8
LAYER-1
 10
3.455874
 20
7.468143
 30
0.000000
  0
VERTEX
  8
LAYER-1
 10
3.441998
 20
7.479080
 30
0.000000
  0
VERTEX
  8
LAYER-1
 10
3.427234
 20
7.477002
 30
0.000000
  0
VERTEX
  8
LAYER-1
 10
3.422319
 20
7.468154
 30
0.000000
  0
SEQEND
  8
LAYER-1
  0
POLYLINE
  8
LAYER-1
 66
  1
 70
  0
 62
  0
 10
3.421348
 20
7.468143
 30
0.000000
  0
VERTEX
  8
LAYER-1
 10
3.421348
 20
7.468143
 30
0.000000
  0
VERTEX
  8
LAYER-1
 10
3.404240
 20
7.479126
 30
0.000000
  0
VERTEX
  8
LAYER-1
 10
3.387160
 20
7.474794
 30
0.000000
  0
VERTEX
  8
LAYER-1
 10
3.384445
 20
7.468141
 30
0.000000
  0
SEQEND
  8
LAYER-1
  0
POLYLINE
  8
LAYER-1
 66
  1
 70
  0
 62
  0
 10
3.005793
 20
7.467649
 30
0.000000
  0
VERTEX
  8
LAYER-1
 10
3.005793
 20
7.467649
 30
0.000000
  0
VERTEX
  8
LAYER-1
 10
2.986288
 20
7.477641
 30
0.000000
  0
VERTEX
  8
LAYER-1
 10
2.968215
 20
7.470915
 30
0.000000
  0
VERTEX
  8
LAYER-1
 10
2.968885
 20
7.467648
 30
0.000000
  0
SEQEND
  8
LAYER-1
  0
POLYLINE
  8
LAYER-1
 66
  1
 70
  0
 62
  0
 10
2.192834
 20
7.468118
 30
0.000000
  0
VERTEX
  8
LAYER-1
 10
2.192834
 20
7.468118
 30
0.000000
  0
VERTEX
  8
LAYER-1
 10
2.173330
 20
7.478110
 30
0.000000
  0
VERTEX
  8
LAYER-1
 10
2.155256
 20
7.471385
 30
0.000000
  0
VERTEX
  8
LAYER-1
 10
2.155927
 20
7.468118
 30
0.000000
  0
SEQEND
  8
LAYER-1
  0
POLYLINE
  8
LAYER-1
 66
  1
 70
  0
 62
  0
 10
3.053502
 20
7.467650
 30
0.000000
  0
VERTEX
  8
LAYER-1
 10
3.053502
 20
7.467650
 30
0.000000
  0
VERTEX
  8
LAYER-1
 10
3.033998
 20
7.477642
 30
0.000000
  0
VERTEX
  8
LAYER-1
 10
3.015924
 20
7.470915
 30
0.000000
  0
VERTEX
  8
LAYER-1
 10
3.016594
 20
7.467649
 30
0.000000
  0
SEQEND
  8
LAYER-1
  0
POLYLINE
  8
LAYER-1
 66
  1
 70
  0
 62
  0
 10
3.031559
 20
7.468208
 30
0.000000
  0
VERTEX
  8
LAYER-1
 10
3.031559
 20
7.468208
 30
0.000000
  0
VERTEX
  8
LAYER-1
 10
3.020808
 20
7.481213
 30
0.000000
  0
VERTEX
  8
LAYER-1
 10
3.006792
 20
7.482807
 30
0.000000
  0
VERTEX
  8
LAYER-1
 10
2.995756
 20
7.474024
 30
0.000000
  0
VERTEX
  8
LAYER-1
 10
2.996131
 20
7.468208
 30
0.000000
  0
SEQEND
  8
LAYER-1
  0
POLYLINE
  8
LAYER-1
 66
  1
 70
  0
 62
  0
 10
3.031559
 20
7.468208
 30
0.000000
  0
VERTEX
  8
LAYER-1
 10
3.031559
 20
7.468208
 30
0.000000
  0
VERTEX
  8
LAYER-1
 10
2.996130
 20
7.468208
 30
0.000000
  0
SEQEND
  8
LAYER-1
  0
POLYLINE
  8
LAYER-1
 66
  1
 70
  0
 62
  0
 10
2.241485
 20
7.468119
 30
0.000000
  0
VERTEX
  8
LAYER-1
 10
2.241485
 20
7.468119
 30
0.000000
  0
VERTEX
  8
LAYER-1
 10
2.221980
 20
7.478111
 30
0.000000
  0
VERTEX
  8
LAYER-1
 10
2.203907
 20
7.471386
 30
0.000000
  0
VERTEX
  8
LAYER-1
 10
2.204577
 20
7.468118
 30
0.000000
  0
SEQEND
  8
LAYER-1
  0
POLYLINE
  8
LAYER-1
 66
  1
 70
  0
 62
  0
 10
2.215312
 20
7.468208
 30
0.000000
  0
VERTEX
  8
LAYER-1
 10
2.215312
 20
7.468208
 30
0.000000
  0
VERTEX
  8
LAYER-1
 10
2.204560
 20
7.481213
 30
0.000000
  0
VERTEX
  8
LAYER-1
 10
2.190545
 20
7.482807
 30
0.000000
  0
VERTEX
  8
LAYER-1
 10
2.179508
 20
7.474024
 30
0.000000
  0
VERTEX
  8
LAYER-1
 10
2.179884
 20
7.468208
 30
0.000000
  0
SEQEND
  8
LAYER-1
  0
POLYLINE
  8
LAYER-1
 66
  1
 70
  0
 62
  0
 10
2.215312
 20
7.468208
 30
0.000000
  0
VERTEX
  8
LAYER-1
 10
2.215312
 20
7.468208
 30
0.000000
  0
VERTEX
  8
LAYER-1
 10
2.179884
 20
7.468208
 30
0.000000
  0
SEQEND
  8
LAYER-1
  0
POLYLINE
  8
LAYER-1
 66
  1
 70
  0
 62
  0
 10
3.422624
 20
7.195926
 30
0.000000
  0
VERTEX
  8
LAYER-1
 10
3.422624
 20
7.195926
 30
0.000000
  0
VERTEX
  8
LAYER-1
 10
3.432860
 20
7.189332
 30
0.000000
  0
VERTEX
  8
LAYER-1
 10
3.447545
 20
7.191906
 30
0.000000
  0
VERTEX
  8
LAYER-1
 10
3.455844
 20
7.196487
 30
0.000000
  0
SEQEND
  8
LAYER-1
  0
POLYLINE
  8
LAYER-1
 66
  1
 70
  0
 62
  0
 10
3.422625
 20
7.195926
 30
0.000000
  0
VERTEX
  8
LAYER-1
 10
3.422625
 20
7.195926
 30
0.000000
  0
VERTEX
  8
LAYER-1
 10
3.455844
 20
7.196487
 30
0.000000
  0
SEQEND
  8
LAYER-1
  0
POLYLINE
  8
LAYER-1
 66
  1
 70
  0
 62
  0
 10
3.383512
 20
7.196487
 30
0.000000
  0
VERTEX
  8
LAYER-1
 10
3.383512
 20
7.196487
 30
0.000000
  0
VERTEX
  8
LAYER-1
 10
3.396683
 20
7.189440
 30
0.000000
  0
VERTEX
  8
LAYER-1
 10
3.413763
 20
7.193771
 30
0.000000
  0
VERTEX
  8
LAYER-1
 10
3.420416
 20
7.196487
 30
0.000000
  0
SEQEND
  8
LAYER-1
  0
POLYLINE
  8
LAYER-1
 66
  1
 70
  0
 62
  0
 10
3.383512
 20
7.196487
 30
0.000000
  0
VERTEX
  8
LAYER-1
 10
3.383512
 20
7.196487
 30
0.000000
  0
VERTEX
  8
LAYER-1
 10
3.420415
 20
7.196487
 30
0.000000
  0
SEQEND
  8
LAYER-1
  0
POLYLINE
  8
LAYER-1
 66
  1
 70
  0
 62
  0
 10
3.016668
 20
7.196041
 30
0.000000
  0
VERTEX
  8
LAYER-1
 10
3.016668
 20
7.196041
 30
0.000000
  0
VERTEX
  8
LAYER-1
 10
3.032235
 20
7.189985
 30
0.000000
  0
VERTEX
  8
LAYER-1
 10
3.050309
 20
7.196711
 30
0.000000
  0
VERTEX
  8
LAYER-1
 10
3.053576
 20
7.196040
 30
0.000000
  0
SEQEND
  8
LAYER-1
  0
POLYLINE
  8
LAYER-1
 66
  1
 70
  0
 62
  0
 10
2.969428
 20
7.196041
 30
0.000000
  0
VERTEX
  8
LAYER-1
 10
2.969428
 20
7.196041
 30
0.000000
  0
VERTEX
  8
LAYER-1
 10
2.984995
 20
7.189985
 30
0.000000
  0
VERTEX
  8
LAYER-1
 10
3.003068
 20
7.196711
 30
0.000000
  0
VERTEX
  8
LAYER-1
 10
3.006335
 20
7.196040
 30
0.000000
  0
SEQEND
  8
LAYER-1
  0
POLYLINE
  8
LAYER-1
 66
  1
 70
  0
 62
  0
 10
2.996673
 20
7.195951
 30
0.000000
  0
VERTEX
  8
LAYER-1
 10
2.996673
 20
7.195951
 30
0.000000
  0
VERTEX
  8
LAYER-1
 10
3.003488
 20
7.186883
 30
0.000000
  0
VERTEX
  8
LAYER-1
 10
3.017503
 20
7.185289
 30
0.000000
  0
VERTEX
  8
LAYER-1
 10
3.028540
 20
7.194072
 30
0.000000
  0
VERTEX
  8
LAYER-1
 10
3.032102
 20
7.195951
 30
0.000000
  0
SEQEND
  8
LAYER-1
  0
POLYLINE
  8
LAYER-1
 66
  1
 70
  0
 62
  0
 10
3.032102
 20
7.195951
 30
0.000000
  0
VERTEX
  8
LAYER-1
 10
3.032102
 20
7.195951
 30
0.000000
  0
VERTEX
  8
LAYER-1
 10
2.996673
 20
7.195951
 30
0.000000
  0
SEQEND
  8
LAYER-1
  0
POLYLINE
  8
LAYER-1
 66
  1
 70
  0
 62
  0
 10
2.204114
 20
7.196041
 30
0.000000
  0
VERTEX
  8
LAYER-1
 10
2.204114
 20
7.196041
 30
0.000000
  0
VERTEX
  8
LAYER-1
 10
2.219681
 20
7.189985
 30
0.000000
  0
VERTEX
  8
LAYER-1
 10
2.237754
 20
7.196711
 30
0.000000
  0
VERTEX
  8
LAYER-1
 10
2.241021
 20
7.196040
 30
0.000000
  0
SEQEND
  8
LAYER-1
  0
POLYLINE
  8
LAYER-1
 66
  1
 70
  0
 62
  0
 10
2.155934
 20
7.196041
 30
0.000000
  0
VERTEX
  8
LAYER-1
 10
2.155934
 20
7.196041
 30
0.000000
  0
VERTEX
  8
LAYER-1
 10
2.171501
 20
7.189985
 30
0.000000
  0
VERTEX
  8
LAYER-1
 10
2.189574
 20
7.196711
 30
0.000000
  0
VERTEX
  8
LAYER-1
 10
2.192841
 20
7.196040
 30
0.000000
  0
SEQEND
  8
LAYER-1
  0
POLYLINE
  8
LAYER-1
 66
  1
 70
  0
 62
  0
 10
2.179889
 20
7.195951
 30
0.000000
  0
VERTEX
  8
LAYER-1
 10
2.179889
 20
7.195951
 30
0.000000
  0
VERTEX
  8
LAYER-1
 10
2.186704
 20
7.186883
 30
0.000000
  0
VERTEX
  8
LAYER-1
 10
2.200720
 20
7.185289
 30
0.000000
  0
VERTEX
  8
LAYER-1
 10
2.211756
 20
7.194072
 30
0.000000
  0
VERTEX
  8
LAYER-1
 10
2.215318
 20
7.195951
 30
0.000000
  0
SEQEND
  8
LAYER-1
  0
POLYLINE
  8
LAYER-1
 66
  1
 70
  0
 62
  0
 10
2.215318
 20
7.195951
 30
0.000000
  0
VERTEX
  8
LAYER-1
 10
2.215318
 20
7.195951
 30
0.000000
  0
VERTEX
  8
LAYER-1
 10
2.179890
 20
7.195951
 30
0.000000
  0
SEQEND
  8
LAYER-1
  0
POLYLINE
  8
LAYER-1
 66
  1
 70
  1
 62
  0
  0
VERTEX
  8
LAYER-1
 10
2.996129
 20
7.468141
 30
0.000000
  0
VERTEX
  8
LAYER-1
 10
3.031559
 20
7.468141
 30
0.000000
  0
VERTEX
  8
LAYER-1
 10
3.031559
 20
7.196513
 30
0.000000
  0
VERTEX
  8
LAYER-1
 10
2.996129
 20
7.196513
 30
0.000000
  0
SEQEND
  8
LAYER-1
  0
POLYLINE
  8
LAYER-1
 66
  1
 70
  1
 62
  0
  0
VERTEX
  8
LAYER-1
 10
2.179815
 20
7.468141
 30
0.000000
  0
VERTEX
  8
LAYER-1
 10
2.215246
 20
7.468141
 30
0.000000
  0
VERTEX
  8
LAYER-1
 10
2.215246
 20
7.196513
 30
0.000000
  0
VERTEX
  8
LAYER-1
 10
2.179815
 20
7.196513
 30
0.000000
  0
SEQEND
  8
LAYER-1
  0
POLYLINE
  8
LAYER-1
 66
  1
 70
  0
 62
  0
 10
3.031559
 20
7.400235
 30
0.000000
  0
VERTEX
  8
LAYER-1
 10
3.031559
 20
7.400235
 30
0.000000
  0
VERTEX
  8
LAYER-1
 10
2.996129
 20
7.400235
 30
0.000000
  0
SEQEND
  8
LAYER-1
  0
POLYLINE
  8
LAYER-1
 66
  1
 70
  0
 62
  0
 10
3.031559
 20
7.270326
 30
0.000000
  0
VERTEX
  8
LAYER-1
 10
3.031559
 20
7.270326
 30
0.000000
  0
VERTEX
  8
LAYER-1
 10
2.996129
 20
7.270326
 30
0.000000
  0
SEQEND
  8
LAYER-1
  0
POLYLINE
  8
LAYER-1
 66
  1
 70
  0
 62
  0
 10
2.215246
 20
7.400235
 30
0.000000
  0
VERTEX
  8
LAYER-1
 10
2.215246
 20
7.400235
 30
0.000000
  0
VERTEX
  8
LAYER-1
 10
2.179817
 20
7.400235
 30
0.000000
  0
SEQEND
  8
LAYER-1
  0
POLYLINE
  8
LAYER-1
 66
  1
 70
  0
 62
  0
 10
2.215246
 20
7.270325
 30
0.000000
  0
VERTEX
  8
LAYER-1
 10
2.215246
 20
7.270325
 30
0.000000
  0
VERTEX
  8
LAYER-1
 10
2.179817
 20
7.270325
 30
0.000000
  0
SEQEND
  8
LAYER-1
  0
POLYLINE
  8
LAYER-1
 66
  1
 70
  0
 62
  0
 10
3.233891
 20
7.467699
 30
0.000000
  0
VERTEX
  8
LAYER-1
 10
3.233891
 20
7.467699
 30
0.000000
  0
VERTEX
  8
LAYER-1
 10
3.220014
 20
7.478636
 30
0.000000
  0
VERTEX
  8
LAYER-1
 10
3.205251
 20
7.476557
 30
0.000000
  0
VERTEX
  8
LAYER-1
 10
3.200672
 20
7.468258
 30
0.000000
  0
SEQEND
  8
LAYER-1
  0
POLYLINE
  8
LAYER-1
 66
  1
 70
  0
 62
  0
 10
2.420397
 20
7.468080
 30
0.000000
  0
VERTEX
  8
LAYER-1
 10
2.420397
 20
7.468080
 30
0.000000
  0
VERTEX
  8
LAYER-1
 10
2.403289
 20
7.479063
 30
0.000000
  0
VERTEX
  8
LAYER-1
 10
2.386209
 20
7.474732
 30
0.000000
  0
VERTEX
  8
LAYER-1
 10
2.383493
 20
7.468080
 30
0.000000
  0
SEQEND
  8
LAYER-1
  0
POLYLINE
  8
LAYER-1
 66
  1
 70
  0
 62
  0
 10
2.607593
 20
7.195924
 30
0.000000
  0
VERTEX
  8
LAYER-1
 10
2.607593
 20
7.195924
 30
0.000000
  0
VERTEX
  8
LAYER-1
 10
2.617829
 20
7.189329
 30
0.000000
  0
VERTEX
  8
LAYER-1
 10
2.632513
 20
7.191905
 30
0.000000
  0
VERTEX
  8
LAYER-1
 10
2.640813
 20
7.196484
 30
0.000000
  0
SEQEND
  8
LAYER-1
  0
POLYLINE
  8
LAYER-1
 66
  1
 70
  0
 62
  0
 10
2.607593
 20
7.195924
 30
0.000000
  0
VERTEX
  8
LAYER-1
 10
2.607593
 20
7.195924
 30
0.000000
  0
VERTEX
  8
LAYER-1
 10
2.640812
 20
7.196484
 30
0.000000
  0
SEQEND
  8
LAYER-1
  0
POLYLINE
  8
LAYER-1
 66
  1
 70
  0
 62
  0
 10
2.568480
 20
7.196485
 30
0.000000
  0
VERTEX
  8
LAYER-1
 10
2.568480
 20
7.196485
 30
0.000000
  0
VERTEX
  8
LAYER-1
 10
2.581651
 20
7.189438
 30
0.000000
  0
VERTEX
  8
LAYER-1
 10
2.598732
 20
7.193769
 30
0.000000
  0
VERTEX
  8
LAYER-1
 10
2.605384
 20
7.196484
 30
0.000000
  0
SEQEND
  8
LAYER-1
  0
POLYLINE
  8
LAYER-1
 66
  1
 70
  0
 62
  0
 10
2.568481
 20
7.196485
 30
0.000000
  0
VERTEX
  8
LAYER-1
 10
2.568481
 20
7.196485
 30
0.000000
  0
VERTEX
  8
LAYER-1
 10
2.605384
 20
7.196484
 30
0.000000
  0
SEQEND
  8
LAYER-1
  0
POLYLINE
  8
LAYER-1
 66
  1
 70
  0
 62
  0
 10
2.569652
 20
7.468141
 30
0.000000
  0
VERTEX
  8
LAYER-1
 10
2.569652
 20
7.468141
 30
0.000000
  0
VERTEX
  8
LAYER-1
 10
2.569652
 20
7.196509
 30
0.000000
  0
SEQEND
  8
LAYER-1
  0
POLYLINE
  8
LAYER-1
 66
  1
 70
  0
 62
  0
 10
2.641986
 20
7.196514
 30
0.000000
  0
VERTEX
  8
LAYER-1
 10
2.641986
 20
7.196514
 30
0.000000
  0
VERTEX
  8
LAYER-1
 10
2.641986
 20
7.468142
 30
0.000000
  0
SEQEND
  8
LAYER-1
  0
POLYLINE
  8
LAYER-1
 66
  1
 70
  0
 62
  0
 10
2.606556
 20
7.468142
 30
0.000000
  0
VERTEX
  8
LAYER-1
 10
2.606556
 20
7.468142
 30
0.000000
  0
VERTEX
  8
LAYER-1
 10
2.606556
 20
7.196512
 30
0.000000
  0
SEQEND
  8
LAYER-1
  0
POLYLINE
  8
LAYER-1
 66
  1
 70
  0
 62
  0
 10
2.641681
 20
7.468001
 30
0.000000
  0
VERTEX
  8
LAYER-1
 10
2.641681
 20
7.468001
 30
0.000000
  0
VERTEX
  8
LAYER-1
 10
2.627804
 20
7.478939
 30
0.000000
  0
VERTEX
  8
LAYER-1
 10
2.613041
 20
7.476861
 30
0.000000
  0
VERTEX
  8
LAYER-1
 10
2.608461
 20
7.468561
 30
0.000000
  0
SEQEND
  8
LAYER-1
  0
POLYLINE
  8
LAYER-1
 66
  1
 70
  0
 62
  0
 10
2.608462
 20
7.468561
 30
0.000000
  0
VERTEX
  8
LAYER-1
 10
2.608462
 20
7.468561
 30
0.000000
  0
VERTEX
  8
LAYER-1
 10
2.641681
 20
7.468001
 30
0.000000
  0
SEQEND
  8
LAYER-1
  0
POLYLINE
  8
LAYER-1
 66
  1
 70
  0
 62
  0
 10
2.606253
 20
7.468001
 30
0.000000
  0
VERTEX
  8
LAYER-1
 10
2.606253
 20
7.468001
 30
0.000000
  0
VERTEX
  8
LAYER-1
 10
2.589144
 20
7.478984
 30
0.000000
  0
VERTEX
  8
LAYER-1
 10
2.572064
 20
7.474653
 30
0.000000
  0
VERTEX
  8
LAYER-1
 10
2.569349
 20
7.468000
 30
0.000000
  0
SEQEND
  8
LAYER-1
  0
POLYLINE
  8
LAYER-1
 66
  1
 70
  0
 62
  0
 10
2.569349
 20
7.468000
 30
0.000000
  0
VERTEX
  8
LAYER-1
 10
2.569349
 20
7.468000
 30
0.000000
  0
VERTEX
  8
LAYER-1
 10
2.606252
 20
7.468001
 30
0.000000
  0
SEQEND
  8
LAYER-1
  0
POLYLINE
  8
LAYER-1
 66
  1
 70
  0
 62
  0
 10
1.787593
 20
7.195924
 30
0.000000
  0
VERTEX
  8
LAYER-1
 10
1.787593
 20
7.195924
 30
0.000000
  0
VERTEX
  8
LAYER-1
 10
1.797829
 20
7.189329
 30
0.000000
  0
VERTEX
  8
LAYER-1
 10
1.812513
 20
7.191905
 30
0.000000
  0
VERTEX
  8
LAYER-1
 10
1.820813
 20
7.196484
 30
0.000000
  0
SEQEND
  8
LAYER-1
  0
POLYLINE
  8
LAYER-1
 66
  1
 70
  0
 62
  0
 10
1.787593
 20
7.195924
 30
0.000000
  0
VERTEX
  8
LAYER-1
 10
1.787593
 20
7.195924
 30
0.000000
  0
VERTEX
  8
LAYER-1
 10
1.820812
 20
7.196484
 30
0.000000
  0
SEQEND
  8
LAYER-1
  0
POLYLINE
  8
LAYER-1
 66
  1
 70
  0
 62
  0
 10
1.748480
 20
7.196485
 30
0.000000
  0
VERTEX
  8
LAYER-1
 10
1.748480
 20
7.196485
 30
0.000000
  0
VERTEX
  8
LAYER-1
 10
1.761651
 20
7.189438
 30
0.000000
  0
VERTEX
  8
LAYER-1
 10
1.778732
 20
7.193769
 30
0.000000
  0
VERTEX
  8
LAYER-1
 10
1.785384
 20
7.196484
 30
0.000000
  0
SEQEND
  8
LAYER-1
  0
POLYLINE
  8
LAYER-1
 66
  1
 70
  0
 62
  0
 10
1.748481
 20
7.196485
 30
0.000000
  0
VERTEX
  8
LAYER-1
 10
1.748481
 20
7.196485
 30
0.000000
  0
VERTEX
  8
LAYER-1
 10
1.785383
 20
7.196484
 30
0.000000
  0
SEQEND
  8
LAYER-1
  0
POLYLINE
  8
LAYER-1
 66
  1
 70
  0
 62
  0
 10
1.749652
 20
7.468141
 30
0.000000
  0
VERTEX
  8
LAYER-1
 10
1.749652
 20
7.468141
 30
0.000000
  0
VERTEX
  8
LAYER-1
 10
1.749652
 20
7.196509
 30
0.000000
  0
SEQEND
  8
LAYER-1
  0
POLYLINE
  8
LAYER-1
 66
  1
 70
  0
 62
  0
 10
1.821985
 20
7.196514
 30
0.000000
  0
VERTEX
  8
LAYER-1
 10
1.821985
 20
7.196514
 30
0.000000
  0
VERTEX
  8
LAYER-1
 10
1.821985
 20
7.468142
 30
0.000000
  0
SEQEND
  8
LAYER-1
  0
POLYLINE
  8
LAYER-1
 66
  1
 70
  0
 62
  0
 10
1.786556
 20
7.468142
 30
0.000000
  0
VERTEX
  8
LAYER-1
 10
1.786556
 20
7.468142
 30
0.000000
  0
VERTEX
  8
LAYER-1
 10
1.786556
 20
7.196512
 30
0.000000
  0
SEQEND
  8
LAYER-1
  0
POLYLINE
  8
LAYER-1
 66
  1
 70
  0
 62
  0
 10
1.821681
 20
7.468001
 30
0.000000
  0
VERTEX
  8
LAYER-1
 10
1.821681
 20
7.468001
 30
0.000000
  0
VERTEX
  8
LAYER-1
 10
1.807804
 20
7.478939
 30
0.000000
  0
VERTEX
  8
LAYER-1
 10
1.793041
 20
7.476861
 30
0.000000
  0
VERTEX
  8
LAYER-1
 10
1.788461
 20
7.468561
 30
0.000000
  0
SEQEND
  8
LAYER-1
  0
POLYLINE
  8
LAYER-1
 66
  1
 70
  0
 62
  0
 10
1.788462
 20
7.468561
 30
0.000000
  0
VERTEX
  8
LAYER-1
 10
1.788462
 20
7.468561
 30
0.000000
  0
VERTEX
  8
LAYER-1
 10
1.821681
 20
7.468001
 30
0.000000
  0
SEQEND
  8
LAYER-1
  0
POLYLINE
  8
LAYER-1
 66
  1
 70
  0
 62
  0
 10
1.786253
 20
7.468001
 30
0.000000
  0
VERTEX
  8
LAYER-1
 10
1.786253
 20
7.468001
 30
0.000000
  0
VERTEX
  8
LAYER-1
 10
1.769144
 20
7.478984
 30
0.000000
  0
VERTEX
  8
LAYER-1
 10
1.752064
 20
7.474653
 30
0.000000
  0
VERTEX
  8
LAYER-1
 10
1.749349
 20
7.468000
 30
0.000000
  0
SEQEND
  8
LAYER-1
  0
POLYLINE
  8
LAYER-1
 66
  1
 70
  0
 62
  0
 10
1.749349
 20
7.468000
 30
0.000000
  0
VERTEX
  8
LAYER-1
 10
1.749349
 20
7.468000
 30
0.000000
  0
VERTEX
  8
LAYER-1
 10
1.786252
 20
7.468001
 30
0.000000
  0
SEQEND
  8
LAYER-1
  0
POLYLINE
  8
LAYER-1
 66
  1
 70
  0
 62
  0
 10
3.645952
 20
7.400235
 30
0.000000
  0
VERTEX
  8
LAYER-1
 10
3.645952
 20
7.400235
 30
0.000000
  0
VERTEX
  8
LAYER-1
 10
3.606226
 20
7.400235
 30
0.000000
  0
SEQEND
  8
LAYER-1
  0
POLYLINE
  8
LAYER-1
 66
  1
 70
  0
 62
  0
 10
3.645952
 20
7.270325
 30
0.000000
  0
VERTEX
  8
LAYER-1
 10
3.645952
 20
7.270325
 30
0.000000
  0
VERTEX
  8
LAYER-1
 10
3.606226
 20
7.270325
 30
0.000000
  0
SEQEND
  8
LAYER-1
  0
POLYLINE
  8
LAYER-1
 66
  1
 70
  0
 62
  0
 10
3.644500
 20
7.473289
 30
0.000000
  0
VERTEX
  8
LAYER-1
 10
3.644500
 20
7.473289
 30
0.000000
  0
VERTEX
  8
LAYER-1
 10
3.627391
 20
7.484272
 30
0.000000
  0
VERTEX
  8
LAYER-1
 10
3.610312
 20
7.479940
 30
0.000000
  0
VERTEX
  8
LAYER-1
 10
3.607597
 20
7.473287
 30
0.000000
  0
SEQEND
  8
LAYER-1
  0
POLYLINE
  8
LAYER-1
 66
  1
 70
  1
 62
  0
  0
VERTEX
  8
LAYER-1
 10
3.597087
 20
7.473910
 30
0.000000
  0
VERTEX
  8
LAYER-1
 10
3.651703
 20
7.473910
 30
0.000000
  0
VERTEX
  8
LAYER-1
 10
3.651703
 20
7.468005
 30
0.000000
  0
VERTEX
  8
LAYER-1
 10
3.597087
 20
7.468005
 30
0.000000
  0
SEQEND
  8
LAYER-1
  0
POLYLINE
  8
LAYER-1
 66
  1
 70
  0
 62
  0
 10
3.605792
 20
7.468140
 30
0.000000
  0
VERTEX
  8
LAYER-1
 10
3.605792
 20
7.468140
 30
0.000000
  0
VERTEX
  8
LAYER-1
 10
3.605792
 20
7.196392
 30
0.000000
  0
SEQEND
  8
LAYER-1
  0
POLYLINE
  8
LAYER-1
 66
  1
 70
  0
 62
  0
 10
3.605802
 20
0.613928
 30
0.000000
  0
VERTEX
  8
LAYER-1
 10
3.605802
 20
0.613928
 30
0.000000
  0
VERTEX
  8
LAYER-1
 10
3.605802
 20
0.342228
 30
0.000000
  0
SEQEND
  8
LAYER-1
  0
POLYLINE
  8
LAYER-1
 66
  1
 70
  0
 62
  0
 10
3.384883
 20
0.341789
 30
0.000000
  0
VERTEX
  8
LAYER-1
 10
3.384883
 20
0.341789
 30
0.000000
  0
VERTEX
  8
LAYER-1
 10
3.384883
 20
0.613420
 30
0.000000
  0
SEQEND
  8
LAYER-1
  0
POLYLINE
  8
LAYER-1
 66
  1
 70
  0
 62
  0
 10
3.054385
 20
0.613420
 30
0.000000
  0
VERTEX
  8
LAYER-1
 10
3.054385
 20
0.613420
 30
0.000000
  0
VERTEX
  8
LAYER-1
 10
3.054385
 20
0.341789
 30
0.000000
  0
SEQEND
  8
LAYER-1
  0
POLYLINE
  8
LAYER-1
 66
  1
 70
  0
 62
  0
 10
2.241554
 20
0.613420
 30
0.000000
  0
VERTEX
  8
LAYER-1
 10
2.241554
 20
0.613420
 30
0.000000
  0
VERTEX
  8
LAYER-1
 10
2.241554
 20
0.341789
 30
0.000000
  0
SEQEND
  8
LAYER-1
  0
POLYLINE
  8
LAYER-1
 66
  1
 70
  0
 62
  0
 10
2.422721
 20
0.341749
 30
0.000000
  0
VERTEX
  8
LAYER-1
 10
2.422721
 20
0.341749
 30
0.000000
  0
VERTEX
  8
LAYER-1
 10
2.422721
 20
0.613378
 30
0.000000
  0
SEQEND
  8
LAYER-1
  0
POLYLINE
  8
LAYER-1
 66
  1
 70
  0
 62
  0
 10
2.382863
 20
0.341749
 30
0.000000
  0
VERTEX
  8
LAYER-1
 10
2.382863
 20
0.341749
 30
0.000000
  0
VERTEX
  8
LAYER-1
 10
2.382863
 20
0.613378
 30
0.000000
  0
SEQEND
  8
LAYER-1
  0
POLYLINE
  8
LAYER-1
 66
  1
 70
  0
 62
  0
 10
3.236739
 20
0.341749
 30
0.000000
  0
VERTEX
  8
LAYER-1
 10
3.236739
 20
0.341749
 30
0.000000
  0
VERTEX
  8
LAYER-1
 10
3.236739
 20
0.613378
 30
0.000000
  0
SEQEND
  8
LAYER-1
  0
POLYLINE
  8
LAYER-1
 66
  1
 70
  0
 62
  0
 10
3.197923
 20
0.341749
 30
0.000000
  0
VERTEX
  8
LAYER-1
 10
3.197923
 20
0.341749
 30
0.000000
  0
VERTEX
  8
LAYER-1
 10
3.197923
 20
0.613378
 30
0.000000
  0
SEQEND
  8
LAYER-1
  0
POLYLINE
  8
LAYER-1
 66
  1
 70
  0
 62
  0
 10
2.970063
 20
0.341789
 30
0.000000
  0
VERTEX
  8
LAYER-1
 10
2.970063
 20
0.341789
 30
0.000000
  0
VERTEX
  8
LAYER-1
 10
2.970063
 20
0.613420
 30
0.000000
  0
SEQEND
  8
LAYER-1
  0
POLYLINE
  8
LAYER-1
 66
  1
 70
  0
 62
  0
 10
2.157232
 20
0.341789
 30
0.000000
  0
VERTEX
  8
LAYER-1
 10
2.157232
 20
0.341789
 30
0.000000
  0
VERTEX
  8
LAYER-1
 10
2.157232
 20
0.613420
 30
0.000000
  0
SEQEND
  8
LAYER-1
  0
POLYLINE
  8
LAYER-1
 66
  1
 70
  0
 62
  0
 10
2.012327
 20
0.342183
 30
0.000000
  0
VERTEX
  8
LAYER-1
 10
2.012327
 20
0.342183
 30
0.000000
  0
VERTEX
  8
LAYER-1
 10
2.012327
 20
0.613812
 30
0.000000
  0
SEQEND
  8
LAYER-1
  0
POLYLINE
  8
LAYER-1
 66
  1
 70
  0
 62
  0
 10
1.973945
 20
0.342183
 30
0.000000
  0
VERTEX
  8
LAYER-1
 10
1.973945
 20
0.342183
 30
0.000000
  0
VERTEX
  8
LAYER-1
 10
1.973945
 20
0.613812
 30
0.000000
  0
SEQEND
  8
LAYER-1
  0
POLYLINE
  8
LAYER-1
 66
  1
 70
  0
 62
  0
 10
2.830166
 20
0.341714
 30
0.000000
  0
VERTEX
  8
LAYER-1
 10
2.830166
 20
0.341714
 30
0.000000
  0
VERTEX
  8
LAYER-1
 10
2.830166
 20
0.613341
 30
0.000000
  0
SEQEND
  8
LAYER-1
  0
POLYLINE
  8
LAYER-1
 66
  1
 70
  0
 62
  0
 10
2.791783
 20
0.341714
 30
0.000000
  0
VERTEX
  8
LAYER-1
 10
2.791783
 20
0.341714
 30
0.000000
  0
VERTEX
  8
LAYER-1
 10
2.791783
 20
0.613341
 30
0.000000
  0
SEQEND
  8
LAYER-1
  0
POLYLINE
  8
LAYER-1
 66
  1
 70
  0
 62
  0
 10
3.457216
 20
0.613417
 30
0.000000
  0
VERTEX
  8
LAYER-1
 10
3.457216
 20
0.613417
 30
0.000000
  0
VERTEX
  8
LAYER-1
 10
3.457216
 20
0.341788
 30
0.000000
  0
SEQEND
  8
LAYER-1
  0
POLYLINE
  8
LAYER-1
 66
  1
 70
  0
 62
  0
 10
3.421786
 20
0.341788
 30
0.000000
  0
VERTEX
  8
LAYER-1
 10
3.421786
 20
0.341788
 30
0.000000
  0
VERTEX
  8
LAYER-1
 10
3.421786
 20
0.613419
 30
0.000000
  0
SEQEND
  8
LAYER-1
  0
POLYLINE
  8
LAYER-1
 66
  1
 70
  0
 62
  0
 10
3.422757
 20
0.341777
 30
0.000000
  0
VERTEX
  8
LAYER-1
 10
3.422757
 20
0.341777
 30
0.000000
  0
VERTEX
  8
LAYER-1
 10
3.432704
 20
0.334784
 30
0.000000
  0
VERTEX
  8
LAYER-1
 10
3.447465
 20
0.336873
 30
0.000000
  0
VERTEX
  8
LAYER-1
 10
3.456313
 20
0.341788
 30
0.000000
  0
SEQEND
  8
LAYER-1
  0
POLYLINE
  8
LAYER-1
 66
  1
 70
  0
 62
  0
 10
3.384884
 20
0.341789
 30
0.000000
  0
VERTEX
  8
LAYER-1
 10
3.384884
 20
0.341789
 30
0.000000
  0
VERTEX
  8
LAYER-1
 10
3.398054
 20
0.334741
 30
0.000000
  0
VERTEX
  8
LAYER-1
 10
3.415135
 20
0.339072
 30
0.000000
  0
VERTEX
  8
LAYER-1
 10
3.421786
 20
0.341788
 30
0.000000
  0
SEQEND
  8
LAYER-1
  0
POLYLINE
  8
LAYER-1
 66
  1
 70
  0
 62
  0
 10
2.969324
 20
0.342282
 30
0.000000
  0
VERTEX
  8
LAYER-1
 10
2.969324
 20
0.342282
 30
0.000000
  0
VERTEX
  8
LAYER-1
 10
2.984891
 20
0.336227
 30
0.000000
  0
VERTEX
  8
LAYER-1
 10
3.002964
 20
0.342952
 30
0.000000
  0
VERTEX
  8
LAYER-1
 10
3.006231
 20
0.342282
 30
0.000000
  0
SEQEND
  8
LAYER-1
  0
POLYLINE
  8
LAYER-1
 66
  1
 70
  0
 62
  0
 10
2.156365
 20
0.341812
 30
0.000000
  0
VERTEX
  8
LAYER-1
 10
2.156365
 20
0.341812
 30
0.000000
  0
VERTEX
  8
LAYER-1
 10
2.171933
 20
0.335757
 30
0.000000
  0
VERTEX
  8
LAYER-1
 10
2.190006
 20
0.342482
 30
0.000000
  0
VERTEX
  8
LAYER-1
 10
2.193273
 20
0.341812
 30
0.000000
  0
SEQEND
  8
LAYER-1
  0
POLYLINE
  8
LAYER-1
 66
  1
 70
  0
 62
  0
 10
3.017033
 20
0.342282
 30
0.000000
  0
VERTEX
  8
LAYER-1
 10
3.017033
 20
0.342282
 30
0.000000
  0
VERTEX
  8
LAYER-1
 10
3.032600
 20
0.336227
 30
0.000000
  0
VERTEX
  8
LAYER-1
 10
3.050674
 20
0.342952
 30
0.000000
  0
VERTEX
  8
LAYER-1
 10
3.053941
 20
0.342281
 30
0.000000
  0
SEQEND
  8
LAYER-1
  0
POLYLINE
  8
LAYER-1
 66
  1
 70
  0
 62
  0
 10
2.996569
 20
0.341723
 30
0.000000
  0
VERTEX
  8
LAYER-1
 10
2.996569
 20
0.341723
 30
0.000000
  0
VERTEX
  8
LAYER-1
 10
3.003384
 20
0.332654
 30
0.000000
  0
VERTEX
  8
LAYER-1
 10
3.017399
 20
0.331061
 30
0.000000
  0
VERTEX
  8
LAYER-1
 10
3.028436
 20
0.339844
 30
0.000000
  0
VERTEX
  8
LAYER-1
 10
3.031998
 20
0.341723
 30
0.000000
  0
SEQEND
  8
LAYER-1
  0
POLYLINE
  8
LAYER-1
 66
  1
 70
  0
 62
  0
 10
3.031998
 20
0.341723
 30
0.000000
  0
VERTEX
  8
LAYER-1
 10
3.031998
 20
0.341723
 30
0.000000
  0
VERTEX
  8
LAYER-1
 10
2.996569
 20
0.341723
 30
0.000000
  0
SEQEND
  8
LAYER-1
  0
POLYLINE
  8
LAYER-1
 66
  1
 70
  0
 62
  0
 10
2.205016
 20
0.341812
 30
0.000000
  0
VERTEX
  8
LAYER-1
 10
2.205016
 20
0.341812
 30
0.000000
  0
VERTEX
  8
LAYER-1
 10
2.220583
 20
0.335757
 30
0.000000
  0
VERTEX
  8
LAYER-1
 10
2.238657
 20
0.342482
 30
0.000000
  0
VERTEX
  8
LAYER-1
 10
2.241923
 20
0.341811
 30
0.000000
  0
SEQEND
  8
LAYER-1
  0
POLYLINE
  8
LAYER-1
 66
  1
 70
  0
 62
  0
 10
2.180322
 20
0.341723
 30
0.000000
  0
VERTEX
  8
LAYER-1
 10
2.180322
 20
0.341723
 30
0.000000
  0
VERTEX
  8
LAYER-1
 10
2.187137
 20
0.332654
 30
0.000000
  0
VERTEX
  8
LAYER-1
 10
2.201152
 20
0.331061
 30
0.000000
  0
VERTEX
  8
LAYER-1
 10
2.212189
 20
0.339844
 30
0.000000
  0
VERTEX
  8
LAYER-1
 10
2.215751
 20
0.341723
 30
0.000000
  0
SEQEND
  8
LAYER-1
  0
POLYLINE
  8
LAYER-1
 66
  1
 70
  0
 62
  0
 10
2.215751
 20
0.341723
 30
0.000000
  0
VERTEX
  8
LAYER-1
 10
2.215751
 20
0.341723
 30
0.000000
  0
VERTEX
  8
LAYER-1
 10
2.180322
 20
0.341723
 30
0.000000
  0
SEQEND
  8
LAYER-1
  0
POLYLINE
  8
LAYER-1
 66
  1
 70
  0
 62
  0
 10
3.456283
 20
0.613445
 30
0.000000
  0
VERTEX
  8
LAYER-1
 10
3.456283
 20
0.613445
 30
0.000000
  0
VERTEX
  8
LAYER-1
 10
3.442406
 20
0.624382
 30
0.000000
  0
VERTEX
  8
LAYER-1
 10
3.427643
 20
0.622303
 30
0.000000
  0
VERTEX
  8
LAYER-1
 10
3.423063
 20
0.614004
 30
0.000000
  0
SEQEND
  8
LAYER-1
  0
POLYLINE
  8
LAYER-1
 66
  1
 70
  0
 62
  0
 10
3.423063
 20
0.614005
 30
0.000000
  0
VERTEX
  8
LAYER-1
 10
3.423063
 20
0.614005
 30
0.000000
  0
VERTEX
  8
LAYER-1
 10
3.456283
 20
0.613445
 30
0.000000
  0
SEQEND
  8
LAYER-1
  0
POLYLINE
  8
LAYER-1
 66
  1
 70
  0
 62
  0
 10
3.420854
 20
0.613443
 30
0.000000
  0
VERTEX
  8
LAYER-1
 10
3.420854
 20
0.613443
 30
0.000000
  0
VERTEX
  8
LAYER-1
 10
3.403746
 20
0.624427
 30
0.000000
  0
VERTEX
  8
LAYER-1
 10
3.386666
 20
0.620096
 30
0.000000
  0
VERTEX
  8
LAYER-1
 10
3.383951
 20
0.613442
 30
0.000000
  0
SEQEND
  8
LAYER-1
  0
POLYLINE
  8
LAYER-1
 66
  1
 70
  0
 62
  0
 10
3.383951
 20
0.613443
 30
0.000000
  0
VERTEX
  8
LAYER-1
 10
3.383951
 20
0.613443
 30
0.000000
  0
VERTEX
  8
LAYER-1
 10
3.420854
 20
0.613445
 30
0.000000
  0
SEQEND
  8
LAYER-1
  0
POLYLINE
  8
LAYER-1
 66
  1
 70
  0
 62
  0
 10
3.054015
 20
0.613891
 30
0.000000
  0
VERTEX
  8
LAYER-1
 10
3.054015
 20
0.613891
 30
0.000000
  0
VERTEX
  8
LAYER-1
 10
3.034510
 20
0.623882
 30
0.000000
  0
VERTEX
  8
LAYER-1
 10
3.016437
 20
0.617157
 30
0.000000
  0
VERTEX
  8
LAYER-1
 10
3.017107
 20
0.613890
 30
0.000000
  0
SEQEND
  8
LAYER-1
  0
POLYLINE
  8
LAYER-1
 66
  1
 70
  0
 62
  0
 10
3.006774
 20
0.613891
 30
0.000000
  0
VERTEX
  8
LAYER-1
 10
3.006774
 20
0.613891
 30
0.000000
  0
VERTEX
  8
LAYER-1
 10
2.987269
 20
0.623882
 30
0.000000
  0
VERTEX
  8
LAYER-1
 10
2.969196
 20
0.617157
 30
0.000000
  0
VERTEX
  8
LAYER-1
 10
2.969866
 20
0.613890
 30
0.000000
  0
SEQEND
  8
LAYER-1
  0
POLYLINE
  8
LAYER-1
 66
  1
 70
  0
 62
  0
 10
3.032541
 20
0.613979
 30
0.000000
  0
VERTEX
  8
LAYER-1
 10
3.032541
 20
0.613979
 30
0.000000
  0
VERTEX
  8
LAYER-1
 10
3.021789
 20
0.626984
 30
0.000000
  0
VERTEX
  8
LAYER-1
 10
3.007774
 20
0.628578
 30
0.000000
  0
VERTEX
  8
LAYER-1
 10
2.996737
 20
0.619795
 30
0.000000
  0
VERTEX
  8
LAYER-1
 10
2.997112
 20
0.613979
 30
0.000000
  0
SEQEND
  8
LAYER-1
  0
POLYLINE
  8
LAYER-1
 66
  1
 70
  0
 62
  0
 10
3.032540
 20
0.613980
 30
0.000000
  0
VERTEX
  8
LAYER-1
 10
3.032540
 20
0.613980
 30
0.000000
  0
VERTEX
  8
LAYER-1
 10
2.997112
 20
0.613980
 30
0.000000
  0
SEQEND
  8
LAYER-1
  0
POLYLINE
  8
LAYER-1
 66
  1
 70
  0
 62
  0
 10
2.241460
 20
0.613891
 30
0.000000
  0
VERTEX
  8
LAYER-1
 10
2.241460
 20
0.613891
 30
0.000000
  0
VERTEX
  8
LAYER-1
 10
2.221955
 20
0.623882
 30
0.000000
  0
VERTEX
  8
LAYER-1
 10
2.203882
 20
0.617157
 30
0.000000
  0
VERTEX
  8
LAYER-1
 10
2.204552
 20
0.613890
 30
0.000000
  0
SEQEND
  8
LAYER-1
  0
POLYLINE
  8
LAYER-1
 66
  1
 70
  0
 62
  0
 10
2.193280
 20
0.613891
 30
0.000000
  0
VERTEX
  8
LAYER-1
 10
2.193280
 20
0.613891
 30
0.000000
  0
VERTEX
  8
LAYER-1
 10
2.173775
 20
0.623882
 30
0.000000
  0
VERTEX
  8
LAYER-1
 10
2.155702
 20
0.617157
 30
0.000000
  0
VERTEX
  8
LAYER-1
 10
2.156372
 20
0.613890
 30
0.000000
  0
SEQEND
  8
LAYER-1
  0
POLYLINE
  8
LAYER-1
 66
  1
 70
  0
 62
  0
 10
2.215757
 20
0.613979
 30
0.000000
  0
VERTEX
  8
LAYER-1
 10
2.215757
 20
0.613979
 30
0.000000
  0
VERTEX
  8
LAYER-1
 10
2.205005
 20
0.626984
 30
0.000000
  0
VERTEX
  8
LAYER-1
 10
2.190990
 20
0.628578
 30
0.000000
  0
VERTEX
  8
LAYER-1
 10
2.179953
 20
0.619795
 30
0.000000
  0
VERTEX
  8
LAYER-1
 10
2.180328
 20
0.613979
 30
0.000000
  0
SEQEND
  8
LAYER-1
  0
POLYLINE
  8
LAYER-1
 66
  1
 70
  0
 62
  0
 10
2.215757
 20
0.613980
 30
0.000000
  0
VERTEX
  8
LAYER-1
 10
2.215757
 20
0.613980
 30
0.000000
  0
VERTEX
  8
LAYER-1
 10
2.180329
 20
0.613980
 30
0.000000
  0
SEQEND
  8
LAYER-1
  0
POLYLINE
  8
LAYER-1
 66
  1
 70
  1
 62
  0
  0
VERTEX
  8
LAYER-1
 10
3.031998
 20
0.341789
 30
0.000000
  0
VERTEX
  8
LAYER-1
 10
2.996568
 20
0.341789
 30
0.000000
  0
VERTEX
  8
LAYER-1
 10
2.996568
 20
0.613418
 30
0.000000
  0
VERTEX
  8
LAYER-1
 10
3.031998
 20
0.613418
 30
0.000000
  0
SEQEND
  8
LAYER-1
  0
POLYLINE
  8
LAYER-1
 66
  1
 70
  1
 62
  0
  0
VERTEX
  8
LAYER-1
 10
2.215684
 20
0.341789
 30
0.000000
  0
VERTEX
  8
LAYER-1
 10
2.180254
 20
0.341789
 30
0.000000
  0
VERTEX
  8
LAYER-1
 10
2.180254
 20
0.613418
 30
0.000000
  0
VERTEX
  8
LAYER-1
 10
2.215684
 20
0.613418
 30
0.000000
  0
SEQEND
  8
LAYER-1
  0
POLYLINE
  8
LAYER-1
 66
  1
 70
  0
 62
  0
 10
3.031998
 20
0.409696
 30
0.000000
  0
VERTEX
  8
LAYER-1
 10
3.031998
 20
0.409696
 30
0.000000
  0
VERTEX
  8
LAYER-1
 10
2.996568
 20
0.409696
 30
0.000000
  0
SEQEND
  8
LAYER-1
  0
POLYLINE
  8
LAYER-1
 66
  1
 70
  0
 62
  0
 10
3.031998
 20
0.539605
 30
0.000000
  0
VERTEX
  8
LAYER-1
 10
3.031998
 20
0.539605
 30
0.000000
  0
VERTEX
  8
LAYER-1
 10
2.996568
 20
0.539605
 30
0.000000
  0
SEQEND
  8
LAYER-1
  0
POLYLINE
  8
LAYER-1
 66
  1
 70
  0
 62
  0
 10
2.215684
 20
0.409696
 30
0.000000
  0
VERTEX
  8
LAYER-1
 10
2.215684
 20
0.409696
 30
0.000000
  0
VERTEX
  8
LAYER-1
 10
2.180255
 20
0.409696
 30
0.000000
  0
SEQEND
  8
LAYER-1
  0
POLYLINE
  8
LAYER-1
 66
  1
 70
  0
 62
  0
 10
2.215684
 20
0.539605
 30
0.000000
  0
VERTEX
  8
LAYER-1
 10
2.215684
 20
0.539605
 30
0.000000
  0
VERTEX
  8
LAYER-1
 10
2.180255
 20
0.539605
 30
0.000000
  0
SEQEND
  8
LAYER-1
  0
POLYLINE
  8
LAYER-1
 66
  1
 70
  0
 62
  0
 10
3.201110
 20
0.341671
 30
0.000000
  0
VERTEX
  8
LAYER-1
 10
3.201110
 20
0.341671
 30
0.000000
  0
VERTEX
  8
LAYER-1
 10
3.211346
 20
0.335078
 30
0.000000
  0
VERTEX
  8
LAYER-1
 10
3.226031
 20
0.337653
 30
0.000000
  0
VERTEX
  8
LAYER-1
 10
3.234330
 20
0.342232
 30
0.000000
  0
SEQEND
  8
LAYER-1
  0
POLYLINE
  8
LAYER-1
 66
  1
 70
  0
 62
  0
 10
2.383932
 20
0.341850
 30
0.000000
  0
VERTEX
  8
LAYER-1
 10
2.383932
 20
0.341850
 30
0.000000
  0
VERTEX
  8
LAYER-1
 10
2.397103
 20
0.334804
 30
0.000000
  0
VERTEX
  8
LAYER-1
 10
2.414183
 20
0.339135
 30
0.000000
  0
VERTEX
  8
LAYER-1
 10
2.420836
 20
0.341849
 30
0.000000
  0
SEQEND
  8
LAYER-1
  0
POLYLINE
  8
LAYER-1
 66
  1
 70
  0
 62
  0
 10
2.641251
 20
0.613447
 30
0.000000
  0
VERTEX
  8
LAYER-1
 10
2.641251
 20
0.613447
 30
0.000000
  0
VERTEX
  8
LAYER-1
 10
2.627374
 20
0.624385
 30
0.000000
  0
VERTEX
  8
LAYER-1
 10
2.612611
 20
0.622307
 30
0.000000
  0
VERTEX
  8
LAYER-1
 10
2.608032
 20
0.614007
 30
0.000000
  0
SEQEND
  8
LAYER-1
  0
POLYLINE
  8
LAYER-1
 66
  1
 70
  0
 62
  0
 10
2.608032
 20
0.614007
 30
0.000000
  0
VERTEX
  8
LAYER-1
 10
2.608032
 20
0.614007
 30
0.000000
  0
VERTEX
  8
LAYER-1
 10
2.641251
 20
0.613447
 30
0.000000
  0
SEQEND
  8
LAYER-1
  0
POLYLINE
  8
LAYER-1
 66
  1
 70
  0
 62
  0
 10
2.605823
 20
0.613447
 30
0.000000
  0
VERTEX
  8
LAYER-1
 10
2.605823
 20
0.613447
 30
0.000000
  0
VERTEX
  8
LAYER-1
 10
2.588715
 20
0.624429
 30
0.000000
  0
VERTEX
  8
LAYER-1
 10
2.571635
 20
0.620099
 30
0.000000
  0
VERTEX
  8
LAYER-1
 10
2.568919
 20
0.613446
 30
0.000000
  0
SEQEND
  8
LAYER-1
  0
POLYLINE
  8
LAYER-1
 66
  1
 70
  0
 62
  0
 10
2.568919
 20
0.613446
 30
0.000000
  0
VERTEX
  8
LAYER-1
 10
2.568919
 20
0.613446
 30
0.000000
  0
VERTEX
  8
LAYER-1
 10
2.605822
 20
0.613447
 30
0.000000
  0
SEQEND
  8
LAYER-1
  0
POLYLINE
  8
LAYER-1
 66
  1
 70
  0
 62
  0
 10
2.570090
 20
0.341789
 30
0.000000
  0
VERTEX
  8
LAYER-1
 10
2.570090
 20
0.341789
 30
0.000000
  0
VERTEX
  8
LAYER-1
 10
2.570090
 20
0.613420
 30
0.000000
  0
SEQEND
  8
LAYER-1
  0
POLYLINE
  8
LAYER-1
 66
  1
 70
  0
 62
  0
 10
2.642424
 20
0.613417
 30
0.000000
  0
VERTEX
  8
LAYER-1
 10
2.642424
 20
0.613417
 30
0.000000
  0
VERTEX
  8
LAYER-1
 10
2.642424
 20
0.341788
 30
0.000000
  0
SEQEND
  8
LAYER-1
  0
POLYLINE
  8
LAYER-1
 66
  1
 70
  0
 62
  0
 10
2.606995
 20
0.341788
 30
0.000000
  0
VERTEX
  8
LAYER-1
 10
2.606995
 20
0.341788
 30
0.000000
  0
VERTEX
  8
LAYER-1
 10
2.606995
 20
0.613419
 30
0.000000
  0
SEQEND
  8
LAYER-1
  0
POLYLINE
  8
LAYER-1
 66
  1
 70
  0
 62
  0
 10
2.608900
 20
0.341370
 30
0.000000
  0
VERTEX
  8
LAYER-1
 10
2.608900
 20
0.341370
 30
0.000000
  0
VERTEX
  8
LAYER-1
 10
2.619136
 20
0.334775
 30
0.000000
  0
VERTEX
  8
LAYER-1
 10
2.633820
 20
0.337351
 30
0.000000
  0
VERTEX
  8
LAYER-1
 10
2.642120
 20
0.341929
 30
0.000000
  0
SEQEND
  8
LAYER-1
  0
POLYLINE
  8
LAYER-1
 66
  1
 70
  0
 62
  0
 10
2.608901
 20
0.341369
 30
0.000000
  0
VERTEX
  8
LAYER-1
 10
2.608901
 20
0.341369
 30
0.000000
  0
VERTEX
  8
LAYER-1
 10
2.642120
 20
0.341929
 30
0.000000
  0
SEQEND
  8
LAYER-1
  0
POLYLINE
  8
LAYER-1
 66
  1
 70
  0
 62
  0
 10
2.569788
 20
0.341932
 30
0.000000
  0
VERTEX
  8
LAYER-1
 10
2.569788
 20
0.341932
 30
0.000000
  0
VERTEX
  8
LAYER-1
 10
2.582959
 20
0.334884
 30
0.000000
  0
VERTEX
  8
LAYER-1
 10
2.600039
 20
0.339215
 30
0.000000
  0
VERTEX
  8
LAYER-1
 10
2.606692
 20
0.341930
 30
0.000000
  0
SEQEND
  8
LAYER-1
  0
POLYLINE
  8
LAYER-1
 66
  1
 70
  0
 62
  0
 10
2.569788
 20
0.341930
 30
0.000000
  0
VERTEX
  8
LAYER-1
 10
2.569788
 20
0.341930
 30
0.000000
  0
VERTEX
  8
LAYER-1
 10
2.606691
 20
0.341929
 30
0.000000
  0
SEQEND
  8
LAYER-1
  0
POLYLINE
  8
LAYER-1
 66
  1
 70
  0
 62
  0
 10
1.821252
 20
0.613447
 30
0.000000
  0
VERTEX
  8
LAYER-1
 10
1.821252
 20
0.613447
 30
0.000000
  0
VERTEX
  8
LAYER-1
 10
1.807374
 20
0.624385
 30
0.000000
  0
VERTEX
  8
LAYER-1
 10
1.792611
 20
0.622307
 30
0.000000
  0
VERTEX
  8
LAYER-1
 10
1.788032
 20
0.614007
 30
0.000000
  0
SEQEND
  8
LAYER-1
  0
POLYLINE
  8
LAYER-1
 66
  1
 70
  0
 62
  0
 10
1.788032
 20
0.614007
 30
0.000000
  0
VERTEX
  8
LAYER-1
 10
1.788032
 20
0.614007
 30
0.000000
  0
VERTEX
  8
LAYER-1
 10
1.821251
 20
0.613447
 30
0.000000
  0
SEQEND
  8
LAYER-1
  0
POLYLINE
  8
LAYER-1
 66
  1
 70
  0
 62
  0
 10
1.785823
 20
0.613447
 30
0.000000
  0
VERTEX
  8
LAYER-1
 10
1.785823
 20
0.613447
 30
0.000000
  0
VERTEX
  8
LAYER-1
 10
1.768714
 20
0.624429
 30
0.000000
  0
VERTEX
  8
LAYER-1
 10
1.751634
 20
0.620099
 30
0.000000
  0
VERTEX
  8
LAYER-1
 10
1.748919
 20
0.613446
 30
0.000000
  0
SEQEND
  8
LAYER-1
  0
POLYLINE
  8
LAYER-1
 66
  1
 70
  0
 62
  0
 10
1.748920
 20
0.613446
 30
0.000000
  0
VERTEX
  8
LAYER-1
 10
1.748920
 20
0.613446
 30
0.000000
  0
VERTEX
  8
LAYER-1
 10
1.785822
 20
0.613447
 30
0.000000
  0
SEQEND
  8
LAYER-1
  0
POLYLINE
  8
LAYER-1
 66
  1
 70
  0
 62
  0
 10
1.750090
 20
0.341789
 30
0.000000
  0
VERTEX
  8
LAYER-1
 10
1.750090
 20
0.341789
 30
0.000000
  0
VERTEX
  8
LAYER-1
 10
1.750090
 20
0.613420
 30
0.000000
  0
SEQEND
  8
LAYER-1
  0
POLYLINE
  8
LAYER-1
 66
  1
 70
  0
 62
  0
 10
1.822424
 20
0.613417
 30
0.000000
  0
VERTEX
  8
LAYER-1
 10
1.822424
 20
0.613417
 30
0.000000
  0
VERTEX
  8
LAYER-1
 10
1.822424
 20
0.341788
 30
0.000000
  0
SEQEND
  8
LAYER-1
  0
POLYLINE
  8
LAYER-1
 66
  1
 70
  0
 62
  0
 10
1.786995
 20
0.341788
 30
0.000000
  0
VERTEX
  8
LAYER-1
 10
1.786995
 20
0.341788
 30
0.000000
  0
VERTEX
  8
LAYER-1
 10
1.786995
 20
0.613419
 30
0.000000
  0
SEQEND
  8
LAYER-1
  0
POLYLINE
  8
LAYER-1
 66
  1
 70
  0
 62
  0
 10
1.788900
 20
0.341370
 30
0.000000
  0
VERTEX
  8
LAYER-1
 10
1.788900
 20
0.341370
 30
0.000000
  0
VERTEX
  8
LAYER-1
 10
1.799136
 20
0.334775
 30
0.000000
  0
VERTEX
  8
LAYER-1
 10
1.813821
 20
0.337351
 30
0.000000
  0
VERTEX
  8
LAYER-1
 10
1.822120
 20
0.341929
 30
0.000000
  0
SEQEND
  8
LAYER-1
  0
POLYLINE
  8
LAYER-1
 66
  1
 70
  0
 62
  0
 10
1.788901
 20
0.341369
 30
0.000000
  0
VERTEX
  8
LAYER-1
 10
1.788901
 20
0.341369
 30
0.000000
  0
VERTEX
  8
LAYER-1
 10
1.822119
 20
0.341929
 30
0.000000
  0
SEQEND
  8
LAYER-1
  0
POLYLINE
  8
LAYER-1
 66
  1
 70
  0
 62
  0
 10
1.749787
 20
0.341932
 30
0.000000
  0
VERTEX
  8
LAYER-1
 10
1.749787
 20
0.341932
 30
0.000000
  0
VERTEX
  8
LAYER-1
 10
1.762959
 20
0.334884
 30
0.000000
  0
VERTEX
  8
LAYER-1
 10
1.780039
 20
0.339215
 30
0.000000
  0
VERTEX
  8
LAYER-1
 10
1.786691
 20
0.341930
 30
0.000000
  0
SEQEND
  8
LAYER-1
  0
POLYLINE
  8
LAYER-1
 66
  1
 70
  0
 62
  0
 10
1.749788
 20
0.341930
 30
0.000000
  0
VERTEX
  8
LAYER-1
 10
1.749788
 20
0.341930
 30
0.000000
  0
VERTEX
  8
LAYER-1
 10
1.786691
 20
0.341929
 30
0.000000
  0
SEQEND
  8
LAYER-1
  0
POLYLINE
  8
LAYER-1
 66
  1
 70
  1
 62
  0
  0
VERTEX
  8
LAYER-1
 10
3.645717
 20
7.467627
 30
0.000000
  0
VERTEX
  8
LAYER-1
 10
3.814600
 20
7.467627
 30
0.000000
  0
VERTEX
  8
LAYER-1
 10
3.814600
 20
0.341376
 30
0.000000
  0
VERTEX
  8
LAYER-1
 10
3.645717
 20
0.341376
 30
0.000000
  0
SEQEND
  8
LAYER-1
  0
CIRCLE
  8
LAYER-1
 62
  0
 10
3.730364
 20
3.177629
 30
0.000000
 40
0.064283
  0
POLYLINE
  8
LAYER-1
 66
  1
 70
  0
 62
  0
 10
3.688018
 20
2.119991
 30
0.000000
  0
VERTEX
  8
LAYER-1
 10
3.688018
 20
2.119991
 30
0.000000
  0
VERTEX
  8
LAYER-1
 10
3.688019
 20
2.119991
 30
0.000000
  0
SEQEND
  8
LAYER-1
  0
POLYLINE
  8
LAYER-1
 66
  1
 70
  0
 62
  0
 10
3.695983
 20
2.112027
 30
0.000000
  0
VERTEX
  8
LAYER-1
 10
3.695983
 20
2.112027
 30
0.000000
  0
VERTEX
  8
LAYER-1
 10
3.695983
 20
1.862484
 30
0.000000
  0
SEQEND
  8
LAYER-1
  0
POLYLINE
  8
LAYER-1
 66
  1
 70
  0
 62
  0
 10
3.688019
 20
1.854520
 30
0.000000
  0
VERTEX
  8
LAYER-1
 10
3.688019
 20
1.854520
 30
0.000000
  0
VERTEX
  8
LAYER-1
 10
3.688018
 20
1.854520
 30
0.000000
  0
SEQEND
  8
LAYER-1
  0
POLYLINE
  8
LAYER-1
 66
  1
 70
  0
 62
  0
 10
3.680053
 20
1.862484
 30
0.000000
  0
VERTEX
  8
LAYER-1
 10
3.680053
 20
1.862484
 30
0.000000
  0
VERTEX
  8
LAYER-1
 10
3.680053
 20
2.112027
 30
0.000000
  0
SEQEND
  8
LAYER-1
  0
ARC
  8
LAYER-1
 62
  0
 10
3.688018
 20
2.112027
 30
0.000000
 40
0.007964
 50
270.000000
 51
0.000000
  0
ARC
  8
LAYER-1
 62
  0
 10
3.688018
 20
1.862484
 30
0.000000
 40
0.007964
 50
0.000000
 51
90.000000
  0
ARC
  8
LAYER-1
 62
  0
 10
3.688019
 20
1.862484
 30
0.000000
 40
0.007964
 50
90.000000
 51
180.000000
  0
ARC
  8
LAYER-1
 62
  0
 10
3.688019
 20
2.112027
 30
0.000000
 40
0.007964
 50
180.000000
 51
270.000000
  0
CIRCLE
  8
LAYER-1
 62
  7
 10
3.730364
 20
3.177388
 30
0.000000
 40
0.047124
  0
CIRCLE
  8
LAYER-1
 62
  0
 10
3.730364
 20
3.177388
 30
0.000000
 40
0.042287
  0
CIRCLE
  8
LAYER-1
 62
  0
 10
3.730364
 20
3.160592
 30
0.000000
 40
0.018794
  0
CIRCLE
  8
LAYER-1
 62
  0
 10
3.730364
 20
3.152557
 30
0.000000
 40
0.008035
  0
TEXT
  8
LAYER-1
 62
  0
 10
3.694778
 20
3.180333
 30
0.000000
 40
0.010417
  1
MobilFlex
 72
  5
 11
3.847556
 21
3.180333
 31
0.000000
  0
POLYLINE
  8
LAYER-1
 66
  1
 70
  1
 62
  0
 10
3.726740
 20
3.142346
 30
0.000000
  0
VERTEX
  8
LAYER-1
 10
3.726740
 20
3.142346
 30
0.000000
  0
VERTEX
  8
LAYER-1
 10
3.726740
 20
3.151047
 30
0.000000
  0
VERTEX
  8
LAYER-1
 10
3.730122
 20
3.151047
 30
0.000000
  0
VERTEX
  8
LAYER-1
 10
3.730122
 20
3.154430
 30
0.000000
  0
VERTEX
  8
LAYER-1
 10
3.726498
 20
3.158055
 30
0.000000
  0
VERTEX
  8
LAYER-1
 10
3.726498
 20
3.160471
 30
0.000000
  0
VERTEX
  8
LAYER-1
 10
3.728915
 20
3.167721
 30
0.000000
  0
VERTEX
  8
LAYER-1
 10
3.732056
 20
3.167721
 30
0.000000
  0
VERTEX
  8
LAYER-1
 10
3.731331
 20
3.162404
 30
0.000000
  0
VERTEX
  8
LAYER-1
 10
3.731574
 20
3.160471
 30
0.000000
  0
VERTEX
  8
LAYER-1
 10
3.733023
 20
3.160471
 30
0.000000
  0
VERTEX
  8
LAYER-1
 10
3.733023
 20
3.148147
 30
0.000000
  0
VERTEX
  8
LAYER-1
 10
3.730364
 20
3.146938
 30
0.000000
  0
VERTEX
  8
LAYER-1
 10
3.730364
 20
3.144521
 30
0.000000
  0
VERTEX
  8
LAYER-1
 10
3.733023
 20
3.144038
 30
0.000000
  0
VERTEX
  8
LAYER-1
 10
3.733023
 20
3.142346
 30
0.000000
  0
SEQEND
  8
LAYER-1
  0
CIRCLE
  8
LAYER-1
 62
  0
 10
3.688351
 20
1.857172
 30
0.000000
 40
0.022565
  0
CIRCLE
  8
LAYER-1
 62
  0
 10
3.688351
 20
1.857172
 30
0.000000
 40
0.016522
  0
CIRCLE
  8
LAYER-1
 62
  0
 10
3.688351
 20
1.857172
 30
0.000000
 40
0.013746
  0
CIRCLE
  8
LAYER-1
 62
  0
 10
3.688351
 20
1.857172
 30
0.000000
 40
0.008860
  0
LINE
  8
LAYER-1
 62
  0
 10
6.732972
 20
7.535055
 30
0.000000
 11
0.739917
 21
7.535055
 31
0.000000
  0
LINE
  8
LAYER-1
 62
  0
 10
6.732972
 20
7.645054
 30
0.000000
 11
0.739917
 21
7.645054
 31
0.000000
  0
LINE
  8
LAYER-1
 62
  0
 10
1.292000
 20
7.534933
 30
0.000000
 11
1.292000
 21
7.645176
 31
0.000000
  0
LINE
  8
LAYER-1
 62
  0
 10
1.226462
 20
7.534933
 30
0.000000
 11
1.417000
 21
7.534933
 31
0.000000
  0
LINE
  8
LAYER-1
 62
  0
 10
1.228632
 20
7.645176
 30
0.000000
 11
1.417000
 21
7.645176
 31
0.000000
  0
LINE
  8
LAYER-1
 62
  0
 10
1.292000
 20
7.645176
 30
0.000000
 11
1.292000
 21
7.277555
 31
0.000000
  0
LINE
  8
LAYER-1
 62
  0
 10
1.262538
 20
7.564396
 30
0.000000
 11
1.321463
 21
7.505470
 31
0.000000
  0
LINE
  8
LAYER-1
 62
  0
 10
1.262538
 20
7.674639
 30
0.000000
 11
1.321463
 21
7.615713
 31
0.000000
  0
TEXT
  8
LAYER-1
 62
  0
 10
1.281939
 20
7.151680
 30
0.000000
 40
0.125000
  1
 
  0
POLYLINE
  8
LAYER-1
 66
  1
 70
  1
 62
  0
  0
VERTEX
  8
LAYER-1
 10
3.753484
 20
7.533051
 30
0.000000
  0
VERTEX
  8
LAYER-1
 10
3.778579
 20
7.533051
 30
0.000000
  0
VERTEX
  8
LAYER-1
 10
3.778579
 20
7.467601
 30
0.000000
  0
VERTEX
  8
LAYER-1
 10
3.753484
 20
7.467601
 30
0.000000
  0
SEQEND
  8
LAYER-1
  0
POLYLINE
  8
LAYER-1
 66
  1
 70
  1
 62
  0
  0
VERTEX
  8
LAYER-1
 10
4.636789
 20
7.533393
 30
0.000000
  0
VERTEX
  8
LAYER-1
 10
4.661885
 20
7.533393
 30
0.000000
  0
VERTEX
  8
LAYER-1
 10
4.661885
 20
7.467473
 30
0.000000
  0
VERTEX
  8
LAYER-1
 10
4.636789
 20
7.467473
 30
0.000000
  0
SEQEND
  8
LAYER-1
  0
POLYLINE
  8
LAYER-1
 66
  1
 70
  1
 62
  0
  0
VERTEX
  8
LAYER-1
 10
5.453760
 20
7.533394
 30
0.000000
  0
VERTEX
  8
LAYER-1
 10
5.478856
 20
7.533394
 30
0.000000
  0
VERTEX
  8
LAYER-1
 10
5.478856
 20
7.467473
 30
0.000000
  0
VERTEX
  8
LAYER-1
 10
5.453760
 20
7.467473
 30
0.000000
  0
SEQEND
  8
LAYER-1
  0
POLYLINE
  8
LAYER-1
 66
  1
 70
  1
 62
  0
  0
VERTEX
  8
LAYER-1
 10
3.674922
 20
0.341504
 30
0.000000
  0
VERTEX
  8
LAYER-1
 10
3.708479
 20
0.341504
 30
0.000000
  0
VERTEX
  8
LAYER-1
 10
3.708479
 20
0.246866
 30
0.000000
  0
VERTEX
  8
LAYER-1
 10
3.674922
 20
0.246866
 30
0.000000
  0
SEQEND
  8
LAYER-1
  0
POLYLINE
  8
LAYER-1
 66
  1
 70
  1
 62
  0
  0
VERTEX
  8
LAYER-1
 10
2.798254
 20
7.533097
 30
0.000000
  0
VERTEX
  8
LAYER-1
 10
2.823350
 20
7.533097
 30
0.000000
  0
VERTEX
  8
LAYER-1
 10
2.823350
 20
7.468116
 30
0.000000
  0
VERTEX
  8
LAYER-1
 10
2.798254
 20
7.468116
 30
0.000000
  0
SEQEND
  8
LAYER-1
  0
POLYLINE
  8
LAYER-1
 66
  1
 70
  1
 62
  0
  0
VERTEX
  8
LAYER-1
 10
1.980415
 20
7.533097
 30
0.000000
  0
VERTEX
  8
LAYER-1
 10
2.005511
 20
7.533097
 30
0.000000
  0
VERTEX
  8
LAYER-1
 10
2.005511
 20
7.468116
 30
0.000000
  0
VERTEX
  8
LAYER-1
 10
1.980415
 20
7.468116
 30
0.000000
  0
SEQEND
  8
LAYER-1
  0
POLYLINE
  8
LAYER-1
 66
  1
 70
  0
 62
  0
 10
3.645018
 20
0.239206
 30
0.000000
  0
VERTEX
  8
LAYER-1
 10
3.645018
 20
0.239206
 30
0.000000
  0
VERTEX
  8
LAYER-1
 10
3.657796
 20
0.246770
 30
0.000000
  0
SEQEND
  8
LAYER-1
  0
POLYLINE
  8
LAYER-1
 66
  1
 70
  0
 62
  0
 10
3.645018
 20
0.239206
 30
0.000000
  0
VERTEX
  8
LAYER-1
 10
3.645018
 20
0.239206
 30
0.000000
  0
VERTEX
  8
LAYER-1
 10
3.645018
 20
0.237641
 30
0.000000
  0
SEQEND
  8
LAYER-1
  0
POLYLINE
  8
LAYER-1
 66
  1
 70
  1
 62
  0
  0
VERTEX
  8
LAYER-1
 10
3.663461
 20
0.237628
 30
0.000000
  0
VERTEX
  8
LAYER-1
 10
3.720048
 20
0.237628
 30
0.000000
  0
VERTEX
  8
LAYER-1
 10
3.720048
 20
0.049964
 30
0.000000
  0
VERTEX
  8
LAYER-1
 10
3.663461
 20
0.049964
 30
0.000000
  0
SEQEND
  8
LAYER-1
  0
POLYLINE
  8
LAYER-1
  6
LTYPE01
 66
  1
 70
  1
 62
  0
  0
VERTEX
  8
LAYER-1
  6
LTYPE01
 10
3.668155
 20
0.246753
 30
0.000000
  0
VERTEX
  8
LAYER-1
  6
LTYPE01
 10
3.715095
 20
0.246753
 30
0.000000
  0
VERTEX
  8
LAYER-1
  6
LTYPE01
 10
3.715095
 20
0.059525
 30
0.000000
  0
VERTEX
  8
LAYER-1
  6
LTYPE01
 10
3.668155
 20
0.059525
 30
0.000000
  0
SEQEND
  8
LAYER-1
  0
POLYLINE
  8
LAYER-1
 66
  1
 70
  0
 62
  0
 10
3.645018
 20
0.237641
 30
0.000000
  0
VERTEX
  8
LAYER-1
 10
3.645018
 20
0.237641
 30
0.000000
  0
VERTEX
  8
LAYER-1
 10
3.738635
 20
0.237641
 30
0.000000
  0
SEQEND
  8
LAYER-1
  0
POLYLINE
  8
LAYER-1
 66
  1
 70
  0
 62
  0
 10
3.738635
 20
0.237641
 30
0.000000
  0
VERTEX
  8
LAYER-1
 10
3.738635
 20
0.237641
 30
0.000000
  0
VERTEX
  8
LAYER-1
 10
3.738635
 20
0.239206
 30
0.000000
  0
SEQEND
  8
LAYER-1
  0
POLYLINE
  8
LAYER-1
 66
  1
 70
  0
 62
  0
 10
3.738635
 20
0.239206
 30
0.000000
  0
VERTEX
  8
LAYER-1
 10
3.738635
 20
0.239206
 30
0.000000
  0
VERTEX
  8
LAYER-1
 10
3.725596
 20
0.246770
 30
0.000000
  0
SEQEND
  8
LAYER-1
  0
POLYLINE
  8
LAYER-1
  6
LTYPE02
 66
  1
 70
  0
 62
  0
  6
LTYPE02
 10
3.669400
 20
0.145983
 30
0.000000
  0
VERTEX
  8
LAYER-1
  6
LTYPE02
 10
3.669400
 20
0.145983
 30
0.000000
  0
VERTEX
  8
LAYER-1
  6
LTYPE02
 10
3.669400
 20
0.112084
 30
0.000000
  0
SEQEND
  8
LAYER-1
  0
POLYLINE
  8
LAYER-1
  6
LTYPE02
 66
  1
 70
  0
 62
  0
  6
LTYPE02
 10
3.673308
 20
0.145983
 30
0.000000
  0
VERTEX
  8
LAYER-1
  6
LTYPE02
 10
3.673308
 20
0.145983
 30
0.000000
  0
VERTEX
  8
LAYER-1
  6
LTYPE02
 10
3.669400
 20
0.145983
 30
0.000000
  0
SEQEND
  8
LAYER-1
  0
POLYLINE
  8
LAYER-1
  6
LTYPE02
 66
  1
 70
  0
 62
  0
  6
LTYPE02
 10
3.673308
 20
0.145983
 30
0.000000
  0
VERTEX
  8
LAYER-1
  6
LTYPE02
 10
3.673308
 20
0.145983
 30
0.000000
  0
VERTEX
  8
LAYER-1
  6
LTYPE02
 10
3.673308
 20
0.150416
 30
0.000000
  0
SEQEND
  8
LAYER-1
  0
POLYLINE
  8
LAYER-1
  6
LTYPE02
 66
  1
 70
  0
 62
  0
  6
LTYPE02
 10
3.673308
 20
0.150416
 30
0.000000
  0
VERTEX
  8
LAYER-1
  6
LTYPE02
 10
3.673308
 20
0.150416
 30
0.000000
  0
VERTEX
  8
LAYER-1
  6
LTYPE02
 10
3.710568
 20
0.150416
 30
0.000000
  0
SEQEND
  8
LAYER-1
  0
POLYLINE
  8
LAYER-1
  6
LTYPE02
 66
  1
 70
  0
 62
  0
  6
LTYPE02
 10
3.669400
 20
0.112084
 30
0.000000
  0
VERTEX
  8
LAYER-1
  6
LTYPE02
 10
3.669400
 20
0.112084
 30
0.000000
  0
VERTEX
  8
LAYER-1
  6
LTYPE02
 10
3.713732
 20
0.112084
 30
0.000000
  0
SEQEND
  8
LAYER-1
  0
POLYLINE
  8
LAYER-1
  6
LTYPE02
 66
  1
 70
  0
 62
  0
  6
LTYPE02
 10
3.713732
 20
0.112084
 30
0.000000
  0
VERTEX
  8
LAYER-1
  6
LTYPE02
 10
3.713732
 20
0.112084
 30
0.000000
  0
VERTEX
  8
LAYER-1
  6
LTYPE02
 10
3.713732
 20
0.145983
 30
0.000000
  0
SEQEND
  8
LAYER-1
  0
POLYLINE
  8
LAYER-1
  6
LTYPE02
 66
  1
 70
  0
 62
  0
  6
LTYPE02
 10
3.710568
 20
0.145983
 30
0.000000
  0
VERTEX
  8
LAYER-1
  6
LTYPE02
 10
3.710568
 20
0.145983
 30
0.000000
  0
VERTEX
  8
LAYER-1
  6
LTYPE02
 10
3.713732
 20
0.145983
 30
0.000000
  0
SEQEND
  8
LAYER-1
  0
POLYLINE
  8
LAYER-1
  6
LTYPE02
 66
  1
 70
  0
 62
  0
  6
LTYPE02
 10
3.710568
 20
0.150416
 30
0.000000
  0
VERTEX
  8
LAYER-1
  6
LTYPE02
 10
3.710568
 20
0.150416
 30
0.000000
  0
VERTEX
  8
LAYER-1
  6
LTYPE02
 10
3.710568
 20
0.145983
 30
0.000000
  0
SEQEND
  8
LAYER-1
  0
POLYLINE
  8
LAYER-1
  6
LTYPE01
 66
  1
 70
  1
 62
  0
  0
VERTEX
  8
LAYER-1
  6
LTYPE01
 10
3.674538
 20
0.111938
 30
0.000000
  0
VERTEX
  8
LAYER-1
  6
LTYPE01
 10
3.708959
 20
0.111938
 30
0.000000
  0
VERTEX
  8
LAYER-1
  6
LTYPE01
 10
3.708959
 20
0.059785
 30
0.000000
  0
VERTEX
  8
LAYER-1
  6
LTYPE01
 10
3.674538
 20
0.059785
 30
0.000000
  0
SEQEND
  8
LAYER-1
  0
POLYLINE
  8
LAYER-1
  6
LTYPE02
 66
  1
 70
  0
 62
  0
  6
LTYPE02
 10
3.708959
 20
0.111938
 30
0.000000
  0
VERTEX
  8
LAYER-1
  6
LTYPE02
 10
3.708959
 20
0.111938
 30
0.000000
  0
VERTEX
  8
LAYER-1
  6
LTYPE02
 10
3.674538
 20
0.109070
 30
0.000000
  0
SEQEND
  8
LAYER-1
  0
POLYLINE
  8
LAYER-1
  6
LTYPE02
 66
  1
 70
  0
 62
  0
  6
LTYPE02
 10
3.708959
 20
0.110374
 30
0.000000
  0
VERTEX
  8
LAYER-1
  6
LTYPE02
 10
3.708959
 20
0.110374
 30
0.000000
  0
VERTEX
  8
LAYER-1
  6
LTYPE02
 10
3.674538
 20
0.107245
 30
0.000000
  0
SEQEND
  8
LAYER-1
  0
POLYLINE
  8
LAYER-1
  6
LTYPE02
 66
  1
 70
  0
 62
  0
  6
LTYPE02
 10
3.708959
 20
0.106984
 30
0.000000
  0
VERTEX
  8
LAYER-1
  6
LTYPE02
 10
3.708959
 20
0.106984
 30
0.000000
  0
VERTEX
  8
LAYER-1
  6
LTYPE02
 10
3.674538
 20
0.104114
 30
0.000000
  0
SEQEND
  8
LAYER-1
  0
POLYLINE
  8
LAYER-1
  6
LTYPE02
 66
  1
 70
  0
 62
  0
  6
LTYPE02
 10
3.708959
 20
0.105419
 30
0.000000
  0
VERTEX
  8
LAYER-1
  6
LTYPE02
 10
3.708959
 20
0.105419
 30
0.000000
  0
VERTEX
  8
LAYER-1
  6
LTYPE02
 10
3.674538
 20
0.102290
 30
0.000000
  0
SEQEND
  8
LAYER-1
  0
POLYLINE
  8
LAYER-1
  6
LTYPE02
 66
  1
 70
  0
 62
  0
  6
LTYPE02
 10
3.708959
 20
0.101835
 30
0.000000
  0
VERTEX
  8
LAYER-1
  6
LTYPE02
 10
3.708959
 20
0.101835
 30
0.000000
  0
VERTEX
  8
LAYER-1
  6
LTYPE02
 10
3.674538
 20
0.098965
 30
0.000000
  0
SEQEND
  8
LAYER-1
  0
POLYLINE
  8
LAYER-1
  6
LTYPE02
 66
  1
 70
  0
 62
  0
  6
LTYPE02
 10
3.708959
 20
0.100271
 30
0.000000
  0
VERTEX
  8
LAYER-1
  6
LTYPE02
 10
3.708959
 20
0.100271
 30
0.000000
  0
VERTEX
  8
LAYER-1
  6
LTYPE02
 10
3.674538
 20
0.097141
 30
0.000000
  0
SEQEND
  8
LAYER-1
  0
POLYLINE
  8
LAYER-1
  6
LTYPE02
 66
  1
 70
  0
 62
  0
  6
LTYPE02
 10
3.708895
 20
0.097335
 30
0.000000
  0
VERTEX
  8
LAYER-1
  6
LTYPE02
 10
3.708895
 20
0.097335
 30
0.000000
  0
VERTEX
  8
LAYER-1
  6
LTYPE02
 10
3.674472
 20
0.094468
 30
0.000000
  0
SEQEND
  8
LAYER-1
  0
POLYLINE
  8
LAYER-1
  6
LTYPE02
 66
  1
 70
  0
 62
  0
  6
LTYPE02
 10
3.708895
 20
0.095772
 30
0.000000
  0
VERTEX
  8
LAYER-1
  6
LTYPE02
 10
3.708895
 20
0.095772
 30
0.000000
  0
VERTEX
  8
LAYER-1
  6
LTYPE02
 10
3.674472
 20
0.092644
 30
0.000000
  0
SEQEND
  8
LAYER-1
  0
POLYLINE
  8
LAYER-1
  6
LTYPE02
 66
  1
 70
  0
 62
  0
  6
LTYPE02
 10
3.708895
 20
0.092513
 30
0.000000
  0
VERTEX
  8
LAYER-1
  6
LTYPE02
 10
3.708895
 20
0.092513
 30
0.000000
  0
VERTEX
  8
LAYER-1
  6
LTYPE02
 10
3.674472
 20
0.089645
 30
0.000000
  0
SEQEND
  8
LAYER-1
  0
POLYLINE
  8
LAYER-1
  6
LTYPE02
 66
  1
 70
  0
 62
  0
  6
LTYPE02
 10
3.708895
 20
0.090947
 30
0.000000
  0
VERTEX
  8
LAYER-1
  6
LTYPE02
 10
3.708895
 20
0.090947
 30
0.000000
  0
VERTEX
  8
LAYER-1
  6
LTYPE02
 10
3.674472
 20
0.087818
 30
0.000000
  0
SEQEND
  8
LAYER-1
  0
POLYLINE
  8
LAYER-1
  6
LTYPE02
 66
  1
 70
  0
 62
  0
  6
LTYPE02
 10
3.708895
 20
0.087556
 30
0.000000
  0
VERTEX
  8
LAYER-1
  6
LTYPE02
 10
3.708895
 20
0.087556
 30
0.000000
  0
VERTEX
  8
LAYER-1
  6
LTYPE02
 10
3.674472
 20
0.084688
 30
0.000000
  0
SEQEND
  8
LAYER-1
  0
POLYLINE
  8
LAYER-1
  6
LTYPE02
 66
  1
 70
  0
 62
  0
  6
LTYPE02
 10
3.708895
 20
0.085993
 30
0.000000
  0
VERTEX
  8
LAYER-1
  6
LTYPE02
 10
3.708895
 20
0.085993
 30
0.000000
  0
VERTEX
  8
LAYER-1
  6
LTYPE02
 10
3.674472
 20
0.082863
 30
0.000000
  0
SEQEND
  8
LAYER-1
  0
POLYLINE
  8
LAYER-1
  6
LTYPE02
 66
  1
 70
  0
 62
  0
  6
LTYPE02
 10
3.708895
 20
0.082407
 30
0.000000
  0
VERTEX
  8
LAYER-1
  6
LTYPE02
 10
3.708895
 20
0.082407
 30
0.000000
  0
VERTEX
  8
LAYER-1
  6
LTYPE02
 10
3.674472
 20
0.079538
 30
0.000000
  0
SEQEND
  8
LAYER-1
  0
POLYLINE
  8
LAYER-1
  6
LTYPE02
 66
  1
 70
  0
 62
  0
  6
LTYPE02
 10
3.708895
 20
0.080842
 30
0.000000
  0
VERTEX
  8
LAYER-1
  6
LTYPE02
 10
3.708895
 20
0.080842
 30
0.000000
  0
VERTEX
  8
LAYER-1
  6
LTYPE02
 10
3.674472
 20
0.077714
 30
0.000000
  0
SEQEND
  8
LAYER-1
  0
POLYLINE
  8
LAYER-1
  6
LTYPE02
 66
  1
 70
  0
 62
  0
  6
LTYPE02
 10
3.708829
 20
0.077908
 30
0.000000
  0
VERTEX
  8
LAYER-1
  6
LTYPE02
 10
3.708829
 20
0.077908
 30
0.000000
  0
VERTEX
  8
LAYER-1
  6
LTYPE02
 10
3.674408
 20
0.075040
 30
0.000000
  0
SEQEND
  8
LAYER-1
  0
POLYLINE
  8
LAYER-1
  6
LTYPE02
 66
  1
 70
  0
 62
  0
  6
LTYPE02
 10
3.708829
 20
0.076345
 30
0.000000
  0
VERTEX
  8
LAYER-1
  6
LTYPE02
 10
3.708829
 20
0.076345
 30
0.000000
  0
VERTEX
  8
LAYER-1
  6
LTYPE02
 10
3.674408
 20
0.073215
 30
0.000000
  0
SEQEND
  8
LAYER-1
  0
POLYLINE
  8
LAYER-1
  6
LTYPE02
 66
  1
 70
  0
 62
  0
  6
LTYPE02
 10
3.708959
 20
0.073541
 30
0.000000
  0
VERTEX
  8
LAYER-1
  6
LTYPE02
 10
3.708959
 20
0.073541
 30
0.000000
  0
VERTEX
  8
LAYER-1
  6
LTYPE02
 10
3.674538
 20
0.070673
 30
0.000000
  0
SEQEND
  8
LAYER-1
  0
POLYLINE
  8
LAYER-1
  6
LTYPE02
 66
  1
 70
  0
 62
  0
  6
LTYPE02
 10
3.708959
 20
0.071977
 30
0.000000
  0
VERTEX
  8
LAYER-1
  6
LTYPE02
 10
3.708959
 20
0.071977
 30
0.000000
  0
VERTEX
  8
LAYER-1
  6
LTYPE02
 10
3.674538
 20
0.068848
 30
0.000000
  0
SEQEND
  8
LAYER-1
  0
POLYLINE
  8
LAYER-1
  6
LTYPE02
 66
  1
 70
  0
 62
  0
  6
LTYPE02
 10
3.708959
 20
0.068587
 30
0.000000
  0
VERTEX
  8
LAYER-1
  6
LTYPE02
 10
3.708959
 20
0.068587
 30
0.000000
  0
VERTEX
  8
LAYER-1
  6
LTYPE02
 10
3.674538
 20
0.065719
 30
0.000000
  0
SEQEND
  8
LAYER-1
  0
POLYLINE
  8
LAYER-1
  6
LTYPE02
 66
  1
 70
  0
 62
  0
  6
LTYPE02
 10
3.708959
 20
0.067023
 30
0.000000
  0
VERTEX
  8
LAYER-1
  6
LTYPE02
 10
3.708959
 20
0.067023
 30
0.000000
  0
VERTEX
  8
LAYER-1
  6
LTYPE02
 10
3.674538
 20
0.063893
 30
0.000000
  0
SEQEND
  8
LAYER-1
  0
POLYLINE
  8
LAYER-1
  6
LTYPE02
 66
  1
 70
  0
 62
  0
  6
LTYPE02
 10
3.708959
 20
0.063436
 30
0.000000
  0
VERTEX
  8
LAYER-1
  6
LTYPE02
 10
3.708959
 20
0.063436
 30
0.000000
  0
VERTEX
  8
LAYER-1
  6
LTYPE02
 10
3.674538
 20
0.060567
 30
0.000000
  0
SEQEND
  8
LAYER-1
  0
POLYLINE
  8
LAYER-1
  6
LTYPE02
 66
  1
 70
  0
 62
  0
  6
LTYPE02
 10
3.708959
 20
0.061872
 30
0.000000
  0
VERTEX
  8
LAYER-1
  6
LTYPE02
 10
3.708959
 20
0.061872
 30
0.000000
  0
VERTEX
  8
LAYER-1
  6
LTYPE02
 10
3.685946
 20
0.059785
 30
0.000000
  0
SEQEND
  8
LAYER-1
  0
POLYLINE
  8
LAYER-1
  6
LTYPE02
 66
  1
 70
  0
 62
  0
  6
LTYPE02
 10
3.675529
 20
0.171149
 30
0.000000
  0
VERTEX
  8
LAYER-1
  6
LTYPE02
 10
3.675529
 20
0.171149
 30
0.000000
  0
VERTEX
  8
LAYER-1
  6
LTYPE02
 10
3.675529
 20
0.246770
 30
0.000000
  0
SEQEND
  8
LAYER-1
  0
POLYLINE
  8
LAYER-1
  6
LTYPE02
 66
  1
 70
  0
 62
  0
  6
LTYPE02
 10
3.707863
 20
0.171149
 30
0.000000
  0
VERTEX
  8
LAYER-1
  6
LTYPE02
 10
3.707863
 20
0.171149
 30
0.000000
  0
VERTEX
  8
LAYER-1
  6
LTYPE02
 10
3.707863
 20
0.246770
 30
0.000000
  0
SEQEND
  8
LAYER-1
  0
POLYLINE
  8
LAYER-1
  6
LTYPE01
 66
  1
 70
  0
 62
  0
  6
LTYPE01
 10
3.675529
 20
0.171149
 30
0.000000
  0
VERTEX
  8
LAYER-1
  6
LTYPE01
 10
3.675529
 20
0.171149
 30
0.000000
  0
VERTEX
  8
LAYER-1
  6
LTYPE01
 10
3.678295
 20
0.161685
 30
0.000000
  0
VERTEX
  8
LAYER-1
  6
LTYPE01
 10
3.689728
 20
0.156949
 30
0.000000
  0
VERTEX
  8
LAYER-1
  6
LTYPE01
 10
3.701160
 20
0.161685
 30
0.000000
  0
VERTEX
  8
LAYER-1
  6
LTYPE01
 10
3.707864
 20
0.171149
 30
0.000000
  0
SEQEND
  8
LAYER-1
  0
POLYLINE
  8
LAYER-1
 66
  1
 70
  0
 62
  0
 10
3.657796
 20
0.246770
 30
0.000000
  0
VERTEX
  8
LAYER-1
 10
3.657796
 20
0.246770
 30
0.000000
  0
VERTEX
  8
LAYER-1
 10
3.725596
 20
0.246770
 30
0.000000
  0
SEQEND
  8
LAYER-1
  0
TEXT
  8
LAYER-1
 62
  7
 10
1.958667
 20
8.846999
 30
0.000000
 40
0.187500
  1
âlÄvation modÅle Concept 99
 72
  5
 11
5.500334
 21
8.846999
 31
0.000000
  0
TEXT
  8
LAYER-1
 62
  0
 10
1.042000
 20
6.902555
 30
0.000000
 40
0.125000
  1
1-
 72
  5
 11
1.264222
 21
6.902555
 31
0.000000
  0
TEXT
  8
LAYER-1
 62
  0
 10
1.264222
 20
6.902555
 30
0.000000
 40
0.104167
  1
9/16
 72
  5
 11
1.625334
 21
6.902555
 31
0.000000
  0
TEXT
  8
LAYER-1
 62
  0
 10
1.625334
 20
6.902555
 30
0.000000
 40
0.125000
  1
"
 72
  5
 11
1.750334
 21
6.902555
 31
0.000000
  0
TEXT
  8
LAYER-1
 62
  0
 10
1.042000
 20
6.708110
 30
0.000000
 40
0.125000
  1
40mm
 72
  5
 11
1.611445
 21
6.708110
 31
0.000000
  0
TEXT
  8
LAYER-1
 62
  0
 10
2.264222
 20
7.971999
 30
0.000000
 40
0.125000
  1
Membre
 72
  5
 11
2.958667
 21
7.971999
 31
0.000000
  0
TEXT
  8
LAYER-1
 62
  0
 10
2.264222
 20
7.777555
 30
0.000000
 40
0.125000
  1
intermÄdiaire #3
 72
  5
 11
3.583667
 21
7.777555
 31
0.000000
  0
POLYLINE
  8
LAYER-1
 66
  1
 70
  0
 62
  0
 10
3.479500
 20
7.798388
 30
0.000000
  0
VERTEX
  8
LAYER-1
 10
3.479500
 20
7.798388
 30
0.000000
  0
VERTEX
  8
LAYER-1
 10
3.720577
 20
7.483293
 30
0.000000
  0
SEQEND
  8
LAYER-1
  0
POLYLINE
  8
LAYER-1
 66
  1
 70
  1
 62
  0
  0
VERTEX
  8
LAYER-1
 10
3.732538
 20
7.467659
 30
0.000000
  0
VERTEX
  8
LAYER-1
 10
3.657248
 20
7.497494
 30
0.000000
  0
VERTEX
  8
LAYER-1
 10
3.690340
 20
7.522812
 30
0.000000
  0
VERTEX
  8
LAYER-1
 10
3.723432
 20
7.548131
 30
0.000000
  0
VERTEX
  8
LAYER-1
 10
3.732538
 20
7.467659
 30
0.000000
  0
SEQEND
  8
LAYER-1
  0
LINE
  8
LAYER-1
 62
  0
 10
5.837137
 20
5.546482
 30
0.000000
 11
5.837137
 21
6.162857
 31
0.000000
  0
LINE
  8
LAYER-1
 62
  0
 10
5.752939
 20
5.546482
 30
0.000000
 11
5.962137
 21
5.546482
 31
0.000000
  0
LINE
  8
LAYER-1
 62
  0
 10
5.752836
 20
6.162857
 30
0.000000
 11
5.962137
 21
6.162857
 31
0.000000
  0
LINE
  8
LAYER-1
 62
  0
 10
5.837137
 20
6.055333
 30
0.000000
 11
5.837137
 21
5.546482
 31
0.000000
  0
LINE
  8
LAYER-1
 62
  0
 10
5.807674
 20
5.575945
 30
0.000000
 11
5.866600
 21
5.517018
 31
0.000000
  0
LINE
  8
LAYER-1
 62
  0
 10
5.807674
 20
6.192320
 30
0.000000
 11
5.866600
 21
6.133394
 31
0.000000
  0
TEXT
  8
LAYER-1
 62
  0
 10
5.995164
 20
5.811486
 30
0.000000
 40
0.125000
  1
     
 50
90.000000
  0
TEXT
  8
LAYER-1
 62
  0
 10
1.055889
 20
7.124777
 30
0.000000
 40
0.125000
  1
Rail
 72
  5
 11
1.430889
 21
7.124777
 31
0.000000
  0
POLYLINE
  8
LAYER-1
 66
  1
 70
  1
 62
  0
  0
VERTEX
  8
LAYER-1
 10
3.817180
 20
7.196307
 30
0.000000
  0
VERTEX
  8
LAYER-1
 10
3.853131
 20
7.196307
 30
0.000000
  0
VERTEX
  8
LAYER-1
 10
3.853131
 20
0.612622
 30
0.000000
  0
VERTEX
  8
LAYER-1
 10
3.817180
 20
0.612622
 30
0.000000
  0
SEQEND
  8
LAYER-1
  0
POLYLINE
  8
LAYER-1
 66
  1
 70
  1
 62
  0
  0
VERTEX
  8
LAYER-1
 10
4.225444
 20
7.196307
 30
0.000000
  0
VERTEX
  8
LAYER-1
 10
4.261395
 20
7.196307
 30
0.000000
  0
VERTEX
  8
LAYER-1
 10
4.261395
 20
0.612622
 30
0.000000
  0
VERTEX
  8
LAYER-1
 10
4.225444
 20
0.612622
 30
0.000000
  0
SEQEND
  8
LAYER-1
  0
POLYLINE
  8
LAYER-1
 66
  1
 70
  1
 62
  0
  0
VERTEX
  8
LAYER-1
 10
4.631972
 20
7.196307
 30
0.000000
  0
VERTEX
  8
LAYER-1
 10
4.667923
 20
7.196307
 30
0.000000
  0
VERTEX
  8
LAYER-1
 10
4.667923
 20
0.612622
 30
0.000000
  0
VERTEX
  8
LAYER-1
 10
4.631972
 20
0.612622
 30
0.000000
  0
SEQEND
  8
LAYER-1
  0
POLYLINE
  8
LAYER-1
 66
  1
 70
  1
 62
  0
  0
VERTEX
  8
LAYER-1
 10
5.040237
 20
7.196307
 30
0.000000
  0
VERTEX
  8
LAYER-1
 10
5.076188
 20
7.196307
 30
0.000000
  0
VERTEX
  8
LAYER-1
 10
5.076188
 20
0.612622
 30
0.000000
  0
VERTEX
  8
LAYER-1
 10
5.040237
 20
0.612622
 30
0.000000
  0
SEQEND
  8
LAYER-1
  0
POLYLINE
  8
LAYER-1
 66
  1
 70
  1
 62
  0
  0
VERTEX
  8
LAYER-1
 10
5.449803
 20
7.196307
 30
0.000000
  0
VERTEX
  8
LAYER-1
 10
5.485753
 20
7.196307
 30
0.000000
  0
VERTEX
  8
LAYER-1
 10
5.485753
 20
0.612622
 30
0.000000
  0
VERTEX
  8
LAYER-1
 10
5.449803
 20
0.612622
 30
0.000000
  0
SEQEND
  8
LAYER-1
  0
POLYLINE
  8
LAYER-1
 66
  1
 70
  1
 62
  0
 10
3.814614
 20
0.341817
 30
0.000000
  0
VERTEX
  8
LAYER-1
 10
3.814614
 20
0.341817
 30
0.000000
  0
VERTEX
  8
LAYER-1
 10
5.710531
 20
0.341919
 30
0.000000
  0
VERTEX
  8
LAYER-1
 10
5.710531
 20
0.613452
 30
0.000000
  0
VERTEX
  8
LAYER-1
 10
3.814614
 20
0.613569
 30
0.000000
  0
SEQEND
  8
LAYER-1
  0
POLYLINE
  8
LAYER-1
 66
  1
 70
  0
 62
  0
 10
3.814395
 20
0.409725
 30
0.000000
  0
VERTEX
  8
LAYER-1
 10
3.814395
 20
0.409725
 30
0.000000
  0
VERTEX
  8
LAYER-1
 10
3.854121
 20
0.409725
 30
0.000000
  0
SEQEND
  8
LAYER-1
  0
POLYLINE
  8
LAYER-1
 66
  1
 70
  0
 62
  0
 10
3.814395
 20
0.539635
 30
0.000000
  0
VERTEX
  8
LAYER-1
 10
3.814395
 20
0.539635
 30
0.000000
  0
VERTEX
  8
LAYER-1
 10
3.854121
 20
0.539635
 30
0.000000
  0
SEQEND
  8
LAYER-1
  0
POLYLINE
  8
LAYER-1
 66
  1
 70
  0
 62
  0
 10
3.815847
 20
0.336671
 30
0.000000
  0
VERTEX
  8
LAYER-1
 10
3.815847
 20
0.336671
 30
0.000000
  0
VERTEX
  8
LAYER-1
 10
3.829018
 20
0.329626
 30
0.000000
  0
VERTEX
  8
LAYER-1
 10
3.846097
 20
0.333957
 30
0.000000
  0
VERTEX
  8
LAYER-1
 10
3.852750
 20
0.336672
 30
0.000000
  0
SEQEND
  8
LAYER-1
  0
POLYLINE
  8
LAYER-1
 66
  1
 70
  1
 62
  0
  0
VERTEX
  8
LAYER-1
 10
3.863259
 20
0.336050
 30
0.000000
  0
VERTEX
  8
LAYER-1
 10
3.808644
 20
0.336050
 30
0.000000
  0
VERTEX
  8
LAYER-1
 10
3.808644
 20
0.341955
 30
0.000000
  0
VERTEX
  8
LAYER-1
 10
3.863259
 20
0.341955
 30
0.000000
  0
SEQEND
  8
LAYER-1
  0
POLYLINE
  8
LAYER-1
 66
  1
 70
  1
 62
  0
 10
3.814820
 20
7.467938
 30
0.000000
  0
VERTEX
  8
LAYER-1
 10
3.814820
 20
7.467938
 30
0.000000
  0
VERTEX
  8
LAYER-1
 10
5.711172
 20
7.467838
 30
0.000000
  0
VERTEX
  8
LAYER-1
 10
5.711172
 20
7.196304
 30
0.000000
  0
VERTEX
  8
LAYER-1
 10
3.814820
 20
7.196187
 30
0.000000
  0
SEQEND
  8
LAYER-1
  0
POLYLINE
  8
LAYER-1
 66
  1
 70
  0
 62
  0
 10
4.076110
 20
7.467938
 30
0.000000
  0
VERTEX
  8
LAYER-1
 10
4.076110
 20
7.467938
 30
0.000000
  0
VERTEX
  8
LAYER-1
 10
4.076110
 20
7.196306
 30
0.000000
  0
SEQEND
  8
LAYER-1
  0
POLYLINE
  8
LAYER-1
 66
  1
 70
  0
 62
  0
 10
4.406606
 20
7.196306
 30
0.000000
  0
VERTEX
  8
LAYER-1
 10
4.406606
 20
7.196306
 30
0.000000
  0
VERTEX
  8
LAYER-1
 10
4.406606
 20
7.467938
 30
0.000000
  0
SEQEND
  8
LAYER-1
  0
POLYLINE
  8
LAYER-1
 66
  1
 70
  0
 62
  0
 10
5.219438
 20
7.196306
 30
0.000000
  0
VERTEX
  8
LAYER-1
 10
5.219438
 20
7.196306
 30
0.000000
  0
VERTEX
  8
LAYER-1
 10
5.219438
 20
7.467938
 30
0.000000
  0
SEQEND
  8
LAYER-1
  0
POLYLINE
  8
LAYER-1
 66
  1
 70
  0
 62
  0
 10
5.038270
 20
7.467977
 30
0.000000
  0
VERTEX
  8
LAYER-1
 10
5.038270
 20
7.467977
 30
0.000000
  0
VERTEX
  8
LAYER-1
 10
5.038270
 20
7.196348
 30
0.000000
  0
SEQEND
  8
LAYER-1
  0
POLYLINE
  8
LAYER-1
 66
  1
 70
  0
 62
  0
 10
5.078129
 20
7.467977
 30
0.000000
  0
VERTEX
  8
LAYER-1
 10
5.078129
 20
7.467977
 30
0.000000
  0
VERTEX
  8
LAYER-1
 10
5.078129
 20
7.196348
 30
0.000000
  0
SEQEND
  8
LAYER-1
  0
POLYLINE
  8
LAYER-1
 66
  1
 70
  0
 62
  0
 10
4.224252
 20
7.467977
 30
0.000000
  0
VERTEX
  8
LAYER-1
 10
4.224252
 20
7.467977
 30
0.000000
  0
VERTEX
  8
LAYER-1
 10
4.224252
 20
7.196348
 30
0.000000
  0
SEQEND
  8
LAYER-1
  0
POLYLINE
  8
LAYER-1
 66
  1
 70
  0
 62
  0
 10
4.263069
 20
7.467977
 30
0.000000
  0
VERTEX
  8
LAYER-1
 10
4.263069
 20
7.467977
 30
0.000000
  0
VERTEX
  8
LAYER-1
 10
4.263069
 20
7.196348
 30
0.000000
  0
SEQEND
  8
LAYER-1
  0
POLYLINE
  8
LAYER-1
 66
  1
 70
  0
 62
  0
 10
4.490928
 20
7.467938
 30
0.000000
  0
VERTEX
  8
LAYER-1
 10
4.490928
 20
7.467938
 30
0.000000
  0
VERTEX
  8
LAYER-1
 10
4.490928
 20
7.196306
 30
0.000000
  0
SEQEND
  8
LAYER-1
  0
POLYLINE
  8
LAYER-1
 66
  1
 70
  0
 62
  0
 10
5.303760
 20
7.467938
 30
0.000000
  0
VERTEX
  8
LAYER-1
 10
5.303760
 20
7.467938
 30
0.000000
  0
VERTEX
  8
LAYER-1
 10
5.303760
 20
7.196306
 30
0.000000
  0
SEQEND
  8
LAYER-1
  0
POLYLINE
  8
LAYER-1
 66
  1
 70
  0
 62
  0
 10
5.448664
 20
7.467543
 30
0.000000
  0
VERTEX
  8
LAYER-1
 10
5.448664
 20
7.467543
 30
0.000000
  0
VERTEX
  8
LAYER-1
 10
5.448664
 20
7.195914
 30
0.000000
  0
SEQEND
  8
LAYER-1
  0
POLYLINE
  8
LAYER-1
 66
  1
 70
  0
 62
  0
 10
5.487047
 20
7.467543
 30
0.000000
  0
VERTEX
  8
LAYER-1
 10
5.487047
 20
7.467543
 30
0.000000
  0
VERTEX
  8
LAYER-1
 10
5.487047
 20
7.195914
 30
0.000000
  0
SEQEND
  8
LAYER-1
  0
POLYLINE
  8
LAYER-1
 66
  1
 70
  0
 62
  0
 10
4.630826
 20
7.468012
 30
0.000000
  0
VERTEX
  8
LAYER-1
 10
4.630826
 20
7.468012
 30
0.000000
  0
VERTEX
  8
LAYER-1
 10
4.630826
 20
7.196384
 30
0.000000
  0
SEQEND
  8
LAYER-1
  0
POLYLINE
  8
LAYER-1
 66
  1
 70
  0
 62
  0
 10
4.669209
 20
7.468012
 30
0.000000
  0
VERTEX
  8
LAYER-1
 10
4.669209
 20
7.468012
 30
0.000000
  0
VERTEX
  8
LAYER-1
 10
4.669209
 20
7.196384
 30
0.000000
  0
SEQEND
  8
LAYER-1
  0
POLYLINE
  8
LAYER-1
 66
  1
 70
  0
 62
  0
 10
4.003777
 20
7.196309
 30
0.000000
  0
VERTEX
  8
LAYER-1
 10
4.003777
 20
7.196309
 30
0.000000
  0
VERTEX
  8
LAYER-1
 10
4.003777
 20
7.467938
 30
0.000000
  0
SEQEND
  8
LAYER-1
  0
POLYLINE
  8
LAYER-1
 66
  1
 70
  0
 62
  0
 10
4.039206
 20
7.467938
 30
0.000000
  0
VERTEX
  8
LAYER-1
 10
4.039206
 20
7.467938
 30
0.000000
  0
VERTEX
  8
LAYER-1
 10
4.039206
 20
7.196308
 30
0.000000
  0
SEQEND
  8
LAYER-1
  0
POLYLINE
  8
LAYER-1
 66
  1
 70
  0
 62
  0
 10
4.038236
 20
7.467950
 30
0.000000
  0
VERTEX
  8
LAYER-1
 10
4.038236
 20
7.467950
 30
0.000000
  0
VERTEX
  8
LAYER-1
 10
4.024353
 20
7.478880
 30
0.000000
  0
VERTEX
  8
LAYER-1
 10
4.009591
 20
7.476791
 30
0.000000
  0
VERTEX
  8
LAYER-1
 10
4.004680
 20
7.467939
 30
0.000000
  0
SEQEND
  8
LAYER-1
  0
POLYLINE
  8
LAYER-1
 66
  1
 70
  0
 62
  0
 10
4.076108
 20
7.467938
 30
0.000000
  0
VERTEX
  8
LAYER-1
 10
4.076108
 20
7.467938
 30
0.000000
  0
VERTEX
  8
LAYER-1
 10
4.059002
 20
7.478922
 30
0.000000
  0
VERTEX
  8
LAYER-1
 10
4.041921
 20
7.474591
 30
0.000000
  0
VERTEX
  8
LAYER-1
 10
4.039206
 20
7.467939
 30
0.000000
  0
SEQEND
  8
LAYER-1
  0
POLYLINE
  8
LAYER-1
 66
  1
 70
  0
 62
  0
 10
4.491668
 20
7.467445
 30
0.000000
  0
VERTEX
  8
LAYER-1
 10
4.491668
 20
7.467445
 30
0.000000
  0
VERTEX
  8
LAYER-1
 10
4.472164
 20
7.477437
 30
0.000000
  0
VERTEX
  8
LAYER-1
 10
4.454090
 20
7.470712
 30
0.000000
  0
VERTEX
  8
LAYER-1
 10
4.454761
 20
7.467445
 30
0.000000
  0
SEQEND
  8
LAYER-1
  0
POLYLINE
  8
LAYER-1
 66
  1
 70
  0
 62
  0
 10
5.304626
 20
7.467914
 30
0.000000
  0
VERTEX
  8
LAYER-1
 10
5.304626
 20
7.467914
 30
0.000000
  0
VERTEX
  8
LAYER-1
 10
5.285122
 20
7.477907
 30
0.000000
  0
VERTEX
  8
LAYER-1
 10
5.267048
 20
7.471181
 30
0.000000
  0
VERTEX
  8
LAYER-1
 10
5.267718
 20
7.467915
 30
0.000000
  0
SEQEND
  8
LAYER-1
  0
POLYLINE
  8
LAYER-1
 66
  1
 70
  0
 62
  0
 10
4.443959
 20
7.467445
 30
0.000000
  0
VERTEX
  8
LAYER-1
 10
4.443959
 20
7.467445
 30
0.000000
  0
VERTEX
  8
LAYER-1
 10
4.424455
 20
7.477437
 30
0.000000
  0
VERTEX
  8
LAYER-1
 10
4.406381
 20
7.470712
 30
0.000000
  0
VERTEX
  8
LAYER-1
 10
4.407051
 20
7.467445
 30
0.000000
  0
SEQEND
  8
LAYER-1
  0
POLYLINE
  8
LAYER-1
 66
  1
 70
  0
 62
  0
 10
4.464422
 20
7.468004
 30
0.000000
  0
VERTEX
  8
LAYER-1
 10
4.464422
 20
7.468004
 30
0.000000
  0
VERTEX
  8
LAYER-1
 10
4.453670
 20
7.481010
 30
0.000000
  0
VERTEX
  8
LAYER-1
 10
4.439655
 20
7.482603
 30
0.000000
  0
VERTEX
  8
LAYER-1
 10
4.428618
 20
7.473819
 30
0.000000
  0
VERTEX
  8
LAYER-1
 10
4.428993
 20
7.468004
 30
0.000000
  0
SEQEND
  8
LAYER-1
  0
POLYLINE
  8
LAYER-1
 66
  1
 70
  0
 62
  0
 10
4.428994
 20
7.468004
 30
0.000000
  0
VERTEX
  8
LAYER-1
 10
4.428994
 20
7.468004
 30
0.000000
  0
VERTEX
  8
LAYER-1
 10
4.464422
 20
7.468004
 30
0.000000
  0
SEQEND
  8
LAYER-1
  0
POLYLINE
  8
LAYER-1
 66
  1
 70
  0
 62
  0
 10
5.255976
 20
7.467914
 30
0.000000
  0
VERTEX
  8
LAYER-1
 10
5.255976
 20
7.467914
 30
0.000000
  0
VERTEX
  8
LAYER-1
 10
5.236471
 20
7.477907
 30
0.000000
  0
VERTEX
  8
LAYER-1
 10
5.218398
 20
7.471181
 30
0.000000
  0
VERTEX
  8
LAYER-1
 10
5.219068
 20
7.467915
 30
0.000000
  0
SEQEND
  8
LAYER-1
  0
POLYLINE
  8
LAYER-1
 66
  1
 70
  0
 62
  0
 10
5.280670
 20
7.468004
 30
0.000000
  0
VERTEX
  8
LAYER-1
 10
5.280670
 20
7.468004
 30
0.000000
  0
VERTEX
  8
LAYER-1
 10
5.269917
 20
7.481010
 30
0.000000
  0
VERTEX
  8
LAYER-1
 10
5.255902
 20
7.482603
 30
0.000000
  0
VERTEX
  8
LAYER-1
 10
5.244865
 20
7.473819
 30
0.000000
  0
VERTEX
  8
LAYER-1
 10
5.245241
 20
7.468004
 30
0.000000
  0
SEQEND
  8
LAYER-1
  0
POLYLINE
  8
LAYER-1
 66
  1
 70
  0
 62
  0
 10
5.245241
 20
7.468004
 30
0.000000
  0
VERTEX
  8
LAYER-1
 10
5.245241
 20
7.468004
 30
0.000000
  0
VERTEX
  8
LAYER-1
 10
5.280669
 20
7.468004
 30
0.000000
  0
SEQEND
  8
LAYER-1
  0
POLYLINE
  8
LAYER-1
 66
  1
 70
  0
 62
  0
 10
4.004710
 20
7.196282
 30
0.000000
  0
VERTEX
  8
LAYER-1
 10
4.004710
 20
7.196282
 30
0.000000
  0
VERTEX
  8
LAYER-1
 10
4.014650
 20
7.189282
 30
0.000000
  0
VERTEX
  8
LAYER-1
 10
4.029413
 20
7.191360
 30
0.000000
  0
VERTEX
  8
LAYER-1
 10
4.037929
 20
7.195722
 30
0.000000
  0
SEQEND
  8
LAYER-1
  0
POLYLINE
  8
LAYER-1
 66
  1
 70
  0
 62
  0
 10
4.037929
 20
7.195722
 30
0.000000
  0
VERTEX
  8
LAYER-1
 10
4.037929
 20
7.195722
 30
0.000000
  0
VERTEX
  8
LAYER-1
 10
4.004710
 20
7.196282
 30
0.000000
  0
SEQEND
  8
LAYER-1
  0
POLYLINE
  8
LAYER-1
 66
  1
 70
  0
 62
  0
 10
4.040138
 20
7.196282
 30
0.000000
  0
VERTEX
  8
LAYER-1
 10
4.040138
 20
7.196282
 30
0.000000
  0
VERTEX
  8
LAYER-1
 10
4.053310
 20
7.189236
 30
0.000000
  0
VERTEX
  8
LAYER-1
 10
4.070390
 20
7.193568
 30
0.000000
  0
VERTEX
  8
LAYER-1
 10
4.077042
 20
7.196283
 30
0.000000
  0
SEQEND
  8
LAYER-1
  0
POLYLINE
  8
LAYER-1
 66
  1
 70
  0
 62
  0
 10
4.077041
 20
7.196283
 30
0.000000
  0
VERTEX
  8
LAYER-1
 10
4.077041
 20
7.196283
 30
0.000000
  0
VERTEX
  8
LAYER-1
 10
4.040139
 20
7.196282
 30
0.000000
  0
SEQEND
  8
LAYER-1
  0
POLYLINE
  8
LAYER-1
 66
  1
 70
  0
 62
  0
 10
4.406977
 20
7.195836
 30
0.000000
  0
VERTEX
  8
LAYER-1
 10
4.406977
 20
7.195836
 30
0.000000
  0
VERTEX
  8
LAYER-1
 10
4.422544
 20
7.189781
 30
0.000000
  0
VERTEX
  8
LAYER-1
 10
4.440618
 20
7.196507
 30
0.000000
  0
VERTEX
  8
LAYER-1
 10
4.443885
 20
7.195836
 30
0.000000
  0
SEQEND
  8
LAYER-1
  0
POLYLINE
  8
LAYER-1
 66
  1
 70
  0
 62
  0
 10
4.454217
 20
7.195836
 30
0.000000
  0
VERTEX
  8
LAYER-1
 10
4.454217
 20
7.195836
 30
0.000000
  0
VERTEX
  8
LAYER-1
 10
4.469785
 20
7.189781
 30
0.000000
  0
VERTEX
  8
LAYER-1
 10
4.487858
 20
7.196507
 30
0.000000
  0
VERTEX
  8
LAYER-1
 10
4.491125
 20
7.195836
 30
0.000000
  0
SEQEND
  8
LAYER-1
  0
POLYLINE
  8
LAYER-1
 66
  1
 70
  0
 62
  0
 10
4.428451
 20
7.195747
 30
0.000000
  0
VERTEX
  8
LAYER-1
 10
4.428451
 20
7.195747
 30
0.000000
  0
VERTEX
  8
LAYER-1
 10
4.435266
 20
7.186679
 30
0.000000
  0
VERTEX
  8
LAYER-1
 10
4.449281
 20
7.185086
 30
0.000000
  0
VERTEX
  8
LAYER-1
 10
4.460317
 20
7.193868
 30
0.000000
  0
VERTEX
  8
LAYER-1
 10
4.463880
 20
7.195747
 30
0.000000
  0
SEQEND
  8
LAYER-1
  0
POLYLINE
  8
LAYER-1
 66
  1
 70
  0
 62
  0
 10
4.428451
 20
7.195747
 30
0.000000
  0
VERTEX
  8
LAYER-1
 10
4.428451
 20
7.195747
 30
0.000000
  0
VERTEX
  8
LAYER-1
 10
4.463880
 20
7.195747
 30
0.000000
  0
SEQEND
  8
LAYER-1
  0
POLYLINE
  8
LAYER-1
 66
  1
 70
  0
 62
  0
 10
5.219532
 20
7.195836
 30
0.000000
  0
VERTEX
  8
LAYER-1
 10
5.219532
 20
7.195836
 30
0.000000
  0
VERTEX
  8
LAYER-1
 10
5.235099
 20
7.189781
 30
0.000000
  0
VERTEX
  8
LAYER-1
 10
5.253173
 20
7.196507
 30
0.000000
  0
VERTEX
  8
LAYER-1
 10
5.256440
 20
7.195836
 30
0.000000
  0
SEQEND
  8
LAYER-1
  0
POLYLINE
  8
LAYER-1
 66
  1
 70
  0
 62
  0
 10
5.267711
 20
7.195836
 30
0.000000
  0
VERTEX
  8
LAYER-1
 10
5.267711
 20
7.195836
 30
0.000000
  0
VERTEX
  8
LAYER-1
 10
5.283279
 20
7.189781
 30
0.000000
  0
VERTEX
  8
LAYER-1
 10
5.301352
 20
7.196507
 30
0.000000
  0
VERTEX
  8
LAYER-1
 10
5.304619
 20
7.195836
 30
0.000000
  0
SEQEND
  8
LAYER-1
  0
POLYLINE
  8
LAYER-1
 66
  1
 70
  0
 62
  0
 10
5.245234
 20
7.195747
 30
0.000000
  0
VERTEX
  8
LAYER-1
 10
5.245234
 20
7.195747
 30
0.000000
  0
VERTEX
  8
LAYER-1
 10
5.252049
 20
7.186679
 30
0.000000
  0
VERTEX
  8
LAYER-1
 10
5.266065
 20
7.185086
 30
0.000000
  0
VERTEX
  8
LAYER-1
 10
5.277101
 20
7.193868
 30
0.000000
  0
VERTEX
  8
LAYER-1
 10
5.280663
 20
7.195747
 30
0.000000
  0
SEQEND
  8
LAYER-1
  0
POLYLINE
  8
LAYER-1
 66
  1
 70
  0
 62
  0
 10
5.245235
 20
7.195747
 30
0.000000
  0
VERTEX
  8
LAYER-1
 10
5.245235
 20
7.195747
 30
0.000000
  0
VERTEX
  8
LAYER-1
 10
5.280663
 20
7.195747
 30
0.000000
  0
SEQEND
  8
LAYER-1
  0
POLYLINE
  8
LAYER-1
 66
  1
 70
  1
 62
  0
  0
VERTEX
  8
LAYER-1
 10
4.428994
 20
7.467938
 30
0.000000
  0
VERTEX
  8
LAYER-1
 10
4.464424
 20
7.467938
 30
0.000000
  0
VERTEX
  8
LAYER-1
 10
4.464424
 20
7.196309
 30
0.000000
  0
VERTEX
  8
LAYER-1
 10
4.428994
 20
7.196309
 30
0.000000
  0
SEQEND
  8
LAYER-1
  0
POLYLINE
  8
LAYER-1
 66
  1
 70
  1
 62
  0
  0
VERTEX
  8
LAYER-1
 10
5.245307
 20
7.467938
 30
0.000000
  0
VERTEX
  8
LAYER-1
 10
5.280737
 20
7.467938
 30
0.000000
  0
VERTEX
  8
LAYER-1
 10
5.280737
 20
7.196309
 30
0.000000
  0
VERTEX
  8
LAYER-1
 10
5.245307
 20
7.196309
 30
0.000000
  0
SEQEND
  8
LAYER-1
  0
POLYLINE
  8
LAYER-1
 66
  1
 70
  0
 62
  0
 10
4.428994
 20
7.400030
 30
0.000000
  0
VERTEX
  8
LAYER-1
 10
4.428994
 20
7.400030
 30
0.000000
  0
VERTEX
  8
LAYER-1
 10
4.464424
 20
7.400030
 30
0.000000
  0
SEQEND
  8
LAYER-1
  0
POLYLINE
  8
LAYER-1
 66
  1
 70
  0
 62
  0
 10
4.428994
 20
7.270121
 30
0.000000
  0
VERTEX
  8
LAYER-1
 10
4.428994
 20
7.270121
 30
0.000000
  0
VERTEX
  8
LAYER-1
 10
4.464424
 20
7.270121
 30
0.000000
  0
SEQEND
  8
LAYER-1
  0
POLYLINE
  8
LAYER-1
 66
  1
 70
  0
 62
  0
 10
5.245307
 20
7.400030
 30
0.000000
  0
VERTEX
  8
LAYER-1
 10
5.245307
 20
7.400030
 30
0.000000
  0
VERTEX
  8
LAYER-1
 10
5.280736
 20
7.400030
 30
0.000000
  0
SEQEND
  8
LAYER-1
  0
POLYLINE
  8
LAYER-1
 66
  1
 70
  0
 62
  0
 10
5.245307
 20
7.270121
 30
0.000000
  0
VERTEX
  8
LAYER-1
 10
5.245307
 20
7.270121
 30
0.000000
  0
VERTEX
  8
LAYER-1
 10
5.280736
 20
7.270121
 30
0.000000
  0
SEQEND
  8
LAYER-1
  0
POLYLINE
  8
LAYER-1
 66
  1
 70
  0
 62
  0
 10
4.259881
 20
7.468055
 30
0.000000
  0
VERTEX
  8
LAYER-1
 10
4.259881
 20
7.468055
 30
0.000000
  0
VERTEX
  8
LAYER-1
 10
4.245708
 20
7.478586
 30
0.000000
  0
VERTEX
  8
LAYER-1
 10
4.231024
 20
7.476011
 30
0.000000
  0
VERTEX
  8
LAYER-1
 10
4.226662
 20
7.467495
 30
0.000000
  0
SEQEND
  8
LAYER-1
  0
POLYLINE
  8
LAYER-1
 66
  1
 70
  0
 62
  0
 10
5.077059
 20
7.467876
 30
0.000000
  0
VERTEX
  8
LAYER-1
 10
5.077059
 20
7.467876
 30
0.000000
  0
VERTEX
  8
LAYER-1
 10
5.059951
 20
7.478860
 30
0.000000
  0
VERTEX
  8
LAYER-1
 10
5.042871
 20
7.474529
 30
0.000000
  0
VERTEX
  8
LAYER-1
 10
5.040156
 20
7.467877
 30
0.000000
  0
SEQEND
  8
LAYER-1
  0
POLYLINE
  8
LAYER-1
 66
  1
 70
  0
 62
  0
 10
4.819740
 20
7.196280
 30
0.000000
  0
VERTEX
  8
LAYER-1
 10
4.819740
 20
7.196280
 30
0.000000
  0
VERTEX
  8
LAYER-1
 10
4.829680
 20
7.189279
 30
0.000000
  0
VERTEX
  8
LAYER-1
 10
4.844443
 20
7.191357
 30
0.000000
  0
VERTEX
  8
LAYER-1
 10
4.852960
 20
7.195719
 30
0.000000
  0
SEQEND
  8
LAYER-1
  0
POLYLINE
  8
LAYER-1
 66
  1
 70
  0
 62
  0
 10
4.852960
 20
7.195719
 30
0.000000
  0
VERTEX
  8
LAYER-1
 10
4.852960
 20
7.195719
 30
0.000000
  0
VERTEX
  8
LAYER-1
 10
4.819740
 20
7.196280
 30
0.000000
  0
SEQEND
  8
LAYER-1
  0
POLYLINE
  8
LAYER-1
 66
  1
 70
  0
 62
  0
 10
4.855169
 20
7.196280
 30
0.000000
  0
VERTEX
  8
LAYER-1
 10
4.855169
 20
7.196280
 30
0.000000
  0
VERTEX
  8
LAYER-1
 10
4.868340
 20
7.189234
 30
0.000000
  0
VERTEX
  8
LAYER-1
 10
4.885420
 20
7.193565
 30
0.000000
  0
VERTEX
  8
LAYER-1
 10
4.892072
 20
7.196281
 30
0.000000
  0
SEQEND
  8
LAYER-1
  0
POLYLINE
  8
LAYER-1
 66
  1
 70
  0
 62
  0
 10
4.892072
 20
7.196281
 30
0.000000
  0
VERTEX
  8
LAYER-1
 10
4.892072
 20
7.196281
 30
0.000000
  0
VERTEX
  8
LAYER-1
 10
4.855170
 20
7.196280
 30
0.000000
  0
SEQEND
  8
LAYER-1
  0
POLYLINE
  8
LAYER-1
 66
  1
 70
  0
 62
  0
 10
4.890901
 20
7.467938
 30
0.000000
  0
VERTEX
  8
LAYER-1
 10
4.890901
 20
7.467938
 30
0.000000
  0
VERTEX
  8
LAYER-1
 10
4.890901
 20
7.196306
 30
0.000000
  0
SEQEND
  8
LAYER-1
  0
POLYLINE
  8
LAYER-1
 66
  1
 70
  0
 62
  0
 10
4.818567
 20
7.196309
 30
0.000000
  0
VERTEX
  8
LAYER-1
 10
4.818567
 20
7.196309
 30
0.000000
  0
VERTEX
  8
LAYER-1
 10
4.818567
 20
7.467938
 30
0.000000
  0
SEQEND
  8
LAYER-1
  0
POLYLINE
  8
LAYER-1
 66
  1
 70
  0
 62
  0
 10
4.853997
 20
7.467938
 30
0.000000
  0
VERTEX
  8
LAYER-1
 10
4.853997
 20
7.467938
 30
0.000000
  0
VERTEX
  8
LAYER-1
 10
4.853997
 20
7.196308
 30
0.000000
  0
SEQEND
  8
LAYER-1
  0
POLYLINE
  8
LAYER-1
 66
  1
 70
  0
 62
  0
 10
4.852091
 20
7.468357
 30
0.000000
  0
VERTEX
  8
LAYER-1
 10
4.852091
 20
7.468357
 30
0.000000
  0
VERTEX
  8
LAYER-1
 10
4.837919
 20
7.478889
 30
0.000000
  0
VERTEX
  8
LAYER-1
 10
4.823234
 20
7.476313
 30
0.000000
  0
VERTEX
  8
LAYER-1
 10
4.818872
 20
7.467797
 30
0.000000
  0
SEQEND
  8
LAYER-1
  0
POLYLINE
  8
LAYER-1
 66
  1
 70
  0
 62
  0
 10
4.852091
 20
7.468357
 30
0.000000
  0
VERTEX
  8
LAYER-1
 10
4.852091
 20
7.468357
 30
0.000000
  0
VERTEX
  8
LAYER-1
 10
4.818872
 20
7.467797
 30
0.000000
  0
SEQEND
  8
LAYER-1
  0
POLYLINE
  8
LAYER-1
 66
  1
 70
  0
 62
  0
 10
4.891204
 20
7.467795
 30
0.000000
  0
VERTEX
  8
LAYER-1
 10
4.891204
 20
7.467795
 30
0.000000
  0
VERTEX
  8
LAYER-1
 10
4.874095
 20
7.478780
 30
0.000000
  0
VERTEX
  8
LAYER-1
 10
4.857015
 20
7.474449
 30
0.000000
  0
VERTEX
  8
LAYER-1
 10
4.854300
 20
7.467797
 30
0.000000
  0
SEQEND
  8
LAYER-1
  0
POLYLINE
  8
LAYER-1
 66
  1
 70
  0
 62
  0
 10
4.891204
 20
7.467795
 30
0.000000
  0
VERTEX
  8
LAYER-1
 10
4.891204
 20
7.467795
 30
0.000000
  0
VERTEX
  8
LAYER-1
 10
4.854301
 20
7.467797
 30
0.000000
  0
SEQEND
  8
LAYER-1
  0
POLYLINE
  8
LAYER-1
 66
  1
 70
  0
 62
  0
 10
5.639740
 20
7.196280
 30
0.000000
  0
VERTEX
  8
LAYER-1
 10
5.639740
 20
7.196280
 30
0.000000
  0
VERTEX
  8
LAYER-1
 10
5.649680
 20
7.189279
 30
0.000000
  0
VERTEX
  8
LAYER-1
 10
5.664444
 20
7.191357
 30
0.000000
  0
VERTEX
  8
LAYER-1
 10
5.672960
 20
7.195719
 30
0.000000
  0
SEQEND
  8
LAYER-1
  0
POLYLINE
  8
LAYER-1
 66
  1
 70
  0
 62
  0
 10
5.672960
 20
7.195719
 30
0.000000
  0
VERTEX
  8
LAYER-1
 10
5.672960
 20
7.195719
 30
0.000000
  0
VERTEX
  8
LAYER-1
 10
5.639740
 20
7.196280
 30
0.000000
  0
SEQEND
  8
LAYER-1
  0
POLYLINE
  8
LAYER-1
 66
  1
 70
  0
 62
  0
 10
5.675169
 20
7.196280
 30
0.000000
  0
VERTEX
  8
LAYER-1
 10
5.675169
 20
7.196280
 30
0.000000
  0
VERTEX
  8
LAYER-1
 10
5.688341
 20
7.189234
 30
0.000000
  0
VERTEX
  8
LAYER-1
 10
5.705421
 20
7.193565
 30
0.000000
  0
VERTEX
  8
LAYER-1
 10
5.712073
 20
7.196281
 30
0.000000
  0
SEQEND
  8
LAYER-1
  0
POLYLINE
  8
LAYER-1
 66
  1
 70
  0
 62
  0
 10
5.712072
 20
7.196281
 30
0.000000
  0
VERTEX
  8
LAYER-1
 10
5.712072
 20
7.196281
 30
0.000000
  0
VERTEX
  8
LAYER-1
 10
5.675170
 20
7.196280
 30
0.000000
  0
SEQEND
  8
LAYER-1
  0
POLYLINE
  8
LAYER-1
 66
  1
 70
  0
 62
  0
 10
5.710901
 20
7.467938
 30
0.000000
  0
VERTEX
  8
LAYER-1
 10
5.710901
 20
7.467938
 30
0.000000
  0
VERTEX
  8
LAYER-1
 10
5.710901
 20
7.196306
 30
0.000000
  0
SEQEND
  8
LAYER-1
  0
POLYLINE
  8
LAYER-1
 66
  1
 70
  0
 62
  0
 10
5.638568
 20
7.196309
 30
0.000000
  0
VERTEX
  8
LAYER-1
 10
5.638568
 20
7.196309
 30
0.000000
  0
VERTEX
  8
LAYER-1
 10
5.638568
 20
7.467938
 30
0.000000
  0
SEQEND
  8
LAYER-1
  0
POLYLINE
  8
LAYER-1
 66
  1
 70
  0
 62
  0
 10
5.673997
 20
7.467938
 30
0.000000
  0
VERTEX
  8
LAYER-1
 10
5.673997
 20
7.467938
 30
0.000000
  0
VERTEX
  8
LAYER-1
 10
5.673997
 20
7.196308
 30
0.000000
  0
SEQEND
  8
LAYER-1
  0
POLYLINE
  8
LAYER-1
 66
  1
 70
  0
 62
  0
 10
5.672091
 20
7.468357
 30
0.000000
  0
VERTEX
  8
LAYER-1
 10
5.672091
 20
7.468357
 30
0.000000
  0
VERTEX
  8
LAYER-1
 10
5.657918
 20
7.478889
 30
0.000000
  0
VERTEX
  8
LAYER-1
 10
5.643234
 20
7.476313
 30
0.000000
  0
VERTEX
  8
LAYER-1
 10
5.638872
 20
7.467797
 30
0.000000
  0
SEQEND
  8
LAYER-1
  0
POLYLINE
  8
LAYER-1
 66
  1
 70
  0
 62
  0
 10
5.672091
 20
7.468357
 30
0.000000
  0
VERTEX
  8
LAYER-1
 10
5.672091
 20
7.468357
 30
0.000000
  0
VERTEX
  8
LAYER-1
 10
5.638872
 20
7.467797
 30
0.000000
  0
SEQEND
  8
LAYER-1
  0
POLYLINE
  8
LAYER-1
 66
  1
 70
  0
 62
  0
 10
5.711204
 20
7.467795
 30
0.000000
  0
VERTEX
  8
LAYER-1
 10
5.711204
 20
7.467795
 30
0.000000
  0
VERTEX
  8
LAYER-1
 10
5.694096
 20
7.478780
 30
0.000000
  0
VERTEX
  8
LAYER-1
 10
5.677016
 20
7.474449
 30
0.000000
  0
VERTEX
  8
LAYER-1
 10
5.674300
 20
7.467797
 30
0.000000
  0
SEQEND
  8
LAYER-1
  0
POLYLINE
  8
LAYER-1
 66
  1
 70
  0
 62
  0
 10
5.711203
 20
7.467795
 30
0.000000
  0
VERTEX
  8
LAYER-1
 10
5.711203
 20
7.467795
 30
0.000000
  0
VERTEX
  8
LAYER-1
 10
5.674301
 20
7.467797
 30
0.000000
  0
SEQEND
  8
LAYER-1
  0
POLYLINE
  8
LAYER-1
 66
  1
 70
  0
 62
  0
 10
3.814602
 20
7.400030
 30
0.000000
  0
VERTEX
  8
LAYER-1
 10
3.814602
 20
7.400030
 30
0.000000
  0
VERTEX
  8
LAYER-1
 10
3.854327
 20
7.400030
 30
0.000000
  0
SEQEND
  8
LAYER-1
  0
POLYLINE
  8
LAYER-1
 66
  1
 70
  0
 62
  0
 10
3.814602
 20
7.270121
 30
0.000000
  0
VERTEX
  8
LAYER-1
 10
3.814602
 20
7.270121
 30
0.000000
  0
VERTEX
  8
LAYER-1
 10
3.854327
 20
7.270121
 30
0.000000
  0
SEQEND
  8
LAYER-1
  0
POLYLINE
  8
LAYER-1
 66
  1
 70
  0
 62
  0
 10
3.852957
 20
7.473083
 30
0.000000
  0
VERTEX
  8
LAYER-1
 10
3.852957
 20
7.473083
 30
0.000000
  0
VERTEX
  8
LAYER-1
 10
3.835848
 20
7.484066
 30
0.000000
  0
VERTEX
  8
LAYER-1
 10
3.818768
 20
7.479736
 30
0.000000
  0
VERTEX
  8
LAYER-1
 10
3.816054
 20
7.473084
 30
0.000000
  0
SEQEND
  8
LAYER-1
  0
POLYLINE
  8
LAYER-1
 66
  1
 70
  1
 62
  0
  0
VERTEX
  8
LAYER-1
 10
3.808851
 20
7.473707
 30
0.000000
  0
VERTEX
  8
LAYER-1
 10
3.863465
 20
7.473707
 30
0.000000
  0
VERTEX
  8
LAYER-1
 10
3.863465
 20
7.467801
 30
0.000000
  0
VERTEX
  8
LAYER-1
 10
3.808851
 20
7.467801
 30
0.000000
  0
SEQEND
  8
LAYER-1
  0
POLYLINE
  8
LAYER-1
 66
  1
 70
  0
 62
  0
 10
3.854761
 20
7.467936
 30
0.000000
  0
VERTEX
  8
LAYER-1
 10
3.854761
 20
7.467936
 30
0.000000
  0
VERTEX
  8
LAYER-1
 10
3.854761
 20
7.196187
 30
0.000000
  0
SEQEND
  8
LAYER-1
  0
POLYLINE
  8
LAYER-1
 66
  1
 70
  0
 62
  0
 10
3.854750
 20
0.613722
 30
0.000000
  0
VERTEX
  8
LAYER-1
 10
3.854750
 20
0.613722
 30
0.000000
  0
VERTEX
  8
LAYER-1
 10
3.854750
 20
0.342022
 30
0.000000
  0
SEQEND
  8
LAYER-1
  0
POLYLINE
  8
LAYER-1
 66
  1
 70
  0
 62
  0
 10
4.075670
 20
0.341584
 30
0.000000
  0
VERTEX
  8
LAYER-1
 10
4.075670
 20
0.341584
 30
0.000000
  0
VERTEX
  8
LAYER-1
 10
4.075670
 20
0.613215
 30
0.000000
  0
SEQEND
  8
LAYER-1
  0
POLYLINE
  8
LAYER-1
 66
  1
 70
  0
 62
  0
 10
4.406168
 20
0.613215
 30
0.000000
  0
VERTEX
  8
LAYER-1
 10
4.406168
 20
0.613215
 30
0.000000
  0
VERTEX
  8
LAYER-1
 10
4.406168
 20
0.341584
 30
0.000000
  0
SEQEND
  8
LAYER-1
  0
POLYLINE
  8
LAYER-1
 66
  1
 70
  0
 62
  0
 10
5.218998
 20
0.613215
 30
0.000000
  0
VERTEX
  8
LAYER-1
 10
5.218998
 20
0.613215
 30
0.000000
  0
VERTEX
  8
LAYER-1
 10
5.218998
 20
0.341584
 30
0.000000
  0
SEQEND
  8
LAYER-1
  0
POLYLINE
  8
LAYER-1
 66
  1
 70
  0
 62
  0
 10
5.037832
 20
0.341544
 30
0.000000
  0
VERTEX
  8
LAYER-1
 10
5.037832
 20
0.341544
 30
0.000000
  0
VERTEX
  8
LAYER-1
 10
5.037832
 20
0.613173
 30
0.000000
  0
SEQEND
  8
LAYER-1
  0
POLYLINE
  8
LAYER-1
 66
  1
 70
  0
 62
  0
 10
5.077690
 20
0.341544
 30
0.000000
  0
VERTEX
  8
LAYER-1
 10
5.077690
 20
0.341544
 30
0.000000
  0
VERTEX
  8
LAYER-1
 10
5.077690
 20
0.613173
 30
0.000000
  0
SEQEND
  8
LAYER-1
  0
POLYLINE
  8
LAYER-1
 66
  1
 70
  0
 62
  0
 10
4.223814
 20
0.341544
 30
0.000000
  0
VERTEX
  8
LAYER-1
 10
4.223814
 20
0.341544
 30
0.000000
  0
VERTEX
  8
LAYER-1
 10
4.223814
 20
0.613173
 30
0.000000
  0
SEQEND
  8
LAYER-1
  0
POLYLINE
  8
LAYER-1
 66
  1
 70
  0
 62
  0
 10
4.262630
 20
0.341544
 30
0.000000
  0
VERTEX
  8
LAYER-1
 10
4.262630
 20
0.341544
 30
0.000000
  0
VERTEX
  8
LAYER-1
 10
4.262630
 20
0.613173
 30
0.000000
  0
SEQEND
  8
LAYER-1
  0
POLYLINE
  8
LAYER-1
 66
  1
 70
  0
 62
  0
 10
4.490490
 20
0.341584
 30
0.000000
  0
VERTEX
  8
LAYER-1
 10
4.490490
 20
0.341584
 30
0.000000
  0
VERTEX
  8
LAYER-1
 10
4.490490
 20
0.613215
 30
0.000000
  0
SEQEND
  8
LAYER-1
  0
POLYLINE
  8
LAYER-1
 66
  1
 70
  0
 62
  0
 10
5.303320
 20
0.341584
 30
0.000000
  0
VERTEX
  8
LAYER-1
 10
5.303320
 20
0.341584
 30
0.000000
  0
VERTEX
  8
LAYER-1
 10
5.303320
 20
0.613215
 30
0.000000
  0
SEQEND
  8
LAYER-1
  0
POLYLINE
  8
LAYER-1
 66
  1
 70
  0
 62
  0
 10
5.448226
 20
0.341978
 30
0.000000
  0
VERTEX
  8
LAYER-1
 10
5.448226
 20
0.341978
 30
0.000000
  0
VERTEX
  8
LAYER-1
 10
5.448226
 20
0.613607
 30
0.000000
  0
SEQEND
  8
LAYER-1
  0
POLYLINE
  8
LAYER-1
 66
  1
 70
  0
 62
  0
 10
5.486608
 20
0.341978
 30
0.000000
  0
VERTEX
  8
LAYER-1
 10
5.486608
 20
0.341978
 30
0.000000
  0
VERTEX
  8
LAYER-1
 10
5.486608
 20
0.613607
 30
0.000000
  0
SEQEND
  8
LAYER-1
  0
POLYLINE
  8
LAYER-1
 66
  1
 70
  0
 62
  0
 10
4.630387
 20
0.341510
 30
0.000000
  0
VERTEX
  8
LAYER-1
 10
4.630387
 20
0.341510
 30
0.000000
  0
VERTEX
  8
LAYER-1
 10
4.630387
 20
0.613136
 30
0.000000
  0
SEQEND
  8
LAYER-1
  0
POLYLINE
  8
LAYER-1
 66
  1
 70
  0
 62
  0
 10
4.668770
 20
0.341510
 30
0.000000
  0
VERTEX
  8
LAYER-1
 10
4.668770
 20
0.341510
 30
0.000000
  0
VERTEX
  8
LAYER-1
 10
4.668770
 20
0.613136
 30
0.000000
  0
SEQEND
  8
LAYER-1
  0
POLYLINE
  8
LAYER-1
 66
  1
 70
  0
 62
  0
 10
4.003338
 20
0.613211
 30
0.000000
  0
VERTEX
  8
LAYER-1
 10
4.003338
 20
0.613211
 30
0.000000
  0
VERTEX
  8
LAYER-1
 10
4.003338
 20
0.341582
 30
0.000000
  0
SEQEND
  8
LAYER-1
  0
POLYLINE
  8
LAYER-1
 66
  1
 70
  0
 62
  0
 10
4.038767
 20
0.341582
 30
0.000000
  0
VERTEX
  8
LAYER-1
 10
4.038767
 20
0.341582
 30
0.000000
  0
VERTEX
  8
LAYER-1
 10
4.038767
 20
0.613213
 30
0.000000
  0
SEQEND
  8
LAYER-1
  0
POLYLINE
  8
LAYER-1
 66
  1
 70
  0
 62
  0
 10
4.004242
 20
0.341582
 30
0.000000
  0
VERTEX
  8
LAYER-1
 10
4.004242
 20
0.341582
 30
0.000000
  0
VERTEX
  8
LAYER-1
 10
4.014181
 20
0.334582
 30
0.000000
  0
VERTEX
  8
LAYER-1
 10
4.028944
 20
0.336661
 30
0.000000
  0
VERTEX
  8
LAYER-1
 10
4.037797
 20
0.341571
 30
0.000000
  0
SEQEND
  8
LAYER-1
  0
POLYLINE
  8
LAYER-1
 66
  1
 70
  0
 62
  0
 10
4.038767
 20
0.341582
 30
0.000000
  0
VERTEX
  8
LAYER-1
 10
4.038767
 20
0.341582
 30
0.000000
  0
VERTEX
  8
LAYER-1
 10
4.051938
 20
0.334536
 30
0.000000
  0
VERTEX
  8
LAYER-1
 10
4.069018
 20
0.338867
 30
0.000000
  0
VERTEX
  8
LAYER-1
 10
4.075669
 20
0.341584
 30
0.000000
  0
SEQEND
  8
LAYER-1
  0
POLYLINE
  8
LAYER-1
 66
  1
 70
  0
 62
  0
 10
4.454321
 20
0.342077
 30
0.000000
  0
VERTEX
  8
LAYER-1
 10
4.454321
 20
0.342077
 30
0.000000
  0
VERTEX
  8
LAYER-1
 10
4.469888
 20
0.336021
 30
0.000000
  0
VERTEX
  8
LAYER-1
 10
4.487962
 20
0.342746
 30
0.000000
  0
VERTEX
  8
LAYER-1
 10
4.491229
 20
0.342077
 30
0.000000
  0
SEQEND
  8
LAYER-1
  0
POLYLINE
  8
LAYER-1
 66
  1
 70
  0
 62
  0
 10
5.267280
 20
0.341607
 30
0.000000
  0
VERTEX
  8
LAYER-1
 10
5.267280
 20
0.341607
 30
0.000000
  0
VERTEX
  8
LAYER-1
 10
5.282847
 20
0.335552
 30
0.000000
  0
VERTEX
  8
LAYER-1
 10
5.300921
 20
0.342278
 30
0.000000
  0
VERTEX
  8
LAYER-1
 10
5.304187
 20
0.341607
 30
0.000000
  0
SEQEND
  8
LAYER-1
  0
POLYLINE
  8
LAYER-1
 66
  1
 70
  0
 62
  0
 10
4.406612
 20
0.342077
 30
0.000000
  0
VERTEX
  8
LAYER-1
 10
4.406612
 20
0.342077
 30
0.000000
  0
VERTEX
  8
LAYER-1
 10
4.422179
 20
0.336021
 30
0.000000
  0
VERTEX
  8
LAYER-1
 10
4.440253
 20
0.342746
 30
0.000000
  0
VERTEX
  8
LAYER-1
 10
4.443520
 20
0.342077
 30
0.000000
  0
SEQEND
  8
LAYER-1
  0
POLYLINE
  8
LAYER-1
 66
  1
 70
  0
 62
  0
 10
4.428555
 20
0.341518
 30
0.000000
  0
VERTEX
  8
LAYER-1
 10
4.428555
 20
0.341518
 30
0.000000
  0
VERTEX
  8
LAYER-1
 10
4.435370
 20
0.332449
 30
0.000000
  0
VERTEX
  8
LAYER-1
 10
4.449385
 20
0.330855
 30
0.000000
  0
VERTEX
  8
LAYER-1
 10
4.460422
 20
0.339639
 30
0.000000
  0
VERTEX
  8
LAYER-1
 10
4.463984
 20
0.341518
 30
0.000000
  0
SEQEND
  8
LAYER-1
  0
POLYLINE
  8
LAYER-1
 66
  1
 70
  0
 62
  0
 10
4.428555
 20
0.341517
 30
0.000000
  0
VERTEX
  8
LAYER-1
 10
4.428555
 20
0.341517
 30
0.000000
  0
VERTEX
  8
LAYER-1
 10
4.463984
 20
0.341517
 30
0.000000
  0
SEQEND
  8
LAYER-1
  0
POLYLINE
  8
LAYER-1
 66
  1
 70
  0
 62
  0
 10
5.218630
 20
0.341605
 30
0.000000
  0
VERTEX
  8
LAYER-1
 10
5.218630
 20
0.341605
 30
0.000000
  0
VERTEX
  8
LAYER-1
 10
5.234197
 20
0.335552
 30
0.000000
  0
VERTEX
  8
LAYER-1
 10
5.252271
 20
0.342278
 30
0.000000
  0
VERTEX
  8
LAYER-1
 10
5.255537
 20
0.341607
 30
0.000000
  0
SEQEND
  8
LAYER-1
  0
POLYLINE
  8
LAYER-1
 66
  1
 70
  0
 62
  0
 10
5.244801
 20
0.341518
 30
0.000000
  0
VERTEX
  8
LAYER-1
 10
5.244801
 20
0.341518
 30
0.000000
  0
VERTEX
  8
LAYER-1
 10
5.251617
 20
0.332449
 30
0.000000
  0
VERTEX
  8
LAYER-1
 10
5.265632
 20
0.330855
 30
0.000000
  0
VERTEX
  8
LAYER-1
 10
5.276669
 20
0.339639
 30
0.000000
  0
VERTEX
  8
LAYER-1
 10
5.280231
 20
0.341518
 30
0.000000
  0
SEQEND
  8
LAYER-1
  0
POLYLINE
  8
LAYER-1
 66
  1
 70
  0
 62
  0
 10
5.244803
 20
0.341517
 30
0.000000
  0
VERTEX
  8
LAYER-1
 10
5.244803
 20
0.341517
 30
0.000000
  0
VERTEX
  8
LAYER-1
 10
5.280231
 20
0.341517
 30
0.000000
  0
SEQEND
  8
LAYER-1
  0
POLYLINE
  8
LAYER-1
 66
  1
 70
  0
 62
  0
 10
4.037491
 20
0.613799
 30
0.000000
  0
VERTEX
  8
LAYER-1
 10
4.037491
 20
0.613799
 30
0.000000
  0
VERTEX
  8
LAYER-1
 10
4.023318
 20
0.624331
 30
0.000000
  0
VERTEX
  8
LAYER-1
 10
4.008634
 20
0.621756
 30
0.000000
  0
VERTEX
  8
LAYER-1
 10
4.004272
 20
0.613240
 30
0.000000
  0
SEQEND
  8
LAYER-1
  0
POLYLINE
  8
LAYER-1
 66
  1
 70
  0
 62
  0
 10
4.037491
 20
0.613799
 30
0.000000
  0
VERTEX
  8
LAYER-1
 10
4.037491
 20
0.613799
 30
0.000000
  0
VERTEX
  8
LAYER-1
 10
4.004272
 20
0.613240
 30
0.000000
  0
SEQEND
  8
LAYER-1
  0
POLYLINE
  8
LAYER-1
 66
  1
 70
  0
 62
  0
 10
4.076604
 20
0.613237
 30
0.000000
  0
VERTEX
  8
LAYER-1
 10
4.076604
 20
0.613237
 30
0.000000
  0
VERTEX
  8
LAYER-1
 10
4.059496
 20
0.624221
 30
0.000000
  0
VERTEX
  8
LAYER-1
 10
4.042416
 20
0.619890
 30
0.000000
  0
VERTEX
  8
LAYER-1
 10
4.039700
 20
0.613238
 30
0.000000
  0
SEQEND
  8
LAYER-1
  0
POLYLINE
  8
LAYER-1
 66
  1
 70
  0
 62
  0
 10
4.076603
 20
0.613238
 30
0.000000
  0
VERTEX
  8
LAYER-1
 10
4.076603
 20
0.613238
 30
0.000000
  0
VERTEX
  8
LAYER-1
 10
4.039701
 20
0.613240
 30
0.000000
  0
SEQEND
  8
LAYER-1
  0
POLYLINE
  8
LAYER-1
 66
  1
 70
  0
 62
  0
 10
4.443445
 20
0.613684
 30
0.000000
  0
VERTEX
  8
LAYER-1
 10
4.443445
 20
0.613684
 30
0.000000
  0
VERTEX
  8
LAYER-1
 10
4.423942
 20
0.623677
 30
0.000000
  0
VERTEX
  8
LAYER-1
 10
4.405868
 20
0.616951
 30
0.000000
  0
VERTEX
  8
LAYER-1
 10
4.406538
 20
0.613686
 30
0.000000
  0
SEQEND
  8
LAYER-1
  0
POLYLINE
  8
LAYER-1
 66
  1
 70
  0
 62
  0
 10
4.490687
 20
0.613684
 30
0.000000
  0
VERTEX
  8
LAYER-1
 10
4.490687
 20
0.613684
 30
0.000000
  0
VERTEX
  8
LAYER-1
 10
4.471183
 20
0.623677
 30
0.000000
  0
VERTEX
  8
LAYER-1
 10
4.453109
 20
0.616951
 30
0.000000
  0
VERTEX
  8
LAYER-1
 10
4.453779
 20
0.613686
 30
0.000000
  0
SEQEND
  8
LAYER-1
  0
POLYLINE
  8
LAYER-1
 66
  1
 70
  0
 62
  0
 10
4.463441
 20
0.613773
 30
0.000000
  0
VERTEX
  8
LAYER-1
 10
4.463441
 20
0.613773
 30
0.000000
  0
VERTEX
  8
LAYER-1
 10
4.452689
 20
0.626779
 30
0.000000
  0
VERTEX
  8
LAYER-1
 10
4.438674
 20
0.628373
 30
0.000000
  0
VERTEX
  8
LAYER-1
 10
4.427637
 20
0.619589
 30
0.000000
  0
VERTEX
  8
LAYER-1
 10
4.428012
 20
0.613773
 30
0.000000
  0
SEQEND
  8
LAYER-1
  0
POLYLINE
  8
LAYER-1
 66
  1
 70
  0
 62
  0
 10
4.428013
 20
0.613775
 30
0.000000
  0
VERTEX
  8
LAYER-1
 10
4.428013
 20
0.613775
 30
0.000000
  0
VERTEX
  8
LAYER-1
 10
4.463441
 20
0.613775
 30
0.000000
  0
SEQEND
  8
LAYER-1
  0
POLYLINE
  8
LAYER-1
 66
  1
 70
  0
 62
  0
 10
5.256000
 20
0.613684
 30
0.000000
  0
VERTEX
  8
LAYER-1
 10
5.256000
 20
0.613684
 30
0.000000
  0
VERTEX
  8
LAYER-1
 10
5.236496
 20
0.623677
 30
0.000000
  0
VERTEX
  8
LAYER-1
 10
5.218423
 20
0.616951
 30
0.000000
  0
VERTEX
  8
LAYER-1
 10
5.219093
 20
0.613686
 30
0.000000
  0
SEQEND
  8
LAYER-1
  0
POLYLINE
  8
LAYER-1
 66
  1
 70
  0
 62
  0
 10
5.304181
 20
0.613684
 30
0.000000
  0
VERTEX
  8
LAYER-1
 10
5.304181
 20
0.613684
 30
0.000000
  0
VERTEX
  8
LAYER-1
 10
5.284677
 20
0.623677
 30
0.000000
  0
VERTEX
  8
LAYER-1
 10
5.266603
 20
0.616951
 30
0.000000
  0
VERTEX
  8
LAYER-1
 10
5.267273
 20
0.613686
 30
0.000000
  0
SEQEND
  8
LAYER-1
  0
POLYLINE
  8
LAYER-1
 66
  1
 70
  0
 62
  0
 10
5.280225
 20
0.613773
 30
0.000000
  0
VERTEX
  8
LAYER-1
 10
5.280225
 20
0.613773
 30
0.000000
  0
VERTEX
  8
LAYER-1
 10
5.269473
 20
0.626779
 30
0.000000
  0
VERTEX
  8
LAYER-1
 10
5.255458
 20
0.628373
 30
0.000000
  0
VERTEX
  8
LAYER-1
 10
5.244421
 20
0.619589
 30
0.000000
  0
VERTEX
  8
LAYER-1
 10
5.244796
 20
0.613773
 30
0.000000
  0
SEQEND
  8
LAYER-1
  0
POLYLINE
  8
LAYER-1
 66
  1
 70
  0
 62
  0
 10
5.244796
 20
0.613775
 30
0.000000
  0
VERTEX
  8
LAYER-1
 10
5.244796
 20
0.613775
 30
0.000000
  0
VERTEX
  8
LAYER-1
 10
5.280224
 20
0.613775
 30
0.000000
  0
SEQEND
  8
LAYER-1
  0
POLYLINE
  8
LAYER-1
 66
  1
 70
  1
 62
  0
  0
VERTEX
  8
LAYER-1
 10
4.463985
 20
0.341584
 30
0.000000
  0
VERTEX
  8
LAYER-1
 10
4.428555
 20
0.341584
 30
0.000000
  0
VERTEX
  8
LAYER-1
 10
4.428555
 20
0.613213
 30
0.000000
  0
VERTEX
  8
LAYER-1
 10
4.463985
 20
0.613213
 30
0.000000
  0
SEQEND
  8
LAYER-1
  0
POLYLINE
  8
LAYER-1
 66
  1
 70
  1
 62
  0
  0
VERTEX
  8
LAYER-1
 10
5.280299
 20
0.341584
 30
0.000000
  0
VERTEX
  8
LAYER-1
 10
5.244869
 20
0.341584
 30
0.000000
  0
VERTEX
  8
LAYER-1
 10
5.244869
 20
0.613213
 30
0.000000
  0
VERTEX
  8
LAYER-1
 10
5.280299
 20
0.613213
 30
0.000000
  0
SEQEND
  8
LAYER-1
  0
POLYLINE
  8
LAYER-1
 66
  1
 70
  0
 62
  0
 10
4.428555
 20
0.409490
 30
0.000000
  0
VERTEX
  8
LAYER-1
 10
4.428555
 20
0.409490
 30
0.000000
  0
VERTEX
  8
LAYER-1
 10
4.463985
 20
0.409490
 30
0.000000
  0
SEQEND
  8
LAYER-1
  0
POLYLINE
  8
LAYER-1
 66
  1
 70
  0
 62
  0
 10
4.428555
 20
0.539400
 30
0.000000
  0
VERTEX
  8
LAYER-1
 10
4.428555
 20
0.539400
 30
0.000000
  0
VERTEX
  8
LAYER-1
 10
4.463985
 20
0.539400
 30
0.000000
  0
SEQEND
  8
LAYER-1
  0
POLYLINE
  8
LAYER-1
 66
  1
 70
  0
 62
  0
 10
5.244869
 20
0.409490
 30
0.000000
  0
VERTEX
  8
LAYER-1
 10
5.244869
 20
0.409490
 30
0.000000
  0
VERTEX
  8
LAYER-1
 10
5.280297
 20
0.409490
 30
0.000000
  0
SEQEND
  8
LAYER-1
  0
POLYLINE
  8
LAYER-1
 66
  1
 70
  0
 62
  0
 10
5.244869
 20
0.539400
 30
0.000000
  0
VERTEX
  8
LAYER-1
 10
5.244869
 20
0.539400
 30
0.000000
  0
VERTEX
  8
LAYER-1
 10
5.280297
 20
0.539400
 30
0.000000
  0
SEQEND
  8
LAYER-1
  0
POLYLINE
  8
LAYER-1
 66
  1
 70
  0
 62
  0
 10
4.226223
 20
0.342027
 30
0.000000
  0
VERTEX
  8
LAYER-1
 10
4.226223
 20
0.342027
 30
0.000000
  0
VERTEX
  8
LAYER-1
 10
4.236163
 20
0.335026
 30
0.000000
  0
VERTEX
  8
LAYER-1
 10
4.250926
 20
0.337104
 30
0.000000
  0
VERTEX
  8
LAYER-1
 10
4.259442
 20
0.341467
 30
0.000000
  0
SEQEND
  8
LAYER-1
  0
POLYLINE
  8
LAYER-1
 66
  1
 70
  0
 62
  0
 10
5.039717
 20
0.341644
 30
0.000000
  0
VERTEX
  8
LAYER-1
 10
5.039717
 20
0.341644
 30
0.000000
  0
VERTEX
  8
LAYER-1
 10
5.052889
 20
0.334600
 30
0.000000
  0
VERTEX
  8
LAYER-1
 10
5.069968
 20
0.338931
 30
0.000000
  0
VERTEX
  8
LAYER-1
 10
5.076621
 20
0.341646
 30
0.000000
  0
SEQEND
  8
LAYER-1
  0
POLYLINE
  8
LAYER-1
 66
  1
 70
  0
 62
  0
 10
4.852521
 20
0.613801
 30
0.000000
  0
VERTEX
  8
LAYER-1
 10
4.852521
 20
0.613801
 30
0.000000
  0
VERTEX
  8
LAYER-1
 10
4.838349
 20
0.624333
 30
0.000000
  0
VERTEX
  8
LAYER-1
 10
4.823664
 20
0.621758
 30
0.000000
  0
VERTEX
  8
LAYER-1
 10
4.819302
 20
0.613241
 30
0.000000
  0
SEQEND
  8
LAYER-1
  0
POLYLINE
  8
LAYER-1
 66
  1
 70
  0
 62
  0
 10
4.852520
 20
0.613801
 30
0.000000
  0
VERTEX
  8
LAYER-1
 10
4.852520
 20
0.613801
 30
0.000000
  0
VERTEX
  8
LAYER-1
 10
4.819302
 20
0.613241
 30
0.000000
  0
SEQEND
  8
LAYER-1
  0
POLYLINE
  8
LAYER-1
 66
  1
 70
  0
 62
  0
 10
4.891633
 20
0.613241
 30
0.000000
  0
VERTEX
  8
LAYER-1
 10
4.891633
 20
0.613241
 30
0.000000
  0
VERTEX
  8
LAYER-1
 10
4.874525
 20
0.624225
 30
0.000000
  0
VERTEX
  8
LAYER-1
 10
4.857445
 20
0.619894
 30
0.000000
  0
VERTEX
  8
LAYER-1
 10
4.854730
 20
0.613241
 30
0.000000
  0
SEQEND
  8
LAYER-1
  0
POLYLINE
  8
LAYER-1
 66
  1
 70
  0
 62
  0
 10
4.891634
 20
0.613240
 30
0.000000
  0
VERTEX
  8
LAYER-1
 10
4.891634
 20
0.613240
 30
0.000000
  0
VERTEX
  8
LAYER-1
 10
4.854730
 20
0.613241
 30
0.000000
  0
SEQEND
  8
LAYER-1
  0
POLYLINE
  8
LAYER-1
 66
  1
 70
  0
 62
  0
 10
4.890462
 20
0.341584
 30
0.000000
  0
VERTEX
  8
LAYER-1
 10
4.890462
 20
0.341584
 30
0.000000
  0
VERTEX
  8
LAYER-1
 10
4.890462
 20
0.613215
 30
0.000000
  0
SEQEND
  8
LAYER-1
  0
POLYLINE
  8
LAYER-1
 66
  1
 70
  0
 62
  0
 10
4.818128
 20
0.613211
 30
0.000000
  0
VERTEX
  8
LAYER-1
 10
4.818128
 20
0.613211
 30
0.000000
  0
VERTEX
  8
LAYER-1
 10
4.818128
 20
0.341582
 30
0.000000
  0
SEQEND
  8
LAYER-1
  0
POLYLINE
  8
LAYER-1
 66
  1
 70
  0
 62
  0
 10
4.853558
 20
0.341582
 30
0.000000
  0
VERTEX
  8
LAYER-1
 10
4.853558
 20
0.341582
 30
0.000000
  0
VERTEX
  8
LAYER-1
 10
4.853558
 20
0.613213
 30
0.000000
  0
SEQEND
  8
LAYER-1
  0
POLYLINE
  8
LAYER-1
 66
  1
 70
  0
 62
  0
 10
4.818433
 20
0.341725
 30
0.000000
  0
VERTEX
  8
LAYER-1
 10
4.818433
 20
0.341725
 30
0.000000
  0
VERTEX
  8
LAYER-1
 10
4.828373
 20
0.334724
 30
0.000000
  0
VERTEX
  8
LAYER-1
 10
4.843136
 20
0.336802
 30
0.000000
  0
VERTEX
  8
LAYER-1
 10
4.851652
 20
0.341165
 30
0.000000
  0
SEQEND
  8
LAYER-1
  0
POLYLINE
  8
LAYER-1
 66
  1
 70
  0
 62
  0
 10
4.851652
 20
0.341164
 30
0.000000
  0
VERTEX
  8
LAYER-1
 10
4.851652
 20
0.341164
 30
0.000000
  0
VERTEX
  8
LAYER-1
 10
4.818433
 20
0.341725
 30
0.000000
  0
SEQEND
  8
LAYER-1
  0
POLYLINE
  8
LAYER-1
 66
  1
 70
  0
 62
  0
 10
4.853862
 20
0.341725
 30
0.000000
  0
VERTEX
  8
LAYER-1
 10
4.853862
 20
0.341725
 30
0.000000
  0
VERTEX
  8
LAYER-1
 10
4.867033
 20
0.334678
 30
0.000000
  0
VERTEX
  8
LAYER-1
 10
4.884113
 20
0.339010
 30
0.000000
  0
VERTEX
  8
LAYER-1
 10
4.890765
 20
0.341726
 30
0.000000
  0
SEQEND
  8
LAYER-1
  0
POLYLINE
  8
LAYER-1
 66
  1
 70
  0
 62
  0
 10
4.890765
 20
0.341725
 30
0.000000
  0
VERTEX
  8
LAYER-1
 10
4.890765
 20
0.341725
 30
0.000000
  0
VERTEX
  8
LAYER-1
 10
4.853862
 20
0.341725
 30
0.000000
  0
SEQEND
  8
LAYER-1
  0
POLYLINE
  8
LAYER-1
 66
  1
 70
  0
 62
  0
 10
5.672521
 20
0.613801
 30
0.000000
  0
VERTEX
  8
LAYER-1
 10
5.672521
 20
0.613801
 30
0.000000
  0
VERTEX
  8
LAYER-1
 10
5.658348
 20
0.624333
 30
0.000000
  0
VERTEX
  8
LAYER-1
 10
5.643664
 20
0.621758
 30
0.000000
  0
VERTEX
  8
LAYER-1
 10
5.639301
 20
0.613241
 30
0.000000
  0
SEQEND
  8
LAYER-1
  0
POLYLINE
  8
LAYER-1
 66
  1
 70
  0
 62
  0
 10
5.672521
 20
0.613801
 30
0.000000
  0
VERTEX
  8
LAYER-1
 10
5.672521
 20
0.613801
 30
0.000000
  0
VERTEX
  8
LAYER-1
 10
5.639302
 20
0.613241
 30
0.000000
  0
SEQEND
  8
LAYER-1
  0
POLYLINE
  8
LAYER-1
 66
  1
 70
  0
 62
  0
 10
5.711633
 20
0.613241
 30
0.000000
  0
VERTEX
  8
LAYER-1
 10
5.711633
 20
0.613241
 30
0.000000
  0
VERTEX
  8
LAYER-1
 10
5.694525
 20
0.624225
 30
0.000000
  0
VERTEX
  8
LAYER-1
 10
5.677445
 20
0.619894
 30
0.000000
  0
VERTEX
  8
LAYER-1
 10
5.674730
 20
0.613241
 30
0.000000
  0
SEQEND
  8
LAYER-1
  0
POLYLINE
  8
LAYER-1
 66
  1
 70
  0
 62
  0
 10
5.711633
 20
0.613240
 30
0.000000
  0
VERTEX
  8
LAYER-1
 10
5.711633
 20
0.613240
 30
0.000000
  0
VERTEX
  8
LAYER-1
 10
5.674731
 20
0.613241
 30
0.000000
  0
SEQEND
  8
LAYER-1
  0
POLYLINE
  8
LAYER-1
 66
  1
 70
  0
 62
  0
 10
5.710462
 20
0.341584
 30
0.000000
  0
VERTEX
  8
LAYER-1
 10
5.710462
 20
0.341584
 30
0.000000
  0
VERTEX
  8
LAYER-1
 10
5.710462
 20
0.613215
 30
0.000000
  0
SEQEND
  8
LAYER-1
  0
POLYLINE
  8
LAYER-1
 66
  1
 70
  0
 62
  0
 10
5.638128
 20
0.613211
 30
0.000000
  0
VERTEX
  8
LAYER-1
 10
5.638128
 20
0.613211
 30
0.000000
  0
VERTEX
  8
LAYER-1
 10
5.638128
 20
0.341582
 30
0.000000
  0
SEQEND
  8
LAYER-1
  0
POLYLINE
  8
LAYER-1
 66
  1
 70
  0
 62
  0
 10
5.673559
 20
0.341582
 30
0.000000
  0
VERTEX
  8
LAYER-1
 10
5.673559
 20
0.341582
 30
0.000000
  0
VERTEX
  8
LAYER-1
 10
5.673559
 20
0.613213
 30
0.000000
  0
SEQEND
  8
LAYER-1
  0
POLYLINE
  8
LAYER-1
 66
  1
 70
  0
 62
  0
 10
5.638433
 20
0.341725
 30
0.000000
  0
VERTEX
  8
LAYER-1
 10
5.638433
 20
0.341725
 30
0.000000
  0
VERTEX
  8
LAYER-1
 10
5.648373
 20
0.334724
 30
0.000000
  0
VERTEX
  8
LAYER-1
 10
5.663136
 20
0.336802
 30
0.000000
  0
VERTEX
  8
LAYER-1
 10
5.671652
 20
0.341165
 30
0.000000
  0
SEQEND
  8
LAYER-1
  0
POLYLINE
  8
LAYER-1
 66
  1
 70
  0
 62
  0
 10
5.671652
 20
0.341164
 30
0.000000
  0
VERTEX
  8
LAYER-1
 10
5.671652
 20
0.341164
 30
0.000000
  0
VERTEX
  8
LAYER-1
 10
5.638433
 20
0.341725
 30
0.000000
  0
SEQEND
  8
LAYER-1
  0
POLYLINE
  8
LAYER-1
 66
  1
 70
  0
 62
  0
 10
5.673862
 20
0.341725
 30
0.000000
  0
VERTEX
  8
LAYER-1
 10
5.673862
 20
0.341725
 30
0.000000
  0
VERTEX
  8
LAYER-1
 10
5.687033
 20
0.334678
 30
0.000000
  0
VERTEX
  8
LAYER-1
 10
5.704113
 20
0.339010
 30
0.000000
  0
VERTEX
  8
LAYER-1
 10
5.710765
 20
0.341726
 30
0.000000
  0
SEQEND
  8
LAYER-1
  0
POLYLINE
  8
LAYER-1
 66
  1
 70
  0
 62
  0
 10
5.710765
 20
0.341725
 30
0.000000
  0
VERTEX
  8
LAYER-1
 10
5.710765
 20
0.341725
 30
0.000000
  0
VERTEX
  8
LAYER-1
 10
5.673862
 20
0.341725
 30
0.000000
  0
SEQEND
  8
LAYER-1
  0
POLYLINE
  8
LAYER-1
 66
  1
 70
  0
 62
  0
 40
0.027778
 41
0.027778
 10
3.645018
 20
0.237641
 30
0.000000
  0
VERTEX
  8
LAYER-1
 10
3.645018
 20
0.237641
 30
0.000000
  0
VERTEX
  8
LAYER-1
 10
0.736445
 20
0.237641
 30
0.000000
  0
SEQEND
  8
LAYER-1
  0
POLYLINE
  8
LAYER-1
 66
  1
 70
  0
 62
  0
 40
0.027778
 41
0.027778
 10
3.738635
 20
0.237641
 30
0.000000
  0
VERTEX
  8
LAYER-1
 10
3.738635
 20
0.237641
 30
0.000000
  0
VERTEX
  8
LAYER-1
 10
6.736445
 20
0.237641
 30
0.000000
  0
SEQEND
  8
LAYER-1
  0
POLYLINE
  8
LAYER-1
 66
  1
 70
  1
 62
  7
  0
VERTEX
  8
LAYER-1
 10
0.075117
 20
4.882161
 30
0.000000
  0
VERTEX
  8
LAYER-1
 10
0.157896
 20
4.882161
 30
0.000000
  0
VERTEX
  8
LAYER-1
 10
0.157896
 20
4.666655
 30
0.000000
  0
VERTEX
  8
LAYER-1
 10
0.075117
 20
4.666655
 30
0.000000
  0
SEQEND
  8
LAYER-1
  0
POLYLINE
  8
LAYER-1
 66
  1
 70
  1
 62
  7
  0
VERTEX
  8
LAYER-1
 10
0.219083
 20
4.882161
 30
0.000000
  0
VERTEX
  8
LAYER-1
 10
0.301864
 20
4.882161
 30
0.000000
  0
VERTEX
  8
LAYER-1
 10
0.301864
 20
4.666655
 30
0.000000
  0
VERTEX
  8
LAYER-1
 10
0.219083
 20
4.666655
 30
0.000000
  0
SEQEND
  8
LAYER-1
  0
POLYLINE
  8
LAYER-1
 66
  1
 70
  1
 62
  7
  0
VERTEX
  8
LAYER-1
 10
0.363050
 20
4.882161
 30
0.000000
  0
VERTEX
  8
LAYER-1
 10
0.445828
 20
4.882161
 30
0.000000
  0
VERTEX
  8
LAYER-1
 10
0.445828
 20
4.666655
 30
0.000000
  0
VERTEX
  8
LAYER-1
 10
0.363050
 20
4.666655
 30
0.000000
  0
SEQEND
  8
LAYER-1
  0
POLYLINE
  8
LAYER-1
 66
  1
 70
  1
 62
  7
  0
VERTEX
  8
LAYER-1
 10
0.507016
 20
4.882161
 30
0.000000
  0
VERTEX
  8
LAYER-1
 10
0.589794
 20
4.882161
 30
0.000000
  0
VERTEX
  8
LAYER-1
 10
0.589794
 20
4.666655
 30
0.000000
  0
VERTEX
  8
LAYER-1
 10
0.507016
 20
4.666655
 30
0.000000
  0
SEQEND
  8
LAYER-1
  0
POLYLINE
  8
LAYER-1
 66
  1
 70
  1
 62
  7
  0
VERTEX
  8
LAYER-1
 10
0.650981
 20
4.882161
 30
0.000000
  0
VERTEX
  8
LAYER-1
 10
0.733761
 20
4.882161
 30
0.000000
  0
VERTEX
  8
LAYER-1
 10
0.733761
 20
4.666655
 30
0.000000
  0
VERTEX
  8
LAYER-1
 10
0.650981
 20
4.666655
 30
0.000000
  0
SEQEND
  8
LAYER-1
  0
POLYLINE
  8
LAYER-1
 66
  1
 70
  1
 62
  7
  0
VERTEX
  8
LAYER-1
 10
0.794948
 20
4.882161
 30
0.000000
  0
VERTEX
  8
LAYER-1
 10
0.877727
 20
4.882161
 30
0.000000
  0
VERTEX
  8
LAYER-1
 10
0.877727
 20
4.666655
 30
0.000000
  0
VERTEX
  8
LAYER-1
 10
0.794948
 20
4.666655
 30
0.000000
  0
SEQEND
  8
LAYER-1
  0
POLYLINE
  8
LAYER-1
 66
  1
 70
  1
 62
  7
  0
VERTEX
  8
LAYER-1
 10
0.938914
 20
4.882161
 30
0.000000
  0
VERTEX
  8
LAYER-1
 10
1.021693
 20
4.882161
 30
0.000000
  0
VERTEX
  8
LAYER-1
 10
1.021693
 20
4.666655
 30
0.000000
  0
VERTEX
  8
LAYER-1
 10
0.938914
 20
4.666655
 30
0.000000
  0
SEQEND
  8
LAYER-1
  0
POLYLINE
  8
LAYER-1
 66
  1
 70
  1
 62
  7
  0
VERTEX
  8
LAYER-1
 10
0.003017
 20
5.097651
 30
0.000000
  0
VERTEX
  8
LAYER-1
 10
0.085796
 20
5.097651
 30
0.000000
  0
VERTEX
  8
LAYER-1
 10
0.085796
 20
4.882148
 30
0.000000
  0
VERTEX
  8
LAYER-1
 10
0.003017
 20
4.882148
 30
0.000000
  0
SEQEND
  8
LAYER-1
  0
POLYLINE
  8
LAYER-1
 66
  1
 70
  1
 62
  7
  0
VERTEX
  8
LAYER-1
 10
0.146983
 20
5.097651
 30
0.000000
  0
VERTEX
  8
LAYER-1
 10
0.229762
 20
5.097651
 30
0.000000
  0
VERTEX
  8
LAYER-1
 10
0.229762
 20
4.882148
 30
0.000000
  0
VERTEX
  8
LAYER-1
 10
0.146983
 20
4.882148
 30
0.000000
  0
SEQEND
  8
LAYER-1
  0
POLYLINE
  8
LAYER-1
 66
  1
 70
  1
 62
  7
  0
VERTEX
  8
LAYER-1
 10
0.290949
 20
5.097651
 30
0.000000
  0
VERTEX
  8
LAYER-1
 10
0.373729
 20
5.097651
 30
0.000000
  0
VERTEX
  8
LAYER-1
 10
0.373729
 20
4.882148
 30
0.000000
  0
VERTEX
  8
LAYER-1
 10
0.290949
 20
4.882148
 30
0.000000
  0
SEQEND
  8
LAYER-1
  0
POLYLINE
  8
LAYER-1
 66
  1
 70
  1
 62
  7
  0
VERTEX
  8
LAYER-1
 10
0.434916
 20
5.097651
 30
0.000000
  0
VERTEX
  8
LAYER-1
 10
0.517695
 20
5.097651
 30
0.000000
  0
VERTEX
  8
LAYER-1
 10
0.517695
 20
4.882148
 30
0.000000
  0
VERTEX
  8
LAYER-1
 10
0.434916
 20
4.882148
 30
0.000000
  0
SEQEND
  8
LAYER-1
  0
POLYLINE
  8
LAYER-1
 66
  1
 70
  1
 62
  7
  0
VERTEX
  8
LAYER-1
 10
0.578881
 20
5.097651
 30
0.000000
  0
VERTEX
  8
LAYER-1
 10
0.661661
 20
5.097651
 30
0.000000
  0
VERTEX
  8
LAYER-1
 10
0.661661
 20
4.882148
 30
0.000000
  0
VERTEX
  8
LAYER-1
 10
0.578881
 20
4.882148
 30
0.000000
  0
SEQEND
  8
LAYER-1
  0
POLYLINE
  8
LAYER-1
 66
  1
 70
  1
 62
  7
  0
VERTEX
  8
LAYER-1
 10
0.722848
 20
5.097651
 30
0.000000
  0
VERTEX
  8
LAYER-1
 10
0.805627
 20
5.097651
 30
0.000000
  0
VERTEX
  8
LAYER-1
 10
0.805627
 20
4.882148
 30
0.000000
  0
VERTEX
  8
LAYER-1
 10
0.722848
 20
4.882148
 30
0.000000
  0
SEQEND
  8
LAYER-1
  0
POLYLINE
  8
LAYER-1
 66
  1
 70
  1
 62
  7
  0
VERTEX
  8
LAYER-1
 10
0.866814
 20
5.097651
 30
0.000000
  0
VERTEX
  8
LAYER-1
 10
0.949594
 20
5.097651
 30
0.000000
  0
VERTEX
  8
LAYER-1
 10
0.949594
 20
4.882148
 30
0.000000
  0
VERTEX
  8
LAYER-1
 10
0.866814
 20
4.882148
 30
0.000000
  0
SEQEND
  8
LAYER-1
  0
POLYLINE
  8
LAYER-1
 66
  1
 70
  1
 62
  7
  0
VERTEX
  8
LAYER-1
 10
0.075117
 20
4.451175
 30
0.000000
  0
VERTEX
  8
LAYER-1
 10
0.157896
 20
4.451175
 30
0.000000
  0
VERTEX
  8
LAYER-1
 10
0.157896
 20
4.235673
 30
0.000000
  0
VERTEX
  8
LAYER-1
 10
0.075117
 20
4.235673
 30
0.000000
  0
SEQEND
  8
LAYER-1
  0
POLYLINE
  8
LAYER-1
 66
  1
 70
  1
 62
  7
  0
VERTEX
  8
LAYER-1
 10
0.219083
 20
4.451175
 30
0.000000
  0
VERTEX
  8
LAYER-1
 10
0.301864
 20
4.451175
 30
0.000000
  0
VERTEX
  8
LAYER-1
 10
0.301864
 20
4.235673
 30
0.000000
  0
VERTEX
  8
LAYER-1
 10
0.219083
 20
4.235673
 30
0.000000
  0
SEQEND
  8
LAYER-1
  0
POLYLINE
  8
LAYER-1
 66
  1
 70
  1
 62
  7
  0
VERTEX
  8
LAYER-1
 10
0.363050
 20
4.451175
 30
0.000000
  0
VERTEX
  8
LAYER-1
 10
0.445828
 20
4.451175
 30
0.000000
  0
VERTEX
  8
LAYER-1
 10
0.445828
 20
4.235673
 30
0.000000
  0
VERTEX
  8
LAYER-1
 10
0.363050
 20
4.235673
 30
0.000000
  0
SEQEND
  8
LAYER-1
  0
POLYLINE
  8
LAYER-1
 66
  1
 70
  1
 62
  7
  0
VERTEX
  8
LAYER-1
 10
0.507016
 20
4.451175
 30
0.000000
  0
VERTEX
  8
LAYER-1
 10
0.589794
 20
4.451175
 30
0.000000
  0
VERTEX
  8
LAYER-1
 10
0.589794
 20
4.235673
 30
0.000000
  0
VERTEX
  8
LAYER-1
 10
0.507016
 20
4.235673
 30
0.000000
  0
SEQEND
  8
LAYER-1
  0
POLYLINE
  8
LAYER-1
 66
  1
 70
  1
 62
  7
  0
VERTEX
  8
LAYER-1
 10
0.650981
 20
4.451175
 30
0.000000
  0
VERTEX
  8
LAYER-1
 10
0.733761
 20
4.451175
 30
0.000000
  0
VERTEX
  8
LAYER-1
 10
0.733761
 20
4.235673
 30
0.000000
  0
VERTEX
  8
LAYER-1
 10
0.650981
 20
4.235673
 30
0.000000
  0
SEQEND
  8
LAYER-1
  0
POLYLINE
  8
LAYER-1
 66
  1
 70
  1
 62
  7
  0
VERTEX
  8
LAYER-1
 10
0.794948
 20
4.451175
 30
0.000000
  0
VERTEX
  8
LAYER-1
 10
0.877727
 20
4.451175
 30
0.000000
  0
VERTEX
  8
LAYER-1
 10
0.877727
 20
4.235673
 30
0.000000
  0
VERTEX
  8
LAYER-1
 10
0.794948
 20
4.235673
 30
0.000000
  0
SEQEND
  8
LAYER-1
  0
POLYLINE
  8
LAYER-1
 66
  1
 70
  1
 62
  7
  0
VERTEX
  8
LAYER-1
 10
0.938914
 20
4.451175
 30
0.000000
  0
VERTEX
  8
LAYER-1
 10
1.021693
 20
4.451175
 30
0.000000
  0
VERTEX
  8
LAYER-1
 10
1.021693
 20
4.235673
 30
0.000000
  0
VERTEX
  8
LAYER-1
 10
0.938914
 20
4.235673
 30
0.000000
  0
SEQEND
  8
LAYER-1
  0
POLYLINE
  8
LAYER-1
 66
  1
 70
  1
 62
  7
  0
VERTEX
  8
LAYER-1
 10
0.003017
 20
4.666668
 30
0.000000
  0
VERTEX
  8
LAYER-1
 10
0.085796
 20
4.666668
 30
0.000000
  0
VERTEX
  8
LAYER-1
 10
0.085796
 20
4.451164
 30
0.000000
  0
VERTEX
  8
LAYER-1
 10
0.003017
 20
4.451164
 30
0.000000
  0
SEQEND
  8
LAYER-1
  0
POLYLINE
  8
LAYER-1
 66
  1
 70
  1
 62
  7
  0
VERTEX
  8
LAYER-1
 10
0.146983
 20
4.666668
 30
0.000000
  0
VERTEX
  8
LAYER-1
 10
0.229762
 20
4.666668
 30
0.000000
  0
VERTEX
  8
LAYER-1
 10
0.229762
 20
4.451164
 30
0.000000
  0
VERTEX
  8
LAYER-1
 10
0.146983
 20
4.451164
 30
0.000000
  0
SEQEND
  8
LAYER-1
  0
POLYLINE
  8
LAYER-1
 66
  1
 70
  1
 62
  7
  0
VERTEX
  8
LAYER-1
 10
0.290949
 20
4.666668
 30
0.000000
  0
VERTEX
  8
LAYER-1
 10
0.373729
 20
4.666668
 30
0.000000
  0
VERTEX
  8
LAYER-1
 10
0.373729
 20
4.451164
 30
0.000000
  0
VERTEX
  8
LAYER-1
 10
0.290949
 20
4.451164
 30
0.000000
  0
SEQEND
  8
LAYER-1
  0
POLYLINE
  8
LAYER-1
 66
  1
 70
  1
 62
  7
  0
VERTEX
  8
LAYER-1
 10
0.434916
 20
4.666668
 30
0.000000
  0
VERTEX
  8
LAYER-1
 10
0.517695
 20
4.666668
 30
0.000000
  0
VERTEX
  8
LAYER-1
 10
0.517695
 20
4.451164
 30
0.000000
  0
VERTEX
  8
LAYER-1
 10
0.434916
 20
4.451164
 30
0.000000
  0
SEQEND
  8
LAYER-1
  0
POLYLINE
  8
LAYER-1
 66
  1
 70
  1
 62
  7
  0
VERTEX
  8
LAYER-1
 10
0.578881
 20
4.666668
 30
0.000000
  0
VERTEX
  8
LAYER-1
 10
0.661661
 20
4.666668
 30
0.000000
  0
VERTEX
  8
LAYER-1
 10
0.661661
 20
4.451164
 30
0.000000
  0
VERTEX
  8
LAYER-1
 10
0.578881
 20
4.451164
 30
0.000000
  0
SEQEND
  8
LAYER-1
  0
POLYLINE
  8
LAYER-1
 66
  1
 70
  1
 62
  7
  0
VERTEX
  8
LAYER-1
 10
0.722848
 20
4.666668
 30
0.000000
  0
VERTEX
  8
LAYER-1
 10
0.805627
 20
4.666668
 30
0.000000
  0
VERTEX
  8
LAYER-1
 10
0.805627
 20
4.451164
 30
0.000000
  0
VERTEX
  8
LAYER-1
 10
0.722848
 20
4.451164
 30
0.000000
  0
SEQEND
  8
LAYER-1
  0
POLYLINE
  8
LAYER-1
 66
  1
 70
  1
 62
  7
  0
VERTEX
  8
LAYER-1
 10
0.866814
 20
4.666668
 30
0.000000
  0
VERTEX
  8
LAYER-1
 10
0.949594
 20
4.666668
 30
0.000000
  0
VERTEX
  8
LAYER-1
 10
0.949594
 20
4.451164
 30
0.000000
  0
VERTEX
  8
LAYER-1
 10
0.866814
 20
4.451164
 30
0.000000
  0
SEQEND
  8
LAYER-1
  0
POLYLINE
  8
LAYER-1
 66
  1
 70
  1
 62
  7
  0
VERTEX
  8
LAYER-1
 10
0.075117
 20
4.020195
 30
0.000000
  0
VERTEX
  8
LAYER-1
 10
0.157896
 20
4.020195
 30
0.000000
  0
VERTEX
  8
LAYER-1
 10
0.157896
 20
3.804693
 30
0.000000
  0
VERTEX
  8
LAYER-1
 10
0.075117
 20
3.804693
 30
0.000000
  0
SEQEND
  8
LAYER-1
  0
POLYLINE
  8
LAYER-1
 66
  1
 70
  1
 62
  7
  0
VERTEX
  8
LAYER-1
 10
0.219083
 20
4.020195
 30
0.000000
  0
VERTEX
  8
LAYER-1
 10
0.301864
 20
4.020195
 30
0.000000
  0
VERTEX
  8
LAYER-1
 10
0.301864
 20
3.804693
 30
0.000000
  0
VERTEX
  8
LAYER-1
 10
0.219083
 20
3.804693
 30
0.000000
  0
SEQEND
  8
LAYER-1
  0
POLYLINE
  8
LAYER-1
 66
  1
 70
  1
 62
  7
  0
VERTEX
  8
LAYER-1
 10
0.363050
 20
4.020195
 30
0.000000
  0
VERTEX
  8
LAYER-1
 10
0.445828
 20
4.020195
 30
0.000000
  0
VERTEX
  8
LAYER-1
 10
0.445828
 20
3.804693
 30
0.000000
  0
VERTEX
  8
LAYER-1
 10
0.363050
 20
3.804693
 30
0.000000
  0
SEQEND
  8
LAYER-1
  0
POLYLINE
  8
LAYER-1
 66
  1
 70
  1
 62
  7
  0
VERTEX
  8
LAYER-1
 10
0.507016
 20
4.020195
 30
0.000000
  0
VERTEX
  8
LAYER-1
 10
0.589794
 20
4.020195
 30
0.000000
  0
VERTEX
  8
LAYER-1
 10
0.589794
 20
3.804693
 30
0.000000
  0
VERTEX
  8
LAYER-1
 10
0.507016
 20
3.804693
 30
0.000000
  0
SEQEND
  8
LAYER-1
  0
POLYLINE
  8
LAYER-1
 66
  1
 70
  1
 62
  7
  0
VERTEX
  8
LAYER-1
 10
0.650981
 20
4.020195
 30
0.000000
  0
VERTEX
  8
LAYER-1
 10
0.733761
 20
4.020195
 30
0.000000
  0
VERTEX
  8
LAYER-1
 10
0.733761
 20
3.804693
 30
0.000000
  0
VERTEX
  8
LAYER-1
 10
0.650981
 20
3.804693
 30
0.000000
  0
SEQEND
  8
LAYER-1
  0
POLYLINE
  8
LAYER-1
 66
  1
 70
  1
 62
  7
  0
VERTEX
  8
LAYER-1
 10
0.794948
 20
4.020195
 30
0.000000
  0
VERTEX
  8
LAYER-1
 10
0.877727
 20
4.020195
 30
0.000000
  0
VERTEX
  8
LAYER-1
 10
0.877727
 20
3.804693
 30
0.000000
  0
VERTEX
  8
LAYER-1
 10
0.794948
 20
3.804693
 30
0.000000
  0
SEQEND
  8
LAYER-1
  0
POLYLINE
  8
LAYER-1
 66
  1
 70
  1
 62
  7
  0
VERTEX
  8
LAYER-1
 10
0.938914
 20
4.020195
 30
0.000000
  0
VERTEX
  8
LAYER-1
 10
1.021693
 20
4.020195
 30
0.000000
  0
VERTEX
  8
LAYER-1
 10
1.021693
 20
3.804693
 30
0.000000
  0
VERTEX
  8
LAYER-1
 10
0.938914
 20
3.804693
 30
0.000000
  0
SEQEND
  8
LAYER-1
  0
POLYLINE
  8
LAYER-1
 66
  1
 70
  1
 62
  7
  0
VERTEX
  8
LAYER-1
 10
0.003017
 20
4.235685
 30
0.000000
  0
VERTEX
  8
LAYER-1
 10
0.085796
 20
4.235685
 30
0.000000
  0
VERTEX
  8
LAYER-1
 10
0.085796
 20
4.020182
 30
0.000000
  0
VERTEX
  8
LAYER-1
 10
0.003017
 20
4.020182
 30
0.000000
  0
SEQEND
  8
LAYER-1
  0
POLYLINE
  8
LAYER-1
 66
  1
 70
  1
 62
  7
  0
VERTEX
  8
LAYER-1
 10
0.146983
 20
4.235685
 30
0.000000
  0
VERTEX
  8
LAYER-1
 10
0.229762
 20
4.235685
 30
0.000000
  0
VERTEX
  8
LAYER-1
 10
0.229762
 20
4.020182
 30
0.000000
  0
VERTEX
  8
LAYER-1
 10
0.146983
 20
4.020182
 30
0.000000
  0
SEQEND
  8
LAYER-1
  0
POLYLINE
  8
LAYER-1
 66
  1
 70
  1
 62
  7
  0
VERTEX
  8
LAYER-1
 10
0.290949
 20
4.235685
 30
0.000000
  0
VERTEX
  8
LAYER-1
 10
0.373729
 20
4.235685
 30
0.000000
  0
VERTEX
  8
LAYER-1
 10
0.373729
 20
4.020182
 30
0.000000
  0
VERTEX
  8
LAYER-1
 10
0.290949
 20
4.020182
 30
0.000000
  0
SEQEND
  8
LAYER-1
  0
POLYLINE
  8
LAYER-1
 66
  1
 70
  1
 62
  7
  0
VERTEX
  8
LAYER-1
 10
0.434916
 20
4.235685
 30
0.000000
  0
VERTEX
  8
LAYER-1
 10
0.517695
 20
4.235685
 30
0.000000
  0
VERTEX
  8
LAYER-1
 10
0.517695
 20
4.020182
 30
0.000000
  0
VERTEX
  8
LAYER-1
 10
0.434916
 20
4.020182
 30
0.000000
  0
SEQEND
  8
LAYER-1
  0
POLYLINE
  8
LAYER-1
 66
  1
 70
  1
 62
  7
  0
VERTEX
  8
LAYER-1
 10
0.578881
 20
4.235685
 30
0.000000
  0
VERTEX
  8
LAYER-1
 10
0.661661
 20
4.235685
 30
0.000000
  0
VERTEX
  8
LAYER-1
 10
0.661661
 20
4.020182
 30
0.000000
  0
VERTEX
  8
LAYER-1
 10
0.578881
 20
4.020182
 30
0.000000
  0
SEQEND
  8
LAYER-1
  0
POLYLINE
  8
LAYER-1
 66
  1
 70
  1
 62
  7
  0
VERTEX
  8
LAYER-1
 10
0.722848
 20
4.235685
 30
0.000000
  0
VERTEX
  8
LAYER-1
 10
0.805627
 20
4.235685
 30
0.000000
  0
VERTEX
  8
LAYER-1
 10
0.805627
 20
4.020182
 30
0.000000
  0
VERTEX
  8
LAYER-1
 10
0.722848
 20
4.020182
 30
0.000000
  0
SEQEND
  8
LAYER-1
  0
POLYLINE
  8
LAYER-1
 66
  1
 70
  1
 62
  7
  0
VERTEX
  8
LAYER-1
 10
0.866814
 20
4.235685
 30
0.000000
  0
VERTEX
  8
LAYER-1
 10
0.949594
 20
4.235685
 30
0.000000
  0
VERTEX
  8
LAYER-1
 10
0.949594
 20
4.020182
 30
0.000000
  0
VERTEX
  8
LAYER-1
 10
0.866814
 20
4.020182
 30
0.000000
  0
SEQEND
  8
LAYER-1
  0
POLYLINE
  8
LAYER-1
 66
  1
 70
  1
 62
  7
  0
VERTEX
  8
LAYER-1
 10
0.003017
 20
3.804705
 30
0.000000
  0
VERTEX
  8
LAYER-1
 10
0.085796
 20
3.804705
 30
0.000000
  0
VERTEX
  8
LAYER-1
 10
0.085796
 20
3.589203
 30
0.000000
  0
VERTEX
  8
LAYER-1
 10
0.003017
 20
3.589203
 30
0.000000
  0
SEQEND
  8
LAYER-1
  0
POLYLINE
  8
LAYER-1
 66
  1
 70
  1
 62
  7
  0
VERTEX
  8
LAYER-1
 10
0.146983
 20
3.804705
 30
0.000000
  0
VERTEX
  8
LAYER-1
 10
0.229762
 20
3.804705
 30
0.000000
  0
VERTEX
  8
LAYER-1
 10
0.229762
 20
3.589203
 30
0.000000
  0
VERTEX
  8
LAYER-1
 10
0.146983
 20
3.589203
 30
0.000000
  0
SEQEND
  8
LAYER-1
  0
POLYLINE
  8
LAYER-1
 66
  1
 70
  1
 62
  7
  0
VERTEX
  8
LAYER-1
 10
0.290949
 20
3.804705
 30
0.000000
  0
VERTEX
  8
LAYER-1
 10
0.373729
 20
3.804705
 30
0.000000
  0
VERTEX
  8
LAYER-1
 10
0.373729
 20
3.589203
 30
0.000000
  0
VERTEX
  8
LAYER-1
 10
0.290949
 20
3.589203
 30
0.000000
  0
SEQEND
  8
LAYER-1
  0
POLYLINE
  8
LAYER-1
 66
  1
 70
  1
 62
  7
  0
VERTEX
  8
LAYER-1
 10
0.434916
 20
3.804705
 30
0.000000
  0
VERTEX
  8
LAYER-1
 10
0.517695
 20
3.804705
 30
0.000000
  0
VERTEX
  8
LAYER-1
 10
0.517695
 20
3.589203
 30
0.000000
  0
VERTEX
  8
LAYER-1
 10
0.434916
 20
3.589203
 30
0.000000
  0
SEQEND
  8
LAYER-1
  0
POLYLINE
  8
LAYER-1
 66
  1
 70
  1
 62
  7
  0
VERTEX
  8
LAYER-1
 10
0.578881
 20
3.804705
 30
0.000000
  0
VERTEX
  8
LAYER-1
 10
0.661661
 20
3.804705
 30
0.000000
  0
VERTEX
  8
LAYER-1
 10
0.661661
 20
3.589203
 30
0.000000
  0
VERTEX
  8
LAYER-1
 10
0.578881
 20
3.589203
 30
0.000000
  0
SEQEND
  8
LAYER-1
  0
POLYLINE
  8
LAYER-1
 66
  1
 70
  1
 62
  7
  0
VERTEX
  8
LAYER-1
 10
0.722848
 20
3.804705
 30
0.000000
  0
VERTEX
  8
LAYER-1
 10
0.805627
 20
3.804705
 30
0.000000
  0
VERTEX
  8
LAYER-1
 10
0.805627
 20
3.589203
 30
0.000000
  0
VERTEX
  8
LAYER-1
 10
0.722848
 20
3.589203
 30
0.000000
  0
SEQEND
  8
LAYER-1
  0
POLYLINE
  8
LAYER-1
 66
  1
 70
  1
 62
  7
  0
VERTEX
  8
LAYER-1
 10
0.866814
 20
3.804705
 30
0.000000
  0
VERTEX
  8
LAYER-1
 10
0.949594
 20
3.804705
 30
0.000000
  0
VERTEX
  8
LAYER-1
 10
0.949594
 20
3.589203
 30
0.000000
  0
VERTEX
  8
LAYER-1
 10
0.866814
 20
3.589203
 30
0.000000
  0
SEQEND
  8
LAYER-1
  0
POLYLINE
  8
LAYER-1
 66
  1
 70
  0
 62
  7
 10
1.010902
 20
4.882029
 30
0.000000
  0
VERTEX
  8
LAYER-1
 10
1.010902
 20
4.882029
 30
0.000000
  0
VERTEX
  8
LAYER-1
 10
1.010902
 20
4.666606
 30
0.000000
  0
SEQEND
  8
LAYER-1
  0
POLYLINE
  8
LAYER-1
 66
  1
 70
  0
 62
  7
 10
0.013899
 20
4.666328
 30
0.000000
  0
VERTEX
  8
LAYER-1
 10
0.013899
 20
4.666328
 30
0.000000
  0
VERTEX
  8
LAYER-1
 10
0.013889
 20
4.451043
 30
0.000000
  0
SEQEND
  8
LAYER-1
  0
POLYLINE
  8
LAYER-1
 66
  1
 70
  0
 62
  7
 10
1.010902
 20
4.451043
 30
0.000000
  0
VERTEX
  8
LAYER-1
 10
1.010902
 20
4.451043
 30
0.000000
  0
VERTEX
  8
LAYER-1
 10
1.010902
 20
4.235624
 30
0.000000
  0
SEQEND
  8
LAYER-1
  0
POLYLINE
  8
LAYER-1
 66
  1
 70
  0
 62
  7
 10
0.013899
 20
4.235346
 30
0.000000
  0
VERTEX
  8
LAYER-1
 10
0.013899
 20
4.235346
 30
0.000000
  0
VERTEX
  8
LAYER-1
 10
0.013889
 20
4.020063
 30
0.000000
  0
SEQEND
  8
LAYER-1
  0
POLYLINE
  8
LAYER-1
 66
  1
 70
  0
 62
  7
 10
1.010902
 20
4.020063
 30
0.000000
  0
VERTEX
  8
LAYER-1
 10
1.010902
 20
4.020063
 30
0.000000
  0
VERTEX
  8
LAYER-1
 10
1.010902
 20
3.804644
 30
0.000000
  0
SEQEND
  8
LAYER-1
  0
POLYLINE
  8
LAYER-1
 66
  1
 70
  1
 62
  7
  0
VERTEX
  8
LAYER-1
 10
0.003007
 20
5.193078
 30
0.000000
  0
VERTEX
  8
LAYER-1
 10
0.147112
 20
5.193078
 30
0.000000
  0
VERTEX
  8
LAYER-1
 10
0.147112
 20
5.097492
 30
0.000000
  0
VERTEX
  8
LAYER-1
 10
0.003007
 20
5.097492
 30
0.000000
  0
SEQEND
  8
LAYER-1
  0
POLYLINE
  8
LAYER-1
 66
  1
 70
  1
 62
  7
  0
VERTEX
  8
LAYER-1
 10
0.147050
 20
5.193078
 30
0.000000
  0
VERTEX
  8
LAYER-1
 10
0.291156
 20
5.193078
 30
0.000000
  0
VERTEX
  8
LAYER-1
 10
0.291156
 20
5.097492
 30
0.000000
  0
VERTEX
  8
LAYER-1
 10
0.147050
 20
5.097492
 30
0.000000
  0
SEQEND
  8
LAYER-1
  0
POLYLINE
  8
LAYER-1
 66
  1
 70
  1
 62
  7
  0
VERTEX
  8
LAYER-1
 10
0.290953
 20
5.193078
 30
0.000000
  0
VERTEX
  8
LAYER-1
 10
0.434917
 20
5.193078
 30
0.000000
  0
VERTEX
  8
LAYER-1
 10
0.434917
 20
5.097492
 30
0.000000
  0
VERTEX
  8
LAYER-1
 10
0.290953
 20
5.097492
 30
0.000000
  0
SEQEND
  8
LAYER-1
  0
POLYLINE
  8
LAYER-1
 66
  1
 70
  1
 62
  7
  0
VERTEX
  8
LAYER-1
 10
0.434996
 20
5.193078
 30
0.000000
  0
VERTEX
  8
LAYER-1
 10
0.578960
 20
5.193078
 30
0.000000
  0
VERTEX
  8
LAYER-1
 10
0.578960
 20
5.097492
 30
0.000000
  0
VERTEX
  8
LAYER-1
 10
0.434996
 20
5.097492
 30
0.000000
  0
SEQEND
  8
LAYER-1
  0
POLYLINE
  8
LAYER-1
 66
  1
 70
  1
 62
  7
  0
VERTEX
  8
LAYER-1
 10
0.579038
 20
5.193078
 30
0.000000
  0
VERTEX
  8
LAYER-1
 10
0.722861
 20
5.193078
 30
0.000000
  0
VERTEX
  8
LAYER-1
 10
0.722861
 20
5.097492
 30
0.000000
  0
VERTEX
  8
LAYER-1
 10
0.579038
 20
5.097492
 30
0.000000
  0
SEQEND
  8
LAYER-1
  0
POLYLINE
  8
LAYER-1
 66
  1
 70
  1
 62
  7
  0
VERTEX
  8
LAYER-1
 10
0.722801
 20
5.193078
 30
0.000000
  0
VERTEX
  8
LAYER-1
 10
0.866904
 20
5.193078
 30
0.000000
  0
VERTEX
  8
LAYER-1
 10
0.866904
 20
5.097492
 30
0.000000
  0
VERTEX
  8
LAYER-1
 10
0.722801
 20
5.097492
 30
0.000000
  0
SEQEND
  8
LAYER-1
  0
POLYLINE
  8
LAYER-1
 66
  1
 70
  1
 62
  7
  0
VERTEX
  8
LAYER-1
 10
0.866843
 20
5.193078
 30
0.000000
  0
VERTEX
  8
LAYER-1
 10
1.021790
 20
5.193078
 30
0.000000
  0
VERTEX
  8
LAYER-1
 10
1.021790
 20
5.097492
 30
0.000000
  0
VERTEX
  8
LAYER-1
 10
0.866843
 20
5.097492
 30
0.000000
  0
SEQEND
  8
LAYER-1
  0
POLYLINE
  8
LAYER-1
 66
  1
 70
  0
 62
  7
 10
0.013889
 20
5.193137
 30
0.000000
  0
VERTEX
  8
LAYER-1
 10
0.013889
 20
5.193137
 30
0.000000
  0
VERTEX
  8
LAYER-1
 10
0.013889
 20
4.882151
 30
0.000000
  0
SEQEND
  8
LAYER-1
  0
POLYLINE
  8
LAYER-1
 66
  1
 70
  1
 62
  7
  0
VERTEX
  8
LAYER-1
 10
0.003007
 20
3.589166
 30
0.000000
  0
VERTEX
  8
LAYER-1
 10
0.147112
 20
3.589166
 30
0.000000
  0
VERTEX
  8
LAYER-1
 10
0.147112
 20
3.493580
 30
0.000000
  0
VERTEX
  8
LAYER-1
 10
0.003007
 20
3.493580
 30
0.000000
  0
SEQEND
  8
LAYER-1
  0
POLYLINE
  8
LAYER-1
 66
  1
 70
  1
 62
  7
  0
VERTEX
  8
LAYER-1
 10
0.147050
 20
3.589166
 30
0.000000
  0
VERTEX
  8
LAYER-1
 10
0.291156
 20
3.589166
 30
0.000000
  0
VERTEX
  8
LAYER-1
 10
0.291156
 20
3.493580
 30
0.000000
  0
VERTEX
  8
LAYER-1
 10
0.147050
 20
3.493580
 30
0.000000
  0
SEQEND
  8
LAYER-1
  0
POLYLINE
  8
LAYER-1
 66
  1
 70
  1
 62
  7
  0
VERTEX
  8
LAYER-1
 10
0.290953
 20
3.589166
 30
0.000000
  0
VERTEX
  8
LAYER-1
 10
0.434917
 20
3.589166
 30
0.000000
  0
VERTEX
  8
LAYER-1
 10
0.434917
 20
3.493580
 30
0.000000
  0
VERTEX
  8
LAYER-1
 10
0.290953
 20
3.493580
 30
0.000000
  0
SEQEND
  8
LAYER-1
  0
POLYLINE
  8
LAYER-1
 66
  1
 70
  1
 62
  7
  0
VERTEX
  8
LAYER-1
 10
0.434996
 20
3.589166
 30
0.000000
  0
VERTEX
  8
LAYER-1
 10
0.578960
 20
3.589166
 30
0.000000
  0
VERTEX
  8
LAYER-1
 10
0.578960
 20
3.493580
 30
0.000000
  0
VERTEX
  8
LAYER-1
 10
0.434996
 20
3.493580
 30
0.000000
  0
SEQEND
  8
LAYER-1
  0
POLYLINE
  8
LAYER-1
 66
  1
 70
  1
 62
  7
  0
VERTEX
  8
LAYER-1
 10
0.579038
 20
3.589166
 30
0.000000
  0
VERTEX
  8
LAYER-1
 10
0.722861
 20
3.589166
 30
0.000000
  0
VERTEX
  8
LAYER-1
 10
0.722861
 20
3.493580
 30
0.000000
  0
VERTEX
  8
LAYER-1
 10
0.579038
 20
3.493580
 30
0.000000
  0
SEQEND
  8
LAYER-1
  0
POLYLINE
  8
LAYER-1
 66
  1
 70
  1
 62
  7
  0
VERTEX
  8
LAYER-1
 10
0.722801
 20
3.589166
 30
0.000000
  0
VERTEX
  8
LAYER-1
 10
0.866904
 20
3.589166
 30
0.000000
  0
VERTEX
  8
LAYER-1
 10
0.866904
 20
3.493580
 30
0.000000
  0
VERTEX
  8
LAYER-1
 10
0.722801
 20
3.493580
 30
0.000000
  0
SEQEND
  8
LAYER-1
  0
POLYLINE
  8
LAYER-1
 66
  1
 70
  1
 62
  7
  0
VERTEX
  8
LAYER-1
 10
0.866843
 20
3.589166
 30
0.000000
  0
VERTEX
  8
LAYER-1
 10
1.021790
 20
3.589166
 30
0.000000
  0
VERTEX
  8
LAYER-1
 10
1.021790
 20
3.493580
 30
0.000000
  0
VERTEX
  8
LAYER-1
 10
0.866843
 20
3.493580
 30
0.000000
  0
SEQEND
  8
LAYER-1
  0
POLYLINE
  8
LAYER-1
 66
  1
 70
  0
 62
  7
 10
0.075083
 20
5.193089
 30
0.000000
  0
VERTEX
  8
LAYER-1
 10
0.075083
 20
5.193089
 30
0.000000
  0
VERTEX
  8
LAYER-1
 10
0.075083
 20
3.493798
 30
0.000000
  0
SEQEND
  8
LAYER-1
  0
POLYLINE
  8
LAYER-1
 66
  1
 70
  0
 62
  7
 10
0.085883
 20
5.193089
 30
0.000000
  0
VERTEX
  8
LAYER-1
 10
0.085883
 20
5.193089
 30
0.000000
  0
VERTEX
  8
LAYER-1
 10
0.085883
 20
3.493798
 30
0.000000
  0
SEQEND
  8
LAYER-1
  0
POLYLINE
  8
LAYER-1
 66
  1
 70
  0
 62
  7
 10
0.147066
 20
5.193089
 30
0.000000
  0
VERTEX
  8
LAYER-1
 10
0.147066
 20
5.193089
 30
0.000000
  0
VERTEX
  8
LAYER-1
 10
0.147066
 20
3.493798
 30
0.000000
  0
SEQEND
  8
LAYER-1
  0
POLYLINE
  8
LAYER-1
 66
  1
 70
  0
 62
  7
 10
0.157867
 20
5.193089
 30
0.000000
  0
VERTEX
  8
LAYER-1
 10
0.157867
 20
5.193089
 30
0.000000
  0
VERTEX
  8
LAYER-1
 10
0.157867
 20
3.493798
 30
0.000000
  0
SEQEND
  8
LAYER-1
  0
POLYLINE
  8
LAYER-1
 66
  1
 70
  0
 62
  7
 10
0.219048
 20
5.193089
 30
0.000000
  0
VERTEX
  8
LAYER-1
 10
0.219048
 20
5.193089
 30
0.000000
  0
VERTEX
  8
LAYER-1
 10
0.219048
 20
3.493798
 30
0.000000
  0
SEQEND
  8
LAYER-1
  0
POLYLINE
  8
LAYER-1
 66
  1
 70
  0
 62
  7
 10
0.229850
 20
5.193089
 30
0.000000
  0
VERTEX
  8
LAYER-1
 10
0.229850
 20
5.193089
 30
0.000000
  0
VERTEX
  8
LAYER-1
 10
0.229850
 20
3.493798
 30
0.000000
  0
SEQEND
  8
LAYER-1
  0
POLYLINE
  8
LAYER-1
 66
  1
 70
  0
 62
  7
 10
0.363016
 20
5.193089
 30
0.000000
  0
VERTEX
  8
LAYER-1
 10
0.363016
 20
5.193089
 30
0.000000
  0
VERTEX
  8
LAYER-1
 10
0.363016
 20
3.493798
 30
0.000000
  0
SEQEND
  8
LAYER-1
  0
POLYLINE
  8
LAYER-1
 66
  1
 70
  0
 62
  7
 10
0.373816
 20
5.193089
 30
0.000000
  0
VERTEX
  8
LAYER-1
 10
0.373816
 20
5.193089
 30
0.000000
  0
VERTEX
  8
LAYER-1
 10
0.373816
 20
3.493798
 30
0.000000
  0
SEQEND
  8
LAYER-1
  0
POLYLINE
  8
LAYER-1
 66
  1
 70
  0
 62
  7
 10
0.434998
 20
5.193089
 30
0.000000
  0
VERTEX
  8
LAYER-1
 10
0.434998
 20
5.193089
 30
0.000000
  0
VERTEX
  8
LAYER-1
 10
0.434998
 20
3.493798
 30
0.000000
  0
SEQEND
  8
LAYER-1
  0
POLYLINE
  8
LAYER-1
 66
  1
 70
  0
 62
  7
 10
0.445799
 20
5.193089
 30
0.000000
  0
VERTEX
  8
LAYER-1
 10
0.445799
 20
5.193089
 30
0.000000
  0
VERTEX
  8
LAYER-1
 10
0.445799
 20
3.493798
 30
0.000000
  0
SEQEND
  8
LAYER-1
  0
POLYLINE
  8
LAYER-1
 66
  1
 70
  0
 62
  7
 10
0.506981
 20
5.193089
 30
0.000000
  0
VERTEX
  8
LAYER-1
 10
0.506981
 20
5.193089
 30
0.000000
  0
VERTEX
  8
LAYER-1
 10
0.506981
 20
3.493798
 30
0.000000
  0
SEQEND
  8
LAYER-1
  0
POLYLINE
  8
LAYER-1
 66
  1
 70
  0
 62
  7
 10
0.517781
 20
5.193089
 30
0.000000
  0
VERTEX
  8
LAYER-1
 10
0.517781
 20
5.193089
 30
0.000000
  0
VERTEX
  8
LAYER-1
 10
0.517781
 20
3.493798
 30
0.000000
  0
SEQEND
  8
LAYER-1
  0
POLYLINE
  8
LAYER-1
 66
  1
 70
  0
 62
  7
 10
0.578964
 20
5.193089
 30
0.000000
  0
VERTEX
  8
LAYER-1
 10
0.578964
 20
5.193089
 30
0.000000
  0
VERTEX
  8
LAYER-1
 10
0.578964
 20
3.493798
 30
0.000000
  0
SEQEND
  8
LAYER-1
  0
POLYLINE
  8
LAYER-1
 66
  1
 70
  0
 62
  7
 10
0.589764
 20
5.193089
 30
0.000000
  0
VERTEX
  8
LAYER-1
 10
0.589764
 20
5.193089
 30
0.000000
  0
VERTEX
  8
LAYER-1
 10
0.589764
 20
3.493798
 30
0.000000
  0
SEQEND
  8
LAYER-1
  0
POLYLINE
  8
LAYER-1
 66
  1
 70
  0
 62
  7
 10
0.650947
 20
5.193089
 30
0.000000
  0
VERTEX
  8
LAYER-1
 10
0.650947
 20
5.193089
 30
0.000000
  0
VERTEX
  8
LAYER-1
 10
0.650947
 20
3.493798
 30
0.000000
  0
SEQEND
  8
LAYER-1
  0
POLYLINE
  8
LAYER-1
 66
  1
 70
  0
 62
  7
 10
0.661747
 20
5.193089
 30
0.000000
  0
VERTEX
  8
LAYER-1
 10
0.661747
 20
5.193089
 30
0.000000
  0
VERTEX
  8
LAYER-1
 10
0.661747
 20
3.493798
 30
0.000000
  0
SEQEND
  8
LAYER-1
  0
POLYLINE
  8
LAYER-1
 66
  1
 70
  0
 62
  7
 10
0.794915
 20
5.193089
 30
0.000000
  0
VERTEX
  8
LAYER-1
 10
0.794915
 20
5.193089
 30
0.000000
  0
VERTEX
  8
LAYER-1
 10
0.794915
 20
3.493798
 30
0.000000
  0
SEQEND
  8
LAYER-1
  0
POLYLINE
  8
LAYER-1
 66
  1
 70
  0
 62
  7
 10
0.805715
 20
5.193089
 30
0.000000
  0
VERTEX
  8
LAYER-1
 10
0.805715
 20
5.193089
 30
0.000000
  0
VERTEX
  8
LAYER-1
 10
0.805715
 20
3.493798
 30
0.000000
  0
SEQEND
  8
LAYER-1
  0
POLYLINE
  8
LAYER-1
 66
  1
 70
  0
 62
  7
 10
0.866896
 20
5.193089
 30
0.000000
  0
VERTEX
  8
LAYER-1
 10
0.866896
 20
5.193089
 30
0.000000
  0
VERTEX
  8
LAYER-1
 10
0.866896
 20
3.493798
 30
0.000000
  0
SEQEND
  8
LAYER-1
  0
POLYLINE
  8
LAYER-1
 66
  1
 70
  0
 62
  7
 10
0.877697
 20
5.193089
 30
0.000000
  0
VERTEX
  8
LAYER-1
 10
0.877697
 20
5.193089
 30
0.000000
  0
VERTEX
  8
LAYER-1
 10
0.877697
 20
3.493798
 30
0.000000
  0
SEQEND
  8
LAYER-1
  0
POLYLINE
  8
LAYER-1
 66
  1
 70
  0
 62
  7
 10
0.938881
 20
5.193089
 30
0.000000
  0
VERTEX
  8
LAYER-1
 10
0.938881
 20
5.193089
 30
0.000000
  0
VERTEX
  8
LAYER-1
 10
0.938881
 20
3.493798
 30
0.000000
  0
SEQEND
  8
LAYER-1
  0
POLYLINE
  8
LAYER-1
 66
  1
 70
  0
 62
  7
 10
0.949681
 20
5.193089
 30
0.000000
  0
VERTEX
  8
LAYER-1
 10
0.949681
 20
5.193089
 30
0.000000
  0
VERTEX
  8
LAYER-1
 10
0.949681
 20
3.493798
 30
0.000000
  0
SEQEND
  8
LAYER-1
  0
POLYLINE
  8
LAYER-1
 66
  1
 70
  0
 62
  7
 10
0.291031
 20
5.193089
 30
0.000000
  0
VERTEX
  8
LAYER-1
 10
0.291031
 20
5.193089
 30
0.000000
  0
VERTEX
  8
LAYER-1
 10
0.291031
 20
3.493570
 30
0.000000
  0
SEQEND
  8
LAYER-1
  0
POLYLINE
  8
LAYER-1
 66
  1
 70
  0
 62
  7
 10
0.301833
 20
5.193089
 30
0.000000
  0
VERTEX
  8
LAYER-1
 10
0.301833
 20
5.193089
 30
0.000000
  0
VERTEX
  8
LAYER-1
 10
0.301833
 20
3.493570
 30
0.000000
  0
SEQEND
  8
LAYER-1
  0
POLYLINE
  8
LAYER-1
 66
  1
 70
  0
 62
  7
 10
0.722932
 20
5.192838
 30
0.000000
  0
VERTEX
  8
LAYER-1
 10
0.722932
 20
5.192838
 30
0.000000
  0
VERTEX
  8
LAYER-1
 10
0.722932
 20
3.493570
 30
0.000000
  0
SEQEND
  8
LAYER-1
  0
POLYLINE
  8
LAYER-1
 66
  1
 70
  0
 62
  7
 10
0.733732
 20
5.192838
 30
0.000000
  0
VERTEX
  8
LAYER-1
 10
0.733732
 20
5.192838
 30
0.000000
  0
VERTEX
  8
LAYER-1
 10
0.733732
 20
3.493570
 30
0.000000
  0
SEQEND
  8
LAYER-1
  0
POLYLINE
  8
LAYER-1
 66
  1
 70
  0
 62
  7
 10
1.010902
 20
5.193284
 30
0.000000
  0
VERTEX
  8
LAYER-1
 10
1.010902
 20
5.193284
 30
0.000000
  0
VERTEX
  8
LAYER-1
 10
1.010902
 20
5.097540
 30
0.000000
  0
SEQEND
  8
LAYER-1
  0
POLYLINE
  8
LAYER-1
 66
  1
 70
  0
 62
  7
 10
0.014030
 20
3.804615
 30
0.000000
  0
VERTEX
  8
LAYER-1
 10
0.014030
 20
3.804615
 30
0.000000
  0
VERTEX
  8
LAYER-1
 10
0.013889
 20
3.493480
 30
0.000000
  0
SEQEND
  8
LAYER-1
  0
POLYLINE
  8
LAYER-1
 66
  1
 70
  0
 62
  7
 10
1.011042
 20
3.589226
 30
0.000000
  0
VERTEX
  8
LAYER-1
 10
1.011042
 20
3.589226
 30
0.000000
  0
VERTEX
  8
LAYER-1
 10
1.010902
 20
3.493630
 30
0.000000
  0
SEQEND
  8
LAYER-1
  0
TEXT
  8
LAYER-1
 62
  0
 10
0.125334
 20
3.291444
 30
0.000000
 40
0.104167
  1
CONCEPT 99
 72
  5
 11
1.083667
 21
3.291444
 31
0.000000
  0
TEXT
  8
LAYER-1
 62
  0
 10
0.292000
 20
3.221999
 30
0.000000
 40
0.083333
  1
(AjourÄ)
 72
  5
 11
0.750334
 21
3.221999
 31
0.000000
  0
POLYLINE
  8
LAYER-1
 66
  1
 70
  0
 62
  0
 10
3.643460
 20
1.231082
 30
0.000000
  0
VERTEX
  8
LAYER-1
 10
3.643460
 20
1.231082
 30
0.000000
  0
VERTEX
  8
LAYER-1
 10
1.768563
 20
1.231082
 30
0.000000
  0
SEQEND
  8
LAYER-1
  0
POLYLINE
  8
LAYER-1
 66
  1
 70
  0
 62
  0
 10
3.643460
 20
2.464102
 30
0.000000
  0
VERTEX
  8
LAYER-1
 10
3.643460
 20
2.464102
 30
0.000000
  0
VERTEX
  8
LAYER-1
 10
1.768563
 20
2.464102
 30
0.000000
  0
SEQEND
  8
LAYER-1
  0
POLYLINE
  8
LAYER-1
 66
  1
 70
  0
 62
  0
 10
3.643460
 20
3.697124
 30
0.000000
  0
VERTEX
  8
LAYER-1
 10
3.643460
 20
3.697124
 30
0.000000
  0
VERTEX
  8
LAYER-1
 10
1.768563
 20
3.697124
 30
0.000000
  0
SEQEND
  8
LAYER-1
  0
POLYLINE
  8
LAYER-1
 66
  1
 70
  0
 62
  0
 10
3.643460
 20
4.930144
 30
0.000000
  0
VERTEX
  8
LAYER-1
 10
3.643460
 20
4.930144
 30
0.000000
  0
VERTEX
  8
LAYER-1
 10
1.768563
 20
4.930144
 30
0.000000
  0
SEQEND
  8
LAYER-1
  0
POLYLINE
  8
LAYER-1
 66
  1
 70
  0
 62
  0
 10
3.643460
 20
6.163165
 30
0.000000
  0
VERTEX
  8
LAYER-1
 10
3.643460
 20
6.163165
 30
0.000000
  0
VERTEX
  8
LAYER-1
 10
1.768563
 20
6.163165
 30
0.000000
  0
SEQEND
  8
LAYER-1
  0
POLYLINE
  8
LAYER-1
 66
  1
 70
  0
 62
  0
 10
3.643563
 20
1.847727
 30
0.000000
  0
VERTEX
  8
LAYER-1
 10
3.643563
 20
1.847727
 30
0.000000
  0
VERTEX
  8
LAYER-1
 10
1.768563
 20
1.847727
 30
0.000000
  0
SEQEND
  8
LAYER-1
  0
POLYLINE
  8
LAYER-1
 66
  1
 70
  0
 62
  0
 10
3.643563
 20
3.080747
 30
0.000000
  0
VERTEX
  8
LAYER-1
 10
3.643563
 20
3.080747
 30
0.000000
  0
VERTEX
  8
LAYER-1
 10
1.768563
 20
3.080747
 30
0.000000
  0
SEQEND
  8
LAYER-1
  0
POLYLINE
  8
LAYER-1
 66
  1
 70
  0
 62
  0
 10
3.643563
 20
4.313769
 30
0.000000
  0
VERTEX
  8
LAYER-1
 10
3.643563
 20
4.313769
 30
0.000000
  0
VERTEX
  8
LAYER-1
 10
1.769431
 20
4.313769
 30
0.000000
  0
SEQEND
  8
LAYER-1
  0
POLYLINE
  8
LAYER-1
 66
  1
 70
  0
 62
  0
 10
3.643563
 20
5.546789
 30
0.000000
  0
VERTEX
  8
LAYER-1
 10
3.643563
 20
5.546789
 30
0.000000
  0
VERTEX
  8
LAYER-1
 10
1.768563
 20
5.546789
 30
0.000000
  0
SEQEND
  8
LAYER-1
  0
POLYLINE
  8
LAYER-1
 66
  1
 70
  0
 62
  0
 10
1.769431
 20
6.780158
 30
0.000000
  0
VERTEX
  8
LAYER-1
 10
1.769431
 20
6.780158
 30
0.000000
  0
VERTEX
  8
LAYER-1
 10
3.642694
 20
6.780158
 30
0.000000
  0
SEQEND
  8
LAYER-1
  0
POLYLINE
  8
LAYER-1
 66
  1
 70
  0
 62
  0
 10
5.690336
 20
1.230773
 30
0.000000
  0
VERTEX
  8
LAYER-1
 10
5.690336
 20
1.230773
 30
0.000000
  0
VERTEX
  8
LAYER-1
 10
3.815439
 20
1.230773
 30
0.000000
  0
SEQEND
  8
LAYER-1
  0
POLYLINE
  8
LAYER-1
 66
  1
 70
  0
 62
  0
 10
5.690336
 20
2.463793
 30
0.000000
  0
VERTEX
  8
LAYER-1
 10
5.690336
 20
2.463793
 30
0.000000
  0
VERTEX
  8
LAYER-1
 10
3.815439
 20
2.463793
 30
0.000000
  0
SEQEND
  8
LAYER-1
  0
POLYLINE
  8
LAYER-1
 66
  1
 70
  0
 62
  0
 10
5.690336
 20
3.696815
 30
0.000000
  0
VERTEX
  8
LAYER-1
 10
5.690336
 20
3.696815
 30
0.000000
  0
VERTEX
  8
LAYER-1
 10
3.815439
 20
3.696815
 30
0.000000
  0
SEQEND
  8
LAYER-1
  0
POLYLINE
  8
LAYER-1
 66
  1
 70
  0
 62
  0
 10
5.690336
 20
4.929836
 30
0.000000
  0
VERTEX
  8
LAYER-1
 10
5.690336
 20
4.929836
 30
0.000000
  0
VERTEX
  8
LAYER-1
 10
3.815439
 20
4.929836
 30
0.000000
  0
SEQEND
  8
LAYER-1
  0
POLYLINE
  8
LAYER-1
 66
  1
 70
  0
 62
  0
 10
5.690336
 20
6.162857
 30
0.000000
  0
VERTEX
  8
LAYER-1
 10
5.690336
 20
6.162857
 30
0.000000
  0
VERTEX
  8
LAYER-1
 10
3.815439
 20
6.162857
 30
0.000000
  0
SEQEND
  8
LAYER-1
  0
POLYLINE
  8
LAYER-1
 66
  1
 70
  0
 62
  0
 10
5.690439
 20
1.847419
 30
0.000000
  0
VERTEX
  8
LAYER-1
 10
5.690439
 20
1.847419
 30
0.000000
  0
VERTEX
  8
LAYER-1
 10
3.815439
 20
1.847419
 30
0.000000
  0
SEQEND
  8
LAYER-1
  0
POLYLINE
  8
LAYER-1
 66
  1
 70
  0
 62
  0
 10
5.690439
 20
3.080439
 30
0.000000
  0
VERTEX
  8
LAYER-1
 10
5.690439
 20
3.080439
 30
0.000000
  0
VERTEX
  8
LAYER-1
 10
3.815439
 20
3.080439
 30
0.000000
  0
SEQEND
  8
LAYER-1
  0
POLYLINE
  8
LAYER-1
 66
  1
 70
  0
 62
  0
 10
5.690439
 20
4.313461
 30
0.000000
  0
VERTEX
  8
LAYER-1
 10
5.690439
 20
4.313461
 30
0.000000
  0
VERTEX
  8
LAYER-1
 10
3.816306
 20
4.313461
 30
0.000000
  0
SEQEND
  8
LAYER-1
  0
POLYLINE
  8
LAYER-1
 66
  1
 70
  0
 62
  0
 10
5.690439
 20
5.546482
 30
0.000000
  0
VERTEX
  8
LAYER-1
 10
5.690439
 20
5.546482
 30
0.000000
  0
VERTEX
  8
LAYER-1
 10
3.815439
 20
5.546482
 30
0.000000
  0
SEQEND
  8
LAYER-1
  0
POLYLINE
  8
LAYER-1
 66
  1
 70
  0
 62
  0
 10
3.816306
 20
6.779850
 30
0.000000
  0
VERTEX
  8
LAYER-1
 10
3.816306
 20
6.779850
 30
0.000000
  0
VERTEX
  8
LAYER-1
 10
5.689570
 20
6.779850
 30
0.000000
  0
SEQEND
  8
LAYER-1
  0
POLYLINE
  8
LAYER-1
 66
  1
 70
  0
 62
  0
 10
0.736610
 20
0.037543
 30
0.000000
  0
VERTEX
  8
LAYER-1
 10
0.736610
 20
0.037543
 30
0.000000
  0
VERTEX
  8
LAYER-1
 10
0.763089
 20
0.034087
 30
0.000000
  0
VERTEX
  8
LAYER-1
 10
0.782422
 20
0.034087
 30
0.000000
  0
VERTEX
  8
LAYER-1
 10
0.801756
 20
0.037560
 30
0.000000
  0
VERTEX
  8
LAYER-1
 10
0.821090
 20
0.037560
 30
0.000000
  0
VERTEX
  8
LAYER-1
 10
0.867490
 20
0.044504
 30
0.000000
  0
VERTEX
  8
LAYER-1
 10
0.902291
 20
0.054921
 30
0.000000
  0
VERTEX
  8
LAYER-1
 10
0.924524
 20
0.059261
 30
0.000000
  0
VERTEX
  8
LAYER-1
 10
0.946274
 20
0.060998
 30
0.000000
  0
VERTEX
  8
LAYER-1
 10
0.975758
 20
0.058393
 30
0.000000
  0
VERTEX
  8
LAYER-1
 10
1.006692
 20
0.054921
 30
0.000000
  0
VERTEX
  8
LAYER-1
 10
1.033759
 20
0.047976
 30
0.000000
  0
VERTEX
  8
LAYER-1
 10
1.053092
 20
0.044504
 30
0.000000
  0
VERTEX
  8
LAYER-1
 10
1.084026
 20
0.041032
 30
0.000000
  0
VERTEX
  8
LAYER-1
 10
1.103360
 20
0.037560
 30
0.000000
  0
VERTEX
  8
LAYER-1
 10
1.126560
 20
0.034087
 30
0.000000
  0
VERTEX
  8
LAYER-1
 10
1.153627
 20
0.034087
 30
0.000000
  0
VERTEX
  8
LAYER-1
 10
1.180694
 20
0.034087
 30
0.000000
  0
VERTEX
  8
LAYER-1
 10
1.203894
 20
0.034087
 30
0.000000
  0
VERTEX
  8
LAYER-1
 10
1.227094
 20
0.030615
 30
0.000000
  0
VERTEX
  8
LAYER-1
 10
1.265761
 20
0.030615
 30
0.000000
  0
VERTEX
  8
LAYER-1
 10
1.296695
 20
0.030615
 30
0.000000
  0
VERTEX
  8
LAYER-1
 10
1.316028
 20
0.027143
 30
0.000000
  0
VERTEX
  8
LAYER-1
 10
1.346963
 20
0.023671
 30
0.000000
  0
VERTEX
  8
LAYER-1
 10
1.377896
 20
0.020198
 30
0.000000
  0
VERTEX
  8
LAYER-1
 10
1.416563
 20
0.020198
 30
0.000000
  0
VERTEX
  8
LAYER-1
 10
1.447497
 20
0.020198
 30
0.000000
  0
VERTEX
  8
LAYER-1
 10
1.486164
 20
0.020198
 30
0.000000
  0
VERTEX
  8
LAYER-1
 10
1.517098
 20
0.027143
 30
0.000000
  0
VERTEX
  8
LAYER-1
 10
1.540298
 20
0.027143
 30
0.000000
  0
VERTEX
  8
LAYER-1
 10
1.559631
 20
0.030615
 30
0.000000
  0
VERTEX
  8
LAYER-1
 10
1.582832
 20
0.030615
 30
0.000000
  0
VERTEX
  8
LAYER-1
 10
1.602165
 20
0.030615
 30
0.000000
  0
VERTEX
  8
LAYER-1
 10
1.644699
 20
0.030615
 30
0.000000
  0
VERTEX
  8
LAYER-1
 10
1.691100
 20
0.023671
 30
0.000000
  0
VERTEX
  8
LAYER-1
 10
1.733633
 20
0.020198
 30
0.000000
  0
VERTEX
  8
LAYER-1
 10
1.795501
 20
0.013254
 30
0.000000
  0
VERTEX
  8
LAYER-1
 10
1.853501
 20
0.006310
 30
0.000000
  0
VERTEX
  8
LAYER-1
 10
1.903768
 20
0.006310
 30
0.000000
  0
VERTEX
  8
LAYER-1
 10
1.930836
 20
0.006310
 30
0.000000
  0
VERTEX
  8
LAYER-1
 10
1.965636
 20
0.006310
 30
0.000000
  0
VERTEX
  8
LAYER-1
 10
1.985936
 20
0.007178
 30
0.000000
  0
VERTEX
  8
LAYER-1
 10
2.023153
 20
0.009348
 30
0.000000
  0
VERTEX
  8
LAYER-1
 10
2.070037
 20
0.020198
 30
0.000000
  0
VERTEX
  8
LAYER-1
 10
2.112570
 20
0.034087
 30
0.000000
  0
VERTEX
  8
LAYER-1
 10
2.147371
 20
0.044504
 30
0.000000
  0
VERTEX
  8
LAYER-1
 10
2.174438
 20
0.054921
 30
0.000000
  0
VERTEX
  8
LAYER-1
 10
2.197638
 20
0.061865
 30
0.000000
  0
VERTEX
  8
LAYER-1
 10
2.220838
 20
0.061865
 30
0.000000
  0
VERTEX
  8
LAYER-1
 10
2.244039
 20
0.061865
 30
0.000000
  0
VERTEX
  8
LAYER-1
 10
2.267239
 20
0.061865
 30
0.000000
  0
VERTEX
  8
LAYER-1
 10
2.302039
 20
0.054921
 30
0.000000
  0
VERTEX
  8
LAYER-1
 10
2.332973
 20
0.047976
 30
0.000000
  0
VERTEX
  8
LAYER-1
 10
2.356173
 20
0.041032
 30
0.000000
  0
VERTEX
  8
LAYER-1
 10
2.375507
 20
0.037560
 30
0.000000
  0
VERTEX
  8
LAYER-1
 10
2.398707
 20
0.030615
 30
0.000000
  0
VERTEX
  8
LAYER-1
 10
2.418041
 20
0.023671
 30
0.000000
  0
VERTEX
  8
LAYER-1
 10
2.441241
 20
0.020198
 30
0.000000
  0
VERTEX
  8
LAYER-1
 10
2.460574
 20
0.020198
 30
0.000000
  0
VERTEX
  8
LAYER-1
 10
2.491508
 20
0.016726
 30
0.000000
  0
VERTEX
  8
LAYER-1
 10
2.518575
 20
0.016726
 30
0.000000
  0
VERTEX
  8
LAYER-1
 10
2.553375
 20
0.016726
 30
0.000000
  0
VERTEX
  8
LAYER-1
 10
2.580442
 20
0.020198
 30
0.000000
  0
VERTEX
  8
LAYER-1
 10
2.615242
 20
0.030615
 30
0.000000
  0
VERTEX
  8
LAYER-1
 10
2.634576
 20
0.030615
 30
0.000000
  0
VERTEX
  8
LAYER-1
 10
2.657777
 20
0.030615
 30
0.000000
  0
VERTEX
  8
LAYER-1
 10
2.677110
 20
0.030615
 30
0.000000
  0
VERTEX
  8
LAYER-1
 10
2.700311
 20
0.034087
 30
0.000000
  0
VERTEX
  8
LAYER-1
 10
2.723511
 20
0.037560
 30
0.000000
  0
VERTEX
  8
LAYER-1
 10
2.754445
 20
0.037560
 30
0.000000
  0
VERTEX
  8
LAYER-1
 10
2.785378
 20
0.037560
 30
0.000000
  0
VERTEX
  8
LAYER-1
 10
2.808578
 20
0.037560
 30
0.000000
  0
VERTEX
  8
LAYER-1
 10
2.831779
 20
0.037560
 30
0.000000
  0
VERTEX
  8
LAYER-1
 10
2.851112
 20
0.034087
 30
0.000000
  0
VERTEX
  8
LAYER-1
 10
2.870446
 20
0.030615
 30
0.000000
  0
VERTEX
  8
LAYER-1
 10
2.889779
 20
0.027143
 30
0.000000
  0
VERTEX
  8
LAYER-1
 10
2.909113
 20
0.023671
 30
0.000000
  0
VERTEX
  8
LAYER-1
 10
2.940047
 20
0.016726
 30
0.000000
  0
VERTEX
  8
LAYER-1
 10
2.963247
 20
0.013254
 30
0.000000
  0
VERTEX
  8
LAYER-1
 10
2.986447
 20
0.013254
 30
0.000000
  0
VERTEX
  8
LAYER-1
 10
3.005780
 20
0.013254
 30
0.000000
  0
VERTEX
  8
LAYER-1
 10
3.032847
 20
0.013254
 30
0.000000
  0
VERTEX
  8
LAYER-1
 10
3.063781
 20
0.016726
 30
0.000000
  0
VERTEX
  8
LAYER-1
 10
3.117916
 20
0.027143
 30
0.000000
  0
VERTEX
  8
LAYER-1
 10
3.164316
 20
0.037560
 30
0.000000
  0
VERTEX
  8
LAYER-1
 10
3.206849
 20
0.044504
 30
0.000000
  0
VERTEX
  8
LAYER-1
 10
3.237783
 20
0.047976
 30
0.000000
  0
VERTEX
  8
LAYER-1
 10
3.276450
 20
0.051448
 30
0.000000
  0
VERTEX
  8
LAYER-1
 10
3.307384
 20
0.054921
 30
0.000000
  0
VERTEX
  8
LAYER-1
 10
3.333001
 20
0.055789
 30
0.000000
  0
VERTEX
  8
LAYER-1
 10
3.350400
 20
0.053619
 30
0.000000
  0
VERTEX
  8
LAYER-1
 10
3.371668
 20
0.048844
 30
0.000000
  0
VERTEX
  8
LAYER-1
 10
3.392452
 20
0.037560
 30
0.000000
  0
VERTEX
  8
LAYER-1
 10
3.415652
 20
0.034087
 30
0.000000
  0
VERTEX
  8
LAYER-1
 10
3.434986
 20
0.034087
 30
0.000000
  0
VERTEX
  8
LAYER-1
 10
3.454319
 20
0.034087
 30
0.000000
  0
VERTEX
  8
LAYER-1
 10
3.473653
 20
0.034087
 30
0.000000
  0
VERTEX
  8
LAYER-1
 10
3.504588
 20
0.034087
 30
0.000000
  0
VERTEX
  8
LAYER-1
 10
3.527788
 20
0.034087
 30
0.000000
  0
VERTEX
  8
LAYER-1
 10
3.550988
 20
0.034087
 30
0.000000
  0
VERTEX
  8
LAYER-1
 10
3.570322
 20
0.034087
 30
0.000000
  0
VERTEX
  8
LAYER-1
 10
3.593522
 20
0.034087
 30
0.000000
  0
VERTEX
  8
LAYER-1
 10
3.616722
 20
0.034087
 30
0.000000
  0
VERTEX
  8
LAYER-1
 10
3.636056
 20
0.034087
 30
0.000000
  0
VERTEX
  8
LAYER-1
 10
3.663122
 20
0.034087
 30
0.000000
  0
VERTEX
  8
LAYER-1
 10
3.686322
 20
0.030615
 30
0.000000
  0
VERTEX
  8
LAYER-1
 10
3.708556
 20
0.022803
 30
0.000000
  0
VERTEX
  8
LAYER-1
 10
3.749157
 20
0.020198
 30
0.000000
  0
VERTEX
  8
LAYER-1
 10
3.786857
 20
0.023671
 30
0.000000
  0
VERTEX
  8
LAYER-1
 10
3.806190
 20
0.030615
 30
0.000000
  0
VERTEX
  8
LAYER-1
 10
3.829391
 20
0.037560
 30
0.000000
  0
VERTEX
  8
LAYER-1
 10
3.849208
 20
0.041467
 30
0.000000
  0
VERTEX
  8
LAYER-1
 10
3.871925
 20
0.047976
 30
0.000000
  0
VERTEX
  8
LAYER-1
 10
3.895125
 20
0.047976
 30
0.000000
  0
VERTEX
  8
LAYER-1
 10
3.918325
 20
0.044504
 30
0.000000
  0
VERTEX
  8
LAYER-1
 10
3.941527
 20
0.044504
 30
0.000000
  0
VERTEX
  8
LAYER-1
 10
3.964726
 20
0.044504
 30
0.000000
  0
VERTEX
  8
LAYER-1
 10
3.984060
 20
0.041032
 30
0.000000
  0
VERTEX
  8
LAYER-1
 10
4.011127
 20
0.041032
 30
0.000000
  0
VERTEX
  8
LAYER-1
 10
4.042060
 20
0.041032
 30
0.000000
  0
VERTEX
  8
LAYER-1
 10
4.072994
 20
0.047976
 30
0.000000
  0
VERTEX
  8
LAYER-1
 10
4.092328
 20
0.051448
 30
0.000000
  0
VERTEX
  8
LAYER-1
 10
4.119395
 20
0.051448
 30
0.000000
  0
VERTEX
  8
LAYER-1
 10
4.142596
 20
0.054921
 30
0.000000
  0
VERTEX
  8
LAYER-1
 10
4.173528
 20
0.058393
 30
0.000000
  0
VERTEX
  8
LAYER-1
 10
4.196729
 20
0.058393
 30
0.000000
  0
VERTEX
  8
LAYER-1
 10
4.227663
 20
0.054921
 30
0.000000
  0
VERTEX
  8
LAYER-1
 10
4.270197
 20
0.044504
 30
0.000000
  0
VERTEX
  8
LAYER-1
 10
4.301130
 20
0.034087
 30
0.000000
  0
VERTEX
  8
LAYER-1
 10
4.335930
 20
0.023671
 30
0.000000
  0
VERTEX
  8
LAYER-1
 10
4.378948
 20
0.016725
 30
0.000000
  0
VERTEX
  8
LAYER-1
 10
4.426315
 20
0.017593
 30
0.000000
  0
VERTEX
  8
LAYER-1
 10
4.481415
 20
0.020198
 30
0.000000
  0
VERTEX
  8
LAYER-1
 10
4.548599
 20
0.020198
 30
0.000000
  0
VERTEX
  8
LAYER-1
 10
4.594034
 20
0.008913
 30
0.000000
  0
VERTEX
  8
LAYER-1
 10
4.624000
 20
0.002836
 30
0.000000
  0
VERTEX
  8
LAYER-1
 10
4.647201
 20
0.001968
 30
0.000000
  0
VERTEX
  8
LAYER-1
 10
4.682001
 20
0.001969
 30
0.000000
  0
VERTEX
  8
LAYER-1
 10
4.707135
 20
0.006310
 30
0.000000
  0
VERTEX
  8
LAYER-1
 10
4.734202
 20
0.016726
 30
0.000000
  0
VERTEX
  8
LAYER-1
 10
4.769002
 20
0.023671
 30
0.000000
  0
VERTEX
  8
LAYER-1
 10
4.796069
 20
0.030615
 30
0.000000
  0
VERTEX
  8
LAYER-1
 10
4.819270
 20
0.034087
 30
0.000000
  0
VERTEX
  8
LAYER-1
 10
4.842469
 20
0.037560
 30
0.000000
  0
VERTEX
  8
LAYER-1
 10
4.869536
 20
0.041032
 30
0.000000
  0
VERTEX
  8
LAYER-1
 10
4.896603
 20
0.047976
 30
0.000000
  0
VERTEX
  8
LAYER-1
 10
4.915937
 20
0.051448
 30
0.000000
  0
VERTEX
  8
LAYER-1
 10
4.946870
 20
0.054921
 30
0.000000
  0
VERTEX
  8
LAYER-1
 10
4.970071
 20
0.061865
 30
0.000000
  0
VERTEX
  8
LAYER-1
 10
4.993754
 20
0.072717
 30
0.000000
  0
VERTEX
  8
LAYER-1
 10
5.016471
 20
0.079226
 30
0.000000
  0
VERTEX
  8
LAYER-1
 10
5.039672
 20
0.079226
 30
0.000000
  0
VERTEX
  8
LAYER-1
 10
5.066739
 20
0.079226
 30
0.000000
  0
VERTEX
  8
LAYER-1
 10
5.093806
 20
0.079226
 30
0.000000
  0
VERTEX
  8
LAYER-1
 10
5.132473
 20
0.075754
 30
0.000000
  0
VERTEX
  8
LAYER-1
 10
5.186607
 20
0.072282
 30
0.000000
  0
VERTEX
  8
LAYER-1
 10
5.229141
 20
0.072282
 30
0.000000
  0
VERTEX
  8
LAYER-1
 10
5.260074
 20
0.072282
 30
0.000000
  0
VERTEX
  8
LAYER-1
 10
5.283274
 20
0.072282
 30
0.000000
  0
VERTEX
  8
LAYER-1
 10
5.306475
 20
0.072282
 30
0.000000
  0
VERTEX
  8
LAYER-1
 10
5.337408
 20
0.075754
 30
0.000000
  0
VERTEX
  8
LAYER-1
 10
5.376076
 20
0.075754
 30
0.000000
  0
VERTEX
  8
LAYER-1
 10
5.407009
 20
0.075754
 30
0.000000
  0
VERTEX
  8
LAYER-1
 10
5.430210
 20
0.079226
 30
0.000000
  0
VERTEX
  8
LAYER-1
 10
5.461143
 20
0.079226
 30
0.000000
  0
VERTEX
  8
LAYER-1
 10
5.480477
 20
0.079226
 30
0.000000
  0
VERTEX
  8
LAYER-1
 10
5.511410
 20
0.070546
 30
0.000000
  0
VERTEX
  8
LAYER-1
 10
5.538477
 20
0.058393
 30
0.000000
  0
VERTEX
  8
LAYER-1
 10
5.573277
 20
0.044504
 30
0.000000
  0
VERTEX
  8
LAYER-1
 10
5.600344
 20
0.037560
 30
0.000000
  0
VERTEX
  8
LAYER-1
 10
5.631279
 20
0.030615
 30
0.000000
  0
VERTEX
  8
LAYER-1
 10
5.658829
 20
0.028445
 30
0.000000
  0
VERTEX
  8
LAYER-1
 10
5.685412
 20
0.027143
 30
0.000000
  0
VERTEX
  8
LAYER-1
 10
5.708613
 20
0.030615
 30
0.000000
  0
VERTEX
  8
LAYER-1
 10
5.731812
 20
0.037560
 30
0.000000
  0
VERTEX
  8
LAYER-1
 10
5.758881
 20
0.041032
 30
0.000000
  0
VERTEX
  8
LAYER-1
 10
5.782079
 20
0.044504
 30
0.000000
  0
VERTEX
  8
LAYER-1
 10
5.805280
 20
0.047976
 30
0.000000
  0
VERTEX
  8
LAYER-1
 10
5.824613
 20
0.051448
 30
0.000000
  0
VERTEX
  8
LAYER-1
 10
5.847814
 20
0.051448
 30
0.000000
  0
VERTEX
  8
LAYER-1
 10
5.874881
 20
0.051448
 30
0.000000
  0
VERTEX
  8
LAYER-1
 10
5.894698
 20
0.054053
 30
0.000000
  0
VERTEX
  8
LAYER-1
 10
5.921282
 20
0.058393
 30
0.000000
  0
VERTEX
  8
LAYER-1
 10
5.944482
 20
0.065337
 30
0.000000
  0
VERTEX
  8
LAYER-1
 10
5.975415
 20
0.065337
 30
0.000000
  0
VERTEX
  8
LAYER-1
 10
6.006349
 20
0.065337
 30
0.000000
  0
VERTEX
  8
LAYER-1
 10
6.025683
 20
0.065337
 30
0.000000
  0
VERTEX
  8
LAYER-1
 10
6.079816
 20
0.058393
 30
0.000000
  0
VERTEX
  8
LAYER-1
 10
6.110750
 20
0.051448
 30
0.000000
  0
VERTEX
  8
LAYER-1
 10
6.130083
 20
0.047976
 30
0.000000
  0
VERTEX
  8
LAYER-1
 10
6.164884
 20
0.047976
 30
0.000000
  0
VERTEX
  8
LAYER-1
 10
6.188568
 20
0.055355
 30
0.000000
  0
VERTEX
  8
LAYER-1
 10
6.210318
 20
0.056223
 30
0.000000
  0
VERTEX
  8
LAYER-1
 10
6.262035
 20
0.063167
 30
0.000000
  0
VERTEX
  8
LAYER-1
 10
6.310369
 20
0.073150
 30
0.000000
  0
VERTEX
  8
LAYER-1
 10
6.346620
 20
0.076623
 30
0.000000
  0
VERTEX
  8
LAYER-1
 10
6.379487
 20
0.077056
 30
0.000000
  0
VERTEX
  8
LAYER-1
 10
6.396403
 20
0.072282
 30
0.000000
  0
VERTEX
  8
LAYER-1
 10
6.414769
 20
0.068810
 30
0.000000
  0
VERTEX
  8
LAYER-1
 10
6.445704
 20
0.063601
 30
0.000000
  0
VERTEX
  8
LAYER-1
 10
6.485821
 20
0.071848
 30
0.000000
  0
VERTEX
  8
LAYER-1
 10
6.501288
 20
0.079226
 30
0.000000
  0
VERTEX
  8
LAYER-1
 10
6.524488
 20
0.079226
 30
0.000000
  0
VERTEX
  8
LAYER-1
 10
6.547688
 20
0.079226
 30
0.000000
  0
VERTEX
  8
LAYER-1
 10
6.574755
 20
0.072282
 30
0.000000
  0
VERTEX
  8
LAYER-1
 10
6.597956
 20
0.058393
 30
0.000000
  0
VERTEX
  8
LAYER-1
 10
6.625022
 20
0.047976
 30
0.000000
  0
VERTEX
  8
LAYER-1
 10
6.652089
 20
0.037560
 30
0.000000
  0
VERTEX
  8
LAYER-1
 10
6.675290
 20
0.037560
 30
0.000000
  0
VERTEX
  8
LAYER-1
 10
6.705311
 20
0.037543
 30
0.000000
  0
VERTEX
  8
LAYER-1
 10
6.729424
 20
0.047976
 30
0.000000
  0
SEQEND
  8
LAYER-1
  0
TEXT
  8
LAYER-1
 62
  0
 10
5.819778
 20
0.555333
 30
0.000000
 40
0.125000
  1
Douille
 72
  5
 11
6.430889
 21
0.555333
 31
0.000000
  0
TEXT
  8
LAYER-1
 62
  0
 10
5.819778
 20
0.360888
 30
0.000000
 40
0.125000
  1
anti-poussiÅre
 72
  5
 11
7.000334
 21
0.360888
 31
0.000000
  0
POLYLINE
  8
LAYER-1
 66
  1
 70
  0
 62
  0
 10
5.803193
 20
0.468114
 30
0.000000
  0
VERTEX
  8
LAYER-1
 10
5.803193
 20
0.468114
 30
0.000000
  0
VERTEX
  8
LAYER-1
 10
3.739326
 20
0.158535
 30
0.000000
  0
SEQEND
  8
LAYER-1
  0
POLYLINE
  8
LAYER-1
 66
  1
 70
  1
 62
  0
  0
VERTEX
  8
LAYER-1
 10
3.719859
 20
0.155614
 30
0.000000
  0
VERTEX
  8
LAYER-1
 10
3.782354
 20
0.207121
 30
0.000000
  0
VERTEX
  8
LAYER-1
 10
3.788535
 20
0.165916
 30
0.000000
  0
VERTEX
  8
LAYER-1
 10
3.794716
 20
0.124710
 30
0.000000
  0
VERTEX
  8
LAYER-1
 10
3.719859
 20
0.155614
 30
0.000000
  0
SEQEND
  8
LAYER-1
  0
TEXT
  8
LAYER-1
 62
  0
 10
6.153111
 20
5.930333
 30
0.000000
 40
0.125000
  1
9"
 72
  5
 11
6.375334
 21
5.930333
 31
0.000000
  0
TEXT
  8
LAYER-1
 62
  0
 10
5.930889
 20
5.735888
 30
0.000000
 40
0.125000
  1
229mm
 72
  5
 11
6.597556
 21
5.735888
 31
0.000000
  0
TEXT
  8
LAYER-1
 62
  0
 10
1.778111
 20
8.499777
 30
0.000000
 40
0.125000
  1
GRILLE COULISSANTE AJOURâE
 72
  5
 11
4.472556
 21
8.499777
 31
0.000000
  0
LINE
  8
LAYER-1
 62
  0
 10
5.836928
 20
7.465054
 30
0.000000
 11
5.836928
 21
7.197016
 31
0.000000
  0
LINE
  8
LAYER-1
 62
  0
 10
5.753806
 20
7.465054
 30
0.000000
 11
5.961928
 21
7.465054
 31
0.000000
  0
LINE
  8
LAYER-1
 62
  0
 10
5.759670
 20
7.197016
 30
0.000000
 11
5.961928
 21
7.197016
 31
0.000000
  0
LINE
  8
LAYER-1
 62
  0
 10
5.866391
 20
7.435591
 30
0.000000
 11
5.807465
 21
7.494517
 31
0.000000
  0
LINE
  8
LAYER-1
 62
  0
 10
5.866391
 20
7.167553
 30
0.000000
 11
5.807465
 21
7.226478
 31
0.000000
  0
TEXT
  8
LAYER-1
 62
  0
 10
5.714365
 20
7.322882
 30
0.000000
 40
0.125000
  1
 
 50
90.000000
  0
TEXT
  8
LAYER-1
 62
  0
 10
6.153111
 20
7.346999
 30
0.000000
 40
0.125000
  1
4"
 72
  5
 11
6.375334
 21
7.346999
 31
0.000000
  0
TEXT
  8
LAYER-1
 62
  0
 10
5.930889
 20
7.152555
 30
0.000000
 40
0.125000
  1
102mm
 72
  5
 11
6.597556
 21
7.152555
 31
0.000000
  0
LINE
  8
LAYER-1
 62
  0
 10
4.443698
 20
7.728265
 30
0.000000
 11
4.853420
 21
7.728265
 31
0.000000
  0
LINE
  8
LAYER-1
 62
  0
 10
4.443698
 20
7.358474
 30
0.000000
 11
4.443698
 21
7.853265
 31
0.000000
  0
LINE
  8
LAYER-1
 62
  0
 10
4.853420
 20
7.356738
 30
0.000000
 11
4.853420
 21
7.853265
 31
0.000000
  0
LINE
  8
LAYER-1
 62
  0
 10
4.473161
 20
7.757727
 30
0.000000
 11
4.414235
 21
7.698802
 31
0.000000
  0
LINE
  8
LAYER-1
 62
  0
 10
4.882883
 20
7.757727
 30
0.000000
 11
4.823958
 21
7.698802
 31
0.000000
  0
TEXT
  8
LAYER-1
 62
  0
 10
4.640207
 20
7.852467
 30
0.000000
 40
0.125000
  1
 
  0
TEXT
  8
LAYER-1
 62
  0
 10
4.514222
 20
8.096999
 30
0.000000
 40
0.125000
  1
6"
 72
  5
 11
4.736445
 21
8.096999
 31
0.000000
  0
TEXT
  8
LAYER-1
 62
  0
 10
4.292000
 20
7.902555
 30
0.000000
 40
0.125000
  1
152mm
 72
  5
 11
4.958667
 21
7.902555
 31
0.000000
  0
ENDSEC
  0
EOF
