  0
SECTION
  2
HEADER
999
MacDraft 5.0\0
  9
$ACADVER
  1
AC1006
  9
$CLAYER
  8
LAYER-1
  9
$EXTMIN
 10
0.000000
 20
0.000000
  9
$EXTMAX
 10
6.927979
 20
10.028804
  9
$FASTZOOM
 70
0
  9
$FILLMODE
 70
1
  0
ENDSEC
  0
SECTION
  2
TABLES
  0
TABLE
  2
LTYPE
 70
16
  0
LTYPE
  2
CONTINUOUS
 70
64
  3
Solid Line
 72
65
 73
0
 40
0.000000
  0
LTYPE
  2
LTYPE01
 70
64
  3
CUSTOM
 72
65
 73
2
 40
0.111111
 49
0.083333
 49
-0.027778
  0
LTYPE
  2
LTYPE02
 70
64
  3
CUSTOM
 72
65
 73
2
 40
0.194444
 49
0.166667
 49
-0.027778
  0
LTYPE
  2
LTYPE03
 70
64
  3
CUSTOM
 72
65
 73
2
 40
0.375000
 49
0.333333
 49
-0.041667
  0
LTYPE
  2
LTYPE04
 70
64
  3
CUSTOM
 72
65
 73
2
 40
0.722222
 49
0.666667
 49
-0.055556
  0
LTYPE
  2
LTYPE05
 70
64
  3
CUSTOM
 72
65
 73
4
 40
0.152778
 49
0.083333
 49
-0.027778
 49
0.013889
 49
-0.027778
  0
LTYPE
  2
LTYPE06
 70
64
  3
CUSTOM
 72
65
 73
4
 40
0.236111
 49
0.166667
 49
-0.027778
 49
0.013889
 49
-0.027778
  0
LTYPE
  2
LTYPE07
 70
64
  3
CUSTOM
 72
65
 73
4
 40
0.444444
 49
0.333333
 49
-0.041667
 49
0.027778
 49
-0.041667
  0
LTYPE
  2
LTYPE08
 70
64
  3
CUSTOM
 72
65
 73
4
 40
0.805556
 49
0.666667
 49
-0.055556
 49
0.027778
 49
-0.055556
  0
LTYPE
  2
LTYPE09
 70
64
  3
CUSTOM
 72
65
 73
6
 40
0.194444
 49
0.083333
 49
-0.027778
 49
0.013889
 49
-0.027778
 49
0.013889
 49
-0.027778
  0
LTYPE
  2
LTYPE10
 70
64
  3
CUSTOM
 72
65
 73
6
 40
0.277778
 49
0.166667
 49
-0.027778
 49
0.013889
 49
-0.027778
 49
0.013889
 49
-0.027778
  0
LTYPE
  2
LTYPE11
 70
64
  3
CUSTOM
 72
65
 73
6
 40
0.500000
 49
0.333333
 49
-0.041667
 49
0.027778
 49
-0.027778
 49
0.027778
 49
-0.041667
  0
LTYPE
  2
LTYPE12
 70
64
  3
CUSTOM
 72
65
 73
6
 40
0.861111
 49
0.666667
 49
-0.055556
 49
0.027778
 49
-0.027778
 49
0.027778
 49
-0.055556
  0
LTYPE
  2
LTYPE13
 70
64
  3
CUSTOM
 72
65
 73
8
 40
0.319444
 49
0.166667
 49
-0.027778
 49
0.013889
 49
-0.027778
 49
0.013889
 49
-0.027778
 49
0.013889
 49
-0.027778
  0
LTYPE
  2
LTYPE14
 70
64
  3
CUSTOM
 72
65
 73
8
 40
0.555556
 49
0.333333
 49
-0.041667
 49
0.027778
 49
-0.027778
 49
0.027778
 49
-0.027778
 49
0.027778
 49
-0.041667
  0
LTYPE
  2
LTYPE15
 70
64
  3
CUSTOM
 72
65
 73
8
 40
0.944444
 49
0.666667
 49
-0.055556
 49
0.027778
 49
-0.041667
 49
0.027778
 49
-0.041667
 49
0.027778
 49
-0.055556
  0
ENDTAB
  0
TABLE
  2
LAYER
 70
1
  0
LAYER
  2
LAYER-1
 70
0
 62
7
  6
CONTINUOUS
  0
ENDTAB
  0
ENDSEC
  0
SECTION
  2
BLOCKS
  0
ENDSEC
  0
SECTION
  2
ENTITIES
  0
POLYLINE
  8
LAYER-1
 66
  1
 70
  0
 62
  0
 10
3.436212
 20
0.205332
 30
0.000000
  0
VERTEX
  8
LAYER-1
 10
3.436212
 20
0.205332
 30
0.000000
  0
VERTEX
  8
LAYER-1
 10
3.436212
 20
0.204142
 30
0.000000
  0
SEQEND
  8
LAYER-1
  0
POLYLINE
  8
LAYER-1
 66
  1
 70
  1
 62
  0
 10
1.264356
 20
0.110166
 30
0.000000
  0
VERTEX
  8
LAYER-1
 10
1.264356
 20
0.110166
 30
0.000000
  0
VERTEX
  8
LAYER-1
 10
1.271300
 20
0.084124
 30
0.000000
  0
VERTEX
  8
LAYER-1
 10
1.296475
 20
0.098012
 30
0.000000
  0
SEQEND
  8
LAYER-1
  0
POLYLINE
  8
LAYER-1
 66
  1
 70
  1
 62
  0
 10
1.454460
 20
0.215197
 30
0.000000
  0
VERTEX
  8
LAYER-1
 10
1.454460
 20
0.215197
 30
0.000000
  0
VERTEX
  8
LAYER-1
 10
1.441440
 20
0.192628
 30
0.000000
  0
VERTEX
  8
LAYER-1
 10
1.471822
 20
0.213460
 30
0.000000
  0
SEQEND
  8
LAYER-1
  0
POLYLINE
  8
LAYER-1
 66
  1
 70
  1
 62
  0
 10
1.100294
 20
0.150964
 30
0.000000
  0
VERTEX
  8
LAYER-1
 10
1.100294
 20
0.150964
 30
0.000000
  0
VERTEX
  8
LAYER-1
 10
1.083801
 20
0.125790
 30
0.000000
  0
VERTEX
  8
LAYER-1
 10
1.098557
 20
0.117978
 30
0.000000
  0
SEQEND
  8
LAYER-1
  0
POLYLINE
  8
LAYER-1
 66
  1
 70
  0
 62
  0
 10
1.266961
 20
0.151833
 30
0.000000
  0
VERTEX
  8
LAYER-1
 10
1.266961
 20
0.151833
 30
0.000000
  0
VERTEX
  8
LAYER-1
 10
1.262621
 20
0.151833
 30
0.000000
  0
VERTEX
  8
LAYER-1
 10
1.259148
 20
0.147492
 30
0.000000
  0
VERTEX
  8
LAYER-1
 10
1.258280
 20
0.142285
 30
0.000000
  0
VERTEX
  8
LAYER-1
 10
1.260016
 20
0.137944
 30
0.000000
  0
VERTEX
  8
LAYER-1
 10
1.264357
 20
0.136208
 30
0.000000
  0
VERTEX
  8
LAYER-1
 10
1.268696
 20
0.136208
 30
0.000000
  0
VERTEX
  8
LAYER-1
 10
1.273037
 20
0.139680
 30
0.000000
  0
VERTEX
  8
LAYER-1
 10
1.273037
 20
0.144020
 30
0.000000
  0
VERTEX
  8
LAYER-1
 10
1.272169
 20
0.148361
 30
0.000000
  0
VERTEX
  8
LAYER-1
 10
1.267829
 20
0.150965
 30
0.000000
  0
SEQEND
  8
LAYER-1
  0
POLYLINE
  8
LAYER-1
 66
  1
 70
  1
 62
  0
 10
0.904982
 20
0.190024
 30
0.000000
  0
VERTEX
  8
LAYER-1
 10
0.904982
 20
0.190024
 30
0.000000
  0
VERTEX
  8
LAYER-1
 10
0.891960
 20
0.167456
 30
0.000000
  0
VERTEX
  8
LAYER-1
 10
0.922342
 20
0.188288
 30
0.000000
  0
SEQEND
  8
LAYER-1
  0
POLYLINE
  8
LAYER-1
 66
  1
 70
  1
 62
  0
 10
1.036759
 20
0.189691
 30
0.000000
  0
VERTEX
  8
LAYER-1
 10
1.036759
 20
0.189691
 30
0.000000
  0
VERTEX
  8
LAYER-1
 10
1.024072
 20
0.170327
 30
0.000000
  0
VERTEX
  8
LAYER-1
 10
1.035424
 20
0.164317
 30
0.000000
  0
SEQEND
  8
LAYER-1
  0
POLYLINE
  8
LAYER-1
 66
  1
 70
  0
 62
  0
 10
1.394565
 20
0.170929
 30
0.000000
  0
VERTEX
  8
LAYER-1
 10
1.394565
 20
0.170929
 30
0.000000
  0
VERTEX
  8
LAYER-1
 10
1.390224
 20
0.170929
 30
0.000000
  0
VERTEX
  8
LAYER-1
 10
1.386753
 20
0.166588
 30
0.000000
  0
VERTEX
  8
LAYER-1
 10
1.385885
 20
0.161380
 30
0.000000
  0
VERTEX
  8
LAYER-1
 10
1.387621
 20
0.157040
 30
0.000000
  0
VERTEX
  8
LAYER-1
 10
1.391960
 20
0.155304
 30
0.000000
  0
VERTEX
  8
LAYER-1
 10
1.396301
 20
0.155304
 30
0.000000
  0
VERTEX
  8
LAYER-1
 10
1.400641
 20
0.158775
 30
0.000000
  0
VERTEX
  8
LAYER-1
 10
1.400641
 20
0.163116
 30
0.000000
  0
VERTEX
  8
LAYER-1
 10
1.399773
 20
0.167457
 30
0.000000
  0
VERTEX
  8
LAYER-1
 10
1.395433
 20
0.170061
 30
0.000000
  0
SEQEND
  8
LAYER-1
  0
POLYLINE
  8
LAYER-1
 66
  1
 70
  0
 62
  0
 10
1.152377
 20
0.144887
 30
0.000000
  0
VERTEX
  8
LAYER-1
 10
1.152377
 20
0.144887
 30
0.000000
  0
VERTEX
  8
LAYER-1
 10
1.148037
 20
0.144887
 30
0.000000
  0
VERTEX
  8
LAYER-1
 10
1.144564
 20
0.140547
 30
0.000000
  0
VERTEX
  8
LAYER-1
 10
1.143696
 20
0.135339
 30
0.000000
  0
VERTEX
  8
LAYER-1
 10
1.145432
 20
0.130998
 30
0.000000
  0
VERTEX
  8
LAYER-1
 10
1.149773
 20
0.129262
 30
0.000000
  0
VERTEX
  8
LAYER-1
 10
1.154114
 20
0.129262
 30
0.000000
  0
VERTEX
  8
LAYER-1
 10
1.158454
 20
0.132735
 30
0.000000
  0
VERTEX
  8
LAYER-1
 10
1.158454
 20
0.137075
 30
0.000000
  0
VERTEX
  8
LAYER-1
 10
1.157586
 20
0.141416
 30
0.000000
  0
VERTEX
  8
LAYER-1
 10
1.153245
 20
0.144019
 30
0.000000
  0
SEQEND
  8
LAYER-1
  0
POLYLINE
  8
LAYER-1
 66
  1
 70
  0
 62
  0
 10
0.988314
 20
0.137075
 30
0.000000
  0
VERTEX
  8
LAYER-1
 10
0.988314
 20
0.137075
 30
0.000000
  0
VERTEX
  8
LAYER-1
 10
0.983975
 20
0.137075
 30
0.000000
  0
VERTEX
  8
LAYER-1
 10
0.980502
 20
0.132735
 30
0.000000
  0
VERTEX
  8
LAYER-1
 10
0.979634
 20
0.127526
 30
0.000000
  0
VERTEX
  8
LAYER-1
 10
0.981370
 20
0.123186
 30
0.000000
  0
VERTEX
  8
LAYER-1
 10
0.985710
 20
0.121450
 30
0.000000
  0
VERTEX
  8
LAYER-1
 10
0.990050
 20
0.121450
 30
0.000000
  0
VERTEX
  8
LAYER-1
 10
0.994391
 20
0.124922
 30
0.000000
  0
VERTEX
  8
LAYER-1
 10
0.994391
 20
0.129262
 30
0.000000
  0
VERTEX
  8
LAYER-1
 10
0.993523
 20
0.133603
 30
0.000000
  0
VERTEX
  8
LAYER-1
 10
0.989182
 20
0.136207
 30
0.000000
  0
SEQEND
  8
LAYER-1
  0
POLYLINE
  8
LAYER-1
 66
  1
 70
  1
 62
  0
 10
1.616354
 20
0.161814
 30
0.000000
  0
VERTEX
  8
LAYER-1
 10
1.616354
 20
0.161814
 30
0.000000
  0
VERTEX
  8
LAYER-1
 10
1.590313
 20
0.154869
 30
0.000000
  0
VERTEX
  8
LAYER-1
 10
1.604201
 20
0.129696
 30
0.000000
  0
SEQEND
  8
LAYER-1
  0
POLYLINE
  8
LAYER-1
 66
  1
 70
  1
 62
  0
 10
1.677897
 20
0.102217
 30
0.000000
  0
VERTEX
  8
LAYER-1
 10
1.677897
 20
0.102217
 30
0.000000
  0
VERTEX
  8
LAYER-1
 10
1.700467
 20
0.089195
 30
0.000000
  0
VERTEX
  8
LAYER-1
 10
1.679635
 20
0.119577
 30
0.000000
  0
SEQEND
  8
LAYER-1
  0
POLYLINE
  8
LAYER-1
 66
  1
 70
  1
 62
  0
 10
1.209236
 20
0.169626
 30
0.000000
  0
VERTEX
  8
LAYER-1
 10
1.209236
 20
0.169626
 30
0.000000
  0
VERTEX
  8
LAYER-1
 10
1.184062
 20
0.186118
 30
0.000000
  0
VERTEX
  8
LAYER-1
 10
1.176250
 20
0.171362
 30
0.000000
  0
SEQEND
  8
LAYER-1
  0
POLYLINE
  8
LAYER-1
 66
  1
 70
  0
 62
  0
 10
1.627639
 20
0.198273
 30
0.000000
  0
VERTEX
  8
LAYER-1
 10
1.627639
 20
0.198273
 30
0.000000
  0
VERTEX
  8
LAYER-1
 10
1.627639
 20
0.202613
 30
0.000000
  0
VERTEX
  8
LAYER-1
 10
1.623298
 20
0.206085
 30
0.000000
  0
VERTEX
  8
LAYER-1
 10
1.618091
 20
0.206953
 30
0.000000
  0
VERTEX
  8
LAYER-1
 10
1.613750
 20
0.205217
 30
0.000000
  0
VERTEX
  8
LAYER-1
 10
1.612014
 20
0.200876
 30
0.000000
  0
VERTEX
  8
LAYER-1
 10
1.612014
 20
0.196537
 30
0.000000
  0
VERTEX
  8
LAYER-1
 10
1.615486
 20
0.192196
 30
0.000000
  0
VERTEX
  8
LAYER-1
 10
1.619827
 20
0.192196
 30
0.000000
  0
VERTEX
  8
LAYER-1
 10
1.624167
 20
0.193064
 30
0.000000
  0
VERTEX
  8
LAYER-1
 10
1.626772
 20
0.197405
 30
0.000000
  0
SEQEND
  8
LAYER-1
  0
POLYLINE
  8
LAYER-1
 66
  1
 70
  1
 62
  0
 10
1.579896
 20
0.173965
 30
0.000000
  0
VERTEX
  8
LAYER-1
 10
1.579896
 20
0.173965
 30
0.000000
  0
VERTEX
  8
LAYER-1
 10
1.557326
 20
0.186986
 30
0.000000
  0
VERTEX
  8
LAYER-1
 10
1.578158
 20
0.156605
 30
0.000000
  0
SEQEND
  8
LAYER-1
  0
POLYLINE
  8
LAYER-1
 66
  1
 70
  1
 62
  0
 10
1.227998
 20
0.186284
 30
0.000000
  0
VERTEX
  8
LAYER-1
 10
1.227998
 20
0.186284
 30
0.000000
  0
VERTEX
  8
LAYER-1
 10
1.208634
 20
0.198971
 30
0.000000
  0
VERTEX
  8
LAYER-1
 10
1.202623
 20
0.187620
 30
0.000000
  0
SEQEND
  8
LAYER-1
  0
POLYLINE
  8
LAYER-1
 66
  1
 70
  0
 62
  0
 10
1.693871
 20
0.062633
 30
0.000000
  0
VERTEX
  8
LAYER-1
 10
1.693871
 20
0.062633
 30
0.000000
  0
VERTEX
  8
LAYER-1
 10
1.693871
 20
0.058294
 30
0.000000
  0
VERTEX
  8
LAYER-1
 10
1.698212
 20
0.054821
 30
0.000000
  0
VERTEX
  8
LAYER-1
 10
1.703419
 20
0.053953
 30
0.000000
  0
VERTEX
  8
LAYER-1
 10
1.707760
 20
0.055689
 30
0.000000
  0
VERTEX
  8
LAYER-1
 10
1.709496
 20
0.060029
 30
0.000000
  0
VERTEX
  8
LAYER-1
 10
1.709496
 20
0.064370
 30
0.000000
  0
VERTEX
  8
LAYER-1
 10
1.706024
 20
0.068709
 30
0.000000
  0
VERTEX
  8
LAYER-1
 10
1.701683
 20
0.068709
 30
0.000000
  0
VERTEX
  8
LAYER-1
 10
1.697343
 20
0.067841
 30
0.000000
  0
VERTEX
  8
LAYER-1
 10
1.694738
 20
0.063501
 30
0.000000
  0
SEQEND
  8
LAYER-1
  0
POLYLINE
  8
LAYER-1
 66
  1
 70
  0
 62
  0
 10
1.203159
 20
0.117543
 30
0.000000
  0
VERTEX
  8
LAYER-1
 10
1.203159
 20
0.117543
 30
0.000000
  0
VERTEX
  8
LAYER-1
 10
1.203159
 20
0.121884
 30
0.000000
  0
VERTEX
  8
LAYER-1
 10
1.198818
 20
0.125355
 30
0.000000
  0
VERTEX
  8
LAYER-1
 10
1.193611
 20
0.126223
 30
0.000000
  0
VERTEX
  8
LAYER-1
 10
1.189270
 20
0.124487
 30
0.000000
  0
VERTEX
  8
LAYER-1
 10
1.187534
 20
0.120147
 30
0.000000
  0
VERTEX
  8
LAYER-1
 10
1.187534
 20
0.115807
 30
0.000000
  0
VERTEX
  8
LAYER-1
 10
1.191006
 20
0.111466
 30
0.000000
  0
VERTEX
  8
LAYER-1
 10
1.195347
 20
0.111466
 30
0.000000
  0
VERTEX
  8
LAYER-1
 10
1.199687
 20
0.112334
 30
0.000000
  0
VERTEX
  8
LAYER-1
 10
1.202292
 20
0.116675
 30
0.000000
  0
SEQEND
  8
LAYER-1
  0
POLYLINE
  8
LAYER-1
 66
  1
 70
  0
 62
  0
 10
1.505243
 20
0.152267
 30
0.000000
  0
VERTEX
  8
LAYER-1
 10
1.505243
 20
0.152267
 30
0.000000
  0
VERTEX
  8
LAYER-1
 10
1.505243
 20
0.156607
 30
0.000000
  0
VERTEX
  8
LAYER-1
 10
1.500902
 20
0.160079
 30
0.000000
  0
VERTEX
  8
LAYER-1
 10
1.495694
 20
0.160947
 30
0.000000
  0
VERTEX
  8
LAYER-1
 10
1.491354
 20
0.159211
 30
0.000000
  0
VERTEX
  8
LAYER-1
 10
1.489618
 20
0.154870
 30
0.000000
  0
VERTEX
  8
LAYER-1
 10
1.489618
 20
0.150530
 30
0.000000
  0
VERTEX
  8
LAYER-1
 10
1.493090
 20
0.146190
 30
0.000000
  0
VERTEX
  8
LAYER-1
 10
1.497430
 20
0.146190
 30
0.000000
  0
VERTEX
  8
LAYER-1
 10
1.501771
 20
0.147057
 30
0.000000
  0
VERTEX
  8
LAYER-1
 10
1.504376
 20
0.151399
 30
0.000000
  0
SEQEND
  8
LAYER-1
  0
POLYLINE
  8
LAYER-1
 66
  1
 70
  1
 62
  0
 10
1.724427
 20
0.144454
 30
0.000000
  0
VERTEX
  8
LAYER-1
 10
1.724427
 20
0.144454
 30
0.000000
  0
VERTEX
  8
LAYER-1
 10
1.731371
 20
0.118412
 30
0.000000
  0
VERTEX
  8
LAYER-1
 10
1.750468
 20
0.134037
 30
0.000000
  0
SEQEND
  8
LAYER-1
  0
POLYLINE
  8
LAYER-1
 66
  1
 70
  1
 62
  0
 10
1.908454
 20
0.166155
 30
0.000000
  0
VERTEX
  8
LAYER-1
 10
1.908454
 20
0.166155
 30
0.000000
  0
VERTEX
  8
LAYER-1
 10
1.895433
 20
0.143586
 30
0.000000
  0
VERTEX
  8
LAYER-1
 10
1.925815
 20
0.164419
 30
0.000000
  0
SEQEND
  8
LAYER-1
  0
POLYLINE
  8
LAYER-1
 66
  1
 70
  1
 62
  0
 10
1.958358
 20
0.064695
 30
0.000000
  0
VERTEX
  8
LAYER-1
 10
1.958358
 20
0.064695
 30
0.000000
  0
VERTEX
  8
LAYER-1
 10
1.941866
 20
0.039521
 30
0.000000
  0
VERTEX
  8
LAYER-1
 10
1.956622
 20
0.031709
 30
0.000000
  0
SEQEND
  8
LAYER-1
  0
POLYLINE
  8
LAYER-1
 66
  1
 70
  0
 62
  0
 10
1.696649
 20
0.168760
 30
0.000000
  0
VERTEX
  8
LAYER-1
 10
1.696649
 20
0.168760
 30
0.000000
  0
VERTEX
  8
LAYER-1
 10
1.692308
 20
0.168760
 30
0.000000
  0
VERTEX
  8
LAYER-1
 10
1.688836
 20
0.164419
 30
0.000000
  0
VERTEX
  8
LAYER-1
 10
1.687968
 20
0.159211
 30
0.000000
  0
VERTEX
  8
LAYER-1
 10
1.689704
 20
0.154870
 30
0.000000
  0
VERTEX
  8
LAYER-1
 10
1.694044
 20
0.153135
 30
0.000000
  0
VERTEX
  8
LAYER-1
 10
1.698385
 20
0.153135
 30
0.000000
  0
VERTEX
  8
LAYER-1
 10
1.702724
 20
0.156606
 30
0.000000
  0
VERTEX
  8
LAYER-1
 10
1.702724
 20
0.160947
 30
0.000000
  0
VERTEX
  8
LAYER-1
 10
1.701856
 20
0.165287
 30
0.000000
  0
VERTEX
  8
LAYER-1
 10
1.697517
 20
0.167892
 30
0.000000
  0
SEQEND
  8
LAYER-1
  0
POLYLINE
  8
LAYER-1
 66
  1
 70
  1
 62
  0
 10
1.733975
 20
0.101050
 30
0.000000
  0
VERTEX
  8
LAYER-1
 10
1.733975
 20
0.101050
 30
0.000000
  0
VERTEX
  8
LAYER-1
 10
1.720954
 20
0.078481
 30
0.000000
  0
VERTEX
  8
LAYER-1
 10
1.751336
 20
0.099314
 30
0.000000
  0
SEQEND
  8
LAYER-1
  0
POLYLINE
  8
LAYER-1
 66
  1
 70
  1
 62
  0
 10
1.989775
 20
0.046804
 30
0.000000
  0
VERTEX
  8
LAYER-1
 10
1.989775
 20
0.046804
 30
0.000000
  0
VERTEX
  8
LAYER-1
 10
2.002463
 20
0.066167
 30
0.000000
  0
VERTEX
  8
LAYER-1
 10
1.991111
 20
0.072178
 30
0.000000
  0
SEQEND
  8
LAYER-1
  0
POLYLINE
  8
LAYER-1
 66
  1
 70
  0
 62
  0
 10
1.889001
 20
0.047251
 30
0.000000
  0
VERTEX
  8
LAYER-1
 10
1.889001
 20
0.047251
 30
0.000000
  0
VERTEX
  8
LAYER-1
 10
1.893341
 20
0.047251
 30
0.000000
  0
VERTEX
  8
LAYER-1
 10
1.896813
 20
0.051591
 30
0.000000
  0
VERTEX
  8
LAYER-1
 10
1.897681
 20
0.056799
 30
0.000000
  0
VERTEX
  8
LAYER-1
 10
1.895945
 20
0.061139
 30
0.000000
  0
VERTEX
  8
LAYER-1
 10
1.891605
 20
0.062876
 30
0.000000
  0
VERTEX
  8
LAYER-1
 10
1.887265
 20
0.062876
 30
0.000000
  0
VERTEX
  8
LAYER-1
 10
1.882924
 20
0.059403
 30
0.000000
  0
VERTEX
  8
LAYER-1
 10
1.882924
 20
0.055063
 30
0.000000
  0
VERTEX
  8
LAYER-1
 10
1.883792
 20
0.050722
 30
0.000000
  0
VERTEX
  8
LAYER-1
 10
1.888133
 20
0.048118
 30
0.000000
  0
SEQEND
  8
LAYER-1
  0
POLYLINE
  8
LAYER-1
 66
  1
 70
  0
 62
  0
 10
1.578505
 20
0.083118
 30
0.000000
  0
VERTEX
  8
LAYER-1
 10
1.578505
 20
0.083118
 30
0.000000
  0
VERTEX
  8
LAYER-1
 10
1.582846
 20
0.083118
 30
0.000000
  0
VERTEX
  8
LAYER-1
 10
1.586318
 20
0.087458
 30
0.000000
  0
VERTEX
  8
LAYER-1
 10
1.587187
 20
0.092667
 30
0.000000
  0
VERTEX
  8
LAYER-1
 10
1.585451
 20
0.097007
 30
0.000000
  0
VERTEX
  8
LAYER-1
 10
1.581110
 20
0.098743
 30
0.000000
  0
VERTEX
  8
LAYER-1
 10
1.576770
 20
0.098743
 30
0.000000
  0
VERTEX
  8
LAYER-1
 10
1.572429
 20
0.095271
 30
0.000000
  0
VERTEX
  8
LAYER-1
 10
1.572429
 20
0.090931
 30
0.000000
  0
VERTEX
  8
LAYER-1
 10
1.573298
 20
0.086589
 30
0.000000
  0
VERTEX
  8
LAYER-1
 10
1.577638
 20
0.083986
 30
0.000000
  0
SEQEND
  8
LAYER-1
  0
POLYLINE
  8
LAYER-1
 66
  1
 70
  1
 62
  0
 10
2.073819
 20
0.149228
 30
0.000000
  0
VERTEX
  8
LAYER-1
 10
2.073819
 20
0.149228
 30
0.000000
  0
VERTEX
  8
LAYER-1
 10
2.047779
 20
0.142284
 30
0.000000
  0
VERTEX
  8
LAYER-1
 10
2.061666
 20
0.117110
 30
0.000000
  0
SEQEND
  8
LAYER-1
  0
POLYLINE
  8
LAYER-1
 66
  1
 70
  1
 62
  0
 10
1.812703
 20
0.109634
 30
0.000000
  0
VERTEX
  8
LAYER-1
 10
1.812703
 20
0.109634
 30
0.000000
  0
VERTEX
  8
LAYER-1
 10
1.790131
 20
0.122654
 30
0.000000
  0
VERTEX
  8
LAYER-1
 10
1.810965
 20
0.092272
 30
0.000000
  0
SEQEND
  8
LAYER-1
  0
POLYLINE
  8
LAYER-1
 66
  1
 70
  1
 62
  0
 10
1.842559
 20
0.032060
 30
0.000000
  0
VERTEX
  8
LAYER-1
 10
1.842559
 20
0.032060
 30
0.000000
  0
VERTEX
  8
LAYER-1
 10
1.867733
 20
0.015566
 30
0.000000
  0
VERTEX
  8
LAYER-1
 10
1.875545
 20
0.030324
 30
0.000000
  0
SEQEND
  8
LAYER-1
  0
POLYLINE
  8
LAYER-1
 66
  1
 70
  0
 62
  0
 10
2.105069
 20
0.198705
 30
0.000000
  0
VERTEX
  8
LAYER-1
 10
2.105069
 20
0.198705
 30
0.000000
  0
VERTEX
  8
LAYER-1
 10
2.105069
 20
0.203046
 30
0.000000
  0
VERTEX
  8
LAYER-1
 10
2.100728
 20
0.206518
 30
0.000000
  0
VERTEX
  8
LAYER-1
 10
2.095521
 20
0.207386
 30
0.000000
  0
VERTEX
  8
LAYER-1
 10
2.091180
 20
0.205649
 30
0.000000
  0
VERTEX
  8
LAYER-1
 10
2.089444
 20
0.201309
 30
0.000000
  0
VERTEX
  8
LAYER-1
 10
2.089444
 20
0.196969
 30
0.000000
  0
VERTEX
  8
LAYER-1
 10
2.092916
 20
0.192629
 30
0.000000
  0
VERTEX
  8
LAYER-1
 10
2.097257
 20
0.192629
 30
0.000000
  0
VERTEX
  8
LAYER-1
 10
2.101597
 20
0.193497
 30
0.000000
  0
VERTEX
  8
LAYER-1
 10
2.104202
 20
0.197837
 30
0.000000
  0
SEQEND
  8
LAYER-1
  0
POLYLINE
  8
LAYER-1
 66
  1
 70
  1
 62
  0
 10
2.037361
 20
0.161380
 30
0.000000
  0
VERTEX
  8
LAYER-1
 10
2.037361
 20
0.161380
 30
0.000000
  0
VERTEX
  8
LAYER-1
 10
2.014791
 20
0.174400
 30
0.000000
  0
VERTEX
  8
LAYER-1
 10
2.035624
 20
0.144019
 30
0.000000
  0
SEQEND
  8
LAYER-1
  0
POLYLINE
  8
LAYER-1
 66
  1
 70
  1
 62
  0
 10
0.806124
 20
0.198003
 30
0.000000
  0
VERTEX
  8
LAYER-1
 10
0.806124
 20
0.198003
 30
0.000000
  0
VERTEX
  8
LAYER-1
 10
0.786760
 20
0.210690
 30
0.000000
  0
VERTEX
  8
LAYER-1
 10
0.780748
 20
0.199339
 30
0.000000
  0
SEQEND
  8
LAYER-1
  0
POLYLINE
  8
LAYER-1
 66
  1
 70
  0
 62
  0
 10
1.817041
 20
0.169529
 30
0.000000
  0
VERTEX
  8
LAYER-1
 10
1.817041
 20
0.169529
 30
0.000000
  0
VERTEX
  8
LAYER-1
 10
1.817041
 20
0.173868
 30
0.000000
  0
VERTEX
  8
LAYER-1
 10
1.812701
 20
0.177341
 30
0.000000
  0
VERTEX
  8
LAYER-1
 10
1.807493
 20
0.178209
 30
0.000000
  0
VERTEX
  8
LAYER-1
 10
1.803152
 20
0.176473
 30
0.000000
  0
VERTEX
  8
LAYER-1
 10
1.801416
 20
0.172134
 30
0.000000
  0
VERTEX
  8
LAYER-1
 10
1.801416
 20
0.167792
 30
0.000000
  0
VERTEX
  8
LAYER-1
 10
1.804888
 20
0.163453
 30
0.000000
  0
VERTEX
  8
LAYER-1
 10
1.809229
 20
0.163453
 30
0.000000
  0
VERTEX
  8
LAYER-1
 10
1.813569
 20
0.164321
 30
0.000000
  0
VERTEX
  8
LAYER-1
 10
1.816174
 20
0.168661
 30
0.000000
  0
SEQEND
  8
LAYER-1
  0
POLYLINE
  8
LAYER-1
 66
  1
 70
  0
 62
  0
 10
0.783021
 20
0.130998
 30
0.000000
  0
VERTEX
  8
LAYER-1
 10
0.783021
 20
0.130998
 30
0.000000
  0
VERTEX
  8
LAYER-1
 10
0.783021
 20
0.135338
 30
0.000000
  0
VERTEX
  8
LAYER-1
 10
0.778680
 20
0.138810
 30
0.000000
  0
VERTEX
  8
LAYER-1
 10
0.773472
 20
0.139678
 30
0.000000
  0
VERTEX
  8
LAYER-1
 10
0.769132
 20
0.137942
 30
0.000000
  0
VERTEX
  8
LAYER-1
 10
0.767396
 20
0.133601
 30
0.000000
  0
VERTEX
  8
LAYER-1
 10
0.767396
 20
0.129261
 30
0.000000
  0
VERTEX
  8
LAYER-1
 10
0.770868
 20
0.124921
 30
0.000000
  0
VERTEX
  8
LAYER-1
 10
0.775208
 20
0.124921
 30
0.000000
  0
VERTEX
  8
LAYER-1
 10
0.779549
 20
0.125788
 30
0.000000
  0
VERTEX
  8
LAYER-1
 10
0.782154
 20
0.130129
 30
0.000000
  0
SEQEND
  8
LAYER-1
  0
POLYLINE
  8
LAYER-1
 66
  1
 70
  0
 62
  0
 10
1.905416
 20
0.198702
 30
0.000000
  0
VERTEX
  8
LAYER-1
 10
1.905416
 20
0.198702
 30
0.000000
  0
VERTEX
  8
LAYER-1
 10
1.905416
 20
0.203043
 30
0.000000
  0
VERTEX
  8
LAYER-1
 10
1.901075
 20
0.206515
 30
0.000000
  0
VERTEX
  8
LAYER-1
 10
1.895867
 20
0.207383
 30
0.000000
  0
VERTEX
  8
LAYER-1
 10
1.891527
 20
0.205647
 30
0.000000
  0
VERTEX
  8
LAYER-1
 10
1.889791
 20
0.201306
 30
0.000000
  0
VERTEX
  8
LAYER-1
 10
1.889791
 20
0.196966
 30
0.000000
  0
VERTEX
  8
LAYER-1
 10
1.893263
 20
0.192625
 30
0.000000
  0
VERTEX
  8
LAYER-1
 10
1.897603
 20
0.192625
 30
0.000000
  0
VERTEX
  8
LAYER-1
 10
1.901944
 20
0.193493
 30
0.000000
  0
VERTEX
  8
LAYER-1
 10
1.904549
 20
0.197834
 30
0.000000
  0
SEQEND
  8
LAYER-1
  0
POLYLINE
  8
LAYER-1
 66
  1
 70
  1
 62
  0
 10
1.464704
 20
0.063238
 30
0.000000
  0
VERTEX
  8
LAYER-1
 10
1.464704
 20
0.063238
 30
0.000000
  0
VERTEX
  8
LAYER-1
 10
1.438663
 20
0.056293
 30
0.000000
  0
VERTEX
  8
LAYER-1
 10
1.452551
 20
0.031119
 30
0.000000
  0
SEQEND
  8
LAYER-1
  0
POLYLINE
  8
LAYER-1
 66
  1
 70
  1
 62
  0
 10
2.311231
 20
0.126659
 30
0.000000
  0
VERTEX
  8
LAYER-1
 10
2.311231
 20
0.126659
 30
0.000000
  0
VERTEX
  8
LAYER-1
 10
2.333801
 20
0.113637
 30
0.000000
  0
VERTEX
  8
LAYER-1
 10
2.312968
 20
0.144019
 30
0.000000
  0
SEQEND
  8
LAYER-1
  0
POLYLINE
  8
LAYER-1
 66
  1
 70
  1
 62
  0
 10
0.920606
 20
0.143585
 30
0.000000
  0
VERTEX
  8
LAYER-1
 10
0.920606
 20
0.143585
 30
0.000000
  0
VERTEX
  8
LAYER-1
 10
0.945781
 20
0.127092
 30
0.000000
  0
VERTEX
  8
LAYER-1
 10
0.953593
 20
0.141849
 30
0.000000
  0
SEQEND
  8
LAYER-1
  0
POLYLINE
  8
LAYER-1
 66
  1
 70
  0
 62
  0
 10
2.239183
 20
0.173530
 30
0.000000
  0
VERTEX
  8
LAYER-1
 10
2.239183
 20
0.173530
 30
0.000000
  0
VERTEX
  8
LAYER-1
 10
2.239183
 20
0.169190
 30
0.000000
  0
VERTEX
  8
LAYER-1
 10
2.243524
 20
0.165718
 30
0.000000
  0
VERTEX
  8
LAYER-1
 10
2.248731
 20
0.164850
 30
0.000000
  0
VERTEX
  8
LAYER-1
 10
2.253072
 20
0.166586
 30
0.000000
  0
VERTEX
  8
LAYER-1
 10
2.254808
 20
0.170927
 30
0.000000
  0
VERTEX
  8
LAYER-1
 10
2.254808
 20
0.175266
 30
0.000000
  0
VERTEX
  8
LAYER-1
 10
2.251336
 20
0.179606
 30
0.000000
  0
VERTEX
  8
LAYER-1
 10
2.246996
 20
0.179606
 30
0.000000
  0
VERTEX
  8
LAYER-1
 10
2.242655
 20
0.178738
 30
0.000000
  0
VERTEX
  8
LAYER-1
 10
2.240051
 20
0.174398
 30
0.000000
  0
SEQEND
  8
LAYER-1
  0
POLYLINE
  8
LAYER-1
 66
  1
 70
  1
 62
  0
 10
2.188835
 20
0.184816
 30
0.000000
  0
VERTEX
  8
LAYER-1
 10
2.188835
 20
0.184816
 30
0.000000
  0
VERTEX
  8
LAYER-1
 10
2.211405
 20
0.171796
 30
0.000000
  0
VERTEX
  8
LAYER-1
 10
2.190572
 20
0.202177
 30
0.000000
  0
SEQEND
  8
LAYER-1
  0
POLYLINE
  8
LAYER-1
 66
  1
 70
  1
 62
  0
 10
0.919205
 20
0.091335
 30
0.000000
  0
VERTEX
  8
LAYER-1
 10
0.919205
 20
0.091335
 30
0.000000
  0
VERTEX
  8
LAYER-1
 10
0.938570
 20
0.078648
 30
0.000000
  0
VERTEX
  8
LAYER-1
 10
0.944580
 20
0.089999
 30
0.000000
  0
SEQEND
  8
LAYER-1
  0
POLYLINE
  8
LAYER-1
 66
  1
 70
  0
 62
  0
 10
1.645346
 20
0.043620
 30
0.000000
  0
VERTEX
  8
LAYER-1
 10
1.645346
 20
0.043620
 30
0.000000
  0
VERTEX
  8
LAYER-1
 10
1.645346
 20
0.047960
 30
0.000000
  0
VERTEX
  8
LAYER-1
 10
1.641005
 20
0.051432
 30
0.000000
  0
VERTEX
  8
LAYER-1
 10
1.635798
 20
0.052300
 30
0.000000
  0
VERTEX
  8
LAYER-1
 10
1.631457
 20
0.050564
 30
0.000000
  0
VERTEX
  8
LAYER-1
 10
1.629721
 20
0.046224
 30
0.000000
  0
VERTEX
  8
LAYER-1
 10
1.629721
 20
0.041883
 30
0.000000
  0
VERTEX
  8
LAYER-1
 10
1.633193
 20
0.037543
 30
0.000000
  0
VERTEX
  8
LAYER-1
 10
1.637534
 20
0.037543
 30
0.000000
  0
VERTEX
  8
LAYER-1
 10
1.641874
 20
0.038411
 30
0.000000
  0
VERTEX
  8
LAYER-1
 10
1.644478
 20
0.042752
 30
0.000000
  0
SEQEND
  8
LAYER-1
  0
POLYLINE
  8
LAYER-1
 66
  1
 70
  0
 62
  0
 10
2.450989
 20
0.126659
 30
0.000000
  0
VERTEX
  8
LAYER-1
 10
2.450989
 20
0.126659
 30
0.000000
  0
VERTEX
  8
LAYER-1
 10
2.450989
 20
0.122318
 30
0.000000
  0
VERTEX
  8
LAYER-1
 10
2.455329
 20
0.118846
 30
0.000000
  0
VERTEX
  8
LAYER-1
 10
2.460537
 20
0.117978
 30
0.000000
  0
VERTEX
  8
LAYER-1
 10
2.464878
 20
0.119714
 30
0.000000
  0
VERTEX
  8
LAYER-1
 10
2.466614
 20
0.124054
 30
0.000000
  0
VERTEX
  8
LAYER-1
 10
2.466614
 20
0.128394
 30
0.000000
  0
VERTEX
  8
LAYER-1
 10
2.463142
 20
0.132735
 30
0.000000
  0
VERTEX
  8
LAYER-1
 10
2.458801
 20
0.132735
 30
0.000000
  0
VERTEX
  8
LAYER-1
 10
2.454460
 20
0.131866
 30
0.000000
  0
VERTEX
  8
LAYER-1
 10
2.451856
 20
0.127526
 30
0.000000
  0
SEQEND
  8
LAYER-1
  0
POLYLINE
  8
LAYER-1
 66
  1
 70
  0
 62
  0
 10
2.285190
 20
0.181345
 30
0.000000
  0
VERTEX
  8
LAYER-1
 10
2.285190
 20
0.181345
 30
0.000000
  0
VERTEX
  8
LAYER-1
 10
2.285190
 20
0.177004
 30
0.000000
  0
VERTEX
  8
LAYER-1
 10
2.289531
 20
0.173532
 30
0.000000
  0
VERTEX
  8
LAYER-1
 10
2.294739
 20
0.172666
 30
0.000000
  0
VERTEX
  8
LAYER-1
 10
2.299079
 20
0.174400
 30
0.000000
  0
VERTEX
  8
LAYER-1
 10
2.300815
 20
0.178741
 30
0.000000
  0
VERTEX
  8
LAYER-1
 10
2.300815
 20
0.183081
 30
0.000000
  0
VERTEX
  8
LAYER-1
 10
2.297343
 20
0.187422
 30
0.000000
  0
VERTEX
  8
LAYER-1
 10
2.293003
 20
0.187422
 30
0.000000
  0
VERTEX
  8
LAYER-1
 10
2.288662
 20
0.186553
 30
0.000000
  0
VERTEX
  8
LAYER-1
 10
2.286057
 20
0.182213
 30
0.000000
  0
SEQEND
  8
LAYER-1
  0
POLYLINE
  8
LAYER-1
 66
  1
 70
  1
 62
  0
 10
2.047343
 20
0.098447
 30
0.000000
  0
VERTEX
  8
LAYER-1
 10
2.047343
 20
0.098447
 30
0.000000
  0
VERTEX
  8
LAYER-1
 10
2.054288
 20
0.072406
 30
0.000000
  0
VERTEX
  8
LAYER-1
 10
2.079461
 20
0.086294
 30
0.000000
  0
SEQEND
  8
LAYER-1
  0
POLYLINE
  8
LAYER-1
 66
  1
 70
  1
 62
  0
 10
2.151858
 20
0.085689
 30
0.000000
  0
VERTEX
  8
LAYER-1
 10
2.151858
 20
0.085689
 30
0.000000
  0
VERTEX
  8
LAYER-1
 10
2.138837
 20
0.063119
 30
0.000000
  0
VERTEX
  8
LAYER-1
 10
2.169218
 20
0.083951
 30
0.000000
  0
SEQEND
  8
LAYER-1
  0
POLYLINE
  8
LAYER-1
 66
  1
 70
  1
 62
  0
 10
1.867822
 20
0.116144
 30
0.000000
  0
VERTEX
  8
LAYER-1
 10
1.867822
 20
0.116144
 30
0.000000
  0
VERTEX
  8
LAYER-1
 10
1.851329
 20
0.090971
 30
0.000000
  0
VERTEX
  8
LAYER-1
 10
1.866086
 20
0.083159
 30
0.000000
  0
SEQEND
  8
LAYER-1
  0
POLYLINE
  8
LAYER-1
 66
  1
 70
  0
 62
  0
 10
1.997864
 20
0.129697
 30
0.000000
  0
VERTEX
  8
LAYER-1
 10
1.997864
 20
0.129697
 30
0.000000
  0
VERTEX
  8
LAYER-1
 10
1.993524
 20
0.129697
 30
0.000000
  0
VERTEX
  8
LAYER-1
 10
1.990052
 20
0.125356
 30
0.000000
  0
VERTEX
  8
LAYER-1
 10
1.989184
 20
0.120149
 30
0.000000
  0
VERTEX
  8
LAYER-1
 10
1.990920
 20
0.115807
 30
0.000000
  0
VERTEX
  8
LAYER-1
 10
1.995261
 20
0.114072
 30
0.000000
  0
VERTEX
  8
LAYER-1
 10
1.999600
 20
0.114072
 30
0.000000
  0
VERTEX
  8
LAYER-1
 10
2.003941
 20
0.117544
 30
0.000000
  0
VERTEX
  8
LAYER-1
 10
2.003941
 20
0.121885
 30
0.000000
  0
VERTEX
  8
LAYER-1
 10
2.003073
 20
0.126225
 30
0.000000
  0
VERTEX
  8
LAYER-1
 10
1.998732
 20
0.128830
 30
0.000000
  0
SEQEND
  8
LAYER-1
  0
POLYLINE
  8
LAYER-1
 66
  1
 70
  1
 62
  0
 10
0.855504
 20
0.206084
 30
0.000000
  0
VERTEX
  8
LAYER-1
 10
0.855504
 20
0.206084
 30
0.000000
  0
VERTEX
  8
LAYER-1
 10
0.842482
 20
0.183513
 30
0.000000
  0
VERTEX
  8
LAYER-1
 10
0.872865
 20
0.204347
 30
0.000000
  0
SEQEND
  8
LAYER-1
  0
POLYLINE
  8
LAYER-1
 66
  1
 70
  1
 62
  0
 10
1.852899
 20
0.148794
 30
0.000000
  0
VERTEX
  8
LAYER-1
 10
1.852899
 20
0.148794
 30
0.000000
  0
VERTEX
  8
LAYER-1
 10
1.840212
 20
0.129429
 30
0.000000
  0
VERTEX
  8
LAYER-1
 10
1.851563
 20
0.123418
 30
0.000000
  0
SEQEND
  8
LAYER-1
  0
POLYLINE
  8
LAYER-1
 66
  1
 70
  0
 62
  0
 10
2.149774
 20
0.131432
 30
0.000000
  0
VERTEX
  8
LAYER-1
 10
2.149774
 20
0.131432
 30
0.000000
  0
VERTEX
  8
LAYER-1
 10
2.145434
 20
0.131432
 30
0.000000
  0
VERTEX
  8
LAYER-1
 10
2.141961
 20
0.127092
 30
0.000000
  0
VERTEX
  8
LAYER-1
 10
2.141093
 20
0.121885
 30
0.000000
  0
VERTEX
  8
LAYER-1
 10
2.142829
 20
0.117544
 30
0.000000
  0
VERTEX
  8
LAYER-1
 10
2.147170
 20
0.115807
 30
0.000000
  0
VERTEX
  8
LAYER-1
 10
2.151511
 20
0.115807
 30
0.000000
  0
VERTEX
  8
LAYER-1
 10
2.155850
 20
0.119280
 30
0.000000
  0
VERTEX
  8
LAYER-1
 10
2.155850
 20
0.123620
 30
0.000000
  0
VERTEX
  8
LAYER-1
 10
2.154982
 20
0.127961
 30
0.000000
  0
VERTEX
  8
LAYER-1
 10
2.150642
 20
0.130566
 30
0.000000
  0
SEQEND
  8
LAYER-1
  0
POLYLINE
  8
LAYER-1
 66
  1
 70
  0
 62
  0
 10
2.209670
 20
0.136641
 30
0.000000
  0
VERTEX
  8
LAYER-1
 10
2.209670
 20
0.136641
 30
0.000000
  0
VERTEX
  8
LAYER-1
 10
2.205329
 20
0.136641
 30
0.000000
  0
VERTEX
  8
LAYER-1
 10
2.201857
 20
0.132300
 30
0.000000
  0
VERTEX
  8
LAYER-1
 10
2.200989
 20
0.127092
 30
0.000000
  0
VERTEX
  8
LAYER-1
 10
2.202725
 20
0.122751
 30
0.000000
  0
VERTEX
  8
LAYER-1
 10
2.207066
 20
0.121016
 30
0.000000
  0
VERTEX
  8
LAYER-1
 10
2.211406
 20
0.121016
 30
0.000000
  0
VERTEX
  8
LAYER-1
 10
2.215747
 20
0.124487
 30
0.000000
  0
VERTEX
  8
LAYER-1
 10
2.215747
 20
0.128828
 30
0.000000
  0
VERTEX
  8
LAYER-1
 10
2.214879
 20
0.133169
 30
0.000000
  0
VERTEX
  8
LAYER-1
 10
2.210538
 20
0.135774
 30
0.000000
  0
SEQEND
  8
LAYER-1
  0
POLYLINE
  8
LAYER-1
 66
  1
 70
  0
 62
  0
 10
0.865920
 20
0.123619
 30
0.000000
  0
VERTEX
  8
LAYER-1
 10
0.865920
 20
0.123619
 30
0.000000
  0
VERTEX
  8
LAYER-1
 10
0.861579
 20
0.123619
 30
0.000000
  0
VERTEX
  8
LAYER-1
 10
0.858107
 20
0.119279
 30
0.000000
  0
VERTEX
  8
LAYER-1
 10
0.857240
 20
0.114071
 30
0.000000
  0
VERTEX
  8
LAYER-1
 10
0.858975
 20
0.109730
 30
0.000000
  0
VERTEX
  8
LAYER-1
 10
0.863316
 20
0.107994
 30
0.000000
  0
VERTEX
  8
LAYER-1
 10
0.867656
 20
0.107994
 30
0.000000
  0
VERTEX
  8
LAYER-1
 10
0.871997
 20
0.111466
 30
0.000000
  0
VERTEX
  8
LAYER-1
 10
0.871997
 20
0.115807
 30
0.000000
  0
VERTEX
  8
LAYER-1
 10
0.871129
 20
0.120148
 30
0.000000
  0
VERTEX
  8
LAYER-1
 10
0.866788
 20
0.122753
 30
0.000000
  0
SEQEND
  8
LAYER-1
  0
POLYLINE
  8
LAYER-1
 66
  1
 70
  1
 62
  0
 10
2.516961
 20
0.163550
 30
0.000000
  0
VERTEX
  8
LAYER-1
 10
2.516961
 20
0.163550
 30
0.000000
  0
VERTEX
  8
LAYER-1
 10
2.523906
 20
0.137509
 30
0.000000
  0
VERTEX
  8
LAYER-1
 10
2.549079
 20
0.151397
 30
0.000000
  0
SEQEND
  8
LAYER-1
  0
POLYLINE
  8
LAYER-1
 66
  1
 70
  1
 62
  0
 10
2.679288
 20
0.192195
 30
0.000000
  0
VERTEX
  8
LAYER-1
 10
2.679288
 20
0.192195
 30
0.000000
  0
VERTEX
  8
LAYER-1
 10
2.666267
 20
0.169626
 30
0.000000
  0
VERTEX
  8
LAYER-1
 10
2.696649
 20
0.190459
 30
0.000000
  0
SEQEND
  8
LAYER-1
  0
POLYLINE
  8
LAYER-1
 66
  1
 70
  1
 62
  0
 10
1.355503
 20
0.143150
 30
0.000000
  0
VERTEX
  8
LAYER-1
 10
1.355503
 20
0.143150
 30
0.000000
  0
VERTEX
  8
LAYER-1
 10
1.339010
 20
0.117976
 30
0.000000
  0
VERTEX
  8
LAYER-1
 10
1.353767
 20
0.110163
 30
0.000000
  0
SEQEND
  8
LAYER-1
  0
POLYLINE
  8
LAYER-1
 66
  1
 70
  0
 62
  0
 10
2.467482
 20
0.194799
 30
0.000000
  0
VERTEX
  8
LAYER-1
 10
2.467482
 20
0.194799
 30
0.000000
  0
VERTEX
  8
LAYER-1
 10
2.463142
 20
0.194799
 30
0.000000
  0
VERTEX
  8
LAYER-1
 10
2.459670
 20
0.190459
 30
0.000000
  0
VERTEX
  8
LAYER-1
 10
2.458801
 20
0.185250
 30
0.000000
  0
VERTEX
  8
LAYER-1
 10
2.460538
 20
0.180910
 30
0.000000
  0
VERTEX
  8
LAYER-1
 10
2.464878
 20
0.179174
 30
0.000000
  0
VERTEX
  8
LAYER-1
 10
2.469218
 20
0.179174
 30
0.000000
  0
VERTEX
  8
LAYER-1
 10
2.473559
 20
0.182646
 30
0.000000
  0
VERTEX
  8
LAYER-1
 10
2.473559
 20
0.186986
 30
0.000000
  0
VERTEX
  8
LAYER-1
 10
2.472690
 20
0.191327
 30
0.000000
  0
VERTEX
  8
LAYER-1
 10
2.468350
 20
0.193931
 30
0.000000
  0
SEQEND
  8
LAYER-1
  0
POLYLINE
  8
LAYER-1
 66
  1
 70
  1
 62
  0
 10
2.504809
 20
0.127091
 30
0.000000
  0
VERTEX
  8
LAYER-1
 10
2.504809
 20
0.127091
 30
0.000000
  0
VERTEX
  8
LAYER-1
 10
2.491788
 20
0.104522
 30
0.000000
  0
VERTEX
  8
LAYER-1
 10
2.522170
 20
0.125354
 30
0.000000
  0
SEQEND
  8
LAYER-1
  0
POLYLINE
  8
LAYER-1
 66
  1
 70
  1
 62
  0
 10
1.063736
 20
0.217461
 30
0.000000
  0
VERTEX
  8
LAYER-1
 10
1.063736
 20
0.217461
 30
0.000000
  0
VERTEX
  8
LAYER-1
 10
1.083101
 20
0.204775
 30
0.000000
  0
VERTEX
  8
LAYER-1
 10
1.089111
 20
0.216125
 30
0.000000
  0
SEQEND
  8
LAYER-1
  0
POLYLINE
  8
LAYER-1
 66
  1
 70
  0
 62
  0
 10
2.619392
 20
0.196535
 30
0.000000
  0
VERTEX
  8
LAYER-1
 10
2.619392
 20
0.196535
 30
0.000000
  0
VERTEX
  8
LAYER-1
 10
2.615051
 20
0.196535
 30
0.000000
  0
VERTEX
  8
LAYER-1
 10
2.611579
 20
0.192194
 30
0.000000
  0
VERTEX
  8
LAYER-1
 10
2.610711
 20
0.186986
 30
0.000000
  0
VERTEX
  8
LAYER-1
 10
2.612447
 20
0.182646
 30
0.000000
  0
VERTEX
  8
LAYER-1
 10
2.616788
 20
0.180910
 30
0.000000
  0
VERTEX
  8
LAYER-1
 10
2.621128
 20
0.180910
 30
0.000000
  0
VERTEX
  8
LAYER-1
 10
2.625468
 20
0.184381
 30
0.000000
  0
VERTEX
  8
LAYER-1
 10
2.625468
 20
0.188722
 30
0.000000
  0
VERTEX
  8
LAYER-1
 10
2.624600
 20
0.193063
 30
0.000000
  0
VERTEX
  8
LAYER-1
 10
2.620260
 20
0.195667
 30
0.000000
  0
SEQEND
  8
LAYER-1
  0
POLYLINE
  8
LAYER-1
 66
  1
 70
  0
 62
  0
 10
1.407587
 20
0.137074
 30
0.000000
  0
VERTEX
  8
LAYER-1
 10
1.407587
 20
0.137074
 30
0.000000
  0
VERTEX
  8
LAYER-1
 10
1.403246
 20
0.137074
 30
0.000000
  0
VERTEX
  8
LAYER-1
 10
1.399774
 20
0.132734
 30
0.000000
  0
VERTEX
  8
LAYER-1
 10
1.398906
 20
0.127525
 30
0.000000
  0
VERTEX
  8
LAYER-1
 10
1.400642
 20
0.123185
 30
0.000000
  0
VERTEX
  8
LAYER-1
 10
1.404982
 20
0.121449
 30
0.000000
  0
VERTEX
  8
LAYER-1
 10
1.409323
 20
0.121449
 30
0.000000
  0
VERTEX
  8
LAYER-1
 10
1.413663
 20
0.124921
 30
0.000000
  0
VERTEX
  8
LAYER-1
 10
1.413663
 20
0.129261
 30
0.000000
  0
VERTEX
  8
LAYER-1
 10
1.412795
 20
0.133603
 30
0.000000
  0
VERTEX
  8
LAYER-1
 10
1.408455
 20
0.136206
 30
0.000000
  0
SEQEND
  8
LAYER-1
  0
POLYLINE
  8
LAYER-1
 66
  1
 70
  0
 62
  0
 10
0.990920
 20
0.113636
 30
0.000000
  0
VERTEX
  8
LAYER-1
 10
0.990920
 20
0.113636
 30
0.000000
  0
VERTEX
  8
LAYER-1
 10
0.986579
 20
0.113636
 30
0.000000
  0
VERTEX
  8
LAYER-1
 10
0.983107
 20
0.109296
 30
0.000000
  0
VERTEX
  8
LAYER-1
 10
0.982239
 20
0.104088
 30
0.000000
  0
VERTEX
  8
LAYER-1
 10
0.983975
 20
0.099748
 30
0.000000
  0
VERTEX
  8
LAYER-1
 10
0.988315
 20
0.098011
 30
0.000000
  0
VERTEX
  8
LAYER-1
 10
0.992656
 20
0.098011
 30
0.000000
  0
VERTEX
  8
LAYER-1
 10
0.996995
 20
0.101484
 30
0.000000
  0
VERTEX
  8
LAYER-1
 10
0.996995
 20
0.105824
 30
0.000000
  0
VERTEX
  8
LAYER-1
 10
0.996127
 20
0.110165
 30
0.000000
  0
VERTEX
  8
LAYER-1
 10
0.991788
 20
0.112768
 30
0.000000
  0
SEQEND
  8
LAYER-1
  0
POLYLINE
  8
LAYER-1
 66
  1
 70
  1
 62
  0
 10
2.958802
 20
0.187854
 30
0.000000
  0
VERTEX
  8
LAYER-1
 10
2.958802
 20
0.187854
 30
0.000000
  0
VERTEX
  8
LAYER-1
 10
2.965746
 20
0.161815
 30
0.000000
  0
VERTEX
  8
LAYER-1
 10
2.990920
 20
0.175701
 30
0.000000
  0
SEQEND
  8
LAYER-1
  0
POLYLINE
  8
LAYER-1
 66
  1
 70
  1
 62
  0
 10
3.121129
 20
0.216501
 30
0.000000
  0
VERTEX
  8
LAYER-1
 10
3.121129
 20
0.216501
 30
0.000000
  0
VERTEX
  8
LAYER-1
 10
3.108107
 20
0.193931
 30
0.000000
  0
VERTEX
  8
LAYER-1
 10
3.138489
 20
0.214763
 30
0.000000
  0
SEQEND
  8
LAYER-1
  0
POLYLINE
  8
LAYER-1
 66
  1
 70
  1
 62
  0
 10
2.349426
 20
0.152266
 30
0.000000
  0
VERTEX
  8
LAYER-1
 10
2.349426
 20
0.152266
 30
0.000000
  0
VERTEX
  8
LAYER-1
 10
2.374600
 20
0.135772
 30
0.000000
  0
VERTEX
  8
LAYER-1
 10
2.382412
 20
0.150530
 30
0.000000
  0
SEQEND
  8
LAYER-1
  0
POLYLINE
  8
LAYER-1
 66
  1
 70
  0
 62
  0
 10
2.919739
 20
0.208689
 30
0.000000
  0
VERTEX
  8
LAYER-1
 10
2.919739
 20
0.208689
 30
0.000000
  0
VERTEX
  8
LAYER-1
 10
2.915398
 20
0.208689
 30
0.000000
  0
VERTEX
  8
LAYER-1
 10
2.911927
 20
0.204348
 30
0.000000
  0
VERTEX
  8
LAYER-1
 10
2.911059
 20
0.199141
 30
0.000000
  0
VERTEX
  8
LAYER-1
 10
2.912795
 20
0.194800
 30
0.000000
  0
VERTEX
  8
LAYER-1
 10
2.917135
 20
0.193064
 30
0.000000
  0
VERTEX
  8
LAYER-1
 10
2.921475
 20
0.193064
 30
0.000000
  0
VERTEX
  8
LAYER-1
 10
2.925816
 20
0.196536
 30
0.000000
  0
VERTEX
  8
LAYER-1
 10
2.925816
 20
0.200876
 30
0.000000
  0
VERTEX
  8
LAYER-1
 10
2.924948
 20
0.205217
 30
0.000000
  0
VERTEX
  8
LAYER-1
 10
2.920607
 20
0.207822
 30
0.000000
  0
SEQEND
  8
LAYER-1
  0
POLYLINE
  8
LAYER-1
 66
  1
 70
  1
 62
  0
 10
2.935365
 20
0.120148
 30
0.000000
  0
VERTEX
  8
LAYER-1
 10
2.935365
 20
0.120148
 30
0.000000
  0
VERTEX
  8
LAYER-1
 10
2.922344
 20
0.097577
 30
0.000000
  0
VERTEX
  8
LAYER-1
 10
2.952726
 20
0.118410
 30
0.000000
  0
SEQEND
  8
LAYER-1
  0
POLYLINE
  8
LAYER-1
 66
  1
 70
  1
 62
  0
 10
3.029815
 20
0.113735
 30
0.000000
  0
VERTEX
  8
LAYER-1
 10
3.029815
 20
0.113735
 30
0.000000
  0
VERTEX
  8
LAYER-1
 10
3.017129
 20
0.094371
 30
0.000000
  0
VERTEX
  8
LAYER-1
 10
3.028479
 20
0.088359
 30
0.000000
  0
SEQEND
  8
LAYER-1
  0
POLYLINE
  8
LAYER-1
 66
  1
 70
  0
 62
  0
 10
3.061232
 20
0.213029
 30
0.000000
  0
VERTEX
  8
LAYER-1
 10
3.061232
 20
0.213029
 30
0.000000
  0
VERTEX
  8
LAYER-1
 10
3.056892
 20
0.213029
 30
0.000000
  0
VERTEX
  8
LAYER-1
 10
3.053420
 20
0.208688
 30
0.000000
  0
VERTEX
  8
LAYER-1
 10
3.052552
 20
0.203480
 30
0.000000
  0
VERTEX
  8
LAYER-1
 10
3.054288
 20
0.199140
 30
0.000000
  0
VERTEX
  8
LAYER-1
 10
3.058628
 20
0.197404
 30
0.000000
  0
VERTEX
  8
LAYER-1
 10
3.062969
 20
0.197404
 30
0.000000
  0
VERTEX
  8
LAYER-1
 10
3.067309
 20
0.200875
 30
0.000000
  0
VERTEX
  8
LAYER-1
 10
3.067309
 20
0.205216
 30
0.000000
  0
VERTEX
  8
LAYER-1
 10
3.066441
 20
0.209557
 30
0.000000
  0
VERTEX
  8
LAYER-1
 10
3.062100
 20
0.212162
 30
0.000000
  0
SEQEND
  8
LAYER-1
  0
POLYLINE
  8
LAYER-1
 66
  1
 70
  0
 62
  0
 10
2.338142
 20
0.205216
 30
0.000000
  0
VERTEX
  8
LAYER-1
 10
2.338142
 20
0.205216
 30
0.000000
  0
VERTEX
  8
LAYER-1
 10
2.338142
 20
0.200875
 30
0.000000
  0
VERTEX
  8
LAYER-1
 10
2.342483
 20
0.197404
 30
0.000000
  0
VERTEX
  8
LAYER-1
 10
2.347691
 20
0.196535
 30
0.000000
  0
VERTEX
  8
LAYER-1
 10
2.352031
 20
0.198271
 30
0.000000
  0
VERTEX
  8
LAYER-1
 10
2.353767
 20
0.202611
 30
0.000000
  0
VERTEX
  8
LAYER-1
 10
2.353767
 20
0.206952
 30
0.000000
  0
VERTEX
  8
LAYER-1
 10
2.350295
 20
0.211293
 30
0.000000
  0
VERTEX
  8
LAYER-1
 10
2.345955
 20
0.211293
 30
0.000000
  0
VERTEX
  8
LAYER-1
 10
2.341614
 20
0.210424
 30
0.000000
  0
VERTEX
  8
LAYER-1
 10
2.339009
 20
0.206084
 30
0.000000
  0
SEQEND
  8
LAYER-1
  0
POLYLINE
  8
LAYER-1
 66
  1
 70
  0
 62
  0
 10
2.901509
 20
0.121013
 30
0.000000
  0
VERTEX
  8
LAYER-1
 10
2.901509
 20
0.121013
 30
0.000000
  0
VERTEX
  8
LAYER-1
 10
2.897169
 20
0.121013
 30
0.000000
  0
VERTEX
  8
LAYER-1
 10
2.893697
 20
0.116673
 30
0.000000
  0
VERTEX
  8
LAYER-1
 10
2.892829
 20
0.111465
 30
0.000000
  0
VERTEX
  8
LAYER-1
 10
2.894565
 20
0.107124
 30
0.000000
  0
VERTEX
  8
LAYER-1
 10
2.898906
 20
0.105388
 30
0.000000
  0
VERTEX
  8
LAYER-1
 10
2.903245
 20
0.105388
 30
0.000000
  0
VERTEX
  8
LAYER-1
 10
2.907586
 20
0.108860
 30
0.000000
  0
VERTEX
  8
LAYER-1
 10
2.907586
 20
0.113201
 30
0.000000
  0
VERTEX
  8
LAYER-1
 10
2.906718
 20
0.117542
 30
0.000000
  0
VERTEX
  8
LAYER-1
 10
2.902377
 20
0.120147
 30
0.000000
  0
SEQEND
  8
LAYER-1
  0
POLYLINE
  8
LAYER-1
 66
  1
 70
  1
 62
  0
 10
2.768698
 20
0.109297
 30
0.000000
  0
VERTEX
  8
LAYER-1
 10
2.768698
 20
0.109297
 30
0.000000
  0
VERTEX
  8
LAYER-1
 10
2.742656
 20
0.102353
 30
0.000000
  0
VERTEX
  8
LAYER-1
 10
2.756545
 20
0.077179
 30
0.000000
  0
SEQEND
  8
LAYER-1
  0
POLYLINE
  8
LAYER-1
 66
  1
 70
  1
 62
  0
 10
1.391963
 20
0.083689
 30
0.000000
  0
VERTEX
  8
LAYER-1
 10
1.391963
 20
0.083689
 30
0.000000
  0
VERTEX
  8
LAYER-1
 10
1.366788
 20
0.100182
 30
0.000000
  0
VERTEX
  8
LAYER-1
 10
1.358975
 20
0.085425
 30
0.000000
  0
SEQEND
  8
LAYER-1
  0
POLYLINE
  8
LAYER-1
 66
  1
 70
  0
 62
  0
 10
2.799948
 20
0.158775
 30
0.000000
  0
VERTEX
  8
LAYER-1
 10
2.799948
 20
0.158775
 30
0.000000
  0
VERTEX
  8
LAYER-1
 10
2.799948
 20
0.163116
 30
0.000000
  0
VERTEX
  8
LAYER-1
 10
2.795608
 20
0.166588
 30
0.000000
  0
VERTEX
  8
LAYER-1
 10
2.790400
 20
0.167456
 30
0.000000
  0
VERTEX
  8
LAYER-1
 10
2.786059
 20
0.165720
 30
0.000000
  0
VERTEX
  8
LAYER-1
 10
2.784323
 20
0.161379
 30
0.000000
  0
VERTEX
  8
LAYER-1
 10
2.784323
 20
0.157040
 30
0.000000
  0
VERTEX
  8
LAYER-1
 10
2.787795
 20
0.152700
 30
0.000000
  0
VERTEX
  8
LAYER-1
 10
2.792136
 20
0.152700
 30
0.000000
  0
VERTEX
  8
LAYER-1
 10
2.796477
 20
0.153567
 30
0.000000
  0
VERTEX
  8
LAYER-1
 10
2.799079
 20
0.157907
 30
0.000000
  0
SEQEND
  8
LAYER-1
  0
POLYLINE
  8
LAYER-1
 66
  1
 70
  1
 62
  0
 10
2.732239
 20
0.121450
 30
0.000000
  0
VERTEX
  8
LAYER-1
 10
2.732239
 20
0.121450
 30
0.000000
  0
VERTEX
  8
LAYER-1
 10
2.709670
 20
0.134470
 30
0.000000
  0
VERTEX
  8
LAYER-1
 10
2.730503
 20
0.104088
 30
0.000000
  0
SEQEND
  8
LAYER-1
  0
POLYLINE
  8
LAYER-1
 66
  1
 70
  1
 62
  0
 10
1.469753
 20
0.102952
 30
0.000000
  0
VERTEX
  8
LAYER-1
 10
1.469753
 20
0.102952
 30
0.000000
  0
VERTEX
  8
LAYER-1
 10
1.450388
 20
0.115639
 30
0.000000
  0
VERTEX
  8
LAYER-1
 10
1.444378
 20
0.104287
 30
0.000000
  0
SEQEND
  8
LAYER-1
  0
POLYLINE
  8
LAYER-1
 66
  1
 70
  0
 62
  0
 10
1.529983
 20
0.091501
 30
0.000000
  0
VERTEX
  8
LAYER-1
 10
1.529983
 20
0.091501
 30
0.000000
  0
VERTEX
  8
LAYER-1
 10
1.529983
 20
0.095841
 30
0.000000
  0
VERTEX
  8
LAYER-1
 10
1.525642
 20
0.099314
 30
0.000000
  0
VERTEX
  8
LAYER-1
 10
1.520434
 20
0.100182
 30
0.000000
  0
VERTEX
  8
LAYER-1
 10
1.516094
 20
0.098446
 30
0.000000
  0
VERTEX
  8
LAYER-1
 10
1.514358
 20
0.094105
 30
0.000000
  0
VERTEX
  8
LAYER-1
 10
1.514358
 20
0.089765
 30
0.000000
  0
VERTEX
  8
LAYER-1
 10
1.517830
 20
0.085425
 30
0.000000
  0
VERTEX
  8
LAYER-1
 10
1.522170
 20
0.085425
 30
0.000000
  0
VERTEX
  8
LAYER-1
 10
1.526511
 20
0.086293
 30
0.000000
  0
VERTEX
  8
LAYER-1
 10
1.529114
 20
0.090634
 30
0.000000
  0
SEQEND
  8
LAYER-1
  0
POLYLINE
  8
LAYER-1
 66
  1
 70
  0
 62
  0
 10
2.649775
 20
0.111032
 30
0.000000
  0
VERTEX
  8
LAYER-1
 10
2.649775
 20
0.111032
 30
0.000000
  0
VERTEX
  8
LAYER-1
 10
2.649775
 20
0.115373
 30
0.000000
  0
VERTEX
  8
LAYER-1
 10
2.645434
 20
0.118845
 30
0.000000
  0
VERTEX
  8
LAYER-1
 10
2.640226
 20
0.119713
 30
0.000000
  0
VERTEX
  8
LAYER-1
 10
2.635886
 20
0.117978
 30
0.000000
  0
VERTEX
  8
LAYER-1
 10
2.634150
 20
0.113637
 30
0.000000
  0
VERTEX
  8
LAYER-1
 10
2.634150
 20
0.109297
 30
0.000000
  0
VERTEX
  8
LAYER-1
 10
2.637622
 20
0.104956
 30
0.000000
  0
VERTEX
  8
LAYER-1
 10
2.641962
 20
0.104956
 30
0.000000
  0
VERTEX
  8
LAYER-1
 10
2.646303
 20
0.105825
 30
0.000000
  0
VERTEX
  8
LAYER-1
 10
2.648906
 20
0.110165
 30
0.000000
  0
SEQEND
  8
LAYER-1
  0
POLYLINE
  8
LAYER-1
 66
  1
 70
  1
 62
  0
 10
2.842482
 20
0.112336
 30
0.000000
  0
VERTEX
  8
LAYER-1
 10
2.842482
 20
0.112336
 30
0.000000
  0
VERTEX
  8
LAYER-1
 10
2.835538
 20
0.138376
 30
0.000000
  0
VERTEX
  8
LAYER-1
 10
2.810364
 20
0.124489
 30
0.000000
  0
SEQEND
  8
LAYER-1
  0
POLYLINE
  8
LAYER-1
 66
  1
 70
  1
 62
  0
 10
2.289531
 20
0.099314
 30
0.000000
  0
VERTEX
  8
LAYER-1
 10
2.289531
 20
0.099314
 30
0.000000
  0
VERTEX
  8
LAYER-1
 10
2.266960
 20
0.112336
 30
0.000000
  0
VERTEX
  8
LAYER-1
 10
2.287793
 20
0.081953
 30
0.000000
  0
SEQEND
  8
LAYER-1
  0
POLYLINE
  8
LAYER-1
 66
  1
 70
  1
 62
  0
 10
3.067310
 20
0.123620
 30
0.000000
  0
VERTEX
  8
LAYER-1
 10
3.067310
 20
0.123620
 30
0.000000
  0
VERTEX
  8
LAYER-1
 10
3.083803
 20
0.148794
 30
0.000000
  0
VERTEX
  8
LAYER-1
 10
3.069046
 20
0.156606
 30
0.000000
  0
SEQEND
  8
LAYER-1
  0
POLYLINE
  8
LAYER-1
 66
  1
 70
  0
 62
  0
 10
3.202725
 20
0.091499
 30
0.000000
  0
VERTEX
  8
LAYER-1
 10
3.202725
 20
0.091499
 30
0.000000
  0
VERTEX
  8
LAYER-1
 10
3.207066
 20
0.091499
 30
0.000000
  0
VERTEX
  8
LAYER-1
 10
3.210538
 20
0.095840
 30
0.000000
  0
VERTEX
  8
LAYER-1
 10
3.211405
 20
0.101048
 30
0.000000
  0
VERTEX
  8
LAYER-1
 10
3.209670
 20
0.105388
 30
0.000000
  0
VERTEX
  8
LAYER-1
 10
3.205329
 20
0.107124
 30
0.000000
  0
VERTEX
  8
LAYER-1
 10
3.200989
 20
0.107124
 30
0.000000
  0
VERTEX
  8
LAYER-1
 10
3.196648
 20
0.103653
 30
0.000000
  0
VERTEX
  8
LAYER-1
 10
3.196648
 20
0.099312
 30
0.000000
  0
VERTEX
  8
LAYER-1
 10
3.197517
 20
0.094972
 30
0.000000
  0
VERTEX
  8
LAYER-1
 10
3.201857
 20
0.092367
 30
0.000000
  0
SEQEND
  8
LAYER-1
  0
POLYLINE
  8
LAYER-1
 66
  1
 70
  1
 62
  0
 10
2.854634
 20
0.148794
 30
0.000000
  0
VERTEX
  8
LAYER-1
 10
2.854634
 20
0.148794
 30
0.000000
  0
VERTEX
  8
LAYER-1
 10
2.867656
 20
0.171364
 30
0.000000
  0
VERTEX
  8
LAYER-1
 10
2.837273
 20
0.150531
 30
0.000000
  0
SEQEND
  8
LAYER-1
  0
POLYLINE
  8
LAYER-1
 66
  1
 70
  1
 62
  0
 10
3.108274
 20
0.099649
 30
0.000000
  0
VERTEX
  8
LAYER-1
 10
3.108274
 20
0.099649
 30
0.000000
  0
VERTEX
  8
LAYER-1
 10
3.120961
 20
0.119013
 30
0.000000
  0
VERTEX
  8
LAYER-1
 10
3.109611
 20
0.125025
 30
0.000000
  0
SEQEND
  8
LAYER-1
  0
POLYLINE
  8
LAYER-1
 66
  1
 70
  0
 62
  0
 10
2.429286
 20
0.159211
 30
0.000000
  0
VERTEX
  8
LAYER-1
 10
2.429286
 20
0.159211
 30
0.000000
  0
VERTEX
  8
LAYER-1
 10
2.429286
 20
0.163550
 30
0.000000
  0
VERTEX
  8
LAYER-1
 10
2.424946
 20
0.167024
 30
0.000000
  0
VERTEX
  8
LAYER-1
 10
2.419739
 20
0.167891
 30
0.000000
  0
VERTEX
  8
LAYER-1
 10
2.415398
 20
0.166155
 30
0.000000
  0
VERTEX
  8
LAYER-1
 10
2.413662
 20
0.161814
 30
0.000000
  0
VERTEX
  8
LAYER-1
 10
2.413662
 20
0.157473
 30
0.000000
  0
VERTEX
  8
LAYER-1
 10
2.417134
 20
0.153135
 30
0.000000
  0
VERTEX
  8
LAYER-1
 10
2.421474
 20
0.153135
 30
0.000000
  0
VERTEX
  8
LAYER-1
 10
2.425815
 20
0.154001
 30
0.000000
  0
VERTEX
  8
LAYER-1
 10
2.428420
 20
0.158342
 30
0.000000
  0
SEQEND
  8
LAYER-1
  0
POLYLINE
  8
LAYER-1
 66
  1
 70
  0
 62
  0
 10
3.015226
 20
0.129697
 30
0.000000
  0
VERTEX
  8
LAYER-1
 10
3.015226
 20
0.129697
 30
0.000000
  0
VERTEX
  8
LAYER-1
 10
3.019567
 20
0.129697
 30
0.000000
  0
VERTEX
  8
LAYER-1
 10
3.023039
 20
0.134037
 30
0.000000
  0
VERTEX
  8
LAYER-1
 10
3.023906
 20
0.139245
 30
0.000000
  0
VERTEX
  8
LAYER-1
 10
3.022171
 20
0.143586
 30
0.000000
  0
VERTEX
  8
LAYER-1
 10
3.017830
 20
0.145322
 30
0.000000
  0
VERTEX
  8
LAYER-1
 10
3.013490
 20
0.145322
 30
0.000000
  0
VERTEX
  8
LAYER-1
 10
3.009150
 20
0.141850
 30
0.000000
  0
VERTEX
  8
LAYER-1
 10
3.009150
 20
0.137510
 30
0.000000
  0
VERTEX
  8
LAYER-1
 10
3.010017
 20
0.133169
 30
0.000000
  0
VERTEX
  8
LAYER-1
 10
3.014358
 20
0.130564
 30
0.000000
  0
SEQEND
  8
LAYER-1
  0
POLYLINE
  8
LAYER-1
 66
  1
 70
  0
 62
  0
 10
3.179289
 20
0.137510
 30
0.000000
  0
VERTEX
  8
LAYER-1
 10
3.179289
 20
0.137510
 30
0.000000
  0
VERTEX
  8
LAYER-1
 10
3.183629
 20
0.137510
 30
0.000000
  0
VERTEX
  8
LAYER-1
 10
3.187101
 20
0.141850
 30
0.000000
  0
VERTEX
  8
LAYER-1
 10
3.187969
 20
0.147057
 30
0.000000
  0
VERTEX
  8
LAYER-1
 10
3.186233
 20
0.151399
 30
0.000000
  0
VERTEX
  8
LAYER-1
 10
3.181892
 20
0.153135
 30
0.000000
  0
VERTEX
  8
LAYER-1
 10
3.177553
 20
0.153135
 30
0.000000
  0
VERTEX
  8
LAYER-1
 10
3.173212
 20
0.149662
 30
0.000000
  0
VERTEX
  8
LAYER-1
 10
3.173212
 20
0.145322
 30
0.000000
  0
VERTEX
  8
LAYER-1
 10
3.174080
 20
0.140981
 30
0.000000
  0
VERTEX
  8
LAYER-1
 10
3.178421
 20
0.138376
 30
0.000000
  0
SEQEND
  8
LAYER-1
  0
POLYLINE
  8
LAYER-1
 66
  1
 70
  1
 62
  0
 10
3.586405
 20
0.135774
 30
0.000000
  0
VERTEX
  8
LAYER-1
 10
3.586405
 20
0.135774
 30
0.000000
  0
VERTEX
  8
LAYER-1
 10
3.593349
 20
0.109732
 30
0.000000
  0
VERTEX
  8
LAYER-1
 10
3.618522
 20
0.123620
 30
0.000000
  0
SEQEND
  8
LAYER-1
  0
POLYLINE
  8
LAYER-1
 66
  1
 70
  1
 62
  0
 10
3.752637
 20
0.089767
 30
0.000000
  0
VERTEX
  8
LAYER-1
 10
3.752637
 20
0.089767
 30
0.000000
  0
VERTEX
  8
LAYER-1
 10
3.739616
 20
0.067197
 30
0.000000
  0
VERTEX
  8
LAYER-1
 10
3.769999
 20
0.088030
 30
0.000000
  0
SEQEND
  8
LAYER-1
  0
POLYLINE
  8
LAYER-1
 66
  1
 70
  1
 62
  0
 10
3.637619
 20
0.180040
 30
0.000000
  0
VERTEX
  8
LAYER-1
 10
3.637619
 20
0.180040
 30
0.000000
  0
VERTEX
  8
LAYER-1
 10
3.621127
 20
0.154867
 30
0.000000
  0
VERTEX
  8
LAYER-1
 10
3.635883
 20
0.147054
 30
0.000000
  0
SEQEND
  8
LAYER-1
  0
POLYLINE
  8
LAYER-1
 66
  1
 70
  0
 62
  0
 10
3.552550
 20
0.167024
 30
0.000000
  0
VERTEX
  8
LAYER-1
 10
3.552550
 20
0.167024
 30
0.000000
  0
VERTEX
  8
LAYER-1
 10
3.548210
 20
0.167024
 30
0.000000
  0
VERTEX
  8
LAYER-1
 10
3.544738
 20
0.162682
 30
0.000000
  0
VERTEX
  8
LAYER-1
 10
3.543869
 20
0.157475
 30
0.000000
  0
VERTEX
  8
LAYER-1
 10
3.545606
 20
0.153135
 30
0.000000
  0
VERTEX
  8
LAYER-1
 10
3.549947
 20
0.151399
 30
0.000000
  0
VERTEX
  8
LAYER-1
 10
3.554287
 20
0.151399
 30
0.000000
  0
VERTEX
  8
LAYER-1
 10
3.558626
 20
0.154870
 30
0.000000
  0
VERTEX
  8
LAYER-1
 10
3.558626
 20
0.159211
 30
0.000000
  0
VERTEX
  8
LAYER-1
 10
3.557758
 20
0.163551
 30
0.000000
  0
VERTEX
  8
LAYER-1
 10
3.553418
 20
0.166155
 30
0.000000
  0
SEQEND
  8
LAYER-1
  0
POLYLINE
  8
LAYER-1
 66
  1
 70
  1
 62
  0
 10
3.536057
 20
0.107125
 30
0.000000
  0
VERTEX
  8
LAYER-1
 10
3.536057
 20
0.107125
 30
0.000000
  0
VERTEX
  8
LAYER-1
 10
3.523037
 20
0.084556
 30
0.000000
  0
VERTEX
  8
LAYER-1
 10
3.553418
 20
0.105388
 30
0.000000
  0
SEQEND
  8
LAYER-1
  0
POLYLINE
  8
LAYER-1
 66
  1
 70
  1
 62
  0
 10
3.591512
 20
0.205478
 30
0.000000
  0
VERTEX
  8
LAYER-1
 10
3.591512
 20
0.205478
 30
0.000000
  0
VERTEX
  8
LAYER-1
 10
3.610877
 20
0.192791
 30
0.000000
  0
VERTEX
  8
LAYER-1
 10
3.616887
 20
0.204142
 30
0.000000
  0
SEQEND
  8
LAYER-1
  0
POLYLINE
  8
LAYER-1
 66
  1
 70
  0
 62
  0
 10
3.476160
 20
0.156728
 30
0.000000
  0
VERTEX
  8
LAYER-1
 10
3.476160
 20
0.156728
 30
0.000000
  0
VERTEX
  8
LAYER-1
 10
3.471820
 20
0.156728
 30
0.000000
  0
VERTEX
  8
LAYER-1
 10
3.468348
 20
0.152388
 30
0.000000
  0
VERTEX
  8
LAYER-1
 10
3.467481
 20
0.147179
 30
0.000000
  0
VERTEX
  8
LAYER-1
 10
3.469217
 20
0.142839
 30
0.000000
  0
VERTEX
  8
LAYER-1
 10
3.473557
 20
0.141103
 30
0.000000
  0
VERTEX
  8
LAYER-1
 10
3.477897
 20
0.141103
 30
0.000000
  0
VERTEX
  8
LAYER-1
 10
3.482237
 20
0.144575
 30
0.000000
  0
VERTEX
  8
LAYER-1
 10
3.482237
 20
0.148916
 30
0.000000
  0
VERTEX
  8
LAYER-1
 10
3.481369
 20
0.153257
 30
0.000000
  0
VERTEX
  8
LAYER-1
 10
3.477029
 20
0.155860
 30
0.000000
  0
SEQEND
  8
LAYER-1
  0
POLYLINE
  8
LAYER-1
 66
  1
 70
  0
 62
  0
 10
3.852900
 20
0.128824
 30
0.000000
  0
VERTEX
  8
LAYER-1
 10
3.852900
 20
0.128824
 30
0.000000
  0
VERTEX
  8
LAYER-1
 10
3.848560
 20
0.128824
 30
0.000000
  0
VERTEX
  8
LAYER-1
 10
3.845088
 20
0.124484
 30
0.000000
  0
VERTEX
  8
LAYER-1
 10
3.844220
 20
0.119275
 30
0.000000
  0
VERTEX
  8
LAYER-1
 10
3.845956
 20
0.114935
 30
0.000000
  0
VERTEX
  8
LAYER-1
 10
3.850296
 20
0.113199
 30
0.000000
  0
VERTEX
  8
LAYER-1
 10
3.854636
 20
0.113199
 30
0.000000
  0
VERTEX
  8
LAYER-1
 10
3.858977
 20
0.116671
 30
0.000000
  0
VERTEX
  8
LAYER-1
 10
3.858977
 20
0.121012
 30
0.000000
  0
VERTEX
  8
LAYER-1
 10
3.858109
 20
0.125353
 30
0.000000
  0
VERTEX
  8
LAYER-1
 10
3.853768
 20
0.127956
 30
0.000000
  0
SEQEND
  8
LAYER-1
  0
POLYLINE
  8
LAYER-1
 66
  1
 70
  0
 62
  0
 10
3.584668
 20
0.100181
 30
0.000000
  0
VERTEX
  8
LAYER-1
 10
3.584668
 20
0.100181
 30
0.000000
  0
VERTEX
  8
LAYER-1
 10
3.580329
 20
0.100181
 30
0.000000
  0
VERTEX
  8
LAYER-1
 10
3.576856
 20
0.095840
 30
0.000000
  0
VERTEX
  8
LAYER-1
 10
3.575988
 20
0.090632
 30
0.000000
  0
VERTEX
  8
LAYER-1
 10
3.577724
 20
0.086292
 30
0.000000
  0
VERTEX
  8
LAYER-1
 10
3.582065
 20
0.084556
 30
0.000000
  0
VERTEX
  8
LAYER-1
 10
3.586405
 20
0.084556
 30
0.000000
  0
VERTEX
  8
LAYER-1
 10
3.590745
 20
0.088028
 30
0.000000
  0
VERTEX
  8
LAYER-1
 10
3.590745
 20
0.092368
 30
0.000000
  0
VERTEX
  8
LAYER-1
 10
3.589877
 20
0.096709
 30
0.000000
  0
VERTEX
  8
LAYER-1
 10
3.585537
 20
0.099313
 30
0.000000
  0
SEQEND
  8
LAYER-1
  0
POLYLINE
  8
LAYER-1
 66
  1
 70
  1
 62
  0
 10
3.382846
 20
0.159644
 30
0.000000
  0
VERTEX
  8
LAYER-1
 10
3.382846
 20
0.159644
 30
0.000000
  0
VERTEX
  8
LAYER-1
 10
3.356806
 20
0.152700
 30
0.000000
  0
VERTEX
  8
LAYER-1
 10
3.370693
 20
0.127526
 30
0.000000
  0
SEQEND
  8
LAYER-1
  0
POLYLINE
  8
LAYER-1
 66
  1
 70
  1
 62
  0
 10
3.289966
 20
0.108429
 30
0.000000
  0
VERTEX
  8
LAYER-1
 10
3.289966
 20
0.108429
 30
0.000000
  0
VERTEX
  8
LAYER-1
 10
3.267395
 20
0.121450
 30
0.000000
  0
VERTEX
  8
LAYER-1
 10
3.288228
 20
0.091068
 30
0.000000
  0
SEQEND
  8
LAYER-1
  0
POLYLINE
  8
LAYER-1
 66
  1
 70
  1
 62
  0
 10
3.253507
 20
0.153565
 30
0.000000
  0
VERTEX
  8
LAYER-1
 10
3.253507
 20
0.153565
 30
0.000000
  0
VERTEX
  8
LAYER-1
 10
3.228333
 20
0.170058
 30
0.000000
  0
VERTEX
  8
LAYER-1
 10
3.220520
 20
0.155301
 30
0.000000
  0
SEQEND
  8
LAYER-1
  0
POLYLINE
  8
LAYER-1
 66
  1
 70
  0
 62
  0
 10
3.414096
 20
0.209123
 30
0.000000
  0
VERTEX
  8
LAYER-1
 10
3.414096
 20
0.209123
 30
0.000000
  0
VERTEX
  8
LAYER-1
 10
3.414096
 20
0.213463
 30
0.000000
  0
VERTEX
  8
LAYER-1
 10
3.409755
 20
0.216935
 30
0.000000
  0
VERTEX
  8
LAYER-1
 10
3.404548
 20
0.217803
 30
0.000000
  0
VERTEX
  8
LAYER-1
 10
3.400207
 20
0.216067
 30
0.000000
  0
VERTEX
  8
LAYER-1
 10
3.398471
 20
0.211726
 30
0.000000
  0
VERTEX
  8
LAYER-1
 10
3.398471
 20
0.207386
 30
0.000000
  0
VERTEX
  8
LAYER-1
 10
3.401943
 20
0.203046
 30
0.000000
  0
VERTEX
  8
LAYER-1
 10
3.406283
 20
0.203046
 30
0.000000
  0
VERTEX
  8
LAYER-1
 10
3.410624
 20
0.203913
 30
0.000000
  0
VERTEX
  8
LAYER-1
 10
3.413229
 20
0.208254
 30
0.000000
  0
SEQEND
  8
LAYER-1
  0
POLYLINE
  8
LAYER-1
 66
  1
 70
  1
 62
  0
 10
3.346388
 20
0.171797
 30
0.000000
  0
VERTEX
  8
LAYER-1
 10
3.346388
 20
0.171797
 30
0.000000
  0
VERTEX
  8
LAYER-1
 10
3.323819
 20
0.184817
 30
0.000000
  0
VERTEX
  8
LAYER-1
 10
3.344651
 20
0.154436
 30
0.000000
  0
SEQEND
  8
LAYER-1
  0
POLYLINE
  8
LAYER-1
 66
  1
 70
  1
 62
  0
 10
3.298043
 20
0.178837
 30
0.000000
  0
VERTEX
  8
LAYER-1
 10
3.298043
 20
0.178837
 30
0.000000
  0
VERTEX
  8
LAYER-1
 10
3.285356
 20
0.159475
 30
0.000000
  0
VERTEX
  8
LAYER-1
 10
3.296707
 20
0.153463
 30
0.000000
  0
SEQEND
  8
LAYER-1
  0
POLYLINE
  8
LAYER-1
 66
  1
 70
  0
 62
  0
 10
3.415832
 20
0.081518
 30
0.000000
  0
VERTEX
  8
LAYER-1
 10
3.415832
 20
0.081518
 30
0.000000
  0
VERTEX
  8
LAYER-1
 10
3.415832
 20
0.085859
 30
0.000000
  0
VERTEX
  8
LAYER-1
 10
3.411491
 20
0.089331
 30
0.000000
  0
VERTEX
  8
LAYER-1
 10
3.406283
 20
0.090199
 30
0.000000
  0
VERTEX
  8
LAYER-1
 10
3.401943
 20
0.088463
 30
0.000000
  0
VERTEX
  8
LAYER-1
 10
3.400207
 20
0.084123
 30
0.000000
  0
VERTEX
  8
LAYER-1
 10
3.400207
 20
0.079781
 30
0.000000
  0
VERTEX
  8
LAYER-1
 10
3.403679
 20
0.075442
 30
0.000000
  0
VERTEX
  8
LAYER-1
 10
3.408020
 20
0.075442
 30
0.000000
  0
VERTEX
  8
LAYER-1
 10
3.412360
 20
0.076310
 30
0.000000
  0
VERTEX
  8
LAYER-1
 10
3.414965
 20
0.080650
 30
0.000000
  0
SEQEND
  8
LAYER-1
  0
POLYLINE
  8
LAYER-1
 66
  1
 70
  0
 62
  0
 10
3.334235
 20
0.082386
 30
0.000000
  0
VERTEX
  8
LAYER-1
 10
3.334235
 20
0.082386
 30
0.000000
  0
VERTEX
  8
LAYER-1
 10
3.334235
 20
0.086728
 30
0.000000
  0
VERTEX
  8
LAYER-1
 10
3.329894
 20
0.090199
 30
0.000000
  0
VERTEX
  8
LAYER-1
 10
3.324687
 20
0.091067
 30
0.000000
  0
VERTEX
  8
LAYER-1
 10
3.320346
 20
0.089331
 30
0.000000
  0
VERTEX
  8
LAYER-1
 10
3.318610
 20
0.084991
 30
0.000000
  0
VERTEX
  8
LAYER-1
 10
3.318610
 20
0.080650
 30
0.000000
  0
VERTEX
  8
LAYER-1
 10
3.322082
 20
0.076310
 30
0.000000
  0
VERTEX
  8
LAYER-1
 10
3.326423
 20
0.076310
 30
0.000000
  0
VERTEX
  8
LAYER-1
 10
3.330763
 20
0.077178
 30
0.000000
  0
VERTEX
  8
LAYER-1
 10
3.333368
 20
0.081518
 30
0.000000
  0
SEQEND
  8
LAYER-1
  0
POLYLINE
  8
LAYER-1
 66
  1
 70
  0
 62
  0
 10
3.263923
 20
0.192629
 30
0.000000
  0
VERTEX
  8
LAYER-1
 10
3.263923
 20
0.192629
 30
0.000000
  0
VERTEX
  8
LAYER-1
 10
3.263923
 20
0.196969
 30
0.000000
  0
VERTEX
  8
LAYER-1
 10
3.259583
 20
0.200441
 30
0.000000
  0
VERTEX
  8
LAYER-1
 10
3.254375
 20
0.201309
 30
0.000000
  0
VERTEX
  8
LAYER-1
 10
3.250034
 20
0.199573
 30
0.000000
  0
VERTEX
  8
LAYER-1
 10
3.248298
 20
0.195232
 30
0.000000
  0
VERTEX
  8
LAYER-1
 10
3.248298
 20
0.190893
 30
0.000000
  0
VERTEX
  8
LAYER-1
 10
3.251770
 20
0.186552
 30
0.000000
  0
VERTEX
  8
LAYER-1
 10
3.256111
 20
0.186552
 30
0.000000
  0
VERTEX
  8
LAYER-1
 10
3.260451
 20
0.187419
 30
0.000000
  0
VERTEX
  8
LAYER-1
 10
3.263056
 20
0.191761
 30
0.000000
  0
SEQEND
  8
LAYER-1
  0
POLYLINE
  8
LAYER-1
 66
  1
 70
  1
 62
  0
 10
4.046475
 20
0.182213
 30
0.000000
  0
VERTEX
  8
LAYER-1
 10
4.046475
 20
0.182213
 30
0.000000
  0
VERTEX
  8
LAYER-1
 10
4.053419
 20
0.156173
 30
0.000000
  0
VERTEX
  8
LAYER-1
 10
4.078593
 20
0.170061
 30
0.000000
  0
SEQEND
  8
LAYER-1
  0
POLYLINE
  8
LAYER-1
 66
  1
 70
  1
 62
  0
 10
4.208802
 20
0.210860
 30
0.000000
  0
VERTEX
  8
LAYER-1
 10
4.208802
 20
0.210860
 30
0.000000
  0
VERTEX
  8
LAYER-1
 10
4.195780
 20
0.188290
 30
0.000000
  0
VERTEX
  8
LAYER-1
 10
4.226162
 20
0.209123
 30
0.000000
  0
SEQEND
  8
LAYER-1
  0
POLYLINE
  8
LAYER-1
 66
  1
 70
  1
 62
  0
 10
4.187969
 20
0.125788
 30
0.000000
  0
VERTEX
  8
LAYER-1
 10
4.187969
 20
0.125788
 30
0.000000
  0
VERTEX
  8
LAYER-1
 10
4.171476
 20
0.100615
 30
0.000000
  0
VERTEX
  8
LAYER-1
 10
4.186233
 20
0.092802
 30
0.000000
  0
SEQEND
  8
LAYER-1
  0
POLYLINE
  8
LAYER-1
 66
  1
 70
  0
 62
  0
 10
3.996996
 20
0.213463
 30
0.000000
  0
VERTEX
  8
LAYER-1
 10
3.996996
 20
0.213463
 30
0.000000
  0
VERTEX
  8
LAYER-1
 10
3.992655
 20
0.213463
 30
0.000000
  0
VERTEX
  8
LAYER-1
 10
3.989184
 20
0.209123
 30
0.000000
  0
VERTEX
  8
LAYER-1
 10
3.988316
 20
0.203915
 30
0.000000
  0
VERTEX
  8
LAYER-1
 10
3.990052
 20
0.199574
 30
0.000000
  0
VERTEX
  8
LAYER-1
 10
3.994392
 20
0.197838
 30
0.000000
  0
VERTEX
  8
LAYER-1
 10
3.998732
 20
0.197838
 30
0.000000
  0
VERTEX
  8
LAYER-1
 10
4.003073
 20
0.201310
 30
0.000000
  0
VERTEX
  8
LAYER-1
 10
4.003073
 20
0.205650
 30
0.000000
  0
VERTEX
  8
LAYER-1
 10
4.002205
 20
0.209991
 30
0.000000
  0
VERTEX
  8
LAYER-1
 10
3.997864
 20
0.212595
 30
0.000000
  0
SEQEND
  8
LAYER-1
  0
POLYLINE
  8
LAYER-1
 66
  1
 70
  1
 62
  0
 10
4.018262
 20
0.145320
 30
0.000000
  0
VERTEX
  8
LAYER-1
 10
4.018262
 20
0.145320
 30
0.000000
  0
VERTEX
  8
LAYER-1
 10
4.040832
 20
0.132300
 30
0.000000
  0
VERTEX
  8
LAYER-1
 10
4.019999
 20
0.162681
 30
0.000000
  0
SEQEND
  8
LAYER-1
  0
POLYLINE
  8
LAYER-1
 66
  1
 70
  1
 62
  0
 10
4.134917
 20
0.137340
 30
0.000000
  0
VERTEX
  8
LAYER-1
 10
4.134917
 20
0.137340
 30
0.000000
  0
VERTEX
  8
LAYER-1
 10
4.154281
 20
0.124652
 30
0.000000
  0
VERTEX
  8
LAYER-1
 10
4.160291
 20
0.136004
 30
0.000000
  0
SEQEND
  8
LAYER-1
  0
POLYLINE
  8
LAYER-1
 66
  1
 70
  0
 62
  0
 10
4.148905
 20
0.215199
 30
0.000000
  0
VERTEX
  8
LAYER-1
 10
4.148905
 20
0.215199
 30
0.000000
  0
VERTEX
  8
LAYER-1
 10
4.144566
 20
0.215199
 30
0.000000
  0
VERTEX
  8
LAYER-1
 10
4.141093
 20
0.210859
 30
0.000000
  0
VERTEX
  8
LAYER-1
 10
4.140225
 20
0.205650
 30
0.000000
  0
VERTEX
  8
LAYER-1
 10
4.141961
 20
0.201310
 30
0.000000
  0
VERTEX
  8
LAYER-1
 10
4.146302
 20
0.199574
 30
0.000000
  0
VERTEX
  8
LAYER-1
 10
4.150642
 20
0.199574
 30
0.000000
  0
VERTEX
  8
LAYER-1
 10
4.154982
 20
0.203046
 30
0.000000
  0
VERTEX
  8
LAYER-1
 10
4.154982
 20
0.207386
 30
0.000000
  0
VERTEX
  8
LAYER-1
 10
4.154114
 20
0.211728
 30
0.000000
  0
VERTEX
  8
LAYER-1
 10
4.149773
 20
0.214331
 30
0.000000
  0
SEQEND
  8
LAYER-1
  0
POLYLINE
  8
LAYER-1
 66
  1
 70
  0
 62
  0
 10
4.233108
 20
0.088462
 30
0.000000
  0
VERTEX
  8
LAYER-1
 10
4.233108
 20
0.088462
 30
0.000000
  0
VERTEX
  8
LAYER-1
 10
4.228767
 20
0.088462
 30
0.000000
  0
VERTEX
  8
LAYER-1
 10
4.225296
 20
0.084122
 30
0.000000
  0
VERTEX
  8
LAYER-1
 10
4.224428
 20
0.078913
 30
0.000000
  0
VERTEX
  8
LAYER-1
 10
4.226163
 20
0.074573
 30
0.000000
  0
VERTEX
  8
LAYER-1
 10
4.230503
 20
0.072837
 30
0.000000
  0
VERTEX
  8
LAYER-1
 10
4.234844
 20
0.072837
 30
0.000000
  0
VERTEX
  8
LAYER-1
 10
4.239184
 20
0.076309
 30
0.000000
  0
VERTEX
  8
LAYER-1
 10
4.239184
 20
0.080649
 30
0.000000
  0
VERTEX
  8
LAYER-1
 10
4.238316
 20
0.084991
 30
0.000000
  0
VERTEX
  8
LAYER-1
 10
4.233976
 20
0.087594
 30
0.000000
  0
SEQEND
  8
LAYER-1
  0
POLYLINE
  8
LAYER-1
 66
  1
 70
  0
 62
  0
 10
4.079462
 20
0.143148
 30
0.000000
  0
VERTEX
  8
LAYER-1
 10
4.079462
 20
0.143148
 30
0.000000
  0
VERTEX
  8
LAYER-1
 10
4.075121
 20
0.143148
 30
0.000000
  0
VERTEX
  8
LAYER-1
 10
4.071649
 20
0.138807
 30
0.000000
  0
VERTEX
  8
LAYER-1
 10
4.070781
 20
0.133599
 30
0.000000
  0
VERTEX
  8
LAYER-1
 10
4.072517
 20
0.129259
 30
0.000000
  0
VERTEX
  8
LAYER-1
 10
4.076857
 20
0.127523
 30
0.000000
  0
VERTEX
  8
LAYER-1
 10
4.081198
 20
0.127523
 30
0.000000
  0
VERTEX
  8
LAYER-1
 10
4.085538
 20
0.130994
 30
0.000000
  0
VERTEX
  8
LAYER-1
 10
4.085538
 20
0.135335
 30
0.000000
  0
VERTEX
  8
LAYER-1
 10
4.084669
 20
0.139676
 30
0.000000
  0
VERTEX
  8
LAYER-1
 10
4.080330
 20
0.142280
 30
0.000000
  0
SEQEND
  8
LAYER-1
  0
POLYLINE
  8
LAYER-1
 66
  1
 70
  1
 62
  0
 10
3.914532
 20
0.151829
 30
0.000000
  0
VERTEX
  8
LAYER-1
 10
3.914532
 20
0.151829
 30
0.000000
  0
VERTEX
  8
LAYER-1
 10
3.907587
 20
0.177868
 30
0.000000
  0
VERTEX
  8
LAYER-1
 10
3.882413
 20
0.163982
 30
0.000000
  0
SEQEND
  8
LAYER-1
  0
POLYLINE
  8
LAYER-1
 66
  1
 70
  1
 62
  0
 10
3.503507
 20
0.183512
 30
0.000000
  0
VERTEX
  8
LAYER-1
 10
3.503507
 20
0.183512
 30
0.000000
  0
VERTEX
  8
LAYER-1
 10
3.516527
 20
0.206082
 30
0.000000
  0
VERTEX
  8
LAYER-1
 10
3.486145
 20
0.185249
 30
0.000000
  0
SEQEND
  8
LAYER-1
  0
POLYLINE
  8
LAYER-1
 66
  1
 70
  1
 62
  0
 10
3.800815
 20
0.177004
 30
0.000000
  0
VERTEX
  8
LAYER-1
 10
3.800815
 20
0.177004
 30
0.000000
  0
VERTEX
  8
LAYER-1
 10
3.817309
 20
0.202177
 30
0.000000
  0
VERTEX
  8
LAYER-1
 10
3.802550
 20
0.209990
 30
0.000000
  0
SEQEND
  8
LAYER-1
  0
POLYLINE
  8
LAYER-1
 66
  1
 70
  0
 62
  0
 10
3.964010
 20
0.120579
 30
0.000000
  0
VERTEX
  8
LAYER-1
 10
3.964010
 20
0.120579
 30
0.000000
  0
VERTEX
  8
LAYER-1
 10
3.968351
 20
0.120579
 30
0.000000
  0
VERTEX
  8
LAYER-1
 10
3.971823
 20
0.124919
 30
0.000000
  0
VERTEX
  8
LAYER-1
 10
3.972691
 20
0.130128
 30
0.000000
  0
VERTEX
  8
LAYER-1
 10
3.970956
 20
0.134468
 30
0.000000
  0
VERTEX
  8
LAYER-1
 10
3.966615
 20
0.136204
 30
0.000000
  0
VERTEX
  8
LAYER-1
 10
3.962274
 20
0.136204
 30
0.000000
  0
VERTEX
  8
LAYER-1
 10
3.957934
 20
0.132732
 30
0.000000
  0
VERTEX
  8
LAYER-1
 10
3.957934
 20
0.128392
 30
0.000000
  0
VERTEX
  8
LAYER-1
 10
3.958803
 20
0.124051
 30
0.000000
  0
VERTEX
  8
LAYER-1
 10
3.963143
 20
0.121446
 30
0.000000
  0
SEQEND
  8
LAYER-1
  0
POLYLINE
  8
LAYER-1
 66
  1
 70
  1
 62
  0
 10
3.918003
 20
0.117109
 30
0.000000
  0
VERTEX
  8
LAYER-1
 10
3.918003
 20
0.117109
 30
0.000000
  0
VERTEX
  8
LAYER-1
 10
3.931024
 20
0.139679
 30
0.000000
  0
VERTEX
  8
LAYER-1
 10
3.900642
 20
0.118846
 30
0.000000
  0
SEQEND
  8
LAYER-1
  0
POLYLINE
  8
LAYER-1
 66
  1
 70
  1
 62
  0
 10
3.863416
 20
0.158509
 30
0.000000
  0
VERTEX
  8
LAYER-1
 10
3.863416
 20
0.158509
 30
0.000000
  0
VERTEX
  8
LAYER-1
 10
3.844053
 20
0.171197
 30
0.000000
  0
VERTEX
  8
LAYER-1
 10
3.838042
 20
0.159845
 30
0.000000
  0
SEQEND
  8
LAYER-1
  0
POLYLINE
  8
LAYER-1
 66
  1
 70
  0
 62
  0
 10
3.840311
 20
0.055165
 30
0.000000
  0
VERTEX
  8
LAYER-1
 10
3.840311
 20
0.055165
 30
0.000000
  0
VERTEX
  8
LAYER-1
 10
3.844652
 20
0.055165
 30
0.000000
  0
VERTEX
  8
LAYER-1
 10
3.848123
 20
0.059506
 30
0.000000
  0
VERTEX
  8
LAYER-1
 10
3.848992
 20
0.064713
 30
0.000000
  0
VERTEX
  8
LAYER-1
 10
3.847256
 20
0.069054
 30
0.000000
  0
VERTEX
  8
LAYER-1
 10
3.842915
 20
0.070790
 30
0.000000
  0
VERTEX
  8
LAYER-1
 10
3.838575
 20
0.070790
 30
0.000000
  0
VERTEX
  8
LAYER-1
 10
3.834234
 20
0.067318
 30
0.000000
  0
VERTEX
  8
LAYER-1
 10
3.834234
 20
0.062977
 30
0.000000
  0
VERTEX
  8
LAYER-1
 10
3.835103
 20
0.058637
 30
0.000000
  0
VERTEX
  8
LAYER-1
 10
3.839444
 20
0.056032
 30
0.000000
  0
SEQEND
  8
LAYER-1
  0
POLYLINE
  8
LAYER-1
 66
  1
 70
  0
 62
  0
 10
3.750467
 20
0.197959
 30
0.000000
  0
VERTEX
  8
LAYER-1
 10
3.750467
 20
0.197959
 30
0.000000
  0
VERTEX
  8
LAYER-1
 10
3.754808
 20
0.197959
 30
0.000000
  0
VERTEX
  8
LAYER-1
 10
3.758280
 20
0.202300
 30
0.000000
  0
VERTEX
  8
LAYER-1
 10
3.759146
 20
0.207508
 30
0.000000
  0
VERTEX
  8
LAYER-1
 10
3.757411
 20
0.211848
 30
0.000000
  0
VERTEX
  8
LAYER-1
 10
3.753070
 20
0.213584
 30
0.000000
  0
VERTEX
  8
LAYER-1
 10
3.748731
 20
0.213584
 30
0.000000
  0
VERTEX
  8
LAYER-1
 10
3.744390
 20
0.210113
 30
0.000000
  0
VERTEX
  8
LAYER-1
 10
3.744390
 20
0.205772
 30
0.000000
  0
VERTEX
  8
LAYER-1
 10
3.745257
 20
0.201431
 30
0.000000
  0
VERTEX
  8
LAYER-1
 10
3.749598
 20
0.198826
 30
0.000000
  0
SEQEND
  8
LAYER-1
  0
POLYLINE
  8
LAYER-1
 66
  1
 70
  0
 62
  0
 10
3.912796
 20
0.190893
 30
0.000000
  0
VERTEX
  8
LAYER-1
 10
3.912796
 20
0.190893
 30
0.000000
  0
VERTEX
  8
LAYER-1
 10
3.917136
 20
0.190893
 30
0.000000
  0
VERTEX
  8
LAYER-1
 10
3.920608
 20
0.195234
 30
0.000000
  0
VERTEX
  8
LAYER-1
 10
3.921475
 20
0.200441
 30
0.000000
  0
VERTEX
  8
LAYER-1
 10
3.919739
 20
0.204781
 30
0.000000
  0
VERTEX
  8
LAYER-1
 10
3.915398
 20
0.206518
 30
0.000000
  0
VERTEX
  8
LAYER-1
 10
3.911059
 20
0.206518
 30
0.000000
  0
VERTEX
  8
LAYER-1
 10
3.906719
 20
0.203046
 30
0.000000
  0
VERTEX
  8
LAYER-1
 10
3.906719
 20
0.198705
 30
0.000000
  0
VERTEX
  8
LAYER-1
 10
3.907586
 20
0.194365
 30
0.000000
  0
VERTEX
  8
LAYER-1
 10
3.911927
 20
0.191760
 30
0.000000
  0
SEQEND
  8
LAYER-1
  0
POLYLINE
  8
LAYER-1
 66
  1
 70
  1
 62
  0
 10
4.668870
 20
0.160079
 30
0.000000
  0
VERTEX
  8
LAYER-1
 10
4.668870
 20
0.160079
 30
0.000000
  0
VERTEX
  8
LAYER-1
 10
4.675815
 20
0.134037
 30
0.000000
  0
VERTEX
  8
LAYER-1
 10
4.700988
 20
0.147925
 30
0.000000
  0
SEQEND
  8
LAYER-1
  0
POLYLINE
  8
LAYER-1
 66
  1
 70
  1
 62
  0
 10
4.795605
 20
0.195669
 30
0.000000
  0
VERTEX
  8
LAYER-1
 10
4.795605
 20
0.195669
 30
0.000000
  0
VERTEX
  8
LAYER-1
 10
4.782585
 20
0.173100
 30
0.000000
  0
VERTEX
  8
LAYER-1
 10
4.812967
 20
0.193932
 30
0.000000
  0
SEQEND
  8
LAYER-1
  0
POLYLINE
  8
LAYER-1
 66
  1
 70
  1
 62
  0
 10
4.470956
 20
0.184385
 30
0.000000
  0
VERTEX
  8
LAYER-1
 10
4.470956
 20
0.184385
 30
0.000000
  0
VERTEX
  8
LAYER-1
 10
4.454463
 20
0.159211
 30
0.000000
  0
VERTEX
  8
LAYER-1
 10
4.469220
 20
0.151399
 30
0.000000
  0
SEQEND
  8
LAYER-1
  0
POLYLINE
  8
LAYER-1
 66
  1
 70
  0
 62
  0
 10
4.581198
 20
0.176574
 30
0.000000
  0
VERTEX
  8
LAYER-1
 10
4.581198
 20
0.176574
 30
0.000000
  0
VERTEX
  8
LAYER-1
 10
4.576857
 20
0.176574
 30
0.000000
  0
VERTEX
  8
LAYER-1
 10
4.573385
 20
0.172234
 30
0.000000
  0
VERTEX
  8
LAYER-1
 10
4.572516
 20
0.167026
 30
0.000000
  0
VERTEX
  8
LAYER-1
 10
4.574252
 20
0.162686
 30
0.000000
  0
VERTEX
  8
LAYER-1
 10
4.578593
 20
0.160950
 30
0.000000
  0
VERTEX
  8
LAYER-1
 10
4.582934
 20
0.160950
 30
0.000000
  0
VERTEX
  8
LAYER-1
 10
4.587273
 20
0.164422
 30
0.000000
  0
VERTEX
  8
LAYER-1
 10
4.587273
 20
0.168762
 30
0.000000
  0
VERTEX
  8
LAYER-1
 10
4.586405
 20
0.173103
 30
0.000000
  0
VERTEX
  8
LAYER-1
 10
4.582065
 20
0.175706
 30
0.000000
  0
SEQEND
  8
LAYER-1
  0
POLYLINE
  8
LAYER-1
 66
  1
 70
  1
 62
  0
 10
4.610712
 20
0.130565
 30
0.000000
  0
VERTEX
  8
LAYER-1
 10
4.610712
 20
0.130565
 30
0.000000
  0
VERTEX
  8
LAYER-1
 10
4.597691
 20
0.107995
 30
0.000000
  0
VERTEX
  8
LAYER-1
 10
4.628073
 20
0.128828
 30
0.000000
  0
SEQEND
  8
LAYER-1
  0
POLYLINE
  8
LAYER-1
 66
  1
 70
  1
 62
  0
 10
4.818009
 20
0.131097
 30
0.000000
  0
VERTEX
  8
LAYER-1
 10
4.818009
 20
0.131097
 30
0.000000
  0
VERTEX
  8
LAYER-1
 10
4.805323
 20
0.111732
 30
0.000000
  0
VERTEX
  8
LAYER-1
 10
4.816674
 20
0.105721
 30
0.000000
  0
SEQEND
  8
LAYER-1
  0
POLYLINE
  8
LAYER-1
 66
  1
 70
  0
 62
  0
 10
4.725293
 20
0.200009
 30
0.000000
  0
VERTEX
  8
LAYER-1
 10
4.725293
 20
0.200009
 30
0.000000
  0
VERTEX
  8
LAYER-1
 10
4.720952
 20
0.200009
 30
0.000000
  0
VERTEX
  8
LAYER-1
 10
4.717480
 20
0.195668
 30
0.000000
  0
VERTEX
  8
LAYER-1
 10
4.716612
 20
0.190460
 30
0.000000
  0
VERTEX
  8
LAYER-1
 10
4.718348
 20
0.186119
 30
0.000000
  0
VERTEX
  8
LAYER-1
 10
4.722688
 20
0.184384
 30
0.000000
  0
VERTEX
  8
LAYER-1
 10
4.727028
 20
0.184384
 30
0.000000
  0
VERTEX
  8
LAYER-1
 10
4.731369
 20
0.187855
 30
0.000000
  0
VERTEX
  8
LAYER-1
 10
4.731369
 20
0.192196
 30
0.000000
  0
VERTEX
  8
LAYER-1
 10
4.730500
 20
0.196537
 30
0.000000
  0
VERTEX
  8
LAYER-1
 10
4.726161
 20
0.199141
 30
0.000000
  0
SEQEND
  8
LAYER-1
  0
POLYLINE
  8
LAYER-1
 66
  1
 70
  0
 62
  0
 10
4.512622
 20
0.190459
 30
0.000000
  0
VERTEX
  8
LAYER-1
 10
4.512622
 20
0.190459
 30
0.000000
  0
VERTEX
  8
LAYER-1
 10
4.508283
 20
0.190459
 30
0.000000
  0
VERTEX
  8
LAYER-1
 10
4.504809
 20
0.186118
 30
0.000000
  0
VERTEX
  8
LAYER-1
 10
4.503942
 20
0.180911
 30
0.000000
  0
VERTEX
  8
LAYER-1
 10
4.505678
 20
0.176570
 30
0.000000
  0
VERTEX
  8
LAYER-1
 10
4.510018
 20
0.174834
 30
0.000000
  0
VERTEX
  8
LAYER-1
 10
4.514359
 20
0.174834
 30
0.000000
  0
VERTEX
  8
LAYER-1
 10
4.518699
 20
0.178306
 30
0.000000
  0
VERTEX
  8
LAYER-1
 10
4.518699
 20
0.182647
 30
0.000000
  0
VERTEX
  8
LAYER-1
 10
4.517831
 20
0.186987
 30
0.000000
  0
VERTEX
  8
LAYER-1
 10
4.513491
 20
0.189591
 30
0.000000
  0
SEQEND
  8
LAYER-1
  0
POLYLINE
  8
LAYER-1
 66
  1
 70
  0
 62
  0
 10
4.760017
 20
0.162680
 30
0.000000
  0
VERTEX
  8
LAYER-1
 10
4.760017
 20
0.162680
 30
0.000000
  0
VERTEX
  8
LAYER-1
 10
4.755678
 20
0.162680
 30
0.000000
  0
VERTEX
  8
LAYER-1
 10
4.752205
 20
0.158340
 30
0.000000
  0
VERTEX
  8
LAYER-1
 10
4.751338
 20
0.153131
 30
0.000000
  0
VERTEX
  8
LAYER-1
 10
4.753074
 20
0.148791
 30
0.000000
  0
VERTEX
  8
LAYER-1
 10
4.757414
 20
0.147055
 30
0.000000
  0
VERTEX
  8
LAYER-1
 10
4.761754
 20
0.147055
 30
0.000000
  0
VERTEX
  8
LAYER-1
 10
4.766094
 20
0.150527
 30
0.000000
  0
VERTEX
  8
LAYER-1
 10
4.766094
 20
0.154867
 30
0.000000
  0
VERTEX
  8
LAYER-1
 10
4.765227
 20
0.159209
 30
0.000000
  0
VERTEX
  8
LAYER-1
 10
4.760886
 20
0.161812
 30
0.000000
  0
SEQEND
  8
LAYER-1
  0
POLYLINE
  8
LAYER-1
 66
  1
 70
  1
 62
  0
 10
4.374601
 20
0.109296
 30
0.000000
  0
VERTEX
  8
LAYER-1
 10
4.374601
 20
0.109296
 30
0.000000
  0
VERTEX
  8
LAYER-1
 10
4.367656
 20
0.135336
 30
0.000000
  0
VERTEX
  8
LAYER-1
 10
4.342483
 20
0.121449
 30
0.000000
  0
SEQEND
  8
LAYER-1
  0
POLYLINE
  8
LAYER-1
 66
  1
 70
  1
 62
  0
 10
4.222691
 20
0.150092
 30
0.000000
  0
VERTEX
  8
LAYER-1
 10
4.222691
 20
0.150092
 30
0.000000
  0
VERTEX
  8
LAYER-1
 10
4.235712
 20
0.172663
 30
0.000000
  0
VERTEX
  8
LAYER-1
 10
4.205330
 20
0.151830
 30
0.000000
  0
SEQEND
  8
LAYER-1
  0
POLYLINE
  8
LAYER-1
 66
  1
 70
  1
 62
  0
 10
4.306025
 20
0.110167
 30
0.000000
  0
VERTEX
  8
LAYER-1
 10
4.306025
 20
0.110167
 30
0.000000
  0
VERTEX
  8
LAYER-1
 10
4.322518
 20
0.135340
 30
0.000000
  0
VERTEX
  8
LAYER-1
 10
4.307761
 20
0.143153
 30
0.000000
  0
SEQEND
  8
LAYER-1
  0
POLYLINE
  8
LAYER-1
 66
  1
 70
  0
 62
  0
 10
4.480505
 20
0.111904
 30
0.000000
  0
VERTEX
  8
LAYER-1
 10
4.480505
 20
0.111904
 30
0.000000
  0
VERTEX
  8
LAYER-1
 10
4.484846
 20
0.111904
 30
0.000000
  0
VERTEX
  8
LAYER-1
 10
4.488318
 20
0.116244
 30
0.000000
  0
VERTEX
  8
LAYER-1
 10
4.489186
 20
0.121451
 30
0.000000
  0
VERTEX
  8
LAYER-1
 10
4.487450
 20
0.125793
 30
0.000000
  0
VERTEX
  8
LAYER-1
 10
4.483109
 20
0.127529
 30
0.000000
  0
VERTEX
  8
LAYER-1
 10
4.478769
 20
0.127529
 30
0.000000
  0
VERTEX
  8
LAYER-1
 10
4.474428
 20
0.124056
 30
0.000000
  0
VERTEX
  8
LAYER-1
 10
4.474428
 20
0.119716
 30
0.000000
  0
VERTEX
  8
LAYER-1
 10
4.475296
 20
0.115375
 30
0.000000
  0
VERTEX
  8
LAYER-1
 10
4.479637
 20
0.112770
 30
0.000000
  0
SEQEND
  8
LAYER-1
  0
POLYLINE
  8
LAYER-1
 66
  1
 70
  1
 62
  0
 10
4.431892
 20
0.126659
 30
0.000000
  0
VERTEX
  8
LAYER-1
 10
4.431892
 20
0.126659
 30
0.000000
  0
VERTEX
  8
LAYER-1
 10
4.444914
 20
0.149229
 30
0.000000
  0
VERTEX
  8
LAYER-1
 10
4.414531
 20
0.128397
 30
0.000000
  0
SEQEND
  8
LAYER-1
  0
POLYLINE
  8
LAYER-1
 66
  1
 70
  1
 62
  0
 10
4.320949
 20
0.162584
 30
0.000000
  0
VERTEX
  8
LAYER-1
 10
4.320949
 20
0.162584
 30
0.000000
  0
VERTEX
  8
LAYER-1
 10
4.333635
 20
0.181947
 30
0.000000
  0
VERTEX
  8
LAYER-1
 10
4.322285
 20
0.187958
 30
0.000000
  0
SEQEND
  8
LAYER-1
  0
POLYLINE
  8
LAYER-1
 66
  1
 70
  0
 62
  0
 10
4.276597
 20
0.194054
 30
0.000000
  0
VERTEX
  8
LAYER-1
 10
4.276597
 20
0.194054
 30
0.000000
  0
VERTEX
  8
LAYER-1
 10
4.280936
 20
0.194054
 30
0.000000
  0
VERTEX
  8
LAYER-1
 10
4.284409
 20
0.198395
 30
0.000000
  0
VERTEX
  8
LAYER-1
 10
4.285277
 20
0.203602
 30
0.000000
  0
VERTEX
  8
LAYER-1
 10
4.283541
 20
0.207943
 30
0.000000
  0
VERTEX
  8
LAYER-1
 10
4.279201
 20
0.209679
 30
0.000000
  0
VERTEX
  8
LAYER-1
 10
4.274860
 20
0.209679
 30
0.000000
  0
VERTEX
  8
LAYER-1
 10
4.270519
 20
0.206207
 30
0.000000
  0
VERTEX
  8
LAYER-1
 10
4.270519
 20
0.201866
 30
0.000000
  0
VERTEX
  8
LAYER-1
 10
4.271387
 20
0.197526
 30
0.000000
  0
VERTEX
  8
LAYER-1
 10
4.275729
 20
0.194921
 30
0.000000
  0
SEQEND
  8
LAYER-1
  0
POLYLINE
  8
LAYER-1
 66
  1
 70
  0
 62
  0
 10
4.253941
 20
0.116243
 30
0.000000
  0
VERTEX
  8
LAYER-1
 10
4.253941
 20
0.116243
 30
0.000000
  0
VERTEX
  8
LAYER-1
 10
4.258281
 20
0.116243
 30
0.000000
  0
VERTEX
  8
LAYER-1
 10
4.261753
 20
0.120584
 30
0.000000
  0
VERTEX
  8
LAYER-1
 10
4.262621
 20
0.125792
 30
0.000000
  0
VERTEX
  8
LAYER-1
 10
4.260885
 20
0.130132
 30
0.000000
  0
VERTEX
  8
LAYER-1
 10
4.256544
 20
0.131868
 30
0.000000
  0
VERTEX
  8
LAYER-1
 10
4.252205
 20
0.131868
 30
0.000000
  0
VERTEX
  8
LAYER-1
 10
4.247864
 20
0.128397
 30
0.000000
  0
VERTEX
  8
LAYER-1
 10
4.247864
 20
0.124056
 30
0.000000
  0
VERTEX
  8
LAYER-1
 10
4.248732
 20
0.119715
 30
0.000000
  0
VERTEX
  8
LAYER-1
 10
4.253073
 20
0.117110
 30
0.000000
  0
SEQEND
  8
LAYER-1
  0
POLYLINE
  8
LAYER-1
 66
  1
 70
  0
 62
  0
 10
4.418004
 20
0.193498
 30
0.000000
  0
VERTEX
  8
LAYER-1
 10
4.418004
 20
0.193498
 30
0.000000
  0
VERTEX
  8
LAYER-1
 10
4.422345
 20
0.193498
 30
0.000000
  0
VERTEX
  8
LAYER-1
 10
4.425817
 20
0.197839
 30
0.000000
  0
VERTEX
  8
LAYER-1
 10
4.426684
 20
0.203047
 30
0.000000
  0
VERTEX
  8
LAYER-1
 10
4.424949
 20
0.207387
 30
0.000000
  0
VERTEX
  8
LAYER-1
 10
4.420608
 20
0.209123
 30
0.000000
  0
VERTEX
  8
LAYER-1
 10
4.416268
 20
0.209123
 30
0.000000
  0
VERTEX
  8
LAYER-1
 10
4.411928
 20
0.205651
 30
0.000000
  0
VERTEX
  8
LAYER-1
 10
4.411928
 20
0.201311
 30
0.000000
  0
VERTEX
  8
LAYER-1
 10
4.412796
 20
0.196970
 30
0.000000
  0
VERTEX
  8
LAYER-1
 10
4.417136
 20
0.194366
 30
0.000000
  0
SEQEND
  8
LAYER-1
  0
POLYLINE
  8
LAYER-1
 66
  1
 70
  1
 62
  0
 10
4.869822
 20
0.150095
 30
0.000000
  0
VERTEX
  8
LAYER-1
 10
4.869822
 20
0.150095
 30
0.000000
  0
VERTEX
  8
LAYER-1
 10
4.895863
 20
0.157040
 30
0.000000
  0
VERTEX
  8
LAYER-1
 10
4.881975
 20
0.182212
 30
0.000000
  0
SEQEND
  8
LAYER-1
  0
POLYLINE
  8
LAYER-1
 66
  1
 70
  1
 62
  0
 10
4.552117
 20
0.203047
 30
0.000000
  0
VERTEX
  8
LAYER-1
 10
4.552117
 20
0.203047
 30
0.000000
  0
VERTEX
  8
LAYER-1
 10
4.574687
 20
0.190025
 30
0.000000
  0
VERTEX
  8
LAYER-1
 10
4.553854
 20
0.220407
 30
0.000000
  0
SEQEND
  8
LAYER-1
  0
POLYLINE
  8
LAYER-1
 66
  1
 70
  1
 62
  0
 10
5.488746
 20
0.108425
 30
0.000000
  0
VERTEX
  8
LAYER-1
 10
5.488746
 20
0.108425
 30
0.000000
  0
VERTEX
  8
LAYER-1
 10
5.513921
 20
0.091932
 30
0.000000
  0
VERTEX
  8
LAYER-1
 10
5.521733
 20
0.106689
 30
0.000000
  0
SEQEND
  8
LAYER-1
  0
POLYLINE
  8
LAYER-1
 66
  1
 70
  0
 62
  0
 10
5.309927
 20
0.117107
 30
0.000000
  0
VERTEX
  8
LAYER-1
 10
5.309927
 20
0.117107
 30
0.000000
  0
VERTEX
  8
LAYER-1
 10
5.309927
 20
0.112768
 30
0.000000
  0
VERTEX
  8
LAYER-1
 10
5.314267
 20
0.109294
 30
0.000000
  0
VERTEX
  8
LAYER-1
 10
5.319475
 20
0.108428
 30
0.000000
  0
VERTEX
  8
LAYER-1
 10
5.323816
 20
0.110163
 30
0.000000
  0
VERTEX
  8
LAYER-1
 10
5.325552
 20
0.114504
 30
0.000000
  0
VERTEX
  8
LAYER-1
 10
5.325552
 20
0.118844
 30
0.000000
  0
VERTEX
  8
LAYER-1
 10
5.322080
 20
0.123184
 30
0.000000
  0
VERTEX
  8
LAYER-1
 10
5.317739
 20
0.123184
 30
0.000000
  0
VERTEX
  8
LAYER-1
 10
5.313399
 20
0.122316
 30
0.000000
  0
VERTEX
  8
LAYER-1
 10
5.310795
 20
0.117976
 30
0.000000
  0
SEQEND
  8
LAYER-1
  0
POLYLINE
  8
LAYER-1
 66
  1
 70
  1
 62
  0
 10
4.940136
 20
0.137073
 30
0.000000
  0
VERTEX
  8
LAYER-1
 10
4.940136
 20
0.137073
 30
0.000000
  0
VERTEX
  8
LAYER-1
 10
4.962705
 20
0.124053
 30
0.000000
  0
VERTEX
  8
LAYER-1
 10
4.941872
 20
0.154434
 30
0.000000
  0
SEQEND
  8
LAYER-1
  0
POLYLINE
  8
LAYER-1
 66
  1
 70
  1
 62
  0
 10
4.903143
 20
0.208087
 30
0.000000
  0
VERTEX
  8
LAYER-1
 10
4.903143
 20
0.208087
 30
0.000000
  0
VERTEX
  8
LAYER-1
 10
4.922508
 20
0.195401
 30
0.000000
  0
VERTEX
  8
LAYER-1
 10
4.928519
 20
0.206752
 30
0.000000
  0
SEQEND
  8
LAYER-1
  0
POLYLINE
  8
LAYER-1
 66
  1
 70
  0
 62
  0
 10
4.547778
 20
0.143151
 30
0.000000
  0
VERTEX
  8
LAYER-1
 10
4.547778
 20
0.143151
 30
0.000000
  0
VERTEX
  8
LAYER-1
 10
4.547778
 20
0.138812
 30
0.000000
  0
VERTEX
  8
LAYER-1
 10
4.552118
 20
0.135339
 30
0.000000
  0
VERTEX
  8
LAYER-1
 10
4.557326
 20
0.134471
 30
0.000000
  0
VERTEX
  8
LAYER-1
 10
4.561667
 20
0.136207
 30
0.000000
  0
VERTEX
  8
LAYER-1
 10
4.563402
 20
0.140548
 30
0.000000
  0
VERTEX
  8
LAYER-1
 10
4.563402
 20
0.144887
 30
0.000000
  0
VERTEX
  8
LAYER-1
 10
4.559931
 20
0.149228
 30
0.000000
  0
VERTEX
  8
LAYER-1
 10
4.555590
 20
0.149228
 30
0.000000
  0
VERTEX
  8
LAYER-1
 10
4.551249
 20
0.148360
 30
0.000000
  0
VERTEX
  8
LAYER-1
 10
4.548645
 20
0.144019
 30
0.000000
  0
SEQEND
  8
LAYER-1
  0
POLYLINE
  8
LAYER-1
 66
  1
 70
  0
 62
  0
 10
4.954024
 20
0.104956
 30
0.000000
  0
VERTEX
  8
LAYER-1
 10
4.954024
 20
0.104956
 30
0.000000
  0
VERTEX
  8
LAYER-1
 10
4.954024
 20
0.100616
 30
0.000000
  0
VERTEX
  8
LAYER-1
 10
4.958364
 20
0.097143
 30
0.000000
  0
VERTEX
  8
LAYER-1
 10
4.963572
 20
0.096274
 30
0.000000
  0
VERTEX
  8
LAYER-1
 10
4.967912
 20
0.098011
 30
0.000000
  0
VERTEX
  8
LAYER-1
 10
4.969649
 20
0.102351
 30
0.000000
  0
VERTEX
  8
LAYER-1
 10
4.969649
 20
0.106692
 30
0.000000
  0
VERTEX
  8
LAYER-1
 10
4.966177
 20
0.111032
 30
0.000000
  0
VERTEX
  8
LAYER-1
 10
4.961836
 20
0.111032
 30
0.000000
  0
VERTEX
  8
LAYER-1
 10
4.957495
 20
0.110163
 30
0.000000
  0
VERTEX
  8
LAYER-1
 10
4.954892
 20
0.105824
 30
0.000000
  0
SEQEND
  8
LAYER-1
  0
POLYLINE
  8
LAYER-1
 66
  1
 70
  0
 62
  0
 10
5.022600
 20
0.140547
 30
0.000000
  0
VERTEX
  8
LAYER-1
 10
5.022600
 20
0.140547
 30
0.000000
  0
VERTEX
  8
LAYER-1
 10
5.022600
 20
0.136206
 30
0.000000
  0
VERTEX
  8
LAYER-1
 10
5.026941
 20
0.132735
 30
0.000000
  0
VERTEX
  8
LAYER-1
 10
5.032149
 20
0.131866
 30
0.000000
  0
VERTEX
  8
LAYER-1
 10
5.036489
 20
0.133603
 30
0.000000
  0
VERTEX
  8
LAYER-1
 10
5.038225
 20
0.137942
 30
0.000000
  0
VERTEX
  8
LAYER-1
 10
5.038225
 20
0.142282
 30
0.000000
  0
VERTEX
  8
LAYER-1
 10
5.034754
 20
0.146623
 30
0.000000
  0
VERTEX
  8
LAYER-1
 10
5.030412
 20
0.146623
 30
0.000000
  0
VERTEX
  8
LAYER-1
 10
5.026072
 20
0.145754
 30
0.000000
  0
VERTEX
  8
LAYER-1
 10
5.023468
 20
0.141415
 30
0.000000
  0
SEQEND
  8
LAYER-1
  0
POLYLINE
  8
LAYER-1
 66
  1
 70
  1
 62
  0
 10
5.062010
 20
0.161814
 30
0.000000
  0
VERTEX
  8
LAYER-1
 10
5.062010
 20
0.161814
 30
0.000000
  0
VERTEX
  8
LAYER-1
 10
5.068955
 20
0.135774
 30
0.000000
  0
VERTEX
  8
LAYER-1
 10
5.094129
 20
0.149661
 30
0.000000
  0
SEQEND
  8
LAYER-1
  0
POLYLINE
  8
LAYER-1
 66
  1
 70
  1
 62
  0
 10
5.223556
 20
0.190460
 30
0.000000
  0
VERTEX
  8
LAYER-1
 10
5.223556
 20
0.190460
 30
0.000000
  0
VERTEX
  8
LAYER-1
 10
5.210535
 20
0.167891
 30
0.000000
  0
VERTEX
  8
LAYER-1
 10
5.240917
 20
0.188722
 30
0.000000
  0
SEQEND
  8
LAYER-1
  0
POLYLINE
  8
LAYER-1
 66
  1
 70
  1
 62
  0
 10
5.615917
 20
0.160942
 30
0.000000
  0
VERTEX
  8
LAYER-1
 10
5.615917
 20
0.160942
 30
0.000000
  0
VERTEX
  8
LAYER-1
 10
5.599424
 20
0.135768
 30
0.000000
  0
VERTEX
  8
LAYER-1
 10
5.614181
 20
0.127956
 30
0.000000
  0
SEQEND
  8
LAYER-1
  0
POLYLINE
  8
LAYER-1
 66
  1
 70
  0
 62
  0
 10
5.011751
 20
0.193063
 30
0.000000
  0
VERTEX
  8
LAYER-1
 10
5.011751
 20
0.193063
 30
0.000000
  0
VERTEX
  8
LAYER-1
 10
5.007409
 20
0.193063
 30
0.000000
  0
VERTEX
  8
LAYER-1
 10
5.003938
 20
0.188722
 30
0.000000
  0
VERTEX
  8
LAYER-1
 10
5.003070
 20
0.183515
 30
0.000000
  0
VERTEX
  8
LAYER-1
 10
5.004806
 20
0.179174
 30
0.000000
  0
VERTEX
  8
LAYER-1
 10
5.009146
 20
0.177438
 30
0.000000
  0
VERTEX
  8
LAYER-1
 10
5.013486
 20
0.177438
 30
0.000000
  0
VERTEX
  8
LAYER-1
 10
5.017827
 20
0.180910
 30
0.000000
  0
VERTEX
  8
LAYER-1
 10
5.017827
 20
0.185250
 30
0.000000
  0
VERTEX
  8
LAYER-1
 10
5.016959
 20
0.189591
 30
0.000000
  0
VERTEX
  8
LAYER-1
 10
5.012618
 20
0.192196
 30
0.000000
  0
SEQEND
  8
LAYER-1
  0
POLYLINE
  8
LAYER-1
 66
  1
 70
  1
 62
  0
 10
5.075119
 20
0.116675
 30
0.000000
  0
VERTEX
  8
LAYER-1
 10
5.075119
 20
0.116675
 30
0.000000
  0
VERTEX
  8
LAYER-1
 10
5.062098
 20
0.094104
 30
0.000000
  0
VERTEX
  8
LAYER-1
 10
5.092480
 20
0.114937
 30
0.000000
  0
SEQEND
  8
LAYER-1
  0
POLYLINE
  8
LAYER-1
 66
  1
 70
  1
 62
  0
 10
5.143862
 20
0.094437
 30
0.000000
  0
VERTEX
  8
LAYER-1
 10
5.143862
 20
0.094437
 30
0.000000
  0
VERTEX
  8
LAYER-1
 10
5.156550
 20
0.113801
 30
0.000000
  0
VERTEX
  8
LAYER-1
 10
5.145198
 20
0.119812
 30
0.000000
  0
SEQEND
  8
LAYER-1
  0
POLYLINE
  8
LAYER-1
 66
  1
 70
  0
 62
  0
 10
5.163660
 20
0.194799
 30
0.000000
  0
VERTEX
  8
LAYER-1
 10
5.163660
 20
0.194799
 30
0.000000
  0
VERTEX
  8
LAYER-1
 10
5.159320
 20
0.194799
 30
0.000000
  0
VERTEX
  8
LAYER-1
 10
5.155847
 20
0.190459
 30
0.000000
  0
VERTEX
  8
LAYER-1
 10
5.154979
 20
0.185250
 30
0.000000
  0
VERTEX
  8
LAYER-1
 10
5.156715
 20
0.180910
 30
0.000000
  0
VERTEX
  8
LAYER-1
 10
5.161056
 20
0.179174
 30
0.000000
  0
VERTEX
  8
LAYER-1
 10
5.165396
 20
0.179174
 30
0.000000
  0
VERTEX
  8
LAYER-1
 10
5.169736
 20
0.182646
 30
0.000000
  0
VERTEX
  8
LAYER-1
 10
5.169736
 20
0.186986
 30
0.000000
  0
VERTEX
  8
LAYER-1
 10
5.168868
 20
0.191327
 30
0.000000
  0
VERTEX
  8
LAYER-1
 10
5.164527
 20
0.193932
 30
0.000000
  0
SEQEND
  8
LAYER-1
  0
POLYLINE
  8
LAYER-1
 66
  1
 70
  0
 62
  0
 10
5.667999
 20
0.154866
 30
0.000000
  0
VERTEX
  8
LAYER-1
 10
5.667999
 20
0.154866
 30
0.000000
  0
VERTEX
  8
LAYER-1
 10
5.663659
 20
0.154866
 30
0.000000
  0
VERTEX
  8
LAYER-1
 10
5.660187
 20
0.150525
 30
0.000000
  0
VERTEX
  8
LAYER-1
 10
5.659319
 20
0.145317
 30
0.000000
  0
VERTEX
  8
LAYER-1
 10
5.661055
 20
0.140977
 30
0.000000
  0
VERTEX
  8
LAYER-1
 10
5.665396
 20
0.139241
 30
0.000000
  0
VERTEX
  8
LAYER-1
 10
5.669735
 20
0.139241
 30
0.000000
  0
VERTEX
  8
LAYER-1
 10
5.674076
 20
0.142712
 30
0.000000
  0
VERTEX
  8
LAYER-1
 10
5.674076
 20
0.147053
 30
0.000000
  0
VERTEX
  8
LAYER-1
 10
5.673208
 20
0.151393
 30
0.000000
  0
VERTEX
  8
LAYER-1
 10
5.668867
 20
0.153998
 30
0.000000
  0
SEQEND
  8
LAYER-1
  0
POLYLINE
  8
LAYER-1
 66
  1
 70
  0
 62
  0
 10
5.576855
 20
0.122748
 30
0.000000
  0
VERTEX
  8
LAYER-1
 10
5.576855
 20
0.122748
 30
0.000000
  0
VERTEX
  8
LAYER-1
 10
5.572514
 20
0.122748
 30
0.000000
  0
VERTEX
  8
LAYER-1
 10
5.569043
 20
0.118407
 30
0.000000
  0
VERTEX
  8
LAYER-1
 10
5.568175
 20
0.113199
 30
0.000000
  0
VERTEX
  8
LAYER-1
 10
5.569911
 20
0.108859
 30
0.000000
  0
VERTEX
  8
LAYER-1
 10
5.574251
 20
0.107123
 30
0.000000
  0
VERTEX
  8
LAYER-1
 10
5.578591
 20
0.107123
 30
0.000000
  0
VERTEX
  8
LAYER-1
 10
5.582932
 20
0.110594
 30
0.000000
  0
VERTEX
  8
LAYER-1
 10
5.582932
 20
0.114935
 30
0.000000
  0
VERTEX
  8
LAYER-1
 10
5.582064
 20
0.119275
 30
0.000000
  0
VERTEX
  8
LAYER-1
 10
5.577723
 20
0.121880
 30
0.000000
  0
SEQEND
  8
LAYER-1
  0
POLYLINE
  8
LAYER-1
 66
  1
 70
  1
 62
  0
 10
5.261751
 20
0.177005
 30
0.000000
  0
VERTEX
  8
LAYER-1
 10
5.261751
 20
0.177005
 30
0.000000
  0
VERTEX
  8
LAYER-1
 10
5.287791
 20
0.183950
 30
0.000000
  0
VERTEX
  8
LAYER-1
 10
5.273904
 20
0.209123
 30
0.000000
  0
SEQEND
  8
LAYER-1
  0
POLYLINE
  8
LAYER-1
 66
  1
 70
  0
 62
  0
 10
5.230501
 20
0.127526
 30
0.000000
  0
VERTEX
  8
LAYER-1
 10
5.230501
 20
0.127526
 30
0.000000
  0
VERTEX
  8
LAYER-1
 10
5.230501
 20
0.123187
 30
0.000000
  0
VERTEX
  8
LAYER-1
 10
5.234841
 20
0.119714
 30
0.000000
  0
VERTEX
  8
LAYER-1
 10
5.240049
 20
0.118847
 30
0.000000
  0
VERTEX
  8
LAYER-1
 10
5.244389
 20
0.120583
 30
0.000000
  0
VERTEX
  8
LAYER-1
 10
5.246126
 20
0.124923
 30
0.000000
  0
VERTEX
  8
LAYER-1
 10
5.246126
 20
0.129263
 30
0.000000
  0
VERTEX
  8
LAYER-1
 10
5.242654
 20
0.133603
 30
0.000000
  0
VERTEX
  8
LAYER-1
 10
5.238313
 20
0.133603
 30
0.000000
  0
VERTEX
  8
LAYER-1
 10
5.233972
 20
0.132735
 30
0.000000
  0
VERTEX
  8
LAYER-1
 10
5.231367
 20
0.128395
 30
0.000000
  0
SEQEND
  8
LAYER-1
  0
POLYLINE
  8
LAYER-1
 66
  1
 70
  1
 62
  0
 10
5.325553
 20
0.140981
 30
0.000000
  0
VERTEX
  8
LAYER-1
 10
5.325553
 20
0.140981
 30
0.000000
  0
VERTEX
  8
LAYER-1
 10
5.338573
 20
0.163551
 30
0.000000
  0
VERTEX
  8
LAYER-1
 10
5.308192
 20
0.142719
 30
0.000000
  0
SEQEND
  8
LAYER-1
  0
POLYLINE
  8
LAYER-1
 66
  1
 70
  0
 62
  0
 10
5.380674
 20
0.175269
 30
0.000000
  0
VERTEX
  8
LAYER-1
 10
5.380674
 20
0.175269
 30
0.000000
  0
VERTEX
  8
LAYER-1
 10
5.380674
 20
0.170930
 30
0.000000
  0
VERTEX
  8
LAYER-1
 10
5.385014
 20
0.167458
 30
0.000000
  0
VERTEX
  8
LAYER-1
 10
5.390222
 20
0.166589
 30
0.000000
  0
VERTEX
  8
LAYER-1
 10
5.394563
 20
0.168326
 30
0.000000
  0
VERTEX
  8
LAYER-1
 10
5.396299
 20
0.172666
 30
0.000000
  0
VERTEX
  8
LAYER-1
 10
5.396299
 20
0.177005
 30
0.000000
  0
VERTEX
  8
LAYER-1
 10
5.392827
 20
0.181346
 30
0.000000
  0
VERTEX
  8
LAYER-1
 10
5.388486
 20
0.181346
 30
0.000000
  0
VERTEX
  8
LAYER-1
 10
5.384146
 20
0.180478
 30
0.000000
  0
VERTEX
  8
LAYER-1
 10
5.381541
 20
0.176137
 30
0.000000
  0
SEQEND
  8
LAYER-1
  0
POLYLINE
  8
LAYER-1
 66
  1
 70
  1
 62
  0
 10
6.126598
 20
0.191674
 30
0.000000
  0
VERTEX
  8
LAYER-1
 10
6.126598
 20
0.191674
 30
0.000000
  0
VERTEX
  8
LAYER-1
 10
6.119652
 20
0.217715
 30
0.000000
  0
VERTEX
  8
LAYER-1
 10
6.094479
 20
0.203827
 30
0.000000
  0
SEQEND
  8
LAYER-1
  0
POLYLINE
  8
LAYER-1
 66
  1
 70
  0
 62
  0
 10
6.167136
 20
0.065459
 30
0.000000
  0
VERTEX
  8
LAYER-1
 10
6.167136
 20
0.065459
 30
0.000000
  0
VERTEX
  8
LAYER-1
 10
6.171476
 20
0.065459
 30
0.000000
  0
VERTEX
  8
LAYER-1
 10
6.174949
 20
0.069800
 30
0.000000
  0
VERTEX
  8
LAYER-1
 10
6.175816
 20
0.075007
 30
0.000000
  0
VERTEX
  8
LAYER-1
 10
6.174080
 20
0.079348
 30
0.000000
  0
VERTEX
  8
LAYER-1
 10
6.169740
 20
0.081084
 30
0.000000
  0
VERTEX
  8
LAYER-1
 10
6.165399
 20
0.081084
 30
0.000000
  0
VERTEX
  8
LAYER-1
 10
6.161059
 20
0.077612
 30
0.000000
  0
VERTEX
  8
LAYER-1
 10
6.161059
 20
0.073272
 30
0.000000
  0
VERTEX
  8
LAYER-1
 10
6.161928
 20
0.068931
 30
0.000000
  0
VERTEX
  8
LAYER-1
 10
6.166267
 20
0.066327
 30
0.000000
  0
SEQEND
  8
LAYER-1
  0
POLYLINE
  8
LAYER-1
 66
  1
 70
  1
 62
  0
 10
5.463573
 20
0.098446
 30
0.000000
  0
VERTEX
  8
LAYER-1
 10
5.463573
 20
0.098446
 30
0.000000
  0
VERTEX
  8
LAYER-1
 10
5.476593
 20
0.121016
 30
0.000000
  0
VERTEX
  8
LAYER-1
 10
5.446212
 20
0.100182
 30
0.000000
  0
SEQEND
  8
LAYER-1
  0
POLYLINE
  8
LAYER-1
 66
  1
 70
  0
 62
  0
 10
5.507325
 20
0.176778
 30
0.000000
  0
VERTEX
  8
LAYER-1
 10
5.507325
 20
0.176778
 30
0.000000
  0
VERTEX
  8
LAYER-1
 10
5.511666
 20
0.176778
 30
0.000000
  0
VERTEX
  8
LAYER-1
 10
5.515138
 20
0.181119
 30
0.000000
  0
VERTEX
  8
LAYER-1
 10
5.516006
 20
0.186327
 30
0.000000
  0
VERTEX
  8
LAYER-1
 10
5.514270
 20
0.190668
 30
0.000000
  0
VERTEX
  8
LAYER-1
 10
5.509930
 20
0.192403
 30
0.000000
  0
VERTEX
  8
LAYER-1
 10
5.505589
 20
0.192403
 30
0.000000
  0
VERTEX
  8
LAYER-1
 10
5.501248
 20
0.188932
 30
0.000000
  0
VERTEX
  8
LAYER-1
 10
5.501248
 20
0.184591
 30
0.000000
  0
VERTEX
  8
LAYER-1
 10
5.502118
 20
0.180250
 30
0.000000
  0
VERTEX
  8
LAYER-1
 10
5.506457
 20
0.177646
 30
0.000000
  0
SEQEND
  8
LAYER-1
  0
POLYLINE
  8
LAYER-1
 66
  1
 70
  1
 62
  0
 10
6.046911
 20
0.107562
 30
0.000000
  0
VERTEX
  8
LAYER-1
 10
6.046911
 20
0.107562
 30
0.000000
  0
VERTEX
  8
LAYER-1
 10
6.020869
 20
0.100616
 30
0.000000
  0
VERTEX
  8
LAYER-1
 10
6.034757
 20
0.075443
 30
0.000000
  0
SEQEND
  8
LAYER-1
  0
POLYLINE
  8
LAYER-1
 66
  1
 70
  0
 62
  0
 10
5.411924
 20
0.122320
 30
0.000000
  0
VERTEX
  8
LAYER-1
 10
5.411924
 20
0.122320
 30
0.000000
  0
VERTEX
  8
LAYER-1
 10
5.411924
 20
0.126659
 30
0.000000
  0
VERTEX
  8
LAYER-1
 10
5.407583
 20
0.130132
 30
0.000000
  0
VERTEX
  8
LAYER-1
 10
5.402376
 20
0.130999
 30
0.000000
  0
VERTEX
  8
LAYER-1
 10
5.398035
 20
0.129263
 30
0.000000
  0
VERTEX
  8
LAYER-1
 10
5.396299
 20
0.124923
 30
0.000000
  0
VERTEX
  8
LAYER-1
 10
5.396299
 20
0.120582
 30
0.000000
  0
VERTEX
  8
LAYER-1
 10
5.399771
 20
0.116243
 30
0.000000
  0
VERTEX
  8
LAYER-1
 10
5.404111
 20
0.116243
 30
0.000000
  0
VERTEX
  8
LAYER-1
 10
5.408452
 20
0.117110
 30
0.000000
  0
VERTEX
  8
LAYER-1
 10
5.411056
 20
0.121451
 30
0.000000
  0
SEQEND
  8
LAYER-1
  0
POLYLINE
  8
LAYER-1
 66
  1
 70
  1
 62
  0
 10
5.995695
 20
0.097145
 30
0.000000
  0
VERTEX
  8
LAYER-1
 10
5.995695
 20
0.097145
 30
0.000000
  0
VERTEX
  8
LAYER-1
 10
5.967917
 20
0.113637
 30
0.000000
  0
VERTEX
  8
LAYER-1
 10
5.988749
 20
0.083256
 30
0.000000
  0
SEQEND
  8
LAYER-1
  0
POLYLINE
  8
LAYER-1
 66
  1
 70
  0
 62
  0
 10
5.706194
 20
0.178737
 30
0.000000
  0
VERTEX
  8
LAYER-1
 10
5.706194
 20
0.178737
 30
0.000000
  0
VERTEX
  8
LAYER-1
 10
5.706194
 20
0.183078
 30
0.000000
  0
VERTEX
  8
LAYER-1
 10
5.701853
 20
0.186550
 30
0.000000
  0
VERTEX
  8
LAYER-1
 10
5.696646
 20
0.187419
 30
0.000000
  0
VERTEX
  8
LAYER-1
 10
5.692305
 20
0.185681
 30
0.000000
  0
VERTEX
  8
LAYER-1
 10
5.690569
 20
0.181342
 30
0.000000
  0
VERTEX
  8
LAYER-1
 10
5.690569
 20
0.177002
 30
0.000000
  0
VERTEX
  8
LAYER-1
 10
5.694041
 20
0.172662
 30
0.000000
  0
VERTEX
  8
LAYER-1
 10
5.698382
 20
0.172662
 30
0.000000
  0
VERTEX
  8
LAYER-1
 10
5.702722
 20
0.173530
 30
0.000000
  0
VERTEX
  8
LAYER-1
 10
5.705326
 20
0.177868
 30
0.000000
  0
SEQEND
  8
LAYER-1
  0
POLYLINE
  8
LAYER-1
 66
  1
 70
  1
 62
  0
 10
6.276858
 20
0.085253
 30
0.000000
  0
VERTEX
  8
LAYER-1
 10
6.276858
 20
0.085253
 30
0.000000
  0
VERTEX
  8
LAYER-1
 10
6.269913
 20
0.111294
 30
0.000000
  0
VERTEX
  8
LAYER-1
 10
6.244740
 20
0.097406
 30
0.000000
  0
SEQEND
  8
LAYER-1
  0
POLYLINE
  8
LAYER-1
 66
  1
 70
  0
 62
  0
 10
6.366702
 20
0.185512
 30
0.000000
  0
VERTEX
  8
LAYER-1
 10
6.366702
 20
0.185512
 30
0.000000
  0
VERTEX
  8
LAYER-1
 10
6.371043
 20
0.185512
 30
0.000000
  0
VERTEX
  8
LAYER-1
 10
6.374515
 20
0.189852
 30
0.000000
  0
VERTEX
  8
LAYER-1
 10
6.375381
 20
0.195060
 30
0.000000
  0
VERTEX
  8
LAYER-1
 10
6.373646
 20
0.199401
 30
0.000000
  0
VERTEX
  8
LAYER-1
 10
6.369307
 20
0.201137
 30
0.000000
  0
VERTEX
  8
LAYER-1
 10
6.364966
 20
0.201137
 30
0.000000
  0
VERTEX
  8
LAYER-1
 10
6.360625
 20
0.197665
 30
0.000000
  0
VERTEX
  8
LAYER-1
 10
6.360625
 20
0.193325
 30
0.000000
  0
VERTEX
  8
LAYER-1
 10
6.361494
 20
0.188983
 30
0.000000
  0
VERTEX
  8
LAYER-1
 10
6.365833
 20
0.186380
 30
0.000000
  0
SEQEND
  8
LAYER-1
  0
POLYLINE
  8
LAYER-1
 66
  1
 70
  1
 62
  0
 10
6.351944
 20
0.220668
 30
0.000000
  0
VERTEX
  8
LAYER-1
 10
6.351944
 20
0.220668
 30
0.000000
  0
VERTEX
  8
LAYER-1
 10
6.325902
 20
0.213724
 30
0.000000
  0
VERTEX
  8
LAYER-1
 10
6.339791
 20
0.188550
 30
0.000000
  0
SEQEND
  8
LAYER-1
  0
POLYLINE
  8
LAYER-1
 66
  1
 70
  1
 62
  0
 10
5.600726
 20
0.079352
 30
0.000000
  0
VERTEX
  8
LAYER-1
 10
5.600726
 20
0.079352
 30
0.000000
  0
VERTEX
  8
LAYER-1
 10
5.613746
 20
0.101922
 30
0.000000
  0
VERTEX
  8
LAYER-1
 10
5.583365
 20
0.081089
 30
0.000000
  0
SEQEND
  8
LAYER-1
  0
POLYLINE
  8
LAYER-1
 66
  1
 70
  0
 62
  0
 10
5.597254
 20
0.186120
 30
0.000000
  0
VERTEX
  8
LAYER-1
 10
5.597254
 20
0.186120
 30
0.000000
  0
VERTEX
  8
LAYER-1
 10
5.601594
 20
0.186120
 30
0.000000
  0
VERTEX
  8
LAYER-1
 10
5.605066
 20
0.190461
 30
0.000000
  0
VERTEX
  8
LAYER-1
 10
5.605935
 20
0.195669
 30
0.000000
  0
VERTEX
  8
LAYER-1
 10
5.604199
 20
0.200010
 30
0.000000
  0
VERTEX
  8
LAYER-1
 10
5.599858
 20
0.201745
 30
0.000000
  0
VERTEX
  8
LAYER-1
 10
5.595517
 20
0.201745
 30
0.000000
  0
VERTEX
  8
LAYER-1
 10
5.591177
 20
0.198274
 30
0.000000
  0
VERTEX
  8
LAYER-1
 10
5.591177
 20
0.193932
 30
0.000000
  0
VERTEX
  8
LAYER-1
 10
5.592046
 20
0.189592
 30
0.000000
  0
VERTEX
  8
LAYER-1
 10
5.596386
 20
0.186988
 30
0.000000
  0
SEQEND
  8
LAYER-1
  0
POLYLINE
  8
LAYER-1
 66
  1
 70
  1
 62
  0
 10
5.549944
 20
0.164853
 30
0.000000
  0
VERTEX
  8
LAYER-1
 10
5.549944
 20
0.164853
 30
0.000000
  0
VERTEX
  8
LAYER-1
 10
5.575119
 20
0.148360
 30
0.000000
  0
VERTEX
  8
LAYER-1
 10
5.582932
 20
0.163116
 30
0.000000
  0
SEQEND
  8
LAYER-1
  0
POLYLINE
  8
LAYER-1
 66
  1
 70
  1
 62
  0
 10
5.536591
 20
0.137240
 30
0.000000
  0
VERTEX
  8
LAYER-1
 10
5.536591
 20
0.137240
 30
0.000000
  0
VERTEX
  8
LAYER-1
 10
5.517227
 20
0.149928
 30
0.000000
  0
VERTEX
  8
LAYER-1
 10
5.511216
 20
0.138576
 30
0.000000
  0
SEQEND
  8
LAYER-1
  0
POLYLINE
  8
LAYER-1
 66
  1
 70
  1
 62
  0
 10
1.313835
 20
0.196101
 30
0.000000
  0
VERTEX
  8
LAYER-1
 10
1.313835
 20
0.196101
 30
0.000000
  0
VERTEX
  8
LAYER-1
 10
1.300814
 20
0.173531
 30
0.000000
  0
VERTEX
  8
LAYER-1
 10
1.331196
 20
0.194365
 30
0.000000
  0
SEQEND
  8
LAYER-1
  0
POLYLINE
  8
LAYER-1
 66
  1
 70
  1
 62
  0
 10
5.863315
 20
0.123188
 30
0.000000
  0
VERTEX
  8
LAYER-1
 10
5.863315
 20
0.123188
 30
0.000000
  0
VERTEX
  8
LAYER-1
 10
5.885884
 20
0.110167
 30
0.000000
  0
VERTEX
  8
LAYER-1
 10
5.865052
 20
0.140549
 30
0.000000
  0
SEQEND
  8
LAYER-1
  0
POLYLINE
  8
LAYER-1
 66
  1
 70
  0
 62
  0
 10
5.791267
 20
0.170060
 30
0.000000
  0
VERTEX
  8
LAYER-1
 10
5.791267
 20
0.170060
 30
0.000000
  0
VERTEX
  8
LAYER-1
 10
5.791267
 20
0.165719
 30
0.000000
  0
VERTEX
  8
LAYER-1
 10
5.795607
 20
0.162248
 30
0.000000
  0
VERTEX
  8
LAYER-1
 10
5.800815
 20
0.161379
 30
0.000000
  0
VERTEX
  8
LAYER-1
 10
5.805155
 20
0.163116
 30
0.000000
  0
VERTEX
  8
LAYER-1
 10
5.806892
 20
0.167456
 30
0.000000
  0
VERTEX
  8
LAYER-1
 10
5.806892
 20
0.171796
 30
0.000000
  0
VERTEX
  8
LAYER-1
 10
5.803420
 20
0.176136
 30
0.000000
  0
VERTEX
  8
LAYER-1
 10
5.799079
 20
0.176136
 30
0.000000
  0
VERTEX
  8
LAYER-1
 10
5.794738
 20
0.175268
 30
0.000000
  0
VERTEX
  8
LAYER-1
 10
5.792134
 20
0.170928
 30
0.000000
  0
SEQEND
  8
LAYER-1
  0
POLYLINE
  8
LAYER-1
 66
  1
 70
  1
 62
  0
 10
5.740918
 20
0.181345
 30
0.000000
  0
VERTEX
  8
LAYER-1
 10
5.740918
 20
0.181345
 30
0.000000
  0
VERTEX
  8
LAYER-1
 10
5.763488
 20
0.168325
 30
0.000000
  0
VERTEX
  8
LAYER-1
 10
5.742655
 20
0.198706
 30
0.000000
  0
SEQEND
  8
LAYER-1
  0
POLYLINE
  8
LAYER-1
 66
  1
 70
  0
 62
  0
 10
6.003072
 20
0.123188
 30
0.000000
  0
VERTEX
  8
LAYER-1
 10
6.003072
 20
0.123188
 30
0.000000
  0
VERTEX
  8
LAYER-1
 10
6.003072
 20
0.118847
 30
0.000000
  0
VERTEX
  8
LAYER-1
 10
6.007412
 20
0.115375
 30
0.000000
  0
VERTEX
  8
LAYER-1
 10
6.012620
 20
0.114507
 30
0.000000
  0
VERTEX
  8
LAYER-1
 10
6.016961
 20
0.116243
 30
0.000000
  0
VERTEX
  8
LAYER-1
 10
6.018697
 20
0.120583
 30
0.000000
  0
VERTEX
  8
LAYER-1
 10
6.018697
 20
0.124924
 30
0.000000
  0
VERTEX
  8
LAYER-1
 10
6.015225
 20
0.129264
 30
0.000000
  0
VERTEX
  8
LAYER-1
 10
6.010884
 20
0.129264
 30
0.000000
  0
VERTEX
  8
LAYER-1
 10
6.006543
 20
0.128395
 30
0.000000
  0
VERTEX
  8
LAYER-1
 10
6.003940
 20
0.124056
 30
0.000000
  0
SEQEND
  8
LAYER-1
  0
POLYLINE
  8
LAYER-1
 66
  1
 70
  0
 62
  0
 10
5.837273
 20
0.177874
 30
0.000000
  0
VERTEX
  8
LAYER-1
 10
5.837273
 20
0.177874
 30
0.000000
  0
VERTEX
  8
LAYER-1
 10
5.837273
 20
0.173534
 30
0.000000
  0
VERTEX
  8
LAYER-1
 10
5.841614
 20
0.170063
 30
0.000000
  0
VERTEX
  8
LAYER-1
 10
5.846822
 20
0.169195
 30
0.000000
  0
VERTEX
  8
LAYER-1
 10
5.851162
 20
0.170931
 30
0.000000
  0
VERTEX
  8
LAYER-1
 10
5.852898
 20
0.175269
 30
0.000000
  0
VERTEX
  8
LAYER-1
 10
5.852898
 20
0.179610
 30
0.000000
  0
VERTEX
  8
LAYER-1
 10
5.849427
 20
0.183951
 30
0.000000
  0
VERTEX
  8
LAYER-1
 10
5.845086
 20
0.183951
 30
0.000000
  0
VERTEX
  8
LAYER-1
 10
5.840745
 20
0.183082
 30
0.000000
  0
VERTEX
  8
LAYER-1
 10
5.838140
 20
0.178742
 30
0.000000
  0
SEQEND
  8
LAYER-1
  0
POLYLINE
  8
LAYER-1
 66
  1
 70
  1
 62
  0
 10
5.761753
 20
0.113205
 30
0.000000
  0
VERTEX
  8
LAYER-1
 10
5.761753
 20
0.113205
 30
0.000000
  0
VERTEX
  8
LAYER-1
 10
5.748732
 20
0.090635
 30
0.000000
  0
VERTEX
  8
LAYER-1
 10
5.779114
 20
0.111467
 30
0.000000
  0
SEQEND
  8
LAYER-1
  0
POLYLINE
  8
LAYER-1
 66
  1
 70
  0
 62
  0
 10
5.688053
 20
0.105340
 30
0.000000
  0
VERTEX
  8
LAYER-1
 10
5.688053
 20
0.105340
 30
0.000000
  0
VERTEX
  8
LAYER-1
 10
5.683713
 20
0.105340
 30
0.000000
  0
VERTEX
  8
LAYER-1
 10
5.680240
 20
0.100999
 30
0.000000
  0
VERTEX
  8
LAYER-1
 10
5.679372
 20
0.095791
 30
0.000000
  0
VERTEX
  8
LAYER-1
 10
5.681108
 20
0.091450
 30
0.000000
  0
VERTEX
  8
LAYER-1
 10
5.685449
 20
0.089715
 30
0.000000
  0
VERTEX
  8
LAYER-1
 10
5.689789
 20
0.089715
 30
0.000000
  0
VERTEX
  8
LAYER-1
 10
5.694129
 20
0.093186
 30
0.000000
  0
VERTEX
  8
LAYER-1
 10
5.694129
 20
0.097527
 30
0.000000
  0
VERTEX
  8
LAYER-1
 10
5.693261
 20
0.101868
 30
0.000000
  0
VERTEX
  8
LAYER-1
 10
5.688920
 20
0.104473
 30
0.000000
  0
SEQEND
  8
LAYER-1
  0
POLYLINE
  8
LAYER-1
 66
  1
 70
  0
 62
  0
 10
5.761753
 20
0.143585
 30
0.000000
  0
VERTEX
  8
LAYER-1
 10
5.761753
 20
0.143585
 30
0.000000
  0
VERTEX
  8
LAYER-1
 10
5.757412
 20
0.143585
 30
0.000000
  0
VERTEX
  8
LAYER-1
 10
5.753941
 20
0.139244
 30
0.000000
  0
VERTEX
  8
LAYER-1
 10
5.753073
 20
0.134037
 30
0.000000
  0
VERTEX
  8
LAYER-1
 10
5.754809
 20
0.129696
 30
0.000000
  0
VERTEX
  8
LAYER-1
 10
5.759149
 20
0.127960
 30
0.000000
  0
VERTEX
  8
LAYER-1
 10
5.763489
 20
0.127960
 30
0.000000
  0
VERTEX
  8
LAYER-1
 10
5.767830
 20
0.131432
 30
0.000000
  0
VERTEX
  8
LAYER-1
 10
5.767830
 20
0.135773
 30
0.000000
  0
VERTEX
  8
LAYER-1
 10
5.766962
 20
0.140113
 30
0.000000
  0
VERTEX
  8
LAYER-1
 10
5.762621
 20
0.142718
 30
0.000000
  0
SEQEND
  8
LAYER-1
  0
POLYLINE
  8
LAYER-1
 66
  1
 70
  1
 62
  0
 10
6.069045
 20
0.160079
 30
0.000000
  0
VERTEX
  8
LAYER-1
 10
6.069045
 20
0.160079
 30
0.000000
  0
VERTEX
  8
LAYER-1
 10
6.075989
 20
0.134037
 30
0.000000
  0
VERTEX
  8
LAYER-1
 10
6.101162
 20
0.147925
 30
0.000000
  0
SEQEND
  8
LAYER-1
  0
POLYLINE
  8
LAYER-1
 66
  1
 70
  1
 62
  0
 10
6.231371
 20
0.188724
 30
0.000000
  0
VERTEX
  8
LAYER-1
 10
6.231371
 20
0.188724
 30
0.000000
  0
VERTEX
  8
LAYER-1
 10
6.218350
 20
0.166155
 30
0.000000
  0
VERTEX
  8
LAYER-1
 10
6.248732
 20
0.186987
 30
0.000000
  0
SEQEND
  8
LAYER-1
  0
POLYLINE
  8
LAYER-1
 66
  1
 70
  0
 62
  0
 10
6.019566
 20
0.191328
 30
0.000000
  0
VERTEX
  8
LAYER-1
 10
6.019566
 20
0.191328
 30
0.000000
  0
VERTEX
  8
LAYER-1
 10
6.015225
 20
0.191328
 30
0.000000
  0
VERTEX
  8
LAYER-1
 10
6.011753
 20
0.186987
 30
0.000000
  0
VERTEX
  8
LAYER-1
 10
6.010884
 20
0.181780
 30
0.000000
  0
VERTEX
  8
LAYER-1
 10
6.012621
 20
0.177439
 30
0.000000
  0
VERTEX
  8
LAYER-1
 10
6.016961
 20
0.175703
 30
0.000000
  0
VERTEX
  8
LAYER-1
 10
6.021302
 20
0.175703
 30
0.000000
  0
VERTEX
  8
LAYER-1
 10
6.025642
 20
0.179175
 30
0.000000
  0
VERTEX
  8
LAYER-1
 10
6.025642
 20
0.183516
 30
0.000000
  0
VERTEX
  8
LAYER-1
 10
6.024773
 20
0.187856
 30
0.000000
  0
VERTEX
  8
LAYER-1
 10
6.020434
 20
0.190460
 30
0.000000
  0
SEQEND
  8
LAYER-1
  0
POLYLINE
  8
LAYER-1
 66
  1
 70
  1
 62
  0
 10
6.129811
 20
0.123620
 30
0.000000
  0
VERTEX
  8
LAYER-1
 10
6.129811
 20
0.123620
 30
0.000000
  0
VERTEX
  8
LAYER-1
 10
6.116789
 20
0.101050
 30
0.000000
  0
VERTEX
  8
LAYER-1
 10
6.147171
 20
0.121884
 30
0.000000
  0
SEQEND
  8
LAYER-1
  0
POLYLINE
  8
LAYER-1
 66
  1
 70
  0
 62
  0
 10
6.171475
 20
0.193064
 30
0.000000
  0
VERTEX
  8
LAYER-1
 10
6.171475
 20
0.193064
 30
0.000000
  0
VERTEX
  8
LAYER-1
 10
6.167134
 20
0.193064
 30
0.000000
  0
VERTEX
  8
LAYER-1
 10
6.163662
 20
0.188723
 30
0.000000
  0
VERTEX
  8
LAYER-1
 10
6.162795
 20
0.183516
 30
0.000000
  0
VERTEX
  8
LAYER-1
 10
6.164530
 20
0.179175
 30
0.000000
  0
VERTEX
  8
LAYER-1
 10
6.168871
 20
0.177439
 30
0.000000
  0
VERTEX
  8
LAYER-1
 10
6.173211
 20
0.177439
 30
0.000000
  0
VERTEX
  8
LAYER-1
 10
6.177552
 20
0.180911
 30
0.000000
  0
VERTEX
  8
LAYER-1
 10
6.177552
 20
0.185251
 30
0.000000
  0
VERTEX
  8
LAYER-1
 10
6.176684
 20
0.189592
 30
0.000000
  0
VERTEX
  8
LAYER-1
 10
6.172343
 20
0.192196
 30
0.000000
  0
SEQEND
  8
LAYER-1
  0
POLYLINE
  8
LAYER-1
 66
  1
 70
  1
 62
  0
 10
6.510884
 20
0.184384
 30
0.000000
  0
VERTEX
  8
LAYER-1
 10
6.510884
 20
0.184384
 30
0.000000
  0
VERTEX
  8
LAYER-1
 10
6.517829
 20
0.158344
 30
0.000000
  0
VERTEX
  8
LAYER-1
 10
6.543002
 20
0.172231
 30
0.000000
  0
SEQEND
  8
LAYER-1
  0
POLYLINE
  8
LAYER-1
 66
  1
 70
  1
 62
  0
 10
6.673211
 20
0.213030
 30
0.000000
  0
VERTEX
  8
LAYER-1
 10
6.673211
 20
0.213030
 30
0.000000
  0
VERTEX
  8
LAYER-1
 10
6.660190
 20
0.190460
 30
0.000000
  0
VERTEX
  8
LAYER-1
 10
6.690572
 20
0.211293
 30
0.000000
  0
SEQEND
  8
LAYER-1
  0
POLYLINE
  8
LAYER-1
 66
  1
 70
  1
 62
  0
 10
5.901510
 20
0.148794
 30
0.000000
  0
VERTEX
  8
LAYER-1
 10
5.901510
 20
0.148794
 30
0.000000
  0
VERTEX
  8
LAYER-1
 10
5.926684
 20
0.132300
 30
0.000000
  0
VERTEX
  8
LAYER-1
 10
5.934496
 20
0.147059
 30
0.000000
  0
SEQEND
  8
LAYER-1
  0
POLYLINE
  8
LAYER-1
 66
  1
 70
  0
 62
  0
 10
6.471821
 20
0.205218
 30
0.000000
  0
VERTEX
  8
LAYER-1
 10
6.471821
 20
0.205218
 30
0.000000
  0
VERTEX
  8
LAYER-1
 10
6.467480
 20
0.205218
 30
0.000000
  0
VERTEX
  8
LAYER-1
 10
6.464008
 20
0.200878
 30
0.000000
  0
VERTEX
  8
LAYER-1
 10
6.463140
 20
0.195669
 30
0.000000
  0
VERTEX
  8
LAYER-1
 10
6.464876
 20
0.191329
 30
0.000000
  0
VERTEX
  8
LAYER-1
 10
6.469217
 20
0.189593
 30
0.000000
  0
VERTEX
  8
LAYER-1
 10
6.473557
 20
0.189593
 30
0.000000
  0
VERTEX
  8
LAYER-1
 10
6.477898
 20
0.193065
 30
0.000000
  0
VERTEX
  8
LAYER-1
 10
6.477898
 20
0.197405
 30
0.000000
  0
VERTEX
  8
LAYER-1
 10
6.477030
 20
0.201747
 30
0.000000
  0
VERTEX
  8
LAYER-1
 10
6.472689
 20
0.204351
 30
0.000000
  0
SEQEND
  8
LAYER-1
  0
POLYLINE
  8
LAYER-1
 66
  1
 70
  1
 62
  0
 10
6.487447
 20
0.116676
 30
0.000000
  0
VERTEX
  8
LAYER-1
 10
6.487447
 20
0.116676
 30
0.000000
  0
VERTEX
  8
LAYER-1
 10
6.474426
 20
0.094106
 30
0.000000
  0
VERTEX
  8
LAYER-1
 10
6.504809
 20
0.114939
 30
0.000000
  0
SEQEND
  8
LAYER-1
  0
POLYLINE
  8
LAYER-1
 66
  1
 70
  1
 62
  0
 10
6.581899
 20
0.131094
 30
0.000000
  0
VERTEX
  8
LAYER-1
 10
6.581899
 20
0.131094
 30
0.000000
  0
VERTEX
  8
LAYER-1
 10
6.569212
 20
0.111731
 30
0.000000
  0
VERTEX
  8
LAYER-1
 10
6.580563
 20
0.105719
 30
0.000000
  0
SEQEND
  8
LAYER-1
  0
POLYLINE
  8
LAYER-1
 66
  1
 70
  0
 62
  0
 10
6.613315
 20
0.209557
 30
0.000000
  0
VERTEX
  8
LAYER-1
 10
6.613315
 20
0.209557
 30
0.000000
  0
VERTEX
  8
LAYER-1
 10
6.608975
 20
0.209557
 30
0.000000
  0
VERTEX
  8
LAYER-1
 10
6.605502
 20
0.205217
 30
0.000000
  0
VERTEX
  8
LAYER-1
 10
6.604634
 20
0.200010
 30
0.000000
  0
VERTEX
  8
LAYER-1
 10
6.606370
 20
0.195669
 30
0.000000
  0
VERTEX
  8
LAYER-1
 10
6.610711
 20
0.193932
 30
0.000000
  0
VERTEX
  8
LAYER-1
 10
6.615052
 20
0.193932
 30
0.000000
  0
VERTEX
  8
LAYER-1
 10
6.619392
 20
0.197405
 30
0.000000
  0
VERTEX
  8
LAYER-1
 10
6.619392
 20
0.201745
 30
0.000000
  0
VERTEX
  8
LAYER-1
 10
6.618523
 20
0.206086
 30
0.000000
  0
VERTEX
  8
LAYER-1
 10
6.614183
 20
0.208691
 30
0.000000
  0
SEQEND
  8
LAYER-1
  0
POLYLINE
  8
LAYER-1
 66
  1
 70
  0
 62
  0
 10
5.890226
 20
0.201745
 30
0.000000
  0
VERTEX
  8
LAYER-1
 10
5.890226
 20
0.201745
 30
0.000000
  0
VERTEX
  8
LAYER-1
 10
5.890226
 20
0.197405
 30
0.000000
  0
VERTEX
  8
LAYER-1
 10
5.894567
 20
0.193932
 30
0.000000
  0
VERTEX
  8
LAYER-1
 10
5.899774
 20
0.193064
 30
0.000000
  0
VERTEX
  8
LAYER-1
 10
5.904115
 20
0.194800
 30
0.000000
  0
VERTEX
  8
LAYER-1
 10
5.905851
 20
0.199141
 30
0.000000
  0
VERTEX
  8
LAYER-1
 10
5.905851
 20
0.203481
 30
0.000000
  0
VERTEX
  8
LAYER-1
 10
5.902379
 20
0.207822
 30
0.000000
  0
VERTEX
  8
LAYER-1
 10
5.898039
 20
0.207822
 30
0.000000
  0
VERTEX
  8
LAYER-1
 10
5.893698
 20
0.206953
 30
0.000000
  0
VERTEX
  8
LAYER-1
 10
5.891093
 20
0.202612
 30
0.000000
  0
SEQEND
  8
LAYER-1
  0
POLYLINE
  8
LAYER-1
 66
  1
 70
  0
 62
  0
 10
6.453591
 20
0.117543
 30
0.000000
  0
VERTEX
  8
LAYER-1
 10
6.453591
 20
0.117543
 30
0.000000
  0
VERTEX
  8
LAYER-1
 10
6.449251
 20
0.117543
 30
0.000000
  0
VERTEX
  8
LAYER-1
 10
6.445779
 20
0.113202
 30
0.000000
  0
VERTEX
  8
LAYER-1
 10
6.444911
 20
0.107994
 30
0.000000
  0
VERTEX
  8
LAYER-1
 10
6.446646
 20
0.103654
 30
0.000000
  0
VERTEX
  8
LAYER-1
 10
6.450987
 20
0.101918
 30
0.000000
  0
VERTEX
  8
LAYER-1
 10
6.455327
 20
0.101918
 30
0.000000
  0
VERTEX
  8
LAYER-1
 10
6.459668
 20
0.105390
 30
0.000000
  0
VERTEX
  8
LAYER-1
 10
6.459668
 20
0.109730
 30
0.000000
  0
VERTEX
  8
LAYER-1
 10
6.458800
 20
0.114071
 30
0.000000
  0
VERTEX
  8
LAYER-1
 10
6.454459
 20
0.116675
 30
0.000000
  0
SEQEND
  8
LAYER-1
  0
POLYLINE
  8
LAYER-1
 66
  1
 70
  0
 62
  0
 10
6.352030
 20
0.155305
 30
0.000000
  0
VERTEX
  8
LAYER-1
 10
6.352030
 20
0.155305
 30
0.000000
  0
VERTEX
  8
LAYER-1
 10
6.352030
 20
0.159645
 30
0.000000
  0
VERTEX
  8
LAYER-1
 10
6.347690
 20
0.163117
 30
0.000000
  0
VERTEX
  8
LAYER-1
 10
6.342482
 20
0.163985
 30
0.000000
  0
VERTEX
  8
LAYER-1
 10
6.338142
 20
0.162249
 30
0.000000
  0
VERTEX
  8
LAYER-1
 10
6.336405
 20
0.157909
 30
0.000000
  0
VERTEX
  8
LAYER-1
 10
6.336405
 20
0.153569
 30
0.000000
  0
VERTEX
  8
LAYER-1
 10
6.339877
 20
0.149229
 30
0.000000
  0
VERTEX
  8
LAYER-1
 10
6.344218
 20
0.149229
 30
0.000000
  0
VERTEX
  8
LAYER-1
 10
6.348559
 20
0.150096
 30
0.000000
  0
VERTEX
  8
LAYER-1
 10
6.351162
 20
0.154437
 30
0.000000
  0
SEQEND
  8
LAYER-1
  0
POLYLINE
  8
LAYER-1
 66
  1
 70
  1
 62
  0
 10
6.284322
 20
0.142284
 30
0.000000
  0
VERTEX
  8
LAYER-1
 10
6.284322
 20
0.142284
 30
0.000000
  0
VERTEX
  8
LAYER-1
 10
6.261753
 20
0.155304
 30
0.000000
  0
VERTEX
  8
LAYER-1
 10
6.282586
 20
0.124922
 30
0.000000
  0
SEQEND
  8
LAYER-1
  0
POLYLINE
  8
LAYER-1
 66
  1
 70
  0
 62
  0
 10
6.201858
 20
0.107562
 30
0.000000
  0
VERTEX
  8
LAYER-1
 10
6.201858
 20
0.107562
 30
0.000000
  0
VERTEX
  8
LAYER-1
 10
6.201858
 20
0.111903
 30
0.000000
  0
VERTEX
  8
LAYER-1
 10
6.197517
 20
0.115374
 30
0.000000
  0
VERTEX
  8
LAYER-1
 10
6.192309
 20
0.116242
 30
0.000000
  0
VERTEX
  8
LAYER-1
 10
6.187969
 20
0.114506
 30
0.000000
  0
VERTEX
  8
LAYER-1
 10
6.186233
 20
0.110167
 30
0.000000
  0
VERTEX
  8
LAYER-1
 10
6.186233
 20
0.105826
 30
0.000000
  0
VERTEX
  8
LAYER-1
 10
6.189705
 20
0.101485
 30
0.000000
  0
VERTEX
  8
LAYER-1
 10
6.194046
 20
0.101485
 30
0.000000
  0
VERTEX
  8
LAYER-1
 10
6.198386
 20
0.102354
 30
0.000000
  0
VERTEX
  8
LAYER-1
 10
6.200989
 20
0.106694
 30
0.000000
  0
SEQEND
  8
LAYER-1
  0
POLYLINE
  8
LAYER-1
 66
  1
 70
  1
 62
  0
 10
6.392135
 20
0.097840
 30
0.000000
  0
VERTEX
  8
LAYER-1
 10
6.392135
 20
0.097840
 30
0.000000
  0
VERTEX
  8
LAYER-1
 10
6.385190
 20
0.123881
 30
0.000000
  0
VERTEX
  8
LAYER-1
 10
6.360017
 20
0.109994
 30
0.000000
  0
SEQEND
  8
LAYER-1
  0
POLYLINE
  8
LAYER-1
 66
  1
 70
  1
 62
  0
 10
6.413662
 20
0.152267
 30
0.000000
  0
VERTEX
  8
LAYER-1
 10
6.413662
 20
0.152267
 30
0.000000
  0
VERTEX
  8
LAYER-1
 10
6.426683
 20
0.174836
 30
0.000000
  0
VERTEX
  8
LAYER-1
 10
6.396301
 20
0.154004
 30
0.000000
  0
SEQEND
  8
LAYER-1
  0
POLYLINE
  8
LAYER-1
 66
  1
 70
  1
 62
  0
 10
5.841614
 20
0.095843
 30
0.000000
  0
VERTEX
  8
LAYER-1
 10
5.841614
 20
0.095843
 30
0.000000
  0
VERTEX
  8
LAYER-1
 10
5.819043
 20
0.108866
 30
0.000000
  0
VERTEX
  8
LAYER-1
 10
5.839876
 20
0.078482
 30
0.000000
  0
SEQEND
  8
LAYER-1
  0
POLYLINE
  8
LAYER-1
 66
  1
 70
  1
 62
  0
 10
6.619392
 20
0.120149
 30
0.000000
  0
VERTEX
  8
LAYER-1
 10
6.619392
 20
0.120149
 30
0.000000
  0
VERTEX
  8
LAYER-1
 10
6.635885
 20
0.145323
 30
0.000000
  0
VERTEX
  8
LAYER-1
 10
6.621128
 20
0.153136
 30
0.000000
  0
SEQEND
  8
LAYER-1
  0
POLYLINE
  8
LAYER-1
 66
  1
 70
  0
 62
  0
 10
6.650292
 20
0.046746
 30
0.000000
  0
VERTEX
  8
LAYER-1
 10
6.650292
 20
0.046746
 30
0.000000
  0
VERTEX
  8
LAYER-1
 10
6.654633
 20
0.046746
 30
0.000000
  0
VERTEX
  8
LAYER-1
 10
6.658105
 20
0.051086
 30
0.000000
  0
VERTEX
  8
LAYER-1
 10
6.658973
 20
0.056294
 30
0.000000
  0
VERTEX
  8
LAYER-1
 10
6.657237
 20
0.060635
 30
0.000000
  0
VERTEX
  8
LAYER-1
 10
6.652896
 20
0.062371
 30
0.000000
  0
VERTEX
  8
LAYER-1
 10
6.648557
 20
0.062371
 30
0.000000
  0
VERTEX
  8
LAYER-1
 10
6.644216
 20
0.058899
 30
0.000000
  0
VERTEX
  8
LAYER-1
 10
6.644216
 20
0.054559
 30
0.000000
  0
VERTEX
  8
LAYER-1
 10
6.645084
 20
0.050218
 30
0.000000
  0
VERTEX
  8
LAYER-1
 10
6.649424
 20
0.047613
 30
0.000000
  0
SEQEND
  8
LAYER-1
  0
POLYLINE
  8
LAYER-1
 66
  1
 70
  0
 62
  0
 10
6.626856
 20
0.071925
 30
0.000000
  0
VERTEX
  8
LAYER-1
 10
6.626856
 20
0.071925
 30
0.000000
  0
VERTEX
  8
LAYER-1
 10
6.631197
 20
0.071925
 30
0.000000
  0
VERTEX
  8
LAYER-1
 10
6.634668
 20
0.076266
 30
0.000000
  0
VERTEX
  8
LAYER-1
 10
6.635536
 20
0.081473
 30
0.000000
  0
VERTEX
  8
LAYER-1
 10
6.633801
 20
0.085814
 30
0.000000
  0
VERTEX
  8
LAYER-1
 10
6.629460
 20
0.087550
 30
0.000000
  0
VERTEX
  8
LAYER-1
 10
6.625120
 20
0.087550
 30
0.000000
  0
VERTEX
  8
LAYER-1
 10
6.620779
 20
0.084078
 30
0.000000
  0
VERTEX
  8
LAYER-1
 10
6.620779
 20
0.079737
 30
0.000000
  0
VERTEX
  8
LAYER-1
 10
6.621647
 20
0.075397
 30
0.000000
  0
VERTEX
  8
LAYER-1
 10
6.625988
 20
0.072792
 30
0.000000
  0
SEQEND
  8
LAYER-1
  0
POLYLINE
  8
LAYER-1
 66
  1
 70
  1
 62
  0
 10
6.701074
 20
0.087980
 30
0.000000
  0
VERTEX
  8
LAYER-1
 10
6.701074
 20
0.087980
 30
0.000000
  0
VERTEX
  8
LAYER-1
 10
6.675901
 20
0.104474
 30
0.000000
  0
VERTEX
  8
LAYER-1
 10
6.668088
 20
0.089717
 30
0.000000
  0
SEQEND
  8
LAYER-1
  0
POLYLINE
  8
LAYER-1
 66
  1
 70
  0
 62
  0
 10
6.711491
 20
0.127045
 30
0.000000
  0
VERTEX
  8
LAYER-1
 10
6.711491
 20
0.127045
 30
0.000000
  0
VERTEX
  8
LAYER-1
 10
6.711491
 20
0.131386
 30
0.000000
  0
VERTEX
  8
LAYER-1
 10
6.707151
 20
0.134857
 30
0.000000
  0
VERTEX
  8
LAYER-1
 10
6.701942
 20
0.135725
 30
0.000000
  0
VERTEX
  8
LAYER-1
 10
6.697602
 20
0.133989
 30
0.000000
  0
VERTEX
  8
LAYER-1
 10
6.695866
 20
0.129649
 30
0.000000
  0
VERTEX
  8
LAYER-1
 10
6.695866
 20
0.125309
 30
0.000000
  0
VERTEX
  8
LAYER-1
 10
6.699338
 20
0.120968
 30
0.000000
  0
VERTEX
  8
LAYER-1
 10
6.703679
 20
0.120968
 30
0.000000
  0
VERTEX
  8
LAYER-1
 10
6.708020
 20
0.121836
 30
0.000000
  0
VERTEX
  8
LAYER-1
 10
6.710624
 20
0.126177
 30
0.000000
  0
SEQEND
  8
LAYER-1
  0
POLYLINE
  8
LAYER-1
 66
  1
 70
  1
 62
  0
 10
6.658014
 20
0.132896
 30
0.000000
  0
VERTEX
  8
LAYER-1
 10
6.658014
 20
0.132896
 30
0.000000
  0
VERTEX
  8
LAYER-1
 10
6.670700
 20
0.152261
 30
0.000000
  0
VERTEX
  8
LAYER-1
 10
6.659350
 20
0.158272
 30
0.000000
  0
SEQEND
  8
LAYER-1
  0
POLYLINE
  8
LAYER-1
 66
  1
 70
  0
 62
  0
 10
5.981370
 20
0.162684
 30
0.000000
  0
VERTEX
  8
LAYER-1
 10
5.981370
 20
0.162684
 30
0.000000
  0
VERTEX
  8
LAYER-1
 10
5.981370
 20
0.167023
 30
0.000000
  0
VERTEX
  8
LAYER-1
 10
5.977030
 20
0.170497
 30
0.000000
  0
VERTEX
  8
LAYER-1
 10
5.971822
 20
0.171363
 30
0.000000
  0
VERTEX
  8
LAYER-1
 10
5.967481
 20
0.169628
 30
0.000000
  0
VERTEX
  8
LAYER-1
 10
5.965745
 20
0.165287
 30
0.000000
  0
VERTEX
  8
LAYER-1
 10
5.965745
 20
0.160946
 30
0.000000
  0
VERTEX
  8
LAYER-1
 10
5.969217
 20
0.156607
 30
0.000000
  0
VERTEX
  8
LAYER-1
 10
5.973558
 20
0.156607
 30
0.000000
  0
VERTEX
  8
LAYER-1
 10
5.977898
 20
0.157474
 30
0.000000
  0
VERTEX
  8
LAYER-1
 10
5.980503
 20
0.161815
 30
0.000000
  0
SEQEND
  8
LAYER-1
  0
POLYLINE
  8
LAYER-1
 66
  1
 70
  0
 62
  0
 10
6.567309
 20
0.126226
 30
0.000000
  0
VERTEX
  8
LAYER-1
 10
6.567309
 20
0.126226
 30
0.000000
  0
VERTEX
  8
LAYER-1
 10
6.571649
 20
0.126226
 30
0.000000
  0
VERTEX
  8
LAYER-1
 10
6.575121
 20
0.130567
 30
0.000000
  0
VERTEX
  8
LAYER-1
 10
6.575989
 20
0.135774
 30
0.000000
  0
VERTEX
  8
LAYER-1
 10
6.574253
 20
0.140116
 30
0.000000
  0
VERTEX
  8
LAYER-1
 10
6.569912
 20
0.141851
 30
0.000000
  0
VERTEX
  8
LAYER-1
 10
6.565573
 20
0.141851
 30
0.000000
  0
VERTEX
  8
LAYER-1
 10
6.561232
 20
0.138379
 30
0.000000
  0
VERTEX
  8
LAYER-1
 10
6.561232
 20
0.134038
 30
0.000000
  0
VERTEX
  8
LAYER-1
 10
6.562100
 20
0.129698
 30
0.000000
  0
VERTEX
  8
LAYER-1
 10
6.566441
 20
0.127093
 30
0.000000
  0
SEQEND
  8
LAYER-1
  0
POLYLINE
  8
LAYER-1
 66
  1
 70
  1
 62
  0
 10
0.824945
 20
0.129907
 30
0.000000
  0
VERTEX
  8
LAYER-1
 10
0.824945
 20
0.129907
 30
0.000000
  0
VERTEX
  8
LAYER-1
 10
0.802374
 20
0.142927
 30
0.000000
  0
VERTEX
  8
LAYER-1
 10
0.823207
 20
0.112546
 30
0.000000
  0
SEQEND
  8
LAYER-1
  0
POLYLINE
  8
LAYER-1
 66
  1
 70
  0
 62
  0
 10
0.813660
 20
0.063066
 30
0.000000
  0
VERTEX
  8
LAYER-1
 10
0.813660
 20
0.063066
 30
0.000000
  0
VERTEX
  8
LAYER-1
 10
0.813660
 20
0.067406
 30
0.000000
  0
VERTEX
  8
LAYER-1
 10
0.809320
 20
0.070879
 30
0.000000
  0
VERTEX
  8
LAYER-1
 10
0.804112
 20
0.071746
 30
0.000000
  0
VERTEX
  8
LAYER-1
 10
0.799771
 20
0.070010
 30
0.000000
  0
VERTEX
  8
LAYER-1
 10
0.798035
 20
0.065670
 30
0.000000
  0
VERTEX
  8
LAYER-1
 10
0.798035
 20
0.061328
 30
0.000000
  0
VERTEX
  8
LAYER-1
 10
0.801507
 20
0.056990
 30
0.000000
  0
VERTEX
  8
LAYER-1
 10
0.805848
 20
0.056990
 30
0.000000
  0
VERTEX
  8
LAYER-1
 10
0.810189
 20
0.057857
 30
0.000000
  0
VERTEX
  8
LAYER-1
 10
0.812793
 20
0.062197
 30
0.000000
  0
SEQEND
  8
LAYER-1
  0
POLYLINE
  8
LAYER-1
 66
  1
 70
  1
 62
  0
 10
1.091700
 20
0.051866
 30
0.000000
  0
VERTEX
  8
LAYER-1
 10
1.091700
 20
0.051866
 30
0.000000
  0
VERTEX
  8
LAYER-1
 10
1.108193
 20
0.077041
 30
0.000000
  0
VERTEX
  8
LAYER-1
 10
1.093436
 20
0.084853
 30
0.000000
  0
SEQEND
  8
LAYER-1
  0
POLYLINE
  8
LAYER-1
 66
  1
 70
  1
 62
  0
 10
1.139609
 20
0.066961
 30
0.000000
  0
VERTEX
  8
LAYER-1
 10
1.139609
 20
0.066961
 30
0.000000
  0
VERTEX
  8
LAYER-1
 10
1.152297
 20
0.086326
 30
0.000000
  0
VERTEX
  8
LAYER-1
 10
1.140945
 20
0.092336
 30
0.000000
  0
SEQEND
  8
LAYER-1
  0
POLYLINE
  8
LAYER-1
 66
  1
 70
  0
 62
  0
 10
1.203679
 20
0.043188
 30
0.000000
  0
VERTEX
  8
LAYER-1
 10
1.203679
 20
0.043188
 30
0.000000
  0
VERTEX
  8
LAYER-1
 10
1.208020
 20
0.043188
 30
0.000000
  0
VERTEX
  8
LAYER-1
 10
1.211491
 20
0.047529
 30
0.000000
  0
VERTEX
  8
LAYER-1
 10
1.212359
 20
0.052737
 30
0.000000
  0
VERTEX
  8
LAYER-1
 10
1.210623
 20
0.057077
 30
0.000000
  0
VERTEX
  8
LAYER-1
 10
1.206283
 20
0.058813
 30
0.000000
  0
VERTEX
  8
LAYER-1
 10
1.201943
 20
0.058813
 30
0.000000
  0
VERTEX
  8
LAYER-1
 10
1.197602
 20
0.055342
 30
0.000000
  0
VERTEX
  8
LAYER-1
 10
1.197602
 20
0.051001
 30
0.000000
  0
VERTEX
  8
LAYER-1
 10
1.198470
 20
0.046661
 30
0.000000
  0
VERTEX
  8
LAYER-1
 10
1.202811
 20
0.044056
 30
0.000000
  0
SEQEND
  8
LAYER-1
  0
POLYLINE
  8
LAYER-1
 66
  1
 70
  1
 62
  0
 10
1.237533
 20
0.106121
 30
0.000000
  0
VERTEX
  8
LAYER-1
 10
1.237533
 20
0.106121
 30
0.000000
  0
VERTEX
  8
LAYER-1
 10
1.211491
 20
0.099176
 30
0.000000
  0
VERTEX
  8
LAYER-1
 10
1.225380
 20
0.074003
 30
0.000000
  0
SEQEND
  8
LAYER-1
  0
POLYLINE
  8
LAYER-1
 66
  1
 70
  0
 62
  0
 10
2.605415
 20
0.073828
 30
0.000000
  0
VERTEX
  8
LAYER-1
 10
2.605415
 20
0.073828
 30
0.000000
  0
VERTEX
  8
LAYER-1
 10
2.605415
 20
0.078169
 30
0.000000
  0
VERTEX
  8
LAYER-1
 10
2.601074
 20
0.081640
 30
0.000000
  0
VERTEX
  8
LAYER-1
 10
2.595866
 20
0.082509
 30
0.000000
  0
VERTEX
  8
LAYER-1
 10
2.591526
 20
0.080772
 30
0.000000
  0
VERTEX
  8
LAYER-1
 10
2.589790
 20
0.076433
 30
0.000000
  0
VERTEX
  8
LAYER-1
 10
2.589790
 20
0.072092
 30
0.000000
  0
VERTEX
  8
LAYER-1
 10
2.593262
 20
0.067752
 30
0.000000
  0
VERTEX
  8
LAYER-1
 10
2.597602
 20
0.067752
 30
0.000000
  0
VERTEX
  8
LAYER-1
 10
2.601943
 20
0.068620
 30
0.000000
  0
VERTEX
  8
LAYER-1
 10
2.604547
 20
0.072960
 30
0.000000
  0
SEQEND
  8
LAYER-1
  0
POLYLINE
  8
LAYER-1
 66
  1
 70
  1
 62
  0
 10
2.539442
 20
0.036937
 30
0.000000
  0
VERTEX
  8
LAYER-1
 10
2.539442
 20
0.036937
 30
0.000000
  0
VERTEX
  8
LAYER-1
 10
2.532497
 20
0.062978
 30
0.000000
  0
VERTEX
  8
LAYER-1
 10
2.507324
 20
0.049090
 30
0.000000
  0
SEQEND
  8
LAYER-1
  0
POLYLINE
  8
LAYER-1
 66
  1
 70
  1
 62
  0
 10
2.551594
 20
0.073396
 30
0.000000
  0
VERTEX
  8
LAYER-1
 10
2.551594
 20
0.073396
 30
0.000000
  0
VERTEX
  8
LAYER-1
 10
2.564615
 20
0.095965
 30
0.000000
  0
VERTEX
  8
LAYER-1
 10
2.534233
 20
0.075133
 30
0.000000
  0
SEQEND
  8
LAYER-1
  0
POLYLINE
  8
LAYER-1
 66
  1
 70
  0
 62
  0
 10
2.387793
 20
0.084245
 30
0.000000
  0
VERTEX
  8
LAYER-1
 10
2.387793
 20
0.084245
 30
0.000000
  0
VERTEX
  8
LAYER-1
 10
2.383452
 20
0.084245
 30
0.000000
  0
VERTEX
  8
LAYER-1
 10
2.379981
 20
0.079904
 30
0.000000
  0
VERTEX
  8
LAYER-1
 10
2.379113
 20
0.074697
 30
0.000000
  0
VERTEX
  8
LAYER-1
 10
2.380849
 20
0.070357
 30
0.000000
  0
VERTEX
  8
LAYER-1
 10
2.385189
 20
0.068620
 30
0.000000
  0
VERTEX
  8
LAYER-1
 10
2.389529
 20
0.068620
 30
0.000000
  0
VERTEX
  8
LAYER-1
 10
2.393870
 20
0.072092
 30
0.000000
  0
VERTEX
  8
LAYER-1
 10
2.393870
 20
0.076433
 30
0.000000
  0
VERTEX
  8
LAYER-1
 10
2.393002
 20
0.080773
 30
0.000000
  0
VERTEX
  8
LAYER-1
 10
2.388661
 20
0.083378
 30
0.000000
  0
SEQEND
  8
LAYER-1
  0
POLYLINE
  8
LAYER-1
 66
  1
 70
  1
 62
  0
 10
2.467654
 20
0.046919
 30
0.000000
  0
VERTEX
  8
LAYER-1
 10
2.467654
 20
0.046919
 30
0.000000
  0
VERTEX
  8
LAYER-1
 10
2.445083
 20
0.059941
 30
0.000000
  0
VERTEX
  8
LAYER-1
 10
2.465916
 20
0.029558
 30
0.000000
  0
SEQEND
  8
LAYER-1
  0
POLYLINE
  8
LAYER-1
 66
  1
 70
  1
 62
  0
 10
3.062625
 20
0.047769
 30
0.000000
  0
VERTEX
  8
LAYER-1
 10
3.062625
 20
0.047769
 30
0.000000
  0
VERTEX
  8
LAYER-1
 10
3.075647
 20
0.070340
 30
0.000000
  0
VERTEX
  8
LAYER-1
 10
3.045265
 20
0.049507
 30
0.000000
  0
SEQEND
  8
LAYER-1
  0
POLYLINE
  8
LAYER-1
 66
  1
 70
  1
 62
  0
 10
2.968176
 20
0.054182
 30
0.000000
  0
VERTEX
  8
LAYER-1
 10
2.968176
 20
0.054182
 30
0.000000
  0
VERTEX
  8
LAYER-1
 10
2.980862
 20
0.073547
 30
0.000000
  0
VERTEX
  8
LAYER-1
 10
2.969512
 20
0.079558
 30
0.000000
  0
SEQEND
  8
LAYER-1
  0
POLYLINE
  8
LAYER-1
 66
  1
 70
  0
 62
  0
 10
3.096481
 20
0.046902
 30
0.000000
  0
VERTEX
  8
LAYER-1
 10
3.096481
 20
0.046902
 30
0.000000
  0
VERTEX
  8
LAYER-1
 10
3.100822
 20
0.046902
 30
0.000000
  0
VERTEX
  8
LAYER-1
 10
3.104294
 20
0.051243
 30
0.000000
  0
VERTEX
  8
LAYER-1
 10
3.105161
 20
0.056451
 30
0.000000
  0
VERTEX
  8
LAYER-1
 10
3.103426
 20
0.060792
 30
0.000000
  0
VERTEX
  8
LAYER-1
 10
3.099085
 20
0.062527
 30
0.000000
  0
VERTEX
  8
LAYER-1
 10
3.094745
 20
0.062527
 30
0.000000
  0
VERTEX
  8
LAYER-1
 10
3.090405
 20
0.059056
 30
0.000000
  0
VERTEX
  8
LAYER-1
 10
3.090405
 20
0.054715
 30
0.000000
  0
VERTEX
  8
LAYER-1
 10
3.091273
 20
0.050374
 30
0.000000
  0
VERTEX
  8
LAYER-1
 10
3.095613
 20
0.047769
 30
0.000000
  0
SEQEND
  8
LAYER-1
  0
POLYLINE
  8
LAYER-1
 66
  1
 70
  0
 62
  0
 10
2.982765
 20
0.038219
 30
0.000000
  0
VERTEX
  8
LAYER-1
 10
2.982765
 20
0.038219
 30
0.000000
  0
VERTEX
  8
LAYER-1
 10
2.978424
 20
0.038219
 30
0.000000
  0
VERTEX
  8
LAYER-1
 10
2.974952
 20
0.033879
 30
0.000000
  0
VERTEX
  8
LAYER-1
 10
2.974084
 20
0.028670
 30
0.000000
  0
VERTEX
  8
LAYER-1
 10
2.975820
 20
0.024330
 30
0.000000
  0
VERTEX
  8
LAYER-1
 10
2.980161
 20
0.022594
 30
0.000000
  0
VERTEX
  8
LAYER-1
 10
2.984500
 20
0.022594
 30
0.000000
  0
VERTEX
  8
LAYER-1
 10
2.988841
 20
0.026066
 30
0.000000
  0
VERTEX
  8
LAYER-1
 10
2.988841
 20
0.030407
 30
0.000000
  0
VERTEX
  8
LAYER-1
 10
2.987973
 20
0.034748
 30
0.000000
  0
VERTEX
  8
LAYER-1
 10
2.983632
 20
0.037352
 30
0.000000
  0
SEQEND
  8
LAYER-1
  0
POLYLINE
  8
LAYER-1
 66
  1
 70
  1
 62
  0
 10
2.823817
 20
0.051520
 30
0.000000
  0
VERTEX
  8
LAYER-1
 10
2.823817
 20
0.051520
 30
0.000000
  0
VERTEX
  8
LAYER-1
 10
2.836839
 20
0.074091
 30
0.000000
  0
VERTEX
  8
LAYER-1
 10
2.806456
 20
0.053257
 30
0.000000
  0
SEQEND
  8
LAYER-1
  0
POLYLINE
  8
LAYER-1
 66
  1
 70
  0
 62
  0
 10
2.857673
 20
0.050653
 30
0.000000
  0
VERTEX
  8
LAYER-1
 10
2.857673
 20
0.050653
 30
0.000000
  0
VERTEX
  8
LAYER-1
 10
2.862014
 20
0.050653
 30
0.000000
  0
VERTEX
  8
LAYER-1
 10
2.865486
 20
0.054994
 30
0.000000
  0
VERTEX
  8
LAYER-1
 10
2.866354
 20
0.060201
 30
0.000000
  0
VERTEX
  8
LAYER-1
 10
2.864618
 20
0.064542
 30
0.000000
  0
VERTEX
  8
LAYER-1
 10
2.860277
 20
0.066278
 30
0.000000
  0
VERTEX
  8
LAYER-1
 10
2.855937
 20
0.066278
 30
0.000000
  0
VERTEX
  8
LAYER-1
 10
2.851597
 20
0.062806
 30
0.000000
  0
VERTEX
  8
LAYER-1
 10
2.851597
 20
0.058466
 30
0.000000
  0
VERTEX
  8
LAYER-1
 10
2.852464
 20
0.054125
 30
0.000000
  0
VERTEX
  8
LAYER-1
 10
2.856805
 20
0.051520
 30
0.000000
  0
SEQEND
  8
LAYER-1
  0
POLYLINE
  8
LAYER-1
 66
  1
 70
  1
 62
  0
 10
3.455935
 20
0.086591
 30
0.000000
  0
VERTEX
  8
LAYER-1
 10
3.455935
 20
0.086591
 30
0.000000
  0
VERTEX
  8
LAYER-1
 10
3.478505
 20
0.073569
 30
0.000000
  0
VERTEX
  8
LAYER-1
 10
3.457673
 20
0.103951
 30
0.000000
  0
SEQEND
  8
LAYER-1
  0
POLYLINE
  8
LAYER-1
 66
  1
 70
  0
 62
  0
 10
3.455068
 20
0.052735
 30
0.000000
  0
VERTEX
  8
LAYER-1
 10
3.455068
 20
0.052735
 30
0.000000
  0
VERTEX
  8
LAYER-1
 10
3.455068
 20
0.048394
 30
0.000000
  0
VERTEX
  8
LAYER-1
 10
3.459408
 20
0.044923
 30
0.000000
  0
VERTEX
  8
LAYER-1
 10
3.464616
 20
0.044055
 30
0.000000
  0
VERTEX
  8
LAYER-1
 10
3.468956
 20
0.045791
 30
0.000000
  0
VERTEX
  8
LAYER-1
 10
3.470692
 20
0.050131
 30
0.000000
  0
VERTEX
  8
LAYER-1
 10
3.470692
 20
0.054470
 30
0.000000
  0
VERTEX
  8
LAYER-1
 10
3.467221
 20
0.058812
 30
0.000000
  0
VERTEX
  8
LAYER-1
 10
3.462880
 20
0.058812
 30
0.000000
  0
VERTEX
  8
LAYER-1
 10
3.458539
 20
0.057944
 30
0.000000
  0
VERTEX
  8
LAYER-1
 10
3.455935
 20
0.053603
 30
0.000000
  0
SEQEND
  8
LAYER-1
  0
POLYLINE
  8
LAYER-1
 66
  1
 70
  1
 62
  0
 10
4.005414
 20
0.118620
 30
0.000000
  0
VERTEX
  8
LAYER-1
 10
4.005414
 20
0.118620
 30
0.000000
  0
VERTEX
  8
LAYER-1
 10
4.012359
 20
0.092578
 30
0.000000
  0
VERTEX
  8
LAYER-1
 10
4.037532
 20
0.106467
 30
0.000000
  0
SEQEND
  8
LAYER-1
  0
POLYLINE
  8
LAYER-1
 66
  1
 70
  1
 62
  0
 10
3.977202
 20
0.081726
 30
0.000000
  0
VERTEX
  8
LAYER-1
 10
3.977202
 20
0.081726
 30
0.000000
  0
VERTEX
  8
LAYER-1
 10
3.999771
 20
0.068706
 30
0.000000
  0
VERTEX
  8
LAYER-1
 10
3.978938
 20
0.099087
 30
0.000000
  0
SEQEND
  8
LAYER-1
  0
POLYLINE
  8
LAYER-1
 66
  1
 70
  1
 62
  0
 10
4.093856
 20
0.073747
 30
0.000000
  0
VERTEX
  8
LAYER-1
 10
4.093856
 20
0.073747
 30
0.000000
  0
VERTEX
  8
LAYER-1
 10
4.113221
 20
0.061059
 30
0.000000
  0
VERTEX
  8
LAYER-1
 10
4.119231
 20
0.072411
 30
0.000000
  0
SEQEND
  8
LAYER-1
  0
POLYLINE
  8
LAYER-1
 66
  1
 70
  0
 62
  0
 10
4.038401
 20
0.079554
 30
0.000000
  0
VERTEX
  8
LAYER-1
 10
4.038401
 20
0.079554
 30
0.000000
  0
VERTEX
  8
LAYER-1
 10
4.034060
 20
0.079554
 30
0.000000
  0
VERTEX
  8
LAYER-1
 10
4.030588
 20
0.075213
 30
0.000000
  0
VERTEX
  8
LAYER-1
 10
4.029721
 20
0.070006
 30
0.000000
  0
VERTEX
  8
LAYER-1
 10
4.031456
 20
0.065665
 30
0.000000
  0
VERTEX
  8
LAYER-1
 10
4.035796
 20
0.063929
 30
0.000000
  0
VERTEX
  8
LAYER-1
 10
4.040137
 20
0.063929
 30
0.000000
  0
VERTEX
  8
LAYER-1
 10
4.044478
 20
0.067401
 30
0.000000
  0
VERTEX
  8
LAYER-1
 10
4.044478
 20
0.071742
 30
0.000000
  0
VERTEX
  8
LAYER-1
 10
4.043609
 20
0.076082
 30
0.000000
  0
VERTEX
  8
LAYER-1
 10
4.039269
 20
0.078686
 30
0.000000
  0
SEQEND
  8
LAYER-1
  0
POLYLINE
  8
LAYER-1
 66
  1
 70
  0
 62
  0
 10
3.922949
 20
0.056986
 30
0.000000
  0
VERTEX
  8
LAYER-1
 10
3.922949
 20
0.056986
 30
0.000000
  0
VERTEX
  8
LAYER-1
 10
3.927290
 20
0.056986
 30
0.000000
  0
VERTEX
  8
LAYER-1
 10
3.930762
 20
0.061326
 30
0.000000
  0
VERTEX
  8
LAYER-1
 10
3.931631
 20
0.066533
 30
0.000000
  0
VERTEX
  8
LAYER-1
 10
3.929895
 20
0.070875
 30
0.000000
  0
VERTEX
  8
LAYER-1
 10
3.925554
 20
0.072611
 30
0.000000
  0
VERTEX
  8
LAYER-1
 10
3.921213
 20
0.072611
 30
0.000000
  0
VERTEX
  8
LAYER-1
 10
3.916873
 20
0.069138
 30
0.000000
  0
VERTEX
  8
LAYER-1
 10
3.916873
 20
0.064798
 30
0.000000
  0
VERTEX
  8
LAYER-1
 10
3.917742
 20
0.060457
 30
0.000000
  0
VERTEX
  8
LAYER-1
 10
3.922082
 20
0.057852
 30
0.000000
  0
SEQEND
  8
LAYER-1
  0
POLYLINE
  8
LAYER-1
 66
  1
 70
  1
 62
  0
 10
4.409597
 20
0.027298
 30
0.000000
  0
VERTEX
  8
LAYER-1
 10
4.409597
 20
0.027298
 30
0.000000
  0
VERTEX
  8
LAYER-1
 10
4.402652
 20
0.053340
 30
0.000000
  0
VERTEX
  8
LAYER-1
 10
4.377479
 20
0.039452
 30
0.000000
  0
SEQEND
  8
LAYER-1
  0
POLYLINE
  8
LAYER-1
 66
  1
 70
  1
 62
  0
 10
4.437809
 20
0.064192
 30
0.000000
  0
VERTEX
  8
LAYER-1
 10
4.437809
 20
0.064192
 30
0.000000
  0
VERTEX
  8
LAYER-1
 10
4.415240
 20
0.077212
 30
0.000000
  0
VERTEX
  8
LAYER-1
 10
4.436072
 20
0.046831
 30
0.000000
  0
SEQEND
  8
LAYER-1
  0
POLYLINE
  8
LAYER-1
 66
  1
 70
  1
 62
  0
 10
4.321155
 20
0.072172
 30
0.000000
  0
VERTEX
  8
LAYER-1
 10
4.321155
 20
0.072172
 30
0.000000
  0
VERTEX
  8
LAYER-1
 10
4.301790
 20
0.084859
 30
0.000000
  0
VERTEX
  8
LAYER-1
 10
4.295780
 20
0.073508
 30
0.000000
  0
SEQEND
  8
LAYER-1
  0
POLYLINE
  8
LAYER-1
 66
  1
 70
  0
 62
  0
 10
4.376610
 20
0.066365
 30
0.000000
  0
VERTEX
  8
LAYER-1
 10
4.376610
 20
0.066365
 30
0.000000
  0
VERTEX
  8
LAYER-1
 10
4.380951
 20
0.066365
 30
0.000000
  0
VERTEX
  8
LAYER-1
 10
4.384422
 20
0.070705
 30
0.000000
  0
VERTEX
  8
LAYER-1
 10
4.385290
 20
0.075913
 30
0.000000
  0
VERTEX
  8
LAYER-1
 10
4.383554
 20
0.080254
 30
0.000000
  0
VERTEX
  8
LAYER-1
 10
4.379215
 20
0.081990
 30
0.000000
  0
VERTEX
  8
LAYER-1
 10
4.374874
 20
0.081990
 30
0.000000
  0
VERTEX
  8
LAYER-1
 10
4.370533
 20
0.078517
 30
0.000000
  0
VERTEX
  8
LAYER-1
 10
4.370533
 20
0.074177
 30
0.000000
  0
VERTEX
  8
LAYER-1
 10
4.371402
 20
0.069836
 30
0.000000
  0
VERTEX
  8
LAYER-1
 10
4.375742
 20
0.067233
 30
0.000000
  0
SEQEND
  8
LAYER-1
  0
POLYLINE
  8
LAYER-1
 66
  1
 70
  0
 62
  0
 10
4.492062
 20
0.088933
 30
0.000000
  0
VERTEX
  8
LAYER-1
 10
4.492062
 20
0.088933
 30
0.000000
  0
VERTEX
  8
LAYER-1
 10
4.487721
 20
0.088933
 30
0.000000
  0
VERTEX
  8
LAYER-1
 10
4.484249
 20
0.084592
 30
0.000000
  0
VERTEX
  8
LAYER-1
 10
4.483380
 20
0.079385
 30
0.000000
  0
VERTEX
  8
LAYER-1
 10
4.485116
 20
0.075044
 30
0.000000
  0
VERTEX
  8
LAYER-1
 10
4.489457
 20
0.073308
 30
0.000000
  0
VERTEX
  8
LAYER-1
 10
4.493797
 20
0.073308
 30
0.000000
  0
VERTEX
  8
LAYER-1
 10
4.498138
 20
0.076780
 30
0.000000
  0
VERTEX
  8
LAYER-1
 10
4.498138
 20
0.081121
 30
0.000000
  0
VERTEX
  8
LAYER-1
 10
4.497269
 20
0.085461
 30
0.000000
  0
VERTEX
  8
LAYER-1
 10
4.492928
 20
0.088066
 30
0.000000
  0
SEQEND
  8
LAYER-1
  0
POLYLINE
  8
LAYER-1
 66
  1
 70
  1
 62
  0
 10
4.661939
 20
0.010891
 30
0.000000
  0
VERTEX
  8
LAYER-1
 10
4.661939
 20
0.010891
 30
0.000000
  0
VERTEX
  8
LAYER-1
 10
4.654995
 20
0.036933
 30
0.000000
  0
VERTEX
  8
LAYER-1
 10
4.629822
 20
0.023045
 30
0.000000
  0
SEQEND
  8
LAYER-1
  0
POLYLINE
  8
LAYER-1
 66
  1
 70
  1
 62
  0
 10
4.690152
 20
0.047785
 30
0.000000
  0
VERTEX
  8
LAYER-1
 10
4.690152
 20
0.047785
 30
0.000000
  0
VERTEX
  8
LAYER-1
 10
4.667582
 20
0.060806
 30
0.000000
  0
VERTEX
  8
LAYER-1
 10
4.688415
 20
0.030425
 30
0.000000
  0
SEQEND
  8
LAYER-1
  0
POLYLINE
  8
LAYER-1
 66
  1
 70
  1
 62
  0
 10
4.573499
 20
0.055766
 30
0.000000
  0
VERTEX
  8
LAYER-1
 10
4.573499
 20
0.055766
 30
0.000000
  0
VERTEX
  8
LAYER-1
 10
4.554134
 20
0.068453
 30
0.000000
  0
VERTEX
  8
LAYER-1
 10
4.548123
 20
0.057102
 30
0.000000
  0
SEQEND
  8
LAYER-1
  0
POLYLINE
  8
LAYER-1
 66
  1
 70
  0
 62
  0
 10
4.628953
 20
0.049958
 30
0.000000
  0
VERTEX
  8
LAYER-1
 10
4.628953
 20
0.049958
 30
0.000000
  0
VERTEX
  8
LAYER-1
 10
4.633294
 20
0.049958
 30
0.000000
  0
VERTEX
  8
LAYER-1
 10
4.636766
 20
0.054298
 30
0.000000
  0
VERTEX
  8
LAYER-1
 10
4.637633
 20
0.059507
 30
0.000000
  0
VERTEX
  8
LAYER-1
 10
4.635898
 20
0.063847
 30
0.000000
  0
VERTEX
  8
LAYER-1
 10
4.631558
 20
0.065583
 30
0.000000
  0
VERTEX
  8
LAYER-1
 10
4.627217
 20
0.065583
 30
0.000000
  0
VERTEX
  8
LAYER-1
 10
4.622876
 20
0.062111
 30
0.000000
  0
VERTEX
  8
LAYER-1
 10
4.622876
 20
0.057771
 30
0.000000
  0
VERTEX
  8
LAYER-1
 10
4.623745
 20
0.053429
 30
0.000000
  0
VERTEX
  8
LAYER-1
 10
4.628085
 20
0.050826
 30
0.000000
  0
SEQEND
  8
LAYER-1
  0
POLYLINE
  8
LAYER-1
 66
  1
 70
  0
 62
  0
 10
4.744404
 20
0.072527
 30
0.000000
  0
VERTEX
  8
LAYER-1
 10
4.744404
 20
0.072527
 30
0.000000
  0
VERTEX
  8
LAYER-1
 10
4.740063
 20
0.072527
 30
0.000000
  0
VERTEX
  8
LAYER-1
 10
4.736591
 20
0.068186
 30
0.000000
  0
VERTEX
  8
LAYER-1
 10
4.735722
 20
0.062978
 30
0.000000
  0
VERTEX
  8
LAYER-1
 10
4.737458
 20
0.058638
 30
0.000000
  0
VERTEX
  8
LAYER-1
 10
4.741799
 20
0.056902
 30
0.000000
  0
VERTEX
  8
LAYER-1
 10
4.746140
 20
0.056902
 30
0.000000
  0
VERTEX
  8
LAYER-1
 10
4.750481
 20
0.060373
 30
0.000000
  0
VERTEX
  8
LAYER-1
 10
4.750481
 20
0.064714
 30
0.000000
  0
VERTEX
  8
LAYER-1
 10
4.749611
 20
0.069054
 30
0.000000
  0
VERTEX
  8
LAYER-1
 10
4.745271
 20
0.071660
 30
0.000000
  0
SEQEND
  8
LAYER-1
  0
POLYLINE
  8
LAYER-1
 66
  1
 70
  1
 62
  0
 10
4.882499
 20
0.109940
 30
0.000000
  0
VERTEX
  8
LAYER-1
 10
4.882499
 20
0.109940
 30
0.000000
  0
VERTEX
  8
LAYER-1
 10
4.889444
 20
0.083900
 30
0.000000
  0
VERTEX
  8
LAYER-1
 10
4.914617
 20
0.097788
 30
0.000000
  0
SEQEND
  8
LAYER-1
  0
POLYLINE
  8
LAYER-1
 66
  1
 70
  1
 62
  0
 10
4.854286
 20
0.073046
 30
0.000000
  0
VERTEX
  8
LAYER-1
 10
4.854286
 20
0.073046
 30
0.000000
  0
VERTEX
  8
LAYER-1
 10
4.876856
 20
0.060026
 30
0.000000
  0
VERTEX
  8
LAYER-1
 10
4.856023
 20
0.090407
 30
0.000000
  0
SEQEND
  8
LAYER-1
  0
POLYLINE
  8
LAYER-1
 66
  1
 70
  0
 62
  0
 10
4.800034
 20
0.048306
 30
0.000000
  0
VERTEX
  8
LAYER-1
 10
4.800034
 20
0.048306
 30
0.000000
  0
VERTEX
  8
LAYER-1
 10
4.804375
 20
0.048306
 30
0.000000
  0
VERTEX
  8
LAYER-1
 10
4.807847
 20
0.052646
 30
0.000000
  0
VERTEX
  8
LAYER-1
 10
4.808716
 20
0.057855
 30
0.000000
  0
VERTEX
  8
LAYER-1
 10
4.806980
 20
0.062195
 30
0.000000
  0
VERTEX
  8
LAYER-1
 10
4.802639
 20
0.063931
 30
0.000000
  0
VERTEX
  8
LAYER-1
 10
4.798298
 20
0.063931
 30
0.000000
  0
VERTEX
  8
LAYER-1
 10
4.793957
 20
0.060459
 30
0.000000
  0
VERTEX
  8
LAYER-1
 10
4.793957
 20
0.056118
 30
0.000000
  0
VERTEX
  8
LAYER-1
 10
4.794826
 20
0.051777
 30
0.000000
  0
VERTEX
  8
LAYER-1
 10
4.799167
 20
0.049173
 30
0.000000
  0
SEQEND
  8
LAYER-1
  0
POLYLINE
  8
LAYER-1
 66
  1
 70
  1
 62
  0
 10
5.435622
 20
0.222057
 30
0.000000
  0
VERTEX
  8
LAYER-1
 10
5.435622
 20
0.222057
 30
0.000000
  0
VERTEX
  8
LAYER-1
 10
5.442566
 20
0.196017
 30
0.000000
  0
VERTEX
  8
LAYER-1
 10
5.467740
 20
0.209904
 30
0.000000
  0
SEQEND
  8
LAYER-1
  0
POLYLINE
  8
LAYER-1
 66
  1
 70
  1
 62
  0
 10
5.448730
 20
0.176918
 30
0.000000
  0
VERTEX
  8
LAYER-1
 10
5.448730
 20
0.176918
 30
0.000000
  0
VERTEX
  8
LAYER-1
 10
5.435709
 20
0.154349
 30
0.000000
  0
VERTEX
  8
LAYER-1
 10
5.466091
 20
0.175180
 30
0.000000
  0
SEQEND
  8
LAYER-1
  0
POLYLINE
  8
LAYER-1
 66
  1
 70
  1
 62
  0
 10
5.140224
 20
0.145442
 30
0.000000
  0
VERTEX
  8
LAYER-1
 10
5.140224
 20
0.145442
 30
0.000000
  0
VERTEX
  8
LAYER-1
 10
5.133280
 20
0.171483
 30
0.000000
  0
VERTEX
  8
LAYER-1
 10
5.108107
 20
0.157595
 30
0.000000
  0
SEQEND
  8
LAYER-1
  0
POLYLINE
  8
LAYER-1
 66
  1
 70
  1
 62
  0
 10
5.127115
 20
0.190581
 30
0.000000
  0
VERTEX
  8
LAYER-1
 10
5.127115
 20
0.190581
 30
0.000000
  0
VERTEX
  8
LAYER-1
 10
5.140138
 20
0.213151
 30
0.000000
  0
VERTEX
  8
LAYER-1
 10
5.109754
 20
0.192318
 30
0.000000
  0
SEQEND
  8
LAYER-1
  0
POLYLINE
  8
LAYER-1
 66
  1
 70
  1
 62
  0
 10
5.644996
 20
0.047613
 30
0.000000
  0
VERTEX
  8
LAYER-1
 10
5.644996
 20
0.047613
 30
0.000000
  0
VERTEX
  8
LAYER-1
 10
5.671037
 20
0.054559
 30
0.000000
  0
VERTEX
  8
LAYER-1
 10
5.657149
 20
0.079731
 30
0.000000
  0
SEQEND
  8
LAYER-1
  0
POLYLINE
  8
LAYER-1
 66
  1
 70
  1
 62
  0
 10
5.690136
 20
0.060722
 30
0.000000
  0
VERTEX
  8
LAYER-1
 10
5.690136
 20
0.060722
 30
0.000000
  0
VERTEX
  8
LAYER-1
 10
5.712706
 20
0.047702
 30
0.000000
  0
VERTEX
  8
LAYER-1
 10
5.691873
 20
0.078083
 30
0.000000
  0
SEQEND
  8
LAYER-1
  0
ARC
  8
LAYER-1
 62
  0
 10
5.444354
 20
8.962024
 30
0.000000
 40
0.254425
 50
270.000000
 51
90.000000
  0
POLYLINE
  8
LAYER-1
 66
  1
 70
  0
 62
  0
 10
5.444354
 20
9.216449
 30
0.000000
  0
VERTEX
  8
LAYER-1
 10
5.444354
 20
9.216449
 30
0.000000
  0
VERTEX
  8
LAYER-1
 10
1.779432
 20
9.216449
 30
0.000000
  0
SEQEND
  8
LAYER-1
  0
POLYLINE
  8
LAYER-1
 66
  1
 70
  0
 62
  0
 10
1.779432
 20
9.216449
 30
0.000000
  0
VERTEX
  8
LAYER-1
 10
1.779432
 20
9.216449
 30
0.000000
  0
VERTEX
  8
LAYER-1
 10
1.779432
 20
8.707599
 30
0.000000
  0
SEQEND
  8
LAYER-1
  0
POLYLINE
  8
LAYER-1
 66
  1
 70
  0
 62
  0
 10
5.444354
 20
8.707599
 30
0.000000
  0
VERTEX
  8
LAYER-1
 10
5.444354
 20
8.707599
 30
0.000000
  0
VERTEX
  8
LAYER-1
 10
1.779432
 20
8.707599
 30
0.000000
  0
SEQEND
  8
LAYER-1
  0
TEXT
  8
LAYER-1
 62
  0
 10
3.583019
 20
9.507162
 30
0.000000
 40
0.333333
  1
MobilFlex
 72
  5
 11
5.735797
 21
9.507162
 31
0.000000
  0
POLYLINE
  8
LAYER-1
 66
  1
 70
  1
 62
  0
  0
VERTEX
  8
LAYER-1
 10
1.780936
 20
10.027136
 30
0.000000
  0
VERTEX
  8
LAYER-1
 10
2.018783
 20
10.027136
 30
0.000000
  0
VERTEX
  8
LAYER-1
 10
2.018783
 20
9.510192
 30
0.000000
  0
VERTEX
  8
LAYER-1
 10
1.780936
 20
9.510192
 30
0.000000
  0
SEQEND
  8
LAYER-1
  0
POLYLINE
  8
LAYER-1
 66
  1
 70
  1
 62
  0
  0
VERTEX
  8
LAYER-1
 10
2.093436
 20
10.027136
 30
0.000000
  0
VERTEX
  8
LAYER-1
 10
2.331283
 20
10.027136
 30
0.000000
  0
VERTEX
  8
LAYER-1
 10
2.331283
 20
9.510192
 30
0.000000
  0
VERTEX
  8
LAYER-1
 10
2.093436
 20
9.510192
 30
0.000000
  0
SEQEND
  8
LAYER-1
  0
POLYLINE
  8
LAYER-1
 66
  1
 70
  1
 62
  0
  0
VERTEX
  8
LAYER-1
 10
2.393783
 20
10.027136
 30
0.000000
  0
VERTEX
  8
LAYER-1
 10
2.631630
 20
10.027136
 30
0.000000
  0
VERTEX
  8
LAYER-1
 10
2.631630
 20
9.510192
 30
0.000000
  0
VERTEX
  8
LAYER-1
 10
2.393783
 20
9.510192
 30
0.000000
  0
SEQEND
  8
LAYER-1
  0
POLYLINE
  8
LAYER-1
 66
  1
 70
  1
 62
  0
  0
VERTEX
  8
LAYER-1
 10
2.697602
 20
10.027136
 30
0.000000
  0
VERTEX
  8
LAYER-1
 10
2.935450
 20
10.027136
 30
0.000000
  0
VERTEX
  8
LAYER-1
 10
2.935450
 20
9.510192
 30
0.000000
  0
VERTEX
  8
LAYER-1
 10
2.697602
 20
9.510192
 30
0.000000
  0
SEQEND
  8
LAYER-1
  0
POLYLINE
  8
LAYER-1
 66
  1
 70
  1
 62
  0
  0
VERTEX
  8
LAYER-1
 10
3.014443
 20
10.023221
 30
0.000000
  0
VERTEX
  8
LAYER-1
 10
3.389877
 20
10.023221
 30
0.000000
  0
VERTEX
  8
LAYER-1
 10
3.389877
 20
9.885201
 30
0.000000
  0
VERTEX
  8
LAYER-1
 10
3.014443
 20
9.885201
 30
0.000000
  0
SEQEND
  8
LAYER-1
  0
POLYLINE
  8
LAYER-1
 66
  1
 70
  1
 62
  0
  0
VERTEX
  8
LAYER-1
 10
3.014009
 20
9.795791
 30
0.000000
  0
VERTEX
  8
LAYER-1
 10
3.322168
 20
9.795791
 30
0.000000
  0
VERTEX
  8
LAYER-1
 10
3.322168
 20
9.661676
 30
0.000000
  0
VERTEX
  8
LAYER-1
 10
3.014009
 20
9.661676
 30
0.000000
  0
SEQEND
  8
LAYER-1
  0
POLYLINE
  8
LAYER-1
 66
  1
 70
  1
 62
  0
  0
VERTEX
  8
LAYER-1
 10
1.780936
 20
9.425565
 30
0.000000
  0
VERTEX
  8
LAYER-1
 10
5.699339
 20
9.425565
 30
0.000000
  0
VERTEX
  8
LAYER-1
 10
5.699339
 20
9.382162
 30
0.000000
  0
VERTEX
  8
LAYER-1
 10
1.780936
 20
9.382162
 30
0.000000
  0
SEQEND
  8
LAYER-1
  0
POLYLINE
  8
LAYER-1
 66
  1
 70
  1
 62
  7
  0
VERTEX
  8
LAYER-1
 10
5.484826
 20
7.189333
 30
0.000000
  0
VERTEX
  8
LAYER-1
 10
5.654965
 20
7.189333
 30
0.000000
  0
VERTEX
  8
LAYER-1
 10
5.654965
 20
6.367141
 30
0.000000
  0
VERTEX
  8
LAYER-1
 10
5.484826
 20
6.367141
 30
0.000000
  0
SEQEND
  8
LAYER-1
  0
POLYLINE
  8
LAYER-1
 66
  1
 70
  1
 62
  7
  0
VERTEX
  8
LAYER-1
 10
5.075346
 20
7.189333
 30
0.000000
  0
VERTEX
  8
LAYER-1
 10
5.245485
 20
7.189333
 30
0.000000
  0
VERTEX
  8
LAYER-1
 10
5.245485
 20
6.367141
 30
0.000000
  0
VERTEX
  8
LAYER-1
 10
5.075346
 20
6.367141
 30
0.000000
  0
SEQEND
  8
LAYER-1
  0
POLYLINE
  8
LAYER-1
 66
  1
 70
  1
 62
  7
  0
VERTEX
  8
LAYER-1
 10
4.666735
 20
7.189333
 30
0.000000
  0
VERTEX
  8
LAYER-1
 10
4.836875
 20
7.189333
 30
0.000000
  0
VERTEX
  8
LAYER-1
 10
4.836875
 20
6.367141
 30
0.000000
  0
VERTEX
  8
LAYER-1
 10
4.666735
 20
6.367141
 30
0.000000
  0
SEQEND
  8
LAYER-1
  0
POLYLINE
  8
LAYER-1
 66
  1
 70
  1
 62
  7
  0
VERTEX
  8
LAYER-1
 10
4.259861
 20
7.189333
 30
0.000000
  0
VERTEX
  8
LAYER-1
 10
4.430000
 20
7.189333
 30
0.000000
  0
VERTEX
  8
LAYER-1
 10
4.430000
 20
6.367141
 30
0.000000
  0
VERTEX
  8
LAYER-1
 10
4.259861
 20
6.367141
 30
0.000000
  0
SEQEND
  8
LAYER-1
  0
POLYLINE
  8
LAYER-1
 66
  1
 70
  1
 62
  7
  0
VERTEX
  8
LAYER-1
 10
3.851248
 20
7.189333
 30
0.000000
  0
VERTEX
  8
LAYER-1
 10
4.021388
 20
7.189333
 30
0.000000
  0
VERTEX
  8
LAYER-1
 10
4.021388
 20
6.367141
 30
0.000000
  0
VERTEX
  8
LAYER-1
 10
3.851248
 20
6.367141
 30
0.000000
  0
SEQEND
  8
LAYER-1
  0
POLYLINE
  8
LAYER-1
 66
  1
 70
  1
 62
  7
  0
VERTEX
  8
LAYER-1
 10
4.056422
 20
6.367498
 30
0.000000
  0
VERTEX
  8
LAYER-1
 10
4.226561
 20
6.367498
 30
0.000000
  0
VERTEX
  8
LAYER-1
 10
4.226561
 20
5.545307
 30
0.000000
  0
VERTEX
  8
LAYER-1
 10
4.056422
 20
5.545307
 30
0.000000
  0
SEQEND
  8
LAYER-1
  0
POLYLINE
  8
LAYER-1
 66
  1
 70
  1
 62
  7
  0
VERTEX
  8
LAYER-1
 10
4.463298
 20
6.367498
 30
0.000000
  0
VERTEX
  8
LAYER-1
 10
4.633437
 20
6.367498
 30
0.000000
  0
VERTEX
  8
LAYER-1
 10
4.633437
 20
5.545307
 30
0.000000
  0
VERTEX
  8
LAYER-1
 10
4.463298
 20
5.545307
 30
0.000000
  0
SEQEND
  8
LAYER-1
  0
POLYLINE
  8
LAYER-1
 66
  1
 70
  1
 62
  7
  0
VERTEX
  8
LAYER-1
 10
4.869306
 20
6.367498
 30
0.000000
  0
VERTEX
  8
LAYER-1
 10
5.039445
 20
6.367498
 30
0.000000
  0
VERTEX
  8
LAYER-1
 10
5.039445
 20
5.545307
 30
0.000000
  0
VERTEX
  8
LAYER-1
 10
4.869306
 20
5.545307
 30
0.000000
  0
SEQEND
  8
LAYER-1
  0
POLYLINE
  8
LAYER-1
 66
  1
 70
  1
 62
  7
  0
VERTEX
  8
LAYER-1
 10
5.279652
 20
6.367498
 30
0.000000
  0
VERTEX
  8
LAYER-1
 10
5.449791
 20
6.367498
 30
0.000000
  0
VERTEX
  8
LAYER-1
 10
5.449791
 20
5.545307
 30
0.000000
  0
VERTEX
  8
LAYER-1
 10
5.279652
 20
5.545307
 30
0.000000
  0
SEQEND
  8
LAYER-1
  0
POLYLINE
  8
LAYER-1
 66
  1
 70
  1
 62
  7
  0
VERTEX
  8
LAYER-1
 10
5.484826
 20
5.545304
 30
0.000000
  0
VERTEX
  8
LAYER-1
 10
5.654965
 20
5.545304
 30
0.000000
  0
VERTEX
  8
LAYER-1
 10
5.654965
 20
4.723113
 30
0.000000
  0
VERTEX
  8
LAYER-1
 10
5.484826
 20
4.723113
 30
0.000000
  0
SEQEND
  8
LAYER-1
  0
POLYLINE
  8
LAYER-1
 66
  1
 70
  1
 62
  7
  0
VERTEX
  8
LAYER-1
 10
5.074478
 20
5.545304
 30
0.000000
  0
VERTEX
  8
LAYER-1
 10
5.244617
 20
5.545304
 30
0.000000
  0
VERTEX
  8
LAYER-1
 10
5.244617
 20
4.723113
 30
0.000000
  0
VERTEX
  8
LAYER-1
 10
5.074478
 20
4.723113
 30
0.000000
  0
SEQEND
  8
LAYER-1
  0
POLYLINE
  8
LAYER-1
 66
  1
 70
  1
 62
  7
  0
VERTEX
  8
LAYER-1
 10
4.666735
 20
5.545304
 30
0.000000
  0
VERTEX
  8
LAYER-1
 10
4.836875
 20
5.545304
 30
0.000000
  0
VERTEX
  8
LAYER-1
 10
4.836875
 20
4.723113
 30
0.000000
  0
VERTEX
  8
LAYER-1
 10
4.666735
 20
4.723113
 30
0.000000
  0
SEQEND
  8
LAYER-1
  0
POLYLINE
  8
LAYER-1
 66
  1
 70
  1
 62
  7
  0
VERTEX
  8
LAYER-1
 10
4.259861
 20
5.545304
 30
0.000000
  0
VERTEX
  8
LAYER-1
 10
4.430000
 20
5.545304
 30
0.000000
  0
VERTEX
  8
LAYER-1
 10
4.430000
 20
4.723113
 30
0.000000
  0
VERTEX
  8
LAYER-1
 10
4.259861
 20
4.723113
 30
0.000000
  0
SEQEND
  8
LAYER-1
  0
POLYLINE
  8
LAYER-1
 66
  1
 70
  1
 62
  7
  0
VERTEX
  8
LAYER-1
 10
3.851248
 20
5.545304
 30
0.000000
  0
VERTEX
  8
LAYER-1
 10
4.021388
 20
5.545304
 30
0.000000
  0
VERTEX
  8
LAYER-1
 10
4.021388
 20
4.723113
 30
0.000000
  0
VERTEX
  8
LAYER-1
 10
3.851248
 20
4.723113
 30
0.000000
  0
SEQEND
  8
LAYER-1
  0
POLYLINE
  8
LAYER-1
 66
  1
 70
  1
 62
  7
  0
VERTEX
  8
LAYER-1
 10
4.056422
 20
4.723470
 30
0.000000
  0
VERTEX
  8
LAYER-1
 10
4.226561
 20
4.723470
 30
0.000000
  0
VERTEX
  8
LAYER-1
 10
4.226561
 20
3.901279
 30
0.000000
  0
VERTEX
  8
LAYER-1
 10
4.056422
 20
3.901279
 30
0.000000
  0
SEQEND
  8
LAYER-1
  0
POLYLINE
  8
LAYER-1
 66
  1
 70
  1
 62
  7
  0
VERTEX
  8
LAYER-1
 10
4.463298
 20
4.723470
 30
0.000000
  0
VERTEX
  8
LAYER-1
 10
4.633437
 20
4.723470
 30
0.000000
  0
VERTEX
  8
LAYER-1
 10
4.633437
 20
3.901279
 30
0.000000
  0
VERTEX
  8
LAYER-1
 10
4.463298
 20
3.901279
 30
0.000000
  0
SEQEND
  8
LAYER-1
  0
POLYLINE
  8
LAYER-1
 66
  1
 70
  1
 62
  7
  0
VERTEX
  8
LAYER-1
 10
4.870174
 20
4.723470
 30
0.000000
  0
VERTEX
  8
LAYER-1
 10
5.040313
 20
4.723470
 30
0.000000
  0
VERTEX
  8
LAYER-1
 10
5.040313
 20
3.901279
 30
0.000000
  0
VERTEX
  8
LAYER-1
 10
4.870174
 20
3.901279
 30
0.000000
  0
SEQEND
  8
LAYER-1
  0
POLYLINE
  8
LAYER-1
 66
  1
 70
  1
 62
  7
  0
VERTEX
  8
LAYER-1
 10
5.279652
 20
4.723470
 30
0.000000
  0
VERTEX
  8
LAYER-1
 10
5.449791
 20
4.723470
 30
0.000000
  0
VERTEX
  8
LAYER-1
 10
5.449791
 20
3.901279
 30
0.000000
  0
VERTEX
  8
LAYER-1
 10
5.279652
 20
3.901279
 30
0.000000
  0
SEQEND
  8
LAYER-1
  0
POLYLINE
  8
LAYER-1
 66
  1
 70
  1
 62
  7
  0
VERTEX
  8
LAYER-1
 10
5.484826
 20
3.901276
 30
0.000000
  0
VERTEX
  8
LAYER-1
 10
5.654965
 20
3.901276
 30
0.000000
  0
VERTEX
  8
LAYER-1
 10
5.654965
 20
3.079085
 30
0.000000
  0
VERTEX
  8
LAYER-1
 10
5.484826
 20
3.079085
 30
0.000000
  0
SEQEND
  8
LAYER-1
  0
POLYLINE
  8
LAYER-1
 66
  1
 70
  1
 62
  7
  0
VERTEX
  8
LAYER-1
 10
5.075346
 20
3.901276
 30
0.000000
  0
VERTEX
  8
LAYER-1
 10
5.245485
 20
3.901276
 30
0.000000
  0
VERTEX
  8
LAYER-1
 10
5.245485
 20
3.079085
 30
0.000000
  0
VERTEX
  8
LAYER-1
 10
5.075346
 20
3.079085
 30
0.000000
  0
SEQEND
  8
LAYER-1
  0
POLYLINE
  8
LAYER-1
 66
  1
 70
  1
 62
  7
  0
VERTEX
  8
LAYER-1
 10
4.666735
 20
3.901276
 30
0.000000
  0
VERTEX
  8
LAYER-1
 10
4.836875
 20
3.901276
 30
0.000000
  0
VERTEX
  8
LAYER-1
 10
4.836875
 20
3.079085
 30
0.000000
  0
VERTEX
  8
LAYER-1
 10
4.666735
 20
3.079085
 30
0.000000
  0
SEQEND
  8
LAYER-1
  0
POLYLINE
  8
LAYER-1
 66
  1
 70
  1
 62
  7
  0
VERTEX
  8
LAYER-1
 10
4.259861
 20
3.901276
 30
0.000000
  0
VERTEX
  8
LAYER-1
 10
4.430000
 20
3.901276
 30
0.000000
  0
VERTEX
  8
LAYER-1
 10
4.430000
 20
3.079085
 30
0.000000
  0
VERTEX
  8
LAYER-1
 10
4.259861
 20
3.079085
 30
0.000000
  0
SEQEND
  8
LAYER-1
  0
POLYLINE
  8
LAYER-1
 66
  1
 70
  1
 62
  7
  0
VERTEX
  8
LAYER-1
 10
3.851248
 20
3.901276
 30
0.000000
  0
VERTEX
  8
LAYER-1
 10
4.021388
 20
3.901276
 30
0.000000
  0
VERTEX
  8
LAYER-1
 10
4.021388
 20
3.079085
 30
0.000000
  0
VERTEX
  8
LAYER-1
 10
3.851248
 20
3.079085
 30
0.000000
  0
SEQEND
  8
LAYER-1
  0
POLYLINE
  8
LAYER-1
 66
  1
 70
  1
 62
  7
  0
VERTEX
  8
LAYER-1
 10
4.056422
 20
3.079441
 30
0.000000
  0
VERTEX
  8
LAYER-1
 10
4.226561
 20
3.079441
 30
0.000000
  0
VERTEX
  8
LAYER-1
 10
4.226561
 20
2.257247
 30
0.000000
  0
VERTEX
  8
LAYER-1
 10
4.056422
 20
2.257247
 30
0.000000
  0
SEQEND
  8
LAYER-1
  0
POLYLINE
  8
LAYER-1
 66
  1
 70
  1
 62
  7
  0
VERTEX
  8
LAYER-1
 10
4.463298
 20
3.079441
 30
0.000000
  0
VERTEX
  8
LAYER-1
 10
4.633437
 20
3.079441
 30
0.000000
  0
VERTEX
  8
LAYER-1
 10
4.633437
 20
2.257247
 30
0.000000
  0
VERTEX
  8
LAYER-1
 10
4.463298
 20
2.257247
 30
0.000000
  0
SEQEND
  8
LAYER-1
  0
POLYLINE
  8
LAYER-1
 66
  1
 70
  1
 62
  7
  0
VERTEX
  8
LAYER-1
 10
4.870174
 20
3.079441
 30
0.000000
  0
VERTEX
  8
LAYER-1
 10
5.040313
 20
3.079441
 30
0.000000
  0
VERTEX
  8
LAYER-1
 10
5.040313
 20
2.257247
 30
0.000000
  0
VERTEX
  8
LAYER-1
 10
4.870174
 20
2.257247
 30
0.000000
  0
SEQEND
  8
LAYER-1
  0
POLYLINE
  8
LAYER-1
 66
  1
 70
  1
 62
  7
  0
VERTEX
  8
LAYER-1
 10
5.279652
 20
3.079441
 30
0.000000
  0
VERTEX
  8
LAYER-1
 10
5.449791
 20
3.079441
 30
0.000000
  0
VERTEX
  8
LAYER-1
 10
5.449791
 20
2.257247
 30
0.000000
  0
VERTEX
  8
LAYER-1
 10
5.279652
 20
2.257247
 30
0.000000
  0
SEQEND
  8
LAYER-1
  0
POLYLINE
  8
LAYER-1
 66
  1
 70
  1
 62
  7
  0
VERTEX
  8
LAYER-1
 10
5.484826
 20
2.257245
 30
0.000000
  0
VERTEX
  8
LAYER-1
 10
5.654965
 20
2.257245
 30
0.000000
  0
VERTEX
  8
LAYER-1
 10
5.654965
 20
1.435054
 30
0.000000
  0
VERTEX
  8
LAYER-1
 10
5.484826
 20
1.435054
 30
0.000000
  0
SEQEND
  8
LAYER-1
  0
POLYLINE
  8
LAYER-1
 66
  1
 70
  1
 62
  7
  0
VERTEX
  8
LAYER-1
 10
5.075346
 20
2.257245
 30
0.000000
  0
VERTEX
  8
LAYER-1
 10
5.245485
 20
2.257245
 30
0.000000
  0
VERTEX
  8
LAYER-1
 10
5.245485
 20
1.435054
 30
0.000000
  0
VERTEX
  8
LAYER-1
 10
5.075346
 20
1.435054
 30
0.000000
  0
SEQEND
  8
LAYER-1
  0
POLYLINE
  8
LAYER-1
 66
  1
 70
  1
 62
  7
  0
VERTEX
  8
LAYER-1
 10
4.666735
 20
2.257245
 30
0.000000
  0
VERTEX
  8
LAYER-1
 10
4.836875
 20
2.257245
 30
0.000000
  0
VERTEX
  8
LAYER-1
 10
4.836875
 20
1.435054
 30
0.000000
  0
VERTEX
  8
LAYER-1
 10
4.666735
 20
1.435054
 30
0.000000
  0
SEQEND
  8
LAYER-1
  0
POLYLINE
  8
LAYER-1
 66
  1
 70
  1
 62
  7
  0
VERTEX
  8
LAYER-1
 10
4.259861
 20
2.257245
 30
0.000000
  0
VERTEX
  8
LAYER-1
 10
4.430000
 20
2.257245
 30
0.000000
  0
VERTEX
  8
LAYER-1
 10
4.430000
 20
1.435054
 30
0.000000
  0
VERTEX
  8
LAYER-1
 10
4.259861
 20
1.435054
 30
0.000000
  0
SEQEND
  8
LAYER-1
  0
POLYLINE
  8
LAYER-1
 66
  1
 70
  1
 62
  7
  0
VERTEX
  8
LAYER-1
 10
3.851248
 20
2.257245
 30
0.000000
  0
VERTEX
  8
LAYER-1
 10
4.021388
 20
2.257245
 30
0.000000
  0
VERTEX
  8
LAYER-1
 10
4.021388
 20
1.435054
 30
0.000000
  0
VERTEX
  8
LAYER-1
 10
3.851248
 20
1.435054
 30
0.000000
  0
SEQEND
  8
LAYER-1
  0
POLYLINE
  8
LAYER-1
 66
  1
 70
  1
 62
  7
  0
VERTEX
  8
LAYER-1
 10
4.056422
 20
1.435412
 30
0.000000
  0
VERTEX
  8
LAYER-1
 10
4.226561
 20
1.435412
 30
0.000000
  0
VERTEX
  8
LAYER-1
 10
4.226561
 20
0.613221
 30
0.000000
  0
VERTEX
  8
LAYER-1
 10
4.056422
 20
0.613221
 30
0.000000
  0
SEQEND
  8
LAYER-1
  0
POLYLINE
  8
LAYER-1
 66
  1
 70
  1
 62
  7
  0
VERTEX
  8
LAYER-1
 10
4.464166
 20
1.435412
 30
0.000000
  0
VERTEX
  8
LAYER-1
 10
4.634305
 20
1.435412
 30
0.000000
  0
VERTEX
  8
LAYER-1
 10
4.634305
 20
0.613221
 30
0.000000
  0
VERTEX
  8
LAYER-1
 10
4.464166
 20
0.613221
 30
0.000000
  0
SEQEND
  8
LAYER-1
  0
POLYLINE
  8
LAYER-1
 66
  1
 70
  1
 62
  7
  0
VERTEX
  8
LAYER-1
 10
4.870174
 20
1.435412
 30
0.000000
  0
VERTEX
  8
LAYER-1
 10
5.040313
 20
1.435412
 30
0.000000
  0
VERTEX
  8
LAYER-1
 10
5.040313
 20
0.613221
 30
0.000000
  0
VERTEX
  8
LAYER-1
 10
4.870174
 20
0.613221
 30
0.000000
  0
SEQEND
  8
LAYER-1
  0
POLYLINE
  8
LAYER-1
 66
  1
 70
  1
 62
  7
  0
VERTEX
  8
LAYER-1
 10
5.279652
 20
1.435412
 30
0.000000
  0
VERTEX
  8
LAYER-1
 10
5.449791
 20
1.435412
 30
0.000000
  0
VERTEX
  8
LAYER-1
 10
5.449791
 20
0.613221
 30
0.000000
  0
VERTEX
  8
LAYER-1
 10
5.279652
 20
0.613221
 30
0.000000
  0
SEQEND
  8
LAYER-1
  0
POLYLINE
  8
LAYER-1
 66
  1
 70
  1
 62
  7
  0
VERTEX
  8
LAYER-1
 10
1.804373
 20
7.190509
 30
0.000000
  0
VERTEX
  8
LAYER-1
 10
1.974512
 20
7.190509
 30
0.000000
  0
VERTEX
  8
LAYER-1
 10
1.974512
 20
6.368317
 30
0.000000
  0
VERTEX
  8
LAYER-1
 10
1.804373
 20
6.368317
 30
0.000000
  0
SEQEND
  8
LAYER-1
  0
POLYLINE
  8
LAYER-1
 66
  1
 70
  1
 62
  7
  0
VERTEX
  8
LAYER-1
 10
2.213853
 20
7.190509
 30
0.000000
  0
VERTEX
  8
LAYER-1
 10
2.383992
 20
7.190509
 30
0.000000
  0
VERTEX
  8
LAYER-1
 10
2.383992
 20
6.368317
 30
0.000000
  0
VERTEX
  8
LAYER-1
 10
2.213853
 20
6.368317
 30
0.000000
  0
SEQEND
  8
LAYER-1
  0
POLYLINE
  8
LAYER-1
 66
  1
 70
  1
 62
  7
  0
VERTEX
  8
LAYER-1
 10
2.623332
 20
7.190509
 30
0.000000
  0
VERTEX
  8
LAYER-1
 10
2.793471
 20
7.190509
 30
0.000000
  0
VERTEX
  8
LAYER-1
 10
2.793471
 20
6.368317
 30
0.000000
  0
VERTEX
  8
LAYER-1
 10
2.623332
 20
6.368317
 30
0.000000
  0
SEQEND
  8
LAYER-1
  0
POLYLINE
  8
LAYER-1
 66
  1
 70
  1
 62
  7
  0
VERTEX
  8
LAYER-1
 10
3.029339
 20
7.190509
 30
0.000000
  0
VERTEX
  8
LAYER-1
 10
3.199478
 20
7.190509
 30
0.000000
  0
VERTEX
  8
LAYER-1
 10
3.199478
 20
6.368317
 30
0.000000
  0
VERTEX
  8
LAYER-1
 10
3.029339
 20
6.368317
 30
0.000000
  0
SEQEND
  8
LAYER-1
  0
POLYLINE
  8
LAYER-1
 66
  1
 70
  1
 62
  7
  0
VERTEX
  8
LAYER-1
 10
3.437083
 20
7.190509
 30
0.000000
  0
VERTEX
  8
LAYER-1
 10
3.607221
 20
7.190509
 30
0.000000
  0
VERTEX
  8
LAYER-1
 10
3.607221
 20
6.368317
 30
0.000000
  0
VERTEX
  8
LAYER-1
 10
3.437083
 20
6.368317
 30
0.000000
  0
SEQEND
  8
LAYER-1
  0
POLYLINE
  8
LAYER-1
 66
  1
 70
  1
 62
  7
  0
VERTEX
  8
LAYER-1
 10
3.232777
 20
6.368674
 30
0.000000
  0
VERTEX
  8
LAYER-1
 10
3.402916
 20
6.368674
 30
0.000000
  0
VERTEX
  8
LAYER-1
 10
3.402916
 20
5.546483
 30
0.000000
  0
VERTEX
  8
LAYER-1
 10
3.232777
 20
5.546483
 30
0.000000
  0
SEQEND
  8
LAYER-1
  0
POLYLINE
  8
LAYER-1
 66
  1
 70
  1
 62
  7
  0
VERTEX
  8
LAYER-1
 10
2.826770
 20
6.368674
 30
0.000000
  0
VERTEX
  8
LAYER-1
 10
2.996909
 20
6.368674
 30
0.000000
  0
VERTEX
  8
LAYER-1
 10
2.996909
 20
5.546483
 30
0.000000
  0
VERTEX
  8
LAYER-1
 10
2.826770
 20
5.546483
 30
0.000000
  0
SEQEND
  8
LAYER-1
  0
POLYLINE
  8
LAYER-1
 66
  1
 70
  1
 62
  7
  0
VERTEX
  8
LAYER-1
 10
2.419026
 20
6.368674
 30
0.000000
  0
VERTEX
  8
LAYER-1
 10
2.589165
 20
6.368674
 30
0.000000
  0
VERTEX
  8
LAYER-1
 10
2.589165
 20
5.546483
 30
0.000000
  0
VERTEX
  8
LAYER-1
 10
2.419026
 20
5.546483
 30
0.000000
  0
SEQEND
  8
LAYER-1
  0
POLYLINE
  8
LAYER-1
 66
  1
 70
  1
 62
  7
  0
VERTEX
  8
LAYER-1
 10
2.010415
 20
6.368674
 30
0.000000
  0
VERTEX
  8
LAYER-1
 10
2.180554
 20
6.368674
 30
0.000000
  0
VERTEX
  8
LAYER-1
 10
2.180554
 20
5.546483
 30
0.000000
  0
VERTEX
  8
LAYER-1
 10
2.010415
 20
5.546483
 30
0.000000
  0
SEQEND
  8
LAYER-1
  0
POLYLINE
  8
LAYER-1
 66
  1
 70
  1
 62
  7
  0
VERTEX
  8
LAYER-1
 10
1.804373
 20
5.546480
 30
0.000000
  0
VERTEX
  8
LAYER-1
 10
1.974512
 20
5.546480
 30
0.000000
  0
VERTEX
  8
LAYER-1
 10
1.974512
 20
4.724290
 30
0.000000
  0
VERTEX
  8
LAYER-1
 10
1.804373
 20
4.724290
 30
0.000000
  0
SEQEND
  8
LAYER-1
  0
POLYLINE
  8
LAYER-1
 66
  1
 70
  1
 62
  7
  0
VERTEX
  8
LAYER-1
 10
2.213853
 20
5.546480
 30
0.000000
  0
VERTEX
  8
LAYER-1
 10
2.383992
 20
5.546480
 30
0.000000
  0
VERTEX
  8
LAYER-1
 10
2.383992
 20
4.724290
 30
0.000000
  0
VERTEX
  8
LAYER-1
 10
2.213853
 20
4.724290
 30
0.000000
  0
SEQEND
  8
LAYER-1
  0
POLYLINE
  8
LAYER-1
 66
  1
 70
  1
 62
  7
  0
VERTEX
  8
LAYER-1
 10
2.623332
 20
5.546480
 30
0.000000
  0
VERTEX
  8
LAYER-1
 10
2.793471
 20
5.546480
 30
0.000000
  0
VERTEX
  8
LAYER-1
 10
2.793471
 20
4.724290
 30
0.000000
  0
VERTEX
  8
LAYER-1
 10
2.623332
 20
4.724290
 30
0.000000
  0
SEQEND
  8
LAYER-1
  0
POLYLINE
  8
LAYER-1
 66
  1
 70
  1
 62
  7
  0
VERTEX
  8
LAYER-1
 10
3.029339
 20
5.546480
 30
0.000000
  0
VERTEX
  8
LAYER-1
 10
3.199478
 20
5.546480
 30
0.000000
  0
VERTEX
  8
LAYER-1
 10
3.199478
 20
4.724290
 30
0.000000
  0
VERTEX
  8
LAYER-1
 10
3.029339
 20
4.724290
 30
0.000000
  0
SEQEND
  8
LAYER-1
  0
POLYLINE
  8
LAYER-1
 66
  1
 70
  1
 62
  7
  0
VERTEX
  8
LAYER-1
 10
3.437083
 20
5.546480
 30
0.000000
  0
VERTEX
  8
LAYER-1
 10
3.607221
 20
5.546480
 30
0.000000
  0
VERTEX
  8
LAYER-1
 10
3.607221
 20
4.724290
 30
0.000000
  0
VERTEX
  8
LAYER-1
 10
3.437083
 20
4.724290
 30
0.000000
  0
SEQEND
  8
LAYER-1
  0
POLYLINE
  8
LAYER-1
 66
  1
 70
  1
 62
  7
  0
VERTEX
  8
LAYER-1
 10
3.232777
 20
4.724647
 30
0.000000
  0
VERTEX
  8
LAYER-1
 10
3.402916
 20
4.724647
 30
0.000000
  0
VERTEX
  8
LAYER-1
 10
3.402916
 20
3.902456
 30
0.000000
  0
VERTEX
  8
LAYER-1
 10
3.232777
 20
3.902456
 30
0.000000
  0
SEQEND
  8
LAYER-1
  0
POLYLINE
  8
LAYER-1
 66
  1
 70
  1
 62
  7
  0
VERTEX
  8
LAYER-1
 10
2.826770
 20
4.724647
 30
0.000000
  0
VERTEX
  8
LAYER-1
 10
2.996909
 20
4.724647
 30
0.000000
  0
VERTEX
  8
LAYER-1
 10
2.996909
 20
3.902456
 30
0.000000
  0
VERTEX
  8
LAYER-1
 10
2.826770
 20
3.902456
 30
0.000000
  0
SEQEND
  8
LAYER-1
  0
POLYLINE
  8
LAYER-1
 66
  1
 70
  1
 62
  7
  0
VERTEX
  8
LAYER-1
 10
2.419026
 20
4.724647
 30
0.000000
  0
VERTEX
  8
LAYER-1
 10
2.589165
 20
4.724647
 30
0.000000
  0
VERTEX
  8
LAYER-1
 10
2.589165
 20
3.902456
 30
0.000000
  0
VERTEX
  8
LAYER-1
 10
2.419026
 20
3.902456
 30
0.000000
  0
SEQEND
  8
LAYER-1
  0
POLYLINE
  8
LAYER-1
 66
  1
 70
  1
 62
  7
  0
VERTEX
  8
LAYER-1
 10
2.010415
 20
4.724647
 30
0.000000
  0
VERTEX
  8
LAYER-1
 10
2.180554
 20
4.724647
 30
0.000000
  0
VERTEX
  8
LAYER-1
 10
2.180554
 20
3.902456
 30
0.000000
  0
VERTEX
  8
LAYER-1
 10
2.010415
 20
3.902456
 30
0.000000
  0
SEQEND
  8
LAYER-1
  0
POLYLINE
  8
LAYER-1
 66
  1
 70
  1
 62
  7
  0
VERTEX
  8
LAYER-1
 10
1.804373
 20
3.902453
 30
0.000000
  0
VERTEX
  8
LAYER-1
 10
1.974512
 20
3.902453
 30
0.000000
  0
VERTEX
  8
LAYER-1
 10
1.974512
 20
3.080262
 30
0.000000
  0
VERTEX
  8
LAYER-1
 10
1.804373
 20
3.080262
 30
0.000000
  0
SEQEND
  8
LAYER-1
  0
POLYLINE
  8
LAYER-1
 66
  1
 70
  1
 62
  7
  0
VERTEX
  8
LAYER-1
 10
2.213853
 20
3.902453
 30
0.000000
  0
VERTEX
  8
LAYER-1
 10
2.383992
 20
3.902453
 30
0.000000
  0
VERTEX
  8
LAYER-1
 10
2.383992
 20
3.080262
 30
0.000000
  0
VERTEX
  8
LAYER-1
 10
2.213853
 20
3.080262
 30
0.000000
  0
SEQEND
  8
LAYER-1
  0
POLYLINE
  8
LAYER-1
 66
  1
 70
  1
 62
  7
  0
VERTEX
  8
LAYER-1
 10
2.623332
 20
3.902453
 30
0.000000
  0
VERTEX
  8
LAYER-1
 10
2.793471
 20
3.902453
 30
0.000000
  0
VERTEX
  8
LAYER-1
 10
2.793471
 20
3.080262
 30
0.000000
  0
VERTEX
  8
LAYER-1
 10
2.623332
 20
3.080262
 30
0.000000
  0
SEQEND
  8
LAYER-1
  0
POLYLINE
  8
LAYER-1
 66
  1
 70
  1
 62
  7
  0
VERTEX
  8
LAYER-1
 10
3.029339
 20
3.902453
 30
0.000000
  0
VERTEX
  8
LAYER-1
 10
3.199478
 20
3.902453
 30
0.000000
  0
VERTEX
  8
LAYER-1
 10
3.199478
 20
3.080262
 30
0.000000
  0
VERTEX
  8
LAYER-1
 10
3.029339
 20
3.080262
 30
0.000000
  0
SEQEND
  8
LAYER-1
  0
POLYLINE
  8
LAYER-1
 66
  1
 70
  1
 62
  7
  0
VERTEX
  8
LAYER-1
 10
3.437083
 20
3.902453
 30
0.000000
  0
VERTEX
  8
LAYER-1
 10
3.607221
 20
3.902453
 30
0.000000
  0
VERTEX
  8
LAYER-1
 10
3.607221
 20
3.080262
 30
0.000000
  0
VERTEX
  8
LAYER-1
 10
3.437083
 20
3.080262
 30
0.000000
  0
SEQEND
  8
LAYER-1
  0
POLYLINE
  8
LAYER-1
 66
  1
 70
  1
 62
  7
  0
VERTEX
  8
LAYER-1
 10
2.010415
 20
3.080617
 30
0.000000
  0
VERTEX
  8
LAYER-1
 10
2.180554
 20
3.080617
 30
0.000000
  0
VERTEX
  8
LAYER-1
 10
2.180554
 20
2.258424
 30
0.000000
  0
VERTEX
  8
LAYER-1
 10
2.010415
 20
2.258424
 30
0.000000
  0
SEQEND
  8
LAYER-1
  0
POLYLINE
  8
LAYER-1
 66
  1
 70
  1
 62
  7
  0
VERTEX
  8
LAYER-1
 10
2.419026
 20
3.080617
 30
0.000000
  0
VERTEX
  8
LAYER-1
 10
2.589165
 20
3.080617
 30
0.000000
  0
VERTEX
  8
LAYER-1
 10
2.589165
 20
2.258424
 30
0.000000
  0
VERTEX
  8
LAYER-1
 10
2.419026
 20
2.258424
 30
0.000000
  0
SEQEND
  8
LAYER-1
  0
POLYLINE
  8
LAYER-1
 66
  1
 70
  1
 62
  7
  0
VERTEX
  8
LAYER-1
 10
2.826770
 20
3.080617
 30
0.000000
  0
VERTEX
  8
LAYER-1
 10
2.996909
 20
3.080617
 30
0.000000
  0
VERTEX
  8
LAYER-1
 10
2.996909
 20
2.258424
 30
0.000000
  0
VERTEX
  8
LAYER-1
 10
2.826770
 20
2.258424
 30
0.000000
  0
SEQEND
  8
LAYER-1
  0
POLYLINE
  8
LAYER-1
 66
  1
 70
  1
 62
  7
  0
VERTEX
  8
LAYER-1
 10
3.232777
 20
3.080617
 30
0.000000
  0
VERTEX
  8
LAYER-1
 10
3.402916
 20
3.080617
 30
0.000000
  0
VERTEX
  8
LAYER-1
 10
3.402916
 20
2.258424
 30
0.000000
  0
VERTEX
  8
LAYER-1
 10
3.232777
 20
2.258424
 30
0.000000
  0
SEQEND
  8
LAYER-1
  0
POLYLINE
  8
LAYER-1
 66
  1
 70
  1
 62
  7
  0
VERTEX
  8
LAYER-1
 10
3.437083
 20
2.258422
 30
0.000000
  0
VERTEX
  8
LAYER-1
 10
3.607221
 20
2.258422
 30
0.000000
  0
VERTEX
  8
LAYER-1
 10
3.607221
 20
1.436229
 30
0.000000
  0
VERTEX
  8
LAYER-1
 10
3.437083
 20
1.436229
 30
0.000000
  0
SEQEND
  8
LAYER-1
  0
POLYLINE
  8
LAYER-1
 66
  1
 70
  1
 62
  7
  0
VERTEX
  8
LAYER-1
 10
3.029339
 20
2.258422
 30
0.000000
  0
VERTEX
  8
LAYER-1
 10
3.199478
 20
2.258422
 30
0.000000
  0
VERTEX
  8
LAYER-1
 10
3.199478
 20
1.436229
 30
0.000000
  0
VERTEX
  8
LAYER-1
 10
3.029339
 20
1.436229
 30
0.000000
  0
SEQEND
  8
LAYER-1
  0
POLYLINE
  8
LAYER-1
 66
  1
 70
  1
 62
  7
  0
VERTEX
  8
LAYER-1
 10
2.623332
 20
2.258422
 30
0.000000
  0
VERTEX
  8
LAYER-1
 10
2.793471
 20
2.258422
 30
0.000000
  0
VERTEX
  8
LAYER-1
 10
2.793471
 20
1.436229
 30
0.000000
  0
VERTEX
  8
LAYER-1
 10
2.623332
 20
1.436229
 30
0.000000
  0
SEQEND
  8
LAYER-1
  0
POLYLINE
  8
LAYER-1
 66
  1
 70
  1
 62
  7
  0
VERTEX
  8
LAYER-1
 10
2.213853
 20
2.258422
 30
0.000000
  0
VERTEX
  8
LAYER-1
 10
2.383992
 20
2.258422
 30
0.000000
  0
VERTEX
  8
LAYER-1
 10
2.383992
 20
1.436229
 30
0.000000
  0
VERTEX
  8
LAYER-1
 10
2.213853
 20
1.436229
 30
0.000000
  0
SEQEND
  8
LAYER-1
  0
POLYLINE
  8
LAYER-1
 66
  1
 70
  1
 62
  7
  0
VERTEX
  8
LAYER-1
 10
1.804373
 20
2.258422
 30
0.000000
  0
VERTEX
  8
LAYER-1
 10
1.974512
 20
2.258422
 30
0.000000
  0
VERTEX
  8
LAYER-1
 10
1.974512
 20
1.436229
 30
0.000000
  0
VERTEX
  8
LAYER-1
 10
1.804373
 20
1.436229
 30
0.000000
  0
SEQEND
  8
LAYER-1
  0
POLYLINE
  8
LAYER-1
 66
  1
 70
  1
 62
  7
  0
VERTEX
  8
LAYER-1
 10
3.232777
 20
1.436589
 30
0.000000
  0
VERTEX
  8
LAYER-1
 10
3.402916
 20
1.436589
 30
0.000000
  0
VERTEX
  8
LAYER-1
 10
3.402916
 20
0.614398
 30
0.000000
  0
VERTEX
  8
LAYER-1
 10
3.232777
 20
0.614398
 30
0.000000
  0
SEQEND
  8
LAYER-1
  0
POLYLINE
  8
LAYER-1
 66
  1
 70
  1
 62
  7
  0
VERTEX
  8
LAYER-1
 10
2.826770
 20
1.436589
 30
0.000000
  0
VERTEX
  8
LAYER-1
 10
2.996909
 20
1.436589
 30
0.000000
  0
VERTEX
  8
LAYER-1
 10
2.996909
 20
0.614398
 30
0.000000
  0
VERTEX
  8
LAYER-1
 10
2.826770
 20
0.614398
 30
0.000000
  0
SEQEND
  8
LAYER-1
  0
POLYLINE
  8
LAYER-1
 66
  1
 70
  1
 62
  7
  0
VERTEX
  8
LAYER-1
 10
2.419026
 20
1.436589
 30
0.000000
  0
VERTEX
  8
LAYER-1
 10
2.589165
 20
1.436589
 30
0.000000
  0
VERTEX
  8
LAYER-1
 10
2.589165
 20
0.614398
 30
0.000000
  0
VERTEX
  8
LAYER-1
 10
2.419026
 20
0.614398
 30
0.000000
  0
SEQEND
  8
LAYER-1
  0
POLYLINE
  8
LAYER-1
 66
  1
 70
  1
 62
  7
  0
VERTEX
  8
LAYER-1
 10
2.010415
 20
1.436589
 30
0.000000
  0
VERTEX
  8
LAYER-1
 10
2.180554
 20
1.436589
 30
0.000000
  0
VERTEX
  8
LAYER-1
 10
2.180554
 20
0.614398
 30
0.000000
  0
VERTEX
  8
LAYER-1
 10
2.010415
 20
0.614398
 30
0.000000
  0
SEQEND
  8
LAYER-1
  0
POLYLINE
  8
LAYER-1
 66
  1
 70
  1
 62
  0
  0
VERTEX
  8
LAYER-1
 10
4.020872
 20
7.189813
 30
0.000000
  0
VERTEX
  8
LAYER-1
 10
4.056822
 20
7.189813
 30
0.000000
  0
VERTEX
  8
LAYER-1
 10
4.056822
 20
0.608151
 30
0.000000
  0
VERTEX
  8
LAYER-1
 10
4.020872
 20
0.608151
 30
0.000000
  0
SEQEND
  8
LAYER-1
  0
POLYLINE
  8
LAYER-1
 66
  1
 70
  1
 62
  0
  0
VERTEX
  8
LAYER-1
 10
4.428268
 20
7.189813
 30
0.000000
  0
VERTEX
  8
LAYER-1
 10
4.464219
 20
7.189813
 30
0.000000
  0
VERTEX
  8
LAYER-1
 10
4.464219
 20
0.606300
 30
0.000000
  0
VERTEX
  8
LAYER-1
 10
4.428268
 20
0.606300
 30
0.000000
  0
SEQEND
  8
LAYER-1
  0
POLYLINE
  8
LAYER-1
 66
  1
 70
  1
 62
  0
  0
VERTEX
  8
LAYER-1
 10
4.834796
 20
7.189813
 30
0.000000
  0
VERTEX
  8
LAYER-1
 10
4.870747
 20
7.189813
 30
0.000000
  0
VERTEX
  8
LAYER-1
 10
4.870747
 20
0.607564
 30
0.000000
  0
VERTEX
  8
LAYER-1
 10
4.834796
 20
0.607564
 30
0.000000
  0
SEQEND
  8
LAYER-1
  0
POLYLINE
  8
LAYER-1
 66
  1
 70
  1
 62
  0
  0
VERTEX
  8
LAYER-1
 10
5.244796
 20
7.189813
 30
0.000000
  0
VERTEX
  8
LAYER-1
 10
5.280747
 20
7.189813
 30
0.000000
  0
VERTEX
  8
LAYER-1
 10
5.280747
 20
0.606977
 30
0.000000
  0
VERTEX
  8
LAYER-1
 10
5.244796
 20
0.606977
 30
0.000000
  0
SEQEND
  8
LAYER-1
  0
POLYLINE
  8
LAYER-1
 66
  1
 70
  1
 62
  0
  0
VERTEX
  8
LAYER-1
 10
5.655231
 20
7.189813
 30
0.000000
  0
VERTEX
  8
LAYER-1
 10
5.691181
 20
7.189813
 30
0.000000
  0
VERTEX
  8
LAYER-1
 10
5.691181
 20
0.606697
 30
0.000000
  0
VERTEX
  8
LAYER-1
 10
5.655231
 20
0.606697
 30
0.000000
  0
SEQEND
  8
LAYER-1
  0
POLYLINE
  8
LAYER-1
 66
  1
 70
  1
 62
  0
  0
VERTEX
  8
LAYER-1
 10
3.401636
 20
7.190018
 30
0.000000
  0
VERTEX
  8
LAYER-1
 10
3.437587
 20
7.190018
 30
0.000000
  0
VERTEX
  8
LAYER-1
 10
3.437587
 20
0.608002
 30
0.000000
  0
VERTEX
  8
LAYER-1
 10
3.401636
 20
0.608002
 30
0.000000
  0
SEQEND
  8
LAYER-1
  0
POLYLINE
  8
LAYER-1
 66
  1
 70
  1
 62
  0
  0
VERTEX
  8
LAYER-1
 10
2.995108
 20
7.190018
 30
0.000000
  0
VERTEX
  8
LAYER-1
 10
3.031059
 20
7.190018
 30
0.000000
  0
VERTEX
  8
LAYER-1
 10
3.031059
 20
0.608447
 30
0.000000
  0
VERTEX
  8
LAYER-1
 10
2.995108
 20
0.608447
 30
0.000000
  0
SEQEND
  8
LAYER-1
  0
POLYLINE
  8
LAYER-1
 66
  1
 70
  1
 62
  0
  0
VERTEX
  8
LAYER-1
 10
2.587712
 20
7.190018
 30
0.000000
  0
VERTEX
  8
LAYER-1
 10
2.623663
 20
7.190018
 30
0.000000
  0
VERTEX
  8
LAYER-1
 10
2.623663
 20
0.607108
 30
0.000000
  0
VERTEX
  8
LAYER-1
 10
2.587712
 20
0.607108
 30
0.000000
  0
SEQEND
  8
LAYER-1
  0
POLYLINE
  8
LAYER-1
 66
  1
 70
  1
 62
  0
  0
VERTEX
  8
LAYER-1
 10
2.178580
 20
7.190018
 30
0.000000
  0
VERTEX
  8
LAYER-1
 10
2.214530
 20
7.190018
 30
0.000000
  0
VERTEX
  8
LAYER-1
 10
2.214530
 20
0.608918
 30
0.000000
  0
VERTEX
  8
LAYER-1
 10
2.178580
 20
0.608918
 30
0.000000
  0
SEQEND
  8
LAYER-1
  0
POLYLINE
  8
LAYER-1
 66
  1
 70
  1
 62
  0
  0
VERTEX
  8
LAYER-1
 10
1.768145
 20
7.190018
 30
0.000000
  0
VERTEX
  8
LAYER-1
 10
1.804096
 20
7.190018
 30
0.000000
  0
VERTEX
  8
LAYER-1
 10
1.804096
 20
0.607976
 30
0.000000
  0
VERTEX
  8
LAYER-1
 10
1.768145
 20
0.607976
 30
0.000000
  0
SEQEND
  8
LAYER-1
  0
POLYLINE
  8
LAYER-1
 66
  1
 70
  1
 62
  0
  0
VERTEX
  8
LAYER-1
 10
3.606774
 20
7.190007
 30
0.000000
  0
VERTEX
  8
LAYER-1
 10
3.642725
 20
7.190007
 30
0.000000
  0
VERTEX
  8
LAYER-1
 10
3.642725
 20
0.606324
 30
0.000000
  0
VERTEX
  8
LAYER-1
 10
3.606774
 20
0.606324
 30
0.000000
  0
SEQEND
  8
LAYER-1
  0
POLYLINE
  8
LAYER-1
 66
  1
 70
  1
 62
  0
  0
VERTEX
  8
LAYER-1
 10
3.198510
 20
7.190007
 30
0.000000
  0
VERTEX
  8
LAYER-1
 10
3.234461
 20
7.190007
 30
0.000000
  0
VERTEX
  8
LAYER-1
 10
3.234461
 20
0.606324
 30
0.000000
  0
VERTEX
  8
LAYER-1
 10
3.198510
 20
0.606324
 30
0.000000
  0
SEQEND
  8
LAYER-1
  0
POLYLINE
  8
LAYER-1
 66
  1
 70
  1
 62
  0
  0
VERTEX
  8
LAYER-1
 10
2.791982
 20
7.190007
 30
0.000000
  0
VERTEX
  8
LAYER-1
 10
2.827933
 20
7.190007
 30
0.000000
  0
VERTEX
  8
LAYER-1
 10
2.827933
 20
0.606324
 30
0.000000
  0
VERTEX
  8
LAYER-1
 10
2.791982
 20
0.606324
 30
0.000000
  0
SEQEND
  8
LAYER-1
  0
POLYLINE
  8
LAYER-1
 66
  1
 70
  1
 62
  0
  0
VERTEX
  8
LAYER-1
 10
2.383717
 20
7.190007
 30
0.000000
  0
VERTEX
  8
LAYER-1
 10
2.419668
 20
7.190007
 30
0.000000
  0
VERTEX
  8
LAYER-1
 10
2.419668
 20
0.606324
 30
0.000000
  0
VERTEX
  8
LAYER-1
 10
2.383717
 20
0.606324
 30
0.000000
  0
SEQEND
  8
LAYER-1
  0
POLYLINE
  8
LAYER-1
 66
  1
 70
  1
 62
  0
  0
VERTEX
  8
LAYER-1
 10
1.974151
 20
7.190007
 30
0.000000
  0
VERTEX
  8
LAYER-1
 10
2.010102
 20
7.190007
 30
0.000000
  0
VERTEX
  8
LAYER-1
 10
2.010102
 20
0.606324
 30
0.000000
  0
VERTEX
  8
LAYER-1
 10
1.974151
 20
0.606324
 30
0.000000
  0
SEQEND
  8
LAYER-1
  0
POLYLINE
  8
LAYER-1
 66
  1
 70
  1
 62
  0
 10
3.645291
 20
0.341598
 30
0.000000
  0
VERTEX
  8
LAYER-1
 10
3.645291
 20
0.341598
 30
0.000000
  0
VERTEX
  8
LAYER-1
 10
1.749373
 20
0.341699
 30
0.000000
  0
VERTEX
  8
LAYER-1
 10
1.749373
 20
0.613232
 30
0.000000
  0
VERTEX
  8
LAYER-1
 10
3.645291
 20
0.613348
 30
0.000000
  0
SEQEND
  8
LAYER-1
  0
POLYLINE
  8
LAYER-1
 66
  1
 70
  0
 62
  0
 10
3.645510
 20
0.409505
 30
0.000000
  0
VERTEX
  8
LAYER-1
 10
3.645510
 20
0.409505
 30
0.000000
  0
VERTEX
  8
LAYER-1
 10
3.605784
 20
0.409505
 30
0.000000
  0
SEQEND
  8
LAYER-1
  0
POLYLINE
  8
LAYER-1
 66
  1
 70
  0
 62
  0
 10
3.645510
 20
0.539415
 30
0.000000
  0
VERTEX
  8
LAYER-1
 10
3.645510
 20
0.539415
 30
0.000000
  0
VERTEX
  8
LAYER-1
 10
3.605784
 20
0.539415
 30
0.000000
  0
SEQEND
  8
LAYER-1
  0
POLYLINE
  8
LAYER-1
 66
  1
 70
  0
 62
  0
 10
3.607154
 20
0.336453
 30
0.000000
  0
VERTEX
  8
LAYER-1
 10
3.607154
 20
0.336453
 30
0.000000
  0
VERTEX
  8
LAYER-1
 10
3.620326
 20
0.329406
 30
0.000000
  0
VERTEX
  8
LAYER-1
 10
3.637406
 20
0.333737
 30
0.000000
  0
VERTEX
  8
LAYER-1
 10
3.644058
 20
0.336451
 30
0.000000
  0
SEQEND
  8
LAYER-1
  0
POLYLINE
  8
LAYER-1
 66
  1
 70
  1
 62
  0
  0
VERTEX
  8
LAYER-1
 10
3.651261
 20
0.335830
 30
0.000000
  0
VERTEX
  8
LAYER-1
 10
3.596646
 20
0.335830
 30
0.000000
  0
VERTEX
  8
LAYER-1
 10
3.596646
 20
0.341735
 30
0.000000
  0
VERTEX
  8
LAYER-1
 10
3.651261
 20
0.341735
 30
0.000000
  0
SEQEND
  8
LAYER-1
  0
POLYLINE
  8
LAYER-1
 66
  1
 70
  1
 62
  0
 10
3.645085
 20
7.461639
 30
0.000000
  0
VERTEX
  8
LAYER-1
 10
3.645085
 20
7.461639
 30
0.000000
  0
VERTEX
  8
LAYER-1
 10
1.748733
 20
7.461538
 30
0.000000
  0
VERTEX
  8
LAYER-1
 10
1.748733
 20
7.190004
 30
0.000000
  0
VERTEX
  8
LAYER-1
 10
3.645085
 20
7.189888
 30
0.000000
  0
SEQEND
  8
LAYER-1
  0
POLYLINE
  8
LAYER-1
 66
  1
 70
  0
 62
  0
 10
3.383796
 20
7.461638
 30
0.000000
  0
VERTEX
  8
LAYER-1
 10
3.383796
 20
7.461638
 30
0.000000
  0
VERTEX
  8
LAYER-1
 10
3.383796
 20
7.190006
 30
0.000000
  0
SEQEND
  8
LAYER-1
  0
POLYLINE
  8
LAYER-1
 66
  1
 70
  0
 62
  0
 10
3.053299
 20
7.190006
 30
0.000000
  0
VERTEX
  8
LAYER-1
 10
3.053299
 20
7.190006
 30
0.000000
  0
VERTEX
  8
LAYER-1
 10
3.053299
 20
7.461638
 30
0.000000
  0
SEQEND
  8
LAYER-1
  0
POLYLINE
  8
LAYER-1
 66
  1
 70
  0
 62
  0
 10
2.240467
 20
7.190007
 30
0.000000
  0
VERTEX
  8
LAYER-1
 10
2.240467
 20
7.190007
 30
0.000000
  0
VERTEX
  8
LAYER-1
 10
2.240467
 20
7.461638
 30
0.000000
  0
SEQEND
  8
LAYER-1
  0
POLYLINE
  8
LAYER-1
 66
  1
 70
  0
 62
  0
 10
2.421635
 20
7.461678
 30
0.000000
  0
VERTEX
  8
LAYER-1
 10
2.421635
 20
7.461678
 30
0.000000
  0
VERTEX
  8
LAYER-1
 10
2.421635
 20
7.190049
 30
0.000000
  0
SEQEND
  8
LAYER-1
  0
POLYLINE
  8
LAYER-1
 66
  1
 70
  0
 62
  0
 10
2.381776
 20
7.461678
 30
0.000000
  0
VERTEX
  8
LAYER-1
 10
2.381776
 20
7.461678
 30
0.000000
  0
VERTEX
  8
LAYER-1
 10
2.381776
 20
7.190049
 30
0.000000
  0
SEQEND
  8
LAYER-1
  0
POLYLINE
  8
LAYER-1
 66
  1
 70
  0
 62
  0
 10
3.235652
 20
7.461678
 30
0.000000
  0
VERTEX
  8
LAYER-1
 10
3.235652
 20
7.461678
 30
0.000000
  0
VERTEX
  8
LAYER-1
 10
3.235652
 20
7.190049
 30
0.000000
  0
SEQEND
  8
LAYER-1
  0
POLYLINE
  8
LAYER-1
 66
  1
 70
  0
 62
  0
 10
3.196836
 20
7.461678
 30
0.000000
  0
VERTEX
  8
LAYER-1
 10
3.196836
 20
7.461678
 30
0.000000
  0
VERTEX
  8
LAYER-1
 10
3.196836
 20
7.190049
 30
0.000000
  0
SEQEND
  8
LAYER-1
  0
POLYLINE
  8
LAYER-1
 66
  1
 70
  0
 62
  0
 10
2.968976
 20
7.461638
 30
0.000000
  0
VERTEX
  8
LAYER-1
 10
2.968976
 20
7.461638
 30
0.000000
  0
VERTEX
  8
LAYER-1
 10
2.968976
 20
7.190007
 30
0.000000
  0
SEQEND
  8
LAYER-1
  0
POLYLINE
  8
LAYER-1
 66
  1
 70
  0
 62
  0
 10
2.156146
 20
7.461638
 30
0.000000
  0
VERTEX
  8
LAYER-1
 10
2.156146
 20
7.461638
 30
0.000000
  0
VERTEX
  8
LAYER-1
 10
2.156146
 20
7.190007
 30
0.000000
  0
SEQEND
  8
LAYER-1
  0
POLYLINE
  8
LAYER-1
 66
  1
 70
  0
 62
  0
 10
2.011240
 20
7.461244
 30
0.000000
  0
VERTEX
  8
LAYER-1
 10
2.011240
 20
7.461244
 30
0.000000
  0
VERTEX
  8
LAYER-1
 10
2.011240
 20
7.189615
 30
0.000000
  0
SEQEND
  8
LAYER-1
  0
POLYLINE
  8
LAYER-1
 66
  1
 70
  0
 62
  0
 10
1.972858
 20
7.461244
 30
0.000000
  0
VERTEX
  8
LAYER-1
 10
1.972858
 20
7.461244
 30
0.000000
  0
VERTEX
  8
LAYER-1
 10
1.972858
 20
7.189615
 30
0.000000
  0
SEQEND
  8
LAYER-1
  0
POLYLINE
  8
LAYER-1
 66
  1
 70
  0
 62
  0
 10
2.829079
 20
7.461713
 30
0.000000
  0
VERTEX
  8
LAYER-1
 10
2.829079
 20
7.461713
 30
0.000000
  0
VERTEX
  8
LAYER-1
 10
2.829079
 20
7.190085
 30
0.000000
  0
SEQEND
  8
LAYER-1
  0
POLYLINE
  8
LAYER-1
 66
  1
 70
  0
 62
  0
 10
2.790696
 20
7.461713
 30
0.000000
  0
VERTEX
  8
LAYER-1
 10
2.790696
 20
7.461713
 30
0.000000
  0
VERTEX
  8
LAYER-1
 10
2.790696
 20
7.190085
 30
0.000000
  0
SEQEND
  8
LAYER-1
  0
POLYLINE
  8
LAYER-1
 66
  1
 70
  0
 62
  0
 10
3.456130
 20
7.190010
 30
0.000000
  0
VERTEX
  8
LAYER-1
 10
3.456130
 20
7.190010
 30
0.000000
  0
VERTEX
  8
LAYER-1
 10
3.456130
 20
7.461639
 30
0.000000
  0
SEQEND
  8
LAYER-1
  0
POLYLINE
  8
LAYER-1
 66
  1
 70
  0
 62
  0
 10
3.420700
 20
7.461639
 30
0.000000
  0
VERTEX
  8
LAYER-1
 10
3.420700
 20
7.461639
 30
0.000000
  0
VERTEX
  8
LAYER-1
 10
3.420700
 20
7.190008
 30
0.000000
  0
SEQEND
  8
LAYER-1
  0
POLYLINE
  8
LAYER-1
 66
  1
 70
  0
 62
  0
 10
3.455226
 20
7.461639
 30
0.000000
  0
VERTEX
  8
LAYER-1
 10
3.455226
 20
7.461639
 30
0.000000
  0
VERTEX
  8
LAYER-1
 10
3.441349
 20
7.472577
 30
0.000000
  0
VERTEX
  8
LAYER-1
 10
3.426586
 20
7.470499
 30
0.000000
  0
VERTEX
  8
LAYER-1
 10
3.421671
 20
7.461650
 30
0.000000
  0
SEQEND
  8
LAYER-1
  0
POLYLINE
  8
LAYER-1
 66
  1
 70
  0
 62
  0
 10
3.420700
 20
7.461639
 30
0.000000
  0
VERTEX
  8
LAYER-1
 10
3.420700
 20
7.461639
 30
0.000000
  0
VERTEX
  8
LAYER-1
 10
3.403592
 20
7.472622
 30
0.000000
  0
VERTEX
  8
LAYER-1
 10
3.386512
 20
7.468291
 30
0.000000
  0
VERTEX
  8
LAYER-1
 10
3.383797
 20
7.461638
 30
0.000000
  0
SEQEND
  8
LAYER-1
  0
POLYLINE
  8
LAYER-1
 66
  1
 70
  0
 62
  0
 10
3.005145
 20
7.461145
 30
0.000000
  0
VERTEX
  8
LAYER-1
 10
3.005145
 20
7.461145
 30
0.000000
  0
VERTEX
  8
LAYER-1
 10
2.985640
 20
7.471137
 30
0.000000
  0
VERTEX
  8
LAYER-1
 10
2.967567
 20
7.464411
 30
0.000000
  0
VERTEX
  8
LAYER-1
 10
2.968237
 20
7.461144
 30
0.000000
  0
SEQEND
  8
LAYER-1
  0
POLYLINE
  8
LAYER-1
 66
  1
 70
  0
 62
  0
 10
2.192186
 20
7.461615
 30
0.000000
  0
VERTEX
  8
LAYER-1
 10
2.192186
 20
7.461615
 30
0.000000
  0
VERTEX
  8
LAYER-1
 10
2.172682
 20
7.471607
 30
0.000000
  0
VERTEX
  8
LAYER-1
 10
2.154608
 20
7.464881
 30
0.000000
  0
VERTEX
  8
LAYER-1
 10
2.155279
 20
7.461615
 30
0.000000
  0
SEQEND
  8
LAYER-1
  0
POLYLINE
  8
LAYER-1
 66
  1
 70
  0
 62
  0
 10
3.052854
 20
7.461146
 30
0.000000
  0
VERTEX
  8
LAYER-1
 10
3.052854
 20
7.461146
 30
0.000000
  0
VERTEX
  8
LAYER-1
 10
3.033350
 20
7.471138
 30
0.000000
  0
VERTEX
  8
LAYER-1
 10
3.015276
 20
7.464411
 30
0.000000
  0
VERTEX
  8
LAYER-1
 10
3.015946
 20
7.461145
 30
0.000000
  0
SEQEND
  8
LAYER-1
  0
POLYLINE
  8
LAYER-1
 66
  1
 70
  0
 62
  0
 10
3.030911
 20
7.461705
 30
0.000000
  0
VERTEX
  8
LAYER-1
 10
3.030911
 20
7.461705
 30
0.000000
  0
VERTEX
  8
LAYER-1
 10
3.020160
 20
7.474709
 30
0.000000
  0
VERTEX
  8
LAYER-1
 10
3.006144
 20
7.476303
 30
0.000000
  0
VERTEX
  8
LAYER-1
 10
2.995108
 20
7.467520
 30
0.000000
  0
VERTEX
  8
LAYER-1
 10
2.995483
 20
7.461705
 30
0.000000
  0
SEQEND
  8
LAYER-1
  0
POLYLINE
  8
LAYER-1
 66
  1
 70
  0
 62
  0
 10
3.030911
 20
7.461705
 30
0.000000
  0
VERTEX
  8
LAYER-1
 10
3.030911
 20
7.461705
 30
0.000000
  0
VERTEX
  8
LAYER-1
 10
2.995482
 20
7.461705
 30
0.000000
  0
SEQEND
  8
LAYER-1
  0
POLYLINE
  8
LAYER-1
 66
  1
 70
  0
 62
  0
 10
2.240836
 20
7.461616
 30
0.000000
  0
VERTEX
  8
LAYER-1
 10
2.240836
 20
7.461616
 30
0.000000
  0
VERTEX
  8
LAYER-1
 10
2.221332
 20
7.471608
 30
0.000000
  0
VERTEX
  8
LAYER-1
 10
2.203259
 20
7.464882
 30
0.000000
  0
VERTEX
  8
LAYER-1
 10
2.203929
 20
7.461615
 30
0.000000
  0
SEQEND
  8
LAYER-1
  0
POLYLINE
  8
LAYER-1
 66
  1
 70
  0
 62
  0
 10
2.214664
 20
7.461705
 30
0.000000
  0
VERTEX
  8
LAYER-1
 10
2.214664
 20
7.461705
 30
0.000000
  0
VERTEX
  8
LAYER-1
 10
2.203912
 20
7.474709
 30
0.000000
  0
VERTEX
  8
LAYER-1
 10
2.189897
 20
7.476303
 30
0.000000
  0
VERTEX
  8
LAYER-1
 10
2.178860
 20
7.467520
 30
0.000000
  0
VERTEX
  8
LAYER-1
 10
2.179235
 20
7.461705
 30
0.000000
  0
SEQEND
  8
LAYER-1
  0
POLYLINE
  8
LAYER-1
 66
  1
 70
  0
 62
  0
 10
2.214664
 20
7.461705
 30
0.000000
  0
VERTEX
  8
LAYER-1
 10
2.214664
 20
7.461705
 30
0.000000
  0
VERTEX
  8
LAYER-1
 10
2.179236
 20
7.461705
 30
0.000000
  0
SEQEND
  8
LAYER-1
  0
POLYLINE
  8
LAYER-1
 66
  1
 70
  0
 62
  0
 10
3.421976
 20
7.189423
 30
0.000000
  0
VERTEX
  8
LAYER-1
 10
3.421976
 20
7.189423
 30
0.000000
  0
VERTEX
  8
LAYER-1
 10
3.432212
 20
7.182828
 30
0.000000
  0
VERTEX
  8
LAYER-1
 10
3.446897
 20
7.185403
 30
0.000000
  0
VERTEX
  8
LAYER-1
 10
3.455196
 20
7.189983
 30
0.000000
  0
SEQEND
  8
LAYER-1
  0
POLYLINE
  8
LAYER-1
 66
  1
 70
  0
 62
  0
 10
3.421977
 20
7.189423
 30
0.000000
  0
VERTEX
  8
LAYER-1
 10
3.421977
 20
7.189423
 30
0.000000
  0
VERTEX
  8
LAYER-1
 10
3.455196
 20
7.189983
 30
0.000000
  0
SEQEND
  8
LAYER-1
  0
POLYLINE
  8
LAYER-1
 66
  1
 70
  0
 62
  0
 10
3.382864
 20
7.189984
 30
0.000000
  0
VERTEX
  8
LAYER-1
 10
3.382864
 20
7.189984
 30
0.000000
  0
VERTEX
  8
LAYER-1
 10
3.396035
 20
7.182937
 30
0.000000
  0
VERTEX
  8
LAYER-1
 10
3.413115
 20
7.187268
 30
0.000000
  0
VERTEX
  8
LAYER-1
 10
3.419768
 20
7.189983
 30
0.000000
  0
SEQEND
  8
LAYER-1
  0
POLYLINE
  8
LAYER-1
 66
  1
 70
  0
 62
  0
 10
3.382864
 20
7.189984
 30
0.000000
  0
VERTEX
  8
LAYER-1
 10
3.382864
 20
7.189984
 30
0.000000
  0
VERTEX
  8
LAYER-1
 10
3.419767
 20
7.189983
 30
0.000000
  0
SEQEND
  8
LAYER-1
  0
POLYLINE
  8
LAYER-1
 66
  1
 70
  0
 62
  0
 10
3.016020
 20
7.189537
 30
0.000000
  0
VERTEX
  8
LAYER-1
 10
3.016020
 20
7.189537
 30
0.000000
  0
VERTEX
  8
LAYER-1
 10
3.031587
 20
7.183482
 30
0.000000
  0
VERTEX
  8
LAYER-1
 10
3.049661
 20
7.190208
 30
0.000000
  0
VERTEX
  8
LAYER-1
 10
3.052928
 20
7.189536
 30
0.000000
  0
SEQEND
  8
LAYER-1
  0
POLYLINE
  8
LAYER-1
 66
  1
 70
  0
 62
  0
 10
2.968779
 20
7.189537
 30
0.000000
  0
VERTEX
  8
LAYER-1
 10
2.968779
 20
7.189537
 30
0.000000
  0
VERTEX
  8
LAYER-1
 10
2.984347
 20
7.183482
 30
0.000000
  0
VERTEX
  8
LAYER-1
 10
3.002420
 20
7.190208
 30
0.000000
  0
VERTEX
  8
LAYER-1
 10
3.005687
 20
7.189536
 30
0.000000
  0
SEQEND
  8
LAYER-1
  0
POLYLINE
  8
LAYER-1
 66
  1
 70
  0
 62
  0
 10
2.996025
 20
7.189447
 30
0.000000
  0
VERTEX
  8
LAYER-1
 10
2.996025
 20
7.189447
 30
0.000000
  0
VERTEX
  8
LAYER-1
 10
3.002840
 20
7.180379
 30
0.000000
  0
VERTEX
  8
LAYER-1
 10
3.016855
 20
7.178786
 30
0.000000
  0
VERTEX
  8
LAYER-1
 10
3.027892
 20
7.187569
 30
0.000000
  0
VERTEX
  8
LAYER-1
 10
3.031454
 20
7.189447
 30
0.000000
  0
SEQEND
  8
LAYER-1
  0
POLYLINE
  8
LAYER-1
 66
  1
 70
  0
 62
  0
 10
3.031454
 20
7.189447
 30
0.000000
  0
VERTEX
  8
LAYER-1
 10
3.031454
 20
7.189447
 30
0.000000
  0
VERTEX
  8
LAYER-1
 10
2.996025
 20
7.189447
 30
0.000000
  0
SEQEND
  8
LAYER-1
  0
POLYLINE
  8
LAYER-1
 66
  1
 70
  0
 62
  0
 10
2.203466
 20
7.189537
 30
0.000000
  0
VERTEX
  8
LAYER-1
 10
2.203466
 20
7.189537
 30
0.000000
  0
VERTEX
  8
LAYER-1
 10
2.219032
 20
7.183482
 30
0.000000
  0
VERTEX
  8
LAYER-1
 10
2.237106
 20
7.190208
 30
0.000000
  0
VERTEX
  8
LAYER-1
 10
2.240373
 20
7.189536
 30
0.000000
  0
SEQEND
  8
LAYER-1
  0
POLYLINE
  8
LAYER-1
 66
  1
 70
  0
 62
  0
 10
2.155286
 20
7.189537
 30
0.000000
  0
VERTEX
  8
LAYER-1
 10
2.155286
 20
7.189537
 30
0.000000
  0
VERTEX
  8
LAYER-1
 10
2.170853
 20
7.183482
 30
0.000000
  0
VERTEX
  8
LAYER-1
 10
2.188926
 20
7.190208
 30
0.000000
  0
VERTEX
  8
LAYER-1
 10
2.192193
 20
7.189536
 30
0.000000
  0
SEQEND
  8
LAYER-1
  0
POLYLINE
  8
LAYER-1
 66
  1
 70
  0
 62
  0
 10
2.179241
 20
7.189447
 30
0.000000
  0
VERTEX
  8
LAYER-1
 10
2.179241
 20
7.189447
 30
0.000000
  0
VERTEX
  8
LAYER-1
 10
2.186056
 20
7.180379
 30
0.000000
  0
VERTEX
  8
LAYER-1
 10
2.200072
 20
7.178786
 30
0.000000
  0
VERTEX
  8
LAYER-1
 10
2.211108
 20
7.187569
 30
0.000000
  0
VERTEX
  8
LAYER-1
 10
2.214670
 20
7.189447
 30
0.000000
  0
SEQEND
  8
LAYER-1
  0
POLYLINE
  8
LAYER-1
 66
  1
 70
  0
 62
  0
 10
2.214670
 20
7.189447
 30
0.000000
  0
VERTEX
  8
LAYER-1
 10
2.214670
 20
7.189447
 30
0.000000
  0
VERTEX
  8
LAYER-1
 10
2.179242
 20
7.189447
 30
0.000000
  0
SEQEND
  8
LAYER-1
  0
POLYLINE
  8
LAYER-1
 66
  1
 70
  1
 62
  0
  0
VERTEX
  8
LAYER-1
 10
2.995481
 20
7.461638
 30
0.000000
  0
VERTEX
  8
LAYER-1
 10
3.030911
 20
7.461638
 30
0.000000
  0
VERTEX
  8
LAYER-1
 10
3.030911
 20
7.190009
 30
0.000000
  0
VERTEX
  8
LAYER-1
 10
2.995481
 20
7.190009
 30
0.000000
  0
SEQEND
  8
LAYER-1
  0
POLYLINE
  8
LAYER-1
 66
  1
 70
  1
 62
  0
  0
VERTEX
  8
LAYER-1
 10
2.179167
 20
7.461638
 30
0.000000
  0
VERTEX
  8
LAYER-1
 10
2.214598
 20
7.461638
 30
0.000000
  0
VERTEX
  8
LAYER-1
 10
2.214598
 20
7.190009
 30
0.000000
  0
VERTEX
  8
LAYER-1
 10
2.179167
 20
7.190009
 30
0.000000
  0
SEQEND
  8
LAYER-1
  0
POLYLINE
  8
LAYER-1
 66
  1
 70
  0
 62
  0
 10
3.030911
 20
7.393731
 30
0.000000
  0
VERTEX
  8
LAYER-1
 10
3.030911
 20
7.393731
 30
0.000000
  0
VERTEX
  8
LAYER-1
 10
2.995481
 20
7.393731
 30
0.000000
  0
SEQEND
  8
LAYER-1
  0
POLYLINE
  8
LAYER-1
 66
  1
 70
  0
 62
  0
 10
3.030911
 20
7.263822
 30
0.000000
  0
VERTEX
  8
LAYER-1
 10
3.030911
 20
7.263822
 30
0.000000
  0
VERTEX
  8
LAYER-1
 10
2.995481
 20
7.263822
 30
0.000000
  0
SEQEND
  8
LAYER-1
  0
POLYLINE
  8
LAYER-1
 66
  1
 70
  0
 62
  0
 10
2.214598
 20
7.393731
 30
0.000000
  0
VERTEX
  8
LAYER-1
 10
2.214598
 20
7.393731
 30
0.000000
  0
VERTEX
  8
LAYER-1
 10
2.179169
 20
7.393731
 30
0.000000
  0
SEQEND
  8
LAYER-1
  0
POLYLINE
  8
LAYER-1
 66
  1
 70
  0
 62
  0
 10
2.214598
 20
7.263821
 30
0.000000
  0
VERTEX
  8
LAYER-1
 10
2.214598
 20
7.263821
 30
0.000000
  0
VERTEX
  8
LAYER-1
 10
2.179169
 20
7.263821
 30
0.000000
  0
SEQEND
  8
LAYER-1
  0
POLYLINE
  8
LAYER-1
 66
  1
 70
  0
 62
  0
 10
3.233243
 20
7.461195
 30
0.000000
  0
VERTEX
  8
LAYER-1
 10
3.233243
 20
7.461195
 30
0.000000
  0
VERTEX
  8
LAYER-1
 10
3.219366
 20
7.472132
 30
0.000000
  0
VERTEX
  8
LAYER-1
 10
3.204603
 20
7.470054
 30
0.000000
  0
VERTEX
  8
LAYER-1
 10
3.200024
 20
7.461755
 30
0.000000
  0
SEQEND
  8
LAYER-1
  0
POLYLINE
  8
LAYER-1
 66
  1
 70
  0
 62
  0
 10
2.419749
 20
7.461577
 30
0.000000
  0
VERTEX
  8
LAYER-1
 10
2.419749
 20
7.461577
 30
0.000000
  0
VERTEX
  8
LAYER-1
 10
2.402640
 20
7.472560
 30
0.000000
  0
VERTEX
  8
LAYER-1
 10
2.385561
 20
7.468229
 30
0.000000
  0
VERTEX
  8
LAYER-1
 10
2.382845
 20
7.461577
 30
0.000000
  0
SEQEND
  8
LAYER-1
  0
POLYLINE
  8
LAYER-1
 66
  1
 70
  0
 62
  0
 10
2.606945
 20
7.189420
 30
0.000000
  0
VERTEX
  8
LAYER-1
 10
2.606945
 20
7.189420
 30
0.000000
  0
VERTEX
  8
LAYER-1
 10
2.617181
 20
7.182826
 30
0.000000
  0
VERTEX
  8
LAYER-1
 10
2.631865
 20
7.185401
 30
0.000000
  0
VERTEX
  8
LAYER-1
 10
2.640164
 20
7.189980
 30
0.000000
  0
SEQEND
  8
LAYER-1
  0
POLYLINE
  8
LAYER-1
 66
  1
 70
  0
 62
  0
 10
2.606945
 20
7.189420
 30
0.000000
  0
VERTEX
  8
LAYER-1
 10
2.606945
 20
7.189420
 30
0.000000
  0
VERTEX
  8
LAYER-1
 10
2.640164
 20
7.189980
 30
0.000000
  0
SEQEND
  8
LAYER-1
  0
POLYLINE
  8
LAYER-1
 66
  1
 70
  0
 62
  0
 10
2.567832
 20
7.189981
 30
0.000000
  0
VERTEX
  8
LAYER-1
 10
2.567832
 20
7.189981
 30
0.000000
  0
VERTEX
  8
LAYER-1
 10
2.581003
 20
7.182934
 30
0.000000
  0
VERTEX
  8
LAYER-1
 10
2.598084
 20
7.187265
 30
0.000000
  0
VERTEX
  8
LAYER-1
 10
2.604736
 20
7.189980
 30
0.000000
  0
SEQEND
  8
LAYER-1
  0
POLYLINE
  8
LAYER-1
 66
  1
 70
  0
 62
  0
 10
2.567833
 20
7.189981
 30
0.000000
  0
VERTEX
  8
LAYER-1
 10
2.567833
 20
7.189981
 30
0.000000
  0
VERTEX
  8
LAYER-1
 10
2.604736
 20
7.189980
 30
0.000000
  0
SEQEND
  8
LAYER-1
  0
POLYLINE
  8
LAYER-1
 66
  1
 70
  0
 62
  0
 10
2.569004
 20
7.461638
 30
0.000000
  0
VERTEX
  8
LAYER-1
 10
2.569004
 20
7.461638
 30
0.000000
  0
VERTEX
  8
LAYER-1
 10
2.569004
 20
7.190006
 30
0.000000
  0
SEQEND
  8
LAYER-1
  0
POLYLINE
  8
LAYER-1
 66
  1
 70
  0
 62
  0
 10
2.641338
 20
7.190010
 30
0.000000
  0
VERTEX
  8
LAYER-1
 10
2.641338
 20
7.190010
 30
0.000000
  0
VERTEX
  8
LAYER-1
 10
2.641338
 20
7.461639
 30
0.000000
  0
SEQEND
  8
LAYER-1
  0
POLYLINE
  8
LAYER-1
 66
  1
 70
  0
 62
  0
 10
2.605908
 20
7.461639
 30
0.000000
  0
VERTEX
  8
LAYER-1
 10
2.605908
 20
7.461639
 30
0.000000
  0
VERTEX
  8
LAYER-1
 10
2.605908
 20
7.190008
 30
0.000000
  0
SEQEND
  8
LAYER-1
  0
POLYLINE
  8
LAYER-1
 66
  1
 70
  0
 62
  0
 10
2.641033
 20
7.461497
 30
0.000000
  0
VERTEX
  8
LAYER-1
 10
2.641033
 20
7.461497
 30
0.000000
  0
VERTEX
  8
LAYER-1
 10
2.627156
 20
7.472435
 30
0.000000
  0
VERTEX
  8
LAYER-1
 10
2.612393
 20
7.470357
 30
0.000000
  0
VERTEX
  8
LAYER-1
 10
2.607813
 20
7.462057
 30
0.000000
  0
SEQEND
  8
LAYER-1
  0
POLYLINE
  8
LAYER-1
 66
  1
 70
  0
 62
  0
 10
2.607814
 20
7.462057
 30
0.000000
  0
VERTEX
  8
LAYER-1
 10
2.607814
 20
7.462057
 30
0.000000
  0
VERTEX
  8
LAYER-1
 10
2.641033
 20
7.461497
 30
0.000000
  0
SEQEND
  8
LAYER-1
  0
POLYLINE
  8
LAYER-1
 66
  1
 70
  0
 62
  0
 10
2.605605
 20
7.461497
 30
0.000000
  0
VERTEX
  8
LAYER-1
 10
2.605605
 20
7.461497
 30
0.000000
  0
VERTEX
  8
LAYER-1
 10
2.588496
 20
7.472480
 30
0.000000
  0
VERTEX
  8
LAYER-1
 10
2.571416
 20
7.468149
 30
0.000000
  0
VERTEX
  8
LAYER-1
 10
2.568701
 20
7.461496
 30
0.000000
  0
SEQEND
  8
LAYER-1
  0
POLYLINE
  8
LAYER-1
 66
  1
 70
  0
 62
  0
 10
2.568701
 20
7.461496
 30
0.000000
  0
VERTEX
  8
LAYER-1
 10
2.568701
 20
7.461496
 30
0.000000
  0
VERTEX
  8
LAYER-1
 10
2.605604
 20
7.461497
 30
0.000000
  0
SEQEND
  8
LAYER-1
  0
POLYLINE
  8
LAYER-1
 66
  1
 70
  0
 62
  0
 10
1.786945
 20
7.189420
 30
0.000000
  0
VERTEX
  8
LAYER-1
 10
1.786945
 20
7.189420
 30
0.000000
  0
VERTEX
  8
LAYER-1
 10
1.797181
 20
7.182826
 30
0.000000
  0
VERTEX
  8
LAYER-1
 10
1.811865
 20
7.185401
 30
0.000000
  0
VERTEX
  8
LAYER-1
 10
1.820165
 20
7.189980
 30
0.000000
  0
SEQEND
  8
LAYER-1
  0
POLYLINE
  8
LAYER-1
 66
  1
 70
  0
 62
  0
 10
1.786945
 20
7.189420
 30
0.000000
  0
VERTEX
  8
LAYER-1
 10
1.786945
 20
7.189420
 30
0.000000
  0
VERTEX
  8
LAYER-1
 10
1.820164
 20
7.189980
 30
0.000000
  0
SEQEND
  8
LAYER-1
  0
POLYLINE
  8
LAYER-1
 66
  1
 70
  0
 62
  0
 10
1.747832
 20
7.189981
 30
0.000000
  0
VERTEX
  8
LAYER-1
 10
1.747832
 20
7.189981
 30
0.000000
  0
VERTEX
  8
LAYER-1
 10
1.761003
 20
7.182934
 30
0.000000
  0
VERTEX
  8
LAYER-1
 10
1.778084
 20
7.187265
 30
0.000000
  0
VERTEX
  8
LAYER-1
 10
1.784736
 20
7.189980
 30
0.000000
  0
SEQEND
  8
LAYER-1
  0
POLYLINE
  8
LAYER-1
 66
  1
 70
  0
 62
  0
 10
1.747833
 20
7.189981
 30
0.000000
  0
VERTEX
  8
LAYER-1
 10
1.747833
 20
7.189981
 30
0.000000
  0
VERTEX
  8
LAYER-1
 10
1.784735
 20
7.189980
 30
0.000000
  0
SEQEND
  8
LAYER-1
  0
POLYLINE
  8
LAYER-1
 66
  1
 70
  0
 62
  0
 10
1.749004
 20
7.461638
 30
0.000000
  0
VERTEX
  8
LAYER-1
 10
1.749004
 20
7.461638
 30
0.000000
  0
VERTEX
  8
LAYER-1
 10
1.749004
 20
7.190006
 30
0.000000
  0
SEQEND
  8
LAYER-1
  0
POLYLINE
  8
LAYER-1
 66
  1
 70
  0
 62
  0
 10
1.821337
 20
7.190010
 30
0.000000
  0
VERTEX
  8
LAYER-1
 10
1.821337
 20
7.190010
 30
0.000000
  0
VERTEX
  8
LAYER-1
 10
1.821337
 20
7.461639
 30
0.000000
  0
SEQEND
  8
LAYER-1
  0
POLYLINE
  8
LAYER-1
 66
  1
 70
  0
 62
  0
 10
1.785908
 20
7.461639
 30
0.000000
  0
VERTEX
  8
LAYER-1
 10
1.785908
 20
7.461639
 30
0.000000
  0
VERTEX
  8
LAYER-1
 10
1.785908
 20
7.190008
 30
0.000000
  0
SEQEND
  8
LAYER-1
  0
POLYLINE
  8
LAYER-1
 66
  1
 70
  0
 62
  0
 10
1.821033
 20
7.461497
 30
0.000000
  0
VERTEX
  8
LAYER-1
 10
1.821033
 20
7.461497
 30
0.000000
  0
VERTEX
  8
LAYER-1
 10
1.807156
 20
7.472435
 30
0.000000
  0
VERTEX
  8
LAYER-1
 10
1.792393
 20
7.470357
 30
0.000000
  0
VERTEX
  8
LAYER-1
 10
1.787813
 20
7.462057
 30
0.000000
  0
SEQEND
  8
LAYER-1
  0
POLYLINE
  8
LAYER-1
 66
  1
 70
  0
 62
  0
 10
1.787814
 20
7.462057
 30
0.000000
  0
VERTEX
  8
LAYER-1
 10
1.787814
 20
7.462057
 30
0.000000
  0
VERTEX
  8
LAYER-1
 10
1.821033
 20
7.461497
 30
0.000000
  0
SEQEND
  8
LAYER-1
  0
POLYLINE
  8
LAYER-1
 66
  1
 70
  0
 62
  0
 10
1.785605
 20
7.461497
 30
0.000000
  0
VERTEX
  8
LAYER-1
 10
1.785605
 20
7.461497
 30
0.000000
  0
VERTEX
  8
LAYER-1
 10
1.768496
 20
7.472480
 30
0.000000
  0
VERTEX
  8
LAYER-1
 10
1.751416
 20
7.468149
 30
0.000000
  0
VERTEX
  8
LAYER-1
 10
1.748701
 20
7.461496
 30
0.000000
  0
SEQEND
  8
LAYER-1
  0
POLYLINE
  8
LAYER-1
 66
  1
 70
  0
 62
  0
 10
1.748701
 20
7.461496
 30
0.000000
  0
VERTEX
  8
LAYER-1
 10
1.748701
 20
7.461496
 30
0.000000
  0
VERTEX
  8
LAYER-1
 10
1.785604
 20
7.461497
 30
0.000000
  0
SEQEND
  8
LAYER-1
  0
POLYLINE
  8
LAYER-1
 66
  1
 70
  0
 62
  0
 10
3.645304
 20
7.393731
 30
0.000000
  0
VERTEX
  8
LAYER-1
 10
3.645304
 20
7.393731
 30
0.000000
  0
VERTEX
  8
LAYER-1
 10
3.605578
 20
7.393731
 30
0.000000
  0
SEQEND
  8
LAYER-1
  0
POLYLINE
  8
LAYER-1
 66
  1
 70
  0
 62
  0
 10
3.645304
 20
7.263821
 30
0.000000
  0
VERTEX
  8
LAYER-1
 10
3.645304
 20
7.263821
 30
0.000000
  0
VERTEX
  8
LAYER-1
 10
3.605578
 20
7.263821
 30
0.000000
  0
SEQEND
  8
LAYER-1
  0
POLYLINE
  8
LAYER-1
 66
  1
 70
  0
 62
  0
 10
3.643852
 20
7.466785
 30
0.000000
  0
VERTEX
  8
LAYER-1
 10
3.643852
 20
7.466785
 30
0.000000
  0
VERTEX
  8
LAYER-1
 10
3.626743
 20
7.477768
 30
0.000000
  0
VERTEX
  8
LAYER-1
 10
3.609664
 20
7.473436
 30
0.000000
  0
VERTEX
  8
LAYER-1
 10
3.606948
 20
7.466783
 30
0.000000
  0
SEQEND
  8
LAYER-1
  0
POLYLINE
  8
LAYER-1
 66
  1
 70
  1
 62
  0
  0
VERTEX
  8
LAYER-1
 10
3.596439
 20
7.467406
 30
0.000000
  0
VERTEX
  8
LAYER-1
 10
3.651055
 20
7.467406
 30
0.000000
  0
VERTEX
  8
LAYER-1
 10
3.651055
 20
7.461501
 30
0.000000
  0
VERTEX
  8
LAYER-1
 10
3.596439
 20
7.461501
 30
0.000000
  0
SEQEND
  8
LAYER-1
  0
POLYLINE
  8
LAYER-1
 66
  1
 70
  0
 62
  0
 10
3.605144
 20
7.461636
 30
0.000000
  0
VERTEX
  8
LAYER-1
 10
3.605144
 20
7.461636
 30
0.000000
  0
VERTEX
  8
LAYER-1
 10
3.605144
 20
7.189888
 30
0.000000
  0
SEQEND
  8
LAYER-1
  0
POLYLINE
  8
LAYER-1
 66
  1
 70
  0
 62
  0
 10
3.605154
 20
0.613503
 30
0.000000
  0
VERTEX
  8
LAYER-1
 10
3.605154
 20
0.613503
 30
0.000000
  0
VERTEX
  8
LAYER-1
 10
3.605154
 20
0.341802
 30
0.000000
  0
SEQEND
  8
LAYER-1
  0
POLYLINE
  8
LAYER-1
 66
  1
 70
  0
 62
  0
 10
3.384235
 20
0.341364
 30
0.000000
  0
VERTEX
  8
LAYER-1
 10
3.384235
 20
0.341364
 30
0.000000
  0
VERTEX
  8
LAYER-1
 10
3.384235
 20
0.612996
 30
0.000000
  0
SEQEND
  8
LAYER-1
  0
POLYLINE
  8
LAYER-1
 66
  1
 70
  0
 62
  0
 10
3.053737
 20
0.612996
 30
0.000000
  0
VERTEX
  8
LAYER-1
 10
3.053737
 20
0.612996
 30
0.000000
  0
VERTEX
  8
LAYER-1
 10
3.053737
 20
0.341364
 30
0.000000
  0
SEQEND
  8
LAYER-1
  0
POLYLINE
  8
LAYER-1
 66
  1
 70
  0
 62
  0
 10
2.240906
 20
0.612996
 30
0.000000
  0
VERTEX
  8
LAYER-1
 10
2.240906
 20
0.612996
 30
0.000000
  0
VERTEX
  8
LAYER-1
 10
2.240906
 20
0.341364
 30
0.000000
  0
SEQEND
  8
LAYER-1
  0
POLYLINE
  8
LAYER-1
 66
  1
 70
  0
 62
  0
 10
2.422073
 20
0.341325
 30
0.000000
  0
VERTEX
  8
LAYER-1
 10
2.422073
 20
0.341325
 30
0.000000
  0
VERTEX
  8
LAYER-1
 10
2.422073
 20
0.612953
 30
0.000000
  0
SEQEND
  8
LAYER-1
  0
POLYLINE
  8
LAYER-1
 66
  1
 70
  0
 62
  0
 10
2.382214
 20
0.341325
 30
0.000000
  0
VERTEX
  8
LAYER-1
 10
2.382214
 20
0.341325
 30
0.000000
  0
VERTEX
  8
LAYER-1
 10
2.382214
 20
0.612953
 30
0.000000
  0
SEQEND
  8
LAYER-1
  0
POLYLINE
  8
LAYER-1
 66
  1
 70
  0
 62
  0
 10
3.236091
 20
0.341325
 30
0.000000
  0
VERTEX
  8
LAYER-1
 10
3.236091
 20
0.341325
 30
0.000000
  0
VERTEX
  8
LAYER-1
 10
3.236091
 20
0.612953
 30
0.000000
  0
SEQEND
  8
LAYER-1
  0
POLYLINE
  8
LAYER-1
 66
  1
 70
  0
 62
  0
 10
3.197275
 20
0.341325
 30
0.000000
  0
VERTEX
  8
LAYER-1
 10
3.197275
 20
0.341325
 30
0.000000
  0
VERTEX
  8
LAYER-1
 10
3.197275
 20
0.612953
 30
0.000000
  0
SEQEND
  8
LAYER-1
  0
POLYLINE
  8
LAYER-1
 66
  1
 70
  0
 62
  0
 10
2.969415
 20
0.341364
 30
0.000000
  0
VERTEX
  8
LAYER-1
 10
2.969415
 20
0.341364
 30
0.000000
  0
VERTEX
  8
LAYER-1
 10
2.969415
 20
0.612996
 30
0.000000
  0
SEQEND
  8
LAYER-1
  0
POLYLINE
  8
LAYER-1
 66
  1
 70
  0
 62
  0
 10
2.156584
 20
0.341364
 30
0.000000
  0
VERTEX
  8
LAYER-1
 10
2.156584
 20
0.341364
 30
0.000000
  0
VERTEX
  8
LAYER-1
 10
2.156584
 20
0.612996
 30
0.000000
  0
SEQEND
  8
LAYER-1
  0
POLYLINE
  8
LAYER-1
 66
  1
 70
  0
 62
  0
 10
2.011679
 20
0.341758
 30
0.000000
  0
VERTEX
  8
LAYER-1
 10
2.011679
 20
0.341758
 30
0.000000
  0
VERTEX
  8
LAYER-1
 10
2.011679
 20
0.613386
 30
0.000000
  0
SEQEND
  8
LAYER-1
  0
POLYLINE
  8
LAYER-1
 66
  1
 70
  0
 62
  0
 10
1.973297
 20
0.341758
 30
0.000000
  0
VERTEX
  8
LAYER-1
 10
1.973297
 20
0.341758
 30
0.000000
  0
VERTEX
  8
LAYER-1
 10
1.973297
 20
0.613386
 30
0.000000
  0
SEQEND
  8
LAYER-1
  0
POLYLINE
  8
LAYER-1
 66
  1
 70
  0
 62
  0
 10
2.829518
 20
0.341289
 30
0.000000
  0
VERTEX
  8
LAYER-1
 10
2.829518
 20
0.341289
 30
0.000000
  0
VERTEX
  8
LAYER-1
 10
2.829518
 20
0.612917
 30
0.000000
  0
SEQEND
  8
LAYER-1
  0
POLYLINE
  8
LAYER-1
 66
  1
 70
  0
 62
  0
 10
2.791135
 20
0.341289
 30
0.000000
  0
VERTEX
  8
LAYER-1
 10
2.791135
 20
0.341289
 30
0.000000
  0
VERTEX
  8
LAYER-1
 10
2.791135
 20
0.612917
 30
0.000000
  0
SEQEND
  8
LAYER-1
  0
POLYLINE
  8
LAYER-1
 66
  1
 70
  0
 62
  0
 10
3.456568
 20
0.612991
 30
0.000000
  0
VERTEX
  8
LAYER-1
 10
3.456568
 20
0.612991
 30
0.000000
  0
VERTEX
  8
LAYER-1
 10
3.456568
 20
0.341363
 30
0.000000
  0
SEQEND
  8
LAYER-1
  0
POLYLINE
  8
LAYER-1
 66
  1
 70
  0
 62
  0
 10
3.421138
 20
0.341363
 30
0.000000
  0
VERTEX
  8
LAYER-1
 10
3.421138
 20
0.341363
 30
0.000000
  0
VERTEX
  8
LAYER-1
 10
3.421138
 20
0.612994
 30
0.000000
  0
SEQEND
  8
LAYER-1
  0
POLYLINE
  8
LAYER-1
 66
  1
 70
  0
 62
  0
 10
3.422109
 20
0.341352
 30
0.000000
  0
VERTEX
  8
LAYER-1
 10
3.422109
 20
0.341352
 30
0.000000
  0
VERTEX
  8
LAYER-1
 10
3.432056
 20
0.334359
 30
0.000000
  0
VERTEX
  8
LAYER-1
 10
3.446817
 20
0.336448
 30
0.000000
  0
VERTEX
  8
LAYER-1
 10
3.455665
 20
0.341363
 30
0.000000
  0
SEQEND
  8
LAYER-1
  0
POLYLINE
  8
LAYER-1
 66
  1
 70
  0
 62
  0
 10
3.384236
 20
0.341364
 30
0.000000
  0
VERTEX
  8
LAYER-1
 10
3.384236
 20
0.341364
 30
0.000000
  0
VERTEX
  8
LAYER-1
 10
3.397406
 20
0.334317
 30
0.000000
  0
VERTEX
  8
LAYER-1
 10
3.414487
 20
0.338648
 30
0.000000
  0
VERTEX
  8
LAYER-1
 10
3.421138
 20
0.341363
 30
0.000000
  0
SEQEND
  8
LAYER-1
  0
POLYLINE
  8
LAYER-1
 66
  1
 70
  0
 62
  0
 10
2.968676
 20
0.341857
 30
0.000000
  0
VERTEX
  8
LAYER-1
 10
2.968676
 20
0.341857
 30
0.000000
  0
VERTEX
  8
LAYER-1
 10
2.984243
 20
0.335802
 30
0.000000
  0
VERTEX
  8
LAYER-1
 10
3.002316
 20
0.342527
 30
0.000000
  0
VERTEX
  8
LAYER-1
 10
3.005583
 20
0.341857
 30
0.000000
  0
SEQEND
  8
LAYER-1
  0
POLYLINE
  8
LAYER-1
 66
  1
 70
  0
 62
  0
 10
2.155717
 20
0.341387
 30
0.000000
  0
VERTEX
  8
LAYER-1
 10
2.155717
 20
0.341387
 30
0.000000
  0
VERTEX
  8
LAYER-1
 10
2.171285
 20
0.335331
 30
0.000000
  0
VERTEX
  8
LAYER-1
 10
2.189358
 20
0.342057
 30
0.000000
  0
VERTEX
  8
LAYER-1
 10
2.192625
 20
0.341387
 30
0.000000
  0
SEQEND
  8
LAYER-1
  0
POLYLINE
  8
LAYER-1
 66
  1
 70
  0
 62
  0
 10
3.016385
 20
0.341857
 30
0.000000
  0
VERTEX
  8
LAYER-1
 10
3.016385
 20
0.341857
 30
0.000000
  0
VERTEX
  8
LAYER-1
 10
3.031952
 20
0.335802
 30
0.000000
  0
VERTEX
  8
LAYER-1
 10
3.050026
 20
0.342527
 30
0.000000
  0
VERTEX
  8
LAYER-1
 10
3.053293
 20
0.341856
 30
0.000000
  0
SEQEND
  8
LAYER-1
  0
POLYLINE
  8
LAYER-1
 66
  1
 70
  0
 62
  0
 10
2.995921
 20
0.341298
 30
0.000000
  0
VERTEX
  8
LAYER-1
 10
2.995921
 20
0.341298
 30
0.000000
  0
VERTEX
  8
LAYER-1
 10
3.002736
 20
0.332229
 30
0.000000
  0
VERTEX
  8
LAYER-1
 10
3.016751
 20
0.330635
 30
0.000000
  0
VERTEX
  8
LAYER-1
 10
3.027788
 20
0.339418
 30
0.000000
  0
VERTEX
  8
LAYER-1
 10
3.031350
 20
0.341298
 30
0.000000
  0
SEQEND
  8
LAYER-1
  0
POLYLINE
  8
LAYER-1
 66
  1
 70
  0
 62
  0
 10
3.031350
 20
0.341298
 30
0.000000
  0
VERTEX
  8
LAYER-1
 10
3.031350
 20
0.341298
 30
0.000000
  0
VERTEX
  8
LAYER-1
 10
2.995921
 20
0.341298
 30
0.000000
  0
SEQEND
  8
LAYER-1
  0
POLYLINE
  8
LAYER-1
 66
  1
 70
  0
 62
  0
 10
2.204368
 20
0.341387
 30
0.000000
  0
VERTEX
  8
LAYER-1
 10
2.204368
 20
0.341387
 30
0.000000
  0
VERTEX
  8
LAYER-1
 10
2.219935
 20
0.335331
 30
0.000000
  0
VERTEX
  8
LAYER-1
 10
2.238008
 20
0.342057
 30
0.000000
  0
VERTEX
  8
LAYER-1
 10
2.241275
 20
0.341386
 30
0.000000
  0
SEQEND
  8
LAYER-1
  0
POLYLINE
  8
LAYER-1
 66
  1
 70
  0
 62
  0
 10
2.179674
 20
0.341298
 30
0.000000
  0
VERTEX
  8
LAYER-1
 10
2.179674
 20
0.341298
 30
0.000000
  0
VERTEX
  8
LAYER-1
 10
2.186489
 20
0.332229
 30
0.000000
  0
VERTEX
  8
LAYER-1
 10
2.200504
 20
0.330635
 30
0.000000
  0
VERTEX
  8
LAYER-1
 10
2.211541
 20
0.339418
 30
0.000000
  0
VERTEX
  8
LAYER-1
 10
2.215103
 20
0.341298
 30
0.000000
  0
SEQEND
  8
LAYER-1
  0
POLYLINE
  8
LAYER-1
 66
  1
 70
  0
 62
  0
 10
2.215103
 20
0.341298
 30
0.000000
  0
VERTEX
  8
LAYER-1
 10
2.215103
 20
0.341298
 30
0.000000
  0
VERTEX
  8
LAYER-1
 10
2.179674
 20
0.341298
 30
0.000000
  0
SEQEND
  8
LAYER-1
  0
POLYLINE
  8
LAYER-1
 66
  1
 70
  0
 62
  0
 10
3.455635
 20
0.613019
 30
0.000000
  0
VERTEX
  8
LAYER-1
 10
3.455635
 20
0.613019
 30
0.000000
  0
VERTEX
  8
LAYER-1
 10
3.441758
 20
0.623956
 30
0.000000
  0
VERTEX
  8
LAYER-1
 10
3.426995
 20
0.621879
 30
0.000000
  0
VERTEX
  8
LAYER-1
 10
3.422415
 20
0.613579
 30
0.000000
  0
SEQEND
  8
LAYER-1
  0
POLYLINE
  8
LAYER-1
 66
  1
 70
  0
 62
  0
 10
3.422415
 20
0.613580
 30
0.000000
  0
VERTEX
  8
LAYER-1
 10
3.422415
 20
0.613580
 30
0.000000
  0
VERTEX
  8
LAYER-1
 10
3.455635
 20
0.613019
 30
0.000000
  0
SEQEND
  8
LAYER-1
  0
POLYLINE
  8
LAYER-1
 66
  1
 70
  0
 62
  0
 10
3.420206
 20
0.613018
 30
0.000000
  0
VERTEX
  8
LAYER-1
 10
3.420206
 20
0.613018
 30
0.000000
  0
VERTEX
  8
LAYER-1
 10
3.403098
 20
0.624002
 30
0.000000
  0
VERTEX
  8
LAYER-1
 10
3.386018
 20
0.619670
 30
0.000000
  0
VERTEX
  8
LAYER-1
 10
3.383302
 20
0.613018
 30
0.000000
  0
SEQEND
  8
LAYER-1
  0
POLYLINE
  8
LAYER-1
 66
  1
 70
  0
 62
  0
 10
3.383303
 20
0.613018
 30
0.000000
  0
VERTEX
  8
LAYER-1
 10
3.383303
 20
0.613018
 30
0.000000
  0
VERTEX
  8
LAYER-1
 10
3.420206
 20
0.613019
 30
0.000000
  0
SEQEND
  8
LAYER-1
  0
POLYLINE
  8
LAYER-1
 66
  1
 70
  0
 62
  0
 10
3.053367
 20
0.613465
 30
0.000000
  0
VERTEX
  8
LAYER-1
 10
3.053367
 20
0.613465
 30
0.000000
  0
VERTEX
  8
LAYER-1
 10
3.033862
 20
0.623457
 30
0.000000
  0
VERTEX
  8
LAYER-1
 10
3.015789
 20
0.616731
 30
0.000000
  0
VERTEX
  8
LAYER-1
 10
3.016459
 20
0.613464
 30
0.000000
  0
SEQEND
  8
LAYER-1
  0
POLYLINE
  8
LAYER-1
 66
  1
 70
  0
 62
  0
 10
3.006126
 20
0.613465
 30
0.000000
  0
VERTEX
  8
LAYER-1
 10
3.006126
 20
0.613465
 30
0.000000
  0
VERTEX
  8
LAYER-1
 10
2.986621
 20
0.623457
 30
0.000000
  0
VERTEX
  8
LAYER-1
 10
2.968548
 20
0.616731
 30
0.000000
  0
VERTEX
  8
LAYER-1
 10
2.969218
 20
0.613464
 30
0.000000
  0
SEQEND
  8
LAYER-1
  0
POLYLINE
  8
LAYER-1
 66
  1
 70
  0
 62
  0
 10
3.031893
 20
0.613554
 30
0.000000
  0
VERTEX
  8
LAYER-1
 10
3.031893
 20
0.613554
 30
0.000000
  0
VERTEX
  8
LAYER-1
 10
3.021141
 20
0.626560
 30
0.000000
  0
VERTEX
  8
LAYER-1
 10
3.007125
 20
0.628153
 30
0.000000
  0
VERTEX
  8
LAYER-1
 10
2.996089
 20
0.619370
 30
0.000000
  0
VERTEX
  8
LAYER-1
 10
2.996464
 20
0.613554
 30
0.000000
  0
SEQEND
  8
LAYER-1
  0
POLYLINE
  8
LAYER-1
 66
  1
 70
  0
 62
  0
 10
3.031892
 20
0.613555
 30
0.000000
  0
VERTEX
  8
LAYER-1
 10
3.031892
 20
0.613555
 30
0.000000
  0
VERTEX
  8
LAYER-1
 10
2.996464
 20
0.613555
 30
0.000000
  0
SEQEND
  8
LAYER-1
  0
POLYLINE
  8
LAYER-1
 66
  1
 70
  0
 62
  0
 10
2.240812
 20
0.613465
 30
0.000000
  0
VERTEX
  8
LAYER-1
 10
2.240812
 20
0.613465
 30
0.000000
  0
VERTEX
  8
LAYER-1
 10
2.221307
 20
0.623457
 30
0.000000
  0
VERTEX
  8
LAYER-1
 10
2.203234
 20
0.616731
 30
0.000000
  0
VERTEX
  8
LAYER-1
 10
2.203904
 20
0.613464
 30
0.000000
  0
SEQEND
  8
LAYER-1
  0
POLYLINE
  8
LAYER-1
 66
  1
 70
  0
 62
  0
 10
2.192632
 20
0.613465
 30
0.000000
  0
VERTEX
  8
LAYER-1
 10
2.192632
 20
0.613465
 30
0.000000
  0
VERTEX
  8
LAYER-1
 10
2.173127
 20
0.623457
 30
0.000000
  0
VERTEX
  8
LAYER-1
 10
2.155054
 20
0.616731
 30
0.000000
  0
VERTEX
  8
LAYER-1
 10
2.155724
 20
0.613464
 30
0.000000
  0
SEQEND
  8
LAYER-1
  0
POLYLINE
  8
LAYER-1
 66
  1
 70
  0
 62
  0
 10
2.215109
 20
0.613554
 30
0.000000
  0
VERTEX
  8
LAYER-1
 10
2.215109
 20
0.613554
 30
0.000000
  0
VERTEX
  8
LAYER-1
 10
2.204357
 20
0.626560
 30
0.000000
  0
VERTEX
  8
LAYER-1
 10
2.190342
 20
0.628153
 30
0.000000
  0
VERTEX
  8
LAYER-1
 10
2.179305
 20
0.619370
 30
0.000000
  0
VERTEX
  8
LAYER-1
 10
2.179680
 20
0.613554
 30
0.000000
  0
SEQEND
  8
LAYER-1
  0
POLYLINE
  8
LAYER-1
 66
  1
 70
  0
 62
  0
 10
2.215109
 20
0.613555
 30
0.000000
  0
VERTEX
  8
LAYER-1
 10
2.215109
 20
0.613555
 30
0.000000
  0
VERTEX
  8
LAYER-1
 10
2.179681
 20
0.613555
 30
0.000000
  0
SEQEND
  8
LAYER-1
  0
POLYLINE
  8
LAYER-1
 66
  1
 70
  1
 62
  0
  0
VERTEX
  8
LAYER-1
 10
3.031350
 20
0.341364
 30
0.000000
  0
VERTEX
  8
LAYER-1
 10
2.995920
 20
0.341364
 30
0.000000
  0
VERTEX
  8
LAYER-1
 10
2.995920
 20
0.612992
 30
0.000000
  0
VERTEX
  8
LAYER-1
 10
3.031350
 20
0.612992
 30
0.000000
  0
SEQEND
  8
LAYER-1
  0
POLYLINE
  8
LAYER-1
 66
  1
 70
  1
 62
  0
  0
VERTEX
  8
LAYER-1
 10
2.215036
 20
0.341364
 30
0.000000
  0
VERTEX
  8
LAYER-1
 10
2.179606
 20
0.341364
 30
0.000000
  0
VERTEX
  8
LAYER-1
 10
2.179606
 20
0.612992
 30
0.000000
  0
VERTEX
  8
LAYER-1
 10
2.215036
 20
0.612992
 30
0.000000
  0
SEQEND
  8
LAYER-1
  0
POLYLINE
  8
LAYER-1
 66
  1
 70
  0
 62
  0
 10
3.031350
 20
0.409270
 30
0.000000
  0
VERTEX
  8
LAYER-1
 10
3.031350
 20
0.409270
 30
0.000000
  0
VERTEX
  8
LAYER-1
 10
2.995920
 20
0.409270
 30
0.000000
  0
SEQEND
  8
LAYER-1
  0
POLYLINE
  8
LAYER-1
 66
  1
 70
  0
 62
  0
 10
3.031350
 20
0.539180
 30
0.000000
  0
VERTEX
  8
LAYER-1
 10
3.031350
 20
0.539180
 30
0.000000
  0
VERTEX
  8
LAYER-1
 10
2.995920
 20
0.539180
 30
0.000000
  0
SEQEND
  8
LAYER-1
  0
POLYLINE
  8
LAYER-1
 66
  1
 70
  0
 62
  0
 10
2.215036
 20
0.409270
 30
0.000000
  0
VERTEX
  8
LAYER-1
 10
2.215036
 20
0.409270
 30
0.000000
  0
VERTEX
  8
LAYER-1
 10
2.179607
 20
0.409270
 30
0.000000
  0
SEQEND
  8
LAYER-1
  0
POLYLINE
  8
LAYER-1
 66
  1
 70
  0
 62
  0
 10
2.215036
 20
0.539180
 30
0.000000
  0
VERTEX
  8
LAYER-1
 10
2.215036
 20
0.539180
 30
0.000000
  0
VERTEX
  8
LAYER-1
 10
2.179607
 20
0.539180
 30
0.000000
  0
SEQEND
  8
LAYER-1
  0
POLYLINE
  8
LAYER-1
 66
  1
 70
  0
 62
  0
 10
3.200462
 20
0.341247
 30
0.000000
  0
VERTEX
  8
LAYER-1
 10
3.200462
 20
0.341247
 30
0.000000
  0
VERTEX
  8
LAYER-1
 10
3.210698
 20
0.334653
 30
0.000000
  0
VERTEX
  8
LAYER-1
 10
3.225382
 20
0.337228
 30
0.000000
  0
VERTEX
  8
LAYER-1
 10
3.233682
 20
0.341807
 30
0.000000
  0
SEQEND
  8
LAYER-1
  0
POLYLINE
  8
LAYER-1
 66
  1
 70
  0
 62
  0
 10
2.383284
 20
0.341426
 30
0.000000
  0
VERTEX
  8
LAYER-1
 10
2.383284
 20
0.341426
 30
0.000000
  0
VERTEX
  8
LAYER-1
 10
2.396455
 20
0.334379
 30
0.000000
  0
VERTEX
  8
LAYER-1
 10
2.413535
 20
0.338710
 30
0.000000
  0
VERTEX
  8
LAYER-1
 10
2.420188
 20
0.341425
 30
0.000000
  0
SEQEND
  8
LAYER-1
  0
POLYLINE
  8
LAYER-1
 66
  1
 70
  0
 62
  0
 10
2.640603
 20
0.613023
 30
0.000000
  0
VERTEX
  8
LAYER-1
 10
2.640603
 20
0.613023
 30
0.000000
  0
VERTEX
  8
LAYER-1
 10
2.626726
 20
0.623960
 30
0.000000
  0
VERTEX
  8
LAYER-1
 10
2.611963
 20
0.621881
 30
0.000000
  0
VERTEX
  8
LAYER-1
 10
2.607384
 20
0.613581
 30
0.000000
  0
SEQEND
  8
LAYER-1
  0
POLYLINE
  8
LAYER-1
 66
  1
 70
  0
 62
  0
 10
2.607384
 20
0.613581
 30
0.000000
  0
VERTEX
  8
LAYER-1
 10
2.607384
 20
0.613581
 30
0.000000
  0
VERTEX
  8
LAYER-1
 10
2.640603
 20
0.613021
 30
0.000000
  0
SEQEND
  8
LAYER-1
  0
POLYLINE
  8
LAYER-1
 66
  1
 70
  0
 62
  0
 10
2.605175
 20
0.613021
 30
0.000000
  0
VERTEX
  8
LAYER-1
 10
2.605175
 20
0.613021
 30
0.000000
  0
VERTEX
  8
LAYER-1
 10
2.588067
 20
0.624005
 30
0.000000
  0
VERTEX
  8
LAYER-1
 10
2.570986
 20
0.619674
 30
0.000000
  0
VERTEX
  8
LAYER-1
 10
2.568271
 20
0.613020
 30
0.000000
  0
SEQEND
  8
LAYER-1
  0
POLYLINE
  8
LAYER-1
 66
  1
 70
  0
 62
  0
 10
2.568271
 20
0.613020
 30
0.000000
  0
VERTEX
  8
LAYER-1
 10
2.568271
 20
0.613020
 30
0.000000
  0
VERTEX
  8
LAYER-1
 10
2.605174
 20
0.613021
 30
0.000000
  0
SEQEND
  8
LAYER-1
  0
POLYLINE
  8
LAYER-1
 66
  1
 70
  0
 62
  0
 10
2.569442
 20
0.341364
 30
0.000000
  0
VERTEX
  8
LAYER-1
 10
2.569442
 20
0.341364
 30
0.000000
  0
VERTEX
  8
LAYER-1
 10
2.569442
 20
0.612996
 30
0.000000
  0
SEQEND
  8
LAYER-1
  0
POLYLINE
  8
LAYER-1
 66
  1
 70
  0
 62
  0
 10
2.641776
 20
0.612991
 30
0.000000
  0
VERTEX
  8
LAYER-1
 10
2.641776
 20
0.612991
 30
0.000000
  0
VERTEX
  8
LAYER-1
 10
2.641776
 20
0.341363
 30
0.000000
  0
SEQEND
  8
LAYER-1
  0
POLYLINE
  8
LAYER-1
 66
  1
 70
  0
 62
  0
 10
2.606347
 20
0.341363
 30
0.000000
  0
VERTEX
  8
LAYER-1
 10
2.606347
 20
0.341363
 30
0.000000
  0
VERTEX
  8
LAYER-1
 10
2.606347
 20
0.612994
 30
0.000000
  0
SEQEND
  8
LAYER-1
  0
POLYLINE
  8
LAYER-1
 66
  1
 70
  0
 62
  0
 10
2.608252
 20
0.340945
 30
0.000000
  0
VERTEX
  8
LAYER-1
 10
2.608252
 20
0.340945
 30
0.000000
  0
VERTEX
  8
LAYER-1
 10
2.618488
 20
0.334351
 30
0.000000
  0
VERTEX
  8
LAYER-1
 10
2.633172
 20
0.336925
 30
0.000000
  0
VERTEX
  8
LAYER-1
 10
2.641472
 20
0.341504
 30
0.000000
  0
SEQEND
  8
LAYER-1
  0
POLYLINE
  8
LAYER-1
 66
  1
 70
  0
 62
  0
 10
2.608253
 20
0.340944
 30
0.000000
  0
VERTEX
  8
LAYER-1
 10
2.608253
 20
0.340944
 30
0.000000
  0
VERTEX
  8
LAYER-1
 10
2.641472
 20
0.341504
 30
0.000000
  0
SEQEND
  8
LAYER-1
  0
POLYLINE
  8
LAYER-1
 66
  1
 70
  0
 62
  0
 10
2.569140
 20
0.341506
 30
0.000000
  0
VERTEX
  8
LAYER-1
 10
2.569140
 20
0.341506
 30
0.000000
  0
VERTEX
  8
LAYER-1
 10
2.582311
 20
0.334459
 30
0.000000
  0
VERTEX
  8
LAYER-1
 10
2.599391
 20
0.338790
 30
0.000000
  0
VERTEX
  8
LAYER-1
 10
2.606043
 20
0.341505
 30
0.000000
  0
SEQEND
  8
LAYER-1
  0
POLYLINE
  8
LAYER-1
 66
  1
 70
  0
 62
  0
 10
2.569140
 20
0.341505
 30
0.000000
  0
VERTEX
  8
LAYER-1
 10
2.569140
 20
0.341505
 30
0.000000
  0
VERTEX
  8
LAYER-1
 10
2.606043
 20
0.341504
 30
0.000000
  0
SEQEND
  8
LAYER-1
  0
POLYLINE
  8
LAYER-1
 66
  1
 70
  0
 62
  0
 10
1.820603
 20
0.613023
 30
0.000000
  0
VERTEX
  8
LAYER-1
 10
1.820603
 20
0.613023
 30
0.000000
  0
VERTEX
  8
LAYER-1
 10
1.806726
 20
0.623960
 30
0.000000
  0
VERTEX
  8
LAYER-1
 10
1.791963
 20
0.621881
 30
0.000000
  0
VERTEX
  8
LAYER-1
 10
1.787384
 20
0.613581
 30
0.000000
  0
SEQEND
  8
LAYER-1
  0
POLYLINE
  8
LAYER-1
 66
  1
 70
  0
 62
  0
 10
1.787384
 20
0.613581
 30
0.000000
  0
VERTEX
  8
LAYER-1
 10
1.787384
 20
0.613581
 30
0.000000
  0
VERTEX
  8
LAYER-1
 10
1.820603
 20
0.613021
 30
0.000000
  0
SEQEND
  8
LAYER-1
  0
POLYLINE
  8
LAYER-1
 66
  1
 70
  0
 62
  0
 10
1.785175
 20
0.613021
 30
0.000000
  0
VERTEX
  8
LAYER-1
 10
1.785175
 20
0.613021
 30
0.000000
  0
VERTEX
  8
LAYER-1
 10
1.768066
 20
0.624005
 30
0.000000
  0
VERTEX
  8
LAYER-1
 10
1.750986
 20
0.619674
 30
0.000000
  0
VERTEX
  8
LAYER-1
 10
1.748271
 20
0.613020
 30
0.000000
  0
SEQEND
  8
LAYER-1
  0
POLYLINE
  8
LAYER-1
 66
  1
 70
  0
 62
  0
 10
1.748272
 20
0.613020
 30
0.000000
  0
VERTEX
  8
LAYER-1
 10
1.748272
 20
0.613020
 30
0.000000
  0
VERTEX
  8
LAYER-1
 10
1.785174
 20
0.613021
 30
0.000000
  0
SEQEND
  8
LAYER-1
  0
POLYLINE
  8
LAYER-1
 66
  1
 70
  0
 62
  0
 10
1.749442
 20
0.341364
 30
0.000000
  0
VERTEX
  8
LAYER-1
 10
1.749442
 20
0.341364
 30
0.000000
  0
VERTEX
  8
LAYER-1
 10
1.749442
 20
0.612996
 30
0.000000
  0
SEQEND
  8
LAYER-1
  0
POLYLINE
  8
LAYER-1
 66
  1
 70
  0
 62
  0
 10
1.821776
 20
0.612991
 30
0.000000
  0
VERTEX
  8
LAYER-1
 10
1.821776
 20
0.612991
 30
0.000000
  0
VERTEX
  8
LAYER-1
 10
1.821776
 20
0.341363
 30
0.000000
  0
SEQEND
  8
LAYER-1
  0
POLYLINE
  8
LAYER-1
 66
  1
 70
  0
 62
  0
 10
1.786346
 20
0.341363
 30
0.000000
  0
VERTEX
  8
LAYER-1
 10
1.786346
 20
0.341363
 30
0.000000
  0
VERTEX
  8
LAYER-1
 10
1.786346
 20
0.612994
 30
0.000000
  0
SEQEND
  8
LAYER-1
  0
POLYLINE
  8
LAYER-1
 66
  1
 70
  0
 62
  0
 10
1.788252
 20
0.340945
 30
0.000000
  0
VERTEX
  8
LAYER-1
 10
1.788252
 20
0.340945
 30
0.000000
  0
VERTEX
  8
LAYER-1
 10
1.798488
 20
0.334351
 30
0.000000
  0
VERTEX
  8
LAYER-1
 10
1.813172
 20
0.336925
 30
0.000000
  0
VERTEX
  8
LAYER-1
 10
1.821472
 20
0.341504
 30
0.000000
  0
SEQEND
  8
LAYER-1
  0
POLYLINE
  8
LAYER-1
 66
  1
 70
  0
 62
  0
 10
1.788253
 20
0.340944
 30
0.000000
  0
VERTEX
  8
LAYER-1
 10
1.788253
 20
0.340944
 30
0.000000
  0
VERTEX
  8
LAYER-1
 10
1.821471
 20
0.341504
 30
0.000000
  0
SEQEND
  8
LAYER-1
  0
POLYLINE
  8
LAYER-1
 66
  1
 70
  0
 62
  0
 10
1.749139
 20
0.341506
 30
0.000000
  0
VERTEX
  8
LAYER-1
 10
1.749139
 20
0.341506
 30
0.000000
  0
VERTEX
  8
LAYER-1
 10
1.762310
 20
0.334459
 30
0.000000
  0
VERTEX
  8
LAYER-1
 10
1.779391
 20
0.338790
 30
0.000000
  0
VERTEX
  8
LAYER-1
 10
1.786043
 20
0.341505
 30
0.000000
  0
SEQEND
  8
LAYER-1
  0
POLYLINE
  8
LAYER-1
 66
  1
 70
  0
 62
  0
 10
1.749140
 20
0.341505
 30
0.000000
  0
VERTEX
  8
LAYER-1
 10
1.749140
 20
0.341505
 30
0.000000
  0
VERTEX
  8
LAYER-1
 10
1.786043
 20
0.341504
 30
0.000000
  0
SEQEND
  8
LAYER-1
  0
POLYLINE
  8
LAYER-1
 66
  1
 70
  1
 62
  0
  0
VERTEX
  8
LAYER-1
 10
3.645069
 20
7.461123
 30
0.000000
  0
VERTEX
  8
LAYER-1
 10
3.813952
 20
7.461123
 30
0.000000
  0
VERTEX
  8
LAYER-1
 10
3.813952
 20
0.334873
 30
0.000000
  0
VERTEX
  8
LAYER-1
 10
3.645069
 20
0.334873
 30
0.000000
  0
SEQEND
  8
LAYER-1
  0
CIRCLE
  8
LAYER-1
 62
  0
 10
3.729716
 20
3.177201
 30
0.000000
 40
0.064283
  0
POLYLINE
  8
LAYER-1
 66
  1
 70
  0
 62
  0
 10
3.687369
 20
2.119566
 30
0.000000
  0
VERTEX
  8
LAYER-1
 10
3.687369
 20
2.119566
 30
0.000000
  0
VERTEX
  8
LAYER-1
 10
3.687371
 20
2.119566
 30
0.000000
  0
SEQEND
  8
LAYER-1
  0
POLYLINE
  8
LAYER-1
 66
  1
 70
  0
 62
  0
 10
3.695335
 20
2.111602
 30
0.000000
  0
VERTEX
  8
LAYER-1
 10
3.695335
 20
2.111602
 30
0.000000
  0
VERTEX
  8
LAYER-1
 10
3.695335
 20
1.862059
 30
0.000000
  0
SEQEND
  8
LAYER-1
  0
POLYLINE
  8
LAYER-1
 66
  1
 70
  0
 62
  0
 10
3.687371
 20
1.854095
 30
0.000000
  0
VERTEX
  8
LAYER-1
 10
3.687371
 20
1.854095
 30
0.000000
  0
VERTEX
  8
LAYER-1
 10
3.687369
 20
1.854095
 30
0.000000
  0
SEQEND
  8
LAYER-1
  0
POLYLINE
  8
LAYER-1
 66
  1
 70
  0
 62
  0
 10
3.679405
 20
1.862059
 30
0.000000
  0
VERTEX
  8
LAYER-1
 10
3.679405
 20
1.862059
 30
0.000000
  0
VERTEX
  8
LAYER-1
 10
3.679405
 20
2.111602
 30
0.000000
  0
SEQEND
  8
LAYER-1
  0
ARC
  8
LAYER-1
 62
  0
 10
3.687369
 20
2.111602
 30
0.000000
 40
0.007964
 50
270.000000
 51
0.000000
  0
ARC
  8
LAYER-1
 62
  0
 10
3.687369
 20
1.862059
 30
0.000000
 40
0.007964
 50
0.000000
 51
90.000000
  0
ARC
  8
LAYER-1
 62
  0
 10
3.687371
 20
1.862059
 30
0.000000
 40
0.007964
 50
90.000000
 51
180.000000
  0
ARC
  8
LAYER-1
 62
  0
 10
3.687371
 20
2.111602
 30
0.000000
 40
0.007964
 50
180.000000
 51
270.000000
  0
CIRCLE
  8
LAYER-1
 62
  7
 10
3.729716
 20
3.176960
 30
0.000000
 40
0.047124
  0
CIRCLE
  8
LAYER-1
 62
  0
 10
3.729716
 20
3.176960
 30
0.000000
 40
0.042287
  0
CIRCLE
  8
LAYER-1
 62
  0
 10
3.729716
 20
3.160164
 30
0.000000
 40
0.018794
  0
CIRCLE
  8
LAYER-1
 62
  0
 10
3.729716
 20
3.152128
 30
0.000000
 40
0.008035
  0
TEXT
  8
LAYER-1
 62
  0
 10
3.694130
 20
3.187718
 30
0.000000
 40
0.010417
  1
MobilFlex
 72
  5
 11
3.846908
 21
3.187718
 31
0.000000
  0
POLYLINE
  8
LAYER-1
 66
  1
 70
  1
 62
  0
 10
3.726092
 20
3.141918
 30
0.000000
  0
VERTEX
  8
LAYER-1
 10
3.726092
 20
3.141918
 30
0.000000
  0
VERTEX
  8
LAYER-1
 10
3.726092
 20
3.150619
 30
0.000000
  0
VERTEX
  8
LAYER-1
 10
3.729474
 20
3.150619
 30
0.000000
  0
VERTEX
  8
LAYER-1
 10
3.729474
 20
3.154002
 30
0.000000
  0
VERTEX
  8
LAYER-1
 10
3.725850
 20
3.157627
 30
0.000000
  0
VERTEX
  8
LAYER-1
 10
3.725850
 20
3.160043
 30
0.000000
  0
VERTEX
  8
LAYER-1
 10
3.728267
 20
3.167293
 30
0.000000
  0
VERTEX
  8
LAYER-1
 10
3.731408
 20
3.167293
 30
0.000000
  0
VERTEX
  8
LAYER-1
 10
3.730683
 20
3.161976
 30
0.000000
  0
VERTEX
  8
LAYER-1
 10
3.730926
 20
3.160043
 30
0.000000
  0
VERTEX
  8
LAYER-1
 10
3.732375
 20
3.160043
 30
0.000000
  0
VERTEX
  8
LAYER-1
 10
3.732375
 20
3.147719
 30
0.000000
  0
VERTEX
  8
LAYER-1
 10
3.729716
 20
3.146510
 30
0.000000
  0
VERTEX
  8
LAYER-1
 10
3.729716
 20
3.144093
 30
0.000000
  0
VERTEX
  8
LAYER-1
 10
3.732375
 20
3.143610
 30
0.000000
  0
VERTEX
  8
LAYER-1
 10
3.732375
 20
3.141918
 30
0.000000
  0
SEQEND
  8
LAYER-1
  0
CIRCLE
  8
LAYER-1
 62
  0
 10
3.687703
 20
1.856747
 30
0.000000
 40
0.022565
  0
CIRCLE
  8
LAYER-1
 62
  0
 10
3.687703
 20
1.856747
 30
0.000000
 40
0.016522
  0
CIRCLE
  8
LAYER-1
 62
  0
 10
3.687703
 20
1.856747
 30
0.000000
 40
0.013746
  0
CIRCLE
  8
LAYER-1
 62
  0
 10
3.687703
 20
1.856747
 30
0.000000
 40
0.008860
  0
LINE
  8
LAYER-1
 62
  0
 10
6.728852
 20
7.528551
 30
0.000000
 11
0.739269
 21
7.528551
 31
0.000000
  0
LINE
  8
LAYER-1
 62
  0
 10
6.728852
 20
7.638551
 30
0.000000
 11
0.739269
 21
7.638551
 31
0.000000
  0
LINE
  8
LAYER-1
 62
  0
 10
1.291352
 20
7.526587
 30
0.000000
 11
1.291352
 21
7.636565
 31
0.000000
  0
LINE
  8
LAYER-1
 62
  0
 10
1.231983
 20
7.526587
 30
0.000000
 11
1.416352
 21
7.526587
 31
0.000000
  0
LINE
  8
LAYER-1
 62
  0
 10
1.232324
 20
7.636565
 30
0.000000
 11
1.416352
 21
7.636565
 31
0.000000
  0
LINE
  8
LAYER-1
 62
  0
 10
1.291352
 20
7.636565
 30
0.000000
 11
1.291352
 21
7.271051
 31
0.000000
  0
LINE
  8
LAYER-1
 62
  0
 10
1.261890
 20
7.556050
 30
0.000000
 11
1.320815
 21
7.497124
 31
0.000000
  0
LINE
  8
LAYER-1
 62
  0
 10
1.261890
 20
7.666028
 30
0.000000
 11
1.320815
 21
7.607102
 31
0.000000
  0
TEXT
  8
LAYER-1
 62
  0
 10
1.281291
 20
7.145176
 30
0.000000
 40
0.125000
  1
 
  0
POLYLINE
  8
LAYER-1
 66
  1
 70
  1
 62
  0
  0
VERTEX
  8
LAYER-1
 10
3.752836
 20
7.526547
 30
0.000000
  0
VERTEX
  8
LAYER-1
 10
3.777931
 20
7.526547
 30
0.000000
  0
VERTEX
  8
LAYER-1
 10
3.777931
 20
7.461097
 30
0.000000
  0
VERTEX
  8
LAYER-1
 10
3.752836
 20
7.461097
 30
0.000000
  0
SEQEND
  8
LAYER-1
  0
POLYLINE
  8
LAYER-1
 66
  1
 70
  1
 62
  0
  0
VERTEX
  8
LAYER-1
 10
4.636141
 20
7.526889
 30
0.000000
  0
VERTEX
  8
LAYER-1
 10
4.661237
 20
7.526889
 30
0.000000
  0
VERTEX
  8
LAYER-1
 10
4.661237
 20
7.460970
 30
0.000000
  0
VERTEX
  8
LAYER-1
 10
4.636141
 20
7.460970
 30
0.000000
  0
SEQEND
  8
LAYER-1
  0
POLYLINE
  8
LAYER-1
 66
  1
 70
  1
 62
  0
  0
VERTEX
  8
LAYER-1
 10
5.453112
 20
7.526890
 30
0.000000
  0
VERTEX
  8
LAYER-1
 10
5.478208
 20
7.526890
 30
0.000000
  0
VERTEX
  8
LAYER-1
 10
5.478208
 20
7.460970
 30
0.000000
  0
VERTEX
  8
LAYER-1
 10
5.453112
 20
7.460970
 30
0.000000
  0
SEQEND
  8
LAYER-1
  0
POLYLINE
  8
LAYER-1
 66
  1
 70
  1
 62
  0
  0
VERTEX
  8
LAYER-1
 10
3.674274
 20
0.341079
 30
0.000000
  0
VERTEX
  8
LAYER-1
 10
3.707831
 20
0.341079
 30
0.000000
  0
VERTEX
  8
LAYER-1
 10
3.707831
 20
0.246441
 30
0.000000
  0
VERTEX
  8
LAYER-1
 10
3.674274
 20
0.246441
 30
0.000000
  0
SEQEND
  8
LAYER-1
  0
POLYLINE
  8
LAYER-1
 66
  1
 70
  1
 62
  0
  0
VERTEX
  8
LAYER-1
 10
2.797606
 20
7.526594
 30
0.000000
  0
VERTEX
  8
LAYER-1
 10
2.822702
 20
7.526594
 30
0.000000
  0
VERTEX
  8
LAYER-1
 10
2.822702
 20
7.461612
 30
0.000000
  0
VERTEX
  8
LAYER-1
 10
2.797606
 20
7.461612
 30
0.000000
  0
SEQEND
  8
LAYER-1
  0
POLYLINE
  8
LAYER-1
 66
  1
 70
  1
 62
  0
  0
VERTEX
  8
LAYER-1
 10
1.979767
 20
7.526594
 30
0.000000
  0
VERTEX
  8
LAYER-1
 10
2.004863
 20
7.526594
 30
0.000000
  0
VERTEX
  8
LAYER-1
 10
2.004863
 20
7.461612
 30
0.000000
  0
VERTEX
  8
LAYER-1
 10
1.979767
 20
7.461612
 30
0.000000
  0
SEQEND
  8
LAYER-1
  0
POLYLINE
  8
LAYER-1
 66
  1
 70
  0
 62
  0
 10
3.644370
 20
0.238781
 30
0.000000
  0
VERTEX
  8
LAYER-1
 10
3.644370
 20
0.238781
 30
0.000000
  0
VERTEX
  8
LAYER-1
 10
3.657148
 20
0.246346
 30
0.000000
  0
SEQEND
  8
LAYER-1
  0
POLYLINE
  8
LAYER-1
 66
  1
 70
  0
 62
  0
 10
3.644370
 20
0.238781
 30
0.000000
  0
VERTEX
  8
LAYER-1
 10
3.644370
 20
0.238781
 30
0.000000
  0
VERTEX
  8
LAYER-1
 10
3.644370
 20
0.237216
 30
0.000000
  0
SEQEND
  8
LAYER-1
  0
POLYLINE
  8
LAYER-1
 66
  1
 70
  1
 62
  0
  0
VERTEX
  8
LAYER-1
 10
3.662813
 20
0.237202
 30
0.000000
  0
VERTEX
  8
LAYER-1
 10
3.719400
 20
0.237202
 30
0.000000
  0
VERTEX
  8
LAYER-1
 10
3.719400
 20
0.049539
 30
0.000000
  0
VERTEX
  8
LAYER-1
 10
3.662813
 20
0.049539
 30
0.000000
  0
SEQEND
  8
LAYER-1
  0
POLYLINE
  8
LAYER-1
  6
LTYPE01
 66
  1
 70
  1
 62
  0
  0
VERTEX
  8
LAYER-1
  6
LTYPE01
 10
3.667507
 20
0.246328
 30
0.000000
  0
VERTEX
  8
LAYER-1
  6
LTYPE01
 10
3.714447
 20
0.246328
 30
0.000000
  0
VERTEX
  8
LAYER-1
  6
LTYPE01
 10
3.714447
 20
0.059100
 30
0.000000
  0
VERTEX
  8
LAYER-1
  6
LTYPE01
 10
3.667507
 20
0.059100
 30
0.000000
  0
SEQEND
  8
LAYER-1
  0
POLYLINE
  8
LAYER-1
 66
  1
 70
  0
 62
  0
 10
3.644370
 20
0.237216
 30
0.000000
  0
VERTEX
  8
LAYER-1
 10
3.644370
 20
0.237216
 30
0.000000
  0
VERTEX
  8
LAYER-1
 10
3.737987
 20
0.237216
 30
0.000000
  0
SEQEND
  8
LAYER-1
  0
POLYLINE
  8
LAYER-1
 66
  1
 70
  0
 62
  0
 10
3.737987
 20
0.237216
 30
0.000000
  0
VERTEX
  8
LAYER-1
 10
3.737987
 20
0.237216
 30
0.000000
  0
VERTEX
  8
LAYER-1
 10
3.737987
 20
0.238781
 30
0.000000
  0
SEQEND
  8
LAYER-1
  0
POLYLINE
  8
LAYER-1
 66
  1
 70
  0
 62
  0
 10
3.737987
 20
0.238781
 30
0.000000
  0
VERTEX
  8
LAYER-1
 10
3.737987
 20
0.238781
 30
0.000000
  0
VERTEX
  8
LAYER-1
 10
3.724948
 20
0.246346
 30
0.000000
  0
SEQEND
  8
LAYER-1
  0
POLYLINE
  8
LAYER-1
  6
LTYPE02
 66
  1
 70
  0
 62
  0
  6
LTYPE02
 10
3.668752
 20
0.145559
 30
0.000000
  0
VERTEX
  8
LAYER-1
  6
LTYPE02
 10
3.668752
 20
0.145559
 30
0.000000
  0
VERTEX
  8
LAYER-1
  6
LTYPE02
 10
3.668752
 20
0.111660
 30
0.000000
  0
SEQEND
  8
LAYER-1
  0
POLYLINE
  8
LAYER-1
  6
LTYPE02
 66
  1
 70
  0
 62
  0
  6
LTYPE02
 10
3.672660
 20
0.145559
 30
0.000000
  0
VERTEX
  8
LAYER-1
  6
LTYPE02
 10
3.672660
 20
0.145559
 30
0.000000
  0
VERTEX
  8
LAYER-1
  6
LTYPE02
 10
3.668752
 20
0.145559
 30
0.000000
  0
SEQEND
  8
LAYER-1
  0
POLYLINE
  8
LAYER-1
  6
LTYPE02
 66
  1
 70
  0
 62
  0
  6
LTYPE02
 10
3.672660
 20
0.145559
 30
0.000000
  0
VERTEX
  8
LAYER-1
  6
LTYPE02
 10
3.672660
 20
0.145559
 30
0.000000
  0
VERTEX
  8
LAYER-1
  6
LTYPE02
 10
3.672660
 20
0.149991
 30
0.000000
  0
SEQEND
  8
LAYER-1
  0
POLYLINE
  8
LAYER-1
  6
LTYPE02
 66
  1
 70
  0
 62
  0
  6
LTYPE02
 10
3.672660
 20
0.149991
 30
0.000000
  0
VERTEX
  8
LAYER-1
  6
LTYPE02
 10
3.672660
 20
0.149991
 30
0.000000
  0
VERTEX
  8
LAYER-1
  6
LTYPE02
 10
3.709920
 20
0.149991
 30
0.000000
  0
SEQEND
  8
LAYER-1
  0
POLYLINE
  8
LAYER-1
  6
LTYPE02
 66
  1
 70
  0
 62
  0
  6
LTYPE02
 10
3.668752
 20
0.111660
 30
0.000000
  0
VERTEX
  8
LAYER-1
  6
LTYPE02
 10
3.668752
 20
0.111660
 30
0.000000
  0
VERTEX
  8
LAYER-1
  6
LTYPE02
 10
3.713083
 20
0.111660
 30
0.000000
  0
SEQEND
  8
LAYER-1
  0
POLYLINE
  8
LAYER-1
  6
LTYPE02
 66
  1
 70
  0
 62
  0
  6
LTYPE02
 10
3.713083
 20
0.111660
 30
0.000000
  0
VERTEX
  8
LAYER-1
  6
LTYPE02
 10
3.713083
 20
0.111660
 30
0.000000
  0
VERTEX
  8
LAYER-1
  6
LTYPE02
 10
3.713083
 20
0.145559
 30
0.000000
  0
SEQEND
  8
LAYER-1
  0
POLYLINE
  8
LAYER-1
  6
LTYPE02
 66
  1
 70
  0
 62
  0
  6
LTYPE02
 10
3.709920
 20
0.145559
 30
0.000000
  0
VERTEX
  8
LAYER-1
  6
LTYPE02
 10
3.709920
 20
0.145559
 30
0.000000
  0
VERTEX
  8
LAYER-1
  6
LTYPE02
 10
3.713083
 20
0.145559
 30
0.000000
  0
SEQEND
  8
LAYER-1
  0
POLYLINE
  8
LAYER-1
  6
LTYPE02
 66
  1
 70
  0
 62
  0
  6
LTYPE02
 10
3.709920
 20
0.149991
 30
0.000000
  0
VERTEX
  8
LAYER-1
  6
LTYPE02
 10
3.709920
 20
0.149991
 30
0.000000
  0
VERTEX
  8
LAYER-1
  6
LTYPE02
 10
3.709920
 20
0.145559
 30
0.000000
  0
SEQEND
  8
LAYER-1
  0
POLYLINE
  8
LAYER-1
  6
LTYPE01
 66
  1
 70
  1
 62
  0
  0
VERTEX
  8
LAYER-1
  6
LTYPE01
 10
3.673890
 20
0.111513
 30
0.000000
  0
VERTEX
  8
LAYER-1
  6
LTYPE01
 10
3.708311
 20
0.111513
 30
0.000000
  0
VERTEX
  8
LAYER-1
  6
LTYPE01
 10
3.708311
 20
0.059359
 30
0.000000
  0
VERTEX
  8
LAYER-1
  6
LTYPE01
 10
3.673890
 20
0.059359
 30
0.000000
  0
SEQEND
  8
LAYER-1
  0
POLYLINE
  8
LAYER-1
  6
LTYPE02
 66
  1
 70
  0
 62
  0
  6
LTYPE02
 10
3.708311
 20
0.111513
 30
0.000000
  0
VERTEX
  8
LAYER-1
  6
LTYPE02
 10
3.708311
 20
0.111513
 30
0.000000
  0
VERTEX
  8
LAYER-1
  6
LTYPE02
 10
3.673890
 20
0.108645
 30
0.000000
  0
SEQEND
  8
LAYER-1
  0
POLYLINE
  8
LAYER-1
  6
LTYPE02
 66
  1
 70
  0
 62
  0
  6
LTYPE02
 10
3.708311
 20
0.109948
 30
0.000000
  0
VERTEX
  8
LAYER-1
  6
LTYPE02
 10
3.708311
 20
0.109948
 30
0.000000
  0
VERTEX
  8
LAYER-1
  6
LTYPE02
 10
3.673890
 20
0.106820
 30
0.000000
  0
SEQEND
  8
LAYER-1
  0
POLYLINE
  8
LAYER-1
  6
LTYPE02
 66
  1
 70
  0
 62
  0
  6
LTYPE02
 10
3.708311
 20
0.106559
 30
0.000000
  0
VERTEX
  8
LAYER-1
  6
LTYPE02
 10
3.708311
 20
0.106559
 30
0.000000
  0
VERTEX
  8
LAYER-1
  6
LTYPE02
 10
3.673890
 20
0.103689
 30
0.000000
  0
SEQEND
  8
LAYER-1
  0
POLYLINE
  8
LAYER-1
  6
LTYPE02
 66
  1
 70
  0
 62
  0
  6
LTYPE02
 10
3.708311
 20
0.104993
 30
0.000000
  0
VERTEX
  8
LAYER-1
  6
LTYPE02
 10
3.708311
 20
0.104993
 30
0.000000
  0
VERTEX
  8
LAYER-1
  6
LTYPE02
 10
3.673890
 20
0.101865
 30
0.000000
  0
SEQEND
  8
LAYER-1
  0
POLYLINE
  8
LAYER-1
  6
LTYPE02
 66
  1
 70
  0
 62
  0
  6
LTYPE02
 10
3.708311
 20
0.101410
 30
0.000000
  0
VERTEX
  8
LAYER-1
  6
LTYPE02
 10
3.708311
 20
0.101410
 30
0.000000
  0
VERTEX
  8
LAYER-1
  6
LTYPE02
 10
3.673890
 20
0.098540
 30
0.000000
  0
SEQEND
  8
LAYER-1
  0
POLYLINE
  8
LAYER-1
  6
LTYPE02
 66
  1
 70
  0
 62
  0
  6
LTYPE02
 10
3.708311
 20
0.099845
 30
0.000000
  0
VERTEX
  8
LAYER-1
  6
LTYPE02
 10
3.708311
 20
0.099845
 30
0.000000
  0
VERTEX
  8
LAYER-1
  6
LTYPE02
 10
3.673890
 20
0.096716
 30
0.000000
  0
SEQEND
  8
LAYER-1
  0
POLYLINE
  8
LAYER-1
  6
LTYPE02
 66
  1
 70
  0
 62
  0
  6
LTYPE02
 10
3.708246
 20
0.096910
 30
0.000000
  0
VERTEX
  8
LAYER-1
  6
LTYPE02
 10
3.708246
 20
0.096910
 30
0.000000
  0
VERTEX
  8
LAYER-1
  6
LTYPE02
 10
3.673824
 20
0.094042
 30
0.000000
  0
SEQEND
  8
LAYER-1
  0
POLYLINE
  8
LAYER-1
  6
LTYPE02
 66
  1
 70
  0
 62
  0
  6
LTYPE02
 10
3.708246
 20
0.095347
 30
0.000000
  0
VERTEX
  8
LAYER-1
  6
LTYPE02
 10
3.708246
 20
0.095347
 30
0.000000
  0
VERTEX
  8
LAYER-1
  6
LTYPE02
 10
3.673824
 20
0.092218
 30
0.000000
  0
SEQEND
  8
LAYER-1
  0
POLYLINE
  8
LAYER-1
  6
LTYPE02
 66
  1
 70
  0
 62
  0
  6
LTYPE02
 10
3.708246
 20
0.092088
 30
0.000000
  0
VERTEX
  8
LAYER-1
  6
LTYPE02
 10
3.708246
 20
0.092088
 30
0.000000
  0
VERTEX
  8
LAYER-1
  6
LTYPE02
 10
3.673824
 20
0.089220
 30
0.000000
  0
SEQEND
  8
LAYER-1
  0
POLYLINE
  8
LAYER-1
  6
LTYPE02
 66
  1
 70
  0
 62
  0
  6
LTYPE02
 10
3.708246
 20
0.090522
 30
0.000000
  0
VERTEX
  8
LAYER-1
  6
LTYPE02
 10
3.708246
 20
0.090522
 30
0.000000
  0
VERTEX
  8
LAYER-1
  6
LTYPE02
 10
3.673824
 20
0.087392
 30
0.000000
  0
SEQEND
  8
LAYER-1
  0
POLYLINE
  8
LAYER-1
  6
LTYPE02
 66
  1
 70
  0
 62
  0
  6
LTYPE02
 10
3.708246
 20
0.087131
 30
0.000000
  0
VERTEX
  8
LAYER-1
  6
LTYPE02
 10
3.708246
 20
0.087131
 30
0.000000
  0
VERTEX
  8
LAYER-1
  6
LTYPE02
 10
3.673824
 20
0.084262
 30
0.000000
  0
SEQEND
  8
LAYER-1
  0
POLYLINE
  8
LAYER-1
  6
LTYPE02
 66
  1
 70
  0
 62
  0
  6
LTYPE02
 10
3.708246
 20
0.085568
 30
0.000000
  0
VERTEX
  8
LAYER-1
  6
LTYPE02
 10
3.708246
 20
0.085568
 30
0.000000
  0
VERTEX
  8
LAYER-1
  6
LTYPE02
 10
3.673824
 20
0.082437
 30
0.000000
  0
SEQEND
  8
LAYER-1
  0
POLYLINE
  8
LAYER-1
  6
LTYPE02
 66
  1
 70
  0
 62
  0
  6
LTYPE02
 10
3.708246
 20
0.081982
 30
0.000000
  0
VERTEX
  8
LAYER-1
  6
LTYPE02
 10
3.708246
 20
0.081982
 30
0.000000
  0
VERTEX
  8
LAYER-1
  6
LTYPE02
 10
3.673824
 20
0.079113
 30
0.000000
  0
SEQEND
  8
LAYER-1
  0
POLYLINE
  8
LAYER-1
  6
LTYPE02
 66
  1
 70
  0
 62
  0
  6
LTYPE02
 10
3.708246
 20
0.080417
 30
0.000000
  0
VERTEX
  8
LAYER-1
  6
LTYPE02
 10
3.708246
 20
0.080417
 30
0.000000
  0
VERTEX
  8
LAYER-1
  6
LTYPE02
 10
3.673824
 20
0.077288
 30
0.000000
  0
SEQEND
  8
LAYER-1
  0
POLYLINE
  8
LAYER-1
  6
LTYPE02
 66
  1
 70
  0
 62
  0
  6
LTYPE02
 10
3.708181
 20
0.077482
 30
0.000000
  0
VERTEX
  8
LAYER-1
  6
LTYPE02
 10
3.708181
 20
0.077482
 30
0.000000
  0
VERTEX
  8
LAYER-1
  6
LTYPE02
 10
3.673760
 20
0.074615
 30
0.000000
  0
SEQEND
  8
LAYER-1
  0
POLYLINE
  8
LAYER-1
  6
LTYPE02
 66
  1
 70
  0
 62
  0
  6
LTYPE02
 10
3.708181
 20
0.075919
 30
0.000000
  0
VERTEX
  8
LAYER-1
  6
LTYPE02
 10
3.708181
 20
0.075919
 30
0.000000
  0
VERTEX
  8
LAYER-1
  6
LTYPE02
 10
3.673760
 20
0.072790
 30
0.000000
  0
SEQEND
  8
LAYER-1
  0
POLYLINE
  8
LAYER-1
  6
LTYPE02
 66
  1
 70
  0
 62
  0
  6
LTYPE02
 10
3.708311
 20
0.073116
 30
0.000000
  0
VERTEX
  8
LAYER-1
  6
LTYPE02
 10
3.708311
 20
0.073116
 30
0.000000
  0
VERTEX
  8
LAYER-1
  6
LTYPE02
 10
3.673890
 20
0.070248
 30
0.000000
  0
SEQEND
  8
LAYER-1
  0
POLYLINE
  8
LAYER-1
  6
LTYPE02
 66
  1
 70
  0
 62
  0
  6
LTYPE02
 10
3.708311
 20
0.071551
 30
0.000000
  0
VERTEX
  8
LAYER-1
  6
LTYPE02
 10
3.708311
 20
0.071551
 30
0.000000
  0
VERTEX
  8
LAYER-1
  6
LTYPE02
 10
3.673890
 20
0.068422
 30
0.000000
  0
SEQEND
  8
LAYER-1
  0
POLYLINE
  8
LAYER-1
  6
LTYPE02
 66
  1
 70
  0
 62
  0
  6
LTYPE02
 10
3.708311
 20
0.068162
 30
0.000000
  0
VERTEX
  8
LAYER-1
  6
LTYPE02
 10
3.708311
 20
0.068162
 30
0.000000
  0
VERTEX
  8
LAYER-1
  6
LTYPE02
 10
3.673890
 20
0.065294
 30
0.000000
  0
SEQEND
  8
LAYER-1
  0
POLYLINE
  8
LAYER-1
  6
LTYPE02
 66
  1
 70
  0
 62
  0
  6
LTYPE02
 10
3.708311
 20
0.066597
 30
0.000000
  0
VERTEX
  8
LAYER-1
  6
LTYPE02
 10
3.708311
 20
0.066597
 30
0.000000
  0
VERTEX
  8
LAYER-1
  6
LTYPE02
 10
3.673890
 20
0.063467
 30
0.000000
  0
SEQEND
  8
LAYER-1
  0
POLYLINE
  8
LAYER-1
  6
LTYPE02
 66
  1
 70
  0
 62
  0
  6
LTYPE02
 10
3.708311
 20
0.063011
 30
0.000000
  0
VERTEX
  8
LAYER-1
  6
LTYPE02
 10
3.708311
 20
0.063011
 30
0.000000
  0
VERTEX
  8
LAYER-1
  6
LTYPE02
 10
3.673890
 20
0.060142
 30
0.000000
  0
SEQEND
  8
LAYER-1
  0
POLYLINE
  8
LAYER-1
  6
LTYPE02
 66
  1
 70
  0
 62
  0
  6
LTYPE02
 10
3.708311
 20
0.061447
 30
0.000000
  0
VERTEX
  8
LAYER-1
  6
LTYPE02
 10
3.708311
 20
0.061447
 30
0.000000
  0
VERTEX
  8
LAYER-1
  6
LTYPE02
 10
3.685298
 20
0.059359
 30
0.000000
  0
SEQEND
  8
LAYER-1
  0
POLYLINE
  8
LAYER-1
  6
LTYPE02
 66
  1
 70
  0
 62
  0
  6
LTYPE02
 10
3.674881
 20
0.170723
 30
0.000000
  0
VERTEX
  8
LAYER-1
  6
LTYPE02
 10
3.674881
 20
0.170723
 30
0.000000
  0
VERTEX
  8
LAYER-1
  6
LTYPE02
 10
3.674881
 20
0.246346
 30
0.000000
  0
SEQEND
  8
LAYER-1
  0
POLYLINE
  8
LAYER-1
  6
LTYPE02
 66
  1
 70
  0
 62
  0
  6
LTYPE02
 10
3.707215
 20
0.170723
 30
0.000000
  0
VERTEX
  8
LAYER-1
  6
LTYPE02
 10
3.707215
 20
0.170723
 30
0.000000
  0
VERTEX
  8
LAYER-1
  6
LTYPE02
 10
3.707215
 20
0.246346
 30
0.000000
  0
SEQEND
  8
LAYER-1
  0
POLYLINE
  8
LAYER-1
  6
LTYPE01
 66
  1
 70
  0
 62
  0
  6
LTYPE01
 10
3.674881
 20
0.170723
 30
0.000000
  0
VERTEX
  8
LAYER-1
  6
LTYPE01
 10
3.674881
 20
0.170723
 30
0.000000
  0
VERTEX
  8
LAYER-1
  6
LTYPE01
 10
3.677647
 20
0.161259
 30
0.000000
  0
VERTEX
  8
LAYER-1
  6
LTYPE01
 10
3.689080
 20
0.156525
 30
0.000000
  0
VERTEX
  8
LAYER-1
  6
LTYPE01
 10
3.700512
 20
0.161259
 30
0.000000
  0
VERTEX
  8
LAYER-1
  6
LTYPE01
 10
3.707216
 20
0.170723
 30
0.000000
  0
SEQEND
  8
LAYER-1
  0
POLYLINE
  8
LAYER-1
 66
  1
 70
  0
 62
  0
 10
3.657148
 20
0.246346
 30
0.000000
  0
VERTEX
  8
LAYER-1
 10
3.657148
 20
0.246346
 30
0.000000
  0
VERTEX
  8
LAYER-1
 10
3.724948
 20
0.246346
 30
0.000000
  0
SEQEND
  8
LAYER-1
  0
TEXT
  8
LAYER-1
 62
  7
 10
1.930241
 20
8.840496
 30
0.000000
 40
0.177083
  1
âlÄvation modÅle Concept 1212
 72
  5
 11
5.402463
 21
8.840496
 31
0.000000
  0
TEXT
  8
LAYER-1
 62
  0
 10
1.041352
 20
6.896051
 30
0.000000
 40
0.125000
  1
1-
 72
  5
 11
1.263574
 21
6.896051
 31
0.000000
  0
TEXT
  8
LAYER-1
 62
  0
 10
1.263574
 20
6.896051
 30
0.000000
 40
0.104167
  1
9/16
 72
  5
 11
1.624685
 21
6.896051
 31
0.000000
  0
TEXT
  8
LAYER-1
 62
  0
 10
1.624685
 20
6.896051
 30
0.000000
 40
0.125000
  1
"
 72
  5
 11
1.749685
 21
6.896051
 31
0.000000
  0
TEXT
  8
LAYER-1
 62
  0
 10
1.041352
 20
6.701607
 30
0.000000
 40
0.125000
  1
40mm
 72
  5
 11
1.610797
 21
6.701607
 31
0.000000
  0
TEXT
  8
LAYER-1
 62
  0
 10
2.263574
 20
7.965496
 30
0.000000
 40
0.125000
  1
Membre
 72
  5
 11
2.958019
 21
7.965496
 31
0.000000
  0
TEXT
  8
LAYER-1
 62
  0
 10
2.263574
 20
7.771051
 30
0.000000
 40
0.125000
  1
intermÄdiaire #3
 72
  5
 11
3.583019
 21
7.771051
 31
0.000000
  0
POLYLINE
  8
LAYER-1
 66
  1
 70
  0
 62
  0
 10
3.478852
 20
7.791885
 30
0.000000
  0
VERTEX
  8
LAYER-1
 10
3.478852
 20
7.791885
 30
0.000000
  0
VERTEX
  8
LAYER-1
 10
3.719929
 20
7.476790
 30
0.000000
  0
SEQEND
  8
LAYER-1
  0
POLYLINE
  8
LAYER-1
 66
  1
 70
  1
 62
  0
  0
VERTEX
  8
LAYER-1
 10
3.731890
 20
7.461155
 30
0.000000
  0
VERTEX
  8
LAYER-1
 10
3.656600
 20
7.490991
 30
0.000000
  0
VERTEX
  8
LAYER-1
 10
3.689692
 20
7.516308
 30
0.000000
  0
VERTEX
  8
LAYER-1
 10
3.722784
 20
7.541628
 30
0.000000
  0
VERTEX
  8
LAYER-1
 10
3.731890
 20
7.461155
 30
0.000000
  0
SEQEND
  8
LAYER-1
  0
LINE
  8
LAYER-1
 62
  0
 10
5.836491
 20
5.545304
 30
0.000000
 11
5.836491
 21
6.367498
 31
0.000000
  0
LINE
  8
LAYER-1
 62
  0
 10
5.752188
 20
5.545304
 30
0.000000
 11
5.961491
 21
5.545304
 31
0.000000
  0
LINE
  8
LAYER-1
 62
  0
 10
5.752291
 20
6.367498
 30
0.000000
 11
5.961491
 21
6.367498
 31
0.000000
  0
LINE
  8
LAYER-1
 62
  0
 10
5.836491
 20
6.149523
 30
0.000000
 11
5.836491
 21
5.545304
 31
0.000000
  0
LINE
  8
LAYER-1
 62
  0
 10
5.807028
 20
5.574766
 30
0.000000
 11
5.865953
 21
5.515841
 31
0.000000
  0
LINE
  8
LAYER-1
 62
  0
 10
5.807028
 20
6.396961
 30
0.000000
 11
5.865953
 21
6.338035
 31
0.000000
  0
TEXT
  8
LAYER-1
 62
  0
 10
5.992850
 20
5.905676
 30
0.000000
 40
0.125000
  1
     
 50
90.000000
  0
TEXT
  8
LAYER-1
 62
  0
 10
6.124685
 20
6.007162
 30
0.000000
 40
0.125000
  1
12"
 72
  5
 11
6.444130
 21
6.007162
 31
0.000000
  0
TEXT
  8
LAYER-1
 62
  0
 10
5.944130
 20
5.812718
 30
0.000000
 40
0.125000
  1
305mm
 72
  5
 11
6.610797
 21
5.812718
 31
0.000000
  0
TEXT
  8
LAYER-1
 62
  0
 10
1.055241
 20
7.118273
 30
0.000000
 40
0.125000
  1
Rail
 72
  5
 11
1.430241
 21
7.118273
 31
0.000000
  0
POLYLINE
  8
LAYER-1
 66
  1
 70
  1
 62
  0
  0
VERTEX
  8
LAYER-1
 10
3.816532
 20
7.189803
 30
0.000000
  0
VERTEX
  8
LAYER-1
 10
3.852483
 20
7.189803
 30
0.000000
  0
VERTEX
  8
LAYER-1
 10
3.852483
 20
0.606118
 30
0.000000
  0
VERTEX
  8
LAYER-1
 10
3.816532
 20
0.606118
 30
0.000000
  0
SEQEND
  8
LAYER-1
  0
POLYLINE
  8
LAYER-1
 66
  1
 70
  1
 62
  0
  0
VERTEX
  8
LAYER-1
 10
4.224796
 20
7.189803
 30
0.000000
  0
VERTEX
  8
LAYER-1
 10
4.260747
 20
7.189803
 30
0.000000
  0
VERTEX
  8
LAYER-1
 10
4.260747
 20
0.606118
 30
0.000000
  0
VERTEX
  8
LAYER-1
 10
4.224796
 20
0.606118
 30
0.000000
  0
SEQEND
  8
LAYER-1
  0
POLYLINE
  8
LAYER-1
 66
  1
 70
  1
 62
  0
  0
VERTEX
  8
LAYER-1
 10
4.631324
 20
7.189803
 30
0.000000
  0
VERTEX
  8
LAYER-1
 10
4.667275
 20
7.189803
 30
0.000000
  0
VERTEX
  8
LAYER-1
 10
4.667275
 20
0.606118
 30
0.000000
  0
VERTEX
  8
LAYER-1
 10
4.631324
 20
0.606118
 30
0.000000
  0
SEQEND
  8
LAYER-1
  0
POLYLINE
  8
LAYER-1
 66
  1
 70
  1
 62
  0
  0
VERTEX
  8
LAYER-1
 10
5.039589
 20
7.189803
 30
0.000000
  0
VERTEX
  8
LAYER-1
 10
5.075539
 20
7.189803
 30
0.000000
  0
VERTEX
  8
LAYER-1
 10
5.075539
 20
0.606118
 30
0.000000
  0
VERTEX
  8
LAYER-1
 10
5.039589
 20
0.606118
 30
0.000000
  0
SEQEND
  8
LAYER-1
  0
POLYLINE
  8
LAYER-1
 66
  1
 70
  1
 62
  0
  0
VERTEX
  8
LAYER-1
 10
5.449155
 20
7.189803
 30
0.000000
  0
VERTEX
  8
LAYER-1
 10
5.485105
 20
7.189803
 30
0.000000
  0
VERTEX
  8
LAYER-1
 10
5.485105
 20
0.606118
 30
0.000000
  0
VERTEX
  8
LAYER-1
 10
5.449155
 20
0.606118
 30
0.000000
  0
SEQEND
  8
LAYER-1
  0
POLYLINE
  8
LAYER-1
 66
  1
 70
  1
 62
  0
 10
3.813966
 20
0.341392
 30
0.000000
  0
VERTEX
  8
LAYER-1
 10
3.813966
 20
0.341392
 30
0.000000
  0
VERTEX
  8
LAYER-1
 10
5.709883
 20
0.341493
 30
0.000000
  0
VERTEX
  8
LAYER-1
 10
5.709883
 20
0.613026
 30
0.000000
  0
VERTEX
  8
LAYER-1
 10
3.813966
 20
0.613143
 30
0.000000
  0
SEQEND
  8
LAYER-1
  0
POLYLINE
  8
LAYER-1
 66
  1
 70
  0
 62
  0
 10
3.813747
 20
0.409299
 30
0.000000
  0
VERTEX
  8
LAYER-1
 10
3.813747
 20
0.409299
 30
0.000000
  0
VERTEX
  8
LAYER-1
 10
3.853473
 20
0.409299
 30
0.000000
  0
SEQEND
  8
LAYER-1
  0
POLYLINE
  8
LAYER-1
 66
  1
 70
  0
 62
  0
 10
3.813747
 20
0.539209
 30
0.000000
  0
VERTEX
  8
LAYER-1
 10
3.813747
 20
0.539209
 30
0.000000
  0
VERTEX
  8
LAYER-1
 10
3.853473
 20
0.539209
 30
0.000000
  0
SEQEND
  8
LAYER-1
  0
POLYLINE
  8
LAYER-1
 66
  1
 70
  0
 62
  0
 10
3.815199
 20
0.336245
 30
0.000000
  0
VERTEX
  8
LAYER-1
 10
3.815199
 20
0.336245
 30
0.000000
  0
VERTEX
  8
LAYER-1
 10
3.828370
 20
0.329201
 30
0.000000
  0
VERTEX
  8
LAYER-1
 10
3.845449
 20
0.333533
 30
0.000000
  0
VERTEX
  8
LAYER-1
 10
3.852102
 20
0.336248
 30
0.000000
  0
SEQEND
  8
LAYER-1
  0
POLYLINE
  8
LAYER-1
 66
  1
 70
  1
 62
  0
  0
VERTEX
  8
LAYER-1
 10
3.862611
 20
0.335625
 30
0.000000
  0
VERTEX
  8
LAYER-1
 10
3.807996
 20
0.335625
 30
0.000000
  0
VERTEX
  8
LAYER-1
 10
3.807996
 20
0.341530
 30
0.000000
  0
VERTEX
  8
LAYER-1
 10
3.862611
 20
0.341530
 30
0.000000
  0
SEQEND
  8
LAYER-1
  0
POLYLINE
  8
LAYER-1
 66
  1
 70
  1
 62
  0
 10
3.814172
 20
7.461434
 30
0.000000
  0
VERTEX
  8
LAYER-1
 10
3.814172
 20
7.461434
 30
0.000000
  0
VERTEX
  8
LAYER-1
 10
5.710524
 20
7.461334
 30
0.000000
  0
VERTEX
  8
LAYER-1
 10
5.710524
 20
7.189801
 30
0.000000
  0
VERTEX
  8
LAYER-1
 10
3.814172
 20
7.189684
 30
0.000000
  0
SEQEND
  8
LAYER-1
  0
POLYLINE
  8
LAYER-1
 66
  1
 70
  0
 62
  0
 10
4.075461
 20
7.461434
 30
0.000000
  0
VERTEX
  8
LAYER-1
 10
4.075461
 20
7.461434
 30
0.000000
  0
VERTEX
  8
LAYER-1
 10
4.075461
 20
7.189802
 30
0.000000
  0
SEQEND
  8
LAYER-1
  0
POLYLINE
  8
LAYER-1
 66
  1
 70
  0
 62
  0
 10
4.405958
 20
7.189802
 30
0.000000
  0
VERTEX
  8
LAYER-1
 10
4.405958
 20
7.189802
 30
0.000000
  0
VERTEX
  8
LAYER-1
 10
4.405958
 20
7.461434
 30
0.000000
  0
SEQEND
  8
LAYER-1
  0
POLYLINE
  8
LAYER-1
 66
  1
 70
  0
 62
  0
 10
5.218790
 20
7.189802
 30
0.000000
  0
VERTEX
  8
LAYER-1
 10
5.218790
 20
7.189802
 30
0.000000
  0
VERTEX
  8
LAYER-1
 10
5.218790
 20
7.461434
 30
0.000000
  0
SEQEND
  8
LAYER-1
  0
POLYLINE
  8
LAYER-1
 66
  1
 70
  0
 62
  0
 10
5.037622
 20
7.461473
 30
0.000000
  0
VERTEX
  8
LAYER-1
 10
5.037622
 20
7.461473
 30
0.000000
  0
VERTEX
  8
LAYER-1
 10
5.037622
 20
7.189845
 30
0.000000
  0
SEQEND
  8
LAYER-1
  0
POLYLINE
  8
LAYER-1
 66
  1
 70
  0
 62
  0
 10
5.077481
 20
7.461473
 30
0.000000
  0
VERTEX
  8
LAYER-1
 10
5.077481
 20
7.461473
 30
0.000000
  0
VERTEX
  8
LAYER-1
 10
5.077481
 20
7.189845
 30
0.000000
  0
SEQEND
  8
LAYER-1
  0
POLYLINE
  8
LAYER-1
 66
  1
 70
  0
 62
  0
 10
4.223604
 20
7.461473
 30
0.000000
  0
VERTEX
  8
LAYER-1
 10
4.223604
 20
7.461473
 30
0.000000
  0
VERTEX
  8
LAYER-1
 10
4.223604
 20
7.189845
 30
0.000000
  0
SEQEND
  8
LAYER-1
  0
POLYLINE
  8
LAYER-1
 66
  1
 70
  0
 62
  0
 10
4.262421
 20
7.461473
 30
0.000000
  0
VERTEX
  8
LAYER-1
 10
4.262421
 20
7.461473
 30
0.000000
  0
VERTEX
  8
LAYER-1
 10
4.262421
 20
7.189845
 30
0.000000
  0
SEQEND
  8
LAYER-1
  0
POLYLINE
  8
LAYER-1
 66
  1
 70
  0
 62
  0
 10
4.490280
 20
7.461434
 30
0.000000
  0
VERTEX
  8
LAYER-1
 10
4.490280
 20
7.461434
 30
0.000000
  0
VERTEX
  8
LAYER-1
 10
4.490280
 20
7.189802
 30
0.000000
  0
SEQEND
  8
LAYER-1
  0
POLYLINE
  8
LAYER-1
 66
  1
 70
  0
 62
  0
 10
5.303112
 20
7.461434
 30
0.000000
  0
VERTEX
  8
LAYER-1
 10
5.303112
 20
7.461434
 30
0.000000
  0
VERTEX
  8
LAYER-1
 10
5.303112
 20
7.189802
 30
0.000000
  0
SEQEND
  8
LAYER-1
  0
POLYLINE
  8
LAYER-1
 66
  1
 70
  0
 62
  0
 10
5.448016
 20
7.461039
 30
0.000000
  0
VERTEX
  8
LAYER-1
 10
5.448016
 20
7.461039
 30
0.000000
  0
VERTEX
  8
LAYER-1
 10
5.448016
 20
7.189411
 30
0.000000
  0
SEQEND
  8
LAYER-1
  0
POLYLINE
  8
LAYER-1
 66
  1
 70
  0
 62
  0
 10
5.486398
 20
7.461039
 30
0.000000
  0
VERTEX
  8
LAYER-1
 10
5.486398
 20
7.461039
 30
0.000000
  0
VERTEX
  8
LAYER-1
 10
5.486398
 20
7.189411
 30
0.000000
  0
SEQEND
  8
LAYER-1
  0
POLYLINE
  8
LAYER-1
 66
  1
 70
  0
 62
  0
 10
4.630178
 20
7.461509
 30
0.000000
  0
VERTEX
  8
LAYER-1
 10
4.630178
 20
7.461509
 30
0.000000
  0
VERTEX
  8
LAYER-1
 10
4.630178
 20
7.189880
 30
0.000000
  0
SEQEND
  8
LAYER-1
  0
POLYLINE
  8
LAYER-1
 66
  1
 70
  0
 62
  0
 10
4.668561
 20
7.461509
 30
0.000000
  0
VERTEX
  8
LAYER-1
 10
4.668561
 20
7.461509
 30
0.000000
  0
VERTEX
  8
LAYER-1
 10
4.668561
 20
7.189880
 30
0.000000
  0
SEQEND
  8
LAYER-1
  0
POLYLINE
  8
LAYER-1
 66
  1
 70
  0
 62
  0
 10
4.003128
 20
7.189806
 30
0.000000
  0
VERTEX
  8
LAYER-1
 10
4.003128
 20
7.189806
 30
0.000000
  0
VERTEX
  8
LAYER-1
 10
4.003128
 20
7.461434
 30
0.000000
  0
SEQEND
  8
LAYER-1
  0
POLYLINE
  8
LAYER-1
 66
  1
 70
  0
 62
  0
 10
4.038558
 20
7.461434
 30
0.000000
  0
VERTEX
  8
LAYER-1
 10
4.038558
 20
7.461434
 30
0.000000
  0
VERTEX
  8
LAYER-1
 10
4.038558
 20
7.189804
 30
0.000000
  0
SEQEND
  8
LAYER-1
  0
POLYLINE
  8
LAYER-1
 66
  1
 70
  0
 62
  0
 10
4.037587
 20
7.461446
 30
0.000000
  0
VERTEX
  8
LAYER-1
 10
4.037587
 20
7.461446
 30
0.000000
  0
VERTEX
  8
LAYER-1
 10
4.023705
 20
7.472377
 30
0.000000
  0
VERTEX
  8
LAYER-1
 10
4.008943
 20
7.470288
 30
0.000000
  0
VERTEX
  8
LAYER-1
 10
4.004032
 20
7.461435
 30
0.000000
  0
SEQEND
  8
LAYER-1
  0
POLYLINE
  8
LAYER-1
 66
  1
 70
  0
 62
  0
 10
4.075460
 20
7.461434
 30
0.000000
  0
VERTEX
  8
LAYER-1
 10
4.075460
 20
7.461434
 30
0.000000
  0
VERTEX
  8
LAYER-1
 10
4.058354
 20
7.472418
 30
0.000000
  0
VERTEX
  8
LAYER-1
 10
4.041273
 20
7.468087
 30
0.000000
  0
VERTEX
  8
LAYER-1
 10
4.038558
 20
7.461435
 30
0.000000
  0
SEQEND
  8
LAYER-1
  0
POLYLINE
  8
LAYER-1
 66
  1
 70
  0
 62
  0
 10
4.491020
 20
7.460941
 30
0.000000
  0
VERTEX
  8
LAYER-1
 10
4.491020
 20
7.460941
 30
0.000000
  0
VERTEX
  8
LAYER-1
 10
4.471516
 20
7.470934
 30
0.000000
  0
VERTEX
  8
LAYER-1
 10
4.453442
 20
7.464208
 30
0.000000
  0
VERTEX
  8
LAYER-1
 10
4.454113
 20
7.460941
 30
0.000000
  0
SEQEND
  8
LAYER-1
  0
POLYLINE
  8
LAYER-1
 66
  1
 70
  0
 62
  0
 10
5.303978
 20
7.461411
 30
0.000000
  0
VERTEX
  8
LAYER-1
 10
5.303978
 20
7.461411
 30
0.000000
  0
VERTEX
  8
LAYER-1
 10
5.284474
 20
7.471403
 30
0.000000
  0
VERTEX
  8
LAYER-1
 10
5.266400
 20
7.464678
 30
0.000000
  0
VERTEX
  8
LAYER-1
 10
5.267070
 20
7.461411
 30
0.000000
  0
SEQEND
  8
LAYER-1
  0
POLYLINE
  8
LAYER-1
 66
  1
 70
  0
 62
  0
 10
4.443311
 20
7.460941
 30
0.000000
  0
VERTEX
  8
LAYER-1
 10
4.443311
 20
7.460941
 30
0.000000
  0
VERTEX
  8
LAYER-1
 10
4.423807
 20
7.470934
 30
0.000000
  0
VERTEX
  8
LAYER-1
 10
4.405733
 20
7.464208
 30
0.000000
  0
VERTEX
  8
LAYER-1
 10
4.406403
 20
7.460942
 30
0.000000
  0
SEQEND
  8
LAYER-1
  0
POLYLINE
  8
LAYER-1
 66
  1
 70
  0
 62
  0
 10
4.463774
 20
7.461500
 30
0.000000
  0
VERTEX
  8
LAYER-1
 10
4.463774
 20
7.461500
 30
0.000000
  0
VERTEX
  8
LAYER-1
 10
4.453022
 20
7.474506
 30
0.000000
  0
VERTEX
  8
LAYER-1
 10
4.439007
 20
7.476100
 30
0.000000
  0
VERTEX
  8
LAYER-1
 10
4.427970
 20
7.467316
 30
0.000000
  0
VERTEX
  8
LAYER-1
 10
4.428345
 20
7.461500
 30
0.000000
  0
SEQEND
  8
LAYER-1
  0
POLYLINE
  8
LAYER-1
 66
  1
 70
  0
 62
  0
 10
4.428346
 20
7.461500
 30
0.000000
  0
VERTEX
  8
LAYER-1
 10
4.428346
 20
7.461500
 30
0.000000
  0
VERTEX
  8
LAYER-1
 10
4.463774
 20
7.461500
 30
0.000000
  0
SEQEND
  8
LAYER-1
  0
POLYLINE
  8
LAYER-1
 66
  1
 70
  0
 62
  0
 10
5.255328
 20
7.461411
 30
0.000000
  0
VERTEX
  8
LAYER-1
 10
5.255328
 20
7.461411
 30
0.000000
  0
VERTEX
  8
LAYER-1
 10
5.235823
 20
7.471403
 30
0.000000
  0
VERTEX
  8
LAYER-1
 10
5.217750
 20
7.464678
 30
0.000000
  0
VERTEX
  8
LAYER-1
 10
5.218420
 20
7.461411
 30
0.000000
  0
SEQEND
  8
LAYER-1
  0
POLYLINE
  8
LAYER-1
 66
  1
 70
  0
 62
  0
 10
5.280022
 20
7.461500
 30
0.000000
  0
VERTEX
  8
LAYER-1
 10
5.280022
 20
7.461500
 30
0.000000
  0
VERTEX
  8
LAYER-1
 10
5.269269
 20
7.474506
 30
0.000000
  0
VERTEX
  8
LAYER-1
 10
5.255254
 20
7.476100
 30
0.000000
  0
VERTEX
  8
LAYER-1
 10
5.244217
 20
7.467316
 30
0.000000
  0
VERTEX
  8
LAYER-1
 10
5.244592
 20
7.461500
 30
0.000000
  0
SEQEND
  8
LAYER-1
  0
POLYLINE
  8
LAYER-1
 66
  1
 70
  0
 62
  0
 10
5.244593
 20
7.461500
 30
0.000000
  0
VERTEX
  8
LAYER-1
 10
5.244593
 20
7.461500
 30
0.000000
  0
VERTEX
  8
LAYER-1
 10
5.280021
 20
7.461500
 30
0.000000
  0
SEQEND
  8
LAYER-1
  0
POLYLINE
  8
LAYER-1
 66
  1
 70
  0
 62
  0
 10
4.004062
 20
7.189779
 30
0.000000
  0
VERTEX
  8
LAYER-1
 10
4.004062
 20
7.189779
 30
0.000000
  0
VERTEX
  8
LAYER-1
 10
4.014002
 20
7.182778
 30
0.000000
  0
VERTEX
  8
LAYER-1
 10
4.028765
 20
7.184856
 30
0.000000
  0
VERTEX
  8
LAYER-1
 10
4.037281
 20
7.189218
 30
0.000000
  0
SEQEND
  8
LAYER-1
  0
POLYLINE
  8
LAYER-1
 66
  1
 70
  0
 62
  0
 10
4.037281
 20
7.189218
 30
0.000000
  0
VERTEX
  8
LAYER-1
 10
4.037281
 20
7.189218
 30
0.000000
  0
VERTEX
  8
LAYER-1
 10
4.004062
 20
7.189779
 30
0.000000
  0
SEQEND
  8
LAYER-1
  0
POLYLINE
  8
LAYER-1
 66
  1
 70
  0
 62
  0
 10
4.039490
 20
7.189779
 30
0.000000
  0
VERTEX
  8
LAYER-1
 10
4.039490
 20
7.189779
 30
0.000000
  0
VERTEX
  8
LAYER-1
 10
4.052661
 20
7.182732
 30
0.000000
  0
VERTEX
  8
LAYER-1
 10
4.069742
 20
7.187064
 30
0.000000
  0
VERTEX
  8
LAYER-1
 10
4.076394
 20
7.189779
 30
0.000000
  0
SEQEND
  8
LAYER-1
  0
POLYLINE
  8
LAYER-1
 66
  1
 70
  0
 62
  0
 10
4.076393
 20
7.189779
 30
0.000000
  0
VERTEX
  8
LAYER-1
 10
4.076393
 20
7.189779
 30
0.000000
  0
VERTEX
  8
LAYER-1
 10
4.039491
 20
7.189779
 30
0.000000
  0
SEQEND
  8
LAYER-1
  0
POLYLINE
  8
LAYER-1
 66
  1
 70
  0
 62
  0
 10
4.406329
 20
7.189333
 30
0.000000
  0
VERTEX
  8
LAYER-1
 10
4.406329
 20
7.189333
 30
0.000000
  0
VERTEX
  8
LAYER-1
 10
4.421896
 20
7.183278
 30
0.000000
  0
VERTEX
  8
LAYER-1
 10
4.439970
 20
7.190003
 30
0.000000
  0
VERTEX
  8
LAYER-1
 10
4.443236
 20
7.189333
 30
0.000000
  0
SEQEND
  8
LAYER-1
  0
POLYLINE
  8
LAYER-1
 66
  1
 70
  0
 62
  0
 10
4.453569
 20
7.189333
 30
0.000000
  0
VERTEX
  8
LAYER-1
 10
4.453569
 20
7.189333
 30
0.000000
  0
VERTEX
  8
LAYER-1
 10
4.469137
 20
7.183278
 30
0.000000
  0
VERTEX
  8
LAYER-1
 10
4.487210
 20
7.190003
 30
0.000000
  0
VERTEX
  8
LAYER-1
 10
4.490477
 20
7.189333
 30
0.000000
  0
SEQEND
  8
LAYER-1
  0
POLYLINE
  8
LAYER-1
 66
  1
 70
  0
 62
  0
 10
4.427803
 20
7.189243
 30
0.000000
  0
VERTEX
  8
LAYER-1
 10
4.427803
 20
7.189243
 30
0.000000
  0
VERTEX
  8
LAYER-1
 10
4.434618
 20
7.180175
 30
0.000000
  0
VERTEX
  8
LAYER-1
 10
4.448633
 20
7.178582
 30
0.000000
  0
VERTEX
  8
LAYER-1
 10
4.459669
 20
7.187364
 30
0.000000
  0
VERTEX
  8
LAYER-1
 10
4.463232
 20
7.189243
 30
0.000000
  0
SEQEND
  8
LAYER-1
  0
POLYLINE
  8
LAYER-1
 66
  1
 70
  0
 62
  0
 10
4.427803
 20
7.189243
 30
0.000000
  0
VERTEX
  8
LAYER-1
 10
4.427803
 20
7.189243
 30
0.000000
  0
VERTEX
  8
LAYER-1
 10
4.463232
 20
7.189243
 30
0.000000
  0
SEQEND
  8
LAYER-1
  0
POLYLINE
  8
LAYER-1
 66
  1
 70
  0
 62
  0
 10
5.218884
 20
7.189333
 30
0.000000
  0
VERTEX
  8
LAYER-1
 10
5.218884
 20
7.189333
 30
0.000000
  0
VERTEX
  8
LAYER-1
 10
5.234451
 20
7.183278
 30
0.000000
  0
VERTEX
  8
LAYER-1
 10
5.252524
 20
7.190003
 30
0.000000
  0
VERTEX
  8
LAYER-1
 10
5.255792
 20
7.189333
 30
0.000000
  0
SEQEND
  8
LAYER-1
  0
POLYLINE
  8
LAYER-1
 66
  1
 70
  0
 62
  0
 10
5.267063
 20
7.189333
 30
0.000000
  0
VERTEX
  8
LAYER-1
 10
5.267063
 20
7.189333
 30
0.000000
  0
VERTEX
  8
LAYER-1
 10
5.282630
 20
7.183278
 30
0.000000
  0
VERTEX
  8
LAYER-1
 10
5.300704
 20
7.190003
 30
0.000000
  0
VERTEX
  8
LAYER-1
 10
5.303971
 20
7.189333
 30
0.000000
  0
SEQEND
  8
LAYER-1
  0
POLYLINE
  8
LAYER-1
 66
  1
 70
  0
 62
  0
 10
5.244586
 20
7.189243
 30
0.000000
  0
VERTEX
  8
LAYER-1
 10
5.244586
 20
7.189243
 30
0.000000
  0
VERTEX
  8
LAYER-1
 10
5.251401
 20
7.180175
 30
0.000000
  0
VERTEX
  8
LAYER-1
 10
5.265416
 20
7.178582
 30
0.000000
  0
VERTEX
  8
LAYER-1
 10
5.276453
 20
7.187364
 30
0.000000
  0
VERTEX
  8
LAYER-1
 10
5.280015
 20
7.189243
 30
0.000000
  0
SEQEND
  8
LAYER-1
  0
POLYLINE
  8
LAYER-1
 66
  1
 70
  0
 62
  0
 10
5.244587
 20
7.189243
 30
0.000000
  0
VERTEX
  8
LAYER-1
 10
5.244587
 20
7.189243
 30
0.000000
  0
VERTEX
  8
LAYER-1
 10
5.280015
 20
7.189243
 30
0.000000
  0
SEQEND
  8
LAYER-1
  0
POLYLINE
  8
LAYER-1
 66
  1
 70
  1
 62
  0
  0
VERTEX
  8
LAYER-1
 10
4.428346
 20
7.461434
 30
0.000000
  0
VERTEX
  8
LAYER-1
 10
4.463776
 20
7.461434
 30
0.000000
  0
VERTEX
  8
LAYER-1
 10
4.463776
 20
7.189805
 30
0.000000
  0
VERTEX
  8
LAYER-1
 10
4.428346
 20
7.189805
 30
0.000000
  0
SEQEND
  8
LAYER-1
  0
POLYLINE
  8
LAYER-1
 66
  1
 70
  1
 62
  0
  0
VERTEX
  8
LAYER-1
 10
5.244659
 20
7.461434
 30
0.000000
  0
VERTEX
  8
LAYER-1
 10
5.280089
 20
7.461434
 30
0.000000
  0
VERTEX
  8
LAYER-1
 10
5.280089
 20
7.189805
 30
0.000000
  0
VERTEX
  8
LAYER-1
 10
5.244659
 20
7.189805
 30
0.000000
  0
SEQEND
  8
LAYER-1
  0
POLYLINE
  8
LAYER-1
 66
  1
 70
  0
 62
  0
 10
4.428346
 20
7.393527
 30
0.000000
  0
VERTEX
  8
LAYER-1
 10
4.428346
 20
7.393527
 30
0.000000
  0
VERTEX
  8
LAYER-1
 10
4.463776
 20
7.393527
 30
0.000000
  0
SEQEND
  8
LAYER-1
  0
POLYLINE
  8
LAYER-1
 66
  1
 70
  0
 62
  0
 10
4.428346
 20
7.263618
 30
0.000000
  0
VERTEX
  8
LAYER-1
 10
4.428346
 20
7.263618
 30
0.000000
  0
VERTEX
  8
LAYER-1
 10
4.463776
 20
7.263618
 30
0.000000
  0
SEQEND
  8
LAYER-1
  0
POLYLINE
  8
LAYER-1
 66
  1
 70
  0
 62
  0
 10
5.244659
 20
7.393527
 30
0.000000
  0
VERTEX
  8
LAYER-1
 10
5.244659
 20
7.393527
 30
0.000000
  0
VERTEX
  8
LAYER-1
 10
5.280088
 20
7.393527
 30
0.000000
  0
SEQEND
  8
LAYER-1
  0
POLYLINE
  8
LAYER-1
 66
  1
 70
  0
 62
  0
 10
5.244659
 20
7.263618
 30
0.000000
  0
VERTEX
  8
LAYER-1
 10
5.244659
 20
7.263618
 30
0.000000
  0
VERTEX
  8
LAYER-1
 10
5.280088
 20
7.263618
 30
0.000000
  0
SEQEND
  8
LAYER-1
  0
POLYLINE
  8
LAYER-1
 66
  1
 70
  0
 62
  0
 10
4.259233
 20
7.461551
 30
0.000000
  0
VERTEX
  8
LAYER-1
 10
4.259233
 20
7.461551
 30
0.000000
  0
VERTEX
  8
LAYER-1
 10
4.245060
 20
7.472082
 30
0.000000
  0
VERTEX
  8
LAYER-1
 10
4.230376
 20
7.469508
 30
0.000000
  0
VERTEX
  8
LAYER-1
 10
4.226014
 20
7.460991
 30
0.000000
  0
SEQEND
  8
LAYER-1
  0
POLYLINE
  8
LAYER-1
 66
  1
 70
  0
 62
  0
 10
5.076411
 20
7.461372
 30
0.000000
  0
VERTEX
  8
LAYER-1
 10
5.076411
 20
7.461372
 30
0.000000
  0
VERTEX
  8
LAYER-1
 10
5.059303
 20
7.472356
 30
0.000000
  0
VERTEX
  8
LAYER-1
 10
5.042223
 20
7.468025
 30
0.000000
  0
VERTEX
  8
LAYER-1
 10
5.039508
 20
7.461373
 30
0.000000
  0
SEQEND
  8
LAYER-1
  0
POLYLINE
  8
LAYER-1
 66
  1
 70
  0
 62
  0
 10
4.819092
 20
7.189776
 30
0.000000
  0
VERTEX
  8
LAYER-1
 10
4.819092
 20
7.189776
 30
0.000000
  0
VERTEX
  8
LAYER-1
 10
4.829032
 20
7.182776
 30
0.000000
  0
VERTEX
  8
LAYER-1
 10
4.843795
 20
7.184853
 30
0.000000
  0
VERTEX
  8
LAYER-1
 10
4.852311
 20
7.189216
 30
0.000000
  0
SEQEND
  8
LAYER-1
  0
POLYLINE
  8
LAYER-1
 66
  1
 70
  0
 62
  0
 10
4.852311
 20
7.189216
 30
0.000000
  0
VERTEX
  8
LAYER-1
 10
4.852311
 20
7.189216
 30
0.000000
  0
VERTEX
  8
LAYER-1
 10
4.819092
 20
7.189776
 30
0.000000
  0
SEQEND
  8
LAYER-1
  0
POLYLINE
  8
LAYER-1
 66
  1
 70
  0
 62
  0
 10
4.854521
 20
7.189776
 30
0.000000
  0
VERTEX
  8
LAYER-1
 10
4.854521
 20
7.189776
 30
0.000000
  0
VERTEX
  8
LAYER-1
 10
4.867692
 20
7.182731
 30
0.000000
  0
VERTEX
  8
LAYER-1
 10
4.884772
 20
7.187062
 30
0.000000
  0
VERTEX
  8
LAYER-1
 10
4.891424
 20
7.189777
 30
0.000000
  0
SEQEND
  8
LAYER-1
  0
POLYLINE
  8
LAYER-1
 66
  1
 70
  0
 62
  0
 10
4.891424
 20
7.189777
 30
0.000000
  0
VERTEX
  8
LAYER-1
 10
4.891424
 20
7.189777
 30
0.000000
  0
VERTEX
  8
LAYER-1
 10
4.854521
 20
7.189776
 30
0.000000
  0
SEQEND
  8
LAYER-1
  0
POLYLINE
  8
LAYER-1
 66
  1
 70
  0
 62
  0
 10
4.890253
 20
7.461434
 30
0.000000
  0
VERTEX
  8
LAYER-1
 10
4.890253
 20
7.461434
 30
0.000000
  0
VERTEX
  8
LAYER-1
 10
4.890253
 20
7.189802
 30
0.000000
  0
SEQEND
  8
LAYER-1
  0
POLYLINE
  8
LAYER-1
 66
  1
 70
  0
 62
  0
 10
4.817919
 20
7.189806
 30
0.000000
  0
VERTEX
  8
LAYER-1
 10
4.817919
 20
7.189806
 30
0.000000
  0
VERTEX
  8
LAYER-1
 10
4.817919
 20
7.461434
 30
0.000000
  0
SEQEND
  8
LAYER-1
  0
POLYLINE
  8
LAYER-1
 66
  1
 70
  0
 62
  0
 10
4.853349
 20
7.461434
 30
0.000000
  0
VERTEX
  8
LAYER-1
 10
4.853349
 20
7.461434
 30
0.000000
  0
VERTEX
  8
LAYER-1
 10
4.853349
 20
7.189804
 30
0.000000
  0
SEQEND
  8
LAYER-1
  0
POLYLINE
  8
LAYER-1
 66
  1
 70
  0
 62
  0
 10
4.851443
 20
7.461853
 30
0.000000
  0
VERTEX
  8
LAYER-1
 10
4.851443
 20
7.461853
 30
0.000000
  0
VERTEX
  8
LAYER-1
 10
4.837271
 20
7.472385
 30
0.000000
  0
VERTEX
  8
LAYER-1
 10
4.822586
 20
7.469810
 30
0.000000
  0
VERTEX
  8
LAYER-1
 10
4.818224
 20
7.461294
 30
0.000000
  0
SEQEND
  8
LAYER-1
  0
POLYLINE
  8
LAYER-1
 66
  1
 70
  0
 62
  0
 10
4.851443
 20
7.461853
 30
0.000000
  0
VERTEX
  8
LAYER-1
 10
4.851443
 20
7.461853
 30
0.000000
  0
VERTEX
  8
LAYER-1
 10
4.818224
 20
7.461294
 30
0.000000
  0
SEQEND
  8
LAYER-1
  0
POLYLINE
  8
LAYER-1
 66
  1
 70
  0
 62
  0
 10
4.890555
 20
7.461292
 30
0.000000
  0
VERTEX
  8
LAYER-1
 10
4.890555
 20
7.461292
 30
0.000000
  0
VERTEX
  8
LAYER-1
 10
4.873447
 20
7.472276
 30
0.000000
  0
VERTEX
  8
LAYER-1
 10
4.856367
 20
7.467946
 30
0.000000
  0
VERTEX
  8
LAYER-1
 10
4.853652
 20
7.461294
 30
0.000000
  0
SEQEND
  8
LAYER-1
  0
POLYLINE
  8
LAYER-1
 66
  1
 70
  0
 62
  0
 10
4.890555
 20
7.461292
 30
0.000000
  0
VERTEX
  8
LAYER-1
 10
4.890555
 20
7.461292
 30
0.000000
  0
VERTEX
  8
LAYER-1
 10
4.853653
 20
7.461294
 30
0.000000
  0
SEQEND
  8
LAYER-1
  0
POLYLINE
  8
LAYER-1
 66
  1
 70
  0
 62
  0
 10
5.639092
 20
7.189776
 30
0.000000
  0
VERTEX
  8
LAYER-1
 10
5.639092
 20
7.189776
 30
0.000000
  0
VERTEX
  8
LAYER-1
 10
5.649032
 20
7.182776
 30
0.000000
  0
VERTEX
  8
LAYER-1
 10
5.663795
 20
7.184853
 30
0.000000
  0
VERTEX
  8
LAYER-1
 10
5.672312
 20
7.189216
 30
0.000000
  0
SEQEND
  8
LAYER-1
  0
POLYLINE
  8
LAYER-1
 66
  1
 70
  0
 62
  0
 10
5.672312
 20
7.189216
 30
0.000000
  0
VERTEX
  8
LAYER-1
 10
5.672312
 20
7.189216
 30
0.000000
  0
VERTEX
  8
LAYER-1
 10
5.639092
 20
7.189776
 30
0.000000
  0
SEQEND
  8
LAYER-1
  0
POLYLINE
  8
LAYER-1
 66
  1
 70
  0
 62
  0
 10
5.674521
 20
7.189776
 30
0.000000
  0
VERTEX
  8
LAYER-1
 10
5.674521
 20
7.189776
 30
0.000000
  0
VERTEX
  8
LAYER-1
 10
5.687692
 20
7.182731
 30
0.000000
  0
VERTEX
  8
LAYER-1
 10
5.704773
 20
7.187062
 30
0.000000
  0
VERTEX
  8
LAYER-1
 10
5.711425
 20
7.189777
 30
0.000000
  0
SEQEND
  8
LAYER-1
  0
POLYLINE
  8
LAYER-1
 66
  1
 70
  0
 62
  0
 10
5.711424
 20
7.189777
 30
0.000000
  0
VERTEX
  8
LAYER-1
 10
5.711424
 20
7.189777
 30
0.000000
  0
VERTEX
  8
LAYER-1
 10
5.674522
 20
7.189776
 30
0.000000
  0
SEQEND
  8
LAYER-1
  0
POLYLINE
  8
LAYER-1
 66
  1
 70
  0
 62
  0
 10
5.710253
 20
7.461434
 30
0.000000
  0
VERTEX
  8
LAYER-1
 10
5.710253
 20
7.461434
 30
0.000000
  0
VERTEX
  8
LAYER-1
 10
5.710253
 20
7.189802
 30
0.000000
  0
SEQEND
  8
LAYER-1
  0
POLYLINE
  8
LAYER-1
 66
  1
 70
  0
 62
  0
 10
5.637920
 20
7.189806
 30
0.000000
  0
VERTEX
  8
LAYER-1
 10
5.637920
 20
7.189806
 30
0.000000
  0
VERTEX
  8
LAYER-1
 10
5.637920
 20
7.461434
 30
0.000000
  0
SEQEND
  8
LAYER-1
  0
POLYLINE
  8
LAYER-1
 66
  1
 70
  0
 62
  0
 10
5.673349
 20
7.461434
 30
0.000000
  0
VERTEX
  8
LAYER-1
 10
5.673349
 20
7.461434
 30
0.000000
  0
VERTEX
  8
LAYER-1
 10
5.673349
 20
7.189804
 30
0.000000
  0
SEQEND
  8
LAYER-1
  0
POLYLINE
  8
LAYER-1
 66
  1
 70
  0
 62
  0
 10
5.671443
 20
7.461853
 30
0.000000
  0
VERTEX
  8
LAYER-1
 10
5.671443
 20
7.461853
 30
0.000000
  0
VERTEX
  8
LAYER-1
 10
5.657270
 20
7.472385
 30
0.000000
  0
VERTEX
  8
LAYER-1
 10
5.642586
 20
7.469810
 30
0.000000
  0
VERTEX
  8
LAYER-1
 10
5.638223
 20
7.461294
 30
0.000000
  0
SEQEND
  8
LAYER-1
  0
POLYLINE
  8
LAYER-1
 66
  1
 70
  0
 62
  0
 10
5.671443
 20
7.461853
 30
0.000000
  0
VERTEX
  8
LAYER-1
 10
5.671443
 20
7.461853
 30
0.000000
  0
VERTEX
  8
LAYER-1
 10
5.638224
 20
7.461294
 30
0.000000
  0
SEQEND
  8
LAYER-1
  0
POLYLINE
  8
LAYER-1
 66
  1
 70
  0
 62
  0
 10
5.710556
 20
7.461292
 30
0.000000
  0
VERTEX
  8
LAYER-1
 10
5.710556
 20
7.461292
 30
0.000000
  0
VERTEX
  8
LAYER-1
 10
5.693448
 20
7.472276
 30
0.000000
  0
VERTEX
  8
LAYER-1
 10
5.676367
 20
7.467946
 30
0.000000
  0
VERTEX
  8
LAYER-1
 10
5.673652
 20
7.461294
 30
0.000000
  0
SEQEND
  8
LAYER-1
  0
POLYLINE
  8
LAYER-1
 66
  1
 70
  0
 62
  0
 10
5.710555
 20
7.461292
 30
0.000000
  0
VERTEX
  8
LAYER-1
 10
5.710555
 20
7.461292
 30
0.000000
  0
VERTEX
  8
LAYER-1
 10
5.673653
 20
7.461294
 30
0.000000
  0
SEQEND
  8
LAYER-1
  0
POLYLINE
  8
LAYER-1
 66
  1
 70
  0
 62
  0
 10
3.813954
 20
7.393527
 30
0.000000
  0
VERTEX
  8
LAYER-1
 10
3.813954
 20
7.393527
 30
0.000000
  0
VERTEX
  8
LAYER-1
 10
3.853679
 20
7.393527
 30
0.000000
  0
SEQEND
  8
LAYER-1
  0
POLYLINE
  8
LAYER-1
 66
  1
 70
  0
 62
  0
 10
3.813954
 20
7.263618
 30
0.000000
  0
VERTEX
  8
LAYER-1
 10
3.813954
 20
7.263618
 30
0.000000
  0
VERTEX
  8
LAYER-1
 10
3.853679
 20
7.263618
 30
0.000000
  0
SEQEND
  8
LAYER-1
  0
POLYLINE
  8
LAYER-1
 66
  1
 70
  0
 62
  0
 10
3.852308
 20
7.466580
 30
0.000000
  0
VERTEX
  8
LAYER-1
 10
3.852308
 20
7.466580
 30
0.000000
  0
VERTEX
  8
LAYER-1
 10
3.835200
 20
7.477563
 30
0.000000
  0
VERTEX
  8
LAYER-1
 10
3.818120
 20
7.473233
 30
0.000000
  0
VERTEX
  8
LAYER-1
 10
3.815406
 20
7.466581
 30
0.000000
  0
SEQEND
  8
LAYER-1
  0
POLYLINE
  8
LAYER-1
 66
  1
 70
  1
 62
  0
  0
VERTEX
  8
LAYER-1
 10
3.808203
 20
7.467203
 30
0.000000
  0
VERTEX
  8
LAYER-1
 10
3.862817
 20
7.467203
 30
0.000000
  0
VERTEX
  8
LAYER-1
 10
3.862817
 20
7.461297
 30
0.000000
  0
VERTEX
  8
LAYER-1
 10
3.808203
 20
7.461297
 30
0.000000
  0
SEQEND
  8
LAYER-1
  0
POLYLINE
  8
LAYER-1
 66
  1
 70
  0
 62
  0
 10
3.854113
 20
7.461433
 30
0.000000
  0
VERTEX
  8
LAYER-1
 10
3.854113
 20
7.461433
 30
0.000000
  0
VERTEX
  8
LAYER-1
 10
3.854113
 20
7.189684
 30
0.000000
  0
SEQEND
  8
LAYER-1
  0
POLYLINE
  8
LAYER-1
 66
  1
 70
  0
 62
  0
 10
3.854102
 20
0.613297
 30
0.000000
  0
VERTEX
  8
LAYER-1
 10
3.854102
 20
0.613297
 30
0.000000
  0
VERTEX
  8
LAYER-1
 10
3.854102
 20
0.341598
 30
0.000000
  0
SEQEND
  8
LAYER-1
  0
POLYLINE
  8
LAYER-1
 66
  1
 70
  0
 62
  0
 10
4.075022
 20
0.341159
 30
0.000000
  0
VERTEX
  8
LAYER-1
 10
4.075022
 20
0.341159
 30
0.000000
  0
VERTEX
  8
LAYER-1
 10
4.075022
 20
0.612790
 30
0.000000
  0
SEQEND
  8
LAYER-1
  0
POLYLINE
  8
LAYER-1
 66
  1
 70
  0
 62
  0
 10
4.405520
 20
0.612790
 30
0.000000
  0
VERTEX
  8
LAYER-1
 10
4.405520
 20
0.612790
 30
0.000000
  0
VERTEX
  8
LAYER-1
 10
4.405520
 20
0.341159
 30
0.000000
  0
SEQEND
  8
LAYER-1
  0
POLYLINE
  8
LAYER-1
 66
  1
 70
  0
 62
  0
 10
5.218350
 20
0.612790
 30
0.000000
  0
VERTEX
  8
LAYER-1
 10
5.218350
 20
0.612790
 30
0.000000
  0
VERTEX
  8
LAYER-1
 10
5.218350
 20
0.341159
 30
0.000000
  0
SEQEND
  8
LAYER-1
  0
POLYLINE
  8
LAYER-1
 66
  1
 70
  0
 62
  0
 10
5.037184
 20
0.341119
 30
0.000000
  0
VERTEX
  8
LAYER-1
 10
5.037184
 20
0.341119
 30
0.000000
  0
VERTEX
  8
LAYER-1
 10
5.037184
 20
0.612747
 30
0.000000
  0
SEQEND
  8
LAYER-1
  0
POLYLINE
  8
LAYER-1
 66
  1
 70
  0
 62
  0
 10
5.077042
 20
0.341119
 30
0.000000
  0
VERTEX
  8
LAYER-1
 10
5.077042
 20
0.341119
 30
0.000000
  0
VERTEX
  8
LAYER-1
 10
5.077042
 20
0.612747
 30
0.000000
  0
SEQEND
  8
LAYER-1
  0
POLYLINE
  8
LAYER-1
 66
  1
 70
  0
 62
  0
 10
4.223166
 20
0.341119
 30
0.000000
  0
VERTEX
  8
LAYER-1
 10
4.223166
 20
0.341119
 30
0.000000
  0
VERTEX
  8
LAYER-1
 10
4.223166
 20
0.612747
 30
0.000000
  0
SEQEND
  8
LAYER-1
  0
POLYLINE
  8
LAYER-1
 66
  1
 70
  0
 62
  0
 10
4.261982
 20
0.341119
 30
0.000000
  0
VERTEX
  8
LAYER-1
 10
4.261982
 20
0.341119
 30
0.000000
  0
VERTEX
  8
LAYER-1
 10
4.261982
 20
0.612747
 30
0.000000
  0
SEQEND
  8
LAYER-1
  0
POLYLINE
  8
LAYER-1
 66
  1
 70
  0
 62
  0
 10
4.489841
 20
0.341159
 30
0.000000
  0
VERTEX
  8
LAYER-1
 10
4.489841
 20
0.341159
 30
0.000000
  0
VERTEX
  8
LAYER-1
 10
4.489841
 20
0.612790
 30
0.000000
  0
SEQEND
  8
LAYER-1
  0
POLYLINE
  8
LAYER-1
 66
  1
 70
  0
 62
  0
 10
5.302672
 20
0.341159
 30
0.000000
  0
VERTEX
  8
LAYER-1
 10
5.302672
 20
0.341159
 30
0.000000
  0
VERTEX
  8
LAYER-1
 10
5.302672
 20
0.612790
 30
0.000000
  0
SEQEND
  8
LAYER-1
  0
POLYLINE
  8
LAYER-1
 66
  1
 70
  0
 62
  0
 10
5.447578
 20
0.341554
 30
0.000000
  0
VERTEX
  8
LAYER-1
 10
5.447578
 20
0.341554
 30
0.000000
  0
VERTEX
  8
LAYER-1
 10
5.447578
 20
0.613182
 30
0.000000
  0
SEQEND
  8
LAYER-1
  0
POLYLINE
  8
LAYER-1
 66
  1
 70
  0
 62
  0
 10
5.485960
 20
0.341554
 30
0.000000
  0
VERTEX
  8
LAYER-1
 10
5.485960
 20
0.341554
 30
0.000000
  0
VERTEX
  8
LAYER-1
 10
5.485960
 20
0.613182
 30
0.000000
  0
SEQEND
  8
LAYER-1
  0
POLYLINE
  8
LAYER-1
 66
  1
 70
  0
 62
  0
 10
4.629739
 20
0.341084
 30
0.000000
  0
VERTEX
  8
LAYER-1
 10
4.629739
 20
0.341084
 30
0.000000
  0
VERTEX
  8
LAYER-1
 10
4.629739
 20
0.612711
 30
0.000000
  0
SEQEND
  8
LAYER-1
  0
POLYLINE
  8
LAYER-1
 66
  1
 70
  0
 62
  0
 10
4.668122
 20
0.341084
 30
0.000000
  0
VERTEX
  8
LAYER-1
 10
4.668122
 20
0.341084
 30
0.000000
  0
VERTEX
  8
LAYER-1
 10
4.668122
 20
0.612711
 30
0.000000
  0
SEQEND
  8
LAYER-1
  0
POLYLINE
  8
LAYER-1
 66
  1
 70
  0
 62
  0
 10
4.002690
 20
0.612786
 30
0.000000
  0
VERTEX
  8
LAYER-1
 10
4.002690
 20
0.612786
 30
0.000000
  0
VERTEX
  8
LAYER-1
 10
4.002690
 20
0.341158
 30
0.000000
  0
SEQEND
  8
LAYER-1
  0
POLYLINE
  8
LAYER-1
 66
  1
 70
  0
 62
  0
 10
4.038119
 20
0.341158
 30
0.000000
  0
VERTEX
  8
LAYER-1
 10
4.038119
 20
0.341158
 30
0.000000
  0
VERTEX
  8
LAYER-1
 10
4.038119
 20
0.612788
 30
0.000000
  0
SEQEND
  8
LAYER-1
  0
POLYLINE
  8
LAYER-1
 66
  1
 70
  0
 62
  0
 10
4.003594
 20
0.341158
 30
0.000000
  0
VERTEX
  8
LAYER-1
 10
4.003594
 20
0.341158
 30
0.000000
  0
VERTEX
  8
LAYER-1
 10
4.013533
 20
0.334157
 30
0.000000
  0
VERTEX
  8
LAYER-1
 10
4.028296
 20
0.336235
 30
0.000000
  0
VERTEX
  8
LAYER-1
 10
4.037149
 20
0.341146
 30
0.000000
  0
SEQEND
  8
LAYER-1
  0
POLYLINE
  8
LAYER-1
 66
  1
 70
  0
 62
  0
 10
4.038119
 20
0.341158
 30
0.000000
  0
VERTEX
  8
LAYER-1
 10
4.038119
 20
0.341158
 30
0.000000
  0
VERTEX
  8
LAYER-1
 10
4.051290
 20
0.334111
 30
0.000000
  0
VERTEX
  8
LAYER-1
 10
4.068370
 20
0.338442
 30
0.000000
  0
VERTEX
  8
LAYER-1
 10
4.075021
 20
0.341159
 30
0.000000
  0
SEQEND
  8
LAYER-1
  0
POLYLINE
  8
LAYER-1
 66
  1
 70
  0
 62
  0
 10
4.453673
 20
0.341651
 30
0.000000
  0
VERTEX
  8
LAYER-1
 10
4.453673
 20
0.341651
 30
0.000000
  0
VERTEX
  8
LAYER-1
 10
4.469240
 20
0.335596
 30
0.000000
  0
VERTEX
  8
LAYER-1
 10
4.487314
 20
0.342322
 30
0.000000
  0
VERTEX
  8
LAYER-1
 10
4.490581
 20
0.341651
 30
0.000000
  0
SEQEND
  8
LAYER-1
  0
POLYLINE
  8
LAYER-1
 66
  1
 70
  0
 62
  0
 10
5.266632
 20
0.341182
 30
0.000000
  0
VERTEX
  8
LAYER-1
 10
5.266632
 20
0.341182
 30
0.000000
  0
VERTEX
  8
LAYER-1
 10
5.282199
 20
0.335127
 30
0.000000
  0
VERTEX
  8
LAYER-1
 10
5.300273
 20
0.341852
 30
0.000000
  0
VERTEX
  8
LAYER-1
 10
5.303539
 20
0.341182
 30
0.000000
  0
SEQEND
  8
LAYER-1
  0
POLYLINE
  8
LAYER-1
 66
  1
 70
  0
 62
  0
 10
4.405964
 20
0.341651
 30
0.000000
  0
VERTEX
  8
LAYER-1
 10
4.405964
 20
0.341651
 30
0.000000
  0
VERTEX
  8
LAYER-1
 10
4.421531
 20
0.335596
 30
0.000000
  0
VERTEX
  8
LAYER-1
 10
4.439605
 20
0.342322
 30
0.000000
  0
VERTEX
  8
LAYER-1
 10
4.442872
 20
0.341651
 30
0.000000
  0
SEQEND
  8
LAYER-1
  0
POLYLINE
  8
LAYER-1
 66
  1
 70
  0
 62
  0
 10
4.427907
 20
0.341093
 30
0.000000
  0
VERTEX
  8
LAYER-1
 10
4.427907
 20
0.341093
 30
0.000000
  0
VERTEX
  8
LAYER-1
 10
4.434722
 20
0.332024
 30
0.000000
  0
VERTEX
  8
LAYER-1
 10
4.448737
 20
0.330431
 30
0.000000
  0
VERTEX
  8
LAYER-1
 10
4.459774
 20
0.339214
 30
0.000000
  0
VERTEX
  8
LAYER-1
 10
4.463336
 20
0.341093
 30
0.000000
  0
SEQEND
  8
LAYER-1
  0
POLYLINE
  8
LAYER-1
 66
  1
 70
  0
 62
  0
 10
4.427907
 20
0.341092
 30
0.000000
  0
VERTEX
  8
LAYER-1
 10
4.427907
 20
0.341092
 30
0.000000
  0
VERTEX
  8
LAYER-1
 10
4.463336
 20
0.341092
 30
0.000000
  0
SEQEND
  8
LAYER-1
  0
POLYLINE
  8
LAYER-1
 66
  1
 70
  0
 62
  0
 10
5.217982
 20
0.341181
 30
0.000000
  0
VERTEX
  8
LAYER-1
 10
5.217982
 20
0.341181
 30
0.000000
  0
VERTEX
  8
LAYER-1
 10
5.233549
 20
0.335127
 30
0.000000
  0
VERTEX
  8
LAYER-1
 10
5.251623
 20
0.341852
 30
0.000000
  0
VERTEX
  8
LAYER-1
 10
5.254889
 20
0.341182
 30
0.000000
  0
SEQEND
  8
LAYER-1
  0
POLYLINE
  8
LAYER-1
 66
  1
 70
  0
 62
  0
 10
5.244153
 20
0.341093
 30
0.000000
  0
VERTEX
  8
LAYER-1
 10
5.244153
 20
0.341093
 30
0.000000
  0
VERTEX
  8
LAYER-1
 10
5.250969
 20
0.332024
 30
0.000000
  0
VERTEX
  8
LAYER-1
 10
5.264984
 20
0.330431
 30
0.000000
  0
VERTEX
  8
LAYER-1
 10
5.276020
 20
0.339214
 30
0.000000
  0
VERTEX
  8
LAYER-1
 10
5.279583
 20
0.341093
 30
0.000000
  0
SEQEND
  8
LAYER-1
  0
POLYLINE
  8
LAYER-1
 66
  1
 70
  0
 62
  0
 10
5.244155
 20
0.341092
 30
0.000000
  0
VERTEX
  8
LAYER-1
 10
5.244155
 20
0.341092
 30
0.000000
  0
VERTEX
  8
LAYER-1
 10
5.279583
 20
0.341092
 30
0.000000
  0
SEQEND
  8
LAYER-1
  0
POLYLINE
  8
LAYER-1
 66
  1
 70
  0
 62
  0
 10
4.036843
 20
0.613374
 30
0.000000
  0
VERTEX
  8
LAYER-1
 10
4.036843
 20
0.613374
 30
0.000000
  0
VERTEX
  8
LAYER-1
 10
4.022670
 20
0.623906
 30
0.000000
  0
VERTEX
  8
LAYER-1
 10
4.007986
 20
0.621331
 30
0.000000
  0
VERTEX
  8
LAYER-1
 10
4.003624
 20
0.612815
 30
0.000000
  0
SEQEND
  8
LAYER-1
  0
POLYLINE
  8
LAYER-1
 66
  1
 70
  0
 62
  0
 10
4.036843
 20
0.613374
 30
0.000000
  0
VERTEX
  8
LAYER-1
 10
4.036843
 20
0.613374
 30
0.000000
  0
VERTEX
  8
LAYER-1
 10
4.003624
 20
0.612815
 30
0.000000
  0
SEQEND
  8
LAYER-1
  0
POLYLINE
  8
LAYER-1
 66
  1
 70
  0
 62
  0
 10
4.075956
 20
0.612812
 30
0.000000
  0
VERTEX
  8
LAYER-1
 10
4.075956
 20
0.612812
 30
0.000000
  0
VERTEX
  8
LAYER-1
 10
4.058848
 20
0.623796
 30
0.000000
  0
VERTEX
  8
LAYER-1
 10
4.041768
 20
0.619465
 30
0.000000
  0
VERTEX
  8
LAYER-1
 10
4.039052
 20
0.612812
 30
0.000000
  0
SEQEND
  8
LAYER-1
  0
POLYLINE
  8
LAYER-1
 66
  1
 70
  0
 62
  0
 10
4.075954
 20
0.612812
 30
0.000000
  0
VERTEX
  8
LAYER-1
 10
4.075954
 20
0.612812
 30
0.000000
  0
VERTEX
  8
LAYER-1
 10
4.039053
 20
0.612815
 30
0.000000
  0
SEQEND
  8
LAYER-1
  0
POLYLINE
  8
LAYER-1
 66
  1
 70
  0
 62
  0
 10
4.442797
 20
0.613258
 30
0.000000
  0
VERTEX
  8
LAYER-1
 10
4.442797
 20
0.613258
 30
0.000000
  0
VERTEX
  8
LAYER-1
 10
4.423294
 20
0.623251
 30
0.000000
  0
VERTEX
  8
LAYER-1
 10
4.405220
 20
0.616525
 30
0.000000
  0
VERTEX
  8
LAYER-1
 10
4.405890
 20
0.613261
 30
0.000000
  0
SEQEND
  8
LAYER-1
  0
POLYLINE
  8
LAYER-1
 66
  1
 70
  0
 62
  0
 10
4.490039
 20
0.613258
 30
0.000000
  0
VERTEX
  8
LAYER-1
 10
4.490039
 20
0.613258
 30
0.000000
  0
VERTEX
  8
LAYER-1
 10
4.470535
 20
0.623251
 30
0.000000
  0
VERTEX
  8
LAYER-1
 10
4.452461
 20
0.616525
 30
0.000000
  0
VERTEX
  8
LAYER-1
 10
4.453131
 20
0.613261
 30
0.000000
  0
SEQEND
  8
LAYER-1
  0
POLYLINE
  8
LAYER-1
 66
  1
 70
  0
 62
  0
 10
4.462793
 20
0.613348
 30
0.000000
  0
VERTEX
  8
LAYER-1
 10
4.462793
 20
0.613348
 30
0.000000
  0
VERTEX
  8
LAYER-1
 10
4.452041
 20
0.626354
 30
0.000000
  0
VERTEX
  8
LAYER-1
 10
4.438026
 20
0.627947
 30
0.000000
  0
VERTEX
  8
LAYER-1
 10
4.426989
 20
0.619164
 30
0.000000
  0
VERTEX
  8
LAYER-1
 10
4.427364
 20
0.613348
 30
0.000000
  0
SEQEND
  8
LAYER-1
  0
POLYLINE
  8
LAYER-1
 66
  1
 70
  0
 62
  0
 10
4.427365
 20
0.613349
 30
0.000000
  0
VERTEX
  8
LAYER-1
 10
4.427365
 20
0.613349
 30
0.000000
  0
VERTEX
  8
LAYER-1
 10
4.462793
 20
0.613349
 30
0.000000
  0
SEQEND
  8
LAYER-1
  0
POLYLINE
  8
LAYER-1
 66
  1
 70
  0
 62
  0
 10
5.255352
 20
0.613258
 30
0.000000
  0
VERTEX
  8
LAYER-1
 10
5.255352
 20
0.613258
 30
0.000000
  0
VERTEX
  8
LAYER-1
 10
5.235848
 20
0.623251
 30
0.000000
  0
VERTEX
  8
LAYER-1
 10
5.217775
 20
0.616525
 30
0.000000
  0
VERTEX
  8
LAYER-1
 10
5.218445
 20
0.613261
 30
0.000000
  0
SEQEND
  8
LAYER-1
  0
POLYLINE
  8
LAYER-1
 66
  1
 70
  0
 62
  0
 10
5.303532
 20
0.613258
 30
0.000000
  0
VERTEX
  8
LAYER-1
 10
5.303532
 20
0.613258
 30
0.000000
  0
VERTEX
  8
LAYER-1
 10
5.284029
 20
0.623251
 30
0.000000
  0
VERTEX
  8
LAYER-1
 10
5.265955
 20
0.616525
 30
0.000000
  0
VERTEX
  8
LAYER-1
 10
5.266625
 20
0.613261
 30
0.000000
  0
SEQEND
  8
LAYER-1
  0
POLYLINE
  8
LAYER-1
 66
  1
 70
  0
 62
  0
 10
5.279577
 20
0.613348
 30
0.000000
  0
VERTEX
  8
LAYER-1
 10
5.279577
 20
0.613348
 30
0.000000
  0
VERTEX
  8
LAYER-1
 10
5.268825
 20
0.626354
 30
0.000000
  0
VERTEX
  8
LAYER-1
 10
5.254809
 20
0.627947
 30
0.000000
  0
VERTEX
  8
LAYER-1
 10
5.243773
 20
0.619164
 30
0.000000
  0
VERTEX
  8
LAYER-1
 10
5.244148
 20
0.613348
 30
0.000000
  0
SEQEND
  8
LAYER-1
  0
POLYLINE
  8
LAYER-1
 66
  1
 70
  0
 62
  0
 10
5.244148
 20
0.613349
 30
0.000000
  0
VERTEX
  8
LAYER-1
 10
5.244148
 20
0.613349
 30
0.000000
  0
VERTEX
  8
LAYER-1
 10
5.279576
 20
0.613349
 30
0.000000
  0
SEQEND
  8
LAYER-1
  0
POLYLINE
  8
LAYER-1
 66
  1
 70
  1
 62
  0
  0
VERTEX
  8
LAYER-1
 10
4.463337
 20
0.341159
 30
0.000000
  0
VERTEX
  8
LAYER-1
 10
4.427907
 20
0.341159
 30
0.000000
  0
VERTEX
  8
LAYER-1
 10
4.427907
 20
0.612788
 30
0.000000
  0
VERTEX
  8
LAYER-1
 10
4.463337
 20
0.612788
 30
0.000000
  0
SEQEND
  8
LAYER-1
  0
POLYLINE
  8
LAYER-1
 66
  1
 70
  1
 62
  0
  0
VERTEX
  8
LAYER-1
 10
5.279651
 20
0.341159
 30
0.000000
  0
VERTEX
  8
LAYER-1
 10
5.244221
 20
0.341159
 30
0.000000
  0
VERTEX
  8
LAYER-1
 10
5.244221
 20
0.612788
 30
0.000000
  0
VERTEX
  8
LAYER-1
 10
5.279651
 20
0.612788
 30
0.000000
  0
SEQEND
  8
LAYER-1
  0
POLYLINE
  8
LAYER-1
 66
  1
 70
  0
 62
  0
 10
4.427907
 20
0.409065
 30
0.000000
  0
VERTEX
  8
LAYER-1
 10
4.427907
 20
0.409065
 30
0.000000
  0
VERTEX
  8
LAYER-1
 10
4.463337
 20
0.409065
 30
0.000000
  0
SEQEND
  8
LAYER-1
  0
POLYLINE
  8
LAYER-1
 66
  1
 70
  0
 62
  0
 10
4.427907
 20
0.538974
 30
0.000000
  0
VERTEX
  8
LAYER-1
 10
4.427907
 20
0.538974
 30
0.000000
  0
VERTEX
  8
LAYER-1
 10
4.463337
 20
0.538974
 30
0.000000
  0
SEQEND
  8
LAYER-1
  0
POLYLINE
  8
LAYER-1
 66
  1
 70
  0
 62
  0
 10
5.244221
 20
0.409065
 30
0.000000
  0
VERTEX
  8
LAYER-1
 10
5.244221
 20
0.409065
 30
0.000000
  0
VERTEX
  8
LAYER-1
 10
5.279649
 20
0.409065
 30
0.000000
  0
SEQEND
  8
LAYER-1
  0
POLYLINE
  8
LAYER-1
 66
  1
 70
  0
 62
  0
 10
5.244221
 20
0.538974
 30
0.000000
  0
VERTEX
  8
LAYER-1
 10
5.244221
 20
0.538974
 30
0.000000
  0
VERTEX
  8
LAYER-1
 10
5.279649
 20
0.538974
 30
0.000000
  0
SEQEND
  8
LAYER-1
  0
POLYLINE
  8
LAYER-1
 66
  1
 70
  0
 62
  0
 10
4.225575
 20
0.341601
 30
0.000000
  0
VERTEX
  8
LAYER-1
 10
4.225575
 20
0.341601
 30
0.000000
  0
VERTEX
  8
LAYER-1
 10
4.235515
 20
0.334601
 30
0.000000
  0
VERTEX
  8
LAYER-1
 10
4.250278
 20
0.336679
 30
0.000000
  0
VERTEX
  8
LAYER-1
 10
4.258794
 20
0.341042
 30
0.000000
  0
SEQEND
  8
LAYER-1
  0
POLYLINE
  8
LAYER-1
 66
  1
 70
  0
 62
  0
 10
5.039068
 20
0.341219
 30
0.000000
  0
VERTEX
  8
LAYER-1
 10
5.039068
 20
0.341219
 30
0.000000
  0
VERTEX
  8
LAYER-1
 10
5.052241
 20
0.334174
 30
0.000000
  0
VERTEX
  8
LAYER-1
 10
5.069320
 20
0.338505
 30
0.000000
  0
VERTEX
  8
LAYER-1
 10
5.075973
 20
0.341220
 30
0.000000
  0
SEQEND
  8
LAYER-1
  0
POLYLINE
  8
LAYER-1
 66
  1
 70
  0
 62
  0
 10
4.851873
 20
0.613376
 30
0.000000
  0
VERTEX
  8
LAYER-1
 10
4.851873
 20
0.613376
 30
0.000000
  0
VERTEX
  8
LAYER-1
 10
4.837701
 20
0.623907
 30
0.000000
  0
VERTEX
  8
LAYER-1
 10
4.823016
 20
0.621333
 30
0.000000
  0
VERTEX
  8
LAYER-1
 10
4.818654
 20
0.612817
 30
0.000000
  0
SEQEND
  8
LAYER-1
  0
POLYLINE
  8
LAYER-1
 66
  1
 70
  0
 62
  0
 10
4.851872
 20
0.613376
 30
0.000000
  0
VERTEX
  8
LAYER-1
 10
4.851872
 20
0.613376
 30
0.000000
  0
VERTEX
  8
LAYER-1
 10
4.818654
 20
0.612817
 30
0.000000
  0
SEQEND
  8
LAYER-1
  0
POLYLINE
  8
LAYER-1
 66
  1
 70
  0
 62
  0
 10
4.890985
 20
0.612816
 30
0.000000
  0
VERTEX
  8
LAYER-1
 10
4.890985
 20
0.612816
 30
0.000000
  0
VERTEX
  8
LAYER-1
 10
4.873877
 20
0.623800
 30
0.000000
  0
VERTEX
  8
LAYER-1
 10
4.856797
 20
0.619469
 30
0.000000
  0
VERTEX
  8
LAYER-1
 10
4.854081
 20
0.612817
 30
0.000000
  0
SEQEND
  8
LAYER-1
  0
POLYLINE
  8
LAYER-1
 66
  1
 70
  0
 62
  0
 10
4.890986
 20
0.612815
 30
0.000000
  0
VERTEX
  8
LAYER-1
 10
4.890986
 20
0.612815
 30
0.000000
  0
VERTEX
  8
LAYER-1
 10
4.854082
 20
0.612817
 30
0.000000
  0
SEQEND
  8
LAYER-1
  0
POLYLINE
  8
LAYER-1
 66
  1
 70
  0
 62
  0
 10
4.889814
 20
0.341159
 30
0.000000
  0
VERTEX
  8
LAYER-1
 10
4.889814
 20
0.341159
 30
0.000000
  0
VERTEX
  8
LAYER-1
 10
4.889814
 20
0.612790
 30
0.000000
  0
SEQEND
  8
LAYER-1
  0
POLYLINE
  8
LAYER-1
 66
  1
 70
  0
 62
  0
 10
4.817480
 20
0.612786
 30
0.000000
  0
VERTEX
  8
LAYER-1
 10
4.817480
 20
0.612786
 30
0.000000
  0
VERTEX
  8
LAYER-1
 10
4.817480
 20
0.341158
 30
0.000000
  0
SEQEND
  8
LAYER-1
  0
POLYLINE
  8
LAYER-1
 66
  1
 70
  0
 62
  0
 10
4.852910
 20
0.341158
 30
0.000000
  0
VERTEX
  8
LAYER-1
 10
4.852910
 20
0.341158
 30
0.000000
  0
VERTEX
  8
LAYER-1
 10
4.852910
 20
0.612788
 30
0.000000
  0
SEQEND
  8
LAYER-1
  0
POLYLINE
  8
LAYER-1
 66
  1
 70
  0
 62
  0
 10
4.817785
 20
0.341299
 30
0.000000
  0
VERTEX
  8
LAYER-1
 10
4.817785
 20
0.341299
 30
0.000000
  0
VERTEX
  8
LAYER-1
 10
4.827725
 20
0.334299
 30
0.000000
  0
VERTEX
  8
LAYER-1
 10
4.842488
 20
0.336377
 30
0.000000
  0
VERTEX
  8
LAYER-1
 10
4.851004
 20
0.340740
 30
0.000000
  0
SEQEND
  8
LAYER-1
  0
POLYLINE
  8
LAYER-1
 66
  1
 70
  0
 62
  0
 10
4.851004
 20
0.340738
 30
0.000000
  0
VERTEX
  8
LAYER-1
 10
4.851004
 20
0.340738
 30
0.000000
  0
VERTEX
  8
LAYER-1
 10
4.817785
 20
0.341299
 30
0.000000
  0
SEQEND
  8
LAYER-1
  0
POLYLINE
  8
LAYER-1
 66
  1
 70
  0
 62
  0
 10
4.853214
 20
0.341299
 30
0.000000
  0
VERTEX
  8
LAYER-1
 10
4.853214
 20
0.341299
 30
0.000000
  0
VERTEX
  8
LAYER-1
 10
4.866385
 20
0.334253
 30
0.000000
  0
VERTEX
  8
LAYER-1
 10
4.883465
 20
0.338584
 30
0.000000
  0
VERTEX
  8
LAYER-1
 10
4.890117
 20
0.341300
 30
0.000000
  0
SEQEND
  8
LAYER-1
  0
POLYLINE
  8
LAYER-1
 66
  1
 70
  0
 62
  0
 10
4.890117
 20
0.341299
 30
0.000000
  0
VERTEX
  8
LAYER-1
 10
4.890117
 20
0.341299
 30
0.000000
  0
VERTEX
  8
LAYER-1
 10
4.853214
 20
0.341299
 30
0.000000
  0
SEQEND
  8
LAYER-1
  0
POLYLINE
  8
LAYER-1
 66
  1
 70
  0
 62
  0
 10
5.671872
 20
0.613376
 30
0.000000
  0
VERTEX
  8
LAYER-1
 10
5.671872
 20
0.613376
 30
0.000000
  0
VERTEX
  8
LAYER-1
 10
5.657700
 20
0.623907
 30
0.000000
  0
VERTEX
  8
LAYER-1
 10
5.643016
 20
0.621333
 30
0.000000
  0
VERTEX
  8
LAYER-1
 10
5.638653
 20
0.612817
 30
0.000000
  0
SEQEND
  8
LAYER-1
  0
POLYLINE
  8
LAYER-1
 66
  1
 70
  0
 62
  0
 10
5.671872
 20
0.613376
 30
0.000000
  0
VERTEX
  8
LAYER-1
 10
5.671872
 20
0.613376
 30
0.000000
  0
VERTEX
  8
LAYER-1
 10
5.638654
 20
0.612817
 30
0.000000
  0
SEQEND
  8
LAYER-1
  0
POLYLINE
  8
LAYER-1
 66
  1
 70
  0
 62
  0
 10
5.710985
 20
0.612816
 30
0.000000
  0
VERTEX
  8
LAYER-1
 10
5.710985
 20
0.612816
 30
0.000000
  0
VERTEX
  8
LAYER-1
 10
5.693877
 20
0.623800
 30
0.000000
  0
VERTEX
  8
LAYER-1
 10
5.676797
 20
0.619469
 30
0.000000
  0
VERTEX
  8
LAYER-1
 10
5.674082
 20
0.612817
 30
0.000000
  0
SEQEND
  8
LAYER-1
  0
POLYLINE
  8
LAYER-1
 66
  1
 70
  0
 62
  0
 10
5.710985
 20
0.612815
 30
0.000000
  0
VERTEX
  8
LAYER-1
 10
5.710985
 20
0.612815
 30
0.000000
  0
VERTEX
  8
LAYER-1
 10
5.674082
 20
0.612817
 30
0.000000
  0
SEQEND
  8
LAYER-1
  0
POLYLINE
  8
LAYER-1
 66
  1
 70
  0
 62
  0
 10
5.709814
 20
0.341159
 30
0.000000
  0
VERTEX
  8
LAYER-1
 10
5.709814
 20
0.341159
 30
0.000000
  0
VERTEX
  8
LAYER-1
 10
5.709814
 20
0.612790
 30
0.000000
  0
SEQEND
  8
LAYER-1
  0
POLYLINE
  8
LAYER-1
 66
  1
 70
  0
 62
  0
 10
5.637480
 20
0.612786
 30
0.000000
  0
VERTEX
  8
LAYER-1
 10
5.637480
 20
0.612786
 30
0.000000
  0
VERTEX
  8
LAYER-1
 10
5.637480
 20
0.341158
 30
0.000000
  0
SEQEND
  8
LAYER-1
  0
POLYLINE
  8
LAYER-1
 66
  1
 70
  0
 62
  0
 10
5.672910
 20
0.341158
 30
0.000000
  0
VERTEX
  8
LAYER-1
 10
5.672910
 20
0.341158
 30
0.000000
  0
VERTEX
  8
LAYER-1
 10
5.672910
 20
0.612788
 30
0.000000
  0
SEQEND
  8
LAYER-1
  0
POLYLINE
  8
LAYER-1
 66
  1
 70
  0
 62
  0
 10
5.637785
 20
0.341299
 30
0.000000
  0
VERTEX
  8
LAYER-1
 10
5.637785
 20
0.341299
 30
0.000000
  0
VERTEX
  8
LAYER-1
 10
5.647725
 20
0.334299
 30
0.000000
  0
VERTEX
  8
LAYER-1
 10
5.662488
 20
0.336377
 30
0.000000
  0
VERTEX
  8
LAYER-1
 10
5.671004
 20
0.340740
 30
0.000000
  0
SEQEND
  8
LAYER-1
  0
POLYLINE
  8
LAYER-1
 66
  1
 70
  0
 62
  0
 10
5.671004
 20
0.340738
 30
0.000000
  0
VERTEX
  8
LAYER-1
 10
5.671004
 20
0.340738
 30
0.000000
  0
VERTEX
  8
LAYER-1
 10
5.637785
 20
0.341299
 30
0.000000
  0
SEQEND
  8
LAYER-1
  0
POLYLINE
  8
LAYER-1
 66
  1
 70
  0
 62
  0
 10
5.673214
 20
0.341299
 30
0.000000
  0
VERTEX
  8
LAYER-1
 10
5.673214
 20
0.341299
 30
0.000000
  0
VERTEX
  8
LAYER-1
 10
5.686385
 20
0.334253
 30
0.000000
  0
VERTEX
  8
LAYER-1
 10
5.703465
 20
0.338584
 30
0.000000
  0
VERTEX
  8
LAYER-1
 10
5.710117
 20
0.341300
 30
0.000000
  0
SEQEND
  8
LAYER-1
  0
POLYLINE
  8
LAYER-1
 66
  1
 70
  0
 62
  0
 10
5.710117
 20
0.341299
 30
0.000000
  0
VERTEX
  8
LAYER-1
 10
5.710117
 20
0.341299
 30
0.000000
  0
VERTEX
  8
LAYER-1
 10
5.673214
 20
0.341299
 30
0.000000
  0
SEQEND
  8
LAYER-1
  0
POLYLINE
  8
LAYER-1
 66
  1
 70
  0
 62
  0
 40
0.027778
 41
0.027778
 10
3.644370
 20
0.237216
 30
0.000000
  0
VERTEX
  8
LAYER-1
 10
3.644370
 20
0.237216
 30
0.000000
  0
VERTEX
  8
LAYER-1
 10
0.742741
 20
0.237216
 30
0.000000
  0
SEQEND
  8
LAYER-1
  0
POLYLINE
  8
LAYER-1
 66
  1
 70
  0
 62
  0
 40
0.027778
 41
0.027778
 10
3.737987
 20
0.237216
 30
0.000000
  0
VERTEX
  8
LAYER-1
 10
3.737987
 20
0.237216
 30
0.000000
  0
VERTEX
  8
LAYER-1
 10
6.735797
 20
0.237216
 30
0.000000
  0
SEQEND
  8
LAYER-1
  0
POLYLINE
  8
LAYER-1
 66
  1
 70
  0
 62
  0
 10
3.642812
 20
2.258422
 30
0.000000
  0
VERTEX
  8
LAYER-1
 10
3.642812
 20
2.258422
 30
0.000000
  0
VERTEX
  8
LAYER-1
 10
1.767915
 20
2.258422
 30
0.000000
  0
SEQEND
  8
LAYER-1
  0
POLYLINE
  8
LAYER-1
 66
  1
 70
  0
 62
  0
 10
3.642812
 20
3.902453
 30
0.000000
  0
VERTEX
  8
LAYER-1
 10
3.642812
 20
3.902453
 30
0.000000
  0
VERTEX
  8
LAYER-1
 10
1.767915
 20
3.902453
 30
0.000000
  0
SEQEND
  8
LAYER-1
  0
POLYLINE
  8
LAYER-1
 66
  1
 70
  0
 62
  0
 10
3.642812
 20
5.546480
 30
0.000000
  0
VERTEX
  8
LAYER-1
 10
3.642812
 20
5.546480
 30
0.000000
  0
VERTEX
  8
LAYER-1
 10
1.767915
 20
5.546480
 30
0.000000
  0
SEQEND
  8
LAYER-1
  0
POLYLINE
  8
LAYER-1
 66
  1
 70
  0
 62
  0
 10
3.642915
 20
1.436589
 30
0.000000
  0
VERTEX
  8
LAYER-1
 10
3.642915
 20
1.436589
 30
0.000000
  0
VERTEX
  8
LAYER-1
 10
1.767915
 20
1.436589
 30
0.000000
  0
SEQEND
  8
LAYER-1
  0
POLYLINE
  8
LAYER-1
 66
  1
 70
  0
 62
  0
 10
3.642915
 20
3.080617
 30
0.000000
  0
VERTEX
  8
LAYER-1
 10
3.642915
 20
3.080617
 30
0.000000
  0
VERTEX
  8
LAYER-1
 10
1.767915
 20
3.080617
 30
0.000000
  0
SEQEND
  8
LAYER-1
  0
POLYLINE
  8
LAYER-1
 66
  1
 70
  0
 62
  0
 10
3.642915
 20
4.724647
 30
0.000000
  0
VERTEX
  8
LAYER-1
 10
3.642915
 20
4.724647
 30
0.000000
  0
VERTEX
  8
LAYER-1
 10
1.768783
 20
4.724647
 30
0.000000
  0
SEQEND
  8
LAYER-1
  0
POLYLINE
  8
LAYER-1
 66
  1
 70
  0
 62
  0
 10
3.642915
 20
6.368674
 30
0.000000
  0
VERTEX
  8
LAYER-1
 10
3.642915
 20
6.368674
 30
0.000000
  0
VERTEX
  8
LAYER-1
 10
1.767915
 20
6.368674
 30
0.000000
  0
SEQEND
  8
LAYER-1
  0
POLYLINE
  8
LAYER-1
 66
  1
 70
  0
 62
  0
 10
5.689688
 20
2.257245
 30
0.000000
  0
VERTEX
  8
LAYER-1
 10
5.689688
 20
2.257245
 30
0.000000
  0
VERTEX
  8
LAYER-1
 10
3.814791
 20
2.257245
 30
0.000000
  0
SEQEND
  8
LAYER-1
  0
POLYLINE
  8
LAYER-1
 66
  1
 70
  0
 62
  0
 10
5.689688
 20
3.901276
 30
0.000000
  0
VERTEX
  8
LAYER-1
 10
5.689688
 20
3.901276
 30
0.000000
  0
VERTEX
  8
LAYER-1
 10
3.814791
 20
3.901276
 30
0.000000
  0
SEQEND
  8
LAYER-1
  0
POLYLINE
  8
LAYER-1
 66
  1
 70
  0
 62
  0
 10
5.689688
 20
5.545304
 30
0.000000
  0
VERTEX
  8
LAYER-1
 10
5.689688
 20
5.545304
 30
0.000000
  0
VERTEX
  8
LAYER-1
 10
3.814791
 20
5.545304
 30
0.000000
  0
SEQEND
  8
LAYER-1
  0
POLYLINE
  8
LAYER-1
 66
  1
 70
  0
 62
  0
 10
5.689791
 20
1.435412
 30
0.000000
  0
VERTEX
  8
LAYER-1
 10
5.689791
 20
1.435412
 30
0.000000
  0
VERTEX
  8
LAYER-1
 10
3.814791
 20
1.435412
 30
0.000000
  0
SEQEND
  8
LAYER-1
  0
POLYLINE
  8
LAYER-1
 66
  1
 70
  0
 62
  0
 10
5.689791
 20
3.079441
 30
0.000000
  0
VERTEX
  8
LAYER-1
 10
5.689791
 20
3.079441
 30
0.000000
  0
VERTEX
  8
LAYER-1
 10
3.814791
 20
3.079441
 30
0.000000
  0
SEQEND
  8
LAYER-1
  0
POLYLINE
  8
LAYER-1
 66
  1
 70
  0
 62
  0
 10
5.689791
 20
4.723470
 30
0.000000
  0
VERTEX
  8
LAYER-1
 10
5.689791
 20
4.723470
 30
0.000000
  0
VERTEX
  8
LAYER-1
 10
3.815658
 20
4.723470
 30
0.000000
  0
SEQEND
  8
LAYER-1
  0
POLYLINE
  8
LAYER-1
 66
  1
 70
  0
 62
  0
 10
5.689791
 20
6.367498
 30
0.000000
  0
VERTEX
  8
LAYER-1
 10
5.689791
 20
6.367498
 30
0.000000
  0
VERTEX
  8
LAYER-1
 10
3.814791
 20
6.367498
 30
0.000000
  0
SEQEND
  8
LAYER-1
  0
POLYLINE
  8
LAYER-1
 66
  1
 70
  1
 62
  7
  0
VERTEX
  8
LAYER-1
 10
0.077721
 20
4.785225
 30
0.000000
  0
VERTEX
  8
LAYER-1
 10
0.164024
 20
4.785225
 30
0.000000
  0
VERTEX
  8
LAYER-1
 10
0.164024
 20
4.485655
 30
0.000000
  0
VERTEX
  8
LAYER-1
 10
0.077721
 20
4.485655
 30
0.000000
  0
SEQEND
  8
LAYER-1
  0
POLYLINE
  8
LAYER-1
 66
  1
 70
  1
 62
  7
  0
VERTEX
  8
LAYER-1
 10
0.227814
 20
4.785225
 30
0.000000
  0
VERTEX
  8
LAYER-1
 10
0.314117
 20
4.785225
 30
0.000000
  0
VERTEX
  8
LAYER-1
 10
0.314117
 20
4.485655
 30
0.000000
  0
VERTEX
  8
LAYER-1
 10
0.227814
 20
4.485655
 30
0.000000
  0
SEQEND
  8
LAYER-1
  0
POLYLINE
  8
LAYER-1
 66
  1
 70
  1
 62
  7
  0
VERTEX
  8
LAYER-1
 10
0.377908
 20
4.785225
 30
0.000000
  0
VERTEX
  8
LAYER-1
 10
0.464209
 20
4.785225
 30
0.000000
  0
VERTEX
  8
LAYER-1
 10
0.464209
 20
4.485655
 30
0.000000
  0
VERTEX
  8
LAYER-1
 10
0.377908
 20
4.485655
 30
0.000000
  0
SEQEND
  8
LAYER-1
  0
POLYLINE
  8
LAYER-1
 66
  1
 70
  1
 62
  7
  0
VERTEX
  8
LAYER-1
 10
0.527998
 20
4.785225
 30
0.000000
  0
VERTEX
  8
LAYER-1
 10
0.614300
 20
4.785225
 30
0.000000
  0
VERTEX
  8
LAYER-1
 10
0.614300
 20
4.485655
 30
0.000000
  0
VERTEX
  8
LAYER-1
 10
0.527998
 20
4.485655
 30
0.000000
  0
SEQEND
  8
LAYER-1
  0
POLYLINE
  8
LAYER-1
 66
  1
 70
  1
 62
  7
  0
VERTEX
  8
LAYER-1
 10
0.678090
 20
4.785225
 30
0.000000
  0
VERTEX
  8
LAYER-1
 10
0.764393
 20
4.785225
 30
0.000000
  0
VERTEX
  8
LAYER-1
 10
0.764393
 20
4.485655
 30
0.000000
  0
VERTEX
  8
LAYER-1
 10
0.678090
 20
4.485655
 30
0.000000
  0
SEQEND
  8
LAYER-1
  0
POLYLINE
  8
LAYER-1
 66
  1
 70
  1
 62
  7
  0
VERTEX
  8
LAYER-1
 10
0.828183
 20
4.785225
 30
0.000000
  0
VERTEX
  8
LAYER-1
 10
0.914486
 20
4.785225
 30
0.000000
  0
VERTEX
  8
LAYER-1
 10
0.914486
 20
4.485655
 30
0.000000
  0
VERTEX
  8
LAYER-1
 10
0.828183
 20
4.485655
 30
0.000000
  0
SEQEND
  8
LAYER-1
  0
POLYLINE
  8
LAYER-1
 66
  1
 70
  1
 62
  7
  0
VERTEX
  8
LAYER-1
 10
0.978276
 20
4.785225
 30
0.000000
  0
VERTEX
  8
LAYER-1
 10
1.064578
 20
4.785225
 30
0.000000
  0
VERTEX
  8
LAYER-1
 10
1.064578
 20
4.485655
 30
0.000000
  0
VERTEX
  8
LAYER-1
 10
0.978276
 20
4.485655
 30
0.000000
  0
SEQEND
  8
LAYER-1
  0
POLYLINE
  8
LAYER-1
 66
  1
 70
  1
 62
  7
  0
VERTEX
  8
LAYER-1
 10
0.002554
 20
5.084771
 30
0.000000
  0
VERTEX
  8
LAYER-1
 10
0.088854
 20
5.084771
 30
0.000000
  0
VERTEX
  8
LAYER-1
 10
0.088854
 20
4.785207
 30
0.000000
  0
VERTEX
  8
LAYER-1
 10
0.002554
 20
4.785207
 30
0.000000
  0
SEQEND
  8
LAYER-1
  0
POLYLINE
  8
LAYER-1
 66
  1
 70
  1
 62
  7
  0
VERTEX
  8
LAYER-1
 10
0.152645
 20
5.084771
 30
0.000000
  0
VERTEX
  8
LAYER-1
 10
0.238947
 20
5.084771
 30
0.000000
  0
VERTEX
  8
LAYER-1
 10
0.238947
 20
4.785207
 30
0.000000
  0
VERTEX
  8
LAYER-1
 10
0.152645
 20
4.785207
 30
0.000000
  0
SEQEND
  8
LAYER-1
  0
POLYLINE
  8
LAYER-1
 66
  1
 70
  1
 62
  7
  0
VERTEX
  8
LAYER-1
 10
0.302738
 20
5.084771
 30
0.000000
  0
VERTEX
  8
LAYER-1
 10
0.389041
 20
5.084771
 30
0.000000
  0
VERTEX
  8
LAYER-1
 10
0.389041
 20
4.785207
 30
0.000000
  0
VERTEX
  8
LAYER-1
 10
0.302738
 20
4.785207
 30
0.000000
  0
SEQEND
  8
LAYER-1
  0
POLYLINE
  8
LAYER-1
 66
  1
 70
  1
 62
  7
  0
VERTEX
  8
LAYER-1
 10
0.452831
 20
5.084771
 30
0.000000
  0
VERTEX
  8
LAYER-1
 10
0.539133
 20
5.084771
 30
0.000000
  0
VERTEX
  8
LAYER-1
 10
0.539133
 20
4.785207
 30
0.000000
  0
VERTEX
  8
LAYER-1
 10
0.452831
 20
4.785207
 30
0.000000
  0
SEQEND
  8
LAYER-1
  0
POLYLINE
  8
LAYER-1
 66
  1
 70
  1
 62
  7
  0
VERTEX
  8
LAYER-1
 10
0.602924
 20
5.084771
 30
0.000000
  0
VERTEX
  8
LAYER-1
 10
0.689225
 20
5.084771
 30
0.000000
  0
VERTEX
  8
LAYER-1
 10
0.689225
 20
4.785207
 30
0.000000
  0
VERTEX
  8
LAYER-1
 10
0.602924
 20
4.785207
 30
0.000000
  0
SEQEND
  8
LAYER-1
  0
POLYLINE
  8
LAYER-1
 66
  1
 70
  1
 62
  7
  0
VERTEX
  8
LAYER-1
 10
0.753015
 20
5.084771
 30
0.000000
  0
VERTEX
  8
LAYER-1
 10
0.839318
 20
5.084771
 30
0.000000
  0
VERTEX
  8
LAYER-1
 10
0.839318
 20
4.785207
 30
0.000000
  0
VERTEX
  8
LAYER-1
 10
0.753015
 20
4.785207
 30
0.000000
  0
SEQEND
  8
LAYER-1
  0
POLYLINE
  8
LAYER-1
 66
  1
 70
  1
 62
  7
  0
VERTEX
  8
LAYER-1
 10
0.903108
 20
5.084771
 30
0.000000
  0
VERTEX
  8
LAYER-1
 10
0.989411
 20
5.084771
 30
0.000000
  0
VERTEX
  8
LAYER-1
 10
0.989411
 20
4.785207
 30
0.000000
  0
VERTEX
  8
LAYER-1
 10
0.903108
 20
4.785207
 30
0.000000
  0
SEQEND
  8
LAYER-1
  0
POLYLINE
  8
LAYER-1
 66
  1
 70
  1
 62
  7
  0
VERTEX
  8
LAYER-1
 10
0.077721
 20
4.186122
 30
0.000000
  0
VERTEX
  8
LAYER-1
 10
0.164024
 20
4.186122
 30
0.000000
  0
VERTEX
  8
LAYER-1
 10
0.164024
 20
3.886558
 30
0.000000
  0
VERTEX
  8
LAYER-1
 10
0.077721
 20
3.886558
 30
0.000000
  0
SEQEND
  8
LAYER-1
  0
POLYLINE
  8
LAYER-1
 66
  1
 70
  1
 62
  7
  0
VERTEX
  8
LAYER-1
 10
0.227814
 20
4.186122
 30
0.000000
  0
VERTEX
  8
LAYER-1
 10
0.314117
 20
4.186122
 30
0.000000
  0
VERTEX
  8
LAYER-1
 10
0.314117
 20
3.886558
 30
0.000000
  0
VERTEX
  8
LAYER-1
 10
0.227814
 20
3.886558
 30
0.000000
  0
SEQEND
  8
LAYER-1
  0
POLYLINE
  8
LAYER-1
 66
  1
 70
  1
 62
  7
  0
VERTEX
  8
LAYER-1
 10
0.377908
 20
4.186122
 30
0.000000
  0
VERTEX
  8
LAYER-1
 10
0.464209
 20
4.186122
 30
0.000000
  0
VERTEX
  8
LAYER-1
 10
0.464209
 20
3.886558
 30
0.000000
  0
VERTEX
  8
LAYER-1
 10
0.377908
 20
3.886558
 30
0.000000
  0
SEQEND
  8
LAYER-1
  0
POLYLINE
  8
LAYER-1
 66
  1
 70
  1
 62
  7
  0
VERTEX
  8
LAYER-1
 10
0.527998
 20
4.186122
 30
0.000000
  0
VERTEX
  8
LAYER-1
 10
0.614300
 20
4.186122
 30
0.000000
  0
VERTEX
  8
LAYER-1
 10
0.614300
 20
3.886558
 30
0.000000
  0
VERTEX
  8
LAYER-1
 10
0.527998
 20
3.886558
 30
0.000000
  0
SEQEND
  8
LAYER-1
  0
POLYLINE
  8
LAYER-1
 66
  1
 70
  1
 62
  7
  0
VERTEX
  8
LAYER-1
 10
0.678090
 20
4.186122
 30
0.000000
  0
VERTEX
  8
LAYER-1
 10
0.764393
 20
4.186122
 30
0.000000
  0
VERTEX
  8
LAYER-1
 10
0.764393
 20
3.886558
 30
0.000000
  0
VERTEX
  8
LAYER-1
 10
0.678090
 20
3.886558
 30
0.000000
  0
SEQEND
  8
LAYER-1
  0
POLYLINE
  8
LAYER-1
 66
  1
 70
  1
 62
  7
  0
VERTEX
  8
LAYER-1
 10
0.828183
 20
4.186122
 30
0.000000
  0
VERTEX
  8
LAYER-1
 10
0.914486
 20
4.186122
 30
0.000000
  0
VERTEX
  8
LAYER-1
 10
0.914486
 20
3.886558
 30
0.000000
  0
VERTEX
  8
LAYER-1
 10
0.828183
 20
3.886558
 30
0.000000
  0
SEQEND
  8
LAYER-1
  0
POLYLINE
  8
LAYER-1
 66
  1
 70
  1
 62
  7
  0
VERTEX
  8
LAYER-1
 10
0.978276
 20
4.186122
 30
0.000000
  0
VERTEX
  8
LAYER-1
 10
1.064578
 20
4.186122
 30
0.000000
  0
VERTEX
  8
LAYER-1
 10
1.064578
 20
3.886558
 30
0.000000
  0
VERTEX
  8
LAYER-1
 10
0.978276
 20
3.886558
 30
0.000000
  0
SEQEND
  8
LAYER-1
  0
POLYLINE
  8
LAYER-1
 66
  1
 70
  1
 62
  7
  0
VERTEX
  8
LAYER-1
 10
0.002554
 20
4.485672
 30
0.000000
  0
VERTEX
  8
LAYER-1
 10
0.088854
 20
4.485672
 30
0.000000
  0
VERTEX
  8
LAYER-1
 10
0.088854
 20
4.186105
 30
0.000000
  0
VERTEX
  8
LAYER-1
 10
0.002554
 20
4.186105
 30
0.000000
  0
SEQEND
  8
LAYER-1
  0
POLYLINE
  8
LAYER-1
 66
  1
 70
  1
 62
  7
  0
VERTEX
  8
LAYER-1
 10
0.152645
 20
4.485672
 30
0.000000
  0
VERTEX
  8
LAYER-1
 10
0.238947
 20
4.485672
 30
0.000000
  0
VERTEX
  8
LAYER-1
 10
0.238947
 20
4.186105
 30
0.000000
  0
VERTEX
  8
LAYER-1
 10
0.152645
 20
4.186105
 30
0.000000
  0
SEQEND
  8
LAYER-1
  0
POLYLINE
  8
LAYER-1
 66
  1
 70
  1
 62
  7
  0
VERTEX
  8
LAYER-1
 10
0.302738
 20
4.485672
 30
0.000000
  0
VERTEX
  8
LAYER-1
 10
0.389041
 20
4.485672
 30
0.000000
  0
VERTEX
  8
LAYER-1
 10
0.389041
 20
4.186105
 30
0.000000
  0
VERTEX
  8
LAYER-1
 10
0.302738
 20
4.186105
 30
0.000000
  0
SEQEND
  8
LAYER-1
  0
POLYLINE
  8
LAYER-1
 66
  1
 70
  1
 62
  7
  0
VERTEX
  8
LAYER-1
 10
0.452831
 20
4.485672
 30
0.000000
  0
VERTEX
  8
LAYER-1
 10
0.539133
 20
4.485672
 30
0.000000
  0
VERTEX
  8
LAYER-1
 10
0.539133
 20
4.186105
 30
0.000000
  0
VERTEX
  8
LAYER-1
 10
0.452831
 20
4.186105
 30
0.000000
  0
SEQEND
  8
LAYER-1
  0
POLYLINE
  8
LAYER-1
 66
  1
 70
  1
 62
  7
  0
VERTEX
  8
LAYER-1
 10
0.602924
 20
4.485672
 30
0.000000
  0
VERTEX
  8
LAYER-1
 10
0.689225
 20
4.485672
 30
0.000000
  0
VERTEX
  8
LAYER-1
 10
0.689225
 20
4.186105
 30
0.000000
  0
VERTEX
  8
LAYER-1
 10
0.602924
 20
4.186105
 30
0.000000
  0
SEQEND
  8
LAYER-1
  0
POLYLINE
  8
LAYER-1
 66
  1
 70
  1
 62
  7
  0
VERTEX
  8
LAYER-1
 10
0.753015
 20
4.485672
 30
0.000000
  0
VERTEX
  8
LAYER-1
 10
0.839318
 20
4.485672
 30
0.000000
  0
VERTEX
  8
LAYER-1
 10
0.839318
 20
4.186105
 30
0.000000
  0
VERTEX
  8
LAYER-1
 10
0.753015
 20
4.186105
 30
0.000000
  0
SEQEND
  8
LAYER-1
  0
POLYLINE
  8
LAYER-1
 66
  1
 70
  1
 62
  7
  0
VERTEX
  8
LAYER-1
 10
0.903108
 20
4.485672
 30
0.000000
  0
VERTEX
  8
LAYER-1
 10
0.989411
 20
4.485672
 30
0.000000
  0
VERTEX
  8
LAYER-1
 10
0.989411
 20
4.186105
 30
0.000000
  0
VERTEX
  8
LAYER-1
 10
0.903108
 20
4.186105
 30
0.000000
  0
SEQEND
  8
LAYER-1
  0
POLYLINE
  8
LAYER-1
 66
  1
 70
  1
 62
  7
  0
VERTEX
  8
LAYER-1
 10
0.002554
 20
3.886575
 30
0.000000
  0
VERTEX
  8
LAYER-1
 10
0.088854
 20
3.886575
 30
0.000000
  0
VERTEX
  8
LAYER-1
 10
0.088854
 20
3.587012
 30
0.000000
  0
VERTEX
  8
LAYER-1
 10
0.002554
 20
3.587012
 30
0.000000
  0
SEQEND
  8
LAYER-1
  0
POLYLINE
  8
LAYER-1
 66
  1
 70
  1
 62
  7
  0
VERTEX
  8
LAYER-1
 10
0.152645
 20
3.886575
 30
0.000000
  0
VERTEX
  8
LAYER-1
 10
0.238947
 20
3.886575
 30
0.000000
  0
VERTEX
  8
LAYER-1
 10
0.238947
 20
3.587012
 30
0.000000
  0
VERTEX
  8
LAYER-1
 10
0.152645
 20
3.587012
 30
0.000000
  0
SEQEND
  8
LAYER-1
  0
POLYLINE
  8
LAYER-1
 66
  1
 70
  1
 62
  7
  0
VERTEX
  8
LAYER-1
 10
0.302738
 20
3.886575
 30
0.000000
  0
VERTEX
  8
LAYER-1
 10
0.389041
 20
3.886575
 30
0.000000
  0
VERTEX
  8
LAYER-1
 10
0.389041
 20
3.587012
 30
0.000000
  0
VERTEX
  8
LAYER-1
 10
0.302738
 20
3.587012
 30
0.000000
  0
SEQEND
  8
LAYER-1
  0
POLYLINE
  8
LAYER-1
 66
  1
 70
  1
 62
  7
  0
VERTEX
  8
LAYER-1
 10
0.452831
 20
3.886575
 30
0.000000
  0
VERTEX
  8
LAYER-1
 10
0.539133
 20
3.886575
 30
0.000000
  0
VERTEX
  8
LAYER-1
 10
0.539133
 20
3.587012
 30
0.000000
  0
VERTEX
  8
LAYER-1
 10
0.452831
 20
3.587012
 30
0.000000
  0
SEQEND
  8
LAYER-1
  0
POLYLINE
  8
LAYER-1
 66
  1
 70
  1
 62
  7
  0
VERTEX
  8
LAYER-1
 10
0.602924
 20
3.886575
 30
0.000000
  0
VERTEX
  8
LAYER-1
 10
0.689225
 20
3.886575
 30
0.000000
  0
VERTEX
  8
LAYER-1
 10
0.689225
 20
3.587012
 30
0.000000
  0
VERTEX
  8
LAYER-1
 10
0.602924
 20
3.587012
 30
0.000000
  0
SEQEND
  8
LAYER-1
  0
POLYLINE
  8
LAYER-1
 66
  1
 70
  1
 62
  7
  0
VERTEX
  8
LAYER-1
 10
0.753015
 20
3.886575
 30
0.000000
  0
VERTEX
  8
LAYER-1
 10
0.839318
 20
3.886575
 30
0.000000
  0
VERTEX
  8
LAYER-1
 10
0.839318
 20
3.587012
 30
0.000000
  0
VERTEX
  8
LAYER-1
 10
0.753015
 20
3.587012
 30
0.000000
  0
SEQEND
  8
LAYER-1
  0
POLYLINE
  8
LAYER-1
 66
  1
 70
  1
 62
  7
  0
VERTEX
  8
LAYER-1
 10
0.903108
 20
3.886575
 30
0.000000
  0
VERTEX
  8
LAYER-1
 10
0.989411
 20
3.886575
 30
0.000000
  0
VERTEX
  8
LAYER-1
 10
0.989411
 20
3.587012
 30
0.000000
  0
VERTEX
  8
LAYER-1
 10
0.903108
 20
3.587012
 30
0.000000
  0
SEQEND
  8
LAYER-1
  0
POLYLINE
  8
LAYER-1
 66
  1
 70
  0
 62
  7
 10
1.053327
 20
4.785041
 30
0.000000
  0
VERTEX
  8
LAYER-1
 10
1.053327
 20
4.785041
 30
0.000000
  0
VERTEX
  8
LAYER-1
 10
1.053327
 20
4.485587
 30
0.000000
  0
SEQEND
  8
LAYER-1
  0
POLYLINE
  8
LAYER-1
 66
  1
 70
  0
 62
  7
 10
0.013899
 20
4.485199
 30
0.000000
  0
VERTEX
  8
LAYER-1
 10
0.013899
 20
4.485199
 30
0.000000
  0
VERTEX
  8
LAYER-1
 10
0.013889
 20
4.185939
 30
0.000000
  0
SEQEND
  8
LAYER-1
  0
POLYLINE
  8
LAYER-1
 66
  1
 70
  0
 62
  7
 10
1.053327
 20
4.185939
 30
0.000000
  0
VERTEX
  8
LAYER-1
 10
1.053327
 20
4.185939
 30
0.000000
  0
VERTEX
  8
LAYER-1
 10
1.053327
 20
3.886490
 30
0.000000
  0
SEQEND
  8
LAYER-1
  0
TEXT
  8
LAYER-1
 62
  0
 10
0.055241
 20
3.271051
 30
0.000000
 40
0.104167
  1
CONCEPT 1212
 72
  5
 11
1.180241
 21
3.271051
 31
0.000000
  0
POLYLINE
  8
LAYER-1
 66
  1
 70
  1
 62
  7
  0
VERTEX
  8
LAYER-1
 10
0.002543
 20
5.184373
 30
0.000000
  0
VERTEX
  8
LAYER-1
 10
0.152781
 20
5.184373
 30
0.000000
  0
VERTEX
  8
LAYER-1
 10
0.152781
 20
5.084719
 30
0.000000
  0
VERTEX
  8
LAYER-1
 10
0.002543
 20
5.084719
 30
0.000000
  0
SEQEND
  8
LAYER-1
  0
POLYLINE
  8
LAYER-1
 66
  1
 70
  1
 62
  7
  0
VERTEX
  8
LAYER-1
 10
0.152716
 20
5.184373
 30
0.000000
  0
VERTEX
  8
LAYER-1
 10
0.302953
 20
5.184373
 30
0.000000
  0
VERTEX
  8
LAYER-1
 10
0.302953
 20
5.084719
 30
0.000000
  0
VERTEX
  8
LAYER-1
 10
0.152716
 20
5.084719
 30
0.000000
  0
SEQEND
  8
LAYER-1
  0
POLYLINE
  8
LAYER-1
 66
  1
 70
  1
 62
  7
  0
VERTEX
  8
LAYER-1
 10
0.302742
 20
5.184373
 30
0.000000
  0
VERTEX
  8
LAYER-1
 10
0.452832
 20
5.184373
 30
0.000000
  0
VERTEX
  8
LAYER-1
 10
0.452832
 20
5.084719
 30
0.000000
  0
VERTEX
  8
LAYER-1
 10
0.302742
 20
5.084719
 30
0.000000
  0
SEQEND
  8
LAYER-1
  0
POLYLINE
  8
LAYER-1
 66
  1
 70
  1
 62
  7
  0
VERTEX
  8
LAYER-1
 10
0.452914
 20
5.184373
 30
0.000000
  0
VERTEX
  8
LAYER-1
 10
0.603005
 20
5.184373
 30
0.000000
  0
VERTEX
  8
LAYER-1
 10
0.603005
 20
5.084719
 30
0.000000
  0
VERTEX
  8
LAYER-1
 10
0.452914
 20
5.084719
 30
0.000000
  0
SEQEND
  8
LAYER-1
  0
POLYLINE
  8
LAYER-1
 66
  1
 70
  1
 62
  7
  0
VERTEX
  8
LAYER-1
 10
0.603087
 20
5.184373
 30
0.000000
  0
VERTEX
  8
LAYER-1
 10
0.753029
 20
5.184373
 30
0.000000
  0
VERTEX
  8
LAYER-1
 10
0.753029
 20
5.084719
 30
0.000000
  0
VERTEX
  8
LAYER-1
 10
0.603087
 20
5.084719
 30
0.000000
  0
SEQEND
  8
LAYER-1
  0
POLYLINE
  8
LAYER-1
 66
  1
 70
  1
 62
  7
  0
VERTEX
  8
LAYER-1
 10
0.752965
 20
5.184373
 30
0.000000
  0
VERTEX
  8
LAYER-1
 10
0.903202
 20
5.184373
 30
0.000000
  0
VERTEX
  8
LAYER-1
 10
0.903202
 20
5.084719
 30
0.000000
  0
VERTEX
  8
LAYER-1
 10
0.752965
 20
5.084719
 30
0.000000
  0
SEQEND
  8
LAYER-1
  0
POLYLINE
  8
LAYER-1
 66
  1
 70
  1
 62
  7
  0
VERTEX
  8
LAYER-1
 10
0.903137
 20
5.184373
 30
0.000000
  0
VERTEX
  8
LAYER-1
 10
1.064679
 20
5.184373
 30
0.000000
  0
VERTEX
  8
LAYER-1
 10
1.064679
 20
5.084719
 30
0.000000
  0
VERTEX
  8
LAYER-1
 10
0.903137
 20
5.084719
 30
0.000000
  0
SEQEND
  8
LAYER-1
  0
POLYLINE
  8
LAYER-1
 66
  1
 70
  0
 62
  7
 10
0.013889
 20
5.184434
 30
0.000000
  0
VERTEX
  8
LAYER-1
 10
0.013889
 20
5.184434
 30
0.000000
  0
VERTEX
  8
LAYER-1
 10
0.014036
 20
4.785158
 30
0.000000
  0
SEQEND
  8
LAYER-1
  0
POLYLINE
  8
LAYER-1
 66
  1
 70
  1
 62
  7
  0
VERTEX
  8
LAYER-1
 10
0.002543
 20
3.586956
 30
0.000000
  0
VERTEX
  8
LAYER-1
 10
0.152781
 20
3.586956
 30
0.000000
  0
VERTEX
  8
LAYER-1
 10
0.152781
 20
3.487303
 30
0.000000
  0
VERTEX
  8
LAYER-1
 10
0.002543
 20
3.487303
 30
0.000000
  0
SEQEND
  8
LAYER-1
  0
POLYLINE
  8
LAYER-1
 66
  1
 70
  1
 62
  7
  0
VERTEX
  8
LAYER-1
 10
0.152716
 20
3.586956
 30
0.000000
  0
VERTEX
  8
LAYER-1
 10
0.302953
 20
3.586956
 30
0.000000
  0
VERTEX
  8
LAYER-1
 10
0.302953
 20
3.487303
 30
0.000000
  0
VERTEX
  8
LAYER-1
 10
0.152716
 20
3.487303
 30
0.000000
  0
SEQEND
  8
LAYER-1
  0
POLYLINE
  8
LAYER-1
 66
  1
 70
  1
 62
  7
  0
VERTEX
  8
LAYER-1
 10
0.302742
 20
3.586956
 30
0.000000
  0
VERTEX
  8
LAYER-1
 10
0.452832
 20
3.586956
 30
0.000000
  0
VERTEX
  8
LAYER-1
 10
0.452832
 20
3.487303
 30
0.000000
  0
VERTEX
  8
LAYER-1
 10
0.302742
 20
3.487303
 30
0.000000
  0
SEQEND
  8
LAYER-1
  0
POLYLINE
  8
LAYER-1
 66
  1
 70
  1
 62
  7
  0
VERTEX
  8
LAYER-1
 10
0.452914
 20
3.586956
 30
0.000000
  0
VERTEX
  8
LAYER-1
 10
0.603005
 20
3.586956
 30
0.000000
  0
VERTEX
  8
LAYER-1
 10
0.603005
 20
3.487303
 30
0.000000
  0
VERTEX
  8
LAYER-1
 10
0.452914
 20
3.487303
 30
0.000000
  0
SEQEND
  8
LAYER-1
  0
POLYLINE
  8
LAYER-1
 66
  1
 70
  1
 62
  7
  0
VERTEX
  8
LAYER-1
 10
0.603087
 20
3.586956
 30
0.000000
  0
VERTEX
  8
LAYER-1
 10
0.753029
 20
3.586956
 30
0.000000
  0
VERTEX
  8
LAYER-1
 10
0.753029
 20
3.487303
 30
0.000000
  0
VERTEX
  8
LAYER-1
 10
0.603087
 20
3.487303
 30
0.000000
  0
SEQEND
  8
LAYER-1
  0
POLYLINE
  8
LAYER-1
 66
  1
 70
  1
 62
  7
  0
VERTEX
  8
LAYER-1
 10
0.752965
 20
3.586956
 30
0.000000
  0
VERTEX
  8
LAYER-1
 10
0.903202
 20
3.586956
 30
0.000000
  0
VERTEX
  8
LAYER-1
 10
0.903202
 20
3.487303
 30
0.000000
  0
VERTEX
  8
LAYER-1
 10
0.752965
 20
3.487303
 30
0.000000
  0
SEQEND
  8
LAYER-1
  0
POLYLINE
  8
LAYER-1
 66
  1
 70
  1
 62
  7
  0
VERTEX
  8
LAYER-1
 10
0.903137
 20
3.586956
 30
0.000000
  0
VERTEX
  8
LAYER-1
 10
1.064679
 20
3.586956
 30
0.000000
  0
VERTEX
  8
LAYER-1
 10
1.064679
 20
3.487303
 30
0.000000
  0
VERTEX
  8
LAYER-1
 10
0.903137
 20
3.487303
 30
0.000000
  0
SEQEND
  8
LAYER-1
  0
POLYLINE
  8
LAYER-1
 66
  1
 70
  0
 62
  7
 10
0.077685
 20
5.184384
 30
0.000000
  0
VERTEX
  8
LAYER-1
 10
0.077685
 20
5.184384
 30
0.000000
  0
VERTEX
  8
LAYER-1
 10
0.077685
 20
3.487214
 30
0.000000
  0
SEQEND
  8
LAYER-1
  0
POLYLINE
  8
LAYER-1
 66
  1
 70
  0
 62
  7
 10
0.088945
 20
5.184384
 30
0.000000
  0
VERTEX
  8
LAYER-1
 10
0.088945
 20
5.184384
 30
0.000000
  0
VERTEX
  8
LAYER-1
 10
0.088945
 20
3.487214
 30
0.000000
  0
SEQEND
  8
LAYER-1
  0
POLYLINE
  8
LAYER-1
 66
  1
 70
  0
 62
  7
 10
0.152732
 20
5.184384
 30
0.000000
  0
VERTEX
  8
LAYER-1
 10
0.152732
 20
5.184384
 30
0.000000
  0
VERTEX
  8
LAYER-1
 10
0.152732
 20
3.487214
 30
0.000000
  0
SEQEND
  8
LAYER-1
  0
POLYLINE
  8
LAYER-1
 66
  1
 70
  0
 62
  7
 10
0.163992
 20
5.184384
 30
0.000000
  0
VERTEX
  8
LAYER-1
 10
0.163992
 20
5.184384
 30
0.000000
  0
VERTEX
  8
LAYER-1
 10
0.163992
 20
3.487214
 30
0.000000
  0
SEQEND
  8
LAYER-1
  0
POLYLINE
  8
LAYER-1
 66
  1
 70
  0
 62
  7
 10
0.227778
 20
5.184384
 30
0.000000
  0
VERTEX
  8
LAYER-1
 10
0.227778
 20
5.184384
 30
0.000000
  0
VERTEX
  8
LAYER-1
 10
0.227778
 20
3.487214
 30
0.000000
  0
SEQEND
  8
LAYER-1
  0
POLYLINE
  8
LAYER-1
 66
  1
 70
  0
 62
  7
 10
0.239037
 20
5.184384
 30
0.000000
  0
VERTEX
  8
LAYER-1
 10
0.239037
 20
5.184384
 30
0.000000
  0
VERTEX
  8
LAYER-1
 10
0.239037
 20
3.487214
 30
0.000000
  0
SEQEND
  8
LAYER-1
  0
POLYLINE
  8
LAYER-1
 66
  1
 70
  0
 62
  7
 10
0.377870
 20
5.184384
 30
0.000000
  0
VERTEX
  8
LAYER-1
 10
0.377870
 20
5.184384
 30
0.000000
  0
VERTEX
  8
LAYER-1
 10
0.377870
 20
3.487214
 30
0.000000
  0
SEQEND
  8
LAYER-1
  0
POLYLINE
  8
LAYER-1
 66
  1
 70
  0
 62
  7
 10
0.389131
 20
5.184384
 30
0.000000
  0
VERTEX
  8
LAYER-1
 10
0.389131
 20
5.184384
 30
0.000000
  0
VERTEX
  8
LAYER-1
 10
0.389131
 20
3.487214
 30
0.000000
  0
SEQEND
  8
LAYER-1
  0
POLYLINE
  8
LAYER-1
 66
  1
 70
  0
 62
  7
 10
0.452917
 20
5.184384
 30
0.000000
  0
VERTEX
  8
LAYER-1
 10
0.452917
 20
5.184384
 30
0.000000
  0
VERTEX
  8
LAYER-1
 10
0.452917
 20
3.487214
 30
0.000000
  0
SEQEND
  8
LAYER-1
  0
POLYLINE
  8
LAYER-1
 66
  1
 70
  0
 62
  7
 10
0.464177
 20
5.184384
 30
0.000000
  0
VERTEX
  8
LAYER-1
 10
0.464177
 20
5.184384
 30
0.000000
  0
VERTEX
  8
LAYER-1
 10
0.464177
 20
3.487214
 30
0.000000
  0
SEQEND
  8
LAYER-1
  0
POLYLINE
  8
LAYER-1
 66
  1
 70
  0
 62
  7
 10
0.527962
 20
5.184384
 30
0.000000
  0
VERTEX
  8
LAYER-1
 10
0.527962
 20
5.184384
 30
0.000000
  0
VERTEX
  8
LAYER-1
 10
0.527962
 20
3.487214
 30
0.000000
  0
SEQEND
  8
LAYER-1
  0
POLYLINE
  8
LAYER-1
 66
  1
 70
  0
 62
  7
 10
0.539223
 20
5.184384
 30
0.000000
  0
VERTEX
  8
LAYER-1
 10
0.539223
 20
5.184384
 30
0.000000
  0
VERTEX
  8
LAYER-1
 10
0.539223
 20
3.487214
 30
0.000000
  0
SEQEND
  8
LAYER-1
  0
POLYLINE
  8
LAYER-1
 66
  1
 70
  0
 62
  7
 10
0.603009
 20
5.184384
 30
0.000000
  0
VERTEX
  8
LAYER-1
 10
0.603009
 20
5.184384
 30
0.000000
  0
VERTEX
  8
LAYER-1
 10
0.603009
 20
3.487214
 30
0.000000
  0
SEQEND
  8
LAYER-1
  0
POLYLINE
  8
LAYER-1
 66
  1
 70
  0
 62
  7
 10
0.614269
 20
5.184384
 30
0.000000
  0
VERTEX
  8
LAYER-1
 10
0.614269
 20
5.184384
 30
0.000000
  0
VERTEX
  8
LAYER-1
 10
0.614269
 20
3.487214
 30
0.000000
  0
SEQEND
  8
LAYER-1
  0
POLYLINE
  8
LAYER-1
 66
  1
 70
  0
 62
  7
 10
0.678055
 20
5.184384
 30
0.000000
  0
VERTEX
  8
LAYER-1
 10
0.678055
 20
5.184384
 30
0.000000
  0
VERTEX
  8
LAYER-1
 10
0.678055
 20
3.487214
 30
0.000000
  0
SEQEND
  8
LAYER-1
  0
POLYLINE
  8
LAYER-1
 66
  1
 70
  0
 62
  7
 10
0.689316
 20
5.184384
 30
0.000000
  0
VERTEX
  8
LAYER-1
 10
0.689316
 20
5.184384
 30
0.000000
  0
VERTEX
  8
LAYER-1
 10
0.689316
 20
3.487214
 30
0.000000
  0
SEQEND
  8
LAYER-1
  0
POLYLINE
  8
LAYER-1
 66
  1
 70
  0
 62
  7
 10
0.828148
 20
5.184384
 30
0.000000
  0
VERTEX
  8
LAYER-1
 10
0.828148
 20
5.184384
 30
0.000000
  0
VERTEX
  8
LAYER-1
 10
0.828148
 20
3.487214
 30
0.000000
  0
SEQEND
  8
LAYER-1
  0
POLYLINE
  8
LAYER-1
 66
  1
 70
  0
 62
  7
 10
0.839408
 20
5.184384
 30
0.000000
  0
VERTEX
  8
LAYER-1
 10
0.839408
 20
5.184384
 30
0.000000
  0
VERTEX
  8
LAYER-1
 10
0.839408
 20
3.487214
 30
0.000000
  0
SEQEND
  8
LAYER-1
  0
POLYLINE
  8
LAYER-1
 66
  1
 70
  0
 62
  7
 10
0.903194
 20
5.184384
 30
0.000000
  0
VERTEX
  8
LAYER-1
 10
0.903194
 20
5.184384
 30
0.000000
  0
VERTEX
  8
LAYER-1
 10
0.903194
 20
3.487214
 30
0.000000
  0
SEQEND
  8
LAYER-1
  0
POLYLINE
  8
LAYER-1
 66
  1
 70
  0
 62
  7
 10
0.914455
 20
5.184384
 30
0.000000
  0
VERTEX
  8
LAYER-1
 10
0.914455
 20
5.184384
 30
0.000000
  0
VERTEX
  8
LAYER-1
 10
0.914455
 20
3.487214
 30
0.000000
  0
SEQEND
  8
LAYER-1
  0
POLYLINE
  8
LAYER-1
 66
  1
 70
  0
 62
  7
 10
0.978240
 20
5.184384
 30
0.000000
  0
VERTEX
  8
LAYER-1
 10
0.978240
 20
5.184384
 30
0.000000
  0
VERTEX
  8
LAYER-1
 10
0.978240
 20
3.487214
 30
0.000000
  0
SEQEND
  8
LAYER-1
  0
POLYLINE
  8
LAYER-1
 66
  1
 70
  0
 62
  7
 10
0.989501
 20
5.184384
 30
0.000000
  0
VERTEX
  8
LAYER-1
 10
0.989501
 20
5.184384
 30
0.000000
  0
VERTEX
  8
LAYER-1
 10
0.989501
 20
3.487214
 30
0.000000
  0
SEQEND
  8
LAYER-1
  0
POLYLINE
  8
LAYER-1
 66
  1
 70
  0
 62
  7
 10
0.302824
 20
5.184384
 30
0.000000
  0
VERTEX
  8
LAYER-1
 10
0.302824
 20
5.184384
 30
0.000000
  0
VERTEX
  8
LAYER-1
 10
0.302824
 20
3.486984
 30
0.000000
  0
SEQEND
  8
LAYER-1
  0
POLYLINE
  8
LAYER-1
 66
  1
 70
  0
 62
  7
 10
0.314084
 20
5.184384
 30
0.000000
  0
VERTEX
  8
LAYER-1
 10
0.314084
 20
5.184384
 30
0.000000
  0
VERTEX
  8
LAYER-1
 10
0.314084
 20
3.486984
 30
0.000000
  0
SEQEND
  8
LAYER-1
  0
POLYLINE
  8
LAYER-1
 66
  1
 70
  0
 62
  7
 10
0.753101
 20
5.184134
 30
0.000000
  0
VERTEX
  8
LAYER-1
 10
0.753101
 20
5.184134
 30
0.000000
  0
VERTEX
  8
LAYER-1
 10
0.753101
 20
3.486986
 30
0.000000
  0
SEQEND
  8
LAYER-1
  0
POLYLINE
  8
LAYER-1
 66
  1
 70
  0
 62
  7
 10
0.764362
 20
5.184134
 30
0.000000
  0
VERTEX
  8
LAYER-1
 10
0.764362
 20
5.184134
 30
0.000000
  0
VERTEX
  8
LAYER-1
 10
0.764362
 20
3.486986
 30
0.000000
  0
SEQEND
  8
LAYER-1
  0
POLYLINE
  8
LAYER-1
 66
  1
 70
  0
 62
  7
 10
1.053327
 20
5.184588
 30
0.000000
  0
VERTEX
  8
LAYER-1
 10
1.053327
 20
5.184588
 30
0.000000
  0
VERTEX
  8
LAYER-1
 10
1.053327
 20
5.084769
 30
0.000000
  0
SEQEND
  8
LAYER-1
  0
POLYLINE
  8
LAYER-1
 66
  1
 70
  0
 62
  7
 10
0.014036
 20
3.886632
 30
0.000000
  0
VERTEX
  8
LAYER-1
 10
0.014036
 20
3.886632
 30
0.000000
  0
VERTEX
  8
LAYER-1
 10
0.013889
 20
3.487198
 30
0.000000
  0
SEQEND
  8
LAYER-1
  0
POLYLINE
  8
LAYER-1
 66
  1
 70
  0
 62
  7
 10
1.053474
 20
3.587020
 30
0.000000
  0
VERTEX
  8
LAYER-1
 10
1.053474
 20
3.587020
 30
0.000000
  0
VERTEX
  8
LAYER-1
 10
1.053327
 20
3.487354
 30
0.000000
  0
SEQEND
  8
LAYER-1
  0
TEXT
  8
LAYER-1
 62
  0
 10
0.291352
 20
3.201607
 30
0.000000
 40
0.083333
  1
(AjourÄ)
 72
  5
 11
0.749685
 21
3.201607
 31
0.000000
  0
POLYLINE
  8
LAYER-1
 66
  1
 70
  0
 62
  0
 10
0.735963
 20
0.037542
 30
0.000000
  0
VERTEX
  8
LAYER-1
 10
0.735963
 20
0.037542
 30
0.000000
  0
VERTEX
  8
LAYER-1
 10
0.762451
 20
0.034087
 30
0.000000
  0
VERTEX
  8
LAYER-1
 10
0.781791
 20
0.034087
 30
0.000000
  0
VERTEX
  8
LAYER-1
 10
0.801132
 20
0.037559
 30
0.000000
  0
VERTEX
  8
LAYER-1
 10
0.820472
 20
0.037559
 30
0.000000
  0
VERTEX
  8
LAYER-1
 10
0.866889
 20
0.044502
 30
0.000000
  0
VERTEX
  8
LAYER-1
 10
0.901702
 20
0.054920
 30
0.000000
  0
VERTEX
  8
LAYER-1
 10
0.923943
 20
0.059260
 30
0.000000
  0
VERTEX
  8
LAYER-1
 10
0.945701
 20
0.060996
 30
0.000000
  0
VERTEX
  8
LAYER-1
 10
0.975195
 20
0.058391
 30
0.000000
  0
VERTEX
  8
LAYER-1
 10
1.006139
 20
0.054920
 30
0.000000
  0
VERTEX
  8
LAYER-1
 10
1.033216
 20
0.047976
 30
0.000000
  0
VERTEX
  8
LAYER-1
 10
1.052556
 20
0.044502
 30
0.000000
  0
VERTEX
  8
LAYER-1
 10
1.083501
 20
0.041031
 30
0.000000
  0
VERTEX
  8
LAYER-1
 10
1.102841
 20
0.037559
 30
0.000000
  0
VERTEX
  8
LAYER-1
 10
1.126050
 20
0.034087
 30
0.000000
  0
VERTEX
  8
LAYER-1
 10
1.153126
 20
0.034087
 30
0.000000
  0
VERTEX
  8
LAYER-1
 10
1.180202
 20
0.034087
 30
0.000000
  0
VERTEX
  8
LAYER-1
 10
1.203411
 20
0.034087
 30
0.000000
  0
VERTEX
  8
LAYER-1
 10
1.226619
 20
0.030615
 30
0.000000
  0
VERTEX
  8
LAYER-1
 10
1.265301
 20
0.030615
 30
0.000000
  0
VERTEX
  8
LAYER-1
 10
1.296245
 20
0.030615
 30
0.000000
  0
VERTEX
  8
LAYER-1
 10
1.315586
 20
0.027141
 30
0.000000
  0
VERTEX
  8
LAYER-1
 10
1.346530
 20
0.023670
 30
0.000000
  0
VERTEX
  8
LAYER-1
 10
1.377475
 20
0.020198
 30
0.000000
  0
VERTEX
  8
LAYER-1
 10
1.416156
 20
0.020198
 30
0.000000
  0
VERTEX
  8
LAYER-1
 10
1.447100
 20
0.020198
 30
0.000000
  0
VERTEX
  8
LAYER-1
 10
1.485781
 20
0.020198
 30
0.000000
  0
VERTEX
  8
LAYER-1
 10
1.516726
 20
0.027141
 30
0.000000
  0
VERTEX
  8
LAYER-1
 10
1.539934
 20
0.027141
 30
0.000000
  0
VERTEX
  8
LAYER-1
 10
1.559274
 20
0.030615
 30
0.000000
  0
VERTEX
  8
LAYER-1
 10
1.582483
 20
0.030615
 30
0.000000
  0
VERTEX
  8
LAYER-1
 10
1.601823
 20
0.030615
 30
0.000000
  0
VERTEX
  8
LAYER-1
 10
1.644372
 20
0.030615
 30
0.000000
  0
VERTEX
  8
LAYER-1
 10
1.690789
 20
0.023670
 30
0.000000
  0
VERTEX
  8
LAYER-1
 10
1.733337
 20
0.020198
 30
0.000000
  0
VERTEX
  8
LAYER-1
 10
1.795227
 20
0.013252
 30
0.000000
  0
VERTEX
  8
LAYER-1
 10
1.853248
 20
0.006309
 30
0.000000
  0
VERTEX
  8
LAYER-1
 10
1.903532
 20
0.006309
 30
0.000000
  0
VERTEX
  8
LAYER-1
 10
1.930609
 20
0.006309
 30
0.000000
  0
VERTEX
  8
LAYER-1
 10
1.965422
 20
0.006309
 30
0.000000
  0
VERTEX
  8
LAYER-1
 10
1.985729
 20
0.007178
 30
0.000000
  0
VERTEX
  8
LAYER-1
 10
2.022959
 20
0.009346
 30
0.000000
  0
VERTEX
  8
LAYER-1
 10
2.069859
 20
0.020198
 30
0.000000
  0
VERTEX
  8
LAYER-1
 10
2.112408
 20
0.034087
 30
0.000000
  0
VERTEX
  8
LAYER-1
 10
2.147221
 20
0.044502
 30
0.000000
  0
VERTEX
  8
LAYER-1
 10
2.174297
 20
0.054920
 30
0.000000
  0
VERTEX
  8
LAYER-1
 10
2.197506
 20
0.061865
 30
0.000000
  0
VERTEX
  8
LAYER-1
 10
2.220714
 20
0.061865
 30
0.000000
  0
VERTEX
  8
LAYER-1
 10
2.243923
 20
0.061865
 30
0.000000
  0
VERTEX
  8
LAYER-1
 10
2.267131
 20
0.061865
 30
0.000000
  0
VERTEX
  8
LAYER-1
 10
2.301943
 20
0.054920
 30
0.000000
  0
VERTEX
  8
LAYER-1
 10
2.332888
 20
0.047976
 30
0.000000
  0
VERTEX
  8
LAYER-1
 10
2.356097
 20
0.041031
 30
0.000000
  0
VERTEX
  8
LAYER-1
 10
2.375437
 20
0.037559
 30
0.000000
  0
VERTEX
  8
LAYER-1
 10
2.398645
 20
0.030615
 30
0.000000
  0
VERTEX
  8
LAYER-1
 10
2.417986
 20
0.023670
 30
0.000000
  0
VERTEX
  8
LAYER-1
 10
2.441194
 20
0.020198
 30
0.000000
  0
VERTEX
  8
LAYER-1
 10
2.460534
 20
0.020198
 30
0.000000
  0
VERTEX
  8
LAYER-1
 10
2.491479
 20
0.016726
 30
0.000000
  0
VERTEX
  8
LAYER-1
 10
2.518556
 20
0.016726
 30
0.000000
  0
VERTEX
  8
LAYER-1
 10
2.553368
 20
0.016726
 30
0.000000
  0
VERTEX
  8
LAYER-1
 10
2.580445
 20
0.020198
 30
0.000000
  0
VERTEX
  8
LAYER-1
 10
2.615257
 20
0.030615
 30
0.000000
  0
VERTEX
  8
LAYER-1
 10
2.634597
 20
0.030615
 30
0.000000
  0
VERTEX
  8
LAYER-1
 10
2.657806
 20
0.030615
 30
0.000000
  0
VERTEX
  8
LAYER-1
 10
2.677146
 20
0.030615
 30
0.000000
  0
VERTEX
  8
LAYER-1
 10
2.700355
 20
0.034087
 30
0.000000
  0
VERTEX
  8
LAYER-1
 10
2.723563
 20
0.037559
 30
0.000000
  0
VERTEX
  8
LAYER-1
 10
2.754508
 20
0.037559
 30
0.000000
  0
VERTEX
  8
LAYER-1
 10
2.785453
 20
0.037559
 30
0.000000
  0
VERTEX
  8
LAYER-1
 10
2.808661
 20
0.037559
 30
0.000000
  0
VERTEX
  8
LAYER-1
 10
2.831869
 20
0.037559
 30
0.000000
  0
VERTEX
  8
LAYER-1
 10
2.851209
 20
0.034087
 30
0.000000
  0
VERTEX
  8
LAYER-1
 10
2.870550
 20
0.030615
 30
0.000000
  0
VERTEX
  8
LAYER-1
 10
2.889890
 20
0.027141
 30
0.000000
  0
VERTEX
  8
LAYER-1
 10
2.909231
 20
0.023670
 30
0.000000
  0
VERTEX
  8
LAYER-1
 10
2.940175
 20
0.016726
 30
0.000000
  0
VERTEX
  8
LAYER-1
 10
2.963384
 20
0.013252
 30
0.000000
  0
VERTEX
  8
LAYER-1
 10
2.986592
 20
0.013252
 30
0.000000
  0
VERTEX
  8
LAYER-1
 10
3.005933
 20
0.013252
 30
0.000000
  0
VERTEX
  8
LAYER-1
 10
3.033009
 20
0.013252
 30
0.000000
  0
VERTEX
  8
LAYER-1
 10
3.063954
 20
0.016726
 30
0.000000
  0
VERTEX
  8
LAYER-1
 10
3.118107
 20
0.027141
 30
0.000000
  0
VERTEX
  8
LAYER-1
 10
3.164524
 20
0.037559
 30
0.000000
  0
VERTEX
  8
LAYER-1
 10
3.207072
 20
0.044502
 30
0.000000
  0
VERTEX
  8
LAYER-1
 10
3.238018
 20
0.047976
 30
0.000000
  0
VERTEX
  8
LAYER-1
 10
3.276697
 20
0.051448
 30
0.000000
  0
VERTEX
  8
LAYER-1
 10
3.307643
 20
0.054920
 30
0.000000
  0
VERTEX
  8
LAYER-1
 10
3.333268
 20
0.055789
 30
0.000000
  0
VERTEX
  8
LAYER-1
 10
3.350675
 20
0.053619
 30
0.000000
  0
VERTEX
  8
LAYER-1
 10
3.371949
 20
0.048843
 30
0.000000
  0
VERTEX
  8
LAYER-1
 10
3.392740
 20
0.037559
 30
0.000000
  0
VERTEX
  8
LAYER-1
 10
3.415948
 20
0.034087
 30
0.000000
  0
VERTEX
  8
LAYER-1
 10
3.435289
 20
0.034087
 30
0.000000
  0
VERTEX
  8
LAYER-1
 10
3.454629
 20
0.034087
 30
0.000000
  0
VERTEX
  8
LAYER-1
 10
3.473970
 20
0.034087
 30
0.000000
  0
VERTEX
  8
LAYER-1
 10
3.504915
 20
0.034087
 30
0.000000
  0
VERTEX
  8
LAYER-1
 10
3.528123
 20
0.034087
 30
0.000000
  0
VERTEX
  8
LAYER-1
 10
3.551332
 20
0.034087
 30
0.000000
  0
VERTEX
  8
LAYER-1
 10
3.570672
 20
0.034087
 30
0.000000
  0
VERTEX
  8
LAYER-1
 10
3.593881
 20
0.034087
 30
0.000000
  0
VERTEX
  8
LAYER-1
 10
3.617088
 20
0.034087
 30
0.000000
  0
VERTEX
  8
LAYER-1
 10
3.636430
 20
0.034087
 30
0.000000
  0
VERTEX
  8
LAYER-1
 10
3.663506
 20
0.034087
 30
0.000000
  0
VERTEX
  8
LAYER-1
 10
3.686714
 20
0.030615
 30
0.000000
  0
VERTEX
  8
LAYER-1
 10
3.708956
 20
0.022803
 30
0.000000
  0
VERTEX
  8
LAYER-1
 10
3.749571
 20
0.020198
 30
0.000000
  0
VERTEX
  8
LAYER-1
 10
3.787284
 20
0.023670
 30
0.000000
  0
VERTEX
  8
LAYER-1
 10
3.806625
 20
0.030615
 30
0.000000
  0
VERTEX
  8
LAYER-1
 10
3.829833
 20
0.037559
 30
0.000000
  0
VERTEX
  8
LAYER-1
 10
3.849657
 20
0.041465
 30
0.000000
  0
VERTEX
  8
LAYER-1
 10
3.872382
 20
0.047976
 30
0.000000
  0
VERTEX
  8
LAYER-1
 10
3.895590
 20
0.047976
 30
0.000000
  0
VERTEX
  8
LAYER-1
 10
3.918799
 20
0.044502
 30
0.000000
  0
VERTEX
  8
LAYER-1
 10
3.942008
 20
0.044502
 30
0.000000
  0
VERTEX
  8
LAYER-1
 10
3.965215
 20
0.044502
 30
0.000000
  0
VERTEX
  8
LAYER-1
 10
3.984556
 20
0.041031
 30
0.000000
  0
VERTEX
  8
LAYER-1
 10
4.011633
 20
0.041031
 30
0.000000
  0
VERTEX
  8
LAYER-1
 10
4.042578
 20
0.041031
 30
0.000000
  0
VERTEX
  8
LAYER-1
 10
4.073522
 20
0.047976
 30
0.000000
  0
VERTEX
  8
LAYER-1
 10
4.092862
 20
0.051448
 30
0.000000
  0
VERTEX
  8
LAYER-1
 10
4.119939
 20
0.051448
 30
0.000000
  0
VERTEX
  8
LAYER-1
 10
4.143147
 20
0.054920
 30
0.000000
  0
VERTEX
  8
LAYER-1
 10
4.174091
 20
0.058391
 30
0.000000
  0
VERTEX
  8
LAYER-1
 10
4.197300
 20
0.058391
 30
0.000000
  0
VERTEX
  8
LAYER-1
 10
4.228245
 20
0.054920
 30
0.000000
  0
VERTEX
  8
LAYER-1
 10
4.270794
 20
0.044502
 30
0.000000
  0
VERTEX
  8
LAYER-1
 10
4.301738
 20
0.034087
 30
0.000000
  0
VERTEX
  8
LAYER-1
 10
4.336550
 20
0.023670
 30
0.000000
  0
VERTEX
  8
LAYER-1
 10
4.379583
 20
0.016724
 30
0.000000
  0
VERTEX
  8
LAYER-1
 10
4.426967
 20
0.017593
 30
0.000000
  0
VERTEX
  8
LAYER-1
 10
4.482087
 20
0.020196
 30
0.000000
  0
VERTEX
  8
LAYER-1
 10
4.549294
 20
0.020196
 30
0.000000
  0
VERTEX
  8
LAYER-1
 10
4.594745
 20
0.008912
 30
0.000000
  0
VERTEX
  8
LAYER-1
 10
4.624722
 20
0.002835
 30
0.000000
  0
VERTEX
  8
LAYER-1
 10
4.647931
 20
0.001968
 30
0.000000
  0
VERTEX
  8
LAYER-1
 10
4.682743
 20
0.001968
 30
0.000000
  0
VERTEX
  8
LAYER-1
 10
4.707886
 20
0.006309
 30
0.000000
  0
VERTEX
  8
LAYER-1
 10
4.734962
 20
0.016726
 30
0.000000
  0
VERTEX
  8
LAYER-1
 10
4.769775
 20
0.023670
 30
0.000000
  0
VERTEX
  8
LAYER-1
 10
4.796852
 20
0.030615
 30
0.000000
  0
VERTEX
  8
LAYER-1
 10
4.820059
 20
0.034087
 30
0.000000
  0
VERTEX
  8
LAYER-1
 10
4.843267
 20
0.037559
 30
0.000000
  0
VERTEX
  8
LAYER-1
 10
4.870344
 20
0.041031
 30
0.000000
  0
VERTEX
  8
LAYER-1
 10
4.897420
 20
0.047976
 30
0.000000
  0
VERTEX
  8
LAYER-1
 10
4.916761
 20
0.051448
 30
0.000000
  0
VERTEX
  8
LAYER-1
 10
4.947706
 20
0.054920
 30
0.000000
  0
VERTEX
  8
LAYER-1
 10
4.970915
 20
0.061865
 30
0.000000
  0
VERTEX
  8
LAYER-1
 10
4.994607
 20
0.072715
 30
0.000000
  0
VERTEX
  8
LAYER-1
 10
5.017331
 20
0.079226
 30
0.000000
  0
VERTEX
  8
LAYER-1
 10
5.040540
 20
0.079226
 30
0.000000
  0
VERTEX
  8
LAYER-1
 10
5.067616
 20
0.079226
 30
0.000000
  0
VERTEX
  8
LAYER-1
 10
5.094692
 20
0.079226
 30
0.000000
  0
VERTEX
  8
LAYER-1
 10
5.133374
 20
0.075752
 30
0.000000
  0
VERTEX
  8
LAYER-1
 10
5.187527
 20
0.072281
 30
0.000000
  0
VERTEX
  8
LAYER-1
 10
5.230075
 20
0.072281
 30
0.000000
  0
VERTEX
  8
LAYER-1
 10
5.261020
 20
0.072281
 30
0.000000
  0
VERTEX
  8
LAYER-1
 10
5.284228
 20
0.072281
 30
0.000000
  0
VERTEX
  8
LAYER-1
 10
5.307437
 20
0.072281
 30
0.000000
  0
VERTEX
  8
LAYER-1
 10
5.338382
 20
0.075752
 30
0.000000
  0
VERTEX
  8
LAYER-1
 10
5.377062
 20
0.075752
 30
0.000000
  0
VERTEX
  8
LAYER-1
 10
5.408006
 20
0.075752
 30
0.000000
  0
VERTEX
  8
LAYER-1
 10
5.431215
 20
0.079226
 30
0.000000
  0
VERTEX
  8
LAYER-1
 10
5.462159
 20
0.079226
 30
0.000000
  0
VERTEX
  8
LAYER-1
 10
5.481501
 20
0.079226
 30
0.000000
  0
VERTEX
  8
LAYER-1
 10
5.512444
 20
0.070545
 30
0.000000
  0
VERTEX
  8
LAYER-1
 10
5.539521
 20
0.058391
 30
0.000000
  0
VERTEX
  8
LAYER-1
 10
5.574333
 20
0.044502
 30
0.000000
  0
VERTEX
  8
LAYER-1
 10
5.601409
 20
0.037559
 30
0.000000
  0
VERTEX
  8
LAYER-1
 10
5.632354
 20
0.030615
 30
0.000000
  0
VERTEX
  8
LAYER-1
 10
5.659915
 20
0.028445
 30
0.000000
  0
VERTEX
  8
LAYER-1
 10
5.686507
 20
0.027141
 30
0.000000
  0
VERTEX
  8
LAYER-1
 10
5.709716
 20
0.030615
 30
0.000000
  0
VERTEX
  8
LAYER-1
 10
5.732924
 20
0.037559
 30
0.000000
  0
VERTEX
  8
LAYER-1
 10
5.760001
 20
0.041031
 30
0.000000
  0
VERTEX
  8
LAYER-1
 10
5.783209
 20
0.044502
 30
0.000000
  0
VERTEX
  8
LAYER-1
 10
5.806418
 20
0.047976
 30
0.000000
  0
VERTEX
  8
LAYER-1
 10
5.825757
 20
0.051448
 30
0.000000
  0
VERTEX
  8
LAYER-1
 10
5.848966
 20
0.051448
 30
0.000000
  0
VERTEX
  8
LAYER-1
 10
5.876043
 20
0.051448
 30
0.000000
  0
VERTEX
  8
LAYER-1
 10
5.895867
 20
0.054053
 30
0.000000
  0
VERTEX
  8
LAYER-1
 10
5.922459
 20
0.058391
 30
0.000000
  0
VERTEX
  8
LAYER-1
 10
5.945668
 20
0.065337
 30
0.000000
  0
VERTEX
  8
LAYER-1
 10
5.976613
 20
0.065337
 30
0.000000
  0
VERTEX
  8
LAYER-1
 10
6.007557
 20
0.065337
 30
0.000000
  0
VERTEX
  8
LAYER-1
 10
6.026897
 20
0.065337
 30
0.000000
  0
VERTEX
  8
LAYER-1
 10
6.081050
 20
0.058391
 30
0.000000
  0
VERTEX
  8
LAYER-1
 10
6.111995
 20
0.051448
 30
0.000000
  0
VERTEX
  8
LAYER-1
 10
6.131336
 20
0.047976
 30
0.000000
  0
VERTEX
  8
LAYER-1
 10
6.166148
 20
0.047976
 30
0.000000
  0
VERTEX
  8
LAYER-1
 10
6.189839
 20
0.055354
 30
0.000000
  0
VERTEX
  8
LAYER-1
 10
6.211598
 20
0.056221
 30
0.000000
  0
VERTEX
  8
LAYER-1
 10
6.263334
 20
0.063166
 30
0.000000
  0
VERTEX
  8
LAYER-1
 10
6.311684
 20
0.073150
 30
0.000000
  0
VERTEX
  8
LAYER-1
 10
6.347947
 20
0.076621
 30
0.000000
  0
VERTEX
  8
LAYER-1
 10
6.380825
 20
0.077056
 30
0.000000
  0
VERTEX
  8
LAYER-1
 10
6.397748
 20
0.072281
 30
0.000000
  0
VERTEX
  8
LAYER-1
 10
6.416121
 20
0.068809
 30
0.000000
  0
VERTEX
  8
LAYER-1
 10
6.447066
 20
0.063601
 30
0.000000
  0
VERTEX
  8
LAYER-1
 10
6.487198
 20
0.071846
 30
0.000000
  0
VERTEX
  8
LAYER-1
 10
6.502670
 20
0.079226
 30
0.000000
  0
VERTEX
  8
LAYER-1
 10
6.525880
 20
0.079226
 30
0.000000
  0
VERTEX
  8
LAYER-1
 10
6.549088
 20
0.079226
 30
0.000000
  0
VERTEX
  8
LAYER-1
 10
6.576163
 20
0.072281
 30
0.000000
  0
VERTEX
  8
LAYER-1
 10
6.599372
 20
0.058391
 30
0.000000
  0
VERTEX
  8
LAYER-1
 10
6.626449
 20
0.047976
 30
0.000000
  0
VERTEX
  8
LAYER-1
 10
6.653525
 20
0.037559
 30
0.000000
  0
VERTEX
  8
LAYER-1
 10
6.676734
 20
0.037559
 30
0.000000
  0
VERTEX
  8
LAYER-1
 10
6.706766
 20
0.037542
 30
0.000000
  0
VERTEX
  8
LAYER-1
 10
6.730886
 20
0.047976
 30
0.000000
  0
SEQEND
  8
LAYER-1
  0
TEXT
  8
LAYER-1
 62
  0
 10
5.819130
 20
0.548829
 30
0.000000
 40
0.125000
  1
Douille
 72
  5
 11
6.430241
 21
0.548829
 31
0.000000
  0
TEXT
  8
LAYER-1
 62
  0
 10
5.819130
 20
0.354385
 30
0.000000
 40
0.125000
  1
anti-poussiÅre
 72
  5
 11
6.999685
 21
0.354385
 31
0.000000
  0
POLYLINE
  8
LAYER-1
 66
  1
 70
  0
 62
  0
 10
5.802979
 20
0.468113
 30
0.000000
  0
VERTEX
  8
LAYER-1
 10
5.802979
 20
0.468113
 30
0.000000
  0
VERTEX
  8
LAYER-1
 10
3.739112
 20
0.158534
 30
0.000000
  0
SEQEND
  8
LAYER-1
  0
POLYLINE
  8
LAYER-1
 66
  1
 70
  1
 62
  0
  0
VERTEX
  8
LAYER-1
 10
3.719645
 20
0.155613
 30
0.000000
  0
VERTEX
  8
LAYER-1
 10
3.782140
 20
0.207120
 30
0.000000
  0
VERTEX
  8
LAYER-1
 10
3.788321
 20
0.165915
 30
0.000000
  0
VERTEX
  8
LAYER-1
 10
3.794502
 20
0.124709
 30
0.000000
  0
VERTEX
  8
LAYER-1
 10
3.719645
 20
0.155613
 30
0.000000
  0
SEQEND
  8
LAYER-1
  0
LINE
  8
LAYER-1
 62
  0
 10
5.836491
 20
7.458551
 30
0.000000
 11
5.836491
 21
7.190513
 31
0.000000
  0
LINE
  8
LAYER-1
 62
  0
 10
5.753369
 20
7.458551
 30
0.000000
 11
5.961491
 21
7.458551
 31
0.000000
  0
LINE
  8
LAYER-1
 62
  0
 10
5.759232
 20
7.190513
 30
0.000000
 11
5.961491
 21
7.190513
 31
0.000000
  0
LINE
  8
LAYER-1
 62
  0
 10
5.865954
 20
7.429088
 30
0.000000
 11
5.807028
 21
7.488013
 31
0.000000
  0
LINE
  8
LAYER-1
 62
  0
 10
5.865954
 20
7.161050
 30
0.000000
 11
5.807028
 21
7.219975
 31
0.000000
  0
TEXT
  8
LAYER-1
 62
  0
 10
5.713929
 20
7.316168
 30
0.000000
 40
0.125000
  1
 
 50
90.000000
  0
TEXT
  8
LAYER-1
 62
  0
 10
6.152463
 20
7.340496
 30
0.000000
 40
0.125000
  1
4"
 72
  5
 11
6.374685
 21
7.340496
 31
0.000000
  0
TEXT
  8
LAYER-1
 62
  0
 10
5.930241
 20
7.146051
 30
0.000000
 40
0.125000
  1
102mm
 72
  5
 11
6.596908
 21
7.146051
 31
0.000000
  0
LINE
  8
LAYER-1
 62
  0
 10
4.443261
 20
7.721761
 30
0.000000
 11
4.852983
 21
7.721761
 31
0.000000
  0
LINE
  8
LAYER-1
 62
  0
 10
4.443261
 20
7.351971
 30
0.000000
 11
4.443261
 21
7.846761
 31
0.000000
  0
LINE
  8
LAYER-1
 62
  0
 10
4.852983
 20
7.350234
 30
0.000000
 11
4.852983
 21
7.846761
 31
0.000000
  0
LINE
  8
LAYER-1
 62
  0
 10
4.472723
 20
7.751224
 30
0.000000
 11
4.413798
 21
7.692298
 31
0.000000
  0
LINE
  8
LAYER-1
 62
  0
 10
4.882446
 20
7.751224
 30
0.000000
 11
4.823520
 21
7.692298
 31
0.000000
  0
TEXT
  8
LAYER-1
 62
  0
 10
4.639559
 20
7.845964
 30
0.000000
 40
0.125000
  1
 
  0
TEXT
  8
LAYER-1
 62
  0
 10
4.541352
 20
8.090496
 30
0.000000
 40
0.125000
  1
6"
 72
  5
 11
4.763574
 21
8.090496
 31
0.000000
  0
TEXT
  8
LAYER-1
 62
  0
 10
4.319130
 20
7.896051
 30
0.000000
 40
0.125000
  1
152mm
 72
  5
 11
4.985797
 21
7.896051
 31
0.000000
  0
TEXT
  8
LAYER-1
 62
  0
 10
1.777463
 20
8.507162
 30
0.000000
 40
0.125000
  1
GRILLE COULISSANTE AJOURâE
 72
  5
 11
4.471908
 21
8.507162
 31
0.000000
  0
ENDSEC
  0
EOF
