  0
SECTION
  2
HEADER
999
MacDraft 5.0\0
  9
$ACADVER
  1
AC1006
  9
$CLAYER
  8
LAYER-1
  9
$EXTMIN
 10
0.000000
 20
0.000000
  9
$EXTMAX
 10
7.045967
 20
9.982003
  9
$FASTZOOM
 70
0
  9
$FILLMODE
 70
1
  0
ENDSEC
  0
SECTION
  2
TABLES
  0
TABLE
  2
LTYPE
 70
16
  0
LTYPE
  2
CONTINUOUS
 70
64
  3
Solid Line
 72
65
 73
0
 40
0.000000
  0
LTYPE
  2
LTYPE01
 70
64
  3
CUSTOM
 72
65
 73
2
 40
0.111111
 49
0.083333
 49
-0.027778
  0
LTYPE
  2
LTYPE02
 70
64
  3
CUSTOM
 72
65
 73
2
 40
0.194444
 49
0.166667
 49
-0.027778
  0
LTYPE
  2
LTYPE03
 70
64
  3
CUSTOM
 72
65
 73
2
 40
0.375000
 49
0.333333
 49
-0.041667
  0
LTYPE
  2
LTYPE04
 70
64
  3
CUSTOM
 72
65
 73
2
 40
0.722222
 49
0.666667
 49
-0.055556
  0
LTYPE
  2
LTYPE05
 70
64
  3
CUSTOM
 72
65
 73
4
 40
0.152778
 49
0.083333
 49
-0.027778
 49
0.013889
 49
-0.027778
  0
LTYPE
  2
LTYPE06
 70
64
  3
CUSTOM
 72
65
 73
4
 40
0.236111
 49
0.166667
 49
-0.027778
 49
0.013889
 49
-0.027778
  0
LTYPE
  2
LTYPE07
 70
64
  3
CUSTOM
 72
65
 73
4
 40
0.444444
 49
0.333333
 49
-0.041667
 49
0.027778
 49
-0.041667
  0
LTYPE
  2
LTYPE08
 70
64
  3
CUSTOM
 72
65
 73
4
 40
0.805556
 49
0.666667
 49
-0.055556
 49
0.027778
 49
-0.055556
  0
LTYPE
  2
LTYPE09
 70
64
  3
CUSTOM
 72
65
 73
6
 40
0.194444
 49
0.083333
 49
-0.027778
 49
0.013889
 49
-0.027778
 49
0.013889
 49
-0.027778
  0
LTYPE
  2
LTYPE10
 70
64
  3
CUSTOM
 72
65
 73
6
 40
0.277778
 49
0.166667
 49
-0.027778
 49
0.013889
 49
-0.027778
 49
0.013889
 49
-0.027778
  0
LTYPE
  2
LTYPE11
 70
64
  3
CUSTOM
 72
65
 73
6
 40
0.500000
 49
0.333333
 49
-0.041667
 49
0.027778
 49
-0.027778
 49
0.027778
 49
-0.041667
  0
LTYPE
  2
LTYPE12
 70
64
  3
CUSTOM
 72
65
 73
6
 40
0.861111
 49
0.666667
 49
-0.055556
 49
0.027778
 49
-0.027778
 49
0.027778
 49
-0.055556
  0
LTYPE
  2
LTYPE13
 70
64
  3
CUSTOM
 72
65
 73
8
 40
0.319444
 49
0.166667
 49
-0.027778
 49
0.013889
 49
-0.027778
 49
0.013889
 49
-0.027778
 49
0.013889
 49
-0.027778
  0
LTYPE
  2
LTYPE14
 70
64
  3
CUSTOM
 72
65
 73
8
 40
0.555556
 49
0.333333
 49
-0.041667
 49
0.027778
 49
-0.027778
 49
0.027778
 49
-0.027778
 49
0.027778
 49
-0.041667
  0
LTYPE
  2
LTYPE15
 70
64
  3
CUSTOM
 72
65
 73
8
 40
0.944444
 49
0.666667
 49
-0.055556
 49
0.027778
 49
-0.041667
 49
0.027778
 49
-0.041667
 49
0.027778
 49
-0.055556
  0
ENDTAB
  0
TABLE
  2
LAYER
 70
1
  0
LAYER
  2
LAYER-1
 70
0
 62
7
  6
CONTINUOUS
  0
ENDTAB
  0
ENDSEC
  0
SECTION
  2
BLOCKS
  0
ENDSEC
  0
SECTION
  2
ENTITIES
  0
POLYLINE
  8
LAYER-1
 66
  1
 70
  0
 62
  0
 10
3.466539
 20
0.215622
 30
0.000000
  0
VERTEX
  8
LAYER-1
 10
3.466539
 20
0.215622
 30
0.000000
  0
VERTEX
  8
LAYER-1
 10
3.466539
 20
0.214432
 30
0.000000
  0
SEQEND
  8
LAYER-1
  0
POLYLINE
  8
LAYER-1
 66
  1
 70
  1
 62
  0
 10
1.294682
 20
0.120455
 30
0.000000
  0
VERTEX
  8
LAYER-1
 10
1.294682
 20
0.120455
 30
0.000000
  0
VERTEX
  8
LAYER-1
 10
1.301627
 20
0.094414
 30
0.000000
  0
VERTEX
  8
LAYER-1
 10
1.326801
 20
0.108302
 30
0.000000
  0
SEQEND
  8
LAYER-1
  0
POLYLINE
  8
LAYER-1
 66
  1
 70
  1
 62
  0
 10
1.484787
 20
0.225487
 30
0.000000
  0
VERTEX
  8
LAYER-1
 10
1.484787
 20
0.225487
 30
0.000000
  0
VERTEX
  8
LAYER-1
 10
1.471767
 20
0.202917
 30
0.000000
  0
VERTEX
  8
LAYER-1
 10
1.502149
 20
0.223750
 30
0.000000
  0
SEQEND
  8
LAYER-1
  0
POLYLINE
  8
LAYER-1
 66
  1
 70
  1
 62
  0
 10
1.130621
 20
0.161254
 30
0.000000
  0
VERTEX
  8
LAYER-1
 10
1.130621
 20
0.161254
 30
0.000000
  0
VERTEX
  8
LAYER-1
 10
1.114127
 20
0.136080
 30
0.000000
  0
VERTEX
  8
LAYER-1
 10
1.128884
 20
0.128267
 30
0.000000
  0
SEQEND
  8
LAYER-1
  0
POLYLINE
  8
LAYER-1
 66
  1
 70
  0
 62
  0
 10
1.297287
 20
0.162123
 30
0.000000
  0
VERTEX
  8
LAYER-1
 10
1.297287
 20
0.162123
 30
0.000000
  0
VERTEX
  8
LAYER-1
 10
1.292947
 20
0.162123
 30
0.000000
  0
VERTEX
  8
LAYER-1
 10
1.289474
 20
0.157782
 30
0.000000
  0
VERTEX
  8
LAYER-1
 10
1.288606
 20
0.152574
 30
0.000000
  0
VERTEX
  8
LAYER-1
 10
1.290342
 20
0.148233
 30
0.000000
  0
VERTEX
  8
LAYER-1
 10
1.294683
 20
0.146498
 30
0.000000
  0
VERTEX
  8
LAYER-1
 10
1.299023
 20
0.146498
 30
0.000000
  0
VERTEX
  8
LAYER-1
 10
1.303364
 20
0.149969
 30
0.000000
  0
VERTEX
  8
LAYER-1
 10
1.303364
 20
0.154310
 30
0.000000
  0
VERTEX
  8
LAYER-1
 10
1.302496
 20
0.158651
 30
0.000000
  0
VERTEX
  8
LAYER-1
 10
1.298155
 20
0.161255
 30
0.000000
  0
SEQEND
  8
LAYER-1
  0
POLYLINE
  8
LAYER-1
 66
  1
 70
  1
 62
  0
 10
0.935308
 20
0.200314
 30
0.000000
  0
VERTEX
  8
LAYER-1
 10
0.935308
 20
0.200314
 30
0.000000
  0
VERTEX
  8
LAYER-1
 10
0.922287
 20
0.177745
 30
0.000000
  0
VERTEX
  8
LAYER-1
 10
0.952669
 20
0.198577
 30
0.000000
  0
SEQEND
  8
LAYER-1
  0
POLYLINE
  8
LAYER-1
 66
  1
 70
  1
 62
  0
 10
1.067085
 20
0.199981
 30
0.000000
  0
VERTEX
  8
LAYER-1
 10
1.067085
 20
0.199981
 30
0.000000
  0
VERTEX
  8
LAYER-1
 10
1.054399
 20
0.180617
 30
0.000000
  0
VERTEX
  8
LAYER-1
 10
1.065750
 20
0.174606
 30
0.000000
  0
SEQEND
  8
LAYER-1
  0
POLYLINE
  8
LAYER-1
 66
  1
 70
  0
 62
  0
 10
1.424891
 20
0.181218
 30
0.000000
  0
VERTEX
  8
LAYER-1
 10
1.424891
 20
0.181218
 30
0.000000
  0
VERTEX
  8
LAYER-1
 10
1.420551
 20
0.181218
 30
0.000000
  0
VERTEX
  8
LAYER-1
 10
1.417079
 20
0.176877
 30
0.000000
  0
VERTEX
  8
LAYER-1
 10
1.416211
 20
0.171670
 30
0.000000
  0
VERTEX
  8
LAYER-1
 10
1.417947
 20
0.167330
 30
0.000000
  0
VERTEX
  8
LAYER-1
 10
1.422287
 20
0.165593
 30
0.000000
  0
VERTEX
  8
LAYER-1
 10
1.426627
 20
0.165593
 30
0.000000
  0
VERTEX
  8
LAYER-1
 10
1.430967
 20
0.169065
 30
0.000000
  0
VERTEX
  8
LAYER-1
 10
1.430967
 20
0.173406
 30
0.000000
  0
VERTEX
  8
LAYER-1
 10
1.430099
 20
0.177746
 30
0.000000
  0
VERTEX
  8
LAYER-1
 10
1.425759
 20
0.180350
 30
0.000000
  0
SEQEND
  8
LAYER-1
  0
POLYLINE
  8
LAYER-1
 66
  1
 70
  0
 62
  0
 10
1.182703
 20
0.155177
 30
0.000000
  0
VERTEX
  8
LAYER-1
 10
1.182703
 20
0.155177
 30
0.000000
  0
VERTEX
  8
LAYER-1
 10
1.178363
 20
0.155177
 30
0.000000
  0
VERTEX
  8
LAYER-1
 10
1.174891
 20
0.150837
 30
0.000000
  0
VERTEX
  8
LAYER-1
 10
1.174023
 20
0.145629
 30
0.000000
  0
VERTEX
  8
LAYER-1
 10
1.175759
 20
0.141288
 30
0.000000
  0
VERTEX
  8
LAYER-1
 10
1.180099
 20
0.139552
 30
0.000000
  0
VERTEX
  8
LAYER-1
 10
1.184440
 20
0.139552
 30
0.000000
  0
VERTEX
  8
LAYER-1
 10
1.188780
 20
0.143024
 30
0.000000
  0
VERTEX
  8
LAYER-1
 10
1.188780
 20
0.147364
 30
0.000000
  0
VERTEX
  8
LAYER-1
 10
1.187912
 20
0.151705
 30
0.000000
  0
VERTEX
  8
LAYER-1
 10
1.183571
 20
0.154309
 30
0.000000
  0
SEQEND
  8
LAYER-1
  0
POLYLINE
  8
LAYER-1
 66
  1
 70
  0
 62
  0
 10
1.018641
 20
0.147364
 30
0.000000
  0
VERTEX
  8
LAYER-1
 10
1.018641
 20
0.147364
 30
0.000000
  0
VERTEX
  8
LAYER-1
 10
1.014301
 20
0.147364
 30
0.000000
  0
VERTEX
  8
LAYER-1
 10
1.010828
 20
0.143024
 30
0.000000
  0
VERTEX
  8
LAYER-1
 10
1.009960
 20
0.137817
 30
0.000000
  0
VERTEX
  8
LAYER-1
 10
1.011696
 20
0.133475
 30
0.000000
  0
VERTEX
  8
LAYER-1
 10
1.016037
 20
0.131739
 30
0.000000
  0
VERTEX
  8
LAYER-1
 10
1.020376
 20
0.131739
 30
0.000000
  0
VERTEX
  8
LAYER-1
 10
1.024717
 20
0.135212
 30
0.000000
  0
VERTEX
  8
LAYER-1
 10
1.024717
 20
0.139552
 30
0.000000
  0
VERTEX
  8
LAYER-1
 10
1.023849
 20
0.143893
 30
0.000000
  0
VERTEX
  8
LAYER-1
 10
1.019508
 20
0.146496
 30
0.000000
  0
SEQEND
  8
LAYER-1
  0
POLYLINE
  8
LAYER-1
 66
  1
 70
  1
 62
  0
 10
1.646681
 20
0.172104
 30
0.000000
  0
VERTEX
  8
LAYER-1
 10
1.646681
 20
0.172104
 30
0.000000
  0
VERTEX
  8
LAYER-1
 10
1.620640
 20
0.165159
 30
0.000000
  0
VERTEX
  8
LAYER-1
 10
1.634528
 20
0.139986
 30
0.000000
  0
SEQEND
  8
LAYER-1
  0
POLYLINE
  8
LAYER-1
 66
  1
 70
  1
 62
  0
 10
1.708224
 20
0.112506
 30
0.000000
  0
VERTEX
  8
LAYER-1
 10
1.708224
 20
0.112506
 30
0.000000
  0
VERTEX
  8
LAYER-1
 10
1.730795
 20
0.099485
 30
0.000000
  0
VERTEX
  8
LAYER-1
 10
1.709962
 20
0.129867
 30
0.000000
  0
SEQEND
  8
LAYER-1
  0
POLYLINE
  8
LAYER-1
 66
  1
 70
  1
 62
  0
 10
1.239562
 20
0.179916
 30
0.000000
  0
VERTEX
  8
LAYER-1
 10
1.239562
 20
0.179916
 30
0.000000
  0
VERTEX
  8
LAYER-1
 10
1.214389
 20
0.196408
 30
0.000000
  0
VERTEX
  8
LAYER-1
 10
1.206576
 20
0.181652
 30
0.000000
  0
SEQEND
  8
LAYER-1
  0
POLYLINE
  8
LAYER-1
 66
  1
 70
  0
 62
  0
 10
1.657966
 20
0.208562
 30
0.000000
  0
VERTEX
  8
LAYER-1
 10
1.657966
 20
0.208562
 30
0.000000
  0
VERTEX
  8
LAYER-1
 10
1.657966
 20
0.212902
 30
0.000000
  0
VERTEX
  8
LAYER-1
 10
1.653625
 20
0.216375
 30
0.000000
  0
VERTEX
  8
LAYER-1
 10
1.648417
 20
0.217243
 30
0.000000
  0
VERTEX
  8
LAYER-1
 10
1.644077
 20
0.215507
 30
0.000000
  0
VERTEX
  8
LAYER-1
 10
1.642341
 20
0.211166
 30
0.000000
  0
VERTEX
  8
LAYER-1
 10
1.642341
 20
0.206826
 30
0.000000
  0
VERTEX
  8
LAYER-1
 10
1.645813
 20
0.202486
 30
0.000000
  0
VERTEX
  8
LAYER-1
 10
1.650153
 20
0.202486
 30
0.000000
  0
VERTEX
  8
LAYER-1
 10
1.654494
 20
0.203354
 30
0.000000
  0
VERTEX
  8
LAYER-1
 10
1.657099
 20
0.207694
 30
0.000000
  0
SEQEND
  8
LAYER-1
  0
POLYLINE
  8
LAYER-1
 66
  1
 70
  1
 62
  0
 10
1.610223
 20
0.184255
 30
0.000000
  0
VERTEX
  8
LAYER-1
 10
1.610223
 20
0.184255
 30
0.000000
  0
VERTEX
  8
LAYER-1
 10
1.587653
 20
0.197276
 30
0.000000
  0
VERTEX
  8
LAYER-1
 10
1.608485
 20
0.166895
 30
0.000000
  0
SEQEND
  8
LAYER-1
  0
POLYLINE
  8
LAYER-1
 66
  1
 70
  1
 62
  0
 10
1.258324
 20
0.196574
 30
0.000000
  0
VERTEX
  8
LAYER-1
 10
1.258324
 20
0.196574
 30
0.000000
  0
VERTEX
  8
LAYER-1
 10
1.238960
 20
0.209261
 30
0.000000
  0
VERTEX
  8
LAYER-1
 10
1.232949
 20
0.197910
 30
0.000000
  0
SEQEND
  8
LAYER-1
  0
POLYLINE
  8
LAYER-1
 66
  1
 70
  0
 62
  0
 10
1.724198
 20
0.072923
 30
0.000000
  0
VERTEX
  8
LAYER-1
 10
1.724198
 20
0.072923
 30
0.000000
  0
VERTEX
  8
LAYER-1
 10
1.724198
 20
0.068583
 30
0.000000
  0
VERTEX
  8
LAYER-1
 10
1.728539
 20
0.065110
 30
0.000000
  0
VERTEX
  8
LAYER-1
 10
1.733746
 20
0.064242
 30
0.000000
  0
VERTEX
  8
LAYER-1
 10
1.738087
 20
0.065978
 30
0.000000
  0
VERTEX
  8
LAYER-1
 10
1.739823
 20
0.070319
 30
0.000000
  0
VERTEX
  8
LAYER-1
 10
1.739823
 20
0.074660
 30
0.000000
  0
VERTEX
  8
LAYER-1
 10
1.736351
 20
0.078999
 30
0.000000
  0
VERTEX
  8
LAYER-1
 10
1.732010
 20
0.078999
 30
0.000000
  0
VERTEX
  8
LAYER-1
 10
1.727670
 20
0.078132
 30
0.000000
  0
VERTEX
  8
LAYER-1
 10
1.725065
 20
0.073791
 30
0.000000
  0
SEQEND
  8
LAYER-1
  0
POLYLINE
  8
LAYER-1
 66
  1
 70
  0
 62
  0
 10
1.233486
 20
0.127832
 30
0.000000
  0
VERTEX
  8
LAYER-1
 10
1.233486
 20
0.127832
 30
0.000000
  0
VERTEX
  8
LAYER-1
 10
1.233486
 20
0.132173
 30
0.000000
  0
VERTEX
  8
LAYER-1
 10
1.229145
 20
0.135645
 30
0.000000
  0
VERTEX
  8
LAYER-1
 10
1.223937
 20
0.136513
 30
0.000000
  0
VERTEX
  8
LAYER-1
 10
1.219596
 20
0.134777
 30
0.000000
  0
VERTEX
  8
LAYER-1
 10
1.217860
 20
0.130436
 30
0.000000
  0
VERTEX
  8
LAYER-1
 10
1.217860
 20
0.126096
 30
0.000000
  0
VERTEX
  8
LAYER-1
 10
1.221332
 20
0.121756
 30
0.000000
  0
VERTEX
  8
LAYER-1
 10
1.225673
 20
0.121756
 30
0.000000
  0
VERTEX
  8
LAYER-1
 10
1.230014
 20
0.122624
 30
0.000000
  0
VERTEX
  8
LAYER-1
 10
1.232619
 20
0.126964
 30
0.000000
  0
SEQEND
  8
LAYER-1
  0
POLYLINE
  8
LAYER-1
 66
  1
 70
  0
 62
  0
 10
1.535569
 20
0.162556
 30
0.000000
  0
VERTEX
  8
LAYER-1
 10
1.535569
 20
0.162556
 30
0.000000
  0
VERTEX
  8
LAYER-1
 10
1.535569
 20
0.166896
 30
0.000000
  0
VERTEX
  8
LAYER-1
 10
1.531228
 20
0.170369
 30
0.000000
  0
VERTEX
  8
LAYER-1
 10
1.526021
 20
0.171237
 30
0.000000
  0
VERTEX
  8
LAYER-1
 10
1.521680
 20
0.169501
 30
0.000000
  0
VERTEX
  8
LAYER-1
 10
1.519944
 20
0.165160
 30
0.000000
  0
VERTEX
  8
LAYER-1
 10
1.519944
 20
0.160820
 30
0.000000
  0
VERTEX
  8
LAYER-1
 10
1.523416
 20
0.156480
 30
0.000000
  0
VERTEX
  8
LAYER-1
 10
1.527757
 20
0.156480
 30
0.000000
  0
VERTEX
  8
LAYER-1
 10
1.532097
 20
0.157348
 30
0.000000
  0
VERTEX
  8
LAYER-1
 10
1.534702
 20
0.161688
 30
0.000000
  0
SEQEND
  8
LAYER-1
  0
POLYLINE
  8
LAYER-1
 66
  1
 70
  1
 62
  0
 10
1.754754
 20
0.154744
 30
0.000000
  0
VERTEX
  8
LAYER-1
 10
1.754754
 20
0.154744
 30
0.000000
  0
VERTEX
  8
LAYER-1
 10
1.761698
 20
0.128702
 30
0.000000
  0
VERTEX
  8
LAYER-1
 10
1.780795
 20
0.144326
 30
0.000000
  0
SEQEND
  8
LAYER-1
  0
POLYLINE
  8
LAYER-1
 66
  1
 70
  1
 62
  0
 10
1.938781
 20
0.176445
 30
0.000000
  0
VERTEX
  8
LAYER-1
 10
1.938781
 20
0.176445
 30
0.000000
  0
VERTEX
  8
LAYER-1
 10
1.925760
 20
0.153876
 30
0.000000
  0
VERTEX
  8
LAYER-1
 10
1.956142
 20
0.174708
 30
0.000000
  0
SEQEND
  8
LAYER-1
  0
POLYLINE
  8
LAYER-1
 66
  1
 70
  1
 62
  0
 10
1.988686
 20
0.074984
 30
0.000000
  0
VERTEX
  8
LAYER-1
 10
1.988686
 20
0.074984
 30
0.000000
  0
VERTEX
  8
LAYER-1
 10
1.972194
 20
0.049811
 30
0.000000
  0
VERTEX
  8
LAYER-1
 10
1.986950
 20
0.041999
 30
0.000000
  0
SEQEND
  8
LAYER-1
  0
POLYLINE
  8
LAYER-1
 66
  1
 70
  0
 62
  0
 10
1.726976
 20
0.179049
 30
0.000000
  0
VERTEX
  8
LAYER-1
 10
1.726976
 20
0.179049
 30
0.000000
  0
VERTEX
  8
LAYER-1
 10
1.722635
 20
0.179049
 30
0.000000
  0
VERTEX
  8
LAYER-1
 10
1.719163
 20
0.174708
 30
0.000000
  0
VERTEX
  8
LAYER-1
 10
1.718295
 20
0.169501
 30
0.000000
  0
VERTEX
  8
LAYER-1
 10
1.720031
 20
0.165160
 30
0.000000
  0
VERTEX
  8
LAYER-1
 10
1.724371
 20
0.163424
 30
0.000000
  0
VERTEX
  8
LAYER-1
 10
1.728712
 20
0.163424
 30
0.000000
  0
VERTEX
  8
LAYER-1
 10
1.733051
 20
0.166896
 30
0.000000
  0
VERTEX
  8
LAYER-1
 10
1.733051
 20
0.171237
 30
0.000000
  0
VERTEX
  8
LAYER-1
 10
1.732184
 20
0.175577
 30
0.000000
  0
VERTEX
  8
LAYER-1
 10
1.727844
 20
0.178181
 30
0.000000
  0
SEQEND
  8
LAYER-1
  0
POLYLINE
  8
LAYER-1
 66
  1
 70
  1
 62
  0
 10
1.764302
 20
0.111340
 30
0.000000
  0
VERTEX
  8
LAYER-1
 10
1.764302
 20
0.111340
 30
0.000000
  0
VERTEX
  8
LAYER-1
 10
1.751281
 20
0.088771
 30
0.000000
  0
VERTEX
  8
LAYER-1
 10
1.781663
 20
0.109603
 30
0.000000
  0
SEQEND
  8
LAYER-1
  0
POLYLINE
  8
LAYER-1
 66
  1
 70
  1
 62
  0
 10
2.020102
 20
0.057093
 30
0.000000
  0
VERTEX
  8
LAYER-1
 10
2.020102
 20
0.057093
 30
0.000000
  0
VERTEX
  8
LAYER-1
 10
2.032790
 20
0.076457
 30
0.000000
  0
VERTEX
  8
LAYER-1
 10
2.021438
 20
0.082469
 30
0.000000
  0
SEQEND
  8
LAYER-1
  0
POLYLINE
  8
LAYER-1
 66
  1
 70
  0
 62
  0
 10
1.919328
 20
0.057540
 30
0.000000
  0
VERTEX
  8
LAYER-1
 10
1.919328
 20
0.057540
 30
0.000000
  0
VERTEX
  8
LAYER-1
 10
1.923669
 20
0.057540
 30
0.000000
  0
VERTEX
  8
LAYER-1
 10
1.927140
 20
0.061880
 30
0.000000
  0
VERTEX
  8
LAYER-1
 10
1.928008
 20
0.067089
 30
0.000000
  0
VERTEX
  8
LAYER-1
 10
1.926272
 20
0.071429
 30
0.000000
  0
VERTEX
  8
LAYER-1
 10
1.921932
 20
0.073165
 30
0.000000
  0
VERTEX
  8
LAYER-1
 10
1.917592
 20
0.073165
 30
0.000000
  0
VERTEX
  8
LAYER-1
 10
1.913251
 20
0.069693
 30
0.000000
  0
VERTEX
  8
LAYER-1
 10
1.913251
 20
0.065353
 30
0.000000
  0
VERTEX
  8
LAYER-1
 10
1.914119
 20
0.061011
 30
0.000000
  0
VERTEX
  8
LAYER-1
 10
1.918460
 20
0.058407
 30
0.000000
  0
SEQEND
  8
LAYER-1
  0
POLYLINE
  8
LAYER-1
 66
  1
 70
  0
 62
  0
 10
1.608832
 20
0.093408
 30
0.000000
  0
VERTEX
  8
LAYER-1
 10
1.608832
 20
0.093408
 30
0.000000
  0
VERTEX
  8
LAYER-1
 10
1.613173
 20
0.093408
 30
0.000000
  0
VERTEX
  8
LAYER-1
 10
1.616645
 20
0.097748
 30
0.000000
  0
VERTEX
  8
LAYER-1
 10
1.617514
 20
0.102956
 30
0.000000
  0
VERTEX
  8
LAYER-1
 10
1.615778
 20
0.107296
 30
0.000000
  0
VERTEX
  8
LAYER-1
 10
1.611437
 20
0.109033
 30
0.000000
  0
VERTEX
  8
LAYER-1
 10
1.607096
 20
0.109033
 30
0.000000
  0
VERTEX
  8
LAYER-1
 10
1.602756
 20
0.105560
 30
0.000000
  0
VERTEX
  8
LAYER-1
 10
1.602756
 20
0.101220
 30
0.000000
  0
VERTEX
  8
LAYER-1
 10
1.603624
 20
0.096879
 30
0.000000
  0
VERTEX
  8
LAYER-1
 10
1.607965
 20
0.094276
 30
0.000000
  0
SEQEND
  8
LAYER-1
  0
POLYLINE
  8
LAYER-1
 66
  1
 70
  1
 62
  0
 10
2.104146
 20
0.159518
 30
0.000000
  0
VERTEX
  8
LAYER-1
 10
2.104146
 20
0.159518
 30
0.000000
  0
VERTEX
  8
LAYER-1
 10
2.078106
 20
0.152573
 30
0.000000
  0
VERTEX
  8
LAYER-1
 10
2.091993
 20
0.127400
 30
0.000000
  0
SEQEND
  8
LAYER-1
  0
POLYLINE
  8
LAYER-1
 66
  1
 70
  1
 62
  0
 10
1.843029
 20
0.119923
 30
0.000000
  0
VERTEX
  8
LAYER-1
 10
1.843029
 20
0.119923
 30
0.000000
  0
VERTEX
  8
LAYER-1
 10
1.820459
 20
0.132944
 30
0.000000
  0
VERTEX
  8
LAYER-1
 10
1.841292
 20
0.102562
 30
0.000000
  0
SEQEND
  8
LAYER-1
  0
POLYLINE
  8
LAYER-1
 66
  1
 70
  1
 62
  0
 10
1.872886
 20
0.042349
 30
0.000000
  0
VERTEX
  8
LAYER-1
 10
1.872886
 20
0.042349
 30
0.000000
  0
VERTEX
  8
LAYER-1
 10
1.898060
 20
0.025855
 30
0.000000
  0
VERTEX
  8
LAYER-1
 10
1.905872
 20
0.040614
 30
0.000000
  0
SEQEND
  8
LAYER-1
  0
POLYLINE
  8
LAYER-1
 66
  1
 70
  0
 62
  0
 10
2.135396
 20
0.208995
 30
0.000000
  0
VERTEX
  8
LAYER-1
 10
2.135396
 20
0.208995
 30
0.000000
  0
VERTEX
  8
LAYER-1
 10
2.135396
 20
0.213336
 30
0.000000
  0
VERTEX
  8
LAYER-1
 10
2.131056
 20
0.216807
 30
0.000000
  0
VERTEX
  8
LAYER-1
 10
2.125848
 20
0.217675
 30
0.000000
  0
VERTEX
  8
LAYER-1
 10
2.121507
 20
0.215939
 30
0.000000
  0
VERTEX
  8
LAYER-1
 10
2.119771
 20
0.211599
 30
0.000000
  0
VERTEX
  8
LAYER-1
 10
2.119771
 20
0.207258
 30
0.000000
  0
VERTEX
  8
LAYER-1
 10
2.123243
 20
0.202918
 30
0.000000
  0
VERTEX
  8
LAYER-1
 10
2.127584
 20
0.202918
 30
0.000000
  0
VERTEX
  8
LAYER-1
 10
2.131925
 20
0.203786
 30
0.000000
  0
VERTEX
  8
LAYER-1
 10
2.134529
 20
0.208126
 30
0.000000
  0
SEQEND
  8
LAYER-1
  0
POLYLINE
  8
LAYER-1
 66
  1
 70
  1
 62
  0
 10
2.067689
 20
0.171670
 30
0.000000
  0
VERTEX
  8
LAYER-1
 10
2.067689
 20
0.171670
 30
0.000000
  0
VERTEX
  8
LAYER-1
 10
2.045118
 20
0.184690
 30
0.000000
  0
VERTEX
  8
LAYER-1
 10
2.065951
 20
0.154309
 30
0.000000
  0
SEQEND
  8
LAYER-1
  0
POLYLINE
  8
LAYER-1
 66
  1
 70
  1
 62
  0
 10
0.836450
 20
0.208293
 30
0.000000
  0
VERTEX
  8
LAYER-1
 10
0.836450
 20
0.208293
 30
0.000000
  0
VERTEX
  8
LAYER-1
 10
0.817086
 20
0.220979
 30
0.000000
  0
VERTEX
  8
LAYER-1
 10
0.811075
 20
0.209629
 30
0.000000
  0
SEQEND
  8
LAYER-1
  0
POLYLINE
  8
LAYER-1
 66
  1
 70
  0
 62
  0
 10
1.847368
 20
0.179819
 30
0.000000
  0
VERTEX
  8
LAYER-1
 10
1.847368
 20
0.179819
 30
0.000000
  0
VERTEX
  8
LAYER-1
 10
1.847368
 20
0.184157
 30
0.000000
  0
VERTEX
  8
LAYER-1
 10
1.843028
 20
0.187631
 30
0.000000
  0
VERTEX
  8
LAYER-1
 10
1.837820
 20
0.188499
 30
0.000000
  0
VERTEX
  8
LAYER-1
 10
1.833479
 20
0.186762
 30
0.000000
  0
VERTEX
  8
LAYER-1
 10
1.831743
 20
0.182423
 30
0.000000
  0
VERTEX
  8
LAYER-1
 10
1.831743
 20
0.178082
 30
0.000000
  0
VERTEX
  8
LAYER-1
 10
1.835215
 20
0.173743
 30
0.000000
  0
VERTEX
  8
LAYER-1
 10
1.839556
 20
0.173743
 30
0.000000
  0
VERTEX
  8
LAYER-1
 10
1.843896
 20
0.174611
 30
0.000000
  0
VERTEX
  8
LAYER-1
 10
1.846501
 20
0.178951
 30
0.000000
  0
SEQEND
  8
LAYER-1
  0
POLYLINE
  8
LAYER-1
 66
  1
 70
  0
 62
  0
 10
0.813347
 20
0.141287
 30
0.000000
  0
VERTEX
  8
LAYER-1
 10
0.813347
 20
0.141287
 30
0.000000
  0
VERTEX
  8
LAYER-1
 10
0.813347
 20
0.145627
 30
0.000000
  0
VERTEX
  8
LAYER-1
 10
0.809006
 20
0.149100
 30
0.000000
  0
VERTEX
  8
LAYER-1
 10
0.803799
 20
0.149968
 30
0.000000
  0
VERTEX
  8
LAYER-1
 10
0.799458
 20
0.148232
 30
0.000000
  0
VERTEX
  8
LAYER-1
 10
0.797722
 20
0.143890
 30
0.000000
  0
VERTEX
  8
LAYER-1
 10
0.797722
 20
0.139551
 30
0.000000
  0
VERTEX
  8
LAYER-1
 10
0.801194
 20
0.135211
 30
0.000000
  0
VERTEX
  8
LAYER-1
 10
0.805535
 20
0.135211
 30
0.000000
  0
VERTEX
  8
LAYER-1
 10
0.809875
 20
0.136078
 30
0.000000
  0
VERTEX
  8
LAYER-1
 10
0.812480
 20
0.140419
 30
0.000000
  0
SEQEND
  8
LAYER-1
  0
POLYLINE
  8
LAYER-1
 66
  1
 70
  0
 62
  0
 10
1.935743
 20
0.208992
 30
0.000000
  0
VERTEX
  8
LAYER-1
 10
1.935743
 20
0.208992
 30
0.000000
  0
VERTEX
  8
LAYER-1
 10
1.935743
 20
0.213332
 30
0.000000
  0
VERTEX
  8
LAYER-1
 10
1.931402
 20
0.216805
 30
0.000000
  0
VERTEX
  8
LAYER-1
 10
1.926195
 20
0.217673
 30
0.000000
  0
VERTEX
  8
LAYER-1
 10
1.921854
 20
0.215936
 30
0.000000
  0
VERTEX
  8
LAYER-1
 10
1.920118
 20
0.211595
 30
0.000000
  0
VERTEX
  8
LAYER-1
 10
1.920118
 20
0.207256
 30
0.000000
  0
VERTEX
  8
LAYER-1
 10
1.923590
 20
0.202915
 30
0.000000
  0
VERTEX
  8
LAYER-1
 10
1.927931
 20
0.202915
 30
0.000000
  0
VERTEX
  8
LAYER-1
 10
1.932271
 20
0.203783
 30
0.000000
  0
VERTEX
  8
LAYER-1
 10
1.934876
 20
0.208124
 30
0.000000
  0
SEQEND
  8
LAYER-1
  0
POLYLINE
  8
LAYER-1
 66
  1
 70
  1
 62
  0
 10
1.495031
 20
0.073527
 30
0.000000
  0
VERTEX
  8
LAYER-1
 10
1.495031
 20
0.073527
 30
0.000000
  0
VERTEX
  8
LAYER-1
 10
1.468989
 20
0.066583
 30
0.000000
  0
VERTEX
  8
LAYER-1
 10
1.482877
 20
0.041410
 30
0.000000
  0
SEQEND
  8
LAYER-1
  0
POLYLINE
  8
LAYER-1
 66
  1
 70
  1
 62
  0
 10
2.341559
 20
0.136948
 30
0.000000
  0
VERTEX
  8
LAYER-1
 10
2.341559
 20
0.136948
 30
0.000000
  0
VERTEX
  8
LAYER-1
 10
2.364128
 20
0.123927
 30
0.000000
  0
VERTEX
  8
LAYER-1
 10
2.343295
 20
0.154309
 30
0.000000
  0
SEQEND
  8
LAYER-1
  0
POLYLINE
  8
LAYER-1
 66
  1
 70
  1
 62
  0
 10
0.950933
 20
0.153875
 30
0.000000
  0
VERTEX
  8
LAYER-1
 10
0.950933
 20
0.153875
 30
0.000000
  0
VERTEX
  8
LAYER-1
 10
0.976107
 20
0.137382
 30
0.000000
  0
VERTEX
  8
LAYER-1
 10
0.983919
 20
0.152139
 30
0.000000
  0
SEQEND
  8
LAYER-1
  0
POLYLINE
  8
LAYER-1
 66
  1
 70
  0
 62
  0
 10
2.269510
 20
0.183819
 30
0.000000
  0
VERTEX
  8
LAYER-1
 10
2.269510
 20
0.183819
 30
0.000000
  0
VERTEX
  8
LAYER-1
 10
2.269510
 20
0.179480
 30
0.000000
  0
VERTEX
  8
LAYER-1
 10
2.273851
 20
0.176008
 30
0.000000
  0
VERTEX
  8
LAYER-1
 10
2.279059
 20
0.175140
 30
0.000000
  0
VERTEX
  8
LAYER-1
 10
2.283399
 20
0.176876
 30
0.000000
  0
VERTEX
  8
LAYER-1
 10
2.285135
 20
0.181217
 30
0.000000
  0
VERTEX
  8
LAYER-1
 10
2.285135
 20
0.185555
 30
0.000000
  0
VERTEX
  8
LAYER-1
 10
2.281663
 20
0.189896
 30
0.000000
  0
VERTEX
  8
LAYER-1
 10
2.277323
 20
0.189896
 30
0.000000
  0
VERTEX
  8
LAYER-1
 10
2.272982
 20
0.189028
 30
0.000000
  0
VERTEX
  8
LAYER-1
 10
2.270378
 20
0.184687
 30
0.000000
  0
SEQEND
  8
LAYER-1
  0
POLYLINE
  8
LAYER-1
 66
  1
 70
  1
 62
  0
 10
2.219162
 20
0.195106
 30
0.000000
  0
VERTEX
  8
LAYER-1
 10
2.219162
 20
0.195106
 30
0.000000
  0
VERTEX
  8
LAYER-1
 10
2.241732
 20
0.182086
 30
0.000000
  0
VERTEX
  8
LAYER-1
 10
2.220899
 20
0.212467
 30
0.000000
  0
SEQEND
  8
LAYER-1
  0
POLYLINE
  8
LAYER-1
 66
  1
 70
  1
 62
  0
 10
0.949531
 20
0.101624
 30
0.000000
  0
VERTEX
  8
LAYER-1
 10
0.949531
 20
0.101624
 30
0.000000
  0
VERTEX
  8
LAYER-1
 10
0.968896
 20
0.088938
 30
0.000000
  0
VERTEX
  8
LAYER-1
 10
0.974906
 20
0.100288
 30
0.000000
  0
SEQEND
  8
LAYER-1
  0
POLYLINE
  8
LAYER-1
 66
  1
 70
  0
 62
  0
 10
1.675673
 20
0.053909
 30
0.000000
  0
VERTEX
  8
LAYER-1
 10
1.675673
 20
0.053909
 30
0.000000
  0
VERTEX
  8
LAYER-1
 10
1.675673
 20
0.058250
 30
0.000000
  0
VERTEX
  8
LAYER-1
 10
1.671332
 20
0.061722
 30
0.000000
  0
VERTEX
  8
LAYER-1
 10
1.666124
 20
0.062590
 30
0.000000
  0
VERTEX
  8
LAYER-1
 10
1.661784
 20
0.060854
 30
0.000000
  0
VERTEX
  8
LAYER-1
 10
1.660048
 20
0.056513
 30
0.000000
  0
VERTEX
  8
LAYER-1
 10
1.660048
 20
0.052172
 30
0.000000
  0
VERTEX
  8
LAYER-1
 10
1.663520
 20
0.047833
 30
0.000000
  0
VERTEX
  8
LAYER-1
 10
1.667860
 20
0.047833
 30
0.000000
  0
VERTEX
  8
LAYER-1
 10
1.672201
 20
0.048701
 30
0.000000
  0
VERTEX
  8
LAYER-1
 10
1.674805
 20
0.053041
 30
0.000000
  0
SEQEND
  8
LAYER-1
  0
POLYLINE
  8
LAYER-1
 66
  1
 70
  0
 62
  0
 10
2.481316
 20
0.136948
 30
0.000000
  0
VERTEX
  8
LAYER-1
 10
2.481316
 20
0.136948
 30
0.000000
  0
VERTEX
  8
LAYER-1
 10
2.481316
 20
0.132607
 30
0.000000
  0
VERTEX
  8
LAYER-1
 10
2.485656
 20
0.129136
 30
0.000000
  0
VERTEX
  8
LAYER-1
 10
2.490864
 20
0.128268
 30
0.000000
  0
VERTEX
  8
LAYER-1
 10
2.495205
 20
0.130004
 30
0.000000
  0
VERTEX
  8
LAYER-1
 10
2.496941
 20
0.134343
 30
0.000000
  0
VERTEX
  8
LAYER-1
 10
2.496941
 20
0.138684
 30
0.000000
  0
VERTEX
  8
LAYER-1
 10
2.493469
 20
0.143025
 30
0.000000
  0
VERTEX
  8
LAYER-1
 10
2.489128
 20
0.143025
 30
0.000000
  0
VERTEX
  8
LAYER-1
 10
2.484787
 20
0.142156
 30
0.000000
  0
VERTEX
  8
LAYER-1
 10
2.482184
 20
0.137817
 30
0.000000
  0
SEQEND
  8
LAYER-1
  0
POLYLINE
  8
LAYER-1
 66
  1
 70
  0
 62
  0
 10
2.315517
 20
0.191635
 30
0.000000
  0
VERTEX
  8
LAYER-1
 10
2.315517
 20
0.191635
 30
0.000000
  0
VERTEX
  8
LAYER-1
 10
2.315517
 20
0.187294
 30
0.000000
  0
VERTEX
  8
LAYER-1
 10
2.319858
 20
0.183823
 30
0.000000
  0
VERTEX
  8
LAYER-1
 10
2.325066
 20
0.182955
 30
0.000000
  0
VERTEX
  8
LAYER-1
 10
2.329406
 20
0.184690
 30
0.000000
  0
VERTEX
  8
LAYER-1
 10
2.331142
 20
0.189030
 30
0.000000
  0
VERTEX
  8
LAYER-1
 10
2.331142
 20
0.193370
 30
0.000000
  0
VERTEX
  8
LAYER-1
 10
2.327670
 20
0.197712
 30
0.000000
  0
VERTEX
  8
LAYER-1
 10
2.323330
 20
0.197712
 30
0.000000
  0
VERTEX
  8
LAYER-1
 10
2.318989
 20
0.196843
 30
0.000000
  0
VERTEX
  8
LAYER-1
 10
2.316384
 20
0.192502
 30
0.000000
  0
SEQEND
  8
LAYER-1
  0
POLYLINE
  8
LAYER-1
 66
  1
 70
  1
 62
  0
 10
2.077670
 20
0.108737
 30
0.000000
  0
VERTEX
  8
LAYER-1
 10
2.077670
 20
0.108737
 30
0.000000
  0
VERTEX
  8
LAYER-1
 10
2.084615
 20
0.082696
 30
0.000000
  0
VERTEX
  8
LAYER-1
 10
2.109788
 20
0.096583
 30
0.000000
  0
SEQEND
  8
LAYER-1
  0
POLYLINE
  8
LAYER-1
 66
  1
 70
  1
 62
  0
 10
2.182185
 20
0.095979
 30
0.000000
  0
VERTEX
  8
LAYER-1
 10
2.182185
 20
0.095979
 30
0.000000
  0
VERTEX
  8
LAYER-1
 10
2.169164
 20
0.073408
 30
0.000000
  0
VERTEX
  8
LAYER-1
 10
2.199546
 20
0.094241
 30
0.000000
  0
SEQEND
  8
LAYER-1
  0
POLYLINE
  8
LAYER-1
 66
  1
 70
  1
 62
  0
 10
1.898149
 20
0.126433
 30
0.000000
  0
VERTEX
  8
LAYER-1
 10
1.898149
 20
0.126433
 30
0.000000
  0
VERTEX
  8
LAYER-1
 10
1.881656
 20
0.101261
 30
0.000000
  0
VERTEX
  8
LAYER-1
 10
1.896413
 20
0.093448
 30
0.000000
  0
SEQEND
  8
LAYER-1
  0
POLYLINE
  8
LAYER-1
 66
  1
 70
  0
 62
  0
 10
2.028192
 20
0.139987
 30
0.000000
  0
VERTEX
  8
LAYER-1
 10
2.028192
 20
0.139987
 30
0.000000
  0
VERTEX
  8
LAYER-1
 10
2.023851
 20
0.139987
 30
0.000000
  0
VERTEX
  8
LAYER-1
 10
2.020379
 20
0.135646
 30
0.000000
  0
VERTEX
  8
LAYER-1
 10
2.019511
 20
0.130438
 30
0.000000
  0
VERTEX
  8
LAYER-1
 10
2.021247
 20
0.126098
 30
0.000000
  0
VERTEX
  8
LAYER-1
 10
2.025588
 20
0.124362
 30
0.000000
  0
VERTEX
  8
LAYER-1
 10
2.029928
 20
0.124362
 30
0.000000
  0
VERTEX
  8
LAYER-1
 10
2.034268
 20
0.127833
 30
0.000000
  0
VERTEX
  8
LAYER-1
 10
2.034268
 20
0.132174
 30
0.000000
  0
VERTEX
  8
LAYER-1
 10
2.033400
 20
0.136514
 30
0.000000
  0
VERTEX
  8
LAYER-1
 10
2.029060
 20
0.139119
 30
0.000000
  0
SEQEND
  8
LAYER-1
  0
POLYLINE
  8
LAYER-1
 66
  1
 70
  1
 62
  0
 10
0.885830
 20
0.216374
 30
0.000000
  0
VERTEX
  8
LAYER-1
 10
0.885830
 20
0.216374
 30
0.000000
  0
VERTEX
  8
LAYER-1
 10
0.872809
 20
0.193803
 30
0.000000
  0
VERTEX
  8
LAYER-1
 10
0.903191
 20
0.214636
 30
0.000000
  0
SEQEND
  8
LAYER-1
  0
POLYLINE
  8
LAYER-1
 66
  1
 70
  1
 62
  0
 10
1.883226
 20
0.159083
 30
0.000000
  0
VERTEX
  8
LAYER-1
 10
1.883226
 20
0.159083
 30
0.000000
  0
VERTEX
  8
LAYER-1
 10
1.870539
 20
0.139720
 30
0.000000
  0
VERTEX
  8
LAYER-1
 10
1.881890
 20
0.133708
 30
0.000000
  0
SEQEND
  8
LAYER-1
  0
POLYLINE
  8
LAYER-1
 66
  1
 70
  0
 62
  0
 10
2.180101
 20
0.141723
 30
0.000000
  0
VERTEX
  8
LAYER-1
 10
2.180101
 20
0.141723
 30
0.000000
  0
VERTEX
  8
LAYER-1
 10
2.175761
 20
0.141723
 30
0.000000
  0
VERTEX
  8
LAYER-1
 10
2.172288
 20
0.137382
 30
0.000000
  0
VERTEX
  8
LAYER-1
 10
2.171420
 20
0.132174
 30
0.000000
  0
VERTEX
  8
LAYER-1
 10
2.173156
 20
0.127833
 30
0.000000
  0
VERTEX
  8
LAYER-1
 10
2.177497
 20
0.126098
 30
0.000000
  0
VERTEX
  8
LAYER-1
 10
2.181838
 20
0.126098
 30
0.000000
  0
VERTEX
  8
LAYER-1
 10
2.186178
 20
0.129569
 30
0.000000
  0
VERTEX
  8
LAYER-1
 10
2.186178
 20
0.133910
 30
0.000000
  0
VERTEX
  8
LAYER-1
 10
2.185310
 20
0.138251
 30
0.000000
  0
VERTEX
  8
LAYER-1
 10
2.180969
 20
0.140856
 30
0.000000
  0
SEQEND
  8
LAYER-1
  0
POLYLINE
  8
LAYER-1
 66
  1
 70
  0
 62
  0
 10
2.239997
 20
0.146930
 30
0.000000
  0
VERTEX
  8
LAYER-1
 10
2.239997
 20
0.146930
 30
0.000000
  0
VERTEX
  8
LAYER-1
 10
2.235656
 20
0.146930
 30
0.000000
  0
VERTEX
  8
LAYER-1
 10
2.232185
 20
0.142589
 30
0.000000
  0
VERTEX
  8
LAYER-1
 10
2.231317
 20
0.137382
 30
0.000000
  0
VERTEX
  8
LAYER-1
 10
2.233053
 20
0.133041
 30
0.000000
  0
VERTEX
  8
LAYER-1
 10
2.237393
 20
0.131305
 30
0.000000
  0
VERTEX
  8
LAYER-1
 10
2.241733
 20
0.131305
 30
0.000000
  0
VERTEX
  8
LAYER-1
 10
2.246074
 20
0.134777
 30
0.000000
  0
VERTEX
  8
LAYER-1
 10
2.246074
 20
0.139118
 30
0.000000
  0
VERTEX
  8
LAYER-1
 10
2.245206
 20
0.143458
 30
0.000000
  0
VERTEX
  8
LAYER-1
 10
2.240865
 20
0.146063
 30
0.000000
  0
SEQEND
  8
LAYER-1
  0
POLYLINE
  8
LAYER-1
 66
  1
 70
  0
 62
  0
 10
0.896246
 20
0.133909
 30
0.000000
  0
VERTEX
  8
LAYER-1
 10
0.896246
 20
0.133909
 30
0.000000
  0
VERTEX
  8
LAYER-1
 10
0.891906
 20
0.133909
 30
0.000000
  0
VERTEX
  8
LAYER-1
 10
0.888434
 20
0.129568
 30
0.000000
  0
VERTEX
  8
LAYER-1
 10
0.887566
 20
0.124361
 30
0.000000
  0
VERTEX
  8
LAYER-1
 10
0.889302
 20
0.120020
 30
0.000000
  0
VERTEX
  8
LAYER-1
 10
0.893642
 20
0.118284
 30
0.000000
  0
VERTEX
  8
LAYER-1
 10
0.897982
 20
0.118284
 30
0.000000
  0
VERTEX
  8
LAYER-1
 10
0.902323
 20
0.121756
 30
0.000000
  0
VERTEX
  8
LAYER-1
 10
0.902323
 20
0.126096
 30
0.000000
  0
VERTEX
  8
LAYER-1
 10
0.901455
 20
0.130437
 30
0.000000
  0
VERTEX
  8
LAYER-1
 10
0.897114
 20
0.133042
 30
0.000000
  0
SEQEND
  8
LAYER-1
  0
POLYLINE
  8
LAYER-1
 66
  1
 70
  1
 62
  0
 10
2.547288
 20
0.173839
 30
0.000000
  0
VERTEX
  8
LAYER-1
 10
2.547288
 20
0.173839
 30
0.000000
  0
VERTEX
  8
LAYER-1
 10
2.554233
 20
0.147798
 30
0.000000
  0
VERTEX
  8
LAYER-1
 10
2.579406
 20
0.161686
 30
0.000000
  0
SEQEND
  8
LAYER-1
  0
POLYLINE
  8
LAYER-1
 66
  1
 70
  1
 62
  0
 10
2.709615
 20
0.202484
 30
0.000000
  0
VERTEX
  8
LAYER-1
 10
2.709615
 20
0.202484
 30
0.000000
  0
VERTEX
  8
LAYER-1
 10
2.696594
 20
0.179916
 30
0.000000
  0
VERTEX
  8
LAYER-1
 10
2.726976
 20
0.200748
 30
0.000000
  0
SEQEND
  8
LAYER-1
  0
POLYLINE
  8
LAYER-1
 66
  1
 70
  1
 62
  0
 10
1.385830
 20
0.153440
 30
0.000000
  0
VERTEX
  8
LAYER-1
 10
1.385830
 20
0.153440
 30
0.000000
  0
VERTEX
  8
LAYER-1
 10
1.369337
 20
0.128265
 30
0.000000
  0
VERTEX
  8
LAYER-1
 10
1.384094
 20
0.120453
 30
0.000000
  0
SEQEND
  8
LAYER-1
  0
POLYLINE
  8
LAYER-1
 66
  1
 70
  0
 62
  0
 10
2.497810
 20
0.205088
 30
0.000000
  0
VERTEX
  8
LAYER-1
 10
2.497810
 20
0.205088
 30
0.000000
  0
VERTEX
  8
LAYER-1
 10
2.493469
 20
0.205088
 30
0.000000
  0
VERTEX
  8
LAYER-1
 10
2.489997
 20
0.200748
 30
0.000000
  0
VERTEX
  8
LAYER-1
 10
2.489128
 20
0.195540
 30
0.000000
  0
VERTEX
  8
LAYER-1
 10
2.490865
 20
0.191199
 30
0.000000
  0
VERTEX
  8
LAYER-1
 10
2.495205
 20
0.189463
 30
0.000000
  0
VERTEX
  8
LAYER-1
 10
2.499545
 20
0.189463
 30
0.000000
  0
VERTEX
  8
LAYER-1
 10
2.503886
 20
0.192936
 30
0.000000
  0
VERTEX
  8
LAYER-1
 10
2.503886
 20
0.197276
 30
0.000000
  0
VERTEX
  8
LAYER-1
 10
2.503017
 20
0.201617
 30
0.000000
  0
VERTEX
  8
LAYER-1
 10
2.498678
 20
0.204220
 30
0.000000
  0
SEQEND
  8
LAYER-1
  0
POLYLINE
  8
LAYER-1
 66
  1
 70
  1
 62
  0
 10
2.535136
 20
0.137381
 30
0.000000
  0
VERTEX
  8
LAYER-1
 10
2.535136
 20
0.137381
 30
0.000000
  0
VERTEX
  8
LAYER-1
 10
2.522115
 20
0.114811
 30
0.000000
  0
VERTEX
  8
LAYER-1
 10
2.552497
 20
0.135644
 30
0.000000
  0
SEQEND
  8
LAYER-1
  0
POLYLINE
  8
LAYER-1
 66
  1
 70
  1
 62
  0
 10
1.094062
 20
0.227751
 30
0.000000
  0
VERTEX
  8
LAYER-1
 10
1.094062
 20
0.227751
 30
0.000000
  0
VERTEX
  8
LAYER-1
 10
1.113427
 20
0.215066
 30
0.000000
  0
VERTEX
  8
LAYER-1
 10
1.119437
 20
0.226415
 30
0.000000
  0
SEQEND
  8
LAYER-1
  0
POLYLINE
  8
LAYER-1
 66
  1
 70
  0
 62
  0
 10
2.649719
 20
0.206824
 30
0.000000
  0
VERTEX
  8
LAYER-1
 10
2.649719
 20
0.206824
 30
0.000000
  0
VERTEX
  8
LAYER-1
 10
2.645378
 20
0.206824
 30
0.000000
  0
VERTEX
  8
LAYER-1
 10
2.641906
 20
0.202483
 30
0.000000
  0
VERTEX
  8
LAYER-1
 10
2.641038
 20
0.197276
 30
0.000000
  0
VERTEX
  8
LAYER-1
 10
2.642774
 20
0.192936
 30
0.000000
  0
VERTEX
  8
LAYER-1
 10
2.647115
 20
0.191199
 30
0.000000
  0
VERTEX
  8
LAYER-1
 10
2.651455
 20
0.191199
 30
0.000000
  0
VERTEX
  8
LAYER-1
 10
2.655795
 20
0.194671
 30
0.000000
  0
VERTEX
  8
LAYER-1
 10
2.655795
 20
0.199012
 30
0.000000
  0
VERTEX
  8
LAYER-1
 10
2.654928
 20
0.203352
 30
0.000000
  0
VERTEX
  8
LAYER-1
 10
2.650587
 20
0.205956
 30
0.000000
  0
SEQEND
  8
LAYER-1
  0
POLYLINE
  8
LAYER-1
 66
  1
 70
  0
 62
  0
 10
1.437913
 20
0.147363
 30
0.000000
  0
VERTEX
  8
LAYER-1
 10
1.437913
 20
0.147363
 30
0.000000
  0
VERTEX
  8
LAYER-1
 10
1.433572
 20
0.147363
 30
0.000000
  0
VERTEX
  8
LAYER-1
 10
1.430101
 20
0.143023
 30
0.000000
  0
VERTEX
  8
LAYER-1
 10
1.429233
 20
0.137815
 30
0.000000
  0
VERTEX
  8
LAYER-1
 10
1.430969
 20
0.133475
 30
0.000000
  0
VERTEX
  8
LAYER-1
 10
1.435308
 20
0.131738
 30
0.000000
  0
VERTEX
  8
LAYER-1
 10
1.439649
 20
0.131738
 30
0.000000
  0
VERTEX
  8
LAYER-1
 10
1.443989
 20
0.135211
 30
0.000000
  0
VERTEX
  8
LAYER-1
 10
1.443989
 20
0.139551
 30
0.000000
  0
VERTEX
  8
LAYER-1
 10
1.443121
 20
0.143892
 30
0.000000
  0
VERTEX
  8
LAYER-1
 10
1.438781
 20
0.146495
 30
0.000000
  0
SEQEND
  8
LAYER-1
  0
POLYLINE
  8
LAYER-1
 66
  1
 70
  0
 62
  0
 10
1.021246
 20
0.123926
 30
0.000000
  0
VERTEX
  8
LAYER-1
 10
1.021246
 20
0.123926
 30
0.000000
  0
VERTEX
  8
LAYER-1
 10
1.016905
 20
0.123926
 30
0.000000
  0
VERTEX
  8
LAYER-1
 10
1.013434
 20
0.119586
 30
0.000000
  0
VERTEX
  8
LAYER-1
 10
1.012566
 20
0.114377
 30
0.000000
  0
VERTEX
  8
LAYER-1
 10
1.014302
 20
0.110037
 30
0.000000
  0
VERTEX
  8
LAYER-1
 10
1.018641
 20
0.108301
 30
0.000000
  0
VERTEX
  8
LAYER-1
 10
1.022982
 20
0.108301
 30
0.000000
  0
VERTEX
  8
LAYER-1
 10
1.027322
 20
0.111773
 30
0.000000
  0
VERTEX
  8
LAYER-1
 10
1.027322
 20
0.116113
 30
0.000000
  0
VERTEX
  8
LAYER-1
 10
1.026454
 20
0.120455
 30
0.000000
  0
VERTEX
  8
LAYER-1
 10
1.022114
 20
0.123058
 30
0.000000
  0
SEQEND
  8
LAYER-1
  0
POLYLINE
  8
LAYER-1
 66
  1
 70
  1
 62
  0
 10
2.989128
 20
0.198144
 30
0.000000
  0
VERTEX
  8
LAYER-1
 10
2.989128
 20
0.198144
 30
0.000000
  0
VERTEX
  8
LAYER-1
 10
2.996073
 20
0.172105
 30
0.000000
  0
VERTEX
  8
LAYER-1
 10
3.021246
 20
0.185990
 30
0.000000
  0
SEQEND
  8
LAYER-1
  0
POLYLINE
  8
LAYER-1
 66
  1
 70
  1
 62
  0
 10
3.151455
 20
0.226791
 30
0.000000
  0
VERTEX
  8
LAYER-1
 10
3.151455
 20
0.226791
 30
0.000000
  0
VERTEX
  8
LAYER-1
 10
3.138434
 20
0.204220
 30
0.000000
  0
VERTEX
  8
LAYER-1
 10
3.168816
 20
0.225053
 30
0.000000
  0
SEQEND
  8
LAYER-1
  0
POLYLINE
  8
LAYER-1
 66
  1
 70
  1
 62
  0
 10
2.379754
 20
0.162555
 30
0.000000
  0
VERTEX
  8
LAYER-1
 10
2.379754
 20
0.162555
 30
0.000000
  0
VERTEX
  8
LAYER-1
 10
2.404927
 20
0.146061
 30
0.000000
  0
VERTEX
  8
LAYER-1
 10
2.412739
 20
0.160819
 30
0.000000
  0
SEQEND
  8
LAYER-1
  0
POLYLINE
  8
LAYER-1
 66
  1
 70
  0
 62
  0
 10
2.950066
 20
0.218979
 30
0.000000
  0
VERTEX
  8
LAYER-1
 10
2.950066
 20
0.218979
 30
0.000000
  0
VERTEX
  8
LAYER-1
 10
2.945725
 20
0.218979
 30
0.000000
  0
VERTEX
  8
LAYER-1
 10
2.942253
 20
0.214638
 30
0.000000
  0
VERTEX
  8
LAYER-1
 10
2.941385
 20
0.209430
 30
0.000000
  0
VERTEX
  8
LAYER-1
 10
2.943121
 20
0.205089
 30
0.000000
  0
VERTEX
  8
LAYER-1
 10
2.947462
 20
0.203354
 30
0.000000
  0
VERTEX
  8
LAYER-1
 10
2.951802
 20
0.203354
 30
0.000000
  0
VERTEX
  8
LAYER-1
 10
2.956142
 20
0.206825
 30
0.000000
  0
VERTEX
  8
LAYER-1
 10
2.956142
 20
0.211166
 30
0.000000
  0
VERTEX
  8
LAYER-1
 10
2.955275
 20
0.215507
 30
0.000000
  0
VERTEX
  8
LAYER-1
 10
2.950934
 20
0.218112
 30
0.000000
  0
SEQEND
  8
LAYER-1
  0
POLYLINE
  8
LAYER-1
 66
  1
 70
  1
 62
  0
 10
2.965692
 20
0.130437
 30
0.000000
  0
VERTEX
  8
LAYER-1
 10
2.965692
 20
0.130437
 30
0.000000
  0
VERTEX
  8
LAYER-1
 10
2.952671
 20
0.107867
 30
0.000000
  0
VERTEX
  8
LAYER-1
 10
2.983053
 20
0.128699
 30
0.000000
  0
SEQEND
  8
LAYER-1
  0
POLYLINE
  8
LAYER-1
 66
  1
 70
  1
 62
  0
 10
3.060142
 20
0.124024
 30
0.000000
  0
VERTEX
  8
LAYER-1
 10
3.060142
 20
0.124024
 30
0.000000
  0
VERTEX
  8
LAYER-1
 10
3.047455
 20
0.104660
 30
0.000000
  0
VERTEX
  8
LAYER-1
 10
3.058806
 20
0.098649
 30
0.000000
  0
SEQEND
  8
LAYER-1
  0
POLYLINE
  8
LAYER-1
 66
  1
 70
  0
 62
  0
 10
3.091559
 20
0.223318
 30
0.000000
  0
VERTEX
  8
LAYER-1
 10
3.091559
 20
0.223318
 30
0.000000
  0
VERTEX
  8
LAYER-1
 10
3.087219
 20
0.223318
 30
0.000000
  0
VERTEX
  8
LAYER-1
 10
3.083746
 20
0.218977
 30
0.000000
  0
VERTEX
  8
LAYER-1
 10
3.082879
 20
0.213770
 30
0.000000
  0
VERTEX
  8
LAYER-1
 10
3.084614
 20
0.209429
 30
0.000000
  0
VERTEX
  8
LAYER-1
 10
3.088955
 20
0.207693
 30
0.000000
  0
VERTEX
  8
LAYER-1
 10
3.093296
 20
0.207693
 30
0.000000
  0
VERTEX
  8
LAYER-1
 10
3.097635
 20
0.211165
 30
0.000000
  0
VERTEX
  8
LAYER-1
 10
3.097635
 20
0.215506
 30
0.000000
  0
VERTEX
  8
LAYER-1
 10
3.096768
 20
0.219846
 30
0.000000
  0
VERTEX
  8
LAYER-1
 10
3.092427
 20
0.222451
 30
0.000000
  0
SEQEND
  8
LAYER-1
  0
POLYLINE
  8
LAYER-1
 66
  1
 70
  0
 62
  0
 10
2.368469
 20
0.215506
 30
0.000000
  0
VERTEX
  8
LAYER-1
 10
2.368469
 20
0.215506
 30
0.000000
  0
VERTEX
  8
LAYER-1
 10
2.368469
 20
0.211165
 30
0.000000
  0
VERTEX
  8
LAYER-1
 10
2.372810
 20
0.207693
 30
0.000000
  0
VERTEX
  8
LAYER-1
 10
2.378018
 20
0.206824
 30
0.000000
  0
VERTEX
  8
LAYER-1
 10
2.382359
 20
0.208561
 30
0.000000
  0
VERTEX
  8
LAYER-1
 10
2.384094
 20
0.212901
 30
0.000000
  0
VERTEX
  8
LAYER-1
 10
2.384094
 20
0.217242
 30
0.000000
  0
VERTEX
  8
LAYER-1
 10
2.380623
 20
0.221582
 30
0.000000
  0
VERTEX
  8
LAYER-1
 10
2.376282
 20
0.221582
 30
0.000000
  0
VERTEX
  8
LAYER-1
 10
2.371941
 20
0.220713
 30
0.000000
  0
VERTEX
  8
LAYER-1
 10
2.369336
 20
0.216373
 30
0.000000
  0
SEQEND
  8
LAYER-1
  0
POLYLINE
  8
LAYER-1
 66
  1
 70
  0
 62
  0
 10
2.931836
 20
0.131303
 30
0.000000
  0
VERTEX
  8
LAYER-1
 10
2.931836
 20
0.131303
 30
0.000000
  0
VERTEX
  8
LAYER-1
 10
2.927495
 20
0.131303
 30
0.000000
  0
VERTEX
  8
LAYER-1
 10
2.924024
 20
0.126962
 30
0.000000
  0
VERTEX
  8
LAYER-1
 10
2.923156
 20
0.121755
 30
0.000000
  0
VERTEX
  8
LAYER-1
 10
2.924892
 20
0.117414
 30
0.000000
  0
VERTEX
  8
LAYER-1
 10
2.929232
 20
0.115678
 30
0.000000
  0
VERTEX
  8
LAYER-1
 10
2.933572
 20
0.115678
 30
0.000000
  0
VERTEX
  8
LAYER-1
 10
2.937913
 20
0.119150
 30
0.000000
  0
VERTEX
  8
LAYER-1
 10
2.937913
 20
0.123490
 30
0.000000
  0
VERTEX
  8
LAYER-1
 10
2.937045
 20
0.127831
 30
0.000000
  0
VERTEX
  8
LAYER-1
 10
2.932704
 20
0.130436
 30
0.000000
  0
SEQEND
  8
LAYER-1
  0
POLYLINE
  8
LAYER-1
 66
  1
 70
  1
 62
  0
 10
2.799025
 20
0.119587
 30
0.000000
  0
VERTEX
  8
LAYER-1
 10
2.799025
 20
0.119587
 30
0.000000
  0
VERTEX
  8
LAYER-1
 10
2.772983
 20
0.112642
 30
0.000000
  0
VERTEX
  8
LAYER-1
 10
2.786872
 20
0.087468
 30
0.000000
  0
SEQEND
  8
LAYER-1
  0
POLYLINE
  8
LAYER-1
 66
  1
 70
  1
 62
  0
 10
1.422289
 20
0.093978
 30
0.000000
  0
VERTEX
  8
LAYER-1
 10
1.422289
 20
0.093978
 30
0.000000
  0
VERTEX
  8
LAYER-1
 10
1.397114
 20
0.110471
 30
0.000000
  0
VERTEX
  8
LAYER-1
 10
1.389301
 20
0.095714
 30
0.000000
  0
SEQEND
  8
LAYER-1
  0
POLYLINE
  8
LAYER-1
 66
  1
 70
  0
 62
  0
 10
2.830275
 20
0.169065
 30
0.000000
  0
VERTEX
  8
LAYER-1
 10
2.830275
 20
0.169065
 30
0.000000
  0
VERTEX
  8
LAYER-1
 10
2.830275
 20
0.173406
 30
0.000000
  0
VERTEX
  8
LAYER-1
 10
2.825935
 20
0.176877
 30
0.000000
  0
VERTEX
  8
LAYER-1
 10
2.820727
 20
0.177745
 30
0.000000
  0
VERTEX
  8
LAYER-1
 10
2.816386
 20
0.176010
 30
0.000000
  0
VERTEX
  8
LAYER-1
 10
2.814650
 20
0.171669
 30
0.000000
  0
VERTEX
  8
LAYER-1
 10
2.814650
 20
0.167330
 30
0.000000
  0
VERTEX
  8
LAYER-1
 10
2.818122
 20
0.162989
 30
0.000000
  0
VERTEX
  8
LAYER-1
 10
2.822463
 20
0.162989
 30
0.000000
  0
VERTEX
  8
LAYER-1
 10
2.826803
 20
0.163857
 30
0.000000
  0
VERTEX
  8
LAYER-1
 10
2.829406
 20
0.168197
 30
0.000000
  0
SEQEND
  8
LAYER-1
  0
POLYLINE
  8
LAYER-1
 66
  1
 70
  1
 62
  0
 10
2.762566
 20
0.131739
 30
0.000000
  0
VERTEX
  8
LAYER-1
 10
2.762566
 20
0.131739
 30
0.000000
  0
VERTEX
  8
LAYER-1
 10
2.739997
 20
0.144759
 30
0.000000
  0
VERTEX
  8
LAYER-1
 10
2.760830
 20
0.114377
 30
0.000000
  0
SEQEND
  8
LAYER-1
  0
POLYLINE
  8
LAYER-1
 66
  1
 70
  1
 62
  0
 10
1.500080
 20
0.113241
 30
0.000000
  0
VERTEX
  8
LAYER-1
 10
1.500080
 20
0.113241
 30
0.000000
  0
VERTEX
  8
LAYER-1
 10
1.480714
 20
0.125928
 30
0.000000
  0
VERTEX
  8
LAYER-1
 10
1.474704
 20
0.114577
 30
0.000000
  0
SEQEND
  8
LAYER-1
  0
POLYLINE
  8
LAYER-1
 66
  1
 70
  0
 62
  0
 10
1.560310
 20
0.101791
 30
0.000000
  0
VERTEX
  8
LAYER-1
 10
1.560310
 20
0.101791
 30
0.000000
  0
VERTEX
  8
LAYER-1
 10
1.560310
 20
0.106131
 30
0.000000
  0
VERTEX
  8
LAYER-1
 10
1.555969
 20
0.109603
 30
0.000000
  0
VERTEX
  8
LAYER-1
 10
1.550761
 20
0.110471
 30
0.000000
  0
VERTEX
  8
LAYER-1
 10
1.546421
 20
0.108736
 30
0.000000
  0
VERTEX
  8
LAYER-1
 10
1.544685
 20
0.104395
 30
0.000000
  0
VERTEX
  8
LAYER-1
 10
1.544685
 20
0.100054
 30
0.000000
  0
VERTEX
  8
LAYER-1
 10
1.548157
 20
0.095714
 30
0.000000
  0
VERTEX
  8
LAYER-1
 10
1.552497
 20
0.095714
 30
0.000000
  0
VERTEX
  8
LAYER-1
 10
1.556838
 20
0.096582
 30
0.000000
  0
VERTEX
  8
LAYER-1
 10
1.559441
 20
0.100923
 30
0.000000
  0
SEQEND
  8
LAYER-1
  0
POLYLINE
  8
LAYER-1
 66
  1
 70
  0
 62
  0
 10
2.680102
 20
0.121322
 30
0.000000
  0
VERTEX
  8
LAYER-1
 10
2.680102
 20
0.121322
 30
0.000000
  0
VERTEX
  8
LAYER-1
 10
2.680102
 20
0.125663
 30
0.000000
  0
VERTEX
  8
LAYER-1
 10
2.675761
 20
0.129134
 30
0.000000
  0
VERTEX
  8
LAYER-1
 10
2.670553
 20
0.130002
 30
0.000000
  0
VERTEX
  8
LAYER-1
 10
2.666213
 20
0.128267
 30
0.000000
  0
VERTEX
  8
LAYER-1
 10
2.664477
 20
0.123927
 30
0.000000
  0
VERTEX
  8
LAYER-1
 10
2.664477
 20
0.119587
 30
0.000000
  0
VERTEX
  8
LAYER-1
 10
2.667949
 20
0.115245
 30
0.000000
  0
VERTEX
  8
LAYER-1
 10
2.672289
 20
0.115245
 30
0.000000
  0
VERTEX
  8
LAYER-1
 10
2.676630
 20
0.116114
 30
0.000000
  0
VERTEX
  8
LAYER-1
 10
2.679233
 20
0.120455
 30
0.000000
  0
SEQEND
  8
LAYER-1
  0
POLYLINE
  8
LAYER-1
 66
  1
 70
  1
 62
  0
 10
2.872809
 20
0.122626
 30
0.000000
  0
VERTEX
  8
LAYER-1
 10
2.872809
 20
0.122626
 30
0.000000
  0
VERTEX
  8
LAYER-1
 10
2.865865
 20
0.148666
 30
0.000000
  0
VERTEX
  8
LAYER-1
 10
2.840691
 20
0.134779
 30
0.000000
  0
SEQEND
  8
LAYER-1
  0
POLYLINE
  8
LAYER-1
 66
  1
 70
  1
 62
  0
 10
2.319858
 20
0.109603
 30
0.000000
  0
VERTEX
  8
LAYER-1
 10
2.319858
 20
0.109603
 30
0.000000
  0
VERTEX
  8
LAYER-1
 10
2.297287
 20
0.122626
 30
0.000000
  0
VERTEX
  8
LAYER-1
 10
2.318120
 20
0.092243
 30
0.000000
  0
SEQEND
  8
LAYER-1
  0
POLYLINE
  8
LAYER-1
 66
  1
 70
  1
 62
  0
 10
3.097637
 20
0.133910
 30
0.000000
  0
VERTEX
  8
LAYER-1
 10
3.097637
 20
0.133910
 30
0.000000
  0
VERTEX
  8
LAYER-1
 10
3.114129
 20
0.159083
 30
0.000000
  0
VERTEX
  8
LAYER-1
 10
3.099372
 20
0.166896
 30
0.000000
  0
SEQEND
  8
LAYER-1
  0
POLYLINE
  8
LAYER-1
 66
  1
 70
  0
 62
  0
 10
3.233052
 20
0.101789
 30
0.000000
  0
VERTEX
  8
LAYER-1
 10
3.233052
 20
0.101789
 30
0.000000
  0
VERTEX
  8
LAYER-1
 10
3.237393
 20
0.101789
 30
0.000000
  0
VERTEX
  8
LAYER-1
 10
3.240865
 20
0.106130
 30
0.000000
  0
VERTEX
  8
LAYER-1
 10
3.241733
 20
0.111337
 30
0.000000
  0
VERTEX
  8
LAYER-1
 10
3.239997
 20
0.115678
 30
0.000000
  0
VERTEX
  8
LAYER-1
 10
3.235656
 20
0.117414
 30
0.000000
  0
VERTEX
  8
LAYER-1
 10
3.231316
 20
0.117414
 30
0.000000
  0
VERTEX
  8
LAYER-1
 10
3.226975
 20
0.113942
 30
0.000000
  0
VERTEX
  8
LAYER-1
 10
3.226975
 20
0.109601
 30
0.000000
  0
VERTEX
  8
LAYER-1
 10
3.227843
 20
0.105261
 30
0.000000
  0
VERTEX
  8
LAYER-1
 10
3.232184
 20
0.102656
 30
0.000000
  0
SEQEND
  8
LAYER-1
  0
POLYLINE
  8
LAYER-1
 66
  1
 70
  1
 62
  0
 10
2.884961
 20
0.159083
 30
0.000000
  0
VERTEX
  8
LAYER-1
 10
2.884961
 20
0.159083
 30
0.000000
  0
VERTEX
  8
LAYER-1
 10
2.897982
 20
0.181654
 30
0.000000
  0
VERTEX
  8
LAYER-1
 10
2.867601
 20
0.160821
 30
0.000000
  0
SEQEND
  8
LAYER-1
  0
POLYLINE
  8
LAYER-1
 66
  1
 70
  1
 62
  0
 10
3.138601
 20
0.109939
 30
0.000000
  0
VERTEX
  8
LAYER-1
 10
3.138601
 20
0.109939
 30
0.000000
  0
VERTEX
  8
LAYER-1
 10
3.151288
 20
0.129303
 30
0.000000
  0
VERTEX
  8
LAYER-1
 10
3.139937
 20
0.135314
 30
0.000000
  0
SEQEND
  8
LAYER-1
  0
POLYLINE
  8
LAYER-1
 66
  1
 70
  0
 62
  0
 10
2.459614
 20
0.169501
 30
0.000000
  0
VERTEX
  8
LAYER-1
 10
2.459614
 20
0.169501
 30
0.000000
  0
VERTEX
  8
LAYER-1
 10
2.459614
 20
0.173839
 30
0.000000
  0
VERTEX
  8
LAYER-1
 10
2.455273
 20
0.177313
 30
0.000000
  0
VERTEX
  8
LAYER-1
 10
2.450065
 20
0.178180
 30
0.000000
  0
VERTEX
  8
LAYER-1
 10
2.445725
 20
0.176444
 30
0.000000
  0
VERTEX
  8
LAYER-1
 10
2.443989
 20
0.172104
 30
0.000000
  0
VERTEX
  8
LAYER-1
 10
2.443989
 20
0.167763
 30
0.000000
  0
VERTEX
  8
LAYER-1
 10
2.447461
 20
0.163424
 30
0.000000
  0
VERTEX
  8
LAYER-1
 10
2.451801
 20
0.163424
 30
0.000000
  0
VERTEX
  8
LAYER-1
 10
2.456142
 20
0.164291
 30
0.000000
  0
VERTEX
  8
LAYER-1
 10
2.458747
 20
0.168632
 30
0.000000
  0
SEQEND
  8
LAYER-1
  0
POLYLINE
  8
LAYER-1
 66
  1
 70
  0
 62
  0
 10
3.045553
 20
0.139987
 30
0.000000
  0
VERTEX
  8
LAYER-1
 10
3.045553
 20
0.139987
 30
0.000000
  0
VERTEX
  8
LAYER-1
 10
3.049893
 20
0.139987
 30
0.000000
  0
VERTEX
  8
LAYER-1
 10
3.053365
 20
0.144327
 30
0.000000
  0
VERTEX
  8
LAYER-1
 10
3.054233
 20
0.149535
 30
0.000000
  0
VERTEX
  8
LAYER-1
 10
3.052497
 20
0.153876
 30
0.000000
  0
VERTEX
  8
LAYER-1
 10
3.048157
 20
0.155612
 30
0.000000
  0
VERTEX
  8
LAYER-1
 10
3.043817
 20
0.155612
 30
0.000000
  0
VERTEX
  8
LAYER-1
 10
3.039476
 20
0.152139
 30
0.000000
  0
VERTEX
  8
LAYER-1
 10
3.039476
 20
0.147799
 30
0.000000
  0
VERTEX
  8
LAYER-1
 10
3.040344
 20
0.143458
 30
0.000000
  0
VERTEX
  8
LAYER-1
 10
3.044685
 20
0.140853
 30
0.000000
  0
SEQEND
  8
LAYER-1
  0
POLYLINE
  8
LAYER-1
 66
  1
 70
  0
 62
  0
 10
3.209615
 20
0.147799
 30
0.000000
  0
VERTEX
  8
LAYER-1
 10
3.209615
 20
0.147799
 30
0.000000
  0
VERTEX
  8
LAYER-1
 10
3.213956
 20
0.147799
 30
0.000000
  0
VERTEX
  8
LAYER-1
 10
3.217428
 20
0.152139
 30
0.000000
  0
VERTEX
  8
LAYER-1
 10
3.218296
 20
0.157348
 30
0.000000
  0
VERTEX
  8
LAYER-1
 10
3.216560
 20
0.161688
 30
0.000000
  0
VERTEX
  8
LAYER-1
 10
3.212219
 20
0.163424
 30
0.000000
  0
VERTEX
  8
LAYER-1
 10
3.207879
 20
0.163424
 30
0.000000
  0
VERTEX
  8
LAYER-1
 10
3.203539
 20
0.159952
 30
0.000000
  0
VERTEX
  8
LAYER-1
 10
3.203539
 20
0.155612
 30
0.000000
  0
VERTEX
  8
LAYER-1
 10
3.204407
 20
0.151271
 30
0.000000
  0
VERTEX
  8
LAYER-1
 10
3.208747
 20
0.148666
 30
0.000000
  0
SEQEND
  8
LAYER-1
  0
POLYLINE
  8
LAYER-1
 66
  1
 70
  1
 62
  0
 10
3.616732
 20
0.146063
 30
0.000000
  0
VERTEX
  8
LAYER-1
 10
3.616732
 20
0.146063
 30
0.000000
  0
VERTEX
  8
LAYER-1
 10
3.623676
 20
0.120021
 30
0.000000
  0
VERTEX
  8
LAYER-1
 10
3.648849
 20
0.133910
 30
0.000000
  0
SEQEND
  8
LAYER-1
  0
POLYLINE
  8
LAYER-1
 66
  1
 70
  1
 62
  0
 10
3.782964
 20
0.100056
 30
0.000000
  0
VERTEX
  8
LAYER-1
 10
3.782964
 20
0.100056
 30
0.000000
  0
VERTEX
  8
LAYER-1
 10
3.769943
 20
0.077487
 30
0.000000
  0
VERTEX
  8
LAYER-1
 10
3.800326
 20
0.098319
 30
0.000000
  0
SEQEND
  8
LAYER-1
  0
POLYLINE
  8
LAYER-1
 66
  1
 70
  1
 62
  0
 10
3.667946
 20
0.190330
 30
0.000000
  0
VERTEX
  8
LAYER-1
 10
3.667946
 20
0.190330
 30
0.000000
  0
VERTEX
  8
LAYER-1
 10
3.651454
 20
0.165156
 30
0.000000
  0
VERTEX
  8
LAYER-1
 10
3.666210
 20
0.157344
 30
0.000000
  0
SEQEND
  8
LAYER-1
  0
POLYLINE
  8
LAYER-1
 66
  1
 70
  0
 62
  0
 10
3.582877
 20
0.177313
 30
0.000000
  0
VERTEX
  8
LAYER-1
 10
3.582877
 20
0.177313
 30
0.000000
  0
VERTEX
  8
LAYER-1
 10
3.578537
 20
0.177313
 30
0.000000
  0
VERTEX
  8
LAYER-1
 10
3.575064
 20
0.172973
 30
0.000000
  0
VERTEX
  8
LAYER-1
 10
3.574195
 20
0.167764
 30
0.000000
  0
VERTEX
  8
LAYER-1
 10
3.575932
 20
0.163424
 30
0.000000
  0
VERTEX
  8
LAYER-1
 10
3.580273
 20
0.161688
 30
0.000000
  0
VERTEX
  8
LAYER-1
 10
3.584613
 20
0.161688
 30
0.000000
  0
VERTEX
  8
LAYER-1
 10
3.588952
 20
0.165160
 30
0.000000
  0
VERTEX
  8
LAYER-1
 10
3.588952
 20
0.169501
 30
0.000000
  0
VERTEX
  8
LAYER-1
 10
3.588084
 20
0.173842
 30
0.000000
  0
VERTEX
  8
LAYER-1
 10
3.583745
 20
0.176445
 30
0.000000
  0
SEQEND
  8
LAYER-1
  0
POLYLINE
  8
LAYER-1
 66
  1
 70
  1
 62
  0
 10
3.566384
 20
0.117415
 30
0.000000
  0
VERTEX
  8
LAYER-1
 10
3.566384
 20
0.117415
 30
0.000000
  0
VERTEX
  8
LAYER-1
 10
3.553363
 20
0.094845
 30
0.000000
  0
VERTEX
  8
LAYER-1
 10
3.583745
 20
0.115678
 30
0.000000
  0
SEQEND
  8
LAYER-1
  0
POLYLINE
  8
LAYER-1
 66
  1
 70
  1
 62
  0
 10
3.621838
 20
0.215768
 30
0.000000
  0
VERTEX
  8
LAYER-1
 10
3.621838
 20
0.215768
 30
0.000000
  0
VERTEX
  8
LAYER-1
 10
3.641204
 20
0.203080
 30
0.000000
  0
VERTEX
  8
LAYER-1
 10
3.647214
 20
0.214432
 30
0.000000
  0
SEQEND
  8
LAYER-1
  0
POLYLINE
  8
LAYER-1
 66
  1
 70
  0
 62
  0
 10
3.506487
 20
0.167018
 30
0.000000
  0
VERTEX
  8
LAYER-1
 10
3.506487
 20
0.167018
 30
0.000000
  0
VERTEX
  8
LAYER-1
 10
3.502147
 20
0.167018
 30
0.000000
  0
VERTEX
  8
LAYER-1
 10
3.498675
 20
0.162677
 30
0.000000
  0
VERTEX
  8
LAYER-1
 10
3.497808
 20
0.157470
 30
0.000000
  0
VERTEX
  8
LAYER-1
 10
3.499544
 20
0.153129
 30
0.000000
  0
VERTEX
  8
LAYER-1
 10
3.503883
 20
0.151393
 30
0.000000
  0
VERTEX
  8
LAYER-1
 10
3.508224
 20
0.151393
 30
0.000000
  0
VERTEX
  8
LAYER-1
 10
3.512564
 20
0.154865
 30
0.000000
  0
VERTEX
  8
LAYER-1
 10
3.512564
 20
0.159205
 30
0.000000
  0
VERTEX
  8
LAYER-1
 10
3.511696
 20
0.163546
 30
0.000000
  0
VERTEX
  8
LAYER-1
 10
3.507356
 20
0.166150
 30
0.000000
  0
SEQEND
  8
LAYER-1
  0
POLYLINE
  8
LAYER-1
 66
  1
 70
  0
 62
  0
 10
3.883227
 20
0.139114
 30
0.000000
  0
VERTEX
  8
LAYER-1
 10
3.883227
 20
0.139114
 30
0.000000
  0
VERTEX
  8
LAYER-1
 10
3.878887
 20
0.139114
 30
0.000000
  0
VERTEX
  8
LAYER-1
 10
3.875414
 20
0.134773
 30
0.000000
  0
VERTEX
  8
LAYER-1
 10
3.874546
 20
0.129565
 30
0.000000
  0
VERTEX
  8
LAYER-1
 10
3.876282
 20
0.125225
 30
0.000000
  0
VERTEX
  8
LAYER-1
 10
3.880623
 20
0.123489
 30
0.000000
  0
VERTEX
  8
LAYER-1
 10
3.884963
 20
0.123489
 30
0.000000
  0
VERTEX
  8
LAYER-1
 10
3.889303
 20
0.126961
 30
0.000000
  0
VERTEX
  8
LAYER-1
 10
3.889303
 20
0.131301
 30
0.000000
  0
VERTEX
  8
LAYER-1
 10
3.888435
 20
0.135642
 30
0.000000
  0
VERTEX
  8
LAYER-1
 10
3.884095
 20
0.138245
 30
0.000000
  0
SEQEND
  8
LAYER-1
  0
POLYLINE
  8
LAYER-1
 66
  1
 70
  0
 62
  0
 10
3.614995
 20
0.110470
 30
0.000000
  0
VERTEX
  8
LAYER-1
 10
3.614995
 20
0.110470
 30
0.000000
  0
VERTEX
  8
LAYER-1
 10
3.610655
 20
0.110470
 30
0.000000
  0
VERTEX
  8
LAYER-1
 10
3.607182
 20
0.106130
 30
0.000000
  0
VERTEX
  8
LAYER-1
 10
3.606314
 20
0.100922
 30
0.000000
  0
VERTEX
  8
LAYER-1
 10
3.608050
 20
0.096581
 30
0.000000
  0
VERTEX
  8
LAYER-1
 10
3.612391
 20
0.094845
 30
0.000000
  0
VERTEX
  8
LAYER-1
 10
3.616731
 20
0.094845
 30
0.000000
  0
VERTEX
  8
LAYER-1
 10
3.621072
 20
0.098317
 30
0.000000
  0
VERTEX
  8
LAYER-1
 10
3.621072
 20
0.102658
 30
0.000000
  0
VERTEX
  8
LAYER-1
 10
3.620204
 20
0.106999
 30
0.000000
  0
VERTEX
  8
LAYER-1
 10
3.615863
 20
0.109602
 30
0.000000
  0
SEQEND
  8
LAYER-1
  0
POLYLINE
  8
LAYER-1
 66
  1
 70
  1
 62
  0
 10
3.413173
 20
0.169934
 30
0.000000
  0
VERTEX
  8
LAYER-1
 10
3.413173
 20
0.169934
 30
0.000000
  0
VERTEX
  8
LAYER-1
 10
3.387132
 20
0.162989
 30
0.000000
  0
VERTEX
  8
LAYER-1
 10
3.401020
 20
0.137817
 30
0.000000
  0
SEQEND
  8
LAYER-1
  0
POLYLINE
  8
LAYER-1
 66
  1
 70
  1
 62
  0
 10
3.320293
 20
0.118718
 30
0.000000
  0
VERTEX
  8
LAYER-1
 10
3.320293
 20
0.118718
 30
0.000000
  0
VERTEX
  8
LAYER-1
 10
3.297722
 20
0.131739
 30
0.000000
  0
VERTEX
  8
LAYER-1
 10
3.318555
 20
0.101357
 30
0.000000
  0
SEQEND
  8
LAYER-1
  0
POLYLINE
  8
LAYER-1
 66
  1
 70
  1
 62
  0
 10
3.283833
 20
0.163855
 30
0.000000
  0
VERTEX
  8
LAYER-1
 10
3.283833
 20
0.163855
 30
0.000000
  0
VERTEX
  8
LAYER-1
 10
3.258660
 20
0.180348
 30
0.000000
  0
VERTEX
  8
LAYER-1
 10
3.250847
 20
0.165590
 30
0.000000
  0
SEQEND
  8
LAYER-1
  0
POLYLINE
  8
LAYER-1
 66
  1
 70
  0
 62
  0
 10
3.444423
 20
0.219412
 30
0.000000
  0
VERTEX
  8
LAYER-1
 10
3.444423
 20
0.219412
 30
0.000000
  0
VERTEX
  8
LAYER-1
 10
3.444423
 20
0.223752
 30
0.000000
  0
VERTEX
  8
LAYER-1
 10
3.440082
 20
0.227225
 30
0.000000
  0
VERTEX
  8
LAYER-1
 10
3.434875
 20
0.228093
 30
0.000000
  0
VERTEX
  8
LAYER-1
 10
3.430534
 20
0.226357
 30
0.000000
  0
VERTEX
  8
LAYER-1
 10
3.428798
 20
0.222015
 30
0.000000
  0
VERTEX
  8
LAYER-1
 10
3.428798
 20
0.217676
 30
0.000000
  0
VERTEX
  8
LAYER-1
 10
3.432270
 20
0.213336
 30
0.000000
  0
VERTEX
  8
LAYER-1
 10
3.436610
 20
0.213336
 30
0.000000
  0
VERTEX
  8
LAYER-1
 10
3.440951
 20
0.214203
 30
0.000000
  0
VERTEX
  8
LAYER-1
 10
3.443556
 20
0.218544
 30
0.000000
  0
SEQEND
  8
LAYER-1
  0
POLYLINE
  8
LAYER-1
 66
  1
 70
  1
 62
  0
 10
3.376715
 20
0.182087
 30
0.000000
  0
VERTEX
  8
LAYER-1
 10
3.376715
 20
0.182087
 30
0.000000
  0
VERTEX
  8
LAYER-1
 10
3.354145
 20
0.195107
 30
0.000000
  0
VERTEX
  8
LAYER-1
 10
3.374978
 20
0.164725
 30
0.000000
  0
SEQEND
  8
LAYER-1
  0
POLYLINE
  8
LAYER-1
 66
  1
 70
  1
 62
  0
 10
3.328370
 20
0.189127
 30
0.000000
  0
VERTEX
  8
LAYER-1
 10
3.328370
 20
0.189127
 30
0.000000
  0
VERTEX
  8
LAYER-1
 10
3.315683
 20
0.169764
 30
0.000000
  0
VERTEX
  8
LAYER-1
 10
3.327034
 20
0.163753
 30
0.000000
  0
SEQEND
  8
LAYER-1
  0
POLYLINE
  8
LAYER-1
 66
  1
 70
  0
 62
  0
 10
3.446159
 20
0.091808
 30
0.000000
  0
VERTEX
  8
LAYER-1
 10
3.446159
 20
0.091808
 30
0.000000
  0
VERTEX
  8
LAYER-1
 10
3.446159
 20
0.096148
 30
0.000000
  0
VERTEX
  8
LAYER-1
 10
3.441818
 20
0.099620
 30
0.000000
  0
VERTEX
  8
LAYER-1
 10
3.436610
 20
0.100488
 30
0.000000
  0
VERTEX
  8
LAYER-1
 10
3.432270
 20
0.098752
 30
0.000000
  0
VERTEX
  8
LAYER-1
 10
3.430534
 20
0.094412
 30
0.000000
  0
VERTEX
  8
LAYER-1
 10
3.430534
 20
0.090071
 30
0.000000
  0
VERTEX
  8
LAYER-1
 10
3.434006
 20
0.085732
 30
0.000000
  0
VERTEX
  8
LAYER-1
 10
3.438346
 20
0.085732
 30
0.000000
  0
VERTEX
  8
LAYER-1
 10
3.442687
 20
0.086600
 30
0.000000
  0
VERTEX
  8
LAYER-1
 10
3.445292
 20
0.090940
 30
0.000000
  0
SEQEND
  8
LAYER-1
  0
POLYLINE
  8
LAYER-1
 66
  1
 70
  0
 62
  0
 10
3.364562
 20
0.092676
 30
0.000000
  0
VERTEX
  8
LAYER-1
 10
3.364562
 20
0.092676
 30
0.000000
  0
VERTEX
  8
LAYER-1
 10
3.364562
 20
0.097017
 30
0.000000
  0
VERTEX
  8
LAYER-1
 10
3.360221
 20
0.100488
 30
0.000000
  0
VERTEX
  8
LAYER-1
 10
3.355014
 20
0.101357
 30
0.000000
  0
VERTEX
  8
LAYER-1
 10
3.350673
 20
0.099620
 30
0.000000
  0
VERTEX
  8
LAYER-1
 10
3.348937
 20
0.095280
 30
0.000000
  0
VERTEX
  8
LAYER-1
 10
3.348937
 20
0.090940
 30
0.000000
  0
VERTEX
  8
LAYER-1
 10
3.352409
 20
0.086600
 30
0.000000
  0
VERTEX
  8
LAYER-1
 10
3.356750
 20
0.086600
 30
0.000000
  0
VERTEX
  8
LAYER-1
 10
3.361090
 20
0.087468
 30
0.000000
  0
VERTEX
  8
LAYER-1
 10
3.363695
 20
0.091808
 30
0.000000
  0
SEQEND
  8
LAYER-1
  0
POLYLINE
  8
LAYER-1
 66
  1
 70
  0
 62
  0
 10
3.294250
 20
0.202918
 30
0.000000
  0
VERTEX
  8
LAYER-1
 10
3.294250
 20
0.202918
 30
0.000000
  0
VERTEX
  8
LAYER-1
 10
3.294250
 20
0.207258
 30
0.000000
  0
VERTEX
  8
LAYER-1
 10
3.289909
 20
0.210731
 30
0.000000
  0
VERTEX
  8
LAYER-1
 10
3.284702
 20
0.211599
 30
0.000000
  0
VERTEX
  8
LAYER-1
 10
3.280361
 20
0.209863
 30
0.000000
  0
VERTEX
  8
LAYER-1
 10
3.278625
 20
0.205521
 30
0.000000
  0
VERTEX
  8
LAYER-1
 10
3.278625
 20
0.201182
 30
0.000000
  0
VERTEX
  8
LAYER-1
 10
3.282097
 20
0.196842
 30
0.000000
  0
VERTEX
  8
LAYER-1
 10
3.286438
 20
0.196842
 30
0.000000
  0
VERTEX
  8
LAYER-1
 10
3.290778
 20
0.197709
 30
0.000000
  0
VERTEX
  8
LAYER-1
 10
3.293383
 20
0.202050
 30
0.000000
  0
SEQEND
  8
LAYER-1
  0
POLYLINE
  8
LAYER-1
 66
  1
 70
  1
 62
  0
 10
4.076801
 20
0.192502
 30
0.000000
  0
VERTEX
  8
LAYER-1
 10
4.076801
 20
0.192502
 30
0.000000
  0
VERTEX
  8
LAYER-1
 10
4.083746
 20
0.166462
 30
0.000000
  0
VERTEX
  8
LAYER-1
 10
4.108919
 20
0.180350
 30
0.000000
  0
SEQEND
  8
LAYER-1
  0
POLYLINE
  8
LAYER-1
 66
  1
 70
  1
 62
  0
 10
4.239129
 20
0.221149
 30
0.000000
  0
VERTEX
  8
LAYER-1
 10
4.239129
 20
0.221149
 30
0.000000
  0
VERTEX
  8
LAYER-1
 10
4.226107
 20
0.198580
 30
0.000000
  0
VERTEX
  8
LAYER-1
 10
4.256489
 20
0.219412
 30
0.000000
  0
SEQEND
  8
LAYER-1
  0
POLYLINE
  8
LAYER-1
 66
  1
 70
  1
 62
  0
 10
4.218296
 20
0.136078
 30
0.000000
  0
VERTEX
  8
LAYER-1
 10
4.218296
 20
0.136078
 30
0.000000
  0
VERTEX
  8
LAYER-1
 10
4.201803
 20
0.110904
 30
0.000000
  0
VERTEX
  8
LAYER-1
 10
4.216560
 20
0.103092
 30
0.000000
  0
SEQEND
  8
LAYER-1
  0
POLYLINE
  8
LAYER-1
 66
  1
 70
  0
 62
  0
 10
4.027323
 20
0.223752
 30
0.000000
  0
VERTEX
  8
LAYER-1
 10
4.027323
 20
0.223752
 30
0.000000
  0
VERTEX
  8
LAYER-1
 10
4.022982
 20
0.223752
 30
0.000000
  0
VERTEX
  8
LAYER-1
 10
4.019510
 20
0.219412
 30
0.000000
  0
VERTEX
  8
LAYER-1
 10
4.018642
 20
0.214205
 30
0.000000
  0
VERTEX
  8
LAYER-1
 10
4.020378
 20
0.209863
 30
0.000000
  0
VERTEX
  8
LAYER-1
 10
4.024719
 20
0.208127
 30
0.000000
  0
VERTEX
  8
LAYER-1
 10
4.029058
 20
0.208127
 30
0.000000
  0
VERTEX
  8
LAYER-1
 10
4.033399
 20
0.211600
 30
0.000000
  0
VERTEX
  8
LAYER-1
 10
4.033399
 20
0.215940
 30
0.000000
  0
VERTEX
  8
LAYER-1
 10
4.032531
 20
0.220281
 30
0.000000
  0
VERTEX
  8
LAYER-1
 10
4.028191
 20
0.222885
 30
0.000000
  0
SEQEND
  8
LAYER-1
  0
POLYLINE
  8
LAYER-1
 66
  1
 70
  1
 62
  0
 10
4.048589
 20
0.155609
 30
0.000000
  0
VERTEX
  8
LAYER-1
 10
4.048589
 20
0.155609
 30
0.000000
  0
VERTEX
  8
LAYER-1
 10
4.071158
 20
0.142589
 30
0.000000
  0
VERTEX
  8
LAYER-1
 10
4.050326
 20
0.172970
 30
0.000000
  0
SEQEND
  8
LAYER-1
  0
POLYLINE
  8
LAYER-1
 66
  1
 70
  1
 62
  0
 10
4.165243
 20
0.147630
 30
0.000000
  0
VERTEX
  8
LAYER-1
 10
4.165243
 20
0.147630
 30
0.000000
  0
VERTEX
  8
LAYER-1
 10
4.184608
 20
0.134942
 30
0.000000
  0
VERTEX
  8
LAYER-1
 10
4.190618
 20
0.146294
 30
0.000000
  0
SEQEND
  8
LAYER-1
  0
POLYLINE
  8
LAYER-1
 66
  1
 70
  0
 62
  0
 10
4.179232
 20
0.225488
 30
0.000000
  0
VERTEX
  8
LAYER-1
 10
4.179232
 20
0.225488
 30
0.000000
  0
VERTEX
  8
LAYER-1
 10
4.174892
 20
0.225488
 30
0.000000
  0
VERTEX
  8
LAYER-1
 10
4.171420
 20
0.221148
 30
0.000000
  0
VERTEX
  8
LAYER-1
 10
4.170552
 20
0.215940
 30
0.000000
  0
VERTEX
  8
LAYER-1
 10
4.172288
 20
0.211600
 30
0.000000
  0
VERTEX
  8
LAYER-1
 10
4.176629
 20
0.209863
 30
0.000000
  0
VERTEX
  8
LAYER-1
 10
4.180969
 20
0.209863
 30
0.000000
  0
VERTEX
  8
LAYER-1
 10
4.185309
 20
0.213336
 30
0.000000
  0
VERTEX
  8
LAYER-1
 10
4.185309
 20
0.217676
 30
0.000000
  0
VERTEX
  8
LAYER-1
 10
4.184441
 20
0.222017
 30
0.000000
  0
VERTEX
  8
LAYER-1
 10
4.180100
 20
0.224620
 30
0.000000
  0
SEQEND
  8
LAYER-1
  0
POLYLINE
  8
LAYER-1
 66
  1
 70
  0
 62
  0
 10
4.263435
 20
0.098751
 30
0.000000
  0
VERTEX
  8
LAYER-1
 10
4.263435
 20
0.098751
 30
0.000000
  0
VERTEX
  8
LAYER-1
 10
4.259094
 20
0.098751
 30
0.000000
  0
VERTEX
  8
LAYER-1
 10
4.255622
 20
0.094411
 30
0.000000
  0
VERTEX
  8
LAYER-1
 10
4.254754
 20
0.089203
 30
0.000000
  0
VERTEX
  8
LAYER-1
 10
4.256490
 20
0.084863
 30
0.000000
  0
VERTEX
  8
LAYER-1
 10
4.260830
 20
0.083126
 30
0.000000
  0
VERTEX
  8
LAYER-1
 10
4.265171
 20
0.083126
 30
0.000000
  0
VERTEX
  8
LAYER-1
 10
4.269511
 20
0.086599
 30
0.000000
  0
VERTEX
  8
LAYER-1
 10
4.269511
 20
0.090939
 30
0.000000
  0
VERTEX
  8
LAYER-1
 10
4.268642
 20
0.095280
 30
0.000000
  0
VERTEX
  8
LAYER-1
 10
4.264303
 20
0.097883
 30
0.000000
  0
SEQEND
  8
LAYER-1
  0
POLYLINE
  8
LAYER-1
 66
  1
 70
  0
 62
  0
 10
4.109788
 20
0.153437
 30
0.000000
  0
VERTEX
  8
LAYER-1
 10
4.109788
 20
0.153437
 30
0.000000
  0
VERTEX
  8
LAYER-1
 10
4.105448
 20
0.153437
 30
0.000000
  0
VERTEX
  8
LAYER-1
 10
4.101976
 20
0.149096
 30
0.000000
  0
VERTEX
  8
LAYER-1
 10
4.101108
 20
0.143889
 30
0.000000
  0
VERTEX
  8
LAYER-1
 10
4.102844
 20
0.139548
 30
0.000000
  0
VERTEX
  8
LAYER-1
 10
4.107183
 20
0.137812
 30
0.000000
  0
VERTEX
  8
LAYER-1
 10
4.111524
 20
0.137812
 30
0.000000
  0
VERTEX
  8
LAYER-1
 10
4.115865
 20
0.141284
 30
0.000000
  0
VERTEX
  8
LAYER-1
 10
4.115865
 20
0.145625
 30
0.000000
  0
VERTEX
  8
LAYER-1
 10
4.114996
 20
0.149965
 30
0.000000
  0
VERTEX
  8
LAYER-1
 10
4.110656
 20
0.152569
 30
0.000000
  0
SEQEND
  8
LAYER-1
  0
POLYLINE
  8
LAYER-1
 66
  1
 70
  1
 62
  0
 10
3.944859
 20
0.162119
 30
0.000000
  0
VERTEX
  8
LAYER-1
 10
3.944859
 20
0.162119
 30
0.000000
  0
VERTEX
  8
LAYER-1
 10
3.937913
 20
0.188158
 30
0.000000
  0
VERTEX
  8
LAYER-1
 10
3.912740
 20
0.174271
 30
0.000000
  0
SEQEND
  8
LAYER-1
  0
POLYLINE
  8
LAYER-1
 66
  1
 70
  1
 62
  0
 10
3.533833
 20
0.193801
 30
0.000000
  0
VERTEX
  8
LAYER-1
 10
3.533833
 20
0.193801
 30
0.000000
  0
VERTEX
  8
LAYER-1
 10
3.546853
 20
0.216371
 30
0.000000
  0
VERTEX
  8
LAYER-1
 10
3.516472
 20
0.195539
 30
0.000000
  0
SEQEND
  8
LAYER-1
  0
POLYLINE
  8
LAYER-1
 66
  1
 70
  1
 62
  0
 10
3.831142
 20
0.187293
 30
0.000000
  0
VERTEX
  8
LAYER-1
 10
3.831142
 20
0.187293
 30
0.000000
  0
VERTEX
  8
LAYER-1
 10
3.847635
 20
0.212467
 30
0.000000
  0
VERTEX
  8
LAYER-1
 10
3.832878
 20
0.220279
 30
0.000000
  0
SEQEND
  8
LAYER-1
  0
POLYLINE
  8
LAYER-1
 66
  1
 70
  0
 62
  0
 10
3.994336
 20
0.130869
 30
0.000000
  0
VERTEX
  8
LAYER-1
 10
3.994336
 20
0.130869
 30
0.000000
  0
VERTEX
  8
LAYER-1
 10
3.998677
 20
0.130869
 30
0.000000
  0
VERTEX
  8
LAYER-1
 10
4.002149
 20
0.135209
 30
0.000000
  0
VERTEX
  8
LAYER-1
 10
4.003018
 20
0.140417
 30
0.000000
  0
VERTEX
  8
LAYER-1
 10
4.001282
 20
0.144758
 30
0.000000
  0
VERTEX
  8
LAYER-1
 10
3.996941
 20
0.146494
 30
0.000000
  0
VERTEX
  8
LAYER-1
 10
3.992601
 20
0.146494
 30
0.000000
  0
VERTEX
  8
LAYER-1
 10
3.988260
 20
0.143021
 30
0.000000
  0
VERTEX
  8
LAYER-1
 10
3.988260
 20
0.138681
 30
0.000000
  0
VERTEX
  8
LAYER-1
 10
3.989129
 20
0.134340
 30
0.000000
  0
VERTEX
  8
LAYER-1
 10
3.993470
 20
0.131736
 30
0.000000
  0
SEQEND
  8
LAYER-1
  0
POLYLINE
  8
LAYER-1
 66
  1
 70
  1
 62
  0
 10
3.948330
 20
0.127398
 30
0.000000
  0
VERTEX
  8
LAYER-1
 10
3.948330
 20
0.127398
 30
0.000000
  0
VERTEX
  8
LAYER-1
 10
3.961351
 20
0.149968
 30
0.000000
  0
VERTEX
  8
LAYER-1
 10
3.930969
 20
0.129136
 30
0.000000
  0
SEQEND
  8
LAYER-1
  0
POLYLINE
  8
LAYER-1
 66
  1
 70
  1
 62
  0
 10
3.893743
 20
0.168799
 30
0.000000
  0
VERTEX
  8
LAYER-1
 10
3.893743
 20
0.168799
 30
0.000000
  0
VERTEX
  8
LAYER-1
 10
3.874379
 20
0.181486
 30
0.000000
  0
VERTEX
  8
LAYER-1
 10
3.868368
 20
0.170135
 30
0.000000
  0
SEQEND
  8
LAYER-1
  0
POLYLINE
  8
LAYER-1
 66
  1
 70
  0
 62
  0
 10
3.870637
 20
0.065454
 30
0.000000
  0
VERTEX
  8
LAYER-1
 10
3.870637
 20
0.065454
 30
0.000000
  0
VERTEX
  8
LAYER-1
 10
3.874978
 20
0.065454
 30
0.000000
  0
VERTEX
  8
LAYER-1
 10
3.878450
 20
0.069795
 30
0.000000
  0
VERTEX
  8
LAYER-1
 10
3.879319
 20
0.075003
 30
0.000000
  0
VERTEX
  8
LAYER-1
 10
3.877583
 20
0.079343
 30
0.000000
  0
VERTEX
  8
LAYER-1
 10
3.873242
 20
0.081079
 30
0.000000
  0
VERTEX
  8
LAYER-1
 10
3.868901
 20
0.081079
 30
0.000000
  0
VERTEX
  8
LAYER-1
 10
3.864560
 20
0.077608
 30
0.000000
  0
VERTEX
  8
LAYER-1
 10
3.864560
 20
0.073267
 30
0.000000
  0
VERTEX
  8
LAYER-1
 10
3.865429
 20
0.068926
 30
0.000000
  0
VERTEX
  8
LAYER-1
 10
3.869770
 20
0.066321
 30
0.000000
  0
SEQEND
  8
LAYER-1
  0
POLYLINE
  8
LAYER-1
 66
  1
 70
  0
 62
  0
 10
3.780794
 20
0.208249
 30
0.000000
  0
VERTEX
  8
LAYER-1
 10
3.780794
 20
0.208249
 30
0.000000
  0
VERTEX
  8
LAYER-1
 10
3.785135
 20
0.208249
 30
0.000000
  0
VERTEX
  8
LAYER-1
 10
3.788606
 20
0.212590
 30
0.000000
  0
VERTEX
  8
LAYER-1
 10
3.789473
 20
0.217797
 30
0.000000
  0
VERTEX
  8
LAYER-1
 10
3.787738
 20
0.222137
 30
0.000000
  0
VERTEX
  8
LAYER-1
 10
3.783397
 20
0.223874
 30
0.000000
  0
VERTEX
  8
LAYER-1
 10
3.779058
 20
0.223874
 30
0.000000
  0
VERTEX
  8
LAYER-1
 10
3.774717
 20
0.220402
 30
0.000000
  0
VERTEX
  8
LAYER-1
 10
3.774717
 20
0.216061
 30
0.000000
  0
VERTEX
  8
LAYER-1
 10
3.775584
 20
0.211721
 30
0.000000
  0
VERTEX
  8
LAYER-1
 10
3.779925
 20
0.209116
 30
0.000000
  0
SEQEND
  8
LAYER-1
  0
POLYLINE
  8
LAYER-1
 66
  1
 70
  0
 62
  0
 10
3.943122
 20
0.201182
 30
0.000000
  0
VERTEX
  8
LAYER-1
 10
3.943122
 20
0.201182
 30
0.000000
  0
VERTEX
  8
LAYER-1
 10
3.947463
 20
0.201182
 30
0.000000
  0
VERTEX
  8
LAYER-1
 10
3.950935
 20
0.205523
 30
0.000000
  0
VERTEX
  8
LAYER-1
 10
3.951801
 20
0.210731
 30
0.000000
  0
VERTEX
  8
LAYER-1
 10
3.950066
 20
0.215071
 30
0.000000
  0
VERTEX
  8
LAYER-1
 10
3.945725
 20
0.216807
 30
0.000000
  0
VERTEX
  8
LAYER-1
 10
3.941386
 20
0.216807
 30
0.000000
  0
VERTEX
  8
LAYER-1
 10
3.937045
 20
0.213336
 30
0.000000
  0
VERTEX
  8
LAYER-1
 10
3.937045
 20
0.208995
 30
0.000000
  0
VERTEX
  8
LAYER-1
 10
3.937912
 20
0.204654
 30
0.000000
  0
VERTEX
  8
LAYER-1
 10
3.942253
 20
0.202049
 30
0.000000
  0
SEQEND
  8
LAYER-1
  0
POLYLINE
  8
LAYER-1
 66
  1
 70
  1
 62
  0
 10
4.699197
 20
0.170369
 30
0.000000
  0
VERTEX
  8
LAYER-1
 10
4.699197
 20
0.170369
 30
0.000000
  0
VERTEX
  8
LAYER-1
 10
4.706142
 20
0.144327
 30
0.000000
  0
VERTEX
  8
LAYER-1
 10
4.731315
 20
0.158215
 30
0.000000
  0
SEQEND
  8
LAYER-1
  0
POLYLINE
  8
LAYER-1
 66
  1
 70
  1
 62
  0
 10
4.825932
 20
0.205958
 30
0.000000
  0
VERTEX
  8
LAYER-1
 10
4.825932
 20
0.205958
 30
0.000000
  0
VERTEX
  8
LAYER-1
 10
4.812912
 20
0.183389
 30
0.000000
  0
VERTEX
  8
LAYER-1
 10
4.843294
 20
0.204221
 30
0.000000
  0
SEQEND
  8
LAYER-1
  0
POLYLINE
  8
LAYER-1
 66
  1
 70
  1
 62
  0
 10
4.501282
 20
0.194674
 30
0.000000
  0
VERTEX
  8
LAYER-1
 10
4.501282
 20
0.194674
 30
0.000000
  0
VERTEX
  8
LAYER-1
 10
4.484789
 20
0.169501
 30
0.000000
  0
VERTEX
  8
LAYER-1
 10
4.499546
 20
0.161688
 30
0.000000
  0
SEQEND
  8
LAYER-1
  0
POLYLINE
  8
LAYER-1
 66
  1
 70
  0
 62
  0
 10
4.611524
 20
0.186863
 30
0.000000
  0
VERTEX
  8
LAYER-1
 10
4.611524
 20
0.186863
 30
0.000000
  0
VERTEX
  8
LAYER-1
 10
4.607184
 20
0.186863
 30
0.000000
  0
VERTEX
  8
LAYER-1
 10
4.603712
 20
0.182524
 30
0.000000
  0
VERTEX
  8
LAYER-1
 10
4.602843
 20
0.177316
 30
0.000000
  0
VERTEX
  8
LAYER-1
 10
4.604579
 20
0.172975
 30
0.000000
  0
VERTEX
  8
LAYER-1
 10
4.608919
 20
0.171239
 30
0.000000
  0
VERTEX
  8
LAYER-1
 10
4.613260
 20
0.171239
 30
0.000000
  0
VERTEX
  8
LAYER-1
 10
4.617600
 20
0.174711
 30
0.000000
  0
VERTEX
  8
LAYER-1
 10
4.617600
 20
0.179052
 30
0.000000
  0
VERTEX
  8
LAYER-1
 10
4.616732
 20
0.183393
 30
0.000000
  0
VERTEX
  8
LAYER-1
 10
4.612391
 20
0.185995
 30
0.000000
  0
SEQEND
  8
LAYER-1
  0
POLYLINE
  8
LAYER-1
 66
  1
 70
  1
 62
  0
 10
4.641038
 20
0.140855
 30
0.000000
  0
VERTEX
  8
LAYER-1
 10
4.641038
 20
0.140855
 30
0.000000
  0
VERTEX
  8
LAYER-1
 10
4.628017
 20
0.118285
 30
0.000000
  0
VERTEX
  8
LAYER-1
 10
4.658399
 20
0.139118
 30
0.000000
  0
SEQEND
  8
LAYER-1
  0
POLYLINE
  8
LAYER-1
 66
  1
 70
  1
 62
  0
 10
4.848336
 20
0.141386
 30
0.000000
  0
VERTEX
  8
LAYER-1
 10
4.848336
 20
0.141386
 30
0.000000
  0
VERTEX
  8
LAYER-1
 10
4.835649
 20
0.122021
 30
0.000000
  0
VERTEX
  8
LAYER-1
 10
4.847001
 20
0.116011
 30
0.000000
  0
SEQEND
  8
LAYER-1
  0
POLYLINE
  8
LAYER-1
 66
  1
 70
  0
 62
  0
 10
4.755619
 20
0.210298
 30
0.000000
  0
VERTEX
  8
LAYER-1
 10
4.755619
 20
0.210298
 30
0.000000
  0
VERTEX
  8
LAYER-1
 10
4.751279
 20
0.210298
 30
0.000000
  0
VERTEX
  8
LAYER-1
 10
4.747807
 20
0.205957
 30
0.000000
  0
VERTEX
  8
LAYER-1
 10
4.746939
 20
0.200750
 30
0.000000
  0
VERTEX
  8
LAYER-1
 10
4.748675
 20
0.196409
 30
0.000000
  0
VERTEX
  8
LAYER-1
 10
4.753015
 20
0.194673
 30
0.000000
  0
VERTEX
  8
LAYER-1
 10
4.757356
 20
0.194673
 30
0.000000
  0
VERTEX
  8
LAYER-1
 10
4.761696
 20
0.198145
 30
0.000000
  0
VERTEX
  8
LAYER-1
 10
4.761696
 20
0.202486
 30
0.000000
  0
VERTEX
  8
LAYER-1
 10
4.760827
 20
0.206826
 30
0.000000
  0
VERTEX
  8
LAYER-1
 10
4.756488
 20
0.209430
 30
0.000000
  0
SEQEND
  8
LAYER-1
  0
POLYLINE
  8
LAYER-1
 66
  1
 70
  0
 62
  0
 10
4.542948
 20
0.200749
 30
0.000000
  0
VERTEX
  8
LAYER-1
 10
4.542948
 20
0.200749
 30
0.000000
  0
VERTEX
  8
LAYER-1
 10
4.538609
 20
0.200749
 30
0.000000
  0
VERTEX
  8
LAYER-1
 10
4.535136
 20
0.196408
 30
0.000000
  0
VERTEX
  8
LAYER-1
 10
4.534268
 20
0.191200
 30
0.000000
  0
VERTEX
  8
LAYER-1
 10
4.536005
 20
0.186859
 30
0.000000
  0
VERTEX
  8
LAYER-1
 10
4.540345
 20
0.185124
 30
0.000000
  0
VERTEX
  8
LAYER-1
 10
4.544685
 20
0.185124
 30
0.000000
  0
VERTEX
  8
LAYER-1
 10
4.549025
 20
0.188595
 30
0.000000
  0
VERTEX
  8
LAYER-1
 10
4.549025
 20
0.192936
 30
0.000000
  0
VERTEX
  8
LAYER-1
 10
4.548157
 20
0.197277
 30
0.000000
  0
VERTEX
  8
LAYER-1
 10
4.543817
 20
0.199881
 30
0.000000
  0
SEQEND
  8
LAYER-1
  0
POLYLINE
  8
LAYER-1
 66
  1
 70
  0
 62
  0
 10
4.790344
 20
0.172969
 30
0.000000
  0
VERTEX
  8
LAYER-1
 10
4.790344
 20
0.172969
 30
0.000000
  0
VERTEX
  8
LAYER-1
 10
4.786004
 20
0.172969
 30
0.000000
  0
VERTEX
  8
LAYER-1
 10
4.782532
 20
0.168629
 30
0.000000
  0
VERTEX
  8
LAYER-1
 10
4.781665
 20
0.163421
 30
0.000000
  0
VERTEX
  8
LAYER-1
 10
4.783401
 20
0.159081
 30
0.000000
  0
VERTEX
  8
LAYER-1
 10
4.787741
 20
0.157344
 30
0.000000
  0
VERTEX
  8
LAYER-1
 10
4.792081
 20
0.157344
 30
0.000000
  0
VERTEX
  8
LAYER-1
 10
4.796421
 20
0.160817
 30
0.000000
  0
VERTEX
  8
LAYER-1
 10
4.796421
 20
0.165157
 30
0.000000
  0
VERTEX
  8
LAYER-1
 10
4.795554
 20
0.169498
 30
0.000000
  0
VERTEX
  8
LAYER-1
 10
4.791213
 20
0.172101
 30
0.000000
  0
SEQEND
  8
LAYER-1
  0
POLYLINE
  8
LAYER-1
 66
  1
 70
  1
 62
  0
 10
4.404928
 20
0.119586
 30
0.000000
  0
VERTEX
  8
LAYER-1
 10
4.404928
 20
0.119586
 30
0.000000
  0
VERTEX
  8
LAYER-1
 10
4.397983
 20
0.145626
 30
0.000000
  0
VERTEX
  8
LAYER-1
 10
4.372810
 20
0.131738
 30
0.000000
  0
SEQEND
  8
LAYER-1
  0
POLYLINE
  8
LAYER-1
 66
  1
 70
  1
 62
  0
 10
4.253017
 20
0.160382
 30
0.000000
  0
VERTEX
  8
LAYER-1
 10
4.253017
 20
0.160382
 30
0.000000
  0
VERTEX
  8
LAYER-1
 10
4.266039
 20
0.182952
 30
0.000000
  0
VERTEX
  8
LAYER-1
 10
4.235657
 20
0.162120
 30
0.000000
  0
SEQEND
  8
LAYER-1
  0
POLYLINE
  8
LAYER-1
 66
  1
 70
  1
 62
  0
 10
4.336352
 20
0.120456
 30
0.000000
  0
VERTEX
  8
LAYER-1
 10
4.336352
 20
0.120456
 30
0.000000
  0
VERTEX
  8
LAYER-1
 10
4.352845
 20
0.145630
 30
0.000000
  0
VERTEX
  8
LAYER-1
 10
4.338088
 20
0.153442
 30
0.000000
  0
SEQEND
  8
LAYER-1
  0
POLYLINE
  8
LAYER-1
 66
  1
 70
  0
 62
  0
 10
4.510832
 20
0.122193
 30
0.000000
  0
VERTEX
  8
LAYER-1
 10
4.510832
 20
0.122193
 30
0.000000
  0
VERTEX
  8
LAYER-1
 10
4.515172
 20
0.122193
 30
0.000000
  0
VERTEX
  8
LAYER-1
 10
4.518644
 20
0.126534
 30
0.000000
  0
VERTEX
  8
LAYER-1
 10
4.519512
 20
0.131742
 30
0.000000
  0
VERTEX
  8
LAYER-1
 10
4.517776
 20
0.136082
 30
0.000000
  0
VERTEX
  8
LAYER-1
 10
4.513435
 20
0.137818
 30
0.000000
  0
VERTEX
  8
LAYER-1
 10
4.509096
 20
0.137818
 30
0.000000
  0
VERTEX
  8
LAYER-1
 10
4.504755
 20
0.134346
 30
0.000000
  0
VERTEX
  8
LAYER-1
 10
4.504755
 20
0.130006
 30
0.000000
  0
VERTEX
  8
LAYER-1
 10
4.505623
 20
0.125665
 30
0.000000
  0
VERTEX
  8
LAYER-1
 10
4.509964
 20
0.123060
 30
0.000000
  0
SEQEND
  8
LAYER-1
  0
POLYLINE
  8
LAYER-1
 66
  1
 70
  1
 62
  0
 10
4.462219
 20
0.136948
 30
0.000000
  0
VERTEX
  8
LAYER-1
 10
4.462219
 20
0.136948
 30
0.000000
  0
VERTEX
  8
LAYER-1
 10
4.475240
 20
0.159519
 30
0.000000
  0
VERTEX
  8
LAYER-1
 10
4.444858
 20
0.138686
 30
0.000000
  0
SEQEND
  8
LAYER-1
  0
POLYLINE
  8
LAYER-1
 66
  1
 70
  1
 62
  0
 10
4.351275
 20
0.172874
 30
0.000000
  0
VERTEX
  8
LAYER-1
 10
4.351275
 20
0.172874
 30
0.000000
  0
VERTEX
  8
LAYER-1
 10
4.363962
 20
0.192236
 30
0.000000
  0
VERTEX
  8
LAYER-1
 10
4.352611
 20
0.198247
 30
0.000000
  0
SEQEND
  8
LAYER-1
  0
POLYLINE
  8
LAYER-1
 66
  1
 70
  0
 62
  0
 10
4.306923
 20
0.204343
 30
0.000000
  0
VERTEX
  8
LAYER-1
 10
4.306923
 20
0.204343
 30
0.000000
  0
VERTEX
  8
LAYER-1
 10
4.311263
 20
0.204343
 30
0.000000
  0
VERTEX
  8
LAYER-1
 10
4.314736
 20
0.208684
 30
0.000000
  0
VERTEX
  8
LAYER-1
 10
4.315603
 20
0.213892
 30
0.000000
  0
VERTEX
  8
LAYER-1
 10
4.313868
 20
0.218233
 30
0.000000
  0
VERTEX
  8
LAYER-1
 10
4.309527
 20
0.219968
 30
0.000000
  0
VERTEX
  8
LAYER-1
 10
4.305186
 20
0.219968
 30
0.000000
  0
VERTEX
  8
LAYER-1
 10
4.300846
 20
0.216497
 30
0.000000
  0
VERTEX
  8
LAYER-1
 10
4.300846
 20
0.212156
 30
0.000000
  0
VERTEX
  8
LAYER-1
 10
4.301714
 20
0.207815
 30
0.000000
  0
VERTEX
  8
LAYER-1
 10
4.306055
 20
0.205210
 30
0.000000
  0
SEQEND
  8
LAYER-1
  0
POLYLINE
  8
LAYER-1
 66
  1
 70
  0
 62
  0
 10
4.284267
 20
0.126533
 30
0.000000
  0
VERTEX
  8
LAYER-1
 10
4.284267
 20
0.126533
 30
0.000000
  0
VERTEX
  8
LAYER-1
 10
4.288608
 20
0.126533
 30
0.000000
  0
VERTEX
  8
LAYER-1
 10
4.292080
 20
0.130874
 30
0.000000
  0
VERTEX
  8
LAYER-1
 10
4.292948
 20
0.136081
 30
0.000000
  0
VERTEX
  8
LAYER-1
 10
4.291212
 20
0.140422
 30
0.000000
  0
VERTEX
  8
LAYER-1
 10
4.286872
 20
0.142158
 30
0.000000
  0
VERTEX
  8
LAYER-1
 10
4.282532
 20
0.142158
 30
0.000000
  0
VERTEX
  8
LAYER-1
 10
4.278191
 20
0.138686
 30
0.000000
  0
VERTEX
  8
LAYER-1
 10
4.278191
 20
0.134345
 30
0.000000
  0
VERTEX
  8
LAYER-1
 10
4.279059
 20
0.130005
 30
0.000000
  0
VERTEX
  8
LAYER-1
 10
4.283400
 20
0.127400
 30
0.000000
  0
SEQEND
  8
LAYER-1
  0
POLYLINE
  8
LAYER-1
 66
  1
 70
  0
 62
  0
 10
4.448331
 20
0.203788
 30
0.000000
  0
VERTEX
  8
LAYER-1
 10
4.448331
 20
0.203788
 30
0.000000
  0
VERTEX
  8
LAYER-1
 10
4.452671
 20
0.203788
 30
0.000000
  0
VERTEX
  8
LAYER-1
 10
4.456143
 20
0.208129
 30
0.000000
  0
VERTEX
  8
LAYER-1
 10
4.457011
 20
0.213337
 30
0.000000
  0
VERTEX
  8
LAYER-1
 10
4.455275
 20
0.217677
 30
0.000000
  0
VERTEX
  8
LAYER-1
 10
4.450935
 20
0.219413
 30
0.000000
  0
VERTEX
  8
LAYER-1
 10
4.446595
 20
0.219413
 30
0.000000
  0
VERTEX
  8
LAYER-1
 10
4.442254
 20
0.215942
 30
0.000000
  0
VERTEX
  8
LAYER-1
 10
4.442254
 20
0.211600
 30
0.000000
  0
VERTEX
  8
LAYER-1
 10
4.443122
 20
0.207260
 30
0.000000
  0
VERTEX
  8
LAYER-1
 10
4.447463
 20
0.204655
 30
0.000000
  0
SEQEND
  8
LAYER-1
  0
POLYLINE
  8
LAYER-1
 66
  1
 70
  1
 62
  0
 10
4.900149
 20
0.160384
 30
0.000000
  0
VERTEX
  8
LAYER-1
 10
4.900149
 20
0.160384
 30
0.000000
  0
VERTEX
  8
LAYER-1
 10
4.926190
 20
0.167330
 30
0.000000
  0
VERTEX
  8
LAYER-1
 10
4.912302
 20
0.192501
 30
0.000000
  0
SEQEND
  8
LAYER-1
  0
POLYLINE
  8
LAYER-1
 66
  1
 70
  1
 62
  0
 10
4.582444
 20
0.213337
 30
0.000000
  0
VERTEX
  8
LAYER-1
 10
4.582444
 20
0.213337
 30
0.000000
  0
VERTEX
  8
LAYER-1
 10
4.605013
 20
0.200315
 30
0.000000
  0
VERTEX
  8
LAYER-1
 10
4.584181
 20
0.230698
 30
0.000000
  0
SEQEND
  8
LAYER-1
  0
POLYLINE
  8
LAYER-1
 66
  1
 70
  1
 62
  0
 10
5.519073
 20
0.118714
 30
0.000000
  0
VERTEX
  8
LAYER-1
 10
5.519073
 20
0.118714
 30
0.000000
  0
VERTEX
  8
LAYER-1
 10
5.544247
 20
0.102221
 30
0.000000
  0
VERTEX
  8
LAYER-1
 10
5.552060
 20
0.116979
 30
0.000000
  0
SEQEND
  8
LAYER-1
  0
POLYLINE
  8
LAYER-1
 66
  1
 70
  0
 62
  0
 10
5.340254
 20
0.127396
 30
0.000000
  0
VERTEX
  8
LAYER-1
 10
5.340254
 20
0.127396
 30
0.000000
  0
VERTEX
  8
LAYER-1
 10
5.340254
 20
0.123057
 30
0.000000
  0
VERTEX
  8
LAYER-1
 10
5.344594
 20
0.119584
 30
0.000000
  0
VERTEX
  8
LAYER-1
 10
5.349802
 20
0.118718
 30
0.000000
  0
VERTEX
  8
LAYER-1
 10
5.354143
 20
0.120453
 30
0.000000
  0
VERTEX
  8
LAYER-1
 10
5.355879
 20
0.124793
 30
0.000000
  0
VERTEX
  8
LAYER-1
 10
5.355879
 20
0.129133
 30
0.000000
  0
VERTEX
  8
LAYER-1
 10
5.352407
 20
0.133474
 30
0.000000
  0
VERTEX
  8
LAYER-1
 10
5.348066
 20
0.133474
 30
0.000000
  0
VERTEX
  8
LAYER-1
 10
5.343725
 20
0.132606
 30
0.000000
  0
VERTEX
  8
LAYER-1
 10
5.341122
 20
0.128265
 30
0.000000
  0
SEQEND
  8
LAYER-1
  0
POLYLINE
  8
LAYER-1
 66
  1
 70
  1
 62
  0
 10
4.970462
 20
0.147363
 30
0.000000
  0
VERTEX
  8
LAYER-1
 10
4.970462
 20
0.147363
 30
0.000000
  0
VERTEX
  8
LAYER-1
 10
4.993031
 20
0.134343
 30
0.000000
  0
VERTEX
  8
LAYER-1
 10
4.972199
 20
0.164724
 30
0.000000
  0
SEQEND
  8
LAYER-1
  0
POLYLINE
  8
LAYER-1
 66
  1
 70
  1
 62
  0
 10
4.933470
 20
0.218377
 30
0.000000
  0
VERTEX
  8
LAYER-1
 10
4.933470
 20
0.218377
 30
0.000000
  0
VERTEX
  8
LAYER-1
 10
4.952835
 20
0.205690
 30
0.000000
  0
VERTEX
  8
LAYER-1
 10
4.958845
 20
0.217042
 30
0.000000
  0
SEQEND
  8
LAYER-1
  0
POLYLINE
  8
LAYER-1
 66
  1
 70
  0
 62
  0
 10
4.578105
 20
0.153442
 30
0.000000
  0
VERTEX
  8
LAYER-1
 10
4.578105
 20
0.153442
 30
0.000000
  0
VERTEX
  8
LAYER-1
 10
4.578105
 20
0.149101
 30
0.000000
  0
VERTEX
  8
LAYER-1
 10
4.582445
 20
0.145629
 30
0.000000
  0
VERTEX
  8
LAYER-1
 10
4.587652
 20
0.144761
 30
0.000000
  0
VERTEX
  8
LAYER-1
 10
4.591993
 20
0.146496
 30
0.000000
  0
VERTEX
  8
LAYER-1
 10
4.593729
 20
0.150837
 30
0.000000
  0
VERTEX
  8
LAYER-1
 10
4.593729
 20
0.155177
 30
0.000000
  0
VERTEX
  8
LAYER-1
 10
4.590257
 20
0.159518
 30
0.000000
  0
VERTEX
  8
LAYER-1
 10
4.585916
 20
0.159518
 30
0.000000
  0
VERTEX
  8
LAYER-1
 10
4.581576
 20
0.158650
 30
0.000000
  0
VERTEX
  8
LAYER-1
 10
4.578972
 20
0.154309
 30
0.000000
  0
SEQEND
  8
LAYER-1
  0
POLYLINE
  8
LAYER-1
 66
  1
 70
  0
 62
  0
 10
4.984350
 20
0.115245
 30
0.000000
  0
VERTEX
  8
LAYER-1
 10
4.984350
 20
0.115245
 30
0.000000
  0
VERTEX
  8
LAYER-1
 10
4.984350
 20
0.110905
 30
0.000000
  0
VERTEX
  8
LAYER-1
 10
4.988691
 20
0.107433
 30
0.000000
  0
VERTEX
  8
LAYER-1
 10
4.993899
 20
0.106564
 30
0.000000
  0
VERTEX
  8
LAYER-1
 10
4.998239
 20
0.108301
 30
0.000000
  0
VERTEX
  8
LAYER-1
 10
4.999975
 20
0.112640
 30
0.000000
  0
VERTEX
  8
LAYER-1
 10
4.999975
 20
0.116982
 30
0.000000
  0
VERTEX
  8
LAYER-1
 10
4.996503
 20
0.121322
 30
0.000000
  0
VERTEX
  8
LAYER-1
 10
4.992162
 20
0.121322
 30
0.000000
  0
VERTEX
  8
LAYER-1
 10
4.987822
 20
0.120453
 30
0.000000
  0
VERTEX
  8
LAYER-1
 10
4.985218
 20
0.116113
 30
0.000000
  0
SEQEND
  8
LAYER-1
  0
POLYLINE
  8
LAYER-1
 66
  1
 70
  0
 62
  0
 10
5.052927
 20
0.150837
 30
0.000000
  0
VERTEX
  8
LAYER-1
 10
5.052927
 20
0.150837
 30
0.000000
  0
VERTEX
  8
LAYER-1
 10
5.052927
 20
0.146495
 30
0.000000
  0
VERTEX
  8
LAYER-1
 10
5.057268
 20
0.143024
 30
0.000000
  0
VERTEX
  8
LAYER-1
 10
5.062475
 20
0.142155
 30
0.000000
  0
VERTEX
  8
LAYER-1
 10
5.066816
 20
0.143892
 30
0.000000
  0
VERTEX
  8
LAYER-1
 10
5.068552
 20
0.148232
 30
0.000000
  0
VERTEX
  8
LAYER-1
 10
5.068552
 20
0.152572
 30
0.000000
  0
VERTEX
  8
LAYER-1
 10
5.065080
 20
0.156913
 30
0.000000
  0
VERTEX
  8
LAYER-1
 10
5.060739
 20
0.156913
 30
0.000000
  0
VERTEX
  8
LAYER-1
 10
5.056399
 20
0.156044
 30
0.000000
  0
VERTEX
  8
LAYER-1
 10
5.053794
 20
0.151705
 30
0.000000
  0
SEQEND
  8
LAYER-1
  0
POLYLINE
  8
LAYER-1
 66
  1
 70
  1
 62
  0
 10
5.092338
 20
0.172104
 30
0.000000
  0
VERTEX
  8
LAYER-1
 10
5.092338
 20
0.172104
 30
0.000000
  0
VERTEX
  8
LAYER-1
 10
5.099282
 20
0.146063
 30
0.000000
  0
VERTEX
  8
LAYER-1
 10
5.124455
 20
0.159950
 30
0.000000
  0
SEQEND
  8
LAYER-1
  0
POLYLINE
  8
LAYER-1
 66
  1
 70
  1
 62
  0
 10
5.253883
 20
0.200750
 30
0.000000
  0
VERTEX
  8
LAYER-1
 10
5.253883
 20
0.200750
 30
0.000000
  0
VERTEX
  8
LAYER-1
 10
5.240862
 20
0.178180
 30
0.000000
  0
VERTEX
  8
LAYER-1
 10
5.271244
 20
0.199012
 30
0.000000
  0
SEQEND
  8
LAYER-1
  0
POLYLINE
  8
LAYER-1
 66
  1
 70
  1
 62
  0
 10
5.646243
 20
0.171232
 30
0.000000
  0
VERTEX
  8
LAYER-1
 10
5.646243
 20
0.171232
 30
0.000000
  0
VERTEX
  8
LAYER-1
 10
5.629750
 20
0.146058
 30
0.000000
  0
VERTEX
  8
LAYER-1
 10
5.644507
 20
0.138245
 30
0.000000
  0
SEQEND
  8
LAYER-1
  0
POLYLINE
  8
LAYER-1
 66
  1
 70
  0
 62
  0
 10
5.042077
 20
0.203352
 30
0.000000
  0
VERTEX
  8
LAYER-1
 10
5.042077
 20
0.203352
 30
0.000000
  0
VERTEX
  8
LAYER-1
 10
5.037736
 20
0.203352
 30
0.000000
  0
VERTEX
  8
LAYER-1
 10
5.034264
 20
0.199012
 30
0.000000
  0
VERTEX
  8
LAYER-1
 10
5.033396
 20
0.193804
 30
0.000000
  0
VERTEX
  8
LAYER-1
 10
5.035132
 20
0.189463
 30
0.000000
  0
VERTEX
  8
LAYER-1
 10
5.039473
 20
0.187727
 30
0.000000
  0
VERTEX
  8
LAYER-1
 10
5.043813
 20
0.187727
 30
0.000000
  0
VERTEX
  8
LAYER-1
 10
5.048153
 20
0.191199
 30
0.000000
  0
VERTEX
  8
LAYER-1
 10
5.048153
 20
0.195540
 30
0.000000
  0
VERTEX
  8
LAYER-1
 10
5.047285
 20
0.199881
 30
0.000000
  0
VERTEX
  8
LAYER-1
 10
5.042945
 20
0.202486
 30
0.000000
  0
SEQEND
  8
LAYER-1
  0
POLYLINE
  8
LAYER-1
 66
  1
 70
  1
 62
  0
 10
5.105446
 20
0.126964
 30
0.000000
  0
VERTEX
  8
LAYER-1
 10
5.105446
 20
0.126964
 30
0.000000
  0
VERTEX
  8
LAYER-1
 10
5.092425
 20
0.104394
 30
0.000000
  0
VERTEX
  8
LAYER-1
 10
5.122807
 20
0.125226
 30
0.000000
  0
SEQEND
  8
LAYER-1
  0
POLYLINE
  8
LAYER-1
 66
  1
 70
  1
 62
  0
 10
5.174189
 20
0.104726
 30
0.000000
  0
VERTEX
  8
LAYER-1
 10
5.174189
 20
0.104726
 30
0.000000
  0
VERTEX
  8
LAYER-1
 10
5.186877
 20
0.124090
 30
0.000000
  0
VERTEX
  8
LAYER-1
 10
5.175525
 20
0.130102
 30
0.000000
  0
SEQEND
  8
LAYER-1
  0
POLYLINE
  8
LAYER-1
 66
  1
 70
  0
 62
  0
 10
5.193987
 20
0.205088
 30
0.000000
  0
VERTEX
  8
LAYER-1
 10
5.193987
 20
0.205088
 30
0.000000
  0
VERTEX
  8
LAYER-1
 10
5.189647
 20
0.205088
 30
0.000000
  0
VERTEX
  8
LAYER-1
 10
5.186174
 20
0.200748
 30
0.000000
  0
VERTEX
  8
LAYER-1
 10
5.185306
 20
0.195540
 30
0.000000
  0
VERTEX
  8
LAYER-1
 10
5.187042
 20
0.191199
 30
0.000000
  0
VERTEX
  8
LAYER-1
 10
5.191383
 20
0.189463
 30
0.000000
  0
VERTEX
  8
LAYER-1
 10
5.195723
 20
0.189463
 30
0.000000
  0
VERTEX
  8
LAYER-1
 10
5.200063
 20
0.192936
 30
0.000000
  0
VERTEX
  8
LAYER-1
 10
5.200063
 20
0.197276
 30
0.000000
  0
VERTEX
  8
LAYER-1
 10
5.199195
 20
0.201617
 30
0.000000
  0
VERTEX
  8
LAYER-1
 10
5.194854
 20
0.204221
 30
0.000000
  0
SEQEND
  8
LAYER-1
  0
POLYLINE
  8
LAYER-1
 66
  1
 70
  0
 62
  0
 10
5.698326
 20
0.165155
 30
0.000000
  0
VERTEX
  8
LAYER-1
 10
5.698326
 20
0.165155
 30
0.000000
  0
VERTEX
  8
LAYER-1
 10
5.693985
 20
0.165155
 30
0.000000
  0
VERTEX
  8
LAYER-1
 10
5.690514
 20
0.160814
 30
0.000000
  0
VERTEX
  8
LAYER-1
 10
5.689646
 20
0.155607
 30
0.000000
  0
VERTEX
  8
LAYER-1
 10
5.691382
 20
0.151266
 30
0.000000
  0
VERTEX
  8
LAYER-1
 10
5.695722
 20
0.149530
 30
0.000000
  0
VERTEX
  8
LAYER-1
 10
5.700062
 20
0.149530
 30
0.000000
  0
VERTEX
  8
LAYER-1
 10
5.704403
 20
0.153002
 30
0.000000
  0
VERTEX
  8
LAYER-1
 10
5.704403
 20
0.157343
 30
0.000000
  0
VERTEX
  8
LAYER-1
 10
5.703535
 20
0.161683
 30
0.000000
  0
VERTEX
  8
LAYER-1
 10
5.699194
 20
0.164288
 30
0.000000
  0
SEQEND
  8
LAYER-1
  0
POLYLINE
  8
LAYER-1
 66
  1
 70
  0
 62
  0
 10
5.607182
 20
0.133037
 30
0.000000
  0
VERTEX
  8
LAYER-1
 10
5.607182
 20
0.133037
 30
0.000000
  0
VERTEX
  8
LAYER-1
 10
5.602841
 20
0.133037
 30
0.000000
  0
VERTEX
  8
LAYER-1
 10
5.599369
 20
0.128696
 30
0.000000
  0
VERTEX
  8
LAYER-1
 10
5.598501
 20
0.123489
 30
0.000000
  0
VERTEX
  8
LAYER-1
 10
5.600237
 20
0.119148
 30
0.000000
  0
VERTEX
  8
LAYER-1
 10
5.604578
 20
0.117412
 30
0.000000
  0
VERTEX
  8
LAYER-1
 10
5.608918
 20
0.117412
 30
0.000000
  0
VERTEX
  8
LAYER-1
 10
5.613258
 20
0.120884
 30
0.000000
  0
VERTEX
  8
LAYER-1
 10
5.613258
 20
0.125225
 30
0.000000
  0
VERTEX
  8
LAYER-1
 10
5.612390
 20
0.129565
 30
0.000000
  0
VERTEX
  8
LAYER-1
 10
5.608050
 20
0.132170
 30
0.000000
  0
SEQEND
  8
LAYER-1
  0
POLYLINE
  8
LAYER-1
 66
  1
 70
  1
 62
  0
 10
5.292077
 20
0.187295
 30
0.000000
  0
VERTEX
  8
LAYER-1
 10
5.292077
 20
0.187295
 30
0.000000
  0
VERTEX
  8
LAYER-1
 10
5.318118
 20
0.194239
 30
0.000000
  0
VERTEX
  8
LAYER-1
 10
5.304231
 20
0.219413
 30
0.000000
  0
SEQEND
  8
LAYER-1
  0
POLYLINE
  8
LAYER-1
 66
  1
 70
  0
 62
  0
 10
5.260827
 20
0.137817
 30
0.000000
  0
VERTEX
  8
LAYER-1
 10
5.260827
 20
0.137817
 30
0.000000
  0
VERTEX
  8
LAYER-1
 10
5.260827
 20
0.133476
 30
0.000000
  0
VERTEX
  8
LAYER-1
 10
5.265168
 20
0.130004
 30
0.000000
  0
VERTEX
  8
LAYER-1
 10
5.270376
 20
0.129137
 30
0.000000
  0
VERTEX
  8
LAYER-1
 10
5.274716
 20
0.130873
 30
0.000000
  0
VERTEX
  8
LAYER-1
 10
5.276452
 20
0.135212
 30
0.000000
  0
VERTEX
  8
LAYER-1
 10
5.276452
 20
0.139553
 30
0.000000
  0
VERTEX
  8
LAYER-1
 10
5.272981
 20
0.143893
 30
0.000000
  0
VERTEX
  8
LAYER-1
 10
5.268640
 20
0.143893
 30
0.000000
  0
VERTEX
  8
LAYER-1
 10
5.264299
 20
0.143025
 30
0.000000
  0
VERTEX
  8
LAYER-1
 10
5.261694
 20
0.138685
 30
0.000000
  0
SEQEND
  8
LAYER-1
  0
POLYLINE
  8
LAYER-1
 66
  1
 70
  1
 62
  0
 10
5.355879
 20
0.151271
 30
0.000000
  0
VERTEX
  8
LAYER-1
 10
5.355879
 20
0.151271
 30
0.000000
  0
VERTEX
  8
LAYER-1
 10
5.368900
 20
0.173842
 30
0.000000
  0
VERTEX
  8
LAYER-1
 10
5.338519
 20
0.153008
 30
0.000000
  0
SEQEND
  8
LAYER-1
  0
POLYLINE
  8
LAYER-1
 66
  1
 70
  0
 62
  0
 10
5.411001
 20
0.185559
 30
0.000000
  0
VERTEX
  8
LAYER-1
 10
5.411001
 20
0.185559
 30
0.000000
  0
VERTEX
  8
LAYER-1
 10
5.411001
 20
0.181219
 30
0.000000
  0
VERTEX
  8
LAYER-1
 10
5.415341
 20
0.177748
 30
0.000000
  0
VERTEX
  8
LAYER-1
 10
5.420549
 20
0.176879
 30
0.000000
  0
VERTEX
  8
LAYER-1
 10
5.424890
 20
0.178615
 30
0.000000
  0
VERTEX
  8
LAYER-1
 10
5.426626
 20
0.182955
 30
0.000000
  0
VERTEX
  8
LAYER-1
 10
5.426626
 20
0.187295
 30
0.000000
  0
VERTEX
  8
LAYER-1
 10
5.423154
 20
0.191636
 30
0.000000
  0
VERTEX
  8
LAYER-1
 10
5.418813
 20
0.191636
 30
0.000000
  0
VERTEX
  8
LAYER-1
 10
5.414472
 20
0.190767
 30
0.000000
  0
VERTEX
  8
LAYER-1
 10
5.411868
 20
0.186427
 30
0.000000
  0
SEQEND
  8
LAYER-1
  0
POLYLINE
  8
LAYER-1
 66
  1
 70
  1
 62
  0
 10
6.156924
 20
0.201964
 30
0.000000
  0
VERTEX
  8
LAYER-1
 10
6.156924
 20
0.201964
 30
0.000000
  0
VERTEX
  8
LAYER-1
 10
6.149979
 20
0.228005
 30
0.000000
  0
VERTEX
  8
LAYER-1
 10
6.124805
 20
0.214116
 30
0.000000
  0
SEQEND
  8
LAYER-1
  0
POLYLINE
  8
LAYER-1
 66
  1
 70
  0
 62
  0
 10
6.197463
 20
0.075749
 30
0.000000
  0
VERTEX
  8
LAYER-1
 10
6.197463
 20
0.075749
 30
0.000000
  0
VERTEX
  8
LAYER-1
 10
6.201803
 20
0.075749
 30
0.000000
  0
VERTEX
  8
LAYER-1
 10
6.205275
 20
0.080089
 30
0.000000
  0
VERTEX
  8
LAYER-1
 10
6.206142
 20
0.085297
 30
0.000000
  0
VERTEX
  8
LAYER-1
 10
6.204406
 20
0.089638
 30
0.000000
  0
VERTEX
  8
LAYER-1
 10
6.200066
 20
0.091374
 30
0.000000
  0
VERTEX
  8
LAYER-1
 10
6.195726
 20
0.091374
 30
0.000000
  0
VERTEX
  8
LAYER-1
 10
6.191386
 20
0.087902
 30
0.000000
  0
VERTEX
  8
LAYER-1
 10
6.191386
 20
0.083561
 30
0.000000
  0
VERTEX
  8
LAYER-1
 10
6.192254
 20
0.079220
 30
0.000000
  0
VERTEX
  8
LAYER-1
 10
6.196594
 20
0.076617
 30
0.000000
  0
SEQEND
  8
LAYER-1
  0
POLYLINE
  8
LAYER-1
 66
  1
 70
  1
 62
  0
 10
5.493899
 20
0.108736
 30
0.000000
  0
VERTEX
  8
LAYER-1
 10
5.493899
 20
0.108736
 30
0.000000
  0
VERTEX
  8
LAYER-1
 10
5.506919
 20
0.131305
 30
0.000000
  0
VERTEX
  8
LAYER-1
 10
5.476538
 20
0.110473
 30
0.000000
  0
SEQEND
  8
LAYER-1
  0
POLYLINE
  8
LAYER-1
 66
  1
 70
  0
 62
  0
 10
5.537651
 20
0.187069
 30
0.000000
  0
VERTEX
  8
LAYER-1
 10
5.537651
 20
0.187069
 30
0.000000
  0
VERTEX
  8
LAYER-1
 10
5.541992
 20
0.187069
 30
0.000000
  0
VERTEX
  8
LAYER-1
 10
5.545464
 20
0.191409
 30
0.000000
  0
VERTEX
  8
LAYER-1
 10
5.546333
 20
0.196616
 30
0.000000
  0
VERTEX
  8
LAYER-1
 10
5.544596
 20
0.200957
 30
0.000000
  0
VERTEX
  8
LAYER-1
 10
5.540257
 20
0.202694
 30
0.000000
  0
VERTEX
  8
LAYER-1
 10
5.535916
 20
0.202694
 30
0.000000
  0
VERTEX
  8
LAYER-1
 10
5.531575
 20
0.199221
 30
0.000000
  0
VERTEX
  8
LAYER-1
 10
5.531575
 20
0.194881
 30
0.000000
  0
VERTEX
  8
LAYER-1
 10
5.532444
 20
0.190540
 30
0.000000
  0
VERTEX
  8
LAYER-1
 10
5.536783
 20
0.187936
 30
0.000000
  0
SEQEND
  8
LAYER-1
  0
POLYLINE
  8
LAYER-1
 66
  1
 70
  1
 62
  0
 10
6.077237
 20
0.117851
 30
0.000000
  0
VERTEX
  8
LAYER-1
 10
6.077237
 20
0.117851
 30
0.000000
  0
VERTEX
  8
LAYER-1
 10
6.051196
 20
0.110906
 30
0.000000
  0
VERTEX
  8
LAYER-1
 10
6.065084
 20
0.085732
 30
0.000000
  0
SEQEND
  8
LAYER-1
  0
POLYLINE
  8
LAYER-1
 66
  1
 70
  0
 62
  0
 10
5.442251
 20
0.132609
 30
0.000000
  0
VERTEX
  8
LAYER-1
 10
5.442251
 20
0.132609
 30
0.000000
  0
VERTEX
  8
LAYER-1
 10
5.442251
 20
0.136948
 30
0.000000
  0
VERTEX
  8
LAYER-1
 10
5.437910
 20
0.140422
 30
0.000000
  0
VERTEX
  8
LAYER-1
 10
5.432702
 20
0.141289
 30
0.000000
  0
VERTEX
  8
LAYER-1
 10
5.428362
 20
0.139553
 30
0.000000
  0
VERTEX
  8
LAYER-1
 10
5.426626
 20
0.135212
 30
0.000000
  0
VERTEX
  8
LAYER-1
 10
5.426626
 20
0.130871
 30
0.000000
  0
VERTEX
  8
LAYER-1
 10
5.430097
 20
0.126533
 30
0.000000
  0
VERTEX
  8
LAYER-1
 10
5.434438
 20
0.126533
 30
0.000000
  0
VERTEX
  8
LAYER-1
 10
5.438779
 20
0.127400
 30
0.000000
  0
VERTEX
  8
LAYER-1
 10
5.441383
 20
0.131740
 30
0.000000
  0
SEQEND
  8
LAYER-1
  0
POLYLINE
  8
LAYER-1
 66
  1
 70
  1
 62
  0
 10
6.026022
 20
0.107435
 30
0.000000
  0
VERTEX
  8
LAYER-1
 10
6.026022
 20
0.107435
 30
0.000000
  0
VERTEX
  8
LAYER-1
 10
5.998244
 20
0.123927
 30
0.000000
  0
VERTEX
  8
LAYER-1
 10
6.019076
 20
0.093546
 30
0.000000
  0
SEQEND
  8
LAYER-1
  0
POLYLINE
  8
LAYER-1
 66
  1
 70
  0
 62
  0
 10
5.736521
 20
0.189027
 30
0.000000
  0
VERTEX
  8
LAYER-1
 10
5.736521
 20
0.189027
 30
0.000000
  0
VERTEX
  8
LAYER-1
 10
5.736521
 20
0.193368
 30
0.000000
  0
VERTEX
  8
LAYER-1
 10
5.732180
 20
0.196839
 30
0.000000
  0
VERTEX
  8
LAYER-1
 10
5.726972
 20
0.197708
 30
0.000000
  0
VERTEX
  8
LAYER-1
 10
5.722632
 20
0.195970
 30
0.000000
  0
VERTEX
  8
LAYER-1
 10
5.720896
 20
0.191632
 30
0.000000
  0
VERTEX
  8
LAYER-1
 10
5.720896
 20
0.187291
 30
0.000000
  0
VERTEX
  8
LAYER-1
 10
5.724368
 20
0.182951
 30
0.000000
  0
VERTEX
  8
LAYER-1
 10
5.728708
 20
0.182951
 30
0.000000
  0
VERTEX
  8
LAYER-1
 10
5.733049
 20
0.183819
 30
0.000000
  0
VERTEX
  8
LAYER-1
 10
5.735653
 20
0.188158
 30
0.000000
  0
SEQEND
  8
LAYER-1
  0
POLYLINE
  8
LAYER-1
 66
  1
 70
  1
 62
  0
 10
6.307185
 20
0.095542
 30
0.000000
  0
VERTEX
  8
LAYER-1
 10
6.307185
 20
0.095542
 30
0.000000
  0
VERTEX
  8
LAYER-1
 10
6.300239
 20
0.121584
 30
0.000000
  0
VERTEX
  8
LAYER-1
 10
6.275066
 20
0.107696
 30
0.000000
  0
SEQEND
  8
LAYER-1
  0
POLYLINE
  8
LAYER-1
 66
  1
 70
  0
 62
  0
 10
6.397029
 20
0.195802
 30
0.000000
  0
VERTEX
  8
LAYER-1
 10
6.397029
 20
0.195802
 30
0.000000
  0
VERTEX
  8
LAYER-1
 10
6.401370
 20
0.195802
 30
0.000000
  0
VERTEX
  8
LAYER-1
 10
6.404842
 20
0.200142
 30
0.000000
  0
VERTEX
  8
LAYER-1
 10
6.405708
 20
0.205350
 30
0.000000
  0
VERTEX
  8
LAYER-1
 10
6.403973
 20
0.209691
 30
0.000000
  0
VERTEX
  8
LAYER-1
 10
6.399634
 20
0.211427
 30
0.000000
  0
VERTEX
  8
LAYER-1
 10
6.395293
 20
0.211427
 30
0.000000
  0
VERTEX
  8
LAYER-1
 10
6.390952
 20
0.207954
 30
0.000000
  0
VERTEX
  8
LAYER-1
 10
6.390952
 20
0.203614
 30
0.000000
  0
VERTEX
  8
LAYER-1
 10
6.391821
 20
0.199273
 30
0.000000
  0
VERTEX
  8
LAYER-1
 10
6.396160
 20
0.196670
 30
0.000000
  0
SEQEND
  8
LAYER-1
  0
POLYLINE
  8
LAYER-1
 66
  1
 70
  1
 62
  0
 10
6.382271
 20
0.230958
 30
0.000000
  0
VERTEX
  8
LAYER-1
 10
6.382271
 20
0.230958
 30
0.000000
  0
VERTEX
  8
LAYER-1
 10
6.356229
 20
0.224013
 30
0.000000
  0
VERTEX
  8
LAYER-1
 10
6.370118
 20
0.198840
 30
0.000000
  0
SEQEND
  8
LAYER-1
  0
POLYLINE
  8
LAYER-1
 66
  1
 70
  1
 62
  0
 10
5.631053
 20
0.089642
 30
0.000000
  0
VERTEX
  8
LAYER-1
 10
5.631053
 20
0.089642
 30
0.000000
  0
VERTEX
  8
LAYER-1
 10
5.644073
 20
0.112211
 30
0.000000
  0
VERTEX
  8
LAYER-1
 10
5.613692
 20
0.091378
 30
0.000000
  0
SEQEND
  8
LAYER-1
  0
POLYLINE
  8
LAYER-1
 66
  1
 70
  0
 62
  0
 10
5.627580
 20
0.196410
 30
0.000000
  0
VERTEX
  8
LAYER-1
 10
5.627580
 20
0.196410
 30
0.000000
  0
VERTEX
  8
LAYER-1
 10
5.631921
 20
0.196410
 30
0.000000
  0
VERTEX
  8
LAYER-1
 10
5.635393
 20
0.200751
 30
0.000000
  0
VERTEX
  8
LAYER-1
 10
5.636261
 20
0.205958
 30
0.000000
  0
VERTEX
  8
LAYER-1
 10
5.634525
 20
0.210299
 30
0.000000
  0
VERTEX
  8
LAYER-1
 10
5.630185
 20
0.212035
 30
0.000000
  0
VERTEX
  8
LAYER-1
 10
5.625844
 20
0.212035
 30
0.000000
  0
VERTEX
  8
LAYER-1
 10
5.621503
 20
0.208563
 30
0.000000
  0
VERTEX
  8
LAYER-1
 10
5.621503
 20
0.204223
 30
0.000000
  0
VERTEX
  8
LAYER-1
 10
5.622372
 20
0.199882
 30
0.000000
  0
VERTEX
  8
LAYER-1
 10
5.626713
 20
0.197277
 30
0.000000
  0
SEQEND
  8
LAYER-1
  0
POLYLINE
  8
LAYER-1
 66
  1
 70
  1
 62
  0
 10
5.580271
 20
0.175142
 30
0.000000
  0
VERTEX
  8
LAYER-1
 10
5.580271
 20
0.175142
 30
0.000000
  0
VERTEX
  8
LAYER-1
 10
5.605446
 20
0.158649
 30
0.000000
  0
VERTEX
  8
LAYER-1
 10
5.613258
 20
0.173406
 30
0.000000
  0
SEQEND
  8
LAYER-1
  0
POLYLINE
  8
LAYER-1
 66
  1
 70
  1
 62
  0
 10
5.566917
 20
0.147530
 30
0.000000
  0
VERTEX
  8
LAYER-1
 10
5.566917
 20
0.147530
 30
0.000000
  0
VERTEX
  8
LAYER-1
 10
5.547554
 20
0.160217
 30
0.000000
  0
VERTEX
  8
LAYER-1
 10
5.541542
 20
0.148866
 30
0.000000
  0
SEQEND
  8
LAYER-1
  0
POLYLINE
  8
LAYER-1
 66
  1
 70
  1
 62
  0
 10
1.344162
 20
0.206390
 30
0.000000
  0
VERTEX
  8
LAYER-1
 10
1.344162
 20
0.206390
 30
0.000000
  0
VERTEX
  8
LAYER-1
 10
1.331140
 20
0.183821
 30
0.000000
  0
VERTEX
  8
LAYER-1
 10
1.361523
 20
0.204654
 30
0.000000
  0
SEQEND
  8
LAYER-1
  0
POLYLINE
  8
LAYER-1
 66
  1
 70
  1
 62
  0
 10
5.893642
 20
0.133477
 30
0.000000
  0
VERTEX
  8
LAYER-1
 10
5.893642
 20
0.133477
 30
0.000000
  0
VERTEX
  8
LAYER-1
 10
5.916211
 20
0.120456
 30
0.000000
  0
VERTEX
  8
LAYER-1
 10
5.895379
 20
0.150838
 30
0.000000
  0
SEQEND
  8
LAYER-1
  0
POLYLINE
  8
LAYER-1
 66
  1
 70
  0
 62
  0
 10
5.821593
 20
0.180350
 30
0.000000
  0
VERTEX
  8
LAYER-1
 10
5.821593
 20
0.180350
 30
0.000000
  0
VERTEX
  8
LAYER-1
 10
5.821593
 20
0.176008
 30
0.000000
  0
VERTEX
  8
LAYER-1
 10
5.825934
 20
0.172537
 30
0.000000
  0
VERTEX
  8
LAYER-1
 10
5.831142
 20
0.171669
 30
0.000000
  0
VERTEX
  8
LAYER-1
 10
5.835482
 20
0.173405
 30
0.000000
  0
VERTEX
  8
LAYER-1
 10
5.837218
 20
0.177745
 30
0.000000
  0
VERTEX
  8
LAYER-1
 10
5.837218
 20
0.182086
 30
0.000000
  0
VERTEX
  8
LAYER-1
 10
5.833747
 20
0.186425
 30
0.000000
  0
VERTEX
  8
LAYER-1
 10
5.829406
 20
0.186425
 30
0.000000
  0
VERTEX
  8
LAYER-1
 10
5.825065
 20
0.185557
 30
0.000000
  0
VERTEX
  8
LAYER-1
 10
5.822461
 20
0.181218
 30
0.000000
  0
SEQEND
  8
LAYER-1
  0
POLYLINE
  8
LAYER-1
 66
  1
 70
  1
 62
  0
 10
5.771246
 20
0.191635
 30
0.000000
  0
VERTEX
  8
LAYER-1
 10
5.771246
 20
0.191635
 30
0.000000
  0
VERTEX
  8
LAYER-1
 10
5.793815
 20
0.178614
 30
0.000000
  0
VERTEX
  8
LAYER-1
 10
5.772982
 20
0.208995
 30
0.000000
  0
SEQEND
  8
LAYER-1
  0
POLYLINE
  8
LAYER-1
 66
  1
 70
  0
 62
  0
 10
6.033399
 20
0.133477
 30
0.000000
  0
VERTEX
  8
LAYER-1
 10
6.033399
 20
0.133477
 30
0.000000
  0
VERTEX
  8
LAYER-1
 10
6.033399
 20
0.129137
 30
0.000000
  0
VERTEX
  8
LAYER-1
 10
6.037740
 20
0.125665
 30
0.000000
  0
VERTEX
  8
LAYER-1
 10
6.042947
 20
0.124797
 30
0.000000
  0
VERTEX
  8
LAYER-1
 10
6.047288
 20
0.126533
 30
0.000000
  0
VERTEX
  8
LAYER-1
 10
6.049024
 20
0.130873
 30
0.000000
  0
VERTEX
  8
LAYER-1
 10
6.049024
 20
0.135213
 30
0.000000
  0
VERTEX
  8
LAYER-1
 10
6.045552
 20
0.139554
 30
0.000000
  0
VERTEX
  8
LAYER-1
 10
6.041211
 20
0.139554
 30
0.000000
  0
VERTEX
  8
LAYER-1
 10
6.036871
 20
0.138685
 30
0.000000
  0
VERTEX
  8
LAYER-1
 10
6.034267
 20
0.134345
 30
0.000000
  0
SEQEND
  8
LAYER-1
  0
POLYLINE
  8
LAYER-1
 66
  1
 70
  0
 62
  0
 10
5.867600
 20
0.188164
 30
0.000000
  0
VERTEX
  8
LAYER-1
 10
5.867600
 20
0.188164
 30
0.000000
  0
VERTEX
  8
LAYER-1
 10
5.867600
 20
0.183823
 30
0.000000
  0
VERTEX
  8
LAYER-1
 10
5.871941
 20
0.180352
 30
0.000000
  0
VERTEX
  8
LAYER-1
 10
5.877149
 20
0.179484
 30
0.000000
  0
VERTEX
  8
LAYER-1
 10
5.881490
 20
0.181220
 30
0.000000
  0
VERTEX
  8
LAYER-1
 10
5.883225
 20
0.185559
 30
0.000000
  0
VERTEX
  8
LAYER-1
 10
5.883225
 20
0.189900
 30
0.000000
  0
VERTEX
  8
LAYER-1
 10
5.879754
 20
0.194240
 30
0.000000
  0
VERTEX
  8
LAYER-1
 10
5.875413
 20
0.194240
 30
0.000000
  0
VERTEX
  8
LAYER-1
 10
5.871072
 20
0.193371
 30
0.000000
  0
VERTEX
  8
LAYER-1
 10
5.868468
 20
0.189032
 30
0.000000
  0
SEQEND
  8
LAYER-1
  0
POLYLINE
  8
LAYER-1
 66
  1
 70
  1
 62
  0
 10
5.792080
 20
0.123494
 30
0.000000
  0
VERTEX
  8
LAYER-1
 10
5.792080
 20
0.123494
 30
0.000000
  0
VERTEX
  8
LAYER-1
 10
5.779059
 20
0.100924
 30
0.000000
  0
VERTEX
  8
LAYER-1
 10
5.809441
 20
0.121757
 30
0.000000
  0
SEQEND
  8
LAYER-1
  0
POLYLINE
  8
LAYER-1
 66
  1
 70
  0
 62
  0
 10
5.718380
 20
0.115629
 30
0.000000
  0
VERTEX
  8
LAYER-1
 10
5.718380
 20
0.115629
 30
0.000000
  0
VERTEX
  8
LAYER-1
 10
5.714040
 20
0.115629
 30
0.000000
  0
VERTEX
  8
LAYER-1
 10
5.710567
 20
0.111288
 30
0.000000
  0
VERTEX
  8
LAYER-1
 10
5.709699
 20
0.106081
 30
0.000000
  0
VERTEX
  8
LAYER-1
 10
5.711435
 20
0.101740
 30
0.000000
  0
VERTEX
  8
LAYER-1
 10
5.715776
 20
0.100004
 30
0.000000
  0
VERTEX
  8
LAYER-1
 10
5.720117
 20
0.100004
 30
0.000000
  0
VERTEX
  8
LAYER-1
 10
5.724456
 20
0.103476
 30
0.000000
  0
VERTEX
  8
LAYER-1
 10
5.724456
 20
0.107817
 30
0.000000
  0
VERTEX
  8
LAYER-1
 10
5.723588
 20
0.112157
 30
0.000000
  0
VERTEX
  8
LAYER-1
 10
5.719248
 20
0.114762
 30
0.000000
  0
SEQEND
  8
LAYER-1
  0
POLYLINE
  8
LAYER-1
 66
  1
 70
  0
 62
  0
 10
5.792080
 20
0.153875
 30
0.000000
  0
VERTEX
  8
LAYER-1
 10
5.792080
 20
0.153875
 30
0.000000
  0
VERTEX
  8
LAYER-1
 10
5.787740
 20
0.153875
 30
0.000000
  0
VERTEX
  8
LAYER-1
 10
5.784268
 20
0.149534
 30
0.000000
  0
VERTEX
  8
LAYER-1
 10
5.783400
 20
0.144326
 30
0.000000
  0
VERTEX
  8
LAYER-1
 10
5.785135
 20
0.139986
 30
0.000000
  0
VERTEX
  8
LAYER-1
 10
5.789476
 20
0.138250
 30
0.000000
  0
VERTEX
  8
LAYER-1
 10
5.793816
 20
0.138250
 30
0.000000
  0
VERTEX
  8
LAYER-1
 10
5.798157
 20
0.141721
 30
0.000000
  0
VERTEX
  8
LAYER-1
 10
5.798157
 20
0.146062
 30
0.000000
  0
VERTEX
  8
LAYER-1
 10
5.797289
 20
0.150402
 30
0.000000
  0
VERTEX
  8
LAYER-1
 10
5.792948
 20
0.153008
 30
0.000000
  0
SEQEND
  8
LAYER-1
  0
POLYLINE
  8
LAYER-1
 66
  1
 70
  1
 62
  0
 10
6.099372
 20
0.170369
 30
0.000000
  0
VERTEX
  8
LAYER-1
 10
6.099372
 20
0.170369
 30
0.000000
  0
VERTEX
  8
LAYER-1
 10
6.106316
 20
0.144327
 30
0.000000
  0
VERTEX
  8
LAYER-1
 10
6.131490
 20
0.158215
 30
0.000000
  0
SEQEND
  8
LAYER-1
  0
POLYLINE
  8
LAYER-1
 66
  1
 70
  1
 62
  0
 10
6.261698
 20
0.199014
 30
0.000000
  0
VERTEX
  8
LAYER-1
 10
6.261698
 20
0.199014
 30
0.000000
  0
VERTEX
  8
LAYER-1
 10
6.248676
 20
0.176445
 30
0.000000
  0
VERTEX
  8
LAYER-1
 10
6.279059
 20
0.197277
 30
0.000000
  0
SEQEND
  8
LAYER-1
  0
POLYLINE
  8
LAYER-1
 66
  1
 70
  0
 62
  0
 10
6.049893
 20
0.201618
 30
0.000000
  0
VERTEX
  8
LAYER-1
 10
6.049893
 20
0.201618
 30
0.000000
  0
VERTEX
  8
LAYER-1
 10
6.045552
 20
0.201618
 30
0.000000
  0
VERTEX
  8
LAYER-1
 10
6.042080
 20
0.197277
 30
0.000000
  0
VERTEX
  8
LAYER-1
 10
6.041211
 20
0.192069
 30
0.000000
  0
VERTEX
  8
LAYER-1
 10
6.042948
 20
0.187729
 30
0.000000
  0
VERTEX
  8
LAYER-1
 10
6.047288
 20
0.185993
 30
0.000000
  0
VERTEX
  8
LAYER-1
 10
6.051629
 20
0.185993
 30
0.000000
  0
VERTEX
  8
LAYER-1
 10
6.055969
 20
0.189464
 30
0.000000
  0
VERTEX
  8
LAYER-1
 10
6.055969
 20
0.193805
 30
0.000000
  0
VERTEX
  8
LAYER-1
 10
6.055100
 20
0.198146
 30
0.000000
  0
VERTEX
  8
LAYER-1
 10
6.050760
 20
0.200750
 30
0.000000
  0
SEQEND
  8
LAYER-1
  0
POLYLINE
  8
LAYER-1
 66
  1
 70
  1
 62
  0
 10
6.160137
 20
0.133910
 30
0.000000
  0
VERTEX
  8
LAYER-1
 10
6.160137
 20
0.133910
 30
0.000000
  0
VERTEX
  8
LAYER-1
 10
6.147116
 20
0.111340
 30
0.000000
  0
VERTEX
  8
LAYER-1
 10
6.177498
 20
0.132173
 30
0.000000
  0
SEQEND
  8
LAYER-1
  0
POLYLINE
  8
LAYER-1
 66
  1
 70
  0
 62
  0
 10
6.201801
 20
0.203354
 30
0.000000
  0
VERTEX
  8
LAYER-1
 10
6.201801
 20
0.203354
 30
0.000000
  0
VERTEX
  8
LAYER-1
 10
6.197461
 20
0.203354
 30
0.000000
  0
VERTEX
  8
LAYER-1
 10
6.193989
 20
0.199013
 30
0.000000
  0
VERTEX
  8
LAYER-1
 10
6.193121
 20
0.193805
 30
0.000000
  0
VERTEX
  8
LAYER-1
 10
6.194857
 20
0.189464
 30
0.000000
  0
VERTEX
  8
LAYER-1
 10
6.199198
 20
0.187729
 30
0.000000
  0
VERTEX
  8
LAYER-1
 10
6.203537
 20
0.187729
 30
0.000000
  0
VERTEX
  8
LAYER-1
 10
6.207878
 20
0.191200
 30
0.000000
  0
VERTEX
  8
LAYER-1
 10
6.207878
 20
0.195541
 30
0.000000
  0
VERTEX
  8
LAYER-1
 10
6.207010
 20
0.199882
 30
0.000000
  0
VERTEX
  8
LAYER-1
 10
6.202669
 20
0.202486
 30
0.000000
  0
SEQEND
  8
LAYER-1
  0
POLYLINE
  8
LAYER-1
 66
  1
 70
  1
 62
  0
 10
6.541211
 20
0.194673
 30
0.000000
  0
VERTEX
  8
LAYER-1
 10
6.541211
 20
0.194673
 30
0.000000
  0
VERTEX
  8
LAYER-1
 10
6.548155
 20
0.168633
 30
0.000000
  0
VERTEX
  8
LAYER-1
 10
6.573329
 20
0.182521
 30
0.000000
  0
SEQEND
  8
LAYER-1
  0
POLYLINE
  8
LAYER-1
 66
  1
 70
  1
 62
  0
 10
6.703538
 20
0.223320
 30
0.000000
  0
VERTEX
  8
LAYER-1
 10
6.703538
 20
0.223320
 30
0.000000
  0
VERTEX
  8
LAYER-1
 10
6.690516
 20
0.200750
 30
0.000000
  0
VERTEX
  8
LAYER-1
 10
6.720898
 20
0.221582
 30
0.000000
  0
SEQEND
  8
LAYER-1
  0
POLYLINE
  8
LAYER-1
 66
  1
 70
  1
 62
  0
 10
5.931837
 20
0.159084
 30
0.000000
  0
VERTEX
  8
LAYER-1
 10
5.931837
 20
0.159084
 30
0.000000
  0
VERTEX
  8
LAYER-1
 10
5.957010
 20
0.142590
 30
0.000000
  0
VERTEX
  8
LAYER-1
 10
5.964823
 20
0.157349
 30
0.000000
  0
SEQEND
  8
LAYER-1
  0
POLYLINE
  8
LAYER-1
 66
  1
 70
  0
 62
  0
 10
6.502148
 20
0.215508
 30
0.000000
  0
VERTEX
  8
LAYER-1
 10
6.502148
 20
0.215508
 30
0.000000
  0
VERTEX
  8
LAYER-1
 10
6.497807
 20
0.215508
 30
0.000000
  0
VERTEX
  8
LAYER-1
 10
6.494335
 20
0.211167
 30
0.000000
  0
VERTEX
  8
LAYER-1
 10
6.493468
 20
0.205959
 30
0.000000
  0
VERTEX
  8
LAYER-1
 10
6.495203
 20
0.201619
 30
0.000000
  0
VERTEX
  8
LAYER-1
 10
6.499544
 20
0.199883
 30
0.000000
  0
VERTEX
  8
LAYER-1
 10
6.503884
 20
0.199883
 30
0.000000
  0
VERTEX
  8
LAYER-1
 10
6.508224
 20
0.203355
 30
0.000000
  0
VERTEX
  8
LAYER-1
 10
6.508224
 20
0.207695
 30
0.000000
  0
VERTEX
  8
LAYER-1
 10
6.507356
 20
0.212036
 30
0.000000
  0
VERTEX
  8
LAYER-1
 10
6.503016
 20
0.214640
 30
0.000000
  0
SEQEND
  8
LAYER-1
  0
POLYLINE
  8
LAYER-1
 66
  1
 70
  1
 62
  0
 10
6.517774
 20
0.126967
 30
0.000000
  0
VERTEX
  8
LAYER-1
 10
6.517774
 20
0.126967
 30
0.000000
  0
VERTEX
  8
LAYER-1
 10
6.504753
 20
0.104396
 30
0.000000
  0
VERTEX
  8
LAYER-1
 10
6.535135
 20
0.125228
 30
0.000000
  0
SEQEND
  8
LAYER-1
  0
POLYLINE
  8
LAYER-1
 66
  1
 70
  1
 62
  0
 10
6.612225
 20
0.141384
 30
0.000000
  0
VERTEX
  8
LAYER-1
 10
6.612225
 20
0.141384
 30
0.000000
  0
VERTEX
  8
LAYER-1
 10
6.599538
 20
0.122020
 30
0.000000
  0
VERTEX
  8
LAYER-1
 10
6.610889
 20
0.116009
 30
0.000000
  0
SEQEND
  8
LAYER-1
  0
POLYLINE
  8
LAYER-1
 66
  1
 70
  0
 62
  0
 10
6.643641
 20
0.219848
 30
0.000000
  0
VERTEX
  8
LAYER-1
 10
6.643641
 20
0.219848
 30
0.000000
  0
VERTEX
  8
LAYER-1
 10
6.639302
 20
0.219848
 30
0.000000
  0
VERTEX
  8
LAYER-1
 10
6.635829
 20
0.215507
 30
0.000000
  0
VERTEX
  8
LAYER-1
 10
6.634961
 20
0.210299
 30
0.000000
  0
VERTEX
  8
LAYER-1
 10
6.636697
 20
0.205958
 30
0.000000
  0
VERTEX
  8
LAYER-1
 10
6.641037
 20
0.204223
 30
0.000000
  0
VERTEX
  8
LAYER-1
 10
6.645378
 20
0.204223
 30
0.000000
  0
VERTEX
  8
LAYER-1
 10
6.649718
 20
0.207694
 30
0.000000
  0
VERTEX
  8
LAYER-1
 10
6.649718
 20
0.212035
 30
0.000000
  0
VERTEX
  8
LAYER-1
 10
6.648850
 20
0.216376
 30
0.000000
  0
VERTEX
  8
LAYER-1
 10
6.644509
 20
0.218981
 30
0.000000
  0
SEQEND
  8
LAYER-1
  0
POLYLINE
  8
LAYER-1
 66
  1
 70
  0
 62
  0
 10
5.920553
 20
0.212035
 30
0.000000
  0
VERTEX
  8
LAYER-1
 10
5.920553
 20
0.212035
 30
0.000000
  0
VERTEX
  8
LAYER-1
 10
5.920553
 20
0.207694
 30
0.000000
  0
VERTEX
  8
LAYER-1
 10
5.924894
 20
0.204223
 30
0.000000
  0
VERTEX
  8
LAYER-1
 10
5.930101
 20
0.203354
 30
0.000000
  0
VERTEX
  8
LAYER-1
 10
5.934442
 20
0.205089
 30
0.000000
  0
VERTEX
  8
LAYER-1
 10
5.936178
 20
0.209430
 30
0.000000
  0
VERTEX
  8
LAYER-1
 10
5.936178
 20
0.213771
 30
0.000000
  0
VERTEX
  8
LAYER-1
 10
5.932706
 20
0.218112
 30
0.000000
  0
VERTEX
  8
LAYER-1
 10
5.928365
 20
0.218112
 30
0.000000
  0
VERTEX
  8
LAYER-1
 10
5.924025
 20
0.217243
 30
0.000000
  0
VERTEX
  8
LAYER-1
 10
5.921420
 20
0.212902
 30
0.000000
  0
SEQEND
  8
LAYER-1
  0
POLYLINE
  8
LAYER-1
 66
  1
 70
  0
 62
  0
 10
6.483918
 20
0.127832
 30
0.000000
  0
VERTEX
  8
LAYER-1
 10
6.483918
 20
0.127832
 30
0.000000
  0
VERTEX
  8
LAYER-1
 10
6.479577
 20
0.127832
 30
0.000000
  0
VERTEX
  8
LAYER-1
 10
6.476106
 20
0.123492
 30
0.000000
  0
VERTEX
  8
LAYER-1
 10
6.475238
 20
0.118284
 30
0.000000
  0
VERTEX
  8
LAYER-1
 10
6.476974
 20
0.113943
 30
0.000000
  0
VERTEX
  8
LAYER-1
 10
6.481314
 20
0.112207
 30
0.000000
  0
VERTEX
  8
LAYER-1
 10
6.485654
 20
0.112207
 30
0.000000
  0
VERTEX
  8
LAYER-1
 10
6.489994
 20
0.115679
 30
0.000000
  0
VERTEX
  8
LAYER-1
 10
6.489994
 20
0.120020
 30
0.000000
  0
VERTEX
  8
LAYER-1
 10
6.489127
 20
0.124361
 30
0.000000
  0
VERTEX
  8
LAYER-1
 10
6.484786
 20
0.126965
 30
0.000000
  0
SEQEND
  8
LAYER-1
  0
POLYLINE
  8
LAYER-1
 66
  1
 70
  0
 62
  0
 10
6.382357
 20
0.165594
 30
0.000000
  0
VERTEX
  8
LAYER-1
 10
6.382357
 20
0.165594
 30
0.000000
  0
VERTEX
  8
LAYER-1
 10
6.382357
 20
0.169935
 30
0.000000
  0
VERTEX
  8
LAYER-1
 10
6.378017
 20
0.173407
 30
0.000000
  0
VERTEX
  8
LAYER-1
 10
6.372809
 20
0.174275
 30
0.000000
  0
VERTEX
  8
LAYER-1
 10
6.368468
 20
0.172539
 30
0.000000
  0
VERTEX
  8
LAYER-1
 10
6.366732
 20
0.168198
 30
0.000000
  0
VERTEX
  8
LAYER-1
 10
6.366732
 20
0.163858
 30
0.000000
  0
VERTEX
  8
LAYER-1
 10
6.370204
 20
0.159519
 30
0.000000
  0
VERTEX
  8
LAYER-1
 10
6.374545
 20
0.159519
 30
0.000000
  0
VERTEX
  8
LAYER-1
 10
6.378885
 20
0.160386
 30
0.000000
  0
VERTEX
  8
LAYER-1
 10
6.381488
 20
0.164726
 30
0.000000
  0
SEQEND
  8
LAYER-1
  0
POLYLINE
  8
LAYER-1
 66
  1
 70
  1
 62
  0
 10
6.314648
 20
0.152573
 30
0.000000
  0
VERTEX
  8
LAYER-1
 10
6.314648
 20
0.152573
 30
0.000000
  0
VERTEX
  8
LAYER-1
 10
6.292080
 20
0.165593
 30
0.000000
  0
VERTEX
  8
LAYER-1
 10
6.312912
 20
0.135212
 30
0.000000
  0
SEQEND
  8
LAYER-1
  0
POLYLINE
  8
LAYER-1
 66
  1
 70
  0
 62
  0
 10
6.232185
 20
0.117851
 30
0.000000
  0
VERTEX
  8
LAYER-1
 10
6.232185
 20
0.117851
 30
0.000000
  0
VERTEX
  8
LAYER-1
 10
6.232185
 20
0.122192
 30
0.000000
  0
VERTEX
  8
LAYER-1
 10
6.227844
 20
0.125664
 30
0.000000
  0
VERTEX
  8
LAYER-1
 10
6.222636
 20
0.126532
 30
0.000000
  0
VERTEX
  8
LAYER-1
 10
6.218295
 20
0.124796
 30
0.000000
  0
VERTEX
  8
LAYER-1
 10
6.216560
 20
0.120456
 30
0.000000
  0
VERTEX
  8
LAYER-1
 10
6.216560
 20
0.116115
 30
0.000000
  0
VERTEX
  8
LAYER-1
 10
6.220031
 20
0.111775
 30
0.000000
  0
VERTEX
  8
LAYER-1
 10
6.224372
 20
0.111775
 30
0.000000
  0
VERTEX
  8
LAYER-1
 10
6.228713
 20
0.112644
 30
0.000000
  0
VERTEX
  8
LAYER-1
 10
6.231316
 20
0.116983
 30
0.000000
  0
SEQEND
  8
LAYER-1
  0
POLYLINE
  8
LAYER-1
 66
  1
 70
  1
 62
  0
 10
6.422462
 20
0.108130
 30
0.000000
  0
VERTEX
  8
LAYER-1
 10
6.422462
 20
0.108130
 30
0.000000
  0
VERTEX
  8
LAYER-1
 10
6.415517
 20
0.134171
 30
0.000000
  0
VERTEX
  8
LAYER-1
 10
6.390344
 20
0.120283
 30
0.000000
  0
SEQEND
  8
LAYER-1
  0
POLYLINE
  8
LAYER-1
 66
  1
 70
  1
 62
  0
 10
6.443988
 20
0.162556
 30
0.000000
  0
VERTEX
  8
LAYER-1
 10
6.443988
 20
0.162556
 30
0.000000
  0
VERTEX
  8
LAYER-1
 10
6.457010
 20
0.185126
 30
0.000000
  0
VERTEX
  8
LAYER-1
 10
6.426628
 20
0.164294
 30
0.000000
  0
SEQEND
  8
LAYER-1
  0
POLYLINE
  8
LAYER-1
 66
  1
 70
  1
 62
  0
 10
5.871941
 20
0.106133
 30
0.000000
  0
VERTEX
  8
LAYER-1
 10
5.871941
 20
0.106133
 30
0.000000
  0
VERTEX
  8
LAYER-1
 10
5.849371
 20
0.119155
 30
0.000000
  0
VERTEX
  8
LAYER-1
 10
5.870203
 20
0.088771
 30
0.000000
  0
SEQEND
  8
LAYER-1
  0
POLYLINE
  8
LAYER-1
 66
  1
 70
  1
 62
  0
 10
6.649719
 20
0.130439
 30
0.000000
  0
VERTEX
  8
LAYER-1
 10
6.649719
 20
0.130439
 30
0.000000
  0
VERTEX
  8
LAYER-1
 10
6.666212
 20
0.155613
 30
0.000000
  0
VERTEX
  8
LAYER-1
 10
6.651455
 20
0.163425
 30
0.000000
  0
SEQEND
  8
LAYER-1
  0
POLYLINE
  8
LAYER-1
 66
  1
 70
  0
 62
  0
 10
6.680619
 20
0.057036
 30
0.000000
  0
VERTEX
  8
LAYER-1
 10
6.680619
 20
0.057036
 30
0.000000
  0
VERTEX
  8
LAYER-1
 10
6.684959
 20
0.057036
 30
0.000000
  0
VERTEX
  8
LAYER-1
 10
6.688432
 20
0.061376
 30
0.000000
  0
VERTEX
  8
LAYER-1
 10
6.689300
 20
0.066583
 30
0.000000
  0
VERTEX
  8
LAYER-1
 10
6.687564
 20
0.070925
 30
0.000000
  0
VERTEX
  8
LAYER-1
 10
6.683222
 20
0.072661
 30
0.000000
  0
VERTEX
  8
LAYER-1
 10
6.678883
 20
0.072661
 30
0.000000
  0
VERTEX
  8
LAYER-1
 10
6.674543
 20
0.069188
 30
0.000000
  0
VERTEX
  8
LAYER-1
 10
6.674543
 20
0.064848
 30
0.000000
  0
VERTEX
  8
LAYER-1
 10
6.675410
 20
0.060507
 30
0.000000
  0
VERTEX
  8
LAYER-1
 10
6.679751
 20
0.057902
 30
0.000000
  0
SEQEND
  8
LAYER-1
  0
POLYLINE
  8
LAYER-1
 66
  1
 70
  0
 62
  0
 10
6.657182
 20
0.082214
 30
0.000000
  0
VERTEX
  8
LAYER-1
 10
6.657182
 20
0.082214
 30
0.000000
  0
VERTEX
  8
LAYER-1
 10
6.661523
 20
0.082214
 30
0.000000
  0
VERTEX
  8
LAYER-1
 10
6.664995
 20
0.086555
 30
0.000000
  0
VERTEX
  8
LAYER-1
 10
6.665863
 20
0.091763
 30
0.000000
  0
VERTEX
  8
LAYER-1
 10
6.664127
 20
0.096103
 30
0.000000
  0
VERTEX
  8
LAYER-1
 10
6.659786
 20
0.097839
 30
0.000000
  0
VERTEX
  8
LAYER-1
 10
6.655446
 20
0.097839
 30
0.000000
  0
VERTEX
  8
LAYER-1
 10
6.651106
 20
0.094368
 30
0.000000
  0
VERTEX
  8
LAYER-1
 10
6.651106
 20
0.090027
 30
0.000000
  0
VERTEX
  8
LAYER-1
 10
6.651974
 20
0.085687
 30
0.000000
  0
VERTEX
  8
LAYER-1
 10
6.656314
 20
0.083082
 30
0.000000
  0
SEQEND
  8
LAYER-1
  0
POLYLINE
  8
LAYER-1
 66
  1
 70
  1
 62
  0
 10
6.731400
 20
0.098270
 30
0.000000
  0
VERTEX
  8
LAYER-1
 10
6.731400
 20
0.098270
 30
0.000000
  0
VERTEX
  8
LAYER-1
 10
6.706227
 20
0.114763
 30
0.000000
  0
VERTEX
  8
LAYER-1
 10
6.698414
 20
0.100006
 30
0.000000
  0
SEQEND
  8
LAYER-1
  0
POLYLINE
  8
LAYER-1
 66
  1
 70
  0
 62
  0
 10
6.741818
 20
0.137334
 30
0.000000
  0
VERTEX
  8
LAYER-1
 10
6.741818
 20
0.137334
 30
0.000000
  0
VERTEX
  8
LAYER-1
 10
6.741818
 20
0.141675
 30
0.000000
  0
VERTEX
  8
LAYER-1
 10
6.737477
 20
0.145147
 30
0.000000
  0
VERTEX
  8
LAYER-1
 10
6.732269
 20
0.146015
 30
0.000000
  0
VERTEX
  8
LAYER-1
 10
6.727928
 20
0.144279
 30
0.000000
  0
VERTEX
  8
LAYER-1
 10
6.726193
 20
0.139938
 30
0.000000
  0
VERTEX
  8
LAYER-1
 10
6.726193
 20
0.135599
 30
0.000000
  0
VERTEX
  8
LAYER-1
 10
6.729664
 20
0.131258
 30
0.000000
  0
VERTEX
  8
LAYER-1
 10
6.734005
 20
0.131258
 30
0.000000
  0
VERTEX
  8
LAYER-1
 10
6.738346
 20
0.132126
 30
0.000000
  0
VERTEX
  8
LAYER-1
 10
6.740951
 20
0.136467
 30
0.000000
  0
SEQEND
  8
LAYER-1
  0
POLYLINE
  8
LAYER-1
 66
  1
 70
  1
 62
  0
 10
6.688340
 20
0.143186
 30
0.000000
  0
VERTEX
  8
LAYER-1
 10
6.688340
 20
0.143186
 30
0.000000
  0
VERTEX
  8
LAYER-1
 10
6.701027
 20
0.162550
 30
0.000000
  0
VERTEX
  8
LAYER-1
 10
6.689676
 20
0.168561
 30
0.000000
  0
SEQEND
  8
LAYER-1
  0
POLYLINE
  8
LAYER-1
 66
  1
 70
  0
 62
  0
 10
6.011697
 20
0.172974
 30
0.000000
  0
VERTEX
  8
LAYER-1
 10
6.011697
 20
0.172974
 30
0.000000
  0
VERTEX
  8
LAYER-1
 10
6.011697
 20
0.177312
 30
0.000000
  0
VERTEX
  8
LAYER-1
 10
6.007356
 20
0.180786
 30
0.000000
  0
VERTEX
  8
LAYER-1
 10
6.002149
 20
0.181652
 30
0.000000
  0
VERTEX
  8
LAYER-1
 10
5.997808
 20
0.179917
 30
0.000000
  0
VERTEX
  8
LAYER-1
 10
5.996072
 20
0.175576
 30
0.000000
  0
VERTEX
  8
LAYER-1
 10
5.996072
 20
0.171236
 30
0.000000
  0
VERTEX
  8
LAYER-1
 10
5.999544
 20
0.166896
 30
0.000000
  0
VERTEX
  8
LAYER-1
 10
6.003885
 20
0.166896
 30
0.000000
  0
VERTEX
  8
LAYER-1
 10
6.008225
 20
0.167764
 30
0.000000
  0
VERTEX
  8
LAYER-1
 10
6.010830
 20
0.172105
 30
0.000000
  0
SEQEND
  8
LAYER-1
  0
POLYLINE
  8
LAYER-1
 66
  1
 70
  0
 62
  0
 10
6.597635
 20
0.136515
 30
0.000000
  0
VERTEX
  8
LAYER-1
 10
6.597635
 20
0.136515
 30
0.000000
  0
VERTEX
  8
LAYER-1
 10
6.601976
 20
0.136515
 30
0.000000
  0
VERTEX
  8
LAYER-1
 10
6.605448
 20
0.140856
 30
0.000000
  0
VERTEX
  8
LAYER-1
 10
6.606316
 20
0.146064
 30
0.000000
  0
VERTEX
  8
LAYER-1
 10
6.604580
 20
0.150405
 30
0.000000
  0
VERTEX
  8
LAYER-1
 10
6.600239
 20
0.152140
 30
0.000000
  0
VERTEX
  8
LAYER-1
 10
6.595899
 20
0.152140
 30
0.000000
  0
VERTEX
  8
LAYER-1
 10
6.591559
 20
0.148669
 30
0.000000
  0
VERTEX
  8
LAYER-1
 10
6.591559
 20
0.144328
 30
0.000000
  0
VERTEX
  8
LAYER-1
 10
6.592427
 20
0.139988
 30
0.000000
  0
VERTEX
  8
LAYER-1
 10
6.596767
 20
0.137383
 30
0.000000
  0
SEQEND
  8
LAYER-1
  0
POLYLINE
  8
LAYER-1
 66
  1
 70
  1
 62
  0
 10
0.855271
 20
0.140197
 30
0.000000
  0
VERTEX
  8
LAYER-1
 10
0.855271
 20
0.140197
 30
0.000000
  0
VERTEX
  8
LAYER-1
 10
0.832701
 20
0.153217
 30
0.000000
  0
VERTEX
  8
LAYER-1
 10
0.853533
 20
0.122836
 30
0.000000
  0
SEQEND
  8
LAYER-1
  0
POLYLINE
  8
LAYER-1
 66
  1
 70
  0
 62
  0
 10
0.843987
 20
0.073357
 30
0.000000
  0
VERTEX
  8
LAYER-1
 10
0.843987
 20
0.073357
 30
0.000000
  0
VERTEX
  8
LAYER-1
 10
0.843987
 20
0.077695
 30
0.000000
  0
VERTEX
  8
LAYER-1
 10
0.839646
 20
0.081169
 30
0.000000
  0
VERTEX
  8
LAYER-1
 10
0.834438
 20
0.082035
 30
0.000000
  0
VERTEX
  8
LAYER-1
 10
0.830098
 20
0.080300
 30
0.000000
  0
VERTEX
  8
LAYER-1
 10
0.828362
 20
0.075959
 30
0.000000
  0
VERTEX
  8
LAYER-1
 10
0.828362
 20
0.071619
 30
0.000000
  0
VERTEX
  8
LAYER-1
 10
0.831834
 20
0.067279
 30
0.000000
  0
VERTEX
  8
LAYER-1
 10
0.836174
 20
0.067279
 30
0.000000
  0
VERTEX
  8
LAYER-1
 10
0.840515
 20
0.068147
 30
0.000000
  0
VERTEX
  8
LAYER-1
 10
0.843120
 20
0.072488
 30
0.000000
  0
SEQEND
  8
LAYER-1
  0
POLYLINE
  8
LAYER-1
 66
  1
 70
  1
 62
  0
 10
1.122026
 20
0.062156
 30
0.000000
  0
VERTEX
  8
LAYER-1
 10
1.122026
 20
0.062156
 30
0.000000
  0
VERTEX
  8
LAYER-1
 10
1.138519
 20
0.087330
 30
0.000000
  0
VERTEX
  8
LAYER-1
 10
1.123762
 20
0.095143
 30
0.000000
  0
SEQEND
  8
LAYER-1
  0
POLYLINE
  8
LAYER-1
 66
  1
 70
  1
 62
  0
 10
1.169936
 20
0.077250
 30
0.000000
  0
VERTEX
  8
LAYER-1
 10
1.169936
 20
0.077250
 30
0.000000
  0
VERTEX
  8
LAYER-1
 10
1.182623
 20
0.096615
 30
0.000000
  0
VERTEX
  8
LAYER-1
 10
1.171272
 20
0.102626
 30
0.000000
  0
SEQEND
  8
LAYER-1
  0
POLYLINE
  8
LAYER-1
 66
  1
 70
  0
 62
  0
 10
1.234005
 20
0.053478
 30
0.000000
  0
VERTEX
  8
LAYER-1
 10
1.234005
 20
0.053478
 30
0.000000
  0
VERTEX
  8
LAYER-1
 10
1.238346
 20
0.053478
 30
0.000000
  0
VERTEX
  8
LAYER-1
 10
1.241818
 20
0.057819
 30
0.000000
  0
VERTEX
  8
LAYER-1
 10
1.242686
 20
0.063026
 30
0.000000
  0
VERTEX
  8
LAYER-1
 10
1.240950
 20
0.067367
 30
0.000000
  0
VERTEX
  8
LAYER-1
 10
1.236609
 20
0.069103
 30
0.000000
  0
VERTEX
  8
LAYER-1
 10
1.232269
 20
0.069103
 30
0.000000
  0
VERTEX
  8
LAYER-1
 10
1.227929
 20
0.065631
 30
0.000000
  0
VERTEX
  8
LAYER-1
 10
1.227929
 20
0.061290
 30
0.000000
  0
VERTEX
  8
LAYER-1
 10
1.228797
 20
0.056950
 30
0.000000
  0
VERTEX
  8
LAYER-1
 10
1.233137
 20
0.054346
 30
0.000000
  0
SEQEND
  8
LAYER-1
  0
POLYLINE
  8
LAYER-1
 66
  1
 70
  1
 62
  0
 10
1.267859
 20
0.116410
 30
0.000000
  0
VERTEX
  8
LAYER-1
 10
1.267859
 20
0.116410
 30
0.000000
  0
VERTEX
  8
LAYER-1
 10
1.241818
 20
0.109466
 30
0.000000
  0
VERTEX
  8
LAYER-1
 10
1.255706
 20
0.084293
 30
0.000000
  0
SEQEND
  8
LAYER-1
  0
POLYLINE
  8
LAYER-1
 66
  1
 70
  0
 62
  0
 10
2.635742
 20
0.084117
 30
0.000000
  0
VERTEX
  8
LAYER-1
 10
2.635742
 20
0.084117
 30
0.000000
  0
VERTEX
  8
LAYER-1
 10
2.635742
 20
0.088459
 30
0.000000
  0
VERTEX
  8
LAYER-1
 10
2.631401
 20
0.091930
 30
0.000000
  0
VERTEX
  8
LAYER-1
 10
2.626193
 20
0.092798
 30
0.000000
  0
VERTEX
  8
LAYER-1
 10
2.621853
 20
0.091062
 30
0.000000
  0
VERTEX
  8
LAYER-1
 10
2.620117
 20
0.086722
 30
0.000000
  0
VERTEX
  8
LAYER-1
 10
2.620117
 20
0.082381
 30
0.000000
  0
VERTEX
  8
LAYER-1
 10
2.623589
 20
0.078041
 30
0.000000
  0
VERTEX
  8
LAYER-1
 10
2.627929
 20
0.078041
 30
0.000000
  0
VERTEX
  8
LAYER-1
 10
2.632270
 20
0.078910
 30
0.000000
  0
VERTEX
  8
LAYER-1
 10
2.634874
 20
0.083249
 30
0.000000
  0
SEQEND
  8
LAYER-1
  0
POLYLINE
  8
LAYER-1
 66
  1
 70
  1
 62
  0
 10
2.569769
 20
0.047227
 30
0.000000
  0
VERTEX
  8
LAYER-1
 10
2.569769
 20
0.047227
 30
0.000000
  0
VERTEX
  8
LAYER-1
 10
2.562824
 20
0.073268
 30
0.000000
  0
VERTEX
  8
LAYER-1
 10
2.537651
 20
0.059380
 30
0.000000
  0
SEQEND
  8
LAYER-1
  0
POLYLINE
  8
LAYER-1
 66
  1
 70
  1
 62
  0
 10
2.581921
 20
0.083685
 30
0.000000
  0
VERTEX
  8
LAYER-1
 10
2.581921
 20
0.083685
 30
0.000000
  0
VERTEX
  8
LAYER-1
 10
2.594943
 20
0.106255
 30
0.000000
  0
VERTEX
  8
LAYER-1
 10
2.564560
 20
0.085422
 30
0.000000
  0
SEQEND
  8
LAYER-1
  0
POLYLINE
  8
LAYER-1
 66
  1
 70
  0
 62
  0
 10
2.418120
 20
0.094535
 30
0.000000
  0
VERTEX
  8
LAYER-1
 10
2.418120
 20
0.094535
 30
0.000000
  0
VERTEX
  8
LAYER-1
 10
2.413780
 20
0.094535
 30
0.000000
  0
VERTEX
  8
LAYER-1
 10
2.410308
 20
0.090194
 30
0.000000
  0
VERTEX
  8
LAYER-1
 10
2.409440
 20
0.084986
 30
0.000000
  0
VERTEX
  8
LAYER-1
 10
2.411176
 20
0.080646
 30
0.000000
  0
VERTEX
  8
LAYER-1
 10
2.415516
 20
0.078910
 30
0.000000
  0
VERTEX
  8
LAYER-1
 10
2.419856
 20
0.078910
 30
0.000000
  0
VERTEX
  8
LAYER-1
 10
2.424197
 20
0.082381
 30
0.000000
  0
VERTEX
  8
LAYER-1
 10
2.424197
 20
0.086722
 30
0.000000
  0
VERTEX
  8
LAYER-1
 10
2.423329
 20
0.091064
 30
0.000000
  0
VERTEX
  8
LAYER-1
 10
2.418988
 20
0.093668
 30
0.000000
  0
SEQEND
  8
LAYER-1
  0
POLYLINE
  8
LAYER-1
 66
  1
 70
  1
 62
  0
 10
2.497981
 20
0.057209
 30
0.000000
  0
VERTEX
  8
LAYER-1
 10
2.497981
 20
0.057209
 30
0.000000
  0
VERTEX
  8
LAYER-1
 10
2.475411
 20
0.070230
 30
0.000000
  0
VERTEX
  8
LAYER-1
 10
2.496243
 20
0.039847
 30
0.000000
  0
SEQEND
  8
LAYER-1
  0
POLYLINE
  8
LAYER-1
 66
  1
 70
  1
 62
  0
 10
3.092952
 20
0.058059
 30
0.000000
  0
VERTEX
  8
LAYER-1
 10
3.092952
 20
0.058059
 30
0.000000
  0
VERTEX
  8
LAYER-1
 10
3.105973
 20
0.080629
 30
0.000000
  0
VERTEX
  8
LAYER-1
 10
3.075591
 20
0.059797
 30
0.000000
  0
SEQEND
  8
LAYER-1
  0
POLYLINE
  8
LAYER-1
 66
  1
 70
  1
 62
  0
 10
2.998502
 20
0.064472
 30
0.000000
  0
VERTEX
  8
LAYER-1
 10
2.998502
 20
0.064472
 30
0.000000
  0
VERTEX
  8
LAYER-1
 10
3.011189
 20
0.083836
 30
0.000000
  0
VERTEX
  8
LAYER-1
 10
2.999839
 20
0.089847
 30
0.000000
  0
SEQEND
  8
LAYER-1
  0
POLYLINE
  8
LAYER-1
 66
  1
 70
  0
 62
  0
 10
3.126808
 20
0.057192
 30
0.000000
  0
VERTEX
  8
LAYER-1
 10
3.126808
 20
0.057192
 30
0.000000
  0
VERTEX
  8
LAYER-1
 10
3.131148
 20
0.057192
 30
0.000000
  0
VERTEX
  8
LAYER-1
 10
3.134620
 20
0.061533
 30
0.000000
  0
VERTEX
  8
LAYER-1
 10
3.135488
 20
0.066740
 30
0.000000
  0
VERTEX
  8
LAYER-1
 10
3.133753
 20
0.071081
 30
0.000000
  0
VERTEX
  8
LAYER-1
 10
3.129412
 20
0.072817
 30
0.000000
  0
VERTEX
  8
LAYER-1
 10
3.125072
 20
0.072817
 30
0.000000
  0
VERTEX
  8
LAYER-1
 10
3.120731
 20
0.069345
 30
0.000000
  0
VERTEX
  8
LAYER-1
 10
3.120731
 20
0.065004
 30
0.000000
  0
VERTEX
  8
LAYER-1
 10
3.121599
 20
0.060664
 30
0.000000
  0
VERTEX
  8
LAYER-1
 10
3.125940
 20
0.058059
 30
0.000000
  0
SEQEND
  8
LAYER-1
  0
POLYLINE
  8
LAYER-1
 66
  1
 70
  0
 62
  0
 10
3.013091
 20
0.048509
 30
0.000000
  0
VERTEX
  8
LAYER-1
 10
3.013091
 20
0.048509
 30
0.000000
  0
VERTEX
  8
LAYER-1
 10
3.008750
 20
0.048509
 30
0.000000
  0
VERTEX
  8
LAYER-1
 10
3.005279
 20
0.044168
 30
0.000000
  0
VERTEX
  8
LAYER-1
 10
3.004411
 20
0.038960
 30
0.000000
  0
VERTEX
  8
LAYER-1
 10
3.006147
 20
0.034620
 30
0.000000
  0
VERTEX
  8
LAYER-1
 10
3.010487
 20
0.032884
 30
0.000000
  0
VERTEX
  8
LAYER-1
 10
3.014827
 20
0.032884
 30
0.000000
  0
VERTEX
  8
LAYER-1
 10
3.019168
 20
0.036356
 30
0.000000
  0
VERTEX
  8
LAYER-1
 10
3.019168
 20
0.040696
 30
0.000000
  0
VERTEX
  8
LAYER-1
 10
3.018300
 20
0.045037
 30
0.000000
  0
VERTEX
  8
LAYER-1
 10
3.013959
 20
0.047641
 30
0.000000
  0
SEQEND
  8
LAYER-1
  0
POLYLINE
  8
LAYER-1
 66
  1
 70
  1
 62
  0
 10
2.854144
 20
0.061810
 30
0.000000
  0
VERTEX
  8
LAYER-1
 10
2.854144
 20
0.061810
 30
0.000000
  0
VERTEX
  8
LAYER-1
 10
2.867165
 20
0.084380
 30
0.000000
  0
VERTEX
  8
LAYER-1
 10
2.836784
 20
0.063548
 30
0.000000
  0
SEQEND
  8
LAYER-1
  0
POLYLINE
  8
LAYER-1
 66
  1
 70
  0
 62
  0
 10
2.888000
 20
0.060943
 30
0.000000
  0
VERTEX
  8
LAYER-1
 10
2.888000
 20
0.060943
 30
0.000000
  0
VERTEX
  8
LAYER-1
 10
2.892341
 20
0.060943
 30
0.000000
  0
VERTEX
  8
LAYER-1
 10
2.895813
 20
0.065283
 30
0.000000
  0
VERTEX
  8
LAYER-1
 10
2.896681
 20
0.070491
 30
0.000000
  0
VERTEX
  8
LAYER-1
 10
2.894945
 20
0.074832
 30
0.000000
  0
VERTEX
  8
LAYER-1
 10
2.890604
 20
0.076568
 30
0.000000
  0
VERTEX
  8
LAYER-1
 10
2.886264
 20
0.076568
 30
0.000000
  0
VERTEX
  8
LAYER-1
 10
2.881923
 20
0.073096
 30
0.000000
  0
VERTEX
  8
LAYER-1
 10
2.881923
 20
0.068755
 30
0.000000
  0
VERTEX
  8
LAYER-1
 10
2.882792
 20
0.064414
 30
0.000000
  0
VERTEX
  8
LAYER-1
 10
2.887132
 20
0.061810
 30
0.000000
  0
SEQEND
  8
LAYER-1
  0
POLYLINE
  8
LAYER-1
 66
  1
 70
  1
 62
  0
 10
3.486261
 20
0.096881
 30
0.000000
  0
VERTEX
  8
LAYER-1
 10
3.486261
 20
0.096881
 30
0.000000
  0
VERTEX
  8
LAYER-1
 10
3.508831
 20
0.083859
 30
0.000000
  0
VERTEX
  8
LAYER-1
 10
3.487999
 20
0.114241
 30
0.000000
  0
SEQEND
  8
LAYER-1
  0
POLYLINE
  8
LAYER-1
 66
  1
 70
  0
 62
  0
 10
3.485394
 20
0.063025
 30
0.000000
  0
VERTEX
  8
LAYER-1
 10
3.485394
 20
0.063025
 30
0.000000
  0
VERTEX
  8
LAYER-1
 10
3.485394
 20
0.058684
 30
0.000000
  0
VERTEX
  8
LAYER-1
 10
3.489735
 20
0.055212
 30
0.000000
  0
VERTEX
  8
LAYER-1
 10
3.494943
 20
0.054344
 30
0.000000
  0
VERTEX
  8
LAYER-1
 10
3.499283
 20
0.056080
 30
0.000000
  0
VERTEX
  8
LAYER-1
 10
3.501019
 20
0.060421
 30
0.000000
  0
VERTEX
  8
LAYER-1
 10
3.501019
 20
0.064760
 30
0.000000
  0
VERTEX
  8
LAYER-1
 10
3.497548
 20
0.069101
 30
0.000000
  0
VERTEX
  8
LAYER-1
 10
3.493207
 20
0.069101
 30
0.000000
  0
VERTEX
  8
LAYER-1
 10
3.488866
 20
0.068233
 30
0.000000
  0
VERTEX
  8
LAYER-1
 10
3.486261
 20
0.063893
 30
0.000000
  0
SEQEND
  8
LAYER-1
  0
POLYLINE
  8
LAYER-1
 66
  1
 70
  1
 62
  0
 10
4.035741
 20
0.128910
 30
0.000000
  0
VERTEX
  8
LAYER-1
 10
4.035741
 20
0.128910
 30
0.000000
  0
VERTEX
  8
LAYER-1
 10
4.042685
 20
0.102869
 30
0.000000
  0
VERTEX
  8
LAYER-1
 10
4.067858
 20
0.116757
 30
0.000000
  0
SEQEND
  8
LAYER-1
  0
POLYLINE
  8
LAYER-1
 66
  1
 70
  1
 62
  0
 10
4.007528
 20
0.092016
 30
0.000000
  0
VERTEX
  8
LAYER-1
 10
4.007528
 20
0.092016
 30
0.000000
  0
VERTEX
  8
LAYER-1
 10
4.030098
 20
0.078996
 30
0.000000
  0
VERTEX
  8
LAYER-1
 10
4.009265
 20
0.109377
 30
0.000000
  0
SEQEND
  8
LAYER-1
  0
POLYLINE
  8
LAYER-1
 66
  1
 70
  1
 62
  0
 10
4.124182
 20
0.084036
 30
0.000000
  0
VERTEX
  8
LAYER-1
 10
4.124182
 20
0.084036
 30
0.000000
  0
VERTEX
  8
LAYER-1
 10
4.143547
 20
0.071348
 30
0.000000
  0
VERTEX
  8
LAYER-1
 10
4.149558
 20
0.082700
 30
0.000000
  0
SEQEND
  8
LAYER-1
  0
POLYLINE
  8
LAYER-1
 66
  1
 70
  0
 62
  0
 10
4.068727
 20
0.089844
 30
0.000000
  0
VERTEX
  8
LAYER-1
 10
4.068727
 20
0.089844
 30
0.000000
  0
VERTEX
  8
LAYER-1
 10
4.064387
 20
0.089844
 30
0.000000
  0
VERTEX
  8
LAYER-1
 10
4.060915
 20
0.085503
 30
0.000000
  0
VERTEX
  8
LAYER-1
 10
4.060047
 20
0.080295
 30
0.000000
  0
VERTEX
  8
LAYER-1
 10
4.061783
 20
0.075954
 30
0.000000
  0
VERTEX
  8
LAYER-1
 10
4.066123
 20
0.074219
 30
0.000000
  0
VERTEX
  8
LAYER-1
 10
4.070463
 20
0.074219
 30
0.000000
  0
VERTEX
  8
LAYER-1
 10
4.074804
 20
0.077690
 30
0.000000
  0
VERTEX
  8
LAYER-1
 10
4.074804
 20
0.082031
 30
0.000000
  0
VERTEX
  8
LAYER-1
 10
4.073935
 20
0.086372
 30
0.000000
  0
VERTEX
  8
LAYER-1
 10
4.069595
 20
0.088976
 30
0.000000
  0
SEQEND
  8
LAYER-1
  0
POLYLINE
  8
LAYER-1
 66
  1
 70
  0
 62
  0
 10
3.953276
 20
0.067275
 30
0.000000
  0
VERTEX
  8
LAYER-1
 10
3.953276
 20
0.067275
 30
0.000000
  0
VERTEX
  8
LAYER-1
 10
3.957617
 20
0.067275
 30
0.000000
  0
VERTEX
  8
LAYER-1
 10
3.961088
 20
0.071615
 30
0.000000
  0
VERTEX
  8
LAYER-1
 10
3.961957
 20
0.076823
 30
0.000000
  0
VERTEX
  8
LAYER-1
 10
3.960221
 20
0.081164
 30
0.000000
  0
VERTEX
  8
LAYER-1
 10
3.955880
 20
0.082900
 30
0.000000
  0
VERTEX
  8
LAYER-1
 10
3.951540
 20
0.082900
 30
0.000000
  0
VERTEX
  8
LAYER-1
 10
3.947199
 20
0.079428
 30
0.000000
  0
VERTEX
  8
LAYER-1
 10
3.947199
 20
0.075088
 30
0.000000
  0
VERTEX
  8
LAYER-1
 10
3.948068
 20
0.070747
 30
0.000000
  0
VERTEX
  8
LAYER-1
 10
3.952409
 20
0.068142
 30
0.000000
  0
SEQEND
  8
LAYER-1
  0
POLYLINE
  8
LAYER-1
 66
  1
 70
  1
 62
  0
 10
4.439923
 20
0.037587
 30
0.000000
  0
VERTEX
  8
LAYER-1
 10
4.439923
 20
0.037587
 30
0.000000
  0
VERTEX
  8
LAYER-1
 10
4.432979
 20
0.063629
 30
0.000000
  0
VERTEX
  8
LAYER-1
 10
4.407805
 20
0.049741
 30
0.000000
  0
SEQEND
  8
LAYER-1
  0
POLYLINE
  8
LAYER-1
 66
  1
 70
  1
 62
  0
 10
4.468136
 20
0.074482
 30
0.000000
  0
VERTEX
  8
LAYER-1
 10
4.468136
 20
0.074482
 30
0.000000
  0
VERTEX
  8
LAYER-1
 10
4.445566
 20
0.087502
 30
0.000000
  0
VERTEX
  8
LAYER-1
 10
4.466399
 20
0.057121
 30
0.000000
  0
SEQEND
  8
LAYER-1
  0
POLYLINE
  8
LAYER-1
 66
  1
 70
  1
 62
  0
 10
4.351482
 20
0.082462
 30
0.000000
  0
VERTEX
  8
LAYER-1
 10
4.351482
 20
0.082462
 30
0.000000
  0
VERTEX
  8
LAYER-1
 10
4.332117
 20
0.095150
 30
0.000000
  0
VERTEX
  8
LAYER-1
 10
4.326107
 20
0.083798
 30
0.000000
  0
SEQEND
  8
LAYER-1
  0
POLYLINE
  8
LAYER-1
 66
  1
 70
  0
 62
  0
 10
4.406936
 20
0.076654
 30
0.000000
  0
VERTEX
  8
LAYER-1
 10
4.406936
 20
0.076654
 30
0.000000
  0
VERTEX
  8
LAYER-1
 10
4.411277
 20
0.076654
 30
0.000000
  0
VERTEX
  8
LAYER-1
 10
4.414749
 20
0.080995
 30
0.000000
  0
VERTEX
  8
LAYER-1
 10
4.415617
 20
0.086203
 30
0.000000
  0
VERTEX
  8
LAYER-1
 10
4.413881
 20
0.090543
 30
0.000000
  0
VERTEX
  8
LAYER-1
 10
4.409541
 20
0.092279
 30
0.000000
  0
VERTEX
  8
LAYER-1
 10
4.405201
 20
0.092279
 30
0.000000
  0
VERTEX
  8
LAYER-1
 10
4.400860
 20
0.088807
 30
0.000000
  0
VERTEX
  8
LAYER-1
 10
4.400860
 20
0.084467
 30
0.000000
  0
VERTEX
  8
LAYER-1
 10
4.401729
 20
0.080126
 30
0.000000
  0
VERTEX
  8
LAYER-1
 10
4.406068
 20
0.077522
 30
0.000000
  0
SEQEND
  8
LAYER-1
  0
POLYLINE
  8
LAYER-1
 66
  1
 70
  0
 62
  0
 10
4.522388
 20
0.099223
 30
0.000000
  0
VERTEX
  8
LAYER-1
 10
4.522388
 20
0.099223
 30
0.000000
  0
VERTEX
  8
LAYER-1
 10
4.518047
 20
0.099223
 30
0.000000
  0
VERTEX
  8
LAYER-1
 10
4.514576
 20
0.094882
 30
0.000000
  0
VERTEX
  8
LAYER-1
 10
4.513707
 20
0.089674
 30
0.000000
  0
VERTEX
  8
LAYER-1
 10
4.515442
 20
0.085334
 30
0.000000
  0
VERTEX
  8
LAYER-1
 10
4.519783
 20
0.083598
 30
0.000000
  0
VERTEX
  8
LAYER-1
 10
4.524124
 20
0.083598
 30
0.000000
  0
VERTEX
  8
LAYER-1
 10
4.528464
 20
0.087069
 30
0.000000
  0
VERTEX
  8
LAYER-1
 10
4.528464
 20
0.091410
 30
0.000000
  0
VERTEX
  8
LAYER-1
 10
4.527596
 20
0.095751
 30
0.000000
  0
VERTEX
  8
LAYER-1
 10
4.523255
 20
0.098356
 30
0.000000
  0
SEQEND
  8
LAYER-1
  0
POLYLINE
  8
LAYER-1
 66
  1
 70
  1
 62
  0
 10
4.692266
 20
0.021181
 30
0.000000
  0
VERTEX
  8
LAYER-1
 10
4.692266
 20
0.021181
 30
0.000000
  0
VERTEX
  8
LAYER-1
 10
4.685321
 20
0.047223
 30
0.000000
  0
VERTEX
  8
LAYER-1
 10
4.660149
 20
0.033335
 30
0.000000
  0
SEQEND
  8
LAYER-1
  0
POLYLINE
  8
LAYER-1
 66
  1
 70
  1
 62
  0
 10
4.720478
 20
0.058075
 30
0.000000
  0
VERTEX
  8
LAYER-1
 10
4.720478
 20
0.058075
 30
0.000000
  0
VERTEX
  8
LAYER-1
 10
4.697909
 20
0.071096
 30
0.000000
  0
VERTEX
  8
LAYER-1
 10
4.718742
 20
0.040715
 30
0.000000
  0
SEQEND
  8
LAYER-1
  0
POLYLINE
  8
LAYER-1
 66
  1
 70
  1
 62
  0
 10
4.603825
 20
0.066055
 30
0.000000
  0
VERTEX
  8
LAYER-1
 10
4.603825
 20
0.066055
 30
0.000000
  0
VERTEX
  8
LAYER-1
 10
4.584460
 20
0.078743
 30
0.000000
  0
VERTEX
  8
LAYER-1
 10
4.578450
 20
0.067391
 30
0.000000
  0
SEQEND
  8
LAYER-1
  0
POLYLINE
  8
LAYER-1
 66
  1
 70
  0
 62
  0
 10
4.659280
 20
0.060248
 30
0.000000
  0
VERTEX
  8
LAYER-1
 10
4.659280
 20
0.060248
 30
0.000000
  0
VERTEX
  8
LAYER-1
 10
4.663620
 20
0.060248
 30
0.000000
  0
VERTEX
  8
LAYER-1
 10
4.667092
 20
0.064589
 30
0.000000
  0
VERTEX
  8
LAYER-1
 10
4.667960
 20
0.069796
 30
0.000000
  0
VERTEX
  8
LAYER-1
 10
4.666224
 20
0.074137
 30
0.000000
  0
VERTEX
  8
LAYER-1
 10
4.661884
 20
0.075873
 30
0.000000
  0
VERTEX
  8
LAYER-1
 10
4.657544
 20
0.075873
 30
0.000000
  0
VERTEX
  8
LAYER-1
 10
4.653203
 20
0.072401
 30
0.000000
  0
VERTEX
  8
LAYER-1
 10
4.653203
 20
0.068060
 30
0.000000
  0
VERTEX
  8
LAYER-1
 10
4.654072
 20
0.063720
 30
0.000000
  0
VERTEX
  8
LAYER-1
 10
4.658412
 20
0.061116
 30
0.000000
  0
SEQEND
  8
LAYER-1
  0
POLYLINE
  8
LAYER-1
 66
  1
 70
  0
 62
  0
 10
4.774731
 20
0.082816
 30
0.000000
  0
VERTEX
  8
LAYER-1
 10
4.774731
 20
0.082816
 30
0.000000
  0
VERTEX
  8
LAYER-1
 10
4.770390
 20
0.082816
 30
0.000000
  0
VERTEX
  8
LAYER-1
 10
4.766918
 20
0.078475
 30
0.000000
  0
VERTEX
  8
LAYER-1
 10
4.766049
 20
0.073268
 30
0.000000
  0
VERTEX
  8
LAYER-1
 10
4.767785
 20
0.068927
 30
0.000000
  0
VERTEX
  8
LAYER-1
 10
4.772126
 20
0.067191
 30
0.000000
  0
VERTEX
  8
LAYER-1
 10
4.776467
 20
0.067191
 30
0.000000
  0
VERTEX
  8
LAYER-1
 10
4.780807
 20
0.070663
 30
0.000000
  0
VERTEX
  8
LAYER-1
 10
4.780807
 20
0.075004
 30
0.000000
  0
VERTEX
  8
LAYER-1
 10
4.779939
 20
0.079345
 30
0.000000
  0
VERTEX
  8
LAYER-1
 10
4.775598
 20
0.081949
 30
0.000000
  0
SEQEND
  8
LAYER-1
  0
POLYLINE
  8
LAYER-1
 66
  1
 70
  1
 62
  0
 10
4.912825
 20
0.120230
 30
0.000000
  0
VERTEX
  8
LAYER-1
 10
4.912825
 20
0.120230
 30
0.000000
  0
VERTEX
  8
LAYER-1
 10
4.919770
 20
0.094189
 30
0.000000
  0
VERTEX
  8
LAYER-1
 10
4.944943
 20
0.108077
 30
0.000000
  0
SEQEND
  8
LAYER-1
  0
POLYLINE
  8
LAYER-1
 66
  1
 70
  1
 62
  0
 10
4.884613
 20
0.083336
 30
0.000000
  0
VERTEX
  8
LAYER-1
 10
4.884613
 20
0.083336
 30
0.000000
  0
VERTEX
  8
LAYER-1
 10
4.907182
 20
0.070316
 30
0.000000
  0
VERTEX
  8
LAYER-1
 10
4.886350
 20
0.100697
 30
0.000000
  0
SEQEND
  8
LAYER-1
  0
POLYLINE
  8
LAYER-1
 66
  1
 70
  0
 62
  0
 10
4.830361
 20
0.058595
 30
0.000000
  0
VERTEX
  8
LAYER-1
 10
4.830361
 20
0.058595
 30
0.000000
  0
VERTEX
  8
LAYER-1
 10
4.834702
 20
0.058595
 30
0.000000
  0
VERTEX
  8
LAYER-1
 10
4.838173
 20
0.062936
 30
0.000000
  0
VERTEX
  8
LAYER-1
 10
4.839042
 20
0.068144
 30
0.000000
  0
VERTEX
  8
LAYER-1
 10
4.837306
 20
0.072484
 30
0.000000
  0
VERTEX
  8
LAYER-1
 10
4.832965
 20
0.074220
 30
0.000000
  0
VERTEX
  8
LAYER-1
 10
4.828625
 20
0.074220
 30
0.000000
  0
VERTEX
  8
LAYER-1
 10
4.824284
 20
0.070748
 30
0.000000
  0
VERTEX
  8
LAYER-1
 10
4.824284
 20
0.066408
 30
0.000000
  0
VERTEX
  8
LAYER-1
 10
4.825153
 20
0.062067
 30
0.000000
  0
VERTEX
  8
LAYER-1
 10
4.829494
 20
0.059463
 30
0.000000
  0
SEQEND
  8
LAYER-1
  0
POLYLINE
  8
LAYER-1
 66
  1
 70
  1
 62
  0
 10
5.465948
 20
0.232346
 30
0.000000
  0
VERTEX
  8
LAYER-1
 10
5.465948
 20
0.232346
 30
0.000000
  0
VERTEX
  8
LAYER-1
 10
5.472893
 20
0.206306
 30
0.000000
  0
VERTEX
  8
LAYER-1
 10
5.498066
 20
0.220194
 30
0.000000
  0
SEQEND
  8
LAYER-1
  0
POLYLINE
  8
LAYER-1
 66
  1
 70
  1
 62
  0
 10
5.479057
 20
0.187208
 30
0.000000
  0
VERTEX
  8
LAYER-1
 10
5.479057
 20
0.187208
 30
0.000000
  0
VERTEX
  8
LAYER-1
 10
5.466036
 20
0.164638
 30
0.000000
  0
VERTEX
  8
LAYER-1
 10
5.496418
 20
0.185470
 30
0.000000
  0
SEQEND
  8
LAYER-1
  0
POLYLINE
  8
LAYER-1
 66
  1
 70
  1
 62
  0
 10
5.170551
 20
0.155731
 30
0.000000
  0
VERTEX
  8
LAYER-1
 10
5.170551
 20
0.155731
 30
0.000000
  0
VERTEX
  8
LAYER-1
 10
5.163607
 20
0.181772
 30
0.000000
  0
VERTEX
  8
LAYER-1
 10
5.138434
 20
0.167885
 30
0.000000
  0
SEQEND
  8
LAYER-1
  0
POLYLINE
  8
LAYER-1
 66
  1
 70
  1
 62
  0
 10
5.157442
 20
0.200870
 30
0.000000
  0
VERTEX
  8
LAYER-1
 10
5.157442
 20
0.200870
 30
0.000000
  0
VERTEX
  8
LAYER-1
 10
5.170464
 20
0.223440
 30
0.000000
  0
VERTEX
  8
LAYER-1
 10
5.140082
 20
0.202608
 30
0.000000
  0
SEQEND
  8
LAYER-1
  0
POLYLINE
  8
LAYER-1
 66
  1
 70
  1
 62
  0
 10
5.675323
 20
0.057902
 30
0.000000
  0
VERTEX
  8
LAYER-1
 10
5.675323
 20
0.057902
 30
0.000000
  0
VERTEX
  8
LAYER-1
 10
5.701363
 20
0.064848
 30
0.000000
  0
VERTEX
  8
LAYER-1
 10
5.687477
 20
0.090021
 30
0.000000
  0
SEQEND
  8
LAYER-1
  0
POLYLINE
  8
LAYER-1
 66
  1
 70
  1
 62
  0
 10
5.720462
 20
0.071011
 30
0.000000
  0
VERTEX
  8
LAYER-1
 10
5.720462
 20
0.071011
 30
0.000000
  0
VERTEX
  8
LAYER-1
 10
5.743033
 20
0.057991
 30
0.000000
  0
VERTEX
  8
LAYER-1
 10
5.722200
 20
0.088372
 30
0.000000
  0
SEQEND
  8
LAYER-1
  0
ARC
  8
LAYER-1
 62
  0
 10
5.469802
 20
8.923036
 30
0.000000
 40
0.254425
 50
270.000000
 51
90.000000
  0
POLYLINE
  8
LAYER-1
 66
  1
 70
  0
 62
  0
 10
5.469802
 20
9.177461
 30
0.000000
  0
VERTEX
  8
LAYER-1
 10
5.469802
 20
9.177461
 30
0.000000
  0
VERTEX
  8
LAYER-1
 10
1.804881
 20
9.177461
 30
0.000000
  0
SEQEND
  8
LAYER-1
  0
POLYLINE
  8
LAYER-1
 66
  1
 70
  0
 62
  0
 10
1.804881
 20
9.177461
 30
0.000000
  0
VERTEX
  8
LAYER-1
 10
1.804881
 20
9.177461
 30
0.000000
  0
VERTEX
  8
LAYER-1
 10
1.804881
 20
8.668611
 30
0.000000
  0
SEQEND
  8
LAYER-1
  0
POLYLINE
  8
LAYER-1
 66
  1
 70
  0
 62
  0
 10
5.469802
 20
8.668611
 30
0.000000
  0
VERTEX
  8
LAYER-1
 10
5.469802
 20
8.668611
 30
0.000000
  0
VERTEX
  8
LAYER-1
 10
1.804881
 20
8.668611
 30
0.000000
  0
SEQEND
  8
LAYER-1
  0
TEXT
  8
LAYER-1
 62
  0
 10
3.615411
 20
9.461170
 30
0.000000
 40
0.333333
  1
MobilFlex
 72
  5
 11
5.768189
 21
9.461170
 31
0.000000
  0
POLYLINE
  8
LAYER-1
 66
  1
 70
  1
 62
  0
  0
VERTEX
  8
LAYER-1
 10
1.806384
 20
9.980337
 30
0.000000
  0
VERTEX
  8
LAYER-1
 10
2.044231
 20
9.980337
 30
0.000000
  0
VERTEX
  8
LAYER-1
 10
2.044231
 20
9.463392
 30
0.000000
  0
VERTEX
  8
LAYER-1
 10
1.806384
 20
9.463392
 30
0.000000
  0
SEQEND
  8
LAYER-1
  0
POLYLINE
  8
LAYER-1
 66
  1
 70
  1
 62
  0
  0
VERTEX
  8
LAYER-1
 10
2.118884
 20
9.980337
 30
0.000000
  0
VERTEX
  8
LAYER-1
 10
2.356731
 20
9.980337
 30
0.000000
  0
VERTEX
  8
LAYER-1
 10
2.356731
 20
9.463392
 30
0.000000
  0
VERTEX
  8
LAYER-1
 10
2.118884
 20
9.463392
 30
0.000000
  0
SEQEND
  8
LAYER-1
  0
POLYLINE
  8
LAYER-1
 66
  1
 70
  1
 62
  0
  0
VERTEX
  8
LAYER-1
 10
2.419231
 20
9.980337
 30
0.000000
  0
VERTEX
  8
LAYER-1
 10
2.657078
 20
9.980337
 30
0.000000
  0
VERTEX
  8
LAYER-1
 10
2.657078
 20
9.463392
 30
0.000000
  0
VERTEX
  8
LAYER-1
 10
2.419231
 20
9.463392
 30
0.000000
  0
SEQEND
  8
LAYER-1
  0
POLYLINE
  8
LAYER-1
 66
  1
 70
  1
 62
  0
  0
VERTEX
  8
LAYER-1
 10
2.723050
 20
9.980337
 30
0.000000
  0
VERTEX
  8
LAYER-1
 10
2.960898
 20
9.980337
 30
0.000000
  0
VERTEX
  8
LAYER-1
 10
2.960898
 20
9.463392
 30
0.000000
  0
VERTEX
  8
LAYER-1
 10
2.723050
 20
9.463392
 30
0.000000
  0
SEQEND
  8
LAYER-1
  0
POLYLINE
  8
LAYER-1
 66
  1
 70
  1
 62
  0
  0
VERTEX
  8
LAYER-1
 10
3.039891
 20
9.976421
 30
0.000000
  0
VERTEX
  8
LAYER-1
 10
3.415325
 20
9.976421
 30
0.000000
  0
VERTEX
  8
LAYER-1
 10
3.415325
 20
9.838400
 30
0.000000
  0
VERTEX
  8
LAYER-1
 10
3.039891
 20
9.838400
 30
0.000000
  0
SEQEND
  8
LAYER-1
  0
POLYLINE
  8
LAYER-1
 66
  1
 70
  1
 62
  0
  0
VERTEX
  8
LAYER-1
 10
3.039457
 20
9.748990
 30
0.000000
  0
VERTEX
  8
LAYER-1
 10
3.347616
 20
9.748990
 30
0.000000
  0
VERTEX
  8
LAYER-1
 10
3.347616
 20
9.614876
 30
0.000000
  0
VERTEX
  8
LAYER-1
 10
3.039457
 20
9.614876
 30
0.000000
  0
SEQEND
  8
LAYER-1
  0
POLYLINE
  8
LAYER-1
 66
  1
 70
  1
 62
  0
  0
VERTEX
  8
LAYER-1
 10
1.806384
 20
9.378765
 30
0.000000
  0
VERTEX
  8
LAYER-1
 10
5.724787
 20
9.378765
 30
0.000000
  0
VERTEX
  8
LAYER-1
 10
5.724787
 20
9.335362
 30
0.000000
  0
VERTEX
  8
LAYER-1
 10
1.806384
 20
9.335362
 30
0.000000
  0
SEQEND
  8
LAYER-1
  0
POLYLINE
  8
LAYER-1
 66
  1
 70
  0
 62
  0
 10
5.777370
 20
7.423724
 30
0.000000
  0
VERTEX
  8
LAYER-1
 10
5.777370
 20
7.423724
 30
0.000000
  0
VERTEX
  8
LAYER-1
 10
1.758507
 20
7.423860
 30
0.000000
  0
VERTEX
  8
LAYER-1
 10
1.758507
 20
0.356647
 30
0.000000
  0
VERTEX
  8
LAYER-1
 10
5.777370
 20
0.356647
 30
0.000000
  0
VERTEX
  8
LAYER-1
 10
5.777370
 20
7.423860
 30
0.000000
  0
SEQEND
  8
LAYER-1
  0
POLYLINE
  8
LAYER-1
 66
  1
 70
  1
 62
  0
  0
VERTEX
  8
LAYER-1
 10
3.793519
 20
7.490284
 30
0.000000
  0
VERTEX
  8
LAYER-1
 10
3.818614
 20
7.490284
 30
0.000000
  0
VERTEX
  8
LAYER-1
 10
3.818614
 20
7.423965
 30
0.000000
  0
VERTEX
  8
LAYER-1
 10
3.793519
 20
7.423965
 30
0.000000
  0
SEQEND
  8
LAYER-1
  0
POLYLINE
  8
LAYER-1
 66
  1
 70
  1
 62
  0
  0
VERTEX
  8
LAYER-1
 10
1.831183
 20
0.670400
 30
0.000000
  0
VERTEX
  8
LAYER-1
 10
2.155815
 20
0.670400
 30
0.000000
  0
VERTEX
  8
LAYER-1
 10
2.155815
 20
0.356974
 30
0.000000
  0
VERTEX
  8
LAYER-1
 10
1.831183
 20
0.356974
 30
0.000000
  0
SEQEND
  8
LAYER-1
  0
POLYLINE
  8
LAYER-1
 66
  1
 70
  1
 62
  0
  0
VERTEX
  8
LAYER-1
 10
2.241245
 20
0.670400
 30
0.000000
  0
VERTEX
  8
LAYER-1
 10
2.565877
 20
0.670400
 30
0.000000
  0
VERTEX
  8
LAYER-1
 10
2.565877
 20
0.356974
 30
0.000000
  0
VERTEX
  8
LAYER-1
 10
2.241245
 20
0.356974
 30
0.000000
  0
SEQEND
  8
LAYER-1
  0
POLYLINE
  8
LAYER-1
 66
  1
 70
  1
 62
  0
  0
VERTEX
  8
LAYER-1
 10
2.651307
 20
0.670400
 30
0.000000
  0
VERTEX
  8
LAYER-1
 10
2.975936
 20
0.670400
 30
0.000000
  0
VERTEX
  8
LAYER-1
 10
2.975936
 20
0.356974
 30
0.000000
  0
VERTEX
  8
LAYER-1
 10
2.651307
 20
0.356974
 30
0.000000
  0
SEQEND
  8
LAYER-1
  0
POLYLINE
  8
LAYER-1
 66
  1
 70
  1
 62
  0
  0
VERTEX
  8
LAYER-1
 10
3.061367
 20
0.670400
 30
0.000000
  0
VERTEX
  8
LAYER-1
 10
3.385998
 20
0.670400
 30
0.000000
  0
VERTEX
  8
LAYER-1
 10
3.385998
 20
0.356974
 30
0.000000
  0
VERTEX
  8
LAYER-1
 10
3.061367
 20
0.356974
 30
0.000000
  0
SEQEND
  8
LAYER-1
  0
POLYLINE
  8
LAYER-1
 66
  1
 70
  1
 62
  0
  0
VERTEX
  8
LAYER-1
 10
5.380062
 20
0.670400
 30
0.000000
  0
VERTEX
  8
LAYER-1
 10
5.704693
 20
0.670400
 30
0.000000
  0
VERTEX
  8
LAYER-1
 10
5.704693
 20
0.356974
 30
0.000000
  0
VERTEX
  8
LAYER-1
 10
5.380062
 20
0.356974
 30
0.000000
  0
SEQEND
  8
LAYER-1
  0
POLYLINE
  8
LAYER-1
 66
  1
 70
  1
 62
  0
  0
VERTEX
  8
LAYER-1
 10
4.969999
 20
0.670400
 30
0.000000
  0
VERTEX
  8
LAYER-1
 10
5.294631
 20
0.670400
 30
0.000000
  0
VERTEX
  8
LAYER-1
 10
5.294631
 20
0.356974
 30
0.000000
  0
VERTEX
  8
LAYER-1
 10
4.969999
 20
0.356974
 30
0.000000
  0
SEQEND
  8
LAYER-1
  0
POLYLINE
  8
LAYER-1
 66
  1
 70
  1
 62
  0
  0
VERTEX
  8
LAYER-1
 10
4.559937
 20
0.670400
 30
0.000000
  0
VERTEX
  8
LAYER-1
 10
4.884569
 20
0.670400
 30
0.000000
  0
VERTEX
  8
LAYER-1
 10
4.884569
 20
0.356974
 30
0.000000
  0
VERTEX
  8
LAYER-1
 10
4.559937
 20
0.356974
 30
0.000000
  0
SEQEND
  8
LAYER-1
  0
POLYLINE
  8
LAYER-1
 66
  1
 70
  1
 62
  0
  0
VERTEX
  8
LAYER-1
 10
4.149875
 20
0.670400
 30
0.000000
  0
VERTEX
  8
LAYER-1
 10
4.474506
 20
0.670400
 30
0.000000
  0
VERTEX
  8
LAYER-1
 10
4.474506
 20
0.356974
 30
0.000000
  0
VERTEX
  8
LAYER-1
 10
4.149875
 20
0.356974
 30
0.000000
  0
SEQEND
  8
LAYER-1
  0
POLYLINE
  8
LAYER-1
 66
  1
 70
  1
 62
  0
  0
VERTEX
  8
LAYER-1
 10
1.831183
 20
7.423871
 30
0.000000
  0
VERTEX
  8
LAYER-1
 10
2.155815
 20
7.423871
 30
0.000000
  0
VERTEX
  8
LAYER-1
 10
2.155815
 20
7.153872
 30
0.000000
  0
VERTEX
  8
LAYER-1
 10
1.831183
 20
7.153872
 30
0.000000
  0
SEQEND
  8
LAYER-1
  0
POLYLINE
  8
LAYER-1
 66
  1
 70
  1
 62
  0
  0
VERTEX
  8
LAYER-1
 10
2.241245
 20
7.423871
 30
0.000000
  0
VERTEX
  8
LAYER-1
 10
2.565877
 20
7.423871
 30
0.000000
  0
VERTEX
  8
LAYER-1
 10
2.565877
 20
7.153872
 30
0.000000
  0
VERTEX
  8
LAYER-1
 10
2.241245
 20
7.153872
 30
0.000000
  0
SEQEND
  8
LAYER-1
  0
POLYLINE
  8
LAYER-1
 66
  1
 70
  1
 62
  0
  0
VERTEX
  8
LAYER-1
 10
2.651307
 20
7.423871
 30
0.000000
  0
VERTEX
  8
LAYER-1
 10
2.975936
 20
7.423871
 30
0.000000
  0
VERTEX
  8
LAYER-1
 10
2.975936
 20
7.153872
 30
0.000000
  0
VERTEX
  8
LAYER-1
 10
2.651307
 20
7.153872
 30
0.000000
  0
SEQEND
  8
LAYER-1
  0
POLYLINE
  8
LAYER-1
 66
  1
 70
  1
 62
  0
  0
VERTEX
  8
LAYER-1
 10
3.061367
 20
7.423871
 30
0.000000
  0
VERTEX
  8
LAYER-1
 10
3.385998
 20
7.423871
 30
0.000000
  0
VERTEX
  8
LAYER-1
 10
3.385998
 20
7.153872
 30
0.000000
  0
VERTEX
  8
LAYER-1
 10
3.061367
 20
7.153872
 30
0.000000
  0
SEQEND
  8
LAYER-1
  0
POLYLINE
  8
LAYER-1
 66
  1
 70
  0
 62
  0
 10
2.798198
 20
7.423946
 30
0.000000
  0
VERTEX
  8
LAYER-1
 10
2.798198
 20
7.423946
 30
0.000000
  0
VERTEX
  8
LAYER-1
 10
2.798198
 20
7.154416
 30
0.000000
  0
SEQEND
  8
LAYER-1
  0
POLYLINE
  8
LAYER-1
 66
  1
 70
  0
 62
  0
 10
2.835278
 20
7.423946
 30
0.000000
  0
VERTEX
  8
LAYER-1
 10
2.835278
 20
7.423946
 30
0.000000
  0
VERTEX
  8
LAYER-1
 10
2.835278
 20
7.154416
 30
0.000000
  0
SEQEND
  8
LAYER-1
  0
POLYLINE
  8
LAYER-1
 66
  1
 70
  0
 62
  0
 10
1.976532
 20
7.423946
 30
0.000000
  0
VERTEX
  8
LAYER-1
 10
1.976532
 20
7.423946
 30
0.000000
  0
VERTEX
  8
LAYER-1
 10
1.976532
 20
7.154416
 30
0.000000
  0
SEQEND
  8
LAYER-1
  0
POLYLINE
  8
LAYER-1
 66
  1
 70
  0
 62
  0
 10
2.015094
 20
7.423946
 30
0.000000
  0
VERTEX
  8
LAYER-1
 10
2.015094
 20
7.423946
 30
0.000000
  0
VERTEX
  8
LAYER-1
 10
2.015094
 20
7.154416
 30
0.000000
  0
SEQEND
  8
LAYER-1
  0
POLYLINE
  8
LAYER-1
 66
  1
 70
  1
 62
  0
  0
VERTEX
  8
LAYER-1
 10
2.172309
 20
7.429806
 30
0.000000
  0
VERTEX
  8
LAYER-1
 10
2.227185
 20
7.429806
 30
0.000000
  0
VERTEX
  8
LAYER-1
 10
2.227185
 20
7.423946
 30
0.000000
  0
VERTEX
  8
LAYER-1
 10
2.172309
 20
7.423946
 30
0.000000
  0
SEQEND
  8
LAYER-1
  0
POLYLINE
  8
LAYER-1
 66
  1
 70
  0
 62
  0
 10
2.181207
 20
7.356563
 30
0.000000
  0
VERTEX
  8
LAYER-1
 10
2.181207
 20
7.356563
 30
0.000000
  0
VERTEX
  8
LAYER-1
 10
2.216803
 20
7.356563
 30
0.000000
  0
SEQEND
  8
LAYER-1
  0
POLYLINE
  8
LAYER-1
 66
  1
 70
  0
 62
  0
 10
2.181207
 20
7.227658
 30
0.000000
  0
VERTEX
  8
LAYER-1
 10
2.181207
 20
7.227658
 30
0.000000
  0
VERTEX
  8
LAYER-1
 10
2.216803
 20
7.227658
 30
0.000000
  0
SEQEND
  8
LAYER-1
  0
POLYLINE
  8
LAYER-1
 66
  1
 70
  1
 62
  0
  0
VERTEX
  8
LAYER-1
 10
2.989523
 20
7.429806
 30
0.000000
  0
VERTEX
  8
LAYER-1
 10
3.044398
 20
7.429806
 30
0.000000
  0
VERTEX
  8
LAYER-1
 10
3.044398
 20
7.423946
 30
0.000000
  0
VERTEX
  8
LAYER-1
 10
2.989523
 20
7.423946
 30
0.000000
  0
SEQEND
  8
LAYER-1
  0
POLYLINE
  8
LAYER-1
 66
  1
 70
  0
 62
  0
 10
2.999906
 20
7.356563
 30
0.000000
  0
VERTEX
  8
LAYER-1
 10
2.999906
 20
7.356563
 30
0.000000
  0
VERTEX
  8
LAYER-1
 10
3.035500
 20
7.356563
 30
0.000000
  0
SEQEND
  8
LAYER-1
  0
POLYLINE
  8
LAYER-1
 66
  1
 70
  0
 62
  0
 10
2.999906
 20
7.227657
 30
0.000000
  0
VERTEX
  8
LAYER-1
 10
2.999906
 20
7.227657
 30
0.000000
  0
VERTEX
  8
LAYER-1
 10
3.035500
 20
7.227657
 30
0.000000
  0
SEQEND
  8
LAYER-1
  0
POLYLINE
  8
LAYER-1
 66
  1
 70
  0
 62
  0
 10
1.831183
 20
7.423871
 30
0.000000
  0
VERTEX
  8
LAYER-1
 10
1.831183
 20
7.423871
 30
0.000000
  0
VERTEX
  8
LAYER-1
 10
1.831183
 20
0.357080
 30
0.000000
  0
SEQEND
  8
LAYER-1
  0
POLYLINE
  8
LAYER-1
 66
  1
 70
  0
 62
  0
 10
2.155815
 20
7.423871
 30
0.000000
  0
VERTEX
  8
LAYER-1
 10
2.155815
 20
7.423871
 30
0.000000
  0
VERTEX
  8
LAYER-1
 10
2.155815
 20
0.357080
 30
0.000000
  0
SEQEND
  8
LAYER-1
  0
POLYLINE
  8
LAYER-1
 66
  1
 70
  0
 62
  0
 10
2.241245
 20
7.423871
 30
0.000000
  0
VERTEX
  8
LAYER-1
 10
2.241245
 20
7.423871
 30
0.000000
  0
VERTEX
  8
LAYER-1
 10
2.241245
 20
0.357080
 30
0.000000
  0
SEQEND
  8
LAYER-1
  0
POLYLINE
  8
LAYER-1
 66
  1
 70
  0
 62
  0
 10
2.181207
 20
7.423871
 30
0.000000
  0
VERTEX
  8
LAYER-1
 10
2.181207
 20
7.423871
 30
0.000000
  0
VERTEX
  8
LAYER-1
 10
2.181207
 20
0.357080
 30
0.000000
  0
SEQEND
  8
LAYER-1
  0
POLYLINE
  8
LAYER-1
 66
  1
 70
  0
 62
  0
 10
2.216803
 20
7.423871
 30
0.000000
  0
VERTEX
  8
LAYER-1
 10
2.216803
 20
7.423871
 30
0.000000
  0
VERTEX
  8
LAYER-1
 10
2.216803
 20
0.357080
 30
0.000000
  0
SEQEND
  8
LAYER-1
  0
POLYLINE
  8
LAYER-1
 66
  1
 70
  1
 62
  0
  0
VERTEX
  8
LAYER-1
 10
2.170824
 20
0.357156
 30
0.000000
  0
VERTEX
  8
LAYER-1
 10
2.225700
 20
0.357156
 30
0.000000
  0
VERTEX
  8
LAYER-1
 10
2.225700
 20
0.351296
 30
0.000000
  0
VERTEX
  8
LAYER-1
 10
2.170824
 20
0.351296
 30
0.000000
  0
SEQEND
  8
LAYER-1
  0
POLYLINE
  8
LAYER-1
 66
  1
 70
  0
 62
  0
 10
2.216803
 20
0.430398
 30
0.000000
  0
VERTEX
  8
LAYER-1
 10
2.216803
 20
0.430398
 30
0.000000
  0
VERTEX
  8
LAYER-1
 10
2.181207
 20
0.430398
 30
0.000000
  0
SEQEND
  8
LAYER-1
  0
POLYLINE
  8
LAYER-1
 66
  1
 70
  0
 62
  0
 10
2.216803
 20
0.559304
 30
0.000000
  0
VERTEX
  8
LAYER-1
 10
2.216803
 20
0.559304
 30
0.000000
  0
VERTEX
  8
LAYER-1
 10
2.181207
 20
0.559304
 30
0.000000
  0
SEQEND
  8
LAYER-1
  0
POLYLINE
  8
LAYER-1
 66
  1
 70
  0
 62
  0
 10
2.181207
 20
0.634288
 30
0.000000
  0
VERTEX
  8
LAYER-1
 10
2.181207
 20
0.634288
 30
0.000000
  0
VERTEX
  8
LAYER-1
 10
2.216803
 20
0.634288
 30
0.000000
  0
SEQEND
  8
LAYER-1
  0
POLYLINE
  8
LAYER-1
 66
  1
 70
  0
 62
  0
 10
2.181207
 20
1.480968
 30
0.000000
  0
VERTEX
  8
LAYER-1
 10
2.181207
 20
1.480968
 30
0.000000
  0
VERTEX
  8
LAYER-1
 10
2.216803
 20
1.480968
 30
0.000000
  0
SEQEND
  8
LAYER-1
  0
POLYLINE
  8
LAYER-1
 66
  1
 70
  0
 62
  0
 10
2.181207
 20
2.318857
 30
0.000000
  0
VERTEX
  8
LAYER-1
 10
2.181207
 20
2.318857
 30
0.000000
  0
VERTEX
  8
LAYER-1
 10
2.216803
 20
2.318857
 30
0.000000
  0
SEQEND
  8
LAYER-1
  0
POLYLINE
  8
LAYER-1
 66
  1
 70
  0
 62
  0
 10
2.181207
 20
3.168460
 30
0.000000
  0
VERTEX
  8
LAYER-1
 10
2.181207
 20
3.168460
 30
0.000000
  0
VERTEX
  8
LAYER-1
 10
2.216803
 20
3.168460
 30
0.000000
  0
SEQEND
  8
LAYER-1
  0
POLYLINE
  8
LAYER-1
 66
  1
 70
  0
 62
  0
 10
2.216803
 20
4.010746
 30
0.000000
  0
VERTEX
  8
LAYER-1
 10
2.216803
 20
4.010746
 30
0.000000
  0
VERTEX
  8
LAYER-1
 10
2.181207
 20
4.010746
 30
0.000000
  0
SEQEND
  8
LAYER-1
  0
POLYLINE
  8
LAYER-1
 66
  1
 70
  1
 62
  0
  0
VERTEX
  8
LAYER-1
 10
1.831183
 20
3.949100
 30
0.000000
  0
VERTEX
  8
LAYER-1
 10
2.155993
 20
3.949100
 30
0.000000
  0
VERTEX
  8
LAYER-1
 10
2.155993
 20
3.872929
 30
0.000000
  0
VERTEX
  8
LAYER-1
 10
1.831183
 20
3.872929
 30
0.000000
  0
SEQEND
  8
LAYER-1
  0
POLYLINE
  8
LAYER-1
 66
  1
 70
  1
 62
  0
  0
VERTEX
  8
LAYER-1
 10
2.241245
 20
3.949100
 30
0.000000
  0
VERTEX
  8
LAYER-1
 10
2.566055
 20
3.949100
 30
0.000000
  0
VERTEX
  8
LAYER-1
 10
2.566055
 20
3.872929
 30
0.000000
  0
VERTEX
  8
LAYER-1
 10
2.241245
 20
3.872929
 30
0.000000
  0
SEQEND
  8
LAYER-1
  0
POLYLINE
  8
LAYER-1
 66
  1
 70
  1
 62
  0
  0
VERTEX
  8
LAYER-1
 10
2.651307
 20
3.949100
 30
0.000000
  0
VERTEX
  8
LAYER-1
 10
2.976113
 20
3.949100
 30
0.000000
  0
VERTEX
  8
LAYER-1
 10
2.976113
 20
3.872929
 30
0.000000
  0
VERTEX
  8
LAYER-1
 10
2.651307
 20
3.872929
 30
0.000000
  0
SEQEND
  8
LAYER-1
  0
POLYLINE
  8
LAYER-1
 66
  1
 70
  1
 62
  0
  0
VERTEX
  8
LAYER-1
 10
3.061367
 20
3.949100
 30
0.000000
  0
VERTEX
  8
LAYER-1
 10
3.386175
 20
3.949100
 30
0.000000
  0
VERTEX
  8
LAYER-1
 10
3.386175
 20
3.872929
 30
0.000000
  0
VERTEX
  8
LAYER-1
 10
3.061367
 20
3.872929
 30
0.000000
  0
SEQEND
  8
LAYER-1
  0
POLYLINE
  8
LAYER-1
 66
  1
 70
  1
 62
  0
  0
VERTEX
  8
LAYER-1
 10
5.379884
 20
3.949100
 30
0.000000
  0
VERTEX
  8
LAYER-1
 10
5.704693
 20
3.949100
 30
0.000000
  0
VERTEX
  8
LAYER-1
 10
5.704693
 20
3.872929
 30
0.000000
  0
VERTEX
  8
LAYER-1
 10
5.379884
 20
3.872929
 30
0.000000
  0
SEQEND
  8
LAYER-1
  0
POLYLINE
  8
LAYER-1
 66
  1
 70
  1
 62
  0
  0
VERTEX
  8
LAYER-1
 10
4.969822
 20
3.949100
 30
0.000000
  0
VERTEX
  8
LAYER-1
 10
5.294631
 20
3.949100
 30
0.000000
  0
VERTEX
  8
LAYER-1
 10
5.294631
 20
3.872929
 30
0.000000
  0
VERTEX
  8
LAYER-1
 10
4.969822
 20
3.872929
 30
0.000000
  0
SEQEND
  8
LAYER-1
  0
POLYLINE
  8
LAYER-1
 66
  1
 70
  1
 62
  0
  0
VERTEX
  8
LAYER-1
 10
4.559760
 20
3.949100
 30
0.000000
  0
VERTEX
  8
LAYER-1
 10
4.884569
 20
3.949100
 30
0.000000
  0
VERTEX
  8
LAYER-1
 10
4.884569
 20
3.872929
 30
0.000000
  0
VERTEX
  8
LAYER-1
 10
4.559760
 20
3.872929
 30
0.000000
  0
SEQEND
  8
LAYER-1
  0
POLYLINE
  8
LAYER-1
 66
  1
 70
  1
 62
  0
  0
VERTEX
  8
LAYER-1
 10
4.149698
 20
3.949100
 30
0.000000
  0
VERTEX
  8
LAYER-1
 10
4.474506
 20
3.949100
 30
0.000000
  0
VERTEX
  8
LAYER-1
 10
4.474506
 20
3.872929
 30
0.000000
  0
VERTEX
  8
LAYER-1
 10
4.149698
 20
3.872929
 30
0.000000
  0
SEQEND
  8
LAYER-1
  0
POLYLINE
  8
LAYER-1
 66
  1
 70
  1
 62
  0
  0
VERTEX
  8
LAYER-1
 10
1.831123
 20
7.136246
 30
0.000000
  0
VERTEX
  8
LAYER-1
 10
2.155809
 20
7.136246
 30
0.000000
  0
VERTEX
  8
LAYER-1
 10
2.155809
 20
3.968114
 30
0.000000
  0
VERTEX
  8
LAYER-1
 10
1.831123
 20
3.968114
 30
0.000000
  0
SEQEND
  8
LAYER-1
  0
POLYLINE
  8
LAYER-1
 66
  1
 70
  1
 62
  0
  0
VERTEX
  8
LAYER-1
 10
2.241280
 20
7.136246
 30
0.000000
  0
VERTEX
  8
LAYER-1
 10
2.565872
 20
7.136246
 30
0.000000
  0
VERTEX
  8
LAYER-1
 10
2.565872
 20
3.967680
 30
0.000000
  0
VERTEX
  8
LAYER-1
 10
2.241280
 20
3.967680
 30
0.000000
  0
SEQEND
  8
LAYER-1
  0
POLYLINE
  8
LAYER-1
 66
  1
 70
  1
 62
  0
  0
VERTEX
  8
LAYER-1
 10
2.651436
 20
7.136246
 30
0.000000
  0
VERTEX
  8
LAYER-1
 10
2.975930
 20
7.136246
 30
0.000000
  0
VERTEX
  8
LAYER-1
 10
2.975930
 20
3.968114
 30
0.000000
  0
VERTEX
  8
LAYER-1
 10
2.651436
 20
3.968114
 30
0.000000
  0
SEQEND
  8
LAYER-1
  0
POLYLINE
  8
LAYER-1
 66
  1
 70
  1
 62
  0
  0
VERTEX
  8
LAYER-1
 10
3.061158
 20
7.136246
 30
0.000000
  0
VERTEX
  8
LAYER-1
 10
3.385992
 20
7.136246
 30
0.000000
  0
VERTEX
  8
LAYER-1
 10
3.385992
 20
3.968114
 30
0.000000
  0
VERTEX
  8
LAYER-1
 10
3.061158
 20
3.968114
 30
0.000000
  0
SEQEND
  8
LAYER-1
  0
POLYLINE
  8
LAYER-1
 66
  1
 70
  1
 62
  0
  0
VERTEX
  8
LAYER-1
 10
5.380067
 20
7.136245
 30
0.000000
  0
VERTEX
  8
LAYER-1
 10
5.704259
 20
7.136245
 30
0.000000
  0
VERTEX
  8
LAYER-1
 10
5.704259
 20
3.967936
 30
0.000000
  0
VERTEX
  8
LAYER-1
 10
5.380067
 20
3.967936
 30
0.000000
  0
SEQEND
  8
LAYER-1
  0
POLYLINE
  8
LAYER-1
 66
  1
 70
  1
 62
  0
  0
VERTEX
  8
LAYER-1
 10
4.970005
 20
7.136245
 30
0.000000
  0
VERTEX
  8
LAYER-1
 10
5.294196
 20
7.136245
 30
0.000000
  0
VERTEX
  8
LAYER-1
 10
5.294196
 20
3.967936
 30
0.000000
  0
VERTEX
  8
LAYER-1
 10
4.970005
 20
3.967936
 30
0.000000
  0
SEQEND
  8
LAYER-1
  0
POLYLINE
  8
LAYER-1
 66
  1
 70
  1
 62
  0
  0
VERTEX
  8
LAYER-1
 10
4.559942
 20
7.136245
 30
0.000000
  0
VERTEX
  8
LAYER-1
 10
4.884134
 20
7.136245
 30
0.000000
  0
VERTEX
  8
LAYER-1
 10
4.884134
 20
3.967936
 30
0.000000
  0
VERTEX
  8
LAYER-1
 10
4.559942
 20
3.967936
 30
0.000000
  0
SEQEND
  8
LAYER-1
  0
POLYLINE
  8
LAYER-1
 66
  1
 70
  1
 62
  0
  0
VERTEX
  8
LAYER-1
 10
4.149881
 20
7.136245
 30
0.000000
  0
VERTEX
  8
LAYER-1
 10
4.474072
 20
7.136245
 30
0.000000
  0
VERTEX
  8
LAYER-1
 10
4.474072
 20
3.967936
 30
0.000000
  0
VERTEX
  8
LAYER-1
 10
4.149881
 20
3.967936
 30
0.000000
  0
SEQEND
  8
LAYER-1
  0
POLYLINE
  8
LAYER-1
 66
  1
 70
  1
 62
  0
  0
VERTEX
  8
LAYER-1
 10
1.831183
 20
3.854994
 30
0.000000
  0
VERTEX
  8
LAYER-1
 10
2.155809
 20
3.854994
 30
0.000000
  0
VERTEX
  8
LAYER-1
 10
2.155809
 20
0.687970
 30
0.000000
  0
VERTEX
  8
LAYER-1
 10
1.831183
 20
0.687970
 30
0.000000
  0
SEQEND
  8
LAYER-1
  0
POLYLINE
  8
LAYER-1
 66
  1
 70
  1
 62
  0
  0
VERTEX
  8
LAYER-1
 10
2.241183
 20
3.854994
 30
0.000000
  0
VERTEX
  8
LAYER-1
 10
2.565809
 20
3.854994
 30
0.000000
  0
VERTEX
  8
LAYER-1
 10
2.565809
 20
0.687970
 30
0.000000
  0
VERTEX
  8
LAYER-1
 10
2.241183
 20
0.687970
 30
0.000000
  0
SEQEND
  8
LAYER-1
  0
POLYLINE
  8
LAYER-1
 66
  1
 70
  1
 62
  0
  0
VERTEX
  8
LAYER-1
 10
2.651183
 20
3.854994
 30
0.000000
  0
VERTEX
  8
LAYER-1
 10
2.975810
 20
3.854994
 30
0.000000
  0
VERTEX
  8
LAYER-1
 10
2.975810
 20
0.688405
 30
0.000000
  0
VERTEX
  8
LAYER-1
 10
2.651183
 20
0.688405
 30
0.000000
  0
SEQEND
  8
LAYER-1
  0
POLYLINE
  8
LAYER-1
 66
  1
 70
  1
 62
  0
  0
VERTEX
  8
LAYER-1
 10
3.061183
 20
3.854994
 30
0.000000
  0
VERTEX
  8
LAYER-1
 10
3.385810
 20
3.854994
 30
0.000000
  0
VERTEX
  8
LAYER-1
 10
3.385810
 20
0.687970
 30
0.000000
  0
VERTEX
  8
LAYER-1
 10
3.061183
 20
0.687970
 30
0.000000
  0
SEQEND
  8
LAYER-1
  0
LINE
  8
LAYER-1
 62
  0
 10
1.904080
 20
4.307436
 30
0.000000
 11
2.040170
 21
4.545171
 31
0.000000
  0
LINE
  8
LAYER-1
 62
  0
 10
1.960715
 20
4.275016
 30
0.000000
 11
2.096805
 21
4.512750
 31
0.000000
  0
LINE
  8
LAYER-1
 62
  0
 10
2.314142
 20
4.307436
 30
0.000000
 11
2.450232
 21
4.545171
 31
0.000000
  0
LINE
  8
LAYER-1
 62
  0
 10
2.370777
 20
4.275016
 30
0.000000
 11
2.506868
 21
4.512750
 31
0.000000
  0
LINE
  8
LAYER-1
 62
  0
 10
2.724206
 20
4.307436
 30
0.000000
 11
2.860291
 21
4.545171
 31
0.000000
  0
LINE
  8
LAYER-1
 62
  0
 10
2.780841
 20
4.275016
 30
0.000000
 11
2.916927
 21
4.512751
 31
0.000000
  0
LINE
  8
LAYER-1
 62
  0
 10
3.134265
 20
4.307436
 30
0.000000
 11
3.270352
 21
4.545171
 31
0.000000
  0
LINE
  8
LAYER-1
 62
  0
 10
3.190901
 20
4.275016
 30
0.000000
 11
3.326988
 21
4.512751
 31
0.000000
  0
LINE
  8
LAYER-1
 62
  0
 10
1.902235
 20
3.277610
 30
0.000000
 11
2.038326
 21
3.515347
 31
0.000000
  0
LINE
  8
LAYER-1
 62
  0
 10
1.958871
 20
3.245189
 30
0.000000
 11
2.094961
 21
3.482926
 31
0.000000
  0
LINE
  8
LAYER-1
 62
  0
 10
2.312298
 20
3.277610
 30
0.000000
 11
2.448387
 21
3.515347
 31
0.000000
  0
LINE
  8
LAYER-1
 62
  0
 10
2.368933
 20
3.245189
 30
0.000000
 11
2.505023
 21
3.482926
 31
0.000000
  0
LINE
  8
LAYER-1
 62
  0
 10
2.722360
 20
3.277610
 30
0.000000
 11
2.858447
 21
3.515346
 31
0.000000
  0
LINE
  8
LAYER-1
 62
  0
 10
2.778996
 20
3.245190
 30
0.000000
 11
2.915083
 21
3.482926
 31
0.000000
  0
LINE
  8
LAYER-1
 62
  0
 10
3.132419
 20
3.277610
 30
0.000000
 11
3.268508
 21
3.515347
 31
0.000000
  0
LINE
  8
LAYER-1
 62
  0
 10
3.189055
 20
3.245189
 30
0.000000
 11
3.325144
 21
3.482926
 31
0.000000
  0
LINE
  8
LAYER-1
 62
  0
 10
1.903720
 20
6.694551
 30
0.000000
 11
2.039808
 21
6.932286
 31
0.000000
  0
LINE
  8
LAYER-1
 62
  0
 10
1.960356
 20
6.662131
 30
0.000000
 11
2.096444
 21
6.899865
 31
0.000000
  0
LINE
  8
LAYER-1
 62
  0
 10
2.313782
 20
6.694551
 30
0.000000
 11
2.449871
 21
6.932286
 31
0.000000
  0
LINE
  8
LAYER-1
 62
  0
 10
2.370418
 20
6.662131
 30
0.000000
 11
2.506506
 21
6.899865
 31
0.000000
  0
LINE
  8
LAYER-1
 62
  0
 10
2.723844
 20
6.694551
 30
0.000000
 11
2.859930
 21
6.932286
 31
0.000000
  0
LINE
  8
LAYER-1
 62
  0
 10
2.780480
 20
6.662131
 30
0.000000
 11
2.916566
 21
6.899866
 31
0.000000
  0
LINE
  8
LAYER-1
 62
  0
 10
3.133904
 20
6.694551
 30
0.000000
 11
3.269991
 21
6.932286
 31
0.000000
  0
LINE
  8
LAYER-1
 62
  0
 10
3.190539
 20
6.662131
 30
0.000000
 11
3.326626
 21
6.899865
 31
0.000000
  0
LINE
  8
LAYER-1
 62
  0
 10
1.901876
 20
1.053762
 30
0.000000
 11
2.037964
 21
1.291496
 31
0.000000
  0
LINE
  8
LAYER-1
 62
  0
 10
1.958511
 20
1.021341
 30
0.000000
 11
2.094599
 21
1.259076
 31
0.000000
  0
LINE
  8
LAYER-1
 62
  0
 10
2.311938
 20
1.053762
 30
0.000000
 11
2.448026
 21
1.291496
 31
0.000000
  0
LINE
  8
LAYER-1
 62
  0
 10
2.368573
 20
1.021341
 30
0.000000
 11
2.504662
 21
1.259076
 31
0.000000
  0
LINE
  8
LAYER-1
 62
  0
 10
2.722000
 20
1.053762
 30
0.000000
 11
2.858087
 21
1.291496
 31
0.000000
  0
LINE
  8
LAYER-1
 62
  0
 10
2.778636
 20
1.021341
 30
0.000000
 11
2.914723
 21
1.259076
 31
0.000000
  0
LINE
  8
LAYER-1
 62
  0
 10
3.132060
 20
1.053762
 30
0.000000
 11
3.268149
 21
1.291496
 31
0.000000
  0
LINE
  8
LAYER-1
 62
  0
 10
3.188695
 20
1.021341
 30
0.000000
 11
3.324784
 21
1.259076
 31
0.000000
  0
POLYLINE
  8
LAYER-1
 66
  1
 70
  0
 62
  0
 10
2.565877
 20
7.423871
 30
0.000000
  0
VERTEX
  8
LAYER-1
 10
2.565877
 20
7.423871
 30
0.000000
  0
VERTEX
  8
LAYER-1
 10
2.565877
 20
0.357080
 30
0.000000
  0
SEQEND
  8
LAYER-1
  0
POLYLINE
  8
LAYER-1
 66
  1
 70
  0
 62
  0
 10
2.651307
 20
7.423871
 30
0.000000
  0
VERTEX
  8
LAYER-1
 10
2.651307
 20
7.423871
 30
0.000000
  0
VERTEX
  8
LAYER-1
 10
2.651307
 20
0.357080
 30
0.000000
  0
SEQEND
  8
LAYER-1
  0
POLYLINE
  8
LAYER-1
 66
  1
 70
  0
 62
  0
 10
2.975936
 20
7.423871
 30
0.000000
  0
VERTEX
  8
LAYER-1
 10
2.975936
 20
7.423871
 30
0.000000
  0
VERTEX
  8
LAYER-1
 10
2.975936
 20
0.357080
 30
0.000000
  0
SEQEND
  8
LAYER-1
  0
POLYLINE
  8
LAYER-1
 66
  1
 70
  0
 62
  0
 10
3.061367
 20
7.423871
 30
0.000000
  0
VERTEX
  8
LAYER-1
 10
3.061367
 20
7.423871
 30
0.000000
  0
VERTEX
  8
LAYER-1
 10
3.061367
 20
0.357080
 30
0.000000
  0
SEQEND
  8
LAYER-1
  0
POLYLINE
  8
LAYER-1
 66
  1
 70
  0
 62
  0
 10
3.385998
 20
7.423871
 30
0.000000
  0
VERTEX
  8
LAYER-1
 10
3.385998
 20
7.423871
 30
0.000000
  0
VERTEX
  8
LAYER-1
 10
3.385998
 20
0.357080
 30
0.000000
  0
SEQEND
  8
LAYER-1
  0
POLYLINE
  8
LAYER-1
 66
  1
 70
  0
 62
  0
 10
3.468579
 20
7.423871
 30
0.000000
  0
VERTEX
  8
LAYER-1
 10
3.468579
 20
7.423871
 30
0.000000
  0
VERTEX
  8
LAYER-1
 10
3.468579
 20
0.357080
 30
0.000000
  0
SEQEND
  8
LAYER-1
  0
POLYLINE
  8
LAYER-1
 66
  1
 70
  0
 62
  0
 10
1.795588
 20
7.423871
 30
0.000000
  0
VERTEX
  8
LAYER-1
 10
1.795588
 20
7.423871
 30
0.000000
  0
VERTEX
  8
LAYER-1
 10
1.795588
 20
0.357080
 30
0.000000
  0
SEQEND
  8
LAYER-1
  0
POLYLINE
  8
LAYER-1
 66
  1
 70
  0
 62
  0
 10
2.608355
 20
7.423871
 30
0.000000
  0
VERTEX
  8
LAYER-1
 10
2.608355
 20
7.423871
 30
0.000000
  0
VERTEX
  8
LAYER-1
 10
2.608355
 20
0.357080
 30
0.000000
  0
SEQEND
  8
LAYER-1
  0
POLYLINE
  8
LAYER-1
 66
  1
 70
  0
 62
  0
 10
2.999906
 20
7.423871
 30
0.000000
  0
VERTEX
  8
LAYER-1
 10
2.999906
 20
7.423871
 30
0.000000
  0
VERTEX
  8
LAYER-1
 10
2.999906
 20
0.357080
 30
0.000000
  0
SEQEND
  8
LAYER-1
  0
POLYLINE
  8
LAYER-1
 66
  1
 70
  0
 62
  0
 10
3.035500
 20
7.423871
 30
0.000000
  0
VERTEX
  8
LAYER-1
 10
3.035500
 20
7.423871
 30
0.000000
  0
VERTEX
  8
LAYER-1
 10
3.035500
 20
0.357080
 30
0.000000
  0
SEQEND
  8
LAYER-1
  0
POLYLINE
  8
LAYER-1
 66
  1
 70
  0
 62
  0
 10
3.427052
 20
7.423871
 30
0.000000
  0
VERTEX
  8
LAYER-1
 10
3.427052
 20
7.423871
 30
0.000000
  0
VERTEX
  8
LAYER-1
 10
3.427052
 20
0.357080
 30
0.000000
  0
SEQEND
  8
LAYER-1
  0
POLYLINE
  8
LAYER-1
 66
  1
 70
  1
 62
  0
  0
VERTEX
  8
LAYER-1
 10
2.988038
 20
0.357156
 30
0.000000
  0
VERTEX
  8
LAYER-1
 10
3.042915
 20
0.357156
 30
0.000000
  0
VERTEX
  8
LAYER-1
 10
3.042915
 20
0.351296
 30
0.000000
  0
VERTEX
  8
LAYER-1
 10
2.988038
 20
0.351296
 30
0.000000
  0
SEQEND
  8
LAYER-1
  0
POLYLINE
  8
LAYER-1
 66
  1
 70
  0
 62
  0
 10
3.035500
 20
0.430398
 30
0.000000
  0
VERTEX
  8
LAYER-1
 10
3.035500
 20
0.430398
 30
0.000000
  0
VERTEX
  8
LAYER-1
 10
2.999906
 20
0.430398
 30
0.000000
  0
SEQEND
  8
LAYER-1
  0
POLYLINE
  8
LAYER-1
 66
  1
 70
  0
 62
  0
 10
3.035500
 20
0.559304
 30
0.000000
  0
VERTEX
  8
LAYER-1
 10
3.035500
 20
0.559304
 30
0.000000
  0
VERTEX
  8
LAYER-1
 10
2.999906
 20
0.559304
 30
0.000000
  0
SEQEND
  8
LAYER-1
  0
POLYLINE
  8
LAYER-1
 66
  1
 70
  0
 62
  0
 10
2.999906
 20
0.634288
 30
0.000000
  0
VERTEX
  8
LAYER-1
 10
2.999906
 20
0.634288
 30
0.000000
  0
VERTEX
  8
LAYER-1
 10
3.035500
 20
0.634288
 30
0.000000
  0
SEQEND
  8
LAYER-1
  0
POLYLINE
  8
LAYER-1
 66
  1
 70
  0
 62
  0
 10
2.999906
 20
1.480968
 30
0.000000
  0
VERTEX
  8
LAYER-1
 10
2.999906
 20
1.480968
 30
0.000000
  0
VERTEX
  8
LAYER-1
 10
3.035500
 20
1.480968
 30
0.000000
  0
SEQEND
  8
LAYER-1
  0
POLYLINE
  8
LAYER-1
 66
  1
 70
  0
 62
  0
 10
2.999906
 20
2.318857
 30
0.000000
  0
VERTEX
  8
LAYER-1
 10
2.999906
 20
2.318857
 30
0.000000
  0
VERTEX
  8
LAYER-1
 10
3.035500
 20
2.318857
 30
0.000000
  0
SEQEND
  8
LAYER-1
  0
POLYLINE
  8
LAYER-1
 66
  1
 70
  0
 62
  0
 10
2.999906
 20
3.168460
 30
0.000000
  0
VERTEX
  8
LAYER-1
 10
2.999906
 20
3.168460
 30
0.000000
  0
VERTEX
  8
LAYER-1
 10
3.035500
 20
3.168460
 30
0.000000
  0
SEQEND
  8
LAYER-1
  0
POLYLINE
  8
LAYER-1
 66
  1
 70
  0
 62
  0
 10
3.035500
 20
4.010746
 30
0.000000
  0
VERTEX
  8
LAYER-1
 10
3.035500
 20
4.010746
 30
0.000000
  0
VERTEX
  8
LAYER-1
 10
2.999906
 20
4.010746
 30
0.000000
  0
SEQEND
  8
LAYER-1
  0
POLYLINE
  8
LAYER-1
 66
  1
 70
  0
 62
  0
 10
2.181858
 20
4.861746
 30
0.000000
  0
VERTEX
  8
LAYER-1
 10
2.181858
 20
4.861746
 30
0.000000
  0
VERTEX
  8
LAYER-1
 10
2.217455
 20
4.861746
 30
0.000000
  0
SEQEND
  8
LAYER-1
  0
POLYLINE
  8
LAYER-1
 66
  1
 70
  0
 62
  0
 10
2.181858
 20
5.705495
 30
0.000000
  0
VERTEX
  8
LAYER-1
 10
2.181858
 20
5.705495
 30
0.000000
  0
VERTEX
  8
LAYER-1
 10
2.217455
 20
5.705495
 30
0.000000
  0
SEQEND
  8
LAYER-1
  0
POLYLINE
  8
LAYER-1
 66
  1
 70
  0
 62
  0
 10
2.181858
 20
6.550714
 30
0.000000
  0
VERTEX
  8
LAYER-1
 10
2.181858
 20
6.550714
 30
0.000000
  0
VERTEX
  8
LAYER-1
 10
2.217455
 20
6.550714
 30
0.000000
  0
SEQEND
  8
LAYER-1
  0
POLYLINE
  8
LAYER-1
 66
  1
 70
  0
 62
  0
 10
2.999729
 20
6.550714
 30
0.000000
  0
VERTEX
  8
LAYER-1
 10
2.999729
 20
6.550714
 30
0.000000
  0
VERTEX
  8
LAYER-1
 10
3.035323
 20
6.550714
 30
0.000000
  0
SEQEND
  8
LAYER-1
  0
POLYLINE
  8
LAYER-1
 66
  1
 70
  0
 62
  0
 10
3.647862
 20
6.550638
 30
0.000000
  0
VERTEX
  8
LAYER-1
 10
3.647862
 20
6.550638
 30
0.000000
  0
VERTEX
  8
LAYER-1
 10
3.683457
 20
6.550638
 30
0.000000
  0
SEQEND
  8
LAYER-1
  0
POLYLINE
  8
LAYER-1
 66
  1
 70
  0
 62
  0
 10
5.354019
 20
6.550714
 30
0.000000
  0
VERTEX
  8
LAYER-1
 10
5.354019
 20
6.550714
 30
0.000000
  0
VERTEX
  8
LAYER-1
 10
5.318424
 20
6.550714
 30
0.000000
  0
SEQEND
  8
LAYER-1
  0
POLYLINE
  8
LAYER-1
 66
  1
 70
  0
 62
  0
 10
4.536144
 20
6.550714
 30
0.000000
  0
VERTEX
  8
LAYER-1
 10
4.536144
 20
6.550714
 30
0.000000
  0
VERTEX
  8
LAYER-1
 10
4.500553
 20
6.550714
 30
0.000000
  0
SEQEND
  8
LAYER-1
  0
POLYLINE
  8
LAYER-1
 66
  1
 70
  0
 62
  0
 10
3.888006
 20
6.550638
 30
0.000000
  0
VERTEX
  8
LAYER-1
 10
3.888006
 20
6.550638
 30
0.000000
  0
VERTEX
  8
LAYER-1
 10
3.852414
 20
6.550638
 30
0.000000
  0
SEQEND
  8
LAYER-1
  0
POLYLINE
  8
LAYER-1
 66
  1
 70
  0
 62
  0
 10
2.999729
 20
4.861746
 30
0.000000
  0
VERTEX
  8
LAYER-1
 10
2.999729
 20
4.861746
 30
0.000000
  0
VERTEX
  8
LAYER-1
 10
3.035323
 20
4.861746
 30
0.000000
  0
SEQEND
  8
LAYER-1
  0
POLYLINE
  8
LAYER-1
 66
  1
 70
  0
 62
  0
 10
2.999729
 20
5.705495
 30
0.000000
  0
VERTEX
  8
LAYER-1
 10
2.999729
 20
5.705495
 30
0.000000
  0
VERTEX
  8
LAYER-1
 10
3.035323
 20
5.705495
 30
0.000000
  0
SEQEND
  8
LAYER-1
  0
POLYLINE
  8
LAYER-1
 66
  1
 70
  1
 62
  0
  0
VERTEX
  8
LAYER-1
 10
3.637657
 20
7.429730
 30
0.000000
  0
VERTEX
  8
LAYER-1
 10
3.692534
 20
7.429730
 30
0.000000
  0
VERTEX
  8
LAYER-1
 10
3.692534
 20
7.423870
 30
0.000000
  0
VERTEX
  8
LAYER-1
 10
3.637657
 20
7.423870
 30
0.000000
  0
SEQEND
  8
LAYER-1
  0
POLYLINE
  8
LAYER-1
 66
  1
 70
  0
 62
  0
 10
3.648040
 20
7.356487
 30
0.000000
  0
VERTEX
  8
LAYER-1
 10
3.648040
 20
7.356487
 30
0.000000
  0
VERTEX
  8
LAYER-1
 10
3.683634
 20
7.356487
 30
0.000000
  0
SEQEND
  8
LAYER-1
  0
POLYLINE
  8
LAYER-1
 66
  1
 70
  0
 62
  0
 10
3.648040
 20
7.227580
 30
0.000000
  0
VERTEX
  8
LAYER-1
 10
3.648040
 20
7.227580
 30
0.000000
  0
VERTEX
  8
LAYER-1
 10
3.683634
 20
7.227580
 30
0.000000
  0
SEQEND
  8
LAYER-1
  0
POLYLINE
  8
LAYER-1
 66
  1
 70
  0
 62
  0
 10
3.648040
 20
7.423795
 30
0.000000
  0
VERTEX
  8
LAYER-1
 10
3.648040
 20
7.423795
 30
0.000000
  0
VERTEX
  8
LAYER-1
 10
3.648040
 20
0.357080
 30
0.000000
  0
SEQEND
  8
LAYER-1
  0
POLYLINE
  8
LAYER-1
 66
  1
 70
  0
 62
  0
 10
3.683634
 20
0.430321
 30
0.000000
  0
VERTEX
  8
LAYER-1
 10
3.683634
 20
0.430321
 30
0.000000
  0
VERTEX
  8
LAYER-1
 10
3.648040
 20
0.430321
 30
0.000000
  0
SEQEND
  8
LAYER-1
  0
POLYLINE
  8
LAYER-1
 66
  1
 70
  0
 62
  0
 10
3.683634
 20
0.559227
 30
0.000000
  0
VERTEX
  8
LAYER-1
 10
3.683634
 20
0.559227
 30
0.000000
  0
VERTEX
  8
LAYER-1
 10
3.648040
 20
0.559227
 30
0.000000
  0
SEQEND
  8
LAYER-1
  0
POLYLINE
  8
LAYER-1
 66
  1
 70
  0
 62
  0
 10
3.648040
 20
0.634210
 30
0.000000
  0
VERTEX
  8
LAYER-1
 10
3.648040
 20
0.634210
 30
0.000000
  0
VERTEX
  8
LAYER-1
 10
3.683636
 20
0.634210
 30
0.000000
  0
SEQEND
  8
LAYER-1
  0
POLYLINE
  8
LAYER-1
 66
  1
 70
  0
 62
  0
 10
3.648040
 20
1.480892
 30
0.000000
  0
VERTEX
  8
LAYER-1
 10
3.648040
 20
1.480892
 30
0.000000
  0
VERTEX
  8
LAYER-1
 10
3.683636
 20
1.480892
 30
0.000000
  0
SEQEND
  8
LAYER-1
  0
POLYLINE
  8
LAYER-1
 66
  1
 70
  0
 62
  0
 10
3.648040
 20
2.318780
 30
0.000000
  0
VERTEX
  8
LAYER-1
 10
3.648040
 20
2.318780
 30
0.000000
  0
VERTEX
  8
LAYER-1
 10
3.683636
 20
2.318780
 30
0.000000
  0
SEQEND
  8
LAYER-1
  0
POLYLINE
  8
LAYER-1
 66
  1
 70
  0
 62
  0
 10
3.648040
 20
3.168384
 30
0.000000
  0
VERTEX
  8
LAYER-1
 10
3.648040
 20
3.168384
 30
0.000000
  0
VERTEX
  8
LAYER-1
 10
3.683636
 20
3.168384
 30
0.000000
  0
SEQEND
  8
LAYER-1
  0
POLYLINE
  8
LAYER-1
 66
  1
 70
  0
 62
  0
 10
3.683636
 20
4.010669
 30
0.000000
  0
VERTEX
  8
LAYER-1
 10
3.683636
 20
4.010669
 30
0.000000
  0
VERTEX
  8
LAYER-1
 10
3.648040
 20
4.010669
 30
0.000000
  0
SEQEND
  8
LAYER-1
  0
POLYLINE
  8
LAYER-1
 66
  1
 70
  0
 62
  0
 10
3.647862
 20
4.861670
 30
0.000000
  0
VERTEX
  8
LAYER-1
 10
3.647862
 20
4.861670
 30
0.000000
  0
VERTEX
  8
LAYER-1
 10
3.683457
 20
4.861670
 30
0.000000
  0
SEQEND
  8
LAYER-1
  0
POLYLINE
  8
LAYER-1
 66
  1
 70
  0
 62
  0
 10
3.647862
 20
5.705419
 30
0.000000
  0
VERTEX
  8
LAYER-1
 10
3.647862
 20
5.705419
 30
0.000000
  0
VERTEX
  8
LAYER-1
 10
3.683457
 20
5.705419
 30
0.000000
  0
SEQEND
  8
LAYER-1
  0
POLYLINE
  8
LAYER-1
 66
  1
 70
  1
 62
  0
  0
VERTEX
  8
LAYER-1
 10
3.636176
 20
0.357080
 30
0.000000
  0
VERTEX
  8
LAYER-1
 10
3.691051
 20
0.357080
 30
0.000000
  0
VERTEX
  8
LAYER-1
 10
3.691051
 20
0.351221
 30
0.000000
  0
VERTEX
  8
LAYER-1
 10
3.636176
 20
0.351221
 30
0.000000
  0
SEQEND
  8
LAYER-1
  0
POLYLINE
  8
LAYER-1
 66
  1
 70
  1
 62
  0
  0
VERTEX
  8
LAYER-1
 10
3.682567
 20
7.423871
 30
0.000000
  0
VERTEX
  8
LAYER-1
 10
3.852240
 20
7.423871
 30
0.000000
  0
VERTEX
  8
LAYER-1
 10
3.852240
 20
0.356888
 30
0.000000
  0
VERTEX
  8
LAYER-1
 10
3.682567
 20
0.356888
 30
0.000000
  0
SEQEND
  8
LAYER-1
  0
POLYLINE
  8
LAYER-1
 66
  1
 70
  1
 62
  0
  0
VERTEX
  8
LAYER-1
 10
5.380062
 20
7.423871
 30
0.000000
  0
VERTEX
  8
LAYER-1
 10
5.704693
 20
7.423871
 30
0.000000
  0
VERTEX
  8
LAYER-1
 10
5.704693
 20
7.153871
 30
0.000000
  0
VERTEX
  8
LAYER-1
 10
5.380062
 20
7.153871
 30
0.000000
  0
SEQEND
  8
LAYER-1
  0
POLYLINE
  8
LAYER-1
 66
  1
 70
  1
 62
  0
  0
VERTEX
  8
LAYER-1
 10
4.969999
 20
7.423871
 30
0.000000
  0
VERTEX
  8
LAYER-1
 10
5.294631
 20
7.423871
 30
0.000000
  0
VERTEX
  8
LAYER-1
 10
5.294631
 20
7.153871
 30
0.000000
  0
VERTEX
  8
LAYER-1
 10
4.969999
 20
7.153871
 30
0.000000
  0
SEQEND
  8
LAYER-1
  0
POLYLINE
  8
LAYER-1
 66
  1
 70
  1
 62
  0
  0
VERTEX
  8
LAYER-1
 10
4.559937
 20
7.423871
 30
0.000000
  0
VERTEX
  8
LAYER-1
 10
4.884569
 20
7.423871
 30
0.000000
  0
VERTEX
  8
LAYER-1
 10
4.884569
 20
7.153871
 30
0.000000
  0
VERTEX
  8
LAYER-1
 10
4.559937
 20
7.153871
 30
0.000000
  0
SEQEND
  8
LAYER-1
  0
POLYLINE
  8
LAYER-1
 66
  1
 70
  1
 62
  0
  0
VERTEX
  8
LAYER-1
 10
4.149875
 20
7.423871
 30
0.000000
  0
VERTEX
  8
LAYER-1
 10
4.474506
 20
7.423871
 30
0.000000
  0
VERTEX
  8
LAYER-1
 10
4.474506
 20
7.153871
 30
0.000000
  0
VERTEX
  8
LAYER-1
 10
4.149875
 20
7.153871
 30
0.000000
  0
SEQEND
  8
LAYER-1
  0
POLYLINE
  8
LAYER-1
 66
  1
 70
  0
 62
  0
 10
4.737678
 20
7.423945
 30
0.000000
  0
VERTEX
  8
LAYER-1
 10
4.737678
 20
7.423945
 30
0.000000
  0
VERTEX
  8
LAYER-1
 10
4.737678
 20
7.154415
 30
0.000000
  0
SEQEND
  8
LAYER-1
  0
POLYLINE
  8
LAYER-1
 66
  1
 70
  0
 62
  0
 10
4.700601
 20
7.423945
 30
0.000000
  0
VERTEX
  8
LAYER-1
 10
4.700601
 20
7.423945
 30
0.000000
  0
VERTEX
  8
LAYER-1
 10
4.700601
 20
7.154415
 30
0.000000
  0
SEQEND
  8
LAYER-1
  0
POLYLINE
  8
LAYER-1
 66
  1
 70
  0
 62
  0
 10
5.559345
 20
7.423945
 30
0.000000
  0
VERTEX
  8
LAYER-1
 10
5.559345
 20
7.423945
 30
0.000000
  0
VERTEX
  8
LAYER-1
 10
5.559345
 20
7.154415
 30
0.000000
  0
SEQEND
  8
LAYER-1
  0
POLYLINE
  8
LAYER-1
 66
  1
 70
  0
 62
  0
 10
5.520785
 20
7.423945
 30
0.000000
  0
VERTEX
  8
LAYER-1
 10
5.520785
 20
7.423945
 30
0.000000
  0
VERTEX
  8
LAYER-1
 10
5.520785
 20
7.154415
 30
0.000000
  0
SEQEND
  8
LAYER-1
  0
POLYLINE
  8
LAYER-1
 66
  1
 70
  1
 62
  0
  0
VERTEX
  8
LAYER-1
 10
5.308692
 20
7.429806
 30
0.000000
  0
VERTEX
  8
LAYER-1
 10
5.363567
 20
7.429806
 30
0.000000
  0
VERTEX
  8
LAYER-1
 10
5.363567
 20
7.423945
 30
0.000000
  0
VERTEX
  8
LAYER-1
 10
5.308692
 20
7.423945
 30
0.000000
  0
SEQEND
  8
LAYER-1
  0
POLYLINE
  8
LAYER-1
 66
  1
 70
  0
 62
  0
 10
5.354672
 20
7.356563
 30
0.000000
  0
VERTEX
  8
LAYER-1
 10
5.354672
 20
7.356563
 30
0.000000
  0
VERTEX
  8
LAYER-1
 10
5.319074
 20
7.356563
 30
0.000000
  0
SEQEND
  8
LAYER-1
  0
POLYLINE
  8
LAYER-1
 66
  1
 70
  0
 62
  0
 10
5.354672
 20
7.227658
 30
0.000000
  0
VERTEX
  8
LAYER-1
 10
5.354672
 20
7.227658
 30
0.000000
  0
VERTEX
  8
LAYER-1
 10
5.319074
 20
7.227658
 30
0.000000
  0
SEQEND
  8
LAYER-1
  0
POLYLINE
  8
LAYER-1
 66
  1
 70
  1
 62
  0
  0
VERTEX
  8
LAYER-1
 10
4.491474
 20
7.429806
 30
0.000000
  0
VERTEX
  8
LAYER-1
 10
4.546352
 20
7.429806
 30
0.000000
  0
VERTEX
  8
LAYER-1
 10
4.546352
 20
7.423945
 30
0.000000
  0
VERTEX
  8
LAYER-1
 10
4.491474
 20
7.423945
 30
0.000000
  0
SEQEND
  8
LAYER-1
  0
POLYLINE
  8
LAYER-1
 66
  1
 70
  0
 62
  0
 10
4.535967
 20
7.356563
 30
0.000000
  0
VERTEX
  8
LAYER-1
 10
4.535967
 20
7.356563
 30
0.000000
  0
VERTEX
  8
LAYER-1
 10
4.500376
 20
7.356563
 30
0.000000
  0
SEQEND
  8
LAYER-1
  0
POLYLINE
  8
LAYER-1
 66
  1
 70
  0
 62
  0
 10
4.535967
 20
7.227656
 30
0.000000
  0
VERTEX
  8
LAYER-1
 10
4.535967
 20
7.227656
 30
0.000000
  0
VERTEX
  8
LAYER-1
 10
4.500376
 20
7.227656
 30
0.000000
  0
SEQEND
  8
LAYER-1
  0
POLYLINE
  8
LAYER-1
 66
  1
 70
  0
 62
  0
 10
5.704693
 20
7.423871
 30
0.000000
  0
VERTEX
  8
LAYER-1
 10
5.704693
 20
7.423871
 30
0.000000
  0
VERTEX
  8
LAYER-1
 10
5.704693
 20
0.357080
 30
0.000000
  0
SEQEND
  8
LAYER-1
  0
POLYLINE
  8
LAYER-1
 66
  1
 70
  0
 62
  0
 10
5.380062
 20
7.423871
 30
0.000000
  0
VERTEX
  8
LAYER-1
 10
5.380062
 20
7.423871
 30
0.000000
  0
VERTEX
  8
LAYER-1
 10
5.380062
 20
0.357080
 30
0.000000
  0
SEQEND
  8
LAYER-1
  0
POLYLINE
  8
LAYER-1
 66
  1
 70
  0
 62
  0
 10
5.294631
 20
7.423871
 30
0.000000
  0
VERTEX
  8
LAYER-1
 10
5.294631
 20
7.423871
 30
0.000000
  0
VERTEX
  8
LAYER-1
 10
5.294631
 20
0.357080
 30
0.000000
  0
SEQEND
  8
LAYER-1
  0
POLYLINE
  8
LAYER-1
 66
  1
 70
  0
 62
  0
 10
5.354672
 20
7.423871
 30
0.000000
  0
VERTEX
  8
LAYER-1
 10
5.354672
 20
7.423871
 30
0.000000
  0
VERTEX
  8
LAYER-1
 10
5.354672
 20
0.357080
 30
0.000000
  0
SEQEND
  8
LAYER-1
  0
POLYLINE
  8
LAYER-1
 66
  1
 70
  0
 62
  0
 10
5.319074
 20
7.423871
 30
0.000000
  0
VERTEX
  8
LAYER-1
 10
5.319074
 20
7.423871
 30
0.000000
  0
VERTEX
  8
LAYER-1
 10
5.319074
 20
0.357080
 30
0.000000
  0
SEQEND
  8
LAYER-1
  0
POLYLINE
  8
LAYER-1
 66
  1
 70
  1
 62
  0
  0
VERTEX
  8
LAYER-1
 10
5.310176
 20
0.357156
 30
0.000000
  0
VERTEX
  8
LAYER-1
 10
5.365052
 20
0.357156
 30
0.000000
  0
VERTEX
  8
LAYER-1
 10
5.365052
 20
0.351296
 30
0.000000
  0
VERTEX
  8
LAYER-1
 10
5.310176
 20
0.351296
 30
0.000000
  0
SEQEND
  8
LAYER-1
  0
POLYLINE
  8
LAYER-1
 66
  1
 70
  0
 62
  0
 10
5.319074
 20
0.430398
 30
0.000000
  0
VERTEX
  8
LAYER-1
 10
5.319074
 20
0.430398
 30
0.000000
  0
VERTEX
  8
LAYER-1
 10
5.354672
 20
0.430398
 30
0.000000
  0
SEQEND
  8
LAYER-1
  0
POLYLINE
  8
LAYER-1
 66
  1
 70
  0
 62
  0
 10
5.319074
 20
0.559304
 30
0.000000
  0
VERTEX
  8
LAYER-1
 10
5.319074
 20
0.559304
 30
0.000000
  0
VERTEX
  8
LAYER-1
 10
5.354672
 20
0.559304
 30
0.000000
  0
SEQEND
  8
LAYER-1
  0
POLYLINE
  8
LAYER-1
 66
  1
 70
  0
 62
  0
 10
5.354672
 20
0.634288
 30
0.000000
  0
VERTEX
  8
LAYER-1
 10
5.354672
 20
0.634288
 30
0.000000
  0
VERTEX
  8
LAYER-1
 10
5.319074
 20
0.634288
 30
0.000000
  0
SEQEND
  8
LAYER-1
  0
POLYLINE
  8
LAYER-1
 66
  1
 70
  0
 62
  0
 10
5.354672
 20
1.480968
 30
0.000000
  0
VERTEX
  8
LAYER-1
 10
5.354672
 20
1.480968
 30
0.000000
  0
VERTEX
  8
LAYER-1
 10
5.319074
 20
1.480968
 30
0.000000
  0
SEQEND
  8
LAYER-1
  0
POLYLINE
  8
LAYER-1
 66
  1
 70
  0
 62
  0
 10
5.354672
 20
2.318857
 30
0.000000
  0
VERTEX
  8
LAYER-1
 10
5.354672
 20
2.318857
 30
0.000000
  0
VERTEX
  8
LAYER-1
 10
5.319074
 20
2.318857
 30
0.000000
  0
SEQEND
  8
LAYER-1
  0
POLYLINE
  8
LAYER-1
 66
  1
 70
  0
 62
  0
 10
5.354672
 20
3.168460
 30
0.000000
  0
VERTEX
  8
LAYER-1
 10
5.354672
 20
3.168460
 30
0.000000
  0
VERTEX
  8
LAYER-1
 10
5.319074
 20
3.168460
 30
0.000000
  0
SEQEND
  8
LAYER-1
  0
POLYLINE
  8
LAYER-1
 66
  1
 70
  0
 62
  0
 10
5.319074
 20
4.010746
 30
0.000000
  0
VERTEX
  8
LAYER-1
 10
5.319074
 20
4.010746
 30
0.000000
  0
VERTEX
  8
LAYER-1
 10
5.354672
 20
4.010746
 30
0.000000
  0
SEQEND
  8
LAYER-1
  0
POLYLINE
  8
LAYER-1
 66
  1
 70
  1
 62
  0
  0
VERTEX
  8
LAYER-1
 10
5.380002
 20
3.854994
 30
0.000000
  0
VERTEX
  8
LAYER-1
 10
5.704629
 20
3.854994
 30
0.000000
  0
VERTEX
  8
LAYER-1
 10
5.704629
 20
0.688405
 30
0.000000
  0
VERTEX
  8
LAYER-1
 10
5.380002
 20
0.688405
 30
0.000000
  0
SEQEND
  8
LAYER-1
  0
POLYLINE
  8
LAYER-1
 66
  1
 70
  1
 62
  0
  0
VERTEX
  8
LAYER-1
 10
4.970002
 20
3.854994
 30
0.000000
  0
VERTEX
  8
LAYER-1
 10
5.294629
 20
3.854994
 30
0.000000
  0
VERTEX
  8
LAYER-1
 10
5.294629
 20
0.688405
 30
0.000000
  0
VERTEX
  8
LAYER-1
 10
4.970002
 20
0.688405
 30
0.000000
  0
SEQEND
  8
LAYER-1
  0
POLYLINE
  8
LAYER-1
 66
  1
 70
  1
 62
  0
  0
VERTEX
  8
LAYER-1
 10
4.560002
 20
3.854994
 30
0.000000
  0
VERTEX
  8
LAYER-1
 10
4.884629
 20
3.854994
 30
0.000000
  0
VERTEX
  8
LAYER-1
 10
4.884629
 20
0.688405
 30
0.000000
  0
VERTEX
  8
LAYER-1
 10
4.560002
 20
0.688405
 30
0.000000
  0
SEQEND
  8
LAYER-1
  0
POLYLINE
  8
LAYER-1
 66
  1
 70
  1
 62
  0
  0
VERTEX
  8
LAYER-1
 10
4.150003
 20
3.854994
 30
0.000000
  0
VERTEX
  8
LAYER-1
 10
4.474628
 20
3.854994
 30
0.000000
  0
VERTEX
  8
LAYER-1
 10
4.474628
 20
0.688405
 30
0.000000
  0
VERTEX
  8
LAYER-1
 10
4.150003
 20
0.688405
 30
0.000000
  0
SEQEND
  8
LAYER-1
  0
LINE
  8
LAYER-1
 62
  0
 10
4.622463
 20
4.307436
 30
0.000000
 11
4.758552
 21
4.545171
 31
0.000000
  0
LINE
  8
LAYER-1
 62
  0
 10
4.679099
 20
4.275016
 30
0.000000
 11
4.815188
 21
4.512750
 31
0.000000
  0
LINE
  8
LAYER-1
 62
  0
 10
5.032525
 20
4.307436
 30
0.000000
 11
5.168614
 21
4.545171
 31
0.000000
  0
LINE
  8
LAYER-1
 62
  0
 10
5.089161
 20
4.275016
 30
0.000000
 11
5.225250
 21
4.512750
 31
0.000000
  0
LINE
  8
LAYER-1
 62
  0
 10
5.442591
 20
4.307436
 30
0.000000
 11
5.578677
 21
4.545171
 31
0.000000
  0
LINE
  8
LAYER-1
 62
  0
 10
5.499227
 20
4.275016
 30
0.000000
 11
5.635312
 21
4.512751
 31
0.000000
  0
LINE
  8
LAYER-1
 62
  0
 10
4.217562
 20
4.307436
 30
0.000000
 11
4.353653
 21
4.545171
 31
0.000000
  0
LINE
  8
LAYER-1
 62
  0
 10
4.274196
 20
4.275016
 30
0.000000
 11
4.410288
 21
4.512750
 31
0.000000
  0
LINE
  8
LAYER-1
 62
  0
 10
4.620621
 20
3.277610
 30
0.000000
 11
4.756710
 21
3.515346
 31
0.000000
  0
LINE
  8
LAYER-1
 62
  0
 10
4.677257
 20
3.245190
 30
0.000000
 11
4.813345
 21
3.482926
 31
0.000000
  0
LINE
  8
LAYER-1
 62
  0
 10
5.030683
 20
3.277610
 30
0.000000
 11
5.166772
 21
3.515346
 31
0.000000
  0
LINE
  8
LAYER-1
 62
  0
 10
5.087319
 20
3.245190
 30
0.000000
 11
5.223407
 21
3.482926
 31
0.000000
  0
LINE
  8
LAYER-1
 62
  0
 10
5.440745
 20
3.277610
 30
0.000000
 11
5.576834
 21
3.515347
 31
0.000000
  0
LINE
  8
LAYER-1
 62
  0
 10
5.497381
 20
3.245189
 30
0.000000
 11
5.633470
 21
3.482926
 31
0.000000
  0
LINE
  8
LAYER-1
 62
  0
 10
4.215719
 20
3.277612
 30
0.000000
 11
4.351807
 21
3.515347
 31
0.000000
  0
LINE
  8
LAYER-1
 62
  0
 10
4.272354
 20
3.245192
 30
0.000000
 11
4.408443
 21
3.482927
 31
0.000000
  0
LINE
  8
LAYER-1
 62
  0
 10
4.622105
 20
6.694551
 30
0.000000
 11
4.758190
 21
6.932285
 31
0.000000
  0
LINE
  8
LAYER-1
 62
  0
 10
4.678741
 20
6.662131
 30
0.000000
 11
4.814826
 21
6.899865
 31
0.000000
  0
LINE
  8
LAYER-1
 62
  0
 10
5.032168
 20
6.694551
 30
0.000000
 11
5.168253
 21
6.932285
 31
0.000000
  0
LINE
  8
LAYER-1
 62
  0
 10
5.088804
 20
6.662131
 30
0.000000
 11
5.224889
 21
6.899865
 31
0.000000
  0
LINE
  8
LAYER-1
 62
  0
 10
5.442229
 20
6.694551
 30
0.000000
 11
5.578315
 21
6.932285
 31
0.000000
  0
LINE
  8
LAYER-1
 62
  0
 10
5.498865
 20
6.662131
 30
0.000000
 11
5.634951
 21
6.899865
 31
0.000000
  0
LINE
  8
LAYER-1
 62
  0
 10
4.217203
 20
6.694551
 30
0.000000
 11
4.353292
 21
6.932285
 31
0.000000
  0
LINE
  8
LAYER-1
 62
  0
 10
4.273839
 20
6.662131
 30
0.000000
 11
4.409928
 21
6.899865
 31
0.000000
  0
LINE
  8
LAYER-1
 62
  0
 10
4.620260
 20
1.053762
 30
0.000000
 11
4.756348
 21
1.291496
 31
0.000000
  0
LINE
  8
LAYER-1
 62
  0
 10
4.676896
 20
1.021341
 30
0.000000
 11
4.812984
 21
1.259076
 31
0.000000
  0
LINE
  8
LAYER-1
 62
  0
 10
5.030321
 20
1.053762
 30
0.000000
 11
5.166410
 21
1.291496
 31
0.000000
  0
LINE
  8
LAYER-1
 62
  0
 10
5.086957
 20
1.021341
 30
0.000000
 11
5.223046
 21
1.259076
 31
0.000000
  0
LINE
  8
LAYER-1
 62
  0
 10
5.440385
 20
1.053762
 30
0.000000
 11
5.576476
 21
1.291496
 31
0.000000
  0
LINE
  8
LAYER-1
 62
  0
 10
5.497020
 20
1.021341
 30
0.000000
 11
5.633111
 21
1.259076
 31
0.000000
  0
LINE
  8
LAYER-1
 62
  0
 10
4.215360
 20
1.053762
 30
0.000000
 11
4.351446
 21
1.291496
 31
0.000000
  0
LINE
  8
LAYER-1
 62
  0
 10
4.271996
 20
1.021341
 30
0.000000
 11
4.408081
 21
1.259076
 31
0.000000
  0
POLYLINE
  8
LAYER-1
 66
  1
 70
  0
 62
  0
 10
4.969999
 20
7.423871
 30
0.000000
  0
VERTEX
  8
LAYER-1
 10
4.969999
 20
7.423871
 30
0.000000
  0
VERTEX
  8
LAYER-1
 10
4.969999
 20
0.357080
 30
0.000000
  0
SEQEND
  8
LAYER-1
  0
POLYLINE
  8
LAYER-1
 66
  1
 70
  0
 62
  0
 10
4.884569
 20
7.423871
 30
0.000000
  0
VERTEX
  8
LAYER-1
 10
4.884569
 20
7.423871
 30
0.000000
  0
VERTEX
  8
LAYER-1
 10
4.884569
 20
0.357080
 30
0.000000
  0
SEQEND
  8
LAYER-1
  0
POLYLINE
  8
LAYER-1
 66
  1
 70
  0
 62
  0
 10
4.559937
 20
7.423871
 30
0.000000
  0
VERTEX
  8
LAYER-1
 10
4.559937
 20
7.423871
 30
0.000000
  0
VERTEX
  8
LAYER-1
 10
4.559937
 20
0.357080
 30
0.000000
  0
SEQEND
  8
LAYER-1
  0
POLYLINE
  8
LAYER-1
 66
  1
 70
  0
 62
  0
 10
4.474506
 20
7.423871
 30
0.000000
  0
VERTEX
  8
LAYER-1
 10
4.474506
 20
7.423871
 30
0.000000
  0
VERTEX
  8
LAYER-1
 10
4.474506
 20
0.357080
 30
0.000000
  0
SEQEND
  8
LAYER-1
  0
POLYLINE
  8
LAYER-1
 66
  1
 70
  0
 62
  0
 10
4.149875
 20
7.423871
 30
0.000000
  0
VERTEX
  8
LAYER-1
 10
4.149875
 20
7.423871
 30
0.000000
  0
VERTEX
  8
LAYER-1
 10
4.149875
 20
0.357080
 30
0.000000
  0
SEQEND
  8
LAYER-1
  0
POLYLINE
  8
LAYER-1
 66
  1
 70
  0
 62
  0
 10
4.067292
 20
7.423871
 30
0.000000
  0
VERTEX
  8
LAYER-1
 10
4.067292
 20
7.423871
 30
0.000000
  0
VERTEX
  8
LAYER-1
 10
4.067292
 20
0.357080
 30
0.000000
  0
SEQEND
  8
LAYER-1
  0
POLYLINE
  8
LAYER-1
 66
  1
 70
  0
 62
  0
 10
5.740291
 20
7.423871
 30
0.000000
  0
VERTEX
  8
LAYER-1
 10
5.740291
 20
7.423871
 30
0.000000
  0
VERTEX
  8
LAYER-1
 10
5.740291
 20
0.357080
 30
0.000000
  0
SEQEND
  8
LAYER-1
  0
POLYLINE
  8
LAYER-1
 66
  1
 70
  0
 62
  0
 10
4.927524
 20
7.423871
 30
0.000000
  0
VERTEX
  8
LAYER-1
 10
4.927524
 20
7.423871
 30
0.000000
  0
VERTEX
  8
LAYER-1
 10
4.927524
 20
0.357080
 30
0.000000
  0
SEQEND
  8
LAYER-1
  0
POLYLINE
  8
LAYER-1
 66
  1
 70
  0
 62
  0
 10
4.535967
 20
7.423871
 30
0.000000
  0
VERTEX
  8
LAYER-1
 10
4.535967
 20
7.423871
 30
0.000000
  0
VERTEX
  8
LAYER-1
 10
4.535967
 20
0.357080
 30
0.000000
  0
SEQEND
  8
LAYER-1
  0
POLYLINE
  8
LAYER-1
 66
  1
 70
  0
 62
  0
 10
4.500376
 20
7.423871
 30
0.000000
  0
VERTEX
  8
LAYER-1
 10
4.500376
 20
7.423871
 30
0.000000
  0
VERTEX
  8
LAYER-1
 10
4.500376
 20
0.357080
 30
0.000000
  0
SEQEND
  8
LAYER-1
  0
POLYLINE
  8
LAYER-1
 66
  1
 70
  0
 62
  0
 10
4.108818
 20
7.423871
 30
0.000000
  0
VERTEX
  8
LAYER-1
 10
4.108818
 20
7.423871
 30
0.000000
  0
VERTEX
  8
LAYER-1
 10
4.108818
 20
0.357080
 30
0.000000
  0
SEQEND
  8
LAYER-1
  0
POLYLINE
  8
LAYER-1
 66
  1
 70
  1
 62
  0
  0
VERTEX
  8
LAYER-1
 10
4.492959
 20
0.357156
 30
0.000000
  0
VERTEX
  8
LAYER-1
 10
4.547837
 20
0.357156
 30
0.000000
  0
VERTEX
  8
LAYER-1
 10
4.547837
 20
0.351296
 30
0.000000
  0
VERTEX
  8
LAYER-1
 10
4.492959
 20
0.351296
 30
0.000000
  0
SEQEND
  8
LAYER-1
  0
POLYLINE
  8
LAYER-1
 66
  1
 70
  0
 62
  0
 10
4.500376
 20
0.430398
 30
0.000000
  0
VERTEX
  8
LAYER-1
 10
4.500376
 20
0.430398
 30
0.000000
  0
VERTEX
  8
LAYER-1
 10
4.535967
 20
0.430398
 30
0.000000
  0
SEQEND
  8
LAYER-1
  0
POLYLINE
  8
LAYER-1
 66
  1
 70
  0
 62
  0
 10
4.500376
 20
0.559304
 30
0.000000
  0
VERTEX
  8
LAYER-1
 10
4.500376
 20
0.559304
 30
0.000000
  0
VERTEX
  8
LAYER-1
 10
4.535967
 20
0.559304
 30
0.000000
  0
SEQEND
  8
LAYER-1
  0
POLYLINE
  8
LAYER-1
 66
  1
 70
  0
 62
  0
 10
4.535967
 20
0.634288
 30
0.000000
  0
VERTEX
  8
LAYER-1
 10
4.535967
 20
0.634288
 30
0.000000
  0
VERTEX
  8
LAYER-1
 10
4.500376
 20
0.634288
 30
0.000000
  0
SEQEND
  8
LAYER-1
  0
POLYLINE
  8
LAYER-1
 66
  1
 70
  0
 62
  0
 10
4.535967
 20
1.480968
 30
0.000000
  0
VERTEX
  8
LAYER-1
 10
4.535967
 20
1.480968
 30
0.000000
  0
VERTEX
  8
LAYER-1
 10
4.500376
 20
1.480968
 30
0.000000
  0
SEQEND
  8
LAYER-1
  0
POLYLINE
  8
LAYER-1
 66
  1
 70
  0
 62
  0
 10
4.535967
 20
2.318857
 30
0.000000
  0
VERTEX
  8
LAYER-1
 10
4.535967
 20
2.318857
 30
0.000000
  0
VERTEX
  8
LAYER-1
 10
4.500376
 20
2.318857
 30
0.000000
  0
SEQEND
  8
LAYER-1
  0
POLYLINE
  8
LAYER-1
 66
  1
 70
  0
 62
  0
 10
4.535967
 20
3.168460
 30
0.000000
  0
VERTEX
  8
LAYER-1
 10
4.535967
 20
3.168460
 30
0.000000
  0
VERTEX
  8
LAYER-1
 10
4.500376
 20
3.168460
 30
0.000000
  0
SEQEND
  8
LAYER-1
  0
POLYLINE
  8
LAYER-1
 66
  1
 70
  0
 62
  0
 10
4.500376
 20
4.010746
 30
0.000000
  0
VERTEX
  8
LAYER-1
 10
4.500376
 20
4.010746
 30
0.000000
  0
VERTEX
  8
LAYER-1
 10
4.535967
 20
4.010746
 30
0.000000
  0
SEQEND
  8
LAYER-1
  0
POLYLINE
  8
LAYER-1
 66
  1
 70
  0
 62
  0
 10
5.354019
 20
4.861746
 30
0.000000
  0
VERTEX
  8
LAYER-1
 10
5.354019
 20
4.861746
 30
0.000000
  0
VERTEX
  8
LAYER-1
 10
5.318424
 20
4.861746
 30
0.000000
  0
SEQEND
  8
LAYER-1
  0
POLYLINE
  8
LAYER-1
 66
  1
 70
  0
 62
  0
 10
5.354019
 20
5.705495
 30
0.000000
  0
VERTEX
  8
LAYER-1
 10
5.354019
 20
5.705495
 30
0.000000
  0
VERTEX
  8
LAYER-1
 10
5.318424
 20
5.705495
 30
0.000000
  0
SEQEND
  8
LAYER-1
  0
POLYLINE
  8
LAYER-1
 66
  1
 70
  0
 62
  0
 10
4.536144
 20
4.861746
 30
0.000000
  0
VERTEX
  8
LAYER-1
 10
4.536144
 20
4.861746
 30
0.000000
  0
VERTEX
  8
LAYER-1
 10
4.500553
 20
4.861746
 30
0.000000
  0
SEQEND
  8
LAYER-1
  0
POLYLINE
  8
LAYER-1
 66
  1
 70
  0
 62
  0
 10
4.536144
 20
5.705495
 30
0.000000
  0
VERTEX
  8
LAYER-1
 10
4.536144
 20
5.705495
 30
0.000000
  0
VERTEX
  8
LAYER-1
 10
4.500553
 20
5.705495
 30
0.000000
  0
SEQEND
  8
LAYER-1
  0
POLYLINE
  8
LAYER-1
 66
  1
 70
  1
 62
  0
  0
VERTEX
  8
LAYER-1
 10
3.843335
 20
7.429730
 30
0.000000
  0
VERTEX
  8
LAYER-1
 10
3.898213
 20
7.429730
 30
0.000000
  0
VERTEX
  8
LAYER-1
 10
3.898213
 20
7.423869
 30
0.000000
  0
VERTEX
  8
LAYER-1
 10
3.843335
 20
7.423869
 30
0.000000
  0
SEQEND
  8
LAYER-1
  0
POLYLINE
  8
LAYER-1
 66
  1
 70
  0
 62
  0
 10
3.887828
 20
7.356486
 30
0.000000
  0
VERTEX
  8
LAYER-1
 10
3.887828
 20
7.356486
 30
0.000000
  0
VERTEX
  8
LAYER-1
 10
3.852236
 20
7.356486
 30
0.000000
  0
SEQEND
  8
LAYER-1
  0
POLYLINE
  8
LAYER-1
 66
  1
 70
  0
 62
  0
 10
3.887828
 20
7.227580
 30
0.000000
  0
VERTEX
  8
LAYER-1
 10
3.887828
 20
7.227580
 30
0.000000
  0
VERTEX
  8
LAYER-1
 10
3.852236
 20
7.227580
 30
0.000000
  0
SEQEND
  8
LAYER-1
  0
POLYLINE
  8
LAYER-1
 66
  1
 70
  0
 62
  0
 10
3.887828
 20
7.423794
 30
0.000000
  0
VERTEX
  8
LAYER-1
 10
3.887828
 20
7.423794
 30
0.000000
  0
VERTEX
  8
LAYER-1
 10
3.887828
 20
0.357080
 30
0.000000
  0
SEQEND
  8
LAYER-1
  0
POLYLINE
  8
LAYER-1
 66
  1
 70
  0
 62
  0
 10
3.852236
 20
0.430321
 30
0.000000
  0
VERTEX
  8
LAYER-1
 10
3.852236
 20
0.430321
 30
0.000000
  0
VERTEX
  8
LAYER-1
 10
3.887828
 20
0.430321
 30
0.000000
  0
SEQEND
  8
LAYER-1
  0
POLYLINE
  8
LAYER-1
 66
  1
 70
  0
 62
  0
 10
3.852236
 20
0.559227
 30
0.000000
  0
VERTEX
  8
LAYER-1
 10
3.852236
 20
0.559227
 30
0.000000
  0
VERTEX
  8
LAYER-1
 10
3.887828
 20
0.559227
 30
0.000000
  0
SEQEND
  8
LAYER-1
  0
POLYLINE
  8
LAYER-1
 66
  1
 70
  0
 62
  0
 10
3.887828
 20
0.634210
 30
0.000000
  0
VERTEX
  8
LAYER-1
 10
3.887828
 20
0.634210
 30
0.000000
  0
VERTEX
  8
LAYER-1
 10
3.852233
 20
0.634210
 30
0.000000
  0
SEQEND
  8
LAYER-1
  0
POLYLINE
  8
LAYER-1
 66
  1
 70
  0
 62
  0
 10
3.887828
 20
1.480892
 30
0.000000
  0
VERTEX
  8
LAYER-1
 10
3.887828
 20
1.480892
 30
0.000000
  0
VERTEX
  8
LAYER-1
 10
3.852233
 20
1.480892
 30
0.000000
  0
SEQEND
  8
LAYER-1
  0
POLYLINE
  8
LAYER-1
 66
  1
 70
  0
 62
  0
 10
3.887828
 20
2.318780
 30
0.000000
  0
VERTEX
  8
LAYER-1
 10
3.887828
 20
2.318780
 30
0.000000
  0
VERTEX
  8
LAYER-1
 10
3.852233
 20
2.318780
 30
0.000000
  0
SEQEND
  8
LAYER-1
  0
POLYLINE
  8
LAYER-1
 66
  1
 70
  0
 62
  0
 10
3.887828
 20
3.168384
 30
0.000000
  0
VERTEX
  8
LAYER-1
 10
3.887828
 20
3.168384
 30
0.000000
  0
VERTEX
  8
LAYER-1
 10
3.852233
 20
3.168384
 30
0.000000
  0
SEQEND
  8
LAYER-1
  0
POLYLINE
  8
LAYER-1
 66
  1
 70
  0
 62
  0
 10
3.852233
 20
4.010669
 30
0.000000
  0
VERTEX
  8
LAYER-1
 10
3.852233
 20
4.010669
 30
0.000000
  0
VERTEX
  8
LAYER-1
 10
3.887828
 20
4.010669
 30
0.000000
  0
SEQEND
  8
LAYER-1
  0
POLYLINE
  8
LAYER-1
 66
  1
 70
  0
 62
  0
 10
3.888006
 20
4.861670
 30
0.000000
  0
VERTEX
  8
LAYER-1
 10
3.888006
 20
4.861670
 30
0.000000
  0
VERTEX
  8
LAYER-1
 10
3.852414
 20
4.861670
 30
0.000000
  0
SEQEND
  8
LAYER-1
  0
POLYLINE
  8
LAYER-1
 66
  1
 70
  0
 62
  0
 10
3.888006
 20
5.705419
 30
0.000000
  0
VERTEX
  8
LAYER-1
 10
3.888006
 20
5.705419
 30
0.000000
  0
VERTEX
  8
LAYER-1
 10
3.852414
 20
5.705419
 30
0.000000
  0
SEQEND
  8
LAYER-1
  0
POLYLINE
  8
LAYER-1
 66
  1
 70
  1
 62
  0
  0
VERTEX
  8
LAYER-1
 10
3.844819
 20
0.357080
 30
0.000000
  0
VERTEX
  8
LAYER-1
 10
3.899691
 20
0.357080
 30
0.000000
  0
VERTEX
  8
LAYER-1
 10
3.899691
 20
0.351221
 30
0.000000
  0
VERTEX
  8
LAYER-1
 10
3.844819
 20
0.351221
 30
0.000000
  0
SEQEND
  8
LAYER-1
  0
TEXT
  8
LAYER-1
 62
  7
 10
1.976523
 20
8.794503
 30
0.000000
 40
0.187500
  1
âlÄvation modÅle Impact 1/16
 72
  5
 11
5.532078
 21
8.794503
 31
0.000000
  0
LINE
  8
LAYER-1
 62
  0
 10
6.768189
 20
7.489504
 30
0.000000
 11
0.771661
 21
7.489504
 31
0.000000
  0
LINE
  8
LAYER-1
 62
  0
 10
6.768189
 20
7.599503
 30
0.000000
 11
0.771661
 21
7.599503
 31
0.000000
  0
LINE
  8
LAYER-1
 62
  0
 10
1.331559
 20
7.491009
 30
0.000000
 11
1.331559
 21
7.600988
 31
0.000000
  0
LINE
  8
LAYER-1
 62
  0
 10
1.272190
 20
7.491009
 30
0.000000
 11
1.456559
 21
7.491009
 31
0.000000
  0
LINE
  8
LAYER-1
 62
  0
 10
1.272530
 20
7.600988
 30
0.000000
 11
1.456559
 21
7.600988
 31
0.000000
  0
LINE
  8
LAYER-1
 62
  0
 10
1.331559
 20
7.600988
 30
0.000000
 11
1.331559
 21
7.235474
 31
0.000000
  0
LINE
  8
LAYER-1
 62
  0
 10
1.302096
 20
7.520472
 30
0.000000
 11
1.361021
 21
7.461546
 31
0.000000
  0
LINE
  8
LAYER-1
 62
  0
 10
1.302096
 20
7.630451
 30
0.000000
 11
1.361021
 21
7.571525
 31
0.000000
  0
TEXT
  8
LAYER-1
 62
  0
 10
1.319698
 20
7.107058
 30
0.000000
 40
0.125000
  1
 
  0
TEXT
  8
LAYER-1
 62
  0
 10
1.073745
 20
6.863948
 30
0.000000
 40
0.125000
  1
1-
 72
  5
 11
1.295967
 21
6.863948
 31
0.000000
  0
TEXT
  8
LAYER-1
 62
  0
 10
1.295967
 20
6.863948
 30
0.000000
 40
0.104167
  1
9/16
 72
  5
 11
1.657078
 21
6.863948
 31
0.000000
  0
TEXT
  8
LAYER-1
 62
  0
 10
1.657078
 20
6.863948
 30
0.000000
 40
0.125000
  1
"
 72
  5
 11
1.782078
 21
6.863948
 31
0.000000
  0
TEXT
  8
LAYER-1
 62
  0
 10
1.073745
 20
6.669503
 30
0.000000
 40
0.125000
  1
40mm
 72
  5
 11
1.643189
 21
6.669503
 31
0.000000
  0
TEXT
  8
LAYER-1
 62
  0
 10
2.309856
 20
7.919503
 30
0.000000
 40
0.125000
  1
Membre
 72
  5
 11
3.004300
 21
7.919503
 31
0.000000
  0
TEXT
  8
LAYER-1
 62
  0
 10
2.309856
 20
7.725059
 30
0.000000
 40
0.125000
  1
intermÄdiaire #4
 72
  5
 11
3.629300
 21
7.725059
 31
0.000000
  0
POLYLINE
  8
LAYER-1
 66
  1
 70
  0
 62
  0
 10
3.519057
 20
7.756307
 30
0.000000
  0
VERTEX
  8
LAYER-1
 10
3.519057
 20
7.756307
 30
0.000000
  0
VERTEX
  8
LAYER-1
 10
3.760133
 20
7.441212
 30
0.000000
  0
SEQEND
  8
LAYER-1
  0
POLYLINE
  8
LAYER-1
 66
  1
 70
  1
 62
  0
  0
VERTEX
  8
LAYER-1
 10
3.772095
 20
7.425578
 30
0.000000
  0
VERTEX
  8
LAYER-1
 10
3.696805
 20
7.455413
 30
0.000000
  0
VERTEX
  8
LAYER-1
 10
3.729897
 20
7.480732
 30
0.000000
  0
VERTEX
  8
LAYER-1
 10
3.762989
 20
7.506050
 30
0.000000
  0
VERTEX
  8
LAYER-1
 10
3.772095
 20
7.425578
 30
0.000000
  0
SEQEND
  8
LAYER-1
  0
POLYLINE
  8
LAYER-1
 66
  1
 70
  0
 62
  0
 40
0.027778
 41
0.027778
 10
3.684575
 20
0.251111
 30
0.000000
  0
VERTEX
  8
LAYER-1
 10
3.684575
 20
0.251111
 30
0.000000
  0
VERTEX
  8
LAYER-1
 10
0.775134
 20
0.251111
 30
0.000000
  0
SEQEND
  8
LAYER-1
  0
POLYLINE
  8
LAYER-1
 66
  1
 70
  0
 62
  0
 40
0.027778
 41
0.027778
 10
3.778192
 20
0.251111
 30
0.000000
  0
VERTEX
  8
LAYER-1
 10
3.778192
 20
0.251111
 30
0.000000
  0
VERTEX
  8
LAYER-1
 10
6.740412
 20
0.251111
 30
0.000000
  0
SEQEND
  8
LAYER-1
  0
POLYLINE
  8
LAYER-1
 66
  1
 70
  1
 62
  0
  0
VERTEX
  8
LAYER-1
 10
0.031375
 20
3.551135
 30
0.000000
  0
VERTEX
  8
LAYER-1
 10
0.145716
 20
3.551135
 30
0.000000
  0
VERTEX
  8
LAYER-1
 10
0.145716
 20
3.447481
 30
0.000000
  0
VERTEX
  8
LAYER-1
 10
0.031375
 20
3.447481
 30
0.000000
  0
SEQEND
  8
LAYER-1
  0
POLYLINE
  8
LAYER-1
 66
  1
 70
  1
 62
  0
  0
VERTEX
  8
LAYER-1
 10
0.179704
 20
3.551135
 30
0.000000
  0
VERTEX
  8
LAYER-1
 10
0.294334
 20
3.551135
 30
0.000000
  0
VERTEX
  8
LAYER-1
 10
0.294334
 20
3.447481
 30
0.000000
  0
VERTEX
  8
LAYER-1
 10
0.179704
 20
3.447481
 30
0.000000
  0
SEQEND
  8
LAYER-1
  0
POLYLINE
  8
LAYER-1
 66
  1
 70
  1
 62
  0
  0
VERTEX
  8
LAYER-1
 10
0.328176
 20
3.551135
 30
0.000000
  0
VERTEX
  8
LAYER-1
 10
0.442515
 20
3.551135
 30
0.000000
  0
VERTEX
  8
LAYER-1
 10
0.442515
 20
3.447481
 30
0.000000
  0
VERTEX
  8
LAYER-1
 10
0.328176
 20
3.447481
 30
0.000000
  0
SEQEND
  8
LAYER-1
  0
POLYLINE
  8
LAYER-1
 66
  1
 70
  1
 62
  0
  0
VERTEX
  8
LAYER-1
 10
0.476503
 20
3.551135
 30
0.000000
  0
VERTEX
  8
LAYER-1
 10
0.590987
 20
3.551135
 30
0.000000
  0
VERTEX
  8
LAYER-1
 10
0.590987
 20
3.447481
 30
0.000000
  0
VERTEX
  8
LAYER-1
 10
0.476503
 20
3.447481
 30
0.000000
  0
SEQEND
  8
LAYER-1
  0
POLYLINE
  8
LAYER-1
 66
  1
 70
  1
 62
  0
  0
VERTEX
  8
LAYER-1
 10
0.624975
 20
3.551135
 30
0.000000
  0
VERTEX
  8
LAYER-1
 10
0.739314
 20
3.551135
 30
0.000000
  0
VERTEX
  8
LAYER-1
 10
0.739314
 20
3.447481
 30
0.000000
  0
VERTEX
  8
LAYER-1
 10
0.624975
 20
3.447481
 30
0.000000
  0
SEQEND
  8
LAYER-1
  0
POLYLINE
  8
LAYER-1
 66
  1
 70
  1
 62
  0
  0
VERTEX
  8
LAYER-1
 10
0.773447
 20
3.551135
 30
0.000000
  0
VERTEX
  8
LAYER-1
 10
0.887788
 20
3.551135
 30
0.000000
  0
VERTEX
  8
LAYER-1
 10
0.887788
 20
3.447481
 30
0.000000
  0
VERTEX
  8
LAYER-1
 10
0.773447
 20
3.447481
 30
0.000000
  0
SEQEND
  8
LAYER-1
  0
POLYLINE
  8
LAYER-1
 66
  1
 70
  1
 62
  0
  0
VERTEX
  8
LAYER-1
 10
0.921774
 20
3.551135
 30
0.000000
  0
VERTEX
  8
LAYER-1
 10
1.036261
 20
3.551135
 30
0.000000
  0
VERTEX
  8
LAYER-1
 10
1.036261
 20
3.447481
 30
0.000000
  0
VERTEX
  8
LAYER-1
 10
0.921774
 20
3.447481
 30
0.000000
  0
SEQEND
  8
LAYER-1
  0
POLYLINE
  8
LAYER-1
 66
  1
 70
  1
 62
  0
  0
VERTEX
  8
LAYER-1
 10
0.031297
 20
5.146317
 30
0.000000
  0
VERTEX
  8
LAYER-1
 10
0.145784
 20
5.146317
 30
0.000000
  0
VERTEX
  8
LAYER-1
 10
0.145784
 20
5.042663
 30
0.000000
  0
VERTEX
  8
LAYER-1
 10
0.031297
 20
5.042663
 30
0.000000
  0
SEQEND
  8
LAYER-1
  0
POLYLINE
  8
LAYER-1
 66
  1
 70
  1
 62
  0
  0
VERTEX
  8
LAYER-1
 10
0.179623
 20
5.146317
 30
0.000000
  0
VERTEX
  8
LAYER-1
 10
0.294257
 20
5.146317
 30
0.000000
  0
VERTEX
  8
LAYER-1
 10
0.294257
 20
5.042663
 30
0.000000
  0
VERTEX
  8
LAYER-1
 10
0.179623
 20
5.042663
 30
0.000000
  0
SEQEND
  8
LAYER-1
  0
POLYLINE
  8
LAYER-1
 66
  1
 70
  1
 62
  0
  0
VERTEX
  8
LAYER-1
 10
0.328096
 20
5.146317
 30
0.000000
  0
VERTEX
  8
LAYER-1
 10
0.442583
 20
5.146317
 30
0.000000
  0
VERTEX
  8
LAYER-1
 10
0.442583
 20
5.042663
 30
0.000000
  0
VERTEX
  8
LAYER-1
 10
0.328096
 20
5.042663
 30
0.000000
  0
SEQEND
  8
LAYER-1
  0
POLYLINE
  8
LAYER-1
 66
  1
 70
  1
 62
  0
  0
VERTEX
  8
LAYER-1
 10
0.476422
 20
5.146317
 30
0.000000
  0
VERTEX
  8
LAYER-1
 10
0.590910
 20
5.146317
 30
0.000000
  0
VERTEX
  8
LAYER-1
 10
0.590910
 20
5.042663
 30
0.000000
  0
VERTEX
  8
LAYER-1
 10
0.476422
 20
5.042663
 30
0.000000
  0
SEQEND
  8
LAYER-1
  0
POLYLINE
  8
LAYER-1
 66
  1
 70
  1
 62
  0
  0
VERTEX
  8
LAYER-1
 10
0.623452
 20
5.146317
 30
0.000000
  0
VERTEX
  8
LAYER-1
 10
0.739382
 20
5.146317
 30
0.000000
  0
VERTEX
  8
LAYER-1
 10
0.739382
 20
5.042663
 30
0.000000
  0
VERTEX
  8
LAYER-1
 10
0.623452
 20
5.042663
 30
0.000000
  0
SEQEND
  8
LAYER-1
  0
POLYLINE
  8
LAYER-1
 66
  1
 70
  1
 62
  0
  0
VERTEX
  8
LAYER-1
 10
0.773369
 20
5.146317
 30
0.000000
  0
VERTEX
  8
LAYER-1
 10
0.887854
 20
5.146317
 30
0.000000
  0
VERTEX
  8
LAYER-1
 10
0.887854
 20
5.042663
 30
0.000000
  0
VERTEX
  8
LAYER-1
 10
0.773369
 20
5.042663
 30
0.000000
  0
SEQEND
  8
LAYER-1
  0
POLYLINE
  8
LAYER-1
 66
  1
 70
  1
 62
  0
  0
VERTEX
  8
LAYER-1
 10
0.921047
 20
5.146317
 30
0.000000
  0
VERTEX
  8
LAYER-1
 10
1.036183
 20
5.146317
 30
0.000000
  0
VERTEX
  8
LAYER-1
 10
1.036183
 20
5.042663
 30
0.000000
  0
VERTEX
  8
LAYER-1
 10
0.921047
 20
5.042663
 30
0.000000
  0
SEQEND
  8
LAYER-1
  0
POLYLINE
  8
LAYER-1
 66
  1
 70
  1
 62
  0
  0
VERTEX
  8
LAYER-1
 10
0.294257
 20
5.146317
 30
0.000000
  0
VERTEX
  8
LAYER-1
 10
0.310707
 20
5.146317
 30
0.000000
  0
VERTEX
  8
LAYER-1
 10
0.310707
 20
3.447525
 30
0.000000
  0
VERTEX
  8
LAYER-1
 10
0.294257
 20
3.447525
 30
0.000000
  0
SEQEND
  8
LAYER-1
  0
POLYLINE
  8
LAYER-1
 66
  1
 70
  1
 62
  0
  0
VERTEX
  8
LAYER-1
 10
0.310707
 20
5.146317
 30
0.000000
  0
VERTEX
  8
LAYER-1
 10
0.328176
 20
5.146317
 30
0.000000
  0
VERTEX
  8
LAYER-1
 10
0.328176
 20
3.447481
 30
0.000000
  0
VERTEX
  8
LAYER-1
 10
0.310707
 20
3.447481
 30
0.000000
  0
SEQEND
  8
LAYER-1
  0
POLYLINE
  8
LAYER-1
 66
  1
 70
  1
 62
  0
  0
VERTEX
  8
LAYER-1
 10
0.442583
 20
5.146317
 30
0.000000
  0
VERTEX
  8
LAYER-1
 10
0.459116
 20
5.146317
 30
0.000000
  0
VERTEX
  8
LAYER-1
 10
0.459116
 20
3.447525
 30
0.000000
  0
VERTEX
  8
LAYER-1
 10
0.442583
 20
3.447525
 30
0.000000
  0
SEQEND
  8
LAYER-1
  0
POLYLINE
  8
LAYER-1
 66
  1
 70
  1
 62
  0
  0
VERTEX
  8
LAYER-1
 10
0.459116
 20
5.146317
 30
0.000000
  0
VERTEX
  8
LAYER-1
 10
0.476503
 20
5.146317
 30
0.000000
  0
VERTEX
  8
LAYER-1
 10
0.476503
 20
3.447481
 30
0.000000
  0
VERTEX
  8
LAYER-1
 10
0.459116
 20
3.447481
 30
0.000000
  0
SEQEND
  8
LAYER-1
  0
POLYLINE
  8
LAYER-1
 66
  1
 70
  1
 62
  0
  0
VERTEX
  8
LAYER-1
 10
0.590910
 20
5.146317
 30
0.000000
  0
VERTEX
  8
LAYER-1
 10
0.607526
 20
5.146317
 30
0.000000
  0
VERTEX
  8
LAYER-1
 10
0.607526
 20
3.447525
 30
0.000000
  0
VERTEX
  8
LAYER-1
 10
0.590910
 20
3.447525
 30
0.000000
  0
SEQEND
  8
LAYER-1
  0
POLYLINE
  8
LAYER-1
 66
  1
 70
  1
 62
  0
  0
VERTEX
  8
LAYER-1
 10
0.607526
 20
5.146317
 30
0.000000
  0
VERTEX
  8
LAYER-1
 10
0.624975
 20
5.146317
 30
0.000000
  0
VERTEX
  8
LAYER-1
 10
0.624975
 20
3.447481
 30
0.000000
  0
VERTEX
  8
LAYER-1
 10
0.607526
 20
3.447481
 30
0.000000
  0
SEQEND
  8
LAYER-1
  0
POLYLINE
  8
LAYER-1
 66
  1
 70
  1
 62
  0
  0
VERTEX
  8
LAYER-1
 10
0.739382
 20
5.146317
 30
0.000000
  0
VERTEX
  8
LAYER-1
 10
0.755934
 20
5.146317
 30
0.000000
  0
VERTEX
  8
LAYER-1
 10
0.755934
 20
3.447525
 30
0.000000
  0
VERTEX
  8
LAYER-1
 10
0.739382
 20
3.447525
 30
0.000000
  0
SEQEND
  8
LAYER-1
  0
POLYLINE
  8
LAYER-1
 66
  1
 70
  1
 62
  0
  0
VERTEX
  8
LAYER-1
 10
0.755934
 20
5.146317
 30
0.000000
  0
VERTEX
  8
LAYER-1
 10
0.773447
 20
5.146317
 30
0.000000
  0
VERTEX
  8
LAYER-1
 10
0.773447
 20
3.447481
 30
0.000000
  0
VERTEX
  8
LAYER-1
 10
0.755934
 20
3.447481
 30
0.000000
  0
SEQEND
  8
LAYER-1
  0
POLYLINE
  8
LAYER-1
 66
  1
 70
  1
 62
  0
  0
VERTEX
  8
LAYER-1
 10
0.887854
 20
5.146317
 30
0.000000
  0
VERTEX
  8
LAYER-1
 10
0.904344
 20
5.146317
 30
0.000000
  0
VERTEX
  8
LAYER-1
 10
0.904344
 20
3.447525
 30
0.000000
  0
VERTEX
  8
LAYER-1
 10
0.887854
 20
3.447525
 30
0.000000
  0
SEQEND
  8
LAYER-1
  0
POLYLINE
  8
LAYER-1
 66
  1
 70
  1
 62
  0
  0
VERTEX
  8
LAYER-1
 10
0.904344
 20
5.146317
 30
0.000000
  0
VERTEX
  8
LAYER-1
 10
0.921774
 20
5.146317
 30
0.000000
  0
VERTEX
  8
LAYER-1
 10
0.921774
 20
3.447481
 30
0.000000
  0
VERTEX
  8
LAYER-1
 10
0.904344
 20
3.447481
 30
0.000000
  0
SEQEND
  8
LAYER-1
  0
POLYLINE
  8
LAYER-1
 66
  1
 70
  1
 62
  0
  0
VERTEX
  8
LAYER-1
 10
0.145784
 20
5.146317
 30
0.000000
  0
VERTEX
  8
LAYER-1
 10
0.162300
 20
5.146317
 30
0.000000
  0
VERTEX
  8
LAYER-1
 10
0.162300
 20
3.447525
 30
0.000000
  0
VERTEX
  8
LAYER-1
 10
0.145784
 20
3.447525
 30
0.000000
  0
SEQEND
  8
LAYER-1
  0
POLYLINE
  8
LAYER-1
 66
  1
 70
  1
 62
  0
  0
VERTEX
  8
LAYER-1
 10
0.162300
 20
5.146317
 30
0.000000
  0
VERTEX
  8
LAYER-1
 10
0.179704
 20
5.146317
 30
0.000000
  0
VERTEX
  8
LAYER-1
 10
0.179704
 20
3.447481
 30
0.000000
  0
VERTEX
  8
LAYER-1
 10
0.162300
 20
3.447481
 30
0.000000
  0
SEQEND
  8
LAYER-1
  0
LINE
  8
LAYER-1
 62
  0
 10
0.049162
 20
4.391995
 30
0.000000
 11
0.111328
 21
4.524745
 31
0.000000
  0
LINE
  8
LAYER-1
 62
  0
 10
0.070970
 20
4.381783
 30
0.000000
 11
0.133135
 21
4.514532
 31
0.000000
  0
LINE
  8
LAYER-1
 62
  0
 10
0.049162
 20
4.841342
 30
0.000000
 11
0.111328
 21
4.974089
 31
0.000000
  0
LINE
  8
LAYER-1
 62
  0
 10
0.070970
 20
4.831130
 30
0.000000
 11
0.133135
 21
4.963877
 31
0.000000
  0
LINE
  8
LAYER-1
 62
  0
 10
0.197572
 20
4.391995
 30
0.000000
 11
0.259738
 21
4.524745
 31
0.000000
  0
LINE
  8
LAYER-1
 62
  0
 10
0.219380
 20
4.381783
 30
0.000000
 11
0.281545
 21
4.514532
 31
0.000000
  0
LINE
  8
LAYER-1
 62
  0
 10
0.197572
 20
4.841342
 30
0.000000
 11
0.259738
 21
4.974089
 31
0.000000
  0
LINE
  8
LAYER-1
 62
  0
 10
0.219380
 20
4.831130
 30
0.000000
 11
0.281545
 21
4.963877
 31
0.000000
  0
LINE
  8
LAYER-1
 62
  0
 10
0.345979
 20
4.391995
 30
0.000000
 11
0.408145
 21
4.524745
 31
0.000000
  0
LINE
  8
LAYER-1
 62
  0
 10
0.367786
 20
4.381783
 30
0.000000
 11
0.429953
 21
4.514532
 31
0.000000
  0
LINE
  8
LAYER-1
 62
  0
 10
0.345979
 20
4.841342
 30
0.000000
 11
0.408145
 21
4.974089
 31
0.000000
  0
LINE
  8
LAYER-1
 62
  0
 10
0.367786
 20
4.831130
 30
0.000000
 11
0.429953
 21
4.963877
 31
0.000000
  0
LINE
  8
LAYER-1
 62
  0
 10
0.494388
 20
4.391995
 30
0.000000
 11
0.556554
 21
4.524745
 31
0.000000
  0
LINE
  8
LAYER-1
 62
  0
 10
0.516196
 20
4.381783
 30
0.000000
 11
0.578361
 21
4.514532
 31
0.000000
  0
LINE
  8
LAYER-1
 62
  0
 10
0.494388
 20
4.841342
 30
0.000000
 11
0.556554
 21
4.974089
 31
0.000000
  0
LINE
  8
LAYER-1
 62
  0
 10
0.516196
 20
4.831130
 30
0.000000
 11
0.578361
 21
4.963877
 31
0.000000
  0
LINE
  8
LAYER-1
 62
  0
 10
0.642797
 20
4.391995
 30
0.000000
 11
0.704964
 21
4.524745
 31
0.000000
  0
LINE
  8
LAYER-1
 62
  0
 10
0.664605
 20
4.381783
 30
0.000000
 11
0.726771
 21
4.514532
 31
0.000000
  0
LINE
  8
LAYER-1
 62
  0
 10
0.642797
 20
4.841342
 30
0.000000
 11
0.704964
 21
4.974089
 31
0.000000
  0
LINE
  8
LAYER-1
 62
  0
 10
0.664605
 20
4.831130
 30
0.000000
 11
0.726771
 21
4.963877
 31
0.000000
  0
LINE
  8
LAYER-1
 62
  0
 10
0.791207
 20
4.391995
 30
0.000000
 11
0.853372
 21
4.524745
 31
0.000000
  0
LINE
  8
LAYER-1
 62
  0
 10
0.813014
 20
4.381783
 30
0.000000
 11
0.875180
 21
4.514532
 31
0.000000
  0
LINE
  8
LAYER-1
 62
  0
 10
0.791207
 20
4.841342
 30
0.000000
 11
0.853372
 21
4.974089
 31
0.000000
  0
LINE
  8
LAYER-1
 62
  0
 10
0.813014
 20
4.831130
 30
0.000000
 11
0.875180
 21
4.963877
 31
0.000000
  0
LINE
  8
LAYER-1
 62
  0
 10
0.939615
 20
4.391995
 30
0.000000
 11
1.001780
 21
4.524745
 31
0.000000
  0
LINE
  8
LAYER-1
 62
  0
 10
0.961422
 20
4.381783
 30
0.000000
 11
1.023587
 21
4.514532
 31
0.000000
  0
LINE
  8
LAYER-1
 62
  0
 10
0.939615
 20
4.841342
 30
0.000000
 11
1.001780
 21
4.974089
 31
0.000000
  0
LINE
  8
LAYER-1
 62
  0
 10
0.961422
 20
4.831130
 30
0.000000
 11
1.023587
 21
4.963877
 31
0.000000
  0
LINE
  8
LAYER-1
 62
  0
 10
0.049162
 20
4.066114
 30
0.000000
 11
0.111328
 21
4.198861
 31
0.000000
  0
LINE
  8
LAYER-1
 62
  0
 10
0.070970
 20
4.055901
 30
0.000000
 11
0.133135
 21
4.188649
 31
0.000000
  0
LINE
  8
LAYER-1
 62
  0
 10
0.046770
 20
3.631077
 30
0.000000
 11
0.108938
 21
3.763827
 31
0.000000
  0
LINE
  8
LAYER-1
 62
  0
 10
0.068577
 20
3.620864
 30
0.000000
 11
0.130745
 21
3.753614
 31
0.000000
  0
LINE
  8
LAYER-1
 62
  0
 10
0.197572
 20
4.066114
 30
0.000000
 11
0.259738
 21
4.198861
 31
0.000000
  0
LINE
  8
LAYER-1
 62
  0
 10
0.219380
 20
4.055901
 30
0.000000
 11
0.281545
 21
4.188649
 31
0.000000
  0
LINE
  8
LAYER-1
 62
  0
 10
0.195181
 20
3.631077
 30
0.000000
 11
0.257345
 21
3.763827
 31
0.000000
  0
LINE
  8
LAYER-1
 62
  0
 10
0.216988
 20
3.620864
 30
0.000000
 11
0.279153
 21
3.753614
 31
0.000000
  0
LINE
  8
LAYER-1
 62
  0
 10
0.345979
 20
4.066114
 30
0.000000
 11
0.408145
 21
4.198861
 31
0.000000
  0
LINE
  8
LAYER-1
 62
  0
 10
0.367786
 20
4.055901
 30
0.000000
 11
0.429953
 21
4.188649
 31
0.000000
  0
LINE
  8
LAYER-1
 62
  0
 10
0.343588
 20
3.631077
 30
0.000000
 11
0.405756
 21
3.763827
 31
0.000000
  0
LINE
  8
LAYER-1
 62
  0
 10
0.365396
 20
3.620864
 30
0.000000
 11
0.427563
 21
3.753614
 31
0.000000
  0
LINE
  8
LAYER-1
 62
  0
 10
0.494388
 20
4.066114
 30
0.000000
 11
0.556554
 21
4.198861
 31
0.000000
  0
LINE
  8
LAYER-1
 62
  0
 10
0.516196
 20
4.055901
 30
0.000000
 11
0.578361
 21
4.188649
 31
0.000000
  0
LINE
  8
LAYER-1
 62
  0
 10
0.491998
 20
3.631077
 30
0.000000
 11
0.554164
 21
3.763827
 31
0.000000
  0
LINE
  8
LAYER-1
 62
  0
 10
0.513805
 20
3.620864
 30
0.000000
 11
0.575971
 21
3.753614
 31
0.000000
  0
LINE
  8
LAYER-1
 62
  0
 10
0.642797
 20
4.066114
 30
0.000000
 11
0.704964
 21
4.198861
 31
0.000000
  0
LINE
  8
LAYER-1
 62
  0
 10
0.664605
 20
4.055901
 30
0.000000
 11
0.726771
 21
4.188649
 31
0.000000
  0
LINE
  8
LAYER-1
 62
  0
 10
0.640407
 20
3.631077
 30
0.000000
 11
0.702572
 21
3.763827
 31
0.000000
  0
LINE
  8
LAYER-1
 62
  0
 10
0.662214
 20
3.620864
 30
0.000000
 11
0.724380
 21
3.753614
 31
0.000000
  0
LINE
  8
LAYER-1
 62
  0
 10
0.791207
 20
4.066114
 30
0.000000
 11
0.853372
 21
4.198861
 31
0.000000
  0
LINE
  8
LAYER-1
 62
  0
 10
0.813014
 20
4.055901
 30
0.000000
 11
0.875180
 21
4.188649
 31
0.000000
  0
LINE
  8
LAYER-1
 62
  0
 10
0.788814
 20
3.631077
 30
0.000000
 11
0.850980
 21
3.763827
 31
0.000000
  0
LINE
  8
LAYER-1
 62
  0
 10
0.810622
 20
3.620864
 30
0.000000
 11
0.872787
 21
3.753614
 31
0.000000
  0
LINE
  8
LAYER-1
 62
  0
 10
0.939615
 20
4.066114
 30
0.000000
 11
1.001780
 21
4.198861
 31
0.000000
  0
LINE
  8
LAYER-1
 62
  0
 10
0.961422
 20
4.055901
 30
0.000000
 11
1.023587
 21
4.188649
 31
0.000000
  0
LINE
  8
LAYER-1
 62
  0
 10
0.937225
 20
3.631077
 30
0.000000
 11
0.999390
 21
3.763827
 31
0.000000
  0
LINE
  8
LAYER-1
 62
  0
 10
0.959032
 20
3.620864
 30
0.000000
 11
1.021198
 21
3.753614
 31
0.000000
  0
TEXT
  8
LAYER-1
 62
  0
 10
0.212634
 20
3.238948
 30
0.000000
 40
0.104167
  1
IMPACT
 72
  5
 11
0.809856
 21
3.238948
 31
0.000000
  0
TEXT
  8
LAYER-1
 62
  0
 10
0.809856
 20
3.238948
 30
0.000000
 40
0.104167
  1
 
 72
  5
 11
0.920967
 21
3.238948
 31
0.000000
  0
TEXT
  8
LAYER-1
 62
  0
 10
0.143189
 20
3.155614
 30
0.000000
 40
0.083333
  1
(Polycarbonate)
 72
  5
 11
0.962634
 21
3.155614
 31
0.000000
  0
POLYLINE
  8
LAYER-1
 66
  1
 70
  1
 62
  0
  0
VERTEX
  8
LAYER-1
 10
0.013889
 20
5.146317
 30
0.000000
  0
VERTEX
  8
LAYER-1
 10
0.031375
 20
5.146317
 30
0.000000
  0
VERTEX
  8
LAYER-1
 10
0.031375
 20
3.447481
 30
0.000000
  0
VERTEX
  8
LAYER-1
 10
0.013889
 20
3.447481
 30
0.000000
  0
SEQEND
  8
LAYER-1
  0
POLYLINE
  8
LAYER-1
 66
  1
 70
  1
 62
  0
  0
VERTEX
  8
LAYER-1
 10
1.036183
 20
5.146317
 30
0.000000
  0
VERTEX
  8
LAYER-1
 10
1.053577
 20
5.146317
 30
0.000000
  0
VERTEX
  8
LAYER-1
 10
1.053577
 20
3.447525
 30
0.000000
  0
VERTEX
  8
LAYER-1
 10
1.036183
 20
3.447525
 30
0.000000
  0
SEQEND
  8
LAYER-1
  0
POLYLINE
  8
LAYER-1
 66
  1
 70
  1
 62
  0
  0
VERTEX
  8
LAYER-1
 10
0.031297
 20
4.308392
 30
0.000000
  0
VERTEX
  8
LAYER-1
 10
0.145564
 20
4.308392
 30
0.000000
  0
VERTEX
  8
LAYER-1
 10
0.145564
 20
4.283611
 30
0.000000
  0
VERTEX
  8
LAYER-1
 10
0.031297
 20
4.283611
 30
0.000000
  0
SEQEND
  8
LAYER-1
  0
POLYLINE
  8
LAYER-1
 66
  1
 70
  1
 62
  0
  0
VERTEX
  8
LAYER-1
 10
0.179705
 20
4.308392
 30
0.000000
  0
VERTEX
  8
LAYER-1
 10
0.294769
 20
4.308392
 30
0.000000
  0
VERTEX
  8
LAYER-1
 10
0.294769
 20
4.283611
 30
0.000000
  0
VERTEX
  8
LAYER-1
 10
0.179705
 20
4.283611
 30
0.000000
  0
SEQEND
  8
LAYER-1
  0
POLYLINE
  8
LAYER-1
 66
  1
 70
  1
 62
  0
  0
VERTEX
  8
LAYER-1
 10
0.328115
 20
4.308392
 30
0.000000
  0
VERTEX
  8
LAYER-1
 10
0.442383
 20
4.308392
 30
0.000000
  0
VERTEX
  8
LAYER-1
 10
0.442383
 20
4.283611
 30
0.000000
  0
VERTEX
  8
LAYER-1
 10
0.328115
 20
4.283611
 30
0.000000
  0
SEQEND
  8
LAYER-1
  0
POLYLINE
  8
LAYER-1
 66
  1
 70
  1
 62
  0
  0
VERTEX
  8
LAYER-1
 10
0.476523
 20
4.308392
 30
0.000000
  0
VERTEX
  8
LAYER-1
 10
0.590791
 20
4.308392
 30
0.000000
  0
VERTEX
  8
LAYER-1
 10
0.590791
 20
4.283611
 30
0.000000
  0
VERTEX
  8
LAYER-1
 10
0.476523
 20
4.283611
 30
0.000000
  0
SEQEND
  8
LAYER-1
  0
POLYLINE
  8
LAYER-1
 66
  1
 70
  1
 62
  0
  0
VERTEX
  8
LAYER-1
 10
0.624934
 20
4.308392
 30
0.000000
  0
VERTEX
  8
LAYER-1
 10
0.739201
 20
4.308392
 30
0.000000
  0
VERTEX
  8
LAYER-1
 10
0.739201
 20
4.283611
 30
0.000000
  0
VERTEX
  8
LAYER-1
 10
0.624934
 20
4.283611
 30
0.000000
  0
SEQEND
  8
LAYER-1
  0
POLYLINE
  8
LAYER-1
 66
  1
 70
  1
 62
  0
  0
VERTEX
  8
LAYER-1
 10
0.773341
 20
4.308392
 30
0.000000
  0
VERTEX
  8
LAYER-1
 10
0.888406
 20
4.308392
 30
0.000000
  0
VERTEX
  8
LAYER-1
 10
0.888406
 20
4.283611
 30
0.000000
  0
VERTEX
  8
LAYER-1
 10
0.773341
 20
4.283611
 30
0.000000
  0
SEQEND
  8
LAYER-1
  0
POLYLINE
  8
LAYER-1
 66
  1
 70
  1
 62
  0
  0
VERTEX
  8
LAYER-1
 10
0.921750
 20
4.308392
 30
0.000000
  0
VERTEX
  8
LAYER-1
 10
1.036017
 20
4.308392
 30
0.000000
  0
VERTEX
  8
LAYER-1
 10
1.036017
 20
4.283611
 30
0.000000
  0
VERTEX
  8
LAYER-1
 10
0.921750
 20
4.283611
 30
0.000000
  0
SEQEND
  8
LAYER-1
  0
POLYLINE
  8
LAYER-1
 66
  1
 70
  0
 62
  7
 10
0.031375
 20
5.146317
 30
0.000000
  0
VERTEX
  8
LAYER-1
 10
0.031375
 20
5.146317
 30
0.000000
  0
VERTEX
  8
LAYER-1
 10
0.031375
 20
5.042663
 30
0.000000
  0
SEQEND
  8
LAYER-1
  0
POLYLINE
  8
LAYER-1
 66
  1
 70
  0
 62
  7
 10
0.145784
 20
5.146317
 30
0.000000
  0
VERTEX
  8
LAYER-1
 10
0.145784
 20
5.146317
 30
0.000000
  0
VERTEX
  8
LAYER-1
 10
0.145784
 20
5.042663
 30
0.000000
  0
SEQEND
  8
LAYER-1
  0
POLYLINE
  8
LAYER-1
 66
  1
 70
  0
 62
  7
 10
0.179704
 20
5.146317
 30
0.000000
  0
VERTEX
  8
LAYER-1
 10
0.179704
 20
5.146317
 30
0.000000
  0
VERTEX
  8
LAYER-1
 10
0.179704
 20
5.042663
 30
0.000000
  0
SEQEND
  8
LAYER-1
  0
POLYLINE
  8
LAYER-1
 66
  1
 70
  0
 62
  7
 10
0.294257
 20
5.146317
 30
0.000000
  0
VERTEX
  8
LAYER-1
 10
0.294257
 20
5.146317
 30
0.000000
  0
VERTEX
  8
LAYER-1
 10
0.294257
 20
5.042663
 30
0.000000
  0
SEQEND
  8
LAYER-1
  0
POLYLINE
  8
LAYER-1
 66
  1
 70
  0
 62
  7
 10
0.328176
 20
5.146317
 30
0.000000
  0
VERTEX
  8
LAYER-1
 10
0.328176
 20
5.146317
 30
0.000000
  0
VERTEX
  8
LAYER-1
 10
0.328176
 20
5.042663
 30
0.000000
  0
SEQEND
  8
LAYER-1
  0
POLYLINE
  8
LAYER-1
 66
  1
 70
  0
 62
  7
 10
0.442583
 20
5.146317
 30
0.000000
  0
VERTEX
  8
LAYER-1
 10
0.442583
 20
5.146317
 30
0.000000
  0
VERTEX
  8
LAYER-1
 10
0.442583
 20
5.042663
 30
0.000000
  0
SEQEND
  8
LAYER-1
  0
POLYLINE
  8
LAYER-1
 66
  1
 70
  0
 62
  7
 10
0.476503
 20
5.146317
 30
0.000000
  0
VERTEX
  8
LAYER-1
 10
0.476503
 20
5.146317
 30
0.000000
  0
VERTEX
  8
LAYER-1
 10
0.476503
 20
5.042663
 30
0.000000
  0
SEQEND
  8
LAYER-1
  0
POLYLINE
  8
LAYER-1
 66
  1
 70
  0
 62
  7
 10
0.590910
 20
5.146317
 30
0.000000
  0
VERTEX
  8
LAYER-1
 10
0.590910
 20
5.146317
 30
0.000000
  0
VERTEX
  8
LAYER-1
 10
0.590910
 20
5.042663
 30
0.000000
  0
SEQEND
  8
LAYER-1
  0
POLYLINE
  8
LAYER-1
 66
  1
 70
  0
 62
  7
 10
0.624975
 20
5.146317
 30
0.000000
  0
VERTEX
  8
LAYER-1
 10
0.624975
 20
5.146317
 30
0.000000
  0
VERTEX
  8
LAYER-1
 10
0.624975
 20
5.042663
 30
0.000000
  0
SEQEND
  8
LAYER-1
  0
POLYLINE
  8
LAYER-1
 66
  1
 70
  0
 62
  7
 10
0.739382
 20
5.146317
 30
0.000000
  0
VERTEX
  8
LAYER-1
 10
0.739382
 20
5.146317
 30
0.000000
  0
VERTEX
  8
LAYER-1
 10
0.739382
 20
5.042663
 30
0.000000
  0
SEQEND
  8
LAYER-1
  0
POLYLINE
  8
LAYER-1
 66
  1
 70
  0
 62
  7
 10
0.773447
 20
5.146317
 30
0.000000
  0
VERTEX
  8
LAYER-1
 10
0.773447
 20
5.146317
 30
0.000000
  0
VERTEX
  8
LAYER-1
 10
0.773447
 20
5.042663
 30
0.000000
  0
SEQEND
  8
LAYER-1
  0
POLYLINE
  8
LAYER-1
 66
  1
 70
  0
 62
  7
 10
0.887854
 20
5.146317
 30
0.000000
  0
VERTEX
  8
LAYER-1
 10
0.887854
 20
5.146317
 30
0.000000
  0
VERTEX
  8
LAYER-1
 10
0.887854
 20
5.042663
 30
0.000000
  0
SEQEND
  8
LAYER-1
  0
POLYLINE
  8
LAYER-1
 66
  1
 70
  0
 62
  7
 10
0.921047
 20
5.146317
 30
0.000000
  0
VERTEX
  8
LAYER-1
 10
0.921047
 20
5.146317
 30
0.000000
  0
VERTEX
  8
LAYER-1
 10
0.921047
 20
5.042663
 30
0.000000
  0
SEQEND
  8
LAYER-1
  0
POLYLINE
  8
LAYER-1
 66
  1
 70
  0
 62
  7
 10
1.036183
 20
5.146317
 30
0.000000
  0
VERTEX
  8
LAYER-1
 10
1.036183
 20
5.146317
 30
0.000000
  0
VERTEX
  8
LAYER-1
 10
1.036183
 20
5.042663
 30
0.000000
  0
SEQEND
  8
LAYER-1
  0
POLYLINE
  8
LAYER-1
 66
  1
 70
  0
 62
  7
 10
0.031297
 20
4.308392
 30
0.000000
  0
VERTEX
  8
LAYER-1
 10
0.031297
 20
4.308392
 30
0.000000
  0
VERTEX
  8
LAYER-1
 10
0.031297
 20
4.283611
 30
0.000000
  0
SEQEND
  8
LAYER-1
  0
POLYLINE
  8
LAYER-1
 66
  1
 70
  0
 62
  7
 10
0.145564
 20
4.308392
 30
0.000000
  0
VERTEX
  8
LAYER-1
 10
0.145564
 20
4.308392
 30
0.000000
  0
VERTEX
  8
LAYER-1
 10
0.145564
 20
4.283611
 30
0.000000
  0
SEQEND
  8
LAYER-1
  0
POLYLINE
  8
LAYER-1
 66
  1
 70
  0
 62
  7
 10
0.179705
 20
4.308392
 30
0.000000
  0
VERTEX
  8
LAYER-1
 10
0.179705
 20
4.308392
 30
0.000000
  0
VERTEX
  8
LAYER-1
 10
0.179705
 20
4.283611
 30
0.000000
  0
SEQEND
  8
LAYER-1
  0
POLYLINE
  8
LAYER-1
 66
  1
 70
  0
 62
  7
 10
0.294769
 20
4.308392
 30
0.000000
  0
VERTEX
  8
LAYER-1
 10
0.294769
 20
4.308392
 30
0.000000
  0
VERTEX
  8
LAYER-1
 10
0.294769
 20
4.283611
 30
0.000000
  0
SEQEND
  8
LAYER-1
  0
POLYLINE
  8
LAYER-1
 66
  1
 70
  0
 62
  7
 10
0.328115
 20
4.308392
 30
0.000000
  0
VERTEX
  8
LAYER-1
 10
0.328115
 20
4.308392
 30
0.000000
  0
VERTEX
  8
LAYER-1
 10
0.328115
 20
4.283611
 30
0.000000
  0
SEQEND
  8
LAYER-1
  0
POLYLINE
  8
LAYER-1
 66
  1
 70
  0
 62
  7
 10
0.442383
 20
4.308392
 30
0.000000
  0
VERTEX
  8
LAYER-1
 10
0.442383
 20
4.308392
 30
0.000000
  0
VERTEX
  8
LAYER-1
 10
0.442383
 20
4.283611
 30
0.000000
  0
SEQEND
  8
LAYER-1
  0
POLYLINE
  8
LAYER-1
 66
  1
 70
  0
 62
  7
 10
0.476523
 20
4.308392
 30
0.000000
  0
VERTEX
  8
LAYER-1
 10
0.476523
 20
4.308392
 30
0.000000
  0
VERTEX
  8
LAYER-1
 10
0.476523
 20
4.283611
 30
0.000000
  0
SEQEND
  8
LAYER-1
  0
POLYLINE
  8
LAYER-1
 66
  1
 70
  0
 62
  7
 10
0.590791
 20
4.308392
 30
0.000000
  0
VERTEX
  8
LAYER-1
 10
0.590791
 20
4.308392
 30
0.000000
  0
VERTEX
  8
LAYER-1
 10
0.590791
 20
4.283611
 30
0.000000
  0
SEQEND
  8
LAYER-1
  0
POLYLINE
  8
LAYER-1
 66
  1
 70
  0
 62
  7
 10
0.624934
 20
4.308392
 30
0.000000
  0
VERTEX
  8
LAYER-1
 10
0.624934
 20
4.308392
 30
0.000000
  0
VERTEX
  8
LAYER-1
 10
0.624934
 20
4.283611
 30
0.000000
  0
SEQEND
  8
LAYER-1
  0
POLYLINE
  8
LAYER-1
 66
  1
 70
  0
 62
  7
 10
0.739201
 20
4.308392
 30
0.000000
  0
VERTEX
  8
LAYER-1
 10
0.739201
 20
4.308392
 30
0.000000
  0
VERTEX
  8
LAYER-1
 10
0.739201
 20
4.283611
 30
0.000000
  0
SEQEND
  8
LAYER-1
  0
POLYLINE
  8
LAYER-1
 66
  1
 70
  0
 62
  7
 10
0.773341
 20
4.308392
 30
0.000000
  0
VERTEX
  8
LAYER-1
 10
0.773341
 20
4.308392
 30
0.000000
  0
VERTEX
  8
LAYER-1
 10
0.773341
 20
4.283611
 30
0.000000
  0
SEQEND
  8
LAYER-1
  0
POLYLINE
  8
LAYER-1
 66
  1
 70
  0
 62
  7
 10
0.888406
 20
4.308392
 30
0.000000
  0
VERTEX
  8
LAYER-1
 10
0.888406
 20
4.308392
 30
0.000000
  0
VERTEX
  8
LAYER-1
 10
0.888406
 20
4.283611
 30
0.000000
  0
SEQEND
  8
LAYER-1
  0
POLYLINE
  8
LAYER-1
 66
  1
 70
  0
 62
  7
 10
0.921750
 20
4.308392
 30
0.000000
  0
VERTEX
  8
LAYER-1
 10
0.921750
 20
4.308392
 30
0.000000
  0
VERTEX
  8
LAYER-1
 10
0.921750
 20
4.283611
 30
0.000000
  0
SEQEND
  8
LAYER-1
  0
POLYLINE
  8
LAYER-1
 66
  1
 70
  0
 62
  7
 10
1.036017
 20
4.308392
 30
0.000000
  0
VERTEX
  8
LAYER-1
 10
1.036017
 20
4.308392
 30
0.000000
  0
VERTEX
  8
LAYER-1
 10
1.036017
 20
4.283611
 30
0.000000
  0
SEQEND
  8
LAYER-1
  0
POLYLINE
  8
LAYER-1
 66
  1
 70
  0
 62
  7
 10
0.031375
 20
3.551135
 30
0.000000
  0
VERTEX
  8
LAYER-1
 10
0.031375
 20
3.551135
 30
0.000000
  0
VERTEX
  8
LAYER-1
 10
0.031375
 20
3.447481
 30
0.000000
  0
SEQEND
  8
LAYER-1
  0
POLYLINE
  8
LAYER-1
 66
  1
 70
  0
 62
  7
 10
0.145716
 20
3.551135
 30
0.000000
  0
VERTEX
  8
LAYER-1
 10
0.145716
 20
3.551135
 30
0.000000
  0
VERTEX
  8
LAYER-1
 10
0.145716
 20
3.447525
 30
0.000000
  0
SEQEND
  8
LAYER-1
  0
POLYLINE
  8
LAYER-1
 66
  1
 70
  0
 62
  7
 10
0.179704
 20
3.551135
 30
0.000000
  0
VERTEX
  8
LAYER-1
 10
0.179704
 20
3.551135
 30
0.000000
  0
VERTEX
  8
LAYER-1
 10
0.179704
 20
3.447481
 30
0.000000
  0
SEQEND
  8
LAYER-1
  0
POLYLINE
  8
LAYER-1
 66
  1
 70
  0
 62
  7
 10
0.294334
 20
3.551135
 30
0.000000
  0
VERTEX
  8
LAYER-1
 10
0.294334
 20
3.551135
 30
0.000000
  0
VERTEX
  8
LAYER-1
 10
0.294334
 20
3.447525
 30
0.000000
  0
SEQEND
  8
LAYER-1
  0
POLYLINE
  8
LAYER-1
 66
  1
 70
  0
 62
  7
 10
0.328176
 20
3.551135
 30
0.000000
  0
VERTEX
  8
LAYER-1
 10
0.328176
 20
3.551135
 30
0.000000
  0
VERTEX
  8
LAYER-1
 10
0.328176
 20
3.447803
 30
0.000000
  0
SEQEND
  8
LAYER-1
  0
POLYLINE
  8
LAYER-1
 66
  1
 70
  0
 62
  7
 10
0.442515
 20
3.551135
 30
0.000000
  0
VERTEX
  8
LAYER-1
 10
0.442515
 20
3.551135
 30
0.000000
  0
VERTEX
  8
LAYER-1
 10
0.442515
 20
3.447525
 30
0.000000
  0
SEQEND
  8
LAYER-1
  0
POLYLINE
  8
LAYER-1
 66
  1
 70
  0
 62
  7
 10
0.476503
 20
3.551135
 30
0.000000
  0
VERTEX
  8
LAYER-1
 10
0.476503
 20
3.551135
 30
0.000000
  0
VERTEX
  8
LAYER-1
 10
0.476503
 20
3.447481
 30
0.000000
  0
SEQEND
  8
LAYER-1
  0
POLYLINE
  8
LAYER-1
 66
  1
 70
  0
 62
  7
 10
0.590987
 20
3.551135
 30
0.000000
  0
VERTEX
  8
LAYER-1
 10
0.590987
 20
3.551135
 30
0.000000
  0
VERTEX
  8
LAYER-1
 10
0.590987
 20
3.447525
 30
0.000000
  0
SEQEND
  8
LAYER-1
  0
POLYLINE
  8
LAYER-1
 66
  1
 70
  0
 62
  7
 10
0.624975
 20
3.551135
 30
0.000000
  0
VERTEX
  8
LAYER-1
 10
0.624975
 20
3.551135
 30
0.000000
  0
VERTEX
  8
LAYER-1
 10
0.624975
 20
3.447481
 30
0.000000
  0
SEQEND
  8
LAYER-1
  0
POLYLINE
  8
LAYER-1
 66
  1
 70
  0
 62
  7
 10
0.739314
 20
3.551135
 30
0.000000
  0
VERTEX
  8
LAYER-1
 10
0.739314
 20
3.551135
 30
0.000000
  0
VERTEX
  8
LAYER-1
 10
0.739314
 20
3.447803
 30
0.000000
  0
SEQEND
  8
LAYER-1
  0
POLYLINE
  8
LAYER-1
 66
  1
 70
  0
 62
  7
 10
0.773447
 20
3.551135
 30
0.000000
  0
VERTEX
  8
LAYER-1
 10
0.773447
 20
3.551135
 30
0.000000
  0
VERTEX
  8
LAYER-1
 10
0.773447
 20
3.447481
 30
0.000000
  0
SEQEND
  8
LAYER-1
  0
POLYLINE
  8
LAYER-1
 66
  1
 70
  0
 62
  7
 10
0.887788
 20
3.551135
 30
0.000000
  0
VERTEX
  8
LAYER-1
 10
0.887788
 20
3.551135
 30
0.000000
  0
VERTEX
  8
LAYER-1
 10
0.887788
 20
3.447525
 30
0.000000
  0
SEQEND
  8
LAYER-1
  0
POLYLINE
  8
LAYER-1
 66
  1
 70
  0
 62
  7
 10
0.921774
 20
3.551135
 30
0.000000
  0
VERTEX
  8
LAYER-1
 10
0.921774
 20
3.551135
 30
0.000000
  0
VERTEX
  8
LAYER-1
 10
0.921774
 20
3.447481
 30
0.000000
  0
SEQEND
  8
LAYER-1
  0
POLYLINE
  8
LAYER-1
 66
  1
 70
  0
 62
  7
 10
1.036261
 20
3.551135
 30
0.000000
  0
VERTEX
  8
LAYER-1
 10
1.036261
 20
3.551135
 30
0.000000
  0
VERTEX
  8
LAYER-1
 10
1.036261
 20
3.447525
 30
0.000000
  0
SEQEND
  8
LAYER-1
  0
POLYLINE
  8
LAYER-1
 66
  1
 70
  0
 62
  7
 10
0.162300
 20
5.146317
 30
0.000000
  0
VERTEX
  8
LAYER-1
 10
0.162300
 20
5.146317
 30
0.000000
  0
VERTEX
  8
LAYER-1
 10
0.162300
 20
3.447481
 30
0.000000
  0
SEQEND
  8
LAYER-1
  0
POLYLINE
  8
LAYER-1
 66
  1
 70
  0
 62
  7
 10
0.310707
 20
5.146317
 30
0.000000
  0
VERTEX
  8
LAYER-1
 10
0.310707
 20
5.146317
 30
0.000000
  0
VERTEX
  8
LAYER-1
 10
0.310707
 20
3.447481
 30
0.000000
  0
SEQEND
  8
LAYER-1
  0
POLYLINE
  8
LAYER-1
 66
  1
 70
  0
 62
  7
 10
0.459116
 20
5.146317
 30
0.000000
  0
VERTEX
  8
LAYER-1
 10
0.459116
 20
5.146317
 30
0.000000
  0
VERTEX
  8
LAYER-1
 10
0.459116
 20
3.447481
 30
0.000000
  0
SEQEND
  8
LAYER-1
  0
POLYLINE
  8
LAYER-1
 66
  1
 70
  0
 62
  7
 10
0.607526
 20
5.146317
 30
0.000000
  0
VERTEX
  8
LAYER-1
 10
0.607526
 20
5.146317
 30
0.000000
  0
VERTEX
  8
LAYER-1
 10
0.607526
 20
3.447481
 30
0.000000
  0
SEQEND
  8
LAYER-1
  0
POLYLINE
  8
LAYER-1
 66
  1
 70
  0
 62
  7
 10
0.755934
 20
5.146317
 30
0.000000
  0
VERTEX
  8
LAYER-1
 10
0.755934
 20
5.146317
 30
0.000000
  0
VERTEX
  8
LAYER-1
 10
0.755934
 20
3.447481
 30
0.000000
  0
SEQEND
  8
LAYER-1
  0
POLYLINE
  8
LAYER-1
 66
  1
 70
  0
 62
  7
 10
0.904344
 20
5.146317
 30
0.000000
  0
VERTEX
  8
LAYER-1
 10
0.904344
 20
5.146317
 30
0.000000
  0
VERTEX
  8
LAYER-1
 10
0.904344
 20
3.447481
 30
0.000000
  0
SEQEND
  8
LAYER-1
  0
POLYLINE
  8
LAYER-1
 66
  1
 70
  0
 62
  0
 10
0.031375
 20
5.042663
 30
0.000000
  0
VERTEX
  8
LAYER-1
 10
0.031375
 20
5.042663
 30
0.000000
  0
VERTEX
  8
LAYER-1
 10
0.145784
 20
5.042663
 30
0.000000
  0
SEQEND
  8
LAYER-1
  0
POLYLINE
  8
LAYER-1
 66
  1
 70
  0
 62
  0
 10
0.179704
 20
5.042663
 30
0.000000
  0
VERTEX
  8
LAYER-1
 10
0.179704
 20
5.042663
 30
0.000000
  0
VERTEX
  8
LAYER-1
 10
0.294257
 20
5.042663
 30
0.000000
  0
SEQEND
  8
LAYER-1
  0
POLYLINE
  8
LAYER-1
 66
  1
 70
  0
 62
  0
 10
0.328176
 20
5.042663
 30
0.000000
  0
VERTEX
  8
LAYER-1
 10
0.328176
 20
5.042663
 30
0.000000
  0
VERTEX
  8
LAYER-1
 10
0.442583
 20
5.042663
 30
0.000000
  0
SEQEND
  8
LAYER-1
  0
POLYLINE
  8
LAYER-1
 66
  1
 70
  0
 62
  0
 10
0.476503
 20
5.042663
 30
0.000000
  0
VERTEX
  8
LAYER-1
 10
0.476503
 20
5.042663
 30
0.000000
  0
VERTEX
  8
LAYER-1
 10
0.590910
 20
5.042663
 30
0.000000
  0
SEQEND
  8
LAYER-1
  0
POLYLINE
  8
LAYER-1
 66
  1
 70
  0
 62
  0
 10
0.624975
 20
5.042663
 30
0.000000
  0
VERTEX
  8
LAYER-1
 10
0.624975
 20
5.042663
 30
0.000000
  0
VERTEX
  8
LAYER-1
 10
0.739382
 20
5.042663
 30
0.000000
  0
SEQEND
  8
LAYER-1
  0
POLYLINE
  8
LAYER-1
 66
  1
 70
  0
 62
  0
 10
0.773447
 20
5.042663
 30
0.000000
  0
VERTEX
  8
LAYER-1
 10
0.773447
 20
5.042663
 30
0.000000
  0
VERTEX
  8
LAYER-1
 10
0.887854
 20
5.042663
 30
0.000000
  0
SEQEND
  8
LAYER-1
  0
POLYLINE
  8
LAYER-1
 66
  1
 70
  0
 62
  0
 10
0.921047
 20
5.042663
 30
0.000000
  0
VERTEX
  8
LAYER-1
 10
0.921047
 20
5.042663
 30
0.000000
  0
VERTEX
  8
LAYER-1
 10
1.036183
 20
5.042663
 30
0.000000
  0
SEQEND
  8
LAYER-1
  0
POLYLINE
  8
LAYER-1
 66
  1
 70
  0
 62
  0
 10
0.031375
 20
3.551135
 30
0.000000
  0
VERTEX
  8
LAYER-1
 10
0.031375
 20
3.551135
 30
0.000000
  0
VERTEX
  8
LAYER-1
 10
0.145716
 20
3.551135
 30
0.000000
  0
SEQEND
  8
LAYER-1
  0
POLYLINE
  8
LAYER-1
 66
  1
 70
  0
 62
  0
 10
0.179704
 20
3.551135
 30
0.000000
  0
VERTEX
  8
LAYER-1
 10
0.179704
 20
3.551135
 30
0.000000
  0
VERTEX
  8
LAYER-1
 10
0.294334
 20
3.551135
 30
0.000000
  0
SEQEND
  8
LAYER-1
  0
POLYLINE
  8
LAYER-1
 66
  1
 70
  0
 62
  0
 10
0.328176
 20
3.551135
 30
0.000000
  0
VERTEX
  8
LAYER-1
 10
0.328176
 20
3.551135
 30
0.000000
  0
VERTEX
  8
LAYER-1
 10
0.442515
 20
3.551135
 30
0.000000
  0
SEQEND
  8
LAYER-1
  0
POLYLINE
  8
LAYER-1
 66
  1
 70
  0
 62
  0
 10
0.476503
 20
3.551135
 30
0.000000
  0
VERTEX
  8
LAYER-1
 10
0.476503
 20
3.551135
 30
0.000000
  0
VERTEX
  8
LAYER-1
 10
0.590987
 20
3.551135
 30
0.000000
  0
SEQEND
  8
LAYER-1
  0
POLYLINE
  8
LAYER-1
 66
  1
 70
  0
 62
  0
 10
0.624975
 20
3.551135
 30
0.000000
  0
VERTEX
  8
LAYER-1
 10
0.624975
 20
3.551135
 30
0.000000
  0
VERTEX
  8
LAYER-1
 10
0.739314
 20
3.551135
 30
0.000000
  0
SEQEND
  8
LAYER-1
  0
POLYLINE
  8
LAYER-1
 66
  1
 70
  0
 62
  0
 10
0.773447
 20
3.551135
 30
0.000000
  0
VERTEX
  8
LAYER-1
 10
0.773447
 20
3.551135
 30
0.000000
  0
VERTEX
  8
LAYER-1
 10
0.887788
 20
3.551135
 30
0.000000
  0
SEQEND
  8
LAYER-1
  0
POLYLINE
  8
LAYER-1
 66
  1
 70
  0
 62
  0
 10
0.921774
 20
3.551135
 30
0.000000
  0
VERTEX
  8
LAYER-1
 10
0.921774
 20
3.551135
 30
0.000000
  0
VERTEX
  8
LAYER-1
 10
1.036261
 20
3.551135
 30
0.000000
  0
SEQEND
  8
LAYER-1
  0
POLYLINE
  8
LAYER-1
 66
  1
 70
  0
 62
  0
 10
0.013889
 20
3.447481
 30
0.000000
  0
VERTEX
  8
LAYER-1
 10
0.013889
 20
3.447481
 30
0.000000
  0
VERTEX
  8
LAYER-1
 10
1.053577
 20
3.447525
 30
0.000000
  0
SEQEND
  8
LAYER-1
  0
POLYLINE
  8
LAYER-1
 66
  1
 70
  0
 62
  0
 10
0.013889
 20
5.146317
 30
0.000000
  0
VERTEX
  8
LAYER-1
 10
0.013889
 20
5.146317
 30
0.000000
  0
VERTEX
  8
LAYER-1
 10
1.053577
 20
5.146317
 30
0.000000
  0
SEQEND
  8
LAYER-1
  0
POLYLINE
  8
LAYER-1
 66
  1
 70
  0
 62
  7
 10
0.230864
 20
5.144396
 30
0.000000
  0
VERTEX
  8
LAYER-1
 10
0.230864
 20
5.144396
 30
0.000000
  0
VERTEX
  8
LAYER-1
 10
0.230864
 20
5.041089
 30
0.000000
  0
SEQEND
  8
LAYER-1
  0
POLYLINE
  8
LAYER-1
 66
  1
 70
  0
 62
  7
 10
0.242783
 20
5.144396
 30
0.000000
  0
VERTEX
  8
LAYER-1
 10
0.242783
 20
5.144396
 30
0.000000
  0
VERTEX
  8
LAYER-1
 10
0.242783
 20
5.041089
 30
0.000000
  0
SEQEND
  8
LAYER-1
  0
POLYLINE
  8
LAYER-1
 66
  1
 70
  0
 62
  7
 10
0.528859
 20
5.145984
 30
0.000000
  0
VERTEX
  8
LAYER-1
 10
0.528859
 20
5.145984
 30
0.000000
  0
VERTEX
  8
LAYER-1
 10
0.528859
 20
5.042678
 30
0.000000
  0
SEQEND
  8
LAYER-1
  0
POLYLINE
  8
LAYER-1
 66
  1
 70
  0
 62
  7
 10
0.540778
 20
5.145984
 30
0.000000
  0
VERTEX
  8
LAYER-1
 10
0.540778
 20
5.145984
 30
0.000000
  0
VERTEX
  8
LAYER-1
 10
0.540778
 20
5.042678
 30
0.000000
  0
SEQEND
  8
LAYER-1
  0
POLYLINE
  8
LAYER-1
 66
  1
 70
  0
 62
  7
 10
0.826061
 20
5.143601
 30
0.000000
  0
VERTEX
  8
LAYER-1
 10
0.826061
 20
5.143601
 30
0.000000
  0
VERTEX
  8
LAYER-1
 10
0.826061
 20
5.040295
 30
0.000000
  0
SEQEND
  8
LAYER-1
  0
POLYLINE
  8
LAYER-1
 66
  1
 70
  0
 62
  7
 10
0.837980
 20
5.143601
 30
0.000000
  0
VERTEX
  8
LAYER-1
 10
0.837980
 20
5.143601
 30
0.000000
  0
VERTEX
  8
LAYER-1
 10
0.837980
 20
5.040295
 30
0.000000
  0
SEQEND
  8
LAYER-1
  0
POLYLINE
  8
LAYER-1
 66
  1
 70
  1
 62
  0
  0
VERTEX
  8
LAYER-1
 10
3.714956
 20
0.356888
 30
0.000000
  0
VERTEX
  8
LAYER-1
 10
3.748514
 20
0.356888
 30
0.000000
  0
VERTEX
  8
LAYER-1
 10
3.748514
 20
0.261383
 30
0.000000
  0
VERTEX
  8
LAYER-1
 10
3.714956
 20
0.261383
 30
0.000000
  0
SEQEND
  8
LAYER-1
  0
POLYLINE
  8
LAYER-1
 66
  1
 70
  0
 62
  0
 10
3.734997
 20
2.467844
 30
0.000000
  0
VERTEX
  8
LAYER-1
 10
3.734997
 20
2.467844
 30
0.000000
  0
VERTEX
  8
LAYER-1
 10
3.734998
 20
2.467844
 30
0.000000
  0
SEQEND
  8
LAYER-1
  0
POLYLINE
  8
LAYER-1
 66
  1
 70
  0
 62
  0
 10
3.742963
 20
2.459880
 30
0.000000
  0
VERTEX
  8
LAYER-1
 10
3.742963
 20
2.459880
 30
0.000000
  0
VERTEX
  8
LAYER-1
 10
3.742963
 20
2.210336
 30
0.000000
  0
SEQEND
  8
LAYER-1
  0
POLYLINE
  8
LAYER-1
 66
  1
 70
  0
 62
  0
 10
3.734998
 20
2.202372
 30
0.000000
  0
VERTEX
  8
LAYER-1
 10
3.734998
 20
2.202372
 30
0.000000
  0
VERTEX
  8
LAYER-1
 10
3.734997
 20
2.202372
 30
0.000000
  0
SEQEND
  8
LAYER-1
  0
POLYLINE
  8
LAYER-1
 66
  1
 70
  0
 62
  0
 10
3.727033
 20
2.210336
 30
0.000000
  0
VERTEX
  8
LAYER-1
 10
3.727033
 20
2.210336
 30
0.000000
  0
VERTEX
  8
LAYER-1
 10
3.727033
 20
2.459880
 30
0.000000
  0
SEQEND
  8
LAYER-1
  0
ARC
  8
LAYER-1
 62
  0
 10
3.734997
 20
2.459880
 30
0.000000
 40
0.007964
 50
270.000000
 51
0.000000
  0
ARC
  8
LAYER-1
 62
  0
 10
3.734997
 20
2.210336
 30
0.000000
 40
0.007964
 50
0.000000
 51
90.000000
  0
ARC
  8
LAYER-1
 62
  0
 10
3.734998
 20
2.210336
 30
0.000000
 40
0.007964
 50
90.000000
 51
180.000000
  0
ARC
  8
LAYER-1
 62
  0
 10
3.734998
 20
2.459880
 30
0.000000
 40
0.007964
 50
180.000000
 51
270.000000
  0
CIRCLE
  8
LAYER-1
 62
  0
 10
3.735330
 20
2.205025
 30
0.000000
 40
0.022565
  0
CIRCLE
  8
LAYER-1
 62
  0
 10
3.735330
 20
2.205025
 30
0.000000
 40
0.016522
  0
CIRCLE
  8
LAYER-1
 62
  0
 10
3.735330
 20
2.205025
 30
0.000000
 40
0.013746
  0
CIRCLE
  8
LAYER-1
 62
  0
 10
3.735330
 20
2.205025
 30
0.000000
 40
0.008860
  0
POLYLINE
  8
LAYER-1
 66
  1
 70
  0
 62
  0
 10
3.685053
 20
0.253722
 30
0.000000
  0
VERTEX
  8
LAYER-1
 10
3.685053
 20
0.253722
 30
0.000000
  0
VERTEX
  8
LAYER-1
 10
3.697831
 20
0.261287
 30
0.000000
  0
SEQEND
  8
LAYER-1
  0
POLYLINE
  8
LAYER-1
 66
  1
 70
  0
 62
  0
 10
3.685053
 20
0.253722
 30
0.000000
  0
VERTEX
  8
LAYER-1
 10
3.685053
 20
0.253722
 30
0.000000
  0
VERTEX
  8
LAYER-1
 10
3.685053
 20
0.252157
 30
0.000000
  0
SEQEND
  8
LAYER-1
  0
POLYLINE
  8
LAYER-1
 66
  1
 70
  1
 62
  0
  0
VERTEX
  8
LAYER-1
 10
3.703496
 20
0.252144
 30
0.000000
  0
VERTEX
  8
LAYER-1
 10
3.760083
 20
0.252144
 30
0.000000
  0
VERTEX
  8
LAYER-1
 10
3.760083
 20
0.064481
 30
0.000000
  0
VERTEX
  8
LAYER-1
 10
3.703496
 20
0.064481
 30
0.000000
  0
SEQEND
  8
LAYER-1
  0
POLYLINE
  8
LAYER-1
  6
LTYPE01
 66
  1
 70
  1
 62
  0
  0
VERTEX
  8
LAYER-1
  6
LTYPE01
 10
3.708190
 20
0.261269
 30
0.000000
  0
VERTEX
  8
LAYER-1
  6
LTYPE01
 10
3.755130
 20
0.261269
 30
0.000000
  0
VERTEX
  8
LAYER-1
  6
LTYPE01
 10
3.755130
 20
0.074041
 30
0.000000
  0
VERTEX
  8
LAYER-1
  6
LTYPE01
 10
3.708190
 20
0.074041
 30
0.000000
  0
SEQEND
  8
LAYER-1
  0
POLYLINE
  8
LAYER-1
 66
  1
 70
  0
 62
  0
 10
3.685053
 20
0.252157
 30
0.000000
  0
VERTEX
  8
LAYER-1
 10
3.685053
 20
0.252157
 30
0.000000
  0
VERTEX
  8
LAYER-1
 10
3.778670
 20
0.252157
 30
0.000000
  0
SEQEND
  8
LAYER-1
  0
POLYLINE
  8
LAYER-1
 66
  1
 70
  0
 62
  0
 10
3.778670
 20
0.252157
 30
0.000000
  0
VERTEX
  8
LAYER-1
 10
3.778670
 20
0.252157
 30
0.000000
  0
VERTEX
  8
LAYER-1
 10
3.778670
 20
0.253722
 30
0.000000
  0
SEQEND
  8
LAYER-1
  0
POLYLINE
  8
LAYER-1
 66
  1
 70
  0
 62
  0
 10
3.778670
 20
0.253722
 30
0.000000
  0
VERTEX
  8
LAYER-1
 10
3.778670
 20
0.253722
 30
0.000000
  0
VERTEX
  8
LAYER-1
 10
3.765631
 20
0.261287
 30
0.000000
  0
SEQEND
  8
LAYER-1
  0
POLYLINE
  8
LAYER-1
  6
LTYPE02
 66
  1
 70
  0
 62
  0
  6
LTYPE02
 10
3.709435
 20
0.160499
 30
0.000000
  0
VERTEX
  8
LAYER-1
  6
LTYPE02
 10
3.709435
 20
0.160499
 30
0.000000
  0
VERTEX
  8
LAYER-1
  6
LTYPE02
 10
3.709435
 20
0.126600
 30
0.000000
  0
SEQEND
  8
LAYER-1
  0
POLYLINE
  8
LAYER-1
  6
LTYPE02
 66
  1
 70
  0
 62
  0
  6
LTYPE02
 10
3.713343
 20
0.160499
 30
0.000000
  0
VERTEX
  8
LAYER-1
  6
LTYPE02
 10
3.713343
 20
0.160499
 30
0.000000
  0
VERTEX
  8
LAYER-1
  6
LTYPE02
 10
3.709435
 20
0.160499
 30
0.000000
  0
SEQEND
  8
LAYER-1
  0
POLYLINE
  8
LAYER-1
  6
LTYPE02
 66
  1
 70
  0
 62
  0
  6
LTYPE02
 10
3.713343
 20
0.160499
 30
0.000000
  0
VERTEX
  8
LAYER-1
  6
LTYPE02
 10
3.713343
 20
0.160499
 30
0.000000
  0
VERTEX
  8
LAYER-1
  6
LTYPE02
 10
3.713343
 20
0.164932
 30
0.000000
  0
SEQEND
  8
LAYER-1
  0
POLYLINE
  8
LAYER-1
  6
LTYPE02
 66
  1
 70
  0
 62
  0
  6
LTYPE02
 10
3.713343
 20
0.164932
 30
0.000000
  0
VERTEX
  8
LAYER-1
  6
LTYPE02
 10
3.713343
 20
0.164932
 30
0.000000
  0
VERTEX
  8
LAYER-1
  6
LTYPE02
 10
3.750603
 20
0.164932
 30
0.000000
  0
SEQEND
  8
LAYER-1
  0
POLYLINE
  8
LAYER-1
  6
LTYPE02
 66
  1
 70
  0
 62
  0
  6
LTYPE02
 10
3.709435
 20
0.126600
 30
0.000000
  0
VERTEX
  8
LAYER-1
  6
LTYPE02
 10
3.709435
 20
0.126600
 30
0.000000
  0
VERTEX
  8
LAYER-1
  6
LTYPE02
 10
3.753767
 20
0.126600
 30
0.000000
  0
SEQEND
  8
LAYER-1
  0
POLYLINE
  8
LAYER-1
  6
LTYPE02
 66
  1
 70
  0
 62
  0
  6
LTYPE02
 10
3.753767
 20
0.126600
 30
0.000000
  0
VERTEX
  8
LAYER-1
  6
LTYPE02
 10
3.753767
 20
0.126600
 30
0.000000
  0
VERTEX
  8
LAYER-1
  6
LTYPE02
 10
3.753767
 20
0.160499
 30
0.000000
  0
SEQEND
  8
LAYER-1
  0
POLYLINE
  8
LAYER-1
  6
LTYPE02
 66
  1
 70
  0
 62
  0
  6
LTYPE02
 10
3.750603
 20
0.160499
 30
0.000000
  0
VERTEX
  8
LAYER-1
  6
LTYPE02
 10
3.750603
 20
0.160499
 30
0.000000
  0
VERTEX
  8
LAYER-1
  6
LTYPE02
 10
3.753767
 20
0.160499
 30
0.000000
  0
SEQEND
  8
LAYER-1
  0
POLYLINE
  8
LAYER-1
  6
LTYPE02
 66
  1
 70
  0
 62
  0
  6
LTYPE02
 10
3.750603
 20
0.164932
 30
0.000000
  0
VERTEX
  8
LAYER-1
  6
LTYPE02
 10
3.750603
 20
0.164932
 30
0.000000
  0
VERTEX
  8
LAYER-1
  6
LTYPE02
 10
3.750603
 20
0.160499
 30
0.000000
  0
SEQEND
  8
LAYER-1
  0
POLYLINE
  8
LAYER-1
  6
LTYPE01
 66
  1
 70
  1
 62
  0
  0
VERTEX
  8
LAYER-1
  6
LTYPE01
 10
3.714572
 20
0.126454
 30
0.000000
  0
VERTEX
  8
LAYER-1
  6
LTYPE01
 10
3.748994
 20
0.126454
 30
0.000000
  0
VERTEX
  8
LAYER-1
  6
LTYPE01
 10
3.748994
 20
0.074300
 30
0.000000
  0
VERTEX
  8
LAYER-1
  6
LTYPE01
 10
3.714572
 20
0.074300
 30
0.000000
  0
SEQEND
  8
LAYER-1
  0
POLYLINE
  8
LAYER-1
  6
LTYPE02
 66
  1
 70
  0
 62
  0
  6
LTYPE02
 10
3.748994
 20
0.126454
 30
0.000000
  0
VERTEX
  8
LAYER-1
  6
LTYPE02
 10
3.748994
 20
0.126454
 30
0.000000
  0
VERTEX
  8
LAYER-1
  6
LTYPE02
 10
3.714572
 20
0.123586
 30
0.000000
  0
SEQEND
  8
LAYER-1
  0
POLYLINE
  8
LAYER-1
  6
LTYPE02
 66
  1
 70
  0
 62
  0
  6
LTYPE02
 10
3.748994
 20
0.124889
 30
0.000000
  0
VERTEX
  8
LAYER-1
  6
LTYPE02
 10
3.748994
 20
0.124889
 30
0.000000
  0
VERTEX
  8
LAYER-1
  6
LTYPE02
 10
3.714572
 20
0.121762
 30
0.000000
  0
SEQEND
  8
LAYER-1
  0
POLYLINE
  8
LAYER-1
  6
LTYPE02
 66
  1
 70
  0
 62
  0
  6
LTYPE02
 10
3.748994
 20
0.121500
 30
0.000000
  0
VERTEX
  8
LAYER-1
  6
LTYPE02
 10
3.748994
 20
0.121500
 30
0.000000
  0
VERTEX
  8
LAYER-1
  6
LTYPE02
 10
3.714572
 20
0.118630
 30
0.000000
  0
SEQEND
  8
LAYER-1
  0
POLYLINE
  8
LAYER-1
  6
LTYPE02
 66
  1
 70
  0
 62
  0
  6
LTYPE02
 10
3.748994
 20
0.119935
 30
0.000000
  0
VERTEX
  8
LAYER-1
  6
LTYPE02
 10
3.748994
 20
0.119935
 30
0.000000
  0
VERTEX
  8
LAYER-1
  6
LTYPE02
 10
3.714572
 20
0.116805
 30
0.000000
  0
SEQEND
  8
LAYER-1
  0
POLYLINE
  8
LAYER-1
  6
LTYPE02
 66
  1
 70
  0
 62
  0
  6
LTYPE02
 10
3.748994
 20
0.116352
 30
0.000000
  0
VERTEX
  8
LAYER-1
  6
LTYPE02
 10
3.748994
 20
0.116352
 30
0.000000
  0
VERTEX
  8
LAYER-1
  6
LTYPE02
 10
3.714572
 20
0.113482
 30
0.000000
  0
SEQEND
  8
LAYER-1
  0
POLYLINE
  8
LAYER-1
  6
LTYPE02
 66
  1
 70
  0
 62
  0
  6
LTYPE02
 10
3.748994
 20
0.114787
 30
0.000000
  0
VERTEX
  8
LAYER-1
  6
LTYPE02
 10
3.748994
 20
0.114787
 30
0.000000
  0
VERTEX
  8
LAYER-1
  6
LTYPE02
 10
3.714572
 20
0.111658
 30
0.000000
  0
SEQEND
  8
LAYER-1
  0
POLYLINE
  8
LAYER-1
  6
LTYPE02
 66
  1
 70
  0
 62
  0
  6
LTYPE02
 10
3.748930
 20
0.111852
 30
0.000000
  0
VERTEX
  8
LAYER-1
  6
LTYPE02
 10
3.748930
 20
0.111852
 30
0.000000
  0
VERTEX
  8
LAYER-1
  6
LTYPE02
 10
3.714507
 20
0.108983
 30
0.000000
  0
SEQEND
  8
LAYER-1
  0
POLYLINE
  8
LAYER-1
  6
LTYPE02
 66
  1
 70
  0
 62
  0
  6
LTYPE02
 10
3.748930
 20
0.110289
 30
0.000000
  0
VERTEX
  8
LAYER-1
  6
LTYPE02
 10
3.748930
 20
0.110289
 30
0.000000
  0
VERTEX
  8
LAYER-1
  6
LTYPE02
 10
3.714507
 20
0.107159
 30
0.000000
  0
SEQEND
  8
LAYER-1
  0
POLYLINE
  8
LAYER-1
  6
LTYPE02
 66
  1
 70
  0
 62
  0
  6
LTYPE02
 10
3.748930
 20
0.107029
 30
0.000000
  0
VERTEX
  8
LAYER-1
  6
LTYPE02
 10
3.748930
 20
0.107029
 30
0.000000
  0
VERTEX
  8
LAYER-1
  6
LTYPE02
 10
3.714507
 20
0.104160
 30
0.000000
  0
SEQEND
  8
LAYER-1
  0
POLYLINE
  8
LAYER-1
  6
LTYPE02
 66
  1
 70
  0
 62
  0
  6
LTYPE02
 10
3.748930
 20
0.105464
 30
0.000000
  0
VERTEX
  8
LAYER-1
  6
LTYPE02
 10
3.748930
 20
0.105464
 30
0.000000
  0
VERTEX
  8
LAYER-1
  6
LTYPE02
 10
3.714507
 20
0.102334
 30
0.000000
  0
SEQEND
  8
LAYER-1
  0
POLYLINE
  8
LAYER-1
  6
LTYPE02
 66
  1
 70
  0
 62
  0
  6
LTYPE02
 10
3.748930
 20
0.102073
 30
0.000000
  0
VERTEX
  8
LAYER-1
  6
LTYPE02
 10
3.748930
 20
0.102073
 30
0.000000
  0
VERTEX
  8
LAYER-1
  6
LTYPE02
 10
3.714507
 20
0.099204
 30
0.000000
  0
SEQEND
  8
LAYER-1
  0
POLYLINE
  8
LAYER-1
  6
LTYPE02
 66
  1
 70
  0
 62
  0
  6
LTYPE02
 10
3.748930
 20
0.100510
 30
0.000000
  0
VERTEX
  8
LAYER-1
  6
LTYPE02
 10
3.748930
 20
0.100510
 30
0.000000
  0
VERTEX
  8
LAYER-1
  6
LTYPE02
 10
3.714507
 20
0.097378
 30
0.000000
  0
SEQEND
  8
LAYER-1
  0
POLYLINE
  8
LAYER-1
  6
LTYPE02
 66
  1
 70
  0
 62
  0
  6
LTYPE02
 10
3.748930
 20
0.096923
 30
0.000000
  0
VERTEX
  8
LAYER-1
  6
LTYPE02
 10
3.748930
 20
0.096923
 30
0.000000
  0
VERTEX
  8
LAYER-1
  6
LTYPE02
 10
3.714507
 20
0.094054
 30
0.000000
  0
SEQEND
  8
LAYER-1
  0
POLYLINE
  8
LAYER-1
  6
LTYPE02
 66
  1
 70
  0
 62
  0
  6
LTYPE02
 10
3.748930
 20
0.095358
 30
0.000000
  0
VERTEX
  8
LAYER-1
  6
LTYPE02
 10
3.748930
 20
0.095358
 30
0.000000
  0
VERTEX
  8
LAYER-1
  6
LTYPE02
 10
3.714507
 20
0.092230
 30
0.000000
  0
SEQEND
  8
LAYER-1
  0
POLYLINE
  8
LAYER-1
  6
LTYPE02
 66
  1
 70
  0
 62
  0
  6
LTYPE02
 10
3.748864
 20
0.092424
 30
0.000000
  0
VERTEX
  8
LAYER-1
  6
LTYPE02
 10
3.748864
 20
0.092424
 30
0.000000
  0
VERTEX
  8
LAYER-1
  6
LTYPE02
 10
3.714443
 20
0.089556
 30
0.000000
  0
SEQEND
  8
LAYER-1
  0
POLYLINE
  8
LAYER-1
  6
LTYPE02
 66
  1
 70
  0
 62
  0
  6
LTYPE02
 10
3.748864
 20
0.090861
 30
0.000000
  0
VERTEX
  8
LAYER-1
  6
LTYPE02
 10
3.748864
 20
0.090861
 30
0.000000
  0
VERTEX
  8
LAYER-1
  6
LTYPE02
 10
3.714443
 20
0.087732
 30
0.000000
  0
SEQEND
  8
LAYER-1
  0
POLYLINE
  8
LAYER-1
  6
LTYPE02
 66
  1
 70
  0
 62
  0
  6
LTYPE02
 10
3.748994
 20
0.088057
 30
0.000000
  0
VERTEX
  8
LAYER-1
  6
LTYPE02
 10
3.748994
 20
0.088057
 30
0.000000
  0
VERTEX
  8
LAYER-1
  6
LTYPE02
 10
3.714572
 20
0.085188
 30
0.000000
  0
SEQEND
  8
LAYER-1
  0
POLYLINE
  8
LAYER-1
  6
LTYPE02
 66
  1
 70
  0
 62
  0
  6
LTYPE02
 10
3.748994
 20
0.086492
 30
0.000000
  0
VERTEX
  8
LAYER-1
  6
LTYPE02
 10
3.748994
 20
0.086492
 30
0.000000
  0
VERTEX
  8
LAYER-1
  6
LTYPE02
 10
3.714572
 20
0.083364
 30
0.000000
  0
SEQEND
  8
LAYER-1
  0
POLYLINE
  8
LAYER-1
  6
LTYPE02
 66
  1
 70
  0
 62
  0
  6
LTYPE02
 10
3.748994
 20
0.083103
 30
0.000000
  0
VERTEX
  8
LAYER-1
  6
LTYPE02
 10
3.748994
 20
0.083103
 30
0.000000
  0
VERTEX
  8
LAYER-1
  6
LTYPE02
 10
3.714572
 20
0.080234
 30
0.000000
  0
SEQEND
  8
LAYER-1
  0
POLYLINE
  8
LAYER-1
  6
LTYPE02
 66
  1
 70
  0
 62
  0
  6
LTYPE02
 10
3.748994
 20
0.081538
 30
0.000000
  0
VERTEX
  8
LAYER-1
  6
LTYPE02
 10
3.748994
 20
0.081538
 30
0.000000
  0
VERTEX
  8
LAYER-1
  6
LTYPE02
 10
3.714572
 20
0.078408
 30
0.000000
  0
SEQEND
  8
LAYER-1
  0
POLYLINE
  8
LAYER-1
  6
LTYPE02
 66
  1
 70
  0
 62
  0
  6
LTYPE02
 10
3.748994
 20
0.077953
 30
0.000000
  0
VERTEX
  8
LAYER-1
  6
LTYPE02
 10
3.748994
 20
0.077953
 30
0.000000
  0
VERTEX
  8
LAYER-1
  6
LTYPE02
 10
3.714572
 20
0.075083
 30
0.000000
  0
SEQEND
  8
LAYER-1
  0
POLYLINE
  8
LAYER-1
  6
LTYPE02
 66
  1
 70
  0
 62
  0
  6
LTYPE02
 10
3.748994
 20
0.076388
 30
0.000000
  0
VERTEX
  8
LAYER-1
  6
LTYPE02
 10
3.748994
 20
0.076388
 30
0.000000
  0
VERTEX
  8
LAYER-1
  6
LTYPE02
 10
3.725981
 20
0.074300
 30
0.000000
  0
SEQEND
  8
LAYER-1
  0
POLYLINE
  8
LAYER-1
  6
LTYPE02
 66
  1
 70
  0
 62
  0
  6
LTYPE02
 10
3.715564
 20
0.185665
 30
0.000000
  0
VERTEX
  8
LAYER-1
  6
LTYPE02
 10
3.715564
 20
0.185665
 30
0.000000
  0
VERTEX
  8
LAYER-1
  6
LTYPE02
 10
3.715564
 20
0.261287
 30
0.000000
  0
SEQEND
  8
LAYER-1
  0
POLYLINE
  8
LAYER-1
  6
LTYPE02
 66
  1
 70
  0
 62
  0
  6
LTYPE02
 10
3.747898
 20
0.185665
 30
0.000000
  0
VERTEX
  8
LAYER-1
  6
LTYPE02
 10
3.747898
 20
0.185665
 30
0.000000
  0
VERTEX
  8
LAYER-1
  6
LTYPE02
 10
3.747898
 20
0.261287
 30
0.000000
  0
SEQEND
  8
LAYER-1
  0
POLYLINE
  8
LAYER-1
  6
LTYPE01
 66
  1
 70
  0
 62
  0
  6
LTYPE01
 10
3.715563
 20
0.185665
 30
0.000000
  0
VERTEX
  8
LAYER-1
  6
LTYPE01
 10
3.715563
 20
0.185665
 30
0.000000
  0
VERTEX
  8
LAYER-1
  6
LTYPE01
 10
3.718330
 20
0.176201
 30
0.000000
  0
VERTEX
  8
LAYER-1
  6
LTYPE01
 10
3.729763
 20
0.171466
 30
0.000000
  0
VERTEX
  8
LAYER-1
  6
LTYPE01
 10
3.741195
 20
0.176201
 30
0.000000
  0
VERTEX
  8
LAYER-1
  6
LTYPE01
 10
3.747899
 20
0.185665
 30
0.000000
  0
SEQEND
  8
LAYER-1
  0
POLYLINE
  8
LAYER-1
 66
  1
 70
  0
 62
  0
 10
3.697831
 20
0.261287
 30
0.000000
  0
VERTEX
  8
LAYER-1
 10
3.697831
 20
0.261287
 30
0.000000
  0
VERTEX
  8
LAYER-1
 10
3.765631
 20
0.261287
 30
0.000000
  0
SEQEND
  8
LAYER-1
  0
POLYLINE
  8
LAYER-1
 66
  1
 70
  1
 62
  0
  0
VERTEX
  8
LAYER-1
 10
2.804647
 20
7.490250
 30
0.000000
  0
VERTEX
  8
LAYER-1
 10
2.829743
 20
7.490250
 30
0.000000
  0
VERTEX
  8
LAYER-1
 10
2.829743
 20
7.423932
 30
0.000000
  0
VERTEX
  8
LAYER-1
 10
2.804647
 20
7.423932
 30
0.000000
  0
SEQEND
  8
LAYER-1
  0
POLYLINE
  8
LAYER-1
 66
  1
 70
  1
 62
  0
  0
VERTEX
  8
LAYER-1
 10
1.983467
 20
7.490250
 30
0.000000
  0
VERTEX
  8
LAYER-1
 10
2.008562
 20
7.490250
 30
0.000000
  0
VERTEX
  8
LAYER-1
 10
2.008562
 20
7.423932
 30
0.000000
  0
VERTEX
  8
LAYER-1
 10
1.983467
 20
7.423932
 30
0.000000
  0
SEQEND
  8
LAYER-1
  0
POLYLINE
  8
LAYER-1
 66
  1
 70
  1
 62
  0
  0
VERTEX
  8
LAYER-1
 10
4.706557
 20
7.490250
 30
0.000000
  0
VERTEX
  8
LAYER-1
 10
4.731652
 20
7.490250
 30
0.000000
  0
VERTEX
  8
LAYER-1
 10
4.731652
 20
7.423932
 30
0.000000
  0
VERTEX
  8
LAYER-1
 10
4.706557
 20
7.423932
 30
0.000000
  0
SEQEND
  8
LAYER-1
  0
POLYLINE
  8
LAYER-1
 66
  1
 70
  1
 62
  0
  0
VERTEX
  8
LAYER-1
 10
5.527738
 20
7.490250
 30
0.000000
  0
VERTEX
  8
LAYER-1
 10
5.552833
 20
7.490250
 30
0.000000
  0
VERTEX
  8
LAYER-1
 10
5.552833
 20
7.423932
 30
0.000000
  0
VERTEX
  8
LAYER-1
 10
5.527738
 20
7.423932
 30
0.000000
  0
SEQEND
  8
LAYER-1
  0
POLYLINE
  8
LAYER-1
 66
  1
 70
  0
 62
  0
 10
2.181858
 20
7.153926
 30
0.000000
  0
VERTEX
  8
LAYER-1
 10
2.181858
 20
7.153926
 30
0.000000
  0
VERTEX
  8
LAYER-1
 10
2.217455
 20
7.153926
 30
0.000000
  0
SEQEND
  8
LAYER-1
  0
POLYLINE
  8
LAYER-1
 66
  1
 70
  0
 62
  0
 10
2.999729
 20
7.153926
 30
0.000000
  0
VERTEX
  8
LAYER-1
 10
2.999729
 20
7.153926
 30
0.000000
  0
VERTEX
  8
LAYER-1
 10
3.035323
 20
7.153926
 30
0.000000
  0
SEQEND
  8
LAYER-1
  0
POLYLINE
  8
LAYER-1
 66
  1
 70
  0
 62
  0
 10
3.647862
 20
7.153850
 30
0.000000
  0
VERTEX
  8
LAYER-1
 10
3.647862
 20
7.153850
 30
0.000000
  0
VERTEX
  8
LAYER-1
 10
3.683457
 20
7.153850
 30
0.000000
  0
SEQEND
  8
LAYER-1
  0
POLYLINE
  8
LAYER-1
 66
  1
 70
  0
 62
  0
 10
5.354019
 20
7.153926
 30
0.000000
  0
VERTEX
  8
LAYER-1
 10
5.354019
 20
7.153926
 30
0.000000
  0
VERTEX
  8
LAYER-1
 10
5.318424
 20
7.153926
 30
0.000000
  0
SEQEND
  8
LAYER-1
  0
POLYLINE
  8
LAYER-1
 66
  1
 70
  0
 62
  0
 10
4.536144
 20
7.153926
 30
0.000000
  0
VERTEX
  8
LAYER-1
 10
4.536144
 20
7.153926
 30
0.000000
  0
VERTEX
  8
LAYER-1
 10
4.500553
 20
7.153926
 30
0.000000
  0
SEQEND
  8
LAYER-1
  0
POLYLINE
  8
LAYER-1
 66
  1
 70
  0
 62
  0
 10
3.888006
 20
7.153849
 30
0.000000
  0
VERTEX
  8
LAYER-1
 10
3.888006
 20
7.153849
 30
0.000000
  0
VERTEX
  8
LAYER-1
 10
3.852414
 20
7.153849
 30
0.000000
  0
SEQEND
  8
LAYER-1
  0
TEXT
  8
LAYER-1
 62
  0
 10
1.087634
 20
7.086170
 30
0.000000
 40
0.125000
  1
Rail
 72
  5
 11
1.462634
 21
7.086170
 31
0.000000
  0
TEXT
  8
LAYER-1
 62
  0
 10
5.865411
 20
5.363948
 30
0.000000
 40
0.125000
  1
Polycarbonate
 72
  5
 11
7.018189
 21
5.363948
 31
0.000000
  0
TEXT
  8
LAYER-1
 62
  0
 10
5.865411
 20
5.169503
 30
0.000000
 40
0.104167
  1
1/16
 72
  5
 11
6.226523
 21
5.169503
 31
0.000000
  0
TEXT
  8
LAYER-1
 62
  0
 10
6.226523
 20
5.169503
 30
0.000000
 40
0.125000
  1
" (1,6mm)
 72
  5
 11
7.045967
 21
5.169503
 31
0.000000
  0
POLYLINE
  8
LAYER-1
 66
  1
 70
  0
 62
  0
 10
5.826783
 20
5.484607
 30
0.000000
  0
VERTEX
  8
LAYER-1
 10
5.826783
 20
5.484607
 30
0.000000
  0
VERTEX
  8
LAYER-1
 10
5.585707
 20
5.799702
 30
0.000000
  0
SEQEND
  8
LAYER-1
  0
POLYLINE
  8
LAYER-1
 66
  1
 70
  1
 62
  0
  0
VERTEX
  8
LAYER-1
 10
5.573745
 20
5.815336
 30
0.000000
  0
VERTEX
  8
LAYER-1
 10
5.649035
 20
5.785501
 30
0.000000
  0
VERTEX
  8
LAYER-1
 10
5.615943
 20
5.760182
 30
0.000000
  0
VERTEX
  8
LAYER-1
 10
5.582851
 20
5.734864
 30
0.000000
  0
VERTEX
  8
LAYER-1
 10
5.573745
 20
5.815336
 30
0.000000
  0
SEQEND
  8
LAYER-1
  0
POLYLINE
  8
LAYER-1
 66
  1
 70
  0
 62
  0
 10
0.768283
 20
0.037543
 30
0.000000
  0
VERTEX
  8
LAYER-1
 10
0.768283
 20
0.037543
 30
0.000000
  0
VERTEX
  8
LAYER-1
 10
0.794766
 20
0.034087
 30
0.000000
  0
VERTEX
  8
LAYER-1
 10
0.814102
 20
0.034087
 30
0.000000
  0
VERTEX
  8
LAYER-1
 10
0.833438
 20
0.037560
 30
0.000000
  0
VERTEX
  8
LAYER-1
 10
0.852774
 20
0.037560
 30
0.000000
  0
VERTEX
  8
LAYER-1
 10
0.899181
 20
0.044503
 30
0.000000
  0
VERTEX
  8
LAYER-1
 10
0.933986
 20
0.054921
 30
0.000000
  0
VERTEX
  8
LAYER-1
 10
0.956223
 20
0.059261
 30
0.000000
  0
VERTEX
  8
LAYER-1
 10
0.977976
 20
0.060997
 30
0.000000
  0
VERTEX
  8
LAYER-1
 10
1.007463
 20
0.058393
 30
0.000000
  0
VERTEX
  8
LAYER-1
 10
1.038401
 20
0.054921
 30
0.000000
  0
VERTEX
  8
LAYER-1
 10
1.065472
 20
0.047976
 30
0.000000
  0
VERTEX
  8
LAYER-1
 10
1.084808
 20
0.044503
 30
0.000000
  0
VERTEX
  8
LAYER-1
 10
1.115746
 20
0.041032
 30
0.000000
  0
VERTEX
  8
LAYER-1
 10
1.135082
 20
0.037560
 30
0.000000
  0
VERTEX
  8
LAYER-1
 10
1.158285
 20
0.034087
 30
0.000000
  0
VERTEX
  8
LAYER-1
 10
1.185356
 20
0.034087
 30
0.000000
  0
VERTEX
  8
LAYER-1
 10
1.212426
 20
0.034087
 30
0.000000
  0
VERTEX
  8
LAYER-1
 10
1.235630
 20
0.034087
 30
0.000000
  0
VERTEX
  8
LAYER-1
 10
1.258833
 20
0.030615
 30
0.000000
  0
VERTEX
  8
LAYER-1
 10
1.297505
 20
0.030615
 30
0.000000
  0
VERTEX
  8
LAYER-1
 10
1.328443
 20
0.030615
 30
0.000000
  0
VERTEX
  8
LAYER-1
 10
1.347779
 20
0.027143
 30
0.000000
  0
VERTEX
  8
LAYER-1
 10
1.378718
 20
0.023671
 30
0.000000
  0
VERTEX
  8
LAYER-1
 10
1.409655
 20
0.020198
 30
0.000000
  0
VERTEX
  8
LAYER-1
 10
1.448327
 20
0.020198
 30
0.000000
  0
VERTEX
  8
LAYER-1
 10
1.479265
 20
0.020198
 30
0.000000
  0
VERTEX
  8
LAYER-1
 10
1.517937
 20
0.020198
 30
0.000000
  0
VERTEX
  8
LAYER-1
 10
1.548875
 20
0.027143
 30
0.000000
  0
VERTEX
  8
LAYER-1
 10
1.572079
 20
0.027143
 30
0.000000
  0
VERTEX
  8
LAYER-1
 10
1.591414
 20
0.030615
 30
0.000000
  0
VERTEX
  8
LAYER-1
 10
1.614618
 20
0.030615
 30
0.000000
  0
VERTEX
  8
LAYER-1
 10
1.633954
 20
0.030615
 30
0.000000
  0
VERTEX
  8
LAYER-1
 10
1.676494
 20
0.030615
 30
0.000000
  0
VERTEX
  8
LAYER-1
 10
1.722900
 20
0.023671
 30
0.000000
  0
VERTEX
  8
LAYER-1
 10
1.765440
 20
0.020198
 30
0.000000
  0
VERTEX
  8
LAYER-1
 10
1.827316
 20
0.013253
 30
0.000000
  0
VERTEX
  8
LAYER-1
 10
1.885324
 20
0.006310
 30
0.000000
  0
VERTEX
  8
LAYER-1
 10
1.935598
 20
0.006310
 30
0.000000
  0
VERTEX
  8
LAYER-1
 10
1.962669
 20
0.006310
 30
0.000000
  0
VERTEX
  8
LAYER-1
 10
1.997474
 20
0.006310
 30
0.000000
  0
VERTEX
  8
LAYER-1
 10
2.017777
 20
0.007178
 30
0.000000
  0
VERTEX
  8
LAYER-1
 10
2.054999
 20
0.009347
 30
0.000000
  0
VERTEX
  8
LAYER-1
 10
2.101889
 20
0.020198
 30
0.000000
  0
VERTEX
  8
LAYER-1
 10
2.144428
 20
0.034087
 30
0.000000
  0
VERTEX
  8
LAYER-1
 10
2.179233
 20
0.044503
 30
0.000000
  0
VERTEX
  8
LAYER-1
 10
2.206304
 20
0.054921
 30
0.000000
  0
VERTEX
  8
LAYER-1
 10
2.229507
 20
0.061865
 30
0.000000
  0
VERTEX
  8
LAYER-1
 10
2.252710
 20
0.061865
 30
0.000000
  0
VERTEX
  8
LAYER-1
 10
2.275914
 20
0.061865
 30
0.000000
  0
VERTEX
  8
LAYER-1
 10
2.299117
 20
0.061865
 30
0.000000
  0
VERTEX
  8
LAYER-1
 10
2.333923
 20
0.054921
 30
0.000000
  0
VERTEX
  8
LAYER-1
 10
2.364860
 20
0.047976
 30
0.000000
  0
VERTEX
  8
LAYER-1
 10
2.388064
 20
0.041032
 30
0.000000
  0
VERTEX
  8
LAYER-1
 10
2.407400
 20
0.037560
 30
0.000000
  0
VERTEX
  8
LAYER-1
 10
2.430603
 20
0.030615
 30
0.000000
  0
VERTEX
  8
LAYER-1
 10
2.449940
 20
0.023671
 30
0.000000
  0
VERTEX
  8
LAYER-1
 10
2.473142
 20
0.020198
 30
0.000000
  0
VERTEX
  8
LAYER-1
 10
2.492479
 20
0.020198
 30
0.000000
  0
VERTEX
  8
LAYER-1
 10
2.523417
 20
0.016726
 30
0.000000
  0
VERTEX
  8
LAYER-1
 10
2.550487
 20
0.016726
 30
0.000000
  0
VERTEX
  8
LAYER-1
 10
2.585292
 20
0.016726
 30
0.000000
  0
VERTEX
  8
LAYER-1
 10
2.612363
 20
0.020198
 30
0.000000
  0
VERTEX
  8
LAYER-1
 10
2.647168
 20
0.030615
 30
0.000000
  0
VERTEX
  8
LAYER-1
 10
2.666504
 20
0.030615
 30
0.000000
  0
VERTEX
  8
LAYER-1
 10
2.689707
 20
0.030615
 30
0.000000
  0
VERTEX
  8
LAYER-1
 10
2.709044
 20
0.030615
 30
0.000000
  0
VERTEX
  8
LAYER-1
 10
2.732247
 20
0.034087
 30
0.000000
  0
VERTEX
  8
LAYER-1
 10
2.755450
 20
0.037560
 30
0.000000
  0
VERTEX
  8
LAYER-1
 10
2.786388
 20
0.037560
 30
0.000000
  0
VERTEX
  8
LAYER-1
 10
2.817326
 20
0.037560
 30
0.000000
  0
VERTEX
  8
LAYER-1
 10
2.840529
 20
0.037560
 30
0.000000
  0
VERTEX
  8
LAYER-1
 10
2.863733
 20
0.037560
 30
0.000000
  0
VERTEX
  8
LAYER-1
 10
2.883069
 20
0.034087
 30
0.000000
  0
VERTEX
  8
LAYER-1
 10
2.902405
 20
0.030615
 30
0.000000
  0
VERTEX
  8
LAYER-1
 10
2.921741
 20
0.027143
 30
0.000000
  0
VERTEX
  8
LAYER-1
 10
2.941077
 20
0.023671
 30
0.000000
  0
VERTEX
  8
LAYER-1
 10
2.972015
 20
0.016726
 30
0.000000
  0
VERTEX
  8
LAYER-1
 10
2.995218
 20
0.013253
 30
0.000000
  0
VERTEX
  8
LAYER-1
 10
3.018421
 20
0.013253
 30
0.000000
  0
VERTEX
  8
LAYER-1
 10
3.037758
 20
0.013253
 30
0.000000
  0
VERTEX
  8
LAYER-1
 10
3.064828
 20
0.013253
 30
0.000000
  0
VERTEX
  8
LAYER-1
 10
3.095766
 20
0.016726
 30
0.000000
  0
VERTEX
  8
LAYER-1
 10
3.149907
 20
0.027143
 30
0.000000
  0
VERTEX
  8
LAYER-1
 10
3.196314
 20
0.037560
 30
0.000000
  0
VERTEX
  8
LAYER-1
 10
3.238854
 20
0.044503
 30
0.000000
  0
VERTEX
  8
LAYER-1
 10
3.269791
 20
0.047976
 30
0.000000
  0
VERTEX
  8
LAYER-1
 10
3.308464
 20
0.051448
 30
0.000000
  0
VERTEX
  8
LAYER-1
 10
3.339402
 20
0.054921
 30
0.000000
  0
VERTEX
  8
LAYER-1
 10
3.365022
 20
0.055789
 30
0.000000
  0
VERTEX
  8
LAYER-1
 10
3.382424
 20
0.053619
 30
0.000000
  0
VERTEX
  8
LAYER-1
 10
3.403694
 20
0.048844
 30
0.000000
  0
VERTEX
  8
LAYER-1
 10
3.424481
 20
0.037560
 30
0.000000
  0
VERTEX
  8
LAYER-1
 10
3.447684
 20
0.034087
 30
0.000000
  0
VERTEX
  8
LAYER-1
 10
3.467020
 20
0.034087
 30
0.000000
  0
VERTEX
  8
LAYER-1
 10
3.486357
 20
0.034087
 30
0.000000
  0
VERTEX
  8
LAYER-1
 10
3.505693
 20
0.034087
 30
0.000000
  0
VERTEX
  8
LAYER-1
 10
3.536630
 20
0.034087
 30
0.000000
  0
VERTEX
  8
LAYER-1
 10
3.559834
 20
0.034087
 30
0.000000
  0
VERTEX
  8
LAYER-1
 10
3.583037
 20
0.034087
 30
0.000000
  0
VERTEX
  8
LAYER-1
 10
3.602373
 20
0.034087
 30
0.000000
  0
VERTEX
  8
LAYER-1
 10
3.625577
 20
0.034087
 30
0.000000
  0
VERTEX
  8
LAYER-1
 10
3.648780
 20
0.034087
 30
0.000000
  0
VERTEX
  8
LAYER-1
 10
3.668117
 20
0.034087
 30
0.000000
  0
VERTEX
  8
LAYER-1
 10
3.695187
 20
0.034087
 30
0.000000
  0
VERTEX
  8
LAYER-1
 10
3.718389
 20
0.030615
 30
0.000000
  0
VERTEX
  8
LAYER-1
 10
3.740626
 20
0.022803
 30
0.000000
  0
VERTEX
  8
LAYER-1
 10
3.781233
 20
0.020198
 30
0.000000
  0
VERTEX
  8
LAYER-1
 10
3.818938
 20
0.023671
 30
0.000000
  0
VERTEX
  8
LAYER-1
 10
3.838274
 20
0.030615
 30
0.000000
  0
VERTEX
  8
LAYER-1
 10
3.861477
 20
0.037560
 30
0.000000
  0
VERTEX
  8
LAYER-1
 10
3.881297
 20
0.041466
 30
0.000000
  0
VERTEX
  8
LAYER-1
 10
3.904017
 20
0.047976
 30
0.000000
  0
VERTEX
  8
LAYER-1
 10
3.927220
 20
0.047976
 30
0.000000
  0
VERTEX
  8
LAYER-1
 10
3.950423
 20
0.044503
 30
0.000000
  0
VERTEX
  8
LAYER-1
 10
3.973627
 20
0.044503
 30
0.000000
  0
VERTEX
  8
LAYER-1
 10
3.996830
 20
0.044503
 30
0.000000
  0
VERTEX
  8
LAYER-1
 10
4.016167
 20
0.041032
 30
0.000000
  0
VERTEX
  8
LAYER-1
 10
4.043237
 20
0.041032
 30
0.000000
  0
VERTEX
  8
LAYER-1
 10
4.074175
 20
0.041032
 30
0.000000
  0
VERTEX
  8
LAYER-1
 10
4.105113
 20
0.047976
 30
0.000000
  0
VERTEX
  8
LAYER-1
 10
4.124449
 20
0.051448
 30
0.000000
  0
VERTEX
  8
LAYER-1
 10
4.151519
 20
0.051448
 30
0.000000
  0
VERTEX
  8
LAYER-1
 10
4.174723
 20
0.054921
 30
0.000000
  0
VERTEX
  8
LAYER-1
 10
4.205661
 20
0.058393
 30
0.000000
  0
VERTEX
  8
LAYER-1
 10
4.228864
 20
0.058393
 30
0.000000
  0
VERTEX
  8
LAYER-1
 10
4.259803
 20
0.054921
 30
0.000000
  0
VERTEX
  8
LAYER-1
 10
4.302342
 20
0.044503
 30
0.000000
  0
VERTEX
  8
LAYER-1
 10
4.333280
 20
0.034087
 30
0.000000
  0
VERTEX
  8
LAYER-1
 10
4.368084
 20
0.023671
 30
0.000000
  0
VERTEX
  8
LAYER-1
 10
4.411108
 20
0.016725
 30
0.000000
  0
VERTEX
  8
LAYER-1
 10
4.458481
 20
0.017593
 30
0.000000
  0
VERTEX
  8
LAYER-1
 10
4.513589
 20
0.020197
 30
0.000000
  0
VERTEX
  8
LAYER-1
 10
4.580781
 20
0.020197
 30
0.000000
  0
VERTEX
  8
LAYER-1
 10
4.626222
 20
0.008913
 30
0.000000
  0
VERTEX
  8
LAYER-1
 10
4.656193
 20
0.002836
 30
0.000000
  0
VERTEX
  8
LAYER-1
 10
4.679397
 20
0.001968
 30
0.000000
  0
VERTEX
  8
LAYER-1
 10
4.714202
 20
0.001969
 30
0.000000
  0
VERTEX
  8
LAYER-1
 10
4.739338
 20
0.006310
 30
0.000000
  0
VERTEX
  8
LAYER-1
 10
4.766409
 20
0.016726
 30
0.000000
  0
VERTEX
  8
LAYER-1
 10
4.801214
 20
0.023671
 30
0.000000
  0
VERTEX
  8
LAYER-1
 10
4.828284
 20
0.030615
 30
0.000000
  0
VERTEX
  8
LAYER-1
 10
4.851488
 20
0.034087
 30
0.000000
  0
VERTEX
  8
LAYER-1
 10
4.874691
 20
0.037560
 30
0.000000
  0
VERTEX
  8
LAYER-1
 10
4.901761
 20
0.041032
 30
0.000000
  0
VERTEX
  8
LAYER-1
 10
4.928832
 20
0.047976
 30
0.000000
  0
VERTEX
  8
LAYER-1
 10
4.948168
 20
0.051448
 30
0.000000
  0
VERTEX
  8
LAYER-1
 10
4.979106
 20
0.054921
 30
0.000000
  0
VERTEX
  8
LAYER-1
 10
5.002310
 20
0.061865
 30
0.000000
  0
VERTEX
  8
LAYER-1
 10
5.025996
 20
0.072716
 30
0.000000
  0
VERTEX
  8
LAYER-1
 10
5.048716
 20
0.079226
 30
0.000000
  0
VERTEX
  8
LAYER-1
 10
5.071919
 20
0.079226
 30
0.000000
  0
VERTEX
  8
LAYER-1
 10
5.098989
 20
0.079226
 30
0.000000
  0
VERTEX
  8
LAYER-1
 10
5.126060
 20
0.079226
 30
0.000000
  0
VERTEX
  8
LAYER-1
 10
5.164733
 20
0.075753
 30
0.000000
  0
VERTEX
  8
LAYER-1
 10
5.218874
 20
0.072282
 30
0.000000
  0
VERTEX
  8
LAYER-1
 10
5.261414
 20
0.072282
 30
0.000000
  0
VERTEX
  8
LAYER-1
 10
5.292351
 20
0.072282
 30
0.000000
  0
VERTEX
  8
LAYER-1
 10
5.315555
 20
0.072282
 30
0.000000
  0
VERTEX
  8
LAYER-1
 10
5.338758
 20
0.072282
 30
0.000000
  0
VERTEX
  8
LAYER-1
 10
5.369696
 20
0.075753
 30
0.000000
  0
VERTEX
  8
LAYER-1
 10
5.408369
 20
0.075753
 30
0.000000
  0
VERTEX
  8
LAYER-1
 10
5.439306
 20
0.075753
 30
0.000000
  0
VERTEX
  8
LAYER-1
 10
5.462510
 20
0.079226
 30
0.000000
  0
VERTEX
  8
LAYER-1
 10
5.493447
 20
0.079226
 30
0.000000
  0
VERTEX
  8
LAYER-1
 10
5.512783
 20
0.079226
 30
0.000000
  0
VERTEX
  8
LAYER-1
 10
5.543722
 20
0.070546
 30
0.000000
  0
VERTEX
  8
LAYER-1
 10
5.570792
 20
0.058393
 30
0.000000
  0
VERTEX
  8
LAYER-1
 10
5.605596
 20
0.044503
 30
0.000000
  0
VERTEX
  8
LAYER-1
 10
5.632667
 20
0.037560
 30
0.000000
  0
VERTEX
  8
LAYER-1
 10
5.663606
 20
0.030615
 30
0.000000
  0
VERTEX
  8
LAYER-1
 10
5.691159
 20
0.028445
 30
0.000000
  0
VERTEX
  8
LAYER-1
 10
5.717747
 20
0.027143
 30
0.000000
  0
VERTEX
  8
LAYER-1
 10
5.740951
 20
0.030615
 30
0.000000
  0
VERTEX
  8
LAYER-1
 10
5.764153
 20
0.037560
 30
0.000000
  0
VERTEX
  8
LAYER-1
 10
5.791224
 20
0.041032
 30
0.000000
  0
VERTEX
  8
LAYER-1
 10
5.814427
 20
0.044503
 30
0.000000
  0
VERTEX
  8
LAYER-1
 10
5.837631
 20
0.047976
 30
0.000000
  0
VERTEX
  8
LAYER-1
 10
5.856966
 20
0.051448
 30
0.000000
  0
VERTEX
  8
LAYER-1
 10
5.880170
 20
0.051448
 30
0.000000
  0
VERTEX
  8
LAYER-1
 10
5.907241
 20
0.051448
 30
0.000000
  0
VERTEX
  8
LAYER-1
 10
5.927060
 20
0.054053
 30
0.000000
  0
VERTEX
  8
LAYER-1
 10
5.953646
 20
0.058393
 30
0.000000
  0
VERTEX
  8
LAYER-1
 10
5.976850
 20
0.065337
 30
0.000000
  0
VERTEX
  8
LAYER-1
 10
6.007788
 20
0.065337
 30
0.000000
  0
VERTEX
  8
LAYER-1
 10
6.038727
 20
0.065337
 30
0.000000
  0
VERTEX
  8
LAYER-1
 10
6.058062
 20
0.065337
 30
0.000000
  0
VERTEX
  8
LAYER-1
 10
6.112203
 20
0.058393
 30
0.000000
  0
VERTEX
  8
LAYER-1
 10
6.143142
 20
0.051448
 30
0.000000
  0
VERTEX
  8
LAYER-1
 10
6.162477
 20
0.047976
 30
0.000000
  0
VERTEX
  8
LAYER-1
 10
6.197283
 20
0.047976
 30
0.000000
  0
VERTEX
  8
LAYER-1
 10
6.220969
 20
0.055355
 30
0.000000
  0
VERTEX
  8
LAYER-1
 10
6.242722
 20
0.056222
 30
0.000000
  0
VERTEX
  8
LAYER-1
 10
6.294447
 20
0.063167
 30
0.000000
  0
VERTEX
  8
LAYER-1
 10
6.342787
 20
0.073150
 30
0.000000
  0
VERTEX
  8
LAYER-1
 10
6.379042
 20
0.076622
 30
0.000000
  0
VERTEX
  8
LAYER-1
 10
6.411914
 20
0.077056
 30
0.000000
  0
VERTEX
  8
LAYER-1
 10
6.428832
 20
0.072282
 30
0.000000
  0
VERTEX
  8
LAYER-1
 10
6.447202
 20
0.068810
 30
0.000000
  0
VERTEX
  8
LAYER-1
 10
6.478141
 20
0.063601
 30
0.000000
  0
VERTEX
  8
LAYER-1
 10
6.518263
 20
0.071847
 30
0.000000
  0
VERTEX
  8
LAYER-1
 10
6.533732
 20
0.079226
 30
0.000000
  0
VERTEX
  8
LAYER-1
 10
6.556936
 20
0.079226
 30
0.000000
  0
VERTEX
  8
LAYER-1
 10
6.580137
 20
0.079226
 30
0.000000
  0
VERTEX
  8
LAYER-1
 10
6.607208
 20
0.072282
 30
0.000000
  0
VERTEX
  8
LAYER-1
 10
6.630412
 20
0.058393
 30
0.000000
  0
VERTEX
  8
LAYER-1
 10
6.657482
 20
0.047976
 30
0.000000
  0
VERTEX
  8
LAYER-1
 10
6.684553
 20
0.037560
 30
0.000000
  0
VERTEX
  8
LAYER-1
 10
6.707757
 20
0.037560
 30
0.000000
  0
VERTEX
  8
LAYER-1
 10
6.737781
 20
0.037543
 30
0.000000
  0
VERTEX
  8
LAYER-1
 10
6.761898
 20
0.047976
 30
0.000000
  0
SEQEND
  8
LAYER-1
  0
TEXT
  8
LAYER-1
 62
  0
 10
1.809856
 20
8.461170
 30
0.000000
 40
0.125000
  1
FERMETURE REPLIABLE POLYCARBONATE
 72
  5
 11
5.337634
 21
8.461170
 31
0.000000
  0
TEXT
  8
LAYER-1
 62
  0
 10
5.879300
 20
0.544503
 30
0.000000
 40
0.125000
  1
Douille
 72
  5
 11
6.490411
 21
0.544503
 31
0.000000
  0
TEXT
  8
LAYER-1
 62
  0
 10
5.879300
 20
0.350059
 30
0.000000
 40
0.125000
  1
anti-poussiÅre
 72
  5
 11
7.059856
 21
0.350059
 31
0.000000
  0
POLYLINE
  8
LAYER-1
 66
  1
 70
  0
 62
  0
 10
5.868356
 20
0.468114
 30
0.000000
  0
VERTEX
  8
LAYER-1
 10
5.868356
 20
0.468114
 30
0.000000
  0
VERTEX
  8
LAYER-1
 10
3.804490
 20
0.158535
 30
0.000000
  0
SEQEND
  8
LAYER-1
  0
POLYLINE
  8
LAYER-1
 66
  1
 70
  1
 62
  0
  0
VERTEX
  8
LAYER-1
 10
3.785022
 20
0.155614
 30
0.000000
  0
VERTEX
  8
LAYER-1
 10
3.847517
 20
0.207121
 30
0.000000
  0
VERTEX
  8
LAYER-1
 10
3.853698
 20
0.165916
 30
0.000000
  0
VERTEX
  8
LAYER-1
 10
3.859879
 20
0.124710
 30
0.000000
  0
VERTEX
  8
LAYER-1
 10
3.785022
 20
0.155614
 30
0.000000
  0
SEQEND
  8
LAYER-1
  0
POLYLINE
  8
LAYER-1
 66
  1
 70
  1
 62
  0
  0
VERTEX
  8
LAYER-1
 10
1.831183
 20
7.153872
 30
0.000000
  0
VERTEX
  8
LAYER-1
 10
2.155809
 20
7.153872
 30
0.000000
  0
VERTEX
  8
LAYER-1
 10
2.155809
 20
7.136246
 30
0.000000
  0
VERTEX
  8
LAYER-1
 10
1.831183
 20
7.136246
 30
0.000000
  0
SEQEND
  8
LAYER-1
  0
POLYLINE
  8
LAYER-1
 66
  1
 70
  1
 62
  0
  0
VERTEX
  8
LAYER-1
 10
2.241183
 20
7.153872
 30
0.000000
  0
VERTEX
  8
LAYER-1
 10
2.565809
 20
7.153872
 30
0.000000
  0
VERTEX
  8
LAYER-1
 10
2.565809
 20
7.136246
 30
0.000000
  0
VERTEX
  8
LAYER-1
 10
2.241183
 20
7.136246
 30
0.000000
  0
SEQEND
  8
LAYER-1
  0
POLYLINE
  8
LAYER-1
 66
  1
 70
  1
 62
  0
  0
VERTEX
  8
LAYER-1
 10
2.651183
 20
7.153872
 30
0.000000
  0
VERTEX
  8
LAYER-1
 10
2.975810
 20
7.153872
 30
0.000000
  0
VERTEX
  8
LAYER-1
 10
2.975810
 20
7.136246
 30
0.000000
  0
VERTEX
  8
LAYER-1
 10
2.651183
 20
7.136246
 30
0.000000
  0
SEQEND
  8
LAYER-1
  0
POLYLINE
  8
LAYER-1
 66
  1
 70
  1
 62
  0
  0
VERTEX
  8
LAYER-1
 10
3.061183
 20
7.153872
 30
0.000000
  0
VERTEX
  8
LAYER-1
 10
3.385810
 20
7.153872
 30
0.000000
  0
VERTEX
  8
LAYER-1
 10
3.385810
 20
7.136246
 30
0.000000
  0
VERTEX
  8
LAYER-1
 10
3.061183
 20
7.136246
 30
0.000000
  0
SEQEND
  8
LAYER-1
  0
POLYLINE
  8
LAYER-1
 66
  1
 70
  1
 62
  0
  0
VERTEX
  8
LAYER-1
 10
4.150003
 20
7.153872
 30
0.000000
  0
VERTEX
  8
LAYER-1
 10
4.474628
 20
7.153872
 30
0.000000
  0
VERTEX
  8
LAYER-1
 10
4.474628
 20
7.136246
 30
0.000000
  0
VERTEX
  8
LAYER-1
 10
4.150003
 20
7.136246
 30
0.000000
  0
SEQEND
  8
LAYER-1
  0
POLYLINE
  8
LAYER-1
 66
  1
 70
  1
 62
  0
  0
VERTEX
  8
LAYER-1
 10
4.560002
 20
7.153872
 30
0.000000
  0
VERTEX
  8
LAYER-1
 10
4.884629
 20
7.153872
 30
0.000000
  0
VERTEX
  8
LAYER-1
 10
4.884629
 20
7.136246
 30
0.000000
  0
VERTEX
  8
LAYER-1
 10
4.560002
 20
7.136246
 30
0.000000
  0
SEQEND
  8
LAYER-1
  0
POLYLINE
  8
LAYER-1
 66
  1
 70
  1
 62
  0
  0
VERTEX
  8
LAYER-1
 10
4.970002
 20
7.153872
 30
0.000000
  0
VERTEX
  8
LAYER-1
 10
5.294629
 20
7.153872
 30
0.000000
  0
VERTEX
  8
LAYER-1
 10
5.294629
 20
7.136246
 30
0.000000
  0
VERTEX
  8
LAYER-1
 10
4.970002
 20
7.136246
 30
0.000000
  0
SEQEND
  8
LAYER-1
  0
POLYLINE
  8
LAYER-1
 66
  1
 70
  1
 62
  0
  0
VERTEX
  8
LAYER-1
 10
5.380002
 20
7.153872
 30
0.000000
  0
VERTEX
  8
LAYER-1
 10
5.704629
 20
7.153872
 30
0.000000
  0
VERTEX
  8
LAYER-1
 10
5.704629
 20
7.136246
 30
0.000000
  0
VERTEX
  8
LAYER-1
 10
5.380002
 20
7.136246
 30
0.000000
  0
SEQEND
  8
LAYER-1
  0
POLYLINE
  8
LAYER-1
 66
  1
 70
  1
 62
  0
  0
VERTEX
  8
LAYER-1
 10
1.831183
 20
3.967672
 30
0.000000
  0
VERTEX
  8
LAYER-1
 10
2.155809
 20
3.967672
 30
0.000000
  0
VERTEX
  8
LAYER-1
 10
2.155809
 20
3.950045
 30
0.000000
  0
VERTEX
  8
LAYER-1
 10
1.831183
 20
3.950045
 30
0.000000
  0
SEQEND
  8
LAYER-1
  0
POLYLINE
  8
LAYER-1
 66
  1
 70
  1
 62
  0
  0
VERTEX
  8
LAYER-1
 10
2.241183
 20
3.967672
 30
0.000000
  0
VERTEX
  8
LAYER-1
 10
2.565809
 20
3.967672
 30
0.000000
  0
VERTEX
  8
LAYER-1
 10
2.565809
 20
3.950045
 30
0.000000
  0
VERTEX
  8
LAYER-1
 10
2.241183
 20
3.950045
 30
0.000000
  0
SEQEND
  8
LAYER-1
  0
POLYLINE
  8
LAYER-1
 66
  1
 70
  1
 62
  0
  0
VERTEX
  8
LAYER-1
 10
2.651183
 20
3.967672
 30
0.000000
  0
VERTEX
  8
LAYER-1
 10
2.975810
 20
3.967672
 30
0.000000
  0
VERTEX
  8
LAYER-1
 10
2.975810
 20
3.950045
 30
0.000000
  0
VERTEX
  8
LAYER-1
 10
2.651183
 20
3.950045
 30
0.000000
  0
SEQEND
  8
LAYER-1
  0
POLYLINE
  8
LAYER-1
 66
  1
 70
  1
 62
  0
  0
VERTEX
  8
LAYER-1
 10
3.061183
 20
3.967672
 30
0.000000
  0
VERTEX
  8
LAYER-1
 10
3.385810
 20
3.967672
 30
0.000000
  0
VERTEX
  8
LAYER-1
 10
3.385810
 20
3.950045
 30
0.000000
  0
VERTEX
  8
LAYER-1
 10
3.061183
 20
3.950045
 30
0.000000
  0
SEQEND
  8
LAYER-1
  0
POLYLINE
  8
LAYER-1
 66
  1
 70
  1
 62
  0
  0
VERTEX
  8
LAYER-1
 10
4.150003
 20
3.967672
 30
0.000000
  0
VERTEX
  8
LAYER-1
 10
4.474628
 20
3.967672
 30
0.000000
  0
VERTEX
  8
LAYER-1
 10
4.474628
 20
3.950045
 30
0.000000
  0
VERTEX
  8
LAYER-1
 10
4.150003
 20
3.950045
 30
0.000000
  0
SEQEND
  8
LAYER-1
  0
POLYLINE
  8
LAYER-1
 66
  1
 70
  1
 62
  0
  0
VERTEX
  8
LAYER-1
 10
4.560002
 20
3.967672
 30
0.000000
  0
VERTEX
  8
LAYER-1
 10
4.884629
 20
3.967672
 30
0.000000
  0
VERTEX
  8
LAYER-1
 10
4.884629
 20
3.950045
 30
0.000000
  0
VERTEX
  8
LAYER-1
 10
4.560002
 20
3.950045
 30
0.000000
  0
SEQEND
  8
LAYER-1
  0
POLYLINE
  8
LAYER-1
 66
  1
 70
  1
 62
  0
  0
VERTEX
  8
LAYER-1
 10
4.970002
 20
3.967672
 30
0.000000
  0
VERTEX
  8
LAYER-1
 10
5.294629
 20
3.967672
 30
0.000000
  0
VERTEX
  8
LAYER-1
 10
5.294629
 20
3.950045
 30
0.000000
  0
VERTEX
  8
LAYER-1
 10
4.970002
 20
3.950045
 30
0.000000
  0
SEQEND
  8
LAYER-1
  0
POLYLINE
  8
LAYER-1
 66
  1
 70
  1
 62
  0
  0
VERTEX
  8
LAYER-1
 10
5.380002
 20
3.967672
 30
0.000000
  0
VERTEX
  8
LAYER-1
 10
5.704629
 20
3.967672
 30
0.000000
  0
VERTEX
  8
LAYER-1
 10
5.704629
 20
3.950045
 30
0.000000
  0
VERTEX
  8
LAYER-1
 10
5.380002
 20
3.950045
 30
0.000000
  0
SEQEND
  8
LAYER-1
  0
POLYLINE
  8
LAYER-1
 66
  1
 70
  1
 62
  0
  0
VERTEX
  8
LAYER-1
 10
1.831183
 20
3.872620
 30
0.000000
  0
VERTEX
  8
LAYER-1
 10
2.155809
 20
3.872620
 30
0.000000
  0
VERTEX
  8
LAYER-1
 10
2.155809
 20
3.854994
 30
0.000000
  0
VERTEX
  8
LAYER-1
 10
1.831183
 20
3.854994
 30
0.000000
  0
SEQEND
  8
LAYER-1
  0
POLYLINE
  8
LAYER-1
 66
  1
 70
  1
 62
  0
  0
VERTEX
  8
LAYER-1
 10
2.241183
 20
3.872620
 30
0.000000
  0
VERTEX
  8
LAYER-1
 10
2.565809
 20
3.872620
 30
0.000000
  0
VERTEX
  8
LAYER-1
 10
2.565809
 20
3.854994
 30
0.000000
  0
VERTEX
  8
LAYER-1
 10
2.241183
 20
3.854994
 30
0.000000
  0
SEQEND
  8
LAYER-1
  0
POLYLINE
  8
LAYER-1
 66
  1
 70
  1
 62
  0
  0
VERTEX
  8
LAYER-1
 10
2.651183
 20
3.872620
 30
0.000000
  0
VERTEX
  8
LAYER-1
 10
2.975810
 20
3.872620
 30
0.000000
  0
VERTEX
  8
LAYER-1
 10
2.975810
 20
3.854994
 30
0.000000
  0
VERTEX
  8
LAYER-1
 10
2.651183
 20
3.854994
 30
0.000000
  0
SEQEND
  8
LAYER-1
  0
POLYLINE
  8
LAYER-1
 66
  1
 70
  1
 62
  0
  0
VERTEX
  8
LAYER-1
 10
3.061183
 20
3.872620
 30
0.000000
  0
VERTEX
  8
LAYER-1
 10
3.385810
 20
3.872620
 30
0.000000
  0
VERTEX
  8
LAYER-1
 10
3.385810
 20
3.854994
 30
0.000000
  0
VERTEX
  8
LAYER-1
 10
3.061183
 20
3.854994
 30
0.000000
  0
SEQEND
  8
LAYER-1
  0
POLYLINE
  8
LAYER-1
 66
  1
 70
  1
 62
  0
  0
VERTEX
  8
LAYER-1
 10
4.150003
 20
3.872620
 30
0.000000
  0
VERTEX
  8
LAYER-1
 10
4.474628
 20
3.872620
 30
0.000000
  0
VERTEX
  8
LAYER-1
 10
4.474628
 20
3.854994
 30
0.000000
  0
VERTEX
  8
LAYER-1
 10
4.150003
 20
3.854994
 30
0.000000
  0
SEQEND
  8
LAYER-1
  0
POLYLINE
  8
LAYER-1
 66
  1
 70
  1
 62
  0
  0
VERTEX
  8
LAYER-1
 10
4.560002
 20
3.872620
 30
0.000000
  0
VERTEX
  8
LAYER-1
 10
4.884629
 20
3.872620
 30
0.000000
  0
VERTEX
  8
LAYER-1
 10
4.884629
 20
3.854994
 30
0.000000
  0
VERTEX
  8
LAYER-1
 10
4.560002
 20
3.854994
 30
0.000000
  0
SEQEND
  8
LAYER-1
  0
POLYLINE
  8
LAYER-1
 66
  1
 70
  1
 62
  0
  0
VERTEX
  8
LAYER-1
 10
4.970002
 20
3.872620
 30
0.000000
  0
VERTEX
  8
LAYER-1
 10
5.294629
 20
3.872620
 30
0.000000
  0
VERTEX
  8
LAYER-1
 10
5.294629
 20
3.854994
 30
0.000000
  0
VERTEX
  8
LAYER-1
 10
4.970002
 20
3.854994
 30
0.000000
  0
SEQEND
  8
LAYER-1
  0
POLYLINE
  8
LAYER-1
 66
  1
 70
  1
 62
  0
  0
VERTEX
  8
LAYER-1
 10
5.380002
 20
3.872620
 30
0.000000
  0
VERTEX
  8
LAYER-1
 10
5.704629
 20
3.872620
 30
0.000000
  0
VERTEX
  8
LAYER-1
 10
5.704629
 20
3.854994
 30
0.000000
  0
VERTEX
  8
LAYER-1
 10
5.380002
 20
3.854994
 30
0.000000
  0
SEQEND
  8
LAYER-1
  0
POLYLINE
  8
LAYER-1
 66
  1
 70
  1
 62
  0
  0
VERTEX
  8
LAYER-1
 10
1.831183
 20
0.688598
 30
0.000000
  0
VERTEX
  8
LAYER-1
 10
2.155809
 20
0.688598
 30
0.000000
  0
VERTEX
  8
LAYER-1
 10
2.155809
 20
0.670970
 30
0.000000
  0
VERTEX
  8
LAYER-1
 10
1.831183
 20
0.670970
 30
0.000000
  0
SEQEND
  8
LAYER-1
  0
POLYLINE
  8
LAYER-1
 66
  1
 70
  1
 62
  0
  0
VERTEX
  8
LAYER-1
 10
2.241183
 20
0.688598
 30
0.000000
  0
VERTEX
  8
LAYER-1
 10
2.565809
 20
0.688598
 30
0.000000
  0
VERTEX
  8
LAYER-1
 10
2.565809
 20
0.670970
 30
0.000000
  0
VERTEX
  8
LAYER-1
 10
2.241183
 20
0.670970
 30
0.000000
  0
SEQEND
  8
LAYER-1
  0
POLYLINE
  8
LAYER-1
 66
  1
 70
  1
 62
  0
  0
VERTEX
  8
LAYER-1
 10
2.651183
 20
0.688598
 30
0.000000
  0
VERTEX
  8
LAYER-1
 10
2.975810
 20
0.688598
 30
0.000000
  0
VERTEX
  8
LAYER-1
 10
2.975810
 20
0.670970
 30
0.000000
  0
VERTEX
  8
LAYER-1
 10
2.651183
 20
0.670970
 30
0.000000
  0
SEQEND
  8
LAYER-1
  0
POLYLINE
  8
LAYER-1
 66
  1
 70
  1
 62
  0
  0
VERTEX
  8
LAYER-1
 10
3.061183
 20
0.688598
 30
0.000000
  0
VERTEX
  8
LAYER-1
 10
3.385810
 20
0.688598
 30
0.000000
  0
VERTEX
  8
LAYER-1
 10
3.385810
 20
0.670970
 30
0.000000
  0
VERTEX
  8
LAYER-1
 10
3.061183
 20
0.670970
 30
0.000000
  0
SEQEND
  8
LAYER-1
  0
POLYLINE
  8
LAYER-1
 66
  1
 70
  1
 62
  0
  0
VERTEX
  8
LAYER-1
 10
4.150003
 20
0.688598
 30
0.000000
  0
VERTEX
  8
LAYER-1
 10
4.474628
 20
0.688598
 30
0.000000
  0
VERTEX
  8
LAYER-1
 10
4.474628
 20
0.670970
 30
0.000000
  0
VERTEX
  8
LAYER-1
 10
4.150003
 20
0.670970
 30
0.000000
  0
SEQEND
  8
LAYER-1
  0
POLYLINE
  8
LAYER-1
 66
  1
 70
  1
 62
  0
  0
VERTEX
  8
LAYER-1
 10
4.560002
 20
0.688598
 30
0.000000
  0
VERTEX
  8
LAYER-1
 10
4.884629
 20
0.688598
 30
0.000000
  0
VERTEX
  8
LAYER-1
 10
4.884629
 20
0.670970
 30
0.000000
  0
VERTEX
  8
LAYER-1
 10
4.560002
 20
0.670970
 30
0.000000
  0
SEQEND
  8
LAYER-1
  0
POLYLINE
  8
LAYER-1
 66
  1
 70
  1
 62
  0
  0
VERTEX
  8
LAYER-1
 10
4.970002
 20
0.688598
 30
0.000000
  0
VERTEX
  8
LAYER-1
 10
5.294629
 20
0.688598
 30
0.000000
  0
VERTEX
  8
LAYER-1
 10
5.294629
 20
0.670970
 30
0.000000
  0
VERTEX
  8
LAYER-1
 10
4.970002
 20
0.670970
 30
0.000000
  0
SEQEND
  8
LAYER-1
  0
POLYLINE
  8
LAYER-1
 66
  1
 70
  1
 62
  0
  0
VERTEX
  8
LAYER-1
 10
5.380002
 20
0.688598
 30
0.000000
  0
VERTEX
  8
LAYER-1
 10
5.704629
 20
0.688598
 30
0.000000
  0
VERTEX
  8
LAYER-1
 10
5.704629
 20
0.670970
 30
0.000000
  0
VERTEX
  8
LAYER-1
 10
5.380002
 20
0.670970
 30
0.000000
  0
SEQEND
  8
LAYER-1
  0
LINE
  8
LAYER-1
 62
  0
 10
5.912287
 20
7.422975
 30
0.000000
 11
5.912287
 21
7.154937
 31
0.000000
  0
LINE
  8
LAYER-1
 62
  0
 10
5.829165
 20
7.422975
 30
0.000000
 11
6.037287
 21
7.422975
 31
0.000000
  0
LINE
  8
LAYER-1
 62
  0
 10
5.835029
 20
7.154937
 30
0.000000
 11
6.037287
 21
7.154937
 31
0.000000
  0
LINE
  8
LAYER-1
 62
  0
 10
5.941750
 20
7.393512
 30
0.000000
 11
5.882824
 21
7.452438
 31
0.000000
  0
LINE
  8
LAYER-1
 62
  0
 10
5.941750
 20
7.125474
 30
0.000000
 11
5.882824
 21
7.184399
 31
0.000000
  0
TEXT
  8
LAYER-1
 62
  0
 10
5.788330
 20
7.282573
 30
0.000000
 40
0.125000
  1
 
 50
90.000000
  0
TEXT
  8
LAYER-1
 62
  0
 10
6.226523
 20
7.308392
 30
0.000000
 40
0.125000
  1
4"
 72
  5
 11
6.448745
 21
7.308392
 31
0.000000
  0
TEXT
  8
LAYER-1
 62
  0
 10
6.004300
 20
7.113948
 30
0.000000
 40
0.125000
  1
102mm
 72
  5
 11
6.670967
 21
7.113948
 31
0.000000
  0
LINE
  8
LAYER-1
 62
  0
 10
4.519057
 20
7.686185
 30
0.000000
 11
4.928779
 21
7.686185
 31
0.000000
  0
LINE
  8
LAYER-1
 62
  0
 10
4.519057
 20
7.316394
 30
0.000000
 11
4.519057
 21
7.811185
 31
0.000000
  0
LINE
  8
LAYER-1
 62
  0
 10
4.928779
 20
7.314659
 30
0.000000
 11
4.928779
 21
7.811185
 31
0.000000
  0
LINE
  8
LAYER-1
 62
  0
 10
4.548520
 20
7.715647
 30
0.000000
 11
4.489595
 21
7.656722
 31
0.000000
  0
LINE
  8
LAYER-1
 62
  0
 10
4.958242
 20
7.715647
 30
0.000000
 11
4.899317
 21
7.656722
 31
0.000000
  0
TEXT
  8
LAYER-1
 62
  0
 10
4.717336
 20
7.807845
 30
0.000000
 40
0.125000
  1
 
  0
TEXT
  8
LAYER-1
 62
  0
 10
4.615411
 20
8.058392
 30
0.000000
 40
0.125000
  1
6"
 72
  5
 11
4.837634
 21
8.058392
 31
0.000000
  0
TEXT
  8
LAYER-1
 62
  0
 10
4.393189
 20
7.863948
 30
0.000000
 40
0.125000
  1
152mm
 72
  5
 11
5.059856
 21
7.863948
 31
0.000000
  0
TEXT
  8
LAYER-1
 62
  0
 10
5.865411
 20
3.738948
 30
0.000000
 40
0.125000
  1
Protecteur
 72
  5
 11
6.712634
 21
3.738948
 31
0.000000
  0
TEXT
  8
LAYER-1
 62
  0
 10
5.865411
 20
3.544503
 30
0.000000
 40
0.125000
  1
PVC
 72
  5
 11
6.268189
 21
3.544503
 31
0.000000
  0
POLYLINE
  8
LAYER-1
 66
  1
 70
  0
 62
  0
 10
5.826675
 20
3.674494
 30
0.000000
  0
VERTEX
  8
LAYER-1
 10
5.826675
 20
3.674494
 30
0.000000
  0
VERTEX
  8
LAYER-1
 10
5.544619
 20
3.843728
 30
0.000000
  0
SEQEND
  8
LAYER-1
  0
POLYLINE
  8
LAYER-1
 66
  1
 70
  1
 62
  0
  0
VERTEX
  8
LAYER-1
 10
5.527739
 20
3.853856
 30
0.000000
  0
VERTEX
  8
LAYER-1
 10
5.608724
 20
3.853856
 30
0.000000
  0
VERTEX
  8
LAYER-1
 10
5.587287
 20
3.818128
 30
0.000000
  0
VERTEX
  8
LAYER-1
 10
5.565850
 20
3.782399
 30
0.000000
  0
VERTEX
  8
LAYER-1
 10
5.527739
 20
3.853856
 30
0.000000
  0
SEQEND
  8
LAYER-1
  0
ENDSEC
  0
EOF
