  0
SECTION
  2
HEADER
999
MacDraft 5.0\0
  9
$ACADVER
  1
AC1006
  9
$CLAYER
  8
LAYER-1
  9
$EXTMIN
 10
0.000000
 20
0.000000
  9
$EXTMAX
 10
6.976523
 20
9.978350
  9
$FASTZOOM
 70
0
  9
$FILLMODE
 70
1
  0
ENDSEC
  0
SECTION
  2
TABLES
  0
TABLE
  2
LTYPE
 70
16
  0
LTYPE
  2
CONTINUOUS
 70
64
  3
Solid Line
 72
65
 73
0
 40
0.000000
  0
LTYPE
  2
LTYPE01
 70
64
  3
CUSTOM
 72
65
 73
2
 40
0.111111
 49
0.083333
 49
-0.027778
  0
LTYPE
  2
LTYPE02
 70
64
  3
CUSTOM
 72
65
 73
2
 40
0.194444
 49
0.166667
 49
-0.027778
  0
LTYPE
  2
LTYPE03
 70
64
  3
CUSTOM
 72
65
 73
2
 40
0.375000
 49
0.333333
 49
-0.041667
  0
LTYPE
  2
LTYPE04
 70
64
  3
CUSTOM
 72
65
 73
2
 40
0.722222
 49
0.666667
 49
-0.055556
  0
LTYPE
  2
LTYPE05
 70
64
  3
CUSTOM
 72
65
 73
4
 40
0.152778
 49
0.083333
 49
-0.027778
 49
0.013889
 49
-0.027778
  0
LTYPE
  2
LTYPE06
 70
64
  3
CUSTOM
 72
65
 73
4
 40
0.236111
 49
0.166667
 49
-0.027778
 49
0.013889
 49
-0.027778
  0
LTYPE
  2
LTYPE07
 70
64
  3
CUSTOM
 72
65
 73
4
 40
0.444444
 49
0.333333
 49
-0.041667
 49
0.027778
 49
-0.041667
  0
LTYPE
  2
LTYPE08
 70
64
  3
CUSTOM
 72
65
 73
4
 40
0.805556
 49
0.666667
 49
-0.055556
 49
0.027778
 49
-0.055556
  0
LTYPE
  2
LTYPE09
 70
64
  3
CUSTOM
 72
65
 73
6
 40
0.194444
 49
0.083333
 49
-0.027778
 49
0.013889
 49
-0.027778
 49
0.013889
 49
-0.027778
  0
LTYPE
  2
LTYPE10
 70
64
  3
CUSTOM
 72
65
 73
6
 40
0.277778
 49
0.166667
 49
-0.027778
 49
0.013889
 49
-0.027778
 49
0.013889
 49
-0.027778
  0
LTYPE
  2
LTYPE11
 70
64
  3
CUSTOM
 72
65
 73
6
 40
0.500000
 49
0.333333
 49
-0.041667
 49
0.027778
 49
-0.027778
 49
0.027778
 49
-0.041667
  0
LTYPE
  2
LTYPE12
 70
64
  3
CUSTOM
 72
65
 73
6
 40
0.861111
 49
0.666667
 49
-0.055556
 49
0.027778
 49
-0.027778
 49
0.027778
 49
-0.055556
  0
LTYPE
  2
LTYPE13
 70
64
  3
CUSTOM
 72
65
 73
8
 40
0.319444
 49
0.166667
 49
-0.027778
 49
0.013889
 49
-0.027778
 49
0.013889
 49
-0.027778
 49
0.013889
 49
-0.027778
  0
LTYPE
  2
LTYPE14
 70
64
  3
CUSTOM
 72
65
 73
8
 40
0.555556
 49
0.333333
 49
-0.041667
 49
0.027778
 49
-0.027778
 49
0.027778
 49
-0.027778
 49
0.027778
 49
-0.041667
  0
LTYPE
  2
LTYPE15
 70
64
  3
CUSTOM
 72
65
 73
8
 40
0.944444
 49
0.666667
 49
-0.055556
 49
0.027778
 49
-0.041667
 49
0.027778
 49
-0.041667
 49
0.027778
 49
-0.055556
  0
ENDTAB
  0
TABLE
  2
LAYER
 70
1
  0
LAYER
  2
LAYER-1
 70
0
 62
7
  6
CONTINUOUS
  0
ENDTAB
  0
ENDSEC
  0
SECTION
  2
BLOCKS
  0
ENDSEC
  0
SECTION
  2
ENTITIES
  0
ARC
  8
LAYER-1
 62
  0
 10
5.476747
 20
8.913306
 30
0.000000
 40
0.254425
 50
270.000000
 51
90.000000
  0
POLYLINE
  8
LAYER-1
 66
  1
 70
  0
 62
  0
 10
5.476747
 20
9.167732
 30
0.000000
  0
VERTEX
  8
LAYER-1
 10
5.476747
 20
9.167732
 30
0.000000
  0
VERTEX
  8
LAYER-1
 10
1.811825
 20
9.167732
 30
0.000000
  0
SEQEND
  8
LAYER-1
  0
POLYLINE
  8
LAYER-1
 66
  1
 70
  0
 62
  0
 10
1.811825
 20
9.167732
 30
0.000000
  0
VERTEX
  8
LAYER-1
 10
1.811825
 20
9.167732
 30
0.000000
  0
VERTEX
  8
LAYER-1
 10
1.811825
 20
8.658882
 30
0.000000
  0
SEQEND
  8
LAYER-1
  0
POLYLINE
  8
LAYER-1
 66
  1
 70
  0
 62
  0
 10
5.476747
 20
8.658882
 30
0.000000
  0
VERTEX
  8
LAYER-1
 10
5.476747
 20
8.658882
 30
0.000000
  0
VERTEX
  8
LAYER-1
 10
1.811825
 20
8.658882
 30
0.000000
  0
SEQEND
  8
LAYER-1
  0
TEXT
  8
LAYER-1
 62
  0
 10
3.615411
 20
9.456709
 30
0.000000
 40
0.333333
  1
MobilFlex
 72
  5
 11
5.768189
 21
9.456709
 31
0.000000
  0
POLYLINE
  8
LAYER-1
 66
  1
 70
  1
 62
  0
  0
VERTEX
  8
LAYER-1
 10
1.813329
 20
9.976683
 30
0.000000
  0
VERTEX
  8
LAYER-1
 10
2.051176
 20
9.976683
 30
0.000000
  0
VERTEX
  8
LAYER-1
 10
2.051176
 20
9.459739
 30
0.000000
  0
VERTEX
  8
LAYER-1
 10
1.813329
 20
9.459739
 30
0.000000
  0
SEQEND
  8
LAYER-1
  0
POLYLINE
  8
LAYER-1
 66
  1
 70
  1
 62
  0
  0
VERTEX
  8
LAYER-1
 10
2.125829
 20
9.976683
 30
0.000000
  0
VERTEX
  8
LAYER-1
 10
2.363676
 20
9.976683
 30
0.000000
  0
VERTEX
  8
LAYER-1
 10
2.363676
 20
9.459739
 30
0.000000
  0
VERTEX
  8
LAYER-1
 10
2.125829
 20
9.459739
 30
0.000000
  0
SEQEND
  8
LAYER-1
  0
POLYLINE
  8
LAYER-1
 66
  1
 70
  1
 62
  0
  0
VERTEX
  8
LAYER-1
 10
2.426176
 20
9.976683
 30
0.000000
  0
VERTEX
  8
LAYER-1
 10
2.664023
 20
9.976683
 30
0.000000
  0
VERTEX
  8
LAYER-1
 10
2.664023
 20
9.459739
 30
0.000000
  0
VERTEX
  8
LAYER-1
 10
2.426176
 20
9.459739
 30
0.000000
  0
SEQEND
  8
LAYER-1
  0
POLYLINE
  8
LAYER-1
 66
  1
 70
  1
 62
  0
  0
VERTEX
  8
LAYER-1
 10
2.729995
 20
9.976683
 30
0.000000
  0
VERTEX
  8
LAYER-1
 10
2.967843
 20
9.976683
 30
0.000000
  0
VERTEX
  8
LAYER-1
 10
2.967843
 20
9.459739
 30
0.000000
  0
VERTEX
  8
LAYER-1
 10
2.729995
 20
9.459739
 30
0.000000
  0
SEQEND
  8
LAYER-1
  0
POLYLINE
  8
LAYER-1
 66
  1
 70
  1
 62
  0
  0
VERTEX
  8
LAYER-1
 10
3.046836
 20
9.972768
 30
0.000000
  0
VERTEX
  8
LAYER-1
 10
3.422270
 20
9.972768
 30
0.000000
  0
VERTEX
  8
LAYER-1
 10
3.422270
 20
9.834747
 30
0.000000
  0
VERTEX
  8
LAYER-1
 10
3.046836
 20
9.834747
 30
0.000000
  0
SEQEND
  8
LAYER-1
  0
POLYLINE
  8
LAYER-1
 66
  1
 70
  1
 62
  0
  0
VERTEX
  8
LAYER-1
 10
3.046402
 20
9.745338
 30
0.000000
  0
VERTEX
  8
LAYER-1
 10
3.354561
 20
9.745338
 30
0.000000
  0
VERTEX
  8
LAYER-1
 10
3.354561
 20
9.611223
 30
0.000000
  0
VERTEX
  8
LAYER-1
 10
3.046402
 20
9.611223
 30
0.000000
  0
SEQEND
  8
LAYER-1
  0
POLYLINE
  8
LAYER-1
 66
  1
 70
  1
 62
  0
  0
VERTEX
  8
LAYER-1
 10
1.813329
 20
9.375112
 30
0.000000
  0
VERTEX
  8
LAYER-1
 10
5.731732
 20
9.375112
 30
0.000000
  0
VERTEX
  8
LAYER-1
 10
5.731732
 20
9.331709
 30
0.000000
  0
VERTEX
  8
LAYER-1
 10
1.813329
 20
9.331709
 30
0.000000
  0
SEQEND
  8
LAYER-1
  0
POLYLINE
  8
LAYER-1
 66
  1
 70
  0
 62
  0
 10
5.777370
 20
7.419263
 30
0.000000
  0
VERTEX
  8
LAYER-1
 10
5.777370
 20
7.419263
 30
0.000000
  0
VERTEX
  8
LAYER-1
 10
1.758507
 20
7.419400
 30
0.000000
  0
VERTEX
  8
LAYER-1
 10
1.758507
 20
0.352186
 30
0.000000
  0
VERTEX
  8
LAYER-1
 10
5.777370
 20
0.352186
 30
0.000000
  0
VERTEX
  8
LAYER-1
 10
5.777370
 20
7.419400
 30
0.000000
  0
SEQEND
  8
LAYER-1
  0
POLYLINE
  8
LAYER-1
 66
  1
 70
  1
 62
  0
  0
VERTEX
  8
LAYER-1
 10
5.380004
 20
3.870941
 30
0.000000
  0
VERTEX
  8
LAYER-1
 10
5.704815
 20
3.870941
 30
0.000000
  0
VERTEX
  8
LAYER-1
 10
5.704815
 20
0.666160
 30
0.000000
  0
VERTEX
  8
LAYER-1
 10
5.380004
 20
0.666160
 30
0.000000
  0
SEQEND
  8
LAYER-1
  0
POLYLINE
  8
LAYER-1
 66
  1
 70
  1
 62
  0
  0
VERTEX
  8
LAYER-1
 10
4.970004
 20
3.870941
 30
0.000000
  0
VERTEX
  8
LAYER-1
 10
5.294815
 20
3.870941
 30
0.000000
  0
VERTEX
  8
LAYER-1
 10
5.294815
 20
0.666160
 30
0.000000
  0
VERTEX
  8
LAYER-1
 10
4.970004
 20
0.666160
 30
0.000000
  0
SEQEND
  8
LAYER-1
  0
POLYLINE
  8
LAYER-1
 66
  1
 70
  1
 62
  0
  0
VERTEX
  8
LAYER-1
 10
4.559570
 20
3.870941
 30
0.000000
  0
VERTEX
  8
LAYER-1
 10
4.884381
 20
3.870941
 30
0.000000
  0
VERTEX
  8
LAYER-1
 10
4.884381
 20
0.666160
 30
0.000000
  0
VERTEX
  8
LAYER-1
 10
4.559570
 20
0.666160
 30
0.000000
  0
SEQEND
  8
LAYER-1
  0
POLYLINE
  8
LAYER-1
 66
  1
 70
  1
 62
  0
  0
VERTEX
  8
LAYER-1
 10
4.149569
 20
3.870941
 30
0.000000
  0
VERTEX
  8
LAYER-1
 10
4.474380
 20
3.870941
 30
0.000000
  0
VERTEX
  8
LAYER-1
 10
4.474380
 20
0.666160
 30
0.000000
  0
VERTEX
  8
LAYER-1
 10
4.149569
 20
0.666160
 30
0.000000
  0
SEQEND
  8
LAYER-1
  0
POLYLINE
  8
LAYER-1
 66
  1
 70
  1
 62
  0
  0
VERTEX
  8
LAYER-1
 10
3.061183
 20
3.870941
 30
0.000000
  0
VERTEX
  8
LAYER-1
 10
3.385993
 20
3.870941
 30
0.000000
  0
VERTEX
  8
LAYER-1
 10
3.385993
 20
0.666160
 30
0.000000
  0
VERTEX
  8
LAYER-1
 10
3.061183
 20
0.666160
 30
0.000000
  0
SEQEND
  8
LAYER-1
  0
POLYLINE
  8
LAYER-1
 66
  1
 70
  1
 62
  0
  0
VERTEX
  8
LAYER-1
 10
2.651617
 20
3.870941
 30
0.000000
  0
VERTEX
  8
LAYER-1
 10
2.976427
 20
3.870941
 30
0.000000
  0
VERTEX
  8
LAYER-1
 10
2.976427
 20
0.666160
 30
0.000000
  0
VERTEX
  8
LAYER-1
 10
2.651617
 20
0.666160
 30
0.000000
  0
SEQEND
  8
LAYER-1
  0
POLYLINE
  8
LAYER-1
 66
  1
 70
  1
 62
  0
  0
VERTEX
  8
LAYER-1
 10
2.241183
 20
3.870941
 30
0.000000
  0
VERTEX
  8
LAYER-1
 10
2.565993
 20
3.870941
 30
0.000000
  0
VERTEX
  8
LAYER-1
 10
2.565993
 20
0.666160
 30
0.000000
  0
VERTEX
  8
LAYER-1
 10
2.241183
 20
0.666160
 30
0.000000
  0
SEQEND
  8
LAYER-1
  0
POLYLINE
  8
LAYER-1
 66
  1
 70
  1
 62
  0
  0
VERTEX
  8
LAYER-1
 10
1.831183
 20
3.870941
 30
0.000000
  0
VERTEX
  8
LAYER-1
 10
2.155993
 20
3.870941
 30
0.000000
  0
VERTEX
  8
LAYER-1
 10
2.155993
 20
0.666160
 30
0.000000
  0
VERTEX
  8
LAYER-1
 10
1.831183
 20
0.666160
 30
0.000000
  0
SEQEND
  8
LAYER-1
  0
POLYLINE
  8
LAYER-1
 66
  1
 70
  1
 62
  0
  0
VERTEX
  8
LAYER-1
 10
5.380004
 20
7.148977
 30
0.000000
  0
VERTEX
  8
LAYER-1
 10
5.704815
 20
7.148977
 30
0.000000
  0
VERTEX
  8
LAYER-1
 10
5.704815
 20
3.944205
 30
0.000000
  0
VERTEX
  8
LAYER-1
 10
5.380004
 20
3.944205
 30
0.000000
  0
SEQEND
  8
LAYER-1
  0
POLYLINE
  8
LAYER-1
 66
  1
 70
  1
 62
  0
  0
VERTEX
  8
LAYER-1
 10
4.970004
 20
7.148977
 30
0.000000
  0
VERTEX
  8
LAYER-1
 10
5.294815
 20
7.148977
 30
0.000000
  0
VERTEX
  8
LAYER-1
 10
5.294815
 20
3.944205
 30
0.000000
  0
VERTEX
  8
LAYER-1
 10
4.970004
 20
3.944205
 30
0.000000
  0
SEQEND
  8
LAYER-1
  0
POLYLINE
  8
LAYER-1
 66
  1
 70
  1
 62
  0
  0
VERTEX
  8
LAYER-1
 10
4.559570
 20
7.148977
 30
0.000000
  0
VERTEX
  8
LAYER-1
 10
4.884381
 20
7.148977
 30
0.000000
  0
VERTEX
  8
LAYER-1
 10
4.884381
 20
3.944205
 30
0.000000
  0
VERTEX
  8
LAYER-1
 10
4.559570
 20
3.944205
 30
0.000000
  0
SEQEND
  8
LAYER-1
  0
POLYLINE
  8
LAYER-1
 66
  1
 70
  1
 62
  0
  0
VERTEX
  8
LAYER-1
 10
4.149569
 20
7.148977
 30
0.000000
  0
VERTEX
  8
LAYER-1
 10
4.474380
 20
7.148977
 30
0.000000
  0
VERTEX
  8
LAYER-1
 10
4.474380
 20
3.944205
 30
0.000000
  0
VERTEX
  8
LAYER-1
 10
4.149569
 20
3.944205
 30
0.000000
  0
SEQEND
  8
LAYER-1
  0
POLYLINE
  8
LAYER-1
 66
  1
 70
  1
 62
  0
  0
VERTEX
  8
LAYER-1
 10
3.061183
 20
7.148977
 30
0.000000
  0
VERTEX
  8
LAYER-1
 10
3.385993
 20
7.148977
 30
0.000000
  0
VERTEX
  8
LAYER-1
 10
3.385993
 20
3.944205
 30
0.000000
  0
VERTEX
  8
LAYER-1
 10
3.061183
 20
3.944205
 30
0.000000
  0
SEQEND
  8
LAYER-1
  0
POLYLINE
  8
LAYER-1
 66
  1
 70
  1
 62
  0
  0
VERTEX
  8
LAYER-1
 10
2.651617
 20
7.148977
 30
0.000000
  0
VERTEX
  8
LAYER-1
 10
2.976427
 20
7.148977
 30
0.000000
  0
VERTEX
  8
LAYER-1
 10
2.976427
 20
3.944205
 30
0.000000
  0
VERTEX
  8
LAYER-1
 10
2.651617
 20
3.944205
 30
0.000000
  0
SEQEND
  8
LAYER-1
  0
POLYLINE
  8
LAYER-1
 66
  1
 70
  1
 62
  0
  0
VERTEX
  8
LAYER-1
 10
2.241183
 20
7.148977
 30
0.000000
  0
VERTEX
  8
LAYER-1
 10
2.565993
 20
7.148977
 30
0.000000
  0
VERTEX
  8
LAYER-1
 10
2.565993
 20
3.944205
 30
0.000000
  0
VERTEX
  8
LAYER-1
 10
2.241183
 20
3.944205
 30
0.000000
  0
SEQEND
  8
LAYER-1
  0
POLYLINE
  8
LAYER-1
 66
  1
 70
  1
 62
  0
  0
VERTEX
  8
LAYER-1
 10
1.831183
 20
7.148977
 30
0.000000
  0
VERTEX
  8
LAYER-1
 10
2.155993
 20
7.148977
 30
0.000000
  0
VERTEX
  8
LAYER-1
 10
2.155993
 20
3.944205
 30
0.000000
  0
VERTEX
  8
LAYER-1
 10
1.831183
 20
3.944205
 30
0.000000
  0
SEQEND
  8
LAYER-1
  0
POLYLINE
  8
LAYER-1
 66
  1
 70
  1
 62
  0
  0
VERTEX
  8
LAYER-1
 10
3.793519
 20
7.485823
 30
0.000000
  0
VERTEX
  8
LAYER-1
 10
3.818614
 20
7.485823
 30
0.000000
  0
VERTEX
  8
LAYER-1
 10
3.818614
 20
7.419505
 30
0.000000
  0
VERTEX
  8
LAYER-1
 10
3.793519
 20
7.419505
 30
0.000000
  0
SEQEND
  8
LAYER-1
  0
POLYLINE
  8
LAYER-1
 66
  1
 70
  1
 62
  0
  0
VERTEX
  8
LAYER-1
 10
1.831183
 20
0.665939
 30
0.000000
  0
VERTEX
  8
LAYER-1
 10
2.155815
 20
0.665939
 30
0.000000
  0
VERTEX
  8
LAYER-1
 10
2.155815
 20
0.352514
 30
0.000000
  0
VERTEX
  8
LAYER-1
 10
1.831183
 20
0.352514
 30
0.000000
  0
SEQEND
  8
LAYER-1
  0
POLYLINE
  8
LAYER-1
 66
  1
 70
  1
 62
  0
  0
VERTEX
  8
LAYER-1
 10
2.241245
 20
0.665939
 30
0.000000
  0
VERTEX
  8
LAYER-1
 10
2.565877
 20
0.665939
 30
0.000000
  0
VERTEX
  8
LAYER-1
 10
2.565877
 20
0.352514
 30
0.000000
  0
VERTEX
  8
LAYER-1
 10
2.241245
 20
0.352514
 30
0.000000
  0
SEQEND
  8
LAYER-1
  0
POLYLINE
  8
LAYER-1
 66
  1
 70
  1
 62
  0
  0
VERTEX
  8
LAYER-1
 10
2.651307
 20
0.665939
 30
0.000000
  0
VERTEX
  8
LAYER-1
 10
2.975936
 20
0.665939
 30
0.000000
  0
VERTEX
  8
LAYER-1
 10
2.975936
 20
0.352514
 30
0.000000
  0
VERTEX
  8
LAYER-1
 10
2.651307
 20
0.352514
 30
0.000000
  0
SEQEND
  8
LAYER-1
  0
POLYLINE
  8
LAYER-1
 66
  1
 70
  1
 62
  0
  0
VERTEX
  8
LAYER-1
 10
3.061367
 20
0.665939
 30
0.000000
  0
VERTEX
  8
LAYER-1
 10
3.385998
 20
0.665939
 30
0.000000
  0
VERTEX
  8
LAYER-1
 10
3.385998
 20
0.352514
 30
0.000000
  0
VERTEX
  8
LAYER-1
 10
3.061367
 20
0.352514
 30
0.000000
  0
SEQEND
  8
LAYER-1
  0
POLYLINE
  8
LAYER-1
 66
  1
 70
  1
 62
  0
  0
VERTEX
  8
LAYER-1
 10
5.380062
 20
0.665939
 30
0.000000
  0
VERTEX
  8
LAYER-1
 10
5.704693
 20
0.665939
 30
0.000000
  0
VERTEX
  8
LAYER-1
 10
5.704693
 20
0.352514
 30
0.000000
  0
VERTEX
  8
LAYER-1
 10
5.380062
 20
0.352514
 30
0.000000
  0
SEQEND
  8
LAYER-1
  0
POLYLINE
  8
LAYER-1
 66
  1
 70
  1
 62
  0
  0
VERTEX
  8
LAYER-1
 10
4.969999
 20
0.665939
 30
0.000000
  0
VERTEX
  8
LAYER-1
 10
5.294631
 20
0.665939
 30
0.000000
  0
VERTEX
  8
LAYER-1
 10
5.294631
 20
0.352514
 30
0.000000
  0
VERTEX
  8
LAYER-1
 10
4.969999
 20
0.352514
 30
0.000000
  0
SEQEND
  8
LAYER-1
  0
POLYLINE
  8
LAYER-1
 66
  1
 70
  1
 62
  0
  0
VERTEX
  8
LAYER-1
 10
4.559937
 20
0.665939
 30
0.000000
  0
VERTEX
  8
LAYER-1
 10
4.884569
 20
0.665939
 30
0.000000
  0
VERTEX
  8
LAYER-1
 10
4.884569
 20
0.352514
 30
0.000000
  0
VERTEX
  8
LAYER-1
 10
4.559937
 20
0.352514
 30
0.000000
  0
SEQEND
  8
LAYER-1
  0
POLYLINE
  8
LAYER-1
 66
  1
 70
  1
 62
  0
  0
VERTEX
  8
LAYER-1
 10
4.149875
 20
0.665939
 30
0.000000
  0
VERTEX
  8
LAYER-1
 10
4.474506
 20
0.665939
 30
0.000000
  0
VERTEX
  8
LAYER-1
 10
4.474506
 20
0.352514
 30
0.000000
  0
VERTEX
  8
LAYER-1
 10
4.149875
 20
0.352514
 30
0.000000
  0
SEQEND
  8
LAYER-1
  0
POLYLINE
  8
LAYER-1
 66
  1
 70
  1
 62
  0
  0
VERTEX
  8
LAYER-1
 10
1.831183
 20
7.419411
 30
0.000000
  0
VERTEX
  8
LAYER-1
 10
2.155815
 20
7.419411
 30
0.000000
  0
VERTEX
  8
LAYER-1
 10
2.155815
 20
7.149412
 30
0.000000
  0
VERTEX
  8
LAYER-1
 10
1.831183
 20
7.149412
 30
0.000000
  0
SEQEND
  8
LAYER-1
  0
POLYLINE
  8
LAYER-1
 66
  1
 70
  1
 62
  0
  0
VERTEX
  8
LAYER-1
 10
2.241245
 20
7.419411
 30
0.000000
  0
VERTEX
  8
LAYER-1
 10
2.565877
 20
7.419411
 30
0.000000
  0
VERTEX
  8
LAYER-1
 10
2.565877
 20
7.149412
 30
0.000000
  0
VERTEX
  8
LAYER-1
 10
2.241245
 20
7.149412
 30
0.000000
  0
SEQEND
  8
LAYER-1
  0
POLYLINE
  8
LAYER-1
 66
  1
 70
  1
 62
  0
  0
VERTEX
  8
LAYER-1
 10
2.651307
 20
7.419411
 30
0.000000
  0
VERTEX
  8
LAYER-1
 10
2.975936
 20
7.419411
 30
0.000000
  0
VERTEX
  8
LAYER-1
 10
2.975936
 20
7.149412
 30
0.000000
  0
VERTEX
  8
LAYER-1
 10
2.651307
 20
7.149412
 30
0.000000
  0
SEQEND
  8
LAYER-1
  0
POLYLINE
  8
LAYER-1
 66
  1
 70
  1
 62
  0
  0
VERTEX
  8
LAYER-1
 10
3.061367
 20
7.419411
 30
0.000000
  0
VERTEX
  8
LAYER-1
 10
3.385998
 20
7.419411
 30
0.000000
  0
VERTEX
  8
LAYER-1
 10
3.385998
 20
7.149412
 30
0.000000
  0
VERTEX
  8
LAYER-1
 10
3.061367
 20
7.149412
 30
0.000000
  0
SEQEND
  8
LAYER-1
  0
POLYLINE
  8
LAYER-1
 66
  1
 70
  0
 62
  0
 10
2.798198
 20
7.419485
 30
0.000000
  0
VERTEX
  8
LAYER-1
 10
2.798198
 20
7.419485
 30
0.000000
  0
VERTEX
  8
LAYER-1
 10
2.798198
 20
7.149955
 30
0.000000
  0
SEQEND
  8
LAYER-1
  0
POLYLINE
  8
LAYER-1
 66
  1
 70
  0
 62
  0
 10
2.835278
 20
7.419485
 30
0.000000
  0
VERTEX
  8
LAYER-1
 10
2.835278
 20
7.419485
 30
0.000000
  0
VERTEX
  8
LAYER-1
 10
2.835278
 20
7.149955
 30
0.000000
  0
SEQEND
  8
LAYER-1
  0
POLYLINE
  8
LAYER-1
 66
  1
 70
  0
 62
  0
 10
1.976532
 20
7.419485
 30
0.000000
  0
VERTEX
  8
LAYER-1
 10
1.976532
 20
7.419485
 30
0.000000
  0
VERTEX
  8
LAYER-1
 10
1.976532
 20
7.149955
 30
0.000000
  0
SEQEND
  8
LAYER-1
  0
POLYLINE
  8
LAYER-1
 66
  1
 70
  0
 62
  0
 10
2.015094
 20
7.419485
 30
0.000000
  0
VERTEX
  8
LAYER-1
 10
2.015094
 20
7.419485
 30
0.000000
  0
VERTEX
  8
LAYER-1
 10
2.015094
 20
7.149955
 30
0.000000
  0
SEQEND
  8
LAYER-1
  0
POLYLINE
  8
LAYER-1
 66
  1
 70
  1
 62
  0
  0
VERTEX
  8
LAYER-1
 10
2.172309
 20
7.425346
 30
0.000000
  0
VERTEX
  8
LAYER-1
 10
2.227185
 20
7.425346
 30
0.000000
  0
VERTEX
  8
LAYER-1
 10
2.227185
 20
7.419485
 30
0.000000
  0
VERTEX
  8
LAYER-1
 10
2.172309
 20
7.419485
 30
0.000000
  0
SEQEND
  8
LAYER-1
  0
POLYLINE
  8
LAYER-1
 66
  1
 70
  0
 62
  0
 10
2.181207
 20
7.352102
 30
0.000000
  0
VERTEX
  8
LAYER-1
 10
2.181207
 20
7.352102
 30
0.000000
  0
VERTEX
  8
LAYER-1
 10
2.216803
 20
7.352102
 30
0.000000
  0
SEQEND
  8
LAYER-1
  0
POLYLINE
  8
LAYER-1
 66
  1
 70
  0
 62
  0
 10
2.181207
 20
7.223197
 30
0.000000
  0
VERTEX
  8
LAYER-1
 10
2.181207
 20
7.223197
 30
0.000000
  0
VERTEX
  8
LAYER-1
 10
2.216803
 20
7.223197
 30
0.000000
  0
SEQEND
  8
LAYER-1
  0
POLYLINE
  8
LAYER-1
 66
  1
 70
  1
 62
  0
  0
VERTEX
  8
LAYER-1
 10
2.989523
 20
7.425346
 30
0.000000
  0
VERTEX
  8
LAYER-1
 10
3.044398
 20
7.425346
 30
0.000000
  0
VERTEX
  8
LAYER-1
 10
3.044398
 20
7.419485
 30
0.000000
  0
VERTEX
  8
LAYER-1
 10
2.989523
 20
7.419485
 30
0.000000
  0
SEQEND
  8
LAYER-1
  0
POLYLINE
  8
LAYER-1
 66
  1
 70
  0
 62
  0
 10
2.999906
 20
7.352102
 30
0.000000
  0
VERTEX
  8
LAYER-1
 10
2.999906
 20
7.352102
 30
0.000000
  0
VERTEX
  8
LAYER-1
 10
3.035500
 20
7.352102
 30
0.000000
  0
SEQEND
  8
LAYER-1
  0
POLYLINE
  8
LAYER-1
 66
  1
 70
  0
 62
  0
 10
2.999906
 20
7.223196
 30
0.000000
  0
VERTEX
  8
LAYER-1
 10
2.999906
 20
7.223196
 30
0.000000
  0
VERTEX
  8
LAYER-1
 10
3.035500
 20
7.223196
 30
0.000000
  0
SEQEND
  8
LAYER-1
  0
POLYLINE
  8
LAYER-1
 66
  1
 70
  0
 62
  0
 10
1.831183
 20
7.419411
 30
0.000000
  0
VERTEX
  8
LAYER-1
 10
1.831183
 20
7.419411
 30
0.000000
  0
VERTEX
  8
LAYER-1
 10
1.831183
 20
0.352620
 30
0.000000
  0
SEQEND
  8
LAYER-1
  0
POLYLINE
  8
LAYER-1
 66
  1
 70
  0
 62
  0
 10
2.155815
 20
7.419411
 30
0.000000
  0
VERTEX
  8
LAYER-1
 10
2.155815
 20
7.419411
 30
0.000000
  0
VERTEX
  8
LAYER-1
 10
2.155815
 20
0.352620
 30
0.000000
  0
SEQEND
  8
LAYER-1
  0
POLYLINE
  8
LAYER-1
 66
  1
 70
  0
 62
  0
 10
2.241245
 20
7.419411
 30
0.000000
  0
VERTEX
  8
LAYER-1
 10
2.241245
 20
7.419411
 30
0.000000
  0
VERTEX
  8
LAYER-1
 10
2.241245
 20
0.352620
 30
0.000000
  0
SEQEND
  8
LAYER-1
  0
POLYLINE
  8
LAYER-1
 66
  1
 70
  0
 62
  0
 10
2.181207
 20
7.419411
 30
0.000000
  0
VERTEX
  8
LAYER-1
 10
2.181207
 20
7.419411
 30
0.000000
  0
VERTEX
  8
LAYER-1
 10
2.181207
 20
0.352620
 30
0.000000
  0
SEQEND
  8
LAYER-1
  0
POLYLINE
  8
LAYER-1
 66
  1
 70
  0
 62
  0
 10
2.216803
 20
7.419411
 30
0.000000
  0
VERTEX
  8
LAYER-1
 10
2.216803
 20
7.419411
 30
0.000000
  0
VERTEX
  8
LAYER-1
 10
2.216803
 20
0.352620
 30
0.000000
  0
SEQEND
  8
LAYER-1
  0
POLYLINE
  8
LAYER-1
 66
  1
 70
  1
 62
  0
  0
VERTEX
  8
LAYER-1
 10
2.170824
 20
0.352695
 30
0.000000
  0
VERTEX
  8
LAYER-1
 10
2.225700
 20
0.352695
 30
0.000000
  0
VERTEX
  8
LAYER-1
 10
2.225700
 20
0.346836
 30
0.000000
  0
VERTEX
  8
LAYER-1
 10
2.170824
 20
0.346836
 30
0.000000
  0
SEQEND
  8
LAYER-1
  0
POLYLINE
  8
LAYER-1
 66
  1
 70
  0
 62
  0
 10
2.216803
 20
0.425937
 30
0.000000
  0
VERTEX
  8
LAYER-1
 10
2.216803
 20
0.425937
 30
0.000000
  0
VERTEX
  8
LAYER-1
 10
2.181207
 20
0.425937
 30
0.000000
  0
SEQEND
  8
LAYER-1
  0
POLYLINE
  8
LAYER-1
 66
  1
 70
  0
 62
  0
 10
2.216803
 20
0.554843
 30
0.000000
  0
VERTEX
  8
LAYER-1
 10
2.216803
 20
0.554843
 30
0.000000
  0
VERTEX
  8
LAYER-1
 10
2.181207
 20
0.554843
 30
0.000000
  0
SEQEND
  8
LAYER-1
  0
POLYLINE
  8
LAYER-1
 66
  1
 70
  0
 62
  0
 10
2.181207
 20
0.629828
 30
0.000000
  0
VERTEX
  8
LAYER-1
 10
2.181207
 20
0.629828
 30
0.000000
  0
VERTEX
  8
LAYER-1
 10
2.216803
 20
0.629828
 30
0.000000
  0
SEQEND
  8
LAYER-1
  0
POLYLINE
  8
LAYER-1
 66
  1
 70
  0
 62
  0
 10
2.181207
 20
1.476507
 30
0.000000
  0
VERTEX
  8
LAYER-1
 10
2.181207
 20
1.476507
 30
0.000000
  0
VERTEX
  8
LAYER-1
 10
2.216803
 20
1.476507
 30
0.000000
  0
SEQEND
  8
LAYER-1
  0
POLYLINE
  8
LAYER-1
 66
  1
 70
  0
 62
  0
 10
2.181207
 20
2.314396
 30
0.000000
  0
VERTEX
  8
LAYER-1
 10
2.181207
 20
2.314396
 30
0.000000
  0
VERTEX
  8
LAYER-1
 10
2.216803
 20
2.314396
 30
0.000000
  0
SEQEND
  8
LAYER-1
  0
POLYLINE
  8
LAYER-1
 66
  1
 70
  0
 62
  0
 10
2.181207
 20
3.163999
 30
0.000000
  0
VERTEX
  8
LAYER-1
 10
2.181207
 20
3.163999
 30
0.000000
  0
VERTEX
  8
LAYER-1
 10
2.216803
 20
3.163999
 30
0.000000
  0
SEQEND
  8
LAYER-1
  0
POLYLINE
  8
LAYER-1
 66
  1
 70
  0
 62
  0
 10
2.216803
 20
4.006285
 30
0.000000
  0
VERTEX
  8
LAYER-1
 10
2.216803
 20
4.006285
 30
0.000000
  0
VERTEX
  8
LAYER-1
 10
2.181207
 20
4.006285
 30
0.000000
  0
SEQEND
  8
LAYER-1
  0
POLYLINE
  8
LAYER-1
 66
  1
 70
  1
 62
  0
  0
VERTEX
  8
LAYER-1
 10
1.831183
 20
3.944639
 30
0.000000
  0
VERTEX
  8
LAYER-1
 10
2.155993
 20
3.944639
 30
0.000000
  0
VERTEX
  8
LAYER-1
 10
2.155993
 20
3.868468
 30
0.000000
  0
VERTEX
  8
LAYER-1
 10
1.831183
 20
3.868468
 30
0.000000
  0
SEQEND
  8
LAYER-1
  0
POLYLINE
  8
LAYER-1
 66
  1
 70
  1
 62
  0
  0
VERTEX
  8
LAYER-1
 10
2.241245
 20
3.944639
 30
0.000000
  0
VERTEX
  8
LAYER-1
 10
2.566055
 20
3.944639
 30
0.000000
  0
VERTEX
  8
LAYER-1
 10
2.566055
 20
3.868468
 30
0.000000
  0
VERTEX
  8
LAYER-1
 10
2.241245
 20
3.868468
 30
0.000000
  0
SEQEND
  8
LAYER-1
  0
POLYLINE
  8
LAYER-1
 66
  1
 70
  1
 62
  0
  0
VERTEX
  8
LAYER-1
 10
2.651307
 20
3.944639
 30
0.000000
  0
VERTEX
  8
LAYER-1
 10
2.976113
 20
3.944639
 30
0.000000
  0
VERTEX
  8
LAYER-1
 10
2.976113
 20
3.868468
 30
0.000000
  0
VERTEX
  8
LAYER-1
 10
2.651307
 20
3.868468
 30
0.000000
  0
SEQEND
  8
LAYER-1
  0
POLYLINE
  8
LAYER-1
 66
  1
 70
  1
 62
  0
  0
VERTEX
  8
LAYER-1
 10
3.061367
 20
3.944639
 30
0.000000
  0
VERTEX
  8
LAYER-1
 10
3.386175
 20
3.944639
 30
0.000000
  0
VERTEX
  8
LAYER-1
 10
3.386175
 20
3.868468
 30
0.000000
  0
VERTEX
  8
LAYER-1
 10
3.061367
 20
3.868468
 30
0.000000
  0
SEQEND
  8
LAYER-1
  0
POLYLINE
  8
LAYER-1
 66
  1
 70
  1
 62
  0
  0
VERTEX
  8
LAYER-1
 10
5.379884
 20
3.944639
 30
0.000000
  0
VERTEX
  8
LAYER-1
 10
5.704693
 20
3.944639
 30
0.000000
  0
VERTEX
  8
LAYER-1
 10
5.704693
 20
3.868468
 30
0.000000
  0
VERTEX
  8
LAYER-1
 10
5.379884
 20
3.868468
 30
0.000000
  0
SEQEND
  8
LAYER-1
  0
POLYLINE
  8
LAYER-1
 66
  1
 70
  1
 62
  0
  0
VERTEX
  8
LAYER-1
 10
4.969822
 20
3.944639
 30
0.000000
  0
VERTEX
  8
LAYER-1
 10
5.294631
 20
3.944639
 30
0.000000
  0
VERTEX
  8
LAYER-1
 10
5.294631
 20
3.868468
 30
0.000000
  0
VERTEX
  8
LAYER-1
 10
4.969822
 20
3.868468
 30
0.000000
  0
SEQEND
  8
LAYER-1
  0
POLYLINE
  8
LAYER-1
 66
  1
 70
  1
 62
  0
  0
VERTEX
  8
LAYER-1
 10
4.559760
 20
3.944639
 30
0.000000
  0
VERTEX
  8
LAYER-1
 10
4.884569
 20
3.944639
 30
0.000000
  0
VERTEX
  8
LAYER-1
 10
4.884569
 20
3.868468
 30
0.000000
  0
VERTEX
  8
LAYER-1
 10
4.559760
 20
3.868468
 30
0.000000
  0
SEQEND
  8
LAYER-1
  0
POLYLINE
  8
LAYER-1
 66
  1
 70
  1
 62
  0
  0
VERTEX
  8
LAYER-1
 10
4.149698
 20
3.944639
 30
0.000000
  0
VERTEX
  8
LAYER-1
 10
4.474506
 20
3.944639
 30
0.000000
  0
VERTEX
  8
LAYER-1
 10
4.474506
 20
3.868468
 30
0.000000
  0
VERTEX
  8
LAYER-1
 10
4.149698
 20
3.868468
 30
0.000000
  0
SEQEND
  8
LAYER-1
  0
POLYLINE
  8
LAYER-1
 66
  1
 70
  1
 62
  0
  0
VERTEX
  8
LAYER-1
 10
1.848981
 20
3.850410
 30
0.000000
  0
VERTEX
  8
LAYER-1
 10
2.136712
 20
3.850410
 30
0.000000
  0
VERTEX
  8
LAYER-1
 10
2.136712
 20
0.681340
 30
0.000000
  0
VERTEX
  8
LAYER-1
 10
1.848981
 20
0.681340
 30
0.000000
  0
SEQEND
  8
LAYER-1
  0
POLYLINE
  8
LAYER-1
 66
  1
 70
  1
 62
  0
  0
VERTEX
  8
LAYER-1
 10
2.259044
 20
3.850410
 30
0.000000
  0
VERTEX
  8
LAYER-1
 10
2.546774
 20
3.850410
 30
0.000000
  0
VERTEX
  8
LAYER-1
 10
2.546774
 20
0.681340
 30
0.000000
  0
VERTEX
  8
LAYER-1
 10
2.259044
 20
0.681340
 30
0.000000
  0
SEQEND
  8
LAYER-1
  0
POLYLINE
  8
LAYER-1
 66
  1
 70
  1
 62
  0
  0
VERTEX
  8
LAYER-1
 10
2.669106
 20
3.850410
 30
0.000000
  0
VERTEX
  8
LAYER-1
 10
2.956833
 20
3.850410
 30
0.000000
  0
VERTEX
  8
LAYER-1
 10
2.956833
 20
0.681340
 30
0.000000
  0
VERTEX
  8
LAYER-1
 10
2.669106
 20
0.681340
 30
0.000000
  0
SEQEND
  8
LAYER-1
  0
POLYLINE
  8
LAYER-1
 66
  1
 70
  1
 62
  0
  0
VERTEX
  8
LAYER-1
 10
3.079166
 20
3.850410
 30
0.000000
  0
VERTEX
  8
LAYER-1
 10
3.366895
 20
3.850410
 30
0.000000
  0
VERTEX
  8
LAYER-1
 10
3.366895
 20
0.681340
 30
0.000000
  0
VERTEX
  8
LAYER-1
 10
3.079166
 20
0.681340
 30
0.000000
  0
SEQEND
  8
LAYER-1
  0
LINE
  8
LAYER-1
 62
  0
 10
1.902235
 20
3.273149
 30
0.000000
 11
2.038326
 21
3.510886
 31
0.000000
  0
LINE
  8
LAYER-1
 62
  0
 10
1.958871
 20
3.240729
 30
0.000000
 11
2.094961
 21
3.478465
 31
0.000000
  0
LINE
  8
LAYER-1
 62
  0
 10
2.312298
 20
3.273149
 30
0.000000
 11
2.448387
 21
3.510886
 31
0.000000
  0
LINE
  8
LAYER-1
 62
  0
 10
2.368933
 20
3.240729
 30
0.000000
 11
2.505023
 21
3.478465
 31
0.000000
  0
LINE
  8
LAYER-1
 62
  0
 10
2.722360
 20
3.273149
 30
0.000000
 11
2.858447
 21
3.510885
 31
0.000000
  0
LINE
  8
LAYER-1
 62
  0
 10
2.778996
 20
3.240729
 30
0.000000
 11
2.915083
 21
3.478466
 31
0.000000
  0
LINE
  8
LAYER-1
 62
  0
 10
3.132419
 20
3.273149
 30
0.000000
 11
3.268508
 21
3.510886
 31
0.000000
  0
LINE
  8
LAYER-1
 62
  0
 10
3.189055
 20
3.240729
 30
0.000000
 11
3.325144
 21
3.478465
 31
0.000000
  0
LINE
  8
LAYER-1
 62
  0
 10
1.901876
 20
1.049301
 30
0.000000
 11
2.037964
 21
1.287036
 31
0.000000
  0
LINE
  8
LAYER-1
 62
  0
 10
1.958511
 20
1.016880
 30
0.000000
 11
2.094599
 21
1.254615
 31
0.000000
  0
LINE
  8
LAYER-1
 62
  0
 10
2.311938
 20
1.049301
 30
0.000000
 11
2.448026
 21
1.287036
 31
0.000000
  0
LINE
  8
LAYER-1
 62
  0
 10
2.368573
 20
1.016880
 30
0.000000
 11
2.504662
 21
1.254615
 31
0.000000
  0
LINE
  8
LAYER-1
 62
  0
 10
2.722000
 20
1.049301
 30
0.000000
 11
2.858087
 21
1.287036
 31
0.000000
  0
LINE
  8
LAYER-1
 62
  0
 10
2.778636
 20
1.016880
 30
0.000000
 11
2.914723
 21
1.254615
 31
0.000000
  0
LINE
  8
LAYER-1
 62
  0
 10
3.132060
 20
1.049301
 30
0.000000
 11
3.268149
 21
1.287036
 31
0.000000
  0
LINE
  8
LAYER-1
 62
  0
 10
3.188695
 20
1.016880
 30
0.000000
 11
3.324784
 21
1.254615
 31
0.000000
  0
POLYLINE
  8
LAYER-1
 66
  1
 70
  0
 62
  0
 10
2.565877
 20
7.419411
 30
0.000000
  0
VERTEX
  8
LAYER-1
 10
2.565877
 20
7.419411
 30
0.000000
  0
VERTEX
  8
LAYER-1
 10
2.565877
 20
0.352620
 30
0.000000
  0
SEQEND
  8
LAYER-1
  0
POLYLINE
  8
LAYER-1
 66
  1
 70
  0
 62
  0
 10
2.651307
 20
7.419411
 30
0.000000
  0
VERTEX
  8
LAYER-1
 10
2.651307
 20
7.419411
 30
0.000000
  0
VERTEX
  8
LAYER-1
 10
2.651307
 20
0.352620
 30
0.000000
  0
SEQEND
  8
LAYER-1
  0
POLYLINE
  8
LAYER-1
 66
  1
 70
  0
 62
  0
 10
2.975936
 20
7.419411
 30
0.000000
  0
VERTEX
  8
LAYER-1
 10
2.975936
 20
7.419411
 30
0.000000
  0
VERTEX
  8
LAYER-1
 10
2.975936
 20
0.352620
 30
0.000000
  0
SEQEND
  8
LAYER-1
  0
POLYLINE
  8
LAYER-1
 66
  1
 70
  0
 62
  0
 10
3.061367
 20
7.419411
 30
0.000000
  0
VERTEX
  8
LAYER-1
 10
3.061367
 20
7.419411
 30
0.000000
  0
VERTEX
  8
LAYER-1
 10
3.061367
 20
0.352620
 30
0.000000
  0
SEQEND
  8
LAYER-1
  0
POLYLINE
  8
LAYER-1
 66
  1
 70
  0
 62
  0
 10
3.385998
 20
7.419411
 30
0.000000
  0
VERTEX
  8
LAYER-1
 10
3.385998
 20
7.419411
 30
0.000000
  0
VERTEX
  8
LAYER-1
 10
3.385998
 20
0.352620
 30
0.000000
  0
SEQEND
  8
LAYER-1
  0
POLYLINE
  8
LAYER-1
 66
  1
 70
  0
 62
  0
 10
3.468579
 20
7.419411
 30
0.000000
  0
VERTEX
  8
LAYER-1
 10
3.468579
 20
7.419411
 30
0.000000
  0
VERTEX
  8
LAYER-1
 10
3.468579
 20
0.352620
 30
0.000000
  0
SEQEND
  8
LAYER-1
  0
POLYLINE
  8
LAYER-1
 66
  1
 70
  0
 62
  0
 10
1.795588
 20
7.419411
 30
0.000000
  0
VERTEX
  8
LAYER-1
 10
1.795588
 20
7.419411
 30
0.000000
  0
VERTEX
  8
LAYER-1
 10
1.795588
 20
0.352620
 30
0.000000
  0
SEQEND
  8
LAYER-1
  0
POLYLINE
  8
LAYER-1
 66
  1
 70
  0
 62
  0
 10
2.608355
 20
7.419411
 30
0.000000
  0
VERTEX
  8
LAYER-1
 10
2.608355
 20
7.419411
 30
0.000000
  0
VERTEX
  8
LAYER-1
 10
2.608355
 20
0.352620
 30
0.000000
  0
SEQEND
  8
LAYER-1
  0
POLYLINE
  8
LAYER-1
 66
  1
 70
  0
 62
  0
 10
2.999906
 20
7.419411
 30
0.000000
  0
VERTEX
  8
LAYER-1
 10
2.999906
 20
7.419411
 30
0.000000
  0
VERTEX
  8
LAYER-1
 10
2.999906
 20
0.352620
 30
0.000000
  0
SEQEND
  8
LAYER-1
  0
POLYLINE
  8
LAYER-1
 66
  1
 70
  0
 62
  0
 10
3.035500
 20
7.419411
 30
0.000000
  0
VERTEX
  8
LAYER-1
 10
3.035500
 20
7.419411
 30
0.000000
  0
VERTEX
  8
LAYER-1
 10
3.035500
 20
0.352620
 30
0.000000
  0
SEQEND
  8
LAYER-1
  0
POLYLINE
  8
LAYER-1
 66
  1
 70
  0
 62
  0
 10
3.427052
 20
7.419411
 30
0.000000
  0
VERTEX
  8
LAYER-1
 10
3.427052
 20
7.419411
 30
0.000000
  0
VERTEX
  8
LAYER-1
 10
3.427052
 20
0.352620
 30
0.000000
  0
SEQEND
  8
LAYER-1
  0
POLYLINE
  8
LAYER-1
 66
  1
 70
  1
 62
  0
  0
VERTEX
  8
LAYER-1
 10
2.988038
 20
0.352695
 30
0.000000
  0
VERTEX
  8
LAYER-1
 10
3.042915
 20
0.352695
 30
0.000000
  0
VERTEX
  8
LAYER-1
 10
3.042915
 20
0.346836
 30
0.000000
  0
VERTEX
  8
LAYER-1
 10
2.988038
 20
0.346836
 30
0.000000
  0
SEQEND
  8
LAYER-1
  0
POLYLINE
  8
LAYER-1
 66
  1
 70
  0
 62
  0
 10
3.035500
 20
0.425937
 30
0.000000
  0
VERTEX
  8
LAYER-1
 10
3.035500
 20
0.425937
 30
0.000000
  0
VERTEX
  8
LAYER-1
 10
2.999906
 20
0.425937
 30
0.000000
  0
SEQEND
  8
LAYER-1
  0
POLYLINE
  8
LAYER-1
 66
  1
 70
  0
 62
  0
 10
3.035500
 20
0.554843
 30
0.000000
  0
VERTEX
  8
LAYER-1
 10
3.035500
 20
0.554843
 30
0.000000
  0
VERTEX
  8
LAYER-1
 10
2.999906
 20
0.554843
 30
0.000000
  0
SEQEND
  8
LAYER-1
  0
POLYLINE
  8
LAYER-1
 66
  1
 70
  0
 62
  0
 10
2.999906
 20
0.629828
 30
0.000000
  0
VERTEX
  8
LAYER-1
 10
2.999906
 20
0.629828
 30
0.000000
  0
VERTEX
  8
LAYER-1
 10
3.035500
 20
0.629828
 30
0.000000
  0
SEQEND
  8
LAYER-1
  0
POLYLINE
  8
LAYER-1
 66
  1
 70
  0
 62
  0
 10
2.999906
 20
1.476507
 30
0.000000
  0
VERTEX
  8
LAYER-1
 10
2.999906
 20
1.476507
 30
0.000000
  0
VERTEX
  8
LAYER-1
 10
3.035500
 20
1.476507
 30
0.000000
  0
SEQEND
  8
LAYER-1
  0
POLYLINE
  8
LAYER-1
 66
  1
 70
  0
 62
  0
 10
2.999906
 20
2.314396
 30
0.000000
  0
VERTEX
  8
LAYER-1
 10
2.999906
 20
2.314396
 30
0.000000
  0
VERTEX
  8
LAYER-1
 10
3.035500
 20
2.314396
 30
0.000000
  0
SEQEND
  8
LAYER-1
  0
POLYLINE
  8
LAYER-1
 66
  1
 70
  0
 62
  0
 10
2.999906
 20
3.163999
 30
0.000000
  0
VERTEX
  8
LAYER-1
 10
2.999906
 20
3.163999
 30
0.000000
  0
VERTEX
  8
LAYER-1
 10
3.035500
 20
3.163999
 30
0.000000
  0
SEQEND
  8
LAYER-1
  0
POLYLINE
  8
LAYER-1
 66
  1
 70
  0
 62
  0
 10
3.035500
 20
4.006285
 30
0.000000
  0
VERTEX
  8
LAYER-1
 10
3.035500
 20
4.006285
 30
0.000000
  0
VERTEX
  8
LAYER-1
 10
2.999906
 20
4.006285
 30
0.000000
  0
SEQEND
  8
LAYER-1
  0
POLYLINE
  8
LAYER-1
 66
  1
 70
  0
 62
  0
 10
2.181858
 20
4.857285
 30
0.000000
  0
VERTEX
  8
LAYER-1
 10
2.181858
 20
4.857285
 30
0.000000
  0
VERTEX
  8
LAYER-1
 10
2.217455
 20
4.857285
 30
0.000000
  0
SEQEND
  8
LAYER-1
  0
POLYLINE
  8
LAYER-1
 66
  1
 70
  0
 62
  0
 10
2.181858
 20
5.701035
 30
0.000000
  0
VERTEX
  8
LAYER-1
 10
2.181858
 20
5.701035
 30
0.000000
  0
VERTEX
  8
LAYER-1
 10
2.217455
 20
5.701035
 30
0.000000
  0
SEQEND
  8
LAYER-1
  0
POLYLINE
  8
LAYER-1
 66
  1
 70
  0
 62
  0
 10
2.181858
 20
6.546254
 30
0.000000
  0
VERTEX
  8
LAYER-1
 10
2.181858
 20
6.546254
 30
0.000000
  0
VERTEX
  8
LAYER-1
 10
2.217455
 20
6.546254
 30
0.000000
  0
SEQEND
  8
LAYER-1
  0
POLYLINE
  8
LAYER-1
 66
  1
 70
  0
 62
  0
 10
2.999729
 20
6.546254
 30
0.000000
  0
VERTEX
  8
LAYER-1
 10
2.999729
 20
6.546254
 30
0.000000
  0
VERTEX
  8
LAYER-1
 10
3.035323
 20
6.546254
 30
0.000000
  0
SEQEND
  8
LAYER-1
  0
POLYLINE
  8
LAYER-1
 66
  1
 70
  0
 62
  0
 10
3.647862
 20
6.546178
 30
0.000000
  0
VERTEX
  8
LAYER-1
 10
3.647862
 20
6.546178
 30
0.000000
  0
VERTEX
  8
LAYER-1
 10
3.683457
 20
6.546178
 30
0.000000
  0
SEQEND
  8
LAYER-1
  0
POLYLINE
  8
LAYER-1
 66
  1
 70
  0
 62
  0
 10
5.354019
 20
6.546253
 30
0.000000
  0
VERTEX
  8
LAYER-1
 10
5.354019
 20
6.546253
 30
0.000000
  0
VERTEX
  8
LAYER-1
 10
5.318424
 20
6.546253
 30
0.000000
  0
SEQEND
  8
LAYER-1
  0
POLYLINE
  8
LAYER-1
 66
  1
 70
  0
 62
  0
 10
4.536144
 20
6.546253
 30
0.000000
  0
VERTEX
  8
LAYER-1
 10
4.536144
 20
6.546253
 30
0.000000
  0
VERTEX
  8
LAYER-1
 10
4.500553
 20
6.546253
 30
0.000000
  0
SEQEND
  8
LAYER-1
  0
POLYLINE
  8
LAYER-1
 66
  1
 70
  0
 62
  0
 10
3.888006
 20
6.546177
 30
0.000000
  0
VERTEX
  8
LAYER-1
 10
3.888006
 20
6.546177
 30
0.000000
  0
VERTEX
  8
LAYER-1
 10
3.852414
 20
6.546177
 30
0.000000
  0
SEQEND
  8
LAYER-1
  0
POLYLINE
  8
LAYER-1
 66
  1
 70
  0
 62
  0
 10
2.999729
 20
4.857285
 30
0.000000
  0
VERTEX
  8
LAYER-1
 10
2.999729
 20
4.857285
 30
0.000000
  0
VERTEX
  8
LAYER-1
 10
3.035323
 20
4.857285
 30
0.000000
  0
SEQEND
  8
LAYER-1
  0
POLYLINE
  8
LAYER-1
 66
  1
 70
  0
 62
  0
 10
2.999729
 20
5.701035
 30
0.000000
  0
VERTEX
  8
LAYER-1
 10
2.999729
 20
5.701035
 30
0.000000
  0
VERTEX
  8
LAYER-1
 10
3.035323
 20
5.701035
 30
0.000000
  0
SEQEND
  8
LAYER-1
  0
POLYLINE
  8
LAYER-1
 66
  1
 70
  1
 62
  0
  0
VERTEX
  8
LAYER-1
 10
3.637657
 20
7.425269
 30
0.000000
  0
VERTEX
  8
LAYER-1
 10
3.692534
 20
7.425269
 30
0.000000
  0
VERTEX
  8
LAYER-1
 10
3.692534
 20
7.419409
 30
0.000000
  0
VERTEX
  8
LAYER-1
 10
3.637657
 20
7.419409
 30
0.000000
  0
SEQEND
  8
LAYER-1
  0
POLYLINE
  8
LAYER-1
 66
  1
 70
  0
 62
  0
 10
3.648040
 20
7.352026
 30
0.000000
  0
VERTEX
  8
LAYER-1
 10
3.648040
 20
7.352026
 30
0.000000
  0
VERTEX
  8
LAYER-1
 10
3.683634
 20
7.352026
 30
0.000000
  0
SEQEND
  8
LAYER-1
  0
POLYLINE
  8
LAYER-1
 66
  1
 70
  0
 62
  0
 10
3.648040
 20
7.223119
 30
0.000000
  0
VERTEX
  8
LAYER-1
 10
3.648040
 20
7.223119
 30
0.000000
  0
VERTEX
  8
LAYER-1
 10
3.683634
 20
7.223119
 30
0.000000
  0
SEQEND
  8
LAYER-1
  0
POLYLINE
  8
LAYER-1
 66
  1
 70
  0
 62
  0
 10
3.648040
 20
7.419334
 30
0.000000
  0
VERTEX
  8
LAYER-1
 10
3.648040
 20
7.419334
 30
0.000000
  0
VERTEX
  8
LAYER-1
 10
3.648040
 20
0.352620
 30
0.000000
  0
SEQEND
  8
LAYER-1
  0
POLYLINE
  8
LAYER-1
 66
  1
 70
  0
 62
  0
 10
3.683634
 20
0.425860
 30
0.000000
  0
VERTEX
  8
LAYER-1
 10
3.683634
 20
0.425860
 30
0.000000
  0
VERTEX
  8
LAYER-1
 10
3.648040
 20
0.425860
 30
0.000000
  0
SEQEND
  8
LAYER-1
  0
POLYLINE
  8
LAYER-1
 66
  1
 70
  0
 62
  0
 10
3.683634
 20
0.554766
 30
0.000000
  0
VERTEX
  8
LAYER-1
 10
3.683634
 20
0.554766
 30
0.000000
  0
VERTEX
  8
LAYER-1
 10
3.648040
 20
0.554766
 30
0.000000
  0
SEQEND
  8
LAYER-1
  0
POLYLINE
  8
LAYER-1
 66
  1
 70
  0
 62
  0
 10
3.648040
 20
0.629749
 30
0.000000
  0
VERTEX
  8
LAYER-1
 10
3.648040
 20
0.629749
 30
0.000000
  0
VERTEX
  8
LAYER-1
 10
3.683636
 20
0.629749
 30
0.000000
  0
SEQEND
  8
LAYER-1
  0
POLYLINE
  8
LAYER-1
 66
  1
 70
  0
 62
  0
 10
3.648040
 20
1.476431
 30
0.000000
  0
VERTEX
  8
LAYER-1
 10
3.648040
 20
1.476431
 30
0.000000
  0
VERTEX
  8
LAYER-1
 10
3.683636
 20
1.476431
 30
0.000000
  0
SEQEND
  8
LAYER-1
  0
POLYLINE
  8
LAYER-1
 66
  1
 70
  0
 62
  0
 10
3.648040
 20
2.314319
 30
0.000000
  0
VERTEX
  8
LAYER-1
 10
3.648040
 20
2.314319
 30
0.000000
  0
VERTEX
  8
LAYER-1
 10
3.683636
 20
2.314319
 30
0.000000
  0
SEQEND
  8
LAYER-1
  0
POLYLINE
  8
LAYER-1
 66
  1
 70
  0
 62
  0
 10
3.648040
 20
3.163923
 30
0.000000
  0
VERTEX
  8
LAYER-1
 10
3.648040
 20
3.163923
 30
0.000000
  0
VERTEX
  8
LAYER-1
 10
3.683636
 20
3.163923
 30
0.000000
  0
SEQEND
  8
LAYER-1
  0
POLYLINE
  8
LAYER-1
 66
  1
 70
  0
 62
  0
 10
3.683636
 20
4.006208
 30
0.000000
  0
VERTEX
  8
LAYER-1
 10
3.683636
 20
4.006208
 30
0.000000
  0
VERTEX
  8
LAYER-1
 10
3.648040
 20
4.006208
 30
0.000000
  0
SEQEND
  8
LAYER-1
  0
POLYLINE
  8
LAYER-1
 66
  1
 70
  0
 62
  0
 10
3.647862
 20
4.857209
 30
0.000000
  0
VERTEX
  8
LAYER-1
 10
3.647862
 20
4.857209
 30
0.000000
  0
VERTEX
  8
LAYER-1
 10
3.683457
 20
4.857209
 30
0.000000
  0
SEQEND
  8
LAYER-1
  0
POLYLINE
  8
LAYER-1
 66
  1
 70
  0
 62
  0
 10
3.647862
 20
5.700959
 30
0.000000
  0
VERTEX
  8
LAYER-1
 10
3.647862
 20
5.700959
 30
0.000000
  0
VERTEX
  8
LAYER-1
 10
3.683457
 20
5.700959
 30
0.000000
  0
SEQEND
  8
LAYER-1
  0
POLYLINE
  8
LAYER-1
 66
  1
 70
  1
 62
  0
  0
VERTEX
  8
LAYER-1
 10
3.636176
 20
0.352620
 30
0.000000
  0
VERTEX
  8
LAYER-1
 10
3.691051
 20
0.352620
 30
0.000000
  0
VERTEX
  8
LAYER-1
 10
3.691051
 20
0.346760
 30
0.000000
  0
VERTEX
  8
LAYER-1
 10
3.636176
 20
0.346760
 30
0.000000
  0
SEQEND
  8
LAYER-1
  0
POLYLINE
  8
LAYER-1
 66
  1
 70
  1
 62
  0
  0
VERTEX
  8
LAYER-1
 10
3.682567
 20
7.419411
 30
0.000000
  0
VERTEX
  8
LAYER-1
 10
3.852240
 20
7.419411
 30
0.000000
  0
VERTEX
  8
LAYER-1
 10
3.852240
 20
0.352427
 30
0.000000
  0
VERTEX
  8
LAYER-1
 10
3.682567
 20
0.352427
 30
0.000000
  0
SEQEND
  8
LAYER-1
  0
POLYLINE
  8
LAYER-1
 66
  1
 70
  1
 62
  0
  0
VERTEX
  8
LAYER-1
 10
5.380062
 20
7.419410
 30
0.000000
  0
VERTEX
  8
LAYER-1
 10
5.704693
 20
7.419410
 30
0.000000
  0
VERTEX
  8
LAYER-1
 10
5.704693
 20
7.149411
 30
0.000000
  0
VERTEX
  8
LAYER-1
 10
5.380062
 20
7.149411
 30
0.000000
  0
SEQEND
  8
LAYER-1
  0
POLYLINE
  8
LAYER-1
 66
  1
 70
  1
 62
  0
  0
VERTEX
  8
LAYER-1
 10
4.969999
 20
7.419410
 30
0.000000
  0
VERTEX
  8
LAYER-1
 10
5.294631
 20
7.419410
 30
0.000000
  0
VERTEX
  8
LAYER-1
 10
5.294631
 20
7.149411
 30
0.000000
  0
VERTEX
  8
LAYER-1
 10
4.969999
 20
7.149411
 30
0.000000
  0
SEQEND
  8
LAYER-1
  0
POLYLINE
  8
LAYER-1
 66
  1
 70
  1
 62
  0
  0
VERTEX
  8
LAYER-1
 10
4.559937
 20
7.419410
 30
0.000000
  0
VERTEX
  8
LAYER-1
 10
4.884569
 20
7.419410
 30
0.000000
  0
VERTEX
  8
LAYER-1
 10
4.884569
 20
7.149411
 30
0.000000
  0
VERTEX
  8
LAYER-1
 10
4.559937
 20
7.149411
 30
0.000000
  0
SEQEND
  8
LAYER-1
  0
POLYLINE
  8
LAYER-1
 66
  1
 70
  1
 62
  0
  0
VERTEX
  8
LAYER-1
 10
4.149875
 20
7.419410
 30
0.000000
  0
VERTEX
  8
LAYER-1
 10
4.474506
 20
7.419410
 30
0.000000
  0
VERTEX
  8
LAYER-1
 10
4.474506
 20
7.149411
 30
0.000000
  0
VERTEX
  8
LAYER-1
 10
4.149875
 20
7.149411
 30
0.000000
  0
SEQEND
  8
LAYER-1
  0
POLYLINE
  8
LAYER-1
 66
  1
 70
  0
 62
  0
 10
4.737678
 20
7.419484
 30
0.000000
  0
VERTEX
  8
LAYER-1
 10
4.737678
 20
7.419484
 30
0.000000
  0
VERTEX
  8
LAYER-1
 10
4.737678
 20
7.149954
 30
0.000000
  0
SEQEND
  8
LAYER-1
  0
POLYLINE
  8
LAYER-1
 66
  1
 70
  0
 62
  0
 10
4.700601
 20
7.419484
 30
0.000000
  0
VERTEX
  8
LAYER-1
 10
4.700601
 20
7.419484
 30
0.000000
  0
VERTEX
  8
LAYER-1
 10
4.700601
 20
7.149954
 30
0.000000
  0
SEQEND
  8
LAYER-1
  0
POLYLINE
  8
LAYER-1
 66
  1
 70
  0
 62
  0
 10
5.559345
 20
7.419484
 30
0.000000
  0
VERTEX
  8
LAYER-1
 10
5.559345
 20
7.419484
 30
0.000000
  0
VERTEX
  8
LAYER-1
 10
5.559345
 20
7.149954
 30
0.000000
  0
SEQEND
  8
LAYER-1
  0
POLYLINE
  8
LAYER-1
 66
  1
 70
  0
 62
  0
 10
5.520785
 20
7.419484
 30
0.000000
  0
VERTEX
  8
LAYER-1
 10
5.520785
 20
7.419484
 30
0.000000
  0
VERTEX
  8
LAYER-1
 10
5.520785
 20
7.149954
 30
0.000000
  0
SEQEND
  8
LAYER-1
  0
POLYLINE
  8
LAYER-1
 66
  1
 70
  1
 62
  0
  0
VERTEX
  8
LAYER-1
 10
5.308692
 20
7.425346
 30
0.000000
  0
VERTEX
  8
LAYER-1
 10
5.363567
 20
7.425346
 30
0.000000
  0
VERTEX
  8
LAYER-1
 10
5.363567
 20
7.419484
 30
0.000000
  0
VERTEX
  8
LAYER-1
 10
5.308692
 20
7.419484
 30
0.000000
  0
SEQEND
  8
LAYER-1
  0
POLYLINE
  8
LAYER-1
 66
  1
 70
  0
 62
  0
 10
5.354672
 20
7.352102
 30
0.000000
  0
VERTEX
  8
LAYER-1
 10
5.354672
 20
7.352102
 30
0.000000
  0
VERTEX
  8
LAYER-1
 10
5.319074
 20
7.352102
 30
0.000000
  0
SEQEND
  8
LAYER-1
  0
POLYLINE
  8
LAYER-1
 66
  1
 70
  0
 62
  0
 10
5.354672
 20
7.223197
 30
0.000000
  0
VERTEX
  8
LAYER-1
 10
5.354672
 20
7.223197
 30
0.000000
  0
VERTEX
  8
LAYER-1
 10
5.319074
 20
7.223197
 30
0.000000
  0
SEQEND
  8
LAYER-1
  0
POLYLINE
  8
LAYER-1
 66
  1
 70
  1
 62
  0
  0
VERTEX
  8
LAYER-1
 10
4.491474
 20
7.425346
 30
0.000000
  0
VERTEX
  8
LAYER-1
 10
4.546352
 20
7.425346
 30
0.000000
  0
VERTEX
  8
LAYER-1
 10
4.546352
 20
7.419484
 30
0.000000
  0
VERTEX
  8
LAYER-1
 10
4.491474
 20
7.419484
 30
0.000000
  0
SEQEND
  8
LAYER-1
  0
POLYLINE
  8
LAYER-1
 66
  1
 70
  0
 62
  0
 10
4.535967
 20
7.352102
 30
0.000000
  0
VERTEX
  8
LAYER-1
 10
4.535967
 20
7.352102
 30
0.000000
  0
VERTEX
  8
LAYER-1
 10
4.500376
 20
7.352102
 30
0.000000
  0
SEQEND
  8
LAYER-1
  0
POLYLINE
  8
LAYER-1
 66
  1
 70
  0
 62
  0
 10
4.535967
 20
7.223195
 30
0.000000
  0
VERTEX
  8
LAYER-1
 10
4.535967
 20
7.223195
 30
0.000000
  0
VERTEX
  8
LAYER-1
 10
4.500376
 20
7.223195
 30
0.000000
  0
SEQEND
  8
LAYER-1
  0
POLYLINE
  8
LAYER-1
 66
  1
 70
  0
 62
  0
 10
5.704693
 20
7.419410
 30
0.000000
  0
VERTEX
  8
LAYER-1
 10
5.704693
 20
7.419410
 30
0.000000
  0
VERTEX
  8
LAYER-1
 10
5.704693
 20
0.352620
 30
0.000000
  0
SEQEND
  8
LAYER-1
  0
POLYLINE
  8
LAYER-1
 66
  1
 70
  0
 62
  0
 10
5.380062
 20
7.419410
 30
0.000000
  0
VERTEX
  8
LAYER-1
 10
5.380062
 20
7.419410
 30
0.000000
  0
VERTEX
  8
LAYER-1
 10
5.380062
 20
0.352620
 30
0.000000
  0
SEQEND
  8
LAYER-1
  0
POLYLINE
  8
LAYER-1
 66
  1
 70
  0
 62
  0
 10
5.294631
 20
7.419410
 30
0.000000
  0
VERTEX
  8
LAYER-1
 10
5.294631
 20
7.419410
 30
0.000000
  0
VERTEX
  8
LAYER-1
 10
5.294631
 20
0.352620
 30
0.000000
  0
SEQEND
  8
LAYER-1
  0
POLYLINE
  8
LAYER-1
 66
  1
 70
  0
 62
  0
 10
5.354672
 20
7.419410
 30
0.000000
  0
VERTEX
  8
LAYER-1
 10
5.354672
 20
7.419410
 30
0.000000
  0
VERTEX
  8
LAYER-1
 10
5.354672
 20
0.352620
 30
0.000000
  0
SEQEND
  8
LAYER-1
  0
POLYLINE
  8
LAYER-1
 66
  1
 70
  0
 62
  0
 10
5.319074
 20
7.419410
 30
0.000000
  0
VERTEX
  8
LAYER-1
 10
5.319074
 20
7.419410
 30
0.000000
  0
VERTEX
  8
LAYER-1
 10
5.319074
 20
0.352620
 30
0.000000
  0
SEQEND
  8
LAYER-1
  0
POLYLINE
  8
LAYER-1
 66
  1
 70
  1
 62
  0
  0
VERTEX
  8
LAYER-1
 10
5.310176
 20
0.352695
 30
0.000000
  0
VERTEX
  8
LAYER-1
 10
5.365052
 20
0.352695
 30
0.000000
  0
VERTEX
  8
LAYER-1
 10
5.365052
 20
0.346836
 30
0.000000
  0
VERTEX
  8
LAYER-1
 10
5.310176
 20
0.346836
 30
0.000000
  0
SEQEND
  8
LAYER-1
  0
POLYLINE
  8
LAYER-1
 66
  1
 70
  0
 62
  0
 10
5.319074
 20
0.425937
 30
0.000000
  0
VERTEX
  8
LAYER-1
 10
5.319074
 20
0.425937
 30
0.000000
  0
VERTEX
  8
LAYER-1
 10
5.354672
 20
0.425937
 30
0.000000
  0
SEQEND
  8
LAYER-1
  0
POLYLINE
  8
LAYER-1
 66
  1
 70
  0
 62
  0
 10
5.319074
 20
0.554843
 30
0.000000
  0
VERTEX
  8
LAYER-1
 10
5.319074
 20
0.554843
 30
0.000000
  0
VERTEX
  8
LAYER-1
 10
5.354672
 20
0.554843
 30
0.000000
  0
SEQEND
  8
LAYER-1
  0
POLYLINE
  8
LAYER-1
 66
  1
 70
  0
 62
  0
 10
5.354672
 20
0.629828
 30
0.000000
  0
VERTEX
  8
LAYER-1
 10
5.354672
 20
0.629828
 30
0.000000
  0
VERTEX
  8
LAYER-1
 10
5.319074
 20
0.629828
 30
0.000000
  0
SEQEND
  8
LAYER-1
  0
POLYLINE
  8
LAYER-1
 66
  1
 70
  0
 62
  0
 10
5.354672
 20
1.476507
 30
0.000000
  0
VERTEX
  8
LAYER-1
 10
5.354672
 20
1.476507
 30
0.000000
  0
VERTEX
  8
LAYER-1
 10
5.319074
 20
1.476507
 30
0.000000
  0
SEQEND
  8
LAYER-1
  0
POLYLINE
  8
LAYER-1
 66
  1
 70
  0
 62
  0
 10
5.354672
 20
2.314396
 30
0.000000
  0
VERTEX
  8
LAYER-1
 10
5.354672
 20
2.314396
 30
0.000000
  0
VERTEX
  8
LAYER-1
 10
5.319074
 20
2.314396
 30
0.000000
  0
SEQEND
  8
LAYER-1
  0
POLYLINE
  8
LAYER-1
 66
  1
 70
  0
 62
  0
 10
5.354672
 20
3.163999
 30
0.000000
  0
VERTEX
  8
LAYER-1
 10
5.354672
 20
3.163999
 30
0.000000
  0
VERTEX
  8
LAYER-1
 10
5.319074
 20
3.163999
 30
0.000000
  0
SEQEND
  8
LAYER-1
  0
POLYLINE
  8
LAYER-1
 66
  1
 70
  0
 62
  0
 10
5.319074
 20
4.006285
 30
0.000000
  0
VERTEX
  8
LAYER-1
 10
5.319074
 20
4.006285
 30
0.000000
  0
VERTEX
  8
LAYER-1
 10
5.354672
 20
4.006285
 30
0.000000
  0
SEQEND
  8
LAYER-1
  0
POLYLINE
  8
LAYER-1
 66
  1
 70
  1
 62
  0
  0
VERTEX
  8
LAYER-1
 10
5.399165
 20
3.850410
 30
0.000000
  0
VERTEX
  8
LAYER-1
 10
5.686898
 20
3.850410
 30
0.000000
  0
VERTEX
  8
LAYER-1
 10
5.686898
 20
0.681340
 30
0.000000
  0
VERTEX
  8
LAYER-1
 10
5.399165
 20
0.681340
 30
0.000000
  0
SEQEND
  8
LAYER-1
  0
POLYLINE
  8
LAYER-1
 66
  1
 70
  1
 62
  0
  0
VERTEX
  8
LAYER-1
 10
4.989102
 20
3.850410
 30
0.000000
  0
VERTEX
  8
LAYER-1
 10
5.276835
 20
3.850410
 30
0.000000
  0
VERTEX
  8
LAYER-1
 10
5.276835
 20
0.681340
 30
0.000000
  0
VERTEX
  8
LAYER-1
 10
4.989102
 20
0.681340
 30
0.000000
  0
SEQEND
  8
LAYER-1
  0
POLYLINE
  8
LAYER-1
 66
  1
 70
  1
 62
  0
  0
VERTEX
  8
LAYER-1
 10
4.579040
 20
3.850410
 30
0.000000
  0
VERTEX
  8
LAYER-1
 10
4.866773
 20
3.850410
 30
0.000000
  0
VERTEX
  8
LAYER-1
 10
4.866773
 20
0.681340
 30
0.000000
  0
VERTEX
  8
LAYER-1
 10
4.579040
 20
0.681340
 30
0.000000
  0
SEQEND
  8
LAYER-1
  0
POLYLINE
  8
LAYER-1
 66
  1
 70
  1
 62
  0
  0
VERTEX
  8
LAYER-1
 10
4.168978
 20
3.850410
 30
0.000000
  0
VERTEX
  8
LAYER-1
 10
4.456711
 20
3.850410
 30
0.000000
  0
VERTEX
  8
LAYER-1
 10
4.456711
 20
0.681340
 30
0.000000
  0
VERTEX
  8
LAYER-1
 10
4.168978
 20
0.681340
 30
0.000000
  0
SEQEND
  8
LAYER-1
  0
LINE
  8
LAYER-1
 62
  0
 10
4.620621
 20
3.273149
 30
0.000000
 11
4.756710
 21
3.510885
 31
0.000000
  0
LINE
  8
LAYER-1
 62
  0
 10
4.677257
 20
3.240729
 30
0.000000
 11
4.813345
 21
3.478466
 31
0.000000
  0
LINE
  8
LAYER-1
 62
  0
 10
5.030683
 20
3.273149
 30
0.000000
 11
5.166772
 21
3.510885
 31
0.000000
  0
LINE
  8
LAYER-1
 62
  0
 10
5.087319
 20
3.240729
 30
0.000000
 11
5.223407
 21
3.478466
 31
0.000000
  0
LINE
  8
LAYER-1
 62
  0
 10
5.440745
 20
3.273149
 30
0.000000
 11
5.576834
 21
3.510886
 31
0.000000
  0
LINE
  8
LAYER-1
 62
  0
 10
5.497381
 20
3.240729
 30
0.000000
 11
5.633470
 21
3.478465
 31
0.000000
  0
LINE
  8
LAYER-1
 62
  0
 10
4.215719
 20
3.273152
 30
0.000000
 11
4.351807
 21
3.510887
 31
0.000000
  0
LINE
  8
LAYER-1
 62
  0
 10
4.272354
 20
3.240731
 30
0.000000
 11
4.408443
 21
3.478466
 31
0.000000
  0
LINE
  8
LAYER-1
 62
  0
 10
4.620260
 20
1.049301
 30
0.000000
 11
4.756348
 21
1.287036
 31
0.000000
  0
LINE
  8
LAYER-1
 62
  0
 10
4.676896
 20
1.016880
 30
0.000000
 11
4.812984
 21
1.254615
 31
0.000000
  0
LINE
  8
LAYER-1
 62
  0
 10
5.030321
 20
1.049301
 30
0.000000
 11
5.166410
 21
1.287036
 31
0.000000
  0
LINE
  8
LAYER-1
 62
  0
 10
5.086957
 20
1.016880
 30
0.000000
 11
5.223046
 21
1.254615
 31
0.000000
  0
LINE
  8
LAYER-1
 62
  0
 10
5.440385
 20
1.049301
 30
0.000000
 11
5.576476
 21
1.287036
 31
0.000000
  0
LINE
  8
LAYER-1
 62
  0
 10
5.497020
 20
1.016880
 30
0.000000
 11
5.633111
 21
1.254615
 31
0.000000
  0
LINE
  8
LAYER-1
 62
  0
 10
4.215360
 20
1.049301
 30
0.000000
 11
4.351446
 21
1.287036
 31
0.000000
  0
LINE
  8
LAYER-1
 62
  0
 10
4.271996
 20
1.016880
 30
0.000000
 11
4.408081
 21
1.254615
 31
0.000000
  0
POLYLINE
  8
LAYER-1
 66
  1
 70
  0
 62
  0
 10
4.969999
 20
7.419410
 30
0.000000
  0
VERTEX
  8
LAYER-1
 10
4.969999
 20
7.419410
 30
0.000000
  0
VERTEX
  8
LAYER-1
 10
4.969999
 20
0.352620
 30
0.000000
  0
SEQEND
  8
LAYER-1
  0
POLYLINE
  8
LAYER-1
 66
  1
 70
  0
 62
  0
 10
4.884569
 20
7.419410
 30
0.000000
  0
VERTEX
  8
LAYER-1
 10
4.884569
 20
7.419410
 30
0.000000
  0
VERTEX
  8
LAYER-1
 10
4.884569
 20
0.352620
 30
0.000000
  0
SEQEND
  8
LAYER-1
  0
POLYLINE
  8
LAYER-1
 66
  1
 70
  0
 62
  0
 10
4.559937
 20
7.419410
 30
0.000000
  0
VERTEX
  8
LAYER-1
 10
4.559937
 20
7.419410
 30
0.000000
  0
VERTEX
  8
LAYER-1
 10
4.559937
 20
0.352620
 30
0.000000
  0
SEQEND
  8
LAYER-1
  0
POLYLINE
  8
LAYER-1
 66
  1
 70
  0
 62
  0
 10
4.474506
 20
7.419410
 30
0.000000
  0
VERTEX
  8
LAYER-1
 10
4.474506
 20
7.419410
 30
0.000000
  0
VERTEX
  8
LAYER-1
 10
4.474506
 20
0.352620
 30
0.000000
  0
SEQEND
  8
LAYER-1
  0
POLYLINE
  8
LAYER-1
 66
  1
 70
  0
 62
  0
 10
4.149875
 20
7.419410
 30
0.000000
  0
VERTEX
  8
LAYER-1
 10
4.149875
 20
7.419410
 30
0.000000
  0
VERTEX
  8
LAYER-1
 10
4.149875
 20
0.352620
 30
0.000000
  0
SEQEND
  8
LAYER-1
  0
POLYLINE
  8
LAYER-1
 66
  1
 70
  0
 62
  0
 10
4.067292
 20
7.419410
 30
0.000000
  0
VERTEX
  8
LAYER-1
 10
4.067292
 20
7.419410
 30
0.000000
  0
VERTEX
  8
LAYER-1
 10
4.067292
 20
0.352620
 30
0.000000
  0
SEQEND
  8
LAYER-1
  0
POLYLINE
  8
LAYER-1
 66
  1
 70
  0
 62
  0
 10
5.740291
 20
7.419410
 30
0.000000
  0
VERTEX
  8
LAYER-1
 10
5.740291
 20
7.419410
 30
0.000000
  0
VERTEX
  8
LAYER-1
 10
5.740291
 20
0.352620
 30
0.000000
  0
SEQEND
  8
LAYER-1
  0
POLYLINE
  8
LAYER-1
 66
  1
 70
  0
 62
  0
 10
4.927524
 20
7.419410
 30
0.000000
  0
VERTEX
  8
LAYER-1
 10
4.927524
 20
7.419410
 30
0.000000
  0
VERTEX
  8
LAYER-1
 10
4.927524
 20
0.352620
 30
0.000000
  0
SEQEND
  8
LAYER-1
  0
POLYLINE
  8
LAYER-1
 66
  1
 70
  0
 62
  0
 10
4.535967
 20
7.419410
 30
0.000000
  0
VERTEX
  8
LAYER-1
 10
4.535967
 20
7.419410
 30
0.000000
  0
VERTEX
  8
LAYER-1
 10
4.535967
 20
0.352620
 30
0.000000
  0
SEQEND
  8
LAYER-1
  0
POLYLINE
  8
LAYER-1
 66
  1
 70
  0
 62
  0
 10
4.500376
 20
7.419410
 30
0.000000
  0
VERTEX
  8
LAYER-1
 10
4.500376
 20
7.419410
 30
0.000000
  0
VERTEX
  8
LAYER-1
 10
4.500376
 20
0.352620
 30
0.000000
  0
SEQEND
  8
LAYER-1
  0
POLYLINE
  8
LAYER-1
 66
  1
 70
  0
 62
  0
 10
4.108818
 20
7.419410
 30
0.000000
  0
VERTEX
  8
LAYER-1
 10
4.108818
 20
7.419410
 30
0.000000
  0
VERTEX
  8
LAYER-1
 10
4.108818
 20
0.352620
 30
0.000000
  0
SEQEND
  8
LAYER-1
  0
POLYLINE
  8
LAYER-1
 66
  1
 70
  1
 62
  0
  0
VERTEX
  8
LAYER-1
 10
4.492959
 20
0.352695
 30
0.000000
  0
VERTEX
  8
LAYER-1
 10
4.547837
 20
0.352695
 30
0.000000
  0
VERTEX
  8
LAYER-1
 10
4.547837
 20
0.346836
 30
0.000000
  0
VERTEX
  8
LAYER-1
 10
4.492959
 20
0.346836
 30
0.000000
  0
SEQEND
  8
LAYER-1
  0
POLYLINE
  8
LAYER-1
 66
  1
 70
  0
 62
  0
 10
4.500376
 20
0.425937
 30
0.000000
  0
VERTEX
  8
LAYER-1
 10
4.500376
 20
0.425937
 30
0.000000
  0
VERTEX
  8
LAYER-1
 10
4.535967
 20
0.425937
 30
0.000000
  0
SEQEND
  8
LAYER-1
  0
POLYLINE
  8
LAYER-1
 66
  1
 70
  0
 62
  0
 10
4.500376
 20
0.554843
 30
0.000000
  0
VERTEX
  8
LAYER-1
 10
4.500376
 20
0.554843
 30
0.000000
  0
VERTEX
  8
LAYER-1
 10
4.535967
 20
0.554843
 30
0.000000
  0
SEQEND
  8
LAYER-1
  0
POLYLINE
  8
LAYER-1
 66
  1
 70
  0
 62
  0
 10
4.535967
 20
0.629828
 30
0.000000
  0
VERTEX
  8
LAYER-1
 10
4.535967
 20
0.629828
 30
0.000000
  0
VERTEX
  8
LAYER-1
 10
4.500376
 20
0.629828
 30
0.000000
  0
SEQEND
  8
LAYER-1
  0
POLYLINE
  8
LAYER-1
 66
  1
 70
  0
 62
  0
 10
4.535967
 20
1.476507
 30
0.000000
  0
VERTEX
  8
LAYER-1
 10
4.535967
 20
1.476507
 30
0.000000
  0
VERTEX
  8
LAYER-1
 10
4.500376
 20
1.476507
 30
0.000000
  0
SEQEND
  8
LAYER-1
  0
POLYLINE
  8
LAYER-1
 66
  1
 70
  0
 62
  0
 10
4.535967
 20
2.314396
 30
0.000000
  0
VERTEX
  8
LAYER-1
 10
4.535967
 20
2.314396
 30
0.000000
  0
VERTEX
  8
LAYER-1
 10
4.500376
 20
2.314396
 30
0.000000
  0
SEQEND
  8
LAYER-1
  0
POLYLINE
  8
LAYER-1
 66
  1
 70
  0
 62
  0
 10
4.535967
 20
3.163999
 30
0.000000
  0
VERTEX
  8
LAYER-1
 10
4.535967
 20
3.163999
 30
0.000000
  0
VERTEX
  8
LAYER-1
 10
4.500376
 20
3.163999
 30
0.000000
  0
SEQEND
  8
LAYER-1
  0
POLYLINE
  8
LAYER-1
 66
  1
 70
  0
 62
  0
 10
4.500376
 20
4.006285
 30
0.000000
  0
VERTEX
  8
LAYER-1
 10
4.500376
 20
4.006285
 30
0.000000
  0
VERTEX
  8
LAYER-1
 10
4.535967
 20
4.006285
 30
0.000000
  0
SEQEND
  8
LAYER-1
  0
POLYLINE
  8
LAYER-1
 66
  1
 70
  0
 62
  0
 10
5.354019
 20
4.857285
 30
0.000000
  0
VERTEX
  8
LAYER-1
 10
5.354019
 20
4.857285
 30
0.000000
  0
VERTEX
  8
LAYER-1
 10
5.318424
 20
4.857285
 30
0.000000
  0
SEQEND
  8
LAYER-1
  0
POLYLINE
  8
LAYER-1
 66
  1
 70
  0
 62
  0
 10
5.354019
 20
5.701035
 30
0.000000
  0
VERTEX
  8
LAYER-1
 10
5.354019
 20
5.701035
 30
0.000000
  0
VERTEX
  8
LAYER-1
 10
5.318424
 20
5.701035
 30
0.000000
  0
SEQEND
  8
LAYER-1
  0
POLYLINE
  8
LAYER-1
 66
  1
 70
  0
 62
  0
 10
4.536144
 20
4.857285
 30
0.000000
  0
VERTEX
  8
LAYER-1
 10
4.536144
 20
4.857285
 30
0.000000
  0
VERTEX
  8
LAYER-1
 10
4.500553
 20
4.857285
 30
0.000000
  0
SEQEND
  8
LAYER-1
  0
POLYLINE
  8
LAYER-1
 66
  1
 70
  0
 62
  0
 10
4.536144
 20
5.701035
 30
0.000000
  0
VERTEX
  8
LAYER-1
 10
4.536144
 20
5.701035
 30
0.000000
  0
VERTEX
  8
LAYER-1
 10
4.500553
 20
5.701035
 30
0.000000
  0
SEQEND
  8
LAYER-1
  0
POLYLINE
  8
LAYER-1
 66
  1
 70
  1
 62
  0
  0
VERTEX
  8
LAYER-1
 10
3.843335
 20
7.425269
 30
0.000000
  0
VERTEX
  8
LAYER-1
 10
3.898213
 20
7.425269
 30
0.000000
  0
VERTEX
  8
LAYER-1
 10
3.898213
 20
7.419408
 30
0.000000
  0
VERTEX
  8
LAYER-1
 10
3.843335
 20
7.419408
 30
0.000000
  0
SEQEND
  8
LAYER-1
  0
POLYLINE
  8
LAYER-1
 66
  1
 70
  0
 62
  0
 10
3.887828
 20
7.352025
 30
0.000000
  0
VERTEX
  8
LAYER-1
 10
3.887828
 20
7.352025
 30
0.000000
  0
VERTEX
  8
LAYER-1
 10
3.852236
 20
7.352025
 30
0.000000
  0
SEQEND
  8
LAYER-1
  0
POLYLINE
  8
LAYER-1
 66
  1
 70
  0
 62
  0
 10
3.887828
 20
7.223119
 30
0.000000
  0
VERTEX
  8
LAYER-1
 10
3.887828
 20
7.223119
 30
0.000000
  0
VERTEX
  8
LAYER-1
 10
3.852236
 20
7.223119
 30
0.000000
  0
SEQEND
  8
LAYER-1
  0
POLYLINE
  8
LAYER-1
 66
  1
 70
  0
 62
  0
 10
3.887828
 20
7.419334
 30
0.000000
  0
VERTEX
  8
LAYER-1
 10
3.887828
 20
7.419334
 30
0.000000
  0
VERTEX
  8
LAYER-1
 10
3.887828
 20
0.352620
 30
0.000000
  0
SEQEND
  8
LAYER-1
  0
POLYLINE
  8
LAYER-1
 66
  1
 70
  0
 62
  0
 10
3.852236
 20
0.425860
 30
0.000000
  0
VERTEX
  8
LAYER-1
 10
3.852236
 20
0.425860
 30
0.000000
  0
VERTEX
  8
LAYER-1
 10
3.887828
 20
0.425860
 30
0.000000
  0
SEQEND
  8
LAYER-1
  0
POLYLINE
  8
LAYER-1
 66
  1
 70
  0
 62
  0
 10
3.852236
 20
0.554766
 30
0.000000
  0
VERTEX
  8
LAYER-1
 10
3.852236
 20
0.554766
 30
0.000000
  0
VERTEX
  8
LAYER-1
 10
3.887828
 20
0.554766
 30
0.000000
  0
SEQEND
  8
LAYER-1
  0
POLYLINE
  8
LAYER-1
 66
  1
 70
  0
 62
  0
 10
3.887828
 20
0.629749
 30
0.000000
  0
VERTEX
  8
LAYER-1
 10
3.887828
 20
0.629749
 30
0.000000
  0
VERTEX
  8
LAYER-1
 10
3.852233
 20
0.629749
 30
0.000000
  0
SEQEND
  8
LAYER-1
  0
POLYLINE
  8
LAYER-1
 66
  1
 70
  0
 62
  0
 10
3.887828
 20
1.476431
 30
0.000000
  0
VERTEX
  8
LAYER-1
 10
3.887828
 20
1.476431
 30
0.000000
  0
VERTEX
  8
LAYER-1
 10
3.852233
 20
1.476431
 30
0.000000
  0
SEQEND
  8
LAYER-1
  0
POLYLINE
  8
LAYER-1
 66
  1
 70
  0
 62
  0
 10
3.887828
 20
2.314319
 30
0.000000
  0
VERTEX
  8
LAYER-1
 10
3.887828
 20
2.314319
 30
0.000000
  0
VERTEX
  8
LAYER-1
 10
3.852233
 20
2.314319
 30
0.000000
  0
SEQEND
  8
LAYER-1
  0
POLYLINE
  8
LAYER-1
 66
  1
 70
  0
 62
  0
 10
3.887828
 20
3.163923
 30
0.000000
  0
VERTEX
  8
LAYER-1
 10
3.887828
 20
3.163923
 30
0.000000
  0
VERTEX
  8
LAYER-1
 10
3.852233
 20
3.163923
 30
0.000000
  0
SEQEND
  8
LAYER-1
  0
POLYLINE
  8
LAYER-1
 66
  1
 70
  0
 62
  0
 10
3.852233
 20
4.006208
 30
0.000000
  0
VERTEX
  8
LAYER-1
 10
3.852233
 20
4.006208
 30
0.000000
  0
VERTEX
  8
LAYER-1
 10
3.887828
 20
4.006208
 30
0.000000
  0
SEQEND
  8
LAYER-1
  0
POLYLINE
  8
LAYER-1
 66
  1
 70
  0
 62
  0
 10
3.888006
 20
4.857209
 30
0.000000
  0
VERTEX
  8
LAYER-1
 10
3.888006
 20
4.857209
 30
0.000000
  0
VERTEX
  8
LAYER-1
 10
3.852414
 20
4.857209
 30
0.000000
  0
SEQEND
  8
LAYER-1
  0
POLYLINE
  8
LAYER-1
 66
  1
 70
  0
 62
  0
 10
3.888006
 20
5.700959
 30
0.000000
  0
VERTEX
  8
LAYER-1
 10
3.888006
 20
5.700959
 30
0.000000
  0
VERTEX
  8
LAYER-1
 10
3.852414
 20
5.700959
 30
0.000000
  0
SEQEND
  8
LAYER-1
  0
POLYLINE
  8
LAYER-1
 66
  1
 70
  1
 62
  0
  0
VERTEX
  8
LAYER-1
 10
3.844819
 20
0.352620
 30
0.000000
  0
VERTEX
  8
LAYER-1
 10
3.899691
 20
0.352620
 30
0.000000
  0
VERTEX
  8
LAYER-1
 10
3.899691
 20
0.346760
 30
0.000000
  0
VERTEX
  8
LAYER-1
 10
3.844819
 20
0.346760
 30
0.000000
  0
SEQEND
  8
LAYER-1
  0
TEXT
  8
LAYER-1
 62
  7
 10
1.976523
 20
8.790042
 30
0.000000
 40
0.187500
  1
âlÄvation modÅle Royal
 72
  5
 11
4.851523
 21
8.790042
 31
0.000000
  0
LINE
  8
LAYER-1
 62
  0
 10
6.768189
 20
7.485043
 30
0.000000
 11
0.771661
 21
7.485043
 31
0.000000
  0
LINE
  8
LAYER-1
 62
  0
 10
6.768189
 20
7.595042
 30
0.000000
 11
0.771661
 21
7.595042
 31
0.000000
  0
LINE
  8
LAYER-1
 62
  0
 10
1.331559
 20
7.486549
 30
0.000000
 11
1.331559
 21
7.596527
 31
0.000000
  0
LINE
  8
LAYER-1
 62
  0
 10
1.272190
 20
7.486549
 30
0.000000
 11
1.456559
 21
7.486549
 31
0.000000
  0
LINE
  8
LAYER-1
 62
  0
 10
1.272530
 20
7.596527
 30
0.000000
 11
1.456559
 21
7.596527
 31
0.000000
  0
LINE
  8
LAYER-1
 62
  0
 10
1.331559
 20
7.596527
 30
0.000000
 11
1.331559
 21
7.231013
 31
0.000000
  0
LINE
  8
LAYER-1
 62
  0
 10
1.302096
 20
7.516012
 30
0.000000
 11
1.361021
 21
7.457086
 31
0.000000
  0
LINE
  8
LAYER-1
 62
  0
 10
1.302096
 20
7.625990
 30
0.000000
 11
1.361021
 21
7.567064
 31
0.000000
  0
TEXT
  8
LAYER-1
 62
  0
 10
1.319698
 20
7.102597
 30
0.000000
 40
0.125000
  1
 
  0
TEXT
  8
LAYER-1
 62
  0
 10
1.073745
 20
6.859487
 30
0.000000
 40
0.125000
  1
1-
 72
  5
 11
1.295967
 21
6.859487
 31
0.000000
  0
TEXT
  8
LAYER-1
 62
  0
 10
1.295967
 20
6.859487
 30
0.000000
 40
0.104167
  1
9/16
 72
  5
 11
1.657078
 21
6.859487
 31
0.000000
  0
TEXT
  8
LAYER-1
 62
  0
 10
1.657078
 20
6.859487
 30
0.000000
 40
0.125000
  1
"
 72
  5
 11
1.782078
 21
6.859487
 31
0.000000
  0
TEXT
  8
LAYER-1
 62
  0
 10
1.073745
 20
6.665042
 30
0.000000
 40
0.125000
  1
40mm
 72
  5
 11
1.643189
 21
6.665042
 31
0.000000
  0
TEXT
  8
LAYER-1
 62
  0
 10
2.309856
 20
7.887265
 30
0.000000
 40
0.125000
  1
Membre
 72
  5
 11
3.004300
 21
7.887265
 31
0.000000
  0
TEXT
  8
LAYER-1
 62
  0
 10
2.309856
 20
7.692820
 30
0.000000
 40
0.125000
  1
intermÄdiaire #4
 72
  5
 11
3.629300
 21
7.692820
 31
0.000000
  0
POLYLINE
  8
LAYER-1
 66
  1
 70
  0
 62
  0
 10
3.519057
 20
7.751846
 30
0.000000
  0
VERTEX
  8
LAYER-1
 10
3.519057
 20
7.751846
 30
0.000000
  0
VERTEX
  8
LAYER-1
 10
3.760133
 20
7.436751
 30
0.000000
  0
SEQEND
  8
LAYER-1
  0
POLYLINE
  8
LAYER-1
 66
  1
 70
  1
 62
  0
  0
VERTEX
  8
LAYER-1
 10
3.772095
 20
7.421117
 30
0.000000
  0
VERTEX
  8
LAYER-1
 10
3.696805
 20
7.450952
 30
0.000000
  0
VERTEX
  8
LAYER-1
 10
3.729897
 20
7.476271
 30
0.000000
  0
VERTEX
  8
LAYER-1
 10
3.762989
 20
7.501589
 30
0.000000
  0
VERTEX
  8
LAYER-1
 10
3.772095
 20
7.421117
 30
0.000000
  0
SEQEND
  8
LAYER-1
  0
POLYLINE
  8
LAYER-1
 66
  1
 70
  0
 62
  0
 40
0.027778
 41
0.027778
 10
3.684575
 20
0.246650
 30
0.000000
  0
VERTEX
  8
LAYER-1
 10
3.684575
 20
0.246650
 30
0.000000
  0
VERTEX
  8
LAYER-1
 10
0.768189
 20
0.246650
 30
0.000000
  0
SEQEND
  8
LAYER-1
  0
POLYLINE
  8
LAYER-1
 66
  1
 70
  0
 62
  0
 40
0.027778
 41
0.027778
 10
3.778192
 20
0.246650
 30
0.000000
  0
VERTEX
  8
LAYER-1
 10
3.778192
 20
0.246650
 30
0.000000
  0
VERTEX
  8
LAYER-1
 10
6.761245
 20
0.246650
 30
0.000000
  0
SEQEND
  8
LAYER-1
  0
POLYLINE
  8
LAYER-1
 66
  1
 70
  1
 62
  0
  0
VERTEX
  8
LAYER-1
 10
0.031375
 20
3.546674
 30
0.000000
  0
VERTEX
  8
LAYER-1
 10
0.145716
 20
3.546674
 30
0.000000
  0
VERTEX
  8
LAYER-1
 10
0.145716
 20
3.443020
 30
0.000000
  0
VERTEX
  8
LAYER-1
 10
0.031375
 20
3.443020
 30
0.000000
  0
SEQEND
  8
LAYER-1
  0
POLYLINE
  8
LAYER-1
 66
  1
 70
  1
 62
  0
  0
VERTEX
  8
LAYER-1
 10
0.179704
 20
3.546674
 30
0.000000
  0
VERTEX
  8
LAYER-1
 10
0.294334
 20
3.546674
 30
0.000000
  0
VERTEX
  8
LAYER-1
 10
0.294334
 20
3.443020
 30
0.000000
  0
VERTEX
  8
LAYER-1
 10
0.179704
 20
3.443020
 30
0.000000
  0
SEQEND
  8
LAYER-1
  0
POLYLINE
  8
LAYER-1
 66
  1
 70
  1
 62
  0
  0
VERTEX
  8
LAYER-1
 10
0.328176
 20
3.546674
 30
0.000000
  0
VERTEX
  8
LAYER-1
 10
0.442515
 20
3.546674
 30
0.000000
  0
VERTEX
  8
LAYER-1
 10
0.442515
 20
3.443020
 30
0.000000
  0
VERTEX
  8
LAYER-1
 10
0.328176
 20
3.443020
 30
0.000000
  0
SEQEND
  8
LAYER-1
  0
POLYLINE
  8
LAYER-1
 66
  1
 70
  1
 62
  0
  0
VERTEX
  8
LAYER-1
 10
0.476503
 20
3.546674
 30
0.000000
  0
VERTEX
  8
LAYER-1
 10
0.590987
 20
3.546674
 30
0.000000
  0
VERTEX
  8
LAYER-1
 10
0.590987
 20
3.443020
 30
0.000000
  0
VERTEX
  8
LAYER-1
 10
0.476503
 20
3.443020
 30
0.000000
  0
SEQEND
  8
LAYER-1
  0
POLYLINE
  8
LAYER-1
 66
  1
 70
  1
 62
  0
  0
VERTEX
  8
LAYER-1
 10
0.624975
 20
3.546674
 30
0.000000
  0
VERTEX
  8
LAYER-1
 10
0.739314
 20
3.546674
 30
0.000000
  0
VERTEX
  8
LAYER-1
 10
0.739314
 20
3.443020
 30
0.000000
  0
VERTEX
  8
LAYER-1
 10
0.624975
 20
3.443020
 30
0.000000
  0
SEQEND
  8
LAYER-1
  0
POLYLINE
  8
LAYER-1
 66
  1
 70
  1
 62
  0
  0
VERTEX
  8
LAYER-1
 10
0.773447
 20
3.546674
 30
0.000000
  0
VERTEX
  8
LAYER-1
 10
0.887788
 20
3.546674
 30
0.000000
  0
VERTEX
  8
LAYER-1
 10
0.887788
 20
3.443020
 30
0.000000
  0
VERTEX
  8
LAYER-1
 10
0.773447
 20
3.443020
 30
0.000000
  0
SEQEND
  8
LAYER-1
  0
POLYLINE
  8
LAYER-1
 66
  1
 70
  1
 62
  0
  0
VERTEX
  8
LAYER-1
 10
0.921774
 20
3.546674
 30
0.000000
  0
VERTEX
  8
LAYER-1
 10
1.036261
 20
3.546674
 30
0.000000
  0
VERTEX
  8
LAYER-1
 10
1.036261
 20
3.443020
 30
0.000000
  0
VERTEX
  8
LAYER-1
 10
0.921774
 20
3.443020
 30
0.000000
  0
SEQEND
  8
LAYER-1
  0
POLYLINE
  8
LAYER-1
 66
  1
 70
  1
 62
  0
  0
VERTEX
  8
LAYER-1
 10
0.031297
 20
5.141857
 30
0.000000
  0
VERTEX
  8
LAYER-1
 10
0.145784
 20
5.141857
 30
0.000000
  0
VERTEX
  8
LAYER-1
 10
0.145784
 20
5.038202
 30
0.000000
  0
VERTEX
  8
LAYER-1
 10
0.031297
 20
5.038202
 30
0.000000
  0
SEQEND
  8
LAYER-1
  0
POLYLINE
  8
LAYER-1
 66
  1
 70
  1
 62
  0
  0
VERTEX
  8
LAYER-1
 10
0.179623
 20
5.141857
 30
0.000000
  0
VERTEX
  8
LAYER-1
 10
0.294257
 20
5.141857
 30
0.000000
  0
VERTEX
  8
LAYER-1
 10
0.294257
 20
5.038202
 30
0.000000
  0
VERTEX
  8
LAYER-1
 10
0.179623
 20
5.038202
 30
0.000000
  0
SEQEND
  8
LAYER-1
  0
POLYLINE
  8
LAYER-1
 66
  1
 70
  1
 62
  0
  0
VERTEX
  8
LAYER-1
 10
0.328096
 20
5.141857
 30
0.000000
  0
VERTEX
  8
LAYER-1
 10
0.442583
 20
5.141857
 30
0.000000
  0
VERTEX
  8
LAYER-1
 10
0.442583
 20
5.038202
 30
0.000000
  0
VERTEX
  8
LAYER-1
 10
0.328096
 20
5.038202
 30
0.000000
  0
SEQEND
  8
LAYER-1
  0
POLYLINE
  8
LAYER-1
 66
  1
 70
  1
 62
  0
  0
VERTEX
  8
LAYER-1
 10
0.476422
 20
5.141857
 30
0.000000
  0
VERTEX
  8
LAYER-1
 10
0.590910
 20
5.141857
 30
0.000000
  0
VERTEX
  8
LAYER-1
 10
0.590910
 20
5.038202
 30
0.000000
  0
VERTEX
  8
LAYER-1
 10
0.476422
 20
5.038202
 30
0.000000
  0
SEQEND
  8
LAYER-1
  0
POLYLINE
  8
LAYER-1
 66
  1
 70
  1
 62
  0
  0
VERTEX
  8
LAYER-1
 10
0.623452
 20
5.141857
 30
0.000000
  0
VERTEX
  8
LAYER-1
 10
0.739382
 20
5.141857
 30
0.000000
  0
VERTEX
  8
LAYER-1
 10
0.739382
 20
5.038202
 30
0.000000
  0
VERTEX
  8
LAYER-1
 10
0.623452
 20
5.038202
 30
0.000000
  0
SEQEND
  8
LAYER-1
  0
POLYLINE
  8
LAYER-1
 66
  1
 70
  1
 62
  0
  0
VERTEX
  8
LAYER-1
 10
0.773369
 20
5.141857
 30
0.000000
  0
VERTEX
  8
LAYER-1
 10
0.887854
 20
5.141857
 30
0.000000
  0
VERTEX
  8
LAYER-1
 10
0.887854
 20
5.038202
 30
0.000000
  0
VERTEX
  8
LAYER-1
 10
0.773369
 20
5.038202
 30
0.000000
  0
SEQEND
  8
LAYER-1
  0
POLYLINE
  8
LAYER-1
 66
  1
 70
  1
 62
  0
  0
VERTEX
  8
LAYER-1
 10
0.921047
 20
5.141857
 30
0.000000
  0
VERTEX
  8
LAYER-1
 10
1.036183
 20
5.141857
 30
0.000000
  0
VERTEX
  8
LAYER-1
 10
1.036183
 20
5.038202
 30
0.000000
  0
VERTEX
  8
LAYER-1
 10
0.921047
 20
5.038202
 30
0.000000
  0
SEQEND
  8
LAYER-1
  0
POLYLINE
  8
LAYER-1
 66
  1
 70
  1
 62
  0
  0
VERTEX
  8
LAYER-1
 10
0.294257
 20
5.141857
 30
0.000000
  0
VERTEX
  8
LAYER-1
 10
0.310707
 20
5.141857
 30
0.000000
  0
VERTEX
  8
LAYER-1
 10
0.310707
 20
3.443065
 30
0.000000
  0
VERTEX
  8
LAYER-1
 10
0.294257
 20
3.443065
 30
0.000000
  0
SEQEND
  8
LAYER-1
  0
POLYLINE
  8
LAYER-1
 66
  1
 70
  1
 62
  0
  0
VERTEX
  8
LAYER-1
 10
0.310707
 20
5.141857
 30
0.000000
  0
VERTEX
  8
LAYER-1
 10
0.328176
 20
5.141857
 30
0.000000
  0
VERTEX
  8
LAYER-1
 10
0.328176
 20
3.443020
 30
0.000000
  0
VERTEX
  8
LAYER-1
 10
0.310707
 20
3.443020
 30
0.000000
  0
SEQEND
  8
LAYER-1
  0
POLYLINE
  8
LAYER-1
 66
  1
 70
  1
 62
  0
  0
VERTEX
  8
LAYER-1
 10
0.442583
 20
5.141857
 30
0.000000
  0
VERTEX
  8
LAYER-1
 10
0.459116
 20
5.141857
 30
0.000000
  0
VERTEX
  8
LAYER-1
 10
0.459116
 20
3.443065
 30
0.000000
  0
VERTEX
  8
LAYER-1
 10
0.442583
 20
3.443065
 30
0.000000
  0
SEQEND
  8
LAYER-1
  0
POLYLINE
  8
LAYER-1
 66
  1
 70
  1
 62
  0
  0
VERTEX
  8
LAYER-1
 10
0.459116
 20
5.141857
 30
0.000000
  0
VERTEX
  8
LAYER-1
 10
0.476503
 20
5.141857
 30
0.000000
  0
VERTEX
  8
LAYER-1
 10
0.476503
 20
3.443020
 30
0.000000
  0
VERTEX
  8
LAYER-1
 10
0.459116
 20
3.443020
 30
0.000000
  0
SEQEND
  8
LAYER-1
  0
POLYLINE
  8
LAYER-1
 66
  1
 70
  1
 62
  0
  0
VERTEX
  8
LAYER-1
 10
0.590910
 20
5.141857
 30
0.000000
  0
VERTEX
  8
LAYER-1
 10
0.607526
 20
5.141857
 30
0.000000
  0
VERTEX
  8
LAYER-1
 10
0.607526
 20
3.443065
 30
0.000000
  0
VERTEX
  8
LAYER-1
 10
0.590910
 20
3.443065
 30
0.000000
  0
SEQEND
  8
LAYER-1
  0
POLYLINE
  8
LAYER-1
 66
  1
 70
  1
 62
  0
  0
VERTEX
  8
LAYER-1
 10
0.607526
 20
5.141857
 30
0.000000
  0
VERTEX
  8
LAYER-1
 10
0.624975
 20
5.141857
 30
0.000000
  0
VERTEX
  8
LAYER-1
 10
0.624975
 20
3.443020
 30
0.000000
  0
VERTEX
  8
LAYER-1
 10
0.607526
 20
3.443020
 30
0.000000
  0
SEQEND
  8
LAYER-1
  0
POLYLINE
  8
LAYER-1
 66
  1
 70
  1
 62
  0
  0
VERTEX
  8
LAYER-1
 10
0.739382
 20
5.141857
 30
0.000000
  0
VERTEX
  8
LAYER-1
 10
0.755934
 20
5.141857
 30
0.000000
  0
VERTEX
  8
LAYER-1
 10
0.755934
 20
3.443065
 30
0.000000
  0
VERTEX
  8
LAYER-1
 10
0.739382
 20
3.443065
 30
0.000000
  0
SEQEND
  8
LAYER-1
  0
POLYLINE
  8
LAYER-1
 66
  1
 70
  1
 62
  0
  0
VERTEX
  8
LAYER-1
 10
0.755934
 20
5.141857
 30
0.000000
  0
VERTEX
  8
LAYER-1
 10
0.773447
 20
5.141857
 30
0.000000
  0
VERTEX
  8
LAYER-1
 10
0.773447
 20
3.443020
 30
0.000000
  0
VERTEX
  8
LAYER-1
 10
0.755934
 20
3.443020
 30
0.000000
  0
SEQEND
  8
LAYER-1
  0
POLYLINE
  8
LAYER-1
 66
  1
 70
  1
 62
  0
  0
VERTEX
  8
LAYER-1
 10
0.887854
 20
5.141857
 30
0.000000
  0
VERTEX
  8
LAYER-1
 10
0.904344
 20
5.141857
 30
0.000000
  0
VERTEX
  8
LAYER-1
 10
0.904344
 20
3.443065
 30
0.000000
  0
VERTEX
  8
LAYER-1
 10
0.887854
 20
3.443065
 30
0.000000
  0
SEQEND
  8
LAYER-1
  0
POLYLINE
  8
LAYER-1
 66
  1
 70
  1
 62
  0
  0
VERTEX
  8
LAYER-1
 10
0.904344
 20
5.141857
 30
0.000000
  0
VERTEX
  8
LAYER-1
 10
0.921774
 20
5.141857
 30
0.000000
  0
VERTEX
  8
LAYER-1
 10
0.921774
 20
3.443020
 30
0.000000
  0
VERTEX
  8
LAYER-1
 10
0.904344
 20
3.443020
 30
0.000000
  0
SEQEND
  8
LAYER-1
  0
POLYLINE
  8
LAYER-1
 66
  1
 70
  1
 62
  0
  0
VERTEX
  8
LAYER-1
 10
0.145784
 20
5.141857
 30
0.000000
  0
VERTEX
  8
LAYER-1
 10
0.162300
 20
5.141857
 30
0.000000
  0
VERTEX
  8
LAYER-1
 10
0.162300
 20
3.443065
 30
0.000000
  0
VERTEX
  8
LAYER-1
 10
0.145784
 20
3.443065
 30
0.000000
  0
SEQEND
  8
LAYER-1
  0
POLYLINE
  8
LAYER-1
 66
  1
 70
  1
 62
  0
  0
VERTEX
  8
LAYER-1
 10
0.162300
 20
5.141857
 30
0.000000
  0
VERTEX
  8
LAYER-1
 10
0.179704
 20
5.141857
 30
0.000000
  0
VERTEX
  8
LAYER-1
 10
0.179704
 20
3.443020
 30
0.000000
  0
VERTEX
  8
LAYER-1
 10
0.162300
 20
3.443020
 30
0.000000
  0
SEQEND
  8
LAYER-1
  0
LINE
  8
LAYER-1
 62
  0
 10
0.049162
 20
4.387534
 30
0.000000
 11
0.111328
 21
4.520284
 31
0.000000
  0
LINE
  8
LAYER-1
 62
  0
 10
0.070970
 20
4.377322
 30
0.000000
 11
0.133135
 21
4.510071
 31
0.000000
  0
LINE
  8
LAYER-1
 62
  0
 10
0.049162
 20
4.836881
 30
0.000000
 11
0.111328
 21
4.969629
 31
0.000000
  0
LINE
  8
LAYER-1
 62
  0
 10
0.070970
 20
4.826669
 30
0.000000
 11
0.133135
 21
4.959416
 31
0.000000
  0
LINE
  8
LAYER-1
 62
  0
 10
0.197572
 20
4.387534
 30
0.000000
 11
0.259738
 21
4.520284
 31
0.000000
  0
LINE
  8
LAYER-1
 62
  0
 10
0.219380
 20
4.377322
 30
0.000000
 11
0.281545
 21
4.510071
 31
0.000000
  0
LINE
  8
LAYER-1
 62
  0
 10
0.197572
 20
4.836881
 30
0.000000
 11
0.259738
 21
4.969629
 31
0.000000
  0
LINE
  8
LAYER-1
 62
  0
 10
0.219380
 20
4.826669
 30
0.000000
 11
0.281545
 21
4.959416
 31
0.000000
  0
LINE
  8
LAYER-1
 62
  0
 10
0.345979
 20
4.387534
 30
0.000000
 11
0.408145
 21
4.520284
 31
0.000000
  0
LINE
  8
LAYER-1
 62
  0
 10
0.367786
 20
4.377322
 30
0.000000
 11
0.429953
 21
4.510071
 31
0.000000
  0
LINE
  8
LAYER-1
 62
  0
 10
0.345979
 20
4.836881
 30
0.000000
 11
0.408145
 21
4.969629
 31
0.000000
  0
LINE
  8
LAYER-1
 62
  0
 10
0.367786
 20
4.826669
 30
0.000000
 11
0.429953
 21
4.959416
 31
0.000000
  0
LINE
  8
LAYER-1
 62
  0
 10
0.494388
 20
4.387534
 30
0.000000
 11
0.556554
 21
4.520284
 31
0.000000
  0
LINE
  8
LAYER-1
 62
  0
 10
0.516196
 20
4.377322
 30
0.000000
 11
0.578361
 21
4.510071
 31
0.000000
  0
LINE
  8
LAYER-1
 62
  0
 10
0.494388
 20
4.836881
 30
0.000000
 11
0.556554
 21
4.969629
 31
0.000000
  0
LINE
  8
LAYER-1
 62
  0
 10
0.516196
 20
4.826669
 30
0.000000
 11
0.578361
 21
4.959416
 31
0.000000
  0
LINE
  8
LAYER-1
 62
  0
 10
0.642797
 20
4.387534
 30
0.000000
 11
0.704964
 21
4.520284
 31
0.000000
  0
LINE
  8
LAYER-1
 62
  0
 10
0.664605
 20
4.377322
 30
0.000000
 11
0.726771
 21
4.510071
 31
0.000000
  0
LINE
  8
LAYER-1
 62
  0
 10
0.642797
 20
4.836881
 30
0.000000
 11
0.704964
 21
4.969629
 31
0.000000
  0
LINE
  8
LAYER-1
 62
  0
 10
0.664605
 20
4.826669
 30
0.000000
 11
0.726771
 21
4.959416
 31
0.000000
  0
LINE
  8
LAYER-1
 62
  0
 10
0.791207
 20
4.387534
 30
0.000000
 11
0.853372
 21
4.520284
 31
0.000000
  0
LINE
  8
LAYER-1
 62
  0
 10
0.813014
 20
4.377322
 30
0.000000
 11
0.875180
 21
4.510071
 31
0.000000
  0
LINE
  8
LAYER-1
 62
  0
 10
0.791207
 20
4.836881
 30
0.000000
 11
0.853372
 21
4.969629
 31
0.000000
  0
LINE
  8
LAYER-1
 62
  0
 10
0.813014
 20
4.826669
 30
0.000000
 11
0.875180
 21
4.959416
 31
0.000000
  0
LINE
  8
LAYER-1
 62
  0
 10
0.939615
 20
4.387534
 30
0.000000
 11
1.001780
 21
4.520284
 31
0.000000
  0
LINE
  8
LAYER-1
 62
  0
 10
0.961422
 20
4.377322
 30
0.000000
 11
1.023587
 21
4.510071
 31
0.000000
  0
LINE
  8
LAYER-1
 62
  0
 10
0.939615
 20
4.836881
 30
0.000000
 11
1.001780
 21
4.969629
 31
0.000000
  0
LINE
  8
LAYER-1
 62
  0
 10
0.961422
 20
4.826669
 30
0.000000
 11
1.023587
 21
4.959416
 31
0.000000
  0
LINE
  8
LAYER-1
 62
  0
 10
0.049162
 20
4.061653
 30
0.000000
 11
0.111328
 21
4.194401
 31
0.000000
  0
LINE
  8
LAYER-1
 62
  0
 10
0.070970
 20
4.051441
 30
0.000000
 11
0.133135
 21
4.184188
 31
0.000000
  0
LINE
  8
LAYER-1
 62
  0
 10
0.046770
 20
3.626616
 30
0.000000
 11
0.108938
 21
3.759366
 31
0.000000
  0
LINE
  8
LAYER-1
 62
  0
 10
0.068577
 20
3.616404
 30
0.000000
 11
0.130745
 21
3.749153
 31
0.000000
  0
LINE
  8
LAYER-1
 62
  0
 10
0.197572
 20
4.061653
 30
0.000000
 11
0.259738
 21
4.194401
 31
0.000000
  0
LINE
  8
LAYER-1
 62
  0
 10
0.219380
 20
4.051441
 30
0.000000
 11
0.281545
 21
4.184188
 31
0.000000
  0
LINE
  8
LAYER-1
 62
  0
 10
0.195181
 20
3.626616
 30
0.000000
 11
0.257345
 21
3.759366
 31
0.000000
  0
LINE
  8
LAYER-1
 62
  0
 10
0.216988
 20
3.616404
 30
0.000000
 11
0.279153
 21
3.749153
 31
0.000000
  0
LINE
  8
LAYER-1
 62
  0
 10
0.345979
 20
4.061653
 30
0.000000
 11
0.408145
 21
4.194401
 31
0.000000
  0
LINE
  8
LAYER-1
 62
  0
 10
0.367786
 20
4.051441
 30
0.000000
 11
0.429953
 21
4.184188
 31
0.000000
  0
LINE
  8
LAYER-1
 62
  0
 10
0.343588
 20
3.626616
 30
0.000000
 11
0.405756
 21
3.759366
 31
0.000000
  0
LINE
  8
LAYER-1
 62
  0
 10
0.365396
 20
3.616404
 30
0.000000
 11
0.427563
 21
3.749153
 31
0.000000
  0
LINE
  8
LAYER-1
 62
  0
 10
0.494388
 20
4.061653
 30
0.000000
 11
0.556554
 21
4.194401
 31
0.000000
  0
LINE
  8
LAYER-1
 62
  0
 10
0.516196
 20
4.051441
 30
0.000000
 11
0.578361
 21
4.184188
 31
0.000000
  0
LINE
  8
LAYER-1
 62
  0
 10
0.491998
 20
3.626616
 30
0.000000
 11
0.554164
 21
3.759366
 31
0.000000
  0
LINE
  8
LAYER-1
 62
  0
 10
0.513805
 20
3.616404
 30
0.000000
 11
0.575971
 21
3.749153
 31
0.000000
  0
LINE
  8
LAYER-1
 62
  0
 10
0.642797
 20
4.061653
 30
0.000000
 11
0.704964
 21
4.194401
 31
0.000000
  0
LINE
  8
LAYER-1
 62
  0
 10
0.664605
 20
4.051441
 30
0.000000
 11
0.726771
 21
4.184188
 31
0.000000
  0
LINE
  8
LAYER-1
 62
  0
 10
0.640407
 20
3.626616
 30
0.000000
 11
0.702572
 21
3.759366
 31
0.000000
  0
LINE
  8
LAYER-1
 62
  0
 10
0.662214
 20
3.616404
 30
0.000000
 11
0.724380
 21
3.749153
 31
0.000000
  0
LINE
  8
LAYER-1
 62
  0
 10
0.791207
 20
4.061653
 30
0.000000
 11
0.853372
 21
4.194401
 31
0.000000
  0
LINE
  8
LAYER-1
 62
  0
 10
0.813014
 20
4.051441
 30
0.000000
 11
0.875180
 21
4.184188
 31
0.000000
  0
LINE
  8
LAYER-1
 62
  0
 10
0.788814
 20
3.626616
 30
0.000000
 11
0.850980
 21
3.759366
 31
0.000000
  0
LINE
  8
LAYER-1
 62
  0
 10
0.810622
 20
3.616404
 30
0.000000
 11
0.872787
 21
3.749153
 31
0.000000
  0
LINE
  8
LAYER-1
 62
  0
 10
0.939615
 20
4.061653
 30
0.000000
 11
1.001780
 21
4.194401
 31
0.000000
  0
LINE
  8
LAYER-1
 62
  0
 10
0.961422
 20
4.051441
 30
0.000000
 11
1.023587
 21
4.184188
 31
0.000000
  0
LINE
  8
LAYER-1
 62
  0
 10
0.937225
 20
3.626616
 30
0.000000
 11
0.999390
 21
3.759366
 31
0.000000
  0
LINE
  8
LAYER-1
 62
  0
 10
0.959032
 20
3.616404
 30
0.000000
 11
1.021198
 21
3.749153
 31
0.000000
  0
TEXT
  8
LAYER-1
 62
  0
 10
0.240411
 20
3.234487
 30
0.000000
 40
0.104167
  1
ROYAL
 72
  5
 11
0.795967
 21
3.234487
 31
0.000000
  0
TEXT
  8
LAYER-1
 62
  0
 10
0.795967
 20
3.234487
 30
0.000000
 40
0.104167
  1
 
 72
  5
 11
0.907078
 21
3.234487
 31
0.000000
  0
TEXT
  8
LAYER-1
 62
  0
 10
0.157078
 20
3.151154
 30
0.000000
 40
0.083333
  1
(Verre TrempÄ)
 72
  5
 11
0.976523
 21
3.151154
 31
0.000000
  0
POLYLINE
  8
LAYER-1
 66
  1
 70
  1
 62
  0
  0
VERTEX
  8
LAYER-1
 10
0.013889
 20
5.141857
 30
0.000000
  0
VERTEX
  8
LAYER-1
 10
0.031375
 20
5.141857
 30
0.000000
  0
VERTEX
  8
LAYER-1
 10
0.031375
 20
3.443020
 30
0.000000
  0
VERTEX
  8
LAYER-1
 10
0.013889
 20
3.443020
 30
0.000000
  0
SEQEND
  8
LAYER-1
  0
POLYLINE
  8
LAYER-1
 66
  1
 70
  1
 62
  0
  0
VERTEX
  8
LAYER-1
 10
1.036183
 20
5.141857
 30
0.000000
  0
VERTEX
  8
LAYER-1
 10
1.053577
 20
5.141857
 30
0.000000
  0
VERTEX
  8
LAYER-1
 10
1.053577
 20
3.443065
 30
0.000000
  0
VERTEX
  8
LAYER-1
 10
1.036183
 20
3.443065
 30
0.000000
  0
SEQEND
  8
LAYER-1
  0
POLYLINE
  8
LAYER-1
 66
  1
 70
  1
 62
  0
  0
VERTEX
  8
LAYER-1
 10
0.031297
 20
4.303931
 30
0.000000
  0
VERTEX
  8
LAYER-1
 10
0.145564
 20
4.303931
 30
0.000000
  0
VERTEX
  8
LAYER-1
 10
0.145564
 20
4.279150
 30
0.000000
  0
VERTEX
  8
LAYER-1
 10
0.031297
 20
4.279150
 30
0.000000
  0
SEQEND
  8
LAYER-1
  0
POLYLINE
  8
LAYER-1
 66
  1
 70
  1
 62
  0
  0
VERTEX
  8
LAYER-1
 10
0.179705
 20
4.303931
 30
0.000000
  0
VERTEX
  8
LAYER-1
 10
0.294769
 20
4.303931
 30
0.000000
  0
VERTEX
  8
LAYER-1
 10
0.294769
 20
4.279150
 30
0.000000
  0
VERTEX
  8
LAYER-1
 10
0.179705
 20
4.279150
 30
0.000000
  0
SEQEND
  8
LAYER-1
  0
POLYLINE
  8
LAYER-1
 66
  1
 70
  1
 62
  0
  0
VERTEX
  8
LAYER-1
 10
0.328115
 20
4.303931
 30
0.000000
  0
VERTEX
  8
LAYER-1
 10
0.442383
 20
4.303931
 30
0.000000
  0
VERTEX
  8
LAYER-1
 10
0.442383
 20
4.279150
 30
0.000000
  0
VERTEX
  8
LAYER-1
 10
0.328115
 20
4.279150
 30
0.000000
  0
SEQEND
  8
LAYER-1
  0
POLYLINE
  8
LAYER-1
 66
  1
 70
  1
 62
  0
  0
VERTEX
  8
LAYER-1
 10
0.476523
 20
4.303931
 30
0.000000
  0
VERTEX
  8
LAYER-1
 10
0.590791
 20
4.303931
 30
0.000000
  0
VERTEX
  8
LAYER-1
 10
0.590791
 20
4.279150
 30
0.000000
  0
VERTEX
  8
LAYER-1
 10
0.476523
 20
4.279150
 30
0.000000
  0
SEQEND
  8
LAYER-1
  0
POLYLINE
  8
LAYER-1
 66
  1
 70
  1
 62
  0
  0
VERTEX
  8
LAYER-1
 10
0.624934
 20
4.303931
 30
0.000000
  0
VERTEX
  8
LAYER-1
 10
0.739201
 20
4.303931
 30
0.000000
  0
VERTEX
  8
LAYER-1
 10
0.739201
 20
4.279150
 30
0.000000
  0
VERTEX
  8
LAYER-1
 10
0.624934
 20
4.279150
 30
0.000000
  0
SEQEND
  8
LAYER-1
  0
POLYLINE
  8
LAYER-1
 66
  1
 70
  1
 62
  0
  0
VERTEX
  8
LAYER-1
 10
0.773341
 20
4.303931
 30
0.000000
  0
VERTEX
  8
LAYER-1
 10
0.888406
 20
4.303931
 30
0.000000
  0
VERTEX
  8
LAYER-1
 10
0.888406
 20
4.279150
 30
0.000000
  0
VERTEX
  8
LAYER-1
 10
0.773341
 20
4.279150
 30
0.000000
  0
SEQEND
  8
LAYER-1
  0
POLYLINE
  8
LAYER-1
 66
  1
 70
  1
 62
  0
  0
VERTEX
  8
LAYER-1
 10
0.921750
 20
4.303931
 30
0.000000
  0
VERTEX
  8
LAYER-1
 10
1.036017
 20
4.303931
 30
0.000000
  0
VERTEX
  8
LAYER-1
 10
1.036017
 20
4.279150
 30
0.000000
  0
VERTEX
  8
LAYER-1
 10
0.921750
 20
4.279150
 30
0.000000
  0
SEQEND
  8
LAYER-1
  0
POLYLINE
  8
LAYER-1
 66
  1
 70
  0
 62
  7
 10
0.031375
 20
5.141857
 30
0.000000
  0
VERTEX
  8
LAYER-1
 10
0.031375
 20
5.141857
 30
0.000000
  0
VERTEX
  8
LAYER-1
 10
0.031375
 20
5.038202
 30
0.000000
  0
SEQEND
  8
LAYER-1
  0
POLYLINE
  8
LAYER-1
 66
  1
 70
  0
 62
  7
 10
0.145784
 20
5.141857
 30
0.000000
  0
VERTEX
  8
LAYER-1
 10
0.145784
 20
5.141857
 30
0.000000
  0
VERTEX
  8
LAYER-1
 10
0.145784
 20
5.038202
 30
0.000000
  0
SEQEND
  8
LAYER-1
  0
POLYLINE
  8
LAYER-1
 66
  1
 70
  0
 62
  7
 10
0.179704
 20
5.141857
 30
0.000000
  0
VERTEX
  8
LAYER-1
 10
0.179704
 20
5.141857
 30
0.000000
  0
VERTEX
  8
LAYER-1
 10
0.179704
 20
5.038202
 30
0.000000
  0
SEQEND
  8
LAYER-1
  0
POLYLINE
  8
LAYER-1
 66
  1
 70
  0
 62
  7
 10
0.294257
 20
5.141857
 30
0.000000
  0
VERTEX
  8
LAYER-1
 10
0.294257
 20
5.141857
 30
0.000000
  0
VERTEX
  8
LAYER-1
 10
0.294257
 20
5.038202
 30
0.000000
  0
SEQEND
  8
LAYER-1
  0
POLYLINE
  8
LAYER-1
 66
  1
 70
  0
 62
  7
 10
0.328176
 20
5.141857
 30
0.000000
  0
VERTEX
  8
LAYER-1
 10
0.328176
 20
5.141857
 30
0.000000
  0
VERTEX
  8
LAYER-1
 10
0.328176
 20
5.038202
 30
0.000000
  0
SEQEND
  8
LAYER-1
  0
POLYLINE
  8
LAYER-1
 66
  1
 70
  0
 62
  7
 10
0.442583
 20
5.141857
 30
0.000000
  0
VERTEX
  8
LAYER-1
 10
0.442583
 20
5.141857
 30
0.000000
  0
VERTEX
  8
LAYER-1
 10
0.442583
 20
5.038202
 30
0.000000
  0
SEQEND
  8
LAYER-1
  0
POLYLINE
  8
LAYER-1
 66
  1
 70
  0
 62
  7
 10
0.476503
 20
5.141857
 30
0.000000
  0
VERTEX
  8
LAYER-1
 10
0.476503
 20
5.141857
 30
0.000000
  0
VERTEX
  8
LAYER-1
 10
0.476503
 20
5.038202
 30
0.000000
  0
SEQEND
  8
LAYER-1
  0
POLYLINE
  8
LAYER-1
 66
  1
 70
  0
 62
  7
 10
0.590910
 20
5.141857
 30
0.000000
  0
VERTEX
  8
LAYER-1
 10
0.590910
 20
5.141857
 30
0.000000
  0
VERTEX
  8
LAYER-1
 10
0.590910
 20
5.038202
 30
0.000000
  0
SEQEND
  8
LAYER-1
  0
POLYLINE
  8
LAYER-1
 66
  1
 70
  0
 62
  7
 10
0.624975
 20
5.141857
 30
0.000000
  0
VERTEX
  8
LAYER-1
 10
0.624975
 20
5.141857
 30
0.000000
  0
VERTEX
  8
LAYER-1
 10
0.624975
 20
5.038202
 30
0.000000
  0
SEQEND
  8
LAYER-1
  0
POLYLINE
  8
LAYER-1
 66
  1
 70
  0
 62
  7
 10
0.739382
 20
5.141857
 30
0.000000
  0
VERTEX
  8
LAYER-1
 10
0.739382
 20
5.141857
 30
0.000000
  0
VERTEX
  8
LAYER-1
 10
0.739382
 20
5.038202
 30
0.000000
  0
SEQEND
  8
LAYER-1
  0
POLYLINE
  8
LAYER-1
 66
  1
 70
  0
 62
  7
 10
0.773447
 20
5.141857
 30
0.000000
  0
VERTEX
  8
LAYER-1
 10
0.773447
 20
5.141857
 30
0.000000
  0
VERTEX
  8
LAYER-1
 10
0.773447
 20
5.038202
 30
0.000000
  0
SEQEND
  8
LAYER-1
  0
POLYLINE
  8
LAYER-1
 66
  1
 70
  0
 62
  7
 10
0.887854
 20
5.141857
 30
0.000000
  0
VERTEX
  8
LAYER-1
 10
0.887854
 20
5.141857
 30
0.000000
  0
VERTEX
  8
LAYER-1
 10
0.887854
 20
5.038202
 30
0.000000
  0
SEQEND
  8
LAYER-1
  0
POLYLINE
  8
LAYER-1
 66
  1
 70
  0
 62
  7
 10
0.921047
 20
5.141857
 30
0.000000
  0
VERTEX
  8
LAYER-1
 10
0.921047
 20
5.141857
 30
0.000000
  0
VERTEX
  8
LAYER-1
 10
0.921047
 20
5.038202
 30
0.000000
  0
SEQEND
  8
LAYER-1
  0
POLYLINE
  8
LAYER-1
 66
  1
 70
  0
 62
  7
 10
1.036183
 20
5.141857
 30
0.000000
  0
VERTEX
  8
LAYER-1
 10
1.036183
 20
5.141857
 30
0.000000
  0
VERTEX
  8
LAYER-1
 10
1.036183
 20
5.038202
 30
0.000000
  0
SEQEND
  8
LAYER-1
  0
POLYLINE
  8
LAYER-1
 66
  1
 70
  0
 62
  7
 10
0.031297
 20
4.303931
 30
0.000000
  0
VERTEX
  8
LAYER-1
 10
0.031297
 20
4.303931
 30
0.000000
  0
VERTEX
  8
LAYER-1
 10
0.031297
 20
4.279150
 30
0.000000
  0
SEQEND
  8
LAYER-1
  0
POLYLINE
  8
LAYER-1
 66
  1
 70
  0
 62
  7
 10
0.145564
 20
4.303931
 30
0.000000
  0
VERTEX
  8
LAYER-1
 10
0.145564
 20
4.303931
 30
0.000000
  0
VERTEX
  8
LAYER-1
 10
0.145564
 20
4.279150
 30
0.000000
  0
SEQEND
  8
LAYER-1
  0
POLYLINE
  8
LAYER-1
 66
  1
 70
  0
 62
  7
 10
0.179705
 20
4.303931
 30
0.000000
  0
VERTEX
  8
LAYER-1
 10
0.179705
 20
4.303931
 30
0.000000
  0
VERTEX
  8
LAYER-1
 10
0.179705
 20
4.279150
 30
0.000000
  0
SEQEND
  8
LAYER-1
  0
POLYLINE
  8
LAYER-1
 66
  1
 70
  0
 62
  7
 10
0.294769
 20
4.303931
 30
0.000000
  0
VERTEX
  8
LAYER-1
 10
0.294769
 20
4.303931
 30
0.000000
  0
VERTEX
  8
LAYER-1
 10
0.294769
 20
4.279150
 30
0.000000
  0
SEQEND
  8
LAYER-1
  0
POLYLINE
  8
LAYER-1
 66
  1
 70
  0
 62
  7
 10
0.328115
 20
4.303931
 30
0.000000
  0
VERTEX
  8
LAYER-1
 10
0.328115
 20
4.303931
 30
0.000000
  0
VERTEX
  8
LAYER-1
 10
0.328115
 20
4.279150
 30
0.000000
  0
SEQEND
  8
LAYER-1
  0
POLYLINE
  8
LAYER-1
 66
  1
 70
  0
 62
  7
 10
0.442383
 20
4.303931
 30
0.000000
  0
VERTEX
  8
LAYER-1
 10
0.442383
 20
4.303931
 30
0.000000
  0
VERTEX
  8
LAYER-1
 10
0.442383
 20
4.279150
 30
0.000000
  0
SEQEND
  8
LAYER-1
  0
POLYLINE
  8
LAYER-1
 66
  1
 70
  0
 62
  7
 10
0.476523
 20
4.303931
 30
0.000000
  0
VERTEX
  8
LAYER-1
 10
0.476523
 20
4.303931
 30
0.000000
  0
VERTEX
  8
LAYER-1
 10
0.476523
 20
4.279150
 30
0.000000
  0
SEQEND
  8
LAYER-1
  0
POLYLINE
  8
LAYER-1
 66
  1
 70
  0
 62
  7
 10
0.590791
 20
4.303931
 30
0.000000
  0
VERTEX
  8
LAYER-1
 10
0.590791
 20
4.303931
 30
0.000000
  0
VERTEX
  8
LAYER-1
 10
0.590791
 20
4.279150
 30
0.000000
  0
SEQEND
  8
LAYER-1
  0
POLYLINE
  8
LAYER-1
 66
  1
 70
  0
 62
  7
 10
0.624934
 20
4.303931
 30
0.000000
  0
VERTEX
  8
LAYER-1
 10
0.624934
 20
4.303931
 30
0.000000
  0
VERTEX
  8
LAYER-1
 10
0.624934
 20
4.279150
 30
0.000000
  0
SEQEND
  8
LAYER-1
  0
POLYLINE
  8
LAYER-1
 66
  1
 70
  0
 62
  7
 10
0.739201
 20
4.303931
 30
0.000000
  0
VERTEX
  8
LAYER-1
 10
0.739201
 20
4.303931
 30
0.000000
  0
VERTEX
  8
LAYER-1
 10
0.739201
 20
4.279150
 30
0.000000
  0
SEQEND
  8
LAYER-1
  0
POLYLINE
  8
LAYER-1
 66
  1
 70
  0
 62
  7
 10
0.773341
 20
4.303931
 30
0.000000
  0
VERTEX
  8
LAYER-1
 10
0.773341
 20
4.303931
 30
0.000000
  0
VERTEX
  8
LAYER-1
 10
0.773341
 20
4.279150
 30
0.000000
  0
SEQEND
  8
LAYER-1
  0
POLYLINE
  8
LAYER-1
 66
  1
 70
  0
 62
  7
 10
0.888406
 20
4.303931
 30
0.000000
  0
VERTEX
  8
LAYER-1
 10
0.888406
 20
4.303931
 30
0.000000
  0
VERTEX
  8
LAYER-1
 10
0.888406
 20
4.279150
 30
0.000000
  0
SEQEND
  8
LAYER-1
  0
POLYLINE
  8
LAYER-1
 66
  1
 70
  0
 62
  7
 10
0.921750
 20
4.303931
 30
0.000000
  0
VERTEX
  8
LAYER-1
 10
0.921750
 20
4.303931
 30
0.000000
  0
VERTEX
  8
LAYER-1
 10
0.921750
 20
4.279150
 30
0.000000
  0
SEQEND
  8
LAYER-1
  0
POLYLINE
  8
LAYER-1
 66
  1
 70
  0
 62
  7
 10
1.036017
 20
4.303931
 30
0.000000
  0
VERTEX
  8
LAYER-1
 10
1.036017
 20
4.303931
 30
0.000000
  0
VERTEX
  8
LAYER-1
 10
1.036017
 20
4.279150
 30
0.000000
  0
SEQEND
  8
LAYER-1
  0
POLYLINE
  8
LAYER-1
 66
  1
 70
  0
 62
  7
 10
0.031375
 20
3.546674
 30
0.000000
  0
VERTEX
  8
LAYER-1
 10
0.031375
 20
3.546674
 30
0.000000
  0
VERTEX
  8
LAYER-1
 10
0.031375
 20
3.443020
 30
0.000000
  0
SEQEND
  8
LAYER-1
  0
POLYLINE
  8
LAYER-1
 66
  1
 70
  0
 62
  7
 10
0.145716
 20
3.546674
 30
0.000000
  0
VERTEX
  8
LAYER-1
 10
0.145716
 20
3.546674
 30
0.000000
  0
VERTEX
  8
LAYER-1
 10
0.145716
 20
3.443065
 30
0.000000
  0
SEQEND
  8
LAYER-1
  0
POLYLINE
  8
LAYER-1
 66
  1
 70
  0
 62
  7
 10
0.179704
 20
3.546674
 30
0.000000
  0
VERTEX
  8
LAYER-1
 10
0.179704
 20
3.546674
 30
0.000000
  0
VERTEX
  8
LAYER-1
 10
0.179704
 20
3.443020
 30
0.000000
  0
SEQEND
  8
LAYER-1
  0
POLYLINE
  8
LAYER-1
 66
  1
 70
  0
 62
  7
 10
0.294334
 20
3.546674
 30
0.000000
  0
VERTEX
  8
LAYER-1
 10
0.294334
 20
3.546674
 30
0.000000
  0
VERTEX
  8
LAYER-1
 10
0.294334
 20
3.443065
 30
0.000000
  0
SEQEND
  8
LAYER-1
  0
POLYLINE
  8
LAYER-1
 66
  1
 70
  0
 62
  7
 10
0.328176
 20
3.546674
 30
0.000000
  0
VERTEX
  8
LAYER-1
 10
0.328176
 20
3.546674
 30
0.000000
  0
VERTEX
  8
LAYER-1
 10
0.328176
 20
3.443342
 30
0.000000
  0
SEQEND
  8
LAYER-1
  0
POLYLINE
  8
LAYER-1
 66
  1
 70
  0
 62
  7
 10
0.442515
 20
3.546674
 30
0.000000
  0
VERTEX
  8
LAYER-1
 10
0.442515
 20
3.546674
 30
0.000000
  0
VERTEX
  8
LAYER-1
 10
0.442515
 20
3.443065
 30
0.000000
  0
SEQEND
  8
LAYER-1
  0
POLYLINE
  8
LAYER-1
 66
  1
 70
  0
 62
  7
 10
0.476503
 20
3.546674
 30
0.000000
  0
VERTEX
  8
LAYER-1
 10
0.476503
 20
3.546674
 30
0.000000
  0
VERTEX
  8
LAYER-1
 10
0.476503
 20
3.443020
 30
0.000000
  0
SEQEND
  8
LAYER-1
  0
POLYLINE
  8
LAYER-1
 66
  1
 70
  0
 62
  7
 10
0.590987
 20
3.546674
 30
0.000000
  0
VERTEX
  8
LAYER-1
 10
0.590987
 20
3.546674
 30
0.000000
  0
VERTEX
  8
LAYER-1
 10
0.590987
 20
3.443065
 30
0.000000
  0
SEQEND
  8
LAYER-1
  0
POLYLINE
  8
LAYER-1
 66
  1
 70
  0
 62
  7
 10
0.624975
 20
3.546674
 30
0.000000
  0
VERTEX
  8
LAYER-1
 10
0.624975
 20
3.546674
 30
0.000000
  0
VERTEX
  8
LAYER-1
 10
0.624975
 20
3.443020
 30
0.000000
  0
SEQEND
  8
LAYER-1
  0
POLYLINE
  8
LAYER-1
 66
  1
 70
  0
 62
  7
 10
0.739314
 20
3.546674
 30
0.000000
  0
VERTEX
  8
LAYER-1
 10
0.739314
 20
3.546674
 30
0.000000
  0
VERTEX
  8
LAYER-1
 10
0.739314
 20
3.443342
 30
0.000000
  0
SEQEND
  8
LAYER-1
  0
POLYLINE
  8
LAYER-1
 66
  1
 70
  0
 62
  7
 10
0.773447
 20
3.546674
 30
0.000000
  0
VERTEX
  8
LAYER-1
 10
0.773447
 20
3.546674
 30
0.000000
  0
VERTEX
  8
LAYER-1
 10
0.773447
 20
3.443020
 30
0.000000
  0
SEQEND
  8
LAYER-1
  0
POLYLINE
  8
LAYER-1
 66
  1
 70
  0
 62
  7
 10
0.887788
 20
3.546674
 30
0.000000
  0
VERTEX
  8
LAYER-1
 10
0.887788
 20
3.546674
 30
0.000000
  0
VERTEX
  8
LAYER-1
 10
0.887788
 20
3.443065
 30
0.000000
  0
SEQEND
  8
LAYER-1
  0
POLYLINE
  8
LAYER-1
 66
  1
 70
  0
 62
  7
 10
0.921774
 20
3.546674
 30
0.000000
  0
VERTEX
  8
LAYER-1
 10
0.921774
 20
3.546674
 30
0.000000
  0
VERTEX
  8
LAYER-1
 10
0.921774
 20
3.443020
 30
0.000000
  0
SEQEND
  8
LAYER-1
  0
POLYLINE
  8
LAYER-1
 66
  1
 70
  0
 62
  7
 10
1.036261
 20
3.546674
 30
0.000000
  0
VERTEX
  8
LAYER-1
 10
1.036261
 20
3.546674
 30
0.000000
  0
VERTEX
  8
LAYER-1
 10
1.036261
 20
3.443065
 30
0.000000
  0
SEQEND
  8
LAYER-1
  0
POLYLINE
  8
LAYER-1
 66
  1
 70
  0
 62
  7
 10
0.162300
 20
5.141857
 30
0.000000
  0
VERTEX
  8
LAYER-1
 10
0.162300
 20
5.141857
 30
0.000000
  0
VERTEX
  8
LAYER-1
 10
0.162300
 20
3.443020
 30
0.000000
  0
SEQEND
  8
LAYER-1
  0
POLYLINE
  8
LAYER-1
 66
  1
 70
  0
 62
  7
 10
0.310707
 20
5.141857
 30
0.000000
  0
VERTEX
  8
LAYER-1
 10
0.310707
 20
5.141857
 30
0.000000
  0
VERTEX
  8
LAYER-1
 10
0.310707
 20
3.443020
 30
0.000000
  0
SEQEND
  8
LAYER-1
  0
POLYLINE
  8
LAYER-1
 66
  1
 70
  0
 62
  7
 10
0.459116
 20
5.141857
 30
0.000000
  0
VERTEX
  8
LAYER-1
 10
0.459116
 20
5.141857
 30
0.000000
  0
VERTEX
  8
LAYER-1
 10
0.459116
 20
3.443020
 30
0.000000
  0
SEQEND
  8
LAYER-1
  0
POLYLINE
  8
LAYER-1
 66
  1
 70
  0
 62
  7
 10
0.607526
 20
5.141857
 30
0.000000
  0
VERTEX
  8
LAYER-1
 10
0.607526
 20
5.141857
 30
0.000000
  0
VERTEX
  8
LAYER-1
 10
0.607526
 20
3.443020
 30
0.000000
  0
SEQEND
  8
LAYER-1
  0
POLYLINE
  8
LAYER-1
 66
  1
 70
  0
 62
  7
 10
0.755934
 20
5.141857
 30
0.000000
  0
VERTEX
  8
LAYER-1
 10
0.755934
 20
5.141857
 30
0.000000
  0
VERTEX
  8
LAYER-1
 10
0.755934
 20
3.443020
 30
0.000000
  0
SEQEND
  8
LAYER-1
  0
POLYLINE
  8
LAYER-1
 66
  1
 70
  0
 62
  7
 10
0.904344
 20
5.141857
 30
0.000000
  0
VERTEX
  8
LAYER-1
 10
0.904344
 20
5.141857
 30
0.000000
  0
VERTEX
  8
LAYER-1
 10
0.904344
 20
3.443020
 30
0.000000
  0
SEQEND
  8
LAYER-1
  0
POLYLINE
  8
LAYER-1
 66
  1
 70
  0
 62
  0
 10
0.031375
 20
5.038202
 30
0.000000
  0
VERTEX
  8
LAYER-1
 10
0.031375
 20
5.038202
 30
0.000000
  0
VERTEX
  8
LAYER-1
 10
0.145784
 20
5.038202
 30
0.000000
  0
SEQEND
  8
LAYER-1
  0
POLYLINE
  8
LAYER-1
 66
  1
 70
  0
 62
  0
 10
0.179704
 20
5.038202
 30
0.000000
  0
VERTEX
  8
LAYER-1
 10
0.179704
 20
5.038202
 30
0.000000
  0
VERTEX
  8
LAYER-1
 10
0.294257
 20
5.038202
 30
0.000000
  0
SEQEND
  8
LAYER-1
  0
POLYLINE
  8
LAYER-1
 66
  1
 70
  0
 62
  0
 10
0.328176
 20
5.038202
 30
0.000000
  0
VERTEX
  8
LAYER-1
 10
0.328176
 20
5.038202
 30
0.000000
  0
VERTEX
  8
LAYER-1
 10
0.442583
 20
5.038202
 30
0.000000
  0
SEQEND
  8
LAYER-1
  0
POLYLINE
  8
LAYER-1
 66
  1
 70
  0
 62
  0
 10
0.476503
 20
5.038202
 30
0.000000
  0
VERTEX
  8
LAYER-1
 10
0.476503
 20
5.038202
 30
0.000000
  0
VERTEX
  8
LAYER-1
 10
0.590910
 20
5.038202
 30
0.000000
  0
SEQEND
  8
LAYER-1
  0
POLYLINE
  8
LAYER-1
 66
  1
 70
  0
 62
  0
 10
0.624975
 20
5.038202
 30
0.000000
  0
VERTEX
  8
LAYER-1
 10
0.624975
 20
5.038202
 30
0.000000
  0
VERTEX
  8
LAYER-1
 10
0.739382
 20
5.038202
 30
0.000000
  0
SEQEND
  8
LAYER-1
  0
POLYLINE
  8
LAYER-1
 66
  1
 70
  0
 62
  0
 10
0.773447
 20
5.038202
 30
0.000000
  0
VERTEX
  8
LAYER-1
 10
0.773447
 20
5.038202
 30
0.000000
  0
VERTEX
  8
LAYER-1
 10
0.887854
 20
5.038202
 30
0.000000
  0
SEQEND
  8
LAYER-1
  0
POLYLINE
  8
LAYER-1
 66
  1
 70
  0
 62
  0
 10
0.921047
 20
5.038202
 30
0.000000
  0
VERTEX
  8
LAYER-1
 10
0.921047
 20
5.038202
 30
0.000000
  0
VERTEX
  8
LAYER-1
 10
1.036183
 20
5.038202
 30
0.000000
  0
SEQEND
  8
LAYER-1
  0
POLYLINE
  8
LAYER-1
 66
  1
 70
  0
 62
  0
 10
0.031375
 20
3.546674
 30
0.000000
  0
VERTEX
  8
LAYER-1
 10
0.031375
 20
3.546674
 30
0.000000
  0
VERTEX
  8
LAYER-1
 10
0.145716
 20
3.546674
 30
0.000000
  0
SEQEND
  8
LAYER-1
  0
POLYLINE
  8
LAYER-1
 66
  1
 70
  0
 62
  0
 10
0.179704
 20
3.546674
 30
0.000000
  0
VERTEX
  8
LAYER-1
 10
0.179704
 20
3.546674
 30
0.000000
  0
VERTEX
  8
LAYER-1
 10
0.294334
 20
3.546674
 30
0.000000
  0
SEQEND
  8
LAYER-1
  0
POLYLINE
  8
LAYER-1
 66
  1
 70
  0
 62
  0
 10
0.328176
 20
3.546674
 30
0.000000
  0
VERTEX
  8
LAYER-1
 10
0.328176
 20
3.546674
 30
0.000000
  0
VERTEX
  8
LAYER-1
 10
0.442515
 20
3.546674
 30
0.000000
  0
SEQEND
  8
LAYER-1
  0
POLYLINE
  8
LAYER-1
 66
  1
 70
  0
 62
  0
 10
0.476503
 20
3.546674
 30
0.000000
  0
VERTEX
  8
LAYER-1
 10
0.476503
 20
3.546674
 30
0.000000
  0
VERTEX
  8
LAYER-1
 10
0.590987
 20
3.546674
 30
0.000000
  0
SEQEND
  8
LAYER-1
  0
POLYLINE
  8
LAYER-1
 66
  1
 70
  0
 62
  0
 10
0.624975
 20
3.546674
 30
0.000000
  0
VERTEX
  8
LAYER-1
 10
0.624975
 20
3.546674
 30
0.000000
  0
VERTEX
  8
LAYER-1
 10
0.739314
 20
3.546674
 30
0.000000
  0
SEQEND
  8
LAYER-1
  0
POLYLINE
  8
LAYER-1
 66
  1
 70
  0
 62
  0
 10
0.773447
 20
3.546674
 30
0.000000
  0
VERTEX
  8
LAYER-1
 10
0.773447
 20
3.546674
 30
0.000000
  0
VERTEX
  8
LAYER-1
 10
0.887788
 20
3.546674
 30
0.000000
  0
SEQEND
  8
LAYER-1
  0
POLYLINE
  8
LAYER-1
 66
  1
 70
  0
 62
  0
 10
0.921774
 20
3.546674
 30
0.000000
  0
VERTEX
  8
LAYER-1
 10
0.921774
 20
3.546674
 30
0.000000
  0
VERTEX
  8
LAYER-1
 10
1.036261
 20
3.546674
 30
0.000000
  0
SEQEND
  8
LAYER-1
  0
POLYLINE
  8
LAYER-1
 66
  1
 70
  0
 62
  0
 10
0.013889
 20
3.443020
 30
0.000000
  0
VERTEX
  8
LAYER-1
 10
0.013889
 20
3.443020
 30
0.000000
  0
VERTEX
  8
LAYER-1
 10
1.053577
 20
3.443065
 30
0.000000
  0
SEQEND
  8
LAYER-1
  0
POLYLINE
  8
LAYER-1
 66
  1
 70
  0
 62
  0
 10
0.013889
 20
5.141857
 30
0.000000
  0
VERTEX
  8
LAYER-1
 10
0.013889
 20
5.141857
 30
0.000000
  0
VERTEX
  8
LAYER-1
 10
1.053577
 20
5.141857
 30
0.000000
  0
SEQEND
  8
LAYER-1
  0
POLYLINE
  8
LAYER-1
 66
  1
 70
  0
 62
  7
 10
0.230864
 20
5.139935
 30
0.000000
  0
VERTEX
  8
LAYER-1
 10
0.230864
 20
5.139935
 30
0.000000
  0
VERTEX
  8
LAYER-1
 10
0.230864
 20
5.036629
 30
0.000000
  0
SEQEND
  8
LAYER-1
  0
POLYLINE
  8
LAYER-1
 66
  1
 70
  0
 62
  7
 10
0.242783
 20
5.139935
 30
0.000000
  0
VERTEX
  8
LAYER-1
 10
0.242783
 20
5.139935
 30
0.000000
  0
VERTEX
  8
LAYER-1
 10
0.242783
 20
5.036629
 30
0.000000
  0
SEQEND
  8
LAYER-1
  0
POLYLINE
  8
LAYER-1
 66
  1
 70
  0
 62
  7
 10
0.528859
 20
5.141524
 30
0.000000
  0
VERTEX
  8
LAYER-1
 10
0.528859
 20
5.141524
 30
0.000000
  0
VERTEX
  8
LAYER-1
 10
0.528859
 20
5.038218
 30
0.000000
  0
SEQEND
  8
LAYER-1
  0
POLYLINE
  8
LAYER-1
 66
  1
 70
  0
 62
  7
 10
0.540778
 20
5.141524
 30
0.000000
  0
VERTEX
  8
LAYER-1
 10
0.540778
 20
5.141524
 30
0.000000
  0
VERTEX
  8
LAYER-1
 10
0.540778
 20
5.038218
 30
0.000000
  0
SEQEND
  8
LAYER-1
  0
POLYLINE
  8
LAYER-1
 66
  1
 70
  0
 62
  7
 10
0.826061
 20
5.139141
 30
0.000000
  0
VERTEX
  8
LAYER-1
 10
0.826061
 20
5.139141
 30
0.000000
  0
VERTEX
  8
LAYER-1
 10
0.826061
 20
5.035834
 30
0.000000
  0
SEQEND
  8
LAYER-1
  0
POLYLINE
  8
LAYER-1
 66
  1
 70
  0
 62
  7
 10
0.837980
 20
5.139141
 30
0.000000
  0
VERTEX
  8
LAYER-1
 10
0.837980
 20
5.139141
 30
0.000000
  0
VERTEX
  8
LAYER-1
 10
0.837980
 20
5.035834
 30
0.000000
  0
SEQEND
  8
LAYER-1
  0
POLYLINE
  8
LAYER-1
 66
  1
 70
  1
 62
  0
  0
VERTEX
  8
LAYER-1
 10
3.714956
 20
0.352427
 30
0.000000
  0
VERTEX
  8
LAYER-1
 10
3.748514
 20
0.352427
 30
0.000000
  0
VERTEX
  8
LAYER-1
 10
3.748514
 20
0.256922
 30
0.000000
  0
VERTEX
  8
LAYER-1
 10
3.714956
 20
0.256922
 30
0.000000
  0
SEQEND
  8
LAYER-1
  0
POLYLINE
  8
LAYER-1
 66
  1
 70
  0
 62
  0
 10
3.734997
 20
2.463383
 30
0.000000
  0
VERTEX
  8
LAYER-1
 10
3.734997
 20
2.463383
 30
0.000000
  0
VERTEX
  8
LAYER-1
 10
3.734998
 20
2.463383
 30
0.000000
  0
SEQEND
  8
LAYER-1
  0
POLYLINE
  8
LAYER-1
 66
  1
 70
  0
 62
  0
 10
3.742963
 20
2.455419
 30
0.000000
  0
VERTEX
  8
LAYER-1
 10
3.742963
 20
2.455419
 30
0.000000
  0
VERTEX
  8
LAYER-1
 10
3.742963
 20
2.205876
 30
0.000000
  0
SEQEND
  8
LAYER-1
  0
POLYLINE
  8
LAYER-1
 66
  1
 70
  0
 62
  0
 10
3.734998
 20
2.197912
 30
0.000000
  0
VERTEX
  8
LAYER-1
 10
3.734998
 20
2.197912
 30
0.000000
  0
VERTEX
  8
LAYER-1
 10
3.734997
 20
2.197912
 30
0.000000
  0
SEQEND
  8
LAYER-1
  0
POLYLINE
  8
LAYER-1
 66
  1
 70
  0
 62
  0
 10
3.727033
 20
2.205876
 30
0.000000
  0
VERTEX
  8
LAYER-1
 10
3.727033
 20
2.205876
 30
0.000000
  0
VERTEX
  8
LAYER-1
 10
3.727033
 20
2.455419
 30
0.000000
  0
SEQEND
  8
LAYER-1
  0
ARC
  8
LAYER-1
 62
  0
 10
3.734997
 20
2.455419
 30
0.000000
 40
0.007964
 50
270.000000
 51
0.000000
  0
ARC
  8
LAYER-1
 62
  0
 10
3.734997
 20
2.205876
 30
0.000000
 40
0.007964
 50
0.000000
 51
90.000000
  0
ARC
  8
LAYER-1
 62
  0
 10
3.734998
 20
2.205876
 30
0.000000
 40
0.007964
 50
90.000000
 51
180.000000
  0
ARC
  8
LAYER-1
 62
  0
 10
3.734998
 20
2.455419
 30
0.000000
 40
0.007964
 50
180.000000
 51
270.000000
  0
CIRCLE
  8
LAYER-1
 62
  0
 10
3.735330
 20
2.200564
 30
0.000000
 40
0.022565
  0
CIRCLE
  8
LAYER-1
 62
  0
 10
3.735330
 20
2.200564
 30
0.000000
 40
0.016522
  0
CIRCLE
  8
LAYER-1
 62
  0
 10
3.735330
 20
2.200564
 30
0.000000
 40
0.013746
  0
CIRCLE
  8
LAYER-1
 62
  0
 10
3.735330
 20
2.200564
 30
0.000000
 40
0.008860
  0
POLYLINE
  8
LAYER-1
 66
  1
 70
  0
 62
  0
 10
3.685053
 20
0.249262
 30
0.000000
  0
VERTEX
  8
LAYER-1
 10
3.685053
 20
0.249262
 30
0.000000
  0
VERTEX
  8
LAYER-1
 10
3.697831
 20
0.256827
 30
0.000000
  0
SEQEND
  8
LAYER-1
  0
POLYLINE
  8
LAYER-1
 66
  1
 70
  0
 62
  0
 10
3.685053
 20
0.249262
 30
0.000000
  0
VERTEX
  8
LAYER-1
 10
3.685053
 20
0.249262
 30
0.000000
  0
VERTEX
  8
LAYER-1
 10
3.685053
 20
0.247697
 30
0.000000
  0
SEQEND
  8
LAYER-1
  0
POLYLINE
  8
LAYER-1
 66
  1
 70
  1
 62
  0
  0
VERTEX
  8
LAYER-1
 10
3.703496
 20
0.247683
 30
0.000000
  0
VERTEX
  8
LAYER-1
 10
3.760083
 20
0.247683
 30
0.000000
  0
VERTEX
  8
LAYER-1
 10
3.760083
 20
0.060020
 30
0.000000
  0
VERTEX
  8
LAYER-1
 10
3.703496
 20
0.060020
 30
0.000000
  0
SEQEND
  8
LAYER-1
  0
POLYLINE
  8
LAYER-1
  6
LTYPE01
 66
  1
 70
  1
 62
  0
  0
VERTEX
  8
LAYER-1
  6
LTYPE01
 10
3.708190
 20
0.256809
 30
0.000000
  0
VERTEX
  8
LAYER-1
  6
LTYPE01
 10
3.755130
 20
0.256809
 30
0.000000
  0
VERTEX
  8
LAYER-1
  6
LTYPE01
 10
3.755130
 20
0.069580
 30
0.000000
  0
VERTEX
  8
LAYER-1
  6
LTYPE01
 10
3.708190
 20
0.069580
 30
0.000000
  0
SEQEND
  8
LAYER-1
  0
POLYLINE
  8
LAYER-1
 66
  1
 70
  0
 62
  0
 10
3.685053
 20
0.247697
 30
0.000000
  0
VERTEX
  8
LAYER-1
 10
3.685053
 20
0.247697
 30
0.000000
  0
VERTEX
  8
LAYER-1
 10
3.778670
 20
0.247697
 30
0.000000
  0
SEQEND
  8
LAYER-1
  0
POLYLINE
  8
LAYER-1
 66
  1
 70
  0
 62
  0
 10
3.778670
 20
0.247697
 30
0.000000
  0
VERTEX
  8
LAYER-1
 10
3.778670
 20
0.247697
 30
0.000000
  0
VERTEX
  8
LAYER-1
 10
3.778670
 20
0.249262
 30
0.000000
  0
SEQEND
  8
LAYER-1
  0
POLYLINE
  8
LAYER-1
 66
  1
 70
  0
 62
  0
 10
3.778670
 20
0.249262
 30
0.000000
  0
VERTEX
  8
LAYER-1
 10
3.778670
 20
0.249262
 30
0.000000
  0
VERTEX
  8
LAYER-1
 10
3.765631
 20
0.256827
 30
0.000000
  0
SEQEND
  8
LAYER-1
  0
POLYLINE
  8
LAYER-1
  6
LTYPE02
 66
  1
 70
  0
 62
  0
  6
LTYPE02
 10
3.709435
 20
0.156038
 30
0.000000
  0
VERTEX
  8
LAYER-1
  6
LTYPE02
 10
3.709435
 20
0.156038
 30
0.000000
  0
VERTEX
  8
LAYER-1
  6
LTYPE02
 10
3.709435
 20
0.122140
 30
0.000000
  0
SEQEND
  8
LAYER-1
  0
POLYLINE
  8
LAYER-1
  6
LTYPE02
 66
  1
 70
  0
 62
  0
  6
LTYPE02
 10
3.713343
 20
0.156038
 30
0.000000
  0
VERTEX
  8
LAYER-1
  6
LTYPE02
 10
3.713343
 20
0.156038
 30
0.000000
  0
VERTEX
  8
LAYER-1
  6
LTYPE02
 10
3.709435
 20
0.156038
 30
0.000000
  0
SEQEND
  8
LAYER-1
  0
POLYLINE
  8
LAYER-1
  6
LTYPE02
 66
  1
 70
  0
 62
  0
  6
LTYPE02
 10
3.713343
 20
0.156038
 30
0.000000
  0
VERTEX
  8
LAYER-1
  6
LTYPE02
 10
3.713343
 20
0.156038
 30
0.000000
  0
VERTEX
  8
LAYER-1
  6
LTYPE02
 10
3.713343
 20
0.160472
 30
0.000000
  0
SEQEND
  8
LAYER-1
  0
POLYLINE
  8
LAYER-1
  6
LTYPE02
 66
  1
 70
  0
 62
  0
  6
LTYPE02
 10
3.713343
 20
0.160472
 30
0.000000
  0
VERTEX
  8
LAYER-1
  6
LTYPE02
 10
3.713343
 20
0.160472
 30
0.000000
  0
VERTEX
  8
LAYER-1
  6
LTYPE02
 10
3.750603
 20
0.160472
 30
0.000000
  0
SEQEND
  8
LAYER-1
  0
POLYLINE
  8
LAYER-1
  6
LTYPE02
 66
  1
 70
  0
 62
  0
  6
LTYPE02
 10
3.709435
 20
0.122140
 30
0.000000
  0
VERTEX
  8
LAYER-1
  6
LTYPE02
 10
3.709435
 20
0.122140
 30
0.000000
  0
VERTEX
  8
LAYER-1
  6
LTYPE02
 10
3.753767
 20
0.122140
 30
0.000000
  0
SEQEND
  8
LAYER-1
  0
POLYLINE
  8
LAYER-1
  6
LTYPE02
 66
  1
 70
  0
 62
  0
  6
LTYPE02
 10
3.753767
 20
0.122140
 30
0.000000
  0
VERTEX
  8
LAYER-1
  6
LTYPE02
 10
3.753767
 20
0.122140
 30
0.000000
  0
VERTEX
  8
LAYER-1
  6
LTYPE02
 10
3.753767
 20
0.156038
 30
0.000000
  0
SEQEND
  8
LAYER-1
  0
POLYLINE
  8
LAYER-1
  6
LTYPE02
 66
  1
 70
  0
 62
  0
  6
LTYPE02
 10
3.750603
 20
0.156038
 30
0.000000
  0
VERTEX
  8
LAYER-1
  6
LTYPE02
 10
3.750603
 20
0.156038
 30
0.000000
  0
VERTEX
  8
LAYER-1
  6
LTYPE02
 10
3.753767
 20
0.156038
 30
0.000000
  0
SEQEND
  8
LAYER-1
  0
POLYLINE
  8
LAYER-1
  6
LTYPE02
 66
  1
 70
  0
 62
  0
  6
LTYPE02
 10
3.750603
 20
0.160472
 30
0.000000
  0
VERTEX
  8
LAYER-1
  6
LTYPE02
 10
3.750603
 20
0.160472
 30
0.000000
  0
VERTEX
  8
LAYER-1
  6
LTYPE02
 10
3.750603
 20
0.156038
 30
0.000000
  0
SEQEND
  8
LAYER-1
  0
POLYLINE
  8
LAYER-1
  6
LTYPE01
 66
  1
 70
  1
 62
  0
  0
VERTEX
  8
LAYER-1
  6
LTYPE01
 10
3.714572
 20
0.121993
 30
0.000000
  0
VERTEX
  8
LAYER-1
  6
LTYPE01
 10
3.748994
 20
0.121993
 30
0.000000
  0
VERTEX
  8
LAYER-1
  6
LTYPE01
 10
3.748994
 20
0.069839
 30
0.000000
  0
VERTEX
  8
LAYER-1
  6
LTYPE01
 10
3.714572
 20
0.069839
 30
0.000000
  0
SEQEND
  8
LAYER-1
  0
POLYLINE
  8
LAYER-1
  6
LTYPE02
 66
  1
 70
  0
 62
  0
  6
LTYPE02
 10
3.748994
 20
0.121993
 30
0.000000
  0
VERTEX
  8
LAYER-1
  6
LTYPE02
 10
3.748994
 20
0.121993
 30
0.000000
  0
VERTEX
  8
LAYER-1
  6
LTYPE02
 10
3.714572
 20
0.119125
 30
0.000000
  0
SEQEND
  8
LAYER-1
  0
POLYLINE
  8
LAYER-1
  6
LTYPE02
 66
  1
 70
  0
 62
  0
  6
LTYPE02
 10
3.748994
 20
0.120428
 30
0.000000
  0
VERTEX
  8
LAYER-1
  6
LTYPE02
 10
3.748994
 20
0.120428
 30
0.000000
  0
VERTEX
  8
LAYER-1
  6
LTYPE02
 10
3.714572
 20
0.117301
 30
0.000000
  0
SEQEND
  8
LAYER-1
  0
POLYLINE
  8
LAYER-1
  6
LTYPE02
 66
  1
 70
  0
 62
  0
  6
LTYPE02
 10
3.748994
 20
0.117039
 30
0.000000
  0
VERTEX
  8
LAYER-1
  6
LTYPE02
 10
3.748994
 20
0.117039
 30
0.000000
  0
VERTEX
  8
LAYER-1
  6
LTYPE02
 10
3.714572
 20
0.114170
 30
0.000000
  0
SEQEND
  8
LAYER-1
  0
POLYLINE
  8
LAYER-1
  6
LTYPE02
 66
  1
 70
  0
 62
  0
  6
LTYPE02
 10
3.748994
 20
0.115474
 30
0.000000
  0
VERTEX
  8
LAYER-1
  6
LTYPE02
 10
3.748994
 20
0.115474
 30
0.000000
  0
VERTEX
  8
LAYER-1
  6
LTYPE02
 10
3.714572
 20
0.112345
 30
0.000000
  0
SEQEND
  8
LAYER-1
  0
POLYLINE
  8
LAYER-1
  6
LTYPE02
 66
  1
 70
  0
 62
  0
  6
LTYPE02
 10
3.748994
 20
0.111891
 30
0.000000
  0
VERTEX
  8
LAYER-1
  6
LTYPE02
 10
3.748994
 20
0.111891
 30
0.000000
  0
VERTEX
  8
LAYER-1
  6
LTYPE02
 10
3.714572
 20
0.109022
 30
0.000000
  0
SEQEND
  8
LAYER-1
  0
POLYLINE
  8
LAYER-1
  6
LTYPE02
 66
  1
 70
  0
 62
  0
  6
LTYPE02
 10
3.748994
 20
0.110326
 30
0.000000
  0
VERTEX
  8
LAYER-1
  6
LTYPE02
 10
3.748994
 20
0.110326
 30
0.000000
  0
VERTEX
  8
LAYER-1
  6
LTYPE02
 10
3.714572
 20
0.107197
 30
0.000000
  0
SEQEND
  8
LAYER-1
  0
POLYLINE
  8
LAYER-1
  6
LTYPE02
 66
  1
 70
  0
 62
  0
  6
LTYPE02
 10
3.748930
 20
0.107391
 30
0.000000
  0
VERTEX
  8
LAYER-1
  6
LTYPE02
 10
3.748930
 20
0.107391
 30
0.000000
  0
VERTEX
  8
LAYER-1
  6
LTYPE02
 10
3.714507
 20
0.104523
 30
0.000000
  0
SEQEND
  8
LAYER-1
  0
POLYLINE
  8
LAYER-1
  6
LTYPE02
 66
  1
 70
  0
 62
  0
  6
LTYPE02
 10
3.748930
 20
0.105828
 30
0.000000
  0
VERTEX
  8
LAYER-1
  6
LTYPE02
 10
3.748930
 20
0.105828
 30
0.000000
  0
VERTEX
  8
LAYER-1
  6
LTYPE02
 10
3.714507
 20
0.102698
 30
0.000000
  0
SEQEND
  8
LAYER-1
  0
POLYLINE
  8
LAYER-1
  6
LTYPE02
 66
  1
 70
  0
 62
  0
  6
LTYPE02
 10
3.748930
 20
0.102568
 30
0.000000
  0
VERTEX
  8
LAYER-1
  6
LTYPE02
 10
3.748930
 20
0.102568
 30
0.000000
  0
VERTEX
  8
LAYER-1
  6
LTYPE02
 10
3.714507
 20
0.099699
 30
0.000000
  0
SEQEND
  8
LAYER-1
  0
POLYLINE
  8
LAYER-1
  6
LTYPE02
 66
  1
 70
  0
 62
  0
  6
LTYPE02
 10
3.748930
 20
0.101003
 30
0.000000
  0
VERTEX
  8
LAYER-1
  6
LTYPE02
 10
3.748930
 20
0.101003
 30
0.000000
  0
VERTEX
  8
LAYER-1
  6
LTYPE02
 10
3.714507
 20
0.097873
 30
0.000000
  0
SEQEND
  8
LAYER-1
  0
POLYLINE
  8
LAYER-1
  6
LTYPE02
 66
  1
 70
  0
 62
  0
  6
LTYPE02
 10
3.748930
 20
0.097612
 30
0.000000
  0
VERTEX
  8
LAYER-1
  6
LTYPE02
 10
3.748930
 20
0.097612
 30
0.000000
  0
VERTEX
  8
LAYER-1
  6
LTYPE02
 10
3.714507
 20
0.094744
 30
0.000000
  0
SEQEND
  8
LAYER-1
  0
POLYLINE
  8
LAYER-1
  6
LTYPE02
 66
  1
 70
  0
 62
  0
  6
LTYPE02
 10
3.748930
 20
0.096049
 30
0.000000
  0
VERTEX
  8
LAYER-1
  6
LTYPE02
 10
3.748930
 20
0.096049
 30
0.000000
  0
VERTEX
  8
LAYER-1
  6
LTYPE02
 10
3.714507
 20
0.092918
 30
0.000000
  0
SEQEND
  8
LAYER-1
  0
POLYLINE
  8
LAYER-1
  6
LTYPE02
 66
  1
 70
  0
 62
  0
  6
LTYPE02
 10
3.748930
 20
0.092462
 30
0.000000
  0
VERTEX
  8
LAYER-1
  6
LTYPE02
 10
3.748930
 20
0.092462
 30
0.000000
  0
VERTEX
  8
LAYER-1
  6
LTYPE02
 10
3.714507
 20
0.089594
 30
0.000000
  0
SEQEND
  8
LAYER-1
  0
POLYLINE
  8
LAYER-1
  6
LTYPE02
 66
  1
 70
  0
 62
  0
  6
LTYPE02
 10
3.748930
 20
0.090897
 30
0.000000
  0
VERTEX
  8
LAYER-1
  6
LTYPE02
 10
3.748930
 20
0.090897
 30
0.000000
  0
VERTEX
  8
LAYER-1
  6
LTYPE02
 10
3.714507
 20
0.087769
 30
0.000000
  0
SEQEND
  8
LAYER-1
  0
POLYLINE
  8
LAYER-1
  6
LTYPE02
 66
  1
 70
  0
 62
  0
  6
LTYPE02
 10
3.748864
 20
0.087964
 30
0.000000
  0
VERTEX
  8
LAYER-1
  6
LTYPE02
 10
3.748864
 20
0.087964
 30
0.000000
  0
VERTEX
  8
LAYER-1
  6
LTYPE02
 10
3.714443
 20
0.085096
 30
0.000000
  0
SEQEND
  8
LAYER-1
  0
POLYLINE
  8
LAYER-1
  6
LTYPE02
 66
  1
 70
  0
 62
  0
  6
LTYPE02
 10
3.748864
 20
0.086400
 30
0.000000
  0
VERTEX
  8
LAYER-1
  6
LTYPE02
 10
3.748864
 20
0.086400
 30
0.000000
  0
VERTEX
  8
LAYER-1
  6
LTYPE02
 10
3.714443
 20
0.083271
 30
0.000000
  0
SEQEND
  8
LAYER-1
  0
POLYLINE
  8
LAYER-1
  6
LTYPE02
 66
  1
 70
  0
 62
  0
  6
LTYPE02
 10
3.748994
 20
0.083596
 30
0.000000
  0
VERTEX
  8
LAYER-1
  6
LTYPE02
 10
3.748994
 20
0.083596
 30
0.000000
  0
VERTEX
  8
LAYER-1
  6
LTYPE02
 10
3.714572
 20
0.080727
 30
0.000000
  0
SEQEND
  8
LAYER-1
  0
POLYLINE
  8
LAYER-1
  6
LTYPE02
 66
  1
 70
  0
 62
  0
  6
LTYPE02
 10
3.748994
 20
0.082031
 30
0.000000
  0
VERTEX
  8
LAYER-1
  6
LTYPE02
 10
3.748994
 20
0.082031
 30
0.000000
  0
VERTEX
  8
LAYER-1
  6
LTYPE02
 10
3.714572
 20
0.078903
 30
0.000000
  0
SEQEND
  8
LAYER-1
  0
POLYLINE
  8
LAYER-1
  6
LTYPE02
 66
  1
 70
  0
 62
  0
  6
LTYPE02
 10
3.748994
 20
0.078642
 30
0.000000
  0
VERTEX
  8
LAYER-1
  6
LTYPE02
 10
3.748994
 20
0.078642
 30
0.000000
  0
VERTEX
  8
LAYER-1
  6
LTYPE02
 10
3.714572
 20
0.075773
 30
0.000000
  0
SEQEND
  8
LAYER-1
  0
POLYLINE
  8
LAYER-1
  6
LTYPE02
 66
  1
 70
  0
 62
  0
  6
LTYPE02
 10
3.748994
 20
0.077077
 30
0.000000
  0
VERTEX
  8
LAYER-1
  6
LTYPE02
 10
3.748994
 20
0.077077
 30
0.000000
  0
VERTEX
  8
LAYER-1
  6
LTYPE02
 10
3.714572
 20
0.073947
 30
0.000000
  0
SEQEND
  8
LAYER-1
  0
POLYLINE
  8
LAYER-1
  6
LTYPE02
 66
  1
 70
  0
 62
  0
  6
LTYPE02
 10
3.748994
 20
0.073492
 30
0.000000
  0
VERTEX
  8
LAYER-1
  6
LTYPE02
 10
3.748994
 20
0.073492
 30
0.000000
  0
VERTEX
  8
LAYER-1
  6
LTYPE02
 10
3.714572
 20
0.070622
 30
0.000000
  0
SEQEND
  8
LAYER-1
  0
POLYLINE
  8
LAYER-1
  6
LTYPE02
 66
  1
 70
  0
 62
  0
  6
LTYPE02
 10
3.748994
 20
0.071927
 30
0.000000
  0
VERTEX
  8
LAYER-1
  6
LTYPE02
 10
3.748994
 20
0.071927
 30
0.000000
  0
VERTEX
  8
LAYER-1
  6
LTYPE02
 10
3.725981
 20
0.069839
 30
0.000000
  0
SEQEND
  8
LAYER-1
  0
POLYLINE
  8
LAYER-1
  6
LTYPE02
 66
  1
 70
  0
 62
  0
  6
LTYPE02
 10
3.715564
 20
0.181204
 30
0.000000
  0
VERTEX
  8
LAYER-1
  6
LTYPE02
 10
3.715564
 20
0.181204
 30
0.000000
  0
VERTEX
  8
LAYER-1
  6
LTYPE02
 10
3.715564
 20
0.256827
 30
0.000000
  0
SEQEND
  8
LAYER-1
  0
POLYLINE
  8
LAYER-1
  6
LTYPE02
 66
  1
 70
  0
 62
  0
  6
LTYPE02
 10
3.747898
 20
0.181204
 30
0.000000
  0
VERTEX
  8
LAYER-1
  6
LTYPE02
 10
3.747898
 20
0.181204
 30
0.000000
  0
VERTEX
  8
LAYER-1
  6
LTYPE02
 10
3.747898
 20
0.256827
 30
0.000000
  0
SEQEND
  8
LAYER-1
  0
POLYLINE
  8
LAYER-1
  6
LTYPE01
 66
  1
 70
  0
 62
  0
  6
LTYPE01
 10
3.715563
 20
0.181204
 30
0.000000
  0
VERTEX
  8
LAYER-1
  6
LTYPE01
 10
3.715563
 20
0.181204
 30
0.000000
  0
VERTEX
  8
LAYER-1
  6
LTYPE01
 10
3.718330
 20
0.171740
 30
0.000000
  0
VERTEX
  8
LAYER-1
  6
LTYPE01
 10
3.729763
 20
0.167006
 30
0.000000
  0
VERTEX
  8
LAYER-1
  6
LTYPE01
 10
3.741195
 20
0.171740
 30
0.000000
  0
VERTEX
  8
LAYER-1
  6
LTYPE01
 10
3.747899
 20
0.181204
 30
0.000000
  0
SEQEND
  8
LAYER-1
  0
POLYLINE
  8
LAYER-1
 66
  1
 70
  0
 62
  0
 10
3.697831
 20
0.256827
 30
0.000000
  0
VERTEX
  8
LAYER-1
 10
3.697831
 20
0.256827
 30
0.000000
  0
VERTEX
  8
LAYER-1
 10
3.765631
 20
0.256827
 30
0.000000
  0
SEQEND
  8
LAYER-1
  0
POLYLINE
  8
LAYER-1
 66
  1
 70
  1
 62
  0
  0
VERTEX
  8
LAYER-1
 10
2.804647
 20
7.485789
 30
0.000000
  0
VERTEX
  8
LAYER-1
 10
2.829743
 20
7.485789
 30
0.000000
  0
VERTEX
  8
LAYER-1
 10
2.829743
 20
7.419471
 30
0.000000
  0
VERTEX
  8
LAYER-1
 10
2.804647
 20
7.419471
 30
0.000000
  0
SEQEND
  8
LAYER-1
  0
POLYLINE
  8
LAYER-1
 66
  1
 70
  1
 62
  0
  0
VERTEX
  8
LAYER-1
 10
1.983467
 20
7.485789
 30
0.000000
  0
VERTEX
  8
LAYER-1
 10
2.008562
 20
7.485789
 30
0.000000
  0
VERTEX
  8
LAYER-1
 10
2.008562
 20
7.419471
 30
0.000000
  0
VERTEX
  8
LAYER-1
 10
1.983467
 20
7.419471
 30
0.000000
  0
SEQEND
  8
LAYER-1
  0
POLYLINE
  8
LAYER-1
 66
  1
 70
  1
 62
  0
  0
VERTEX
  8
LAYER-1
 10
4.706557
 20
7.485789
 30
0.000000
  0
VERTEX
  8
LAYER-1
 10
4.731652
 20
7.485789
 30
0.000000
  0
VERTEX
  8
LAYER-1
 10
4.731652
 20
7.419471
 30
0.000000
  0
VERTEX
  8
LAYER-1
 10
4.706557
 20
7.419471
 30
0.000000
  0
SEQEND
  8
LAYER-1
  0
POLYLINE
  8
LAYER-1
 66
  1
 70
  1
 62
  0
  0
VERTEX
  8
LAYER-1
 10
5.527738
 20
7.485789
 30
0.000000
  0
VERTEX
  8
LAYER-1
 10
5.552833
 20
7.485789
 30
0.000000
  0
VERTEX
  8
LAYER-1
 10
5.552833
 20
7.419471
 30
0.000000
  0
VERTEX
  8
LAYER-1
 10
5.527738
 20
7.419471
 30
0.000000
  0
SEQEND
  8
LAYER-1
  0
POLYLINE
  8
LAYER-1
 66
  1
 70
  0
 62
  0
 10
2.181858
 20
7.149466
 30
0.000000
  0
VERTEX
  8
LAYER-1
 10
2.181858
 20
7.149466
 30
0.000000
  0
VERTEX
  8
LAYER-1
 10
2.217455
 20
7.149466
 30
0.000000
  0
SEQEND
  8
LAYER-1
  0
POLYLINE
  8
LAYER-1
 66
  1
 70
  0
 62
  0
 10
2.999729
 20
7.149466
 30
0.000000
  0
VERTEX
  8
LAYER-1
 10
2.999729
 20
7.149466
 30
0.000000
  0
VERTEX
  8
LAYER-1
 10
3.035323
 20
7.149466
 30
0.000000
  0
SEQEND
  8
LAYER-1
  0
POLYLINE
  8
LAYER-1
 66
  1
 70
  0
 62
  0
 10
3.647862
 20
7.149389
 30
0.000000
  0
VERTEX
  8
LAYER-1
 10
3.647862
 20
7.149389
 30
0.000000
  0
VERTEX
  8
LAYER-1
 10
3.683457
 20
7.149389
 30
0.000000
  0
SEQEND
  8
LAYER-1
  0
POLYLINE
  8
LAYER-1
 66
  1
 70
  0
 62
  0
 10
5.354019
 20
7.149465
 30
0.000000
  0
VERTEX
  8
LAYER-1
 10
5.354019
 20
7.149465
 30
0.000000
  0
VERTEX
  8
LAYER-1
 10
5.318424
 20
7.149465
 30
0.000000
  0
SEQEND
  8
LAYER-1
  0
POLYLINE
  8
LAYER-1
 66
  1
 70
  0
 62
  0
 10
4.536144
 20
7.149465
 30
0.000000
  0
VERTEX
  8
LAYER-1
 10
4.536144
 20
7.149465
 30
0.000000
  0
VERTEX
  8
LAYER-1
 10
4.500553
 20
7.149465
 30
0.000000
  0
SEQEND
  8
LAYER-1
  0
POLYLINE
  8
LAYER-1
 66
  1
 70
  0
 62
  0
 10
3.888006
 20
7.149389
 30
0.000000
  0
VERTEX
  8
LAYER-1
 10
3.888006
 20
7.149389
 30
0.000000
  0
VERTEX
  8
LAYER-1
 10
3.852414
 20
7.149389
 30
0.000000
  0
SEQEND
  8
LAYER-1
  0
TEXT
  8
LAYER-1
 62
  0
 10
1.087634
 20
7.081709
 30
0.000000
 40
0.125000
  1
Rail
 72
  5
 11
1.462634
 21
7.081709
 31
0.000000
  0
TEXT
  8
LAYER-1
 62
  0
 10
5.893189
 20
5.553931
 30
0.000000
 40
0.125000
  1
Verre trempÄ
 72
  5
 11
6.948745
 21
5.553931
 31
0.000000
  0
TEXT
  8
LAYER-1
 62
  0
 10
5.893189
 20
5.359487
 30
0.000000
 40
0.104167
  1
1/8
 72
  5
 11
6.170967
 21
5.359487
 31
0.000000
  0
TEXT
  8
LAYER-1
 62
  0
 10
6.170967
 20
5.359487
 30
0.000000
 40
0.125000
  1
" (3mm)
 72
  5
 11
6.851523
 21
5.359487
 31
0.000000
  0
POLYLINE
  8
LAYER-1
 66
  1
 70
  1
 62
  0
  0
VERTEX
  8
LAYER-1
 10
1.848981
 20
7.131785
 30
0.000000
  0
VERTEX
  8
LAYER-1
 10
2.136712
 20
7.131785
 30
0.000000
  0
VERTEX
  8
LAYER-1
 10
2.136712
 20
3.963475
 30
0.000000
  0
VERTEX
  8
LAYER-1
 10
1.848981
 20
3.963475
 30
0.000000
  0
SEQEND
  8
LAYER-1
  0
POLYLINE
  8
LAYER-1
 66
  1
 70
  1
 62
  0
  0
VERTEX
  8
LAYER-1
 10
2.259044
 20
7.131785
 30
0.000000
  0
VERTEX
  8
LAYER-1
 10
2.546774
 20
7.131785
 30
0.000000
  0
VERTEX
  8
LAYER-1
 10
2.546774
 20
3.963475
 30
0.000000
  0
VERTEX
  8
LAYER-1
 10
2.259044
 20
3.963475
 30
0.000000
  0
SEQEND
  8
LAYER-1
  0
POLYLINE
  8
LAYER-1
 66
  1
 70
  1
 62
  0
  0
VERTEX
  8
LAYER-1
 10
2.669106
 20
7.131785
 30
0.000000
  0
VERTEX
  8
LAYER-1
 10
2.956833
 20
7.131785
 30
0.000000
  0
VERTEX
  8
LAYER-1
 10
2.956833
 20
3.963475
 30
0.000000
  0
VERTEX
  8
LAYER-1
 10
2.669106
 20
3.963475
 30
0.000000
  0
SEQEND
  8
LAYER-1
  0
POLYLINE
  8
LAYER-1
 66
  1
 70
  1
 62
  0
  0
VERTEX
  8
LAYER-1
 10
3.079166
 20
7.131785
 30
0.000000
  0
VERTEX
  8
LAYER-1
 10
3.366895
 20
7.131785
 30
0.000000
  0
VERTEX
  8
LAYER-1
 10
3.366895
 20
3.963475
 30
0.000000
  0
VERTEX
  8
LAYER-1
 10
3.079166
 20
3.963475
 30
0.000000
  0
SEQEND
  8
LAYER-1
  0
POLYLINE
  8
LAYER-1
 66
  1
 70
  1
 62
  0
  0
VERTEX
  8
LAYER-1
 10
5.399165
 20
7.131784
 30
0.000000
  0
VERTEX
  8
LAYER-1
 10
5.686898
 20
7.131784
 30
0.000000
  0
VERTEX
  8
LAYER-1
 10
5.686898
 20
3.963475
 30
0.000000
  0
VERTEX
  8
LAYER-1
 10
5.399165
 20
3.963475
 30
0.000000
  0
SEQEND
  8
LAYER-1
  0
POLYLINE
  8
LAYER-1
 66
  1
 70
  1
 62
  0
  0
VERTEX
  8
LAYER-1
 10
4.989102
 20
7.131784
 30
0.000000
  0
VERTEX
  8
LAYER-1
 10
5.276835
 20
7.131784
 30
0.000000
  0
VERTEX
  8
LAYER-1
 10
5.276835
 20
3.963475
 30
0.000000
  0
VERTEX
  8
LAYER-1
 10
4.989102
 20
3.963475
 30
0.000000
  0
SEQEND
  8
LAYER-1
  0
POLYLINE
  8
LAYER-1
 66
  1
 70
  1
 62
  0
  0
VERTEX
  8
LAYER-1
 10
4.579040
 20
7.131784
 30
0.000000
  0
VERTEX
  8
LAYER-1
 10
4.866773
 20
7.131784
 30
0.000000
  0
VERTEX
  8
LAYER-1
 10
4.866773
 20
3.963475
 30
0.000000
  0
VERTEX
  8
LAYER-1
 10
4.579040
 20
3.963475
 30
0.000000
  0
SEQEND
  8
LAYER-1
  0
POLYLINE
  8
LAYER-1
 66
  1
 70
  1
 62
  0
  0
VERTEX
  8
LAYER-1
 10
4.168978
 20
7.131784
 30
0.000000
  0
VERTEX
  8
LAYER-1
 10
4.456711
 20
7.131784
 30
0.000000
  0
VERTEX
  8
LAYER-1
 10
4.456711
 20
3.963475
 30
0.000000
  0
VERTEX
  8
LAYER-1
 10
4.168978
 20
3.963475
 30
0.000000
  0
SEQEND
  8
LAYER-1
  0
LINE
  8
LAYER-1
 62
  0
 10
1.903720
 20
6.690091
 30
0.000000
 11
2.039808
 21
6.927825
 31
0.000000
  0
LINE
  8
LAYER-1
 62
  0
 10
1.960356
 20
6.657670
 30
0.000000
 11
2.096444
 21
6.895405
 31
0.000000
  0
LINE
  8
LAYER-1
 62
  0
 10
2.313782
 20
6.690091
 30
0.000000
 11
2.449871
 21
6.927825
 31
0.000000
  0
LINE
  8
LAYER-1
 62
  0
 10
2.370418
 20
6.657670
 30
0.000000
 11
2.506506
 21
6.895405
 31
0.000000
  0
LINE
  8
LAYER-1
 62
  0
 10
2.723844
 20
6.690090
 30
0.000000
 11
2.859930
 21
6.927825
 31
0.000000
  0
LINE
  8
LAYER-1
 62
  0
 10
2.780480
 20
6.657671
 30
0.000000
 11
2.916566
 21
6.895405
 31
0.000000
  0
LINE
  8
LAYER-1
 62
  0
 10
3.133904
 20
6.690091
 30
0.000000
 11
3.269991
 21
6.927825
 31
0.000000
  0
LINE
  8
LAYER-1
 62
  0
 10
3.190539
 20
6.657670
 30
0.000000
 11
3.326626
 21
6.895405
 31
0.000000
  0
LINE
  8
LAYER-1
 62
  0
 10
4.622105
 20
6.690090
 30
0.000000
 11
4.758190
 21
6.927825
 31
0.000000
  0
LINE
  8
LAYER-1
 62
  0
 10
4.678741
 20
6.657671
 30
0.000000
 11
4.814826
 21
6.895405
 31
0.000000
  0
LINE
  8
LAYER-1
 62
  0
 10
5.032168
 20
6.690090
 30
0.000000
 11
5.168253
 21
6.927825
 31
0.000000
  0
LINE
  8
LAYER-1
 62
  0
 10
5.088804
 20
6.657671
 30
0.000000
 11
5.224889
 21
6.895405
 31
0.000000
  0
LINE
  8
LAYER-1
 62
  0
 10
5.442229
 20
6.690090
 30
0.000000
 11
5.578315
 21
6.927825
 31
0.000000
  0
LINE
  8
LAYER-1
 62
  0
 10
5.498865
 20
6.657671
 30
0.000000
 11
5.634951
 21
6.895405
 31
0.000000
  0
LINE
  8
LAYER-1
 62
  0
 10
4.217203
 20
6.690091
 30
0.000000
 11
4.353292
 21
6.927825
 31
0.000000
  0
LINE
  8
LAYER-1
 62
  0
 10
4.273839
 20
6.657670
 30
0.000000
 11
4.409928
 21
6.895404
 31
0.000000
  0
LINE
  8
LAYER-1
 62
  0
 10
1.904080
 20
4.302976
 30
0.000000
 11
2.040170
 21
4.540710
 31
0.000000
  0
LINE
  8
LAYER-1
 62
  0
 10
1.960715
 20
4.270555
 30
0.000000
 11
2.096805
 21
4.508290
 31
0.000000
  0
LINE
  8
LAYER-1
 62
  0
 10
2.314142
 20
4.302976
 30
0.000000
 11
2.450232
 21
4.540710
 31
0.000000
  0
LINE
  8
LAYER-1
 62
  0
 10
2.370777
 20
4.270555
 30
0.000000
 11
2.506868
 21
4.508290
 31
0.000000
  0
LINE
  8
LAYER-1
 62
  0
 10
2.724206
 20
4.302975
 30
0.000000
 11
2.860291
 21
4.540710
 31
0.000000
  0
LINE
  8
LAYER-1
 62
  0
 10
2.780841
 20
4.270555
 30
0.000000
 11
2.916927
 21
4.508290
 31
0.000000
  0
LINE
  8
LAYER-1
 62
  0
 10
3.134265
 20
4.302975
 30
0.000000
 11
3.270352
 21
4.540710
 31
0.000000
  0
LINE
  8
LAYER-1
 62
  0
 10
3.190901
 20
4.270555
 30
0.000000
 11
3.326988
 21
4.508290
 31
0.000000
  0
LINE
  8
LAYER-1
 62
  0
 10
4.622463
 20
4.302976
 30
0.000000
 11
4.758552
 21
4.540710
 31
0.000000
  0
LINE
  8
LAYER-1
 62
  0
 10
4.679099
 20
4.270555
 30
0.000000
 11
4.815188
 21
4.508290
 31
0.000000
  0
LINE
  8
LAYER-1
 62
  0
 10
5.032525
 20
4.302976
 30
0.000000
 11
5.168614
 21
4.540710
 31
0.000000
  0
LINE
  8
LAYER-1
 62
  0
 10
5.089161
 20
4.270555
 30
0.000000
 11
5.225250
 21
4.508290
 31
0.000000
  0
LINE
  8
LAYER-1
 62
  0
 10
5.442591
 20
4.302975
 30
0.000000
 11
5.578677
 21
4.540710
 31
0.000000
  0
LINE
  8
LAYER-1
 62
  0
 10
5.499227
 20
4.270555
 30
0.000000
 11
5.635312
 21
4.508290
 31
0.000000
  0
LINE
  8
LAYER-1
 62
  0
 10
4.217562
 20
4.302976
 30
0.000000
 11
4.353653
 21
4.540710
 31
0.000000
  0
LINE
  8
LAYER-1
 62
  0
 10
4.274196
 20
4.270555
 30
0.000000
 11
4.410288
 21
4.508290
 31
0.000000
  0
TEXT
  8
LAYER-1
 62
  0
 10
5.893189
 20
4.637265
 30
0.000000
 40
0.125000
  1
Protecteur
 72
  5
 11
6.740411
 21
4.637265
 31
0.000000
  0
TEXT
  8
LAYER-1
 62
  0
 10
5.893189
 20
4.442820
 30
0.000000
 40
0.125000
  1
PVC
 72
  5
 11
6.295967
 21
4.442820
 31
0.000000
  0
POLYLINE
  8
LAYER-1
 66
  1
 70
  0
 62
  0
 10
5.830689
 20
5.505320
 30
0.000000
  0
VERTEX
  8
LAYER-1
 10
5.830689
 20
5.505320
 30
0.000000
  0
VERTEX
  8
LAYER-1
 10
5.586415
 20
5.795809
 30
0.000000
  0
SEQEND
  8
LAYER-1
  0
POLYLINE
  8
LAYER-1
 66
  1
 70
  1
 62
  0
  0
VERTEX
  8
LAYER-1
 10
5.573745
 20
5.810875
 30
0.000000
  0
VERTEX
  8
LAYER-1
 10
5.650330
 20
5.784543
 30
0.000000
  0
VERTEX
  8
LAYER-1
 10
5.618440
 20
5.757726
 30
0.000000
  0
VERTEX
  8
LAYER-1
 10
5.586550
 20
5.730909
 30
0.000000
  0
VERTEX
  8
LAYER-1
 10
5.573745
 20
5.810875
 30
0.000000
  0
SEQEND
  8
LAYER-1
  0
POLYLINE
  8
LAYER-1
 66
  1
 70
  0
 62
  0
 10
5.858467
 20
4.585181
 30
0.000000
  0
VERTEX
  8
LAYER-1
 10
5.858467
 20
4.585181
 30
0.000000
  0
VERTEX
  8
LAYER-1
 10
5.720255
 20
4.710829
 30
0.000000
  0
SEQEND
  8
LAYER-1
  0
POLYLINE
  8
LAYER-1
 66
  1
 70
  1
 62
  0
  0
VERTEX
  8
LAYER-1
 10
5.705689
 20
4.724070
 30
0.000000
  0
VERTEX
  8
LAYER-1
 10
5.785102
 20
4.708188
 30
0.000000
  0
VERTEX
  8
LAYER-1
 10
5.757075
 20
4.677357
 30
0.000000
  0
VERTEX
  8
LAYER-1
 10
5.729047
 20
4.646526
 30
0.000000
  0
VERTEX
  8
LAYER-1
 10
5.705689
 20
4.724070
 30
0.000000
  0
SEQEND
  8
LAYER-1
  0
POLYLINE
  8
LAYER-1
 66
  1
 70
  0
 62
  0
 10
0.768278
 20
0.040026
 30
0.000000
  0
VERTEX
  8
LAYER-1
 10
0.768278
 20
0.040026
 30
0.000000
  0
VERTEX
  8
LAYER-1
 10
0.794792
 20
0.036571
 30
0.000000
  0
VERTEX
  8
LAYER-1
 10
0.814150
 20
0.036571
 30
0.000000
  0
VERTEX
  8
LAYER-1
 10
0.833509
 20
0.040044
 30
0.000000
  0
VERTEX
  8
LAYER-1
 10
0.852867
 20
0.040044
 30
0.000000
  0
VERTEX
  8
LAYER-1
 10
0.899328
 20
0.046988
 30
0.000000
  0
VERTEX
  8
LAYER-1
 10
0.934173
 20
0.057404
 30
0.000000
  0
VERTEX
  8
LAYER-1
 10
0.956436
 20
0.061745
 30
0.000000
  0
VERTEX
  8
LAYER-1
 10
0.978214
 20
0.063482
 30
0.000000
  0
VERTEX
  8
LAYER-1
 10
1.007736
 20
0.060877
 30
0.000000
  0
VERTEX
  8
LAYER-1
 10
1.038709
 20
0.057404
 30
0.000000
  0
VERTEX
  8
LAYER-1
 10
1.065811
 20
0.050460
 30
0.000000
  0
VERTEX
  8
LAYER-1
 10
1.085170
 20
0.046988
 30
0.000000
  0
VERTEX
  8
LAYER-1
 10
1.116144
 20
0.043516
 30
0.000000
  0
VERTEX
  8
LAYER-1
 10
1.135502
 20
0.040044
 30
0.000000
  0
VERTEX
  8
LAYER-1
 10
1.158732
 20
0.036571
 30
0.000000
  0
VERTEX
  8
LAYER-1
 10
1.185834
 20
0.036571
 30
0.000000
  0
VERTEX
  8
LAYER-1
 10
1.212936
 20
0.036571
 30
0.000000
  0
VERTEX
  8
LAYER-1
 10
1.236167
 20
0.036571
 30
0.000000
  0
VERTEX
  8
LAYER-1
 10
1.259397
 20
0.033099
 30
0.000000
  0
VERTEX
  8
LAYER-1
 10
1.298114
 20
0.033099
 30
0.000000
  0
VERTEX
  8
LAYER-1
 10
1.329088
 20
0.033099
 30
0.000000
  0
VERTEX
  8
LAYER-1
 10
1.348446
 20
0.029627
 30
0.000000
  0
VERTEX
  8
LAYER-1
 10
1.379420
 20
0.026154
 30
0.000000
  0
VERTEX
  8
LAYER-1
 10
1.410394
 20
0.022682
 30
0.000000
  0
VERTEX
  8
LAYER-1
 10
1.449111
 20
0.022682
 30
0.000000
  0
VERTEX
  8
LAYER-1
 10
1.480085
 20
0.022682
 30
0.000000
  0
VERTEX
  8
LAYER-1
 10
1.518801
 20
0.022682
 30
0.000000
  0
VERTEX
  8
LAYER-1
 10
1.549775
 20
0.029627
 30
0.000000
  0
VERTEX
  8
LAYER-1
 10
1.573005
 20
0.029627
 30
0.000000
  0
VERTEX
  8
LAYER-1
 10
1.592364
 20
0.033099
 30
0.000000
  0
VERTEX
  8
LAYER-1
 10
1.615595
 20
0.033099
 30
0.000000
  0
VERTEX
  8
LAYER-1
 10
1.634953
 20
0.033099
 30
0.000000
  0
VERTEX
  8
LAYER-1
 10
1.677542
 20
0.033099
 30
0.000000
  0
VERTEX
  8
LAYER-1
 10
1.724002
 20
0.026154
 30
0.000000
  0
VERTEX
  8
LAYER-1
 10
1.766591
 20
0.022682
 30
0.000000
  0
VERTEX
  8
LAYER-1
 10
1.828539
 20
0.015738
 30
0.000000
  0
VERTEX
  8
LAYER-1
 10
1.886614
 20
0.008794
 30
0.000000
  0
VERTEX
  8
LAYER-1
 10
1.936946
 20
0.008794
 30
0.000000
  0
VERTEX
  8
LAYER-1
 10
1.964048
 20
0.008794
 30
0.000000
  0
VERTEX
  8
LAYER-1
 10
1.998894
 20
0.008794
 30
0.000000
  0
VERTEX
  8
LAYER-1
 10
2.019220
 20
0.009661
 30
0.000000
  0
VERTEX
  8
LAYER-1
 10
2.056485
 20
0.011831
 30
0.000000
  0
VERTEX
  8
LAYER-1
 10
2.103430
 20
0.022682
 30
0.000000
  0
VERTEX
  8
LAYER-1
 10
2.146019
 20
0.036571
 30
0.000000
  0
VERTEX
  8
LAYER-1
 10
2.180864
 20
0.046988
 30
0.000000
  0
VERTEX
  8
LAYER-1
 10
2.207966
 20
0.057404
 30
0.000000
  0
VERTEX
  8
LAYER-1
 10
2.231197
 20
0.064349
 30
0.000000
  0
VERTEX
  8
LAYER-1
 10
2.254427
 20
0.064349
 30
0.000000
  0
VERTEX
  8
LAYER-1
 10
2.277657
 20
0.064349
 30
0.000000
  0
VERTEX
  8
LAYER-1
 10
2.300887
 20
0.064349
 30
0.000000
  0
VERTEX
  8
LAYER-1
 10
2.335733
 20
0.057404
 30
0.000000
  0
VERTEX
  8
LAYER-1
 10
2.366706
 20
0.050460
 30
0.000000
  0
VERTEX
  8
LAYER-1
 10
2.389936
 20
0.043516
 30
0.000000
  0
VERTEX
  8
LAYER-1
 10
2.409295
 20
0.040044
 30
0.000000
  0
VERTEX
  8
LAYER-1
 10
2.432525
 20
0.033099
 30
0.000000
  0
VERTEX
  8
LAYER-1
 10
2.451884
 20
0.026154
 30
0.000000
  0
VERTEX
  8
LAYER-1
 10
2.475114
 20
0.022682
 30
0.000000
  0
VERTEX
  8
LAYER-1
 10
2.494473
 20
0.022682
 30
0.000000
  0
VERTEX
  8
LAYER-1
 10
2.525447
 20
0.019210
 30
0.000000
  0
VERTEX
  8
LAYER-1
 10
2.552548
 20
0.019210
 30
0.000000
  0
VERTEX
  8
LAYER-1
 10
2.587394
 20
0.019210
 30
0.000000
  0
VERTEX
  8
LAYER-1
 10
2.614496
 20
0.022682
 30
0.000000
  0
VERTEX
  8
LAYER-1
 10
2.649341
 20
0.033099
 30
0.000000
  0
VERTEX
  8
LAYER-1
 10
2.668700
 20
0.033099
 30
0.000000
  0
VERTEX
  8
LAYER-1
 10
2.691930
 20
0.033099
 30
0.000000
  0
VERTEX
  8
LAYER-1
 10
2.711289
 20
0.033099
 30
0.000000
  0
VERTEX
  8
LAYER-1
 10
2.734519
 20
0.036571
 30
0.000000
  0
VERTEX
  8
LAYER-1
 10
2.757749
 20
0.040044
 30
0.000000
  0
VERTEX
  8
LAYER-1
 10
2.788723
 20
0.040044
 30
0.000000
  0
VERTEX
  8
LAYER-1
 10
2.819696
 20
0.040044
 30
0.000000
  0
VERTEX
  8
LAYER-1
 10
2.842927
 20
0.040044
 30
0.000000
  0
VERTEX
  8
LAYER-1
 10
2.866157
 20
0.040044
 30
0.000000
  0
VERTEX
  8
LAYER-1
 10
2.885515
 20
0.036571
 30
0.000000
  0
VERTEX
  8
LAYER-1
 10
2.904874
 20
0.033099
 30
0.000000
  0
VERTEX
  8
LAYER-1
 10
2.924233
 20
0.029627
 30
0.000000
  0
VERTEX
  8
LAYER-1
 10
2.943591
 20
0.026154
 30
0.000000
  0
VERTEX
  8
LAYER-1
 10
2.974565
 20
0.019210
 30
0.000000
  0
VERTEX
  8
LAYER-1
 10
2.997795
 20
0.015738
 30
0.000000
  0
VERTEX
  8
LAYER-1
 10
3.021025
 20
0.015738
 30
0.000000
  0
VERTEX
  8
LAYER-1
 10
3.040384
 20
0.015738
 30
0.000000
  0
VERTEX
  8
LAYER-1
 10
3.067486
 20
0.015738
 30
0.000000
  0
VERTEX
  8
LAYER-1
 10
3.098460
 20
0.019210
 30
0.000000
  0
VERTEX
  8
LAYER-1
 10
3.152664
 20
0.029627
 30
0.000000
  0
VERTEX
  8
LAYER-1
 10
3.199124
 20
0.040044
 30
0.000000
  0
VERTEX
  8
LAYER-1
 10
3.241713
 20
0.046988
 30
0.000000
  0
VERTEX
  8
LAYER-1
 10
3.272687
 20
0.050460
 30
0.000000
  0
VERTEX
  8
LAYER-1
 10
3.311403
 20
0.053932
 30
0.000000
  0
VERTEX
  8
LAYER-1
 10
3.342377
 20
0.057404
 30
0.000000
  0
VERTEX
  8
LAYER-1
 10
3.368028
 20
0.058272
 30
0.000000
  0
VERTEX
  8
LAYER-1
 10
3.385450
 20
0.056102
 30
0.000000
  0
VERTEX
  8
LAYER-1
 10
3.406745
 20
0.051328
 30
0.000000
  0
VERTEX
  8
LAYER-1
 10
3.427555
 20
0.040044
 30
0.000000
  0
VERTEX
  8
LAYER-1
 10
3.450785
 20
0.036571
 30
0.000000
  0
VERTEX
  8
LAYER-1
 10
3.470144
 20
0.036571
 30
0.000000
  0
VERTEX
  8
LAYER-1
 10
3.489502
 20
0.036571
 30
0.000000
  0
VERTEX
  8
LAYER-1
 10
3.508861
 20
0.036571
 30
0.000000
  0
VERTEX
  8
LAYER-1
 10
3.539835
 20
0.036571
 30
0.000000
  0
VERTEX
  8
LAYER-1
 10
3.563065
 20
0.036571
 30
0.000000
  0
VERTEX
  8
LAYER-1
 10
3.586294
 20
0.036571
 30
0.000000
  0
VERTEX
  8
LAYER-1
 10
3.605654
 20
0.036571
 30
0.000000
  0
VERTEX
  8
LAYER-1
 10
3.628884
 20
0.036571
 30
0.000000
  0
VERTEX
  8
LAYER-1
 10
3.652114
 20
0.036571
 30
0.000000
  0
VERTEX
  8
LAYER-1
 10
3.671473
 20
0.036571
 30
0.000000
  0
VERTEX
  8
LAYER-1
 10
3.698574
 20
0.036571
 30
0.000000
  0
VERTEX
  8
LAYER-1
 10
3.721805
 20
0.033099
 30
0.000000
  0
VERTEX
  8
LAYER-1
 10
3.744067
 20
0.025286
 30
0.000000
  0
VERTEX
  8
LAYER-1
 10
3.784720
 20
0.022682
 30
0.000000
  0
VERTEX
  8
LAYER-1
 10
3.822469
 20
0.026154
 30
0.000000
  0
VERTEX
  8
LAYER-1
 10
3.841828
 20
0.033099
 30
0.000000
  0
VERTEX
  8
LAYER-1
 10
3.865058
 20
0.040044
 30
0.000000
  0
VERTEX
  8
LAYER-1
 10
3.884901
 20
0.043950
 30
0.000000
  0
VERTEX
  8
LAYER-1
 10
3.907647
 20
0.050460
 30
0.000000
  0
VERTEX
  8
LAYER-1
 10
3.930877
 20
0.050460
 30
0.000000
  0
VERTEX
  8
LAYER-1
 10
3.954108
 20
0.046988
 30
0.000000
  0
VERTEX
  8
LAYER-1
 10
3.977338
 20
0.046988
 30
0.000000
  0
VERTEX
  8
LAYER-1
 10
4.000568
 20
0.046988
 30
0.000000
  0
VERTEX
  8
LAYER-1
 10
4.019927
 20
0.043516
 30
0.000000
  0
VERTEX
  8
LAYER-1
 10
4.047029
 20
0.043516
 30
0.000000
  0
VERTEX
  8
LAYER-1
 10
4.078003
 20
0.043516
 30
0.000000
  0
VERTEX
  8
LAYER-1
 10
4.108976
 20
0.050460
 30
0.000000
  0
VERTEX
  8
LAYER-1
 10
4.128335
 20
0.053932
 30
0.000000
  0
VERTEX
  8
LAYER-1
 10
4.155437
 20
0.053932
 30
0.000000
  0
VERTEX
  8
LAYER-1
 10
4.178667
 20
0.057404
 30
0.000000
  0
VERTEX
  8
LAYER-1
 10
4.209641
 20
0.060877
 30
0.000000
  0
VERTEX
  8
LAYER-1
 10
4.232871
 20
0.060877
 30
0.000000
  0
VERTEX
  8
LAYER-1
 10
4.263845
 20
0.057404
 30
0.000000
  0
VERTEX
  8
LAYER-1
 10
4.306433
 20
0.046988
 30
0.000000
  0
VERTEX
  8
LAYER-1
 10
4.337407
 20
0.036571
 30
0.000000
  0
VERTEX
  8
LAYER-1
 10
4.372253
 20
0.026154
 30
0.000000
  0
VERTEX
  8
LAYER-1
 10
4.415326
 20
0.019209
 30
0.000000
  0
VERTEX
  8
LAYER-1
 10
4.462753
 20
0.020077
 30
0.000000
  0
VERTEX
  8
LAYER-1
 10
4.517925
 20
0.022681
 30
0.000000
  0
VERTEX
  8
LAYER-1
 10
4.585197
 20
0.022681
 30
0.000000
  0
VERTEX
  8
LAYER-1
 10
4.630689
 20
0.011397
 30
0.000000
  0
VERTEX
  8
LAYER-1
 10
4.660695
 20
0.005320
 30
0.000000
  0
VERTEX
  8
LAYER-1
 10
4.683925
 20
0.004452
 30
0.000000
  0
VERTEX
  8
LAYER-1
 10
4.718771
 20
0.004453
 30
0.000000
  0
VERTEX
  8
LAYER-1
 10
4.743937
 20
0.008794
 30
0.000000
  0
VERTEX
  8
LAYER-1
 10
4.771038
 20
0.019210
 30
0.000000
  0
VERTEX
  8
LAYER-1
 10
4.805884
 20
0.026154
 30
0.000000
  0
VERTEX
  8
LAYER-1
 10
4.832986
 20
0.033099
 30
0.000000
  0
VERTEX
  8
LAYER-1
 10
4.856216
 20
0.036571
 30
0.000000
  0
VERTEX
  8
LAYER-1
 10
4.879446
 20
0.040044
 30
0.000000
  0
VERTEX
  8
LAYER-1
 10
4.906548
 20
0.043516
 30
0.000000
  0
VERTEX
  8
LAYER-1
 10
4.933650
 20
0.050460
 30
0.000000
  0
VERTEX
  8
LAYER-1
 10
4.953009
 20
0.053932
 30
0.000000
  0
VERTEX
  8
LAYER-1
 10
4.983983
 20
0.057404
 30
0.000000
  0
VERTEX
  8
LAYER-1
 10
5.007212
 20
0.064349
 30
0.000000
  0
VERTEX
  8
LAYER-1
 10
5.030927
 20
0.075200
 30
0.000000
  0
VERTEX
  8
LAYER-1
 10
5.053673
 20
0.081710
 30
0.000000
  0
VERTEX
  8
LAYER-1
 10
5.076903
 20
0.081710
 30
0.000000
  0
VERTEX
  8
LAYER-1
 10
5.104006
 20
0.081710
 30
0.000000
  0
VERTEX
  8
LAYER-1
 10
5.131107
 20
0.081710
 30
0.000000
  0
VERTEX
  8
LAYER-1
 10
5.169825
 20
0.078238
 30
0.000000
  0
VERTEX
  8
LAYER-1
 10
5.224029
 20
0.074766
 30
0.000000
  0
VERTEX
  8
LAYER-1
 10
5.266617
 20
0.074766
 30
0.000000
  0
VERTEX
  8
LAYER-1
 10
5.297591
 20
0.074766
 30
0.000000
  0
VERTEX
  8
LAYER-1
 10
5.320822
 20
0.074766
 30
0.000000
  0
VERTEX
  8
LAYER-1
 10
5.344052
 20
0.074766
 30
0.000000
  0
VERTEX
  8
LAYER-1
 10
5.375025
 20
0.078238
 30
0.000000
  0
VERTEX
  8
LAYER-1
 10
5.413743
 20
0.078238
 30
0.000000
  0
VERTEX
  8
LAYER-1
 10
5.444716
 20
0.078238
 30
0.000000
  0
VERTEX
  8
LAYER-1
 10
5.467946
 20
0.081710
 30
0.000000
  0
VERTEX
  8
LAYER-1
 10
5.498920
 20
0.081710
 30
0.000000
  0
VERTEX
  8
LAYER-1
 10
5.518279
 20
0.081710
 30
0.000000
  0
VERTEX
  8
LAYER-1
 10
5.549252
 20
0.073029
 30
0.000000
  0
VERTEX
  8
LAYER-1
 10
5.576355
 20
0.060877
 30
0.000000
  0
VERTEX
  8
LAYER-1
 10
5.611199
 20
0.046988
 30
0.000000
  0
VERTEX
  8
LAYER-1
 10
5.638302
 20
0.040044
 30
0.000000
  0
VERTEX
  8
LAYER-1
 10
5.669275
 20
0.033099
 30
0.000000
  0
VERTEX
  8
LAYER-1
 10
5.696861
 20
0.030929
 30
0.000000
  0
VERTEX
  8
LAYER-1
 10
5.723479
 20
0.029627
 30
0.000000
  0
VERTEX
  8
LAYER-1
 10
5.746710
 20
0.033099
 30
0.000000
  0
VERTEX
  8
LAYER-1
 10
5.769939
 20
0.040044
 30
0.000000
  0
VERTEX
  8
LAYER-1
 10
5.797042
 20
0.043516
 30
0.000000
  0
VERTEX
  8
LAYER-1
 10
5.820272
 20
0.046988
 30
0.000000
  0
VERTEX
  8
LAYER-1
 10
5.843502
 20
0.050460
 30
0.000000
  0
VERTEX
  8
LAYER-1
 10
5.862861
 20
0.053932
 30
0.000000
  0
VERTEX
  8
LAYER-1
 10
5.886091
 20
0.053932
 30
0.000000
  0
VERTEX
  8
LAYER-1
 10
5.913193
 20
0.053932
 30
0.000000
  0
VERTEX
  8
LAYER-1
 10
5.933036
 20
0.056536
 30
0.000000
  0
VERTEX
  8
LAYER-1
 10
5.959654
 20
0.060877
 30
0.000000
  0
VERTEX
  8
LAYER-1
 10
5.982884
 20
0.067821
 30
0.000000
  0
VERTEX
  8
LAYER-1
 10
6.013858
 20
0.067821
 30
0.000000
  0
VERTEX
  8
LAYER-1
 10
6.044831
 20
0.067821
 30
0.000000
  0
VERTEX
  8
LAYER-1
 10
6.064190
 20
0.067821
 30
0.000000
  0
VERTEX
  8
LAYER-1
 10
6.118394
 20
0.060877
 30
0.000000
  0
VERTEX
  8
LAYER-1
 10
6.149367
 20
0.053932
 30
0.000000
  0
VERTEX
  8
LAYER-1
 10
6.168726
 20
0.050460
 30
0.000000
  0
VERTEX
  8
LAYER-1
 10
6.203571
 20
0.050460
 30
0.000000
  0
VERTEX
  8
LAYER-1
 10
6.227285
 20
0.057838
 30
0.000000
  0
VERTEX
  8
LAYER-1
 10
6.249064
 20
0.058706
 30
0.000000
  0
VERTEX
  8
LAYER-1
 10
6.300848
 20
0.065651
 30
0.000000
  0
VERTEX
  8
LAYER-1
 10
6.349244
 20
0.075634
 30
0.000000
  0
VERTEX
  8
LAYER-1
 10
6.385542
 20
0.079107
 30
0.000000
  0
VERTEX
  8
LAYER-1
 10
6.418451
 20
0.079540
 30
0.000000
  0
VERTEX
  8
LAYER-1
 10
6.435390
 20
0.074766
 30
0.000000
  0
VERTEX
  8
LAYER-1
 10
6.453781
 20
0.071294
 30
0.000000
  0
VERTEX
  8
LAYER-1
 10
6.484754
 20
0.066085
 30
0.000000
  0
VERTEX
  8
LAYER-1
 10
6.524924
 20
0.074331
 30
0.000000
  0
VERTEX
  8
LAYER-1
 10
6.540410
 20
0.081710
 30
0.000000
  0
VERTEX
  8
LAYER-1
 10
6.563641
 20
0.081710
 30
0.000000
  0
VERTEX
  8
LAYER-1
 10
6.586871
 20
0.081710
 30
0.000000
  0
VERTEX
  8
LAYER-1
 10
6.613973
 20
0.074766
 30
0.000000
  0
VERTEX
  8
LAYER-1
 10
6.637203
 20
0.060877
 30
0.000000
  0
VERTEX
  8
LAYER-1
 10
6.664305
 20
0.050460
 30
0.000000
  0
VERTEX
  8
LAYER-1
 10
6.691407
 20
0.040044
 30
0.000000
  0
VERTEX
  8
LAYER-1
 10
6.714637
 20
0.040044
 30
0.000000
  0
VERTEX
  8
LAYER-1
 10
6.744698
 20
0.040026
 30
0.000000
  0
VERTEX
  8
LAYER-1
 10
6.768841
 20
0.050460
 30
0.000000
  0
SEQEND
  8
LAYER-1
  0
TEXT
  8
LAYER-1
 62
  0
 10
1.809856
 20
8.456709
 30
0.000000
 40
0.125000
  1
FERMETURE REPLIABLE DE VERRE TREMPâ
 72
  5
 11
5.462634
 21
8.456709
 31
0.000000
  0
TEXT
  8
LAYER-1
 62
  0
 10
5.865411
 20
0.553931
 30
0.000000
 40
0.125000
  1
Douille
 72
  5
 11
6.476523
 21
0.553931
 31
0.000000
  0
TEXT
  8
LAYER-1
 62
  0
 10
5.865411
 20
0.359487
 30
0.000000
 40
0.125000
  1
anti-poussiÅre
 72
  5
 11
7.045967
 21
0.359487
 31
0.000000
  0
POLYLINE
  8
LAYER-1
 66
  1
 70
  0
 62
  0
 10
5.851523
 20
0.470598
 30
0.000000
  0
VERTEX
  8
LAYER-1
 10
5.851523
 20
0.470598
 30
0.000000
  0
VERTEX
  8
LAYER-1
 10
3.787657
 20
0.161018
 30
0.000000
  0
SEQEND
  8
LAYER-1
  0
POLYLINE
  8
LAYER-1
 66
  1
 70
  1
 62
  0
  0
VERTEX
  8
LAYER-1
 10
3.768189
 20
0.158098
 30
0.000000
  0
VERTEX
  8
LAYER-1
 10
3.830684
 20
0.209605
 30
0.000000
  0
VERTEX
  8
LAYER-1
 10
3.836865
 20
0.168399
 30
0.000000
  0
VERTEX
  8
LAYER-1
 10
3.843046
 20
0.127194
 30
0.000000
  0
VERTEX
  8
LAYER-1
 10
3.768189
 20
0.158098
 30
0.000000
  0
SEQEND
  8
LAYER-1
  0
LINE
  8
LAYER-1
 62
  0
 10
5.910550
 20
7.418515
 30
0.000000
 11
5.910550
 21
7.150476
 31
0.000000
  0
LINE
  8
LAYER-1
 62
  0
 10
5.827429
 20
7.418515
 30
0.000000
 11
6.035550
 21
7.418515
 31
0.000000
  0
LINE
  8
LAYER-1
 62
  0
 10
5.833292
 20
7.150476
 30
0.000000
 11
6.035550
 21
7.150476
 31
0.000000
  0
LINE
  8
LAYER-1
 62
  0
 10
5.940013
 20
7.389052
 30
0.000000
 11
5.881088
 21
7.447978
 31
0.000000
  0
LINE
  8
LAYER-1
 62
  0
 10
5.940013
 20
7.121013
 30
0.000000
 11
5.881088
 21
7.179939
 31
0.000000
  0
TEXT
  8
LAYER-1
 62
  0
 10
5.786594
 20
7.275912
 30
0.000000
 40
0.125000
  1
 
 50
90.000000
  0
TEXT
  8
LAYER-1
 62
  0
 10
6.212634
 20
7.303931
 30
0.000000
 40
0.125000
  1
4"
 72
  5
 11
6.434856
 21
7.303931
 31
0.000000
  0
TEXT
  8
LAYER-1
 62
  0
 10
5.990411
 20
7.109487
 30
0.000000
 40
0.125000
  1
102mm
 72
  5
 11
6.657078
 21
7.109487
 31
0.000000
  0
LINE
  8
LAYER-1
 62
  0
 10
4.517320
 20
7.681725
 30
0.000000
 11
4.927043
 21
7.681725
 31
0.000000
  0
LINE
  8
LAYER-1
 62
  0
 10
4.517320
 20
7.311935
 30
0.000000
 11
4.517320
 21
7.806725
 31
0.000000
  0
LINE
  8
LAYER-1
 62
  0
 10
4.927043
 20
7.310198
 30
0.000000
 11
4.927043
 21
7.806725
 31
0.000000
  0
LINE
  8
LAYER-1
 62
  0
 10
4.546783
 20
7.711188
 30
0.000000
 11
4.487858
 21
7.652262
 31
0.000000
  0
LINE
  8
LAYER-1
 62
  0
 10
4.956506
 20
7.711188
 30
0.000000
 11
4.897580
 21
7.652262
 31
0.000000
  0
TEXT
  8
LAYER-1
 62
  0
 10
4.717336
 20
7.803384
 30
0.000000
 40
0.125000
  1
 
  0
TEXT
  8
LAYER-1
 62
  0
 10
4.601523
 20
8.026154
 30
0.000000
 40
0.125000
  1
6"
 72
  5
 11
4.823745
 21
8.026154
 31
0.000000
  0
TEXT
  8
LAYER-1
 62
  0
 10
4.379300
 20
7.831709
 30
0.000000
 40
0.125000
  1
152mm
 72
  5
 11
5.045967
 21
7.831709
 31
0.000000
  0
POLYLINE
  8
LAYER-1
 66
  1
 70
  0
 62
  0
 10
3.471728
 20
0.196410
 30
0.000000
  0
VERTEX
  8
LAYER-1
 10
3.471728
 20
0.196410
 30
0.000000
  0
VERTEX
  8
LAYER-1
 10
3.471728
 20
0.195220
 30
0.000000
  0
SEQEND
  8
LAYER-1
  0
POLYLINE
  8
LAYER-1
 66
  1
 70
  1
 62
  0
 10
1.299871
 20
0.101242
 30
0.000000
  0
VERTEX
  8
LAYER-1
 10
1.299871
 20
0.101242
 30
0.000000
  0
VERTEX
  8
LAYER-1
 10
1.306815
 20
0.075201
 30
0.000000
  0
VERTEX
  8
LAYER-1
 10
1.331990
 20
0.089089
 30
0.000000
  0
SEQEND
  8
LAYER-1
  0
POLYLINE
  8
LAYER-1
 66
  1
 70
  1
 62
  0
 10
1.489975
 20
0.206275
 30
0.000000
  0
VERTEX
  8
LAYER-1
 10
1.489975
 20
0.206275
 30
0.000000
  0
VERTEX
  8
LAYER-1
 10
1.476955
 20
0.183705
 30
0.000000
  0
VERTEX
  8
LAYER-1
 10
1.507337
 20
0.204538
 30
0.000000
  0
SEQEND
  8
LAYER-1
  0
POLYLINE
  8
LAYER-1
 66
  1
 70
  1
 62
  0
 10
1.135809
 20
0.142041
 30
0.000000
  0
VERTEX
  8
LAYER-1
 10
1.135809
 20
0.142041
 30
0.000000
  0
VERTEX
  8
LAYER-1
 10
1.119316
 20
0.116866
 30
0.000000
  0
VERTEX
  8
LAYER-1
 10
1.134072
 20
0.109054
 30
0.000000
  0
SEQEND
  8
LAYER-1
  0
POLYLINE
  8
LAYER-1
 66
  1
 70
  0
 62
  0
 10
1.302475
 20
0.142910
 30
0.000000
  0
VERTEX
  8
LAYER-1
 10
1.302475
 20
0.142910
 30
0.000000
  0
VERTEX
  8
LAYER-1
 10
1.298136
 20
0.142910
 30
0.000000
  0
VERTEX
  8
LAYER-1
 10
1.294663
 20
0.138569
 30
0.000000
  0
VERTEX
  8
LAYER-1
 10
1.293795
 20
0.133361
 30
0.000000
  0
VERTEX
  8
LAYER-1
 10
1.295531
 20
0.129021
 30
0.000000
  0
VERTEX
  8
LAYER-1
 10
1.299872
 20
0.127285
 30
0.000000
  0
VERTEX
  8
LAYER-1
 10
1.304211
 20
0.127285
 30
0.000000
  0
VERTEX
  8
LAYER-1
 10
1.308552
 20
0.130757
 30
0.000000
  0
VERTEX
  8
LAYER-1
 10
1.308552
 20
0.135097
 30
0.000000
  0
VERTEX
  8
LAYER-1
 10
1.307684
 20
0.139438
 30
0.000000
  0
VERTEX
  8
LAYER-1
 10
1.303343
 20
0.142042
 30
0.000000
  0
SEQEND
  8
LAYER-1
  0
POLYLINE
  8
LAYER-1
 66
  1
 70
  1
 62
  0
 10
0.940497
 20
0.181102
 30
0.000000
  0
VERTEX
  8
LAYER-1
 10
0.940497
 20
0.181102
 30
0.000000
  0
VERTEX
  8
LAYER-1
 10
0.927475
 20
0.158533
 30
0.000000
  0
VERTEX
  8
LAYER-1
 10
0.957857
 20
0.179365
 30
0.000000
  0
SEQEND
  8
LAYER-1
  0
POLYLINE
  8
LAYER-1
 66
  1
 70
  1
 62
  0
 10
1.072274
 20
0.180768
 30
0.000000
  0
VERTEX
  8
LAYER-1
 10
1.072274
 20
0.180768
 30
0.000000
  0
VERTEX
  8
LAYER-1
 10
1.059587
 20
0.161404
 30
0.000000
  0
VERTEX
  8
LAYER-1
 10
1.070939
 20
0.155394
 30
0.000000
  0
SEQEND
  8
LAYER-1
  0
POLYLINE
  8
LAYER-1
 66
  1
 70
  0
 62
  0
 10
1.430080
 20
0.162005
 30
0.000000
  0
VERTEX
  8
LAYER-1
 10
1.430080
 20
0.162005
 30
0.000000
  0
VERTEX
  8
LAYER-1
 10
1.425739
 20
0.162005
 30
0.000000
  0
VERTEX
  8
LAYER-1
 10
1.422267
 20
0.157665
 30
0.000000
  0
VERTEX
  8
LAYER-1
 10
1.421400
 20
0.152457
 30
0.000000
  0
VERTEX
  8
LAYER-1
 10
1.423135
 20
0.148116
 30
0.000000
  0
VERTEX
  8
LAYER-1
 10
1.427475
 20
0.146380
 30
0.000000
  0
VERTEX
  8
LAYER-1
 10
1.431816
 20
0.146380
 30
0.000000
  0
VERTEX
  8
LAYER-1
 10
1.436156
 20
0.149852
 30
0.000000
  0
VERTEX
  8
LAYER-1
 10
1.436156
 20
0.154193
 30
0.000000
  0
VERTEX
  8
LAYER-1
 10
1.435288
 20
0.158534
 30
0.000000
  0
VERTEX
  8
LAYER-1
 10
1.430948
 20
0.161138
 30
0.000000
  0
SEQEND
  8
LAYER-1
  0
POLYLINE
  8
LAYER-1
 66
  1
 70
  0
 62
  0
 10
1.187892
 20
0.135964
 30
0.000000
  0
VERTEX
  8
LAYER-1
 10
1.187892
 20
0.135964
 30
0.000000
  0
VERTEX
  8
LAYER-1
 10
1.183552
 20
0.135964
 30
0.000000
  0
VERTEX
  8
LAYER-1
 10
1.180079
 20
0.131623
 30
0.000000
  0
VERTEX
  8
LAYER-1
 10
1.179211
 20
0.126416
 30
0.000000
  0
VERTEX
  8
LAYER-1
 10
1.180947
 20
0.122075
 30
0.000000
  0
VERTEX
  8
LAYER-1
 10
1.185288
 20
0.120339
 30
0.000000
  0
VERTEX
  8
LAYER-1
 10
1.189629
 20
0.120339
 30
0.000000
  0
VERTEX
  8
LAYER-1
 10
1.193968
 20
0.123811
 30
0.000000
  0
VERTEX
  8
LAYER-1
 10
1.193968
 20
0.128152
 30
0.000000
  0
VERTEX
  8
LAYER-1
 10
1.193100
 20
0.132492
 30
0.000000
  0
VERTEX
  8
LAYER-1
 10
1.188760
 20
0.135096
 30
0.000000
  0
SEQEND
  8
LAYER-1
  0
POLYLINE
  8
LAYER-1
 66
  1
 70
  0
 62
  0
 10
1.023829
 20
0.128152
 30
0.000000
  0
VERTEX
  8
LAYER-1
 10
1.023829
 20
0.128152
 30
0.000000
  0
VERTEX
  8
LAYER-1
 10
1.019490
 20
0.128152
 30
0.000000
  0
VERTEX
  8
LAYER-1
 10
1.016017
 20
0.123811
 30
0.000000
  0
VERTEX
  8
LAYER-1
 10
1.015149
 20
0.118603
 30
0.000000
  0
VERTEX
  8
LAYER-1
 10
1.016885
 20
0.114263
 30
0.000000
  0
VERTEX
  8
LAYER-1
 10
1.021225
 20
0.112527
 30
0.000000
  0
VERTEX
  8
LAYER-1
 10
1.025565
 20
0.112527
 30
0.000000
  0
VERTEX
  8
LAYER-1
 10
1.029906
 20
0.115998
 30
0.000000
  0
VERTEX
  8
LAYER-1
 10
1.029906
 20
0.120339
 30
0.000000
  0
VERTEX
  8
LAYER-1
 10
1.029038
 20
0.124680
 30
0.000000
  0
VERTEX
  8
LAYER-1
 10
1.024697
 20
0.127284
 30
0.000000
  0
SEQEND
  8
LAYER-1
  0
POLYLINE
  8
LAYER-1
 66
  1
 70
  1
 62
  0
 10
1.651869
 20
0.152891
 30
0.000000
  0
VERTEX
  8
LAYER-1
 10
1.651869
 20
0.152891
 30
0.000000
  0
VERTEX
  8
LAYER-1
 10
1.625829
 20
0.145946
 30
0.000000
  0
VERTEX
  8
LAYER-1
 10
1.639716
 20
0.120772
 30
0.000000
  0
SEQEND
  8
LAYER-1
  0
POLYLINE
  8
LAYER-1
 66
  1
 70
  1
 62
  0
 10
1.713413
 20
0.093293
 30
0.000000
  0
VERTEX
  8
LAYER-1
 10
1.713413
 20
0.093293
 30
0.000000
  0
VERTEX
  8
LAYER-1
 10
1.735983
 20
0.080272
 30
0.000000
  0
VERTEX
  8
LAYER-1
 10
1.715151
 20
0.110654
 30
0.000000
  0
SEQEND
  8
LAYER-1
  0
POLYLINE
  8
LAYER-1
 66
  1
 70
  1
 62
  0
 10
1.244751
 20
0.160703
 30
0.000000
  0
VERTEX
  8
LAYER-1
 10
1.244751
 20
0.160703
 30
0.000000
  0
VERTEX
  8
LAYER-1
 10
1.219577
 20
0.177196
 30
0.000000
  0
VERTEX
  8
LAYER-1
 10
1.211765
 20
0.162439
 30
0.000000
  0
SEQEND
  8
LAYER-1
  0
POLYLINE
  8
LAYER-1
 66
  1
 70
  0
 62
  0
 10
1.663154
 20
0.189351
 30
0.000000
  0
VERTEX
  8
LAYER-1
 10
1.663154
 20
0.189351
 30
0.000000
  0
VERTEX
  8
LAYER-1
 10
1.663154
 20
0.193691
 30
0.000000
  0
VERTEX
  8
LAYER-1
 10
1.658814
 20
0.197163
 30
0.000000
  0
VERTEX
  8
LAYER-1
 10
1.653606
 20
0.198030
 30
0.000000
  0
VERTEX
  8
LAYER-1
 10
1.649265
 20
0.196295
 30
0.000000
  0
VERTEX
  8
LAYER-1
 10
1.647529
 20
0.191954
 30
0.000000
  0
VERTEX
  8
LAYER-1
 10
1.647529
 20
0.187614
 30
0.000000
  0
VERTEX
  8
LAYER-1
 10
1.651001
 20
0.183273
 30
0.000000
  0
VERTEX
  8
LAYER-1
 10
1.655342
 20
0.183273
 30
0.000000
  0
VERTEX
  8
LAYER-1
 10
1.659682
 20
0.184141
 30
0.000000
  0
VERTEX
  8
LAYER-1
 10
1.662288
 20
0.188482
 30
0.000000
  0
SEQEND
  8
LAYER-1
  0
POLYLINE
  8
LAYER-1
 66
  1
 70
  1
 62
  0
 10
1.615411
 20
0.165042
 30
0.000000
  0
VERTEX
  8
LAYER-1
 10
1.615411
 20
0.165042
 30
0.000000
  0
VERTEX
  8
LAYER-1
 10
1.592841
 20
0.178064
 30
0.000000
  0
VERTEX
  8
LAYER-1
 10
1.613674
 20
0.147682
 30
0.000000
  0
SEQEND
  8
LAYER-1
  0
POLYLINE
  8
LAYER-1
 66
  1
 70
  1
 62
  0
 10
1.263513
 20
0.177362
 30
0.000000
  0
VERTEX
  8
LAYER-1
 10
1.263513
 20
0.177362
 30
0.000000
  0
VERTEX
  8
LAYER-1
 10
1.244149
 20
0.190049
 30
0.000000
  0
VERTEX
  8
LAYER-1
 10
1.238138
 20
0.178698
 30
0.000000
  0
SEQEND
  8
LAYER-1
  0
POLYLINE
  8
LAYER-1
 66
  1
 70
  0
 62
  0
 10
1.729387
 20
0.053710
 30
0.000000
  0
VERTEX
  8
LAYER-1
 10
1.729387
 20
0.053710
 30
0.000000
  0
VERTEX
  8
LAYER-1
 10
1.729387
 20
0.049370
 30
0.000000
  0
VERTEX
  8
LAYER-1
 10
1.733727
 20
0.045898
 30
0.000000
  0
VERTEX
  8
LAYER-1
 10
1.738935
 20
0.045030
 30
0.000000
  0
VERTEX
  8
LAYER-1
 10
1.743276
 20
0.046766
 30
0.000000
  0
VERTEX
  8
LAYER-1
 10
1.745012
 20
0.051106
 30
0.000000
  0
VERTEX
  8
LAYER-1
 10
1.745012
 20
0.055447
 30
0.000000
  0
VERTEX
  8
LAYER-1
 10
1.741540
 20
0.059786
 30
0.000000
  0
VERTEX
  8
LAYER-1
 10
1.737199
 20
0.059786
 30
0.000000
  0
VERTEX
  8
LAYER-1
 10
1.732859
 20
0.058918
 30
0.000000
  0
VERTEX
  8
LAYER-1
 10
1.730254
 20
0.054578
 30
0.000000
  0
SEQEND
  8
LAYER-1
  0
POLYLINE
  8
LAYER-1
 66
  1
 70
  0
 62
  0
 10
1.238674
 20
0.108620
 30
0.000000
  0
VERTEX
  8
LAYER-1
 10
1.238674
 20
0.108620
 30
0.000000
  0
VERTEX
  8
LAYER-1
 10
1.238674
 20
0.112960
 30
0.000000
  0
VERTEX
  8
LAYER-1
 10
1.234333
 20
0.116432
 30
0.000000
  0
VERTEX
  8
LAYER-1
 10
1.229126
 20
0.117300
 30
0.000000
  0
VERTEX
  8
LAYER-1
 10
1.224785
 20
0.115564
 30
0.000000
  0
VERTEX
  8
LAYER-1
 10
1.223049
 20
0.111223
 30
0.000000
  0
VERTEX
  8
LAYER-1
 10
1.223049
 20
0.106884
 30
0.000000
  0
VERTEX
  8
LAYER-1
 10
1.226521
 20
0.102542
 30
0.000000
  0
VERTEX
  8
LAYER-1
 10
1.230861
 20
0.102542
 30
0.000000
  0
VERTEX
  8
LAYER-1
 10
1.235202
 20
0.103411
 30
0.000000
  0
VERTEX
  8
LAYER-1
 10
1.237807
 20
0.107752
 30
0.000000
  0
SEQEND
  8
LAYER-1
  0
POLYLINE
  8
LAYER-1
 66
  1
 70
  0
 62
  0
 10
1.540758
 20
0.143343
 30
0.000000
  0
VERTEX
  8
LAYER-1
 10
1.540758
 20
0.143343
 30
0.000000
  0
VERTEX
  8
LAYER-1
 10
1.540758
 20
0.147684
 30
0.000000
  0
VERTEX
  8
LAYER-1
 10
1.536417
 20
0.151155
 30
0.000000
  0
VERTEX
  8
LAYER-1
 10
1.531209
 20
0.152023
 30
0.000000
  0
VERTEX
  8
LAYER-1
 10
1.526869
 20
0.150288
 30
0.000000
  0
VERTEX
  8
LAYER-1
 10
1.525133
 20
0.145947
 30
0.000000
  0
VERTEX
  8
LAYER-1
 10
1.525133
 20
0.141607
 30
0.000000
  0
VERTEX
  8
LAYER-1
 10
1.528605
 20
0.137266
 30
0.000000
  0
VERTEX
  8
LAYER-1
 10
1.532945
 20
0.137266
 30
0.000000
  0
VERTEX
  8
LAYER-1
 10
1.537286
 20
0.138134
 30
0.000000
  0
VERTEX
  8
LAYER-1
 10
1.539891
 20
0.142476
 30
0.000000
  0
SEQEND
  8
LAYER-1
  0
POLYLINE
  8
LAYER-1
 66
  1
 70
  1
 62
  0
 10
1.759943
 20
0.135530
 30
0.000000
  0
VERTEX
  8
LAYER-1
 10
1.759943
 20
0.135530
 30
0.000000
  0
VERTEX
  8
LAYER-1
 10
1.766886
 20
0.109489
 30
0.000000
  0
VERTEX
  8
LAYER-1
 10
1.785984
 20
0.125114
 30
0.000000
  0
SEQEND
  8
LAYER-1
  0
POLYLINE
  8
LAYER-1
 66
  1
 70
  1
 62
  0
 10
1.943970
 20
0.157232
 30
0.000000
  0
VERTEX
  8
LAYER-1
 10
1.943970
 20
0.157232
 30
0.000000
  0
VERTEX
  8
LAYER-1
 10
1.930949
 20
0.134663
 30
0.000000
  0
VERTEX
  8
LAYER-1
 10
1.961331
 20
0.155496
 30
0.000000
  0
SEQEND
  8
LAYER-1
  0
POLYLINE
  8
LAYER-1
 66
  1
 70
  1
 62
  0
 10
1.993874
 20
0.055772
 30
0.000000
  0
VERTEX
  8
LAYER-1
 10
1.993874
 20
0.055772
 30
0.000000
  0
VERTEX
  8
LAYER-1
 10
1.977382
 20
0.030598
 30
0.000000
  0
VERTEX
  8
LAYER-1
 10
1.992138
 20
0.022786
 30
0.000000
  0
SEQEND
  8
LAYER-1
  0
POLYLINE
  8
LAYER-1
 66
  1
 70
  0
 62
  0
 10
1.732164
 20
0.159836
 30
0.000000
  0
VERTEX
  8
LAYER-1
 10
1.732164
 20
0.159836
 30
0.000000
  0
VERTEX
  8
LAYER-1
 10
1.727824
 20
0.159836
 30
0.000000
  0
VERTEX
  8
LAYER-1
 10
1.724352
 20
0.155496
 30
0.000000
  0
VERTEX
  8
LAYER-1
 10
1.723484
 20
0.150288
 30
0.000000
  0
VERTEX
  8
LAYER-1
 10
1.725220
 20
0.145947
 30
0.000000
  0
VERTEX
  8
LAYER-1
 10
1.729560
 20
0.144211
 30
0.000000
  0
VERTEX
  8
LAYER-1
 10
1.733900
 20
0.144211
 30
0.000000
  0
VERTEX
  8
LAYER-1
 10
1.738240
 20
0.147683
 30
0.000000
  0
VERTEX
  8
LAYER-1
 10
1.738240
 20
0.152023
 30
0.000000
  0
VERTEX
  8
LAYER-1
 10
1.737372
 20
0.156364
 30
0.000000
  0
VERTEX
  8
LAYER-1
 10
1.733032
 20
0.158968
 30
0.000000
  0
SEQEND
  8
LAYER-1
  0
POLYLINE
  8
LAYER-1
 66
  1
 70
  1
 62
  0
 10
1.769491
 20
0.092127
 30
0.000000
  0
VERTEX
  8
LAYER-1
 10
1.769491
 20
0.092127
 30
0.000000
  0
VERTEX
  8
LAYER-1
 10
1.756470
 20
0.069558
 30
0.000000
  0
VERTEX
  8
LAYER-1
 10
1.786852
 20
0.090391
 30
0.000000
  0
SEQEND
  8
LAYER-1
  0
POLYLINE
  8
LAYER-1
 66
  1
 70
  1
 62
  0
 10
2.025291
 20
0.037880
 30
0.000000
  0
VERTEX
  8
LAYER-1
 10
2.025291
 20
0.037880
 30
0.000000
  0
VERTEX
  8
LAYER-1
 10
2.037979
 20
0.057244
 30
0.000000
  0
VERTEX
  8
LAYER-1
 10
2.026627
 20
0.063255
 30
0.000000
  0
SEQEND
  8
LAYER-1
  0
POLYLINE
  8
LAYER-1
 66
  1
 70
  0
 62
  0
 10
1.924517
 20
0.038327
 30
0.000000
  0
VERTEX
  8
LAYER-1
 10
1.924517
 20
0.038327
 30
0.000000
  0
VERTEX
  8
LAYER-1
 10
1.928857
 20
0.038327
 30
0.000000
  0
VERTEX
  8
LAYER-1
 10
1.932329
 20
0.042668
 30
0.000000
  0
VERTEX
  8
LAYER-1
 10
1.933197
 20
0.047875
 30
0.000000
  0
VERTEX
  8
LAYER-1
 10
1.931461
 20
0.052216
 30
0.000000
  0
VERTEX
  8
LAYER-1
 10
1.927120
 20
0.053952
 30
0.000000
  0
VERTEX
  8
LAYER-1
 10
1.922781
 20
0.053952
 30
0.000000
  0
VERTEX
  8
LAYER-1
 10
1.918440
 20
0.050480
 30
0.000000
  0
VERTEX
  8
LAYER-1
 10
1.918440
 20
0.046139
 30
0.000000
  0
VERTEX
  8
LAYER-1
 10
1.919308
 20
0.041799
 30
0.000000
  0
VERTEX
  8
LAYER-1
 10
1.923649
 20
0.039194
 30
0.000000
  0
SEQEND
  8
LAYER-1
  0
POLYLINE
  8
LAYER-1
 66
  1
 70
  0
 62
  0
 10
1.614021
 20
0.074195
 30
0.000000
  0
VERTEX
  8
LAYER-1
 10
1.614021
 20
0.074195
 30
0.000000
  0
VERTEX
  8
LAYER-1
 10
1.618361
 20
0.074195
 30
0.000000
  0
VERTEX
  8
LAYER-1
 10
1.621833
 20
0.078535
 30
0.000000
  0
VERTEX
  8
LAYER-1
 10
1.622702
 20
0.083743
 30
0.000000
  0
VERTEX
  8
LAYER-1
 10
1.620966
 20
0.088084
 30
0.000000
  0
VERTEX
  8
LAYER-1
 10
1.616625
 20
0.089820
 30
0.000000
  0
VERTEX
  8
LAYER-1
 10
1.612285
 20
0.089820
 30
0.000000
  0
VERTEX
  8
LAYER-1
 10
1.607944
 20
0.086348
 30
0.000000
  0
VERTEX
  8
LAYER-1
 10
1.607944
 20
0.082008
 30
0.000000
  0
VERTEX
  8
LAYER-1
 10
1.608813
 20
0.077666
 30
0.000000
  0
VERTEX
  8
LAYER-1
 10
1.613154
 20
0.075062
 30
0.000000
  0
SEQEND
  8
LAYER-1
  0
POLYLINE
  8
LAYER-1
 66
  1
 70
  1
 62
  0
 10
2.109335
 20
0.140305
 30
0.000000
  0
VERTEX
  8
LAYER-1
 10
2.109335
 20
0.140305
 30
0.000000
  0
VERTEX
  8
LAYER-1
 10
2.083295
 20
0.133360
 30
0.000000
  0
VERTEX
  8
LAYER-1
 10
2.097182
 20
0.108187
 30
0.000000
  0
SEQEND
  8
LAYER-1
  0
POLYLINE
  8
LAYER-1
 66
  1
 70
  1
 62
  0
 10
1.848218
 20
0.100710
 30
0.000000
  0
VERTEX
  8
LAYER-1
 10
1.848218
 20
0.100710
 30
0.000000
  0
VERTEX
  8
LAYER-1
 10
1.825647
 20
0.113731
 30
0.000000
  0
VERTEX
  8
LAYER-1
 10
1.846480
 20
0.083349
 30
0.000000
  0
SEQEND
  8
LAYER-1
  0
POLYLINE
  8
LAYER-1
 66
  1
 70
  1
 62
  0
 10
1.878075
 20
0.023137
 30
0.000000
  0
VERTEX
  8
LAYER-1
 10
1.878075
 20
0.023137
 30
0.000000
  0
VERTEX
  8
LAYER-1
 10
1.903248
 20
0.006643
 30
0.000000
  0
VERTEX
  8
LAYER-1
 10
1.911061
 20
0.021400
 30
0.000000
  0
SEQEND
  8
LAYER-1
  0
POLYLINE
  8
LAYER-1
 66
  1
 70
  0
 62
  0
 10
2.140585
 20
0.189783
 30
0.000000
  0
VERTEX
  8
LAYER-1
 10
2.140585
 20
0.189783
 30
0.000000
  0
VERTEX
  8
LAYER-1
 10
2.140585
 20
0.194123
 30
0.000000
  0
VERTEX
  8
LAYER-1
 10
2.136244
 20
0.197595
 30
0.000000
  0
VERTEX
  8
LAYER-1
 10
2.131037
 20
0.198463
 30
0.000000
  0
VERTEX
  8
LAYER-1
 10
2.126696
 20
0.196727
 30
0.000000
  0
VERTEX
  8
LAYER-1
 10
2.124960
 20
0.192386
 30
0.000000
  0
VERTEX
  8
LAYER-1
 10
2.124960
 20
0.188047
 30
0.000000
  0
VERTEX
  8
LAYER-1
 10
2.128432
 20
0.183706
 30
0.000000
  0
VERTEX
  8
LAYER-1
 10
2.132772
 20
0.183706
 30
0.000000
  0
VERTEX
  8
LAYER-1
 10
2.137113
 20
0.184574
 30
0.000000
  0
VERTEX
  8
LAYER-1
 10
2.139718
 20
0.188915
 30
0.000000
  0
SEQEND
  8
LAYER-1
  0
POLYLINE
  8
LAYER-1
 66
  1
 70
  1
 62
  0
 10
2.072877
 20
0.152457
 30
0.000000
  0
VERTEX
  8
LAYER-1
 10
2.072877
 20
0.152457
 30
0.000000
  0
VERTEX
  8
LAYER-1
 10
2.050307
 20
0.165478
 30
0.000000
  0
VERTEX
  8
LAYER-1
 10
2.071139
 20
0.135096
 30
0.000000
  0
SEQEND
  8
LAYER-1
  0
POLYLINE
  8
LAYER-1
 66
  1
 70
  1
 62
  0
 10
0.841639
 20
0.189081
 30
0.000000
  0
VERTEX
  8
LAYER-1
 10
0.841639
 20
0.189081
 30
0.000000
  0
VERTEX
  8
LAYER-1
 10
0.822275
 20
0.201768
 30
0.000000
  0
VERTEX
  8
LAYER-1
 10
0.816263
 20
0.190417
 30
0.000000
  0
SEQEND
  8
LAYER-1
  0
POLYLINE
  8
LAYER-1
 66
  1
 70
  0
 62
  0
 10
1.852557
 20
0.160606
 30
0.000000
  0
VERTEX
  8
LAYER-1
 10
1.852557
 20
0.160606
 30
0.000000
  0
VERTEX
  8
LAYER-1
 10
1.852557
 20
0.164946
 30
0.000000
  0
VERTEX
  8
LAYER-1
 10
1.848216
 20
0.168419
 30
0.000000
  0
VERTEX
  8
LAYER-1
 10
1.843008
 20
0.169286
 30
0.000000
  0
VERTEX
  8
LAYER-1
 10
1.838668
 20
0.167551
 30
0.000000
  0
VERTEX
  8
LAYER-1
 10
1.836932
 20
0.163210
 30
0.000000
  0
VERTEX
  8
LAYER-1
 10
1.836932
 20
0.158869
 30
0.000000
  0
VERTEX
  8
LAYER-1
 10
1.840403
 20
0.154529
 30
0.000000
  0
VERTEX
  8
LAYER-1
 10
1.844744
 20
0.154529
 30
0.000000
  0
VERTEX
  8
LAYER-1
 10
1.849085
 20
0.155397
 30
0.000000
  0
VERTEX
  8
LAYER-1
 10
1.851690
 20
0.159738
 30
0.000000
  0
SEQEND
  8
LAYER-1
  0
POLYLINE
  8
LAYER-1
 66
  1
 70
  0
 62
  0
 10
0.818536
 20
0.122074
 30
0.000000
  0
VERTEX
  8
LAYER-1
 10
0.818536
 20
0.122074
 30
0.000000
  0
VERTEX
  8
LAYER-1
 10
0.818536
 20
0.126415
 30
0.000000
  0
VERTEX
  8
LAYER-1
 10
0.814195
 20
0.129886
 30
0.000000
  0
VERTEX
  8
LAYER-1
 10
0.808987
 20
0.130754
 30
0.000000
  0
VERTEX
  8
LAYER-1
 10
0.804647
 20
0.129019
 30
0.000000
  0
VERTEX
  8
LAYER-1
 10
0.802911
 20
0.124678
 30
0.000000
  0
VERTEX
  8
LAYER-1
 10
0.802911
 20
0.120338
 30
0.000000
  0
VERTEX
  8
LAYER-1
 10
0.806382
 20
0.115997
 30
0.000000
  0
VERTEX
  8
LAYER-1
 10
0.810723
 20
0.115997
 30
0.000000
  0
VERTEX
  8
LAYER-1
 10
0.815064
 20
0.116865
 30
0.000000
  0
VERTEX
  8
LAYER-1
 10
0.817669
 20
0.121206
 30
0.000000
  0
SEQEND
  8
LAYER-1
  0
POLYLINE
  8
LAYER-1
 66
  1
 70
  0
 62
  0
 10
1.940932
 20
0.189779
 30
0.000000
  0
VERTEX
  8
LAYER-1
 10
1.940932
 20
0.189779
 30
0.000000
  0
VERTEX
  8
LAYER-1
 10
1.940932
 20
0.194121
 30
0.000000
  0
VERTEX
  8
LAYER-1
 10
1.936591
 20
0.197592
 30
0.000000
  0
VERTEX
  8
LAYER-1
 10
1.931383
 20
0.198460
 30
0.000000
  0
VERTEX
  8
LAYER-1
 10
1.927043
 20
0.196725
 30
0.000000
  0
VERTEX
  8
LAYER-1
 10
1.925307
 20
0.192384
 30
0.000000
  0
VERTEX
  8
LAYER-1
 10
1.925307
 20
0.188044
 30
0.000000
  0
VERTEX
  8
LAYER-1
 10
1.928779
 20
0.183703
 30
0.000000
  0
VERTEX
  8
LAYER-1
 10
1.933119
 20
0.183703
 30
0.000000
  0
VERTEX
  8
LAYER-1
 10
1.937460
 20
0.184571
 30
0.000000
  0
VERTEX
  8
LAYER-1
 10
1.940065
 20
0.188912
 30
0.000000
  0
SEQEND
  8
LAYER-1
  0
POLYLINE
  8
LAYER-1
 66
  1
 70
  1
 62
  0
 10
1.500219
 20
0.054315
 30
0.000000
  0
VERTEX
  8
LAYER-1
 10
1.500219
 20
0.054315
 30
0.000000
  0
VERTEX
  8
LAYER-1
 10
1.474178
 20
0.047370
 30
0.000000
  0
VERTEX
  8
LAYER-1
 10
1.488066
 20
0.022196
 30
0.000000
  0
SEQEND
  8
LAYER-1
  0
POLYLINE
  8
LAYER-1
 66
  1
 70
  1
 62
  0
 10
2.346747
 20
0.117735
 30
0.000000
  0
VERTEX
  8
LAYER-1
 10
2.346747
 20
0.117735
 30
0.000000
  0
VERTEX
  8
LAYER-1
 10
2.369317
 20
0.104714
 30
0.000000
  0
VERTEX
  8
LAYER-1
 10
2.348484
 20
0.135096
 30
0.000000
  0
SEQEND
  8
LAYER-1
  0
POLYLINE
  8
LAYER-1
 66
  1
 70
  1
 62
  0
 10
0.956121
 20
0.134661
 30
0.000000
  0
VERTEX
  8
LAYER-1
 10
0.956121
 20
0.134661
 30
0.000000
  0
VERTEX
  8
LAYER-1
 10
0.981296
 20
0.118169
 30
0.000000
  0
VERTEX
  8
LAYER-1
 10
0.989108
 20
0.132926
 30
0.000000
  0
SEQEND
  8
LAYER-1
  0
POLYLINE
  8
LAYER-1
 66
  1
 70
  0
 62
  0
 10
2.274699
 20
0.164608
 30
0.000000
  0
VERTEX
  8
LAYER-1
 10
2.274699
 20
0.164608
 30
0.000000
  0
VERTEX
  8
LAYER-1
 10
2.274699
 20
0.160266
 30
0.000000
  0
VERTEX
  8
LAYER-1
 10
2.279040
 20
0.156795
 30
0.000000
  0
VERTEX
  8
LAYER-1
 10
2.284247
 20
0.155927
 30
0.000000
  0
VERTEX
  8
LAYER-1
 10
2.288588
 20
0.157663
 30
0.000000
  0
VERTEX
  8
LAYER-1
 10
2.290324
 20
0.162003
 30
0.000000
  0
VERTEX
  8
LAYER-1
 10
2.290324
 20
0.166344
 30
0.000000
  0
VERTEX
  8
LAYER-1
 10
2.286852
 20
0.170684
 30
0.000000
  0
VERTEX
  8
LAYER-1
 10
2.282511
 20
0.170684
 30
0.000000
  0
VERTEX
  8
LAYER-1
 10
2.278171
 20
0.169816
 30
0.000000
  0
VERTEX
  8
LAYER-1
 10
2.275567
 20
0.165476
 30
0.000000
  0
SEQEND
  8
LAYER-1
  0
POLYLINE
  8
LAYER-1
 66
  1
 70
  1
 62
  0
 10
2.224351
 20
0.175894
 30
0.000000
  0
VERTEX
  8
LAYER-1
 10
2.224351
 20
0.175894
 30
0.000000
  0
VERTEX
  8
LAYER-1
 10
2.246921
 20
0.162872
 30
0.000000
  0
VERTEX
  8
LAYER-1
 10
2.226088
 20
0.193254
 30
0.000000
  0
SEQEND
  8
LAYER-1
  0
POLYLINE
  8
LAYER-1
 66
  1
 70
  1
 62
  0
 10
0.954720
 20
0.082412
 30
0.000000
  0
VERTEX
  8
LAYER-1
 10
0.954720
 20
0.082412
 30
0.000000
  0
VERTEX
  8
LAYER-1
 10
0.974085
 20
0.069725
 30
0.000000
  0
VERTEX
  8
LAYER-1
 10
0.980095
 20
0.081076
 30
0.000000
  0
SEQEND
  8
LAYER-1
  0
POLYLINE
  8
LAYER-1
 66
  1
 70
  0
 62
  0
 10
1.680861
 20
0.034697
 30
0.000000
  0
VERTEX
  8
LAYER-1
 10
1.680861
 20
0.034697
 30
0.000000
  0
VERTEX
  8
LAYER-1
 10
1.680861
 20
0.039036
 30
0.000000
  0
VERTEX
  8
LAYER-1
 10
1.676521
 20
0.042509
 30
0.000000
  0
VERTEX
  8
LAYER-1
 10
1.671313
 20
0.043377
 30
0.000000
  0
VERTEX
  8
LAYER-1
 10
1.666972
 20
0.041641
 30
0.000000
  0
VERTEX
  8
LAYER-1
 10
1.665236
 20
0.037301
 30
0.000000
  0
VERTEX
  8
LAYER-1
 10
1.665236
 20
0.032960
 30
0.000000
  0
VERTEX
  8
LAYER-1
 10
1.668708
 20
0.028620
 30
0.000000
  0
VERTEX
  8
LAYER-1
 10
1.673049
 20
0.028620
 30
0.000000
  0
VERTEX
  8
LAYER-1
 10
1.677389
 20
0.029488
 30
0.000000
  0
VERTEX
  8
LAYER-1
 10
1.679993
 20
0.033829
 30
0.000000
  0
SEQEND
  8
LAYER-1
  0
POLYLINE
  8
LAYER-1
 66
  1
 70
  0
 62
  0
 10
2.486504
 20
0.117735
 30
0.000000
  0
VERTEX
  8
LAYER-1
 10
2.486504
 20
0.117735
 30
0.000000
  0
VERTEX
  8
LAYER-1
 10
2.486504
 20
0.113395
 30
0.000000
  0
VERTEX
  8
LAYER-1
 10
2.490845
 20
0.109923
 30
0.000000
  0
VERTEX
  8
LAYER-1
 10
2.496053
 20
0.109055
 30
0.000000
  0
VERTEX
  8
LAYER-1
 10
2.500394
 20
0.110791
 30
0.000000
  0
VERTEX
  8
LAYER-1
 10
2.502129
 20
0.115130
 30
0.000000
  0
VERTEX
  8
LAYER-1
 10
2.502129
 20
0.119471
 30
0.000000
  0
VERTEX
  8
LAYER-1
 10
2.498658
 20
0.123812
 30
0.000000
  0
VERTEX
  8
LAYER-1
 10
2.494317
 20
0.123812
 30
0.000000
  0
VERTEX
  8
LAYER-1
 10
2.489976
 20
0.122943
 30
0.000000
  0
VERTEX
  8
LAYER-1
 10
2.487372
 20
0.118603
 30
0.000000
  0
SEQEND
  8
LAYER-1
  0
POLYLINE
  8
LAYER-1
 66
  1
 70
  0
 62
  0
 10
2.320706
 20
0.172423
 30
0.000000
  0
VERTEX
  8
LAYER-1
 10
2.320706
 20
0.172423
 30
0.000000
  0
VERTEX
  8
LAYER-1
 10
2.320706
 20
0.168082
 30
0.000000
  0
VERTEX
  8
LAYER-1
 10
2.325047
 20
0.164610
 30
0.000000
  0
VERTEX
  8
LAYER-1
 10
2.330254
 20
0.163742
 30
0.000000
  0
VERTEX
  8
LAYER-1
 10
2.334595
 20
0.165478
 30
0.000000
  0
VERTEX
  8
LAYER-1
 10
2.336331
 20
0.169818
 30
0.000000
  0
VERTEX
  8
LAYER-1
 10
2.336331
 20
0.174159
 30
0.000000
  0
VERTEX
  8
LAYER-1
 10
2.332859
 20
0.178499
 30
0.000000
  0
VERTEX
  8
LAYER-1
 10
2.328519
 20
0.178499
 30
0.000000
  0
VERTEX
  8
LAYER-1
 10
2.324178
 20
0.177630
 30
0.000000
  0
VERTEX
  8
LAYER-1
 10
2.321573
 20
0.173291
 30
0.000000
  0
SEQEND
  8
LAYER-1
  0
POLYLINE
  8
LAYER-1
 66
  1
 70
  1
 62
  0
 10
2.082859
 20
0.089523
 30
0.000000
  0
VERTEX
  8
LAYER-1
 10
2.082859
 20
0.089523
 30
0.000000
  0
VERTEX
  8
LAYER-1
 10
2.089804
 20
0.063483
 30
0.000000
  0
VERTEX
  8
LAYER-1
 10
2.114977
 20
0.077371
 30
0.000000
  0
SEQEND
  8
LAYER-1
  0
POLYLINE
  8
LAYER-1
 66
  1
 70
  1
 62
  0
 10
2.187373
 20
0.076766
 30
0.000000
  0
VERTEX
  8
LAYER-1
 10
2.187373
 20
0.076766
 30
0.000000
  0
VERTEX
  8
LAYER-1
 10
2.174352
 20
0.054195
 30
0.000000
  0
VERTEX
  8
LAYER-1
 10
2.204734
 20
0.075028
 30
0.000000
  0
SEQEND
  8
LAYER-1
  0
POLYLINE
  8
LAYER-1
 66
  1
 70
  1
 62
  0
 10
1.903338
 20
0.107221
 30
0.000000
  0
VERTEX
  8
LAYER-1
 10
1.903338
 20
0.107221
 30
0.000000
  0
VERTEX
  8
LAYER-1
 10
1.886845
 20
0.082047
 30
0.000000
  0
VERTEX
  8
LAYER-1
 10
1.901602
 20
0.074235
 30
0.000000
  0
SEQEND
  8
LAYER-1
  0
POLYLINE
  8
LAYER-1
 66
  1
 70
  0
 62
  0
 10
2.033380
 20
0.120773
 30
0.000000
  0
VERTEX
  8
LAYER-1
 10
2.033380
 20
0.120773
 30
0.000000
  0
VERTEX
  8
LAYER-1
 10
2.029040
 20
0.120773
 30
0.000000
  0
VERTEX
  8
LAYER-1
 10
2.025568
 20
0.116433
 30
0.000000
  0
VERTEX
  8
LAYER-1
 10
2.024700
 20
0.111226
 30
0.000000
  0
VERTEX
  8
LAYER-1
 10
2.026436
 20
0.106884
 30
0.000000
  0
VERTEX
  8
LAYER-1
 10
2.030777
 20
0.105148
 30
0.000000
  0
VERTEX
  8
LAYER-1
 10
2.035116
 20
0.105148
 30
0.000000
  0
VERTEX
  8
LAYER-1
 10
2.039457
 20
0.108621
 30
0.000000
  0
VERTEX
  8
LAYER-1
 10
2.039457
 20
0.112961
 30
0.000000
  0
VERTEX
  8
LAYER-1
 10
2.038589
 20
0.117302
 30
0.000000
  0
VERTEX
  8
LAYER-1
 10
2.034248
 20
0.119907
 30
0.000000
  0
SEQEND
  8
LAYER-1
  0
POLYLINE
  8
LAYER-1
 66
  1
 70
  1
 62
  0
 10
0.891019
 20
0.197161
 30
0.000000
  0
VERTEX
  8
LAYER-1
 10
0.891019
 20
0.197161
 30
0.000000
  0
VERTEX
  8
LAYER-1
 10
0.877997
 20
0.174591
 30
0.000000
  0
VERTEX
  8
LAYER-1
 10
0.908379
 20
0.195424
 30
0.000000
  0
SEQEND
  8
LAYER-1
  0
POLYLINE
  8
LAYER-1
 66
  1
 70
  1
 62
  0
 10
1.888415
 20
0.139871
 30
0.000000
  0
VERTEX
  8
LAYER-1
 10
1.888415
 20
0.139871
 30
0.000000
  0
VERTEX
  8
LAYER-1
 10
1.875728
 20
0.120506
 30
0.000000
  0
VERTEX
  8
LAYER-1
 10
1.887079
 20
0.114495
 30
0.000000
  0
SEQEND
  8
LAYER-1
  0
POLYLINE
  8
LAYER-1
 66
  1
 70
  0
 62
  0
 10
2.185290
 20
0.122509
 30
0.000000
  0
VERTEX
  8
LAYER-1
 10
2.185290
 20
0.122509
 30
0.000000
  0
VERTEX
  8
LAYER-1
 10
2.180950
 20
0.122509
 30
0.000000
  0
VERTEX
  8
LAYER-1
 10
2.177477
 20
0.118169
 30
0.000000
  0
VERTEX
  8
LAYER-1
 10
2.176609
 20
0.112961
 30
0.000000
  0
VERTEX
  8
LAYER-1
 10
2.178345
 20
0.108621
 30
0.000000
  0
VERTEX
  8
LAYER-1
 10
2.182686
 20
0.106884
 30
0.000000
  0
VERTEX
  8
LAYER-1
 10
2.187027
 20
0.106884
 30
0.000000
  0
VERTEX
  8
LAYER-1
 10
2.191366
 20
0.110357
 30
0.000000
  0
VERTEX
  8
LAYER-1
 10
2.191366
 20
0.114697
 30
0.000000
  0
VERTEX
  8
LAYER-1
 10
2.190498
 20
0.119038
 30
0.000000
  0
VERTEX
  8
LAYER-1
 10
2.186158
 20
0.121642
 30
0.000000
  0
SEQEND
  8
LAYER-1
  0
POLYLINE
  8
LAYER-1
 66
  1
 70
  0
 62
  0
 10
2.245186
 20
0.127717
 30
0.000000
  0
VERTEX
  8
LAYER-1
 10
2.245186
 20
0.127717
 30
0.000000
  0
VERTEX
  8
LAYER-1
 10
2.240845
 20
0.127717
 30
0.000000
  0
VERTEX
  8
LAYER-1
 10
2.237373
 20
0.123377
 30
0.000000
  0
VERTEX
  8
LAYER-1
 10
2.236505
 20
0.118169
 30
0.000000
  0
VERTEX
  8
LAYER-1
 10
2.238241
 20
0.113828
 30
0.000000
  0
VERTEX
  8
LAYER-1
 10
2.242582
 20
0.112092
 30
0.000000
  0
VERTEX
  8
LAYER-1
 10
2.246922
 20
0.112092
 30
0.000000
  0
VERTEX
  8
LAYER-1
 10
2.251262
 20
0.115564
 30
0.000000
  0
VERTEX
  8
LAYER-1
 10
2.251262
 20
0.119904
 30
0.000000
  0
VERTEX
  8
LAYER-1
 10
2.250394
 20
0.124246
 30
0.000000
  0
VERTEX
  8
LAYER-1
 10
2.246054
 20
0.126851
 30
0.000000
  0
SEQEND
  8
LAYER-1
  0
POLYLINE
  8
LAYER-1
 66
  1
 70
  0
 62
  0
 10
0.901435
 20
0.114696
 30
0.000000
  0
VERTEX
  8
LAYER-1
 10
0.901435
 20
0.114696
 30
0.000000
  0
VERTEX
  8
LAYER-1
 10
0.897094
 20
0.114696
 30
0.000000
  0
VERTEX
  8
LAYER-1
 10
0.893622
 20
0.110355
 30
0.000000
  0
VERTEX
  8
LAYER-1
 10
0.892754
 20
0.105147
 30
0.000000
  0
VERTEX
  8
LAYER-1
 10
0.894490
 20
0.100807
 30
0.000000
  0
VERTEX
  8
LAYER-1
 10
0.898831
 20
0.099071
 30
0.000000
  0
VERTEX
  8
LAYER-1
 10
0.903171
 20
0.099071
 30
0.000000
  0
VERTEX
  8
LAYER-1
 10
0.907511
 20
0.102542
 30
0.000000
  0
VERTEX
  8
LAYER-1
 10
0.907511
 20
0.106884
 30
0.000000
  0
VERTEX
  8
LAYER-1
 10
0.906644
 20
0.111224
 30
0.000000
  0
VERTEX
  8
LAYER-1
 10
0.902303
 20
0.113829
 30
0.000000
  0
SEQEND
  8
LAYER-1
  0
POLYLINE
  8
LAYER-1
 66
  1
 70
  1
 62
  0
 10
2.552477
 20
0.154627
 30
0.000000
  0
VERTEX
  8
LAYER-1
 10
2.552477
 20
0.154627
 30
0.000000
  0
VERTEX
  8
LAYER-1
 10
2.559422
 20
0.128585
 30
0.000000
  0
VERTEX
  8
LAYER-1
 10
2.584595
 20
0.142473
 30
0.000000
  0
SEQEND
  8
LAYER-1
  0
POLYLINE
  8
LAYER-1
 66
  1
 70
  1
 62
  0
 10
2.714804
 20
0.183272
 30
0.000000
  0
VERTEX
  8
LAYER-1
 10
2.714804
 20
0.183272
 30
0.000000
  0
VERTEX
  8
LAYER-1
 10
2.701783
 20
0.160703
 30
0.000000
  0
VERTEX
  8
LAYER-1
 10
2.732165
 20
0.181536
 30
0.000000
  0
SEQEND
  8
LAYER-1
  0
POLYLINE
  8
LAYER-1
 66
  1
 70
  1
 62
  0
 10
1.391018
 20
0.134227
 30
0.000000
  0
VERTEX
  8
LAYER-1
 10
1.391018
 20
0.134227
 30
0.000000
  0
VERTEX
  8
LAYER-1
 10
1.374525
 20
0.109053
 30
0.000000
  0
VERTEX
  8
LAYER-1
 10
1.389282
 20
0.101240
 30
0.000000
  0
SEQEND
  8
LAYER-1
  0
POLYLINE
  8
LAYER-1
 66
  1
 70
  0
 62
  0
 10
2.502998
 20
0.185877
 30
0.000000
  0
VERTEX
  8
LAYER-1
 10
2.502998
 20
0.185877
 30
0.000000
  0
VERTEX
  8
LAYER-1
 10
2.498658
 20
0.185877
 30
0.000000
  0
VERTEX
  8
LAYER-1
 10
2.495186
 20
0.181536
 30
0.000000
  0
VERTEX
  8
LAYER-1
 10
2.494317
 20
0.176328
 30
0.000000
  0
VERTEX
  8
LAYER-1
 10
2.496054
 20
0.171988
 30
0.000000
  0
VERTEX
  8
LAYER-1
 10
2.500394
 20
0.170252
 30
0.000000
  0
VERTEX
  8
LAYER-1
 10
2.504734
 20
0.170252
 30
0.000000
  0
VERTEX
  8
LAYER-1
 10
2.509075
 20
0.173723
 30
0.000000
  0
VERTEX
  8
LAYER-1
 10
2.509075
 20
0.178064
 30
0.000000
  0
VERTEX
  8
LAYER-1
 10
2.508206
 20
0.182404
 30
0.000000
  0
VERTEX
  8
LAYER-1
 10
2.503866
 20
0.185009
 30
0.000000
  0
SEQEND
  8
LAYER-1
  0
POLYLINE
  8
LAYER-1
 66
  1
 70
  1
 62
  0
 10
2.540325
 20
0.118167
 30
0.000000
  0
VERTEX
  8
LAYER-1
 10
2.540325
 20
0.118167
 30
0.000000
  0
VERTEX
  8
LAYER-1
 10
2.527304
 20
0.095598
 30
0.000000
  0
VERTEX
  8
LAYER-1
 10
2.557686
 20
0.116431
 30
0.000000
  0
SEQEND
  8
LAYER-1
  0
POLYLINE
  8
LAYER-1
 66
  1
 70
  1
 62
  0
 10
1.099251
 20
0.208539
 30
0.000000
  0
VERTEX
  8
LAYER-1
 10
1.099251
 20
0.208539
 30
0.000000
  0
VERTEX
  8
LAYER-1
 10
1.118615
 20
0.195853
 30
0.000000
  0
VERTEX
  8
LAYER-1
 10
1.124626
 20
0.207203
 30
0.000000
  0
SEQEND
  8
LAYER-1
  0
POLYLINE
  8
LAYER-1
 66
  1
 70
  0
 62
  0
 10
2.654908
 20
0.187613
 30
0.000000
  0
VERTEX
  8
LAYER-1
 10
2.654908
 20
0.187613
 30
0.000000
  0
VERTEX
  8
LAYER-1
 10
2.650567
 20
0.187613
 30
0.000000
  0
VERTEX
  8
LAYER-1
 10
2.647095
 20
0.183272
 30
0.000000
  0
VERTEX
  8
LAYER-1
 10
2.646227
 20
0.178064
 30
0.000000
  0
VERTEX
  8
LAYER-1
 10
2.647963
 20
0.173723
 30
0.000000
  0
VERTEX
  8
LAYER-1
 10
2.652304
 20
0.171988
 30
0.000000
  0
VERTEX
  8
LAYER-1
 10
2.656644
 20
0.171988
 30
0.000000
  0
VERTEX
  8
LAYER-1
 10
2.660984
 20
0.175459
 30
0.000000
  0
VERTEX
  8
LAYER-1
 10
2.660984
 20
0.179800
 30
0.000000
  0
VERTEX
  8
LAYER-1
 10
2.660116
 20
0.184141
 30
0.000000
  0
VERTEX
  8
LAYER-1
 10
2.655775
 20
0.186745
 30
0.000000
  0
SEQEND
  8
LAYER-1
  0
POLYLINE
  8
LAYER-1
 66
  1
 70
  0
 62
  0
 10
1.443102
 20
0.128151
 30
0.000000
  0
VERTEX
  8
LAYER-1
 10
1.443102
 20
0.128151
 30
0.000000
  0
VERTEX
  8
LAYER-1
 10
1.438761
 20
0.128151
 30
0.000000
  0
VERTEX
  8
LAYER-1
 10
1.435289
 20
0.123810
 30
0.000000
  0
VERTEX
  8
LAYER-1
 10
1.434421
 20
0.118602
 30
0.000000
  0
VERTEX
  8
LAYER-1
 10
1.436157
 20
0.114261
 30
0.000000
  0
VERTEX
  8
LAYER-1
 10
1.440497
 20
0.112526
 30
0.000000
  0
VERTEX
  8
LAYER-1
 10
1.444838
 20
0.112526
 30
0.000000
  0
VERTEX
  8
LAYER-1
 10
1.449178
 20
0.115997
 30
0.000000
  0
VERTEX
  8
LAYER-1
 10
1.449178
 20
0.120338
 30
0.000000
  0
VERTEX
  8
LAYER-1
 10
1.448309
 20
0.124679
 30
0.000000
  0
VERTEX
  8
LAYER-1
 10
1.443970
 20
0.127283
 30
0.000000
  0
SEQEND
  8
LAYER-1
  0
POLYLINE
  8
LAYER-1
 66
  1
 70
  0
 62
  0
 10
1.026435
 20
0.104713
 30
0.000000
  0
VERTEX
  8
LAYER-1
 10
1.026435
 20
0.104713
 30
0.000000
  0
VERTEX
  8
LAYER-1
 10
1.022094
 20
0.104713
 30
0.000000
  0
VERTEX
  8
LAYER-1
 10
1.018622
 20
0.100372
 30
0.000000
  0
VERTEX
  8
LAYER-1
 10
1.017754
 20
0.095165
 30
0.000000
  0
VERTEX
  8
LAYER-1
 10
1.019490
 20
0.090824
 30
0.000000
  0
VERTEX
  8
LAYER-1
 10
1.023830
 20
0.089088
 30
0.000000
  0
VERTEX
  8
LAYER-1
 10
1.028171
 20
0.089088
 30
0.000000
  0
VERTEX
  8
LAYER-1
 10
1.032510
 20
0.092560
 30
0.000000
  0
VERTEX
  8
LAYER-1
 10
1.032510
 20
0.096901
 30
0.000000
  0
VERTEX
  8
LAYER-1
 10
1.031642
 20
0.101241
 30
0.000000
  0
VERTEX
  8
LAYER-1
 10
1.027303
 20
0.103845
 30
0.000000
  0
SEQEND
  8
LAYER-1
  0
POLYLINE
  8
LAYER-1
 66
  1
 70
  1
 62
  0
 10
2.994317
 20
0.178932
 30
0.000000
  0
VERTEX
  8
LAYER-1
 10
2.994317
 20
0.178932
 30
0.000000
  0
VERTEX
  8
LAYER-1
 10
3.001261
 20
0.152891
 30
0.000000
  0
VERTEX
  8
LAYER-1
 10
3.026435
 20
0.166779
 30
0.000000
  0
SEQEND
  8
LAYER-1
  0
POLYLINE
  8
LAYER-1
 66
  1
 70
  1
 62
  0
 10
3.156643
 20
0.207579
 30
0.000000
  0
VERTEX
  8
LAYER-1
 10
3.156643
 20
0.207579
 30
0.000000
  0
VERTEX
  8
LAYER-1
 10
3.143623
 20
0.185009
 30
0.000000
  0
VERTEX
  8
LAYER-1
 10
3.174004
 20
0.205841
 30
0.000000
  0
SEQEND
  8
LAYER-1
  0
POLYLINE
  8
LAYER-1
 66
  1
 70
  1
 62
  0
 10
2.384942
 20
0.143342
 30
0.000000
  0
VERTEX
  8
LAYER-1
 10
2.384942
 20
0.143342
 30
0.000000
  0
VERTEX
  8
LAYER-1
 10
2.410116
 20
0.126848
 30
0.000000
  0
VERTEX
  8
LAYER-1
 10
2.417928
 20
0.141607
 30
0.000000
  0
SEQEND
  8
LAYER-1
  0
POLYLINE
  8
LAYER-1
 66
  1
 70
  0
 62
  0
 10
2.955254
 20
0.199766
 30
0.000000
  0
VERTEX
  8
LAYER-1
 10
2.955254
 20
0.199766
 30
0.000000
  0
VERTEX
  8
LAYER-1
 10
2.950914
 20
0.199766
 30
0.000000
  0
VERTEX
  8
LAYER-1
 10
2.947442
 20
0.195426
 30
0.000000
  0
VERTEX
  8
LAYER-1
 10
2.946574
 20
0.190218
 30
0.000000
  0
VERTEX
  8
LAYER-1
 10
2.948310
 20
0.185877
 30
0.000000
  0
VERTEX
  8
LAYER-1
 10
2.952650
 20
0.184141
 30
0.000000
  0
VERTEX
  8
LAYER-1
 10
2.956990
 20
0.184141
 30
0.000000
  0
VERTEX
  8
LAYER-1
 10
2.961331
 20
0.187614
 30
0.000000
  0
VERTEX
  8
LAYER-1
 10
2.961331
 20
0.191954
 30
0.000000
  0
VERTEX
  8
LAYER-1
 10
2.960463
 20
0.196295
 30
0.000000
  0
VERTEX
  8
LAYER-1
 10
2.956122
 20
0.198899
 30
0.000000
  0
SEQEND
  8
LAYER-1
  0
POLYLINE
  8
LAYER-1
 66
  1
 70
  1
 62
  0
 10
2.970880
 20
0.111224
 30
0.000000
  0
VERTEX
  8
LAYER-1
 10
2.970880
 20
0.111224
 30
0.000000
  0
VERTEX
  8
LAYER-1
 10
2.957859
 20
0.088654
 30
0.000000
  0
VERTEX
  8
LAYER-1
 10
2.988241
 20
0.109486
 30
0.000000
  0
SEQEND
  8
LAYER-1
  0
POLYLINE
  8
LAYER-1
 66
  1
 70
  1
 62
  0
 10
3.065331
 20
0.104811
 30
0.000000
  0
VERTEX
  8
LAYER-1
 10
3.065331
 20
0.104811
 30
0.000000
  0
VERTEX
  8
LAYER-1
 10
3.052644
 20
0.085448
 30
0.000000
  0
VERTEX
  8
LAYER-1
 10
3.063995
 20
0.079436
 30
0.000000
  0
SEQEND
  8
LAYER-1
  0
POLYLINE
  8
LAYER-1
 66
  1
 70
  0
 62
  0
 10
3.096747
 20
0.204107
 30
0.000000
  0
VERTEX
  8
LAYER-1
 10
3.096747
 20
0.204107
 30
0.000000
  0
VERTEX
  8
LAYER-1
 10
3.092408
 20
0.204107
 30
0.000000
  0
VERTEX
  8
LAYER-1
 10
3.088935
 20
0.199766
 30
0.000000
  0
VERTEX
  8
LAYER-1
 10
3.088067
 20
0.194558
 30
0.000000
  0
VERTEX
  8
LAYER-1
 10
3.089803
 20
0.190217
 30
0.000000
  0
VERTEX
  8
LAYER-1
 10
3.094144
 20
0.188482
 30
0.000000
  0
VERTEX
  8
LAYER-1
 10
3.098484
 20
0.188482
 30
0.000000
  0
VERTEX
  8
LAYER-1
 10
3.102824
 20
0.191953
 30
0.000000
  0
VERTEX
  8
LAYER-1
 10
3.102824
 20
0.196294
 30
0.000000
  0
VERTEX
  8
LAYER-1
 10
3.101956
 20
0.200634
 30
0.000000
  0
VERTEX
  8
LAYER-1
 10
3.097615
 20
0.203239
 30
0.000000
  0
SEQEND
  8
LAYER-1
  0
POLYLINE
  8
LAYER-1
 66
  1
 70
  0
 62
  0
 10
2.373658
 20
0.196294
 30
0.000000
  0
VERTEX
  8
LAYER-1
 10
2.373658
 20
0.196294
 30
0.000000
  0
VERTEX
  8
LAYER-1
 10
2.373658
 20
0.191953
 30
0.000000
  0
VERTEX
  8
LAYER-1
 10
2.377999
 20
0.188482
 30
0.000000
  0
VERTEX
  8
LAYER-1
 10
2.383206
 20
0.187613
 30
0.000000
  0
VERTEX
  8
LAYER-1
 10
2.387547
 20
0.189348
 30
0.000000
  0
VERTEX
  8
LAYER-1
 10
2.389283
 20
0.193689
 30
0.000000
  0
VERTEX
  8
LAYER-1
 10
2.389283
 20
0.198029
 30
0.000000
  0
VERTEX
  8
LAYER-1
 10
2.385811
 20
0.202371
 30
0.000000
  0
VERTEX
  8
LAYER-1
 10
2.381471
 20
0.202371
 30
0.000000
  0
VERTEX
  8
LAYER-1
 10
2.377130
 20
0.201502
 30
0.000000
  0
VERTEX
  8
LAYER-1
 10
2.374525
 20
0.197161
 30
0.000000
  0
SEQEND
  8
LAYER-1
  0
POLYLINE
  8
LAYER-1
 66
  1
 70
  0
 62
  0
 10
2.937025
 20
0.112090
 30
0.000000
  0
VERTEX
  8
LAYER-1
 10
2.937025
 20
0.112090
 30
0.000000
  0
VERTEX
  8
LAYER-1
 10
2.932684
 20
0.112090
 30
0.000000
  0
VERTEX
  8
LAYER-1
 10
2.929212
 20
0.107750
 30
0.000000
  0
VERTEX
  8
LAYER-1
 10
2.928344
 20
0.102542
 30
0.000000
  0
VERTEX
  8
LAYER-1
 10
2.930080
 20
0.098201
 30
0.000000
  0
VERTEX
  8
LAYER-1
 10
2.934421
 20
0.096465
 30
0.000000
  0
VERTEX
  8
LAYER-1
 10
2.938761
 20
0.096465
 30
0.000000
  0
VERTEX
  8
LAYER-1
 10
2.943101
 20
0.099937
 30
0.000000
  0
VERTEX
  8
LAYER-1
 10
2.943101
 20
0.104278
 30
0.000000
  0
VERTEX
  8
LAYER-1
 10
2.942233
 20
0.108619
 30
0.000000
  0
VERTEX
  8
LAYER-1
 10
2.937892
 20
0.111223
 30
0.000000
  0
SEQEND
  8
LAYER-1
  0
POLYLINE
  8
LAYER-1
 66
  1
 70
  1
 62
  0
 10
2.804214
 20
0.100373
 30
0.000000
  0
VERTEX
  8
LAYER-1
 10
2.804214
 20
0.100373
 30
0.000000
  0
VERTEX
  8
LAYER-1
 10
2.778172
 20
0.093429
 30
0.000000
  0
VERTEX
  8
LAYER-1
 10
2.792061
 20
0.068255
 30
0.000000
  0
SEQEND
  8
LAYER-1
  0
POLYLINE
  8
LAYER-1
 66
  1
 70
  1
 62
  0
 10
1.427478
 20
0.074766
 30
0.000000
  0
VERTEX
  8
LAYER-1
 10
1.427478
 20
0.074766
 30
0.000000
  0
VERTEX
  8
LAYER-1
 10
1.402303
 20
0.091259
 30
0.000000
  0
VERTEX
  8
LAYER-1
 10
1.394490
 20
0.076502
 30
0.000000
  0
SEQEND
  8
LAYER-1
  0
POLYLINE
  8
LAYER-1
 66
  1
 70
  0
 62
  0
 10
2.835464
 20
0.149852
 30
0.000000
  0
VERTEX
  8
LAYER-1
 10
2.835464
 20
0.149852
 30
0.000000
  0
VERTEX
  8
LAYER-1
 10
2.835464
 20
0.154193
 30
0.000000
  0
VERTEX
  8
LAYER-1
 10
2.831123
 20
0.157665
 30
0.000000
  0
VERTEX
  8
LAYER-1
 10
2.825916
 20
0.158533
 30
0.000000
  0
VERTEX
  8
LAYER-1
 10
2.821575
 20
0.156797
 30
0.000000
  0
VERTEX
  8
LAYER-1
 10
2.819839
 20
0.152456
 30
0.000000
  0
VERTEX
  8
LAYER-1
 10
2.819839
 20
0.148116
 30
0.000000
  0
VERTEX
  8
LAYER-1
 10
2.823311
 20
0.143777
 30
0.000000
  0
VERTEX
  8
LAYER-1
 10
2.827652
 20
0.143777
 30
0.000000
  0
VERTEX
  8
LAYER-1
 10
2.831992
 20
0.144644
 30
0.000000
  0
VERTEX
  8
LAYER-1
 10
2.834595
 20
0.148984
 30
0.000000
  0
SEQEND
  8
LAYER-1
  0
POLYLINE
  8
LAYER-1
 66
  1
 70
  1
 62
  0
 10
2.767754
 20
0.112527
 30
0.000000
  0
VERTEX
  8
LAYER-1
 10
2.767754
 20
0.112527
 30
0.000000
  0
VERTEX
  8
LAYER-1
 10
2.745186
 20
0.125547
 30
0.000000
  0
VERTEX
  8
LAYER-1
 10
2.766019
 20
0.095165
 30
0.000000
  0
SEQEND
  8
LAYER-1
  0
POLYLINE
  8
LAYER-1
 66
  1
 70
  1
 62
  0
 10
1.505268
 20
0.094029
 30
0.000000
  0
VERTEX
  8
LAYER-1
 10
1.505268
 20
0.094029
 30
0.000000
  0
VERTEX
  8
LAYER-1
 10
1.485902
 20
0.106715
 30
0.000000
  0
VERTEX
  8
LAYER-1
 10
1.479893
 20
0.095364
 30
0.000000
  0
SEQEND
  8
LAYER-1
  0
POLYLINE
  8
LAYER-1
 66
  1
 70
  0
 62
  0
 10
1.565499
 20
0.082578
 30
0.000000
  0
VERTEX
  8
LAYER-1
 10
1.565499
 20
0.082578
 30
0.000000
  0
VERTEX
  8
LAYER-1
 10
1.565499
 20
0.086917
 30
0.000000
  0
VERTEX
  8
LAYER-1
 10
1.561158
 20
0.090391
 30
0.000000
  0
VERTEX
  8
LAYER-1
 10
1.555950
 20
0.091259
 30
0.000000
  0
VERTEX
  8
LAYER-1
 10
1.551609
 20
0.089522
 30
0.000000
  0
VERTEX
  8
LAYER-1
 10
1.549873
 20
0.085182
 30
0.000000
  0
VERTEX
  8
LAYER-1
 10
1.549873
 20
0.080841
 30
0.000000
  0
VERTEX
  8
LAYER-1
 10
1.553345
 20
0.076502
 30
0.000000
  0
VERTEX
  8
LAYER-1
 10
1.557686
 20
0.076502
 30
0.000000
  0
VERTEX
  8
LAYER-1
 10
1.562027
 20
0.077370
 30
0.000000
  0
VERTEX
  8
LAYER-1
 10
1.564630
 20
0.081710
 30
0.000000
  0
SEQEND
  8
LAYER-1
  0
POLYLINE
  8
LAYER-1
 66
  1
 70
  0
 62
  0
 10
2.685291
 20
0.102109
 30
0.000000
  0
VERTEX
  8
LAYER-1
 10
2.685291
 20
0.102109
 30
0.000000
  0
VERTEX
  8
LAYER-1
 10
2.685291
 20
0.106450
 30
0.000000
  0
VERTEX
  8
LAYER-1
 10
2.680950
 20
0.109922
 30
0.000000
  0
VERTEX
  8
LAYER-1
 10
2.675742
 20
0.110790
 30
0.000000
  0
VERTEX
  8
LAYER-1
 10
2.671402
 20
0.109054
 30
0.000000
  0
VERTEX
  8
LAYER-1
 10
2.669666
 20
0.104714
 30
0.000000
  0
VERTEX
  8
LAYER-1
 10
2.669666
 20
0.100373
 30
0.000000
  0
VERTEX
  8
LAYER-1
 10
2.673137
 20
0.096033
 30
0.000000
  0
VERTEX
  8
LAYER-1
 10
2.677478
 20
0.096033
 30
0.000000
  0
VERTEX
  8
LAYER-1
 10
2.681819
 20
0.096902
 30
0.000000
  0
VERTEX
  8
LAYER-1
 10
2.684422
 20
0.101241
 30
0.000000
  0
SEQEND
  8
LAYER-1
  0
POLYLINE
  8
LAYER-1
 66
  1
 70
  1
 62
  0
 10
2.877998
 20
0.103413
 30
0.000000
  0
VERTEX
  8
LAYER-1
 10
2.877998
 20
0.103413
 30
0.000000
  0
VERTEX
  8
LAYER-1
 10
2.871053
 20
0.129453
 30
0.000000
  0
VERTEX
  8
LAYER-1
 10
2.845880
 20
0.115566
 30
0.000000
  0
SEQEND
  8
LAYER-1
  0
POLYLINE
  8
LAYER-1
 66
  1
 70
  1
 62
  0
 10
2.325047
 20
0.090391
 30
0.000000
  0
VERTEX
  8
LAYER-1
 10
2.325047
 20
0.090391
 30
0.000000
  0
VERTEX
  8
LAYER-1
 10
2.302476
 20
0.103413
 30
0.000000
  0
VERTEX
  8
LAYER-1
 10
2.323309
 20
0.073029
 30
0.000000
  0
SEQEND
  8
LAYER-1
  0
POLYLINE
  8
LAYER-1
 66
  1
 70
  1
 62
  0
 10
3.102825
 20
0.114697
 30
0.000000
  0
VERTEX
  8
LAYER-1
 10
3.102825
 20
0.114697
 30
0.000000
  0
VERTEX
  8
LAYER-1
 10
3.119318
 20
0.139871
 30
0.000000
  0
VERTEX
  8
LAYER-1
 10
3.104561
 20
0.147683
 30
0.000000
  0
SEQEND
  8
LAYER-1
  0
POLYLINE
  8
LAYER-1
 66
  1
 70
  0
 62
  0
 10
3.238241
 20
0.082576
 30
0.000000
  0
VERTEX
  8
LAYER-1
 10
3.238241
 20
0.082576
 30
0.000000
  0
VERTEX
  8
LAYER-1
 10
3.242582
 20
0.082576
 30
0.000000
  0
VERTEX
  8
LAYER-1
 10
3.246053
 20
0.086917
 30
0.000000
  0
VERTEX
  8
LAYER-1
 10
3.246921
 20
0.092125
 30
0.000000
  0
VERTEX
  8
LAYER-1
 10
3.245185
 20
0.096465
 30
0.000000
  0
VERTEX
  8
LAYER-1
 10
3.240845
 20
0.098201
 30
0.000000
  0
VERTEX
  8
LAYER-1
 10
3.236505
 20
0.098201
 30
0.000000
  0
VERTEX
  8
LAYER-1
 10
3.232164
 20
0.094729
 30
0.000000
  0
VERTEX
  8
LAYER-1
 10
3.232164
 20
0.090389
 30
0.000000
  0
VERTEX
  8
LAYER-1
 10
3.233032
 20
0.086048
 30
0.000000
  0
VERTEX
  8
LAYER-1
 10
3.237373
 20
0.083444
 30
0.000000
  0
SEQEND
  8
LAYER-1
  0
POLYLINE
  8
LAYER-1
 66
  1
 70
  1
 62
  0
 10
2.890150
 20
0.139871
 30
0.000000
  0
VERTEX
  8
LAYER-1
 10
2.890150
 20
0.139871
 30
0.000000
  0
VERTEX
  8
LAYER-1
 10
2.903171
 20
0.162441
 30
0.000000
  0
VERTEX
  8
LAYER-1
 10
2.872789
 20
0.141608
 30
0.000000
  0
SEQEND
  8
LAYER-1
  0
POLYLINE
  8
LAYER-1
 66
  1
 70
  1
 62
  0
 10
3.143790
 20
0.090726
 30
0.000000
  0
VERTEX
  8
LAYER-1
 10
3.143790
 20
0.090726
 30
0.000000
  0
VERTEX
  8
LAYER-1
 10
3.156476
 20
0.110090
 30
0.000000
  0
VERTEX
  8
LAYER-1
 10
3.145125
 20
0.116102
 30
0.000000
  0
SEQEND
  8
LAYER-1
  0
POLYLINE
  8
LAYER-1
 66
  1
 70
  0
 62
  0
 10
2.464802
 20
0.150288
 30
0.000000
  0
VERTEX
  8
LAYER-1
 10
2.464802
 20
0.150288
 30
0.000000
  0
VERTEX
  8
LAYER-1
 10
2.464802
 20
0.154627
 30
0.000000
  0
VERTEX
  8
LAYER-1
 10
2.460462
 20
0.158101
 30
0.000000
  0
VERTEX
  8
LAYER-1
 10
2.455254
 20
0.158967
 30
0.000000
  0
VERTEX
  8
LAYER-1
 10
2.450913
 20
0.157232
 30
0.000000
  0
VERTEX
  8
LAYER-1
 10
2.449177
 20
0.152891
 30
0.000000
  0
VERTEX
  8
LAYER-1
 10
2.449177
 20
0.148550
 30
0.000000
  0
VERTEX
  8
LAYER-1
 10
2.452649
 20
0.144211
 30
0.000000
  0
VERTEX
  8
LAYER-1
 10
2.456990
 20
0.144211
 30
0.000000
  0
VERTEX
  8
LAYER-1
 10
2.461330
 20
0.145078
 30
0.000000
  0
VERTEX
  8
LAYER-1
 10
2.463935
 20
0.149419
 30
0.000000
  0
SEQEND
  8
LAYER-1
  0
POLYLINE
  8
LAYER-1
 66
  1
 70
  0
 62
  0
 10
3.050741
 20
0.120773
 30
0.000000
  0
VERTEX
  8
LAYER-1
 10
3.050741
 20
0.120773
 30
0.000000
  0
VERTEX
  8
LAYER-1
 10
3.055082
 20
0.120773
 30
0.000000
  0
VERTEX
  8
LAYER-1
 10
3.058554
 20
0.125114
 30
0.000000
  0
VERTEX
  8
LAYER-1
 10
3.059422
 20
0.130322
 30
0.000000
  0
VERTEX
  8
LAYER-1
 10
3.057686
 20
0.134663
 30
0.000000
  0
VERTEX
  8
LAYER-1
 10
3.053345
 20
0.136398
 30
0.000000
  0
VERTEX
  8
LAYER-1
 10
3.049005
 20
0.136398
 30
0.000000
  0
VERTEX
  8
LAYER-1
 10
3.044665
 20
0.132927
 30
0.000000
  0
VERTEX
  8
LAYER-1
 10
3.044665
 20
0.128586
 30
0.000000
  0
VERTEX
  8
LAYER-1
 10
3.045533
 20
0.124246
 30
0.000000
  0
VERTEX
  8
LAYER-1
 10
3.049873
 20
0.121641
 30
0.000000
  0
SEQEND
  8
LAYER-1
  0
POLYLINE
  8
LAYER-1
 66
  1
 70
  0
 62
  0
 10
3.214804
 20
0.128586
 30
0.000000
  0
VERTEX
  8
LAYER-1
 10
3.214804
 20
0.128586
 30
0.000000
  0
VERTEX
  8
LAYER-1
 10
3.219145
 20
0.128586
 30
0.000000
  0
VERTEX
  8
LAYER-1
 10
3.222616
 20
0.132927
 30
0.000000
  0
VERTEX
  8
LAYER-1
 10
3.223484
 20
0.138134
 30
0.000000
  0
VERTEX
  8
LAYER-1
 10
3.221748
 20
0.142476
 30
0.000000
  0
VERTEX
  8
LAYER-1
 10
3.217408
 20
0.144211
 30
0.000000
  0
VERTEX
  8
LAYER-1
 10
3.213068
 20
0.144211
 30
0.000000
  0
VERTEX
  8
LAYER-1
 10
3.208727
 20
0.140739
 30
0.000000
  0
VERTEX
  8
LAYER-1
 10
3.208727
 20
0.136398
 30
0.000000
  0
VERTEX
  8
LAYER-1
 10
3.209595
 20
0.132058
 30
0.000000
  0
VERTEX
  8
LAYER-1
 10
3.213936
 20
0.129453
 30
0.000000
  0
SEQEND
  8
LAYER-1
  0
POLYLINE
  8
LAYER-1
 66
  1
 70
  1
 62
  0
 10
3.621922
 20
0.126851
 30
0.000000
  0
VERTEX
  8
LAYER-1
 10
3.621922
 20
0.126851
 30
0.000000
  0
VERTEX
  8
LAYER-1
 10
3.628865
 20
0.100809
 30
0.000000
  0
VERTEX
  8
LAYER-1
 10
3.654039
 20
0.114697
 30
0.000000
  0
SEQEND
  8
LAYER-1
  0
POLYLINE
  8
LAYER-1
 66
  1
 70
  1
 62
  0
 10
3.788154
 20
0.080843
 30
0.000000
  0
VERTEX
  8
LAYER-1
 10
3.788154
 20
0.080843
 30
0.000000
  0
VERTEX
  8
LAYER-1
 10
3.775132
 20
0.058273
 30
0.000000
  0
VERTEX
  8
LAYER-1
 10
3.805515
 20
0.079107
 30
0.000000
  0
SEQEND
  8
LAYER-1
  0
POLYLINE
  8
LAYER-1
 66
  1
 70
  1
 62
  0
 10
3.673136
 20
0.171117
 30
0.000000
  0
VERTEX
  8
LAYER-1
 10
3.673136
 20
0.171117
 30
0.000000
  0
VERTEX
  8
LAYER-1
 10
3.656643
 20
0.145944
 30
0.000000
  0
VERTEX
  8
LAYER-1
 10
3.671399
 20
0.138131
 30
0.000000
  0
SEQEND
  8
LAYER-1
  0
POLYLINE
  8
LAYER-1
 66
  1
 70
  0
 62
  0
 10
3.588067
 20
0.158101
 30
0.000000
  0
VERTEX
  8
LAYER-1
 10
3.588067
 20
0.158101
 30
0.000000
  0
VERTEX
  8
LAYER-1
 10
3.583727
 20
0.158101
 30
0.000000
  0
VERTEX
  8
LAYER-1
 10
3.580254
 20
0.153759
 30
0.000000
  0
VERTEX
  8
LAYER-1
 10
3.579385
 20
0.148552
 30
0.000000
  0
VERTEX
  8
LAYER-1
 10
3.581123
 20
0.144211
 30
0.000000
  0
VERTEX
  8
LAYER-1
 10
3.585463
 20
0.142476
 30
0.000000
  0
VERTEX
  8
LAYER-1
 10
3.589803
 20
0.142476
 30
0.000000
  0
VERTEX
  8
LAYER-1
 10
3.594142
 20
0.145947
 30
0.000000
  0
VERTEX
  8
LAYER-1
 10
3.594142
 20
0.150288
 30
0.000000
  0
VERTEX
  8
LAYER-1
 10
3.593274
 20
0.154628
 30
0.000000
  0
VERTEX
  8
LAYER-1
 10
3.588935
 20
0.157232
 30
0.000000
  0
SEQEND
  8
LAYER-1
  0
POLYLINE
  8
LAYER-1
 66
  1
 70
  1
 62
  0
 10
3.571573
 20
0.098202
 30
0.000000
  0
VERTEX
  8
LAYER-1
 10
3.571573
 20
0.098202
 30
0.000000
  0
VERTEX
  8
LAYER-1
 10
3.558553
 20
0.075633
 30
0.000000
  0
VERTEX
  8
LAYER-1
 10
3.588935
 20
0.096465
 30
0.000000
  0
SEQEND
  8
LAYER-1
  0
POLYLINE
  8
LAYER-1
 66
  1
 70
  1
 62
  0
 10
3.627029
 20
0.196556
 30
0.000000
  0
VERTEX
  8
LAYER-1
 10
3.627029
 20
0.196556
 30
0.000000
  0
VERTEX
  8
LAYER-1
 10
3.646394
 20
0.183868
 30
0.000000
  0
VERTEX
  8
LAYER-1
 10
3.652404
 20
0.195220
 30
0.000000
  0
SEQEND
  8
LAYER-1
  0
POLYLINE
  8
LAYER-1
 66
  1
 70
  0
 62
  0
 10
3.511677
 20
0.147805
 30
0.000000
  0
VERTEX
  8
LAYER-1
 10
3.511677
 20
0.147805
 30
0.000000
  0
VERTEX
  8
LAYER-1
 10
3.507337
 20
0.147805
 30
0.000000
  0
VERTEX
  8
LAYER-1
 10
3.503864
 20
0.143464
 30
0.000000
  0
VERTEX
  8
LAYER-1
 10
3.502998
 20
0.138256
 30
0.000000
  0
VERTEX
  8
LAYER-1
 10
3.504733
 20
0.133916
 30
0.000000
  0
VERTEX
  8
LAYER-1
 10
3.509073
 20
0.132180
 30
0.000000
  0
VERTEX
  8
LAYER-1
 10
3.513414
 20
0.132180
 30
0.000000
  0
VERTEX
  8
LAYER-1
 10
3.517754
 20
0.135651
 30
0.000000
  0
VERTEX
  8
LAYER-1
 10
3.517754
 20
0.139993
 30
0.000000
  0
VERTEX
  8
LAYER-1
 10
3.516886
 20
0.144333
 30
0.000000
  0
VERTEX
  8
LAYER-1
 10
3.512546
 20
0.146937
 30
0.000000
  0
SEQEND
  8
LAYER-1
  0
POLYLINE
  8
LAYER-1
 66
  1
 70
  0
 62
  0
 10
3.888416
 20
0.119901
 30
0.000000
  0
VERTEX
  8
LAYER-1
 10
3.888416
 20
0.119901
 30
0.000000
  0
VERTEX
  8
LAYER-1
 10
3.884076
 20
0.119901
 30
0.000000
  0
VERTEX
  8
LAYER-1
 10
3.880603
 20
0.115560
 30
0.000000
  0
VERTEX
  8
LAYER-1
 10
3.879735
 20
0.110352
 30
0.000000
  0
VERTEX
  8
LAYER-1
 10
3.881471
 20
0.106012
 30
0.000000
  0
VERTEX
  8
LAYER-1
 10
3.885812
 20
0.104276
 30
0.000000
  0
VERTEX
  8
LAYER-1
 10
3.890152
 20
0.104276
 30
0.000000
  0
VERTEX
  8
LAYER-1
 10
3.894492
 20
0.107747
 30
0.000000
  0
VERTEX
  8
LAYER-1
 10
3.894492
 20
0.112089
 30
0.000000
  0
VERTEX
  8
LAYER-1
 10
3.893624
 20
0.116429
 30
0.000000
  0
VERTEX
  8
LAYER-1
 10
3.889283
 20
0.119033
 30
0.000000
  0
SEQEND
  8
LAYER-1
  0
POLYLINE
  8
LAYER-1
 66
  1
 70
  0
 62
  0
 10
3.620185
 20
0.091258
 30
0.000000
  0
VERTEX
  8
LAYER-1
 10
3.620185
 20
0.091258
 30
0.000000
  0
VERTEX
  8
LAYER-1
 10
3.615845
 20
0.091258
 30
0.000000
  0
VERTEX
  8
LAYER-1
 10
3.612373
 20
0.086917
 30
0.000000
  0
VERTEX
  8
LAYER-1
 10
3.611504
 20
0.081709
 30
0.000000
  0
VERTEX
  8
LAYER-1
 10
3.613240
 20
0.077369
 30
0.000000
  0
VERTEX
  8
LAYER-1
 10
3.617581
 20
0.075633
 30
0.000000
  0
VERTEX
  8
LAYER-1
 10
3.621921
 20
0.075633
 30
0.000000
  0
VERTEX
  8
LAYER-1
 10
3.626261
 20
0.079104
 30
0.000000
  0
VERTEX
  8
LAYER-1
 10
3.626261
 20
0.083445
 30
0.000000
  0
VERTEX
  8
LAYER-1
 10
3.625393
 20
0.087786
 30
0.000000
  0
VERTEX
  8
LAYER-1
 10
3.621053
 20
0.090390
 30
0.000000
  0
SEQEND
  8
LAYER-1
  0
POLYLINE
  8
LAYER-1
 66
  1
 70
  1
 62
  0
 10
3.418362
 20
0.150721
 30
0.000000
  0
VERTEX
  8
LAYER-1
 10
3.418362
 20
0.150721
 30
0.000000
  0
VERTEX
  8
LAYER-1
 10
3.392322
 20
0.143777
 30
0.000000
  0
VERTEX
  8
LAYER-1
 10
3.406209
 20
0.118603
 30
0.000000
  0
SEQEND
  8
LAYER-1
  0
POLYLINE
  8
LAYER-1
 66
  1
 70
  1
 62
  0
 10
3.325481
 20
0.099505
 30
0.000000
  0
VERTEX
  8
LAYER-1
 10
3.325481
 20
0.099505
 30
0.000000
  0
VERTEX
  8
LAYER-1
 10
3.302911
 20
0.112527
 30
0.000000
  0
VERTEX
  8
LAYER-1
 10
3.323743
 20
0.082145
 30
0.000000
  0
SEQEND
  8
LAYER-1
  0
POLYLINE
  8
LAYER-1
 66
  1
 70
  1
 62
  0
 10
3.289022
 20
0.144641
 30
0.000000
  0
VERTEX
  8
LAYER-1
 10
3.289022
 20
0.144641
 30
0.000000
  0
VERTEX
  8
LAYER-1
 10
3.263849
 20
0.161135
 30
0.000000
  0
VERTEX
  8
LAYER-1
 10
3.256036
 20
0.146378
 30
0.000000
  0
SEQEND
  8
LAYER-1
  0
POLYLINE
  8
LAYER-1
 66
  1
 70
  0
 62
  0
 10
3.449612
 20
0.200200
 30
0.000000
  0
VERTEX
  8
LAYER-1
 10
3.449612
 20
0.200200
 30
0.000000
  0
VERTEX
  8
LAYER-1
 10
3.449612
 20
0.204541
 30
0.000000
  0
VERTEX
  8
LAYER-1
 10
3.445271
 20
0.208013
 30
0.000000
  0
VERTEX
  8
LAYER-1
 10
3.440064
 20
0.208880
 30
0.000000
  0
VERTEX
  8
LAYER-1
 10
3.435723
 20
0.207145
 30
0.000000
  0
VERTEX
  8
LAYER-1
 10
3.433987
 20
0.202804
 30
0.000000
  0
VERTEX
  8
LAYER-1
 10
3.433987
 20
0.198464
 30
0.000000
  0
VERTEX
  8
LAYER-1
 10
3.437459
 20
0.194123
 30
0.000000
  0
VERTEX
  8
LAYER-1
 10
3.441800
 20
0.194123
 30
0.000000
  0
VERTEX
  8
LAYER-1
 10
3.446140
 20
0.194991
 30
0.000000
  0
VERTEX
  8
LAYER-1
 10
3.448745
 20
0.199332
 30
0.000000
  0
SEQEND
  8
LAYER-1
  0
POLYLINE
  8
LAYER-1
 66
  1
 70
  1
 62
  0
 10
3.381905
 20
0.162873
 30
0.000000
  0
VERTEX
  8
LAYER-1
 10
3.381905
 20
0.162873
 30
0.000000
  0
VERTEX
  8
LAYER-1
 10
3.359334
 20
0.175895
 30
0.000000
  0
VERTEX
  8
LAYER-1
 10
3.380167
 20
0.145513
 30
0.000000
  0
SEQEND
  8
LAYER-1
  0
POLYLINE
  8
LAYER-1
 66
  1
 70
  1
 62
  0
 10
3.333558
 20
0.169915
 30
0.000000
  0
VERTEX
  8
LAYER-1
 10
3.333558
 20
0.169915
 30
0.000000
  0
VERTEX
  8
LAYER-1
 10
3.320872
 20
0.150551
 30
0.000000
  0
VERTEX
  8
LAYER-1
 10
3.332222
 20
0.144540
 30
0.000000
  0
SEQEND
  8
LAYER-1
  0
POLYLINE
  8
LAYER-1
 66
  1
 70
  0
 62
  0
 10
3.451348
 20
0.072595
 30
0.000000
  0
VERTEX
  8
LAYER-1
 10
3.451348
 20
0.072595
 30
0.000000
  0
VERTEX
  8
LAYER-1
 10
3.451348
 20
0.076935
 30
0.000000
  0
VERTEX
  8
LAYER-1
 10
3.447007
 20
0.080408
 30
0.000000
  0
VERTEX
  8
LAYER-1
 10
3.441800
 20
0.081276
 30
0.000000
  0
VERTEX
  8
LAYER-1
 10
3.437459
 20
0.079540
 30
0.000000
  0
VERTEX
  8
LAYER-1
 10
3.435723
 20
0.075199
 30
0.000000
  0
VERTEX
  8
LAYER-1
 10
3.435723
 20
0.070858
 30
0.000000
  0
VERTEX
  8
LAYER-1
 10
3.439195
 20
0.066519
 30
0.000000
  0
VERTEX
  8
LAYER-1
 10
3.443536
 20
0.066519
 30
0.000000
  0
VERTEX
  8
LAYER-1
 10
3.447876
 20
0.067386
 30
0.000000
  0
VERTEX
  8
LAYER-1
 10
3.450481
 20
0.071727
 30
0.000000
  0
SEQEND
  8
LAYER-1
  0
POLYLINE
  8
LAYER-1
 66
  1
 70
  0
 62
  0
 10
3.369751
 20
0.073463
 30
0.000000
  0
VERTEX
  8
LAYER-1
 10
3.369751
 20
0.073463
 30
0.000000
  0
VERTEX
  8
LAYER-1
 10
3.369751
 20
0.077804
 30
0.000000
  0
VERTEX
  8
LAYER-1
 10
3.365410
 20
0.081276
 30
0.000000
  0
VERTEX
  8
LAYER-1
 10
3.360202
 20
0.082144
 30
0.000000
  0
VERTEX
  8
LAYER-1
 10
3.355862
 20
0.080408
 30
0.000000
  0
VERTEX
  8
LAYER-1
 10
3.354126
 20
0.076067
 30
0.000000
  0
VERTEX
  8
LAYER-1
 10
3.354126
 20
0.071727
 30
0.000000
  0
VERTEX
  8
LAYER-1
 10
3.357598
 20
0.067386
 30
0.000000
  0
VERTEX
  8
LAYER-1
 10
3.361938
 20
0.067386
 30
0.000000
  0
VERTEX
  8
LAYER-1
 10
3.366279
 20
0.068254
 30
0.000000
  0
VERTEX
  8
LAYER-1
 10
3.368884
 20
0.072595
 30
0.000000
  0
SEQEND
  8
LAYER-1
  0
POLYLINE
  8
LAYER-1
 66
  1
 70
  0
 62
  0
 10
3.299439
 20
0.183706
 30
0.000000
  0
VERTEX
  8
LAYER-1
 10
3.299439
 20
0.183706
 30
0.000000
  0
VERTEX
  8
LAYER-1
 10
3.299439
 20
0.188047
 30
0.000000
  0
VERTEX
  8
LAYER-1
 10
3.295098
 20
0.191519
 30
0.000000
  0
VERTEX
  8
LAYER-1
 10
3.289890
 20
0.192386
 30
0.000000
  0
VERTEX
  8
LAYER-1
 10
3.285550
 20
0.190651
 30
0.000000
  0
VERTEX
  8
LAYER-1
 10
3.283814
 20
0.186310
 30
0.000000
  0
VERTEX
  8
LAYER-1
 10
3.283814
 20
0.181970
 30
0.000000
  0
VERTEX
  8
LAYER-1
 10
3.287286
 20
0.177629
 30
0.000000
  0
VERTEX
  8
LAYER-1
 10
3.291626
 20
0.177629
 30
0.000000
  0
VERTEX
  8
LAYER-1
 10
3.295967
 20
0.178497
 30
0.000000
  0
VERTEX
  8
LAYER-1
 10
3.298572
 20
0.182838
 30
0.000000
  0
SEQEND
  8
LAYER-1
  0
POLYLINE
  8
LAYER-1
 66
  1
 70
  1
 62
  0
 10
4.081990
 20
0.173291
 30
0.000000
  0
VERTEX
  8
LAYER-1
 10
4.081990
 20
0.173291
 30
0.000000
  0
VERTEX
  8
LAYER-1
 10
4.088935
 20
0.147249
 30
0.000000
  0
VERTEX
  8
LAYER-1
 10
4.114108
 20
0.161138
 30
0.000000
  0
SEQEND
  8
LAYER-1
  0
POLYLINE
  8
LAYER-1
 66
  1
 70
  1
 62
  0
 10
4.244317
 20
0.201937
 30
0.000000
  0
VERTEX
  8
LAYER-1
 10
4.244317
 20
0.201937
 30
0.000000
  0
VERTEX
  8
LAYER-1
 10
4.231296
 20
0.179367
 30
0.000000
  0
VERTEX
  8
LAYER-1
 10
4.261678
 20
0.200200
 30
0.000000
  0
SEQEND
  8
LAYER-1
  0
POLYLINE
  8
LAYER-1
 66
  1
 70
  1
 62
  0
 10
4.223484
 20
0.116865
 30
0.000000
  0
VERTEX
  8
LAYER-1
 10
4.223484
 20
0.116865
 30
0.000000
  0
VERTEX
  8
LAYER-1
 10
4.206991
 20
0.091691
 30
0.000000
  0
VERTEX
  8
LAYER-1
 10
4.221748
 20
0.083878
 30
0.000000
  0
SEQEND
  8
LAYER-1
  0
POLYLINE
  8
LAYER-1
 66
  1
 70
  0
 62
  0
 10
4.032511
 20
0.204541
 30
0.000000
  0
VERTEX
  8
LAYER-1
 10
4.032511
 20
0.204541
 30
0.000000
  0
VERTEX
  8
LAYER-1
 10
4.028171
 20
0.204541
 30
0.000000
  0
VERTEX
  8
LAYER-1
 10
4.024699
 20
0.200200
 30
0.000000
  0
VERTEX
  8
LAYER-1
 10
4.023831
 20
0.194992
 30
0.000000
  0
VERTEX
  8
LAYER-1
 10
4.025567
 20
0.190652
 30
0.000000
  0
VERTEX
  8
LAYER-1
 10
4.029908
 20
0.188916
 30
0.000000
  0
VERTEX
  8
LAYER-1
 10
4.034248
 20
0.188916
 30
0.000000
  0
VERTEX
  8
LAYER-1
 10
4.038588
 20
0.192388
 30
0.000000
  0
VERTEX
  8
LAYER-1
 10
4.038588
 20
0.196728
 30
0.000000
  0
VERTEX
  8
LAYER-1
 10
4.037720
 20
0.201069
 30
0.000000
  0
VERTEX
  8
LAYER-1
 10
4.033379
 20
0.203673
 30
0.000000
  0
SEQEND
  8
LAYER-1
  0
POLYLINE
  8
LAYER-1
 66
  1
 70
  1
 62
  0
 10
4.053777
 20
0.136397
 30
0.000000
  0
VERTEX
  8
LAYER-1
 10
4.053777
 20
0.136397
 30
0.000000
  0
VERTEX
  8
LAYER-1
 10
4.076347
 20
0.123377
 30
0.000000
  0
VERTEX
  8
LAYER-1
 10
4.055514
 20
0.153758
 30
0.000000
  0
SEQEND
  8
LAYER-1
  0
POLYLINE
  8
LAYER-1
 66
  1
 70
  1
 62
  0
 10
4.170432
 20
0.128417
 30
0.000000
  0
VERTEX
  8
LAYER-1
 10
4.170432
 20
0.128417
 30
0.000000
  0
VERTEX
  8
LAYER-1
 10
4.189797
 20
0.115729
 30
0.000000
  0
VERTEX
  8
LAYER-1
 10
4.195807
 20
0.127081
 30
0.000000
  0
SEQEND
  8
LAYER-1
  0
POLYLINE
  8
LAYER-1
 66
  1
 70
  0
 62
  0
 10
4.184421
 20
0.206277
 30
0.000000
  0
VERTEX
  8
LAYER-1
 10
4.184421
 20
0.206277
 30
0.000000
  0
VERTEX
  8
LAYER-1
 10
4.180081
 20
0.206277
 30
0.000000
  0
VERTEX
  8
LAYER-1
 10
4.176608
 20
0.201936
 30
0.000000
  0
VERTEX
  8
LAYER-1
 10
4.175741
 20
0.196728
 30
0.000000
  0
VERTEX
  8
LAYER-1
 10
4.177476
 20
0.192388
 30
0.000000
  0
VERTEX
  8
LAYER-1
 10
4.181817
 20
0.190652
 30
0.000000
  0
VERTEX
  8
LAYER-1
 10
4.186158
 20
0.190652
 30
0.000000
  0
VERTEX
  8
LAYER-1
 10
4.190498
 20
0.194123
 30
0.000000
  0
VERTEX
  8
LAYER-1
 10
4.190498
 20
0.198464
 30
0.000000
  0
VERTEX
  8
LAYER-1
 10
4.189629
 20
0.202805
 30
0.000000
  0
VERTEX
  8
LAYER-1
 10
4.185289
 20
0.205409
 30
0.000000
  0
SEQEND
  8
LAYER-1
  0
POLYLINE
  8
LAYER-1
 66
  1
 70
  0
 62
  0
 10
4.268623
 20
0.079539
 30
0.000000
  0
VERTEX
  8
LAYER-1
 10
4.268623
 20
0.079539
 30
0.000000
  0
VERTEX
  8
LAYER-1
 10
4.264283
 20
0.079539
 30
0.000000
  0
VERTEX
  8
LAYER-1
 10
4.260811
 20
0.075198
 30
0.000000
  0
VERTEX
  8
LAYER-1
 10
4.259943
 20
0.069990
 30
0.000000
  0
VERTEX
  8
LAYER-1
 10
4.261679
 20
0.065650
 30
0.000000
  0
VERTEX
  8
LAYER-1
 10
4.266019
 20
0.063914
 30
0.000000
  0
VERTEX
  8
LAYER-1
 10
4.270359
 20
0.063914
 30
0.000000
  0
VERTEX
  8
LAYER-1
 10
4.274700
 20
0.067385
 30
0.000000
  0
VERTEX
  8
LAYER-1
 10
4.274700
 20
0.071726
 30
0.000000
  0
VERTEX
  8
LAYER-1
 10
4.273831
 20
0.076067
 30
0.000000
  0
VERTEX
  8
LAYER-1
 10
4.269491
 20
0.078671
 30
0.000000
  0
SEQEND
  8
LAYER-1
  0
POLYLINE
  8
LAYER-1
 66
  1
 70
  0
 62
  0
 10
4.114977
 20
0.134225
 30
0.000000
  0
VERTEX
  8
LAYER-1
 10
4.114977
 20
0.134225
 30
0.000000
  0
VERTEX
  8
LAYER-1
 10
4.110636
 20
0.134225
 30
0.000000
  0
VERTEX
  8
LAYER-1
 10
4.107165
 20
0.129884
 30
0.000000
  0
VERTEX
  8
LAYER-1
 10
4.106297
 20
0.124676
 30
0.000000
  0
VERTEX
  8
LAYER-1
 10
4.108033
 20
0.120335
 30
0.000000
  0
VERTEX
  8
LAYER-1
 10
4.112373
 20
0.118600
 30
0.000000
  0
VERTEX
  8
LAYER-1
 10
4.116713
 20
0.118600
 30
0.000000
  0
VERTEX
  8
LAYER-1
 10
4.121054
 20
0.122071
 30
0.000000
  0
VERTEX
  8
LAYER-1
 10
4.121054
 20
0.126412
 30
0.000000
  0
VERTEX
  8
LAYER-1
 10
4.120185
 20
0.130753
 30
0.000000
  0
VERTEX
  8
LAYER-1
 10
4.115845
 20
0.133357
 30
0.000000
  0
SEQEND
  8
LAYER-1
  0
POLYLINE
  8
LAYER-1
 66
  1
 70
  1
 62
  0
 10
3.950048
 20
0.142906
 30
0.000000
  0
VERTEX
  8
LAYER-1
 10
3.950048
 20
0.142906
 30
0.000000
  0
VERTEX
  8
LAYER-1
 10
3.943102
 20
0.168946
 30
0.000000
  0
VERTEX
  8
LAYER-1
 10
3.917929
 20
0.155059
 30
0.000000
  0
SEQEND
  8
LAYER-1
  0
POLYLINE
  8
LAYER-1
 66
  1
 70
  1
 62
  0
 10
3.539023
 20
0.174589
 30
0.000000
  0
VERTEX
  8
LAYER-1
 10
3.539023
 20
0.174589
 30
0.000000
  0
VERTEX
  8
LAYER-1
 10
3.552043
 20
0.197160
 30
0.000000
  0
VERTEX
  8
LAYER-1
 10
3.521662
 20
0.176327
 30
0.000000
  0
SEQEND
  8
LAYER-1
  0
POLYLINE
  8
LAYER-1
 66
  1
 70
  1
 62
  0
 10
3.836331
 20
0.168081
 30
0.000000
  0
VERTEX
  8
LAYER-1
 10
3.836331
 20
0.168081
 30
0.000000
  0
VERTEX
  8
LAYER-1
 10
3.852825
 20
0.193254
 30
0.000000
  0
VERTEX
  8
LAYER-1
 10
3.838067
 20
0.201067
 30
0.000000
  0
SEQEND
  8
LAYER-1
  0
POLYLINE
  8
LAYER-1
 66
  1
 70
  0
 62
  0
 10
3.999526
 20
0.111656
 30
0.000000
  0
VERTEX
  8
LAYER-1
 10
3.999526
 20
0.111656
 30
0.000000
  0
VERTEX
  8
LAYER-1
 10
4.003866
 20
0.111656
 30
0.000000
  0
VERTEX
  8
LAYER-1
 10
4.007338
 20
0.115996
 30
0.000000
  0
VERTEX
  8
LAYER-1
 10
4.008207
 20
0.121204
 30
0.000000
  0
VERTEX
  8
LAYER-1
 10
4.006471
 20
0.125545
 30
0.000000
  0
VERTEX
  8
LAYER-1
 10
4.002130
 20
0.127281
 30
0.000000
  0
VERTEX
  8
LAYER-1
 10
3.997790
 20
0.127281
 30
0.000000
  0
VERTEX
  8
LAYER-1
 10
3.993449
 20
0.123809
 30
0.000000
  0
VERTEX
  8
LAYER-1
 10
3.993449
 20
0.119469
 30
0.000000
  0
VERTEX
  8
LAYER-1
 10
3.994318
 20
0.115128
 30
0.000000
  0
VERTEX
  8
LAYER-1
 10
3.998658
 20
0.112523
 30
0.000000
  0
SEQEND
  8
LAYER-1
  0
POLYLINE
  8
LAYER-1
 66
  1
 70
  1
 62
  0
 10
3.953518
 20
0.108185
 30
0.000000
  0
VERTEX
  8
LAYER-1
 10
3.953518
 20
0.108185
 30
0.000000
  0
VERTEX
  8
LAYER-1
 10
3.966540
 20
0.130755
 30
0.000000
  0
VERTEX
  8
LAYER-1
 10
3.936158
 20
0.109923
 30
0.000000
  0
SEQEND
  8
LAYER-1
  0
POLYLINE
  8
LAYER-1
 66
  1
 70
  1
 62
  0
 10
3.898932
 20
0.149586
 30
0.000000
  0
VERTEX
  8
LAYER-1
 10
3.898932
 20
0.149586
 30
0.000000
  0
VERTEX
  8
LAYER-1
 10
3.879568
 20
0.162274
 30
0.000000
  0
VERTEX
  8
LAYER-1
 10
3.873557
 20
0.150922
 30
0.000000
  0
SEQEND
  8
LAYER-1
  0
POLYLINE
  8
LAYER-1
 66
  1
 70
  0
 62
  0
 10
3.875826
 20
0.046242
 30
0.000000
  0
VERTEX
  8
LAYER-1
 10
3.875826
 20
0.046242
 30
0.000000
  0
VERTEX
  8
LAYER-1
 10
3.880167
 20
0.046242
 30
0.000000
  0
VERTEX
  8
LAYER-1
 10
3.883639
 20
0.050582
 30
0.000000
  0
VERTEX
  8
LAYER-1
 10
3.884507
 20
0.055790
 30
0.000000
  0
VERTEX
  8
LAYER-1
 10
3.882771
 20
0.060131
 30
0.000000
  0
VERTEX
  8
LAYER-1
 10
3.878431
 20
0.061867
 30
0.000000
  0
VERTEX
  8
LAYER-1
 10
3.874090
 20
0.061867
 30
0.000000
  0
VERTEX
  8
LAYER-1
 10
3.869749
 20
0.058395
 30
0.000000
  0
VERTEX
  8
LAYER-1
 10
3.869749
 20
0.054054
 30
0.000000
  0
VERTEX
  8
LAYER-1
 10
3.870618
 20
0.049713
 30
0.000000
  0
VERTEX
  8
LAYER-1
 10
3.874959
 20
0.047108
 30
0.000000
  0
SEQEND
  8
LAYER-1
  0
POLYLINE
  8
LAYER-1
 66
  1
 70
  0
 62
  0
 10
3.785983
 20
0.189037
 30
0.000000
  0
VERTEX
  8
LAYER-1
 10
3.785983
 20
0.189037
 30
0.000000
  0
VERTEX
  8
LAYER-1
 10
3.790324
 20
0.189037
 30
0.000000
  0
VERTEX
  8
LAYER-1
 10
3.793796
 20
0.193377
 30
0.000000
  0
VERTEX
  8
LAYER-1
 10
3.794663
 20
0.198586
 30
0.000000
  0
VERTEX
  8
LAYER-1
 10
3.792927
 20
0.202926
 30
0.000000
  0
VERTEX
  8
LAYER-1
 10
3.788586
 20
0.204662
 30
0.000000
  0
VERTEX
  8
LAYER-1
 10
3.784248
 20
0.204662
 30
0.000000
  0
VERTEX
  8
LAYER-1
 10
3.779907
 20
0.201190
 30
0.000000
  0
VERTEX
  8
LAYER-1
 10
3.779907
 20
0.196849
 30
0.000000
  0
VERTEX
  8
LAYER-1
 10
3.780774
 20
0.192508
 30
0.000000
  0
VERTEX
  8
LAYER-1
 10
3.785114
 20
0.189904
 30
0.000000
  0
SEQEND
  8
LAYER-1
  0
POLYLINE
  8
LAYER-1
 66
  1
 70
  0
 62
  0
 10
3.948311
 20
0.181970
 30
0.000000
  0
VERTEX
  8
LAYER-1
 10
3.948311
 20
0.181970
 30
0.000000
  0
VERTEX
  8
LAYER-1
 10
3.952652
 20
0.181970
 30
0.000000
  0
VERTEX
  8
LAYER-1
 10
3.956123
 20
0.186311
 30
0.000000
  0
VERTEX
  8
LAYER-1
 10
3.956990
 20
0.191519
 30
0.000000
  0
VERTEX
  8
LAYER-1
 10
3.955254
 20
0.195859
 30
0.000000
  0
VERTEX
  8
LAYER-1
 10
3.950914
 20
0.197595
 30
0.000000
  0
VERTEX
  8
LAYER-1
 10
3.946575
 20
0.197595
 30
0.000000
  0
VERTEX
  8
LAYER-1
 10
3.942234
 20
0.194123
 30
0.000000
  0
VERTEX
  8
LAYER-1
 10
3.942234
 20
0.189783
 30
0.000000
  0
VERTEX
  8
LAYER-1
 10
3.943101
 20
0.185442
 30
0.000000
  0
VERTEX
  8
LAYER-1
 10
3.947442
 20
0.182838
 30
0.000000
  0
SEQEND
  8
LAYER-1
  0
POLYLINE
  8
LAYER-1
 66
  1
 70
  1
 62
  0
 10
4.704386
 20
0.151155
 30
0.000000
  0
VERTEX
  8
LAYER-1
 10
4.704386
 20
0.151155
 30
0.000000
  0
VERTEX
  8
LAYER-1
 10
4.711330
 20
0.125114
 30
0.000000
  0
VERTEX
  8
LAYER-1
 10
4.736504
 20
0.139002
 30
0.000000
  0
SEQEND
  8
LAYER-1
  0
POLYLINE
  8
LAYER-1
 66
  1
 70
  1
 62
  0
 10
4.831120
 20
0.186746
 30
0.000000
  0
VERTEX
  8
LAYER-1
 10
4.831120
 20
0.186746
 30
0.000000
  0
VERTEX
  8
LAYER-1
 10
4.818100
 20
0.164177
 30
0.000000
  0
VERTEX
  8
LAYER-1
 10
4.848481
 20
0.185009
 30
0.000000
  0
SEQEND
  8
LAYER-1
  0
POLYLINE
  8
LAYER-1
 66
  1
 70
  1
 62
  0
 10
4.506470
 20
0.175462
 30
0.000000
  0
VERTEX
  8
LAYER-1
 10
4.506470
 20
0.175462
 30
0.000000
  0
VERTEX
  8
LAYER-1
 10
4.489977
 20
0.150288
 30
0.000000
  0
VERTEX
  8
LAYER-1
 10
4.504734
 20
0.142476
 30
0.000000
  0
SEQEND
  8
LAYER-1
  0
POLYLINE
  8
LAYER-1
 66
  1
 70
  0
 62
  0
 10
4.616712
 20
0.167652
 30
0.000000
  0
VERTEX
  8
LAYER-1
 10
4.616712
 20
0.167652
 30
0.000000
  0
VERTEX
  8
LAYER-1
 10
4.612372
 20
0.167652
 30
0.000000
  0
VERTEX
  8
LAYER-1
 10
4.608900
 20
0.163311
 30
0.000000
  0
VERTEX
  8
LAYER-1
 10
4.608031
 20
0.158103
 30
0.000000
  0
VERTEX
  8
LAYER-1
 10
4.609767
 20
0.153762
 30
0.000000
  0
VERTEX
  8
LAYER-1
 10
4.614107
 20
0.152027
 30
0.000000
  0
VERTEX
  8
LAYER-1
 10
4.618448
 20
0.152027
 30
0.000000
  0
VERTEX
  8
LAYER-1
 10
4.622788
 20
0.155498
 30
0.000000
  0
VERTEX
  8
LAYER-1
 10
4.622788
 20
0.159839
 30
0.000000
  0
VERTEX
  8
LAYER-1
 10
4.621920
 20
0.164179
 30
0.000000
  0
VERTEX
  8
LAYER-1
 10
4.617579
 20
0.166784
 30
0.000000
  0
SEQEND
  8
LAYER-1
  0
POLYLINE
  8
LAYER-1
 66
  1
 70
  1
 62
  0
 10
4.646226
 20
0.121641
 30
0.000000
  0
VERTEX
  8
LAYER-1
 10
4.646226
 20
0.121641
 30
0.000000
  0
VERTEX
  8
LAYER-1
 10
4.633205
 20
0.099072
 30
0.000000
  0
VERTEX
  8
LAYER-1
 10
4.663587
 20
0.119904
 30
0.000000
  0
SEQEND
  8
LAYER-1
  0
POLYLINE
  8
LAYER-1
 66
  1
 70
  1
 62
  0
 10
4.853524
 20
0.122173
 30
0.000000
  0
VERTEX
  8
LAYER-1
 10
4.853524
 20
0.122173
 30
0.000000
  0
VERTEX
  8
LAYER-1
 10
4.840837
 20
0.102808
 30
0.000000
  0
VERTEX
  8
LAYER-1
 10
4.852189
 20
0.096798
 30
0.000000
  0
SEQEND
  8
LAYER-1
  0
POLYLINE
  8
LAYER-1
 66
  1
 70
  0
 62
  0
 10
4.760808
 20
0.191086
 30
0.000000
  0
VERTEX
  8
LAYER-1
 10
4.760808
 20
0.191086
 30
0.000000
  0
VERTEX
  8
LAYER-1
 10
4.756467
 20
0.191086
 30
0.000000
  0
VERTEX
  8
LAYER-1
 10
4.752995
 20
0.186746
 30
0.000000
  0
VERTEX
  8
LAYER-1
 10
4.752128
 20
0.181538
 30
0.000000
  0
VERTEX
  8
LAYER-1
 10
4.753863
 20
0.177197
 30
0.000000
  0
VERTEX
  8
LAYER-1
 10
4.758203
 20
0.175461
 30
0.000000
  0
VERTEX
  8
LAYER-1
 10
4.762544
 20
0.175461
 30
0.000000
  0
VERTEX
  8
LAYER-1
 10
4.766885
 20
0.178933
 30
0.000000
  0
VERTEX
  8
LAYER-1
 10
4.766885
 20
0.183273
 30
0.000000
  0
VERTEX
  8
LAYER-1
 10
4.766016
 20
0.187614
 30
0.000000
  0
VERTEX
  8
LAYER-1
 10
4.761676
 20
0.190218
 30
0.000000
  0
SEQEND
  8
LAYER-1
  0
POLYLINE
  8
LAYER-1
 66
  1
 70
  0
 62
  0
 10
4.548136
 20
0.181536
 30
0.000000
  0
VERTEX
  8
LAYER-1
 10
4.548136
 20
0.181536
 30
0.000000
  0
VERTEX
  8
LAYER-1
 10
4.543797
 20
0.181536
 30
0.000000
  0
VERTEX
  8
LAYER-1
 10
4.540324
 20
0.177196
 30
0.000000
  0
VERTEX
  8
LAYER-1
 10
4.539456
 20
0.171989
 30
0.000000
  0
VERTEX
  8
LAYER-1
 10
4.541193
 20
0.167647
 30
0.000000
  0
VERTEX
  8
LAYER-1
 10
4.545533
 20
0.165911
 30
0.000000
  0
VERTEX
  8
LAYER-1
 10
4.549873
 20
0.165911
 30
0.000000
  0
VERTEX
  8
LAYER-1
 10
4.554213
 20
0.169384
 30
0.000000
  0
VERTEX
  8
LAYER-1
 10
4.554213
 20
0.173724
 30
0.000000
  0
VERTEX
  8
LAYER-1
 10
4.553345
 20
0.178065
 30
0.000000
  0
VERTEX
  8
LAYER-1
 10
4.549005
 20
0.180669
 30
0.000000
  0
SEQEND
  8
LAYER-1
  0
POLYLINE
  8
LAYER-1
 66
  1
 70
  0
 62
  0
 10
4.795533
 20
0.153757
 30
0.000000
  0
VERTEX
  8
LAYER-1
 10
4.795533
 20
0.153757
 30
0.000000
  0
VERTEX
  8
LAYER-1
 10
4.791193
 20
0.153757
 30
0.000000
  0
VERTEX
  8
LAYER-1
 10
4.787720
 20
0.149416
 30
0.000000
  0
VERTEX
  8
LAYER-1
 10
4.786853
 20
0.144208
 30
0.000000
  0
VERTEX
  8
LAYER-1
 10
4.788589
 20
0.139867
 30
0.000000
  0
VERTEX
  8
LAYER-1
 10
4.792930
 20
0.138132
 30
0.000000
  0
VERTEX
  8
LAYER-1
 10
4.797270
 20
0.138132
 30
0.000000
  0
VERTEX
  8
LAYER-1
 10
4.801609
 20
0.141603
 30
0.000000
  0
VERTEX
  8
LAYER-1
 10
4.801609
 20
0.145944
 30
0.000000
  0
VERTEX
  8
LAYER-1
 10
4.800742
 20
0.150285
 30
0.000000
  0
VERTEX
  8
LAYER-1
 10
4.796402
 20
0.152889
 30
0.000000
  0
SEQEND
  8
LAYER-1
  0
POLYLINE
  8
LAYER-1
 66
  1
 70
  1
 62
  0
 10
4.410116
 20
0.100372
 30
0.000000
  0
VERTEX
  8
LAYER-1
 10
4.410116
 20
0.100372
 30
0.000000
  0
VERTEX
  8
LAYER-1
 10
4.403171
 20
0.126413
 30
0.000000
  0
VERTEX
  8
LAYER-1
 10
4.377998
 20
0.112526
 30
0.000000
  0
SEQEND
  8
LAYER-1
  0
POLYLINE
  8
LAYER-1
 66
  1
 70
  1
 62
  0
 10
4.258206
 20
0.141169
 30
0.000000
  0
VERTEX
  8
LAYER-1
 10
4.258206
 20
0.141169
 30
0.000000
  0
VERTEX
  8
LAYER-1
 10
4.271227
 20
0.163740
 30
0.000000
  0
VERTEX
  8
LAYER-1
 10
4.240845
 20
0.142907
 30
0.000000
  0
SEQEND
  8
LAYER-1
  0
POLYLINE
  8
LAYER-1
 66
  1
 70
  1
 62
  0
 10
4.341540
 20
0.101243
 30
0.000000
  0
VERTEX
  8
LAYER-1
 10
4.341540
 20
0.101243
 30
0.000000
  0
VERTEX
  8
LAYER-1
 10
4.358033
 20
0.126417
 30
0.000000
  0
VERTEX
  8
LAYER-1
 10
4.343276
 20
0.134229
 30
0.000000
  0
SEQEND
  8
LAYER-1
  0
POLYLINE
  8
LAYER-1
 66
  1
 70
  0
 62
  0
 10
4.516020
 20
0.102980
 30
0.000000
  0
VERTEX
  8
LAYER-1
 10
4.516020
 20
0.102980
 30
0.000000
  0
VERTEX
  8
LAYER-1
 10
4.520360
 20
0.102980
 30
0.000000
  0
VERTEX
  8
LAYER-1
 10
4.523832
 20
0.107321
 30
0.000000
  0
VERTEX
  8
LAYER-1
 10
4.524700
 20
0.112528
 30
0.000000
  0
VERTEX
  8
LAYER-1
 10
4.522964
 20
0.116870
 30
0.000000
  0
VERTEX
  8
LAYER-1
 10
4.518623
 20
0.118605
 30
0.000000
  0
VERTEX
  8
LAYER-1
 10
4.514283
 20
0.118605
 30
0.000000
  0
VERTEX
  8
LAYER-1
 10
4.509943
 20
0.115133
 30
0.000000
  0
VERTEX
  8
LAYER-1
 10
4.509943
 20
0.110792
 30
0.000000
  0
VERTEX
  8
LAYER-1
 10
4.510811
 20
0.106452
 30
0.000000
  0
VERTEX
  8
LAYER-1
 10
4.515152
 20
0.103847
 30
0.000000
  0
SEQEND
  8
LAYER-1
  0
POLYLINE
  8
LAYER-1
 66
  1
 70
  1
 62
  0
 10
4.467407
 20
0.117735
 30
0.000000
  0
VERTEX
  8
LAYER-1
 10
4.467407
 20
0.117735
 30
0.000000
  0
VERTEX
  8
LAYER-1
 10
4.480428
 20
0.140305
 30
0.000000
  0
VERTEX
  8
LAYER-1
 10
4.450046
 20
0.119473
 30
0.000000
  0
SEQEND
  8
LAYER-1
  0
POLYLINE
  8
LAYER-1
 66
  1
 70
  1
 62
  0
 10
4.356463
 20
0.153660
 30
0.000000
  0
VERTEX
  8
LAYER-1
 10
4.356463
 20
0.153660
 30
0.000000
  0
VERTEX
  8
LAYER-1
 10
4.369150
 20
0.173024
 30
0.000000
  0
VERTEX
  8
LAYER-1
 10
4.357799
 20
0.179036
 30
0.000000
  0
SEQEND
  8
LAYER-1
  0
POLYLINE
  8
LAYER-1
 66
  1
 70
  0
 62
  0
 10
4.312111
 20
0.185131
 30
0.000000
  0
VERTEX
  8
LAYER-1
 10
4.312111
 20
0.185131
 30
0.000000
  0
VERTEX
  8
LAYER-1
 10
4.316451
 20
0.185131
 30
0.000000
  0
VERTEX
  8
LAYER-1
 10
4.319924
 20
0.189473
 30
0.000000
  0
VERTEX
  8
LAYER-1
 10
4.320791
 20
0.194680
 30
0.000000
  0
VERTEX
  8
LAYER-1
 10
4.319056
 20
0.199020
 30
0.000000
  0
VERTEX
  8
LAYER-1
 10
4.314715
 20
0.200756
 30
0.000000
  0
VERTEX
  8
LAYER-1
 10
4.310374
 20
0.200756
 30
0.000000
  0
VERTEX
  8
LAYER-1
 10
4.306035
 20
0.197285
 30
0.000000
  0
VERTEX
  8
LAYER-1
 10
4.306035
 20
0.192944
 30
0.000000
  0
VERTEX
  8
LAYER-1
 10
4.306903
 20
0.188604
 30
0.000000
  0
VERTEX
  8
LAYER-1
 10
4.311243
 20
0.185999
 30
0.000000
  0
SEQEND
  8
LAYER-1
  0
POLYLINE
  8
LAYER-1
 66
  1
 70
  0
 62
  0
 10
4.289456
 20
0.107320
 30
0.000000
  0
VERTEX
  8
LAYER-1
 10
4.289456
 20
0.107320
 30
0.000000
  0
VERTEX
  8
LAYER-1
 10
4.293797
 20
0.107320
 30
0.000000
  0
VERTEX
  8
LAYER-1
 10
4.297269
 20
0.111660
 30
0.000000
  0
VERTEX
  8
LAYER-1
 10
4.298136
 20
0.116868
 30
0.000000
  0
VERTEX
  8
LAYER-1
 10
4.296401
 20
0.121209
 30
0.000000
  0
VERTEX
  8
LAYER-1
 10
4.292060
 20
0.122945
 30
0.000000
  0
VERTEX
  8
LAYER-1
 10
4.287720
 20
0.122945
 30
0.000000
  0
VERTEX
  8
LAYER-1
 10
4.283379
 20
0.119473
 30
0.000000
  0
VERTEX
  8
LAYER-1
 10
4.283379
 20
0.115133
 30
0.000000
  0
VERTEX
  8
LAYER-1
 10
4.284248
 20
0.110792
 30
0.000000
  0
VERTEX
  8
LAYER-1
 10
4.288588
 20
0.108187
 30
0.000000
  0
SEQEND
  8
LAYER-1
  0
POLYLINE
  8
LAYER-1
 66
  1
 70
  0
 62
  0
 10
4.453519
 20
0.184576
 30
0.000000
  0
VERTEX
  8
LAYER-1
 10
4.453519
 20
0.184576
 30
0.000000
  0
VERTEX
  8
LAYER-1
 10
4.457859
 20
0.184576
 30
0.000000
  0
VERTEX
  8
LAYER-1
 10
4.461331
 20
0.188917
 30
0.000000
  0
VERTEX
  8
LAYER-1
 10
4.462199
 20
0.194124
 30
0.000000
  0
VERTEX
  8
LAYER-1
 10
4.460463
 20
0.198465
 30
0.000000
  0
VERTEX
  8
LAYER-1
 10
4.456123
 20
0.200201
 30
0.000000
  0
VERTEX
  8
LAYER-1
 10
4.451783
 20
0.200201
 30
0.000000
  0
VERTEX
  8
LAYER-1
 10
4.447442
 20
0.196729
 30
0.000000
  0
VERTEX
  8
LAYER-1
 10
4.447442
 20
0.192389
 30
0.000000
  0
VERTEX
  8
LAYER-1
 10
4.448310
 20
0.188048
 30
0.000000
  0
VERTEX
  8
LAYER-1
 10
4.452651
 20
0.185443
 30
0.000000
  0
SEQEND
  8
LAYER-1
  0
POLYLINE
  8
LAYER-1
 66
  1
 70
  1
 62
  0
 10
4.905337
 20
0.141172
 30
0.000000
  0
VERTEX
  8
LAYER-1
 10
4.905337
 20
0.141172
 30
0.000000
  0
VERTEX
  8
LAYER-1
 10
4.931378
 20
0.148116
 30
0.000000
  0
VERTEX
  8
LAYER-1
 10
4.917490
 20
0.173290
 30
0.000000
  0
SEQEND
  8
LAYER-1
  0
POLYLINE
  8
LAYER-1
 66
  1
 70
  1
 62
  0
 10
4.587632
 20
0.194124
 30
0.000000
  0
VERTEX
  8
LAYER-1
 10
4.587632
 20
0.194124
 30
0.000000
  0
VERTEX
  8
LAYER-1
 10
4.610201
 20
0.181103
 30
0.000000
  0
VERTEX
  8
LAYER-1
 10
4.589369
 20
0.211485
 30
0.000000
  0
SEQEND
  8
LAYER-1
  0
POLYLINE
  8
LAYER-1
 66
  1
 70
  1
 62
  0
 10
5.524261
 20
0.099502
 30
0.000000
  0
VERTEX
  8
LAYER-1
 10
5.524261
 20
0.099502
 30
0.000000
  0
VERTEX
  8
LAYER-1
 10
5.549435
 20
0.083009
 30
0.000000
  0
VERTEX
  8
LAYER-1
 10
5.557248
 20
0.097766
 30
0.000000
  0
SEQEND
  8
LAYER-1
  0
POLYLINE
  8
LAYER-1
 66
  1
 70
  0
 62
  0
 10
5.345441
 20
0.108184
 30
0.000000
  0
VERTEX
  8
LAYER-1
 10
5.345441
 20
0.108184
 30
0.000000
  0
VERTEX
  8
LAYER-1
 10
5.345441
 20
0.103845
 30
0.000000
  0
VERTEX
  8
LAYER-1
 10
5.349782
 20
0.100371
 30
0.000000
  0
VERTEX
  8
LAYER-1
 10
5.354990
 20
0.099504
 30
0.000000
  0
VERTEX
  8
LAYER-1
 10
5.359330
 20
0.101240
 30
0.000000
  0
VERTEX
  8
LAYER-1
 10
5.361066
 20
0.105580
 30
0.000000
  0
VERTEX
  8
LAYER-1
 10
5.361066
 20
0.109921
 30
0.000000
  0
VERTEX
  8
LAYER-1
 10
5.357594
 20
0.114260
 30
0.000000
  0
VERTEX
  8
LAYER-1
 10
5.353254
 20
0.114260
 30
0.000000
  0
VERTEX
  8
LAYER-1
 10
5.348913
 20
0.113392
 30
0.000000
  0
VERTEX
  8
LAYER-1
 10
5.346309
 20
0.109053
 30
0.000000
  0
SEQEND
  8
LAYER-1
  0
POLYLINE
  8
LAYER-1
 66
  1
 70
  1
 62
  0
 10
4.975650
 20
0.128150
 30
0.000000
  0
VERTEX
  8
LAYER-1
 10
4.975650
 20
0.128150
 30
0.000000
  0
VERTEX
  8
LAYER-1
 10
4.998219
 20
0.115129
 30
0.000000
  0
VERTEX
  8
LAYER-1
 10
4.977387
 20
0.145510
 30
0.000000
  0
SEQEND
  8
LAYER-1
  0
POLYLINE
  8
LAYER-1
 66
  1
 70
  1
 62
  0
 10
4.938658
 20
0.199164
 30
0.000000
  0
VERTEX
  8
LAYER-1
 10
4.938658
 20
0.199164
 30
0.000000
  0
VERTEX
  8
LAYER-1
 10
4.958023
 20
0.186479
 30
0.000000
  0
VERTEX
  8
LAYER-1
 10
4.964033
 20
0.197829
 30
0.000000
  0
SEQEND
  8
LAYER-1
  0
POLYLINE
  8
LAYER-1
 66
  1
 70
  0
 62
  0
 10
4.583293
 20
0.134228
 30
0.000000
  0
VERTEX
  8
LAYER-1
 10
4.583293
 20
0.134228
 30
0.000000
  0
VERTEX
  8
LAYER-1
 10
4.583293
 20
0.129889
 30
0.000000
  0
VERTEX
  8
LAYER-1
 10
4.587632
 20
0.126416
 30
0.000000
  0
VERTEX
  8
LAYER-1
 10
4.592840
 20
0.125548
 30
0.000000
  0
VERTEX
  8
LAYER-1
 10
4.597181
 20
0.127284
 30
0.000000
  0
VERTEX
  8
LAYER-1
 10
4.598917
 20
0.131624
 30
0.000000
  0
VERTEX
  8
LAYER-1
 10
4.598917
 20
0.135964
 30
0.000000
  0
VERTEX
  8
LAYER-1
 10
4.595445
 20
0.140305
 30
0.000000
  0
VERTEX
  8
LAYER-1
 10
4.591104
 20
0.140305
 30
0.000000
  0
VERTEX
  8
LAYER-1
 10
4.586764
 20
0.139437
 30
0.000000
  0
VERTEX
  8
LAYER-1
 10
4.584160
 20
0.135096
 30
0.000000
  0
SEQEND
  8
LAYER-1
  0
POLYLINE
  8
LAYER-1
 66
  1
 70
  0
 62
  0
 10
4.989538
 20
0.096033
 30
0.000000
  0
VERTEX
  8
LAYER-1
 10
4.989538
 20
0.096033
 30
0.000000
  0
VERTEX
  8
LAYER-1
 10
4.989538
 20
0.091692
 30
0.000000
  0
VERTEX
  8
LAYER-1
 10
4.993879
 20
0.088220
 30
0.000000
  0
VERTEX
  8
LAYER-1
 10
4.999087
 20
0.087351
 30
0.000000
  0
VERTEX
  8
LAYER-1
 10
5.003427
 20
0.089088
 30
0.000000
  0
VERTEX
  8
LAYER-1
 10
5.005163
 20
0.093428
 30
0.000000
  0
VERTEX
  8
LAYER-1
 10
5.005163
 20
0.097769
 30
0.000000
  0
VERTEX
  8
LAYER-1
 10
5.001691
 20
0.102109
 30
0.000000
  0
VERTEX
  8
LAYER-1
 10
4.997350
 20
0.102109
 30
0.000000
  0
VERTEX
  8
LAYER-1
 10
4.993010
 20
0.101240
 30
0.000000
  0
VERTEX
  8
LAYER-1
 10
4.990406
 20
0.096901
 30
0.000000
  0
SEQEND
  8
LAYER-1
  0
POLYLINE
  8
LAYER-1
 66
  1
 70
  0
 62
  0
 10
5.058115
 20
0.131623
 30
0.000000
  0
VERTEX
  8
LAYER-1
 10
5.058115
 20
0.131623
 30
0.000000
  0
VERTEX
  8
LAYER-1
 10
5.058115
 20
0.127283
 30
0.000000
  0
VERTEX
  8
LAYER-1
 10
5.062455
 20
0.123811
 30
0.000000
  0
VERTEX
  8
LAYER-1
 10
5.067663
 20
0.122942
 30
0.000000
  0
VERTEX
  8
LAYER-1
 10
5.072004
 20
0.124679
 30
0.000000
  0
VERTEX
  8
LAYER-1
 10
5.073740
 20
0.129019
 30
0.000000
  0
VERTEX
  8
LAYER-1
 10
5.073740
 20
0.133359
 30
0.000000
  0
VERTEX
  8
LAYER-1
 10
5.070268
 20
0.137700
 30
0.000000
  0
VERTEX
  8
LAYER-1
 10
5.065927
 20
0.137700
 30
0.000000
  0
VERTEX
  8
LAYER-1
 10
5.061587
 20
0.136831
 30
0.000000
  0
VERTEX
  8
LAYER-1
 10
5.058982
 20
0.132491
 30
0.000000
  0
SEQEND
  8
LAYER-1
  0
POLYLINE
  8
LAYER-1
 66
  1
 70
  1
 62
  0
 10
5.097525
 20
0.152891
 30
0.000000
  0
VERTEX
  8
LAYER-1
 10
5.097525
 20
0.152891
 30
0.000000
  0
VERTEX
  8
LAYER-1
 10
5.104470
 20
0.126851
 30
0.000000
  0
VERTEX
  8
LAYER-1
 10
5.129643
 20
0.140738
 30
0.000000
  0
SEQEND
  8
LAYER-1
  0
POLYLINE
  8
LAYER-1
 66
  1
 70
  1
 62
  0
 10
5.259070
 20
0.181538
 30
0.000000
  0
VERTEX
  8
LAYER-1
 10
5.259070
 20
0.181538
 30
0.000000
  0
VERTEX
  8
LAYER-1
 10
5.246049
 20
0.158967
 30
0.000000
  0
VERTEX
  8
LAYER-1
 10
5.276431
 20
0.179800
 30
0.000000
  0
SEQEND
  8
LAYER-1
  0
POLYLINE
  8
LAYER-1
 66
  1
 70
  1
 62
  0
 10
5.651431
 20
0.152019
 30
0.000000
  0
VERTEX
  8
LAYER-1
 10
5.651431
 20
0.152019
 30
0.000000
  0
VERTEX
  8
LAYER-1
 10
5.634938
 20
0.126845
 30
0.000000
  0
VERTEX
  8
LAYER-1
 10
5.649695
 20
0.119033
 30
0.000000
  0
SEQEND
  8
LAYER-1
  0
POLYLINE
  8
LAYER-1
 66
  1
 70
  0
 62
  0
 10
5.047265
 20
0.184141
 30
0.000000
  0
VERTEX
  8
LAYER-1
 10
5.047265
 20
0.184141
 30
0.000000
  0
VERTEX
  8
LAYER-1
 10
5.042924
 20
0.184141
 30
0.000000
  0
VERTEX
  8
LAYER-1
 10
5.039452
 20
0.179800
 30
0.000000
  0
VERTEX
  8
LAYER-1
 10
5.038584
 20
0.174592
 30
0.000000
  0
VERTEX
  8
LAYER-1
 10
5.040320
 20
0.170252
 30
0.000000
  0
VERTEX
  8
LAYER-1
 10
5.044661
 20
0.168516
 30
0.000000
  0
VERTEX
  8
LAYER-1
 10
5.049001
 20
0.168516
 30
0.000000
  0
VERTEX
  8
LAYER-1
 10
5.053341
 20
0.171988
 30
0.000000
  0
VERTEX
  8
LAYER-1
 10
5.053341
 20
0.176328
 30
0.000000
  0
VERTEX
  8
LAYER-1
 10
5.052473
 20
0.180669
 30
0.000000
  0
VERTEX
  8
LAYER-1
 10
5.048133
 20
0.183273
 30
0.000000
  0
SEQEND
  8
LAYER-1
  0
POLYLINE
  8
LAYER-1
 66
  1
 70
  1
 62
  0
 10
5.110634
 20
0.107752
 30
0.000000
  0
VERTEX
  8
LAYER-1
 10
5.110634
 20
0.107752
 30
0.000000
  0
VERTEX
  8
LAYER-1
 10
5.097613
 20
0.085181
 30
0.000000
  0
VERTEX
  8
LAYER-1
 10
5.127995
 20
0.106014
 30
0.000000
  0
SEQEND
  8
LAYER-1
  0
POLYLINE
  8
LAYER-1
 66
  1
 70
  1
 62
  0
 10
5.179376
 20
0.085514
 30
0.000000
  0
VERTEX
  8
LAYER-1
 10
5.179376
 20
0.085514
 30
0.000000
  0
VERTEX
  8
LAYER-1
 10
5.192064
 20
0.104878
 30
0.000000
  0
VERTEX
  8
LAYER-1
 10
5.180713
 20
0.110889
 30
0.000000
  0
SEQEND
  8
LAYER-1
  0
POLYLINE
  8
LAYER-1
 66
  1
 70
  0
 62
  0
 10
5.199174
 20
0.185877
 30
0.000000
  0
VERTEX
  8
LAYER-1
 10
5.199174
 20
0.185877
 30
0.000000
  0
VERTEX
  8
LAYER-1
 10
5.194834
 20
0.185877
 30
0.000000
  0
VERTEX
  8
LAYER-1
 10
5.191362
 20
0.181536
 30
0.000000
  0
VERTEX
  8
LAYER-1
 10
5.190494
 20
0.176328
 30
0.000000
  0
VERTEX
  8
LAYER-1
 10
5.192229
 20
0.171988
 30
0.000000
  0
VERTEX
  8
LAYER-1
 10
5.196570
 20
0.170252
 30
0.000000
  0
VERTEX
  8
LAYER-1
 10
5.200911
 20
0.170252
 30
0.000000
  0
VERTEX
  8
LAYER-1
 10
5.205251
 20
0.173723
 30
0.000000
  0
VERTEX
  8
LAYER-1
 10
5.205251
 20
0.178064
 30
0.000000
  0
VERTEX
  8
LAYER-1
 10
5.204383
 20
0.182404
 30
0.000000
  0
VERTEX
  8
LAYER-1
 10
5.200042
 20
0.185009
 30
0.000000
  0
SEQEND
  8
LAYER-1
  0
POLYLINE
  8
LAYER-1
 66
  1
 70
  0
 62
  0
 10
5.703515
 20
0.145942
 30
0.000000
  0
VERTEX
  8
LAYER-1
 10
5.703515
 20
0.145942
 30
0.000000
  0
VERTEX
  8
LAYER-1
 10
5.699174
 20
0.145942
 30
0.000000
  0
VERTEX
  8
LAYER-1
 10
5.695702
 20
0.141602
 30
0.000000
  0
VERTEX
  8
LAYER-1
 10
5.694834
 20
0.136394
 30
0.000000
  0
VERTEX
  8
LAYER-1
 10
5.696570
 20
0.132053
 30
0.000000
  0
VERTEX
  8
LAYER-1
 10
5.700911
 20
0.130317
 30
0.000000
  0
VERTEX
  8
LAYER-1
 10
5.705251
 20
0.130317
 30
0.000000
  0
VERTEX
  8
LAYER-1
 10
5.709591
 20
0.133789
 30
0.000000
  0
VERTEX
  8
LAYER-1
 10
5.709591
 20
0.138129
 30
0.000000
  0
VERTEX
  8
LAYER-1
 10
5.708723
 20
0.142470
 30
0.000000
  0
VERTEX
  8
LAYER-1
 10
5.704383
 20
0.145075
 30
0.000000
  0
SEQEND
  8
LAYER-1
  0
POLYLINE
  8
LAYER-1
 66
  1
 70
  0
 62
  0
 10
5.612370
 20
0.113825
 30
0.000000
  0
VERTEX
  8
LAYER-1
 10
5.612370
 20
0.113825
 30
0.000000
  0
VERTEX
  8
LAYER-1
 10
5.608029
 20
0.113825
 30
0.000000
  0
VERTEX
  8
LAYER-1
 10
5.604557
 20
0.109484
 30
0.000000
  0
VERTEX
  8
LAYER-1
 10
5.603689
 20
0.104276
 30
0.000000
  0
VERTEX
  8
LAYER-1
 10
5.605425
 20
0.099935
 30
0.000000
  0
VERTEX
  8
LAYER-1
 10
5.609766
 20
0.098200
 30
0.000000
  0
VERTEX
  8
LAYER-1
 10
5.614106
 20
0.098200
 30
0.000000
  0
VERTEX
  8
LAYER-1
 10
5.618446
 20
0.101671
 30
0.000000
  0
VERTEX
  8
LAYER-1
 10
5.618446
 20
0.106012
 30
0.000000
  0
VERTEX
  8
LAYER-1
 10
5.617578
 20
0.110352
 30
0.000000
  0
VERTEX
  8
LAYER-1
 10
5.613238
 20
0.112957
 30
0.000000
  0
SEQEND
  8
LAYER-1
  0
POLYLINE
  8
LAYER-1
 66
  1
 70
  1
 62
  0
 10
5.297265
 20
0.168083
 30
0.000000
  0
VERTEX
  8
LAYER-1
 10
5.297265
 20
0.168083
 30
0.000000
  0
VERTEX
  8
LAYER-1
 10
5.323305
 20
0.175028
 30
0.000000
  0
VERTEX
  8
LAYER-1
 10
5.309418
 20
0.200201
 30
0.000000
  0
SEQEND
  8
LAYER-1
  0
POLYLINE
  8
LAYER-1
 66
  1
 70
  0
 62
  0
 10
5.266015
 20
0.118603
 30
0.000000
  0
VERTEX
  8
LAYER-1
 10
5.266015
 20
0.118603
 30
0.000000
  0
VERTEX
  8
LAYER-1
 10
5.266015
 20
0.114264
 30
0.000000
  0
VERTEX
  8
LAYER-1
 10
5.270356
 20
0.110791
 30
0.000000
  0
VERTEX
  8
LAYER-1
 10
5.275563
 20
0.109923
 30
0.000000
  0
VERTEX
  8
LAYER-1
 10
5.279904
 20
0.111660
 30
0.000000
  0
VERTEX
  8
LAYER-1
 10
5.281640
 20
0.115999
 30
0.000000
  0
VERTEX
  8
LAYER-1
 10
5.281640
 20
0.120340
 30
0.000000
  0
VERTEX
  8
LAYER-1
 10
5.278168
 20
0.124680
 30
0.000000
  0
VERTEX
  8
LAYER-1
 10
5.273827
 20
0.124680
 30
0.000000
  0
VERTEX
  8
LAYER-1
 10
5.269487
 20
0.123812
 30
0.000000
  0
VERTEX
  8
LAYER-1
 10
5.266882
 20
0.119472
 30
0.000000
  0
SEQEND
  8
LAYER-1
  0
POLYLINE
  8
LAYER-1
 66
  1
 70
  1
 62
  0
 10
5.361067
 20
0.132058
 30
0.000000
  0
VERTEX
  8
LAYER-1
 10
5.361067
 20
0.132058
 30
0.000000
  0
VERTEX
  8
LAYER-1
 10
5.374087
 20
0.154628
 30
0.000000
  0
VERTEX
  8
LAYER-1
 10
5.343706
 20
0.133796
 30
0.000000
  0
SEQEND
  8
LAYER-1
  0
POLYLINE
  8
LAYER-1
 66
  1
 70
  0
 62
  0
 10
5.416188
 20
0.166347
 30
0.000000
  0
VERTEX
  8
LAYER-1
 10
5.416188
 20
0.166347
 30
0.000000
  0
VERTEX
  8
LAYER-1
 10
5.416188
 20
0.162007
 30
0.000000
  0
VERTEX
  8
LAYER-1
 10
5.420529
 20
0.158535
 30
0.000000
  0
VERTEX
  8
LAYER-1
 10
5.425737
 20
0.157666
 30
0.000000
  0
VERTEX
  8
LAYER-1
 10
5.430077
 20
0.159403
 30
0.000000
  0
VERTEX
  8
LAYER-1
 10
5.431813
 20
0.163742
 30
0.000000
  0
VERTEX
  8
LAYER-1
 10
5.431813
 20
0.168083
 30
0.000000
  0
VERTEX
  8
LAYER-1
 10
5.428341
 20
0.172423
 30
0.000000
  0
VERTEX
  8
LAYER-1
 10
5.424001
 20
0.172423
 30
0.000000
  0
VERTEX
  8
LAYER-1
 10
5.419660
 20
0.171555
 30
0.000000
  0
VERTEX
  8
LAYER-1
 10
5.417055
 20
0.167215
 30
0.000000
  0
SEQEND
  8
LAYER-1
  0
POLYLINE
  8
LAYER-1
 66
  1
 70
  1
 62
  0
 10
6.162113
 20
0.182752
 30
0.000000
  0
VERTEX
  8
LAYER-1
 10
6.162113
 20
0.182752
 30
0.000000
  0
VERTEX
  8
LAYER-1
 10
6.155167
 20
0.208793
 30
0.000000
  0
VERTEX
  8
LAYER-1
 10
6.129994
 20
0.194905
 30
0.000000
  0
SEQEND
  8
LAYER-1
  0
POLYLINE
  8
LAYER-1
 66
  1
 70
  0
 62
  0
 10
6.202652
 20
0.056536
 30
0.000000
  0
VERTEX
  8
LAYER-1
 10
6.202652
 20
0.056536
 30
0.000000
  0
VERTEX
  8
LAYER-1
 10
6.206991
 20
0.056536
 30
0.000000
  0
VERTEX
  8
LAYER-1
 10
6.210464
 20
0.060877
 30
0.000000
  0
VERTEX
  8
LAYER-1
 10
6.211331
 20
0.066084
 30
0.000000
  0
VERTEX
  8
LAYER-1
 10
6.209595
 20
0.070425
 30
0.000000
  0
VERTEX
  8
LAYER-1
 10
6.205256
 20
0.072161
 30
0.000000
  0
VERTEX
  8
LAYER-1
 10
6.200915
 20
0.072161
 30
0.000000
  0
VERTEX
  8
LAYER-1
 10
6.196575
 20
0.068689
 30
0.000000
  0
VERTEX
  8
LAYER-1
 10
6.196575
 20
0.064348
 30
0.000000
  0
VERTEX
  8
LAYER-1
 10
6.197443
 20
0.060008
 30
0.000000
  0
VERTEX
  8
LAYER-1
 10
6.201783
 20
0.057404
 30
0.000000
  0
SEQEND
  8
LAYER-1
  0
POLYLINE
  8
LAYER-1
 66
  1
 70
  1
 62
  0
 10
5.499087
 20
0.089522
 30
0.000000
  0
VERTEX
  8
LAYER-1
 10
5.499087
 20
0.089522
 30
0.000000
  0
VERTEX
  8
LAYER-1
 10
5.512107
 20
0.112092
 30
0.000000
  0
VERTEX
  8
LAYER-1
 10
5.481726
 20
0.091259
 30
0.000000
  0
SEQEND
  8
LAYER-1
  0
POLYLINE
  8
LAYER-1
 66
  1
 70
  0
 62
  0
 10
5.542839
 20
0.167856
 30
0.000000
  0
VERTEX
  8
LAYER-1
 10
5.542839
 20
0.167856
 30
0.000000
  0
VERTEX
  8
LAYER-1
 10
5.547180
 20
0.167856
 30
0.000000
  0
VERTEX
  8
LAYER-1
 10
5.550652
 20
0.172197
 30
0.000000
  0
VERTEX
  8
LAYER-1
 10
5.551521
 20
0.177405
 30
0.000000
  0
VERTEX
  8
LAYER-1
 10
5.549784
 20
0.181745
 30
0.000000
  0
VERTEX
  8
LAYER-1
 10
5.545444
 20
0.183481
 30
0.000000
  0
VERTEX
  8
LAYER-1
 10
5.541104
 20
0.183481
 30
0.000000
  0
VERTEX
  8
LAYER-1
 10
5.536763
 20
0.180010
 30
0.000000
  0
VERTEX
  8
LAYER-1
 10
5.536763
 20
0.175669
 30
0.000000
  0
VERTEX
  8
LAYER-1
 10
5.537632
 20
0.171328
 30
0.000000
  0
VERTEX
  8
LAYER-1
 10
5.541971
 20
0.168724
 30
0.000000
  0
SEQEND
  8
LAYER-1
  0
POLYLINE
  8
LAYER-1
 66
  1
 70
  1
 62
  0
 10
6.082426
 20
0.098639
 30
0.000000
  0
VERTEX
  8
LAYER-1
 10
6.082426
 20
0.098639
 30
0.000000
  0
VERTEX
  8
LAYER-1
 10
6.056385
 20
0.091693
 30
0.000000
  0
VERTEX
  8
LAYER-1
 10
6.070273
 20
0.066520
 30
0.000000
  0
SEQEND
  8
LAYER-1
  0
POLYLINE
  8
LAYER-1
 66
  1
 70
  0
 62
  0
 10
5.447438
 20
0.113397
 30
0.000000
  0
VERTEX
  8
LAYER-1
 10
5.447438
 20
0.113397
 30
0.000000
  0
VERTEX
  8
LAYER-1
 10
5.447438
 20
0.117735
 30
0.000000
  0
VERTEX
  8
LAYER-1
 10
5.443097
 20
0.121209
 30
0.000000
  0
VERTEX
  8
LAYER-1
 10
5.437890
 20
0.122076
 30
0.000000
  0
VERTEX
  8
LAYER-1
 10
5.433549
 20
0.120340
 30
0.000000
  0
VERTEX
  8
LAYER-1
 10
5.431813
 20
0.115999
 30
0.000000
  0
VERTEX
  8
LAYER-1
 10
5.431813
 20
0.111659
 30
0.000000
  0
VERTEX
  8
LAYER-1
 10
5.435285
 20
0.107320
 30
0.000000
  0
VERTEX
  8
LAYER-1
 10
5.439626
 20
0.107320
 30
0.000000
  0
VERTEX
  8
LAYER-1
 10
5.443966
 20
0.108187
 30
0.000000
  0
VERTEX
  8
LAYER-1
 10
5.446570
 20
0.112528
 30
0.000000
  0
SEQEND
  8
LAYER-1
  0
POLYLINE
  8
LAYER-1
 66
  1
 70
  1
 62
  0
 10
6.031210
 20
0.088222
 30
0.000000
  0
VERTEX
  8
LAYER-1
 10
6.031210
 20
0.088222
 30
0.000000
  0
VERTEX
  8
LAYER-1
 10
6.003432
 20
0.104714
 30
0.000000
  0
VERTEX
  8
LAYER-1
 10
6.024264
 20
0.074333
 30
0.000000
  0
SEQEND
  8
LAYER-1
  0
POLYLINE
  8
LAYER-1
 66
  1
 70
  0
 62
  0
 10
5.741709
 20
0.169815
 30
0.000000
  0
VERTEX
  8
LAYER-1
 10
5.741709
 20
0.169815
 30
0.000000
  0
VERTEX
  8
LAYER-1
 10
5.741709
 20
0.174156
 30
0.000000
  0
VERTEX
  8
LAYER-1
 10
5.737369
 20
0.177628
 30
0.000000
  0
VERTEX
  8
LAYER-1
 10
5.732161
 20
0.178496
 30
0.000000
  0
VERTEX
  8
LAYER-1
 10
5.727820
 20
0.176759
 30
0.000000
  0
VERTEX
  8
LAYER-1
 10
5.726084
 20
0.172420
 30
0.000000
  0
VERTEX
  8
LAYER-1
 10
5.726084
 20
0.168079
 30
0.000000
  0
VERTEX
  8
LAYER-1
 10
5.729556
 20
0.163739
 30
0.000000
  0
VERTEX
  8
LAYER-1
 10
5.733897
 20
0.163739
 30
0.000000
  0
VERTEX
  8
LAYER-1
 10
5.738238
 20
0.164608
 30
0.000000
  0
VERTEX
  8
LAYER-1
 10
5.740841
 20
0.168946
 30
0.000000
  0
SEQEND
  8
LAYER-1
  0
POLYLINE
  8
LAYER-1
 66
  1
 70
  1
 62
  0
 10
6.312374
 20
0.076330
 30
0.000000
  0
VERTEX
  8
LAYER-1
 10
6.312374
 20
0.076330
 30
0.000000
  0
VERTEX
  8
LAYER-1
 10
6.305428
 20
0.102370
 30
0.000000
  0
VERTEX
  8
LAYER-1
 10
6.280255
 20
0.088482
 30
0.000000
  0
SEQEND
  8
LAYER-1
  0
POLYLINE
  8
LAYER-1
 66
  1
 70
  0
 62
  0
 10
6.402218
 20
0.176589
 30
0.000000
  0
VERTEX
  8
LAYER-1
 10
6.402218
 20
0.176589
 30
0.000000
  0
VERTEX
  8
LAYER-1
 10
6.406559
 20
0.176589
 30
0.000000
  0
VERTEX
  8
LAYER-1
 10
6.410031
 20
0.180930
 30
0.000000
  0
VERTEX
  8
LAYER-1
 10
6.410898
 20
0.186138
 30
0.000000
  0
VERTEX
  8
LAYER-1
 10
6.409162
 20
0.190479
 30
0.000000
  0
VERTEX
  8
LAYER-1
 10
6.404823
 20
0.192214
 30
0.000000
  0
VERTEX
  8
LAYER-1
 10
6.400483
 20
0.192214
 30
0.000000
  0
VERTEX
  8
LAYER-1
 10
6.396142
 20
0.188743
 30
0.000000
  0
VERTEX
  8
LAYER-1
 10
6.396142
 20
0.184402
 30
0.000000
  0
VERTEX
  8
LAYER-1
 10
6.397011
 20
0.180061
 30
0.000000
  0
VERTEX
  8
LAYER-1
 10
6.401349
 20
0.177457
 30
0.000000
  0
SEQEND
  8
LAYER-1
  0
POLYLINE
  8
LAYER-1
 66
  1
 70
  1
 62
  0
 10
6.387460
 20
0.211745
 30
0.000000
  0
VERTEX
  8
LAYER-1
 10
6.387460
 20
0.211745
 30
0.000000
  0
VERTEX
  8
LAYER-1
 10
6.361418
 20
0.204801
 30
0.000000
  0
VERTEX
  8
LAYER-1
 10
6.375307
 20
0.179628
 30
0.000000
  0
SEQEND
  8
LAYER-1
  0
POLYLINE
  8
LAYER-1
 66
  1
 70
  1
 62
  0
 10
5.636241
 20
0.070429
 30
0.000000
  0
VERTEX
  8
LAYER-1
 10
5.636241
 20
0.070429
 30
0.000000
  0
VERTEX
  8
LAYER-1
 10
5.649261
 20
0.092998
 30
0.000000
  0
VERTEX
  8
LAYER-1
 10
5.618880
 20
0.072166
 30
0.000000
  0
SEQEND
  8
LAYER-1
  0
POLYLINE
  8
LAYER-1
 66
  1
 70
  0
 62
  0
 10
5.632768
 20
0.177198
 30
0.000000
  0
VERTEX
  8
LAYER-1
 10
5.632768
 20
0.177198
 30
0.000000
  0
VERTEX
  8
LAYER-1
 10
5.637109
 20
0.177198
 30
0.000000
  0
VERTEX
  8
LAYER-1
 10
5.640580
 20
0.181539
 30
0.000000
  0
VERTEX
  8
LAYER-1
 10
5.641449
 20
0.186746
 30
0.000000
  0
VERTEX
  8
LAYER-1
 10
5.639713
 20
0.191087
 30
0.000000
  0
VERTEX
  8
LAYER-1
 10
5.635373
 20
0.192823
 30
0.000000
  0
VERTEX
  8
LAYER-1
 10
5.631032
 20
0.192823
 30
0.000000
  0
VERTEX
  8
LAYER-1
 10
5.626691
 20
0.189351
 30
0.000000
  0
VERTEX
  8
LAYER-1
 10
5.626691
 20
0.185010
 30
0.000000
  0
VERTEX
  8
LAYER-1
 10
5.627560
 20
0.180670
 30
0.000000
  0
VERTEX
  8
LAYER-1
 10
5.631901
 20
0.178066
 30
0.000000
  0
SEQEND
  8
LAYER-1
  0
POLYLINE
  8
LAYER-1
 66
  1
 70
  1
 62
  0
 10
5.585459
 20
0.155929
 30
0.000000
  0
VERTEX
  8
LAYER-1
 10
5.585459
 20
0.155929
 30
0.000000
  0
VERTEX
  8
LAYER-1
 10
5.610634
 20
0.139436
 30
0.000000
  0
VERTEX
  8
LAYER-1
 10
5.618446
 20
0.154193
 30
0.000000
  0
SEQEND
  8
LAYER-1
  0
POLYLINE
  8
LAYER-1
 66
  1
 70
  1
 62
  0
 10
5.572105
 20
0.128317
 30
0.000000
  0
VERTEX
  8
LAYER-1
 10
5.572105
 20
0.128317
 30
0.000000
  0
VERTEX
  8
LAYER-1
 10
5.552742
 20
0.141005
 30
0.000000
  0
VERTEX
  8
LAYER-1
 10
5.546730
 20
0.129653
 30
0.000000
  0
SEQEND
  8
LAYER-1
  0
POLYLINE
  8
LAYER-1
 66
  1
 70
  1
 62
  0
 10
1.349350
 20
0.187179
 30
0.000000
  0
VERTEX
  8
LAYER-1
 10
1.349350
 20
0.187179
 30
0.000000
  0
VERTEX
  8
LAYER-1
 10
1.336329
 20
0.164609
 30
0.000000
  0
VERTEX
  8
LAYER-1
 10
1.366711
 20
0.185442
 30
0.000000
  0
SEQEND
  8
LAYER-1
  0
POLYLINE
  8
LAYER-1
 66
  1
 70
  1
 62
  0
 10
5.898830
 20
0.114265
 30
0.000000
  0
VERTEX
  8
LAYER-1
 10
5.898830
 20
0.114265
 30
0.000000
  0
VERTEX
  8
LAYER-1
 10
5.921400
 20
0.101243
 30
0.000000
  0
VERTEX
  8
LAYER-1
 10
5.900567
 20
0.131626
 30
0.000000
  0
SEQEND
  8
LAYER-1
  0
POLYLINE
  8
LAYER-1
 66
  1
 70
  0
 62
  0
 10
5.826782
 20
0.161136
 30
0.000000
  0
VERTEX
  8
LAYER-1
 10
5.826782
 20
0.161136
 30
0.000000
  0
VERTEX
  8
LAYER-1
 10
5.826782
 20
0.156796
 30
0.000000
  0
VERTEX
  8
LAYER-1
 10
5.831123
 20
0.153324
 30
0.000000
  0
VERTEX
  8
LAYER-1
 10
5.836330
 20
0.152456
 30
0.000000
  0
VERTEX
  8
LAYER-1
 10
5.840671
 20
0.154192
 30
0.000000
  0
VERTEX
  8
LAYER-1
 10
5.842407
 20
0.158533
 30
0.000000
  0
VERTEX
  8
LAYER-1
 10
5.842407
 20
0.162872
 30
0.000000
  0
VERTEX
  8
LAYER-1
 10
5.838935
 20
0.167213
 30
0.000000
  0
VERTEX
  8
LAYER-1
 10
5.834594
 20
0.167213
 30
0.000000
  0
VERTEX
  8
LAYER-1
 10
5.830254
 20
0.166345
 30
0.000000
  0
VERTEX
  8
LAYER-1
 10
5.827650
 20
0.162004
 30
0.000000
  0
SEQEND
  8
LAYER-1
  0
POLYLINE
  8
LAYER-1
 66
  1
 70
  1
 62
  0
 10
5.776434
 20
0.172423
 30
0.000000
  0
VERTEX
  8
LAYER-1
 10
5.776434
 20
0.172423
 30
0.000000
  0
VERTEX
  8
LAYER-1
 10
5.799004
 20
0.159402
 30
0.000000
  0
VERTEX
  8
LAYER-1
 10
5.778171
 20
0.189784
 30
0.000000
  0
SEQEND
  8
LAYER-1
  0
POLYLINE
  8
LAYER-1
 66
  1
 70
  0
 62
  0
 10
6.038587
 20
0.114265
 30
0.000000
  0
VERTEX
  8
LAYER-1
 10
6.038587
 20
0.114265
 30
0.000000
  0
VERTEX
  8
LAYER-1
 10
6.038587
 20
0.109923
 30
0.000000
  0
VERTEX
  8
LAYER-1
 10
6.042928
 20
0.106452
 30
0.000000
  0
VERTEX
  8
LAYER-1
 10
6.048136
 20
0.105584
 30
0.000000
  0
VERTEX
  8
LAYER-1
 10
6.052476
 20
0.107320
 30
0.000000
  0
VERTEX
  8
LAYER-1
 10
6.054212
 20
0.111660
 30
0.000000
  0
VERTEX
  8
LAYER-1
 10
6.054212
 20
0.116001
 30
0.000000
  0
VERTEX
  8
LAYER-1
 10
6.050741
 20
0.120341
 30
0.000000
  0
VERTEX
  8
LAYER-1
 10
6.046400
 20
0.120341
 30
0.000000
  0
VERTEX
  8
LAYER-1
 10
6.042059
 20
0.119472
 30
0.000000
  0
VERTEX
  8
LAYER-1
 10
6.039455
 20
0.115133
 30
0.000000
  0
SEQEND
  8
LAYER-1
  0
POLYLINE
  8
LAYER-1
 66
  1
 70
  0
 62
  0
 10
5.872789
 20
0.168952
 30
0.000000
  0
VERTEX
  8
LAYER-1
 10
5.872789
 20
0.168952
 30
0.000000
  0
VERTEX
  8
LAYER-1
 10
5.872789
 20
0.164611
 30
0.000000
  0
VERTEX
  8
LAYER-1
 10
5.877129
 20
0.161140
 30
0.000000
  0
VERTEX
  8
LAYER-1
 10
5.882337
 20
0.160272
 30
0.000000
  0
VERTEX
  8
LAYER-1
 10
5.886678
 20
0.162008
 30
0.000000
  0
VERTEX
  8
LAYER-1
 10
5.888414
 20
0.166347
 30
0.000000
  0
VERTEX
  8
LAYER-1
 10
5.888414
 20
0.170688
 30
0.000000
  0
VERTEX
  8
LAYER-1
 10
5.884942
 20
0.175028
 30
0.000000
  0
VERTEX
  8
LAYER-1
 10
5.880601
 20
0.175028
 30
0.000000
  0
VERTEX
  8
LAYER-1
 10
5.876261
 20
0.174160
 30
0.000000
  0
VERTEX
  8
LAYER-1
 10
5.873656
 20
0.169820
 30
0.000000
  0
SEQEND
  8
LAYER-1
  0
POLYLINE
  8
LAYER-1
 66
  1
 70
  1
 62
  0
 10
5.797269
 20
0.104282
 30
0.000000
  0
VERTEX
  8
LAYER-1
 10
5.797269
 20
0.104282
 30
0.000000
  0
VERTEX
  8
LAYER-1
 10
5.784248
 20
0.081711
 30
0.000000
  0
VERTEX
  8
LAYER-1
 10
5.814629
 20
0.102544
 30
0.000000
  0
SEQEND
  8
LAYER-1
  0
POLYLINE
  8
LAYER-1
 66
  1
 70
  0
 62
  0
 10
5.723568
 20
0.096416
 30
0.000000
  0
VERTEX
  8
LAYER-1
 10
5.723568
 20
0.096416
 30
0.000000
  0
VERTEX
  8
LAYER-1
 10
5.719228
 20
0.096416
 30
0.000000
  0
VERTEX
  8
LAYER-1
 10
5.715755
 20
0.092076
 30
0.000000
  0
VERTEX
  8
LAYER-1
 10
5.714887
 20
0.086867
 30
0.000000
  0
VERTEX
  8
LAYER-1
 10
5.716624
 20
0.082527
 30
0.000000
  0
VERTEX
  8
LAYER-1
 10
5.720964
 20
0.080791
 30
0.000000
  0
VERTEX
  8
LAYER-1
 10
5.725305
 20
0.080791
 30
0.000000
  0
VERTEX
  8
LAYER-1
 10
5.729644
 20
0.084263
 30
0.000000
  0
VERTEX
  8
LAYER-1
 10
5.729644
 20
0.088604
 30
0.000000
  0
VERTEX
  8
LAYER-1
 10
5.728777
 20
0.092945
 30
0.000000
  0
VERTEX
  8
LAYER-1
 10
5.724436
 20
0.095549
 30
0.000000
  0
SEQEND
  8
LAYER-1
  0
POLYLINE
  8
LAYER-1
 66
  1
 70
  0
 62
  0
 10
5.797269
 20
0.134661
 30
0.000000
  0
VERTEX
  8
LAYER-1
 10
5.797269
 20
0.134661
 30
0.000000
  0
VERTEX
  8
LAYER-1
 10
5.792928
 20
0.134661
 30
0.000000
  0
VERTEX
  8
LAYER-1
 10
5.789456
 20
0.130321
 30
0.000000
  0
VERTEX
  8
LAYER-1
 10
5.788588
 20
0.125114
 30
0.000000
  0
VERTEX
  8
LAYER-1
 10
5.790324
 20
0.120772
 30
0.000000
  0
VERTEX
  8
LAYER-1
 10
5.794665
 20
0.119036
 30
0.000000
  0
VERTEX
  8
LAYER-1
 10
5.799004
 20
0.119036
 30
0.000000
  0
VERTEX
  8
LAYER-1
 10
5.803345
 20
0.122509
 30
0.000000
  0
VERTEX
  8
LAYER-1
 10
5.803345
 20
0.126849
 30
0.000000
  0
VERTEX
  8
LAYER-1
 10
5.802477
 20
0.131190
 30
0.000000
  0
VERTEX
  8
LAYER-1
 10
5.798136
 20
0.133795
 30
0.000000
  0
SEQEND
  8
LAYER-1
  0
POLYLINE
  8
LAYER-1
 66
  1
 70
  1
 62
  0
 10
6.104560
 20
0.151155
 30
0.000000
  0
VERTEX
  8
LAYER-1
 10
6.104560
 20
0.151155
 30
0.000000
  0
VERTEX
  8
LAYER-1
 10
6.111504
 20
0.125114
 30
0.000000
  0
VERTEX
  8
LAYER-1
 10
6.136678
 20
0.139002
 30
0.000000
  0
SEQEND
  8
LAYER-1
  0
POLYLINE
  8
LAYER-1
 66
  1
 70
  1
 62
  0
 10
6.266887
 20
0.179802
 30
0.000000
  0
VERTEX
  8
LAYER-1
 10
6.266887
 20
0.179802
 30
0.000000
  0
VERTEX
  8
LAYER-1
 10
6.253866
 20
0.157232
 30
0.000000
  0
VERTEX
  8
LAYER-1
 10
6.284248
 20
0.178065
 30
0.000000
  0
SEQEND
  8
LAYER-1
  0
POLYLINE
  8
LAYER-1
 66
  1
 70
  0
 62
  0
 10
6.055081
 20
0.182405
 30
0.000000
  0
VERTEX
  8
LAYER-1
 10
6.055081
 20
0.182405
 30
0.000000
  0
VERTEX
  8
LAYER-1
 10
6.050741
 20
0.182405
 30
0.000000
  0
VERTEX
  8
LAYER-1
 10
6.047269
 20
0.178065
 30
0.000000
  0
VERTEX
  8
LAYER-1
 10
6.046400
 20
0.172857
 30
0.000000
  0
VERTEX
  8
LAYER-1
 10
6.048136
 20
0.168516
 30
0.000000
  0
VERTEX
  8
LAYER-1
 10
6.052476
 20
0.166780
 30
0.000000
  0
VERTEX
  8
LAYER-1
 10
6.056817
 20
0.166780
 30
0.000000
  0
VERTEX
  8
LAYER-1
 10
6.061158
 20
0.170252
 30
0.000000
  0
VERTEX
  8
LAYER-1
 10
6.061158
 20
0.174593
 30
0.000000
  0
VERTEX
  8
LAYER-1
 10
6.060289
 20
0.178934
 30
0.000000
  0
VERTEX
  8
LAYER-1
 10
6.055949
 20
0.181538
 30
0.000000
  0
SEQEND
  8
LAYER-1
  0
POLYLINE
  8
LAYER-1
 66
  1
 70
  1
 62
  0
 10
6.165326
 20
0.114697
 30
0.000000
  0
VERTEX
  8
LAYER-1
 10
6.165326
 20
0.114697
 30
0.000000
  0
VERTEX
  8
LAYER-1
 10
6.152305
 20
0.092127
 30
0.000000
  0
VERTEX
  8
LAYER-1
 10
6.182687
 20
0.112960
 30
0.000000
  0
SEQEND
  8
LAYER-1
  0
POLYLINE
  8
LAYER-1
 66
  1
 70
  0
 62
  0
 10
6.206991
 20
0.184141
 30
0.000000
  0
VERTEX
  8
LAYER-1
 10
6.206991
 20
0.184141
 30
0.000000
  0
VERTEX
  8
LAYER-1
 10
6.202650
 20
0.184141
 30
0.000000
  0
VERTEX
  8
LAYER-1
 10
6.199178
 20
0.179801
 30
0.000000
  0
VERTEX
  8
LAYER-1
 10
6.198310
 20
0.174593
 30
0.000000
  0
VERTEX
  8
LAYER-1
 10
6.200046
 20
0.170252
 30
0.000000
  0
VERTEX
  8
LAYER-1
 10
6.204386
 20
0.168516
 30
0.000000
  0
VERTEX
  8
LAYER-1
 10
6.208726
 20
0.168516
 30
0.000000
  0
VERTEX
  8
LAYER-1
 10
6.213067
 20
0.171989
 30
0.000000
  0
VERTEX
  8
LAYER-1
 10
6.213067
 20
0.176329
 30
0.000000
  0
VERTEX
  8
LAYER-1
 10
6.212199
 20
0.180670
 30
0.000000
  0
VERTEX
  8
LAYER-1
 10
6.207858
 20
0.183273
 30
0.000000
  0
SEQEND
  8
LAYER-1
  0
POLYLINE
  8
LAYER-1
 66
  1
 70
  1
 62
  0
 10
6.546400
 20
0.175461
 30
0.000000
  0
VERTEX
  8
LAYER-1
 10
6.546400
 20
0.175461
 30
0.000000
  0
VERTEX
  8
LAYER-1
 10
6.553344
 20
0.149421
 30
0.000000
  0
VERTEX
  8
LAYER-1
 10
6.578518
 20
0.163308
 30
0.000000
  0
SEQEND
  8
LAYER-1
  0
POLYLINE
  8
LAYER-1
 66
  1
 70
  1
 62
  0
 10
6.708727
 20
0.204108
 30
0.000000
  0
VERTEX
  8
LAYER-1
 10
6.708727
 20
0.204108
 30
0.000000
  0
VERTEX
  8
LAYER-1
 10
6.695705
 20
0.181538
 30
0.000000
  0
VERTEX
  8
LAYER-1
 10
6.726087
 20
0.202371
 30
0.000000
  0
SEQEND
  8
LAYER-1
  0
POLYLINE
  8
LAYER-1
 66
  1
 70
  1
 62
  0
 10
5.937026
 20
0.139871
 30
0.000000
  0
VERTEX
  8
LAYER-1
 10
5.937026
 20
0.139871
 30
0.000000
  0
VERTEX
  8
LAYER-1
 10
5.962199
 20
0.123377
 30
0.000000
  0
VERTEX
  8
LAYER-1
 10
5.970011
 20
0.138135
 30
0.000000
  0
SEQEND
  8
LAYER-1
  0
POLYLINE
  8
LAYER-1
 66
  1
 70
  0
 62
  0
 10
6.507337
 20
0.196296
 30
0.000000
  0
VERTEX
  8
LAYER-1
 10
6.507337
 20
0.196296
 30
0.000000
  0
VERTEX
  8
LAYER-1
 10
6.502997
 20
0.196296
 30
0.000000
  0
VERTEX
  8
LAYER-1
 10
6.499525
 20
0.191955
 30
0.000000
  0
VERTEX
  8
LAYER-1
 10
6.498657
 20
0.186747
 30
0.000000
  0
VERTEX
  8
LAYER-1
 10
6.500393
 20
0.182407
 30
0.000000
  0
VERTEX
  8
LAYER-1
 10
6.504734
 20
0.180671
 30
0.000000
  0
VERTEX
  8
LAYER-1
 10
6.509073
 20
0.180671
 30
0.000000
  0
VERTEX
  8
LAYER-1
 10
6.513414
 20
0.184142
 30
0.000000
  0
VERTEX
  8
LAYER-1
 10
6.513414
 20
0.188483
 30
0.000000
  0
VERTEX
  8
LAYER-1
 10
6.512546
 20
0.192824
 30
0.000000
  0
VERTEX
  8
LAYER-1
 10
6.508205
 20
0.195429
 30
0.000000
  0
SEQEND
  8
LAYER-1
  0
POLYLINE
  8
LAYER-1
 66
  1
 70
  1
 62
  0
 10
6.522963
 20
0.107753
 30
0.000000
  0
VERTEX
  8
LAYER-1
 10
6.522963
 20
0.107753
 30
0.000000
  0
VERTEX
  8
LAYER-1
 10
6.509942
 20
0.085183
 30
0.000000
  0
VERTEX
  8
LAYER-1
 10
6.540324
 20
0.106016
 30
0.000000
  0
SEQEND
  8
LAYER-1
  0
POLYLINE
  8
LAYER-1
 66
  1
 70
  1
 62
  0
 10
6.617414
 20
0.122171
 30
0.000000
  0
VERTEX
  8
LAYER-1
 10
6.617414
 20
0.122171
 30
0.000000
  0
VERTEX
  8
LAYER-1
 10
6.604727
 20
0.102807
 30
0.000000
  0
VERTEX
  8
LAYER-1
 10
6.616078
 20
0.096796
 30
0.000000
  0
SEQEND
  8
LAYER-1
  0
POLYLINE
  8
LAYER-1
 66
  1
 70
  0
 62
  0
 10
6.648830
 20
0.200635
 30
0.000000
  0
VERTEX
  8
LAYER-1
 10
6.648830
 20
0.200635
 30
0.000000
  0
VERTEX
  8
LAYER-1
 10
6.644491
 20
0.200635
 30
0.000000
  0
VERTEX
  8
LAYER-1
 10
6.641018
 20
0.196295
 30
0.000000
  0
VERTEX
  8
LAYER-1
 10
6.640150
 20
0.191087
 30
0.000000
  0
VERTEX
  8
LAYER-1
 10
6.641886
 20
0.186746
 30
0.000000
  0
VERTEX
  8
LAYER-1
 10
6.646226
 20
0.185010
 30
0.000000
  0
VERTEX
  8
LAYER-1
 10
6.650567
 20
0.185010
 30
0.000000
  0
VERTEX
  8
LAYER-1
 10
6.654907
 20
0.188482
 30
0.000000
  0
VERTEX
  8
LAYER-1
 10
6.654907
 20
0.192823
 30
0.000000
  0
VERTEX
  8
LAYER-1
 10
6.654039
 20
0.197164
 30
0.000000
  0
VERTEX
  8
LAYER-1
 10
6.649698
 20
0.199768
 30
0.000000
  0
SEQEND
  8
LAYER-1
  0
POLYLINE
  8
LAYER-1
 66
  1
 70
  0
 62
  0
 10
5.925741
 20
0.192823
 30
0.000000
  0
VERTEX
  8
LAYER-1
 10
5.925741
 20
0.192823
 30
0.000000
  0
VERTEX
  8
LAYER-1
 10
5.925741
 20
0.188482
 30
0.000000
  0
VERTEX
  8
LAYER-1
 10
5.930082
 20
0.185010
 30
0.000000
  0
VERTEX
  8
LAYER-1
 10
5.935290
 20
0.184141
 30
0.000000
  0
VERTEX
  8
LAYER-1
 10
5.939630
 20
0.185877
 30
0.000000
  0
VERTEX
  8
LAYER-1
 10
5.941366
 20
0.190218
 30
0.000000
  0
VERTEX
  8
LAYER-1
 10
5.941366
 20
0.194559
 30
0.000000
  0
VERTEX
  8
LAYER-1
 10
5.937895
 20
0.198899
 30
0.000000
  0
VERTEX
  8
LAYER-1
 10
5.933554
 20
0.198899
 30
0.000000
  0
VERTEX
  8
LAYER-1
 10
5.929213
 20
0.198030
 30
0.000000
  0
VERTEX
  8
LAYER-1
 10
5.926608
 20
0.193690
 30
0.000000
  0
SEQEND
  8
LAYER-1
  0
POLYLINE
  8
LAYER-1
 66
  1
 70
  0
 62
  0
 10
6.489107
 20
0.108620
 30
0.000000
  0
VERTEX
  8
LAYER-1
 10
6.489107
 20
0.108620
 30
0.000000
  0
VERTEX
  8
LAYER-1
 10
6.484767
 20
0.108620
 30
0.000000
  0
VERTEX
  8
LAYER-1
 10
6.481295
 20
0.104279
 30
0.000000
  0
VERTEX
  8
LAYER-1
 10
6.480427
 20
0.099071
 30
0.000000
  0
VERTEX
  8
LAYER-1
 10
6.482163
 20
0.094730
 30
0.000000
  0
VERTEX
  8
LAYER-1
 10
6.486504
 20
0.092995
 30
0.000000
  0
VERTEX
  8
LAYER-1
 10
6.490843
 20
0.092995
 30
0.000000
  0
VERTEX
  8
LAYER-1
 10
6.495184
 20
0.096466
 30
0.000000
  0
VERTEX
  8
LAYER-1
 10
6.495184
 20
0.100807
 30
0.000000
  0
VERTEX
  8
LAYER-1
 10
6.494316
 20
0.105147
 30
0.000000
  0
VERTEX
  8
LAYER-1
 10
6.489975
 20
0.107752
 30
0.000000
  0
SEQEND
  8
LAYER-1
  0
POLYLINE
  8
LAYER-1
 66
  1
 70
  0
 62
  0
 10
6.387547
 20
0.146382
 30
0.000000
  0
VERTEX
  8
LAYER-1
 10
6.387547
 20
0.146382
 30
0.000000
  0
VERTEX
  8
LAYER-1
 10
6.387547
 20
0.150722
 30
0.000000
  0
VERTEX
  8
LAYER-1
 10
6.383206
 20
0.154194
 30
0.000000
  0
VERTEX
  8
LAYER-1
 10
6.377998
 20
0.155062
 30
0.000000
  0
VERTEX
  8
LAYER-1
 10
6.373658
 20
0.153326
 30
0.000000
  0
VERTEX
  8
LAYER-1
 10
6.371922
 20
0.148985
 30
0.000000
  0
VERTEX
  8
LAYER-1
 10
6.371922
 20
0.144646
 30
0.000000
  0
VERTEX
  8
LAYER-1
 10
6.375394
 20
0.140305
 30
0.000000
  0
VERTEX
  8
LAYER-1
 10
6.379734
 20
0.140305
 30
0.000000
  0
VERTEX
  8
LAYER-1
 10
6.384075
 20
0.141173
 30
0.000000
  0
VERTEX
  8
LAYER-1
 10
6.386678
 20
0.145514
 30
0.000000
  0
SEQEND
  8
LAYER-1
  0
POLYLINE
  8
LAYER-1
 66
  1
 70
  1
 62
  0
 10
6.319837
 20
0.133360
 30
0.000000
  0
VERTEX
  8
LAYER-1
 10
6.319837
 20
0.133360
 30
0.000000
  0
VERTEX
  8
LAYER-1
 10
6.297269
 20
0.146380
 30
0.000000
  0
VERTEX
  8
LAYER-1
 10
6.318101
 20
0.115998
 30
0.000000
  0
SEQEND
  8
LAYER-1
  0
POLYLINE
  8
LAYER-1
 66
  1
 70
  0
 62
  0
 10
6.237373
 20
0.098639
 30
0.000000
  0
VERTEX
  8
LAYER-1
 10
6.237373
 20
0.098639
 30
0.000000
  0
VERTEX
  8
LAYER-1
 10
6.237373
 20
0.102979
 30
0.000000
  0
VERTEX
  8
LAYER-1
 10
6.233033
 20
0.106451
 30
0.000000
  0
VERTEX
  8
LAYER-1
 10
6.227825
 20
0.107319
 30
0.000000
  0
VERTEX
  8
LAYER-1
 10
6.223484
 20
0.105583
 30
0.000000
  0
VERTEX
  8
LAYER-1
 10
6.221748
 20
0.101243
 30
0.000000
  0
VERTEX
  8
LAYER-1
 10
6.221748
 20
0.096903
 30
0.000000
  0
VERTEX
  8
LAYER-1
 10
6.225220
 20
0.092562
 30
0.000000
  0
VERTEX
  8
LAYER-1
 10
6.229561
 20
0.092562
 30
0.000000
  0
VERTEX
  8
LAYER-1
 10
6.233902
 20
0.093430
 30
0.000000
  0
VERTEX
  8
LAYER-1
 10
6.236504
 20
0.097771
 30
0.000000
  0
SEQEND
  8
LAYER-1
  0
POLYLINE
  8
LAYER-1
 66
  1
 70
  1
 62
  0
 10
6.427651
 20
0.088917
 30
0.000000
  0
VERTEX
  8
LAYER-1
 10
6.427651
 20
0.088917
 30
0.000000
  0
VERTEX
  8
LAYER-1
 10
6.420707
 20
0.114957
 30
0.000000
  0
VERTEX
  8
LAYER-1
 10
6.395533
 20
0.101070
 30
0.000000
  0
SEQEND
  8
LAYER-1
  0
POLYLINE
  8
LAYER-1
 66
  1
 70
  1
 62
  0
 10
6.449178
 20
0.143343
 30
0.000000
  0
VERTEX
  8
LAYER-1
 10
6.449178
 20
0.143343
 30
0.000000
  0
VERTEX
  8
LAYER-1
 10
6.462199
 20
0.165914
 30
0.000000
  0
VERTEX
  8
LAYER-1
 10
6.431817
 20
0.145081
 30
0.000000
  0
SEQEND
  8
LAYER-1
  0
POLYLINE
  8
LAYER-1
 66
  1
 70
  1
 62
  0
 10
5.877129
 20
0.086920
 30
0.000000
  0
VERTEX
  8
LAYER-1
 10
5.877129
 20
0.086920
 30
0.000000
  0
VERTEX
  8
LAYER-1
 10
5.854559
 20
0.099942
 30
0.000000
  0
VERTEX
  8
LAYER-1
 10
5.875392
 20
0.069559
 30
0.000000
  0
SEQEND
  8
LAYER-1
  0
POLYLINE
  8
LAYER-1
 66
  1
 70
  1
 62
  0
 10
6.654908
 20
0.111226
 30
0.000000
  0
VERTEX
  8
LAYER-1
 10
6.654908
 20
0.111226
 30
0.000000
  0
VERTEX
  8
LAYER-1
 10
6.671401
 20
0.136399
 30
0.000000
  0
VERTEX
  8
LAYER-1
 10
6.656644
 20
0.144212
 30
0.000000
  0
SEQEND
  8
LAYER-1
  0
POLYLINE
  8
LAYER-1
 66
  1
 70
  0
 62
  0
 10
6.685808
 20
0.037822
 30
0.000000
  0
VERTEX
  8
LAYER-1
 10
6.685808
 20
0.037822
 30
0.000000
  0
VERTEX
  8
LAYER-1
 10
6.690148
 20
0.037822
 30
0.000000
  0
VERTEX
  8
LAYER-1
 10
6.693620
 20
0.042163
 30
0.000000
  0
VERTEX
  8
LAYER-1
 10
6.694489
 20
0.047371
 30
0.000000
  0
VERTEX
  8
LAYER-1
 10
6.692752
 20
0.051711
 30
0.000000
  0
VERTEX
  8
LAYER-1
 10
6.688412
 20
0.053447
 30
0.000000
  0
VERTEX
  8
LAYER-1
 10
6.684072
 20
0.053447
 30
0.000000
  0
VERTEX
  8
LAYER-1
 10
6.679732
 20
0.049976
 30
0.000000
  0
VERTEX
  8
LAYER-1
 10
6.679732
 20
0.045635
 30
0.000000
  0
VERTEX
  8
LAYER-1
 10
6.680600
 20
0.041295
 30
0.000000
  0
VERTEX
  8
LAYER-1
 10
6.684940
 20
0.038690
 30
0.000000
  0
SEQEND
  8
LAYER-1
  0
POLYLINE
  8
LAYER-1
 66
  1
 70
  0
 62
  0
 10
6.662371
 20
0.063002
 30
0.000000
  0
VERTEX
  8
LAYER-1
 10
6.662371
 20
0.063002
 30
0.000000
  0
VERTEX
  8
LAYER-1
 10
6.666712
 20
0.063002
 30
0.000000
  0
VERTEX
  8
LAYER-1
 10
6.670184
 20
0.067342
 30
0.000000
  0
VERTEX
  8
LAYER-1
 10
6.671052
 20
0.072550
 30
0.000000
  0
VERTEX
  8
LAYER-1
 10
6.669316
 20
0.076891
 30
0.000000
  0
VERTEX
  8
LAYER-1
 10
6.664975
 20
0.078627
 30
0.000000
  0
VERTEX
  8
LAYER-1
 10
6.660636
 20
0.078627
 30
0.000000
  0
VERTEX
  8
LAYER-1
 10
6.656295
 20
0.075155
 30
0.000000
  0
VERTEX
  8
LAYER-1
 10
6.656295
 20
0.070814
 30
0.000000
  0
VERTEX
  8
LAYER-1
 10
6.657163
 20
0.066473
 30
0.000000
  0
VERTEX
  8
LAYER-1
 10
6.661503
 20
0.063868
 30
0.000000
  0
SEQEND
  8
LAYER-1
  0
POLYLINE
  8
LAYER-1
 66
  1
 70
  1
 62
  0
 10
6.736589
 20
0.079057
 30
0.000000
  0
VERTEX
  8
LAYER-1
 10
6.736589
 20
0.079057
 30
0.000000
  0
VERTEX
  8
LAYER-1
 10
6.711416
 20
0.095551
 30
0.000000
  0
VERTEX
  8
LAYER-1
 10
6.703603
 20
0.080793
 30
0.000000
  0
SEQEND
  8
LAYER-1
  0
POLYLINE
  8
LAYER-1
 66
  1
 70
  0
 62
  0
 10
6.747007
 20
0.118122
 30
0.000000
  0
VERTEX
  8
LAYER-1
 10
6.747007
 20
0.118122
 30
0.000000
  0
VERTEX
  8
LAYER-1
 10
6.747007
 20
0.122462
 30
0.000000
  0
VERTEX
  8
LAYER-1
 10
6.742666
 20
0.125934
 30
0.000000
  0
VERTEX
  8
LAYER-1
 10
6.737458
 20
0.126802
 30
0.000000
  0
VERTEX
  8
LAYER-1
 10
6.733117
 20
0.125066
 30
0.000000
  0
VERTEX
  8
LAYER-1
 10
6.731382
 20
0.120726
 30
0.000000
  0
VERTEX
  8
LAYER-1
 10
6.731382
 20
0.116386
 30
0.000000
  0
VERTEX
  8
LAYER-1
 10
6.734853
 20
0.112045
 30
0.000000
  0
VERTEX
  8
LAYER-1
 10
6.739194
 20
0.112045
 30
0.000000
  0
VERTEX
  8
LAYER-1
 10
6.743535
 20
0.112913
 30
0.000000
  0
VERTEX
  8
LAYER-1
 10
6.746140
 20
0.117254
 30
0.000000
  0
SEQEND
  8
LAYER-1
  0
POLYLINE
  8
LAYER-1
 66
  1
 70
  1
 62
  0
 10
6.693529
 20
0.123973
 30
0.000000
  0
VERTEX
  8
LAYER-1
 10
6.693529
 20
0.123973
 30
0.000000
  0
VERTEX
  8
LAYER-1
 10
6.706216
 20
0.143338
 30
0.000000
  0
VERTEX
  8
LAYER-1
 10
6.694865
 20
0.149349
 30
0.000000
  0
SEQEND
  8
LAYER-1
  0
POLYLINE
  8
LAYER-1
 66
  1
 70
  0
 62
  0
 10
6.016886
 20
0.153760
 30
0.000000
  0
VERTEX
  8
LAYER-1
 10
6.016886
 20
0.153760
 30
0.000000
  0
VERTEX
  8
LAYER-1
 10
6.016886
 20
0.158099
 30
0.000000
  0
VERTEX
  8
LAYER-1
 10
6.012545
 20
0.161573
 30
0.000000
  0
VERTEX
  8
LAYER-1
 10
6.007337
 20
0.162440
 30
0.000000
  0
VERTEX
  8
LAYER-1
 10
6.002997
 20
0.160704
 30
0.000000
  0
VERTEX
  8
LAYER-1
 10
6.001261
 20
0.156364
 30
0.000000
  0
VERTEX
  8
LAYER-1
 10
6.001261
 20
0.152022
 30
0.000000
  0
VERTEX
  8
LAYER-1
 10
6.004732
 20
0.147684
 30
0.000000
  0
VERTEX
  8
LAYER-1
 10
6.009073
 20
0.147684
 30
0.000000
  0
VERTEX
  8
LAYER-1
 10
6.013414
 20
0.148551
 30
0.000000
  0
VERTEX
  8
LAYER-1
 10
6.016019
 20
0.152891
 30
0.000000
  0
SEQEND
  8
LAYER-1
  0
POLYLINE
  8
LAYER-1
 66
  1
 70
  0
 62
  0
 10
6.602824
 20
0.117303
 30
0.000000
  0
VERTEX
  8
LAYER-1
 10
6.602824
 20
0.117303
 30
0.000000
  0
VERTEX
  8
LAYER-1
 10
6.607165
 20
0.117303
 30
0.000000
  0
VERTEX
  8
LAYER-1
 10
6.610637
 20
0.121643
 30
0.000000
  0
VERTEX
  8
LAYER-1
 10
6.611504
 20
0.126851
 30
0.000000
  0
VERTEX
  8
LAYER-1
 10
6.609769
 20
0.131192
 30
0.000000
  0
VERTEX
  8
LAYER-1
 10
6.605428
 20
0.132928
 30
0.000000
  0
VERTEX
  8
LAYER-1
 10
6.601088
 20
0.132928
 30
0.000000
  0
VERTEX
  8
LAYER-1
 10
6.596748
 20
0.129456
 30
0.000000
  0
VERTEX
  8
LAYER-1
 10
6.596748
 20
0.125115
 30
0.000000
  0
VERTEX
  8
LAYER-1
 10
6.597616
 20
0.120774
 30
0.000000
  0
VERTEX
  8
LAYER-1
 10
6.601956
 20
0.118170
 30
0.000000
  0
SEQEND
  8
LAYER-1
  0
POLYLINE
  8
LAYER-1
 66
  1
 70
  1
 62
  0
 10
0.860460
 20
0.120984
 30
0.000000
  0
VERTEX
  8
LAYER-1
 10
0.860460
 20
0.120984
 30
0.000000
  0
VERTEX
  8
LAYER-1
 10
0.837889
 20
0.134004
 30
0.000000
  0
VERTEX
  8
LAYER-1
 10
0.858722
 20
0.103623
 30
0.000000
  0
SEQEND
  8
LAYER-1
  0
POLYLINE
  8
LAYER-1
 66
  1
 70
  0
 62
  0
 10
0.849175
 20
0.054143
 30
0.000000
  0
VERTEX
  8
LAYER-1
 10
0.849175
 20
0.054143
 30
0.000000
  0
VERTEX
  8
LAYER-1
 10
0.849175
 20
0.058482
 30
0.000000
  0
VERTEX
  8
LAYER-1
 10
0.844835
 20
0.061956
 30
0.000000
  0
VERTEX
  8
LAYER-1
 10
0.839627
 20
0.062823
 30
0.000000
  0
VERTEX
  8
LAYER-1
 10
0.835286
 20
0.061087
 30
0.000000
  0
VERTEX
  8
LAYER-1
 10
0.833550
 20
0.056747
 30
0.000000
  0
VERTEX
  8
LAYER-1
 10
0.833550
 20
0.052405
 30
0.000000
  0
VERTEX
  8
LAYER-1
 10
0.837022
 20
0.048067
 30
0.000000
  0
VERTEX
  8
LAYER-1
 10
0.841363
 20
0.048067
 30
0.000000
  0
VERTEX
  8
LAYER-1
 10
0.845704
 20
0.048934
 30
0.000000
  0
VERTEX
  8
LAYER-1
 10
0.848308
 20
0.053274
 30
0.000000
  0
SEQEND
  8
LAYER-1
  0
POLYLINE
  8
LAYER-1
 66
  1
 70
  1
 62
  0
 10
1.127215
 20
0.042942
 30
0.000000
  0
VERTEX
  8
LAYER-1
 10
1.127215
 20
0.042942
 30
0.000000
  0
VERTEX
  8
LAYER-1
 10
1.143708
 20
0.068117
 30
0.000000
  0
VERTEX
  8
LAYER-1
 10
1.128951
 20
0.075929
 30
0.000000
  0
SEQEND
  8
LAYER-1
  0
POLYLINE
  8
LAYER-1
 66
  1
 70
  1
 62
  0
 10
1.175124
 20
0.058037
 30
0.000000
  0
VERTEX
  8
LAYER-1
 10
1.175124
 20
0.058037
 30
0.000000
  0
VERTEX
  8
LAYER-1
 10
1.187812
 20
0.077402
 30
0.000000
  0
VERTEX
  8
LAYER-1
 10
1.176460
 20
0.083412
 30
0.000000
  0
SEQEND
  8
LAYER-1
  0
POLYLINE
  8
LAYER-1
 66
  1
 70
  0
 62
  0
 10
1.239194
 20
0.034265
 30
0.000000
  0
VERTEX
  8
LAYER-1
 10
1.239194
 20
0.034265
 30
0.000000
  0
VERTEX
  8
LAYER-1
 10
1.243534
 20
0.034265
 30
0.000000
  0
VERTEX
  8
LAYER-1
 10
1.247006
 20
0.038606
 30
0.000000
  0
VERTEX
  8
LAYER-1
 10
1.247874
 20
0.043814
 30
0.000000
  0
VERTEX
  8
LAYER-1
 10
1.246138
 20
0.048154
 30
0.000000
  0
VERTEX
  8
LAYER-1
 10
1.241798
 20
0.049890
 30
0.000000
  0
VERTEX
  8
LAYER-1
 10
1.237458
 20
0.049890
 30
0.000000
  0
VERTEX
  8
LAYER-1
 10
1.233117
 20
0.046418
 30
0.000000
  0
VERTEX
  8
LAYER-1
 10
1.233117
 20
0.042078
 30
0.000000
  0
VERTEX
  8
LAYER-1
 10
1.233985
 20
0.037737
 30
0.000000
  0
VERTEX
  8
LAYER-1
 10
1.238326
 20
0.035133
 30
0.000000
  0
SEQEND
  8
LAYER-1
  0
POLYLINE
  8
LAYER-1
 66
  1
 70
  1
 62
  0
 10
1.273048
 20
0.097198
 30
0.000000
  0
VERTEX
  8
LAYER-1
 10
1.273048
 20
0.097198
 30
0.000000
  0
VERTEX
  8
LAYER-1
 10
1.247006
 20
0.090253
 30
0.000000
  0
VERTEX
  8
LAYER-1
 10
1.260894
 20
0.065080
 30
0.000000
  0
SEQEND
  8
LAYER-1
  0
POLYLINE
  8
LAYER-1
 66
  1
 70
  0
 62
  0
 10
2.640931
 20
0.064905
 30
0.000000
  0
VERTEX
  8
LAYER-1
 10
2.640931
 20
0.064905
 30
0.000000
  0
VERTEX
  8
LAYER-1
 10
2.640931
 20
0.069245
 30
0.000000
  0
VERTEX
  8
LAYER-1
 10
2.636590
 20
0.072717
 30
0.000000
  0
VERTEX
  8
LAYER-1
 10
2.631382
 20
0.073586
 30
0.000000
  0
VERTEX
  8
LAYER-1
 10
2.627041
 20
0.071849
 30
0.000000
  0
VERTEX
  8
LAYER-1
 10
2.625306
 20
0.067510
 30
0.000000
  0
VERTEX
  8
LAYER-1
 10
2.625306
 20
0.063169
 30
0.000000
  0
VERTEX
  8
LAYER-1
 10
2.628777
 20
0.058829
 30
0.000000
  0
VERTEX
  8
LAYER-1
 10
2.633118
 20
0.058829
 30
0.000000
  0
VERTEX
  8
LAYER-1
 10
2.637459
 20
0.059697
 30
0.000000
  0
VERTEX
  8
LAYER-1
 10
2.640063
 20
0.064037
 30
0.000000
  0
SEQEND
  8
LAYER-1
  0
POLYLINE
  8
LAYER-1
 66
  1
 70
  1
 62
  0
 10
2.574958
 20
0.028013
 30
0.000000
  0
VERTEX
  8
LAYER-1
 10
2.574958
 20
0.028013
 30
0.000000
  0
VERTEX
  8
LAYER-1
 10
2.568013
 20
0.054055
 30
0.000000
  0
VERTEX
  8
LAYER-1
 10
2.542840
 20
0.040167
 30
0.000000
  0
SEQEND
  8
LAYER-1
  0
POLYLINE
  8
LAYER-1
 66
  1
 70
  1
 62
  0
 10
2.587110
 20
0.064473
 30
0.000000
  0
VERTEX
  8
LAYER-1
 10
2.587110
 20
0.064473
 30
0.000000
  0
VERTEX
  8
LAYER-1
 10
2.600131
 20
0.087042
 30
0.000000
  0
VERTEX
  8
LAYER-1
 10
2.569749
 20
0.066209
 30
0.000000
  0
SEQEND
  8
LAYER-1
  0
POLYLINE
  8
LAYER-1
 66
  1
 70
  0
 62
  0
 10
2.423309
 20
0.075322
 30
0.000000
  0
VERTEX
  8
LAYER-1
 10
2.423309
 20
0.075322
 30
0.000000
  0
VERTEX
  8
LAYER-1
 10
2.418968
 20
0.075322
 30
0.000000
  0
VERTEX
  8
LAYER-1
 10
2.415496
 20
0.070981
 30
0.000000
  0
VERTEX
  8
LAYER-1
 10
2.414629
 20
0.065774
 30
0.000000
  0
VERTEX
  8
LAYER-1
 10
2.416364
 20
0.061433
 30
0.000000
  0
VERTEX
  8
LAYER-1
 10
2.420705
 20
0.059697
 30
0.000000
  0
VERTEX
  8
LAYER-1
 10
2.425045
 20
0.059697
 30
0.000000
  0
VERTEX
  8
LAYER-1
 10
2.429386
 20
0.063169
 30
0.000000
  0
VERTEX
  8
LAYER-1
 10
2.429386
 20
0.067510
 30
0.000000
  0
VERTEX
  8
LAYER-1
 10
2.428518
 20
0.071850
 30
0.000000
  0
VERTEX
  8
LAYER-1
 10
2.424177
 20
0.074455
 30
0.000000
  0
SEQEND
  8
LAYER-1
  0
POLYLINE
  8
LAYER-1
 66
  1
 70
  1
 62
  0
 10
2.503170
 20
0.037995
 30
0.000000
  0
VERTEX
  8
LAYER-1
 10
2.503170
 20
0.037995
 30
0.000000
  0
VERTEX
  8
LAYER-1
 10
2.480599
 20
0.051018
 30
0.000000
  0
VERTEX
  8
LAYER-1
 10
2.501432
 20
0.020635
 30
0.000000
  0
SEQEND
  8
LAYER-1
  0
POLYLINE
  8
LAYER-1
 66
  1
 70
  1
 62
  0
 10
3.098141
 20
0.038846
 30
0.000000
  0
VERTEX
  8
LAYER-1
 10
3.098141
 20
0.038846
 30
0.000000
  0
VERTEX
  8
LAYER-1
 10
3.111162
 20
0.061417
 30
0.000000
  0
VERTEX
  8
LAYER-1
 10
3.080780
 20
0.040584
 30
0.000000
  0
SEQEND
  8
LAYER-1
  0
POLYLINE
  8
LAYER-1
 66
  1
 70
  1
 62
  0
 10
3.003691
 20
0.045259
 30
0.000000
  0
VERTEX
  8
LAYER-1
 10
3.003691
 20
0.045259
 30
0.000000
  0
VERTEX
  8
LAYER-1
 10
3.016378
 20
0.064624
 30
0.000000
  0
VERTEX
  8
LAYER-1
 10
3.005027
 20
0.070635
 30
0.000000
  0
SEQEND
  8
LAYER-1
  0
POLYLINE
  8
LAYER-1
 66
  1
 70
  0
 62
  0
 10
3.131996
 20
0.037979
 30
0.000000
  0
VERTEX
  8
LAYER-1
 10
3.131996
 20
0.037979
 30
0.000000
  0
VERTEX
  8
LAYER-1
 10
3.136337
 20
0.037979
 30
0.000000
  0
VERTEX
  8
LAYER-1
 10
3.139809
 20
0.042320
 30
0.000000
  0
VERTEX
  8
LAYER-1
 10
3.140677
 20
0.047528
 30
0.000000
  0
VERTEX
  8
LAYER-1
 10
3.138941
 20
0.051868
 30
0.000000
  0
VERTEX
  8
LAYER-1
 10
3.134600
 20
0.053604
 30
0.000000
  0
VERTEX
  8
LAYER-1
 10
3.130260
 20
0.053604
 30
0.000000
  0
VERTEX
  8
LAYER-1
 10
3.125920
 20
0.050133
 30
0.000000
  0
VERTEX
  8
LAYER-1
 10
3.125920
 20
0.045792
 30
0.000000
  0
VERTEX
  8
LAYER-1
 10
3.126788
 20
0.041451
 30
0.000000
  0
VERTEX
  8
LAYER-1
 10
3.131129
 20
0.038846
 30
0.000000
  0
SEQEND
  8
LAYER-1
  0
POLYLINE
  8
LAYER-1
 66
  1
 70
  0
 62
  0
 10
3.018280
 20
0.029296
 30
0.000000
  0
VERTEX
  8
LAYER-1
 10
3.018280
 20
0.029296
 30
0.000000
  0
VERTEX
  8
LAYER-1
 10
3.013939
 20
0.029296
 30
0.000000
  0
VERTEX
  8
LAYER-1
 10
3.010467
 20
0.024955
 30
0.000000
  0
VERTEX
  8
LAYER-1
 10
3.009599
 20
0.019747
 30
0.000000
  0
VERTEX
  8
LAYER-1
 10
3.011335
 20
0.015406
 30
0.000000
  0
VERTEX
  8
LAYER-1
 10
3.015676
 20
0.013671
 30
0.000000
  0
VERTEX
  8
LAYER-1
 10
3.020016
 20
0.013671
 30
0.000000
  0
VERTEX
  8
LAYER-1
 10
3.024356
 20
0.017142
 30
0.000000
  0
VERTEX
  8
LAYER-1
 10
3.024356
 20
0.021484
 30
0.000000
  0
VERTEX
  8
LAYER-1
 10
3.023488
 20
0.025824
 30
0.000000
  0
VERTEX
  8
LAYER-1
 10
3.019148
 20
0.028429
 30
0.000000
  0
SEQEND
  8
LAYER-1
  0
POLYLINE
  8
LAYER-1
 66
  1
 70
  1
 62
  0
 10
2.859333
 20
0.042597
 30
0.000000
  0
VERTEX
  8
LAYER-1
 10
2.859333
 20
0.042597
 30
0.000000
  0
VERTEX
  8
LAYER-1
 10
2.872354
 20
0.065167
 30
0.000000
  0
VERTEX
  8
LAYER-1
 10
2.841972
 20
0.044334
 30
0.000000
  0
SEQEND
  8
LAYER-1
  0
POLYLINE
  8
LAYER-1
 66
  1
 70
  0
 62
  0
 10
2.893189
 20
0.041729
 30
0.000000
  0
VERTEX
  8
LAYER-1
 10
2.893189
 20
0.041729
 30
0.000000
  0
VERTEX
  8
LAYER-1
 10
2.897530
 20
0.041729
 30
0.000000
  0
VERTEX
  8
LAYER-1
 10
2.901001
 20
0.046071
 30
0.000000
  0
VERTEX
  8
LAYER-1
 10
2.901869
 20
0.051278
 30
0.000000
  0
VERTEX
  8
LAYER-1
 10
2.900133
 20
0.055619
 30
0.000000
  0
VERTEX
  8
LAYER-1
 10
2.895793
 20
0.057354
 30
0.000000
  0
VERTEX
  8
LAYER-1
 10
2.891453
 20
0.057354
 30
0.000000
  0
VERTEX
  8
LAYER-1
 10
2.887112
 20
0.053883
 30
0.000000
  0
VERTEX
  8
LAYER-1
 10
2.887112
 20
0.049542
 30
0.000000
  0
VERTEX
  8
LAYER-1
 10
2.887980
 20
0.045202
 30
0.000000
  0
VERTEX
  8
LAYER-1
 10
2.892321
 20
0.042597
 30
0.000000
  0
SEQEND
  8
LAYER-1
  0
POLYLINE
  8
LAYER-1
 66
  1
 70
  1
 62
  0
 10
3.491451
 20
0.077667
 30
0.000000
  0
VERTEX
  8
LAYER-1
 10
3.491451
 20
0.077667
 30
0.000000
  0
VERTEX
  8
LAYER-1
 10
3.514021
 20
0.064646
 30
0.000000
  0
VERTEX
  8
LAYER-1
 10
3.493189
 20
0.095028
 30
0.000000
  0
SEQEND
  8
LAYER-1
  0
POLYLINE
  8
LAYER-1
 66
  1
 70
  0
 62
  0
 10
3.490584
 20
0.043811
 30
0.000000
  0
VERTEX
  8
LAYER-1
 10
3.490584
 20
0.043811
 30
0.000000
  0
VERTEX
  8
LAYER-1
 10
3.490584
 20
0.039471
 30
0.000000
  0
VERTEX
  8
LAYER-1
 10
3.494924
 20
0.035999
 30
0.000000
  0
VERTEX
  8
LAYER-1
 10
3.500132
 20
0.035131
 30
0.000000
  0
VERTEX
  8
LAYER-1
 10
3.504473
 20
0.036867
 30
0.000000
  0
VERTEX
  8
LAYER-1
 10
3.506209
 20
0.041208
 30
0.000000
  0
VERTEX
  8
LAYER-1
 10
3.506209
 20
0.045547
 30
0.000000
  0
VERTEX
  8
LAYER-1
 10
3.502737
 20
0.049889
 30
0.000000
  0
VERTEX
  8
LAYER-1
 10
3.498396
 20
0.049889
 30
0.000000
  0
VERTEX
  8
LAYER-1
 10
3.494055
 20
0.049021
 30
0.000000
  0
VERTEX
  8
LAYER-1
 10
3.491451
 20
0.044679
 30
0.000000
  0
SEQEND
  8
LAYER-1
  0
POLYLINE
  8
LAYER-1
 66
  1
 70
  1
 62
  0
 10
4.040930
 20
0.109697
 30
0.000000
  0
VERTEX
  8
LAYER-1
 10
4.040930
 20
0.109697
 30
0.000000
  0
VERTEX
  8
LAYER-1
 10
4.047874
 20
0.083655
 30
0.000000
  0
VERTEX
  8
LAYER-1
 10
4.073048
 20
0.097544
 30
0.000000
  0
SEQEND
  8
LAYER-1
  0
POLYLINE
  8
LAYER-1
 66
  1
 70
  1
 62
  0
 10
4.012717
 20
0.072803
 30
0.000000
  0
VERTEX
  8
LAYER-1
 10
4.012717
 20
0.072803
 30
0.000000
  0
VERTEX
  8
LAYER-1
 10
4.035286
 20
0.059782
 30
0.000000
  0
VERTEX
  8
LAYER-1
 10
4.014454
 20
0.090163
 30
0.000000
  0
SEQEND
  8
LAYER-1
  0
POLYLINE
  8
LAYER-1
 66
  1
 70
  1
 62
  0
 10
4.129371
 20
0.064823
 30
0.000000
  0
VERTEX
  8
LAYER-1
 10
4.129371
 20
0.064823
 30
0.000000
  0
VERTEX
  8
LAYER-1
 10
4.148736
 20
0.052135
 30
0.000000
  0
VERTEX
  8
LAYER-1
 10
4.154746
 20
0.063487
 30
0.000000
  0
SEQEND
  8
LAYER-1
  0
POLYLINE
  8
LAYER-1
 66
  1
 70
  0
 62
  0
 10
4.073917
 20
0.070630
 30
0.000000
  0
VERTEX
  8
LAYER-1
 10
4.073917
 20
0.070630
 30
0.000000
  0
VERTEX
  8
LAYER-1
 10
4.069576
 20
0.070630
 30
0.000000
  0
VERTEX
  8
LAYER-1
 10
4.066104
 20
0.066290
 30
0.000000
  0
VERTEX
  8
LAYER-1
 10
4.065236
 20
0.061082
 30
0.000000
  0
VERTEX
  8
LAYER-1
 10
4.066972
 20
0.056742
 30
0.000000
  0
VERTEX
  8
LAYER-1
 10
4.071312
 20
0.055005
 30
0.000000
  0
VERTEX
  8
LAYER-1
 10
4.075652
 20
0.055005
 30
0.000000
  0
VERTEX
  8
LAYER-1
 10
4.079993
 20
0.058478
 30
0.000000
  0
VERTEX
  8
LAYER-1
 10
4.079993
 20
0.062818
 30
0.000000
  0
VERTEX
  8
LAYER-1
 10
4.079124
 20
0.067159
 30
0.000000
  0
VERTEX
  8
LAYER-1
 10
4.074784
 20
0.069762
 30
0.000000
  0
SEQEND
  8
LAYER-1
  0
POLYLINE
  8
LAYER-1
 66
  1
 70
  0
 62
  0
 10
3.958465
 20
0.048062
 30
0.000000
  0
VERTEX
  8
LAYER-1
 10
3.958465
 20
0.048062
 30
0.000000
  0
VERTEX
  8
LAYER-1
 10
3.962805
 20
0.048062
 30
0.000000
  0
VERTEX
  8
LAYER-1
 10
3.966277
 20
0.052403
 30
0.000000
  0
VERTEX
  8
LAYER-1
 10
3.967146
 20
0.057610
 30
0.000000
  0
VERTEX
  8
LAYER-1
 10
3.965410
 20
0.061951
 30
0.000000
  0
VERTEX
  8
LAYER-1
 10
3.961070
 20
0.063687
 30
0.000000
  0
VERTEX
  8
LAYER-1
 10
3.956729
 20
0.063687
 30
0.000000
  0
VERTEX
  8
LAYER-1
 10
3.952388
 20
0.060215
 30
0.000000
  0
VERTEX
  8
LAYER-1
 10
3.952388
 20
0.055874
 30
0.000000
  0
VERTEX
  8
LAYER-1
 10
3.953257
 20
0.051534
 30
0.000000
  0
VERTEX
  8
LAYER-1
 10
3.957598
 20
0.048929
 30
0.000000
  0
SEQEND
  8
LAYER-1
  0
POLYLINE
  8
LAYER-1
 66
  1
 70
  1
 62
  0
 10
4.445111
 20
0.018375
 30
0.000000
  0
VERTEX
  8
LAYER-1
 10
4.445111
 20
0.018375
 30
0.000000
  0
VERTEX
  8
LAYER-1
 10
4.438167
 20
0.044416
 30
0.000000
  0
VERTEX
  8
LAYER-1
 10
4.412993
 20
0.030528
 30
0.000000
  0
SEQEND
  8
LAYER-1
  0
POLYLINE
  8
LAYER-1
 66
  1
 70
  1
 62
  0
 10
4.473324
 20
0.055269
 30
0.000000
  0
VERTEX
  8
LAYER-1
 10
4.473324
 20
0.055269
 30
0.000000
  0
VERTEX
  8
LAYER-1
 10
4.450754
 20
0.068289
 30
0.000000
  0
VERTEX
  8
LAYER-1
 10
4.471587
 20
0.037908
 30
0.000000
  0
SEQEND
  8
LAYER-1
  0
POLYLINE
  8
LAYER-1
 66
  1
 70
  1
 62
  0
 10
4.356670
 20
0.063249
 30
0.000000
  0
VERTEX
  8
LAYER-1
 10
4.356670
 20
0.063249
 30
0.000000
  0
VERTEX
  8
LAYER-1
 10
4.337305
 20
0.075936
 30
0.000000
  0
VERTEX
  8
LAYER-1
 10
4.331295
 20
0.064585
 30
0.000000
  0
SEQEND
  8
LAYER-1
  0
POLYLINE
  8
LAYER-1
 66
  1
 70
  0
 62
  0
 10
4.412124
 20
0.057441
 30
0.000000
  0
VERTEX
  8
LAYER-1
 10
4.412124
 20
0.057441
 30
0.000000
  0
VERTEX
  8
LAYER-1
 10
4.416465
 20
0.057441
 30
0.000000
  0
VERTEX
  8
LAYER-1
 10
4.419937
 20
0.061782
 30
0.000000
  0
VERTEX
  8
LAYER-1
 10
4.420805
 20
0.066989
 30
0.000000
  0
VERTEX
  8
LAYER-1
 10
4.419069
 20
0.071331
 30
0.000000
  0
VERTEX
  8
LAYER-1
 10
4.414729
 20
0.073066
 30
0.000000
  0
VERTEX
  8
LAYER-1
 10
4.410389
 20
0.073066
 30
0.000000
  0
VERTEX
  8
LAYER-1
 10
4.406048
 20
0.069594
 30
0.000000
  0
VERTEX
  8
LAYER-1
 10
4.406048
 20
0.065253
 30
0.000000
  0
VERTEX
  8
LAYER-1
 10
4.406917
 20
0.060913
 30
0.000000
  0
VERTEX
  8
LAYER-1
 10
4.411256
 20
0.058309
 30
0.000000
  0
SEQEND
  8
LAYER-1
  0
POLYLINE
  8
LAYER-1
 66
  1
 70
  0
 62
  0
 10
4.527576
 20
0.080009
 30
0.000000
  0
VERTEX
  8
LAYER-1
 10
4.527576
 20
0.080009
 30
0.000000
  0
VERTEX
  8
LAYER-1
 10
4.523235
 20
0.080009
 30
0.000000
  0
VERTEX
  8
LAYER-1
 10
4.519764
 20
0.075669
 30
0.000000
  0
VERTEX
  8
LAYER-1
 10
4.518895
 20
0.070462
 30
0.000000
  0
VERTEX
  8
LAYER-1
 10
4.520630
 20
0.066121
 30
0.000000
  0
VERTEX
  8
LAYER-1
 10
4.524971
 20
0.064384
 30
0.000000
  0
VERTEX
  8
LAYER-1
 10
4.529312
 20
0.064384
 30
0.000000
  0
VERTEX
  8
LAYER-1
 10
4.533652
 20
0.067857
 30
0.000000
  0
VERTEX
  8
LAYER-1
 10
4.533652
 20
0.072197
 30
0.000000
  0
VERTEX
  8
LAYER-1
 10
4.532784
 20
0.076538
 30
0.000000
  0
VERTEX
  8
LAYER-1
 10
4.528443
 20
0.079143
 30
0.000000
  0
SEQEND
  8
LAYER-1
  0
POLYLINE
  8
LAYER-1
 66
  1
 70
  1
 62
  0
 10
4.697455
 20
0.001968
 30
0.000000
  0
VERTEX
  8
LAYER-1
 10
4.697455
 20
0.001968
 30
0.000000
  0
VERTEX
  8
LAYER-1
 10
4.690510
 20
0.028010
 30
0.000000
  0
VERTEX
  8
LAYER-1
 10
4.665337
 20
0.014122
 30
0.000000
  0
SEQEND
  8
LAYER-1
  0
POLYLINE
  8
LAYER-1
 66
  1
 70
  1
 62
  0
 10
4.725667
 20
0.038862
 30
0.000000
  0
VERTEX
  8
LAYER-1
 10
4.725667
 20
0.038862
 30
0.000000
  0
VERTEX
  8
LAYER-1
 10
4.703097
 20
0.051882
 30
0.000000
  0
VERTEX
  8
LAYER-1
 10
4.723930
 20
0.021501
 30
0.000000
  0
SEQEND
  8
LAYER-1
  0
POLYLINE
  8
LAYER-1
 66
  1
 70
  1
 62
  0
 10
4.609013
 20
0.046842
 30
0.000000
  0
VERTEX
  8
LAYER-1
 10
4.609013
 20
0.046842
 30
0.000000
  0
VERTEX
  8
LAYER-1
 10
4.589648
 20
0.059530
 30
0.000000
  0
VERTEX
  8
LAYER-1
 10
4.583638
 20
0.048178
 30
0.000000
  0
SEQEND
  8
LAYER-1
  0
POLYLINE
  8
LAYER-1
 66
  1
 70
  0
 62
  0
 10
4.664468
 20
0.041035
 30
0.000000
  0
VERTEX
  8
LAYER-1
 10
4.664468
 20
0.041035
 30
0.000000
  0
VERTEX
  8
LAYER-1
 10
4.668808
 20
0.041035
 30
0.000000
  0
VERTEX
  8
LAYER-1
 10
4.672280
 20
0.045375
 30
0.000000
  0
VERTEX
  8
LAYER-1
 10
4.673148
 20
0.050583
 30
0.000000
  0
VERTEX
  8
LAYER-1
 10
4.671412
 20
0.054924
 30
0.000000
  0
VERTEX
  8
LAYER-1
 10
4.667072
 20
0.056660
 30
0.000000
  0
VERTEX
  8
LAYER-1
 10
4.662732
 20
0.056660
 30
0.000000
  0
VERTEX
  8
LAYER-1
 10
4.658391
 20
0.053188
 30
0.000000
  0
VERTEX
  8
LAYER-1
 10
4.658391
 20
0.048848
 30
0.000000
  0
VERTEX
  8
LAYER-1
 10
4.659260
 20
0.044506
 30
0.000000
  0
VERTEX
  8
LAYER-1
 10
4.663600
 20
0.041902
 30
0.000000
  0
SEQEND
  8
LAYER-1
  0
POLYLINE
  8
LAYER-1
 66
  1
 70
  0
 62
  0
 10
4.779919
 20
0.063604
 30
0.000000
  0
VERTEX
  8
LAYER-1
 10
4.779919
 20
0.063604
 30
0.000000
  0
VERTEX
  8
LAYER-1
 10
4.775578
 20
0.063604
 30
0.000000
  0
VERTEX
  8
LAYER-1
 10
4.772107
 20
0.059263
 30
0.000000
  0
VERTEX
  8
LAYER-1
 10
4.771238
 20
0.054055
 30
0.000000
  0
VERTEX
  8
LAYER-1
 10
4.772974
 20
0.049714
 30
0.000000
  0
VERTEX
  8
LAYER-1
 10
4.777315
 20
0.047979
 30
0.000000
  0
VERTEX
  8
LAYER-1
 10
4.781655
 20
0.047979
 30
0.000000
  0
VERTEX
  8
LAYER-1
 10
4.785996
 20
0.051450
 30
0.000000
  0
VERTEX
  8
LAYER-1
 10
4.785996
 20
0.055791
 30
0.000000
  0
VERTEX
  8
LAYER-1
 10
4.785127
 20
0.060131
 30
0.000000
  0
VERTEX
  8
LAYER-1
 10
4.780786
 20
0.062737
 30
0.000000
  0
SEQEND
  8
LAYER-1
  0
POLYLINE
  8
LAYER-1
 66
  1
 70
  1
 62
  0
 10
4.918013
 20
0.101017
 30
0.000000
  0
VERTEX
  8
LAYER-1
 10
4.918013
 20
0.101017
 30
0.000000
  0
VERTEX
  8
LAYER-1
 10
4.924958
 20
0.074976
 30
0.000000
  0
VERTEX
  8
LAYER-1
 10
4.950131
 20
0.088864
 30
0.000000
  0
SEQEND
  8
LAYER-1
  0
POLYLINE
  8
LAYER-1
 66
  1
 70
  1
 62
  0
 10
4.889801
 20
0.064123
 30
0.000000
  0
VERTEX
  8
LAYER-1
 10
4.889801
 20
0.064123
 30
0.000000
  0
VERTEX
  8
LAYER-1
 10
4.912370
 20
0.051103
 30
0.000000
  0
VERTEX
  8
LAYER-1
 10
4.891538
 20
0.081484
 30
0.000000
  0
SEQEND
  8
LAYER-1
  0
POLYLINE
  8
LAYER-1
 66
  1
 70
  0
 62
  0
 10
4.835549
 20
0.039382
 30
0.000000
  0
VERTEX
  8
LAYER-1
 10
4.835549
 20
0.039382
 30
0.000000
  0
VERTEX
  8
LAYER-1
 10
4.839890
 20
0.039382
 30
0.000000
  0
VERTEX
  8
LAYER-1
 10
4.843361
 20
0.043723
 30
0.000000
  0
VERTEX
  8
LAYER-1
 10
4.844230
 20
0.048931
 30
0.000000
  0
VERTEX
  8
LAYER-1
 10
4.842494
 20
0.053272
 30
0.000000
  0
VERTEX
  8
LAYER-1
 10
4.838153
 20
0.055007
 30
0.000000
  0
VERTEX
  8
LAYER-1
 10
4.833813
 20
0.055007
 30
0.000000
  0
VERTEX
  8
LAYER-1
 10
4.829472
 20
0.051536
 30
0.000000
  0
VERTEX
  8
LAYER-1
 10
4.829472
 20
0.047195
 30
0.000000
  0
VERTEX
  8
LAYER-1
 10
4.830341
 20
0.042854
 30
0.000000
  0
VERTEX
  8
LAYER-1
 10
4.834682
 20
0.040249
 30
0.000000
  0
SEQEND
  8
LAYER-1
  0
POLYLINE
  8
LAYER-1
 66
  1
 70
  1
 62
  0
 10
5.471136
 20
0.213135
 30
0.000000
  0
VERTEX
  8
LAYER-1
 10
5.471136
 20
0.213135
 30
0.000000
  0
VERTEX
  8
LAYER-1
 10
5.478081
 20
0.187094
 30
0.000000
  0
VERTEX
  8
LAYER-1
 10
5.503254
 20
0.200981
 30
0.000000
  0
SEQEND
  8
LAYER-1
  0
POLYLINE
  8
LAYER-1
 66
  1
 70
  1
 62
  0
 10
5.484245
 20
0.167996
 30
0.000000
  0
VERTEX
  8
LAYER-1
 10
5.484245
 20
0.167996
 30
0.000000
  0
VERTEX
  8
LAYER-1
 10
5.471224
 20
0.145425
 30
0.000000
  0
VERTEX
  8
LAYER-1
 10
5.501606
 20
0.166258
 30
0.000000
  0
SEQEND
  8
LAYER-1
  0
POLYLINE
  8
LAYER-1
 66
  1
 70
  1
 62
  0
 10
5.175738
 20
0.136519
 30
0.000000
  0
VERTEX
  8
LAYER-1
 10
5.175738
 20
0.136519
 30
0.000000
  0
VERTEX
  8
LAYER-1
 10
5.168795
 20
0.162560
 30
0.000000
  0
VERTEX
  8
LAYER-1
 10
5.143622
 20
0.148672
 30
0.000000
  0
SEQEND
  8
LAYER-1
  0
POLYLINE
  8
LAYER-1
 66
  1
 70
  1
 62
  0
 10
5.162630
 20
0.181658
 30
0.000000
  0
VERTEX
  8
LAYER-1
 10
5.162630
 20
0.181658
 30
0.000000
  0
VERTEX
  8
LAYER-1
 10
5.175652
 20
0.204229
 30
0.000000
  0
VERTEX
  8
LAYER-1
 10
5.145269
 20
0.183395
 30
0.000000
  0
SEQEND
  8
LAYER-1
  0
POLYLINE
  8
LAYER-1
 66
  1
 70
  1
 62
  0
 10
5.680512
 20
0.038690
 30
0.000000
  0
VERTEX
  8
LAYER-1
 10
5.680512
 20
0.038690
 30
0.000000
  0
VERTEX
  8
LAYER-1
 10
5.706552
 20
0.045635
 30
0.000000
  0
VERTEX
  8
LAYER-1
 10
5.692665
 20
0.070808
 30
0.000000
  0
SEQEND
  8
LAYER-1
  0
POLYLINE
  8
LAYER-1
 66
  1
 70
  1
 62
  0
 10
5.725651
 20
0.051798
 30
0.000000
  0
VERTEX
  8
LAYER-1
 10
5.725651
 20
0.051798
 30
0.000000
  0
VERTEX
  8
LAYER-1
 10
5.748222
 20
0.038778
 30
0.000000
  0
VERTEX
  8
LAYER-1
 10
5.727389
 20
0.069159
 30
0.000000
  0
SEQEND
  8
LAYER-1
  0
ENDSEC
  0
EOF
