  0
SECTION
  2
HEADER
999
MacDraft 5.0\0
  9
$ACADVER
  1
AC1006
  9
$CLAYER
  8
LAYER-1
  9
$EXTMIN
 10
0.000000
 20
0.000000
  9
$EXTMAX
 10
6.958942
 20
9.982005
  9
$FASTZOOM
 70
0
  9
$FILLMODE
 70
1
  0
ENDSEC
  0
SECTION
  2
TABLES
  0
TABLE
  2
LTYPE
 70
16
  0
LTYPE
  2
CONTINUOUS
 70
64
  3
Solid Line
 72
65
 73
0
 40
0.000000
  0
LTYPE
  2
LTYPE01
 70
64
  3
CUSTOM
 72
65
 73
2
 40
0.111111
 49
0.083333
 49
-0.027778
  0
LTYPE
  2
LTYPE02
 70
64
  3
CUSTOM
 72
65
 73
2
 40
0.194444
 49
0.166667
 49
-0.027778
  0
LTYPE
  2
LTYPE03
 70
64
  3
CUSTOM
 72
65
 73
2
 40
0.375000
 49
0.333333
 49
-0.041667
  0
LTYPE
  2
LTYPE04
 70
64
  3
CUSTOM
 72
65
 73
2
 40
0.722222
 49
0.666667
 49
-0.055556
  0
LTYPE
  2
LTYPE05
 70
64
  3
CUSTOM
 72
65
 73
4
 40
0.152778
 49
0.083333
 49
-0.027778
 49
0.013889
 49
-0.027778
  0
LTYPE
  2
LTYPE06
 70
64
  3
CUSTOM
 72
65
 73
4
 40
0.236111
 49
0.166667
 49
-0.027778
 49
0.013889
 49
-0.027778
  0
LTYPE
  2
LTYPE07
 70
64
  3
CUSTOM
 72
65
 73
4
 40
0.444444
 49
0.333333
 49
-0.041667
 49
0.027778
 49
-0.041667
  0
LTYPE
  2
LTYPE08
 70
64
  3
CUSTOM
 72
65
 73
4
 40
0.805556
 49
0.666667
 49
-0.055556
 49
0.027778
 49
-0.055556
  0
LTYPE
  2
LTYPE09
 70
64
  3
CUSTOM
 72
65
 73
6
 40
0.194444
 49
0.083333
 49
-0.027778
 49
0.013889
 49
-0.027778
 49
0.013889
 49
-0.027778
  0
LTYPE
  2
LTYPE10
 70
64
  3
CUSTOM
 72
65
 73
6
 40
0.277778
 49
0.166667
 49
-0.027778
 49
0.013889
 49
-0.027778
 49
0.013889
 49
-0.027778
  0
LTYPE
  2
LTYPE11
 70
64
  3
CUSTOM
 72
65
 73
6
 40
0.500000
 49
0.333333
 49
-0.041667
 49
0.027778
 49
-0.027778
 49
0.027778
 49
-0.041667
  0
LTYPE
  2
LTYPE12
 70
64
  3
CUSTOM
 72
65
 73
6
 40
0.861111
 49
0.666667
 49
-0.055556
 49
0.027778
 49
-0.027778
 49
0.027778
 49
-0.055556
  0
LTYPE
  2
LTYPE13
 70
64
  3
CUSTOM
 72
65
 73
8
 40
0.319444
 49
0.166667
 49
-0.027778
 49
0.013889
 49
-0.027778
 49
0.013889
 49
-0.027778
 49
0.013889
 49
-0.027778
  0
LTYPE
  2
LTYPE14
 70
64
  3
CUSTOM
 72
65
 73
8
 40
0.555556
 49
0.333333
 49
-0.041667
 49
0.027778
 49
-0.027778
 49
0.027778
 49
-0.027778
 49
0.027778
 49
-0.041667
  0
LTYPE
  2
LTYPE15
 70
64
  3
CUSTOM
 72
65
 73
8
 40
0.944444
 49
0.666667
 49
-0.055556
 49
0.027778
 49
-0.041667
 49
0.027778
 49
-0.041667
 49
0.027778
 49
-0.055556
  0
ENDTAB
  0
TABLE
  2
LAYER
 70
1
  0
LAYER
  2
LAYER-1
 70
0
 62
7
  6
CONTINUOUS
  0
ENDTAB
  0
ENDSEC
  0
SECTION
  2
BLOCKS
  0
ENDSEC
  0
SECTION
  2
ENTITIES
  0
POLYLINE
  8
LAYER-1
 66
  1
 70
  0
 62
  0
 10
3.464939
 20
0.211094
 30
0.000000
  0
VERTEX
  8
LAYER-1
 10
3.464939
 20
0.211094
 30
0.000000
  0
VERTEX
  8
LAYER-1
 10
3.464939
 20
0.209905
 30
0.000000
  0
SEQEND
  8
LAYER-1
  0
POLYLINE
  8
LAYER-1
 66
  1
 70
  1
 62
  0
 10
1.293082
 20
0.115928
 30
0.000000
  0
VERTEX
  8
LAYER-1
 10
1.293082
 20
0.115928
 30
0.000000
  0
VERTEX
  8
LAYER-1
 10
1.300026
 20
0.089886
 30
0.000000
  0
VERTEX
  8
LAYER-1
 10
1.325201
 20
0.103775
 30
0.000000
  0
SEQEND
  8
LAYER-1
  0
POLYLINE
  8
LAYER-1
 66
  1
 70
  1
 62
  0
 10
1.483186
 20
0.220959
 30
0.000000
  0
VERTEX
  8
LAYER-1
 10
1.483186
 20
0.220959
 30
0.000000
  0
VERTEX
  8
LAYER-1
 10
1.470166
 20
0.198390
 30
0.000000
  0
VERTEX
  8
LAYER-1
 10
1.500548
 20
0.219222
 30
0.000000
  0
SEQEND
  8
LAYER-1
  0
POLYLINE
  8
LAYER-1
 66
  1
 70
  1
 62
  0
 10
1.129020
 20
0.156726
 30
0.000000
  0
VERTEX
  8
LAYER-1
 10
1.129020
 20
0.156726
 30
0.000000
  0
VERTEX
  8
LAYER-1
 10
1.112527
 20
0.131552
 30
0.000000
  0
VERTEX
  8
LAYER-1
 10
1.127283
 20
0.123739
 30
0.000000
  0
SEQEND
  8
LAYER-1
  0
POLYLINE
  8
LAYER-1
 66
  1
 70
  0
 62
  0
 10
1.295686
 20
0.157595
 30
0.000000
  0
VERTEX
  8
LAYER-1
 10
1.295686
 20
0.157595
 30
0.000000
  0
VERTEX
  8
LAYER-1
 10
1.291347
 20
0.157595
 30
0.000000
  0
VERTEX
  8
LAYER-1
 10
1.287874
 20
0.153254
 30
0.000000
  0
VERTEX
  8
LAYER-1
 10
1.287006
 20
0.148047
 30
0.000000
  0
VERTEX
  8
LAYER-1
 10
1.288742
 20
0.143706
 30
0.000000
  0
VERTEX
  8
LAYER-1
 10
1.293083
 20
0.141970
 30
0.000000
  0
VERTEX
  8
LAYER-1
 10
1.297422
 20
0.141970
 30
0.000000
  0
VERTEX
  8
LAYER-1
 10
1.301763
 20
0.145442
 30
0.000000
  0
VERTEX
  8
LAYER-1
 10
1.301763
 20
0.149783
 30
0.000000
  0
VERTEX
  8
LAYER-1
 10
1.300895
 20
0.154123
 30
0.000000
  0
VERTEX
  8
LAYER-1
 10
1.296554
 20
0.156727
 30
0.000000
  0
SEQEND
  8
LAYER-1
  0
POLYLINE
  8
LAYER-1
 66
  1
 70
  1
 62
  0
 10
0.933707
 20
0.195787
 30
0.000000
  0
VERTEX
  8
LAYER-1
 10
0.933707
 20
0.195787
 30
0.000000
  0
VERTEX
  8
LAYER-1
 10
0.920686
 20
0.173219
 30
0.000000
  0
VERTEX
  8
LAYER-1
 10
0.951068
 20
0.194050
 30
0.000000
  0
SEQEND
  8
LAYER-1
  0
POLYLINE
  8
LAYER-1
 66
  1
 70
  1
 62
  0
 10
1.065485
 20
0.195453
 30
0.000000
  0
VERTEX
  8
LAYER-1
 10
1.065485
 20
0.195453
 30
0.000000
  0
VERTEX
  8
LAYER-1
 10
1.052798
 20
0.176089
 30
0.000000
  0
VERTEX
  8
LAYER-1
 10
1.064150
 20
0.170079
 30
0.000000
  0
SEQEND
  8
LAYER-1
  0
POLYLINE
  8
LAYER-1
 66
  1
 70
  0
 62
  0
 10
1.423291
 20
0.176691
 30
0.000000
  0
VERTEX
  8
LAYER-1
 10
1.423291
 20
0.176691
 30
0.000000
  0
VERTEX
  8
LAYER-1
 10
1.418950
 20
0.176691
 30
0.000000
  0
VERTEX
  8
LAYER-1
 10
1.415478
 20
0.172351
 30
0.000000
  0
VERTEX
  8
LAYER-1
 10
1.414610
 20
0.167142
 30
0.000000
  0
VERTEX
  8
LAYER-1
 10
1.416346
 20
0.162802
 30
0.000000
  0
VERTEX
  8
LAYER-1
 10
1.420686
 20
0.161066
 30
0.000000
  0
VERTEX
  8
LAYER-1
 10
1.425027
 20
0.161066
 30
0.000000
  0
VERTEX
  8
LAYER-1
 10
1.429367
 20
0.164538
 30
0.000000
  0
VERTEX
  8
LAYER-1
 10
1.429367
 20
0.168878
 30
0.000000
  0
VERTEX
  8
LAYER-1
 10
1.428498
 20
0.173219
 30
0.000000
  0
VERTEX
  8
LAYER-1
 10
1.424159
 20
0.175823
 30
0.000000
  0
SEQEND
  8
LAYER-1
  0
POLYLINE
  8
LAYER-1
 66
  1
 70
  0
 62
  0
 10
1.181103
 20
0.150650
 30
0.000000
  0
VERTEX
  8
LAYER-1
 10
1.181103
 20
0.150650
 30
0.000000
  0
VERTEX
  8
LAYER-1
 10
1.176763
 20
0.150650
 30
0.000000
  0
VERTEX
  8
LAYER-1
 10
1.173290
 20
0.146309
 30
0.000000
  0
VERTEX
  8
LAYER-1
 10
1.172422
 20
0.141101
 30
0.000000
  0
VERTEX
  8
LAYER-1
 10
1.174158
 20
0.136760
 30
0.000000
  0
VERTEX
  8
LAYER-1
 10
1.178499
 20
0.135025
 30
0.000000
  0
VERTEX
  8
LAYER-1
 10
1.182840
 20
0.135025
 30
0.000000
  0
VERTEX
  8
LAYER-1
 10
1.187179
 20
0.138496
 30
0.000000
  0
VERTEX
  8
LAYER-1
 10
1.187179
 20
0.142838
 30
0.000000
  0
VERTEX
  8
LAYER-1
 10
1.186311
 20
0.147178
 30
0.000000
  0
VERTEX
  8
LAYER-1
 10
1.181971
 20
0.149782
 30
0.000000
  0
SEQEND
  8
LAYER-1
  0
POLYLINE
  8
LAYER-1
 66
  1
 70
  0
 62
  0
 10
1.017040
 20
0.142838
 30
0.000000
  0
VERTEX
  8
LAYER-1
 10
1.017040
 20
0.142838
 30
0.000000
  0
VERTEX
  8
LAYER-1
 10
1.012700
 20
0.142838
 30
0.000000
  0
VERTEX
  8
LAYER-1
 10
1.009228
 20
0.138496
 30
0.000000
  0
VERTEX
  8
LAYER-1
 10
1.008360
 20
0.133289
 30
0.000000
  0
VERTEX
  8
LAYER-1
 10
1.010096
 20
0.128948
 30
0.000000
  0
VERTEX
  8
LAYER-1
 10
1.014436
 20
0.127213
 30
0.000000
  0
VERTEX
  8
LAYER-1
 10
1.018776
 20
0.127213
 30
0.000000
  0
VERTEX
  8
LAYER-1
 10
1.023117
 20
0.130684
 30
0.000000
  0
VERTEX
  8
LAYER-1
 10
1.023117
 20
0.135025
 30
0.000000
  0
VERTEX
  8
LAYER-1
 10
1.022249
 20
0.139365
 30
0.000000
  0
VERTEX
  8
LAYER-1
 10
1.017908
 20
0.141969
 30
0.000000
  0
SEQEND
  8
LAYER-1
  0
POLYLINE
  8
LAYER-1
 66
  1
 70
  1
 62
  0
 10
1.645080
 20
0.167576
 30
0.000000
  0
VERTEX
  8
LAYER-1
 10
1.645080
 20
0.167576
 30
0.000000
  0
VERTEX
  8
LAYER-1
 10
1.619040
 20
0.160632
 30
0.000000
  0
VERTEX
  8
LAYER-1
 10
1.632927
 20
0.135458
 30
0.000000
  0
SEQEND
  8
LAYER-1
  0
POLYLINE
  8
LAYER-1
 66
  1
 70
  1
 62
  0
 10
1.706623
 20
0.107979
 30
0.000000
  0
VERTEX
  8
LAYER-1
 10
1.706623
 20
0.107979
 30
0.000000
  0
VERTEX
  8
LAYER-1
 10
1.729194
 20
0.094958
 30
0.000000
  0
VERTEX
  8
LAYER-1
 10
1.708361
 20
0.125340
 30
0.000000
  0
SEQEND
  8
LAYER-1
  0
POLYLINE
  8
LAYER-1
 66
  1
 70
  1
 62
  0
 10
1.237962
 20
0.175389
 30
0.000000
  0
VERTEX
  8
LAYER-1
 10
1.237962
 20
0.175389
 30
0.000000
  0
VERTEX
  8
LAYER-1
 10
1.212788
 20
0.191881
 30
0.000000
  0
VERTEX
  8
LAYER-1
 10
1.204976
 20
0.177125
 30
0.000000
  0
SEQEND
  8
LAYER-1
  0
POLYLINE
  8
LAYER-1
 66
  1
 70
  0
 62
  0
 10
1.656366
 20
0.204035
 30
0.000000
  0
VERTEX
  8
LAYER-1
 10
1.656366
 20
0.204035
 30
0.000000
  0
VERTEX
  8
LAYER-1
 10
1.656366
 20
0.208376
 30
0.000000
  0
VERTEX
  8
LAYER-1
 10
1.652025
 20
0.211847
 30
0.000000
  0
VERTEX
  8
LAYER-1
 10
1.646817
 20
0.212715
 30
0.000000
  0
VERTEX
  8
LAYER-1
 10
1.642477
 20
0.210979
 30
0.000000
  0
VERTEX
  8
LAYER-1
 10
1.640741
 20
0.206639
 30
0.000000
  0
VERTEX
  8
LAYER-1
 10
1.640741
 20
0.202298
 30
0.000000
  0
VERTEX
  8
LAYER-1
 10
1.644212
 20
0.197958
 30
0.000000
  0
VERTEX
  8
LAYER-1
 10
1.648553
 20
0.197958
 30
0.000000
  0
VERTEX
  8
LAYER-1
 10
1.652894
 20
0.198826
 30
0.000000
  0
VERTEX
  8
LAYER-1
 10
1.655499
 20
0.203167
 30
0.000000
  0
SEQEND
  8
LAYER-1
  0
POLYLINE
  8
LAYER-1
 66
  1
 70
  1
 62
  0
 10
1.608623
 20
0.179727
 30
0.000000
  0
VERTEX
  8
LAYER-1
 10
1.608623
 20
0.179727
 30
0.000000
  0
VERTEX
  8
LAYER-1
 10
1.586052
 20
0.192748
 30
0.000000
  0
VERTEX
  8
LAYER-1
 10
1.606885
 20
0.162367
 30
0.000000
  0
SEQEND
  8
LAYER-1
  0
POLYLINE
  8
LAYER-1
 66
  1
 70
  1
 62
  0
 10
1.256724
 20
0.192047
 30
0.000000
  0
VERTEX
  8
LAYER-1
 10
1.256724
 20
0.192047
 30
0.000000
  0
VERTEX
  8
LAYER-1
 10
1.237360
 20
0.204733
 30
0.000000
  0
VERTEX
  8
LAYER-1
 10
1.231349
 20
0.193383
 30
0.000000
  0
SEQEND
  8
LAYER-1
  0
POLYLINE
  8
LAYER-1
 66
  1
 70
  0
 62
  0
 10
1.722597
 20
0.068395
 30
0.000000
  0
VERTEX
  8
LAYER-1
 10
1.722597
 20
0.068395
 30
0.000000
  0
VERTEX
  8
LAYER-1
 10
1.722597
 20
0.064056
 30
0.000000
  0
VERTEX
  8
LAYER-1
 10
1.726938
 20
0.060582
 30
0.000000
  0
VERTEX
  8
LAYER-1
 10
1.732146
 20
0.059715
 30
0.000000
  0
VERTEX
  8
LAYER-1
 10
1.736487
 20
0.061451
 30
0.000000
  0
VERTEX
  8
LAYER-1
 10
1.738222
 20
0.065792
 30
0.000000
  0
VERTEX
  8
LAYER-1
 10
1.738222
 20
0.070132
 30
0.000000
  0
VERTEX
  8
LAYER-1
 10
1.734751
 20
0.074472
 30
0.000000
  0
VERTEX
  8
LAYER-1
 10
1.730410
 20
0.074472
 30
0.000000
  0
VERTEX
  8
LAYER-1
 10
1.726069
 20
0.073604
 30
0.000000
  0
VERTEX
  8
LAYER-1
 10
1.723464
 20
0.069263
 30
0.000000
  0
SEQEND
  8
LAYER-1
  0
POLYLINE
  8
LAYER-1
 66
  1
 70
  0
 62
  0
 10
1.231885
 20
0.123305
 30
0.000000
  0
VERTEX
  8
LAYER-1
 10
1.231885
 20
0.123305
 30
0.000000
  0
VERTEX
  8
LAYER-1
 10
1.231885
 20
0.127646
 30
0.000000
  0
VERTEX
  8
LAYER-1
 10
1.227544
 20
0.131117
 30
0.000000
  0
VERTEX
  8
LAYER-1
 10
1.222337
 20
0.131985
 30
0.000000
  0
VERTEX
  8
LAYER-1
 10
1.217996
 20
0.130250
 30
0.000000
  0
VERTEX
  8
LAYER-1
 10
1.216260
 20
0.125909
 30
0.000000
  0
VERTEX
  8
LAYER-1
 10
1.216260
 20
0.121569
 30
0.000000
  0
VERTEX
  8
LAYER-1
 10
1.219732
 20
0.117228
 30
0.000000
  0
VERTEX
  8
LAYER-1
 10
1.224072
 20
0.117228
 30
0.000000
  0
VERTEX
  8
LAYER-1
 10
1.228413
 20
0.118096
 30
0.000000
  0
VERTEX
  8
LAYER-1
 10
1.231018
 20
0.122437
 30
0.000000
  0
SEQEND
  8
LAYER-1
  0
POLYLINE
  8
LAYER-1
 66
  1
 70
  0
 62
  0
 10
1.533969
 20
0.158028
 30
0.000000
  0
VERTEX
  8
LAYER-1
 10
1.533969
 20
0.158028
 30
0.000000
  0
VERTEX
  8
LAYER-1
 10
1.533969
 20
0.162370
 30
0.000000
  0
VERTEX
  8
LAYER-1
 10
1.529628
 20
0.165841
 30
0.000000
  0
VERTEX
  8
LAYER-1
 10
1.524420
 20
0.166709
 30
0.000000
  0
VERTEX
  8
LAYER-1
 10
1.520080
 20
0.164973
 30
0.000000
  0
VERTEX
  8
LAYER-1
 10
1.518344
 20
0.160633
 30
0.000000
  0
VERTEX
  8
LAYER-1
 10
1.518344
 20
0.156292
 30
0.000000
  0
VERTEX
  8
LAYER-1
 10
1.521816
 20
0.151952
 30
0.000000
  0
VERTEX
  8
LAYER-1
 10
1.526156
 20
0.151952
 30
0.000000
  0
VERTEX
  8
LAYER-1
 10
1.530497
 20
0.152820
 30
0.000000
  0
VERTEX
  8
LAYER-1
 10
1.533102
 20
0.157160
 30
0.000000
  0
SEQEND
  8
LAYER-1
  0
POLYLINE
  8
LAYER-1
 66
  1
 70
  1
 62
  0
 10
1.753153
 20
0.150216
 30
0.000000
  0
VERTEX
  8
LAYER-1
 10
1.753153
 20
0.150216
 30
0.000000
  0
VERTEX
  8
LAYER-1
 10
1.760097
 20
0.124175
 30
0.000000
  0
VERTEX
  8
LAYER-1
 10
1.779195
 20
0.139798
 30
0.000000
  0
SEQEND
  8
LAYER-1
  0
POLYLINE
  8
LAYER-1
 66
  1
 70
  1
 62
  0
 10
1.937180
 20
0.171917
 30
0.000000
  0
VERTEX
  8
LAYER-1
 10
1.937180
 20
0.171917
 30
0.000000
  0
VERTEX
  8
LAYER-1
 10
1.924160
 20
0.149348
 30
0.000000
  0
VERTEX
  8
LAYER-1
 10
1.954542
 20
0.170181
 30
0.000000
  0
SEQEND
  8
LAYER-1
  0
POLYLINE
  8
LAYER-1
 66
  1
 70
  1
 62
  0
 10
1.987085
 20
0.070457
 30
0.000000
  0
VERTEX
  8
LAYER-1
 10
1.987085
 20
0.070457
 30
0.000000
  0
VERTEX
  8
LAYER-1
 10
1.970593
 20
0.045284
 30
0.000000
  0
VERTEX
  8
LAYER-1
 10
1.985349
 20
0.037471
 30
0.000000
  0
SEQEND
  8
LAYER-1
  0
POLYLINE
  8
LAYER-1
 66
  1
 70
  0
 62
  0
 10
1.725375
 20
0.174522
 30
0.000000
  0
VERTEX
  8
LAYER-1
 10
1.725375
 20
0.174522
 30
0.000000
  0
VERTEX
  8
LAYER-1
 10
1.721034
 20
0.174522
 30
0.000000
  0
VERTEX
  8
LAYER-1
 10
1.717563
 20
0.170181
 30
0.000000
  0
VERTEX
  8
LAYER-1
 10
1.716695
 20
0.164973
 30
0.000000
  0
VERTEX
  8
LAYER-1
 10
1.718431
 20
0.160633
 30
0.000000
  0
VERTEX
  8
LAYER-1
 10
1.722770
 20
0.158897
 30
0.000000
  0
VERTEX
  8
LAYER-1
 10
1.727111
 20
0.158897
 30
0.000000
  0
VERTEX
  8
LAYER-1
 10
1.731451
 20
0.162369
 30
0.000000
  0
VERTEX
  8
LAYER-1
 10
1.731451
 20
0.166709
 30
0.000000
  0
VERTEX
  8
LAYER-1
 10
1.730583
 20
0.171050
 30
0.000000
  0
VERTEX
  8
LAYER-1
 10
1.726243
 20
0.173653
 30
0.000000
  0
SEQEND
  8
LAYER-1
  0
POLYLINE
  8
LAYER-1
 66
  1
 70
  1
 62
  0
 10
1.762702
 20
0.106813
 30
0.000000
  0
VERTEX
  8
LAYER-1
 10
1.762702
 20
0.106813
 30
0.000000
  0
VERTEX
  8
LAYER-1
 10
1.749681
 20
0.084244
 30
0.000000
  0
VERTEX
  8
LAYER-1
 10
1.780063
 20
0.105076
 30
0.000000
  0
SEQEND
  8
LAYER-1
  0
POLYLINE
  8
LAYER-1
 66
  1
 70
  1
 62
  0
 10
2.018502
 20
0.052566
 30
0.000000
  0
VERTEX
  8
LAYER-1
 10
2.018502
 20
0.052566
 30
0.000000
  0
VERTEX
  8
LAYER-1
 10
2.031189
 20
0.071930
 30
0.000000
  0
VERTEX
  8
LAYER-1
 10
2.019838
 20
0.077941
 30
0.000000
  0
SEQEND
  8
LAYER-1
  0
POLYLINE
  8
LAYER-1
 66
  1
 70
  0
 62
  0
 10
1.917727
 20
0.053012
 30
0.000000
  0
VERTEX
  8
LAYER-1
 10
1.917727
 20
0.053012
 30
0.000000
  0
VERTEX
  8
LAYER-1
 10
1.922068
 20
0.053012
 30
0.000000
  0
VERTEX
  8
LAYER-1
 10
1.925540
 20
0.057354
 30
0.000000
  0
VERTEX
  8
LAYER-1
 10
1.926408
 20
0.062561
 30
0.000000
  0
VERTEX
  8
LAYER-1
 10
1.924672
 20
0.066901
 30
0.000000
  0
VERTEX
  8
LAYER-1
 10
1.920331
 20
0.068637
 30
0.000000
  0
VERTEX
  8
LAYER-1
 10
1.915991
 20
0.068637
 30
0.000000
  0
VERTEX
  8
LAYER-1
 10
1.911651
 20
0.065166
 30
0.000000
  0
VERTEX
  8
LAYER-1
 10
1.911651
 20
0.060825
 30
0.000000
  0
VERTEX
  8
LAYER-1
 10
1.912518
 20
0.056485
 30
0.000000
  0
VERTEX
  8
LAYER-1
 10
1.916859
 20
0.053880
 30
0.000000
  0
SEQEND
  8
LAYER-1
  0
POLYLINE
  8
LAYER-1
 66
  1
 70
  0
 62
  0
 10
1.607232
 20
0.088880
 30
0.000000
  0
VERTEX
  8
LAYER-1
 10
1.607232
 20
0.088880
 30
0.000000
  0
VERTEX
  8
LAYER-1
 10
1.611572
 20
0.088880
 30
0.000000
  0
VERTEX
  8
LAYER-1
 10
1.615044
 20
0.093221
 30
0.000000
  0
VERTEX
  8
LAYER-1
 10
1.615913
 20
0.098429
 30
0.000000
  0
VERTEX
  8
LAYER-1
 10
1.614177
 20
0.102769
 30
0.000000
  0
VERTEX
  8
LAYER-1
 10
1.609836
 20
0.104505
 30
0.000000
  0
VERTEX
  8
LAYER-1
 10
1.605496
 20
0.104505
 30
0.000000
  0
VERTEX
  8
LAYER-1
 10
1.601155
 20
0.101034
 30
0.000000
  0
VERTEX
  8
LAYER-1
 10
1.601155
 20
0.096692
 30
0.000000
  0
VERTEX
  8
LAYER-1
 10
1.602024
 20
0.092352
 30
0.000000
  0
VERTEX
  8
LAYER-1
 10
1.606365
 20
0.089748
 30
0.000000
  0
SEQEND
  8
LAYER-1
  0
POLYLINE
  8
LAYER-1
 66
  1
 70
  1
 62
  0
 10
2.102545
 20
0.154990
 30
0.000000
  0
VERTEX
  8
LAYER-1
 10
2.102545
 20
0.154990
 30
0.000000
  0
VERTEX
  8
LAYER-1
 10
2.076505
 20
0.148046
 30
0.000000
  0
VERTEX
  8
LAYER-1
 10
2.090392
 20
0.122872
 30
0.000000
  0
SEQEND
  8
LAYER-1
  0
POLYLINE
  8
LAYER-1
 66
  1
 70
  1
 62
  0
 10
1.841429
 20
0.115395
 30
0.000000
  0
VERTEX
  8
LAYER-1
 10
1.841429
 20
0.115395
 30
0.000000
  0
VERTEX
  8
LAYER-1
 10
1.818858
 20
0.128416
 30
0.000000
  0
VERTEX
  8
LAYER-1
 10
1.839691
 20
0.098034
 30
0.000000
  0
SEQEND
  8
LAYER-1
  0
POLYLINE
  8
LAYER-1
 66
  1
 70
  1
 62
  0
 10
1.871286
 20
0.037822
 30
0.000000
  0
VERTEX
  8
LAYER-1
 10
1.871286
 20
0.037822
 30
0.000000
  0
VERTEX
  8
LAYER-1
 10
1.896459
 20
0.021328
 30
0.000000
  0
VERTEX
  8
LAYER-1
 10
1.904271
 20
0.036086
 30
0.000000
  0
SEQEND
  8
LAYER-1
  0
POLYLINE
  8
LAYER-1
 66
  1
 70
  0
 62
  0
 10
2.133795
 20
0.204467
 30
0.000000
  0
VERTEX
  8
LAYER-1
 10
2.133795
 20
0.204467
 30
0.000000
  0
VERTEX
  8
LAYER-1
 10
2.133795
 20
0.208808
 30
0.000000
  0
VERTEX
  8
LAYER-1
 10
2.129455
 20
0.212279
 30
0.000000
  0
VERTEX
  8
LAYER-1
 10
2.124247
 20
0.213147
 30
0.000000
  0
VERTEX
  8
LAYER-1
 10
2.119907
 20
0.211412
 30
0.000000
  0
VERTEX
  8
LAYER-1
 10
2.118170
 20
0.207071
 30
0.000000
  0
VERTEX
  8
LAYER-1
 10
2.118170
 20
0.202732
 30
0.000000
  0
VERTEX
  8
LAYER-1
 10
2.121642
 20
0.198391
 30
0.000000
  0
VERTEX
  8
LAYER-1
 10
2.125983
 20
0.198391
 30
0.000000
  0
VERTEX
  8
LAYER-1
 10
2.130324
 20
0.199259
 30
0.000000
  0
VERTEX
  8
LAYER-1
 10
2.132929
 20
0.203600
 30
0.000000
  0
SEQEND
  8
LAYER-1
  0
POLYLINE
  8
LAYER-1
 66
  1
 70
  1
 62
  0
 10
2.066088
 20
0.167142
 30
0.000000
  0
VERTEX
  8
LAYER-1
 10
2.066088
 20
0.167142
 30
0.000000
  0
VERTEX
  8
LAYER-1
 10
2.043517
 20
0.180163
 30
0.000000
  0
VERTEX
  8
LAYER-1
 10
2.064350
 20
0.149782
 30
0.000000
  0
SEQEND
  8
LAYER-1
  0
POLYLINE
  8
LAYER-1
 66
  1
 70
  1
 62
  0
 10
0.834850
 20
0.203766
 30
0.000000
  0
VERTEX
  8
LAYER-1
 10
0.834850
 20
0.203766
 30
0.000000
  0
VERTEX
  8
LAYER-1
 10
0.815486
 20
0.216452
 30
0.000000
  0
VERTEX
  8
LAYER-1
 10
0.809474
 20
0.205102
 30
0.000000
  0
SEQEND
  8
LAYER-1
  0
POLYLINE
  8
LAYER-1
 66
  1
 70
  0
 62
  0
 10
1.845767
 20
0.175291
 30
0.000000
  0
VERTEX
  8
LAYER-1
 10
1.845767
 20
0.175291
 30
0.000000
  0
VERTEX
  8
LAYER-1
 10
1.845767
 20
0.179630
 30
0.000000
  0
VERTEX
  8
LAYER-1
 10
1.841427
 20
0.183103
 30
0.000000
  0
VERTEX
  8
LAYER-1
 10
1.836219
 20
0.183971
 30
0.000000
  0
VERTEX
  8
LAYER-1
 10
1.831878
 20
0.182235
 30
0.000000
  0
VERTEX
  8
LAYER-1
 10
1.830142
 20
0.177895
 30
0.000000
  0
VERTEX
  8
LAYER-1
 10
1.830142
 20
0.173554
 30
0.000000
  0
VERTEX
  8
LAYER-1
 10
1.833614
 20
0.169215
 30
0.000000
  0
VERTEX
  8
LAYER-1
 10
1.837955
 20
0.169215
 30
0.000000
  0
VERTEX
  8
LAYER-1
 10
1.842295
 20
0.170083
 30
0.000000
  0
VERTEX
  8
LAYER-1
 10
1.844900
 20
0.174423
 30
0.000000
  0
SEQEND
  8
LAYER-1
  0
POLYLINE
  8
LAYER-1
 66
  1
 70
  0
 62
  0
 10
0.811747
 20
0.136759
 30
0.000000
  0
VERTEX
  8
LAYER-1
 10
0.811747
 20
0.136759
 30
0.000000
  0
VERTEX
  8
LAYER-1
 10
0.811747
 20
0.141101
 30
0.000000
  0
VERTEX
  8
LAYER-1
 10
0.807406
 20
0.144572
 30
0.000000
  0
VERTEX
  8
LAYER-1
 10
0.802198
 20
0.145440
 30
0.000000
  0
VERTEX
  8
LAYER-1
 10
0.797857
 20
0.143704
 30
0.000000
  0
VERTEX
  8
LAYER-1
 10
0.796122
 20
0.139364
 30
0.000000
  0
VERTEX
  8
LAYER-1
 10
0.796122
 20
0.135023
 30
0.000000
  0
VERTEX
  8
LAYER-1
 10
0.799593
 20
0.130683
 30
0.000000
  0
VERTEX
  8
LAYER-1
 10
0.803934
 20
0.130683
 30
0.000000
  0
VERTEX
  8
LAYER-1
 10
0.808275
 20
0.131551
 30
0.000000
  0
VERTEX
  8
LAYER-1
 10
0.810880
 20
0.135891
 30
0.000000
  0
SEQEND
  8
LAYER-1
  0
POLYLINE
  8
LAYER-1
 66
  1
 70
  0
 62
  0
 10
1.934142
 20
0.204464
 30
0.000000
  0
VERTEX
  8
LAYER-1
 10
1.934142
 20
0.204464
 30
0.000000
  0
VERTEX
  8
LAYER-1
 10
1.934142
 20
0.208805
 30
0.000000
  0
VERTEX
  8
LAYER-1
 10
1.929802
 20
0.212277
 30
0.000000
  0
VERTEX
  8
LAYER-1
 10
1.924594
 20
0.213145
 30
0.000000
  0
VERTEX
  8
LAYER-1
 10
1.920253
 20
0.211409
 30
0.000000
  0
VERTEX
  8
LAYER-1
 10
1.918517
 20
0.207069
 30
0.000000
  0
VERTEX
  8
LAYER-1
 10
1.918517
 20
0.202728
 30
0.000000
  0
VERTEX
  8
LAYER-1
 10
1.921989
 20
0.198388
 30
0.000000
  0
VERTEX
  8
LAYER-1
 10
1.926330
 20
0.198388
 30
0.000000
  0
VERTEX
  8
LAYER-1
 10
1.930670
 20
0.199256
 30
0.000000
  0
VERTEX
  8
LAYER-1
 10
1.933275
 20
0.203596
 30
0.000000
  0
SEQEND
  8
LAYER-1
  0
POLYLINE
  8
LAYER-1
 66
  1
 70
  1
 62
  0
 10
1.493430
 20
0.069000
 30
0.000000
  0
VERTEX
  8
LAYER-1
 10
1.493430
 20
0.069000
 30
0.000000
  0
VERTEX
  8
LAYER-1
 10
1.467388
 20
0.062056
 30
0.000000
  0
VERTEX
  8
LAYER-1
 10
1.481277
 20
0.036882
 30
0.000000
  0
SEQEND
  8
LAYER-1
  0
POLYLINE
  8
LAYER-1
 66
  1
 70
  1
 62
  0
 10
2.339958
 20
0.132421
 30
0.000000
  0
VERTEX
  8
LAYER-1
 10
2.339958
 20
0.132421
 30
0.000000
  0
VERTEX
  8
LAYER-1
 10
2.362528
 20
0.119400
 30
0.000000
  0
VERTEX
  8
LAYER-1
 10
2.341695
 20
0.149782
 30
0.000000
  0
SEQEND
  8
LAYER-1
  0
POLYLINE
  8
LAYER-1
 66
  1
 70
  1
 62
  0
 10
0.949332
 20
0.149347
 30
0.000000
  0
VERTEX
  8
LAYER-1
 10
0.949332
 20
0.149347
 30
0.000000
  0
VERTEX
  8
LAYER-1
 10
0.974506
 20
0.132854
 30
0.000000
  0
VERTEX
  8
LAYER-1
 10
0.982319
 20
0.147611
 30
0.000000
  0
SEQEND
  8
LAYER-1
  0
POLYLINE
  8
LAYER-1
 66
  1
 70
  0
 62
  0
 10
2.267910
 20
0.179292
 30
0.000000
  0
VERTEX
  8
LAYER-1
 10
2.267910
 20
0.179292
 30
0.000000
  0
VERTEX
  8
LAYER-1
 10
2.267910
 20
0.174952
 30
0.000000
  0
VERTEX
  8
LAYER-1
 10
2.272250
 20
0.171480
 30
0.000000
  0
VERTEX
  8
LAYER-1
 10
2.277458
 20
0.170613
 30
0.000000
  0
VERTEX
  8
LAYER-1
 10
2.281798
 20
0.172348
 30
0.000000
  0
VERTEX
  8
LAYER-1
 10
2.283535
 20
0.176689
 30
0.000000
  0
VERTEX
  8
LAYER-1
 10
2.283535
 20
0.181028
 30
0.000000
  0
VERTEX
  8
LAYER-1
 10
2.280063
 20
0.185369
 30
0.000000
  0
VERTEX
  8
LAYER-1
 10
2.275722
 20
0.185369
 30
0.000000
  0
VERTEX
  8
LAYER-1
 10
2.271381
 20
0.184501
 30
0.000000
  0
VERTEX
  8
LAYER-1
 10
2.268778
 20
0.180160
 30
0.000000
  0
SEQEND
  8
LAYER-1
  0
POLYLINE
  8
LAYER-1
 66
  1
 70
  1
 62
  0
 10
2.217562
 20
0.190578
 30
0.000000
  0
VERTEX
  8
LAYER-1
 10
2.217562
 20
0.190578
 30
0.000000
  0
VERTEX
  8
LAYER-1
 10
2.240131
 20
0.177558
 30
0.000000
  0
VERTEX
  8
LAYER-1
 10
2.219298
 20
0.207939
 30
0.000000
  0
SEQEND
  8
LAYER-1
  0
POLYLINE
  8
LAYER-1
 66
  1
 70
  1
 62
  0
 10
0.947931
 20
0.097098
 30
0.000000
  0
VERTEX
  8
LAYER-1
 10
0.947931
 20
0.097098
 30
0.000000
  0
VERTEX
  8
LAYER-1
 10
0.967296
 20
0.084411
 30
0.000000
  0
VERTEX
  8
LAYER-1
 10
0.973306
 20
0.095762
 30
0.000000
  0
SEQEND
  8
LAYER-1
  0
POLYLINE
  8
LAYER-1
 66
  1
 70
  0
 62
  0
 10
1.674072
 20
0.049383
 30
0.000000
  0
VERTEX
  8
LAYER-1
 10
1.674072
 20
0.049383
 30
0.000000
  0
VERTEX
  8
LAYER-1
 10
1.674072
 20
0.053722
 30
0.000000
  0
VERTEX
  8
LAYER-1
 10
1.669732
 20
0.057195
 30
0.000000
  0
VERTEX
  8
LAYER-1
 10
1.664524
 20
0.058062
 30
0.000000
  0
VERTEX
  8
LAYER-1
 10
1.660183
 20
0.056327
 30
0.000000
  0
VERTEX
  8
LAYER-1
 10
1.658447
 20
0.051986
 30
0.000000
  0
VERTEX
  8
LAYER-1
 10
1.658447
 20
0.047646
 30
0.000000
  0
VERTEX
  8
LAYER-1
 10
1.661919
 20
0.043305
 30
0.000000
  0
VERTEX
  8
LAYER-1
 10
1.666260
 20
0.043305
 30
0.000000
  0
VERTEX
  8
LAYER-1
 10
1.670601
 20
0.044173
 30
0.000000
  0
VERTEX
  8
LAYER-1
 10
1.673205
 20
0.048514
 30
0.000000
  0
SEQEND
  8
LAYER-1
  0
POLYLINE
  8
LAYER-1
 66
  1
 70
  0
 62
  0
 10
2.479715
 20
0.132421
 30
0.000000
  0
VERTEX
  8
LAYER-1
 10
2.479715
 20
0.132421
 30
0.000000
  0
VERTEX
  8
LAYER-1
 10
2.479715
 20
0.128080
 30
0.000000
  0
VERTEX
  8
LAYER-1
 10
2.484056
 20
0.124608
 30
0.000000
  0
VERTEX
  8
LAYER-1
 10
2.489263
 20
0.123740
 30
0.000000
  0
VERTEX
  8
LAYER-1
 10
2.493604
 20
0.125476
 30
0.000000
  0
VERTEX
  8
LAYER-1
 10
2.495340
 20
0.129816
 30
0.000000
  0
VERTEX
  8
LAYER-1
 10
2.495340
 20
0.134157
 30
0.000000
  0
VERTEX
  8
LAYER-1
 10
2.491868
 20
0.138497
 30
0.000000
  0
VERTEX
  8
LAYER-1
 10
2.487528
 20
0.138497
 30
0.000000
  0
VERTEX
  8
LAYER-1
 10
2.483187
 20
0.137628
 30
0.000000
  0
VERTEX
  8
LAYER-1
 10
2.480583
 20
0.133289
 30
0.000000
  0
SEQEND
  8
LAYER-1
  0
POLYLINE
  8
LAYER-1
 66
  1
 70
  0
 62
  0
 10
2.313917
 20
0.187108
 30
0.000000
  0
VERTEX
  8
LAYER-1
 10
2.313917
 20
0.187108
 30
0.000000
  0
VERTEX
  8
LAYER-1
 10
2.313917
 20
0.182766
 30
0.000000
  0
VERTEX
  8
LAYER-1
 10
2.318257
 20
0.179295
 30
0.000000
  0
VERTEX
  8
LAYER-1
 10
2.323465
 20
0.178428
 30
0.000000
  0
VERTEX
  8
LAYER-1
 10
2.327806
 20
0.180163
 30
0.000000
  0
VERTEX
  8
LAYER-1
 10
2.329542
 20
0.184502
 30
0.000000
  0
VERTEX
  8
LAYER-1
 10
2.329542
 20
0.188844
 30
0.000000
  0
VERTEX
  8
LAYER-1
 10
2.326070
 20
0.193184
 30
0.000000
  0
VERTEX
  8
LAYER-1
 10
2.321729
 20
0.193184
 30
0.000000
  0
VERTEX
  8
LAYER-1
 10
2.317388
 20
0.192315
 30
0.000000
  0
VERTEX
  8
LAYER-1
 10
2.314784
 20
0.187976
 30
0.000000
  0
SEQEND
  8
LAYER-1
  0
POLYLINE
  8
LAYER-1
 66
  1
 70
  1
 62
  0
 10
2.076070
 20
0.104209
 30
0.000000
  0
VERTEX
  8
LAYER-1
 10
2.076070
 20
0.104209
 30
0.000000
  0
VERTEX
  8
LAYER-1
 10
2.083014
 20
0.078169
 30
0.000000
  0
VERTEX
  8
LAYER-1
 10
2.108188
 20
0.092056
 30
0.000000
  0
SEQEND
  8
LAYER-1
  0
POLYLINE
  8
LAYER-1
 66
  1
 70
  1
 62
  0
 10
2.180584
 20
0.091451
 30
0.000000
  0
VERTEX
  8
LAYER-1
 10
2.180584
 20
0.091451
 30
0.000000
  0
VERTEX
  8
LAYER-1
 10
2.167563
 20
0.068881
 30
0.000000
  0
VERTEX
  8
LAYER-1
 10
2.197945
 20
0.089713
 30
0.000000
  0
SEQEND
  8
LAYER-1
  0
POLYLINE
  8
LAYER-1
 66
  1
 70
  1
 62
  0
 10
1.896548
 20
0.121907
 30
0.000000
  0
VERTEX
  8
LAYER-1
 10
1.896548
 20
0.121907
 30
0.000000
  0
VERTEX
  8
LAYER-1
 10
1.880056
 20
0.096733
 30
0.000000
  0
VERTEX
  8
LAYER-1
 10
1.894813
 20
0.088921
 30
0.000000
  0
SEQEND
  8
LAYER-1
  0
POLYLINE
  8
LAYER-1
 66
  1
 70
  0
 62
  0
 10
2.026591
 20
0.135459
 30
0.000000
  0
VERTEX
  8
LAYER-1
 10
2.026591
 20
0.135459
 30
0.000000
  0
VERTEX
  8
LAYER-1
 10
2.022250
 20
0.135459
 30
0.000000
  0
VERTEX
  8
LAYER-1
 10
2.018778
 20
0.131119
 30
0.000000
  0
VERTEX
  8
LAYER-1
 10
2.017910
 20
0.125910
 30
0.000000
  0
VERTEX
  8
LAYER-1
 10
2.019647
 20
0.121570
 30
0.000000
  0
VERTEX
  8
LAYER-1
 10
2.023987
 20
0.119834
 30
0.000000
  0
VERTEX
  8
LAYER-1
 10
2.028327
 20
0.119834
 30
0.000000
  0
VERTEX
  8
LAYER-1
 10
2.032667
 20
0.123306
 30
0.000000
  0
VERTEX
  8
LAYER-1
 10
2.032667
 20
0.127647
 30
0.000000
  0
VERTEX
  8
LAYER-1
 10
2.031800
 20
0.131988
 30
0.000000
  0
VERTEX
  8
LAYER-1
 10
2.027459
 20
0.134592
 30
0.000000
  0
SEQEND
  8
LAYER-1
  0
POLYLINE
  8
LAYER-1
 66
  1
 70
  1
 62
  0
 10
0.884229
 20
0.211846
 30
0.000000
  0
VERTEX
  8
LAYER-1
 10
0.884229
 20
0.211846
 30
0.000000
  0
VERTEX
  8
LAYER-1
 10
0.871208
 20
0.189276
 30
0.000000
  0
VERTEX
  8
LAYER-1
 10
0.901590
 20
0.210108
 30
0.000000
  0
SEQEND
  8
LAYER-1
  0
POLYLINE
  8
LAYER-1
 66
  1
 70
  1
 62
  0
 10
1.881625
 20
0.154556
 30
0.000000
  0
VERTEX
  8
LAYER-1
 10
1.881625
 20
0.154556
 30
0.000000
  0
VERTEX
  8
LAYER-1
 10
1.868938
 20
0.135192
 30
0.000000
  0
VERTEX
  8
LAYER-1
 10
1.880289
 20
0.129181
 30
0.000000
  0
SEQEND
  8
LAYER-1
  0
POLYLINE
  8
LAYER-1
 66
  1
 70
  0
 62
  0
 10
2.178500
 20
0.137195
 30
0.000000
  0
VERTEX
  8
LAYER-1
 10
2.178500
 20
0.137195
 30
0.000000
  0
VERTEX
  8
LAYER-1
 10
2.174160
 20
0.137195
 30
0.000000
  0
VERTEX
  8
LAYER-1
 10
2.170688
 20
0.132854
 30
0.000000
  0
VERTEX
  8
LAYER-1
 10
2.169820
 20
0.127647
 30
0.000000
  0
VERTEX
  8
LAYER-1
 10
2.171556
 20
0.123306
 30
0.000000
  0
VERTEX
  8
LAYER-1
 10
2.175897
 20
0.121570
 30
0.000000
  0
VERTEX
  8
LAYER-1
 10
2.180237
 20
0.121570
 30
0.000000
  0
VERTEX
  8
LAYER-1
 10
2.184577
 20
0.125042
 30
0.000000
  0
VERTEX
  8
LAYER-1
 10
2.184577
 20
0.129383
 30
0.000000
  0
VERTEX
  8
LAYER-1
 10
2.183709
 20
0.133723
 30
0.000000
  0
VERTEX
  8
LAYER-1
 10
2.179368
 20
0.136328
 30
0.000000
  0
SEQEND
  8
LAYER-1
  0
POLYLINE
  8
LAYER-1
 66
  1
 70
  0
 62
  0
 10
2.238397
 20
0.142403
 30
0.000000
  0
VERTEX
  8
LAYER-1
 10
2.238397
 20
0.142403
 30
0.000000
  0
VERTEX
  8
LAYER-1
 10
2.234056
 20
0.142403
 30
0.000000
  0
VERTEX
  8
LAYER-1
 10
2.230584
 20
0.138062
 30
0.000000
  0
VERTEX
  8
LAYER-1
 10
2.229716
 20
0.132854
 30
0.000000
  0
VERTEX
  8
LAYER-1
 10
2.231452
 20
0.128514
 30
0.000000
  0
VERTEX
  8
LAYER-1
 10
2.235792
 20
0.126778
 30
0.000000
  0
VERTEX
  8
LAYER-1
 10
2.240132
 20
0.126778
 30
0.000000
  0
VERTEX
  8
LAYER-1
 10
2.244473
 20
0.130250
 30
0.000000
  0
VERTEX
  8
LAYER-1
 10
2.244473
 20
0.134590
 30
0.000000
  0
VERTEX
  8
LAYER-1
 10
2.243605
 20
0.138931
 30
0.000000
  0
VERTEX
  8
LAYER-1
 10
2.239264
 20
0.141535
 30
0.000000
  0
SEQEND
  8
LAYER-1
  0
POLYLINE
  8
LAYER-1
 66
  1
 70
  0
 62
  0
 10
0.894646
 20
0.129382
 30
0.000000
  0
VERTEX
  8
LAYER-1
 10
0.894646
 20
0.129382
 30
0.000000
  0
VERTEX
  8
LAYER-1
 10
0.890305
 20
0.129382
 30
0.000000
  0
VERTEX
  8
LAYER-1
 10
0.886833
 20
0.125041
 30
0.000000
  0
VERTEX
  8
LAYER-1
 10
0.885965
 20
0.119833
 30
0.000000
  0
VERTEX
  8
LAYER-1
 10
0.887701
 20
0.115492
 30
0.000000
  0
VERTEX
  8
LAYER-1
 10
0.892042
 20
0.113757
 30
0.000000
  0
VERTEX
  8
LAYER-1
 10
0.896382
 20
0.113757
 30
0.000000
  0
VERTEX
  8
LAYER-1
 10
0.900722
 20
0.117228
 30
0.000000
  0
VERTEX
  8
LAYER-1
 10
0.900722
 20
0.121569
 30
0.000000
  0
VERTEX
  8
LAYER-1
 10
0.899854
 20
0.125910
 30
0.000000
  0
VERTEX
  8
LAYER-1
 10
0.895514
 20
0.128515
 30
0.000000
  0
SEQEND
  8
LAYER-1
  0
POLYLINE
  8
LAYER-1
 66
  1
 70
  1
 62
  0
 10
2.545688
 20
0.169312
 30
0.000000
  0
VERTEX
  8
LAYER-1
 10
2.545688
 20
0.169312
 30
0.000000
  0
VERTEX
  8
LAYER-1
 10
2.552632
 20
0.143271
 30
0.000000
  0
VERTEX
  8
LAYER-1
 10
2.577806
 20
0.157159
 30
0.000000
  0
SEQEND
  8
LAYER-1
  0
POLYLINE
  8
LAYER-1
 66
  1
 70
  1
 62
  0
 10
2.708015
 20
0.197957
 30
0.000000
  0
VERTEX
  8
LAYER-1
 10
2.708015
 20
0.197957
 30
0.000000
  0
VERTEX
  8
LAYER-1
 10
2.694993
 20
0.175389
 30
0.000000
  0
VERTEX
  8
LAYER-1
 10
2.725376
 20
0.196220
 30
0.000000
  0
SEQEND
  8
LAYER-1
  0
POLYLINE
  8
LAYER-1
 66
  1
 70
  1
 62
  0
 10
1.384229
 20
0.148913
 30
0.000000
  0
VERTEX
  8
LAYER-1
 10
1.384229
 20
0.148913
 30
0.000000
  0
VERTEX
  8
LAYER-1
 10
1.367736
 20
0.123739
 30
0.000000
  0
VERTEX
  8
LAYER-1
 10
1.382493
 20
0.115926
 30
0.000000
  0
SEQEND
  8
LAYER-1
  0
POLYLINE
  8
LAYER-1
 66
  1
 70
  0
 62
  0
 10
2.496209
 20
0.200561
 30
0.000000
  0
VERTEX
  8
LAYER-1
 10
2.496209
 20
0.200561
 30
0.000000
  0
VERTEX
  8
LAYER-1
 10
2.491868
 20
0.200561
 30
0.000000
  0
VERTEX
  8
LAYER-1
 10
2.488397
 20
0.196220
 30
0.000000
  0
VERTEX
  8
LAYER-1
 10
2.487528
 20
0.191013
 30
0.000000
  0
VERTEX
  8
LAYER-1
 10
2.489264
 20
0.186672
 30
0.000000
  0
VERTEX
  8
LAYER-1
 10
2.493604
 20
0.184936
 30
0.000000
  0
VERTEX
  8
LAYER-1
 10
2.497945
 20
0.184936
 30
0.000000
  0
VERTEX
  8
LAYER-1
 10
2.502285
 20
0.188408
 30
0.000000
  0
VERTEX
  8
LAYER-1
 10
2.502285
 20
0.192748
 30
0.000000
  0
VERTEX
  8
LAYER-1
 10
2.501417
 20
0.197089
 30
0.000000
  0
VERTEX
  8
LAYER-1
 10
2.497077
 20
0.199693
 30
0.000000
  0
SEQEND
  8
LAYER-1
  0
POLYLINE
  8
LAYER-1
 66
  1
 70
  1
 62
  0
 10
2.533535
 20
0.132853
 30
0.000000
  0
VERTEX
  8
LAYER-1
 10
2.533535
 20
0.132853
 30
0.000000
  0
VERTEX
  8
LAYER-1
 10
2.520514
 20
0.110284
 30
0.000000
  0
VERTEX
  8
LAYER-1
 10
2.550897
 20
0.131116
 30
0.000000
  0
SEQEND
  8
LAYER-1
  0
POLYLINE
  8
LAYER-1
 66
  1
 70
  1
 62
  0
 10
1.092461
 20
0.223223
 30
0.000000
  0
VERTEX
  8
LAYER-1
 10
1.092461
 20
0.223223
 30
0.000000
  0
VERTEX
  8
LAYER-1
 10
1.111826
 20
0.210538
 30
0.000000
  0
VERTEX
  8
LAYER-1
 10
1.117837
 20
0.221887
 30
0.000000
  0
SEQEND
  8
LAYER-1
  0
POLYLINE
  8
LAYER-1
 66
  1
 70
  0
 62
  0
 10
2.648118
 20
0.202297
 30
0.000000
  0
VERTEX
  8
LAYER-1
 10
2.648118
 20
0.202297
 30
0.000000
  0
VERTEX
  8
LAYER-1
 10
2.643778
 20
0.202297
 30
0.000000
  0
VERTEX
  8
LAYER-1
 10
2.640306
 20
0.197957
 30
0.000000
  0
VERTEX
  8
LAYER-1
 10
2.639438
 20
0.192748
 30
0.000000
  0
VERTEX
  8
LAYER-1
 10
2.641173
 20
0.188408
 30
0.000000
  0
VERTEX
  8
LAYER-1
 10
2.645514
 20
0.186672
 30
0.000000
  0
VERTEX
  8
LAYER-1
 10
2.649854
 20
0.186672
 30
0.000000
  0
VERTEX
  8
LAYER-1
 10
2.654195
 20
0.190144
 30
0.000000
  0
VERTEX
  8
LAYER-1
 10
2.654195
 20
0.194484
 30
0.000000
  0
VERTEX
  8
LAYER-1
 10
2.653327
 20
0.198825
 30
0.000000
  0
VERTEX
  8
LAYER-1
 10
2.648986
 20
0.201429
 30
0.000000
  0
SEQEND
  8
LAYER-1
  0
POLYLINE
  8
LAYER-1
 66
  1
 70
  0
 62
  0
 10
1.436313
 20
0.142836
 30
0.000000
  0
VERTEX
  8
LAYER-1
 10
1.436313
 20
0.142836
 30
0.000000
  0
VERTEX
  8
LAYER-1
 10
1.431972
 20
0.142836
 30
0.000000
  0
VERTEX
  8
LAYER-1
 10
1.428500
 20
0.138496
 30
0.000000
  0
VERTEX
  8
LAYER-1
 10
1.427632
 20
0.133288
 30
0.000000
  0
VERTEX
  8
LAYER-1
 10
1.429368
 20
0.128947
 30
0.000000
  0
VERTEX
  8
LAYER-1
 10
1.433708
 20
0.127211
 30
0.000000
  0
VERTEX
  8
LAYER-1
 10
1.438049
 20
0.127211
 30
0.000000
  0
VERTEX
  8
LAYER-1
 10
1.442388
 20
0.130683
 30
0.000000
  0
VERTEX
  8
LAYER-1
 10
1.442388
 20
0.135023
 30
0.000000
  0
VERTEX
  8
LAYER-1
 10
1.441520
 20
0.139364
 30
0.000000
  0
VERTEX
  8
LAYER-1
 10
1.437181
 20
0.141969
 30
0.000000
  0
SEQEND
  8
LAYER-1
  0
POLYLINE
  8
LAYER-1
 66
  1
 70
  0
 62
  0
 10
1.019645
 20
0.119398
 30
0.000000
  0
VERTEX
  8
LAYER-1
 10
1.019645
 20
0.119398
 30
0.000000
  0
VERTEX
  8
LAYER-1
 10
1.015305
 20
0.119398
 30
0.000000
  0
VERTEX
  8
LAYER-1
 10
1.011833
 20
0.115058
 30
0.000000
  0
VERTEX
  8
LAYER-1
 10
1.010965
 20
0.109851
 30
0.000000
  0
VERTEX
  8
LAYER-1
 10
1.012701
 20
0.105509
 30
0.000000
  0
VERTEX
  8
LAYER-1
 10
1.017041
 20
0.103773
 30
0.000000
  0
VERTEX
  8
LAYER-1
 10
1.021381
 20
0.103773
 30
0.000000
  0
VERTEX
  8
LAYER-1
 10
1.025721
 20
0.107246
 30
0.000000
  0
VERTEX
  8
LAYER-1
 10
1.025721
 20
0.111586
 30
0.000000
  0
VERTEX
  8
LAYER-1
 10
1.024853
 20
0.115927
 30
0.000000
  0
VERTEX
  8
LAYER-1
 10
1.020513
 20
0.118531
 30
0.000000
  0
SEQEND
  8
LAYER-1
  0
POLYLINE
  8
LAYER-1
 66
  1
 70
  1
 62
  0
 10
2.987528
 20
0.193616
 30
0.000000
  0
VERTEX
  8
LAYER-1
 10
2.987528
 20
0.193616
 30
0.000000
  0
VERTEX
  8
LAYER-1
 10
2.994473
 20
0.167577
 30
0.000000
  0
VERTEX
  8
LAYER-1
 10
3.019646
 20
0.181463
 30
0.000000
  0
SEQEND
  8
LAYER-1
  0
POLYLINE
  8
LAYER-1
 66
  1
 70
  1
 62
  0
 10
3.149855
 20
0.222264
 30
0.000000
  0
VERTEX
  8
LAYER-1
 10
3.149855
 20
0.222264
 30
0.000000
  0
VERTEX
  8
LAYER-1
 10
3.136834
 20
0.199693
 30
0.000000
  0
VERTEX
  8
LAYER-1
 10
3.167216
 20
0.220526
 30
0.000000
  0
SEQEND
  8
LAYER-1
  0
POLYLINE
  8
LAYER-1
 66
  1
 70
  1
 62
  0
 10
2.378153
 20
0.158028
 30
0.000000
  0
VERTEX
  8
LAYER-1
 10
2.378153
 20
0.158028
 30
0.000000
  0
VERTEX
  8
LAYER-1
 10
2.403326
 20
0.141534
 30
0.000000
  0
VERTEX
  8
LAYER-1
 10
2.411139
 20
0.156292
 30
0.000000
  0
SEQEND
  8
LAYER-1
  0
POLYLINE
  8
LAYER-1
 66
  1
 70
  0
 62
  0
 10
2.948466
 20
0.214451
 30
0.000000
  0
VERTEX
  8
LAYER-1
 10
2.948466
 20
0.214451
 30
0.000000
  0
VERTEX
  8
LAYER-1
 10
2.944125
 20
0.214451
 30
0.000000
  0
VERTEX
  8
LAYER-1
 10
2.940653
 20
0.210110
 30
0.000000
  0
VERTEX
  8
LAYER-1
 10
2.939785
 20
0.204903
 30
0.000000
  0
VERTEX
  8
LAYER-1
 10
2.941521
 20
0.200562
 30
0.000000
  0
VERTEX
  8
LAYER-1
 10
2.945861
 20
0.198826
 30
0.000000
  0
VERTEX
  8
LAYER-1
 10
2.950201
 20
0.198826
 30
0.000000
  0
VERTEX
  8
LAYER-1
 10
2.954542
 20
0.202298
 30
0.000000
  0
VERTEX
  8
LAYER-1
 10
2.954542
 20
0.206639
 30
0.000000
  0
VERTEX
  8
LAYER-1
 10
2.953674
 20
0.210979
 30
0.000000
  0
VERTEX
  8
LAYER-1
 10
2.949333
 20
0.213584
 30
0.000000
  0
SEQEND
  8
LAYER-1
  0
POLYLINE
  8
LAYER-1
 66
  1
 70
  1
 62
  0
 10
2.964091
 20
0.125910
 30
0.000000
  0
VERTEX
  8
LAYER-1
 10
2.964091
 20
0.125910
 30
0.000000
  0
VERTEX
  8
LAYER-1
 10
2.951070
 20
0.103339
 30
0.000000
  0
VERTEX
  8
LAYER-1
 10
2.981453
 20
0.124172
 30
0.000000
  0
SEQEND
  8
LAYER-1
  0
POLYLINE
  8
LAYER-1
 66
  1
 70
  1
 62
  0
 10
3.058542
 20
0.119497
 30
0.000000
  0
VERTEX
  8
LAYER-1
 10
3.058542
 20
0.119497
 30
0.000000
  0
VERTEX
  8
LAYER-1
 10
3.045855
 20
0.100132
 30
0.000000
  0
VERTEX
  8
LAYER-1
 10
3.057206
 20
0.094121
 30
0.000000
  0
SEQEND
  8
LAYER-1
  0
POLYLINE
  8
LAYER-1
 66
  1
 70
  0
 62
  0
 10
3.089958
 20
0.218791
 30
0.000000
  0
VERTEX
  8
LAYER-1
 10
3.089958
 20
0.218791
 30
0.000000
  0
VERTEX
  8
LAYER-1
 10
3.085619
 20
0.218791
 30
0.000000
  0
VERTEX
  8
LAYER-1
 10
3.082146
 20
0.214450
 30
0.000000
  0
VERTEX
  8
LAYER-1
 10
3.081278
 20
0.209242
 30
0.000000
  0
VERTEX
  8
LAYER-1
 10
3.083014
 20
0.204902
 30
0.000000
  0
VERTEX
  8
LAYER-1
 10
3.087354
 20
0.203166
 30
0.000000
  0
VERTEX
  8
LAYER-1
 10
3.091695
 20
0.203166
 30
0.000000
  0
VERTEX
  8
LAYER-1
 10
3.096035
 20
0.206638
 30
0.000000
  0
VERTEX
  8
LAYER-1
 10
3.096035
 20
0.210978
 30
0.000000
  0
VERTEX
  8
LAYER-1
 10
3.095167
 20
0.215319
 30
0.000000
  0
VERTEX
  8
LAYER-1
 10
3.090826
 20
0.217923
 30
0.000000
  0
SEQEND
  8
LAYER-1
  0
POLYLINE
  8
LAYER-1
 66
  1
 70
  0
 62
  0
 10
2.366869
 20
0.210978
 30
0.000000
  0
VERTEX
  8
LAYER-1
 10
2.366869
 20
0.210978
 30
0.000000
  0
VERTEX
  8
LAYER-1
 10
2.366869
 20
0.206638
 30
0.000000
  0
VERTEX
  8
LAYER-1
 10
2.371209
 20
0.203166
 30
0.000000
  0
VERTEX
  8
LAYER-1
 10
2.376417
 20
0.202297
 30
0.000000
  0
VERTEX
  8
LAYER-1
 10
2.380758
 20
0.204033
 30
0.000000
  0
VERTEX
  8
LAYER-1
 10
2.382494
 20
0.208373
 30
0.000000
  0
VERTEX
  8
LAYER-1
 10
2.382494
 20
0.212714
 30
0.000000
  0
VERTEX
  8
LAYER-1
 10
2.379022
 20
0.217055
 30
0.000000
  0
VERTEX
  8
LAYER-1
 10
2.374681
 20
0.217055
 30
0.000000
  0
VERTEX
  8
LAYER-1
 10
2.370341
 20
0.216186
 30
0.000000
  0
VERTEX
  8
LAYER-1
 10
2.367736
 20
0.211845
 30
0.000000
  0
SEQEND
  8
LAYER-1
  0
POLYLINE
  8
LAYER-1
 66
  1
 70
  0
 62
  0
 10
2.930236
 20
0.126776
 30
0.000000
  0
VERTEX
  8
LAYER-1
 10
2.930236
 20
0.126776
 30
0.000000
  0
VERTEX
  8
LAYER-1
 10
2.925895
 20
0.126776
 30
0.000000
  0
VERTEX
  8
LAYER-1
 10
2.922423
 20
0.122435
 30
0.000000
  0
VERTEX
  8
LAYER-1
 10
2.921555
 20
0.117227
 30
0.000000
  0
VERTEX
  8
LAYER-1
 10
2.923291
 20
0.112886
 30
0.000000
  0
VERTEX
  8
LAYER-1
 10
2.927632
 20
0.111151
 30
0.000000
  0
VERTEX
  8
LAYER-1
 10
2.931972
 20
0.111151
 30
0.000000
  0
VERTEX
  8
LAYER-1
 10
2.936312
 20
0.114622
 30
0.000000
  0
VERTEX
  8
LAYER-1
 10
2.936312
 20
0.118963
 30
0.000000
  0
VERTEX
  8
LAYER-1
 10
2.935444
 20
0.123304
 30
0.000000
  0
VERTEX
  8
LAYER-1
 10
2.931104
 20
0.125909
 30
0.000000
  0
SEQEND
  8
LAYER-1
  0
POLYLINE
  8
LAYER-1
 66
  1
 70
  1
 62
  0
 10
2.797425
 20
0.115059
 30
0.000000
  0
VERTEX
  8
LAYER-1
 10
2.797425
 20
0.115059
 30
0.000000
  0
VERTEX
  8
LAYER-1
 10
2.771382
 20
0.108114
 30
0.000000
  0
VERTEX
  8
LAYER-1
 10
2.785272
 20
0.082941
 30
0.000000
  0
SEQEND
  8
LAYER-1
  0
POLYLINE
  8
LAYER-1
 66
  1
 70
  1
 62
  0
 10
1.420689
 20
0.089451
 30
0.000000
  0
VERTEX
  8
LAYER-1
 10
1.420689
 20
0.089451
 30
0.000000
  0
VERTEX
  8
LAYER-1
 10
1.395513
 20
0.105944
 30
0.000000
  0
VERTEX
  8
LAYER-1
 10
1.387701
 20
0.091187
 30
0.000000
  0
SEQEND
  8
LAYER-1
  0
POLYLINE
  8
LAYER-1
 66
  1
 70
  0
 62
  0
 10
2.828675
 20
0.164538
 30
0.000000
  0
VERTEX
  8
LAYER-1
 10
2.828675
 20
0.164538
 30
0.000000
  0
VERTEX
  8
LAYER-1
 10
2.828675
 20
0.168878
 30
0.000000
  0
VERTEX
  8
LAYER-1
 10
2.824334
 20
0.172351
 30
0.000000
  0
VERTEX
  8
LAYER-1
 10
2.819126
 20
0.173219
 30
0.000000
  0
VERTEX
  8
LAYER-1
 10
2.814785
 20
0.171483
 30
0.000000
  0
VERTEX
  8
LAYER-1
 10
2.813050
 20
0.167141
 30
0.000000
  0
VERTEX
  8
LAYER-1
 10
2.813050
 20
0.162802
 30
0.000000
  0
VERTEX
  8
LAYER-1
 10
2.816522
 20
0.158463
 30
0.000000
  0
VERTEX
  8
LAYER-1
 10
2.820862
 20
0.158463
 30
0.000000
  0
VERTEX
  8
LAYER-1
 10
2.825203
 20
0.159329
 30
0.000000
  0
VERTEX
  8
LAYER-1
 10
2.827806
 20
0.163670
 30
0.000000
  0
SEQEND
  8
LAYER-1
  0
POLYLINE
  8
LAYER-1
 66
  1
 70
  1
 62
  0
 10
2.760965
 20
0.127213
 30
0.000000
  0
VERTEX
  8
LAYER-1
 10
2.760965
 20
0.127213
 30
0.000000
  0
VERTEX
  8
LAYER-1
 10
2.738397
 20
0.140233
 30
0.000000
  0
VERTEX
  8
LAYER-1
 10
2.759229
 20
0.109851
 30
0.000000
  0
SEQEND
  8
LAYER-1
  0
POLYLINE
  8
LAYER-1
 66
  1
 70
  1
 62
  0
 10
1.498479
 20
0.108714
 30
0.000000
  0
VERTEX
  8
LAYER-1
 10
1.498479
 20
0.108714
 30
0.000000
  0
VERTEX
  8
LAYER-1
 10
1.479113
 20
0.121401
 30
0.000000
  0
VERTEX
  8
LAYER-1
 10
1.473104
 20
0.110049
 30
0.000000
  0
SEQEND
  8
LAYER-1
  0
POLYLINE
  8
LAYER-1
 66
  1
 70
  0
 62
  0
 10
1.558709
 20
0.097264
 30
0.000000
  0
VERTEX
  8
LAYER-1
 10
1.558709
 20
0.097264
 30
0.000000
  0
VERTEX
  8
LAYER-1
 10
1.558709
 20
0.101603
 30
0.000000
  0
VERTEX
  8
LAYER-1
 10
1.554368
 20
0.105076
 30
0.000000
  0
VERTEX
  8
LAYER-1
 10
1.549160
 20
0.105944
 30
0.000000
  0
VERTEX
  8
LAYER-1
 10
1.544820
 20
0.104208
 30
0.000000
  0
VERTEX
  8
LAYER-1
 10
1.543084
 20
0.099867
 30
0.000000
  0
VERTEX
  8
LAYER-1
 10
1.543084
 20
0.095527
 30
0.000000
  0
VERTEX
  8
LAYER-1
 10
1.546556
 20
0.091187
 30
0.000000
  0
VERTEX
  8
LAYER-1
 10
1.550896
 20
0.091187
 30
0.000000
  0
VERTEX
  8
LAYER-1
 10
1.555237
 20
0.092055
 30
0.000000
  0
VERTEX
  8
LAYER-1
 10
1.557840
 20
0.096396
 30
0.000000
  0
SEQEND
  8
LAYER-1
  0
POLYLINE
  8
LAYER-1
 66
  1
 70
  0
 62
  0
 10
2.678501
 20
0.116795
 30
0.000000
  0
VERTEX
  8
LAYER-1
 10
2.678501
 20
0.116795
 30
0.000000
  0
VERTEX
  8
LAYER-1
 10
2.678501
 20
0.121135
 30
0.000000
  0
VERTEX
  8
LAYER-1
 10
2.674160
 20
0.124608
 30
0.000000
  0
VERTEX
  8
LAYER-1
 10
2.668953
 20
0.125476
 30
0.000000
  0
VERTEX
  8
LAYER-1
 10
2.664612
 20
0.123739
 30
0.000000
  0
VERTEX
  8
LAYER-1
 10
2.662876
 20
0.119400
 30
0.000000
  0
VERTEX
  8
LAYER-1
 10
2.662876
 20
0.115059
 30
0.000000
  0
VERTEX
  8
LAYER-1
 10
2.666348
 20
0.110719
 30
0.000000
  0
VERTEX
  8
LAYER-1
 10
2.670689
 20
0.110719
 30
0.000000
  0
VERTEX
  8
LAYER-1
 10
2.675029
 20
0.111588
 30
0.000000
  0
VERTEX
  8
LAYER-1
 10
2.677632
 20
0.115927
 30
0.000000
  0
SEQEND
  8
LAYER-1
  0
POLYLINE
  8
LAYER-1
 66
  1
 70
  1
 62
  0
 10
2.871208
 20
0.118098
 30
0.000000
  0
VERTEX
  8
LAYER-1
 10
2.871208
 20
0.118098
 30
0.000000
  0
VERTEX
  8
LAYER-1
 10
2.864264
 20
0.144139
 30
0.000000
  0
VERTEX
  8
LAYER-1
 10
2.839091
 20
0.130252
 30
0.000000
  0
SEQEND
  8
LAYER-1
  0
POLYLINE
  8
LAYER-1
 66
  1
 70
  1
 62
  0
 10
2.318257
 20
0.105076
 30
0.000000
  0
VERTEX
  8
LAYER-1
 10
2.318257
 20
0.105076
 30
0.000000
  0
VERTEX
  8
LAYER-1
 10
2.295687
 20
0.118098
 30
0.000000
  0
VERTEX
  8
LAYER-1
 10
2.316519
 20
0.087715
 30
0.000000
  0
SEQEND
  8
LAYER-1
  0
POLYLINE
  8
LAYER-1
 66
  1
 70
  1
 62
  0
 10
3.096036
 20
0.129383
 30
0.000000
  0
VERTEX
  8
LAYER-1
 10
3.096036
 20
0.129383
 30
0.000000
  0
VERTEX
  8
LAYER-1
 10
3.112529
 20
0.154556
 30
0.000000
  0
VERTEX
  8
LAYER-1
 10
3.097772
 20
0.162369
 30
0.000000
  0
SEQEND
  8
LAYER-1
  0
POLYLINE
  8
LAYER-1
 66
  1
 70
  0
 62
  0
 10
3.231452
 20
0.097261
 30
0.000000
  0
VERTEX
  8
LAYER-1
 10
3.231452
 20
0.097261
 30
0.000000
  0
VERTEX
  8
LAYER-1
 10
3.235792
 20
0.097261
 30
0.000000
  0
VERTEX
  8
LAYER-1
 10
3.239264
 20
0.101602
 30
0.000000
  0
VERTEX
  8
LAYER-1
 10
3.240132
 20
0.106810
 30
0.000000
  0
VERTEX
  8
LAYER-1
 10
3.238396
 20
0.111151
 30
0.000000
  0
VERTEX
  8
LAYER-1
 10
3.234055
 20
0.112886
 30
0.000000
  0
VERTEX
  8
LAYER-1
 10
3.229716
 20
0.112886
 30
0.000000
  0
VERTEX
  8
LAYER-1
 10
3.225375
 20
0.109415
 30
0.000000
  0
VERTEX
  8
LAYER-1
 10
3.225375
 20
0.105074
 30
0.000000
  0
VERTEX
  8
LAYER-1
 10
3.226243
 20
0.100733
 30
0.000000
  0
VERTEX
  8
LAYER-1
 10
3.230584
 20
0.098128
 30
0.000000
  0
SEQEND
  8
LAYER-1
  0
POLYLINE
  8
LAYER-1
 66
  1
 70
  1
 62
  0
 10
2.883361
 20
0.154556
 30
0.000000
  0
VERTEX
  8
LAYER-1
 10
2.883361
 20
0.154556
 30
0.000000
  0
VERTEX
  8
LAYER-1
 10
2.896382
 20
0.177127
 30
0.000000
  0
VERTEX
  8
LAYER-1
 10
2.866000
 20
0.156294
 30
0.000000
  0
SEQEND
  8
LAYER-1
  0
POLYLINE
  8
LAYER-1
 66
  1
 70
  1
 62
  0
 10
3.137001
 20
0.105411
 30
0.000000
  0
VERTEX
  8
LAYER-1
 10
3.137001
 20
0.105411
 30
0.000000
  0
VERTEX
  8
LAYER-1
 10
3.149687
 20
0.124775
 30
0.000000
  0
VERTEX
  8
LAYER-1
 10
3.138337
 20
0.130786
 30
0.000000
  0
SEQEND
  8
LAYER-1
  0
POLYLINE
  8
LAYER-1
 66
  1
 70
  0
 62
  0
 10
2.458013
 20
0.164973
 30
0.000000
  0
VERTEX
  8
LAYER-1
 10
2.458013
 20
0.164973
 30
0.000000
  0
VERTEX
  8
LAYER-1
 10
2.458013
 20
0.169312
 30
0.000000
  0
VERTEX
  8
LAYER-1
 10
2.453672
 20
0.172785
 30
0.000000
  0
VERTEX
  8
LAYER-1
 10
2.448465
 20
0.173653
 30
0.000000
  0
VERTEX
  8
LAYER-1
 10
2.444124
 20
0.171917
 30
0.000000
  0
VERTEX
  8
LAYER-1
 10
2.442388
 20
0.167576
 30
0.000000
  0
VERTEX
  8
LAYER-1
 10
2.442388
 20
0.163235
 30
0.000000
  0
VERTEX
  8
LAYER-1
 10
2.445860
 20
0.158897
 30
0.000000
  0
VERTEX
  8
LAYER-1
 10
2.450200
 20
0.158897
 30
0.000000
  0
VERTEX
  8
LAYER-1
 10
2.454541
 20
0.159764
 30
0.000000
  0
VERTEX
  8
LAYER-1
 10
2.457146
 20
0.164104
 30
0.000000
  0
SEQEND
  8
LAYER-1
  0
POLYLINE
  8
LAYER-1
 66
  1
 70
  0
 62
  0
 10
3.043953
 20
0.135459
 30
0.000000
  0
VERTEX
  8
LAYER-1
 10
3.043953
 20
0.135459
 30
0.000000
  0
VERTEX
  8
LAYER-1
 10
3.048293
 20
0.135459
 30
0.000000
  0
VERTEX
  8
LAYER-1
 10
3.051765
 20
0.139800
 30
0.000000
  0
VERTEX
  8
LAYER-1
 10
3.052633
 20
0.145008
 30
0.000000
  0
VERTEX
  8
LAYER-1
 10
3.050897
 20
0.149348
 30
0.000000
  0
VERTEX
  8
LAYER-1
 10
3.046556
 20
0.151084
 30
0.000000
  0
VERTEX
  8
LAYER-1
 10
3.042216
 20
0.151084
 30
0.000000
  0
VERTEX
  8
LAYER-1
 10
3.037876
 20
0.147613
 30
0.000000
  0
VERTEX
  8
LAYER-1
 10
3.037876
 20
0.143272
 30
0.000000
  0
VERTEX
  8
LAYER-1
 10
3.038744
 20
0.138931
 30
0.000000
  0
VERTEX
  8
LAYER-1
 10
3.043084
 20
0.136326
 30
0.000000
  0
SEQEND
  8
LAYER-1
  0
POLYLINE
  8
LAYER-1
 66
  1
 70
  0
 62
  0
 10
3.208015
 20
0.143272
 30
0.000000
  0
VERTEX
  8
LAYER-1
 10
3.208015
 20
0.143272
 30
0.000000
  0
VERTEX
  8
LAYER-1
 10
3.212355
 20
0.143272
 30
0.000000
  0
VERTEX
  8
LAYER-1
 10
3.215827
 20
0.147613
 30
0.000000
  0
VERTEX
  8
LAYER-1
 10
3.216695
 20
0.152820
 30
0.000000
  0
VERTEX
  8
LAYER-1
 10
3.214959
 20
0.157160
 30
0.000000
  0
VERTEX
  8
LAYER-1
 10
3.210618
 20
0.158897
 30
0.000000
  0
VERTEX
  8
LAYER-1
 10
3.206279
 20
0.158897
 30
0.000000
  0
VERTEX
  8
LAYER-1
 10
3.201938
 20
0.155425
 30
0.000000
  0
VERTEX
  8
LAYER-1
 10
3.201938
 20
0.151084
 30
0.000000
  0
VERTEX
  8
LAYER-1
 10
3.202806
 20
0.146744
 30
0.000000
  0
VERTEX
  8
LAYER-1
 10
3.207147
 20
0.144139
 30
0.000000
  0
SEQEND
  8
LAYER-1
  0
POLYLINE
  8
LAYER-1
 66
  1
 70
  1
 62
  0
 10
3.615132
 20
0.141535
 30
0.000000
  0
VERTEX
  8
LAYER-1
 10
3.615132
 20
0.141535
 30
0.000000
  0
VERTEX
  8
LAYER-1
 10
3.622076
 20
0.115495
 30
0.000000
  0
VERTEX
  8
LAYER-1
 10
3.647249
 20
0.129383
 30
0.000000
  0
SEQEND
  8
LAYER-1
  0
POLYLINE
  8
LAYER-1
 66
  1
 70
  1
 62
  0
 10
3.781364
 20
0.095528
 30
0.000000
  0
VERTEX
  8
LAYER-1
 10
3.781364
 20
0.095528
 30
0.000000
  0
VERTEX
  8
LAYER-1
 10
3.768343
 20
0.072959
 30
0.000000
  0
VERTEX
  8
LAYER-1
 10
3.798726
 20
0.093792
 30
0.000000
  0
SEQEND
  8
LAYER-1
  0
POLYLINE
  8
LAYER-1
 66
  1
 70
  1
 62
  0
 10
3.666346
 20
0.185802
 30
0.000000
  0
VERTEX
  8
LAYER-1
 10
3.666346
 20
0.185802
 30
0.000000
  0
VERTEX
  8
LAYER-1
 10
3.649854
 20
0.160628
 30
0.000000
  0
VERTEX
  8
LAYER-1
 10
3.664610
 20
0.152816
 30
0.000000
  0
SEQEND
  8
LAYER-1
  0
POLYLINE
  8
LAYER-1
 66
  1
 70
  0
 62
  0
 10
3.581277
 20
0.172785
 30
0.000000
  0
VERTEX
  8
LAYER-1
 10
3.581277
 20
0.172785
 30
0.000000
  0
VERTEX
  8
LAYER-1
 10
3.576936
 20
0.172785
 30
0.000000
  0
VERTEX
  8
LAYER-1
 10
3.573464
 20
0.168445
 30
0.000000
  0
VERTEX
  8
LAYER-1
 10
3.572595
 20
0.163238
 30
0.000000
  0
VERTEX
  8
LAYER-1
 10
3.574332
 20
0.158897
 30
0.000000
  0
VERTEX
  8
LAYER-1
 10
3.578673
 20
0.157160
 30
0.000000
  0
VERTEX
  8
LAYER-1
 10
3.583012
 20
0.157160
 30
0.000000
  0
VERTEX
  8
LAYER-1
 10
3.587352
 20
0.160633
 30
0.000000
  0
VERTEX
  8
LAYER-1
 10
3.587352
 20
0.164973
 30
0.000000
  0
VERTEX
  8
LAYER-1
 10
3.586485
 20
0.169314
 30
0.000000
  0
VERTEX
  8
LAYER-1
 10
3.582144
 20
0.171917
 30
0.000000
  0
SEQEND
  8
LAYER-1
  0
POLYLINE
  8
LAYER-1
 66
  1
 70
  1
 62
  0
 10
3.564783
 20
0.112888
 30
0.000000
  0
VERTEX
  8
LAYER-1
 10
3.564783
 20
0.112888
 30
0.000000
  0
VERTEX
  8
LAYER-1
 10
3.551763
 20
0.090318
 30
0.000000
  0
VERTEX
  8
LAYER-1
 10
3.582144
 20
0.111151
 30
0.000000
  0
SEQEND
  8
LAYER-1
  0
POLYLINE
  8
LAYER-1
 66
  1
 70
  1
 62
  0
 10
3.620238
 20
0.211241
 30
0.000000
  0
VERTEX
  8
LAYER-1
 10
3.620238
 20
0.211241
 30
0.000000
  0
VERTEX
  8
LAYER-1
 10
3.639604
 20
0.198553
 30
0.000000
  0
VERTEX
  8
LAYER-1
 10
3.645614
 20
0.209905
 30
0.000000
  0
SEQEND
  8
LAYER-1
  0
POLYLINE
  8
LAYER-1
 66
  1
 70
  0
 62
  0
 10
3.504887
 20
0.162491
 30
0.000000
  0
VERTEX
  8
LAYER-1
 10
3.504887
 20
0.162491
 30
0.000000
  0
VERTEX
  8
LAYER-1
 10
3.500547
 20
0.162491
 30
0.000000
  0
VERTEX
  8
LAYER-1
 10
3.497074
 20
0.158150
 30
0.000000
  0
VERTEX
  8
LAYER-1
 10
3.496208
 20
0.152942
 30
0.000000
  0
VERTEX
  8
LAYER-1
 10
3.497943
 20
0.148601
 30
0.000000
  0
VERTEX
  8
LAYER-1
 10
3.502283
 20
0.146866
 30
0.000000
  0
VERTEX
  8
LAYER-1
 10
3.506624
 20
0.146866
 30
0.000000
  0
VERTEX
  8
LAYER-1
 10
3.510963
 20
0.150337
 30
0.000000
  0
VERTEX
  8
LAYER-1
 10
3.510963
 20
0.154678
 30
0.000000
  0
VERTEX
  8
LAYER-1
 10
3.510095
 20
0.159019
 30
0.000000
  0
VERTEX
  8
LAYER-1
 10
3.505756
 20
0.161623
 30
0.000000
  0
SEQEND
  8
LAYER-1
  0
POLYLINE
  8
LAYER-1
 66
  1
 70
  0
 62
  0
 10
3.881627
 20
0.134586
 30
0.000000
  0
VERTEX
  8
LAYER-1
 10
3.881627
 20
0.134586
 30
0.000000
  0
VERTEX
  8
LAYER-1
 10
3.877287
 20
0.134586
 30
0.000000
  0
VERTEX
  8
LAYER-1
 10
3.873814
 20
0.130246
 30
0.000000
  0
VERTEX
  8
LAYER-1
 10
3.872946
 20
0.125038
 30
0.000000
  0
VERTEX
  8
LAYER-1
 10
3.874682
 20
0.120697
 30
0.000000
  0
VERTEX
  8
LAYER-1
 10
3.879023
 20
0.118961
 30
0.000000
  0
VERTEX
  8
LAYER-1
 10
3.883363
 20
0.118961
 30
0.000000
  0
VERTEX
  8
LAYER-1
 10
3.887703
 20
0.122433
 30
0.000000
  0
VERTEX
  8
LAYER-1
 10
3.887703
 20
0.126773
 30
0.000000
  0
VERTEX
  8
LAYER-1
 10
3.886835
 20
0.131115
 30
0.000000
  0
VERTEX
  8
LAYER-1
 10
3.882495
 20
0.133719
 30
0.000000
  0
SEQEND
  8
LAYER-1
  0
POLYLINE
  8
LAYER-1
 66
  1
 70
  0
 62
  0
 10
3.613395
 20
0.105943
 30
0.000000
  0
VERTEX
  8
LAYER-1
 10
3.613395
 20
0.105943
 30
0.000000
  0
VERTEX
  8
LAYER-1
 10
3.609055
 20
0.105943
 30
0.000000
  0
VERTEX
  8
LAYER-1
 10
3.605582
 20
0.101602
 30
0.000000
  0
VERTEX
  8
LAYER-1
 10
3.604714
 20
0.096395
 30
0.000000
  0
VERTEX
  8
LAYER-1
 10
3.606450
 20
0.092054
 30
0.000000
  0
VERTEX
  8
LAYER-1
 10
3.610791
 20
0.090318
 30
0.000000
  0
VERTEX
  8
LAYER-1
 10
3.615131
 20
0.090318
 30
0.000000
  0
VERTEX
  8
LAYER-1
 10
3.619471
 20
0.093790
 30
0.000000
  0
VERTEX
  8
LAYER-1
 10
3.619471
 20
0.098130
 30
0.000000
  0
VERTEX
  8
LAYER-1
 10
3.618604
 20
0.102471
 30
0.000000
  0
VERTEX
  8
LAYER-1
 10
3.614263
 20
0.105075
 30
0.000000
  0
SEQEND
  8
LAYER-1
  0
POLYLINE
  8
LAYER-1
 66
  1
 70
  1
 62
  0
 10
3.411572
 20
0.165407
 30
0.000000
  0
VERTEX
  8
LAYER-1
 10
3.411572
 20
0.165407
 30
0.000000
  0
VERTEX
  8
LAYER-1
 10
3.385532
 20
0.158463
 30
0.000000
  0
VERTEX
  8
LAYER-1
 10
3.399419
 20
0.133289
 30
0.000000
  0
SEQEND
  8
LAYER-1
  0
POLYLINE
  8
LAYER-1
 66
  1
 70
  1
 62
  0
 10
3.318692
 20
0.114191
 30
0.000000
  0
VERTEX
  8
LAYER-1
 10
3.318692
 20
0.114191
 30
0.000000
  0
VERTEX
  8
LAYER-1
 10
3.296121
 20
0.127213
 30
0.000000
  0
VERTEX
  8
LAYER-1
 10
3.316954
 20
0.096830
 30
0.000000
  0
SEQEND
  8
LAYER-1
  0
POLYLINE
  8
LAYER-1
 66
  1
 70
  1
 62
  0
 10
3.282233
 20
0.159327
 30
0.000000
  0
VERTEX
  8
LAYER-1
 10
3.282233
 20
0.159327
 30
0.000000
  0
VERTEX
  8
LAYER-1
 10
3.257059
 20
0.175820
 30
0.000000
  0
VERTEX
  8
LAYER-1
 10
3.249247
 20
0.161063
 30
0.000000
  0
SEQEND
  8
LAYER-1
  0
POLYLINE
  8
LAYER-1
 66
  1
 70
  0
 62
  0
 10
3.442822
 20
0.214884
 30
0.000000
  0
VERTEX
  8
LAYER-1
 10
3.442822
 20
0.214884
 30
0.000000
  0
VERTEX
  8
LAYER-1
 10
3.442822
 20
0.219226
 30
0.000000
  0
VERTEX
  8
LAYER-1
 10
3.438482
 20
0.222697
 30
0.000000
  0
VERTEX
  8
LAYER-1
 10
3.433274
 20
0.223565
 30
0.000000
  0
VERTEX
  8
LAYER-1
 10
3.428933
 20
0.221829
 30
0.000000
  0
VERTEX
  8
LAYER-1
 10
3.427197
 20
0.217489
 30
0.000000
  0
VERTEX
  8
LAYER-1
 10
3.427197
 20
0.213148
 30
0.000000
  0
VERTEX
  8
LAYER-1
 10
3.430669
 20
0.208808
 30
0.000000
  0
VERTEX
  8
LAYER-1
 10
3.435010
 20
0.208808
 30
0.000000
  0
VERTEX
  8
LAYER-1
 10
3.439351
 20
0.209676
 30
0.000000
  0
VERTEX
  8
LAYER-1
 10
3.441956
 20
0.214016
 30
0.000000
  0
SEQEND
  8
LAYER-1
  0
POLYLINE
  8
LAYER-1
 66
  1
 70
  1
 62
  0
 10
3.375115
 20
0.177559
 30
0.000000
  0
VERTEX
  8
LAYER-1
 10
3.375115
 20
0.177559
 30
0.000000
  0
VERTEX
  8
LAYER-1
 10
3.352545
 20
0.190579
 30
0.000000
  0
VERTEX
  8
LAYER-1
 10
3.373377
 20
0.160198
 30
0.000000
  0
SEQEND
  8
LAYER-1
  0
POLYLINE
  8
LAYER-1
 66
  1
 70
  1
 62
  0
 10
3.326769
 20
0.184600
 30
0.000000
  0
VERTEX
  8
LAYER-1
 10
3.326769
 20
0.184600
 30
0.000000
  0
VERTEX
  8
LAYER-1
 10
3.314083
 20
0.165237
 30
0.000000
  0
VERTEX
  8
LAYER-1
 10
3.325433
 20
0.159225
 30
0.000000
  0
SEQEND
  8
LAYER-1
  0
POLYLINE
  8
LAYER-1
 66
  1
 70
  0
 62
  0
 10
3.444558
 20
0.087281
 30
0.000000
  0
VERTEX
  8
LAYER-1
 10
3.444558
 20
0.087281
 30
0.000000
  0
VERTEX
  8
LAYER-1
 10
3.444558
 20
0.091621
 30
0.000000
  0
VERTEX
  8
LAYER-1
 10
3.440218
 20
0.095094
 30
0.000000
  0
VERTEX
  8
LAYER-1
 10
3.435010
 20
0.095961
 30
0.000000
  0
VERTEX
  8
LAYER-1
 10
3.430669
 20
0.094226
 30
0.000000
  0
VERTEX
  8
LAYER-1
 10
3.428933
 20
0.089884
 30
0.000000
  0
VERTEX
  8
LAYER-1
 10
3.428933
 20
0.085544
 30
0.000000
  0
VERTEX
  8
LAYER-1
 10
3.432405
 20
0.081204
 30
0.000000
  0
VERTEX
  8
LAYER-1
 10
3.436746
 20
0.081204
 30
0.000000
  0
VERTEX
  8
LAYER-1
 10
3.441087
 20
0.082072
 30
0.000000
  0
VERTEX
  8
LAYER-1
 10
3.443691
 20
0.086413
 30
0.000000
  0
SEQEND
  8
LAYER-1
  0
POLYLINE
  8
LAYER-1
 66
  1
 70
  0
 62
  0
 10
3.362961
 20
0.088148
 30
0.000000
  0
VERTEX
  8
LAYER-1
 10
3.362961
 20
0.088148
 30
0.000000
  0
VERTEX
  8
LAYER-1
 10
3.362961
 20
0.092489
 30
0.000000
  0
VERTEX
  8
LAYER-1
 10
3.358621
 20
0.095961
 30
0.000000
  0
VERTEX
  8
LAYER-1
 10
3.353413
 20
0.096829
 30
0.000000
  0
VERTEX
  8
LAYER-1
 10
3.349072
 20
0.095094
 30
0.000000
  0
VERTEX
  8
LAYER-1
 10
3.347337
 20
0.090752
 30
0.000000
  0
VERTEX
  8
LAYER-1
 10
3.347337
 20
0.086413
 30
0.000000
  0
VERTEX
  8
LAYER-1
 10
3.350808
 20
0.082072
 30
0.000000
  0
VERTEX
  8
LAYER-1
 10
3.355149
 20
0.082072
 30
0.000000
  0
VERTEX
  8
LAYER-1
 10
3.359489
 20
0.082940
 30
0.000000
  0
VERTEX
  8
LAYER-1
 10
3.362094
 20
0.087281
 30
0.000000
  0
SEQEND
  8
LAYER-1
  0
POLYLINE
  8
LAYER-1
 66
  1
 70
  0
 62
  0
 10
3.292650
 20
0.198391
 30
0.000000
  0
VERTEX
  8
LAYER-1
 10
3.292650
 20
0.198391
 30
0.000000
  0
VERTEX
  8
LAYER-1
 10
3.292650
 20
0.202732
 30
0.000000
  0
VERTEX
  8
LAYER-1
 10
3.288309
 20
0.206203
 30
0.000000
  0
VERTEX
  8
LAYER-1
 10
3.283101
 20
0.207071
 30
0.000000
  0
VERTEX
  8
LAYER-1
 10
3.278760
 20
0.205335
 30
0.000000
  0
VERTEX
  8
LAYER-1
 10
3.277025
 20
0.200995
 30
0.000000
  0
VERTEX
  8
LAYER-1
 10
3.277025
 20
0.196654
 30
0.000000
  0
VERTEX
  8
LAYER-1
 10
3.280496
 20
0.192314
 30
0.000000
  0
VERTEX
  8
LAYER-1
 10
3.284837
 20
0.192314
 30
0.000000
  0
VERTEX
  8
LAYER-1
 10
3.289178
 20
0.193182
 30
0.000000
  0
VERTEX
  8
LAYER-1
 10
3.291782
 20
0.197522
 30
0.000000
  0
SEQEND
  8
LAYER-1
  0
POLYLINE
  8
LAYER-1
 66
  1
 70
  1
 62
  0
 10
4.075201
 20
0.187976
 30
0.000000
  0
VERTEX
  8
LAYER-1
 10
4.075201
 20
0.187976
 30
0.000000
  0
VERTEX
  8
LAYER-1
 10
4.082146
 20
0.161935
 30
0.000000
  0
VERTEX
  8
LAYER-1
 10
4.107319
 20
0.175823
 30
0.000000
  0
SEQEND
  8
LAYER-1
  0
POLYLINE
  8
LAYER-1
 66
  1
 70
  1
 62
  0
 10
4.237528
 20
0.216621
 30
0.000000
  0
VERTEX
  8
LAYER-1
 10
4.237528
 20
0.216621
 30
0.000000
  0
VERTEX
  8
LAYER-1
 10
4.224507
 20
0.194052
 30
0.000000
  0
VERTEX
  8
LAYER-1
 10
4.254889
 20
0.214884
 30
0.000000
  0
SEQEND
  8
LAYER-1
  0
POLYLINE
  8
LAYER-1
 66
  1
 70
  1
 62
  0
 10
4.216696
 20
0.131551
 30
0.000000
  0
VERTEX
  8
LAYER-1
 10
4.216696
 20
0.131551
 30
0.000000
  0
VERTEX
  8
LAYER-1
 10
4.200203
 20
0.106377
 30
0.000000
  0
VERTEX
  8
LAYER-1
 10
4.214960
 20
0.098564
 30
0.000000
  0
SEQEND
  8
LAYER-1
  0
POLYLINE
  8
LAYER-1
 66
  1
 70
  0
 62
  0
 10
4.025723
 20
0.219226
 30
0.000000
  0
VERTEX
  8
LAYER-1
 10
4.025723
 20
0.219226
 30
0.000000
  0
VERTEX
  8
LAYER-1
 10
4.021382
 20
0.219226
 30
0.000000
  0
VERTEX
  8
LAYER-1
 10
4.017910
 20
0.214884
 30
0.000000
  0
VERTEX
  8
LAYER-1
 10
4.017042
 20
0.209677
 30
0.000000
  0
VERTEX
  8
LAYER-1
 10
4.018778
 20
0.205336
 30
0.000000
  0
VERTEX
  8
LAYER-1
 10
4.023119
 20
0.203601
 30
0.000000
  0
VERTEX
  8
LAYER-1
 10
4.027458
 20
0.203601
 30
0.000000
  0
VERTEX
  8
LAYER-1
 10
4.031799
 20
0.207072
 30
0.000000
  0
VERTEX
  8
LAYER-1
 10
4.031799
 20
0.211413
 30
0.000000
  0
VERTEX
  8
LAYER-1
 10
4.030931
 20
0.215753
 30
0.000000
  0
VERTEX
  8
LAYER-1
 10
4.026591
 20
0.218358
 30
0.000000
  0
SEQEND
  8
LAYER-1
  0
POLYLINE
  8
LAYER-1
 66
  1
 70
  1
 62
  0
 10
4.046989
 20
0.151082
 30
0.000000
  0
VERTEX
  8
LAYER-1
 10
4.046989
 20
0.151082
 30
0.000000
  0
VERTEX
  8
LAYER-1
 10
4.069558
 20
0.138062
 30
0.000000
  0
VERTEX
  8
LAYER-1
 10
4.048726
 20
0.168443
 30
0.000000
  0
SEQEND
  8
LAYER-1
  0
POLYLINE
  8
LAYER-1
 66
  1
 70
  1
 62
  0
 10
4.163643
 20
0.143102
 30
0.000000
  0
VERTEX
  8
LAYER-1
 10
4.163643
 20
0.143102
 30
0.000000
  0
VERTEX
  8
LAYER-1
 10
4.183008
 20
0.130415
 30
0.000000
  0
VERTEX
  8
LAYER-1
 10
4.189018
 20
0.141766
 30
0.000000
  0
SEQEND
  8
LAYER-1
  0
POLYLINE
  8
LAYER-1
 66
  1
 70
  0
 62
  0
 10
4.177632
 20
0.220961
 30
0.000000
  0
VERTEX
  8
LAYER-1
 10
4.177632
 20
0.220961
 30
0.000000
  0
VERTEX
  8
LAYER-1
 10
4.173292
 20
0.220961
 30
0.000000
  0
VERTEX
  8
LAYER-1
 10
4.169820
 20
0.216621
 30
0.000000
  0
VERTEX
  8
LAYER-1
 10
4.168952
 20
0.211413
 30
0.000000
  0
VERTEX
  8
LAYER-1
 10
4.170688
 20
0.207072
 30
0.000000
  0
VERTEX
  8
LAYER-1
 10
4.175028
 20
0.205336
 30
0.000000
  0
VERTEX
  8
LAYER-1
 10
4.179369
 20
0.205336
 30
0.000000
  0
VERTEX
  8
LAYER-1
 10
4.183709
 20
0.208808
 30
0.000000
  0
VERTEX
  8
LAYER-1
 10
4.183709
 20
0.213148
 30
0.000000
  0
VERTEX
  8
LAYER-1
 10
4.182841
 20
0.217489
 30
0.000000
  0
VERTEX
  8
LAYER-1
 10
4.178500
 20
0.220094
 30
0.000000
  0
SEQEND
  8
LAYER-1
  0
POLYLINE
  8
LAYER-1
 66
  1
 70
  0
 62
  0
 10
4.261835
 20
0.094224
 30
0.000000
  0
VERTEX
  8
LAYER-1
 10
4.261835
 20
0.094224
 30
0.000000
  0
VERTEX
  8
LAYER-1
 10
4.257494
 20
0.094224
 30
0.000000
  0
VERTEX
  8
LAYER-1
 10
4.254022
 20
0.089884
 30
0.000000
  0
VERTEX
  8
LAYER-1
 10
4.253154
 20
0.084676
 30
0.000000
  0
VERTEX
  8
LAYER-1
 10
4.254890
 20
0.080335
 30
0.000000
  0
VERTEX
  8
LAYER-1
 10
4.259230
 20
0.078599
 30
0.000000
  0
VERTEX
  8
LAYER-1
 10
4.263571
 20
0.078599
 30
0.000000
  0
VERTEX
  8
LAYER-1
 10
4.267911
 20
0.082071
 30
0.000000
  0
VERTEX
  8
LAYER-1
 10
4.267911
 20
0.086411
 30
0.000000
  0
VERTEX
  8
LAYER-1
 10
4.267042
 20
0.090752
 30
0.000000
  0
VERTEX
  8
LAYER-1
 10
4.262703
 20
0.093357
 30
0.000000
  0
SEQEND
  8
LAYER-1
  0
POLYLINE
  8
LAYER-1
 66
  1
 70
  0
 62
  0
 10
4.108188
 20
0.148910
 30
0.000000
  0
VERTEX
  8
LAYER-1
 10
4.108188
 20
0.148910
 30
0.000000
  0
VERTEX
  8
LAYER-1
 10
4.103848
 20
0.148910
 30
0.000000
  0
VERTEX
  8
LAYER-1
 10
4.100376
 20
0.144569
 30
0.000000
  0
VERTEX
  8
LAYER-1
 10
4.099508
 20
0.139361
 30
0.000000
  0
VERTEX
  8
LAYER-1
 10
4.101244
 20
0.135021
 30
0.000000
  0
VERTEX
  8
LAYER-1
 10
4.105583
 20
0.133285
 30
0.000000
  0
VERTEX
  8
LAYER-1
 10
4.109924
 20
0.133285
 30
0.000000
  0
VERTEX
  8
LAYER-1
 10
4.114265
 20
0.136757
 30
0.000000
  0
VERTEX
  8
LAYER-1
 10
4.114265
 20
0.141097
 30
0.000000
  0
VERTEX
  8
LAYER-1
 10
4.113396
 20
0.145438
 30
0.000000
  0
VERTEX
  8
LAYER-1
 10
4.109056
 20
0.148042
 30
0.000000
  0
SEQEND
  8
LAYER-1
  0
POLYLINE
  8
LAYER-1
 66
  1
 70
  1
 62
  0
 10
3.943258
 20
0.157591
 30
0.000000
  0
VERTEX
  8
LAYER-1
 10
3.943258
 20
0.157591
 30
0.000000
  0
VERTEX
  8
LAYER-1
 10
3.936313
 20
0.183631
 30
0.000000
  0
VERTEX
  8
LAYER-1
 10
3.911140
 20
0.169745
 30
0.000000
  0
SEQEND
  8
LAYER-1
  0
POLYLINE
  8
LAYER-1
 66
  1
 70
  1
 62
  0
 10
3.532233
 20
0.189273
 30
0.000000
  0
VERTEX
  8
LAYER-1
 10
3.532233
 20
0.189273
 30
0.000000
  0
VERTEX
  8
LAYER-1
 10
3.545253
 20
0.211845
 30
0.000000
  0
VERTEX
  8
LAYER-1
 10
3.514872
 20
0.191011
 30
0.000000
  0
SEQEND
  8
LAYER-1
  0
POLYLINE
  8
LAYER-1
 66
  1
 70
  1
 62
  0
 10
3.829542
 20
0.182766
 30
0.000000
  0
VERTEX
  8
LAYER-1
 10
3.829542
 20
0.182766
 30
0.000000
  0
VERTEX
  8
LAYER-1
 10
3.846035
 20
0.207939
 30
0.000000
  0
VERTEX
  8
LAYER-1
 10
3.831277
 20
0.215752
 30
0.000000
  0
SEQEND
  8
LAYER-1
  0
POLYLINE
  8
LAYER-1
 66
  1
 70
  0
 62
  0
 10
3.992736
 20
0.126341
 30
0.000000
  0
VERTEX
  8
LAYER-1
 10
3.992736
 20
0.126341
 30
0.000000
  0
VERTEX
  8
LAYER-1
 10
3.997077
 20
0.126341
 30
0.000000
  0
VERTEX
  8
LAYER-1
 10
4.000549
 20
0.130682
 30
0.000000
  0
VERTEX
  8
LAYER-1
 10
4.001418
 20
0.135890
 30
0.000000
  0
VERTEX
  8
LAYER-1
 10
3.999682
 20
0.140230
 30
0.000000
  0
VERTEX
  8
LAYER-1
 10
3.995341
 20
0.141966
 30
0.000000
  0
VERTEX
  8
LAYER-1
 10
3.991001
 20
0.141966
 30
0.000000
  0
VERTEX
  8
LAYER-1
 10
3.986660
 20
0.138495
 30
0.000000
  0
VERTEX
  8
LAYER-1
 10
3.986660
 20
0.134154
 30
0.000000
  0
VERTEX
  8
LAYER-1
 10
3.987529
 20
0.129813
 30
0.000000
  0
VERTEX
  8
LAYER-1
 10
3.991870
 20
0.127208
 30
0.000000
  0
SEQEND
  8
LAYER-1
  0
POLYLINE
  8
LAYER-1
 66
  1
 70
  1
 62
  0
 10
3.946729
 20
0.122871
 30
0.000000
  0
VERTEX
  8
LAYER-1
 10
3.946729
 20
0.122871
 30
0.000000
  0
VERTEX
  8
LAYER-1
 10
3.959751
 20
0.145441
 30
0.000000
  0
VERTEX
  8
LAYER-1
 10
3.929369
 20
0.124608
 30
0.000000
  0
SEQEND
  8
LAYER-1
  0
POLYLINE
  8
LAYER-1
 66
  1
 70
  1
 62
  0
 10
3.892143
 20
0.164272
 30
0.000000
  0
VERTEX
  8
LAYER-1
 10
3.892143
 20
0.164272
 30
0.000000
  0
VERTEX
  8
LAYER-1
 10
3.872779
 20
0.176959
 30
0.000000
  0
VERTEX
  8
LAYER-1
 10
3.866767
 20
0.165608
 30
0.000000
  0
SEQEND
  8
LAYER-1
  0
POLYLINE
  8
LAYER-1
 66
  1
 70
  0
 62
  0
 10
3.869037
 20
0.060927
 30
0.000000
  0
VERTEX
  8
LAYER-1
 10
3.869037
 20
0.060927
 30
0.000000
  0
VERTEX
  8
LAYER-1
 10
3.873378
 20
0.060927
 30
0.000000
  0
VERTEX
  8
LAYER-1
 10
3.876849
 20
0.065268
 30
0.000000
  0
VERTEX
  8
LAYER-1
 10
3.877719
 20
0.070475
 30
0.000000
  0
VERTEX
  8
LAYER-1
 10
3.875982
 20
0.074816
 30
0.000000
  0
VERTEX
  8
LAYER-1
 10
3.871642
 20
0.076552
 30
0.000000
  0
VERTEX
  8
LAYER-1
 10
3.867301
 20
0.076552
 30
0.000000
  0
VERTEX
  8
LAYER-1
 10
3.862960
 20
0.073080
 30
0.000000
  0
VERTEX
  8
LAYER-1
 10
3.862960
 20
0.068739
 30
0.000000
  0
VERTEX
  8
LAYER-1
 10
3.863829
 20
0.064399
 30
0.000000
  0
VERTEX
  8
LAYER-1
 10
3.868170
 20
0.061794
 30
0.000000
  0
SEQEND
  8
LAYER-1
  0
POLYLINE
  8
LAYER-1
 66
  1
 70
  0
 62
  0
 10
3.779194
 20
0.203722
 30
0.000000
  0
VERTEX
  8
LAYER-1
 10
3.779194
 20
0.203722
 30
0.000000
  0
VERTEX
  8
LAYER-1
 10
3.783535
 20
0.203722
 30
0.000000
  0
VERTEX
  8
LAYER-1
 10
3.787006
 20
0.208062
 30
0.000000
  0
VERTEX
  8
LAYER-1
 10
3.787873
 20
0.213270
 30
0.000000
  0
VERTEX
  8
LAYER-1
 10
3.786137
 20
0.217611
 30
0.000000
  0
VERTEX
  8
LAYER-1
 10
3.781797
 20
0.219347
 30
0.000000
  0
VERTEX
  8
LAYER-1
 10
3.777458
 20
0.219347
 30
0.000000
  0
VERTEX
  8
LAYER-1
 10
3.773117
 20
0.215875
 30
0.000000
  0
VERTEX
  8
LAYER-1
 10
3.773117
 20
0.211534
 30
0.000000
  0
VERTEX
  8
LAYER-1
 10
3.773984
 20
0.207193
 30
0.000000
  0
VERTEX
  8
LAYER-1
 10
3.778325
 20
0.204588
 30
0.000000
  0
SEQEND
  8
LAYER-1
  0
POLYLINE
  8
LAYER-1
 66
  1
 70
  0
 62
  0
 10
3.941522
 20
0.196654
 30
0.000000
  0
VERTEX
  8
LAYER-1
 10
3.941522
 20
0.196654
 30
0.000000
  0
VERTEX
  8
LAYER-1
 10
3.945863
 20
0.196654
 30
0.000000
  0
VERTEX
  8
LAYER-1
 10
3.949334
 20
0.200996
 30
0.000000
  0
VERTEX
  8
LAYER-1
 10
3.950201
 20
0.206203
 30
0.000000
  0
VERTEX
  8
LAYER-1
 10
3.948466
 20
0.210544
 30
0.000000
  0
VERTEX
  8
LAYER-1
 10
3.944125
 20
0.212279
 30
0.000000
  0
VERTEX
  8
LAYER-1
 10
3.939786
 20
0.212279
 30
0.000000
  0
VERTEX
  8
LAYER-1
 10
3.935445
 20
0.208808
 30
0.000000
  0
VERTEX
  8
LAYER-1
 10
3.935445
 20
0.204467
 30
0.000000
  0
VERTEX
  8
LAYER-1
 10
3.936312
 20
0.200127
 30
0.000000
  0
VERTEX
  8
LAYER-1
 10
3.940653
 20
0.197522
 30
0.000000
  0
SEQEND
  8
LAYER-1
  0
POLYLINE
  8
LAYER-1
 66
  1
 70
  1
 62
  0
 10
4.697597
 20
0.165841
 30
0.000000
  0
VERTEX
  8
LAYER-1
 10
4.697597
 20
0.165841
 30
0.000000
  0
VERTEX
  8
LAYER-1
 10
4.704542
 20
0.139800
 30
0.000000
  0
VERTEX
  8
LAYER-1
 10
4.729715
 20
0.153688
 30
0.000000
  0
SEQEND
  8
LAYER-1
  0
POLYLINE
  8
LAYER-1
 66
  1
 70
  1
 62
  0
 10
4.824332
 20
0.201431
 30
0.000000
  0
VERTEX
  8
LAYER-1
 10
4.824332
 20
0.201431
 30
0.000000
  0
VERTEX
  8
LAYER-1
 10
4.811312
 20
0.178863
 30
0.000000
  0
VERTEX
  8
LAYER-1
 10
4.841693
 20
0.199694
 30
0.000000
  0
SEQEND
  8
LAYER-1
  0
POLYLINE
  8
LAYER-1
 66
  1
 70
  1
 62
  0
 10
4.499682
 20
0.190147
 30
0.000000
  0
VERTEX
  8
LAYER-1
 10
4.499682
 20
0.190147
 30
0.000000
  0
VERTEX
  8
LAYER-1
 10
4.483189
 20
0.164973
 30
0.000000
  0
VERTEX
  8
LAYER-1
 10
4.497946
 20
0.157160
 30
0.000000
  0
SEQEND
  8
LAYER-1
  0
POLYLINE
  8
LAYER-1
 66
  1
 70
  0
 62
  0
 10
4.609924
 20
0.182336
 30
0.000000
  0
VERTEX
  8
LAYER-1
 10
4.609924
 20
0.182336
 30
0.000000
  0
VERTEX
  8
LAYER-1
 10
4.605583
 20
0.182336
 30
0.000000
  0
VERTEX
  8
LAYER-1
 10
4.602111
 20
0.177996
 30
0.000000
  0
VERTEX
  8
LAYER-1
 10
4.601242
 20
0.172789
 30
0.000000
  0
VERTEX
  8
LAYER-1
 10
4.602979
 20
0.168448
 30
0.000000
  0
VERTEX
  8
LAYER-1
 10
4.607319
 20
0.166712
 30
0.000000
  0
VERTEX
  8
LAYER-1
 10
4.611660
 20
0.166712
 30
0.000000
  0
VERTEX
  8
LAYER-1
 10
4.616000
 20
0.170184
 30
0.000000
  0
VERTEX
  8
LAYER-1
 10
4.616000
 20
0.174524
 30
0.000000
  0
VERTEX
  8
LAYER-1
 10
4.615132
 20
0.178865
 30
0.000000
  0
VERTEX
  8
LAYER-1
 10
4.610791
 20
0.181468
 30
0.000000
  0
SEQEND
  8
LAYER-1
  0
POLYLINE
  8
LAYER-1
 66
  1
 70
  1
 62
  0
 10
4.639438
 20
0.136327
 30
0.000000
  0
VERTEX
  8
LAYER-1
 10
4.639438
 20
0.136327
 30
0.000000
  0
VERTEX
  8
LAYER-1
 10
4.626417
 20
0.113758
 30
0.000000
  0
VERTEX
  8
LAYER-1
 10
4.656799
 20
0.134590
 30
0.000000
  0
SEQEND
  8
LAYER-1
  0
POLYLINE
  8
LAYER-1
 66
  1
 70
  1
 62
  0
 10
4.846736
 20
0.136859
 30
0.000000
  0
VERTEX
  8
LAYER-1
 10
4.846736
 20
0.136859
 30
0.000000
  0
VERTEX
  8
LAYER-1
 10
4.834049
 20
0.117494
 30
0.000000
  0
VERTEX
  8
LAYER-1
 10
4.845400
 20
0.111483
 30
0.000000
  0
SEQEND
  8
LAYER-1
  0
POLYLINE
  8
LAYER-1
 66
  1
 70
  0
 62
  0
 10
4.754019
 20
0.205771
 30
0.000000
  0
VERTEX
  8
LAYER-1
 10
4.754019
 20
0.205771
 30
0.000000
  0
VERTEX
  8
LAYER-1
 10
4.749679
 20
0.205771
 30
0.000000
  0
VERTEX
  8
LAYER-1
 10
4.746207
 20
0.201430
 30
0.000000
  0
VERTEX
  8
LAYER-1
 10
4.745339
 20
0.196222
 30
0.000000
  0
VERTEX
  8
LAYER-1
 10
4.747075
 20
0.191882
 30
0.000000
  0
VERTEX
  8
LAYER-1
 10
4.751414
 20
0.190146
 30
0.000000
  0
VERTEX
  8
LAYER-1
 10
4.755755
 20
0.190146
 30
0.000000
  0
VERTEX
  8
LAYER-1
 10
4.760096
 20
0.193617
 30
0.000000
  0
VERTEX
  8
LAYER-1
 10
4.760096
 20
0.197958
 30
0.000000
  0
VERTEX
  8
LAYER-1
 10
4.759227
 20
0.202298
 30
0.000000
  0
VERTEX
  8
LAYER-1
 10
4.754887
 20
0.204903
 30
0.000000
  0
SEQEND
  8
LAYER-1
  0
POLYLINE
  8
LAYER-1
 66
  1
 70
  0
 62
  0
 10
4.541348
 20
0.196221
 30
0.000000
  0
VERTEX
  8
LAYER-1
 10
4.541348
 20
0.196221
 30
0.000000
  0
VERTEX
  8
LAYER-1
 10
4.537008
 20
0.196221
 30
0.000000
  0
VERTEX
  8
LAYER-1
 10
4.533536
 20
0.191881
 30
0.000000
  0
VERTEX
  8
LAYER-1
 10
4.532668
 20
0.186673
 30
0.000000
  0
VERTEX
  8
LAYER-1
 10
4.534405
 20
0.182332
 30
0.000000
  0
VERTEX
  8
LAYER-1
 10
4.538745
 20
0.180596
 30
0.000000
  0
VERTEX
  8
LAYER-1
 10
4.543085
 20
0.180596
 30
0.000000
  0
VERTEX
  8
LAYER-1
 10
4.547425
 20
0.184068
 30
0.000000
  0
VERTEX
  8
LAYER-1
 10
4.547425
 20
0.188409
 30
0.000000
  0
VERTEX
  8
LAYER-1
 10
4.546557
 20
0.192750
 30
0.000000
  0
VERTEX
  8
LAYER-1
 10
4.542217
 20
0.195353
 30
0.000000
  0
SEQEND
  8
LAYER-1
  0
POLYLINE
  8
LAYER-1
 66
  1
 70
  0
 62
  0
 10
4.788744
 20
0.168442
 30
0.000000
  0
VERTEX
  8
LAYER-1
 10
4.788744
 20
0.168442
 30
0.000000
  0
VERTEX
  8
LAYER-1
 10
4.784404
 20
0.168442
 30
0.000000
  0
VERTEX
  8
LAYER-1
 10
4.780932
 20
0.164101
 30
0.000000
  0
VERTEX
  8
LAYER-1
 10
4.780064
 20
0.158894
 30
0.000000
  0
VERTEX
  8
LAYER-1
 10
4.781801
 20
0.154553
 30
0.000000
  0
VERTEX
  8
LAYER-1
 10
4.786141
 20
0.152817
 30
0.000000
  0
VERTEX
  8
LAYER-1
 10
4.790481
 20
0.152817
 30
0.000000
  0
VERTEX
  8
LAYER-1
 10
4.794821
 20
0.156289
 30
0.000000
  0
VERTEX
  8
LAYER-1
 10
4.794821
 20
0.160629
 30
0.000000
  0
VERTEX
  8
LAYER-1
 10
4.793954
 20
0.164970
 30
0.000000
  0
VERTEX
  8
LAYER-1
 10
4.789613
 20
0.167574
 30
0.000000
  0
SEQEND
  8
LAYER-1
  0
POLYLINE
  8
LAYER-1
 66
  1
 70
  1
 62
  0
 10
4.403327
 20
0.115058
 30
0.000000
  0
VERTEX
  8
LAYER-1
 10
4.403327
 20
0.115058
 30
0.000000
  0
VERTEX
  8
LAYER-1
 10
4.396383
 20
0.141098
 30
0.000000
  0
VERTEX
  8
LAYER-1
 10
4.371209
 20
0.127211
 30
0.000000
  0
SEQEND
  8
LAYER-1
  0
POLYLINE
  8
LAYER-1
 66
  1
 70
  1
 62
  0
 10
4.251417
 20
0.155854
 30
0.000000
  0
VERTEX
  8
LAYER-1
 10
4.251417
 20
0.155854
 30
0.000000
  0
VERTEX
  8
LAYER-1
 10
4.264439
 20
0.178425
 30
0.000000
  0
VERTEX
  8
LAYER-1
 10
4.234057
 20
0.157592
 30
0.000000
  0
SEQEND
  8
LAYER-1
  0
POLYLINE
  8
LAYER-1
 66
  1
 70
  1
 62
  0
 10
4.334752
 20
0.115929
 30
0.000000
  0
VERTEX
  8
LAYER-1
 10
4.334752
 20
0.115929
 30
0.000000
  0
VERTEX
  8
LAYER-1
 10
4.351245
 20
0.141102
 30
0.000000
  0
VERTEX
  8
LAYER-1
 10
4.336488
 20
0.148915
 30
0.000000
  0
SEQEND
  8
LAYER-1
  0
POLYLINE
  8
LAYER-1
 66
  1
 70
  0
 62
  0
 10
4.509232
 20
0.117666
 30
0.000000
  0
VERTEX
  8
LAYER-1
 10
4.509232
 20
0.117666
 30
0.000000
  0
VERTEX
  8
LAYER-1
 10
4.513572
 20
0.117666
 30
0.000000
  0
VERTEX
  8
LAYER-1
 10
4.517044
 20
0.122007
 30
0.000000
  0
VERTEX
  8
LAYER-1
 10
4.517912
 20
0.127214
 30
0.000000
  0
VERTEX
  8
LAYER-1
 10
4.516176
 20
0.131554
 30
0.000000
  0
VERTEX
  8
LAYER-1
 10
4.511835
 20
0.133291
 30
0.000000
  0
VERTEX
  8
LAYER-1
 10
4.507495
 20
0.133291
 30
0.000000
  0
VERTEX
  8
LAYER-1
 10
4.503155
 20
0.129819
 30
0.000000
  0
VERTEX
  8
LAYER-1
 10
4.503155
 20
0.125478
 30
0.000000
  0
VERTEX
  8
LAYER-1
 10
4.504023
 20
0.121138
 30
0.000000
  0
VERTEX
  8
LAYER-1
 10
4.508364
 20
0.118533
 30
0.000000
  0
SEQEND
  8
LAYER-1
  0
POLYLINE
  8
LAYER-1
 66
  1
 70
  1
 62
  0
 10
4.460619
 20
0.132421
 30
0.000000
  0
VERTEX
  8
LAYER-1
 10
4.460619
 20
0.132421
 30
0.000000
  0
VERTEX
  8
LAYER-1
 10
4.473640
 20
0.154991
 30
0.000000
  0
VERTEX
  8
LAYER-1
 10
4.443258
 20
0.134159
 30
0.000000
  0
SEQEND
  8
LAYER-1
  0
POLYLINE
  8
LAYER-1
 66
  1
 70
  1
 62
  0
 10
4.349675
 20
0.168346
 30
0.000000
  0
VERTEX
  8
LAYER-1
 10
4.349675
 20
0.168346
 30
0.000000
  0
VERTEX
  8
LAYER-1
 10
4.362361
 20
0.187709
 30
0.000000
  0
VERTEX
  8
LAYER-1
 10
4.351011
 20
0.193720
 30
0.000000
  0
SEQEND
  8
LAYER-1
  0
POLYLINE
  8
LAYER-1
 66
  1
 70
  0
 62
  0
 10
4.305323
 20
0.199816
 30
0.000000
  0
VERTEX
  8
LAYER-1
 10
4.305323
 20
0.199816
 30
0.000000
  0
VERTEX
  8
LAYER-1
 10
4.309663
 20
0.199816
 30
0.000000
  0
VERTEX
  8
LAYER-1
 10
4.313135
 20
0.204157
 30
0.000000
  0
VERTEX
  8
LAYER-1
 10
4.314003
 20
0.209364
 30
0.000000
  0
VERTEX
  8
LAYER-1
 10
4.312268
 20
0.213705
 30
0.000000
  0
VERTEX
  8
LAYER-1
 10
4.307927
 20
0.215441
 30
0.000000
  0
VERTEX
  8
LAYER-1
 10
4.303586
 20
0.215441
 30
0.000000
  0
VERTEX
  8
LAYER-1
 10
4.299246
 20
0.211969
 30
0.000000
  0
VERTEX
  8
LAYER-1
 10
4.299246
 20
0.207629
 30
0.000000
  0
VERTEX
  8
LAYER-1
 10
4.300114
 20
0.203288
 30
0.000000
  0
VERTEX
  8
LAYER-1
 10
4.304455
 20
0.200683
 30
0.000000
  0
SEQEND
  8
LAYER-1
  0
POLYLINE
  8
LAYER-1
 66
  1
 70
  0
 62
  0
 10
4.282667
 20
0.122005
 30
0.000000
  0
VERTEX
  8
LAYER-1
 10
4.282667
 20
0.122005
 30
0.000000
  0
VERTEX
  8
LAYER-1
 10
4.287008
 20
0.122005
 30
0.000000
  0
VERTEX
  8
LAYER-1
 10
4.290480
 20
0.126346
 30
0.000000
  0
VERTEX
  8
LAYER-1
 10
4.291348
 20
0.131554
 30
0.000000
  0
VERTEX
  8
LAYER-1
 10
4.289612
 20
0.135895
 30
0.000000
  0
VERTEX
  8
LAYER-1
 10
4.285271
 20
0.137630
 30
0.000000
  0
VERTEX
  8
LAYER-1
 10
4.280932
 20
0.137630
 30
0.000000
  0
VERTEX
  8
LAYER-1
 10
4.276591
 20
0.134159
 30
0.000000
  0
VERTEX
  8
LAYER-1
 10
4.276591
 20
0.129818
 30
0.000000
  0
VERTEX
  8
LAYER-1
 10
4.277459
 20
0.125477
 30
0.000000
  0
VERTEX
  8
LAYER-1
 10
4.281799
 20
0.122872
 30
0.000000
  0
SEQEND
  8
LAYER-1
  0
POLYLINE
  8
LAYER-1
 66
  1
 70
  0
 62
  0
 10
4.446730
 20
0.199260
 30
0.000000
  0
VERTEX
  8
LAYER-1
 10
4.446730
 20
0.199260
 30
0.000000
  0
VERTEX
  8
LAYER-1
 10
4.451071
 20
0.199260
 30
0.000000
  0
VERTEX
  8
LAYER-1
 10
4.454543
 20
0.203601
 30
0.000000
  0
VERTEX
  8
LAYER-1
 10
4.455411
 20
0.208809
 30
0.000000
  0
VERTEX
  8
LAYER-1
 10
4.453675
 20
0.213150
 30
0.000000
  0
VERTEX
  8
LAYER-1
 10
4.449334
 20
0.214885
 30
0.000000
  0
VERTEX
  8
LAYER-1
 10
4.444995
 20
0.214885
 30
0.000000
  0
VERTEX
  8
LAYER-1
 10
4.440654
 20
0.211414
 30
0.000000
  0
VERTEX
  8
LAYER-1
 10
4.440654
 20
0.207073
 30
0.000000
  0
VERTEX
  8
LAYER-1
 10
4.441522
 20
0.202733
 30
0.000000
  0
VERTEX
  8
LAYER-1
 10
4.445863
 20
0.200127
 30
0.000000
  0
SEQEND
  8
LAYER-1
  0
POLYLINE
  8
LAYER-1
 66
  1
 70
  1
 62
  0
 10
4.898548
 20
0.155858
 30
0.000000
  0
VERTEX
  8
LAYER-1
 10
4.898548
 20
0.155858
 30
0.000000
  0
VERTEX
  8
LAYER-1
 10
4.924590
 20
0.162802
 30
0.000000
  0
VERTEX
  8
LAYER-1
 10
4.910701
 20
0.187975
 30
0.000000
  0
SEQEND
  8
LAYER-1
  0
POLYLINE
  8
LAYER-1
 66
  1
 70
  1
 62
  0
 10
4.580844
 20
0.208809
 30
0.000000
  0
VERTEX
  8
LAYER-1
 10
4.580844
 20
0.208809
 30
0.000000
  0
VERTEX
  8
LAYER-1
 10
4.603413
 20
0.195788
 30
0.000000
  0
VERTEX
  8
LAYER-1
 10
4.582580
 20
0.226170
 30
0.000000
  0
SEQEND
  8
LAYER-1
  0
POLYLINE
  8
LAYER-1
 66
  1
 70
  1
 62
  0
 10
5.517473
 20
0.114187
 30
0.000000
  0
VERTEX
  8
LAYER-1
 10
5.517473
 20
0.114187
 30
0.000000
  0
VERTEX
  8
LAYER-1
 10
5.542647
 20
0.097694
 30
0.000000
  0
VERTEX
  8
LAYER-1
 10
5.550460
 20
0.112451
 30
0.000000
  0
SEQEND
  8
LAYER-1
  0
POLYLINE
  8
LAYER-1
 66
  1
 70
  0
 62
  0
 10
5.338654
 20
0.122870
 30
0.000000
  0
VERTEX
  8
LAYER-1
 10
5.338654
 20
0.122870
 30
0.000000
  0
VERTEX
  8
LAYER-1
 10
5.338654
 20
0.118529
 30
0.000000
  0
VERTEX
  8
LAYER-1
 10
5.342994
 20
0.115057
 30
0.000000
  0
VERTEX
  8
LAYER-1
 10
5.348202
 20
0.114190
 30
0.000000
  0
VERTEX
  8
LAYER-1
 10
5.352543
 20
0.115926
 30
0.000000
  0
VERTEX
  8
LAYER-1
 10
5.354279
 20
0.120266
 30
0.000000
  0
VERTEX
  8
LAYER-1
 10
5.354279
 20
0.124607
 30
0.000000
  0
VERTEX
  8
LAYER-1
 10
5.350807
 20
0.128946
 30
0.000000
  0
VERTEX
  8
LAYER-1
 10
5.346466
 20
0.128946
 30
0.000000
  0
VERTEX
  8
LAYER-1
 10
5.342125
 20
0.128078
 30
0.000000
  0
VERTEX
  8
LAYER-1
 10
5.339522
 20
0.123739
 30
0.000000
  0
SEQEND
  8
LAYER-1
  0
POLYLINE
  8
LAYER-1
 66
  1
 70
  1
 62
  0
 10
4.968862
 20
0.142835
 30
0.000000
  0
VERTEX
  8
LAYER-1
 10
4.968862
 20
0.142835
 30
0.000000
  0
VERTEX
  8
LAYER-1
 10
4.991431
 20
0.129815
 30
0.000000
  0
VERTEX
  8
LAYER-1
 10
4.970598
 20
0.160196
 30
0.000000
  0
SEQEND
  8
LAYER-1
  0
POLYLINE
  8
LAYER-1
 66
  1
 70
  1
 62
  0
 10
4.931870
 20
0.213849
 30
0.000000
  0
VERTEX
  8
LAYER-1
 10
4.931870
 20
0.213849
 30
0.000000
  0
VERTEX
  8
LAYER-1
 10
4.951235
 20
0.201163
 30
0.000000
  0
VERTEX
  8
LAYER-1
 10
4.957245
 20
0.212514
 30
0.000000
  0
SEQEND
  8
LAYER-1
  0
POLYLINE
  8
LAYER-1
 66
  1
 70
  0
 62
  0
 10
4.576505
 20
0.148914
 30
0.000000
  0
VERTEX
  8
LAYER-1
 10
4.576505
 20
0.148914
 30
0.000000
  0
VERTEX
  8
LAYER-1
 10
4.576505
 20
0.144574
 30
0.000000
  0
VERTEX
  8
LAYER-1
 10
4.580844
 20
0.141101
 30
0.000000
  0
VERTEX
  8
LAYER-1
 10
4.586052
 20
0.140233
 30
0.000000
  0
VERTEX
  8
LAYER-1
 10
4.590393
 20
0.141969
 30
0.000000
  0
VERTEX
  8
LAYER-1
 10
4.592129
 20
0.146310
 30
0.000000
  0
VERTEX
  8
LAYER-1
 10
4.592129
 20
0.150650
 30
0.000000
  0
VERTEX
  8
LAYER-1
 10
4.588657
 20
0.154990
 30
0.000000
  0
VERTEX
  8
LAYER-1
 10
4.584316
 20
0.154990
 30
0.000000
  0
VERTEX
  8
LAYER-1
 10
4.579976
 20
0.154122
 30
0.000000
  0
VERTEX
  8
LAYER-1
 10
4.577372
 20
0.149782
 30
0.000000
  0
SEQEND
  8
LAYER-1
  0
POLYLINE
  8
LAYER-1
 66
  1
 70
  0
 62
  0
 10
4.982750
 20
0.110719
 30
0.000000
  0
VERTEX
  8
LAYER-1
 10
4.982750
 20
0.110719
 30
0.000000
  0
VERTEX
  8
LAYER-1
 10
4.982750
 20
0.106377
 30
0.000000
  0
VERTEX
  8
LAYER-1
 10
4.987091
 20
0.102906
 30
0.000000
  0
VERTEX
  8
LAYER-1
 10
4.992298
 20
0.102036
 30
0.000000
  0
VERTEX
  8
LAYER-1
 10
4.996639
 20
0.103773
 30
0.000000
  0
VERTEX
  8
LAYER-1
 10
4.998375
 20
0.108114
 30
0.000000
  0
VERTEX
  8
LAYER-1
 10
4.998375
 20
0.112454
 30
0.000000
  0
VERTEX
  8
LAYER-1
 10
4.994903
 20
0.116795
 30
0.000000
  0
VERTEX
  8
LAYER-1
 10
4.990562
 20
0.116795
 30
0.000000
  0
VERTEX
  8
LAYER-1
 10
4.986222
 20
0.115926
 30
0.000000
  0
VERTEX
  8
LAYER-1
 10
4.983618
 20
0.111586
 30
0.000000
  0
SEQEND
  8
LAYER-1
  0
POLYLINE
  8
LAYER-1
 66
  1
 70
  0
 62
  0
 10
5.051326
 20
0.146309
 30
0.000000
  0
VERTEX
  8
LAYER-1
 10
5.051326
 20
0.146309
 30
0.000000
  0
VERTEX
  8
LAYER-1
 10
5.051326
 20
0.141969
 30
0.000000
  0
VERTEX
  8
LAYER-1
 10
5.055667
 20
0.138496
 30
0.000000
  0
VERTEX
  8
LAYER-1
 10
5.060875
 20
0.137627
 30
0.000000
  0
VERTEX
  8
LAYER-1
 10
5.065216
 20
0.139364
 30
0.000000
  0
VERTEX
  8
LAYER-1
 10
5.066952
 20
0.143704
 30
0.000000
  0
VERTEX
  8
LAYER-1
 10
5.066952
 20
0.148045
 30
0.000000
  0
VERTEX
  8
LAYER-1
 10
5.063480
 20
0.152385
 30
0.000000
  0
VERTEX
  8
LAYER-1
 10
5.059139
 20
0.152385
 30
0.000000
  0
VERTEX
  8
LAYER-1
 10
5.054798
 20
0.151516
 30
0.000000
  0
VERTEX
  8
LAYER-1
 10
5.052194
 20
0.147177
 30
0.000000
  0
SEQEND
  8
LAYER-1
  0
POLYLINE
  8
LAYER-1
 66
  1
 70
  1
 62
  0
 10
5.090737
 20
0.167576
 30
0.000000
  0
VERTEX
  8
LAYER-1
 10
5.090737
 20
0.167576
 30
0.000000
  0
VERTEX
  8
LAYER-1
 10
5.097682
 20
0.141535
 30
0.000000
  0
VERTEX
  8
LAYER-1
 10
5.122855
 20
0.155423
 30
0.000000
  0
SEQEND
  8
LAYER-1
  0
POLYLINE
  8
LAYER-1
 66
  1
 70
  1
 62
  0
 10
5.252282
 20
0.196222
 30
0.000000
  0
VERTEX
  8
LAYER-1
 10
5.252282
 20
0.196222
 30
0.000000
  0
VERTEX
  8
LAYER-1
 10
5.239262
 20
0.173653
 30
0.000000
  0
VERTEX
  8
LAYER-1
 10
5.269644
 20
0.194484
 30
0.000000
  0
SEQEND
  8
LAYER-1
  0
POLYLINE
  8
LAYER-1
 66
  1
 70
  1
 62
  0
 10
5.644643
 20
0.166704
 30
0.000000
  0
VERTEX
  8
LAYER-1
 10
5.644643
 20
0.166704
 30
0.000000
  0
VERTEX
  8
LAYER-1
 10
5.628150
 20
0.141531
 30
0.000000
  0
VERTEX
  8
LAYER-1
 10
5.642907
 20
0.133719
 30
0.000000
  0
SEQEND
  8
LAYER-1
  0
POLYLINE
  8
LAYER-1
 66
  1
 70
  0
 62
  0
 10
5.040476
 20
0.198825
 30
0.000000
  0
VERTEX
  8
LAYER-1
 10
5.040476
 20
0.198825
 30
0.000000
  0
VERTEX
  8
LAYER-1
 10
5.036136
 20
0.198825
 30
0.000000
  0
VERTEX
  8
LAYER-1
 10
5.032664
 20
0.194484
 30
0.000000
  0
VERTEX
  8
LAYER-1
 10
5.031796
 20
0.189277
 30
0.000000
  0
VERTEX
  8
LAYER-1
 10
5.033532
 20
0.184936
 30
0.000000
  0
VERTEX
  8
LAYER-1
 10
5.037873
 20
0.183200
 30
0.000000
  0
VERTEX
  8
LAYER-1
 10
5.042213
 20
0.183200
 30
0.000000
  0
VERTEX
  8
LAYER-1
 10
5.046553
 20
0.186672
 30
0.000000
  0
VERTEX
  8
LAYER-1
 10
5.046553
 20
0.191013
 30
0.000000
  0
VERTEX
  8
LAYER-1
 10
5.045685
 20
0.195353
 30
0.000000
  0
VERTEX
  8
LAYER-1
 10
5.041345
 20
0.197958
 30
0.000000
  0
SEQEND
  8
LAYER-1
  0
POLYLINE
  8
LAYER-1
 66
  1
 70
  1
 62
  0
 10
5.103846
 20
0.122437
 30
0.000000
  0
VERTEX
  8
LAYER-1
 10
5.103846
 20
0.122437
 30
0.000000
  0
VERTEX
  8
LAYER-1
 10
5.090825
 20
0.099866
 30
0.000000
  0
VERTEX
  8
LAYER-1
 10
5.121207
 20
0.120699
 30
0.000000
  0
SEQEND
  8
LAYER-1
  0
POLYLINE
  8
LAYER-1
 66
  1
 70
  1
 62
  0
 10
5.172589
 20
0.100199
 30
0.000000
  0
VERTEX
  8
LAYER-1
 10
5.172589
 20
0.100199
 30
0.000000
  0
VERTEX
  8
LAYER-1
 10
5.185276
 20
0.119563
 30
0.000000
  0
VERTEX
  8
LAYER-1
 10
5.173925
 20
0.125574
 30
0.000000
  0
SEQEND
  8
LAYER-1
  0
POLYLINE
  8
LAYER-1
 66
  1
 70
  0
 62
  0
 10
5.192387
 20
0.200561
 30
0.000000
  0
VERTEX
  8
LAYER-1
 10
5.192387
 20
0.200561
 30
0.000000
  0
VERTEX
  8
LAYER-1
 10
5.188047
 20
0.200561
 30
0.000000
  0
VERTEX
  8
LAYER-1
 10
5.184574
 20
0.196220
 30
0.000000
  0
VERTEX
  8
LAYER-1
 10
5.183706
 20
0.191013
 30
0.000000
  0
VERTEX
  8
LAYER-1
 10
5.185442
 20
0.186672
 30
0.000000
  0
VERTEX
  8
LAYER-1
 10
5.189782
 20
0.184936
 30
0.000000
  0
VERTEX
  8
LAYER-1
 10
5.194123
 20
0.184936
 30
0.000000
  0
VERTEX
  8
LAYER-1
 10
5.198463
 20
0.188408
 30
0.000000
  0
VERTEX
  8
LAYER-1
 10
5.198463
 20
0.192748
 30
0.000000
  0
VERTEX
  8
LAYER-1
 10
5.197595
 20
0.197089
 30
0.000000
  0
VERTEX
  8
LAYER-1
 10
5.193254
 20
0.199694
 30
0.000000
  0
SEQEND
  8
LAYER-1
  0
POLYLINE
  8
LAYER-1
 66
  1
 70
  0
 62
  0
 10
5.696726
 20
0.160628
 30
0.000000
  0
VERTEX
  8
LAYER-1
 10
5.696726
 20
0.160628
 30
0.000000
  0
VERTEX
  8
LAYER-1
 10
5.692385
 20
0.160628
 30
0.000000
  0
VERTEX
  8
LAYER-1
 10
5.688914
 20
0.156287
 30
0.000000
  0
VERTEX
  8
LAYER-1
 10
5.688046
 20
0.151079
 30
0.000000
  0
VERTEX
  8
LAYER-1
 10
5.689782
 20
0.146739
 30
0.000000
  0
VERTEX
  8
LAYER-1
 10
5.694122
 20
0.145003
 30
0.000000
  0
VERTEX
  8
LAYER-1
 10
5.698462
 20
0.145003
 30
0.000000
  0
VERTEX
  8
LAYER-1
 10
5.702803
 20
0.148475
 30
0.000000
  0
VERTEX
  8
LAYER-1
 10
5.702803
 20
0.152815
 30
0.000000
  0
VERTEX
  8
LAYER-1
 10
5.701935
 20
0.157156
 30
0.000000
  0
VERTEX
  8
LAYER-1
 10
5.697594
 20
0.159760
 30
0.000000
  0
SEQEND
  8
LAYER-1
  0
POLYLINE
  8
LAYER-1
 66
  1
 70
  0
 62
  0
 10
5.605581
 20
0.128510
 30
0.000000
  0
VERTEX
  8
LAYER-1
 10
5.605581
 20
0.128510
 30
0.000000
  0
VERTEX
  8
LAYER-1
 10
5.601241
 20
0.128510
 30
0.000000
  0
VERTEX
  8
LAYER-1
 10
5.597769
 20
0.124169
 30
0.000000
  0
VERTEX
  8
LAYER-1
 10
5.596901
 20
0.118961
 30
0.000000
  0
VERTEX
  8
LAYER-1
 10
5.598637
 20
0.114621
 30
0.000000
  0
VERTEX
  8
LAYER-1
 10
5.602978
 20
0.112885
 30
0.000000
  0
VERTEX
  8
LAYER-1
 10
5.607317
 20
0.112885
 30
0.000000
  0
VERTEX
  8
LAYER-1
 10
5.611658
 20
0.116357
 30
0.000000
  0
VERTEX
  8
LAYER-1
 10
5.611658
 20
0.120697
 30
0.000000
  0
VERTEX
  8
LAYER-1
 10
5.610790
 20
0.125038
 30
0.000000
  0
VERTEX
  8
LAYER-1
 10
5.606450
 20
0.127642
 30
0.000000
  0
SEQEND
  8
LAYER-1
  0
POLYLINE
  8
LAYER-1
 66
  1
 70
  1
 62
  0
 10
5.290477
 20
0.182767
 30
0.000000
  0
VERTEX
  8
LAYER-1
 10
5.290477
 20
0.182767
 30
0.000000
  0
VERTEX
  8
LAYER-1
 10
5.316517
 20
0.189713
 30
0.000000
  0
VERTEX
  8
LAYER-1
 10
5.302631
 20
0.214885
 30
0.000000
  0
SEQEND
  8
LAYER-1
  0
POLYLINE
  8
LAYER-1
 66
  1
 70
  0
 62
  0
 10
5.259227
 20
0.133289
 30
0.000000
  0
VERTEX
  8
LAYER-1
 10
5.259227
 20
0.133289
 30
0.000000
  0
VERTEX
  8
LAYER-1
 10
5.259227
 20
0.128949
 30
0.000000
  0
VERTEX
  8
LAYER-1
 10
5.263568
 20
0.125476
 30
0.000000
  0
VERTEX
  8
LAYER-1
 10
5.268776
 20
0.124609
 30
0.000000
  0
VERTEX
  8
LAYER-1
 10
5.273116
 20
0.126345
 30
0.000000
  0
VERTEX
  8
LAYER-1
 10
5.274852
 20
0.130685
 30
0.000000
  0
VERTEX
  8
LAYER-1
 10
5.274852
 20
0.135026
 30
0.000000
  0
VERTEX
  8
LAYER-1
 10
5.271381
 20
0.139365
 30
0.000000
  0
VERTEX
  8
LAYER-1
 10
5.267040
 20
0.139365
 30
0.000000
  0
VERTEX
  8
LAYER-1
 10
5.262699
 20
0.138497
 30
0.000000
  0
VERTEX
  8
LAYER-1
 10
5.260094
 20
0.134158
 30
0.000000
  0
SEQEND
  8
LAYER-1
  0
POLYLINE
  8
LAYER-1
 66
  1
 70
  1
 62
  0
 10
5.354279
 20
0.146744
 30
0.000000
  0
VERTEX
  8
LAYER-1
 10
5.354279
 20
0.146744
 30
0.000000
  0
VERTEX
  8
LAYER-1
 10
5.367300
 20
0.169314
 30
0.000000
  0
VERTEX
  8
LAYER-1
 10
5.336919
 20
0.148482
 30
0.000000
  0
SEQEND
  8
LAYER-1
  0
POLYLINE
  8
LAYER-1
 66
  1
 70
  0
 62
  0
 10
5.409401
 20
0.181032
 30
0.000000
  0
VERTEX
  8
LAYER-1
 10
5.409401
 20
0.181032
 30
0.000000
  0
VERTEX
  8
LAYER-1
 10
5.409401
 20
0.176692
 30
0.000000
  0
VERTEX
  8
LAYER-1
 10
5.413741
 20
0.173220
 30
0.000000
  0
VERTEX
  8
LAYER-1
 10
5.418949
 20
0.172351
 30
0.000000
  0
VERTEX
  8
LAYER-1
 10
5.423290
 20
0.174088
 30
0.000000
  0
VERTEX
  8
LAYER-1
 10
5.425026
 20
0.178428
 30
0.000000
  0
VERTEX
  8
LAYER-1
 10
5.425026
 20
0.182767
 30
0.000000
  0
VERTEX
  8
LAYER-1
 10
5.421554
 20
0.187108
 30
0.000000
  0
VERTEX
  8
LAYER-1
 10
5.417213
 20
0.187108
 30
0.000000
  0
VERTEX
  8
LAYER-1
 10
5.412872
 20
0.186239
 30
0.000000
  0
VERTEX
  8
LAYER-1
 10
5.410268
 20
0.181900
 30
0.000000
  0
SEQEND
  8
LAYER-1
  0
POLYLINE
  8
LAYER-1
 66
  1
 70
  1
 62
  0
 10
6.155324
 20
0.197436
 30
0.000000
  0
VERTEX
  8
LAYER-1
 10
6.155324
 20
0.197436
 30
0.000000
  0
VERTEX
  8
LAYER-1
 10
6.148379
 20
0.223478
 30
0.000000
  0
VERTEX
  8
LAYER-1
 10
6.123205
 20
0.209590
 30
0.000000
  0
SEQEND
  8
LAYER-1
  0
POLYLINE
  8
LAYER-1
 66
  1
 70
  0
 62
  0
 10
6.195863
 20
0.071221
 30
0.000000
  0
VERTEX
  8
LAYER-1
 10
6.195863
 20
0.071221
 30
0.000000
  0
VERTEX
  8
LAYER-1
 10
6.200203
 20
0.071221
 30
0.000000
  0
VERTEX
  8
LAYER-1
 10
6.203675
 20
0.075562
 30
0.000000
  0
VERTEX
  8
LAYER-1
 10
6.204542
 20
0.080770
 30
0.000000
  0
VERTEX
  8
LAYER-1
 10
6.202806
 20
0.085110
 30
0.000000
  0
VERTEX
  8
LAYER-1
 10
6.198466
 20
0.086846
 30
0.000000
  0
VERTEX
  8
LAYER-1
 10
6.194126
 20
0.086846
 30
0.000000
  0
VERTEX
  8
LAYER-1
 10
6.189786
 20
0.083375
 30
0.000000
  0
VERTEX
  8
LAYER-1
 10
6.189786
 20
0.079034
 30
0.000000
  0
VERTEX
  8
LAYER-1
 10
6.190654
 20
0.074693
 30
0.000000
  0
VERTEX
  8
LAYER-1
 10
6.194994
 20
0.072089
 30
0.000000
  0
SEQEND
  8
LAYER-1
  0
POLYLINE
  8
LAYER-1
 66
  1
 70
  1
 62
  0
 10
5.492299
 20
0.104208
 30
0.000000
  0
VERTEX
  8
LAYER-1
 10
5.492299
 20
0.104208
 30
0.000000
  0
VERTEX
  8
LAYER-1
 10
5.505319
 20
0.126778
 30
0.000000
  0
VERTEX
  8
LAYER-1
 10
5.474938
 20
0.105945
 30
0.000000
  0
SEQEND
  8
LAYER-1
  0
POLYLINE
  8
LAYER-1
 66
  1
 70
  0
 62
  0
 10
5.536051
 20
0.182541
 30
0.000000
  0
VERTEX
  8
LAYER-1
 10
5.536051
 20
0.182541
 30
0.000000
  0
VERTEX
  8
LAYER-1
 10
5.540392
 20
0.182541
 30
0.000000
  0
VERTEX
  8
LAYER-1
 10
5.543864
 20
0.186881
 30
0.000000
  0
VERTEX
  8
LAYER-1
 10
5.544733
 20
0.192090
 30
0.000000
  0
VERTEX
  8
LAYER-1
 10
5.542996
 20
0.196430
 30
0.000000
  0
VERTEX
  8
LAYER-1
 10
5.538656
 20
0.198166
 30
0.000000
  0
VERTEX
  8
LAYER-1
 10
5.534315
 20
0.198166
 30
0.000000
  0
VERTEX
  8
LAYER-1
 10
5.529975
 20
0.194694
 30
0.000000
  0
VERTEX
  8
LAYER-1
 10
5.529975
 20
0.190353
 30
0.000000
  0
VERTEX
  8
LAYER-1
 10
5.530844
 20
0.186012
 30
0.000000
  0
VERTEX
  8
LAYER-1
 10
5.535183
 20
0.183409
 30
0.000000
  0
SEQEND
  8
LAYER-1
  0
POLYLINE
  8
LAYER-1
 66
  1
 70
  1
 62
  0
 10
6.075637
 20
0.113324
 30
0.000000
  0
VERTEX
  8
LAYER-1
 10
6.075637
 20
0.113324
 30
0.000000
  0
VERTEX
  8
LAYER-1
 10
6.049596
 20
0.106378
 30
0.000000
  0
VERTEX
  8
LAYER-1
 10
6.063484
 20
0.081205
 30
0.000000
  0
SEQEND
  8
LAYER-1
  0
POLYLINE
  8
LAYER-1
 66
  1
 70
  0
 62
  0
 10
5.440651
 20
0.128082
 30
0.000000
  0
VERTEX
  8
LAYER-1
 10
5.440651
 20
0.128082
 30
0.000000
  0
VERTEX
  8
LAYER-1
 10
5.440651
 20
0.132421
 30
0.000000
  0
VERTEX
  8
LAYER-1
 10
5.436310
 20
0.135895
 30
0.000000
  0
VERTEX
  8
LAYER-1
 10
5.431102
 20
0.136761
 30
0.000000
  0
VERTEX
  8
LAYER-1
 10
5.426762
 20
0.135026
 30
0.000000
  0
VERTEX
  8
LAYER-1
 10
5.425026
 20
0.130685
 30
0.000000
  0
VERTEX
  8
LAYER-1
 10
5.425026
 20
0.126344
 30
0.000000
  0
VERTEX
  8
LAYER-1
 10
5.428497
 20
0.122005
 30
0.000000
  0
VERTEX
  8
LAYER-1
 10
5.432838
 20
0.122005
 30
0.000000
  0
VERTEX
  8
LAYER-1
 10
5.437179
 20
0.122872
 30
0.000000
  0
VERTEX
  8
LAYER-1
 10
5.439782
 20
0.127213
 30
0.000000
  0
SEQEND
  8
LAYER-1
  0
POLYLINE
  8
LAYER-1
 66
  1
 70
  1
 62
  0
 10
6.024422
 20
0.102908
 30
0.000000
  0
VERTEX
  8
LAYER-1
 10
6.024422
 20
0.102908
 30
0.000000
  0
VERTEX
  8
LAYER-1
 10
5.996643
 20
0.119400
 30
0.000000
  0
VERTEX
  8
LAYER-1
 10
6.017476
 20
0.089019
 30
0.000000
  0
SEQEND
  8
LAYER-1
  0
POLYLINE
  8
LAYER-1
 66
  1
 70
  0
 62
  0
 10
5.734921
 20
0.184500
 30
0.000000
  0
VERTEX
  8
LAYER-1
 10
5.734921
 20
0.184500
 30
0.000000
  0
VERTEX
  8
LAYER-1
 10
5.734921
 20
0.188840
 30
0.000000
  0
VERTEX
  8
LAYER-1
 10
5.730580
 20
0.192312
 30
0.000000
  0
VERTEX
  8
LAYER-1
 10
5.725372
 20
0.193181
 30
0.000000
  0
VERTEX
  8
LAYER-1
 10
5.721032
 20
0.191444
 30
0.000000
  0
VERTEX
  8
LAYER-1
 10
5.719296
 20
0.187104
 30
0.000000
  0
VERTEX
  8
LAYER-1
 10
5.719296
 20
0.182764
 30
0.000000
  0
VERTEX
  8
LAYER-1
 10
5.722768
 20
0.178424
 30
0.000000
  0
VERTEX
  8
LAYER-1
 10
5.727108
 20
0.178424
 30
0.000000
  0
VERTEX
  8
LAYER-1
 10
5.731449
 20
0.179292
 30
0.000000
  0
VERTEX
  8
LAYER-1
 10
5.734053
 20
0.183631
 30
0.000000
  0
SEQEND
  8
LAYER-1
  0
POLYLINE
  8
LAYER-1
 66
  1
 70
  1
 62
  0
 10
6.305584
 20
0.091015
 30
0.000000
  0
VERTEX
  8
LAYER-1
 10
6.305584
 20
0.091015
 30
0.000000
  0
VERTEX
  8
LAYER-1
 10
6.298639
 20
0.117056
 30
0.000000
  0
VERTEX
  8
LAYER-1
 10
6.273465
 20
0.103168
 30
0.000000
  0
SEQEND
  8
LAYER-1
  0
POLYLINE
  8
LAYER-1
 66
  1
 70
  0
 62
  0
 10
6.395429
 20
0.191274
 30
0.000000
  0
VERTEX
  8
LAYER-1
 10
6.395429
 20
0.191274
 30
0.000000
  0
VERTEX
  8
LAYER-1
 10
6.399770
 20
0.191274
 30
0.000000
  0
VERTEX
  8
LAYER-1
 10
6.403241
 20
0.195615
 30
0.000000
  0
VERTEX
  8
LAYER-1
 10
6.404108
 20
0.200823
 30
0.000000
  0
VERTEX
  8
LAYER-1
 10
6.402373
 20
0.205163
 30
0.000000
  0
VERTEX
  8
LAYER-1
 10
6.398034
 20
0.206899
 30
0.000000
  0
VERTEX
  8
LAYER-1
 10
6.393693
 20
0.206899
 30
0.000000
  0
VERTEX
  8
LAYER-1
 10
6.389352
 20
0.203428
 30
0.000000
  0
VERTEX
  8
LAYER-1
 10
6.389352
 20
0.199087
 30
0.000000
  0
VERTEX
  8
LAYER-1
 10
6.390221
 20
0.194746
 30
0.000000
  0
VERTEX
  8
LAYER-1
 10
6.394560
 20
0.192142
 30
0.000000
  0
SEQEND
  8
LAYER-1
  0
POLYLINE
  8
LAYER-1
 66
  1
 70
  1
 62
  0
 10
6.380671
 20
0.226430
 30
0.000000
  0
VERTEX
  8
LAYER-1
 10
6.380671
 20
0.226430
 30
0.000000
  0
VERTEX
  8
LAYER-1
 10
6.354629
 20
0.219486
 30
0.000000
  0
VERTEX
  8
LAYER-1
 10
6.368518
 20
0.194312
 30
0.000000
  0
SEQEND
  8
LAYER-1
  0
POLYLINE
  8
LAYER-1
 66
  1
 70
  1
 62
  0
 10
5.629453
 20
0.085114
 30
0.000000
  0
VERTEX
  8
LAYER-1
 10
5.629453
 20
0.085114
 30
0.000000
  0
VERTEX
  8
LAYER-1
 10
5.642473
 20
0.107684
 30
0.000000
  0
VERTEX
  8
LAYER-1
 10
5.612091
 20
0.086851
 30
0.000000
  0
SEQEND
  8
LAYER-1
  0
POLYLINE
  8
LAYER-1
 66
  1
 70
  0
 62
  0
 10
5.625980
 20
0.191883
 30
0.000000
  0
VERTEX
  8
LAYER-1
 10
5.625980
 20
0.191883
 30
0.000000
  0
VERTEX
  8
LAYER-1
 10
5.630320
 20
0.191883
 30
0.000000
  0
VERTEX
  8
LAYER-1
 10
5.633792
 20
0.196223
 30
0.000000
  0
VERTEX
  8
LAYER-1
 10
5.634661
 20
0.201431
 30
0.000000
  0
VERTEX
  8
LAYER-1
 10
5.632925
 20
0.205772
 30
0.000000
  0
VERTEX
  8
LAYER-1
 10
5.628585
 20
0.207508
 30
0.000000
  0
VERTEX
  8
LAYER-1
 10
5.624244
 20
0.207508
 30
0.000000
  0
VERTEX
  8
LAYER-1
 10
5.619903
 20
0.204035
 30
0.000000
  0
VERTEX
  8
LAYER-1
 10
5.619903
 20
0.199695
 30
0.000000
  0
VERTEX
  8
LAYER-1
 10
5.620772
 20
0.195354
 30
0.000000
  0
VERTEX
  8
LAYER-1
 10
5.625113
 20
0.192751
 30
0.000000
  0
SEQEND
  8
LAYER-1
  0
POLYLINE
  8
LAYER-1
 66
  1
 70
  1
 62
  0
 10
5.578670
 20
0.170614
 30
0.000000
  0
VERTEX
  8
LAYER-1
 10
5.578670
 20
0.170614
 30
0.000000
  0
VERTEX
  8
LAYER-1
 10
5.603845
 20
0.154121
 30
0.000000
  0
VERTEX
  8
LAYER-1
 10
5.611658
 20
0.168878
 30
0.000000
  0
SEQEND
  8
LAYER-1
  0
POLYLINE
  8
LAYER-1
 66
  1
 70
  1
 62
  0
 10
5.565317
 20
0.143003
 30
0.000000
  0
VERTEX
  8
LAYER-1
 10
5.565317
 20
0.143003
 30
0.000000
  0
VERTEX
  8
LAYER-1
 10
5.545954
 20
0.155690
 30
0.000000
  0
VERTEX
  8
LAYER-1
 10
5.539942
 20
0.144339
 30
0.000000
  0
SEQEND
  8
LAYER-1
  0
POLYLINE
  8
LAYER-1
 66
  1
 70
  1
 62
  0
 10
1.342561
 20
0.201864
 30
0.000000
  0
VERTEX
  8
LAYER-1
 10
1.342561
 20
0.201864
 30
0.000000
  0
VERTEX
  8
LAYER-1
 10
1.329540
 20
0.179294
 30
0.000000
  0
VERTEX
  8
LAYER-1
 10
1.359922
 20
0.200127
 30
0.000000
  0
SEQEND
  8
LAYER-1
  0
POLYLINE
  8
LAYER-1
 66
  1
 70
  1
 62
  0
 10
5.892042
 20
0.128950
 30
0.000000
  0
VERTEX
  8
LAYER-1
 10
5.892042
 20
0.128950
 30
0.000000
  0
VERTEX
  8
LAYER-1
 10
5.914611
 20
0.115929
 30
0.000000
  0
VERTEX
  8
LAYER-1
 10
5.893778
 20
0.146311
 30
0.000000
  0
SEQEND
  8
LAYER-1
  0
POLYLINE
  8
LAYER-1
 66
  1
 70
  0
 62
  0
 10
5.819993
 20
0.175822
 30
0.000000
  0
VERTEX
  8
LAYER-1
 10
5.819993
 20
0.175822
 30
0.000000
  0
VERTEX
  8
LAYER-1
 10
5.819993
 20
0.171482
 30
0.000000
  0
VERTEX
  8
LAYER-1
 10
5.824334
 20
0.168009
 30
0.000000
  0
VERTEX
  8
LAYER-1
 10
5.829542
 20
0.167141
 30
0.000000
  0
VERTEX
  8
LAYER-1
 10
5.833882
 20
0.168877
 30
0.000000
  0
VERTEX
  8
LAYER-1
 10
5.835618
 20
0.173219
 30
0.000000
  0
VERTEX
  8
LAYER-1
 10
5.835618
 20
0.177558
 30
0.000000
  0
VERTEX
  8
LAYER-1
 10
5.832147
 20
0.181897
 30
0.000000
  0
VERTEX
  8
LAYER-1
 10
5.827806
 20
0.181897
 30
0.000000
  0
VERTEX
  8
LAYER-1
 10
5.823465
 20
0.181029
 30
0.000000
  0
VERTEX
  8
LAYER-1
 10
5.820861
 20
0.176690
 30
0.000000
  0
SEQEND
  8
LAYER-1
  0
POLYLINE
  8
LAYER-1
 66
  1
 70
  1
 62
  0
 10
5.769645
 20
0.187108
 30
0.000000
  0
VERTEX
  8
LAYER-1
 10
5.769645
 20
0.187108
 30
0.000000
  0
VERTEX
  8
LAYER-1
 10
5.792215
 20
0.174088
 30
0.000000
  0
VERTEX
  8
LAYER-1
 10
5.771382
 20
0.204469
 30
0.000000
  0
SEQEND
  8
LAYER-1
  0
POLYLINE
  8
LAYER-1
 66
  1
 70
  0
 62
  0
 10
6.031798
 20
0.128950
 30
0.000000
  0
VERTEX
  8
LAYER-1
 10
6.031798
 20
0.128950
 30
0.000000
  0
VERTEX
  8
LAYER-1
 10
6.031798
 20
0.124609
 30
0.000000
  0
VERTEX
  8
LAYER-1
 10
6.036139
 20
0.121138
 30
0.000000
  0
VERTEX
  8
LAYER-1
 10
6.041347
 20
0.120270
 30
0.000000
  0
VERTEX
  8
LAYER-1
 10
6.045688
 20
0.122005
 30
0.000000
  0
VERTEX
  8
LAYER-1
 10
6.047423
 20
0.126345
 30
0.000000
  0
VERTEX
  8
LAYER-1
 10
6.047423
 20
0.130686
 30
0.000000
  0
VERTEX
  8
LAYER-1
 10
6.043952
 20
0.135027
 30
0.000000
  0
VERTEX
  8
LAYER-1
 10
6.039611
 20
0.135027
 30
0.000000
  0
VERTEX
  8
LAYER-1
 10
6.035270
 20
0.134158
 30
0.000000
  0
VERTEX
  8
LAYER-1
 10
6.032667
 20
0.129818
 30
0.000000
  0
SEQEND
  8
LAYER-1
  0
POLYLINE
  8
LAYER-1
 66
  1
 70
  0
 62
  0
 10
5.866000
 20
0.183636
 30
0.000000
  0
VERTEX
  8
LAYER-1
 10
5.866000
 20
0.183636
 30
0.000000
  0
VERTEX
  8
LAYER-1
 10
5.866000
 20
0.179296
 30
0.000000
  0
VERTEX
  8
LAYER-1
 10
5.870341
 20
0.175825
 30
0.000000
  0
VERTEX
  8
LAYER-1
 10
5.875548
 20
0.174957
 30
0.000000
  0
VERTEX
  8
LAYER-1
 10
5.879889
 20
0.176693
 30
0.000000
  0
VERTEX
  8
LAYER-1
 10
5.881625
 20
0.181032
 30
0.000000
  0
VERTEX
  8
LAYER-1
 10
5.881625
 20
0.185372
 30
0.000000
  0
VERTEX
  8
LAYER-1
 10
5.878153
 20
0.189713
 30
0.000000
  0
VERTEX
  8
LAYER-1
 10
5.873813
 20
0.189713
 30
0.000000
  0
VERTEX
  8
LAYER-1
 10
5.869472
 20
0.188844
 30
0.000000
  0
VERTEX
  8
LAYER-1
 10
5.866867
 20
0.184504
 30
0.000000
  0
SEQEND
  8
LAYER-1
  0
POLYLINE
  8
LAYER-1
 66
  1
 70
  1
 62
  0
 10
5.790480
 20
0.118967
 30
0.000000
  0
VERTEX
  8
LAYER-1
 10
5.790480
 20
0.118967
 30
0.000000
  0
VERTEX
  8
LAYER-1
 10
5.777459
 20
0.096397
 30
0.000000
  0
VERTEX
  8
LAYER-1
 10
5.807841
 20
0.117229
 30
0.000000
  0
SEQEND
  8
LAYER-1
  0
POLYLINE
  8
LAYER-1
 66
  1
 70
  0
 62
  0
 10
5.716779
 20
0.111102
 30
0.000000
  0
VERTEX
  8
LAYER-1
 10
5.716779
 20
0.111102
 30
0.000000
  0
VERTEX
  8
LAYER-1
 10
5.712440
 20
0.111102
 30
0.000000
  0
VERTEX
  8
LAYER-1
 10
5.708967
 20
0.106761
 30
0.000000
  0
VERTEX
  8
LAYER-1
 10
5.708099
 20
0.101553
 30
0.000000
  0
VERTEX
  8
LAYER-1
 10
5.709835
 20
0.097213
 30
0.000000
  0
VERTEX
  8
LAYER-1
 10
5.714175
 20
0.095477
 30
0.000000
  0
VERTEX
  8
LAYER-1
 10
5.718516
 20
0.095477
 30
0.000000
  0
VERTEX
  8
LAYER-1
 10
5.722856
 20
0.098948
 30
0.000000
  0
VERTEX
  8
LAYER-1
 10
5.722856
 20
0.103289
 30
0.000000
  0
VERTEX
  8
LAYER-1
 10
5.721988
 20
0.107630
 30
0.000000
  0
VERTEX
  8
LAYER-1
 10
5.717647
 20
0.110235
 30
0.000000
  0
SEQEND
  8
LAYER-1
  0
POLYLINE
  8
LAYER-1
 66
  1
 70
  0
 62
  0
 10
5.790480
 20
0.149347
 30
0.000000
  0
VERTEX
  8
LAYER-1
 10
5.790480
 20
0.149347
 30
0.000000
  0
VERTEX
  8
LAYER-1
 10
5.786139
 20
0.149347
 30
0.000000
  0
VERTEX
  8
LAYER-1
 10
5.782667
 20
0.145007
 30
0.000000
  0
VERTEX
  8
LAYER-1
 10
5.781800
 20
0.139798
 30
0.000000
  0
VERTEX
  8
LAYER-1
 10
5.783535
 20
0.135458
 30
0.000000
  0
VERTEX
  8
LAYER-1
 10
5.787876
 20
0.133722
 30
0.000000
  0
VERTEX
  8
LAYER-1
 10
5.792216
 20
0.133722
 30
0.000000
  0
VERTEX
  8
LAYER-1
 10
5.796557
 20
0.137194
 30
0.000000
  0
VERTEX
  8
LAYER-1
 10
5.796557
 20
0.141535
 30
0.000000
  0
VERTEX
  8
LAYER-1
 10
5.795689
 20
0.145876
 30
0.000000
  0
VERTEX
  8
LAYER-1
 10
5.791348
 20
0.148480
 30
0.000000
  0
SEQEND
  8
LAYER-1
  0
POLYLINE
  8
LAYER-1
 66
  1
 70
  1
 62
  0
 10
6.097772
 20
0.165841
 30
0.000000
  0
VERTEX
  8
LAYER-1
 10
6.097772
 20
0.165841
 30
0.000000
  0
VERTEX
  8
LAYER-1
 10
6.104716
 20
0.139800
 30
0.000000
  0
VERTEX
  8
LAYER-1
 10
6.129889
 20
0.153688
 30
0.000000
  0
SEQEND
  8
LAYER-1
  0
POLYLINE
  8
LAYER-1
 66
  1
 70
  1
 62
  0
 10
6.260098
 20
0.194486
 30
0.000000
  0
VERTEX
  8
LAYER-1
 10
6.260098
 20
0.194486
 30
0.000000
  0
VERTEX
  8
LAYER-1
 10
6.247076
 20
0.171917
 30
0.000000
  0
VERTEX
  8
LAYER-1
 10
6.277459
 20
0.192750
 30
0.000000
  0
SEQEND
  8
LAYER-1
  0
POLYLINE
  8
LAYER-1
 66
  1
 70
  0
 62
  0
 10
6.048292
 20
0.197090
 30
0.000000
  0
VERTEX
  8
LAYER-1
 10
6.048292
 20
0.197090
 30
0.000000
  0
VERTEX
  8
LAYER-1
 10
6.043952
 20
0.197090
 30
0.000000
  0
VERTEX
  8
LAYER-1
 10
6.040480
 20
0.192750
 30
0.000000
  0
VERTEX
  8
LAYER-1
 10
6.039611
 20
0.187542
 30
0.000000
  0
VERTEX
  8
LAYER-1
 10
6.041348
 20
0.183201
 30
0.000000
  0
VERTEX
  8
LAYER-1
 10
6.045688
 20
0.181465
 30
0.000000
  0
VERTEX
  8
LAYER-1
 10
6.050028
 20
0.181465
 30
0.000000
  0
VERTEX
  8
LAYER-1
 10
6.054369
 20
0.184937
 30
0.000000
  0
VERTEX
  8
LAYER-1
 10
6.054369
 20
0.189278
 30
0.000000
  0
VERTEX
  8
LAYER-1
 10
6.053500
 20
0.193619
 30
0.000000
  0
VERTEX
  8
LAYER-1
 10
6.049160
 20
0.196222
 30
0.000000
  0
SEQEND
  8
LAYER-1
  0
POLYLINE
  8
LAYER-1
 66
  1
 70
  1
 62
  0
 10
6.158537
 20
0.129383
 30
0.000000
  0
VERTEX
  8
LAYER-1
 10
6.158537
 20
0.129383
 30
0.000000
  0
VERTEX
  8
LAYER-1
 10
6.145516
 20
0.106813
 30
0.000000
  0
VERTEX
  8
LAYER-1
 10
6.175898
 20
0.127646
 30
0.000000
  0
SEQEND
  8
LAYER-1
  0
POLYLINE
  8
LAYER-1
 66
  1
 70
  0
 62
  0
 10
6.200201
 20
0.198826
 30
0.000000
  0
VERTEX
  8
LAYER-1
 10
6.200201
 20
0.198826
 30
0.000000
  0
VERTEX
  8
LAYER-1
 10
6.195861
 20
0.198826
 30
0.000000
  0
VERTEX
  8
LAYER-1
 10
6.192389
 20
0.194485
 30
0.000000
  0
VERTEX
  8
LAYER-1
 10
6.191521
 20
0.189278
 30
0.000000
  0
VERTEX
  8
LAYER-1
 10
6.193257
 20
0.184937
 30
0.000000
  0
VERTEX
  8
LAYER-1
 10
6.197598
 20
0.183201
 30
0.000000
  0
VERTEX
  8
LAYER-1
 10
6.201937
 20
0.183201
 30
0.000000
  0
VERTEX
  8
LAYER-1
 10
6.206278
 20
0.186673
 30
0.000000
  0
VERTEX
  8
LAYER-1
 10
6.206278
 20
0.191014
 30
0.000000
  0
VERTEX
  8
LAYER-1
 10
6.205410
 20
0.195354
 30
0.000000
  0
VERTEX
  8
LAYER-1
 10
6.201069
 20
0.197958
 30
0.000000
  0
SEQEND
  8
LAYER-1
  0
POLYLINE
  8
LAYER-1
 66
  1
 70
  1
 62
  0
 10
6.539611
 20
0.190146
 30
0.000000
  0
VERTEX
  8
LAYER-1
 10
6.539611
 20
0.190146
 30
0.000000
  0
VERTEX
  8
LAYER-1
 10
6.546555
 20
0.164107
 30
0.000000
  0
VERTEX
  8
LAYER-1
 10
6.571729
 20
0.177994
 30
0.000000
  0
SEQEND
  8
LAYER-1
  0
POLYLINE
  8
LAYER-1
 66
  1
 70
  1
 62
  0
 10
6.701937
 20
0.218792
 30
0.000000
  0
VERTEX
  8
LAYER-1
 10
6.701937
 20
0.218792
 30
0.000000
  0
VERTEX
  8
LAYER-1
 10
6.688916
 20
0.196222
 30
0.000000
  0
VERTEX
  8
LAYER-1
 10
6.719298
 20
0.217055
 30
0.000000
  0
SEQEND
  8
LAYER-1
  0
POLYLINE
  8
LAYER-1
 66
  1
 70
  1
 62
  0
 10
5.930237
 20
0.154557
 30
0.000000
  0
VERTEX
  8
LAYER-1
 10
5.930237
 20
0.154557
 30
0.000000
  0
VERTEX
  8
LAYER-1
 10
5.955410
 20
0.138063
 30
0.000000
  0
VERTEX
  8
LAYER-1
 10
5.963223
 20
0.152821
 30
0.000000
  0
SEQEND
  8
LAYER-1
  0
POLYLINE
  8
LAYER-1
 66
  1
 70
  0
 62
  0
 10
6.500548
 20
0.210980
 30
0.000000
  0
VERTEX
  8
LAYER-1
 10
6.500548
 20
0.210980
 30
0.000000
  0
VERTEX
  8
LAYER-1
 10
6.496207
 20
0.210980
 30
0.000000
  0
VERTEX
  8
LAYER-1
 10
6.492735
 20
0.206640
 30
0.000000
  0
VERTEX
  8
LAYER-1
 10
6.491867
 20
0.201432
 30
0.000000
  0
VERTEX
  8
LAYER-1
 10
6.493603
 20
0.197091
 30
0.000000
  0
VERTEX
  8
LAYER-1
 10
6.497944
 20
0.195355
 30
0.000000
  0
VERTEX
  8
LAYER-1
 10
6.502284
 20
0.195355
 30
0.000000
  0
VERTEX
  8
LAYER-1
 10
6.506624
 20
0.198827
 30
0.000000
  0
VERTEX
  8
LAYER-1
 10
6.506624
 20
0.203167
 30
0.000000
  0
VERTEX
  8
LAYER-1
 10
6.505756
 20
0.207509
 30
0.000000
  0
VERTEX
  8
LAYER-1
 10
6.501416
 20
0.210114
 30
0.000000
  0
SEQEND
  8
LAYER-1
  0
POLYLINE
  8
LAYER-1
 66
  1
 70
  1
 62
  0
 10
6.516173
 20
0.122439
 30
0.000000
  0
VERTEX
  8
LAYER-1
 10
6.516173
 20
0.122439
 30
0.000000
  0
VERTEX
  8
LAYER-1
 10
6.503153
 20
0.099869
 30
0.000000
  0
VERTEX
  8
LAYER-1
 10
6.533535
 20
0.120701
 30
0.000000
  0
SEQEND
  8
LAYER-1
  0
POLYLINE
  8
LAYER-1
 66
  1
 70
  1
 62
  0
 10
6.610625
 20
0.136857
 30
0.000000
  0
VERTEX
  8
LAYER-1
 10
6.610625
 20
0.136857
 30
0.000000
  0
VERTEX
  8
LAYER-1
 10
6.597938
 20
0.117493
 30
0.000000
  0
VERTEX
  8
LAYER-1
 10
6.609289
 20
0.111482
 30
0.000000
  0
SEQEND
  8
LAYER-1
  0
POLYLINE
  8
LAYER-1
 66
  1
 70
  0
 62
  0
 10
6.642041
 20
0.215320
 30
0.000000
  0
VERTEX
  8
LAYER-1
 10
6.642041
 20
0.215320
 30
0.000000
  0
VERTEX
  8
LAYER-1
 10
6.637701
 20
0.215320
 30
0.000000
  0
VERTEX
  8
LAYER-1
 10
6.634229
 20
0.210979
 30
0.000000
  0
VERTEX
  8
LAYER-1
 10
6.633361
 20
0.205772
 30
0.000000
  0
VERTEX
  8
LAYER-1
 10
6.635097
 20
0.201431
 30
0.000000
  0
VERTEX
  8
LAYER-1
 10
6.639437
 20
0.199695
 30
0.000000
  0
VERTEX
  8
LAYER-1
 10
6.643778
 20
0.199695
 30
0.000000
  0
VERTEX
  8
LAYER-1
 10
6.648118
 20
0.203167
 30
0.000000
  0
VERTEX
  8
LAYER-1
 10
6.648118
 20
0.207508
 30
0.000000
  0
VERTEX
  8
LAYER-1
 10
6.647250
 20
0.211848
 30
0.000000
  0
VERTEX
  8
LAYER-1
 10
6.642909
 20
0.214453
 30
0.000000
  0
SEQEND
  8
LAYER-1
  0
POLYLINE
  8
LAYER-1
 66
  1
 70
  0
 62
  0
 10
5.918953
 20
0.207508
 30
0.000000
  0
VERTEX
  8
LAYER-1
 10
5.918953
 20
0.207508
 30
0.000000
  0
VERTEX
  8
LAYER-1
 10
5.918953
 20
0.203167
 30
0.000000
  0
VERTEX
  8
LAYER-1
 10
5.923294
 20
0.199695
 30
0.000000
  0
VERTEX
  8
LAYER-1
 10
5.928501
 20
0.198826
 30
0.000000
  0
VERTEX
  8
LAYER-1
 10
5.932842
 20
0.200562
 30
0.000000
  0
VERTEX
  8
LAYER-1
 10
5.934578
 20
0.204903
 30
0.000000
  0
VERTEX
  8
LAYER-1
 10
5.934578
 20
0.209244
 30
0.000000
  0
VERTEX
  8
LAYER-1
 10
5.931106
 20
0.213584
 30
0.000000
  0
VERTEX
  8
LAYER-1
 10
5.926765
 20
0.213584
 30
0.000000
  0
VERTEX
  8
LAYER-1
 10
5.922425
 20
0.212715
 30
0.000000
  0
VERTEX
  8
LAYER-1
 10
5.919820
 20
0.208375
 30
0.000000
  0
SEQEND
  8
LAYER-1
  0
POLYLINE
  8
LAYER-1
 66
  1
 70
  0
 62
  0
 10
6.482318
 20
0.123305
 30
0.000000
  0
VERTEX
  8
LAYER-1
 10
6.482318
 20
0.123305
 30
0.000000
  0
VERTEX
  8
LAYER-1
 10
6.477977
 20
0.123305
 30
0.000000
  0
VERTEX
  8
LAYER-1
 10
6.474506
 20
0.118964
 30
0.000000
  0
VERTEX
  8
LAYER-1
 10
6.473637
 20
0.113757
 30
0.000000
  0
VERTEX
  8
LAYER-1
 10
6.475373
 20
0.109416
 30
0.000000
  0
VERTEX
  8
LAYER-1
 10
6.479714
 20
0.107680
 30
0.000000
  0
VERTEX
  8
LAYER-1
 10
6.484054
 20
0.107680
 30
0.000000
  0
VERTEX
  8
LAYER-1
 10
6.488394
 20
0.111152
 30
0.000000
  0
VERTEX
  8
LAYER-1
 10
6.488394
 20
0.115492
 30
0.000000
  0
VERTEX
  8
LAYER-1
 10
6.487526
 20
0.119833
 30
0.000000
  0
VERTEX
  8
LAYER-1
 10
6.483186
 20
0.122438
 30
0.000000
  0
SEQEND
  8
LAYER-1
  0
POLYLINE
  8
LAYER-1
 66
  1
 70
  0
 62
  0
 10
6.380757
 20
0.161067
 30
0.000000
  0
VERTEX
  8
LAYER-1
 10
6.380757
 20
0.161067
 30
0.000000
  0
VERTEX
  8
LAYER-1
 10
6.380757
 20
0.165408
 30
0.000000
  0
VERTEX
  8
LAYER-1
 10
6.376417
 20
0.168879
 30
0.000000
  0
VERTEX
  8
LAYER-1
 10
6.371209
 20
0.169747
 30
0.000000
  0
VERTEX
  8
LAYER-1
 10
6.366868
 20
0.168011
 30
0.000000
  0
VERTEX
  8
LAYER-1
 10
6.365132
 20
0.163671
 30
0.000000
  0
VERTEX
  8
LAYER-1
 10
6.365132
 20
0.159331
 30
0.000000
  0
VERTEX
  8
LAYER-1
 10
6.368604
 20
0.154991
 30
0.000000
  0
VERTEX
  8
LAYER-1
 10
6.372945
 20
0.154991
 30
0.000000
  0
VERTEX
  8
LAYER-1
 10
6.377285
 20
0.155858
 30
0.000000
  0
VERTEX
  8
LAYER-1
 10
6.379888
 20
0.160199
 30
0.000000
  0
SEQEND
  8
LAYER-1
  0
POLYLINE
  8
LAYER-1
 66
  1
 70
  1
 62
  0
 10
6.313048
 20
0.148046
 30
0.000000
  0
VERTEX
  8
LAYER-1
 10
6.313048
 20
0.148046
 30
0.000000
  0
VERTEX
  8
LAYER-1
 10
6.290479
 20
0.161066
 30
0.000000
  0
VERTEX
  8
LAYER-1
 10
6.311312
 20
0.130684
 30
0.000000
  0
SEQEND
  8
LAYER-1
  0
POLYLINE
  8
LAYER-1
 66
  1
 70
  0
 62
  0
 10
6.230584
 20
0.113324
 30
0.000000
  0
VERTEX
  8
LAYER-1
 10
6.230584
 20
0.113324
 30
0.000000
  0
VERTEX
  8
LAYER-1
 10
6.230584
 20
0.117665
 30
0.000000
  0
VERTEX
  8
LAYER-1
 10
6.226244
 20
0.121136
 30
0.000000
  0
VERTEX
  8
LAYER-1
 10
6.221036
 20
0.122004
 30
0.000000
  0
VERTEX
  8
LAYER-1
 10
6.216695
 20
0.120269
 30
0.000000
  0
VERTEX
  8
LAYER-1
 10
6.214959
 20
0.115929
 30
0.000000
  0
VERTEX
  8
LAYER-1
 10
6.214959
 20
0.111588
 30
0.000000
  0
VERTEX
  8
LAYER-1
 10
6.218431
 20
0.107247
 30
0.000000
  0
VERTEX
  8
LAYER-1
 10
6.222772
 20
0.107247
 30
0.000000
  0
VERTEX
  8
LAYER-1
 10
6.227113
 20
0.108116
 30
0.000000
  0
VERTEX
  8
LAYER-1
 10
6.229716
 20
0.112456
 30
0.000000
  0
SEQEND
  8
LAYER-1
  0
POLYLINE
  8
LAYER-1
 66
  1
 70
  1
 62
  0
 10
6.420862
 20
0.103603
 30
0.000000
  0
VERTEX
  8
LAYER-1
 10
6.420862
 20
0.103603
 30
0.000000
  0
VERTEX
  8
LAYER-1
 10
6.413917
 20
0.129643
 30
0.000000
  0
VERTEX
  8
LAYER-1
 10
6.388744
 20
0.115756
 30
0.000000
  0
SEQEND
  8
LAYER-1
  0
POLYLINE
  8
LAYER-1
 66
  1
 70
  1
 62
  0
 10
6.442388
 20
0.158028
 30
0.000000
  0
VERTEX
  8
LAYER-1
 10
6.442388
 20
0.158028
 30
0.000000
  0
VERTEX
  8
LAYER-1
 10
6.455410
 20
0.180598
 30
0.000000
  0
VERTEX
  8
LAYER-1
 10
6.425028
 20
0.159766
 30
0.000000
  0
SEQEND
  8
LAYER-1
  0
POLYLINE
  8
LAYER-1
 66
  1
 70
  1
 62
  0
 10
5.870341
 20
0.101605
 30
0.000000
  0
VERTEX
  8
LAYER-1
 10
5.870341
 20
0.101605
 30
0.000000
  0
VERTEX
  8
LAYER-1
 10
5.847770
 20
0.114627
 30
0.000000
  0
VERTEX
  8
LAYER-1
 10
5.868603
 20
0.084245
 30
0.000000
  0
SEQEND
  8
LAYER-1
  0
POLYLINE
  8
LAYER-1
 66
  1
 70
  1
 62
  0
 10
6.648119
 20
0.125911
 30
0.000000
  0
VERTEX
  8
LAYER-1
 10
6.648119
 20
0.125911
 30
0.000000
  0
VERTEX
  8
LAYER-1
 10
6.664611
 20
0.151085
 30
0.000000
  0
VERTEX
  8
LAYER-1
 10
6.649854
 20
0.158897
 30
0.000000
  0
SEQEND
  8
LAYER-1
  0
POLYLINE
  8
LAYER-1
 66
  1
 70
  0
 62
  0
 10
6.679019
 20
0.052508
 30
0.000000
  0
VERTEX
  8
LAYER-1
 10
6.679019
 20
0.052508
 30
0.000000
  0
VERTEX
  8
LAYER-1
 10
6.683359
 20
0.052508
 30
0.000000
  0
VERTEX
  8
LAYER-1
 10
6.686832
 20
0.056848
 30
0.000000
  0
VERTEX
  8
LAYER-1
 10
6.687700
 20
0.062057
 30
0.000000
  0
VERTEX
  8
LAYER-1
 10
6.685964
 20
0.066397
 30
0.000000
  0
VERTEX
  8
LAYER-1
 10
6.681622
 20
0.068133
 30
0.000000
  0
VERTEX
  8
LAYER-1
 10
6.677283
 20
0.068133
 30
0.000000
  0
VERTEX
  8
LAYER-1
 10
6.672942
 20
0.064661
 30
0.000000
  0
VERTEX
  8
LAYER-1
 10
6.672942
 20
0.060321
 30
0.000000
  0
VERTEX
  8
LAYER-1
 10
6.673810
 20
0.055979
 30
0.000000
  0
VERTEX
  8
LAYER-1
 10
6.678151
 20
0.053375
 30
0.000000
  0
SEQEND
  8
LAYER-1
  0
POLYLINE
  8
LAYER-1
 66
  1
 70
  0
 62
  0
 10
6.655582
 20
0.077687
 30
0.000000
  0
VERTEX
  8
LAYER-1
 10
6.655582
 20
0.077687
 30
0.000000
  0
VERTEX
  8
LAYER-1
 10
6.659923
 20
0.077687
 30
0.000000
  0
VERTEX
  8
LAYER-1
 10
6.663395
 20
0.082028
 30
0.000000
  0
VERTEX
  8
LAYER-1
 10
6.664263
 20
0.087235
 30
0.000000
  0
VERTEX
  8
LAYER-1
 10
6.662527
 20
0.091576
 30
0.000000
  0
VERTEX
  8
LAYER-1
 10
6.658186
 20
0.093312
 30
0.000000
  0
VERTEX
  8
LAYER-1
 10
6.653846
 20
0.093312
 30
0.000000
  0
VERTEX
  8
LAYER-1
 10
6.649506
 20
0.089840
 30
0.000000
  0
VERTEX
  8
LAYER-1
 10
6.649506
 20
0.085499
 30
0.000000
  0
VERTEX
  8
LAYER-1
 10
6.650374
 20
0.081159
 30
0.000000
  0
VERTEX
  8
LAYER-1
 10
6.654714
 20
0.078554
 30
0.000000
  0
SEQEND
  8
LAYER-1
  0
POLYLINE
  8
LAYER-1
 66
  1
 70
  1
 62
  0
 10
6.729800
 20
0.093742
 30
0.000000
  0
VERTEX
  8
LAYER-1
 10
6.729800
 20
0.093742
 30
0.000000
  0
VERTEX
  8
LAYER-1
 10
6.704627
 20
0.110235
 30
0.000000
  0
VERTEX
  8
LAYER-1
 10
6.696814
 20
0.095478
 30
0.000000
  0
SEQEND
  8
LAYER-1
  0
POLYLINE
  8
LAYER-1
 66
  1
 70
  0
 62
  0
 10
6.740217
 20
0.132807
 30
0.000000
  0
VERTEX
  8
LAYER-1
 10
6.740217
 20
0.132807
 30
0.000000
  0
VERTEX
  8
LAYER-1
 10
6.740217
 20
0.137148
 30
0.000000
  0
VERTEX
  8
LAYER-1
 10
6.735877
 20
0.140620
 30
0.000000
  0
VERTEX
  8
LAYER-1
 10
6.730669
 20
0.141488
 30
0.000000
  0
VERTEX
  8
LAYER-1
 10
6.726328
 20
0.139752
 30
0.000000
  0
VERTEX
  8
LAYER-1
 10
6.724592
 20
0.135411
 30
0.000000
  0
VERTEX
  8
LAYER-1
 10
6.724592
 20
0.131071
 30
0.000000
  0
VERTEX
  8
LAYER-1
 10
6.728064
 20
0.126730
 30
0.000000
  0
VERTEX
  8
LAYER-1
 10
6.732404
 20
0.126730
 30
0.000000
  0
VERTEX
  8
LAYER-1
 10
6.736746
 20
0.127598
 30
0.000000
  0
VERTEX
  8
LAYER-1
 10
6.739351
 20
0.131939
 30
0.000000
  0
SEQEND
  8
LAYER-1
  0
POLYLINE
  8
LAYER-1
 66
  1
 70
  1
 62
  0
 10
6.686740
 20
0.138659
 30
0.000000
  0
VERTEX
  8
LAYER-1
 10
6.686740
 20
0.138659
 30
0.000000
  0
VERTEX
  8
LAYER-1
 10
6.699427
 20
0.158023
 30
0.000000
  0
VERTEX
  8
LAYER-1
 10
6.688076
 20
0.164034
 30
0.000000
  0
SEQEND
  8
LAYER-1
  0
POLYLINE
  8
LAYER-1
 66
  1
 70
  0
 62
  0
 10
6.010097
 20
0.168446
 30
0.000000
  0
VERTEX
  8
LAYER-1
 10
6.010097
 20
0.168446
 30
0.000000
  0
VERTEX
  8
LAYER-1
 10
6.010097
 20
0.172785
 30
0.000000
  0
VERTEX
  8
LAYER-1
 10
6.005756
 20
0.176259
 30
0.000000
  0
VERTEX
  8
LAYER-1
 10
6.000548
 20
0.177126
 30
0.000000
  0
VERTEX
  8
LAYER-1
 10
5.996208
 20
0.175390
 30
0.000000
  0
VERTEX
  8
LAYER-1
 10
5.994472
 20
0.171048
 30
0.000000
  0
VERTEX
  8
LAYER-1
 10
5.994472
 20
0.166708
 30
0.000000
  0
VERTEX
  8
LAYER-1
 10
5.997944
 20
0.162370
 30
0.000000
  0
VERTEX
  8
LAYER-1
 10
6.002285
 20
0.162370
 30
0.000000
  0
VERTEX
  8
LAYER-1
 10
6.006625
 20
0.163236
 30
0.000000
  0
VERTEX
  8
LAYER-1
 10
6.009230
 20
0.167577
 30
0.000000
  0
SEQEND
  8
LAYER-1
  0
POLYLINE
  8
LAYER-1
 66
  1
 70
  0
 62
  0
 10
6.596035
 20
0.131989
 30
0.000000
  0
VERTEX
  8
LAYER-1
 10
6.596035
 20
0.131989
 30
0.000000
  0
VERTEX
  8
LAYER-1
 10
6.600376
 20
0.131989
 30
0.000000
  0
VERTEX
  8
LAYER-1
 10
6.603848
 20
0.136329
 30
0.000000
  0
VERTEX
  8
LAYER-1
 10
6.604716
 20
0.141536
 30
0.000000
  0
VERTEX
  8
LAYER-1
 10
6.602979
 20
0.145877
 30
0.000000
  0
VERTEX
  8
LAYER-1
 10
6.598639
 20
0.147614
 30
0.000000
  0
VERTEX
  8
LAYER-1
 10
6.594299
 20
0.147614
 30
0.000000
  0
VERTEX
  8
LAYER-1
 10
6.589959
 20
0.144141
 30
0.000000
  0
VERTEX
  8
LAYER-1
 10
6.589959
 20
0.139801
 30
0.000000
  0
VERTEX
  8
LAYER-1
 10
6.590826
 20
0.135460
 30
0.000000
  0
VERTEX
  8
LAYER-1
 10
6.595167
 20
0.132855
 30
0.000000
  0
SEQEND
  8
LAYER-1
  0
POLYLINE
  8
LAYER-1
 66
  1
 70
  1
 62
  0
 10
0.853671
 20
0.135669
 30
0.000000
  0
VERTEX
  8
LAYER-1
 10
0.853671
 20
0.135669
 30
0.000000
  0
VERTEX
  8
LAYER-1
 10
0.831100
 20
0.148690
 30
0.000000
  0
VERTEX
  8
LAYER-1
 10
0.851933
 20
0.118309
 30
0.000000
  0
SEQEND
  8
LAYER-1
  0
POLYLINE
  8
LAYER-1
 66
  1
 70
  0
 62
  0
 10
0.842386
 20
0.068829
 30
0.000000
  0
VERTEX
  8
LAYER-1
 10
0.842386
 20
0.068829
 30
0.000000
  0
VERTEX
  8
LAYER-1
 10
0.842386
 20
0.073168
 30
0.000000
  0
VERTEX
  8
LAYER-1
 10
0.838046
 20
0.076642
 30
0.000000
  0
VERTEX
  8
LAYER-1
 10
0.832838
 20
0.077509
 30
0.000000
  0
VERTEX
  8
LAYER-1
 10
0.828497
 20
0.075773
 30
0.000000
  0
VERTEX
  8
LAYER-1
 10
0.826761
 20
0.071431
 30
0.000000
  0
VERTEX
  8
LAYER-1
 10
0.826761
 20
0.067091
 30
0.000000
  0
VERTEX
  8
LAYER-1
 10
0.830233
 20
0.062753
 30
0.000000
  0
VERTEX
  8
LAYER-1
 10
0.834574
 20
0.062753
 30
0.000000
  0
VERTEX
  8
LAYER-1
 10
0.838914
 20
0.063619
 30
0.000000
  0
VERTEX
  8
LAYER-1
 10
0.841519
 20
0.067960
 30
0.000000
  0
SEQEND
  8
LAYER-1
  0
POLYLINE
  8
LAYER-1
 66
  1
 70
  1
 62
  0
 10
1.120426
 20
0.057628
 30
0.000000
  0
VERTEX
  8
LAYER-1
 10
1.120426
 20
0.057628
 30
0.000000
  0
VERTEX
  8
LAYER-1
 10
1.136919
 20
0.082803
 30
0.000000
  0
VERTEX
  8
LAYER-1
 10
1.122162
 20
0.090615
 30
0.000000
  0
SEQEND
  8
LAYER-1
  0
POLYLINE
  8
LAYER-1
 66
  1
 70
  1
 62
  0
 10
1.168335
 20
0.072723
 30
0.000000
  0
VERTEX
  8
LAYER-1
 10
1.168335
 20
0.072723
 30
0.000000
  0
VERTEX
  8
LAYER-1
 10
1.181023
 20
0.092088
 30
0.000000
  0
VERTEX
  8
LAYER-1
 10
1.169671
 20
0.098098
 30
0.000000
  0
SEQEND
  8
LAYER-1
  0
POLYLINE
  8
LAYER-1
 66
  1
 70
  0
 62
  0
 10
1.232405
 20
0.048951
 30
0.000000
  0
VERTEX
  8
LAYER-1
 10
1.232405
 20
0.048951
 30
0.000000
  0
VERTEX
  8
LAYER-1
 10
1.236745
 20
0.048951
 30
0.000000
  0
VERTEX
  8
LAYER-1
 10
1.240217
 20
0.053291
 30
0.000000
  0
VERTEX
  8
LAYER-1
 10
1.241085
 20
0.058499
 30
0.000000
  0
VERTEX
  8
LAYER-1
 10
1.239349
 20
0.062840
 30
0.000000
  0
VERTEX
  8
LAYER-1
 10
1.235009
 20
0.064576
 30
0.000000
  0
VERTEX
  8
LAYER-1
 10
1.230669
 20
0.064576
 30
0.000000
  0
VERTEX
  8
LAYER-1
 10
1.226328
 20
0.061104
 30
0.000000
  0
VERTEX
  8
LAYER-1
 10
1.226328
 20
0.056764
 30
0.000000
  0
VERTEX
  8
LAYER-1
 10
1.227196
 20
0.052422
 30
0.000000
  0
VERTEX
  8
LAYER-1
 10
1.231537
 20
0.049818
 30
0.000000
  0
SEQEND
  8
LAYER-1
  0
POLYLINE
  8
LAYER-1
 66
  1
 70
  1
 62
  0
 10
1.266259
 20
0.111883
 30
0.000000
  0
VERTEX
  8
LAYER-1
 10
1.266259
 20
0.111883
 30
0.000000
  0
VERTEX
  8
LAYER-1
 10
1.240217
 20
0.104939
 30
0.000000
  0
VERTEX
  8
LAYER-1
 10
1.254105
 20
0.079765
 30
0.000000
  0
SEQEND
  8
LAYER-1
  0
POLYLINE
  8
LAYER-1
 66
  1
 70
  0
 62
  0
 10
2.634141
 20
0.079591
 30
0.000000
  0
VERTEX
  8
LAYER-1
 10
2.634141
 20
0.079591
 30
0.000000
  0
VERTEX
  8
LAYER-1
 10
2.634141
 20
0.083931
 30
0.000000
  0
VERTEX
  8
LAYER-1
 10
2.629801
 20
0.087403
 30
0.000000
  0
VERTEX
  8
LAYER-1
 10
2.624593
 20
0.088270
 30
0.000000
  0
VERTEX
  8
LAYER-1
 10
2.620252
 20
0.086535
 30
0.000000
  0
VERTEX
  8
LAYER-1
 10
2.618516
 20
0.082195
 30
0.000000
  0
VERTEX
  8
LAYER-1
 10
2.618516
 20
0.077855
 30
0.000000
  0
VERTEX
  8
LAYER-1
 10
2.621988
 20
0.073513
 30
0.000000
  0
VERTEX
  8
LAYER-1
 10
2.626329
 20
0.073513
 30
0.000000
  0
VERTEX
  8
LAYER-1
 10
2.630669
 20
0.074382
 30
0.000000
  0
VERTEX
  8
LAYER-1
 10
2.633273
 20
0.078723
 30
0.000000
  0
SEQEND
  8
LAYER-1
  0
POLYLINE
  8
LAYER-1
 66
  1
 70
  1
 62
  0
 10
2.568168
 20
0.042699
 30
0.000000
  0
VERTEX
  8
LAYER-1
 10
2.568168
 20
0.042699
 30
0.000000
  0
VERTEX
  8
LAYER-1
 10
2.561224
 20
0.068741
 30
0.000000
  0
VERTEX
  8
LAYER-1
 10
2.536051
 20
0.054852
 30
0.000000
  0
SEQEND
  8
LAYER-1
  0
POLYLINE
  8
LAYER-1
 66
  1
 70
  1
 62
  0
 10
2.580321
 20
0.079158
 30
0.000000
  0
VERTEX
  8
LAYER-1
 10
2.580321
 20
0.079158
 30
0.000000
  0
VERTEX
  8
LAYER-1
 10
2.593342
 20
0.101727
 30
0.000000
  0
VERTEX
  8
LAYER-1
 10
2.562960
 20
0.080894
 30
0.000000
  0
SEQEND
  8
LAYER-1
  0
POLYLINE
  8
LAYER-1
 66
  1
 70
  0
 62
  0
 10
2.416520
 20
0.090007
 30
0.000000
  0
VERTEX
  8
LAYER-1
 10
2.416520
 20
0.090007
 30
0.000000
  0
VERTEX
  8
LAYER-1
 10
2.412179
 20
0.090007
 30
0.000000
  0
VERTEX
  8
LAYER-1
 10
2.408707
 20
0.085667
 30
0.000000
  0
VERTEX
  8
LAYER-1
 10
2.407839
 20
0.080460
 30
0.000000
  0
VERTEX
  8
LAYER-1
 10
2.409575
 20
0.076118
 30
0.000000
  0
VERTEX
  8
LAYER-1
 10
2.413916
 20
0.074382
 30
0.000000
  0
VERTEX
  8
LAYER-1
 10
2.418255
 20
0.074382
 30
0.000000
  0
VERTEX
  8
LAYER-1
 10
2.422596
 20
0.077855
 30
0.000000
  0
VERTEX
  8
LAYER-1
 10
2.422596
 20
0.082195
 30
0.000000
  0
VERTEX
  8
LAYER-1
 10
2.421728
 20
0.086536
 30
0.000000
  0
VERTEX
  8
LAYER-1
 10
2.417388
 20
0.089141
 30
0.000000
  0
SEQEND
  8
LAYER-1
  0
POLYLINE
  8
LAYER-1
 66
  1
 70
  1
 62
  0
 10
2.496380
 20
0.052681
 30
0.000000
  0
VERTEX
  8
LAYER-1
 10
2.496380
 20
0.052681
 30
0.000000
  0
VERTEX
  8
LAYER-1
 10
2.473810
 20
0.065703
 30
0.000000
  0
VERTEX
  8
LAYER-1
 10
2.494642
 20
0.035320
 30
0.000000
  0
SEQEND
  8
LAYER-1
  0
POLYLINE
  8
LAYER-1
 66
  1
 70
  1
 62
  0
 10
3.091352
 20
0.053531
 30
0.000000
  0
VERTEX
  8
LAYER-1
 10
3.091352
 20
0.053531
 30
0.000000
  0
VERTEX
  8
LAYER-1
 10
3.104373
 20
0.076102
 30
0.000000
  0
VERTEX
  8
LAYER-1
 10
3.073991
 20
0.055269
 30
0.000000
  0
SEQEND
  8
LAYER-1
  0
POLYLINE
  8
LAYER-1
 66
  1
 70
  1
 62
  0
 10
2.996902
 20
0.059945
 30
0.000000
  0
VERTEX
  8
LAYER-1
 10
2.996902
 20
0.059945
 30
0.000000
  0
VERTEX
  8
LAYER-1
 10
3.009588
 20
0.079308
 30
0.000000
  0
VERTEX
  8
LAYER-1
 10
2.998238
 20
0.085320
 30
0.000000
  0
SEQEND
  8
LAYER-1
  0
POLYLINE
  8
LAYER-1
 66
  1
 70
  0
 62
  0
 10
3.125208
 20
0.052665
 30
0.000000
  0
VERTEX
  8
LAYER-1
 10
3.125208
 20
0.052665
 30
0.000000
  0
VERTEX
  8
LAYER-1
 10
3.129548
 20
0.052665
 30
0.000000
  0
VERTEX
  8
LAYER-1
 10
3.133020
 20
0.057005
 30
0.000000
  0
VERTEX
  8
LAYER-1
 10
3.133888
 20
0.062213
 30
0.000000
  0
VERTEX
  8
LAYER-1
 10
3.132152
 20
0.066554
 30
0.000000
  0
VERTEX
  8
LAYER-1
 10
3.127811
 20
0.068290
 30
0.000000
  0
VERTEX
  8
LAYER-1
 10
3.123472
 20
0.068290
 30
0.000000
  0
VERTEX
  8
LAYER-1
 10
3.119131
 20
0.064818
 30
0.000000
  0
VERTEX
  8
LAYER-1
 10
3.119131
 20
0.060477
 30
0.000000
  0
VERTEX
  8
LAYER-1
 10
3.119999
 20
0.056136
 30
0.000000
  0
VERTEX
  8
LAYER-1
 10
3.124340
 20
0.053531
 30
0.000000
  0
SEQEND
  8
LAYER-1
  0
POLYLINE
  8
LAYER-1
 66
  1
 70
  0
 62
  0
 10
3.011491
 20
0.043981
 30
0.000000
  0
VERTEX
  8
LAYER-1
 10
3.011491
 20
0.043981
 30
0.000000
  0
VERTEX
  8
LAYER-1
 10
3.007150
 20
0.043981
 30
0.000000
  0
VERTEX
  8
LAYER-1
 10
3.003678
 20
0.039641
 30
0.000000
  0
VERTEX
  8
LAYER-1
 10
3.002810
 20
0.034433
 30
0.000000
  0
VERTEX
  8
LAYER-1
 10
3.004546
 20
0.030092
 30
0.000000
  0
VERTEX
  8
LAYER-1
 10
3.008887
 20
0.028356
 30
0.000000
  0
VERTEX
  8
LAYER-1
 10
3.013227
 20
0.028356
 30
0.000000
  0
VERTEX
  8
LAYER-1
 10
3.017568
 20
0.031828
 30
0.000000
  0
VERTEX
  8
LAYER-1
 10
3.017568
 20
0.036168
 30
0.000000
  0
VERTEX
  8
LAYER-1
 10
3.016699
 20
0.040510
 30
0.000000
  0
VERTEX
  8
LAYER-1
 10
3.012359
 20
0.043115
 30
0.000000
  0
SEQEND
  8
LAYER-1
  0
POLYLINE
  8
LAYER-1
 66
  1
 70
  1
 62
  0
 10
2.852544
 20
0.057282
 30
0.000000
  0
VERTEX
  8
LAYER-1
 10
2.852544
 20
0.057282
 30
0.000000
  0
VERTEX
  8
LAYER-1
 10
2.865565
 20
0.079853
 30
0.000000
  0
VERTEX
  8
LAYER-1
 10
2.835183
 20
0.059020
 30
0.000000
  0
SEQEND
  8
LAYER-1
  0
POLYLINE
  8
LAYER-1
 66
  1
 70
  0
 62
  0
 10
2.886400
 20
0.056415
 30
0.000000
  0
VERTEX
  8
LAYER-1
 10
2.886400
 20
0.056415
 30
0.000000
  0
VERTEX
  8
LAYER-1
 10
2.890740
 20
0.056415
 30
0.000000
  0
VERTEX
  8
LAYER-1
 10
2.894212
 20
0.060756
 30
0.000000
  0
VERTEX
  8
LAYER-1
 10
2.895080
 20
0.065964
 30
0.000000
  0
VERTEX
  8
LAYER-1
 10
2.893344
 20
0.070304
 30
0.000000
  0
VERTEX
  8
LAYER-1
 10
2.889003
 20
0.072040
 30
0.000000
  0
VERTEX
  8
LAYER-1
 10
2.884663
 20
0.072040
 30
0.000000
  0
VERTEX
  8
LAYER-1
 10
2.880323
 20
0.068569
 30
0.000000
  0
VERTEX
  8
LAYER-1
 10
2.880323
 20
0.064228
 30
0.000000
  0
VERTEX
  8
LAYER-1
 10
2.881191
 20
0.059887
 30
0.000000
  0
VERTEX
  8
LAYER-1
 10
2.885532
 20
0.057282
 30
0.000000
  0
SEQEND
  8
LAYER-1
  0
POLYLINE
  8
LAYER-1
 66
  1
 70
  1
 62
  0
 10
3.484661
 20
0.092353
 30
0.000000
  0
VERTEX
  8
LAYER-1
 10
3.484661
 20
0.092353
 30
0.000000
  0
VERTEX
  8
LAYER-1
 10
3.507231
 20
0.079331
 30
0.000000
  0
VERTEX
  8
LAYER-1
 10
3.486398
 20
0.109714
 30
0.000000
  0
SEQEND
  8
LAYER-1
  0
POLYLINE
  8
LAYER-1
 66
  1
 70
  0
 62
  0
 10
3.483794
 20
0.058497
 30
0.000000
  0
VERTEX
  8
LAYER-1
 10
3.483794
 20
0.058497
 30
0.000000
  0
VERTEX
  8
LAYER-1
 10
3.483794
 20
0.054156
 30
0.000000
  0
VERTEX
  8
LAYER-1
 10
3.488135
 20
0.050685
 30
0.000000
  0
VERTEX
  8
LAYER-1
 10
3.493342
 20
0.049817
 30
0.000000
  0
VERTEX
  8
LAYER-1
 10
3.497682
 20
0.051553
 30
0.000000
  0
VERTEX
  8
LAYER-1
 10
3.499418
 20
0.055893
 30
0.000000
  0
VERTEX
  8
LAYER-1
 10
3.499418
 20
0.060233
 30
0.000000
  0
VERTEX
  8
LAYER-1
 10
3.495947
 20
0.064573
 30
0.000000
  0
VERTEX
  8
LAYER-1
 10
3.491606
 20
0.064573
 30
0.000000
  0
VERTEX
  8
LAYER-1
 10
3.487266
 20
0.063705
 30
0.000000
  0
VERTEX
  8
LAYER-1
 10
3.484661
 20
0.059365
 30
0.000000
  0
SEQEND
  8
LAYER-1
  0
POLYLINE
  8
LAYER-1
 66
  1
 70
  1
 62
  0
 10
4.034140
 20
0.124382
 30
0.000000
  0
VERTEX
  8
LAYER-1
 10
4.034140
 20
0.124382
 30
0.000000
  0
VERTEX
  8
LAYER-1
 10
4.041085
 20
0.098341
 30
0.000000
  0
VERTEX
  8
LAYER-1
 10
4.066258
 20
0.112229
 30
0.000000
  0
SEQEND
  8
LAYER-1
  0
POLYLINE
  8
LAYER-1
 66
  1
 70
  1
 62
  0
 10
4.005928
 20
0.087488
 30
0.000000
  0
VERTEX
  8
LAYER-1
 10
4.005928
 20
0.087488
 30
0.000000
  0
VERTEX
  8
LAYER-1
 10
4.028497
 20
0.074468
 30
0.000000
  0
VERTEX
  8
LAYER-1
 10
4.007665
 20
0.104849
 30
0.000000
  0
SEQEND
  8
LAYER-1
  0
POLYLINE
  8
LAYER-1
 66
  1
 70
  1
 62
  0
 10
4.122582
 20
0.079508
 30
0.000000
  0
VERTEX
  8
LAYER-1
 10
4.122582
 20
0.079508
 30
0.000000
  0
VERTEX
  8
LAYER-1
 10
4.141947
 20
0.066821
 30
0.000000
  0
VERTEX
  8
LAYER-1
 10
4.147958
 20
0.078172
 30
0.000000
  0
SEQEND
  8
LAYER-1
  0
POLYLINE
  8
LAYER-1
 66
  1
 70
  0
 62
  0
 10
4.067127
 20
0.085316
 30
0.000000
  0
VERTEX
  8
LAYER-1
 10
4.067127
 20
0.085316
 30
0.000000
  0
VERTEX
  8
LAYER-1
 10
4.062787
 20
0.085316
 30
0.000000
  0
VERTEX
  8
LAYER-1
 10
4.059315
 20
0.080975
 30
0.000000
  0
VERTEX
  8
LAYER-1
 10
4.058447
 20
0.075768
 30
0.000000
  0
VERTEX
  8
LAYER-1
 10
4.060183
 20
0.071427
 30
0.000000
  0
VERTEX
  8
LAYER-1
 10
4.064523
 20
0.069691
 30
0.000000
  0
VERTEX
  8
LAYER-1
 10
4.068863
 20
0.069691
 30
0.000000
  0
VERTEX
  8
LAYER-1
 10
4.073204
 20
0.073163
 30
0.000000
  0
VERTEX
  8
LAYER-1
 10
4.073204
 20
0.077504
 30
0.000000
  0
VERTEX
  8
LAYER-1
 10
4.072335
 20
0.081844
 30
0.000000
  0
VERTEX
  8
LAYER-1
 10
4.067995
 20
0.084448
 30
0.000000
  0
SEQEND
  8
LAYER-1
  0
POLYLINE
  8
LAYER-1
 66
  1
 70
  0
 62
  0
 10
3.951676
 20
0.062748
 30
0.000000
  0
VERTEX
  8
LAYER-1
 10
3.951676
 20
0.062748
 30
0.000000
  0
VERTEX
  8
LAYER-1
 10
3.956017
 20
0.062748
 30
0.000000
  0
VERTEX
  8
LAYER-1
 10
3.959488
 20
0.067088
 30
0.000000
  0
VERTEX
  8
LAYER-1
 10
3.960357
 20
0.072296
 30
0.000000
  0
VERTEX
  8
LAYER-1
 10
3.958621
 20
0.076636
 30
0.000000
  0
VERTEX
  8
LAYER-1
 10
3.954280
 20
0.078373
 30
0.000000
  0
VERTEX
  8
LAYER-1
 10
3.949940
 20
0.078373
 30
0.000000
  0
VERTEX
  8
LAYER-1
 10
3.945599
 20
0.074900
 30
0.000000
  0
VERTEX
  8
LAYER-1
 10
3.945599
 20
0.070560
 30
0.000000
  0
VERTEX
  8
LAYER-1
 10
3.946468
 20
0.066219
 30
0.000000
  0
VERTEX
  8
LAYER-1
 10
3.950809
 20
0.063615
 30
0.000000
  0
SEQEND
  8
LAYER-1
  0
POLYLINE
  8
LAYER-1
 66
  1
 70
  1
 62
  0
 10
4.438323
 20
0.033061
 30
0.000000
  0
VERTEX
  8
LAYER-1
 10
4.438323
 20
0.033061
 30
0.000000
  0
VERTEX
  8
LAYER-1
 10
4.431378
 20
0.059102
 30
0.000000
  0
VERTEX
  8
LAYER-1
 10
4.406205
 20
0.045213
 30
0.000000
  0
SEQEND
  8
LAYER-1
  0
POLYLINE
  8
LAYER-1
 66
  1
 70
  1
 62
  0
 10
4.466536
 20
0.069955
 30
0.000000
  0
VERTEX
  8
LAYER-1
 10
4.466536
 20
0.069955
 30
0.000000
  0
VERTEX
  8
LAYER-1
 10
4.443966
 20
0.082975
 30
0.000000
  0
VERTEX
  8
LAYER-1
 10
4.464799
 20
0.052594
 30
0.000000
  0
SEQEND
  8
LAYER-1
  0
POLYLINE
  8
LAYER-1
 66
  1
 70
  1
 62
  0
 10
4.349881
 20
0.077934
 30
0.000000
  0
VERTEX
  8
LAYER-1
 10
4.349881
 20
0.077934
 30
0.000000
  0
VERTEX
  8
LAYER-1
 10
4.330517
 20
0.090622
 30
0.000000
  0
VERTEX
  8
LAYER-1
 10
4.324507
 20
0.079270
 30
0.000000
  0
SEQEND
  8
LAYER-1
  0
POLYLINE
  8
LAYER-1
 66
  1
 70
  0
 62
  0
 10
4.405336
 20
0.072127
 30
0.000000
  0
VERTEX
  8
LAYER-1
 10
4.405336
 20
0.072127
 30
0.000000
  0
VERTEX
  8
LAYER-1
 10
4.409677
 20
0.072127
 30
0.000000
  0
VERTEX
  8
LAYER-1
 10
4.413149
 20
0.076468
 30
0.000000
  0
VERTEX
  8
LAYER-1
 10
4.414017
 20
0.081675
 30
0.000000
  0
VERTEX
  8
LAYER-1
 10
4.412281
 20
0.086015
 30
0.000000
  0
VERTEX
  8
LAYER-1
 10
4.407941
 20
0.087752
 30
0.000000
  0
VERTEX
  8
LAYER-1
 10
4.403600
 20
0.087752
 30
0.000000
  0
VERTEX
  8
LAYER-1
 10
4.399259
 20
0.084280
 30
0.000000
  0
VERTEX
  8
LAYER-1
 10
4.399259
 20
0.079939
 30
0.000000
  0
VERTEX
  8
LAYER-1
 10
4.400128
 20
0.075599
 30
0.000000
  0
VERTEX
  8
LAYER-1
 10
4.404468
 20
0.072995
 30
0.000000
  0
SEQEND
  8
LAYER-1
  0
POLYLINE
  8
LAYER-1
 66
  1
 70
  0
 62
  0
 10
4.520788
 20
0.094695
 30
0.000000
  0
VERTEX
  8
LAYER-1
 10
4.520788
 20
0.094695
 30
0.000000
  0
VERTEX
  8
LAYER-1
 10
4.516447
 20
0.094695
 30
0.000000
  0
VERTEX
  8
LAYER-1
 10
4.512975
 20
0.090355
 30
0.000000
  0
VERTEX
  8
LAYER-1
 10
4.512106
 20
0.085147
 30
0.000000
  0
VERTEX
  8
LAYER-1
 10
4.513842
 20
0.080806
 30
0.000000
  0
VERTEX
  8
LAYER-1
 10
4.518183
 20
0.079070
 30
0.000000
  0
VERTEX
  8
LAYER-1
 10
4.522524
 20
0.079070
 30
0.000000
  0
VERTEX
  8
LAYER-1
 10
4.526864
 20
0.082542
 30
0.000000
  0
VERTEX
  8
LAYER-1
 10
4.526864
 20
0.086883
 30
0.000000
  0
VERTEX
  8
LAYER-1
 10
4.525995
 20
0.091224
 30
0.000000
  0
VERTEX
  8
LAYER-1
 10
4.521655
 20
0.093828
 30
0.000000
  0
SEQEND
  8
LAYER-1
  0
POLYLINE
  8
LAYER-1
 66
  1
 70
  1
 62
  0
 10
4.690666
 20
0.016654
 30
0.000000
  0
VERTEX
  8
LAYER-1
 10
4.690666
 20
0.016654
 30
0.000000
  0
VERTEX
  8
LAYER-1
 10
4.683721
 20
0.042695
 30
0.000000
  0
VERTEX
  8
LAYER-1
 10
4.658549
 20
0.028807
 30
0.000000
  0
SEQEND
  8
LAYER-1
  0
POLYLINE
  8
LAYER-1
 66
  1
 70
  1
 62
  0
 10
4.718878
 20
0.053548
 30
0.000000
  0
VERTEX
  8
LAYER-1
 10
4.718878
 20
0.053548
 30
0.000000
  0
VERTEX
  8
LAYER-1
 10
4.696309
 20
0.066568
 30
0.000000
  0
VERTEX
  8
LAYER-1
 10
4.717141
 20
0.036187
 30
0.000000
  0
SEQEND
  8
LAYER-1
  0
POLYLINE
  8
LAYER-1
 66
  1
 70
  1
 62
  0
 10
4.602225
 20
0.061528
 30
0.000000
  0
VERTEX
  8
LAYER-1
 10
4.602225
 20
0.061528
 30
0.000000
  0
VERTEX
  8
LAYER-1
 10
4.582860
 20
0.074215
 30
0.000000
  0
VERTEX
  8
LAYER-1
 10
4.576850
 20
0.062864
 30
0.000000
  0
SEQEND
  8
LAYER-1
  0
POLYLINE
  8
LAYER-1
 66
  1
 70
  0
 62
  0
 10
4.657680
 20
0.055720
 30
0.000000
  0
VERTEX
  8
LAYER-1
 10
4.657680
 20
0.055720
 30
0.000000
  0
VERTEX
  8
LAYER-1
 10
4.662020
 20
0.055720
 30
0.000000
  0
VERTEX
  8
LAYER-1
 10
4.665492
 20
0.060061
 30
0.000000
  0
VERTEX
  8
LAYER-1
 10
4.666360
 20
0.065269
 30
0.000000
  0
VERTEX
  8
LAYER-1
 10
4.664624
 20
0.069610
 30
0.000000
  0
VERTEX
  8
LAYER-1
 10
4.660284
 20
0.071345
 30
0.000000
  0
VERTEX
  8
LAYER-1
 10
4.655944
 20
0.071345
 30
0.000000
  0
VERTEX
  8
LAYER-1
 10
4.651603
 20
0.067874
 30
0.000000
  0
VERTEX
  8
LAYER-1
 10
4.651603
 20
0.063533
 30
0.000000
  0
VERTEX
  8
LAYER-1
 10
4.652472
 20
0.059192
 30
0.000000
  0
VERTEX
  8
LAYER-1
 10
4.656812
 20
0.056588
 30
0.000000
  0
SEQEND
  8
LAYER-1
  0
POLYLINE
  8
LAYER-1
 66
  1
 70
  0
 62
  0
 10
4.773131
 20
0.078289
 30
0.000000
  0
VERTEX
  8
LAYER-1
 10
4.773131
 20
0.078289
 30
0.000000
  0
VERTEX
  8
LAYER-1
 10
4.768790
 20
0.078289
 30
0.000000
  0
VERTEX
  8
LAYER-1
 10
4.765318
 20
0.073948
 30
0.000000
  0
VERTEX
  8
LAYER-1
 10
4.764449
 20
0.068741
 30
0.000000
  0
VERTEX
  8
LAYER-1
 10
4.766185
 20
0.064400
 30
0.000000
  0
VERTEX
  8
LAYER-1
 10
4.770526
 20
0.062664
 30
0.000000
  0
VERTEX
  8
LAYER-1
 10
4.774866
 20
0.062664
 30
0.000000
  0
VERTEX
  8
LAYER-1
 10
4.779207
 20
0.066136
 30
0.000000
  0
VERTEX
  8
LAYER-1
 10
4.779207
 20
0.070476
 30
0.000000
  0
VERTEX
  8
LAYER-1
 10
4.778338
 20
0.074817
 30
0.000000
  0
VERTEX
  8
LAYER-1
 10
4.773997
 20
0.077422
 30
0.000000
  0
SEQEND
  8
LAYER-1
  0
POLYLINE
  8
LAYER-1
 66
  1
 70
  1
 62
  0
 10
4.911225
 20
0.115703
 30
0.000000
  0
VERTEX
  8
LAYER-1
 10
4.911225
 20
0.115703
 30
0.000000
  0
VERTEX
  8
LAYER-1
 10
4.918170
 20
0.089661
 30
0.000000
  0
VERTEX
  8
LAYER-1
 10
4.943343
 20
0.103550
 30
0.000000
  0
SEQEND
  8
LAYER-1
  0
POLYLINE
  8
LAYER-1
 66
  1
 70
  1
 62
  0
 10
4.883013
 20
0.078809
 30
0.000000
  0
VERTEX
  8
LAYER-1
 10
4.883013
 20
0.078809
 30
0.000000
  0
VERTEX
  8
LAYER-1
 10
4.905582
 20
0.065788
 30
0.000000
  0
VERTEX
  8
LAYER-1
 10
4.884750
 20
0.096169
 30
0.000000
  0
SEQEND
  8
LAYER-1
  0
POLYLINE
  8
LAYER-1
 66
  1
 70
  0
 62
  0
 10
4.828760
 20
0.054068
 30
0.000000
  0
VERTEX
  8
LAYER-1
 10
4.828760
 20
0.054068
 30
0.000000
  0
VERTEX
  8
LAYER-1
 10
4.833101
 20
0.054068
 30
0.000000
  0
VERTEX
  8
LAYER-1
 10
4.836573
 20
0.058409
 30
0.000000
  0
VERTEX
  8
LAYER-1
 10
4.837442
 20
0.063616
 30
0.000000
  0
VERTEX
  8
LAYER-1
 10
4.835706
 20
0.067957
 30
0.000000
  0
VERTEX
  8
LAYER-1
 10
4.831365
 20
0.069693
 30
0.000000
  0
VERTEX
  8
LAYER-1
 10
4.827025
 20
0.069693
 30
0.000000
  0
VERTEX
  8
LAYER-1
 10
4.822684
 20
0.066221
 30
0.000000
  0
VERTEX
  8
LAYER-1
 10
4.822684
 20
0.061880
 30
0.000000
  0
VERTEX
  8
LAYER-1
 10
4.823552
 20
0.057540
 30
0.000000
  0
VERTEX
  8
LAYER-1
 10
4.827894
 20
0.054935
 30
0.000000
  0
SEQEND
  8
LAYER-1
  0
POLYLINE
  8
LAYER-1
 66
  1
 70
  1
 62
  0
 10
5.464348
 20
0.227819
 30
0.000000
  0
VERTEX
  8
LAYER-1
 10
5.464348
 20
0.227819
 30
0.000000
  0
VERTEX
  8
LAYER-1
 10
5.471293
 20
0.201779
 30
0.000000
  0
VERTEX
  8
LAYER-1
 10
5.496466
 20
0.215666
 30
0.000000
  0
SEQEND
  8
LAYER-1
  0
POLYLINE
  8
LAYER-1
 66
  1
 70
  1
 62
  0
 10
5.477457
 20
0.182680
 30
0.000000
  0
VERTEX
  8
LAYER-1
 10
5.477457
 20
0.182680
 30
0.000000
  0
VERTEX
  8
LAYER-1
 10
5.464436
 20
0.160110
 30
0.000000
  0
VERTEX
  8
LAYER-1
 10
5.494818
 20
0.180942
 30
0.000000
  0
SEQEND
  8
LAYER-1
  0
POLYLINE
  8
LAYER-1
 66
  1
 70
  1
 62
  0
 10
5.168951
 20
0.151204
 30
0.000000
  0
VERTEX
  8
LAYER-1
 10
5.168951
 20
0.151204
 30
0.000000
  0
VERTEX
  8
LAYER-1
 10
5.162007
 20
0.177244
 30
0.000000
  0
VERTEX
  8
LAYER-1
 10
5.136834
 20
0.163357
 30
0.000000
  0
SEQEND
  8
LAYER-1
  0
POLYLINE
  8
LAYER-1
 66
  1
 70
  1
 62
  0
 10
5.155842
 20
0.196342
 30
0.000000
  0
VERTEX
  8
LAYER-1
 10
5.155842
 20
0.196342
 30
0.000000
  0
VERTEX
  8
LAYER-1
 10
5.168864
 20
0.218913
 30
0.000000
  0
VERTEX
  8
LAYER-1
 10
5.138481
 20
0.198080
 30
0.000000
  0
SEQEND
  8
LAYER-1
  0
POLYLINE
  8
LAYER-1
 66
  1
 70
  1
 62
  0
 10
5.673723
 20
0.053375
 30
0.000000
  0
VERTEX
  8
LAYER-1
 10
5.673723
 20
0.053375
 30
0.000000
  0
VERTEX
  8
LAYER-1
 10
5.699763
 20
0.060321
 30
0.000000
  0
VERTEX
  8
LAYER-1
 10
5.685876
 20
0.085494
 30
0.000000
  0
SEQEND
  8
LAYER-1
  0
POLYLINE
  8
LAYER-1
 66
  1
 70
  1
 62
  0
 10
5.718862
 20
0.066483
 30
0.000000
  0
VERTEX
  8
LAYER-1
 10
5.718862
 20
0.066483
 30
0.000000
  0
VERTEX
  8
LAYER-1
 10
5.741433
 20
0.053463
 30
0.000000
  0
VERTEX
  8
LAYER-1
 10
5.720600
 20
0.083845
 30
0.000000
  0
SEQEND
  8
LAYER-1
  0
ARC
  8
LAYER-1
 62
  0
 10
5.475659
 20
8.916788
 30
0.000000
 40
0.254425
 50
270.000000
 51
90.000000
  0
POLYLINE
  8
LAYER-1
 66
  1
 70
  0
 62
  0
 10
5.475659
 20
9.171213
 30
0.000000
  0
VERTEX
  8
LAYER-1
 10
5.475659
 20
9.171213
 30
0.000000
  0
VERTEX
  8
LAYER-1
 10
1.810737
 20
9.171213
 30
0.000000
  0
SEQEND
  8
LAYER-1
  0
POLYLINE
  8
LAYER-1
 66
  1
 70
  0
 62
  0
 10
1.810737
 20
9.171213
 30
0.000000
  0
VERTEX
  8
LAYER-1
 10
1.810737
 20
9.171213
 30
0.000000
  0
VERTEX
  8
LAYER-1
 10
1.810737
 20
8.662364
 30
0.000000
  0
SEQEND
  8
LAYER-1
  0
POLYLINE
  8
LAYER-1
 66
  1
 70
  0
 62
  0
 10
5.475659
 20
8.662364
 30
0.000000
  0
VERTEX
  8
LAYER-1
 10
5.475659
 20
8.662364
 30
0.000000
  0
VERTEX
  8
LAYER-1
 10
1.810737
 20
8.662364
 30
0.000000
  0
SEQEND
  8
LAYER-1
  0
TEXT
  8
LAYER-1
 62
  0
 10
3.614323
 20
9.461171
 30
0.000000
 40
0.333333
  1
MobilFlex
 72
  5
 11
5.767101
 21
9.461171
 31
0.000000
  0
POLYLINE
  8
LAYER-1
 66
  1
 70
  1
 62
  0
  0
VERTEX
  8
LAYER-1
 10
1.812241
 20
9.980338
 30
0.000000
  0
VERTEX
  8
LAYER-1
 10
2.050088
 20
9.980338
 30
0.000000
  0
VERTEX
  8
LAYER-1
 10
2.050088
 20
9.463393
 30
0.000000
  0
VERTEX
  8
LAYER-1
 10
1.812241
 20
9.463393
 30
0.000000
  0
SEQEND
  8
LAYER-1
  0
POLYLINE
  8
LAYER-1
 66
  1
 70
  1
 62
  0
  0
VERTEX
  8
LAYER-1
 10
2.124741
 20
9.980338
 30
0.000000
  0
VERTEX
  8
LAYER-1
 10
2.362588
 20
9.980338
 30
0.000000
  0
VERTEX
  8
LAYER-1
 10
2.362588
 20
9.463393
 30
0.000000
  0
VERTEX
  8
LAYER-1
 10
2.124741
 20
9.463393
 30
0.000000
  0
SEQEND
  8
LAYER-1
  0
POLYLINE
  8
LAYER-1
 66
  1
 70
  1
 62
  0
  0
VERTEX
  8
LAYER-1
 10
2.425088
 20
9.980338
 30
0.000000
  0
VERTEX
  8
LAYER-1
 10
2.662935
 20
9.980338
 30
0.000000
  0
VERTEX
  8
LAYER-1
 10
2.662935
 20
9.463393
 30
0.000000
  0
VERTEX
  8
LAYER-1
 10
2.425088
 20
9.463393
 30
0.000000
  0
SEQEND
  8
LAYER-1
  0
POLYLINE
  8
LAYER-1
 66
  1
 70
  1
 62
  0
  0
VERTEX
  8
LAYER-1
 10
2.728907
 20
9.980338
 30
0.000000
  0
VERTEX
  8
LAYER-1
 10
2.966754
 20
9.980338
 30
0.000000
  0
VERTEX
  8
LAYER-1
 10
2.966754
 20
9.463393
 30
0.000000
  0
VERTEX
  8
LAYER-1
 10
2.728907
 20
9.463393
 30
0.000000
  0
SEQEND
  8
LAYER-1
  0
POLYLINE
  8
LAYER-1
 66
  1
 70
  1
 62
  0
  0
VERTEX
  8
LAYER-1
 10
3.045748
 20
9.976423
 30
0.000000
  0
VERTEX
  8
LAYER-1
 10
3.421182
 20
9.976423
 30
0.000000
  0
VERTEX
  8
LAYER-1
 10
3.421182
 20
9.838402
 30
0.000000
  0
VERTEX
  8
LAYER-1
 10
3.045748
 20
9.838402
 30
0.000000
  0
SEQEND
  8
LAYER-1
  0
POLYLINE
  8
LAYER-1
 66
  1
 70
  1
 62
  0
  0
VERTEX
  8
LAYER-1
 10
3.045314
 20
9.748992
 30
0.000000
  0
VERTEX
  8
LAYER-1
 10
3.353473
 20
9.748992
 30
0.000000
  0
VERTEX
  8
LAYER-1
 10
3.353473
 20
9.614877
 30
0.000000
  0
VERTEX
  8
LAYER-1
 10
3.045314
 20
9.614877
 30
0.000000
  0
SEQEND
  8
LAYER-1
  0
POLYLINE
  8
LAYER-1
 66
  1
 70
  1
 62
  0
  0
VERTEX
  8
LAYER-1
 10
1.812241
 20
9.378766
 30
0.000000
  0
VERTEX
  8
LAYER-1
 10
5.730643
 20
9.378766
 30
0.000000
  0
VERTEX
  8
LAYER-1
 10
5.730643
 20
9.335364
 30
0.000000
  0
VERTEX
  8
LAYER-1
 10
1.812241
 20
9.335364
 30
0.000000
  0
SEQEND
  8
LAYER-1
  0
POLYLINE
  8
LAYER-1
 66
  1
 70
  1
 62
  0
  0
VERTEX
  8
LAYER-1
 10
3.438354
 20
7.144101
 30
0.000000
  0
VERTEX
  8
LAYER-1
 10
3.465263
 20
7.144101
 30
0.000000
  0
VERTEX
  8
LAYER-1
 10
3.465263
 20
0.616549
 30
0.000000
  0
VERTEX
  8
LAYER-1
 10
3.438354
 20
0.616549
 30
0.000000
  0
SEQEND
  8
LAYER-1
  0
POLYLINE
  8
LAYER-1
 66
  1
 70
  1
 62
  0
  0
VERTEX
  8
LAYER-1
 10
3.638078
 20
7.144026
 30
0.000000
  0
VERTEX
  8
LAYER-1
 10
3.674029
 20
7.144026
 30
0.000000
  0
VERTEX
  8
LAYER-1
 10
3.674029
 20
0.616747
 30
0.000000
  0
VERTEX
  8
LAYER-1
 10
3.638078
 20
0.616747
 30
0.000000
  0
SEQEND
  8
LAYER-1
  0
POLYLINE
  8
LAYER-1
 66
  1
 70
  1
 62
  0
  0
VERTEX
  8
LAYER-1
 10
3.030958
 20
7.144101
 30
0.000000
  0
VERTEX
  8
LAYER-1
 10
3.057867
 20
7.144101
 30
0.000000
  0
VERTEX
  8
LAYER-1
 10
3.057867
 20
0.616549
 30
0.000000
  0
VERTEX
  8
LAYER-1
 10
3.030958
 20
0.616549
 30
0.000000
  0
SEQEND
  8
LAYER-1
  0
POLYLINE
  8
LAYER-1
 66
  1
 70
  1
 62
  0
  0
VERTEX
  8
LAYER-1
 10
3.229815
 20
7.144026
 30
0.000000
  0
VERTEX
  8
LAYER-1
 10
3.265765
 20
7.144026
 30
0.000000
  0
VERTEX
  8
LAYER-1
 10
3.265765
 20
0.616747
 30
0.000000
  0
VERTEX
  8
LAYER-1
 10
3.229815
 20
0.616747
 30
0.000000
  0
SEQEND
  8
LAYER-1
  0
POLYLINE
  8
LAYER-1
 66
  1
 70
  1
 62
  0
  0
VERTEX
  8
LAYER-1
 10
2.623994
 20
7.144101
 30
0.000000
  0
VERTEX
  8
LAYER-1
 10
2.650903
 20
7.144101
 30
0.000000
  0
VERTEX
  8
LAYER-1
 10
2.650903
 20
0.616549
 30
0.000000
  0
VERTEX
  8
LAYER-1
 10
2.623994
 20
0.616549
 30
0.000000
  0
SEQEND
  8
LAYER-1
  0
POLYLINE
  8
LAYER-1
 66
  1
 70
  1
 62
  0
  0
VERTEX
  8
LAYER-1
 10
2.823286
 20
7.144026
 30
0.000000
  0
VERTEX
  8
LAYER-1
 10
2.859237
 20
7.144026
 30
0.000000
  0
VERTEX
  8
LAYER-1
 10
2.859237
 20
0.616747
 30
0.000000
  0
VERTEX
  8
LAYER-1
 10
2.823286
 20
0.616747
 30
0.000000
  0
SEQEND
  8
LAYER-1
  0
POLYLINE
  8
LAYER-1
 66
  1
 70
  1
 62
  0
  0
VERTEX
  8
LAYER-1
 10
2.214428
 20
7.144101
 30
0.000000
  0
VERTEX
  8
LAYER-1
 10
2.241337
 20
7.144101
 30
0.000000
  0
VERTEX
  8
LAYER-1
 10
2.241337
 20
0.616549
 30
0.000000
  0
VERTEX
  8
LAYER-1
 10
2.214428
 20
0.616549
 30
0.000000
  0
SEQEND
  8
LAYER-1
  0
POLYLINE
  8
LAYER-1
 66
  1
 70
  1
 62
  0
  0
VERTEX
  8
LAYER-1
 10
2.415022
 20
7.144026
 30
0.000000
  0
VERTEX
  8
LAYER-1
 10
2.450973
 20
7.144026
 30
0.000000
  0
VERTEX
  8
LAYER-1
 10
2.450973
 20
0.616747
 30
0.000000
  0
VERTEX
  8
LAYER-1
 10
2.415022
 20
0.616747
 30
0.000000
  0
SEQEND
  8
LAYER-1
  0
POLYLINE
  8
LAYER-1
 66
  1
 70
  1
 62
  0
  0
VERTEX
  8
LAYER-1
 10
1.803561
 20
7.144101
 30
0.000000
  0
VERTEX
  8
LAYER-1
 10
1.830471
 20
7.144101
 30
0.000000
  0
VERTEX
  8
LAYER-1
 10
1.830471
 20
0.616549
 30
0.000000
  0
VERTEX
  8
LAYER-1
 10
1.803561
 20
0.616549
 30
0.000000
  0
SEQEND
  8
LAYER-1
  0
POLYLINE
  8
LAYER-1
 66
  1
 70
  1
 62
  0
  0
VERTEX
  8
LAYER-1
 10
2.005456
 20
7.144026
 30
0.000000
  0
VERTEX
  8
LAYER-1
 10
2.041407
 20
7.144026
 30
0.000000
  0
VERTEX
  8
LAYER-1
 10
2.041407
 20
0.616747
 30
0.000000
  0
VERTEX
  8
LAYER-1
 10
2.005456
 20
0.616747
 30
0.000000
  0
SEQEND
  8
LAYER-1
  0
POLYLINE
  8
LAYER-1
 66
  1
 70
  1
 62
  0
 10
3.676596
 20
0.345082
 30
0.000000
  0
VERTEX
  8
LAYER-1
 10
3.676596
 20
0.345082
 30
0.000000
  0
VERTEX
  8
LAYER-1
 10
1.780678
 20
0.345183
 30
0.000000
  0
VERTEX
  8
LAYER-1
 10
1.780678
 20
0.616716
 30
0.000000
  0
VERTEX
  8
LAYER-1
 10
3.676596
 20
0.616832
 30
0.000000
  0
SEQEND
  8
LAYER-1
  0
POLYLINE
  8
LAYER-1
 66
  1
 70
  0
 62
  0
 10
3.676814
 20
0.412989
 30
0.000000
  0
VERTEX
  8
LAYER-1
 10
3.676814
 20
0.412989
 30
0.000000
  0
VERTEX
  8
LAYER-1
 10
3.637088
 20
0.412989
 30
0.000000
  0
SEQEND
  8
LAYER-1
  0
POLYLINE
  8
LAYER-1
 66
  1
 70
  0
 62
  0
 10
3.676814
 20
0.542899
 30
0.000000
  0
VERTEX
  8
LAYER-1
 10
3.676814
 20
0.542899
 30
0.000000
  0
VERTEX
  8
LAYER-1
 10
3.637088
 20
0.542899
 30
0.000000
  0
SEQEND
  8
LAYER-1
  0
POLYLINE
  8
LAYER-1
 66
  1
 70
  0
 62
  0
 10
3.638459
 20
0.339938
 30
0.000000
  0
VERTEX
  8
LAYER-1
 10
3.638459
 20
0.339938
 30
0.000000
  0
VERTEX
  8
LAYER-1
 10
3.651631
 20
0.332890
 30
0.000000
  0
VERTEX
  8
LAYER-1
 10
3.668711
 20
0.337221
 30
0.000000
  0
VERTEX
  8
LAYER-1
 10
3.675363
 20
0.339935
 30
0.000000
  0
SEQEND
  8
LAYER-1
  0
POLYLINE
  8
LAYER-1
 66
  1
 70
  1
 62
  0
  0
VERTEX
  8
LAYER-1
 10
3.682566
 20
0.339314
 30
0.000000
  0
VERTEX
  8
LAYER-1
 10
3.627950
 20
0.339314
 30
0.000000
  0
VERTEX
  8
LAYER-1
 10
3.627950
 20
0.345219
 30
0.000000
  0
VERTEX
  8
LAYER-1
 10
3.682566
 20
0.345219
 30
0.000000
  0
SEQEND
  8
LAYER-1
  0
POLYLINE
  8
LAYER-1
 66
  1
 70
  1
 62
  0
 10
3.676389
 20
7.415648
 30
0.000000
  0
VERTEX
  8
LAYER-1
 10
3.676389
 20
7.415648
 30
0.000000
  0
VERTEX
  8
LAYER-1
 10
1.780037
 20
7.415547
 30
0.000000
  0
VERTEX
  8
LAYER-1
 10
1.780037
 20
7.144014
 30
0.000000
  0
VERTEX
  8
LAYER-1
 10
3.676389
 20
7.143897
 30
0.000000
  0
SEQEND
  8
LAYER-1
  0
POLYLINE
  8
LAYER-1
 66
  1
 70
  0
 62
  0
 10
3.415101
 20
7.415648
 30
0.000000
  0
VERTEX
  8
LAYER-1
 10
3.415101
 20
7.415648
 30
0.000000
  0
VERTEX
  8
LAYER-1
 10
3.415101
 20
7.144016
 30
0.000000
  0
SEQEND
  8
LAYER-1
  0
POLYLINE
  8
LAYER-1
 66
  1
 70
  0
 62
  0
 10
3.084603
 20
7.144016
 30
0.000000
  0
VERTEX
  8
LAYER-1
 10
3.084603
 20
7.144016
 30
0.000000
  0
VERTEX
  8
LAYER-1
 10
3.084603
 20
7.415648
 30
0.000000
  0
SEQEND
  8
LAYER-1
  0
POLYLINE
  8
LAYER-1
 66
  1
 70
  0
 62
  0
 10
2.271772
 20
7.144016
 30
0.000000
  0
VERTEX
  8
LAYER-1
 10
2.271772
 20
7.144016
 30
0.000000
  0
VERTEX
  8
LAYER-1
 10
2.271772
 20
7.415648
 30
0.000000
  0
SEQEND
  8
LAYER-1
  0
POLYLINE
  8
LAYER-1
 66
  1
 70
  0
 62
  0
 10
2.452939
 20
7.415687
 30
0.000000
  0
VERTEX
  8
LAYER-1
 10
2.452939
 20
7.415687
 30
0.000000
  0
VERTEX
  8
LAYER-1
 10
2.452939
 20
7.144058
 30
0.000000
  0
SEQEND
  8
LAYER-1
  0
POLYLINE
  8
LAYER-1
 66
  1
 70
  0
 62
  0
 10
2.413080
 20
7.415687
 30
0.000000
  0
VERTEX
  8
LAYER-1
 10
2.413080
 20
7.415687
 30
0.000000
  0
VERTEX
  8
LAYER-1
 10
2.413080
 20
7.144058
 30
0.000000
  0
SEQEND
  8
LAYER-1
  0
POLYLINE
  8
LAYER-1
 66
  1
 70
  0
 62
  0
 10
3.266957
 20
7.415687
 30
0.000000
  0
VERTEX
  8
LAYER-1
 10
3.266957
 20
7.415687
 30
0.000000
  0
VERTEX
  8
LAYER-1
 10
3.266957
 20
7.144058
 30
0.000000
  0
SEQEND
  8
LAYER-1
  0
POLYLINE
  8
LAYER-1
 66
  1
 70
  0
 62
  0
 10
3.228141
 20
7.415687
 30
0.000000
  0
VERTEX
  8
LAYER-1
 10
3.228141
 20
7.415687
 30
0.000000
  0
VERTEX
  8
LAYER-1
 10
3.228141
 20
7.144058
 30
0.000000
  0
SEQEND
  8
LAYER-1
  0
POLYLINE
  8
LAYER-1
 66
  1
 70
  0
 62
  0
 10
3.000281
 20
7.415648
 30
0.000000
  0
VERTEX
  8
LAYER-1
 10
3.000281
 20
7.415648
 30
0.000000
  0
VERTEX
  8
LAYER-1
 10
3.000281
 20
7.144016
 30
0.000000
  0
SEQEND
  8
LAYER-1
  0
POLYLINE
  8
LAYER-1
 66
  1
 70
  0
 62
  0
 10
2.187450
 20
7.415648
 30
0.000000
  0
VERTEX
  8
LAYER-1
 10
2.187450
 20
7.415648
 30
0.000000
  0
VERTEX
  8
LAYER-1
 10
2.187450
 20
7.144016
 30
0.000000
  0
SEQEND
  8
LAYER-1
  0
POLYLINE
  8
LAYER-1
 66
  1
 70
  0
 62
  0
 10
2.042545
 20
7.415253
 30
0.000000
  0
VERTEX
  8
LAYER-1
 10
2.042545
 20
7.415253
 30
0.000000
  0
VERTEX
  8
LAYER-1
 10
2.042545
 20
7.143624
 30
0.000000
  0
SEQEND
  8
LAYER-1
  0
POLYLINE
  8
LAYER-1
 66
  1
 70
  0
 62
  0
 10
2.004162
 20
7.415253
 30
0.000000
  0
VERTEX
  8
LAYER-1
 10
2.004162
 20
7.415253
 30
0.000000
  0
VERTEX
  8
LAYER-1
 10
2.004162
 20
7.143624
 30
0.000000
  0
SEQEND
  8
LAYER-1
  0
POLYLINE
  8
LAYER-1
 66
  1
 70
  0
 62
  0
 10
2.860383
 20
7.415722
 30
0.000000
  0
VERTEX
  8
LAYER-1
 10
2.860383
 20
7.415722
 30
0.000000
  0
VERTEX
  8
LAYER-1
 10
2.860383
 20
7.144094
 30
0.000000
  0
SEQEND
  8
LAYER-1
  0
POLYLINE
  8
LAYER-1
 66
  1
 70
  0
 62
  0
 10
2.822001
 20
7.415722
 30
0.000000
  0
VERTEX
  8
LAYER-1
 10
2.822001
 20
7.415722
 30
0.000000
  0
VERTEX
  8
LAYER-1
 10
2.822001
 20
7.144094
 30
0.000000
  0
SEQEND
  8
LAYER-1
  0
POLYLINE
  8
LAYER-1
 66
  1
 70
  0
 62
  0
 10
3.487434
 20
7.144019
 30
0.000000
  0
VERTEX
  8
LAYER-1
 10
3.487434
 20
7.144019
 30
0.000000
  0
VERTEX
  8
LAYER-1
 10
3.487434
 20
7.415648
 30
0.000000
  0
SEQEND
  8
LAYER-1
  0
POLYLINE
  8
LAYER-1
 66
  1
 70
  0
 62
  0
 10
3.452005
 20
7.415648
 30
0.000000
  0
VERTEX
  8
LAYER-1
 10
3.452005
 20
7.415648
 30
0.000000
  0
VERTEX
  8
LAYER-1
 10
3.452005
 20
7.144018
 30
0.000000
  0
SEQEND
  8
LAYER-1
  0
POLYLINE
  8
LAYER-1
 66
  1
 70
  0
 62
  0
 10
3.486531
 20
7.415649
 30
0.000000
  0
VERTEX
  8
LAYER-1
 10
3.486531
 20
7.415649
 30
0.000000
  0
VERTEX
  8
LAYER-1
 10
3.472654
 20
7.426587
 30
0.000000
  0
VERTEX
  8
LAYER-1
 10
3.457891
 20
7.424508
 30
0.000000
  0
VERTEX
  8
LAYER-1
 10
3.452975
 20
7.415660
 30
0.000000
  0
SEQEND
  8
LAYER-1
  0
POLYLINE
  8
LAYER-1
 66
  1
 70
  0
 62
  0
 10
3.452005
 20
7.415649
 30
0.000000
  0
VERTEX
  8
LAYER-1
 10
3.452005
 20
7.415649
 30
0.000000
  0
VERTEX
  8
LAYER-1
 10
3.434897
 20
7.426632
 30
0.000000
  0
VERTEX
  8
LAYER-1
 10
3.417817
 20
7.422300
 30
0.000000
  0
VERTEX
  8
LAYER-1
 10
3.415102
 20
7.415648
 30
0.000000
  0
SEQEND
  8
LAYER-1
  0
POLYLINE
  8
LAYER-1
 66
  1
 70
  0
 62
  0
 10
3.036449
 20
7.415154
 30
0.000000
  0
VERTEX
  8
LAYER-1
 10
3.036449
 20
7.415154
 30
0.000000
  0
VERTEX
  8
LAYER-1
 10
3.016945
 20
7.425146
 30
0.000000
  0
VERTEX
  8
LAYER-1
 10
2.998871
 20
7.418421
 30
0.000000
  0
VERTEX
  8
LAYER-1
 10
2.999541
 20
7.415154
 30
0.000000
  0
SEQEND
  8
LAYER-1
  0
POLYLINE
  8
LAYER-1
 66
  1
 70
  0
 62
  0
 10
2.223491
 20
7.415624
 30
0.000000
  0
VERTEX
  8
LAYER-1
 10
2.223491
 20
7.415624
 30
0.000000
  0
VERTEX
  8
LAYER-1
 10
2.203986
 20
7.425617
 30
0.000000
  0
VERTEX
  8
LAYER-1
 10
2.185913
 20
7.418891
 30
0.000000
  0
VERTEX
  8
LAYER-1
 10
2.186583
 20
7.415624
 30
0.000000
  0
SEQEND
  8
LAYER-1
  0
POLYLINE
  8
LAYER-1
 66
  1
 70
  0
 62
  0
 10
3.084159
 20
7.415154
 30
0.000000
  0
VERTEX
  8
LAYER-1
 10
3.084159
 20
7.415154
 30
0.000000
  0
VERTEX
  8
LAYER-1
 10
3.064654
 20
7.425147
 30
0.000000
  0
VERTEX
  8
LAYER-1
 10
3.046581
 20
7.418421
 30
0.000000
  0
VERTEX
  8
LAYER-1
 10
3.047251
 20
7.415154
 30
0.000000
  0
SEQEND
  8
LAYER-1
  0
POLYLINE
  8
LAYER-1
 66
  1
 70
  0
 62
  0
 10
3.062216
 20
7.415714
 30
0.000000
  0
VERTEX
  8
LAYER-1
 10
3.062216
 20
7.415714
 30
0.000000
  0
VERTEX
  8
LAYER-1
 10
3.051464
 20
7.428719
 30
0.000000
  0
VERTEX
  8
LAYER-1
 10
3.037449
 20
7.430312
 30
0.000000
  0
VERTEX
  8
LAYER-1
 10
3.026412
 20
7.421529
 30
0.000000
  0
VERTEX
  8
LAYER-1
 10
3.026787
 20
7.415714
 30
0.000000
  0
SEQEND
  8
LAYER-1
  0
POLYLINE
  8
LAYER-1
 66
  1
 70
  0
 62
  0
 10
3.062216
 20
7.415714
 30
0.000000
  0
VERTEX
  8
LAYER-1
 10
3.062216
 20
7.415714
 30
0.000000
  0
VERTEX
  8
LAYER-1
 10
3.026787
 20
7.415714
 30
0.000000
  0
SEQEND
  8
LAYER-1
  0
POLYLINE
  8
LAYER-1
 66
  1
 70
  0
 62
  0
 10
2.272141
 20
7.415624
 30
0.000000
  0
VERTEX
  8
LAYER-1
 10
2.272141
 20
7.415624
 30
0.000000
  0
VERTEX
  8
LAYER-1
 10
2.252637
 20
7.425617
 30
0.000000
  0
VERTEX
  8
LAYER-1
 10
2.234563
 20
7.418891
 30
0.000000
  0
VERTEX
  8
LAYER-1
 10
2.235234
 20
7.415624
 30
0.000000
  0
SEQEND
  8
LAYER-1
  0
POLYLINE
  8
LAYER-1
 66
  1
 70
  0
 62
  0
 10
2.245969
 20
7.415714
 30
0.000000
  0
VERTEX
  8
LAYER-1
 10
2.245969
 20
7.415714
 30
0.000000
  0
VERTEX
  8
LAYER-1
 10
2.235217
 20
7.428719
 30
0.000000
  0
VERTEX
  8
LAYER-1
 10
2.221202
 20
7.430312
 30
0.000000
  0
VERTEX
  8
LAYER-1
 10
2.210165
 20
7.421529
 30
0.000000
  0
VERTEX
  8
LAYER-1
 10
2.210540
 20
7.415714
 30
0.000000
  0
SEQEND
  8
LAYER-1
  0
POLYLINE
  8
LAYER-1
 66
  1
 70
  0
 62
  0
 10
2.245969
 20
7.415714
 30
0.000000
  0
VERTEX
  8
LAYER-1
 10
2.245969
 20
7.415714
 30
0.000000
  0
VERTEX
  8
LAYER-1
 10
2.210540
 20
7.415714
 30
0.000000
  0
SEQEND
  8
LAYER-1
  0
POLYLINE
  8
LAYER-1
 66
  1
 70
  0
 62
  0
 10
3.453281
 20
7.143432
 30
0.000000
  0
VERTEX
  8
LAYER-1
 10
3.453281
 20
7.143432
 30
0.000000
  0
VERTEX
  8
LAYER-1
 10
3.463517
 20
7.136837
 30
0.000000
  0
VERTEX
  8
LAYER-1
 10
3.478202
 20
7.139413
 30
0.000000
  0
VERTEX
  8
LAYER-1
 10
3.486501
 20
7.143992
 30
0.000000
  0
SEQEND
  8
LAYER-1
  0
POLYLINE
  8
LAYER-1
 66
  1
 70
  0
 62
  0
 10
3.453281
 20
7.143432
 30
0.000000
  0
VERTEX
  8
LAYER-1
 10
3.453281
 20
7.143432
 30
0.000000
  0
VERTEX
  8
LAYER-1
 10
3.486501
 20
7.143992
 30
0.000000
  0
SEQEND
  8
LAYER-1
  0
POLYLINE
  8
LAYER-1
 66
  1
 70
  0
 62
  0
 10
3.414168
 20
7.143993
 30
0.000000
  0
VERTEX
  8
LAYER-1
 10
3.414168
 20
7.143993
 30
0.000000
  0
VERTEX
  8
LAYER-1
 10
3.427340
 20
7.136946
 30
0.000000
  0
VERTEX
  8
LAYER-1
 10
3.444420
 20
7.141276
 30
0.000000
  0
VERTEX
  8
LAYER-1
 10
3.451073
 20
7.143992
 30
0.000000
  0
SEQEND
  8
LAYER-1
  0
POLYLINE
  8
LAYER-1
 66
  1
 70
  0
 62
  0
 10
3.414169
 20
7.143993
 30
0.000000
  0
VERTEX
  8
LAYER-1
 10
3.414169
 20
7.143993
 30
0.000000
  0
VERTEX
  8
LAYER-1
 10
3.451072
 20
7.143992
 30
0.000000
  0
SEQEND
  8
LAYER-1
  0
POLYLINE
  8
LAYER-1
 66
  1
 70
  0
 62
  0
 10
3.047325
 20
7.143546
 30
0.000000
  0
VERTEX
  8
LAYER-1
 10
3.047325
 20
7.143546
 30
0.000000
  0
VERTEX
  8
LAYER-1
 10
3.062892
 20
7.137490
 30
0.000000
  0
VERTEX
  8
LAYER-1
 10
3.080966
 20
7.144216
 30
0.000000
  0
VERTEX
  8
LAYER-1
 10
3.084232
 20
7.143546
 30
0.000000
  0
SEQEND
  8
LAYER-1
  0
POLYLINE
  8
LAYER-1
 66
  1
 70
  0
 62
  0
 10
3.000084
 20
7.143546
 30
0.000000
  0
VERTEX
  8
LAYER-1
 10
3.000084
 20
7.143546
 30
0.000000
  0
VERTEX
  8
LAYER-1
 10
3.015651
 20
7.137490
 30
0.000000
  0
VERTEX
  8
LAYER-1
 10
3.033725
 20
7.144216
 30
0.000000
  0
VERTEX
  8
LAYER-1
 10
3.036992
 20
7.143546
 30
0.000000
  0
SEQEND
  8
LAYER-1
  0
POLYLINE
  8
LAYER-1
 66
  1
 70
  0
 62
  0
 10
3.027330
 20
7.143456
 30
0.000000
  0
VERTEX
  8
LAYER-1
 10
3.027330
 20
7.143456
 30
0.000000
  0
VERTEX
  8
LAYER-1
 10
3.034145
 20
7.134388
 30
0.000000
  0
VERTEX
  8
LAYER-1
 10
3.048160
 20
7.132795
 30
0.000000
  0
VERTEX
  8
LAYER-1
 10
3.059196
 20
7.141578
 30
0.000000
  0
VERTEX
  8
LAYER-1
 10
3.062759
 20
7.143456
 30
0.000000
  0
SEQEND
  8
LAYER-1
  0
POLYLINE
  8
LAYER-1
 66
  1
 70
  0
 62
  0
 10
3.062759
 20
7.143456
 30
0.000000
  0
VERTEX
  8
LAYER-1
 10
3.062759
 20
7.143456
 30
0.000000
  0
VERTEX
  8
LAYER-1
 10
3.027330
 20
7.143456
 30
0.000000
  0
SEQEND
  8
LAYER-1
  0
POLYLINE
  8
LAYER-1
 66
  1
 70
  0
 62
  0
 10
2.234770
 20
7.143546
 30
0.000000
  0
VERTEX
  8
LAYER-1
 10
2.234770
 20
7.143546
 30
0.000000
  0
VERTEX
  8
LAYER-1
 10
2.250337
 20
7.137490
 30
0.000000
  0
VERTEX
  8
LAYER-1
 10
2.268411
 20
7.144216
 30
0.000000
  0
VERTEX
  8
LAYER-1
 10
2.271678
 20
7.143546
 30
0.000000
  0
SEQEND
  8
LAYER-1
  0
POLYLINE
  8
LAYER-1
 66
  1
 70
  0
 62
  0
 10
2.186590
 20
7.143546
 30
0.000000
  0
VERTEX
  8
LAYER-1
 10
2.186590
 20
7.143546
 30
0.000000
  0
VERTEX
  8
LAYER-1
 10
2.202157
 20
7.137490
 30
0.000000
  0
VERTEX
  8
LAYER-1
 10
2.220231
 20
7.144216
 30
0.000000
  0
VERTEX
  8
LAYER-1
 10
2.223498
 20
7.143546
 30
0.000000
  0
SEQEND
  8
LAYER-1
  0
POLYLINE
  8
LAYER-1
 66
  1
 70
  0
 62
  0
 10
2.210546
 20
7.143456
 30
0.000000
  0
VERTEX
  8
LAYER-1
 10
2.210546
 20
7.143456
 30
0.000000
  0
VERTEX
  8
LAYER-1
 10
2.217361
 20
7.134388
 30
0.000000
  0
VERTEX
  8
LAYER-1
 10
2.231376
 20
7.132795
 30
0.000000
  0
VERTEX
  8
LAYER-1
 10
2.242413
 20
7.141578
 30
0.000000
  0
VERTEX
  8
LAYER-1
 10
2.245975
 20
7.143456
 30
0.000000
  0
SEQEND
  8
LAYER-1
  0
POLYLINE
  8
LAYER-1
 66
  1
 70
  0
 62
  0
 10
2.245975
 20
7.143456
 30
0.000000
  0
VERTEX
  8
LAYER-1
 10
2.245975
 20
7.143456
 30
0.000000
  0
VERTEX
  8
LAYER-1
 10
2.210547
 20
7.143456
 30
0.000000
  0
SEQEND
  8
LAYER-1
  0
POLYLINE
  8
LAYER-1
 66
  1
 70
  1
 62
  0
  0
VERTEX
  8
LAYER-1
 10
3.026786
 20
7.415648
 30
0.000000
  0
VERTEX
  8
LAYER-1
 10
3.062216
 20
7.415648
 30
0.000000
  0
VERTEX
  8
LAYER-1
 10
3.062216
 20
7.144018
 30
0.000000
  0
VERTEX
  8
LAYER-1
 10
3.026786
 20
7.144018
 30
0.000000
  0
SEQEND
  8
LAYER-1
  0
POLYLINE
  8
LAYER-1
 66
  1
 70
  1
 62
  0
  0
VERTEX
  8
LAYER-1
 10
2.210472
 20
7.415648
 30
0.000000
  0
VERTEX
  8
LAYER-1
 10
2.245902
 20
7.415648
 30
0.000000
  0
VERTEX
  8
LAYER-1
 10
2.245902
 20
7.144018
 30
0.000000
  0
VERTEX
  8
LAYER-1
 10
2.210472
 20
7.144018
 30
0.000000
  0
SEQEND
  8
LAYER-1
  0
POLYLINE
  8
LAYER-1
 66
  1
 70
  0
 62
  0
 10
3.062216
 20
7.347740
 30
0.000000
  0
VERTEX
  8
LAYER-1
 10
3.062216
 20
7.347740
 30
0.000000
  0
VERTEX
  8
LAYER-1
 10
3.026786
 20
7.347740
 30
0.000000
  0
SEQEND
  8
LAYER-1
  0
POLYLINE
  8
LAYER-1
 66
  1
 70
  0
 62
  0
 10
3.062216
 20
7.217831
 30
0.000000
  0
VERTEX
  8
LAYER-1
 10
3.062216
 20
7.217831
 30
0.000000
  0
VERTEX
  8
LAYER-1
 10
3.026786
 20
7.217831
 30
0.000000
  0
SEQEND
  8
LAYER-1
  0
POLYLINE
  8
LAYER-1
 66
  1
 70
  0
 62
  0
 10
2.245902
 20
7.347740
 30
0.000000
  0
VERTEX
  8
LAYER-1
 10
2.245902
 20
7.347740
 30
0.000000
  0
VERTEX
  8
LAYER-1
 10
2.210473
 20
7.347740
 30
0.000000
  0
SEQEND
  8
LAYER-1
  0
POLYLINE
  8
LAYER-1
 66
  1
 70
  0
 62
  0
 10
2.245902
 20
7.217830
 30
0.000000
  0
VERTEX
  8
LAYER-1
 10
2.245902
 20
7.217830
 30
0.000000
  0
VERTEX
  8
LAYER-1
 10
2.210473
 20
7.217830
 30
0.000000
  0
SEQEND
  8
LAYER-1
  0
POLYLINE
  8
LAYER-1
 66
  1
 70
  0
 62
  0
 10
3.264548
 20
7.415204
 30
0.000000
  0
VERTEX
  8
LAYER-1
 10
3.264548
 20
7.415204
 30
0.000000
  0
VERTEX
  8
LAYER-1
 10
3.250671
 20
7.426142
 30
0.000000
  0
VERTEX
  8
LAYER-1
 10
3.235908
 20
7.424064
 30
0.000000
  0
VERTEX
  8
LAYER-1
 10
3.231328
 20
7.415764
 30
0.000000
  0
SEQEND
  8
LAYER-1
  0
POLYLINE
  8
LAYER-1
 66
  1
 70
  0
 62
  0
 10
3.676608
 20
7.347740
 30
0.000000
  0
VERTEX
  8
LAYER-1
 10
3.676608
 20
7.347740
 30
0.000000
  0
VERTEX
  8
LAYER-1
 10
3.636882
 20
7.347740
 30
0.000000
  0
SEQEND
  8
LAYER-1
  0
POLYLINE
  8
LAYER-1
 66
  1
 70
  0
 62
  0
 10
3.676608
 20
7.217830
 30
0.000000
  0
VERTEX
  8
LAYER-1
 10
3.676608
 20
7.217830
 30
0.000000
  0
VERTEX
  8
LAYER-1
 10
3.636882
 20
7.217830
 30
0.000000
  0
SEQEND
  8
LAYER-1
  0
POLYLINE
  8
LAYER-1
 66
  1
 70
  0
 62
  0
 10
2.451054
 20
7.415587
 30
0.000000
  0
VERTEX
  8
LAYER-1
 10
2.451054
 20
7.415587
 30
0.000000
  0
VERTEX
  8
LAYER-1
 10
2.433945
 20
7.426570
 30
0.000000
  0
VERTEX
  8
LAYER-1
 10
2.416865
 20
7.422238
 30
0.000000
  0
VERTEX
  8
LAYER-1
 10
2.414150
 20
7.415585
 30
0.000000
  0
SEQEND
  8
LAYER-1
  0
POLYLINE
  8
LAYER-1
 66
  1
 70
  0
 62
  0
 10
3.675156
 20
7.420793
 30
0.000000
  0
VERTEX
  8
LAYER-1
 10
3.675156
 20
7.420793
 30
0.000000
  0
VERTEX
  8
LAYER-1
 10
3.658048
 20
7.431776
 30
0.000000
  0
VERTEX
  8
LAYER-1
 10
3.640968
 20
7.427445
 30
0.000000
  0
VERTEX
  8
LAYER-1
 10
3.638253
 20
7.420792
 30
0.000000
  0
SEQEND
  8
LAYER-1
  0
POLYLINE
  8
LAYER-1
 66
  1
 70
  1
 62
  0
  0
VERTEX
  8
LAYER-1
 10
3.627744
 20
7.421416
 30
0.000000
  0
VERTEX
  8
LAYER-1
 10
3.682360
 20
7.421416
 30
0.000000
  0
VERTEX
  8
LAYER-1
 10
3.682360
 20
7.415510
 30
0.000000
  0
VERTEX
  8
LAYER-1
 10
3.627744
 20
7.415510
 30
0.000000
  0
SEQEND
  8
LAYER-1
  0
POLYLINE
  8
LAYER-1
 66
  1
 70
  1
 62
  0
  0
VERTEX
  8
LAYER-1
 10
3.022609
 20
1.438064
 30
0.000000
  0
VERTEX
  8
LAYER-1
 10
3.474338
 20
1.438064
 30
0.000000
  0
VERTEX
  8
LAYER-1
 10
3.474338
 20
1.429207
 30
0.000000
  0
VERTEX
  8
LAYER-1
 10
3.022609
 20
1.429207
 30
0.000000
  0
SEQEND
  8
LAYER-1
  0
POLYLINE
  8
LAYER-1
 66
  1
 70
  1
 62
  0
  0
VERTEX
  8
LAYER-1
 10
3.022175
 20
2.254367
 30
0.000000
  0
VERTEX
  8
LAYER-1
 10
3.473904
 20
2.254367
 30
0.000000
  0
VERTEX
  8
LAYER-1
 10
3.473904
 20
2.245510
 30
0.000000
  0
VERTEX
  8
LAYER-1
 10
3.022175
 20
2.245510
 30
0.000000
  0
SEQEND
  8
LAYER-1
  0
POLYLINE
  8
LAYER-1
 66
  1
 70
  1
 62
  0
  0
VERTEX
  8
LAYER-1
 10
3.023044
 20
3.070670
 30
0.000000
  0
VERTEX
  8
LAYER-1
 10
3.474773
 20
3.070670
 30
0.000000
  0
VERTEX
  8
LAYER-1
 10
3.474773
 20
3.061813
 30
0.000000
  0
VERTEX
  8
LAYER-1
 10
3.023044
 20
3.061813
 30
0.000000
  0
SEQEND
  8
LAYER-1
  0
POLYLINE
  8
LAYER-1
 66
  1
 70
  1
 62
  0
  0
VERTEX
  8
LAYER-1
 10
3.023044
 20
3.886973
 30
0.000000
  0
VERTEX
  8
LAYER-1
 10
3.474773
 20
3.886973
 30
0.000000
  0
VERTEX
  8
LAYER-1
 10
3.474773
 20
3.878117
 30
0.000000
  0
VERTEX
  8
LAYER-1
 10
3.023044
 20
3.878117
 30
0.000000
  0
SEQEND
  8
LAYER-1
  0
POLYLINE
  8
LAYER-1
 66
  1
 70
  1
 62
  0
  0
VERTEX
  8
LAYER-1
 10
3.022610
 20
4.703277
 30
0.000000
  0
VERTEX
  8
LAYER-1
 10
3.474339
 20
4.703277
 30
0.000000
  0
VERTEX
  8
LAYER-1
 10
3.474339
 20
4.694421
 30
0.000000
  0
VERTEX
  8
LAYER-1
 10
3.022610
 20
4.694421
 30
0.000000
  0
SEQEND
  8
LAYER-1
  0
POLYLINE
  8
LAYER-1
 66
  1
 70
  1
 62
  0
  0
VERTEX
  8
LAYER-1
 10
3.023044
 20
5.519581
 30
0.000000
  0
VERTEX
  8
LAYER-1
 10
3.474773
 20
5.519581
 30
0.000000
  0
VERTEX
  8
LAYER-1
 10
3.474773
 20
5.510724
 30
0.000000
  0
VERTEX
  8
LAYER-1
 10
3.023044
 20
5.510724
 30
0.000000
  0
SEQEND
  8
LAYER-1
  0
POLYLINE
  8
LAYER-1
 66
  1
 70
  1
 62
  0
  0
VERTEX
  8
LAYER-1
 10
3.022610
 20
6.335884
 30
0.000000
  0
VERTEX
  8
LAYER-1
 10
3.474339
 20
6.335884
 30
0.000000
  0
VERTEX
  8
LAYER-1
 10
3.474339
 20
6.327028
 30
0.000000
  0
VERTEX
  8
LAYER-1
 10
3.022610
 20
6.327028
 30
0.000000
  0
SEQEND
  8
LAYER-1
  0
POLYLINE
  8
LAYER-1
 66
  1
 70
  1
 62
  0
  0
VERTEX
  8
LAYER-1
 10
2.211544
 20
1.438064
 30
0.000000
  0
VERTEX
  8
LAYER-1
 10
2.663275
 20
1.438064
 30
0.000000
  0
VERTEX
  8
LAYER-1
 10
2.663275
 20
1.429207
 30
0.000000
  0
VERTEX
  8
LAYER-1
 10
2.211544
 20
1.429207
 30
0.000000
  0
SEQEND
  8
LAYER-1
  0
POLYLINE
  8
LAYER-1
 66
  1
 70
  1
 62
  0
  0
VERTEX
  8
LAYER-1
 10
2.211544
 20
2.254367
 30
0.000000
  0
VERTEX
  8
LAYER-1
 10
2.663275
 20
2.254367
 30
0.000000
  0
VERTEX
  8
LAYER-1
 10
2.663275
 20
2.245510
 30
0.000000
  0
VERTEX
  8
LAYER-1
 10
2.211544
 20
2.245510
 30
0.000000
  0
SEQEND
  8
LAYER-1
  0
POLYLINE
  8
LAYER-1
 66
  1
 70
  1
 62
  0
  0
VERTEX
  8
LAYER-1
 10
2.206336
 20
3.070670
 30
0.000000
  0
VERTEX
  8
LAYER-1
 10
2.658066
 20
3.070670
 30
0.000000
  0
VERTEX
  8
LAYER-1
 10
2.658066
 20
3.061813
 30
0.000000
  0
VERTEX
  8
LAYER-1
 10
2.206336
 20
3.061813
 30
0.000000
  0
SEQEND
  8
LAYER-1
  0
POLYLINE
  8
LAYER-1
 66
  1
 70
  1
 62
  0
  0
VERTEX
  8
LAYER-1
 10
2.206336
 20
3.886973
 30
0.000000
  0
VERTEX
  8
LAYER-1
 10
2.658066
 20
3.886973
 30
0.000000
  0
VERTEX
  8
LAYER-1
 10
2.658066
 20
3.878117
 30
0.000000
  0
VERTEX
  8
LAYER-1
 10
2.206336
 20
3.878117
 30
0.000000
  0
SEQEND
  8
LAYER-1
  0
POLYLINE
  8
LAYER-1
 66
  1
 70
  1
 62
  0
  0
VERTEX
  8
LAYER-1
 10
2.206336
 20
4.703279
 30
0.000000
  0
VERTEX
  8
LAYER-1
 10
2.658066
 20
4.703279
 30
0.000000
  0
VERTEX
  8
LAYER-1
 10
2.658066
 20
4.694421
 30
0.000000
  0
VERTEX
  8
LAYER-1
 10
2.206336
 20
4.694421
 30
0.000000
  0
SEQEND
  8
LAYER-1
  0
POLYLINE
  8
LAYER-1
 66
  1
 70
  1
 62
  0
  0
VERTEX
  8
LAYER-1
 10
2.206336
 20
5.519581
 30
0.000000
  0
VERTEX
  8
LAYER-1
 10
2.658066
 20
5.519581
 30
0.000000
  0
VERTEX
  8
LAYER-1
 10
2.658066
 20
5.510725
 30
0.000000
  0
VERTEX
  8
LAYER-1
 10
2.206336
 20
5.510725
 30
0.000000
  0
SEQEND
  8
LAYER-1
  0
POLYLINE
  8
LAYER-1
 66
  1
 70
  1
 62
  0
  0
VERTEX
  8
LAYER-1
 10
2.206336
 20
6.335884
 30
0.000000
  0
VERTEX
  8
LAYER-1
 10
2.658066
 20
6.335884
 30
0.000000
  0
VERTEX
  8
LAYER-1
 10
2.658066
 20
6.327028
 30
0.000000
  0
VERTEX
  8
LAYER-1
 10
2.206336
 20
6.327028
 30
0.000000
  0
SEQEND
  8
LAYER-1
  0
POLYLINE
  8
LAYER-1
 66
  1
 70
  1
 62
  0
  0
VERTEX
  8
LAYER-1
 10
2.615514
 20
1.036527
 30
0.000000
  0
VERTEX
  8
LAYER-1
 10
3.067244
 20
1.036527
 30
0.000000
  0
VERTEX
  8
LAYER-1
 10
3.067244
 20
1.027669
 30
0.000000
  0
VERTEX
  8
LAYER-1
 10
2.615514
 20
1.027669
 30
0.000000
  0
SEQEND
  8
LAYER-1
  0
POLYLINE
  8
LAYER-1
 66
  1
 70
  1
 62
  0
  0
VERTEX
  8
LAYER-1
 10
2.615948
 20
1.852829
 30
0.000000
  0
VERTEX
  8
LAYER-1
 10
3.067678
 20
1.852829
 30
0.000000
  0
VERTEX
  8
LAYER-1
 10
3.067678
 20
1.843974
 30
0.000000
  0
VERTEX
  8
LAYER-1
 10
2.615948
 20
1.843974
 30
0.000000
  0
SEQEND
  8
LAYER-1
  0
POLYLINE
  8
LAYER-1
 66
  1
 70
  1
 62
  0
  0
VERTEX
  8
LAYER-1
 10
2.615948
 20
2.669133
 30
0.000000
  0
VERTEX
  8
LAYER-1
 10
3.067678
 20
2.669133
 30
0.000000
  0
VERTEX
  8
LAYER-1
 10
3.067678
 20
2.660275
 30
0.000000
  0
VERTEX
  8
LAYER-1
 10
2.615948
 20
2.660275
 30
0.000000
  0
SEQEND
  8
LAYER-1
  0
POLYLINE
  8
LAYER-1
 66
  1
 70
  1
 62
  0
  0
VERTEX
  8
LAYER-1
 10
2.615080
 20
3.485435
 30
0.000000
  0
VERTEX
  8
LAYER-1
 10
3.066810
 20
3.485435
 30
0.000000
  0
VERTEX
  8
LAYER-1
 10
3.066810
 20
3.476579
 30
0.000000
  0
VERTEX
  8
LAYER-1
 10
2.615080
 20
3.476579
 30
0.000000
  0
SEQEND
  8
LAYER-1
  0
POLYLINE
  8
LAYER-1
 66
  1
 70
  1
 62
  0
  0
VERTEX
  8
LAYER-1
 10
2.615080
 20
4.301739
 30
0.000000
  0
VERTEX
  8
LAYER-1
 10
3.066810
 20
4.301739
 30
0.000000
  0
VERTEX
  8
LAYER-1
 10
3.066810
 20
4.292881
 30
0.000000
  0
VERTEX
  8
LAYER-1
 10
2.615080
 20
4.292881
 30
0.000000
  0
SEQEND
  8
LAYER-1
  0
POLYLINE
  8
LAYER-1
 66
  1
 70
  1
 62
  0
  0
VERTEX
  8
LAYER-1
 10
2.615080
 20
5.118044
 30
0.000000
  0
VERTEX
  8
LAYER-1
 10
3.066810
 20
5.118044
 30
0.000000
  0
VERTEX
  8
LAYER-1
 10
3.066810
 20
5.109187
 30
0.000000
  0
VERTEX
  8
LAYER-1
 10
2.615080
 20
5.109187
 30
0.000000
  0
SEQEND
  8
LAYER-1
  0
POLYLINE
  8
LAYER-1
 66
  1
 70
  1
 62
  0
  0
VERTEX
  8
LAYER-1
 10
2.615514
 20
5.934348
 30
0.000000
  0
VERTEX
  8
LAYER-1
 10
3.067244
 20
5.934348
 30
0.000000
  0
VERTEX
  8
LAYER-1
 10
3.067244
 20
5.925490
 30
0.000000
  0
VERTEX
  8
LAYER-1
 10
2.615514
 20
5.925490
 30
0.000000
  0
SEQEND
  8
LAYER-1
  0
POLYLINE
  8
LAYER-1
 66
  1
 70
  1
 62
  0
  0
VERTEX
  8
LAYER-1
 10
2.615514
 20
6.750642
 30
0.000000
  0
VERTEX
  8
LAYER-1
 10
3.067244
 20
6.750642
 30
0.000000
  0
VERTEX
  8
LAYER-1
 10
3.067244
 20
6.741785
 30
0.000000
  0
VERTEX
  8
LAYER-1
 10
2.615514
 20
6.741785
 30
0.000000
  0
SEQEND
  8
LAYER-1
  0
POLYLINE
  8
LAYER-1
 66
  1
 70
  1
 62
  0
  0
VERTEX
  8
LAYER-1
 10
1.797070
 20
1.036527
 30
0.000000
  0
VERTEX
  8
LAYER-1
 10
2.248800
 20
1.036527
 30
0.000000
  0
VERTEX
  8
LAYER-1
 10
2.248800
 20
1.027669
 30
0.000000
  0
VERTEX
  8
LAYER-1
 10
1.797070
 20
1.027669
 30
0.000000
  0
SEQEND
  8
LAYER-1
  0
POLYLINE
  8
LAYER-1
 66
  1
 70
  1
 62
  0
  0
VERTEX
  8
LAYER-1
 10
1.797505
 20
1.852829
 30
0.000000
  0
VERTEX
  8
LAYER-1
 10
2.249235
 20
1.852829
 30
0.000000
  0
VERTEX
  8
LAYER-1
 10
2.249235
 20
1.843974
 30
0.000000
  0
VERTEX
  8
LAYER-1
 10
1.797505
 20
1.843974
 30
0.000000
  0
SEQEND
  8
LAYER-1
  0
POLYLINE
  8
LAYER-1
 66
  1
 70
  1
 62
  0
  0
VERTEX
  8
LAYER-1
 10
1.797070
 20
2.669133
 30
0.000000
  0
VERTEX
  8
LAYER-1
 10
2.248801
 20
2.669133
 30
0.000000
  0
VERTEX
  8
LAYER-1
 10
2.248801
 20
2.660275
 30
0.000000
  0
VERTEX
  8
LAYER-1
 10
1.797070
 20
2.660275
 30
0.000000
  0
SEQEND
  8
LAYER-1
  0
POLYLINE
  8
LAYER-1
 66
  1
 70
  1
 62
  0
  0
VERTEX
  8
LAYER-1
 10
1.796636
 20
3.485435
 30
0.000000
  0
VERTEX
  8
LAYER-1
 10
2.248367
 20
3.485435
 30
0.000000
  0
VERTEX
  8
LAYER-1
 10
2.248367
 20
3.476579
 30
0.000000
  0
VERTEX
  8
LAYER-1
 10
1.796636
 20
3.476579
 30
0.000000
  0
SEQEND
  8
LAYER-1
  0
POLYLINE
  8
LAYER-1
 66
  1
 70
  1
 62
  0
  0
VERTEX
  8
LAYER-1
 10
1.797070
 20
4.301739
 30
0.000000
  0
VERTEX
  8
LAYER-1
 10
2.248801
 20
4.301739
 30
0.000000
  0
VERTEX
  8
LAYER-1
 10
2.248801
 20
4.292881
 30
0.000000
  0
VERTEX
  8
LAYER-1
 10
1.797070
 20
4.292881
 30
0.000000
  0
SEQEND
  8
LAYER-1
  0
POLYLINE
  8
LAYER-1
 66
  1
 70
  1
 62
  0
  0
VERTEX
  8
LAYER-1
 10
1.797070
 20
5.118044
 30
0.000000
  0
VERTEX
  8
LAYER-1
 10
2.248801
 20
5.118044
 30
0.000000
  0
VERTEX
  8
LAYER-1
 10
2.248801
 20
5.109187
 30
0.000000
  0
VERTEX
  8
LAYER-1
 10
1.797070
 20
5.109187
 30
0.000000
  0
SEQEND
  8
LAYER-1
  0
POLYLINE
  8
LAYER-1
 66
  1
 70
  1
 62
  0
  0
VERTEX
  8
LAYER-1
 10
1.796637
 20
5.934346
 30
0.000000
  0
VERTEX
  8
LAYER-1
 10
2.248367
 20
5.934346
 30
0.000000
  0
VERTEX
  8
LAYER-1
 10
2.248367
 20
5.925490
 30
0.000000
  0
VERTEX
  8
LAYER-1
 10
1.796637
 20
5.925490
 30
0.000000
  0
SEQEND
  8
LAYER-1
  0
POLYLINE
  8
LAYER-1
 66
  1
 70
  1
 62
  0
  0
VERTEX
  8
LAYER-1
 10
1.797505
 20
6.750642
 30
0.000000
  0
VERTEX
  8
LAYER-1
 10
2.249235
 20
6.750642
 30
0.000000
  0
VERTEX
  8
LAYER-1
 10
2.249235
 20
6.741785
 30
0.000000
  0
VERTEX
  8
LAYER-1
 10
1.797505
 20
6.741785
 30
0.000000
  0
SEQEND
  8
LAYER-1
  0
POLYLINE
  8
LAYER-1
 66
  1
 70
  1
 62
  0
  0
VERTEX
  8
LAYER-1
 10
3.426311
 20
1.034934
 30
0.000000
  0
VERTEX
  8
LAYER-1
 10
3.676476
 20
1.034934
 30
0.000000
  0
VERTEX
  8
LAYER-1
 10
3.676476
 20
1.026076
 30
0.000000
  0
VERTEX
  8
LAYER-1
 10
3.426311
 20
1.026076
 30
0.000000
  0
SEQEND
  8
LAYER-1
  0
POLYLINE
  8
LAYER-1
 66
  1
 70
  1
 62
  0
  0
VERTEX
  8
LAYER-1
 10
3.426311
 20
1.851236
 30
0.000000
  0
VERTEX
  8
LAYER-1
 10
3.676476
 20
1.851236
 30
0.000000
  0
VERTEX
  8
LAYER-1
 10
3.676476
 20
1.842379
 30
0.000000
  0
VERTEX
  8
LAYER-1
 10
3.426311
 20
1.842379
 30
0.000000
  0
SEQEND
  8
LAYER-1
  0
POLYLINE
  8
LAYER-1
 66
  1
 70
  1
 62
  0
  0
VERTEX
  8
LAYER-1
 10
3.426311
 20
2.667540
 30
0.000000
  0
VERTEX
  8
LAYER-1
 10
3.676476
 20
2.667540
 30
0.000000
  0
VERTEX
  8
LAYER-1
 10
3.676476
 20
2.658681
 30
0.000000
  0
VERTEX
  8
LAYER-1
 10
3.426311
 20
2.658681
 30
0.000000
  0
SEQEND
  8
LAYER-1
  0
POLYLINE
  8
LAYER-1
 66
  1
 70
  1
 62
  0
  0
VERTEX
  8
LAYER-1
 10
3.426311
 20
3.483842
 30
0.000000
  0
VERTEX
  8
LAYER-1
 10
3.676476
 20
3.483842
 30
0.000000
  0
VERTEX
  8
LAYER-1
 10
3.676476
 20
3.474985
 30
0.000000
  0
VERTEX
  8
LAYER-1
 10
3.426311
 20
3.474985
 30
0.000000
  0
SEQEND
  8
LAYER-1
  0
POLYLINE
  8
LAYER-1
 66
  1
 70
  1
 62
  0
  0
VERTEX
  8
LAYER-1
 10
3.426311
 20
4.300145
 30
0.000000
  0
VERTEX
  8
LAYER-1
 10
3.676476
 20
4.300145
 30
0.000000
  0
VERTEX
  8
LAYER-1
 10
3.676476
 20
4.291287
 30
0.000000
  0
VERTEX
  8
LAYER-1
 10
3.426311
 20
4.291287
 30
0.000000
  0
SEQEND
  8
LAYER-1
  0
POLYLINE
  8
LAYER-1
 66
  1
 70
  1
 62
  0
  0
VERTEX
  8
LAYER-1
 10
3.426311
 20
5.116450
 30
0.000000
  0
VERTEX
  8
LAYER-1
 10
3.676476
 20
5.116450
 30
0.000000
  0
VERTEX
  8
LAYER-1
 10
3.676476
 20
5.107594
 30
0.000000
  0
VERTEX
  8
LAYER-1
 10
3.426311
 20
5.107594
 30
0.000000
  0
SEQEND
  8
LAYER-1
  0
POLYLINE
  8
LAYER-1
 66
  1
 70
  1
 62
  0
  0
VERTEX
  8
LAYER-1
 10
3.426311
 20
5.932755
 30
0.000000
  0
VERTEX
  8
LAYER-1
 10
3.676476
 20
5.932755
 30
0.000000
  0
VERTEX
  8
LAYER-1
 10
3.676476
 20
5.923897
 30
0.000000
  0
VERTEX
  8
LAYER-1
 10
3.426311
 20
5.923897
 30
0.000000
  0
SEQEND
  8
LAYER-1
  0
POLYLINE
  8
LAYER-1
 66
  1
 70
  1
 62
  0
  0
VERTEX
  8
LAYER-1
 10
3.426311
 20
6.749050
 30
0.000000
  0
VERTEX
  8
LAYER-1
 10
3.676476
 20
6.749050
 30
0.000000
  0
VERTEX
  8
LAYER-1
 10
3.676476
 20
6.740192
 30
0.000000
  0
VERTEX
  8
LAYER-1
 10
3.426311
 20
6.740192
 30
0.000000
  0
SEQEND
  8
LAYER-1
  0
POLYLINE
  8
LAYER-1
 66
  1
 70
  0
 62
  0
 10
3.636448
 20
7.415645
 30
0.000000
  0
VERTEX
  8
LAYER-1
 10
3.636448
 20
7.415645
 30
0.000000
  0
VERTEX
  8
LAYER-1
 10
3.636448
 20
7.143897
 30
0.000000
  0
SEQEND
  8
LAYER-1
  0
POLYLINE
  8
LAYER-1
 66
  1
 70
  0
 62
  0
 10
3.636459
 20
0.616987
 30
0.000000
  0
VERTEX
  8
LAYER-1
 10
3.636459
 20
0.616987
 30
0.000000
  0
VERTEX
  8
LAYER-1
 10
3.636459
 20
0.345286
 30
0.000000
  0
SEQEND
  8
LAYER-1
  0
POLYLINE
  8
LAYER-1
 66
  1
 70
  0
 62
  0
 10
2.638249
 20
7.143429
 30
0.000000
  0
VERTEX
  8
LAYER-1
 10
2.638249
 20
7.143429
 30
0.000000
  0
VERTEX
  8
LAYER-1
 10
2.648485
 20
7.136835
 30
0.000000
  0
VERTEX
  8
LAYER-1
 10
2.663170
 20
7.139409
 30
0.000000
  0
VERTEX
  8
LAYER-1
 10
2.671469
 20
7.143990
 30
0.000000
  0
SEQEND
  8
LAYER-1
  0
POLYLINE
  8
LAYER-1
 66
  1
 70
  0
 62
  0
 10
2.638250
 20
7.143429
 30
0.000000
  0
VERTEX
  8
LAYER-1
 10
2.638250
 20
7.143429
 30
0.000000
  0
VERTEX
  8
LAYER-1
 10
2.671469
 20
7.143990
 30
0.000000
  0
SEQEND
  8
LAYER-1
  0
POLYLINE
  8
LAYER-1
 66
  1
 70
  0
 62
  0
 10
2.599137
 20
7.143990
 30
0.000000
  0
VERTEX
  8
LAYER-1
 10
2.599137
 20
7.143990
 30
0.000000
  0
VERTEX
  8
LAYER-1
 10
2.612308
 20
7.136944
 30
0.000000
  0
VERTEX
  8
LAYER-1
 10
2.629388
 20
7.141274
 30
0.000000
  0
VERTEX
  8
LAYER-1
 10
2.636041
 20
7.143990
 30
0.000000
  0
SEQEND
  8
LAYER-1
  0
POLYLINE
  8
LAYER-1
 66
  1
 70
  0
 62
  0
 10
2.599137
 20
7.143990
 30
0.000000
  0
VERTEX
  8
LAYER-1
 10
2.599137
 20
7.143990
 30
0.000000
  0
VERTEX
  8
LAYER-1
 10
2.636040
 20
7.143990
 30
0.000000
  0
SEQEND
  8
LAYER-1
  0
POLYLINE
  8
LAYER-1
 66
  1
 70
  0
 62
  0
 10
2.600308
 20
7.415648
 30
0.000000
  0
VERTEX
  8
LAYER-1
 10
2.600308
 20
7.415648
 30
0.000000
  0
VERTEX
  8
LAYER-1
 10
2.600308
 20
7.144016
 30
0.000000
  0
SEQEND
  8
LAYER-1
  0
POLYLINE
  8
LAYER-1
 66
  1
 70
  0
 62
  0
 10
2.672642
 20
7.144019
 30
0.000000
  0
VERTEX
  8
LAYER-1
 10
2.672642
 20
7.144019
 30
0.000000
  0
VERTEX
  8
LAYER-1
 10
2.672642
 20
7.415648
 30
0.000000
  0
SEQEND
  8
LAYER-1
  0
POLYLINE
  8
LAYER-1
 66
  1
 70
  0
 62
  0
 10
2.637212
 20
7.415648
 30
0.000000
  0
VERTEX
  8
LAYER-1
 10
2.637212
 20
7.415648
 30
0.000000
  0
VERTEX
  8
LAYER-1
 10
2.637212
 20
7.144018
 30
0.000000
  0
SEQEND
  8
LAYER-1
  0
POLYLINE
  8
LAYER-1
 66
  1
 70
  0
 62
  0
 10
2.672337
 20
7.415507
 30
0.000000
  0
VERTEX
  8
LAYER-1
 10
2.672337
 20
7.415507
 30
0.000000
  0
VERTEX
  8
LAYER-1
 10
2.658460
 20
7.426444
 30
0.000000
  0
VERTEX
  8
LAYER-1
 10
2.643698
 20
7.424366
 30
0.000000
  0
VERTEX
  8
LAYER-1
 10
2.639118
 20
7.416066
 30
0.000000
  0
SEQEND
  8
LAYER-1
  0
POLYLINE
  8
LAYER-1
 66
  1
 70
  0
 62
  0
 10
2.639118
 20
7.416066
 30
0.000000
  0
VERTEX
  8
LAYER-1
 10
2.639118
 20
7.416066
 30
0.000000
  0
VERTEX
  8
LAYER-1
 10
2.672337
 20
7.415507
 30
0.000000
  0
SEQEND
  8
LAYER-1
  0
POLYLINE
  8
LAYER-1
 66
  1
 70
  0
 62
  0
 10
2.636909
 20
7.415507
 30
0.000000
  0
VERTEX
  8
LAYER-1
 10
2.636909
 20
7.415507
 30
0.000000
  0
VERTEX
  8
LAYER-1
 10
2.619801
 20
7.426490
 30
0.000000
  0
VERTEX
  8
LAYER-1
 10
2.602721
 20
7.422158
 30
0.000000
  0
VERTEX
  8
LAYER-1
 10
2.600005
 20
7.415505
 30
0.000000
  0
SEQEND
  8
LAYER-1
  0
POLYLINE
  8
LAYER-1
 66
  1
 70
  0
 62
  0
 10
2.600006
 20
7.415505
 30
0.000000
  0
VERTEX
  8
LAYER-1
 10
2.600006
 20
7.415505
 30
0.000000
  0
VERTEX
  8
LAYER-1
 10
2.636909
 20
7.415507
 30
0.000000
  0
SEQEND
  8
LAYER-1
  0
POLYLINE
  8
LAYER-1
 66
  1
 70
  0
 62
  0
 10
1.818250
 20
7.143429
 30
0.000000
  0
VERTEX
  8
LAYER-1
 10
1.818250
 20
7.143429
 30
0.000000
  0
VERTEX
  8
LAYER-1
 10
1.828485
 20
7.136835
 30
0.000000
  0
VERTEX
  8
LAYER-1
 10
1.843170
 20
7.139409
 30
0.000000
  0
VERTEX
  8
LAYER-1
 10
1.851469
 20
7.143990
 30
0.000000
  0
SEQEND
  8
LAYER-1
  0
POLYLINE
  8
LAYER-1
 66
  1
 70
  0
 62
  0
 10
1.818250
 20
7.143429
 30
0.000000
  0
VERTEX
  8
LAYER-1
 10
1.818250
 20
7.143429
 30
0.000000
  0
VERTEX
  8
LAYER-1
 10
1.851469
 20
7.143990
 30
0.000000
  0
SEQEND
  8
LAYER-1
  0
POLYLINE
  8
LAYER-1
 66
  1
 70
  0
 62
  0
 10
1.779137
 20
7.143990
 30
0.000000
  0
VERTEX
  8
LAYER-1
 10
1.779137
 20
7.143990
 30
0.000000
  0
VERTEX
  8
LAYER-1
 10
1.792308
 20
7.136944
 30
0.000000
  0
VERTEX
  8
LAYER-1
 10
1.809388
 20
7.141274
 30
0.000000
  0
VERTEX
  8
LAYER-1
 10
1.816041
 20
7.143990
 30
0.000000
  0
SEQEND
  8
LAYER-1
  0
POLYLINE
  8
LAYER-1
 66
  1
 70
  0
 62
  0
 10
1.779137
 20
7.143990
 30
0.000000
  0
VERTEX
  8
LAYER-1
 10
1.779137
 20
7.143990
 30
0.000000
  0
VERTEX
  8
LAYER-1
 10
1.816040
 20
7.143990
 30
0.000000
  0
SEQEND
  8
LAYER-1
  0
POLYLINE
  8
LAYER-1
 66
  1
 70
  0
 62
  0
 10
1.780308
 20
7.415648
 30
0.000000
  0
VERTEX
  8
LAYER-1
 10
1.780308
 20
7.415648
 30
0.000000
  0
VERTEX
  8
LAYER-1
 10
1.780308
 20
7.144016
 30
0.000000
  0
SEQEND
  8
LAYER-1
  0
POLYLINE
  8
LAYER-1
 66
  1
 70
  0
 62
  0
 10
1.852642
 20
7.144019
 30
0.000000
  0
VERTEX
  8
LAYER-1
 10
1.852642
 20
7.144019
 30
0.000000
  0
VERTEX
  8
LAYER-1
 10
1.852642
 20
7.415648
 30
0.000000
  0
SEQEND
  8
LAYER-1
  0
POLYLINE
  8
LAYER-1
 66
  1
 70
  0
 62
  0
 10
1.817212
 20
7.415648
 30
0.000000
  0
VERTEX
  8
LAYER-1
 10
1.817212
 20
7.415648
 30
0.000000
  0
VERTEX
  8
LAYER-1
 10
1.817212
 20
7.144018
 30
0.000000
  0
SEQEND
  8
LAYER-1
  0
POLYLINE
  8
LAYER-1
 66
  1
 70
  0
 62
  0
 10
1.852338
 20
7.415507
 30
0.000000
  0
VERTEX
  8
LAYER-1
 10
1.852338
 20
7.415507
 30
0.000000
  0
VERTEX
  8
LAYER-1
 10
1.838460
 20
7.426444
 30
0.000000
  0
VERTEX
  8
LAYER-1
 10
1.823697
 20
7.424366
 30
0.000000
  0
VERTEX
  8
LAYER-1
 10
1.819118
 20
7.416066
 30
0.000000
  0
SEQEND
  8
LAYER-1
  0
POLYLINE
  8
LAYER-1
 66
  1
 70
  0
 62
  0
 10
1.819118
 20
7.416066
 30
0.000000
  0
VERTEX
  8
LAYER-1
 10
1.819118
 20
7.416066
 30
0.000000
  0
VERTEX
  8
LAYER-1
 10
1.852337
 20
7.415507
 30
0.000000
  0
SEQEND
  8
LAYER-1
  0
POLYLINE
  8
LAYER-1
 66
  1
 70
  0
 62
  0
 10
1.816909
 20
7.415507
 30
0.000000
  0
VERTEX
  8
LAYER-1
 10
1.816909
 20
7.415507
 30
0.000000
  0
VERTEX
  8
LAYER-1
 10
1.799800
 20
7.426490
 30
0.000000
  0
VERTEX
  8
LAYER-1
 10
1.782721
 20
7.422158
 30
0.000000
  0
VERTEX
  8
LAYER-1
 10
1.780005
 20
7.415505
 30
0.000000
  0
SEQEND
  8
LAYER-1
  0
POLYLINE
  8
LAYER-1
 66
  1
 70
  0
 62
  0
 10
1.780006
 20
7.415505
 30
0.000000
  0
VERTEX
  8
LAYER-1
 10
1.780006
 20
7.415505
 30
0.000000
  0
VERTEX
  8
LAYER-1
 10
1.816909
 20
7.415507
 30
0.000000
  0
SEQEND
  8
LAYER-1
  0
POLYLINE
  8
LAYER-1
 66
  1
 70
  0
 62
  0
 10
3.415540
 20
0.344848
 30
0.000000
  0
VERTEX
  8
LAYER-1
 10
3.415540
 20
0.344848
 30
0.000000
  0
VERTEX
  8
LAYER-1
 10
3.415540
 20
0.616480
 30
0.000000
  0
SEQEND
  8
LAYER-1
  0
POLYLINE
  8
LAYER-1
 66
  1
 70
  0
 62
  0
 10
3.085042
 20
0.616480
 30
0.000000
  0
VERTEX
  8
LAYER-1
 10
3.085042
 20
0.616480
 30
0.000000
  0
VERTEX
  8
LAYER-1
 10
3.085042
 20
0.344848
 30
0.000000
  0
SEQEND
  8
LAYER-1
  0
POLYLINE
  8
LAYER-1
 66
  1
 70
  0
 62
  0
 10
2.272210
 20
0.616480
 30
0.000000
  0
VERTEX
  8
LAYER-1
 10
2.272210
 20
0.616480
 30
0.000000
  0
VERTEX
  8
LAYER-1
 10
2.272210
 20
0.344848
 30
0.000000
  0
SEQEND
  8
LAYER-1
  0
POLYLINE
  8
LAYER-1
 66
  1
 70
  0
 62
  0
 10
2.453378
 20
0.344809
 30
0.000000
  0
VERTEX
  8
LAYER-1
 10
2.453378
 20
0.344809
 30
0.000000
  0
VERTEX
  8
LAYER-1
 10
2.453378
 20
0.616437
 30
0.000000
  0
SEQEND
  8
LAYER-1
  0
POLYLINE
  8
LAYER-1
 66
  1
 70
  0
 62
  0
 10
2.413519
 20
0.344809
 30
0.000000
  0
VERTEX
  8
LAYER-1
 10
2.413519
 20
0.344809
 30
0.000000
  0
VERTEX
  8
LAYER-1
 10
2.413519
 20
0.616437
 30
0.000000
  0
SEQEND
  8
LAYER-1
  0
POLYLINE
  8
LAYER-1
 66
  1
 70
  0
 62
  0
 10
3.267395
 20
0.344809
 30
0.000000
  0
VERTEX
  8
LAYER-1
 10
3.267395
 20
0.344809
 30
0.000000
  0
VERTEX
  8
LAYER-1
 10
3.267395
 20
0.616437
 30
0.000000
  0
SEQEND
  8
LAYER-1
  0
POLYLINE
  8
LAYER-1
 66
  1
 70
  0
 62
  0
 10
3.228579
 20
0.344809
 30
0.000000
  0
VERTEX
  8
LAYER-1
 10
3.228579
 20
0.344809
 30
0.000000
  0
VERTEX
  8
LAYER-1
 10
3.228579
 20
0.616437
 30
0.000000
  0
SEQEND
  8
LAYER-1
  0
POLYLINE
  8
LAYER-1
 66
  1
 70
  0
 62
  0
 10
3.000719
 20
0.344848
 30
0.000000
  0
VERTEX
  8
LAYER-1
 10
3.000719
 20
0.344848
 30
0.000000
  0
VERTEX
  8
LAYER-1
 10
3.000719
 20
0.616480
 30
0.000000
  0
SEQEND
  8
LAYER-1
  0
POLYLINE
  8
LAYER-1
 66
  1
 70
  0
 62
  0
 10
2.187889
 20
0.344848
 30
0.000000
  0
VERTEX
  8
LAYER-1
 10
2.187889
 20
0.344848
 30
0.000000
  0
VERTEX
  8
LAYER-1
 10
2.187889
 20
0.616480
 30
0.000000
  0
SEQEND
  8
LAYER-1
  0
POLYLINE
  8
LAYER-1
 66
  1
 70
  0
 62
  0
 10
2.042984
 20
0.345242
 30
0.000000
  0
VERTEX
  8
LAYER-1
 10
2.042984
 20
0.345242
 30
0.000000
  0
VERTEX
  8
LAYER-1
 10
2.042984
 20
0.616870
 30
0.000000
  0
SEQEND
  8
LAYER-1
  0
POLYLINE
  8
LAYER-1
 66
  1
 70
  0
 62
  0
 10
2.004601
 20
0.345242
 30
0.000000
  0
VERTEX
  8
LAYER-1
 10
2.004601
 20
0.345242
 30
0.000000
  0
VERTEX
  8
LAYER-1
 10
2.004601
 20
0.616870
 30
0.000000
  0
SEQEND
  8
LAYER-1
  0
POLYLINE
  8
LAYER-1
 66
  1
 70
  0
 62
  0
 10
2.860822
 20
0.344773
 30
0.000000
  0
VERTEX
  8
LAYER-1
 10
2.860822
 20
0.344773
 30
0.000000
  0
VERTEX
  8
LAYER-1
 10
2.860822
 20
0.616401
 30
0.000000
  0
SEQEND
  8
LAYER-1
  0
POLYLINE
  8
LAYER-1
 66
  1
 70
  0
 62
  0
 10
2.822439
 20
0.344773
 30
0.000000
  0
VERTEX
  8
LAYER-1
 10
2.822439
 20
0.344773
 30
0.000000
  0
VERTEX
  8
LAYER-1
 10
2.822439
 20
0.616401
 30
0.000000
  0
SEQEND
  8
LAYER-1
  0
POLYLINE
  8
LAYER-1
 66
  1
 70
  0
 62
  0
 10
3.487873
 20
0.616475
 30
0.000000
  0
VERTEX
  8
LAYER-1
 10
3.487873
 20
0.616475
 30
0.000000
  0
VERTEX
  8
LAYER-1
 10
3.487873
 20
0.344847
 30
0.000000
  0
SEQEND
  8
LAYER-1
  0
POLYLINE
  8
LAYER-1
 66
  1
 70
  0
 62
  0
 10
3.452443
 20
0.344847
 30
0.000000
  0
VERTEX
  8
LAYER-1
 10
3.452443
 20
0.344847
 30
0.000000
  0
VERTEX
  8
LAYER-1
 10
3.452443
 20
0.616478
 30
0.000000
  0
SEQEND
  8
LAYER-1
  0
POLYLINE
  8
LAYER-1
 66
  1
 70
  0
 62
  0
 10
3.453414
 20
0.344836
 30
0.000000
  0
VERTEX
  8
LAYER-1
 10
3.453414
 20
0.344836
 30
0.000000
  0
VERTEX
  8
LAYER-1
 10
3.463360
 20
0.337843
 30
0.000000
  0
VERTEX
  8
LAYER-1
 10
3.478122
 20
0.339932
 30
0.000000
  0
VERTEX
  8
LAYER-1
 10
3.486969
 20
0.344847
 30
0.000000
  0
SEQEND
  8
LAYER-1
  0
POLYLINE
  8
LAYER-1
 66
  1
 70
  0
 62
  0
 10
3.415540
 20
0.344848
 30
0.000000
  0
VERTEX
  8
LAYER-1
 10
3.415540
 20
0.344848
 30
0.000000
  0
VERTEX
  8
LAYER-1
 10
3.428711
 20
0.337801
 30
0.000000
  0
VERTEX
  8
LAYER-1
 10
3.445791
 20
0.342132
 30
0.000000
  0
VERTEX
  8
LAYER-1
 10
3.452443
 20
0.344847
 30
0.000000
  0
SEQEND
  8
LAYER-1
  0
POLYLINE
  8
LAYER-1
 66
  1
 70
  0
 62
  0
 10
2.999981
 20
0.345341
 30
0.000000
  0
VERTEX
  8
LAYER-1
 10
2.999981
 20
0.345341
 30
0.000000
  0
VERTEX
  8
LAYER-1
 10
3.015547
 20
0.339286
 30
0.000000
  0
VERTEX
  8
LAYER-1
 10
3.033621
 20
0.346011
 30
0.000000
  0
VERTEX
  8
LAYER-1
 10
3.036888
 20
0.345341
 30
0.000000
  0
SEQEND
  8
LAYER-1
  0
POLYLINE
  8
LAYER-1
 66
  1
 70
  0
 62
  0
 10
2.187022
 20
0.344872
 30
0.000000
  0
VERTEX
  8
LAYER-1
 10
2.187022
 20
0.344872
 30
0.000000
  0
VERTEX
  8
LAYER-1
 10
2.202589
 20
0.338815
 30
0.000000
  0
VERTEX
  8
LAYER-1
 10
2.220663
 20
0.345541
 30
0.000000
  0
VERTEX
  8
LAYER-1
 10
2.223930
 20
0.344872
 30
0.000000
  0
SEQEND
  8
LAYER-1
  0
POLYLINE
  8
LAYER-1
 66
  1
 70
  0
 62
  0
 10
3.047690
 20
0.345341
 30
0.000000
  0
VERTEX
  8
LAYER-1
 10
3.047690
 20
0.345341
 30
0.000000
  0
VERTEX
  8
LAYER-1
 10
3.063257
 20
0.339286
 30
0.000000
  0
VERTEX
  8
LAYER-1
 10
3.081330
 20
0.346011
 30
0.000000
  0
VERTEX
  8
LAYER-1
 10
3.084597
 20
0.345340
 30
0.000000
  0
SEQEND
  8
LAYER-1
  0
POLYLINE
  8
LAYER-1
 66
  1
 70
  0
 62
  0
 10
3.027226
 20
0.344782
 30
0.000000
  0
VERTEX
  8
LAYER-1
 10
3.027226
 20
0.344782
 30
0.000000
  0
VERTEX
  8
LAYER-1
 10
3.034041
 20
0.335713
 30
0.000000
  0
VERTEX
  8
LAYER-1
 10
3.048056
 20
0.334119
 30
0.000000
  0
VERTEX
  8
LAYER-1
 10
3.059093
 20
0.342902
 30
0.000000
  0
VERTEX
  8
LAYER-1
 10
3.062655
 20
0.344782
 30
0.000000
  0
SEQEND
  8
LAYER-1
  0
POLYLINE
  8
LAYER-1
 66
  1
 70
  0
 62
  0
 10
3.062654
 20
0.344782
 30
0.000000
  0
VERTEX
  8
LAYER-1
 10
3.062654
 20
0.344782
 30
0.000000
  0
VERTEX
  8
LAYER-1
 10
3.027225
 20
0.344782
 30
0.000000
  0
SEQEND
  8
LAYER-1
  0
POLYLINE
  8
LAYER-1
 66
  1
 70
  0
 62
  0
 10
2.235672
 20
0.344872
 30
0.000000
  0
VERTEX
  8
LAYER-1
 10
2.235672
 20
0.344872
 30
0.000000
  0
VERTEX
  8
LAYER-1
 10
2.251239
 20
0.338815
 30
0.000000
  0
VERTEX
  8
LAYER-1
 10
2.269313
 20
0.345541
 30
0.000000
  0
VERTEX
  8
LAYER-1
 10
2.272580
 20
0.344870
 30
0.000000
  0
SEQEND
  8
LAYER-1
  0
POLYLINE
  8
LAYER-1
 66
  1
 70
  0
 62
  0
 10
2.210979
 20
0.344782
 30
0.000000
  0
VERTEX
  8
LAYER-1
 10
2.210979
 20
0.344782
 30
0.000000
  0
VERTEX
  8
LAYER-1
 10
2.217793
 20
0.335713
 30
0.000000
  0
VERTEX
  8
LAYER-1
 10
2.231809
 20
0.334119
 30
0.000000
  0
VERTEX
  8
LAYER-1
 10
2.242845
 20
0.342902
 30
0.000000
  0
VERTEX
  8
LAYER-1
 10
2.246407
 20
0.344782
 30
0.000000
  0
SEQEND
  8
LAYER-1
  0
POLYLINE
  8
LAYER-1
 66
  1
 70
  0
 62
  0
 10
2.246407
 20
0.344782
 30
0.000000
  0
VERTEX
  8
LAYER-1
 10
2.246407
 20
0.344782
 30
0.000000
  0
VERTEX
  8
LAYER-1
 10
2.210979
 20
0.344782
 30
0.000000
  0
SEQEND
  8
LAYER-1
  0
POLYLINE
  8
LAYER-1
 66
  1
 70
  0
 62
  0
 10
3.486940
 20
0.616503
 30
0.000000
  0
VERTEX
  8
LAYER-1
 10
3.486940
 20
0.616503
 30
0.000000
  0
VERTEX
  8
LAYER-1
 10
3.473062
 20
0.627441
 30
0.000000
  0
VERTEX
  8
LAYER-1
 10
3.458299
 20
0.625363
 30
0.000000
  0
VERTEX
  8
LAYER-1
 10
3.453720
 20
0.617063
 30
0.000000
  0
SEQEND
  8
LAYER-1
  0
POLYLINE
  8
LAYER-1
 66
  1
 70
  0
 62
  0
 10
3.453720
 20
0.617064
 30
0.000000
  0
VERTEX
  8
LAYER-1
 10
3.453720
 20
0.617064
 30
0.000000
  0
VERTEX
  8
LAYER-1
 10
3.486939
 20
0.616503
 30
0.000000
  0
SEQEND
  8
LAYER-1
  0
POLYLINE
  8
LAYER-1
 66
  1
 70
  0
 62
  0
 10
3.451511
 20
0.616503
 30
0.000000
  0
VERTEX
  8
LAYER-1
 10
3.451511
 20
0.616503
 30
0.000000
  0
VERTEX
  8
LAYER-1
 10
3.434402
 20
0.627486
 30
0.000000
  0
VERTEX
  8
LAYER-1
 10
3.417322
 20
0.623155
 30
0.000000
  0
VERTEX
  8
LAYER-1
 10
3.414607
 20
0.616502
 30
0.000000
  0
SEQEND
  8
LAYER-1
  0
POLYLINE
  8
LAYER-1
 66
  1
 70
  0
 62
  0
 10
3.414608
 20
0.616503
 30
0.000000
  0
VERTEX
  8
LAYER-1
 10
3.414608
 20
0.616503
 30
0.000000
  0
VERTEX
  8
LAYER-1
 10
3.451511
 20
0.616503
 30
0.000000
  0
SEQEND
  8
LAYER-1
  0
POLYLINE
  8
LAYER-1
 66
  1
 70
  0
 62
  0
 10
3.084671
 20
0.616949
 30
0.000000
  0
VERTEX
  8
LAYER-1
 10
3.084671
 20
0.616949
 30
0.000000
  0
VERTEX
  8
LAYER-1
 10
3.065166
 20
0.626941
 30
0.000000
  0
VERTEX
  8
LAYER-1
 10
3.047093
 20
0.620216
 30
0.000000
  0
VERTEX
  8
LAYER-1
 10
3.047764
 20
0.616948
 30
0.000000
  0
SEQEND
  8
LAYER-1
  0
POLYLINE
  8
LAYER-1
 66
  1
 70
  0
 62
  0
 10
3.037430
 20
0.616949
 30
0.000000
  0
VERTEX
  8
LAYER-1
 10
3.037430
 20
0.616949
 30
0.000000
  0
VERTEX
  8
LAYER-1
 10
3.017926
 20
0.626941
 30
0.000000
  0
VERTEX
  8
LAYER-1
 10
2.999852
 20
0.620216
 30
0.000000
  0
VERTEX
  8
LAYER-1
 10
3.000523
 20
0.616948
 30
0.000000
  0
SEQEND
  8
LAYER-1
  0
POLYLINE
  8
LAYER-1
 66
  1
 70
  0
 62
  0
 10
3.063197
 20
0.617038
 30
0.000000
  0
VERTEX
  8
LAYER-1
 10
3.063197
 20
0.617038
 30
0.000000
  0
VERTEX
  8
LAYER-1
 10
3.052445
 20
0.630044
 30
0.000000
  0
VERTEX
  8
LAYER-1
 10
3.038430
 20
0.631638
 30
0.000000
  0
VERTEX
  8
LAYER-1
 10
3.027393
 20
0.622854
 30
0.000000
  0
VERTEX
  8
LAYER-1
 10
3.027768
 20
0.617038
 30
0.000000
  0
SEQEND
  8
LAYER-1
  0
POLYLINE
  8
LAYER-1
 66
  1
 70
  0
 62
  0
 10
3.063197
 20
0.617039
 30
0.000000
  0
VERTEX
  8
LAYER-1
 10
3.063197
 20
0.617039
 30
0.000000
  0
VERTEX
  8
LAYER-1
 10
3.027768
 20
0.617039
 30
0.000000
  0
SEQEND
  8
LAYER-1
  0
POLYLINE
  8
LAYER-1
 66
  1
 70
  0
 62
  0
 10
2.272116
 20
0.616949
 30
0.000000
  0
VERTEX
  8
LAYER-1
 10
2.272116
 20
0.616949
 30
0.000000
  0
VERTEX
  8
LAYER-1
 10
2.252612
 20
0.626941
 30
0.000000
  0
VERTEX
  8
LAYER-1
 10
2.234538
 20
0.620216
 30
0.000000
  0
VERTEX
  8
LAYER-1
 10
2.235209
 20
0.616948
 30
0.000000
  0
SEQEND
  8
LAYER-1
  0
POLYLINE
  8
LAYER-1
 66
  1
 70
  0
 62
  0
 10
2.223937
 20
0.616949
 30
0.000000
  0
VERTEX
  8
LAYER-1
 10
2.223937
 20
0.616949
 30
0.000000
  0
VERTEX
  8
LAYER-1
 10
2.204432
 20
0.626941
 30
0.000000
  0
VERTEX
  8
LAYER-1
 10
2.186359
 20
0.620216
 30
0.000000
  0
VERTEX
  8
LAYER-1
 10
2.187029
 20
0.616948
 30
0.000000
  0
SEQEND
  8
LAYER-1
  0
POLYLINE
  8
LAYER-1
 66
  1
 70
  0
 62
  0
 10
2.246414
 20
0.617038
 30
0.000000
  0
VERTEX
  8
LAYER-1
 10
2.246414
 20
0.617038
 30
0.000000
  0
VERTEX
  8
LAYER-1
 10
2.235662
 20
0.630044
 30
0.000000
  0
VERTEX
  8
LAYER-1
 10
2.221647
 20
0.631638
 30
0.000000
  0
VERTEX
  8
LAYER-1
 10
2.210610
 20
0.622854
 30
0.000000
  0
VERTEX
  8
LAYER-1
 10
2.210985
 20
0.617038
 30
0.000000
  0
SEQEND
  8
LAYER-1
  0
POLYLINE
  8
LAYER-1
 66
  1
 70
  0
 62
  0
 10
2.246413
 20
0.617039
 30
0.000000
  0
VERTEX
  8
LAYER-1
 10
2.246413
 20
0.617039
 30
0.000000
  0
VERTEX
  8
LAYER-1
 10
2.210985
 20
0.617039
 30
0.000000
  0
SEQEND
  8
LAYER-1
  0
POLYLINE
  8
LAYER-1
 66
  1
 70
  1
 62
  0
  0
VERTEX
  8
LAYER-1
 10
3.062654
 20
0.344848
 30
0.000000
  0
VERTEX
  8
LAYER-1
 10
3.027224
 20
0.344848
 30
0.000000
  0
VERTEX
  8
LAYER-1
 10
3.027224
 20
0.616476
 30
0.000000
  0
VERTEX
  8
LAYER-1
 10
3.062654
 20
0.616476
 30
0.000000
  0
SEQEND
  8
LAYER-1
  0
POLYLINE
  8
LAYER-1
 66
  1
 70
  1
 62
  0
  0
VERTEX
  8
LAYER-1
 10
2.246341
 20
0.344848
 30
0.000000
  0
VERTEX
  8
LAYER-1
 10
2.210910
 20
0.344848
 30
0.000000
  0
VERTEX
  8
LAYER-1
 10
2.210910
 20
0.616476
 30
0.000000
  0
VERTEX
  8
LAYER-1
 10
2.246341
 20
0.616476
 30
0.000000
  0
SEQEND
  8
LAYER-1
  0
POLYLINE
  8
LAYER-1
 66
  1
 70
  0
 62
  0
 10
3.062654
 20
0.412754
 30
0.000000
  0
VERTEX
  8
LAYER-1
 10
3.062654
 20
0.412754
 30
0.000000
  0
VERTEX
  8
LAYER-1
 10
3.027224
 20
0.412754
 30
0.000000
  0
SEQEND
  8
LAYER-1
  0
POLYLINE
  8
LAYER-1
 66
  1
 70
  0
 62
  0
 10
3.062654
 20
0.542664
 30
0.000000
  0
VERTEX
  8
LAYER-1
 10
3.062654
 20
0.542664
 30
0.000000
  0
VERTEX
  8
LAYER-1
 10
3.027224
 20
0.542664
 30
0.000000
  0
SEQEND
  8
LAYER-1
  0
POLYLINE
  8
LAYER-1
 66
  1
 70
  0
 62
  0
 10
2.246341
 20
0.412754
 30
0.000000
  0
VERTEX
  8
LAYER-1
 10
2.246341
 20
0.412754
 30
0.000000
  0
VERTEX
  8
LAYER-1
 10
2.210912
 20
0.412754
 30
0.000000
  0
SEQEND
  8
LAYER-1
  0
POLYLINE
  8
LAYER-1
 66
  1
 70
  0
 62
  0
 10
2.246341
 20
0.542664
 30
0.000000
  0
VERTEX
  8
LAYER-1
 10
2.246341
 20
0.542664
 30
0.000000
  0
VERTEX
  8
LAYER-1
 10
2.210912
 20
0.542664
 30
0.000000
  0
SEQEND
  8
LAYER-1
  0
POLYLINE
  8
LAYER-1
 66
  1
 70
  0
 62
  0
 10
3.231767
 20
0.344731
 30
0.000000
  0
VERTEX
  8
LAYER-1
 10
3.231767
 20
0.344731
 30
0.000000
  0
VERTEX
  8
LAYER-1
 10
3.242003
 20
0.338137
 30
0.000000
  0
VERTEX
  8
LAYER-1
 10
3.256687
 20
0.340712
 30
0.000000
  0
VERTEX
  8
LAYER-1
 10
3.264986
 20
0.345291
 30
0.000000
  0
SEQEND
  8
LAYER-1
  0
POLYLINE
  8
LAYER-1
 66
  1
 70
  0
 62
  0
 10
2.414588
 20
0.344910
 30
0.000000
  0
VERTEX
  8
LAYER-1
 10
2.414588
 20
0.344910
 30
0.000000
  0
VERTEX
  8
LAYER-1
 10
2.427759
 20
0.337863
 30
0.000000
  0
VERTEX
  8
LAYER-1
 10
2.444839
 20
0.342194
 30
0.000000
  0
VERTEX
  8
LAYER-1
 10
2.451492
 20
0.344909
 30
0.000000
  0
SEQEND
  8
LAYER-1
  0
POLYLINE
  8
LAYER-1
 66
  1
 70
  0
 62
  0
 10
2.671908
 20
0.616507
 30
0.000000
  0
VERTEX
  8
LAYER-1
 10
2.671908
 20
0.616507
 30
0.000000
  0
VERTEX
  8
LAYER-1
 10
2.658030
 20
0.627444
 30
0.000000
  0
VERTEX
  8
LAYER-1
 10
2.643268
 20
0.625365
 30
0.000000
  0
VERTEX
  8
LAYER-1
 10
2.638688
 20
0.617066
 30
0.000000
  0
SEQEND
  8
LAYER-1
  0
POLYLINE
  8
LAYER-1
 66
  1
 70
  0
 62
  0
 10
2.638689
 20
0.617066
 30
0.000000
  0
VERTEX
  8
LAYER-1
 10
2.638689
 20
0.617066
 30
0.000000
  0
VERTEX
  8
LAYER-1
 10
2.671908
 20
0.616505
 30
0.000000
  0
SEQEND
  8
LAYER-1
  0
POLYLINE
  8
LAYER-1
 66
  1
 70
  0
 62
  0
 10
2.636480
 20
0.616505
 30
0.000000
  0
VERTEX
  8
LAYER-1
 10
2.636480
 20
0.616505
 30
0.000000
  0
VERTEX
  8
LAYER-1
 10
2.619371
 20
0.627489
 30
0.000000
  0
VERTEX
  8
LAYER-1
 10
2.602291
 20
0.623158
 30
0.000000
  0
VERTEX
  8
LAYER-1
 10
2.599576
 20
0.616504
 30
0.000000
  0
SEQEND
  8
LAYER-1
  0
POLYLINE
  8
LAYER-1
 66
  1
 70
  0
 62
  0
 10
2.599576
 20
0.616504
 30
0.000000
  0
VERTEX
  8
LAYER-1
 10
2.599576
 20
0.616504
 30
0.000000
  0
VERTEX
  8
LAYER-1
 10
2.636479
 20
0.616505
 30
0.000000
  0
SEQEND
  8
LAYER-1
  0
POLYLINE
  8
LAYER-1
 66
  1
 70
  0
 62
  0
 10
2.600747
 20
0.344848
 30
0.000000
  0
VERTEX
  8
LAYER-1
 10
2.600747
 20
0.344848
 30
0.000000
  0
VERTEX
  8
LAYER-1
 10
2.600747
 20
0.616480
 30
0.000000
  0
SEQEND
  8
LAYER-1
  0
POLYLINE
  8
LAYER-1
 66
  1
 70
  0
 62
  0
 10
2.673081
 20
0.616475
 30
0.000000
  0
VERTEX
  8
LAYER-1
 10
2.673081
 20
0.616475
 30
0.000000
  0
VERTEX
  8
LAYER-1
 10
2.673081
 20
0.344847
 30
0.000000
  0
SEQEND
  8
LAYER-1
  0
POLYLINE
  8
LAYER-1
 66
  1
 70
  0
 62
  0
 10
2.637651
 20
0.344847
 30
0.000000
  0
VERTEX
  8
LAYER-1
 10
2.637651
 20
0.344847
 30
0.000000
  0
VERTEX
  8
LAYER-1
 10
2.637651
 20
0.616478
 30
0.000000
  0
SEQEND
  8
LAYER-1
  0
POLYLINE
  8
LAYER-1
 66
  1
 70
  0
 62
  0
 10
2.639556
 20
0.344429
 30
0.000000
  0
VERTEX
  8
LAYER-1
 10
2.639556
 20
0.344429
 30
0.000000
  0
VERTEX
  8
LAYER-1
 10
2.649792
 20
0.337835
 30
0.000000
  0
VERTEX
  8
LAYER-1
 10
2.664477
 20
0.340409
 30
0.000000
  0
VERTEX
  8
LAYER-1
 10
2.672776
 20
0.344989
 30
0.000000
  0
SEQEND
  8
LAYER-1
  0
POLYLINE
  8
LAYER-1
 66
  1
 70
  0
 62
  0
 10
2.639557
 20
0.344428
 30
0.000000
  0
VERTEX
  8
LAYER-1
 10
2.639557
 20
0.344428
 30
0.000000
  0
VERTEX
  8
LAYER-1
 10
2.672776
 20
0.344989
 30
0.000000
  0
SEQEND
  8
LAYER-1
  0
POLYLINE
  8
LAYER-1
 66
  1
 70
  0
 62
  0
 10
2.600444
 20
0.344990
 30
0.000000
  0
VERTEX
  8
LAYER-1
 10
2.600444
 20
0.344990
 30
0.000000
  0
VERTEX
  8
LAYER-1
 10
2.613615
 20
0.337943
 30
0.000000
  0
VERTEX
  8
LAYER-1
 10
2.630695
 20
0.342274
 30
0.000000
  0
VERTEX
  8
LAYER-1
 10
2.637348
 20
0.344989
 30
0.000000
  0
SEQEND
  8
LAYER-1
  0
POLYLINE
  8
LAYER-1
 66
  1
 70
  0
 62
  0
 10
2.600444
 20
0.344989
 30
0.000000
  0
VERTEX
  8
LAYER-1
 10
2.600444
 20
0.344989
 30
0.000000
  0
VERTEX
  8
LAYER-1
 10
2.637347
 20
0.344989
 30
0.000000
  0
SEQEND
  8
LAYER-1
  0
POLYLINE
  8
LAYER-1
 66
  1
 70
  0
 62
  0
 10
1.851908
 20
0.616507
 30
0.000000
  0
VERTEX
  8
LAYER-1
 10
1.851908
 20
0.616507
 30
0.000000
  0
VERTEX
  8
LAYER-1
 10
1.838030
 20
0.627444
 30
0.000000
  0
VERTEX
  8
LAYER-1
 10
1.823268
 20
0.625365
 30
0.000000
  0
VERTEX
  8
LAYER-1
 10
1.818688
 20
0.617066
 30
0.000000
  0
SEQEND
  8
LAYER-1
  0
POLYLINE
  8
LAYER-1
 66
  1
 70
  0
 62
  0
 10
1.818689
 20
0.617066
 30
0.000000
  0
VERTEX
  8
LAYER-1
 10
1.818689
 20
0.617066
 30
0.000000
  0
VERTEX
  8
LAYER-1
 10
1.851908
 20
0.616505
 30
0.000000
  0
SEQEND
  8
LAYER-1
  0
POLYLINE
  8
LAYER-1
 66
  1
 70
  0
 62
  0
 10
1.816480
 20
0.616505
 30
0.000000
  0
VERTEX
  8
LAYER-1
 10
1.816480
 20
0.616505
 30
0.000000
  0
VERTEX
  8
LAYER-1
 10
1.799371
 20
0.627489
 30
0.000000
  0
VERTEX
  8
LAYER-1
 10
1.782291
 20
0.623158
 30
0.000000
  0
VERTEX
  8
LAYER-1
 10
1.779576
 20
0.616504
 30
0.000000
  0
SEQEND
  8
LAYER-1
  0
POLYLINE
  8
LAYER-1
 66
  1
 70
  0
 62
  0
 10
1.779576
 20
0.616504
 30
0.000000
  0
VERTEX
  8
LAYER-1
 10
1.779576
 20
0.616504
 30
0.000000
  0
VERTEX
  8
LAYER-1
 10
1.816479
 20
0.616505
 30
0.000000
  0
SEQEND
  8
LAYER-1
  0
POLYLINE
  8
LAYER-1
 66
  1
 70
  0
 62
  0
 10
1.780747
 20
0.344848
 30
0.000000
  0
VERTEX
  8
LAYER-1
 10
1.780747
 20
0.344848
 30
0.000000
  0
VERTEX
  8
LAYER-1
 10
1.780747
 20
0.616480
 30
0.000000
  0
SEQEND
  8
LAYER-1
  0
POLYLINE
  8
LAYER-1
 66
  1
 70
  0
 62
  0
 10
1.853081
 20
0.616475
 30
0.000000
  0
VERTEX
  8
LAYER-1
 10
1.853081
 20
0.616475
 30
0.000000
  0
VERTEX
  8
LAYER-1
 10
1.853081
 20
0.344847
 30
0.000000
  0
SEQEND
  8
LAYER-1
  0
POLYLINE
  8
LAYER-1
 66
  1
 70
  0
 62
  0
 10
1.817651
 20
0.344847
 30
0.000000
  0
VERTEX
  8
LAYER-1
 10
1.817651
 20
0.344847
 30
0.000000
  0
VERTEX
  8
LAYER-1
 10
1.817651
 20
0.616478
 30
0.000000
  0
SEQEND
  8
LAYER-1
  0
POLYLINE
  8
LAYER-1
 66
  1
 70
  0
 62
  0
 10
1.819557
 20
0.344429
 30
0.000000
  0
VERTEX
  8
LAYER-1
 10
1.819557
 20
0.344429
 30
0.000000
  0
VERTEX
  8
LAYER-1
 10
1.829792
 20
0.337835
 30
0.000000
  0
VERTEX
  8
LAYER-1
 10
1.844477
 20
0.340409
 30
0.000000
  0
VERTEX
  8
LAYER-1
 10
1.852776
 20
0.344989
 30
0.000000
  0
SEQEND
  8
LAYER-1
  0
POLYLINE
  8
LAYER-1
 66
  1
 70
  0
 62
  0
 10
1.819557
 20
0.344428
 30
0.000000
  0
VERTEX
  8
LAYER-1
 10
1.819557
 20
0.344428
 30
0.000000
  0
VERTEX
  8
LAYER-1
 10
1.852776
 20
0.344989
 30
0.000000
  0
SEQEND
  8
LAYER-1
  0
POLYLINE
  8
LAYER-1
 66
  1
 70
  0
 62
  0
 10
1.780444
 20
0.344990
 30
0.000000
  0
VERTEX
  8
LAYER-1
 10
1.780444
 20
0.344990
 30
0.000000
  0
VERTEX
  8
LAYER-1
 10
1.793615
 20
0.337943
 30
0.000000
  0
VERTEX
  8
LAYER-1
 10
1.810695
 20
0.342274
 30
0.000000
  0
VERTEX
  8
LAYER-1
 10
1.817348
 20
0.344989
 30
0.000000
  0
SEQEND
  8
LAYER-1
  0
POLYLINE
  8
LAYER-1
 66
  1
 70
  0
 62
  0
 10
1.780445
 20
0.344989
 30
0.000000
  0
VERTEX
  8
LAYER-1
 10
1.780445
 20
0.344989
 30
0.000000
  0
VERTEX
  8
LAYER-1
 10
1.817347
 20
0.344989
 30
0.000000
  0
SEQEND
  8
LAYER-1
  0
POLYLINE
  8
LAYER-1
 66
  1
 70
  1
 62
  0
  0
VERTEX
  8
LAYER-1
 10
3.676374
 20
7.415132
 30
0.000000
  0
VERTEX
  8
LAYER-1
 10
3.845256
 20
7.415132
 30
0.000000
  0
VERTEX
  8
LAYER-1
 10
3.845256
 20
0.345306
 30
0.000000
  0
VERTEX
  8
LAYER-1
 10
3.676374
 20
0.345306
 30
0.000000
  0
SEQEND
  8
LAYER-1
  0
CIRCLE
  8
LAYER-1
 62
  0
 10
3.761021
 20
3.180689
 30
0.000000
 40
0.064283
  0
LINE
  8
LAYER-1
 62
  0
 10
6.767101
 20
7.482560
 30
0.000000
 11
0.763629
 21
7.482560
 31
0.000000
  0
LINE
  8
LAYER-1
 62
  0
 10
6.767101
 20
7.592560
 30
0.000000
 11
0.763629
 21
7.592560
 31
0.000000
  0
LINE
  8
LAYER-1
 62
  0
 10
1.322657
 20
7.480596
 30
0.000000
 11
1.322657
 21
7.590574
 31
0.000000
  0
LINE
  8
LAYER-1
 62
  0
 10
1.263288
 20
7.480596
 30
0.000000
 11
1.447657
 21
7.480596
 31
0.000000
  0
LINE
  8
LAYER-1
 62
  0
 10
1.263629
 20
7.590574
 30
0.000000
 11
1.447657
 21
7.590574
 31
0.000000
  0
LINE
  8
LAYER-1
 62
  0
 10
1.322657
 20
7.590574
 30
0.000000
 11
1.322657
 21
7.225060
 31
0.000000
  0
LINE
  8
LAYER-1
 62
  0
 10
1.293194
 20
7.510059
 30
0.000000
 11
1.352119
 21
7.451133
 31
0.000000
  0
LINE
  8
LAYER-1
 62
  0
 10
1.293194
 20
7.620038
 30
0.000000
 11
1.352119
 21
7.561111
 31
0.000000
  0
TEXT
  8
LAYER-1
 62
  0
 10
1.312596
 20
7.099185
 30
0.000000
 40
0.125000
  1
 
  0
POLYLINE
  8
LAYER-1
 66
  1
 70
  1
 62
  0
  0
VERTEX
  8
LAYER-1
 10
3.784140
 20
7.480557
 30
0.000000
  0
VERTEX
  8
LAYER-1
 10
3.809235
 20
7.480557
 30
0.000000
  0
VERTEX
  8
LAYER-1
 10
3.809235
 20
7.415106
 30
0.000000
  0
VERTEX
  8
LAYER-1
 10
3.784140
 20
7.415106
 30
0.000000
  0
SEQEND
  8
LAYER-1
  0
POLYLINE
  8
LAYER-1
 66
  1
 70
  1
 62
  0
  0
VERTEX
  8
LAYER-1
 10
4.667446
 20
7.480899
 30
0.000000
  0
VERTEX
  8
LAYER-1
 10
4.692541
 20
7.480899
 30
0.000000
  0
VERTEX
  8
LAYER-1
 10
4.692541
 20
7.414979
 30
0.000000
  0
VERTEX
  8
LAYER-1
 10
4.667446
 20
7.414979
 30
0.000000
  0
SEQEND
  8
LAYER-1
  0
POLYLINE
  8
LAYER-1
 66
  1
 70
  1
 62
  0
  0
VERTEX
  8
LAYER-1
 10
5.484417
 20
7.480899
 30
0.000000
  0
VERTEX
  8
LAYER-1
 10
5.509513
 20
7.480899
 30
0.000000
  0
VERTEX
  8
LAYER-1
 10
5.509513
 20
7.414979
 30
0.000000
  0
VERTEX
  8
LAYER-1
 10
5.484417
 20
7.414979
 30
0.000000
  0
SEQEND
  8
LAYER-1
  0
POLYLINE
  8
LAYER-1
 66
  1
 70
  1
 62
  0
  0
VERTEX
  8
LAYER-1
 10
3.705578
 20
0.345431
 30
0.000000
  0
VERTEX
  8
LAYER-1
 10
3.739135
 20
0.345431
 30
0.000000
  0
VERTEX
  8
LAYER-1
 10
3.739135
 20
0.249925
 30
0.000000
  0
VERTEX
  8
LAYER-1
 10
3.705578
 20
0.249925
 30
0.000000
  0
SEQEND
  8
LAYER-1
  0
POLYLINE
  8
LAYER-1
 66
  1
 70
  0
 62
  0
 10
3.718674
 20
2.123049
 30
0.000000
  0
VERTEX
  8
LAYER-1
 10
3.718674
 20
2.123049
 30
0.000000
  0
VERTEX
  8
LAYER-1
 10
3.718675
 20
2.123049
 30
0.000000
  0
SEQEND
  8
LAYER-1
  0
POLYLINE
  8
LAYER-1
 66
  1
 70
  0
 62
  0
 10
3.726640
 20
2.115085
 30
0.000000
  0
VERTEX
  8
LAYER-1
 10
3.726640
 20
2.115085
 30
0.000000
  0
VERTEX
  8
LAYER-1
 10
3.726640
 20
1.865542
 30
0.000000
  0
SEQEND
  8
LAYER-1
  0
POLYLINE
  8
LAYER-1
 66
  1
 70
  0
 62
  0
 10
3.718675
 20
1.857578
 30
0.000000
  0
VERTEX
  8
LAYER-1
 10
3.718675
 20
1.857578
 30
0.000000
  0
VERTEX
  8
LAYER-1
 10
3.718674
 20
1.857578
 30
0.000000
  0
SEQEND
  8
LAYER-1
  0
POLYLINE
  8
LAYER-1
 66
  1
 70
  0
 62
  0
 10
3.710710
 20
1.865542
 30
0.000000
  0
VERTEX
  8
LAYER-1
 10
3.710710
 20
1.865542
 30
0.000000
  0
VERTEX
  8
LAYER-1
 10
3.710710
 20
2.115085
 30
0.000000
  0
SEQEND
  8
LAYER-1
  0
ARC
  8
LAYER-1
 62
  0
 10
3.718674
 20
2.115085
 30
0.000000
 40
0.007964
 50
270.000000
 51
0.000000
  0
ARC
  8
LAYER-1
 62
  0
 10
3.718674
 20
1.865542
 30
0.000000
 40
0.007964
 50
0.000000
 51
90.000000
  0
ARC
  8
LAYER-1
 62
  0
 10
3.718675
 20
1.865542
 30
0.000000
 40
0.007964
 50
90.000000
 51
180.000000
  0
ARC
  8
LAYER-1
 62
  0
 10
3.718675
 20
2.115085
 30
0.000000
 40
0.007964
 50
180.000000
 51
270.000000
  0
POLYLINE
  8
LAYER-1
 66
  1
 70
  1
 62
  0
  0
VERTEX
  8
LAYER-1
 10
2.828911
 20
7.480603
 30
0.000000
  0
VERTEX
  8
LAYER-1
 10
2.854007
 20
7.480603
 30
0.000000
  0
VERTEX
  8
LAYER-1
 10
2.854007
 20
7.415622
 30
0.000000
  0
VERTEX
  8
LAYER-1
 10
2.828911
 20
7.415622
 30
0.000000
  0
SEQEND
  8
LAYER-1
  0
POLYLINE
  8
LAYER-1
 66
  1
 70
  1
 62
  0
  0
VERTEX
  8
LAYER-1
 10
2.011072
 20
7.480603
 30
0.000000
  0
VERTEX
  8
LAYER-1
 10
2.036168
 20
7.480603
 30
0.000000
  0
VERTEX
  8
LAYER-1
 10
2.036168
 20
7.415622
 30
0.000000
  0
VERTEX
  8
LAYER-1
 10
2.011072
 20
7.415622
 30
0.000000
  0
SEQEND
  8
LAYER-1
  0
POLYLINE
  8
LAYER-1
 66
  1
 70
  0
 62
  0
 10
3.675675
 20
0.242265
 30
0.000000
  0
VERTEX
  8
LAYER-1
 10
3.675675
 20
0.242265
 30
0.000000
  0
VERTEX
  8
LAYER-1
 10
3.688453
 20
0.249830
 30
0.000000
  0
SEQEND
  8
LAYER-1
  0
POLYLINE
  8
LAYER-1
 66
  1
 70
  0
 62
  0
 10
3.675675
 20
0.242265
 30
0.000000
  0
VERTEX
  8
LAYER-1
 10
3.675675
 20
0.242265
 30
0.000000
  0
VERTEX
  8
LAYER-1
 10
3.675675
 20
0.240700
 30
0.000000
  0
SEQEND
  8
LAYER-1
  0
POLYLINE
  8
LAYER-1
 66
  1
 70
  1
 62
  0
  0
VERTEX
  8
LAYER-1
 10
3.694118
 20
0.240686
 30
0.000000
  0
VERTEX
  8
LAYER-1
 10
3.750705
 20
0.240686
 30
0.000000
  0
VERTEX
  8
LAYER-1
 10
3.750705
 20
0.053023
 30
0.000000
  0
VERTEX
  8
LAYER-1
 10
3.694118
 20
0.053023
 30
0.000000
  0
SEQEND
  8
LAYER-1
  0
POLYLINE
  8
LAYER-1
  6
LTYPE01
 66
  1
 70
  1
 62
  0
  0
VERTEX
  8
LAYER-1
  6
LTYPE01
 10
3.698812
 20
0.249812
 30
0.000000
  0
VERTEX
  8
LAYER-1
  6
LTYPE01
 10
3.745752
 20
0.249812
 30
0.000000
  0
VERTEX
  8
LAYER-1
  6
LTYPE01
 10
3.745752
 20
0.062584
 30
0.000000
  0
VERTEX
  8
LAYER-1
  6
LTYPE01
 10
3.698812
 20
0.062584
 30
0.000000
  0
SEQEND
  8
LAYER-1
  0
POLYLINE
  8
LAYER-1
 66
  1
 70
  0
 62
  0
 10
3.675675
 20
0.240700
 30
0.000000
  0
VERTEX
  8
LAYER-1
 10
3.675675
 20
0.240700
 30
0.000000
  0
VERTEX
  8
LAYER-1
 10
3.769292
 20
0.240700
 30
0.000000
  0
SEQEND
  8
LAYER-1
  0
POLYLINE
  8
LAYER-1
 66
  1
 70
  0
 62
  0
 10
3.769292
 20
0.240700
 30
0.000000
  0
VERTEX
  8
LAYER-1
 10
3.769292
 20
0.240700
 30
0.000000
  0
VERTEX
  8
LAYER-1
 10
3.769292
 20
0.242265
 30
0.000000
  0
SEQEND
  8
LAYER-1
  0
POLYLINE
  8
LAYER-1
 66
  1
 70
  0
 62
  0
 10
3.769292
 20
0.242265
 30
0.000000
  0
VERTEX
  8
LAYER-1
 10
3.769292
 20
0.242265
 30
0.000000
  0
VERTEX
  8
LAYER-1
 10
3.756252
 20
0.249830
 30
0.000000
  0
SEQEND
  8
LAYER-1
  0
POLYLINE
  8
LAYER-1
  6
LTYPE02
 66
  1
 70
  0
 62
  0
  6
LTYPE02
 10
3.700057
 20
0.149043
 30
0.000000
  0
VERTEX
  8
LAYER-1
  6
LTYPE02
 10
3.700057
 20
0.149043
 30
0.000000
  0
VERTEX
  8
LAYER-1
  6
LTYPE02
 10
3.700057
 20
0.115144
 30
0.000000
  0
SEQEND
  8
LAYER-1
  0
POLYLINE
  8
LAYER-1
  6
LTYPE02
 66
  1
 70
  0
 62
  0
  6
LTYPE02
 10
3.703965
 20
0.149043
 30
0.000000
  0
VERTEX
  8
LAYER-1
  6
LTYPE02
 10
3.703965
 20
0.149043
 30
0.000000
  0
VERTEX
  8
LAYER-1
  6
LTYPE02
 10
3.700057
 20
0.149043
 30
0.000000
  0
SEQEND
  8
LAYER-1
  0
POLYLINE
  8
LAYER-1
  6
LTYPE02
 66
  1
 70
  0
 62
  0
  6
LTYPE02
 10
3.703965
 20
0.149043
 30
0.000000
  0
VERTEX
  8
LAYER-1
  6
LTYPE02
 10
3.703965
 20
0.149043
 30
0.000000
  0
VERTEX
  8
LAYER-1
  6
LTYPE02
 10
3.703965
 20
0.153475
 30
0.000000
  0
SEQEND
  8
LAYER-1
  0
POLYLINE
  8
LAYER-1
  6
LTYPE02
 66
  1
 70
  0
 62
  0
  6
LTYPE02
 10
3.703965
 20
0.153475
 30
0.000000
  0
VERTEX
  8
LAYER-1
  6
LTYPE02
 10
3.703965
 20
0.153475
 30
0.000000
  0
VERTEX
  8
LAYER-1
  6
LTYPE02
 10
3.741225
 20
0.153475
 30
0.000000
  0
SEQEND
  8
LAYER-1
  0
POLYLINE
  8
LAYER-1
  6
LTYPE02
 66
  1
 70
  0
 62
  0
  6
LTYPE02
 10
3.700057
 20
0.115144
 30
0.000000
  0
VERTEX
  8
LAYER-1
  6
LTYPE02
 10
3.700057
 20
0.115144
 30
0.000000
  0
VERTEX
  8
LAYER-1
  6
LTYPE02
 10
3.744388
 20
0.115144
 30
0.000000
  0
SEQEND
  8
LAYER-1
  0
POLYLINE
  8
LAYER-1
  6
LTYPE02
 66
  1
 70
  0
 62
  0
  6
LTYPE02
 10
3.744388
 20
0.115144
 30
0.000000
  0
VERTEX
  8
LAYER-1
  6
LTYPE02
 10
3.744388
 20
0.115144
 30
0.000000
  0
VERTEX
  8
LAYER-1
  6
LTYPE02
 10
3.744388
 20
0.149043
 30
0.000000
  0
SEQEND
  8
LAYER-1
  0
POLYLINE
  8
LAYER-1
  6
LTYPE02
 66
  1
 70
  0
 62
  0
  6
LTYPE02
 10
3.741225
 20
0.149043
 30
0.000000
  0
VERTEX
  8
LAYER-1
  6
LTYPE02
 10
3.741225
 20
0.149043
 30
0.000000
  0
VERTEX
  8
LAYER-1
  6
LTYPE02
 10
3.744388
 20
0.149043
 30
0.000000
  0
SEQEND
  8
LAYER-1
  0
POLYLINE
  8
LAYER-1
  6
LTYPE02
 66
  1
 70
  0
 62
  0
  6
LTYPE02
 10
3.741225
 20
0.153475
 30
0.000000
  0
VERTEX
  8
LAYER-1
  6
LTYPE02
 10
3.741225
 20
0.153475
 30
0.000000
  0
VERTEX
  8
LAYER-1
  6
LTYPE02
 10
3.741225
 20
0.149043
 30
0.000000
  0
SEQEND
  8
LAYER-1
  0
POLYLINE
  8
LAYER-1
  6
LTYPE01
 66
  1
 70
  1
 62
  0
  0
VERTEX
  8
LAYER-1
  6
LTYPE01
 10
3.705194
 20
0.114997
 30
0.000000
  0
VERTEX
  8
LAYER-1
  6
LTYPE01
 10
3.739616
 20
0.114997
 30
0.000000
  0
VERTEX
  8
LAYER-1
  6
LTYPE01
 10
3.739616
 20
0.062843
 30
0.000000
  0
VERTEX
  8
LAYER-1
  6
LTYPE01
 10
3.705194
 20
0.062843
 30
0.000000
  0
SEQEND
  8
LAYER-1
  0
POLYLINE
  8
LAYER-1
  6
LTYPE02
 66
  1
 70
  0
 62
  0
  6
LTYPE02
 10
3.739616
 20
0.114997
 30
0.000000
  0
VERTEX
  8
LAYER-1
  6
LTYPE02
 10
3.739616
 20
0.114997
 30
0.000000
  0
VERTEX
  8
LAYER-1
  6
LTYPE02
 10
3.705194
 20
0.112129
 30
0.000000
  0
SEQEND
  8
LAYER-1
  0
POLYLINE
  8
LAYER-1
  6
LTYPE02
 66
  1
 70
  0
 62
  0
  6
LTYPE02
 10
3.739616
 20
0.113433
 30
0.000000
  0
VERTEX
  8
LAYER-1
  6
LTYPE02
 10
3.739616
 20
0.113433
 30
0.000000
  0
VERTEX
  8
LAYER-1
  6
LTYPE02
 10
3.705194
 20
0.110304
 30
0.000000
  0
SEQEND
  8
LAYER-1
  0
POLYLINE
  8
LAYER-1
  6
LTYPE02
 66
  1
 70
  0
 62
  0
  6
LTYPE02
 10
3.739616
 20
0.110044
 30
0.000000
  0
VERTEX
  8
LAYER-1
  6
LTYPE02
 10
3.739616
 20
0.110044
 30
0.000000
  0
VERTEX
  8
LAYER-1
  6
LTYPE02
 10
3.705194
 20
0.107173
 30
0.000000
  0
SEQEND
  8
LAYER-1
  0
POLYLINE
  8
LAYER-1
  6
LTYPE02
 66
  1
 70
  0
 62
  0
  6
LTYPE02
 10
3.739616
 20
0.108477
 30
0.000000
  0
VERTEX
  8
LAYER-1
  6
LTYPE02
 10
3.739616
 20
0.108477
 30
0.000000
  0
VERTEX
  8
LAYER-1
  6
LTYPE02
 10
3.705194
 20
0.105349
 30
0.000000
  0
SEQEND
  8
LAYER-1
  0
POLYLINE
  8
LAYER-1
  6
LTYPE02
 66
  1
 70
  0
 62
  0
  6
LTYPE02
 10
3.739616
 20
0.104894
 30
0.000000
  0
VERTEX
  8
LAYER-1
  6
LTYPE02
 10
3.739616
 20
0.104894
 30
0.000000
  0
VERTEX
  8
LAYER-1
  6
LTYPE02
 10
3.705194
 20
0.102025
 30
0.000000
  0
SEQEND
  8
LAYER-1
  0
POLYLINE
  8
LAYER-1
  6
LTYPE02
 66
  1
 70
  0
 62
  0
  6
LTYPE02
 10
3.739616
 20
0.103330
 30
0.000000
  0
VERTEX
  8
LAYER-1
  6
LTYPE02
 10
3.739616
 20
0.103330
 30
0.000000
  0
VERTEX
  8
LAYER-1
  6
LTYPE02
 10
3.705194
 20
0.100200
 30
0.000000
  0
SEQEND
  8
LAYER-1
  0
POLYLINE
  8
LAYER-1
  6
LTYPE02
 66
  1
 70
  0
 62
  0
  6
LTYPE02
 10
3.739551
 20
0.100394
 30
0.000000
  0
VERTEX
  8
LAYER-1
  6
LTYPE02
 10
3.739551
 20
0.100394
 30
0.000000
  0
VERTEX
  8
LAYER-1
  6
LTYPE02
 10
3.705129
 20
0.097527
 30
0.000000
  0
SEQEND
  8
LAYER-1
  0
POLYLINE
  8
LAYER-1
  6
LTYPE02
 66
  1
 70
  0
 62
  0
  6
LTYPE02
 10
3.739551
 20
0.098831
 30
0.000000
  0
VERTEX
  8
LAYER-1
  6
LTYPE02
 10
3.739551
 20
0.098831
 30
0.000000
  0
VERTEX
  8
LAYER-1
  6
LTYPE02
 10
3.705129
 20
0.095702
 30
0.000000
  0
SEQEND
  8
LAYER-1
  0
POLYLINE
  8
LAYER-1
  6
LTYPE02
 66
  1
 70
  0
 62
  0
  6
LTYPE02
 10
3.739551
 20
0.095572
 30
0.000000
  0
VERTEX
  8
LAYER-1
  6
LTYPE02
 10
3.739551
 20
0.095572
 30
0.000000
  0
VERTEX
  8
LAYER-1
  6
LTYPE02
 10
3.705129
 20
0.092704
 30
0.000000
  0
SEQEND
  8
LAYER-1
  0
POLYLINE
  8
LAYER-1
  6
LTYPE02
 66
  1
 70
  0
 62
  0
  6
LTYPE02
 10
3.739551
 20
0.094006
 30
0.000000
  0
VERTEX
  8
LAYER-1
  6
LTYPE02
 10
3.739551
 20
0.094006
 30
0.000000
  0
VERTEX
  8
LAYER-1
  6
LTYPE02
 10
3.705129
 20
0.090876
 30
0.000000
  0
SEQEND
  8
LAYER-1
  0
POLYLINE
  8
LAYER-1
  6
LTYPE02
 66
  1
 70
  0
 62
  0
  6
LTYPE02
 10
3.739551
 20
0.090615
 30
0.000000
  0
VERTEX
  8
LAYER-1
  6
LTYPE02
 10
3.739551
 20
0.090615
 30
0.000000
  0
VERTEX
  8
LAYER-1
  6
LTYPE02
 10
3.705129
 20
0.087747
 30
0.000000
  0
SEQEND
  8
LAYER-1
  0
POLYLINE
  8
LAYER-1
  6
LTYPE02
 66
  1
 70
  0
 62
  0
  6
LTYPE02
 10
3.739551
 20
0.089052
 30
0.000000
  0
VERTEX
  8
LAYER-1
  6
LTYPE02
 10
3.739551
 20
0.089052
 30
0.000000
  0
VERTEX
  8
LAYER-1
  6
LTYPE02
 10
3.705129
 20
0.085921
 30
0.000000
  0
SEQEND
  8
LAYER-1
  0
POLYLINE
  8
LAYER-1
  6
LTYPE02
 66
  1
 70
  0
 62
  0
  6
LTYPE02
 10
3.739551
 20
0.085466
 30
0.000000
  0
VERTEX
  8
LAYER-1
  6
LTYPE02
 10
3.739551
 20
0.085466
 30
0.000000
  0
VERTEX
  8
LAYER-1
  6
LTYPE02
 10
3.705129
 20
0.082597
 30
0.000000
  0
SEQEND
  8
LAYER-1
  0
POLYLINE
  8
LAYER-1
  6
LTYPE02
 66
  1
 70
  0
 62
  0
  6
LTYPE02
 10
3.739551
 20
0.083901
 30
0.000000
  0
VERTEX
  8
LAYER-1
  6
LTYPE02
 10
3.739551
 20
0.083901
 30
0.000000
  0
VERTEX
  8
LAYER-1
  6
LTYPE02
 10
3.705129
 20
0.080772
 30
0.000000
  0
SEQEND
  8
LAYER-1
  0
POLYLINE
  8
LAYER-1
  6
LTYPE02
 66
  1
 70
  0
 62
  0
  6
LTYPE02
 10
3.739486
 20
0.080967
 30
0.000000
  0
VERTEX
  8
LAYER-1
  6
LTYPE02
 10
3.739486
 20
0.080967
 30
0.000000
  0
VERTEX
  8
LAYER-1
  6
LTYPE02
 10
3.705065
 20
0.078100
 30
0.000000
  0
SEQEND
  8
LAYER-1
  0
POLYLINE
  8
LAYER-1
  6
LTYPE02
 66
  1
 70
  0
 62
  0
  6
LTYPE02
 10
3.739486
 20
0.079404
 30
0.000000
  0
VERTEX
  8
LAYER-1
  6
LTYPE02
 10
3.739486
 20
0.079404
 30
0.000000
  0
VERTEX
  8
LAYER-1
  6
LTYPE02
 10
3.705065
 20
0.076274
 30
0.000000
  0
SEQEND
  8
LAYER-1
  0
POLYLINE
  8
LAYER-1
  6
LTYPE02
 66
  1
 70
  0
 62
  0
  6
LTYPE02
 10
3.739616
 20
0.076600
 30
0.000000
  0
VERTEX
  8
LAYER-1
  6
LTYPE02
 10
3.739616
 20
0.076600
 30
0.000000
  0
VERTEX
  8
LAYER-1
  6
LTYPE02
 10
3.705194
 20
0.073732
 30
0.000000
  0
SEQEND
  8
LAYER-1
  0
POLYLINE
  8
LAYER-1
  6
LTYPE02
 66
  1
 70
  0
 62
  0
  6
LTYPE02
 10
3.739616
 20
0.075035
 30
0.000000
  0
VERTEX
  8
LAYER-1
  6
LTYPE02
 10
3.739616
 20
0.075035
 30
0.000000
  0
VERTEX
  8
LAYER-1
  6
LTYPE02
 10
3.705194
 20
0.071906
 30
0.000000
  0
SEQEND
  8
LAYER-1
  0
POLYLINE
  8
LAYER-1
  6
LTYPE02
 66
  1
 70
  0
 62
  0
  6
LTYPE02
 10
3.739616
 20
0.071646
 30
0.000000
  0
VERTEX
  8
LAYER-1
  6
LTYPE02
 10
3.739616
 20
0.071646
 30
0.000000
  0
VERTEX
  8
LAYER-1
  6
LTYPE02
 10
3.705194
 20
0.068778
 30
0.000000
  0
SEQEND
  8
LAYER-1
  0
POLYLINE
  8
LAYER-1
  6
LTYPE02
 66
  1
 70
  0
 62
  0
  6
LTYPE02
 10
3.739616
 20
0.070081
 30
0.000000
  0
VERTEX
  8
LAYER-1
  6
LTYPE02
 10
3.739616
 20
0.070081
 30
0.000000
  0
VERTEX
  8
LAYER-1
  6
LTYPE02
 10
3.705194
 20
0.066951
 30
0.000000
  0
SEQEND
  8
LAYER-1
  0
POLYLINE
  8
LAYER-1
  6
LTYPE02
 66
  1
 70
  0
 62
  0
  6
LTYPE02
 10
3.739616
 20
0.066495
 30
0.000000
  0
VERTEX
  8
LAYER-1
  6
LTYPE02
 10
3.739616
 20
0.066495
 30
0.000000
  0
VERTEX
  8
LAYER-1
  6
LTYPE02
 10
3.705194
 20
0.063626
 30
0.000000
  0
SEQEND
  8
LAYER-1
  0
POLYLINE
  8
LAYER-1
  6
LTYPE02
 66
  1
 70
  0
 62
  0
  6
LTYPE02
 10
3.739616
 20
0.064931
 30
0.000000
  0
VERTEX
  8
LAYER-1
  6
LTYPE02
 10
3.739616
 20
0.064931
 30
0.000000
  0
VERTEX
  8
LAYER-1
  6
LTYPE02
 10
3.716603
 20
0.062843
 30
0.000000
  0
SEQEND
  8
LAYER-1
  0
POLYLINE
  8
LAYER-1
  6
LTYPE02
 66
  1
 70
  0
 62
  0
  6
LTYPE02
 10
3.706186
 20
0.174207
 30
0.000000
  0
VERTEX
  8
LAYER-1
  6
LTYPE02
 10
3.706186
 20
0.174207
 30
0.000000
  0
VERTEX
  8
LAYER-1
  6
LTYPE02
 10
3.706186
 20
0.249830
 30
0.000000
  0
SEQEND
  8
LAYER-1
  0
POLYLINE
  8
LAYER-1
  6
LTYPE02
 66
  1
 70
  0
 62
  0
  6
LTYPE02
 10
3.738520
 20
0.174207
 30
0.000000
  0
VERTEX
  8
LAYER-1
  6
LTYPE02
 10
3.738520
 20
0.174207
 30
0.000000
  0
VERTEX
  8
LAYER-1
  6
LTYPE02
 10
3.738520
 20
0.249830
 30
0.000000
  0
SEQEND
  8
LAYER-1
  0
POLYLINE
  8
LAYER-1
  6
LTYPE01
 66
  1
 70
  0
 62
  0
  6
LTYPE01
 10
3.706185
 20
0.174207
 30
0.000000
  0
VERTEX
  8
LAYER-1
  6
LTYPE01
 10
3.706185
 20
0.174207
 30
0.000000
  0
VERTEX
  8
LAYER-1
  6
LTYPE01
 10
3.708952
 20
0.164743
 30
0.000000
  0
VERTEX
  8
LAYER-1
  6
LTYPE01
 10
3.720384
 20
0.160009
 30
0.000000
  0
VERTEX
  8
LAYER-1
  6
LTYPE01
 10
3.731817
 20
0.164743
 30
0.000000
  0
VERTEX
  8
LAYER-1
  6
LTYPE01
 10
3.738520
 20
0.174207
 30
0.000000
  0
SEQEND
  8
LAYER-1
  0
POLYLINE
  8
LAYER-1
 66
  1
 70
  0
 62
  0
 10
3.688453
 20
0.249830
 30
0.000000
  0
VERTEX
  8
LAYER-1
 10
3.688453
 20
0.249830
 30
0.000000
  0
VERTEX
  8
LAYER-1
 10
3.756252
 20
0.249830
 30
0.000000
  0
SEQEND
  8
LAYER-1
  0
TEXT
  8
LAYER-1
 62
  7
 10
1.947657
 20
8.794505
 30
0.000000
 40
0.177083
  1
âlÄvation modÅle SystÅme S-126
 72
  5
 11
5.544879
 21
8.794505
 31
0.000000
  0
TEXT
  8
LAYER-1
 62
  0
 10
1.072657
 20
6.850060
 30
0.000000
 40
0.125000
  1
1-
 72
  5
 11
1.294879
 21
6.850060
 31
0.000000
  0
TEXT
  8
LAYER-1
 62
  0
 10
1.294879
 20
6.850060
 30
0.000000
 40
0.104167
  1
9/16
 72
  5
 11
1.655990
 21
6.850060
 31
0.000000
  0
TEXT
  8
LAYER-1
 62
  0
 10
1.655990
 20
6.850060
 30
0.000000
 40
0.125000
  1
"
 72
  5
 11
1.780990
 21
6.850060
 31
0.000000
  0
TEXT
  8
LAYER-1
 62
  0
 10
1.072657
 20
6.655616
 30
0.000000
 40
0.125000
  1
40mm
 72
  5
 11
1.642101
 21
6.655616
 31
0.000000
  0
TEXT
  8
LAYER-1
 62
  0
 10
5.919879
 20
4.572283
 30
0.000000
 40
0.125000
  1
maillons
 72
  5
 11
6.655990
 21
4.572283
 31
0.000000
  0
TEXT
  8
LAYER-1
 62
  0
 10
6.114323
 20
4.377838
 30
0.000000
 40
0.104167
  1
1/8
 72
  5
 11
6.392101
 21
4.377838
 31
0.000000
  0
TEXT
  8
LAYER-1
 62
  0
 10
6.392101
 20
4.377838
 30
0.000000
 40
0.125000
  1
"
 72
  5
 11
6.517101
 21
4.377838
 31
0.000000
  0
TEXT
  8
LAYER-1
 62
  0
 10
6.044879
 20
4.183394
 30
0.000000
 40
0.125000
  1
3mm
 72
  5
 11
6.517101
 21
4.183394
 31
0.000000
  0
POLYLINE
  8
LAYER-1
 66
  1
 70
  1
 62
  7
  0
VERTEX
  8
LAYER-1
 10
0.094393
 20
5.136517
 30
0.000000
  0
VERTEX
  8
LAYER-1
 10
0.105123
 20
5.136517
 30
0.000000
  0
VERTEX
  8
LAYER-1
 10
0.105123
 20
3.439020
 30
0.000000
  0
VERTEX
  8
LAYER-1
 10
0.094393
 20
3.439020
 30
0.000000
  0
SEQEND
  8
LAYER-1
  0
POLYLINE
  8
LAYER-1
 66
  1
 70
  0
 62
 15
 10
0.094393
 20
5.136517
 30
0.000000
  0
VERTEX
  8
LAYER-1
 10
0.094393
 20
5.136517
 30
0.000000
  0
VERTEX
  8
LAYER-1
 10
0.094393
 20
3.439020
 30
0.000000
  0
SEQEND
  8
LAYER-1
  0
POLYLINE
  8
LAYER-1
 66
  1
 70
  0
 62
 15
 10
0.105123
 20
5.136517
 30
0.000000
  0
VERTEX
  8
LAYER-1
 10
0.105123
 20
5.136517
 30
0.000000
  0
VERTEX
  8
LAYER-1
 10
0.105123
 20
3.439020
 30
0.000000
  0
SEQEND
  8
LAYER-1
  0
POLYLINE
  8
LAYER-1
 66
  1
 70
  1
 62
  7
  0
VERTEX
  8
LAYER-1
 10
0.021067
 20
5.037430
 30
0.000000
  0
VERTEX
  8
LAYER-1
 10
0.028221
 20
5.037430
 30
0.000000
  0
VERTEX
  8
LAYER-1
 10
0.028221
 20
3.538415
 30
0.000000
  0
VERTEX
  8
LAYER-1
 10
0.021067
 20
3.538415
 30
0.000000
  0
SEQEND
  8
LAYER-1
  0
POLYLINE
  8
LAYER-1
 66
  1
 70
  1
 62
  7
  0
VERTEX
  8
LAYER-1
 10
1.072666
 20
5.037430
 30
0.000000
  0
VERTEX
  8
LAYER-1
 10
1.079818
 20
5.037430
 30
0.000000
  0
VERTEX
  8
LAYER-1
 10
1.079818
 20
3.538415
 30
0.000000
  0
VERTEX
  8
LAYER-1
 10
1.072666
 20
3.538415
 30
0.000000
  0
SEQEND
  8
LAYER-1
  0
POLYLINE
  8
LAYER-1
 66
  1
 70
  1
 62
  7
  0
VERTEX
  8
LAYER-1
 10
0.922436
 20
5.037430
 30
0.000000
  0
VERTEX
  8
LAYER-1
 10
0.929590
 20
5.037430
 30
0.000000
  0
VERTEX
  8
LAYER-1
 10
0.929590
 20
3.538415
 30
0.000000
  0
VERTEX
  8
LAYER-1
 10
0.922436
 20
3.538415
 30
0.000000
  0
SEQEND
  8
LAYER-1
  0
POLYLINE
  8
LAYER-1
 66
  1
 70
  1
 62
  7
  0
VERTEX
  8
LAYER-1
 10
0.772208
 20
5.037430
 30
0.000000
  0
VERTEX
  8
LAYER-1
 10
0.779362
 20
5.037430
 30
0.000000
  0
VERTEX
  8
LAYER-1
 10
0.779362
 20
3.538415
 30
0.000000
  0
VERTEX
  8
LAYER-1
 10
0.772208
 20
3.538415
 30
0.000000
  0
SEQEND
  8
LAYER-1
  0
POLYLINE
  8
LAYER-1
 66
  1
 70
  1
 62
  7
  0
VERTEX
  8
LAYER-1
 10
0.621980
 20
5.037430
 30
0.000000
  0
VERTEX
  8
LAYER-1
 10
0.629134
 20
5.037430
 30
0.000000
  0
VERTEX
  8
LAYER-1
 10
0.629134
 20
3.538415
 30
0.000000
  0
VERTEX
  8
LAYER-1
 10
0.621980
 20
3.538415
 30
0.000000
  0
SEQEND
  8
LAYER-1
  0
POLYLINE
  8
LAYER-1
 66
  1
 70
  1
 62
  7
  0
VERTEX
  8
LAYER-1
 10
0.471751
 20
5.037430
 30
0.000000
  0
VERTEX
  8
LAYER-1
 10
0.478906
 20
5.037430
 30
0.000000
  0
VERTEX
  8
LAYER-1
 10
0.478906
 20
3.538415
 30
0.000000
  0
VERTEX
  8
LAYER-1
 10
0.471751
 20
3.538415
 30
0.000000
  0
SEQEND
  8
LAYER-1
  0
POLYLINE
  8
LAYER-1
 66
  1
 70
  1
 62
  7
  0
VERTEX
  8
LAYER-1
 10
0.321523
 20
5.037430
 30
0.000000
  0
VERTEX
  8
LAYER-1
 10
0.328677
 20
5.037430
 30
0.000000
  0
VERTEX
  8
LAYER-1
 10
0.328677
 20
3.538415
 30
0.000000
  0
VERTEX
  8
LAYER-1
 10
0.321523
 20
3.538415
 30
0.000000
  0
SEQEND
  8
LAYER-1
  0
POLYLINE
  8
LAYER-1
 66
  1
 70
  1
 62
  7
  0
VERTEX
  8
LAYER-1
 10
0.171295
 20
5.037430
 30
0.000000
  0
VERTEX
  8
LAYER-1
 10
0.178449
 20
5.037430
 30
0.000000
  0
VERTEX
  8
LAYER-1
 10
0.178449
 20
3.538415
 30
0.000000
  0
VERTEX
  8
LAYER-1
 10
0.171295
 20
3.538415
 30
0.000000
  0
SEQEND
  8
LAYER-1
  0
POLYLINE
  8
LAYER-1
 66
  1
 70
  1
 62
  7
  0
VERTEX
  8
LAYER-1
 10
0.995760
 20
5.136517
 30
0.000000
  0
VERTEX
  8
LAYER-1
 10
1.006493
 20
5.136517
 30
0.000000
  0
VERTEX
  8
LAYER-1
 10
1.006493
 20
3.439020
 30
0.000000
  0
VERTEX
  8
LAYER-1
 10
0.995760
 20
3.439020
 30
0.000000
  0
SEQEND
  8
LAYER-1
  0
POLYLINE
  8
LAYER-1
 66
  1
 70
  0
 62
 15
 10
0.995760
 20
5.136517
 30
0.000000
  0
VERTEX
  8
LAYER-1
 10
0.995760
 20
5.136517
 30
0.000000
  0
VERTEX
  8
LAYER-1
 10
0.995760
 20
3.439020
 30
0.000000
  0
SEQEND
  8
LAYER-1
  0
POLYLINE
  8
LAYER-1
 66
  1
 70
  0
 62
 15
 10
1.006493
 20
5.136517
 30
0.000000
  0
VERTEX
  8
LAYER-1
 10
1.006493
 20
5.136517
 30
0.000000
  0
VERTEX
  8
LAYER-1
 10
1.006493
 20
3.439020
 30
0.000000
  0
SEQEND
  8
LAYER-1
  0
POLYLINE
  8
LAYER-1
 66
  1
 70
  1
 62
  7
  0
VERTEX
  8
LAYER-1
 10
0.845534
 20
5.136517
 30
0.000000
  0
VERTEX
  8
LAYER-1
 10
0.856264
 20
5.136517
 30
0.000000
  0
VERTEX
  8
LAYER-1
 10
0.856264
 20
3.439020
 30
0.000000
  0
VERTEX
  8
LAYER-1
 10
0.845534
 20
3.439020
 30
0.000000
  0
SEQEND
  8
LAYER-1
  0
POLYLINE
  8
LAYER-1
 66
  1
 70
  0
 62
 15
 10
0.845534
 20
5.136517
 30
0.000000
  0
VERTEX
  8
LAYER-1
 10
0.845534
 20
5.136517
 30
0.000000
  0
VERTEX
  8
LAYER-1
 10
0.845534
 20
3.439020
 30
0.000000
  0
SEQEND
  8
LAYER-1
  0
POLYLINE
  8
LAYER-1
 66
  1
 70
  0
 62
 15
 10
0.856264
 20
5.136517
 30
0.000000
  0
VERTEX
  8
LAYER-1
 10
0.856264
 20
5.136517
 30
0.000000
  0
VERTEX
  8
LAYER-1
 10
0.856264
 20
3.439020
 30
0.000000
  0
SEQEND
  8
LAYER-1
  0
POLYLINE
  8
LAYER-1
 66
  1
 70
  1
 62
  7
  0
VERTEX
  8
LAYER-1
 10
0.695306
 20
5.136517
 30
0.000000
  0
VERTEX
  8
LAYER-1
 10
0.706036
 20
5.136517
 30
0.000000
  0
VERTEX
  8
LAYER-1
 10
0.706036
 20
3.439020
 30
0.000000
  0
VERTEX
  8
LAYER-1
 10
0.695306
 20
3.439020
 30
0.000000
  0
SEQEND
  8
LAYER-1
  0
POLYLINE
  8
LAYER-1
 66
  1
 70
  0
 62
 15
 10
0.695306
 20
5.136517
 30
0.000000
  0
VERTEX
  8
LAYER-1
 10
0.695306
 20
5.136517
 30
0.000000
  0
VERTEX
  8
LAYER-1
 10
0.695306
 20
3.439020
 30
0.000000
  0
SEQEND
  8
LAYER-1
  0
POLYLINE
  8
LAYER-1
 66
  1
 70
  0
 62
 15
 10
0.706036
 20
5.136517
 30
0.000000
  0
VERTEX
  8
LAYER-1
 10
0.706036
 20
5.136517
 30
0.000000
  0
VERTEX
  8
LAYER-1
 10
0.706036
 20
3.439020
 30
0.000000
  0
SEQEND
  8
LAYER-1
  0
POLYLINE
  8
LAYER-1
 66
  1
 70
  1
 62
  7
  0
VERTEX
  8
LAYER-1
 10
0.545077
 20
5.136517
 30
0.000000
  0
VERTEX
  8
LAYER-1
 10
0.555809
 20
5.136517
 30
0.000000
  0
VERTEX
  8
LAYER-1
 10
0.555809
 20
3.439020
 30
0.000000
  0
VERTEX
  8
LAYER-1
 10
0.545077
 20
3.439020
 30
0.000000
  0
SEQEND
  8
LAYER-1
  0
POLYLINE
  8
LAYER-1
 66
  1
 70
  0
 62
 15
 10
0.545077
 20
5.136517
 30
0.000000
  0
VERTEX
  8
LAYER-1
 10
0.545077
 20
5.136517
 30
0.000000
  0
VERTEX
  8
LAYER-1
 10
0.545077
 20
3.439020
 30
0.000000
  0
SEQEND
  8
LAYER-1
  0
POLYLINE
  8
LAYER-1
 66
  1
 70
  0
 62
 15
 10
0.555809
 20
5.136517
 30
0.000000
  0
VERTEX
  8
LAYER-1
 10
0.555809
 20
5.136517
 30
0.000000
  0
VERTEX
  8
LAYER-1
 10
0.555809
 20
3.439020
 30
0.000000
  0
SEQEND
  8
LAYER-1
  0
POLYLINE
  8
LAYER-1
 66
  1
 70
  1
 62
  7
  0
VERTEX
  8
LAYER-1
 10
0.394848
 20
5.136517
 30
0.000000
  0
VERTEX
  8
LAYER-1
 10
0.405580
 20
5.136517
 30
0.000000
  0
VERTEX
  8
LAYER-1
 10
0.405580
 20
3.439020
 30
0.000000
  0
VERTEX
  8
LAYER-1
 10
0.394848
 20
3.439020
 30
0.000000
  0
SEQEND
  8
LAYER-1
  0
POLYLINE
  8
LAYER-1
 66
  1
 70
  0
 62
 15
 10
0.394848
 20
5.136517
 30
0.000000
  0
VERTEX
  8
LAYER-1
 10
0.394848
 20
5.136517
 30
0.000000
  0
VERTEX
  8
LAYER-1
 10
0.394848
 20
3.439020
 30
0.000000
  0
SEQEND
  8
LAYER-1
  0
POLYLINE
  8
LAYER-1
 66
  1
 70
  0
 62
 15
 10
0.405580
 20
5.136517
 30
0.000000
  0
VERTEX
  8
LAYER-1
 10
0.405580
 20
5.136517
 30
0.000000
  0
VERTEX
  8
LAYER-1
 10
0.405580
 20
3.439020
 30
0.000000
  0
SEQEND
  8
LAYER-1
  0
POLYLINE
  8
LAYER-1
 66
  1
 70
  1
 62
  7
  0
VERTEX
  8
LAYER-1
 10
0.244620
 20
5.136517
 30
0.000000
  0
VERTEX
  8
LAYER-1
 10
0.255351
 20
5.136517
 30
0.000000
  0
VERTEX
  8
LAYER-1
 10
0.255351
 20
3.439020
 30
0.000000
  0
VERTEX
  8
LAYER-1
 10
0.244620
 20
3.439020
 30
0.000000
  0
SEQEND
  8
LAYER-1
  0
POLYLINE
  8
LAYER-1
 66
  1
 70
  0
 62
 15
 10
0.244620
 20
5.136517
 30
0.000000
  0
VERTEX
  8
LAYER-1
 10
0.244620
 20
5.136517
 30
0.000000
  0
VERTEX
  8
LAYER-1
 10
0.244620
 20
3.439020
 30
0.000000
  0
SEQEND
  8
LAYER-1
  0
POLYLINE
  8
LAYER-1
 66
  1
 70
  0
 62
 15
 10
0.255351
 20
5.136517
 30
0.000000
  0
VERTEX
  8
LAYER-1
 10
0.255351
 20
5.136517
 30
0.000000
  0
VERTEX
  8
LAYER-1
 10
0.255351
 20
3.439020
 30
0.000000
  0
SEQEND
  8
LAYER-1
  0
POLYLINE
  8
LAYER-1
 66
  1
 70
  1
 62
  7
  0
VERTEX
  8
LAYER-1
 10
0.018913
 20
5.137102
 30
0.000000
  0
VERTEX
  8
LAYER-1
 10
0.169285
 20
5.137102
 30
0.000000
  0
VERTEX
  8
LAYER-1
 10
0.169285
 20
5.037359
 30
0.000000
  0
VERTEX
  8
LAYER-1
 10
0.018913
 20
5.037359
 30
0.000000
  0
SEQEND
  8
LAYER-1
  0
POLYLINE
  8
LAYER-1
 66
  1
 70
  1
 62
  7
  0
VERTEX
  8
LAYER-1
 10
0.169221
 20
5.137102
 30
0.000000
  0
VERTEX
  8
LAYER-1
 10
0.319595
 20
5.137102
 30
0.000000
  0
VERTEX
  8
LAYER-1
 10
0.319595
 20
5.037359
 30
0.000000
  0
VERTEX
  8
LAYER-1
 10
0.169221
 20
5.037359
 30
0.000000
  0
SEQEND
  8
LAYER-1
  0
POLYLINE
  8
LAYER-1
 66
  1
 70
  1
 62
  7
  0
VERTEX
  8
LAYER-1
 10
0.319383
 20
5.137102
 30
0.000000
  0
VERTEX
  8
LAYER-1
 10
0.469609
 20
5.137102
 30
0.000000
  0
VERTEX
  8
LAYER-1
 10
0.469609
 20
5.037359
 30
0.000000
  0
VERTEX
  8
LAYER-1
 10
0.319383
 20
5.037359
 30
0.000000
  0
SEQEND
  8
LAYER-1
  0
POLYLINE
  8
LAYER-1
 66
  1
 70
  1
 62
  7
  0
VERTEX
  8
LAYER-1
 10
0.469398
 20
5.137102
 30
0.000000
  0
VERTEX
  8
LAYER-1
 10
0.619917
 20
5.137102
 30
0.000000
  0
VERTEX
  8
LAYER-1
 10
0.619917
 20
5.037359
 30
0.000000
  0
VERTEX
  8
LAYER-1
 10
0.469398
 20
5.037359
 30
0.000000
  0
SEQEND
  8
LAYER-1
  0
POLYLINE
  8
LAYER-1
 66
  1
 70
  1
 62
  7
  0
VERTEX
  8
LAYER-1
 10
0.619998
 20
5.137102
 30
0.000000
  0
VERTEX
  8
LAYER-1
 10
0.770077
 20
5.137102
 30
0.000000
  0
VERTEX
  8
LAYER-1
 10
0.770077
 20
5.037359
 30
0.000000
  0
VERTEX
  8
LAYER-1
 10
0.619998
 20
5.037359
 30
0.000000
  0
SEQEND
  8
LAYER-1
  0
POLYLINE
  8
LAYER-1
 66
  1
 70
  1
 62
  7
  0
VERTEX
  8
LAYER-1
 10
0.770014
 20
5.137102
 30
0.000000
  0
VERTEX
  8
LAYER-1
 10
0.920386
 20
5.137102
 30
0.000000
  0
VERTEX
  8
LAYER-1
 10
0.920386
 20
5.037359
 30
0.000000
  0
VERTEX
  8
LAYER-1
 10
0.770014
 20
5.037359
 30
0.000000
  0
SEQEND
  8
LAYER-1
  0
POLYLINE
  8
LAYER-1
 66
  1
 70
  1
 62
  7
  0
VERTEX
  8
LAYER-1
 10
0.920322
 20
5.137102
 30
0.000000
  0
VERTEX
  8
LAYER-1
 10
1.082009
 20
5.137102
 30
0.000000
  0
VERTEX
  8
LAYER-1
 10
1.082009
 20
5.037359
 30
0.000000
  0
VERTEX
  8
LAYER-1
 10
0.920322
 20
5.037359
 30
0.000000
  0
SEQEND
  8
LAYER-1
  0
POLYLINE
  8
LAYER-1
 66
  1
 70
  1
 62
  7
  0
VERTEX
  8
LAYER-1
 10
0.018913
 20
3.538552
 30
0.000000
  0
VERTEX
  8
LAYER-1
 10
0.169285
 20
3.538552
 30
0.000000
  0
VERTEX
  8
LAYER-1
 10
0.169285
 20
3.438809
 30
0.000000
  0
VERTEX
  8
LAYER-1
 10
0.018913
 20
3.438809
 30
0.000000
  0
SEQEND
  8
LAYER-1
  0
POLYLINE
  8
LAYER-1
 66
  1
 70
  1
 62
  7
  0
VERTEX
  8
LAYER-1
 10
0.169221
 20
3.538552
 30
0.000000
  0
VERTEX
  8
LAYER-1
 10
0.319595
 20
3.538552
 30
0.000000
  0
VERTEX
  8
LAYER-1
 10
0.319595
 20
3.438809
 30
0.000000
  0
VERTEX
  8
LAYER-1
 10
0.169221
 20
3.438809
 30
0.000000
  0
SEQEND
  8
LAYER-1
  0
POLYLINE
  8
LAYER-1
 66
  1
 70
  1
 62
  7
  0
VERTEX
  8
LAYER-1
 10
0.319383
 20
3.538552
 30
0.000000
  0
VERTEX
  8
LAYER-1
 10
0.469609
 20
3.538552
 30
0.000000
  0
VERTEX
  8
LAYER-1
 10
0.469609
 20
3.438809
 30
0.000000
  0
VERTEX
  8
LAYER-1
 10
0.319383
 20
3.438809
 30
0.000000
  0
SEQEND
  8
LAYER-1
  0
POLYLINE
  8
LAYER-1
 66
  1
 70
  1
 62
  7
  0
VERTEX
  8
LAYER-1
 10
0.469692
 20
3.538552
 30
0.000000
  0
VERTEX
  8
LAYER-1
 10
0.619917
 20
3.538552
 30
0.000000
  0
VERTEX
  8
LAYER-1
 10
0.619917
 20
3.438809
 30
0.000000
  0
VERTEX
  8
LAYER-1
 10
0.469692
 20
3.438809
 30
0.000000
  0
SEQEND
  8
LAYER-1
  0
POLYLINE
  8
LAYER-1
 66
  1
 70
  1
 62
  7
  0
VERTEX
  8
LAYER-1
 10
0.619998
 20
3.538552
 30
0.000000
  0
VERTEX
  8
LAYER-1
 10
0.770077
 20
3.538552
 30
0.000000
  0
VERTEX
  8
LAYER-1
 10
0.770077
 20
3.438809
 30
0.000000
  0
VERTEX
  8
LAYER-1
 10
0.619998
 20
3.438809
 30
0.000000
  0
SEQEND
  8
LAYER-1
  0
POLYLINE
  8
LAYER-1
 66
  1
 70
  1
 62
  7
  0
VERTEX
  8
LAYER-1
 10
0.770014
 20
3.538552
 30
0.000000
  0
VERTEX
  8
LAYER-1
 10
0.920386
 20
3.538552
 30
0.000000
  0
VERTEX
  8
LAYER-1
 10
0.920386
 20
3.438809
 30
0.000000
  0
VERTEX
  8
LAYER-1
 10
0.770014
 20
3.438809
 30
0.000000
  0
SEQEND
  8
LAYER-1
  0
POLYLINE
  8
LAYER-1
 66
  1
 70
  1
 62
  7
  0
VERTEX
  8
LAYER-1
 10
0.920322
 20
3.538552
 30
0.000000
  0
VERTEX
  8
LAYER-1
 10
1.082009
 20
3.538552
 30
0.000000
  0
VERTEX
  8
LAYER-1
 10
1.082009
 20
3.438809
 30
0.000000
  0
VERTEX
  8
LAYER-1
 10
0.920322
 20
3.438809
 30
0.000000
  0
SEQEND
  8
LAYER-1
  0
POLYLINE
  8
LAYER-1
 66
  1
 70
  0
 62
  7
 10
0.180507
 20
3.538578
 30
0.000000
  0
VERTEX
  8
LAYER-1
 10
0.180507
 20
3.538578
 30
0.000000
  0
VERTEX
  8
LAYER-1
 10
0.180507
 20
3.438807
 30
0.000000
  0
SEQEND
  8
LAYER-1
  0
POLYLINE
  8
LAYER-1
 66
  1
 70
  0
 62
  7
 10
0.480964
 20
3.538578
 30
0.000000
  0
VERTEX
  8
LAYER-1
 10
0.480964
 20
3.538578
 30
0.000000
  0
VERTEX
  8
LAYER-1
 10
0.480964
 20
3.438807
 30
0.000000
  0
SEQEND
  8
LAYER-1
  0
POLYLINE
  8
LAYER-1
 66
  1
 70
  0
 62
  7
 10
0.631191
 20
3.538578
 30
0.000000
  0
VERTEX
  8
LAYER-1
 10
0.631191
 20
3.538578
 30
0.000000
  0
VERTEX
  8
LAYER-1
 10
0.631191
 20
3.438807
 30
0.000000
  0
SEQEND
  8
LAYER-1
  0
POLYLINE
  8
LAYER-1
 66
  1
 70
  0
 62
  7
 10
0.931649
 20
3.538578
 30
0.000000
  0
VERTEX
  8
LAYER-1
 10
0.931649
 20
3.538578
 30
0.000000
  0
VERTEX
  8
LAYER-1
 10
0.931649
 20
3.438807
 30
0.000000
  0
SEQEND
  8
LAYER-1
  0
POLYLINE
  8
LAYER-1
 66
  1
 70
  0
 62
  7
 10
0.330736
 20
3.538578
 30
0.000000
  0
VERTEX
  8
LAYER-1
 10
0.330736
 20
3.538578
 30
0.000000
  0
VERTEX
  8
LAYER-1
 10
0.330736
 20
3.438795
 30
0.000000
  0
SEQEND
  8
LAYER-1
  0
POLYLINE
  8
LAYER-1
 66
  1
 70
  0
 62
  7
 10
0.781420
 20
3.538564
 30
0.000000
  0
VERTEX
  8
LAYER-1
 10
0.781420
 20
3.538564
 30
0.000000
  0
VERTEX
  8
LAYER-1
 10
0.781420
 20
3.438795
 30
0.000000
  0
SEQEND
  8
LAYER-1
  0
POLYLINE
  8
LAYER-1
 66
  1
 70
  0
 62
  7
 10
0.030279
 20
3.538578
 30
0.000000
  0
VERTEX
  8
LAYER-1
 10
0.030279
 20
3.538578
 30
0.000000
  0
VERTEX
  8
LAYER-1
 10
0.030279
 20
3.438807
 30
0.000000
  0
SEQEND
  8
LAYER-1
  0
POLYLINE
  8
LAYER-1
 66
  1
 70
  0
 62
  7
 10
1.081877
 20
3.538578
 30
0.000000
  0
VERTEX
  8
LAYER-1
 10
1.081877
 20
3.538578
 30
0.000000
  0
VERTEX
  8
LAYER-1
 10
1.081877
 20
3.438807
 30
0.000000
  0
SEQEND
  8
LAYER-1
  0
POLYLINE
  8
LAYER-1
 66
  1
 70
  0
 62
  7
 10
0.180458
 20
5.137111
 30
0.000000
  0
VERTEX
  8
LAYER-1
 10
0.180458
 20
5.137111
 30
0.000000
  0
VERTEX
  8
LAYER-1
 10
0.180458
 20
5.037340
 30
0.000000
  0
SEQEND
  8
LAYER-1
  0
POLYLINE
  8
LAYER-1
 66
  1
 70
  0
 62
  7
 10
0.480914
 20
5.137111
 30
0.000000
  0
VERTEX
  8
LAYER-1
 10
0.480914
 20
5.137111
 30
0.000000
  0
VERTEX
  8
LAYER-1
 10
0.480914
 20
5.037340
 30
0.000000
  0
SEQEND
  8
LAYER-1
  0
POLYLINE
  8
LAYER-1
 66
  1
 70
  0
 62
  7
 10
0.631143
 20
5.137111
 30
0.000000
  0
VERTEX
  8
LAYER-1
 10
0.631143
 20
5.137111
 30
0.000000
  0
VERTEX
  8
LAYER-1
 10
0.631143
 20
5.037340
 30
0.000000
  0
SEQEND
  8
LAYER-1
  0
POLYLINE
  8
LAYER-1
 66
  1
 70
  0
 62
  7
 10
0.931599
 20
5.137111
 30
0.000000
  0
VERTEX
  8
LAYER-1
 10
0.931599
 20
5.137111
 30
0.000000
  0
VERTEX
  8
LAYER-1
 10
0.931599
 20
5.037340
 30
0.000000
  0
SEQEND
  8
LAYER-1
  0
POLYLINE
  8
LAYER-1
 66
  1
 70
  0
 62
  7
 10
0.330686
 20
5.137111
 30
0.000000
  0
VERTEX
  8
LAYER-1
 10
0.330686
 20
5.137111
 30
0.000000
  0
VERTEX
  8
LAYER-1
 10
0.330686
 20
5.037326
 30
0.000000
  0
SEQEND
  8
LAYER-1
  0
POLYLINE
  8
LAYER-1
 66
  1
 70
  0
 62
  7
 10
0.781372
 20
5.137097
 30
0.000000
  0
VERTEX
  8
LAYER-1
 10
0.781372
 20
5.137097
 30
0.000000
  0
VERTEX
  8
LAYER-1
 10
0.781372
 20
5.037326
 30
0.000000
  0
SEQEND
  8
LAYER-1
  0
POLYLINE
  8
LAYER-1
 66
  1
 70
  0
 62
  7
 10
0.030230
 20
5.137111
 30
0.000000
  0
VERTEX
  8
LAYER-1
 10
0.030230
 20
5.137111
 30
0.000000
  0
VERTEX
  8
LAYER-1
 10
0.030230
 20
5.037340
 30
0.000000
  0
SEQEND
  8
LAYER-1
  0
POLYLINE
  8
LAYER-1
 66
  1
 70
  0
 62
  7
 10
1.081827
 20
5.137111
 30
0.000000
  0
VERTEX
  8
LAYER-1
 10
1.081827
 20
5.137111
 30
0.000000
  0
VERTEX
  8
LAYER-1
 10
1.081827
 20
5.037340
 30
0.000000
  0
SEQEND
  8
LAYER-1
  0
POLYLINE
  8
LAYER-1
 66
  1
 70
  1
 62
  0
  0
VERTEX
  8
LAYER-1
 10
0.019902
 20
3.690397
 30
0.000000
  0
VERTEX
  8
LAYER-1
 10
0.179419
 20
3.690397
 30
0.000000
  0
VERTEX
  8
LAYER-1
 10
0.179419
 20
3.687326
 30
0.000000
  0
VERTEX
  8
LAYER-1
 10
0.019902
 20
3.687326
 30
0.000000
  0
SEQEND
  8
LAYER-1
  0
POLYLINE
  8
LAYER-1
 66
  1
 70
  1
 62
  0
  0
VERTEX
  8
LAYER-1
 10
0.320358
 20
3.690397
 30
0.000000
  0
VERTEX
  8
LAYER-1
 10
0.479875
 20
3.690397
 30
0.000000
  0
VERTEX
  8
LAYER-1
 10
0.479875
 20
3.687326
 30
0.000000
  0
VERTEX
  8
LAYER-1
 10
0.320358
 20
3.687326
 30
0.000000
  0
SEQEND
  8
LAYER-1
  0
POLYLINE
  8
LAYER-1
 66
  1
 70
  1
 62
  0
  0
VERTEX
  8
LAYER-1
 10
0.620814
 20
3.690397
 30
0.000000
  0
VERTEX
  8
LAYER-1
 10
0.780331
 20
3.690397
 30
0.000000
  0
VERTEX
  8
LAYER-1
 10
0.780331
 20
3.687326
 30
0.000000
  0
VERTEX
  8
LAYER-1
 10
0.620814
 20
3.687326
 30
0.000000
  0
SEQEND
  8
LAYER-1
  0
POLYLINE
  8
LAYER-1
 66
  1
 70
  1
 62
  0
  0
VERTEX
  8
LAYER-1
 10
0.921271
 20
3.690397
 30
0.000000
  0
VERTEX
  8
LAYER-1
 10
1.080787
 20
3.690397
 30
0.000000
  0
VERTEX
  8
LAYER-1
 10
1.080787
 20
3.687326
 30
0.000000
  0
VERTEX
  8
LAYER-1
 10
0.921271
 20
3.687326
 30
0.000000
  0
SEQEND
  8
LAYER-1
  0
POLYLINE
  8
LAYER-1
 66
  1
 70
  1
 62
  0
  0
VERTEX
  8
LAYER-1
 10
0.019902
 20
3.990195
 30
0.000000
  0
VERTEX
  8
LAYER-1
 10
0.179419
 20
3.990195
 30
0.000000
  0
VERTEX
  8
LAYER-1
 10
0.179419
 20
3.987124
 30
0.000000
  0
VERTEX
  8
LAYER-1
 10
0.019902
 20
3.987124
 30
0.000000
  0
SEQEND
  8
LAYER-1
  0
POLYLINE
  8
LAYER-1
 66
  1
 70
  1
 62
  0
  0
VERTEX
  8
LAYER-1
 10
0.320358
 20
3.990195
 30
0.000000
  0
VERTEX
  8
LAYER-1
 10
0.479875
 20
3.990195
 30
0.000000
  0
VERTEX
  8
LAYER-1
 10
0.479875
 20
3.987124
 30
0.000000
  0
VERTEX
  8
LAYER-1
 10
0.320358
 20
3.987124
 30
0.000000
  0
SEQEND
  8
LAYER-1
  0
POLYLINE
  8
LAYER-1
 66
  1
 70
  1
 62
  0
  0
VERTEX
  8
LAYER-1
 10
0.620814
 20
3.990195
 30
0.000000
  0
VERTEX
  8
LAYER-1
 10
0.780331
 20
3.990195
 30
0.000000
  0
VERTEX
  8
LAYER-1
 10
0.780331
 20
3.987124
 30
0.000000
  0
VERTEX
  8
LAYER-1
 10
0.620814
 20
3.987124
 30
0.000000
  0
SEQEND
  8
LAYER-1
  0
POLYLINE
  8
LAYER-1
 66
  1
 70
  1
 62
  0
  0
VERTEX
  8
LAYER-1
 10
0.921271
 20
3.990195
 30
0.000000
  0
VERTEX
  8
LAYER-1
 10
1.080787
 20
3.990195
 30
0.000000
  0
VERTEX
  8
LAYER-1
 10
1.080787
 20
3.987124
 30
0.000000
  0
VERTEX
  8
LAYER-1
 10
0.921271
 20
3.987124
 30
0.000000
  0
SEQEND
  8
LAYER-1
  0
POLYLINE
  8
LAYER-1
 66
  1
 70
  1
 62
  0
  0
VERTEX
  8
LAYER-1
 10
0.019902
 20
4.289992
 30
0.000000
  0
VERTEX
  8
LAYER-1
 10
0.179419
 20
4.289992
 30
0.000000
  0
VERTEX
  8
LAYER-1
 10
0.179419
 20
4.286922
 30
0.000000
  0
VERTEX
  8
LAYER-1
 10
0.019902
 20
4.286922
 30
0.000000
  0
SEQEND
  8
LAYER-1
  0
POLYLINE
  8
LAYER-1
 66
  1
 70
  1
 62
  0
  0
VERTEX
  8
LAYER-1
 10
0.320358
 20
4.289992
 30
0.000000
  0
VERTEX
  8
LAYER-1
 10
0.479875
 20
4.289992
 30
0.000000
  0
VERTEX
  8
LAYER-1
 10
0.479875
 20
4.286922
 30
0.000000
  0
VERTEX
  8
LAYER-1
 10
0.320358
 20
4.286922
 30
0.000000
  0
SEQEND
  8
LAYER-1
  0
POLYLINE
  8
LAYER-1
 66
  1
 70
  1
 62
  0
  0
VERTEX
  8
LAYER-1
 10
0.620814
 20
4.289992
 30
0.000000
  0
VERTEX
  8
LAYER-1
 10
0.780331
 20
4.289992
 30
0.000000
  0
VERTEX
  8
LAYER-1
 10
0.780331
 20
4.286922
 30
0.000000
  0
VERTEX
  8
LAYER-1
 10
0.620814
 20
4.286922
 30
0.000000
  0
SEQEND
  8
LAYER-1
  0
POLYLINE
  8
LAYER-1
 66
  1
 70
  1
 62
  0
  0
VERTEX
  8
LAYER-1
 10
0.921271
 20
4.289992
 30
0.000000
  0
VERTEX
  8
LAYER-1
 10
1.080787
 20
4.289992
 30
0.000000
  0
VERTEX
  8
LAYER-1
 10
1.080787
 20
4.286922
 30
0.000000
  0
VERTEX
  8
LAYER-1
 10
0.921271
 20
4.286922
 30
0.000000
  0
SEQEND
  8
LAYER-1
  0
POLYLINE
  8
LAYER-1
 66
  1
 70
  1
 62
  0
  0
VERTEX
  8
LAYER-1
 10
0.019902
 20
4.589791
 30
0.000000
  0
VERTEX
  8
LAYER-1
 10
0.179419
 20
4.589791
 30
0.000000
  0
VERTEX
  8
LAYER-1
 10
0.179419
 20
4.586720
 30
0.000000
  0
VERTEX
  8
LAYER-1
 10
0.019902
 20
4.586720
 30
0.000000
  0
SEQEND
  8
LAYER-1
  0
POLYLINE
  8
LAYER-1
 66
  1
 70
  1
 62
  0
  0
VERTEX
  8
LAYER-1
 10
0.320358
 20
4.589791
 30
0.000000
  0
VERTEX
  8
LAYER-1
 10
0.479875
 20
4.589791
 30
0.000000
  0
VERTEX
  8
LAYER-1
 10
0.479875
 20
4.586720
 30
0.000000
  0
VERTEX
  8
LAYER-1
 10
0.320358
 20
4.586720
 30
0.000000
  0
SEQEND
  8
LAYER-1
  0
POLYLINE
  8
LAYER-1
 66
  1
 70
  1
 62
  0
  0
VERTEX
  8
LAYER-1
 10
0.620814
 20
4.589791
 30
0.000000
  0
VERTEX
  8
LAYER-1
 10
0.780331
 20
4.589791
 30
0.000000
  0
VERTEX
  8
LAYER-1
 10
0.780331
 20
4.586720
 30
0.000000
  0
VERTEX
  8
LAYER-1
 10
0.620814
 20
4.586720
 30
0.000000
  0
SEQEND
  8
LAYER-1
  0
POLYLINE
  8
LAYER-1
 66
  1
 70
  1
 62
  0
  0
VERTEX
  8
LAYER-1
 10
0.921271
 20
4.589791
 30
0.000000
  0
VERTEX
  8
LAYER-1
 10
1.080787
 20
4.589791
 30
0.000000
  0
VERTEX
  8
LAYER-1
 10
1.080787
 20
4.586720
 30
0.000000
  0
VERTEX
  8
LAYER-1
 10
0.921271
 20
4.586720
 30
0.000000
  0
SEQEND
  8
LAYER-1
  0
POLYLINE
  8
LAYER-1
 66
  1
 70
  1
 62
  0
  0
VERTEX
  8
LAYER-1
 10
0.019902
 20
4.889588
 30
0.000000
  0
VERTEX
  8
LAYER-1
 10
0.179419
 20
4.889588
 30
0.000000
  0
VERTEX
  8
LAYER-1
 10
0.179419
 20
4.886517
 30
0.000000
  0
VERTEX
  8
LAYER-1
 10
0.019902
 20
4.886517
 30
0.000000
  0
SEQEND
  8
LAYER-1
  0
POLYLINE
  8
LAYER-1
 66
  1
 70
  1
 62
  0
  0
VERTEX
  8
LAYER-1
 10
0.320358
 20
4.889588
 30
0.000000
  0
VERTEX
  8
LAYER-1
 10
0.479875
 20
4.889588
 30
0.000000
  0
VERTEX
  8
LAYER-1
 10
0.479875
 20
4.886517
 30
0.000000
  0
VERTEX
  8
LAYER-1
 10
0.320358
 20
4.886517
 30
0.000000
  0
SEQEND
  8
LAYER-1
  0
POLYLINE
  8
LAYER-1
 66
  1
 70
  1
 62
  0
  0
VERTEX
  8
LAYER-1
 10
0.620814
 20
4.889588
 30
0.000000
  0
VERTEX
  8
LAYER-1
 10
0.780331
 20
4.889588
 30
0.000000
  0
VERTEX
  8
LAYER-1
 10
0.780331
 20
4.886517
 30
0.000000
  0
VERTEX
  8
LAYER-1
 10
0.620814
 20
4.886517
 30
0.000000
  0
SEQEND
  8
LAYER-1
  0
POLYLINE
  8
LAYER-1
 66
  1
 70
  1
 62
  0
  0
VERTEX
  8
LAYER-1
 10
0.921271
 20
4.889588
 30
0.000000
  0
VERTEX
  8
LAYER-1
 10
1.080787
 20
4.889588
 30
0.000000
  0
VERTEX
  8
LAYER-1
 10
1.080787
 20
4.886517
 30
0.000000
  0
VERTEX
  8
LAYER-1
 10
0.921271
 20
4.886517
 30
0.000000
  0
SEQEND
  8
LAYER-1
  0
POLYLINE
  8
LAYER-1
 66
  1
 70
  1
 62
  0
  0
VERTEX
  8
LAYER-1
 10
0.170130
 20
3.840296
 30
0.000000
  0
VERTEX
  8
LAYER-1
 10
0.329646
 20
3.840296
 30
0.000000
  0
VERTEX
  8
LAYER-1
 10
0.329646
 20
3.837224
 30
0.000000
  0
VERTEX
  8
LAYER-1
 10
0.170130
 20
3.837224
 30
0.000000
  0
SEQEND
  8
LAYER-1
  0
POLYLINE
  8
LAYER-1
 66
  1
 70
  1
 62
  0
  0
VERTEX
  8
LAYER-1
 10
0.470586
 20
3.840296
 30
0.000000
  0
VERTEX
  8
LAYER-1
 10
0.630103
 20
3.840296
 30
0.000000
  0
VERTEX
  8
LAYER-1
 10
0.630103
 20
3.837224
 30
0.000000
  0
VERTEX
  8
LAYER-1
 10
0.470586
 20
3.837224
 30
0.000000
  0
SEQEND
  8
LAYER-1
  0
POLYLINE
  8
LAYER-1
 66
  1
 70
  1
 62
  0
  0
VERTEX
  8
LAYER-1
 10
0.771043
 20
3.840296
 30
0.000000
  0
VERTEX
  8
LAYER-1
 10
0.930559
 20
3.840296
 30
0.000000
  0
VERTEX
  8
LAYER-1
 10
0.930559
 20
3.837224
 30
0.000000
  0
VERTEX
  8
LAYER-1
 10
0.771043
 20
3.837224
 30
0.000000
  0
SEQEND
  8
LAYER-1
  0
POLYLINE
  8
LAYER-1
 66
  1
 70
  1
 62
  0
  0
VERTEX
  8
LAYER-1
 10
0.170130
 20
4.140093
 30
0.000000
  0
VERTEX
  8
LAYER-1
 10
0.329646
 20
4.140093
 30
0.000000
  0
VERTEX
  8
LAYER-1
 10
0.329646
 20
4.137023
 30
0.000000
  0
VERTEX
  8
LAYER-1
 10
0.170130
 20
4.137023
 30
0.000000
  0
SEQEND
  8
LAYER-1
  0
POLYLINE
  8
LAYER-1
 66
  1
 70
  1
 62
  0
  0
VERTEX
  8
LAYER-1
 10
0.470586
 20
4.140093
 30
0.000000
  0
VERTEX
  8
LAYER-1
 10
0.630103
 20
4.140093
 30
0.000000
  0
VERTEX
  8
LAYER-1
 10
0.630103
 20
4.137023
 30
0.000000
  0
VERTEX
  8
LAYER-1
 10
0.470586
 20
4.137023
 30
0.000000
  0
SEQEND
  8
LAYER-1
  0
POLYLINE
  8
LAYER-1
 66
  1
 70
  1
 62
  0
  0
VERTEX
  8
LAYER-1
 10
0.771043
 20
4.140093
 30
0.000000
  0
VERTEX
  8
LAYER-1
 10
0.930559
 20
4.140093
 30
0.000000
  0
VERTEX
  8
LAYER-1
 10
0.930559
 20
4.137023
 30
0.000000
  0
VERTEX
  8
LAYER-1
 10
0.771043
 20
4.137023
 30
0.000000
  0
SEQEND
  8
LAYER-1
  0
POLYLINE
  8
LAYER-1
 66
  1
 70
  1
 62
  0
  0
VERTEX
  8
LAYER-1
 10
0.170130
 20
4.439891
 30
0.000000
  0
VERTEX
  8
LAYER-1
 10
0.329646
 20
4.439891
 30
0.000000
  0
VERTEX
  8
LAYER-1
 10
0.329646
 20
4.436821
 30
0.000000
  0
VERTEX
  8
LAYER-1
 10
0.170130
 20
4.436821
 30
0.000000
  0
SEQEND
  8
LAYER-1
  0
POLYLINE
  8
LAYER-1
 66
  1
 70
  1
 62
  0
  0
VERTEX
  8
LAYER-1
 10
0.470586
 20
4.439891
 30
0.000000
  0
VERTEX
  8
LAYER-1
 10
0.630103
 20
4.439891
 30
0.000000
  0
VERTEX
  8
LAYER-1
 10
0.630103
 20
4.436821
 30
0.000000
  0
VERTEX
  8
LAYER-1
 10
0.470586
 20
4.436821
 30
0.000000
  0
SEQEND
  8
LAYER-1
  0
POLYLINE
  8
LAYER-1
 66
  1
 70
  1
 62
  0
  0
VERTEX
  8
LAYER-1
 10
0.771043
 20
4.439891
 30
0.000000
  0
VERTEX
  8
LAYER-1
 10
0.930559
 20
4.439891
 30
0.000000
  0
VERTEX
  8
LAYER-1
 10
0.930559
 20
4.436821
 30
0.000000
  0
VERTEX
  8
LAYER-1
 10
0.771043
 20
4.436821
 30
0.000000
  0
SEQEND
  8
LAYER-1
  0
POLYLINE
  8
LAYER-1
 66
  1
 70
  1
 62
  0
  0
VERTEX
  8
LAYER-1
 10
0.170130
 20
4.739688
 30
0.000000
  0
VERTEX
  8
LAYER-1
 10
0.329646
 20
4.739688
 30
0.000000
  0
VERTEX
  8
LAYER-1
 10
0.329646
 20
4.736619
 30
0.000000
  0
VERTEX
  8
LAYER-1
 10
0.170130
 20
4.736619
 30
0.000000
  0
SEQEND
  8
LAYER-1
  0
POLYLINE
  8
LAYER-1
 66
  1
 70
  1
 62
  0
  0
VERTEX
  8
LAYER-1
 10
0.470586
 20
4.739688
 30
0.000000
  0
VERTEX
  8
LAYER-1
 10
0.630103
 20
4.739688
 30
0.000000
  0
VERTEX
  8
LAYER-1
 10
0.630103
 20
4.736619
 30
0.000000
  0
VERTEX
  8
LAYER-1
 10
0.470586
 20
4.736619
 30
0.000000
  0
SEQEND
  8
LAYER-1
  0
POLYLINE
  8
LAYER-1
 66
  1
 70
  1
 62
  0
  0
VERTEX
  8
LAYER-1
 10
0.771043
 20
4.739688
 30
0.000000
  0
VERTEX
  8
LAYER-1
 10
0.930559
 20
4.739688
 30
0.000000
  0
VERTEX
  8
LAYER-1
 10
0.930559
 20
4.736619
 30
0.000000
  0
VERTEX
  8
LAYER-1
 10
0.771043
 20
4.736619
 30
0.000000
  0
SEQEND
  8
LAYER-1
  0
POLYLINE
  8
LAYER-1
 66
  1
 70
  0
 62
  7
 10
1.070660
 20
3.538578
 30
0.000000
  0
VERTEX
  8
LAYER-1
 10
1.070660
 20
3.538578
 30
0.000000
  0
VERTEX
  8
LAYER-1
 10
1.070660
 20
3.438807
 30
0.000000
  0
SEQEND
  8
LAYER-1
  0
POLYLINE
  8
LAYER-1
 66
  1
 70
  0
 62
  7
 10
1.070904
 20
5.137111
 30
0.000000
  0
VERTEX
  8
LAYER-1
 10
1.070904
 20
5.137111
 30
0.000000
  0
VERTEX
  8
LAYER-1
 10
1.070904
 20
5.037340
 30
0.000000
  0
SEQEND
  8
LAYER-1
  0
TEXT
  8
LAYER-1
 62
  0
 10
-0.038454
 20
3.211171
 30
0.000000
 40
0.104167
  1
SYSTÚME S-126
 72
  5
 11
1.142101
 21
3.211171
 31
0.000000
  0
TEXT
  8
LAYER-1
 62
  0
 10
0.322657
 20
3.100060
 30
0.000000
 40
0.083333
  1
(AjourÄ)
 72
  5
 11
0.780990
 21
3.100060
 31
0.000000
  0
POLYLINE
  8
LAYER-1
 66
  1
 70
  0
 62
  7
 10
0.092493
 20
5.136660
 30
0.000000
  0
VERTEX
  8
LAYER-1
 10
0.092493
 20
5.136660
 30
0.000000
  0
VERTEX
  8
LAYER-1
 10
0.092493
 20
5.036905
 30
0.000000
  0
SEQEND
  8
LAYER-1
  0
POLYLINE
  8
LAYER-1
 66
  1
 70
  0
 62
  7
 10
0.104368
 20
5.136660
 30
0.000000
  0
VERTEX
  8
LAYER-1
 10
0.104368
 20
5.136660
 30
0.000000
  0
VERTEX
  8
LAYER-1
 10
0.104368
 20
5.036905
 30
0.000000
  0
SEQEND
  8
LAYER-1
  0
POLYLINE
  8
LAYER-1
 66
  1
 70
  0
 62
  7
 10
0.243835
 20
5.136660
 30
0.000000
  0
VERTEX
  8
LAYER-1
 10
0.243835
 20
5.136660
 30
0.000000
  0
VERTEX
  8
LAYER-1
 10
0.243835
 20
5.036905
 30
0.000000
  0
SEQEND
  8
LAYER-1
  0
POLYLINE
  8
LAYER-1
 66
  1
 70
  0
 62
  7
 10
0.255711
 20
5.136660
 30
0.000000
  0
VERTEX
  8
LAYER-1
 10
0.255711
 20
5.136660
 30
0.000000
  0
VERTEX
  8
LAYER-1
 10
0.255711
 20
5.036905
 30
0.000000
  0
SEQEND
  8
LAYER-1
  0
POLYLINE
  8
LAYER-1
 66
  1
 70
  0
 62
  7
 10
0.393595
 20
5.136660
 30
0.000000
  0
VERTEX
  8
LAYER-1
 10
0.393595
 20
5.136660
 30
0.000000
  0
VERTEX
  8
LAYER-1
 10
0.393595
 20
5.036905
 30
0.000000
  0
SEQEND
  8
LAYER-1
  0
POLYLINE
  8
LAYER-1
 66
  1
 70
  0
 62
  7
 10
0.405470
 20
5.136660
 30
0.000000
  0
VERTEX
  8
LAYER-1
 10
0.405470
 20
5.136660
 30
0.000000
  0
VERTEX
  8
LAYER-1
 10
0.405470
 20
5.036905
 30
0.000000
  0
SEQEND
  8
LAYER-1
  0
POLYLINE
  8
LAYER-1
 66
  1
 70
  0
 62
  7
 10
0.544145
 20
5.136660
 30
0.000000
  0
VERTEX
  8
LAYER-1
 10
0.544145
 20
5.136660
 30
0.000000
  0
VERTEX
  8
LAYER-1
 10
0.544145
 20
5.036905
 30
0.000000
  0
SEQEND
  8
LAYER-1
  0
POLYLINE
  8
LAYER-1
 66
  1
 70
  0
 62
  7
 10
0.556021
 20
5.136660
 30
0.000000
  0
VERTEX
  8
LAYER-1
 10
0.556021
 20
5.136660
 30
0.000000
  0
VERTEX
  8
LAYER-1
 10
0.556021
 20
5.036905
 30
0.000000
  0
SEQEND
  8
LAYER-1
  0
POLYLINE
  8
LAYER-1
 66
  1
 70
  0
 62
  7
 10
0.693905
 20
5.136660
 30
0.000000
  0
VERTEX
  8
LAYER-1
 10
0.693905
 20
5.136660
 30
0.000000
  0
VERTEX
  8
LAYER-1
 10
0.693905
 20
5.036905
 30
0.000000
  0
SEQEND
  8
LAYER-1
  0
POLYLINE
  8
LAYER-1
 66
  1
 70
  0
 62
  7
 10
0.705780
 20
5.136660
 30
0.000000
  0
VERTEX
  8
LAYER-1
 10
0.705780
 20
5.136660
 30
0.000000
  0
VERTEX
  8
LAYER-1
 10
0.705780
 20
5.036905
 30
0.000000
  0
SEQEND
  8
LAYER-1
  0
POLYLINE
  8
LAYER-1
 66
  1
 70
  0
 62
  7
 10
0.844456
 20
5.136660
 30
0.000000
  0
VERTEX
  8
LAYER-1
 10
0.844456
 20
5.136660
 30
0.000000
  0
VERTEX
  8
LAYER-1
 10
0.844456
 20
5.036905
 30
0.000000
  0
SEQEND
  8
LAYER-1
  0
POLYLINE
  8
LAYER-1
 66
  1
 70
  0
 62
  7
 10
0.856331
 20
5.136660
 30
0.000000
  0
VERTEX
  8
LAYER-1
 10
0.856331
 20
5.136660
 30
0.000000
  0
VERTEX
  8
LAYER-1
 10
0.856331
 20
5.036905
 30
0.000000
  0
SEQEND
  8
LAYER-1
  0
POLYLINE
  8
LAYER-1
 66
  1
 70
  0
 62
  7
 10
0.994215
 20
5.136660
 30
0.000000
  0
VERTEX
  8
LAYER-1
 10
0.994215
 20
5.136660
 30
0.000000
  0
VERTEX
  8
LAYER-1
 10
0.994215
 20
5.036905
 30
0.000000
  0
SEQEND
  8
LAYER-1
  0
POLYLINE
  8
LAYER-1
 66
  1
 70
  0
 62
  7
 10
1.006090
 20
5.136660
 30
0.000000
  0
VERTEX
  8
LAYER-1
 10
1.006090
 20
5.136660
 30
0.000000
  0
VERTEX
  8
LAYER-1
 10
1.006090
 20
5.036905
 30
0.000000
  0
SEQEND
  8
LAYER-1
  0
POLYLINE
  8
LAYER-1
 66
  1
 70
  0
 62
  7
 10
0.093284
 20
3.538993
 30
0.000000
  0
VERTEX
  8
LAYER-1
 10
0.093284
 20
3.538993
 30
0.000000
  0
VERTEX
  8
LAYER-1
 10
0.093284
 20
3.439237
 30
0.000000
  0
SEQEND
  8
LAYER-1
  0
POLYLINE
  8
LAYER-1
 66
  1
 70
  0
 62
  7
 10
0.105160
 20
3.538993
 30
0.000000
  0
VERTEX
  8
LAYER-1
 10
0.105160
 20
3.538993
 30
0.000000
  0
VERTEX
  8
LAYER-1
 10
0.105160
 20
3.439237
 30
0.000000
  0
SEQEND
  8
LAYER-1
  0
POLYLINE
  8
LAYER-1
 66
  1
 70
  0
 62
  7
 10
0.244627
 20
3.538993
 30
0.000000
  0
VERTEX
  8
LAYER-1
 10
0.244627
 20
3.538993
 30
0.000000
  0
VERTEX
  8
LAYER-1
 10
0.244627
 20
3.439237
 30
0.000000
  0
SEQEND
  8
LAYER-1
  0
POLYLINE
  8
LAYER-1
 66
  1
 70
  0
 62
  7
 10
0.256502
 20
3.538993
 30
0.000000
  0
VERTEX
  8
LAYER-1
 10
0.256502
 20
3.538993
 30
0.000000
  0
VERTEX
  8
LAYER-1
 10
0.256502
 20
3.439237
 30
0.000000
  0
SEQEND
  8
LAYER-1
  0
POLYLINE
  8
LAYER-1
 66
  1
 70
  0
 62
  7
 10
0.394386
 20
3.538993
 30
0.000000
  0
VERTEX
  8
LAYER-1
 10
0.394386
 20
3.538993
 30
0.000000
  0
VERTEX
  8
LAYER-1
 10
0.394386
 20
3.439237
 30
0.000000
  0
SEQEND
  8
LAYER-1
  0
POLYLINE
  8
LAYER-1
 66
  1
 70
  0
 62
  7
 10
0.406261
 20
3.538993
 30
0.000000
  0
VERTEX
  8
LAYER-1
 10
0.406261
 20
3.538993
 30
0.000000
  0
VERTEX
  8
LAYER-1
 10
0.406261
 20
3.439237
 30
0.000000
  0
SEQEND
  8
LAYER-1
  0
POLYLINE
  8
LAYER-1
 66
  1
 70
  0
 62
  7
 10
0.544937
 20
3.538993
 30
0.000000
  0
VERTEX
  8
LAYER-1
 10
0.544937
 20
3.538993
 30
0.000000
  0
VERTEX
  8
LAYER-1
 10
0.544937
 20
3.439237
 30
0.000000
  0
SEQEND
  8
LAYER-1
  0
POLYLINE
  8
LAYER-1
 66
  1
 70
  0
 62
  7
 10
0.556812
 20
3.538993
 30
0.000000
  0
VERTEX
  8
LAYER-1
 10
0.556812
 20
3.538993
 30
0.000000
  0
VERTEX
  8
LAYER-1
 10
0.556812
 20
3.439237
 30
0.000000
  0
SEQEND
  8
LAYER-1
  0
POLYLINE
  8
LAYER-1
 66
  1
 70
  0
 62
  7
 10
0.694696
 20
3.538993
 30
0.000000
  0
VERTEX
  8
LAYER-1
 10
0.694696
 20
3.538993
 30
0.000000
  0
VERTEX
  8
LAYER-1
 10
0.694696
 20
3.439237
 30
0.000000
  0
SEQEND
  8
LAYER-1
  0
POLYLINE
  8
LAYER-1
 66
  1
 70
  0
 62
  7
 10
0.706572
 20
3.538993
 30
0.000000
  0
VERTEX
  8
LAYER-1
 10
0.706572
 20
3.538993
 30
0.000000
  0
VERTEX
  8
LAYER-1
 10
0.706572
 20
3.439237
 30
0.000000
  0
SEQEND
  8
LAYER-1
  0
POLYLINE
  8
LAYER-1
 66
  1
 70
  0
 62
  7
 10
0.845247
 20
3.538993
 30
0.000000
  0
VERTEX
  8
LAYER-1
 10
0.845247
 20
3.538993
 30
0.000000
  0
VERTEX
  8
LAYER-1
 10
0.845247
 20
3.439237
 30
0.000000
  0
SEQEND
  8
LAYER-1
  0
POLYLINE
  8
LAYER-1
 66
  1
 70
  0
 62
  7
 10
0.857122
 20
3.538993
 30
0.000000
  0
VERTEX
  8
LAYER-1
 10
0.857122
 20
3.538993
 30
0.000000
  0
VERTEX
  8
LAYER-1
 10
0.857122
 20
3.439237
 30
0.000000
  0
SEQEND
  8
LAYER-1
  0
POLYLINE
  8
LAYER-1
 66
  1
 70
  0
 62
  7
 10
0.995006
 20
3.538993
 30
0.000000
  0
VERTEX
  8
LAYER-1
 10
0.995006
 20
3.538993
 30
0.000000
  0
VERTEX
  8
LAYER-1
 10
0.995006
 20
3.439237
 30
0.000000
  0
SEQEND
  8
LAYER-1
  0
POLYLINE
  8
LAYER-1
 66
  1
 70
  0
 62
  7
 10
1.006882
 20
3.538993
 30
0.000000
  0
VERTEX
  8
LAYER-1
 10
1.006882
 20
3.538993
 30
0.000000
  0
VERTEX
  8
LAYER-1
 10
1.006882
 20
3.439237
 30
0.000000
  0
SEQEND
  8
LAYER-1
  0
TEXT
  8
LAYER-1
 62
  0
 10
2.294879
 20
7.919505
 30
0.000000
 40
0.125000
  1
Membre
 72
  5
 11
2.989323
 21
7.919505
 31
0.000000
  0
TEXT
  8
LAYER-1
 62
  0
 10
2.294879
 20
7.725060
 30
0.000000
 40
0.125000
  1
intermÄdiaire #3
 72
  5
 11
3.614323
 21
7.725060
 31
0.000000
  0
POLYLINE
  8
LAYER-1
 66
  1
 70
  0
 62
  0
 10
3.510157
 20
7.745894
 30
0.000000
  0
VERTEX
  8
LAYER-1
 10
3.510157
 20
7.745894
 30
0.000000
  0
VERTEX
  8
LAYER-1
 10
3.751233
 20
7.430798
 30
0.000000
  0
SEQEND
  8
LAYER-1
  0
POLYLINE
  8
LAYER-1
 66
  1
 70
  1
 62
  0
  0
VERTEX
  8
LAYER-1
 10
3.763195
 20
7.415165
 30
0.000000
  0
VERTEX
  8
LAYER-1
 10
3.687905
 20
7.444999
 30
0.000000
  0
VERTEX
  8
LAYER-1
 10
3.720997
 20
7.470318
 30
0.000000
  0
VERTEX
  8
LAYER-1
 10
3.754089
 20
7.495636
 30
0.000000
  0
VERTEX
  8
LAYER-1
 10
3.763195
 20
7.415165
 30
0.000000
  0
SEQEND
  8
LAYER-1
  0
TEXT
  8
LAYER-1
 62
  0
 10
1.086546
 20
7.072283
 30
0.000000
 40
0.125000
  1
Rail
 72
  5
 11
1.461546
 21
7.072283
 31
0.000000
  0
CIRCLE
  8
LAYER-1
 62
  7
 10
3.761021
 20
3.180449
 30
0.000000
 40
0.047124
  0
CIRCLE
  8
LAYER-1
 62
  0
 10
3.761021
 20
3.180449
 30
0.000000
 40
0.042287
  0
CIRCLE
  8
LAYER-1
 62
  0
 10
3.761021
 20
3.163653
 30
0.000000
 40
0.018794
  0
CIRCLE
  8
LAYER-1
 62
  0
 10
3.761021
 20
3.155617
 30
0.000000
 40
0.008035
  0
TEXT
  8
LAYER-1
 62
  0
 10
3.725435
 20
3.183394
 30
0.000000
 40
0.010417
  1
MobilFlex
 72
  5
 11
3.878212
 21
3.183394
 31
0.000000
  0
POLYLINE
  8
LAYER-1
 66
  1
 70
  1
 62
  0
 10
3.757396
 20
3.145406
 30
0.000000
  0
VERTEX
  8
LAYER-1
 10
3.757396
 20
3.145406
 30
0.000000
  0
VERTEX
  8
LAYER-1
 10
3.757396
 20
3.154107
 30
0.000000
  0
VERTEX
  8
LAYER-1
 10
3.760779
 20
3.154107
 30
0.000000
  0
VERTEX
  8
LAYER-1
 10
3.760779
 20
3.157490
 30
0.000000
  0
VERTEX
  8
LAYER-1
 10
3.757155
 20
3.161115
 30
0.000000
  0
VERTEX
  8
LAYER-1
 10
3.757155
 20
3.163532
 30
0.000000
  0
VERTEX
  8
LAYER-1
 10
3.759571
 20
3.170781
 30
0.000000
  0
VERTEX
  8
LAYER-1
 10
3.762713
 20
3.170781
 30
0.000000
  0
VERTEX
  8
LAYER-1
 10
3.761988
 20
3.165465
 30
0.000000
  0
VERTEX
  8
LAYER-1
 10
3.762230
 20
3.163532
 30
0.000000
  0
VERTEX
  8
LAYER-1
 10
3.763680
 20
3.163532
 30
0.000000
  0
VERTEX
  8
LAYER-1
 10
3.763680
 20
3.151207
 30
0.000000
  0
VERTEX
  8
LAYER-1
 10
3.761021
 20
3.149998
 30
0.000000
  0
VERTEX
  8
LAYER-1
 10
3.761021
 20
3.147581
 30
0.000000
  0
VERTEX
  8
LAYER-1
 10
3.763680
 20
3.147098
 30
0.000000
  0
VERTEX
  8
LAYER-1
 10
3.763680
 20
3.145406
 30
0.000000
  0
SEQEND
  8
LAYER-1
  0
POLYLINE
  8
LAYER-1
 66
  1
 70
  1
 62
  0
  0
VERTEX
  8
LAYER-1
 10
4.056604
 20
7.143897
 30
0.000000
  0
VERTEX
  8
LAYER-1
 10
4.083513
 20
7.143897
 30
0.000000
  0
VERTEX
  8
LAYER-1
 10
4.083513
 20
0.616343
 30
0.000000
  0
VERTEX
  8
LAYER-1
 10
4.056604
 20
0.616343
 30
0.000000
  0
SEQEND
  8
LAYER-1
  0
POLYLINE
  8
LAYER-1
 66
  1
 70
  1
 62
  0
  0
VERTEX
  8
LAYER-1
 10
3.847837
 20
7.143823
 30
0.000000
  0
VERTEX
  8
LAYER-1
 10
3.883787
 20
7.143823
 30
0.000000
  0
VERTEX
  8
LAYER-1
 10
3.883787
 20
0.616541
 30
0.000000
  0
VERTEX
  8
LAYER-1
 10
3.847837
 20
0.616541
 30
0.000000
  0
SEQEND
  8
LAYER-1
  0
POLYLINE
  8
LAYER-1
 66
  1
 70
  1
 62
  0
  0
VERTEX
  8
LAYER-1
 10
4.463999
 20
7.143897
 30
0.000000
  0
VERTEX
  8
LAYER-1
 10
4.490908
 20
7.143897
 30
0.000000
  0
VERTEX
  8
LAYER-1
 10
4.490908
 20
0.616343
 30
0.000000
  0
VERTEX
  8
LAYER-1
 10
4.463999
 20
0.616343
 30
0.000000
  0
SEQEND
  8
LAYER-1
  0
POLYLINE
  8
LAYER-1
 66
  1
 70
  1
 62
  0
  0
VERTEX
  8
LAYER-1
 10
4.256101
 20
7.143823
 30
0.000000
  0
VERTEX
  8
LAYER-1
 10
4.292052
 20
7.143823
 30
0.000000
  0
VERTEX
  8
LAYER-1
 10
4.292052
 20
0.616541
 30
0.000000
  0
VERTEX
  8
LAYER-1
 10
4.256101
 20
0.616541
 30
0.000000
  0
SEQEND
  8
LAYER-1
  0
POLYLINE
  8
LAYER-1
 66
  1
 70
  1
 62
  0
  0
VERTEX
  8
LAYER-1
 10
4.870962
 20
7.143897
 30
0.000000
  0
VERTEX
  8
LAYER-1
 10
4.897872
 20
7.143897
 30
0.000000
  0
VERTEX
  8
LAYER-1
 10
4.897872
 20
0.616343
 30
0.000000
  0
VERTEX
  8
LAYER-1
 10
4.870962
 20
0.616343
 30
0.000000
  0
SEQEND
  8
LAYER-1
  0
POLYLINE
  8
LAYER-1
 66
  1
 70
  1
 62
  0
  0
VERTEX
  8
LAYER-1
 10
4.662629
 20
7.143823
 30
0.000000
  0
VERTEX
  8
LAYER-1
 10
4.698580
 20
7.143823
 30
0.000000
  0
VERTEX
  8
LAYER-1
 10
4.698580
 20
0.616541
 30
0.000000
  0
VERTEX
  8
LAYER-1
 10
4.662629
 20
0.616541
 30
0.000000
  0
SEQEND
  8
LAYER-1
  0
POLYLINE
  8
LAYER-1
 66
  1
 70
  1
 62
  0
  0
VERTEX
  8
LAYER-1
 10
5.280529
 20
7.143897
 30
0.000000
  0
VERTEX
  8
LAYER-1
 10
5.307438
 20
7.143897
 30
0.000000
  0
VERTEX
  8
LAYER-1
 10
5.307438
 20
0.616343
 30
0.000000
  0
VERTEX
  8
LAYER-1
 10
5.280529
 20
0.616343
 30
0.000000
  0
SEQEND
  8
LAYER-1
  0
POLYLINE
  8
LAYER-1
 66
  1
 70
  1
 62
  0
  0
VERTEX
  8
LAYER-1
 10
5.070893
 20
7.143823
 30
0.000000
  0
VERTEX
  8
LAYER-1
 10
5.106844
 20
7.143823
 30
0.000000
  0
VERTEX
  8
LAYER-1
 10
5.106844
 20
0.616541
 30
0.000000
  0
VERTEX
  8
LAYER-1
 10
5.070893
 20
0.616541
 30
0.000000
  0
SEQEND
  8
LAYER-1
  0
POLYLINE
  8
LAYER-1
 66
  1
 70
  1
 62
  0
  0
VERTEX
  8
LAYER-1
 10
5.691395
 20
7.143897
 30
0.000000
  0
VERTEX
  8
LAYER-1
 10
5.718305
 20
7.143897
 30
0.000000
  0
VERTEX
  8
LAYER-1
 10
5.718305
 20
0.616343
 30
0.000000
  0
VERTEX
  8
LAYER-1
 10
5.691395
 20
0.616343
 30
0.000000
  0
SEQEND
  8
LAYER-1
  0
POLYLINE
  8
LAYER-1
 66
  1
 70
  1
 62
  0
  0
VERTEX
  8
LAYER-1
 10
5.480459
 20
7.143823
 30
0.000000
  0
VERTEX
  8
LAYER-1
 10
5.516410
 20
7.143823
 30
0.000000
  0
VERTEX
  8
LAYER-1
 10
5.516410
 20
0.616541
 30
0.000000
  0
VERTEX
  8
LAYER-1
 10
5.480459
 20
0.616541
 30
0.000000
  0
SEQEND
  8
LAYER-1
  0
POLYLINE
  8
LAYER-1
 66
  1
 70
  1
 62
  0
 10
3.845270
 20
0.344876
 30
0.000000
  0
VERTEX
  8
LAYER-1
 10
3.845270
 20
0.344876
 30
0.000000
  0
VERTEX
  8
LAYER-1
 10
5.741188
 20
0.344977
 30
0.000000
  0
VERTEX
  8
LAYER-1
 10
5.741188
 20
0.616510
 30
0.000000
  0
VERTEX
  8
LAYER-1
 10
3.845270
 20
0.616627
 30
0.000000
  0
SEQEND
  8
LAYER-1
  0
POLYLINE
  8
LAYER-1
 66
  1
 70
  0
 62
  0
 10
3.845052
 20
0.412783
 30
0.000000
  0
VERTEX
  8
LAYER-1
 10
3.845052
 20
0.412783
 30
0.000000
  0
VERTEX
  8
LAYER-1
 10
3.884777
 20
0.412783
 30
0.000000
  0
SEQEND
  8
LAYER-1
  0
POLYLINE
  8
LAYER-1
 66
  1
 70
  0
 62
  0
 10
3.845052
 20
0.542693
 30
0.000000
  0
VERTEX
  8
LAYER-1
 10
3.845052
 20
0.542693
 30
0.000000
  0
VERTEX
  8
LAYER-1
 10
3.884777
 20
0.542693
 30
0.000000
  0
SEQEND
  8
LAYER-1
  0
POLYLINE
  8
LAYER-1
 66
  1
 70
  0
 62
  0
 10
3.846503
 20
0.339730
 30
0.000000
  0
VERTEX
  8
LAYER-1
 10
3.846503
 20
0.339730
 30
0.000000
  0
VERTEX
  8
LAYER-1
 10
3.859674
 20
0.332686
 30
0.000000
  0
VERTEX
  8
LAYER-1
 10
3.876754
 20
0.337017
 30
0.000000
  0
VERTEX
  8
LAYER-1
 10
3.883407
 20
0.339732
 30
0.000000
  0
SEQEND
  8
LAYER-1
  0
POLYLINE
  8
LAYER-1
 66
  1
 70
  1
 62
  0
  0
VERTEX
  8
LAYER-1
 10
3.893915
 20
0.339109
 30
0.000000
  0
VERTEX
  8
LAYER-1
 10
3.839300
 20
0.339109
 30
0.000000
  0
VERTEX
  8
LAYER-1
 10
3.839300
 20
0.345015
 30
0.000000
  0
VERTEX
  8
LAYER-1
 10
3.893915
 20
0.345015
 30
0.000000
  0
SEQEND
  8
LAYER-1
  0
POLYLINE
  8
LAYER-1
 66
  1
 70
  1
 62
  0
 10
3.845477
 20
7.415443
 30
0.000000
  0
VERTEX
  8
LAYER-1
 10
3.845477
 20
7.415443
 30
0.000000
  0
VERTEX
  8
LAYER-1
 10
5.741828
 20
7.415343
 30
0.000000
  0
VERTEX
  8
LAYER-1
 10
5.741828
 20
7.143810
 30
0.000000
  0
VERTEX
  8
LAYER-1
 10
3.845477
 20
7.143693
 30
0.000000
  0
SEQEND
  8
LAYER-1
  0
POLYLINE
  8
LAYER-1
 66
  1
 70
  0
 62
  0
 10
4.106766
 20
7.415443
 30
0.000000
  0
VERTEX
  8
LAYER-1
 10
4.106766
 20
7.415443
 30
0.000000
  0
VERTEX
  8
LAYER-1
 10
4.106766
 20
7.143812
 30
0.000000
  0
SEQEND
  8
LAYER-1
  0
POLYLINE
  8
LAYER-1
 66
  1
 70
  0
 62
  0
 10
4.437263
 20
7.143812
 30
0.000000
  0
VERTEX
  8
LAYER-1
 10
4.437263
 20
7.143812
 30
0.000000
  0
VERTEX
  8
LAYER-1
 10
4.437263
 20
7.415443
 30
0.000000
  0
SEQEND
  8
LAYER-1
  0
POLYLINE
  8
LAYER-1
 66
  1
 70
  0
 62
  0
 10
5.250095
 20
7.143812
 30
0.000000
  0
VERTEX
  8
LAYER-1
 10
5.250095
 20
7.143812
 30
0.000000
  0
VERTEX
  8
LAYER-1
 10
5.250095
 20
7.415443
 30
0.000000
  0
SEQEND
  8
LAYER-1
  0
POLYLINE
  8
LAYER-1
 66
  1
 70
  0
 62
  0
 10
5.068927
 20
7.415482
 30
0.000000
  0
VERTEX
  8
LAYER-1
 10
5.068927
 20
7.415482
 30
0.000000
  0
VERTEX
  8
LAYER-1
 10
5.068927
 20
7.143854
 30
0.000000
  0
SEQEND
  8
LAYER-1
  0
POLYLINE
  8
LAYER-1
 66
  1
 70
  0
 62
  0
 10
5.108785
 20
7.415482
 30
0.000000
  0
VERTEX
  8
LAYER-1
 10
5.108785
 20
7.415482
 30
0.000000
  0
VERTEX
  8
LAYER-1
 10
5.108785
 20
7.143854
 30
0.000000
  0
SEQEND
  8
LAYER-1
  0
POLYLINE
  8
LAYER-1
 66
  1
 70
  0
 62
  0
 10
4.254909
 20
7.415482
 30
0.000000
  0
VERTEX
  8
LAYER-1
 10
4.254909
 20
7.415482
 30
0.000000
  0
VERTEX
  8
LAYER-1
 10
4.254909
 20
7.143854
 30
0.000000
  0
SEQEND
  8
LAYER-1
  0
POLYLINE
  8
LAYER-1
 66
  1
 70
  0
 62
  0
 10
4.293725
 20
7.415482
 30
0.000000
  0
VERTEX
  8
LAYER-1
 10
4.293725
 20
7.415482
 30
0.000000
  0
VERTEX
  8
LAYER-1
 10
4.293725
 20
7.143854
 30
0.000000
  0
SEQEND
  8
LAYER-1
  0
POLYLINE
  8
LAYER-1
 66
  1
 70
  0
 62
  0
 10
4.521585
 20
7.415443
 30
0.000000
  0
VERTEX
  8
LAYER-1
 10
4.521585
 20
7.415443
 30
0.000000
  0
VERTEX
  8
LAYER-1
 10
4.521585
 20
7.143812
 30
0.000000
  0
SEQEND
  8
LAYER-1
  0
POLYLINE
  8
LAYER-1
 66
  1
 70
  0
 62
  0
 10
5.334416
 20
7.415443
 30
0.000000
  0
VERTEX
  8
LAYER-1
 10
5.334416
 20
7.415443
 30
0.000000
  0
VERTEX
  8
LAYER-1
 10
5.334416
 20
7.143812
 30
0.000000
  0
SEQEND
  8
LAYER-1
  0
POLYLINE
  8
LAYER-1
 66
  1
 70
  0
 62
  0
 10
5.479321
 20
7.415049
 30
0.000000
  0
VERTEX
  8
LAYER-1
 10
5.479321
 20
7.415049
 30
0.000000
  0
VERTEX
  8
LAYER-1
 10
5.479321
 20
7.143420
 30
0.000000
  0
SEQEND
  8
LAYER-1
  0
POLYLINE
  8
LAYER-1
 66
  1
 70
  0
 62
  0
 10
5.517703
 20
7.415049
 30
0.000000
  0
VERTEX
  8
LAYER-1
 10
5.517703
 20
7.415049
 30
0.000000
  0
VERTEX
  8
LAYER-1
 10
5.517703
 20
7.143420
 30
0.000000
  0
SEQEND
  8
LAYER-1
  0
POLYLINE
  8
LAYER-1
 66
  1
 70
  0
 62
  0
 10
4.661483
 20
7.415518
 30
0.000000
  0
VERTEX
  8
LAYER-1
 10
4.661483
 20
7.415518
 30
0.000000
  0
VERTEX
  8
LAYER-1
 10
4.661483
 20
7.143890
 30
0.000000
  0
SEQEND
  8
LAYER-1
  0
POLYLINE
  8
LAYER-1
 66
  1
 70
  0
 62
  0
 10
4.699866
 20
7.415518
 30
0.000000
  0
VERTEX
  8
LAYER-1
 10
4.699866
 20
7.415518
 30
0.000000
  0
VERTEX
  8
LAYER-1
 10
4.699866
 20
7.143890
 30
0.000000
  0
SEQEND
  8
LAYER-1
  0
POLYLINE
  8
LAYER-1
 66
  1
 70
  0
 62
  0
 10
4.034433
 20
7.143815
 30
0.000000
  0
VERTEX
  8
LAYER-1
 10
4.034433
 20
7.143815
 30
0.000000
  0
VERTEX
  8
LAYER-1
 10
4.034433
 20
7.415444
 30
0.000000
  0
SEQEND
  8
LAYER-1
  0
POLYLINE
  8
LAYER-1
 66
  1
 70
  0
 62
  0
 10
4.069863
 20
7.415444
 30
0.000000
  0
VERTEX
  8
LAYER-1
 10
4.069863
 20
7.415444
 30
0.000000
  0
VERTEX
  8
LAYER-1
 10
4.069863
 20
7.143813
 30
0.000000
  0
SEQEND
  8
LAYER-1
  0
POLYLINE
  8
LAYER-1
 66
  1
 70
  0
 62
  0
 10
4.068892
 20
7.415455
 30
0.000000
  0
VERTEX
  8
LAYER-1
 10
4.068892
 20
7.415455
 30
0.000000
  0
VERTEX
  8
LAYER-1
 10
4.055010
 20
7.426386
 30
0.000000
  0
VERTEX
  8
LAYER-1
 10
4.040248
 20
7.424297
 30
0.000000
  0
VERTEX
  8
LAYER-1
 10
4.035337
 20
7.415444
 30
0.000000
  0
SEQEND
  8
LAYER-1
  0
POLYLINE
  8
LAYER-1
 66
  1
 70
  0
 62
  0
 10
4.106765
 20
7.415443
 30
0.000000
  0
VERTEX
  8
LAYER-1
 10
4.106765
 20
7.415443
 30
0.000000
  0
VERTEX
  8
LAYER-1
 10
4.089659
 20
7.426427
 30
0.000000
  0
VERTEX
  8
LAYER-1
 10
4.072578
 20
7.422097
 30
0.000000
  0
VERTEX
  8
LAYER-1
 10
4.069863
 20
7.415444
 30
0.000000
  0
SEQEND
  8
LAYER-1
  0
POLYLINE
  8
LAYER-1
 66
  1
 70
  0
 62
  0
 10
4.522324
 20
7.414950
 30
0.000000
  0
VERTEX
  8
LAYER-1
 10
4.522324
 20
7.414950
 30
0.000000
  0
VERTEX
  8
LAYER-1
 10
4.502820
 20
7.424942
 30
0.000000
  0
VERTEX
  8
LAYER-1
 10
4.484747
 20
7.418217
 30
0.000000
  0
VERTEX
  8
LAYER-1
 10
4.485417
 20
7.414950
 30
0.000000
  0
SEQEND
  8
LAYER-1
  0
POLYLINE
  8
LAYER-1
 66
  1
 70
  0
 62
  0
 10
5.335283
 20
7.415420
 30
0.000000
  0
VERTEX
  8
LAYER-1
 10
5.335283
 20
7.415420
 30
0.000000
  0
VERTEX
  8
LAYER-1
 10
5.315779
 20
7.425412
 30
0.000000
  0
VERTEX
  8
LAYER-1
 10
5.297705
 20
7.418687
 30
0.000000
  0
VERTEX
  8
LAYER-1
 10
5.298375
 20
7.415421
 30
0.000000
  0
SEQEND
  8
LAYER-1
  0
POLYLINE
  8
LAYER-1
 66
  1
 70
  0
 62
  0
 10
4.474615
 20
7.414950
 30
0.000000
  0
VERTEX
  8
LAYER-1
 10
4.474615
 20
7.414950
 30
0.000000
  0
VERTEX
  8
LAYER-1
 10
4.455111
 20
7.424943
 30
0.000000
  0
VERTEX
  8
LAYER-1
 10
4.437038
 20
7.418218
 30
0.000000
  0
VERTEX
  8
LAYER-1
 10
4.437708
 20
7.414951
 30
0.000000
  0
SEQEND
  8
LAYER-1
  0
POLYLINE
  8
LAYER-1
 66
  1
 70
  0
 62
  0
 10
4.495079
 20
7.415510
 30
0.000000
  0
VERTEX
  8
LAYER-1
 10
4.495079
 20
7.415510
 30
0.000000
  0
VERTEX
  8
LAYER-1
 10
4.484327
 20
7.428515
 30
0.000000
  0
VERTEX
  8
LAYER-1
 10
4.470311
 20
7.430108
 30
0.000000
  0
VERTEX
  8
LAYER-1
 10
4.459275
 20
7.421325
 30
0.000000
  0
VERTEX
  8
LAYER-1
 10
4.459650
 20
7.415510
 30
0.000000
  0
SEQEND
  8
LAYER-1
  0
POLYLINE
  8
LAYER-1
 66
  1
 70
  0
 62
  0
 10
4.459650
 20
7.415510
 30
0.000000
  0
VERTEX
  8
LAYER-1
 10
4.459650
 20
7.415510
 30
0.000000
  0
VERTEX
  8
LAYER-1
 10
4.495079
 20
7.415510
 30
0.000000
  0
SEQEND
  8
LAYER-1
  0
POLYLINE
  8
LAYER-1
 66
  1
 70
  0
 62
  0
 10
5.286633
 20
7.415420
 30
0.000000
  0
VERTEX
  8
LAYER-1
 10
5.286633
 20
7.415420
 30
0.000000
  0
VERTEX
  8
LAYER-1
 10
5.267128
 20
7.425412
 30
0.000000
  0
VERTEX
  8
LAYER-1
 10
5.249054
 20
7.418687
 30
0.000000
  0
VERTEX
  8
LAYER-1
 10
5.249725
 20
7.415421
 30
0.000000
  0
SEQEND
  8
LAYER-1
  0
POLYLINE
  8
LAYER-1
 66
  1
 70
  0
 62
  0
 10
5.311326
 20
7.415510
 30
0.000000
  0
VERTEX
  8
LAYER-1
 10
5.311326
 20
7.415510
 30
0.000000
  0
VERTEX
  8
LAYER-1
 10
5.300574
 20
7.428515
 30
0.000000
  0
VERTEX
  8
LAYER-1
 10
5.286559
 20
7.430108
 30
0.000000
  0
VERTEX
  8
LAYER-1
 10
5.275522
 20
7.421325
 30
0.000000
  0
VERTEX
  8
LAYER-1
 10
5.275897
 20
7.415510
 30
0.000000
  0
SEQEND
  8
LAYER-1
  0
POLYLINE
  8
LAYER-1
 66
  1
 70
  0
 62
  0
 10
5.275898
 20
7.415510
 30
0.000000
  0
VERTEX
  8
LAYER-1
 10
5.275898
 20
7.415510
 30
0.000000
  0
VERTEX
  8
LAYER-1
 10
5.311325
 20
7.415510
 30
0.000000
  0
SEQEND
  8
LAYER-1
  0
POLYLINE
  8
LAYER-1
 66
  1
 70
  0
 62
  0
 10
4.035366
 20
7.143788
 30
0.000000
  0
VERTEX
  8
LAYER-1
 10
4.035366
 20
7.143788
 30
0.000000
  0
VERTEX
  8
LAYER-1
 10
4.045307
 20
7.136787
 30
0.000000
  0
VERTEX
  8
LAYER-1
 10
4.060070
 20
7.138865
 30
0.000000
  0
VERTEX
  8
LAYER-1
 10
4.068586
 20
7.143227
 30
0.000000
  0
SEQEND
  8
LAYER-1
  0
POLYLINE
  8
LAYER-1
 66
  1
 70
  0
 62
  0
 10
4.068586
 20
7.143227
 30
0.000000
  0
VERTEX
  8
LAYER-1
 10
4.068586
 20
7.143227
 30
0.000000
  0
VERTEX
  8
LAYER-1
 10
4.035367
 20
7.143788
 30
0.000000
  0
SEQEND
  8
LAYER-1
  0
POLYLINE
  8
LAYER-1
 66
  1
 70
  0
 62
  0
 10
4.070795
 20
7.143788
 30
0.000000
  0
VERTEX
  8
LAYER-1
 10
4.070795
 20
7.143788
 30
0.000000
  0
VERTEX
  8
LAYER-1
 10
4.083966
 20
7.136742
 30
0.000000
  0
VERTEX
  8
LAYER-1
 10
4.101046
 20
7.141073
 30
0.000000
  0
VERTEX
  8
LAYER-1
 10
4.107698
 20
7.143789
 30
0.000000
  0
SEQEND
  8
LAYER-1
  0
POLYLINE
  8
LAYER-1
 66
  1
 70
  0
 62
  0
 10
4.107697
 20
7.143789
 30
0.000000
  0
VERTEX
  8
LAYER-1
 10
4.107697
 20
7.143789
 30
0.000000
  0
VERTEX
  8
LAYER-1
 10
4.070796
 20
7.143788
 30
0.000000
  0
SEQEND
  8
LAYER-1
  0
POLYLINE
  8
LAYER-1
 66
  1
 70
  0
 62
  0
 10
4.437634
 20
7.143342
 30
0.000000
  0
VERTEX
  8
LAYER-1
 10
4.437634
 20
7.143342
 30
0.000000
  0
VERTEX
  8
LAYER-1
 10
4.453200
 20
7.137287
 30
0.000000
  0
VERTEX
  8
LAYER-1
 10
4.471274
 20
7.144012
 30
0.000000
  0
VERTEX
  8
LAYER-1
 10
4.474541
 20
7.143343
 30
0.000000
  0
SEQEND
  8
LAYER-1
  0
POLYLINE
  8
LAYER-1
 66
  1
 70
  0
 62
  0
 10
4.484874
 20
7.143342
 30
0.000000
  0
VERTEX
  8
LAYER-1
 10
4.484874
 20
7.143342
 30
0.000000
  0
VERTEX
  8
LAYER-1
 10
4.500441
 20
7.137287
 30
0.000000
  0
VERTEX
  8
LAYER-1
 10
4.518515
 20
7.144012
 30
0.000000
  0
VERTEX
  8
LAYER-1
 10
4.521781
 20
7.143343
 30
0.000000
  0
SEQEND
  8
LAYER-1
  0
POLYLINE
  8
LAYER-1
 66
  1
 70
  0
 62
  0
 10
4.459107
 20
7.143253
 30
0.000000
  0
VERTEX
  8
LAYER-1
 10
4.459107
 20
7.143253
 30
0.000000
  0
VERTEX
  8
LAYER-1
 10
4.465922
 20
7.134184
 30
0.000000
  0
VERTEX
  8
LAYER-1
 10
4.479937
 20
7.132590
 30
0.000000
  0
VERTEX
  8
LAYER-1
 10
4.490974
 20
7.141374
 30
0.000000
  0
VERTEX
  8
LAYER-1
 10
4.494537
 20
7.143253
 30
0.000000
  0
SEQEND
  8
LAYER-1
  0
POLYLINE
  8
LAYER-1
 66
  1
 70
  0
 62
  0
 10
4.459108
 20
7.143253
 30
0.000000
  0
VERTEX
  8
LAYER-1
 10
4.459108
 20
7.143253
 30
0.000000
  0
VERTEX
  8
LAYER-1
 10
4.494537
 20
7.143253
 30
0.000000
  0
SEQEND
  8
LAYER-1
  0
POLYLINE
  8
LAYER-1
 66
  1
 70
  0
 62
  0
 10
5.250189
 20
7.143342
 30
0.000000
  0
VERTEX
  8
LAYER-1
 10
5.250189
 20
7.143342
 30
0.000000
  0
VERTEX
  8
LAYER-1
 10
5.265756
 20
7.137287
 30
0.000000
  0
VERTEX
  8
LAYER-1
 10
5.283829
 20
7.144012
 30
0.000000
  0
VERTEX
  8
LAYER-1
 10
5.287096
 20
7.143343
 30
0.000000
  0
SEQEND
  8
LAYER-1
  0
POLYLINE
  8
LAYER-1
 66
  1
 70
  0
 62
  0
 10
5.298368
 20
7.143342
 30
0.000000
  0
VERTEX
  8
LAYER-1
 10
5.298368
 20
7.143342
 30
0.000000
  0
VERTEX
  8
LAYER-1
 10
5.313935
 20
7.137287
 30
0.000000
  0
VERTEX
  8
LAYER-1
 10
5.332009
 20
7.144012
 30
0.000000
  0
VERTEX
  8
LAYER-1
 10
5.335275
 20
7.143343
 30
0.000000
  0
SEQEND
  8
LAYER-1
  0
POLYLINE
  8
LAYER-1
 66
  1
 70
  0
 62
  0
 10
5.275891
 20
7.143253
 30
0.000000
  0
VERTEX
  8
LAYER-1
 10
5.275891
 20
7.143253
 30
0.000000
  0
VERTEX
  8
LAYER-1
 10
5.282706
 20
7.134184
 30
0.000000
  0
VERTEX
  8
LAYER-1
 10
5.296721
 20
7.132590
 30
0.000000
  0
VERTEX
  8
LAYER-1
 10
5.307758
 20
7.141374
 30
0.000000
  0
VERTEX
  8
LAYER-1
 10
5.311320
 20
7.143253
 30
0.000000
  0
SEQEND
  8
LAYER-1
  0
POLYLINE
  8
LAYER-1
 66
  1
 70
  0
 62
  0
 10
5.275891
 20
7.143253
 30
0.000000
  0
VERTEX
  8
LAYER-1
 10
5.275891
 20
7.143253
 30
0.000000
  0
VERTEX
  8
LAYER-1
 10
5.311320
 20
7.143253
 30
0.000000
  0
SEQEND
  8
LAYER-1
  0
POLYLINE
  8
LAYER-1
 66
  1
 70
  1
 62
  0
  0
VERTEX
  8
LAYER-1
 10
4.459650
 20
7.415443
 30
0.000000
  0
VERTEX
  8
LAYER-1
 10
4.495080
 20
7.415443
 30
0.000000
  0
VERTEX
  8
LAYER-1
 10
4.495080
 20
7.143814
 30
0.000000
  0
VERTEX
  8
LAYER-1
 10
4.459650
 20
7.143814
 30
0.000000
  0
SEQEND
  8
LAYER-1
  0
POLYLINE
  8
LAYER-1
 66
  1
 70
  1
 62
  0
  0
VERTEX
  8
LAYER-1
 10
5.275964
 20
7.415443
 30
0.000000
  0
VERTEX
  8
LAYER-1
 10
5.311394
 20
7.415443
 30
0.000000
  0
VERTEX
  8
LAYER-1
 10
5.311394
 20
7.143814
 30
0.000000
  0
VERTEX
  8
LAYER-1
 10
5.275964
 20
7.143814
 30
0.000000
  0
SEQEND
  8
LAYER-1
  0
POLYLINE
  8
LAYER-1
 66
  1
 70
  0
 62
  0
 10
4.459650
 20
7.347536
 30
0.000000
  0
VERTEX
  8
LAYER-1
 10
4.459650
 20
7.347536
 30
0.000000
  0
VERTEX
  8
LAYER-1
 10
4.495080
 20
7.347536
 30
0.000000
  0
SEQEND
  8
LAYER-1
  0
POLYLINE
  8
LAYER-1
 66
  1
 70
  0
 62
  0
 10
4.459650
 20
7.217627
 30
0.000000
  0
VERTEX
  8
LAYER-1
 10
4.459650
 20
7.217627
 30
0.000000
  0
VERTEX
  8
LAYER-1
 10
4.495080
 20
7.217627
 30
0.000000
  0
SEQEND
  8
LAYER-1
  0
POLYLINE
  8
LAYER-1
 66
  1
 70
  0
 62
  0
 10
5.275964
 20
7.347536
 30
0.000000
  0
VERTEX
  8
LAYER-1
 10
5.275964
 20
7.347536
 30
0.000000
  0
VERTEX
  8
LAYER-1
 10
5.311393
 20
7.347536
 30
0.000000
  0
SEQEND
  8
LAYER-1
  0
POLYLINE
  8
LAYER-1
 66
  1
 70
  0
 62
  0
 10
5.275964
 20
7.217626
 30
0.000000
  0
VERTEX
  8
LAYER-1
 10
5.275964
 20
7.217626
 30
0.000000
  0
VERTEX
  8
LAYER-1
 10
5.311393
 20
7.217626
 30
0.000000
  0
SEQEND
  8
LAYER-1
  0
POLYLINE
  8
LAYER-1
 66
  1
 70
  0
 62
  0
 10
4.290538
 20
7.415560
 30
0.000000
  0
VERTEX
  8
LAYER-1
 10
4.290538
 20
7.415560
 30
0.000000
  0
VERTEX
  8
LAYER-1
 10
4.276365
 20
7.426092
 30
0.000000
  0
VERTEX
  8
LAYER-1
 10
4.261681
 20
7.423516
 30
0.000000
  0
VERTEX
  8
LAYER-1
 10
4.257318
 20
7.415000
 30
0.000000
  0
SEQEND
  8
LAYER-1
  0
POLYLINE
  8
LAYER-1
 66
  1
 70
  0
 62
  0
 10
5.107716
 20
7.415382
 30
0.000000
  0
VERTEX
  8
LAYER-1
 10
5.107716
 20
7.415382
 30
0.000000
  0
VERTEX
  8
LAYER-1
 10
5.090608
 20
7.426364
 30
0.000000
  0
VERTEX
  8
LAYER-1
 10
5.073528
 20
7.422034
 30
0.000000
  0
VERTEX
  8
LAYER-1
 10
5.070813
 20
7.415382
 30
0.000000
  0
SEQEND
  8
LAYER-1
  0
POLYLINE
  8
LAYER-1
 66
  1
 70
  0
 62
  0
 10
4.850397
 20
7.143785
 30
0.000000
  0
VERTEX
  8
LAYER-1
 10
4.850397
 20
7.143785
 30
0.000000
  0
VERTEX
  8
LAYER-1
 10
4.860337
 20
7.136785
 30
0.000000
  0
VERTEX
  8
LAYER-1
 10
4.875100
 20
7.138863
 30
0.000000
  0
VERTEX
  8
LAYER-1
 10
4.883616
 20
7.143226
 30
0.000000
  0
SEQEND
  8
LAYER-1
  0
POLYLINE
  8
LAYER-1
 66
  1
 70
  0
 62
  0
 10
4.883616
 20
7.143226
 30
0.000000
  0
VERTEX
  8
LAYER-1
 10
4.883616
 20
7.143226
 30
0.000000
  0
VERTEX
  8
LAYER-1
 10
4.850397
 20
7.143785
 30
0.000000
  0
SEQEND
  8
LAYER-1
  0
POLYLINE
  8
LAYER-1
 66
  1
 70
  0
 62
  0
 10
4.885826
 20
7.143785
 30
0.000000
  0
VERTEX
  8
LAYER-1
 10
4.885826
 20
7.143785
 30
0.000000
  0
VERTEX
  8
LAYER-1
 10
4.898997
 20
7.136739
 30
0.000000
  0
VERTEX
  8
LAYER-1
 10
4.916077
 20
7.141071
 30
0.000000
  0
VERTEX
  8
LAYER-1
 10
4.922729
 20
7.143786
 30
0.000000
  0
SEQEND
  8
LAYER-1
  0
POLYLINE
  8
LAYER-1
 66
  1
 70
  0
 62
  0
 10
4.922729
 20
7.143786
 30
0.000000
  0
VERTEX
  8
LAYER-1
 10
4.922729
 20
7.143786
 30
0.000000
  0
VERTEX
  8
LAYER-1
 10
4.885826
 20
7.143785
 30
0.000000
  0
SEQEND
  8
LAYER-1
  0
POLYLINE
  8
LAYER-1
 66
  1
 70
  0
 62
  0
 10
4.921558
 20
7.415443
 30
0.000000
  0
VERTEX
  8
LAYER-1
 10
4.921558
 20
7.415443
 30
0.000000
  0
VERTEX
  8
LAYER-1
 10
4.921558
 20
7.143812
 30
0.000000
  0
SEQEND
  8
LAYER-1
  0
POLYLINE
  8
LAYER-1
 66
  1
 70
  0
 62
  0
 10
4.849224
 20
7.143815
 30
0.000000
  0
VERTEX
  8
LAYER-1
 10
4.849224
 20
7.143815
 30
0.000000
  0
VERTEX
  8
LAYER-1
 10
4.849224
 20
7.415444
 30
0.000000
  0
SEQEND
  8
LAYER-1
  0
POLYLINE
  8
LAYER-1
 66
  1
 70
  0
 62
  0
 10
4.884653
 20
7.415444
 30
0.000000
  0
VERTEX
  8
LAYER-1
 10
4.884653
 20
7.415444
 30
0.000000
  0
VERTEX
  8
LAYER-1
 10
4.884653
 20
7.143813
 30
0.000000
  0
SEQEND
  8
LAYER-1
  0
POLYLINE
  8
LAYER-1
 66
  1
 70
  0
 62
  0
 10
4.882748
 20
7.415863
 30
0.000000
  0
VERTEX
  8
LAYER-1
 10
4.882748
 20
7.415863
 30
0.000000
  0
VERTEX
  8
LAYER-1
 10
4.868575
 20
7.426394
 30
0.000000
  0
VERTEX
  8
LAYER-1
 10
4.853891
 20
7.423819
 30
0.000000
  0
VERTEX
  8
LAYER-1
 10
4.849528
 20
7.415303
 30
0.000000
  0
SEQEND
  8
LAYER-1
  0
POLYLINE
  8
LAYER-1
 66
  1
 70
  0
 62
  0
 10
4.882747
 20
7.415863
 30
0.000000
  0
VERTEX
  8
LAYER-1
 10
4.882747
 20
7.415863
 30
0.000000
  0
VERTEX
  8
LAYER-1
 10
4.849529
 20
7.415303
 30
0.000000
  0
SEQEND
  8
LAYER-1
  0
POLYLINE
  8
LAYER-1
 66
  1
 70
  0
 62
  0
 10
4.921860
 20
7.415302
 30
0.000000
  0
VERTEX
  8
LAYER-1
 10
4.921860
 20
7.415302
 30
0.000000
  0
VERTEX
  8
LAYER-1
 10
4.904752
 20
7.426285
 30
0.000000
  0
VERTEX
  8
LAYER-1
 10
4.887672
 20
7.421955
 30
0.000000
  0
VERTEX
  8
LAYER-1
 10
4.884957
 20
7.415303
 30
0.000000
  0
SEQEND
  8
LAYER-1
  0
POLYLINE
  8
LAYER-1
 66
  1
 70
  0
 62
  0
 10
4.921860
 20
7.415302
 30
0.000000
  0
VERTEX
  8
LAYER-1
 10
4.921860
 20
7.415302
 30
0.000000
  0
VERTEX
  8
LAYER-1
 10
4.884957
 20
7.415303
 30
0.000000
  0
SEQEND
  8
LAYER-1
  0
POLYLINE
  8
LAYER-1
 66
  1
 70
  0
 62
  0
 10
5.670397
 20
7.143785
 30
0.000000
  0
VERTEX
  8
LAYER-1
 10
5.670397
 20
7.143785
 30
0.000000
  0
VERTEX
  8
LAYER-1
 10
5.680337
 20
7.136785
 30
0.000000
  0
VERTEX
  8
LAYER-1
 10
5.695100
 20
7.138863
 30
0.000000
  0
VERTEX
  8
LAYER-1
 10
5.703616
 20
7.143226
 30
0.000000
  0
SEQEND
  8
LAYER-1
  0
POLYLINE
  8
LAYER-1
 66
  1
 70
  0
 62
  0
 10
5.703616
 20
7.143226
 30
0.000000
  0
VERTEX
  8
LAYER-1
 10
5.703616
 20
7.143226
 30
0.000000
  0
VERTEX
  8
LAYER-1
 10
5.670397
 20
7.143785
 30
0.000000
  0
SEQEND
  8
LAYER-1
  0
POLYLINE
  8
LAYER-1
 66
  1
 70
  0
 62
  0
 10
5.705826
 20
7.143785
 30
0.000000
  0
VERTEX
  8
LAYER-1
 10
5.705826
 20
7.143785
 30
0.000000
  0
VERTEX
  8
LAYER-1
 10
5.718997
 20
7.136739
 30
0.000000
  0
VERTEX
  8
LAYER-1
 10
5.736077
 20
7.141071
 30
0.000000
  0
VERTEX
  8
LAYER-1
 10
5.742729
 20
7.143786
 30
0.000000
  0
SEQEND
  8
LAYER-1
  0
POLYLINE
  8
LAYER-1
 66
  1
 70
  0
 62
  0
 10
5.742729
 20
7.143786
 30
0.000000
  0
VERTEX
  8
LAYER-1
 10
5.742729
 20
7.143786
 30
0.000000
  0
VERTEX
  8
LAYER-1
 10
5.705826
 20
7.143785
 30
0.000000
  0
SEQEND
  8
LAYER-1
  0
POLYLINE
  8
LAYER-1
 66
  1
 70
  0
 62
  0
 10
5.741558
 20
7.415443
 30
0.000000
  0
VERTEX
  8
LAYER-1
 10
5.741558
 20
7.415443
 30
0.000000
  0
VERTEX
  8
LAYER-1
 10
5.741558
 20
7.143812
 30
0.000000
  0
SEQEND
  8
LAYER-1
  0
POLYLINE
  8
LAYER-1
 66
  1
 70
  0
 62
  0
 10
5.669224
 20
7.143815
 30
0.000000
  0
VERTEX
  8
LAYER-1
 10
5.669224
 20
7.143815
 30
0.000000
  0
VERTEX
  8
LAYER-1
 10
5.669224
 20
7.415444
 30
0.000000
  0
SEQEND
  8
LAYER-1
  0
POLYLINE
  8
LAYER-1
 66
  1
 70
  0
 62
  0
 10
5.704653
 20
7.415444
 30
0.000000
  0
VERTEX
  8
LAYER-1
 10
5.704653
 20
7.415444
 30
0.000000
  0
VERTEX
  8
LAYER-1
 10
5.704653
 20
7.143813
 30
0.000000
  0
SEQEND
  8
LAYER-1
  0
POLYLINE
  8
LAYER-1
 66
  1
 70
  0
 62
  0
 10
5.702747
 20
7.415863
 30
0.000000
  0
VERTEX
  8
LAYER-1
 10
5.702747
 20
7.415863
 30
0.000000
  0
VERTEX
  8
LAYER-1
 10
5.688575
 20
7.426394
 30
0.000000
  0
VERTEX
  8
LAYER-1
 10
5.673890
 20
7.423819
 30
0.000000
  0
VERTEX
  8
LAYER-1
 10
5.669528
 20
7.415303
 30
0.000000
  0
SEQEND
  8
LAYER-1
  0
POLYLINE
  8
LAYER-1
 66
  1
 70
  0
 62
  0
 10
5.702747
 20
7.415863
 30
0.000000
  0
VERTEX
  8
LAYER-1
 10
5.702747
 20
7.415863
 30
0.000000
  0
VERTEX
  8
LAYER-1
 10
5.669529
 20
7.415303
 30
0.000000
  0
SEQEND
  8
LAYER-1
  0
POLYLINE
  8
LAYER-1
 66
  1
 70
  0
 62
  0
 10
5.741860
 20
7.415302
 30
0.000000
  0
VERTEX
  8
LAYER-1
 10
5.741860
 20
7.415302
 30
0.000000
  0
VERTEX
  8
LAYER-1
 10
5.724752
 20
7.426285
 30
0.000000
  0
VERTEX
  8
LAYER-1
 10
5.707672
 20
7.421955
 30
0.000000
  0
VERTEX
  8
LAYER-1
 10
5.704957
 20
7.415303
 30
0.000000
  0
SEQEND
  8
LAYER-1
  0
POLYLINE
  8
LAYER-1
 66
  1
 70
  0
 62
  0
 10
5.741860
 20
7.415302
 30
0.000000
  0
VERTEX
  8
LAYER-1
 10
5.741860
 20
7.415302
 30
0.000000
  0
VERTEX
  8
LAYER-1
 10
5.704957
 20
7.415303
 30
0.000000
  0
SEQEND
  8
LAYER-1
  0
POLYLINE
  8
LAYER-1
 66
  1
 70
  0
 62
  0
 10
3.845259
 20
7.347536
 30
0.000000
  0
VERTEX
  8
LAYER-1
 10
3.845259
 20
7.347536
 30
0.000000
  0
VERTEX
  8
LAYER-1
 10
3.884984
 20
7.347536
 30
0.000000
  0
SEQEND
  8
LAYER-1
  0
POLYLINE
  8
LAYER-1
 66
  1
 70
  0
 62
  0
 10
3.845259
 20
7.217626
 30
0.000000
  0
VERTEX
  8
LAYER-1
 10
3.845259
 20
7.217626
 30
0.000000
  0
VERTEX
  8
LAYER-1
 10
3.884984
 20
7.217626
 30
0.000000
  0
SEQEND
  8
LAYER-1
  0
POLYLINE
  8
LAYER-1
 66
  1
 70
  0
 62
  0
 10
3.883613
 20
7.420589
 30
0.000000
  0
VERTEX
  8
LAYER-1
 10
3.883613
 20
7.420589
 30
0.000000
  0
VERTEX
  8
LAYER-1
 10
3.866505
 20
7.431573
 30
0.000000
  0
VERTEX
  8
LAYER-1
 10
3.849425
 20
7.427242
 30
0.000000
  0
VERTEX
  8
LAYER-1
 10
3.846710
 20
7.420590
 30
0.000000
  0
SEQEND
  8
LAYER-1
  0
POLYLINE
  8
LAYER-1
 66
  1
 70
  1
 62
  0
  0
VERTEX
  8
LAYER-1
 10
3.839507
 20
7.421212
 30
0.000000
  0
VERTEX
  8
LAYER-1
 10
3.894122
 20
7.421212
 30
0.000000
  0
VERTEX
  8
LAYER-1
 10
3.894122
 20
7.415306
 30
0.000000
  0
VERTEX
  8
LAYER-1
 10
3.839507
 20
7.415306
 30
0.000000
  0
SEQEND
  8
LAYER-1
  0
POLYLINE
  8
LAYER-1
 66
  1
 70
  1
 62
  0
  0
VERTEX
  8
LAYER-1
 10
4.047530
 20
1.437859
 30
0.000000
  0
VERTEX
  8
LAYER-1
 10
4.499257
 20
1.437859
 30
0.000000
  0
VERTEX
  8
LAYER-1
 10
4.499257
 20
1.429001
 30
0.000000
  0
VERTEX
  8
LAYER-1
 10
4.047530
 20
1.429001
 30
0.000000
  0
SEQEND
  8
LAYER-1
  0
POLYLINE
  8
LAYER-1
 66
  1
 70
  1
 62
  0
  0
VERTEX
  8
LAYER-1
 10
4.047964
 20
2.254161
 30
0.000000
  0
VERTEX
  8
LAYER-1
 10
4.499691
 20
2.254161
 30
0.000000
  0
VERTEX
  8
LAYER-1
 10
4.499691
 20
2.245305
 30
0.000000
  0
VERTEX
  8
LAYER-1
 10
4.047964
 20
2.245305
 30
0.000000
  0
SEQEND
  8
LAYER-1
  0
POLYLINE
  8
LAYER-1
 66
  1
 70
  1
 62
  0
  0
VERTEX
  8
LAYER-1
 10
4.047095
 20
3.070467
 30
0.000000
  0
VERTEX
  8
LAYER-1
 10
4.498822
 20
3.070467
 30
0.000000
  0
VERTEX
  8
LAYER-1
 10
4.498822
 20
3.061608
 30
0.000000
  0
VERTEX
  8
LAYER-1
 10
4.047095
 20
3.061608
 30
0.000000
  0
SEQEND
  8
LAYER-1
  0
POLYLINE
  8
LAYER-1
 66
  1
 70
  1
 62
  0
  0
VERTEX
  8
LAYER-1
 10
4.047095
 20
3.886769
 30
0.000000
  0
VERTEX
  8
LAYER-1
 10
4.498822
 20
3.886769
 30
0.000000
  0
VERTEX
  8
LAYER-1
 10
4.498822
 20
3.877912
 30
0.000000
  0
VERTEX
  8
LAYER-1
 10
4.047095
 20
3.877912
 30
0.000000
  0
SEQEND
  8
LAYER-1
  0
POLYLINE
  8
LAYER-1
 66
  1
 70
  1
 62
  0
  0
VERTEX
  8
LAYER-1
 10
4.047529
 20
4.703072
 30
0.000000
  0
VERTEX
  8
LAYER-1
 10
4.499256
 20
4.703072
 30
0.000000
  0
VERTEX
  8
LAYER-1
 10
4.499256
 20
4.694217
 30
0.000000
  0
VERTEX
  8
LAYER-1
 10
4.047529
 20
4.694217
 30
0.000000
  0
SEQEND
  8
LAYER-1
  0
POLYLINE
  8
LAYER-1
 66
  1
 70
  1
 62
  0
  0
VERTEX
  8
LAYER-1
 10
4.047095
 20
5.519377
 30
0.000000
  0
VERTEX
  8
LAYER-1
 10
4.498822
 20
5.519377
 30
0.000000
  0
VERTEX
  8
LAYER-1
 10
4.498822
 20
5.510519
 30
0.000000
  0
VERTEX
  8
LAYER-1
 10
4.047095
 20
5.510519
 30
0.000000
  0
SEQEND
  8
LAYER-1
  0
POLYLINE
  8
LAYER-1
 66
  1
 70
  1
 62
  0
  0
VERTEX
  8
LAYER-1
 10
4.047529
 20
6.335680
 30
0.000000
  0
VERTEX
  8
LAYER-1
 10
4.499256
 20
6.335680
 30
0.000000
  0
VERTEX
  8
LAYER-1
 10
4.499256
 20
6.326824
 30
0.000000
  0
VERTEX
  8
LAYER-1
 10
4.047529
 20
6.326824
 30
0.000000
  0
SEQEND
  8
LAYER-1
  0
POLYLINE
  8
LAYER-1
 66
  1
 70
  1
 62
  0
  0
VERTEX
  8
LAYER-1
 10
4.858591
 20
1.437859
 30
0.000000
  0
VERTEX
  8
LAYER-1
 10
5.310321
 20
1.437859
 30
0.000000
  0
VERTEX
  8
LAYER-1
 10
5.310321
 20
1.429001
 30
0.000000
  0
VERTEX
  8
LAYER-1
 10
4.858591
 20
1.429001
 30
0.000000
  0
SEQEND
  8
LAYER-1
  0
POLYLINE
  8
LAYER-1
 66
  1
 70
  1
 62
  0
  0
VERTEX
  8
LAYER-1
 10
4.858591
 20
2.254161
 30
0.000000
  0
VERTEX
  8
LAYER-1
 10
5.310321
 20
2.254161
 30
0.000000
  0
VERTEX
  8
LAYER-1
 10
5.310321
 20
2.245305
 30
0.000000
  0
VERTEX
  8
LAYER-1
 10
4.858591
 20
2.245305
 30
0.000000
  0
SEQEND
  8
LAYER-1
  0
POLYLINE
  8
LAYER-1
 66
  1
 70
  1
 62
  0
  0
VERTEX
  8
LAYER-1
 10
4.863800
 20
3.070467
 30
0.000000
  0
VERTEX
  8
LAYER-1
 10
5.315530
 20
3.070467
 30
0.000000
  0
VERTEX
  8
LAYER-1
 10
5.315530
 20
3.061608
 30
0.000000
  0
VERTEX
  8
LAYER-1
 10
4.863800
 20
3.061608
 30
0.000000
  0
SEQEND
  8
LAYER-1
  0
POLYLINE
  8
LAYER-1
 66
  1
 70
  1
 62
  0
  0
VERTEX
  8
LAYER-1
 10
4.863800
 20
3.886769
 30
0.000000
  0
VERTEX
  8
LAYER-1
 10
5.315530
 20
3.886769
 30
0.000000
  0
VERTEX
  8
LAYER-1
 10
5.315530
 20
3.877912
 30
0.000000
  0
VERTEX
  8
LAYER-1
 10
4.863800
 20
3.877912
 30
0.000000
  0
SEQEND
  8
LAYER-1
  0
POLYLINE
  8
LAYER-1
 66
  1
 70
  1
 62
  0
  0
VERTEX
  8
LAYER-1
 10
4.863800
 20
4.703074
 30
0.000000
  0
VERTEX
  8
LAYER-1
 10
5.315530
 20
4.703074
 30
0.000000
  0
VERTEX
  8
LAYER-1
 10
5.315530
 20
4.694217
 30
0.000000
  0
VERTEX
  8
LAYER-1
 10
4.863800
 20
4.694217
 30
0.000000
  0
SEQEND
  8
LAYER-1
  0
POLYLINE
  8
LAYER-1
 66
  1
 70
  1
 62
  0
  0
VERTEX
  8
LAYER-1
 10
4.863800
 20
5.519377
 30
0.000000
  0
VERTEX
  8
LAYER-1
 10
5.315530
 20
5.519377
 30
0.000000
  0
VERTEX
  8
LAYER-1
 10
5.315530
 20
5.510521
 30
0.000000
  0
VERTEX
  8
LAYER-1
 10
4.863800
 20
5.510521
 30
0.000000
  0
SEQEND
  8
LAYER-1
  0
POLYLINE
  8
LAYER-1
 66
  1
 70
  1
 62
  0
  0
VERTEX
  8
LAYER-1
 10
4.863800
 20
6.335680
 30
0.000000
  0
VERTEX
  8
LAYER-1
 10
5.315530
 20
6.335680
 30
0.000000
  0
VERTEX
  8
LAYER-1
 10
5.315530
 20
6.326824
 30
0.000000
  0
VERTEX
  8
LAYER-1
 10
4.863800
 20
6.326824
 30
0.000000
  0
SEQEND
  8
LAYER-1
  0
POLYLINE
  8
LAYER-1
 66
  1
 70
  1
 62
  0
  0
VERTEX
  8
LAYER-1
 10
4.454622
 20
1.036323
 30
0.000000
  0
VERTEX
  8
LAYER-1
 10
4.906352
 20
1.036323
 30
0.000000
  0
VERTEX
  8
LAYER-1
 10
4.906352
 20
1.027464
 30
0.000000
  0
VERTEX
  8
LAYER-1
 10
4.454622
 20
1.027464
 30
0.000000
  0
SEQEND
  8
LAYER-1
  0
POLYLINE
  8
LAYER-1
 66
  1
 70
  1
 62
  0
  0
VERTEX
  8
LAYER-1
 10
4.454188
 20
1.852623
 30
0.000000
  0
VERTEX
  8
LAYER-1
 10
4.905918
 20
1.852623
 30
0.000000
  0
VERTEX
  8
LAYER-1
 10
4.905918
 20
1.843769
 30
0.000000
  0
VERTEX
  8
LAYER-1
 10
4.454188
 20
1.843769
 30
0.000000
  0
SEQEND
  8
LAYER-1
  0
POLYLINE
  8
LAYER-1
 66
  1
 70
  1
 62
  0
  0
VERTEX
  8
LAYER-1
 10
4.454188
 20
2.668928
 30
0.000000
  0
VERTEX
  8
LAYER-1
 10
4.905918
 20
2.668928
 30
0.000000
  0
VERTEX
  8
LAYER-1
 10
4.905918
 20
2.660071
 30
0.000000
  0
VERTEX
  8
LAYER-1
 10
4.454188
 20
2.660071
 30
0.000000
  0
SEQEND
  8
LAYER-1
  0
POLYLINE
  8
LAYER-1
 66
  1
 70
  1
 62
  0
  0
VERTEX
  8
LAYER-1
 10
4.455056
 20
3.485231
 30
0.000000
  0
VERTEX
  8
LAYER-1
 10
4.906787
 20
3.485231
 30
0.000000
  0
VERTEX
  8
LAYER-1
 10
4.906787
 20
3.476374
 30
0.000000
  0
VERTEX
  8
LAYER-1
 10
4.455056
 20
3.476374
 30
0.000000
  0
SEQEND
  8
LAYER-1
  0
POLYLINE
  8
LAYER-1
 66
  1
 70
  1
 62
  0
  0
VERTEX
  8
LAYER-1
 10
4.455056
 20
4.301535
 30
0.000000
  0
VERTEX
  8
LAYER-1
 10
4.906787
 20
4.301535
 30
0.000000
  0
VERTEX
  8
LAYER-1
 10
4.906787
 20
4.292677
 30
0.000000
  0
VERTEX
  8
LAYER-1
 10
4.455056
 20
4.292677
 30
0.000000
  0
SEQEND
  8
LAYER-1
  0
POLYLINE
  8
LAYER-1
 66
  1
 70
  1
 62
  0
  0
VERTEX
  8
LAYER-1
 10
4.455056
 20
5.117839
 30
0.000000
  0
VERTEX
  8
LAYER-1
 10
4.906787
 20
5.117839
 30
0.000000
  0
VERTEX
  8
LAYER-1
 10
4.906787
 20
5.108983
 30
0.000000
  0
VERTEX
  8
LAYER-1
 10
4.455056
 20
5.108983
 30
0.000000
  0
SEQEND
  8
LAYER-1
  0
POLYLINE
  8
LAYER-1
 66
  1
 70
  1
 62
  0
  0
VERTEX
  8
LAYER-1
 10
4.454622
 20
5.934144
 30
0.000000
  0
VERTEX
  8
LAYER-1
 10
4.906352
 20
5.934144
 30
0.000000
  0
VERTEX
  8
LAYER-1
 10
4.906352
 20
5.925285
 30
0.000000
  0
VERTEX
  8
LAYER-1
 10
4.454622
 20
5.925285
 30
0.000000
  0
SEQEND
  8
LAYER-1
  0
POLYLINE
  8
LAYER-1
 66
  1
 70
  1
 62
  0
  0
VERTEX
  8
LAYER-1
 10
4.454622
 20
6.750438
 30
0.000000
  0
VERTEX
  8
LAYER-1
 10
4.906352
 20
6.750438
 30
0.000000
  0
VERTEX
  8
LAYER-1
 10
4.906352
 20
6.741581
 30
0.000000
  0
VERTEX
  8
LAYER-1
 10
4.454622
 20
6.741581
 30
0.000000
  0
SEQEND
  8
LAYER-1
  0
POLYLINE
  8
LAYER-1
 66
  1
 70
  1
 62
  0
  0
VERTEX
  8
LAYER-1
 10
5.273065
 20
1.036323
 30
0.000000
  0
VERTEX
  8
LAYER-1
 10
5.724795
 20
1.036323
 30
0.000000
  0
VERTEX
  8
LAYER-1
 10
5.724795
 20
1.027464
 30
0.000000
  0
VERTEX
  8
LAYER-1
 10
5.273065
 20
1.027464
 30
0.000000
  0
SEQEND
  8
LAYER-1
  0
POLYLINE
  8
LAYER-1
 66
  1
 70
  1
 62
  0
  0
VERTEX
  8
LAYER-1
 10
5.272631
 20
1.852623
 30
0.000000
  0
VERTEX
  8
LAYER-1
 10
5.724361
 20
1.852623
 30
0.000000
  0
VERTEX
  8
LAYER-1
 10
5.724361
 20
1.843769
 30
0.000000
  0
VERTEX
  8
LAYER-1
 10
5.272631
 20
1.843769
 30
0.000000
  0
SEQEND
  8
LAYER-1
  0
POLYLINE
  8
LAYER-1
 66
  1
 70
  1
 62
  0
  0
VERTEX
  8
LAYER-1
 10
5.273065
 20
2.668928
 30
0.000000
  0
VERTEX
  8
LAYER-1
 10
5.724795
 20
2.668928
 30
0.000000
  0
VERTEX
  8
LAYER-1
 10
5.724795
 20
2.660071
 30
0.000000
  0
VERTEX
  8
LAYER-1
 10
5.273065
 20
2.660071
 30
0.000000
  0
SEQEND
  8
LAYER-1
  0
POLYLINE
  8
LAYER-1
 66
  1
 70
  1
 62
  0
  0
VERTEX
  8
LAYER-1
 10
5.273499
 20
3.485231
 30
0.000000
  0
VERTEX
  8
LAYER-1
 10
5.725229
 20
3.485231
 30
0.000000
  0
VERTEX
  8
LAYER-1
 10
5.725229
 20
3.476374
 30
0.000000
  0
VERTEX
  8
LAYER-1
 10
5.273499
 20
3.476374
 30
0.000000
  0
SEQEND
  8
LAYER-1
  0
POLYLINE
  8
LAYER-1
 66
  1
 70
  1
 62
  0
  0
VERTEX
  8
LAYER-1
 10
5.273065
 20
4.301535
 30
0.000000
  0
VERTEX
  8
LAYER-1
 10
5.724795
 20
4.301535
 30
0.000000
  0
VERTEX
  8
LAYER-1
 10
5.724795
 20
4.292677
 30
0.000000
  0
VERTEX
  8
LAYER-1
 10
5.273065
 20
4.292677
 30
0.000000
  0
SEQEND
  8
LAYER-1
  0
POLYLINE
  8
LAYER-1
 66
  1
 70
  1
 62
  0
  0
VERTEX
  8
LAYER-1
 10
5.273065
 20
5.117839
 30
0.000000
  0
VERTEX
  8
LAYER-1
 10
5.724795
 20
5.117839
 30
0.000000
  0
VERTEX
  8
LAYER-1
 10
5.724795
 20
5.108983
 30
0.000000
  0
VERTEX
  8
LAYER-1
 10
5.273065
 20
5.108983
 30
0.000000
  0
SEQEND
  8
LAYER-1
  0
POLYLINE
  8
LAYER-1
 66
  1
 70
  1
 62
  0
  0
VERTEX
  8
LAYER-1
 10
5.273499
 20
5.934142
 30
0.000000
  0
VERTEX
  8
LAYER-1
 10
5.725229
 20
5.934142
 30
0.000000
  0
VERTEX
  8
LAYER-1
 10
5.725229
 20
5.925285
 30
0.000000
  0
VERTEX
  8
LAYER-1
 10
5.273499
 20
5.925285
 30
0.000000
  0
SEQEND
  8
LAYER-1
  0
POLYLINE
  8
LAYER-1
 66
  1
 70
  1
 62
  0
  0
VERTEX
  8
LAYER-1
 10
5.272631
 20
6.750438
 30
0.000000
  0
VERTEX
  8
LAYER-1
 10
5.724361
 20
6.750438
 30
0.000000
  0
VERTEX
  8
LAYER-1
 10
5.724361
 20
6.741581
 30
0.000000
  0
VERTEX
  8
LAYER-1
 10
5.272631
 20
6.741581
 30
0.000000
  0
SEQEND
  8
LAYER-1
  0
POLYLINE
  8
LAYER-1
 66
  1
 70
  1
 62
  0
  0
VERTEX
  8
LAYER-1
 10
3.845390
 20
1.034729
 30
0.000000
  0
VERTEX
  8
LAYER-1
 10
4.095556
 20
1.034729
 30
0.000000
  0
VERTEX
  8
LAYER-1
 10
4.095556
 20
1.025870
 30
0.000000
  0
VERTEX
  8
LAYER-1
 10
3.845390
 20
1.025870
 30
0.000000
  0
SEQEND
  8
LAYER-1
  0
POLYLINE
  8
LAYER-1
 66
  1
 70
  1
 62
  0
  0
VERTEX
  8
LAYER-1
 10
3.845390
 20
1.851032
 30
0.000000
  0
VERTEX
  8
LAYER-1
 10
4.095556
 20
1.851032
 30
0.000000
  0
VERTEX
  8
LAYER-1
 10
4.095556
 20
1.842173
 30
0.000000
  0
VERTEX
  8
LAYER-1
 10
3.845390
 20
1.842173
 30
0.000000
  0
SEQEND
  8
LAYER-1
  0
POLYLINE
  8
LAYER-1
 66
  1
 70
  1
 62
  0
  0
VERTEX
  8
LAYER-1
 10
3.845390
 20
2.667336
 30
0.000000
  0
VERTEX
  8
LAYER-1
 10
4.095556
 20
2.667336
 30
0.000000
  0
VERTEX
  8
LAYER-1
 10
4.095556
 20
2.658477
 30
0.000000
  0
VERTEX
  8
LAYER-1
 10
3.845390
 20
2.658477
 30
0.000000
  0
SEQEND
  8
LAYER-1
  0
POLYLINE
  8
LAYER-1
 66
  1
 70
  1
 62
  0
  0
VERTEX
  8
LAYER-1
 10
3.845390
 20
3.483638
 30
0.000000
  0
VERTEX
  8
LAYER-1
 10
4.095556
 20
3.483638
 30
0.000000
  0
VERTEX
  8
LAYER-1
 10
4.095556
 20
3.474781
 30
0.000000
  0
VERTEX
  8
LAYER-1
 10
3.845390
 20
3.474781
 30
0.000000
  0
SEQEND
  8
LAYER-1
  0
POLYLINE
  8
LAYER-1
 66
  1
 70
  1
 62
  0
  0
VERTEX
  8
LAYER-1
 10
3.845390
 20
4.299941
 30
0.000000
  0
VERTEX
  8
LAYER-1
 10
4.095556
 20
4.299941
 30
0.000000
  0
VERTEX
  8
LAYER-1
 10
4.095556
 20
4.291083
 30
0.000000
  0
VERTEX
  8
LAYER-1
 10
3.845390
 20
4.291083
 30
0.000000
  0
SEQEND
  8
LAYER-1
  0
POLYLINE
  8
LAYER-1
 66
  1
 70
  1
 62
  0
  0
VERTEX
  8
LAYER-1
 10
3.845390
 20
5.116246
 30
0.000000
  0
VERTEX
  8
LAYER-1
 10
4.095556
 20
5.116246
 30
0.000000
  0
VERTEX
  8
LAYER-1
 10
4.095556
 20
5.107389
 30
0.000000
  0
VERTEX
  8
LAYER-1
 10
3.845390
 20
5.107389
 30
0.000000
  0
SEQEND
  8
LAYER-1
  0
POLYLINE
  8
LAYER-1
 66
  1
 70
  1
 62
  0
  0
VERTEX
  8
LAYER-1
 10
3.845390
 20
5.932550
 30
0.000000
  0
VERTEX
  8
LAYER-1
 10
4.095556
 20
5.932550
 30
0.000000
  0
VERTEX
  8
LAYER-1
 10
4.095556
 20
5.923692
 30
0.000000
  0
VERTEX
  8
LAYER-1
 10
3.845390
 20
5.923692
 30
0.000000
  0
SEQEND
  8
LAYER-1
  0
POLYLINE
  8
LAYER-1
 66
  1
 70
  1
 62
  0
  0
VERTEX
  8
LAYER-1
 10
3.845390
 20
6.748846
 30
0.000000
  0
VERTEX
  8
LAYER-1
 10
4.095556
 20
6.748846
 30
0.000000
  0
VERTEX
  8
LAYER-1
 10
4.095556
 20
6.739988
 30
0.000000
  0
VERTEX
  8
LAYER-1
 10
3.845390
 20
6.739988
 30
0.000000
  0
SEQEND
  8
LAYER-1
  0
POLYLINE
  8
LAYER-1
 66
  1
 70
  0
 62
  0
 10
3.885418
 20
7.415441
 30
0.000000
  0
VERTEX
  8
LAYER-1
 10
3.885418
 20
7.415441
 30
0.000000
  0
VERTEX
  8
LAYER-1
 10
3.885418
 20
7.143693
 30
0.000000
  0
SEQEND
  8
LAYER-1
  0
POLYLINE
  8
LAYER-1
 66
  1
 70
  0
 62
  0
 10
3.885407
 20
0.616781
 30
0.000000
  0
VERTEX
  8
LAYER-1
 10
3.885407
 20
0.616781
 30
0.000000
  0
VERTEX
  8
LAYER-1
 10
3.885407
 20
0.345082
 30
0.000000
  0
SEQEND
  8
LAYER-1
  0
POLYLINE
  8
LAYER-1
 66
  1
 70
  0
 62
  0
 10
4.106327
 20
0.344643
 30
0.000000
  0
VERTEX
  8
LAYER-1
 10
4.106327
 20
0.344643
 30
0.000000
  0
VERTEX
  8
LAYER-1
 10
4.106327
 20
0.616274
 30
0.000000
  0
SEQEND
  8
LAYER-1
  0
POLYLINE
  8
LAYER-1
 66
  1
 70
  0
 62
  0
 10
4.436824
 20
0.616274
 30
0.000000
  0
VERTEX
  8
LAYER-1
 10
4.436824
 20
0.616274
 30
0.000000
  0
VERTEX
  8
LAYER-1
 10
4.436824
 20
0.344643
 30
0.000000
  0
SEQEND
  8
LAYER-1
  0
POLYLINE
  8
LAYER-1
 66
  1
 70
  0
 62
  0
 10
5.249655
 20
0.616274
 30
0.000000
  0
VERTEX
  8
LAYER-1
 10
5.249655
 20
0.616274
 30
0.000000
  0
VERTEX
  8
LAYER-1
 10
5.249655
 20
0.344643
 30
0.000000
  0
SEQEND
  8
LAYER-1
  0
POLYLINE
  8
LAYER-1
 66
  1
 70
  0
 62
  0
 10
5.068488
 20
0.344603
 30
0.000000
  0
VERTEX
  8
LAYER-1
 10
5.068488
 20
0.344603
 30
0.000000
  0
VERTEX
  8
LAYER-1
 10
5.068488
 20
0.616231
 30
0.000000
  0
SEQEND
  8
LAYER-1
  0
POLYLINE
  8
LAYER-1
 66
  1
 70
  0
 62
  0
 10
5.108347
 20
0.344603
 30
0.000000
  0
VERTEX
  8
LAYER-1
 10
5.108347
 20
0.344603
 30
0.000000
  0
VERTEX
  8
LAYER-1
 10
5.108347
 20
0.616231
 30
0.000000
  0
SEQEND
  8
LAYER-1
  0
POLYLINE
  8
LAYER-1
 66
  1
 70
  0
 62
  0
 10
4.254471
 20
0.344603
 30
0.000000
  0
VERTEX
  8
LAYER-1
 10
4.254471
 20
0.344603
 30
0.000000
  0
VERTEX
  8
LAYER-1
 10
4.254471
 20
0.616231
 30
0.000000
  0
SEQEND
  8
LAYER-1
  0
POLYLINE
  8
LAYER-1
 66
  1
 70
  0
 62
  0
 10
4.293287
 20
0.344603
 30
0.000000
  0
VERTEX
  8
LAYER-1
 10
4.293287
 20
0.344603
 30
0.000000
  0
VERTEX
  8
LAYER-1
 10
4.293287
 20
0.616231
 30
0.000000
  0
SEQEND
  8
LAYER-1
  0
POLYLINE
  8
LAYER-1
 66
  1
 70
  0
 62
  0
 10
4.521146
 20
0.344643
 30
0.000000
  0
VERTEX
  8
LAYER-1
 10
4.521146
 20
0.344643
 30
0.000000
  0
VERTEX
  8
LAYER-1
 10
4.521146
 20
0.616274
 30
0.000000
  0
SEQEND
  8
LAYER-1
  0
POLYLINE
  8
LAYER-1
 66
  1
 70
  0
 62
  0
 10
5.333977
 20
0.344643
 30
0.000000
  0
VERTEX
  8
LAYER-1
 10
5.333977
 20
0.344643
 30
0.000000
  0
VERTEX
  8
LAYER-1
 10
5.333977
 20
0.616274
 30
0.000000
  0
SEQEND
  8
LAYER-1
  0
POLYLINE
  8
LAYER-1
 66
  1
 70
  0
 62
  0
 10
5.478882
 20
0.345038
 30
0.000000
  0
VERTEX
  8
LAYER-1
 10
5.478882
 20
0.345038
 30
0.000000
  0
VERTEX
  8
LAYER-1
 10
5.478882
 20
0.616666
 30
0.000000
  0
SEQEND
  8
LAYER-1
  0
POLYLINE
  8
LAYER-1
 66
  1
 70
  0
 62
  0
 10
5.517265
 20
0.345038
 30
0.000000
  0
VERTEX
  8
LAYER-1
 10
5.517265
 20
0.345038
 30
0.000000
  0
VERTEX
  8
LAYER-1
 10
5.517265
 20
0.616666
 30
0.000000
  0
SEQEND
  8
LAYER-1
  0
POLYLINE
  8
LAYER-1
 66
  1
 70
  0
 62
  0
 10
4.661044
 20
0.344568
 30
0.000000
  0
VERTEX
  8
LAYER-1
 10
4.661044
 20
0.344568
 30
0.000000
  0
VERTEX
  8
LAYER-1
 10
4.661044
 20
0.616195
 30
0.000000
  0
SEQEND
  8
LAYER-1
  0
POLYLINE
  8
LAYER-1
 66
  1
 70
  0
 62
  0
 10
4.699426
 20
0.344568
 30
0.000000
  0
VERTEX
  8
LAYER-1
 10
4.699426
 20
0.344568
 30
0.000000
  0
VERTEX
  8
LAYER-1
 10
4.699426
 20
0.616195
 30
0.000000
  0
SEQEND
  8
LAYER-1
  0
POLYLINE
  8
LAYER-1
 66
  1
 70
  0
 62
  0
 10
4.033995
 20
0.616270
 30
0.000000
  0
VERTEX
  8
LAYER-1
 10
4.033995
 20
0.616270
 30
0.000000
  0
VERTEX
  8
LAYER-1
 10
4.033995
 20
0.344642
 30
0.000000
  0
SEQEND
  8
LAYER-1
  0
POLYLINE
  8
LAYER-1
 66
  1
 70
  0
 62
  0
 10
4.069424
 20
0.344642
 30
0.000000
  0
VERTEX
  8
LAYER-1
 10
4.069424
 20
0.344642
 30
0.000000
  0
VERTEX
  8
LAYER-1
 10
4.069424
 20
0.616272
 30
0.000000
  0
SEQEND
  8
LAYER-1
  0
POLYLINE
  8
LAYER-1
 66
  1
 70
  0
 62
  0
 10
4.034899
 20
0.344642
 30
0.000000
  0
VERTEX
  8
LAYER-1
 10
4.034899
 20
0.344642
 30
0.000000
  0
VERTEX
  8
LAYER-1
 10
4.044838
 20
0.337641
 30
0.000000
  0
VERTEX
  8
LAYER-1
 10
4.059600
 20
0.339719
 30
0.000000
  0
VERTEX
  8
LAYER-1
 10
4.068453
 20
0.344630
 30
0.000000
  0
SEQEND
  8
LAYER-1
  0
POLYLINE
  8
LAYER-1
 66
  1
 70
  0
 62
  0
 10
4.069424
 20
0.344642
 30
0.000000
  0
VERTEX
  8
LAYER-1
 10
4.069424
 20
0.344642
 30
0.000000
  0
VERTEX
  8
LAYER-1
 10
4.082595
 20
0.337595
 30
0.000000
  0
VERTEX
  8
LAYER-1
 10
4.099675
 20
0.341926
 30
0.000000
  0
VERTEX
  8
LAYER-1
 10
4.106326
 20
0.344643
 30
0.000000
  0
SEQEND
  8
LAYER-1
  0
POLYLINE
  8
LAYER-1
 66
  1
 70
  0
 62
  0
 10
4.484978
 20
0.345135
 30
0.000000
  0
VERTEX
  8
LAYER-1
 10
4.484978
 20
0.345135
 30
0.000000
  0
VERTEX
  8
LAYER-1
 10
4.500545
 20
0.339080
 30
0.000000
  0
VERTEX
  8
LAYER-1
 10
4.518619
 20
0.345806
 30
0.000000
  0
VERTEX
  8
LAYER-1
 10
4.521885
 20
0.345135
 30
0.000000
  0
SEQEND
  8
LAYER-1
  0
POLYLINE
  8
LAYER-1
 66
  1
 70
  0
 62
  0
 10
5.297936
 20
0.344666
 30
0.000000
  0
VERTEX
  8
LAYER-1
 10
5.297936
 20
0.344666
 30
0.000000
  0
VERTEX
  8
LAYER-1
 10
5.313504
 20
0.338611
 30
0.000000
  0
VERTEX
  8
LAYER-1
 10
5.331577
 20
0.345336
 30
0.000000
  0
VERTEX
  8
LAYER-1
 10
5.334844
 20
0.344666
 30
0.000000
  0
SEQEND
  8
LAYER-1
  0
POLYLINE
  8
LAYER-1
 66
  1
 70
  0
 62
  0
 10
4.437269
 20
0.345135
 30
0.000000
  0
VERTEX
  8
LAYER-1
 10
4.437269
 20
0.345135
 30
0.000000
  0
VERTEX
  8
LAYER-1
 10
4.452836
 20
0.339080
 30
0.000000
  0
VERTEX
  8
LAYER-1
 10
4.470910
 20
0.345806
 30
0.000000
  0
VERTEX
  8
LAYER-1
 10
4.474176
 20
0.345135
 30
0.000000
  0
SEQEND
  8
LAYER-1
  0
POLYLINE
  8
LAYER-1
 66
  1
 70
  0
 62
  0
 10
4.459212
 20
0.344577
 30
0.000000
  0
VERTEX
  8
LAYER-1
 10
4.459212
 20
0.344577
 30
0.000000
  0
VERTEX
  8
LAYER-1
 10
4.466027
 20
0.335509
 30
0.000000
  0
VERTEX
  8
LAYER-1
 10
4.480042
 20
0.333915
 30
0.000000
  0
VERTEX
  8
LAYER-1
 10
4.491079
 20
0.342698
 30
0.000000
  0
VERTEX
  8
LAYER-1
 10
4.494641
 20
0.344577
 30
0.000000
  0
SEQEND
  8
LAYER-1
  0
POLYLINE
  8
LAYER-1
 66
  1
 70
  0
 62
  0
 10
4.459212
 20
0.344577
 30
0.000000
  0
VERTEX
  8
LAYER-1
 10
4.459212
 20
0.344577
 30
0.000000
  0
VERTEX
  8
LAYER-1
 10
4.494641
 20
0.344577
 30
0.000000
  0
SEQEND
  8
LAYER-1
  0
POLYLINE
  8
LAYER-1
 66
  1
 70
  0
 62
  0
 10
5.249286
 20
0.344665
 30
0.000000
  0
VERTEX
  8
LAYER-1
 10
5.249286
 20
0.344665
 30
0.000000
  0
VERTEX
  8
LAYER-1
 10
5.264854
 20
0.338611
 30
0.000000
  0
VERTEX
  8
LAYER-1
 10
5.282927
 20
0.345336
 30
0.000000
  0
VERTEX
  8
LAYER-1
 10
5.286193
 20
0.344666
 30
0.000000
  0
SEQEND
  8
LAYER-1
  0
POLYLINE
  8
LAYER-1
 66
  1
 70
  0
 62
  0
 10
5.275458
 20
0.344577
 30
0.000000
  0
VERTEX
  8
LAYER-1
 10
5.275458
 20
0.344577
 30
0.000000
  0
VERTEX
  8
LAYER-1
 10
5.282274
 20
0.335509
 30
0.000000
  0
VERTEX
  8
LAYER-1
 10
5.296288
 20
0.333915
 30
0.000000
  0
VERTEX
  8
LAYER-1
 10
5.307325
 20
0.342698
 30
0.000000
  0
VERTEX
  8
LAYER-1
 10
5.310887
 20
0.344577
 30
0.000000
  0
SEQEND
  8
LAYER-1
  0
POLYLINE
  8
LAYER-1
 66
  1
 70
  0
 62
  0
 10
5.275459
 20
0.344577
 30
0.000000
  0
VERTEX
  8
LAYER-1
 10
5.275459
 20
0.344577
 30
0.000000
  0
VERTEX
  8
LAYER-1
 10
5.310887
 20
0.344577
 30
0.000000
  0
SEQEND
  8
LAYER-1
  0
POLYLINE
  8
LAYER-1
 66
  1
 70
  0
 62
  0
 10
4.068147
 20
0.616859
 30
0.000000
  0
VERTEX
  8
LAYER-1
 10
4.068147
 20
0.616859
 30
0.000000
  0
VERTEX
  8
LAYER-1
 10
4.053975
 20
0.627390
 30
0.000000
  0
VERTEX
  8
LAYER-1
 10
4.039291
 20
0.624815
 30
0.000000
  0
VERTEX
  8
LAYER-1
 10
4.034928
 20
0.616299
 30
0.000000
  0
SEQEND
  8
LAYER-1
  0
POLYLINE
  8
LAYER-1
 66
  1
 70
  0
 62
  0
 10
4.068147
 20
0.616859
 30
0.000000
  0
VERTEX
  8
LAYER-1
 10
4.068147
 20
0.616859
 30
0.000000
  0
VERTEX
  8
LAYER-1
 10
4.034928
 20
0.616299
 30
0.000000
  0
SEQEND
  8
LAYER-1
  0
POLYLINE
  8
LAYER-1
 66
  1
 70
  0
 62
  0
 10
4.107260
 20
0.616296
 30
0.000000
  0
VERTEX
  8
LAYER-1
 10
4.107260
 20
0.616296
 30
0.000000
  0
VERTEX
  8
LAYER-1
 10
4.090152
 20
0.627280
 30
0.000000
  0
VERTEX
  8
LAYER-1
 10
4.073072
 20
0.622949
 30
0.000000
  0
VERTEX
  8
LAYER-1
 10
4.070357
 20
0.616297
 30
0.000000
  0
SEQEND
  8
LAYER-1
  0
POLYLINE
  8
LAYER-1
 66
  1
 70
  0
 62
  0
 10
4.107259
 20
0.616297
 30
0.000000
  0
VERTEX
  8
LAYER-1
 10
4.107259
 20
0.616297
 30
0.000000
  0
VERTEX
  8
LAYER-1
 10
4.070357
 20
0.616299
 30
0.000000
  0
SEQEND
  8
LAYER-1
  0
POLYLINE
  8
LAYER-1
 66
  1
 70
  0
 62
  0
 10
4.474102
 20
0.616743
 30
0.000000
  0
VERTEX
  8
LAYER-1
 10
4.474102
 20
0.616743
 30
0.000000
  0
VERTEX
  8
LAYER-1
 10
4.454598
 20
0.626735
 30
0.000000
  0
VERTEX
  8
LAYER-1
 10
4.436525
 20
0.620010
 30
0.000000
  0
VERTEX
  8
LAYER-1
 10
4.437194
 20
0.616745
 30
0.000000
  0
SEQEND
  8
LAYER-1
  0
POLYLINE
  8
LAYER-1
 66
  1
 70
  0
 62
  0
 10
4.521343
 20
0.616743
 30
0.000000
  0
VERTEX
  8
LAYER-1
 10
4.521343
 20
0.616743
 30
0.000000
  0
VERTEX
  8
LAYER-1
 10
4.501840
 20
0.626735
 30
0.000000
  0
VERTEX
  8
LAYER-1
 10
4.483766
 20
0.620010
 30
0.000000
  0
VERTEX
  8
LAYER-1
 10
4.484436
 20
0.616745
 30
0.000000
  0
SEQEND
  8
LAYER-1
  0
POLYLINE
  8
LAYER-1
 66
  1
 70
  0
 62
  0
 10
4.494097
 20
0.616832
 30
0.000000
  0
VERTEX
  8
LAYER-1
 10
4.494097
 20
0.616832
 30
0.000000
  0
VERTEX
  8
LAYER-1
 10
4.483345
 20
0.629838
 30
0.000000
  0
VERTEX
  8
LAYER-1
 10
4.469330
 20
0.631432
 30
0.000000
  0
VERTEX
  8
LAYER-1
 10
4.458293
 20
0.622648
 30
0.000000
  0
VERTEX
  8
LAYER-1
 10
4.458668
 20
0.616832
 30
0.000000
  0
SEQEND
  8
LAYER-1
  0
POLYLINE
  8
LAYER-1
 66
  1
 70
  0
 62
  0
 10
4.458669
 20
0.616833
 30
0.000000
  0
VERTEX
  8
LAYER-1
 10
4.458669
 20
0.616833
 30
0.000000
  0
VERTEX
  8
LAYER-1
 10
4.494097
 20
0.616833
 30
0.000000
  0
SEQEND
  8
LAYER-1
  0
POLYLINE
  8
LAYER-1
 66
  1
 70
  0
 62
  0
 10
5.286657
 20
0.616743
 30
0.000000
  0
VERTEX
  8
LAYER-1
 10
5.286657
 20
0.616743
 30
0.000000
  0
VERTEX
  8
LAYER-1
 10
5.267153
 20
0.626735
 30
0.000000
  0
VERTEX
  8
LAYER-1
 10
5.249079
 20
0.620010
 30
0.000000
  0
VERTEX
  8
LAYER-1
 10
5.249750
 20
0.616745
 30
0.000000
  0
SEQEND
  8
LAYER-1
  0
POLYLINE
  8
LAYER-1
 66
  1
 70
  0
 62
  0
 10
5.334837
 20
0.616743
 30
0.000000
  0
VERTEX
  8
LAYER-1
 10
5.334837
 20
0.616743
 30
0.000000
  0
VERTEX
  8
LAYER-1
 10
5.315333
 20
0.626735
 30
0.000000
  0
VERTEX
  8
LAYER-1
 10
5.297260
 20
0.620010
 30
0.000000
  0
VERTEX
  8
LAYER-1
 10
5.297930
 20
0.616745
 30
0.000000
  0
SEQEND
  8
LAYER-1
  0
POLYLINE
  8
LAYER-1
 66
  1
 70
  0
 62
  0
 10
5.310882
 20
0.616832
 30
0.000000
  0
VERTEX
  8
LAYER-1
 10
5.310882
 20
0.616832
 30
0.000000
  0
VERTEX
  8
LAYER-1
 10
5.300129
 20
0.629838
 30
0.000000
  0
VERTEX
  8
LAYER-1
 10
5.286114
 20
0.631432
 30
0.000000
  0
VERTEX
  8
LAYER-1
 10
5.275077
 20
0.622648
 30
0.000000
  0
VERTEX
  8
LAYER-1
 10
5.275453
 20
0.616832
 30
0.000000
  0
SEQEND
  8
LAYER-1
  0
POLYLINE
  8
LAYER-1
 66
  1
 70
  0
 62
  0
 10
5.275453
 20
0.616833
 30
0.000000
  0
VERTEX
  8
LAYER-1
 10
5.275453
 20
0.616833
 30
0.000000
  0
VERTEX
  8
LAYER-1
 10
5.310880
 20
0.616833
 30
0.000000
  0
SEQEND
  8
LAYER-1
  0
POLYLINE
  8
LAYER-1
 66
  1
 70
  1
 62
  0
  0
VERTEX
  8
LAYER-1
 10
4.494642
 20
0.344643
 30
0.000000
  0
VERTEX
  8
LAYER-1
 10
4.459212
 20
0.344643
 30
0.000000
  0
VERTEX
  8
LAYER-1
 10
4.459212
 20
0.616272
 30
0.000000
  0
VERTEX
  8
LAYER-1
 10
4.494642
 20
0.616272
 30
0.000000
  0
SEQEND
  8
LAYER-1
  0
POLYLINE
  8
LAYER-1
 66
  1
 70
  1
 62
  0
  0
VERTEX
  8
LAYER-1
 10
5.310955
 20
0.344643
 30
0.000000
  0
VERTEX
  8
LAYER-1
 10
5.275525
 20
0.344643
 30
0.000000
  0
VERTEX
  8
LAYER-1
 10
5.275525
 20
0.616272
 30
0.000000
  0
VERTEX
  8
LAYER-1
 10
5.310955
 20
0.616272
 30
0.000000
  0
SEQEND
  8
LAYER-1
  0
POLYLINE
  8
LAYER-1
 66
  1
 70
  0
 62
  0
 10
4.459212
 20
0.412549
 30
0.000000
  0
VERTEX
  8
LAYER-1
 10
4.459212
 20
0.412549
 30
0.000000
  0
VERTEX
  8
LAYER-1
 10
4.494642
 20
0.412549
 30
0.000000
  0
SEQEND
  8
LAYER-1
  0
POLYLINE
  8
LAYER-1
 66
  1
 70
  0
 62
  0
 10
4.459212
 20
0.542458
 30
0.000000
  0
VERTEX
  8
LAYER-1
 10
4.459212
 20
0.542458
 30
0.000000
  0
VERTEX
  8
LAYER-1
 10
4.494642
 20
0.542458
 30
0.000000
  0
SEQEND
  8
LAYER-1
  0
POLYLINE
  8
LAYER-1
 66
  1
 70
  0
 62
  0
 10
5.275525
 20
0.412549
 30
0.000000
  0
VERTEX
  8
LAYER-1
 10
5.275525
 20
0.412549
 30
0.000000
  0
VERTEX
  8
LAYER-1
 10
5.310954
 20
0.412549
 30
0.000000
  0
SEQEND
  8
LAYER-1
  0
POLYLINE
  8
LAYER-1
 66
  1
 70
  0
 62
  0
 10
5.275525
 20
0.542458
 30
0.000000
  0
VERTEX
  8
LAYER-1
 10
5.275525
 20
0.542458
 30
0.000000
  0
VERTEX
  8
LAYER-1
 10
5.310954
 20
0.542458
 30
0.000000
  0
SEQEND
  8
LAYER-1
  0
POLYLINE
  8
LAYER-1
 66
  1
 70
  0
 62
  0
 10
4.256880
 20
0.345085
 30
0.000000
  0
VERTEX
  8
LAYER-1
 10
4.256880
 20
0.345085
 30
0.000000
  0
VERTEX
  8
LAYER-1
 10
4.266819
 20
0.338086
 30
0.000000
  0
VERTEX
  8
LAYER-1
 10
4.281583
 20
0.340163
 30
0.000000
  0
VERTEX
  8
LAYER-1
 10
4.290099
 20
0.344527
 30
0.000000
  0
SEQEND
  8
LAYER-1
  0
POLYLINE
  8
LAYER-1
 66
  1
 70
  0
 62
  0
 10
5.070373
 20
0.344703
 30
0.000000
  0
VERTEX
  8
LAYER-1
 10
5.070373
 20
0.344703
 30
0.000000
  0
VERTEX
  8
LAYER-1
 10
5.083545
 20
0.337658
 30
0.000000
  0
VERTEX
  8
LAYER-1
 10
5.100625
 20
0.341989
 30
0.000000
  0
VERTEX
  8
LAYER-1
 10
5.107278
 20
0.344705
 30
0.000000
  0
SEQEND
  8
LAYER-1
  0
POLYLINE
  8
LAYER-1
 66
  1
 70
  0
 62
  0
 10
4.883178
 20
0.616860
 30
0.000000
  0
VERTEX
  8
LAYER-1
 10
4.883178
 20
0.616860
 30
0.000000
  0
VERTEX
  8
LAYER-1
 10
4.869005
 20
0.627392
 30
0.000000
  0
VERTEX
  8
LAYER-1
 10
4.854321
 20
0.624817
 30
0.000000
  0
VERTEX
  8
LAYER-1
 10
4.849959
 20
0.616301
 30
0.000000
  0
SEQEND
  8
LAYER-1
  0
POLYLINE
  8
LAYER-1
 66
  1
 70
  0
 62
  0
 10
4.883177
 20
0.616860
 30
0.000000
  0
VERTEX
  8
LAYER-1
 10
4.883177
 20
0.616860
 30
0.000000
  0
VERTEX
  8
LAYER-1
 10
4.849959
 20
0.616301
 30
0.000000
  0
SEQEND
  8
LAYER-1
  0
POLYLINE
  8
LAYER-1
 66
  1
 70
  0
 62
  0
 10
4.922290
 20
0.616300
 30
0.000000
  0
VERTEX
  8
LAYER-1
 10
4.922290
 20
0.616300
 30
0.000000
  0
VERTEX
  8
LAYER-1
 10
4.905182
 20
0.627285
 30
0.000000
  0
VERTEX
  8
LAYER-1
 10
4.888102
 20
0.622953
 30
0.000000
  0
VERTEX
  8
LAYER-1
 10
4.885386
 20
0.616301
 30
0.000000
  0
SEQEND
  8
LAYER-1
  0
POLYLINE
  8
LAYER-1
 66
  1
 70
  0
 62
  0
 10
4.922290
 20
0.616299
 30
0.000000
  0
VERTEX
  8
LAYER-1
 10
4.922290
 20
0.616299
 30
0.000000
  0
VERTEX
  8
LAYER-1
 10
4.885387
 20
0.616301
 30
0.000000
  0
SEQEND
  8
LAYER-1
  0
POLYLINE
  8
LAYER-1
 66
  1
 70
  0
 62
  0
 10
4.921119
 20
0.344643
 30
0.000000
  0
VERTEX
  8
LAYER-1
 10
4.921119
 20
0.344643
 30
0.000000
  0
VERTEX
  8
LAYER-1
 10
4.921119
 20
0.616274
 30
0.000000
  0
SEQEND
  8
LAYER-1
  0
POLYLINE
  8
LAYER-1
 66
  1
 70
  0
 62
  0
 10
4.848785
 20
0.616270
 30
0.000000
  0
VERTEX
  8
LAYER-1
 10
4.848785
 20
0.616270
 30
0.000000
  0
VERTEX
  8
LAYER-1
 10
4.848785
 20
0.344642
 30
0.000000
  0
SEQEND
  8
LAYER-1
  0
POLYLINE
  8
LAYER-1
 66
  1
 70
  0
 62
  0
 10
4.884215
 20
0.344642
 30
0.000000
  0
VERTEX
  8
LAYER-1
 10
4.884215
 20
0.344642
 30
0.000000
  0
VERTEX
  8
LAYER-1
 10
4.884215
 20
0.616272
 30
0.000000
  0
SEQEND
  8
LAYER-1
  0
POLYLINE
  8
LAYER-1
 66
  1
 70
  0
 62
  0
 10
4.849090
 20
0.344783
 30
0.000000
  0
VERTEX
  8
LAYER-1
 10
4.849090
 20
0.344783
 30
0.000000
  0
VERTEX
  8
LAYER-1
 10
4.859030
 20
0.337784
 30
0.000000
  0
VERTEX
  8
LAYER-1
 10
4.873793
 20
0.339862
 30
0.000000
  0
VERTEX
  8
LAYER-1
 10
4.882309
 20
0.344225
 30
0.000000
  0
SEQEND
  8
LAYER-1
  0
POLYLINE
  8
LAYER-1
 66
  1
 70
  0
 62
  0
 10
4.882309
 20
0.344222
 30
0.000000
  0
VERTEX
  8
LAYER-1
 10
4.882309
 20
0.344222
 30
0.000000
  0
VERTEX
  8
LAYER-1
 10
4.849090
 20
0.344783
 30
0.000000
  0
SEQEND
  8
LAYER-1
  0
POLYLINE
  8
LAYER-1
 66
  1
 70
  0
 62
  0
 10
4.884519
 20
0.344783
 30
0.000000
  0
VERTEX
  8
LAYER-1
 10
4.884519
 20
0.344783
 30
0.000000
  0
VERTEX
  8
LAYER-1
 10
4.897690
 20
0.337737
 30
0.000000
  0
VERTEX
  8
LAYER-1
 10
4.914769
 20
0.342068
 30
0.000000
  0
VERTEX
  8
LAYER-1
 10
4.921422
 20
0.344785
 30
0.000000
  0
SEQEND
  8
LAYER-1
  0
POLYLINE
  8
LAYER-1
 66
  1
 70
  0
 62
  0
 10
4.921421
 20
0.344783
 30
0.000000
  0
VERTEX
  8
LAYER-1
 10
4.921421
 20
0.344783
 30
0.000000
  0
VERTEX
  8
LAYER-1
 10
4.884519
 20
0.344783
 30
0.000000
  0
SEQEND
  8
LAYER-1
  0
POLYLINE
  8
LAYER-1
 66
  1
 70
  0
 62
  0
 10
5.703177
 20
0.616860
 30
0.000000
  0
VERTEX
  8
LAYER-1
 10
5.703177
 20
0.616860
 30
0.000000
  0
VERTEX
  8
LAYER-1
 10
5.689005
 20
0.627392
 30
0.000000
  0
VERTEX
  8
LAYER-1
 10
5.674320
 20
0.624817
 30
0.000000
  0
VERTEX
  8
LAYER-1
 10
5.669958
 20
0.616301
 30
0.000000
  0
SEQEND
  8
LAYER-1
  0
POLYLINE
  8
LAYER-1
 66
  1
 70
  0
 62
  0
 10
5.703177
 20
0.616860
 30
0.000000
  0
VERTEX
  8
LAYER-1
 10
5.703177
 20
0.616860
 30
0.000000
  0
VERTEX
  8
LAYER-1
 10
5.669959
 20
0.616301
 30
0.000000
  0
SEQEND
  8
LAYER-1
  0
POLYLINE
  8
LAYER-1
 66
  1
 70
  0
 62
  0
 10
5.742290
 20
0.616300
 30
0.000000
  0
VERTEX
  8
LAYER-1
 10
5.742290
 20
0.616300
 30
0.000000
  0
VERTEX
  8
LAYER-1
 10
5.725182
 20
0.627285
 30
0.000000
  0
VERTEX
  8
LAYER-1
 10
5.708102
 20
0.622953
 30
0.000000
  0
VERTEX
  8
LAYER-1
 10
5.705386
 20
0.616301
 30
0.000000
  0
SEQEND
  8
LAYER-1
  0
POLYLINE
  8
LAYER-1
 66
  1
 70
  0
 62
  0
 10
5.742290
 20
0.616299
 30
0.000000
  0
VERTEX
  8
LAYER-1
 10
5.742290
 20
0.616299
 30
0.000000
  0
VERTEX
  8
LAYER-1
 10
5.705387
 20
0.616301
 30
0.000000
  0
SEQEND
  8
LAYER-1
  0
POLYLINE
  8
LAYER-1
 66
  1
 70
  0
 62
  0
 10
5.741119
 20
0.344643
 30
0.000000
  0
VERTEX
  8
LAYER-1
 10
5.741119
 20
0.344643
 30
0.000000
  0
VERTEX
  8
LAYER-1
 10
5.741119
 20
0.616274
 30
0.000000
  0
SEQEND
  8
LAYER-1
  0
POLYLINE
  8
LAYER-1
 66
  1
 70
  0
 62
  0
 10
5.668785
 20
0.616270
 30
0.000000
  0
VERTEX
  8
LAYER-1
 10
5.668785
 20
0.616270
 30
0.000000
  0
VERTEX
  8
LAYER-1
 10
5.668785
 20
0.344642
 30
0.000000
  0
SEQEND
  8
LAYER-1
  0
POLYLINE
  8
LAYER-1
 66
  1
 70
  0
 62
  0
 10
5.704215
 20
0.344642
 30
0.000000
  0
VERTEX
  8
LAYER-1
 10
5.704215
 20
0.344642
 30
0.000000
  0
VERTEX
  8
LAYER-1
 10
5.704215
 20
0.616272
 30
0.000000
  0
SEQEND
  8
LAYER-1
  0
POLYLINE
  8
LAYER-1
 66
  1
 70
  0
 62
  0
 10
5.669090
 20
0.344783
 30
0.000000
  0
VERTEX
  8
LAYER-1
 10
5.669090
 20
0.344783
 30
0.000000
  0
VERTEX
  8
LAYER-1
 10
5.679030
 20
0.337784
 30
0.000000
  0
VERTEX
  8
LAYER-1
 10
5.693793
 20
0.339862
 30
0.000000
  0
VERTEX
  8
LAYER-1
 10
5.702309
 20
0.344225
 30
0.000000
  0
SEQEND
  8
LAYER-1
  0
POLYLINE
  8
LAYER-1
 66
  1
 70
  0
 62
  0
 10
5.702309
 20
0.344222
 30
0.000000
  0
VERTEX
  8
LAYER-1
 10
5.702309
 20
0.344222
 30
0.000000
  0
VERTEX
  8
LAYER-1
 10
5.669090
 20
0.344783
 30
0.000000
  0
SEQEND
  8
LAYER-1
  0
POLYLINE
  8
LAYER-1
 66
  1
 70
  0
 62
  0
 10
5.704519
 20
0.344783
 30
0.000000
  0
VERTEX
  8
LAYER-1
 10
5.704519
 20
0.344783
 30
0.000000
  0
VERTEX
  8
LAYER-1
 10
5.717690
 20
0.337737
 30
0.000000
  0
VERTEX
  8
LAYER-1
 10
5.734770
 20
0.342068
 30
0.000000
  0
VERTEX
  8
LAYER-1
 10
5.741422
 20
0.344785
 30
0.000000
  0
SEQEND
  8
LAYER-1
  0
POLYLINE
  8
LAYER-1
 66
  1
 70
  0
 62
  0
 10
5.741422
 20
0.344783
 30
0.000000
  0
VERTEX
  8
LAYER-1
 10
5.741422
 20
0.344783
 30
0.000000
  0
VERTEX
  8
LAYER-1
 10
5.704519
 20
0.344783
 30
0.000000
  0
SEQEND
  8
LAYER-1
  0
POLYLINE
  8
LAYER-1
 66
  1
 70
  0
 62
  0
 10
6.017101
 20
4.433394
 30
0.000000
  0
VERTEX
  8
LAYER-1
 10
6.017101
 20
4.433394
 30
0.000000
  0
VERTEX
  8
LAYER-1
 10
5.741450
 20
4.301277
 30
0.000000
  0
SEQEND
  8
LAYER-1
  0
POLYLINE
  8
LAYER-1
 66
  1
 70
  1
 62
  0
  0
VERTEX
  8
LAYER-1
 10
5.723698
 20
4.292769
 30
0.000000
  0
VERTEX
  8
LAYER-1
 10
5.768312
 20
4.360358
 30
0.000000
  0
VERTEX
  8
LAYER-1
 10
5.786321
 20
4.322784
 30
0.000000
  0
VERTEX
  8
LAYER-1
 10
5.804330
 20
4.285210
 30
0.000000
  0
VERTEX
  8
LAYER-1
 10
5.723698
 20
4.292769
 30
0.000000
  0
SEQEND
  8
LAYER-1
  0
CIRCLE
  8
LAYER-1
 62
  0
 10
3.719007
 20
1.860231
 30
0.000000
 40
0.022565
  0
CIRCLE
  8
LAYER-1
 62
  0
 10
3.719007
 20
1.860231
 30
0.000000
 40
0.016522
  0
CIRCLE
  8
LAYER-1
 62
  0
 10
3.719007
 20
1.860231
 30
0.000000
 40
0.013746
  0
CIRCLE
  8
LAYER-1
 62
  0
 10
3.719007
 20
1.860231
 30
0.000000
 40
0.008860
  0
POLYLINE
  8
LAYER-1
 66
  1
 70
  0
 62
  0
 40
0.027778
 41
0.027778
 10
3.675675
 20
0.240700
 30
0.000000
  0
VERTEX
  8
LAYER-1
 10
3.675675
 20
0.240700
 30
0.000000
  0
VERTEX
  8
LAYER-1
 10
0.767101
 20
0.240700
 30
0.000000
  0
SEQEND
  8
LAYER-1
  0
POLYLINE
  8
LAYER-1
 66
  1
 70
  0
 62
  0
 40
0.027778
 41
0.027778
 10
3.769292
 20
0.240700
 30
0.000000
  0
VERTEX
  8
LAYER-1
 10
3.769292
 20
0.240700
 30
0.000000
  0
VERTEX
  8
LAYER-1
 10
6.760157
 20
0.240700
 30
0.000000
  0
SEQEND
  8
LAYER-1
  0
POLYLINE
  8
LAYER-1
 66
  1
 70
  0
 62
  0
 10
0.767186
 20
0.037543
 30
0.000000
  0
VERTEX
  8
LAYER-1
 10
0.767186
 20
0.037543
 30
0.000000
  0
VERTEX
  8
LAYER-1
 10
0.793699
 20
0.034088
 30
0.000000
  0
VERTEX
  8
LAYER-1
 10
0.813057
 20
0.034088
 30
0.000000
  0
VERTEX
  8
LAYER-1
 10
0.832416
 20
0.037560
 30
0.000000
  0
VERTEX
  8
LAYER-1
 10
0.851775
 20
0.037560
 30
0.000000
  0
VERTEX
  8
LAYER-1
 10
0.898235
 20
0.044504
 30
0.000000
  0
VERTEX
  8
LAYER-1
 10
0.933081
 20
0.054921
 30
0.000000
  0
VERTEX
  8
LAYER-1
 10
0.955343
 20
0.059261
 30
0.000000
  0
VERTEX
  8
LAYER-1
 10
0.977121
 20
0.060998
 30
0.000000
  0
VERTEX
  8
LAYER-1
 10
1.006643
 20
0.058394
 30
0.000000
  0
VERTEX
  8
LAYER-1
 10
1.037617
 20
0.054921
 30
0.000000
  0
VERTEX
  8
LAYER-1
 10
1.064719
 20
0.047977
 30
0.000000
  0
VERTEX
  8
LAYER-1
 10
1.084077
 20
0.044504
 30
0.000000
  0
VERTEX
  8
LAYER-1
 10
1.115051
 20
0.041033
 30
0.000000
  0
VERTEX
  8
LAYER-1
 10
1.134409
 20
0.037560
 30
0.000000
  0
VERTEX
  8
LAYER-1
 10
1.157640
 20
0.034088
 30
0.000000
  0
VERTEX
  8
LAYER-1
 10
1.184742
 20
0.034088
 30
0.000000
  0
VERTEX
  8
LAYER-1
 10
1.211844
 20
0.034088
 30
0.000000
  0
VERTEX
  8
LAYER-1
 10
1.235074
 20
0.034088
 30
0.000000
  0
VERTEX
  8
LAYER-1
 10
1.258304
 20
0.030616
 30
0.000000
  0
VERTEX
  8
LAYER-1
 10
1.297022
 20
0.030616
 30
0.000000
  0
VERTEX
  8
LAYER-1
 10
1.327995
 20
0.030616
 30
0.000000
  0
VERTEX
  8
LAYER-1
 10
1.347354
 20
0.027144
 30
0.000000
  0
VERTEX
  8
LAYER-1
 10
1.378328
 20
0.023671
 30
0.000000
  0
VERTEX
  8
LAYER-1
 10
1.409302
 20
0.020198
 30
0.000000
  0
VERTEX
  8
LAYER-1
 10
1.448019
 20
0.020198
 30
0.000000
  0
VERTEX
  8
LAYER-1
 10
1.478992
 20
0.020198
 30
0.000000
  0
VERTEX
  8
LAYER-1
 10
1.517710
 20
0.020198
 30
0.000000
  0
VERTEX
  8
LAYER-1
 10
1.548683
 20
0.027144
 30
0.000000
  0
VERTEX
  8
LAYER-1
 10
1.571913
 20
0.027144
 30
0.000000
  0
VERTEX
  8
LAYER-1
 10
1.591272
 20
0.030616
 30
0.000000
  0
VERTEX
  8
LAYER-1
 10
1.614502
 20
0.030616
 30
0.000000
  0
VERTEX
  8
LAYER-1
 10
1.633861
 20
0.030616
 30
0.000000
  0
VERTEX
  8
LAYER-1
 10
1.676450
 20
0.030616
 30
0.000000
  0
VERTEX
  8
LAYER-1
 10
1.722910
 20
0.023671
 30
0.000000
  0
VERTEX
  8
LAYER-1
 10
1.765499
 20
0.020198
 30
0.000000
  0
VERTEX
  8
LAYER-1
 10
1.827446
 20
0.013254
 30
0.000000
  0
VERTEX
  8
LAYER-1
 10
1.885522
 20
0.006310
 30
0.000000
  0
VERTEX
  8
LAYER-1
 10
1.935854
 20
0.006310
 30
0.000000
  0
VERTEX
  8
LAYER-1
 10
1.962956
 20
0.006310
 30
0.000000
  0
VERTEX
  8
LAYER-1
 10
1.997802
 20
0.006310
 30
0.000000
  0
VERTEX
  8
LAYER-1
 10
2.018128
 20
0.007178
 30
0.000000
  0
VERTEX
  8
LAYER-1
 10
2.055394
 20
0.009348
 30
0.000000
  0
VERTEX
  8
LAYER-1
 10
2.102338
 20
0.020198
 30
0.000000
  0
VERTEX
  8
LAYER-1
 10
2.144927
 20
0.034088
 30
0.000000
  0
VERTEX
  8
LAYER-1
 10
2.179771
 20
0.044504
 30
0.000000
  0
VERTEX
  8
LAYER-1
 10
2.206874
 20
0.054921
 30
0.000000
  0
VERTEX
  8
LAYER-1
 10
2.230104
 20
0.061866
 30
0.000000
  0
VERTEX
  8
LAYER-1
 10
2.253334
 20
0.061866
 30
0.000000
  0
VERTEX
  8
LAYER-1
 10
2.276565
 20
0.061866
 30
0.000000
  0
VERTEX
  8
LAYER-1
 10
2.299795
 20
0.061866
 30
0.000000
  0
VERTEX
  8
LAYER-1
 10
2.334641
 20
0.054921
 30
0.000000
  0
VERTEX
  8
LAYER-1
 10
2.365614
 20
0.047977
 30
0.000000
  0
VERTEX
  8
LAYER-1
 10
2.388844
 20
0.041033
 30
0.000000
  0
VERTEX
  8
LAYER-1
 10
2.408204
 20
0.037560
 30
0.000000
  0
VERTEX
  8
LAYER-1
 10
2.431433
 20
0.030616
 30
0.000000
  0
VERTEX
  8
LAYER-1
 10
2.450792
 20
0.023671
 30
0.000000
  0
VERTEX
  8
LAYER-1
 10
2.474022
 20
0.020198
 30
0.000000
  0
VERTEX
  8
LAYER-1
 10
2.493380
 20
0.020198
 30
0.000000
  0
VERTEX
  8
LAYER-1
 10
2.524355
 20
0.016727
 30
0.000000
  0
VERTEX
  8
LAYER-1
 10
2.551456
 20
0.016727
 30
0.000000
  0
VERTEX
  8
LAYER-1
 10
2.586302
 20
0.016727
 30
0.000000
  0
VERTEX
  8
LAYER-1
 10
2.613404
 20
0.020198
 30
0.000000
  0
VERTEX
  8
LAYER-1
 10
2.648249
 20
0.030616
 30
0.000000
  0
VERTEX
  8
LAYER-1
 10
2.667608
 20
0.030616
 30
0.000000
  0
VERTEX
  8
LAYER-1
 10
2.690838
 20
0.030616
 30
0.000000
  0
VERTEX
  8
LAYER-1
 10
2.710197
 20
0.030616
 30
0.000000
  0
VERTEX
  8
LAYER-1
 10
2.733427
 20
0.034088
 30
0.000000
  0
VERTEX
  8
LAYER-1
 10
2.756657
 20
0.037560
 30
0.000000
  0
VERTEX
  8
LAYER-1
 10
2.787631
 20
0.037560
 30
0.000000
  0
VERTEX
  8
LAYER-1
 10
2.818604
 20
0.037560
 30
0.000000
  0
VERTEX
  8
LAYER-1
 10
2.841835
 20
0.037560
 30
0.000000
  0
VERTEX
  8
LAYER-1
 10
2.865065
 20
0.037560
 30
0.000000
  0
VERTEX
  8
LAYER-1
 10
2.884424
 20
0.034088
 30
0.000000
  0
VERTEX
  8
LAYER-1
 10
2.903783
 20
0.030616
 30
0.000000
  0
VERTEX
  8
LAYER-1
 10
2.923141
 20
0.027144
 30
0.000000
  0
VERTEX
  8
LAYER-1
 10
2.942500
 20
0.023671
 30
0.000000
  0
VERTEX
  8
LAYER-1
 10
2.973473
 20
0.016727
 30
0.000000
  0
VERTEX
  8
LAYER-1
 10
2.996703
 20
0.013254
 30
0.000000
  0
VERTEX
  8
LAYER-1
 10
3.019934
 20
0.013254
 30
0.000000
  0
VERTEX
  8
LAYER-1
 10
3.039292
 20
0.013254
 30
0.000000
  0
VERTEX
  8
LAYER-1
 10
3.066394
 20
0.013254
 30
0.000000
  0
VERTEX
  8
LAYER-1
 10
3.097368
 20
0.016727
 30
0.000000
  0
VERTEX
  8
LAYER-1
 10
3.151572
 20
0.027144
 30
0.000000
  0
VERTEX
  8
LAYER-1
 10
3.198033
 20
0.037560
 30
0.000000
  0
VERTEX
  8
LAYER-1
 10
3.240621
 20
0.044504
 30
0.000000
  0
VERTEX
  8
LAYER-1
 10
3.271595
 20
0.047977
 30
0.000000
  0
VERTEX
  8
LAYER-1
 10
3.310312
 20
0.051448
 30
0.000000
  0
VERTEX
  8
LAYER-1
 10
3.341286
 20
0.054921
 30
0.000000
  0
VERTEX
  8
LAYER-1
 10
3.366936
 20
0.055790
 30
0.000000
  0
VERTEX
  8
LAYER-1
 10
3.384359
 20
0.053619
 30
0.000000
  0
VERTEX
  8
LAYER-1
 10
3.405653
 20
0.048845
 30
0.000000
  0
VERTEX
  8
LAYER-1
 10
3.426463
 20
0.037560
 30
0.000000
  0
VERTEX
  8
LAYER-1
 10
3.449694
 20
0.034088
 30
0.000000
  0
VERTEX
  8
LAYER-1
 10
3.469053
 20
0.034088
 30
0.000000
  0
VERTEX
  8
LAYER-1
 10
3.488411
 20
0.034088
 30
0.000000
  0
VERTEX
  8
LAYER-1
 10
3.507770
 20
0.034088
 30
0.000000
  0
VERTEX
  8
LAYER-1
 10
3.538745
 20
0.034088
 30
0.000000
  0
VERTEX
  8
LAYER-1
 10
3.561975
 20
0.034088
 30
0.000000
  0
VERTEX
  8
LAYER-1
 10
3.585205
 20
0.034088
 30
0.000000
  0
VERTEX
  8
LAYER-1
 10
3.604564
 20
0.034088
 30
0.000000
  0
VERTEX
  8
LAYER-1
 10
3.627794
 20
0.034088
 30
0.000000
  0
VERTEX
  8
LAYER-1
 10
3.651024
 20
0.034088
 30
0.000000
  0
VERTEX
  8
LAYER-1
 10
3.670383
 20
0.034088
 30
0.000000
  0
VERTEX
  8
LAYER-1
 10
3.697486
 20
0.034088
 30
0.000000
  0
VERTEX
  8
LAYER-1
 10
3.720715
 20
0.030616
 30
0.000000
  0
VERTEX
  8
LAYER-1
 10
3.742978
 20
0.022803
 30
0.000000
  0
VERTEX
  8
LAYER-1
 10
3.783631
 20
0.020198
 30
0.000000
  0
VERTEX
  8
LAYER-1
 10
3.821380
 20
0.023671
 30
0.000000
  0
VERTEX
  8
LAYER-1
 10
3.840738
 20
0.030616
 30
0.000000
  0
VERTEX
  8
LAYER-1
 10
3.863969
 20
0.037560
 30
0.000000
  0
VERTEX
  8
LAYER-1
 10
3.883812
 20
0.041467
 30
0.000000
  0
VERTEX
  8
LAYER-1
 10
3.906558
 20
0.047977
 30
0.000000
  0
VERTEX
  8
LAYER-1
 10
3.929787
 20
0.047977
 30
0.000000
  0
VERTEX
  8
LAYER-1
 10
3.953017
 20
0.044504
 30
0.000000
  0
VERTEX
  8
LAYER-1
 10
3.976249
 20
0.044504
 30
0.000000
  0
VERTEX
  8
LAYER-1
 10
3.999479
 20
0.044504
 30
0.000000
  0
VERTEX
  8
LAYER-1
 10
4.018838
 20
0.041033
 30
0.000000
  0
VERTEX
  8
LAYER-1
 10
4.045940
 20
0.041033
 30
0.000000
  0
VERTEX
  8
LAYER-1
 10
4.076913
 20
0.041033
 30
0.000000
  0
VERTEX
  8
LAYER-1
 10
4.107887
 20
0.047977
 30
0.000000
  0
VERTEX
  8
LAYER-1
 10
4.127246
 20
0.051448
 30
0.000000
  0
VERTEX
  8
LAYER-1
 10
4.154347
 20
0.051448
 30
0.000000
  0
VERTEX
  8
LAYER-1
 10
4.177578
 20
0.054921
 30
0.000000
  0
VERTEX
  8
LAYER-1
 10
4.208551
 20
0.058394
 30
0.000000
  0
VERTEX
  8
LAYER-1
 10
4.231782
 20
0.058394
 30
0.000000
  0
VERTEX
  8
LAYER-1
 10
4.262756
 20
0.054921
 30
0.000000
  0
VERTEX
  8
LAYER-1
 10
4.305345
 20
0.044504
 30
0.000000
  0
VERTEX
  8
LAYER-1
 10
4.336318
 20
0.034088
 30
0.000000
  0
VERTEX
  8
LAYER-1
 10
4.371163
 20
0.023671
 30
0.000000
  0
VERTEX
  8
LAYER-1
 10
4.414237
 20
0.016726
 30
0.000000
  0
VERTEX
  8
LAYER-1
 10
4.461664
 20
0.017594
 30
0.000000
  0
VERTEX
  8
LAYER-1
 10
4.516836
 20
0.020198
 30
0.000000
  0
VERTEX
  8
LAYER-1
 10
4.584107
 20
0.020198
 30
0.000000
  0
VERTEX
  8
LAYER-1
 10
4.629601
 20
0.008914
 30
0.000000
  0
VERTEX
  8
LAYER-1
 10
4.659606
 20
0.002837
 30
0.000000
  0
VERTEX
  8
LAYER-1
 10
4.682837
 20
0.001969
 30
0.000000
  0
VERTEX
  8
LAYER-1
 10
4.717682
 20
0.001970
 30
0.000000
  0
VERTEX
  8
LAYER-1
 10
4.742848
 20
0.006310
 30
0.000000
  0
VERTEX
  8
LAYER-1
 10
4.769950
 20
0.016727
 30
0.000000
  0
VERTEX
  8
LAYER-1
 10
4.804796
 20
0.023671
 30
0.000000
  0
VERTEX
  8
LAYER-1
 10
4.831897
 20
0.030616
 30
0.000000
  0
VERTEX
  8
LAYER-1
 10
4.855128
 20
0.034088
 30
0.000000
  0
VERTEX
  8
LAYER-1
 10
4.878357
 20
0.037560
 30
0.000000
  0
VERTEX
  8
LAYER-1
 10
4.905460
 20
0.041033
 30
0.000000
  0
VERTEX
  8
LAYER-1
 10
4.932561
 20
0.047977
 30
0.000000
  0
VERTEX
  8
LAYER-1
 10
4.951920
 20
0.051448
 30
0.000000
  0
VERTEX
  8
LAYER-1
 10
4.982894
 20
0.054921
 30
0.000000
  0
VERTEX
  8
LAYER-1
 10
5.006124
 20
0.061866
 30
0.000000
  0
VERTEX
  8
LAYER-1
 10
5.029838
 20
0.072717
 30
0.000000
  0
VERTEX
  8
LAYER-1
 10
5.052585
 20
0.079227
 30
0.000000
  0
VERTEX
  8
LAYER-1
 10
5.075815
 20
0.079227
 30
0.000000
  0
VERTEX
  8
LAYER-1
 10
5.102917
 20
0.079227
 30
0.000000
  0
VERTEX
  8
LAYER-1
 10
5.130018
 20
0.079227
 30
0.000000
  0
VERTEX
  8
LAYER-1
 10
5.168736
 20
0.075754
 30
0.000000
  0
VERTEX
  8
LAYER-1
 10
5.222941
 20
0.072283
 30
0.000000
  0
VERTEX
  8
LAYER-1
 10
5.265528
 20
0.072283
 30
0.000000
  0
VERTEX
  8
LAYER-1
 10
5.296502
 20
0.072283
 30
0.000000
  0
VERTEX
  8
LAYER-1
 10
5.319733
 20
0.072283
 30
0.000000
  0
VERTEX
  8
LAYER-1
 10
5.342962
 20
0.072283
 30
0.000000
  0
VERTEX
  8
LAYER-1
 10
5.373936
 20
0.075754
 30
0.000000
  0
VERTEX
  8
LAYER-1
 10
5.412654
 20
0.075754
 30
0.000000
  0
VERTEX
  8
LAYER-1
 10
5.443626
 20
0.075754
 30
0.000000
  0
VERTEX
  8
LAYER-1
 10
5.466857
 20
0.079227
 30
0.000000
  0
VERTEX
  8
LAYER-1
 10
5.497831
 20
0.079227
 30
0.000000
  0
VERTEX
  8
LAYER-1
 10
5.517189
 20
0.079227
 30
0.000000
  0
VERTEX
  8
LAYER-1
 10
5.548163
 20
0.070546
 30
0.000000
  0
VERTEX
  8
LAYER-1
 10
5.575265
 20
0.058394
 30
0.000000
  0
VERTEX
  8
LAYER-1
 10
5.610110
 20
0.044504
 30
0.000000
  0
VERTEX
  8
LAYER-1
 10
5.637213
 20
0.037560
 30
0.000000
  0
VERTEX
  8
LAYER-1
 10
5.668186
 20
0.030616
 30
0.000000
  0
VERTEX
  8
LAYER-1
 10
5.695772
 20
0.028446
 30
0.000000
  0
VERTEX
  8
LAYER-1
 10
5.722391
 20
0.027144
 30
0.000000
  0
VERTEX
  8
LAYER-1
 10
5.745620
 20
0.030616
 30
0.000000
  0
VERTEX
  8
LAYER-1
 10
5.768850
 20
0.037560
 30
0.000000
  0
VERTEX
  8
LAYER-1
 10
5.795953
 20
0.041033
 30
0.000000
  0
VERTEX
  8
LAYER-1
 10
5.819183
 20
0.044504
 30
0.000000
  0
VERTEX
  8
LAYER-1
 10
5.842413
 20
0.047977
 30
0.000000
  0
VERTEX
  8
LAYER-1
 10
5.861772
 20
0.051448
 30
0.000000
  0
VERTEX
  8
LAYER-1
 10
5.885003
 20
0.051448
 30
0.000000
  0
VERTEX
  8
LAYER-1
 10
5.912105
 20
0.051448
 30
0.000000
  0
VERTEX
  8
LAYER-1
 10
5.931947
 20
0.054053
 30
0.000000
  0
VERTEX
  8
LAYER-1
 10
5.958564
 20
0.058394
 30
0.000000
  0
VERTEX
  8
LAYER-1
 10
5.981795
 20
0.065338
 30
0.000000
  0
VERTEX
  8
LAYER-1
 10
6.012769
 20
0.065338
 30
0.000000
  0
VERTEX
  8
LAYER-1
 10
6.043742
 20
0.065338
 30
0.000000
  0
VERTEX
  8
LAYER-1
 10
6.063101
 20
0.065338
 30
0.000000
  0
VERTEX
  8
LAYER-1
 10
6.117304
 20
0.058394
 30
0.000000
  0
VERTEX
  8
LAYER-1
 10
6.148278
 20
0.051448
 30
0.000000
  0
VERTEX
  8
LAYER-1
 10
6.167637
 20
0.047977
 30
0.000000
  0
VERTEX
  8
LAYER-1
 10
6.202483
 20
0.047977
 30
0.000000
  0
VERTEX
  8
LAYER-1
 10
6.226197
 20
0.055355
 30
0.000000
  0
VERTEX
  8
LAYER-1
 10
6.247974
 20
0.056223
 30
0.000000
  0
VERTEX
  8
LAYER-1
 10
6.299759
 20
0.063167
 30
0.000000
  0
VERTEX
  8
LAYER-1
 10
6.348155
 20
0.073151
 30
0.000000
  0
VERTEX
  8
LAYER-1
 10
6.384453
 20
0.076623
 30
0.000000
  0
VERTEX
  8
LAYER-1
 10
6.417363
 20
0.077057
 30
0.000000
  0
VERTEX
  8
LAYER-1
 10
6.434301
 20
0.072283
 30
0.000000
  0
VERTEX
  8
LAYER-1
 10
6.452692
 20
0.068810
 30
0.000000
  0
VERTEX
  8
LAYER-1
 10
6.483665
 20
0.063602
 30
0.000000
  0
VERTEX
  8
LAYER-1
 10
6.523834
 20
0.071848
 30
0.000000
  0
VERTEX
  8
LAYER-1
 10
6.539322
 20
0.079227
 30
0.000000
  0
VERTEX
  8
LAYER-1
 10
6.562552
 20
0.079227
 30
0.000000
  0
VERTEX
  8
LAYER-1
 10
6.585782
 20
0.079227
 30
0.000000
  0
VERTEX
  8
LAYER-1
 10
6.612884
 20
0.072283
 30
0.000000
  0
VERTEX
  8
LAYER-1
 10
6.636114
 20
0.058394
 30
0.000000
  0
VERTEX
  8
LAYER-1
 10
6.663216
 20
0.047977
 30
0.000000
  0
VERTEX
  8
LAYER-1
 10
6.690318
 20
0.037560
 30
0.000000
  0
VERTEX
  8
LAYER-1
 10
6.713548
 20
0.037560
 30
0.000000
  0
VERTEX
  8
LAYER-1
 10
6.743610
 20
0.037543
 30
0.000000
  0
VERTEX
  8
LAYER-1
 10
6.767753
 20
0.047977
 30
0.000000
  0
SEQEND
  8
LAYER-1
  0
TEXT
  8
LAYER-1
 62
  0
 10
5.850435
 20
0.544505
 30
0.000000
 40
0.125000
  1
Douille
 72
  5
 11
6.461546
 21
0.544505
 31
0.000000
  0
TEXT
  8
LAYER-1
 62
  0
 10
5.850435
 20
0.350060
 30
0.000000
 40
0.125000
  1
anti-poussiÅre
 72
  5
 11
7.030990
 21
0.350060
 31
0.000000
  0
POLYLINE
  8
LAYER-1
 66
  1
 70
  0
 62
  0
 10
5.833942
 20
0.468115
 30
0.000000
  0
VERTEX
  8
LAYER-1
 10
5.833942
 20
0.468115
 30
0.000000
  0
VERTEX
  8
LAYER-1
 10
3.770075
 20
0.158535
 30
0.000000
  0
SEQEND
  8
LAYER-1
  0
POLYLINE
  8
LAYER-1
 66
  1
 70
  1
 62
  0
  0
VERTEX
  8
LAYER-1
 10
3.750608
 20
0.155615
 30
0.000000
  0
VERTEX
  8
LAYER-1
 10
3.813103
 20
0.207122
 30
0.000000
  0
VERTEX
  8
LAYER-1
 10
3.819284
 20
0.165916
 30
0.000000
  0
VERTEX
  8
LAYER-1
 10
3.825465
 20
0.124711
 30
0.000000
  0
VERTEX
  8
LAYER-1
 10
3.750608
 20
0.155615
 30
0.000000
  0
SEQEND
  8
LAYER-1
  0
TEXT
  8
LAYER-1
 62
  0
 10
1.808768
 20
8.461171
 30
0.000000
 40
0.125000
  1
GRILLE REPLIABLE AJOURâE
 72
  5
 11
4.239323
 21
8.461171
 31
0.000000
  0
LINE
  8
LAYER-1
 62
  0
 10
5.867793
 20
5.117839
 30
0.000000
 11
5.867793
 21
5.925285
 31
0.000000
  0
LINE
  8
LAYER-1
 62
  0
 10
5.787295
 20
5.117839
 30
0.000000
 11
5.992793
 21
5.117839
 31
0.000000
  0
LINE
  8
LAYER-1
 62
  0
 10
5.787729
 20
5.925285
 30
0.000000
 11
5.992793
 21
5.925285
 31
0.000000
  0
LINE
  8
LAYER-1
 62
  0
 10
5.867793
 20
5.732682
 30
0.000000
 11
5.867793
 21
5.117839
 31
0.000000
  0
LINE
  8
LAYER-1
 62
  0
 10
5.838330
 20
5.147302
 30
0.000000
 11
5.897255
 21
5.088376
 31
0.000000
  0
LINE
  8
LAYER-1
 62
  0
 10
5.838330
 20
5.954748
 30
0.000000
 11
5.897255
 21
5.895822
 31
0.000000
  0
TEXT
  8
LAYER-1
 62
  0
 10
6.023162
 20
5.453185
 30
0.000000
 40
0.125000
  1
      
 50
90.000000
  0
TEXT
  8
LAYER-1
 62
  0
 10
6.142101
 20
5.572283
 30
0.000000
 40
0.125000
  1
12"
 72
  5
 11
6.461546
 21
5.572283
 31
0.000000
  0
TEXT
  8
LAYER-1
 62
  0
 10
5.961546
 20
5.377838
 30
0.000000
 40
0.125000
  1
305mm
 72
  5
 11
6.628212
 21
5.377838
 31
0.000000
  0
LINE
  8
LAYER-1
 62
  0
 10
5.867795
 20
7.413239
 30
0.000000
 11
5.867795
 21
7.145199
 31
0.000000
  0
LINE
  8
LAYER-1
 62
  0
 10
5.784673
 20
7.413239
 30
0.000000
 11
5.992795
 21
7.413239
 31
0.000000
  0
LINE
  8
LAYER-1
 62
  0
 10
5.790537
 20
7.145199
 30
0.000000
 11
5.992795
 21
7.145199
 31
0.000000
  0
LINE
  8
LAYER-1
 62
  0
 10
5.897258
 20
7.383775
 30
0.000000
 11
5.838333
 21
7.442702
 31
0.000000
  0
LINE
  8
LAYER-1
 62
  0
 10
5.897258
 20
7.115736
 30
0.000000
 11
5.838333
 21
7.174662
 31
0.000000
  0
TEXT
  8
LAYER-1
 62
  0
 10
5.745911
 20
7.270855
 30
0.000000
 40
0.125000
  1
 
 50
90.000000
  0
TEXT
  8
LAYER-1
 62
  0
 10
6.183768
 20
7.294505
 30
0.000000
 40
0.125000
  1
4"
 72
  5
 11
6.405990
 21
7.294505
 31
0.000000
  0
TEXT
  8
LAYER-1
 62
  0
 10
5.961546
 20
7.100060
 30
0.000000
 40
0.125000
  1
102mm
 72
  5
 11
6.628212
 21
7.100060
 31
0.000000
  0
LINE
  8
LAYER-1
 62
  0
 10
4.474565
 20
7.676448
 30
0.000000
 11
4.884288
 21
7.676448
 31
0.000000
  0
LINE
  8
LAYER-1
 62
  0
 10
4.474565
 20
7.306658
 30
0.000000
 11
4.474565
 21
7.801448
 31
0.000000
  0
LINE
  8
LAYER-1
 62
  0
 10
4.884288
 20
7.304921
 30
0.000000
 11
4.884288
 21
7.801448
 31
0.000000
  0
LINE
  8
LAYER-1
 62
  0
 10
4.504028
 20
7.705911
 30
0.000000
 11
4.445103
 21
7.646986
 31
0.000000
  0
LINE
  8
LAYER-1
 62
  0
 10
4.913751
 20
7.705911
 30
0.000000
 11
4.854825
 21
7.646986
 31
0.000000
  0
TEXT
  8
LAYER-1
 62
  0
 10
4.670864
 20
7.799973
 30
0.000000
 40
0.125000
  1
 
  0
TEXT
  8
LAYER-1
 62
  0
 10
4.558768
 20
8.044505
 30
0.000000
 40
0.125000
  1
6"
 72
  5
 11
4.780990
 21
8.044505
 31
0.000000
  0
TEXT
  8
LAYER-1
 62
  0
 10
4.336546
 20
7.850060
 30
0.000000
 40
0.125000
  1
152mm
 72
  5
 11
5.003212
 21
7.850060
 31
0.000000
  0
ENDSEC
  0
EOF
