  0
SECTION
  2
HEADER
999
MacDraft 5.0\0
  9
$ACADVER
  1
AC1006
  9
$CLAYER
  8
LAYER-1
  9
$EXTMIN
 10
0.000000
 20
0.000000
  9
$EXTMAX
 10
6.763574
 20
10.028803
  9
$FASTZOOM
 70
0
  9
$FILLMODE
 70
1
  0
ENDSEC
  0
SECTION
  2
TABLES
  0
TABLE
  2
LTYPE
 70
16
  0
LTYPE
  2
CONTINUOUS
 70
64
  3
Solid Line
 72
65
 73
0
 40
0.000000
  0
LTYPE
  2
LTYPE01
 70
64
  3
CUSTOM
 72
65
 73
2
 40
0.111111
 49
0.083333
 49
-0.027778
  0
LTYPE
  2
LTYPE02
 70
64
  3
CUSTOM
 72
65
 73
2
 40
0.194444
 49
0.166667
 49
-0.027778
  0
LTYPE
  2
LTYPE03
 70
64
  3
CUSTOM
 72
65
 73
2
 40
0.375000
 49
0.333333
 49
-0.041667
  0
LTYPE
  2
LTYPE04
 70
64
  3
CUSTOM
 72
65
 73
2
 40
0.722222
 49
0.666667
 49
-0.055556
  0
LTYPE
  2
LTYPE05
 70
64
  3
CUSTOM
 72
65
 73
4
 40
0.152778
 49
0.083333
 49
-0.027778
 49
0.013889
 49
-0.027778
  0
LTYPE
  2
LTYPE06
 70
64
  3
CUSTOM
 72
65
 73
4
 40
0.236111
 49
0.166667
 49
-0.027778
 49
0.013889
 49
-0.027778
  0
LTYPE
  2
LTYPE07
 70
64
  3
CUSTOM
 72
65
 73
4
 40
0.444444
 49
0.333333
 49
-0.041667
 49
0.027778
 49
-0.041667
  0
LTYPE
  2
LTYPE08
 70
64
  3
CUSTOM
 72
65
 73
4
 40
0.805556
 49
0.666667
 49
-0.055556
 49
0.027778
 49
-0.055556
  0
LTYPE
  2
LTYPE09
 70
64
  3
CUSTOM
 72
65
 73
6
 40
0.194444
 49
0.083333
 49
-0.027778
 49
0.013889
 49
-0.027778
 49
0.013889
 49
-0.027778
  0
LTYPE
  2
LTYPE10
 70
64
  3
CUSTOM
 72
65
 73
6
 40
0.277778
 49
0.166667
 49
-0.027778
 49
0.013889
 49
-0.027778
 49
0.013889
 49
-0.027778
  0
LTYPE
  2
LTYPE11
 70
64
  3
CUSTOM
 72
65
 73
6
 40
0.500000
 49
0.333333
 49
-0.041667
 49
0.027778
 49
-0.027778
 49
0.027778
 49
-0.041667
  0
LTYPE
  2
LTYPE12
 70
64
  3
CUSTOM
 72
65
 73
6
 40
0.861111
 49
0.666667
 49
-0.055556
 49
0.027778
 49
-0.027778
 49
0.027778
 49
-0.055556
  0
LTYPE
  2
LTYPE13
 70
64
  3
CUSTOM
 72
65
 73
8
 40
0.319444
 49
0.166667
 49
-0.027778
 49
0.013889
 49
-0.027778
 49
0.013889
 49
-0.027778
 49
0.013889
 49
-0.027778
  0
LTYPE
  2
LTYPE14
 70
64
  3
CUSTOM
 72
65
 73
8
 40
0.555556
 49
0.333333
 49
-0.041667
 49
0.027778
 49
-0.027778
 49
0.027778
 49
-0.027778
 49
0.027778
 49
-0.041667
  0
LTYPE
  2
LTYPE15
 70
64
  3
CUSTOM
 72
65
 73
8
 40
0.944444
 49
0.666667
 49
-0.055556
 49
0.027778
 49
-0.041667
 49
0.027778
 49
-0.041667
 49
0.027778
 49
-0.055556
  0
ENDTAB
  0
TABLE
  2
LAYER
 70
1
  0
LAYER
  2
LAYER-1
 70
0
 62
7
  6
CONTINUOUS
  0
ENDTAB
  0
ENDSEC
  0
SECTION
  2
BLOCKS
  0
ENDSEC
  0
SECTION
  2
ENTITIES
  0
POLYLINE
  8
LAYER-1
 66
  1
 70
  0
 62
  0
 10
3.435041
 20
0.203392
 30
0.000000
  0
VERTEX
  8
LAYER-1
 10
3.435041
 20
0.203392
 30
0.000000
  0
VERTEX
  8
LAYER-1
 10
3.435041
 20
0.202202
 30
0.000000
  0
SEQEND
  8
LAYER-1
  0
POLYLINE
  8
LAYER-1
 66
  1
 70
  1
 62
  0
 10
1.263184
 20
0.108225
 30
0.000000
  0
VERTEX
  8
LAYER-1
 10
1.263184
 20
0.108225
 30
0.000000
  0
VERTEX
  8
LAYER-1
 10
1.270129
 20
0.082184
 30
0.000000
  0
VERTEX
  8
LAYER-1
 10
1.295303
 20
0.096072
 30
0.000000
  0
SEQEND
  8
LAYER-1
  0
POLYLINE
  8
LAYER-1
 66
  1
 70
  1
 62
  0
 10
1.453289
 20
0.213257
 30
0.000000
  0
VERTEX
  8
LAYER-1
 10
1.453289
 20
0.213257
 30
0.000000
  0
VERTEX
  8
LAYER-1
 10
1.440269
 20
0.190687
 30
0.000000
  0
VERTEX
  8
LAYER-1
 10
1.470651
 20
0.211520
 30
0.000000
  0
SEQEND
  8
LAYER-1
  0
POLYLINE
  8
LAYER-1
 66
  1
 70
  1
 62
  0
 10
1.099123
 20
0.149023
 30
0.000000
  0
VERTEX
  8
LAYER-1
 10
1.099123
 20
0.149023
 30
0.000000
  0
VERTEX
  8
LAYER-1
 10
1.082630
 20
0.123849
 30
0.000000
  0
VERTEX
  8
LAYER-1
 10
1.097386
 20
0.116036
 30
0.000000
  0
SEQEND
  8
LAYER-1
  0
POLYLINE
  8
LAYER-1
 66
  1
 70
  0
 62
  0
 10
1.265789
 20
0.149892
 30
0.000000
  0
VERTEX
  8
LAYER-1
 10
1.265789
 20
0.149892
 30
0.000000
  0
VERTEX
  8
LAYER-1
 10
1.261449
 20
0.149892
 30
0.000000
  0
VERTEX
  8
LAYER-1
 10
1.257977
 20
0.145552
 30
0.000000
  0
VERTEX
  8
LAYER-1
 10
1.257109
 20
0.140344
 30
0.000000
  0
VERTEX
  8
LAYER-1
 10
1.258844
 20
0.136003
 30
0.000000
  0
VERTEX
  8
LAYER-1
 10
1.263185
 20
0.134267
 30
0.000000
  0
VERTEX
  8
LAYER-1
 10
1.267525
 20
0.134267
 30
0.000000
  0
VERTEX
  8
LAYER-1
 10
1.271866
 20
0.137739
 30
0.000000
  0
VERTEX
  8
LAYER-1
 10
1.271866
 20
0.142080
 30
0.000000
  0
VERTEX
  8
LAYER-1
 10
1.270998
 20
0.146421
 30
0.000000
  0
VERTEX
  8
LAYER-1
 10
1.266657
 20
0.149024
 30
0.000000
  0
SEQEND
  8
LAYER-1
  0
POLYLINE
  8
LAYER-1
 66
  1
 70
  1
 62
  0
 10
0.903810
 20
0.188084
 30
0.000000
  0
VERTEX
  8
LAYER-1
 10
0.903810
 20
0.188084
 30
0.000000
  0
VERTEX
  8
LAYER-1
 10
0.890789
 20
0.165515
 30
0.000000
  0
VERTEX
  8
LAYER-1
 10
0.921171
 20
0.186347
 30
0.000000
  0
SEQEND
  8
LAYER-1
  0
POLYLINE
  8
LAYER-1
 66
  1
 70
  1
 62
  0
 10
1.035587
 20
0.187750
 30
0.000000
  0
VERTEX
  8
LAYER-1
 10
1.035587
 20
0.187750
 30
0.000000
  0
VERTEX
  8
LAYER-1
 10
1.022901
 20
0.168387
 30
0.000000
  0
VERTEX
  8
LAYER-1
 10
1.034252
 20
0.162376
 30
0.000000
  0
SEQEND
  8
LAYER-1
  0
POLYLINE
  8
LAYER-1
 66
  1
 70
  0
 62
  0
 10
1.393393
 20
0.168989
 30
0.000000
  0
VERTEX
  8
LAYER-1
 10
1.393393
 20
0.168989
 30
0.000000
  0
VERTEX
  8
LAYER-1
 10
1.389053
 20
0.168989
 30
0.000000
  0
VERTEX
  8
LAYER-1
 10
1.385581
 20
0.164647
 30
0.000000
  0
VERTEX
  8
LAYER-1
 10
1.384713
 20
0.159440
 30
0.000000
  0
VERTEX
  8
LAYER-1
 10
1.386449
 20
0.155099
 30
0.000000
  0
VERTEX
  8
LAYER-1
 10
1.390789
 20
0.153364
 30
0.000000
  0
VERTEX
  8
LAYER-1
 10
1.395129
 20
0.153364
 30
0.000000
  0
VERTEX
  8
LAYER-1
 10
1.399469
 20
0.156835
 30
0.000000
  0
VERTEX
  8
LAYER-1
 10
1.399469
 20
0.161176
 30
0.000000
  0
VERTEX
  8
LAYER-1
 10
1.398601
 20
0.165516
 30
0.000000
  0
VERTEX
  8
LAYER-1
 10
1.394261
 20
0.168120
 30
0.000000
  0
SEQEND
  8
LAYER-1
  0
POLYLINE
  8
LAYER-1
 66
  1
 70
  0
 62
  0
 10
1.151205
 20
0.142947
 30
0.000000
  0
VERTEX
  8
LAYER-1
 10
1.151205
 20
0.142947
 30
0.000000
  0
VERTEX
  8
LAYER-1
 10
1.146866
 20
0.142947
 30
0.000000
  0
VERTEX
  8
LAYER-1
 10
1.143393
 20
0.138606
 30
0.000000
  0
VERTEX
  8
LAYER-1
 10
1.142525
 20
0.133398
 30
0.000000
  0
VERTEX
  8
LAYER-1
 10
1.144261
 20
0.129058
 30
0.000000
  0
VERTEX
  8
LAYER-1
 10
1.148602
 20
0.127322
 30
0.000000
  0
VERTEX
  8
LAYER-1
 10
1.152942
 20
0.127322
 30
0.000000
  0
VERTEX
  8
LAYER-1
 10
1.157282
 20
0.130793
 30
0.000000
  0
VERTEX
  8
LAYER-1
 10
1.157282
 20
0.135134
 30
0.000000
  0
VERTEX
  8
LAYER-1
 10
1.156414
 20
0.139475
 30
0.000000
  0
VERTEX
  8
LAYER-1
 10
1.152073
 20
0.142079
 30
0.000000
  0
SEQEND
  8
LAYER-1
  0
POLYLINE
  8
LAYER-1
 66
  1
 70
  0
 62
  0
 10
0.987143
 20
0.135134
 30
0.000000
  0
VERTEX
  8
LAYER-1
 10
0.987143
 20
0.135134
 30
0.000000
  0
VERTEX
  8
LAYER-1
 10
0.982803
 20
0.135134
 30
0.000000
  0
VERTEX
  8
LAYER-1
 10
0.979330
 20
0.130793
 30
0.000000
  0
VERTEX
  8
LAYER-1
 10
0.978462
 20
0.125586
 30
0.000000
  0
VERTEX
  8
LAYER-1
 10
0.980198
 20
0.121245
 30
0.000000
  0
VERTEX
  8
LAYER-1
 10
0.984539
 20
0.119509
 30
0.000000
  0
VERTEX
  8
LAYER-1
 10
0.988879
 20
0.119509
 30
0.000000
  0
VERTEX
  8
LAYER-1
 10
0.993219
 20
0.122981
 30
0.000000
  0
VERTEX
  8
LAYER-1
 10
0.993219
 20
0.127322
 30
0.000000
  0
VERTEX
  8
LAYER-1
 10
0.992351
 20
0.131662
 30
0.000000
  0
VERTEX
  8
LAYER-1
 10
0.988011
 20
0.134266
 30
0.000000
  0
SEQEND
  8
LAYER-1
  0
POLYLINE
  8
LAYER-1
 66
  1
 70
  1
 62
  0
 10
1.615182
 20
0.159873
 30
0.000000
  0
VERTEX
  8
LAYER-1
 10
1.615182
 20
0.159873
 30
0.000000
  0
VERTEX
  8
LAYER-1
 10
1.589142
 20
0.152929
 30
0.000000
  0
VERTEX
  8
LAYER-1
 10
1.603029
 20
0.127755
 30
0.000000
  0
SEQEND
  8
LAYER-1
  0
POLYLINE
  8
LAYER-1
 66
  1
 70
  1
 62
  0
 10
1.676726
 20
0.100276
 30
0.000000
  0
VERTEX
  8
LAYER-1
 10
1.676726
 20
0.100276
 30
0.000000
  0
VERTEX
  8
LAYER-1
 10
1.699296
 20
0.087255
 30
0.000000
  0
VERTEX
  8
LAYER-1
 10
1.678463
 20
0.117637
 30
0.000000
  0
SEQEND
  8
LAYER-1
  0
POLYLINE
  8
LAYER-1
 66
  1
 70
  1
 62
  0
 10
1.208064
 20
0.167686
 30
0.000000
  0
VERTEX
  8
LAYER-1
 10
1.208064
 20
0.167686
 30
0.000000
  0
VERTEX
  8
LAYER-1
 10
1.182891
 20
0.184178
 30
0.000000
  0
VERTEX
  8
LAYER-1
 10
1.175078
 20
0.169422
 30
0.000000
  0
SEQEND
  8
LAYER-1
  0
POLYLINE
  8
LAYER-1
 66
  1
 70
  0
 62
  0
 10
1.626468
 20
0.196332
 30
0.000000
  0
VERTEX
  8
LAYER-1
 10
1.626468
 20
0.196332
 30
0.000000
  0
VERTEX
  8
LAYER-1
 10
1.626468
 20
0.200673
 30
0.000000
  0
VERTEX
  8
LAYER-1
 10
1.622127
 20
0.204145
 30
0.000000
  0
VERTEX
  8
LAYER-1
 10
1.616919
 20
0.205012
 30
0.000000
  0
VERTEX
  8
LAYER-1
 10
1.612578
 20
0.203277
 30
0.000000
  0
VERTEX
  8
LAYER-1
 10
1.610843
 20
0.198936
 30
0.000000
  0
VERTEX
  8
LAYER-1
 10
1.610843
 20
0.194596
 30
0.000000
  0
VERTEX
  8
LAYER-1
 10
1.614314
 20
0.190255
 30
0.000000
  0
VERTEX
  8
LAYER-1
 10
1.618655
 20
0.190255
 30
0.000000
  0
VERTEX
  8
LAYER-1
 10
1.622996
 20
0.191123
 30
0.000000
  0
VERTEX
  8
LAYER-1
 10
1.625601
 20
0.195464
 30
0.000000
  0
SEQEND
  8
LAYER-1
  0
POLYLINE
  8
LAYER-1
 66
  1
 70
  1
 62
  0
 10
1.578725
 20
0.172024
 30
0.000000
  0
VERTEX
  8
LAYER-1
 10
1.578725
 20
0.172024
 30
0.000000
  0
VERTEX
  8
LAYER-1
 10
1.556154
 20
0.185046
 30
0.000000
  0
VERTEX
  8
LAYER-1
 10
1.576987
 20
0.154665
 30
0.000000
  0
SEQEND
  8
LAYER-1
  0
POLYLINE
  8
LAYER-1
 66
  1
 70
  1
 62
  0
 10
1.226826
 20
0.184344
 30
0.000000
  0
VERTEX
  8
LAYER-1
 10
1.226826
 20
0.184344
 30
0.000000
  0
VERTEX
  8
LAYER-1
 10
1.207463
 20
0.197031
 30
0.000000
  0
VERTEX
  8
LAYER-1
 10
1.201451
 20
0.185680
 30
0.000000
  0
SEQEND
  8
LAYER-1
  0
POLYLINE
  8
LAYER-1
 66
  1
 70
  0
 62
  0
 10
1.692699
 20
0.060693
 30
0.000000
  0
VERTEX
  8
LAYER-1
 10
1.692699
 20
0.060693
 30
0.000000
  0
VERTEX
  8
LAYER-1
 10
1.692699
 20
0.056352
 30
0.000000
  0
VERTEX
  8
LAYER-1
 10
1.697040
 20
0.052880
 30
0.000000
  0
VERTEX
  8
LAYER-1
 10
1.702248
 20
0.052012
 30
0.000000
  0
VERTEX
  8
LAYER-1
 10
1.706589
 20
0.053748
 30
0.000000
  0
VERTEX
  8
LAYER-1
 10
1.708324
 20
0.058089
 30
0.000000
  0
VERTEX
  8
LAYER-1
 10
1.708324
 20
0.062430
 30
0.000000
  0
VERTEX
  8
LAYER-1
 10
1.704853
 20
0.066769
 30
0.000000
  0
VERTEX
  8
LAYER-1
 10
1.700512
 20
0.066769
 30
0.000000
  0
VERTEX
  8
LAYER-1
 10
1.696171
 20
0.065901
 30
0.000000
  0
VERTEX
  8
LAYER-1
 10
1.693566
 20
0.061561
 30
0.000000
  0
SEQEND
  8
LAYER-1
  0
POLYLINE
  8
LAYER-1
 66
  1
 70
  0
 62
  0
 10
1.201988
 20
0.115602
 30
0.000000
  0
VERTEX
  8
LAYER-1
 10
1.201988
 20
0.115602
 30
0.000000
  0
VERTEX
  8
LAYER-1
 10
1.201988
 20
0.119943
 30
0.000000
  0
VERTEX
  8
LAYER-1
 10
1.197647
 20
0.123415
 30
0.000000
  0
VERTEX
  8
LAYER-1
 10
1.192439
 20
0.124283
 30
0.000000
  0
VERTEX
  8
LAYER-1
 10
1.188098
 20
0.122547
 30
0.000000
  0
VERTEX
  8
LAYER-1
 10
1.186363
 20
0.118206
 30
0.000000
  0
VERTEX
  8
LAYER-1
 10
1.186363
 20
0.113866
 30
0.000000
  0
VERTEX
  8
LAYER-1
 10
1.189834
 20
0.109526
 30
0.000000
  0
VERTEX
  8
LAYER-1
 10
1.194175
 20
0.109526
 30
0.000000
  0
VERTEX
  8
LAYER-1
 10
1.198516
 20
0.110393
 30
0.000000
  0
VERTEX
  8
LAYER-1
 10
1.201121
 20
0.114734
 30
0.000000
  0
SEQEND
  8
LAYER-1
  0
POLYLINE
  8
LAYER-1
 66
  1
 70
  0
 62
  0
 10
1.504072
 20
0.150326
 30
0.000000
  0
VERTEX
  8
LAYER-1
 10
1.504072
 20
0.150326
 30
0.000000
  0
VERTEX
  8
LAYER-1
 10
1.504072
 20
0.154666
 30
0.000000
  0
VERTEX
  8
LAYER-1
 10
1.499731
 20
0.158139
 30
0.000000
  0
VERTEX
  8
LAYER-1
 10
1.494523
 20
0.159006
 30
0.000000
  0
VERTEX
  8
LAYER-1
 10
1.490182
 20
0.157271
 30
0.000000
  0
VERTEX
  8
LAYER-1
 10
1.488446
 20
0.152930
 30
0.000000
  0
VERTEX
  8
LAYER-1
 10
1.488446
 20
0.148590
 30
0.000000
  0
VERTEX
  8
LAYER-1
 10
1.491918
 20
0.144249
 30
0.000000
  0
VERTEX
  8
LAYER-1
 10
1.496259
 20
0.144249
 30
0.000000
  0
VERTEX
  8
LAYER-1
 10
1.500600
 20
0.145117
 30
0.000000
  0
VERTEX
  8
LAYER-1
 10
1.503205
 20
0.149458
 30
0.000000
  0
SEQEND
  8
LAYER-1
  0
POLYLINE
  8
LAYER-1
 66
  1
 70
  1
 62
  0
 10
1.723256
 20
0.142514
 30
0.000000
  0
VERTEX
  8
LAYER-1
 10
1.723256
 20
0.142514
 30
0.000000
  0
VERTEX
  8
LAYER-1
 10
1.730199
 20
0.116472
 30
0.000000
  0
VERTEX
  8
LAYER-1
 10
1.749297
 20
0.132096
 30
0.000000
  0
SEQEND
  8
LAYER-1
  0
POLYLINE
  8
LAYER-1
 66
  1
 70
  1
 62
  0
 10
1.907283
 20
0.164215
 30
0.000000
  0
VERTEX
  8
LAYER-1
 10
1.907283
 20
0.164215
 30
0.000000
  0
VERTEX
  8
LAYER-1
 10
1.894262
 20
0.141646
 30
0.000000
  0
VERTEX
  8
LAYER-1
 10
1.924644
 20
0.162478
 30
0.000000
  0
SEQEND
  8
LAYER-1
  0
POLYLINE
  8
LAYER-1
 66
  1
 70
  1
 62
  0
 10
1.957187
 20
0.062754
 30
0.000000
  0
VERTEX
  8
LAYER-1
 10
1.957187
 20
0.062754
 30
0.000000
  0
VERTEX
  8
LAYER-1
 10
1.940695
 20
0.037581
 30
0.000000
  0
VERTEX
  8
LAYER-1
 10
1.955451
 20
0.029768
 30
0.000000
  0
SEQEND
  8
LAYER-1
  0
POLYLINE
  8
LAYER-1
 66
  1
 70
  0
 62
  0
 10
1.695477
 20
0.166818
 30
0.000000
  0
VERTEX
  8
LAYER-1
 10
1.695477
 20
0.166818
 30
0.000000
  0
VERTEX
  8
LAYER-1
 10
1.691137
 20
0.166818
 30
0.000000
  0
VERTEX
  8
LAYER-1
 10
1.687665
 20
0.162478
 30
0.000000
  0
VERTEX
  8
LAYER-1
 10
1.686797
 20
0.157271
 30
0.000000
  0
VERTEX
  8
LAYER-1
 10
1.688533
 20
0.152930
 30
0.000000
  0
VERTEX
  8
LAYER-1
 10
1.692873
 20
0.151193
 30
0.000000
  0
VERTEX
  8
LAYER-1
 10
1.697213
 20
0.151193
 30
0.000000
  0
VERTEX
  8
LAYER-1
 10
1.701553
 20
0.154666
 30
0.000000
  0
VERTEX
  8
LAYER-1
 10
1.701553
 20
0.159006
 30
0.000000
  0
VERTEX
  8
LAYER-1
 10
1.700685
 20
0.163347
 30
0.000000
  0
VERTEX
  8
LAYER-1
 10
1.696345
 20
0.165951
 30
0.000000
  0
SEQEND
  8
LAYER-1
  0
POLYLINE
  8
LAYER-1
 66
  1
 70
  1
 62
  0
 10
1.732804
 20
0.099110
 30
0.000000
  0
VERTEX
  8
LAYER-1
 10
1.732804
 20
0.099110
 30
0.000000
  0
VERTEX
  8
LAYER-1
 10
1.719783
 20
0.076541
 30
0.000000
  0
VERTEX
  8
LAYER-1
 10
1.750165
 20
0.097373
 30
0.000000
  0
SEQEND
  8
LAYER-1
  0
POLYLINE
  8
LAYER-1
 66
  1
 70
  1
 62
  0
 10
1.988604
 20
0.044863
 30
0.000000
  0
VERTEX
  8
LAYER-1
 10
1.988604
 20
0.044863
 30
0.000000
  0
VERTEX
  8
LAYER-1
 10
2.001291
 20
0.064227
 30
0.000000
  0
VERTEX
  8
LAYER-1
 10
1.989940
 20
0.070238
 30
0.000000
  0
SEQEND
  8
LAYER-1
  0
POLYLINE
  8
LAYER-1
 66
  1
 70
  0
 62
  0
 10
1.887829
 20
0.045310
 30
0.000000
  0
VERTEX
  8
LAYER-1
 10
1.887829
 20
0.045310
 30
0.000000
  0
VERTEX
  8
LAYER-1
 10
1.892170
 20
0.045310
 30
0.000000
  0
VERTEX
  8
LAYER-1
 10
1.895642
 20
0.049650
 30
0.000000
  0
VERTEX
  8
LAYER-1
 10
1.896510
 20
0.054858
 30
0.000000
  0
VERTEX
  8
LAYER-1
 10
1.894774
 20
0.059199
 30
0.000000
  0
VERTEX
  8
LAYER-1
 10
1.890433
 20
0.060935
 30
0.000000
  0
VERTEX
  8
LAYER-1
 10
1.886093
 20
0.060935
 30
0.000000
  0
VERTEX
  8
LAYER-1
 10
1.881753
 20
0.057463
 30
0.000000
  0
VERTEX
  8
LAYER-1
 10
1.881753
 20
0.053123
 30
0.000000
  0
VERTEX
  8
LAYER-1
 10
1.882621
 20
0.048782
 30
0.000000
  0
VERTEX
  8
LAYER-1
 10
1.886961
 20
0.046176
 30
0.000000
  0
SEQEND
  8
LAYER-1
  0
POLYLINE
  8
LAYER-1
 66
  1
 70
  0
 62
  0
 10
1.577334
 20
0.081178
 30
0.000000
  0
VERTEX
  8
LAYER-1
 10
1.577334
 20
0.081178
 30
0.000000
  0
VERTEX
  8
LAYER-1
 10
1.581675
 20
0.081178
 30
0.000000
  0
VERTEX
  8
LAYER-1
 10
1.585146
 20
0.085518
 30
0.000000
  0
VERTEX
  8
LAYER-1
 10
1.586015
 20
0.090725
 30
0.000000
  0
VERTEX
  8
LAYER-1
 10
1.584279
 20
0.095066
 30
0.000000
  0
VERTEX
  8
LAYER-1
 10
1.579939
 20
0.096803
 30
0.000000
  0
VERTEX
  8
LAYER-1
 10
1.575598
 20
0.096803
 30
0.000000
  0
VERTEX
  8
LAYER-1
 10
1.571257
 20
0.093330
 30
0.000000
  0
VERTEX
  8
LAYER-1
 10
1.571257
 20
0.088990
 30
0.000000
  0
VERTEX
  8
LAYER-1
 10
1.572126
 20
0.084649
 30
0.000000
  0
VERTEX
  8
LAYER-1
 10
1.576467
 20
0.082046
 30
0.000000
  0
SEQEND
  8
LAYER-1
  0
POLYLINE
  8
LAYER-1
 66
  1
 70
  1
 62
  0
 10
2.072648
 20
0.147287
 30
0.000000
  0
VERTEX
  8
LAYER-1
 10
2.072648
 20
0.147287
 30
0.000000
  0
VERTEX
  8
LAYER-1
 10
2.046607
 20
0.140343
 30
0.000000
  0
VERTEX
  8
LAYER-1
 10
2.060495
 20
0.115170
 30
0.000000
  0
SEQEND
  8
LAYER-1
  0
POLYLINE
  8
LAYER-1
 66
  1
 70
  1
 62
  0
 10
1.811531
 20
0.107692
 30
0.000000
  0
VERTEX
  8
LAYER-1
 10
1.811531
 20
0.107692
 30
0.000000
  0
VERTEX
  8
LAYER-1
 10
1.788960
 20
0.120714
 30
0.000000
  0
VERTEX
  8
LAYER-1
 10
1.809793
 20
0.090332
 30
0.000000
  0
SEQEND
  8
LAYER-1
  0
POLYLINE
  8
LAYER-1
 66
  1
 70
  1
 62
  0
 10
1.841388
 20
0.030119
 30
0.000000
  0
VERTEX
  8
LAYER-1
 10
1.841388
 20
0.030119
 30
0.000000
  0
VERTEX
  8
LAYER-1
 10
1.866561
 20
0.013625
 30
0.000000
  0
VERTEX
  8
LAYER-1
 10
1.874374
 20
0.028383
 30
0.000000
  0
SEQEND
  8
LAYER-1
  0
POLYLINE
  8
LAYER-1
 66
  1
 70
  0
 62
  0
 10
2.103898
 20
0.196765
 30
0.000000
  0
VERTEX
  8
LAYER-1
 10
2.103898
 20
0.196765
 30
0.000000
  0
VERTEX
  8
LAYER-1
 10
2.103898
 20
0.201105
 30
0.000000
  0
VERTEX
  8
LAYER-1
 10
2.099557
 20
0.204577
 30
0.000000
  0
VERTEX
  8
LAYER-1
 10
2.094349
 20
0.205445
 30
0.000000
  0
VERTEX
  8
LAYER-1
 10
2.090009
 20
0.203709
 30
0.000000
  0
VERTEX
  8
LAYER-1
 10
2.088273
 20
0.199368
 30
0.000000
  0
VERTEX
  8
LAYER-1
 10
2.088273
 20
0.195029
 30
0.000000
  0
VERTEX
  8
LAYER-1
 10
2.091745
 20
0.190688
 30
0.000000
  0
VERTEX
  8
LAYER-1
 10
2.096085
 20
0.190688
 30
0.000000
  0
VERTEX
  8
LAYER-1
 10
2.100426
 20
0.191555
 30
0.000000
  0
VERTEX
  8
LAYER-1
 10
2.103031
 20
0.195897
 30
0.000000
  0
SEQEND
  8
LAYER-1
  0
POLYLINE
  8
LAYER-1
 66
  1
 70
  1
 62
  0
 10
2.036190
 20
0.159440
 30
0.000000
  0
VERTEX
  8
LAYER-1
 10
2.036190
 20
0.159440
 30
0.000000
  0
VERTEX
  8
LAYER-1
 10
2.013620
 20
0.172460
 30
0.000000
  0
VERTEX
  8
LAYER-1
 10
2.034452
 20
0.142079
 30
0.000000
  0
SEQEND
  8
LAYER-1
  0
POLYLINE
  8
LAYER-1
 66
  1
 70
  1
 62
  0
 10
0.804952
 20
0.196063
 30
0.000000
  0
VERTEX
  8
LAYER-1
 10
0.804952
 20
0.196063
 30
0.000000
  0
VERTEX
  8
LAYER-1
 10
0.785588
 20
0.208750
 30
0.000000
  0
VERTEX
  8
LAYER-1
 10
0.779577
 20
0.197399
 30
0.000000
  0
SEQEND
  8
LAYER-1
  0
POLYLINE
  8
LAYER-1
 66
  1
 70
  0
 62
  0
 10
1.815869
 20
0.167589
 30
0.000000
  0
VERTEX
  8
LAYER-1
 10
1.815869
 20
0.167589
 30
0.000000
  0
VERTEX
  8
LAYER-1
 10
1.815869
 20
0.171928
 30
0.000000
  0
VERTEX
  8
LAYER-1
 10
1.811529
 20
0.175401
 30
0.000000
  0
VERTEX
  8
LAYER-1
 10
1.806321
 20
0.176268
 30
0.000000
  0
VERTEX
  8
LAYER-1
 10
1.801980
 20
0.174533
 30
0.000000
  0
VERTEX
  8
LAYER-1
 10
1.800244
 20
0.170192
 30
0.000000
  0
VERTEX
  8
LAYER-1
 10
1.800244
 20
0.165852
 30
0.000000
  0
VERTEX
  8
LAYER-1
 10
1.803717
 20
0.161512
 30
0.000000
  0
VERTEX
  8
LAYER-1
 10
1.808057
 20
0.161512
 30
0.000000
  0
VERTEX
  8
LAYER-1
 10
1.812398
 20
0.162380
 30
0.000000
  0
VERTEX
  8
LAYER-1
 10
1.815002
 20
0.166721
 30
0.000000
  0
SEQEND
  8
LAYER-1
  0
POLYLINE
  8
LAYER-1
 66
  1
 70
  0
 62
  0
 10
0.781849
 20
0.129057
 30
0.000000
  0
VERTEX
  8
LAYER-1
 10
0.781849
 20
0.129057
 30
0.000000
  0
VERTEX
  8
LAYER-1
 10
0.781849
 20
0.133397
 30
0.000000
  0
VERTEX
  8
LAYER-1
 10
0.777509
 20
0.136870
 30
0.000000
  0
VERTEX
  8
LAYER-1
 10
0.772301
 20
0.137737
 30
0.000000
  0
VERTEX
  8
LAYER-1
 10
0.767960
 20
0.136002
 30
0.000000
  0
VERTEX
  8
LAYER-1
 10
0.766224
 20
0.131660
 30
0.000000
  0
VERTEX
  8
LAYER-1
 10
0.766224
 20
0.127321
 30
0.000000
  0
VERTEX
  8
LAYER-1
 10
0.769696
 20
0.122980
 30
0.000000
  0
VERTEX
  8
LAYER-1
 10
0.774037
 20
0.122980
 30
0.000000
  0
VERTEX
  8
LAYER-1
 10
0.778377
 20
0.123848
 30
0.000000
  0
VERTEX
  8
LAYER-1
 10
0.780982
 20
0.128189
 30
0.000000
  0
SEQEND
  8
LAYER-1
  0
POLYLINE
  8
LAYER-1
 66
  1
 70
  0
 62
  0
 10
1.904245
 20
0.196761
 30
0.000000
  0
VERTEX
  8
LAYER-1
 10
1.904245
 20
0.196761
 30
0.000000
  0
VERTEX
  8
LAYER-1
 10
1.904245
 20
0.201102
 30
0.000000
  0
VERTEX
  8
LAYER-1
 10
1.899904
 20
0.204574
 30
0.000000
  0
VERTEX
  8
LAYER-1
 10
1.894696
 20
0.205442
 30
0.000000
  0
VERTEX
  8
LAYER-1
 10
1.890355
 20
0.203707
 30
0.000000
  0
VERTEX
  8
LAYER-1
 10
1.888620
 20
0.199365
 30
0.000000
  0
VERTEX
  8
LAYER-1
 10
1.888620
 20
0.195026
 30
0.000000
  0
VERTEX
  8
LAYER-1
 10
1.892091
 20
0.190685
 30
0.000000
  0
VERTEX
  8
LAYER-1
 10
1.896432
 20
0.190685
 30
0.000000
  0
VERTEX
  8
LAYER-1
 10
1.900773
 20
0.191553
 30
0.000000
  0
VERTEX
  8
LAYER-1
 10
1.903378
 20
0.195894
 30
0.000000
  0
SEQEND
  8
LAYER-1
  0
POLYLINE
  8
LAYER-1
 66
  1
 70
  1
 62
  0
 10
1.463533
 20
0.061297
 30
0.000000
  0
VERTEX
  8
LAYER-1
 10
1.463533
 20
0.061297
 30
0.000000
  0
VERTEX
  8
LAYER-1
 10
1.437491
 20
0.054353
 30
0.000000
  0
VERTEX
  8
LAYER-1
 10
1.451379
 20
0.029179
 30
0.000000
  0
SEQEND
  8
LAYER-1
  0
POLYLINE
  8
LAYER-1
 66
  1
 70
  1
 62
  0
 10
2.310060
 20
0.124718
 30
0.000000
  0
VERTEX
  8
LAYER-1
 10
2.310060
 20
0.124718
 30
0.000000
  0
VERTEX
  8
LAYER-1
 10
2.332630
 20
0.111697
 30
0.000000
  0
VERTEX
  8
LAYER-1
 10
2.311797
 20
0.142079
 30
0.000000
  0
SEQEND
  8
LAYER-1
  0
POLYLINE
  8
LAYER-1
 66
  1
 70
  1
 62
  0
 10
0.919435
 20
0.141645
 30
0.000000
  0
VERTEX
  8
LAYER-1
 10
0.919435
 20
0.141645
 30
0.000000
  0
VERTEX
  8
LAYER-1
 10
0.944609
 20
0.125152
 30
0.000000
  0
VERTEX
  8
LAYER-1
 10
0.952421
 20
0.139909
 30
0.000000
  0
SEQEND
  8
LAYER-1
  0
POLYLINE
  8
LAYER-1
 66
  1
 70
  0
 62
  0
 10
2.238012
 20
0.171589
 30
0.000000
  0
VERTEX
  8
LAYER-1
 10
2.238012
 20
0.171589
 30
0.000000
  0
VERTEX
  8
LAYER-1
 10
2.238012
 20
0.167249
 30
0.000000
  0
VERTEX
  8
LAYER-1
 10
2.242352
 20
0.163778
 30
0.000000
  0
VERTEX
  8
LAYER-1
 10
2.247560
 20
0.162910
 30
0.000000
  0
VERTEX
  8
LAYER-1
 10
2.251901
 20
0.164646
 30
0.000000
  0
VERTEX
  8
LAYER-1
 10
2.253637
 20
0.168986
 30
0.000000
  0
VERTEX
  8
LAYER-1
 10
2.253637
 20
0.173325
 30
0.000000
  0
VERTEX
  8
LAYER-1
 10
2.250165
 20
0.177666
 30
0.000000
  0
VERTEX
  8
LAYER-1
 10
2.245824
 20
0.177666
 30
0.000000
  0
VERTEX
  8
LAYER-1
 10
2.241483
 20
0.176798
 30
0.000000
  0
VERTEX
  8
LAYER-1
 10
2.238880
 20
0.172457
 30
0.000000
  0
SEQEND
  8
LAYER-1
  0
POLYLINE
  8
LAYER-1
 66
  1
 70
  1
 62
  0
 10
2.187664
 20
0.182876
 30
0.000000
  0
VERTEX
  8
LAYER-1
 10
2.187664
 20
0.182876
 30
0.000000
  0
VERTEX
  8
LAYER-1
 10
2.210233
 20
0.169855
 30
0.000000
  0
VERTEX
  8
LAYER-1
 10
2.189401
 20
0.200236
 30
0.000000
  0
SEQEND
  8
LAYER-1
  0
POLYLINE
  8
LAYER-1
 66
  1
 70
  1
 62
  0
 10
0.918033
 20
0.089394
 30
0.000000
  0
VERTEX
  8
LAYER-1
 10
0.918033
 20
0.089394
 30
0.000000
  0
VERTEX
  8
LAYER-1
 10
0.937398
 20
0.076708
 30
0.000000
  0
VERTEX
  8
LAYER-1
 10
0.943408
 20
0.088058
 30
0.000000
  0
SEQEND
  8
LAYER-1
  0
POLYLINE
  8
LAYER-1
 66
  1
 70
  0
 62
  0
 10
1.644175
 20
0.041679
 30
0.000000
  0
VERTEX
  8
LAYER-1
 10
1.644175
 20
0.041679
 30
0.000000
  0
VERTEX
  8
LAYER-1
 10
1.644175
 20
0.046019
 30
0.000000
  0
VERTEX
  8
LAYER-1
 10
1.639834
 20
0.049492
 30
0.000000
  0
VERTEX
  8
LAYER-1
 10
1.634626
 20
0.050360
 30
0.000000
  0
VERTEX
  8
LAYER-1
 10
1.630285
 20
0.048624
 30
0.000000
  0
VERTEX
  8
LAYER-1
 10
1.628550
 20
0.044284
 30
0.000000
  0
VERTEX
  8
LAYER-1
 10
1.628550
 20
0.039942
 30
0.000000
  0
VERTEX
  8
LAYER-1
 10
1.632021
 20
0.035603
 30
0.000000
  0
VERTEX
  8
LAYER-1
 10
1.636362
 20
0.035603
 30
0.000000
  0
VERTEX
  8
LAYER-1
 10
1.640703
 20
0.036471
 30
0.000000
  0
VERTEX
  8
LAYER-1
 10
1.643307
 20
0.040811
 30
0.000000
  0
SEQEND
  8
LAYER-1
  0
POLYLINE
  8
LAYER-1
 66
  1
 70
  0
 62
  0
 10
2.449817
 20
0.124718
 30
0.000000
  0
VERTEX
  8
LAYER-1
 10
2.449817
 20
0.124718
 30
0.000000
  0
VERTEX
  8
LAYER-1
 10
2.449817
 20
0.120377
 30
0.000000
  0
VERTEX
  8
LAYER-1
 10
2.454158
 20
0.116905
 30
0.000000
  0
VERTEX
  8
LAYER-1
 10
2.459365
 20
0.116037
 30
0.000000
  0
VERTEX
  8
LAYER-1
 10
2.463706
 20
0.117773
 30
0.000000
  0
VERTEX
  8
LAYER-1
 10
2.465442
 20
0.122114
 30
0.000000
  0
VERTEX
  8
LAYER-1
 10
2.465442
 20
0.126454
 30
0.000000
  0
VERTEX
  8
LAYER-1
 10
2.461970
 20
0.130795
 30
0.000000
  0
VERTEX
  8
LAYER-1
 10
2.457630
 20
0.130795
 30
0.000000
  0
VERTEX
  8
LAYER-1
 10
2.453289
 20
0.129926
 30
0.000000
  0
VERTEX
  8
LAYER-1
 10
2.450685
 20
0.125586
 30
0.000000
  0
SEQEND
  8
LAYER-1
  0
POLYLINE
  8
LAYER-1
 66
  1
 70
  0
 62
  0
 10
2.284019
 20
0.179404
 30
0.000000
  0
VERTEX
  8
LAYER-1
 10
2.284019
 20
0.179404
 30
0.000000
  0
VERTEX
  8
LAYER-1
 10
2.284019
 20
0.175064
 30
0.000000
  0
VERTEX
  8
LAYER-1
 10
2.288359
 20
0.171592
 30
0.000000
  0
VERTEX
  8
LAYER-1
 10
2.293567
 20
0.170725
 30
0.000000
  0
VERTEX
  8
LAYER-1
 10
2.297908
 20
0.172460
 30
0.000000
  0
VERTEX
  8
LAYER-1
 10
2.299644
 20
0.176799
 30
0.000000
  0
VERTEX
  8
LAYER-1
 10
2.299644
 20
0.181140
 30
0.000000
  0
VERTEX
  8
LAYER-1
 10
2.296172
 20
0.185481
 30
0.000000
  0
VERTEX
  8
LAYER-1
 10
2.291831
 20
0.185481
 30
0.000000
  0
VERTEX
  8
LAYER-1
 10
2.287490
 20
0.184612
 30
0.000000
  0
VERTEX
  8
LAYER-1
 10
2.284886
 20
0.180272
 30
0.000000
  0
SEQEND
  8
LAYER-1
  0
POLYLINE
  8
LAYER-1
 66
  1
 70
  1
 62
  0
 10
2.046172
 20
0.096506
 30
0.000000
  0
VERTEX
  8
LAYER-1
 10
2.046172
 20
0.096506
 30
0.000000
  0
VERTEX
  8
LAYER-1
 10
2.053116
 20
0.070466
 30
0.000000
  0
VERTEX
  8
LAYER-1
 10
2.078290
 20
0.084353
 30
0.000000
  0
SEQEND
  8
LAYER-1
  0
POLYLINE
  8
LAYER-1
 66
  1
 70
  1
 62
  0
 10
2.150686
 20
0.083749
 30
0.000000
  0
VERTEX
  8
LAYER-1
 10
2.150686
 20
0.083749
 30
0.000000
  0
VERTEX
  8
LAYER-1
 10
2.137665
 20
0.061178
 30
0.000000
  0
VERTEX
  8
LAYER-1
 10
2.168047
 20
0.082011
 30
0.000000
  0
SEQEND
  8
LAYER-1
  0
POLYLINE
  8
LAYER-1
 66
  1
 70
  1
 62
  0
 10
1.866651
 20
0.114204
 30
0.000000
  0
VERTEX
  8
LAYER-1
 10
1.866651
 20
0.114204
 30
0.000000
  0
VERTEX
  8
LAYER-1
 10
1.850158
 20
0.089030
 30
0.000000
  0
VERTEX
  8
LAYER-1
 10
1.864915
 20
0.081217
 30
0.000000
  0
SEQEND
  8
LAYER-1
  0
POLYLINE
  8
LAYER-1
 66
  1
 70
  0
 62
  0
 10
1.996693
 20
0.127756
 30
0.000000
  0
VERTEX
  8
LAYER-1
 10
1.996693
 20
0.127756
 30
0.000000
  0
VERTEX
  8
LAYER-1
 10
1.992352
 20
0.127756
 30
0.000000
  0
VERTEX
  8
LAYER-1
 10
1.988881
 20
0.123416
 30
0.000000
  0
VERTEX
  8
LAYER-1
 10
1.988013
 20
0.118208
 30
0.000000
  0
VERTEX
  8
LAYER-1
 10
1.989748
 20
0.113867
 30
0.000000
  0
VERTEX
  8
LAYER-1
 10
1.994089
 20
0.112131
 30
0.000000
  0
VERTEX
  8
LAYER-1
 10
1.998429
 20
0.112131
 30
0.000000
  0
VERTEX
  8
LAYER-1
 10
2.002770
 20
0.115603
 30
0.000000
  0
VERTEX
  8
LAYER-1
 10
2.002770
 20
0.119943
 30
0.000000
  0
VERTEX
  8
LAYER-1
 10
2.001902
 20
0.124285
 30
0.000000
  0
VERTEX
  8
LAYER-1
 10
1.997561
 20
0.126890
 30
0.000000
  0
SEQEND
  8
LAYER-1
  0
POLYLINE
  8
LAYER-1
 66
  1
 70
  1
 62
  0
 10
0.854332
 20
0.204143
 30
0.000000
  0
VERTEX
  8
LAYER-1
 10
0.854332
 20
0.204143
 30
0.000000
  0
VERTEX
  8
LAYER-1
 10
0.841311
 20
0.181573
 30
0.000000
  0
VERTEX
  8
LAYER-1
 10
0.871693
 20
0.202405
 30
0.000000
  0
SEQEND
  8
LAYER-1
  0
POLYLINE
  8
LAYER-1
 66
  1
 70
  1
 62
  0
 10
1.851727
 20
0.146853
 30
0.000000
  0
VERTEX
  8
LAYER-1
 10
1.851727
 20
0.146853
 30
0.000000
  0
VERTEX
  8
LAYER-1
 10
1.839041
 20
0.127489
 30
0.000000
  0
VERTEX
  8
LAYER-1
 10
1.850391
 20
0.121478
 30
0.000000
  0
SEQEND
  8
LAYER-1
  0
POLYLINE
  8
LAYER-1
 66
  1
 70
  0
 62
  0
 10
2.148602
 20
0.129492
 30
0.000000
  0
VERTEX
  8
LAYER-1
 10
2.148602
 20
0.129492
 30
0.000000
  0
VERTEX
  8
LAYER-1
 10
2.144263
 20
0.129492
 30
0.000000
  0
VERTEX
  8
LAYER-1
 10
2.140790
 20
0.125152
 30
0.000000
  0
VERTEX
  8
LAYER-1
 10
2.139922
 20
0.119943
 30
0.000000
  0
VERTEX
  8
LAYER-1
 10
2.141658
 20
0.115603
 30
0.000000
  0
VERTEX
  8
LAYER-1
 10
2.145998
 20
0.113867
 30
0.000000
  0
VERTEX
  8
LAYER-1
 10
2.150339
 20
0.113867
 30
0.000000
  0
VERTEX
  8
LAYER-1
 10
2.154679
 20
0.117339
 30
0.000000
  0
VERTEX
  8
LAYER-1
 10
2.154679
 20
0.121680
 30
0.000000
  0
VERTEX
  8
LAYER-1
 10
2.153811
 20
0.126021
 30
0.000000
  0
VERTEX
  8
LAYER-1
 10
2.149470
 20
0.128625
 30
0.000000
  0
SEQEND
  8
LAYER-1
  0
POLYLINE
  8
LAYER-1
 66
  1
 70
  0
 62
  0
 10
2.208498
 20
0.134700
 30
0.000000
  0
VERTEX
  8
LAYER-1
 10
2.208498
 20
0.134700
 30
0.000000
  0
VERTEX
  8
LAYER-1
 10
2.204158
 20
0.134700
 30
0.000000
  0
VERTEX
  8
LAYER-1
 10
2.200686
 20
0.130359
 30
0.000000
  0
VERTEX
  8
LAYER-1
 10
2.199818
 20
0.125152
 30
0.000000
  0
VERTEX
  8
LAYER-1
 10
2.201554
 20
0.120811
 30
0.000000
  0
VERTEX
  8
LAYER-1
 10
2.205895
 20
0.119075
 30
0.000000
  0
VERTEX
  8
LAYER-1
 10
2.210234
 20
0.119075
 30
0.000000
  0
VERTEX
  8
LAYER-1
 10
2.214575
 20
0.122547
 30
0.000000
  0
VERTEX
  8
LAYER-1
 10
2.214575
 20
0.126887
 30
0.000000
  0
VERTEX
  8
LAYER-1
 10
2.213707
 20
0.131228
 30
0.000000
  0
VERTEX
  8
LAYER-1
 10
2.209366
 20
0.133833
 30
0.000000
  0
SEQEND
  8
LAYER-1
  0
POLYLINE
  8
LAYER-1
 66
  1
 70
  0
 62
  0
 10
0.864748
 20
0.121679
 30
0.000000
  0
VERTEX
  8
LAYER-1
 10
0.864748
 20
0.121679
 30
0.000000
  0
VERTEX
  8
LAYER-1
 10
0.860408
 20
0.121679
 30
0.000000
  0
VERTEX
  8
LAYER-1
 10
0.856936
 20
0.117338
 30
0.000000
  0
VERTEX
  8
LAYER-1
 10
0.856068
 20
0.112130
 30
0.000000
  0
VERTEX
  8
LAYER-1
 10
0.857804
 20
0.107790
 30
0.000000
  0
VERTEX
  8
LAYER-1
 10
0.862145
 20
0.106054
 30
0.000000
  0
VERTEX
  8
LAYER-1
 10
0.866484
 20
0.106054
 30
0.000000
  0
VERTEX
  8
LAYER-1
 10
0.870825
 20
0.109526
 30
0.000000
  0
VERTEX
  8
LAYER-1
 10
0.870825
 20
0.113866
 30
0.000000
  0
VERTEX
  8
LAYER-1
 10
0.869957
 20
0.118207
 30
0.000000
  0
VERTEX
  8
LAYER-1
 10
0.865616
 20
0.120811
 30
0.000000
  0
SEQEND
  8
LAYER-1
  0
POLYLINE
  8
LAYER-1
 66
  1
 70
  1
 62
  0
 10
2.515790
 20
0.161609
 30
0.000000
  0
VERTEX
  8
LAYER-1
 10
2.515790
 20
0.161609
 30
0.000000
  0
VERTEX
  8
LAYER-1
 10
2.522734
 20
0.135568
 30
0.000000
  0
VERTEX
  8
LAYER-1
 10
2.547908
 20
0.149456
 30
0.000000
  0
SEQEND
  8
LAYER-1
  0
POLYLINE
  8
LAYER-1
 66
  1
 70
  1
 62
  0
 10
2.678117
 20
0.190254
 30
0.000000
  0
VERTEX
  8
LAYER-1
 10
2.678117
 20
0.190254
 30
0.000000
  0
VERTEX
  8
LAYER-1
 10
2.665095
 20
0.167686
 30
0.000000
  0
VERTEX
  8
LAYER-1
 10
2.695478
 20
0.188517
 30
0.000000
  0
SEQEND
  8
LAYER-1
  0
POLYLINE
  8
LAYER-1
 66
  1
 70
  1
 62
  0
 10
1.354332
 20
0.141210
 30
0.000000
  0
VERTEX
  8
LAYER-1
 10
1.354332
 20
0.141210
 30
0.000000
  0
VERTEX
  8
LAYER-1
 10
1.337839
 20
0.116035
 30
0.000000
  0
VERTEX
  8
LAYER-1
 10
1.352596
 20
0.108223
 30
0.000000
  0
SEQEND
  8
LAYER-1
  0
POLYLINE
  8
LAYER-1
 66
  1
 70
  0
 62
  0
 10
2.466311
 20
0.192858
 30
0.000000
  0
VERTEX
  8
LAYER-1
 10
2.466311
 20
0.192858
 30
0.000000
  0
VERTEX
  8
LAYER-1
 10
2.461970
 20
0.192858
 30
0.000000
  0
VERTEX
  8
LAYER-1
 10
2.458498
 20
0.188517
 30
0.000000
  0
VERTEX
  8
LAYER-1
 10
2.457630
 20
0.183310
 30
0.000000
  0
VERTEX
  8
LAYER-1
 10
2.459366
 20
0.178969
 30
0.000000
  0
VERTEX
  8
LAYER-1
 10
2.463706
 20
0.177233
 30
0.000000
  0
VERTEX
  8
LAYER-1
 10
2.468047
 20
0.177233
 30
0.000000
  0
VERTEX
  8
LAYER-1
 10
2.472388
 20
0.180705
 30
0.000000
  0
VERTEX
  8
LAYER-1
 10
2.472388
 20
0.185046
 30
0.000000
  0
VERTEX
  8
LAYER-1
 10
2.471519
 20
0.189386
 30
0.000000
  0
VERTEX
  8
LAYER-1
 10
2.467179
 20
0.191990
 30
0.000000
  0
SEQEND
  8
LAYER-1
  0
POLYLINE
  8
LAYER-1
 66
  1
 70
  1
 62
  0
 10
2.503638
 20
0.125151
 30
0.000000
  0
VERTEX
  8
LAYER-1
 10
2.503638
 20
0.125151
 30
0.000000
  0
VERTEX
  8
LAYER-1
 10
2.490616
 20
0.102581
 30
0.000000
  0
VERTEX
  8
LAYER-1
 10
2.520998
 20
0.123414
 30
0.000000
  0
SEQEND
  8
LAYER-1
  0
POLYLINE
  8
LAYER-1
 66
  1
 70
  1
 62
  0
 10
1.062564
 20
0.215521
 30
0.000000
  0
VERTEX
  8
LAYER-1
 10
1.062564
 20
0.215521
 30
0.000000
  0
VERTEX
  8
LAYER-1
 10
1.081929
 20
0.202835
 30
0.000000
  0
VERTEX
  8
LAYER-1
 10
1.087939
 20
0.214185
 30
0.000000
  0
SEQEND
  8
LAYER-1
  0
POLYLINE
  8
LAYER-1
 66
  1
 70
  0
 62
  0
 10
2.618220
 20
0.194594
 30
0.000000
  0
VERTEX
  8
LAYER-1
 10
2.618220
 20
0.194594
 30
0.000000
  0
VERTEX
  8
LAYER-1
 10
2.613880
 20
0.194594
 30
0.000000
  0
VERTEX
  8
LAYER-1
 10
2.610408
 20
0.190253
 30
0.000000
  0
VERTEX
  8
LAYER-1
 10
2.609540
 20
0.185046
 30
0.000000
  0
VERTEX
  8
LAYER-1
 10
2.611276
 20
0.180705
 30
0.000000
  0
VERTEX
  8
LAYER-1
 10
2.615616
 20
0.178969
 30
0.000000
  0
VERTEX
  8
LAYER-1
 10
2.619956
 20
0.178969
 30
0.000000
  0
VERTEX
  8
LAYER-1
 10
2.624297
 20
0.182441
 30
0.000000
  0
VERTEX
  8
LAYER-1
 10
2.624297
 20
0.186782
 30
0.000000
  0
VERTEX
  8
LAYER-1
 10
2.623429
 20
0.191122
 30
0.000000
  0
VERTEX
  8
LAYER-1
 10
2.619088
 20
0.193726
 30
0.000000
  0
SEQEND
  8
LAYER-1
  0
POLYLINE
  8
LAYER-1
 66
  1
 70
  0
 62
  0
 10
1.406415
 20
0.135134
 30
0.000000
  0
VERTEX
  8
LAYER-1
 10
1.406415
 20
0.135134
 30
0.000000
  0
VERTEX
  8
LAYER-1
 10
1.402075
 20
0.135134
 30
0.000000
  0
VERTEX
  8
LAYER-1
 10
1.398603
 20
0.130792
 30
0.000000
  0
VERTEX
  8
LAYER-1
 10
1.397735
 20
0.125585
 30
0.000000
  0
VERTEX
  8
LAYER-1
 10
1.399471
 20
0.121245
 30
0.000000
  0
VERTEX
  8
LAYER-1
 10
1.403811
 20
0.119509
 30
0.000000
  0
VERTEX
  8
LAYER-1
 10
1.408151
 20
0.119509
 30
0.000000
  0
VERTEX
  8
LAYER-1
 10
1.412491
 20
0.122980
 30
0.000000
  0
VERTEX
  8
LAYER-1
 10
1.412491
 20
0.127321
 30
0.000000
  0
VERTEX
  8
LAYER-1
 10
1.411623
 20
0.131661
 30
0.000000
  0
VERTEX
  8
LAYER-1
 10
1.407283
 20
0.134265
 30
0.000000
  0
SEQEND
  8
LAYER-1
  0
POLYLINE
  8
LAYER-1
 66
  1
 70
  0
 62
  0
 10
0.989748
 20
0.111696
 30
0.000000
  0
VERTEX
  8
LAYER-1
 10
0.989748
 20
0.111696
 30
0.000000
  0
VERTEX
  8
LAYER-1
 10
0.985407
 20
0.111696
 30
0.000000
  0
VERTEX
  8
LAYER-1
 10
0.981936
 20
0.107355
 30
0.000000
  0
VERTEX
  8
LAYER-1
 10
0.981068
 20
0.102147
 30
0.000000
  0
VERTEX
  8
LAYER-1
 10
0.982804
 20
0.097807
 30
0.000000
  0
VERTEX
  8
LAYER-1
 10
0.987143
 20
0.096071
 30
0.000000
  0
VERTEX
  8
LAYER-1
 10
0.991484
 20
0.096071
 30
0.000000
  0
VERTEX
  8
LAYER-1
 10
0.995824
 20
0.099542
 30
0.000000
  0
VERTEX
  8
LAYER-1
 10
0.995824
 20
0.103884
 30
0.000000
  0
VERTEX
  8
LAYER-1
 10
0.994956
 20
0.108224
 30
0.000000
  0
VERTEX
  8
LAYER-1
 10
0.990616
 20
0.110828
 30
0.000000
  0
SEQEND
  8
LAYER-1
  0
POLYLINE
  8
LAYER-1
 66
  1
 70
  1
 62
  0
 10
2.957630
 20
0.185914
 30
0.000000
  0
VERTEX
  8
LAYER-1
 10
2.957630
 20
0.185914
 30
0.000000
  0
VERTEX
  8
LAYER-1
 10
2.964575
 20
0.159874
 30
0.000000
  0
VERTEX
  8
LAYER-1
 10
2.989748
 20
0.173760
 30
0.000000
  0
SEQEND
  8
LAYER-1
  0
POLYLINE
  8
LAYER-1
 66
  1
 70
  1
 62
  0
 10
3.119957
 20
0.214561
 30
0.000000
  0
VERTEX
  8
LAYER-1
 10
3.119957
 20
0.214561
 30
0.000000
  0
VERTEX
  8
LAYER-1
 10
3.106936
 20
0.191990
 30
0.000000
  0
VERTEX
  8
LAYER-1
 10
3.137318
 20
0.212823
 30
0.000000
  0
SEQEND
  8
LAYER-1
  0
POLYLINE
  8
LAYER-1
 66
  1
 70
  1
 62
  0
 10
2.348255
 20
0.150325
 30
0.000000
  0
VERTEX
  8
LAYER-1
 10
2.348255
 20
0.150325
 30
0.000000
  0
VERTEX
  8
LAYER-1
 10
2.373428
 20
0.133831
 30
0.000000
  0
VERTEX
  8
LAYER-1
 10
2.381241
 20
0.148589
 30
0.000000
  0
SEQEND
  8
LAYER-1
  0
POLYLINE
  8
LAYER-1
 66
  1
 70
  0
 62
  0
 10
2.918568
 20
0.206748
 30
0.000000
  0
VERTEX
  8
LAYER-1
 10
2.918568
 20
0.206748
 30
0.000000
  0
VERTEX
  8
LAYER-1
 10
2.914227
 20
0.206748
 30
0.000000
  0
VERTEX
  8
LAYER-1
 10
2.910755
 20
0.202408
 30
0.000000
  0
VERTEX
  8
LAYER-1
 10
2.909887
 20
0.197200
 30
0.000000
  0
VERTEX
  8
LAYER-1
 10
2.911623
 20
0.192859
 30
0.000000
  0
VERTEX
  8
LAYER-1
 10
2.915964
 20
0.191123
 30
0.000000
  0
VERTEX
  8
LAYER-1
 10
2.920304
 20
0.191123
 30
0.000000
  0
VERTEX
  8
LAYER-1
 10
2.924644
 20
0.194595
 30
0.000000
  0
VERTEX
  8
LAYER-1
 10
2.924644
 20
0.198936
 30
0.000000
  0
VERTEX
  8
LAYER-1
 10
2.923776
 20
0.203277
 30
0.000000
  0
VERTEX
  8
LAYER-1
 10
2.919436
 20
0.205881
 30
0.000000
  0
SEQEND
  8
LAYER-1
  0
POLYLINE
  8
LAYER-1
 66
  1
 70
  1
 62
  0
 10
2.934194
 20
0.118207
 30
0.000000
  0
VERTEX
  8
LAYER-1
 10
2.934194
 20
0.118207
 30
0.000000
  0
VERTEX
  8
LAYER-1
 10
2.921172
 20
0.095636
 30
0.000000
  0
VERTEX
  8
LAYER-1
 10
2.951554
 20
0.116469
 30
0.000000
  0
SEQEND
  8
LAYER-1
  0
POLYLINE
  8
LAYER-1
 66
  1
 70
  1
 62
  0
 10
3.028644
 20
0.111794
 30
0.000000
  0
VERTEX
  8
LAYER-1
 10
3.028644
 20
0.111794
 30
0.000000
  0
VERTEX
  8
LAYER-1
 10
3.015957
 20
0.092430
 30
0.000000
  0
VERTEX
  8
LAYER-1
 10
3.027308
 20
0.086419
 30
0.000000
  0
SEQEND
  8
LAYER-1
  0
POLYLINE
  8
LAYER-1
 66
  1
 70
  0
 62
  0
 10
3.060061
 20
0.211088
 30
0.000000
  0
VERTEX
  8
LAYER-1
 10
3.060061
 20
0.211088
 30
0.000000
  0
VERTEX
  8
LAYER-1
 10
3.055721
 20
0.211088
 30
0.000000
  0
VERTEX
  8
LAYER-1
 10
3.052248
 20
0.206747
 30
0.000000
  0
VERTEX
  8
LAYER-1
 10
3.051380
 20
0.201540
 30
0.000000
  0
VERTEX
  8
LAYER-1
 10
3.053116
 20
0.197199
 30
0.000000
  0
VERTEX
  8
LAYER-1
 10
3.057457
 20
0.195463
 30
0.000000
  0
VERTEX
  8
LAYER-1
 10
3.061797
 20
0.195463
 30
0.000000
  0
VERTEX
  8
LAYER-1
 10
3.066137
 20
0.198935
 30
0.000000
  0
VERTEX
  8
LAYER-1
 10
3.066137
 20
0.203276
 30
0.000000
  0
VERTEX
  8
LAYER-1
 10
3.065269
 20
0.207616
 30
0.000000
  0
VERTEX
  8
LAYER-1
 10
3.060929
 20
0.210221
 30
0.000000
  0
SEQEND
  8
LAYER-1
  0
POLYLINE
  8
LAYER-1
 66
  1
 70
  0
 62
  0
 10
2.336971
 20
0.203276
 30
0.000000
  0
VERTEX
  8
LAYER-1
 10
2.336971
 20
0.203276
 30
0.000000
  0
VERTEX
  8
LAYER-1
 10
2.336971
 20
0.198935
 30
0.000000
  0
VERTEX
  8
LAYER-1
 10
2.341311
 20
0.195463
 30
0.000000
  0
VERTEX
  8
LAYER-1
 10
2.346519
 20
0.194594
 30
0.000000
  0
VERTEX
  8
LAYER-1
 10
2.350860
 20
0.196330
 30
0.000000
  0
VERTEX
  8
LAYER-1
 10
2.352596
 20
0.200671
 30
0.000000
  0
VERTEX
  8
LAYER-1
 10
2.352596
 20
0.205011
 30
0.000000
  0
VERTEX
  8
LAYER-1
 10
2.349124
 20
0.209352
 30
0.000000
  0
VERTEX
  8
LAYER-1
 10
2.344783
 20
0.209352
 30
0.000000
  0
VERTEX
  8
LAYER-1
 10
2.340442
 20
0.208483
 30
0.000000
  0
VERTEX
  8
LAYER-1
 10
2.337838
 20
0.204142
 30
0.000000
  0
SEQEND
  8
LAYER-1
  0
POLYLINE
  8
LAYER-1
 66
  1
 70
  0
 62
  0
 10
2.900338
 20
0.119073
 30
0.000000
  0
VERTEX
  8
LAYER-1
 10
2.900338
 20
0.119073
 30
0.000000
  0
VERTEX
  8
LAYER-1
 10
2.895997
 20
0.119073
 30
0.000000
  0
VERTEX
  8
LAYER-1
 10
2.892525
 20
0.114733
 30
0.000000
  0
VERTEX
  8
LAYER-1
 10
2.891657
 20
0.109524
 30
0.000000
  0
VERTEX
  8
LAYER-1
 10
2.893393
 20
0.105184
 30
0.000000
  0
VERTEX
  8
LAYER-1
 10
2.897734
 20
0.103448
 30
0.000000
  0
VERTEX
  8
LAYER-1
 10
2.902074
 20
0.103448
 30
0.000000
  0
VERTEX
  8
LAYER-1
 10
2.906414
 20
0.106920
 30
0.000000
  0
VERTEX
  8
LAYER-1
 10
2.906414
 20
0.111260
 30
0.000000
  0
VERTEX
  8
LAYER-1
 10
2.905546
 20
0.115601
 30
0.000000
  0
VERTEX
  8
LAYER-1
 10
2.901206
 20
0.118206
 30
0.000000
  0
SEQEND
  8
LAYER-1
  0
POLYLINE
  8
LAYER-1
 66
  1
 70
  1
 62
  0
 10
2.767527
 20
0.107356
 30
0.000000
  0
VERTEX
  8
LAYER-1
 10
2.767527
 20
0.107356
 30
0.000000
  0
VERTEX
  8
LAYER-1
 10
2.741484
 20
0.100411
 30
0.000000
  0
VERTEX
  8
LAYER-1
 10
2.755373
 20
0.075239
 30
0.000000
  0
SEQEND
  8
LAYER-1
  0
POLYLINE
  8
LAYER-1
 66
  1
 70
  1
 62
  0
 10
1.390791
 20
0.081748
 30
0.000000
  0
VERTEX
  8
LAYER-1
 10
1.390791
 20
0.081748
 30
0.000000
  0
VERTEX
  8
LAYER-1
 10
1.365616
 20
0.098241
 30
0.000000
  0
VERTEX
  8
LAYER-1
 10
1.357804
 20
0.083484
 30
0.000000
  0
SEQEND
  8
LAYER-1
  0
POLYLINE
  8
LAYER-1
 66
  1
 70
  0
 62
  0
 10
2.798777
 20
0.156835
 30
0.000000
  0
VERTEX
  8
LAYER-1
 10
2.798777
 20
0.156835
 30
0.000000
  0
VERTEX
  8
LAYER-1
 10
2.798777
 20
0.161176
 30
0.000000
  0
VERTEX
  8
LAYER-1
 10
2.794436
 20
0.164647
 30
0.000000
  0
VERTEX
  8
LAYER-1
 10
2.789228
 20
0.165515
 30
0.000000
  0
VERTEX
  8
LAYER-1
 10
2.784888
 20
0.163779
 30
0.000000
  0
VERTEX
  8
LAYER-1
 10
2.783152
 20
0.159439
 30
0.000000
  0
VERTEX
  8
LAYER-1
 10
2.783152
 20
0.155099
 30
0.000000
  0
VERTEX
  8
LAYER-1
 10
2.786623
 20
0.150759
 30
0.000000
  0
VERTEX
  8
LAYER-1
 10
2.790964
 20
0.150759
 30
0.000000
  0
VERTEX
  8
LAYER-1
 10
2.795305
 20
0.151627
 30
0.000000
  0
VERTEX
  8
LAYER-1
 10
2.797908
 20
0.155967
 30
0.000000
  0
SEQEND
  8
LAYER-1
  0
POLYLINE
  8
LAYER-1
 66
  1
 70
  1
 62
  0
 10
2.731067
 20
0.119509
 30
0.000000
  0
VERTEX
  8
LAYER-1
 10
2.731067
 20
0.119509
 30
0.000000
  0
VERTEX
  8
LAYER-1
 10
2.708499
 20
0.132529
 30
0.000000
  0
VERTEX
  8
LAYER-1
 10
2.729331
 20
0.102147
 30
0.000000
  0
SEQEND
  8
LAYER-1
  0
POLYLINE
  8
LAYER-1
 66
  1
 70
  1
 62
  0
 10
1.468582
 20
0.101011
 30
0.000000
  0
VERTEX
  8
LAYER-1
 10
1.468582
 20
0.101011
 30
0.000000
  0
VERTEX
  8
LAYER-1
 10
1.449216
 20
0.113698
 30
0.000000
  0
VERTEX
  8
LAYER-1
 10
1.443207
 20
0.102347
 30
0.000000
  0
SEQEND
  8
LAYER-1
  0
POLYLINE
  8
LAYER-1
 66
  1
 70
  0
 62
  0
 10
1.528811
 20
0.089561
 30
0.000000
  0
VERTEX
  8
LAYER-1
 10
1.528811
 20
0.089561
 30
0.000000
  0
VERTEX
  8
LAYER-1
 10
1.528811
 20
0.093901
 30
0.000000
  0
VERTEX
  8
LAYER-1
 10
1.524471
 20
0.097373
 30
0.000000
  0
VERTEX
  8
LAYER-1
 10
1.519263
 20
0.098241
 30
0.000000
  0
VERTEX
  8
LAYER-1
 10
1.514922
 20
0.096505
 30
0.000000
  0
VERTEX
  8
LAYER-1
 10
1.513186
 20
0.092165
 30
0.000000
  0
VERTEX
  8
LAYER-1
 10
1.513186
 20
0.087824
 30
0.000000
  0
VERTEX
  8
LAYER-1
 10
1.516658
 20
0.083484
 30
0.000000
  0
VERTEX
  8
LAYER-1
 10
1.520999
 20
0.083484
 30
0.000000
  0
VERTEX
  8
LAYER-1
 10
1.525339
 20
0.084352
 30
0.000000
  0
VERTEX
  8
LAYER-1
 10
1.527943
 20
0.088693
 30
0.000000
  0
SEQEND
  8
LAYER-1
  0
POLYLINE
  8
LAYER-1
 66
  1
 70
  0
 62
  0
 10
2.648603
 20
0.109092
 30
0.000000
  0
VERTEX
  8
LAYER-1
 10
2.648603
 20
0.109092
 30
0.000000
  0
VERTEX
  8
LAYER-1
 10
2.648603
 20
0.113433
 30
0.000000
  0
VERTEX
  8
LAYER-1
 10
2.644263
 20
0.116904
 30
0.000000
  0
VERTEX
  8
LAYER-1
 10
2.639055
 20
0.117772
 30
0.000000
  0
VERTEX
  8
LAYER-1
 10
2.634714
 20
0.116036
 30
0.000000
  0
VERTEX
  8
LAYER-1
 10
2.632978
 20
0.111697
 30
0.000000
  0
VERTEX
  8
LAYER-1
 10
2.632978
 20
0.107356
 30
0.000000
  0
VERTEX
  8
LAYER-1
 10
2.636450
 20
0.103015
 30
0.000000
  0
VERTEX
  8
LAYER-1
 10
2.640791
 20
0.103015
 30
0.000000
  0
VERTEX
  8
LAYER-1
 10
2.645131
 20
0.103884
 30
0.000000
  0
VERTEX
  8
LAYER-1
 10
2.647734
 20
0.108224
 30
0.000000
  0
SEQEND
  8
LAYER-1
  0
POLYLINE
  8
LAYER-1
 66
  1
 70
  1
 62
  0
 10
2.841311
 20
0.110396
 30
0.000000
  0
VERTEX
  8
LAYER-1
 10
2.841311
 20
0.110396
 30
0.000000
  0
VERTEX
  8
LAYER-1
 10
2.834366
 20
0.136436
 30
0.000000
  0
VERTEX
  8
LAYER-1
 10
2.809193
 20
0.122548
 30
0.000000
  0
SEQEND
  8
LAYER-1
  0
POLYLINE
  8
LAYER-1
 66
  1
 70
  1
 62
  0
 10
2.288359
 20
0.097373
 30
0.000000
  0
VERTEX
  8
LAYER-1
 10
2.288359
 20
0.097373
 30
0.000000
  0
VERTEX
  8
LAYER-1
 10
2.265789
 20
0.110396
 30
0.000000
  0
VERTEX
  8
LAYER-1
 10
2.286622
 20
0.080012
 30
0.000000
  0
SEQEND
  8
LAYER-1
  0
POLYLINE
  8
LAYER-1
 66
  1
 70
  1
 62
  0
 10
3.066138
 20
0.121680
 30
0.000000
  0
VERTEX
  8
LAYER-1
 10
3.066138
 20
0.121680
 30
0.000000
  0
VERTEX
  8
LAYER-1
 10
3.082631
 20
0.146853
 30
0.000000
  0
VERTEX
  8
LAYER-1
 10
3.067874
 20
0.154666
 30
0.000000
  0
SEQEND
  8
LAYER-1
  0
POLYLINE
  8
LAYER-1
 66
  1
 70
  0
 62
  0
 10
3.201553
 20
0.089559
 30
0.000000
  0
VERTEX
  8
LAYER-1
 10
3.201553
 20
0.089559
 30
0.000000
  0
VERTEX
  8
LAYER-1
 10
3.205894
 20
0.089559
 30
0.000000
  0
VERTEX
  8
LAYER-1
 10
3.209366
 20
0.093899
 30
0.000000
  0
VERTEX
  8
LAYER-1
 10
3.210234
 20
0.099108
 30
0.000000
  0
VERTEX
  8
LAYER-1
 10
3.208498
 20
0.103448
 30
0.000000
  0
VERTEX
  8
LAYER-1
 10
3.204158
 20
0.105184
 30
0.000000
  0
VERTEX
  8
LAYER-1
 10
3.199818
 20
0.105184
 30
0.000000
  0
VERTEX
  8
LAYER-1
 10
3.195477
 20
0.101712
 30
0.000000
  0
VERTEX
  8
LAYER-1
 10
3.195477
 20
0.097371
 30
0.000000
  0
VERTEX
  8
LAYER-1
 10
3.196345
 20
0.093030
 30
0.000000
  0
VERTEX
  8
LAYER-1
 10
3.200686
 20
0.090426
 30
0.000000
  0
SEQEND
  8
LAYER-1
  0
POLYLINE
  8
LAYER-1
 66
  1
 70
  1
 62
  0
 10
2.853463
 20
0.146853
 30
0.000000
  0
VERTEX
  8
LAYER-1
 10
2.853463
 20
0.146853
 30
0.000000
  0
VERTEX
  8
LAYER-1
 10
2.866484
 20
0.169423
 30
0.000000
  0
VERTEX
  8
LAYER-1
 10
2.836102
 20
0.148591
 30
0.000000
  0
SEQEND
  8
LAYER-1
  0
POLYLINE
  8
LAYER-1
 66
  1
 70
  1
 62
  0
 10
3.107103
 20
0.097709
 30
0.000000
  0
VERTEX
  8
LAYER-1
 10
3.107103
 20
0.097709
 30
0.000000
  0
VERTEX
  8
LAYER-1
 10
3.119790
 20
0.117073
 30
0.000000
  0
VERTEX
  8
LAYER-1
 10
3.108439
 20
0.123084
 30
0.000000
  0
SEQEND
  8
LAYER-1
  0
POLYLINE
  8
LAYER-1
 66
  1
 70
  0
 62
  0
 10
2.428115
 20
0.157271
 30
0.000000
  0
VERTEX
  8
LAYER-1
 10
2.428115
 20
0.157271
 30
0.000000
  0
VERTEX
  8
LAYER-1
 10
2.428115
 20
0.161609
 30
0.000000
  0
VERTEX
  8
LAYER-1
 10
2.423774
 20
0.165083
 30
0.000000
  0
VERTEX
  8
LAYER-1
 10
2.418567
 20
0.165950
 30
0.000000
  0
VERTEX
  8
LAYER-1
 10
2.414226
 20
0.164214
 30
0.000000
  0
VERTEX
  8
LAYER-1
 10
2.412490
 20
0.159873
 30
0.000000
  0
VERTEX
  8
LAYER-1
 10
2.412490
 20
0.155533
 30
0.000000
  0
VERTEX
  8
LAYER-1
 10
2.415962
 20
0.151193
 30
0.000000
  0
VERTEX
  8
LAYER-1
 10
2.420302
 20
0.151193
 30
0.000000
  0
VERTEX
  8
LAYER-1
 10
2.424643
 20
0.152061
 30
0.000000
  0
VERTEX
  8
LAYER-1
 10
2.427248
 20
0.156402
 30
0.000000
  0
SEQEND
  8
LAYER-1
  0
POLYLINE
  8
LAYER-1
 66
  1
 70
  0
 62
  0
 10
3.014054
 20
0.127756
 30
0.000000
  0
VERTEX
  8
LAYER-1
 10
3.014054
 20
0.127756
 30
0.000000
  0
VERTEX
  8
LAYER-1
 10
3.018395
 20
0.127756
 30
0.000000
  0
VERTEX
  8
LAYER-1
 10
3.021867
 20
0.132097
 30
0.000000
  0
VERTEX
  8
LAYER-1
 10
3.022735
 20
0.137305
 30
0.000000
  0
VERTEX
  8
LAYER-1
 10
3.020999
 20
0.141646
 30
0.000000
  0
VERTEX
  8
LAYER-1
 10
3.016658
 20
0.143381
 30
0.000000
  0
VERTEX
  8
LAYER-1
 10
3.012319
 20
0.143381
 30
0.000000
  0
VERTEX
  8
LAYER-1
 10
3.007978
 20
0.139910
 30
0.000000
  0
VERTEX
  8
LAYER-1
 10
3.007978
 20
0.135568
 30
0.000000
  0
VERTEX
  8
LAYER-1
 10
3.008846
 20
0.131228
 30
0.000000
  0
VERTEX
  8
LAYER-1
 10
3.013187
 20
0.128623
 30
0.000000
  0
SEQEND
  8
LAYER-1
  0
POLYLINE
  8
LAYER-1
 66
  1
 70
  0
 62
  0
 10
3.178117
 20
0.135568
 30
0.000000
  0
VERTEX
  8
LAYER-1
 10
3.178117
 20
0.135568
 30
0.000000
  0
VERTEX
  8
LAYER-1
 10
3.182457
 20
0.135568
 30
0.000000
  0
VERTEX
  8
LAYER-1
 10
3.185929
 20
0.139910
 30
0.000000
  0
VERTEX
  8
LAYER-1
 10
3.186797
 20
0.145117
 30
0.000000
  0
VERTEX
  8
LAYER-1
 10
3.185061
 20
0.149458
 30
0.000000
  0
VERTEX
  8
LAYER-1
 10
3.180720
 20
0.151193
 30
0.000000
  0
VERTEX
  8
LAYER-1
 10
3.176381
 20
0.151193
 30
0.000000
  0
VERTEX
  8
LAYER-1
 10
3.172040
 20
0.147722
 30
0.000000
  0
VERTEX
  8
LAYER-1
 10
3.172040
 20
0.143381
 30
0.000000
  0
VERTEX
  8
LAYER-1
 10
3.172908
 20
0.139041
 30
0.000000
  0
VERTEX
  8
LAYER-1
 10
3.177249
 20
0.136436
 30
0.000000
  0
SEQEND
  8
LAYER-1
  0
POLYLINE
  8
LAYER-1
 66
  1
 70
  1
 62
  0
 10
3.585234
 20
0.133833
 30
0.000000
  0
VERTEX
  8
LAYER-1
 10
3.585234
 20
0.133833
 30
0.000000
  0
VERTEX
  8
LAYER-1
 10
3.592177
 20
0.107791
 30
0.000000
  0
VERTEX
  8
LAYER-1
 10
3.617351
 20
0.121680
 30
0.000000
  0
SEQEND
  8
LAYER-1
  0
POLYLINE
  8
LAYER-1
 66
  1
 70
  1
 62
  0
 10
3.751466
 20
0.087826
 30
0.000000
  0
VERTEX
  8
LAYER-1
 10
3.751466
 20
0.087826
 30
0.000000
  0
VERTEX
  8
LAYER-1
 10
3.738444
 20
0.065256
 30
0.000000
  0
VERTEX
  8
LAYER-1
 10
3.768828
 20
0.086089
 30
0.000000
  0
SEQEND
  8
LAYER-1
  0
POLYLINE
  8
LAYER-1
 66
  1
 70
  1
 62
  0
 10
3.636447
 20
0.178099
 30
0.000000
  0
VERTEX
  8
LAYER-1
 10
3.636447
 20
0.178099
 30
0.000000
  0
VERTEX
  8
LAYER-1
 10
3.619956
 20
0.152926
 30
0.000000
  0
VERTEX
  8
LAYER-1
 10
3.634712
 20
0.145114
 30
0.000000
  0
SEQEND
  8
LAYER-1
  0
POLYLINE
  8
LAYER-1
 66
  1
 70
  0
 62
  0
 10
3.551379
 20
0.165083
 30
0.000000
  0
VERTEX
  8
LAYER-1
 10
3.551379
 20
0.165083
 30
0.000000
  0
VERTEX
  8
LAYER-1
 10
3.547038
 20
0.165083
 30
0.000000
  0
VERTEX
  8
LAYER-1
 10
3.543566
 20
0.160742
 30
0.000000
  0
VERTEX
  8
LAYER-1
 10
3.542697
 20
0.155535
 30
0.000000
  0
VERTEX
  8
LAYER-1
 10
3.544434
 20
0.151193
 30
0.000000
  0
VERTEX
  8
LAYER-1
 10
3.548775
 20
0.149458
 30
0.000000
  0
VERTEX
  8
LAYER-1
 10
3.553114
 20
0.149458
 30
0.000000
  0
VERTEX
  8
LAYER-1
 10
3.557454
 20
0.152930
 30
0.000000
  0
VERTEX
  8
LAYER-1
 10
3.557454
 20
0.157271
 30
0.000000
  0
VERTEX
  8
LAYER-1
 10
3.556586
 20
0.161611
 30
0.000000
  0
VERTEX
  8
LAYER-1
 10
3.552246
 20
0.164215
 30
0.000000
  0
SEQEND
  8
LAYER-1
  0
POLYLINE
  8
LAYER-1
 66
  1
 70
  1
 62
  0
 10
3.534885
 20
0.105185
 30
0.000000
  0
VERTEX
  8
LAYER-1
 10
3.534885
 20
0.105185
 30
0.000000
  0
VERTEX
  8
LAYER-1
 10
3.521865
 20
0.082615
 30
0.000000
  0
VERTEX
  8
LAYER-1
 10
3.552246
 20
0.103448
 30
0.000000
  0
SEQEND
  8
LAYER-1
  0
POLYLINE
  8
LAYER-1
 66
  1
 70
  1
 62
  0
 10
3.590341
 20
0.203538
 30
0.000000
  0
VERTEX
  8
LAYER-1
 10
3.590341
 20
0.203538
 30
0.000000
  0
VERTEX
  8
LAYER-1
 10
3.609706
 20
0.190850
 30
0.000000
  0
VERTEX
  8
LAYER-1
 10
3.615716
 20
0.202202
 30
0.000000
  0
SEQEND
  8
LAYER-1
  0
POLYLINE
  8
LAYER-1
 66
  1
 70
  0
 62
  0
 10
3.474989
 20
0.154788
 30
0.000000
  0
VERTEX
  8
LAYER-1
 10
3.474989
 20
0.154788
 30
0.000000
  0
VERTEX
  8
LAYER-1
 10
3.470649
 20
0.154788
 30
0.000000
  0
VERTEX
  8
LAYER-1
 10
3.467176
 20
0.150447
 30
0.000000
  0
VERTEX
  8
LAYER-1
 10
3.466309
 20
0.145239
 30
0.000000
  0
VERTEX
  8
LAYER-1
 10
3.468045
 20
0.140899
 30
0.000000
  0
VERTEX
  8
LAYER-1
 10
3.472385
 20
0.139163
 30
0.000000
  0
VERTEX
  8
LAYER-1
 10
3.476725
 20
0.139163
 30
0.000000
  0
VERTEX
  8
LAYER-1
 10
3.481065
 20
0.142634
 30
0.000000
  0
VERTEX
  8
LAYER-1
 10
3.481065
 20
0.146975
 30
0.000000
  0
VERTEX
  8
LAYER-1
 10
3.480197
 20
0.151315
 30
0.000000
  0
VERTEX
  8
LAYER-1
 10
3.475858
 20
0.153920
 30
0.000000
  0
SEQEND
  8
LAYER-1
  0
POLYLINE
  8
LAYER-1
 66
  1
 70
  0
 62
  0
 10
3.851729
 20
0.126884
 30
0.000000
  0
VERTEX
  8
LAYER-1
 10
3.851729
 20
0.126884
 30
0.000000
  0
VERTEX
  8
LAYER-1
 10
3.847389
 20
0.126884
 30
0.000000
  0
VERTEX
  8
LAYER-1
 10
3.843916
 20
0.122542
 30
0.000000
  0
VERTEX
  8
LAYER-1
 10
3.843048
 20
0.117335
 30
0.000000
  0
VERTEX
  8
LAYER-1
 10
3.844784
 20
0.112995
 30
0.000000
  0
VERTEX
  8
LAYER-1
 10
3.849125
 20
0.111259
 30
0.000000
  0
VERTEX
  8
LAYER-1
 10
3.853464
 20
0.111259
 30
0.000000
  0
VERTEX
  8
LAYER-1
 10
3.857805
 20
0.114730
 30
0.000000
  0
VERTEX
  8
LAYER-1
 10
3.857805
 20
0.119071
 30
0.000000
  0
VERTEX
  8
LAYER-1
 10
3.856937
 20
0.123411
 30
0.000000
  0
VERTEX
  8
LAYER-1
 10
3.852597
 20
0.126016
 30
0.000000
  0
SEQEND
  8
LAYER-1
  0
POLYLINE
  8
LAYER-1
 66
  1
 70
  0
 62
  0
 10
3.583497
 20
0.098240
 30
0.000000
  0
VERTEX
  8
LAYER-1
 10
3.583497
 20
0.098240
 30
0.000000
  0
VERTEX
  8
LAYER-1
 10
3.579157
 20
0.098240
 30
0.000000
  0
VERTEX
  8
LAYER-1
 10
3.575684
 20
0.093899
 30
0.000000
  0
VERTEX
  8
LAYER-1
 10
3.574816
 20
0.088692
 30
0.000000
  0
VERTEX
  8
LAYER-1
 10
3.576552
 20
0.084351
 30
0.000000
  0
VERTEX
  8
LAYER-1
 10
3.580893
 20
0.082615
 30
0.000000
  0
VERTEX
  8
LAYER-1
 10
3.585233
 20
0.082615
 30
0.000000
  0
VERTEX
  8
LAYER-1
 10
3.589573
 20
0.086087
 30
0.000000
  0
VERTEX
  8
LAYER-1
 10
3.589573
 20
0.090428
 30
0.000000
  0
VERTEX
  8
LAYER-1
 10
3.588706
 20
0.094768
 30
0.000000
  0
VERTEX
  8
LAYER-1
 10
3.584365
 20
0.097372
 30
0.000000
  0
SEQEND
  8
LAYER-1
  0
POLYLINE
  8
LAYER-1
 66
  1
 70
  1
 62
  0
 10
3.381674
 20
0.157704
 30
0.000000
  0
VERTEX
  8
LAYER-1
 10
3.381674
 20
0.157704
 30
0.000000
  0
VERTEX
  8
LAYER-1
 10
3.355634
 20
0.150759
 30
0.000000
  0
VERTEX
  8
LAYER-1
 10
3.369521
 20
0.125586
 30
0.000000
  0
SEQEND
  8
LAYER-1
  0
POLYLINE
  8
LAYER-1
 66
  1
 70
  1
 62
  0
 10
3.288794
 20
0.106489
 30
0.000000
  0
VERTEX
  8
LAYER-1
 10
3.288794
 20
0.106489
 30
0.000000
  0
VERTEX
  8
LAYER-1
 10
3.266223
 20
0.119509
 30
0.000000
  0
VERTEX
  8
LAYER-1
 10
3.287056
 20
0.089127
 30
0.000000
  0
SEQEND
  8
LAYER-1
  0
POLYLINE
  8
LAYER-1
 66
  1
 70
  1
 62
  0
 10
3.252335
 20
0.151624
 30
0.000000
  0
VERTEX
  8
LAYER-1
 10
3.252335
 20
0.151624
 30
0.000000
  0
VERTEX
  8
LAYER-1
 10
3.227161
 20
0.168117
 30
0.000000
  0
VERTEX
  8
LAYER-1
 10
3.219349
 20
0.153360
 30
0.000000
  0
SEQEND
  8
LAYER-1
  0
POLYLINE
  8
LAYER-1
 66
  1
 70
  0
 62
  0
 10
3.412924
 20
0.207182
 30
0.000000
  0
VERTEX
  8
LAYER-1
 10
3.412924
 20
0.207182
 30
0.000000
  0
VERTEX
  8
LAYER-1
 10
3.412924
 20
0.211522
 30
0.000000
  0
VERTEX
  8
LAYER-1
 10
3.408584
 20
0.214995
 30
0.000000
  0
VERTEX
  8
LAYER-1
 10
3.403376
 20
0.215862
 30
0.000000
  0
VERTEX
  8
LAYER-1
 10
3.399036
 20
0.214127
 30
0.000000
  0
VERTEX
  8
LAYER-1
 10
3.397299
 20
0.209785
 30
0.000000
  0
VERTEX
  8
LAYER-1
 10
3.397299
 20
0.205446
 30
0.000000
  0
VERTEX
  8
LAYER-1
 10
3.400771
 20
0.201105
 30
0.000000
  0
VERTEX
  8
LAYER-1
 10
3.405112
 20
0.201105
 30
0.000000
  0
VERTEX
  8
LAYER-1
 10
3.409453
 20
0.201973
 30
0.000000
  0
VERTEX
  8
LAYER-1
 10
3.412058
 20
0.206314
 30
0.000000
  0
SEQEND
  8
LAYER-1
  0
POLYLINE
  8
LAYER-1
 66
  1
 70
  1
 62
  0
 10
3.345217
 20
0.169856
 30
0.000000
  0
VERTEX
  8
LAYER-1
 10
3.345217
 20
0.169856
 30
0.000000
  0
VERTEX
  8
LAYER-1
 10
3.322647
 20
0.182877
 30
0.000000
  0
VERTEX
  8
LAYER-1
 10
3.343479
 20
0.152495
 30
0.000000
  0
SEQEND
  8
LAYER-1
  0
POLYLINE
  8
LAYER-1
 66
  1
 70
  1
 62
  0
 10
3.296871
 20
0.176897
 30
0.000000
  0
VERTEX
  8
LAYER-1
 10
3.296871
 20
0.176897
 30
0.000000
  0
VERTEX
  8
LAYER-1
 10
3.284184
 20
0.157533
 30
0.000000
  0
VERTEX
  8
LAYER-1
 10
3.295535
 20
0.151522
 30
0.000000
  0
SEQEND
  8
LAYER-1
  0
POLYLINE
  8
LAYER-1
 66
  1
 70
  0
 62
  0
 10
3.414661
 20
0.079578
 30
0.000000
  0
VERTEX
  8
LAYER-1
 10
3.414661
 20
0.079578
 30
0.000000
  0
VERTEX
  8
LAYER-1
 10
3.414661
 20
0.083917
 30
0.000000
  0
VERTEX
  8
LAYER-1
 10
3.410320
 20
0.087390
 30
0.000000
  0
VERTEX
  8
LAYER-1
 10
3.405112
 20
0.088259
 30
0.000000
  0
VERTEX
  8
LAYER-1
 10
3.400771
 20
0.086522
 30
0.000000
  0
VERTEX
  8
LAYER-1
 10
3.399036
 20
0.082182
 30
0.000000
  0
VERTEX
  8
LAYER-1
 10
3.399036
 20
0.077841
 30
0.000000
  0
VERTEX
  8
LAYER-1
 10
3.402507
 20
0.073502
 30
0.000000
  0
VERTEX
  8
LAYER-1
 10
3.406848
 20
0.073502
 30
0.000000
  0
VERTEX
  8
LAYER-1
 10
3.411189
 20
0.074370
 30
0.000000
  0
VERTEX
  8
LAYER-1
 10
3.413793
 20
0.078710
 30
0.000000
  0
SEQEND
  8
LAYER-1
  0
POLYLINE
  8
LAYER-1
 66
  1
 70
  0
 62
  0
 10
3.333063
 20
0.080446
 30
0.000000
  0
VERTEX
  8
LAYER-1
 10
3.333063
 20
0.080446
 30
0.000000
  0
VERTEX
  8
LAYER-1
 10
3.333063
 20
0.084786
 30
0.000000
  0
VERTEX
  8
LAYER-1
 10
3.328722
 20
0.088259
 30
0.000000
  0
VERTEX
  8
LAYER-1
 10
3.323515
 20
0.089127
 30
0.000000
  0
VERTEX
  8
LAYER-1
 10
3.319174
 20
0.087390
 30
0.000000
  0
VERTEX
  8
LAYER-1
 10
3.317439
 20
0.083049
 30
0.000000
  0
VERTEX
  8
LAYER-1
 10
3.317439
 20
0.078710
 30
0.000000
  0
VERTEX
  8
LAYER-1
 10
3.320911
 20
0.074370
 30
0.000000
  0
VERTEX
  8
LAYER-1
 10
3.325251
 20
0.074370
 30
0.000000
  0
VERTEX
  8
LAYER-1
 10
3.329591
 20
0.075237
 30
0.000000
  0
VERTEX
  8
LAYER-1
 10
3.332196
 20
0.079578
 30
0.000000
  0
SEQEND
  8
LAYER-1
  0
POLYLINE
  8
LAYER-1
 66
  1
 70
  0
 62
  0
 10
3.262752
 20
0.190688
 30
0.000000
  0
VERTEX
  8
LAYER-1
 10
3.262752
 20
0.190688
 30
0.000000
  0
VERTEX
  8
LAYER-1
 10
3.262752
 20
0.195029
 30
0.000000
  0
VERTEX
  8
LAYER-1
 10
3.258411
 20
0.198501
 30
0.000000
  0
VERTEX
  8
LAYER-1
 10
3.253203
 20
0.199368
 30
0.000000
  0
VERTEX
  8
LAYER-1
 10
3.248862
 20
0.197633
 30
0.000000
  0
VERTEX
  8
LAYER-1
 10
3.247127
 20
0.193292
 30
0.000000
  0
VERTEX
  8
LAYER-1
 10
3.247127
 20
0.188952
 30
0.000000
  0
VERTEX
  8
LAYER-1
 10
3.250598
 20
0.184611
 30
0.000000
  0
VERTEX
  8
LAYER-1
 10
3.254939
 20
0.184611
 30
0.000000
  0
VERTEX
  8
LAYER-1
 10
3.259280
 20
0.185479
 30
0.000000
  0
VERTEX
  8
LAYER-1
 10
3.261884
 20
0.189820
 30
0.000000
  0
SEQEND
  8
LAYER-1
  0
POLYLINE
  8
LAYER-1
 66
  1
 70
  1
 62
  0
 10
4.045303
 20
0.180272
 30
0.000000
  0
VERTEX
  8
LAYER-1
 10
4.045303
 20
0.180272
 30
0.000000
  0
VERTEX
  8
LAYER-1
 10
4.052248
 20
0.154232
 30
0.000000
  0
VERTEX
  8
LAYER-1
 10
4.077421
 20
0.168120
 30
0.000000
  0
SEQEND
  8
LAYER-1
  0
POLYLINE
  8
LAYER-1
 66
  1
 70
  1
 62
  0
 10
4.207630
 20
0.208918
 30
0.000000
  0
VERTEX
  8
LAYER-1
 10
4.207630
 20
0.208918
 30
0.000000
  0
VERTEX
  8
LAYER-1
 10
4.194609
 20
0.186349
 30
0.000000
  0
VERTEX
  8
LAYER-1
 10
4.224991
 20
0.207182
 30
0.000000
  0
SEQEND
  8
LAYER-1
  0
POLYLINE
  8
LAYER-1
 66
  1
 70
  1
 62
  0
 10
4.186797
 20
0.123848
 30
0.000000
  0
VERTEX
  8
LAYER-1
 10
4.186797
 20
0.123848
 30
0.000000
  0
VERTEX
  8
LAYER-1
 10
4.170304
 20
0.098674
 30
0.000000
  0
VERTEX
  8
LAYER-1
 10
4.185061
 20
0.090861
 30
0.000000
  0
SEQEND
  8
LAYER-1
  0
POLYLINE
  8
LAYER-1
 66
  1
 70
  0
 62
  0
 10
3.995825
 20
0.211522
 30
0.000000
  0
VERTEX
  8
LAYER-1
 10
3.995825
 20
0.211522
 30
0.000000
  0
VERTEX
  8
LAYER-1
 10
3.991484
 20
0.211522
 30
0.000000
  0
VERTEX
  8
LAYER-1
 10
3.988012
 20
0.207182
 30
0.000000
  0
VERTEX
  8
LAYER-1
 10
3.987144
 20
0.201974
 30
0.000000
  0
VERTEX
  8
LAYER-1
 10
3.988880
 20
0.197634
 30
0.000000
  0
VERTEX
  8
LAYER-1
 10
3.993220
 20
0.195897
 30
0.000000
  0
VERTEX
  8
LAYER-1
 10
3.997560
 20
0.195897
 30
0.000000
  0
VERTEX
  8
LAYER-1
 10
4.001901
 20
0.199370
 30
0.000000
  0
VERTEX
  8
LAYER-1
 10
4.001901
 20
0.203710
 30
0.000000
  0
VERTEX
  8
LAYER-1
 10
4.001033
 20
0.208051
 30
0.000000
  0
VERTEX
  8
LAYER-1
 10
3.996692
 20
0.210654
 30
0.000000
  0
SEQEND
  8
LAYER-1
  0
POLYLINE
  8
LAYER-1
 66
  1
 70
  1
 62
  0
 10
4.017091
 20
0.143379
 30
0.000000
  0
VERTEX
  8
LAYER-1
 10
4.017091
 20
0.143379
 30
0.000000
  0
VERTEX
  8
LAYER-1
 10
4.039660
 20
0.130359
 30
0.000000
  0
VERTEX
  8
LAYER-1
 10
4.018828
 20
0.160740
 30
0.000000
  0
SEQEND
  8
LAYER-1
  0
POLYLINE
  8
LAYER-1
 66
  1
 70
  1
 62
  0
 10
4.133745
 20
0.135400
 30
0.000000
  0
VERTEX
  8
LAYER-1
 10
4.133745
 20
0.135400
 30
0.000000
  0
VERTEX
  8
LAYER-1
 10
4.153110
 20
0.122712
 30
0.000000
  0
VERTEX
  8
LAYER-1
 10
4.159120
 20
0.134064
 30
0.000000
  0
SEQEND
  8
LAYER-1
  0
POLYLINE
  8
LAYER-1
 66
  1
 70
  0
 62
  0
 10
4.147734
 20
0.213259
 30
0.000000
  0
VERTEX
  8
LAYER-1
 10
4.147734
 20
0.213259
 30
0.000000
  0
VERTEX
  8
LAYER-1
 10
4.143394
 20
0.213259
 30
0.000000
  0
VERTEX
  8
LAYER-1
 10
4.139921
 20
0.208917
 30
0.000000
  0
VERTEX
  8
LAYER-1
 10
4.139053
 20
0.203710
 30
0.000000
  0
VERTEX
  8
LAYER-1
 10
4.140789
 20
0.199370
 30
0.000000
  0
VERTEX
  8
LAYER-1
 10
4.145130
 20
0.197634
 30
0.000000
  0
VERTEX
  8
LAYER-1
 10
4.149470
 20
0.197634
 30
0.000000
  0
VERTEX
  8
LAYER-1
 10
4.153810
 20
0.201105
 30
0.000000
  0
VERTEX
  8
LAYER-1
 10
4.153810
 20
0.205446
 30
0.000000
  0
VERTEX
  8
LAYER-1
 10
4.152942
 20
0.209786
 30
0.000000
  0
VERTEX
  8
LAYER-1
 10
4.148602
 20
0.212390
 30
0.000000
  0
SEQEND
  8
LAYER-1
  0
POLYLINE
  8
LAYER-1
 66
  1
 70
  0
 62
  0
 10
4.231936
 20
0.086522
 30
0.000000
  0
VERTEX
  8
LAYER-1
 10
4.231936
 20
0.086522
 30
0.000000
  0
VERTEX
  8
LAYER-1
 10
4.227595
 20
0.086522
 30
0.000000
  0
VERTEX
  8
LAYER-1
 10
4.224124
 20
0.082180
 30
0.000000
  0
VERTEX
  8
LAYER-1
 10
4.223256
 20
0.076973
 30
0.000000
  0
VERTEX
  8
LAYER-1
 10
4.224992
 20
0.072633
 30
0.000000
  0
VERTEX
  8
LAYER-1
 10
4.229332
 20
0.070897
 30
0.000000
  0
VERTEX
  8
LAYER-1
 10
4.233672
 20
0.070897
 30
0.000000
  0
VERTEX
  8
LAYER-1
 10
4.238013
 20
0.074368
 30
0.000000
  0
VERTEX
  8
LAYER-1
 10
4.238013
 20
0.078709
 30
0.000000
  0
VERTEX
  8
LAYER-1
 10
4.237144
 20
0.083049
 30
0.000000
  0
VERTEX
  8
LAYER-1
 10
4.232804
 20
0.085654
 30
0.000000
  0
SEQEND
  8
LAYER-1
  0
POLYLINE
  8
LAYER-1
 66
  1
 70
  0
 62
  0
 10
4.078290
 20
0.141207
 30
0.000000
  0
VERTEX
  8
LAYER-1
 10
4.078290
 20
0.141207
 30
0.000000
  0
VERTEX
  8
LAYER-1
 10
4.073950
 20
0.141207
 30
0.000000
  0
VERTEX
  8
LAYER-1
 10
4.070478
 20
0.136866
 30
0.000000
  0
VERTEX
  8
LAYER-1
 10
4.069610
 20
0.131659
 30
0.000000
  0
VERTEX
  8
LAYER-1
 10
4.071345
 20
0.127318
 30
0.000000
  0
VERTEX
  8
LAYER-1
 10
4.075685
 20
0.125582
 30
0.000000
  0
VERTEX
  8
LAYER-1
 10
4.080026
 20
0.125582
 30
0.000000
  0
VERTEX
  8
LAYER-1
 10
4.084367
 20
0.129054
 30
0.000000
  0
VERTEX
  8
LAYER-1
 10
4.084367
 20
0.133395
 30
0.000000
  0
VERTEX
  8
LAYER-1
 10
4.083498
 20
0.137735
 30
0.000000
  0
VERTEX
  8
LAYER-1
 10
4.079158
 20
0.140339
 30
0.000000
  0
SEQEND
  8
LAYER-1
  0
POLYLINE
  8
LAYER-1
 66
  1
 70
  1
 62
  0
 10
3.913361
 20
0.149889
 30
0.000000
  0
VERTEX
  8
LAYER-1
 10
3.913361
 20
0.149889
 30
0.000000
  0
VERTEX
  8
LAYER-1
 10
3.906415
 20
0.175928
 30
0.000000
  0
VERTEX
  8
LAYER-1
 10
3.881242
 20
0.162042
 30
0.000000
  0
SEQEND
  8
LAYER-1
  0
POLYLINE
  8
LAYER-1
 66
  1
 70
  1
 62
  0
 10
3.502335
 20
0.181571
 30
0.000000
  0
VERTEX
  8
LAYER-1
 10
3.502335
 20
0.181571
 30
0.000000
  0
VERTEX
  8
LAYER-1
 10
3.515355
 20
0.204141
 30
0.000000
  0
VERTEX
  8
LAYER-1
 10
3.484974
 20
0.183309
 30
0.000000
  0
SEQEND
  8
LAYER-1
  0
POLYLINE
  8
LAYER-1
 66
  1
 70
  1
 62
  0
 10
3.799643
 20
0.175063
 30
0.000000
  0
VERTEX
  8
LAYER-1
 10
3.799643
 20
0.175063
 30
0.000000
  0
VERTEX
  8
LAYER-1
 10
3.816137
 20
0.200236
 30
0.000000
  0
VERTEX
  8
LAYER-1
 10
3.801379
 20
0.208049
 30
0.000000
  0
SEQEND
  8
LAYER-1
  0
POLYLINE
  8
LAYER-1
 66
  1
 70
  0
 62
  0
 10
3.962838
 20
0.118639
 30
0.000000
  0
VERTEX
  8
LAYER-1
 10
3.962838
 20
0.118639
 30
0.000000
  0
VERTEX
  8
LAYER-1
 10
3.967179
 20
0.118639
 30
0.000000
  0
VERTEX
  8
LAYER-1
 10
3.970651
 20
0.122979
 30
0.000000
  0
VERTEX
  8
LAYER-1
 10
3.971520
 20
0.128187
 30
0.000000
  0
VERTEX
  8
LAYER-1
 10
3.969784
 20
0.132528
 30
0.000000
  0
VERTEX
  8
LAYER-1
 10
3.965444
 20
0.134264
 30
0.000000
  0
VERTEX
  8
LAYER-1
 10
3.961103
 20
0.134264
 30
0.000000
  0
VERTEX
  8
LAYER-1
 10
3.956762
 20
0.130792
 30
0.000000
  0
VERTEX
  8
LAYER-1
 10
3.956762
 20
0.126451
 30
0.000000
  0
VERTEX
  8
LAYER-1
 10
3.957631
 20
0.122110
 30
0.000000
  0
VERTEX
  8
LAYER-1
 10
3.961972
 20
0.119505
 30
0.000000
  0
SEQEND
  8
LAYER-1
  0
POLYLINE
  8
LAYER-1
 66
  1
 70
  1
 62
  0
 10
3.916832
 20
0.115167
 30
0.000000
  0
VERTEX
  8
LAYER-1
 10
3.916832
 20
0.115167
 30
0.000000
  0
VERTEX
  8
LAYER-1
 10
3.929853
 20
0.137739
 30
0.000000
  0
VERTEX
  8
LAYER-1
 10
3.899470
 20
0.116905
 30
0.000000
  0
SEQEND
  8
LAYER-1
  0
POLYLINE
  8
LAYER-1
 66
  1
 70
  1
 62
  0
 10
3.862245
 20
0.156569
 30
0.000000
  0
VERTEX
  8
LAYER-1
 10
3.862245
 20
0.156569
 30
0.000000
  0
VERTEX
  8
LAYER-1
 10
3.842881
 20
0.169256
 30
0.000000
  0
VERTEX
  8
LAYER-1
 10
3.836870
 20
0.157905
 30
0.000000
  0
SEQEND
  8
LAYER-1
  0
POLYLINE
  8
LAYER-1
 66
  1
 70
  0
 62
  0
 10
3.839139
 20
0.053224
 30
0.000000
  0
VERTEX
  8
LAYER-1
 10
3.839139
 20
0.053224
 30
0.000000
  0
VERTEX
  8
LAYER-1
 10
3.843480
 20
0.053224
 30
0.000000
  0
VERTEX
  8
LAYER-1
 10
3.846951
 20
0.057565
 30
0.000000
  0
VERTEX
  8
LAYER-1
 10
3.847820
 20
0.062773
 30
0.000000
  0
VERTEX
  8
LAYER-1
 10
3.846085
 20
0.067113
 30
0.000000
  0
VERTEX
  8
LAYER-1
 10
3.841744
 20
0.068849
 30
0.000000
  0
VERTEX
  8
LAYER-1
 10
3.837403
 20
0.068849
 30
0.000000
  0
VERTEX
  8
LAYER-1
 10
3.833062
 20
0.065377
 30
0.000000
  0
VERTEX
  8
LAYER-1
 10
3.833062
 20
0.061037
 30
0.000000
  0
VERTEX
  8
LAYER-1
 10
3.833931
 20
0.056696
 30
0.000000
  0
VERTEX
  8
LAYER-1
 10
3.838272
 20
0.054092
 30
0.000000
  0
SEQEND
  8
LAYER-1
  0
POLYLINE
  8
LAYER-1
 66
  1
 70
  0
 62
  0
 10
3.749295
 20
0.196019
 30
0.000000
  0
VERTEX
  8
LAYER-1
 10
3.749295
 20
0.196019
 30
0.000000
  0
VERTEX
  8
LAYER-1
 10
3.753636
 20
0.196019
 30
0.000000
  0
VERTEX
  8
LAYER-1
 10
3.757108
 20
0.200359
 30
0.000000
  0
VERTEX
  8
LAYER-1
 10
3.757975
 20
0.205567
 30
0.000000
  0
VERTEX
  8
LAYER-1
 10
3.756239
 20
0.209908
 30
0.000000
  0
VERTEX
  8
LAYER-1
 10
3.751898
 20
0.211644
 30
0.000000
  0
VERTEX
  8
LAYER-1
 10
3.747559
 20
0.211644
 30
0.000000
  0
VERTEX
  8
LAYER-1
 10
3.743219
 20
0.208171
 30
0.000000
  0
VERTEX
  8
LAYER-1
 10
3.743219
 20
0.203831
 30
0.000000
  0
VERTEX
  8
LAYER-1
 10
3.744086
 20
0.199490
 30
0.000000
  0
VERTEX
  8
LAYER-1
 10
3.748426
 20
0.196886
 30
0.000000
  0
SEQEND
  8
LAYER-1
  0
POLYLINE
  8
LAYER-1
 66
  1
 70
  0
 62
  0
 10
3.911624
 20
0.188952
 30
0.000000
  0
VERTEX
  8
LAYER-1
 10
3.911624
 20
0.188952
 30
0.000000
  0
VERTEX
  8
LAYER-1
 10
3.915964
 20
0.188952
 30
0.000000
  0
VERTEX
  8
LAYER-1
 10
3.919436
 20
0.193292
 30
0.000000
  0
VERTEX
  8
LAYER-1
 10
3.920303
 20
0.198501
 30
0.000000
  0
VERTEX
  8
LAYER-1
 10
3.918567
 20
0.202841
 30
0.000000
  0
VERTEX
  8
LAYER-1
 10
3.914227
 20
0.204577
 30
0.000000
  0
VERTEX
  8
LAYER-1
 10
3.909888
 20
0.204577
 30
0.000000
  0
VERTEX
  8
LAYER-1
 10
3.905547
 20
0.201105
 30
0.000000
  0
VERTEX
  8
LAYER-1
 10
3.905547
 20
0.196765
 30
0.000000
  0
VERTEX
  8
LAYER-1
 10
3.906414
 20
0.192424
 30
0.000000
  0
VERTEX
  8
LAYER-1
 10
3.910755
 20
0.189819
 30
0.000000
  0
SEQEND
  8
LAYER-1
  0
POLYLINE
  8
LAYER-1
 66
  1
 70
  1
 62
  0
 10
4.667698
 20
0.158139
 30
0.000000
  0
VERTEX
  8
LAYER-1
 10
4.667698
 20
0.158139
 30
0.000000
  0
VERTEX
  8
LAYER-1
 10
4.674643
 20
0.132097
 30
0.000000
  0
VERTEX
  8
LAYER-1
 10
4.699816
 20
0.145985
 30
0.000000
  0
SEQEND
  8
LAYER-1
  0
POLYLINE
  8
LAYER-1
 66
  1
 70
  1
 62
  0
 10
4.794434
 20
0.193728
 30
0.000000
  0
VERTEX
  8
LAYER-1
 10
4.794434
 20
0.193728
 30
0.000000
  0
VERTEX
  8
LAYER-1
 10
4.781413
 20
0.171160
 30
0.000000
  0
VERTEX
  8
LAYER-1
 10
4.811795
 20
0.191991
 30
0.000000
  0
SEQEND
  8
LAYER-1
  0
POLYLINE
  8
LAYER-1
 66
  1
 70
  1
 62
  0
 10
4.469784
 20
0.182443
 30
0.000000
  0
VERTEX
  8
LAYER-1
 10
4.469784
 20
0.182443
 30
0.000000
  0
VERTEX
  8
LAYER-1
 10
4.453291
 20
0.157271
 30
0.000000
  0
VERTEX
  8
LAYER-1
 10
4.468048
 20
0.149458
 30
0.000000
  0
SEQEND
  8
LAYER-1
  0
POLYLINE
  8
LAYER-1
 66
  1
 70
  0
 62
  0
 10
4.580026
 20
0.174633
 30
0.000000
  0
VERTEX
  8
LAYER-1
 10
4.580026
 20
0.174633
 30
0.000000
  0
VERTEX
  8
LAYER-1
 10
4.575685
 20
0.174633
 30
0.000000
  0
VERTEX
  8
LAYER-1
 10
4.572213
 20
0.170293
 30
0.000000
  0
VERTEX
  8
LAYER-1
 10
4.571345
 20
0.165086
 30
0.000000
  0
VERTEX
  8
LAYER-1
 10
4.573081
 20
0.160745
 30
0.000000
  0
VERTEX
  8
LAYER-1
 10
4.577421
 20
0.159009
 30
0.000000
  0
VERTEX
  8
LAYER-1
 10
4.581762
 20
0.159009
 30
0.000000
  0
VERTEX
  8
LAYER-1
 10
4.586102
 20
0.162481
 30
0.000000
  0
VERTEX
  8
LAYER-1
 10
4.586102
 20
0.166822
 30
0.000000
  0
VERTEX
  8
LAYER-1
 10
4.585234
 20
0.171162
 30
0.000000
  0
VERTEX
  8
LAYER-1
 10
4.580893
 20
0.173765
 30
0.000000
  0
SEQEND
  8
LAYER-1
  0
POLYLINE
  8
LAYER-1
 66
  1
 70
  1
 62
  0
 10
4.609540
 20
0.128624
 30
0.000000
  0
VERTEX
  8
LAYER-1
 10
4.609540
 20
0.128624
 30
0.000000
  0
VERTEX
  8
LAYER-1
 10
4.596519
 20
0.106055
 30
0.000000
  0
VERTEX
  8
LAYER-1
 10
4.626901
 20
0.126887
 30
0.000000
  0
SEQEND
  8
LAYER-1
  0
POLYLINE
  8
LAYER-1
 66
  1
 70
  1
 62
  0
 10
4.816838
 20
0.129155
 30
0.000000
  0
VERTEX
  8
LAYER-1
 10
4.816838
 20
0.129155
 30
0.000000
  0
VERTEX
  8
LAYER-1
 10
4.804151
 20
0.109790
 30
0.000000
  0
VERTEX
  8
LAYER-1
 10
4.815503
 20
0.103780
 30
0.000000
  0
SEQEND
  8
LAYER-1
  0
POLYLINE
  8
LAYER-1
 66
  1
 70
  0
 62
  0
 10
4.724121
 20
0.198068
 30
0.000000
  0
VERTEX
  8
LAYER-1
 10
4.724121
 20
0.198068
 30
0.000000
  0
VERTEX
  8
LAYER-1
 10
4.719780
 20
0.198068
 30
0.000000
  0
VERTEX
  8
LAYER-1
 10
4.716309
 20
0.193727
 30
0.000000
  0
VERTEX
  8
LAYER-1
 10
4.715441
 20
0.188520
 30
0.000000
  0
VERTEX
  8
LAYER-1
 10
4.717176
 20
0.184179
 30
0.000000
  0
VERTEX
  8
LAYER-1
 10
4.721516
 20
0.182443
 30
0.000000
  0
VERTEX
  8
LAYER-1
 10
4.725857
 20
0.182443
 30
0.000000
  0
VERTEX
  8
LAYER-1
 10
4.730197
 20
0.185915
 30
0.000000
  0
VERTEX
  8
LAYER-1
 10
4.730197
 20
0.190255
 30
0.000000
  0
VERTEX
  8
LAYER-1
 10
4.729329
 20
0.194596
 30
0.000000
  0
VERTEX
  8
LAYER-1
 10
4.724989
 20
0.197200
 30
0.000000
  0
SEQEND
  8
LAYER-1
  0
POLYLINE
  8
LAYER-1
 66
  1
 70
  0
 62
  0
 10
4.511450
 20
0.188518
 30
0.000000
  0
VERTEX
  8
LAYER-1
 10
4.511450
 20
0.188518
 30
0.000000
  0
VERTEX
  8
LAYER-1
 10
4.507111
 20
0.188518
 30
0.000000
  0
VERTEX
  8
LAYER-1
 10
4.503638
 20
0.184178
 30
0.000000
  0
VERTEX
  8
LAYER-1
 10
4.502770
 20
0.178970
 30
0.000000
  0
VERTEX
  8
LAYER-1
 10
4.504507
 20
0.174629
 30
0.000000
  0
VERTEX
  8
LAYER-1
 10
4.508847
 20
0.172893
 30
0.000000
  0
VERTEX
  8
LAYER-1
 10
4.513187
 20
0.172893
 30
0.000000
  0
VERTEX
  8
LAYER-1
 10
4.517527
 20
0.176365
 30
0.000000
  0
VERTEX
  8
LAYER-1
 10
4.517527
 20
0.180706
 30
0.000000
  0
VERTEX
  8
LAYER-1
 10
4.516659
 20
0.185047
 30
0.000000
  0
VERTEX
  8
LAYER-1
 10
4.512319
 20
0.187651
 30
0.000000
  0
SEQEND
  8
LAYER-1
  0
POLYLINE
  8
LAYER-1
 66
  1
 70
  0
 62
  0
 10
4.758845
 20
0.160739
 30
0.000000
  0
VERTEX
  8
LAYER-1
 10
4.758845
 20
0.160739
 30
0.000000
  0
VERTEX
  8
LAYER-1
 10
4.754506
 20
0.160739
 30
0.000000
  0
VERTEX
  8
LAYER-1
 10
4.751033
 20
0.156398
 30
0.000000
  0
VERTEX
  8
LAYER-1
 10
4.750166
 20
0.151191
 30
0.000000
  0
VERTEX
  8
LAYER-1
 10
4.751902
 20
0.146851
 30
0.000000
  0
VERTEX
  8
LAYER-1
 10
4.756243
 20
0.145114
 30
0.000000
  0
VERTEX
  8
LAYER-1
 10
4.760582
 20
0.145114
 30
0.000000
  0
VERTEX
  8
LAYER-1
 10
4.764922
 20
0.148586
 30
0.000000
  0
VERTEX
  8
LAYER-1
 10
4.764922
 20
0.152927
 30
0.000000
  0
VERTEX
  8
LAYER-1
 10
4.764055
 20
0.157267
 30
0.000000
  0
VERTEX
  8
LAYER-1
 10
4.759714
 20
0.159871
 30
0.000000
  0
SEQEND
  8
LAYER-1
  0
POLYLINE
  8
LAYER-1
 66
  1
 70
  1
 62
  0
 10
4.373429
 20
0.107355
 30
0.000000
  0
VERTEX
  8
LAYER-1
 10
4.373429
 20
0.107355
 30
0.000000
  0
VERTEX
  8
LAYER-1
 10
4.366485
 20
0.133396
 30
0.000000
  0
VERTEX
  8
LAYER-1
 10
4.341311
 20
0.119509
 30
0.000000
  0
SEQEND
  8
LAYER-1
  0
POLYLINE
  8
LAYER-1
 66
  1
 70
  1
 62
  0
 10
4.221519
 20
0.148152
 30
0.000000
  0
VERTEX
  8
LAYER-1
 10
4.221519
 20
0.148152
 30
0.000000
  0
VERTEX
  8
LAYER-1
 10
4.234540
 20
0.170722
 30
0.000000
  0
VERTEX
  8
LAYER-1
 10
4.204158
 20
0.149890
 30
0.000000
  0
SEQEND
  8
LAYER-1
  0
POLYLINE
  8
LAYER-1
 66
  1
 70
  1
 62
  0
 10
4.304854
 20
0.108226
 30
0.000000
  0
VERTEX
  8
LAYER-1
 10
4.304854
 20
0.108226
 30
0.000000
  0
VERTEX
  8
LAYER-1
 10
4.321347
 20
0.133399
 30
0.000000
  0
VERTEX
  8
LAYER-1
 10
4.306589
 20
0.141212
 30
0.000000
  0
SEQEND
  8
LAYER-1
  0
POLYLINE
  8
LAYER-1
 66
  1
 70
  0
 62
  0
 10
4.479333
 20
0.109962
 30
0.000000
  0
VERTEX
  8
LAYER-1
 10
4.479333
 20
0.109962
 30
0.000000
  0
VERTEX
  8
LAYER-1
 10
4.483674
 20
0.109962
 30
0.000000
  0
VERTEX
  8
LAYER-1
 10
4.487146
 20
0.114304
 30
0.000000
  0
VERTEX
  8
LAYER-1
 10
4.488014
 20
0.119511
 30
0.000000
  0
VERTEX
  8
LAYER-1
 10
4.486278
 20
0.123852
 30
0.000000
  0
VERTEX
  8
LAYER-1
 10
4.481937
 20
0.125587
 30
0.000000
  0
VERTEX
  8
LAYER-1
 10
4.477598
 20
0.125587
 30
0.000000
  0
VERTEX
  8
LAYER-1
 10
4.473257
 20
0.122116
 30
0.000000
  0
VERTEX
  8
LAYER-1
 10
4.473257
 20
0.117775
 30
0.000000
  0
VERTEX
  8
LAYER-1
 10
4.474125
 20
0.113435
 30
0.000000
  0
VERTEX
  8
LAYER-1
 10
4.478466
 20
0.110830
 30
0.000000
  0
SEQEND
  8
LAYER-1
  0
POLYLINE
  8
LAYER-1
 66
  1
 70
  1
 62
  0
 10
4.430720
 20
0.124718
 30
0.000000
  0
VERTEX
  8
LAYER-1
 10
4.430720
 20
0.124718
 30
0.000000
  0
VERTEX
  8
LAYER-1
 10
4.443742
 20
0.147289
 30
0.000000
  0
VERTEX
  8
LAYER-1
 10
4.413360
 20
0.126456
 30
0.000000
  0
SEQEND
  8
LAYER-1
  0
POLYLINE
  8
LAYER-1
 66
  1
 70
  1
 62
  0
 10
4.319777
 20
0.160643
 30
0.000000
  0
VERTEX
  8
LAYER-1
 10
4.319777
 20
0.160643
 30
0.000000
  0
VERTEX
  8
LAYER-1
 10
4.332464
 20
0.180006
 30
0.000000
  0
VERTEX
  8
LAYER-1
 10
4.321113
 20
0.186017
 30
0.000000
  0
SEQEND
  8
LAYER-1
  0
POLYLINE
  8
LAYER-1
 66
  1
 70
  0
 62
  0
 10
4.275425
 20
0.192113
 30
0.000000
  0
VERTEX
  8
LAYER-1
 10
4.275425
 20
0.192113
 30
0.000000
  0
VERTEX
  8
LAYER-1
 10
4.279765
 20
0.192113
 30
0.000000
  0
VERTEX
  8
LAYER-1
 10
4.283237
 20
0.196454
 30
0.000000
  0
VERTEX
  8
LAYER-1
 10
4.284106
 20
0.201662
 30
0.000000
  0
VERTEX
  8
LAYER-1
 10
4.282369
 20
0.206002
 30
0.000000
  0
VERTEX
  8
LAYER-1
 10
4.278029
 20
0.207738
 30
0.000000
  0
VERTEX
  8
LAYER-1
 10
4.273688
 20
0.207738
 30
0.000000
  0
VERTEX
  8
LAYER-1
 10
4.269347
 20
0.204267
 30
0.000000
  0
VERTEX
  8
LAYER-1
 10
4.269347
 20
0.199926
 30
0.000000
  0
VERTEX
  8
LAYER-1
 10
4.270215
 20
0.195585
 30
0.000000
  0
VERTEX
  8
LAYER-1
 10
4.274557
 20
0.192980
 30
0.000000
  0
SEQEND
  8
LAYER-1
  0
POLYLINE
  8
LAYER-1
 66
  1
 70
  0
 62
  0
 10
4.252769
 20
0.114303
 30
0.000000
  0
VERTEX
  8
LAYER-1
 10
4.252769
 20
0.114303
 30
0.000000
  0
VERTEX
  8
LAYER-1
 10
4.257110
 20
0.114303
 30
0.000000
  0
VERTEX
  8
LAYER-1
 10
4.260582
 20
0.118643
 30
0.000000
  0
VERTEX
  8
LAYER-1
 10
4.261450
 20
0.123851
 30
0.000000
  0
VERTEX
  8
LAYER-1
 10
4.259713
 20
0.128192
 30
0.000000
  0
VERTEX
  8
LAYER-1
 10
4.255373
 20
0.129928
 30
0.000000
  0
VERTEX
  8
LAYER-1
 10
4.251033
 20
0.129928
 30
0.000000
  0
VERTEX
  8
LAYER-1
 10
4.246692
 20
0.126456
 30
0.000000
  0
VERTEX
  8
LAYER-1
 10
4.246692
 20
0.122115
 30
0.000000
  0
VERTEX
  8
LAYER-1
 10
4.247560
 20
0.117774
 30
0.000000
  0
VERTEX
  8
LAYER-1
 10
4.251901
 20
0.115170
 30
0.000000
  0
SEQEND
  8
LAYER-1
  0
POLYLINE
  8
LAYER-1
 66
  1
 70
  0
 62
  0
 10
4.416832
 20
0.191558
 30
0.000000
  0
VERTEX
  8
LAYER-1
 10
4.416832
 20
0.191558
 30
0.000000
  0
VERTEX
  8
LAYER-1
 10
4.421173
 20
0.191558
 30
0.000000
  0
VERTEX
  8
LAYER-1
 10
4.424645
 20
0.195898
 30
0.000000
  0
VERTEX
  8
LAYER-1
 10
4.425513
 20
0.201106
 30
0.000000
  0
VERTEX
  8
LAYER-1
 10
4.423777
 20
0.205447
 30
0.000000
  0
VERTEX
  8
LAYER-1
 10
4.419436
 20
0.207183
 30
0.000000
  0
VERTEX
  8
LAYER-1
 10
4.415097
 20
0.207183
 30
0.000000
  0
VERTEX
  8
LAYER-1
 10
4.410756
 20
0.203711
 30
0.000000
  0
VERTEX
  8
LAYER-1
 10
4.410756
 20
0.199370
 30
0.000000
  0
VERTEX
  8
LAYER-1
 10
4.411624
 20
0.195029
 30
0.000000
  0
VERTEX
  8
LAYER-1
 10
4.415964
 20
0.192424
 30
0.000000
  0
SEQEND
  8
LAYER-1
  0
POLYLINE
  8
LAYER-1
 66
  1
 70
  1
 62
  0
 10
4.868650
 20
0.148154
 30
0.000000
  0
VERTEX
  8
LAYER-1
 10
4.868650
 20
0.148154
 30
0.000000
  0
VERTEX
  8
LAYER-1
 10
4.894691
 20
0.155099
 30
0.000000
  0
VERTEX
  8
LAYER-1
 10
4.880803
 20
0.180272
 30
0.000000
  0
SEQEND
  8
LAYER-1
  0
POLYLINE
  8
LAYER-1
 66
  1
 70
  1
 62
  0
 10
4.550945
 20
0.201106
 30
0.000000
  0
VERTEX
  8
LAYER-1
 10
4.550945
 20
0.201106
 30
0.000000
  0
VERTEX
  8
LAYER-1
 10
4.573515
 20
0.188085
 30
0.000000
  0
VERTEX
  8
LAYER-1
 10
4.552682
 20
0.218467
 30
0.000000
  0
SEQEND
  8
LAYER-1
  0
POLYLINE
  8
LAYER-1
 66
  1
 70
  1
 62
  0
 10
5.487575
 20
0.106484
 30
0.000000
  0
VERTEX
  8
LAYER-1
 10
5.487575
 20
0.106484
 30
0.000000
  0
VERTEX
  8
LAYER-1
 10
5.512749
 20
0.089991
 30
0.000000
  0
VERTEX
  8
LAYER-1
 10
5.520562
 20
0.104748
 30
0.000000
  0
SEQEND
  8
LAYER-1
  0
POLYLINE
  8
LAYER-1
 66
  1
 70
  0
 62
  0
 10
5.308755
 20
0.115167
 30
0.000000
  0
VERTEX
  8
LAYER-1
 10
5.308755
 20
0.115167
 30
0.000000
  0
VERTEX
  8
LAYER-1
 10
5.308755
 20
0.110827
 30
0.000000
  0
VERTEX
  8
LAYER-1
 10
5.313096
 20
0.107354
 30
0.000000
  0
VERTEX
  8
LAYER-1
 10
5.318303
 20
0.106487
 30
0.000000
  0
VERTEX
  8
LAYER-1
 10
5.322644
 20
0.108223
 30
0.000000
  0
VERTEX
  8
LAYER-1
 10
5.324380
 20
0.112563
 30
0.000000
  0
VERTEX
  8
LAYER-1
 10
5.324380
 20
0.116904
 30
0.000000
  0
VERTEX
  8
LAYER-1
 10
5.320908
 20
0.121243
 30
0.000000
  0
VERTEX
  8
LAYER-1
 10
5.316568
 20
0.121243
 30
0.000000
  0
VERTEX
  8
LAYER-1
 10
5.312227
 20
0.120376
 30
0.000000
  0
VERTEX
  8
LAYER-1
 10
5.309623
 20
0.116035
 30
0.000000
  0
SEQEND
  8
LAYER-1
  0
POLYLINE
  8
LAYER-1
 66
  1
 70
  1
 62
  0
 10
4.938964
 20
0.135133
 30
0.000000
  0
VERTEX
  8
LAYER-1
 10
4.938964
 20
0.135133
 30
0.000000
  0
VERTEX
  8
LAYER-1
 10
4.961533
 20
0.122112
 30
0.000000
  0
VERTEX
  8
LAYER-1
 10
4.940701
 20
0.152493
 30
0.000000
  0
SEQEND
  8
LAYER-1
  0
POLYLINE
  8
LAYER-1
 66
  1
 70
  1
 62
  0
 10
4.901972
 20
0.206146
 30
0.000000
  0
VERTEX
  8
LAYER-1
 10
4.901972
 20
0.206146
 30
0.000000
  0
VERTEX
  8
LAYER-1
 10
4.921337
 20
0.193460
 30
0.000000
  0
VERTEX
  8
LAYER-1
 10
4.927347
 20
0.204811
 30
0.000000
  0
SEQEND
  8
LAYER-1
  0
POLYLINE
  8
LAYER-1
 66
  1
 70
  0
 62
  0
 10
4.546607
 20
0.141211
 30
0.000000
  0
VERTEX
  8
LAYER-1
 10
4.546607
 20
0.141211
 30
0.000000
  0
VERTEX
  8
LAYER-1
 10
4.546607
 20
0.136871
 30
0.000000
  0
VERTEX
  8
LAYER-1
 10
4.550947
 20
0.133398
 30
0.000000
  0
VERTEX
  8
LAYER-1
 10
4.556154
 20
0.132530
 30
0.000000
  0
VERTEX
  8
LAYER-1
 10
4.560495
 20
0.134266
 30
0.000000
  0
VERTEX
  8
LAYER-1
 10
4.562231
 20
0.138607
 30
0.000000
  0
VERTEX
  8
LAYER-1
 10
4.562231
 20
0.142947
 30
0.000000
  0
VERTEX
  8
LAYER-1
 10
4.558759
 20
0.147287
 30
0.000000
  0
VERTEX
  8
LAYER-1
 10
4.554418
 20
0.147287
 30
0.000000
  0
VERTEX
  8
LAYER-1
 10
4.550078
 20
0.146420
 30
0.000000
  0
VERTEX
  8
LAYER-1
 10
4.547473
 20
0.142079
 30
0.000000
  0
SEQEND
  8
LAYER-1
  0
POLYLINE
  8
LAYER-1
 66
  1
 70
  0
 62
  0
 10
4.952852
 20
0.103015
 30
0.000000
  0
VERTEX
  8
LAYER-1
 10
4.952852
 20
0.103015
 30
0.000000
  0
VERTEX
  8
LAYER-1
 10
4.952852
 20
0.098674
 30
0.000000
  0
VERTEX
  8
LAYER-1
 10
4.957193
 20
0.095203
 30
0.000000
  0
VERTEX
  8
LAYER-1
 10
4.962400
 20
0.094334
 30
0.000000
  0
VERTEX
  8
LAYER-1
 10
4.966741
 20
0.096071
 30
0.000000
  0
VERTEX
  8
LAYER-1
 10
4.968477
 20
0.100410
 30
0.000000
  0
VERTEX
  8
LAYER-1
 10
4.968477
 20
0.104752
 30
0.000000
  0
VERTEX
  8
LAYER-1
 10
4.965005
 20
0.109092
 30
0.000000
  0
VERTEX
  8
LAYER-1
 10
4.960665
 20
0.109092
 30
0.000000
  0
VERTEX
  8
LAYER-1
 10
4.956324
 20
0.108223
 30
0.000000
  0
VERTEX
  8
LAYER-1
 10
4.953720
 20
0.103884
 30
0.000000
  0
SEQEND
  8
LAYER-1
  0
POLYLINE
  8
LAYER-1
 66
  1
 70
  0
 62
  0
 10
5.021428
 20
0.138606
 30
0.000000
  0
VERTEX
  8
LAYER-1
 10
5.021428
 20
0.138606
 30
0.000000
  0
VERTEX
  8
LAYER-1
 10
5.021428
 20
0.134265
 30
0.000000
  0
VERTEX
  8
LAYER-1
 10
5.025769
 20
0.130793
 30
0.000000
  0
VERTEX
  8
LAYER-1
 10
5.030977
 20
0.129924
 30
0.000000
  0
VERTEX
  8
LAYER-1
 10
5.035318
 20
0.131661
 30
0.000000
  0
VERTEX
  8
LAYER-1
 10
5.037053
 20
0.136002
 30
0.000000
  0
VERTEX
  8
LAYER-1
 10
5.037053
 20
0.140342
 30
0.000000
  0
VERTEX
  8
LAYER-1
 10
5.033582
 20
0.144683
 30
0.000000
  0
VERTEX
  8
LAYER-1
 10
5.029241
 20
0.144683
 30
0.000000
  0
VERTEX
  8
LAYER-1
 10
5.024900
 20
0.143814
 30
0.000000
  0
VERTEX
  8
LAYER-1
 10
5.022296
 20
0.139474
 30
0.000000
  0
SEQEND
  8
LAYER-1
  0
POLYLINE
  8
LAYER-1
 66
  1
 70
  1
 62
  0
 10
5.060839
 20
0.159873
 30
0.000000
  0
VERTEX
  8
LAYER-1
 10
5.060839
 20
0.159873
 30
0.000000
  0
VERTEX
  8
LAYER-1
 10
5.067783
 20
0.133833
 30
0.000000
  0
VERTEX
  8
LAYER-1
 10
5.092957
 20
0.147720
 30
0.000000
  0
SEQEND
  8
LAYER-1
  0
POLYLINE
  8
LAYER-1
 66
  1
 70
  1
 62
  0
 10
5.222384
 20
0.188520
 30
0.000000
  0
VERTEX
  8
LAYER-1
 10
5.222384
 20
0.188520
 30
0.000000
  0
VERTEX
  8
LAYER-1
 10
5.209363
 20
0.165950
 30
0.000000
  0
VERTEX
  8
LAYER-1
 10
5.239745
 20
0.186782
 30
0.000000
  0
SEQEND
  8
LAYER-1
  0
POLYLINE
  8
LAYER-1
 66
  1
 70
  1
 62
  0
 10
5.614745
 20
0.159002
 30
0.000000
  0
VERTEX
  8
LAYER-1
 10
5.614745
 20
0.159002
 30
0.000000
  0
VERTEX
  8
LAYER-1
 10
5.598252
 20
0.133828
 30
0.000000
  0
VERTEX
  8
LAYER-1
 10
5.613009
 20
0.126016
 30
0.000000
  0
SEQEND
  8
LAYER-1
  0
POLYLINE
  8
LAYER-1
 66
  1
 70
  0
 62
  0
 10
5.010579
 20
0.191122
 30
0.000000
  0
VERTEX
  8
LAYER-1
 10
5.010579
 20
0.191122
 30
0.000000
  0
VERTEX
  8
LAYER-1
 10
5.006238
 20
0.191122
 30
0.000000
  0
VERTEX
  8
LAYER-1
 10
5.002766
 20
0.186782
 30
0.000000
  0
VERTEX
  8
LAYER-1
 10
5.001898
 20
0.181574
 30
0.000000
  0
VERTEX
  8
LAYER-1
 10
5.003634
 20
0.177233
 30
0.000000
  0
VERTEX
  8
LAYER-1
 10
5.007975
 20
0.175497
 30
0.000000
  0
VERTEX
  8
LAYER-1
 10
5.012315
 20
0.175497
 30
0.000000
  0
VERTEX
  8
LAYER-1
 10
5.016655
 20
0.178969
 30
0.000000
  0
VERTEX
  8
LAYER-1
 10
5.016655
 20
0.183310
 30
0.000000
  0
VERTEX
  8
LAYER-1
 10
5.015787
 20
0.187651
 30
0.000000
  0
VERTEX
  8
LAYER-1
 10
5.011447
 20
0.190255
 30
0.000000
  0
SEQEND
  8
LAYER-1
  0
POLYLINE
  8
LAYER-1
 66
  1
 70
  1
 62
  0
 10
5.073947
 20
0.114734
 30
0.000000
  0
VERTEX
  8
LAYER-1
 10
5.073947
 20
0.114734
 30
0.000000
  0
VERTEX
  8
LAYER-1
 10
5.060926
 20
0.092164
 30
0.000000
  0
VERTEX
  8
LAYER-1
 10
5.091309
 20
0.112996
 30
0.000000
  0
SEQEND
  8
LAYER-1
  0
POLYLINE
  8
LAYER-1
 66
  1
 70
  1
 62
  0
 10
5.142690
 20
0.092496
 30
0.000000
  0
VERTEX
  8
LAYER-1
 10
5.142690
 20
0.092496
 30
0.000000
  0
VERTEX
  8
LAYER-1
 10
5.155378
 20
0.111860
 30
0.000000
  0
VERTEX
  8
LAYER-1
 10
5.144026
 20
0.117872
 30
0.000000
  0
SEQEND
  8
LAYER-1
  0
POLYLINE
  8
LAYER-1
 66
  1
 70
  0
 62
  0
 10
5.162488
 20
0.192858
 30
0.000000
  0
VERTEX
  8
LAYER-1
 10
5.162488
 20
0.192858
 30
0.000000
  0
VERTEX
  8
LAYER-1
 10
5.158148
 20
0.192858
 30
0.000000
  0
VERTEX
  8
LAYER-1
 10
5.154675
 20
0.188517
 30
0.000000
  0
VERTEX
  8
LAYER-1
 10
5.153807
 20
0.183310
 30
0.000000
  0
VERTEX
  8
LAYER-1
 10
5.155543
 20
0.178969
 30
0.000000
  0
VERTEX
  8
LAYER-1
 10
5.159884
 20
0.177233
 30
0.000000
  0
VERTEX
  8
LAYER-1
 10
5.164225
 20
0.177233
 30
0.000000
  0
VERTEX
  8
LAYER-1
 10
5.168565
 20
0.180705
 30
0.000000
  0
VERTEX
  8
LAYER-1
 10
5.168565
 20
0.185046
 30
0.000000
  0
VERTEX
  8
LAYER-1
 10
5.167697
 20
0.189386
 30
0.000000
  0
VERTEX
  8
LAYER-1
 10
5.163356
 20
0.191991
 30
0.000000
  0
SEQEND
  8
LAYER-1
  0
POLYLINE
  8
LAYER-1
 66
  1
 70
  0
 62
  0
 10
5.666828
 20
0.152925
 30
0.000000
  0
VERTEX
  8
LAYER-1
 10
5.666828
 20
0.152925
 30
0.000000
  0
VERTEX
  8
LAYER-1
 10
5.662487
 20
0.152925
 30
0.000000
  0
VERTEX
  8
LAYER-1
 10
5.659015
 20
0.148584
 30
0.000000
  0
VERTEX
  8
LAYER-1
 10
5.658147
 20
0.143377
 30
0.000000
  0
VERTEX
  8
LAYER-1
 10
5.659883
 20
0.139036
 30
0.000000
  0
VERTEX
  8
LAYER-1
 10
5.664224
 20
0.137300
 30
0.000000
  0
VERTEX
  8
LAYER-1
 10
5.668563
 20
0.137300
 30
0.000000
  0
VERTEX
  8
LAYER-1
 10
5.672904
 20
0.140772
 30
0.000000
  0
VERTEX
  8
LAYER-1
 10
5.672904
 20
0.145113
 30
0.000000
  0
VERTEX
  8
LAYER-1
 10
5.672036
 20
0.149453
 30
0.000000
  0
VERTEX
  8
LAYER-1
 10
5.667696
 20
0.152058
 30
0.000000
  0
SEQEND
  8
LAYER-1
  0
POLYLINE
  8
LAYER-1
 66
  1
 70
  0
 62
  0
 10
5.575684
 20
0.120807
 30
0.000000
  0
VERTEX
  8
LAYER-1
 10
5.575684
 20
0.120807
 30
0.000000
  0
VERTEX
  8
LAYER-1
 10
5.571343
 20
0.120807
 30
0.000000
  0
VERTEX
  8
LAYER-1
 10
5.567871
 20
0.116466
 30
0.000000
  0
VERTEX
  8
LAYER-1
 10
5.567003
 20
0.111259
 30
0.000000
  0
VERTEX
  8
LAYER-1
 10
5.568739
 20
0.106917
 30
0.000000
  0
VERTEX
  8
LAYER-1
 10
5.573079
 20
0.105182
 30
0.000000
  0
VERTEX
  8
LAYER-1
 10
5.577419
 20
0.105182
 30
0.000000
  0
VERTEX
  8
LAYER-1
 10
5.581760
 20
0.108654
 30
0.000000
  0
VERTEX
  8
LAYER-1
 10
5.581760
 20
0.112995
 30
0.000000
  0
VERTEX
  8
LAYER-1
 10
5.580892
 20
0.117335
 30
0.000000
  0
VERTEX
  8
LAYER-1
 10
5.576551
 20
0.119940
 30
0.000000
  0
SEQEND
  8
LAYER-1
  0
POLYLINE
  8
LAYER-1
 66
  1
 70
  1
 62
  0
 10
5.260579
 20
0.175065
 30
0.000000
  0
VERTEX
  8
LAYER-1
 10
5.260579
 20
0.175065
 30
0.000000
  0
VERTEX
  8
LAYER-1
 10
5.286619
 20
0.182009
 30
0.000000
  0
VERTEX
  8
LAYER-1
 10
5.272732
 20
0.207183
 30
0.000000
  0
SEQEND
  8
LAYER-1
  0
POLYLINE
  8
LAYER-1
 66
  1
 70
  0
 62
  0
 10
5.229329
 20
0.125586
 30
0.000000
  0
VERTEX
  8
LAYER-1
 10
5.229329
 20
0.125586
 30
0.000000
  0
VERTEX
  8
LAYER-1
 10
5.229329
 20
0.121246
 30
0.000000
  0
VERTEX
  8
LAYER-1
 10
5.233669
 20
0.117773
 30
0.000000
  0
VERTEX
  8
LAYER-1
 10
5.238877
 20
0.116906
 30
0.000000
  0
VERTEX
  8
LAYER-1
 10
5.243218
 20
0.118642
 30
0.000000
  0
VERTEX
  8
LAYER-1
 10
5.244954
 20
0.122982
 30
0.000000
  0
VERTEX
  8
LAYER-1
 10
5.244954
 20
0.127323
 30
0.000000
  0
VERTEX
  8
LAYER-1
 10
5.241482
 20
0.131662
 30
0.000000
  0
VERTEX
  8
LAYER-1
 10
5.237141
 20
0.131662
 30
0.000000
  0
VERTEX
  8
LAYER-1
 10
5.232800
 20
0.130795
 30
0.000000
  0
VERTEX
  8
LAYER-1
 10
5.230196
 20
0.126455
 30
0.000000
  0
SEQEND
  8
LAYER-1
  0
POLYLINE
  8
LAYER-1
 66
  1
 70
  1
 62
  0
 10
5.324381
 20
0.139041
 30
0.000000
  0
VERTEX
  8
LAYER-1
 10
5.324381
 20
0.139041
 30
0.000000
  0
VERTEX
  8
LAYER-1
 10
5.337401
 20
0.161611
 30
0.000000
  0
VERTEX
  8
LAYER-1
 10
5.307020
 20
0.140778
 30
0.000000
  0
SEQEND
  8
LAYER-1
  0
POLYLINE
  8
LAYER-1
 66
  1
 70
  0
 62
  0
 10
5.379502
 20
0.173329
 30
0.000000
  0
VERTEX
  8
LAYER-1
 10
5.379502
 20
0.173329
 30
0.000000
  0
VERTEX
  8
LAYER-1
 10
5.379502
 20
0.168989
 30
0.000000
  0
VERTEX
  8
LAYER-1
 10
5.383843
 20
0.165517
 30
0.000000
  0
VERTEX
  8
LAYER-1
 10
5.389050
 20
0.164648
 30
0.000000
  0
VERTEX
  8
LAYER-1
 10
5.393391
 20
0.166385
 30
0.000000
  0
VERTEX
  8
LAYER-1
 10
5.395127
 20
0.170725
 30
0.000000
  0
VERTEX
  8
LAYER-1
 10
5.395127
 20
0.175065
 30
0.000000
  0
VERTEX
  8
LAYER-1
 10
5.391655
 20
0.179405
 30
0.000000
  0
VERTEX
  8
LAYER-1
 10
5.387315
 20
0.179405
 30
0.000000
  0
VERTEX
  8
LAYER-1
 10
5.382974
 20
0.178536
 30
0.000000
  0
VERTEX
  8
LAYER-1
 10
5.380369
 20
0.174197
 30
0.000000
  0
SEQEND
  8
LAYER-1
  0
POLYLINE
  8
LAYER-1
 66
  1
 70
  1
 62
  0
 10
6.125426
 20
0.189734
 30
0.000000
  0
VERTEX
  8
LAYER-1
 10
6.125426
 20
0.189734
 30
0.000000
  0
VERTEX
  8
LAYER-1
 10
6.118480
 20
0.215775
 30
0.000000
  0
VERTEX
  8
LAYER-1
 10
6.093307
 20
0.201886
 30
0.000000
  0
SEQEND
  8
LAYER-1
  0
POLYLINE
  8
LAYER-1
 66
  1
 70
  0
 62
  0
 10
6.165965
 20
0.063518
 30
0.000000
  0
VERTEX
  8
LAYER-1
 10
6.165965
 20
0.063518
 30
0.000000
  0
VERTEX
  8
LAYER-1
 10
6.170304
 20
0.063518
 30
0.000000
  0
VERTEX
  8
LAYER-1
 10
6.173777
 20
0.067859
 30
0.000000
  0
VERTEX
  8
LAYER-1
 10
6.174644
 20
0.073067
 30
0.000000
  0
VERTEX
  8
LAYER-1
 10
6.172908
 20
0.077408
 30
0.000000
  0
VERTEX
  8
LAYER-1
 10
6.168569
 20
0.079143
 30
0.000000
  0
VERTEX
  8
LAYER-1
 10
6.164228
 20
0.079143
 30
0.000000
  0
VERTEX
  8
LAYER-1
 10
6.159888
 20
0.075672
 30
0.000000
  0
VERTEX
  8
LAYER-1
 10
6.159888
 20
0.071331
 30
0.000000
  0
VERTEX
  8
LAYER-1
 10
6.160756
 20
0.066990
 30
0.000000
  0
VERTEX
  8
LAYER-1
 10
6.165096
 20
0.064386
 30
0.000000
  0
SEQEND
  8
LAYER-1
  0
POLYLINE
  8
LAYER-1
 66
  1
 70
  1
 62
  0
 10
5.462401
 20
0.096505
 30
0.000000
  0
VERTEX
  8
LAYER-1
 10
5.462401
 20
0.096505
 30
0.000000
  0
VERTEX
  8
LAYER-1
 10
5.475421
 20
0.119075
 30
0.000000
  0
VERTEX
  8
LAYER-1
 10
5.445040
 20
0.098242
 30
0.000000
  0
SEQEND
  8
LAYER-1
  0
POLYLINE
  8
LAYER-1
 66
  1
 70
  0
 62
  0
 10
5.506154
 20
0.174838
 30
0.000000
  0
VERTEX
  8
LAYER-1
 10
5.506154
 20
0.174838
 30
0.000000
  0
VERTEX
  8
LAYER-1
 10
5.510494
 20
0.174838
 30
0.000000
  0
VERTEX
  8
LAYER-1
 10
5.513966
 20
0.179179
 30
0.000000
  0
VERTEX
  8
LAYER-1
 10
5.514835
 20
0.184386
 30
0.000000
  0
VERTEX
  8
LAYER-1
 10
5.513098
 20
0.188727
 30
0.000000
  0
VERTEX
  8
LAYER-1
 10
5.508758
 20
0.190463
 30
0.000000
  0
VERTEX
  8
LAYER-1
 10
5.504417
 20
0.190463
 30
0.000000
  0
VERTEX
  8
LAYER-1
 10
5.500077
 20
0.186991
 30
0.000000
  0
VERTEX
  8
LAYER-1
 10
5.500077
 20
0.182650
 30
0.000000
  0
VERTEX
  8
LAYER-1
 10
5.500946
 20
0.178310
 30
0.000000
  0
VERTEX
  8
LAYER-1
 10
5.505285
 20
0.175706
 30
0.000000
  0
SEQEND
  8
LAYER-1
  0
POLYLINE
  8
LAYER-1
 66
  1
 70
  1
 62
  0
 10
6.045739
 20
0.105621
 30
0.000000
  0
VERTEX
  8
LAYER-1
 10
6.045739
 20
0.105621
 30
0.000000
  0
VERTEX
  8
LAYER-1
 10
6.019697
 20
0.098676
 30
0.000000
  0
VERTEX
  8
LAYER-1
 10
6.033585
 20
0.073502
 30
0.000000
  0
SEQEND
  8
LAYER-1
  0
POLYLINE
  8
LAYER-1
 66
  1
 70
  0
 62
  0
 10
5.410752
 20
0.120379
 30
0.000000
  0
VERTEX
  8
LAYER-1
 10
5.410752
 20
0.120379
 30
0.000000
  0
VERTEX
  8
LAYER-1
 10
5.410752
 20
0.124718
 30
0.000000
  0
VERTEX
  8
LAYER-1
 10
5.406411
 20
0.128192
 30
0.000000
  0
VERTEX
  8
LAYER-1
 10
5.401204
 20
0.129059
 30
0.000000
  0
VERTEX
  8
LAYER-1
 10
5.396863
 20
0.127323
 30
0.000000
  0
VERTEX
  8
LAYER-1
 10
5.395127
 20
0.122982
 30
0.000000
  0
VERTEX
  8
LAYER-1
 10
5.395127
 20
0.118641
 30
0.000000
  0
VERTEX
  8
LAYER-1
 10
5.398599
 20
0.114303
 30
0.000000
  0
VERTEX
  8
LAYER-1
 10
5.402940
 20
0.114303
 30
0.000000
  0
VERTEX
  8
LAYER-1
 10
5.407280
 20
0.115170
 30
0.000000
  0
VERTEX
  8
LAYER-1
 10
5.409884
 20
0.119510
 30
0.000000
  0
SEQEND
  8
LAYER-1
  0
POLYLINE
  8
LAYER-1
 66
  1
 70
  1
 62
  0
 10
5.994523
 20
0.095205
 30
0.000000
  0
VERTEX
  8
LAYER-1
 10
5.994523
 20
0.095205
 30
0.000000
  0
VERTEX
  8
LAYER-1
 10
5.966745
 20
0.111697
 30
0.000000
  0
VERTEX
  8
LAYER-1
 10
5.987578
 20
0.081316
 30
0.000000
  0
SEQEND
  8
LAYER-1
  0
POLYLINE
  8
LAYER-1
 66
  1
 70
  0
 62
  0
 10
5.705022
 20
0.176797
 30
0.000000
  0
VERTEX
  8
LAYER-1
 10
5.705022
 20
0.176797
 30
0.000000
  0
VERTEX
  8
LAYER-1
 10
5.705022
 20
0.181138
 30
0.000000
  0
VERTEX
  8
LAYER-1
 10
5.700681
 20
0.184609
 30
0.000000
  0
VERTEX
  8
LAYER-1
 10
5.695474
 20
0.185478
 30
0.000000
  0
VERTEX
  8
LAYER-1
 10
5.691133
 20
0.183740
 30
0.000000
  0
VERTEX
  8
LAYER-1
 10
5.689397
 20
0.179402
 30
0.000000
  0
VERTEX
  8
LAYER-1
 10
5.689397
 20
0.175061
 30
0.000000
  0
VERTEX
  8
LAYER-1
 10
5.692869
 20
0.170721
 30
0.000000
  0
VERTEX
  8
LAYER-1
 10
5.697210
 20
0.170721
 30
0.000000
  0
VERTEX
  8
LAYER-1
 10
5.701550
 20
0.171589
 30
0.000000
  0
VERTEX
  8
LAYER-1
 10
5.704154
 20
0.175928
 30
0.000000
  0
SEQEND
  8
LAYER-1
  0
POLYLINE
  8
LAYER-1
 66
  1
 70
  1
 62
  0
 10
6.275686
 20
0.083312
 30
0.000000
  0
VERTEX
  8
LAYER-1
 10
6.275686
 20
0.083312
 30
0.000000
  0
VERTEX
  8
LAYER-1
 10
6.268741
 20
0.109354
 30
0.000000
  0
VERTEX
  8
LAYER-1
 10
6.243568
 20
0.095465
 30
0.000000
  0
SEQEND
  8
LAYER-1
  0
POLYLINE
  8
LAYER-1
 66
  1
 70
  0
 62
  0
 10
6.365530
 20
0.183571
 30
0.000000
  0
VERTEX
  8
LAYER-1
 10
6.365530
 20
0.183571
 30
0.000000
  0
VERTEX
  8
LAYER-1
 10
6.369871
 20
0.183571
 30
0.000000
  0
VERTEX
  8
LAYER-1
 10
6.373343
 20
0.187912
 30
0.000000
  0
VERTEX
  8
LAYER-1
 10
6.374210
 20
0.193119
 30
0.000000
  0
VERTEX
  8
LAYER-1
 10
6.372474
 20
0.197461
 30
0.000000
  0
VERTEX
  8
LAYER-1
 10
6.368135
 20
0.199196
 30
0.000000
  0
VERTEX
  8
LAYER-1
 10
6.363795
 20
0.199196
 30
0.000000
  0
VERTEX
  8
LAYER-1
 10
6.359454
 20
0.195724
 30
0.000000
  0
VERTEX
  8
LAYER-1
 10
6.359454
 20
0.191383
 30
0.000000
  0
VERTEX
  8
LAYER-1
 10
6.360323
 20
0.187043
 30
0.000000
  0
VERTEX
  8
LAYER-1
 10
6.364661
 20
0.184439
 30
0.000000
  0
SEQEND
  8
LAYER-1
  0
POLYLINE
  8
LAYER-1
 66
  1
 70
  1
 62
  0
 10
6.350772
 20
0.218727
 30
0.000000
  0
VERTEX
  8
LAYER-1
 10
6.350772
 20
0.218727
 30
0.000000
  0
VERTEX
  8
LAYER-1
 10
6.324730
 20
0.211783
 30
0.000000
  0
VERTEX
  8
LAYER-1
 10
6.338619
 20
0.186610
 30
0.000000
  0
SEQEND
  8
LAYER-1
  0
POLYLINE
  8
LAYER-1
 66
  1
 70
  1
 62
  0
 10
5.599554
 20
0.077411
 30
0.000000
  0
VERTEX
  8
LAYER-1
 10
5.599554
 20
0.077411
 30
0.000000
  0
VERTEX
  8
LAYER-1
 10
5.612575
 20
0.099981
 30
0.000000
  0
VERTEX
  8
LAYER-1
 10
5.582194
 20
0.079148
 30
0.000000
  0
SEQEND
  8
LAYER-1
  0
POLYLINE
  8
LAYER-1
 66
  1
 70
  0
 62
  0
 10
5.596082
 20
0.184180
 30
0.000000
  0
VERTEX
  8
LAYER-1
 10
5.596082
 20
0.184180
 30
0.000000
  0
VERTEX
  8
LAYER-1
 10
5.600422
 20
0.184180
 30
0.000000
  0
VERTEX
  8
LAYER-1
 10
5.603894
 20
0.188521
 30
0.000000
  0
VERTEX
  8
LAYER-1
 10
5.604763
 20
0.193728
 30
0.000000
  0
VERTEX
  8
LAYER-1
 10
5.603027
 20
0.198068
 30
0.000000
  0
VERTEX
  8
LAYER-1
 10
5.598687
 20
0.199805
 30
0.000000
  0
VERTEX
  8
LAYER-1
 10
5.594346
 20
0.199805
 30
0.000000
  0
VERTEX
  8
LAYER-1
 10
5.590005
 20
0.196333
 30
0.000000
  0
VERTEX
  8
LAYER-1
 10
5.590005
 20
0.191992
 30
0.000000
  0
VERTEX
  8
LAYER-1
 10
5.590874
 20
0.187652
 30
0.000000
  0
VERTEX
  8
LAYER-1
 10
5.595215
 20
0.185048
 30
0.000000
  0
SEQEND
  8
LAYER-1
  0
POLYLINE
  8
LAYER-1
 66
  1
 70
  1
 62
  0
 10
5.548772
 20
0.162911
 30
0.000000
  0
VERTEX
  8
LAYER-1
 10
5.548772
 20
0.162911
 30
0.000000
  0
VERTEX
  8
LAYER-1
 10
5.573947
 20
0.146418
 30
0.000000
  0
VERTEX
  8
LAYER-1
 10
5.581760
 20
0.161176
 30
0.000000
  0
SEQEND
  8
LAYER-1
  0
POLYLINE
  8
LAYER-1
 66
  1
 70
  1
 62
  0
 10
5.535419
 20
0.135300
 30
0.000000
  0
VERTEX
  8
LAYER-1
 10
5.535419
 20
0.135300
 30
0.000000
  0
VERTEX
  8
LAYER-1
 10
5.516056
 20
0.147987
 30
0.000000
  0
VERTEX
  8
LAYER-1
 10
5.510044
 20
0.136636
 30
0.000000
  0
SEQEND
  8
LAYER-1
  0
POLYLINE
  8
LAYER-1
 66
  1
 70
  1
 62
  0
 10
1.312664
 20
0.194160
 30
0.000000
  0
VERTEX
  8
LAYER-1
 10
1.312664
 20
0.194160
 30
0.000000
  0
VERTEX
  8
LAYER-1
 10
1.299643
 20
0.171591
 30
0.000000
  0
VERTEX
  8
LAYER-1
 10
1.330025
 20
0.192424
 30
0.000000
  0
SEQEND
  8
LAYER-1
  0
POLYLINE
  8
LAYER-1
 66
  1
 70
  1
 62
  0
 10
5.862143
 20
0.121247
 30
0.000000
  0
VERTEX
  8
LAYER-1
 10
5.862143
 20
0.121247
 30
0.000000
  0
VERTEX
  8
LAYER-1
 10
5.884713
 20
0.108226
 30
0.000000
  0
VERTEX
  8
LAYER-1
 10
5.863880
 20
0.138608
 30
0.000000
  0
SEQEND
  8
LAYER-1
  0
POLYLINE
  8
LAYER-1
 66
  1
 70
  0
 62
  0
 10
5.790095
 20
0.168120
 30
0.000000
  0
VERTEX
  8
LAYER-1
 10
5.790095
 20
0.168120
 30
0.000000
  0
VERTEX
  8
LAYER-1
 10
5.790095
 20
0.163779
 30
0.000000
  0
VERTEX
  8
LAYER-1
 10
5.794435
 20
0.160307
 30
0.000000
  0
VERTEX
  8
LAYER-1
 10
5.799643
 20
0.159439
 30
0.000000
  0
VERTEX
  8
LAYER-1
 10
5.803984
 20
0.161174
 30
0.000000
  0
VERTEX
  8
LAYER-1
 10
5.805720
 20
0.165515
 30
0.000000
  0
VERTEX
  8
LAYER-1
 10
5.805720
 20
0.169855
 30
0.000000
  0
VERTEX
  8
LAYER-1
 10
5.802248
 20
0.174195
 30
0.000000
  0
VERTEX
  8
LAYER-1
 10
5.797907
 20
0.174195
 30
0.000000
  0
VERTEX
  8
LAYER-1
 10
5.793566
 20
0.173327
 30
0.000000
  0
VERTEX
  8
LAYER-1
 10
5.790963
 20
0.168987
 30
0.000000
  0
SEQEND
  8
LAYER-1
  0
POLYLINE
  8
LAYER-1
 66
  1
 70
  1
 62
  0
 10
5.739747
 20
0.179404
 30
0.000000
  0
VERTEX
  8
LAYER-1
 10
5.739747
 20
0.179404
 30
0.000000
  0
VERTEX
  8
LAYER-1
 10
5.762316
 20
0.166384
 30
0.000000
  0
VERTEX
  8
LAYER-1
 10
5.741484
 20
0.196765
 30
0.000000
  0
SEQEND
  8
LAYER-1
  0
POLYLINE
  8
LAYER-1
 66
  1
 70
  0
 62
  0
 10
6.001900
 20
0.121247
 30
0.000000
  0
VERTEX
  8
LAYER-1
 10
6.001900
 20
0.121247
 30
0.000000
  0
VERTEX
  8
LAYER-1
 10
6.001900
 20
0.116906
 30
0.000000
  0
VERTEX
  8
LAYER-1
 10
6.006241
 20
0.113435
 30
0.000000
  0
VERTEX
  8
LAYER-1
 10
6.011449
 20
0.112567
 30
0.000000
  0
VERTEX
  8
LAYER-1
 10
6.015789
 20
0.114303
 30
0.000000
  0
VERTEX
  8
LAYER-1
 10
6.017525
 20
0.118642
 30
0.000000
  0
VERTEX
  8
LAYER-1
 10
6.017525
 20
0.122983
 30
0.000000
  0
VERTEX
  8
LAYER-1
 10
6.014053
 20
0.127324
 30
0.000000
  0
VERTEX
  8
LAYER-1
 10
6.009713
 20
0.127324
 30
0.000000
  0
VERTEX
  8
LAYER-1
 10
6.005372
 20
0.126455
 30
0.000000
  0
VERTEX
  8
LAYER-1
 10
6.002768
 20
0.122115
 30
0.000000
  0
SEQEND
  8
LAYER-1
  0
POLYLINE
  8
LAYER-1
 66
  1
 70
  0
 62
  0
 10
5.836102
 20
0.175934
 30
0.000000
  0
VERTEX
  8
LAYER-1
 10
5.836102
 20
0.175934
 30
0.000000
  0
VERTEX
  8
LAYER-1
 10
5.836102
 20
0.171593
 30
0.000000
  0
VERTEX
  8
LAYER-1
 10
5.840443
 20
0.168122
 30
0.000000
  0
VERTEX
  8
LAYER-1
 10
5.845650
 20
0.167254
 30
0.000000
  0
VERTEX
  8
LAYER-1
 10
5.849991
 20
0.168990
 30
0.000000
  0
VERTEX
  8
LAYER-1
 10
5.851727
 20
0.173329
 30
0.000000
  0
VERTEX
  8
LAYER-1
 10
5.851727
 20
0.177670
 30
0.000000
  0
VERTEX
  8
LAYER-1
 10
5.848255
 20
0.182010
 30
0.000000
  0
VERTEX
  8
LAYER-1
 10
5.843914
 20
0.182010
 30
0.000000
  0
VERTEX
  8
LAYER-1
 10
5.839574
 20
0.181141
 30
0.000000
  0
VERTEX
  8
LAYER-1
 10
5.836969
 20
0.176802
 30
0.000000
  0
SEQEND
  8
LAYER-1
  0
POLYLINE
  8
LAYER-1
 66
  1
 70
  1
 62
  0
 10
5.760582
 20
0.111265
 30
0.000000
  0
VERTEX
  8
LAYER-1
 10
5.760582
 20
0.111265
 30
0.000000
  0
VERTEX
  8
LAYER-1
 10
5.747560
 20
0.088693
 30
0.000000
  0
VERTEX
  8
LAYER-1
 10
5.777943
 20
0.109527
 30
0.000000
  0
SEQEND
  8
LAYER-1
  0
POLYLINE
  8
LAYER-1
 66
  1
 70
  0
 62
  0
 10
5.686881
 20
0.103399
 30
0.000000
  0
VERTEX
  8
LAYER-1
 10
5.686881
 20
0.103399
 30
0.000000
  0
VERTEX
  8
LAYER-1
 10
5.682541
 20
0.103399
 30
0.000000
  0
VERTEX
  8
LAYER-1
 10
5.679068
 20
0.099058
 30
0.000000
  0
VERTEX
  8
LAYER-1
 10
5.678201
 20
0.093851
 30
0.000000
  0
VERTEX
  8
LAYER-1
 10
5.679936
 20
0.089510
 30
0.000000
  0
VERTEX
  8
LAYER-1
 10
5.684277
 20
0.087774
 30
0.000000
  0
VERTEX
  8
LAYER-1
 10
5.688618
 20
0.087774
 30
0.000000
  0
VERTEX
  8
LAYER-1
 10
5.692958
 20
0.091246
 30
0.000000
  0
VERTEX
  8
LAYER-1
 10
5.692958
 20
0.095586
 30
0.000000
  0
VERTEX
  8
LAYER-1
 10
5.692090
 20
0.099927
 30
0.000000
  0
VERTEX
  8
LAYER-1
 10
5.687749
 20
0.102532
 30
0.000000
  0
SEQEND
  8
LAYER-1
  0
POLYLINE
  8
LAYER-1
 66
  1
 70
  0
 62
  0
 10
5.760582
 20
0.141645
 30
0.000000
  0
VERTEX
  8
LAYER-1
 10
5.760582
 20
0.141645
 30
0.000000
  0
VERTEX
  8
LAYER-1
 10
5.756241
 20
0.141645
 30
0.000000
  0
VERTEX
  8
LAYER-1
 10
5.752769
 20
0.137304
 30
0.000000
  0
VERTEX
  8
LAYER-1
 10
5.751901
 20
0.132096
 30
0.000000
  0
VERTEX
  8
LAYER-1
 10
5.753637
 20
0.127755
 30
0.000000
  0
VERTEX
  8
LAYER-1
 10
5.757978
 20
0.126020
 30
0.000000
  0
VERTEX
  8
LAYER-1
 10
5.762318
 20
0.126020
 30
0.000000
  0
VERTEX
  8
LAYER-1
 10
5.766658
 20
0.129491
 30
0.000000
  0
VERTEX
  8
LAYER-1
 10
5.766658
 20
0.133832
 30
0.000000
  0
VERTEX
  8
LAYER-1
 10
5.765790
 20
0.138173
 30
0.000000
  0
VERTEX
  8
LAYER-1
 10
5.761450
 20
0.140778
 30
0.000000
  0
SEQEND
  8
LAYER-1
  0
POLYLINE
  8
LAYER-1
 66
  1
 70
  1
 62
  0
 10
6.067873
 20
0.158139
 30
0.000000
  0
VERTEX
  8
LAYER-1
 10
6.067873
 20
0.158139
 30
0.000000
  0
VERTEX
  8
LAYER-1
 10
6.074818
 20
0.132097
 30
0.000000
  0
VERTEX
  8
LAYER-1
 10
6.099991
 20
0.145985
 30
0.000000
  0
SEQEND
  8
LAYER-1
  0
POLYLINE
  8
LAYER-1
 66
  1
 70
  1
 62
  0
 10
6.230200
 20
0.186784
 30
0.000000
  0
VERTEX
  8
LAYER-1
 10
6.230200
 20
0.186784
 30
0.000000
  0
VERTEX
  8
LAYER-1
 10
6.217178
 20
0.164215
 30
0.000000
  0
VERTEX
  8
LAYER-1
 10
6.247560
 20
0.185047
 30
0.000000
  0
SEQEND
  8
LAYER-1
  0
POLYLINE
  8
LAYER-1
 66
  1
 70
  0
 62
  0
 10
6.018394
 20
0.189387
 30
0.000000
  0
VERTEX
  8
LAYER-1
 10
6.018394
 20
0.189387
 30
0.000000
  0
VERTEX
  8
LAYER-1
 10
6.014053
 20
0.189387
 30
0.000000
  0
VERTEX
  8
LAYER-1
 10
6.010582
 20
0.185047
 30
0.000000
  0
VERTEX
  8
LAYER-1
 10
6.009713
 20
0.179839
 30
0.000000
  0
VERTEX
  8
LAYER-1
 10
6.011450
 20
0.175498
 30
0.000000
  0
VERTEX
  8
LAYER-1
 10
6.015789
 20
0.173762
 30
0.000000
  0
VERTEX
  8
LAYER-1
 10
6.020130
 20
0.173762
 30
0.000000
  0
VERTEX
  8
LAYER-1
 10
6.024471
 20
0.177234
 30
0.000000
  0
VERTEX
  8
LAYER-1
 10
6.024471
 20
0.181575
 30
0.000000
  0
VERTEX
  8
LAYER-1
 10
6.023602
 20
0.185916
 30
0.000000
  0
VERTEX
  8
LAYER-1
 10
6.019262
 20
0.188520
 30
0.000000
  0
SEQEND
  8
LAYER-1
  0
POLYLINE
  8
LAYER-1
 66
  1
 70
  1
 62
  0
 10
6.128639
 20
0.121680
 30
0.000000
  0
VERTEX
  8
LAYER-1
 10
6.128639
 20
0.121680
 30
0.000000
  0
VERTEX
  8
LAYER-1
 10
6.115618
 20
0.099110
 30
0.000000
  0
VERTEX
  8
LAYER-1
 10
6.146000
 20
0.119943
 30
0.000000
  0
SEQEND
  8
LAYER-1
  0
POLYLINE
  8
LAYER-1
 66
  1
 70
  0
 62
  0
 10
6.170303
 20
0.191123
 30
0.000000
  0
VERTEX
  8
LAYER-1
 10
6.170303
 20
0.191123
 30
0.000000
  0
VERTEX
  8
LAYER-1
 10
6.165963
 20
0.191123
 30
0.000000
  0
VERTEX
  8
LAYER-1
 10
6.162491
 20
0.186783
 30
0.000000
  0
VERTEX
  8
LAYER-1
 10
6.161623
 20
0.181575
 30
0.000000
  0
VERTEX
  8
LAYER-1
 10
6.163359
 20
0.177234
 30
0.000000
  0
VERTEX
  8
LAYER-1
 10
6.167700
 20
0.175498
 30
0.000000
  0
VERTEX
  8
LAYER-1
 10
6.172039
 20
0.175498
 30
0.000000
  0
VERTEX
  8
LAYER-1
 10
6.176380
 20
0.178970
 30
0.000000
  0
VERTEX
  8
LAYER-1
 10
6.176380
 20
0.183311
 30
0.000000
  0
VERTEX
  8
LAYER-1
 10
6.175512
 20
0.187652
 30
0.000000
  0
VERTEX
  8
LAYER-1
 10
6.171171
 20
0.190255
 30
0.000000
  0
SEQEND
  8
LAYER-1
  0
POLYLINE
  8
LAYER-1
 66
  1
 70
  1
 62
  0
 10
6.509713
 20
0.182443
 30
0.000000
  0
VERTEX
  8
LAYER-1
 10
6.509713
 20
0.182443
 30
0.000000
  0
VERTEX
  8
LAYER-1
 10
6.516657
 20
0.156403
 30
0.000000
  0
VERTEX
  8
LAYER-1
 10
6.541831
 20
0.170291
 30
0.000000
  0
SEQEND
  8
LAYER-1
  0
POLYLINE
  8
LAYER-1
 66
  1
 70
  1
 62
  0
 10
6.672039
 20
0.211090
 30
0.000000
  0
VERTEX
  8
LAYER-1
 10
6.672039
 20
0.211090
 30
0.000000
  0
VERTEX
  8
LAYER-1
 10
6.659018
 20
0.188520
 30
0.000000
  0
VERTEX
  8
LAYER-1
 10
6.689401
 20
0.209352
 30
0.000000
  0
SEQEND
  8
LAYER-1
  0
POLYLINE
  8
LAYER-1
 66
  1
 70
  1
 62
  0
 10
5.900338
 20
0.146854
 30
0.000000
  0
VERTEX
  8
LAYER-1
 10
5.900338
 20
0.146854
 30
0.000000
  0
VERTEX
  8
LAYER-1
 10
5.925512
 20
0.130360
 30
0.000000
  0
VERTEX
  8
LAYER-1
 10
5.933325
 20
0.145118
 30
0.000000
  0
SEQEND
  8
LAYER-1
  0
POLYLINE
  8
LAYER-1
 66
  1
 70
  0
 62
  0
 10
6.470649
 20
0.203278
 30
0.000000
  0
VERTEX
  8
LAYER-1
 10
6.470649
 20
0.203278
 30
0.000000
  0
VERTEX
  8
LAYER-1
 10
6.466309
 20
0.203278
 30
0.000000
  0
VERTEX
  8
LAYER-1
 10
6.462837
 20
0.198936
 30
0.000000
  0
VERTEX
  8
LAYER-1
 10
6.461969
 20
0.193729
 30
0.000000
  0
VERTEX
  8
LAYER-1
 10
6.463705
 20
0.189389
 30
0.000000
  0
VERTEX
  8
LAYER-1
 10
6.468046
 20
0.187653
 30
0.000000
  0
VERTEX
  8
LAYER-1
 10
6.472385
 20
0.187653
 30
0.000000
  0
VERTEX
  8
LAYER-1
 10
6.476726
 20
0.191124
 30
0.000000
  0
VERTEX
  8
LAYER-1
 10
6.476726
 20
0.195465
 30
0.000000
  0
VERTEX
  8
LAYER-1
 10
6.475858
 20
0.199805
 30
0.000000
  0
VERTEX
  8
LAYER-1
 10
6.471517
 20
0.202410
 30
0.000000
  0
SEQEND
  8
LAYER-1
  0
POLYLINE
  8
LAYER-1
 66
  1
 70
  1
 62
  0
 10
6.486275
 20
0.114736
 30
0.000000
  0
VERTEX
  8
LAYER-1
 10
6.486275
 20
0.114736
 30
0.000000
  0
VERTEX
  8
LAYER-1
 10
6.473254
 20
0.092166
 30
0.000000
  0
VERTEX
  8
LAYER-1
 10
6.503637
 20
0.112998
 30
0.000000
  0
SEQEND
  8
LAYER-1
  0
POLYLINE
  8
LAYER-1
 66
  1
 70
  1
 62
  0
 10
6.580727
 20
0.129154
 30
0.000000
  0
VERTEX
  8
LAYER-1
 10
6.580727
 20
0.129154
 30
0.000000
  0
VERTEX
  8
LAYER-1
 10
6.568040
 20
0.109790
 30
0.000000
  0
VERTEX
  8
LAYER-1
 10
6.579391
 20
0.103778
 30
0.000000
  0
SEQEND
  8
LAYER-1
  0
POLYLINE
  8
LAYER-1
 66
  1
 70
  0
 62
  0
 10
6.612143
 20
0.207617
 30
0.000000
  0
VERTEX
  8
LAYER-1
 10
6.612143
 20
0.207617
 30
0.000000
  0
VERTEX
  8
LAYER-1
 10
6.607803
 20
0.207617
 30
0.000000
  0
VERTEX
  8
LAYER-1
 10
6.604331
 20
0.203277
 30
0.000000
  0
VERTEX
  8
LAYER-1
 10
6.603463
 20
0.198068
 30
0.000000
  0
VERTEX
  8
LAYER-1
 10
6.605199
 20
0.193728
 30
0.000000
  0
VERTEX
  8
LAYER-1
 10
6.609539
 20
0.191992
 30
0.000000
  0
VERTEX
  8
LAYER-1
 10
6.613880
 20
0.191992
 30
0.000000
  0
VERTEX
  8
LAYER-1
 10
6.618220
 20
0.195464
 30
0.000000
  0
VERTEX
  8
LAYER-1
 10
6.618220
 20
0.199805
 30
0.000000
  0
VERTEX
  8
LAYER-1
 10
6.617352
 20
0.204146
 30
0.000000
  0
VERTEX
  8
LAYER-1
 10
6.613011
 20
0.206750
 30
0.000000
  0
SEQEND
  8
LAYER-1
  0
POLYLINE
  8
LAYER-1
 66
  1
 70
  0
 62
  0
 10
5.889054
 20
0.199805
 30
0.000000
  0
VERTEX
  8
LAYER-1
 10
5.889054
 20
0.199805
 30
0.000000
  0
VERTEX
  8
LAYER-1
 10
5.889054
 20
0.195464
 30
0.000000
  0
VERTEX
  8
LAYER-1
 10
5.893395
 20
0.191992
 30
0.000000
  0
VERTEX
  8
LAYER-1
 10
5.898603
 20
0.191123
 30
0.000000
  0
VERTEX
  8
LAYER-1
 10
5.902944
 20
0.192859
 30
0.000000
  0
VERTEX
  8
LAYER-1
 10
5.904679
 20
0.197200
 30
0.000000
  0
VERTEX
  8
LAYER-1
 10
5.904679
 20
0.201541
 30
0.000000
  0
VERTEX
  8
LAYER-1
 10
5.901207
 20
0.205881
 30
0.000000
  0
VERTEX
  8
LAYER-1
 10
5.896867
 20
0.205881
 30
0.000000
  0
VERTEX
  8
LAYER-1
 10
5.892526
 20
0.205012
 30
0.000000
  0
VERTEX
  8
LAYER-1
 10
5.889921
 20
0.200672
 30
0.000000
  0
SEQEND
  8
LAYER-1
  0
POLYLINE
  8
LAYER-1
 66
  1
 70
  0
 62
  0
 10
6.452419
 20
0.115602
 30
0.000000
  0
VERTEX
  8
LAYER-1
 10
6.452419
 20
0.115602
 30
0.000000
  0
VERTEX
  8
LAYER-1
 10
6.448079
 20
0.115602
 30
0.000000
  0
VERTEX
  8
LAYER-1
 10
6.444607
 20
0.111261
 30
0.000000
  0
VERTEX
  8
LAYER-1
 10
6.443739
 20
0.106054
 30
0.000000
  0
VERTEX
  8
LAYER-1
 10
6.445475
 20
0.101713
 30
0.000000
  0
VERTEX
  8
LAYER-1
 10
6.449816
 20
0.099977
 30
0.000000
  0
VERTEX
  8
LAYER-1
 10
6.454155
 20
0.099977
 30
0.000000
  0
VERTEX
  8
LAYER-1
 10
6.458496
 20
0.103449
 30
0.000000
  0
VERTEX
  8
LAYER-1
 10
6.458496
 20
0.107790
 30
0.000000
  0
VERTEX
  8
LAYER-1
 10
6.457628
 20
0.112130
 30
0.000000
  0
VERTEX
  8
LAYER-1
 10
6.453287
 20
0.114735
 30
0.000000
  0
SEQEND
  8
LAYER-1
  0
POLYLINE
  8
LAYER-1
 66
  1
 70
  0
 62
  0
 10
6.350859
 20
0.153364
 30
0.000000
  0
VERTEX
  8
LAYER-1
 10
6.350859
 20
0.153364
 30
0.000000
  0
VERTEX
  8
LAYER-1
 10
6.350859
 20
0.157705
 30
0.000000
  0
VERTEX
  8
LAYER-1
 10
6.346518
 20
0.161177
 30
0.000000
  0
VERTEX
  8
LAYER-1
 10
6.341310
 20
0.162045
 30
0.000000
  0
VERTEX
  8
LAYER-1
 10
6.336970
 20
0.160309
 30
0.000000
  0
VERTEX
  8
LAYER-1
 10
6.335234
 20
0.155968
 30
0.000000
  0
VERTEX
  8
LAYER-1
 10
6.335234
 20
0.151628
 30
0.000000
  0
VERTEX
  8
LAYER-1
 10
6.338706
 20
0.147289
 30
0.000000
  0
VERTEX
  8
LAYER-1
 10
6.343046
 20
0.147289
 30
0.000000
  0
VERTEX
  8
LAYER-1
 10
6.347387
 20
0.148155
 30
0.000000
  0
VERTEX
  8
LAYER-1
 10
6.349990
 20
0.152496
 30
0.000000
  0
SEQEND
  8
LAYER-1
  0
POLYLINE
  8
LAYER-1
 66
  1
 70
  1
 62
  0
 10
6.283150
 20
0.140343
 30
0.000000
  0
VERTEX
  8
LAYER-1
 10
6.283150
 20
0.140343
 30
0.000000
  0
VERTEX
  8
LAYER-1
 10
6.260582
 20
0.153364
 30
0.000000
  0
VERTEX
  8
LAYER-1
 10
6.281414
 20
0.122981
 30
0.000000
  0
SEQEND
  8
LAYER-1
  0
POLYLINE
  8
LAYER-1
 66
  1
 70
  0
 62
  0
 10
6.200687
 20
0.105621
 30
0.000000
  0
VERTEX
  8
LAYER-1
 10
6.200687
 20
0.105621
 30
0.000000
  0
VERTEX
  8
LAYER-1
 10
6.200687
 20
0.109962
 30
0.000000
  0
VERTEX
  8
LAYER-1
 10
6.196346
 20
0.113434
 30
0.000000
  0
VERTEX
  8
LAYER-1
 10
6.191138
 20
0.114302
 30
0.000000
  0
VERTEX
  8
LAYER-1
 10
6.186797
 20
0.112566
 30
0.000000
  0
VERTEX
  8
LAYER-1
 10
6.185062
 20
0.108226
 30
0.000000
  0
VERTEX
  8
LAYER-1
 10
6.185062
 20
0.103885
 30
0.000000
  0
VERTEX
  8
LAYER-1
 10
6.188533
 20
0.099545
 30
0.000000
  0
VERTEX
  8
LAYER-1
 10
6.192874
 20
0.099545
 30
0.000000
  0
VERTEX
  8
LAYER-1
 10
6.197215
 20
0.100414
 30
0.000000
  0
VERTEX
  8
LAYER-1
 10
6.199818
 20
0.104753
 30
0.000000
  0
SEQEND
  8
LAYER-1
  0
POLYLINE
  8
LAYER-1
 66
  1
 70
  1
 62
  0
 10
6.390963
 20
0.095900
 30
0.000000
  0
VERTEX
  8
LAYER-1
 10
6.390963
 20
0.095900
 30
0.000000
  0
VERTEX
  8
LAYER-1
 10
6.384019
 20
0.121940
 30
0.000000
  0
VERTEX
  8
LAYER-1
 10
6.358845
 20
0.108053
 30
0.000000
  0
SEQEND
  8
LAYER-1
  0
POLYLINE
  8
LAYER-1
 66
  1
 70
  1
 62
  0
 10
6.412490
 20
0.150326
 30
0.000000
  0
VERTEX
  8
LAYER-1
 10
6.412490
 20
0.150326
 30
0.000000
  0
VERTEX
  8
LAYER-1
 10
6.425511
 20
0.172896
 30
0.000000
  0
VERTEX
  8
LAYER-1
 10
6.395129
 20
0.152064
 30
0.000000
  0
SEQEND
  8
LAYER-1
  0
POLYLINE
  8
LAYER-1
 66
  1
 70
  1
 62
  0
 10
5.840443
 20
0.093903
 30
0.000000
  0
VERTEX
  8
LAYER-1
 10
5.840443
 20
0.093903
 30
0.000000
  0
VERTEX
  8
LAYER-1
 10
5.817872
 20
0.106924
 30
0.000000
  0
VERTEX
  8
LAYER-1
 10
5.838705
 20
0.076541
 30
0.000000
  0
SEQEND
  8
LAYER-1
  0
POLYLINE
  8
LAYER-1
 66
  1
 70
  1
 62
  0
 10
6.618221
 20
0.118209
 30
0.000000
  0
VERTEX
  8
LAYER-1
 10
6.618221
 20
0.118209
 30
0.000000
  0
VERTEX
  8
LAYER-1
 10
6.634714
 20
0.143383
 30
0.000000
  0
VERTEX
  8
LAYER-1
 10
6.619957
 20
0.151195
 30
0.000000
  0
SEQEND
  8
LAYER-1
  0
POLYLINE
  8
LAYER-1
 66
  1
 70
  0
 62
  0
 10
6.649121
 20
0.044805
 30
0.000000
  0
VERTEX
  8
LAYER-1
 10
6.649121
 20
0.044805
 30
0.000000
  0
VERTEX
  8
LAYER-1
 10
6.653462
 20
0.044805
 30
0.000000
  0
VERTEX
  8
LAYER-1
 10
6.656933
 20
0.049146
 30
0.000000
  0
VERTEX
  8
LAYER-1
 10
6.657801
 20
0.054354
 30
0.000000
  0
VERTEX
  8
LAYER-1
 10
6.656065
 20
0.058695
 30
0.000000
  0
VERTEX
  8
LAYER-1
 10
6.651725
 20
0.060430
 30
0.000000
  0
VERTEX
  8
LAYER-1
 10
6.647385
 20
0.060430
 30
0.000000
  0
VERTEX
  8
LAYER-1
 10
6.643044
 20
0.056959
 30
0.000000
  0
VERTEX
  8
LAYER-1
 10
6.643044
 20
0.052617
 30
0.000000
  0
VERTEX
  8
LAYER-1
 10
6.643912
 20
0.048277
 30
0.000000
  0
VERTEX
  8
LAYER-1
 10
6.648253
 20
0.045672
 30
0.000000
  0
SEQEND
  8
LAYER-1
  0
POLYLINE
  8
LAYER-1
 66
  1
 70
  0
 62
  0
 10
6.625684
 20
0.069984
 30
0.000000
  0
VERTEX
  8
LAYER-1
 10
6.625684
 20
0.069984
 30
0.000000
  0
VERTEX
  8
LAYER-1
 10
6.630025
 20
0.069984
 30
0.000000
  0
VERTEX
  8
LAYER-1
 10
6.633497
 20
0.074325
 30
0.000000
  0
VERTEX
  8
LAYER-1
 10
6.634365
 20
0.079533
 30
0.000000
  0
VERTEX
  8
LAYER-1
 10
6.632629
 20
0.083873
 30
0.000000
  0
VERTEX
  8
LAYER-1
 10
6.628288
 20
0.085609
 30
0.000000
  0
VERTEX
  8
LAYER-1
 10
6.623948
 20
0.085609
 30
0.000000
  0
VERTEX
  8
LAYER-1
 10
6.619608
 20
0.082137
 30
0.000000
  0
VERTEX
  8
LAYER-1
 10
6.619608
 20
0.077797
 30
0.000000
  0
VERTEX
  8
LAYER-1
 10
6.620476
 20
0.073456
 30
0.000000
  0
VERTEX
  8
LAYER-1
 10
6.624816
 20
0.070852
 30
0.000000
  0
SEQEND
  8
LAYER-1
  0
POLYLINE
  8
LAYER-1
 66
  1
 70
  1
 62
  0
 10
6.699902
 20
0.086040
 30
0.000000
  0
VERTEX
  8
LAYER-1
 10
6.699902
 20
0.086040
 30
0.000000
  0
VERTEX
  8
LAYER-1
 10
6.674728
 20
0.102533
 30
0.000000
  0
VERTEX
  8
LAYER-1
 10
6.666916
 20
0.087776
 30
0.000000
  0
SEQEND
  8
LAYER-1
  0
POLYLINE
  8
LAYER-1
 66
  1
 70
  0
 62
  0
 10
6.710320
 20
0.125104
 30
0.000000
  0
VERTEX
  8
LAYER-1
 10
6.710320
 20
0.125104
 30
0.000000
  0
VERTEX
  8
LAYER-1
 10
6.710320
 20
0.129445
 30
0.000000
  0
VERTEX
  8
LAYER-1
 10
6.705978
 20
0.132917
 30
0.000000
  0
VERTEX
  8
LAYER-1
 10
6.700771
 20
0.133785
 30
0.000000
  0
VERTEX
  8
LAYER-1
 10
6.696431
 20
0.132049
 30
0.000000
  0
VERTEX
  8
LAYER-1
 10
6.694695
 20
0.127708
 30
0.000000
  0
VERTEX
  8
LAYER-1
 10
6.694695
 20
0.123368
 30
0.000000
  0
VERTEX
  8
LAYER-1
 10
6.698166
 20
0.119028
 30
0.000000
  0
VERTEX
  8
LAYER-1
 10
6.702507
 20
0.119028
 30
0.000000
  0
VERTEX
  8
LAYER-1
 10
6.706847
 20
0.119896
 30
0.000000
  0
VERTEX
  8
LAYER-1
 10
6.709452
 20
0.124236
 30
0.000000
  0
SEQEND
  8
LAYER-1
  0
POLYLINE
  8
LAYER-1
 66
  1
 70
  1
 62
  0
 10
6.656842
 20
0.130956
 30
0.000000
  0
VERTEX
  8
LAYER-1
 10
6.656842
 20
0.130956
 30
0.000000
  0
VERTEX
  8
LAYER-1
 10
6.669529
 20
0.150320
 30
0.000000
  0
VERTEX
  8
LAYER-1
 10
6.658178
 20
0.156331
 30
0.000000
  0
SEQEND
  8
LAYER-1
  0
POLYLINE
  8
LAYER-1
 66
  1
 70
  0
 62
  0
 10
5.980199
 20
0.160743
 30
0.000000
  0
VERTEX
  8
LAYER-1
 10
5.980199
 20
0.160743
 30
0.000000
  0
VERTEX
  8
LAYER-1
 10
5.980199
 20
0.165082
 30
0.000000
  0
VERTEX
  8
LAYER-1
 10
5.975858
 20
0.168555
 30
0.000000
  0
VERTEX
  8
LAYER-1
 10
5.970650
 20
0.169423
 30
0.000000
  0
VERTEX
  8
LAYER-1
 10
5.966309
 20
0.167686
 30
0.000000
  0
VERTEX
  8
LAYER-1
 10
5.964574
 20
0.163346
 30
0.000000
  0
VERTEX
  8
LAYER-1
 10
5.964574
 20
0.159005
 30
0.000000
  0
VERTEX
  8
LAYER-1
 10
5.968046
 20
0.154666
 30
0.000000
  0
VERTEX
  8
LAYER-1
 10
5.972386
 20
0.154666
 30
0.000000
  0
VERTEX
  8
LAYER-1
 10
5.976727
 20
0.155534
 30
0.000000
  0
VERTEX
  8
LAYER-1
 10
5.979332
 20
0.159874
 30
0.000000
  0
SEQEND
  8
LAYER-1
  0
POLYLINE
  8
LAYER-1
 66
  1
 70
  0
 62
  0
 10
6.566137
 20
0.124285
 30
0.000000
  0
VERTEX
  8
LAYER-1
 10
6.566137
 20
0.124285
 30
0.000000
  0
VERTEX
  8
LAYER-1
 10
6.570478
 20
0.124285
 30
0.000000
  0
VERTEX
  8
LAYER-1
 10
6.573950
 20
0.128627
 30
0.000000
  0
VERTEX
  8
LAYER-1
 10
6.574818
 20
0.133834
 30
0.000000
  0
VERTEX
  8
LAYER-1
 10
6.573082
 20
0.138174
 30
0.000000
  0
VERTEX
  8
LAYER-1
 10
6.568741
 20
0.139910
 30
0.000000
  0
VERTEX
  8
LAYER-1
 10
6.564401
 20
0.139910
 30
0.000000
  0
VERTEX
  8
LAYER-1
 10
6.560060
 20
0.136439
 30
0.000000
  0
VERTEX
  8
LAYER-1
 10
6.560060
 20
0.132098
 30
0.000000
  0
VERTEX
  8
LAYER-1
 10
6.560928
 20
0.127758
 30
0.000000
  0
VERTEX
  8
LAYER-1
 10
6.565269
 20
0.125153
 30
0.000000
  0
SEQEND
  8
LAYER-1
  0
POLYLINE
  8
LAYER-1
 66
  1
 70
  1
 62
  0
 10
0.823773
 20
0.127967
 30
0.000000
  0
VERTEX
  8
LAYER-1
 10
0.823773
 20
0.127967
 30
0.000000
  0
VERTEX
  8
LAYER-1
 10
0.801203
 20
0.140987
 30
0.000000
  0
VERTEX
  8
LAYER-1
 10
0.822035
 20
0.110606
 30
0.000000
  0
SEQEND
  8
LAYER-1
  0
POLYLINE
  8
LAYER-1
 66
  1
 70
  0
 62
  0
 10
0.812489
 20
0.061126
 30
0.000000
  0
VERTEX
  8
LAYER-1
 10
0.812489
 20
0.061126
 30
0.000000
  0
VERTEX
  8
LAYER-1
 10
0.812489
 20
0.065464
 30
0.000000
  0
VERTEX
  8
LAYER-1
 10
0.808148
 20
0.068938
 30
0.000000
  0
VERTEX
  8
LAYER-1
 10
0.802940
 20
0.069806
 30
0.000000
  0
VERTEX
  8
LAYER-1
 10
0.798600
 20
0.068069
 30
0.000000
  0
VERTEX
  8
LAYER-1
 10
0.796864
 20
0.063729
 30
0.000000
  0
VERTEX
  8
LAYER-1
 10
0.796864
 20
0.059388
 30
0.000000
  0
VERTEX
  8
LAYER-1
 10
0.800336
 20
0.055049
 30
0.000000
  0
VERTEX
  8
LAYER-1
 10
0.804676
 20
0.055049
 30
0.000000
  0
VERTEX
  8
LAYER-1
 10
0.809017
 20
0.055917
 30
0.000000
  0
VERTEX
  8
LAYER-1
 10
0.811622
 20
0.060257
 30
0.000000
  0
SEQEND
  8
LAYER-1
  0
POLYLINE
  8
LAYER-1
 66
  1
 70
  1
 62
  0
 10
1.090528
 20
0.049925
 30
0.000000
  0
VERTEX
  8
LAYER-1
 10
1.090528
 20
0.049925
 30
0.000000
  0
VERTEX
  8
LAYER-1
 10
1.107021
 20
0.075100
 30
0.000000
  0
VERTEX
  8
LAYER-1
 10
1.092264
 20
0.082912
 30
0.000000
  0
SEQEND
  8
LAYER-1
  0
POLYLINE
  8
LAYER-1
 66
  1
 70
  1
 62
  0
 10
1.138438
 20
0.065019
 30
0.000000
  0
VERTEX
  8
LAYER-1
 10
1.138438
 20
0.065019
 30
0.000000
  0
VERTEX
  8
LAYER-1
 10
1.151125
 20
0.084384
 30
0.000000
  0
VERTEX
  8
LAYER-1
 10
1.139774
 20
0.090395
 30
0.000000
  0
SEQEND
  8
LAYER-1
  0
POLYLINE
  8
LAYER-1
 66
  1
 70
  0
 62
  0
 10
1.202507
 20
0.041248
 30
0.000000
  0
VERTEX
  8
LAYER-1
 10
1.202507
 20
0.041248
 30
0.000000
  0
VERTEX
  8
LAYER-1
 10
1.206848
 20
0.041248
 30
0.000000
  0
VERTEX
  8
LAYER-1
 10
1.210320
 20
0.045588
 30
0.000000
  0
VERTEX
  8
LAYER-1
 10
1.211188
 20
0.050797
 30
0.000000
  0
VERTEX
  8
LAYER-1
 10
1.209452
 20
0.055137
 30
0.000000
  0
VERTEX
  8
LAYER-1
 10
1.205111
 20
0.056873
 30
0.000000
  0
VERTEX
  8
LAYER-1
 10
1.200771
 20
0.056873
 30
0.000000
  0
VERTEX
  8
LAYER-1
 10
1.196431
 20
0.053401
 30
0.000000
  0
VERTEX
  8
LAYER-1
 10
1.196431
 20
0.049060
 30
0.000000
  0
VERTEX
  8
LAYER-1
 10
1.197299
 20
0.044719
 30
0.000000
  0
VERTEX
  8
LAYER-1
 10
1.201639
 20
0.042116
 30
0.000000
  0
SEQEND
  8
LAYER-1
  0
POLYLINE
  8
LAYER-1
 66
  1
 70
  1
 62
  0
 10
1.236361
 20
0.104180
 30
0.000000
  0
VERTEX
  8
LAYER-1
 10
1.236361
 20
0.104180
 30
0.000000
  0
VERTEX
  8
LAYER-1
 10
1.210320
 20
0.097236
 30
0.000000
  0
VERTEX
  8
LAYER-1
 10
1.224208
 20
0.072062
 30
0.000000
  0
SEQEND
  8
LAYER-1
  0
POLYLINE
  8
LAYER-1
 66
  1
 70
  0
 62
  0
 10
2.604243
 20
0.071888
 30
0.000000
  0
VERTEX
  8
LAYER-1
 10
2.604243
 20
0.071888
 30
0.000000
  0
VERTEX
  8
LAYER-1
 10
2.604243
 20
0.076228
 30
0.000000
  0
VERTEX
  8
LAYER-1
 10
2.599902
 20
0.079700
 30
0.000000
  0
VERTEX
  8
LAYER-1
 10
2.594695
 20
0.080568
 30
0.000000
  0
VERTEX
  8
LAYER-1
 10
2.590354
 20
0.078832
 30
0.000000
  0
VERTEX
  8
LAYER-1
 10
2.588618
 20
0.074493
 30
0.000000
  0
VERTEX
  8
LAYER-1
 10
2.588618
 20
0.070151
 30
0.000000
  0
VERTEX
  8
LAYER-1
 10
2.592090
 20
0.065811
 30
0.000000
  0
VERTEX
  8
LAYER-1
 10
2.596431
 20
0.065811
 30
0.000000
  0
VERTEX
  8
LAYER-1
 10
2.600771
 20
0.066680
 30
0.000000
  0
VERTEX
  8
LAYER-1
 10
2.603375
 20
0.071019
 30
0.000000
  0
SEQEND
  8
LAYER-1
  0
POLYLINE
  8
LAYER-1
 66
  1
 70
  1
 62
  0
 10
2.538271
 20
0.034996
 30
0.000000
  0
VERTEX
  8
LAYER-1
 10
2.538271
 20
0.034996
 30
0.000000
  0
VERTEX
  8
LAYER-1
 10
2.531326
 20
0.061038
 30
0.000000
  0
VERTEX
  8
LAYER-1
 10
2.506152
 20
0.047150
 30
0.000000
  0
SEQEND
  8
LAYER-1
  0
POLYLINE
  8
LAYER-1
 66
  1
 70
  1
 62
  0
 10
2.550423
 20
0.071455
 30
0.000000
  0
VERTEX
  8
LAYER-1
 10
2.550423
 20
0.071455
 30
0.000000
  0
VERTEX
  8
LAYER-1
 10
2.563444
 20
0.094025
 30
0.000000
  0
VERTEX
  8
LAYER-1
 10
2.533062
 20
0.073192
 30
0.000000
  0
SEQEND
  8
LAYER-1
  0
POLYLINE
  8
LAYER-1
 66
  1
 70
  0
 62
  0
 10
2.386622
 20
0.082305
 30
0.000000
  0
VERTEX
  8
LAYER-1
 10
2.386622
 20
0.082305
 30
0.000000
  0
VERTEX
  8
LAYER-1
 10
2.382281
 20
0.082305
 30
0.000000
  0
VERTEX
  8
LAYER-1
 10
2.378809
 20
0.077964
 30
0.000000
  0
VERTEX
  8
LAYER-1
 10
2.377941
 20
0.072756
 30
0.000000
  0
VERTEX
  8
LAYER-1
 10
2.379677
 20
0.068415
 30
0.000000
  0
VERTEX
  8
LAYER-1
 10
2.384018
 20
0.066680
 30
0.000000
  0
VERTEX
  8
LAYER-1
 10
2.388358
 20
0.066680
 30
0.000000
  0
VERTEX
  8
LAYER-1
 10
2.392698
 20
0.070151
 30
0.000000
  0
VERTEX
  8
LAYER-1
 10
2.392698
 20
0.074493
 30
0.000000
  0
VERTEX
  8
LAYER-1
 10
2.391830
 20
0.078833
 30
0.000000
  0
VERTEX
  8
LAYER-1
 10
2.387490
 20
0.081438
 30
0.000000
  0
SEQEND
  8
LAYER-1
  0
POLYLINE
  8
LAYER-1
 66
  1
 70
  1
 62
  0
 10
2.466483
 20
0.044978
 30
0.000000
  0
VERTEX
  8
LAYER-1
 10
2.466483
 20
0.044978
 30
0.000000
  0
VERTEX
  8
LAYER-1
 10
2.443912
 20
0.058000
 30
0.000000
  0
VERTEX
  8
LAYER-1
 10
2.464745
 20
0.027618
 30
0.000000
  0
SEQEND
  8
LAYER-1
  0
POLYLINE
  8
LAYER-1
 66
  1
 70
  1
 62
  0
 10
3.061454
 20
0.045829
 30
0.000000
  0
VERTEX
  8
LAYER-1
 10
3.061454
 20
0.045829
 30
0.000000
  0
VERTEX
  8
LAYER-1
 10
3.074475
 20
0.068399
 30
0.000000
  0
VERTEX
  8
LAYER-1
 10
3.044093
 20
0.047567
 30
0.000000
  0
SEQEND
  8
LAYER-1
  0
POLYLINE
  8
LAYER-1
 66
  1
 70
  1
 62
  0
 10
2.967004
 20
0.052242
 30
0.000000
  0
VERTEX
  8
LAYER-1
 10
2.967004
 20
0.052242
 30
0.000000
  0
VERTEX
  8
LAYER-1
 10
2.979691
 20
0.071606
 30
0.000000
  0
VERTEX
  8
LAYER-1
 10
2.968340
 20
0.077617
 30
0.000000
  0
SEQEND
  8
LAYER-1
  0
POLYLINE
  8
LAYER-1
 66
  1
 70
  0
 62
  0
 10
3.095309
 20
0.044962
 30
0.000000
  0
VERTEX
  8
LAYER-1
 10
3.095309
 20
0.044962
 30
0.000000
  0
VERTEX
  8
LAYER-1
 10
3.099650
 20
0.044962
 30
0.000000
  0
VERTEX
  8
LAYER-1
 10
3.103122
 20
0.049303
 30
0.000000
  0
VERTEX
  8
LAYER-1
 10
3.103990
 20
0.054510
 30
0.000000
  0
VERTEX
  8
LAYER-1
 10
3.102254
 20
0.058851
 30
0.000000
  0
VERTEX
  8
LAYER-1
 10
3.097914
 20
0.060587
 30
0.000000
  0
VERTEX
  8
LAYER-1
 10
3.093574
 20
0.060587
 30
0.000000
  0
VERTEX
  8
LAYER-1
 10
3.089233
 20
0.057115
 30
0.000000
  0
VERTEX
  8
LAYER-1
 10
3.089233
 20
0.052774
 30
0.000000
  0
VERTEX
  8
LAYER-1
 10
3.090101
 20
0.048434
 30
0.000000
  0
VERTEX
  8
LAYER-1
 10
3.094442
 20
0.045829
 30
0.000000
  0
SEQEND
  8
LAYER-1
  0
POLYLINE
  8
LAYER-1
 66
  1
 70
  0
 62
  0
 10
2.981593
 20
0.036279
 30
0.000000
  0
VERTEX
  8
LAYER-1
 10
2.981593
 20
0.036279
 30
0.000000
  0
VERTEX
  8
LAYER-1
 10
2.977252
 20
0.036279
 30
0.000000
  0
VERTEX
  8
LAYER-1
 10
2.973780
 20
0.031937
 30
0.000000
  0
VERTEX
  8
LAYER-1
 10
2.972912
 20
0.026730
 30
0.000000
  0
VERTEX
  8
LAYER-1
 10
2.974648
 20
0.022390
 30
0.000000
  0
VERTEX
  8
LAYER-1
 10
2.978989
 20
0.020654
 30
0.000000
  0
VERTEX
  8
LAYER-1
 10
2.983329
 20
0.020654
 30
0.000000
  0
VERTEX
  8
LAYER-1
 10
2.987669
 20
0.024125
 30
0.000000
  0
VERTEX
  8
LAYER-1
 10
2.987669
 20
0.028466
 30
0.000000
  0
VERTEX
  8
LAYER-1
 10
2.986802
 20
0.032806
 30
0.000000
  0
VERTEX
  8
LAYER-1
 10
2.982461
 20
0.035411
 30
0.000000
  0
SEQEND
  8
LAYER-1
  0
POLYLINE
  8
LAYER-1
 66
  1
 70
  1
 62
  0
 10
2.822646
 20
0.049579
 30
0.000000
  0
VERTEX
  8
LAYER-1
 10
2.822646
 20
0.049579
 30
0.000000
  0
VERTEX
  8
LAYER-1
 10
2.835667
 20
0.072149
 30
0.000000
  0
VERTEX
  8
LAYER-1
 10
2.805285
 20
0.051317
 30
0.000000
  0
SEQEND
  8
LAYER-1
  0
POLYLINE
  8
LAYER-1
 66
  1
 70
  0
 62
  0
 10
2.856501
 20
0.048712
 30
0.000000
  0
VERTEX
  8
LAYER-1
 10
2.856501
 20
0.048712
 30
0.000000
  0
VERTEX
  8
LAYER-1
 10
2.860842
 20
0.048712
 30
0.000000
  0
VERTEX
  8
LAYER-1
 10
2.864314
 20
0.053053
 30
0.000000
  0
VERTEX
  8
LAYER-1
 10
2.865182
 20
0.058261
 30
0.000000
  0
VERTEX
  8
LAYER-1
 10
2.863446
 20
0.062602
 30
0.000000
  0
VERTEX
  8
LAYER-1
 10
2.859105
 20
0.064337
 30
0.000000
  0
VERTEX
  8
LAYER-1
 10
2.854766
 20
0.064337
 30
0.000000
  0
VERTEX
  8
LAYER-1
 10
2.850425
 20
0.060866
 30
0.000000
  0
VERTEX
  8
LAYER-1
 10
2.850425
 20
0.056524
 30
0.000000
  0
VERTEX
  8
LAYER-1
 10
2.851293
 20
0.052184
 30
0.000000
  0
VERTEX
  8
LAYER-1
 10
2.855634
 20
0.049579
 30
0.000000
  0
SEQEND
  8
LAYER-1
  0
POLYLINE
  8
LAYER-1
 66
  1
 70
  1
 62
  0
 10
3.454763
 20
0.084650
 30
0.000000
  0
VERTEX
  8
LAYER-1
 10
3.454763
 20
0.084650
 30
0.000000
  0
VERTEX
  8
LAYER-1
 10
3.477333
 20
0.071629
 30
0.000000
  0
VERTEX
  8
LAYER-1
 10
3.456501
 20
0.102011
 30
0.000000
  0
SEQEND
  8
LAYER-1
  0
POLYLINE
  8
LAYER-1
 66
  1
 70
  0
 62
  0
 10
3.453896
 20
0.050794
 30
0.000000
  0
VERTEX
  8
LAYER-1
 10
3.453896
 20
0.050794
 30
0.000000
  0
VERTEX
  8
LAYER-1
 10
3.453896
 20
0.046454
 30
0.000000
  0
VERTEX
  8
LAYER-1
 10
3.458237
 20
0.042981
 30
0.000000
  0
VERTEX
  8
LAYER-1
 10
3.463444
 20
0.042114
 30
0.000000
  0
VERTEX
  8
LAYER-1
 10
3.467784
 20
0.043850
 30
0.000000
  0
VERTEX
  8
LAYER-1
 10
3.469521
 20
0.048191
 30
0.000000
  0
VERTEX
  8
LAYER-1
 10
3.469521
 20
0.052530
 30
0.000000
  0
VERTEX
  8
LAYER-1
 10
3.466049
 20
0.056871
 30
0.000000
  0
VERTEX
  8
LAYER-1
 10
3.461708
 20
0.056871
 30
0.000000
  0
VERTEX
  8
LAYER-1
 10
3.457368
 20
0.056003
 30
0.000000
  0
VERTEX
  8
LAYER-1
 10
3.454763
 20
0.051662
 30
0.000000
  0
SEQEND
  8
LAYER-1
  0
POLYLINE
  8
LAYER-1
 66
  1
 70
  1
 62
  0
 10
4.004242
 20
0.116680
 30
0.000000
  0
VERTEX
  8
LAYER-1
 10
4.004242
 20
0.116680
 30
0.000000
  0
VERTEX
  8
LAYER-1
 10
4.011187
 20
0.090638
 30
0.000000
  0
VERTEX
  8
LAYER-1
 10
4.036360
 20
0.104526
 30
0.000000
  0
SEQEND
  8
LAYER-1
  0
POLYLINE
  8
LAYER-1
 66
  1
 70
  1
 62
  0
 10
3.976030
 20
0.079786
 30
0.000000
  0
VERTEX
  8
LAYER-1
 10
3.976030
 20
0.079786
 30
0.000000
  0
VERTEX
  8
LAYER-1
 10
3.998599
 20
0.066766
 30
0.000000
  0
VERTEX
  8
LAYER-1
 10
3.977767
 20
0.097147
 30
0.000000
  0
SEQEND
  8
LAYER-1
  0
POLYLINE
  8
LAYER-1
 66
  1
 70
  1
 62
  0
 10
4.092684
 20
0.071806
 30
0.000000
  0
VERTEX
  8
LAYER-1
 10
4.092684
 20
0.071806
 30
0.000000
  0
VERTEX
  8
LAYER-1
 10
4.112049
 20
0.059118
 30
0.000000
  0
VERTEX
  8
LAYER-1
 10
4.118059
 20
0.070469
 30
0.000000
  0
SEQEND
  8
LAYER-1
  0
POLYLINE
  8
LAYER-1
 66
  1
 70
  0
 62
  0
 10
4.037229
 20
0.077613
 30
0.000000
  0
VERTEX
  8
LAYER-1
 10
4.037229
 20
0.077613
 30
0.000000
  0
VERTEX
  8
LAYER-1
 10
4.032889
 20
0.077613
 30
0.000000
  0
VERTEX
  8
LAYER-1
 10
4.029417
 20
0.073273
 30
0.000000
  0
VERTEX
  8
LAYER-1
 10
4.028549
 20
0.068065
 30
0.000000
  0
VERTEX
  8
LAYER-1
 10
4.030285
 20
0.063724
 30
0.000000
  0
VERTEX
  8
LAYER-1
 10
4.034625
 20
0.061988
 30
0.000000
  0
VERTEX
  8
LAYER-1
 10
4.038965
 20
0.061988
 30
0.000000
  0
VERTEX
  8
LAYER-1
 10
4.043306
 20
0.065460
 30
0.000000
  0
VERTEX
  8
LAYER-1
 10
4.043306
 20
0.069800
 30
0.000000
  0
VERTEX
  8
LAYER-1
 10
4.042437
 20
0.074142
 30
0.000000
  0
VERTEX
  8
LAYER-1
 10
4.038097
 20
0.076745
 30
0.000000
  0
SEQEND
  8
LAYER-1
  0
POLYLINE
  8
LAYER-1
 66
  1
 70
  0
 62
  0
 10
3.921778
 20
0.055044
 30
0.000000
  0
VERTEX
  8
LAYER-1
 10
3.921778
 20
0.055044
 30
0.000000
  0
VERTEX
  8
LAYER-1
 10
3.926119
 20
0.055044
 30
0.000000
  0
VERTEX
  8
LAYER-1
 10
3.929590
 20
0.059386
 30
0.000000
  0
VERTEX
  8
LAYER-1
 10
3.930459
 20
0.064593
 30
0.000000
  0
VERTEX
  8
LAYER-1
 10
3.928723
 20
0.068934
 30
0.000000
  0
VERTEX
  8
LAYER-1
 10
3.924383
 20
0.070669
 30
0.000000
  0
VERTEX
  8
LAYER-1
 10
3.920042
 20
0.070669
 30
0.000000
  0
VERTEX
  8
LAYER-1
 10
3.915701
 20
0.067198
 30
0.000000
  0
VERTEX
  8
LAYER-1
 10
3.915701
 20
0.062857
 30
0.000000
  0
VERTEX
  8
LAYER-1
 10
3.916570
 20
0.058517
 30
0.000000
  0
VERTEX
  8
LAYER-1
 10
3.920911
 20
0.055912
 30
0.000000
  0
SEQEND
  8
LAYER-1
  0
POLYLINE
  8
LAYER-1
 66
  1
 70
  1
 62
  0
 10
4.408425
 20
0.025358
 30
0.000000
  0
VERTEX
  8
LAYER-1
 10
4.408425
 20
0.025358
 30
0.000000
  0
VERTEX
  8
LAYER-1
 10
4.401480
 20
0.051399
 30
0.000000
  0
VERTEX
  8
LAYER-1
 10
4.376307
 20
0.037510
 30
0.000000
  0
SEQEND
  8
LAYER-1
  0
POLYLINE
  8
LAYER-1
 66
  1
 70
  1
 62
  0
 10
4.436637
 20
0.062252
 30
0.000000
  0
VERTEX
  8
LAYER-1
 10
4.436637
 20
0.062252
 30
0.000000
  0
VERTEX
  8
LAYER-1
 10
4.414068
 20
0.075272
 30
0.000000
  0
VERTEX
  8
LAYER-1
 10
4.434901
 20
0.044891
 30
0.000000
  0
SEQEND
  8
LAYER-1
  0
POLYLINE
  8
LAYER-1
 66
  1
 70
  1
 62
  0
 10
4.319984
 20
0.070231
 30
0.000000
  0
VERTEX
  8
LAYER-1
 10
4.319984
 20
0.070231
 30
0.000000
  0
VERTEX
  8
LAYER-1
 10
4.300618
 20
0.082919
 30
0.000000
  0
VERTEX
  8
LAYER-1
 10
4.294608
 20
0.071567
 30
0.000000
  0
SEQEND
  8
LAYER-1
  0
POLYLINE
  8
LAYER-1
 66
  1
 70
  0
 62
  0
 10
4.375438
 20
0.064423
 30
0.000000
  0
VERTEX
  8
LAYER-1
 10
4.375438
 20
0.064423
 30
0.000000
  0
VERTEX
  8
LAYER-1
 10
4.379779
 20
0.064423
 30
0.000000
  0
VERTEX
  8
LAYER-1
 10
4.383251
 20
0.068765
 30
0.000000
  0
VERTEX
  8
LAYER-1
 10
4.384118
 20
0.073972
 30
0.000000
  0
VERTEX
  8
LAYER-1
 10
4.382383
 20
0.078313
 30
0.000000
  0
VERTEX
  8
LAYER-1
 10
4.378043
 20
0.080048
 30
0.000000
  0
VERTEX
  8
LAYER-1
 10
4.373702
 20
0.080048
 30
0.000000
  0
VERTEX
  8
LAYER-1
 10
4.369361
 20
0.076577
 30
0.000000
  0
VERTEX
  8
LAYER-1
 10
4.369361
 20
0.072236
 30
0.000000
  0
VERTEX
  8
LAYER-1
 10
4.370230
 20
0.067896
 30
0.000000
  0
VERTEX
  8
LAYER-1
 10
4.374570
 20
0.065292
 30
0.000000
  0
SEQEND
  8
LAYER-1
  0
POLYLINE
  8
LAYER-1
 66
  1
 70
  0
 62
  0
 10
4.490890
 20
0.086992
 30
0.000000
  0
VERTEX
  8
LAYER-1
 10
4.490890
 20
0.086992
 30
0.000000
  0
VERTEX
  8
LAYER-1
 10
4.486549
 20
0.086992
 30
0.000000
  0
VERTEX
  8
LAYER-1
 10
4.483077
 20
0.082652
 30
0.000000
  0
VERTEX
  8
LAYER-1
 10
4.482208
 20
0.077444
 30
0.000000
  0
VERTEX
  8
LAYER-1
 10
4.483944
 20
0.073103
 30
0.000000
  0
VERTEX
  8
LAYER-1
 10
4.488285
 20
0.071367
 30
0.000000
  0
VERTEX
  8
LAYER-1
 10
4.492626
 20
0.071367
 30
0.000000
  0
VERTEX
  8
LAYER-1
 10
4.496966
 20
0.074839
 30
0.000000
  0
VERTEX
  8
LAYER-1
 10
4.496966
 20
0.079180
 30
0.000000
  0
VERTEX
  8
LAYER-1
 10
4.496098
 20
0.083521
 30
0.000000
  0
VERTEX
  8
LAYER-1
 10
4.491757
 20
0.086126
 30
0.000000
  0
SEQEND
  8
LAYER-1
  0
POLYLINE
  8
LAYER-1
 66
  1
 70
  1
 62
  0
 10
4.660767
 20
0.008951
 30
0.000000
  0
VERTEX
  8
LAYER-1
 10
4.660767
 20
0.008951
 30
0.000000
  0
VERTEX
  8
LAYER-1
 10
4.653823
 20
0.034993
 30
0.000000
  0
VERTEX
  8
LAYER-1
 10
4.628650
 20
0.021105
 30
0.000000
  0
SEQEND
  8
LAYER-1
  0
POLYLINE
  8
LAYER-1
 66
  1
 70
  1
 62
  0
 10
4.688980
 20
0.045845
 30
0.000000
  0
VERTEX
  8
LAYER-1
 10
4.688980
 20
0.045845
 30
0.000000
  0
VERTEX
  8
LAYER-1
 10
4.666411
 20
0.058865
 30
0.000000
  0
VERTEX
  8
LAYER-1
 10
4.687243
 20
0.028484
 30
0.000000
  0
SEQEND
  8
LAYER-1
  0
POLYLINE
  8
LAYER-1
 66
  1
 70
  1
 62
  0
 10
4.572327
 20
0.053825
 30
0.000000
  0
VERTEX
  8
LAYER-1
 10
4.572327
 20
0.053825
 30
0.000000
  0
VERTEX
  8
LAYER-1
 10
4.552962
 20
0.066512
 30
0.000000
  0
VERTEX
  8
LAYER-1
 10
4.546952
 20
0.055161
 30
0.000000
  0
SEQEND
  8
LAYER-1
  0
POLYLINE
  8
LAYER-1
 66
  1
 70
  0
 62
  0
 10
4.627781
 20
0.048018
 30
0.000000
  0
VERTEX
  8
LAYER-1
 10
4.627781
 20
0.048018
 30
0.000000
  0
VERTEX
  8
LAYER-1
 10
4.632122
 20
0.048018
 30
0.000000
  0
VERTEX
  8
LAYER-1
 10
4.635594
 20
0.052358
 30
0.000000
  0
VERTEX
  8
LAYER-1
 10
4.636462
 20
0.057565
 30
0.000000
  0
VERTEX
  8
LAYER-1
 10
4.634726
 20
0.061907
 30
0.000000
  0
VERTEX
  8
LAYER-1
 10
4.630386
 20
0.063643
 30
0.000000
  0
VERTEX
  8
LAYER-1
 10
4.626046
 20
0.063643
 30
0.000000
  0
VERTEX
  8
LAYER-1
 10
4.621705
 20
0.060170
 30
0.000000
  0
VERTEX
  8
LAYER-1
 10
4.621705
 20
0.055830
 30
0.000000
  0
VERTEX
  8
LAYER-1
 10
4.622574
 20
0.051489
 30
0.000000
  0
VERTEX
  8
LAYER-1
 10
4.626914
 20
0.048886
 30
0.000000
  0
SEQEND
  8
LAYER-1
  0
POLYLINE
  8
LAYER-1
 66
  1
 70
  0
 62
  0
 10
4.743232
 20
0.070586
 30
0.000000
  0
VERTEX
  8
LAYER-1
 10
4.743232
 20
0.070586
 30
0.000000
  0
VERTEX
  8
LAYER-1
 10
4.738892
 20
0.070586
 30
0.000000
  0
VERTEX
  8
LAYER-1
 10
4.735420
 20
0.066245
 30
0.000000
  0
VERTEX
  8
LAYER-1
 10
4.734551
 20
0.061038
 30
0.000000
  0
VERTEX
  8
LAYER-1
 10
4.736287
 20
0.056697
 30
0.000000
  0
VERTEX
  8
LAYER-1
 10
4.740627
 20
0.054961
 30
0.000000
  0
VERTEX
  8
LAYER-1
 10
4.744968
 20
0.054961
 30
0.000000
  0
VERTEX
  8
LAYER-1
 10
4.749309
 20
0.058433
 30
0.000000
  0
VERTEX
  8
LAYER-1
 10
4.749309
 20
0.062774
 30
0.000000
  0
VERTEX
  8
LAYER-1
 10
4.748440
 20
0.067114
 30
0.000000
  0
VERTEX
  8
LAYER-1
 10
4.744099
 20
0.069719
 30
0.000000
  0
SEQEND
  8
LAYER-1
  0
POLYLINE
  8
LAYER-1
 66
  1
 70
  1
 62
  0
 10
4.881327
 20
0.108000
 30
0.000000
  0
VERTEX
  8
LAYER-1
 10
4.881327
 20
0.108000
 30
0.000000
  0
VERTEX
  8
LAYER-1
 10
4.888272
 20
0.081958
 30
0.000000
  0
VERTEX
  8
LAYER-1
 10
4.913445
 20
0.095847
 30
0.000000
  0
SEQEND
  8
LAYER-1
  0
POLYLINE
  8
LAYER-1
 66
  1
 70
  1
 62
  0
 10
4.853115
 20
0.071106
 30
0.000000
  0
VERTEX
  8
LAYER-1
 10
4.853115
 20
0.071106
 30
0.000000
  0
VERTEX
  8
LAYER-1
 10
4.875684
 20
0.058086
 30
0.000000
  0
VERTEX
  8
LAYER-1
 10
4.854852
 20
0.088467
 30
0.000000
  0
SEQEND
  8
LAYER-1
  0
POLYLINE
  8
LAYER-1
 66
  1
 70
  0
 62
  0
 10
4.798862
 20
0.046366
 30
0.000000
  0
VERTEX
  8
LAYER-1
 10
4.798862
 20
0.046366
 30
0.000000
  0
VERTEX
  8
LAYER-1
 10
4.803203
 20
0.046366
 30
0.000000
  0
VERTEX
  8
LAYER-1
 10
4.806675
 20
0.050706
 30
0.000000
  0
VERTEX
  8
LAYER-1
 10
4.807544
 20
0.055913
 30
0.000000
  0
VERTEX
  8
LAYER-1
 10
4.805808
 20
0.060254
 30
0.000000
  0
VERTEX
  8
LAYER-1
 10
4.801467
 20
0.061991
 30
0.000000
  0
VERTEX
  8
LAYER-1
 10
4.797127
 20
0.061991
 30
0.000000
  0
VERTEX
  8
LAYER-1
 10
4.792785
 20
0.058518
 30
0.000000
  0
VERTEX
  8
LAYER-1
 10
4.792785
 20
0.054178
 30
0.000000
  0
VERTEX
  8
LAYER-1
 10
4.793654
 20
0.049837
 30
0.000000
  0
VERTEX
  8
LAYER-1
 10
4.797996
 20
0.047232
 30
0.000000
  0
SEQEND
  8
LAYER-1
  0
POLYLINE
  8
LAYER-1
 66
  1
 70
  1
 62
  0
 10
5.434450
 20
0.220117
 30
0.000000
  0
VERTEX
  8
LAYER-1
 10
5.434450
 20
0.220117
 30
0.000000
  0
VERTEX
  8
LAYER-1
 10
5.441395
 20
0.194076
 30
0.000000
  0
VERTEX
  8
LAYER-1
 10
5.466568
 20
0.207963
 30
0.000000
  0
SEQEND
  8
LAYER-1
  0
POLYLINE
  8
LAYER-1
 66
  1
 70
  1
 62
  0
 10
5.447559
 20
0.174978
 30
0.000000
  0
VERTEX
  8
LAYER-1
 10
5.447559
 20
0.174978
 30
0.000000
  0
VERTEX
  8
LAYER-1
 10
5.434538
 20
0.152407
 30
0.000000
  0
VERTEX
  8
LAYER-1
 10
5.464920
 20
0.173240
 30
0.000000
  0
SEQEND
  8
LAYER-1
  0
POLYLINE
  8
LAYER-1
 66
  1
 70
  1
 62
  0
 10
5.139052
 20
0.143501
 30
0.000000
  0
VERTEX
  8
LAYER-1
 10
5.139052
 20
0.143501
 30
0.000000
  0
VERTEX
  8
LAYER-1
 10
5.132109
 20
0.169542
 30
0.000000
  0
VERTEX
  8
LAYER-1
 10
5.106935
 20
0.155655
 30
0.000000
  0
SEQEND
  8
LAYER-1
  0
POLYLINE
  8
LAYER-1
 66
  1
 70
  1
 62
  0
 10
5.125944
 20
0.188639
 30
0.000000
  0
VERTEX
  8
LAYER-1
 10
5.125944
 20
0.188639
 30
0.000000
  0
VERTEX
  8
LAYER-1
 10
5.138966
 20
0.211210
 30
0.000000
  0
VERTEX
  8
LAYER-1
 10
5.108583
 20
0.190377
 30
0.000000
  0
SEQEND
  8
LAYER-1
  0
POLYLINE
  8
LAYER-1
 66
  1
 70
  1
 62
  0
 10
5.643825
 20
0.045672
 30
0.000000
  0
VERTEX
  8
LAYER-1
 10
5.643825
 20
0.045672
 30
0.000000
  0
VERTEX
  8
LAYER-1
 10
5.669865
 20
0.052617
 30
0.000000
  0
VERTEX
  8
LAYER-1
 10
5.655978
 20
0.077791
 30
0.000000
  0
SEQEND
  8
LAYER-1
  0
POLYLINE
  8
LAYER-1
 66
  1
 70
  1
 62
  0
 10
5.688964
 20
0.058781
 30
0.000000
  0
VERTEX
  8
LAYER-1
 10
5.688964
 20
0.058781
 30
0.000000
  0
VERTEX
  8
LAYER-1
 10
5.711534
 20
0.045760
 30
0.000000
  0
VERTEX
  8
LAYER-1
 10
5.690702
 20
0.076141
 30
0.000000
  0
SEQEND
  8
LAYER-1
  0
ARC
  8
LAYER-1
 62
  0
 10
5.437408
 20
8.971398
 30
0.000000
 40
0.254425
 50
270.000000
 51
90.000000
  0
POLYLINE
  8
LAYER-1
 66
  1
 70
  0
 62
  0
 10
5.437408
 20
9.225824
 30
0.000000
  0
VERTEX
  8
LAYER-1
 10
5.437408
 20
9.225824
 30
0.000000
  0
VERTEX
  8
LAYER-1
 10
1.772487
 20
9.225824
 30
0.000000
  0
SEQEND
  8
LAYER-1
  0
POLYLINE
  8
LAYER-1
 66
  1
 70
  0
 62
  0
 10
1.772487
 20
9.225824
 30
0.000000
  0
VERTEX
  8
LAYER-1
 10
1.772487
 20
9.225824
 30
0.000000
  0
VERTEX
  8
LAYER-1
 10
1.772487
 20
8.716974
 30
0.000000
  0
SEQEND
  8
LAYER-1
  0
POLYLINE
  8
LAYER-1
 66
  1
 70
  0
 62
  0
 10
5.437408
 20
8.716974
 30
0.000000
  0
VERTEX
  8
LAYER-1
 10
5.437408
 20
8.716974
 30
0.000000
  0
VERTEX
  8
LAYER-1
 10
1.772487
 20
8.716974
 30
0.000000
  0
SEQEND
  8
LAYER-1
  0
TEXT
  8
LAYER-1
 62
  0
 10
3.583019
 20
9.507162
 30
0.000000
 40
0.333333
  1
MobilFlex
 72
  5
 11
5.735797
 21
9.507162
 31
0.000000
  0
POLYLINE
  8
LAYER-1
 66
  1
 70
  1
 62
  0
  0
VERTEX
  8
LAYER-1
 10
1.773991
 20
10.027136
 30
0.000000
  0
VERTEX
  8
LAYER-1
 10
2.011838
 20
10.027136
 30
0.000000
  0
VERTEX
  8
LAYER-1
 10
2.011838
 20
9.510191
 30
0.000000
  0
VERTEX
  8
LAYER-1
 10
1.773991
 20
9.510191
 30
0.000000
  0
SEQEND
  8
LAYER-1
  0
POLYLINE
  8
LAYER-1
 66
  1
 70
  1
 62
  0
  0
VERTEX
  8
LAYER-1
 10
2.086491
 20
10.027136
 30
0.000000
  0
VERTEX
  8
LAYER-1
 10
2.324338
 20
10.027136
 30
0.000000
  0
VERTEX
  8
LAYER-1
 10
2.324338
 20
9.510191
 30
0.000000
  0
VERTEX
  8
LAYER-1
 10
2.086491
 20
9.510191
 30
0.000000
  0
SEQEND
  8
LAYER-1
  0
POLYLINE
  8
LAYER-1
 66
  1
 70
  1
 62
  0
  0
VERTEX
  8
LAYER-1
 10
2.386838
 20
10.027136
 30
0.000000
  0
VERTEX
  8
LAYER-1
 10
2.624685
 20
10.027136
 30
0.000000
  0
VERTEX
  8
LAYER-1
 10
2.624685
 20
9.510191
 30
0.000000
  0
VERTEX
  8
LAYER-1
 10
2.386838
 20
9.510191
 30
0.000000
  0
SEQEND
  8
LAYER-1
  0
POLYLINE
  8
LAYER-1
 66
  1
 70
  1
 62
  0
  0
VERTEX
  8
LAYER-1
 10
2.690657
 20
10.027136
 30
0.000000
  0
VERTEX
  8
LAYER-1
 10
2.928505
 20
10.027136
 30
0.000000
  0
VERTEX
  8
LAYER-1
 10
2.928505
 20
9.510191
 30
0.000000
  0
VERTEX
  8
LAYER-1
 10
2.690657
 20
9.510191
 30
0.000000
  0
SEQEND
  8
LAYER-1
  0
POLYLINE
  8
LAYER-1
 66
  1
 70
  1
 62
  0
  0
VERTEX
  8
LAYER-1
 10
3.007498
 20
10.023221
 30
0.000000
  0
VERTEX
  8
LAYER-1
 10
3.382932
 20
10.023221
 30
0.000000
  0
VERTEX
  8
LAYER-1
 10
3.382932
 20
9.885201
 30
0.000000
  0
VERTEX
  8
LAYER-1
 10
3.007498
 20
9.885201
 30
0.000000
  0
SEQEND
  8
LAYER-1
  0
POLYLINE
  8
LAYER-1
 66
  1
 70
  1
 62
  0
  0
VERTEX
  8
LAYER-1
 10
3.007064
 20
9.795791
 30
0.000000
  0
VERTEX
  8
LAYER-1
 10
3.315223
 20
9.795791
 30
0.000000
  0
VERTEX
  8
LAYER-1
 10
3.315223
 20
9.661676
 30
0.000000
  0
VERTEX
  8
LAYER-1
 10
3.007064
 20
9.661676
 30
0.000000
  0
SEQEND
  8
LAYER-1
  0
POLYLINE
  8
LAYER-1
 66
  1
 70
  1
 62
  0
  0
VERTEX
  8
LAYER-1
 10
1.773991
 20
9.425565
 30
0.000000
  0
VERTEX
  8
LAYER-1
 10
5.692393
 20
9.425565
 30
0.000000
  0
VERTEX
  8
LAYER-1
 10
5.692393
 20
9.382162
 30
0.000000
  0
VERTEX
  8
LAYER-1
 10
1.773991
 20
9.382162
 30
0.000000
  0
SEQEND
  8
LAYER-1
  0
POLYLINE
  8
LAYER-1
 66
  1
 70
  1
 62
  7
  0
VERTEX
  8
LAYER-1
 10
5.484826
 20
7.189333
 30
0.000000
  0
VERTEX
  8
LAYER-1
 10
5.654965
 20
7.189333
 30
0.000000
  0
VERTEX
  8
LAYER-1
 10
5.654965
 20
6.367141
 30
0.000000
  0
VERTEX
  8
LAYER-1
 10
5.484826
 20
6.367141
 30
0.000000
  0
SEQEND
  8
LAYER-1
  0
POLYLINE
  8
LAYER-1
 66
  1
 70
  1
 62
  7
  0
VERTEX
  8
LAYER-1
 10
5.075346
 20
7.189333
 30
0.000000
  0
VERTEX
  8
LAYER-1
 10
5.245485
 20
7.189333
 30
0.000000
  0
VERTEX
  8
LAYER-1
 10
5.245485
 20
6.367141
 30
0.000000
  0
VERTEX
  8
LAYER-1
 10
5.075346
 20
6.367141
 30
0.000000
  0
SEQEND
  8
LAYER-1
  0
POLYLINE
  8
LAYER-1
 66
  1
 70
  1
 62
  7
  0
VERTEX
  8
LAYER-1
 10
4.666735
 20
7.189333
 30
0.000000
  0
VERTEX
  8
LAYER-1
 10
4.836875
 20
7.189333
 30
0.000000
  0
VERTEX
  8
LAYER-1
 10
4.836875
 20
6.367141
 30
0.000000
  0
VERTEX
  8
LAYER-1
 10
4.666735
 20
6.367141
 30
0.000000
  0
SEQEND
  8
LAYER-1
  0
POLYLINE
  8
LAYER-1
 66
  1
 70
  1
 62
  7
  0
VERTEX
  8
LAYER-1
 10
4.259861
 20
7.189333
 30
0.000000
  0
VERTEX
  8
LAYER-1
 10
4.430000
 20
7.189333
 30
0.000000
  0
VERTEX
  8
LAYER-1
 10
4.430000
 20
6.367141
 30
0.000000
  0
VERTEX
  8
LAYER-1
 10
4.259861
 20
6.367141
 30
0.000000
  0
SEQEND
  8
LAYER-1
  0
POLYLINE
  8
LAYER-1
 66
  1
 70
  1
 62
  7
  0
VERTEX
  8
LAYER-1
 10
3.851248
 20
7.189333
 30
0.000000
  0
VERTEX
  8
LAYER-1
 10
4.021388
 20
7.189333
 30
0.000000
  0
VERTEX
  8
LAYER-1
 10
4.021388
 20
6.367141
 30
0.000000
  0
VERTEX
  8
LAYER-1
 10
3.851248
 20
6.367141
 30
0.000000
  0
SEQEND
  8
LAYER-1
  0
POLYLINE
  8
LAYER-1
 66
  1
 70
  1
 62
  7
  0
VERTEX
  8
LAYER-1
 10
4.056422
 20
6.367498
 30
0.000000
  0
VERTEX
  8
LAYER-1
 10
4.226561
 20
6.367498
 30
0.000000
  0
VERTEX
  8
LAYER-1
 10
4.226561
 20
5.545307
 30
0.000000
  0
VERTEX
  8
LAYER-1
 10
4.056422
 20
5.545307
 30
0.000000
  0
SEQEND
  8
LAYER-1
  0
POLYLINE
  8
LAYER-1
 66
  1
 70
  1
 62
  7
  0
VERTEX
  8
LAYER-1
 10
4.463298
 20
6.367498
 30
0.000000
  0
VERTEX
  8
LAYER-1
 10
4.633437
 20
6.367498
 30
0.000000
  0
VERTEX
  8
LAYER-1
 10
4.633437
 20
5.545307
 30
0.000000
  0
VERTEX
  8
LAYER-1
 10
4.463298
 20
5.545307
 30
0.000000
  0
SEQEND
  8
LAYER-1
  0
POLYLINE
  8
LAYER-1
 66
  1
 70
  1
 62
  7
  0
VERTEX
  8
LAYER-1
 10
4.869306
 20
6.367498
 30
0.000000
  0
VERTEX
  8
LAYER-1
 10
5.039445
 20
6.367498
 30
0.000000
  0
VERTEX
  8
LAYER-1
 10
5.039445
 20
5.545307
 30
0.000000
  0
VERTEX
  8
LAYER-1
 10
4.869306
 20
5.545307
 30
0.000000
  0
SEQEND
  8
LAYER-1
  0
POLYLINE
  8
LAYER-1
 66
  1
 70
  1
 62
  7
  0
VERTEX
  8
LAYER-1
 10
5.279652
 20
6.367498
 30
0.000000
  0
VERTEX
  8
LAYER-1
 10
5.449791
 20
6.367498
 30
0.000000
  0
VERTEX
  8
LAYER-1
 10
5.449791
 20
5.545307
 30
0.000000
  0
VERTEX
  8
LAYER-1
 10
5.279652
 20
5.545307
 30
0.000000
  0
SEQEND
  8
LAYER-1
  0
POLYLINE
  8
LAYER-1
 66
  1
 70
  1
 62
  7
  0
VERTEX
  8
LAYER-1
 10
5.484826
 20
5.545304
 30
0.000000
  0
VERTEX
  8
LAYER-1
 10
5.654965
 20
5.545304
 30
0.000000
  0
VERTEX
  8
LAYER-1
 10
5.654965
 20
4.723113
 30
0.000000
  0
VERTEX
  8
LAYER-1
 10
5.484826
 20
4.723113
 30
0.000000
  0
SEQEND
  8
LAYER-1
  0
POLYLINE
  8
LAYER-1
 66
  1
 70
  1
 62
  7
  0
VERTEX
  8
LAYER-1
 10
5.074478
 20
5.545304
 30
0.000000
  0
VERTEX
  8
LAYER-1
 10
5.244617
 20
5.545304
 30
0.000000
  0
VERTEX
  8
LAYER-1
 10
5.244617
 20
4.723113
 30
0.000000
  0
VERTEX
  8
LAYER-1
 10
5.074478
 20
4.723113
 30
0.000000
  0
SEQEND
  8
LAYER-1
  0
POLYLINE
  8
LAYER-1
 66
  1
 70
  1
 62
  7
  0
VERTEX
  8
LAYER-1
 10
4.666735
 20
5.545304
 30
0.000000
  0
VERTEX
  8
LAYER-1
 10
4.836875
 20
5.545304
 30
0.000000
  0
VERTEX
  8
LAYER-1
 10
4.836875
 20
4.723113
 30
0.000000
  0
VERTEX
  8
LAYER-1
 10
4.666735
 20
4.723113
 30
0.000000
  0
SEQEND
  8
LAYER-1
  0
POLYLINE
  8
LAYER-1
 66
  1
 70
  1
 62
  7
  0
VERTEX
  8
LAYER-1
 10
4.259861
 20
5.545304
 30
0.000000
  0
VERTEX
  8
LAYER-1
 10
4.430000
 20
5.545304
 30
0.000000
  0
VERTEX
  8
LAYER-1
 10
4.430000
 20
4.723113
 30
0.000000
  0
VERTEX
  8
LAYER-1
 10
4.259861
 20
4.723113
 30
0.000000
  0
SEQEND
  8
LAYER-1
  0
POLYLINE
  8
LAYER-1
 66
  1
 70
  1
 62
  7
  0
VERTEX
  8
LAYER-1
 10
3.851248
 20
5.545304
 30
0.000000
  0
VERTEX
  8
LAYER-1
 10
4.021388
 20
5.545304
 30
0.000000
  0
VERTEX
  8
LAYER-1
 10
4.021388
 20
4.723113
 30
0.000000
  0
VERTEX
  8
LAYER-1
 10
3.851248
 20
4.723113
 30
0.000000
  0
SEQEND
  8
LAYER-1
  0
POLYLINE
  8
LAYER-1
 66
  1
 70
  1
 62
  7
  0
VERTEX
  8
LAYER-1
 10
4.056422
 20
4.723470
 30
0.000000
  0
VERTEX
  8
LAYER-1
 10
4.226561
 20
4.723470
 30
0.000000
  0
VERTEX
  8
LAYER-1
 10
4.226561
 20
3.901279
 30
0.000000
  0
VERTEX
  8
LAYER-1
 10
4.056422
 20
3.901279
 30
0.000000
  0
SEQEND
  8
LAYER-1
  0
POLYLINE
  8
LAYER-1
 66
  1
 70
  1
 62
  7
  0
VERTEX
  8
LAYER-1
 10
4.463298
 20
4.723470
 30
0.000000
  0
VERTEX
  8
LAYER-1
 10
4.633437
 20
4.723470
 30
0.000000
  0
VERTEX
  8
LAYER-1
 10
4.633437
 20
3.901279
 30
0.000000
  0
VERTEX
  8
LAYER-1
 10
4.463298
 20
3.901279
 30
0.000000
  0
SEQEND
  8
LAYER-1
  0
POLYLINE
  8
LAYER-1
 66
  1
 70
  1
 62
  7
  0
VERTEX
  8
LAYER-1
 10
4.870174
 20
4.723470
 30
0.000000
  0
VERTEX
  8
LAYER-1
 10
5.040313
 20
4.723470
 30
0.000000
  0
VERTEX
  8
LAYER-1
 10
5.040313
 20
3.901279
 30
0.000000
  0
VERTEX
  8
LAYER-1
 10
4.870174
 20
3.901279
 30
0.000000
  0
SEQEND
  8
LAYER-1
  0
POLYLINE
  8
LAYER-1
 66
  1
 70
  1
 62
  7
  0
VERTEX
  8
LAYER-1
 10
5.279652
 20
4.723470
 30
0.000000
  0
VERTEX
  8
LAYER-1
 10
5.449791
 20
4.723470
 30
0.000000
  0
VERTEX
  8
LAYER-1
 10
5.449791
 20
3.901279
 30
0.000000
  0
VERTEX
  8
LAYER-1
 10
5.279652
 20
3.901279
 30
0.000000
  0
SEQEND
  8
LAYER-1
  0
POLYLINE
  8
LAYER-1
 66
  1
 70
  1
 62
  7
  0
VERTEX
  8
LAYER-1
 10
5.484826
 20
3.901276
 30
0.000000
  0
VERTEX
  8
LAYER-1
 10
5.654965
 20
3.901276
 30
0.000000
  0
VERTEX
  8
LAYER-1
 10
5.654965
 20
3.079085
 30
0.000000
  0
VERTEX
  8
LAYER-1
 10
5.484826
 20
3.079085
 30
0.000000
  0
SEQEND
  8
LAYER-1
  0
POLYLINE
  8
LAYER-1
 66
  1
 70
  1
 62
  7
  0
VERTEX
  8
LAYER-1
 10
5.075346
 20
3.901276
 30
0.000000
  0
VERTEX
  8
LAYER-1
 10
5.245485
 20
3.901276
 30
0.000000
  0
VERTEX
  8
LAYER-1
 10
5.245485
 20
3.079085
 30
0.000000
  0
VERTEX
  8
LAYER-1
 10
5.075346
 20
3.079085
 30
0.000000
  0
SEQEND
  8
LAYER-1
  0
POLYLINE
  8
LAYER-1
 66
  1
 70
  1
 62
  7
  0
VERTEX
  8
LAYER-1
 10
4.666735
 20
3.901276
 30
0.000000
  0
VERTEX
  8
LAYER-1
 10
4.836875
 20
3.901276
 30
0.000000
  0
VERTEX
  8
LAYER-1
 10
4.836875
 20
3.079085
 30
0.000000
  0
VERTEX
  8
LAYER-1
 10
4.666735
 20
3.079085
 30
0.000000
  0
SEQEND
  8
LAYER-1
  0
POLYLINE
  8
LAYER-1
 66
  1
 70
  1
 62
  7
  0
VERTEX
  8
LAYER-1
 10
4.259861
 20
3.901276
 30
0.000000
  0
VERTEX
  8
LAYER-1
 10
4.430000
 20
3.901276
 30
0.000000
  0
VERTEX
  8
LAYER-1
 10
4.430000
 20
3.079085
 30
0.000000
  0
VERTEX
  8
LAYER-1
 10
4.259861
 20
3.079085
 30
0.000000
  0
SEQEND
  8
LAYER-1
  0
POLYLINE
  8
LAYER-1
 66
  1
 70
  1
 62
  7
  0
VERTEX
  8
LAYER-1
 10
3.851248
 20
3.901276
 30
0.000000
  0
VERTEX
  8
LAYER-1
 10
4.021388
 20
3.901276
 30
0.000000
  0
VERTEX
  8
LAYER-1
 10
4.021388
 20
3.079085
 30
0.000000
  0
VERTEX
  8
LAYER-1
 10
3.851248
 20
3.079085
 30
0.000000
  0
SEQEND
  8
LAYER-1
  0
POLYLINE
  8
LAYER-1
 66
  1
 70
  1
 62
  7
  0
VERTEX
  8
LAYER-1
 10
4.056422
 20
3.079441
 30
0.000000
  0
VERTEX
  8
LAYER-1
 10
4.226561
 20
3.079441
 30
0.000000
  0
VERTEX
  8
LAYER-1
 10
4.226561
 20
2.257247
 30
0.000000
  0
VERTEX
  8
LAYER-1
 10
4.056422
 20
2.257247
 30
0.000000
  0
SEQEND
  8
LAYER-1
  0
POLYLINE
  8
LAYER-1
 66
  1
 70
  1
 62
  7
  0
VERTEX
  8
LAYER-1
 10
4.463298
 20
3.079441
 30
0.000000
  0
VERTEX
  8
LAYER-1
 10
4.633437
 20
3.079441
 30
0.000000
  0
VERTEX
  8
LAYER-1
 10
4.633437
 20
2.257247
 30
0.000000
  0
VERTEX
  8
LAYER-1
 10
4.463298
 20
2.257247
 30
0.000000
  0
SEQEND
  8
LAYER-1
  0
POLYLINE
  8
LAYER-1
 66
  1
 70
  1
 62
  7
  0
VERTEX
  8
LAYER-1
 10
4.870174
 20
3.079441
 30
0.000000
  0
VERTEX
  8
LAYER-1
 10
5.040313
 20
3.079441
 30
0.000000
  0
VERTEX
  8
LAYER-1
 10
5.040313
 20
2.257247
 30
0.000000
  0
VERTEX
  8
LAYER-1
 10
4.870174
 20
2.257247
 30
0.000000
  0
SEQEND
  8
LAYER-1
  0
POLYLINE
  8
LAYER-1
 66
  1
 70
  1
 62
  7
  0
VERTEX
  8
LAYER-1
 10
5.279652
 20
3.079441
 30
0.000000
  0
VERTEX
  8
LAYER-1
 10
5.449791
 20
3.079441
 30
0.000000
  0
VERTEX
  8
LAYER-1
 10
5.449791
 20
2.257247
 30
0.000000
  0
VERTEX
  8
LAYER-1
 10
5.279652
 20
2.257247
 30
0.000000
  0
SEQEND
  8
LAYER-1
  0
POLYLINE
  8
LAYER-1
 66
  1
 70
  1
 62
  7
  0
VERTEX
  8
LAYER-1
 10
5.484826
 20
2.257245
 30
0.000000
  0
VERTEX
  8
LAYER-1
 10
5.654965
 20
2.257245
 30
0.000000
  0
VERTEX
  8
LAYER-1
 10
5.654965
 20
1.435054
 30
0.000000
  0
VERTEX
  8
LAYER-1
 10
5.484826
 20
1.435054
 30
0.000000
  0
SEQEND
  8
LAYER-1
  0
POLYLINE
  8
LAYER-1
 66
  1
 70
  1
 62
  7
  0
VERTEX
  8
LAYER-1
 10
5.075346
 20
2.257245
 30
0.000000
  0
VERTEX
  8
LAYER-1
 10
5.245485
 20
2.257245
 30
0.000000
  0
VERTEX
  8
LAYER-1
 10
5.245485
 20
1.435054
 30
0.000000
  0
VERTEX
  8
LAYER-1
 10
5.075346
 20
1.435054
 30
0.000000
  0
SEQEND
  8
LAYER-1
  0
POLYLINE
  8
LAYER-1
 66
  1
 70
  1
 62
  7
  0
VERTEX
  8
LAYER-1
 10
4.666735
 20
2.257245
 30
0.000000
  0
VERTEX
  8
LAYER-1
 10
4.836875
 20
2.257245
 30
0.000000
  0
VERTEX
  8
LAYER-1
 10
4.836875
 20
1.435054
 30
0.000000
  0
VERTEX
  8
LAYER-1
 10
4.666735
 20
1.435054
 30
0.000000
  0
SEQEND
  8
LAYER-1
  0
POLYLINE
  8
LAYER-1
 66
  1
 70
  1
 62
  7
  0
VERTEX
  8
LAYER-1
 10
4.259861
 20
2.257245
 30
0.000000
  0
VERTEX
  8
LAYER-1
 10
4.430000
 20
2.257245
 30
0.000000
  0
VERTEX
  8
LAYER-1
 10
4.430000
 20
1.435054
 30
0.000000
  0
VERTEX
  8
LAYER-1
 10
4.259861
 20
1.435054
 30
0.000000
  0
SEQEND
  8
LAYER-1
  0
POLYLINE
  8
LAYER-1
 66
  1
 70
  1
 62
  7
  0
VERTEX
  8
LAYER-1
 10
3.851248
 20
2.257245
 30
0.000000
  0
VERTEX
  8
LAYER-1
 10
4.021388
 20
2.257245
 30
0.000000
  0
VERTEX
  8
LAYER-1
 10
4.021388
 20
1.435054
 30
0.000000
  0
VERTEX
  8
LAYER-1
 10
3.851248
 20
1.435054
 30
0.000000
  0
SEQEND
  8
LAYER-1
  0
POLYLINE
  8
LAYER-1
 66
  1
 70
  1
 62
  7
  0
VERTEX
  8
LAYER-1
 10
4.056422
 20
1.435412
 30
0.000000
  0
VERTEX
  8
LAYER-1
 10
4.226561
 20
1.435412
 30
0.000000
  0
VERTEX
  8
LAYER-1
 10
4.226561
 20
0.613221
 30
0.000000
  0
VERTEX
  8
LAYER-1
 10
4.056422
 20
0.613221
 30
0.000000
  0
SEQEND
  8
LAYER-1
  0
POLYLINE
  8
LAYER-1
 66
  1
 70
  1
 62
  7
  0
VERTEX
  8
LAYER-1
 10
4.464166
 20
1.435412
 30
0.000000
  0
VERTEX
  8
LAYER-1
 10
4.634305
 20
1.435412
 30
0.000000
  0
VERTEX
  8
LAYER-1
 10
4.634305
 20
0.613221
 30
0.000000
  0
VERTEX
  8
LAYER-1
 10
4.464166
 20
0.613221
 30
0.000000
  0
SEQEND
  8
LAYER-1
  0
POLYLINE
  8
LAYER-1
 66
  1
 70
  1
 62
  7
  0
VERTEX
  8
LAYER-1
 10
4.870174
 20
1.435412
 30
0.000000
  0
VERTEX
  8
LAYER-1
 10
5.040313
 20
1.435412
 30
0.000000
  0
VERTEX
  8
LAYER-1
 10
5.040313
 20
0.613221
 30
0.000000
  0
VERTEX
  8
LAYER-1
 10
4.870174
 20
0.613221
 30
0.000000
  0
SEQEND
  8
LAYER-1
  0
POLYLINE
  8
LAYER-1
 66
  1
 70
  1
 62
  7
  0
VERTEX
  8
LAYER-1
 10
5.279652
 20
1.435412
 30
0.000000
  0
VERTEX
  8
LAYER-1
 10
5.449791
 20
1.435412
 30
0.000000
  0
VERTEX
  8
LAYER-1
 10
5.449791
 20
0.613221
 30
0.000000
  0
VERTEX
  8
LAYER-1
 10
5.279652
 20
0.613221
 30
0.000000
  0
SEQEND
  8
LAYER-1
  0
POLYLINE
  8
LAYER-1
 66
  1
 70
  1
 62
  7
  0
VERTEX
  8
LAYER-1
 10
1.804373
 20
7.190509
 30
0.000000
  0
VERTEX
  8
LAYER-1
 10
1.974512
 20
7.190509
 30
0.000000
  0
VERTEX
  8
LAYER-1
 10
1.974512
 20
6.368317
 30
0.000000
  0
VERTEX
  8
LAYER-1
 10
1.804373
 20
6.368317
 30
0.000000
  0
SEQEND
  8
LAYER-1
  0
POLYLINE
  8
LAYER-1
 66
  1
 70
  1
 62
  7
  0
VERTEX
  8
LAYER-1
 10
2.213853
 20
7.190509
 30
0.000000
  0
VERTEX
  8
LAYER-1
 10
2.383992
 20
7.190509
 30
0.000000
  0
VERTEX
  8
LAYER-1
 10
2.383992
 20
6.368317
 30
0.000000
  0
VERTEX
  8
LAYER-1
 10
2.213853
 20
6.368317
 30
0.000000
  0
SEQEND
  8
LAYER-1
  0
POLYLINE
  8
LAYER-1
 66
  1
 70
  1
 62
  7
  0
VERTEX
  8
LAYER-1
 10
2.623332
 20
7.190509
 30
0.000000
  0
VERTEX
  8
LAYER-1
 10
2.793471
 20
7.190509
 30
0.000000
  0
VERTEX
  8
LAYER-1
 10
2.793471
 20
6.368317
 30
0.000000
  0
VERTEX
  8
LAYER-1
 10
2.623332
 20
6.368317
 30
0.000000
  0
SEQEND
  8
LAYER-1
  0
POLYLINE
  8
LAYER-1
 66
  1
 70
  1
 62
  7
  0
VERTEX
  8
LAYER-1
 10
3.029339
 20
7.190509
 30
0.000000
  0
VERTEX
  8
LAYER-1
 10
3.199478
 20
7.190509
 30
0.000000
  0
VERTEX
  8
LAYER-1
 10
3.199478
 20
6.368317
 30
0.000000
  0
VERTEX
  8
LAYER-1
 10
3.029339
 20
6.368317
 30
0.000000
  0
SEQEND
  8
LAYER-1
  0
POLYLINE
  8
LAYER-1
 66
  1
 70
  1
 62
  7
  0
VERTEX
  8
LAYER-1
 10
3.437083
 20
7.190509
 30
0.000000
  0
VERTEX
  8
LAYER-1
 10
3.607221
 20
7.190509
 30
0.000000
  0
VERTEX
  8
LAYER-1
 10
3.607221
 20
6.368317
 30
0.000000
  0
VERTEX
  8
LAYER-1
 10
3.437083
 20
6.368317
 30
0.000000
  0
SEQEND
  8
LAYER-1
  0
POLYLINE
  8
LAYER-1
 66
  1
 70
  1
 62
  7
  0
VERTEX
  8
LAYER-1
 10
3.232777
 20
6.368674
 30
0.000000
  0
VERTEX
  8
LAYER-1
 10
3.402916
 20
6.368674
 30
0.000000
  0
VERTEX
  8
LAYER-1
 10
3.402916
 20
5.546483
 30
0.000000
  0
VERTEX
  8
LAYER-1
 10
3.232777
 20
5.546483
 30
0.000000
  0
SEQEND
  8
LAYER-1
  0
POLYLINE
  8
LAYER-1
 66
  1
 70
  1
 62
  7
  0
VERTEX
  8
LAYER-1
 10
2.826770
 20
6.368674
 30
0.000000
  0
VERTEX
  8
LAYER-1
 10
2.996909
 20
6.368674
 30
0.000000
  0
VERTEX
  8
LAYER-1
 10
2.996909
 20
5.546483
 30
0.000000
  0
VERTEX
  8
LAYER-1
 10
2.826770
 20
5.546483
 30
0.000000
  0
SEQEND
  8
LAYER-1
  0
POLYLINE
  8
LAYER-1
 66
  1
 70
  1
 62
  7
  0
VERTEX
  8
LAYER-1
 10
2.419026
 20
6.368674
 30
0.000000
  0
VERTEX
  8
LAYER-1
 10
2.589165
 20
6.368674
 30
0.000000
  0
VERTEX
  8
LAYER-1
 10
2.589165
 20
5.546483
 30
0.000000
  0
VERTEX
  8
LAYER-1
 10
2.419026
 20
5.546483
 30
0.000000
  0
SEQEND
  8
LAYER-1
  0
POLYLINE
  8
LAYER-1
 66
  1
 70
  1
 62
  7
  0
VERTEX
  8
LAYER-1
 10
2.010415
 20
6.368674
 30
0.000000
  0
VERTEX
  8
LAYER-1
 10
2.180554
 20
6.368674
 30
0.000000
  0
VERTEX
  8
LAYER-1
 10
2.180554
 20
5.546483
 30
0.000000
  0
VERTEX
  8
LAYER-1
 10
2.010415
 20
5.546483
 30
0.000000
  0
SEQEND
  8
LAYER-1
  0
POLYLINE
  8
LAYER-1
 66
  1
 70
  1
 62
  7
  0
VERTEX
  8
LAYER-1
 10
1.804373
 20
5.546480
 30
0.000000
  0
VERTEX
  8
LAYER-1
 10
1.974512
 20
5.546480
 30
0.000000
  0
VERTEX
  8
LAYER-1
 10
1.974512
 20
4.724290
 30
0.000000
  0
VERTEX
  8
LAYER-1
 10
1.804373
 20
4.724290
 30
0.000000
  0
SEQEND
  8
LAYER-1
  0
POLYLINE
  8
LAYER-1
 66
  1
 70
  1
 62
  7
  0
VERTEX
  8
LAYER-1
 10
2.213853
 20
5.546480
 30
0.000000
  0
VERTEX
  8
LAYER-1
 10
2.383992
 20
5.546480
 30
0.000000
  0
VERTEX
  8
LAYER-1
 10
2.383992
 20
4.724290
 30
0.000000
  0
VERTEX
  8
LAYER-1
 10
2.213853
 20
4.724290
 30
0.000000
  0
SEQEND
  8
LAYER-1
  0
POLYLINE
  8
LAYER-1
 66
  1
 70
  1
 62
  7
  0
VERTEX
  8
LAYER-1
 10
2.623332
 20
5.546480
 30
0.000000
  0
VERTEX
  8
LAYER-1
 10
2.793471
 20
5.546480
 30
0.000000
  0
VERTEX
  8
LAYER-1
 10
2.793471
 20
4.724290
 30
0.000000
  0
VERTEX
  8
LAYER-1
 10
2.623332
 20
4.724290
 30
0.000000
  0
SEQEND
  8
LAYER-1
  0
POLYLINE
  8
LAYER-1
 66
  1
 70
  1
 62
  7
  0
VERTEX
  8
LAYER-1
 10
3.029339
 20
5.546480
 30
0.000000
  0
VERTEX
  8
LAYER-1
 10
3.199478
 20
5.546480
 30
0.000000
  0
VERTEX
  8
LAYER-1
 10
3.199478
 20
4.724290
 30
0.000000
  0
VERTEX
  8
LAYER-1
 10
3.029339
 20
4.724290
 30
0.000000
  0
SEQEND
  8
LAYER-1
  0
POLYLINE
  8
LAYER-1
 66
  1
 70
  1
 62
  7
  0
VERTEX
  8
LAYER-1
 10
3.437083
 20
5.546480
 30
0.000000
  0
VERTEX
  8
LAYER-1
 10
3.607221
 20
5.546480
 30
0.000000
  0
VERTEX
  8
LAYER-1
 10
3.607221
 20
4.724290
 30
0.000000
  0
VERTEX
  8
LAYER-1
 10
3.437083
 20
4.724290
 30
0.000000
  0
SEQEND
  8
LAYER-1
  0
POLYLINE
  8
LAYER-1
 66
  1
 70
  1
 62
  7
  0
VERTEX
  8
LAYER-1
 10
3.232777
 20
4.724647
 30
0.000000
  0
VERTEX
  8
LAYER-1
 10
3.402916
 20
4.724647
 30
0.000000
  0
VERTEX
  8
LAYER-1
 10
3.402916
 20
3.902456
 30
0.000000
  0
VERTEX
  8
LAYER-1
 10
3.232777
 20
3.902456
 30
0.000000
  0
SEQEND
  8
LAYER-1
  0
POLYLINE
  8
LAYER-1
 66
  1
 70
  1
 62
  7
  0
VERTEX
  8
LAYER-1
 10
2.826770
 20
4.724647
 30
0.000000
  0
VERTEX
  8
LAYER-1
 10
2.996909
 20
4.724647
 30
0.000000
  0
VERTEX
  8
LAYER-1
 10
2.996909
 20
3.902456
 30
0.000000
  0
VERTEX
  8
LAYER-1
 10
2.826770
 20
3.902456
 30
0.000000
  0
SEQEND
  8
LAYER-1
  0
POLYLINE
  8
LAYER-1
 66
  1
 70
  1
 62
  7
  0
VERTEX
  8
LAYER-1
 10
2.419026
 20
4.724647
 30
0.000000
  0
VERTEX
  8
LAYER-1
 10
2.589165
 20
4.724647
 30
0.000000
  0
VERTEX
  8
LAYER-1
 10
2.589165
 20
3.902456
 30
0.000000
  0
VERTEX
  8
LAYER-1
 10
2.419026
 20
3.902456
 30
0.000000
  0
SEQEND
  8
LAYER-1
  0
POLYLINE
  8
LAYER-1
 66
  1
 70
  1
 62
  7
  0
VERTEX
  8
LAYER-1
 10
2.010415
 20
4.724647
 30
0.000000
  0
VERTEX
  8
LAYER-1
 10
2.180554
 20
4.724647
 30
0.000000
  0
VERTEX
  8
LAYER-1
 10
2.180554
 20
3.902456
 30
0.000000
  0
VERTEX
  8
LAYER-1
 10
2.010415
 20
3.902456
 30
0.000000
  0
SEQEND
  8
LAYER-1
  0
POLYLINE
  8
LAYER-1
 66
  1
 70
  1
 62
  7
  0
VERTEX
  8
LAYER-1
 10
1.804373
 20
3.902453
 30
0.000000
  0
VERTEX
  8
LAYER-1
 10
1.974512
 20
3.902453
 30
0.000000
  0
VERTEX
  8
LAYER-1
 10
1.974512
 20
3.080262
 30
0.000000
  0
VERTEX
  8
LAYER-1
 10
1.804373
 20
3.080262
 30
0.000000
  0
SEQEND
  8
LAYER-1
  0
POLYLINE
  8
LAYER-1
 66
  1
 70
  1
 62
  7
  0
VERTEX
  8
LAYER-1
 10
2.213853
 20
3.902453
 30
0.000000
  0
VERTEX
  8
LAYER-1
 10
2.383992
 20
3.902453
 30
0.000000
  0
VERTEX
  8
LAYER-1
 10
2.383992
 20
3.080262
 30
0.000000
  0
VERTEX
  8
LAYER-1
 10
2.213853
 20
3.080262
 30
0.000000
  0
SEQEND
  8
LAYER-1
  0
POLYLINE
  8
LAYER-1
 66
  1
 70
  1
 62
  7
  0
VERTEX
  8
LAYER-1
 10
2.623332
 20
3.902453
 30
0.000000
  0
VERTEX
  8
LAYER-1
 10
2.793471
 20
3.902453
 30
0.000000
  0
VERTEX
  8
LAYER-1
 10
2.793471
 20
3.080262
 30
0.000000
  0
VERTEX
  8
LAYER-1
 10
2.623332
 20
3.080262
 30
0.000000
  0
SEQEND
  8
LAYER-1
  0
POLYLINE
  8
LAYER-1
 66
  1
 70
  1
 62
  7
  0
VERTEX
  8
LAYER-1
 10
3.029339
 20
3.902453
 30
0.000000
  0
VERTEX
  8
LAYER-1
 10
3.199478
 20
3.902453
 30
0.000000
  0
VERTEX
  8
LAYER-1
 10
3.199478
 20
3.080262
 30
0.000000
  0
VERTEX
  8
LAYER-1
 10
3.029339
 20
3.080262
 30
0.000000
  0
SEQEND
  8
LAYER-1
  0
POLYLINE
  8
LAYER-1
 66
  1
 70
  1
 62
  7
  0
VERTEX
  8
LAYER-1
 10
3.437083
 20
3.902453
 30
0.000000
  0
VERTEX
  8
LAYER-1
 10
3.607221
 20
3.902453
 30
0.000000
  0
VERTEX
  8
LAYER-1
 10
3.607221
 20
3.080262
 30
0.000000
  0
VERTEX
  8
LAYER-1
 10
3.437083
 20
3.080262
 30
0.000000
  0
SEQEND
  8
LAYER-1
  0
POLYLINE
  8
LAYER-1
 66
  1
 70
  1
 62
  7
  0
VERTEX
  8
LAYER-1
 10
2.010415
 20
3.080617
 30
0.000000
  0
VERTEX
  8
LAYER-1
 10
2.180554
 20
3.080617
 30
0.000000
  0
VERTEX
  8
LAYER-1
 10
2.180554
 20
2.258424
 30
0.000000
  0
VERTEX
  8
LAYER-1
 10
2.010415
 20
2.258424
 30
0.000000
  0
SEQEND
  8
LAYER-1
  0
POLYLINE
  8
LAYER-1
 66
  1
 70
  1
 62
  7
  0
VERTEX
  8
LAYER-1
 10
2.419026
 20
3.080617
 30
0.000000
  0
VERTEX
  8
LAYER-1
 10
2.589165
 20
3.080617
 30
0.000000
  0
VERTEX
  8
LAYER-1
 10
2.589165
 20
2.258424
 30
0.000000
  0
VERTEX
  8
LAYER-1
 10
2.419026
 20
2.258424
 30
0.000000
  0
SEQEND
  8
LAYER-1
  0
POLYLINE
  8
LAYER-1
 66
  1
 70
  1
 62
  7
  0
VERTEX
  8
LAYER-1
 10
2.826770
 20
3.080617
 30
0.000000
  0
VERTEX
  8
LAYER-1
 10
2.996909
 20
3.080617
 30
0.000000
  0
VERTEX
  8
LAYER-1
 10
2.996909
 20
2.258424
 30
0.000000
  0
VERTEX
  8
LAYER-1
 10
2.826770
 20
2.258424
 30
0.000000
  0
SEQEND
  8
LAYER-1
  0
POLYLINE
  8
LAYER-1
 66
  1
 70
  1
 62
  7
  0
VERTEX
  8
LAYER-1
 10
3.232777
 20
3.080617
 30
0.000000
  0
VERTEX
  8
LAYER-1
 10
3.402916
 20
3.080617
 30
0.000000
  0
VERTEX
  8
LAYER-1
 10
3.402916
 20
2.258424
 30
0.000000
  0
VERTEX
  8
LAYER-1
 10
3.232777
 20
2.258424
 30
0.000000
  0
SEQEND
  8
LAYER-1
  0
POLYLINE
  8
LAYER-1
 66
  1
 70
  1
 62
  7
  0
VERTEX
  8
LAYER-1
 10
3.437083
 20
2.258422
 30
0.000000
  0
VERTEX
  8
LAYER-1
 10
3.607221
 20
2.258422
 30
0.000000
  0
VERTEX
  8
LAYER-1
 10
3.607221
 20
1.436229
 30
0.000000
  0
VERTEX
  8
LAYER-1
 10
3.437083
 20
1.436229
 30
0.000000
  0
SEQEND
  8
LAYER-1
  0
POLYLINE
  8
LAYER-1
 66
  1
 70
  1
 62
  7
  0
VERTEX
  8
LAYER-1
 10
3.029339
 20
2.258422
 30
0.000000
  0
VERTEX
  8
LAYER-1
 10
3.199478
 20
2.258422
 30
0.000000
  0
VERTEX
  8
LAYER-1
 10
3.199478
 20
1.436229
 30
0.000000
  0
VERTEX
  8
LAYER-1
 10
3.029339
 20
1.436229
 30
0.000000
  0
SEQEND
  8
LAYER-1
  0
POLYLINE
  8
LAYER-1
 66
  1
 70
  1
 62
  7
  0
VERTEX
  8
LAYER-1
 10
2.623332
 20
2.258422
 30
0.000000
  0
VERTEX
  8
LAYER-1
 10
2.793471
 20
2.258422
 30
0.000000
  0
VERTEX
  8
LAYER-1
 10
2.793471
 20
1.436229
 30
0.000000
  0
VERTEX
  8
LAYER-1
 10
2.623332
 20
1.436229
 30
0.000000
  0
SEQEND
  8
LAYER-1
  0
POLYLINE
  8
LAYER-1
 66
  1
 70
  1
 62
  7
  0
VERTEX
  8
LAYER-1
 10
2.213853
 20
2.258422
 30
0.000000
  0
VERTEX
  8
LAYER-1
 10
2.383992
 20
2.258422
 30
0.000000
  0
VERTEX
  8
LAYER-1
 10
2.383992
 20
1.436229
 30
0.000000
  0
VERTEX
  8
LAYER-1
 10
2.213853
 20
1.436229
 30
0.000000
  0
SEQEND
  8
LAYER-1
  0
POLYLINE
  8
LAYER-1
 66
  1
 70
  1
 62
  7
  0
VERTEX
  8
LAYER-1
 10
1.804373
 20
2.258422
 30
0.000000
  0
VERTEX
  8
LAYER-1
 10
1.974512
 20
2.258422
 30
0.000000
  0
VERTEX
  8
LAYER-1
 10
1.974512
 20
1.436229
 30
0.000000
  0
VERTEX
  8
LAYER-1
 10
1.804373
 20
1.436229
 30
0.000000
  0
SEQEND
  8
LAYER-1
  0
POLYLINE
  8
LAYER-1
 66
  1
 70
  1
 62
  7
  0
VERTEX
  8
LAYER-1
 10
3.232777
 20
1.436589
 30
0.000000
  0
VERTEX
  8
LAYER-1
 10
3.402916
 20
1.436589
 30
0.000000
  0
VERTEX
  8
LAYER-1
 10
3.402916
 20
0.614398
 30
0.000000
  0
VERTEX
  8
LAYER-1
 10
3.232777
 20
0.614398
 30
0.000000
  0
SEQEND
  8
LAYER-1
  0
POLYLINE
  8
LAYER-1
 66
  1
 70
  1
 62
  7
  0
VERTEX
  8
LAYER-1
 10
2.826770
 20
1.436589
 30
0.000000
  0
VERTEX
  8
LAYER-1
 10
2.996909
 20
1.436589
 30
0.000000
  0
VERTEX
  8
LAYER-1
 10
2.996909
 20
0.614398
 30
0.000000
  0
VERTEX
  8
LAYER-1
 10
2.826770
 20
0.614398
 30
0.000000
  0
SEQEND
  8
LAYER-1
  0
POLYLINE
  8
LAYER-1
 66
  1
 70
  1
 62
  7
  0
VERTEX
  8
LAYER-1
 10
2.419026
 20
1.436589
 30
0.000000
  0
VERTEX
  8
LAYER-1
 10
2.589165
 20
1.436589
 30
0.000000
  0
VERTEX
  8
LAYER-1
 10
2.589165
 20
0.614398
 30
0.000000
  0
VERTEX
  8
LAYER-1
 10
2.419026
 20
0.614398
 30
0.000000
  0
SEQEND
  8
LAYER-1
  0
POLYLINE
  8
LAYER-1
 66
  1
 70
  1
 62
  7
  0
VERTEX
  8
LAYER-1
 10
2.010415
 20
1.436589
 30
0.000000
  0
VERTEX
  8
LAYER-1
 10
2.180554
 20
1.436589
 30
0.000000
  0
VERTEX
  8
LAYER-1
 10
2.180554
 20
0.614398
 30
0.000000
  0
VERTEX
  8
LAYER-1
 10
2.010415
 20
0.614398
 30
0.000000
  0
SEQEND
  8
LAYER-1
  0
POLYLINE
  8
LAYER-1
 66
  1
 70
  1
 62
  0
  0
VERTEX
  8
LAYER-1
 10
4.020872
 20
7.189813
 30
0.000000
  0
VERTEX
  8
LAYER-1
 10
4.056822
 20
7.189813
 30
0.000000
  0
VERTEX
  8
LAYER-1
 10
4.056822
 20
0.608151
 30
0.000000
  0
VERTEX
  8
LAYER-1
 10
4.020872
 20
0.608151
 30
0.000000
  0
SEQEND
  8
LAYER-1
  0
POLYLINE
  8
LAYER-1
 66
  1
 70
  1
 62
  0
  0
VERTEX
  8
LAYER-1
 10
4.428268
 20
7.189813
 30
0.000000
  0
VERTEX
  8
LAYER-1
 10
4.464219
 20
7.189813
 30
0.000000
  0
VERTEX
  8
LAYER-1
 10
4.464219
 20
0.606300
 30
0.000000
  0
VERTEX
  8
LAYER-1
 10
4.428268
 20
0.606300
 30
0.000000
  0
SEQEND
  8
LAYER-1
  0
POLYLINE
  8
LAYER-1
 66
  1
 70
  1
 62
  0
  0
VERTEX
  8
LAYER-1
 10
4.834796
 20
7.189813
 30
0.000000
  0
VERTEX
  8
LAYER-1
 10
4.870747
 20
7.189813
 30
0.000000
  0
VERTEX
  8
LAYER-1
 10
4.870747
 20
0.607564
 30
0.000000
  0
VERTEX
  8
LAYER-1
 10
4.834796
 20
0.607564
 30
0.000000
  0
SEQEND
  8
LAYER-1
  0
POLYLINE
  8
LAYER-1
 66
  1
 70
  1
 62
  0
  0
VERTEX
  8
LAYER-1
 10
5.244796
 20
7.189813
 30
0.000000
  0
VERTEX
  8
LAYER-1
 10
5.280747
 20
7.189813
 30
0.000000
  0
VERTEX
  8
LAYER-1
 10
5.280747
 20
0.606977
 30
0.000000
  0
VERTEX
  8
LAYER-1
 10
5.244796
 20
0.606977
 30
0.000000
  0
SEQEND
  8
LAYER-1
  0
POLYLINE
  8
LAYER-1
 66
  1
 70
  1
 62
  0
  0
VERTEX
  8
LAYER-1
 10
5.655231
 20
7.189813
 30
0.000000
  0
VERTEX
  8
LAYER-1
 10
5.691181
 20
7.189813
 30
0.000000
  0
VERTEX
  8
LAYER-1
 10
5.691181
 20
0.606697
 30
0.000000
  0
VERTEX
  8
LAYER-1
 10
5.655231
 20
0.606697
 30
0.000000
  0
SEQEND
  8
LAYER-1
  0
POLYLINE
  8
LAYER-1
 66
  1
 70
  1
 62
  0
  0
VERTEX
  8
LAYER-1
 10
3.401636
 20
7.190018
 30
0.000000
  0
VERTEX
  8
LAYER-1
 10
3.437587
 20
7.190018
 30
0.000000
  0
VERTEX
  8
LAYER-1
 10
3.437587
 20
0.608002
 30
0.000000
  0
VERTEX
  8
LAYER-1
 10
3.401636
 20
0.608002
 30
0.000000
  0
SEQEND
  8
LAYER-1
  0
POLYLINE
  8
LAYER-1
 66
  1
 70
  1
 62
  0
  0
VERTEX
  8
LAYER-1
 10
2.995108
 20
7.190018
 30
0.000000
  0
VERTEX
  8
LAYER-1
 10
3.031059
 20
7.190018
 30
0.000000
  0
VERTEX
  8
LAYER-1
 10
3.031059
 20
0.608447
 30
0.000000
  0
VERTEX
  8
LAYER-1
 10
2.995108
 20
0.608447
 30
0.000000
  0
SEQEND
  8
LAYER-1
  0
POLYLINE
  8
LAYER-1
 66
  1
 70
  1
 62
  0
  0
VERTEX
  8
LAYER-1
 10
2.587712
 20
7.190018
 30
0.000000
  0
VERTEX
  8
LAYER-1
 10
2.623663
 20
7.190018
 30
0.000000
  0
VERTEX
  8
LAYER-1
 10
2.623663
 20
0.607108
 30
0.000000
  0
VERTEX
  8
LAYER-1
 10
2.587712
 20
0.607108
 30
0.000000
  0
SEQEND
  8
LAYER-1
  0
POLYLINE
  8
LAYER-1
 66
  1
 70
  1
 62
  0
  0
VERTEX
  8
LAYER-1
 10
2.178580
 20
7.190018
 30
0.000000
  0
VERTEX
  8
LAYER-1
 10
2.214530
 20
7.190018
 30
0.000000
  0
VERTEX
  8
LAYER-1
 10
2.214530
 20
0.608918
 30
0.000000
  0
VERTEX
  8
LAYER-1
 10
2.178580
 20
0.608918
 30
0.000000
  0
SEQEND
  8
LAYER-1
  0
POLYLINE
  8
LAYER-1
 66
  1
 70
  1
 62
  0
  0
VERTEX
  8
LAYER-1
 10
1.768145
 20
7.190018
 30
0.000000
  0
VERTEX
  8
LAYER-1
 10
1.804096
 20
7.190018
 30
0.000000
  0
VERTEX
  8
LAYER-1
 10
1.804096
 20
0.607976
 30
0.000000
  0
VERTEX
  8
LAYER-1
 10
1.768145
 20
0.607976
 30
0.000000
  0
SEQEND
  8
LAYER-1
  0
POLYLINE
  8
LAYER-1
 66
  1
 70
  1
 62
  0
  0
VERTEX
  8
LAYER-1
 10
3.606774
 20
7.190007
 30
0.000000
  0
VERTEX
  8
LAYER-1
 10
3.642725
 20
7.190007
 30
0.000000
  0
VERTEX
  8
LAYER-1
 10
3.642725
 20
0.606324
 30
0.000000
  0
VERTEX
  8
LAYER-1
 10
3.606774
 20
0.606324
 30
0.000000
  0
SEQEND
  8
LAYER-1
  0
POLYLINE
  8
LAYER-1
 66
  1
 70
  1
 62
  0
  0
VERTEX
  8
LAYER-1
 10
3.198510
 20
7.190007
 30
0.000000
  0
VERTEX
  8
LAYER-1
 10
3.234461
 20
7.190007
 30
0.000000
  0
VERTEX
  8
LAYER-1
 10
3.234461
 20
0.606324
 30
0.000000
  0
VERTEX
  8
LAYER-1
 10
3.198510
 20
0.606324
 30
0.000000
  0
SEQEND
  8
LAYER-1
  0
POLYLINE
  8
LAYER-1
 66
  1
 70
  1
 62
  0
  0
VERTEX
  8
LAYER-1
 10
2.791982
 20
7.190007
 30
0.000000
  0
VERTEX
  8
LAYER-1
 10
2.827933
 20
7.190007
 30
0.000000
  0
VERTEX
  8
LAYER-1
 10
2.827933
 20
0.606324
 30
0.000000
  0
VERTEX
  8
LAYER-1
 10
2.791982
 20
0.606324
 30
0.000000
  0
SEQEND
  8
LAYER-1
  0
POLYLINE
  8
LAYER-1
 66
  1
 70
  1
 62
  0
  0
VERTEX
  8
LAYER-1
 10
2.383717
 20
7.190007
 30
0.000000
  0
VERTEX
  8
LAYER-1
 10
2.419668
 20
7.190007
 30
0.000000
  0
VERTEX
  8
LAYER-1
 10
2.419668
 20
0.606324
 30
0.000000
  0
VERTEX
  8
LAYER-1
 10
2.383717
 20
0.606324
 30
0.000000
  0
SEQEND
  8
LAYER-1
  0
POLYLINE
  8
LAYER-1
 66
  1
 70
  1
 62
  0
  0
VERTEX
  8
LAYER-1
 10
1.974151
 20
7.190007
 30
0.000000
  0
VERTEX
  8
LAYER-1
 10
2.010102
 20
7.190007
 30
0.000000
  0
VERTEX
  8
LAYER-1
 10
2.010102
 20
0.606324
 30
0.000000
  0
VERTEX
  8
LAYER-1
 10
1.974151
 20
0.606324
 30
0.000000
  0
SEQEND
  8
LAYER-1
  0
POLYLINE
  8
LAYER-1
 66
  1
 70
  1
 62
  0
 10
3.645291
 20
0.341598
 30
0.000000
  0
VERTEX
  8
LAYER-1
 10
3.645291
 20
0.341598
 30
0.000000
  0
VERTEX
  8
LAYER-1
 10
1.749373
 20
0.341699
 30
0.000000
  0
VERTEX
  8
LAYER-1
 10
1.749373
 20
0.613232
 30
0.000000
  0
VERTEX
  8
LAYER-1
 10
3.645291
 20
0.613348
 30
0.000000
  0
SEQEND
  8
LAYER-1
  0
POLYLINE
  8
LAYER-1
 66
  1
 70
  0
 62
  0
 10
3.645510
 20
0.409505
 30
0.000000
  0
VERTEX
  8
LAYER-1
 10
3.645510
 20
0.409505
 30
0.000000
  0
VERTEX
  8
LAYER-1
 10
3.605784
 20
0.409505
 30
0.000000
  0
SEQEND
  8
LAYER-1
  0
POLYLINE
  8
LAYER-1
 66
  1
 70
  0
 62
  0
 10
3.645510
 20
0.539415
 30
0.000000
  0
VERTEX
  8
LAYER-1
 10
3.645510
 20
0.539415
 30
0.000000
  0
VERTEX
  8
LAYER-1
 10
3.605784
 20
0.539415
 30
0.000000
  0
SEQEND
  8
LAYER-1
  0
POLYLINE
  8
LAYER-1
 66
  1
 70
  0
 62
  0
 10
3.607154
 20
0.336453
 30
0.000000
  0
VERTEX
  8
LAYER-1
 10
3.607154
 20
0.336453
 30
0.000000
  0
VERTEX
  8
LAYER-1
 10
3.620326
 20
0.329406
 30
0.000000
  0
VERTEX
  8
LAYER-1
 10
3.637406
 20
0.333737
 30
0.000000
  0
VERTEX
  8
LAYER-1
 10
3.644058
 20
0.336451
 30
0.000000
  0
SEQEND
  8
LAYER-1
  0
POLYLINE
  8
LAYER-1
 66
  1
 70
  1
 62
  0
  0
VERTEX
  8
LAYER-1
 10
3.651261
 20
0.335830
 30
0.000000
  0
VERTEX
  8
LAYER-1
 10
3.596646
 20
0.335830
 30
0.000000
  0
VERTEX
  8
LAYER-1
 10
3.596646
 20
0.341735
 30
0.000000
  0
VERTEX
  8
LAYER-1
 10
3.651261
 20
0.341735
 30
0.000000
  0
SEQEND
  8
LAYER-1
  0
POLYLINE
  8
LAYER-1
 66
  1
 70
  1
 62
  0
 10
3.645085
 20
7.461639
 30
0.000000
  0
VERTEX
  8
LAYER-1
 10
3.645085
 20
7.461639
 30
0.000000
  0
VERTEX
  8
LAYER-1
 10
1.748733
 20
7.461538
 30
0.000000
  0
VERTEX
  8
LAYER-1
 10
1.748733
 20
7.190004
 30
0.000000
  0
VERTEX
  8
LAYER-1
 10
3.645085
 20
7.189888
 30
0.000000
  0
SEQEND
  8
LAYER-1
  0
POLYLINE
  8
LAYER-1
 66
  1
 70
  0
 62
  0
 10
3.383796
 20
7.461638
 30
0.000000
  0
VERTEX
  8
LAYER-1
 10
3.383796
 20
7.461638
 30
0.000000
  0
VERTEX
  8
LAYER-1
 10
3.383796
 20
7.190006
 30
0.000000
  0
SEQEND
  8
LAYER-1
  0
POLYLINE
  8
LAYER-1
 66
  1
 70
  0
 62
  0
 10
3.053299
 20
7.190006
 30
0.000000
  0
VERTEX
  8
LAYER-1
 10
3.053299
 20
7.190006
 30
0.000000
  0
VERTEX
  8
LAYER-1
 10
3.053299
 20
7.461638
 30
0.000000
  0
SEQEND
  8
LAYER-1
  0
POLYLINE
  8
LAYER-1
 66
  1
 70
  0
 62
  0
 10
2.240467
 20
7.190007
 30
0.000000
  0
VERTEX
  8
LAYER-1
 10
2.240467
 20
7.190007
 30
0.000000
  0
VERTEX
  8
LAYER-1
 10
2.240467
 20
7.461638
 30
0.000000
  0
SEQEND
  8
LAYER-1
  0
POLYLINE
  8
LAYER-1
 66
  1
 70
  0
 62
  0
 10
2.421635
 20
7.461678
 30
0.000000
  0
VERTEX
  8
LAYER-1
 10
2.421635
 20
7.461678
 30
0.000000
  0
VERTEX
  8
LAYER-1
 10
2.421635
 20
7.190049
 30
0.000000
  0
SEQEND
  8
LAYER-1
  0
POLYLINE
  8
LAYER-1
 66
  1
 70
  0
 62
  0
 10
2.381776
 20
7.461678
 30
0.000000
  0
VERTEX
  8
LAYER-1
 10
2.381776
 20
7.461678
 30
0.000000
  0
VERTEX
  8
LAYER-1
 10
2.381776
 20
7.190049
 30
0.000000
  0
SEQEND
  8
LAYER-1
  0
POLYLINE
  8
LAYER-1
 66
  1
 70
  0
 62
  0
 10
3.235652
 20
7.461678
 30
0.000000
  0
VERTEX
  8
LAYER-1
 10
3.235652
 20
7.461678
 30
0.000000
  0
VERTEX
  8
LAYER-1
 10
3.235652
 20
7.190049
 30
0.000000
  0
SEQEND
  8
LAYER-1
  0
POLYLINE
  8
LAYER-1
 66
  1
 70
  0
 62
  0
 10
3.196836
 20
7.461678
 30
0.000000
  0
VERTEX
  8
LAYER-1
 10
3.196836
 20
7.461678
 30
0.000000
  0
VERTEX
  8
LAYER-1
 10
3.196836
 20
7.190049
 30
0.000000
  0
SEQEND
  8
LAYER-1
  0
POLYLINE
  8
LAYER-1
 66
  1
 70
  0
 62
  0
 10
2.968976
 20
7.461638
 30
0.000000
  0
VERTEX
  8
LAYER-1
 10
2.968976
 20
7.461638
 30
0.000000
  0
VERTEX
  8
LAYER-1
 10
2.968976
 20
7.190007
 30
0.000000
  0
SEQEND
  8
LAYER-1
  0
POLYLINE
  8
LAYER-1
 66
  1
 70
  0
 62
  0
 10
2.156146
 20
7.461638
 30
0.000000
  0
VERTEX
  8
LAYER-1
 10
2.156146
 20
7.461638
 30
0.000000
  0
VERTEX
  8
LAYER-1
 10
2.156146
 20
7.190007
 30
0.000000
  0
SEQEND
  8
LAYER-1
  0
POLYLINE
  8
LAYER-1
 66
  1
 70
  0
 62
  0
 10
2.011240
 20
7.461244
 30
0.000000
  0
VERTEX
  8
LAYER-1
 10
2.011240
 20
7.461244
 30
0.000000
  0
VERTEX
  8
LAYER-1
 10
2.011240
 20
7.189615
 30
0.000000
  0
SEQEND
  8
LAYER-1
  0
POLYLINE
  8
LAYER-1
 66
  1
 70
  0
 62
  0
 10
1.972858
 20
7.461244
 30
0.000000
  0
VERTEX
  8
LAYER-1
 10
1.972858
 20
7.461244
 30
0.000000
  0
VERTEX
  8
LAYER-1
 10
1.972858
 20
7.189615
 30
0.000000
  0
SEQEND
  8
LAYER-1
  0
POLYLINE
  8
LAYER-1
 66
  1
 70
  0
 62
  0
 10
2.829079
 20
7.461713
 30
0.000000
  0
VERTEX
  8
LAYER-1
 10
2.829079
 20
7.461713
 30
0.000000
  0
VERTEX
  8
LAYER-1
 10
2.829079
 20
7.190085
 30
0.000000
  0
SEQEND
  8
LAYER-1
  0
POLYLINE
  8
LAYER-1
 66
  1
 70
  0
 62
  0
 10
2.790696
 20
7.461713
 30
0.000000
  0
VERTEX
  8
LAYER-1
 10
2.790696
 20
7.461713
 30
0.000000
  0
VERTEX
  8
LAYER-1
 10
2.790696
 20
7.190085
 30
0.000000
  0
SEQEND
  8
LAYER-1
  0
POLYLINE
  8
LAYER-1
 66
  1
 70
  0
 62
  0
 10
3.456130
 20
7.190010
 30
0.000000
  0
VERTEX
  8
LAYER-1
 10
3.456130
 20
7.190010
 30
0.000000
  0
VERTEX
  8
LAYER-1
 10
3.456130
 20
7.461639
 30
0.000000
  0
SEQEND
  8
LAYER-1
  0
POLYLINE
  8
LAYER-1
 66
  1
 70
  0
 62
  0
 10
3.420700
 20
7.461639
 30
0.000000
  0
VERTEX
  8
LAYER-1
 10
3.420700
 20
7.461639
 30
0.000000
  0
VERTEX
  8
LAYER-1
 10
3.420700
 20
7.190008
 30
0.000000
  0
SEQEND
  8
LAYER-1
  0
POLYLINE
  8
LAYER-1
 66
  1
 70
  0
 62
  0
 10
3.455226
 20
7.461639
 30
0.000000
  0
VERTEX
  8
LAYER-1
 10
3.455226
 20
7.461639
 30
0.000000
  0
VERTEX
  8
LAYER-1
 10
3.441349
 20
7.472577
 30
0.000000
  0
VERTEX
  8
LAYER-1
 10
3.426586
 20
7.470499
 30
0.000000
  0
VERTEX
  8
LAYER-1
 10
3.421671
 20
7.461650
 30
0.000000
  0
SEQEND
  8
LAYER-1
  0
POLYLINE
  8
LAYER-1
 66
  1
 70
  0
 62
  0
 10
3.420700
 20
7.461639
 30
0.000000
  0
VERTEX
  8
LAYER-1
 10
3.420700
 20
7.461639
 30
0.000000
  0
VERTEX
  8
LAYER-1
 10
3.403592
 20
7.472622
 30
0.000000
  0
VERTEX
  8
LAYER-1
 10
3.386512
 20
7.468291
 30
0.000000
  0
VERTEX
  8
LAYER-1
 10
3.383797
 20
7.461638
 30
0.000000
  0
SEQEND
  8
LAYER-1
  0
POLYLINE
  8
LAYER-1
 66
  1
 70
  0
 62
  0
 10
3.005145
 20
7.461145
 30
0.000000
  0
VERTEX
  8
LAYER-1
 10
3.005145
 20
7.461145
 30
0.000000
  0
VERTEX
  8
LAYER-1
 10
2.985640
 20
7.471137
 30
0.000000
  0
VERTEX
  8
LAYER-1
 10
2.967567
 20
7.464411
 30
0.000000
  0
VERTEX
  8
LAYER-1
 10
2.968237
 20
7.461144
 30
0.000000
  0
SEQEND
  8
LAYER-1
  0
POLYLINE
  8
LAYER-1
 66
  1
 70
  0
 62
  0
 10
2.192186
 20
7.461615
 30
0.000000
  0
VERTEX
  8
LAYER-1
 10
2.192186
 20
7.461615
 30
0.000000
  0
VERTEX
  8
LAYER-1
 10
2.172682
 20
7.471607
 30
0.000000
  0
VERTEX
  8
LAYER-1
 10
2.154608
 20
7.464881
 30
0.000000
  0
VERTEX
  8
LAYER-1
 10
2.155279
 20
7.461615
 30
0.000000
  0
SEQEND
  8
LAYER-1
  0
POLYLINE
  8
LAYER-1
 66
  1
 70
  0
 62
  0
 10
3.052854
 20
7.461146
 30
0.000000
  0
VERTEX
  8
LAYER-1
 10
3.052854
 20
7.461146
 30
0.000000
  0
VERTEX
  8
LAYER-1
 10
3.033350
 20
7.471138
 30
0.000000
  0
VERTEX
  8
LAYER-1
 10
3.015276
 20
7.464411
 30
0.000000
  0
VERTEX
  8
LAYER-1
 10
3.015946
 20
7.461145
 30
0.000000
  0
SEQEND
  8
LAYER-1
  0
POLYLINE
  8
LAYER-1
 66
  1
 70
  0
 62
  0
 10
3.030911
 20
7.461705
 30
0.000000
  0
VERTEX
  8
LAYER-1
 10
3.030911
 20
7.461705
 30
0.000000
  0
VERTEX
  8
LAYER-1
 10
3.020160
 20
7.474709
 30
0.000000
  0
VERTEX
  8
LAYER-1
 10
3.006144
 20
7.476303
 30
0.000000
  0
VERTEX
  8
LAYER-1
 10
2.995108
 20
7.467520
 30
0.000000
  0
VERTEX
  8
LAYER-1
 10
2.995483
 20
7.461705
 30
0.000000
  0
SEQEND
  8
LAYER-1
  0
POLYLINE
  8
LAYER-1
 66
  1
 70
  0
 62
  0
 10
3.030911
 20
7.461705
 30
0.000000
  0
VERTEX
  8
LAYER-1
 10
3.030911
 20
7.461705
 30
0.000000
  0
VERTEX
  8
LAYER-1
 10
2.995482
 20
7.461705
 30
0.000000
  0
SEQEND
  8
LAYER-1
  0
POLYLINE
  8
LAYER-1
 66
  1
 70
  0
 62
  0
 10
2.240836
 20
7.461616
 30
0.000000
  0
VERTEX
  8
LAYER-1
 10
2.240836
 20
7.461616
 30
0.000000
  0
VERTEX
  8
LAYER-1
 10
2.221332
 20
7.471608
 30
0.000000
  0
VERTEX
  8
LAYER-1
 10
2.203259
 20
7.464882
 30
0.000000
  0
VERTEX
  8
LAYER-1
 10
2.203929
 20
7.461615
 30
0.000000
  0
SEQEND
  8
LAYER-1
  0
POLYLINE
  8
LAYER-1
 66
  1
 70
  0
 62
  0
 10
2.214664
 20
7.461705
 30
0.000000
  0
VERTEX
  8
LAYER-1
 10
2.214664
 20
7.461705
 30
0.000000
  0
VERTEX
  8
LAYER-1
 10
2.203912
 20
7.474709
 30
0.000000
  0
VERTEX
  8
LAYER-1
 10
2.189897
 20
7.476303
 30
0.000000
  0
VERTEX
  8
LAYER-1
 10
2.178860
 20
7.467520
 30
0.000000
  0
VERTEX
  8
LAYER-1
 10
2.179235
 20
7.461705
 30
0.000000
  0
SEQEND
  8
LAYER-1
  0
POLYLINE
  8
LAYER-1
 66
  1
 70
  0
 62
  0
 10
2.214664
 20
7.461705
 30
0.000000
  0
VERTEX
  8
LAYER-1
 10
2.214664
 20
7.461705
 30
0.000000
  0
VERTEX
  8
LAYER-1
 10
2.179236
 20
7.461705
 30
0.000000
  0
SEQEND
  8
LAYER-1
  0
POLYLINE
  8
LAYER-1
 66
  1
 70
  0
 62
  0
 10
3.421976
 20
7.189423
 30
0.000000
  0
VERTEX
  8
LAYER-1
 10
3.421976
 20
7.189423
 30
0.000000
  0
VERTEX
  8
LAYER-1
 10
3.432212
 20
7.182828
 30
0.000000
  0
VERTEX
  8
LAYER-1
 10
3.446897
 20
7.185403
 30
0.000000
  0
VERTEX
  8
LAYER-1
 10
3.455196
 20
7.189983
 30
0.000000
  0
SEQEND
  8
LAYER-1
  0
POLYLINE
  8
LAYER-1
 66
  1
 70
  0
 62
  0
 10
3.421977
 20
7.189423
 30
0.000000
  0
VERTEX
  8
LAYER-1
 10
3.421977
 20
7.189423
 30
0.000000
  0
VERTEX
  8
LAYER-1
 10
3.455196
 20
7.189983
 30
0.000000
  0
SEQEND
  8
LAYER-1
  0
POLYLINE
  8
LAYER-1
 66
  1
 70
  0
 62
  0
 10
3.382864
 20
7.189984
 30
0.000000
  0
VERTEX
  8
LAYER-1
 10
3.382864
 20
7.189984
 30
0.000000
  0
VERTEX
  8
LAYER-1
 10
3.396035
 20
7.182937
 30
0.000000
  0
VERTEX
  8
LAYER-1
 10
3.413115
 20
7.187268
 30
0.000000
  0
VERTEX
  8
LAYER-1
 10
3.419768
 20
7.189983
 30
0.000000
  0
SEQEND
  8
LAYER-1
  0
POLYLINE
  8
LAYER-1
 66
  1
 70
  0
 62
  0
 10
3.382864
 20
7.189984
 30
0.000000
  0
VERTEX
  8
LAYER-1
 10
3.382864
 20
7.189984
 30
0.000000
  0
VERTEX
  8
LAYER-1
 10
3.419767
 20
7.189983
 30
0.000000
  0
SEQEND
  8
LAYER-1
  0
POLYLINE
  8
LAYER-1
 66
  1
 70
  0
 62
  0
 10
3.016020
 20
7.189537
 30
0.000000
  0
VERTEX
  8
LAYER-1
 10
3.016020
 20
7.189537
 30
0.000000
  0
VERTEX
  8
LAYER-1
 10
3.031587
 20
7.183482
 30
0.000000
  0
VERTEX
  8
LAYER-1
 10
3.049661
 20
7.190208
 30
0.000000
  0
VERTEX
  8
LAYER-1
 10
3.052928
 20
7.189536
 30
0.000000
  0
SEQEND
  8
LAYER-1
  0
POLYLINE
  8
LAYER-1
 66
  1
 70
  0
 62
  0
 10
2.968779
 20
7.189537
 30
0.000000
  0
VERTEX
  8
LAYER-1
 10
2.968779
 20
7.189537
 30
0.000000
  0
VERTEX
  8
LAYER-1
 10
2.984347
 20
7.183482
 30
0.000000
  0
VERTEX
  8
LAYER-1
 10
3.002420
 20
7.190208
 30
0.000000
  0
VERTEX
  8
LAYER-1
 10
3.005687
 20
7.189536
 30
0.000000
  0
SEQEND
  8
LAYER-1
  0
POLYLINE
  8
LAYER-1
 66
  1
 70
  0
 62
  0
 10
2.996025
 20
7.189447
 30
0.000000
  0
VERTEX
  8
LAYER-1
 10
2.996025
 20
7.189447
 30
0.000000
  0
VERTEX
  8
LAYER-1
 10
3.002840
 20
7.180379
 30
0.000000
  0
VERTEX
  8
LAYER-1
 10
3.016855
 20
7.178786
 30
0.000000
  0
VERTEX
  8
LAYER-1
 10
3.027892
 20
7.187569
 30
0.000000
  0
VERTEX
  8
LAYER-1
 10
3.031454
 20
7.189447
 30
0.000000
  0
SEQEND
  8
LAYER-1
  0
POLYLINE
  8
LAYER-1
 66
  1
 70
  0
 62
  0
 10
3.031454
 20
7.189447
 30
0.000000
  0
VERTEX
  8
LAYER-1
 10
3.031454
 20
7.189447
 30
0.000000
  0
VERTEX
  8
LAYER-1
 10
2.996025
 20
7.189447
 30
0.000000
  0
SEQEND
  8
LAYER-1
  0
POLYLINE
  8
LAYER-1
 66
  1
 70
  0
 62
  0
 10
2.203466
 20
7.189537
 30
0.000000
  0
VERTEX
  8
LAYER-1
 10
2.203466
 20
7.189537
 30
0.000000
  0
VERTEX
  8
LAYER-1
 10
2.219032
 20
7.183482
 30
0.000000
  0
VERTEX
  8
LAYER-1
 10
2.237106
 20
7.190208
 30
0.000000
  0
VERTEX
  8
LAYER-1
 10
2.240373
 20
7.189536
 30
0.000000
  0
SEQEND
  8
LAYER-1
  0
POLYLINE
  8
LAYER-1
 66
  1
 70
  0
 62
  0
 10
2.155286
 20
7.189537
 30
0.000000
  0
VERTEX
  8
LAYER-1
 10
2.155286
 20
7.189537
 30
0.000000
  0
VERTEX
  8
LAYER-1
 10
2.170853
 20
7.183482
 30
0.000000
  0
VERTEX
  8
LAYER-1
 10
2.188926
 20
7.190208
 30
0.000000
  0
VERTEX
  8
LAYER-1
 10
2.192193
 20
7.189536
 30
0.000000
  0
SEQEND
  8
LAYER-1
  0
POLYLINE
  8
LAYER-1
 66
  1
 70
  0
 62
  0
 10
2.179241
 20
7.189447
 30
0.000000
  0
VERTEX
  8
LAYER-1
 10
2.179241
 20
7.189447
 30
0.000000
  0
VERTEX
  8
LAYER-1
 10
2.186056
 20
7.180379
 30
0.000000
  0
VERTEX
  8
LAYER-1
 10
2.200072
 20
7.178786
 30
0.000000
  0
VERTEX
  8
LAYER-1
 10
2.211108
 20
7.187569
 30
0.000000
  0
VERTEX
  8
LAYER-1
 10
2.214670
 20
7.189447
 30
0.000000
  0
SEQEND
  8
LAYER-1
  0
POLYLINE
  8
LAYER-1
 66
  1
 70
  0
 62
  0
 10
2.214670
 20
7.189447
 30
0.000000
  0
VERTEX
  8
LAYER-1
 10
2.214670
 20
7.189447
 30
0.000000
  0
VERTEX
  8
LAYER-1
 10
2.179242
 20
7.189447
 30
0.000000
  0
SEQEND
  8
LAYER-1
  0
POLYLINE
  8
LAYER-1
 66
  1
 70
  1
 62
  0
  0
VERTEX
  8
LAYER-1
 10
2.995481
 20
7.461638
 30
0.000000
  0
VERTEX
  8
LAYER-1
 10
3.030911
 20
7.461638
 30
0.000000
  0
VERTEX
  8
LAYER-1
 10
3.030911
 20
7.190009
 30
0.000000
  0
VERTEX
  8
LAYER-1
 10
2.995481
 20
7.190009
 30
0.000000
  0
SEQEND
  8
LAYER-1
  0
POLYLINE
  8
LAYER-1
 66
  1
 70
  1
 62
  0
  0
VERTEX
  8
LAYER-1
 10
2.179167
 20
7.461638
 30
0.000000
  0
VERTEX
  8
LAYER-1
 10
2.214598
 20
7.461638
 30
0.000000
  0
VERTEX
  8
LAYER-1
 10
2.214598
 20
7.190009
 30
0.000000
  0
VERTEX
  8
LAYER-1
 10
2.179167
 20
7.190009
 30
0.000000
  0
SEQEND
  8
LAYER-1
  0
POLYLINE
  8
LAYER-1
 66
  1
 70
  0
 62
  0
 10
3.030911
 20
7.393731
 30
0.000000
  0
VERTEX
  8
LAYER-1
 10
3.030911
 20
7.393731
 30
0.000000
  0
VERTEX
  8
LAYER-1
 10
2.995481
 20
7.393731
 30
0.000000
  0
SEQEND
  8
LAYER-1
  0
POLYLINE
  8
LAYER-1
 66
  1
 70
  0
 62
  0
 10
3.030911
 20
7.263822
 30
0.000000
  0
VERTEX
  8
LAYER-1
 10
3.030911
 20
7.263822
 30
0.000000
  0
VERTEX
  8
LAYER-1
 10
2.995481
 20
7.263822
 30
0.000000
  0
SEQEND
  8
LAYER-1
  0
POLYLINE
  8
LAYER-1
 66
  1
 70
  0
 62
  0
 10
2.214598
 20
7.393731
 30
0.000000
  0
VERTEX
  8
LAYER-1
 10
2.214598
 20
7.393731
 30
0.000000
  0
VERTEX
  8
LAYER-1
 10
2.179169
 20
7.393731
 30
0.000000
  0
SEQEND
  8
LAYER-1
  0
POLYLINE
  8
LAYER-1
 66
  1
 70
  0
 62
  0
 10
2.214598
 20
7.263821
 30
0.000000
  0
VERTEX
  8
LAYER-1
 10
2.214598
 20
7.263821
 30
0.000000
  0
VERTEX
  8
LAYER-1
 10
2.179169
 20
7.263821
 30
0.000000
  0
SEQEND
  8
LAYER-1
  0
POLYLINE
  8
LAYER-1
 66
  1
 70
  0
 62
  0
 10
3.233243
 20
7.461195
 30
0.000000
  0
VERTEX
  8
LAYER-1
 10
3.233243
 20
7.461195
 30
0.000000
  0
VERTEX
  8
LAYER-1
 10
3.219366
 20
7.472132
 30
0.000000
  0
VERTEX
  8
LAYER-1
 10
3.204603
 20
7.470054
 30
0.000000
  0
VERTEX
  8
LAYER-1
 10
3.200024
 20
7.461755
 30
0.000000
  0
SEQEND
  8
LAYER-1
  0
POLYLINE
  8
LAYER-1
 66
  1
 70
  0
 62
  0
 10
2.419749
 20
7.461577
 30
0.000000
  0
VERTEX
  8
LAYER-1
 10
2.419749
 20
7.461577
 30
0.000000
  0
VERTEX
  8
LAYER-1
 10
2.402640
 20
7.472560
 30
0.000000
  0
VERTEX
  8
LAYER-1
 10
2.385561
 20
7.468229
 30
0.000000
  0
VERTEX
  8
LAYER-1
 10
2.382845
 20
7.461577
 30
0.000000
  0
SEQEND
  8
LAYER-1
  0
POLYLINE
  8
LAYER-1
 66
  1
 70
  0
 62
  0
 10
2.606945
 20
7.189420
 30
0.000000
  0
VERTEX
  8
LAYER-1
 10
2.606945
 20
7.189420
 30
0.000000
  0
VERTEX
  8
LAYER-1
 10
2.617181
 20
7.182826
 30
0.000000
  0
VERTEX
  8
LAYER-1
 10
2.631865
 20
7.185401
 30
0.000000
  0
VERTEX
  8
LAYER-1
 10
2.640164
 20
7.189980
 30
0.000000
  0
SEQEND
  8
LAYER-1
  0
POLYLINE
  8
LAYER-1
 66
  1
 70
  0
 62
  0
 10
2.606945
 20
7.189420
 30
0.000000
  0
VERTEX
  8
LAYER-1
 10
2.606945
 20
7.189420
 30
0.000000
  0
VERTEX
  8
LAYER-1
 10
2.640164
 20
7.189980
 30
0.000000
  0
SEQEND
  8
LAYER-1
  0
POLYLINE
  8
LAYER-1
 66
  1
 70
  0
 62
  0
 10
2.567832
 20
7.189981
 30
0.000000
  0
VERTEX
  8
LAYER-1
 10
2.567832
 20
7.189981
 30
0.000000
  0
VERTEX
  8
LAYER-1
 10
2.581003
 20
7.182934
 30
0.000000
  0
VERTEX
  8
LAYER-1
 10
2.598084
 20
7.187265
 30
0.000000
  0
VERTEX
  8
LAYER-1
 10
2.604736
 20
7.189980
 30
0.000000
  0
SEQEND
  8
LAYER-1
  0
POLYLINE
  8
LAYER-1
 66
  1
 70
  0
 62
  0
 10
2.567833
 20
7.189981
 30
0.000000
  0
VERTEX
  8
LAYER-1
 10
2.567833
 20
7.189981
 30
0.000000
  0
VERTEX
  8
LAYER-1
 10
2.604736
 20
7.189980
 30
0.000000
  0
SEQEND
  8
LAYER-1
  0
POLYLINE
  8
LAYER-1
 66
  1
 70
  0
 62
  0
 10
2.569004
 20
7.461638
 30
0.000000
  0
VERTEX
  8
LAYER-1
 10
2.569004
 20
7.461638
 30
0.000000
  0
VERTEX
  8
LAYER-1
 10
2.569004
 20
7.190006
 30
0.000000
  0
SEQEND
  8
LAYER-1
  0
POLYLINE
  8
LAYER-1
 66
  1
 70
  0
 62
  0
 10
2.641338
 20
7.190010
 30
0.000000
  0
VERTEX
  8
LAYER-1
 10
2.641338
 20
7.190010
 30
0.000000
  0
VERTEX
  8
LAYER-1
 10
2.641338
 20
7.461639
 30
0.000000
  0
SEQEND
  8
LAYER-1
  0
POLYLINE
  8
LAYER-1
 66
  1
 70
  0
 62
  0
 10
2.605908
 20
7.461639
 30
0.000000
  0
VERTEX
  8
LAYER-1
 10
2.605908
 20
7.461639
 30
0.000000
  0
VERTEX
  8
LAYER-1
 10
2.605908
 20
7.190008
 30
0.000000
  0
SEQEND
  8
LAYER-1
  0
POLYLINE
  8
LAYER-1
 66
  1
 70
  0
 62
  0
 10
2.641033
 20
7.461497
 30
0.000000
  0
VERTEX
  8
LAYER-1
 10
2.641033
 20
7.461497
 30
0.000000
  0
VERTEX
  8
LAYER-1
 10
2.627156
 20
7.472435
 30
0.000000
  0
VERTEX
  8
LAYER-1
 10
2.612393
 20
7.470357
 30
0.000000
  0
VERTEX
  8
LAYER-1
 10
2.607813
 20
7.462057
 30
0.000000
  0
SEQEND
  8
LAYER-1
  0
POLYLINE
  8
LAYER-1
 66
  1
 70
  0
 62
  0
 10
2.607814
 20
7.462057
 30
0.000000
  0
VERTEX
  8
LAYER-1
 10
2.607814
 20
7.462057
 30
0.000000
  0
VERTEX
  8
LAYER-1
 10
2.641033
 20
7.461497
 30
0.000000
  0
SEQEND
  8
LAYER-1
  0
POLYLINE
  8
LAYER-1
 66
  1
 70
  0
 62
  0
 10
2.605605
 20
7.461497
 30
0.000000
  0
VERTEX
  8
LAYER-1
 10
2.605605
 20
7.461497
 30
0.000000
  0
VERTEX
  8
LAYER-1
 10
2.588496
 20
7.472480
 30
0.000000
  0
VERTEX
  8
LAYER-1
 10
2.571416
 20
7.468149
 30
0.000000
  0
VERTEX
  8
LAYER-1
 10
2.568701
 20
7.461496
 30
0.000000
  0
SEQEND
  8
LAYER-1
  0
POLYLINE
  8
LAYER-1
 66
  1
 70
  0
 62
  0
 10
2.568701
 20
7.461496
 30
0.000000
  0
VERTEX
  8
LAYER-1
 10
2.568701
 20
7.461496
 30
0.000000
  0
VERTEX
  8
LAYER-1
 10
2.605604
 20
7.461497
 30
0.000000
  0
SEQEND
  8
LAYER-1
  0
POLYLINE
  8
LAYER-1
 66
  1
 70
  0
 62
  0
 10
1.786945
 20
7.189420
 30
0.000000
  0
VERTEX
  8
LAYER-1
 10
1.786945
 20
7.189420
 30
0.000000
  0
VERTEX
  8
LAYER-1
 10
1.797181
 20
7.182826
 30
0.000000
  0
VERTEX
  8
LAYER-1
 10
1.811865
 20
7.185401
 30
0.000000
  0
VERTEX
  8
LAYER-1
 10
1.820165
 20
7.189980
 30
0.000000
  0
SEQEND
  8
LAYER-1
  0
POLYLINE
  8
LAYER-1
 66
  1
 70
  0
 62
  0
 10
1.786945
 20
7.189420
 30
0.000000
  0
VERTEX
  8
LAYER-1
 10
1.786945
 20
7.189420
 30
0.000000
  0
VERTEX
  8
LAYER-1
 10
1.820164
 20
7.189980
 30
0.000000
  0
SEQEND
  8
LAYER-1
  0
POLYLINE
  8
LAYER-1
 66
  1
 70
  0
 62
  0
 10
1.747832
 20
7.189981
 30
0.000000
  0
VERTEX
  8
LAYER-1
 10
1.747832
 20
7.189981
 30
0.000000
  0
VERTEX
  8
LAYER-1
 10
1.761003
 20
7.182934
 30
0.000000
  0
VERTEX
  8
LAYER-1
 10
1.778084
 20
7.187265
 30
0.000000
  0
VERTEX
  8
LAYER-1
 10
1.784736
 20
7.189980
 30
0.000000
  0
SEQEND
  8
LAYER-1
  0
POLYLINE
  8
LAYER-1
 66
  1
 70
  0
 62
  0
 10
1.747833
 20
7.189981
 30
0.000000
  0
VERTEX
  8
LAYER-1
 10
1.747833
 20
7.189981
 30
0.000000
  0
VERTEX
  8
LAYER-1
 10
1.784735
 20
7.189980
 30
0.000000
  0
SEQEND
  8
LAYER-1
  0
POLYLINE
  8
LAYER-1
 66
  1
 70
  0
 62
  0
 10
1.749004
 20
7.461638
 30
0.000000
  0
VERTEX
  8
LAYER-1
 10
1.749004
 20
7.461638
 30
0.000000
  0
VERTEX
  8
LAYER-1
 10
1.749004
 20
7.190006
 30
0.000000
  0
SEQEND
  8
LAYER-1
  0
POLYLINE
  8
LAYER-1
 66
  1
 70
  0
 62
  0
 10
1.821337
 20
7.190010
 30
0.000000
  0
VERTEX
  8
LAYER-1
 10
1.821337
 20
7.190010
 30
0.000000
  0
VERTEX
  8
LAYER-1
 10
1.821337
 20
7.461639
 30
0.000000
  0
SEQEND
  8
LAYER-1
  0
POLYLINE
  8
LAYER-1
 66
  1
 70
  0
 62
  0
 10
1.785908
 20
7.461639
 30
0.000000
  0
VERTEX
  8
LAYER-1
 10
1.785908
 20
7.461639
 30
0.000000
  0
VERTEX
  8
LAYER-1
 10
1.785908
 20
7.190008
 30
0.000000
  0
SEQEND
  8
LAYER-1
  0
POLYLINE
  8
LAYER-1
 66
  1
 70
  0
 62
  0
 10
1.821033
 20
7.461497
 30
0.000000
  0
VERTEX
  8
LAYER-1
 10
1.821033
 20
7.461497
 30
0.000000
  0
VERTEX
  8
LAYER-1
 10
1.807156
 20
7.472435
 30
0.000000
  0
VERTEX
  8
LAYER-1
 10
1.792393
 20
7.470357
 30
0.000000
  0
VERTEX
  8
LAYER-1
 10
1.787813
 20
7.462057
 30
0.000000
  0
SEQEND
  8
LAYER-1
  0
POLYLINE
  8
LAYER-1
 66
  1
 70
  0
 62
  0
 10
1.787814
 20
7.462057
 30
0.000000
  0
VERTEX
  8
LAYER-1
 10
1.787814
 20
7.462057
 30
0.000000
  0
VERTEX
  8
LAYER-1
 10
1.821033
 20
7.461497
 30
0.000000
  0
SEQEND
  8
LAYER-1
  0
POLYLINE
  8
LAYER-1
 66
  1
 70
  0
 62
  0
 10
1.785605
 20
7.461497
 30
0.000000
  0
VERTEX
  8
LAYER-1
 10
1.785605
 20
7.461497
 30
0.000000
  0
VERTEX
  8
LAYER-1
 10
1.768496
 20
7.472480
 30
0.000000
  0
VERTEX
  8
LAYER-1
 10
1.751416
 20
7.468149
 30
0.000000
  0
VERTEX
  8
LAYER-1
 10
1.748701
 20
7.461496
 30
0.000000
  0
SEQEND
  8
LAYER-1
  0
POLYLINE
  8
LAYER-1
 66
  1
 70
  0
 62
  0
 10
1.748701
 20
7.461496
 30
0.000000
  0
VERTEX
  8
LAYER-1
 10
1.748701
 20
7.461496
 30
0.000000
  0
VERTEX
  8
LAYER-1
 10
1.785604
 20
7.461497
 30
0.000000
  0
SEQEND
  8
LAYER-1
  0
POLYLINE
  8
LAYER-1
 66
  1
 70
  0
 62
  0
 10
3.645304
 20
7.393731
 30
0.000000
  0
VERTEX
  8
LAYER-1
 10
3.645304
 20
7.393731
 30
0.000000
  0
VERTEX
  8
LAYER-1
 10
3.605578
 20
7.393731
 30
0.000000
  0
SEQEND
  8
LAYER-1
  0
POLYLINE
  8
LAYER-1
 66
  1
 70
  0
 62
  0
 10
3.645304
 20
7.263821
 30
0.000000
  0
VERTEX
  8
LAYER-1
 10
3.645304
 20
7.263821
 30
0.000000
  0
VERTEX
  8
LAYER-1
 10
3.605578
 20
7.263821
 30
0.000000
  0
SEQEND
  8
LAYER-1
  0
POLYLINE
  8
LAYER-1
 66
  1
 70
  0
 62
  0
 10
3.643852
 20
7.466785
 30
0.000000
  0
VERTEX
  8
LAYER-1
 10
3.643852
 20
7.466785
 30
0.000000
  0
VERTEX
  8
LAYER-1
 10
3.626743
 20
7.477768
 30
0.000000
  0
VERTEX
  8
LAYER-1
 10
3.609664
 20
7.473436
 30
0.000000
  0
VERTEX
  8
LAYER-1
 10
3.606948
 20
7.466783
 30
0.000000
  0
SEQEND
  8
LAYER-1
  0
POLYLINE
  8
LAYER-1
 66
  1
 70
  1
 62
  0
  0
VERTEX
  8
LAYER-1
 10
3.596439
 20
7.467406
 30
0.000000
  0
VERTEX
  8
LAYER-1
 10
3.651055
 20
7.467406
 30
0.000000
  0
VERTEX
  8
LAYER-1
 10
3.651055
 20
7.461501
 30
0.000000
  0
VERTEX
  8
LAYER-1
 10
3.596439
 20
7.461501
 30
0.000000
  0
SEQEND
  8
LAYER-1
  0
POLYLINE
  8
LAYER-1
 66
  1
 70
  0
 62
  0
 10
3.605144
 20
7.461636
 30
0.000000
  0
VERTEX
  8
LAYER-1
 10
3.605144
 20
7.461636
 30
0.000000
  0
VERTEX
  8
LAYER-1
 10
3.605144
 20
7.189888
 30
0.000000
  0
SEQEND
  8
LAYER-1
  0
POLYLINE
  8
LAYER-1
 66
  1
 70
  0
 62
  0
 10
3.605154
 20
0.613503
 30
0.000000
  0
VERTEX
  8
LAYER-1
 10
3.605154
 20
0.613503
 30
0.000000
  0
VERTEX
  8
LAYER-1
 10
3.605154
 20
0.341802
 30
0.000000
  0
SEQEND
  8
LAYER-1
  0
POLYLINE
  8
LAYER-1
 66
  1
 70
  0
 62
  0
 10
3.384235
 20
0.341364
 30
0.000000
  0
VERTEX
  8
LAYER-1
 10
3.384235
 20
0.341364
 30
0.000000
  0
VERTEX
  8
LAYER-1
 10
3.384235
 20
0.612996
 30
0.000000
  0
SEQEND
  8
LAYER-1
  0
POLYLINE
  8
LAYER-1
 66
  1
 70
  0
 62
  0
 10
3.053737
 20
0.612996
 30
0.000000
  0
VERTEX
  8
LAYER-1
 10
3.053737
 20
0.612996
 30
0.000000
  0
VERTEX
  8
LAYER-1
 10
3.053737
 20
0.341364
 30
0.000000
  0
SEQEND
  8
LAYER-1
  0
POLYLINE
  8
LAYER-1
 66
  1
 70
  0
 62
  0
 10
2.240906
 20
0.612996
 30
0.000000
  0
VERTEX
  8
LAYER-1
 10
2.240906
 20
0.612996
 30
0.000000
  0
VERTEX
  8
LAYER-1
 10
2.240906
 20
0.341364
 30
0.000000
  0
SEQEND
  8
LAYER-1
  0
POLYLINE
  8
LAYER-1
 66
  1
 70
  0
 62
  0
 10
2.422073
 20
0.341325
 30
0.000000
  0
VERTEX
  8
LAYER-1
 10
2.422073
 20
0.341325
 30
0.000000
  0
VERTEX
  8
LAYER-1
 10
2.422073
 20
0.612953
 30
0.000000
  0
SEQEND
  8
LAYER-1
  0
POLYLINE
  8
LAYER-1
 66
  1
 70
  0
 62
  0
 10
2.382214
 20
0.341325
 30
0.000000
  0
VERTEX
  8
LAYER-1
 10
2.382214
 20
0.341325
 30
0.000000
  0
VERTEX
  8
LAYER-1
 10
2.382214
 20
0.612953
 30
0.000000
  0
SEQEND
  8
LAYER-1
  0
POLYLINE
  8
LAYER-1
 66
  1
 70
  0
 62
  0
 10
3.236091
 20
0.341325
 30
0.000000
  0
VERTEX
  8
LAYER-1
 10
3.236091
 20
0.341325
 30
0.000000
  0
VERTEX
  8
LAYER-1
 10
3.236091
 20
0.612953
 30
0.000000
  0
SEQEND
  8
LAYER-1
  0
POLYLINE
  8
LAYER-1
 66
  1
 70
  0
 62
  0
 10
3.197275
 20
0.341325
 30
0.000000
  0
VERTEX
  8
LAYER-1
 10
3.197275
 20
0.341325
 30
0.000000
  0
VERTEX
  8
LAYER-1
 10
3.197275
 20
0.612953
 30
0.000000
  0
SEQEND
  8
LAYER-1
  0
POLYLINE
  8
LAYER-1
 66
  1
 70
  0
 62
  0
 10
2.969415
 20
0.341364
 30
0.000000
  0
VERTEX
  8
LAYER-1
 10
2.969415
 20
0.341364
 30
0.000000
  0
VERTEX
  8
LAYER-1
 10
2.969415
 20
0.612996
 30
0.000000
  0
SEQEND
  8
LAYER-1
  0
POLYLINE
  8
LAYER-1
 66
  1
 70
  0
 62
  0
 10
2.156584
 20
0.341364
 30
0.000000
  0
VERTEX
  8
LAYER-1
 10
2.156584
 20
0.341364
 30
0.000000
  0
VERTEX
  8
LAYER-1
 10
2.156584
 20
0.612996
 30
0.000000
  0
SEQEND
  8
LAYER-1
  0
POLYLINE
  8
LAYER-1
 66
  1
 70
  0
 62
  0
 10
2.011679
 20
0.341758
 30
0.000000
  0
VERTEX
  8
LAYER-1
 10
2.011679
 20
0.341758
 30
0.000000
  0
VERTEX
  8
LAYER-1
 10
2.011679
 20
0.613386
 30
0.000000
  0
SEQEND
  8
LAYER-1
  0
POLYLINE
  8
LAYER-1
 66
  1
 70
  0
 62
  0
 10
1.973297
 20
0.341758
 30
0.000000
  0
VERTEX
  8
LAYER-1
 10
1.973297
 20
0.341758
 30
0.000000
  0
VERTEX
  8
LAYER-1
 10
1.973297
 20
0.613386
 30
0.000000
  0
SEQEND
  8
LAYER-1
  0
POLYLINE
  8
LAYER-1
 66
  1
 70
  0
 62
  0
 10
2.829518
 20
0.341289
 30
0.000000
  0
VERTEX
  8
LAYER-1
 10
2.829518
 20
0.341289
 30
0.000000
  0
VERTEX
  8
LAYER-1
 10
2.829518
 20
0.612917
 30
0.000000
  0
SEQEND
  8
LAYER-1
  0
POLYLINE
  8
LAYER-1
 66
  1
 70
  0
 62
  0
 10
2.791135
 20
0.341289
 30
0.000000
  0
VERTEX
  8
LAYER-1
 10
2.791135
 20
0.341289
 30
0.000000
  0
VERTEX
  8
LAYER-1
 10
2.791135
 20
0.612917
 30
0.000000
  0
SEQEND
  8
LAYER-1
  0
POLYLINE
  8
LAYER-1
 66
  1
 70
  0
 62
  0
 10
3.456568
 20
0.612991
 30
0.000000
  0
VERTEX
  8
LAYER-1
 10
3.456568
 20
0.612991
 30
0.000000
  0
VERTEX
  8
LAYER-1
 10
3.456568
 20
0.341363
 30
0.000000
  0
SEQEND
  8
LAYER-1
  0
POLYLINE
  8
LAYER-1
 66
  1
 70
  0
 62
  0
 10
3.421138
 20
0.341363
 30
0.000000
  0
VERTEX
  8
LAYER-1
 10
3.421138
 20
0.341363
 30
0.000000
  0
VERTEX
  8
LAYER-1
 10
3.421138
 20
0.612994
 30
0.000000
  0
SEQEND
  8
LAYER-1
  0
POLYLINE
  8
LAYER-1
 66
  1
 70
  0
 62
  0
 10
3.422109
 20
0.341352
 30
0.000000
  0
VERTEX
  8
LAYER-1
 10
3.422109
 20
0.341352
 30
0.000000
  0
VERTEX
  8
LAYER-1
 10
3.432056
 20
0.334359
 30
0.000000
  0
VERTEX
  8
LAYER-1
 10
3.446817
 20
0.336448
 30
0.000000
  0
VERTEX
  8
LAYER-1
 10
3.455665
 20
0.341363
 30
0.000000
  0
SEQEND
  8
LAYER-1
  0
POLYLINE
  8
LAYER-1
 66
  1
 70
  0
 62
  0
 10
3.384236
 20
0.341364
 30
0.000000
  0
VERTEX
  8
LAYER-1
 10
3.384236
 20
0.341364
 30
0.000000
  0
VERTEX
  8
LAYER-1
 10
3.397406
 20
0.334317
 30
0.000000
  0
VERTEX
  8
LAYER-1
 10
3.414487
 20
0.338648
 30
0.000000
  0
VERTEX
  8
LAYER-1
 10
3.421138
 20
0.341363
 30
0.000000
  0
SEQEND
  8
LAYER-1
  0
POLYLINE
  8
LAYER-1
 66
  1
 70
  0
 62
  0
 10
2.968676
 20
0.341857
 30
0.000000
  0
VERTEX
  8
LAYER-1
 10
2.968676
 20
0.341857
 30
0.000000
  0
VERTEX
  8
LAYER-1
 10
2.984243
 20
0.335802
 30
0.000000
  0
VERTEX
  8
LAYER-1
 10
3.002316
 20
0.342527
 30
0.000000
  0
VERTEX
  8
LAYER-1
 10
3.005583
 20
0.341857
 30
0.000000
  0
SEQEND
  8
LAYER-1
  0
POLYLINE
  8
LAYER-1
 66
  1
 70
  0
 62
  0
 10
2.155717
 20
0.341387
 30
0.000000
  0
VERTEX
  8
LAYER-1
 10
2.155717
 20
0.341387
 30
0.000000
  0
VERTEX
  8
LAYER-1
 10
2.171285
 20
0.335331
 30
0.000000
  0
VERTEX
  8
LAYER-1
 10
2.189358
 20
0.342057
 30
0.000000
  0
VERTEX
  8
LAYER-1
 10
2.192625
 20
0.341387
 30
0.000000
  0
SEQEND
  8
LAYER-1
  0
POLYLINE
  8
LAYER-1
 66
  1
 70
  0
 62
  0
 10
3.016385
 20
0.341857
 30
0.000000
  0
VERTEX
  8
LAYER-1
 10
3.016385
 20
0.341857
 30
0.000000
  0
VERTEX
  8
LAYER-1
 10
3.031952
 20
0.335802
 30
0.000000
  0
VERTEX
  8
LAYER-1
 10
3.050026
 20
0.342527
 30
0.000000
  0
VERTEX
  8
LAYER-1
 10
3.053293
 20
0.341856
 30
0.000000
  0
SEQEND
  8
LAYER-1
  0
POLYLINE
  8
LAYER-1
 66
  1
 70
  0
 62
  0
 10
2.995921
 20
0.341298
 30
0.000000
  0
VERTEX
  8
LAYER-1
 10
2.995921
 20
0.341298
 30
0.000000
  0
VERTEX
  8
LAYER-1
 10
3.002736
 20
0.332229
 30
0.000000
  0
VERTEX
  8
LAYER-1
 10
3.016751
 20
0.330635
 30
0.000000
  0
VERTEX
  8
LAYER-1
 10
3.027788
 20
0.339418
 30
0.000000
  0
VERTEX
  8
LAYER-1
 10
3.031350
 20
0.341298
 30
0.000000
  0
SEQEND
  8
LAYER-1
  0
POLYLINE
  8
LAYER-1
 66
  1
 70
  0
 62
  0
 10
3.031350
 20
0.341298
 30
0.000000
  0
VERTEX
  8
LAYER-1
 10
3.031350
 20
0.341298
 30
0.000000
  0
VERTEX
  8
LAYER-1
 10
2.995921
 20
0.341298
 30
0.000000
  0
SEQEND
  8
LAYER-1
  0
POLYLINE
  8
LAYER-1
 66
  1
 70
  0
 62
  0
 10
2.204368
 20
0.341387
 30
0.000000
  0
VERTEX
  8
LAYER-1
 10
2.204368
 20
0.341387
 30
0.000000
  0
VERTEX
  8
LAYER-1
 10
2.219935
 20
0.335331
 30
0.000000
  0
VERTEX
  8
LAYER-1
 10
2.238008
 20
0.342057
 30
0.000000
  0
VERTEX
  8
LAYER-1
 10
2.241275
 20
0.341386
 30
0.000000
  0
SEQEND
  8
LAYER-1
  0
POLYLINE
  8
LAYER-1
 66
  1
 70
  0
 62
  0
 10
2.179674
 20
0.341298
 30
0.000000
  0
VERTEX
  8
LAYER-1
 10
2.179674
 20
0.341298
 30
0.000000
  0
VERTEX
  8
LAYER-1
 10
2.186489
 20
0.332229
 30
0.000000
  0
VERTEX
  8
LAYER-1
 10
2.200504
 20
0.330635
 30
0.000000
  0
VERTEX
  8
LAYER-1
 10
2.211541
 20
0.339418
 30
0.000000
  0
VERTEX
  8
LAYER-1
 10
2.215103
 20
0.341298
 30
0.000000
  0
SEQEND
  8
LAYER-1
  0
POLYLINE
  8
LAYER-1
 66
  1
 70
  0
 62
  0
 10
2.215103
 20
0.341298
 30
0.000000
  0
VERTEX
  8
LAYER-1
 10
2.215103
 20
0.341298
 30
0.000000
  0
VERTEX
  8
LAYER-1
 10
2.179674
 20
0.341298
 30
0.000000
  0
SEQEND
  8
LAYER-1
  0
POLYLINE
  8
LAYER-1
 66
  1
 70
  0
 62
  0
 10
3.455635
 20
0.613019
 30
0.000000
  0
VERTEX
  8
LAYER-1
 10
3.455635
 20
0.613019
 30
0.000000
  0
VERTEX
  8
LAYER-1
 10
3.441758
 20
0.623956
 30
0.000000
  0
VERTEX
  8
LAYER-1
 10
3.426995
 20
0.621879
 30
0.000000
  0
VERTEX
  8
LAYER-1
 10
3.422415
 20
0.613579
 30
0.000000
  0
SEQEND
  8
LAYER-1
  0
POLYLINE
  8
LAYER-1
 66
  1
 70
  0
 62
  0
 10
3.422415
 20
0.613580
 30
0.000000
  0
VERTEX
  8
LAYER-1
 10
3.422415
 20
0.613580
 30
0.000000
  0
VERTEX
  8
LAYER-1
 10
3.455635
 20
0.613019
 30
0.000000
  0
SEQEND
  8
LAYER-1
  0
POLYLINE
  8
LAYER-1
 66
  1
 70
  0
 62
  0
 10
3.420206
 20
0.613018
 30
0.000000
  0
VERTEX
  8
LAYER-1
 10
3.420206
 20
0.613018
 30
0.000000
  0
VERTEX
  8
LAYER-1
 10
3.403098
 20
0.624002
 30
0.000000
  0
VERTEX
  8
LAYER-1
 10
3.386018
 20
0.619670
 30
0.000000
  0
VERTEX
  8
LAYER-1
 10
3.383302
 20
0.613018
 30
0.000000
  0
SEQEND
  8
LAYER-1
  0
POLYLINE
  8
LAYER-1
 66
  1
 70
  0
 62
  0
 10
3.383303
 20
0.613018
 30
0.000000
  0
VERTEX
  8
LAYER-1
 10
3.383303
 20
0.613018
 30
0.000000
  0
VERTEX
  8
LAYER-1
 10
3.420206
 20
0.613019
 30
0.000000
  0
SEQEND
  8
LAYER-1
  0
POLYLINE
  8
LAYER-1
 66
  1
 70
  0
 62
  0
 10
3.053367
 20
0.613465
 30
0.000000
  0
VERTEX
  8
LAYER-1
 10
3.053367
 20
0.613465
 30
0.000000
  0
VERTEX
  8
LAYER-1
 10
3.033862
 20
0.623457
 30
0.000000
  0
VERTEX
  8
LAYER-1
 10
3.015789
 20
0.616731
 30
0.000000
  0
VERTEX
  8
LAYER-1
 10
3.016459
 20
0.613464
 30
0.000000
  0
SEQEND
  8
LAYER-1
  0
POLYLINE
  8
LAYER-1
 66
  1
 70
  0
 62
  0
 10
3.006126
 20
0.613465
 30
0.000000
  0
VERTEX
  8
LAYER-1
 10
3.006126
 20
0.613465
 30
0.000000
  0
VERTEX
  8
LAYER-1
 10
2.986621
 20
0.623457
 30
0.000000
  0
VERTEX
  8
LAYER-1
 10
2.968548
 20
0.616731
 30
0.000000
  0
VERTEX
  8
LAYER-1
 10
2.969218
 20
0.613464
 30
0.000000
  0
SEQEND
  8
LAYER-1
  0
POLYLINE
  8
LAYER-1
 66
  1
 70
  0
 62
  0
 10
3.031893
 20
0.613554
 30
0.000000
  0
VERTEX
  8
LAYER-1
 10
3.031893
 20
0.613554
 30
0.000000
  0
VERTEX
  8
LAYER-1
 10
3.021141
 20
0.626560
 30
0.000000
  0
VERTEX
  8
LAYER-1
 10
3.007125
 20
0.628153
 30
0.000000
  0
VERTEX
  8
LAYER-1
 10
2.996089
 20
0.619370
 30
0.000000
  0
VERTEX
  8
LAYER-1
 10
2.996464
 20
0.613554
 30
0.000000
  0
SEQEND
  8
LAYER-1
  0
POLYLINE
  8
LAYER-1
 66
  1
 70
  0
 62
  0
 10
3.031892
 20
0.613555
 30
0.000000
  0
VERTEX
  8
LAYER-1
 10
3.031892
 20
0.613555
 30
0.000000
  0
VERTEX
  8
LAYER-1
 10
2.996464
 20
0.613555
 30
0.000000
  0
SEQEND
  8
LAYER-1
  0
POLYLINE
  8
LAYER-1
 66
  1
 70
  0
 62
  0
 10
2.240812
 20
0.613465
 30
0.000000
  0
VERTEX
  8
LAYER-1
 10
2.240812
 20
0.613465
 30
0.000000
  0
VERTEX
  8
LAYER-1
 10
2.221307
 20
0.623457
 30
0.000000
  0
VERTEX
  8
LAYER-1
 10
2.203234
 20
0.616731
 30
0.000000
  0
VERTEX
  8
LAYER-1
 10
2.203904
 20
0.613464
 30
0.000000
  0
SEQEND
  8
LAYER-1
  0
POLYLINE
  8
LAYER-1
 66
  1
 70
  0
 62
  0
 10
2.192632
 20
0.613465
 30
0.000000
  0
VERTEX
  8
LAYER-1
 10
2.192632
 20
0.613465
 30
0.000000
  0
VERTEX
  8
LAYER-1
 10
2.173127
 20
0.623457
 30
0.000000
  0
VERTEX
  8
LAYER-1
 10
2.155054
 20
0.616731
 30
0.000000
  0
VERTEX
  8
LAYER-1
 10
2.155724
 20
0.613464
 30
0.000000
  0
SEQEND
  8
LAYER-1
  0
POLYLINE
  8
LAYER-1
 66
  1
 70
  0
 62
  0
 10
2.215109
 20
0.613554
 30
0.000000
  0
VERTEX
  8
LAYER-1
 10
2.215109
 20
0.613554
 30
0.000000
  0
VERTEX
  8
LAYER-1
 10
2.204357
 20
0.626560
 30
0.000000
  0
VERTEX
  8
LAYER-1
 10
2.190342
 20
0.628153
 30
0.000000
  0
VERTEX
  8
LAYER-1
 10
2.179305
 20
0.619370
 30
0.000000
  0
VERTEX
  8
LAYER-1
 10
2.179680
 20
0.613554
 30
0.000000
  0
SEQEND
  8
LAYER-1
  0
POLYLINE
  8
LAYER-1
 66
  1
 70
  0
 62
  0
 10
2.215109
 20
0.613555
 30
0.000000
  0
VERTEX
  8
LAYER-1
 10
2.215109
 20
0.613555
 30
0.000000
  0
VERTEX
  8
LAYER-1
 10
2.179681
 20
0.613555
 30
0.000000
  0
SEQEND
  8
LAYER-1
  0
POLYLINE
  8
LAYER-1
 66
  1
 70
  1
 62
  0
  0
VERTEX
  8
LAYER-1
 10
3.031350
 20
0.341364
 30
0.000000
  0
VERTEX
  8
LAYER-1
 10
2.995920
 20
0.341364
 30
0.000000
  0
VERTEX
  8
LAYER-1
 10
2.995920
 20
0.612992
 30
0.000000
  0
VERTEX
  8
LAYER-1
 10
3.031350
 20
0.612992
 30
0.000000
  0
SEQEND
  8
LAYER-1
  0
POLYLINE
  8
LAYER-1
 66
  1
 70
  1
 62
  0
  0
VERTEX
  8
LAYER-1
 10
2.215036
 20
0.341364
 30
0.000000
  0
VERTEX
  8
LAYER-1
 10
2.179606
 20
0.341364
 30
0.000000
  0
VERTEX
  8
LAYER-1
 10
2.179606
 20
0.612992
 30
0.000000
  0
VERTEX
  8
LAYER-1
 10
2.215036
 20
0.612992
 30
0.000000
  0
SEQEND
  8
LAYER-1
  0
POLYLINE
  8
LAYER-1
 66
  1
 70
  0
 62
  0
 10
3.031350
 20
0.409270
 30
0.000000
  0
VERTEX
  8
LAYER-1
 10
3.031350
 20
0.409270
 30
0.000000
  0
VERTEX
  8
LAYER-1
 10
2.995920
 20
0.409270
 30
0.000000
  0
SEQEND
  8
LAYER-1
  0
POLYLINE
  8
LAYER-1
 66
  1
 70
  0
 62
  0
 10
3.031350
 20
0.539180
 30
0.000000
  0
VERTEX
  8
LAYER-1
 10
3.031350
 20
0.539180
 30
0.000000
  0
VERTEX
  8
LAYER-1
 10
2.995920
 20
0.539180
 30
0.000000
  0
SEQEND
  8
LAYER-1
  0
POLYLINE
  8
LAYER-1
 66
  1
 70
  0
 62
  0
 10
2.215036
 20
0.409270
 30
0.000000
  0
VERTEX
  8
LAYER-1
 10
2.215036
 20
0.409270
 30
0.000000
  0
VERTEX
  8
LAYER-1
 10
2.179607
 20
0.409270
 30
0.000000
  0
SEQEND
  8
LAYER-1
  0
POLYLINE
  8
LAYER-1
 66
  1
 70
  0
 62
  0
 10
2.215036
 20
0.539180
 30
0.000000
  0
VERTEX
  8
LAYER-1
 10
2.215036
 20
0.539180
 30
0.000000
  0
VERTEX
  8
LAYER-1
 10
2.179607
 20
0.539180
 30
0.000000
  0
SEQEND
  8
LAYER-1
  0
POLYLINE
  8
LAYER-1
 66
  1
 70
  0
 62
  0
 10
3.200462
 20
0.341247
 30
0.000000
  0
VERTEX
  8
LAYER-1
 10
3.200462
 20
0.341247
 30
0.000000
  0
VERTEX
  8
LAYER-1
 10
3.210698
 20
0.334653
 30
0.000000
  0
VERTEX
  8
LAYER-1
 10
3.225382
 20
0.337228
 30
0.000000
  0
VERTEX
  8
LAYER-1
 10
3.233682
 20
0.341807
 30
0.000000
  0
SEQEND
  8
LAYER-1
  0
POLYLINE
  8
LAYER-1
 66
  1
 70
  0
 62
  0
 10
2.383284
 20
0.341426
 30
0.000000
  0
VERTEX
  8
LAYER-1
 10
2.383284
 20
0.341426
 30
0.000000
  0
VERTEX
  8
LAYER-1
 10
2.396455
 20
0.334379
 30
0.000000
  0
VERTEX
  8
LAYER-1
 10
2.413535
 20
0.338710
 30
0.000000
  0
VERTEX
  8
LAYER-1
 10
2.420188
 20
0.341425
 30
0.000000
  0
SEQEND
  8
LAYER-1
  0
POLYLINE
  8
LAYER-1
 66
  1
 70
  0
 62
  0
 10
2.640603
 20
0.613023
 30
0.000000
  0
VERTEX
  8
LAYER-1
 10
2.640603
 20
0.613023
 30
0.000000
  0
VERTEX
  8
LAYER-1
 10
2.626726
 20
0.623960
 30
0.000000
  0
VERTEX
  8
LAYER-1
 10
2.611963
 20
0.621881
 30
0.000000
  0
VERTEX
  8
LAYER-1
 10
2.607384
 20
0.613581
 30
0.000000
  0
SEQEND
  8
LAYER-1
  0
POLYLINE
  8
LAYER-1
 66
  1
 70
  0
 62
  0
 10
2.607384
 20
0.613581
 30
0.000000
  0
VERTEX
  8
LAYER-1
 10
2.607384
 20
0.613581
 30
0.000000
  0
VERTEX
  8
LAYER-1
 10
2.640603
 20
0.613021
 30
0.000000
  0
SEQEND
  8
LAYER-1
  0
POLYLINE
  8
LAYER-1
 66
  1
 70
  0
 62
  0
 10
2.605175
 20
0.613021
 30
0.000000
  0
VERTEX
  8
LAYER-1
 10
2.605175
 20
0.613021
 30
0.000000
  0
VERTEX
  8
LAYER-1
 10
2.588067
 20
0.624005
 30
0.000000
  0
VERTEX
  8
LAYER-1
 10
2.570986
 20
0.619674
 30
0.000000
  0
VERTEX
  8
LAYER-1
 10
2.568271
 20
0.613020
 30
0.000000
  0
SEQEND
  8
LAYER-1
  0
POLYLINE
  8
LAYER-1
 66
  1
 70
  0
 62
  0
 10
2.568271
 20
0.613020
 30
0.000000
  0
VERTEX
  8
LAYER-1
 10
2.568271
 20
0.613020
 30
0.000000
  0
VERTEX
  8
LAYER-1
 10
2.605174
 20
0.613021
 30
0.000000
  0
SEQEND
  8
LAYER-1
  0
POLYLINE
  8
LAYER-1
 66
  1
 70
  0
 62
  0
 10
2.569442
 20
0.341364
 30
0.000000
  0
VERTEX
  8
LAYER-1
 10
2.569442
 20
0.341364
 30
0.000000
  0
VERTEX
  8
LAYER-1
 10
2.569442
 20
0.612996
 30
0.000000
  0
SEQEND
  8
LAYER-1
  0
POLYLINE
  8
LAYER-1
 66
  1
 70
  0
 62
  0
 10
2.641776
 20
0.612991
 30
0.000000
  0
VERTEX
  8
LAYER-1
 10
2.641776
 20
0.612991
 30
0.000000
  0
VERTEX
  8
LAYER-1
 10
2.641776
 20
0.341363
 30
0.000000
  0
SEQEND
  8
LAYER-1
  0
POLYLINE
  8
LAYER-1
 66
  1
 70
  0
 62
  0
 10
2.606347
 20
0.341363
 30
0.000000
  0
VERTEX
  8
LAYER-1
 10
2.606347
 20
0.341363
 30
0.000000
  0
VERTEX
  8
LAYER-1
 10
2.606347
 20
0.612994
 30
0.000000
  0
SEQEND
  8
LAYER-1
  0
POLYLINE
  8
LAYER-1
 66
  1
 70
  0
 62
  0
 10
2.608252
 20
0.340945
 30
0.000000
  0
VERTEX
  8
LAYER-1
 10
2.608252
 20
0.340945
 30
0.000000
  0
VERTEX
  8
LAYER-1
 10
2.618488
 20
0.334351
 30
0.000000
  0
VERTEX
  8
LAYER-1
 10
2.633172
 20
0.336925
 30
0.000000
  0
VERTEX
  8
LAYER-1
 10
2.641472
 20
0.341504
 30
0.000000
  0
SEQEND
  8
LAYER-1
  0
POLYLINE
  8
LAYER-1
 66
  1
 70
  0
 62
  0
 10
2.608253
 20
0.340944
 30
0.000000
  0
VERTEX
  8
LAYER-1
 10
2.608253
 20
0.340944
 30
0.000000
  0
VERTEX
  8
LAYER-1
 10
2.641472
 20
0.341504
 30
0.000000
  0
SEQEND
  8
LAYER-1
  0
POLYLINE
  8
LAYER-1
 66
  1
 70
  0
 62
  0
 10
2.569140
 20
0.341506
 30
0.000000
  0
VERTEX
  8
LAYER-1
 10
2.569140
 20
0.341506
 30
0.000000
  0
VERTEX
  8
LAYER-1
 10
2.582311
 20
0.334459
 30
0.000000
  0
VERTEX
  8
LAYER-1
 10
2.599391
 20
0.338790
 30
0.000000
  0
VERTEX
  8
LAYER-1
 10
2.606043
 20
0.341505
 30
0.000000
  0
SEQEND
  8
LAYER-1
  0
POLYLINE
  8
LAYER-1
 66
  1
 70
  0
 62
  0
 10
2.569140
 20
0.341505
 30
0.000000
  0
VERTEX
  8
LAYER-1
 10
2.569140
 20
0.341505
 30
0.000000
  0
VERTEX
  8
LAYER-1
 10
2.606043
 20
0.341504
 30
0.000000
  0
SEQEND
  8
LAYER-1
  0
POLYLINE
  8
LAYER-1
 66
  1
 70
  0
 62
  0
 10
1.820603
 20
0.613023
 30
0.000000
  0
VERTEX
  8
LAYER-1
 10
1.820603
 20
0.613023
 30
0.000000
  0
VERTEX
  8
LAYER-1
 10
1.806726
 20
0.623960
 30
0.000000
  0
VERTEX
  8
LAYER-1
 10
1.791963
 20
0.621881
 30
0.000000
  0
VERTEX
  8
LAYER-1
 10
1.787384
 20
0.613581
 30
0.000000
  0
SEQEND
  8
LAYER-1
  0
POLYLINE
  8
LAYER-1
 66
  1
 70
  0
 62
  0
 10
1.787384
 20
0.613581
 30
0.000000
  0
VERTEX
  8
LAYER-1
 10
1.787384
 20
0.613581
 30
0.000000
  0
VERTEX
  8
LAYER-1
 10
1.820603
 20
0.613021
 30
0.000000
  0
SEQEND
  8
LAYER-1
  0
POLYLINE
  8
LAYER-1
 66
  1
 70
  0
 62
  0
 10
1.785175
 20
0.613021
 30
0.000000
  0
VERTEX
  8
LAYER-1
 10
1.785175
 20
0.613021
 30
0.000000
  0
VERTEX
  8
LAYER-1
 10
1.768066
 20
0.624005
 30
0.000000
  0
VERTEX
  8
LAYER-1
 10
1.750986
 20
0.619674
 30
0.000000
  0
VERTEX
  8
LAYER-1
 10
1.748271
 20
0.613020
 30
0.000000
  0
SEQEND
  8
LAYER-1
  0
POLYLINE
  8
LAYER-1
 66
  1
 70
  0
 62
  0
 10
1.748272
 20
0.613020
 30
0.000000
  0
VERTEX
  8
LAYER-1
 10
1.748272
 20
0.613020
 30
0.000000
  0
VERTEX
  8
LAYER-1
 10
1.785174
 20
0.613021
 30
0.000000
  0
SEQEND
  8
LAYER-1
  0
POLYLINE
  8
LAYER-1
 66
  1
 70
  0
 62
  0
 10
1.749442
 20
0.341364
 30
0.000000
  0
VERTEX
  8
LAYER-1
 10
1.749442
 20
0.341364
 30
0.000000
  0
VERTEX
  8
LAYER-1
 10
1.749442
 20
0.612996
 30
0.000000
  0
SEQEND
  8
LAYER-1
  0
POLYLINE
  8
LAYER-1
 66
  1
 70
  0
 62
  0
 10
1.821776
 20
0.612991
 30
0.000000
  0
VERTEX
  8
LAYER-1
 10
1.821776
 20
0.612991
 30
0.000000
  0
VERTEX
  8
LAYER-1
 10
1.821776
 20
0.341363
 30
0.000000
  0
SEQEND
  8
LAYER-1
  0
POLYLINE
  8
LAYER-1
 66
  1
 70
  0
 62
  0
 10
1.786346
 20
0.341363
 30
0.000000
  0
VERTEX
  8
LAYER-1
 10
1.786346
 20
0.341363
 30
0.000000
  0
VERTEX
  8
LAYER-1
 10
1.786346
 20
0.612994
 30
0.000000
  0
SEQEND
  8
LAYER-1
  0
POLYLINE
  8
LAYER-1
 66
  1
 70
  0
 62
  0
 10
1.788252
 20
0.340945
 30
0.000000
  0
VERTEX
  8
LAYER-1
 10
1.788252
 20
0.340945
 30
0.000000
  0
VERTEX
  8
LAYER-1
 10
1.798488
 20
0.334351
 30
0.000000
  0
VERTEX
  8
LAYER-1
 10
1.813172
 20
0.336925
 30
0.000000
  0
VERTEX
  8
LAYER-1
 10
1.821472
 20
0.341504
 30
0.000000
  0
SEQEND
  8
LAYER-1
  0
POLYLINE
  8
LAYER-1
 66
  1
 70
  0
 62
  0
 10
1.788253
 20
0.340944
 30
0.000000
  0
VERTEX
  8
LAYER-1
 10
1.788253
 20
0.340944
 30
0.000000
  0
VERTEX
  8
LAYER-1
 10
1.821471
 20
0.341504
 30
0.000000
  0
SEQEND
  8
LAYER-1
  0
POLYLINE
  8
LAYER-1
 66
  1
 70
  0
 62
  0
 10
1.749139
 20
0.341506
 30
0.000000
  0
VERTEX
  8
LAYER-1
 10
1.749139
 20
0.341506
 30
0.000000
  0
VERTEX
  8
LAYER-1
 10
1.762310
 20
0.334459
 30
0.000000
  0
VERTEX
  8
LAYER-1
 10
1.779391
 20
0.338790
 30
0.000000
  0
VERTEX
  8
LAYER-1
 10
1.786043
 20
0.341505
 30
0.000000
  0
SEQEND
  8
LAYER-1
  0
POLYLINE
  8
LAYER-1
 66
  1
 70
  0
 62
  0
 10
1.749140
 20
0.341505
 30
0.000000
  0
VERTEX
  8
LAYER-1
 10
1.749140
 20
0.341505
 30
0.000000
  0
VERTEX
  8
LAYER-1
 10
1.786043
 20
0.341504
 30
0.000000
  0
SEQEND
  8
LAYER-1
  0
POLYLINE
  8
LAYER-1
 66
  1
 70
  1
 62
  0
  0
VERTEX
  8
LAYER-1
 10
3.645069
 20
7.461123
 30
0.000000
  0
VERTEX
  8
LAYER-1
 10
3.813952
 20
7.461123
 30
0.000000
  0
VERTEX
  8
LAYER-1
 10
3.813952
 20
0.334873
 30
0.000000
  0
VERTEX
  8
LAYER-1
 10
3.645069
 20
0.334873
 30
0.000000
  0
SEQEND
  8
LAYER-1
  0
CIRCLE
  8
LAYER-1
 62
  0
 10
3.729716
 20
3.177201
 30
0.000000
 40
0.064283
  0
POLYLINE
  8
LAYER-1
 66
  1
 70
  0
 62
  0
 10
3.687369
 20
2.119566
 30
0.000000
  0
VERTEX
  8
LAYER-1
 10
3.687369
 20
2.119566
 30
0.000000
  0
VERTEX
  8
LAYER-1
 10
3.687371
 20
2.119566
 30
0.000000
  0
SEQEND
  8
LAYER-1
  0
POLYLINE
  8
LAYER-1
 66
  1
 70
  0
 62
  0
 10
3.695335
 20
2.111602
 30
0.000000
  0
VERTEX
  8
LAYER-1
 10
3.695335
 20
2.111602
 30
0.000000
  0
VERTEX
  8
LAYER-1
 10
3.695335
 20
1.862059
 30
0.000000
  0
SEQEND
  8
LAYER-1
  0
POLYLINE
  8
LAYER-1
 66
  1
 70
  0
 62
  0
 10
3.687371
 20
1.854095
 30
0.000000
  0
VERTEX
  8
LAYER-1
 10
3.687371
 20
1.854095
 30
0.000000
  0
VERTEX
  8
LAYER-1
 10
3.687369
 20
1.854095
 30
0.000000
  0
SEQEND
  8
LAYER-1
  0
POLYLINE
  8
LAYER-1
 66
  1
 70
  0
 62
  0
 10
3.679405
 20
1.862059
 30
0.000000
  0
VERTEX
  8
LAYER-1
 10
3.679405
 20
1.862059
 30
0.000000
  0
VERTEX
  8
LAYER-1
 10
3.679405
 20
2.111602
 30
0.000000
  0
SEQEND
  8
LAYER-1
  0
ARC
  8
LAYER-1
 62
  0
 10
3.687369
 20
2.111602
 30
0.000000
 40
0.007964
 50
270.000000
 51
0.000000
  0
ARC
  8
LAYER-1
 62
  0
 10
3.687369
 20
1.862059
 30
0.000000
 40
0.007964
 50
0.000000
 51
90.000000
  0
ARC
  8
LAYER-1
 62
  0
 10
3.687371
 20
1.862059
 30
0.000000
 40
0.007964
 50
90.000000
 51
180.000000
  0
ARC
  8
LAYER-1
 62
  0
 10
3.687371
 20
2.111602
 30
0.000000
 40
0.007964
 50
180.000000
 51
270.000000
  0
CIRCLE
  8
LAYER-1
 62
  7
 10
3.729716
 20
3.176960
 30
0.000000
 40
0.047124
  0
CIRCLE
  8
LAYER-1
 62
  0
 10
3.729716
 20
3.176960
 30
0.000000
 40
0.042287
  0
CIRCLE
  8
LAYER-1
 62
  0
 10
3.729716
 20
3.160164
 30
0.000000
 40
0.018794
  0
CIRCLE
  8
LAYER-1
 62
  0
 10
3.729716
 20
3.152128
 30
0.000000
 40
0.008035
  0
TEXT
  8
LAYER-1
 62
  0
 10
3.694130
 20
3.187718
 30
0.000000
 40
0.010417
  1
MobilFlex
 72
  5
 11
3.846908
 21
3.187718
 31
0.000000
  0
POLYLINE
  8
LAYER-1
 66
  1
 70
  1
 62
  0
 10
3.726092
 20
3.141918
 30
0.000000
  0
VERTEX
  8
LAYER-1
 10
3.726092
 20
3.141918
 30
0.000000
  0
VERTEX
  8
LAYER-1
 10
3.726092
 20
3.150619
 30
0.000000
  0
VERTEX
  8
LAYER-1
 10
3.729474
 20
3.150619
 30
0.000000
  0
VERTEX
  8
LAYER-1
 10
3.729474
 20
3.154002
 30
0.000000
  0
VERTEX
  8
LAYER-1
 10
3.725850
 20
3.157627
 30
0.000000
  0
VERTEX
  8
LAYER-1
 10
3.725850
 20
3.160043
 30
0.000000
  0
VERTEX
  8
LAYER-1
 10
3.728267
 20
3.167293
 30
0.000000
  0
VERTEX
  8
LAYER-1
 10
3.731408
 20
3.167293
 30
0.000000
  0
VERTEX
  8
LAYER-1
 10
3.730683
 20
3.161976
 30
0.000000
  0
VERTEX
  8
LAYER-1
 10
3.730926
 20
3.160043
 30
0.000000
  0
VERTEX
  8
LAYER-1
 10
3.732375
 20
3.160043
 30
0.000000
  0
VERTEX
  8
LAYER-1
 10
3.732375
 20
3.147719
 30
0.000000
  0
VERTEX
  8
LAYER-1
 10
3.729716
 20
3.146510
 30
0.000000
  0
VERTEX
  8
LAYER-1
 10
3.729716
 20
3.144093
 30
0.000000
  0
VERTEX
  8
LAYER-1
 10
3.732375
 20
3.143610
 30
0.000000
  0
VERTEX
  8
LAYER-1
 10
3.732375
 20
3.141918
 30
0.000000
  0
SEQEND
  8
LAYER-1
  0
CIRCLE
  8
LAYER-1
 62
  0
 10
3.687703
 20
1.856747
 30
0.000000
 40
0.022565
  0
CIRCLE
  8
LAYER-1
 62
  0
 10
3.687703
 20
1.856747
 30
0.000000
 40
0.016522
  0
CIRCLE
  8
LAYER-1
 62
  0
 10
3.687703
 20
1.856747
 30
0.000000
 40
0.013746
  0
CIRCLE
  8
LAYER-1
 62
  0
 10
3.687703
 20
1.856747
 30
0.000000
 40
0.008860
  0
LINE
  8
LAYER-1
 62
  0
 10
6.728852
 20
7.528551
 30
0.000000
 11
0.739269
 21
7.528551
 31
0.000000
  0
LINE
  8
LAYER-1
 62
  0
 10
6.728852
 20
7.638551
 30
0.000000
 11
0.739269
 21
7.638551
 31
0.000000
  0
LINE
  8
LAYER-1
 62
  0
 10
1.291352
 20
7.526587
 30
0.000000
 11
1.291352
 21
7.636565
 31
0.000000
  0
LINE
  8
LAYER-1
 62
  0
 10
1.231983
 20
7.526587
 30
0.000000
 11
1.416352
 21
7.526587
 31
0.000000
  0
LINE
  8
LAYER-1
 62
  0
 10
1.232324
 20
7.636565
 30
0.000000
 11
1.416352
 21
7.636565
 31
0.000000
  0
LINE
  8
LAYER-1
 62
  0
 10
1.291352
 20
7.636565
 30
0.000000
 11
1.291352
 21
7.271051
 31
0.000000
  0
LINE
  8
LAYER-1
 62
  0
 10
1.261890
 20
7.556050
 30
0.000000
 11
1.320815
 21
7.497124
 31
0.000000
  0
LINE
  8
LAYER-1
 62
  0
 10
1.261890
 20
7.666028
 30
0.000000
 11
1.320815
 21
7.607102
 31
0.000000
  0
TEXT
  8
LAYER-1
 62
  0
 10
1.281291
 20
7.145176
 30
0.000000
 40
0.125000
  1
 
  0
POLYLINE
  8
LAYER-1
 66
  1
 70
  1
 62
  0
  0
VERTEX
  8
LAYER-1
 10
3.752836
 20
7.526547
 30
0.000000
  0
VERTEX
  8
LAYER-1
 10
3.777931
 20
7.526547
 30
0.000000
  0
VERTEX
  8
LAYER-1
 10
3.777931
 20
7.461097
 30
0.000000
  0
VERTEX
  8
LAYER-1
 10
3.752836
 20
7.461097
 30
0.000000
  0
SEQEND
  8
LAYER-1
  0
POLYLINE
  8
LAYER-1
 66
  1
 70
  1
 62
  0
  0
VERTEX
  8
LAYER-1
 10
4.636141
 20
7.526889
 30
0.000000
  0
VERTEX
  8
LAYER-1
 10
4.661237
 20
7.526889
 30
0.000000
  0
VERTEX
  8
LAYER-1
 10
4.661237
 20
7.460970
 30
0.000000
  0
VERTEX
  8
LAYER-1
 10
4.636141
 20
7.460970
 30
0.000000
  0
SEQEND
  8
LAYER-1
  0
POLYLINE
  8
LAYER-1
 66
  1
 70
  1
 62
  0
  0
VERTEX
  8
LAYER-1
 10
5.453112
 20
7.526890
 30
0.000000
  0
VERTEX
  8
LAYER-1
 10
5.478208
 20
7.526890
 30
0.000000
  0
VERTEX
  8
LAYER-1
 10
5.478208
 20
7.460970
 30
0.000000
  0
VERTEX
  8
LAYER-1
 10
5.453112
 20
7.460970
 30
0.000000
  0
SEQEND
  8
LAYER-1
  0
POLYLINE
  8
LAYER-1
 66
  1
 70
  1
 62
  0
  0
VERTEX
  8
LAYER-1
 10
3.674274
 20
0.341079
 30
0.000000
  0
VERTEX
  8
LAYER-1
 10
3.707831
 20
0.341079
 30
0.000000
  0
VERTEX
  8
LAYER-1
 10
3.707831
 20
0.246441
 30
0.000000
  0
VERTEX
  8
LAYER-1
 10
3.674274
 20
0.246441
 30
0.000000
  0
SEQEND
  8
LAYER-1
  0
POLYLINE
  8
LAYER-1
 66
  1
 70
  1
 62
  0
  0
VERTEX
  8
LAYER-1
 10
2.797606
 20
7.526594
 30
0.000000
  0
VERTEX
  8
LAYER-1
 10
2.822702
 20
7.526594
 30
0.000000
  0
VERTEX
  8
LAYER-1
 10
2.822702
 20
7.461612
 30
0.000000
  0
VERTEX
  8
LAYER-1
 10
2.797606
 20
7.461612
 30
0.000000
  0
SEQEND
  8
LAYER-1
  0
POLYLINE
  8
LAYER-1
 66
  1
 70
  1
 62
  0
  0
VERTEX
  8
LAYER-1
 10
1.979767
 20
7.526594
 30
0.000000
  0
VERTEX
  8
LAYER-1
 10
2.004863
 20
7.526594
 30
0.000000
  0
VERTEX
  8
LAYER-1
 10
2.004863
 20
7.461612
 30
0.000000
  0
VERTEX
  8
LAYER-1
 10
1.979767
 20
7.461612
 30
0.000000
  0
SEQEND
  8
LAYER-1
  0
POLYLINE
  8
LAYER-1
 66
  1
 70
  0
 62
  0
 10
3.644370
 20
0.238781
 30
0.000000
  0
VERTEX
  8
LAYER-1
 10
3.644370
 20
0.238781
 30
0.000000
  0
VERTEX
  8
LAYER-1
 10
3.657148
 20
0.246346
 30
0.000000
  0
SEQEND
  8
LAYER-1
  0
POLYLINE
  8
LAYER-1
 66
  1
 70
  0
 62
  0
 10
3.644370
 20
0.238781
 30
0.000000
  0
VERTEX
  8
LAYER-1
 10
3.644370
 20
0.238781
 30
0.000000
  0
VERTEX
  8
LAYER-1
 10
3.644370
 20
0.237216
 30
0.000000
  0
SEQEND
  8
LAYER-1
  0
POLYLINE
  8
LAYER-1
 66
  1
 70
  1
 62
  0
  0
VERTEX
  8
LAYER-1
 10
3.662813
 20
0.237202
 30
0.000000
  0
VERTEX
  8
LAYER-1
 10
3.719400
 20
0.237202
 30
0.000000
  0
VERTEX
  8
LAYER-1
 10
3.719400
 20
0.049539
 30
0.000000
  0
VERTEX
  8
LAYER-1
 10
3.662813
 20
0.049539
 30
0.000000
  0
SEQEND
  8
LAYER-1
  0
POLYLINE
  8
LAYER-1
  6
LTYPE01
 66
  1
 70
  1
 62
  0
  0
VERTEX
  8
LAYER-1
  6
LTYPE01
 10
3.667507
 20
0.246328
 30
0.000000
  0
VERTEX
  8
LAYER-1
  6
LTYPE01
 10
3.714447
 20
0.246328
 30
0.000000
  0
VERTEX
  8
LAYER-1
  6
LTYPE01
 10
3.714447
 20
0.059100
 30
0.000000
  0
VERTEX
  8
LAYER-1
  6
LTYPE01
 10
3.667507
 20
0.059100
 30
0.000000
  0
SEQEND
  8
LAYER-1
  0
POLYLINE
  8
LAYER-1
 66
  1
 70
  0
 62
  0
 10
3.644370
 20
0.237216
 30
0.000000
  0
VERTEX
  8
LAYER-1
 10
3.644370
 20
0.237216
 30
0.000000
  0
VERTEX
  8
LAYER-1
 10
3.737987
 20
0.237216
 30
0.000000
  0
SEQEND
  8
LAYER-1
  0
POLYLINE
  8
LAYER-1
 66
  1
 70
  0
 62
  0
 10
3.737987
 20
0.237216
 30
0.000000
  0
VERTEX
  8
LAYER-1
 10
3.737987
 20
0.237216
 30
0.000000
  0
VERTEX
  8
LAYER-1
 10
3.737987
 20
0.238781
 30
0.000000
  0
SEQEND
  8
LAYER-1
  0
POLYLINE
  8
LAYER-1
 66
  1
 70
  0
 62
  0
 10
3.737987
 20
0.238781
 30
0.000000
  0
VERTEX
  8
LAYER-1
 10
3.737987
 20
0.238781
 30
0.000000
  0
VERTEX
  8
LAYER-1
 10
3.724948
 20
0.246346
 30
0.000000
  0
SEQEND
  8
LAYER-1
  0
POLYLINE
  8
LAYER-1
  6
LTYPE02
 66
  1
 70
  0
 62
  0
  6
LTYPE02
 10
3.668752
 20
0.145559
 30
0.000000
  0
VERTEX
  8
LAYER-1
  6
LTYPE02
 10
3.668752
 20
0.145559
 30
0.000000
  0
VERTEX
  8
LAYER-1
  6
LTYPE02
 10
3.668752
 20
0.111660
 30
0.000000
  0
SEQEND
  8
LAYER-1
  0
POLYLINE
  8
LAYER-1
  6
LTYPE02
 66
  1
 70
  0
 62
  0
  6
LTYPE02
 10
3.672660
 20
0.145559
 30
0.000000
  0
VERTEX
  8
LAYER-1
  6
LTYPE02
 10
3.672660
 20
0.145559
 30
0.000000
  0
VERTEX
  8
LAYER-1
  6
LTYPE02
 10
3.668752
 20
0.145559
 30
0.000000
  0
SEQEND
  8
LAYER-1
  0
POLYLINE
  8
LAYER-1
  6
LTYPE02
 66
  1
 70
  0
 62
  0
  6
LTYPE02
 10
3.672660
 20
0.145559
 30
0.000000
  0
VERTEX
  8
LAYER-1
  6
LTYPE02
 10
3.672660
 20
0.145559
 30
0.000000
  0
VERTEX
  8
LAYER-1
  6
LTYPE02
 10
3.672660
 20
0.149991
 30
0.000000
  0
SEQEND
  8
LAYER-1
  0
POLYLINE
  8
LAYER-1
  6
LTYPE02
 66
  1
 70
  0
 62
  0
  6
LTYPE02
 10
3.672660
 20
0.149991
 30
0.000000
  0
VERTEX
  8
LAYER-1
  6
LTYPE02
 10
3.672660
 20
0.149991
 30
0.000000
  0
VERTEX
  8
LAYER-1
  6
LTYPE02
 10
3.709920
 20
0.149991
 30
0.000000
  0
SEQEND
  8
LAYER-1
  0
POLYLINE
  8
LAYER-1
  6
LTYPE02
 66
  1
 70
  0
 62
  0
  6
LTYPE02
 10
3.668752
 20
0.111660
 30
0.000000
  0
VERTEX
  8
LAYER-1
  6
LTYPE02
 10
3.668752
 20
0.111660
 30
0.000000
  0
VERTEX
  8
LAYER-1
  6
LTYPE02
 10
3.713083
 20
0.111660
 30
0.000000
  0
SEQEND
  8
LAYER-1
  0
POLYLINE
  8
LAYER-1
  6
LTYPE02
 66
  1
 70
  0
 62
  0
  6
LTYPE02
 10
3.713083
 20
0.111660
 30
0.000000
  0
VERTEX
  8
LAYER-1
  6
LTYPE02
 10
3.713083
 20
0.111660
 30
0.000000
  0
VERTEX
  8
LAYER-1
  6
LTYPE02
 10
3.713083
 20
0.145559
 30
0.000000
  0
SEQEND
  8
LAYER-1
  0
POLYLINE
  8
LAYER-1
  6
LTYPE02
 66
  1
 70
  0
 62
  0
  6
LTYPE02
 10
3.709920
 20
0.145559
 30
0.000000
  0
VERTEX
  8
LAYER-1
  6
LTYPE02
 10
3.709920
 20
0.145559
 30
0.000000
  0
VERTEX
  8
LAYER-1
  6
LTYPE02
 10
3.713083
 20
0.145559
 30
0.000000
  0
SEQEND
  8
LAYER-1
  0
POLYLINE
  8
LAYER-1
  6
LTYPE02
 66
  1
 70
  0
 62
  0
  6
LTYPE02
 10
3.709920
 20
0.149991
 30
0.000000
  0
VERTEX
  8
LAYER-1
  6
LTYPE02
 10
3.709920
 20
0.149991
 30
0.000000
  0
VERTEX
  8
LAYER-1
  6
LTYPE02
 10
3.709920
 20
0.145559
 30
0.000000
  0
SEQEND
  8
LAYER-1
  0
POLYLINE
  8
LAYER-1
  6
LTYPE01
 66
  1
 70
  1
 62
  0
  0
VERTEX
  8
LAYER-1
  6
LTYPE01
 10
3.673890
 20
0.111513
 30
0.000000
  0
VERTEX
  8
LAYER-1
  6
LTYPE01
 10
3.708311
 20
0.111513
 30
0.000000
  0
VERTEX
  8
LAYER-1
  6
LTYPE01
 10
3.708311
 20
0.059359
 30
0.000000
  0
VERTEX
  8
LAYER-1
  6
LTYPE01
 10
3.673890
 20
0.059359
 30
0.000000
  0
SEQEND
  8
LAYER-1
  0
POLYLINE
  8
LAYER-1
  6
LTYPE02
 66
  1
 70
  0
 62
  0
  6
LTYPE02
 10
3.708311
 20
0.111513
 30
0.000000
  0
VERTEX
  8
LAYER-1
  6
LTYPE02
 10
3.708311
 20
0.111513
 30
0.000000
  0
VERTEX
  8
LAYER-1
  6
LTYPE02
 10
3.673890
 20
0.108645
 30
0.000000
  0
SEQEND
  8
LAYER-1
  0
POLYLINE
  8
LAYER-1
  6
LTYPE02
 66
  1
 70
  0
 62
  0
  6
LTYPE02
 10
3.708311
 20
0.109948
 30
0.000000
  0
VERTEX
  8
LAYER-1
  6
LTYPE02
 10
3.708311
 20
0.109948
 30
0.000000
  0
VERTEX
  8
LAYER-1
  6
LTYPE02
 10
3.673890
 20
0.106820
 30
0.000000
  0
SEQEND
  8
LAYER-1
  0
POLYLINE
  8
LAYER-1
  6
LTYPE02
 66
  1
 70
  0
 62
  0
  6
LTYPE02
 10
3.708311
 20
0.106559
 30
0.000000
  0
VERTEX
  8
LAYER-1
  6
LTYPE02
 10
3.708311
 20
0.106559
 30
0.000000
  0
VERTEX
  8
LAYER-1
  6
LTYPE02
 10
3.673890
 20
0.103689
 30
0.000000
  0
SEQEND
  8
LAYER-1
  0
POLYLINE
  8
LAYER-1
  6
LTYPE02
 66
  1
 70
  0
 62
  0
  6
LTYPE02
 10
3.708311
 20
0.104993
 30
0.000000
  0
VERTEX
  8
LAYER-1
  6
LTYPE02
 10
3.708311
 20
0.104993
 30
0.000000
  0
VERTEX
  8
LAYER-1
  6
LTYPE02
 10
3.673890
 20
0.101865
 30
0.000000
  0
SEQEND
  8
LAYER-1
  0
POLYLINE
  8
LAYER-1
  6
LTYPE02
 66
  1
 70
  0
 62
  0
  6
LTYPE02
 10
3.708311
 20
0.101410
 30
0.000000
  0
VERTEX
  8
LAYER-1
  6
LTYPE02
 10
3.708311
 20
0.101410
 30
0.000000
  0
VERTEX
  8
LAYER-1
  6
LTYPE02
 10
3.673890
 20
0.098540
 30
0.000000
  0
SEQEND
  8
LAYER-1
  0
POLYLINE
  8
LAYER-1
  6
LTYPE02
 66
  1
 70
  0
 62
  0
  6
LTYPE02
 10
3.708311
 20
0.099845
 30
0.000000
  0
VERTEX
  8
LAYER-1
  6
LTYPE02
 10
3.708311
 20
0.099845
 30
0.000000
  0
VERTEX
  8
LAYER-1
  6
LTYPE02
 10
3.673890
 20
0.096716
 30
0.000000
  0
SEQEND
  8
LAYER-1
  0
POLYLINE
  8
LAYER-1
  6
LTYPE02
 66
  1
 70
  0
 62
  0
  6
LTYPE02
 10
3.708246
 20
0.096910
 30
0.000000
  0
VERTEX
  8
LAYER-1
  6
LTYPE02
 10
3.708246
 20
0.096910
 30
0.000000
  0
VERTEX
  8
LAYER-1
  6
LTYPE02
 10
3.673824
 20
0.094042
 30
0.000000
  0
SEQEND
  8
LAYER-1
  0
POLYLINE
  8
LAYER-1
  6
LTYPE02
 66
  1
 70
  0
 62
  0
  6
LTYPE02
 10
3.708246
 20
0.095347
 30
0.000000
  0
VERTEX
  8
LAYER-1
  6
LTYPE02
 10
3.708246
 20
0.095347
 30
0.000000
  0
VERTEX
  8
LAYER-1
  6
LTYPE02
 10
3.673824
 20
0.092218
 30
0.000000
  0
SEQEND
  8
LAYER-1
  0
POLYLINE
  8
LAYER-1
  6
LTYPE02
 66
  1
 70
  0
 62
  0
  6
LTYPE02
 10
3.708246
 20
0.092088
 30
0.000000
  0
VERTEX
  8
LAYER-1
  6
LTYPE02
 10
3.708246
 20
0.092088
 30
0.000000
  0
VERTEX
  8
LAYER-1
  6
LTYPE02
 10
3.673824
 20
0.089220
 30
0.000000
  0
SEQEND
  8
LAYER-1
  0
POLYLINE
  8
LAYER-1
  6
LTYPE02
 66
  1
 70
  0
 62
  0
  6
LTYPE02
 10
3.708246
 20
0.090522
 30
0.000000
  0
VERTEX
  8
LAYER-1
  6
LTYPE02
 10
3.708246
 20
0.090522
 30
0.000000
  0
VERTEX
  8
LAYER-1
  6
LTYPE02
 10
3.673824
 20
0.087392
 30
0.000000
  0
SEQEND
  8
LAYER-1
  0
POLYLINE
  8
LAYER-1
  6
LTYPE02
 66
  1
 70
  0
 62
  0
  6
LTYPE02
 10
3.708246
 20
0.087131
 30
0.000000
  0
VERTEX
  8
LAYER-1
  6
LTYPE02
 10
3.708246
 20
0.087131
 30
0.000000
  0
VERTEX
  8
LAYER-1
  6
LTYPE02
 10
3.673824
 20
0.084262
 30
0.000000
  0
SEQEND
  8
LAYER-1
  0
POLYLINE
  8
LAYER-1
  6
LTYPE02
 66
  1
 70
  0
 62
  0
  6
LTYPE02
 10
3.708246
 20
0.085568
 30
0.000000
  0
VERTEX
  8
LAYER-1
  6
LTYPE02
 10
3.708246
 20
0.085568
 30
0.000000
  0
VERTEX
  8
LAYER-1
  6
LTYPE02
 10
3.673824
 20
0.082437
 30
0.000000
  0
SEQEND
  8
LAYER-1
  0
POLYLINE
  8
LAYER-1
  6
LTYPE02
 66
  1
 70
  0
 62
  0
  6
LTYPE02
 10
3.708246
 20
0.081982
 30
0.000000
  0
VERTEX
  8
LAYER-1
  6
LTYPE02
 10
3.708246
 20
0.081982
 30
0.000000
  0
VERTEX
  8
LAYER-1
  6
LTYPE02
 10
3.673824
 20
0.079113
 30
0.000000
  0
SEQEND
  8
LAYER-1
  0
POLYLINE
  8
LAYER-1
  6
LTYPE02
 66
  1
 70
  0
 62
  0
  6
LTYPE02
 10
3.708246
 20
0.080417
 30
0.000000
  0
VERTEX
  8
LAYER-1
  6
LTYPE02
 10
3.708246
 20
0.080417
 30
0.000000
  0
VERTEX
  8
LAYER-1
  6
LTYPE02
 10
3.673824
 20
0.077288
 30
0.000000
  0
SEQEND
  8
LAYER-1
  0
POLYLINE
  8
LAYER-1
  6
LTYPE02
 66
  1
 70
  0
 62
  0
  6
LTYPE02
 10
3.708181
 20
0.077482
 30
0.000000
  0
VERTEX
  8
LAYER-1
  6
LTYPE02
 10
3.708181
 20
0.077482
 30
0.000000
  0
VERTEX
  8
LAYER-1
  6
LTYPE02
 10
3.673760
 20
0.074615
 30
0.000000
  0
SEQEND
  8
LAYER-1
  0
POLYLINE
  8
LAYER-1
  6
LTYPE02
 66
  1
 70
  0
 62
  0
  6
LTYPE02
 10
3.708181
 20
0.075919
 30
0.000000
  0
VERTEX
  8
LAYER-1
  6
LTYPE02
 10
3.708181
 20
0.075919
 30
0.000000
  0
VERTEX
  8
LAYER-1
  6
LTYPE02
 10
3.673760
 20
0.072790
 30
0.000000
  0
SEQEND
  8
LAYER-1
  0
POLYLINE
  8
LAYER-1
  6
LTYPE02
 66
  1
 70
  0
 62
  0
  6
LTYPE02
 10
3.708311
 20
0.073116
 30
0.000000
  0
VERTEX
  8
LAYER-1
  6
LTYPE02
 10
3.708311
 20
0.073116
 30
0.000000
  0
VERTEX
  8
LAYER-1
  6
LTYPE02
 10
3.673890
 20
0.070248
 30
0.000000
  0
SEQEND
  8
LAYER-1
  0
POLYLINE
  8
LAYER-1
  6
LTYPE02
 66
  1
 70
  0
 62
  0
  6
LTYPE02
 10
3.708311
 20
0.071551
 30
0.000000
  0
VERTEX
  8
LAYER-1
  6
LTYPE02
 10
3.708311
 20
0.071551
 30
0.000000
  0
VERTEX
  8
LAYER-1
  6
LTYPE02
 10
3.673890
 20
0.068422
 30
0.000000
  0
SEQEND
  8
LAYER-1
  0
POLYLINE
  8
LAYER-1
  6
LTYPE02
 66
  1
 70
  0
 62
  0
  6
LTYPE02
 10
3.708311
 20
0.068162
 30
0.000000
  0
VERTEX
  8
LAYER-1
  6
LTYPE02
 10
3.708311
 20
0.068162
 30
0.000000
  0
VERTEX
  8
LAYER-1
  6
LTYPE02
 10
3.673890
 20
0.065294
 30
0.000000
  0
SEQEND
  8
LAYER-1
  0
POLYLINE
  8
LAYER-1
  6
LTYPE02
 66
  1
 70
  0
 62
  0
  6
LTYPE02
 10
3.708311
 20
0.066597
 30
0.000000
  0
VERTEX
  8
LAYER-1
  6
LTYPE02
 10
3.708311
 20
0.066597
 30
0.000000
  0
VERTEX
  8
LAYER-1
  6
LTYPE02
 10
3.673890
 20
0.063467
 30
0.000000
  0
SEQEND
  8
LAYER-1
  0
POLYLINE
  8
LAYER-1
  6
LTYPE02
 66
  1
 70
  0
 62
  0
  6
LTYPE02
 10
3.708311
 20
0.063011
 30
0.000000
  0
VERTEX
  8
LAYER-1
  6
LTYPE02
 10
3.708311
 20
0.063011
 30
0.000000
  0
VERTEX
  8
LAYER-1
  6
LTYPE02
 10
3.673890
 20
0.060142
 30
0.000000
  0
SEQEND
  8
LAYER-1
  0
POLYLINE
  8
LAYER-1
  6
LTYPE02
 66
  1
 70
  0
 62
  0
  6
LTYPE02
 10
3.708311
 20
0.061447
 30
0.000000
  0
VERTEX
  8
LAYER-1
  6
LTYPE02
 10
3.708311
 20
0.061447
 30
0.000000
  0
VERTEX
  8
LAYER-1
  6
LTYPE02
 10
3.685298
 20
0.059359
 30
0.000000
  0
SEQEND
  8
LAYER-1
  0
POLYLINE
  8
LAYER-1
  6
LTYPE02
 66
  1
 70
  0
 62
  0
  6
LTYPE02
 10
3.674881
 20
0.170723
 30
0.000000
  0
VERTEX
  8
LAYER-1
  6
LTYPE02
 10
3.674881
 20
0.170723
 30
0.000000
  0
VERTEX
  8
LAYER-1
  6
LTYPE02
 10
3.674881
 20
0.246346
 30
0.000000
  0
SEQEND
  8
LAYER-1
  0
POLYLINE
  8
LAYER-1
  6
LTYPE02
 66
  1
 70
  0
 62
  0
  6
LTYPE02
 10
3.707215
 20
0.170723
 30
0.000000
  0
VERTEX
  8
LAYER-1
  6
LTYPE02
 10
3.707215
 20
0.170723
 30
0.000000
  0
VERTEX
  8
LAYER-1
  6
LTYPE02
 10
3.707215
 20
0.246346
 30
0.000000
  0
SEQEND
  8
LAYER-1
  0
POLYLINE
  8
LAYER-1
  6
LTYPE01
 66
  1
 70
  0
 62
  0
  6
LTYPE01
 10
3.674881
 20
0.170723
 30
0.000000
  0
VERTEX
  8
LAYER-1
  6
LTYPE01
 10
3.674881
 20
0.170723
 30
0.000000
  0
VERTEX
  8
LAYER-1
  6
LTYPE01
 10
3.677647
 20
0.161259
 30
0.000000
  0
VERTEX
  8
LAYER-1
  6
LTYPE01
 10
3.689080
 20
0.156525
 30
0.000000
  0
VERTEX
  8
LAYER-1
  6
LTYPE01
 10
3.700512
 20
0.161259
 30
0.000000
  0
VERTEX
  8
LAYER-1
  6
LTYPE01
 10
3.707216
 20
0.170723
 30
0.000000
  0
SEQEND
  8
LAYER-1
  0
POLYLINE
  8
LAYER-1
 66
  1
 70
  0
 62
  0
 10
3.657148
 20
0.246346
 30
0.000000
  0
VERTEX
  8
LAYER-1
 10
3.657148
 20
0.246346
 30
0.000000
  0
VERTEX
  8
LAYER-1
 10
3.724948
 20
0.246346
 30
0.000000
  0
SEQEND
  8
LAYER-1
  0
TEXT
  8
LAYER-1
 62
  7
 10
1.958019
 20
8.854385
 30
0.000000
 40
0.166667
  1
Elevazione modello Concept 1212
 72
  5
 11
5.610797
 21
8.854385
 31
0.000000
  0
TEXT
  8
LAYER-1
 62
  0
 10
1.041352
 20
6.896051
 30
0.000000
 40
0.125000
  1
1-
 72
  5
 11
1.263574
 21
6.896051
 31
0.000000
  0
TEXT
  8
LAYER-1
 62
  0
 10
1.263574
 20
6.896051
 30
0.000000
 40
0.104167
  1
9/16
 72
  5
 11
1.624685
 21
6.896051
 31
0.000000
  0
TEXT
  8
LAYER-1
 62
  0
 10
1.624685
 20
6.896051
 30
0.000000
 40
0.125000
  1
"
 72
  5
 11
1.749685
 21
6.896051
 31
0.000000
  0
TEXT
  8
LAYER-1
 62
  0
 10
1.041352
 20
6.701607
 30
0.000000
 40
0.125000
  1
40mm
 72
  5
 11
1.610797
 21
6.701607
 31
0.000000
  0
TEXT
  8
LAYER-1
 62
  0
 10
2.416352
 20
7.965496
 30
0.000000
 40
0.125000
  1
Montante
 72
  5
 11
3.180241
 21
7.965496
 31
0.000000
  0
TEXT
  8
LAYER-1
 62
  0
 10
2.416352
 20
7.771051
 30
0.000000
 40
0.125000
  1
intermedio #3
 72
  5
 11
3.541352
 21
7.771051
 31
0.000000
  0
POLYLINE
  8
LAYER-1
 66
  1
 70
  0
 62
  0
 10
3.478852
 20
7.791885
 30
0.000000
  0
VERTEX
  8
LAYER-1
 10
3.478852
 20
7.791885
 30
0.000000
  0
VERTEX
  8
LAYER-1
 10
3.719929
 20
7.476790
 30
0.000000
  0
SEQEND
  8
LAYER-1
  0
POLYLINE
  8
LAYER-1
 66
  1
 70
  1
 62
  0
  0
VERTEX
  8
LAYER-1
 10
3.731890
 20
7.461155
 30
0.000000
  0
VERTEX
  8
LAYER-1
 10
3.656600
 20
7.490991
 30
0.000000
  0
VERTEX
  8
LAYER-1
 10
3.689692
 20
7.516308
 30
0.000000
  0
VERTEX
  8
LAYER-1
 10
3.722784
 20
7.541628
 30
0.000000
  0
VERTEX
  8
LAYER-1
 10
3.731890
 20
7.461155
 30
0.000000
  0
SEQEND
  8
LAYER-1
  0
LINE
  8
LAYER-1
 62
  0
 10
5.836491
 20
5.545304
 30
0.000000
 11
5.836491
 21
6.367498
 31
0.000000
  0
LINE
  8
LAYER-1
 62
  0
 10
5.752188
 20
5.545304
 30
0.000000
 11
5.961491
 21
5.545304
 31
0.000000
  0
LINE
  8
LAYER-1
 62
  0
 10
5.752291
 20
6.367498
 30
0.000000
 11
5.961491
 21
6.367498
 31
0.000000
  0
LINE
  8
LAYER-1
 62
  0
 10
5.836491
 20
6.149523
 30
0.000000
 11
5.836491
 21
5.545304
 31
0.000000
  0
LINE
  8
LAYER-1
 62
  0
 10
5.807028
 20
5.574766
 30
0.000000
 11
5.865953
 21
5.515841
 31
0.000000
  0
LINE
  8
LAYER-1
 62
  0
 10
5.807028
 20
6.396961
 30
0.000000
 11
5.865953
 21
6.338035
 31
0.000000
  0
TEXT
  8
LAYER-1
 62
  0
 10
5.992850
 20
5.905676
 30
0.000000
 40
0.125000
  1
     
 50
90.000000
  0
TEXT
  8
LAYER-1
 62
  0
 10
6.124685
 20
6.007162
 30
0.000000
 40
0.125000
  1
12"
 72
  5
 11
6.444130
 21
6.007162
 31
0.000000
  0
TEXT
  8
LAYER-1
 62
  0
 10
5.944130
 20
5.812718
 30
0.000000
 40
0.125000
  1
305mm
 72
  5
 11
6.610797
 21
5.812718
 31
0.000000
  0
TEXT
  8
LAYER-1
 62
  0
 10
1.055241
 20
7.118273
 30
0.000000
 40
0.125000
  1
Guida
 72
  5
 11
1.583019
 21
7.118273
 31
0.000000
  0
POLYLINE
  8
LAYER-1
 66
  1
 70
  1
 62
  0
  0
VERTEX
  8
LAYER-1
 10
3.816532
 20
7.189803
 30
0.000000
  0
VERTEX
  8
LAYER-1
 10
3.852483
 20
7.189803
 30
0.000000
  0
VERTEX
  8
LAYER-1
 10
3.852483
 20
0.606118
 30
0.000000
  0
VERTEX
  8
LAYER-1
 10
3.816532
 20
0.606118
 30
0.000000
  0
SEQEND
  8
LAYER-1
  0
POLYLINE
  8
LAYER-1
 66
  1
 70
  1
 62
  0
  0
VERTEX
  8
LAYER-1
 10
4.224796
 20
7.189803
 30
0.000000
  0
VERTEX
  8
LAYER-1
 10
4.260747
 20
7.189803
 30
0.000000
  0
VERTEX
  8
LAYER-1
 10
4.260747
 20
0.606118
 30
0.000000
  0
VERTEX
  8
LAYER-1
 10
4.224796
 20
0.606118
 30
0.000000
  0
SEQEND
  8
LAYER-1
  0
POLYLINE
  8
LAYER-1
 66
  1
 70
  1
 62
  0
  0
VERTEX
  8
LAYER-1
 10
4.631324
 20
7.189803
 30
0.000000
  0
VERTEX
  8
LAYER-1
 10
4.667275
 20
7.189803
 30
0.000000
  0
VERTEX
  8
LAYER-1
 10
4.667275
 20
0.606118
 30
0.000000
  0
VERTEX
  8
LAYER-1
 10
4.631324
 20
0.606118
 30
0.000000
  0
SEQEND
  8
LAYER-1
  0
POLYLINE
  8
LAYER-1
 66
  1
 70
  1
 62
  0
  0
VERTEX
  8
LAYER-1
 10
5.039589
 20
7.189803
 30
0.000000
  0
VERTEX
  8
LAYER-1
 10
5.075539
 20
7.189803
 30
0.000000
  0
VERTEX
  8
LAYER-1
 10
5.075539
 20
0.606118
 30
0.000000
  0
VERTEX
  8
LAYER-1
 10
5.039589
 20
0.606118
 30
0.000000
  0
SEQEND
  8
LAYER-1
  0
POLYLINE
  8
LAYER-1
 66
  1
 70
  1
 62
  0
  0
VERTEX
  8
LAYER-1
 10
5.449155
 20
7.189803
 30
0.000000
  0
VERTEX
  8
LAYER-1
 10
5.485105
 20
7.189803
 30
0.000000
  0
VERTEX
  8
LAYER-1
 10
5.485105
 20
0.606118
 30
0.000000
  0
VERTEX
  8
LAYER-1
 10
5.449155
 20
0.606118
 30
0.000000
  0
SEQEND
  8
LAYER-1
  0
POLYLINE
  8
LAYER-1
 66
  1
 70
  1
 62
  0
 10
3.813966
 20
0.341392
 30
0.000000
  0
VERTEX
  8
LAYER-1
 10
3.813966
 20
0.341392
 30
0.000000
  0
VERTEX
  8
LAYER-1
 10
5.709883
 20
0.341493
 30
0.000000
  0
VERTEX
  8
LAYER-1
 10
5.709883
 20
0.613026
 30
0.000000
  0
VERTEX
  8
LAYER-1
 10
3.813966
 20
0.613143
 30
0.000000
  0
SEQEND
  8
LAYER-1
  0
POLYLINE
  8
LAYER-1
 66
  1
 70
  0
 62
  0
 10
3.813747
 20
0.409299
 30
0.000000
  0
VERTEX
  8
LAYER-1
 10
3.813747
 20
0.409299
 30
0.000000
  0
VERTEX
  8
LAYER-1
 10
3.853473
 20
0.409299
 30
0.000000
  0
SEQEND
  8
LAYER-1
  0
POLYLINE
  8
LAYER-1
 66
  1
 70
  0
 62
  0
 10
3.813747
 20
0.539209
 30
0.000000
  0
VERTEX
  8
LAYER-1
 10
3.813747
 20
0.539209
 30
0.000000
  0
VERTEX
  8
LAYER-1
 10
3.853473
 20
0.539209
 30
0.000000
  0
SEQEND
  8
LAYER-1
  0
POLYLINE
  8
LAYER-1
 66
  1
 70
  0
 62
  0
 10
3.815199
 20
0.336245
 30
0.000000
  0
VERTEX
  8
LAYER-1
 10
3.815199
 20
0.336245
 30
0.000000
  0
VERTEX
  8
LAYER-1
 10
3.828370
 20
0.329201
 30
0.000000
  0
VERTEX
  8
LAYER-1
 10
3.845449
 20
0.333533
 30
0.000000
  0
VERTEX
  8
LAYER-1
 10
3.852102
 20
0.336248
 30
0.000000
  0
SEQEND
  8
LAYER-1
  0
POLYLINE
  8
LAYER-1
 66
  1
 70
  1
 62
  0
  0
VERTEX
  8
LAYER-1
 10
3.862611
 20
0.335625
 30
0.000000
  0
VERTEX
  8
LAYER-1
 10
3.807996
 20
0.335625
 30
0.000000
  0
VERTEX
  8
LAYER-1
 10
3.807996
 20
0.341530
 30
0.000000
  0
VERTEX
  8
LAYER-1
 10
3.862611
 20
0.341530
 30
0.000000
  0
SEQEND
  8
LAYER-1
  0
POLYLINE
  8
LAYER-1
 66
  1
 70
  1
 62
  0
 10
3.814172
 20
7.461434
 30
0.000000
  0
VERTEX
  8
LAYER-1
 10
3.814172
 20
7.461434
 30
0.000000
  0
VERTEX
  8
LAYER-1
 10
5.710524
 20
7.461334
 30
0.000000
  0
VERTEX
  8
LAYER-1
 10
5.710524
 20
7.189801
 30
0.000000
  0
VERTEX
  8
LAYER-1
 10
3.814172
 20
7.189684
 30
0.000000
  0
SEQEND
  8
LAYER-1
  0
POLYLINE
  8
LAYER-1
 66
  1
 70
  0
 62
  0
 10
4.075461
 20
7.461434
 30
0.000000
  0
VERTEX
  8
LAYER-1
 10
4.075461
 20
7.461434
 30
0.000000
  0
VERTEX
  8
LAYER-1
 10
4.075461
 20
7.189802
 30
0.000000
  0
SEQEND
  8
LAYER-1
  0
POLYLINE
  8
LAYER-1
 66
  1
 70
  0
 62
  0
 10
4.405958
 20
7.189802
 30
0.000000
  0
VERTEX
  8
LAYER-1
 10
4.405958
 20
7.189802
 30
0.000000
  0
VERTEX
  8
LAYER-1
 10
4.405958
 20
7.461434
 30
0.000000
  0
SEQEND
  8
LAYER-1
  0
POLYLINE
  8
LAYER-1
 66
  1
 70
  0
 62
  0
 10
5.218790
 20
7.189802
 30
0.000000
  0
VERTEX
  8
LAYER-1
 10
5.218790
 20
7.189802
 30
0.000000
  0
VERTEX
  8
LAYER-1
 10
5.218790
 20
7.461434
 30
0.000000
  0
SEQEND
  8
LAYER-1
  0
POLYLINE
  8
LAYER-1
 66
  1
 70
  0
 62
  0
 10
5.037622
 20
7.461473
 30
0.000000
  0
VERTEX
  8
LAYER-1
 10
5.037622
 20
7.461473
 30
0.000000
  0
VERTEX
  8
LAYER-1
 10
5.037622
 20
7.189845
 30
0.000000
  0
SEQEND
  8
LAYER-1
  0
POLYLINE
  8
LAYER-1
 66
  1
 70
  0
 62
  0
 10
5.077481
 20
7.461473
 30
0.000000
  0
VERTEX
  8
LAYER-1
 10
5.077481
 20
7.461473
 30
0.000000
  0
VERTEX
  8
LAYER-1
 10
5.077481
 20
7.189845
 30
0.000000
  0
SEQEND
  8
LAYER-1
  0
POLYLINE
  8
LAYER-1
 66
  1
 70
  0
 62
  0
 10
4.223604
 20
7.461473
 30
0.000000
  0
VERTEX
  8
LAYER-1
 10
4.223604
 20
7.461473
 30
0.000000
  0
VERTEX
  8
LAYER-1
 10
4.223604
 20
7.189845
 30
0.000000
  0
SEQEND
  8
LAYER-1
  0
POLYLINE
  8
LAYER-1
 66
  1
 70
  0
 62
  0
 10
4.262421
 20
7.461473
 30
0.000000
  0
VERTEX
  8
LAYER-1
 10
4.262421
 20
7.461473
 30
0.000000
  0
VERTEX
  8
LAYER-1
 10
4.262421
 20
7.189845
 30
0.000000
  0
SEQEND
  8
LAYER-1
  0
POLYLINE
  8
LAYER-1
 66
  1
 70
  0
 62
  0
 10
4.490280
 20
7.461434
 30
0.000000
  0
VERTEX
  8
LAYER-1
 10
4.490280
 20
7.461434
 30
0.000000
  0
VERTEX
  8
LAYER-1
 10
4.490280
 20
7.189802
 30
0.000000
  0
SEQEND
  8
LAYER-1
  0
POLYLINE
  8
LAYER-1
 66
  1
 70
  0
 62
  0
 10
5.303112
 20
7.461434
 30
0.000000
  0
VERTEX
  8
LAYER-1
 10
5.303112
 20
7.461434
 30
0.000000
  0
VERTEX
  8
LAYER-1
 10
5.303112
 20
7.189802
 30
0.000000
  0
SEQEND
  8
LAYER-1
  0
POLYLINE
  8
LAYER-1
 66
  1
 70
  0
 62
  0
 10
5.448016
 20
7.461039
 30
0.000000
  0
VERTEX
  8
LAYER-1
 10
5.448016
 20
7.461039
 30
0.000000
  0
VERTEX
  8
LAYER-1
 10
5.448016
 20
7.189411
 30
0.000000
  0
SEQEND
  8
LAYER-1
  0
POLYLINE
  8
LAYER-1
 66
  1
 70
  0
 62
  0
 10
5.486398
 20
7.461039
 30
0.000000
  0
VERTEX
  8
LAYER-1
 10
5.486398
 20
7.461039
 30
0.000000
  0
VERTEX
  8
LAYER-1
 10
5.486398
 20
7.189411
 30
0.000000
  0
SEQEND
  8
LAYER-1
  0
POLYLINE
  8
LAYER-1
 66
  1
 70
  0
 62
  0
 10
4.630178
 20
7.461509
 30
0.000000
  0
VERTEX
  8
LAYER-1
 10
4.630178
 20
7.461509
 30
0.000000
  0
VERTEX
  8
LAYER-1
 10
4.630178
 20
7.189880
 30
0.000000
  0
SEQEND
  8
LAYER-1
  0
POLYLINE
  8
LAYER-1
 66
  1
 70
  0
 62
  0
 10
4.668561
 20
7.461509
 30
0.000000
  0
VERTEX
  8
LAYER-1
 10
4.668561
 20
7.461509
 30
0.000000
  0
VERTEX
  8
LAYER-1
 10
4.668561
 20
7.189880
 30
0.000000
  0
SEQEND
  8
LAYER-1
  0
POLYLINE
  8
LAYER-1
 66
  1
 70
  0
 62
  0
 10
4.003128
 20
7.189806
 30
0.000000
  0
VERTEX
  8
LAYER-1
 10
4.003128
 20
7.189806
 30
0.000000
  0
VERTEX
  8
LAYER-1
 10
4.003128
 20
7.461434
 30
0.000000
  0
SEQEND
  8
LAYER-1
  0
POLYLINE
  8
LAYER-1
 66
  1
 70
  0
 62
  0
 10
4.038558
 20
7.461434
 30
0.000000
  0
VERTEX
  8
LAYER-1
 10
4.038558
 20
7.461434
 30
0.000000
  0
VERTEX
  8
LAYER-1
 10
4.038558
 20
7.189804
 30
0.000000
  0
SEQEND
  8
LAYER-1
  0
POLYLINE
  8
LAYER-1
 66
  1
 70
  0
 62
  0
 10
4.037587
 20
7.461446
 30
0.000000
  0
VERTEX
  8
LAYER-1
 10
4.037587
 20
7.461446
 30
0.000000
  0
VERTEX
  8
LAYER-1
 10
4.023705
 20
7.472377
 30
0.000000
  0
VERTEX
  8
LAYER-1
 10
4.008943
 20
7.470288
 30
0.000000
  0
VERTEX
  8
LAYER-1
 10
4.004032
 20
7.461435
 30
0.000000
  0
SEQEND
  8
LAYER-1
  0
POLYLINE
  8
LAYER-1
 66
  1
 70
  0
 62
  0
 10
4.075460
 20
7.461434
 30
0.000000
  0
VERTEX
  8
LAYER-1
 10
4.075460
 20
7.461434
 30
0.000000
  0
VERTEX
  8
LAYER-1
 10
4.058354
 20
7.472418
 30
0.000000
  0
VERTEX
  8
LAYER-1
 10
4.041273
 20
7.468087
 30
0.000000
  0
VERTEX
  8
LAYER-1
 10
4.038558
 20
7.461435
 30
0.000000
  0
SEQEND
  8
LAYER-1
  0
POLYLINE
  8
LAYER-1
 66
  1
 70
  0
 62
  0
 10
4.491020
 20
7.460941
 30
0.000000
  0
VERTEX
  8
LAYER-1
 10
4.491020
 20
7.460941
 30
0.000000
  0
VERTEX
  8
LAYER-1
 10
4.471516
 20
7.470934
 30
0.000000
  0
VERTEX
  8
LAYER-1
 10
4.453442
 20
7.464208
 30
0.000000
  0
VERTEX
  8
LAYER-1
 10
4.454113
 20
7.460941
 30
0.000000
  0
SEQEND
  8
LAYER-1
  0
POLYLINE
  8
LAYER-1
 66
  1
 70
  0
 62
  0
 10
5.303978
 20
7.461411
 30
0.000000
  0
VERTEX
  8
LAYER-1
 10
5.303978
 20
7.461411
 30
0.000000
  0
VERTEX
  8
LAYER-1
 10
5.284474
 20
7.471403
 30
0.000000
  0
VERTEX
  8
LAYER-1
 10
5.266400
 20
7.464678
 30
0.000000
  0
VERTEX
  8
LAYER-1
 10
5.267070
 20
7.461411
 30
0.000000
  0
SEQEND
  8
LAYER-1
  0
POLYLINE
  8
LAYER-1
 66
  1
 70
  0
 62
  0
 10
4.443311
 20
7.460941
 30
0.000000
  0
VERTEX
  8
LAYER-1
 10
4.443311
 20
7.460941
 30
0.000000
  0
VERTEX
  8
LAYER-1
 10
4.423807
 20
7.470934
 30
0.000000
  0
VERTEX
  8
LAYER-1
 10
4.405733
 20
7.464208
 30
0.000000
  0
VERTEX
  8
LAYER-1
 10
4.406403
 20
7.460942
 30
0.000000
  0
SEQEND
  8
LAYER-1
  0
POLYLINE
  8
LAYER-1
 66
  1
 70
  0
 62
  0
 10
4.463774
 20
7.461500
 30
0.000000
  0
VERTEX
  8
LAYER-1
 10
4.463774
 20
7.461500
 30
0.000000
  0
VERTEX
  8
LAYER-1
 10
4.453022
 20
7.474506
 30
0.000000
  0
VERTEX
  8
LAYER-1
 10
4.439007
 20
7.476100
 30
0.000000
  0
VERTEX
  8
LAYER-1
 10
4.427970
 20
7.467316
 30
0.000000
  0
VERTEX
  8
LAYER-1
 10
4.428345
 20
7.461500
 30
0.000000
  0
SEQEND
  8
LAYER-1
  0
POLYLINE
  8
LAYER-1
 66
  1
 70
  0
 62
  0
 10
4.428346
 20
7.461500
 30
0.000000
  0
VERTEX
  8
LAYER-1
 10
4.428346
 20
7.461500
 30
0.000000
  0
VERTEX
  8
LAYER-1
 10
4.463774
 20
7.461500
 30
0.000000
  0
SEQEND
  8
LAYER-1
  0
POLYLINE
  8
LAYER-1
 66
  1
 70
  0
 62
  0
 10
5.255328
 20
7.461411
 30
0.000000
  0
VERTEX
  8
LAYER-1
 10
5.255328
 20
7.461411
 30
0.000000
  0
VERTEX
  8
LAYER-1
 10
5.235823
 20
7.471403
 30
0.000000
  0
VERTEX
  8
LAYER-1
 10
5.217750
 20
7.464678
 30
0.000000
  0
VERTEX
  8
LAYER-1
 10
5.218420
 20
7.461411
 30
0.000000
  0
SEQEND
  8
LAYER-1
  0
POLYLINE
  8
LAYER-1
 66
  1
 70
  0
 62
  0
 10
5.280022
 20
7.461500
 30
0.000000
  0
VERTEX
  8
LAYER-1
 10
5.280022
 20
7.461500
 30
0.000000
  0
VERTEX
  8
LAYER-1
 10
5.269269
 20
7.474506
 30
0.000000
  0
VERTEX
  8
LAYER-1
 10
5.255254
 20
7.476100
 30
0.000000
  0
VERTEX
  8
LAYER-1
 10
5.244217
 20
7.467316
 30
0.000000
  0
VERTEX
  8
LAYER-1
 10
5.244592
 20
7.461500
 30
0.000000
  0
SEQEND
  8
LAYER-1
  0
POLYLINE
  8
LAYER-1
 66
  1
 70
  0
 62
  0
 10
5.244593
 20
7.461500
 30
0.000000
  0
VERTEX
  8
LAYER-1
 10
5.244593
 20
7.461500
 30
0.000000
  0
VERTEX
  8
LAYER-1
 10
5.280021
 20
7.461500
 30
0.000000
  0
SEQEND
  8
LAYER-1
  0
POLYLINE
  8
LAYER-1
 66
  1
 70
  0
 62
  0
 10
4.004062
 20
7.189779
 30
0.000000
  0
VERTEX
  8
LAYER-1
 10
4.004062
 20
7.189779
 30
0.000000
  0
VERTEX
  8
LAYER-1
 10
4.014002
 20
7.182778
 30
0.000000
  0
VERTEX
  8
LAYER-1
 10
4.028765
 20
7.184856
 30
0.000000
  0
VERTEX
  8
LAYER-1
 10
4.037281
 20
7.189218
 30
0.000000
  0
SEQEND
  8
LAYER-1
  0
POLYLINE
  8
LAYER-1
 66
  1
 70
  0
 62
  0
 10
4.037281
 20
7.189218
 30
0.000000
  0
VERTEX
  8
LAYER-1
 10
4.037281
 20
7.189218
 30
0.000000
  0
VERTEX
  8
LAYER-1
 10
4.004062
 20
7.189779
 30
0.000000
  0
SEQEND
  8
LAYER-1
  0
POLYLINE
  8
LAYER-1
 66
  1
 70
  0
 62
  0
 10
4.039490
 20
7.189779
 30
0.000000
  0
VERTEX
  8
LAYER-1
 10
4.039490
 20
7.189779
 30
0.000000
  0
VERTEX
  8
LAYER-1
 10
4.052661
 20
7.182732
 30
0.000000
  0
VERTEX
  8
LAYER-1
 10
4.069742
 20
7.187064
 30
0.000000
  0
VERTEX
  8
LAYER-1
 10
4.076394
 20
7.189779
 30
0.000000
  0
SEQEND
  8
LAYER-1
  0
POLYLINE
  8
LAYER-1
 66
  1
 70
  0
 62
  0
 10
4.076393
 20
7.189779
 30
0.000000
  0
VERTEX
  8
LAYER-1
 10
4.076393
 20
7.189779
 30
0.000000
  0
VERTEX
  8
LAYER-1
 10
4.039491
 20
7.189779
 30
0.000000
  0
SEQEND
  8
LAYER-1
  0
POLYLINE
  8
LAYER-1
 66
  1
 70
  0
 62
  0
 10
4.406329
 20
7.189333
 30
0.000000
  0
VERTEX
  8
LAYER-1
 10
4.406329
 20
7.189333
 30
0.000000
  0
VERTEX
  8
LAYER-1
 10
4.421896
 20
7.183278
 30
0.000000
  0
VERTEX
  8
LAYER-1
 10
4.439970
 20
7.190003
 30
0.000000
  0
VERTEX
  8
LAYER-1
 10
4.443236
 20
7.189333
 30
0.000000
  0
SEQEND
  8
LAYER-1
  0
POLYLINE
  8
LAYER-1
 66
  1
 70
  0
 62
  0
 10
4.453569
 20
7.189333
 30
0.000000
  0
VERTEX
  8
LAYER-1
 10
4.453569
 20
7.189333
 30
0.000000
  0
VERTEX
  8
LAYER-1
 10
4.469137
 20
7.183278
 30
0.000000
  0
VERTEX
  8
LAYER-1
 10
4.487210
 20
7.190003
 30
0.000000
  0
VERTEX
  8
LAYER-1
 10
4.490477
 20
7.189333
 30
0.000000
  0
SEQEND
  8
LAYER-1
  0
POLYLINE
  8
LAYER-1
 66
  1
 70
  0
 62
  0
 10
4.427803
 20
7.189243
 30
0.000000
  0
VERTEX
  8
LAYER-1
 10
4.427803
 20
7.189243
 30
0.000000
  0
VERTEX
  8
LAYER-1
 10
4.434618
 20
7.180175
 30
0.000000
  0
VERTEX
  8
LAYER-1
 10
4.448633
 20
7.178582
 30
0.000000
  0
VERTEX
  8
LAYER-1
 10
4.459669
 20
7.187364
 30
0.000000
  0
VERTEX
  8
LAYER-1
 10
4.463232
 20
7.189243
 30
0.000000
  0
SEQEND
  8
LAYER-1
  0
POLYLINE
  8
LAYER-1
 66
  1
 70
  0
 62
  0
 10
4.427803
 20
7.189243
 30
0.000000
  0
VERTEX
  8
LAYER-1
 10
4.427803
 20
7.189243
 30
0.000000
  0
VERTEX
  8
LAYER-1
 10
4.463232
 20
7.189243
 30
0.000000
  0
SEQEND
  8
LAYER-1
  0
POLYLINE
  8
LAYER-1
 66
  1
 70
  0
 62
  0
 10
5.218884
 20
7.189333
 30
0.000000
  0
VERTEX
  8
LAYER-1
 10
5.218884
 20
7.189333
 30
0.000000
  0
VERTEX
  8
LAYER-1
 10
5.234451
 20
7.183278
 30
0.000000
  0
VERTEX
  8
LAYER-1
 10
5.252524
 20
7.190003
 30
0.000000
  0
VERTEX
  8
LAYER-1
 10
5.255792
 20
7.189333
 30
0.000000
  0
SEQEND
  8
LAYER-1
  0
POLYLINE
  8
LAYER-1
 66
  1
 70
  0
 62
  0
 10
5.267063
 20
7.189333
 30
0.000000
  0
VERTEX
  8
LAYER-1
 10
5.267063
 20
7.189333
 30
0.000000
  0
VERTEX
  8
LAYER-1
 10
5.282630
 20
7.183278
 30
0.000000
  0
VERTEX
  8
LAYER-1
 10
5.300704
 20
7.190003
 30
0.000000
  0
VERTEX
  8
LAYER-1
 10
5.303971
 20
7.189333
 30
0.000000
  0
SEQEND
  8
LAYER-1
  0
POLYLINE
  8
LAYER-1
 66
  1
 70
  0
 62
  0
 10
5.244586
 20
7.189243
 30
0.000000
  0
VERTEX
  8
LAYER-1
 10
5.244586
 20
7.189243
 30
0.000000
  0
VERTEX
  8
LAYER-1
 10
5.251401
 20
7.180175
 30
0.000000
  0
VERTEX
  8
LAYER-1
 10
5.265416
 20
7.178582
 30
0.000000
  0
VERTEX
  8
LAYER-1
 10
5.276453
 20
7.187364
 30
0.000000
  0
VERTEX
  8
LAYER-1
 10
5.280015
 20
7.189243
 30
0.000000
  0
SEQEND
  8
LAYER-1
  0
POLYLINE
  8
LAYER-1
 66
  1
 70
  0
 62
  0
 10
5.244587
 20
7.189243
 30
0.000000
  0
VERTEX
  8
LAYER-1
 10
5.244587
 20
7.189243
 30
0.000000
  0
VERTEX
  8
LAYER-1
 10
5.280015
 20
7.189243
 30
0.000000
  0
SEQEND
  8
LAYER-1
  0
POLYLINE
  8
LAYER-1
 66
  1
 70
  1
 62
  0
  0
VERTEX
  8
LAYER-1
 10
4.428346
 20
7.461434
 30
0.000000
  0
VERTEX
  8
LAYER-1
 10
4.463776
 20
7.461434
 30
0.000000
  0
VERTEX
  8
LAYER-1
 10
4.463776
 20
7.189805
 30
0.000000
  0
VERTEX
  8
LAYER-1
 10
4.428346
 20
7.189805
 30
0.000000
  0
SEQEND
  8
LAYER-1
  0
POLYLINE
  8
LAYER-1
 66
  1
 70
  1
 62
  0
  0
VERTEX
  8
LAYER-1
 10
5.244659
 20
7.461434
 30
0.000000
  0
VERTEX
  8
LAYER-1
 10
5.280089
 20
7.461434
 30
0.000000
  0
VERTEX
  8
LAYER-1
 10
5.280089
 20
7.189805
 30
0.000000
  0
VERTEX
  8
LAYER-1
 10
5.244659
 20
7.189805
 30
0.000000
  0
SEQEND
  8
LAYER-1
  0
POLYLINE
  8
LAYER-1
 66
  1
 70
  0
 62
  0
 10
4.428346
 20
7.393527
 30
0.000000
  0
VERTEX
  8
LAYER-1
 10
4.428346
 20
7.393527
 30
0.000000
  0
VERTEX
  8
LAYER-1
 10
4.463776
 20
7.393527
 30
0.000000
  0
SEQEND
  8
LAYER-1
  0
POLYLINE
  8
LAYER-1
 66
  1
 70
  0
 62
  0
 10
4.428346
 20
7.263618
 30
0.000000
  0
VERTEX
  8
LAYER-1
 10
4.428346
 20
7.263618
 30
0.000000
  0
VERTEX
  8
LAYER-1
 10
4.463776
 20
7.263618
 30
0.000000
  0
SEQEND
  8
LAYER-1
  0
POLYLINE
  8
LAYER-1
 66
  1
 70
  0
 62
  0
 10
5.244659
 20
7.393527
 30
0.000000
  0
VERTEX
  8
LAYER-1
 10
5.244659
 20
7.393527
 30
0.000000
  0
VERTEX
  8
LAYER-1
 10
5.280088
 20
7.393527
 30
0.000000
  0
SEQEND
  8
LAYER-1
  0
POLYLINE
  8
LAYER-1
 66
  1
 70
  0
 62
  0
 10
5.244659
 20
7.263618
 30
0.000000
  0
VERTEX
  8
LAYER-1
 10
5.244659
 20
7.263618
 30
0.000000
  0
VERTEX
  8
LAYER-1
 10
5.280088
 20
7.263618
 30
0.000000
  0
SEQEND
  8
LAYER-1
  0
POLYLINE
  8
LAYER-1
 66
  1
 70
  0
 62
  0
 10
4.259233
 20
7.461551
 30
0.000000
  0
VERTEX
  8
LAYER-1
 10
4.259233
 20
7.461551
 30
0.000000
  0
VERTEX
  8
LAYER-1
 10
4.245060
 20
7.472082
 30
0.000000
  0
VERTEX
  8
LAYER-1
 10
4.230376
 20
7.469508
 30
0.000000
  0
VERTEX
  8
LAYER-1
 10
4.226014
 20
7.460991
 30
0.000000
  0
SEQEND
  8
LAYER-1
  0
POLYLINE
  8
LAYER-1
 66
  1
 70
  0
 62
  0
 10
5.076411
 20
7.461372
 30
0.000000
  0
VERTEX
  8
LAYER-1
 10
5.076411
 20
7.461372
 30
0.000000
  0
VERTEX
  8
LAYER-1
 10
5.059303
 20
7.472356
 30
0.000000
  0
VERTEX
  8
LAYER-1
 10
5.042223
 20
7.468025
 30
0.000000
  0
VERTEX
  8
LAYER-1
 10
5.039508
 20
7.461373
 30
0.000000
  0
SEQEND
  8
LAYER-1
  0
POLYLINE
  8
LAYER-1
 66
  1
 70
  0
 62
  0
 10
4.819092
 20
7.189776
 30
0.000000
  0
VERTEX
  8
LAYER-1
 10
4.819092
 20
7.189776
 30
0.000000
  0
VERTEX
  8
LAYER-1
 10
4.829032
 20
7.182776
 30
0.000000
  0
VERTEX
  8
LAYER-1
 10
4.843795
 20
7.184853
 30
0.000000
  0
VERTEX
  8
LAYER-1
 10
4.852311
 20
7.189216
 30
0.000000
  0
SEQEND
  8
LAYER-1
  0
POLYLINE
  8
LAYER-1
 66
  1
 70
  0
 62
  0
 10
4.852311
 20
7.189216
 30
0.000000
  0
VERTEX
  8
LAYER-1
 10
4.852311
 20
7.189216
 30
0.000000
  0
VERTEX
  8
LAYER-1
 10
4.819092
 20
7.189776
 30
0.000000
  0
SEQEND
  8
LAYER-1
  0
POLYLINE
  8
LAYER-1
 66
  1
 70
  0
 62
  0
 10
4.854521
 20
7.189776
 30
0.000000
  0
VERTEX
  8
LAYER-1
 10
4.854521
 20
7.189776
 30
0.000000
  0
VERTEX
  8
LAYER-1
 10
4.867692
 20
7.182731
 30
0.000000
  0
VERTEX
  8
LAYER-1
 10
4.884772
 20
7.187062
 30
0.000000
  0
VERTEX
  8
LAYER-1
 10
4.891424
 20
7.189777
 30
0.000000
  0
SEQEND
  8
LAYER-1
  0
POLYLINE
  8
LAYER-1
 66
  1
 70
  0
 62
  0
 10
4.891424
 20
7.189777
 30
0.000000
  0
VERTEX
  8
LAYER-1
 10
4.891424
 20
7.189777
 30
0.000000
  0
VERTEX
  8
LAYER-1
 10
4.854521
 20
7.189776
 30
0.000000
  0
SEQEND
  8
LAYER-1
  0
POLYLINE
  8
LAYER-1
 66
  1
 70
  0
 62
  0
 10
4.890253
 20
7.461434
 30
0.000000
  0
VERTEX
  8
LAYER-1
 10
4.890253
 20
7.461434
 30
0.000000
  0
VERTEX
  8
LAYER-1
 10
4.890253
 20
7.189802
 30
0.000000
  0
SEQEND
  8
LAYER-1
  0
POLYLINE
  8
LAYER-1
 66
  1
 70
  0
 62
  0
 10
4.817919
 20
7.189806
 30
0.000000
  0
VERTEX
  8
LAYER-1
 10
4.817919
 20
7.189806
 30
0.000000
  0
VERTEX
  8
LAYER-1
 10
4.817919
 20
7.461434
 30
0.000000
  0
SEQEND
  8
LAYER-1
  0
POLYLINE
  8
LAYER-1
 66
  1
 70
  0
 62
  0
 10
4.853349
 20
7.461434
 30
0.000000
  0
VERTEX
  8
LAYER-1
 10
4.853349
 20
7.461434
 30
0.000000
  0
VERTEX
  8
LAYER-1
 10
4.853349
 20
7.189804
 30
0.000000
  0
SEQEND
  8
LAYER-1
  0
POLYLINE
  8
LAYER-1
 66
  1
 70
  0
 62
  0
 10
4.851443
 20
7.461853
 30
0.000000
  0
VERTEX
  8
LAYER-1
 10
4.851443
 20
7.461853
 30
0.000000
  0
VERTEX
  8
LAYER-1
 10
4.837271
 20
7.472385
 30
0.000000
  0
VERTEX
  8
LAYER-1
 10
4.822586
 20
7.469810
 30
0.000000
  0
VERTEX
  8
LAYER-1
 10
4.818224
 20
7.461294
 30
0.000000
  0
SEQEND
  8
LAYER-1
  0
POLYLINE
  8
LAYER-1
 66
  1
 70
  0
 62
  0
 10
4.851443
 20
7.461853
 30
0.000000
  0
VERTEX
  8
LAYER-1
 10
4.851443
 20
7.461853
 30
0.000000
  0
VERTEX
  8
LAYER-1
 10
4.818224
 20
7.461294
 30
0.000000
  0
SEQEND
  8
LAYER-1
  0
POLYLINE
  8
LAYER-1
 66
  1
 70
  0
 62
  0
 10
4.890555
 20
7.461292
 30
0.000000
  0
VERTEX
  8
LAYER-1
 10
4.890555
 20
7.461292
 30
0.000000
  0
VERTEX
  8
LAYER-1
 10
4.873447
 20
7.472276
 30
0.000000
  0
VERTEX
  8
LAYER-1
 10
4.856367
 20
7.467946
 30
0.000000
  0
VERTEX
  8
LAYER-1
 10
4.853652
 20
7.461294
 30
0.000000
  0
SEQEND
  8
LAYER-1
  0
POLYLINE
  8
LAYER-1
 66
  1
 70
  0
 62
  0
 10
4.890555
 20
7.461292
 30
0.000000
  0
VERTEX
  8
LAYER-1
 10
4.890555
 20
7.461292
 30
0.000000
  0
VERTEX
  8
LAYER-1
 10
4.853653
 20
7.461294
 30
0.000000
  0
SEQEND
  8
LAYER-1
  0
POLYLINE
  8
LAYER-1
 66
  1
 70
  0
 62
  0
 10
5.639092
 20
7.189776
 30
0.000000
  0
VERTEX
  8
LAYER-1
 10
5.639092
 20
7.189776
 30
0.000000
  0
VERTEX
  8
LAYER-1
 10
5.649032
 20
7.182776
 30
0.000000
  0
VERTEX
  8
LAYER-1
 10
5.663795
 20
7.184853
 30
0.000000
  0
VERTEX
  8
LAYER-1
 10
5.672312
 20
7.189216
 30
0.000000
  0
SEQEND
  8
LAYER-1
  0
POLYLINE
  8
LAYER-1
 66
  1
 70
  0
 62
  0
 10
5.672312
 20
7.189216
 30
0.000000
  0
VERTEX
  8
LAYER-1
 10
5.672312
 20
7.189216
 30
0.000000
  0
VERTEX
  8
LAYER-1
 10
5.639092
 20
7.189776
 30
0.000000
  0
SEQEND
  8
LAYER-1
  0
POLYLINE
  8
LAYER-1
 66
  1
 70
  0
 62
  0
 10
5.674521
 20
7.189776
 30
0.000000
  0
VERTEX
  8
LAYER-1
 10
5.674521
 20
7.189776
 30
0.000000
  0
VERTEX
  8
LAYER-1
 10
5.687692
 20
7.182731
 30
0.000000
  0
VERTEX
  8
LAYER-1
 10
5.704773
 20
7.187062
 30
0.000000
  0
VERTEX
  8
LAYER-1
 10
5.711425
 20
7.189777
 30
0.000000
  0
SEQEND
  8
LAYER-1
  0
POLYLINE
  8
LAYER-1
 66
  1
 70
  0
 62
  0
 10
5.711424
 20
7.189777
 30
0.000000
  0
VERTEX
  8
LAYER-1
 10
5.711424
 20
7.189777
 30
0.000000
  0
VERTEX
  8
LAYER-1
 10
5.674522
 20
7.189776
 30
0.000000
  0
SEQEND
  8
LAYER-1
  0
POLYLINE
  8
LAYER-1
 66
  1
 70
  0
 62
  0
 10
5.710253
 20
7.461434
 30
0.000000
  0
VERTEX
  8
LAYER-1
 10
5.710253
 20
7.461434
 30
0.000000
  0
VERTEX
  8
LAYER-1
 10
5.710253
 20
7.189802
 30
0.000000
  0
SEQEND
  8
LAYER-1
  0
POLYLINE
  8
LAYER-1
 66
  1
 70
  0
 62
  0
 10
5.637920
 20
7.189806
 30
0.000000
  0
VERTEX
  8
LAYER-1
 10
5.637920
 20
7.189806
 30
0.000000
  0
VERTEX
  8
LAYER-1
 10
5.637920
 20
7.461434
 30
0.000000
  0
SEQEND
  8
LAYER-1
  0
POLYLINE
  8
LAYER-1
 66
  1
 70
  0
 62
  0
 10
5.673349
 20
7.461434
 30
0.000000
  0
VERTEX
  8
LAYER-1
 10
5.673349
 20
7.461434
 30
0.000000
  0
VERTEX
  8
LAYER-1
 10
5.673349
 20
7.189804
 30
0.000000
  0
SEQEND
  8
LAYER-1
  0
POLYLINE
  8
LAYER-1
 66
  1
 70
  0
 62
  0
 10
5.671443
 20
7.461853
 30
0.000000
  0
VERTEX
  8
LAYER-1
 10
5.671443
 20
7.461853
 30
0.000000
  0
VERTEX
  8
LAYER-1
 10
5.657270
 20
7.472385
 30
0.000000
  0
VERTEX
  8
LAYER-1
 10
5.642586
 20
7.469810
 30
0.000000
  0
VERTEX
  8
LAYER-1
 10
5.638223
 20
7.461294
 30
0.000000
  0
SEQEND
  8
LAYER-1
  0
POLYLINE
  8
LAYER-1
 66
  1
 70
  0
 62
  0
 10
5.671443
 20
7.461853
 30
0.000000
  0
VERTEX
  8
LAYER-1
 10
5.671443
 20
7.461853
 30
0.000000
  0
VERTEX
  8
LAYER-1
 10
5.638224
 20
7.461294
 30
0.000000
  0
SEQEND
  8
LAYER-1
  0
POLYLINE
  8
LAYER-1
 66
  1
 70
  0
 62
  0
 10
5.710556
 20
7.461292
 30
0.000000
  0
VERTEX
  8
LAYER-1
 10
5.710556
 20
7.461292
 30
0.000000
  0
VERTEX
  8
LAYER-1
 10
5.693448
 20
7.472276
 30
0.000000
  0
VERTEX
  8
LAYER-1
 10
5.676367
 20
7.467946
 30
0.000000
  0
VERTEX
  8
LAYER-1
 10
5.673652
 20
7.461294
 30
0.000000
  0
SEQEND
  8
LAYER-1
  0
POLYLINE
  8
LAYER-1
 66
  1
 70
  0
 62
  0
 10
5.710555
 20
7.461292
 30
0.000000
  0
VERTEX
  8
LAYER-1
 10
5.710555
 20
7.461292
 30
0.000000
  0
VERTEX
  8
LAYER-1
 10
5.673653
 20
7.461294
 30
0.000000
  0
SEQEND
  8
LAYER-1
  0
POLYLINE
  8
LAYER-1
 66
  1
 70
  0
 62
  0
 10
3.813954
 20
7.393527
 30
0.000000
  0
VERTEX
  8
LAYER-1
 10
3.813954
 20
7.393527
 30
0.000000
  0
VERTEX
  8
LAYER-1
 10
3.853679
 20
7.393527
 30
0.000000
  0
SEQEND
  8
LAYER-1
  0
POLYLINE
  8
LAYER-1
 66
  1
 70
  0
 62
  0
 10
3.813954
 20
7.263618
 30
0.000000
  0
VERTEX
  8
LAYER-1
 10
3.813954
 20
7.263618
 30
0.000000
  0
VERTEX
  8
LAYER-1
 10
3.853679
 20
7.263618
 30
0.000000
  0
SEQEND
  8
LAYER-1
  0
POLYLINE
  8
LAYER-1
 66
  1
 70
  0
 62
  0
 10
3.852308
 20
7.466580
 30
0.000000
  0
VERTEX
  8
LAYER-1
 10
3.852308
 20
7.466580
 30
0.000000
  0
VERTEX
  8
LAYER-1
 10
3.835200
 20
7.477563
 30
0.000000
  0
VERTEX
  8
LAYER-1
 10
3.818120
 20
7.473233
 30
0.000000
  0
VERTEX
  8
LAYER-1
 10
3.815406
 20
7.466581
 30
0.000000
  0
SEQEND
  8
LAYER-1
  0
POLYLINE
  8
LAYER-1
 66
  1
 70
  1
 62
  0
  0
VERTEX
  8
LAYER-1
 10
3.808203
 20
7.467203
 30
0.000000
  0
VERTEX
  8
LAYER-1
 10
3.862817
 20
7.467203
 30
0.000000
  0
VERTEX
  8
LAYER-1
 10
3.862817
 20
7.461297
 30
0.000000
  0
VERTEX
  8
LAYER-1
 10
3.808203
 20
7.461297
 30
0.000000
  0
SEQEND
  8
LAYER-1
  0
POLYLINE
  8
LAYER-1
 66
  1
 70
  0
 62
  0
 10
3.854113
 20
7.461433
 30
0.000000
  0
VERTEX
  8
LAYER-1
 10
3.854113
 20
7.461433
 30
0.000000
  0
VERTEX
  8
LAYER-1
 10
3.854113
 20
7.189684
 30
0.000000
  0
SEQEND
  8
LAYER-1
  0
POLYLINE
  8
LAYER-1
 66
  1
 70
  0
 62
  0
 10
3.854102
 20
0.613297
 30
0.000000
  0
VERTEX
  8
LAYER-1
 10
3.854102
 20
0.613297
 30
0.000000
  0
VERTEX
  8
LAYER-1
 10
3.854102
 20
0.341598
 30
0.000000
  0
SEQEND
  8
LAYER-1
  0
POLYLINE
  8
LAYER-1
 66
  1
 70
  0
 62
  0
 10
4.075022
 20
0.341159
 30
0.000000
  0
VERTEX
  8
LAYER-1
 10
4.075022
 20
0.341159
 30
0.000000
  0
VERTEX
  8
LAYER-1
 10
4.075022
 20
0.612790
 30
0.000000
  0
SEQEND
  8
LAYER-1
  0
POLYLINE
  8
LAYER-1
 66
  1
 70
  0
 62
  0
 10
4.405520
 20
0.612790
 30
0.000000
  0
VERTEX
  8
LAYER-1
 10
4.405520
 20
0.612790
 30
0.000000
  0
VERTEX
  8
LAYER-1
 10
4.405520
 20
0.341159
 30
0.000000
  0
SEQEND
  8
LAYER-1
  0
POLYLINE
  8
LAYER-1
 66
  1
 70
  0
 62
  0
 10
5.218350
 20
0.612790
 30
0.000000
  0
VERTEX
  8
LAYER-1
 10
5.218350
 20
0.612790
 30
0.000000
  0
VERTEX
  8
LAYER-1
 10
5.218350
 20
0.341159
 30
0.000000
  0
SEQEND
  8
LAYER-1
  0
POLYLINE
  8
LAYER-1
 66
  1
 70
  0
 62
  0
 10
5.037184
 20
0.341119
 30
0.000000
  0
VERTEX
  8
LAYER-1
 10
5.037184
 20
0.341119
 30
0.000000
  0
VERTEX
  8
LAYER-1
 10
5.037184
 20
0.612747
 30
0.000000
  0
SEQEND
  8
LAYER-1
  0
POLYLINE
  8
LAYER-1
 66
  1
 70
  0
 62
  0
 10
5.077042
 20
0.341119
 30
0.000000
  0
VERTEX
  8
LAYER-1
 10
5.077042
 20
0.341119
 30
0.000000
  0
VERTEX
  8
LAYER-1
 10
5.077042
 20
0.612747
 30
0.000000
  0
SEQEND
  8
LAYER-1
  0
POLYLINE
  8
LAYER-1
 66
  1
 70
  0
 62
  0
 10
4.223166
 20
0.341119
 30
0.000000
  0
VERTEX
  8
LAYER-1
 10
4.223166
 20
0.341119
 30
0.000000
  0
VERTEX
  8
LAYER-1
 10
4.223166
 20
0.612747
 30
0.000000
  0
SEQEND
  8
LAYER-1
  0
POLYLINE
  8
LAYER-1
 66
  1
 70
  0
 62
  0
 10
4.261982
 20
0.341119
 30
0.000000
  0
VERTEX
  8
LAYER-1
 10
4.261982
 20
0.341119
 30
0.000000
  0
VERTEX
  8
LAYER-1
 10
4.261982
 20
0.612747
 30
0.000000
  0
SEQEND
  8
LAYER-1
  0
POLYLINE
  8
LAYER-1
 66
  1
 70
  0
 62
  0
 10
4.489841
 20
0.341159
 30
0.000000
  0
VERTEX
  8
LAYER-1
 10
4.489841
 20
0.341159
 30
0.000000
  0
VERTEX
  8
LAYER-1
 10
4.489841
 20
0.612790
 30
0.000000
  0
SEQEND
  8
LAYER-1
  0
POLYLINE
  8
LAYER-1
 66
  1
 70
  0
 62
  0
 10
5.302672
 20
0.341159
 30
0.000000
  0
VERTEX
  8
LAYER-1
 10
5.302672
 20
0.341159
 30
0.000000
  0
VERTEX
  8
LAYER-1
 10
5.302672
 20
0.612790
 30
0.000000
  0
SEQEND
  8
LAYER-1
  0
POLYLINE
  8
LAYER-1
 66
  1
 70
  0
 62
  0
 10
5.447578
 20
0.341554
 30
0.000000
  0
VERTEX
  8
LAYER-1
 10
5.447578
 20
0.341554
 30
0.000000
  0
VERTEX
  8
LAYER-1
 10
5.447578
 20
0.613182
 30
0.000000
  0
SEQEND
  8
LAYER-1
  0
POLYLINE
  8
LAYER-1
 66
  1
 70
  0
 62
  0
 10
5.485960
 20
0.341554
 30
0.000000
  0
VERTEX
  8
LAYER-1
 10
5.485960
 20
0.341554
 30
0.000000
  0
VERTEX
  8
LAYER-1
 10
5.485960
 20
0.613182
 30
0.000000
  0
SEQEND
  8
LAYER-1
  0
POLYLINE
  8
LAYER-1
 66
  1
 70
  0
 62
  0
 10
4.629739
 20
0.341084
 30
0.000000
  0
VERTEX
  8
LAYER-1
 10
4.629739
 20
0.341084
 30
0.000000
  0
VERTEX
  8
LAYER-1
 10
4.629739
 20
0.612711
 30
0.000000
  0
SEQEND
  8
LAYER-1
  0
POLYLINE
  8
LAYER-1
 66
  1
 70
  0
 62
  0
 10
4.668122
 20
0.341084
 30
0.000000
  0
VERTEX
  8
LAYER-1
 10
4.668122
 20
0.341084
 30
0.000000
  0
VERTEX
  8
LAYER-1
 10
4.668122
 20
0.612711
 30
0.000000
  0
SEQEND
  8
LAYER-1
  0
POLYLINE
  8
LAYER-1
 66
  1
 70
  0
 62
  0
 10
4.002690
 20
0.612786
 30
0.000000
  0
VERTEX
  8
LAYER-1
 10
4.002690
 20
0.612786
 30
0.000000
  0
VERTEX
  8
LAYER-1
 10
4.002690
 20
0.341158
 30
0.000000
  0
SEQEND
  8
LAYER-1
  0
POLYLINE
  8
LAYER-1
 66
  1
 70
  0
 62
  0
 10
4.038119
 20
0.341158
 30
0.000000
  0
VERTEX
  8
LAYER-1
 10
4.038119
 20
0.341158
 30
0.000000
  0
VERTEX
  8
LAYER-1
 10
4.038119
 20
0.612788
 30
0.000000
  0
SEQEND
  8
LAYER-1
  0
POLYLINE
  8
LAYER-1
 66
  1
 70
  0
 62
  0
 10
4.003594
 20
0.341158
 30
0.000000
  0
VERTEX
  8
LAYER-1
 10
4.003594
 20
0.341158
 30
0.000000
  0
VERTEX
  8
LAYER-1
 10
4.013533
 20
0.334157
 30
0.000000
  0
VERTEX
  8
LAYER-1
 10
4.028296
 20
0.336235
 30
0.000000
  0
VERTEX
  8
LAYER-1
 10
4.037149
 20
0.341146
 30
0.000000
  0
SEQEND
  8
LAYER-1
  0
POLYLINE
  8
LAYER-1
 66
  1
 70
  0
 62
  0
 10
4.038119
 20
0.341158
 30
0.000000
  0
VERTEX
  8
LAYER-1
 10
4.038119
 20
0.341158
 30
0.000000
  0
VERTEX
  8
LAYER-1
 10
4.051290
 20
0.334111
 30
0.000000
  0
VERTEX
  8
LAYER-1
 10
4.068370
 20
0.338442
 30
0.000000
  0
VERTEX
  8
LAYER-1
 10
4.075021
 20
0.341159
 30
0.000000
  0
SEQEND
  8
LAYER-1
  0
POLYLINE
  8
LAYER-1
 66
  1
 70
  0
 62
  0
 10
4.453673
 20
0.341651
 30
0.000000
  0
VERTEX
  8
LAYER-1
 10
4.453673
 20
0.341651
 30
0.000000
  0
VERTEX
  8
LAYER-1
 10
4.469240
 20
0.335596
 30
0.000000
  0
VERTEX
  8
LAYER-1
 10
4.487314
 20
0.342322
 30
0.000000
  0
VERTEX
  8
LAYER-1
 10
4.490581
 20
0.341651
 30
0.000000
  0
SEQEND
  8
LAYER-1
  0
POLYLINE
  8
LAYER-1
 66
  1
 70
  0
 62
  0
 10
5.266632
 20
0.341182
 30
0.000000
  0
VERTEX
  8
LAYER-1
 10
5.266632
 20
0.341182
 30
0.000000
  0
VERTEX
  8
LAYER-1
 10
5.282199
 20
0.335127
 30
0.000000
  0
VERTEX
  8
LAYER-1
 10
5.300273
 20
0.341852
 30
0.000000
  0
VERTEX
  8
LAYER-1
 10
5.303539
 20
0.341182
 30
0.000000
  0
SEQEND
  8
LAYER-1
  0
POLYLINE
  8
LAYER-1
 66
  1
 70
  0
 62
  0
 10
4.405964
 20
0.341651
 30
0.000000
  0
VERTEX
  8
LAYER-1
 10
4.405964
 20
0.341651
 30
0.000000
  0
VERTEX
  8
LAYER-1
 10
4.421531
 20
0.335596
 30
0.000000
  0
VERTEX
  8
LAYER-1
 10
4.439605
 20
0.342322
 30
0.000000
  0
VERTEX
  8
LAYER-1
 10
4.442872
 20
0.341651
 30
0.000000
  0
SEQEND
  8
LAYER-1
  0
POLYLINE
  8
LAYER-1
 66
  1
 70
  0
 62
  0
 10
4.427907
 20
0.341093
 30
0.000000
  0
VERTEX
  8
LAYER-1
 10
4.427907
 20
0.341093
 30
0.000000
  0
VERTEX
  8
LAYER-1
 10
4.434722
 20
0.332024
 30
0.000000
  0
VERTEX
  8
LAYER-1
 10
4.448737
 20
0.330431
 30
0.000000
  0
VERTEX
  8
LAYER-1
 10
4.459774
 20
0.339214
 30
0.000000
  0
VERTEX
  8
LAYER-1
 10
4.463336
 20
0.341093
 30
0.000000
  0
SEQEND
  8
LAYER-1
  0
POLYLINE
  8
LAYER-1
 66
  1
 70
  0
 62
  0
 10
4.427907
 20
0.341092
 30
0.000000
  0
VERTEX
  8
LAYER-1
 10
4.427907
 20
0.341092
 30
0.000000
  0
VERTEX
  8
LAYER-1
 10
4.463336
 20
0.341092
 30
0.000000
  0
SEQEND
  8
LAYER-1
  0
POLYLINE
  8
LAYER-1
 66
  1
 70
  0
 62
  0
 10
5.217982
 20
0.341181
 30
0.000000
  0
VERTEX
  8
LAYER-1
 10
5.217982
 20
0.341181
 30
0.000000
  0
VERTEX
  8
LAYER-1
 10
5.233549
 20
0.335127
 30
0.000000
  0
VERTEX
  8
LAYER-1
 10
5.251623
 20
0.341852
 30
0.000000
  0
VERTEX
  8
LAYER-1
 10
5.254889
 20
0.341182
 30
0.000000
  0
SEQEND
  8
LAYER-1
  0
POLYLINE
  8
LAYER-1
 66
  1
 70
  0
 62
  0
 10
5.244153
 20
0.341093
 30
0.000000
  0
VERTEX
  8
LAYER-1
 10
5.244153
 20
0.341093
 30
0.000000
  0
VERTEX
  8
LAYER-1
 10
5.250969
 20
0.332024
 30
0.000000
  0
VERTEX
  8
LAYER-1
 10
5.264984
 20
0.330431
 30
0.000000
  0
VERTEX
  8
LAYER-1
 10
5.276020
 20
0.339214
 30
0.000000
  0
VERTEX
  8
LAYER-1
 10
5.279583
 20
0.341093
 30
0.000000
  0
SEQEND
  8
LAYER-1
  0
POLYLINE
  8
LAYER-1
 66
  1
 70
  0
 62
  0
 10
5.244155
 20
0.341092
 30
0.000000
  0
VERTEX
  8
LAYER-1
 10
5.244155
 20
0.341092
 30
0.000000
  0
VERTEX
  8
LAYER-1
 10
5.279583
 20
0.341092
 30
0.000000
  0
SEQEND
  8
LAYER-1
  0
POLYLINE
  8
LAYER-1
 66
  1
 70
  0
 62
  0
 10
4.036843
 20
0.613374
 30
0.000000
  0
VERTEX
  8
LAYER-1
 10
4.036843
 20
0.613374
 30
0.000000
  0
VERTEX
  8
LAYER-1
 10
4.022670
 20
0.623906
 30
0.000000
  0
VERTEX
  8
LAYER-1
 10
4.007986
 20
0.621331
 30
0.000000
  0
VERTEX
  8
LAYER-1
 10
4.003624
 20
0.612815
 30
0.000000
  0
SEQEND
  8
LAYER-1
  0
POLYLINE
  8
LAYER-1
 66
  1
 70
  0
 62
  0
 10
4.036843
 20
0.613374
 30
0.000000
  0
VERTEX
  8
LAYER-1
 10
4.036843
 20
0.613374
 30
0.000000
  0
VERTEX
  8
LAYER-1
 10
4.003624
 20
0.612815
 30
0.000000
  0
SEQEND
  8
LAYER-1
  0
POLYLINE
  8
LAYER-1
 66
  1
 70
  0
 62
  0
 10
4.075956
 20
0.612812
 30
0.000000
  0
VERTEX
  8
LAYER-1
 10
4.075956
 20
0.612812
 30
0.000000
  0
VERTEX
  8
LAYER-1
 10
4.058848
 20
0.623796
 30
0.000000
  0
VERTEX
  8
LAYER-1
 10
4.041768
 20
0.619465
 30
0.000000
  0
VERTEX
  8
LAYER-1
 10
4.039052
 20
0.612812
 30
0.000000
  0
SEQEND
  8
LAYER-1
  0
POLYLINE
  8
LAYER-1
 66
  1
 70
  0
 62
  0
 10
4.075954
 20
0.612812
 30
0.000000
  0
VERTEX
  8
LAYER-1
 10
4.075954
 20
0.612812
 30
0.000000
  0
VERTEX
  8
LAYER-1
 10
4.039053
 20
0.612815
 30
0.000000
  0
SEQEND
  8
LAYER-1
  0
POLYLINE
  8
LAYER-1
 66
  1
 70
  0
 62
  0
 10
4.442797
 20
0.613258
 30
0.000000
  0
VERTEX
  8
LAYER-1
 10
4.442797
 20
0.613258
 30
0.000000
  0
VERTEX
  8
LAYER-1
 10
4.423294
 20
0.623251
 30
0.000000
  0
VERTEX
  8
LAYER-1
 10
4.405220
 20
0.616525
 30
0.000000
  0
VERTEX
  8
LAYER-1
 10
4.405890
 20
0.613261
 30
0.000000
  0
SEQEND
  8
LAYER-1
  0
POLYLINE
  8
LAYER-1
 66
  1
 70
  0
 62
  0
 10
4.490039
 20
0.613258
 30
0.000000
  0
VERTEX
  8
LAYER-1
 10
4.490039
 20
0.613258
 30
0.000000
  0
VERTEX
  8
LAYER-1
 10
4.470535
 20
0.623251
 30
0.000000
  0
VERTEX
  8
LAYER-1
 10
4.452461
 20
0.616525
 30
0.000000
  0
VERTEX
  8
LAYER-1
 10
4.453131
 20
0.613261
 30
0.000000
  0
SEQEND
  8
LAYER-1
  0
POLYLINE
  8
LAYER-1
 66
  1
 70
  0
 62
  0
 10
4.462793
 20
0.613348
 30
0.000000
  0
VERTEX
  8
LAYER-1
 10
4.462793
 20
0.613348
 30
0.000000
  0
VERTEX
  8
LAYER-1
 10
4.452041
 20
0.626354
 30
0.000000
  0
VERTEX
  8
LAYER-1
 10
4.438026
 20
0.627947
 30
0.000000
  0
VERTEX
  8
LAYER-1
 10
4.426989
 20
0.619164
 30
0.000000
  0
VERTEX
  8
LAYER-1
 10
4.427364
 20
0.613348
 30
0.000000
  0
SEQEND
  8
LAYER-1
  0
POLYLINE
  8
LAYER-1
 66
  1
 70
  0
 62
  0
 10
4.427365
 20
0.613349
 30
0.000000
  0
VERTEX
  8
LAYER-1
 10
4.427365
 20
0.613349
 30
0.000000
  0
VERTEX
  8
LAYER-1
 10
4.462793
 20
0.613349
 30
0.000000
  0
SEQEND
  8
LAYER-1
  0
POLYLINE
  8
LAYER-1
 66
  1
 70
  0
 62
  0
 10
5.255352
 20
0.613258
 30
0.000000
  0
VERTEX
  8
LAYER-1
 10
5.255352
 20
0.613258
 30
0.000000
  0
VERTEX
  8
LAYER-1
 10
5.235848
 20
0.623251
 30
0.000000
  0
VERTEX
  8
LAYER-1
 10
5.217775
 20
0.616525
 30
0.000000
  0
VERTEX
  8
LAYER-1
 10
5.218445
 20
0.613261
 30
0.000000
  0
SEQEND
  8
LAYER-1
  0
POLYLINE
  8
LAYER-1
 66
  1
 70
  0
 62
  0
 10
5.303532
 20
0.613258
 30
0.000000
  0
VERTEX
  8
LAYER-1
 10
5.303532
 20
0.613258
 30
0.000000
  0
VERTEX
  8
LAYER-1
 10
5.284029
 20
0.623251
 30
0.000000
  0
VERTEX
  8
LAYER-1
 10
5.265955
 20
0.616525
 30
0.000000
  0
VERTEX
  8
LAYER-1
 10
5.266625
 20
0.613261
 30
0.000000
  0
SEQEND
  8
LAYER-1
  0
POLYLINE
  8
LAYER-1
 66
  1
 70
  0
 62
  0
 10
5.279577
 20
0.613348
 30
0.000000
  0
VERTEX
  8
LAYER-1
 10
5.279577
 20
0.613348
 30
0.000000
  0
VERTEX
  8
LAYER-1
 10
5.268825
 20
0.626354
 30
0.000000
  0
VERTEX
  8
LAYER-1
 10
5.254809
 20
0.627947
 30
0.000000
  0
VERTEX
  8
LAYER-1
 10
5.243773
 20
0.619164
 30
0.000000
  0
VERTEX
  8
LAYER-1
 10
5.244148
 20
0.613348
 30
0.000000
  0
SEQEND
  8
LAYER-1
  0
POLYLINE
  8
LAYER-1
 66
  1
 70
  0
 62
  0
 10
5.244148
 20
0.613349
 30
0.000000
  0
VERTEX
  8
LAYER-1
 10
5.244148
 20
0.613349
 30
0.000000
  0
VERTEX
  8
LAYER-1
 10
5.279576
 20
0.613349
 30
0.000000
  0
SEQEND
  8
LAYER-1
  0
POLYLINE
  8
LAYER-1
 66
  1
 70
  1
 62
  0
  0
VERTEX
  8
LAYER-1
 10
4.463337
 20
0.341159
 30
0.000000
  0
VERTEX
  8
LAYER-1
 10
4.427907
 20
0.341159
 30
0.000000
  0
VERTEX
  8
LAYER-1
 10
4.427907
 20
0.612788
 30
0.000000
  0
VERTEX
  8
LAYER-1
 10
4.463337
 20
0.612788
 30
0.000000
  0
SEQEND
  8
LAYER-1
  0
POLYLINE
  8
LAYER-1
 66
  1
 70
  1
 62
  0
  0
VERTEX
  8
LAYER-1
 10
5.279651
 20
0.341159
 30
0.000000
  0
VERTEX
  8
LAYER-1
 10
5.244221
 20
0.341159
 30
0.000000
  0
VERTEX
  8
LAYER-1
 10
5.244221
 20
0.612788
 30
0.000000
  0
VERTEX
  8
LAYER-1
 10
5.279651
 20
0.612788
 30
0.000000
  0
SEQEND
  8
LAYER-1
  0
POLYLINE
  8
LAYER-1
 66
  1
 70
  0
 62
  0
 10
4.427907
 20
0.409065
 30
0.000000
  0
VERTEX
  8
LAYER-1
 10
4.427907
 20
0.409065
 30
0.000000
  0
VERTEX
  8
LAYER-1
 10
4.463337
 20
0.409065
 30
0.000000
  0
SEQEND
  8
LAYER-1
  0
POLYLINE
  8
LAYER-1
 66
  1
 70
  0
 62
  0
 10
4.427907
 20
0.538974
 30
0.000000
  0
VERTEX
  8
LAYER-1
 10
4.427907
 20
0.538974
 30
0.000000
  0
VERTEX
  8
LAYER-1
 10
4.463337
 20
0.538974
 30
0.000000
  0
SEQEND
  8
LAYER-1
  0
POLYLINE
  8
LAYER-1
 66
  1
 70
  0
 62
  0
 10
5.244221
 20
0.409065
 30
0.000000
  0
VERTEX
  8
LAYER-1
 10
5.244221
 20
0.409065
 30
0.000000
  0
VERTEX
  8
LAYER-1
 10
5.279649
 20
0.409065
 30
0.000000
  0
SEQEND
  8
LAYER-1
  0
POLYLINE
  8
LAYER-1
 66
  1
 70
  0
 62
  0
 10
5.244221
 20
0.538974
 30
0.000000
  0
VERTEX
  8
LAYER-1
 10
5.244221
 20
0.538974
 30
0.000000
  0
VERTEX
  8
LAYER-1
 10
5.279649
 20
0.538974
 30
0.000000
  0
SEQEND
  8
LAYER-1
  0
POLYLINE
  8
LAYER-1
 66
  1
 70
  0
 62
  0
 10
4.225575
 20
0.341601
 30
0.000000
  0
VERTEX
  8
LAYER-1
 10
4.225575
 20
0.341601
 30
0.000000
  0
VERTEX
  8
LAYER-1
 10
4.235515
 20
0.334601
 30
0.000000
  0
VERTEX
  8
LAYER-1
 10
4.250278
 20
0.336679
 30
0.000000
  0
VERTEX
  8
LAYER-1
 10
4.258794
 20
0.341042
 30
0.000000
  0
SEQEND
  8
LAYER-1
  0
POLYLINE
  8
LAYER-1
 66
  1
 70
  0
 62
  0
 10
5.039068
 20
0.341219
 30
0.000000
  0
VERTEX
  8
LAYER-1
 10
5.039068
 20
0.341219
 30
0.000000
  0
VERTEX
  8
LAYER-1
 10
5.052241
 20
0.334174
 30
0.000000
  0
VERTEX
  8
LAYER-1
 10
5.069320
 20
0.338505
 30
0.000000
  0
VERTEX
  8
LAYER-1
 10
5.075973
 20
0.341220
 30
0.000000
  0
SEQEND
  8
LAYER-1
  0
POLYLINE
  8
LAYER-1
 66
  1
 70
  0
 62
  0
 10
4.851873
 20
0.613376
 30
0.000000
  0
VERTEX
  8
LAYER-1
 10
4.851873
 20
0.613376
 30
0.000000
  0
VERTEX
  8
LAYER-1
 10
4.837701
 20
0.623907
 30
0.000000
  0
VERTEX
  8
LAYER-1
 10
4.823016
 20
0.621333
 30
0.000000
  0
VERTEX
  8
LAYER-1
 10
4.818654
 20
0.612817
 30
0.000000
  0
SEQEND
  8
LAYER-1
  0
POLYLINE
  8
LAYER-1
 66
  1
 70
  0
 62
  0
 10
4.851872
 20
0.613376
 30
0.000000
  0
VERTEX
  8
LAYER-1
 10
4.851872
 20
0.613376
 30
0.000000
  0
VERTEX
  8
LAYER-1
 10
4.818654
 20
0.612817
 30
0.000000
  0
SEQEND
  8
LAYER-1
  0
POLYLINE
  8
LAYER-1
 66
  1
 70
  0
 62
  0
 10
4.890985
 20
0.612816
 30
0.000000
  0
VERTEX
  8
LAYER-1
 10
4.890985
 20
0.612816
 30
0.000000
  0
VERTEX
  8
LAYER-1
 10
4.873877
 20
0.623800
 30
0.000000
  0
VERTEX
  8
LAYER-1
 10
4.856797
 20
0.619469
 30
0.000000
  0
VERTEX
  8
LAYER-1
 10
4.854081
 20
0.612817
 30
0.000000
  0
SEQEND
  8
LAYER-1
  0
POLYLINE
  8
LAYER-1
 66
  1
 70
  0
 62
  0
 10
4.890986
 20
0.612815
 30
0.000000
  0
VERTEX
  8
LAYER-1
 10
4.890986
 20
0.612815
 30
0.000000
  0
VERTEX
  8
LAYER-1
 10
4.854082
 20
0.612817
 30
0.000000
  0
SEQEND
  8
LAYER-1
  0
POLYLINE
  8
LAYER-1
 66
  1
 70
  0
 62
  0
 10
4.889814
 20
0.341159
 30
0.000000
  0
VERTEX
  8
LAYER-1
 10
4.889814
 20
0.341159
 30
0.000000
  0
VERTEX
  8
LAYER-1
 10
4.889814
 20
0.612790
 30
0.000000
  0
SEQEND
  8
LAYER-1
  0
POLYLINE
  8
LAYER-1
 66
  1
 70
  0
 62
  0
 10
4.817480
 20
0.612786
 30
0.000000
  0
VERTEX
  8
LAYER-1
 10
4.817480
 20
0.612786
 30
0.000000
  0
VERTEX
  8
LAYER-1
 10
4.817480
 20
0.341158
 30
0.000000
  0
SEQEND
  8
LAYER-1
  0
POLYLINE
  8
LAYER-1
 66
  1
 70
  0
 62
  0
 10
4.852910
 20
0.341158
 30
0.000000
  0
VERTEX
  8
LAYER-1
 10
4.852910
 20
0.341158
 30
0.000000
  0
VERTEX
  8
LAYER-1
 10
4.852910
 20
0.612788
 30
0.000000
  0
SEQEND
  8
LAYER-1
  0
POLYLINE
  8
LAYER-1
 66
  1
 70
  0
 62
  0
 10
4.817785
 20
0.341299
 30
0.000000
  0
VERTEX
  8
LAYER-1
 10
4.817785
 20
0.341299
 30
0.000000
  0
VERTEX
  8
LAYER-1
 10
4.827725
 20
0.334299
 30
0.000000
  0
VERTEX
  8
LAYER-1
 10
4.842488
 20
0.336377
 30
0.000000
  0
VERTEX
  8
LAYER-1
 10
4.851004
 20
0.340740
 30
0.000000
  0
SEQEND
  8
LAYER-1
  0
POLYLINE
  8
LAYER-1
 66
  1
 70
  0
 62
  0
 10
4.851004
 20
0.340738
 30
0.000000
  0
VERTEX
  8
LAYER-1
 10
4.851004
 20
0.340738
 30
0.000000
  0
VERTEX
  8
LAYER-1
 10
4.817785
 20
0.341299
 30
0.000000
  0
SEQEND
  8
LAYER-1
  0
POLYLINE
  8
LAYER-1
 66
  1
 70
  0
 62
  0
 10
4.853214
 20
0.341299
 30
0.000000
  0
VERTEX
  8
LAYER-1
 10
4.853214
 20
0.341299
 30
0.000000
  0
VERTEX
  8
LAYER-1
 10
4.866385
 20
0.334253
 30
0.000000
  0
VERTEX
  8
LAYER-1
 10
4.883465
 20
0.338584
 30
0.000000
  0
VERTEX
  8
LAYER-1
 10
4.890117
 20
0.341300
 30
0.000000
  0
SEQEND
  8
LAYER-1
  0
POLYLINE
  8
LAYER-1
 66
  1
 70
  0
 62
  0
 10
4.890117
 20
0.341299
 30
0.000000
  0
VERTEX
  8
LAYER-1
 10
4.890117
 20
0.341299
 30
0.000000
  0
VERTEX
  8
LAYER-1
 10
4.853214
 20
0.341299
 30
0.000000
  0
SEQEND
  8
LAYER-1
  0
POLYLINE
  8
LAYER-1
 66
  1
 70
  0
 62
  0
 10
5.671872
 20
0.613376
 30
0.000000
  0
VERTEX
  8
LAYER-1
 10
5.671872
 20
0.613376
 30
0.000000
  0
VERTEX
  8
LAYER-1
 10
5.657700
 20
0.623907
 30
0.000000
  0
VERTEX
  8
LAYER-1
 10
5.643016
 20
0.621333
 30
0.000000
  0
VERTEX
  8
LAYER-1
 10
5.638653
 20
0.612817
 30
0.000000
  0
SEQEND
  8
LAYER-1
  0
POLYLINE
  8
LAYER-1
 66
  1
 70
  0
 62
  0
 10
5.671872
 20
0.613376
 30
0.000000
  0
VERTEX
  8
LAYER-1
 10
5.671872
 20
0.613376
 30
0.000000
  0
VERTEX
  8
LAYER-1
 10
5.638654
 20
0.612817
 30
0.000000
  0
SEQEND
  8
LAYER-1
  0
POLYLINE
  8
LAYER-1
 66
  1
 70
  0
 62
  0
 10
5.710985
 20
0.612816
 30
0.000000
  0
VERTEX
  8
LAYER-1
 10
5.710985
 20
0.612816
 30
0.000000
  0
VERTEX
  8
LAYER-1
 10
5.693877
 20
0.623800
 30
0.000000
  0
VERTEX
  8
LAYER-1
 10
5.676797
 20
0.619469
 30
0.000000
  0
VERTEX
  8
LAYER-1
 10
5.674082
 20
0.612817
 30
0.000000
  0
SEQEND
  8
LAYER-1
  0
POLYLINE
  8
LAYER-1
 66
  1
 70
  0
 62
  0
 10
5.710985
 20
0.612815
 30
0.000000
  0
VERTEX
  8
LAYER-1
 10
5.710985
 20
0.612815
 30
0.000000
  0
VERTEX
  8
LAYER-1
 10
5.674082
 20
0.612817
 30
0.000000
  0
SEQEND
  8
LAYER-1
  0
POLYLINE
  8
LAYER-1
 66
  1
 70
  0
 62
  0
 10
5.709814
 20
0.341159
 30
0.000000
  0
VERTEX
  8
LAYER-1
 10
5.709814
 20
0.341159
 30
0.000000
  0
VERTEX
  8
LAYER-1
 10
5.709814
 20
0.612790
 30
0.000000
  0
SEQEND
  8
LAYER-1
  0
POLYLINE
  8
LAYER-1
 66
  1
 70
  0
 62
  0
 10
5.637480
 20
0.612786
 30
0.000000
  0
VERTEX
  8
LAYER-1
 10
5.637480
 20
0.612786
 30
0.000000
  0
VERTEX
  8
LAYER-1
 10
5.637480
 20
0.341158
 30
0.000000
  0
SEQEND
  8
LAYER-1
  0
POLYLINE
  8
LAYER-1
 66
  1
 70
  0
 62
  0
 10
5.672910
 20
0.341158
 30
0.000000
  0
VERTEX
  8
LAYER-1
 10
5.672910
 20
0.341158
 30
0.000000
  0
VERTEX
  8
LAYER-1
 10
5.672910
 20
0.612788
 30
0.000000
  0
SEQEND
  8
LAYER-1
  0
POLYLINE
  8
LAYER-1
 66
  1
 70
  0
 62
  0
 10
5.637785
 20
0.341299
 30
0.000000
  0
VERTEX
  8
LAYER-1
 10
5.637785
 20
0.341299
 30
0.000000
  0
VERTEX
  8
LAYER-1
 10
5.647725
 20
0.334299
 30
0.000000
  0
VERTEX
  8
LAYER-1
 10
5.662488
 20
0.336377
 30
0.000000
  0
VERTEX
  8
LAYER-1
 10
5.671004
 20
0.340740
 30
0.000000
  0
SEQEND
  8
LAYER-1
  0
POLYLINE
  8
LAYER-1
 66
  1
 70
  0
 62
  0
 10
5.671004
 20
0.340738
 30
0.000000
  0
VERTEX
  8
LAYER-1
 10
5.671004
 20
0.340738
 30
0.000000
  0
VERTEX
  8
LAYER-1
 10
5.637785
 20
0.341299
 30
0.000000
  0
SEQEND
  8
LAYER-1
  0
POLYLINE
  8
LAYER-1
 66
  1
 70
  0
 62
  0
 10
5.673214
 20
0.341299
 30
0.000000
  0
VERTEX
  8
LAYER-1
 10
5.673214
 20
0.341299
 30
0.000000
  0
VERTEX
  8
LAYER-1
 10
5.686385
 20
0.334253
 30
0.000000
  0
VERTEX
  8
LAYER-1
 10
5.703465
 20
0.338584
 30
0.000000
  0
VERTEX
  8
LAYER-1
 10
5.710117
 20
0.341300
 30
0.000000
  0
SEQEND
  8
LAYER-1
  0
POLYLINE
  8
LAYER-1
 66
  1
 70
  0
 62
  0
 10
5.710117
 20
0.341299
 30
0.000000
  0
VERTEX
  8
LAYER-1
 10
5.710117
 20
0.341299
 30
0.000000
  0
VERTEX
  8
LAYER-1
 10
5.673214
 20
0.341299
 30
0.000000
  0
SEQEND
  8
LAYER-1
  0
POLYLINE
  8
LAYER-1
 66
  1
 70
  0
 62
  0
 40
0.027778
 41
0.027778
 10
3.644370
 20
0.237216
 30
0.000000
  0
VERTEX
  8
LAYER-1
 10
3.644370
 20
0.237216
 30
0.000000
  0
VERTEX
  8
LAYER-1
 10
0.742741
 20
0.237216
 30
0.000000
  0
SEQEND
  8
LAYER-1
  0
POLYLINE
  8
LAYER-1
 66
  1
 70
  0
 62
  0
 40
0.027778
 41
0.027778
 10
3.737987
 20
0.237216
 30
0.000000
  0
VERTEX
  8
LAYER-1
 10
3.737987
 20
0.237216
 30
0.000000
  0
VERTEX
  8
LAYER-1
 10
6.735797
 20
0.237216
 30
0.000000
  0
SEQEND
  8
LAYER-1
  0
POLYLINE
  8
LAYER-1
 66
  1
 70
  0
 62
  0
 10
3.642812
 20
2.258422
 30
0.000000
  0
VERTEX
  8
LAYER-1
 10
3.642812
 20
2.258422
 30
0.000000
  0
VERTEX
  8
LAYER-1
 10
1.767915
 20
2.258422
 30
0.000000
  0
SEQEND
  8
LAYER-1
  0
POLYLINE
  8
LAYER-1
 66
  1
 70
  0
 62
  0
 10
3.642812
 20
3.902453
 30
0.000000
  0
VERTEX
  8
LAYER-1
 10
3.642812
 20
3.902453
 30
0.000000
  0
VERTEX
  8
LAYER-1
 10
1.767915
 20
3.902453
 30
0.000000
  0
SEQEND
  8
LAYER-1
  0
POLYLINE
  8
LAYER-1
 66
  1
 70
  0
 62
  0
 10
3.642812
 20
5.546480
 30
0.000000
  0
VERTEX
  8
LAYER-1
 10
3.642812
 20
5.546480
 30
0.000000
  0
VERTEX
  8
LAYER-1
 10
1.767915
 20
5.546480
 30
0.000000
  0
SEQEND
  8
LAYER-1
  0
POLYLINE
  8
LAYER-1
 66
  1
 70
  0
 62
  0
 10
3.642915
 20
1.436589
 30
0.000000
  0
VERTEX
  8
LAYER-1
 10
3.642915
 20
1.436589
 30
0.000000
  0
VERTEX
  8
LAYER-1
 10
1.767915
 20
1.436589
 30
0.000000
  0
SEQEND
  8
LAYER-1
  0
POLYLINE
  8
LAYER-1
 66
  1
 70
  0
 62
  0
 10
3.642915
 20
3.080617
 30
0.000000
  0
VERTEX
  8
LAYER-1
 10
3.642915
 20
3.080617
 30
0.000000
  0
VERTEX
  8
LAYER-1
 10
1.767915
 20
3.080617
 30
0.000000
  0
SEQEND
  8
LAYER-1
  0
POLYLINE
  8
LAYER-1
 66
  1
 70
  0
 62
  0
 10
3.642915
 20
4.724647
 30
0.000000
  0
VERTEX
  8
LAYER-1
 10
3.642915
 20
4.724647
 30
0.000000
  0
VERTEX
  8
LAYER-1
 10
1.768783
 20
4.724647
 30
0.000000
  0
SEQEND
  8
LAYER-1
  0
POLYLINE
  8
LAYER-1
 66
  1
 70
  0
 62
  0
 10
3.642915
 20
6.368674
 30
0.000000
  0
VERTEX
  8
LAYER-1
 10
3.642915
 20
6.368674
 30
0.000000
  0
VERTEX
  8
LAYER-1
 10
1.767915
 20
6.368674
 30
0.000000
  0
SEQEND
  8
LAYER-1
  0
POLYLINE
  8
LAYER-1
 66
  1
 70
  0
 62
  0
 10
5.689688
 20
2.257245
 30
0.000000
  0
VERTEX
  8
LAYER-1
 10
5.689688
 20
2.257245
 30
0.000000
  0
VERTEX
  8
LAYER-1
 10
3.814791
 20
2.257245
 30
0.000000
  0
SEQEND
  8
LAYER-1
  0
POLYLINE
  8
LAYER-1
 66
  1
 70
  0
 62
  0
 10
5.689688
 20
3.901276
 30
0.000000
  0
VERTEX
  8
LAYER-1
 10
5.689688
 20
3.901276
 30
0.000000
  0
VERTEX
  8
LAYER-1
 10
3.814791
 20
3.901276
 30
0.000000
  0
SEQEND
  8
LAYER-1
  0
POLYLINE
  8
LAYER-1
 66
  1
 70
  0
 62
  0
 10
5.689688
 20
5.545304
 30
0.000000
  0
VERTEX
  8
LAYER-1
 10
5.689688
 20
5.545304
 30
0.000000
  0
VERTEX
  8
LAYER-1
 10
3.814791
 20
5.545304
 30
0.000000
  0
SEQEND
  8
LAYER-1
  0
POLYLINE
  8
LAYER-1
 66
  1
 70
  0
 62
  0
 10
5.689791
 20
1.435412
 30
0.000000
  0
VERTEX
  8
LAYER-1
 10
5.689791
 20
1.435412
 30
0.000000
  0
VERTEX
  8
LAYER-1
 10
3.814791
 20
1.435412
 30
0.000000
  0
SEQEND
  8
LAYER-1
  0
POLYLINE
  8
LAYER-1
 66
  1
 70
  0
 62
  0
 10
5.689791
 20
3.079441
 30
0.000000
  0
VERTEX
  8
LAYER-1
 10
5.689791
 20
3.079441
 30
0.000000
  0
VERTEX
  8
LAYER-1
 10
3.814791
 20
3.079441
 30
0.000000
  0
SEQEND
  8
LAYER-1
  0
POLYLINE
  8
LAYER-1
 66
  1
 70
  0
 62
  0
 10
5.689791
 20
4.723470
 30
0.000000
  0
VERTEX
  8
LAYER-1
 10
5.689791
 20
4.723470
 30
0.000000
  0
VERTEX
  8
LAYER-1
 10
3.815658
 20
4.723470
 30
0.000000
  0
SEQEND
  8
LAYER-1
  0
POLYLINE
  8
LAYER-1
 66
  1
 70
  0
 62
  0
 10
5.689791
 20
6.367498
 30
0.000000
  0
VERTEX
  8
LAYER-1
 10
5.689791
 20
6.367498
 30
0.000000
  0
VERTEX
  8
LAYER-1
 10
3.814791
 20
6.367498
 30
0.000000
  0
SEQEND
  8
LAYER-1
  0
POLYLINE
  8
LAYER-1
 66
  1
 70
  1
 62
  7
  0
VERTEX
  8
LAYER-1
 10
0.077721
 20
4.785225
 30
0.000000
  0
VERTEX
  8
LAYER-1
 10
0.164024
 20
4.785225
 30
0.000000
  0
VERTEX
  8
LAYER-1
 10
0.164024
 20
4.485655
 30
0.000000
  0
VERTEX
  8
LAYER-1
 10
0.077721
 20
4.485655
 30
0.000000
  0
SEQEND
  8
LAYER-1
  0
POLYLINE
  8
LAYER-1
 66
  1
 70
  1
 62
  7
  0
VERTEX
  8
LAYER-1
 10
0.227814
 20
4.785225
 30
0.000000
  0
VERTEX
  8
LAYER-1
 10
0.314117
 20
4.785225
 30
0.000000
  0
VERTEX
  8
LAYER-1
 10
0.314117
 20
4.485655
 30
0.000000
  0
VERTEX
  8
LAYER-1
 10
0.227814
 20
4.485655
 30
0.000000
  0
SEQEND
  8
LAYER-1
  0
POLYLINE
  8
LAYER-1
 66
  1
 70
  1
 62
  7
  0
VERTEX
  8
LAYER-1
 10
0.377908
 20
4.785225
 30
0.000000
  0
VERTEX
  8
LAYER-1
 10
0.464209
 20
4.785225
 30
0.000000
  0
VERTEX
  8
LAYER-1
 10
0.464209
 20
4.485655
 30
0.000000
  0
VERTEX
  8
LAYER-1
 10
0.377908
 20
4.485655
 30
0.000000
  0
SEQEND
  8
LAYER-1
  0
POLYLINE
  8
LAYER-1
 66
  1
 70
  1
 62
  7
  0
VERTEX
  8
LAYER-1
 10
0.527998
 20
4.785225
 30
0.000000
  0
VERTEX
  8
LAYER-1
 10
0.614300
 20
4.785225
 30
0.000000
  0
VERTEX
  8
LAYER-1
 10
0.614300
 20
4.485655
 30
0.000000
  0
VERTEX
  8
LAYER-1
 10
0.527998
 20
4.485655
 30
0.000000
  0
SEQEND
  8
LAYER-1
  0
POLYLINE
  8
LAYER-1
 66
  1
 70
  1
 62
  7
  0
VERTEX
  8
LAYER-1
 10
0.678090
 20
4.785225
 30
0.000000
  0
VERTEX
  8
LAYER-1
 10
0.764393
 20
4.785225
 30
0.000000
  0
VERTEX
  8
LAYER-1
 10
0.764393
 20
4.485655
 30
0.000000
  0
VERTEX
  8
LAYER-1
 10
0.678090
 20
4.485655
 30
0.000000
  0
SEQEND
  8
LAYER-1
  0
POLYLINE
  8
LAYER-1
 66
  1
 70
  1
 62
  7
  0
VERTEX
  8
LAYER-1
 10
0.828183
 20
4.785225
 30
0.000000
  0
VERTEX
  8
LAYER-1
 10
0.914486
 20
4.785225
 30
0.000000
  0
VERTEX
  8
LAYER-1
 10
0.914486
 20
4.485655
 30
0.000000
  0
VERTEX
  8
LAYER-1
 10
0.828183
 20
4.485655
 30
0.000000
  0
SEQEND
  8
LAYER-1
  0
POLYLINE
  8
LAYER-1
 66
  1
 70
  1
 62
  7
  0
VERTEX
  8
LAYER-1
 10
0.978276
 20
4.785225
 30
0.000000
  0
VERTEX
  8
LAYER-1
 10
1.064578
 20
4.785225
 30
0.000000
  0
VERTEX
  8
LAYER-1
 10
1.064578
 20
4.485655
 30
0.000000
  0
VERTEX
  8
LAYER-1
 10
0.978276
 20
4.485655
 30
0.000000
  0
SEQEND
  8
LAYER-1
  0
POLYLINE
  8
LAYER-1
 66
  1
 70
  1
 62
  7
  0
VERTEX
  8
LAYER-1
 10
0.002554
 20
5.084771
 30
0.000000
  0
VERTEX
  8
LAYER-1
 10
0.088854
 20
5.084771
 30
0.000000
  0
VERTEX
  8
LAYER-1
 10
0.088854
 20
4.785207
 30
0.000000
  0
VERTEX
  8
LAYER-1
 10
0.002554
 20
4.785207
 30
0.000000
  0
SEQEND
  8
LAYER-1
  0
POLYLINE
  8
LAYER-1
 66
  1
 70
  1
 62
  7
  0
VERTEX
  8
LAYER-1
 10
0.152645
 20
5.084771
 30
0.000000
  0
VERTEX
  8
LAYER-1
 10
0.238947
 20
5.084771
 30
0.000000
  0
VERTEX
  8
LAYER-1
 10
0.238947
 20
4.785207
 30
0.000000
  0
VERTEX
  8
LAYER-1
 10
0.152645
 20
4.785207
 30
0.000000
  0
SEQEND
  8
LAYER-1
  0
POLYLINE
  8
LAYER-1
 66
  1
 70
  1
 62
  7
  0
VERTEX
  8
LAYER-1
 10
0.302738
 20
5.084771
 30
0.000000
  0
VERTEX
  8
LAYER-1
 10
0.389041
 20
5.084771
 30
0.000000
  0
VERTEX
  8
LAYER-1
 10
0.389041
 20
4.785207
 30
0.000000
  0
VERTEX
  8
LAYER-1
 10
0.302738
 20
4.785207
 30
0.000000
  0
SEQEND
  8
LAYER-1
  0
POLYLINE
  8
LAYER-1
 66
  1
 70
  1
 62
  7
  0
VERTEX
  8
LAYER-1
 10
0.452831
 20
5.084771
 30
0.000000
  0
VERTEX
  8
LAYER-1
 10
0.539133
 20
5.084771
 30
0.000000
  0
VERTEX
  8
LAYER-1
 10
0.539133
 20
4.785207
 30
0.000000
  0
VERTEX
  8
LAYER-1
 10
0.452831
 20
4.785207
 30
0.000000
  0
SEQEND
  8
LAYER-1
  0
POLYLINE
  8
LAYER-1
 66
  1
 70
  1
 62
  7
  0
VERTEX
  8
LAYER-1
 10
0.602924
 20
5.084771
 30
0.000000
  0
VERTEX
  8
LAYER-1
 10
0.689225
 20
5.084771
 30
0.000000
  0
VERTEX
  8
LAYER-1
 10
0.689225
 20
4.785207
 30
0.000000
  0
VERTEX
  8
LAYER-1
 10
0.602924
 20
4.785207
 30
0.000000
  0
SEQEND
  8
LAYER-1
  0
POLYLINE
  8
LAYER-1
 66
  1
 70
  1
 62
  7
  0
VERTEX
  8
LAYER-1
 10
0.753015
 20
5.084771
 30
0.000000
  0
VERTEX
  8
LAYER-1
 10
0.839318
 20
5.084771
 30
0.000000
  0
VERTEX
  8
LAYER-1
 10
0.839318
 20
4.785207
 30
0.000000
  0
VERTEX
  8
LAYER-1
 10
0.753015
 20
4.785207
 30
0.000000
  0
SEQEND
  8
LAYER-1
  0
POLYLINE
  8
LAYER-1
 66
  1
 70
  1
 62
  7
  0
VERTEX
  8
LAYER-1
 10
0.903108
 20
5.084771
 30
0.000000
  0
VERTEX
  8
LAYER-1
 10
0.989411
 20
5.084771
 30
0.000000
  0
VERTEX
  8
LAYER-1
 10
0.989411
 20
4.785207
 30
0.000000
  0
VERTEX
  8
LAYER-1
 10
0.903108
 20
4.785207
 30
0.000000
  0
SEQEND
  8
LAYER-1
  0
POLYLINE
  8
LAYER-1
 66
  1
 70
  1
 62
  7
  0
VERTEX
  8
LAYER-1
 10
0.077721
 20
4.186122
 30
0.000000
  0
VERTEX
  8
LAYER-1
 10
0.164024
 20
4.186122
 30
0.000000
  0
VERTEX
  8
LAYER-1
 10
0.164024
 20
3.886558
 30
0.000000
  0
VERTEX
  8
LAYER-1
 10
0.077721
 20
3.886558
 30
0.000000
  0
SEQEND
  8
LAYER-1
  0
POLYLINE
  8
LAYER-1
 66
  1
 70
  1
 62
  7
  0
VERTEX
  8
LAYER-1
 10
0.227814
 20
4.186122
 30
0.000000
  0
VERTEX
  8
LAYER-1
 10
0.314117
 20
4.186122
 30
0.000000
  0
VERTEX
  8
LAYER-1
 10
0.314117
 20
3.886558
 30
0.000000
  0
VERTEX
  8
LAYER-1
 10
0.227814
 20
3.886558
 30
0.000000
  0
SEQEND
  8
LAYER-1
  0
POLYLINE
  8
LAYER-1
 66
  1
 70
  1
 62
  7
  0
VERTEX
  8
LAYER-1
 10
0.377908
 20
4.186122
 30
0.000000
  0
VERTEX
  8
LAYER-1
 10
0.464209
 20
4.186122
 30
0.000000
  0
VERTEX
  8
LAYER-1
 10
0.464209
 20
3.886558
 30
0.000000
  0
VERTEX
  8
LAYER-1
 10
0.377908
 20
3.886558
 30
0.000000
  0
SEQEND
  8
LAYER-1
  0
POLYLINE
  8
LAYER-1
 66
  1
 70
  1
 62
  7
  0
VERTEX
  8
LAYER-1
 10
0.527998
 20
4.186122
 30
0.000000
  0
VERTEX
  8
LAYER-1
 10
0.614300
 20
4.186122
 30
0.000000
  0
VERTEX
  8
LAYER-1
 10
0.614300
 20
3.886558
 30
0.000000
  0
VERTEX
  8
LAYER-1
 10
0.527998
 20
3.886558
 30
0.000000
  0
SEQEND
  8
LAYER-1
  0
POLYLINE
  8
LAYER-1
 66
  1
 70
  1
 62
  7
  0
VERTEX
  8
LAYER-1
 10
0.678090
 20
4.186122
 30
0.000000
  0
VERTEX
  8
LAYER-1
 10
0.764393
 20
4.186122
 30
0.000000
  0
VERTEX
  8
LAYER-1
 10
0.764393
 20
3.886558
 30
0.000000
  0
VERTEX
  8
LAYER-1
 10
0.678090
 20
3.886558
 30
0.000000
  0
SEQEND
  8
LAYER-1
  0
POLYLINE
  8
LAYER-1
 66
  1
 70
  1
 62
  7
  0
VERTEX
  8
LAYER-1
 10
0.828183
 20
4.186122
 30
0.000000
  0
VERTEX
  8
LAYER-1
 10
0.914486
 20
4.186122
 30
0.000000
  0
VERTEX
  8
LAYER-1
 10
0.914486
 20
3.886558
 30
0.000000
  0
VERTEX
  8
LAYER-1
 10
0.828183
 20
3.886558
 30
0.000000
  0
SEQEND
  8
LAYER-1
  0
POLYLINE
  8
LAYER-1
 66
  1
 70
  1
 62
  7
  0
VERTEX
  8
LAYER-1
 10
0.978276
 20
4.186122
 30
0.000000
  0
VERTEX
  8
LAYER-1
 10
1.064578
 20
4.186122
 30
0.000000
  0
VERTEX
  8
LAYER-1
 10
1.064578
 20
3.886558
 30
0.000000
  0
VERTEX
  8
LAYER-1
 10
0.978276
 20
3.886558
 30
0.000000
  0
SEQEND
  8
LAYER-1
  0
POLYLINE
  8
LAYER-1
 66
  1
 70
  1
 62
  7
  0
VERTEX
  8
LAYER-1
 10
0.002554
 20
4.485672
 30
0.000000
  0
VERTEX
  8
LAYER-1
 10
0.088854
 20
4.485672
 30
0.000000
  0
VERTEX
  8
LAYER-1
 10
0.088854
 20
4.186105
 30
0.000000
  0
VERTEX
  8
LAYER-1
 10
0.002554
 20
4.186105
 30
0.000000
  0
SEQEND
  8
LAYER-1
  0
POLYLINE
  8
LAYER-1
 66
  1
 70
  1
 62
  7
  0
VERTEX
  8
LAYER-1
 10
0.152645
 20
4.485672
 30
0.000000
  0
VERTEX
  8
LAYER-1
 10
0.238947
 20
4.485672
 30
0.000000
  0
VERTEX
  8
LAYER-1
 10
0.238947
 20
4.186105
 30
0.000000
  0
VERTEX
  8
LAYER-1
 10
0.152645
 20
4.186105
 30
0.000000
  0
SEQEND
  8
LAYER-1
  0
POLYLINE
  8
LAYER-1
 66
  1
 70
  1
 62
  7
  0
VERTEX
  8
LAYER-1
 10
0.302738
 20
4.485672
 30
0.000000
  0
VERTEX
  8
LAYER-1
 10
0.389041
 20
4.485672
 30
0.000000
  0
VERTEX
  8
LAYER-1
 10
0.389041
 20
4.186105
 30
0.000000
  0
VERTEX
  8
LAYER-1
 10
0.302738
 20
4.186105
 30
0.000000
  0
SEQEND
  8
LAYER-1
  0
POLYLINE
  8
LAYER-1
 66
  1
 70
  1
 62
  7
  0
VERTEX
  8
LAYER-1
 10
0.452831
 20
4.485672
 30
0.000000
  0
VERTEX
  8
LAYER-1
 10
0.539133
 20
4.485672
 30
0.000000
  0
VERTEX
  8
LAYER-1
 10
0.539133
 20
4.186105
 30
0.000000
  0
VERTEX
  8
LAYER-1
 10
0.452831
 20
4.186105
 30
0.000000
  0
SEQEND
  8
LAYER-1
  0
POLYLINE
  8
LAYER-1
 66
  1
 70
  1
 62
  7
  0
VERTEX
  8
LAYER-1
 10
0.602924
 20
4.485672
 30
0.000000
  0
VERTEX
  8
LAYER-1
 10
0.689225
 20
4.485672
 30
0.000000
  0
VERTEX
  8
LAYER-1
 10
0.689225
 20
4.186105
 30
0.000000
  0
VERTEX
  8
LAYER-1
 10
0.602924
 20
4.186105
 30
0.000000
  0
SEQEND
  8
LAYER-1
  0
POLYLINE
  8
LAYER-1
 66
  1
 70
  1
 62
  7
  0
VERTEX
  8
LAYER-1
 10
0.753015
 20
4.485672
 30
0.000000
  0
VERTEX
  8
LAYER-1
 10
0.839318
 20
4.485672
 30
0.000000
  0
VERTEX
  8
LAYER-1
 10
0.839318
 20
4.186105
 30
0.000000
  0
VERTEX
  8
LAYER-1
 10
0.753015
 20
4.186105
 30
0.000000
  0
SEQEND
  8
LAYER-1
  0
POLYLINE
  8
LAYER-1
 66
  1
 70
  1
 62
  7
  0
VERTEX
  8
LAYER-1
 10
0.903108
 20
4.485672
 30
0.000000
  0
VERTEX
  8
LAYER-1
 10
0.989411
 20
4.485672
 30
0.000000
  0
VERTEX
  8
LAYER-1
 10
0.989411
 20
4.186105
 30
0.000000
  0
VERTEX
  8
LAYER-1
 10
0.903108
 20
4.186105
 30
0.000000
  0
SEQEND
  8
LAYER-1
  0
POLYLINE
  8
LAYER-1
 66
  1
 70
  1
 62
  7
  0
VERTEX
  8
LAYER-1
 10
0.002554
 20
3.886575
 30
0.000000
  0
VERTEX
  8
LAYER-1
 10
0.088854
 20
3.886575
 30
0.000000
  0
VERTEX
  8
LAYER-1
 10
0.088854
 20
3.587012
 30
0.000000
  0
VERTEX
  8
LAYER-1
 10
0.002554
 20
3.587012
 30
0.000000
  0
SEQEND
  8
LAYER-1
  0
POLYLINE
  8
LAYER-1
 66
  1
 70
  1
 62
  7
  0
VERTEX
  8
LAYER-1
 10
0.152645
 20
3.886575
 30
0.000000
  0
VERTEX
  8
LAYER-1
 10
0.238947
 20
3.886575
 30
0.000000
  0
VERTEX
  8
LAYER-1
 10
0.238947
 20
3.587012
 30
0.000000
  0
VERTEX
  8
LAYER-1
 10
0.152645
 20
3.587012
 30
0.000000
  0
SEQEND
  8
LAYER-1
  0
POLYLINE
  8
LAYER-1
 66
  1
 70
  1
 62
  7
  0
VERTEX
  8
LAYER-1
 10
0.302738
 20
3.886575
 30
0.000000
  0
VERTEX
  8
LAYER-1
 10
0.389041
 20
3.886575
 30
0.000000
  0
VERTEX
  8
LAYER-1
 10
0.389041
 20
3.587012
 30
0.000000
  0
VERTEX
  8
LAYER-1
 10
0.302738
 20
3.587012
 30
0.000000
  0
SEQEND
  8
LAYER-1
  0
POLYLINE
  8
LAYER-1
 66
  1
 70
  1
 62
  7
  0
VERTEX
  8
LAYER-1
 10
0.452831
 20
3.886575
 30
0.000000
  0
VERTEX
  8
LAYER-1
 10
0.539133
 20
3.886575
 30
0.000000
  0
VERTEX
  8
LAYER-1
 10
0.539133
 20
3.587012
 30
0.000000
  0
VERTEX
  8
LAYER-1
 10
0.452831
 20
3.587012
 30
0.000000
  0
SEQEND
  8
LAYER-1
  0
POLYLINE
  8
LAYER-1
 66
  1
 70
  1
 62
  7
  0
VERTEX
  8
LAYER-1
 10
0.602924
 20
3.886575
 30
0.000000
  0
VERTEX
  8
LAYER-1
 10
0.689225
 20
3.886575
 30
0.000000
  0
VERTEX
  8
LAYER-1
 10
0.689225
 20
3.587012
 30
0.000000
  0
VERTEX
  8
LAYER-1
 10
0.602924
 20
3.587012
 30
0.000000
  0
SEQEND
  8
LAYER-1
  0
POLYLINE
  8
LAYER-1
 66
  1
 70
  1
 62
  7
  0
VERTEX
  8
LAYER-1
 10
0.753015
 20
3.886575
 30
0.000000
  0
VERTEX
  8
LAYER-1
 10
0.839318
 20
3.886575
 30
0.000000
  0
VERTEX
  8
LAYER-1
 10
0.839318
 20
3.587012
 30
0.000000
  0
VERTEX
  8
LAYER-1
 10
0.753015
 20
3.587012
 30
0.000000
  0
SEQEND
  8
LAYER-1
  0
POLYLINE
  8
LAYER-1
 66
  1
 70
  1
 62
  7
  0
VERTEX
  8
LAYER-1
 10
0.903108
 20
3.886575
 30
0.000000
  0
VERTEX
  8
LAYER-1
 10
0.989411
 20
3.886575
 30
0.000000
  0
VERTEX
  8
LAYER-1
 10
0.989411
 20
3.587012
 30
0.000000
  0
VERTEX
  8
LAYER-1
 10
0.903108
 20
3.587012
 30
0.000000
  0
SEQEND
  8
LAYER-1
  0
POLYLINE
  8
LAYER-1
 66
  1
 70
  0
 62
  7
 10
1.053327
 20
4.785041
 30
0.000000
  0
VERTEX
  8
LAYER-1
 10
1.053327
 20
4.785041
 30
0.000000
  0
VERTEX
  8
LAYER-1
 10
1.053327
 20
4.485587
 30
0.000000
  0
SEQEND
  8
LAYER-1
  0
POLYLINE
  8
LAYER-1
 66
  1
 70
  0
 62
  7
 10
0.013899
 20
4.485199
 30
0.000000
  0
VERTEX
  8
LAYER-1
 10
0.013899
 20
4.485199
 30
0.000000
  0
VERTEX
  8
LAYER-1
 10
0.013889
 20
4.185939
 30
0.000000
  0
SEQEND
  8
LAYER-1
  0
POLYLINE
  8
LAYER-1
 66
  1
 70
  0
 62
  7
 10
1.053327
 20
4.185939
 30
0.000000
  0
VERTEX
  8
LAYER-1
 10
1.053327
 20
4.185939
 30
0.000000
  0
VERTEX
  8
LAYER-1
 10
1.053327
 20
3.886490
 30
0.000000
  0
SEQEND
  8
LAYER-1
  0
TEXT
  8
LAYER-1
 62
  0
 10
0.055241
 20
3.271051
 30
0.000000
 40
0.104167
  1
CONCEPT 1212
 72
  5
 11
1.180241
 21
3.271051
 31
0.000000
  0
POLYLINE
  8
LAYER-1
 66
  1
 70
  1
 62
  7
  0
VERTEX
  8
LAYER-1
 10
0.002543
 20
5.184373
 30
0.000000
  0
VERTEX
  8
LAYER-1
 10
0.152781
 20
5.184373
 30
0.000000
  0
VERTEX
  8
LAYER-1
 10
0.152781
 20
5.084719
 30
0.000000
  0
VERTEX
  8
LAYER-1
 10
0.002543
 20
5.084719
 30
0.000000
  0
SEQEND
  8
LAYER-1
  0
POLYLINE
  8
LAYER-1
 66
  1
 70
  1
 62
  7
  0
VERTEX
  8
LAYER-1
 10
0.152716
 20
5.184373
 30
0.000000
  0
VERTEX
  8
LAYER-1
 10
0.302953
 20
5.184373
 30
0.000000
  0
VERTEX
  8
LAYER-1
 10
0.302953
 20
5.084719
 30
0.000000
  0
VERTEX
  8
LAYER-1
 10
0.152716
 20
5.084719
 30
0.000000
  0
SEQEND
  8
LAYER-1
  0
POLYLINE
  8
LAYER-1
 66
  1
 70
  1
 62
  7
  0
VERTEX
  8
LAYER-1
 10
0.302742
 20
5.184373
 30
0.000000
  0
VERTEX
  8
LAYER-1
 10
0.452832
 20
5.184373
 30
0.000000
  0
VERTEX
  8
LAYER-1
 10
0.452832
 20
5.084719
 30
0.000000
  0
VERTEX
  8
LAYER-1
 10
0.302742
 20
5.084719
 30
0.000000
  0
SEQEND
  8
LAYER-1
  0
POLYLINE
  8
LAYER-1
 66
  1
 70
  1
 62
  7
  0
VERTEX
  8
LAYER-1
 10
0.452914
 20
5.184373
 30
0.000000
  0
VERTEX
  8
LAYER-1
 10
0.603005
 20
5.184373
 30
0.000000
  0
VERTEX
  8
LAYER-1
 10
0.603005
 20
5.084719
 30
0.000000
  0
VERTEX
  8
LAYER-1
 10
0.452914
 20
5.084719
 30
0.000000
  0
SEQEND
  8
LAYER-1
  0
POLYLINE
  8
LAYER-1
 66
  1
 70
  1
 62
  7
  0
VERTEX
  8
LAYER-1
 10
0.603087
 20
5.184373
 30
0.000000
  0
VERTEX
  8
LAYER-1
 10
0.753029
 20
5.184373
 30
0.000000
  0
VERTEX
  8
LAYER-1
 10
0.753029
 20
5.084719
 30
0.000000
  0
VERTEX
  8
LAYER-1
 10
0.603087
 20
5.084719
 30
0.000000
  0
SEQEND
  8
LAYER-1
  0
POLYLINE
  8
LAYER-1
 66
  1
 70
  1
 62
  7
  0
VERTEX
  8
LAYER-1
 10
0.752965
 20
5.184373
 30
0.000000
  0
VERTEX
  8
LAYER-1
 10
0.903202
 20
5.184373
 30
0.000000
  0
VERTEX
  8
LAYER-1
 10
0.903202
 20
5.084719
 30
0.000000
  0
VERTEX
  8
LAYER-1
 10
0.752965
 20
5.084719
 30
0.000000
  0
SEQEND
  8
LAYER-1
  0
POLYLINE
  8
LAYER-1
 66
  1
 70
  1
 62
  7
  0
VERTEX
  8
LAYER-1
 10
0.903137
 20
5.184373
 30
0.000000
  0
VERTEX
  8
LAYER-1
 10
1.064679
 20
5.184373
 30
0.000000
  0
VERTEX
  8
LAYER-1
 10
1.064679
 20
5.084719
 30
0.000000
  0
VERTEX
  8
LAYER-1
 10
0.903137
 20
5.084719
 30
0.000000
  0
SEQEND
  8
LAYER-1
  0
POLYLINE
  8
LAYER-1
 66
  1
 70
  0
 62
  7
 10
0.013889
 20
5.184434
 30
0.000000
  0
VERTEX
  8
LAYER-1
 10
0.013889
 20
5.184434
 30
0.000000
  0
VERTEX
  8
LAYER-1
 10
0.014036
 20
4.785158
 30
0.000000
  0
SEQEND
  8
LAYER-1
  0
POLYLINE
  8
LAYER-1
 66
  1
 70
  1
 62
  7
  0
VERTEX
  8
LAYER-1
 10
0.002543
 20
3.586956
 30
0.000000
  0
VERTEX
  8
LAYER-1
 10
0.152781
 20
3.586956
 30
0.000000
  0
VERTEX
  8
LAYER-1
 10
0.152781
 20
3.487303
 30
0.000000
  0
VERTEX
  8
LAYER-1
 10
0.002543
 20
3.487303
 30
0.000000
  0
SEQEND
  8
LAYER-1
  0
POLYLINE
  8
LAYER-1
 66
  1
 70
  1
 62
  7
  0
VERTEX
  8
LAYER-1
 10
0.152716
 20
3.586956
 30
0.000000
  0
VERTEX
  8
LAYER-1
 10
0.302953
 20
3.586956
 30
0.000000
  0
VERTEX
  8
LAYER-1
 10
0.302953
 20
3.487303
 30
0.000000
  0
VERTEX
  8
LAYER-1
 10
0.152716
 20
3.487303
 30
0.000000
  0
SEQEND
  8
LAYER-1
  0
POLYLINE
  8
LAYER-1
 66
  1
 70
  1
 62
  7
  0
VERTEX
  8
LAYER-1
 10
0.302742
 20
3.586956
 30
0.000000
  0
VERTEX
  8
LAYER-1
 10
0.452832
 20
3.586956
 30
0.000000
  0
VERTEX
  8
LAYER-1
 10
0.452832
 20
3.487303
 30
0.000000
  0
VERTEX
  8
LAYER-1
 10
0.302742
 20
3.487303
 30
0.000000
  0
SEQEND
  8
LAYER-1
  0
POLYLINE
  8
LAYER-1
 66
  1
 70
  1
 62
  7
  0
VERTEX
  8
LAYER-1
 10
0.452914
 20
3.586956
 30
0.000000
  0
VERTEX
  8
LAYER-1
 10
0.603005
 20
3.586956
 30
0.000000
  0
VERTEX
  8
LAYER-1
 10
0.603005
 20
3.487303
 30
0.000000
  0
VERTEX
  8
LAYER-1
 10
0.452914
 20
3.487303
 30
0.000000
  0
SEQEND
  8
LAYER-1
  0
POLYLINE
  8
LAYER-1
 66
  1
 70
  1
 62
  7
  0
VERTEX
  8
LAYER-1
 10
0.603087
 20
3.586956
 30
0.000000
  0
VERTEX
  8
LAYER-1
 10
0.753029
 20
3.586956
 30
0.000000
  0
VERTEX
  8
LAYER-1
 10
0.753029
 20
3.487303
 30
0.000000
  0
VERTEX
  8
LAYER-1
 10
0.603087
 20
3.487303
 30
0.000000
  0
SEQEND
  8
LAYER-1
  0
POLYLINE
  8
LAYER-1
 66
  1
 70
  1
 62
  7
  0
VERTEX
  8
LAYER-1
 10
0.752965
 20
3.586956
 30
0.000000
  0
VERTEX
  8
LAYER-1
 10
0.903202
 20
3.586956
 30
0.000000
  0
VERTEX
  8
LAYER-1
 10
0.903202
 20
3.487303
 30
0.000000
  0
VERTEX
  8
LAYER-1
 10
0.752965
 20
3.487303
 30
0.000000
  0
SEQEND
  8
LAYER-1
  0
POLYLINE
  8
LAYER-1
 66
  1
 70
  1
 62
  7
  0
VERTEX
  8
LAYER-1
 10
0.903137
 20
3.586956
 30
0.000000
  0
VERTEX
  8
LAYER-1
 10
1.064679
 20
3.586956
 30
0.000000
  0
VERTEX
  8
LAYER-1
 10
1.064679
 20
3.487303
 30
0.000000
  0
VERTEX
  8
LAYER-1
 10
0.903137
 20
3.487303
 30
0.000000
  0
SEQEND
  8
LAYER-1
  0
POLYLINE
  8
LAYER-1
 66
  1
 70
  0
 62
  7
 10
0.077685
 20
5.184384
 30
0.000000
  0
VERTEX
  8
LAYER-1
 10
0.077685
 20
5.184384
 30
0.000000
  0
VERTEX
  8
LAYER-1
 10
0.077685
 20
3.487214
 30
0.000000
  0
SEQEND
  8
LAYER-1
  0
POLYLINE
  8
LAYER-1
 66
  1
 70
  0
 62
  7
 10
0.088945
 20
5.184384
 30
0.000000
  0
VERTEX
  8
LAYER-1
 10
0.088945
 20
5.184384
 30
0.000000
  0
VERTEX
  8
LAYER-1
 10
0.088945
 20
3.487214
 30
0.000000
  0
SEQEND
  8
LAYER-1
  0
POLYLINE
  8
LAYER-1
 66
  1
 70
  0
 62
  7
 10
0.152732
 20
5.184384
 30
0.000000
  0
VERTEX
  8
LAYER-1
 10
0.152732
 20
5.184384
 30
0.000000
  0
VERTEX
  8
LAYER-1
 10
0.152732
 20
3.487214
 30
0.000000
  0
SEQEND
  8
LAYER-1
  0
POLYLINE
  8
LAYER-1
 66
  1
 70
  0
 62
  7
 10
0.163992
 20
5.184384
 30
0.000000
  0
VERTEX
  8
LAYER-1
 10
0.163992
 20
5.184384
 30
0.000000
  0
VERTEX
  8
LAYER-1
 10
0.163992
 20
3.487214
 30
0.000000
  0
SEQEND
  8
LAYER-1
  0
POLYLINE
  8
LAYER-1
 66
  1
 70
  0
 62
  7
 10
0.227778
 20
5.184384
 30
0.000000
  0
VERTEX
  8
LAYER-1
 10
0.227778
 20
5.184384
 30
0.000000
  0
VERTEX
  8
LAYER-1
 10
0.227778
 20
3.487214
 30
0.000000
  0
SEQEND
  8
LAYER-1
  0
POLYLINE
  8
LAYER-1
 66
  1
 70
  0
 62
  7
 10
0.239037
 20
5.184384
 30
0.000000
  0
VERTEX
  8
LAYER-1
 10
0.239037
 20
5.184384
 30
0.000000
  0
VERTEX
  8
LAYER-1
 10
0.239037
 20
3.487214
 30
0.000000
  0
SEQEND
  8
LAYER-1
  0
POLYLINE
  8
LAYER-1
 66
  1
 70
  0
 62
  7
 10
0.377870
 20
5.184384
 30
0.000000
  0
VERTEX
  8
LAYER-1
 10
0.377870
 20
5.184384
 30
0.000000
  0
VERTEX
  8
LAYER-1
 10
0.377870
 20
3.487214
 30
0.000000
  0
SEQEND
  8
LAYER-1
  0
POLYLINE
  8
LAYER-1
 66
  1
 70
  0
 62
  7
 10
0.389131
 20
5.184384
 30
0.000000
  0
VERTEX
  8
LAYER-1
 10
0.389131
 20
5.184384
 30
0.000000
  0
VERTEX
  8
LAYER-1
 10
0.389131
 20
3.487214
 30
0.000000
  0
SEQEND
  8
LAYER-1
  0
POLYLINE
  8
LAYER-1
 66
  1
 70
  0
 62
  7
 10
0.452917
 20
5.184384
 30
0.000000
  0
VERTEX
  8
LAYER-1
 10
0.452917
 20
5.184384
 30
0.000000
  0
VERTEX
  8
LAYER-1
 10
0.452917
 20
3.487214
 30
0.000000
  0
SEQEND
  8
LAYER-1
  0
POLYLINE
  8
LAYER-1
 66
  1
 70
  0
 62
  7
 10
0.464177
 20
5.184384
 30
0.000000
  0
VERTEX
  8
LAYER-1
 10
0.464177
 20
5.184384
 30
0.000000
  0
VERTEX
  8
LAYER-1
 10
0.464177
 20
3.487214
 30
0.000000
  0
SEQEND
  8
LAYER-1
  0
POLYLINE
  8
LAYER-1
 66
  1
 70
  0
 62
  7
 10
0.527962
 20
5.184384
 30
0.000000
  0
VERTEX
  8
LAYER-1
 10
0.527962
 20
5.184384
 30
0.000000
  0
VERTEX
  8
LAYER-1
 10
0.527962
 20
3.487214
 30
0.000000
  0
SEQEND
  8
LAYER-1
  0
POLYLINE
  8
LAYER-1
 66
  1
 70
  0
 62
  7
 10
0.539223
 20
5.184384
 30
0.000000
  0
VERTEX
  8
LAYER-1
 10
0.539223
 20
5.184384
 30
0.000000
  0
VERTEX
  8
LAYER-1
 10
0.539223
 20
3.487214
 30
0.000000
  0
SEQEND
  8
LAYER-1
  0
POLYLINE
  8
LAYER-1
 66
  1
 70
  0
 62
  7
 10
0.603009
 20
5.184384
 30
0.000000
  0
VERTEX
  8
LAYER-1
 10
0.603009
 20
5.184384
 30
0.000000
  0
VERTEX
  8
LAYER-1
 10
0.603009
 20
3.487214
 30
0.000000
  0
SEQEND
  8
LAYER-1
  0
POLYLINE
  8
LAYER-1
 66
  1
 70
  0
 62
  7
 10
0.614269
 20
5.184384
 30
0.000000
  0
VERTEX
  8
LAYER-1
 10
0.614269
 20
5.184384
 30
0.000000
  0
VERTEX
  8
LAYER-1
 10
0.614269
 20
3.487214
 30
0.000000
  0
SEQEND
  8
LAYER-1
  0
POLYLINE
  8
LAYER-1
 66
  1
 70
  0
 62
  7
 10
0.678055
 20
5.184384
 30
0.000000
  0
VERTEX
  8
LAYER-1
 10
0.678055
 20
5.184384
 30
0.000000
  0
VERTEX
  8
LAYER-1
 10
0.678055
 20
3.487214
 30
0.000000
  0
SEQEND
  8
LAYER-1
  0
POLYLINE
  8
LAYER-1
 66
  1
 70
  0
 62
  7
 10
0.689316
 20
5.184384
 30
0.000000
  0
VERTEX
  8
LAYER-1
 10
0.689316
 20
5.184384
 30
0.000000
  0
VERTEX
  8
LAYER-1
 10
0.689316
 20
3.487214
 30
0.000000
  0
SEQEND
  8
LAYER-1
  0
POLYLINE
  8
LAYER-1
 66
  1
 70
  0
 62
  7
 10
0.828148
 20
5.184384
 30
0.000000
  0
VERTEX
  8
LAYER-1
 10
0.828148
 20
5.184384
 30
0.000000
  0
VERTEX
  8
LAYER-1
 10
0.828148
 20
3.487214
 30
0.000000
  0
SEQEND
  8
LAYER-1
  0
POLYLINE
  8
LAYER-1
 66
  1
 70
  0
 62
  7
 10
0.839408
 20
5.184384
 30
0.000000
  0
VERTEX
  8
LAYER-1
 10
0.839408
 20
5.184384
 30
0.000000
  0
VERTEX
  8
LAYER-1
 10
0.839408
 20
3.487214
 30
0.000000
  0
SEQEND
  8
LAYER-1
  0
POLYLINE
  8
LAYER-1
 66
  1
 70
  0
 62
  7
 10
0.903194
 20
5.184384
 30
0.000000
  0
VERTEX
  8
LAYER-1
 10
0.903194
 20
5.184384
 30
0.000000
  0
VERTEX
  8
LAYER-1
 10
0.903194
 20
3.487214
 30
0.000000
  0
SEQEND
  8
LAYER-1
  0
POLYLINE
  8
LAYER-1
 66
  1
 70
  0
 62
  7
 10
0.914455
 20
5.184384
 30
0.000000
  0
VERTEX
  8
LAYER-1
 10
0.914455
 20
5.184384
 30
0.000000
  0
VERTEX
  8
LAYER-1
 10
0.914455
 20
3.487214
 30
0.000000
  0
SEQEND
  8
LAYER-1
  0
POLYLINE
  8
LAYER-1
 66
  1
 70
  0
 62
  7
 10
0.978240
 20
5.184384
 30
0.000000
  0
VERTEX
  8
LAYER-1
 10
0.978240
 20
5.184384
 30
0.000000
  0
VERTEX
  8
LAYER-1
 10
0.978240
 20
3.487214
 30
0.000000
  0
SEQEND
  8
LAYER-1
  0
POLYLINE
  8
LAYER-1
 66
  1
 70
  0
 62
  7
 10
0.989501
 20
5.184384
 30
0.000000
  0
VERTEX
  8
LAYER-1
 10
0.989501
 20
5.184384
 30
0.000000
  0
VERTEX
  8
LAYER-1
 10
0.989501
 20
3.487214
 30
0.000000
  0
SEQEND
  8
LAYER-1
  0
POLYLINE
  8
LAYER-1
 66
  1
 70
  0
 62
  7
 10
0.302824
 20
5.184384
 30
0.000000
  0
VERTEX
  8
LAYER-1
 10
0.302824
 20
5.184384
 30
0.000000
  0
VERTEX
  8
LAYER-1
 10
0.302824
 20
3.486984
 30
0.000000
  0
SEQEND
  8
LAYER-1
  0
POLYLINE
  8
LAYER-1
 66
  1
 70
  0
 62
  7
 10
0.314084
 20
5.184384
 30
0.000000
  0
VERTEX
  8
LAYER-1
 10
0.314084
 20
5.184384
 30
0.000000
  0
VERTEX
  8
LAYER-1
 10
0.314084
 20
3.486984
 30
0.000000
  0
SEQEND
  8
LAYER-1
  0
POLYLINE
  8
LAYER-1
 66
  1
 70
  0
 62
  7
 10
0.753101
 20
5.184134
 30
0.000000
  0
VERTEX
  8
LAYER-1
 10
0.753101
 20
5.184134
 30
0.000000
  0
VERTEX
  8
LAYER-1
 10
0.753101
 20
3.486986
 30
0.000000
  0
SEQEND
  8
LAYER-1
  0
POLYLINE
  8
LAYER-1
 66
  1
 70
  0
 62
  7
 10
0.764362
 20
5.184134
 30
0.000000
  0
VERTEX
  8
LAYER-1
 10
0.764362
 20
5.184134
 30
0.000000
  0
VERTEX
  8
LAYER-1
 10
0.764362
 20
3.486986
 30
0.000000
  0
SEQEND
  8
LAYER-1
  0
POLYLINE
  8
LAYER-1
 66
  1
 70
  0
 62
  7
 10
1.053327
 20
5.184588
 30
0.000000
  0
VERTEX
  8
LAYER-1
 10
1.053327
 20
5.184588
 30
0.000000
  0
VERTEX
  8
LAYER-1
 10
1.053327
 20
5.084769
 30
0.000000
  0
SEQEND
  8
LAYER-1
  0
POLYLINE
  8
LAYER-1
 66
  1
 70
  0
 62
  7
 10
0.014036
 20
3.886632
 30
0.000000
  0
VERTEX
  8
LAYER-1
 10
0.014036
 20
3.886632
 30
0.000000
  0
VERTEX
  8
LAYER-1
 10
0.013889
 20
3.487198
 30
0.000000
  0
SEQEND
  8
LAYER-1
  0
POLYLINE
  8
LAYER-1
 66
  1
 70
  0
 62
  7
 10
1.053474
 20
3.587020
 30
0.000000
  0
VERTEX
  8
LAYER-1
 10
1.053474
 20
3.587020
 30
0.000000
  0
VERTEX
  8
LAYER-1
 10
1.053327
 20
3.487354
 30
0.000000
  0
SEQEND
  8
LAYER-1
  0
TEXT
  8
LAYER-1
 62
  0
 10
0.291352
 20
3.201607
 30
0.000000
 40
0.083333
  1
(Aperto)
 72
  5
 11
0.749685
 21
3.201607
 31
0.000000
  0
POLYLINE
  8
LAYER-1
 66
  1
 70
  0
 62
  0
 10
0.735963
 20
0.037542
 30
0.000000
  0
VERTEX
  8
LAYER-1
 10
0.735963
 20
0.037542
 30
0.000000
  0
VERTEX
  8
LAYER-1
 10
0.762451
 20
0.034087
 30
0.000000
  0
VERTEX
  8
LAYER-1
 10
0.781791
 20
0.034087
 30
0.000000
  0
VERTEX
  8
LAYER-1
 10
0.801132
 20
0.037559
 30
0.000000
  0
VERTEX
  8
LAYER-1
 10
0.820472
 20
0.037559
 30
0.000000
  0
VERTEX
  8
LAYER-1
 10
0.866889
 20
0.044502
 30
0.000000
  0
VERTEX
  8
LAYER-1
 10
0.901702
 20
0.054920
 30
0.000000
  0
VERTEX
  8
LAYER-1
 10
0.923943
 20
0.059260
 30
0.000000
  0
VERTEX
  8
LAYER-1
 10
0.945701
 20
0.060996
 30
0.000000
  0
VERTEX
  8
LAYER-1
 10
0.975195
 20
0.058391
 30
0.000000
  0
VERTEX
  8
LAYER-1
 10
1.006139
 20
0.054920
 30
0.000000
  0
VERTEX
  8
LAYER-1
 10
1.033216
 20
0.047976
 30
0.000000
  0
VERTEX
  8
LAYER-1
 10
1.052556
 20
0.044502
 30
0.000000
  0
VERTEX
  8
LAYER-1
 10
1.083501
 20
0.041031
 30
0.000000
  0
VERTEX
  8
LAYER-1
 10
1.102841
 20
0.037559
 30
0.000000
  0
VERTEX
  8
LAYER-1
 10
1.126050
 20
0.034087
 30
0.000000
  0
VERTEX
  8
LAYER-1
 10
1.153126
 20
0.034087
 30
0.000000
  0
VERTEX
  8
LAYER-1
 10
1.180202
 20
0.034087
 30
0.000000
  0
VERTEX
  8
LAYER-1
 10
1.203411
 20
0.034087
 30
0.000000
  0
VERTEX
  8
LAYER-1
 10
1.226619
 20
0.030615
 30
0.000000
  0
VERTEX
  8
LAYER-1
 10
1.265301
 20
0.030615
 30
0.000000
  0
VERTEX
  8
LAYER-1
 10
1.296245
 20
0.030615
 30
0.000000
  0
VERTEX
  8
LAYER-1
 10
1.315586
 20
0.027141
 30
0.000000
  0
VERTEX
  8
LAYER-1
 10
1.346530
 20
0.023670
 30
0.000000
  0
VERTEX
  8
LAYER-1
 10
1.377475
 20
0.020198
 30
0.000000
  0
VERTEX
  8
LAYER-1
 10
1.416156
 20
0.020198
 30
0.000000
  0
VERTEX
  8
LAYER-1
 10
1.447100
 20
0.020198
 30
0.000000
  0
VERTEX
  8
LAYER-1
 10
1.485781
 20
0.020198
 30
0.000000
  0
VERTEX
  8
LAYER-1
 10
1.516726
 20
0.027141
 30
0.000000
  0
VERTEX
  8
LAYER-1
 10
1.539934
 20
0.027141
 30
0.000000
  0
VERTEX
  8
LAYER-1
 10
1.559274
 20
0.030615
 30
0.000000
  0
VERTEX
  8
LAYER-1
 10
1.582483
 20
0.030615
 30
0.000000
  0
VERTEX
  8
LAYER-1
 10
1.601823
 20
0.030615
 30
0.000000
  0
VERTEX
  8
LAYER-1
 10
1.644372
 20
0.030615
 30
0.000000
  0
VERTEX
  8
LAYER-1
 10
1.690789
 20
0.023670
 30
0.000000
  0
VERTEX
  8
LAYER-1
 10
1.733337
 20
0.020198
 30
0.000000
  0
VERTEX
  8
LAYER-1
 10
1.795227
 20
0.013252
 30
0.000000
  0
VERTEX
  8
LAYER-1
 10
1.853248
 20
0.006309
 30
0.000000
  0
VERTEX
  8
LAYER-1
 10
1.903532
 20
0.006309
 30
0.000000
  0
VERTEX
  8
LAYER-1
 10
1.930609
 20
0.006309
 30
0.000000
  0
VERTEX
  8
LAYER-1
 10
1.965422
 20
0.006309
 30
0.000000
  0
VERTEX
  8
LAYER-1
 10
1.985729
 20
0.007178
 30
0.000000
  0
VERTEX
  8
LAYER-1
 10
2.022959
 20
0.009346
 30
0.000000
  0
VERTEX
  8
LAYER-1
 10
2.069859
 20
0.020198
 30
0.000000
  0
VERTEX
  8
LAYER-1
 10
2.112408
 20
0.034087
 30
0.000000
  0
VERTEX
  8
LAYER-1
 10
2.147221
 20
0.044502
 30
0.000000
  0
VERTEX
  8
LAYER-1
 10
2.174297
 20
0.054920
 30
0.000000
  0
VERTEX
  8
LAYER-1
 10
2.197506
 20
0.061865
 30
0.000000
  0
VERTEX
  8
LAYER-1
 10
2.220714
 20
0.061865
 30
0.000000
  0
VERTEX
  8
LAYER-1
 10
2.243923
 20
0.061865
 30
0.000000
  0
VERTEX
  8
LAYER-1
 10
2.267131
 20
0.061865
 30
0.000000
  0
VERTEX
  8
LAYER-1
 10
2.301943
 20
0.054920
 30
0.000000
  0
VERTEX
  8
LAYER-1
 10
2.332888
 20
0.047976
 30
0.000000
  0
VERTEX
  8
LAYER-1
 10
2.356097
 20
0.041031
 30
0.000000
  0
VERTEX
  8
LAYER-1
 10
2.375437
 20
0.037559
 30
0.000000
  0
VERTEX
  8
LAYER-1
 10
2.398645
 20
0.030615
 30
0.000000
  0
VERTEX
  8
LAYER-1
 10
2.417986
 20
0.023670
 30
0.000000
  0
VERTEX
  8
LAYER-1
 10
2.441194
 20
0.020198
 30
0.000000
  0
VERTEX
  8
LAYER-1
 10
2.460534
 20
0.020198
 30
0.000000
  0
VERTEX
  8
LAYER-1
 10
2.491479
 20
0.016726
 30
0.000000
  0
VERTEX
  8
LAYER-1
 10
2.518556
 20
0.016726
 30
0.000000
  0
VERTEX
  8
LAYER-1
 10
2.553368
 20
0.016726
 30
0.000000
  0
VERTEX
  8
LAYER-1
 10
2.580445
 20
0.020198
 30
0.000000
  0
VERTEX
  8
LAYER-1
 10
2.615257
 20
0.030615
 30
0.000000
  0
VERTEX
  8
LAYER-1
 10
2.634597
 20
0.030615
 30
0.000000
  0
VERTEX
  8
LAYER-1
 10
2.657806
 20
0.030615
 30
0.000000
  0
VERTEX
  8
LAYER-1
 10
2.677146
 20
0.030615
 30
0.000000
  0
VERTEX
  8
LAYER-1
 10
2.700355
 20
0.034087
 30
0.000000
  0
VERTEX
  8
LAYER-1
 10
2.723563
 20
0.037559
 30
0.000000
  0
VERTEX
  8
LAYER-1
 10
2.754508
 20
0.037559
 30
0.000000
  0
VERTEX
  8
LAYER-1
 10
2.785453
 20
0.037559
 30
0.000000
  0
VERTEX
  8
LAYER-1
 10
2.808661
 20
0.037559
 30
0.000000
  0
VERTEX
  8
LAYER-1
 10
2.831869
 20
0.037559
 30
0.000000
  0
VERTEX
  8
LAYER-1
 10
2.851209
 20
0.034087
 30
0.000000
  0
VERTEX
  8
LAYER-1
 10
2.870550
 20
0.030615
 30
0.000000
  0
VERTEX
  8
LAYER-1
 10
2.889890
 20
0.027141
 30
0.000000
  0
VERTEX
  8
LAYER-1
 10
2.909231
 20
0.023670
 30
0.000000
  0
VERTEX
  8
LAYER-1
 10
2.940175
 20
0.016726
 30
0.000000
  0
VERTEX
  8
LAYER-1
 10
2.963384
 20
0.013252
 30
0.000000
  0
VERTEX
  8
LAYER-1
 10
2.986592
 20
0.013252
 30
0.000000
  0
VERTEX
  8
LAYER-1
 10
3.005933
 20
0.013252
 30
0.000000
  0
VERTEX
  8
LAYER-1
 10
3.033009
 20
0.013252
 30
0.000000
  0
VERTEX
  8
LAYER-1
 10
3.063954
 20
0.016726
 30
0.000000
  0
VERTEX
  8
LAYER-1
 10
3.118107
 20
0.027141
 30
0.000000
  0
VERTEX
  8
LAYER-1
 10
3.164524
 20
0.037559
 30
0.000000
  0
VERTEX
  8
LAYER-1
 10
3.207072
 20
0.044502
 30
0.000000
  0
VERTEX
  8
LAYER-1
 10
3.238018
 20
0.047976
 30
0.000000
  0
VERTEX
  8
LAYER-1
 10
3.276697
 20
0.051448
 30
0.000000
  0
VERTEX
  8
LAYER-1
 10
3.307643
 20
0.054920
 30
0.000000
  0
VERTEX
  8
LAYER-1
 10
3.333268
 20
0.055789
 30
0.000000
  0
VERTEX
  8
LAYER-1
 10
3.350675
 20
0.053619
 30
0.000000
  0
VERTEX
  8
LAYER-1
 10
3.371949
 20
0.048843
 30
0.000000
  0
VERTEX
  8
LAYER-1
 10
3.392740
 20
0.037559
 30
0.000000
  0
VERTEX
  8
LAYER-1
 10
3.415948
 20
0.034087
 30
0.000000
  0
VERTEX
  8
LAYER-1
 10
3.435289
 20
0.034087
 30
0.000000
  0
VERTEX
  8
LAYER-1
 10
3.454629
 20
0.034087
 30
0.000000
  0
VERTEX
  8
LAYER-1
 10
3.473970
 20
0.034087
 30
0.000000
  0
VERTEX
  8
LAYER-1
 10
3.504915
 20
0.034087
 30
0.000000
  0
VERTEX
  8
LAYER-1
 10
3.528123
 20
0.034087
 30
0.000000
  0
VERTEX
  8
LAYER-1
 10
3.551332
 20
0.034087
 30
0.000000
  0
VERTEX
  8
LAYER-1
 10
3.570672
 20
0.034087
 30
0.000000
  0
VERTEX
  8
LAYER-1
 10
3.593881
 20
0.034087
 30
0.000000
  0
VERTEX
  8
LAYER-1
 10
3.617088
 20
0.034087
 30
0.000000
  0
VERTEX
  8
LAYER-1
 10
3.636430
 20
0.034087
 30
0.000000
  0
VERTEX
  8
LAYER-1
 10
3.663506
 20
0.034087
 30
0.000000
  0
VERTEX
  8
LAYER-1
 10
3.686714
 20
0.030615
 30
0.000000
  0
VERTEX
  8
LAYER-1
 10
3.708956
 20
0.022803
 30
0.000000
  0
VERTEX
  8
LAYER-1
 10
3.749571
 20
0.020198
 30
0.000000
  0
VERTEX
  8
LAYER-1
 10
3.787284
 20
0.023670
 30
0.000000
  0
VERTEX
  8
LAYER-1
 10
3.806625
 20
0.030615
 30
0.000000
  0
VERTEX
  8
LAYER-1
 10
3.829833
 20
0.037559
 30
0.000000
  0
VERTEX
  8
LAYER-1
 10
3.849657
 20
0.041465
 30
0.000000
  0
VERTEX
  8
LAYER-1
 10
3.872382
 20
0.047976
 30
0.000000
  0
VERTEX
  8
LAYER-1
 10
3.895590
 20
0.047976
 30
0.000000
  0
VERTEX
  8
LAYER-1
 10
3.918799
 20
0.044502
 30
0.000000
  0
VERTEX
  8
LAYER-1
 10
3.942008
 20
0.044502
 30
0.000000
  0
VERTEX
  8
LAYER-1
 10
3.965215
 20
0.044502
 30
0.000000
  0
VERTEX
  8
LAYER-1
 10
3.984556
 20
0.041031
 30
0.000000
  0
VERTEX
  8
LAYER-1
 10
4.011633
 20
0.041031
 30
0.000000
  0
VERTEX
  8
LAYER-1
 10
4.042578
 20
0.041031
 30
0.000000
  0
VERTEX
  8
LAYER-1
 10
4.073522
 20
0.047976
 30
0.000000
  0
VERTEX
  8
LAYER-1
 10
4.092862
 20
0.051448
 30
0.000000
  0
VERTEX
  8
LAYER-1
 10
4.119939
 20
0.051448
 30
0.000000
  0
VERTEX
  8
LAYER-1
 10
4.143147
 20
0.054920
 30
0.000000
  0
VERTEX
  8
LAYER-1
 10
4.174091
 20
0.058391
 30
0.000000
  0
VERTEX
  8
LAYER-1
 10
4.197300
 20
0.058391
 30
0.000000
  0
VERTEX
  8
LAYER-1
 10
4.228245
 20
0.054920
 30
0.000000
  0
VERTEX
  8
LAYER-1
 10
4.270794
 20
0.044502
 30
0.000000
  0
VERTEX
  8
LAYER-1
 10
4.301738
 20
0.034087
 30
0.000000
  0
VERTEX
  8
LAYER-1
 10
4.336550
 20
0.023670
 30
0.000000
  0
VERTEX
  8
LAYER-1
 10
4.379583
 20
0.016724
 30
0.000000
  0
VERTEX
  8
LAYER-1
 10
4.426967
 20
0.017593
 30
0.000000
  0
VERTEX
  8
LAYER-1
 10
4.482087
 20
0.020196
 30
0.000000
  0
VERTEX
  8
LAYER-1
 10
4.549294
 20
0.020196
 30
0.000000
  0
VERTEX
  8
LAYER-1
 10
4.594745
 20
0.008912
 30
0.000000
  0
VERTEX
  8
LAYER-1
 10
4.624722
 20
0.002835
 30
0.000000
  0
VERTEX
  8
LAYER-1
 10
4.647931
 20
0.001968
 30
0.000000
  0
VERTEX
  8
LAYER-1
 10
4.682743
 20
0.001968
 30
0.000000
  0
VERTEX
  8
LAYER-1
 10
4.707886
 20
0.006309
 30
0.000000
  0
VERTEX
  8
LAYER-1
 10
4.734962
 20
0.016726
 30
0.000000
  0
VERTEX
  8
LAYER-1
 10
4.769775
 20
0.023670
 30
0.000000
  0
VERTEX
  8
LAYER-1
 10
4.796852
 20
0.030615
 30
0.000000
  0
VERTEX
  8
LAYER-1
 10
4.820059
 20
0.034087
 30
0.000000
  0
VERTEX
  8
LAYER-1
 10
4.843267
 20
0.037559
 30
0.000000
  0
VERTEX
  8
LAYER-1
 10
4.870344
 20
0.041031
 30
0.000000
  0
VERTEX
  8
LAYER-1
 10
4.897420
 20
0.047976
 30
0.000000
  0
VERTEX
  8
LAYER-1
 10
4.916761
 20
0.051448
 30
0.000000
  0
VERTEX
  8
LAYER-1
 10
4.947706
 20
0.054920
 30
0.000000
  0
VERTEX
  8
LAYER-1
 10
4.970915
 20
0.061865
 30
0.000000
  0
VERTEX
  8
LAYER-1
 10
4.994607
 20
0.072715
 30
0.000000
  0
VERTEX
  8
LAYER-1
 10
5.017331
 20
0.079226
 30
0.000000
  0
VERTEX
  8
LAYER-1
 10
5.040540
 20
0.079226
 30
0.000000
  0
VERTEX
  8
LAYER-1
 10
5.067616
 20
0.079226
 30
0.000000
  0
VERTEX
  8
LAYER-1
 10
5.094692
 20
0.079226
 30
0.000000
  0
VERTEX
  8
LAYER-1
 10
5.133374
 20
0.075752
 30
0.000000
  0
VERTEX
  8
LAYER-1
 10
5.187527
 20
0.072281
 30
0.000000
  0
VERTEX
  8
LAYER-1
 10
5.230075
 20
0.072281
 30
0.000000
  0
VERTEX
  8
LAYER-1
 10
5.261020
 20
0.072281
 30
0.000000
  0
VERTEX
  8
LAYER-1
 10
5.284228
 20
0.072281
 30
0.000000
  0
VERTEX
  8
LAYER-1
 10
5.307437
 20
0.072281
 30
0.000000
  0
VERTEX
  8
LAYER-1
 10
5.338382
 20
0.075752
 30
0.000000
  0
VERTEX
  8
LAYER-1
 10
5.377062
 20
0.075752
 30
0.000000
  0
VERTEX
  8
LAYER-1
 10
5.408006
 20
0.075752
 30
0.000000
  0
VERTEX
  8
LAYER-1
 10
5.431215
 20
0.079226
 30
0.000000
  0
VERTEX
  8
LAYER-1
 10
5.462159
 20
0.079226
 30
0.000000
  0
VERTEX
  8
LAYER-1
 10
5.481501
 20
0.079226
 30
0.000000
  0
VERTEX
  8
LAYER-1
 10
5.512444
 20
0.070545
 30
0.000000
  0
VERTEX
  8
LAYER-1
 10
5.539521
 20
0.058391
 30
0.000000
  0
VERTEX
  8
LAYER-1
 10
5.574333
 20
0.044502
 30
0.000000
  0
VERTEX
  8
LAYER-1
 10
5.601409
 20
0.037559
 30
0.000000
  0
VERTEX
  8
LAYER-1
 10
5.632354
 20
0.030615
 30
0.000000
  0
VERTEX
  8
LAYER-1
 10
5.659915
 20
0.028445
 30
0.000000
  0
VERTEX
  8
LAYER-1
 10
5.686507
 20
0.027141
 30
0.000000
  0
VERTEX
  8
LAYER-1
 10
5.709716
 20
0.030615
 30
0.000000
  0
VERTEX
  8
LAYER-1
 10
5.732924
 20
0.037559
 30
0.000000
  0
VERTEX
  8
LAYER-1
 10
5.760001
 20
0.041031
 30
0.000000
  0
VERTEX
  8
LAYER-1
 10
5.783209
 20
0.044502
 30
0.000000
  0
VERTEX
  8
LAYER-1
 10
5.806418
 20
0.047976
 30
0.000000
  0
VERTEX
  8
LAYER-1
 10
5.825757
 20
0.051448
 30
0.000000
  0
VERTEX
  8
LAYER-1
 10
5.848966
 20
0.051448
 30
0.000000
  0
VERTEX
  8
LAYER-1
 10
5.876043
 20
0.051448
 30
0.000000
  0
VERTEX
  8
LAYER-1
 10
5.895867
 20
0.054053
 30
0.000000
  0
VERTEX
  8
LAYER-1
 10
5.922459
 20
0.058391
 30
0.000000
  0
VERTEX
  8
LAYER-1
 10
5.945668
 20
0.065337
 30
0.000000
  0
VERTEX
  8
LAYER-1
 10
5.976613
 20
0.065337
 30
0.000000
  0
VERTEX
  8
LAYER-1
 10
6.007557
 20
0.065337
 30
0.000000
  0
VERTEX
  8
LAYER-1
 10
6.026897
 20
0.065337
 30
0.000000
  0
VERTEX
  8
LAYER-1
 10
6.081050
 20
0.058391
 30
0.000000
  0
VERTEX
  8
LAYER-1
 10
6.111995
 20
0.051448
 30
0.000000
  0
VERTEX
  8
LAYER-1
 10
6.131336
 20
0.047976
 30
0.000000
  0
VERTEX
  8
LAYER-1
 10
6.166148
 20
0.047976
 30
0.000000
  0
VERTEX
  8
LAYER-1
 10
6.189839
 20
0.055354
 30
0.000000
  0
VERTEX
  8
LAYER-1
 10
6.211598
 20
0.056221
 30
0.000000
  0
VERTEX
  8
LAYER-1
 10
6.263334
 20
0.063166
 30
0.000000
  0
VERTEX
  8
LAYER-1
 10
6.311684
 20
0.073150
 30
0.000000
  0
VERTEX
  8
LAYER-1
 10
6.347947
 20
0.076621
 30
0.000000
  0
VERTEX
  8
LAYER-1
 10
6.380825
 20
0.077056
 30
0.000000
  0
VERTEX
  8
LAYER-1
 10
6.397748
 20
0.072281
 30
0.000000
  0
VERTEX
  8
LAYER-1
 10
6.416121
 20
0.068809
 30
0.000000
  0
VERTEX
  8
LAYER-1
 10
6.447066
 20
0.063601
 30
0.000000
  0
VERTEX
  8
LAYER-1
 10
6.487198
 20
0.071846
 30
0.000000
  0
VERTEX
  8
LAYER-1
 10
6.502670
 20
0.079226
 30
0.000000
  0
VERTEX
  8
LAYER-1
 10
6.525880
 20
0.079226
 30
0.000000
  0
VERTEX
  8
LAYER-1
 10
6.549088
 20
0.079226
 30
0.000000
  0
VERTEX
  8
LAYER-1
 10
6.576163
 20
0.072281
 30
0.000000
  0
VERTEX
  8
LAYER-1
 10
6.599372
 20
0.058391
 30
0.000000
  0
VERTEX
  8
LAYER-1
 10
6.626449
 20
0.047976
 30
0.000000
  0
VERTEX
  8
LAYER-1
 10
6.653525
 20
0.037559
 30
0.000000
  0
VERTEX
  8
LAYER-1
 10
6.676734
 20
0.037559
 30
0.000000
  0
VERTEX
  8
LAYER-1
 10
6.706766
 20
0.037542
 30
0.000000
  0
VERTEX
  8
LAYER-1
 10
6.730886
 20
0.047976
 30
0.000000
  0
SEQEND
  8
LAYER-1
  0
POLYLINE
  8
LAYER-1
 66
  1
 70
  0
 62
  0
 10
5.802979
 20
0.468113
 30
0.000000
  0
VERTEX
  8
LAYER-1
 10
5.802979
 20
0.468113
 30
0.000000
  0
VERTEX
  8
LAYER-1
 10
3.739112
 20
0.158534
 30
0.000000
  0
SEQEND
  8
LAYER-1
  0
POLYLINE
  8
LAYER-1
 66
  1
 70
  1
 62
  0
  0
VERTEX
  8
LAYER-1
 10
3.719645
 20
0.155613
 30
0.000000
  0
VERTEX
  8
LAYER-1
 10
3.782140
 20
0.207120
 30
0.000000
  0
VERTEX
  8
LAYER-1
 10
3.788321
 20
0.165915
 30
0.000000
  0
VERTEX
  8
LAYER-1
 10
3.794502
 20
0.124709
 30
0.000000
  0
VERTEX
  8
LAYER-1
 10
3.719645
 20
0.155613
 30
0.000000
  0
SEQEND
  8
LAYER-1
  0
LINE
  8
LAYER-1
 62
  0
 10
5.836491
 20
7.458551
 30
0.000000
 11
5.836491
 21
7.190513
 31
0.000000
  0
LINE
  8
LAYER-1
 62
  0
 10
5.753369
 20
7.458551
 30
0.000000
 11
5.961491
 21
7.458551
 31
0.000000
  0
LINE
  8
LAYER-1
 62
  0
 10
5.759232
 20
7.190513
 30
0.000000
 11
5.961491
 21
7.190513
 31
0.000000
  0
LINE
  8
LAYER-1
 62
  0
 10
5.865954
 20
7.429088
 30
0.000000
 11
5.807028
 21
7.488013
 31
0.000000
  0
LINE
  8
LAYER-1
 62
  0
 10
5.865954
 20
7.161050
 30
0.000000
 11
5.807028
 21
7.219975
 31
0.000000
  0
TEXT
  8
LAYER-1
 62
  0
 10
5.713929
 20
7.316168
 30
0.000000
 40
0.125000
  1
 
 50
90.000000
  0
TEXT
  8
LAYER-1
 62
  0
 10
6.152463
 20
7.340496
 30
0.000000
 40
0.125000
  1
4"
 72
  5
 11
6.374685
 21
7.340496
 31
0.000000
  0
TEXT
  8
LAYER-1
 62
  0
 10
5.930241
 20
7.146051
 30
0.000000
 40
0.125000
  1
102mm
 72
  5
 11
6.596908
 21
7.146051
 31
0.000000
  0
LINE
  8
LAYER-1
 62
  0
 10
4.443261
 20
7.721761
 30
0.000000
 11
4.852983
 21
7.721761
 31
0.000000
  0
LINE
  8
LAYER-1
 62
  0
 10
4.443261
 20
7.351971
 30
0.000000
 11
4.443261
 21
7.846761
 31
0.000000
  0
LINE
  8
LAYER-1
 62
  0
 10
4.852983
 20
7.350234
 30
0.000000
 11
4.852983
 21
7.846761
 31
0.000000
  0
LINE
  8
LAYER-1
 62
  0
 10
4.472723
 20
7.751224
 30
0.000000
 11
4.413798
 21
7.692298
 31
0.000000
  0
LINE
  8
LAYER-1
 62
  0
 10
4.882446
 20
7.751224
 30
0.000000
 11
4.823520
 21
7.692298
 31
0.000000
  0
TEXT
  8
LAYER-1
 62
  0
 10
4.639559
 20
7.845964
 30
0.000000
 40
0.125000
  1
 
  0
TEXT
  8
LAYER-1
 62
  0
 10
4.541352
 20
8.090496
 30
0.000000
 40
0.125000
  1
6"
 72
  5
 11
4.763574
 21
8.090496
 31
0.000000
  0
TEXT
  8
LAYER-1
 62
  0
 10
4.319130
 20
7.896051
 30
0.000000
 40
0.125000
  1
152mm
 72
  5
 11
4.985797
 21
7.896051
 31
0.000000
  0
TEXT
  8
LAYER-1
 62
  0
 10
1.763574
 20
8.521051
 30
0.000000
 40
0.125000
  1
APERTO
 72
  5
 11
2.499685
 21
8.521051
 31
0.000000
  0
TEXT
  8
LAYER-1
 62
  0
 10
5.819130
 20
0.548829
 30
0.000000
 40
0.125000
  1
Vano
 72
  5
 11
6.277463
 21
0.548829
 31
0.000000
  0
TEXT
  8
LAYER-1
 62
  0
 10
5.819130
 20
0.354385
 30
0.000000
 40
0.125000
  1
antipolvere
 72
  5
 11
6.721908
 21
0.354385
 31
0.000000
  0
ENDSEC
  0
EOF
