  0
SECTION
  2
HEADER
999
MacDraft 5.0\0
  9
$ACADVER
  1
AC1006
  9
$CLAYER
  8
LAYER-1
  9
$EXTMIN
 10
0.000000
 20
0.000000
  9
$EXTMAX
 10
6.764222
 20
10.035307
  9
$FASTZOOM
 70
0
  9
$FILLMODE
 70
1
  0
ENDSEC
  0
SECTION
  2
TABLES
  0
TABLE
  2
LTYPE
 70
16
  0
LTYPE
  2
CONTINUOUS
 70
64
  3
Solid Line
 72
65
 73
0
 40
0.000000
  0
LTYPE
  2
LTYPE01
 70
64
  3
CUSTOM
 72
65
 73
2
 40
0.111111
 49
0.083333
 49
-0.027778
  0
LTYPE
  2
LTYPE02
 70
64
  3
CUSTOM
 72
65
 73
2
 40
0.194444
 49
0.166667
 49
-0.027778
  0
LTYPE
  2
LTYPE03
 70
64
  3
CUSTOM
 72
65
 73
2
 40
0.375000
 49
0.333333
 49
-0.041667
  0
LTYPE
  2
LTYPE04
 70
64
  3
CUSTOM
 72
65
 73
2
 40
0.722222
 49
0.666667
 49
-0.055556
  0
LTYPE
  2
LTYPE05
 70
64
  3
CUSTOM
 72
65
 73
4
 40
0.152778
 49
0.083333
 49
-0.027778
 49
0.013889
 49
-0.027778
  0
LTYPE
  2
LTYPE06
 70
64
  3
CUSTOM
 72
65
 73
4
 40
0.236111
 49
0.166667
 49
-0.027778
 49
0.013889
 49
-0.027778
  0
LTYPE
  2
LTYPE07
 70
64
  3
CUSTOM
 72
65
 73
4
 40
0.444444
 49
0.333333
 49
-0.041667
 49
0.027778
 49
-0.041667
  0
LTYPE
  2
LTYPE08
 70
64
  3
CUSTOM
 72
65
 73
4
 40
0.805556
 49
0.666667
 49
-0.055556
 49
0.027778
 49
-0.055556
  0
LTYPE
  2
LTYPE09
 70
64
  3
CUSTOM
 72
65
 73
6
 40
0.194444
 49
0.083333
 49
-0.027778
 49
0.013889
 49
-0.027778
 49
0.013889
 49
-0.027778
  0
LTYPE
  2
LTYPE10
 70
64
  3
CUSTOM
 72
65
 73
6
 40
0.277778
 49
0.166667
 49
-0.027778
 49
0.013889
 49
-0.027778
 49
0.013889
 49
-0.027778
  0
LTYPE
  2
LTYPE11
 70
64
  3
CUSTOM
 72
65
 73
6
 40
0.500000
 49
0.333333
 49
-0.041667
 49
0.027778
 49
-0.027778
 49
0.027778
 49
-0.041667
  0
LTYPE
  2
LTYPE12
 70
64
  3
CUSTOM
 72
65
 73
6
 40
0.861111
 49
0.666667
 49
-0.055556
 49
0.027778
 49
-0.027778
 49
0.027778
 49
-0.055556
  0
LTYPE
  2
LTYPE13
 70
64
  3
CUSTOM
 72
65
 73
8
 40
0.319444
 49
0.166667
 49
-0.027778
 49
0.013889
 49
-0.027778
 49
0.013889
 49
-0.027778
 49
0.013889
 49
-0.027778
  0
LTYPE
  2
LTYPE14
 70
64
  3
CUSTOM
 72
65
 73
8
 40
0.555556
 49
0.333333
 49
-0.041667
 49
0.027778
 49
-0.027778
 49
0.027778
 49
-0.027778
 49
0.027778
 49
-0.041667
  0
LTYPE
  2
LTYPE15
 70
64
  3
CUSTOM
 72
65
 73
8
 40
0.944444
 49
0.666667
 49
-0.055556
 49
0.027778
 49
-0.041667
 49
0.027778
 49
-0.041667
 49
0.027778
 49
-0.055556
  0
ENDTAB
  0
TABLE
  2
LAYER
 70
1
  0
LAYER
  2
LAYER-1
 70
0
 62
7
  6
CONTINUOUS
  0
ENDTAB
  0
ENDSEC
  0
SECTION
  2
BLOCKS
  0
ENDSEC
  0
SECTION
  2
ENTITIES
  0
POLYLINE
  8
LAYER-1
 66
  1
 70
  0
 62
  0
 10
3.440110
 20
0.212378
 30
0.000000
  0
VERTEX
  8
LAYER-1
 10
3.440110
 20
0.212378
 30
0.000000
  0
VERTEX
  8
LAYER-1
 10
3.440110
 20
0.211188
 30
0.000000
  0
SEQEND
  8
LAYER-1
  0
POLYLINE
  8
LAYER-1
 66
  1
 70
  1
 62
  0
 10
1.268253
 20
0.117211
 30
0.000000
  0
VERTEX
  8
LAYER-1
 10
1.268253
 20
0.117211
 30
0.000000
  0
VERTEX
  8
LAYER-1
 10
1.275198
 20
0.091170
 30
0.000000
  0
VERTEX
  8
LAYER-1
 10
1.300372
 20
0.105058
 30
0.000000
  0
SEQEND
  8
LAYER-1
  0
POLYLINE
  8
LAYER-1
 66
  1
 70
  1
 62
  0
 10
1.458358
 20
0.222243
 30
0.000000
  0
VERTEX
  8
LAYER-1
 10
1.458358
 20
0.222243
 30
0.000000
  0
VERTEX
  8
LAYER-1
 10
1.445338
 20
0.199673
 30
0.000000
  0
VERTEX
  8
LAYER-1
 10
1.475720
 20
0.220506
 30
0.000000
  0
SEQEND
  8
LAYER-1
  0
POLYLINE
  8
LAYER-1
 66
  1
 70
  1
 62
  0
 10
1.104192
 20
0.158010
 30
0.000000
  0
VERTEX
  8
LAYER-1
 10
1.104192
 20
0.158010
 30
0.000000
  0
VERTEX
  8
LAYER-1
 10
1.087699
 20
0.132835
 30
0.000000
  0
VERTEX
  8
LAYER-1
 10
1.102455
 20
0.125023
 30
0.000000
  0
SEQEND
  8
LAYER-1
  0
POLYLINE
  8
LAYER-1
 66
  1
 70
  0
 62
  0
 10
1.270858
 20
0.158879
 30
0.000000
  0
VERTEX
  8
LAYER-1
 10
1.270858
 20
0.158879
 30
0.000000
  0
VERTEX
  8
LAYER-1
 10
1.266518
 20
0.158879
 30
0.000000
  0
VERTEX
  8
LAYER-1
 10
1.263046
 20
0.154538
 30
0.000000
  0
VERTEX
  8
LAYER-1
 10
1.262178
 20
0.149330
 30
0.000000
  0
VERTEX
  8
LAYER-1
 10
1.263914
 20
0.144990
 30
0.000000
  0
VERTEX
  8
LAYER-1
 10
1.268254
 20
0.143254
 30
0.000000
  0
VERTEX
  8
LAYER-1
 10
1.272594
 20
0.143254
 30
0.000000
  0
VERTEX
  8
LAYER-1
 10
1.276935
 20
0.146725
 30
0.000000
  0
VERTEX
  8
LAYER-1
 10
1.276935
 20
0.151066
 30
0.000000
  0
VERTEX
  8
LAYER-1
 10
1.276067
 20
0.155407
 30
0.000000
  0
VERTEX
  8
LAYER-1
 10
1.271726
 20
0.158011
 30
0.000000
  0
SEQEND
  8
LAYER-1
  0
POLYLINE
  8
LAYER-1
 66
  1
 70
  1
 62
  0
 10
0.908879
 20
0.197071
 30
0.000000
  0
VERTEX
  8
LAYER-1
 10
0.908879
 20
0.197071
 30
0.000000
  0
VERTEX
  8
LAYER-1
 10
0.895858
 20
0.174502
 30
0.000000
  0
VERTEX
  8
LAYER-1
 10
0.926240
 20
0.195334
 30
0.000000
  0
SEQEND
  8
LAYER-1
  0
POLYLINE
  8
LAYER-1
 66
  1
 70
  1
 62
  0
 10
1.040656
 20
0.196737
 30
0.000000
  0
VERTEX
  8
LAYER-1
 10
1.040656
 20
0.196737
 30
0.000000
  0
VERTEX
  8
LAYER-1
 10
1.027970
 20
0.177373
 30
0.000000
  0
VERTEX
  8
LAYER-1
 10
1.039321
 20
0.171362
 30
0.000000
  0
SEQEND
  8
LAYER-1
  0
POLYLINE
  8
LAYER-1
 66
  1
 70
  0
 62
  0
 10
1.398463
 20
0.177974
 30
0.000000
  0
VERTEX
  8
LAYER-1
 10
1.398463
 20
0.177974
 30
0.000000
  0
VERTEX
  8
LAYER-1
 10
1.394122
 20
0.177974
 30
0.000000
  0
VERTEX
  8
LAYER-1
 10
1.390650
 20
0.173634
 30
0.000000
  0
VERTEX
  8
LAYER-1
 10
1.389782
 20
0.168427
 30
0.000000
  0
VERTEX
  8
LAYER-1
 10
1.391518
 20
0.164085
 30
0.000000
  0
VERTEX
  8
LAYER-1
 10
1.395858
 20
0.162349
 30
0.000000
  0
VERTEX
  8
LAYER-1
 10
1.400198
 20
0.162349
 30
0.000000
  0
VERTEX
  8
LAYER-1
 10
1.404538
 20
0.165821
 30
0.000000
  0
VERTEX
  8
LAYER-1
 10
1.404538
 20
0.170162
 30
0.000000
  0
VERTEX
  8
LAYER-1
 10
1.403670
 20
0.174503
 30
0.000000
  0
VERTEX
  8
LAYER-1
 10
1.399331
 20
0.177106
 30
0.000000
  0
SEQEND
  8
LAYER-1
  0
POLYLINE
  8
LAYER-1
 66
  1
 70
  0
 62
  0
 10
1.156274
 20
0.151933
 30
0.000000
  0
VERTEX
  8
LAYER-1
 10
1.156274
 20
0.151933
 30
0.000000
  0
VERTEX
  8
LAYER-1
 10
1.151935
 20
0.151933
 30
0.000000
  0
VERTEX
  8
LAYER-1
 10
1.148462
 20
0.147592
 30
0.000000
  0
VERTEX
  8
LAYER-1
 10
1.147594
 20
0.142385
 30
0.000000
  0
VERTEX
  8
LAYER-1
 10
1.149330
 20
0.138044
 30
0.000000
  0
VERTEX
  8
LAYER-1
 10
1.153671
 20
0.136308
 30
0.000000
  0
VERTEX
  8
LAYER-1
 10
1.158011
 20
0.136308
 30
0.000000
  0
VERTEX
  8
LAYER-1
 10
1.162351
 20
0.139780
 30
0.000000
  0
VERTEX
  8
LAYER-1
 10
1.162351
 20
0.144121
 30
0.000000
  0
VERTEX
  8
LAYER-1
 10
1.161483
 20
0.148461
 30
0.000000
  0
VERTEX
  8
LAYER-1
 10
1.157142
 20
0.151065
 30
0.000000
  0
SEQEND
  8
LAYER-1
  0
POLYLINE
  8
LAYER-1
 66
  1
 70
  0
 62
  0
 10
0.992212
 20
0.144121
 30
0.000000
  0
VERTEX
  8
LAYER-1
 10
0.992212
 20
0.144121
 30
0.000000
  0
VERTEX
  8
LAYER-1
 10
0.987872
 20
0.144121
 30
0.000000
  0
VERTEX
  8
LAYER-1
 10
0.984399
 20
0.139780
 30
0.000000
  0
VERTEX
  8
LAYER-1
 10
0.983531
 20
0.134572
 30
0.000000
  0
VERTEX
  8
LAYER-1
 10
0.985267
 20
0.130231
 30
0.000000
  0
VERTEX
  8
LAYER-1
 10
0.989608
 20
0.128496
 30
0.000000
  0
VERTEX
  8
LAYER-1
 10
0.993948
 20
0.128496
 30
0.000000
  0
VERTEX
  8
LAYER-1
 10
0.998288
 20
0.131967
 30
0.000000
  0
VERTEX
  8
LAYER-1
 10
0.998288
 20
0.136308
 30
0.000000
  0
VERTEX
  8
LAYER-1
 10
0.997420
 20
0.140649
 30
0.000000
  0
VERTEX
  8
LAYER-1
 10
0.993080
 20
0.143253
 30
0.000000
  0
SEQEND
  8
LAYER-1
  0
POLYLINE
  8
LAYER-1
 66
  1
 70
  1
 62
  0
 10
1.620252
 20
0.168860
 30
0.000000
  0
VERTEX
  8
LAYER-1
 10
1.620252
 20
0.168860
 30
0.000000
  0
VERTEX
  8
LAYER-1
 10
1.594211
 20
0.161915
 30
0.000000
  0
VERTEX
  8
LAYER-1
 10
1.608098
 20
0.136742
 30
0.000000
  0
SEQEND
  8
LAYER-1
  0
POLYLINE
  8
LAYER-1
 66
  1
 70
  1
 62
  0
 10
1.681794
 20
0.109262
 30
0.000000
  0
VERTEX
  8
LAYER-1
 10
1.681794
 20
0.109262
 30
0.000000
  0
VERTEX
  8
LAYER-1
 10
1.704365
 20
0.096241
 30
0.000000
  0
VERTEX
  8
LAYER-1
 10
1.683533
 20
0.126623
 30
0.000000
  0
SEQEND
  8
LAYER-1
  0
POLYLINE
  8
LAYER-1
 66
  1
 70
  1
 62
  0
 10
1.213133
 20
0.176672
 30
0.000000
  0
VERTEX
  8
LAYER-1
 10
1.213133
 20
0.176672
 30
0.000000
  0
VERTEX
  8
LAYER-1
 10
1.187960
 20
0.193164
 30
0.000000
  0
VERTEX
  8
LAYER-1
 10
1.180147
 20
0.178408
 30
0.000000
  0
SEQEND
  8
LAYER-1
  0
POLYLINE
  8
LAYER-1
 66
  1
 70
  0
 62
  0
 10
1.631537
 20
0.205318
 30
0.000000
  0
VERTEX
  8
LAYER-1
 10
1.631537
 20
0.205318
 30
0.000000
  0
VERTEX
  8
LAYER-1
 10
1.631537
 20
0.209659
 30
0.000000
  0
VERTEX
  8
LAYER-1
 10
1.627196
 20
0.213131
 30
0.000000
  0
VERTEX
  8
LAYER-1
 10
1.621988
 20
0.213999
 30
0.000000
  0
VERTEX
  8
LAYER-1
 10
1.617648
 20
0.212262
 30
0.000000
  0
VERTEX
  8
LAYER-1
 10
1.615912
 20
0.207922
 30
0.000000
  0
VERTEX
  8
LAYER-1
 10
1.615912
 20
0.203583
 30
0.000000
  0
VERTEX
  8
LAYER-1
 10
1.619383
 20
0.199242
 30
0.000000
  0
VERTEX
  8
LAYER-1
 10
1.623724
 20
0.199242
 30
0.000000
  0
VERTEX
  8
LAYER-1
 10
1.628065
 20
0.200110
 30
0.000000
  0
VERTEX
  8
LAYER-1
 10
1.630670
 20
0.204450
 30
0.000000
  0
SEQEND
  8
LAYER-1
  0
POLYLINE
  8
LAYER-1
 66
  1
 70
  1
 62
  0
 10
1.583794
 20
0.181011
 30
0.000000
  0
VERTEX
  8
LAYER-1
 10
1.583794
 20
0.181011
 30
0.000000
  0
VERTEX
  8
LAYER-1
 10
1.561223
 20
0.194032
 30
0.000000
  0
VERTEX
  8
LAYER-1
 10
1.582056
 20
0.163651
 30
0.000000
  0
SEQEND
  8
LAYER-1
  0
POLYLINE
  8
LAYER-1
 66
  1
 70
  1
 62
  0
 10
1.231896
 20
0.193331
 30
0.000000
  0
VERTEX
  8
LAYER-1
 10
1.231896
 20
0.193331
 30
0.000000
  0
VERTEX
  8
LAYER-1
 10
1.212532
 20
0.206017
 30
0.000000
  0
VERTEX
  8
LAYER-1
 10
1.206520
 20
0.194667
 30
0.000000
  0
SEQEND
  8
LAYER-1
  0
POLYLINE
  8
LAYER-1
 66
  1
 70
  0
 62
  0
 10
1.697769
 20
0.069679
 30
0.000000
  0
VERTEX
  8
LAYER-1
 10
1.697769
 20
0.069679
 30
0.000000
  0
VERTEX
  8
LAYER-1
 10
1.697769
 20
0.065339
 30
0.000000
  0
VERTEX
  8
LAYER-1
 10
1.702109
 20
0.061867
 30
0.000000
  0
VERTEX
  8
LAYER-1
 10
1.707317
 20
0.060999
 30
0.000000
  0
VERTEX
  8
LAYER-1
 10
1.711658
 20
0.062734
 30
0.000000
  0
VERTEX
  8
LAYER-1
 10
1.713394
 20
0.067075
 30
0.000000
  0
VERTEX
  8
LAYER-1
 10
1.713394
 20
0.071415
 30
0.000000
  0
VERTEX
  8
LAYER-1
 10
1.709922
 20
0.075756
 30
0.000000
  0
VERTEX
  8
LAYER-1
 10
1.705581
 20
0.075756
 30
0.000000
  0
VERTEX
  8
LAYER-1
 10
1.701240
 20
0.074888
 30
0.000000
  0
VERTEX
  8
LAYER-1
 10
1.698636
 20
0.070546
 30
0.000000
  0
SEQEND
  8
LAYER-1
  0
POLYLINE
  8
LAYER-1
 66
  1
 70
  0
 62
  0
 10
1.207057
 20
0.124589
 30
0.000000
  0
VERTEX
  8
LAYER-1
 10
1.207057
 20
0.124589
 30
0.000000
  0
VERTEX
  8
LAYER-1
 10
1.207057
 20
0.128929
 30
0.000000
  0
VERTEX
  8
LAYER-1
 10
1.202716
 20
0.132401
 30
0.000000
  0
VERTEX
  8
LAYER-1
 10
1.197508
 20
0.133269
 30
0.000000
  0
VERTEX
  8
LAYER-1
 10
1.193168
 20
0.131533
 30
0.000000
  0
VERTEX
  8
LAYER-1
 10
1.191432
 20
0.127192
 30
0.000000
  0
VERTEX
  8
LAYER-1
 10
1.191432
 20
0.122853
 30
0.000000
  0
VERTEX
  8
LAYER-1
 10
1.194903
 20
0.118512
 30
0.000000
  0
VERTEX
  8
LAYER-1
 10
1.199244
 20
0.118512
 30
0.000000
  0
VERTEX
  8
LAYER-1
 10
1.203585
 20
0.119380
 30
0.000000
  0
VERTEX
  8
LAYER-1
 10
1.206190
 20
0.123721
 30
0.000000
  0
SEQEND
  8
LAYER-1
  0
POLYLINE
  8
LAYER-1
 66
  1
 70
  0
 62
  0
 10
1.509140
 20
0.159312
 30
0.000000
  0
VERTEX
  8
LAYER-1
 10
1.509140
 20
0.159312
 30
0.000000
  0
VERTEX
  8
LAYER-1
 10
1.509140
 20
0.163653
 30
0.000000
  0
VERTEX
  8
LAYER-1
 10
1.504800
 20
0.167124
 30
0.000000
  0
VERTEX
  8
LAYER-1
 10
1.499592
 20
0.167992
 30
0.000000
  0
VERTEX
  8
LAYER-1
 10
1.495251
 20
0.166256
 30
0.000000
  0
VERTEX
  8
LAYER-1
 10
1.493515
 20
0.161916
 30
0.000000
  0
VERTEX
  8
LAYER-1
 10
1.493515
 20
0.157577
 30
0.000000
  0
VERTEX
  8
LAYER-1
 10
1.496987
 20
0.153236
 30
0.000000
  0
VERTEX
  8
LAYER-1
 10
1.501328
 20
0.153236
 30
0.000000
  0
VERTEX
  8
LAYER-1
 10
1.505669
 20
0.154104
 30
0.000000
  0
VERTEX
  8
LAYER-1
 10
1.508274
 20
0.158444
 30
0.000000
  0
SEQEND
  8
LAYER-1
  0
POLYLINE
  8
LAYER-1
 66
  1
 70
  1
 62
  0
 10
1.728324
 20
0.151499
 30
0.000000
  0
VERTEX
  8
LAYER-1
 10
1.728324
 20
0.151499
 30
0.000000
  0
VERTEX
  8
LAYER-1
 10
1.735268
 20
0.125459
 30
0.000000
  0
VERTEX
  8
LAYER-1
 10
1.754366
 20
0.141083
 30
0.000000
  0
SEQEND
  8
LAYER-1
  0
POLYLINE
  8
LAYER-1
 66
  1
 70
  1
 62
  0
 10
1.912352
 20
0.173202
 30
0.000000
  0
VERTEX
  8
LAYER-1
 10
1.912352
 20
0.173202
 30
0.000000
  0
VERTEX
  8
LAYER-1
 10
1.899331
 20
0.150631
 30
0.000000
  0
VERTEX
  8
LAYER-1
 10
1.929713
 20
0.171465
 30
0.000000
  0
SEQEND
  8
LAYER-1
  0
POLYLINE
  8
LAYER-1
 66
  1
 70
  1
 62
  0
 10
1.962256
 20
0.071741
 30
0.000000
  0
VERTEX
  8
LAYER-1
 10
1.962256
 20
0.071741
 30
0.000000
  0
VERTEX
  8
LAYER-1
 10
1.945764
 20
0.046567
 30
0.000000
  0
VERTEX
  8
LAYER-1
 10
1.960520
 20
0.038755
 30
0.000000
  0
SEQEND
  8
LAYER-1
  0
POLYLINE
  8
LAYER-1
 66
  1
 70
  0
 62
  0
 10
1.700546
 20
0.175805
 30
0.000000
  0
VERTEX
  8
LAYER-1
 10
1.700546
 20
0.175805
 30
0.000000
  0
VERTEX
  8
LAYER-1
 10
1.696206
 20
0.175805
 30
0.000000
  0
VERTEX
  8
LAYER-1
 10
1.692734
 20
0.171465
 30
0.000000
  0
VERTEX
  8
LAYER-1
 10
1.691866
 20
0.166256
 30
0.000000
  0
VERTEX
  8
LAYER-1
 10
1.693602
 20
0.161916
 30
0.000000
  0
VERTEX
  8
LAYER-1
 10
1.697941
 20
0.160180
 30
0.000000
  0
VERTEX
  8
LAYER-1
 10
1.702282
 20
0.160180
 30
0.000000
  0
VERTEX
  8
LAYER-1
 10
1.706622
 20
0.163652
 30
0.000000
  0
VERTEX
  8
LAYER-1
 10
1.706622
 20
0.167992
 30
0.000000
  0
VERTEX
  8
LAYER-1
 10
1.705754
 20
0.172334
 30
0.000000
  0
VERTEX
  8
LAYER-1
 10
1.701414
 20
0.174937
 30
0.000000
  0
SEQEND
  8
LAYER-1
  0
POLYLINE
  8
LAYER-1
 66
  1
 70
  1
 62
  0
 10
1.737873
 20
0.108097
 30
0.000000
  0
VERTEX
  8
LAYER-1
 10
1.737873
 20
0.108097
 30
0.000000
  0
VERTEX
  8
LAYER-1
 10
1.724852
 20
0.085527
 30
0.000000
  0
VERTEX
  8
LAYER-1
 10
1.755234
 20
0.106360
 30
0.000000
  0
SEQEND
  8
LAYER-1
  0
POLYLINE
  8
LAYER-1
 66
  1
 70
  1
 62
  0
 10
1.993673
 20
0.053849
 30
0.000000
  0
VERTEX
  8
LAYER-1
 10
1.993673
 20
0.053849
 30
0.000000
  0
VERTEX
  8
LAYER-1
 10
2.006360
 20
0.073213
 30
0.000000
  0
VERTEX
  8
LAYER-1
 10
1.995009
 20
0.079224
 30
0.000000
  0
SEQEND
  8
LAYER-1
  0
POLYLINE
  8
LAYER-1
 66
  1
 70
  0
 62
  0
 10
1.892898
 20
0.054296
 30
0.000000
  0
VERTEX
  8
LAYER-1
 10
1.892898
 20
0.054296
 30
0.000000
  0
VERTEX
  8
LAYER-1
 10
1.897239
 20
0.054296
 30
0.000000
  0
VERTEX
  8
LAYER-1
 10
1.900711
 20
0.058637
 30
0.000000
  0
VERTEX
  8
LAYER-1
 10
1.901579
 20
0.063844
 30
0.000000
  0
VERTEX
  8
LAYER-1
 10
1.899843
 20
0.068186
 30
0.000000
  0
VERTEX
  8
LAYER-1
 10
1.895502
 20
0.069921
 30
0.000000
  0
VERTEX
  8
LAYER-1
 10
1.891162
 20
0.069921
 30
0.000000
  0
VERTEX
  8
LAYER-1
 10
1.886822
 20
0.066449
 30
0.000000
  0
VERTEX
  8
LAYER-1
 10
1.886822
 20
0.062108
 30
0.000000
  0
VERTEX
  8
LAYER-1
 10
1.887690
 20
0.057768
 30
0.000000
  0
VERTEX
  8
LAYER-1
 10
1.892031
 20
0.055163
 30
0.000000
  0
SEQEND
  8
LAYER-1
  0
POLYLINE
  8
LAYER-1
 66
  1
 70
  0
 62
  0
 10
1.582403
 20
0.090163
 30
0.000000
  0
VERTEX
  8
LAYER-1
 10
1.582403
 20
0.090163
 30
0.000000
  0
VERTEX
  8
LAYER-1
 10
1.586744
 20
0.090163
 30
0.000000
  0
VERTEX
  8
LAYER-1
 10
1.590215
 20
0.094504
 30
0.000000
  0
VERTEX
  8
LAYER-1
 10
1.591084
 20
0.099712
 30
0.000000
  0
VERTEX
  8
LAYER-1
 10
1.589348
 20
0.104053
 30
0.000000
  0
VERTEX
  8
LAYER-1
 10
1.585008
 20
0.105788
 30
0.000000
  0
VERTEX
  8
LAYER-1
 10
1.580667
 20
0.105788
 30
0.000000
  0
VERTEX
  8
LAYER-1
 10
1.576326
 20
0.102317
 30
0.000000
  0
VERTEX
  8
LAYER-1
 10
1.576326
 20
0.097976
 30
0.000000
  0
VERTEX
  8
LAYER-1
 10
1.577195
 20
0.093636
 30
0.000000
  0
VERTEX
  8
LAYER-1
 10
1.581536
 20
0.091031
 30
0.000000
  0
SEQEND
  8
LAYER-1
  0
POLYLINE
  8
LAYER-1
 66
  1
 70
  1
 62
  0
 10
2.077717
 20
0.156274
 30
0.000000
  0
VERTEX
  8
LAYER-1
 10
2.077717
 20
0.156274
 30
0.000000
  0
VERTEX
  8
LAYER-1
 10
2.051676
 20
0.149329
 30
0.000000
  0
VERTEX
  8
LAYER-1
 10
2.065563
 20
0.124156
 30
0.000000
  0
SEQEND
  8
LAYER-1
  0
POLYLINE
  8
LAYER-1
 66
  1
 70
  1
 62
  0
 10
1.816600
 20
0.116679
 30
0.000000
  0
VERTEX
  8
LAYER-1
 10
1.816600
 20
0.116679
 30
0.000000
  0
VERTEX
  8
LAYER-1
 10
1.794029
 20
0.129700
 30
0.000000
  0
VERTEX
  8
LAYER-1
 10
1.814862
 20
0.099318
 30
0.000000
  0
SEQEND
  8
LAYER-1
  0
POLYLINE
  8
LAYER-1
 66
  1
 70
  1
 62
  0
 10
1.846457
 20
0.039106
 30
0.000000
  0
VERTEX
  8
LAYER-1
 10
1.846457
 20
0.039106
 30
0.000000
  0
VERTEX
  8
LAYER-1
 10
1.871630
 20
0.022612
 30
0.000000
  0
VERTEX
  8
LAYER-1
 10
1.879443
 20
0.037370
 30
0.000000
  0
SEQEND
  8
LAYER-1
  0
POLYLINE
  8
LAYER-1
 66
  1
 70
  0
 62
  0
 10
2.108967
 20
0.205751
 30
0.000000
  0
VERTEX
  8
LAYER-1
 10
2.108967
 20
0.205751
 30
0.000000
  0
VERTEX
  8
LAYER-1
 10
2.108967
 20
0.210091
 30
0.000000
  0
VERTEX
  8
LAYER-1
 10
2.104626
 20
0.213564
 30
0.000000
  0
VERTEX
  8
LAYER-1
 10
2.099418
 20
0.214431
 30
0.000000
  0
VERTEX
  8
LAYER-1
 10
2.095078
 20
0.212696
 30
0.000000
  0
VERTEX
  8
LAYER-1
 10
2.093342
 20
0.208355
 30
0.000000
  0
VERTEX
  8
LAYER-1
 10
2.093342
 20
0.204015
 30
0.000000
  0
VERTEX
  8
LAYER-1
 10
2.096813
 20
0.199674
 30
0.000000
  0
VERTEX
  8
LAYER-1
 10
2.101154
 20
0.199674
 30
0.000000
  0
VERTEX
  8
LAYER-1
 10
2.105495
 20
0.200542
 30
0.000000
  0
VERTEX
  8
LAYER-1
 10
2.108100
 20
0.204883
 30
0.000000
  0
SEQEND
  8
LAYER-1
  0
POLYLINE
  8
LAYER-1
 66
  1
 70
  1
 62
  0
 10
2.041259
 20
0.168427
 30
0.000000
  0
VERTEX
  8
LAYER-1
 10
2.041259
 20
0.168427
 30
0.000000
  0
VERTEX
  8
LAYER-1
 10
2.018688
 20
0.181446
 30
0.000000
  0
VERTEX
  8
LAYER-1
 10
2.039521
 20
0.151065
 30
0.000000
  0
SEQEND
  8
LAYER-1
  0
POLYLINE
  8
LAYER-1
 66
  1
 70
  1
 62
  0
 10
0.810021
 20
0.205049
 30
0.000000
  0
VERTEX
  8
LAYER-1
 10
0.810021
 20
0.205049
 30
0.000000
  0
VERTEX
  8
LAYER-1
 10
0.790657
 20
0.217736
 30
0.000000
  0
VERTEX
  8
LAYER-1
 10
0.784646
 20
0.206385
 30
0.000000
  0
SEQEND
  8
LAYER-1
  0
POLYLINE
  8
LAYER-1
 66
  1
 70
  0
 62
  0
 10
1.820938
 20
0.176575
 30
0.000000
  0
VERTEX
  8
LAYER-1
 10
1.820938
 20
0.176575
 30
0.000000
  0
VERTEX
  8
LAYER-1
 10
1.820938
 20
0.180914
 30
0.000000
  0
VERTEX
  8
LAYER-1
 10
1.816598
 20
0.184386
 30
0.000000
  0
VERTEX
  8
LAYER-1
 10
1.811391
 20
0.185254
 30
0.000000
  0
VERTEX
  8
LAYER-1
 10
1.807049
 20
0.183518
 30
0.000000
  0
VERTEX
  8
LAYER-1
 10
1.805313
 20
0.179179
 30
0.000000
  0
VERTEX
  8
LAYER-1
 10
1.805313
 20
0.174839
 30
0.000000
  0
VERTEX
  8
LAYER-1
 10
1.808786
 20
0.170498
 30
0.000000
  0
VERTEX
  8
LAYER-1
 10
1.813126
 20
0.170498
 30
0.000000
  0
VERTEX
  8
LAYER-1
 10
1.817467
 20
0.171366
 30
0.000000
  0
VERTEX
  8
LAYER-1
 10
1.820071
 20
0.175707
 30
0.000000
  0
SEQEND
  8
LAYER-1
  0
POLYLINE
  8
LAYER-1
 66
  1
 70
  0
 62
  0
 10
0.786918
 20
0.138043
 30
0.000000
  0
VERTEX
  8
LAYER-1
 10
0.786918
 20
0.138043
 30
0.000000
  0
VERTEX
  8
LAYER-1
 10
0.786918
 20
0.142384
 30
0.000000
  0
VERTEX
  8
LAYER-1
 10
0.782578
 20
0.145855
 30
0.000000
  0
VERTEX
  8
LAYER-1
 10
0.777370
 20
0.146723
 30
0.000000
  0
VERTEX
  8
LAYER-1
 10
0.773029
 20
0.144987
 30
0.000000
  0
VERTEX
  8
LAYER-1
 10
0.771293
 20
0.140647
 30
0.000000
  0
VERTEX
  8
LAYER-1
 10
0.771293
 20
0.136308
 30
0.000000
  0
VERTEX
  8
LAYER-1
 10
0.774765
 20
0.131966
 30
0.000000
  0
VERTEX
  8
LAYER-1
 10
0.779106
 20
0.131966
 30
0.000000
  0
VERTEX
  8
LAYER-1
 10
0.783446
 20
0.132835
 30
0.000000
  0
VERTEX
  8
LAYER-1
 10
0.786051
 20
0.137175
 30
0.000000
  0
SEQEND
  8
LAYER-1
  0
POLYLINE
  8
LAYER-1
 66
  1
 70
  0
 62
  0
 10
1.909313
 20
0.205748
 30
0.000000
  0
VERTEX
  8
LAYER-1
 10
1.909313
 20
0.205748
 30
0.000000
  0
VERTEX
  8
LAYER-1
 10
1.909313
 20
0.210089
 30
0.000000
  0
VERTEX
  8
LAYER-1
 10
1.904973
 20
0.213560
 30
0.000000
  0
VERTEX
  8
LAYER-1
 10
1.899765
 20
0.214428
 30
0.000000
  0
VERTEX
  8
LAYER-1
 10
1.895424
 20
0.212692
 30
0.000000
  0
VERTEX
  8
LAYER-1
 10
1.893688
 20
0.208352
 30
0.000000
  0
VERTEX
  8
LAYER-1
 10
1.893688
 20
0.204012
 30
0.000000
  0
VERTEX
  8
LAYER-1
 10
1.897160
 20
0.199671
 30
0.000000
  0
VERTEX
  8
LAYER-1
 10
1.901501
 20
0.199671
 30
0.000000
  0
VERTEX
  8
LAYER-1
 10
1.905842
 20
0.200539
 30
0.000000
  0
VERTEX
  8
LAYER-1
 10
1.908446
 20
0.204880
 30
0.000000
  0
SEQEND
  8
LAYER-1
  0
POLYLINE
  8
LAYER-1
 66
  1
 70
  1
 62
  0
 10
1.468602
 20
0.070284
 30
0.000000
  0
VERTEX
  8
LAYER-1
 10
1.468602
 20
0.070284
 30
0.000000
  0
VERTEX
  8
LAYER-1
 10
1.442560
 20
0.063339
 30
0.000000
  0
VERTEX
  8
LAYER-1
 10
1.456448
 20
0.038166
 30
0.000000
  0
SEQEND
  8
LAYER-1
  0
POLYLINE
  8
LAYER-1
 66
  1
 70
  1
 62
  0
 10
2.315129
 20
0.133704
 30
0.000000
  0
VERTEX
  8
LAYER-1
 10
2.315129
 20
0.133704
 30
0.000000
  0
VERTEX
  8
LAYER-1
 10
2.337699
 20
0.120683
 30
0.000000
  0
VERTEX
  8
LAYER-1
 10
2.316866
 20
0.151065
 30
0.000000
  0
SEQEND
  8
LAYER-1
  0
POLYLINE
  8
LAYER-1
 66
  1
 70
  1
 62
  0
 10
0.924504
 20
0.150631
 30
0.000000
  0
VERTEX
  8
LAYER-1
 10
0.924504
 20
0.150631
 30
0.000000
  0
VERTEX
  8
LAYER-1
 10
0.949678
 20
0.134137
 30
0.000000
  0
VERTEX
  8
LAYER-1
 10
0.957490
 20
0.148895
 30
0.000000
  0
SEQEND
  8
LAYER-1
  0
POLYLINE
  8
LAYER-1
 66
  1
 70
  0
 62
  0
 10
2.243081
 20
0.180576
 30
0.000000
  0
VERTEX
  8
LAYER-1
 10
2.243081
 20
0.180576
 30
0.000000
  0
VERTEX
  8
LAYER-1
 10
2.243081
 20
0.176236
 30
0.000000
  0
VERTEX
  8
LAYER-1
 10
2.247421
 20
0.172764
 30
0.000000
  0
VERTEX
  8
LAYER-1
 10
2.252629
 20
0.171896
 30
0.000000
  0
VERTEX
  8
LAYER-1
 10
2.256970
 20
0.173632
 30
0.000000
  0
VERTEX
  8
LAYER-1
 10
2.258706
 20
0.177973
 30
0.000000
  0
VERTEX
  8
LAYER-1
 10
2.258706
 20
0.182311
 30
0.000000
  0
VERTEX
  8
LAYER-1
 10
2.255234
 20
0.186652
 30
0.000000
  0
VERTEX
  8
LAYER-1
 10
2.250893
 20
0.186652
 30
0.000000
  0
VERTEX
  8
LAYER-1
 10
2.246552
 20
0.185784
 30
0.000000
  0
VERTEX
  8
LAYER-1
 10
2.243949
 20
0.181443
 30
0.000000
  0
SEQEND
  8
LAYER-1
  0
POLYLINE
  8
LAYER-1
 66
  1
 70
  1
 62
  0
 10
2.192733
 20
0.191861
 30
0.000000
  0
VERTEX
  8
LAYER-1
 10
2.192733
 20
0.191861
 30
0.000000
  0
VERTEX
  8
LAYER-1
 10
2.215302
 20
0.178841
 30
0.000000
  0
VERTEX
  8
LAYER-1
 10
2.194470
 20
0.209223
 30
0.000000
  0
SEQEND
  8
LAYER-1
  0
POLYLINE
  8
LAYER-1
 66
  1
 70
  1
 62
  0
 10
0.923102
 20
0.098381
 30
0.000000
  0
VERTEX
  8
LAYER-1
 10
0.923102
 20
0.098381
 30
0.000000
  0
VERTEX
  8
LAYER-1
 10
0.942467
 20
0.085694
 30
0.000000
  0
VERTEX
  8
LAYER-1
 10
0.948477
 20
0.097045
 30
0.000000
  0
SEQEND
  8
LAYER-1
  0
POLYLINE
  8
LAYER-1
 66
  1
 70
  0
 62
  0
 10
1.649244
 20
0.050666
 30
0.000000
  0
VERTEX
  8
LAYER-1
 10
1.649244
 20
0.050666
 30
0.000000
  0
VERTEX
  8
LAYER-1
 10
1.649244
 20
0.055005
 30
0.000000
  0
VERTEX
  8
LAYER-1
 10
1.644903
 20
0.058478
 30
0.000000
  0
VERTEX
  8
LAYER-1
 10
1.639695
 20
0.059347
 30
0.000000
  0
VERTEX
  8
LAYER-1
 10
1.635355
 20
0.057610
 30
0.000000
  0
VERTEX
  8
LAYER-1
 10
1.633619
 20
0.053269
 30
0.000000
  0
VERTEX
  8
LAYER-1
 10
1.633619
 20
0.048929
 30
0.000000
  0
VERTEX
  8
LAYER-1
 10
1.637090
 20
0.044590
 30
0.000000
  0
VERTEX
  8
LAYER-1
 10
1.641431
 20
0.044590
 30
0.000000
  0
VERTEX
  8
LAYER-1
 10
1.645772
 20
0.045457
 30
0.000000
  0
VERTEX
  8
LAYER-1
 10
1.648376
 20
0.049798
 30
0.000000
  0
SEQEND
  8
LAYER-1
  0
POLYLINE
  8
LAYER-1
 66
  1
 70
  0
 62
  0
 10
2.454886
 20
0.133704
 30
0.000000
  0
VERTEX
  8
LAYER-1
 10
2.454886
 20
0.133704
 30
0.000000
  0
VERTEX
  8
LAYER-1
 10
2.454886
 20
0.129364
 30
0.000000
  0
VERTEX
  8
LAYER-1
 10
2.459227
 20
0.125892
 30
0.000000
  0
VERTEX
  8
LAYER-1
 10
2.464435
 20
0.125024
 30
0.000000
  0
VERTEX
  8
LAYER-1
 10
2.468775
 20
0.126760
 30
0.000000
  0
VERTEX
  8
LAYER-1
 10
2.470511
 20
0.131099
 30
0.000000
  0
VERTEX
  8
LAYER-1
 10
2.470511
 20
0.135440
 30
0.000000
  0
VERTEX
  8
LAYER-1
 10
2.467039
 20
0.139781
 30
0.000000
  0
VERTEX
  8
LAYER-1
 10
2.462699
 20
0.139781
 30
0.000000
  0
VERTEX
  8
LAYER-1
 10
2.458358
 20
0.138912
 30
0.000000
  0
VERTEX
  8
LAYER-1
 10
2.455754
 20
0.134572
 30
0.000000
  0
SEQEND
  8
LAYER-1
  0
POLYLINE
  8
LAYER-1
 66
  1
 70
  0
 62
  0
 10
2.289088
 20
0.188391
 30
0.000000
  0
VERTEX
  8
LAYER-1
 10
2.289088
 20
0.188391
 30
0.000000
  0
VERTEX
  8
LAYER-1
 10
2.289088
 20
0.184050
 30
0.000000
  0
VERTEX
  8
LAYER-1
 10
2.293428
 20
0.180578
 30
0.000000
  0
VERTEX
  8
LAYER-1
 10
2.298636
 20
0.179711
 30
0.000000
  0
VERTEX
  8
LAYER-1
 10
2.302977
 20
0.181446
 30
0.000000
  0
VERTEX
  8
LAYER-1
 10
2.304713
 20
0.185786
 30
0.000000
  0
VERTEX
  8
LAYER-1
 10
2.304713
 20
0.190127
 30
0.000000
  0
VERTEX
  8
LAYER-1
 10
2.301241
 20
0.194467
 30
0.000000
  0
VERTEX
  8
LAYER-1
 10
2.296900
 20
0.194467
 30
0.000000
  0
VERTEX
  8
LAYER-1
 10
2.292560
 20
0.193598
 30
0.000000
  0
VERTEX
  8
LAYER-1
 10
2.289955
 20
0.189259
 30
0.000000
  0
SEQEND
  8
LAYER-1
  0
POLYLINE
  8
LAYER-1
 66
  1
 70
  1
 62
  0
 10
2.051241
 20
0.105492
 30
0.000000
  0
VERTEX
  8
LAYER-1
 10
2.051241
 20
0.105492
 30
0.000000
  0
VERTEX
  8
LAYER-1
 10
2.058185
 20
0.079453
 30
0.000000
  0
VERTEX
  8
LAYER-1
 10
2.083359
 20
0.093340
 30
0.000000
  0
SEQEND
  8
LAYER-1
  0
POLYLINE
  8
LAYER-1
 66
  1
 70
  1
 62
  0
 10
2.155755
 20
0.092734
 30
0.000000
  0
VERTEX
  8
LAYER-1
 10
2.155755
 20
0.092734
 30
0.000000
  0
VERTEX
  8
LAYER-1
 10
2.142734
 20
0.070164
 30
0.000000
  0
VERTEX
  8
LAYER-1
 10
2.173116
 20
0.090997
 30
0.000000
  0
SEQEND
  8
LAYER-1
  0
POLYLINE
  8
LAYER-1
 66
  1
 70
  1
 62
  0
 10
1.871720
 20
0.123190
 30
0.000000
  0
VERTEX
  8
LAYER-1
 10
1.871720
 20
0.123190
 30
0.000000
  0
VERTEX
  8
LAYER-1
 10
1.855227
 20
0.098017
 30
0.000000
  0
VERTEX
  8
LAYER-1
 10
1.869984
 20
0.090204
 30
0.000000
  0
SEQEND
  8
LAYER-1
  0
POLYLINE
  8
LAYER-1
 66
  1
 70
  0
 62
  0
 10
2.001762
 20
0.136742
 30
0.000000
  0
VERTEX
  8
LAYER-1
 10
2.001762
 20
0.136742
 30
0.000000
  0
VERTEX
  8
LAYER-1
 10
1.997421
 20
0.136742
 30
0.000000
  0
VERTEX
  8
LAYER-1
 10
1.993949
 20
0.132402
 30
0.000000
  0
VERTEX
  8
LAYER-1
 10
1.993082
 20
0.127194
 30
0.000000
  0
VERTEX
  8
LAYER-1
 10
1.994818
 20
0.122854
 30
0.000000
  0
VERTEX
  8
LAYER-1
 10
1.999158
 20
0.121117
 30
0.000000
  0
VERTEX
  8
LAYER-1
 10
2.003498
 20
0.121117
 30
0.000000
  0
VERTEX
  8
LAYER-1
 10
2.007839
 20
0.124590
 30
0.000000
  0
VERTEX
  8
LAYER-1
 10
2.007839
 20
0.128930
 30
0.000000
  0
VERTEX
  8
LAYER-1
 10
2.006971
 20
0.133271
 30
0.000000
  0
VERTEX
  8
LAYER-1
 10
2.002630
 20
0.135875
 30
0.000000
  0
SEQEND
  8
LAYER-1
  0
POLYLINE
  8
LAYER-1
 66
  1
 70
  1
 62
  0
 10
0.859401
 20
0.213130
 30
0.000000
  0
VERTEX
  8
LAYER-1
 10
0.859401
 20
0.213130
 30
0.000000
  0
VERTEX
  8
LAYER-1
 10
0.846380
 20
0.190559
 30
0.000000
  0
VERTEX
  8
LAYER-1
 10
0.876762
 20
0.211392
 30
0.000000
  0
SEQEND
  8
LAYER-1
  0
POLYLINE
  8
LAYER-1
 66
  1
 70
  1
 62
  0
 10
1.856796
 20
0.155840
 30
0.000000
  0
VERTEX
  8
LAYER-1
 10
1.856796
 20
0.155840
 30
0.000000
  0
VERTEX
  8
LAYER-1
 10
1.844110
 20
0.136475
 30
0.000000
  0
VERTEX
  8
LAYER-1
 10
1.855460
 20
0.130464
 30
0.000000
  0
SEQEND
  8
LAYER-1
  0
POLYLINE
  8
LAYER-1
 66
  1
 70
  0
 62
  0
 10
2.153671
 20
0.138479
 30
0.000000
  0
VERTEX
  8
LAYER-1
 10
2.153671
 20
0.138479
 30
0.000000
  0
VERTEX
  8
LAYER-1
 10
2.149332
 20
0.138479
 30
0.000000
  0
VERTEX
  8
LAYER-1
 10
2.145859
 20
0.134137
 30
0.000000
  0
VERTEX
  8
LAYER-1
 10
2.144991
 20
0.128930
 30
0.000000
  0
VERTEX
  8
LAYER-1
 10
2.146727
 20
0.124590
 30
0.000000
  0
VERTEX
  8
LAYER-1
 10
2.151068
 20
0.122854
 30
0.000000
  0
VERTEX
  8
LAYER-1
 10
2.155408
 20
0.122854
 30
0.000000
  0
VERTEX
  8
LAYER-1
 10
2.159748
 20
0.126325
 30
0.000000
  0
VERTEX
  8
LAYER-1
 10
2.159748
 20
0.130666
 30
0.000000
  0
VERTEX
  8
LAYER-1
 10
2.158880
 20
0.135006
 30
0.000000
  0
VERTEX
  8
LAYER-1
 10
2.154539
 20
0.137611
 30
0.000000
  0
SEQEND
  8
LAYER-1
  0
POLYLINE
  8
LAYER-1
 66
  1
 70
  0
 62
  0
 10
2.213568
 20
0.143686
 30
0.000000
  0
VERTEX
  8
LAYER-1
 10
2.213568
 20
0.143686
 30
0.000000
  0
VERTEX
  8
LAYER-1
 10
2.209227
 20
0.143686
 30
0.000000
  0
VERTEX
  8
LAYER-1
 10
2.205755
 20
0.139346
 30
0.000000
  0
VERTEX
  8
LAYER-1
 10
2.204887
 20
0.134137
 30
0.000000
  0
VERTEX
  8
LAYER-1
 10
2.206623
 20
0.129797
 30
0.000000
  0
VERTEX
  8
LAYER-1
 10
2.210964
 20
0.128061
 30
0.000000
  0
VERTEX
  8
LAYER-1
 10
2.215303
 20
0.128061
 30
0.000000
  0
VERTEX
  8
LAYER-1
 10
2.219644
 20
0.131533
 30
0.000000
  0
VERTEX
  8
LAYER-1
 10
2.219644
 20
0.135874
 30
0.000000
  0
VERTEX
  8
LAYER-1
 10
2.218776
 20
0.140215
 30
0.000000
  0
VERTEX
  8
LAYER-1
 10
2.214435
 20
0.142819
 30
0.000000
  0
SEQEND
  8
LAYER-1
  0
POLYLINE
  8
LAYER-1
 66
  1
 70
  0
 62
  0
 10
0.869817
 20
0.130665
 30
0.000000
  0
VERTEX
  8
LAYER-1
 10
0.869817
 20
0.130665
 30
0.000000
  0
VERTEX
  8
LAYER-1
 10
0.865477
 20
0.130665
 30
0.000000
  0
VERTEX
  8
LAYER-1
 10
0.862005
 20
0.126324
 30
0.000000
  0
VERTEX
  8
LAYER-1
 10
0.861137
 20
0.121117
 30
0.000000
  0
VERTEX
  8
LAYER-1
 10
0.862873
 20
0.116776
 30
0.000000
  0
VERTEX
  8
LAYER-1
 10
0.867214
 20
0.115040
 30
0.000000
  0
VERTEX
  8
LAYER-1
 10
0.871553
 20
0.115040
 30
0.000000
  0
VERTEX
  8
LAYER-1
 10
0.875894
 20
0.118512
 30
0.000000
  0
VERTEX
  8
LAYER-1
 10
0.875894
 20
0.122853
 30
0.000000
  0
VERTEX
  8
LAYER-1
 10
0.875026
 20
0.127193
 30
0.000000
  0
VERTEX
  8
LAYER-1
 10
0.870685
 20
0.129798
 30
0.000000
  0
SEQEND
  8
LAYER-1
  0
POLYLINE
  8
LAYER-1
 66
  1
 70
  1
 62
  0
 10
2.520859
 20
0.170596
 30
0.000000
  0
VERTEX
  8
LAYER-1
 10
2.520859
 20
0.170596
 30
0.000000
  0
VERTEX
  8
LAYER-1
 10
2.527803
 20
0.144554
 30
0.000000
  0
VERTEX
  8
LAYER-1
 10
2.552977
 20
0.158442
 30
0.000000
  0
SEQEND
  8
LAYER-1
  0
POLYLINE
  8
LAYER-1
 66
  1
 70
  1
 62
  0
 10
2.683186
 20
0.199241
 30
0.000000
  0
VERTEX
  8
LAYER-1
 10
2.683186
 20
0.199241
 30
0.000000
  0
VERTEX
  8
LAYER-1
 10
2.670164
 20
0.176672
 30
0.000000
  0
VERTEX
  8
LAYER-1
 10
2.700547
 20
0.197504
 30
0.000000
  0
SEQEND
  8
LAYER-1
  0
POLYLINE
  8
LAYER-1
 66
  1
 70
  1
 62
  0
 10
1.359401
 20
0.150196
 30
0.000000
  0
VERTEX
  8
LAYER-1
 10
1.359401
 20
0.150196
 30
0.000000
  0
VERTEX
  8
LAYER-1
 10
1.342908
 20
0.125022
 30
0.000000
  0
VERTEX
  8
LAYER-1
 10
1.357665
 20
0.117210
 30
0.000000
  0
SEQEND
  8
LAYER-1
  0
POLYLINE
  8
LAYER-1
 66
  1
 70
  0
 62
  0
 10
2.471380
 20
0.201845
 30
0.000000
  0
VERTEX
  8
LAYER-1
 10
2.471380
 20
0.201845
 30
0.000000
  0
VERTEX
  8
LAYER-1
 10
2.467039
 20
0.201845
 30
0.000000
  0
VERTEX
  8
LAYER-1
 10
2.463568
 20
0.197504
 30
0.000000
  0
VERTEX
  8
LAYER-1
 10
2.462699
 20
0.192296
 30
0.000000
  0
VERTEX
  8
LAYER-1
 10
2.464435
 20
0.187955
 30
0.000000
  0
VERTEX
  8
LAYER-1
 10
2.468775
 20
0.186220
 30
0.000000
  0
VERTEX
  8
LAYER-1
 10
2.473116
 20
0.186220
 30
0.000000
  0
VERTEX
  8
LAYER-1
 10
2.477457
 20
0.189691
 30
0.000000
  0
VERTEX
  8
LAYER-1
 10
2.477457
 20
0.194032
 30
0.000000
  0
VERTEX
  8
LAYER-1
 10
2.476588
 20
0.198373
 30
0.000000
  0
VERTEX
  8
LAYER-1
 10
2.472248
 20
0.200977
 30
0.000000
  0
SEQEND
  8
LAYER-1
  0
POLYLINE
  8
LAYER-1
 66
  1
 70
  1
 62
  0
 10
2.508707
 20
0.134137
 30
0.000000
  0
VERTEX
  8
LAYER-1
 10
2.508707
 20
0.134137
 30
0.000000
  0
VERTEX
  8
LAYER-1
 10
2.495685
 20
0.111567
 30
0.000000
  0
VERTEX
  8
LAYER-1
 10
2.526068
 20
0.132400
 30
0.000000
  0
SEQEND
  8
LAYER-1
  0
POLYLINE
  8
LAYER-1
 66
  1
 70
  1
 62
  0
 10
1.067633
 20
0.224508
 30
0.000000
  0
VERTEX
  8
LAYER-1
 10
1.067633
 20
0.224508
 30
0.000000
  0
VERTEX
  8
LAYER-1
 10
1.086998
 20
0.211822
 30
0.000000
  0
VERTEX
  8
LAYER-1
 10
1.093008
 20
0.223172
 30
0.000000
  0
SEQEND
  8
LAYER-1
  0
POLYLINE
  8
LAYER-1
 66
  1
 70
  0
 62
  0
 10
2.623289
 20
0.203580
 30
0.000000
  0
VERTEX
  8
LAYER-1
 10
2.623289
 20
0.203580
 30
0.000000
  0
VERTEX
  8
LAYER-1
 10
2.618949
 20
0.203580
 30
0.000000
  0
VERTEX
  8
LAYER-1
 10
2.615477
 20
0.199240
 30
0.000000
  0
VERTEX
  8
LAYER-1
 10
2.614609
 20
0.194032
 30
0.000000
  0
VERTEX
  8
LAYER-1
 10
2.616345
 20
0.189691
 30
0.000000
  0
VERTEX
  8
LAYER-1
 10
2.620685
 20
0.187955
 30
0.000000
  0
VERTEX
  8
LAYER-1
 10
2.625025
 20
0.187955
 30
0.000000
  0
VERTEX
  8
LAYER-1
 10
2.629366
 20
0.191427
 30
0.000000
  0
VERTEX
  8
LAYER-1
 10
2.629366
 20
0.195768
 30
0.000000
  0
VERTEX
  8
LAYER-1
 10
2.628498
 20
0.200109
 30
0.000000
  0
VERTEX
  8
LAYER-1
 10
2.624157
 20
0.202712
 30
0.000000
  0
SEQEND
  8
LAYER-1
  0
POLYLINE
  8
LAYER-1
 66
  1
 70
  0
 62
  0
 10
1.411484
 20
0.144120
 30
0.000000
  0
VERTEX
  8
LAYER-1
 10
1.411484
 20
0.144120
 30
0.000000
  0
VERTEX
  8
LAYER-1
 10
1.407144
 20
0.144120
 30
0.000000
  0
VERTEX
  8
LAYER-1
 10
1.403672
 20
0.139779
 30
0.000000
  0
VERTEX
  8
LAYER-1
 10
1.402804
 20
0.134571
 30
0.000000
  0
VERTEX
  8
LAYER-1
 10
1.404540
 20
0.130230
 30
0.000000
  0
VERTEX
  8
LAYER-1
 10
1.408880
 20
0.128495
 30
0.000000
  0
VERTEX
  8
LAYER-1
 10
1.413220
 20
0.128495
 30
0.000000
  0
VERTEX
  8
LAYER-1
 10
1.417560
 20
0.131966
 30
0.000000
  0
VERTEX
  8
LAYER-1
 10
1.417560
 20
0.136308
 30
0.000000
  0
VERTEX
  8
LAYER-1
 10
1.416692
 20
0.140648
 30
0.000000
  0
VERTEX
  8
LAYER-1
 10
1.412352
 20
0.143252
 30
0.000000
  0
SEQEND
  8
LAYER-1
  0
POLYLINE
  8
LAYER-1
 66
  1
 70
  0
 62
  0
 10
0.994817
 20
0.120683
 30
0.000000
  0
VERTEX
  8
LAYER-1
 10
0.994817
 20
0.120683
 30
0.000000
  0
VERTEX
  8
LAYER-1
 10
0.990477
 20
0.120683
 30
0.000000
  0
VERTEX
  8
LAYER-1
 10
0.987005
 20
0.116341
 30
0.000000
  0
VERTEX
  8
LAYER-1
 10
0.986137
 20
0.111134
 30
0.000000
  0
VERTEX
  8
LAYER-1
 10
0.987873
 20
0.106793
 30
0.000000
  0
VERTEX
  8
LAYER-1
 10
0.992212
 20
0.105058
 30
0.000000
  0
VERTEX
  8
LAYER-1
 10
0.996553
 20
0.105058
 30
0.000000
  0
VERTEX
  8
LAYER-1
 10
1.000893
 20
0.108529
 30
0.000000
  0
VERTEX
  8
LAYER-1
 10
1.000893
 20
0.112870
 30
0.000000
  0
VERTEX
  8
LAYER-1
 10
1.000025
 20
0.117210
 30
0.000000
  0
VERTEX
  8
LAYER-1
 10
0.995685
 20
0.119815
 30
0.000000
  0
SEQEND
  8
LAYER-1
  0
POLYLINE
  8
LAYER-1
 66
  1
 70
  1
 62
  0
 10
2.962699
 20
0.194900
 30
0.000000
  0
VERTEX
  8
LAYER-1
 10
2.962699
 20
0.194900
 30
0.000000
  0
VERTEX
  8
LAYER-1
 10
2.969644
 20
0.168861
 30
0.000000
  0
VERTEX
  8
LAYER-1
 10
2.994817
 20
0.182747
 30
0.000000
  0
SEQEND
  8
LAYER-1
  0
POLYLINE
  8
LAYER-1
 66
  1
 70
  1
 62
  0
 10
3.125026
 20
0.223547
 30
0.000000
  0
VERTEX
  8
LAYER-1
 10
3.125026
 20
0.223547
 30
0.000000
  0
VERTEX
  8
LAYER-1
 10
3.112005
 20
0.200977
 30
0.000000
  0
VERTEX
  8
LAYER-1
 10
3.142387
 20
0.221809
 30
0.000000
  0
SEQEND
  8
LAYER-1
  0
POLYLINE
  8
LAYER-1
 66
  1
 70
  1
 62
  0
 10
2.353324
 20
0.159311
 30
0.000000
  0
VERTEX
  8
LAYER-1
 10
2.353324
 20
0.159311
 30
0.000000
  0
VERTEX
  8
LAYER-1
 10
2.378497
 20
0.142817
 30
0.000000
  0
VERTEX
  8
LAYER-1
 10
2.386310
 20
0.157575
 30
0.000000
  0
SEQEND
  8
LAYER-1
  0
POLYLINE
  8
LAYER-1
 66
  1
 70
  0
 62
  0
 10
2.923637
 20
0.215735
 30
0.000000
  0
VERTEX
  8
LAYER-1
 10
2.923637
 20
0.215735
 30
0.000000
  0
VERTEX
  8
LAYER-1
 10
2.919296
 20
0.215735
 30
0.000000
  0
VERTEX
  8
LAYER-1
 10
2.915824
 20
0.211394
 30
0.000000
  0
VERTEX
  8
LAYER-1
 10
2.914956
 20
0.206186
 30
0.000000
  0
VERTEX
  8
LAYER-1
 10
2.916692
 20
0.201846
 30
0.000000
  0
VERTEX
  8
LAYER-1
 10
2.921033
 20
0.200110
 30
0.000000
  0
VERTEX
  8
LAYER-1
 10
2.925372
 20
0.200110
 30
0.000000
  0
VERTEX
  8
LAYER-1
 10
2.929713
 20
0.203581
 30
0.000000
  0
VERTEX
  8
LAYER-1
 10
2.929713
 20
0.207922
 30
0.000000
  0
VERTEX
  8
LAYER-1
 10
2.928845
 20
0.212262
 30
0.000000
  0
VERTEX
  8
LAYER-1
 10
2.924505
 20
0.214867
 30
0.000000
  0
SEQEND
  8
LAYER-1
  0
POLYLINE
  8
LAYER-1
 66
  1
 70
  1
 62
  0
 10
2.939263
 20
0.127193
 30
0.000000
  0
VERTEX
  8
LAYER-1
 10
2.939263
 20
0.127193
 30
0.000000
  0
VERTEX
  8
LAYER-1
 10
2.926241
 20
0.104623
 30
0.000000
  0
VERTEX
  8
LAYER-1
 10
2.956624
 20
0.125455
 30
0.000000
  0
SEQEND
  8
LAYER-1
  0
POLYLINE
  8
LAYER-1
 66
  1
 70
  1
 62
  0
 10
3.033713
 20
0.120780
 30
0.000000
  0
VERTEX
  8
LAYER-1
 10
3.033713
 20
0.120780
 30
0.000000
  0
VERTEX
  8
LAYER-1
 10
3.021026
 20
0.101416
 30
0.000000
  0
VERTEX
  8
LAYER-1
 10
3.032377
 20
0.095405
 30
0.000000
  0
SEQEND
  8
LAYER-1
  0
POLYLINE
  8
LAYER-1
 66
  1
 70
  0
 62
  0
 10
3.065130
 20
0.220074
 30
0.000000
  0
VERTEX
  8
LAYER-1
 10
3.065130
 20
0.220074
 30
0.000000
  0
VERTEX
  8
LAYER-1
 10
3.060790
 20
0.220074
 30
0.000000
  0
VERTEX
  8
LAYER-1
 10
3.057317
 20
0.215734
 30
0.000000
  0
VERTEX
  8
LAYER-1
 10
3.056449
 20
0.210526
 30
0.000000
  0
VERTEX
  8
LAYER-1
 10
3.058185
 20
0.206185
 30
0.000000
  0
VERTEX
  8
LAYER-1
 10
3.062526
 20
0.204449
 30
0.000000
  0
VERTEX
  8
LAYER-1
 10
3.066866
 20
0.204449
 30
0.000000
  0
VERTEX
  8
LAYER-1
 10
3.071206
 20
0.207921
 30
0.000000
  0
VERTEX
  8
LAYER-1
 10
3.071206
 20
0.212262
 30
0.000000
  0
VERTEX
  8
LAYER-1
 10
3.070338
 20
0.216603
 30
0.000000
  0
VERTEX
  8
LAYER-1
 10
3.065997
 20
0.219208
 30
0.000000
  0
SEQEND
  8
LAYER-1
  0
POLYLINE
  8
LAYER-1
 66
  1
 70
  0
 62
  0
 10
2.342040
 20
0.212262
 30
0.000000
  0
VERTEX
  8
LAYER-1
 10
2.342040
 20
0.212262
 30
0.000000
  0
VERTEX
  8
LAYER-1
 10
2.342040
 20
0.207921
 30
0.000000
  0
VERTEX
  8
LAYER-1
 10
2.346380
 20
0.204449
 30
0.000000
  0
VERTEX
  8
LAYER-1
 10
2.351588
 20
0.203580
 30
0.000000
  0
VERTEX
  8
LAYER-1
 10
2.355929
 20
0.205316
 30
0.000000
  0
VERTEX
  8
LAYER-1
 10
2.357665
 20
0.209657
 30
0.000000
  0
VERTEX
  8
LAYER-1
 10
2.357665
 20
0.213998
 30
0.000000
  0
VERTEX
  8
LAYER-1
 10
2.354193
 20
0.218339
 30
0.000000
  0
VERTEX
  8
LAYER-1
 10
2.349852
 20
0.218339
 30
0.000000
  0
VERTEX
  8
LAYER-1
 10
2.345512
 20
0.217470
 30
0.000000
  0
VERTEX
  8
LAYER-1
 10
2.342907
 20
0.213129
 30
0.000000
  0
SEQEND
  8
LAYER-1
  0
POLYLINE
  8
LAYER-1
 66
  1
 70
  0
 62
  0
 10
2.905407
 20
0.128059
 30
0.000000
  0
VERTEX
  8
LAYER-1
 10
2.905407
 20
0.128059
 30
0.000000
  0
VERTEX
  8
LAYER-1
 10
2.901066
 20
0.128059
 30
0.000000
  0
VERTEX
  8
LAYER-1
 10
2.897594
 20
0.123718
 30
0.000000
  0
VERTEX
  8
LAYER-1
 10
2.896726
 20
0.118511
 30
0.000000
  0
VERTEX
  8
LAYER-1
 10
2.898462
 20
0.114170
 30
0.000000
  0
VERTEX
  8
LAYER-1
 10
2.902803
 20
0.112434
 30
0.000000
  0
VERTEX
  8
LAYER-1
 10
2.907143
 20
0.112434
 30
0.000000
  0
VERTEX
  8
LAYER-1
 10
2.911483
 20
0.115906
 30
0.000000
  0
VERTEX
  8
LAYER-1
 10
2.911483
 20
0.120247
 30
0.000000
  0
VERTEX
  8
LAYER-1
 10
2.910615
 20
0.124587
 30
0.000000
  0
VERTEX
  8
LAYER-1
 10
2.906275
 20
0.127192
 30
0.000000
  0
SEQEND
  8
LAYER-1
  0
POLYLINE
  8
LAYER-1
 66
  1
 70
  1
 62
  0
 10
2.772596
 20
0.116342
 30
0.000000
  0
VERTEX
  8
LAYER-1
 10
2.772596
 20
0.116342
 30
0.000000
  0
VERTEX
  8
LAYER-1
 10
2.746553
 20
0.109398
 30
0.000000
  0
VERTEX
  8
LAYER-1
 10
2.760443
 20
0.084224
 30
0.000000
  0
SEQEND
  8
LAYER-1
  0
POLYLINE
  8
LAYER-1
 66
  1
 70
  1
 62
  0
 10
1.395860
 20
0.090735
 30
0.000000
  0
VERTEX
  8
LAYER-1
 10
1.395860
 20
0.090735
 30
0.000000
  0
VERTEX
  8
LAYER-1
 10
1.370685
 20
0.107228
 30
0.000000
  0
VERTEX
  8
LAYER-1
 10
1.362872
 20
0.092471
 30
0.000000
  0
SEQEND
  8
LAYER-1
  0
POLYLINE
  8
LAYER-1
 66
  1
 70
  0
 62
  0
 10
2.803846
 20
0.165821
 30
0.000000
  0
VERTEX
  8
LAYER-1
 10
2.803846
 20
0.165821
 30
0.000000
  0
VERTEX
  8
LAYER-1
 10
2.803846
 20
0.170162
 30
0.000000
  0
VERTEX
  8
LAYER-1
 10
2.799505
 20
0.173634
 30
0.000000
  0
VERTEX
  8
LAYER-1
 10
2.794297
 20
0.174502
 30
0.000000
  0
VERTEX
  8
LAYER-1
 10
2.789957
 20
0.172766
 30
0.000000
  0
VERTEX
  8
LAYER-1
 10
2.788221
 20
0.168425
 30
0.000000
  0
VERTEX
  8
LAYER-1
 10
2.788221
 20
0.164085
 30
0.000000
  0
VERTEX
  8
LAYER-1
 10
2.791693
 20
0.159746
 30
0.000000
  0
VERTEX
  8
LAYER-1
 10
2.796033
 20
0.159746
 30
0.000000
  0
VERTEX
  8
LAYER-1
 10
2.800374
 20
0.160612
 30
0.000000
  0
VERTEX
  8
LAYER-1
 10
2.802977
 20
0.164953
 30
0.000000
  0
SEQEND
  8
LAYER-1
  0
POLYLINE
  8
LAYER-1
 66
  1
 70
  1
 62
  0
 10
2.736136
 20
0.128496
 30
0.000000
  0
VERTEX
  8
LAYER-1
 10
2.736136
 20
0.128496
 30
0.000000
  0
VERTEX
  8
LAYER-1
 10
2.713568
 20
0.141516
 30
0.000000
  0
VERTEX
  8
LAYER-1
 10
2.734400
 20
0.111134
 30
0.000000
  0
SEQEND
  8
LAYER-1
  0
POLYLINE
  8
LAYER-1
 66
  1
 70
  1
 62
  0
 10
1.473651
 20
0.109998
 30
0.000000
  0
VERTEX
  8
LAYER-1
 10
1.473651
 20
0.109998
 30
0.000000
  0
VERTEX
  8
LAYER-1
 10
1.454285
 20
0.122684
 30
0.000000
  0
VERTEX
  8
LAYER-1
 10
1.448276
 20
0.111333
 30
0.000000
  0
SEQEND
  8
LAYER-1
  0
POLYLINE
  8
LAYER-1
 66
  1
 70
  0
 62
  0
 10
1.533880
 20
0.098547
 30
0.000000
  0
VERTEX
  8
LAYER-1
 10
1.533880
 20
0.098547
 30
0.000000
  0
VERTEX
  8
LAYER-1
 10
1.533880
 20
0.102887
 30
0.000000
  0
VERTEX
  8
LAYER-1
 10
1.529540
 20
0.106360
 30
0.000000
  0
VERTEX
  8
LAYER-1
 10
1.524332
 20
0.107228
 30
0.000000
  0
VERTEX
  8
LAYER-1
 10
1.519991
 20
0.105492
 30
0.000000
  0
VERTEX
  8
LAYER-1
 10
1.518255
 20
0.101151
 30
0.000000
  0
VERTEX
  8
LAYER-1
 10
1.518255
 20
0.096810
 30
0.000000
  0
VERTEX
  8
LAYER-1
 10
1.521727
 20
0.092471
 30
0.000000
  0
VERTEX
  8
LAYER-1
 10
1.526068
 20
0.092471
 30
0.000000
  0
VERTEX
  8
LAYER-1
 10
1.530408
 20
0.093339
 30
0.000000
  0
VERTEX
  8
LAYER-1
 10
1.533012
 20
0.097679
 30
0.000000
  0
SEQEND
  8
LAYER-1
  0
POLYLINE
  8
LAYER-1
 66
  1
 70
  0
 62
  0
 10
2.653672
 20
0.118078
 30
0.000000
  0
VERTEX
  8
LAYER-1
 10
2.653672
 20
0.118078
 30
0.000000
  0
VERTEX
  8
LAYER-1
 10
2.653672
 20
0.122419
 30
0.000000
  0
VERTEX
  8
LAYER-1
 10
2.649332
 20
0.125891
 30
0.000000
  0
VERTEX
  8
LAYER-1
 10
2.644124
 20
0.126759
 30
0.000000
  0
VERTEX
  8
LAYER-1
 10
2.639783
 20
0.125023
 30
0.000000
  0
VERTEX
  8
LAYER-1
 10
2.638047
 20
0.120683
 30
0.000000
  0
VERTEX
  8
LAYER-1
 10
2.638047
 20
0.116342
 30
0.000000
  0
VERTEX
  8
LAYER-1
 10
2.641519
 20
0.112002
 30
0.000000
  0
VERTEX
  8
LAYER-1
 10
2.645860
 20
0.112002
 30
0.000000
  0
VERTEX
  8
LAYER-1
 10
2.650201
 20
0.112871
 30
0.000000
  0
VERTEX
  8
LAYER-1
 10
2.652803
 20
0.117210
 30
0.000000
  0
SEQEND
  8
LAYER-1
  0
POLYLINE
  8
LAYER-1
 66
  1
 70
  1
 62
  0
 10
2.846380
 20
0.119381
 30
0.000000
  0
VERTEX
  8
LAYER-1
 10
2.846380
 20
0.119381
 30
0.000000
  0
VERTEX
  8
LAYER-1
 10
2.839435
 20
0.145422
 30
0.000000
  0
VERTEX
  8
LAYER-1
 10
2.814262
 20
0.131535
 30
0.000000
  0
SEQEND
  8
LAYER-1
  0
POLYLINE
  8
LAYER-1
 66
  1
 70
  1
 62
  0
 10
2.293428
 20
0.106360
 30
0.000000
  0
VERTEX
  8
LAYER-1
 10
2.293428
 20
0.106360
 30
0.000000
  0
VERTEX
  8
LAYER-1
 10
2.270858
 20
0.119381
 30
0.000000
  0
VERTEX
  8
LAYER-1
 10
2.291691
 20
0.088999
 30
0.000000
  0
SEQEND
  8
LAYER-1
  0
POLYLINE
  8
LAYER-1
 66
  1
 70
  1
 62
  0
 10
3.071207
 20
0.130666
 30
0.000000
  0
VERTEX
  8
LAYER-1
 10
3.071207
 20
0.130666
 30
0.000000
  0
VERTEX
  8
LAYER-1
 10
3.087700
 20
0.155840
 30
0.000000
  0
VERTEX
  8
LAYER-1
 10
3.072943
 20
0.163652
 30
0.000000
  0
SEQEND
  8
LAYER-1
  0
POLYLINE
  8
LAYER-1
 66
  1
 70
  0
 62
  0
 10
3.206623
 20
0.098545
 30
0.000000
  0
VERTEX
  8
LAYER-1
 10
3.206623
 20
0.098545
 30
0.000000
  0
VERTEX
  8
LAYER-1
 10
3.210963
 20
0.098545
 30
0.000000
  0
VERTEX
  8
LAYER-1
 10
3.214435
 20
0.102886
 30
0.000000
  0
VERTEX
  8
LAYER-1
 10
3.215303
 20
0.108093
 30
0.000000
  0
VERTEX
  8
LAYER-1
 10
3.213567
 20
0.112434
 30
0.000000
  0
VERTEX
  8
LAYER-1
 10
3.209226
 20
0.114170
 30
0.000000
  0
VERTEX
  8
LAYER-1
 10
3.204887
 20
0.114170
 30
0.000000
  0
VERTEX
  8
LAYER-1
 10
3.200546
 20
0.110698
 30
0.000000
  0
VERTEX
  8
LAYER-1
 10
3.200546
 20
0.106358
 30
0.000000
  0
VERTEX
  8
LAYER-1
 10
3.201414
 20
0.102017
 30
0.000000
  0
VERTEX
  8
LAYER-1
 10
3.205755
 20
0.099412
 30
0.000000
  0
SEQEND
  8
LAYER-1
  0
POLYLINE
  8
LAYER-1
 66
  1
 70
  1
 62
  0
 10
2.858532
 20
0.155840
 30
0.000000
  0
VERTEX
  8
LAYER-1
 10
2.858532
 20
0.155840
 30
0.000000
  0
VERTEX
  8
LAYER-1
 10
2.871553
 20
0.178410
 30
0.000000
  0
VERTEX
  8
LAYER-1
 10
2.841171
 20
0.157578
 30
0.000000
  0
SEQEND
  8
LAYER-1
  0
POLYLINE
  8
LAYER-1
 66
  1
 70
  1
 62
  0
 10
3.112172
 20
0.106695
 30
0.000000
  0
VERTEX
  8
LAYER-1
 10
3.112172
 20
0.106695
 30
0.000000
  0
VERTEX
  8
LAYER-1
 10
3.124858
 20
0.126059
 30
0.000000
  0
VERTEX
  8
LAYER-1
 10
3.113508
 20
0.132070
 30
0.000000
  0
SEQEND
  8
LAYER-1
  0
POLYLINE
  8
LAYER-1
 66
  1
 70
  0
 62
  0
 10
2.433184
 20
0.166256
 30
0.000000
  0
VERTEX
  8
LAYER-1
 10
2.433184
 20
0.166256
 30
0.000000
  0
VERTEX
  8
LAYER-1
 10
2.433184
 20
0.170596
 30
0.000000
  0
VERTEX
  8
LAYER-1
 10
2.428843
 20
0.174069
 30
0.000000
  0
VERTEX
  8
LAYER-1
 10
2.423636
 20
0.174936
 30
0.000000
  0
VERTEX
  8
LAYER-1
 10
2.419295
 20
0.173200
 30
0.000000
  0
VERTEX
  8
LAYER-1
 10
2.417560
 20
0.168860
 30
0.000000
  0
VERTEX
  8
LAYER-1
 10
2.417560
 20
0.164519
 30
0.000000
  0
VERTEX
  8
LAYER-1
 10
2.421031
 20
0.160180
 30
0.000000
  0
VERTEX
  8
LAYER-1
 10
2.425372
 20
0.160180
 30
0.000000
  0
VERTEX
  8
LAYER-1
 10
2.429712
 20
0.161047
 30
0.000000
  0
VERTEX
  8
LAYER-1
 10
2.432317
 20
0.165387
 30
0.000000
  0
SEQEND
  8
LAYER-1
  0
POLYLINE
  8
LAYER-1
 66
  1
 70
  0
 62
  0
 10
3.019124
 20
0.136742
 30
0.000000
  0
VERTEX
  8
LAYER-1
 10
3.019124
 20
0.136742
 30
0.000000
  0
VERTEX
  8
LAYER-1
 10
3.023464
 20
0.136742
 30
0.000000
  0
VERTEX
  8
LAYER-1
 10
3.026936
 20
0.141084
 30
0.000000
  0
VERTEX
  8
LAYER-1
 10
3.027804
 20
0.146291
 30
0.000000
  0
VERTEX
  8
LAYER-1
 10
3.026068
 20
0.150631
 30
0.000000
  0
VERTEX
  8
LAYER-1
 10
3.021727
 20
0.152367
 30
0.000000
  0
VERTEX
  8
LAYER-1
 10
3.017388
 20
0.152367
 30
0.000000
  0
VERTEX
  8
LAYER-1
 10
3.013047
 20
0.148896
 30
0.000000
  0
VERTEX
  8
LAYER-1
 10
3.013047
 20
0.144555
 30
0.000000
  0
VERTEX
  8
LAYER-1
 10
3.013915
 20
0.140215
 30
0.000000
  0
VERTEX
  8
LAYER-1
 10
3.018255
 20
0.137610
 30
0.000000
  0
SEQEND
  8
LAYER-1
  0
POLYLINE
  8
LAYER-1
 66
  1
 70
  0
 62
  0
 10
3.183186
 20
0.144555
 30
0.000000
  0
VERTEX
  8
LAYER-1
 10
3.183186
 20
0.144555
 30
0.000000
  0
VERTEX
  8
LAYER-1
 10
3.187526
 20
0.144555
 30
0.000000
  0
VERTEX
  8
LAYER-1
 10
3.190998
 20
0.148896
 30
0.000000
  0
VERTEX
  8
LAYER-1
 10
3.191866
 20
0.154104
 30
0.000000
  0
VERTEX
  8
LAYER-1
 10
3.190130
 20
0.158444
 30
0.000000
  0
VERTEX
  8
LAYER-1
 10
3.185789
 20
0.160180
 30
0.000000
  0
VERTEX
  8
LAYER-1
 10
3.181450
 20
0.160180
 30
0.000000
  0
VERTEX
  8
LAYER-1
 10
3.177109
 20
0.156709
 30
0.000000
  0
VERTEX
  8
LAYER-1
 10
3.177109
 20
0.152367
 30
0.000000
  0
VERTEX
  8
LAYER-1
 10
3.177977
 20
0.148027
 30
0.000000
  0
VERTEX
  8
LAYER-1
 10
3.182318
 20
0.145422
 30
0.000000
  0
SEQEND
  8
LAYER-1
  0
POLYLINE
  8
LAYER-1
 66
  1
 70
  1
 62
  0
 10
3.590302
 20
0.142819
 30
0.000000
  0
VERTEX
  8
LAYER-1
 10
3.590302
 20
0.142819
 30
0.000000
  0
VERTEX
  8
LAYER-1
 10
3.597247
 20
0.116778
 30
0.000000
  0
VERTEX
  8
LAYER-1
 10
3.622420
 20
0.130666
 30
0.000000
  0
SEQEND
  8
LAYER-1
  0
POLYLINE
  8
LAYER-1
 66
  1
 70
  1
 62
  0
 10
3.756535
 20
0.096812
 30
0.000000
  0
VERTEX
  8
LAYER-1
 10
3.756535
 20
0.096812
 30
0.000000
  0
VERTEX
  8
LAYER-1
 10
3.743514
 20
0.074242
 30
0.000000
  0
VERTEX
  8
LAYER-1
 10
3.773897
 20
0.095075
 30
0.000000
  0
SEQEND
  8
LAYER-1
  0
POLYLINE
  8
LAYER-1
 66
  1
 70
  1
 62
  0
 10
3.641517
 20
0.187085
 30
0.000000
  0
VERTEX
  8
LAYER-1
 10
3.641517
 20
0.187085
 30
0.000000
  0
VERTEX
  8
LAYER-1
 10
3.625025
 20
0.161912
 30
0.000000
  0
VERTEX
  8
LAYER-1
 10
3.639781
 20
0.154099
 30
0.000000
  0
SEQEND
  8
LAYER-1
  0
POLYLINE
  8
LAYER-1
 66
  1
 70
  0
 62
  0
 10
3.556447
 20
0.174069
 30
0.000000
  0
VERTEX
  8
LAYER-1
 10
3.556447
 20
0.174069
 30
0.000000
  0
VERTEX
  8
LAYER-1
 10
3.552108
 20
0.174069
 30
0.000000
  0
VERTEX
  8
LAYER-1
 10
3.548635
 20
0.169729
 30
0.000000
  0
VERTEX
  8
LAYER-1
 10
3.547766
 20
0.164521
 30
0.000000
  0
VERTEX
  8
LAYER-1
 10
3.549503
 20
0.160180
 30
0.000000
  0
VERTEX
  8
LAYER-1
 10
3.553844
 20
0.158444
 30
0.000000
  0
VERTEX
  8
LAYER-1
 10
3.558183
 20
0.158444
 30
0.000000
  0
VERTEX
  8
LAYER-1
 10
3.562523
 20
0.161916
 30
0.000000
  0
VERTEX
  8
LAYER-1
 10
3.562523
 20
0.166256
 30
0.000000
  0
VERTEX
  8
LAYER-1
 10
3.561655
 20
0.170598
 30
0.000000
  0
VERTEX
  8
LAYER-1
 10
3.557315
 20
0.173202
 30
0.000000
  0
SEQEND
  8
LAYER-1
  0
POLYLINE
  8
LAYER-1
 66
  1
 70
  1
 62
  0
 10
3.539954
 20
0.114171
 30
0.000000
  0
VERTEX
  8
LAYER-1
 10
3.539954
 20
0.114171
 30
0.000000
  0
VERTEX
  8
LAYER-1
 10
3.526934
 20
0.091602
 30
0.000000
  0
VERTEX
  8
LAYER-1
 10
3.557315
 20
0.112434
 30
0.000000
  0
SEQEND
  8
LAYER-1
  0
POLYLINE
  8
LAYER-1
 66
  1
 70
  1
 62
  0
 10
3.595409
 20
0.212524
 30
0.000000
  0
VERTEX
  8
LAYER-1
 10
3.595409
 20
0.212524
 30
0.000000
  0
VERTEX
  8
LAYER-1
 10
3.614775
 20
0.199837
 30
0.000000
  0
VERTEX
  8
LAYER-1
 10
3.620785
 20
0.211188
 30
0.000000
  0
SEQEND
  8
LAYER-1
  0
POLYLINE
  8
LAYER-1
 66
  1
 70
  0
 62
  0
 10
3.480058
 20
0.163774
 30
0.000000
  0
VERTEX
  8
LAYER-1
 10
3.480058
 20
0.163774
 30
0.000000
  0
VERTEX
  8
LAYER-1
 10
3.475718
 20
0.163774
 30
0.000000
  0
VERTEX
  8
LAYER-1
 10
3.472245
 20
0.159433
 30
0.000000
  0
VERTEX
  8
LAYER-1
 10
3.471379
 20
0.154226
 30
0.000000
  0
VERTEX
  8
LAYER-1
 10
3.473114
 20
0.149885
 30
0.000000
  0
VERTEX
  8
LAYER-1
 10
3.477454
 20
0.148149
 30
0.000000
  0
VERTEX
  8
LAYER-1
 10
3.481795
 20
0.148149
 30
0.000000
  0
VERTEX
  8
LAYER-1
 10
3.486134
 20
0.151621
 30
0.000000
  0
VERTEX
  8
LAYER-1
 10
3.486134
 20
0.155962
 30
0.000000
  0
VERTEX
  8
LAYER-1
 10
3.485266
 20
0.160302
 30
0.000000
  0
VERTEX
  8
LAYER-1
 10
3.480927
 20
0.162906
 30
0.000000
  0
SEQEND
  8
LAYER-1
  0
POLYLINE
  8
LAYER-1
 66
  1
 70
  0
 62
  0
 10
3.856797
 20
0.135870
 30
0.000000
  0
VERTEX
  8
LAYER-1
 10
3.856797
 20
0.135870
 30
0.000000
  0
VERTEX
  8
LAYER-1
 10
3.852457
 20
0.135870
 30
0.000000
  0
VERTEX
  8
LAYER-1
 10
3.848985
 20
0.131529
 30
0.000000
  0
VERTEX
  8
LAYER-1
 10
3.848117
 20
0.126322
 30
0.000000
  0
VERTEX
  8
LAYER-1
 10
3.849853
 20
0.121980
 30
0.000000
  0
VERTEX
  8
LAYER-1
 10
3.854193
 20
0.120245
 30
0.000000
  0
VERTEX
  8
LAYER-1
 10
3.858533
 20
0.120245
 30
0.000000
  0
VERTEX
  8
LAYER-1
 10
3.862874
 20
0.123717
 30
0.000000
  0
VERTEX
  8
LAYER-1
 10
3.862874
 20
0.128058
 30
0.000000
  0
VERTEX
  8
LAYER-1
 10
3.862006
 20
0.132398
 30
0.000000
  0
VERTEX
  8
LAYER-1
 10
3.857665
 20
0.135002
 30
0.000000
  0
SEQEND
  8
LAYER-1
  0
POLYLINE
  8
LAYER-1
 66
  1
 70
  0
 62
  0
 10
3.588565
 20
0.107227
 30
0.000000
  0
VERTEX
  8
LAYER-1
 10
3.588565
 20
0.107227
 30
0.000000
  0
VERTEX
  8
LAYER-1
 10
3.584226
 20
0.107227
 30
0.000000
  0
VERTEX
  8
LAYER-1
 10
3.580753
 20
0.102886
 30
0.000000
  0
VERTEX
  8
LAYER-1
 10
3.579885
 20
0.097678
 30
0.000000
  0
VERTEX
  8
LAYER-1
 10
3.581621
 20
0.093337
 30
0.000000
  0
VERTEX
  8
LAYER-1
 10
3.585962
 20
0.091602
 30
0.000000
  0
VERTEX
  8
LAYER-1
 10
3.590302
 20
0.091602
 30
0.000000
  0
VERTEX
  8
LAYER-1
 10
3.594642
 20
0.095073
 30
0.000000
  0
VERTEX
  8
LAYER-1
 10
3.594642
 20
0.099414
 30
0.000000
  0
VERTEX
  8
LAYER-1
 10
3.593774
 20
0.103755
 30
0.000000
  0
VERTEX
  8
LAYER-1
 10
3.589433
 20
0.106359
 30
0.000000
  0
SEQEND
  8
LAYER-1
  0
POLYLINE
  8
LAYER-1
 66
  1
 70
  1
 62
  0
 10
3.386743
 20
0.166690
 30
0.000000
  0
VERTEX
  8
LAYER-1
 10
3.386743
 20
0.166690
 30
0.000000
  0
VERTEX
  8
LAYER-1
 10
3.360703
 20
0.159746
 30
0.000000
  0
VERTEX
  8
LAYER-1
 10
3.374590
 20
0.134572
 30
0.000000
  0
SEQEND
  8
LAYER-1
  0
POLYLINE
  8
LAYER-1
 66
  1
 70
  1
 62
  0
 10
3.293863
 20
0.115474
 30
0.000000
  0
VERTEX
  8
LAYER-1
 10
3.293863
 20
0.115474
 30
0.000000
  0
VERTEX
  8
LAYER-1
 10
3.271292
 20
0.128496
 30
0.000000
  0
VERTEX
  8
LAYER-1
 10
3.292125
 20
0.098114
 30
0.000000
  0
SEQEND
  8
LAYER-1
  0
POLYLINE
  8
LAYER-1
 66
  1
 70
  1
 62
  0
 10
3.257404
 20
0.160611
 30
0.000000
  0
VERTEX
  8
LAYER-1
 10
3.257404
 20
0.160611
 30
0.000000
  0
VERTEX
  8
LAYER-1
 10
3.232230
 20
0.177104
 30
0.000000
  0
VERTEX
  8
LAYER-1
 10
3.224418
 20
0.162347
 30
0.000000
  0
SEQEND
  8
LAYER-1
  0
POLYLINE
  8
LAYER-1
 66
  1
 70
  0
 62
  0
 10
3.417993
 20
0.216168
 30
0.000000
  0
VERTEX
  8
LAYER-1
 10
3.417993
 20
0.216168
 30
0.000000
  0
VERTEX
  8
LAYER-1
 10
3.417993
 20
0.220509
 30
0.000000
  0
VERTEX
  8
LAYER-1
 10
3.413653
 20
0.223980
 30
0.000000
  0
VERTEX
  8
LAYER-1
 10
3.408445
 20
0.224848
 30
0.000000
  0
VERTEX
  8
LAYER-1
 10
3.404104
 20
0.223112
 30
0.000000
  0
VERTEX
  8
LAYER-1
 10
3.402368
 20
0.218772
 30
0.000000
  0
VERTEX
  8
LAYER-1
 10
3.402368
 20
0.214433
 30
0.000000
  0
VERTEX
  8
LAYER-1
 10
3.405840
 20
0.210091
 30
0.000000
  0
VERTEX
  8
LAYER-1
 10
3.410181
 20
0.210091
 30
0.000000
  0
VERTEX
  8
LAYER-1
 10
3.414522
 20
0.210960
 30
0.000000
  0
VERTEX
  8
LAYER-1
 10
3.417127
 20
0.215300
 30
0.000000
  0
SEQEND
  8
LAYER-1
  0
POLYLINE
  8
LAYER-1
 66
  1
 70
  1
 62
  0
 10
3.350286
 20
0.178842
 30
0.000000
  0
VERTEX
  8
LAYER-1
 10
3.350286
 20
0.178842
 30
0.000000
  0
VERTEX
  8
LAYER-1
 10
3.327716
 20
0.191862
 30
0.000000
  0
VERTEX
  8
LAYER-1
 10
3.348548
 20
0.161481
 30
0.000000
  0
SEQEND
  8
LAYER-1
  0
POLYLINE
  8
LAYER-1
 66
  1
 70
  1
 62
  0
 10
3.301940
 20
0.185883
 30
0.000000
  0
VERTEX
  8
LAYER-1
 10
3.301940
 20
0.185883
 30
0.000000
  0
VERTEX
  8
LAYER-1
 10
3.289254
 20
0.166520
 30
0.000000
  0
VERTEX
  8
LAYER-1
 10
3.300604
 20
0.160509
 30
0.000000
  0
SEQEND
  8
LAYER-1
  0
POLYLINE
  8
LAYER-1
 66
  1
 70
  0
 62
  0
 10
3.419729
 20
0.088565
 30
0.000000
  0
VERTEX
  8
LAYER-1
 10
3.419729
 20
0.088565
 30
0.000000
  0
VERTEX
  8
LAYER-1
 10
3.419729
 20
0.092904
 30
0.000000
  0
VERTEX
  8
LAYER-1
 10
3.415389
 20
0.096377
 30
0.000000
  0
VERTEX
  8
LAYER-1
 10
3.410181
 20
0.097245
 30
0.000000
  0
VERTEX
  8
LAYER-1
 10
3.405840
 20
0.095509
 30
0.000000
  0
VERTEX
  8
LAYER-1
 10
3.404104
 20
0.091168
 30
0.000000
  0
VERTEX
  8
LAYER-1
 10
3.404104
 20
0.086828
 30
0.000000
  0
VERTEX
  8
LAYER-1
 10
3.407576
 20
0.082487
 30
0.000000
  0
VERTEX
  8
LAYER-1
 10
3.411917
 20
0.082487
 30
0.000000
  0
VERTEX
  8
LAYER-1
 10
3.416258
 20
0.083355
 30
0.000000
  0
VERTEX
  8
LAYER-1
 10
3.418862
 20
0.087696
 30
0.000000
  0
SEQEND
  8
LAYER-1
  0
POLYLINE
  8
LAYER-1
 66
  1
 70
  0
 62
  0
 10
3.338132
 20
0.089433
 30
0.000000
  0
VERTEX
  8
LAYER-1
 10
3.338132
 20
0.089433
 30
0.000000
  0
VERTEX
  8
LAYER-1
 10
3.338132
 20
0.093773
 30
0.000000
  0
VERTEX
  8
LAYER-1
 10
3.333792
 20
0.097245
 30
0.000000
  0
VERTEX
  8
LAYER-1
 10
3.328584
 20
0.098112
 30
0.000000
  0
VERTEX
  8
LAYER-1
 10
3.324243
 20
0.096377
 30
0.000000
  0
VERTEX
  8
LAYER-1
 10
3.322508
 20
0.092036
 30
0.000000
  0
VERTEX
  8
LAYER-1
 10
3.322508
 20
0.087696
 30
0.000000
  0
VERTEX
  8
LAYER-1
 10
3.325979
 20
0.083355
 30
0.000000
  0
VERTEX
  8
LAYER-1
 10
3.330320
 20
0.083355
 30
0.000000
  0
VERTEX
  8
LAYER-1
 10
3.334660
 20
0.084223
 30
0.000000
  0
VERTEX
  8
LAYER-1
 10
3.337265
 20
0.088565
 30
0.000000
  0
SEQEND
  8
LAYER-1
  0
POLYLINE
  8
LAYER-1
 66
  1
 70
  0
 62
  0
 10
3.267821
 20
0.199674
 30
0.000000
  0
VERTEX
  8
LAYER-1
 10
3.267821
 20
0.199674
 30
0.000000
  0
VERTEX
  8
LAYER-1
 10
3.267821
 20
0.204015
 30
0.000000
  0
VERTEX
  8
LAYER-1
 10
3.263480
 20
0.207486
 30
0.000000
  0
VERTEX
  8
LAYER-1
 10
3.258272
 20
0.208355
 30
0.000000
  0
VERTEX
  8
LAYER-1
 10
3.253932
 20
0.206618
 30
0.000000
  0
VERTEX
  8
LAYER-1
 10
3.252196
 20
0.202278
 30
0.000000
  0
VERTEX
  8
LAYER-1
 10
3.252196
 20
0.197939
 30
0.000000
  0
VERTEX
  8
LAYER-1
 10
3.255667
 20
0.193598
 30
0.000000
  0
VERTEX
  8
LAYER-1
 10
3.260008
 20
0.193598
 30
0.000000
  0
VERTEX
  8
LAYER-1
 10
3.264349
 20
0.194466
 30
0.000000
  0
VERTEX
  8
LAYER-1
 10
3.266954
 20
0.198806
 30
0.000000
  0
SEQEND
  8
LAYER-1
  0
POLYLINE
  8
LAYER-1
 66
  1
 70
  1
 62
  0
 10
4.050372
 20
0.189259
 30
0.000000
  0
VERTEX
  8
LAYER-1
 10
4.050372
 20
0.189259
 30
0.000000
  0
VERTEX
  8
LAYER-1
 10
4.057316
 20
0.163218
 30
0.000000
  0
VERTEX
  8
LAYER-1
 10
4.082490
 20
0.177106
 30
0.000000
  0
SEQEND
  8
LAYER-1
  0
POLYLINE
  8
LAYER-1
 66
  1
 70
  1
 62
  0
 10
4.212699
 20
0.217905
 30
0.000000
  0
VERTEX
  8
LAYER-1
 10
4.212699
 20
0.217905
 30
0.000000
  0
VERTEX
  8
LAYER-1
 10
4.199678
 20
0.195335
 30
0.000000
  0
VERTEX
  8
LAYER-1
 10
4.230060
 20
0.216168
 30
0.000000
  0
SEQEND
  8
LAYER-1
  0
POLYLINE
  8
LAYER-1
 66
  1
 70
  1
 62
  0
 10
4.191867
 20
0.132835
 30
0.000000
  0
VERTEX
  8
LAYER-1
 10
4.191867
 20
0.132835
 30
0.000000
  0
VERTEX
  8
LAYER-1
 10
4.175374
 20
0.107660
 30
0.000000
  0
VERTEX
  8
LAYER-1
 10
4.190131
 20
0.099848
 30
0.000000
  0
SEQEND
  8
LAYER-1
  0
POLYLINE
  8
LAYER-1
 66
  1
 70
  0
 62
  0
 10
4.000893
 20
0.220509
 30
0.000000
  0
VERTEX
  8
LAYER-1
 10
4.000893
 20
0.220509
 30
0.000000
  0
VERTEX
  8
LAYER-1
 10
3.996552
 20
0.220509
 30
0.000000
  0
VERTEX
  8
LAYER-1
 10
3.993081
 20
0.216168
 30
0.000000
  0
VERTEX
  8
LAYER-1
 10
3.992213
 20
0.210960
 30
0.000000
  0
VERTEX
  8
LAYER-1
 10
3.993949
 20
0.206620
 30
0.000000
  0
VERTEX
  8
LAYER-1
 10
3.998289
 20
0.204884
 30
0.000000
  0
VERTEX
  8
LAYER-1
 10
4.002629
 20
0.204884
 30
0.000000
  0
VERTEX
  8
LAYER-1
 10
4.006969
 20
0.208355
 30
0.000000
  0
VERTEX
  8
LAYER-1
 10
4.006969
 20
0.212696
 30
0.000000
  0
VERTEX
  8
LAYER-1
 10
4.006102
 20
0.217037
 30
0.000000
  0
VERTEX
  8
LAYER-1
 10
4.001761
 20
0.219641
 30
0.000000
  0
SEQEND
  8
LAYER-1
  0
POLYLINE
  8
LAYER-1
 66
  1
 70
  1
 62
  0
 10
4.022159
 20
0.152366
 30
0.000000
  0
VERTEX
  8
LAYER-1
 10
4.022159
 20
0.152366
 30
0.000000
  0
VERTEX
  8
LAYER-1
 10
4.044729
 20
0.139346
 30
0.000000
  0
VERTEX
  8
LAYER-1
 10
4.023896
 20
0.169727
 30
0.000000
  0
SEQEND
  8
LAYER-1
  0
POLYLINE
  8
LAYER-1
 66
  1
 70
  1
 62
  0
 10
4.138814
 20
0.144386
 30
0.000000
  0
VERTEX
  8
LAYER-1
 10
4.138814
 20
0.144386
 30
0.000000
  0
VERTEX
  8
LAYER-1
 10
4.158179
 20
0.131699
 30
0.000000
  0
VERTEX
  8
LAYER-1
 10
4.164189
 20
0.143050
 30
0.000000
  0
SEQEND
  8
LAYER-1
  0
POLYLINE
  8
LAYER-1
 66
  1
 70
  0
 62
  0
 10
4.152803
 20
0.222245
 30
0.000000
  0
VERTEX
  8
LAYER-1
 10
4.152803
 20
0.222245
 30
0.000000
  0
VERTEX
  8
LAYER-1
 10
4.148463
 20
0.222245
 30
0.000000
  0
VERTEX
  8
LAYER-1
 10
4.144991
 20
0.217904
 30
0.000000
  0
VERTEX
  8
LAYER-1
 10
4.144123
 20
0.212696
 30
0.000000
  0
VERTEX
  8
LAYER-1
 10
4.145859
 20
0.208355
 30
0.000000
  0
VERTEX
  8
LAYER-1
 10
4.150199
 20
0.206620
 30
0.000000
  0
VERTEX
  8
LAYER-1
 10
4.154540
 20
0.206620
 30
0.000000
  0
VERTEX
  8
LAYER-1
 10
4.158880
 20
0.210091
 30
0.000000
  0
VERTEX
  8
LAYER-1
 10
4.158880
 20
0.214433
 30
0.000000
  0
VERTEX
  8
LAYER-1
 10
4.158012
 20
0.218773
 30
0.000000
  0
VERTEX
  8
LAYER-1
 10
4.153671
 20
0.221377
 30
0.000000
  0
SEQEND
  8
LAYER-1
  0
POLYLINE
  8
LAYER-1
 66
  1
 70
  0
 62
  0
 10
4.237006
 20
0.095508
 30
0.000000
  0
VERTEX
  8
LAYER-1
 10
4.237006
 20
0.095508
 30
0.000000
  0
VERTEX
  8
LAYER-1
 10
4.232665
 20
0.095508
 30
0.000000
  0
VERTEX
  8
LAYER-1
 10
4.229193
 20
0.091167
 30
0.000000
  0
VERTEX
  8
LAYER-1
 10
4.228325
 20
0.085960
 30
0.000000
  0
VERTEX
  8
LAYER-1
 10
4.230061
 20
0.081618
 30
0.000000
  0
VERTEX
  8
LAYER-1
 10
4.234401
 20
0.079883
 30
0.000000
  0
VERTEX
  8
LAYER-1
 10
4.238742
 20
0.079883
 30
0.000000
  0
VERTEX
  8
LAYER-1
 10
4.243082
 20
0.083355
 30
0.000000
  0
VERTEX
  8
LAYER-1
 10
4.243082
 20
0.087696
 30
0.000000
  0
VERTEX
  8
LAYER-1
 10
4.242213
 20
0.092036
 30
0.000000
  0
VERTEX
  8
LAYER-1
 10
4.237874
 20
0.094640
 30
0.000000
  0
SEQEND
  8
LAYER-1
  0
POLYLINE
  8
LAYER-1
 66
  1
 70
  0
 62
  0
 10
4.083359
 20
0.150193
 30
0.000000
  0
VERTEX
  8
LAYER-1
 10
4.083359
 20
0.150193
 30
0.000000
  0
VERTEX
  8
LAYER-1
 10
4.079018
 20
0.150193
 30
0.000000
  0
VERTEX
  8
LAYER-1
 10
4.075546
 20
0.145853
 30
0.000000
  0
VERTEX
  8
LAYER-1
 10
4.074678
 20
0.140645
 30
0.000000
  0
VERTEX
  8
LAYER-1
 10
4.076414
 20
0.136304
 30
0.000000
  0
VERTEX
  8
LAYER-1
 10
4.080754
 20
0.134568
 30
0.000000
  0
VERTEX
  8
LAYER-1
 10
4.085094
 20
0.134568
 30
0.000000
  0
VERTEX
  8
LAYER-1
 10
4.089435
 20
0.138040
 30
0.000000
  0
VERTEX
  8
LAYER-1
 10
4.089435
 20
0.142381
 30
0.000000
  0
VERTEX
  8
LAYER-1
 10
4.088566
 20
0.146722
 30
0.000000
  0
VERTEX
  8
LAYER-1
 10
4.084227
 20
0.149326
 30
0.000000
  0
SEQEND
  8
LAYER-1
  0
POLYLINE
  8
LAYER-1
 66
  1
 70
  1
 62
  0
 10
3.918429
 20
0.158875
 30
0.000000
  0
VERTEX
  8
LAYER-1
 10
3.918429
 20
0.158875
 30
0.000000
  0
VERTEX
  8
LAYER-1
 10
3.911484
 20
0.184914
 30
0.000000
  0
VERTEX
  8
LAYER-1
 10
3.886310
 20
0.171028
 30
0.000000
  0
SEQEND
  8
LAYER-1
  0
POLYLINE
  8
LAYER-1
 66
  1
 70
  1
 62
  0
 10
3.507404
 20
0.190558
 30
0.000000
  0
VERTEX
  8
LAYER-1
 10
3.507404
 20
0.190558
 30
0.000000
  0
VERTEX
  8
LAYER-1
 10
3.520424
 20
0.213128
 30
0.000000
  0
VERTEX
  8
LAYER-1
 10
3.490043
 20
0.192295
 30
0.000000
  0
SEQEND
  8
LAYER-1
  0
POLYLINE
  8
LAYER-1
 66
  1
 70
  1
 62
  0
 10
3.804713
 20
0.184049
 30
0.000000
  0
VERTEX
  8
LAYER-1
 10
3.804713
 20
0.184049
 30
0.000000
  0
VERTEX
  8
LAYER-1
 10
3.821206
 20
0.209223
 30
0.000000
  0
VERTEX
  8
LAYER-1
 10
3.806449
 20
0.217035
 30
0.000000
  0
SEQEND
  8
LAYER-1
  0
POLYLINE
  8
LAYER-1
 66
  1
 70
  0
 62
  0
 10
3.967907
 20
0.127625
 30
0.000000
  0
VERTEX
  8
LAYER-1
 10
3.967907
 20
0.127625
 30
0.000000
  0
VERTEX
  8
LAYER-1
 10
3.972248
 20
0.127625
 30
0.000000
  0
VERTEX
  8
LAYER-1
 10
3.975719
 20
0.131966
 30
0.000000
  0
VERTEX
  8
LAYER-1
 10
3.976588
 20
0.137173
 30
0.000000
  0
VERTEX
  8
LAYER-1
 10
3.974853
 20
0.141514
 30
0.000000
  0
VERTEX
  8
LAYER-1
 10
3.970512
 20
0.143250
 30
0.000000
  0
VERTEX
  8
LAYER-1
 10
3.966171
 20
0.143250
 30
0.000000
  0
VERTEX
  8
LAYER-1
 10
3.961831
 20
0.139778
 30
0.000000
  0
VERTEX
  8
LAYER-1
 10
3.961831
 20
0.135437
 30
0.000000
  0
VERTEX
  8
LAYER-1
 10
3.962699
 20
0.131097
 30
0.000000
  0
VERTEX
  8
LAYER-1
 10
3.967040
 20
0.128492
 30
0.000000
  0
SEQEND
  8
LAYER-1
  0
POLYLINE
  8
LAYER-1
 66
  1
 70
  1
 62
  0
 10
3.921900
 20
0.124154
 30
0.000000
  0
VERTEX
  8
LAYER-1
 10
3.921900
 20
0.124154
 30
0.000000
  0
VERTEX
  8
LAYER-1
 10
3.934921
 20
0.146724
 30
0.000000
  0
VERTEX
  8
LAYER-1
 10
3.904539
 20
0.125892
 30
0.000000
  0
SEQEND
  8
LAYER-1
  0
POLYLINE
  8
LAYER-1
 66
  1
 70
  1
 62
  0
 10
3.867313
 20
0.165555
 30
0.000000
  0
VERTEX
  8
LAYER-1
 10
3.867313
 20
0.165555
 30
0.000000
  0
VERTEX
  8
LAYER-1
 10
3.847950
 20
0.178243
 30
0.000000
  0
VERTEX
  8
LAYER-1
 10
3.841938
 20
0.166891
 30
0.000000
  0
SEQEND
  8
LAYER-1
  0
POLYLINE
  8
LAYER-1
 66
  1
 70
  0
 62
  0
 10
3.844208
 20
0.062211
 30
0.000000
  0
VERTEX
  8
LAYER-1
 10
3.844208
 20
0.062211
 30
0.000000
  0
VERTEX
  8
LAYER-1
 10
3.848548
 20
0.062211
 30
0.000000
  0
VERTEX
  8
LAYER-1
 10
3.852020
 20
0.066551
 30
0.000000
  0
VERTEX
  8
LAYER-1
 10
3.852889
 20
0.071759
 30
0.000000
  0
VERTEX
  8
LAYER-1
 10
3.851153
 20
0.076100
 30
0.000000
  0
VERTEX
  8
LAYER-1
 10
3.846812
 20
0.077836
 30
0.000000
  0
VERTEX
  8
LAYER-1
 10
3.842472
 20
0.077836
 30
0.000000
  0
VERTEX
  8
LAYER-1
 10
3.838131
 20
0.074364
 30
0.000000
  0
VERTEX
  8
LAYER-1
 10
3.838131
 20
0.070023
 30
0.000000
  0
VERTEX
  8
LAYER-1
 10
3.839000
 20
0.065682
 30
0.000000
  0
VERTEX
  8
LAYER-1
 10
3.843341
 20
0.063077
 30
0.000000
  0
SEQEND
  8
LAYER-1
  0
POLYLINE
  8
LAYER-1
 66
  1
 70
  0
 62
  0
 10
3.754365
 20
0.205005
 30
0.000000
  0
VERTEX
  8
LAYER-1
 10
3.754365
 20
0.205005
 30
0.000000
  0
VERTEX
  8
LAYER-1
 10
3.758706
 20
0.205005
 30
0.000000
  0
VERTEX
  8
LAYER-1
 10
3.762177
 20
0.209345
 30
0.000000
  0
VERTEX
  8
LAYER-1
 10
3.763044
 20
0.214553
 30
0.000000
  0
VERTEX
  8
LAYER-1
 10
3.761308
 20
0.218894
 30
0.000000
  0
VERTEX
  8
LAYER-1
 10
3.756968
 20
0.220630
 30
0.000000
  0
VERTEX
  8
LAYER-1
 10
3.752629
 20
0.220630
 30
0.000000
  0
VERTEX
  8
LAYER-1
 10
3.748288
 20
0.217158
 30
0.000000
  0
VERTEX
  8
LAYER-1
 10
3.748288
 20
0.212818
 30
0.000000
  0
VERTEX
  8
LAYER-1
 10
3.749155
 20
0.208477
 30
0.000000
  0
VERTEX
  8
LAYER-1
 10
3.753496
 20
0.205872
 30
0.000000
  0
SEQEND
  8
LAYER-1
  0
POLYLINE
  8
LAYER-1
 66
  1
 70
  0
 62
  0
 10
3.916693
 20
0.197939
 30
0.000000
  0
VERTEX
  8
LAYER-1
 10
3.916693
 20
0.197939
 30
0.000000
  0
VERTEX
  8
LAYER-1
 10
3.921033
 20
0.197939
 30
0.000000
  0
VERTEX
  8
LAYER-1
 10
3.924505
 20
0.202279
 30
0.000000
  0
VERTEX
  8
LAYER-1
 10
3.925372
 20
0.207486
 30
0.000000
  0
VERTEX
  8
LAYER-1
 10
3.923636
 20
0.211828
 30
0.000000
  0
VERTEX
  8
LAYER-1
 10
3.919295
 20
0.213564
 30
0.000000
  0
VERTEX
  8
LAYER-1
 10
3.914956
 20
0.213564
 30
0.000000
  0
VERTEX
  8
LAYER-1
 10
3.910616
 20
0.210091
 30
0.000000
  0
VERTEX
  8
LAYER-1
 10
3.910616
 20
0.205751
 30
0.000000
  0
VERTEX
  8
LAYER-1
 10
3.911483
 20
0.201410
 30
0.000000
  0
VERTEX
  8
LAYER-1
 10
3.915824
 20
0.198805
 30
0.000000
  0
SEQEND
  8
LAYER-1
  0
POLYLINE
  8
LAYER-1
 66
  1
 70
  1
 62
  0
 10
4.672768
 20
0.167124
 30
0.000000
  0
VERTEX
  8
LAYER-1
 10
4.672768
 20
0.167124
 30
0.000000
  0
VERTEX
  8
LAYER-1
 10
4.679713
 20
0.141084
 30
0.000000
  0
VERTEX
  8
LAYER-1
 10
4.704886
 20
0.154972
 30
0.000000
  0
SEQEND
  8
LAYER-1
  0
POLYLINE
  8
LAYER-1
 66
  1
 70
  1
 62
  0
 10
4.799503
 20
0.202715
 30
0.000000
  0
VERTEX
  8
LAYER-1
 10
4.799503
 20
0.202715
 30
0.000000
  0
VERTEX
  8
LAYER-1
 10
4.786483
 20
0.180146
 30
0.000000
  0
VERTEX
  8
LAYER-1
 10
4.816864
 20
0.200978
 30
0.000000
  0
SEQEND
  8
LAYER-1
  0
POLYLINE
  8
LAYER-1
 66
  1
 70
  1
 62
  0
 10
4.474853
 20
0.191430
 30
0.000000
  0
VERTEX
  8
LAYER-1
 10
4.474853
 20
0.191430
 30
0.000000
  0
VERTEX
  8
LAYER-1
 10
4.458360
 20
0.166256
 30
0.000000
  0
VERTEX
  8
LAYER-1
 10
4.473117
 20
0.158444
 30
0.000000
  0
SEQEND
  8
LAYER-1
  0
POLYLINE
  8
LAYER-1
 66
  1
 70
  0
 62
  0
 10
4.585094
 20
0.183619
 30
0.000000
  0
VERTEX
  8
LAYER-1
 10
4.585094
 20
0.183619
 30
0.000000
  0
VERTEX
  8
LAYER-1
 10
4.580754
 20
0.183619
 30
0.000000
  0
VERTEX
  8
LAYER-1
 10
4.577282
 20
0.179280
 30
0.000000
  0
VERTEX
  8
LAYER-1
 10
4.576413
 20
0.174072
 30
0.000000
  0
VERTEX
  8
LAYER-1
 10
4.578149
 20
0.169731
 30
0.000000
  0
VERTEX
  8
LAYER-1
 10
4.582490
 20
0.167996
 30
0.000000
  0
VERTEX
  8
LAYER-1
 10
4.586831
 20
0.167996
 30
0.000000
  0
VERTEX
  8
LAYER-1
 10
4.591170
 20
0.171467
 30
0.000000
  0
VERTEX
  8
LAYER-1
 10
4.591170
 20
0.175808
 30
0.000000
  0
VERTEX
  8
LAYER-1
 10
4.590302
 20
0.180149
 30
0.000000
  0
VERTEX
  8
LAYER-1
 10
4.585962
 20
0.182752
 30
0.000000
  0
SEQEND
  8
LAYER-1
  0
POLYLINE
  8
LAYER-1
 66
  1
 70
  1
 62
  0
 10
4.614609
 20
0.137611
 30
0.000000
  0
VERTEX
  8
LAYER-1
 10
4.614609
 20
0.137611
 30
0.000000
  0
VERTEX
  8
LAYER-1
 10
4.601588
 20
0.115041
 30
0.000000
  0
VERTEX
  8
LAYER-1
 10
4.631969
 20
0.135874
 30
0.000000
  0
SEQEND
  8
LAYER-1
  0
POLYLINE
  8
LAYER-1
 66
  1
 70
  1
 62
  0
 10
4.821906
 20
0.138142
 30
0.000000
  0
VERTEX
  8
LAYER-1
 10
4.821906
 20
0.138142
 30
0.000000
  0
VERTEX
  8
LAYER-1
 10
4.809219
 20
0.118777
 30
0.000000
  0
VERTEX
  8
LAYER-1
 10
4.820571
 20
0.112767
 30
0.000000
  0
SEQEND
  8
LAYER-1
  0
POLYLINE
  8
LAYER-1
 66
  1
 70
  0
 62
  0
 10
4.729190
 20
0.207054
 30
0.000000
  0
VERTEX
  8
LAYER-1
 10
4.729190
 20
0.207054
 30
0.000000
  0
VERTEX
  8
LAYER-1
 10
4.724850
 20
0.207054
 30
0.000000
  0
VERTEX
  8
LAYER-1
 10
4.721378
 20
0.202714
 30
0.000000
  0
VERTEX
  8
LAYER-1
 10
4.720510
 20
0.197506
 30
0.000000
  0
VERTEX
  8
LAYER-1
 10
4.722246
 20
0.193165
 30
0.000000
  0
VERTEX
  8
LAYER-1
 10
4.726586
 20
0.191429
 30
0.000000
  0
VERTEX
  8
LAYER-1
 10
4.730927
 20
0.191429
 30
0.000000
  0
VERTEX
  8
LAYER-1
 10
4.735267
 20
0.194901
 30
0.000000
  0
VERTEX
  8
LAYER-1
 10
4.735267
 20
0.199242
 30
0.000000
  0
VERTEX
  8
LAYER-1
 10
4.734398
 20
0.203583
 30
0.000000
  0
VERTEX
  8
LAYER-1
 10
4.730058
 20
0.206186
 30
0.000000
  0
SEQEND
  8
LAYER-1
  0
POLYLINE
  8
LAYER-1
 66
  1
 70
  0
 62
  0
 10
4.516519
 20
0.197505
 30
0.000000
  0
VERTEX
  8
LAYER-1
 10
4.516519
 20
0.197505
 30
0.000000
  0
VERTEX
  8
LAYER-1
 10
4.512179
 20
0.197505
 30
0.000000
  0
VERTEX
  8
LAYER-1
 10
4.508706
 20
0.193164
 30
0.000000
  0
VERTEX
  8
LAYER-1
 10
4.507838
 20
0.187956
 30
0.000000
  0
VERTEX
  8
LAYER-1
 10
4.509575
 20
0.183616
 30
0.000000
  0
VERTEX
  8
LAYER-1
 10
4.513915
 20
0.181880
 30
0.000000
  0
VERTEX
  8
LAYER-1
 10
4.518256
 20
0.181880
 30
0.000000
  0
VERTEX
  8
LAYER-1
 10
4.522596
 20
0.185352
 30
0.000000
  0
VERTEX
  8
LAYER-1
 10
4.522596
 20
0.189692
 30
0.000000
  0
VERTEX
  8
LAYER-1
 10
4.521728
 20
0.194033
 30
0.000000
  0
VERTEX
  8
LAYER-1
 10
4.517388
 20
0.196637
 30
0.000000
  0
SEQEND
  8
LAYER-1
  0
POLYLINE
  8
LAYER-1
 66
  1
 70
  0
 62
  0
 10
4.763915
 20
0.169726
 30
0.000000
  0
VERTEX
  8
LAYER-1
 10
4.763915
 20
0.169726
 30
0.000000
  0
VERTEX
  8
LAYER-1
 10
4.759575
 20
0.169726
 30
0.000000
  0
VERTEX
  8
LAYER-1
 10
4.756103
 20
0.165385
 30
0.000000
  0
VERTEX
  8
LAYER-1
 10
4.755235
 20
0.160177
 30
0.000000
  0
VERTEX
  8
LAYER-1
 10
4.756972
 20
0.155836
 30
0.000000
  0
VERTEX
  8
LAYER-1
 10
4.761312
 20
0.154101
 30
0.000000
  0
VERTEX
  8
LAYER-1
 10
4.765652
 20
0.154101
 30
0.000000
  0
VERTEX
  8
LAYER-1
 10
4.769992
 20
0.157572
 30
0.000000
  0
VERTEX
  8
LAYER-1
 10
4.769992
 20
0.161914
 30
0.000000
  0
VERTEX
  8
LAYER-1
 10
4.769125
 20
0.166254
 30
0.000000
  0
VERTEX
  8
LAYER-1
 10
4.764784
 20
0.168858
 30
0.000000
  0
SEQEND
  8
LAYER-1
  0
POLYLINE
  8
LAYER-1
 66
  1
 70
  1
 62
  0
 10
4.378498
 20
0.116341
 30
0.000000
  0
VERTEX
  8
LAYER-1
 10
4.378498
 20
0.116341
 30
0.000000
  0
VERTEX
  8
LAYER-1
 10
4.371553
 20
0.142382
 30
0.000000
  0
VERTEX
  8
LAYER-1
 10
4.346380
 20
0.128495
 30
0.000000
  0
SEQEND
  8
LAYER-1
  0
POLYLINE
  8
LAYER-1
 66
  1
 70
  1
 62
  0
 10
4.226588
 20
0.157138
 30
0.000000
  0
VERTEX
  8
LAYER-1
 10
4.226588
 20
0.157138
 30
0.000000
  0
VERTEX
  8
LAYER-1
 10
4.239610
 20
0.179709
 30
0.000000
  0
VERTEX
  8
LAYER-1
 10
4.209228
 20
0.158876
 30
0.000000
  0
SEQEND
  8
LAYER-1
  0
POLYLINE
  8
LAYER-1
 66
  1
 70
  1
 62
  0
 10
4.309922
 20
0.117212
 30
0.000000
  0
VERTEX
  8
LAYER-1
 10
4.309922
 20
0.117212
 30
0.000000
  0
VERTEX
  8
LAYER-1
 10
4.326415
 20
0.142386
 30
0.000000
  0
VERTEX
  8
LAYER-1
 10
4.311658
 20
0.150198
 30
0.000000
  0
SEQEND
  8
LAYER-1
  0
POLYLINE
  8
LAYER-1
 66
  1
 70
  0
 62
  0
 10
4.484402
 20
0.118949
 30
0.000000
  0
VERTEX
  8
LAYER-1
 10
4.484402
 20
0.118949
 30
0.000000
  0
VERTEX
  8
LAYER-1
 10
4.488743
 20
0.118949
 30
0.000000
  0
VERTEX
  8
LAYER-1
 10
4.492215
 20
0.123290
 30
0.000000
  0
VERTEX
  8
LAYER-1
 10
4.493082
 20
0.128498
 30
0.000000
  0
VERTEX
  8
LAYER-1
 10
4.491347
 20
0.132838
 30
0.000000
  0
VERTEX
  8
LAYER-1
 10
4.487006
 20
0.134574
 30
0.000000
  0
VERTEX
  8
LAYER-1
 10
4.482666
 20
0.134574
 30
0.000000
  0
VERTEX
  8
LAYER-1
 10
4.478325
 20
0.131103
 30
0.000000
  0
VERTEX
  8
LAYER-1
 10
4.478325
 20
0.126762
 30
0.000000
  0
VERTEX
  8
LAYER-1
 10
4.479193
 20
0.122421
 30
0.000000
  0
VERTEX
  8
LAYER-1
 10
4.483534
 20
0.119816
 30
0.000000
  0
SEQEND
  8
LAYER-1
  0
POLYLINE
  8
LAYER-1
 66
  1
 70
  1
 62
  0
 10
4.435789
 20
0.133704
 30
0.000000
  0
VERTEX
  8
LAYER-1
 10
4.435789
 20
0.133704
 30
0.000000
  0
VERTEX
  8
LAYER-1
 10
4.448810
 20
0.156275
 30
0.000000
  0
VERTEX
  8
LAYER-1
 10
4.418428
 20
0.135442
 30
0.000000
  0
SEQEND
  8
LAYER-1
  0
POLYLINE
  8
LAYER-1
 66
  1
 70
  1
 62
  0
 10
4.324846
 20
0.169629
 30
0.000000
  0
VERTEX
  8
LAYER-1
 10
4.324846
 20
0.169629
 30
0.000000
  0
VERTEX
  8
LAYER-1
 10
4.337532
 20
0.188993
 30
0.000000
  0
VERTEX
  8
LAYER-1
 10
4.326182
 20
0.195004
 30
0.000000
  0
SEQEND
  8
LAYER-1
  0
POLYLINE
  8
LAYER-1
 66
  1
 70
  0
 62
  0
 10
4.280493
 20
0.201100
 30
0.000000
  0
VERTEX
  8
LAYER-1
 10
4.280493
 20
0.201100
 30
0.000000
  0
VERTEX
  8
LAYER-1
 10
4.284833
 20
0.201100
 30
0.000000
  0
VERTEX
  8
LAYER-1
 10
4.288306
 20
0.205440
 30
0.000000
  0
VERTEX
  8
LAYER-1
 10
4.289174
 20
0.210648
 30
0.000000
  0
VERTEX
  8
LAYER-1
 10
4.287438
 20
0.214989
 30
0.000000
  0
VERTEX
  8
LAYER-1
 10
4.283098
 20
0.216725
 30
0.000000
  0
VERTEX
  8
LAYER-1
 10
4.278757
 20
0.216725
 30
0.000000
  0
VERTEX
  8
LAYER-1
 10
4.274417
 20
0.213253
 30
0.000000
  0
VERTEX
  8
LAYER-1
 10
4.274417
 20
0.208912
 30
0.000000
  0
VERTEX
  8
LAYER-1
 10
4.275285
 20
0.204571
 30
0.000000
  0
VERTEX
  8
LAYER-1
 10
4.279626
 20
0.201967
 30
0.000000
  0
SEQEND
  8
LAYER-1
  0
POLYLINE
  8
LAYER-1
 66
  1
 70
  0
 62
  0
 10
4.257838
 20
0.123289
 30
0.000000
  0
VERTEX
  8
LAYER-1
 10
4.257838
 20
0.123289
 30
0.000000
  0
VERTEX
  8
LAYER-1
 10
4.262179
 20
0.123289
 30
0.000000
  0
VERTEX
  8
LAYER-1
 10
4.265651
 20
0.127630
 30
0.000000
  0
VERTEX
  8
LAYER-1
 10
4.266519
 20
0.132837
 30
0.000000
  0
VERTEX
  8
LAYER-1
 10
4.264783
 20
0.137178
 30
0.000000
  0
VERTEX
  8
LAYER-1
 10
4.260443
 20
0.138914
 30
0.000000
  0
VERTEX
  8
LAYER-1
 10
4.256103
 20
0.138914
 30
0.000000
  0
VERTEX
  8
LAYER-1
 10
4.251762
 20
0.135442
 30
0.000000
  0
VERTEX
  8
LAYER-1
 10
4.251762
 20
0.131102
 30
0.000000
  0
VERTEX
  8
LAYER-1
 10
4.252630
 20
0.126761
 30
0.000000
  0
VERTEX
  8
LAYER-1
 10
4.256971
 20
0.124156
 30
0.000000
  0
SEQEND
  8
LAYER-1
  0
POLYLINE
  8
LAYER-1
 66
  1
 70
  0
 62
  0
 10
4.421901
 20
0.200544
 30
0.000000
  0
VERTEX
  8
LAYER-1
 10
4.421901
 20
0.200544
 30
0.000000
  0
VERTEX
  8
LAYER-1
 10
4.426242
 20
0.200544
 30
0.000000
  0
VERTEX
  8
LAYER-1
 10
4.429713
 20
0.204885
 30
0.000000
  0
VERTEX
  8
LAYER-1
 10
4.430581
 20
0.210092
 30
0.000000
  0
VERTEX
  8
LAYER-1
 10
4.428846
 20
0.214433
 30
0.000000
  0
VERTEX
  8
LAYER-1
 10
4.424505
 20
0.216169
 30
0.000000
  0
VERTEX
  8
LAYER-1
 10
4.420165
 20
0.216169
 30
0.000000
  0
VERTEX
  8
LAYER-1
 10
4.415824
 20
0.212697
 30
0.000000
  0
VERTEX
  8
LAYER-1
 10
4.415824
 20
0.208356
 30
0.000000
  0
VERTEX
  8
LAYER-1
 10
4.416693
 20
0.204016
 30
0.000000
  0
VERTEX
  8
LAYER-1
 10
4.421033
 20
0.201411
 30
0.000000
  0
SEQEND
  8
LAYER-1
  0
POLYLINE
  8
LAYER-1
 66
  1
 70
  1
 62
  0
 10
4.873719
 20
0.157141
 30
0.000000
  0
VERTEX
  8
LAYER-1
 10
4.873719
 20
0.157141
 30
0.000000
  0
VERTEX
  8
LAYER-1
 10
4.899760
 20
0.164085
 30
0.000000
  0
VERTEX
  8
LAYER-1
 10
4.885872
 20
0.189258
 30
0.000000
  0
SEQEND
  8
LAYER-1
  0
POLYLINE
  8
LAYER-1
 66
  1
 70
  1
 62
  0
 10
4.556014
 20
0.210092
 30
0.000000
  0
VERTEX
  8
LAYER-1
 10
4.556014
 20
0.210092
 30
0.000000
  0
VERTEX
  8
LAYER-1
 10
4.578584
 20
0.197071
 30
0.000000
  0
VERTEX
  8
LAYER-1
 10
4.557751
 20
0.227453
 30
0.000000
  0
SEQEND
  8
LAYER-1
  0
POLYLINE
  8
LAYER-1
 66
  1
 70
  1
 62
  0
 10
5.492643
 20
0.115471
 30
0.000000
  0
VERTEX
  8
LAYER-1
 10
5.492643
 20
0.115471
 30
0.000000
  0
VERTEX
  8
LAYER-1
 10
5.517818
 20
0.098978
 30
0.000000
  0
VERTEX
  8
LAYER-1
 10
5.525630
 20
0.113735
 30
0.000000
  0
SEQEND
  8
LAYER-1
  0
POLYLINE
  8
LAYER-1
 66
  1
 70
  0
 62
  0
 10
5.313825
 20
0.124153
 30
0.000000
  0
VERTEX
  8
LAYER-1
 10
5.313825
 20
0.124153
 30
0.000000
  0
VERTEX
  8
LAYER-1
 10
5.313825
 20
0.119814
 30
0.000000
  0
VERTEX
  8
LAYER-1
 10
5.318165
 20
0.116341
 30
0.000000
  0
VERTEX
  8
LAYER-1
 10
5.323373
 20
0.115473
 30
0.000000
  0
VERTEX
  8
LAYER-1
 10
5.327714
 20
0.117210
 30
0.000000
  0
VERTEX
  8
LAYER-1
 10
5.329450
 20
0.121549
 30
0.000000
  0
VERTEX
  8
LAYER-1
 10
5.329450
 20
0.125890
 30
0.000000
  0
VERTEX
  8
LAYER-1
 10
5.325978
 20
0.130230
 30
0.000000
  0
VERTEX
  8
LAYER-1
 10
5.321637
 20
0.130230
 30
0.000000
  0
VERTEX
  8
LAYER-1
 10
5.317296
 20
0.129361
 30
0.000000
  0
VERTEX
  8
LAYER-1
 10
5.314693
 20
0.125022
 30
0.000000
  0
SEQEND
  8
LAYER-1
  0
POLYLINE
  8
LAYER-1
 66
  1
 70
  1
 62
  0
 10
4.944032
 20
0.144118
 30
0.000000
  0
VERTEX
  8
LAYER-1
 10
4.944032
 20
0.144118
 30
0.000000
  0
VERTEX
  8
LAYER-1
 10
4.966602
 20
0.131098
 30
0.000000
  0
VERTEX
  8
LAYER-1
 10
4.945769
 20
0.161480
 30
0.000000
  0
SEQEND
  8
LAYER-1
  0
POLYLINE
  8
LAYER-1
 66
  1
 70
  1
 62
  0
 10
4.907040
 20
0.215133
 30
0.000000
  0
VERTEX
  8
LAYER-1
 10
4.907040
 20
0.215133
 30
0.000000
  0
VERTEX
  8
LAYER-1
 10
4.926405
 20
0.202446
 30
0.000000
  0
VERTEX
  8
LAYER-1
 10
4.932415
 20
0.213798
 30
0.000000
  0
SEQEND
  8
LAYER-1
  0
POLYLINE
  8
LAYER-1
 66
  1
 70
  0
 62
  0
 10
4.551675
 20
0.150197
 30
0.000000
  0
VERTEX
  8
LAYER-1
 10
4.551675
 20
0.150197
 30
0.000000
  0
VERTEX
  8
LAYER-1
 10
4.551675
 20
0.145858
 30
0.000000
  0
VERTEX
  8
LAYER-1
 10
4.556015
 20
0.142385
 30
0.000000
  0
VERTEX
  8
LAYER-1
 10
4.561223
 20
0.141517
 30
0.000000
  0
VERTEX
  8
LAYER-1
 10
4.565563
 20
0.143253
 30
0.000000
  0
VERTEX
  8
LAYER-1
 10
4.567299
 20
0.147593
 30
0.000000
  0
VERTEX
  8
LAYER-1
 10
4.567299
 20
0.151933
 30
0.000000
  0
VERTEX
  8
LAYER-1
 10
4.563828
 20
0.156274
 30
0.000000
  0
VERTEX
  8
LAYER-1
 10
4.559487
 20
0.156274
 30
0.000000
  0
VERTEX
  8
LAYER-1
 10
4.555146
 20
0.155406
 30
0.000000
  0
VERTEX
  8
LAYER-1
 10
4.552542
 20
0.151065
 30
0.000000
  0
SEQEND
  8
LAYER-1
  0
POLYLINE
  8
LAYER-1
 66
  1
 70
  0
 62
  0
 10
4.957920
 20
0.112002
 30
0.000000
  0
VERTEX
  8
LAYER-1
 10
4.957920
 20
0.112002
 30
0.000000
  0
VERTEX
  8
LAYER-1
 10
4.957920
 20
0.107661
 30
0.000000
  0
VERTEX
  8
LAYER-1
 10
4.962261
 20
0.104190
 30
0.000000
  0
VERTEX
  8
LAYER-1
 10
4.967469
 20
0.103321
 30
0.000000
  0
VERTEX
  8
LAYER-1
 10
4.971809
 20
0.105058
 30
0.000000
  0
VERTEX
  8
LAYER-1
 10
4.973545
 20
0.109397
 30
0.000000
  0
VERTEX
  8
LAYER-1
 10
4.973545
 20
0.113737
 30
0.000000
  0
VERTEX
  8
LAYER-1
 10
4.970074
 20
0.118078
 30
0.000000
  0
VERTEX
  8
LAYER-1
 10
4.965733
 20
0.118078
 30
0.000000
  0
VERTEX
  8
LAYER-1
 10
4.961392
 20
0.117210
 30
0.000000
  0
VERTEX
  8
LAYER-1
 10
4.958789
 20
0.112870
 30
0.000000
  0
SEQEND
  8
LAYER-1
  0
POLYLINE
  8
LAYER-1
 66
  1
 70
  0
 62
  0
 10
5.026497
 20
0.147592
 30
0.000000
  0
VERTEX
  8
LAYER-1
 10
5.026497
 20
0.147592
 30
0.000000
  0
VERTEX
  8
LAYER-1
 10
5.026497
 20
0.143252
 30
0.000000
  0
VERTEX
  8
LAYER-1
 10
5.030838
 20
0.139780
 30
0.000000
  0
VERTEX
  8
LAYER-1
 10
5.036045
 20
0.138911
 30
0.000000
  0
VERTEX
  8
LAYER-1
 10
5.040386
 20
0.140648
 30
0.000000
  0
VERTEX
  8
LAYER-1
 10
5.042123
 20
0.144987
 30
0.000000
  0
VERTEX
  8
LAYER-1
 10
5.042123
 20
0.149328
 30
0.000000
  0
VERTEX
  8
LAYER-1
 10
5.038650
 20
0.153669
 30
0.000000
  0
VERTEX
  8
LAYER-1
 10
5.034309
 20
0.153669
 30
0.000000
  0
VERTEX
  8
LAYER-1
 10
5.029969
 20
0.152800
 30
0.000000
  0
VERTEX
  8
LAYER-1
 10
5.027365
 20
0.148460
 30
0.000000
  0
SEQEND
  8
LAYER-1
  0
POLYLINE
  8
LAYER-1
 66
  1
 70
  1
 62
  0
 10
5.065909
 20
0.168860
 30
0.000000
  0
VERTEX
  8
LAYER-1
 10
5.065909
 20
0.168860
 30
0.000000
  0
VERTEX
  8
LAYER-1
 10
5.072853
 20
0.142819
 30
0.000000
  0
VERTEX
  8
LAYER-1
 10
5.098026
 20
0.156706
 30
0.000000
  0
SEQEND
  8
LAYER-1
  0
POLYLINE
  8
LAYER-1
 66
  1
 70
  1
 62
  0
 10
5.227453
 20
0.197506
 30
0.000000
  0
VERTEX
  8
LAYER-1
 10
5.227453
 20
0.197506
 30
0.000000
  0
VERTEX
  8
LAYER-1
 10
5.214433
 20
0.174936
 30
0.000000
  0
VERTEX
  8
LAYER-1
 10
5.244815
 20
0.195768
 30
0.000000
  0
SEQEND
  8
LAYER-1
  0
POLYLINE
  8
LAYER-1
 66
  1
 70
  1
 62
  0
 10
5.619814
 20
0.167988
 30
0.000000
  0
VERTEX
  8
LAYER-1
 10
5.619814
 20
0.167988
 30
0.000000
  0
VERTEX
  8
LAYER-1
 10
5.603321
 20
0.142815
 30
0.000000
  0
VERTEX
  8
LAYER-1
 10
5.618078
 20
0.135002
 30
0.000000
  0
SEQEND
  8
LAYER-1
  0
POLYLINE
  8
LAYER-1
 66
  1
 70
  0
 62
  0
 10
5.015647
 20
0.200109
 30
0.000000
  0
VERTEX
  8
LAYER-1
 10
5.015647
 20
0.200109
 30
0.000000
  0
VERTEX
  8
LAYER-1
 10
5.011306
 20
0.200109
 30
0.000000
  0
VERTEX
  8
LAYER-1
 10
5.007835
 20
0.195768
 30
0.000000
  0
VERTEX
  8
LAYER-1
 10
5.006967
 20
0.190560
 30
0.000000
  0
VERTEX
  8
LAYER-1
 10
5.008703
 20
0.186220
 30
0.000000
  0
VERTEX
  8
LAYER-1
 10
5.013043
 20
0.184484
 30
0.000000
  0
VERTEX
  8
LAYER-1
 10
5.017383
 20
0.184484
 30
0.000000
  0
VERTEX
  8
LAYER-1
 10
5.021724
 20
0.187955
 30
0.000000
  0
VERTEX
  8
LAYER-1
 10
5.021724
 20
0.192296
 30
0.000000
  0
VERTEX
  8
LAYER-1
 10
5.020856
 20
0.196637
 30
0.000000
  0
VERTEX
  8
LAYER-1
 10
5.016515
 20
0.199242
 30
0.000000
  0
SEQEND
  8
LAYER-1
  0
POLYLINE
  8
LAYER-1
 66
  1
 70
  1
 62
  0
 10
5.079017
 20
0.123721
 30
0.000000
  0
VERTEX
  8
LAYER-1
 10
5.079017
 20
0.123721
 30
0.000000
  0
VERTEX
  8
LAYER-1
 10
5.065996
 20
0.101150
 30
0.000000
  0
VERTEX
  8
LAYER-1
 10
5.096378
 20
0.121983
 30
0.000000
  0
SEQEND
  8
LAYER-1
  0
POLYLINE
  8
LAYER-1
 66
  1
 70
  1
 62
  0
 10
5.147760
 20
0.101483
 30
0.000000
  0
VERTEX
  8
LAYER-1
 10
5.147760
 20
0.101483
 30
0.000000
  0
VERTEX
  8
LAYER-1
 10
5.160447
 20
0.120846
 30
0.000000
  0
VERTEX
  8
LAYER-1
 10
5.149096
 20
0.126858
 30
0.000000
  0
SEQEND
  8
LAYER-1
  0
POLYLINE
  8
LAYER-1
 66
  1
 70
  0
 62
  0
 10
5.167558
 20
0.201845
 30
0.000000
  0
VERTEX
  8
LAYER-1
 10
5.167558
 20
0.201845
 30
0.000000
  0
VERTEX
  8
LAYER-1
 10
5.163218
 20
0.201845
 30
0.000000
  0
VERTEX
  8
LAYER-1
 10
5.159745
 20
0.197504
 30
0.000000
  0
VERTEX
  8
LAYER-1
 10
5.158877
 20
0.192296
 30
0.000000
  0
VERTEX
  8
LAYER-1
 10
5.160613
 20
0.187955
 30
0.000000
  0
VERTEX
  8
LAYER-1
 10
5.164953
 20
0.186220
 30
0.000000
  0
VERTEX
  8
LAYER-1
 10
5.169294
 20
0.186220
 30
0.000000
  0
VERTEX
  8
LAYER-1
 10
5.173634
 20
0.189691
 30
0.000000
  0
VERTEX
  8
LAYER-1
 10
5.173634
 20
0.194032
 30
0.000000
  0
VERTEX
  8
LAYER-1
 10
5.172766
 20
0.198373
 30
0.000000
  0
VERTEX
  8
LAYER-1
 10
5.168425
 20
0.200978
 30
0.000000
  0
SEQEND
  8
LAYER-1
  0
POLYLINE
  8
LAYER-1
 66
  1
 70
  0
 62
  0
 10
5.671897
 20
0.161911
 30
0.000000
  0
VERTEX
  8
LAYER-1
 10
5.671897
 20
0.161911
 30
0.000000
  0
VERTEX
  8
LAYER-1
 10
5.667556
 20
0.161911
 30
0.000000
  0
VERTEX
  8
LAYER-1
 10
5.664085
 20
0.157571
 30
0.000000
  0
VERTEX
  8
LAYER-1
 10
5.663217
 20
0.152363
 30
0.000000
  0
VERTEX
  8
LAYER-1
 10
5.664953
 20
0.148022
 30
0.000000
  0
VERTEX
  8
LAYER-1
 10
5.669293
 20
0.146286
 30
0.000000
  0
VERTEX
  8
LAYER-1
 10
5.673633
 20
0.146286
 30
0.000000
  0
VERTEX
  8
LAYER-1
 10
5.677974
 20
0.149758
 30
0.000000
  0
VERTEX
  8
LAYER-1
 10
5.677974
 20
0.154099
 30
0.000000
  0
VERTEX
  8
LAYER-1
 10
5.677106
 20
0.158440
 30
0.000000
  0
VERTEX
  8
LAYER-1
 10
5.672765
 20
0.161045
 30
0.000000
  0
SEQEND
  8
LAYER-1
  0
POLYLINE
  8
LAYER-1
 66
  1
 70
  0
 62
  0
 10
5.580752
 20
0.129793
 30
0.000000
  0
VERTEX
  8
LAYER-1
 10
5.580752
 20
0.129793
 30
0.000000
  0
VERTEX
  8
LAYER-1
 10
5.576411
 20
0.129793
 30
0.000000
  0
VERTEX
  8
LAYER-1
 10
5.572940
 20
0.125453
 30
0.000000
  0
VERTEX
  8
LAYER-1
 10
5.572071
 20
0.120245
 30
0.000000
  0
VERTEX
  8
LAYER-1
 10
5.573808
 20
0.115904
 30
0.000000
  0
VERTEX
  8
LAYER-1
 10
5.578148
 20
0.114168
 30
0.000000
  0
VERTEX
  8
LAYER-1
 10
5.582488
 20
0.114168
 30
0.000000
  0
VERTEX
  8
LAYER-1
 10
5.586828
 20
0.117640
 30
0.000000
  0
VERTEX
  8
LAYER-1
 10
5.586828
 20
0.121980
 30
0.000000
  0
VERTEX
  8
LAYER-1
 10
5.585961
 20
0.126322
 30
0.000000
  0
VERTEX
  8
LAYER-1
 10
5.581620
 20
0.128927
 30
0.000000
  0
SEQEND
  8
LAYER-1
  0
POLYLINE
  8
LAYER-1
 66
  1
 70
  1
 62
  0
 10
5.265648
 20
0.184052
 30
0.000000
  0
VERTEX
  8
LAYER-1
 10
5.265648
 20
0.184052
 30
0.000000
  0
VERTEX
  8
LAYER-1
 10
5.291689
 20
0.190996
 30
0.000000
  0
VERTEX
  8
LAYER-1
 10
5.277802
 20
0.216169
 30
0.000000
  0
SEQEND
  8
LAYER-1
  0
POLYLINE
  8
LAYER-1
 66
  1
 70
  0
 62
  0
 10
5.234398
 20
0.134572
 30
0.000000
  0
VERTEX
  8
LAYER-1
 10
5.234398
 20
0.134572
 30
0.000000
  0
VERTEX
  8
LAYER-1
 10
5.234398
 20
0.130233
 30
0.000000
  0
VERTEX
  8
LAYER-1
 10
5.238739
 20
0.126760
 30
0.000000
  0
VERTEX
  8
LAYER-1
 10
5.243946
 20
0.125893
 30
0.000000
  0
VERTEX
  8
LAYER-1
 10
5.248287
 20
0.127629
 30
0.000000
  0
VERTEX
  8
LAYER-1
 10
5.250023
 20
0.131968
 30
0.000000
  0
VERTEX
  8
LAYER-1
 10
5.250023
 20
0.136309
 30
0.000000
  0
VERTEX
  8
LAYER-1
 10
5.246552
 20
0.140649
 30
0.000000
  0
VERTEX
  8
LAYER-1
 10
5.242211
 20
0.140649
 30
0.000000
  0
VERTEX
  8
LAYER-1
 10
5.237870
 20
0.139781
 30
0.000000
  0
VERTEX
  8
LAYER-1
 10
5.235265
 20
0.135441
 30
0.000000
  0
SEQEND
  8
LAYER-1
  0
POLYLINE
  8
LAYER-1
 66
  1
 70
  1
 62
  0
 10
5.329450
 20
0.148027
 30
0.000000
  0
VERTEX
  8
LAYER-1
 10
5.329450
 20
0.148027
 30
0.000000
  0
VERTEX
  8
LAYER-1
 10
5.342471
 20
0.170598
 30
0.000000
  0
VERTEX
  8
LAYER-1
 10
5.312090
 20
0.149765
 30
0.000000
  0
SEQEND
  8
LAYER-1
  0
POLYLINE
  8
LAYER-1
 66
  1
 70
  0
 62
  0
 10
5.384571
 20
0.182315
 30
0.000000
  0
VERTEX
  8
LAYER-1
 10
5.384571
 20
0.182315
 30
0.000000
  0
VERTEX
  8
LAYER-1
 10
5.384571
 20
0.177975
 30
0.000000
  0
VERTEX
  8
LAYER-1
 10
5.388912
 20
0.174504
 30
0.000000
  0
VERTEX
  8
LAYER-1
 10
5.394120
 20
0.173635
 30
0.000000
  0
VERTEX
  8
LAYER-1
 10
5.398461
 20
0.175372
 30
0.000000
  0
VERTEX
  8
LAYER-1
 10
5.400196
 20
0.179711
 30
0.000000
  0
VERTEX
  8
LAYER-1
 10
5.400196
 20
0.184052
 30
0.000000
  0
VERTEX
  8
LAYER-1
 10
5.396725
 20
0.188392
 30
0.000000
  0
VERTEX
  8
LAYER-1
 10
5.392384
 20
0.188392
 30
0.000000
  0
VERTEX
  8
LAYER-1
 10
5.388043
 20
0.187523
 30
0.000000
  0
VERTEX
  8
LAYER-1
 10
5.385439
 20
0.183183
 30
0.000000
  0
SEQEND
  8
LAYER-1
  0
POLYLINE
  8
LAYER-1
 66
  1
 70
  1
 62
  0
 10
6.130494
 20
0.198719
 30
0.000000
  0
VERTEX
  8
LAYER-1
 10
6.130494
 20
0.198719
 30
0.000000
  0
VERTEX
  8
LAYER-1
 10
6.123550
 20
0.224761
 30
0.000000
  0
VERTEX
  8
LAYER-1
 10
6.098376
 20
0.210873
 30
0.000000
  0
SEQEND
  8
LAYER-1
  0
POLYLINE
  8
LAYER-1
 66
  1
 70
  0
 62
  0
 10
6.171033
 20
0.072505
 30
0.000000
  0
VERTEX
  8
LAYER-1
 10
6.171033
 20
0.072505
 30
0.000000
  0
VERTEX
  8
LAYER-1
 10
6.175373
 20
0.072505
 30
0.000000
  0
VERTEX
  8
LAYER-1
 10
6.178846
 20
0.076846
 30
0.000000
  0
VERTEX
  8
LAYER-1
 10
6.179713
 20
0.082053
 30
0.000000
  0
VERTEX
  8
LAYER-1
 10
6.177977
 20
0.086394
 30
0.000000
  0
VERTEX
  8
LAYER-1
 10
6.173637
 20
0.088130
 30
0.000000
  0
VERTEX
  8
LAYER-1
 10
6.169296
 20
0.088130
 30
0.000000
  0
VERTEX
  8
LAYER-1
 10
6.164956
 20
0.084658
 30
0.000000
  0
VERTEX
  8
LAYER-1
 10
6.164956
 20
0.080317
 30
0.000000
  0
VERTEX
  8
LAYER-1
 10
6.165824
 20
0.075977
 30
0.000000
  0
VERTEX
  8
LAYER-1
 10
6.170164
 20
0.073373
 30
0.000000
  0
SEQEND
  8
LAYER-1
  0
POLYLINE
  8
LAYER-1
 66
  1
 70
  1
 62
  0
 10
5.467470
 20
0.105492
 30
0.000000
  0
VERTEX
  8
LAYER-1
 10
5.467470
 20
0.105492
 30
0.000000
  0
VERTEX
  8
LAYER-1
 10
5.480490
 20
0.128061
 30
0.000000
  0
VERTEX
  8
LAYER-1
 10
5.450109
 20
0.107229
 30
0.000000
  0
SEQEND
  8
LAYER-1
  0
POLYLINE
  8
LAYER-1
 66
  1
 70
  0
 62
  0
 10
5.511222
 20
0.183824
 30
0.000000
  0
VERTEX
  8
LAYER-1
 10
5.511222
 20
0.183824
 30
0.000000
  0
VERTEX
  8
LAYER-1
 10
5.515563
 20
0.183824
 30
0.000000
  0
VERTEX
  8
LAYER-1
 10
5.519034
 20
0.188165
 30
0.000000
  0
VERTEX
  8
LAYER-1
 10
5.519903
 20
0.193373
 30
0.000000
  0
VERTEX
  8
LAYER-1
 10
5.518166
 20
0.197713
 30
0.000000
  0
VERTEX
  8
LAYER-1
 10
5.513827
 20
0.199449
 30
0.000000
  0
VERTEX
  8
LAYER-1
 10
5.509486
 20
0.199449
 30
0.000000
  0
VERTEX
  8
LAYER-1
 10
5.505145
 20
0.195977
 30
0.000000
  0
VERTEX
  8
LAYER-1
 10
5.505145
 20
0.191637
 30
0.000000
  0
VERTEX
  8
LAYER-1
 10
5.506014
 20
0.187296
 30
0.000000
  0
VERTEX
  8
LAYER-1
 10
5.510354
 20
0.184692
 30
0.000000
  0
SEQEND
  8
LAYER-1
  0
POLYLINE
  8
LAYER-1
 66
  1
 70
  1
 62
  0
 10
6.050808
 20
0.114608
 30
0.000000
  0
VERTEX
  8
LAYER-1
 10
6.050808
 20
0.114608
 30
0.000000
  0
VERTEX
  8
LAYER-1
 10
6.024767
 20
0.107662
 30
0.000000
  0
VERTEX
  8
LAYER-1
 10
6.038655
 20
0.082489
 30
0.000000
  0
SEQEND
  8
LAYER-1
  0
POLYLINE
  8
LAYER-1
 66
  1
 70
  0
 62
  0
 10
5.415821
 20
0.129366
 30
0.000000
  0
VERTEX
  8
LAYER-1
 10
5.415821
 20
0.129366
 30
0.000000
  0
VERTEX
  8
LAYER-1
 10
5.415821
 20
0.133704
 30
0.000000
  0
VERTEX
  8
LAYER-1
 10
5.411481
 20
0.137178
 30
0.000000
  0
VERTEX
  8
LAYER-1
 10
5.406273
 20
0.138045
 30
0.000000
  0
VERTEX
  8
LAYER-1
 10
5.401933
 20
0.136309
 30
0.000000
  0
VERTEX
  8
LAYER-1
 10
5.400196
 20
0.131968
 30
0.000000
  0
VERTEX
  8
LAYER-1
 10
5.400196
 20
0.127628
 30
0.000000
  0
VERTEX
  8
LAYER-1
 10
5.403668
 20
0.123289
 30
0.000000
  0
VERTEX
  8
LAYER-1
 10
5.408009
 20
0.123289
 30
0.000000
  0
VERTEX
  8
LAYER-1
 10
5.412350
 20
0.124156
 30
0.000000
  0
VERTEX
  8
LAYER-1
 10
5.414953
 20
0.128497
 30
0.000000
  0
SEQEND
  8
LAYER-1
  0
POLYLINE
  8
LAYER-1
 66
  1
 70
  1
 62
  0
 10
5.999593
 20
0.104191
 30
0.000000
  0
VERTEX
  8
LAYER-1
 10
5.999593
 20
0.104191
 30
0.000000
  0
VERTEX
  8
LAYER-1
 10
5.971814
 20
0.120683
 30
0.000000
  0
VERTEX
  8
LAYER-1
 10
5.992647
 20
0.090302
 30
0.000000
  0
SEQEND
  8
LAYER-1
  0
POLYLINE
  8
LAYER-1
 66
  1
 70
  0
 62
  0
 10
5.710092
 20
0.185783
 30
0.000000
  0
VERTEX
  8
LAYER-1
 10
5.710092
 20
0.185783
 30
0.000000
  0
VERTEX
  8
LAYER-1
 10
5.710092
 20
0.190124
 30
0.000000
  0
VERTEX
  8
LAYER-1
 10
5.705751
 20
0.193596
 30
0.000000
  0
VERTEX
  8
LAYER-1
 10
5.700543
 20
0.194465
 30
0.000000
  0
VERTEX
  8
LAYER-1
 10
5.696203
 20
0.192727
 30
0.000000
  0
VERTEX
  8
LAYER-1
 10
5.694467
 20
0.188388
 30
0.000000
  0
VERTEX
  8
LAYER-1
 10
5.694467
 20
0.184047
 30
0.000000
  0
VERTEX
  8
LAYER-1
 10
5.697939
 20
0.179708
 30
0.000000
  0
VERTEX
  8
LAYER-1
 10
5.702279
 20
0.179708
 30
0.000000
  0
VERTEX
  8
LAYER-1
 10
5.706620
 20
0.180576
 30
0.000000
  0
VERTEX
  8
LAYER-1
 10
5.709224
 20
0.184914
 30
0.000000
  0
SEQEND
  8
LAYER-1
  0
POLYLINE
  8
LAYER-1
 66
  1
 70
  1
 62
  0
 10
6.280755
 20
0.092299
 30
0.000000
  0
VERTEX
  8
LAYER-1
 10
6.280755
 20
0.092299
 30
0.000000
  0
VERTEX
  8
LAYER-1
 10
6.273810
 20
0.118340
 30
0.000000
  0
VERTEX
  8
LAYER-1
 10
6.248636
 20
0.104451
 30
0.000000
  0
SEQEND
  8
LAYER-1
  0
POLYLINE
  8
LAYER-1
 66
  1
 70
  0
 62
  0
 10
6.370600
 20
0.192557
 30
0.000000
  0
VERTEX
  8
LAYER-1
 10
6.370600
 20
0.192557
 30
0.000000
  0
VERTEX
  8
LAYER-1
 10
6.374941
 20
0.192557
 30
0.000000
  0
VERTEX
  8
LAYER-1
 10
6.378412
 20
0.196899
 30
0.000000
  0
VERTEX
  8
LAYER-1
 10
6.379279
 20
0.202106
 30
0.000000
  0
VERTEX
  8
LAYER-1
 10
6.377544
 20
0.206446
 30
0.000000
  0
VERTEX
  8
LAYER-1
 10
6.373205
 20
0.208182
 30
0.000000
  0
VERTEX
  8
LAYER-1
 10
6.368864
 20
0.208182
 30
0.000000
  0
VERTEX
  8
LAYER-1
 10
6.364523
 20
0.204711
 30
0.000000
  0
VERTEX
  8
LAYER-1
 10
6.364523
 20
0.200370
 30
0.000000
  0
VERTEX
  8
LAYER-1
 10
6.365392
 20
0.196030
 30
0.000000
  0
VERTEX
  8
LAYER-1
 10
6.369731
 20
0.193425
 30
0.000000
  0
SEQEND
  8
LAYER-1
  0
POLYLINE
  8
LAYER-1
 66
  1
 70
  1
 62
  0
 10
6.355842
 20
0.227714
 30
0.000000
  0
VERTEX
  8
LAYER-1
 10
6.355842
 20
0.227714
 30
0.000000
  0
VERTEX
  8
LAYER-1
 10
6.329800
 20
0.220769
 30
0.000000
  0
VERTEX
  8
LAYER-1
 10
6.343689
 20
0.195596
 30
0.000000
  0
SEQEND
  8
LAYER-1
  0
POLYLINE
  8
LAYER-1
 66
  1
 70
  1
 62
  0
 10
5.604623
 20
0.086398
 30
0.000000
  0
VERTEX
  8
LAYER-1
 10
5.604623
 20
0.086398
 30
0.000000
  0
VERTEX
  8
LAYER-1
 10
5.617643
 20
0.108967
 30
0.000000
  0
VERTEX
  8
LAYER-1
 10
5.587262
 20
0.088135
 30
0.000000
  0
SEQEND
  8
LAYER-1
  0
POLYLINE
  8
LAYER-1
 66
  1
 70
  0
 62
  0
 10
5.601150
 20
0.193166
 30
0.000000
  0
VERTEX
  8
LAYER-1
 10
5.601150
 20
0.193166
 30
0.000000
  0
VERTEX
  8
LAYER-1
 10
5.605491
 20
0.193166
 30
0.000000
  0
VERTEX
  8
LAYER-1
 10
5.608963
 20
0.197506
 30
0.000000
  0
VERTEX
  8
LAYER-1
 10
5.609831
 20
0.202715
 30
0.000000
  0
VERTEX
  8
LAYER-1
 10
5.608096
 20
0.207055
 30
0.000000
  0
VERTEX
  8
LAYER-1
 10
5.603755
 20
0.208791
 30
0.000000
  0
VERTEX
  8
LAYER-1
 10
5.599414
 20
0.208791
 30
0.000000
  0
VERTEX
  8
LAYER-1
 10
5.595074
 20
0.205319
 30
0.000000
  0
VERTEX
  8
LAYER-1
 10
5.595074
 20
0.200979
 30
0.000000
  0
VERTEX
  8
LAYER-1
 10
5.595943
 20
0.196637
 30
0.000000
  0
VERTEX
  8
LAYER-1
 10
5.600283
 20
0.194034
 30
0.000000
  0
SEQEND
  8
LAYER-1
  0
POLYLINE
  8
LAYER-1
 66
  1
 70
  1
 62
  0
 10
5.553841
 20
0.171898
 30
0.000000
  0
VERTEX
  8
LAYER-1
 10
5.553841
 20
0.171898
 30
0.000000
  0
VERTEX
  8
LAYER-1
 10
5.579016
 20
0.155405
 30
0.000000
  0
VERTEX
  8
LAYER-1
 10
5.586828
 20
0.170162
 30
0.000000
  0
SEQEND
  8
LAYER-1
  0
POLYLINE
  8
LAYER-1
 66
  1
 70
  1
 62
  0
 10
5.540488
 20
0.144286
 30
0.000000
  0
VERTEX
  8
LAYER-1
 10
5.540488
 20
0.144286
 30
0.000000
  0
VERTEX
  8
LAYER-1
 10
5.521124
 20
0.156974
 30
0.000000
  0
VERTEX
  8
LAYER-1
 10
5.515113
 20
0.145622
 30
0.000000
  0
SEQEND
  8
LAYER-1
  0
POLYLINE
  8
LAYER-1
 66
  1
 70
  1
 62
  0
 10
1.317733
 20
0.203147
 30
0.000000
  0
VERTEX
  8
LAYER-1
 10
1.317733
 20
0.203147
 30
0.000000
  0
VERTEX
  8
LAYER-1
 10
1.304712
 20
0.180578
 30
0.000000
  0
VERTEX
  8
LAYER-1
 10
1.335094
 20
0.201410
 30
0.000000
  0
SEQEND
  8
LAYER-1
  0
POLYLINE
  8
LAYER-1
 66
  1
 70
  1
 62
  0
 10
5.867213
 20
0.130234
 30
0.000000
  0
VERTEX
  8
LAYER-1
 10
5.867213
 20
0.130234
 30
0.000000
  0
VERTEX
  8
LAYER-1
 10
5.889782
 20
0.117212
 30
0.000000
  0
VERTEX
  8
LAYER-1
 10
5.868949
 20
0.147594
 30
0.000000
  0
SEQEND
  8
LAYER-1
  0
POLYLINE
  8
LAYER-1
 66
  1
 70
  0
 62
  0
 10
5.795164
 20
0.177105
 30
0.000000
  0
VERTEX
  8
LAYER-1
 10
5.795164
 20
0.177105
 30
0.000000
  0
VERTEX
  8
LAYER-1
 10
5.795164
 20
0.172765
 30
0.000000
  0
VERTEX
  8
LAYER-1
 10
5.799505
 20
0.169293
 30
0.000000
  0
VERTEX
  8
LAYER-1
 10
5.804713
 20
0.168425
 30
0.000000
  0
VERTEX
  8
LAYER-1
 10
5.809053
 20
0.170161
 30
0.000000
  0
VERTEX
  8
LAYER-1
 10
5.810789
 20
0.174502
 30
0.000000
  0
VERTEX
  8
LAYER-1
 10
5.810789
 20
0.178841
 30
0.000000
  0
VERTEX
  8
LAYER-1
 10
5.807318
 20
0.183181
 30
0.000000
  0
VERTEX
  8
LAYER-1
 10
5.802977
 20
0.183181
 30
0.000000
  0
VERTEX
  8
LAYER-1
 10
5.798636
 20
0.182314
 30
0.000000
  0
VERTEX
  8
LAYER-1
 10
5.796032
 20
0.177973
 30
0.000000
  0
SEQEND
  8
LAYER-1
  0
POLYLINE
  8
LAYER-1
 66
  1
 70
  1
 62
  0
 10
5.744817
 20
0.188391
 30
0.000000
  0
VERTEX
  8
LAYER-1
 10
5.744817
 20
0.188391
 30
0.000000
  0
VERTEX
  8
LAYER-1
 10
5.767386
 20
0.175371
 30
0.000000
  0
VERTEX
  8
LAYER-1
 10
5.746553
 20
0.205752
 30
0.000000
  0
SEQEND
  8
LAYER-1
  0
POLYLINE
  8
LAYER-1
 66
  1
 70
  0
 62
  0
 10
6.006970
 20
0.130234
 30
0.000000
  0
VERTEX
  8
LAYER-1
 10
6.006970
 20
0.130234
 30
0.000000
  0
VERTEX
  8
LAYER-1
 10
6.006970
 20
0.125893
 30
0.000000
  0
VERTEX
  8
LAYER-1
 10
6.011311
 20
0.122421
 30
0.000000
  0
VERTEX
  8
LAYER-1
 10
6.016518
 20
0.121553
 30
0.000000
  0
VERTEX
  8
LAYER-1
 10
6.020859
 20
0.123289
 30
0.000000
  0
VERTEX
  8
LAYER-1
 10
6.022595
 20
0.127629
 30
0.000000
  0
VERTEX
  8
LAYER-1
 10
6.022595
 20
0.131969
 30
0.000000
  0
VERTEX
  8
LAYER-1
 10
6.019123
 20
0.136310
 30
0.000000
  0
VERTEX
  8
LAYER-1
 10
6.014782
 20
0.136310
 30
0.000000
  0
VERTEX
  8
LAYER-1
 10
6.010442
 20
0.135441
 30
0.000000
  0
VERTEX
  8
LAYER-1
 10
6.007838
 20
0.131102
 30
0.000000
  0
SEQEND
  8
LAYER-1
  0
POLYLINE
  8
LAYER-1
 66
  1
 70
  0
 62
  0
 10
5.841171
 20
0.184920
 30
0.000000
  0
VERTEX
  8
LAYER-1
 10
5.841171
 20
0.184920
 30
0.000000
  0
VERTEX
  8
LAYER-1
 10
5.841171
 20
0.180579
 30
0.000000
  0
VERTEX
  8
LAYER-1
 10
5.845512
 20
0.177109
 30
0.000000
  0
VERTEX
  8
LAYER-1
 10
5.850720
 20
0.176241
 30
0.000000
  0
VERTEX
  8
LAYER-1
 10
5.855061
 20
0.177977
 30
0.000000
  0
VERTEX
  8
LAYER-1
 10
5.856796
 20
0.182315
 30
0.000000
  0
VERTEX
  8
LAYER-1
 10
5.856796
 20
0.186656
 30
0.000000
  0
VERTEX
  8
LAYER-1
 10
5.853324
 20
0.190997
 30
0.000000
  0
VERTEX
  8
LAYER-1
 10
5.848984
 20
0.190997
 30
0.000000
  0
VERTEX
  8
LAYER-1
 10
5.844643
 20
0.190128
 30
0.000000
  0
VERTEX
  8
LAYER-1
 10
5.842038
 20
0.185788
 30
0.000000
  0
SEQEND
  8
LAYER-1
  0
POLYLINE
  8
LAYER-1
 66
  1
 70
  1
 62
  0
 10
5.765651
 20
0.120250
 30
0.000000
  0
VERTEX
  8
LAYER-1
 10
5.765651
 20
0.120250
 30
0.000000
  0
VERTEX
  8
LAYER-1
 10
5.752630
 20
0.097680
 30
0.000000
  0
VERTEX
  8
LAYER-1
 10
5.783012
 20
0.118512
 30
0.000000
  0
SEQEND
  8
LAYER-1
  0
POLYLINE
  8
LAYER-1
 66
  1
 70
  0
 62
  0
 10
5.691950
 20
0.112385
 30
0.000000
  0
VERTEX
  8
LAYER-1
 10
5.691950
 20
0.112385
 30
0.000000
  0
VERTEX
  8
LAYER-1
 10
5.687611
 20
0.112385
 30
0.000000
  0
VERTEX
  8
LAYER-1
 10
5.684138
 20
0.108045
 30
0.000000
  0
VERTEX
  8
LAYER-1
 10
5.683270
 20
0.102837
 30
0.000000
  0
VERTEX
  8
LAYER-1
 10
5.685006
 20
0.098496
 30
0.000000
  0
VERTEX
  8
LAYER-1
 10
5.689347
 20
0.096760
 30
0.000000
  0
VERTEX
  8
LAYER-1
 10
5.693687
 20
0.096760
 30
0.000000
  0
VERTEX
  8
LAYER-1
 10
5.698027
 20
0.100232
 30
0.000000
  0
VERTEX
  8
LAYER-1
 10
5.698027
 20
0.104573
 30
0.000000
  0
VERTEX
  8
LAYER-1
 10
5.697159
 20
0.108914
 30
0.000000
  0
VERTEX
  8
LAYER-1
 10
5.692819
 20
0.111518
 30
0.000000
  0
SEQEND
  8
LAYER-1
  0
POLYLINE
  8
LAYER-1
 66
  1
 70
  0
 62
  0
 10
5.765651
 20
0.150631
 30
0.000000
  0
VERTEX
  8
LAYER-1
 10
5.765651
 20
0.150631
 30
0.000000
  0
VERTEX
  8
LAYER-1
 10
5.761311
 20
0.150631
 30
0.000000
  0
VERTEX
  8
LAYER-1
 10
5.757839
 20
0.146290
 30
0.000000
  0
VERTEX
  8
LAYER-1
 10
5.756971
 20
0.141083
 30
0.000000
  0
VERTEX
  8
LAYER-1
 10
5.758706
 20
0.136742
 30
0.000000
  0
VERTEX
  8
LAYER-1
 10
5.763047
 20
0.135006
 30
0.000000
  0
VERTEX
  8
LAYER-1
 10
5.767387
 20
0.135006
 30
0.000000
  0
VERTEX
  8
LAYER-1
 10
5.771728
 20
0.138478
 30
0.000000
  0
VERTEX
  8
LAYER-1
 10
5.771728
 20
0.142818
 30
0.000000
  0
VERTEX
  8
LAYER-1
 10
5.770860
 20
0.147159
 30
0.000000
  0
VERTEX
  8
LAYER-1
 10
5.766519
 20
0.149764
 30
0.000000
  0
SEQEND
  8
LAYER-1
  0
POLYLINE
  8
LAYER-1
 66
  1
 70
  1
 62
  0
 10
6.072943
 20
0.167124
 30
0.000000
  0
VERTEX
  8
LAYER-1
 10
6.072943
 20
0.167124
 30
0.000000
  0
VERTEX
  8
LAYER-1
 10
6.079887
 20
0.141084
 30
0.000000
  0
VERTEX
  8
LAYER-1
 10
6.105061
 20
0.154972
 30
0.000000
  0
SEQEND
  8
LAYER-1
  0
POLYLINE
  8
LAYER-1
 66
  1
 70
  1
 62
  0
 10
6.235268
 20
0.195770
 30
0.000000
  0
VERTEX
  8
LAYER-1
 10
6.235268
 20
0.195770
 30
0.000000
  0
VERTEX
  8
LAYER-1
 10
6.222247
 20
0.173202
 30
0.000000
  0
VERTEX
  8
LAYER-1
 10
6.252629
 20
0.194033
 30
0.000000
  0
SEQEND
  8
LAYER-1
  0
POLYLINE
  8
LAYER-1
 66
  1
 70
  0
 62
  0
 10
6.023464
 20
0.198374
 30
0.000000
  0
VERTEX
  8
LAYER-1
 10
6.023464
 20
0.198374
 30
0.000000
  0
VERTEX
  8
LAYER-1
 10
6.019123
 20
0.198374
 30
0.000000
  0
VERTEX
  8
LAYER-1
 10
6.015651
 20
0.194033
 30
0.000000
  0
VERTEX
  8
LAYER-1
 10
6.014782
 20
0.188825
 30
0.000000
  0
VERTEX
  8
LAYER-1
 10
6.016519
 20
0.184485
 30
0.000000
  0
VERTEX
  8
LAYER-1
 10
6.020859
 20
0.182749
 30
0.000000
  0
VERTEX
  8
LAYER-1
 10
6.025199
 20
0.182749
 30
0.000000
  0
VERTEX
  8
LAYER-1
 10
6.029540
 20
0.186221
 30
0.000000
  0
VERTEX
  8
LAYER-1
 10
6.029540
 20
0.190561
 30
0.000000
  0
VERTEX
  8
LAYER-1
 10
6.028671
 20
0.194902
 30
0.000000
  0
VERTEX
  8
LAYER-1
 10
6.024331
 20
0.197506
 30
0.000000
  0
SEQEND
  8
LAYER-1
  0
POLYLINE
  8
LAYER-1
 66
  1
 70
  1
 62
  0
 10
6.133708
 20
0.130666
 30
0.000000
  0
VERTEX
  8
LAYER-1
 10
6.133708
 20
0.130666
 30
0.000000
  0
VERTEX
  8
LAYER-1
 10
6.120687
 20
0.108097
 30
0.000000
  0
VERTEX
  8
LAYER-1
 10
6.151068
 20
0.128929
 30
0.000000
  0
SEQEND
  8
LAYER-1
  0
POLYLINE
  8
LAYER-1
 66
  1
 70
  0
 62
  0
 10
6.175372
 20
0.200110
 30
0.000000
  0
VERTEX
  8
LAYER-1
 10
6.175372
 20
0.200110
 30
0.000000
  0
VERTEX
  8
LAYER-1
 10
6.171031
 20
0.200110
 30
0.000000
  0
VERTEX
  8
LAYER-1
 10
6.167559
 20
0.195769
 30
0.000000
  0
VERTEX
  8
LAYER-1
 10
6.166692
 20
0.190561
 30
0.000000
  0
VERTEX
  8
LAYER-1
 10
6.168427
 20
0.186221
 30
0.000000
  0
VERTEX
  8
LAYER-1
 10
6.172768
 20
0.184485
 30
0.000000
  0
VERTEX
  8
LAYER-1
 10
6.177108
 20
0.184485
 30
0.000000
  0
VERTEX
  8
LAYER-1
 10
6.181449
 20
0.187956
 30
0.000000
  0
VERTEX
  8
LAYER-1
 10
6.181449
 20
0.192297
 30
0.000000
  0
VERTEX
  8
LAYER-1
 10
6.180581
 20
0.196637
 30
0.000000
  0
VERTEX
  8
LAYER-1
 10
6.176240
 20
0.199242
 30
0.000000
  0
SEQEND
  8
LAYER-1
  0
POLYLINE
  8
LAYER-1
 66
  1
 70
  1
 62
  0
 10
6.514781
 20
0.191429
 30
0.000000
  0
VERTEX
  8
LAYER-1
 10
6.514781
 20
0.191429
 30
0.000000
  0
VERTEX
  8
LAYER-1
 10
6.521726
 20
0.165390
 30
0.000000
  0
VERTEX
  8
LAYER-1
 10
6.546899
 20
0.179277
 30
0.000000
  0
SEQEND
  8
LAYER-1
  0
POLYLINE
  8
LAYER-1
 66
  1
 70
  1
 62
  0
 10
6.677107
 20
0.220077
 30
0.000000
  0
VERTEX
  8
LAYER-1
 10
6.677107
 20
0.220077
 30
0.000000
  0
VERTEX
  8
LAYER-1
 10
6.664087
 20
0.197506
 30
0.000000
  0
VERTEX
  8
LAYER-1
 10
6.694469
 20
0.218339
 30
0.000000
  0
SEQEND
  8
LAYER-1
  0
POLYLINE
  8
LAYER-1
 66
  1
 70
  1
 62
  0
 10
5.905408
 20
0.155841
 30
0.000000
  0
VERTEX
  8
LAYER-1
 10
5.905408
 20
0.155841
 30
0.000000
  0
VERTEX
  8
LAYER-1
 10
5.930581
 20
0.139347
 30
0.000000
  0
VERTEX
  8
LAYER-1
 10
5.938394
 20
0.154104
 30
0.000000
  0
SEQEND
  8
LAYER-1
  0
POLYLINE
  8
LAYER-1
 66
  1
 70
  0
 62
  0
 10
6.475719
 20
0.212264
 30
0.000000
  0
VERTEX
  8
LAYER-1
 10
6.475719
 20
0.212264
 30
0.000000
  0
VERTEX
  8
LAYER-1
 10
6.471378
 20
0.212264
 30
0.000000
  0
VERTEX
  8
LAYER-1
 10
6.467906
 20
0.207923
 30
0.000000
  0
VERTEX
  8
LAYER-1
 10
6.467038
 20
0.202716
 30
0.000000
  0
VERTEX
  8
LAYER-1
 10
6.468774
 20
0.198374
 30
0.000000
  0
VERTEX
  8
LAYER-1
 10
6.473115
 20
0.196639
 30
0.000000
  0
VERTEX
  8
LAYER-1
 10
6.477455
 20
0.196639
 30
0.000000
  0
VERTEX
  8
LAYER-1
 10
6.481795
 20
0.200111
 30
0.000000
  0
VERTEX
  8
LAYER-1
 10
6.481795
 20
0.204452
 30
0.000000
  0
VERTEX
  8
LAYER-1
 10
6.480927
 20
0.208792
 30
0.000000
  0
VERTEX
  8
LAYER-1
 10
6.476587
 20
0.211397
 30
0.000000
  0
SEQEND
  8
LAYER-1
  0
POLYLINE
  8
LAYER-1
 66
  1
 70
  1
 62
  0
 10
6.491345
 20
0.123723
 30
0.000000
  0
VERTEX
  8
LAYER-1
 10
6.491345
 20
0.123723
 30
0.000000
  0
VERTEX
  8
LAYER-1
 10
6.478324
 20
0.101152
 30
0.000000
  0
VERTEX
  8
LAYER-1
 10
6.508706
 20
0.121985
 30
0.000000
  0
SEQEND
  8
LAYER-1
  0
POLYLINE
  8
LAYER-1
 66
  1
 70
  1
 62
  0
 10
6.585796
 20
0.138140
 30
0.000000
  0
VERTEX
  8
LAYER-1
 10
6.585796
 20
0.138140
 30
0.000000
  0
VERTEX
  8
LAYER-1
 10
6.573109
 20
0.118776
 30
0.000000
  0
VERTEX
  8
LAYER-1
 10
6.584460
 20
0.112765
 30
0.000000
  0
SEQEND
  8
LAYER-1
  0
POLYLINE
  8
LAYER-1
 66
  1
 70
  0
 62
  0
 10
6.617212
 20
0.216604
 30
0.000000
  0
VERTEX
  8
LAYER-1
 10
6.617212
 20
0.216604
 30
0.000000
  0
VERTEX
  8
LAYER-1
 10
6.612872
 20
0.216604
 30
0.000000
  0
VERTEX
  8
LAYER-1
 10
6.609399
 20
0.212262
 30
0.000000
  0
VERTEX
  8
LAYER-1
 10
6.608531
 20
0.207055
 30
0.000000
  0
VERTEX
  8
LAYER-1
 10
6.610267
 20
0.202715
 30
0.000000
  0
VERTEX
  8
LAYER-1
 10
6.614608
 20
0.200979
 30
0.000000
  0
VERTEX
  8
LAYER-1
 10
6.618949
 20
0.200979
 30
0.000000
  0
VERTEX
  8
LAYER-1
 10
6.623288
 20
0.204450
 30
0.000000
  0
VERTEX
  8
LAYER-1
 10
6.623288
 20
0.208791
 30
0.000000
  0
VERTEX
  8
LAYER-1
 10
6.622420
 20
0.213131
 30
0.000000
  0
VERTEX
  8
LAYER-1
 10
6.618080
 20
0.215736
 30
0.000000
  0
SEQEND
  8
LAYER-1
  0
POLYLINE
  8
LAYER-1
 66
  1
 70
  0
 62
  0
 10
5.894124
 20
0.208791
 30
0.000000
  0
VERTEX
  8
LAYER-1
 10
5.894124
 20
0.208791
 30
0.000000
  0
VERTEX
  8
LAYER-1
 10
5.894124
 20
0.204450
 30
0.000000
  0
VERTEX
  8
LAYER-1
 10
5.898465
 20
0.200979
 30
0.000000
  0
VERTEX
  8
LAYER-1
 10
5.903672
 20
0.200110
 30
0.000000
  0
VERTEX
  8
LAYER-1
 10
5.908013
 20
0.201846
 30
0.000000
  0
VERTEX
  8
LAYER-1
 10
5.909749
 20
0.206186
 30
0.000000
  0
VERTEX
  8
LAYER-1
 10
5.909749
 20
0.210527
 30
0.000000
  0
VERTEX
  8
LAYER-1
 10
5.906277
 20
0.214867
 30
0.000000
  0
VERTEX
  8
LAYER-1
 10
5.901936
 20
0.214867
 30
0.000000
  0
VERTEX
  8
LAYER-1
 10
5.897596
 20
0.213999
 30
0.000000
  0
VERTEX
  8
LAYER-1
 10
5.894991
 20
0.209658
 30
0.000000
  0
SEQEND
  8
LAYER-1
  0
POLYLINE
  8
LAYER-1
 66
  1
 70
  0
 62
  0
 10
6.457489
 20
0.124589
 30
0.000000
  0
VERTEX
  8
LAYER-1
 10
6.457489
 20
0.124589
 30
0.000000
  0
VERTEX
  8
LAYER-1
 10
6.453148
 20
0.124589
 30
0.000000
  0
VERTEX
  8
LAYER-1
 10
6.449677
 20
0.120248
 30
0.000000
  0
VERTEX
  8
LAYER-1
 10
6.448808
 20
0.115040
 30
0.000000
  0
VERTEX
  8
LAYER-1
 10
6.450545
 20
0.110699
 30
0.000000
  0
VERTEX
  8
LAYER-1
 10
6.454885
 20
0.108964
 30
0.000000
  0
VERTEX
  8
LAYER-1
 10
6.459225
 20
0.108964
 30
0.000000
  0
VERTEX
  8
LAYER-1
 10
6.463565
 20
0.112435
 30
0.000000
  0
VERTEX
  8
LAYER-1
 10
6.463565
 20
0.116776
 30
0.000000
  0
VERTEX
  8
LAYER-1
 10
6.462698
 20
0.121117
 30
0.000000
  0
VERTEX
  8
LAYER-1
 10
6.458357
 20
0.123722
 30
0.000000
  0
SEQEND
  8
LAYER-1
  0
POLYLINE
  8
LAYER-1
 66
  1
 70
  0
 62
  0
 10
6.355928
 20
0.162350
 30
0.000000
  0
VERTEX
  8
LAYER-1
 10
6.355928
 20
0.162350
 30
0.000000
  0
VERTEX
  8
LAYER-1
 10
6.355928
 20
0.166691
 30
0.000000
  0
VERTEX
  8
LAYER-1
 10
6.351588
 20
0.170163
 30
0.000000
  0
VERTEX
  8
LAYER-1
 10
6.346380
 20
0.171031
 30
0.000000
  0
VERTEX
  8
LAYER-1
 10
6.342039
 20
0.169295
 30
0.000000
  0
VERTEX
  8
LAYER-1
 10
6.340303
 20
0.164954
 30
0.000000
  0
VERTEX
  8
LAYER-1
 10
6.340303
 20
0.160615
 30
0.000000
  0
VERTEX
  8
LAYER-1
 10
6.343775
 20
0.156275
 30
0.000000
  0
VERTEX
  8
LAYER-1
 10
6.348116
 20
0.156275
 30
0.000000
  0
VERTEX
  8
LAYER-1
 10
6.352456
 20
0.157142
 30
0.000000
  0
VERTEX
  8
LAYER-1
 10
6.355059
 20
0.161483
 30
0.000000
  0
SEQEND
  8
LAYER-1
  0
POLYLINE
  8
LAYER-1
 66
  1
 70
  1
 62
  0
 10
6.288219
 20
0.149329
 30
0.000000
  0
VERTEX
  8
LAYER-1
 10
6.288219
 20
0.149329
 30
0.000000
  0
VERTEX
  8
LAYER-1
 10
6.265650
 20
0.162349
 30
0.000000
  0
VERTEX
  8
LAYER-1
 10
6.286483
 20
0.131967
 30
0.000000
  0
SEQEND
  8
LAYER-1
  0
POLYLINE
  8
LAYER-1
 66
  1
 70
  0
 62
  0
 10
6.205755
 20
0.114608
 30
0.000000
  0
VERTEX
  8
LAYER-1
 10
6.205755
 20
0.114608
 30
0.000000
  0
VERTEX
  8
LAYER-1
 10
6.205755
 20
0.118948
 30
0.000000
  0
VERTEX
  8
LAYER-1
 10
6.201414
 20
0.122420
 30
0.000000
  0
VERTEX
  8
LAYER-1
 10
6.196206
 20
0.123288
 30
0.000000
  0
VERTEX
  8
LAYER-1
 10
6.191866
 20
0.121552
 30
0.000000
  0
VERTEX
  8
LAYER-1
 10
6.190130
 20
0.117212
 30
0.000000
  0
VERTEX
  8
LAYER-1
 10
6.190130
 20
0.112872
 30
0.000000
  0
VERTEX
  8
LAYER-1
 10
6.193602
 20
0.108531
 30
0.000000
  0
VERTEX
  8
LAYER-1
 10
6.197943
 20
0.108531
 30
0.000000
  0
VERTEX
  8
LAYER-1
 10
6.202283
 20
0.109400
 30
0.000000
  0
VERTEX
  8
LAYER-1
 10
6.204886
 20
0.113740
 30
0.000000
  0
SEQEND
  8
LAYER-1
  0
POLYLINE
  8
LAYER-1
 66
  1
 70
  1
 62
  0
 10
6.396033
 20
0.104886
 30
0.000000
  0
VERTEX
  8
LAYER-1
 10
6.396033
 20
0.104886
 30
0.000000
  0
VERTEX
  8
LAYER-1
 10
6.389088
 20
0.130926
 30
0.000000
  0
VERTEX
  8
LAYER-1
 10
6.363915
 20
0.117039
 30
0.000000
  0
SEQEND
  8
LAYER-1
  0
POLYLINE
  8
LAYER-1
 66
  1
 70
  1
 62
  0
 10
6.417559
 20
0.159312
 30
0.000000
  0
VERTEX
  8
LAYER-1
 10
6.417559
 20
0.159312
 30
0.000000
  0
VERTEX
  8
LAYER-1
 10
6.430581
 20
0.181881
 30
0.000000
  0
VERTEX
  8
LAYER-1
 10
6.400199
 20
0.161050
 30
0.000000
  0
SEQEND
  8
LAYER-1
  0
POLYLINE
  8
LAYER-1
 66
  1
 70
  1
 62
  0
 10
5.845512
 20
0.102889
 30
0.000000
  0
VERTEX
  8
LAYER-1
 10
5.845512
 20
0.102889
 30
0.000000
  0
VERTEX
  8
LAYER-1
 10
5.822942
 20
0.115911
 30
0.000000
  0
VERTEX
  8
LAYER-1
 10
5.843774
 20
0.085528
 30
0.000000
  0
SEQEND
  8
LAYER-1
  0
POLYLINE
  8
LAYER-1
 66
  1
 70
  1
 62
  0
 10
6.623289
 20
0.127196
 30
0.000000
  0
VERTEX
  8
LAYER-1
 10
6.623289
 20
0.127196
 30
0.000000
  0
VERTEX
  8
LAYER-1
 10
6.639782
 20
0.152368
 30
0.000000
  0
VERTEX
  8
LAYER-1
 10
6.625025
 20
0.160181
 30
0.000000
  0
SEQEND
  8
LAYER-1
  0
POLYLINE
  8
LAYER-1
 66
  1
 70
  0
 62
  0
 10
6.654190
 20
0.053791
 30
0.000000
  0
VERTEX
  8
LAYER-1
 10
6.654190
 20
0.053791
 30
0.000000
  0
VERTEX
  8
LAYER-1
 10
6.658530
 20
0.053791
 30
0.000000
  0
VERTEX
  8
LAYER-1
 10
6.662002
 20
0.058133
 30
0.000000
  0
VERTEX
  8
LAYER-1
 10
6.662870
 20
0.063340
 30
0.000000
  0
VERTEX
  8
LAYER-1
 10
6.661134
 20
0.067680
 30
0.000000
  0
VERTEX
  8
LAYER-1
 10
6.656793
 20
0.069416
 30
0.000000
  0
VERTEX
  8
LAYER-1
 10
6.652454
 20
0.069416
 30
0.000000
  0
VERTEX
  8
LAYER-1
 10
6.648112
 20
0.065945
 30
0.000000
  0
VERTEX
  8
LAYER-1
 10
6.648112
 20
0.061604
 30
0.000000
  0
VERTEX
  8
LAYER-1
 10
6.648980
 20
0.057264
 30
0.000000
  0
VERTEX
  8
LAYER-1
 10
6.653322
 20
0.054659
 30
0.000000
  0
SEQEND
  8
LAYER-1
  0
POLYLINE
  8
LAYER-1
 66
  1
 70
  0
 62
  0
 10
6.630753
 20
0.078971
 30
0.000000
  0
VERTEX
  8
LAYER-1
 10
6.630753
 20
0.078971
 30
0.000000
  0
VERTEX
  8
LAYER-1
 10
6.635093
 20
0.078971
 30
0.000000
  0
VERTEX
  8
LAYER-1
 10
6.638565
 20
0.083311
 30
0.000000
  0
VERTEX
  8
LAYER-1
 10
6.639434
 20
0.088519
 30
0.000000
  0
VERTEX
  8
LAYER-1
 10
6.637697
 20
0.092860
 30
0.000000
  0
VERTEX
  8
LAYER-1
 10
6.633356
 20
0.094596
 30
0.000000
  0
VERTEX
  8
LAYER-1
 10
6.629017
 20
0.094596
 30
0.000000
  0
VERTEX
  8
LAYER-1
 10
6.624676
 20
0.091124
 30
0.000000
  0
VERTEX
  8
LAYER-1
 10
6.624676
 20
0.086784
 30
0.000000
  0
VERTEX
  8
LAYER-1
 10
6.625544
 20
0.082442
 30
0.000000
  0
VERTEX
  8
LAYER-1
 10
6.629885
 20
0.079837
 30
0.000000
  0
SEQEND
  8
LAYER-1
  0
POLYLINE
  8
LAYER-1
 66
  1
 70
  1
 62
  0
 10
6.704971
 20
0.095027
 30
0.000000
  0
VERTEX
  8
LAYER-1
 10
6.704971
 20
0.095027
 30
0.000000
  0
VERTEX
  8
LAYER-1
 10
6.679797
 20
0.111519
 30
0.000000
  0
VERTEX
  8
LAYER-1
 10
6.671985
 20
0.096762
 30
0.000000
  0
SEQEND
  8
LAYER-1
  0
POLYLINE
  8
LAYER-1
 66
  1
 70
  0
 62
  0
 10
6.715388
 20
0.134091
 30
0.000000
  0
VERTEX
  8
LAYER-1
 10
6.715388
 20
0.134091
 30
0.000000
  0
VERTEX
  8
LAYER-1
 10
6.715388
 20
0.138431
 30
0.000000
  0
VERTEX
  8
LAYER-1
 10
6.711047
 20
0.141903
 30
0.000000
  0
VERTEX
  8
LAYER-1
 10
6.705840
 20
0.142771
 30
0.000000
  0
VERTEX
  8
LAYER-1
 10
6.701499
 20
0.141035
 30
0.000000
  0
VERTEX
  8
LAYER-1
 10
6.699763
 20
0.136694
 30
0.000000
  0
VERTEX
  8
LAYER-1
 10
6.699763
 20
0.132355
 30
0.000000
  0
VERTEX
  8
LAYER-1
 10
6.703235
 20
0.128014
 30
0.000000
  0
VERTEX
  8
LAYER-1
 10
6.707575
 20
0.128014
 30
0.000000
  0
VERTEX
  8
LAYER-1
 10
6.711916
 20
0.128882
 30
0.000000
  0
VERTEX
  8
LAYER-1
 10
6.714521
 20
0.133223
 30
0.000000
  0
SEQEND
  8
LAYER-1
  0
POLYLINE
  8
LAYER-1
 66
  1
 70
  1
 62
  0
 10
6.661911
 20
0.139943
 30
0.000000
  0
VERTEX
  8
LAYER-1
 10
6.661911
 20
0.139943
 30
0.000000
  0
VERTEX
  8
LAYER-1
 10
6.674597
 20
0.159307
 30
0.000000
  0
VERTEX
  8
LAYER-1
 10
6.663247
 20
0.165318
 30
0.000000
  0
SEQEND
  8
LAYER-1
  0
POLYLINE
  8
LAYER-1
 66
  1
 70
  0
 62
  0
 10
5.985268
 20
0.169729
 30
0.000000
  0
VERTEX
  8
LAYER-1
 10
5.985268
 20
0.169729
 30
0.000000
  0
VERTEX
  8
LAYER-1
 10
5.985268
 20
0.174068
 30
0.000000
  0
VERTEX
  8
LAYER-1
 10
5.980927
 20
0.177542
 30
0.000000
  0
VERTEX
  8
LAYER-1
 10
5.975720
 20
0.178409
 30
0.000000
  0
VERTEX
  8
LAYER-1
 10
5.971379
 20
0.176673
 30
0.000000
  0
VERTEX
  8
LAYER-1
 10
5.969643
 20
0.172333
 30
0.000000
  0
VERTEX
  8
LAYER-1
 10
5.969643
 20
0.167992
 30
0.000000
  0
VERTEX
  8
LAYER-1
 10
5.973115
 20
0.163653
 30
0.000000
  0
VERTEX
  8
LAYER-1
 10
5.977456
 20
0.163653
 30
0.000000
  0
VERTEX
  8
LAYER-1
 10
5.981796
 20
0.164520
 30
0.000000
  0
VERTEX
  8
LAYER-1
 10
5.984401
 20
0.168861
 30
0.000000
  0
SEQEND
  8
LAYER-1
  0
POLYLINE
  8
LAYER-1
 66
  1
 70
  0
 62
  0
 10
6.571206
 20
0.133272
 30
0.000000
  0
VERTEX
  8
LAYER-1
 10
6.571206
 20
0.133272
 30
0.000000
  0
VERTEX
  8
LAYER-1
 10
6.575546
 20
0.133272
 30
0.000000
  0
VERTEX
  8
LAYER-1
 10
6.579018
 20
0.137612
 30
0.000000
  0
VERTEX
  8
LAYER-1
 10
6.579886
 20
0.142821
 30
0.000000
  0
VERTEX
  8
LAYER-1
 10
6.578150
 20
0.147161
 30
0.000000
  0
VERTEX
  8
LAYER-1
 10
6.573809
 20
0.148897
 30
0.000000
  0
VERTEX
  8
LAYER-1
 10
6.569470
 20
0.148897
 30
0.000000
  0
VERTEX
  8
LAYER-1
 10
6.565129
 20
0.145425
 30
0.000000
  0
VERTEX
  8
LAYER-1
 10
6.565129
 20
0.141084
 30
0.000000
  0
VERTEX
  8
LAYER-1
 10
6.565997
 20
0.136743
 30
0.000000
  0
VERTEX
  8
LAYER-1
 10
6.570338
 20
0.134139
 30
0.000000
  0
SEQEND
  8
LAYER-1
  0
POLYLINE
  8
LAYER-1
 66
  1
 70
  1
 62
  0
 10
0.828842
 20
0.136953
 30
0.000000
  0
VERTEX
  8
LAYER-1
 10
0.828842
 20
0.136953
 30
0.000000
  0
VERTEX
  8
LAYER-1
 10
0.806272
 20
0.149974
 30
0.000000
  0
VERTEX
  8
LAYER-1
 10
0.827104
 20
0.119592
 30
0.000000
  0
SEQEND
  8
LAYER-1
  0
POLYLINE
  8
LAYER-1
 66
  1
 70
  0
 62
  0
 10
0.817558
 20
0.070112
 30
0.000000
  0
VERTEX
  8
LAYER-1
 10
0.817558
 20
0.070112
 30
0.000000
  0
VERTEX
  8
LAYER-1
 10
0.817558
 20
0.074451
 30
0.000000
  0
VERTEX
  8
LAYER-1
 10
0.813217
 20
0.077925
 30
0.000000
  0
VERTEX
  8
LAYER-1
 10
0.808009
 20
0.078792
 30
0.000000
  0
VERTEX
  8
LAYER-1
 10
0.803669
 20
0.077056
 30
0.000000
  0
VERTEX
  8
LAYER-1
 10
0.801933
 20
0.072715
 30
0.000000
  0
VERTEX
  8
LAYER-1
 10
0.801933
 20
0.068375
 30
0.000000
  0
VERTEX
  8
LAYER-1
 10
0.805405
 20
0.064036
 30
0.000000
  0
VERTEX
  8
LAYER-1
 10
0.809745
 20
0.064036
 30
0.000000
  0
VERTEX
  8
LAYER-1
 10
0.814086
 20
0.064902
 30
0.000000
  0
VERTEX
  8
LAYER-1
 10
0.816691
 20
0.069244
 30
0.000000
  0
SEQEND
  8
LAYER-1
  0
POLYLINE
  8
LAYER-1
 66
  1
 70
  1
 62
  0
 10
1.095597
 20
0.058912
 30
0.000000
  0
VERTEX
  8
LAYER-1
 10
1.095597
 20
0.058912
 30
0.000000
  0
VERTEX
  8
LAYER-1
 10
1.112091
 20
0.084086
 30
0.000000
  0
VERTEX
  8
LAYER-1
 10
1.097333
 20
0.091899
 30
0.000000
  0
SEQEND
  8
LAYER-1
  0
POLYLINE
  8
LAYER-1
 66
  1
 70
  1
 62
  0
 10
1.143507
 20
0.074006
 30
0.000000
  0
VERTEX
  8
LAYER-1
 10
1.143507
 20
0.074006
 30
0.000000
  0
VERTEX
  8
LAYER-1
 10
1.156194
 20
0.093371
 30
0.000000
  0
VERTEX
  8
LAYER-1
 10
1.144843
 20
0.099381
 30
0.000000
  0
SEQEND
  8
LAYER-1
  0
POLYLINE
  8
LAYER-1
 66
  1
 70
  0
 62
  0
 10
1.207576
 20
0.050234
 30
0.000000
  0
VERTEX
  8
LAYER-1
 10
1.207576
 20
0.050234
 30
0.000000
  0
VERTEX
  8
LAYER-1
 10
1.211917
 20
0.050234
 30
0.000000
  0
VERTEX
  8
LAYER-1
 10
1.215389
 20
0.054575
 30
0.000000
  0
VERTEX
  8
LAYER-1
 10
1.216257
 20
0.059782
 30
0.000000
  0
VERTEX
  8
LAYER-1
 10
1.214521
 20
0.064123
 30
0.000000
  0
VERTEX
  8
LAYER-1
 10
1.210180
 20
0.065859
 30
0.000000
  0
VERTEX
  8
LAYER-1
 10
1.205841
 20
0.065859
 30
0.000000
  0
VERTEX
  8
LAYER-1
 10
1.201500
 20
0.062387
 30
0.000000
  0
VERTEX
  8
LAYER-1
 10
1.201500
 20
0.058047
 30
0.000000
  0
VERTEX
  8
LAYER-1
 10
1.202368
 20
0.053706
 30
0.000000
  0
VERTEX
  8
LAYER-1
 10
1.206708
 20
0.051103
 30
0.000000
  0
SEQEND
  8
LAYER-1
  0
POLYLINE
  8
LAYER-1
 66
  1
 70
  1
 62
  0
 10
1.241430
 20
0.113167
 30
0.000000
  0
VERTEX
  8
LAYER-1
 10
1.241430
 20
0.113167
 30
0.000000
  0
VERTEX
  8
LAYER-1
 10
1.215389
 20
0.106222
 30
0.000000
  0
VERTEX
  8
LAYER-1
 10
1.229277
 20
0.081049
 30
0.000000
  0
SEQEND
  8
LAYER-1
  0
POLYLINE
  8
LAYER-1
 66
  1
 70
  0
 62
  0
 10
2.609312
 20
0.080874
 30
0.000000
  0
VERTEX
  8
LAYER-1
 10
2.609312
 20
0.080874
 30
0.000000
  0
VERTEX
  8
LAYER-1
 10
2.609312
 20
0.085214
 30
0.000000
  0
VERTEX
  8
LAYER-1
 10
2.604972
 20
0.088687
 30
0.000000
  0
VERTEX
  8
LAYER-1
 10
2.599764
 20
0.089555
 30
0.000000
  0
VERTEX
  8
LAYER-1
 10
2.595423
 20
0.087819
 30
0.000000
  0
VERTEX
  8
LAYER-1
 10
2.593687
 20
0.083478
 30
0.000000
  0
VERTEX
  8
LAYER-1
 10
2.593687
 20
0.079138
 30
0.000000
  0
VERTEX
  8
LAYER-1
 10
2.597159
 20
0.074797
 30
0.000000
  0
VERTEX
  8
LAYER-1
 10
2.601500
 20
0.074797
 30
0.000000
  0
VERTEX
  8
LAYER-1
 10
2.605840
 20
0.075666
 30
0.000000
  0
VERTEX
  8
LAYER-1
 10
2.608444
 20
0.080006
 30
0.000000
  0
SEQEND
  8
LAYER-1
  0
POLYLINE
  8
LAYER-1
 66
  1
 70
  1
 62
  0
 10
2.543339
 20
0.043983
 30
0.000000
  0
VERTEX
  8
LAYER-1
 10
2.543339
 20
0.043983
 30
0.000000
  0
VERTEX
  8
LAYER-1
 10
2.536395
 20
0.070024
 30
0.000000
  0
VERTEX
  8
LAYER-1
 10
2.511222
 20
0.056136
 30
0.000000
  0
SEQEND
  8
LAYER-1
  0
POLYLINE
  8
LAYER-1
 66
  1
 70
  1
 62
  0
 10
2.555492
 20
0.080441
 30
0.000000
  0
VERTEX
  8
LAYER-1
 10
2.555492
 20
0.080441
 30
0.000000
  0
VERTEX
  8
LAYER-1
 10
2.568513
 20
0.103011
 30
0.000000
  0
VERTEX
  8
LAYER-1
 10
2.538131
 20
0.082178
 30
0.000000
  0
SEQEND
  8
LAYER-1
  0
POLYLINE
  8
LAYER-1
 66
  1
 70
  0
 62
  0
 10
2.391691
 20
0.091291
 30
0.000000
  0
VERTEX
  8
LAYER-1
 10
2.391691
 20
0.091291
 30
0.000000
  0
VERTEX
  8
LAYER-1
 10
2.387350
 20
0.091291
 30
0.000000
  0
VERTEX
  8
LAYER-1
 10
2.383878
 20
0.086951
 30
0.000000
  0
VERTEX
  8
LAYER-1
 10
2.383010
 20
0.081743
 30
0.000000
  0
VERTEX
  8
LAYER-1
 10
2.384746
 20
0.077402
 30
0.000000
  0
VERTEX
  8
LAYER-1
 10
2.389087
 20
0.075666
 30
0.000000
  0
VERTEX
  8
LAYER-1
 10
2.393427
 20
0.075666
 30
0.000000
  0
VERTEX
  8
LAYER-1
 10
2.397767
 20
0.079138
 30
0.000000
  0
VERTEX
  8
LAYER-1
 10
2.397767
 20
0.083478
 30
0.000000
  0
VERTEX
  8
LAYER-1
 10
2.396899
 20
0.087819
 30
0.000000
  0
VERTEX
  8
LAYER-1
 10
2.392559
 20
0.090424
 30
0.000000
  0
SEQEND
  8
LAYER-1
  0
POLYLINE
  8
LAYER-1
 66
  1
 70
  1
 62
  0
 10
2.471552
 20
0.053964
 30
0.000000
  0
VERTEX
  8
LAYER-1
 10
2.471552
 20
0.053964
 30
0.000000
  0
VERTEX
  8
LAYER-1
 10
2.448981
 20
0.066987
 30
0.000000
  0
VERTEX
  8
LAYER-1
 10
2.469814
 20
0.036603
 30
0.000000
  0
SEQEND
  8
LAYER-1
  0
POLYLINE
  8
LAYER-1
 66
  1
 70
  1
 62
  0
 10
3.066523
 20
0.054816
 30
0.000000
  0
VERTEX
  8
LAYER-1
 10
3.066523
 20
0.054816
 30
0.000000
  0
VERTEX
  8
LAYER-1
 10
3.079544
 20
0.077386
 30
0.000000
  0
VERTEX
  8
LAYER-1
 10
3.049162
 20
0.056553
 30
0.000000
  0
SEQEND
  8
LAYER-1
  0
POLYLINE
  8
LAYER-1
 66
  1
 70
  1
 62
  0
 10
2.972073
 20
0.061228
 30
0.000000
  0
VERTEX
  8
LAYER-1
 10
2.972073
 20
0.061228
 30
0.000000
  0
VERTEX
  8
LAYER-1
 10
2.984760
 20
0.080592
 30
0.000000
  0
VERTEX
  8
LAYER-1
 10
2.973409
 20
0.086604
 30
0.000000
  0
SEQEND
  8
LAYER-1
  0
POLYLINE
  8
LAYER-1
 66
  1
 70
  0
 62
  0
 10
3.100379
 20
0.053948
 30
0.000000
  0
VERTEX
  8
LAYER-1
 10
3.100379
 20
0.053948
 30
0.000000
  0
VERTEX
  8
LAYER-1
 10
3.104719
 20
0.053948
 30
0.000000
  0
VERTEX
  8
LAYER-1
 10
3.108191
 20
0.058289
 30
0.000000
  0
VERTEX
  8
LAYER-1
 10
3.109059
 20
0.063497
 30
0.000000
  0
VERTEX
  8
LAYER-1
 10
3.107323
 20
0.067837
 30
0.000000
  0
VERTEX
  8
LAYER-1
 10
3.102982
 20
0.069573
 30
0.000000
  0
VERTEX
  8
LAYER-1
 10
3.098643
 20
0.069573
 30
0.000000
  0
VERTEX
  8
LAYER-1
 10
3.094302
 20
0.066101
 30
0.000000
  0
VERTEX
  8
LAYER-1
 10
3.094302
 20
0.061761
 30
0.000000
  0
VERTEX
  8
LAYER-1
 10
3.095170
 20
0.057420
 30
0.000000
  0
VERTEX
  8
LAYER-1
 10
3.099511
 20
0.054816
 30
0.000000
  0
SEQEND
  8
LAYER-1
  0
POLYLINE
  8
LAYER-1
 66
  1
 70
  0
 62
  0
 10
2.986662
 20
0.045265
 30
0.000000
  0
VERTEX
  8
LAYER-1
 10
2.986662
 20
0.045265
 30
0.000000
  0
VERTEX
  8
LAYER-1
 10
2.982321
 20
0.045265
 30
0.000000
  0
VERTEX
  8
LAYER-1
 10
2.978849
 20
0.040924
 30
0.000000
  0
VERTEX
  8
LAYER-1
 10
2.977981
 20
0.035717
 30
0.000000
  0
VERTEX
  8
LAYER-1
 10
2.979717
 20
0.031375
 30
0.000000
  0
VERTEX
  8
LAYER-1
 10
2.984058
 20
0.029640
 30
0.000000
  0
VERTEX
  8
LAYER-1
 10
2.988398
 20
0.029640
 30
0.000000
  0
VERTEX
  8
LAYER-1
 10
2.992739
 20
0.033112
 30
0.000000
  0
VERTEX
  8
LAYER-1
 10
2.992739
 20
0.037453
 30
0.000000
  0
VERTEX
  8
LAYER-1
 10
2.991870
 20
0.041793
 30
0.000000
  0
VERTEX
  8
LAYER-1
 10
2.987530
 20
0.044398
 30
0.000000
  0
SEQEND
  8
LAYER-1
  0
POLYLINE
  8
LAYER-1
 66
  1
 70
  1
 62
  0
 10
2.827715
 20
0.058566
 30
0.000000
  0
VERTEX
  8
LAYER-1
 10
2.827715
 20
0.058566
 30
0.000000
  0
VERTEX
  8
LAYER-1
 10
2.840736
 20
0.081136
 30
0.000000
  0
VERTEX
  8
LAYER-1
 10
2.810354
 20
0.060304
 30
0.000000
  0
SEQEND
  8
LAYER-1
  0
POLYLINE
  8
LAYER-1
 66
  1
 70
  0
 62
  0
 10
2.861571
 20
0.057699
 30
0.000000
  0
VERTEX
  8
LAYER-1
 10
2.861571
 20
0.057699
 30
0.000000
  0
VERTEX
  8
LAYER-1
 10
2.865911
 20
0.057699
 30
0.000000
  0
VERTEX
  8
LAYER-1
 10
2.869383
 20
0.062040
 30
0.000000
  0
VERTEX
  8
LAYER-1
 10
2.870251
 20
0.067247
 30
0.000000
  0
VERTEX
  8
LAYER-1
 10
2.868515
 20
0.071587
 30
0.000000
  0
VERTEX
  8
LAYER-1
 10
2.864175
 20
0.073324
 30
0.000000
  0
VERTEX
  8
LAYER-1
 10
2.859835
 20
0.073324
 30
0.000000
  0
VERTEX
  8
LAYER-1
 10
2.855494
 20
0.069852
 30
0.000000
  0
VERTEX
  8
LAYER-1
 10
2.855494
 20
0.065511
 30
0.000000
  0
VERTEX
  8
LAYER-1
 10
2.856362
 20
0.061171
 30
0.000000
  0
VERTEX
  8
LAYER-1
 10
2.860703
 20
0.058566
 30
0.000000
  0
SEQEND
  8
LAYER-1
  0
POLYLINE
  8
LAYER-1
 66
  1
 70
  1
 62
  0
 10
3.459832
 20
0.093636
 30
0.000000
  0
VERTEX
  8
LAYER-1
 10
3.459832
 20
0.093636
 30
0.000000
  0
VERTEX
  8
LAYER-1
 10
3.482402
 20
0.080616
 30
0.000000
  0
VERTEX
  8
LAYER-1
 10
3.461570
 20
0.110998
 30
0.000000
  0
SEQEND
  8
LAYER-1
  0
POLYLINE
  8
LAYER-1
 66
  1
 70
  0
 62
  0
 10
3.458965
 20
0.059781
 30
0.000000
  0
VERTEX
  8
LAYER-1
 10
3.458965
 20
0.059781
 30
0.000000
  0
VERTEX
  8
LAYER-1
 10
3.458965
 20
0.055440
 30
0.000000
  0
VERTEX
  8
LAYER-1
 10
3.463306
 20
0.051968
 30
0.000000
  0
VERTEX
  8
LAYER-1
 10
3.468513
 20
0.051100
 30
0.000000
  0
VERTEX
  8
LAYER-1
 10
3.472854
 20
0.052836
 30
0.000000
  0
VERTEX
  8
LAYER-1
 10
3.474589
 20
0.057177
 30
0.000000
  0
VERTEX
  8
LAYER-1
 10
3.474589
 20
0.061517
 30
0.000000
  0
VERTEX
  8
LAYER-1
 10
3.471118
 20
0.065857
 30
0.000000
  0
VERTEX
  8
LAYER-1
 10
3.466777
 20
0.065857
 30
0.000000
  0
VERTEX
  8
LAYER-1
 10
3.462437
 20
0.064990
 30
0.000000
  0
VERTEX
  8
LAYER-1
 10
3.459832
 20
0.060649
 30
0.000000
  0
SEQEND
  8
LAYER-1
  0
POLYLINE
  8
LAYER-1
 66
  1
 70
  1
 62
  0
 10
4.009311
 20
0.125666
 30
0.000000
  0
VERTEX
  8
LAYER-1
 10
4.009311
 20
0.125666
 30
0.000000
  0
VERTEX
  8
LAYER-1
 10
4.016256
 20
0.099625
 30
0.000000
  0
VERTEX
  8
LAYER-1
 10
4.041429
 20
0.113513
 30
0.000000
  0
SEQEND
  8
LAYER-1
  0
POLYLINE
  8
LAYER-1
 66
  1
 70
  1
 62
  0
 10
3.981098
 20
0.088772
 30
0.000000
  0
VERTEX
  8
LAYER-1
 10
3.981098
 20
0.088772
 30
0.000000
  0
VERTEX
  8
LAYER-1
 10
4.003668
 20
0.075751
 30
0.000000
  0
VERTEX
  8
LAYER-1
 10
3.982835
 20
0.106133
 30
0.000000
  0
SEQEND
  8
LAYER-1
  0
POLYLINE
  8
LAYER-1
 66
  1
 70
  1
 62
  0
 10
4.097752
 20
0.080792
 30
0.000000
  0
VERTEX
  8
LAYER-1
 10
4.097752
 20
0.080792
 30
0.000000
  0
VERTEX
  8
LAYER-1
 10
4.117118
 20
0.068104
 30
0.000000
  0
VERTEX
  8
LAYER-1
 10
4.123129
 20
0.079456
 30
0.000000
  0
SEQEND
  8
LAYER-1
  0
POLYLINE
  8
LAYER-1
 66
  1
 70
  0
 62
  0
 10
4.042298
 20
0.086600
 30
0.000000
  0
VERTEX
  8
LAYER-1
 10
4.042298
 20
0.086600
 30
0.000000
  0
VERTEX
  8
LAYER-1
 10
4.037957
 20
0.086600
 30
0.000000
  0
VERTEX
  8
LAYER-1
 10
4.034485
 20
0.082259
 30
0.000000
  0
VERTEX
  8
LAYER-1
 10
4.033618
 20
0.077051
 30
0.000000
  0
VERTEX
  8
LAYER-1
 10
4.035353
 20
0.072711
 30
0.000000
  0
VERTEX
  8
LAYER-1
 10
4.039693
 20
0.070975
 30
0.000000
  0
VERTEX
  8
LAYER-1
 10
4.044034
 20
0.070975
 30
0.000000
  0
VERTEX
  8
LAYER-1
 10
4.048375
 20
0.074447
 30
0.000000
  0
VERTEX
  8
LAYER-1
 10
4.048375
 20
0.078787
 30
0.000000
  0
VERTEX
  8
LAYER-1
 10
4.047506
 20
0.083128
 30
0.000000
  0
VERTEX
  8
LAYER-1
 10
4.043166
 20
0.085732
 30
0.000000
  0
SEQEND
  8
LAYER-1
  0
POLYLINE
  8
LAYER-1
 66
  1
 70
  0
 62
  0
 10
3.926846
 20
0.064031
 30
0.000000
  0
VERTEX
  8
LAYER-1
 10
3.926846
 20
0.064031
 30
0.000000
  0
VERTEX
  8
LAYER-1
 10
3.931187
 20
0.064031
 30
0.000000
  0
VERTEX
  8
LAYER-1
 10
3.934659
 20
0.068372
 30
0.000000
  0
VERTEX
  8
LAYER-1
 10
3.935528
 20
0.073580
 30
0.000000
  0
VERTEX
  8
LAYER-1
 10
3.933792
 20
0.077920
 30
0.000000
  0
VERTEX
  8
LAYER-1
 10
3.929451
 20
0.079656
 30
0.000000
  0
VERTEX
  8
LAYER-1
 10
3.925110
 20
0.079656
 30
0.000000
  0
VERTEX
  8
LAYER-1
 10
3.920770
 20
0.076185
 30
0.000000
  0
VERTEX
  8
LAYER-1
 10
3.920770
 20
0.071843
 30
0.000000
  0
VERTEX
  8
LAYER-1
 10
3.921638
 20
0.067503
 30
0.000000
  0
VERTEX
  8
LAYER-1
 10
3.925979
 20
0.064898
 30
0.000000
  0
SEQEND
  8
LAYER-1
  0
POLYLINE
  8
LAYER-1
 66
  1
 70
  1
 62
  0
 10
4.413494
 20
0.034344
 30
0.000000
  0
VERTEX
  8
LAYER-1
 10
4.413494
 20
0.034344
 30
0.000000
  0
VERTEX
  8
LAYER-1
 10
4.406549
 20
0.060385
 30
0.000000
  0
VERTEX
  8
LAYER-1
 10
4.381376
 20
0.046497
 30
0.000000
  0
SEQEND
  8
LAYER-1
  0
POLYLINE
  8
LAYER-1
 66
  1
 70
  1
 62
  0
 10
4.441706
 20
0.071238
 30
0.000000
  0
VERTEX
  8
LAYER-1
 10
4.441706
 20
0.071238
 30
0.000000
  0
VERTEX
  8
LAYER-1
 10
4.419136
 20
0.084258
 30
0.000000
  0
VERTEX
  8
LAYER-1
 10
4.439969
 20
0.053877
 30
0.000000
  0
SEQEND
  8
LAYER-1
  0
POLYLINE
  8
LAYER-1
 66
  1
 70
  1
 62
  0
 10
4.325052
 20
0.079218
 30
0.000000
  0
VERTEX
  8
LAYER-1
 10
4.325052
 20
0.079218
 30
0.000000
  0
VERTEX
  8
LAYER-1
 10
4.305687
 20
0.091905
 30
0.000000
  0
VERTEX
  8
LAYER-1
 10
4.299677
 20
0.080554
 30
0.000000
  0
SEQEND
  8
LAYER-1
  0
POLYLINE
  8
LAYER-1
 66
  1
 70
  0
 62
  0
 10
4.380507
 20
0.073410
 30
0.000000
  0
VERTEX
  8
LAYER-1
 10
4.380507
 20
0.073410
 30
0.000000
  0
VERTEX
  8
LAYER-1
 10
4.384847
 20
0.073410
 30
0.000000
  0
VERTEX
  8
LAYER-1
 10
4.388319
 20
0.077751
 30
0.000000
  0
VERTEX
  8
LAYER-1
 10
4.389187
 20
0.082959
 30
0.000000
  0
VERTEX
  8
LAYER-1
 10
4.387451
 20
0.087300
 30
0.000000
  0
VERTEX
  8
LAYER-1
 10
4.383111
 20
0.089035
 30
0.000000
  0
VERTEX
  8
LAYER-1
 10
4.378771
 20
0.089035
 30
0.000000
  0
VERTEX
  8
LAYER-1
 10
4.374430
 20
0.085564
 30
0.000000
  0
VERTEX
  8
LAYER-1
 10
4.374430
 20
0.081223
 30
0.000000
  0
VERTEX
  8
LAYER-1
 10
4.375299
 20
0.076882
 30
0.000000
  0
VERTEX
  8
LAYER-1
 10
4.379639
 20
0.074278
 30
0.000000
  0
SEQEND
  8
LAYER-1
  0
POLYLINE
  8
LAYER-1
 66
  1
 70
  0
 62
  0
 10
4.495958
 20
0.095979
 30
0.000000
  0
VERTEX
  8
LAYER-1
 10
4.495958
 20
0.095979
 30
0.000000
  0
VERTEX
  8
LAYER-1
 10
4.491617
 20
0.095979
 30
0.000000
  0
VERTEX
  8
LAYER-1
 10
4.488146
 20
0.091638
 30
0.000000
  0
VERTEX
  8
LAYER-1
 10
4.487277
 20
0.086430
 30
0.000000
  0
VERTEX
  8
LAYER-1
 10
4.489013
 20
0.082090
 30
0.000000
  0
VERTEX
  8
LAYER-1
 10
4.493354
 20
0.080354
 30
0.000000
  0
VERTEX
  8
LAYER-1
 10
4.497694
 20
0.080354
 30
0.000000
  0
VERTEX
  8
LAYER-1
 10
4.502035
 20
0.083826
 30
0.000000
  0
VERTEX
  8
LAYER-1
 10
4.502035
 20
0.088166
 30
0.000000
  0
VERTEX
  8
LAYER-1
 10
4.501166
 20
0.092507
 30
0.000000
  0
VERTEX
  8
LAYER-1
 10
4.496825
 20
0.095112
 30
0.000000
  0
SEQEND
  8
LAYER-1
  0
POLYLINE
  8
LAYER-1
 66
  1
 70
  1
 62
  0
 10
4.665837
 20
0.017938
 30
0.000000
  0
VERTEX
  8
LAYER-1
 10
4.665837
 20
0.017938
 30
0.000000
  0
VERTEX
  8
LAYER-1
 10
4.658892
 20
0.043979
 30
0.000000
  0
VERTEX
  8
LAYER-1
 10
4.633719
 20
0.030090
 30
0.000000
  0
SEQEND
  8
LAYER-1
  0
POLYLINE
  8
LAYER-1
 66
  1
 70
  1
 62
  0
 10
4.694049
 20
0.054832
 30
0.000000
  0
VERTEX
  8
LAYER-1
 10
4.694049
 20
0.054832
 30
0.000000
  0
VERTEX
  8
LAYER-1
 10
4.671480
 20
0.067852
 30
0.000000
  0
VERTEX
  8
LAYER-1
 10
4.692313
 20
0.037470
 30
0.000000
  0
SEQEND
  8
LAYER-1
  0
POLYLINE
  8
LAYER-1
 66
  1
 70
  1
 62
  0
 10
4.577396
 20
0.062811
 30
0.000000
  0
VERTEX
  8
LAYER-1
 10
4.577396
 20
0.062811
 30
0.000000
  0
VERTEX
  8
LAYER-1
 10
4.558030
 20
0.075499
 30
0.000000
  0
VERTEX
  8
LAYER-1
 10
4.552020
 20
0.064147
 30
0.000000
  0
SEQEND
  8
LAYER-1
  0
POLYLINE
  8
LAYER-1
 66
  1
 70
  0
 62
  0
 10
4.632850
 20
0.057003
 30
0.000000
  0
VERTEX
  8
LAYER-1
 10
4.632850
 20
0.057003
 30
0.000000
  0
VERTEX
  8
LAYER-1
 10
4.637191
 20
0.057003
 30
0.000000
  0
VERTEX
  8
LAYER-1
 10
4.640663
 20
0.061345
 30
0.000000
  0
VERTEX
  8
LAYER-1
 10
4.641530
 20
0.066552
 30
0.000000
  0
VERTEX
  8
LAYER-1
 10
4.639795
 20
0.070893
 30
0.000000
  0
VERTEX
  8
LAYER-1
 10
4.635455
 20
0.072628
 30
0.000000
  0
VERTEX
  8
LAYER-1
 10
4.631114
 20
0.072628
 30
0.000000
  0
VERTEX
  8
LAYER-1
 10
4.626773
 20
0.069157
 30
0.000000
  0
VERTEX
  8
LAYER-1
 10
4.626773
 20
0.064816
 30
0.000000
  0
VERTEX
  8
LAYER-1
 10
4.627642
 20
0.060476
 30
0.000000
  0
VERTEX
  8
LAYER-1
 10
4.631982
 20
0.057872
 30
0.000000
  0
SEQEND
  8
LAYER-1
  0
POLYLINE
  8
LAYER-1
 66
  1
 70
  0
 62
  0
 10
4.748302
 20
0.079572
 30
0.000000
  0
VERTEX
  8
LAYER-1
 10
4.748302
 20
0.079572
 30
0.000000
  0
VERTEX
  8
LAYER-1
 10
4.743961
 20
0.079572
 30
0.000000
  0
VERTEX
  8
LAYER-1
 10
4.740489
 20
0.075232
 30
0.000000
  0
VERTEX
  8
LAYER-1
 10
4.739620
 20
0.070024
 30
0.000000
  0
VERTEX
  8
LAYER-1
 10
4.741356
 20
0.065683
 30
0.000000
  0
VERTEX
  8
LAYER-1
 10
4.745697
 20
0.063947
 30
0.000000
  0
VERTEX
  8
LAYER-1
 10
4.750038
 20
0.063947
 30
0.000000
  0
VERTEX
  8
LAYER-1
 10
4.754378
 20
0.067419
 30
0.000000
  0
VERTEX
  8
LAYER-1
 10
4.754378
 20
0.071760
 30
0.000000
  0
VERTEX
  8
LAYER-1
 10
4.753510
 20
0.076101
 30
0.000000
  0
VERTEX
  8
LAYER-1
 10
4.749169
 20
0.078706
 30
0.000000
  0
SEQEND
  8
LAYER-1
  0
POLYLINE
  8
LAYER-1
 66
  1
 70
  1
 62
  0
 10
4.886396
 20
0.116987
 30
0.000000
  0
VERTEX
  8
LAYER-1
 10
4.886396
 20
0.116987
 30
0.000000
  0
VERTEX
  8
LAYER-1
 10
4.893341
 20
0.090945
 30
0.000000
  0
VERTEX
  8
LAYER-1
 10
4.918514
 20
0.104833
 30
0.000000
  0
SEQEND
  8
LAYER-1
  0
POLYLINE
  8
LAYER-1
 66
  1
 70
  1
 62
  0
 10
4.858183
 20
0.080093
 30
0.000000
  0
VERTEX
  8
LAYER-1
 10
4.858183
 20
0.080093
 30
0.000000
  0
VERTEX
  8
LAYER-1
 10
4.880753
 20
0.067073
 30
0.000000
  0
VERTEX
  8
LAYER-1
 10
4.859920
 20
0.097454
 30
0.000000
  0
SEQEND
  8
LAYER-1
  0
POLYLINE
  8
LAYER-1
 66
  1
 70
  0
 62
  0
 10
4.803931
 20
0.055351
 30
0.000000
  0
VERTEX
  8
LAYER-1
 10
4.803931
 20
0.055351
 30
0.000000
  0
VERTEX
  8
LAYER-1
 10
4.808272
 20
0.055351
 30
0.000000
  0
VERTEX
  8
LAYER-1
 10
4.811744
 20
0.059692
 30
0.000000
  0
VERTEX
  8
LAYER-1
 10
4.812613
 20
0.064900
 30
0.000000
  0
VERTEX
  8
LAYER-1
 10
4.810877
 20
0.069241
 30
0.000000
  0
VERTEX
  8
LAYER-1
 10
4.806536
 20
0.070976
 30
0.000000
  0
VERTEX
  8
LAYER-1
 10
4.802195
 20
0.070976
 30
0.000000
  0
VERTEX
  8
LAYER-1
 10
4.797855
 20
0.067505
 30
0.000000
  0
VERTEX
  8
LAYER-1
 10
4.797855
 20
0.063164
 30
0.000000
  0
VERTEX
  8
LAYER-1
 10
4.798723
 20
0.058823
 30
0.000000
  0
VERTEX
  8
LAYER-1
 10
4.803064
 20
0.056218
 30
0.000000
  0
SEQEND
  8
LAYER-1
  0
POLYLINE
  8
LAYER-1
 66
  1
 70
  1
 62
  0
 10
5.439518
 20
0.229103
 30
0.000000
  0
VERTEX
  8
LAYER-1
 10
5.439518
 20
0.229103
 30
0.000000
  0
VERTEX
  8
LAYER-1
 10
5.446463
 20
0.203062
 30
0.000000
  0
VERTEX
  8
LAYER-1
 10
5.471636
 20
0.216949
 30
0.000000
  0
SEQEND
  8
LAYER-1
  0
POLYLINE
  8
LAYER-1
 66
  1
 70
  1
 62
  0
 10
5.452627
 20
0.183963
 30
0.000000
  0
VERTEX
  8
LAYER-1
 10
5.452627
 20
0.183963
 30
0.000000
  0
VERTEX
  8
LAYER-1
 10
5.439606
 20
0.161394
 30
0.000000
  0
VERTEX
  8
LAYER-1
 10
5.469988
 20
0.182226
 30
0.000000
  0
SEQEND
  8
LAYER-1
  0
POLYLINE
  8
LAYER-1
 66
  1
 70
  1
 62
  0
 10
5.144122
 20
0.152488
 30
0.000000
  0
VERTEX
  8
LAYER-1
 10
5.144122
 20
0.152488
 30
0.000000
  0
VERTEX
  8
LAYER-1
 10
5.137178
 20
0.178528
 30
0.000000
  0
VERTEX
  8
LAYER-1
 10
5.112005
 20
0.164641
 30
0.000000
  0
SEQEND
  8
LAYER-1
  0
POLYLINE
  8
LAYER-1
 66
  1
 70
  1
 62
  0
 10
5.131013
 20
0.197626
 30
0.000000
  0
VERTEX
  8
LAYER-1
 10
5.131013
 20
0.197626
 30
0.000000
  0
VERTEX
  8
LAYER-1
 10
5.144035
 20
0.220196
 30
0.000000
  0
VERTEX
  8
LAYER-1
 10
5.113653
 20
0.199364
 30
0.000000
  0
SEQEND
  8
LAYER-1
  0
POLYLINE
  8
LAYER-1
 66
  1
 70
  1
 62
  0
 10
5.648894
 20
0.054659
 30
0.000000
  0
VERTEX
  8
LAYER-1
 10
5.648894
 20
0.054659
 30
0.000000
  0
VERTEX
  8
LAYER-1
 10
5.674934
 20
0.061604
 30
0.000000
  0
VERTEX
  8
LAYER-1
 10
5.661047
 20
0.086778
 30
0.000000
  0
SEQEND
  8
LAYER-1
  0
POLYLINE
  8
LAYER-1
 66
  1
 70
  1
 62
  0
 10
5.694033
 20
0.067767
 30
0.000000
  0
VERTEX
  8
LAYER-1
 10
5.694033
 20
0.067767
 30
0.000000
  0
VERTEX
  8
LAYER-1
 10
5.716604
 20
0.054747
 30
0.000000
  0
VERTEX
  8
LAYER-1
 10
5.695771
 20
0.085128
 30
0.000000
  0
SEQEND
  8
LAYER-1
  0
ARC
  8
LAYER-1
 62
  0
 10
5.451946
 20
8.971131
 30
0.000000
 40
0.254425
 50
270.000000
 51
90.000000
  0
POLYLINE
  8
LAYER-1
 66
  1
 70
  0
 62
  0
 10
5.451946
 20
9.225557
 30
0.000000
  0
VERTEX
  8
LAYER-1
 10
5.451946
 20
9.225557
 30
0.000000
  0
VERTEX
  8
LAYER-1
 10
1.787025
 20
9.225557
 30
0.000000
  0
SEQEND
  8
LAYER-1
  0
POLYLINE
  8
LAYER-1
 66
  1
 70
  0
 62
  0
 10
1.787025
 20
9.225557
 30
0.000000
  0
VERTEX
  8
LAYER-1
 10
1.787025
 20
9.225557
 30
0.000000
  0
VERTEX
  8
LAYER-1
 10
1.787025
 20
8.716707
 30
0.000000
  0
SEQEND
  8
LAYER-1
  0
POLYLINE
  8
LAYER-1
 66
  1
 70
  0
 62
  0
 10
5.451946
 20
8.716707
 30
0.000000
  0
VERTEX
  8
LAYER-1
 10
5.451946
 20
8.716707
 30
0.000000
  0
VERTEX
  8
LAYER-1
 10
1.787025
 20
8.716707
 30
0.000000
  0
SEQEND
  8
LAYER-1
  0
TEXT
  8
LAYER-1
 62
  0
 10
3.597556
 20
9.513666
 30
0.000000
 40
0.333333
  1
MobilFlex
 72
  5
 11
5.750334
 21
9.513666
 31
0.000000
  0
POLYLINE
  8
LAYER-1
 66
  1
 70
  1
 62
  0
  0
VERTEX
  8
LAYER-1
 10
1.788528
 20
10.033640
 30
0.000000
  0
VERTEX
  8
LAYER-1
 10
2.026375
 20
10.033640
 30
0.000000
  0
VERTEX
  8
LAYER-1
 10
2.026375
 20
9.516695
 30
0.000000
  0
VERTEX
  8
LAYER-1
 10
1.788528
 20
9.516695
 30
0.000000
  0
SEQEND
  8
LAYER-1
  0
POLYLINE
  8
LAYER-1
 66
  1
 70
  1
 62
  0
  0
VERTEX
  8
LAYER-1
 10
2.101028
 20
10.033640
 30
0.000000
  0
VERTEX
  8
LAYER-1
 10
2.338875
 20
10.033640
 30
0.000000
  0
VERTEX
  8
LAYER-1
 10
2.338875
 20
9.516695
 30
0.000000
  0
VERTEX
  8
LAYER-1
 10
2.101028
 20
9.516695
 30
0.000000
  0
SEQEND
  8
LAYER-1
  0
POLYLINE
  8
LAYER-1
 66
  1
 70
  1
 62
  0
  0
VERTEX
  8
LAYER-1
 10
2.401375
 20
10.033640
 30
0.000000
  0
VERTEX
  8
LAYER-1
 10
2.639223
 20
10.033640
 30
0.000000
  0
VERTEX
  8
LAYER-1
 10
2.639223
 20
9.516695
 30
0.000000
  0
VERTEX
  8
LAYER-1
 10
2.401375
 20
9.516695
 30
0.000000
  0
SEQEND
  8
LAYER-1
  0
POLYLINE
  8
LAYER-1
 66
  1
 70
  1
 62
  0
  0
VERTEX
  8
LAYER-1
 10
2.705195
 20
10.033640
 30
0.000000
  0
VERTEX
  8
LAYER-1
 10
2.943042
 20
10.033640
 30
0.000000
  0
VERTEX
  8
LAYER-1
 10
2.943042
 20
9.516695
 30
0.000000
  0
VERTEX
  8
LAYER-1
 10
2.705195
 20
9.516695
 30
0.000000
  0
SEQEND
  8
LAYER-1
  0
POLYLINE
  8
LAYER-1
 66
  1
 70
  1
 62
  0
  0
VERTEX
  8
LAYER-1
 10
3.022035
 20
10.029725
 30
0.000000
  0
VERTEX
  8
LAYER-1
 10
3.397469
 20
10.029725
 30
0.000000
  0
VERTEX
  8
LAYER-1
 10
3.397469
 20
9.891704
 30
0.000000
  0
VERTEX
  8
LAYER-1
 10
3.022035
 20
9.891704
 30
0.000000
  0
SEQEND
  8
LAYER-1
  0
POLYLINE
  8
LAYER-1
 66
  1
 70
  1
 62
  0
  0
VERTEX
  8
LAYER-1
 10
3.021601
 20
9.802294
 30
0.000000
  0
VERTEX
  8
LAYER-1
 10
3.329761
 20
9.802294
 30
0.000000
  0
VERTEX
  8
LAYER-1
 10
3.329761
 20
9.668180
 30
0.000000
  0
VERTEX
  8
LAYER-1
 10
3.021601
 20
9.668180
 30
0.000000
  0
SEQEND
  8
LAYER-1
  0
POLYLINE
  8
LAYER-1
 66
  1
 70
  1
 62
  0
  0
VERTEX
  8
LAYER-1
 10
1.788528
 20
9.432069
 30
0.000000
  0
VERTEX
  8
LAYER-1
 10
5.706931
 20
9.432069
 30
0.000000
  0
VERTEX
  8
LAYER-1
 10
5.706931
 20
9.388666
 30
0.000000
  0
VERTEX
  8
LAYER-1
 10
1.788528
 20
9.388666
 30
0.000000
  0
SEQEND
  8
LAYER-1
  0
POLYLINE
  8
LAYER-1
 66
  1
 70
  1
 62
  7
  0
VERTEX
  8
LAYER-1
 10
3.851896
 20
7.196000
 30
0.000000
  0
VERTEX
  8
LAYER-1
 10
4.022036
 20
7.196000
 30
0.000000
  0
VERTEX
  8
LAYER-1
 10
4.022036
 20
6.779080
 30
0.000000
  0
VERTEX
  8
LAYER-1
 10
3.851896
 20
6.779080
 30
0.000000
  0
SEQEND
  8
LAYER-1
  0
POLYLINE
  8
LAYER-1
 66
  1
 70
  1
 62
  7
  0
VERTEX
  8
LAYER-1
 10
4.261377
 20
7.196000
 30
0.000000
  0
VERTEX
  8
LAYER-1
 10
4.431516
 20
7.196000
 30
0.000000
  0
VERTEX
  8
LAYER-1
 10
4.431516
 20
6.779080
 30
0.000000
  0
VERTEX
  8
LAYER-1
 10
4.261377
 20
6.779080
 30
0.000000
  0
SEQEND
  8
LAYER-1
  0
POLYLINE
  8
LAYER-1
 66
  1
 70
  1
 62
  7
  0
VERTEX
  8
LAYER-1
 10
4.668251
 20
7.196000
 30
0.000000
  0
VERTEX
  8
LAYER-1
 10
4.838390
 20
7.196000
 30
0.000000
  0
VERTEX
  8
LAYER-1
 10
4.838390
 20
6.779080
 30
0.000000
  0
VERTEX
  8
LAYER-1
 10
4.668251
 20
6.779080
 30
0.000000
  0
SEQEND
  8
LAYER-1
  0
POLYLINE
  8
LAYER-1
 66
  1
 70
  1
 62
  7
  0
VERTEX
  8
LAYER-1
 10
5.076862
 20
7.196000
 30
0.000000
  0
VERTEX
  8
LAYER-1
 10
5.247001
 20
7.196000
 30
0.000000
  0
VERTEX
  8
LAYER-1
 10
5.247001
 20
6.779080
 30
0.000000
  0
VERTEX
  8
LAYER-1
 10
5.076862
 20
6.779080
 30
0.000000
  0
SEQEND
  8
LAYER-1
  0
POLYLINE
  8
LAYER-1
 66
  1
 70
  1
 62
  7
  0
VERTEX
  8
LAYER-1
 10
5.484606
 20
7.196000
 30
0.000000
  0
VERTEX
  8
LAYER-1
 10
5.654745
 20
7.196000
 30
0.000000
  0
VERTEX
  8
LAYER-1
 10
5.654745
 20
6.779080
 30
0.000000
  0
VERTEX
  8
LAYER-1
 10
5.484606
 20
6.779080
 30
0.000000
  0
SEQEND
  8
LAYER-1
  0
POLYLINE
  8
LAYER-1
 66
  1
 70
  1
 62
  7
  0
VERTEX
  8
LAYER-1
 10
4.057070
 20
6.779502
 30
0.000000
  0
VERTEX
  8
LAYER-1
 10
4.227209
 20
6.779502
 30
0.000000
  0
VERTEX
  8
LAYER-1
 10
4.227209
 20
6.162859
 30
0.000000
  0
VERTEX
  8
LAYER-1
 10
4.057070
 20
6.162859
 30
0.000000
  0
SEQEND
  8
LAYER-1
  0
POLYLINE
  8
LAYER-1
 66
  1
 70
  1
 62
  7
  0
VERTEX
  8
LAYER-1
 10
4.463946
 20
6.779502
 30
0.000000
  0
VERTEX
  8
LAYER-1
 10
4.634085
 20
6.779502
 30
0.000000
  0
VERTEX
  8
LAYER-1
 10
4.634085
 20
6.162859
 30
0.000000
  0
VERTEX
  8
LAYER-1
 10
4.463946
 20
6.162859
 30
0.000000
  0
SEQEND
  8
LAYER-1
  0
POLYLINE
  8
LAYER-1
 66
  1
 70
  1
 62
  7
  0
VERTEX
  8
LAYER-1
 10
4.869954
 20
6.779502
 30
0.000000
  0
VERTEX
  8
LAYER-1
 10
5.040093
 20
6.779502
 30
0.000000
  0
VERTEX
  8
LAYER-1
 10
5.040093
 20
6.162859
 30
0.000000
  0
VERTEX
  8
LAYER-1
 10
4.869954
 20
6.162859
 30
0.000000
  0
SEQEND
  8
LAYER-1
  0
POLYLINE
  8
LAYER-1
 66
  1
 70
  1
 62
  7
  0
VERTEX
  8
LAYER-1
 10
5.280301
 20
6.779502
 30
0.000000
  0
VERTEX
  8
LAYER-1
 10
5.450439
 20
6.779502
 30
0.000000
  0
VERTEX
  8
LAYER-1
 10
5.450439
 20
6.162859
 30
0.000000
  0
VERTEX
  8
LAYER-1
 10
5.280301
 20
6.162859
 30
0.000000
  0
SEQEND
  8
LAYER-1
  0
POLYLINE
  8
LAYER-1
 66
  1
 70
  1
 62
  7
  0
VERTEX
  8
LAYER-1
 10
5.485474
 20
6.162857
 30
0.000000
  0
VERTEX
  8
LAYER-1
 10
5.655613
 20
6.162857
 30
0.000000
  0
VERTEX
  8
LAYER-1
 10
5.655613
 20
5.546213
 30
0.000000
  0
VERTEX
  8
LAYER-1
 10
5.485474
 20
5.546213
 30
0.000000
  0
SEQEND
  8
LAYER-1
  0
POLYLINE
  8
LAYER-1
 66
  1
 70
  1
 62
  7
  0
VERTEX
  8
LAYER-1
 10
5.075994
 20
6.162857
 30
0.000000
  0
VERTEX
  8
LAYER-1
 10
5.246133
 20
6.162857
 30
0.000000
  0
VERTEX
  8
LAYER-1
 10
5.246133
 20
5.546213
 30
0.000000
  0
VERTEX
  8
LAYER-1
 10
5.075994
 20
5.546213
 30
0.000000
  0
SEQEND
  8
LAYER-1
  0
POLYLINE
  8
LAYER-1
 66
  1
 70
  1
 62
  7
  0
VERTEX
  8
LAYER-1
 10
4.667383
 20
6.162857
 30
0.000000
  0
VERTEX
  8
LAYER-1
 10
4.837523
 20
6.162857
 30
0.000000
  0
VERTEX
  8
LAYER-1
 10
4.837523
 20
5.546213
 30
0.000000
  0
VERTEX
  8
LAYER-1
 10
4.667383
 20
5.546213
 30
0.000000
  0
SEQEND
  8
LAYER-1
  0
POLYLINE
  8
LAYER-1
 66
  1
 70
  1
 62
  7
  0
VERTEX
  8
LAYER-1
 10
4.260509
 20
6.162857
 30
0.000000
  0
VERTEX
  8
LAYER-1
 10
4.430648
 20
6.162857
 30
0.000000
  0
VERTEX
  8
LAYER-1
 10
4.430648
 20
5.546213
 30
0.000000
  0
VERTEX
  8
LAYER-1
 10
4.260509
 20
5.546213
 30
0.000000
  0
SEQEND
  8
LAYER-1
  0
POLYLINE
  8
LAYER-1
 66
  1
 70
  1
 62
  7
  0
VERTEX
  8
LAYER-1
 10
3.851896
 20
6.162857
 30
0.000000
  0
VERTEX
  8
LAYER-1
 10
4.022036
 20
6.162857
 30
0.000000
  0
VERTEX
  8
LAYER-1
 10
4.022036
 20
5.546213
 30
0.000000
  0
VERTEX
  8
LAYER-1
 10
3.851896
 20
5.546213
 30
0.000000
  0
SEQEND
  8
LAYER-1
  0
POLYLINE
  8
LAYER-1
 66
  1
 70
  1
 62
  7
  0
VERTEX
  8
LAYER-1
 10
4.057070
 20
5.546482
 30
0.000000
  0
VERTEX
  8
LAYER-1
 10
4.227209
 20
5.546482
 30
0.000000
  0
VERTEX
  8
LAYER-1
 10
4.227209
 20
4.929838
 30
0.000000
  0
VERTEX
  8
LAYER-1
 10
4.057070
 20
4.929838
 30
0.000000
  0
SEQEND
  8
LAYER-1
  0
POLYLINE
  8
LAYER-1
 66
  1
 70
  1
 62
  7
  0
VERTEX
  8
LAYER-1
 10
4.463946
 20
5.546482
 30
0.000000
  0
VERTEX
  8
LAYER-1
 10
4.634085
 20
5.546482
 30
0.000000
  0
VERTEX
  8
LAYER-1
 10
4.634085
 20
4.929838
 30
0.000000
  0
VERTEX
  8
LAYER-1
 10
4.463946
 20
4.929838
 30
0.000000
  0
SEQEND
  8
LAYER-1
  0
POLYLINE
  8
LAYER-1
 66
  1
 70
  1
 62
  7
  0
VERTEX
  8
LAYER-1
 10
4.869954
 20
5.546482
 30
0.000000
  0
VERTEX
  8
LAYER-1
 10
5.040093
 20
5.546482
 30
0.000000
  0
VERTEX
  8
LAYER-1
 10
5.040093
 20
4.929838
 30
0.000000
  0
VERTEX
  8
LAYER-1
 10
4.869954
 20
4.929838
 30
0.000000
  0
SEQEND
  8
LAYER-1
  0
POLYLINE
  8
LAYER-1
 66
  1
 70
  1
 62
  7
  0
VERTEX
  8
LAYER-1
 10
5.280301
 20
5.546482
 30
0.000000
  0
VERTEX
  8
LAYER-1
 10
5.450439
 20
5.546482
 30
0.000000
  0
VERTEX
  8
LAYER-1
 10
5.450439
 20
4.929838
 30
0.000000
  0
VERTEX
  8
LAYER-1
 10
5.280301
 20
4.929838
 30
0.000000
  0
SEQEND
  8
LAYER-1
  0
POLYLINE
  8
LAYER-1
 66
  1
 70
  1
 62
  7
  0
VERTEX
  8
LAYER-1
 10
5.485474
 20
4.929836
 30
0.000000
  0
VERTEX
  8
LAYER-1
 10
5.655613
 20
4.929836
 30
0.000000
  0
VERTEX
  8
LAYER-1
 10
5.655613
 20
4.313193
 30
0.000000
  0
VERTEX
  8
LAYER-1
 10
5.485474
 20
4.313193
 30
0.000000
  0
SEQEND
  8
LAYER-1
  0
POLYLINE
  8
LAYER-1
 66
  1
 70
  1
 62
  7
  0
VERTEX
  8
LAYER-1
 10
5.075126
 20
4.929836
 30
0.000000
  0
VERTEX
  8
LAYER-1
 10
5.245265
 20
4.929836
 30
0.000000
  0
VERTEX
  8
LAYER-1
 10
5.245265
 20
4.313193
 30
0.000000
  0
VERTEX
  8
LAYER-1
 10
5.075126
 20
4.313193
 30
0.000000
  0
SEQEND
  8
LAYER-1
  0
POLYLINE
  8
LAYER-1
 66
  1
 70
  1
 62
  7
  0
VERTEX
  8
LAYER-1
 10
4.667383
 20
4.929836
 30
0.000000
  0
VERTEX
  8
LAYER-1
 10
4.837523
 20
4.929836
 30
0.000000
  0
VERTEX
  8
LAYER-1
 10
4.837523
 20
4.313193
 30
0.000000
  0
VERTEX
  8
LAYER-1
 10
4.667383
 20
4.313193
 30
0.000000
  0
SEQEND
  8
LAYER-1
  0
POLYLINE
  8
LAYER-1
 66
  1
 70
  1
 62
  7
  0
VERTEX
  8
LAYER-1
 10
4.260509
 20
4.929836
 30
0.000000
  0
VERTEX
  8
LAYER-1
 10
4.430648
 20
4.929836
 30
0.000000
  0
VERTEX
  8
LAYER-1
 10
4.430648
 20
4.313193
 30
0.000000
  0
VERTEX
  8
LAYER-1
 10
4.260509
 20
4.313193
 30
0.000000
  0
SEQEND
  8
LAYER-1
  0
POLYLINE
  8
LAYER-1
 66
  1
 70
  1
 62
  7
  0
VERTEX
  8
LAYER-1
 10
3.851896
 20
4.929836
 30
0.000000
  0
VERTEX
  8
LAYER-1
 10
4.022036
 20
4.929836
 30
0.000000
  0
VERTEX
  8
LAYER-1
 10
4.022036
 20
4.313193
 30
0.000000
  0
VERTEX
  8
LAYER-1
 10
3.851896
 20
4.313193
 30
0.000000
  0
SEQEND
  8
LAYER-1
  0
POLYLINE
  8
LAYER-1
 66
  1
 70
  1
 62
  7
  0
VERTEX
  8
LAYER-1
 10
4.057070
 20
4.313461
 30
0.000000
  0
VERTEX
  8
LAYER-1
 10
4.227209
 20
4.313461
 30
0.000000
  0
VERTEX
  8
LAYER-1
 10
4.227209
 20
3.696817
 30
0.000000
  0
VERTEX
  8
LAYER-1
 10
4.057070
 20
3.696817
 30
0.000000
  0
SEQEND
  8
LAYER-1
  0
POLYLINE
  8
LAYER-1
 66
  1
 70
  1
 62
  7
  0
VERTEX
  8
LAYER-1
 10
4.463946
 20
4.313461
 30
0.000000
  0
VERTEX
  8
LAYER-1
 10
4.634085
 20
4.313461
 30
0.000000
  0
VERTEX
  8
LAYER-1
 10
4.634085
 20
3.696817
 30
0.000000
  0
VERTEX
  8
LAYER-1
 10
4.463946
 20
3.696817
 30
0.000000
  0
SEQEND
  8
LAYER-1
  0
POLYLINE
  8
LAYER-1
 66
  1
 70
  1
 62
  7
  0
VERTEX
  8
LAYER-1
 10
4.870822
 20
4.313461
 30
0.000000
  0
VERTEX
  8
LAYER-1
 10
5.040961
 20
4.313461
 30
0.000000
  0
VERTEX
  8
LAYER-1
 10
5.040961
 20
3.696817
 30
0.000000
  0
VERTEX
  8
LAYER-1
 10
4.870822
 20
3.696817
 30
0.000000
  0
SEQEND
  8
LAYER-1
  0
POLYLINE
  8
LAYER-1
 66
  1
 70
  1
 62
  7
  0
VERTEX
  8
LAYER-1
 10
5.280301
 20
4.313461
 30
0.000000
  0
VERTEX
  8
LAYER-1
 10
5.450439
 20
4.313461
 30
0.000000
  0
VERTEX
  8
LAYER-1
 10
5.450439
 20
3.696817
 30
0.000000
  0
VERTEX
  8
LAYER-1
 10
5.280301
 20
3.696817
 30
0.000000
  0
SEQEND
  8
LAYER-1
  0
POLYLINE
  8
LAYER-1
 66
  1
 70
  1
 62
  7
  0
VERTEX
  8
LAYER-1
 10
5.485474
 20
3.696815
 30
0.000000
  0
VERTEX
  8
LAYER-1
 10
5.655613
 20
3.696815
 30
0.000000
  0
VERTEX
  8
LAYER-1
 10
5.655613
 20
3.080172
 30
0.000000
  0
VERTEX
  8
LAYER-1
 10
5.485474
 20
3.080172
 30
0.000000
  0
SEQEND
  8
LAYER-1
  0
POLYLINE
  8
LAYER-1
 66
  1
 70
  1
 62
  7
  0
VERTEX
  8
LAYER-1
 10
5.075994
 20
3.696815
 30
0.000000
  0
VERTEX
  8
LAYER-1
 10
5.246133
 20
3.696815
 30
0.000000
  0
VERTEX
  8
LAYER-1
 10
5.246133
 20
3.080172
 30
0.000000
  0
VERTEX
  8
LAYER-1
 10
5.075994
 20
3.080172
 30
0.000000
  0
SEQEND
  8
LAYER-1
  0
POLYLINE
  8
LAYER-1
 66
  1
 70
  1
 62
  7
  0
VERTEX
  8
LAYER-1
 10
4.667383
 20
3.696815
 30
0.000000
  0
VERTEX
  8
LAYER-1
 10
4.837523
 20
3.696815
 30
0.000000
  0
VERTEX
  8
LAYER-1
 10
4.837523
 20
3.080172
 30
0.000000
  0
VERTEX
  8
LAYER-1
 10
4.667383
 20
3.080172
 30
0.000000
  0
SEQEND
  8
LAYER-1
  0
POLYLINE
  8
LAYER-1
 66
  1
 70
  1
 62
  7
  0
VERTEX
  8
LAYER-1
 10
4.260509
 20
3.696815
 30
0.000000
  0
VERTEX
  8
LAYER-1
 10
4.430648
 20
3.696815
 30
0.000000
  0
VERTEX
  8
LAYER-1
 10
4.430648
 20
3.080172
 30
0.000000
  0
VERTEX
  8
LAYER-1
 10
4.260509
 20
3.080172
 30
0.000000
  0
SEQEND
  8
LAYER-1
  0
POLYLINE
  8
LAYER-1
 66
  1
 70
  1
 62
  7
  0
VERTEX
  8
LAYER-1
 10
3.851896
 20
3.696815
 30
0.000000
  0
VERTEX
  8
LAYER-1
 10
4.022036
 20
3.696815
 30
0.000000
  0
VERTEX
  8
LAYER-1
 10
4.022036
 20
3.080172
 30
0.000000
  0
VERTEX
  8
LAYER-1
 10
3.851896
 20
3.080172
 30
0.000000
  0
SEQEND
  8
LAYER-1
  0
POLYLINE
  8
LAYER-1
 66
  1
 70
  1
 62
  7
  0
VERTEX
  8
LAYER-1
 10
4.057070
 20
3.080439
 30
0.000000
  0
VERTEX
  8
LAYER-1
 10
4.227209
 20
3.080439
 30
0.000000
  0
VERTEX
  8
LAYER-1
 10
4.227209
 20
2.463795
 30
0.000000
  0
VERTEX
  8
LAYER-1
 10
4.057070
 20
2.463795
 30
0.000000
  0
SEQEND
  8
LAYER-1
  0
POLYLINE
  8
LAYER-1
 66
  1
 70
  1
 62
  7
  0
VERTEX
  8
LAYER-1
 10
4.463946
 20
3.080439
 30
0.000000
  0
VERTEX
  8
LAYER-1
 10
4.634085
 20
3.080439
 30
0.000000
  0
VERTEX
  8
LAYER-1
 10
4.634085
 20
2.463795
 30
0.000000
  0
VERTEX
  8
LAYER-1
 10
4.463946
 20
2.463795
 30
0.000000
  0
SEQEND
  8
LAYER-1
  0
POLYLINE
  8
LAYER-1
 66
  1
 70
  1
 62
  7
  0
VERTEX
  8
LAYER-1
 10
4.870822
 20
3.080439
 30
0.000000
  0
VERTEX
  8
LAYER-1
 10
5.040961
 20
3.080439
 30
0.000000
  0
VERTEX
  8
LAYER-1
 10
5.040961
 20
2.463795
 30
0.000000
  0
VERTEX
  8
LAYER-1
 10
4.870822
 20
2.463795
 30
0.000000
  0
SEQEND
  8
LAYER-1
  0
POLYLINE
  8
LAYER-1
 66
  1
 70
  1
 62
  7
  0
VERTEX
  8
LAYER-1
 10
5.280301
 20
3.080439
 30
0.000000
  0
VERTEX
  8
LAYER-1
 10
5.450439
 20
3.080439
 30
0.000000
  0
VERTEX
  8
LAYER-1
 10
5.450439
 20
2.463795
 30
0.000000
  0
VERTEX
  8
LAYER-1
 10
5.280301
 20
2.463795
 30
0.000000
  0
SEQEND
  8
LAYER-1
  0
POLYLINE
  8
LAYER-1
 66
  1
 70
  1
 62
  7
  0
VERTEX
  8
LAYER-1
 10
5.485474
 20
2.463793
 30
0.000000
  0
VERTEX
  8
LAYER-1
 10
5.655613
 20
2.463793
 30
0.000000
  0
VERTEX
  8
LAYER-1
 10
5.655613
 20
1.847149
 30
0.000000
  0
VERTEX
  8
LAYER-1
 10
5.485474
 20
1.847149
 30
0.000000
  0
SEQEND
  8
LAYER-1
  0
POLYLINE
  8
LAYER-1
 66
  1
 70
  1
 62
  7
  0
VERTEX
  8
LAYER-1
 10
5.075994
 20
2.463793
 30
0.000000
  0
VERTEX
  8
LAYER-1
 10
5.246133
 20
2.463793
 30
0.000000
  0
VERTEX
  8
LAYER-1
 10
5.246133
 20
1.847149
 30
0.000000
  0
VERTEX
  8
LAYER-1
 10
5.075994
 20
1.847149
 30
0.000000
  0
SEQEND
  8
LAYER-1
  0
POLYLINE
  8
LAYER-1
 66
  1
 70
  1
 62
  7
  0
VERTEX
  8
LAYER-1
 10
4.667383
 20
2.463793
 30
0.000000
  0
VERTEX
  8
LAYER-1
 10
4.837523
 20
2.463793
 30
0.000000
  0
VERTEX
  8
LAYER-1
 10
4.837523
 20
1.847149
 30
0.000000
  0
VERTEX
  8
LAYER-1
 10
4.667383
 20
1.847149
 30
0.000000
  0
SEQEND
  8
LAYER-1
  0
POLYLINE
  8
LAYER-1
 66
  1
 70
  1
 62
  7
  0
VERTEX
  8
LAYER-1
 10
4.260509
 20
2.463793
 30
0.000000
  0
VERTEX
  8
LAYER-1
 10
4.430648
 20
2.463793
 30
0.000000
  0
VERTEX
  8
LAYER-1
 10
4.430648
 20
1.847149
 30
0.000000
  0
VERTEX
  8
LAYER-1
 10
4.260509
 20
1.847149
 30
0.000000
  0
SEQEND
  8
LAYER-1
  0
POLYLINE
  8
LAYER-1
 66
  1
 70
  1
 62
  7
  0
VERTEX
  8
LAYER-1
 10
3.851896
 20
2.463793
 30
0.000000
  0
VERTEX
  8
LAYER-1
 10
4.022036
 20
2.463793
 30
0.000000
  0
VERTEX
  8
LAYER-1
 10
4.022036
 20
1.847149
 30
0.000000
  0
VERTEX
  8
LAYER-1
 10
3.851896
 20
1.847149
 30
0.000000
  0
SEQEND
  8
LAYER-1
  0
POLYLINE
  8
LAYER-1
 66
  1
 70
  1
 62
  7
  0
VERTEX
  8
LAYER-1
 10
4.057070
 20
1.847419
 30
0.000000
  0
VERTEX
  8
LAYER-1
 10
4.227209
 20
1.847419
 30
0.000000
  0
VERTEX
  8
LAYER-1
 10
4.227209
 20
1.230776
 30
0.000000
  0
VERTEX
  8
LAYER-1
 10
4.057070
 20
1.230776
 30
0.000000
  0
SEQEND
  8
LAYER-1
  0
POLYLINE
  8
LAYER-1
 66
  1
 70
  1
 62
  7
  0
VERTEX
  8
LAYER-1
 10
4.464814
 20
1.847419
 30
0.000000
  0
VERTEX
  8
LAYER-1
 10
4.634953
 20
1.847419
 30
0.000000
  0
VERTEX
  8
LAYER-1
 10
4.634953
 20
1.230776
 30
0.000000
  0
VERTEX
  8
LAYER-1
 10
4.464814
 20
1.230776
 30
0.000000
  0
SEQEND
  8
LAYER-1
  0
POLYLINE
  8
LAYER-1
 66
  1
 70
  1
 62
  7
  0
VERTEX
  8
LAYER-1
 10
4.870822
 20
1.847419
 30
0.000000
  0
VERTEX
  8
LAYER-1
 10
5.040961
 20
1.847419
 30
0.000000
  0
VERTEX
  8
LAYER-1
 10
5.040961
 20
1.230776
 30
0.000000
  0
VERTEX
  8
LAYER-1
 10
4.870822
 20
1.230776
 30
0.000000
  0
SEQEND
  8
LAYER-1
  0
POLYLINE
  8
LAYER-1
 66
  1
 70
  1
 62
  7
  0
VERTEX
  8
LAYER-1
 10
5.280301
 20
1.847419
 30
0.000000
  0
VERTEX
  8
LAYER-1
 10
5.450439
 20
1.847419
 30
0.000000
  0
VERTEX
  8
LAYER-1
 10
5.450439
 20
1.230776
 30
0.000000
  0
VERTEX
  8
LAYER-1
 10
5.280301
 20
1.230776
 30
0.000000
  0
SEQEND
  8
LAYER-1
  0
POLYLINE
  8
LAYER-1
 66
  1
 70
  1
 62
  7
  0
VERTEX
  8
LAYER-1
 10
5.485474
 20
1.230773
 30
0.000000
  0
VERTEX
  8
LAYER-1
 10
5.655613
 20
1.230773
 30
0.000000
  0
VERTEX
  8
LAYER-1
 10
5.655613
 20
0.614132
 30
0.000000
  0
VERTEX
  8
LAYER-1
 10
5.485474
 20
0.614132
 30
0.000000
  0
SEQEND
  8
LAYER-1
  0
POLYLINE
  8
LAYER-1
 66
  1
 70
  1
 62
  7
  0
VERTEX
  8
LAYER-1
 10
5.075994
 20
1.230773
 30
0.000000
  0
VERTEX
  8
LAYER-1
 10
5.246133
 20
1.230773
 30
0.000000
  0
VERTEX
  8
LAYER-1
 10
5.246133
 20
0.614132
 30
0.000000
  0
VERTEX
  8
LAYER-1
 10
5.075994
 20
0.614132
 30
0.000000
  0
SEQEND
  8
LAYER-1
  0
POLYLINE
  8
LAYER-1
 66
  1
 70
  1
 62
  7
  0
VERTEX
  8
LAYER-1
 10
4.667383
 20
1.230773
 30
0.000000
  0
VERTEX
  8
LAYER-1
 10
4.837523
 20
1.230773
 30
0.000000
  0
VERTEX
  8
LAYER-1
 10
4.837523
 20
0.614132
 30
0.000000
  0
VERTEX
  8
LAYER-1
 10
4.667383
 20
0.614132
 30
0.000000
  0
SEQEND
  8
LAYER-1
  0
POLYLINE
  8
LAYER-1
 66
  1
 70
  1
 62
  7
  0
VERTEX
  8
LAYER-1
 10
4.261377
 20
1.230773
 30
0.000000
  0
VERTEX
  8
LAYER-1
 10
4.431516
 20
1.230773
 30
0.000000
  0
VERTEX
  8
LAYER-1
 10
4.431516
 20
0.614132
 30
0.000000
  0
VERTEX
  8
LAYER-1
 10
4.261377
 20
0.614132
 30
0.000000
  0
SEQEND
  8
LAYER-1
  0
POLYLINE
  8
LAYER-1
 66
  1
 70
  1
 62
  7
  0
VERTEX
  8
LAYER-1
 10
3.851896
 20
1.230773
 30
0.000000
  0
VERTEX
  8
LAYER-1
 10
4.022036
 20
1.230773
 30
0.000000
  0
VERTEX
  8
LAYER-1
 10
4.022036
 20
0.614132
 30
0.000000
  0
VERTEX
  8
LAYER-1
 10
3.851896
 20
0.614132
 30
0.000000
  0
SEQEND
  8
LAYER-1
  0
POLYLINE
  8
LAYER-1
 66
  1
 70
  1
 62
  7
  0
VERTEX
  8
LAYER-1
 10
1.805021
 20
7.196309
 30
0.000000
  0
VERTEX
  8
LAYER-1
 10
1.975160
 20
7.196309
 30
0.000000
  0
VERTEX
  8
LAYER-1
 10
1.975160
 20
6.779388
 30
0.000000
  0
VERTEX
  8
LAYER-1
 10
1.805021
 20
6.779388
 30
0.000000
  0
SEQEND
  8
LAYER-1
  0
POLYLINE
  8
LAYER-1
 66
  1
 70
  1
 62
  7
  0
VERTEX
  8
LAYER-1
 10
2.214501
 20
7.196309
 30
0.000000
  0
VERTEX
  8
LAYER-1
 10
2.384640
 20
7.196309
 30
0.000000
  0
VERTEX
  8
LAYER-1
 10
2.384640
 20
6.779388
 30
0.000000
  0
VERTEX
  8
LAYER-1
 10
2.214501
 20
6.779388
 30
0.000000
  0
SEQEND
  8
LAYER-1
  0
POLYLINE
  8
LAYER-1
 66
  1
 70
  1
 62
  7
  0
VERTEX
  8
LAYER-1
 10
2.623980
 20
7.196309
 30
0.000000
  0
VERTEX
  8
LAYER-1
 10
2.794119
 20
7.196309
 30
0.000000
  0
VERTEX
  8
LAYER-1
 10
2.794119
 20
6.779388
 30
0.000000
  0
VERTEX
  8
LAYER-1
 10
2.623980
 20
6.779388
 30
0.000000
  0
SEQEND
  8
LAYER-1
  0
POLYLINE
  8
LAYER-1
 66
  1
 70
  1
 62
  7
  0
VERTEX
  8
LAYER-1
 10
3.029987
 20
7.196309
 30
0.000000
  0
VERTEX
  8
LAYER-1
 10
3.200126
 20
7.196309
 30
0.000000
  0
VERTEX
  8
LAYER-1
 10
3.200126
 20
6.779388
 30
0.000000
  0
VERTEX
  8
LAYER-1
 10
3.029987
 20
6.779388
 30
0.000000
  0
SEQEND
  8
LAYER-1
  0
POLYLINE
  8
LAYER-1
 66
  1
 70
  1
 62
  7
  0
VERTEX
  8
LAYER-1
 10
3.437731
 20
7.196309
 30
0.000000
  0
VERTEX
  8
LAYER-1
 10
3.607869
 20
7.196309
 30
0.000000
  0
VERTEX
  8
LAYER-1
 10
3.607869
 20
6.779388
 30
0.000000
  0
VERTEX
  8
LAYER-1
 10
3.437731
 20
6.779388
 30
0.000000
  0
SEQEND
  8
LAYER-1
  0
POLYLINE
  8
LAYER-1
 66
  1
 70
  1
 62
  7
  0
VERTEX
  8
LAYER-1
 10
3.233425
 20
6.779811
 30
0.000000
  0
VERTEX
  8
LAYER-1
 10
3.403564
 20
6.779811
 30
0.000000
  0
VERTEX
  8
LAYER-1
 10
3.403564
 20
6.163167
 30
0.000000
  0
VERTEX
  8
LAYER-1
 10
3.233425
 20
6.163167
 30
0.000000
  0
SEQEND
  8
LAYER-1
  0
POLYLINE
  8
LAYER-1
 66
  1
 70
  1
 62
  7
  0
VERTEX
  8
LAYER-1
 10
2.827418
 20
6.779811
 30
0.000000
  0
VERTEX
  8
LAYER-1
 10
2.997557
 20
6.779811
 30
0.000000
  0
VERTEX
  8
LAYER-1
 10
2.997557
 20
6.163167
 30
0.000000
  0
VERTEX
  8
LAYER-1
 10
2.827418
 20
6.163167
 30
0.000000
  0
SEQEND
  8
LAYER-1
  0
POLYLINE
  8
LAYER-1
 66
  1
 70
  1
 62
  7
  0
VERTEX
  8
LAYER-1
 10
2.419675
 20
6.779811
 30
0.000000
  0
VERTEX
  8
LAYER-1
 10
2.589813
 20
6.779811
 30
0.000000
  0
VERTEX
  8
LAYER-1
 10
2.589813
 20
6.163167
 30
0.000000
  0
VERTEX
  8
LAYER-1
 10
2.419675
 20
6.163167
 30
0.000000
  0
SEQEND
  8
LAYER-1
  0
POLYLINE
  8
LAYER-1
 66
  1
 70
  1
 62
  7
  0
VERTEX
  8
LAYER-1
 10
2.011063
 20
6.779811
 30
0.000000
  0
VERTEX
  8
LAYER-1
 10
2.181202
 20
6.779811
 30
0.000000
  0
VERTEX
  8
LAYER-1
 10
2.181202
 20
6.163167
 30
0.000000
  0
VERTEX
  8
LAYER-1
 10
2.011063
 20
6.163167
 30
0.000000
  0
SEQEND
  8
LAYER-1
  0
POLYLINE
  8
LAYER-1
 66
  1
 70
  1
 62
  7
  0
VERTEX
  8
LAYER-1
 10
1.805021
 20
6.163165
 30
0.000000
  0
VERTEX
  8
LAYER-1
 10
1.975160
 20
6.163165
 30
0.000000
  0
VERTEX
  8
LAYER-1
 10
1.975160
 20
5.546522
 30
0.000000
  0
VERTEX
  8
LAYER-1
 10
1.805021
 20
5.546522
 30
0.000000
  0
SEQEND
  8
LAYER-1
  0
POLYLINE
  8
LAYER-1
 66
  1
 70
  1
 62
  7
  0
VERTEX
  8
LAYER-1
 10
2.214501
 20
6.163165
 30
0.000000
  0
VERTEX
  8
LAYER-1
 10
2.384640
 20
6.163165
 30
0.000000
  0
VERTEX
  8
LAYER-1
 10
2.384640
 20
5.546522
 30
0.000000
  0
VERTEX
  8
LAYER-1
 10
2.214501
 20
5.546522
 30
0.000000
  0
SEQEND
  8
LAYER-1
  0
POLYLINE
  8
LAYER-1
 66
  1
 70
  1
 62
  7
  0
VERTEX
  8
LAYER-1
 10
2.623980
 20
6.163165
 30
0.000000
  0
VERTEX
  8
LAYER-1
 10
2.794119
 20
6.163165
 30
0.000000
  0
VERTEX
  8
LAYER-1
 10
2.794119
 20
5.546522
 30
0.000000
  0
VERTEX
  8
LAYER-1
 10
2.623980
 20
5.546522
 30
0.000000
  0
SEQEND
  8
LAYER-1
  0
POLYLINE
  8
LAYER-1
 66
  1
 70
  1
 62
  7
  0
VERTEX
  8
LAYER-1
 10
3.029987
 20
6.163165
 30
0.000000
  0
VERTEX
  8
LAYER-1
 10
3.200126
 20
6.163165
 30
0.000000
  0
VERTEX
  8
LAYER-1
 10
3.200126
 20
5.546522
 30
0.000000
  0
VERTEX
  8
LAYER-1
 10
3.029987
 20
5.546522
 30
0.000000
  0
SEQEND
  8
LAYER-1
  0
POLYLINE
  8
LAYER-1
 66
  1
 70
  1
 62
  7
  0
VERTEX
  8
LAYER-1
 10
3.437731
 20
6.163165
 30
0.000000
  0
VERTEX
  8
LAYER-1
 10
3.607869
 20
6.163165
 30
0.000000
  0
VERTEX
  8
LAYER-1
 10
3.607869
 20
5.546522
 30
0.000000
  0
VERTEX
  8
LAYER-1
 10
3.437731
 20
5.546522
 30
0.000000
  0
SEQEND
  8
LAYER-1
  0
POLYLINE
  8
LAYER-1
 66
  1
 70
  1
 62
  7
  0
VERTEX
  8
LAYER-1
 10
3.233425
 20
5.546789
 30
0.000000
  0
VERTEX
  8
LAYER-1
 10
3.403564
 20
5.546789
 30
0.000000
  0
VERTEX
  8
LAYER-1
 10
3.403564
 20
4.930146
 30
0.000000
  0
VERTEX
  8
LAYER-1
 10
3.233425
 20
4.930146
 30
0.000000
  0
SEQEND
  8
LAYER-1
  0
POLYLINE
  8
LAYER-1
 66
  1
 70
  1
 62
  7
  0
VERTEX
  8
LAYER-1
 10
2.827418
 20
5.546789
 30
0.000000
  0
VERTEX
  8
LAYER-1
 10
2.997557
 20
5.546789
 30
0.000000
  0
VERTEX
  8
LAYER-1
 10
2.997557
 20
4.930146
 30
0.000000
  0
VERTEX
  8
LAYER-1
 10
2.827418
 20
4.930146
 30
0.000000
  0
SEQEND
  8
LAYER-1
  0
POLYLINE
  8
LAYER-1
 66
  1
 70
  1
 62
  7
  0
VERTEX
  8
LAYER-1
 10
2.419675
 20
5.546789
 30
0.000000
  0
VERTEX
  8
LAYER-1
 10
2.589813
 20
5.546789
 30
0.000000
  0
VERTEX
  8
LAYER-1
 10
2.589813
 20
4.930146
 30
0.000000
  0
VERTEX
  8
LAYER-1
 10
2.419675
 20
4.930146
 30
0.000000
  0
SEQEND
  8
LAYER-1
  0
POLYLINE
  8
LAYER-1
 66
  1
 70
  1
 62
  7
  0
VERTEX
  8
LAYER-1
 10
2.011063
 20
5.546789
 30
0.000000
  0
VERTEX
  8
LAYER-1
 10
2.181202
 20
5.546789
 30
0.000000
  0
VERTEX
  8
LAYER-1
 10
2.181202
 20
4.930146
 30
0.000000
  0
VERTEX
  8
LAYER-1
 10
2.011063
 20
4.930146
 30
0.000000
  0
SEQEND
  8
LAYER-1
  0
POLYLINE
  8
LAYER-1
 66
  1
 70
  1
 62
  7
  0
VERTEX
  8
LAYER-1
 10
1.805021
 20
4.930144
 30
0.000000
  0
VERTEX
  8
LAYER-1
 10
1.975160
 20
4.930144
 30
0.000000
  0
VERTEX
  8
LAYER-1
 10
1.975160
 20
4.313501
 30
0.000000
  0
VERTEX
  8
LAYER-1
 10
1.805021
 20
4.313501
 30
0.000000
  0
SEQEND
  8
LAYER-1
  0
POLYLINE
  8
LAYER-1
 66
  1
 70
  1
 62
  7
  0
VERTEX
  8
LAYER-1
 10
2.214501
 20
4.930144
 30
0.000000
  0
VERTEX
  8
LAYER-1
 10
2.384640
 20
4.930144
 30
0.000000
  0
VERTEX
  8
LAYER-1
 10
2.384640
 20
4.313501
 30
0.000000
  0
VERTEX
  8
LAYER-1
 10
2.214501
 20
4.313501
 30
0.000000
  0
SEQEND
  8
LAYER-1
  0
POLYLINE
  8
LAYER-1
 66
  1
 70
  1
 62
  7
  0
VERTEX
  8
LAYER-1
 10
2.623980
 20
4.930144
 30
0.000000
  0
VERTEX
  8
LAYER-1
 10
2.794119
 20
4.930144
 30
0.000000
  0
VERTEX
  8
LAYER-1
 10
2.794119
 20
4.313501
 30
0.000000
  0
VERTEX
  8
LAYER-1
 10
2.623980
 20
4.313501
 30
0.000000
  0
SEQEND
  8
LAYER-1
  0
POLYLINE
  8
LAYER-1
 66
  1
 70
  1
 62
  7
  0
VERTEX
  8
LAYER-1
 10
3.029987
 20
4.930144
 30
0.000000
  0
VERTEX
  8
LAYER-1
 10
3.200126
 20
4.930144
 30
0.000000
  0
VERTEX
  8
LAYER-1
 10
3.200126
 20
4.313501
 30
0.000000
  0
VERTEX
  8
LAYER-1
 10
3.029987
 20
4.313501
 30
0.000000
  0
SEQEND
  8
LAYER-1
  0
POLYLINE
  8
LAYER-1
 66
  1
 70
  1
 62
  7
  0
VERTEX
  8
LAYER-1
 10
3.437731
 20
4.930144
 30
0.000000
  0
VERTEX
  8
LAYER-1
 10
3.607869
 20
4.930144
 30
0.000000
  0
VERTEX
  8
LAYER-1
 10
3.607869
 20
4.313501
 30
0.000000
  0
VERTEX
  8
LAYER-1
 10
3.437731
 20
4.313501
 30
0.000000
  0
SEQEND
  8
LAYER-1
  0
POLYLINE
  8
LAYER-1
 66
  1
 70
  1
 62
  7
  0
VERTEX
  8
LAYER-1
 10
3.233425
 20
4.313769
 30
0.000000
  0
VERTEX
  8
LAYER-1
 10
3.403564
 20
4.313769
 30
0.000000
  0
VERTEX
  8
LAYER-1
 10
3.403564
 20
3.697126
 30
0.000000
  0
VERTEX
  8
LAYER-1
 10
3.233425
 20
3.697126
 30
0.000000
  0
SEQEND
  8
LAYER-1
  0
POLYLINE
  8
LAYER-1
 66
  1
 70
  1
 62
  7
  0
VERTEX
  8
LAYER-1
 10
2.827418
 20
4.313769
 30
0.000000
  0
VERTEX
  8
LAYER-1
 10
2.997557
 20
4.313769
 30
0.000000
  0
VERTEX
  8
LAYER-1
 10
2.997557
 20
3.697126
 30
0.000000
  0
VERTEX
  8
LAYER-1
 10
2.827418
 20
3.697126
 30
0.000000
  0
SEQEND
  8
LAYER-1
  0
POLYLINE
  8
LAYER-1
 66
  1
 70
  1
 62
  7
  0
VERTEX
  8
LAYER-1
 10
2.419675
 20
4.313769
 30
0.000000
  0
VERTEX
  8
LAYER-1
 10
2.589813
 20
4.313769
 30
0.000000
  0
VERTEX
  8
LAYER-1
 10
2.589813
 20
3.697126
 30
0.000000
  0
VERTEX
  8
LAYER-1
 10
2.419675
 20
3.697126
 30
0.000000
  0
SEQEND
  8
LAYER-1
  0
POLYLINE
  8
LAYER-1
 66
  1
 70
  1
 62
  7
  0
VERTEX
  8
LAYER-1
 10
2.011063
 20
4.313769
 30
0.000000
  0
VERTEX
  8
LAYER-1
 10
2.181202
 20
4.313769
 30
0.000000
  0
VERTEX
  8
LAYER-1
 10
2.181202
 20
3.697126
 30
0.000000
  0
VERTEX
  8
LAYER-1
 10
2.011063
 20
3.697126
 30
0.000000
  0
SEQEND
  8
LAYER-1
  0
POLYLINE
  8
LAYER-1
 66
  1
 70
  1
 62
  7
  0
VERTEX
  8
LAYER-1
 10
1.805021
 20
3.697124
 30
0.000000
  0
VERTEX
  8
LAYER-1
 10
1.975160
 20
3.697124
 30
0.000000
  0
VERTEX
  8
LAYER-1
 10
1.975160
 20
3.080481
 30
0.000000
  0
VERTEX
  8
LAYER-1
 10
1.805021
 20
3.080481
 30
0.000000
  0
SEQEND
  8
LAYER-1
  0
POLYLINE
  8
LAYER-1
 66
  1
 70
  1
 62
  7
  0
VERTEX
  8
LAYER-1
 10
2.214501
 20
3.697124
 30
0.000000
  0
VERTEX
  8
LAYER-1
 10
2.384640
 20
3.697124
 30
0.000000
  0
VERTEX
  8
LAYER-1
 10
2.384640
 20
3.080481
 30
0.000000
  0
VERTEX
  8
LAYER-1
 10
2.214501
 20
3.080481
 30
0.000000
  0
SEQEND
  8
LAYER-1
  0
POLYLINE
  8
LAYER-1
 66
  1
 70
  1
 62
  7
  0
VERTEX
  8
LAYER-1
 10
2.623980
 20
3.697124
 30
0.000000
  0
VERTEX
  8
LAYER-1
 10
2.794119
 20
3.697124
 30
0.000000
  0
VERTEX
  8
LAYER-1
 10
2.794119
 20
3.080481
 30
0.000000
  0
VERTEX
  8
LAYER-1
 10
2.623980
 20
3.080481
 30
0.000000
  0
SEQEND
  8
LAYER-1
  0
POLYLINE
  8
LAYER-1
 66
  1
 70
  1
 62
  7
  0
VERTEX
  8
LAYER-1
 10
3.029987
 20
3.697124
 30
0.000000
  0
VERTEX
  8
LAYER-1
 10
3.200126
 20
3.697124
 30
0.000000
  0
VERTEX
  8
LAYER-1
 10
3.200126
 20
3.080481
 30
0.000000
  0
VERTEX
  8
LAYER-1
 10
3.029987
 20
3.080481
 30
0.000000
  0
SEQEND
  8
LAYER-1
  0
POLYLINE
  8
LAYER-1
 66
  1
 70
  1
 62
  7
  0
VERTEX
  8
LAYER-1
 10
3.437731
 20
3.697124
 30
0.000000
  0
VERTEX
  8
LAYER-1
 10
3.607869
 20
3.697124
 30
0.000000
  0
VERTEX
  8
LAYER-1
 10
3.607869
 20
3.080481
 30
0.000000
  0
VERTEX
  8
LAYER-1
 10
3.437731
 20
3.080481
 30
0.000000
  0
SEQEND
  8
LAYER-1
  0
POLYLINE
  8
LAYER-1
 66
  1
 70
  1
 62
  7
  0
VERTEX
  8
LAYER-1
 10
2.011063
 20
3.080747
 30
0.000000
  0
VERTEX
  8
LAYER-1
 10
2.181202
 20
3.080747
 30
0.000000
  0
VERTEX
  8
LAYER-1
 10
2.181202
 20
2.464104
 30
0.000000
  0
VERTEX
  8
LAYER-1
 10
2.011063
 20
2.464104
 30
0.000000
  0
SEQEND
  8
LAYER-1
  0
POLYLINE
  8
LAYER-1
 66
  1
 70
  1
 62
  7
  0
VERTEX
  8
LAYER-1
 10
2.419675
 20
3.080747
 30
0.000000
  0
VERTEX
  8
LAYER-1
 10
2.589813
 20
3.080747
 30
0.000000
  0
VERTEX
  8
LAYER-1
 10
2.589813
 20
2.464104
 30
0.000000
  0
VERTEX
  8
LAYER-1
 10
2.419675
 20
2.464104
 30
0.000000
  0
SEQEND
  8
LAYER-1
  0
POLYLINE
  8
LAYER-1
 66
  1
 70
  1
 62
  7
  0
VERTEX
  8
LAYER-1
 10
2.827418
 20
3.080747
 30
0.000000
  0
VERTEX
  8
LAYER-1
 10
2.997557
 20
3.080747
 30
0.000000
  0
VERTEX
  8
LAYER-1
 10
2.997557
 20
2.464104
 30
0.000000
  0
VERTEX
  8
LAYER-1
 10
2.827418
 20
2.464104
 30
0.000000
  0
SEQEND
  8
LAYER-1
  0
POLYLINE
  8
LAYER-1
 66
  1
 70
  1
 62
  7
  0
VERTEX
  8
LAYER-1
 10
3.233425
 20
3.080747
 30
0.000000
  0
VERTEX
  8
LAYER-1
 10
3.403564
 20
3.080747
 30
0.000000
  0
VERTEX
  8
LAYER-1
 10
3.403564
 20
2.464104
 30
0.000000
  0
VERTEX
  8
LAYER-1
 10
3.233425
 20
2.464104
 30
0.000000
  0
SEQEND
  8
LAYER-1
  0
POLYLINE
  8
LAYER-1
 66
  1
 70
  1
 62
  7
  0
VERTEX
  8
LAYER-1
 10
3.437731
 20
2.464102
 30
0.000000
  0
VERTEX
  8
LAYER-1
 10
3.607869
 20
2.464102
 30
0.000000
  0
VERTEX
  8
LAYER-1
 10
3.607869
 20
1.847458
 30
0.000000
  0
VERTEX
  8
LAYER-1
 10
3.437731
 20
1.847458
 30
0.000000
  0
SEQEND
  8
LAYER-1
  0
POLYLINE
  8
LAYER-1
 66
  1
 70
  1
 62
  7
  0
VERTEX
  8
LAYER-1
 10
3.029987
 20
2.464102
 30
0.000000
  0
VERTEX
  8
LAYER-1
 10
3.200126
 20
2.464102
 30
0.000000
  0
VERTEX
  8
LAYER-1
 10
3.200126
 20
1.847458
 30
0.000000
  0
VERTEX
  8
LAYER-1
 10
3.029987
 20
1.847458
 30
0.000000
  0
SEQEND
  8
LAYER-1
  0
POLYLINE
  8
LAYER-1
 66
  1
 70
  1
 62
  7
  0
VERTEX
  8
LAYER-1
 10
2.623980
 20
2.464102
 30
0.000000
  0
VERTEX
  8
LAYER-1
 10
2.794119
 20
2.464102
 30
0.000000
  0
VERTEX
  8
LAYER-1
 10
2.794119
 20
1.847458
 30
0.000000
  0
VERTEX
  8
LAYER-1
 10
2.623980
 20
1.847458
 30
0.000000
  0
SEQEND
  8
LAYER-1
  0
POLYLINE
  8
LAYER-1
 66
  1
 70
  1
 62
  7
  0
VERTEX
  8
LAYER-1
 10
2.214501
 20
2.464102
 30
0.000000
  0
VERTEX
  8
LAYER-1
 10
2.384640
 20
2.464102
 30
0.000000
  0
VERTEX
  8
LAYER-1
 10
2.384640
 20
1.847458
 30
0.000000
  0
VERTEX
  8
LAYER-1
 10
2.214501
 20
1.847458
 30
0.000000
  0
SEQEND
  8
LAYER-1
  0
POLYLINE
  8
LAYER-1
 66
  1
 70
  1
 62
  7
  0
VERTEX
  8
LAYER-1
 10
1.805021
 20
2.464102
 30
0.000000
  0
VERTEX
  8
LAYER-1
 10
1.975160
 20
2.464102
 30
0.000000
  0
VERTEX
  8
LAYER-1
 10
1.975160
 20
1.847458
 30
0.000000
  0
VERTEX
  8
LAYER-1
 10
1.805021
 20
1.847458
 30
0.000000
  0
SEQEND
  8
LAYER-1
  0
POLYLINE
  8
LAYER-1
 66
  1
 70
  1
 62
  7
  0
VERTEX
  8
LAYER-1
 10
3.233425
 20
1.847727
 30
0.000000
  0
VERTEX
  8
LAYER-1
 10
3.403564
 20
1.847727
 30
0.000000
  0
VERTEX
  8
LAYER-1
 10
3.403564
 20
1.231084
 30
0.000000
  0
VERTEX
  8
LAYER-1
 10
3.233425
 20
1.231084
 30
0.000000
  0
SEQEND
  8
LAYER-1
  0
POLYLINE
  8
LAYER-1
 66
  1
 70
  1
 62
  7
  0
VERTEX
  8
LAYER-1
 10
2.827418
 20
1.847727
 30
0.000000
  0
VERTEX
  8
LAYER-1
 10
2.997557
 20
1.847727
 30
0.000000
  0
VERTEX
  8
LAYER-1
 10
2.997557
 20
1.231084
 30
0.000000
  0
VERTEX
  8
LAYER-1
 10
2.827418
 20
1.231084
 30
0.000000
  0
SEQEND
  8
LAYER-1
  0
POLYLINE
  8
LAYER-1
 66
  1
 70
  1
 62
  7
  0
VERTEX
  8
LAYER-1
 10
2.419675
 20
1.847727
 30
0.000000
  0
VERTEX
  8
LAYER-1
 10
2.589813
 20
1.847727
 30
0.000000
  0
VERTEX
  8
LAYER-1
 10
2.589813
 20
1.231084
 30
0.000000
  0
VERTEX
  8
LAYER-1
 10
2.419675
 20
1.231084
 30
0.000000
  0
SEQEND
  8
LAYER-1
  0
POLYLINE
  8
LAYER-1
 66
  1
 70
  1
 62
  7
  0
VERTEX
  8
LAYER-1
 10
2.011063
 20
1.847727
 30
0.000000
  0
VERTEX
  8
LAYER-1
 10
2.181202
 20
1.847727
 30
0.000000
  0
VERTEX
  8
LAYER-1
 10
2.181202
 20
1.231084
 30
0.000000
  0
VERTEX
  8
LAYER-1
 10
2.011063
 20
1.231084
 30
0.000000
  0
SEQEND
  8
LAYER-1
  0
POLYLINE
  8
LAYER-1
 66
  1
 70
  1
 62
  7
  0
VERTEX
  8
LAYER-1
 10
2.214501
 20
1.231082
 30
0.000000
  0
VERTEX
  8
LAYER-1
 10
2.384640
 20
1.231082
 30
0.000000
  0
VERTEX
  8
LAYER-1
 10
2.384640
 20
0.614439
 30
0.000000
  0
VERTEX
  8
LAYER-1
 10
2.214501
 20
0.614439
 30
0.000000
  0
SEQEND
  8
LAYER-1
  0
POLYLINE
  8
LAYER-1
 66
  1
 70
  1
 62
  7
  0
VERTEX
  8
LAYER-1
 10
2.623980
 20
1.231082
 30
0.000000
  0
VERTEX
  8
LAYER-1
 10
2.794119
 20
1.231082
 30
0.000000
  0
VERTEX
  8
LAYER-1
 10
2.794119
 20
0.614439
 30
0.000000
  0
VERTEX
  8
LAYER-1
 10
2.623980
 20
0.614439
 30
0.000000
  0
SEQEND
  8
LAYER-1
  0
POLYLINE
  8
LAYER-1
 66
  1
 70
  1
 62
  7
  0
VERTEX
  8
LAYER-1
 10
3.029987
 20
1.231082
 30
0.000000
  0
VERTEX
  8
LAYER-1
 10
3.200126
 20
1.231082
 30
0.000000
  0
VERTEX
  8
LAYER-1
 10
3.200126
 20
0.614439
 30
0.000000
  0
VERTEX
  8
LAYER-1
 10
3.029987
 20
0.614439
 30
0.000000
  0
SEQEND
  8
LAYER-1
  0
POLYLINE
  8
LAYER-1
 66
  1
 70
  1
 62
  7
  0
VERTEX
  8
LAYER-1
 10
3.437731
 20
1.231082
 30
0.000000
  0
VERTEX
  8
LAYER-1
 10
3.607869
 20
1.231082
 30
0.000000
  0
VERTEX
  8
LAYER-1
 10
3.607869
 20
0.614439
 30
0.000000
  0
VERTEX
  8
LAYER-1
 10
3.437731
 20
0.614439
 30
0.000000
  0
SEQEND
  8
LAYER-1
  0
POLYLINE
  8
LAYER-1
 66
  1
 70
  1
 62
  7
  0
VERTEX
  8
LAYER-1
 10
1.805021
 20
1.231082
 30
0.000000
  0
VERTEX
  8
LAYER-1
 10
1.975160
 20
1.231082
 30
0.000000
  0
VERTEX
  8
LAYER-1
 10
1.975160
 20
0.614439
 30
0.000000
  0
VERTEX
  8
LAYER-1
 10
1.805021
 20
0.614439
 30
0.000000
  0
SEQEND
  8
LAYER-1
  0
POLYLINE
  8
LAYER-1
 66
  1
 70
  1
 62
  0
  0
VERTEX
  8
LAYER-1
 10
4.021520
 20
7.196317
 30
0.000000
  0
VERTEX
  8
LAYER-1
 10
4.057471
 20
7.196317
 30
0.000000
  0
VERTEX
  8
LAYER-1
 10
4.057471
 20
0.614655
 30
0.000000
  0
VERTEX
  8
LAYER-1
 10
4.021520
 20
0.614655
 30
0.000000
  0
SEQEND
  8
LAYER-1
  0
POLYLINE
  8
LAYER-1
 66
  1
 70
  1
 62
  0
  0
VERTEX
  8
LAYER-1
 10
4.428916
 20
7.196317
 30
0.000000
  0
VERTEX
  8
LAYER-1
 10
4.464867
 20
7.196317
 30
0.000000
  0
VERTEX
  8
LAYER-1
 10
4.464867
 20
0.612803
 30
0.000000
  0
VERTEX
  8
LAYER-1
 10
4.428916
 20
0.612803
 30
0.000000
  0
SEQEND
  8
LAYER-1
  0
POLYLINE
  8
LAYER-1
 66
  1
 70
  1
 62
  0
  0
VERTEX
  8
LAYER-1
 10
4.835444
 20
7.196317
 30
0.000000
  0
VERTEX
  8
LAYER-1
 10
4.871395
 20
7.196317
 30
0.000000
  0
VERTEX
  8
LAYER-1
 10
4.871395
 20
0.614068
 30
0.000000
  0
VERTEX
  8
LAYER-1
 10
4.835444
 20
0.614068
 30
0.000000
  0
SEQEND
  8
LAYER-1
  0
POLYLINE
  8
LAYER-1
 66
  1
 70
  1
 62
  0
  0
VERTEX
  8
LAYER-1
 10
5.245444
 20
7.196317
 30
0.000000
  0
VERTEX
  8
LAYER-1
 10
5.281395
 20
7.196317
 30
0.000000
  0
VERTEX
  8
LAYER-1
 10
5.281395
 20
0.613480
 30
0.000000
  0
VERTEX
  8
LAYER-1
 10
5.245444
 20
0.613480
 30
0.000000
  0
SEQEND
  8
LAYER-1
  0
POLYLINE
  8
LAYER-1
 66
  1
 70
  1
 62
  0
  0
VERTEX
  8
LAYER-1
 10
5.655879
 20
7.196317
 30
0.000000
  0
VERTEX
  8
LAYER-1
 10
5.691829
 20
7.196317
 30
0.000000
  0
VERTEX
  8
LAYER-1
 10
5.691829
 20
0.613201
 30
0.000000
  0
VERTEX
  8
LAYER-1
 10
5.655879
 20
0.613201
 30
0.000000
  0
SEQEND
  8
LAYER-1
  0
POLYLINE
  8
LAYER-1
 66
  1
 70
  1
 62
  0
  0
VERTEX
  8
LAYER-1
 10
3.402284
 20
7.196521
 30
0.000000
  0
VERTEX
  8
LAYER-1
 10
3.438235
 20
7.196521
 30
0.000000
  0
VERTEX
  8
LAYER-1
 10
3.438235
 20
0.614505
 30
0.000000
  0
VERTEX
  8
LAYER-1
 10
3.402284
 20
0.614505
 30
0.000000
  0
SEQEND
  8
LAYER-1
  0
POLYLINE
  8
LAYER-1
 66
  1
 70
  1
 62
  0
  0
VERTEX
  8
LAYER-1
 10
2.995756
 20
7.196521
 30
0.000000
  0
VERTEX
  8
LAYER-1
 10
3.031707
 20
7.196521
 30
0.000000
  0
VERTEX
  8
LAYER-1
 10
3.031707
 20
0.614950
 30
0.000000
  0
VERTEX
  8
LAYER-1
 10
2.995756
 20
0.614950
 30
0.000000
  0
SEQEND
  8
LAYER-1
  0
POLYLINE
  8
LAYER-1
 66
  1
 70
  1
 62
  0
  0
VERTEX
  8
LAYER-1
 10
2.588360
 20
7.196521
 30
0.000000
  0
VERTEX
  8
LAYER-1
 10
2.624311
 20
7.196521
 30
0.000000
  0
VERTEX
  8
LAYER-1
 10
2.624311
 20
0.613612
 30
0.000000
  0
VERTEX
  8
LAYER-1
 10
2.588360
 20
0.613612
 30
0.000000
  0
SEQEND
  8
LAYER-1
  0
POLYLINE
  8
LAYER-1
 66
  1
 70
  1
 62
  0
  0
VERTEX
  8
LAYER-1
 10
2.179228
 20
7.196521
 30
0.000000
  0
VERTEX
  8
LAYER-1
 10
2.215178
 20
7.196521
 30
0.000000
  0
VERTEX
  8
LAYER-1
 10
2.215178
 20
0.615422
 30
0.000000
  0
VERTEX
  8
LAYER-1
 10
2.179228
 20
0.615422
 30
0.000000
  0
SEQEND
  8
LAYER-1
  0
POLYLINE
  8
LAYER-1
 66
  1
 70
  1
 62
  0
  0
VERTEX
  8
LAYER-1
 10
1.768794
 20
7.196521
 30
0.000000
  0
VERTEX
  8
LAYER-1
 10
1.804744
 20
7.196521
 30
0.000000
  0
VERTEX
  8
LAYER-1
 10
1.804744
 20
0.614480
 30
0.000000
  0
VERTEX
  8
LAYER-1
 10
1.768794
 20
0.614480
 30
0.000000
  0
SEQEND
  8
LAYER-1
  0
POLYLINE
  8
LAYER-1
 66
  1
 70
  1
 62
  0
  0
VERTEX
  8
LAYER-1
 10
3.607422
 20
7.196510
 30
0.000000
  0
VERTEX
  8
LAYER-1
 10
3.643373
 20
7.196510
 30
0.000000
  0
VERTEX
  8
LAYER-1
 10
3.643373
 20
0.612828
 30
0.000000
  0
VERTEX
  8
LAYER-1
 10
3.607422
 20
0.612828
 30
0.000000
  0
SEQEND
  8
LAYER-1
  0
POLYLINE
  8
LAYER-1
 66
  1
 70
  1
 62
  0
  0
VERTEX
  8
LAYER-1
 10
3.199158
 20
7.196510
 30
0.000000
  0
VERTEX
  8
LAYER-1
 10
3.235109
 20
7.196510
 30
0.000000
  0
VERTEX
  8
LAYER-1
 10
3.235109
 20
0.612828
 30
0.000000
  0
VERTEX
  8
LAYER-1
 10
3.199158
 20
0.612828
 30
0.000000
  0
SEQEND
  8
LAYER-1
  0
POLYLINE
  8
LAYER-1
 66
  1
 70
  1
 62
  0
  0
VERTEX
  8
LAYER-1
 10
2.792630
 20
7.196510
 30
0.000000
  0
VERTEX
  8
LAYER-1
 10
2.828581
 20
7.196510
 30
0.000000
  0
VERTEX
  8
LAYER-1
 10
2.828581
 20
0.612828
 30
0.000000
  0
VERTEX
  8
LAYER-1
 10
2.792630
 20
0.612828
 30
0.000000
  0
SEQEND
  8
LAYER-1
  0
POLYLINE
  8
LAYER-1
 66
  1
 70
  1
 62
  0
  0
VERTEX
  8
LAYER-1
 10
2.384366
 20
7.196510
 30
0.000000
  0
VERTEX
  8
LAYER-1
 10
2.420316
 20
7.196510
 30
0.000000
  0
VERTEX
  8
LAYER-1
 10
2.420316
 20
0.612828
 30
0.000000
  0
VERTEX
  8
LAYER-1
 10
2.384366
 20
0.612828
 30
0.000000
  0
SEQEND
  8
LAYER-1
  0
POLYLINE
  8
LAYER-1
 66
  1
 70
  1
 62
  0
  0
VERTEX
  8
LAYER-1
 10
1.974799
 20
7.196510
 30
0.000000
  0
VERTEX
  8
LAYER-1
 10
2.010750
 20
7.196510
 30
0.000000
  0
VERTEX
  8
LAYER-1
 10
2.010750
 20
0.612828
 30
0.000000
  0
VERTEX
  8
LAYER-1
 10
1.974799
 20
0.612828
 30
0.000000
  0
SEQEND
  8
LAYER-1
  0
POLYLINE
  8
LAYER-1
 66
  1
 70
  1
 62
  0
 10
3.645939
 20
0.342022
 30
0.000000
  0
VERTEX
  8
LAYER-1
 10
3.645939
 20
0.342022
 30
0.000000
  0
VERTEX
  8
LAYER-1
 10
1.750021
 20
0.342123
 30
0.000000
  0
VERTEX
  8
LAYER-1
 10
1.750021
 20
0.613657
 30
0.000000
  0
VERTEX
  8
LAYER-1
 10
3.645939
 20
0.613773
 30
0.000000
  0
SEQEND
  8
LAYER-1
  0
POLYLINE
  8
LAYER-1
 66
  1
 70
  0
 62
  0
 10
3.646158
 20
0.409930
 30
0.000000
  0
VERTEX
  8
LAYER-1
 10
3.646158
 20
0.409930
 30
0.000000
  0
VERTEX
  8
LAYER-1
 10
3.606432
 20
0.409930
 30
0.000000
  0
SEQEND
  8
LAYER-1
  0
POLYLINE
  8
LAYER-1
 66
  1
 70
  0
 62
  0
 10
3.646158
 20
0.539840
 30
0.000000
  0
VERTEX
  8
LAYER-1
 10
3.646158
 20
0.539840
 30
0.000000
  0
VERTEX
  8
LAYER-1
 10
3.606432
 20
0.539840
 30
0.000000
  0
SEQEND
  8
LAYER-1
  0
POLYLINE
  8
LAYER-1
 66
  1
 70
  0
 62
  0
 10
3.607802
 20
0.336878
 30
0.000000
  0
VERTEX
  8
LAYER-1
 10
3.607802
 20
0.336878
 30
0.000000
  0
VERTEX
  8
LAYER-1
 10
3.620974
 20
0.329831
 30
0.000000
  0
VERTEX
  8
LAYER-1
 10
3.638054
 20
0.334162
 30
0.000000
  0
VERTEX
  8
LAYER-1
 10
3.644706
 20
0.336877
 30
0.000000
  0
SEQEND
  8
LAYER-1
  0
POLYLINE
  8
LAYER-1
 66
  1
 70
  1
 62
  0
  0
VERTEX
  8
LAYER-1
 10
3.651909
 20
0.336255
 30
0.000000
  0
VERTEX
  8
LAYER-1
 10
3.597294
 20
0.336255
 30
0.000000
  0
VERTEX
  8
LAYER-1
 10
3.597294
 20
0.342160
 30
0.000000
  0
VERTEX
  8
LAYER-1
 10
3.651909
 20
0.342160
 30
0.000000
  0
SEQEND
  8
LAYER-1
  0
POLYLINE
  8
LAYER-1
 66
  1
 70
  1
 62
  0
 10
3.645733
 20
7.468142
 30
0.000000
  0
VERTEX
  8
LAYER-1
 10
3.645733
 20
7.468142
 30
0.000000
  0
VERTEX
  8
LAYER-1
 10
1.749381
 20
7.468041
 30
0.000000
  0
VERTEX
  8
LAYER-1
 10
1.749381
 20
7.196508
 30
0.000000
  0
VERTEX
  8
LAYER-1
 10
3.645733
 20
7.196392
 30
0.000000
  0
SEQEND
  8
LAYER-1
  0
POLYLINE
  8
LAYER-1
 66
  1
 70
  0
 62
  0
 10
3.384444
 20
7.468141
 30
0.000000
  0
VERTEX
  8
LAYER-1
 10
3.384444
 20
7.468141
 30
0.000000
  0
VERTEX
  8
LAYER-1
 10
3.384444
 20
7.196509
 30
0.000000
  0
SEQEND
  8
LAYER-1
  0
POLYLINE
  8
LAYER-1
 66
  1
 70
  0
 62
  0
 10
3.053947
 20
7.196509
 30
0.000000
  0
VERTEX
  8
LAYER-1
 10
3.053947
 20
7.196509
 30
0.000000
  0
VERTEX
  8
LAYER-1
 10
3.053947
 20
7.468141
 30
0.000000
  0
SEQEND
  8
LAYER-1
  0
POLYLINE
  8
LAYER-1
 66
  1
 70
  0
 62
  0
 10
2.241115
 20
7.196510
 30
0.000000
  0
VERTEX
  8
LAYER-1
 10
2.241115
 20
7.196510
 30
0.000000
  0
VERTEX
  8
LAYER-1
 10
2.241115
 20
7.468141
 30
0.000000
  0
SEQEND
  8
LAYER-1
  0
POLYLINE
  8
LAYER-1
 66
  1
 70
  0
 62
  0
 10
2.422283
 20
7.468181
 30
0.000000
  0
VERTEX
  8
LAYER-1
 10
2.422283
 20
7.468181
 30
0.000000
  0
VERTEX
  8
LAYER-1
 10
2.422283
 20
7.196553
 30
0.000000
  0
SEQEND
  8
LAYER-1
  0
POLYLINE
  8
LAYER-1
 66
  1
 70
  0
 62
  0
 10
2.382424
 20
7.468181
 30
0.000000
  0
VERTEX
  8
LAYER-1
 10
2.382424
 20
7.468181
 30
0.000000
  0
VERTEX
  8
LAYER-1
 10
2.382424
 20
7.196553
 30
0.000000
  0
SEQEND
  8
LAYER-1
  0
POLYLINE
  8
LAYER-1
 66
  1
 70
  0
 62
  0
 10
3.236301
 20
7.468181
 30
0.000000
  0
VERTEX
  8
LAYER-1
 10
3.236301
 20
7.468181
 30
0.000000
  0
VERTEX
  8
LAYER-1
 10
3.236301
 20
7.196553
 30
0.000000
  0
SEQEND
  8
LAYER-1
  0
POLYLINE
  8
LAYER-1
 66
  1
 70
  0
 62
  0
 10
3.197484
 20
7.468181
 30
0.000000
  0
VERTEX
  8
LAYER-1
 10
3.197484
 20
7.468181
 30
0.000000
  0
VERTEX
  8
LAYER-1
 10
3.197484
 20
7.196553
 30
0.000000
  0
SEQEND
  8
LAYER-1
  0
POLYLINE
  8
LAYER-1
 66
  1
 70
  0
 62
  0
 10
2.969624
 20
7.468141
 30
0.000000
  0
VERTEX
  8
LAYER-1
 10
2.969624
 20
7.468141
 30
0.000000
  0
VERTEX
  8
LAYER-1
 10
2.969624
 20
7.196510
 30
0.000000
  0
SEQEND
  8
LAYER-1
  0
POLYLINE
  8
LAYER-1
 66
  1
 70
  0
 62
  0
 10
2.156794
 20
7.468141
 30
0.000000
  0
VERTEX
  8
LAYER-1
 10
2.156794
 20
7.468141
 30
0.000000
  0
VERTEX
  8
LAYER-1
 10
2.156794
 20
7.196510
 30
0.000000
  0
SEQEND
  8
LAYER-1
  0
POLYLINE
  8
LAYER-1
 66
  1
 70
  0
 62
  0
 10
2.011889
 20
7.467747
 30
0.000000
  0
VERTEX
  8
LAYER-1
 10
2.011889
 20
7.467747
 30
0.000000
  0
VERTEX
  8
LAYER-1
 10
2.011889
 20
7.196119
 30
0.000000
  0
SEQEND
  8
LAYER-1
  0
POLYLINE
  8
LAYER-1
 66
  1
 70
  0
 62
  0
 10
1.973506
 20
7.467747
 30
0.000000
  0
VERTEX
  8
LAYER-1
 10
1.973506
 20
7.467747
 30
0.000000
  0
VERTEX
  8
LAYER-1
 10
1.973506
 20
7.196119
 30
0.000000
  0
SEQEND
  8
LAYER-1
  0
POLYLINE
  8
LAYER-1
 66
  1
 70
  0
 62
  0
 10
2.829727
 20
7.468217
 30
0.000000
  0
VERTEX
  8
LAYER-1
 10
2.829727
 20
7.468217
 30
0.000000
  0
VERTEX
  8
LAYER-1
 10
2.829727
 20
7.196588
 30
0.000000
  0
SEQEND
  8
LAYER-1
  0
POLYLINE
  8
LAYER-1
 66
  1
 70
  0
 62
  0
 10
2.791344
 20
7.468217
 30
0.000000
  0
VERTEX
  8
LAYER-1
 10
2.791344
 20
7.468217
 30
0.000000
  0
VERTEX
  8
LAYER-1
 10
2.791344
 20
7.196588
 30
0.000000
  0
SEQEND
  8
LAYER-1
  0
POLYLINE
  8
LAYER-1
 66
  1
 70
  0
 62
  0
 10
3.456778
 20
7.196514
 30
0.000000
  0
VERTEX
  8
LAYER-1
 10
3.456778
 20
7.196514
 30
0.000000
  0
VERTEX
  8
LAYER-1
 10
3.456778
 20
7.468142
 30
0.000000
  0
SEQEND
  8
LAYER-1
  0
POLYLINE
  8
LAYER-1
 66
  1
 70
  0
 62
  0
 10
3.421348
 20
7.468142
 30
0.000000
  0
VERTEX
  8
LAYER-1
 10
3.421348
 20
7.468142
 30
0.000000
  0
VERTEX
  8
LAYER-1
 10
3.421348
 20
7.196512
 30
0.000000
  0
SEQEND
  8
LAYER-1
  0
POLYLINE
  8
LAYER-1
 66
  1
 70
  0
 62
  0
 10
3.455874
 20
7.468143
 30
0.000000
  0
VERTEX
  8
LAYER-1
 10
3.455874
 20
7.468143
 30
0.000000
  0
VERTEX
  8
LAYER-1
 10
3.441998
 20
7.479080
 30
0.000000
  0
VERTEX
  8
LAYER-1
 10
3.427234
 20
7.477002
 30
0.000000
  0
VERTEX
  8
LAYER-1
 10
3.422319
 20
7.468154
 30
0.000000
  0
SEQEND
  8
LAYER-1
  0
POLYLINE
  8
LAYER-1
 66
  1
 70
  0
 62
  0
 10
3.421348
 20
7.468143
 30
0.000000
  0
VERTEX
  8
LAYER-1
 10
3.421348
 20
7.468143
 30
0.000000
  0
VERTEX
  8
LAYER-1
 10
3.404240
 20
7.479126
 30
0.000000
  0
VERTEX
  8
LAYER-1
 10
3.387160
 20
7.474794
 30
0.000000
  0
VERTEX
  8
LAYER-1
 10
3.384445
 20
7.468141
 30
0.000000
  0
SEQEND
  8
LAYER-1
  0
POLYLINE
  8
LAYER-1
 66
  1
 70
  0
 62
  0
 10
3.005793
 20
7.467649
 30
0.000000
  0
VERTEX
  8
LAYER-1
 10
3.005793
 20
7.467649
 30
0.000000
  0
VERTEX
  8
LAYER-1
 10
2.986288
 20
7.477641
 30
0.000000
  0
VERTEX
  8
LAYER-1
 10
2.968215
 20
7.470915
 30
0.000000
  0
VERTEX
  8
LAYER-1
 10
2.968885
 20
7.467648
 30
0.000000
  0
SEQEND
  8
LAYER-1
  0
POLYLINE
  8
LAYER-1
 66
  1
 70
  0
 62
  0
 10
2.192834
 20
7.468118
 30
0.000000
  0
VERTEX
  8
LAYER-1
 10
2.192834
 20
7.468118
 30
0.000000
  0
VERTEX
  8
LAYER-1
 10
2.173330
 20
7.478110
 30
0.000000
  0
VERTEX
  8
LAYER-1
 10
2.155256
 20
7.471385
 30
0.000000
  0
VERTEX
  8
LAYER-1
 10
2.155927
 20
7.468118
 30
0.000000
  0
SEQEND
  8
LAYER-1
  0
POLYLINE
  8
LAYER-1
 66
  1
 70
  0
 62
  0
 10
3.053502
 20
7.467650
 30
0.000000
  0
VERTEX
  8
LAYER-1
 10
3.053502
 20
7.467650
 30
0.000000
  0
VERTEX
  8
LAYER-1
 10
3.033998
 20
7.477642
 30
0.000000
  0
VERTEX
  8
LAYER-1
 10
3.015924
 20
7.470915
 30
0.000000
  0
VERTEX
  8
LAYER-1
 10
3.016594
 20
7.467649
 30
0.000000
  0
SEQEND
  8
LAYER-1
  0
POLYLINE
  8
LAYER-1
 66
  1
 70
  0
 62
  0
 10
3.031559
 20
7.468208
 30
0.000000
  0
VERTEX
  8
LAYER-1
 10
3.031559
 20
7.468208
 30
0.000000
  0
VERTEX
  8
LAYER-1
 10
3.020808
 20
7.481213
 30
0.000000
  0
VERTEX
  8
LAYER-1
 10
3.006792
 20
7.482807
 30
0.000000
  0
VERTEX
  8
LAYER-1
 10
2.995756
 20
7.474024
 30
0.000000
  0
VERTEX
  8
LAYER-1
 10
2.996131
 20
7.468208
 30
0.000000
  0
SEQEND
  8
LAYER-1
  0
POLYLINE
  8
LAYER-1
 66
  1
 70
  0
 62
  0
 10
3.031559
 20
7.468208
 30
0.000000
  0
VERTEX
  8
LAYER-1
 10
3.031559
 20
7.468208
 30
0.000000
  0
VERTEX
  8
LAYER-1
 10
2.996130
 20
7.468208
 30
0.000000
  0
SEQEND
  8
LAYER-1
  0
POLYLINE
  8
LAYER-1
 66
  1
 70
  0
 62
  0
 10
2.241485
 20
7.468119
 30
0.000000
  0
VERTEX
  8
LAYER-1
 10
2.241485
 20
7.468119
 30
0.000000
  0
VERTEX
  8
LAYER-1
 10
2.221980
 20
7.478111
 30
0.000000
  0
VERTEX
  8
LAYER-1
 10
2.203907
 20
7.471386
 30
0.000000
  0
VERTEX
  8
LAYER-1
 10
2.204577
 20
7.468118
 30
0.000000
  0
SEQEND
  8
LAYER-1
  0
POLYLINE
  8
LAYER-1
 66
  1
 70
  0
 62
  0
 10
2.215312
 20
7.468208
 30
0.000000
  0
VERTEX
  8
LAYER-1
 10
2.215312
 20
7.468208
 30
0.000000
  0
VERTEX
  8
LAYER-1
 10
2.204560
 20
7.481213
 30
0.000000
  0
VERTEX
  8
LAYER-1
 10
2.190545
 20
7.482807
 30
0.000000
  0
VERTEX
  8
LAYER-1
 10
2.179508
 20
7.474024
 30
0.000000
  0
VERTEX
  8
LAYER-1
 10
2.179884
 20
7.468208
 30
0.000000
  0
SEQEND
  8
LAYER-1
  0
POLYLINE
  8
LAYER-1
 66
  1
 70
  0
 62
  0
 10
2.215312
 20
7.468208
 30
0.000000
  0
VERTEX
  8
LAYER-1
 10
2.215312
 20
7.468208
 30
0.000000
  0
VERTEX
  8
LAYER-1
 10
2.179884
 20
7.468208
 30
0.000000
  0
SEQEND
  8
LAYER-1
  0
POLYLINE
  8
LAYER-1
 66
  1
 70
  0
 62
  0
 10
3.422624
 20
7.195926
 30
0.000000
  0
VERTEX
  8
LAYER-1
 10
3.422624
 20
7.195926
 30
0.000000
  0
VERTEX
  8
LAYER-1
 10
3.432860
 20
7.189332
 30
0.000000
  0
VERTEX
  8
LAYER-1
 10
3.447545
 20
7.191906
 30
0.000000
  0
VERTEX
  8
LAYER-1
 10
3.455844
 20
7.196487
 30
0.000000
  0
SEQEND
  8
LAYER-1
  0
POLYLINE
  8
LAYER-1
 66
  1
 70
  0
 62
  0
 10
3.422625
 20
7.195926
 30
0.000000
  0
VERTEX
  8
LAYER-1
 10
3.422625
 20
7.195926
 30
0.000000
  0
VERTEX
  8
LAYER-1
 10
3.455844
 20
7.196487
 30
0.000000
  0
SEQEND
  8
LAYER-1
  0
POLYLINE
  8
LAYER-1
 66
  1
 70
  0
 62
  0
 10
3.383512
 20
7.196487
 30
0.000000
  0
VERTEX
  8
LAYER-1
 10
3.383512
 20
7.196487
 30
0.000000
  0
VERTEX
  8
LAYER-1
 10
3.396683
 20
7.189440
 30
0.000000
  0
VERTEX
  8
LAYER-1
 10
3.413763
 20
7.193771
 30
0.000000
  0
VERTEX
  8
LAYER-1
 10
3.420416
 20
7.196487
 30
0.000000
  0
SEQEND
  8
LAYER-1
  0
POLYLINE
  8
LAYER-1
 66
  1
 70
  0
 62
  0
 10
3.383512
 20
7.196487
 30
0.000000
  0
VERTEX
  8
LAYER-1
 10
3.383512
 20
7.196487
 30
0.000000
  0
VERTEX
  8
LAYER-1
 10
3.420415
 20
7.196487
 30
0.000000
  0
SEQEND
  8
LAYER-1
  0
POLYLINE
  8
LAYER-1
 66
  1
 70
  0
 62
  0
 10
3.016668
 20
7.196041
 30
0.000000
  0
VERTEX
  8
LAYER-1
 10
3.016668
 20
7.196041
 30
0.000000
  0
VERTEX
  8
LAYER-1
 10
3.032235
 20
7.189985
 30
0.000000
  0
VERTEX
  8
LAYER-1
 10
3.050309
 20
7.196711
 30
0.000000
  0
VERTEX
  8
LAYER-1
 10
3.053576
 20
7.196040
 30
0.000000
  0
SEQEND
  8
LAYER-1
  0
POLYLINE
  8
LAYER-1
 66
  1
 70
  0
 62
  0
 10
2.969428
 20
7.196041
 30
0.000000
  0
VERTEX
  8
LAYER-1
 10
2.969428
 20
7.196041
 30
0.000000
  0
VERTEX
  8
LAYER-1
 10
2.984995
 20
7.189985
 30
0.000000
  0
VERTEX
  8
LAYER-1
 10
3.003068
 20
7.196711
 30
0.000000
  0
VERTEX
  8
LAYER-1
 10
3.006335
 20
7.196040
 30
0.000000
  0
SEQEND
  8
LAYER-1
  0
POLYLINE
  8
LAYER-1
 66
  1
 70
  0
 62
  0
 10
2.996673
 20
7.195951
 30
0.000000
  0
VERTEX
  8
LAYER-1
 10
2.996673
 20
7.195951
 30
0.000000
  0
VERTEX
  8
LAYER-1
 10
3.003488
 20
7.186883
 30
0.000000
  0
VERTEX
  8
LAYER-1
 10
3.017503
 20
7.185289
 30
0.000000
  0
VERTEX
  8
LAYER-1
 10
3.028540
 20
7.194072
 30
0.000000
  0
VERTEX
  8
LAYER-1
 10
3.032102
 20
7.195951
 30
0.000000
  0
SEQEND
  8
LAYER-1
  0
POLYLINE
  8
LAYER-1
 66
  1
 70
  0
 62
  0
 10
3.032102
 20
7.195951
 30
0.000000
  0
VERTEX
  8
LAYER-1
 10
3.032102
 20
7.195951
 30
0.000000
  0
VERTEX
  8
LAYER-1
 10
2.996673
 20
7.195951
 30
0.000000
  0
SEQEND
  8
LAYER-1
  0
POLYLINE
  8
LAYER-1
 66
  1
 70
  0
 62
  0
 10
2.204114
 20
7.196041
 30
0.000000
  0
VERTEX
  8
LAYER-1
 10
2.204114
 20
7.196041
 30
0.000000
  0
VERTEX
  8
LAYER-1
 10
2.219681
 20
7.189985
 30
0.000000
  0
VERTEX
  8
LAYER-1
 10
2.237754
 20
7.196711
 30
0.000000
  0
VERTEX
  8
LAYER-1
 10
2.241021
 20
7.196040
 30
0.000000
  0
SEQEND
  8
LAYER-1
  0
POLYLINE
  8
LAYER-1
 66
  1
 70
  0
 62
  0
 10
2.155934
 20
7.196041
 30
0.000000
  0
VERTEX
  8
LAYER-1
 10
2.155934
 20
7.196041
 30
0.000000
  0
VERTEX
  8
LAYER-1
 10
2.171501
 20
7.189985
 30
0.000000
  0
VERTEX
  8
LAYER-1
 10
2.189574
 20
7.196711
 30
0.000000
  0
VERTEX
  8
LAYER-1
 10
2.192841
 20
7.196040
 30
0.000000
  0
SEQEND
  8
LAYER-1
  0
POLYLINE
  8
LAYER-1
 66
  1
 70
  0
 62
  0
 10
2.179889
 20
7.195951
 30
0.000000
  0
VERTEX
  8
LAYER-1
 10
2.179889
 20
7.195951
 30
0.000000
  0
VERTEX
  8
LAYER-1
 10
2.186704
 20
7.186883
 30
0.000000
  0
VERTEX
  8
LAYER-1
 10
2.200720
 20
7.185289
 30
0.000000
  0
VERTEX
  8
LAYER-1
 10
2.211756
 20
7.194072
 30
0.000000
  0
VERTEX
  8
LAYER-1
 10
2.215318
 20
7.195951
 30
0.000000
  0
SEQEND
  8
LAYER-1
  0
POLYLINE
  8
LAYER-1
 66
  1
 70
  0
 62
  0
 10
2.215318
 20
7.195951
 30
0.000000
  0
VERTEX
  8
LAYER-1
 10
2.215318
 20
7.195951
 30
0.000000
  0
VERTEX
  8
LAYER-1
 10
2.179890
 20
7.195951
 30
0.000000
  0
SEQEND
  8
LAYER-1
  0
POLYLINE
  8
LAYER-1
 66
  1
 70
  1
 62
  0
  0
VERTEX
  8
LAYER-1
 10
2.996129
 20
7.468141
 30
0.000000
  0
VERTEX
  8
LAYER-1
 10
3.031559
 20
7.468141
 30
0.000000
  0
VERTEX
  8
LAYER-1
 10
3.031559
 20
7.196513
 30
0.000000
  0
VERTEX
  8
LAYER-1
 10
2.996129
 20
7.196513
 30
0.000000
  0
SEQEND
  8
LAYER-1
  0
POLYLINE
  8
LAYER-1
 66
  1
 70
  1
 62
  0
  0
VERTEX
  8
LAYER-1
 10
2.179815
 20
7.468141
 30
0.000000
  0
VERTEX
  8
LAYER-1
 10
2.215246
 20
7.468141
 30
0.000000
  0
VERTEX
  8
LAYER-1
 10
2.215246
 20
7.196513
 30
0.000000
  0
VERTEX
  8
LAYER-1
 10
2.179815
 20
7.196513
 30
0.000000
  0
SEQEND
  8
LAYER-1
  0
POLYLINE
  8
LAYER-1
 66
  1
 70
  0
 62
  0
 10
3.031559
 20
7.400235
 30
0.000000
  0
VERTEX
  8
LAYER-1
 10
3.031559
 20
7.400235
 30
0.000000
  0
VERTEX
  8
LAYER-1
 10
2.996129
 20
7.400235
 30
0.000000
  0
SEQEND
  8
LAYER-1
  0
POLYLINE
  8
LAYER-1
 66
  1
 70
  0
 62
  0
 10
3.031559
 20
7.270326
 30
0.000000
  0
VERTEX
  8
LAYER-1
 10
3.031559
 20
7.270326
 30
0.000000
  0
VERTEX
  8
LAYER-1
 10
2.996129
 20
7.270326
 30
0.000000
  0
SEQEND
  8
LAYER-1
  0
POLYLINE
  8
LAYER-1
 66
  1
 70
  0
 62
  0
 10
2.215246
 20
7.400235
 30
0.000000
  0
VERTEX
  8
LAYER-1
 10
2.215246
 20
7.400235
 30
0.000000
  0
VERTEX
  8
LAYER-1
 10
2.179817
 20
7.400235
 30
0.000000
  0
SEQEND
  8
LAYER-1
  0
POLYLINE
  8
LAYER-1
 66
  1
 70
  0
 62
  0
 10
2.215246
 20
7.270325
 30
0.000000
  0
VERTEX
  8
LAYER-1
 10
2.215246
 20
7.270325
 30
0.000000
  0
VERTEX
  8
LAYER-1
 10
2.179817
 20
7.270325
 30
0.000000
  0
SEQEND
  8
LAYER-1
  0
POLYLINE
  8
LAYER-1
 66
  1
 70
  0
 62
  0
 10
3.233891
 20
7.467699
 30
0.000000
  0
VERTEX
  8
LAYER-1
 10
3.233891
 20
7.467699
 30
0.000000
  0
VERTEX
  8
LAYER-1
 10
3.220014
 20
7.478636
 30
0.000000
  0
VERTEX
  8
LAYER-1
 10
3.205251
 20
7.476557
 30
0.000000
  0
VERTEX
  8
LAYER-1
 10
3.200672
 20
7.468258
 30
0.000000
  0
SEQEND
  8
LAYER-1
  0
POLYLINE
  8
LAYER-1
 66
  1
 70
  0
 62
  0
 10
2.420397
 20
7.468080
 30
0.000000
  0
VERTEX
  8
LAYER-1
 10
2.420397
 20
7.468080
 30
0.000000
  0
VERTEX
  8
LAYER-1
 10
2.403289
 20
7.479063
 30
0.000000
  0
VERTEX
  8
LAYER-1
 10
2.386209
 20
7.474732
 30
0.000000
  0
VERTEX
  8
LAYER-1
 10
2.383493
 20
7.468080
 30
0.000000
  0
SEQEND
  8
LAYER-1
  0
POLYLINE
  8
LAYER-1
 66
  1
 70
  0
 62
  0
 10
2.607593
 20
7.195924
 30
0.000000
  0
VERTEX
  8
LAYER-1
 10
2.607593
 20
7.195924
 30
0.000000
  0
VERTEX
  8
LAYER-1
 10
2.617829
 20
7.189329
 30
0.000000
  0
VERTEX
  8
LAYER-1
 10
2.632513
 20
7.191905
 30
0.000000
  0
VERTEX
  8
LAYER-1
 10
2.640813
 20
7.196484
 30
0.000000
  0
SEQEND
  8
LAYER-1
  0
POLYLINE
  8
LAYER-1
 66
  1
 70
  0
 62
  0
 10
2.607593
 20
7.195924
 30
0.000000
  0
VERTEX
  8
LAYER-1
 10
2.607593
 20
7.195924
 30
0.000000
  0
VERTEX
  8
LAYER-1
 10
2.640812
 20
7.196484
 30
0.000000
  0
SEQEND
  8
LAYER-1
  0
POLYLINE
  8
LAYER-1
 66
  1
 70
  0
 62
  0
 10
2.568480
 20
7.196485
 30
0.000000
  0
VERTEX
  8
LAYER-1
 10
2.568480
 20
7.196485
 30
0.000000
  0
VERTEX
  8
LAYER-1
 10
2.581651
 20
7.189438
 30
0.000000
  0
VERTEX
  8
LAYER-1
 10
2.598732
 20
7.193769
 30
0.000000
  0
VERTEX
  8
LAYER-1
 10
2.605384
 20
7.196484
 30
0.000000
  0
SEQEND
  8
LAYER-1
  0
POLYLINE
  8
LAYER-1
 66
  1
 70
  0
 62
  0
 10
2.568481
 20
7.196485
 30
0.000000
  0
VERTEX
  8
LAYER-1
 10
2.568481
 20
7.196485
 30
0.000000
  0
VERTEX
  8
LAYER-1
 10
2.605384
 20
7.196484
 30
0.000000
  0
SEQEND
  8
LAYER-1
  0
POLYLINE
  8
LAYER-1
 66
  1
 70
  0
 62
  0
 10
2.569652
 20
7.468141
 30
0.000000
  0
VERTEX
  8
LAYER-1
 10
2.569652
 20
7.468141
 30
0.000000
  0
VERTEX
  8
LAYER-1
 10
2.569652
 20
7.196509
 30
0.000000
  0
SEQEND
  8
LAYER-1
  0
POLYLINE
  8
LAYER-1
 66
  1
 70
  0
 62
  0
 10
2.641986
 20
7.196514
 30
0.000000
  0
VERTEX
  8
LAYER-1
 10
2.641986
 20
7.196514
 30
0.000000
  0
VERTEX
  8
LAYER-1
 10
2.641986
 20
7.468142
 30
0.000000
  0
SEQEND
  8
LAYER-1
  0
POLYLINE
  8
LAYER-1
 66
  1
 70
  0
 62
  0
 10
2.606556
 20
7.468142
 30
0.000000
  0
VERTEX
  8
LAYER-1
 10
2.606556
 20
7.468142
 30
0.000000
  0
VERTEX
  8
LAYER-1
 10
2.606556
 20
7.196512
 30
0.000000
  0
SEQEND
  8
LAYER-1
  0
POLYLINE
  8
LAYER-1
 66
  1
 70
  0
 62
  0
 10
2.641681
 20
7.468001
 30
0.000000
  0
VERTEX
  8
LAYER-1
 10
2.641681
 20
7.468001
 30
0.000000
  0
VERTEX
  8
LAYER-1
 10
2.627804
 20
7.478939
 30
0.000000
  0
VERTEX
  8
LAYER-1
 10
2.613041
 20
7.476861
 30
0.000000
  0
VERTEX
  8
LAYER-1
 10
2.608461
 20
7.468561
 30
0.000000
  0
SEQEND
  8
LAYER-1
  0
POLYLINE
  8
LAYER-1
 66
  1
 70
  0
 62
  0
 10
2.608462
 20
7.468561
 30
0.000000
  0
VERTEX
  8
LAYER-1
 10
2.608462
 20
7.468561
 30
0.000000
  0
VERTEX
  8
LAYER-1
 10
2.641681
 20
7.468001
 30
0.000000
  0
SEQEND
  8
LAYER-1
  0
POLYLINE
  8
LAYER-1
 66
  1
 70
  0
 62
  0
 10
2.606253
 20
7.468001
 30
0.000000
  0
VERTEX
  8
LAYER-1
 10
2.606253
 20
7.468001
 30
0.000000
  0
VERTEX
  8
LAYER-1
 10
2.589144
 20
7.478984
 30
0.000000
  0
VERTEX
  8
LAYER-1
 10
2.572064
 20
7.474653
 30
0.000000
  0
VERTEX
  8
LAYER-1
 10
2.569349
 20
7.468000
 30
0.000000
  0
SEQEND
  8
LAYER-1
  0
POLYLINE
  8
LAYER-1
 66
  1
 70
  0
 62
  0
 10
2.569349
 20
7.468000
 30
0.000000
  0
VERTEX
  8
LAYER-1
 10
2.569349
 20
7.468000
 30
0.000000
  0
VERTEX
  8
LAYER-1
 10
2.606252
 20
7.468001
 30
0.000000
  0
SEQEND
  8
LAYER-1
  0
POLYLINE
  8
LAYER-1
 66
  1
 70
  0
 62
  0
 10
1.787593
 20
7.195924
 30
0.000000
  0
VERTEX
  8
LAYER-1
 10
1.787593
 20
7.195924
 30
0.000000
  0
VERTEX
  8
LAYER-1
 10
1.797829
 20
7.189329
 30
0.000000
  0
VERTEX
  8
LAYER-1
 10
1.812513
 20
7.191905
 30
0.000000
  0
VERTEX
  8
LAYER-1
 10
1.820813
 20
7.196484
 30
0.000000
  0
SEQEND
  8
LAYER-1
  0
POLYLINE
  8
LAYER-1
 66
  1
 70
  0
 62
  0
 10
1.787593
 20
7.195924
 30
0.000000
  0
VERTEX
  8
LAYER-1
 10
1.787593
 20
7.195924
 30
0.000000
  0
VERTEX
  8
LAYER-1
 10
1.820812
 20
7.196484
 30
0.000000
  0
SEQEND
  8
LAYER-1
  0
POLYLINE
  8
LAYER-1
 66
  1
 70
  0
 62
  0
 10
1.748480
 20
7.196485
 30
0.000000
  0
VERTEX
  8
LAYER-1
 10
1.748480
 20
7.196485
 30
0.000000
  0
VERTEX
  8
LAYER-1
 10
1.761651
 20
7.189438
 30
0.000000
  0
VERTEX
  8
LAYER-1
 10
1.778732
 20
7.193769
 30
0.000000
  0
VERTEX
  8
LAYER-1
 10
1.785384
 20
7.196484
 30
0.000000
  0
SEQEND
  8
LAYER-1
  0
POLYLINE
  8
LAYER-1
 66
  1
 70
  0
 62
  0
 10
1.748481
 20
7.196485
 30
0.000000
  0
VERTEX
  8
LAYER-1
 10
1.748481
 20
7.196485
 30
0.000000
  0
VERTEX
  8
LAYER-1
 10
1.785383
 20
7.196484
 30
0.000000
  0
SEQEND
  8
LAYER-1
  0
POLYLINE
  8
LAYER-1
 66
  1
 70
  0
 62
  0
 10
1.749652
 20
7.468141
 30
0.000000
  0
VERTEX
  8
LAYER-1
 10
1.749652
 20
7.468141
 30
0.000000
  0
VERTEX
  8
LAYER-1
 10
1.749652
 20
7.196509
 30
0.000000
  0
SEQEND
  8
LAYER-1
  0
POLYLINE
  8
LAYER-1
 66
  1
 70
  0
 62
  0
 10
1.821985
 20
7.196514
 30
0.000000
  0
VERTEX
  8
LAYER-1
 10
1.821985
 20
7.196514
 30
0.000000
  0
VERTEX
  8
LAYER-1
 10
1.821985
 20
7.468142
 30
0.000000
  0
SEQEND
  8
LAYER-1
  0
POLYLINE
  8
LAYER-1
 66
  1
 70
  0
 62
  0
 10
1.786556
 20
7.468142
 30
0.000000
  0
VERTEX
  8
LAYER-1
 10
1.786556
 20
7.468142
 30
0.000000
  0
VERTEX
  8
LAYER-1
 10
1.786556
 20
7.196512
 30
0.000000
  0
SEQEND
  8
LAYER-1
  0
POLYLINE
  8
LAYER-1
 66
  1
 70
  0
 62
  0
 10
1.821681
 20
7.468001
 30
0.000000
  0
VERTEX
  8
LAYER-1
 10
1.821681
 20
7.468001
 30
0.000000
  0
VERTEX
  8
LAYER-1
 10
1.807804
 20
7.478939
 30
0.000000
  0
VERTEX
  8
LAYER-1
 10
1.793041
 20
7.476861
 30
0.000000
  0
VERTEX
  8
LAYER-1
 10
1.788461
 20
7.468561
 30
0.000000
  0
SEQEND
  8
LAYER-1
  0
POLYLINE
  8
LAYER-1
 66
  1
 70
  0
 62
  0
 10
1.788462
 20
7.468561
 30
0.000000
  0
VERTEX
  8
LAYER-1
 10
1.788462
 20
7.468561
 30
0.000000
  0
VERTEX
  8
LAYER-1
 10
1.821681
 20
7.468001
 30
0.000000
  0
SEQEND
  8
LAYER-1
  0
POLYLINE
  8
LAYER-1
 66
  1
 70
  0
 62
  0
 10
1.786253
 20
7.468001
 30
0.000000
  0
VERTEX
  8
LAYER-1
 10
1.786253
 20
7.468001
 30
0.000000
  0
VERTEX
  8
LAYER-1
 10
1.769144
 20
7.478984
 30
0.000000
  0
VERTEX
  8
LAYER-1
 10
1.752064
 20
7.474653
 30
0.000000
  0
VERTEX
  8
LAYER-1
 10
1.749349
 20
7.468000
 30
0.000000
  0
SEQEND
  8
LAYER-1
  0
POLYLINE
  8
LAYER-1
 66
  1
 70
  0
 62
  0
 10
1.749349
 20
7.468000
 30
0.000000
  0
VERTEX
  8
LAYER-1
 10
1.749349
 20
7.468000
 30
0.000000
  0
VERTEX
  8
LAYER-1
 10
1.786252
 20
7.468001
 30
0.000000
  0
SEQEND
  8
LAYER-1
  0
POLYLINE
  8
LAYER-1
 66
  1
 70
  0
 62
  0
 10
3.645952
 20
7.400235
 30
0.000000
  0
VERTEX
  8
LAYER-1
 10
3.645952
 20
7.400235
 30
0.000000
  0
VERTEX
  8
LAYER-1
 10
3.606226
 20
7.400235
 30
0.000000
  0
SEQEND
  8
LAYER-1
  0
POLYLINE
  8
LAYER-1
 66
  1
 70
  0
 62
  0
 10
3.645952
 20
7.270325
 30
0.000000
  0
VERTEX
  8
LAYER-1
 10
3.645952
 20
7.270325
 30
0.000000
  0
VERTEX
  8
LAYER-1
 10
3.606226
 20
7.270325
 30
0.000000
  0
SEQEND
  8
LAYER-1
  0
POLYLINE
  8
LAYER-1
 66
  1
 70
  0
 62
  0
 10
3.644500
 20
7.473289
 30
0.000000
  0
VERTEX
  8
LAYER-1
 10
3.644500
 20
7.473289
 30
0.000000
  0
VERTEX
  8
LAYER-1
 10
3.627391
 20
7.484272
 30
0.000000
  0
VERTEX
  8
LAYER-1
 10
3.610312
 20
7.479940
 30
0.000000
  0
VERTEX
  8
LAYER-1
 10
3.607597
 20
7.473287
 30
0.000000
  0
SEQEND
  8
LAYER-1
  0
POLYLINE
  8
LAYER-1
 66
  1
 70
  1
 62
  0
  0
VERTEX
  8
LAYER-1
 10
3.597087
 20
7.473910
 30
0.000000
  0
VERTEX
  8
LAYER-1
 10
3.651703
 20
7.473910
 30
0.000000
  0
VERTEX
  8
LAYER-1
 10
3.651703
 20
7.468005
 30
0.000000
  0
VERTEX
  8
LAYER-1
 10
3.597087
 20
7.468005
 30
0.000000
  0
SEQEND
  8
LAYER-1
  0
POLYLINE
  8
LAYER-1
 66
  1
 70
  0
 62
  0
 10
3.605792
 20
7.468140
 30
0.000000
  0
VERTEX
  8
LAYER-1
 10
3.605792
 20
7.468140
 30
0.000000
  0
VERTEX
  8
LAYER-1
 10
3.605792
 20
7.196392
 30
0.000000
  0
SEQEND
  8
LAYER-1
  0
POLYLINE
  8
LAYER-1
 66
  1
 70
  0
 62
  0
 10
3.605802
 20
0.613928
 30
0.000000
  0
VERTEX
  8
LAYER-1
 10
3.605802
 20
0.613928
 30
0.000000
  0
VERTEX
  8
LAYER-1
 10
3.605802
 20
0.342228
 30
0.000000
  0
SEQEND
  8
LAYER-1
  0
POLYLINE
  8
LAYER-1
 66
  1
 70
  0
 62
  0
 10
3.384883
 20
0.341789
 30
0.000000
  0
VERTEX
  8
LAYER-1
 10
3.384883
 20
0.341789
 30
0.000000
  0
VERTEX
  8
LAYER-1
 10
3.384883
 20
0.613420
 30
0.000000
  0
SEQEND
  8
LAYER-1
  0
POLYLINE
  8
LAYER-1
 66
  1
 70
  0
 62
  0
 10
3.054385
 20
0.613420
 30
0.000000
  0
VERTEX
  8
LAYER-1
 10
3.054385
 20
0.613420
 30
0.000000
  0
VERTEX
  8
LAYER-1
 10
3.054385
 20
0.341789
 30
0.000000
  0
SEQEND
  8
LAYER-1
  0
POLYLINE
  8
LAYER-1
 66
  1
 70
  0
 62
  0
 10
2.241554
 20
0.613420
 30
0.000000
  0
VERTEX
  8
LAYER-1
 10
2.241554
 20
0.613420
 30
0.000000
  0
VERTEX
  8
LAYER-1
 10
2.241554
 20
0.341789
 30
0.000000
  0
SEQEND
  8
LAYER-1
  0
POLYLINE
  8
LAYER-1
 66
  1
 70
  0
 62
  0
 10
2.422721
 20
0.341749
 30
0.000000
  0
VERTEX
  8
LAYER-1
 10
2.422721
 20
0.341749
 30
0.000000
  0
VERTEX
  8
LAYER-1
 10
2.422721
 20
0.613378
 30
0.000000
  0
SEQEND
  8
LAYER-1
  0
POLYLINE
  8
LAYER-1
 66
  1
 70
  0
 62
  0
 10
2.382863
 20
0.341749
 30
0.000000
  0
VERTEX
  8
LAYER-1
 10
2.382863
 20
0.341749
 30
0.000000
  0
VERTEX
  8
LAYER-1
 10
2.382863
 20
0.613378
 30
0.000000
  0
SEQEND
  8
LAYER-1
  0
POLYLINE
  8
LAYER-1
 66
  1
 70
  0
 62
  0
 10
3.236739
 20
0.341749
 30
0.000000
  0
VERTEX
  8
LAYER-1
 10
3.236739
 20
0.341749
 30
0.000000
  0
VERTEX
  8
LAYER-1
 10
3.236739
 20
0.613378
 30
0.000000
  0
SEQEND
  8
LAYER-1
  0
POLYLINE
  8
LAYER-1
 66
  1
 70
  0
 62
  0
 10
3.197923
 20
0.341749
 30
0.000000
  0
VERTEX
  8
LAYER-1
 10
3.197923
 20
0.341749
 30
0.000000
  0
VERTEX
  8
LAYER-1
 10
3.197923
 20
0.613378
 30
0.000000
  0
SEQEND
  8
LAYER-1
  0
POLYLINE
  8
LAYER-1
 66
  1
 70
  0
 62
  0
 10
2.970063
 20
0.341789
 30
0.000000
  0
VERTEX
  8
LAYER-1
 10
2.970063
 20
0.341789
 30
0.000000
  0
VERTEX
  8
LAYER-1
 10
2.970063
 20
0.613420
 30
0.000000
  0
SEQEND
  8
LAYER-1
  0
POLYLINE
  8
LAYER-1
 66
  1
 70
  0
 62
  0
 10
2.157232
 20
0.341789
 30
0.000000
  0
VERTEX
  8
LAYER-1
 10
2.157232
 20
0.341789
 30
0.000000
  0
VERTEX
  8
LAYER-1
 10
2.157232
 20
0.613420
 30
0.000000
  0
SEQEND
  8
LAYER-1
  0
POLYLINE
  8
LAYER-1
 66
  1
 70
  0
 62
  0
 10
2.012327
 20
0.342183
 30
0.000000
  0
VERTEX
  8
LAYER-1
 10
2.012327
 20
0.342183
 30
0.000000
  0
VERTEX
  8
LAYER-1
 10
2.012327
 20
0.613812
 30
0.000000
  0
SEQEND
  8
LAYER-1
  0
POLYLINE
  8
LAYER-1
 66
  1
 70
  0
 62
  0
 10
1.973945
 20
0.342183
 30
0.000000
  0
VERTEX
  8
LAYER-1
 10
1.973945
 20
0.342183
 30
0.000000
  0
VERTEX
  8
LAYER-1
 10
1.973945
 20
0.613812
 30
0.000000
  0
SEQEND
  8
LAYER-1
  0
POLYLINE
  8
LAYER-1
 66
  1
 70
  0
 62
  0
 10
2.830166
 20
0.341714
 30
0.000000
  0
VERTEX
  8
LAYER-1
 10
2.830166
 20
0.341714
 30
0.000000
  0
VERTEX
  8
LAYER-1
 10
2.830166
 20
0.613341
 30
0.000000
  0
SEQEND
  8
LAYER-1
  0
POLYLINE
  8
LAYER-1
 66
  1
 70
  0
 62
  0
 10
2.791783
 20
0.341714
 30
0.000000
  0
VERTEX
  8
LAYER-1
 10
2.791783
 20
0.341714
 30
0.000000
  0
VERTEX
  8
LAYER-1
 10
2.791783
 20
0.613341
 30
0.000000
  0
SEQEND
  8
LAYER-1
  0
POLYLINE
  8
LAYER-1
 66
  1
 70
  0
 62
  0
 10
3.457216
 20
0.613417
 30
0.000000
  0
VERTEX
  8
LAYER-1
 10
3.457216
 20
0.613417
 30
0.000000
  0
VERTEX
  8
LAYER-1
 10
3.457216
 20
0.341788
 30
0.000000
  0
SEQEND
  8
LAYER-1
  0
POLYLINE
  8
LAYER-1
 66
  1
 70
  0
 62
  0
 10
3.421786
 20
0.341788
 30
0.000000
  0
VERTEX
  8
LAYER-1
 10
3.421786
 20
0.341788
 30
0.000000
  0
VERTEX
  8
LAYER-1
 10
3.421786
 20
0.613419
 30
0.000000
  0
SEQEND
  8
LAYER-1
  0
POLYLINE
  8
LAYER-1
 66
  1
 70
  0
 62
  0
 10
3.422757
 20
0.341777
 30
0.000000
  0
VERTEX
  8
LAYER-1
 10
3.422757
 20
0.341777
 30
0.000000
  0
VERTEX
  8
LAYER-1
 10
3.432704
 20
0.334784
 30
0.000000
  0
VERTEX
  8
LAYER-1
 10
3.447465
 20
0.336873
 30
0.000000
  0
VERTEX
  8
LAYER-1
 10
3.456313
 20
0.341788
 30
0.000000
  0
SEQEND
  8
LAYER-1
  0
POLYLINE
  8
LAYER-1
 66
  1
 70
  0
 62
  0
 10
3.384884
 20
0.341789
 30
0.000000
  0
VERTEX
  8
LAYER-1
 10
3.384884
 20
0.341789
 30
0.000000
  0
VERTEX
  8
LAYER-1
 10
3.398054
 20
0.334741
 30
0.000000
  0
VERTEX
  8
LAYER-1
 10
3.415135
 20
0.339072
 30
0.000000
  0
VERTEX
  8
LAYER-1
 10
3.421786
 20
0.341788
 30
0.000000
  0
SEQEND
  8
LAYER-1
  0
POLYLINE
  8
LAYER-1
 66
  1
 70
  0
 62
  0
 10
2.969324
 20
0.342282
 30
0.000000
  0
VERTEX
  8
LAYER-1
 10
2.969324
 20
0.342282
 30
0.000000
  0
VERTEX
  8
LAYER-1
 10
2.984891
 20
0.336227
 30
0.000000
  0
VERTEX
  8
LAYER-1
 10
3.002964
 20
0.342952
 30
0.000000
  0
VERTEX
  8
LAYER-1
 10
3.006231
 20
0.342282
 30
0.000000
  0
SEQEND
  8
LAYER-1
  0
POLYLINE
  8
LAYER-1
 66
  1
 70
  0
 62
  0
 10
2.156365
 20
0.341812
 30
0.000000
  0
VERTEX
  8
LAYER-1
 10
2.156365
 20
0.341812
 30
0.000000
  0
VERTEX
  8
LAYER-1
 10
2.171933
 20
0.335757
 30
0.000000
  0
VERTEX
  8
LAYER-1
 10
2.190006
 20
0.342482
 30
0.000000
  0
VERTEX
  8
LAYER-1
 10
2.193273
 20
0.341812
 30
0.000000
  0
SEQEND
  8
LAYER-1
  0
POLYLINE
  8
LAYER-1
 66
  1
 70
  0
 62
  0
 10
3.017033
 20
0.342282
 30
0.000000
  0
VERTEX
  8
LAYER-1
 10
3.017033
 20
0.342282
 30
0.000000
  0
VERTEX
  8
LAYER-1
 10
3.032600
 20
0.336227
 30
0.000000
  0
VERTEX
  8
LAYER-1
 10
3.050674
 20
0.342952
 30
0.000000
  0
VERTEX
  8
LAYER-1
 10
3.053941
 20
0.342281
 30
0.000000
  0
SEQEND
  8
LAYER-1
  0
POLYLINE
  8
LAYER-1
 66
  1
 70
  0
 62
  0
 10
2.996569
 20
0.341723
 30
0.000000
  0
VERTEX
  8
LAYER-1
 10
2.996569
 20
0.341723
 30
0.000000
  0
VERTEX
  8
LAYER-1
 10
3.003384
 20
0.332654
 30
0.000000
  0
VERTEX
  8
LAYER-1
 10
3.017399
 20
0.331061
 30
0.000000
  0
VERTEX
  8
LAYER-1
 10
3.028436
 20
0.339844
 30
0.000000
  0
VERTEX
  8
LAYER-1
 10
3.031998
 20
0.341723
 30
0.000000
  0
SEQEND
  8
LAYER-1
  0
POLYLINE
  8
LAYER-1
 66
  1
 70
  0
 62
  0
 10
3.031998
 20
0.341723
 30
0.000000
  0
VERTEX
  8
LAYER-1
 10
3.031998
 20
0.341723
 30
0.000000
  0
VERTEX
  8
LAYER-1
 10
2.996569
 20
0.341723
 30
0.000000
  0
SEQEND
  8
LAYER-1
  0
POLYLINE
  8
LAYER-1
 66
  1
 70
  0
 62
  0
 10
2.205016
 20
0.341812
 30
0.000000
  0
VERTEX
  8
LAYER-1
 10
2.205016
 20
0.341812
 30
0.000000
  0
VERTEX
  8
LAYER-1
 10
2.220583
 20
0.335757
 30
0.000000
  0
VERTEX
  8
LAYER-1
 10
2.238657
 20
0.342482
 30
0.000000
  0
VERTEX
  8
LAYER-1
 10
2.241923
 20
0.341811
 30
0.000000
  0
SEQEND
  8
LAYER-1
  0
POLYLINE
  8
LAYER-1
 66
  1
 70
  0
 62
  0
 10
2.180322
 20
0.341723
 30
0.000000
  0
VERTEX
  8
LAYER-1
 10
2.180322
 20
0.341723
 30
0.000000
  0
VERTEX
  8
LAYER-1
 10
2.187137
 20
0.332654
 30
0.000000
  0
VERTEX
  8
LAYER-1
 10
2.201152
 20
0.331061
 30
0.000000
  0
VERTEX
  8
LAYER-1
 10
2.212189
 20
0.339844
 30
0.000000
  0
VERTEX
  8
LAYER-1
 10
2.215751
 20
0.341723
 30
0.000000
  0
SEQEND
  8
LAYER-1
  0
POLYLINE
  8
LAYER-1
 66
  1
 70
  0
 62
  0
 10
2.215751
 20
0.341723
 30
0.000000
  0
VERTEX
  8
LAYER-1
 10
2.215751
 20
0.341723
 30
0.000000
  0
VERTEX
  8
LAYER-1
 10
2.180322
 20
0.341723
 30
0.000000
  0
SEQEND
  8
LAYER-1
  0
POLYLINE
  8
LAYER-1
 66
  1
 70
  0
 62
  0
 10
3.456283
 20
0.613445
 30
0.000000
  0
VERTEX
  8
LAYER-1
 10
3.456283
 20
0.613445
 30
0.000000
  0
VERTEX
  8
LAYER-1
 10
3.442406
 20
0.624382
 30
0.000000
  0
VERTEX
  8
LAYER-1
 10
3.427643
 20
0.622303
 30
0.000000
  0
VERTEX
  8
LAYER-1
 10
3.423063
 20
0.614004
 30
0.000000
  0
SEQEND
  8
LAYER-1
  0
POLYLINE
  8
LAYER-1
 66
  1
 70
  0
 62
  0
 10
3.423063
 20
0.614005
 30
0.000000
  0
VERTEX
  8
LAYER-1
 10
3.423063
 20
0.614005
 30
0.000000
  0
VERTEX
  8
LAYER-1
 10
3.456283
 20
0.613445
 30
0.000000
  0
SEQEND
  8
LAYER-1
  0
POLYLINE
  8
LAYER-1
 66
  1
 70
  0
 62
  0
 10
3.420854
 20
0.613443
 30
0.000000
  0
VERTEX
  8
LAYER-1
 10
3.420854
 20
0.613443
 30
0.000000
  0
VERTEX
  8
LAYER-1
 10
3.403746
 20
0.624427
 30
0.000000
  0
VERTEX
  8
LAYER-1
 10
3.386666
 20
0.620096
 30
0.000000
  0
VERTEX
  8
LAYER-1
 10
3.383951
 20
0.613442
 30
0.000000
  0
SEQEND
  8
LAYER-1
  0
POLYLINE
  8
LAYER-1
 66
  1
 70
  0
 62
  0
 10
3.383951
 20
0.613443
 30
0.000000
  0
VERTEX
  8
LAYER-1
 10
3.383951
 20
0.613443
 30
0.000000
  0
VERTEX
  8
LAYER-1
 10
3.420854
 20
0.613445
 30
0.000000
  0
SEQEND
  8
LAYER-1
  0
POLYLINE
  8
LAYER-1
 66
  1
 70
  0
 62
  0
 10
3.054015
 20
0.613891
 30
0.000000
  0
VERTEX
  8
LAYER-1
 10
3.054015
 20
0.613891
 30
0.000000
  0
VERTEX
  8
LAYER-1
 10
3.034510
 20
0.623882
 30
0.000000
  0
VERTEX
  8
LAYER-1
 10
3.016437
 20
0.617157
 30
0.000000
  0
VERTEX
  8
LAYER-1
 10
3.017107
 20
0.613890
 30
0.000000
  0
SEQEND
  8
LAYER-1
  0
POLYLINE
  8
LAYER-1
 66
  1
 70
  0
 62
  0
 10
3.006774
 20
0.613891
 30
0.000000
  0
VERTEX
  8
LAYER-1
 10
3.006774
 20
0.613891
 30
0.000000
  0
VERTEX
  8
LAYER-1
 10
2.987269
 20
0.623882
 30
0.000000
  0
VERTEX
  8
LAYER-1
 10
2.969196
 20
0.617157
 30
0.000000
  0
VERTEX
  8
LAYER-1
 10
2.969866
 20
0.613890
 30
0.000000
  0
SEQEND
  8
LAYER-1
  0
POLYLINE
  8
LAYER-1
 66
  1
 70
  0
 62
  0
 10
3.032541
 20
0.613979
 30
0.000000
  0
VERTEX
  8
LAYER-1
 10
3.032541
 20
0.613979
 30
0.000000
  0
VERTEX
  8
LAYER-1
 10
3.021789
 20
0.626984
 30
0.000000
  0
VERTEX
  8
LAYER-1
 10
3.007774
 20
0.628578
 30
0.000000
  0
VERTEX
  8
LAYER-1
 10
2.996737
 20
0.619795
 30
0.000000
  0
VERTEX
  8
LAYER-1
 10
2.997112
 20
0.613979
 30
0.000000
  0
SEQEND
  8
LAYER-1
  0
POLYLINE
  8
LAYER-1
 66
  1
 70
  0
 62
  0
 10
3.032540
 20
0.613980
 30
0.000000
  0
VERTEX
  8
LAYER-1
 10
3.032540
 20
0.613980
 30
0.000000
  0
VERTEX
  8
LAYER-1
 10
2.997112
 20
0.613980
 30
0.000000
  0
SEQEND
  8
LAYER-1
  0
POLYLINE
  8
LAYER-1
 66
  1
 70
  0
 62
  0
 10
2.241460
 20
0.613891
 30
0.000000
  0
VERTEX
  8
LAYER-1
 10
2.241460
 20
0.613891
 30
0.000000
  0
VERTEX
  8
LAYER-1
 10
2.221955
 20
0.623882
 30
0.000000
  0
VERTEX
  8
LAYER-1
 10
2.203882
 20
0.617157
 30
0.000000
  0
VERTEX
  8
LAYER-1
 10
2.204552
 20
0.613890
 30
0.000000
  0
SEQEND
  8
LAYER-1
  0
POLYLINE
  8
LAYER-1
 66
  1
 70
  0
 62
  0
 10
2.193280
 20
0.613891
 30
0.000000
  0
VERTEX
  8
LAYER-1
 10
2.193280
 20
0.613891
 30
0.000000
  0
VERTEX
  8
LAYER-1
 10
2.173775
 20
0.623882
 30
0.000000
  0
VERTEX
  8
LAYER-1
 10
2.155702
 20
0.617157
 30
0.000000
  0
VERTEX
  8
LAYER-1
 10
2.156372
 20
0.613890
 30
0.000000
  0
SEQEND
  8
LAYER-1
  0
POLYLINE
  8
LAYER-1
 66
  1
 70
  0
 62
  0
 10
2.215757
 20
0.613979
 30
0.000000
  0
VERTEX
  8
LAYER-1
 10
2.215757
 20
0.613979
 30
0.000000
  0
VERTEX
  8
LAYER-1
 10
2.205005
 20
0.626984
 30
0.000000
  0
VERTEX
  8
LAYER-1
 10
2.190990
 20
0.628578
 30
0.000000
  0
VERTEX
  8
LAYER-1
 10
2.179953
 20
0.619795
 30
0.000000
  0
VERTEX
  8
LAYER-1
 10
2.180328
 20
0.613979
 30
0.000000
  0
SEQEND
  8
LAYER-1
  0
POLYLINE
  8
LAYER-1
 66
  1
 70
  0
 62
  0
 10
2.215757
 20
0.613980
 30
0.000000
  0
VERTEX
  8
LAYER-1
 10
2.215757
 20
0.613980
 30
0.000000
  0
VERTEX
  8
LAYER-1
 10
2.180329
 20
0.613980
 30
0.000000
  0
SEQEND
  8
LAYER-1
  0
POLYLINE
  8
LAYER-1
 66
  1
 70
  1
 62
  0
  0
VERTEX
  8
LAYER-1
 10
3.031998
 20
0.341789
 30
0.000000
  0
VERTEX
  8
LAYER-1
 10
2.996568
 20
0.341789
 30
0.000000
  0
VERTEX
  8
LAYER-1
 10
2.996568
 20
0.613418
 30
0.000000
  0
VERTEX
  8
LAYER-1
 10
3.031998
 20
0.613418
 30
0.000000
  0
SEQEND
  8
LAYER-1
  0
POLYLINE
  8
LAYER-1
 66
  1
 70
  1
 62
  0
  0
VERTEX
  8
LAYER-1
 10
2.215684
 20
0.341789
 30
0.000000
  0
VERTEX
  8
LAYER-1
 10
2.180254
 20
0.341789
 30
0.000000
  0
VERTEX
  8
LAYER-1
 10
2.180254
 20
0.613418
 30
0.000000
  0
VERTEX
  8
LAYER-1
 10
2.215684
 20
0.613418
 30
0.000000
  0
SEQEND
  8
LAYER-1
  0
POLYLINE
  8
LAYER-1
 66
  1
 70
  0
 62
  0
 10
3.031998
 20
0.409696
 30
0.000000
  0
VERTEX
  8
LAYER-1
 10
3.031998
 20
0.409696
 30
0.000000
  0
VERTEX
  8
LAYER-1
 10
2.996568
 20
0.409696
 30
0.000000
  0
SEQEND
  8
LAYER-1
  0
POLYLINE
  8
LAYER-1
 66
  1
 70
  0
 62
  0
 10
3.031998
 20
0.539605
 30
0.000000
  0
VERTEX
  8
LAYER-1
 10
3.031998
 20
0.539605
 30
0.000000
  0
VERTEX
  8
LAYER-1
 10
2.996568
 20
0.539605
 30
0.000000
  0
SEQEND
  8
LAYER-1
  0
POLYLINE
  8
LAYER-1
 66
  1
 70
  0
 62
  0
 10
2.215684
 20
0.409696
 30
0.000000
  0
VERTEX
  8
LAYER-1
 10
2.215684
 20
0.409696
 30
0.000000
  0
VERTEX
  8
LAYER-1
 10
2.180255
 20
0.409696
 30
0.000000
  0
SEQEND
  8
LAYER-1
  0
POLYLINE
  8
LAYER-1
 66
  1
 70
  0
 62
  0
 10
2.215684
 20
0.539605
 30
0.000000
  0
VERTEX
  8
LAYER-1
 10
2.215684
 20
0.539605
 30
0.000000
  0
VERTEX
  8
LAYER-1
 10
2.180255
 20
0.539605
 30
0.000000
  0
SEQEND
  8
LAYER-1
  0
POLYLINE
  8
LAYER-1
 66
  1
 70
  0
 62
  0
 10
3.201110
 20
0.341671
 30
0.000000
  0
VERTEX
  8
LAYER-1
 10
3.201110
 20
0.341671
 30
0.000000
  0
VERTEX
  8
LAYER-1
 10
3.211346
 20
0.335078
 30
0.000000
  0
VERTEX
  8
LAYER-1
 10
3.226031
 20
0.337653
 30
0.000000
  0
VERTEX
  8
LAYER-1
 10
3.234330
 20
0.342232
 30
0.000000
  0
SEQEND
  8
LAYER-1
  0
POLYLINE
  8
LAYER-1
 66
  1
 70
  0
 62
  0
 10
2.383932
 20
0.341850
 30
0.000000
  0
VERTEX
  8
LAYER-1
 10
2.383932
 20
0.341850
 30
0.000000
  0
VERTEX
  8
LAYER-1
 10
2.397103
 20
0.334804
 30
0.000000
  0
VERTEX
  8
LAYER-1
 10
2.414183
 20
0.339135
 30
0.000000
  0
VERTEX
  8
LAYER-1
 10
2.420836
 20
0.341849
 30
0.000000
  0
SEQEND
  8
LAYER-1
  0
POLYLINE
  8
LAYER-1
 66
  1
 70
  0
 62
  0
 10
2.641251
 20
0.613447
 30
0.000000
  0
VERTEX
  8
LAYER-1
 10
2.641251
 20
0.613447
 30
0.000000
  0
VERTEX
  8
LAYER-1
 10
2.627374
 20
0.624385
 30
0.000000
  0
VERTEX
  8
LAYER-1
 10
2.612611
 20
0.622307
 30
0.000000
  0
VERTEX
  8
LAYER-1
 10
2.608032
 20
0.614007
 30
0.000000
  0
SEQEND
  8
LAYER-1
  0
POLYLINE
  8
LAYER-1
 66
  1
 70
  0
 62
  0
 10
2.608032
 20
0.614007
 30
0.000000
  0
VERTEX
  8
LAYER-1
 10
2.608032
 20
0.614007
 30
0.000000
  0
VERTEX
  8
LAYER-1
 10
2.641251
 20
0.613447
 30
0.000000
  0
SEQEND
  8
LAYER-1
  0
POLYLINE
  8
LAYER-1
 66
  1
 70
  0
 62
  0
 10
2.605823
 20
0.613447
 30
0.000000
  0
VERTEX
  8
LAYER-1
 10
2.605823
 20
0.613447
 30
0.000000
  0
VERTEX
  8
LAYER-1
 10
2.588715
 20
0.624429
 30
0.000000
  0
VERTEX
  8
LAYER-1
 10
2.571635
 20
0.620099
 30
0.000000
  0
VERTEX
  8
LAYER-1
 10
2.568919
 20
0.613446
 30
0.000000
  0
SEQEND
  8
LAYER-1
  0
POLYLINE
  8
LAYER-1
 66
  1
 70
  0
 62
  0
 10
2.568919
 20
0.613446
 30
0.000000
  0
VERTEX
  8
LAYER-1
 10
2.568919
 20
0.613446
 30
0.000000
  0
VERTEX
  8
LAYER-1
 10
2.605822
 20
0.613447
 30
0.000000
  0
SEQEND
  8
LAYER-1
  0
POLYLINE
  8
LAYER-1
 66
  1
 70
  0
 62
  0
 10
2.570090
 20
0.341789
 30
0.000000
  0
VERTEX
  8
LAYER-1
 10
2.570090
 20
0.341789
 30
0.000000
  0
VERTEX
  8
LAYER-1
 10
2.570090
 20
0.613420
 30
0.000000
  0
SEQEND
  8
LAYER-1
  0
POLYLINE
  8
LAYER-1
 66
  1
 70
  0
 62
  0
 10
2.642424
 20
0.613417
 30
0.000000
  0
VERTEX
  8
LAYER-1
 10
2.642424
 20
0.613417
 30
0.000000
  0
VERTEX
  8
LAYER-1
 10
2.642424
 20
0.341788
 30
0.000000
  0
SEQEND
  8
LAYER-1
  0
POLYLINE
  8
LAYER-1
 66
  1
 70
  0
 62
  0
 10
2.606995
 20
0.341788
 30
0.000000
  0
VERTEX
  8
LAYER-1
 10
2.606995
 20
0.341788
 30
0.000000
  0
VERTEX
  8
LAYER-1
 10
2.606995
 20
0.613419
 30
0.000000
  0
SEQEND
  8
LAYER-1
  0
POLYLINE
  8
LAYER-1
 66
  1
 70
  0
 62
  0
 10
2.608900
 20
0.341370
 30
0.000000
  0
VERTEX
  8
LAYER-1
 10
2.608900
 20
0.341370
 30
0.000000
  0
VERTEX
  8
LAYER-1
 10
2.619136
 20
0.334775
 30
0.000000
  0
VERTEX
  8
LAYER-1
 10
2.633820
 20
0.337351
 30
0.000000
  0
VERTEX
  8
LAYER-1
 10
2.642120
 20
0.341929
 30
0.000000
  0
SEQEND
  8
LAYER-1
  0
POLYLINE
  8
LAYER-1
 66
  1
 70
  0
 62
  0
 10
2.608901
 20
0.341369
 30
0.000000
  0
VERTEX
  8
LAYER-1
 10
2.608901
 20
0.341369
 30
0.000000
  0
VERTEX
  8
LAYER-1
 10
2.642120
 20
0.341929
 30
0.000000
  0
SEQEND
  8
LAYER-1
  0
POLYLINE
  8
LAYER-1
 66
  1
 70
  0
 62
  0
 10
2.569788
 20
0.341932
 30
0.000000
  0
VERTEX
  8
LAYER-1
 10
2.569788
 20
0.341932
 30
0.000000
  0
VERTEX
  8
LAYER-1
 10
2.582959
 20
0.334884
 30
0.000000
  0
VERTEX
  8
LAYER-1
 10
2.600039
 20
0.339215
 30
0.000000
  0
VERTEX
  8
LAYER-1
 10
2.606692
 20
0.341930
 30
0.000000
  0
SEQEND
  8
LAYER-1
  0
POLYLINE
  8
LAYER-1
 66
  1
 70
  0
 62
  0
 10
2.569788
 20
0.341930
 30
0.000000
  0
VERTEX
  8
LAYER-1
 10
2.569788
 20
0.341930
 30
0.000000
  0
VERTEX
  8
LAYER-1
 10
2.606691
 20
0.341929
 30
0.000000
  0
SEQEND
  8
LAYER-1
  0
POLYLINE
  8
LAYER-1
 66
  1
 70
  0
 62
  0
 10
1.821252
 20
0.613447
 30
0.000000
  0
VERTEX
  8
LAYER-1
 10
1.821252
 20
0.613447
 30
0.000000
  0
VERTEX
  8
LAYER-1
 10
1.807374
 20
0.624385
 30
0.000000
  0
VERTEX
  8
LAYER-1
 10
1.792611
 20
0.622307
 30
0.000000
  0
VERTEX
  8
LAYER-1
 10
1.788032
 20
0.614007
 30
0.000000
  0
SEQEND
  8
LAYER-1
  0
POLYLINE
  8
LAYER-1
 66
  1
 70
  0
 62
  0
 10
1.788032
 20
0.614007
 30
0.000000
  0
VERTEX
  8
LAYER-1
 10
1.788032
 20
0.614007
 30
0.000000
  0
VERTEX
  8
LAYER-1
 10
1.821251
 20
0.613447
 30
0.000000
  0
SEQEND
  8
LAYER-1
  0
POLYLINE
  8
LAYER-1
 66
  1
 70
  0
 62
  0
 10
1.785823
 20
0.613447
 30
0.000000
  0
VERTEX
  8
LAYER-1
 10
1.785823
 20
0.613447
 30
0.000000
  0
VERTEX
  8
LAYER-1
 10
1.768714
 20
0.624429
 30
0.000000
  0
VERTEX
  8
LAYER-1
 10
1.751634
 20
0.620099
 30
0.000000
  0
VERTEX
  8
LAYER-1
 10
1.748919
 20
0.613446
 30
0.000000
  0
SEQEND
  8
LAYER-1
  0
POLYLINE
  8
LAYER-1
 66
  1
 70
  0
 62
  0
 10
1.748920
 20
0.613446
 30
0.000000
  0
VERTEX
  8
LAYER-1
 10
1.748920
 20
0.613446
 30
0.000000
  0
VERTEX
  8
LAYER-1
 10
1.785822
 20
0.613447
 30
0.000000
  0
SEQEND
  8
LAYER-1
  0
POLYLINE
  8
LAYER-1
 66
  1
 70
  0
 62
  0
 10
1.750090
 20
0.341789
 30
0.000000
  0
VERTEX
  8
LAYER-1
 10
1.750090
 20
0.341789
 30
0.000000
  0
VERTEX
  8
LAYER-1
 10
1.750090
 20
0.613420
 30
0.000000
  0
SEQEND
  8
LAYER-1
  0
POLYLINE
  8
LAYER-1
 66
  1
 70
  0
 62
  0
 10
1.822424
 20
0.613417
 30
0.000000
  0
VERTEX
  8
LAYER-1
 10
1.822424
 20
0.613417
 30
0.000000
  0
VERTEX
  8
LAYER-1
 10
1.822424
 20
0.341788
 30
0.000000
  0
SEQEND
  8
LAYER-1
  0
POLYLINE
  8
LAYER-1
 66
  1
 70
  0
 62
  0
 10
1.786995
 20
0.341788
 30
0.000000
  0
VERTEX
  8
LAYER-1
 10
1.786995
 20
0.341788
 30
0.000000
  0
VERTEX
  8
LAYER-1
 10
1.786995
 20
0.613419
 30
0.000000
  0
SEQEND
  8
LAYER-1
  0
POLYLINE
  8
LAYER-1
 66
  1
 70
  0
 62
  0
 10
1.788900
 20
0.341370
 30
0.000000
  0
VERTEX
  8
LAYER-1
 10
1.788900
 20
0.341370
 30
0.000000
  0
VERTEX
  8
LAYER-1
 10
1.799136
 20
0.334775
 30
0.000000
  0
VERTEX
  8
LAYER-1
 10
1.813821
 20
0.337351
 30
0.000000
  0
VERTEX
  8
LAYER-1
 10
1.822120
 20
0.341929
 30
0.000000
  0
SEQEND
  8
LAYER-1
  0
POLYLINE
  8
LAYER-1
 66
  1
 70
  0
 62
  0
 10
1.788901
 20
0.341369
 30
0.000000
  0
VERTEX
  8
LAYER-1
 10
1.788901
 20
0.341369
 30
0.000000
  0
VERTEX
  8
LAYER-1
 10
1.822119
 20
0.341929
 30
0.000000
  0
SEQEND
  8
LAYER-1
  0
POLYLINE
  8
LAYER-1
 66
  1
 70
  0
 62
  0
 10
1.749787
 20
0.341932
 30
0.000000
  0
VERTEX
  8
LAYER-1
 10
1.749787
 20
0.341932
 30
0.000000
  0
VERTEX
  8
LAYER-1
 10
1.762959
 20
0.334884
 30
0.000000
  0
VERTEX
  8
LAYER-1
 10
1.780039
 20
0.339215
 30
0.000000
  0
VERTEX
  8
LAYER-1
 10
1.786691
 20
0.341930
 30
0.000000
  0
SEQEND
  8
LAYER-1
  0
POLYLINE
  8
LAYER-1
 66
  1
 70
  0
 62
  0
 10
1.749788
 20
0.341930
 30
0.000000
  0
VERTEX
  8
LAYER-1
 10
1.749788
 20
0.341930
 30
0.000000
  0
VERTEX
  8
LAYER-1
 10
1.786691
 20
0.341929
 30
0.000000
  0
SEQEND
  8
LAYER-1
  0
POLYLINE
  8
LAYER-1
 66
  1
 70
  1
 62
  0
  0
VERTEX
  8
LAYER-1
 10
3.645717
 20
7.467627
 30
0.000000
  0
VERTEX
  8
LAYER-1
 10
3.814600
 20
7.467627
 30
0.000000
  0
VERTEX
  8
LAYER-1
 10
3.814600
 20
0.341376
 30
0.000000
  0
VERTEX
  8
LAYER-1
 10
3.645717
 20
0.341376
 30
0.000000
  0
SEQEND
  8
LAYER-1
  0
CIRCLE
  8
LAYER-1
 62
  0
 10
3.730364
 20
3.177629
 30
0.000000
 40
0.064283
  0
POLYLINE
  8
LAYER-1
 66
  1
 70
  0
 62
  0
 10
3.688018
 20
2.119991
 30
0.000000
  0
VERTEX
  8
LAYER-1
 10
3.688018
 20
2.119991
 30
0.000000
  0
VERTEX
  8
LAYER-1
 10
3.688019
 20
2.119991
 30
0.000000
  0
SEQEND
  8
LAYER-1
  0
POLYLINE
  8
LAYER-1
 66
  1
 70
  0
 62
  0
 10
3.695983
 20
2.112027
 30
0.000000
  0
VERTEX
  8
LAYER-1
 10
3.695983
 20
2.112027
 30
0.000000
  0
VERTEX
  8
LAYER-1
 10
3.695983
 20
1.862484
 30
0.000000
  0
SEQEND
  8
LAYER-1
  0
POLYLINE
  8
LAYER-1
 66
  1
 70
  0
 62
  0
 10
3.688019
 20
1.854520
 30
0.000000
  0
VERTEX
  8
LAYER-1
 10
3.688019
 20
1.854520
 30
0.000000
  0
VERTEX
  8
LAYER-1
 10
3.688018
 20
1.854520
 30
0.000000
  0
SEQEND
  8
LAYER-1
  0
POLYLINE
  8
LAYER-1
 66
  1
 70
  0
 62
  0
 10
3.680053
 20
1.862484
 30
0.000000
  0
VERTEX
  8
LAYER-1
 10
3.680053
 20
1.862484
 30
0.000000
  0
VERTEX
  8
LAYER-1
 10
3.680053
 20
2.112027
 30
0.000000
  0
SEQEND
  8
LAYER-1
  0
ARC
  8
LAYER-1
 62
  0
 10
3.688018
 20
2.112027
 30
0.000000
 40
0.007964
 50
270.000000
 51
0.000000
  0
ARC
  8
LAYER-1
 62
  0
 10
3.688018
 20
1.862484
 30
0.000000
 40
0.007964
 50
0.000000
 51
90.000000
  0
ARC
  8
LAYER-1
 62
  0
 10
3.688019
 20
1.862484
 30
0.000000
 40
0.007964
 50
90.000000
 51
180.000000
  0
ARC
  8
LAYER-1
 62
  0
 10
3.688019
 20
2.112027
 30
0.000000
 40
0.007964
 50
180.000000
 51
270.000000
  0
CIRCLE
  8
LAYER-1
 62
  7
 10
3.730364
 20
3.177388
 30
0.000000
 40
0.047124
  0
CIRCLE
  8
LAYER-1
 62
  0
 10
3.730364
 20
3.177388
 30
0.000000
 40
0.042287
  0
CIRCLE
  8
LAYER-1
 62
  0
 10
3.730364
 20
3.160592
 30
0.000000
 40
0.018794
  0
CIRCLE
  8
LAYER-1
 62
  0
 10
3.730364
 20
3.152557
 30
0.000000
 40
0.008035
  0
TEXT
  8
LAYER-1
 62
  0
 10
3.694778
 20
3.180333
 30
0.000000
 40
0.010417
  1
MobilFlex
 72
  5
 11
3.847556
 21
3.180333
 31
0.000000
  0
POLYLINE
  8
LAYER-1
 66
  1
 70
  1
 62
  0
 10
3.726740
 20
3.142346
 30
0.000000
  0
VERTEX
  8
LAYER-1
 10
3.726740
 20
3.142346
 30
0.000000
  0
VERTEX
  8
LAYER-1
 10
3.726740
 20
3.151047
 30
0.000000
  0
VERTEX
  8
LAYER-1
 10
3.730122
 20
3.151047
 30
0.000000
  0
VERTEX
  8
LAYER-1
 10
3.730122
 20
3.154430
 30
0.000000
  0
VERTEX
  8
LAYER-1
 10
3.726498
 20
3.158055
 30
0.000000
  0
VERTEX
  8
LAYER-1
 10
3.726498
 20
3.160471
 30
0.000000
  0
VERTEX
  8
LAYER-1
 10
3.728915
 20
3.167721
 30
0.000000
  0
VERTEX
  8
LAYER-1
 10
3.732056
 20
3.167721
 30
0.000000
  0
VERTEX
  8
LAYER-1
 10
3.731331
 20
3.162404
 30
0.000000
  0
VERTEX
  8
LAYER-1
 10
3.731574
 20
3.160471
 30
0.000000
  0
VERTEX
  8
LAYER-1
 10
3.733023
 20
3.160471
 30
0.000000
  0
VERTEX
  8
LAYER-1
 10
3.733023
 20
3.148147
 30
0.000000
  0
VERTEX
  8
LAYER-1
 10
3.730364
 20
3.146938
 30
0.000000
  0
VERTEX
  8
LAYER-1
 10
3.730364
 20
3.144521
 30
0.000000
  0
VERTEX
  8
LAYER-1
 10
3.733023
 20
3.144038
 30
0.000000
  0
VERTEX
  8
LAYER-1
 10
3.733023
 20
3.142346
 30
0.000000
  0
SEQEND
  8
LAYER-1
  0
CIRCLE
  8
LAYER-1
 62
  0
 10
3.688351
 20
1.857172
 30
0.000000
 40
0.022565
  0
CIRCLE
  8
LAYER-1
 62
  0
 10
3.688351
 20
1.857172
 30
0.000000
 40
0.016522
  0
CIRCLE
  8
LAYER-1
 62
  0
 10
3.688351
 20
1.857172
 30
0.000000
 40
0.013746
  0
CIRCLE
  8
LAYER-1
 62
  0
 10
3.688351
 20
1.857172
 30
0.000000
 40
0.008860
  0
LINE
  8
LAYER-1
 62
  0
 10
6.732972
 20
7.535055
 30
0.000000
 11
0.739917
 21
7.535055
 31
0.000000
  0
LINE
  8
LAYER-1
 62
  0
 10
6.732972
 20
7.645054
 30
0.000000
 11
0.739917
 21
7.645054
 31
0.000000
  0
LINE
  8
LAYER-1
 62
  0
 10
1.292000
 20
7.534933
 30
0.000000
 11
1.292000
 21
7.645176
 31
0.000000
  0
LINE
  8
LAYER-1
 62
  0
 10
1.226462
 20
7.534933
 30
0.000000
 11
1.417000
 21
7.534933
 31
0.000000
  0
LINE
  8
LAYER-1
 62
  0
 10
1.228632
 20
7.645176
 30
0.000000
 11
1.417000
 21
7.645176
 31
0.000000
  0
LINE
  8
LAYER-1
 62
  0
 10
1.292000
 20
7.645176
 30
0.000000
 11
1.292000
 21
7.277555
 31
0.000000
  0
LINE
  8
LAYER-1
 62
  0
 10
1.262538
 20
7.564396
 30
0.000000
 11
1.321463
 21
7.505470
 31
0.000000
  0
LINE
  8
LAYER-1
 62
  0
 10
1.262538
 20
7.674639
 30
0.000000
 11
1.321463
 21
7.615713
 31
0.000000
  0
TEXT
  8
LAYER-1
 62
  0
 10
1.281939
 20
7.151680
 30
0.000000
 40
0.125000
  1
 
  0
POLYLINE
  8
LAYER-1
 66
  1
 70
  1
 62
  0
  0
VERTEX
  8
LAYER-1
 10
3.753484
 20
7.533051
 30
0.000000
  0
VERTEX
  8
LAYER-1
 10
3.778579
 20
7.533051
 30
0.000000
  0
VERTEX
  8
LAYER-1
 10
3.778579
 20
7.467601
 30
0.000000
  0
VERTEX
  8
LAYER-1
 10
3.753484
 20
7.467601
 30
0.000000
  0
SEQEND
  8
LAYER-1
  0
POLYLINE
  8
LAYER-1
 66
  1
 70
  1
 62
  0
  0
VERTEX
  8
LAYER-1
 10
4.636789
 20
7.533393
 30
0.000000
  0
VERTEX
  8
LAYER-1
 10
4.661885
 20
7.533393
 30
0.000000
  0
VERTEX
  8
LAYER-1
 10
4.661885
 20
7.467473
 30
0.000000
  0
VERTEX
  8
LAYER-1
 10
4.636789
 20
7.467473
 30
0.000000
  0
SEQEND
  8
LAYER-1
  0
POLYLINE
  8
LAYER-1
 66
  1
 70
  1
 62
  0
  0
VERTEX
  8
LAYER-1
 10
5.453760
 20
7.533394
 30
0.000000
  0
VERTEX
  8
LAYER-1
 10
5.478856
 20
7.533394
 30
0.000000
  0
VERTEX
  8
LAYER-1
 10
5.478856
 20
7.467473
 30
0.000000
  0
VERTEX
  8
LAYER-1
 10
5.453760
 20
7.467473
 30
0.000000
  0
SEQEND
  8
LAYER-1
  0
POLYLINE
  8
LAYER-1
 66
  1
 70
  1
 62
  0
  0
VERTEX
  8
LAYER-1
 10
3.674922
 20
0.341504
 30
0.000000
  0
VERTEX
  8
LAYER-1
 10
3.708479
 20
0.341504
 30
0.000000
  0
VERTEX
  8
LAYER-1
 10
3.708479
 20
0.246866
 30
0.000000
  0
VERTEX
  8
LAYER-1
 10
3.674922
 20
0.246866
 30
0.000000
  0
SEQEND
  8
LAYER-1
  0
POLYLINE
  8
LAYER-1
 66
  1
 70
  1
 62
  0
  0
VERTEX
  8
LAYER-1
 10
2.798254
 20
7.533097
 30
0.000000
  0
VERTEX
  8
LAYER-1
 10
2.823350
 20
7.533097
 30
0.000000
  0
VERTEX
  8
LAYER-1
 10
2.823350
 20
7.468116
 30
0.000000
  0
VERTEX
  8
LAYER-1
 10
2.798254
 20
7.468116
 30
0.000000
  0
SEQEND
  8
LAYER-1
  0
POLYLINE
  8
LAYER-1
 66
  1
 70
  1
 62
  0
  0
VERTEX
  8
LAYER-1
 10
1.980415
 20
7.533097
 30
0.000000
  0
VERTEX
  8
LAYER-1
 10
2.005511
 20
7.533097
 30
0.000000
  0
VERTEX
  8
LAYER-1
 10
2.005511
 20
7.468116
 30
0.000000
  0
VERTEX
  8
LAYER-1
 10
1.980415
 20
7.468116
 30
0.000000
  0
SEQEND
  8
LAYER-1
  0
POLYLINE
  8
LAYER-1
 66
  1
 70
  0
 62
  0
 10
3.645018
 20
0.239206
 30
0.000000
  0
VERTEX
  8
LAYER-1
 10
3.645018
 20
0.239206
 30
0.000000
  0
VERTEX
  8
LAYER-1
 10
3.657796
 20
0.246770
 30
0.000000
  0
SEQEND
  8
LAYER-1
  0
POLYLINE
  8
LAYER-1
 66
  1
 70
  0
 62
  0
 10
3.645018
 20
0.239206
 30
0.000000
  0
VERTEX
  8
LAYER-1
 10
3.645018
 20
0.239206
 30
0.000000
  0
VERTEX
  8
LAYER-1
 10
3.645018
 20
0.237641
 30
0.000000
  0
SEQEND
  8
LAYER-1
  0
POLYLINE
  8
LAYER-1
 66
  1
 70
  1
 62
  0
  0
VERTEX
  8
LAYER-1
 10
3.663461
 20
0.237628
 30
0.000000
  0
VERTEX
  8
LAYER-1
 10
3.720048
 20
0.237628
 30
0.000000
  0
VERTEX
  8
LAYER-1
 10
3.720048
 20
0.049964
 30
0.000000
  0
VERTEX
  8
LAYER-1
 10
3.663461
 20
0.049964
 30
0.000000
  0
SEQEND
  8
LAYER-1
  0
POLYLINE
  8
LAYER-1
  6
LTYPE01
 66
  1
 70
  1
 62
  0
  0
VERTEX
  8
LAYER-1
  6
LTYPE01
 10
3.668155
 20
0.246753
 30
0.000000
  0
VERTEX
  8
LAYER-1
  6
LTYPE01
 10
3.715095
 20
0.246753
 30
0.000000
  0
VERTEX
  8
LAYER-1
  6
LTYPE01
 10
3.715095
 20
0.059525
 30
0.000000
  0
VERTEX
  8
LAYER-1
  6
LTYPE01
 10
3.668155
 20
0.059525
 30
0.000000
  0
SEQEND
  8
LAYER-1
  0
POLYLINE
  8
LAYER-1
 66
  1
 70
  0
 62
  0
 10
3.645018
 20
0.237641
 30
0.000000
  0
VERTEX
  8
LAYER-1
 10
3.645018
 20
0.237641
 30
0.000000
  0
VERTEX
  8
LAYER-1
 10
3.738635
 20
0.237641
 30
0.000000
  0
SEQEND
  8
LAYER-1
  0
POLYLINE
  8
LAYER-1
 66
  1
 70
  0
 62
  0
 10
3.738635
 20
0.237641
 30
0.000000
  0
VERTEX
  8
LAYER-1
 10
3.738635
 20
0.237641
 30
0.000000
  0
VERTEX
  8
LAYER-1
 10
3.738635
 20
0.239206
 30
0.000000
  0
SEQEND
  8
LAYER-1
  0
POLYLINE
  8
LAYER-1
 66
  1
 70
  0
 62
  0
 10
3.738635
 20
0.239206
 30
0.000000
  0
VERTEX
  8
LAYER-1
 10
3.738635
 20
0.239206
 30
0.000000
  0
VERTEX
  8
LAYER-1
 10
3.725596
 20
0.246770
 30
0.000000
  0
SEQEND
  8
LAYER-1
  0
POLYLINE
  8
LAYER-1
  6
LTYPE02
 66
  1
 70
  0
 62
  0
  6
LTYPE02
 10
3.669400
 20
0.145983
 30
0.000000
  0
VERTEX
  8
LAYER-1
  6
LTYPE02
 10
3.669400
 20
0.145983
 30
0.000000
  0
VERTEX
  8
LAYER-1
  6
LTYPE02
 10
3.669400
 20
0.112084
 30
0.000000
  0
SEQEND
  8
LAYER-1
  0
POLYLINE
  8
LAYER-1
  6
LTYPE02
 66
  1
 70
  0
 62
  0
  6
LTYPE02
 10
3.673308
 20
0.145983
 30
0.000000
  0
VERTEX
  8
LAYER-1
  6
LTYPE02
 10
3.673308
 20
0.145983
 30
0.000000
  0
VERTEX
  8
LAYER-1
  6
LTYPE02
 10
3.669400
 20
0.145983
 30
0.000000
  0
SEQEND
  8
LAYER-1
  0
POLYLINE
  8
LAYER-1
  6
LTYPE02
 66
  1
 70
  0
 62
  0
  6
LTYPE02
 10
3.673308
 20
0.145983
 30
0.000000
  0
VERTEX
  8
LAYER-1
  6
LTYPE02
 10
3.673308
 20
0.145983
 30
0.000000
  0
VERTEX
  8
LAYER-1
  6
LTYPE02
 10
3.673308
 20
0.150416
 30
0.000000
  0
SEQEND
  8
LAYER-1
  0
POLYLINE
  8
LAYER-1
  6
LTYPE02
 66
  1
 70
  0
 62
  0
  6
LTYPE02
 10
3.673308
 20
0.150416
 30
0.000000
  0
VERTEX
  8
LAYER-1
  6
LTYPE02
 10
3.673308
 20
0.150416
 30
0.000000
  0
VERTEX
  8
LAYER-1
  6
LTYPE02
 10
3.710568
 20
0.150416
 30
0.000000
  0
SEQEND
  8
LAYER-1
  0
POLYLINE
  8
LAYER-1
  6
LTYPE02
 66
  1
 70
  0
 62
  0
  6
LTYPE02
 10
3.669400
 20
0.112084
 30
0.000000
  0
VERTEX
  8
LAYER-1
  6
LTYPE02
 10
3.669400
 20
0.112084
 30
0.000000
  0
VERTEX
  8
LAYER-1
  6
LTYPE02
 10
3.713732
 20
0.112084
 30
0.000000
  0
SEQEND
  8
LAYER-1
  0
POLYLINE
  8
LAYER-1
  6
LTYPE02
 66
  1
 70
  0
 62
  0
  6
LTYPE02
 10
3.713732
 20
0.112084
 30
0.000000
  0
VERTEX
  8
LAYER-1
  6
LTYPE02
 10
3.713732
 20
0.112084
 30
0.000000
  0
VERTEX
  8
LAYER-1
  6
LTYPE02
 10
3.713732
 20
0.145983
 30
0.000000
  0
SEQEND
  8
LAYER-1
  0
POLYLINE
  8
LAYER-1
  6
LTYPE02
 66
  1
 70
  0
 62
  0
  6
LTYPE02
 10
3.710568
 20
0.145983
 30
0.000000
  0
VERTEX
  8
LAYER-1
  6
LTYPE02
 10
3.710568
 20
0.145983
 30
0.000000
  0
VERTEX
  8
LAYER-1
  6
LTYPE02
 10
3.713732
 20
0.145983
 30
0.000000
  0
SEQEND
  8
LAYER-1
  0
POLYLINE
  8
LAYER-1
  6
LTYPE02
 66
  1
 70
  0
 62
  0
  6
LTYPE02
 10
3.710568
 20
0.150416
 30
0.000000
  0
VERTEX
  8
LAYER-1
  6
LTYPE02
 10
3.710568
 20
0.150416
 30
0.000000
  0
VERTEX
  8
LAYER-1
  6
LTYPE02
 10
3.710568
 20
0.145983
 30
0.000000
  0
SEQEND
  8
LAYER-1
  0
POLYLINE
  8
LAYER-1
  6
LTYPE01
 66
  1
 70
  1
 62
  0
  0
VERTEX
  8
LAYER-1
  6
LTYPE01
 10
3.674538
 20
0.111938
 30
0.000000
  0
VERTEX
  8
LAYER-1
  6
LTYPE01
 10
3.708959
 20
0.111938
 30
0.000000
  0
VERTEX
  8
LAYER-1
  6
LTYPE01
 10
3.708959
 20
0.059785
 30
0.000000
  0
VERTEX
  8
LAYER-1
  6
LTYPE01
 10
3.674538
 20
0.059785
 30
0.000000
  0
SEQEND
  8
LAYER-1
  0
POLYLINE
  8
LAYER-1
  6
LTYPE02
 66
  1
 70
  0
 62
  0
  6
LTYPE02
 10
3.708959
 20
0.111938
 30
0.000000
  0
VERTEX
  8
LAYER-1
  6
LTYPE02
 10
3.708959
 20
0.111938
 30
0.000000
  0
VERTEX
  8
LAYER-1
  6
LTYPE02
 10
3.674538
 20
0.109070
 30
0.000000
  0
SEQEND
  8
LAYER-1
  0
POLYLINE
  8
LAYER-1
  6
LTYPE02
 66
  1
 70
  0
 62
  0
  6
LTYPE02
 10
3.708959
 20
0.110374
 30
0.000000
  0
VERTEX
  8
LAYER-1
  6
LTYPE02
 10
3.708959
 20
0.110374
 30
0.000000
  0
VERTEX
  8
LAYER-1
  6
LTYPE02
 10
3.674538
 20
0.107245
 30
0.000000
  0
SEQEND
  8
LAYER-1
  0
POLYLINE
  8
LAYER-1
  6
LTYPE02
 66
  1
 70
  0
 62
  0
  6
LTYPE02
 10
3.708959
 20
0.106984
 30
0.000000
  0
VERTEX
  8
LAYER-1
  6
LTYPE02
 10
3.708959
 20
0.106984
 30
0.000000
  0
VERTEX
  8
LAYER-1
  6
LTYPE02
 10
3.674538
 20
0.104114
 30
0.000000
  0
SEQEND
  8
LAYER-1
  0
POLYLINE
  8
LAYER-1
  6
LTYPE02
 66
  1
 70
  0
 62
  0
  6
LTYPE02
 10
3.708959
 20
0.105419
 30
0.000000
  0
VERTEX
  8
LAYER-1
  6
LTYPE02
 10
3.708959
 20
0.105419
 30
0.000000
  0
VERTEX
  8
LAYER-1
  6
LTYPE02
 10
3.674538
 20
0.102290
 30
0.000000
  0
SEQEND
  8
LAYER-1
  0
POLYLINE
  8
LAYER-1
  6
LTYPE02
 66
  1
 70
  0
 62
  0
  6
LTYPE02
 10
3.708959
 20
0.101835
 30
0.000000
  0
VERTEX
  8
LAYER-1
  6
LTYPE02
 10
3.708959
 20
0.101835
 30
0.000000
  0
VERTEX
  8
LAYER-1
  6
LTYPE02
 10
3.674538
 20
0.098965
 30
0.000000
  0
SEQEND
  8
LAYER-1
  0
POLYLINE
  8
LAYER-1
  6
LTYPE02
 66
  1
 70
  0
 62
  0
  6
LTYPE02
 10
3.708959
 20
0.100271
 30
0.000000
  0
VERTEX
  8
LAYER-1
  6
LTYPE02
 10
3.708959
 20
0.100271
 30
0.000000
  0
VERTEX
  8
LAYER-1
  6
LTYPE02
 10
3.674538
 20
0.097141
 30
0.000000
  0
SEQEND
  8
LAYER-1
  0
POLYLINE
  8
LAYER-1
  6
LTYPE02
 66
  1
 70
  0
 62
  0
  6
LTYPE02
 10
3.708895
 20
0.097335
 30
0.000000
  0
VERTEX
  8
LAYER-1
  6
LTYPE02
 10
3.708895
 20
0.097335
 30
0.000000
  0
VERTEX
  8
LAYER-1
  6
LTYPE02
 10
3.674472
 20
0.094468
 30
0.000000
  0
SEQEND
  8
LAYER-1
  0
POLYLINE
  8
LAYER-1
  6
LTYPE02
 66
  1
 70
  0
 62
  0
  6
LTYPE02
 10
3.708895
 20
0.095772
 30
0.000000
  0
VERTEX
  8
LAYER-1
  6
LTYPE02
 10
3.708895
 20
0.095772
 30
0.000000
  0
VERTEX
  8
LAYER-1
  6
LTYPE02
 10
3.674472
 20
0.092644
 30
0.000000
  0
SEQEND
  8
LAYER-1
  0
POLYLINE
  8
LAYER-1
  6
LTYPE02
 66
  1
 70
  0
 62
  0
  6
LTYPE02
 10
3.708895
 20
0.092513
 30
0.000000
  0
VERTEX
  8
LAYER-1
  6
LTYPE02
 10
3.708895
 20
0.092513
 30
0.000000
  0
VERTEX
  8
LAYER-1
  6
LTYPE02
 10
3.674472
 20
0.089645
 30
0.000000
  0
SEQEND
  8
LAYER-1
  0
POLYLINE
  8
LAYER-1
  6
LTYPE02
 66
  1
 70
  0
 62
  0
  6
LTYPE02
 10
3.708895
 20
0.090947
 30
0.000000
  0
VERTEX
  8
LAYER-1
  6
LTYPE02
 10
3.708895
 20
0.090947
 30
0.000000
  0
VERTEX
  8
LAYER-1
  6
LTYPE02
 10
3.674472
 20
0.087818
 30
0.000000
  0
SEQEND
  8
LAYER-1
  0
POLYLINE
  8
LAYER-1
  6
LTYPE02
 66
  1
 70
  0
 62
  0
  6
LTYPE02
 10
3.708895
 20
0.087556
 30
0.000000
  0
VERTEX
  8
LAYER-1
  6
LTYPE02
 10
3.708895
 20
0.087556
 30
0.000000
  0
VERTEX
  8
LAYER-1
  6
LTYPE02
 10
3.674472
 20
0.084688
 30
0.000000
  0
SEQEND
  8
LAYER-1
  0
POLYLINE
  8
LAYER-1
  6
LTYPE02
 66
  1
 70
  0
 62
  0
  6
LTYPE02
 10
3.708895
 20
0.085993
 30
0.000000
  0
VERTEX
  8
LAYER-1
  6
LTYPE02
 10
3.708895
 20
0.085993
 30
0.000000
  0
VERTEX
  8
LAYER-1
  6
LTYPE02
 10
3.674472
 20
0.082863
 30
0.000000
  0
SEQEND
  8
LAYER-1
  0
POLYLINE
  8
LAYER-1
  6
LTYPE02
 66
  1
 70
  0
 62
  0
  6
LTYPE02
 10
3.708895
 20
0.082407
 30
0.000000
  0
VERTEX
  8
LAYER-1
  6
LTYPE02
 10
3.708895
 20
0.082407
 30
0.000000
  0
VERTEX
  8
LAYER-1
  6
LTYPE02
 10
3.674472
 20
0.079538
 30
0.000000
  0
SEQEND
  8
LAYER-1
  0
POLYLINE
  8
LAYER-1
  6
LTYPE02
 66
  1
 70
  0
 62
  0
  6
LTYPE02
 10
3.708895
 20
0.080842
 30
0.000000
  0
VERTEX
  8
LAYER-1
  6
LTYPE02
 10
3.708895
 20
0.080842
 30
0.000000
  0
VERTEX
  8
LAYER-1
  6
LTYPE02
 10
3.674472
 20
0.077714
 30
0.000000
  0
SEQEND
  8
LAYER-1
  0
POLYLINE
  8
LAYER-1
  6
LTYPE02
 66
  1
 70
  0
 62
  0
  6
LTYPE02
 10
3.708829
 20
0.077908
 30
0.000000
  0
VERTEX
  8
LAYER-1
  6
LTYPE02
 10
3.708829
 20
0.077908
 30
0.000000
  0
VERTEX
  8
LAYER-1
  6
LTYPE02
 10
3.674408
 20
0.075040
 30
0.000000
  0
SEQEND
  8
LAYER-1
  0
POLYLINE
  8
LAYER-1
  6
LTYPE02
 66
  1
 70
  0
 62
  0
  6
LTYPE02
 10
3.708829
 20
0.076345
 30
0.000000
  0
VERTEX
  8
LAYER-1
  6
LTYPE02
 10
3.708829
 20
0.076345
 30
0.000000
  0
VERTEX
  8
LAYER-1
  6
LTYPE02
 10
3.674408
 20
0.073215
 30
0.000000
  0
SEQEND
  8
LAYER-1
  0
POLYLINE
  8
LAYER-1
  6
LTYPE02
 66
  1
 70
  0
 62
  0
  6
LTYPE02
 10
3.708959
 20
0.073541
 30
0.000000
  0
VERTEX
  8
LAYER-1
  6
LTYPE02
 10
3.708959
 20
0.073541
 30
0.000000
  0
VERTEX
  8
LAYER-1
  6
LTYPE02
 10
3.674538
 20
0.070673
 30
0.000000
  0
SEQEND
  8
LAYER-1
  0
POLYLINE
  8
LAYER-1
  6
LTYPE02
 66
  1
 70
  0
 62
  0
  6
LTYPE02
 10
3.708959
 20
0.071977
 30
0.000000
  0
VERTEX
  8
LAYER-1
  6
LTYPE02
 10
3.708959
 20
0.071977
 30
0.000000
  0
VERTEX
  8
LAYER-1
  6
LTYPE02
 10
3.674538
 20
0.068848
 30
0.000000
  0
SEQEND
  8
LAYER-1
  0
POLYLINE
  8
LAYER-1
  6
LTYPE02
 66
  1
 70
  0
 62
  0
  6
LTYPE02
 10
3.708959
 20
0.068587
 30
0.000000
  0
VERTEX
  8
LAYER-1
  6
LTYPE02
 10
3.708959
 20
0.068587
 30
0.000000
  0
VERTEX
  8
LAYER-1
  6
LTYPE02
 10
3.674538
 20
0.065719
 30
0.000000
  0
SEQEND
  8
LAYER-1
  0
POLYLINE
  8
LAYER-1
  6
LTYPE02
 66
  1
 70
  0
 62
  0
  6
LTYPE02
 10
3.708959
 20
0.067023
 30
0.000000
  0
VERTEX
  8
LAYER-1
  6
LTYPE02
 10
3.708959
 20
0.067023
 30
0.000000
  0
VERTEX
  8
LAYER-1
  6
LTYPE02
 10
3.674538
 20
0.063893
 30
0.000000
  0
SEQEND
  8
LAYER-1
  0
POLYLINE
  8
LAYER-1
  6
LTYPE02
 66
  1
 70
  0
 62
  0
  6
LTYPE02
 10
3.708959
 20
0.063436
 30
0.000000
  0
VERTEX
  8
LAYER-1
  6
LTYPE02
 10
3.708959
 20
0.063436
 30
0.000000
  0
VERTEX
  8
LAYER-1
  6
LTYPE02
 10
3.674538
 20
0.060567
 30
0.000000
  0
SEQEND
  8
LAYER-1
  0
POLYLINE
  8
LAYER-1
  6
LTYPE02
 66
  1
 70
  0
 62
  0
  6
LTYPE02
 10
3.708959
 20
0.061872
 30
0.000000
  0
VERTEX
  8
LAYER-1
  6
LTYPE02
 10
3.708959
 20
0.061872
 30
0.000000
  0
VERTEX
  8
LAYER-1
  6
LTYPE02
 10
3.685946
 20
0.059785
 30
0.000000
  0
SEQEND
  8
LAYER-1
  0
POLYLINE
  8
LAYER-1
  6
LTYPE02
 66
  1
 70
  0
 62
  0
  6
LTYPE02
 10
3.675529
 20
0.171149
 30
0.000000
  0
VERTEX
  8
LAYER-1
  6
LTYPE02
 10
3.675529
 20
0.171149
 30
0.000000
  0
VERTEX
  8
LAYER-1
  6
LTYPE02
 10
3.675529
 20
0.246770
 30
0.000000
  0
SEQEND
  8
LAYER-1
  0
POLYLINE
  8
LAYER-1
  6
LTYPE02
 66
  1
 70
  0
 62
  0
  6
LTYPE02
 10
3.707863
 20
0.171149
 30
0.000000
  0
VERTEX
  8
LAYER-1
  6
LTYPE02
 10
3.707863
 20
0.171149
 30
0.000000
  0
VERTEX
  8
LAYER-1
  6
LTYPE02
 10
3.707863
 20
0.246770
 30
0.000000
  0
SEQEND
  8
LAYER-1
  0
POLYLINE
  8
LAYER-1
  6
LTYPE01
 66
  1
 70
  0
 62
  0
  6
LTYPE01
 10
3.675529
 20
0.171149
 30
0.000000
  0
VERTEX
  8
LAYER-1
  6
LTYPE01
 10
3.675529
 20
0.171149
 30
0.000000
  0
VERTEX
  8
LAYER-1
  6
LTYPE01
 10
3.678295
 20
0.161685
 30
0.000000
  0
VERTEX
  8
LAYER-1
  6
LTYPE01
 10
3.689728
 20
0.156949
 30
0.000000
  0
VERTEX
  8
LAYER-1
  6
LTYPE01
 10
3.701160
 20
0.161685
 30
0.000000
  0
VERTEX
  8
LAYER-1
  6
LTYPE01
 10
3.707864
 20
0.171149
 30
0.000000
  0
SEQEND
  8
LAYER-1
  0
POLYLINE
  8
LAYER-1
 66
  1
 70
  0
 62
  0
 10
3.657796
 20
0.246770
 30
0.000000
  0
VERTEX
  8
LAYER-1
 10
3.657796
 20
0.246770
 30
0.000000
  0
VERTEX
  8
LAYER-1
 10
3.725596
 20
0.246770
 30
0.000000
  0
SEQEND
  8
LAYER-1
  0
TEXT
  8
LAYER-1
 62
  7
 10
1.986445
 20
8.846999
 30
0.000000
 40
0.177083
  1
Elevazione modello Concept 99
 72
  5
 11
5.444778
 21
8.846999
 31
0.000000
  0
TEXT
  8
LAYER-1
 62
  0
 10
1.042000
 20
6.902555
 30
0.000000
 40
0.125000
  1
1-
 72
  5
 11
1.264222
 21
6.902555
 31
0.000000
  0
TEXT
  8
LAYER-1
 62
  0
 10
1.264222
 20
6.902555
 30
0.000000
 40
0.104167
  1
9/16
 72
  5
 11
1.625334
 21
6.902555
 31
0.000000
  0
TEXT
  8
LAYER-1
 62
  0
 10
1.625334
 20
6.902555
 30
0.000000
 40
0.125000
  1
"
 72
  5
 11
1.750334
 21
6.902555
 31
0.000000
  0
TEXT
  8
LAYER-1
 62
  0
 10
1.042000
 20
6.708110
 30
0.000000
 40
0.125000
  1
40mm
 72
  5
 11
1.611445
 21
6.708110
 31
0.000000
  0
TEXT
  8
LAYER-1
 62
  0
 10
2.430889
 20
7.971999
 30
0.000000
 40
0.125000
  1
Montante
 72
  5
 11
3.194778
 21
7.971999
 31
0.000000
  0
TEXT
  8
LAYER-1
 62
  0
 10
2.430889
 20
7.777555
 30
0.000000
 40
0.125000
  1
intermedio #3
 72
  5
 11
3.555889
 21
7.777555
 31
0.000000
  0
POLYLINE
  8
LAYER-1
 66
  1
 70
  0
 62
  0
 10
3.479500
 20
7.798388
 30
0.000000
  0
VERTEX
  8
LAYER-1
 10
3.479500
 20
7.798388
 30
0.000000
  0
VERTEX
  8
LAYER-1
 10
3.720577
 20
7.483293
 30
0.000000
  0
SEQEND
  8
LAYER-1
  0
POLYLINE
  8
LAYER-1
 66
  1
 70
  1
 62
  0
  0
VERTEX
  8
LAYER-1
 10
3.732538
 20
7.467659
 30
0.000000
  0
VERTEX
  8
LAYER-1
 10
3.657248
 20
7.497494
 30
0.000000
  0
VERTEX
  8
LAYER-1
 10
3.690340
 20
7.522812
 30
0.000000
  0
VERTEX
  8
LAYER-1
 10
3.723432
 20
7.548131
 30
0.000000
  0
VERTEX
  8
LAYER-1
 10
3.732538
 20
7.467659
 30
0.000000
  0
SEQEND
  8
LAYER-1
  0
LINE
  8
LAYER-1
 62
  0
 10
5.837137
 20
5.546482
 30
0.000000
 11
5.837137
 21
6.162857
 31
0.000000
  0
LINE
  8
LAYER-1
 62
  0
 10
5.752939
 20
5.546482
 30
0.000000
 11
5.962137
 21
5.546482
 31
0.000000
  0
LINE
  8
LAYER-1
 62
  0
 10
5.752836
 20
6.162857
 30
0.000000
 11
5.962137
 21
6.162857
 31
0.000000
  0
LINE
  8
LAYER-1
 62
  0
 10
5.837137
 20
6.055333
 30
0.000000
 11
5.837137
 21
5.546482
 31
0.000000
  0
LINE
  8
LAYER-1
 62
  0
 10
5.807674
 20
5.575945
 30
0.000000
 11
5.866600
 21
5.517018
 31
0.000000
  0
LINE
  8
LAYER-1
 62
  0
 10
5.807674
 20
6.192320
 30
0.000000
 11
5.866600
 21
6.133394
 31
0.000000
  0
TEXT
  8
LAYER-1
 62
  0
 10
5.995164
 20
5.811486
 30
0.000000
 40
0.125000
  1
     
 50
90.000000
  0
TEXT
  8
LAYER-1
 62
  0
 10
1.055889
 20
7.124777
 30
0.000000
 40
0.125000
  1
Guida
 72
  5
 11
1.583667
 21
7.124777
 31
0.000000
  0
POLYLINE
  8
LAYER-1
 66
  1
 70
  1
 62
  0
  0
VERTEX
  8
LAYER-1
 10
3.817180
 20
7.196307
 30
0.000000
  0
VERTEX
  8
LAYER-1
 10
3.853131
 20
7.196307
 30
0.000000
  0
VERTEX
  8
LAYER-1
 10
3.853131
 20
0.612622
 30
0.000000
  0
VERTEX
  8
LAYER-1
 10
3.817180
 20
0.612622
 30
0.000000
  0
SEQEND
  8
LAYER-1
  0
POLYLINE
  8
LAYER-1
 66
  1
 70
  1
 62
  0
  0
VERTEX
  8
LAYER-1
 10
4.225444
 20
7.196307
 30
0.000000
  0
VERTEX
  8
LAYER-1
 10
4.261395
 20
7.196307
 30
0.000000
  0
VERTEX
  8
LAYER-1
 10
4.261395
 20
0.612622
 30
0.000000
  0
VERTEX
  8
LAYER-1
 10
4.225444
 20
0.612622
 30
0.000000
  0
SEQEND
  8
LAYER-1
  0
POLYLINE
  8
LAYER-1
 66
  1
 70
  1
 62
  0
  0
VERTEX
  8
LAYER-1
 10
4.631972
 20
7.196307
 30
0.000000
  0
VERTEX
  8
LAYER-1
 10
4.667923
 20
7.196307
 30
0.000000
  0
VERTEX
  8
LAYER-1
 10
4.667923
 20
0.612622
 30
0.000000
  0
VERTEX
  8
LAYER-1
 10
4.631972
 20
0.612622
 30
0.000000
  0
SEQEND
  8
LAYER-1
  0
POLYLINE
  8
LAYER-1
 66
  1
 70
  1
 62
  0
  0
VERTEX
  8
LAYER-1
 10
5.040237
 20
7.196307
 30
0.000000
  0
VERTEX
  8
LAYER-1
 10
5.076188
 20
7.196307
 30
0.000000
  0
VERTEX
  8
LAYER-1
 10
5.076188
 20
0.612622
 30
0.000000
  0
VERTEX
  8
LAYER-1
 10
5.040237
 20
0.612622
 30
0.000000
  0
SEQEND
  8
LAYER-1
  0
POLYLINE
  8
LAYER-1
 66
  1
 70
  1
 62
  0
  0
VERTEX
  8
LAYER-1
 10
5.449803
 20
7.196307
 30
0.000000
  0
VERTEX
  8
LAYER-1
 10
5.485753
 20
7.196307
 30
0.000000
  0
VERTEX
  8
LAYER-1
 10
5.485753
 20
0.612622
 30
0.000000
  0
VERTEX
  8
LAYER-1
 10
5.449803
 20
0.612622
 30
0.000000
  0
SEQEND
  8
LAYER-1
  0
POLYLINE
  8
LAYER-1
 66
  1
 70
  1
 62
  0
 10
3.814614
 20
0.341817
 30
0.000000
  0
VERTEX
  8
LAYER-1
 10
3.814614
 20
0.341817
 30
0.000000
  0
VERTEX
  8
LAYER-1
 10
5.710531
 20
0.341919
 30
0.000000
  0
VERTEX
  8
LAYER-1
 10
5.710531
 20
0.613452
 30
0.000000
  0
VERTEX
  8
LAYER-1
 10
3.814614
 20
0.613569
 30
0.000000
  0
SEQEND
  8
LAYER-1
  0
POLYLINE
  8
LAYER-1
 66
  1
 70
  0
 62
  0
 10
3.814395
 20
0.409725
 30
0.000000
  0
VERTEX
  8
LAYER-1
 10
3.814395
 20
0.409725
 30
0.000000
  0
VERTEX
  8
LAYER-1
 10
3.854121
 20
0.409725
 30
0.000000
  0
SEQEND
  8
LAYER-1
  0
POLYLINE
  8
LAYER-1
 66
  1
 70
  0
 62
  0
 10
3.814395
 20
0.539635
 30
0.000000
  0
VERTEX
  8
LAYER-1
 10
3.814395
 20
0.539635
 30
0.000000
  0
VERTEX
  8
LAYER-1
 10
3.854121
 20
0.539635
 30
0.000000
  0
SEQEND
  8
LAYER-1
  0
POLYLINE
  8
LAYER-1
 66
  1
 70
  0
 62
  0
 10
3.815847
 20
0.336671
 30
0.000000
  0
VERTEX
  8
LAYER-1
 10
3.815847
 20
0.336671
 30
0.000000
  0
VERTEX
  8
LAYER-1
 10
3.829018
 20
0.329626
 30
0.000000
  0
VERTEX
  8
LAYER-1
 10
3.846097
 20
0.333957
 30
0.000000
  0
VERTEX
  8
LAYER-1
 10
3.852750
 20
0.336672
 30
0.000000
  0
SEQEND
  8
LAYER-1
  0
POLYLINE
  8
LAYER-1
 66
  1
 70
  1
 62
  0
  0
VERTEX
  8
LAYER-1
 10
3.863259
 20
0.336050
 30
0.000000
  0
VERTEX
  8
LAYER-1
 10
3.808644
 20
0.336050
 30
0.000000
  0
VERTEX
  8
LAYER-1
 10
3.808644
 20
0.341955
 30
0.000000
  0
VERTEX
  8
LAYER-1
 10
3.863259
 20
0.341955
 30
0.000000
  0
SEQEND
  8
LAYER-1
  0
POLYLINE
  8
LAYER-1
 66
  1
 70
  1
 62
  0
 10
3.814820
 20
7.467938
 30
0.000000
  0
VERTEX
  8
LAYER-1
 10
3.814820
 20
7.467938
 30
0.000000
  0
VERTEX
  8
LAYER-1
 10
5.711172
 20
7.467838
 30
0.000000
  0
VERTEX
  8
LAYER-1
 10
5.711172
 20
7.196304
 30
0.000000
  0
VERTEX
  8
LAYER-1
 10
3.814820
 20
7.196187
 30
0.000000
  0
SEQEND
  8
LAYER-1
  0
POLYLINE
  8
LAYER-1
 66
  1
 70
  0
 62
  0
 10
4.076110
 20
7.467938
 30
0.000000
  0
VERTEX
  8
LAYER-1
 10
4.076110
 20
7.467938
 30
0.000000
  0
VERTEX
  8
LAYER-1
 10
4.076110
 20
7.196306
 30
0.000000
  0
SEQEND
  8
LAYER-1
  0
POLYLINE
  8
LAYER-1
 66
  1
 70
  0
 62
  0
 10
4.406606
 20
7.196306
 30
0.000000
  0
VERTEX
  8
LAYER-1
 10
4.406606
 20
7.196306
 30
0.000000
  0
VERTEX
  8
LAYER-1
 10
4.406606
 20
7.467938
 30
0.000000
  0
SEQEND
  8
LAYER-1
  0
POLYLINE
  8
LAYER-1
 66
  1
 70
  0
 62
  0
 10
5.219438
 20
7.196306
 30
0.000000
  0
VERTEX
  8
LAYER-1
 10
5.219438
 20
7.196306
 30
0.000000
  0
VERTEX
  8
LAYER-1
 10
5.219438
 20
7.467938
 30
0.000000
  0
SEQEND
  8
LAYER-1
  0
POLYLINE
  8
LAYER-1
 66
  1
 70
  0
 62
  0
 10
5.038270
 20
7.467977
 30
0.000000
  0
VERTEX
  8
LAYER-1
 10
5.038270
 20
7.467977
 30
0.000000
  0
VERTEX
  8
LAYER-1
 10
5.038270
 20
7.196348
 30
0.000000
  0
SEQEND
  8
LAYER-1
  0
POLYLINE
  8
LAYER-1
 66
  1
 70
  0
 62
  0
 10
5.078129
 20
7.467977
 30
0.000000
  0
VERTEX
  8
LAYER-1
 10
5.078129
 20
7.467977
 30
0.000000
  0
VERTEX
  8
LAYER-1
 10
5.078129
 20
7.196348
 30
0.000000
  0
SEQEND
  8
LAYER-1
  0
POLYLINE
  8
LAYER-1
 66
  1
 70
  0
 62
  0
 10
4.224252
 20
7.467977
 30
0.000000
  0
VERTEX
  8
LAYER-1
 10
4.224252
 20
7.467977
 30
0.000000
  0
VERTEX
  8
LAYER-1
 10
4.224252
 20
7.196348
 30
0.000000
  0
SEQEND
  8
LAYER-1
  0
POLYLINE
  8
LAYER-1
 66
  1
 70
  0
 62
  0
 10
4.263069
 20
7.467977
 30
0.000000
  0
VERTEX
  8
LAYER-1
 10
4.263069
 20
7.467977
 30
0.000000
  0
VERTEX
  8
LAYER-1
 10
4.263069
 20
7.196348
 30
0.000000
  0
SEQEND
  8
LAYER-1
  0
POLYLINE
  8
LAYER-1
 66
  1
 70
  0
 62
  0
 10
4.490928
 20
7.467938
 30
0.000000
  0
VERTEX
  8
LAYER-1
 10
4.490928
 20
7.467938
 30
0.000000
  0
VERTEX
  8
LAYER-1
 10
4.490928
 20
7.196306
 30
0.000000
  0
SEQEND
  8
LAYER-1
  0
POLYLINE
  8
LAYER-1
 66
  1
 70
  0
 62
  0
 10
5.303760
 20
7.467938
 30
0.000000
  0
VERTEX
  8
LAYER-1
 10
5.303760
 20
7.467938
 30
0.000000
  0
VERTEX
  8
LAYER-1
 10
5.303760
 20
7.196306
 30
0.000000
  0
SEQEND
  8
LAYER-1
  0
POLYLINE
  8
LAYER-1
 66
  1
 70
  0
 62
  0
 10
5.448664
 20
7.467543
 30
0.000000
  0
VERTEX
  8
LAYER-1
 10
5.448664
 20
7.467543
 30
0.000000
  0
VERTEX
  8
LAYER-1
 10
5.448664
 20
7.195914
 30
0.000000
  0
SEQEND
  8
LAYER-1
  0
POLYLINE
  8
LAYER-1
 66
  1
 70
  0
 62
  0
 10
5.487047
 20
7.467543
 30
0.000000
  0
VERTEX
  8
LAYER-1
 10
5.487047
 20
7.467543
 30
0.000000
  0
VERTEX
  8
LAYER-1
 10
5.487047
 20
7.195914
 30
0.000000
  0
SEQEND
  8
LAYER-1
  0
POLYLINE
  8
LAYER-1
 66
  1
 70
  0
 62
  0
 10
4.630826
 20
7.468012
 30
0.000000
  0
VERTEX
  8
LAYER-1
 10
4.630826
 20
7.468012
 30
0.000000
  0
VERTEX
  8
LAYER-1
 10
4.630826
 20
7.196384
 30
0.000000
  0
SEQEND
  8
LAYER-1
  0
POLYLINE
  8
LAYER-1
 66
  1
 70
  0
 62
  0
 10
4.669209
 20
7.468012
 30
0.000000
  0
VERTEX
  8
LAYER-1
 10
4.669209
 20
7.468012
 30
0.000000
  0
VERTEX
  8
LAYER-1
 10
4.669209
 20
7.196384
 30
0.000000
  0
SEQEND
  8
LAYER-1
  0
POLYLINE
  8
LAYER-1
 66
  1
 70
  0
 62
  0
 10
4.003777
 20
7.196309
 30
0.000000
  0
VERTEX
  8
LAYER-1
 10
4.003777
 20
7.196309
 30
0.000000
  0
VERTEX
  8
LAYER-1
 10
4.003777
 20
7.467938
 30
0.000000
  0
SEQEND
  8
LAYER-1
  0
POLYLINE
  8
LAYER-1
 66
  1
 70
  0
 62
  0
 10
4.039206
 20
7.467938
 30
0.000000
  0
VERTEX
  8
LAYER-1
 10
4.039206
 20
7.467938
 30
0.000000
  0
VERTEX
  8
LAYER-1
 10
4.039206
 20
7.196308
 30
0.000000
  0
SEQEND
  8
LAYER-1
  0
POLYLINE
  8
LAYER-1
 66
  1
 70
  0
 62
  0
 10
4.038236
 20
7.467950
 30
0.000000
  0
VERTEX
  8
LAYER-1
 10
4.038236
 20
7.467950
 30
0.000000
  0
VERTEX
  8
LAYER-1
 10
4.024353
 20
7.478880
 30
0.000000
  0
VERTEX
  8
LAYER-1
 10
4.009591
 20
7.476791
 30
0.000000
  0
VERTEX
  8
LAYER-1
 10
4.004680
 20
7.467939
 30
0.000000
  0
SEQEND
  8
LAYER-1
  0
POLYLINE
  8
LAYER-1
 66
  1
 70
  0
 62
  0
 10
4.076108
 20
7.467938
 30
0.000000
  0
VERTEX
  8
LAYER-1
 10
4.076108
 20
7.467938
 30
0.000000
  0
VERTEX
  8
LAYER-1
 10
4.059002
 20
7.478922
 30
0.000000
  0
VERTEX
  8
LAYER-1
 10
4.041921
 20
7.474591
 30
0.000000
  0
VERTEX
  8
LAYER-1
 10
4.039206
 20
7.467939
 30
0.000000
  0
SEQEND
  8
LAYER-1
  0
POLYLINE
  8
LAYER-1
 66
  1
 70
  0
 62
  0
 10
4.491668
 20
7.467445
 30
0.000000
  0
VERTEX
  8
LAYER-1
 10
4.491668
 20
7.467445
 30
0.000000
  0
VERTEX
  8
LAYER-1
 10
4.472164
 20
7.477437
 30
0.000000
  0
VERTEX
  8
LAYER-1
 10
4.454090
 20
7.470712
 30
0.000000
  0
VERTEX
  8
LAYER-1
 10
4.454761
 20
7.467445
 30
0.000000
  0
SEQEND
  8
LAYER-1
  0
POLYLINE
  8
LAYER-1
 66
  1
 70
  0
 62
  0
 10
5.304626
 20
7.467914
 30
0.000000
  0
VERTEX
  8
LAYER-1
 10
5.304626
 20
7.467914
 30
0.000000
  0
VERTEX
  8
LAYER-1
 10
5.285122
 20
7.477907
 30
0.000000
  0
VERTEX
  8
LAYER-1
 10
5.267048
 20
7.471181
 30
0.000000
  0
VERTEX
  8
LAYER-1
 10
5.267718
 20
7.467915
 30
0.000000
  0
SEQEND
  8
LAYER-1
  0
POLYLINE
  8
LAYER-1
 66
  1
 70
  0
 62
  0
 10
4.443959
 20
7.467445
 30
0.000000
  0
VERTEX
  8
LAYER-1
 10
4.443959
 20
7.467445
 30
0.000000
  0
VERTEX
  8
LAYER-1
 10
4.424455
 20
7.477437
 30
0.000000
  0
VERTEX
  8
LAYER-1
 10
4.406381
 20
7.470712
 30
0.000000
  0
VERTEX
  8
LAYER-1
 10
4.407051
 20
7.467445
 30
0.000000
  0
SEQEND
  8
LAYER-1
  0
POLYLINE
  8
LAYER-1
 66
  1
 70
  0
 62
  0
 10
4.464422
 20
7.468004
 30
0.000000
  0
VERTEX
  8
LAYER-1
 10
4.464422
 20
7.468004
 30
0.000000
  0
VERTEX
  8
LAYER-1
 10
4.453670
 20
7.481010
 30
0.000000
  0
VERTEX
  8
LAYER-1
 10
4.439655
 20
7.482603
 30
0.000000
  0
VERTEX
  8
LAYER-1
 10
4.428618
 20
7.473819
 30
0.000000
  0
VERTEX
  8
LAYER-1
 10
4.428993
 20
7.468004
 30
0.000000
  0
SEQEND
  8
LAYER-1
  0
POLYLINE
  8
LAYER-1
 66
  1
 70
  0
 62
  0
 10
4.428994
 20
7.468004
 30
0.000000
  0
VERTEX
  8
LAYER-1
 10
4.428994
 20
7.468004
 30
0.000000
  0
VERTEX
  8
LAYER-1
 10
4.464422
 20
7.468004
 30
0.000000
  0
SEQEND
  8
LAYER-1
  0
POLYLINE
  8
LAYER-1
 66
  1
 70
  0
 62
  0
 10
5.255976
 20
7.467914
 30
0.000000
  0
VERTEX
  8
LAYER-1
 10
5.255976
 20
7.467914
 30
0.000000
  0
VERTEX
  8
LAYER-1
 10
5.236471
 20
7.477907
 30
0.000000
  0
VERTEX
  8
LAYER-1
 10
5.218398
 20
7.471181
 30
0.000000
  0
VERTEX
  8
LAYER-1
 10
5.219068
 20
7.467915
 30
0.000000
  0
SEQEND
  8
LAYER-1
  0
POLYLINE
  8
LAYER-1
 66
  1
 70
  0
 62
  0
 10
5.280670
 20
7.468004
 30
0.000000
  0
VERTEX
  8
LAYER-1
 10
5.280670
 20
7.468004
 30
0.000000
  0
VERTEX
  8
LAYER-1
 10
5.269917
 20
7.481010
 30
0.000000
  0
VERTEX
  8
LAYER-1
 10
5.255902
 20
7.482603
 30
0.000000
  0
VERTEX
  8
LAYER-1
 10
5.244865
 20
7.473819
 30
0.000000
  0
VERTEX
  8
LAYER-1
 10
5.245241
 20
7.468004
 30
0.000000
  0
SEQEND
  8
LAYER-1
  0
POLYLINE
  8
LAYER-1
 66
  1
 70
  0
 62
  0
 10
5.245241
 20
7.468004
 30
0.000000
  0
VERTEX
  8
LAYER-1
 10
5.245241
 20
7.468004
 30
0.000000
  0
VERTEX
  8
LAYER-1
 10
5.280669
 20
7.468004
 30
0.000000
  0
SEQEND
  8
LAYER-1
  0
POLYLINE
  8
LAYER-1
 66
  1
 70
  0
 62
  0
 10
4.004710
 20
7.196282
 30
0.000000
  0
VERTEX
  8
LAYER-1
 10
4.004710
 20
7.196282
 30
0.000000
  0
VERTEX
  8
LAYER-1
 10
4.014650
 20
7.189282
 30
0.000000
  0
VERTEX
  8
LAYER-1
 10
4.029413
 20
7.191360
 30
0.000000
  0
VERTEX
  8
LAYER-1
 10
4.037929
 20
7.195722
 30
0.000000
  0
SEQEND
  8
LAYER-1
  0
POLYLINE
  8
LAYER-1
 66
  1
 70
  0
 62
  0
 10
4.037929
 20
7.195722
 30
0.000000
  0
VERTEX
  8
LAYER-1
 10
4.037929
 20
7.195722
 30
0.000000
  0
VERTEX
  8
LAYER-1
 10
4.004710
 20
7.196282
 30
0.000000
  0
SEQEND
  8
LAYER-1
  0
POLYLINE
  8
LAYER-1
 66
  1
 70
  0
 62
  0
 10
4.040138
 20
7.196282
 30
0.000000
  0
VERTEX
  8
LAYER-1
 10
4.040138
 20
7.196282
 30
0.000000
  0
VERTEX
  8
LAYER-1
 10
4.053310
 20
7.189236
 30
0.000000
  0
VERTEX
  8
LAYER-1
 10
4.070390
 20
7.193568
 30
0.000000
  0
VERTEX
  8
LAYER-1
 10
4.077042
 20
7.196283
 30
0.000000
  0
SEQEND
  8
LAYER-1
  0
POLYLINE
  8
LAYER-1
 66
  1
 70
  0
 62
  0
 10
4.077041
 20
7.196283
 30
0.000000
  0
VERTEX
  8
LAYER-1
 10
4.077041
 20
7.196283
 30
0.000000
  0
VERTEX
  8
LAYER-1
 10
4.040139
 20
7.196282
 30
0.000000
  0
SEQEND
  8
LAYER-1
  0
POLYLINE
  8
LAYER-1
 66
  1
 70
  0
 62
  0
 10
4.406977
 20
7.195836
 30
0.000000
  0
VERTEX
  8
LAYER-1
 10
4.406977
 20
7.195836
 30
0.000000
  0
VERTEX
  8
LAYER-1
 10
4.422544
 20
7.189781
 30
0.000000
  0
VERTEX
  8
LAYER-1
 10
4.440618
 20
7.196507
 30
0.000000
  0
VERTEX
  8
LAYER-1
 10
4.443885
 20
7.195836
 30
0.000000
  0
SEQEND
  8
LAYER-1
  0
POLYLINE
  8
LAYER-1
 66
  1
 70
  0
 62
  0
 10
4.454217
 20
7.195836
 30
0.000000
  0
VERTEX
  8
LAYER-1
 10
4.454217
 20
7.195836
 30
0.000000
  0
VERTEX
  8
LAYER-1
 10
4.469785
 20
7.189781
 30
0.000000
  0
VERTEX
  8
LAYER-1
 10
4.487858
 20
7.196507
 30
0.000000
  0
VERTEX
  8
LAYER-1
 10
4.491125
 20
7.195836
 30
0.000000
  0
SEQEND
  8
LAYER-1
  0
POLYLINE
  8
LAYER-1
 66
  1
 70
  0
 62
  0
 10
4.428451
 20
7.195747
 30
0.000000
  0
VERTEX
  8
LAYER-1
 10
4.428451
 20
7.195747
 30
0.000000
  0
VERTEX
  8
LAYER-1
 10
4.435266
 20
7.186679
 30
0.000000
  0
VERTEX
  8
LAYER-1
 10
4.449281
 20
7.185086
 30
0.000000
  0
VERTEX
  8
LAYER-1
 10
4.460317
 20
7.193868
 30
0.000000
  0
VERTEX
  8
LAYER-1
 10
4.463880
 20
7.195747
 30
0.000000
  0
SEQEND
  8
LAYER-1
  0
POLYLINE
  8
LAYER-1
 66
  1
 70
  0
 62
  0
 10
4.428451
 20
7.195747
 30
0.000000
  0
VERTEX
  8
LAYER-1
 10
4.428451
 20
7.195747
 30
0.000000
  0
VERTEX
  8
LAYER-1
 10
4.463880
 20
7.195747
 30
0.000000
  0
SEQEND
  8
LAYER-1
  0
POLYLINE
  8
LAYER-1
 66
  1
 70
  0
 62
  0
 10
5.219532
 20
7.195836
 30
0.000000
  0
VERTEX
  8
LAYER-1
 10
5.219532
 20
7.195836
 30
0.000000
  0
VERTEX
  8
LAYER-1
 10
5.235099
 20
7.189781
 30
0.000000
  0
VERTEX
  8
LAYER-1
 10
5.253173
 20
7.196507
 30
0.000000
  0
VERTEX
  8
LAYER-1
 10
5.256440
 20
7.195836
 30
0.000000
  0
SEQEND
  8
LAYER-1
  0
POLYLINE
  8
LAYER-1
 66
  1
 70
  0
 62
  0
 10
5.267711
 20
7.195836
 30
0.000000
  0
VERTEX
  8
LAYER-1
 10
5.267711
 20
7.195836
 30
0.000000
  0
VERTEX
  8
LAYER-1
 10
5.283279
 20
7.189781
 30
0.000000
  0
VERTEX
  8
LAYER-1
 10
5.301352
 20
7.196507
 30
0.000000
  0
VERTEX
  8
LAYER-1
 10
5.304619
 20
7.195836
 30
0.000000
  0
SEQEND
  8
LAYER-1
  0
POLYLINE
  8
LAYER-1
 66
  1
 70
  0
 62
  0
 10
5.245234
 20
7.195747
 30
0.000000
  0
VERTEX
  8
LAYER-1
 10
5.245234
 20
7.195747
 30
0.000000
  0
VERTEX
  8
LAYER-1
 10
5.252049
 20
7.186679
 30
0.000000
  0
VERTEX
  8
LAYER-1
 10
5.266065
 20
7.185086
 30
0.000000
  0
VERTEX
  8
LAYER-1
 10
5.277101
 20
7.193868
 30
0.000000
  0
VERTEX
  8
LAYER-1
 10
5.280663
 20
7.195747
 30
0.000000
  0
SEQEND
  8
LAYER-1
  0
POLYLINE
  8
LAYER-1
 66
  1
 70
  0
 62
  0
 10
5.245235
 20
7.195747
 30
0.000000
  0
VERTEX
  8
LAYER-1
 10
5.245235
 20
7.195747
 30
0.000000
  0
VERTEX
  8
LAYER-1
 10
5.280663
 20
7.195747
 30
0.000000
  0
SEQEND
  8
LAYER-1
  0
POLYLINE
  8
LAYER-1
 66
  1
 70
  1
 62
  0
  0
VERTEX
  8
LAYER-1
 10
4.428994
 20
7.467938
 30
0.000000
  0
VERTEX
  8
LAYER-1
 10
4.464424
 20
7.467938
 30
0.000000
  0
VERTEX
  8
LAYER-1
 10
4.464424
 20
7.196309
 30
0.000000
  0
VERTEX
  8
LAYER-1
 10
4.428994
 20
7.196309
 30
0.000000
  0
SEQEND
  8
LAYER-1
  0
POLYLINE
  8
LAYER-1
 66
  1
 70
  1
 62
  0
  0
VERTEX
  8
LAYER-1
 10
5.245307
 20
7.467938
 30
0.000000
  0
VERTEX
  8
LAYER-1
 10
5.280737
 20
7.467938
 30
0.000000
  0
VERTEX
  8
LAYER-1
 10
5.280737
 20
7.196309
 30
0.000000
  0
VERTEX
  8
LAYER-1
 10
5.245307
 20
7.196309
 30
0.000000
  0
SEQEND
  8
LAYER-1
  0
POLYLINE
  8
LAYER-1
 66
  1
 70
  0
 62
  0
 10
4.428994
 20
7.400030
 30
0.000000
  0
VERTEX
  8
LAYER-1
 10
4.428994
 20
7.400030
 30
0.000000
  0
VERTEX
  8
LAYER-1
 10
4.464424
 20
7.400030
 30
0.000000
  0
SEQEND
  8
LAYER-1
  0
POLYLINE
  8
LAYER-1
 66
  1
 70
  0
 62
  0
 10
4.428994
 20
7.270121
 30
0.000000
  0
VERTEX
  8
LAYER-1
 10
4.428994
 20
7.270121
 30
0.000000
  0
VERTEX
  8
LAYER-1
 10
4.464424
 20
7.270121
 30
0.000000
  0
SEQEND
  8
LAYER-1
  0
POLYLINE
  8
LAYER-1
 66
  1
 70
  0
 62
  0
 10
5.245307
 20
7.400030
 30
0.000000
  0
VERTEX
  8
LAYER-1
 10
5.245307
 20
7.400030
 30
0.000000
  0
VERTEX
  8
LAYER-1
 10
5.280736
 20
7.400030
 30
0.000000
  0
SEQEND
  8
LAYER-1
  0
POLYLINE
  8
LAYER-1
 66
  1
 70
  0
 62
  0
 10
5.245307
 20
7.270121
 30
0.000000
  0
VERTEX
  8
LAYER-1
 10
5.245307
 20
7.270121
 30
0.000000
  0
VERTEX
  8
LAYER-1
 10
5.280736
 20
7.270121
 30
0.000000
  0
SEQEND
  8
LAYER-1
  0
POLYLINE
  8
LAYER-1
 66
  1
 70
  0
 62
  0
 10
4.259881
 20
7.468055
 30
0.000000
  0
VERTEX
  8
LAYER-1
 10
4.259881
 20
7.468055
 30
0.000000
  0
VERTEX
  8
LAYER-1
 10
4.245708
 20
7.478586
 30
0.000000
  0
VERTEX
  8
LAYER-1
 10
4.231024
 20
7.476011
 30
0.000000
  0
VERTEX
  8
LAYER-1
 10
4.226662
 20
7.467495
 30
0.000000
  0
SEQEND
  8
LAYER-1
  0
POLYLINE
  8
LAYER-1
 66
  1
 70
  0
 62
  0
 10
5.077059
 20
7.467876
 30
0.000000
  0
VERTEX
  8
LAYER-1
 10
5.077059
 20
7.467876
 30
0.000000
  0
VERTEX
  8
LAYER-1
 10
5.059951
 20
7.478860
 30
0.000000
  0
VERTEX
  8
LAYER-1
 10
5.042871
 20
7.474529
 30
0.000000
  0
VERTEX
  8
LAYER-1
 10
5.040156
 20
7.467877
 30
0.000000
  0
SEQEND
  8
LAYER-1
  0
POLYLINE
  8
LAYER-1
 66
  1
 70
  0
 62
  0
 10
4.819740
 20
7.196280
 30
0.000000
  0
VERTEX
  8
LAYER-1
 10
4.819740
 20
7.196280
 30
0.000000
  0
VERTEX
  8
LAYER-1
 10
4.829680
 20
7.189279
 30
0.000000
  0
VERTEX
  8
LAYER-1
 10
4.844443
 20
7.191357
 30
0.000000
  0
VERTEX
  8
LAYER-1
 10
4.852960
 20
7.195719
 30
0.000000
  0
SEQEND
  8
LAYER-1
  0
POLYLINE
  8
LAYER-1
 66
  1
 70
  0
 62
  0
 10
4.852960
 20
7.195719
 30
0.000000
  0
VERTEX
  8
LAYER-1
 10
4.852960
 20
7.195719
 30
0.000000
  0
VERTEX
  8
LAYER-1
 10
4.819740
 20
7.196280
 30
0.000000
  0
SEQEND
  8
LAYER-1
  0
POLYLINE
  8
LAYER-1
 66
  1
 70
  0
 62
  0
 10
4.855169
 20
7.196280
 30
0.000000
  0
VERTEX
  8
LAYER-1
 10
4.855169
 20
7.196280
 30
0.000000
  0
VERTEX
  8
LAYER-1
 10
4.868340
 20
7.189234
 30
0.000000
  0
VERTEX
  8
LAYER-1
 10
4.885420
 20
7.193565
 30
0.000000
  0
VERTEX
  8
LAYER-1
 10
4.892072
 20
7.196281
 30
0.000000
  0
SEQEND
  8
LAYER-1
  0
POLYLINE
  8
LAYER-1
 66
  1
 70
  0
 62
  0
 10
4.892072
 20
7.196281
 30
0.000000
  0
VERTEX
  8
LAYER-1
 10
4.892072
 20
7.196281
 30
0.000000
  0
VERTEX
  8
LAYER-1
 10
4.855170
 20
7.196280
 30
0.000000
  0
SEQEND
  8
LAYER-1
  0
POLYLINE
  8
LAYER-1
 66
  1
 70
  0
 62
  0
 10
4.890901
 20
7.467938
 30
0.000000
  0
VERTEX
  8
LAYER-1
 10
4.890901
 20
7.467938
 30
0.000000
  0
VERTEX
  8
LAYER-1
 10
4.890901
 20
7.196306
 30
0.000000
  0
SEQEND
  8
LAYER-1
  0
POLYLINE
  8
LAYER-1
 66
  1
 70
  0
 62
  0
 10
4.818567
 20
7.196309
 30
0.000000
  0
VERTEX
  8
LAYER-1
 10
4.818567
 20
7.196309
 30
0.000000
  0
VERTEX
  8
LAYER-1
 10
4.818567
 20
7.467938
 30
0.000000
  0
SEQEND
  8
LAYER-1
  0
POLYLINE
  8
LAYER-1
 66
  1
 70
  0
 62
  0
 10
4.853997
 20
7.467938
 30
0.000000
  0
VERTEX
  8
LAYER-1
 10
4.853997
 20
7.467938
 30
0.000000
  0
VERTEX
  8
LAYER-1
 10
4.853997
 20
7.196308
 30
0.000000
  0
SEQEND
  8
LAYER-1
  0
POLYLINE
  8
LAYER-1
 66
  1
 70
  0
 62
  0
 10
4.852091
 20
7.468357
 30
0.000000
  0
VERTEX
  8
LAYER-1
 10
4.852091
 20
7.468357
 30
0.000000
  0
VERTEX
  8
LAYER-1
 10
4.837919
 20
7.478889
 30
0.000000
  0
VERTEX
  8
LAYER-1
 10
4.823234
 20
7.476313
 30
0.000000
  0
VERTEX
  8
LAYER-1
 10
4.818872
 20
7.467797
 30
0.000000
  0
SEQEND
  8
LAYER-1
  0
POLYLINE
  8
LAYER-1
 66
  1
 70
  0
 62
  0
 10
4.852091
 20
7.468357
 30
0.000000
  0
VERTEX
  8
LAYER-1
 10
4.852091
 20
7.468357
 30
0.000000
  0
VERTEX
  8
LAYER-1
 10
4.818872
 20
7.467797
 30
0.000000
  0
SEQEND
  8
LAYER-1
  0
POLYLINE
  8
LAYER-1
 66
  1
 70
  0
 62
  0
 10
4.891204
 20
7.467795
 30
0.000000
  0
VERTEX
  8
LAYER-1
 10
4.891204
 20
7.467795
 30
0.000000
  0
VERTEX
  8
LAYER-1
 10
4.874095
 20
7.478780
 30
0.000000
  0
VERTEX
  8
LAYER-1
 10
4.857015
 20
7.474449
 30
0.000000
  0
VERTEX
  8
LAYER-1
 10
4.854300
 20
7.467797
 30
0.000000
  0
SEQEND
  8
LAYER-1
  0
POLYLINE
  8
LAYER-1
 66
  1
 70
  0
 62
  0
 10
4.891204
 20
7.467795
 30
0.000000
  0
VERTEX
  8
LAYER-1
 10
4.891204
 20
7.467795
 30
0.000000
  0
VERTEX
  8
LAYER-1
 10
4.854301
 20
7.467797
 30
0.000000
  0
SEQEND
  8
LAYER-1
  0
POLYLINE
  8
LAYER-1
 66
  1
 70
  0
 62
  0
 10
5.639740
 20
7.196280
 30
0.000000
  0
VERTEX
  8
LAYER-1
 10
5.639740
 20
7.196280
 30
0.000000
  0
VERTEX
  8
LAYER-1
 10
5.649680
 20
7.189279
 30
0.000000
  0
VERTEX
  8
LAYER-1
 10
5.664444
 20
7.191357
 30
0.000000
  0
VERTEX
  8
LAYER-1
 10
5.672960
 20
7.195719
 30
0.000000
  0
SEQEND
  8
LAYER-1
  0
POLYLINE
  8
LAYER-1
 66
  1
 70
  0
 62
  0
 10
5.672960
 20
7.195719
 30
0.000000
  0
VERTEX
  8
LAYER-1
 10
5.672960
 20
7.195719
 30
0.000000
  0
VERTEX
  8
LAYER-1
 10
5.639740
 20
7.196280
 30
0.000000
  0
SEQEND
  8
LAYER-1
  0
POLYLINE
  8
LAYER-1
 66
  1
 70
  0
 62
  0
 10
5.675169
 20
7.196280
 30
0.000000
  0
VERTEX
  8
LAYER-1
 10
5.675169
 20
7.196280
 30
0.000000
  0
VERTEX
  8
LAYER-1
 10
5.688341
 20
7.189234
 30
0.000000
  0
VERTEX
  8
LAYER-1
 10
5.705421
 20
7.193565
 30
0.000000
  0
VERTEX
  8
LAYER-1
 10
5.712073
 20
7.196281
 30
0.000000
  0
SEQEND
  8
LAYER-1
  0
POLYLINE
  8
LAYER-1
 66
  1
 70
  0
 62
  0
 10
5.712072
 20
7.196281
 30
0.000000
  0
VERTEX
  8
LAYER-1
 10
5.712072
 20
7.196281
 30
0.000000
  0
VERTEX
  8
LAYER-1
 10
5.675170
 20
7.196280
 30
0.000000
  0
SEQEND
  8
LAYER-1
  0
POLYLINE
  8
LAYER-1
 66
  1
 70
  0
 62
  0
 10
5.710901
 20
7.467938
 30
0.000000
  0
VERTEX
  8
LAYER-1
 10
5.710901
 20
7.467938
 30
0.000000
  0
VERTEX
  8
LAYER-1
 10
5.710901
 20
7.196306
 30
0.000000
  0
SEQEND
  8
LAYER-1
  0
POLYLINE
  8
LAYER-1
 66
  1
 70
  0
 62
  0
 10
5.638568
 20
7.196309
 30
0.000000
  0
VERTEX
  8
LAYER-1
 10
5.638568
 20
7.196309
 30
0.000000
  0
VERTEX
  8
LAYER-1
 10
5.638568
 20
7.467938
 30
0.000000
  0
SEQEND
  8
LAYER-1
  0
POLYLINE
  8
LAYER-1
 66
  1
 70
  0
 62
  0
 10
5.673997
 20
7.467938
 30
0.000000
  0
VERTEX
  8
LAYER-1
 10
5.673997
 20
7.467938
 30
0.000000
  0
VERTEX
  8
LAYER-1
 10
5.673997
 20
7.196308
 30
0.000000
  0
SEQEND
  8
LAYER-1
  0
POLYLINE
  8
LAYER-1
 66
  1
 70
  0
 62
  0
 10
5.672091
 20
7.468357
 30
0.000000
  0
VERTEX
  8
LAYER-1
 10
5.672091
 20
7.468357
 30
0.000000
  0
VERTEX
  8
LAYER-1
 10
5.657918
 20
7.478889
 30
0.000000
  0
VERTEX
  8
LAYER-1
 10
5.643234
 20
7.476313
 30
0.000000
  0
VERTEX
  8
LAYER-1
 10
5.638872
 20
7.467797
 30
0.000000
  0
SEQEND
  8
LAYER-1
  0
POLYLINE
  8
LAYER-1
 66
  1
 70
  0
 62
  0
 10
5.672091
 20
7.468357
 30
0.000000
  0
VERTEX
  8
LAYER-1
 10
5.672091
 20
7.468357
 30
0.000000
  0
VERTEX
  8
LAYER-1
 10
5.638872
 20
7.467797
 30
0.000000
  0
SEQEND
  8
LAYER-1
  0
POLYLINE
  8
LAYER-1
 66
  1
 70
  0
 62
  0
 10
5.711204
 20
7.467795
 30
0.000000
  0
VERTEX
  8
LAYER-1
 10
5.711204
 20
7.467795
 30
0.000000
  0
VERTEX
  8
LAYER-1
 10
5.694096
 20
7.478780
 30
0.000000
  0
VERTEX
  8
LAYER-1
 10
5.677016
 20
7.474449
 30
0.000000
  0
VERTEX
  8
LAYER-1
 10
5.674300
 20
7.467797
 30
0.000000
  0
SEQEND
  8
LAYER-1
  0
POLYLINE
  8
LAYER-1
 66
  1
 70
  0
 62
  0
 10
5.711203
 20
7.467795
 30
0.000000
  0
VERTEX
  8
LAYER-1
 10
5.711203
 20
7.467795
 30
0.000000
  0
VERTEX
  8
LAYER-1
 10
5.674301
 20
7.467797
 30
0.000000
  0
SEQEND
  8
LAYER-1
  0
POLYLINE
  8
LAYER-1
 66
  1
 70
  0
 62
  0
 10
3.814602
 20
7.400030
 30
0.000000
  0
VERTEX
  8
LAYER-1
 10
3.814602
 20
7.400030
 30
0.000000
  0
VERTEX
  8
LAYER-1
 10
3.854327
 20
7.400030
 30
0.000000
  0
SEQEND
  8
LAYER-1
  0
POLYLINE
  8
LAYER-1
 66
  1
 70
  0
 62
  0
 10
3.814602
 20
7.270121
 30
0.000000
  0
VERTEX
  8
LAYER-1
 10
3.814602
 20
7.270121
 30
0.000000
  0
VERTEX
  8
LAYER-1
 10
3.854327
 20
7.270121
 30
0.000000
  0
SEQEND
  8
LAYER-1
  0
POLYLINE
  8
LAYER-1
 66
  1
 70
  0
 62
  0
 10
3.852957
 20
7.473083
 30
0.000000
  0
VERTEX
  8
LAYER-1
 10
3.852957
 20
7.473083
 30
0.000000
  0
VERTEX
  8
LAYER-1
 10
3.835848
 20
7.484066
 30
0.000000
  0
VERTEX
  8
LAYER-1
 10
3.818768
 20
7.479736
 30
0.000000
  0
VERTEX
  8
LAYER-1
 10
3.816054
 20
7.473084
 30
0.000000
  0
SEQEND
  8
LAYER-1
  0
POLYLINE
  8
LAYER-1
 66
  1
 70
  1
 62
  0
  0
VERTEX
  8
LAYER-1
 10
3.808851
 20
7.473707
 30
0.000000
  0
VERTEX
  8
LAYER-1
 10
3.863465
 20
7.473707
 30
0.000000
  0
VERTEX
  8
LAYER-1
 10
3.863465
 20
7.467801
 30
0.000000
  0
VERTEX
  8
LAYER-1
 10
3.808851
 20
7.467801
 30
0.000000
  0
SEQEND
  8
LAYER-1
  0
POLYLINE
  8
LAYER-1
 66
  1
 70
  0
 62
  0
 10
3.854761
 20
7.467936
 30
0.000000
  0
VERTEX
  8
LAYER-1
 10
3.854761
 20
7.467936
 30
0.000000
  0
VERTEX
  8
LAYER-1
 10
3.854761
 20
7.196187
 30
0.000000
  0
SEQEND
  8
LAYER-1
  0
POLYLINE
  8
LAYER-1
 66
  1
 70
  0
 62
  0
 10
3.854750
 20
0.613722
 30
0.000000
  0
VERTEX
  8
LAYER-1
 10
3.854750
 20
0.613722
 30
0.000000
  0
VERTEX
  8
LAYER-1
 10
3.854750
 20
0.342022
 30
0.000000
  0
SEQEND
  8
LAYER-1
  0
POLYLINE
  8
LAYER-1
 66
  1
 70
  0
 62
  0
 10
4.075670
 20
0.341584
 30
0.000000
  0
VERTEX
  8
LAYER-1
 10
4.075670
 20
0.341584
 30
0.000000
  0
VERTEX
  8
LAYER-1
 10
4.075670
 20
0.613215
 30
0.000000
  0
SEQEND
  8
LAYER-1
  0
POLYLINE
  8
LAYER-1
 66
  1
 70
  0
 62
  0
 10
4.406168
 20
0.613215
 30
0.000000
  0
VERTEX
  8
LAYER-1
 10
4.406168
 20
0.613215
 30
0.000000
  0
VERTEX
  8
LAYER-1
 10
4.406168
 20
0.341584
 30
0.000000
  0
SEQEND
  8
LAYER-1
  0
POLYLINE
  8
LAYER-1
 66
  1
 70
  0
 62
  0
 10
5.218998
 20
0.613215
 30
0.000000
  0
VERTEX
  8
LAYER-1
 10
5.218998
 20
0.613215
 30
0.000000
  0
VERTEX
  8
LAYER-1
 10
5.218998
 20
0.341584
 30
0.000000
  0
SEQEND
  8
LAYER-1
  0
POLYLINE
  8
LAYER-1
 66
  1
 70
  0
 62
  0
 10
5.037832
 20
0.341544
 30
0.000000
  0
VERTEX
  8
LAYER-1
 10
5.037832
 20
0.341544
 30
0.000000
  0
VERTEX
  8
LAYER-1
 10
5.037832
 20
0.613173
 30
0.000000
  0
SEQEND
  8
LAYER-1
  0
POLYLINE
  8
LAYER-1
 66
  1
 70
  0
 62
  0
 10
5.077690
 20
0.341544
 30
0.000000
  0
VERTEX
  8
LAYER-1
 10
5.077690
 20
0.341544
 30
0.000000
  0
VERTEX
  8
LAYER-1
 10
5.077690
 20
0.613173
 30
0.000000
  0
SEQEND
  8
LAYER-1
  0
POLYLINE
  8
LAYER-1
 66
  1
 70
  0
 62
  0
 10
4.223814
 20
0.341544
 30
0.000000
  0
VERTEX
  8
LAYER-1
 10
4.223814
 20
0.341544
 30
0.000000
  0
VERTEX
  8
LAYER-1
 10
4.223814
 20
0.613173
 30
0.000000
  0
SEQEND
  8
LAYER-1
  0
POLYLINE
  8
LAYER-1
 66
  1
 70
  0
 62
  0
 10
4.262630
 20
0.341544
 30
0.000000
  0
VERTEX
  8
LAYER-1
 10
4.262630
 20
0.341544
 30
0.000000
  0
VERTEX
  8
LAYER-1
 10
4.262630
 20
0.613173
 30
0.000000
  0
SEQEND
  8
LAYER-1
  0
POLYLINE
  8
LAYER-1
 66
  1
 70
  0
 62
  0
 10
4.490490
 20
0.341584
 30
0.000000
  0
VERTEX
  8
LAYER-1
 10
4.490490
 20
0.341584
 30
0.000000
  0
VERTEX
  8
LAYER-1
 10
4.490490
 20
0.613215
 30
0.000000
  0
SEQEND
  8
LAYER-1
  0
POLYLINE
  8
LAYER-1
 66
  1
 70
  0
 62
  0
 10
5.303320
 20
0.341584
 30
0.000000
  0
VERTEX
  8
LAYER-1
 10
5.303320
 20
0.341584
 30
0.000000
  0
VERTEX
  8
LAYER-1
 10
5.303320
 20
0.613215
 30
0.000000
  0
SEQEND
  8
LAYER-1
  0
POLYLINE
  8
LAYER-1
 66
  1
 70
  0
 62
  0
 10
5.448226
 20
0.341978
 30
0.000000
  0
VERTEX
  8
LAYER-1
 10
5.448226
 20
0.341978
 30
0.000000
  0
VERTEX
  8
LAYER-1
 10
5.448226
 20
0.613607
 30
0.000000
  0
SEQEND
  8
LAYER-1
  0
POLYLINE
  8
LAYER-1
 66
  1
 70
  0
 62
  0
 10
5.486608
 20
0.341978
 30
0.000000
  0
VERTEX
  8
LAYER-1
 10
5.486608
 20
0.341978
 30
0.000000
  0
VERTEX
  8
LAYER-1
 10
5.486608
 20
0.613607
 30
0.000000
  0
SEQEND
  8
LAYER-1
  0
POLYLINE
  8
LAYER-1
 66
  1
 70
  0
 62
  0
 10
4.630387
 20
0.341510
 30
0.000000
  0
VERTEX
  8
LAYER-1
 10
4.630387
 20
0.341510
 30
0.000000
  0
VERTEX
  8
LAYER-1
 10
4.630387
 20
0.613136
 30
0.000000
  0
SEQEND
  8
LAYER-1
  0
POLYLINE
  8
LAYER-1
 66
  1
 70
  0
 62
  0
 10
4.668770
 20
0.341510
 30
0.000000
  0
VERTEX
  8
LAYER-1
 10
4.668770
 20
0.341510
 30
0.000000
  0
VERTEX
  8
LAYER-1
 10
4.668770
 20
0.613136
 30
0.000000
  0
SEQEND
  8
LAYER-1
  0
POLYLINE
  8
LAYER-1
 66
  1
 70
  0
 62
  0
 10
4.003338
 20
0.613211
 30
0.000000
  0
VERTEX
  8
LAYER-1
 10
4.003338
 20
0.613211
 30
0.000000
  0
VERTEX
  8
LAYER-1
 10
4.003338
 20
0.341582
 30
0.000000
  0
SEQEND
  8
LAYER-1
  0
POLYLINE
  8
LAYER-1
 66
  1
 70
  0
 62
  0
 10
4.038767
 20
0.341582
 30
0.000000
  0
VERTEX
  8
LAYER-1
 10
4.038767
 20
0.341582
 30
0.000000
  0
VERTEX
  8
LAYER-1
 10
4.038767
 20
0.613213
 30
0.000000
  0
SEQEND
  8
LAYER-1
  0
POLYLINE
  8
LAYER-1
 66
  1
 70
  0
 62
  0
 10
4.004242
 20
0.341582
 30
0.000000
  0
VERTEX
  8
LAYER-1
 10
4.004242
 20
0.341582
 30
0.000000
  0
VERTEX
  8
LAYER-1
 10
4.014181
 20
0.334582
 30
0.000000
  0
VERTEX
  8
LAYER-1
 10
4.028944
 20
0.336661
 30
0.000000
  0
VERTEX
  8
LAYER-1
 10
4.037797
 20
0.341571
 30
0.000000
  0
SEQEND
  8
LAYER-1
  0
POLYLINE
  8
LAYER-1
 66
  1
 70
  0
 62
  0
 10
4.038767
 20
0.341582
 30
0.000000
  0
VERTEX
  8
LAYER-1
 10
4.038767
 20
0.341582
 30
0.000000
  0
VERTEX
  8
LAYER-1
 10
4.051938
 20
0.334536
 30
0.000000
  0
VERTEX
  8
LAYER-1
 10
4.069018
 20
0.338867
 30
0.000000
  0
VERTEX
  8
LAYER-1
 10
4.075669
 20
0.341584
 30
0.000000
  0
SEQEND
  8
LAYER-1
  0
POLYLINE
  8
LAYER-1
 66
  1
 70
  0
 62
  0
 10
4.454321
 20
0.342077
 30
0.000000
  0
VERTEX
  8
LAYER-1
 10
4.454321
 20
0.342077
 30
0.000000
  0
VERTEX
  8
LAYER-1
 10
4.469888
 20
0.336021
 30
0.000000
  0
VERTEX
  8
LAYER-1
 10
4.487962
 20
0.342746
 30
0.000000
  0
VERTEX
  8
LAYER-1
 10
4.491229
 20
0.342077
 30
0.000000
  0
SEQEND
  8
LAYER-1
  0
POLYLINE
  8
LAYER-1
 66
  1
 70
  0
 62
  0
 10
5.267280
 20
0.341607
 30
0.000000
  0
VERTEX
  8
LAYER-1
 10
5.267280
 20
0.341607
 30
0.000000
  0
VERTEX
  8
LAYER-1
 10
5.282847
 20
0.335552
 30
0.000000
  0
VERTEX
  8
LAYER-1
 10
5.300921
 20
0.342278
 30
0.000000
  0
VERTEX
  8
LAYER-1
 10
5.304187
 20
0.341607
 30
0.000000
  0
SEQEND
  8
LAYER-1
  0
POLYLINE
  8
LAYER-1
 66
  1
 70
  0
 62
  0
 10
4.406612
 20
0.342077
 30
0.000000
  0
VERTEX
  8
LAYER-1
 10
4.406612
 20
0.342077
 30
0.000000
  0
VERTEX
  8
LAYER-1
 10
4.422179
 20
0.336021
 30
0.000000
  0
VERTEX
  8
LAYER-1
 10
4.440253
 20
0.342746
 30
0.000000
  0
VERTEX
  8
LAYER-1
 10
4.443520
 20
0.342077
 30
0.000000
  0
SEQEND
  8
LAYER-1
  0
POLYLINE
  8
LAYER-1
 66
  1
 70
  0
 62
  0
 10
4.428555
 20
0.341518
 30
0.000000
  0
VERTEX
  8
LAYER-1
 10
4.428555
 20
0.341518
 30
0.000000
  0
VERTEX
  8
LAYER-1
 10
4.435370
 20
0.332449
 30
0.000000
  0
VERTEX
  8
LAYER-1
 10
4.449385
 20
0.330855
 30
0.000000
  0
VERTEX
  8
LAYER-1
 10
4.460422
 20
0.339639
 30
0.000000
  0
VERTEX
  8
LAYER-1
 10
4.463984
 20
0.341518
 30
0.000000
  0
SEQEND
  8
LAYER-1
  0
POLYLINE
  8
LAYER-1
 66
  1
 70
  0
 62
  0
 10
4.428555
 20
0.341517
 30
0.000000
  0
VERTEX
  8
LAYER-1
 10
4.428555
 20
0.341517
 30
0.000000
  0
VERTEX
  8
LAYER-1
 10
4.463984
 20
0.341517
 30
0.000000
  0
SEQEND
  8
LAYER-1
  0
POLYLINE
  8
LAYER-1
 66
  1
 70
  0
 62
  0
 10
5.218630
 20
0.341605
 30
0.000000
  0
VERTEX
  8
LAYER-1
 10
5.218630
 20
0.341605
 30
0.000000
  0
VERTEX
  8
LAYER-1
 10
5.234197
 20
0.335552
 30
0.000000
  0
VERTEX
  8
LAYER-1
 10
5.252271
 20
0.342278
 30
0.000000
  0
VERTEX
  8
LAYER-1
 10
5.255537
 20
0.341607
 30
0.000000
  0
SEQEND
  8
LAYER-1
  0
POLYLINE
  8
LAYER-1
 66
  1
 70
  0
 62
  0
 10
5.244801
 20
0.341518
 30
0.000000
  0
VERTEX
  8
LAYER-1
 10
5.244801
 20
0.341518
 30
0.000000
  0
VERTEX
  8
LAYER-1
 10
5.251617
 20
0.332449
 30
0.000000
  0
VERTEX
  8
LAYER-1
 10
5.265632
 20
0.330855
 30
0.000000
  0
VERTEX
  8
LAYER-1
 10
5.276669
 20
0.339639
 30
0.000000
  0
VERTEX
  8
LAYER-1
 10
5.280231
 20
0.341518
 30
0.000000
  0
SEQEND
  8
LAYER-1
  0
POLYLINE
  8
LAYER-1
 66
  1
 70
  0
 62
  0
 10
5.244803
 20
0.341517
 30
0.000000
  0
VERTEX
  8
LAYER-1
 10
5.244803
 20
0.341517
 30
0.000000
  0
VERTEX
  8
LAYER-1
 10
5.280231
 20
0.341517
 30
0.000000
  0
SEQEND
  8
LAYER-1
  0
POLYLINE
  8
LAYER-1
 66
  1
 70
  0
 62
  0
 10
4.037491
 20
0.613799
 30
0.000000
  0
VERTEX
  8
LAYER-1
 10
4.037491
 20
0.613799
 30
0.000000
  0
VERTEX
  8
LAYER-1
 10
4.023318
 20
0.624331
 30
0.000000
  0
VERTEX
  8
LAYER-1
 10
4.008634
 20
0.621756
 30
0.000000
  0
VERTEX
  8
LAYER-1
 10
4.004272
 20
0.613240
 30
0.000000
  0
SEQEND
  8
LAYER-1
  0
POLYLINE
  8
LAYER-1
 66
  1
 70
  0
 62
  0
 10
4.037491
 20
0.613799
 30
0.000000
  0
VERTEX
  8
LAYER-1
 10
4.037491
 20
0.613799
 30
0.000000
  0
VERTEX
  8
LAYER-1
 10
4.004272
 20
0.613240
 30
0.000000
  0
SEQEND
  8
LAYER-1
  0
POLYLINE
  8
LAYER-1
 66
  1
 70
  0
 62
  0
 10
4.076604
 20
0.613237
 30
0.000000
  0
VERTEX
  8
LAYER-1
 10
4.076604
 20
0.613237
 30
0.000000
  0
VERTEX
  8
LAYER-1
 10
4.059496
 20
0.624221
 30
0.000000
  0
VERTEX
  8
LAYER-1
 10
4.042416
 20
0.619890
 30
0.000000
  0
VERTEX
  8
LAYER-1
 10
4.039700
 20
0.613238
 30
0.000000
  0
SEQEND
  8
LAYER-1
  0
POLYLINE
  8
LAYER-1
 66
  1
 70
  0
 62
  0
 10
4.076603
 20
0.613238
 30
0.000000
  0
VERTEX
  8
LAYER-1
 10
4.076603
 20
0.613238
 30
0.000000
  0
VERTEX
  8
LAYER-1
 10
4.039701
 20
0.613240
 30
0.000000
  0
SEQEND
  8
LAYER-1
  0
POLYLINE
  8
LAYER-1
 66
  1
 70
  0
 62
  0
 10
4.443445
 20
0.613684
 30
0.000000
  0
VERTEX
  8
LAYER-1
 10
4.443445
 20
0.613684
 30
0.000000
  0
VERTEX
  8
LAYER-1
 10
4.423942
 20
0.623677
 30
0.000000
  0
VERTEX
  8
LAYER-1
 10
4.405868
 20
0.616951
 30
0.000000
  0
VERTEX
  8
LAYER-1
 10
4.406538
 20
0.613686
 30
0.000000
  0
SEQEND
  8
LAYER-1
  0
POLYLINE
  8
LAYER-1
 66
  1
 70
  0
 62
  0
 10
4.490687
 20
0.613684
 30
0.000000
  0
VERTEX
  8
LAYER-1
 10
4.490687
 20
0.613684
 30
0.000000
  0
VERTEX
  8
LAYER-1
 10
4.471183
 20
0.623677
 30
0.000000
  0
VERTEX
  8
LAYER-1
 10
4.453109
 20
0.616951
 30
0.000000
  0
VERTEX
  8
LAYER-1
 10
4.453779
 20
0.613686
 30
0.000000
  0
SEQEND
  8
LAYER-1
  0
POLYLINE
  8
LAYER-1
 66
  1
 70
  0
 62
  0
 10
4.463441
 20
0.613773
 30
0.000000
  0
VERTEX
  8
LAYER-1
 10
4.463441
 20
0.613773
 30
0.000000
  0
VERTEX
  8
LAYER-1
 10
4.452689
 20
0.626779
 30
0.000000
  0
VERTEX
  8
LAYER-1
 10
4.438674
 20
0.628373
 30
0.000000
  0
VERTEX
  8
LAYER-1
 10
4.427637
 20
0.619589
 30
0.000000
  0
VERTEX
  8
LAYER-1
 10
4.428012
 20
0.613773
 30
0.000000
  0
SEQEND
  8
LAYER-1
  0
POLYLINE
  8
LAYER-1
 66
  1
 70
  0
 62
  0
 10
4.428013
 20
0.613775
 30
0.000000
  0
VERTEX
  8
LAYER-1
 10
4.428013
 20
0.613775
 30
0.000000
  0
VERTEX
  8
LAYER-1
 10
4.463441
 20
0.613775
 30
0.000000
  0
SEQEND
  8
LAYER-1
  0
POLYLINE
  8
LAYER-1
 66
  1
 70
  0
 62
  0
 10
5.256000
 20
0.613684
 30
0.000000
  0
VERTEX
  8
LAYER-1
 10
5.256000
 20
0.613684
 30
0.000000
  0
VERTEX
  8
LAYER-1
 10
5.236496
 20
0.623677
 30
0.000000
  0
VERTEX
  8
LAYER-1
 10
5.218423
 20
0.616951
 30
0.000000
  0
VERTEX
  8
LAYER-1
 10
5.219093
 20
0.613686
 30
0.000000
  0
SEQEND
  8
LAYER-1
  0
POLYLINE
  8
LAYER-1
 66
  1
 70
  0
 62
  0
 10
5.304181
 20
0.613684
 30
0.000000
  0
VERTEX
  8
LAYER-1
 10
5.304181
 20
0.613684
 30
0.000000
  0
VERTEX
  8
LAYER-1
 10
5.284677
 20
0.623677
 30
0.000000
  0
VERTEX
  8
LAYER-1
 10
5.266603
 20
0.616951
 30
0.000000
  0
VERTEX
  8
LAYER-1
 10
5.267273
 20
0.613686
 30
0.000000
  0
SEQEND
  8
LAYER-1
  0
POLYLINE
  8
LAYER-1
 66
  1
 70
  0
 62
  0
 10
5.280225
 20
0.613773
 30
0.000000
  0
VERTEX
  8
LAYER-1
 10
5.280225
 20
0.613773
 30
0.000000
  0
VERTEX
  8
LAYER-1
 10
5.269473
 20
0.626779
 30
0.000000
  0
VERTEX
  8
LAYER-1
 10
5.255458
 20
0.628373
 30
0.000000
  0
VERTEX
  8
LAYER-1
 10
5.244421
 20
0.619589
 30
0.000000
  0
VERTEX
  8
LAYER-1
 10
5.244796
 20
0.613773
 30
0.000000
  0
SEQEND
  8
LAYER-1
  0
POLYLINE
  8
LAYER-1
 66
  1
 70
  0
 62
  0
 10
5.244796
 20
0.613775
 30
0.000000
  0
VERTEX
  8
LAYER-1
 10
5.244796
 20
0.613775
 30
0.000000
  0
VERTEX
  8
LAYER-1
 10
5.280224
 20
0.613775
 30
0.000000
  0
SEQEND
  8
LAYER-1
  0
POLYLINE
  8
LAYER-1
 66
  1
 70
  1
 62
  0
  0
VERTEX
  8
LAYER-1
 10
4.463985
 20
0.341584
 30
0.000000
  0
VERTEX
  8
LAYER-1
 10
4.428555
 20
0.341584
 30
0.000000
  0
VERTEX
  8
LAYER-1
 10
4.428555
 20
0.613213
 30
0.000000
  0
VERTEX
  8
LAYER-1
 10
4.463985
 20
0.613213
 30
0.000000
  0
SEQEND
  8
LAYER-1
  0
POLYLINE
  8
LAYER-1
 66
  1
 70
  1
 62
  0
  0
VERTEX
  8
LAYER-1
 10
5.280299
 20
0.341584
 30
0.000000
  0
VERTEX
  8
LAYER-1
 10
5.244869
 20
0.341584
 30
0.000000
  0
VERTEX
  8
LAYER-1
 10
5.244869
 20
0.613213
 30
0.000000
  0
VERTEX
  8
LAYER-1
 10
5.280299
 20
0.613213
 30
0.000000
  0
SEQEND
  8
LAYER-1
  0
POLYLINE
  8
LAYER-1
 66
  1
 70
  0
 62
  0
 10
4.428555
 20
0.409490
 30
0.000000
  0
VERTEX
  8
LAYER-1
 10
4.428555
 20
0.409490
 30
0.000000
  0
VERTEX
  8
LAYER-1
 10
4.463985
 20
0.409490
 30
0.000000
  0
SEQEND
  8
LAYER-1
  0
POLYLINE
  8
LAYER-1
 66
  1
 70
  0
 62
  0
 10
4.428555
 20
0.539400
 30
0.000000
  0
VERTEX
  8
LAYER-1
 10
4.428555
 20
0.539400
 30
0.000000
  0
VERTEX
  8
LAYER-1
 10
4.463985
 20
0.539400
 30
0.000000
  0
SEQEND
  8
LAYER-1
  0
POLYLINE
  8
LAYER-1
 66
  1
 70
  0
 62
  0
 10
5.244869
 20
0.409490
 30
0.000000
  0
VERTEX
  8
LAYER-1
 10
5.244869
 20
0.409490
 30
0.000000
  0
VERTEX
  8
LAYER-1
 10
5.280297
 20
0.409490
 30
0.000000
  0
SEQEND
  8
LAYER-1
  0
POLYLINE
  8
LAYER-1
 66
  1
 70
  0
 62
  0
 10
5.244869
 20
0.539400
 30
0.000000
  0
VERTEX
  8
LAYER-1
 10
5.244869
 20
0.539400
 30
0.000000
  0
VERTEX
  8
LAYER-1
 10
5.280297
 20
0.539400
 30
0.000000
  0
SEQEND
  8
LAYER-1
  0
POLYLINE
  8
LAYER-1
 66
  1
 70
  0
 62
  0
 10
4.226223
 20
0.342027
 30
0.000000
  0
VERTEX
  8
LAYER-1
 10
4.226223
 20
0.342027
 30
0.000000
  0
VERTEX
  8
LAYER-1
 10
4.236163
 20
0.335026
 30
0.000000
  0
VERTEX
  8
LAYER-1
 10
4.250926
 20
0.337104
 30
0.000000
  0
VERTEX
  8
LAYER-1
 10
4.259442
 20
0.341467
 30
0.000000
  0
SEQEND
  8
LAYER-1
  0
POLYLINE
  8
LAYER-1
 66
  1
 70
  0
 62
  0
 10
5.039717
 20
0.341644
 30
0.000000
  0
VERTEX
  8
LAYER-1
 10
5.039717
 20
0.341644
 30
0.000000
  0
VERTEX
  8
LAYER-1
 10
5.052889
 20
0.334600
 30
0.000000
  0
VERTEX
  8
LAYER-1
 10
5.069968
 20
0.338931
 30
0.000000
  0
VERTEX
  8
LAYER-1
 10
5.076621
 20
0.341646
 30
0.000000
  0
SEQEND
  8
LAYER-1
  0
POLYLINE
  8
LAYER-1
 66
  1
 70
  0
 62
  0
 10
4.852521
 20
0.613801
 30
0.000000
  0
VERTEX
  8
LAYER-1
 10
4.852521
 20
0.613801
 30
0.000000
  0
VERTEX
  8
LAYER-1
 10
4.838349
 20
0.624333
 30
0.000000
  0
VERTEX
  8
LAYER-1
 10
4.823664
 20
0.621758
 30
0.000000
  0
VERTEX
  8
LAYER-1
 10
4.819302
 20
0.613241
 30
0.000000
  0
SEQEND
  8
LAYER-1
  0
POLYLINE
  8
LAYER-1
 66
  1
 70
  0
 62
  0
 10
4.852520
 20
0.613801
 30
0.000000
  0
VERTEX
  8
LAYER-1
 10
4.852520
 20
0.613801
 30
0.000000
  0
VERTEX
  8
LAYER-1
 10
4.819302
 20
0.613241
 30
0.000000
  0
SEQEND
  8
LAYER-1
  0
POLYLINE
  8
LAYER-1
 66
  1
 70
  0
 62
  0
 10
4.891633
 20
0.613241
 30
0.000000
  0
VERTEX
  8
LAYER-1
 10
4.891633
 20
0.613241
 30
0.000000
  0
VERTEX
  8
LAYER-1
 10
4.874525
 20
0.624225
 30
0.000000
  0
VERTEX
  8
LAYER-1
 10
4.857445
 20
0.619894
 30
0.000000
  0
VERTEX
  8
LAYER-1
 10
4.854730
 20
0.613241
 30
0.000000
  0
SEQEND
  8
LAYER-1
  0
POLYLINE
  8
LAYER-1
 66
  1
 70
  0
 62
  0
 10
4.891634
 20
0.613240
 30
0.000000
  0
VERTEX
  8
LAYER-1
 10
4.891634
 20
0.613240
 30
0.000000
  0
VERTEX
  8
LAYER-1
 10
4.854730
 20
0.613241
 30
0.000000
  0
SEQEND
  8
LAYER-1
  0
POLYLINE
  8
LAYER-1
 66
  1
 70
  0
 62
  0
 10
4.890462
 20
0.341584
 30
0.000000
  0
VERTEX
  8
LAYER-1
 10
4.890462
 20
0.341584
 30
0.000000
  0
VERTEX
  8
LAYER-1
 10
4.890462
 20
0.613215
 30
0.000000
  0
SEQEND
  8
LAYER-1
  0
POLYLINE
  8
LAYER-1
 66
  1
 70
  0
 62
  0
 10
4.818128
 20
0.613211
 30
0.000000
  0
VERTEX
  8
LAYER-1
 10
4.818128
 20
0.613211
 30
0.000000
  0
VERTEX
  8
LAYER-1
 10
4.818128
 20
0.341582
 30
0.000000
  0
SEQEND
  8
LAYER-1
  0
POLYLINE
  8
LAYER-1
 66
  1
 70
  0
 62
  0
 10
4.853558
 20
0.341582
 30
0.000000
  0
VERTEX
  8
LAYER-1
 10
4.853558
 20
0.341582
 30
0.000000
  0
VERTEX
  8
LAYER-1
 10
4.853558
 20
0.613213
 30
0.000000
  0
SEQEND
  8
LAYER-1
  0
POLYLINE
  8
LAYER-1
 66
  1
 70
  0
 62
  0
 10
4.818433
 20
0.341725
 30
0.000000
  0
VERTEX
  8
LAYER-1
 10
4.818433
 20
0.341725
 30
0.000000
  0
VERTEX
  8
LAYER-1
 10
4.828373
 20
0.334724
 30
0.000000
  0
VERTEX
  8
LAYER-1
 10
4.843136
 20
0.336802
 30
0.000000
  0
VERTEX
  8
LAYER-1
 10
4.851652
 20
0.341165
 30
0.000000
  0
SEQEND
  8
LAYER-1
  0
POLYLINE
  8
LAYER-1
 66
  1
 70
  0
 62
  0
 10
4.851652
 20
0.341164
 30
0.000000
  0
VERTEX
  8
LAYER-1
 10
4.851652
 20
0.341164
 30
0.000000
  0
VERTEX
  8
LAYER-1
 10
4.818433
 20
0.341725
 30
0.000000
  0
SEQEND
  8
LAYER-1
  0
POLYLINE
  8
LAYER-1
 66
  1
 70
  0
 62
  0
 10
4.853862
 20
0.341725
 30
0.000000
  0
VERTEX
  8
LAYER-1
 10
4.853862
 20
0.341725
 30
0.000000
  0
VERTEX
  8
LAYER-1
 10
4.867033
 20
0.334678
 30
0.000000
  0
VERTEX
  8
LAYER-1
 10
4.884113
 20
0.339010
 30
0.000000
  0
VERTEX
  8
LAYER-1
 10
4.890765
 20
0.341726
 30
0.000000
  0
SEQEND
  8
LAYER-1
  0
POLYLINE
  8
LAYER-1
 66
  1
 70
  0
 62
  0
 10
4.890765
 20
0.341725
 30
0.000000
  0
VERTEX
  8
LAYER-1
 10
4.890765
 20
0.341725
 30
0.000000
  0
VERTEX
  8
LAYER-1
 10
4.853862
 20
0.341725
 30
0.000000
  0
SEQEND
  8
LAYER-1
  0
POLYLINE
  8
LAYER-1
 66
  1
 70
  0
 62
  0
 10
5.672521
 20
0.613801
 30
0.000000
  0
VERTEX
  8
LAYER-1
 10
5.672521
 20
0.613801
 30
0.000000
  0
VERTEX
  8
LAYER-1
 10
5.658348
 20
0.624333
 30
0.000000
  0
VERTEX
  8
LAYER-1
 10
5.643664
 20
0.621758
 30
0.000000
  0
VERTEX
  8
LAYER-1
 10
5.639301
 20
0.613241
 30
0.000000
  0
SEQEND
  8
LAYER-1
  0
POLYLINE
  8
LAYER-1
 66
  1
 70
  0
 62
  0
 10
5.672521
 20
0.613801
 30
0.000000
  0
VERTEX
  8
LAYER-1
 10
5.672521
 20
0.613801
 30
0.000000
  0
VERTEX
  8
LAYER-1
 10
5.639302
 20
0.613241
 30
0.000000
  0
SEQEND
  8
LAYER-1
  0
POLYLINE
  8
LAYER-1
 66
  1
 70
  0
 62
  0
 10
5.711633
 20
0.613241
 30
0.000000
  0
VERTEX
  8
LAYER-1
 10
5.711633
 20
0.613241
 30
0.000000
  0
VERTEX
  8
LAYER-1
 10
5.694525
 20
0.624225
 30
0.000000
  0
VERTEX
  8
LAYER-1
 10
5.677445
 20
0.619894
 30
0.000000
  0
VERTEX
  8
LAYER-1
 10
5.674730
 20
0.613241
 30
0.000000
  0
SEQEND
  8
LAYER-1
  0
POLYLINE
  8
LAYER-1
 66
  1
 70
  0
 62
  0
 10
5.711633
 20
0.613240
 30
0.000000
  0
VERTEX
  8
LAYER-1
 10
5.711633
 20
0.613240
 30
0.000000
  0
VERTEX
  8
LAYER-1
 10
5.674731
 20
0.613241
 30
0.000000
  0
SEQEND
  8
LAYER-1
  0
POLYLINE
  8
LAYER-1
 66
  1
 70
  0
 62
  0
 10
5.710462
 20
0.341584
 30
0.000000
  0
VERTEX
  8
LAYER-1
 10
5.710462
 20
0.341584
 30
0.000000
  0
VERTEX
  8
LAYER-1
 10
5.710462
 20
0.613215
 30
0.000000
  0
SEQEND
  8
LAYER-1
  0
POLYLINE
  8
LAYER-1
 66
  1
 70
  0
 62
  0
 10
5.638128
 20
0.613211
 30
0.000000
  0
VERTEX
  8
LAYER-1
 10
5.638128
 20
0.613211
 30
0.000000
  0
VERTEX
  8
LAYER-1
 10
5.638128
 20
0.341582
 30
0.000000
  0
SEQEND
  8
LAYER-1
  0
POLYLINE
  8
LAYER-1
 66
  1
 70
  0
 62
  0
 10
5.673559
 20
0.341582
 30
0.000000
  0
VERTEX
  8
LAYER-1
 10
5.673559
 20
0.341582
 30
0.000000
  0
VERTEX
  8
LAYER-1
 10
5.673559
 20
0.613213
 30
0.000000
  0
SEQEND
  8
LAYER-1
  0
POLYLINE
  8
LAYER-1
 66
  1
 70
  0
 62
  0
 10
5.638433
 20
0.341725
 30
0.000000
  0
VERTEX
  8
LAYER-1
 10
5.638433
 20
0.341725
 30
0.000000
  0
VERTEX
  8
LAYER-1
 10
5.648373
 20
0.334724
 30
0.000000
  0
VERTEX
  8
LAYER-1
 10
5.663136
 20
0.336802
 30
0.000000
  0
VERTEX
  8
LAYER-1
 10
5.671652
 20
0.341165
 30
0.000000
  0
SEQEND
  8
LAYER-1
  0
POLYLINE
  8
LAYER-1
 66
  1
 70
  0
 62
  0
 10
5.671652
 20
0.341164
 30
0.000000
  0
VERTEX
  8
LAYER-1
 10
5.671652
 20
0.341164
 30
0.000000
  0
VERTEX
  8
LAYER-1
 10
5.638433
 20
0.341725
 30
0.000000
  0
SEQEND
  8
LAYER-1
  0
POLYLINE
  8
LAYER-1
 66
  1
 70
  0
 62
  0
 10
5.673862
 20
0.341725
 30
0.000000
  0
VERTEX
  8
LAYER-1
 10
5.673862
 20
0.341725
 30
0.000000
  0
VERTEX
  8
LAYER-1
 10
5.687033
 20
0.334678
 30
0.000000
  0
VERTEX
  8
LAYER-1
 10
5.704113
 20
0.339010
 30
0.000000
  0
VERTEX
  8
LAYER-1
 10
5.710765
 20
0.341726
 30
0.000000
  0
SEQEND
  8
LAYER-1
  0
POLYLINE
  8
LAYER-1
 66
  1
 70
  0
 62
  0
 10
5.710765
 20
0.341725
 30
0.000000
  0
VERTEX
  8
LAYER-1
 10
5.710765
 20
0.341725
 30
0.000000
  0
VERTEX
  8
LAYER-1
 10
5.673862
 20
0.341725
 30
0.000000
  0
SEQEND
  8
LAYER-1
  0
POLYLINE
  8
LAYER-1
 66
  1
 70
  0
 62
  0
 40
0.027778
 41
0.027778
 10
3.645018
 20
0.237641
 30
0.000000
  0
VERTEX
  8
LAYER-1
 10
3.645018
 20
0.237641
 30
0.000000
  0
VERTEX
  8
LAYER-1
 10
0.736445
 20
0.237641
 30
0.000000
  0
SEQEND
  8
LAYER-1
  0
POLYLINE
  8
LAYER-1
 66
  1
 70
  0
 62
  0
 40
0.027778
 41
0.027778
 10
3.738635
 20
0.237641
 30
0.000000
  0
VERTEX
  8
LAYER-1
 10
3.738635
 20
0.237641
 30
0.000000
  0
VERTEX
  8
LAYER-1
 10
6.736445
 20
0.237641
 30
0.000000
  0
SEQEND
  8
LAYER-1
  0
POLYLINE
  8
LAYER-1
 66
  1
 70
  1
 62
  7
  0
VERTEX
  8
LAYER-1
 10
0.075117
 20
4.882161
 30
0.000000
  0
VERTEX
  8
LAYER-1
 10
0.157896
 20
4.882161
 30
0.000000
  0
VERTEX
  8
LAYER-1
 10
0.157896
 20
4.666655
 30
0.000000
  0
VERTEX
  8
LAYER-1
 10
0.075117
 20
4.666655
 30
0.000000
  0
SEQEND
  8
LAYER-1
  0
POLYLINE
  8
LAYER-1
 66
  1
 70
  1
 62
  7
  0
VERTEX
  8
LAYER-1
 10
0.219083
 20
4.882161
 30
0.000000
  0
VERTEX
  8
LAYER-1
 10
0.301864
 20
4.882161
 30
0.000000
  0
VERTEX
  8
LAYER-1
 10
0.301864
 20
4.666655
 30
0.000000
  0
VERTEX
  8
LAYER-1
 10
0.219083
 20
4.666655
 30
0.000000
  0
SEQEND
  8
LAYER-1
  0
POLYLINE
  8
LAYER-1
 66
  1
 70
  1
 62
  7
  0
VERTEX
  8
LAYER-1
 10
0.363050
 20
4.882161
 30
0.000000
  0
VERTEX
  8
LAYER-1
 10
0.445828
 20
4.882161
 30
0.000000
  0
VERTEX
  8
LAYER-1
 10
0.445828
 20
4.666655
 30
0.000000
  0
VERTEX
  8
LAYER-1
 10
0.363050
 20
4.666655
 30
0.000000
  0
SEQEND
  8
LAYER-1
  0
POLYLINE
  8
LAYER-1
 66
  1
 70
  1
 62
  7
  0
VERTEX
  8
LAYER-1
 10
0.507016
 20
4.882161
 30
0.000000
  0
VERTEX
  8
LAYER-1
 10
0.589794
 20
4.882161
 30
0.000000
  0
VERTEX
  8
LAYER-1
 10
0.589794
 20
4.666655
 30
0.000000
  0
VERTEX
  8
LAYER-1
 10
0.507016
 20
4.666655
 30
0.000000
  0
SEQEND
  8
LAYER-1
  0
POLYLINE
  8
LAYER-1
 66
  1
 70
  1
 62
  7
  0
VERTEX
  8
LAYER-1
 10
0.650981
 20
4.882161
 30
0.000000
  0
VERTEX
  8
LAYER-1
 10
0.733761
 20
4.882161
 30
0.000000
  0
VERTEX
  8
LAYER-1
 10
0.733761
 20
4.666655
 30
0.000000
  0
VERTEX
  8
LAYER-1
 10
0.650981
 20
4.666655
 30
0.000000
  0
SEQEND
  8
LAYER-1
  0
POLYLINE
  8
LAYER-1
 66
  1
 70
  1
 62
  7
  0
VERTEX
  8
LAYER-1
 10
0.794948
 20
4.882161
 30
0.000000
  0
VERTEX
  8
LAYER-1
 10
0.877727
 20
4.882161
 30
0.000000
  0
VERTEX
  8
LAYER-1
 10
0.877727
 20
4.666655
 30
0.000000
  0
VERTEX
  8
LAYER-1
 10
0.794948
 20
4.666655
 30
0.000000
  0
SEQEND
  8
LAYER-1
  0
POLYLINE
  8
LAYER-1
 66
  1
 70
  1
 62
  7
  0
VERTEX
  8
LAYER-1
 10
0.938914
 20
4.882161
 30
0.000000
  0
VERTEX
  8
LAYER-1
 10
1.021693
 20
4.882161
 30
0.000000
  0
VERTEX
  8
LAYER-1
 10
1.021693
 20
4.666655
 30
0.000000
  0
VERTEX
  8
LAYER-1
 10
0.938914
 20
4.666655
 30
0.000000
  0
SEQEND
  8
LAYER-1
  0
POLYLINE
  8
LAYER-1
 66
  1
 70
  1
 62
  7
  0
VERTEX
  8
LAYER-1
 10
0.003017
 20
5.097651
 30
0.000000
  0
VERTEX
  8
LAYER-1
 10
0.085796
 20
5.097651
 30
0.000000
  0
VERTEX
  8
LAYER-1
 10
0.085796
 20
4.882148
 30
0.000000
  0
VERTEX
  8
LAYER-1
 10
0.003017
 20
4.882148
 30
0.000000
  0
SEQEND
  8
LAYER-1
  0
POLYLINE
  8
LAYER-1
 66
  1
 70
  1
 62
  7
  0
VERTEX
  8
LAYER-1
 10
0.146983
 20
5.097651
 30
0.000000
  0
VERTEX
  8
LAYER-1
 10
0.229762
 20
5.097651
 30
0.000000
  0
VERTEX
  8
LAYER-1
 10
0.229762
 20
4.882148
 30
0.000000
  0
VERTEX
  8
LAYER-1
 10
0.146983
 20
4.882148
 30
0.000000
  0
SEQEND
  8
LAYER-1
  0
POLYLINE
  8
LAYER-1
 66
  1
 70
  1
 62
  7
  0
VERTEX
  8
LAYER-1
 10
0.290949
 20
5.097651
 30
0.000000
  0
VERTEX
  8
LAYER-1
 10
0.373729
 20
5.097651
 30
0.000000
  0
VERTEX
  8
LAYER-1
 10
0.373729
 20
4.882148
 30
0.000000
  0
VERTEX
  8
LAYER-1
 10
0.290949
 20
4.882148
 30
0.000000
  0
SEQEND
  8
LAYER-1
  0
POLYLINE
  8
LAYER-1
 66
  1
 70
  1
 62
  7
  0
VERTEX
  8
LAYER-1
 10
0.434916
 20
5.097651
 30
0.000000
  0
VERTEX
  8
LAYER-1
 10
0.517695
 20
5.097651
 30
0.000000
  0
VERTEX
  8
LAYER-1
 10
0.517695
 20
4.882148
 30
0.000000
  0
VERTEX
  8
LAYER-1
 10
0.434916
 20
4.882148
 30
0.000000
  0
SEQEND
  8
LAYER-1
  0
POLYLINE
  8
LAYER-1
 66
  1
 70
  1
 62
  7
  0
VERTEX
  8
LAYER-1
 10
0.578881
 20
5.097651
 30
0.000000
  0
VERTEX
  8
LAYER-1
 10
0.661661
 20
5.097651
 30
0.000000
  0
VERTEX
  8
LAYER-1
 10
0.661661
 20
4.882148
 30
0.000000
  0
VERTEX
  8
LAYER-1
 10
0.578881
 20
4.882148
 30
0.000000
  0
SEQEND
  8
LAYER-1
  0
POLYLINE
  8
LAYER-1
 66
  1
 70
  1
 62
  7
  0
VERTEX
  8
LAYER-1
 10
0.722848
 20
5.097651
 30
0.000000
  0
VERTEX
  8
LAYER-1
 10
0.805627
 20
5.097651
 30
0.000000
  0
VERTEX
  8
LAYER-1
 10
0.805627
 20
4.882148
 30
0.000000
  0
VERTEX
  8
LAYER-1
 10
0.722848
 20
4.882148
 30
0.000000
  0
SEQEND
  8
LAYER-1
  0
POLYLINE
  8
LAYER-1
 66
  1
 70
  1
 62
  7
  0
VERTEX
  8
LAYER-1
 10
0.866814
 20
5.097651
 30
0.000000
  0
VERTEX
  8
LAYER-1
 10
0.949594
 20
5.097651
 30
0.000000
  0
VERTEX
  8
LAYER-1
 10
0.949594
 20
4.882148
 30
0.000000
  0
VERTEX
  8
LAYER-1
 10
0.866814
 20
4.882148
 30
0.000000
  0
SEQEND
  8
LAYER-1
  0
POLYLINE
  8
LAYER-1
 66
  1
 70
  1
 62
  7
  0
VERTEX
  8
LAYER-1
 10
0.075117
 20
4.451175
 30
0.000000
  0
VERTEX
  8
LAYER-1
 10
0.157896
 20
4.451175
 30
0.000000
  0
VERTEX
  8
LAYER-1
 10
0.157896
 20
4.235673
 30
0.000000
  0
VERTEX
  8
LAYER-1
 10
0.075117
 20
4.235673
 30
0.000000
  0
SEQEND
  8
LAYER-1
  0
POLYLINE
  8
LAYER-1
 66
  1
 70
  1
 62
  7
  0
VERTEX
  8
LAYER-1
 10
0.219083
 20
4.451175
 30
0.000000
  0
VERTEX
  8
LAYER-1
 10
0.301864
 20
4.451175
 30
0.000000
  0
VERTEX
  8
LAYER-1
 10
0.301864
 20
4.235673
 30
0.000000
  0
VERTEX
  8
LAYER-1
 10
0.219083
 20
4.235673
 30
0.000000
  0
SEQEND
  8
LAYER-1
  0
POLYLINE
  8
LAYER-1
 66
  1
 70
  1
 62
  7
  0
VERTEX
  8
LAYER-1
 10
0.363050
 20
4.451175
 30
0.000000
  0
VERTEX
  8
LAYER-1
 10
0.445828
 20
4.451175
 30
0.000000
  0
VERTEX
  8
LAYER-1
 10
0.445828
 20
4.235673
 30
0.000000
  0
VERTEX
  8
LAYER-1
 10
0.363050
 20
4.235673
 30
0.000000
  0
SEQEND
  8
LAYER-1
  0
POLYLINE
  8
LAYER-1
 66
  1
 70
  1
 62
  7
  0
VERTEX
  8
LAYER-1
 10
0.507016
 20
4.451175
 30
0.000000
  0
VERTEX
  8
LAYER-1
 10
0.589794
 20
4.451175
 30
0.000000
  0
VERTEX
  8
LAYER-1
 10
0.589794
 20
4.235673
 30
0.000000
  0
VERTEX
  8
LAYER-1
 10
0.507016
 20
4.235673
 30
0.000000
  0
SEQEND
  8
LAYER-1
  0
POLYLINE
  8
LAYER-1
 66
  1
 70
  1
 62
  7
  0
VERTEX
  8
LAYER-1
 10
0.650981
 20
4.451175
 30
0.000000
  0
VERTEX
  8
LAYER-1
 10
0.733761
 20
4.451175
 30
0.000000
  0
VERTEX
  8
LAYER-1
 10
0.733761
 20
4.235673
 30
0.000000
  0
VERTEX
  8
LAYER-1
 10
0.650981
 20
4.235673
 30
0.000000
  0
SEQEND
  8
LAYER-1
  0
POLYLINE
  8
LAYER-1
 66
  1
 70
  1
 62
  7
  0
VERTEX
  8
LAYER-1
 10
0.794948
 20
4.451175
 30
0.000000
  0
VERTEX
  8
LAYER-1
 10
0.877727
 20
4.451175
 30
0.000000
  0
VERTEX
  8
LAYER-1
 10
0.877727
 20
4.235673
 30
0.000000
  0
VERTEX
  8
LAYER-1
 10
0.794948
 20
4.235673
 30
0.000000
  0
SEQEND
  8
LAYER-1
  0
POLYLINE
  8
LAYER-1
 66
  1
 70
  1
 62
  7
  0
VERTEX
  8
LAYER-1
 10
0.938914
 20
4.451175
 30
0.000000
  0
VERTEX
  8
LAYER-1
 10
1.021693
 20
4.451175
 30
0.000000
  0
VERTEX
  8
LAYER-1
 10
1.021693
 20
4.235673
 30
0.000000
  0
VERTEX
  8
LAYER-1
 10
0.938914
 20
4.235673
 30
0.000000
  0
SEQEND
  8
LAYER-1
  0
POLYLINE
  8
LAYER-1
 66
  1
 70
  1
 62
  7
  0
VERTEX
  8
LAYER-1
 10
0.003017
 20
4.666668
 30
0.000000
  0
VERTEX
  8
LAYER-1
 10
0.085796
 20
4.666668
 30
0.000000
  0
VERTEX
  8
LAYER-1
 10
0.085796
 20
4.451164
 30
0.000000
  0
VERTEX
  8
LAYER-1
 10
0.003017
 20
4.451164
 30
0.000000
  0
SEQEND
  8
LAYER-1
  0
POLYLINE
  8
LAYER-1
 66
  1
 70
  1
 62
  7
  0
VERTEX
  8
LAYER-1
 10
0.146983
 20
4.666668
 30
0.000000
  0
VERTEX
  8
LAYER-1
 10
0.229762
 20
4.666668
 30
0.000000
  0
VERTEX
  8
LAYER-1
 10
0.229762
 20
4.451164
 30
0.000000
  0
VERTEX
  8
LAYER-1
 10
0.146983
 20
4.451164
 30
0.000000
  0
SEQEND
  8
LAYER-1
  0
POLYLINE
  8
LAYER-1
 66
  1
 70
  1
 62
  7
  0
VERTEX
  8
LAYER-1
 10
0.290949
 20
4.666668
 30
0.000000
  0
VERTEX
  8
LAYER-1
 10
0.373729
 20
4.666668
 30
0.000000
  0
VERTEX
  8
LAYER-1
 10
0.373729
 20
4.451164
 30
0.000000
  0
VERTEX
  8
LAYER-1
 10
0.290949
 20
4.451164
 30
0.000000
  0
SEQEND
  8
LAYER-1
  0
POLYLINE
  8
LAYER-1
 66
  1
 70
  1
 62
  7
  0
VERTEX
  8
LAYER-1
 10
0.434916
 20
4.666668
 30
0.000000
  0
VERTEX
  8
LAYER-1
 10
0.517695
 20
4.666668
 30
0.000000
  0
VERTEX
  8
LAYER-1
 10
0.517695
 20
4.451164
 30
0.000000
  0
VERTEX
  8
LAYER-1
 10
0.434916
 20
4.451164
 30
0.000000
  0
SEQEND
  8
LAYER-1
  0
POLYLINE
  8
LAYER-1
 66
  1
 70
  1
 62
  7
  0
VERTEX
  8
LAYER-1
 10
0.578881
 20
4.666668
 30
0.000000
  0
VERTEX
  8
LAYER-1
 10
0.661661
 20
4.666668
 30
0.000000
  0
VERTEX
  8
LAYER-1
 10
0.661661
 20
4.451164
 30
0.000000
  0
VERTEX
  8
LAYER-1
 10
0.578881
 20
4.451164
 30
0.000000
  0
SEQEND
  8
LAYER-1
  0
POLYLINE
  8
LAYER-1
 66
  1
 70
  1
 62
  7
  0
VERTEX
  8
LAYER-1
 10
0.722848
 20
4.666668
 30
0.000000
  0
VERTEX
  8
LAYER-1
 10
0.805627
 20
4.666668
 30
0.000000
  0
VERTEX
  8
LAYER-1
 10
0.805627
 20
4.451164
 30
0.000000
  0
VERTEX
  8
LAYER-1
 10
0.722848
 20
4.451164
 30
0.000000
  0
SEQEND
  8
LAYER-1
  0
POLYLINE
  8
LAYER-1
 66
  1
 70
  1
 62
  7
  0
VERTEX
  8
LAYER-1
 10
0.866814
 20
4.666668
 30
0.000000
  0
VERTEX
  8
LAYER-1
 10
0.949594
 20
4.666668
 30
0.000000
  0
VERTEX
  8
LAYER-1
 10
0.949594
 20
4.451164
 30
0.000000
  0
VERTEX
  8
LAYER-1
 10
0.866814
 20
4.451164
 30
0.000000
  0
SEQEND
  8
LAYER-1
  0
POLYLINE
  8
LAYER-1
 66
  1
 70
  1
 62
  7
  0
VERTEX
  8
LAYER-1
 10
0.075117
 20
4.020195
 30
0.000000
  0
VERTEX
  8
LAYER-1
 10
0.157896
 20
4.020195
 30
0.000000
  0
VERTEX
  8
LAYER-1
 10
0.157896
 20
3.804693
 30
0.000000
  0
VERTEX
  8
LAYER-1
 10
0.075117
 20
3.804693
 30
0.000000
  0
SEQEND
  8
LAYER-1
  0
POLYLINE
  8
LAYER-1
 66
  1
 70
  1
 62
  7
  0
VERTEX
  8
LAYER-1
 10
0.219083
 20
4.020195
 30
0.000000
  0
VERTEX
  8
LAYER-1
 10
0.301864
 20
4.020195
 30
0.000000
  0
VERTEX
  8
LAYER-1
 10
0.301864
 20
3.804693
 30
0.000000
  0
VERTEX
  8
LAYER-1
 10
0.219083
 20
3.804693
 30
0.000000
  0
SEQEND
  8
LAYER-1
  0
POLYLINE
  8
LAYER-1
 66
  1
 70
  1
 62
  7
  0
VERTEX
  8
LAYER-1
 10
0.363050
 20
4.020195
 30
0.000000
  0
VERTEX
  8
LAYER-1
 10
0.445828
 20
4.020195
 30
0.000000
  0
VERTEX
  8
LAYER-1
 10
0.445828
 20
3.804693
 30
0.000000
  0
VERTEX
  8
LAYER-1
 10
0.363050
 20
3.804693
 30
0.000000
  0
SEQEND
  8
LAYER-1
  0
POLYLINE
  8
LAYER-1
 66
  1
 70
  1
 62
  7
  0
VERTEX
  8
LAYER-1
 10
0.507016
 20
4.020195
 30
0.000000
  0
VERTEX
  8
LAYER-1
 10
0.589794
 20
4.020195
 30
0.000000
  0
VERTEX
  8
LAYER-1
 10
0.589794
 20
3.804693
 30
0.000000
  0
VERTEX
  8
LAYER-1
 10
0.507016
 20
3.804693
 30
0.000000
  0
SEQEND
  8
LAYER-1
  0
POLYLINE
  8
LAYER-1
 66
  1
 70
  1
 62
  7
  0
VERTEX
  8
LAYER-1
 10
0.650981
 20
4.020195
 30
0.000000
  0
VERTEX
  8
LAYER-1
 10
0.733761
 20
4.020195
 30
0.000000
  0
VERTEX
  8
LAYER-1
 10
0.733761
 20
3.804693
 30
0.000000
  0
VERTEX
  8
LAYER-1
 10
0.650981
 20
3.804693
 30
0.000000
  0
SEQEND
  8
LAYER-1
  0
POLYLINE
  8
LAYER-1
 66
  1
 70
  1
 62
  7
  0
VERTEX
  8
LAYER-1
 10
0.794948
 20
4.020195
 30
0.000000
  0
VERTEX
  8
LAYER-1
 10
0.877727
 20
4.020195
 30
0.000000
  0
VERTEX
  8
LAYER-1
 10
0.877727
 20
3.804693
 30
0.000000
  0
VERTEX
  8
LAYER-1
 10
0.794948
 20
3.804693
 30
0.000000
  0
SEQEND
  8
LAYER-1
  0
POLYLINE
  8
LAYER-1
 66
  1
 70
  1
 62
  7
  0
VERTEX
  8
LAYER-1
 10
0.938914
 20
4.020195
 30
0.000000
  0
VERTEX
  8
LAYER-1
 10
1.021693
 20
4.020195
 30
0.000000
  0
VERTEX
  8
LAYER-1
 10
1.021693
 20
3.804693
 30
0.000000
  0
VERTEX
  8
LAYER-1
 10
0.938914
 20
3.804693
 30
0.000000
  0
SEQEND
  8
LAYER-1
  0
POLYLINE
  8
LAYER-1
 66
  1
 70
  1
 62
  7
  0
VERTEX
  8
LAYER-1
 10
0.003017
 20
4.235685
 30
0.000000
  0
VERTEX
  8
LAYER-1
 10
0.085796
 20
4.235685
 30
0.000000
  0
VERTEX
  8
LAYER-1
 10
0.085796
 20
4.020182
 30
0.000000
  0
VERTEX
  8
LAYER-1
 10
0.003017
 20
4.020182
 30
0.000000
  0
SEQEND
  8
LAYER-1
  0
POLYLINE
  8
LAYER-1
 66
  1
 70
  1
 62
  7
  0
VERTEX
  8
LAYER-1
 10
0.146983
 20
4.235685
 30
0.000000
  0
VERTEX
  8
LAYER-1
 10
0.229762
 20
4.235685
 30
0.000000
  0
VERTEX
  8
LAYER-1
 10
0.229762
 20
4.020182
 30
0.000000
  0
VERTEX
  8
LAYER-1
 10
0.146983
 20
4.020182
 30
0.000000
  0
SEQEND
  8
LAYER-1
  0
POLYLINE
  8
LAYER-1
 66
  1
 70
  1
 62
  7
  0
VERTEX
  8
LAYER-1
 10
0.290949
 20
4.235685
 30
0.000000
  0
VERTEX
  8
LAYER-1
 10
0.373729
 20
4.235685
 30
0.000000
  0
VERTEX
  8
LAYER-1
 10
0.373729
 20
4.020182
 30
0.000000
  0
VERTEX
  8
LAYER-1
 10
0.290949
 20
4.020182
 30
0.000000
  0
SEQEND
  8
LAYER-1
  0
POLYLINE
  8
LAYER-1
 66
  1
 70
  1
 62
  7
  0
VERTEX
  8
LAYER-1
 10
0.434916
 20
4.235685
 30
0.000000
  0
VERTEX
  8
LAYER-1
 10
0.517695
 20
4.235685
 30
0.000000
  0
VERTEX
  8
LAYER-1
 10
0.517695
 20
4.020182
 30
0.000000
  0
VERTEX
  8
LAYER-1
 10
0.434916
 20
4.020182
 30
0.000000
  0
SEQEND
  8
LAYER-1
  0
POLYLINE
  8
LAYER-1
 66
  1
 70
  1
 62
  7
  0
VERTEX
  8
LAYER-1
 10
0.578881
 20
4.235685
 30
0.000000
  0
VERTEX
  8
LAYER-1
 10
0.661661
 20
4.235685
 30
0.000000
  0
VERTEX
  8
LAYER-1
 10
0.661661
 20
4.020182
 30
0.000000
  0
VERTEX
  8
LAYER-1
 10
0.578881
 20
4.020182
 30
0.000000
  0
SEQEND
  8
LAYER-1
  0
POLYLINE
  8
LAYER-1
 66
  1
 70
  1
 62
  7
  0
VERTEX
  8
LAYER-1
 10
0.722848
 20
4.235685
 30
0.000000
  0
VERTEX
  8
LAYER-1
 10
0.805627
 20
4.235685
 30
0.000000
  0
VERTEX
  8
LAYER-1
 10
0.805627
 20
4.020182
 30
0.000000
  0
VERTEX
  8
LAYER-1
 10
0.722848
 20
4.020182
 30
0.000000
  0
SEQEND
  8
LAYER-1
  0
POLYLINE
  8
LAYER-1
 66
  1
 70
  1
 62
  7
  0
VERTEX
  8
LAYER-1
 10
0.866814
 20
4.235685
 30
0.000000
  0
VERTEX
  8
LAYER-1
 10
0.949594
 20
4.235685
 30
0.000000
  0
VERTEX
  8
LAYER-1
 10
0.949594
 20
4.020182
 30
0.000000
  0
VERTEX
  8
LAYER-1
 10
0.866814
 20
4.020182
 30
0.000000
  0
SEQEND
  8
LAYER-1
  0
POLYLINE
  8
LAYER-1
 66
  1
 70
  1
 62
  7
  0
VERTEX
  8
LAYER-1
 10
0.003017
 20
3.804705
 30
0.000000
  0
VERTEX
  8
LAYER-1
 10
0.085796
 20
3.804705
 30
0.000000
  0
VERTEX
  8
LAYER-1
 10
0.085796
 20
3.589203
 30
0.000000
  0
VERTEX
  8
LAYER-1
 10
0.003017
 20
3.589203
 30
0.000000
  0
SEQEND
  8
LAYER-1
  0
POLYLINE
  8
LAYER-1
 66
  1
 70
  1
 62
  7
  0
VERTEX
  8
LAYER-1
 10
0.146983
 20
3.804705
 30
0.000000
  0
VERTEX
  8
LAYER-1
 10
0.229762
 20
3.804705
 30
0.000000
  0
VERTEX
  8
LAYER-1
 10
0.229762
 20
3.589203
 30
0.000000
  0
VERTEX
  8
LAYER-1
 10
0.146983
 20
3.589203
 30
0.000000
  0
SEQEND
  8
LAYER-1
  0
POLYLINE
  8
LAYER-1
 66
  1
 70
  1
 62
  7
  0
VERTEX
  8
LAYER-1
 10
0.290949
 20
3.804705
 30
0.000000
  0
VERTEX
  8
LAYER-1
 10
0.373729
 20
3.804705
 30
0.000000
  0
VERTEX
  8
LAYER-1
 10
0.373729
 20
3.589203
 30
0.000000
  0
VERTEX
  8
LAYER-1
 10
0.290949
 20
3.589203
 30
0.000000
  0
SEQEND
  8
LAYER-1
  0
POLYLINE
  8
LAYER-1
 66
  1
 70
  1
 62
  7
  0
VERTEX
  8
LAYER-1
 10
0.434916
 20
3.804705
 30
0.000000
  0
VERTEX
  8
LAYER-1
 10
0.517695
 20
3.804705
 30
0.000000
  0
VERTEX
  8
LAYER-1
 10
0.517695
 20
3.589203
 30
0.000000
  0
VERTEX
  8
LAYER-1
 10
0.434916
 20
3.589203
 30
0.000000
  0
SEQEND
  8
LAYER-1
  0
POLYLINE
  8
LAYER-1
 66
  1
 70
  1
 62
  7
  0
VERTEX
  8
LAYER-1
 10
0.578881
 20
3.804705
 30
0.000000
  0
VERTEX
  8
LAYER-1
 10
0.661661
 20
3.804705
 30
0.000000
  0
VERTEX
  8
LAYER-1
 10
0.661661
 20
3.589203
 30
0.000000
  0
VERTEX
  8
LAYER-1
 10
0.578881
 20
3.589203
 30
0.000000
  0
SEQEND
  8
LAYER-1
  0
POLYLINE
  8
LAYER-1
 66
  1
 70
  1
 62
  7
  0
VERTEX
  8
LAYER-1
 10
0.722848
 20
3.804705
 30
0.000000
  0
VERTEX
  8
LAYER-1
 10
0.805627
 20
3.804705
 30
0.000000
  0
VERTEX
  8
LAYER-1
 10
0.805627
 20
3.589203
 30
0.000000
  0
VERTEX
  8
LAYER-1
 10
0.722848
 20
3.589203
 30
0.000000
  0
SEQEND
  8
LAYER-1
  0
POLYLINE
  8
LAYER-1
 66
  1
 70
  1
 62
  7
  0
VERTEX
  8
LAYER-1
 10
0.866814
 20
3.804705
 30
0.000000
  0
VERTEX
  8
LAYER-1
 10
0.949594
 20
3.804705
 30
0.000000
  0
VERTEX
  8
LAYER-1
 10
0.949594
 20
3.589203
 30
0.000000
  0
VERTEX
  8
LAYER-1
 10
0.866814
 20
3.589203
 30
0.000000
  0
SEQEND
  8
LAYER-1
  0
POLYLINE
  8
LAYER-1
 66
  1
 70
  0
 62
  7
 10
1.010902
 20
4.882029
 30
0.000000
  0
VERTEX
  8
LAYER-1
 10
1.010902
 20
4.882029
 30
0.000000
  0
VERTEX
  8
LAYER-1
 10
1.010902
 20
4.666606
 30
0.000000
  0
SEQEND
  8
LAYER-1
  0
POLYLINE
  8
LAYER-1
 66
  1
 70
  0
 62
  7
 10
0.013899
 20
4.666328
 30
0.000000
  0
VERTEX
  8
LAYER-1
 10
0.013899
 20
4.666328
 30
0.000000
  0
VERTEX
  8
LAYER-1
 10
0.013889
 20
4.451043
 30
0.000000
  0
SEQEND
  8
LAYER-1
  0
POLYLINE
  8
LAYER-1
 66
  1
 70
  0
 62
  7
 10
1.010902
 20
4.451043
 30
0.000000
  0
VERTEX
  8
LAYER-1
 10
1.010902
 20
4.451043
 30
0.000000
  0
VERTEX
  8
LAYER-1
 10
1.010902
 20
4.235624
 30
0.000000
  0
SEQEND
  8
LAYER-1
  0
POLYLINE
  8
LAYER-1
 66
  1
 70
  0
 62
  7
 10
0.013899
 20
4.235346
 30
0.000000
  0
VERTEX
  8
LAYER-1
 10
0.013899
 20
4.235346
 30
0.000000
  0
VERTEX
  8
LAYER-1
 10
0.013889
 20
4.020063
 30
0.000000
  0
SEQEND
  8
LAYER-1
  0
POLYLINE
  8
LAYER-1
 66
  1
 70
  0
 62
  7
 10
1.010902
 20
4.020063
 30
0.000000
  0
VERTEX
  8
LAYER-1
 10
1.010902
 20
4.020063
 30
0.000000
  0
VERTEX
  8
LAYER-1
 10
1.010902
 20
3.804644
 30
0.000000
  0
SEQEND
  8
LAYER-1
  0
POLYLINE
  8
LAYER-1
 66
  1
 70
  1
 62
  7
  0
VERTEX
  8
LAYER-1
 10
0.003007
 20
5.193078
 30
0.000000
  0
VERTEX
  8
LAYER-1
 10
0.147112
 20
5.193078
 30
0.000000
  0
VERTEX
  8
LAYER-1
 10
0.147112
 20
5.097492
 30
0.000000
  0
VERTEX
  8
LAYER-1
 10
0.003007
 20
5.097492
 30
0.000000
  0
SEQEND
  8
LAYER-1
  0
POLYLINE
  8
LAYER-1
 66
  1
 70
  1
 62
  7
  0
VERTEX
  8
LAYER-1
 10
0.147050
 20
5.193078
 30
0.000000
  0
VERTEX
  8
LAYER-1
 10
0.291156
 20
5.193078
 30
0.000000
  0
VERTEX
  8
LAYER-1
 10
0.291156
 20
5.097492
 30
0.000000
  0
VERTEX
  8
LAYER-1
 10
0.147050
 20
5.097492
 30
0.000000
  0
SEQEND
  8
LAYER-1
  0
POLYLINE
  8
LAYER-1
 66
  1
 70
  1
 62
  7
  0
VERTEX
  8
LAYER-1
 10
0.290953
 20
5.193078
 30
0.000000
  0
VERTEX
  8
LAYER-1
 10
0.434917
 20
5.193078
 30
0.000000
  0
VERTEX
  8
LAYER-1
 10
0.434917
 20
5.097492
 30
0.000000
  0
VERTEX
  8
LAYER-1
 10
0.290953
 20
5.097492
 30
0.000000
  0
SEQEND
  8
LAYER-1
  0
POLYLINE
  8
LAYER-1
 66
  1
 70
  1
 62
  7
  0
VERTEX
  8
LAYER-1
 10
0.434996
 20
5.193078
 30
0.000000
  0
VERTEX
  8
LAYER-1
 10
0.578960
 20
5.193078
 30
0.000000
  0
VERTEX
  8
LAYER-1
 10
0.578960
 20
5.097492
 30
0.000000
  0
VERTEX
  8
LAYER-1
 10
0.434996
 20
5.097492
 30
0.000000
  0
SEQEND
  8
LAYER-1
  0
POLYLINE
  8
LAYER-1
 66
  1
 70
  1
 62
  7
  0
VERTEX
  8
LAYER-1
 10
0.579038
 20
5.193078
 30
0.000000
  0
VERTEX
  8
LAYER-1
 10
0.722861
 20
5.193078
 30
0.000000
  0
VERTEX
  8
LAYER-1
 10
0.722861
 20
5.097492
 30
0.000000
  0
VERTEX
  8
LAYER-1
 10
0.579038
 20
5.097492
 30
0.000000
  0
SEQEND
  8
LAYER-1
  0
POLYLINE
  8
LAYER-1
 66
  1
 70
  1
 62
  7
  0
VERTEX
  8
LAYER-1
 10
0.722801
 20
5.193078
 30
0.000000
  0
VERTEX
  8
LAYER-1
 10
0.866904
 20
5.193078
 30
0.000000
  0
VERTEX
  8
LAYER-1
 10
0.866904
 20
5.097492
 30
0.000000
  0
VERTEX
  8
LAYER-1
 10
0.722801
 20
5.097492
 30
0.000000
  0
SEQEND
  8
LAYER-1
  0
POLYLINE
  8
LAYER-1
 66
  1
 70
  1
 62
  7
  0
VERTEX
  8
LAYER-1
 10
0.866843
 20
5.193078
 30
0.000000
  0
VERTEX
  8
LAYER-1
 10
1.021790
 20
5.193078
 30
0.000000
  0
VERTEX
  8
LAYER-1
 10
1.021790
 20
5.097492
 30
0.000000
  0
VERTEX
  8
LAYER-1
 10
0.866843
 20
5.097492
 30
0.000000
  0
SEQEND
  8
LAYER-1
  0
POLYLINE
  8
LAYER-1
 66
  1
 70
  0
 62
  7
 10
0.013889
 20
5.193137
 30
0.000000
  0
VERTEX
  8
LAYER-1
 10
0.013889
 20
5.193137
 30
0.000000
  0
VERTEX
  8
LAYER-1
 10
0.013889
 20
4.882151
 30
0.000000
  0
SEQEND
  8
LAYER-1
  0
POLYLINE
  8
LAYER-1
 66
  1
 70
  1
 62
  7
  0
VERTEX
  8
LAYER-1
 10
0.003007
 20
3.589166
 30
0.000000
  0
VERTEX
  8
LAYER-1
 10
0.147112
 20
3.589166
 30
0.000000
  0
VERTEX
  8
LAYER-1
 10
0.147112
 20
3.493580
 30
0.000000
  0
VERTEX
  8
LAYER-1
 10
0.003007
 20
3.493580
 30
0.000000
  0
SEQEND
  8
LAYER-1
  0
POLYLINE
  8
LAYER-1
 66
  1
 70
  1
 62
  7
  0
VERTEX
  8
LAYER-1
 10
0.147050
 20
3.589166
 30
0.000000
  0
VERTEX
  8
LAYER-1
 10
0.291156
 20
3.589166
 30
0.000000
  0
VERTEX
  8
LAYER-1
 10
0.291156
 20
3.493580
 30
0.000000
  0
VERTEX
  8
LAYER-1
 10
0.147050
 20
3.493580
 30
0.000000
  0
SEQEND
  8
LAYER-1
  0
POLYLINE
  8
LAYER-1
 66
  1
 70
  1
 62
  7
  0
VERTEX
  8
LAYER-1
 10
0.290953
 20
3.589166
 30
0.000000
  0
VERTEX
  8
LAYER-1
 10
0.434917
 20
3.589166
 30
0.000000
  0
VERTEX
  8
LAYER-1
 10
0.434917
 20
3.493580
 30
0.000000
  0
VERTEX
  8
LAYER-1
 10
0.290953
 20
3.493580
 30
0.000000
  0
SEQEND
  8
LAYER-1
  0
POLYLINE
  8
LAYER-1
 66
  1
 70
  1
 62
  7
  0
VERTEX
  8
LAYER-1
 10
0.434996
 20
3.589166
 30
0.000000
  0
VERTEX
  8
LAYER-1
 10
0.578960
 20
3.589166
 30
0.000000
  0
VERTEX
  8
LAYER-1
 10
0.578960
 20
3.493580
 30
0.000000
  0
VERTEX
  8
LAYER-1
 10
0.434996
 20
3.493580
 30
0.000000
  0
SEQEND
  8
LAYER-1
  0
POLYLINE
  8
LAYER-1
 66
  1
 70
  1
 62
  7
  0
VERTEX
  8
LAYER-1
 10
0.579038
 20
3.589166
 30
0.000000
  0
VERTEX
  8
LAYER-1
 10
0.722861
 20
3.589166
 30
0.000000
  0
VERTEX
  8
LAYER-1
 10
0.722861
 20
3.493580
 30
0.000000
  0
VERTEX
  8
LAYER-1
 10
0.579038
 20
3.493580
 30
0.000000
  0
SEQEND
  8
LAYER-1
  0
POLYLINE
  8
LAYER-1
 66
  1
 70
  1
 62
  7
  0
VERTEX
  8
LAYER-1
 10
0.722801
 20
3.589166
 30
0.000000
  0
VERTEX
  8
LAYER-1
 10
0.866904
 20
3.589166
 30
0.000000
  0
VERTEX
  8
LAYER-1
 10
0.866904
 20
3.493580
 30
0.000000
  0
VERTEX
  8
LAYER-1
 10
0.722801
 20
3.493580
 30
0.000000
  0
SEQEND
  8
LAYER-1
  0
POLYLINE
  8
LAYER-1
 66
  1
 70
  1
 62
  7
  0
VERTEX
  8
LAYER-1
 10
0.866843
 20
3.589166
 30
0.000000
  0
VERTEX
  8
LAYER-1
 10
1.021790
 20
3.589166
 30
0.000000
  0
VERTEX
  8
LAYER-1
 10
1.021790
 20
3.493580
 30
0.000000
  0
VERTEX
  8
LAYER-1
 10
0.866843
 20
3.493580
 30
0.000000
  0
SEQEND
  8
LAYER-1
  0
POLYLINE
  8
LAYER-1
 66
  1
 70
  0
 62
  7
 10
0.075083
 20
5.193089
 30
0.000000
  0
VERTEX
  8
LAYER-1
 10
0.075083
 20
5.193089
 30
0.000000
  0
VERTEX
  8
LAYER-1
 10
0.075083
 20
3.493798
 30
0.000000
  0
SEQEND
  8
LAYER-1
  0
POLYLINE
  8
LAYER-1
 66
  1
 70
  0
 62
  7
 10
0.085883
 20
5.193089
 30
0.000000
  0
VERTEX
  8
LAYER-1
 10
0.085883
 20
5.193089
 30
0.000000
  0
VERTEX
  8
LAYER-1
 10
0.085883
 20
3.493798
 30
0.000000
  0
SEQEND
  8
LAYER-1
  0
POLYLINE
  8
LAYER-1
 66
  1
 70
  0
 62
  7
 10
0.147066
 20
5.193089
 30
0.000000
  0
VERTEX
  8
LAYER-1
 10
0.147066
 20
5.193089
 30
0.000000
  0
VERTEX
  8
LAYER-1
 10
0.147066
 20
3.493798
 30
0.000000
  0
SEQEND
  8
LAYER-1
  0
POLYLINE
  8
LAYER-1
 66
  1
 70
  0
 62
  7
 10
0.157867
 20
5.193089
 30
0.000000
  0
VERTEX
  8
LAYER-1
 10
0.157867
 20
5.193089
 30
0.000000
  0
VERTEX
  8
LAYER-1
 10
0.157867
 20
3.493798
 30
0.000000
  0
SEQEND
  8
LAYER-1
  0
POLYLINE
  8
LAYER-1
 66
  1
 70
  0
 62
  7
 10
0.219048
 20
5.193089
 30
0.000000
  0
VERTEX
  8
LAYER-1
 10
0.219048
 20
5.193089
 30
0.000000
  0
VERTEX
  8
LAYER-1
 10
0.219048
 20
3.493798
 30
0.000000
  0
SEQEND
  8
LAYER-1
  0
POLYLINE
  8
LAYER-1
 66
  1
 70
  0
 62
  7
 10
0.229850
 20
5.193089
 30
0.000000
  0
VERTEX
  8
LAYER-1
 10
0.229850
 20
5.193089
 30
0.000000
  0
VERTEX
  8
LAYER-1
 10
0.229850
 20
3.493798
 30
0.000000
  0
SEQEND
  8
LAYER-1
  0
POLYLINE
  8
LAYER-1
 66
  1
 70
  0
 62
  7
 10
0.363016
 20
5.193089
 30
0.000000
  0
VERTEX
  8
LAYER-1
 10
0.363016
 20
5.193089
 30
0.000000
  0
VERTEX
  8
LAYER-1
 10
0.363016
 20
3.493798
 30
0.000000
  0
SEQEND
  8
LAYER-1
  0
POLYLINE
  8
LAYER-1
 66
  1
 70
  0
 62
  7
 10
0.373816
 20
5.193089
 30
0.000000
  0
VERTEX
  8
LAYER-1
 10
0.373816
 20
5.193089
 30
0.000000
  0
VERTEX
  8
LAYER-1
 10
0.373816
 20
3.493798
 30
0.000000
  0
SEQEND
  8
LAYER-1
  0
POLYLINE
  8
LAYER-1
 66
  1
 70
  0
 62
  7
 10
0.434998
 20
5.193089
 30
0.000000
  0
VERTEX
  8
LAYER-1
 10
0.434998
 20
5.193089
 30
0.000000
  0
VERTEX
  8
LAYER-1
 10
0.434998
 20
3.493798
 30
0.000000
  0
SEQEND
  8
LAYER-1
  0
POLYLINE
  8
LAYER-1
 66
  1
 70
  0
 62
  7
 10
0.445799
 20
5.193089
 30
0.000000
  0
VERTEX
  8
LAYER-1
 10
0.445799
 20
5.193089
 30
0.000000
  0
VERTEX
  8
LAYER-1
 10
0.445799
 20
3.493798
 30
0.000000
  0
SEQEND
  8
LAYER-1
  0
POLYLINE
  8
LAYER-1
 66
  1
 70
  0
 62
  7
 10
0.506981
 20
5.193089
 30
0.000000
  0
VERTEX
  8
LAYER-1
 10
0.506981
 20
5.193089
 30
0.000000
  0
VERTEX
  8
LAYER-1
 10
0.506981
 20
3.493798
 30
0.000000
  0
SEQEND
  8
LAYER-1
  0
POLYLINE
  8
LAYER-1
 66
  1
 70
  0
 62
  7
 10
0.517781
 20
5.193089
 30
0.000000
  0
VERTEX
  8
LAYER-1
 10
0.517781
 20
5.193089
 30
0.000000
  0
VERTEX
  8
LAYER-1
 10
0.517781
 20
3.493798
 30
0.000000
  0
SEQEND
  8
LAYER-1
  0
POLYLINE
  8
LAYER-1
 66
  1
 70
  0
 62
  7
 10
0.578964
 20
5.193089
 30
0.000000
  0
VERTEX
  8
LAYER-1
 10
0.578964
 20
5.193089
 30
0.000000
  0
VERTEX
  8
LAYER-1
 10
0.578964
 20
3.493798
 30
0.000000
  0
SEQEND
  8
LAYER-1
  0
POLYLINE
  8
LAYER-1
 66
  1
 70
  0
 62
  7
 10
0.589764
 20
5.193089
 30
0.000000
  0
VERTEX
  8
LAYER-1
 10
0.589764
 20
5.193089
 30
0.000000
  0
VERTEX
  8
LAYER-1
 10
0.589764
 20
3.493798
 30
0.000000
  0
SEQEND
  8
LAYER-1
  0
POLYLINE
  8
LAYER-1
 66
  1
 70
  0
 62
  7
 10
0.650947
 20
5.193089
 30
0.000000
  0
VERTEX
  8
LAYER-1
 10
0.650947
 20
5.193089
 30
0.000000
  0
VERTEX
  8
LAYER-1
 10
0.650947
 20
3.493798
 30
0.000000
  0
SEQEND
  8
LAYER-1
  0
POLYLINE
  8
LAYER-1
 66
  1
 70
  0
 62
  7
 10
0.661747
 20
5.193089
 30
0.000000
  0
VERTEX
  8
LAYER-1
 10
0.661747
 20
5.193089
 30
0.000000
  0
VERTEX
  8
LAYER-1
 10
0.661747
 20
3.493798
 30
0.000000
  0
SEQEND
  8
LAYER-1
  0
POLYLINE
  8
LAYER-1
 66
  1
 70
  0
 62
  7
 10
0.794915
 20
5.193089
 30
0.000000
  0
VERTEX
  8
LAYER-1
 10
0.794915
 20
5.193089
 30
0.000000
  0
VERTEX
  8
LAYER-1
 10
0.794915
 20
3.493798
 30
0.000000
  0
SEQEND
  8
LAYER-1
  0
POLYLINE
  8
LAYER-1
 66
  1
 70
  0
 62
  7
 10
0.805715
 20
5.193089
 30
0.000000
  0
VERTEX
  8
LAYER-1
 10
0.805715
 20
5.193089
 30
0.000000
  0
VERTEX
  8
LAYER-1
 10
0.805715
 20
3.493798
 30
0.000000
  0
SEQEND
  8
LAYER-1
  0
POLYLINE
  8
LAYER-1
 66
  1
 70
  0
 62
  7
 10
0.866896
 20
5.193089
 30
0.000000
  0
VERTEX
  8
LAYER-1
 10
0.866896
 20
5.193089
 30
0.000000
  0
VERTEX
  8
LAYER-1
 10
0.866896
 20
3.493798
 30
0.000000
  0
SEQEND
  8
LAYER-1
  0
POLYLINE
  8
LAYER-1
 66
  1
 70
  0
 62
  7
 10
0.877697
 20
5.193089
 30
0.000000
  0
VERTEX
  8
LAYER-1
 10
0.877697
 20
5.193089
 30
0.000000
  0
VERTEX
  8
LAYER-1
 10
0.877697
 20
3.493798
 30
0.000000
  0
SEQEND
  8
LAYER-1
  0
POLYLINE
  8
LAYER-1
 66
  1
 70
  0
 62
  7
 10
0.938881
 20
5.193089
 30
0.000000
  0
VERTEX
  8
LAYER-1
 10
0.938881
 20
5.193089
 30
0.000000
  0
VERTEX
  8
LAYER-1
 10
0.938881
 20
3.493798
 30
0.000000
  0
SEQEND
  8
LAYER-1
  0
POLYLINE
  8
LAYER-1
 66
  1
 70
  0
 62
  7
 10
0.949681
 20
5.193089
 30
0.000000
  0
VERTEX
  8
LAYER-1
 10
0.949681
 20
5.193089
 30
0.000000
  0
VERTEX
  8
LAYER-1
 10
0.949681
 20
3.493798
 30
0.000000
  0
SEQEND
  8
LAYER-1
  0
POLYLINE
  8
LAYER-1
 66
  1
 70
  0
 62
  7
 10
0.291031
 20
5.193089
 30
0.000000
  0
VERTEX
  8
LAYER-1
 10
0.291031
 20
5.193089
 30
0.000000
  0
VERTEX
  8
LAYER-1
 10
0.291031
 20
3.493570
 30
0.000000
  0
SEQEND
  8
LAYER-1
  0
POLYLINE
  8
LAYER-1
 66
  1
 70
  0
 62
  7
 10
0.301833
 20
5.193089
 30
0.000000
  0
VERTEX
  8
LAYER-1
 10
0.301833
 20
5.193089
 30
0.000000
  0
VERTEX
  8
LAYER-1
 10
0.301833
 20
3.493570
 30
0.000000
  0
SEQEND
  8
LAYER-1
  0
POLYLINE
  8
LAYER-1
 66
  1
 70
  0
 62
  7
 10
0.722932
 20
5.192838
 30
0.000000
  0
VERTEX
  8
LAYER-1
 10
0.722932
 20
5.192838
 30
0.000000
  0
VERTEX
  8
LAYER-1
 10
0.722932
 20
3.493570
 30
0.000000
  0
SEQEND
  8
LAYER-1
  0
POLYLINE
  8
LAYER-1
 66
  1
 70
  0
 62
  7
 10
0.733732
 20
5.192838
 30
0.000000
  0
VERTEX
  8
LAYER-1
 10
0.733732
 20
5.192838
 30
0.000000
  0
VERTEX
  8
LAYER-1
 10
0.733732
 20
3.493570
 30
0.000000
  0
SEQEND
  8
LAYER-1
  0
POLYLINE
  8
LAYER-1
 66
  1
 70
  0
 62
  7
 10
1.010902
 20
5.193284
 30
0.000000
  0
VERTEX
  8
LAYER-1
 10
1.010902
 20
5.193284
 30
0.000000
  0
VERTEX
  8
LAYER-1
 10
1.010902
 20
5.097540
 30
0.000000
  0
SEQEND
  8
LAYER-1
  0
POLYLINE
  8
LAYER-1
 66
  1
 70
  0
 62
  7
 10
0.014030
 20
3.804615
 30
0.000000
  0
VERTEX
  8
LAYER-1
 10
0.014030
 20
3.804615
 30
0.000000
  0
VERTEX
  8
LAYER-1
 10
0.013889
 20
3.493480
 30
0.000000
  0
SEQEND
  8
LAYER-1
  0
POLYLINE
  8
LAYER-1
 66
  1
 70
  0
 62
  7
 10
1.011042
 20
3.589226
 30
0.000000
  0
VERTEX
  8
LAYER-1
 10
1.011042
 20
3.589226
 30
0.000000
  0
VERTEX
  8
LAYER-1
 10
1.010902
 20
3.493630
 30
0.000000
  0
SEQEND
  8
LAYER-1
  0
TEXT
  8
LAYER-1
 62
  0
 10
0.125334
 20
3.291444
 30
0.000000
 40
0.104167
  1
CONCEPT 99
 72
  5
 11
1.083667
 21
3.291444
 31
0.000000
  0
TEXT
  8
LAYER-1
 62
  0
 10
0.292000
 20
3.221999
 30
0.000000
 40
0.083333
  1
(Aperto)
 72
  5
 11
0.750334
 21
3.221999
 31
0.000000
  0
POLYLINE
  8
LAYER-1
 66
  1
 70
  0
 62
  0
 10
3.643460
 20
1.231082
 30
0.000000
  0
VERTEX
  8
LAYER-1
 10
3.643460
 20
1.231082
 30
0.000000
  0
VERTEX
  8
LAYER-1
 10
1.768563
 20
1.231082
 30
0.000000
  0
SEQEND
  8
LAYER-1
  0
POLYLINE
  8
LAYER-1
 66
  1
 70
  0
 62
  0
 10
3.643460
 20
2.464102
 30
0.000000
  0
VERTEX
  8
LAYER-1
 10
3.643460
 20
2.464102
 30
0.000000
  0
VERTEX
  8
LAYER-1
 10
1.768563
 20
2.464102
 30
0.000000
  0
SEQEND
  8
LAYER-1
  0
POLYLINE
  8
LAYER-1
 66
  1
 70
  0
 62
  0
 10
3.643460
 20
3.697124
 30
0.000000
  0
VERTEX
  8
LAYER-1
 10
3.643460
 20
3.697124
 30
0.000000
  0
VERTEX
  8
LAYER-1
 10
1.768563
 20
3.697124
 30
0.000000
  0
SEQEND
  8
LAYER-1
  0
POLYLINE
  8
LAYER-1
 66
  1
 70
  0
 62
  0
 10
3.643460
 20
4.930144
 30
0.000000
  0
VERTEX
  8
LAYER-1
 10
3.643460
 20
4.930144
 30
0.000000
  0
VERTEX
  8
LAYER-1
 10
1.768563
 20
4.930144
 30
0.000000
  0
SEQEND
  8
LAYER-1
  0
POLYLINE
  8
LAYER-1
 66
  1
 70
  0
 62
  0
 10
3.643460
 20
6.163165
 30
0.000000
  0
VERTEX
  8
LAYER-1
 10
3.643460
 20
6.163165
 30
0.000000
  0
VERTEX
  8
LAYER-1
 10
1.768563
 20
6.163165
 30
0.000000
  0
SEQEND
  8
LAYER-1
  0
POLYLINE
  8
LAYER-1
 66
  1
 70
  0
 62
  0
 10
3.643563
 20
1.847727
 30
0.000000
  0
VERTEX
  8
LAYER-1
 10
3.643563
 20
1.847727
 30
0.000000
  0
VERTEX
  8
LAYER-1
 10
1.768563
 20
1.847727
 30
0.000000
  0
SEQEND
  8
LAYER-1
  0
POLYLINE
  8
LAYER-1
 66
  1
 70
  0
 62
  0
 10
3.643563
 20
3.080747
 30
0.000000
  0
VERTEX
  8
LAYER-1
 10
3.643563
 20
3.080747
 30
0.000000
  0
VERTEX
  8
LAYER-1
 10
1.768563
 20
3.080747
 30
0.000000
  0
SEQEND
  8
LAYER-1
  0
POLYLINE
  8
LAYER-1
 66
  1
 70
  0
 62
  0
 10
3.643563
 20
4.313769
 30
0.000000
  0
VERTEX
  8
LAYER-1
 10
3.643563
 20
4.313769
 30
0.000000
  0
VERTEX
  8
LAYER-1
 10
1.769431
 20
4.313769
 30
0.000000
  0
SEQEND
  8
LAYER-1
  0
POLYLINE
  8
LAYER-1
 66
  1
 70
  0
 62
  0
 10
3.643563
 20
5.546789
 30
0.000000
  0
VERTEX
  8
LAYER-1
 10
3.643563
 20
5.546789
 30
0.000000
  0
VERTEX
  8
LAYER-1
 10
1.768563
 20
5.546789
 30
0.000000
  0
SEQEND
  8
LAYER-1
  0
POLYLINE
  8
LAYER-1
 66
  1
 70
  0
 62
  0
 10
1.769431
 20
6.780158
 30
0.000000
  0
VERTEX
  8
LAYER-1
 10
1.769431
 20
6.780158
 30
0.000000
  0
VERTEX
  8
LAYER-1
 10
3.642694
 20
6.780158
 30
0.000000
  0
SEQEND
  8
LAYER-1
  0
POLYLINE
  8
LAYER-1
 66
  1
 70
  0
 62
  0
 10
5.690336
 20
1.230773
 30
0.000000
  0
VERTEX
  8
LAYER-1
 10
5.690336
 20
1.230773
 30
0.000000
  0
VERTEX
  8
LAYER-1
 10
3.815439
 20
1.230773
 30
0.000000
  0
SEQEND
  8
LAYER-1
  0
POLYLINE
  8
LAYER-1
 66
  1
 70
  0
 62
  0
 10
5.690336
 20
2.463793
 30
0.000000
  0
VERTEX
  8
LAYER-1
 10
5.690336
 20
2.463793
 30
0.000000
  0
VERTEX
  8
LAYER-1
 10
3.815439
 20
2.463793
 30
0.000000
  0
SEQEND
  8
LAYER-1
  0
POLYLINE
  8
LAYER-1
 66
  1
 70
  0
 62
  0
 10
5.690336
 20
3.696815
 30
0.000000
  0
VERTEX
  8
LAYER-1
 10
5.690336
 20
3.696815
 30
0.000000
  0
VERTEX
  8
LAYER-1
 10
3.815439
 20
3.696815
 30
0.000000
  0
SEQEND
  8
LAYER-1
  0
POLYLINE
  8
LAYER-1
 66
  1
 70
  0
 62
  0
 10
5.690336
 20
4.929836
 30
0.000000
  0
VERTEX
  8
LAYER-1
 10
5.690336
 20
4.929836
 30
0.000000
  0
VERTEX
  8
LAYER-1
 10
3.815439
 20
4.929836
 30
0.000000
  0
SEQEND
  8
LAYER-1
  0
POLYLINE
  8
LAYER-1
 66
  1
 70
  0
 62
  0
 10
5.690336
 20
6.162857
 30
0.000000
  0
VERTEX
  8
LAYER-1
 10
5.690336
 20
6.162857
 30
0.000000
  0
VERTEX
  8
LAYER-1
 10
3.815439
 20
6.162857
 30
0.000000
  0
SEQEND
  8
LAYER-1
  0
POLYLINE
  8
LAYER-1
 66
  1
 70
  0
 62
  0
 10
5.690439
 20
1.847419
 30
0.000000
  0
VERTEX
  8
LAYER-1
 10
5.690439
 20
1.847419
 30
0.000000
  0
VERTEX
  8
LAYER-1
 10
3.815439
 20
1.847419
 30
0.000000
  0
SEQEND
  8
LAYER-1
  0
POLYLINE
  8
LAYER-1
 66
  1
 70
  0
 62
  0
 10
5.690439
 20
3.080439
 30
0.000000
  0
VERTEX
  8
LAYER-1
 10
5.690439
 20
3.080439
 30
0.000000
  0
VERTEX
  8
LAYER-1
 10
3.815439
 20
3.080439
 30
0.000000
  0
SEQEND
  8
LAYER-1
  0
POLYLINE
  8
LAYER-1
 66
  1
 70
  0
 62
  0
 10
5.690439
 20
4.313461
 30
0.000000
  0
VERTEX
  8
LAYER-1
 10
5.690439
 20
4.313461
 30
0.000000
  0
VERTEX
  8
LAYER-1
 10
3.816306
 20
4.313461
 30
0.000000
  0
SEQEND
  8
LAYER-1
  0
POLYLINE
  8
LAYER-1
 66
  1
 70
  0
 62
  0
 10
5.690439
 20
5.546482
 30
0.000000
  0
VERTEX
  8
LAYER-1
 10
5.690439
 20
5.546482
 30
0.000000
  0
VERTEX
  8
LAYER-1
 10
3.815439
 20
5.546482
 30
0.000000
  0
SEQEND
  8
LAYER-1
  0
POLYLINE
  8
LAYER-1
 66
  1
 70
  0
 62
  0
 10
3.816306
 20
6.779850
 30
0.000000
  0
VERTEX
  8
LAYER-1
 10
3.816306
 20
6.779850
 30
0.000000
  0
VERTEX
  8
LAYER-1
 10
5.689570
 20
6.779850
 30
0.000000
  0
SEQEND
  8
LAYER-1
  0
POLYLINE
  8
LAYER-1
 66
  1
 70
  0
 62
  0
 10
0.736610
 20
0.037543
 30
0.000000
  0
VERTEX
  8
LAYER-1
 10
0.736610
 20
0.037543
 30
0.000000
  0
VERTEX
  8
LAYER-1
 10
0.763089
 20
0.034087
 30
0.000000
  0
VERTEX
  8
LAYER-1
 10
0.782422
 20
0.034087
 30
0.000000
  0
VERTEX
  8
LAYER-1
 10
0.801756
 20
0.037560
 30
0.000000
  0
VERTEX
  8
LAYER-1
 10
0.821090
 20
0.037560
 30
0.000000
  0
VERTEX
  8
LAYER-1
 10
0.867490
 20
0.044504
 30
0.000000
  0
VERTEX
  8
LAYER-1
 10
0.902291
 20
0.054921
 30
0.000000
  0
VERTEX
  8
LAYER-1
 10
0.924524
 20
0.059261
 30
0.000000
  0
VERTEX
  8
LAYER-1
 10
0.946274
 20
0.060998
 30
0.000000
  0
VERTEX
  8
LAYER-1
 10
0.975758
 20
0.058393
 30
0.000000
  0
VERTEX
  8
LAYER-1
 10
1.006692
 20
0.054921
 30
0.000000
  0
VERTEX
  8
LAYER-1
 10
1.033759
 20
0.047976
 30
0.000000
  0
VERTEX
  8
LAYER-1
 10
1.053092
 20
0.044504
 30
0.000000
  0
VERTEX
  8
LAYER-1
 10
1.084026
 20
0.041032
 30
0.000000
  0
VERTEX
  8
LAYER-1
 10
1.103360
 20
0.037560
 30
0.000000
  0
VERTEX
  8
LAYER-1
 10
1.126560
 20
0.034087
 30
0.000000
  0
VERTEX
  8
LAYER-1
 10
1.153627
 20
0.034087
 30
0.000000
  0
VERTEX
  8
LAYER-1
 10
1.180694
 20
0.034087
 30
0.000000
  0
VERTEX
  8
LAYER-1
 10
1.203894
 20
0.034087
 30
0.000000
  0
VERTEX
  8
LAYER-1
 10
1.227094
 20
0.030615
 30
0.000000
  0
VERTEX
  8
LAYER-1
 10
1.265761
 20
0.030615
 30
0.000000
  0
VERTEX
  8
LAYER-1
 10
1.296695
 20
0.030615
 30
0.000000
  0
VERTEX
  8
LAYER-1
 10
1.316028
 20
0.027143
 30
0.000000
  0
VERTEX
  8
LAYER-1
 10
1.346963
 20
0.023671
 30
0.000000
  0
VERTEX
  8
LAYER-1
 10
1.377896
 20
0.020198
 30
0.000000
  0
VERTEX
  8
LAYER-1
 10
1.416563
 20
0.020198
 30
0.000000
  0
VERTEX
  8
LAYER-1
 10
1.447497
 20
0.020198
 30
0.000000
  0
VERTEX
  8
LAYER-1
 10
1.486164
 20
0.020198
 30
0.000000
  0
VERTEX
  8
LAYER-1
 10
1.517098
 20
0.027143
 30
0.000000
  0
VERTEX
  8
LAYER-1
 10
1.540298
 20
0.027143
 30
0.000000
  0
VERTEX
  8
LAYER-1
 10
1.559631
 20
0.030615
 30
0.000000
  0
VERTEX
  8
LAYER-1
 10
1.582832
 20
0.030615
 30
0.000000
  0
VERTEX
  8
LAYER-1
 10
1.602165
 20
0.030615
 30
0.000000
  0
VERTEX
  8
LAYER-1
 10
1.644699
 20
0.030615
 30
0.000000
  0
VERTEX
  8
LAYER-1
 10
1.691100
 20
0.023671
 30
0.000000
  0
VERTEX
  8
LAYER-1
 10
1.733633
 20
0.020198
 30
0.000000
  0
VERTEX
  8
LAYER-1
 10
1.795501
 20
0.013254
 30
0.000000
  0
VERTEX
  8
LAYER-1
 10
1.853501
 20
0.006310
 30
0.000000
  0
VERTEX
  8
LAYER-1
 10
1.903768
 20
0.006310
 30
0.000000
  0
VERTEX
  8
LAYER-1
 10
1.930836
 20
0.006310
 30
0.000000
  0
VERTEX
  8
LAYER-1
 10
1.965636
 20
0.006310
 30
0.000000
  0
VERTEX
  8
LAYER-1
 10
1.985936
 20
0.007178
 30
0.000000
  0
VERTEX
  8
LAYER-1
 10
2.023153
 20
0.009348
 30
0.000000
  0
VERTEX
  8
LAYER-1
 10
2.070037
 20
0.020198
 30
0.000000
  0
VERTEX
  8
LAYER-1
 10
2.112570
 20
0.034087
 30
0.000000
  0
VERTEX
  8
LAYER-1
 10
2.147371
 20
0.044504
 30
0.000000
  0
VERTEX
  8
LAYER-1
 10
2.174438
 20
0.054921
 30
0.000000
  0
VERTEX
  8
LAYER-1
 10
2.197638
 20
0.061865
 30
0.000000
  0
VERTEX
  8
LAYER-1
 10
2.220838
 20
0.061865
 30
0.000000
  0
VERTEX
  8
LAYER-1
 10
2.244039
 20
0.061865
 30
0.000000
  0
VERTEX
  8
LAYER-1
 10
2.267239
 20
0.061865
 30
0.000000
  0
VERTEX
  8
LAYER-1
 10
2.302039
 20
0.054921
 30
0.000000
  0
VERTEX
  8
LAYER-1
 10
2.332973
 20
0.047976
 30
0.000000
  0
VERTEX
  8
LAYER-1
 10
2.356173
 20
0.041032
 30
0.000000
  0
VERTEX
  8
LAYER-1
 10
2.375507
 20
0.037560
 30
0.000000
  0
VERTEX
  8
LAYER-1
 10
2.398707
 20
0.030615
 30
0.000000
  0
VERTEX
  8
LAYER-1
 10
2.418041
 20
0.023671
 30
0.000000
  0
VERTEX
  8
LAYER-1
 10
2.441241
 20
0.020198
 30
0.000000
  0
VERTEX
  8
LAYER-1
 10
2.460574
 20
0.020198
 30
0.000000
  0
VERTEX
  8
LAYER-1
 10
2.491508
 20
0.016726
 30
0.000000
  0
VERTEX
  8
LAYER-1
 10
2.518575
 20
0.016726
 30
0.000000
  0
VERTEX
  8
LAYER-1
 10
2.553375
 20
0.016726
 30
0.000000
  0
VERTEX
  8
LAYER-1
 10
2.580442
 20
0.020198
 30
0.000000
  0
VERTEX
  8
LAYER-1
 10
2.615242
 20
0.030615
 30
0.000000
  0
VERTEX
  8
LAYER-1
 10
2.634576
 20
0.030615
 30
0.000000
  0
VERTEX
  8
LAYER-1
 10
2.657777
 20
0.030615
 30
0.000000
  0
VERTEX
  8
LAYER-1
 10
2.677110
 20
0.030615
 30
0.000000
  0
VERTEX
  8
LAYER-1
 10
2.700311
 20
0.034087
 30
0.000000
  0
VERTEX
  8
LAYER-1
 10
2.723511
 20
0.037560
 30
0.000000
  0
VERTEX
  8
LAYER-1
 10
2.754445
 20
0.037560
 30
0.000000
  0
VERTEX
  8
LAYER-1
 10
2.785378
 20
0.037560
 30
0.000000
  0
VERTEX
  8
LAYER-1
 10
2.808578
 20
0.037560
 30
0.000000
  0
VERTEX
  8
LAYER-1
 10
2.831779
 20
0.037560
 30
0.000000
  0
VERTEX
  8
LAYER-1
 10
2.851112
 20
0.034087
 30
0.000000
  0
VERTEX
  8
LAYER-1
 10
2.870446
 20
0.030615
 30
0.000000
  0
VERTEX
  8
LAYER-1
 10
2.889779
 20
0.027143
 30
0.000000
  0
VERTEX
  8
LAYER-1
 10
2.909113
 20
0.023671
 30
0.000000
  0
VERTEX
  8
LAYER-1
 10
2.940047
 20
0.016726
 30
0.000000
  0
VERTEX
  8
LAYER-1
 10
2.963247
 20
0.013254
 30
0.000000
  0
VERTEX
  8
LAYER-1
 10
2.986447
 20
0.013254
 30
0.000000
  0
VERTEX
  8
LAYER-1
 10
3.005780
 20
0.013254
 30
0.000000
  0
VERTEX
  8
LAYER-1
 10
3.032847
 20
0.013254
 30
0.000000
  0
VERTEX
  8
LAYER-1
 10
3.063781
 20
0.016726
 30
0.000000
  0
VERTEX
  8
LAYER-1
 10
3.117916
 20
0.027143
 30
0.000000
  0
VERTEX
  8
LAYER-1
 10
3.164316
 20
0.037560
 30
0.000000
  0
VERTEX
  8
LAYER-1
 10
3.206849
 20
0.044504
 30
0.000000
  0
VERTEX
  8
LAYER-1
 10
3.237783
 20
0.047976
 30
0.000000
  0
VERTEX
  8
LAYER-1
 10
3.276450
 20
0.051448
 30
0.000000
  0
VERTEX
  8
LAYER-1
 10
3.307384
 20
0.054921
 30
0.000000
  0
VERTEX
  8
LAYER-1
 10
3.333001
 20
0.055789
 30
0.000000
  0
VERTEX
  8
LAYER-1
 10
3.350400
 20
0.053619
 30
0.000000
  0
VERTEX
  8
LAYER-1
 10
3.371668
 20
0.048844
 30
0.000000
  0
VERTEX
  8
LAYER-1
 10
3.392452
 20
0.037560
 30
0.000000
  0
VERTEX
  8
LAYER-1
 10
3.415652
 20
0.034087
 30
0.000000
  0
VERTEX
  8
LAYER-1
 10
3.434986
 20
0.034087
 30
0.000000
  0
VERTEX
  8
LAYER-1
 10
3.454319
 20
0.034087
 30
0.000000
  0
VERTEX
  8
LAYER-1
 10
3.473653
 20
0.034087
 30
0.000000
  0
VERTEX
  8
LAYER-1
 10
3.504588
 20
0.034087
 30
0.000000
  0
VERTEX
  8
LAYER-1
 10
3.527788
 20
0.034087
 30
0.000000
  0
VERTEX
  8
LAYER-1
 10
3.550988
 20
0.034087
 30
0.000000
  0
VERTEX
  8
LAYER-1
 10
3.570322
 20
0.034087
 30
0.000000
  0
VERTEX
  8
LAYER-1
 10
3.593522
 20
0.034087
 30
0.000000
  0
VERTEX
  8
LAYER-1
 10
3.616722
 20
0.034087
 30
0.000000
  0
VERTEX
  8
LAYER-1
 10
3.636056
 20
0.034087
 30
0.000000
  0
VERTEX
  8
LAYER-1
 10
3.663122
 20
0.034087
 30
0.000000
  0
VERTEX
  8
LAYER-1
 10
3.686322
 20
0.030615
 30
0.000000
  0
VERTEX
  8
LAYER-1
 10
3.708556
 20
0.022803
 30
0.000000
  0
VERTEX
  8
LAYER-1
 10
3.749157
 20
0.020198
 30
0.000000
  0
VERTEX
  8
LAYER-1
 10
3.786857
 20
0.023671
 30
0.000000
  0
VERTEX
  8
LAYER-1
 10
3.806190
 20
0.030615
 30
0.000000
  0
VERTEX
  8
LAYER-1
 10
3.829391
 20
0.037560
 30
0.000000
  0
VERTEX
  8
LAYER-1
 10
3.849208
 20
0.041467
 30
0.000000
  0
VERTEX
  8
LAYER-1
 10
3.871925
 20
0.047976
 30
0.000000
  0
VERTEX
  8
LAYER-1
 10
3.895125
 20
0.047976
 30
0.000000
  0
VERTEX
  8
LAYER-1
 10
3.918325
 20
0.044504
 30
0.000000
  0
VERTEX
  8
LAYER-1
 10
3.941527
 20
0.044504
 30
0.000000
  0
VERTEX
  8
LAYER-1
 10
3.964726
 20
0.044504
 30
0.000000
  0
VERTEX
  8
LAYER-1
 10
3.984060
 20
0.041032
 30
0.000000
  0
VERTEX
  8
LAYER-1
 10
4.011127
 20
0.041032
 30
0.000000
  0
VERTEX
  8
LAYER-1
 10
4.042060
 20
0.041032
 30
0.000000
  0
VERTEX
  8
LAYER-1
 10
4.072994
 20
0.047976
 30
0.000000
  0
VERTEX
  8
LAYER-1
 10
4.092328
 20
0.051448
 30
0.000000
  0
VERTEX
  8
LAYER-1
 10
4.119395
 20
0.051448
 30
0.000000
  0
VERTEX
  8
LAYER-1
 10
4.142596
 20
0.054921
 30
0.000000
  0
VERTEX
  8
LAYER-1
 10
4.173528
 20
0.058393
 30
0.000000
  0
VERTEX
  8
LAYER-1
 10
4.196729
 20
0.058393
 30
0.000000
  0
VERTEX
  8
LAYER-1
 10
4.227663
 20
0.054921
 30
0.000000
  0
VERTEX
  8
LAYER-1
 10
4.270197
 20
0.044504
 30
0.000000
  0
VERTEX
  8
LAYER-1
 10
4.301130
 20
0.034087
 30
0.000000
  0
VERTEX
  8
LAYER-1
 10
4.335930
 20
0.023671
 30
0.000000
  0
VERTEX
  8
LAYER-1
 10
4.378948
 20
0.016725
 30
0.000000
  0
VERTEX
  8
LAYER-1
 10
4.426315
 20
0.017593
 30
0.000000
  0
VERTEX
  8
LAYER-1
 10
4.481415
 20
0.020198
 30
0.000000
  0
VERTEX
  8
LAYER-1
 10
4.548599
 20
0.020198
 30
0.000000
  0
VERTEX
  8
LAYER-1
 10
4.594034
 20
0.008913
 30
0.000000
  0
VERTEX
  8
LAYER-1
 10
4.624000
 20
0.002836
 30
0.000000
  0
VERTEX
  8
LAYER-1
 10
4.647201
 20
0.001968
 30
0.000000
  0
VERTEX
  8
LAYER-1
 10
4.682001
 20
0.001969
 30
0.000000
  0
VERTEX
  8
LAYER-1
 10
4.707135
 20
0.006310
 30
0.000000
  0
VERTEX
  8
LAYER-1
 10
4.734202
 20
0.016726
 30
0.000000
  0
VERTEX
  8
LAYER-1
 10
4.769002
 20
0.023671
 30
0.000000
  0
VERTEX
  8
LAYER-1
 10
4.796069
 20
0.030615
 30
0.000000
  0
VERTEX
  8
LAYER-1
 10
4.819270
 20
0.034087
 30
0.000000
  0
VERTEX
  8
LAYER-1
 10
4.842469
 20
0.037560
 30
0.000000
  0
VERTEX
  8
LAYER-1
 10
4.869536
 20
0.041032
 30
0.000000
  0
VERTEX
  8
LAYER-1
 10
4.896603
 20
0.047976
 30
0.000000
  0
VERTEX
  8
LAYER-1
 10
4.915937
 20
0.051448
 30
0.000000
  0
VERTEX
  8
LAYER-1
 10
4.946870
 20
0.054921
 30
0.000000
  0
VERTEX
  8
LAYER-1
 10
4.970071
 20
0.061865
 30
0.000000
  0
VERTEX
  8
LAYER-1
 10
4.993754
 20
0.072717
 30
0.000000
  0
VERTEX
  8
LAYER-1
 10
5.016471
 20
0.079226
 30
0.000000
  0
VERTEX
  8
LAYER-1
 10
5.039672
 20
0.079226
 30
0.000000
  0
VERTEX
  8
LAYER-1
 10
5.066739
 20
0.079226
 30
0.000000
  0
VERTEX
  8
LAYER-1
 10
5.093806
 20
0.079226
 30
0.000000
  0
VERTEX
  8
LAYER-1
 10
5.132473
 20
0.075754
 30
0.000000
  0
VERTEX
  8
LAYER-1
 10
5.186607
 20
0.072282
 30
0.000000
  0
VERTEX
  8
LAYER-1
 10
5.229141
 20
0.072282
 30
0.000000
  0
VERTEX
  8
LAYER-1
 10
5.260074
 20
0.072282
 30
0.000000
  0
VERTEX
  8
LAYER-1
 10
5.283274
 20
0.072282
 30
0.000000
  0
VERTEX
  8
LAYER-1
 10
5.306475
 20
0.072282
 30
0.000000
  0
VERTEX
  8
LAYER-1
 10
5.337408
 20
0.075754
 30
0.000000
  0
VERTEX
  8
LAYER-1
 10
5.376076
 20
0.075754
 30
0.000000
  0
VERTEX
  8
LAYER-1
 10
5.407009
 20
0.075754
 30
0.000000
  0
VERTEX
  8
LAYER-1
 10
5.430210
 20
0.079226
 30
0.000000
  0
VERTEX
  8
LAYER-1
 10
5.461143
 20
0.079226
 30
0.000000
  0
VERTEX
  8
LAYER-1
 10
5.480477
 20
0.079226
 30
0.000000
  0
VERTEX
  8
LAYER-1
 10
5.511410
 20
0.070546
 30
0.000000
  0
VERTEX
  8
LAYER-1
 10
5.538477
 20
0.058393
 30
0.000000
  0
VERTEX
  8
LAYER-1
 10
5.573277
 20
0.044504
 30
0.000000
  0
VERTEX
  8
LAYER-1
 10
5.600344
 20
0.037560
 30
0.000000
  0
VERTEX
  8
LAYER-1
 10
5.631279
 20
0.030615
 30
0.000000
  0
VERTEX
  8
LAYER-1
 10
5.658829
 20
0.028445
 30
0.000000
  0
VERTEX
  8
LAYER-1
 10
5.685412
 20
0.027143
 30
0.000000
  0
VERTEX
  8
LAYER-1
 10
5.708613
 20
0.030615
 30
0.000000
  0
VERTEX
  8
LAYER-1
 10
5.731812
 20
0.037560
 30
0.000000
  0
VERTEX
  8
LAYER-1
 10
5.758881
 20
0.041032
 30
0.000000
  0
VERTEX
  8
LAYER-1
 10
5.782079
 20
0.044504
 30
0.000000
  0
VERTEX
  8
LAYER-1
 10
5.805280
 20
0.047976
 30
0.000000
  0
VERTEX
  8
LAYER-1
 10
5.824613
 20
0.051448
 30
0.000000
  0
VERTEX
  8
LAYER-1
 10
5.847814
 20
0.051448
 30
0.000000
  0
VERTEX
  8
LAYER-1
 10
5.874881
 20
0.051448
 30
0.000000
  0
VERTEX
  8
LAYER-1
 10
5.894698
 20
0.054053
 30
0.000000
  0
VERTEX
  8
LAYER-1
 10
5.921282
 20
0.058393
 30
0.000000
  0
VERTEX
  8
LAYER-1
 10
5.944482
 20
0.065337
 30
0.000000
  0
VERTEX
  8
LAYER-1
 10
5.975415
 20
0.065337
 30
0.000000
  0
VERTEX
  8
LAYER-1
 10
6.006349
 20
0.065337
 30
0.000000
  0
VERTEX
  8
LAYER-1
 10
6.025683
 20
0.065337
 30
0.000000
  0
VERTEX
  8
LAYER-1
 10
6.079816
 20
0.058393
 30
0.000000
  0
VERTEX
  8
LAYER-1
 10
6.110750
 20
0.051448
 30
0.000000
  0
VERTEX
  8
LAYER-1
 10
6.130083
 20
0.047976
 30
0.000000
  0
VERTEX
  8
LAYER-1
 10
6.164884
 20
0.047976
 30
0.000000
  0
VERTEX
  8
LAYER-1
 10
6.188568
 20
0.055355
 30
0.000000
  0
VERTEX
  8
LAYER-1
 10
6.210318
 20
0.056223
 30
0.000000
  0
VERTEX
  8
LAYER-1
 10
6.262035
 20
0.063167
 30
0.000000
  0
VERTEX
  8
LAYER-1
 10
6.310369
 20
0.073150
 30
0.000000
  0
VERTEX
  8
LAYER-1
 10
6.346620
 20
0.076623
 30
0.000000
  0
VERTEX
  8
LAYER-1
 10
6.379487
 20
0.077056
 30
0.000000
  0
VERTEX
  8
LAYER-1
 10
6.396403
 20
0.072282
 30
0.000000
  0
VERTEX
  8
LAYER-1
 10
6.414769
 20
0.068810
 30
0.000000
  0
VERTEX
  8
LAYER-1
 10
6.445704
 20
0.063601
 30
0.000000
  0
VERTEX
  8
LAYER-1
 10
6.485821
 20
0.071848
 30
0.000000
  0
VERTEX
  8
LAYER-1
 10
6.501288
 20
0.079226
 30
0.000000
  0
VERTEX
  8
LAYER-1
 10
6.524488
 20
0.079226
 30
0.000000
  0
VERTEX
  8
LAYER-1
 10
6.547688
 20
0.079226
 30
0.000000
  0
VERTEX
  8
LAYER-1
 10
6.574755
 20
0.072282
 30
0.000000
  0
VERTEX
  8
LAYER-1
 10
6.597956
 20
0.058393
 30
0.000000
  0
VERTEX
  8
LAYER-1
 10
6.625022
 20
0.047976
 30
0.000000
  0
VERTEX
  8
LAYER-1
 10
6.652089
 20
0.037560
 30
0.000000
  0
VERTEX
  8
LAYER-1
 10
6.675290
 20
0.037560
 30
0.000000
  0
VERTEX
  8
LAYER-1
 10
6.705311
 20
0.037543
 30
0.000000
  0
VERTEX
  8
LAYER-1
 10
6.729424
 20
0.047976
 30
0.000000
  0
SEQEND
  8
LAYER-1
  0
POLYLINE
  8
LAYER-1
 66
  1
 70
  0
 62
  0
 10
5.803193
 20
0.468114
 30
0.000000
  0
VERTEX
  8
LAYER-1
 10
5.803193
 20
0.468114
 30
0.000000
  0
VERTEX
  8
LAYER-1
 10
3.739326
 20
0.158535
 30
0.000000
  0
SEQEND
  8
LAYER-1
  0
POLYLINE
  8
LAYER-1
 66
  1
 70
  1
 62
  0
  0
VERTEX
  8
LAYER-1
 10
3.719859
 20
0.155614
 30
0.000000
  0
VERTEX
  8
LAYER-1
 10
3.782354
 20
0.207121
 30
0.000000
  0
VERTEX
  8
LAYER-1
 10
3.788535
 20
0.165916
 30
0.000000
  0
VERTEX
  8
LAYER-1
 10
3.794716
 20
0.124710
 30
0.000000
  0
VERTEX
  8
LAYER-1
 10
3.719859
 20
0.155614
 30
0.000000
  0
SEQEND
  8
LAYER-1
  0
TEXT
  8
LAYER-1
 62
  0
 10
6.153111
 20
5.930333
 30
0.000000
 40
0.125000
  1
9"
 72
  5
 11
6.375334
 21
5.930333
 31
0.000000
  0
TEXT
  8
LAYER-1
 62
  0
 10
5.930889
 20
5.735888
 30
0.000000
 40
0.125000
  1
229mm
 72
  5
 11
6.597556
 21
5.735888
 31
0.000000
  0
TEXT
  8
LAYER-1
 62
  0
 10
1.778111
 20
8.527555
 30
0.000000
 40
0.125000
  1
APERTO
 72
  5
 11
2.514222
 21
8.527555
 31
0.000000
  0
LINE
  8
LAYER-1
 62
  0
 10
5.836928
 20
7.465054
 30
0.000000
 11
5.836928
 21
7.197016
 31
0.000000
  0
LINE
  8
LAYER-1
 62
  0
 10
5.753806
 20
7.465054
 30
0.000000
 11
5.961928
 21
7.465054
 31
0.000000
  0
LINE
  8
LAYER-1
 62
  0
 10
5.759670
 20
7.197016
 30
0.000000
 11
5.961928
 21
7.197016
 31
0.000000
  0
LINE
  8
LAYER-1
 62
  0
 10
5.866391
 20
7.435591
 30
0.000000
 11
5.807465
 21
7.494517
 31
0.000000
  0
LINE
  8
LAYER-1
 62
  0
 10
5.866391
 20
7.167553
 30
0.000000
 11
5.807465
 21
7.226478
 31
0.000000
  0
TEXT
  8
LAYER-1
 62
  0
 10
5.714365
 20
7.322882
 30
0.000000
 40
0.125000
  1
 
 50
90.000000
  0
TEXT
  8
LAYER-1
 62
  0
 10
6.153111
 20
7.346999
 30
0.000000
 40
0.125000
  1
4"
 72
  5
 11
6.375334
 21
7.346999
 31
0.000000
  0
TEXT
  8
LAYER-1
 62
  0
 10
5.930889
 20
7.152555
 30
0.000000
 40
0.125000
  1
102mm
 72
  5
 11
6.597556
 21
7.152555
 31
0.000000
  0
LINE
  8
LAYER-1
 62
  0
 10
4.443698
 20
7.728265
 30
0.000000
 11
4.853420
 21
7.728265
 31
0.000000
  0
LINE
  8
LAYER-1
 62
  0
 10
4.443698
 20
7.358474
 30
0.000000
 11
4.443698
 21
7.853265
 31
0.000000
  0
LINE
  8
LAYER-1
 62
  0
 10
4.853420
 20
7.356738
 30
0.000000
 11
4.853420
 21
7.853265
 31
0.000000
  0
LINE
  8
LAYER-1
 62
  0
 10
4.473161
 20
7.757727
 30
0.000000
 11
4.414235
 21
7.698802
 31
0.000000
  0
LINE
  8
LAYER-1
 62
  0
 10
4.882883
 20
7.757727
 30
0.000000
 11
4.823958
 21
7.698802
 31
0.000000
  0
TEXT
  8
LAYER-1
 62
  0
 10
4.640207
 20
7.852467
 30
0.000000
 40
0.125000
  1
 
  0
TEXT
  8
LAYER-1
 62
  0
 10
4.514222
 20
8.096999
 30
0.000000
 40
0.125000
  1
6"
 72
  5
 11
4.736445
 21
8.096999
 31
0.000000
  0
TEXT
  8
LAYER-1
 62
  0
 10
4.292000
 20
7.902555
 30
0.000000
 40
0.125000
  1
152mm
 72
  5
 11
4.958667
 21
7.902555
 31
0.000000
  0
TEXT
  8
LAYER-1
 62
  0
 10
5.819778
 20
0.541444
 30
0.000000
 40
0.125000
  1
Vano
 72
  5
 11
6.278111
 21
0.541444
 31
0.000000
  0
TEXT
  8
LAYER-1
 62
  0
 10
5.819778
 20
0.346999
 30
0.000000
 40
0.125000
  1
antipolvere
 72
  5
 11
6.722556
 21
0.346999
 31
0.000000
  0
ENDSEC
  0
EOF
